999
DXF file: 001-m36025-p-1.dxf
999
Pro/ENGINEER 2020454 by Parametric Technology Corporation
  0
SECTION
  2
HEADER
  9
$ACADVER
  1
AC1015
  9
$DWGCODEPAGE
  3
ANSI_1252
  9
$EXTMAX
 10
297.0
 20
210.0
 30
0.0
  9
$EXTMIN
 10
0.0
 20
0.0
 30
0.0
  9
$LIMMIN
 10
0.0
 20
0.0
  9
$LIMMAX
 10
297.0
 20
210.0
  9
$VIEWCTR
 10
148.5
 20
105.0
  9
$VIEWSIZE
 40
210.0
  9
$CLAYER
  8
0
  9
$LTSCALE
 40
16.335
  9
$CELTYPE
  6
BYLAYER
  9
$DIMSCALE
 40
1.0
  9
$DIMASZ
 40
3.5
  9
$DIMEXO
 40
1.5
  9
$DIMDLI
 40
11.286
  9
$DIMEXE
 40
1.5
  9
$DIMCEN
 40
2.673
  9
$DIMLFAC
 40
1.0
  9
$DIMBLK
  1
_FILLED
  9
$DIMALT
 70
0
  9
$DIMALTF
 40
0.0393700787
  9
$DIMTXT
 40
3.5
  9
$DIMTOL
 70
1
  9
$DIMLIM
 70
0
  9
$DIMTFAC
 40
1.0
  9
$DIMTP
 40
0.05
  9
$DIMTM
 40
0.05
  9
$DIMGAP
 40
0.625
  9
$DIMDSEP
 70
46
  9
$AUNITS
 70
0
  9
$PDMODE
 70
3
  9
$PDSIZE
 40
0.3125
  9
$HANDSEED
  5
647
  9
$TILEMODE
 70
1
  9
$MEASUREMENT
 70
1
  9
$INSUNITS
 70
4
  0
ENDSEC
  0
SECTION
  2
CLASSES
  0
CLASS
  1
ACDBDICTIONARYWDFLT
  2
AcDbDictionaryWithDefault
  3
AutoCAD 2000
 90
0
280
0
281
0
  0
CLASS
  1
ACDBPLACEHOLDER
  2
AcDbPlaceHolder
  3
AutoCAD 2000
 90
0
280
0
281
0
  0
CLASS
  1
LAYOUT
  2
AcDbLayout
  3
AutoCAD 2000
 90
0
280
0
281
0
  0
ENDSEC
  0
SECTION
  2
TABLES
  0
TABLE
  2
VPORT
  5
8
100
AcDbSymbolTable
 70
2
  0
VPORT
  5
1F4
100
AcDbSymbolTableRecord
100
AcDbViewportTableRecord
  2
*ACTIVE
 70
0
 10
0.0
 20
0.0
 11
1.0
 21
1.0
 12
148.5
 22
105.0
 13
0.0
 23
0.0
 14
1.0
 24
1.0
 15
0.0
 25
0.0
 16
0.0
 26
0.0
 36
1.0
 17
0.0
 27
0.0
 37
0.0
 40
210.0
 41
1.4142857143
 42
50.0
 43
0.0
 44
0.0
 50
0.0
 51
0.0
 71
0
 72
100
 73
1
 74
1
 75
0
 76
0
 77
0
 78
0
  0
ENDTAB
  0
TABLE
  2
LTYPE
  5
5
100
AcDbSymbolTable
 70
6
  0
LTYPE
  5
14
100
AcDbSymbolTableRecord
100
AcDbLinetypeTableRecord
  2
BYBLOCK
 70
0
  3

 72
65
 73
0
 40
0.0
  0
LTYPE
  5
15
100
AcDbSymbolTableRecord
100
AcDbLinetypeTableRecord
  2
BYLAYER
 70
0
  3

 72
65
 73
0
 40
0.0
  0
LTYPE
  5
16
100
AcDbSymbolTableRecord
100
AcDbLinetypeTableRecord
  2
CONTINUOUS
 70
64
  3
Solid line
 72
65
 73
0
 40
0.0
  0
LTYPE
  5
1F5
100
AcDbSymbolTableRecord
100
AcDbLinetypeTableRecord
  2
CENTER
 70
64
  3
____ _ ____ _ ____ _ ____ _ ____ _ ____ _ ____
 72
65
 73
4
 40
0.6
 49
0.375
 74
0
 49
-0.075
 74
0
 49
0.075
 74
0
 49
-0.075
 74
0
  0
LTYPE
  5
1F6
100
AcDbSymbolTableRecord
100
AcDbLinetypeTableRecord
  2
HIDDEN
 70
64
  3
- - - - - - - - - - - - - - - - - - - -
 72
65
 73
2
 40
0.2
 49
0.1
 74
0
 49
-0.1
 74
0
  0
LTYPE
  5
1F7
100
AcDbSymbolTableRecord
100
AcDbLinetypeTableRecord
  2
PHANTOM
 70
64
  3
_____ _ _ _____ _ _ _____ _ _ _____
 72
65
 73
6
 40
0.8
 49
0.45
 74
0
 49
-0.05
 74
0
 49
0.1
 74
0
 49
-0.05
 74
0
 49
0.1
 74
0
 49
-0.05
 74
0
  0
LTYPE
  5
1F8
100
AcDbSymbolTableRecord
100
AcDbLinetypeTableRecord
  2
DOT
 70
64
  3
. . . . . . . . . . . . . . . . . . . .
 72
65
 73
2
 40
0.2
 49
0.1
 74
0
 49
-0.1
 74
0
  0
LTYPE
  5
1F9
100
AcDbSymbolTableRecord
100
AcDbLinetypeTableRecord
  2
DASHED
 70
64
  3
- - - - - - - - - - - - - - - - - - - -
 72
65
 73
2
 40
0.2
 49
0.1
 74
0
 49
-0.1
 74
0
  0
ENDTAB
  0
TABLE
  2
LAYER
  5
2
100
AcDbSymbolTable
 70
36
  0
LAYER
  5
10
100
AcDbSymbolTableRecord
100
AcDbLayerTableRecord
  2
0
 70
0
 62
7
  6
CONTINUOUS
370
-3
390
F
  0
LAYER
  5
1FA
100
AcDbSymbolTableRecord
100
AcDbLayerTableRecord
  2
DEFAULT_1
 70
0
 62
7
  6
CENTER
370
-3
390
F
  0
LAYER
  5
1FB
100
AcDbSymbolTableRecord
100
AcDbLayerTableRecord
  2
DEFAULT_2
 70
0
 62
8
  6
HIDDEN
370
-3
390
F
  0
LAYER
  5
1FC
100
AcDbSymbolTableRecord
100
AcDbLayerTableRecord
  2
DEFAULT_3
 70
0
 62
7
  6
PHANTOM
370
-3
390
F
  0
LAYER
  5
1FD
100
AcDbSymbolTableRecord
100
AcDbLayerTableRecord
  2
AUSFORMSCHRAEGEN
 70
0
 62
7
  6
CONTINUOUS
370
-3
390
F
  0
LAYER
  5
1FE
100
AcDbSymbolTableRecord
100
AcDbLayerTableRecord
  2
BEZUGSACHSEN
 70
0
 62
7
  6
CONTINUOUS
370
-3
390
F
  0
LAYER
  5
1FF
100
AcDbSymbolTableRecord
100
AcDbLayerTableRecord
  2
BEZUGSEBENEN
 70
0
 62
7
  6
CONTINUOUS
370
-3
390
F
  0
LAYER
  5
200
100
AcDbSymbolTableRecord
100
AcDbLayerTableRecord
  2
BG_STARTBEZUEGE
 70
0
 62
7
  6
CONTINUOUS
370
-3
390
F
  0
LAYER
  5
201
100
AcDbSymbolTableRecord
100
AcDbLayerTableRecord
  2
FASEN
 70
0
 62
7
  6
CONTINUOUS
370
-3
390
F
  0
LAYER
  5
202
100
AcDbSymbolTableRecord
100
AcDbLayerTableRecord
  2
GEWINDE
 70
0
 62
7
  6
CONTINUOUS
370
-3
390
F
  0
LAYER
  5
203
100
AcDbSymbolTableRecord
100
AcDbLayerTableRecord
  2
HILFEN
 70
0
 62
7
  6
CONTINUOUS
370
-3
390
F
  0
LAYER
  5
204
100
AcDbSymbolTableRecord
100
AcDbLayerTableRecord
  2
KONSTRUKTIONSELEMENTE
 70
0
 62
7
  6
CONTINUOUS
370
-3
390
F
  0
LAYER
  5
205
100
AcDbSymbolTableRecord
100
AcDbLayerTableRecord
  2
KURVEN
 70
0
 62
7
  6
CONTINUOUS
370
-3
390
F
  0
LAYER
  5
206
100
AcDbSymbolTableRecord
100
AcDbLayerTableRecord
  2
NORM
 70
0
 62
7
  6
CONTINUOUS
370
-3
390
F
  0
LAYER
  5
207
100
AcDbSymbolTableRecord
100
AcDbLayerTableRecord
  2
PLATZIERUNG
 70
0
 62
7
  6
CONTINUOUS
370
-3
390
F
  0
LAYER
  5
208
100
AcDbSymbolTableRecord
100
AcDbLayerTableRecord
  2
PLAZIERUNG
 70
0
 62
7
  6
CONTINUOUS
370
-3
390
F
  0
LAYER
  5
209
100
AcDbSymbolTableRecord
100
AcDbLayerTableRecord
  2
RUNDUNGEN
 70
0
 62
7
  6
CONTINUOUS
370
-3
390
F
  0
LAYER
  5
20A
100
AcDbSymbolTableRecord
100
AcDbLayerTableRecord
  2
TEIL_STARTBEZUEGE
 70
0
 62
7
  6
CONTINUOUS
370
-3
390
F
  0
LAYER
  5
20B
100
AcDbSymbolTableRecord
100
AcDbLayerTableRecord
  2
T_STARTBEZUEGE
 70
0
 62
7
  6
CONTINUOUS
370
-3
390
F
  0
LAYER
  5
20C
100
AcDbSymbolTableRecord
100
AcDbLayerTableRecord
  2
ZEICHNUNGSBEMASSUNGEN
 70
0
 62
7
  6
CONTINUOUS
370
-3
390
F
  0
LAYER
  5
20D
100
AcDbSymbolTableRecord
100
AcDbLayerTableRecord
  2
_30_VOLUMEN
 70
0
 62
7
  6
CONTINUOUS
370
-3
390
F
  0
ENDTAB
  0
TABLE
  2
STYLE
  5
3
100
AcDbSymbolTable
 70
1
  0
STYLE
  5
11
100
AcDbSymbolTableRecord
100
AcDbTextStyleTableRecord
  2
STANDARD
 70
0
 40
0.0
 41
0.7
 50
0.0
 71
0
 42
0.2
  3
txt
  4

  0
STYLE
  5
20E
100
AcDbSymbolTableRecord
100
AcDbTextStyleTableRecord
  2
TEXTSTYLE_1
 70
0
 40
0.0
 41
0.8
 50
0.0
 71
0
 42
0.2
  3
gdt
  4

  0
ENDTAB
  0
TABLE
  2
VIEW
  5
6
100
AcDbSymbolTable
 70
0
  0
ENDTAB
  0
TABLE
  2
UCS
  5
7
100
AcDbSymbolTable
 70
0
  0
ENDTAB
  0
TABLE
  2
APPID
  5
9
100
AcDbSymbolTable
 70
1
  0
APPID
  5
20F
100
AcDbSymbolTableRecord
100
AcDbRegAppTableRecord
  2
ACAD
 70
0
  0
ENDTAB
  0
TABLE
  2
BLOCK_RECORD
  5
1
100
AcDbSymbolTable
 70
0
  0
BLOCK_RECORD
  5
210
100
AcDbSymbolTableRecord
100
AcDbBlockTableRecord
  2
*Model_Space
  0
BLOCK_RECORD
  5
211
100
AcDbSymbolTableRecord
100
AcDbBlockTableRecord
  2
*Paper_Space
  0
BLOCK_RECORD
  5
212
100
AcDbSymbolTableRecord
100
AcDbBlockTableRecord
  2
_FILLED
  0
ENDTAB
  0
TABLE
  2
DIMSTYLE
  5
A
100
AcDbSymbolTable
 70
1
100
AcDbDimStyleTable
 71
0
  0
DIMSTYLE
105
213
100
AcDbSymbolTableRecord
100
AcDbDimStyleTableRecord
  2
STANDARD
 70
0
  3

  4

 40
1.0
 41
3.5
 42
1.5
 43
0.38
 44
1.5
 45
0.0
 46
0.0
 47
0.05
 48
0.05
140
3.5
141
0.09
142
0.0
143
25.4
144
1.0
145
0.0
146
1.0
147
0.625
 71
1
 72
0
 73
0
 74
0
 75
0
 76
0
 77
1
 78
8
 79
2
170
0
171
1
172
0
173
0
174
0
175
0
176
0
177
0
178
5
270
2
179
2
271
2
272
2
273
2
274
2
275
0
280
0
281
0
282
0
283
1
284
8
285
0
286
0
287
3
288
0
340
11
278
46
341
212
342
212
343
212
344
212
  0
ENDTAB
  0
ENDSEC
  0
SECTION
  2
BLOCKS
  0
BLOCK
  5
20
100
AcDbEntity
  8
0
100
AcDbBlockBegin
  2
*Model_Space
 70
0
 10
0.0
 20
0.0
 30
0.0
  3
*Model_Space
  1

  0
ENDBLK
  5
21
100
AcDbEntity
  8
0
100
AcDbBlockEnd
  0
BLOCK
  5
1C
100
AcDbEntity
  8
0
100
AcDbBlockBegin
  2
*Paper_Space
 70
0
 10
0.0
 20
0.0
 30
0.0
  3
*Paper_Space
  1

  0
ENDBLK
  5
1D
100
AcDbEntity
  8
0
100
AcDbBlockEnd
  0
BLOCK
  5
214
100
AcDbEntity
  8
0
100
AcDbBlockBegin
  2
_FILLED
 70
64
 10
0.0
 20
0.0
  3
_FILLED
  1

  0
SOLID
  5
215
100
AcDbEntity
  8
0
  6
BYBLOCK
 62
0
100
AcDbTrace
 10
0.0
 20
0.0
 11
-1.0
 21
0.125
 12
-1.0
 22
-0.125
 13
-1.0
 23
-0.125
  0
ENDBLK
  5
216
100
AcDbEntity
  8
0
  6
BYBLOCK
 62
0
100
AcDbBlockEnd
  0
ENDSEC
  0
SECTION
  2
ENTITIES
  0
MTEXT
  5
217
100
AcDbEntity
  8
0
100
AcDbMText
 62
5
  6
CONTINUOUS
  7
STANDARD
 71
1
 72
1
 10
94.9647307286
 20
111.6738648363
 30
0.0
 11
1.0
 21
0.0
 31
0.0
 73
2
 44
0.9
  1
RUD
 40
3.5
 41
14.0
  0
MTEXT
  5
218
100
AcDbEntity
  8
0
100
AcDbMText
 62
5
  6
CONTINUOUS
  7
STANDARD
 71
1
 72
1
 10
195.865719113
 20
107.0046821542
 30
0.0
 11
0.0
 21
1.0
 31
0.0
 73
2
 44
0.9
  1
RUD ACP 0,7t M8
 40
3.5
 41
62.25
  0
MTEXT
  5
219
100
AcDbEntity
  8
0
100
AcDbMText
 62
5
  6
CONTINUOUS
  7
STANDARD
 71
1
 72
1
 10
76.9773820486
 20
39.1644667371
 30
0.0
 11
1.0
 21
0.0
 31
0.0
 73
2
 44
0.9
  1
RUD ACP 0,7t M8
 40
3.5
 41
62.25
  0
LINE
  5
21A
100
AcDbEntity
  8
0
100
AcDbLine
 62
7
  6
CONTINUOUS
 10
0.0
 20
0.0
 11
0.0
 21
210.0
  0
LINE
  5
21B
100
AcDbEntity
  8
0
100
AcDbLine
 62
7
  6
CONTINUOUS
 10
0.0
 20
0.0
 11
297.0
 21
0.0
  0
LINE
  5
21C
100
AcDbEntity
  8
0
100
AcDbLine
 62
7
  6
CONTINUOUS
 10
0.0
 20
210.0
 11
297.0
 21
210.0
  0
LINE
  5
21D
100
AcDbEntity
  8
0
100
AcDbLine
 62
7
  6
CONTINUOUS
 10
297.0
 20
0.0
 11
297.0
 21
210.0
  0
LINE
  5
21E
100
AcDbEntity
  8
BEZUGSACHSEN
100
AcDbLine
 62
7
  6
CONTINUOUS
 10
96.1869837816
 20
79.3031477656
 11
102.1869837816
 21
79.3031477656
  0
LINE
  5
21F
100
AcDbEntity
  8
BEZUGSACHSEN
100
AcDbLine
 62
7
  6
CONTINUOUS
 10
95.1869837816
 20
80.3031477656
 11
103.1869837816
 21
80.3031477656
  0
LINE
  5
220
100
AcDbEntity
  8
RUNDUNGEN
100
AcDbLine
 62
7
  6
CONTINUOUS
 10
97.8278018355
 20
180.5791566994
 11
82.7472915987
 21
174.7902911895
  0
LINE
  5
221
100
AcDbEntity
  8
0
100
AcDbLine
 62
7
  6
CONTINUOUS
 10
114.1869837816
 20
90.8031477656
 11
84.1869837816
 21
90.8031477656
  0
LINE
  5
222
100
AcDbEntity
  8
RUNDUNGEN
100
AcDbLine
 62
7
  6
CONTINUOUS
 10
80.6822845683
 20
172.9952079645
 11
73.6969226357
 21
160.3932814504
  0
LWPOLYLINE
  5
223
100
AcDbEntity
  8
RUNDUNGEN
100
AcDbPolyline
 62
7
  6
CONTINUOUS
 90
22
 70
0
 10
81.7432021267
 20
94.5009085912
 10
81.8443478436
 20
94.5047084911
 10
81.9450120886
 20
94.5153216773
 10
82.0447363497
 20
94.532700847
 10
82.1430667653
 20
94.5567680041
 10
82.2395547271
 20
94.5874144631
 10
82.3337590232
 20
94.6245010105
 10
82.4252502713
 20
94.6678593931
 10
82.5136113076
 20
94.7172927238
 10
82.5984378695
 20
94.772575487
 10
82.6793432315
 20
94.8334561265
 10
82.7559585156
 20
94.8996575668
 10
82.8279332621
 20
94.9708773041
 10
82.8949394436
 20
95.0467908682
 10
82.9566716682
 20
95.1270523949
 10
83.0128477386
 20
95.2112948577
 10
83.0632118751
 20
95.2991342589
 10
83.1075347945
 20
95.3901702335
 10
83.1456142092
 20
95.4839863928
 10
83.1772769881
 20
95.5801545748
 10
83.2023796198
 20
95.6782369507
 10
83.2071878058
 20
95.7008977712
  0
LINE
  5
224
100
AcDbEntity
  8
RUNDUNGEN
100
AcDbLine
 62
7
  6
CONTINUOUS
 10
77.0488693428
 20
94.5008977656
 11
81.7432021267
 21
94.5009085912
  0
LINE
  5
225
100
AcDbEntity
  8
RUNDUNGEN
100
AcDbLine
 62
7
  6
CONTINUOUS
 10
116.636477426
 20
94.5008977656
 11
121.3250982205
 21
94.5008977656
  0
LINE
  5
226
100
AcDbEntity
  8
0
100
AcDbLine
 62
7
  6
CONTINUOUS
 10
114.1869837816
 20
95.9031477656
 11
84.1869837816
 21
95.9031477656
  0
LINE
  5
227
100
AcDbEntity
  8
RUNDUNGEN
100
AcDbLine
 62
7
  6
CONTINUOUS
 10
83.9369837816
 20
96.0531477656
 11
114.4369837816
 21
96.0531477656
  0
LINE
  5
228
100
AcDbEntity
  8
BEZUGSACHSEN
100
AcDbLine
 62
7
  6
CONTINUOUS
 10
95.1869837816
 20
80.3031477656
 11
96.1869837816
 21
79.3031477656
  0
LINE
  5
229
100
AcDbEntity
  8
RUNDUNGEN
100
AcDbLine
 62
7
  6
CONTINUOUS
 10
76.1283644894
 20
95.1101666371
 11
70.6580605776
 21
107.9973950495
  0
LINE
  5
22A
100
AcDbEntity
  8
0
100
AcDbLine
 62
7
  6
CONTINUOUS
 10
78.698221233
 20
105.3335202033
 11
79.8657006661
 21
105.3335202033
  0
LINE
  5
22B
100
AcDbEntity
  8
0
100
AcDbLine
 62
7
  6
CONTINUOUS
 10
79.8657006661
 20
105.9378544314
 11
78.6991792877
 21
105.9378544314
  0
LINE
  5
22C
100
AcDbEntity
  8
0
100
AcDbLine
 62
7
  6
CONTINUOUS
 10
78.5368582783
 20
124.68137514
 11
78.5687017086
 21
124.3084552103
  0
LINE
  5
22D
100
AcDbEntity
  8
0
100
AcDbLine
 62
7
  6
CONTINUOUS
 10
76.8657006661
 20
103.6435453291
 11
76.8657006661
 21
104.2478795572
  0
LINE
  5
22E
100
AcDbEntity
  8
0
100
AcDbLine
 62
7
  6
CONTINUOUS
 10
76.8657006661
 20
107.0191608493
 11
76.8657006661
 21
107.6234950775
  0
LINE
  5
22F
100
AcDbEntity
  8
RUNDUNGEN
100
AcDbLine
 62
7
  6
CONTINUOUS
 10
117.2187574345
 20
110.3658977656
 11
115.6869837816
 21
110.3658977656
  0
LINE
  5
230
100
AcDbEntity
  8
RUNDUNGEN
100
AcDbLine
 62
7
  6
CONTINUOUS
 10
82.6869837816
 20
110.3658977656
 11
81.1552101735
 21
110.3658977656
  0
LINE
  5
231
100
AcDbEntity
  8
0
100
AcDbLine
 62
7
  6
CONTINUOUS
 10
79.3918642828
 20
120.0136401052
 11
77.5468944254
 21
121.5753071035
  0
LINE
  5
232
100
AcDbEntity
  8
0
100
AcDbLine
 62
7
  6
CONTINUOUS
 10
80.4956617568
 20
119.113931913
 11
79.6756751929
 21
119.8080061257
  0
LINE
  5
233
100
AcDbEntity
  8
0
100
AcDbLine
 62
7
  6
CONTINUOUS
 10
77.1058518843
 20
121.3950793303
 11
80.3069837816
 21
118.6508977656
  0
LINE
  5
234
100
AcDbEntity
  8
0
100
AcDbLine
 62
7
  6
CONTINUOUS
 10
78.7581735862
 20
123.8713040467
 11
79.010538242
 21
123.5884978933
  0
LINE
  5
235
100
AcDbEntity
  8
0
100
AcDbLine
 62
7
  6
CONTINUOUS
 10
79.2780307516
 20
124.0194165546
 11
79.1044801885
 21
124.2701074018
  0
LINE
  5
236
100
AcDbEntity
  8
0
100
AcDbLine
 62
7
  6
CONTINUOUS
 10
78.5687017086
 20
124.3084552103
 11
78.7581735862
 21
123.8713040467
  0
LINE
  5
237
100
AcDbEntity
  8
0
100
AcDbLine
 62
7
  6
CONTINUOUS
 10
79.1044801885
 20
124.2701074018
 11
79.0411905489
 21
124.5658552679
  0
LINE
  5
238
100
AcDbEntity
  8
RUNDUNGEN
100
AcDbLine
 62
7
  6
CONTINUOUS
 10
73.2688927305
 20
157.6908069879
 11
78.0747352829
 21
132.9668903851
  0
LINE
  5
239
100
AcDbEntity
  8
0
100
AcDbLine
 62
7
  6
CONTINUOUS
 10
82.6809831384
 20
124.7024570812
 11
82.6491398673
 21
125.0753774609
  0
LINE
  5
23A
100
AcDbEntity
  8
0
100
AcDbLine
 62
7
  6
CONTINUOUS
 10
79.8657006661
 20
105.3335202033
 11
79.8657006661
 21
105.9378544314
  0
LINE
  5
23B
100
AcDbEntity
  8
0
100
AcDbLine
 62
7
  6
CONTINUOUS
 10
80.2657006661
 20
103.6435453291
 11
80.2657006661
 21
104.2478795572
  0
LINE
  5
23C
100
AcDbEntity
  8
0
100
AcDbLine
 62
7
  6
CONTINUOUS
 10
80.2657006661
 20
107.0191608493
 11
80.2657006661
 21
107.6234950775
  0
LINE
  5
23D
100
AcDbEntity
  8
RUNDUNGEN
100
AcDbLine
 62
7
  6
CONTINUOUS
 10
83.1869837816
 20
115.4177120528
 11
83.1869837816
 21
115.2031477656
  0
LINE
  5
23E
100
AcDbEntity
  8
RUNDUNGEN
100
AcDbLine
 62
7
  6
CONTINUOUS
 10
83.1869837816
 20
113.9031477656
 11
83.1869837816
 21
106.1542096971
  0
LINE
  5
23F
100
AcDbEntity
  8
RUNDUNGEN
100
AcDbLine
 62
7
  6
CONTINUOUS
 10
83.1869837816
 20
97.8475827527
 11
83.1869837816
 21
96.0008977656
  0
LINE
  5
240
100
AcDbEntity
  8
0
100
AcDbLine
 62
7
  6
CONTINUOUS
 10
81.9680812719
 20
129.0423289715
 11
81.9525565979
 21
128.7786965016
  0
LINE
  5
241
100
AcDbEntity
  8
0
100
AcDbLine
 62
7
  6
CONTINUOUS
 10
79.0411905489
 20
124.5658552679
 11
79.0881616121
 21
124.9066602429
  0
LINE
  5
242
100
AcDbEntity
  8
0
100
AcDbLine
 62
7
  6
CONTINUOUS
 10
82.1766508195
 20
124.817976973
 11
82.1296799363
 21
124.4771724396
  0
LINE
  5
243
100
AcDbEntity
  8
0
100
AcDbLine
 62
7
  6
CONTINUOUS
 10
78.5368582783
 20
124.68137514
 11
78.6152757307
 21
125.0993526201
  0
LINE
  5
244
100
AcDbEntity
  8
0
100
AcDbLine
 62
7
  6
CONTINUOUS
 10
82.39399627
 20
128.5088320609
 11
82.4724133625
 21
128.9268086578
  0
LINE
  5
245
100
AcDbEntity
  8
RUNDUNGEN
100
AcDbLine
 62
7
  6
CONTINUOUS
 10
70.6179865709
 20
112.5894213809
 11
74.7960038221
 21
122.9303769526
  0
LINE
  5
246
100
AcDbEntity
  8
0
100
AcDbLine
 62
7
  6
CONTINUOUS
 10
80.3448238964
 20
129.3438324521
 11
79.5901118158
 21
127.4916954208
  0
LINE
  5
247
100
AcDbEntity
  8
0
100
AcDbLine
 62
7
  6
CONTINUOUS
 10
77.3574225029
 20
122.0124581567
 11
77.1058518843
 21
121.3950793303
  0
LINE
  5
248
100
AcDbEntity
  8
0
100
AcDbLine
 62
7
  6
CONTINUOUS
 10
78.6152757307
 20
125.0993526201
 11
78.8982926934
 21
125.7939038412
  0
LINE
  5
249
100
AcDbEntity
  8
0
100
AcDbLine
 62
7
  6
CONTINUOUS
 10
80.1728615387
 20
127.7941530288
 11
80.7703416735
 21
129.2604275346
  0
LINE
  5
24A
100
AcDbEntity
  8
0
100
AcDbLine
 62
7
  6
CONTINUOUS
 10
79.0881616121
 20
124.9066602429
 11
79.3711785749
 21
125.601211464
  0
LINE
  5
24B
100
AcDbEntity
  8
RUNDUNGEN
100
AcDbLine
 62
7
  6
CONTINUOUS
 10
77.8318806344
 20
130.6445865476
 11
76.4968489024
 21
127.4902690016
  0
LINE
  5
24C
100
AcDbEntity
  8
0
100
AcDbLine
 62
7
  6
CONTINUOUS
 10
118.8510741564
 20
119.102546767
 11
119.2768375275
 21
119.1846887825
  0
LINE
  5
24D
100
AcDbEntity
  8
RUNDUNGEN
100
AcDbLine
 62
7
  6
CONTINUOUS
 10
113.4369837816
 20
113.9031477656
 11
107.6426325472
 21
113.9031477656
  0
LINE
  5
24E
100
AcDbEntity
  8
RUNDUNGEN
100
AcDbLine
 62
7
  6
CONTINUOUS
 10
90.7312915952
 20
113.9031477656
 11
84.9369837816
 21
113.9031477656
  0
LINE
  5
24F
100
AcDbEntity
  8
0
100
AcDbLine
 62
7
  6
CONTINUOUS
 10
81.780616752
 20
113.9031477656
 11
84.9369837816
 21
113.9031477656
  0
LINE
  5
250
100
AcDbEntity
  8
0
100
AcDbLine
 62
7
  6
CONTINUOUS
 10
113.4369837816
 20
113.9031477656
 11
116.5933508113
 21
113.9031477656
  0
LINE
  5
251
100
AcDbEntity
  8
0
100
AcDbLine
 62
7
  6
CONTINUOUS
 10
81.780616752
 20
115.2031477656
 11
89.5807510932
 21
115.2031477656
  0
LINE
  5
252
100
AcDbEntity
  8
0
100
AcDbLine
 62
7
  6
CONTINUOUS
 10
108.7932164701
 20
115.2031477656
 11
116.5933508113
 21
115.2031477656
  0
LINE
  5
253
100
AcDbEntity
  8
RUNDUNGEN
100
AcDbLine
 62
7
  6
CONTINUOUS
 10
105.9389837816
 20
115.2531477656
 11
92.4349837816
 21
115.2531477656
  0
LINE
  5
254
100
AcDbEntity
  8
RUNDUNGEN
100
AcDbLine
 62
7
  6
CONTINUOUS
 10
89.8913587816
 20
115.2531477656
 11
90.1869837816
 21
115.2531477656
  0
LINE
  5
255
100
AcDbEntity
  8
RUNDUNGEN
100
AcDbLine
 62
7
  6
CONTINUOUS
 10
108.1869837816
 20
115.2531477656
 11
108.4826087816
 21
115.2531477656
  0
LINE
  5
256
100
AcDbEntity
  8
0
100
AcDbLine
 62
7
  6
CONTINUOUS
 10
113.1869837816
 20
115.8031477656
 11
85.1869837816
 21
115.8031477656
  0
LINE
  5
257
100
AcDbEntity
  8
0
100
AcDbLine
 62
7
  6
CONTINUOUS
 10
79.010538242
 20
123.5884978933
 11
79.3731636415
 21
123.3507483172
  0
LINE
  5
258
100
AcDbEntity
  8
0
100
AcDbLine
 62
7
  6
CONTINUOUS
 10
79.5618416167
 20
123.8137824647
 11
79.2780307516
 21
124.0194165546
  0
LINE
  5
259
100
AcDbEntity
  8
0
100
AcDbLine
 62
7
  6
CONTINUOUS
 10
82.1133611247
 20
125.1137248616
 11
81.9083645732
 21
125.2872435553
  0
LINE
  5
25A
100
AcDbEntity
  8
0
100
AcDbLine
 62
7
  6
CONTINUOUS
 10
82.3617559785
 20
129.3318448668
 11
82.1408377118
 21
129.6918235253
  0
LINE
  5
25B
100
AcDbEntity
  8
0
100
AcDbLine
 62
7
  6
CONTINUOUS
 10
82.6491398673
 20
125.0753774609
 11
82.4596677823
 21
125.5125281941
  0
LINE
  5
25C
100
AcDbEntity
  8
0
100
AcDbLine
 62
7
  6
CONTINUOUS
 10
81.8733454231
 20
129.2609047741
 11
81.9680812719
 21
129.0423289715
  0
LINE
  5
25D
100
AcDbEntity
  8
0
100
AcDbLine
 62
7
  6
CONTINUOUS
 10
82.4724133625
 20
128.9268086578
 11
82.3617559785
 21
129.3318448668
  0
LINE
  5
25E
100
AcDbEntity
  8
0
100
AcDbLine
 62
7
  6
CONTINUOUS
 10
82.1766508195
 20
124.817976973
 11
82.1133611247
 21
125.1137248616
  0
LINE
  5
25F
100
AcDbEntity
  8
RUNDUNGEN
100
AcDbLine
 62
7
  6
CONTINUOUS
 10
83.9369837816
 20
112.9031477656
 11
83.9369837816
 21
96.0531477656
  0
LINE
  5
260
100
AcDbEntity
  8
0
100
AcDbLine
 62
7
  6
CONTINUOUS
 10
84.1869837816
 20
95.9031477656
 11
84.1869837816
 21
90.8031477656
  0
LINE
  5
261
100
AcDbEntity
  8
0
100
AcDbLine
 62
7
  6
CONTINUOUS
 10
85.1869837816
 20
119.3031477656
 11
85.1869837816
 21
115.8031477656
  0
LINE
  5
262
100
AcDbEntity
  8
0
100
AcDbLine
 62
7
  6
CONTINUOUS
 10
86.7679015937
 20
115.2031477656
 11
86.7679015937
 21
113.9031477656
  0
LINE
  5
263
100
AcDbEntity
  8
0
100
AcDbLine
 62
7
  6
CONTINUOUS
 10
82.6025658729
 20
124.2844800399
 11
82.6809831384
 21
124.7024570812
  0
LINE
  5
264
100
AcDbEntity
  8
0
100
AcDbLine
 62
7
  6
CONTINUOUS
 10
80.0956352507
 20
126.0258977129
 11
80.2843132258
 21
126.4889318603
  0
LINE
  5
265
100
AcDbEntity
  8
0
100
AcDbLine
 62
7
  6
CONTINUOUS
 10
81.9525565979
 20
128.7786965016
 11
81.3550764631
 21
127.3124219958
  0
LINE
  5
266
100
AcDbEntity
  8
0
100
AcDbLine
 62
7
  6
CONTINUOUS
 10
81.8279623445
 20
127.1197296186
 11
82.39399627
 21
128.5088320609
  0
LINE
  5
267
100
AcDbEntity
  8
0
100
AcDbLine
 62
7
  6
CONTINUOUS
 10
79.9578982308
 20
121.4027426027
 11
79.3918642828
 21
120.0136401052
  0
LINE
  5
268
100
AcDbEntity
  8
0
100
AcDbLine
 62
7
  6
CONTINUOUS
 10
82.0970425484
 20
125.7502777027
 11
81.9083645732
 21
125.2872435553
  0
LINE
  5
269
100
AcDbEntity
  8
0
100
AcDbLine
 62
7
  6
CONTINUOUS
 10
79.6756751929
 20
119.8080061257
 11
80.3046017843
 21
121.3514533022
  0
LINE
  5
26A
100
AcDbEntity
  8
0
100
AcDbLine
 62
7
  6
CONTINUOUS
 10
82.1296799363
 20
124.4771724396
 11
81.8466629735
 21
123.7826212184
  0
LINE
  5
26B
100
AcDbEntity
  8
0
100
AcDbLine
 62
7
  6
CONTINUOUS
 10
80.3069837816
 20
118.6508977656
 11
80.4956617568
 21
119.113931913
  0
LINE
  5
26C
100
AcDbEntity
  8
0
100
AcDbLine
 62
7
  6
CONTINUOUS
 10
81.3761589443
 20
121.2747578608
 11
81.5648369195
 21
121.7377920082
  0
LINE
  5
26D
100
AcDbEntity
  8
0
100
AcDbLine
 62
7
  6
CONTINUOUS
 10
82.3195489101
 20
123.5899288187
 11
82.6025658729
 21
124.2844800399
  0
LINE
  5
26E
100
AcDbEntity
  8
0
100
AcDbLine
 62
7
  6
CONTINUOUS
 10
83.2943849952
 20
125.9822716194
 11
83.4830631503
 21
126.4453062084
  0
LINE
  5
26F
100
AcDbEntity
  8
0
100
AcDbLine
 62
7
  6
CONTINUOUS
 10
80.580869616
 20
129.6975782566
 11
80.3448238964
 21
129.3438324521
  0
LINE
  5
270
100
AcDbEntity
  8
0
100
AcDbLine
 62
7
  6
CONTINUOUS
 10
79.134338593
 20
126.1476500874
 11
78.8982926934
 21
125.7939038412
  0
LINE
  5
271
100
AcDbEntity
  8
0
100
AcDbLine
 62
7
  6
CONTINUOUS
 10
79.3711785749
 20
125.601211464
 11
79.5757780853
 21
125.8777852051
  0
LINE
  5
272
100
AcDbEntity
  8
0
100
AcDbLine
 62
7
  6
CONTINUOUS
 10
80.7703416735
 20
129.2604275346
 11
80.9434949747
 21
129.4598292121
  0
LINE
  5
273
100
AcDbEntity
  8
0
100
AcDbLine
 62
7
  6
CONTINUOUS
 10
117.3526477828
 20
122.8112821852
 11
117.7784113325
 21
122.8934237587
  0
LINE
  5
274
100
AcDbEntity
  8
0
100
AcDbLine
 62
7
  6
CONTINUOUS
 10
119.0895342308
 20
119.6482807098
 11
118.7426801145
 21
119.5980201027
  0
LINE
  5
275
100
AcDbEntity
  8
RUNDUNGEN
100
AcDbLine
 62
7
  6
CONTINUOUS
 10
81.3375656139
 20
116.4358977656
 11
83.0254809315
 21
116.4358977656
  0
LINE
  5
276
100
AcDbEntity
  8
RUNDUNGEN
100
AcDbLine
 62
7
  6
CONTINUOUS
 10
115.3484866318
 20
116.4358977656
 11
117.0363927541
 21
116.4358977656
  0
LINE
  5
277
100
AcDbEntity
  8
0
100
AcDbLine
 62
7
  6
CONTINUOUS
 10
113.1869837816
 20
119.3031477656
 11
85.1869837816
 21
119.3031477656
  0
LINE
  5
278
100
AcDbEntity
  8
KONSTRUKTIONSELEMENTE
100
AcDbLine
 62
7
  6
CONTINUOUS
 10
91.6814302822
 20
119.8031477656
 11
106.6925372811
 21
119.8031477656
  0
LINE
  5
279
100
AcDbEntity
  8
0
100
AcDbLine
 62
7
  6
CONTINUOUS
 10
80.3046017843
 20
121.3514533022
 11
81.3761589443
 21
121.2747578608
  0
LINE
  5
27A
100
AcDbEntity
  8
0
100
AcDbLine
 62
7
  6
CONTINUOUS
 10
77.5468944254
 20
121.5753071035
 11
79.9578982308
 21
121.4027426027
  0
LINE
  5
27B
100
AcDbEntity
  8
0
100
AcDbLine
 62
7
  6
CONTINUOUS
 10
80.5553784555
 20
122.8690173292
 11
80.9808964125
 21
122.7856128533
  0
LINE
  5
27C
100
AcDbEntity
  8
0
100
AcDbLine
 62
7
  6
CONTINUOUS
 10
79.3731636415
 20
123.3507483172
 11
80.5553784555
 21
122.8690173292
  0
LINE
  5
27D
100
AcDbEntity
  8
0
100
AcDbLine
 62
7
  6
CONTINUOUS
 10
80.7440564307
 20
123.3320514767
 11
79.5618416167
 21
123.8137824647
  0
LINE
  5
27E
100
AcDbEntity
  8
0
100
AcDbLine
 62
7
  6
CONTINUOUS
 10
82.4596677823
 20
125.5125281941
 11
82.0970425484
 21
125.7502777027
  0
LINE
  5
27F
100
AcDbEntity
  8
0
100
AcDbLine
 62
7
  6
CONTINUOUS
 10
81.6683486916
 20
129.4344230262
 11
81.8733454231
 21
129.2609047741
  0
LINE
  5
280
100
AcDbEntity
  8
0
100
AcDbLine
 62
7
  6
CONTINUOUS
 10
82.1408377118
 20
129.6918235253
 11
81.9358409803
 21
129.8653417774
  0
LINE
  5
281
100
AcDbEntity
  8
0
100
AcDbLine
 62
7
  6
CONTINUOUS
 10
87.6466125998
 20
113.9031477656
 11
87.6466125998
 21
115.2031477656
  0
LINE
  5
282
100
AcDbEntity
  8
0
100
AcDbLine
 62
7
  6
CONTINUOUS
 10
90.1869837816
 20
115.8031477656
 11
90.1869837816
 21
114.0623050569
  0
LINE
  5
283
100
AcDbEntity
  8
0
100
AcDbLine
 62
7
  6
CONTINUOUS
 10
90.1869837816
 20
96.0531477656
 11
90.1869837816
 21
95.9031477656
  0
LINE
  5
284
100
AcDbEntity
  8
RUNDUNGEN
100
AcDbLine
 62
7
  6
CONTINUOUS
 10
86.7212588841
 20
124.7485356081
 11
83.4054322179
 21
116.5415766185
  0
LINE
  5
285
100
AcDbEntity
  8
0
100
AcDbLine
 62
7
  6
CONTINUOUS
 10
82.0835028237
 20
123.2361821338
 11
82.3195489101
 21
123.5899288187
  0
LINE
  5
286
100
AcDbEntity
  8
0
100
AcDbLine
 62
7
  6
CONTINUOUS
 10
81.8466629735
 20
123.7826212184
 11
81.6420632832
 21
123.5060470358
  0
LINE
  5
287
100
AcDbEntity
  8
0
100
AcDbLine
 62
7
  6
CONTINUOUS
 10
79.4177525969
 20
126.3921088738
 11
79.134338593
 21
126.1476500874
  0
LINE
  5
288
100
AcDbEntity
  8
0
100
AcDbLine
 62
7
  6
CONTINUOUS
 10
117.5911080358
 20
123.357015686
 11
117.2442537409
 21
123.3067555209
  0
LINE
  5
289
100
AcDbEntity
  8
0
100
AcDbLine
 62
7
  6
CONTINUOUS
 10
80.9808964125
 20
122.7856128533
 11
81.3590463204
 21
122.8114958147
  0
LINE
  5
28A
100
AcDbEntity
  8
0
100
AcDbLine
 62
7
  6
CONTINUOUS
 10
81.5648369195
 20
121.7377920082
 11
77.3574225029
 21
122.0124581567
  0
LINE
  5
28B
100
AcDbEntity
  8
0
100
AcDbLine
 62
7
  6
CONTINUOUS
 10
118.4730025306
 20
119.1295520482
 11
118.8510741564
 21
119.102546767
  0
LINE
  5
28C
100
AcDbEntity
  8
0
100
AcDbLine
 62
7
  6
CONTINUOUS
 10
116.9745763356
 20
122.8382870243
 11
117.3526477828
 21
122.8112821852
  0
LINE
  5
28D
100
AcDbEntity
  8
0
100
AcDbLine
 62
7
  6
CONTINUOUS
 10
81.0907600741
 20
123.280762397
 11
80.7440564307
 21
123.3320514767
  0
LINE
  5
28E
100
AcDbEntity
  8
0
100
AcDbLine
 62
7
  6
CONTINUOUS
 10
80.2843132258
 20
126.4889318603
 11
79.858795048
 21
126.5723364262
  0
LINE
  5
28F
100
AcDbEntity
  8
0
100
AcDbLine
 62
7
  6
CONTINUOUS
 10
118.7426801145
 20
119.5980201027
 11
118.4435177988
 21
119.6569068146
  0
LINE
  5
290
100
AcDbEntity
  8
0
100
AcDbLine
 62
7
  6
CONTINUOUS
 10
79.5901118158
 20
127.4916954208
 11
83.2943849952
 21
125.9822716194
  0
LINE
  5
291
100
AcDbEntity
  8
0
100
AcDbLine
 62
7
  6
CONTINUOUS
 10
83.4830631503
 20
126.4453062084
 11
81.8279623445
 21
127.1197296186
  0
LINE
  5
292
100
AcDbEntity
  8
0
100
AcDbLine
 62
7
  6
CONTINUOUS
 10
81.3550764631
 20
127.3124219958
 11
80.1728615387
 21
127.7941530288
  0
LINE
  5
293
100
AcDbEntity
  8
0
100
AcDbLine
 62
7
  6
CONTINUOUS
 10
81.4319055301
 20
129.5307693048
 11
81.6683486916
 21
129.4344230262
  0
LINE
  5
294
100
AcDbEntity
  8
0
100
AcDbLine
 62
7
  6
CONTINUOUS
 10
81.9358409803
 20
129.8653417774
 11
81.6205835053
 21
129.9938034522
  0
LINE
  5
295
100
AcDbEntity
  8
BEZUGSACHSEN
100
AcDbLine
 62
7
  6
CONTINUOUS
 10
91.6814302822
 20
119.8031477656
 11
91.6814302822
 21
124.022591182
  0
LINE
  5
296
100
AcDbEntity
  8
KONSTRUKTIONSELEMENTE
100
AcDbLine
 62
7
  6
CONTINUOUS
 10
93.4869837816
 20
119.3031477656
 11
93.4869837816
 21
119.8031477656
  0
LINE
  5
297
100
AcDbEntity
  8
BEZUGSACHSEN
100
AcDbLine
 62
7
  6
CONTINUOUS
 10
93.4869837816
 20
119.3031477656
 11
93.4869837816
 21
119.8031477656
  0
LINE
  5
298
100
AcDbEntity
  8
KONSTRUKTIONSELEMENTE
100
AcDbLine
 62
7
  6
CONTINUOUS
 10
93.670937048
 20
124.6031477656
 11
93.670937048
 21
124.8031477656
  0
LINE
  5
299
100
AcDbEntity
  8
BEZUGSACHSEN
100
AcDbLine
 62
7
  6
CONTINUOUS
 10
95.1869837816
 20
90.8031477656
 11
95.1869837816
 21
80.3031477656
  0
LINE
  5
29A
100
AcDbEntity
  8
BEZUGSACHSEN
100
AcDbLine
 62
7
  6
CONTINUOUS
 10
95.4342070319
 20
119.8031477656
 11
95.4342070319
 21
124.022591182
  0
LINE
  5
29B
100
AcDbEntity
  8
KONSTRUKTIONSELEMENTE
100
AcDbLine
 62
7
  6
CONTINUOUS
 10
95.6493599559
 20
124.6031477656
 11
95.6493599559
 21
124.8031477656
  0
LINE
  5
29C
100
AcDbEntity
  8
KONSTRUKTIONSELEMENTE
100
AcDbLine
 62
7
  6
CONTINUOUS
 10
95.6731653459
 20
124.6031477656
 11
95.6731653459
 21
124.8031477656
  0
LINE
  5
29D
100
AcDbEntity
  8
0
100
AcDbLine
 62
7
  6
CONTINUOUS
 10
81.8000889791
 20
122.9917237974
 11
82.0835028237
 21
123.2361821338
  0
LINE
  5
29E
100
AcDbEntity
  8
0
100
AcDbLine
 62
7
  6
CONTINUOUS
 10
79.5757780853
 20
125.8777852051
 11
79.8277457
 21
126.0450714864
  0
LINE
  5
29F
100
AcDbEntity
  8
0
100
AcDbLine
 62
7
  6
CONTINUOUS
 10
80.9430981134
 20
129.9099220884
 11
80.580869616
 21
129.6975782566
  0
LINE
  5
2A0
100
AcDbEntity
  8
0
100
AcDbLine
 62
7
  6
CONTINUOUS
 10
80.9434949747
 20
129.4598292121
 11
81.1640163801
 21
129.5499434299
  0
LINE
  5
2A1
100
AcDbEntity
  8
0
100
AcDbLine
 62
7
  6
CONTINUOUS
 10
81.3900956132
 20
123.338760777
 11
81.0907600741
 21
123.280762397
  0
LINE
  5
2A2
100
AcDbEntity
  8
0
100
AcDbLine
 62
7
  6
CONTINUOUS
 10
117.3682397546
 20
126.8620870358
 11
117.6361847054
 21
126.8804660135
  0
LINE
  5
2A3
100
AcDbEntity
  8
0
100
AcDbLine
 62
7
  6
CONTINUOUS
 10
117.5277906635
 20
127.3759393492
 11
117.2598457127
 21
127.3575603715
  0
LINE
  5
2A4
100
AcDbEntity
  8
BEZUGSACHSEN
100
AcDbLine
 62
7
  6
CONTINUOUS
 10
92.6869837816
 20
124.6031477656
 11
105.6869837816
 21
124.6031477656
  0
LINE
  5
2A5
100
AcDbEntity
  8
KONSTRUKTIONSELEMENTE
100
AcDbLine
 62
7
  6
CONTINUOUS
 10
93.670937048
 20
124.8031477656
 11
97.0608255577
 21
124.8031477656
  0
LINE
  5
2A6
100
AcDbEntity
  8
KONSTRUKTIONSELEMENTE
100
AcDbLine
 62
7
  6
CONTINUOUS
 10
98.7275583829
 20
124.8031477656
 11
100.1340033956
 21
124.8031477656
  0
LINE
  5
2A7
100
AcDbEntity
  8
KONSTRUKTIONSELEMENTE
100
AcDbLine
 62
7
  6
CONTINUOUS
 10
100.4166011612
 20
124.8031477656
 11
101.7753539737
 21
124.8031477656
  0
LINE
  5
2A8
100
AcDbEntity
  8
0
100
AcDbLine
 62
7
  6
CONTINUOUS
 10
79.8277457
 20
126.0450714864
 11
80.0956352507
 21
126.0258977129
  0
LINE
  5
2A9
100
AcDbEntity
  8
0
100
AcDbLine
 62
7
  6
CONTINUOUS
 10
81.1640163801
 20
129.5499434299
 11
81.4319055301
 21
129.5307693048
  0
LINE
  5
2AA
100
AcDbEntity
  8
0
100
AcDbLine
 62
7
  6
CONTINUOUS
 10
117.2442537409
 20
123.3067555209
 11
116.9450916037
 21
123.3656417908
  0
LINE
  5
2AB
100
AcDbEntity
  8
0
100
AcDbLine
 62
7
  6
CONTINUOUS
 10
118.0324967383
 20
119.3110873935
 11
118.4730025306
 21
119.1295520482
  0
LINE
  5
2AC
100
AcDbEntity
  8
KONSTRUKTIONSELEMENTE
100
AcDbLine
 62
7
  6
CONTINUOUS
 10
95.7723544671
 20
124.6031477656
 11
95.7723544671
 21
124.8031477656
  0
LINE
  5
2AD
100
AcDbEntity
  8
KONSTRUKTIONSELEMENTE
100
AcDbLine
 62
7
  6
CONTINUOUS
 10
95.8001274296
 20
124.6031477656
 11
95.8001274296
 21
124.8031477656
  0
LINE
  5
2AE
100
AcDbEntity
  8
KONSTRUKTIONSELEMENTE
100
AcDbLine
 62
7
  6
CONTINUOUS
 10
95.8535849695
 20
124.6031477656
 11
95.8535849695
 21
124.8031477656
  0
LINE
  5
2AF
100
AcDbEntity
  8
KONSTRUKTIONSELEMENTE
100
AcDbLine
 62
7
  6
CONTINUOUS
 10
95.9799507797
 20
124.6031477656
 11
95.9799507797
 21
124.8031477656
  0
LINE
  5
2B0
100
AcDbEntity
  8
KONSTRUKTIONSELEMENTE
100
AcDbLine
 62
7
  6
CONTINUOUS
 10
96.0817469903
 20
124.6031477656
 11
96.0817469903
 21
124.8031477656
  0
LINE
  5
2B1
100
AcDbEntity
  8
KONSTRUKTIONSELEMENTE
100
AcDbLine
 62
7
  6
CONTINUOUS
 10
96.1332314736
 20
124.6031477656
 11
96.1332314736
 21
124.8031477656
  0
LINE
  5
2B2
100
AcDbEntity
  8
KONSTRUKTIONSELEMENTE
100
AcDbLine
 62
7
  6
CONTINUOUS
 10
96.1601463606
 20
124.6031477656
 11
96.1601463606
 21
124.8031477656
  0
LINE
  5
2B3
100
AcDbEntity
  8
KONSTRUKTIONSELEMENTE
100
AcDbLine
 62
7
  6
CONTINUOUS
 10
96.4728058988
 20
124.6031477656
 11
96.4728058988
 21
124.8031477656
  0
LINE
  5
2B4
100
AcDbEntity
  8
KONSTRUKTIONSELEMENTE
100
AcDbLine
 62
7
  6
CONTINUOUS
 10
96.9616485109
 20
124.6031477656
 11
96.9616485109
 21
124.8031477656
  0
LINE
  5
2B5
100
AcDbEntity
  8
KONSTRUKTIONSELEMENTE
100
AcDbLine
 62
7
  6
CONTINUOUS
 10
97.0354444893
 20
124.6031477656
 11
97.0354444893
 21
124.8031477656
  0
LINE
  5
2B6
100
AcDbEntity
  8
KONSTRUKTIONSELEMENTE
100
AcDbLine
 62
7
  6
CONTINUOUS
 10
97.0608255577
 20
124.6031477656
 11
97.0608255577
 21
124.8031477656
  0
LINE
  5
2B7
100
AcDbEntity
  8
KONSTRUKTIONSELEMENTE
100
AcDbLine
 62
7
  6
CONTINUOUS
 10
98.7275583829
 20
124.6031477656
 11
98.7275583829
 21
124.8031477656
  0
LINE
  5
2B8
100
AcDbEntity
  8
KONSTRUKTIONSELEMENTE
100
AcDbLine
 62
7
  6
CONTINUOUS
 10
98.8898197257
 20
124.6031477656
 11
98.8898197257
 21
124.8031477656
  0
LINE
  5
2B9
100
AcDbEntity
  8
KONSTRUKTIONSELEMENTE
100
AcDbLine
 62
7
  6
CONTINUOUS
 10
98.9751198985
 20
124.6031477656
 11
98.9751198985
 21
124.8031477656
  0
LINE
  5
2BA
100
AcDbEntity
  8
KONSTRUKTIONSELEMENTE
100
AcDbLine
 62
7
  6
CONTINUOUS
 10
99.2684293194
 20
124.6031477656
 11
99.2684293194
 21
124.8031477656
  0
LINE
  5
2BB
100
AcDbEntity
  8
KONSTRUKTIONSELEMENTE
100
AcDbLine
 62
7
  6
CONTINUOUS
 10
99.4847781891
 20
124.6031477656
 11
99.4847781891
 21
124.8031477656
  0
LINE
  5
2BC
100
AcDbEntity
  8
0
100
AcDbLine
 62
7
  6
CONTINUOUS
 10
81.6420632832
 20
123.5060470358
 11
81.3900956132
 21
123.338760777
  0
LINE
  5
2BD
100
AcDbEntity
  8
0
100
AcDbLine
 62
7
  6
CONTINUOUS
 10
79.858795048
 20
126.5723364262
 11
79.4177525969
 21
126.3921088738
  0
LINE
  5
2BE
100
AcDbEntity
  8
RUNDUNGEN
100
AcDbLine
 62
7
  6
CONTINUOUS
 10
106.0896048577
 20
128.5008977656
 11
92.2843627056
 21
128.5008977656
  0
LINE
  5
2BF
100
AcDbEntity
  8
0
100
AcDbLine
 62
7
  6
CONTINUOUS
 10
81.6205835053
 20
129.9938034522
 11
81.3526943553
 21
130.0129775773
  0
LINE
  5
2C0
100
AcDbEntity
  8
0
100
AcDbLine
 62
7
  6
CONTINUOUS
 10
116.958951087
 20
126.9663573658
 11
117.3682397546
 21
126.8620870358
  0
LINE
  5
2C1
100
AcDbEntity
  8
0
100
AcDbLine
 62
7
  6
CONTINUOUS
 10
116.5340703647
 20
123.0198228118
 11
116.9745763356
 21
122.8382870243
  0
LINE
  5
2C2
100
AcDbEntity
  8
BEZUGSACHSEN
100
AcDbLine
 62
7
  6
CONTINUOUS
 10
106.6925372811
 20
124.022591182
 11
105.6869837816
 21
124.6031477656
  0
LINE
  5
2C3
100
AcDbEntity
  8
0
100
AcDbLine
 62
7
  6
CONTINUOUS
 10
118.4435177988
 20
119.6569068146
 11
118.1920475855
 21
119.8249399391
  0
LINE
  5
2C4
100
AcDbEntity
  8
KONSTRUKTIONSELEMENTE
100
AcDbLine
 62
7
  6
CONTINUOUS
 10
99.8633877828
 20
124.6031477656
 11
99.8633877828
 21
124.8031477656
  0
LINE
  5
2C5
100
AcDbEntity
  8
KONSTRUKTIONSELEMENTE
100
AcDbLine
 62
7
  6
CONTINUOUS
 10
100.0256491256
 20
124.6031477656
 11
100.0256491256
 21
124.8031477656
  0
LINE
  5
2C6
100
AcDbEntity
  8
KONSTRUKTIONSELEMENTE
100
AcDbLine
 62
7
  6
CONTINUOUS
 10
100.1340033956
 20
124.6031477656
 11
100.1340033956
 21
124.8031477656
  0
LINE
  5
2C7
100
AcDbEntity
  8
KONSTRUKTIONSELEMENTE
100
AcDbLine
 62
7
  6
CONTINUOUS
 10
100.4166011612
 20
124.6031477656
 11
100.4166011612
 21
124.8031477656
  0
LINE
  5
2C8
100
AcDbEntity
  8
KONSTRUKTIONSELEMENTE
100
AcDbLine
 62
7
  6
CONTINUOUS
 10
100.4355705955
 20
124.6031477656
 11
100.4355705955
 21
124.8031477656
  0
LINE
  5
2C9
100
AcDbEntity
  8
KONSTRUKTIONSELEMENTE
100
AcDbLine
 62
7
  6
CONTINUOUS
 10
100.503521624
 20
124.6031477656
 11
100.503521624
 21
124.8031477656
  0
LINE
  5
2CA
100
AcDbEntity
  8
KONSTRUKTIONSELEMENTE
100
AcDbLine
 62
7
  6
CONTINUOUS
 10
100.6078081415
 20
124.6031477656
 11
100.6078081415
 21
124.8031477656
  0
LINE
  5
2CB
100
AcDbEntity
  8
KONSTRUKTIONSELEMENTE
100
AcDbLine
 62
7
  6
CONTINUOUS
 10
100.7547534801
 20
124.6031477656
 11
100.7547534801
 21
124.8031477656
  0
LINE
  5
2CC
100
AcDbEntity
  8
KONSTRUKTIONSELEMENTE
100
AcDbLine
 62
7
  6
CONTINUOUS
 10
100.895376047
 20
124.6031477656
 11
100.895376047
 21
124.8031477656
  0
LINE
  5
2CD
100
AcDbEntity
  8
KONSTRUKTIONSELEMENTE
100
AcDbLine
 62
7
  6
CONTINUOUS
 10
101.0723335423
 20
124.6031477656
 11
101.0723335423
 21
124.8031477656
  0
LINE
  5
2CE
100
AcDbEntity
  8
KONSTRUKTIONSELEMENTE
100
AcDbLine
 62
7
  6
CONTINUOUS
 10
101.2003094466
 20
124.6031477656
 11
101.2003094466
 21
124.8031477656
  0
LINE
  5
2CF
100
AcDbEntity
  8
KONSTRUKTIONSELEMENTE
100
AcDbLine
 62
7
  6
CONTINUOUS
 10
101.3401297663
 20
124.6031477656
 11
101.3401297663
 21
124.8031477656
  0
LINE
  5
2D0
100
AcDbEntity
  8
KONSTRUKTIONSELEMENTE
100
AcDbLine
 62
7
  6
CONTINUOUS
 10
101.3946329949
 20
124.6031477656
 11
101.3946329949
 21
124.8031477656
  0
LINE
  5
2D1
100
AcDbEntity
  8
KONSTRUKTIONSELEMENTE
100
AcDbLine
 62
7
  6
CONTINUOUS
 10
101.436490142
 20
124.6031477656
 11
101.436490142
 21
124.8031477656
  0
LINE
  5
2D2
100
AcDbEntity
  8
KONSTRUKTIONSELEMENTE
100
AcDbLine
 62
7
  6
CONTINUOUS
 10
101.5573410084
 20
124.6031477656
 11
101.5573410084
 21
124.8031477656
  0
LINE
  5
2D3
100
AcDbEntity
  8
KONSTRUKTIONSELEMENTE
100
AcDbLine
 62
7
  6
CONTINUOUS
 10
101.6789941331
 20
124.6031477656
 11
101.6789941331
 21
124.8031477656
  0
LINE
  5
2D4
100
AcDbEntity
  8
KONSTRUKTIONSELEMENTE
100
AcDbLine
 62
7
  6
CONTINUOUS
 10
101.7334973617
 20
124.6031477656
 11
101.7334973617
 21
124.8031477656
  0
LINE
  5
2D5
100
AcDbEntity
  8
KONSTRUKTIONSELEMENTE
100
AcDbLine
 62
7
  6
CONTINUOUS
 10
101.7753539737
 20
124.6031477656
 11
101.7753539737
 21
124.8031477656
  0
LINE
  5
2D6
100
AcDbEntity
  8
BEZUGSACHSEN
100
AcDbLine
 62
7
  6
CONTINUOUS
 10
102.9397605314
 20
119.8031477656
 11
102.9397605314
 21
124.022591182
  0
LINE
  5
2D7
100
AcDbEntity
  8
BEZUGSACHSEN
100
AcDbLine
 62
7
  6
CONTINUOUS
 10
103.1869837816
 20
80.3031477656
 11
103.1869837816
 21
90.8031477656
  0
LINE
  5
2D8
100
AcDbEntity
  8
BEZUGSACHSEN
100
AcDbLine
 62
7
  6
CONTINUOUS
 10
91.6814302822
 20
124.022591182
 11
92.6869837816
 21
124.6031477656
  0
LINE
  5
2D9
100
AcDbEntity
  8
0
100
AcDbLine
 62
7
  6
CONTINUOUS
 10
81.3590463204
 20
122.8114958147
 11
81.8000889791
 21
122.9917237974
  0
LINE
  5
2DA
100
AcDbEntity
  8
0
100
AcDbLine
 62
7
  6
CONTINUOUS
 10
81.3526943553
 20
130.0129775773
 11
80.9430981134
 21
129.9099220884
  0
LINE
  5
2DB
100
AcDbEntity
  8
0
100
AcDbLine
 62
7
  6
CONTINUOUS
 10
117.2598457127
 20
127.3575603715
 11
117.0395927411
 21
127.4483282708
  0
LINE
  5
2DC
100
AcDbEntity
  8
0
100
AcDbLine
 62
7
  6
CONTINUOUS
 10
116.9450916037
 20
123.3656417908
 11
116.6936213905
 21
123.5336749153
  0
LINE
  5
2DD
100
AcDbEntity
  8
0
100
AcDbLine
 62
7
  6
CONTINUOUS
 10
117.7498094626
 20
119.5563855584
 11
118.0324967383
 21
119.3110873935
  0
LINE
  5
2DE
100
AcDbEntity
  8
KONSTRUKTIONSELEMENTE
100
AcDbLine
 62
7
  6
CONTINUOUS
 10
104.8869837816
 20
119.3031477656
 11
104.8869837816
 21
119.8031477656
  0
LINE
  5
2DF
100
AcDbEntity
  8
BEZUGSACHSEN
100
AcDbLine
 62
7
  6
CONTINUOUS
 10
104.8869837816
 20
119.3031477656
 11
104.8869837816
 21
119.8031477656
  0
LINE
  5
2E0
100
AcDbEntity
  8
BEZUGSACHSEN
100
AcDbLine
 62
7
  6
CONTINUOUS
 10
106.6925372811
 20
119.8031477656
 11
106.6925372811
 21
124.022591182
  0
LINE
  5
2E1
100
AcDbEntity
  8
0
100
AcDbLine
 62
7
  6
CONTINUOUS
 10
117.664786782
 20
130.2175040401
 11
113.9560513637
 21
128.7190776664
  0
LINE
  5
2E2
100
AcDbEntity
  8
0
100
AcDbLine
 62
7
  6
CONTINUOUS
 10
116.2513829103
 20
123.2651214188
 11
116.5340703647
 21
123.0198228118
  0
LINE
  5
2E3
100
AcDbEntity
  8
0
100
AcDbLine
 62
7
  6
CONTINUOUS
 10
116.6762637427
 20
127.2116557602
 11
116.958951087
 21
126.9663573658
  0
LINE
  5
2E4
100
AcDbEntity
  8
0
100
AcDbLine
 62
7
  6
CONTINUOUS
 10
118.1920475855
 20
119.8249399391
 11
117.9882695853
 21
120.1021195208
  0
LWPOLYLINE
  5
2E5
100
AcDbEntity
  8
RUNDUNGEN
100
AcDbPolyline
 62
7
  6
CONTINUOUS
 90
22
 70
0
 10
115.1667814657
 20
95.7008978475
 10
115.1716802509
 20
95.6778259509
 10
115.1969285336
 20
95.5793469275
 10
115.2287897576
 20
95.4828036784
 10
115.2671177535
 20
95.388639612
 10
115.3117365471
 20
95.2972874755
 10
115.3624410832
 20
95.2091673276
 10
115.4189984866
 20
95.1246840068
 10
115.4811489915
 20
95.0442256501
 10
115.5486068559
 20
94.9681622029
 10
115.6210621713
 20
94.8968430762
 10
115.6981820733
 20
94.8305958843
 10
115.7796119398
 20
94.7697251707
 10
115.8649776388
 20
94.7145104789
 10
115.9538869627
 20
94.6652053667
 10
116.0459310586
 20
94.6220363992
 10
116.1406870212
 20
94.5852017125
 10
116.2377195262
 20
94.554870329
 10
116.3365824301
 20
94.531181472
 10
116.4368214345
 20
94.5142437122
 10
116.5379761981
 20
94.5041345539
 10
116.6364766568
 20
94.5008969515
  0
LINE
  5
2E6
100
AcDbEntity
  8
0
100
AcDbLine
 62
7
  6
CONTINUOUS
 10
108.1869837816
 20
115.8031477656
 11
108.1869837816
 21
114.0621305021
  0
LINE
  5
2E7
100
AcDbEntity
  8
0
100
AcDbLine
 62
7
  6
CONTINUOUS
 10
108.1869837816
 20
96.0531477656
 11
108.1869837816
 21
95.9031477656
  0
LINE
  5
2E8
100
AcDbEntity
  8
0
100
AcDbLine
 62
7
  6
CONTINUOUS
 10
110.7273549635
 20
113.9031477656
 11
110.7273549635
 21
115.2031477656
  0
LINE
  5
2E9
100
AcDbEntity
  8
0
100
AcDbLine
 62
7
  6
CONTINUOUS
 10
111.6060659696
 20
115.2031477656
 11
111.6060659696
 21
113.9031477656
  0
LINE
  5
2EA
100
AcDbEntity
  8
0
100
AcDbLine
 62
7
  6
CONTINUOUS
 10
114.1433546604
 20
128.2554857392
 11
115.8004492326
 21
128.924995405
  0
LINE
  5
2EB
100
AcDbEntity
  8
0
100
AcDbLine
 62
7
  6
CONTINUOUS
 10
116.2739047614
 20
129.1162838554
 11
117.4575438047
 21
129.5945050708
  0
LINE
  5
2EC
100
AcDbEntity
  8
0
100
AcDbLine
 62
7
  6
CONTINUOUS
 10
117.764518649
 20
127.4715836637
 11
117.5277906635
 21
127.3759393492
  0
LINE
  5
2ED
100
AcDbEntity
  8
0
100
AcDbLine
 62
7
  6
CONTINUOUS
 10
117.6361847054
 20
126.8804660135
 11
117.9518219457
 21
127.0079917364
  0
LINE
  5
2EE
100
AcDbEntity
  8
0
100
AcDbLine
 62
7
  6
CONTINUOUS
 10
119.1007786937
 20
126.663299338
 11
116.6545914629
 21
125.6749755434
  0
LINE
  5
2EF
100
AcDbEntity
  8
0
100
AcDbLine
 62
7
  6
CONTINUOUS
 10
117.0395927411
 20
127.4483282708
 11
116.8670318379
 21
127.648242826
  0
LINE
  5
2F0
100
AcDbEntity
  8
0
100
AcDbLine
 62
7
  6
CONTINUOUS
 10
116.6936213905
 20
123.5336749153
 11
116.4898432117
 21
123.8108549391
  0
LINE
  5
2F1
100
AcDbEntity
  8
0
100
AcDbLine
 62
7
  6
CONTINUOUS
 10
117.5148140012
 20
119.9108310481
 11
117.7498094626
 21
119.5563855584
  0
LINE
  5
2F2
100
AcDbEntity
  8
0
100
AcDbLine
 62
7
  6
CONTINUOUS
 10
116.0163876275
 20
123.6195664663
 11
116.2513829103
 21
123.2651214188
  0
LINE
  5
2F3
100
AcDbEntity
  8
RUNDUNGEN
100
AcDbLine
 62
7
  6
CONTINUOUS
 10
114.9685353453
 20
116.5415766185
 11
111.6527086796
 21
124.7485356071
  0
LINE
  5
2F4
100
AcDbEntity
  8
0
100
AcDbLine
 62
7
  6
CONTINUOUS
 10
113.9560513637
 20
128.7190776664
 11
114.1433546604
 21
128.2554857392
  0
LINE
  5
2F5
100
AcDbEntity
  8
0
100
AcDbLine
 62
7
  6
CONTINUOUS
 10
114.9237850336
 20
126.3238527825
 11
115.142305606
 21
125.7829953866
  0
LINE
  5
2F6
100
AcDbEntity
  8
0
100
AcDbLine
 62
7
  6
CONTINUOUS
 10
115.8915187035
 20
123.9286278986
 11
116.0163876275
 21
123.6195664663
  0
LINE
  5
2F7
100
AcDbEntity
  8
0
100
AcDbLine
 62
7
  6
CONTINUOUS
 10
116.7656008144
 20
121.7651987572
 11
117.5148140012
 21
119.9108310481
  0
LINE
  5
2F8
100
AcDbEntity
  8
0
100
AcDbLine
 62
7
  6
CONTINUOUS
 10
113.1869837816
 20
119.3031477656
 11
113.1869837816
 21
115.8031477656
  0
LINE
  5
2F9
100
AcDbEntity
  8
0
100
AcDbLine
 62
7
  6
CONTINUOUS
 10
114.1869837816
 20
95.9031477656
 11
114.1869837816
 21
90.8031477656
  0
LINE
  5
2FA
100
AcDbEntity
  8
RUNDUNGEN
100
AcDbLine
 62
7
  6
CONTINUOUS
 10
114.4369837816
 20
112.9031477656
 11
114.4369837816
 21
96.0531477656
  0
LINE
  5
2FB
100
AcDbEntity
  8
RUNDUNGEN
100
AcDbLine
 62
7
  6
CONTINUOUS
 10
115.1869837816
 20
96.0008977656
 11
115.1869837816
 21
97.8475825242
  0
LINE
  5
2FC
100
AcDbEntity
  8
RUNDUNGEN
100
AcDbLine
 62
7
  6
CONTINUOUS
 10
115.1869837816
 20
106.15421336
 11
115.1869837816
 21
113.9031477656
  0
LINE
  5
2FD
100
AcDbEntity
  8
RUNDUNGEN
100
AcDbLine
 62
7
  6
CONTINUOUS
 10
115.1869837816
 20
115.2031477656
 11
115.1869837816
 21
115.4177568382
  0
LINE
  5
2FE
100
AcDbEntity
  8
0
100
AcDbLine
 62
7
  6
CONTINUOUS
 10
115.142305606
 20
125.7829953866
 11
116.6762637427
 21
127.2116557602
  0
LINE
  5
2FF
100
AcDbEntity
  8
0
100
AcDbLine
 62
7
  6
CONTINUOUS
 10
116.3311418917
 20
127.6114849812
 11
114.9237850336
 21
126.3238527825
  0
LINE
  5
300
100
AcDbEntity
  8
0
100
AcDbLine
 62
7
  6
CONTINUOUS
 10
117.9700292271
 20
127.6444931365
 11
117.764518649
 21
127.4715836637
  0
LINE
  5
301
100
AcDbEntity
  8
0
100
AcDbLine
 62
7
  6
CONTINUOUS
 10
117.9518219457
 20
127.0079917364
 11
118.1573325238
 21
127.1809012092
  0
LINE
  5
302
100
AcDbEntity
  8
0
100
AcDbLine
 62
7
  6
CONTINUOUS
 10
116.5574749267
 20
125.006592735
 11
116.8418948489
 21
125.2113833951
  0
LINE
  5
303
100
AcDbEntity
  8
0
100
AcDbLine
 62
7
  6
CONTINUOUS
 10
116.6545914629
 20
125.6749755434
 11
116.2912624645
 21
125.4383030328
  0
LINE
  5
304
100
AcDbEntity
  8
0
100
AcDbLine
 62
7
  6
CONTINUOUS
 10
116.8418948489
 20
125.2113833951
 11
119.2880820797
 21
126.1997071896
  0
LINE
  5
305
100
AcDbEntity
  8
0
100
AcDbLine
 62
7
  6
CONTINUOUS
 10
120.0372952665
 20
124.3453394805
 11
117.5911080358
 21
123.357015686
  0
LINE
  5
306
100
AcDbEntity
  8
0
100
AcDbLine
 62
7
  6
CONTINUOUS
 10
117.7784113325
 20
122.8934237587
 11
120.2245985632
 21
123.8817475532
  0
LINE
  5
307
100
AcDbEntity
  8
0
100
AcDbLine
 62
7
  6
CONTINUOUS
 10
120.4743362326
 20
123.2636251309
 11
116.7656008144
 21
121.7651987572
  0
LINE
  5
308
100
AcDbEntity
  8
0
100
AcDbLine
 62
7
  6
CONTINUOUS
 10
117.4263596952
 20
121.4928953027
 11
120.1881840005
 21
122.6087447531
  0
LINE
  5
309
100
AcDbEntity
  8
0
100
AcDbLine
 62
7
  6
CONTINUOUS
 10
117.9882695853
 20
120.1021195208
 11
117.4263596952
 21
121.4928953027
  0
LINE
  5
30A
100
AcDbEntity
  8
0
100
AcDbLine
 62
7
  6
CONTINUOUS
 10
116.4898432117
 20
123.8108549391
 11
116.3649742876
 21
124.1199163713
  0
LINE
  5
30B
100
AcDbEntity
  8
0
100
AcDbLine
 62
7
  6
CONTINUOUS
 10
115.8004492326
 20
128.924995405
 11
116.3311418917
 21
127.6114849812
  0
LINE
  5
30C
100
AcDbEntity
  8
0
100
AcDbLine
 62
7
  6
CONTINUOUS
 10
116.8670318379
 20
127.648242826
 11
116.2739047614
 21
129.1162838554
  0
LINE
  5
30D
100
AcDbEntity
  8
0
100
AcDbLine
 62
7
  6
CONTINUOUS
 10
120.1881840005
 20
122.6087447531
 11
120.7500938906
 21
121.2179689713
  0
LINE
  5
30E
100
AcDbEntity
  8
0
100
AcDbLine
 62
7
  6
CONTINUOUS
 10
117.4575438047
 20
129.5945050708
 11
118.0506708811
 21
128.1264640414
  0
LINE
  5
30F
100
AcDbEntity
  8
0
100
AcDbLine
 62
7
  6
CONTINUOUS
 10
121.2235494195
 20
121.4092574217
 11
120.4743362326
 21
123.2636251309
  0
LINE
  5
310
100
AcDbEntity
  8
0
100
AcDbLine
 62
7
  6
CONTINUOUS
 10
120.2245985632
 20
123.8817475532
 11
120.0372952665
 21
124.3453394805
  0
LINE
  5
311
100
AcDbEntity
  8
0
100
AcDbLine
 62
7
  6
CONTINUOUS
 10
119.2880820797
 20
126.1997071896
 11
119.1007786937
 21
126.663299338
  0
LINE
  5
312
100
AcDbEntity
  8
0
100
AcDbLine
 62
7
  6
CONTINUOUS
 10
118.4139999688
 20
128.363136331
 11
117.664786782
 21
130.2175040401
  0
LINE
  5
313
100
AcDbEntity
  8
0
100
AcDbLine
 62
7
  6
CONTINUOUS
 10
115.8143419442
 20
124.3468357684
 11
115.8915187035
 21
123.9286278986
  0
LINE
  5
314
100
AcDbEntity
  8
0
100
AcDbLine
 62
7
  6
CONTINUOUS
 10
116.3649742876
 20
124.1199163713
 11
116.3190147971
 21
124.4608587698
  0
LINE
  5
315
100
AcDbEntity
  8
0
100
AcDbLine
 62
7
  6
CONTINUOUS
 10
118.0506708811
 20
128.1264640414
 11
118.0654132747
 21
127.8627866694
  0
LINE
  5
316
100
AcDbEntity
  8
0
100
AcDbLine
 62
7
  6
CONTINUOUS
 10
115.8472915505
 20
124.7196600259
 11
115.8143419442
 21
124.3468357684
  0
LINE
  5
317
100
AcDbEntity
  8
RUNDUNGEN
100
AcDbLine
 62
7
  6
CONTINUOUS
 10
120.1665027509
 20
133.2729237237
 11
125.0758602054
 21
157.5987106572
  0
LINE
  5
318
100
AcDbEntity
  8
0
100
AcDbLine
 62
7
  6
CONTINUOUS
 10
116.3190147971
 20
124.4608587698
 11
116.3831817136
 21
124.7564175726
  0
LINE
  5
319
100
AcDbEntity
  8
0
100
AcDbLine
 62
7
  6
CONTINUOUS
 10
118.3793178947
 20
127.5402228064
 11
118.4911768244
 21
127.9449282428
  0
LINE
  5
31A
100
AcDbEntity
  8
0
100
AcDbLine
 62
7
  6
CONTINUOUS
 10
115.8472915505
 20
124.7196600259
 11
116.038059852
 21
125.1562466608
  0
LINE
  5
31B
100
AcDbEntity
  8
0
100
AcDbLine
 62
7
  6
CONTINUOUS
 10
118.0654132747
 20
127.8627866694
 11
117.9700292271
 21
127.6444931365
  0
LINE
  5
31C
100
AcDbEntity
  8
0
100
AcDbLine
 62
7
  6
CONTINUOUS
 10
118.1573325238
 20
127.1809012092
 11
118.3793178947
 21
127.5402228064
  0
LINE
  5
31D
100
AcDbEntity
  8
0
100
AcDbLine
 62
7
  6
CONTINUOUS
 10
116.3831817136
 20
124.7564175726
 11
116.5574749267
 21
125.006592735
  0
LINE
  5
31E
100
AcDbEntity
  8
0
100
AcDbLine
 62
7
  6
CONTINUOUS
 10
116.038059852
 20
125.1562466608
 11
116.2912624645
 21
125.4383030328
  0
LINE
  5
31F
100
AcDbEntity
  8
0
100
AcDbLine
 62
7
  6
CONTINUOUS
 10
120.2731731635
 20
120.1265018805
 11
119.0895342308
 21
119.6482807098
  0
LINE
  5
320
100
AcDbEntity
  8
0
100
AcDbLine
 62
7
  6
CONTINUOUS
 10
119.2768375275
 20
119.1846887825
 11
120.4604764602
 21
119.6629099533
  0
LINE
  5
321
100
AcDbEntity
  8
RUNDUNGEN
100
AcDbLine
 62
7
  6
CONTINUOUS
 10
121.8867827454
 20
127.415234532
 11
120.4032513205
 21
130.9238280927
  0
LINE
  5
322
100
AcDbEntity
  8
RUNDUNGEN
100
AcDbLine
 62
7
  6
CONTINUOUS
 10
123.5779637412
 20
122.9303769526
 11
127.7559809924
 21
112.5894213809
  0
LINE
  5
323
100
AcDbEntity
  8
0
100
AcDbLine
 62
7
  6
CONTINUOUS
 10
118.4911768244
 20
127.9449282428
 11
118.4139999688
 21
128.363136331
  0
LINE
  5
324
100
AcDbEntity
  8
0
100
AcDbLine
 62
7
  6
CONTINUOUS
 10
121.3007263643
 20
120.9910491125
 11
121.2235494195
 21
121.4092574217
  0
LINE
  5
325
100
AcDbEntity
  8
0
100
AcDbLine
 62
7
  6
CONTINUOUS
 10
120.7500938906
 20
121.2179689713
 11
120.7960533812
 21
120.8770265728
  0
LINE
  5
326
100
AcDbEntity
  8
0
100
AcDbLine
 62
7
  6
CONTINUOUS
 10
121.2677766001
 20
120.6182253056
 11
121.3007263643
 21
120.9910491125
  0
LINE
  5
327
100
AcDbEntity
  8
0
100
AcDbLine
 62
7
  6
CONTINUOUS
 10
120.7960533812
 20
120.8770265728
 11
120.7318865199
 21
120.5814677923
  0
LINE
  5
328
100
AcDbEntity
  8
0
100
AcDbLine
 62
7
  6
CONTINUOUS
 10
121.0770083262
 20
120.1816386819
 11
121.2677766001
 21
120.6182253056
  0
LINE
  5
329
100
AcDbEntity
  8
0
100
AcDbLine
 62
7
  6
CONTINUOUS
 10
120.7318865199
 20
120.5814677923
 11
120.5575930857
 21
120.3312925406
  0
LINE
  5
32A
100
AcDbEntity
  8
0
100
AcDbLine
 62
7
  6
CONTINUOUS
 10
120.8238058583
 20
119.8995821111
 11
121.0770083262
 21
120.1816386819
  0
LINE
  5
32B
100
AcDbEntity
  8
0
100
AcDbLine
 62
7
  6
CONTINUOUS
 10
120.5575930857
 20
120.3312925406
 11
120.2731731635
 21
120.1265018805
  0
LINE
  5
32C
100
AcDbEntity
  8
0
100
AcDbLine
 62
7
  6
CONTINUOUS
 10
120.4604764602
 20
119.6629099533
 11
120.8238058583
 21
119.8995821111
  0
LINE
  5
32D
100
AcDbEntity
  8
RUNDUNGEN
100
AcDbLine
 62
7
  6
CONTINUOUS
 10
127.7159069857
 20
107.9973950495
 11
122.2456030739
 21
95.1101666371
  0
LINE
  5
32E
100
AcDbEntity
  8
RUNDUNGEN
100
AcDbLine
 62
7
  6
CONTINUOUS
 10
124.5835827603
 20
160.4501766647
 11
116.3134131404
 21
174.2140502786
  0
LINE
  5
32F
100
AcDbEntity
  8
BEZUGSACHSEN
100
AcDbLine
 62
7
  6
CONTINUOUS
 10
103.1869837816
 20
80.3031477656
 11
102.1869837816
 21
79.3031477656
  0
LINE
  5
330
100
AcDbEntity
  8
RUNDUNGEN
100
AcDbLine
 62
7
  6
CONTINUOUS
 10
114.1870165555
 20
175.9359722813
 11
100.5635462515
 21
180.6269092958
  0
LINE
  5
331
100
AcDbEntity
  8
BEZUGSACHSEN
100
AcDbLine
 62
7
  6
CONTINUOUS
 10
194.3558419681
 20
79.3031477656
 11
200.3558419681
 21
79.3031477656
  0
LINE
  5
332
100
AcDbEntity
  8
BEZUGSACHSEN
100
AcDbLine
 62
7
  6
CONTINUOUS
 10
193.3558419681
 20
80.3031477656
 11
201.3558419681
 21
80.3031477656
  0
LINE
  5
333
100
AcDbEntity
  8
0
100
AcDbLine
 62
7
  6
CONTINUOUS
 10
182.3558419681
 20
90.8031477656
 11
212.3558419681
 21
90.8031477656
  0
LINE
  5
334
100
AcDbEntity
  8
BEZUGSACHSEN
100
AcDbLine
 62
7
  6
CONTINUOUS
 10
194.3558419681
 20
79.3031477656
 11
193.3558419681
 21
80.3031477656
  0
LINE
  5
335
100
AcDbEntity
  8
RUNDUNGEN
100
AcDbLine
 62
7
  6
CONTINUOUS
 10
192.8558419681
 20
94.5008977656
 11
201.8558419681
 21
94.5008977656
  0
LINE
  5
336
100
AcDbEntity
  8
0
100
AcDbLine
 62
7
  6
CONTINUOUS
 10
212.3558419681
 20
95.9031477656
 11
203.7638206967
 21
95.9031477656
  0
LINE
  5
337
100
AcDbEntity
  8
0
100
AcDbLine
 62
7
  6
CONTINUOUS
 10
182.3558419681
 20
95.9031477656
 11
190.947734956
 21
95.9031477656
  0
LINE
  5
338
100
AcDbEntity
  8
RUNDUNGEN
100
AcDbLine
 62
7
  6
CONTINUOUS
 10
182.1058419681
 20
96.0531477656
 11
190.9070967626
 21
96.0531477656
  0
LINE
  5
339
100
AcDbEntity
  8
RUNDUNGEN
100
AcDbLine
 62
7
  6
CONTINUOUS
 10
203.804715465
 20
96.0531477656
 11
212.6058419681
 21
96.0531477656
  0
LINE
  5
33A
100
AcDbEntity
  8
0
100
AcDbLine
 62
7
  6
CONTINUOUS
 10
203.8558419681
 20
103.6335202033
 11
204.3558419681
 21
103.6335202033
  0
LINE
  5
33B
100
AcDbEntity
  8
0
100
AcDbLine
 62
7
  6
CONTINUOUS
 10
203.8558419681
 20
107.6335202033
 11
204.3558419681
 21
107.6335202033
  0
LINE
  5
33C
100
AcDbEntity
  8
0
100
AcDbLine
 62
7
  6
CONTINUOUS
 10
182.1058419681
 20
96.0531477656
 11
182.1058419681
 21
114.2531477656
  0
LINE
  5
33D
100
AcDbEntity
  8
0
100
AcDbLine
 62
7
  6
CONTINUOUS
 10
182.3558419681
 20
95.9031477656
 11
182.3558419681
 21
90.8031477656
  0
LINE
  5
33E
100
AcDbEntity
  8
0
100
AcDbLine
 62
7
  6
CONTINUOUS
 10
183.3558419681
 20
119.3031477656
 11
183.3558419681
 21
115.8031477656
  0
LINE
  5
33F
100
AcDbEntity
  8
0
100
AcDbLine
 62
7
  6
CONTINUOUS
 10
185.1558419681
 20
115.2531477656
 11
185.1558419681
 21
114.4817191942
  0
LINE
  5
340
100
AcDbEntity
  8
RUNDUNGEN
100
AcDbLine
 62
7
  6
CONTINUOUS
 10
185.1558419681
 20
113.9007763062
 11
185.1558419681
 21
114.4817191942
  0
LINE
  5
341
100
AcDbEntity
  8
0
100
AcDbLine
 62
7
  6
CONTINUOUS
 10
185.2812293337
 20
115.2031477656
 11
185.2812293337
 21
113.9031477656
  0
LINE
  5
342
100
AcDbEntity
  8
RUNDUNGEN
100
AcDbLine
 62
7
  6
CONTINUOUS
 10
210.3680294957
 20
113.9031477656
 11
203.8368601725
 21
113.9031477656
  0
LINE
  5
343
100
AcDbEntity
  8
RUNDUNGEN
100
AcDbLine
 62
7
  6
CONTINUOUS
 10
190.0079605965
 20
113.9031477656
 11
185.1558419681
 21
113.9031477656
  0
LINE
  5
344
100
AcDbEntity
  8
0
100
AcDbLine
 62
7
  6
CONTINUOUS
 10
190.0079605965
 20
113.9031477656
 11
190.8748237588
 21
113.9031477656
  0
LINE
  5
345
100
AcDbEntity
  8
0
100
AcDbLine
 62
7
  6
CONTINUOUS
 10
185.2812293337
 20
115.2031477656
 11
190.9928210532
 21
115.2031477656
  0
LINE
  5
346
100
AcDbEntity
  8
RUNDUNGEN
100
AcDbLine
 62
7
  6
CONTINUOUS
 10
183.1058419681
 20
115.2531477656
 11
185.1558419681
 21
115.2531477656
  0
LINE
  5
347
100
AcDbEntity
  8
0
100
AcDbLine
 62
7
  6
CONTINUOUS
 10
187.1558419681
 20
115.2531477656
 11
189.2588377314
 21
115.2531477656
  0
LINE
  5
348
100
AcDbEntity
  8
RUNDUNGEN
100
AcDbLine
 62
7
  6
CONTINUOUS
 10
187.1558419681
 20
115.2531477656
 11
190.9985178336
 21
115.2531477656
  0
LINE
  5
349
100
AcDbEntity
  8
RUNDUNGEN
100
AcDbLine
 62
7
  6
CONTINUOUS
 10
204.0386928568
 20
115.2531477656
 11
211.6058021547
 21
115.2531477656
  0
LINE
  5
34A
100
AcDbEntity
  8
0
100
AcDbLine
 62
7
  6
CONTINUOUS
 10
211.3558419681
 20
115.8031477656
 11
203.6505015181
 21
115.8031477656
  0
LINE
  5
34B
100
AcDbEntity
  8
0
100
AcDbLine
 62
7
  6
CONTINUOUS
 10
183.3558419681
 20
115.8031477656
 11
191.0611824182
 21
115.8031477656
  0
LINE
  5
34C
100
AcDbEntity
  8
0
100
AcDbLine
 62
7
  6
CONTINUOUS
 10
187.1558419681
 20
115.2531477656
 11
187.1558419681
 21
115.2031477656
  0
LINE
  5
34D
100
AcDbEntity
  8
0
100
AcDbLine
 62
7
  6
CONTINUOUS
 10
188.3558419681
 20
115.8031477656
 11
188.3558419681
 21
115.2531477656
  0
LINE
  5
34E
100
AcDbEntity
  8
0
100
AcDbLine
 62
7
  6
CONTINUOUS
 10
188.3558419681
 20
96.0531477656
 11
188.3558419681
 21
95.9031477656
  0
LINE
  5
34F
100
AcDbEntity
  8
0
100
AcDbLine
 62
7
  6
CONTINUOUS
 10
203.3260413895
 20
118.6508977656
 11
203.8292762559
 21
118.6508977656
  0
LINE
  5
350
100
AcDbEntity
  8
0
100
AcDbLine
 62
7
  6
CONTINUOUS
 10
211.3558419681
 20
119.3031477656
 11
203.7549617553
 21
119.3031477656
  0
LINE
  5
351
100
AcDbEntity
  8
0
100
AcDbLine
 62
7
  6
CONTINUOUS
 10
183.3558419681
 20
119.3031477656
 11
191.4599570472
 21
119.3031477656
  0
LINE
  5
352
100
AcDbEntity
  8
KONSTRUKTIONSELEMENTE
100
AcDbLine
 62
7
  6
CONTINUOUS
 10
190.8558419681
 20
119.8031477656
 11
191.5169248514
 21
119.8031477656
  0
LINE
  5
353
100
AcDbEntity
  8
KONSTRUKTIONSELEMENTE
100
AcDbLine
 62
7
  6
CONTINUOUS
 10
203.6979939512
 20
119.8031477656
 11
203.8558419681
 21
119.8031477656
  0
LINE
  5
354
100
AcDbEntity
  8
RUNDUNGEN
100
AcDbLine
 62
7
  6
CONTINUOUS
 10
190.8558419681
 20
113.1491310556
 11
190.8558419681
 21
96.500940753
  0
LINE
  5
355
100
AcDbEntity
  8
BEZUGSACHSEN
100
AcDbLine
 62
7
  6
CONTINUOUS
 10
190.8558419681
 20
119.8031477656
 11
190.8558419681
 21
124.6031477656
  0
LINE
  5
356
100
AcDbEntity
  8
KONSTRUKTIONSELEMENTE
100
AcDbLine
 62
7
  6
CONTINUOUS
 10
191.8287044574
 20
124.6031477656
 11
191.8287044574
 21
124.8031477656
  0
LINE
  5
357
100
AcDbEntity
  8
RUNDUNGEN
100
AcDbLine
 62
7
  6
CONTINUOUS
 10
192.1058419681
 20
180.3448172709
 11
192.1058419681
 21
125.8238022172
  0
LINE
  5
358
100
AcDbEntity
  8
0
100
AcDbLine
 62
7
  6
CONTINUOUS
 10
203.0133813937
 20
121.3950793303
 11
203.51661626
 21
121.3950793303
  0
LINE
  5
359
100
AcDbEntity
  8
0
100
AcDbLine
 62
7
  6
CONTINUOUS
 10
202.9430399615
 20
122.0124581567
 11
203.4462748279
 21
122.0124581567
  0
LINE
  5
35A
100
AcDbEntity
  8
0
100
AcDbLine
 62
7
  6
CONTINUOUS
 10
202.8549501108
 20
122.7856128533
 11
203.3581849772
 21
122.7856128533
  0
LINE
  5
35B
100
AcDbEntity
  8
0
100
AcDbLine
 62
7
  6
CONTINUOUS
 10
202.8454473711
 20
122.8690173292
 11
203.3486822375
 21
122.8690173292
  0
LINE
  5
35C
100
AcDbEntity
  8
0
100
AcDbLine
 62
7
  6
CONTINUOUS
 10
202.790561058
 20
123.3507483172
 11
203.2937959243
 21
123.3507483172
  0
LINE
  5
35D
100
AcDbEntity
  8
0
100
AcDbLine
 62
7
  6
CONTINUOUS
 10
202.7634729154
 20
123.5884978933
 11
203.2667077818
 21
123.5884978933
  0
LINE
  5
35E
100
AcDbEntity
  8
0
100
AcDbLine
 62
7
  6
CONTINUOUS
 10
202.7312512243
 20
123.8713040467
 11
203.2344860906
 21
123.8713040467
  0
LINE
  5
35F
100
AcDbEntity
  8
0
100
AcDbLine
 62
7
  6
CONTINUOUS
 10
202.6825774103
 20
124.3084552103
 11
203.1846790069
 21
124.3084552103
  0
LINE
  5
360
100
AcDbEntity
  8
BEZUGSACHSEN
100
AcDbLine
 62
7
  6
CONTINUOUS
 10
190.8558419681
 20
124.6031477656
 11
192.0559031324
 21
124.6031477656
  0
LINE
  5
361
100
AcDbEntity
  8
BEZUGSACHSEN
100
AcDbLine
 62
7
  6
CONTINUOUS
 10
203.1511030313
 20
124.6031477656
 11
203.8558419681
 21
124.6031477656
  0
LINE
  5
362
100
AcDbEntity
  8
0
100
AcDbLine
 62
7
  6
CONTINUOUS
 10
202.6494073335
 20
124.68137514
 11
203.1421901479
 21
124.68137514
  0
LINE
  5
363
100
AcDbEntity
  8
KONSTRUKTIONSELEMENTE
100
AcDbLine
 62
7
  6
CONTINUOUS
 10
191.8287044574
 20
124.8031477656
 11
192.0709451334
 21
124.8031477656
  0
LINE
  5
364
100
AcDbEntity
  8
RUNDUNGEN
100
AcDbLine
 62
7
  6
CONTINUOUS
 10
193.1058419681
 20
183.0008353313
 11
193.1058419681
 21
131.7154363825
  0
LINE
  5
365
100
AcDbEntity
  8
BEZUGSACHSEN
100
AcDbLine
 62
7
  6
CONTINUOUS
 10
193.3558419681
 20
80.3031477656
 11
193.3558419681
 21
90.8031477656
  0
LINE
  5
366
100
AcDbEntity
  8
RUNDUNGEN
100
AcDbLine
 62
7
  6
CONTINUOUS
 10
192.0094184049
 20
124.1257082093
 11
190.952264133
 21
114.8471842452
  0
LINE
  5
367
100
AcDbEntity
  8
0
100
AcDbLine
 62
7
  6
CONTINUOUS
 10
202.6233448011
 20
125.0993526201
 11
203.1066917186
 21
125.0993526201
  0
LINE
  5
368
100
AcDbEntity
  8
0
100
AcDbLine
 62
7
  6
CONTINUOUS
 10
202.6058716984
 20
125.7939038412
 11
203.1058419681
 21
125.7939038412
  0
LINE
  5
369
100
AcDbEntity
  8
0
100
AcDbLine
 62
7
  6
CONTINUOUS
 10
202.6058419681
 20
126.1476500874
 11
203.1058419681
 21
126.1476500874
  0
LINE
  5
36A
100
AcDbEntity
  8
0
100
AcDbLine
 62
7
  6
CONTINUOUS
 10
202.6058419681
 20
126.3921088738
 11
203.1058419681
 21
126.3921088738
  0
LINE
  5
36B
100
AcDbEntity
  8
0
100
AcDbLine
 62
7
  6
CONTINUOUS
 10
202.6058419681
 20
126.5723364262
 11
203.1058419681
 21
126.5723364262
  0
LINE
  5
36C
100
AcDbEntity
  8
0
100
AcDbLine
 62
7
  6
CONTINUOUS
 10
202.6058419681
 20
127.4916954208
 11
203.1058419681
 21
127.4916954208
  0
LINE
  5
36D
100
AcDbEntity
  8
0
100
AcDbLine
 62
7
  6
CONTINUOUS
 10
202.6058419681
 20
129.3438324521
 11
203.1058419681
 21
129.3438324521
  0
LINE
  5
36E
100
AcDbEntity
  8
0
100
AcDbLine
 62
7
  6
CONTINUOUS
 10
202.6058419681
 20
129.6975782566
 11
203.1058419681
 21
129.6975782566
  0
LINE
  5
36F
100
AcDbEntity
  8
0
100
AcDbLine
 62
7
  6
CONTINUOUS
 10
202.6058419681
 20
129.9099220884
 11
203.1058419681
 21
129.9099220884
  0
LINE
  5
370
100
AcDbEntity
  8
0
100
AcDbLine
 62
7
  6
CONTINUOUS
 10
202.6058419681
 20
130.0129775773
 11
203.1058419681
 21
130.0129775773
  0
LINE
  5
371
100
AcDbEntity
  8
0
100
AcDbLine
 62
7
  6
CONTINUOUS
 10
202.6058419681
 20
130.2175040401
 11
203.1058419681
 21
130.2175040401
  0
LINE
  5
372
100
AcDbEntity
  8
BEZUGSACHSEN
100
AcDbLine
 62
7
  6
CONTINUOUS
 10
201.3558419681
 20
80.3031477656
 11
201.3558419681
 21
90.8031477656
  0
LINE
  5
373
100
AcDbEntity
  8
RUNDUNGEN
100
AcDbLine
 62
7
  6
CONTINUOUS
 10
201.6058419681
 20
131.3263806924
 11
201.6058419681
 21
183.0008977656
  0
LINE
  5
374
100
AcDbEntity
  8
RUNDUNGEN
100
AcDbLine
 62
7
  6
CONTINUOUS
 10
202.6058419681
 20
125.8237955599
 11
202.6058419681
 21
180.3448076584
  0
LINE
  5
375
100
AcDbEntity
  8
0
100
AcDbLine
 62
7
  6
CONTINUOUS
 10
203.1058419681
 20
130.2175040401
 11
203.1058419681
 21
125.1707513647
  0
LINE
  5
376
100
AcDbEntity
  8
RUNDUNGEN
100
AcDbLine
 62
7
  6
CONTINUOUS
 10
203.8558419681
 20
96.5009407861
 11
203.8558419681
 21
113.1491310543
  0
LINE
  5
377
100
AcDbEntity
  8
BEZUGSACHSEN
100
AcDbLine
 62
7
  6
CONTINUOUS
 10
203.8558419681
 20
119.8031477656
 11
203.8558419681
 21
124.6031477656
  0
LINE
  5
378
100
AcDbEntity
  8
RUNDUNGEN
100
AcDbLine
 62
7
  6
CONTINUOUS
 10
203.7594191452
 20
114.8471900205
 11
202.7022668301
 21
124.12569681
  0
LINE
  5
379
100
AcDbEntity
  8
0
100
AcDbLine
 62
7
  6
CONTINUOUS
 10
203.4462748279
 20
122.0124581567
 11
203.8292762559
 21
118.6508977656
  0
LINE
  5
37A
100
AcDbEntity
  8
0
100
AcDbLine
 62
7
  6
CONTINUOUS
 10
203.3581849772
 20
122.7856128533
 11
203.1251264011
 21
124.8311417233
  0
LINE
  5
37B
100
AcDbEntity
  8
0
100
AcDbLine
 62
7
  6
CONTINUOUS
 10
204.3558419681
 20
107.6334522114
 11
204.3558419681
 21
103.6335881951
  0
LINE
  5
37C
100
AcDbEntity
  8
0
100
AcDbLine
 62
7
  6
CONTINUOUS
 10
206.3558419681
 20
115.8031477656
 11
206.3558419681
 21
115.2531477656
  0
LINE
  5
37D
100
AcDbEntity
  8
0
100
AcDbLine
 62
7
  6
CONTINUOUS
 10
206.3558419681
 20
96.0531477656
 11
206.3558419681
 21
95.9031477656
  0
LINE
  5
37E
100
AcDbEntity
  8
0
100
AcDbLine
 62
7
  6
CONTINUOUS
 10
211.3558419681
 20
119.3031477656
 11
211.3558419681
 21
115.8031477656
  0
LINE
  5
37F
100
AcDbEntity
  8
0
100
AcDbLine
 62
7
  6
CONTINUOUS
 10
212.3558419681
 20
95.9031477656
 11
212.3558419681
 21
90.8031477656
  0
LINE
  5
380
100
AcDbEntity
  8
0
100
AcDbLine
 62
7
  6
CONTINUOUS
 10
212.6058419681
 20
96.0531477656
 11
212.6058419681
 21
114.2531477656
  0
LINE
  5
381
100
AcDbEntity
  8
BEZUGSACHSEN
100
AcDbLine
 62
7
  6
CONTINUOUS
 10
200.3558419681
 20
79.3031477656
 11
201.3558419681
 21
80.3031477656
  0
LINE
  5
382
100
AcDbEntity
  8
0
100
AcDbLine
 62
7
  6
CONTINUOUS
 10
194.6058419681
 20
184.5008977656
 11
200.1058419681
 21
184.5008977656
  0
LINE
  5
383
100
AcDbEntity
  8
0
100
AcDbLine
 62
7
  6
CONTINUOUS
 10
69.1869837816
 20
40.443236383
 11
69.1869837816
 21
34.943236383
  0
LINE
  5
384
100
AcDbEntity
  8
RUNDUNGEN
100
AcDbLine
 62
7
  6
CONTINUOUS
 10
70.1810896983
 20
43.193236383
 11
70.1810896983
 21
41.8546983989
  0
LINE
  5
385
100
AcDbEntity
  8
RUNDUNGEN
100
AcDbLine
 62
7
  6
CONTINUOUS
 10
70.1810896983
 20
33.531774367
 11
70.1810896983
 21
32.193236383
  0
LINE
  5
386
100
AcDbEntity
  8
0
100
AcDbLine
 62
7
  6
CONTINUOUS
 10
74.6657006661
 20
31.193236383
 11
74.6657006661
 21
30.693236383
  0
LINE
  5
387
100
AcDbEntity
  8
0
100
AcDbLine
 62
7
  6
CONTINUOUS
 10
76.8657006661
 20
31.193236383
 11
76.8657006661
 21
30.693236383
  0
LINE
  5
388
100
AcDbEntity
  8
0
100
AcDbLine
 62
7
  6
CONTINUOUS
 10
77.1058518843
 20
32.0356969574
 11
77.1058518843
 21
31.5324620911
  0
LINE
  5
389
100
AcDbEntity
  8
0
100
AcDbLine
 62
7
  6
CONTINUOUS
 10
77.3574225029
 20
32.1060383896
 11
77.3574225029
 21
31.6028035232
  0
LINE
  5
38A
100
AcDbEntity
  8
0
100
AcDbLine
 62
7
  6
CONTINUOUS
 10
78.0657006661
 20
31.193236383
 11
78.0657006661
 21
30.693236383
  0
LINE
  5
38B
100
AcDbEntity
  8
0
100
AcDbLine
 62
7
  6
CONTINUOUS
 10
78.5368582783
 20
32.3996710176
 11
78.5368582783
 21
31.9068882032
  0
LINE
  5
38C
100
AcDbEntity
  8
0
100
AcDbLine
 62
7
  6
CONTINUOUS
 10
78.6152757307
 20
32.42573355
 11
78.6152757307
 21
31.9423866325
  0
LINE
  5
38D
100
AcDbEntity
  8
0
100
AcDbLine
 62
7
  6
CONTINUOUS
 10
78.8982926934
 20
32.4432066526
 11
78.8982926934
 21
31.943236383
  0
LINE
  5
38E
100
AcDbEntity
  8
0
100
AcDbLine
 62
7
  6
CONTINUOUS
 10
79.1044801885
 20
31.9315897555
 11
79.1044801885
 21
31.8600301633
  0
LINE
  5
38F
100
AcDbEntity
  8
0
100
AcDbLine
 62
7
  6
CONTINUOUS
 10
79.134338593
 20
32.443236383
 11
79.134338593
 21
31.943236383
  0
LINE
  5
390
100
AcDbEntity
  8
0
100
AcDbLine
 62
7
  6
CONTINUOUS
 10
79.2780307516
 20
31.943236383
 11
79.2780307516
 21
31.8314675491
  0
LINE
  5
391
100
AcDbEntity
  8
0
100
AcDbLine
 62
7
  6
CONTINUOUS
 10
79.3918642828
 20
31.5379511014
 11
79.3918642828
 21
31.3750669726
  0
LINE
  5
392
100
AcDbEntity
  8
0
100
AcDbLine
 62
7
  6
CONTINUOUS
 10
79.4177525969
 20
32.443236383
 11
79.4177525969
 21
31.943236383
  0
LINE
  5
393
100
AcDbEntity
  8
0
100
AcDbLine
 62
7
  6
CONTINUOUS
 10
79.5618416167
 20
31.943236383
 11
79.5618416167
 21
31.808038504
  0
LINE
  5
394
100
AcDbEntity
  8
0
100
AcDbLine
 62
7
  6
CONTINUOUS
 10
79.5901118158
 20
32.443236383
 11
79.5901118158
 21
31.943236383
  0
LINE
  5
395
100
AcDbEntity
  8
0
100
AcDbLine
 62
7
  6
CONTINUOUS
 10
80.2657006661
 20
31.193236383
 11
80.2657006661
 21
30.693236383
  0
LINE
  5
396
100
AcDbEntity
  8
0
100
AcDbLine
 62
7
  6
CONTINUOUS
 10
80.3448238964
 20
32.443236383
 11
80.3448238964
 21
31.943236383
  0
LINE
  5
397
100
AcDbEntity
  8
RUNDUNGEN
100
AcDbLine
 62
7
  6
CONTINUOUS
 10
87.8148287354
 20
50.7438386664
 11
86.9271798601
 21
50.3707713226
  0
LINE
  5
398
100
AcDbEntity
  8
0
100
AcDbLine
 62
7
  6
CONTINUOUS
 10
80.4956617568
 20
31.5259334758
 11
80.4956617568
 21
31.2725581725
  0
LINE
  5
399
100
AcDbEntity
  8
0
100
AcDbLine
 62
7
  6
CONTINUOUS
 10
80.580869616
 20
32.443236383
 11
80.580869616
 21
31.943236383
  0
LINE
  5
39A
100
AcDbEntity
  8
0
100
AcDbLine
 62
7
  6
CONTINUOUS
 10
80.7440564307
 20
31.943236383
 11
80.7440564307
 21
31.7531521908
  0
LINE
  5
39B
100
AcDbEntity
  8
0
100
AcDbLine
 62
7
  6
CONTINUOUS
 10
80.9430981134
 20
32.443236383
 11
80.9430981134
 21
31.943236383
  0
LINE
  5
39C
100
AcDbEntity
  8
0
100
AcDbLine
 62
7
  6
CONTINUOUS
 10
81.0907600741
 20
31.943236383
 11
81.0907600741
 21
31.7473085383
  0
LINE
  5
39D
100
AcDbEntity
  8
0
100
AcDbLine
 62
7
  6
CONTINUOUS
 10
81.3526943553
 20
32.443236383
 11
81.3526943553
 21
31.943236383
  0
LINE
  5
39E
100
AcDbEntity
  8
0
100
AcDbLine
 62
7
  6
CONTINUOUS
 10
81.3900956132
 20
31.943236383
 11
81.3900956132
 21
31.753916619
  0
LINE
  5
39F
100
AcDbEntity
  8
0
100
AcDbLine
 62
7
  6
CONTINUOUS
 10
81.5648369195
 20
31.7034237132
 11
81.5648369195
 21
31.5715092685
  0
LINE
  5
3A0
100
AcDbEntity
  8
0
100
AcDbLine
 62
7
  6
CONTINUOUS
 10
81.6205835053
 20
32.443236383
 11
81.6205835053
 21
31.943236383
  0
LINE
  5
3A1
100
AcDbEntity
  8
0
100
AcDbLine
 62
7
  6
CONTINUOUS
 10
81.6420632832
 20
31.943236383
 11
81.6420632832
 21
31.7729764807
  0
LINE
  5
3A2
100
AcDbEntity
  8
0
100
AcDbLine
 62
7
  6
CONTINUOUS
 10
81.8466629735
 20
31.943236383
 11
81.8466629735
 21
31.8044881284
  0
LINE
  5
3A3
100
AcDbEntity
  8
0
100
AcDbLine
 62
7
  6
CONTINUOUS
 10
81.9358409803
 20
32.443236383
 11
81.9358409803
 21
31.943236383
  0
LINE
  5
3A4
100
AcDbEntity
  8
0
100
AcDbLine
 62
7
  6
CONTINUOUS
 10
82.1296799363
 20
31.943236383
 11
82.1296799363
 21
31.8836222443
  0
LINE
  5
3A5
100
AcDbEntity
  8
0
100
AcDbLine
 62
7
  6
CONTINUOUS
 10
82.1408377118
 20
32.443236383
 11
82.1408377118
 21
31.943236383
  0
LINE
  5
3A6
100
AcDbEntity
  8
0
100
AcDbLine
 62
7
  6
CONTINUOUS
 10
82.3617559785
 20
32.443236383
 11
82.3617559785
 21
31.943236383
  0
LINE
  5
3A7
100
AcDbEntity
  8
0
100
AcDbLine
 62
7
  6
CONTINUOUS
 10
82.4724133625
 20
32.443236383
 11
82.4724133625
 21
31.943236383
  0
LINE
  5
3A8
100
AcDbEntity
  8
0
100
AcDbLine
 62
7
  6
CONTINUOUS
 10
82.6809831384
 20
31.943236383
 11
82.6809831384
 21
31.909290187
  0
LINE
  5
3A9
100
AcDbEntity
  8
0
100
AcDbLine
 62
7
  6
CONTINUOUS
 10
88.2172680147
 20
48.8334893856
 11
83.5624887015
 21
43.4520493146
  0
LINE
  5
3AA
100
AcDbEntity
  8
0
100
AcDbLine
 62
7
  6
CONTINUOUS
 10
78.5368582783
 20
31.9068882032
 11
78.5687017086
 21
31.8643993442
  0
LINE
  5
3AB
100
AcDbEntity
  8
0
100
AcDbLine
 62
7
  6
CONTINUOUS
 10
83.4830631503
 20
32.443236383
 11
83.4830631503
 21
31.943236383
  0
LINE
  5
3AC
100
AcDbEntity
  8
RUNDUNGEN
100
AcDbLine
 62
7
  6
CONTINUOUS
 10
83.9369837816
 20
29.49296986
 11
83.9369837816
 21
32.040031261
  0
LINE
  5
3AD
100
AcDbEntity
  8
RUNDUNGEN
100
AcDbLine
 62
7
  6
CONTINUOUS
 10
83.9369837816
 20
43.8850070759
 11
83.9369837816
 21
45.7924869063
  0
LINE
  5
3AE
100
AcDbEntity
  8
0
100
AcDbLine
 62
7
  6
CONTINUOUS
 10
89.200489435
 20
47.9830332499
 11
84.9442795619
 21
43.0623835648
  0
LINE
  5
3AF
100
AcDbEntity
  8
0
100
AcDbLine
 62
7
  6
CONTINUOUS
 10
82.6809831384
 20
31.909290187
 11
82.6699948949
 21
31.92395195
  0
LINE
  5
3B0
100
AcDbEntity
  8
0
100
AcDbLine
 62
7
  6
CONTINUOUS
 10
88.9644643423
 20
43.9847900997
 11
88.8189305329
 21
43.7350466937
  0
LINE
  5
3B1
100
AcDbEntity
  8
0
100
AcDbLine
 62
7
  6
CONTINUOUS
 10
93.3025401124
 20
45.955931439
 11
92.7664736796
 21
45.5466341773
  0
LINE
  5
3B2
100
AcDbEntity
  8
0
100
AcDbLine
 62
7
  6
CONTINUOUS
 10
92.9924303694
 20
45.2506932854
 11
93.5284968022
 21
45.6599905472
  0
LINE
  5
3B3
100
AcDbEntity
  8
0
100
AcDbLine
 62
7
  6
CONTINUOUS
 10
79.1044801885
 20
31.8600301633
 11
79.0411905489
 21
31.8937263763
  0
LINE
  5
3B4
100
AcDbEntity
  8
RUNDUNGEN
100
AcDbLine
 62
7
  6
CONTINUOUS
 10
80.4774975565
 20
43.8958971664
 11
80.458623309
 21
43.9308433078
  0
LINE
  5
3B5
100
AcDbEntity
  8
0
100
AcDbLine
 62
7
  6
CONTINUOUS
 10
99.9602186898
 20
49.0068687207
 11
100.1764285959
 21
49.2076093854
  0
LINE
  5
3B6
100
AcDbEntity
  8
0
100
AcDbLine
 62
7
  6
CONTINUOUS
 10
79.0411905489
 20
31.8937263763
 11
79.0777533569
 21
31.92395195
  0
LINE
  5
3B7
100
AcDbEntity
  8
0
100
AcDbLine
 62
7
  6
CONTINUOUS
 10
100.1696951213
 20
49.5829930385
 11
99.9056043536
 21
49.3875762318
  0
LINE
  5
3B8
100
AcDbEntity
  8
0
100
AcDbLine
 62
7
  6
CONTINUOUS
 10
99.8450075175
 20
47.9707009164
 11
99.7410169744
 21
47.9073366002
  0
LINE
  5
3B9
100
AcDbEntity
  8
0
100
AcDbLine
 62
7
  6
CONTINUOUS
 10
99.8038606785
 20
47.6006410604
 11
100.0118412167
 21
47.7273697538
  0
LINE
  5
3BA
100
AcDbEntity
  8
0
100
AcDbLine
 62
7
  6
CONTINUOUS
 10
100.8026173525
 20
47.86422458
 11
100.9066076217
 21
47.9275889267
  0
LINE
  5
3BB
100
AcDbEntity
  8
0
100
AcDbLine
 62
7
  6
CONTINUOUS
 10
121.0770083262
 20
31.3942079927
 11
121.2677766001
 21
31.4439507552
  0
LINE
  5
3BC
100
AcDbEntity
  8
0
100
AcDbLine
 62
7
  6
CONTINUOUS
 10
98.8135003593
 20
25.6955673597
 11
99.102546587
 21
25.693533455
  0
LINE
  5
3BD
100
AcDbEntity
  8
0
100
AcDbLine
 62
7
  6
CONTINUOUS
 10
95.731672611
 20
26.2013633621
 11
96.0759547172
 21
26.1741936567
  0
LINE
  5
3BE
100
AcDbEntity
  8
0
100
AcDbLine
 62
7
  6
CONTINUOUS
 10
95.5473565541
 20
26.257590288
 11
95.731672611
 21
26.2013633621
  0
LINE
  5
3BF
100
AcDbEntity
  8
0
100
AcDbLine
 62
7
  6
CONTINUOUS
 10
95.8863934945
 20
26.5434446708
 11
95.7020774376
 21
26.5996715967
  0
LINE
  5
3C0
100
AcDbEntity
  8
0
100
AcDbLine
 62
7
  6
CONTINUOUS
 10
93.002335011
 20
27.4096358268
 11
93.3292633395
 21
27.2983357057
  0
LINE
  5
3C1
100
AcDbEntity
  8
0
100
AcDbLine
 62
7
  6
CONTINUOUS
 10
82.1766508195
 20
31.9224520161
 11
82.1738335787
 21
31.92395195
  0
LINE
  5
3C2
100
AcDbEntity
  8
0
100
AcDbLine
 62
7
  6
CONTINUOUS
 10
90.6218909918
 20
29.288524282
 11
90.8774940295
 21
29.1343670895
  0
LINE
  5
3C3
100
AcDbEntity
  8
0
100
AcDbLine
 62
7
  6
CONTINUOUS
 10
92.9199672422
 20
27.4596238972
 11
93.002335011
 21
27.4096358268
  0
LINE
  5
3C4
100
AcDbEntity
  8
0
100
AcDbLine
 62
7
  6
CONTINUOUS
 10
93.2366981893
 20
27.702948436
 11
93.0719588811
 21
27.8029268651
  0
LINE
  5
3C5
100
AcDbEntity
  8
0
100
AcDbLine
 62
7
  6
CONTINUOUS
 10
95.2926098934
 20
26.4131585745
 11
95.5473565541
 21
26.257590288
  0
LINE
  5
3C6
100
AcDbEntity
  8
0
100
AcDbLine
 62
7
  6
CONTINUOUS
 10
92.6703098771
 20
27.6982471338
 11
92.9199672422
 21
27.4596238972
  0
LINE
  5
3C7
100
AcDbEntity
  8
0
100
AcDbLine
 62
7
  6
CONTINUOUS
 10
93.0719588811
 20
27.8029268651
 11
92.9046730555
 21
27.9915597429
  0
LINE
  5
3C8
100
AcDbEntity
  8
0
100
AcDbLine
 62
7
  6
CONTINUOUS
 10
89.3122417691
 20
30.87385404
 11
89.4511028394
 21
30.6770317372
  0
LINE
  5
3C9
100
AcDbEntity
  8
0
100
AcDbLine
 62
7
  6
CONTINUOUS
 10
90.4725922845
 20
29.5469952647
 11
90.6218909918
 21
29.288524282
  0
LINE
  5
3CA
100
AcDbEntity
  8
0
100
AcDbLine
 62
7
  6
CONTINUOUS
 10
90.8876518179
 20
29.5493087576
 11
90.7720959524
 21
29.7733930096
  0
LINE
  5
3CB
100
AcDbEntity
  8
0
100
AcDbLine
 62
7
  6
CONTINUOUS
 10
88.6942136488
 20
31.8466475946
 11
88.8020628251
 21
31.6312593505
  0
LINE
  5
3CC
100
AcDbEntity
  8
0
100
AcDbLine
 62
7
  6
CONTINUOUS
 10
90.4633407495
 20
29.875393307
 11
90.4725922845
 21
29.5469952647
  0
LINE
  5
3CD
100
AcDbEntity
  8
0
100
AcDbLine
 62
7
  6
CONTINUOUS
 10
90.7720959524
 20
29.7733930096
 11
90.7771748466
 21
29.9808638437
  0
LINE
  5
3CE
100
AcDbEntity
  8
0
100
AcDbLine
 62
7
  6
CONTINUOUS
 10
90.5215718089
 20
30.1350210361
 11
90.4633407495
 21
29.875393307
  0
LINE
  5
3CF
100
AcDbEntity
  8
BEZUGSACHSEN
100
AcDbLine
 62
7
  6
CONTINUOUS
 10
95.4342070319
 20
44.193236383
 11
94.7125191954
 21
42.943236383
  0
LINE
  5
3D0
100
AcDbEntity
  8
0
100
AcDbLine
 62
7
  6
CONTINUOUS
 10
99.9056043536
 20
49.3875762318
 11
99.7372747612
 21
49.1815117701
  0
LINE
  5
3D1
100
AcDbEntity
  8
0
100
AcDbLine
 62
7
  6
CONTINUOUS
 10
99.7410169744
 20
47.9073366002
 11
99.5248070683
 21
47.7065959356
  0
LINE
  5
3D2
100
AcDbEntity
  8
0
100
AcDbLine
 62
7
  6
CONTINUOUS
 10
100.8519935594
 20
48.3082964073
 11
100.6357833794
 21
48.1075557731
  0
LINE
  5
3D3
100
AcDbEntity
  8
0
100
AcDbLine
 62
7
  6
CONTINUOUS
 10
82.1766508195
 20
31.9224520161
 11
82.1296799363
 21
31.8836222443
  0
LINE
  5
3D4
100
AcDbEntity
  8
0
100
AcDbLine
 62
7
  6
CONTINUOUS
 10
100.5175809693
 20
46.1725966657
 11
100.7816714652
 21
46.3680135223
  0
LINE
  5
3D5
100
AcDbEntity
  8
0
100
AcDbLine
 62
7
  6
CONTINUOUS
 10
100.6709474503
 20
46.6800328851
 11
100.4629666381
 21
46.5533042221
  0
LINE
  5
3D6
100
AcDbEntity
  8
0
100
AcDbLine
 62
7
  6
CONTINUOUS
 10
78.5368582783
 20
31.9068882032
 11
78.5649562369
 21
31.92395195
  0
LINE
  5
3D7
100
AcDbEntity
  8
0
100
AcDbLine
 62
7
  6
CONTINUOUS
 10
115.8472915505
 20
31.911250215
 11
115.8960039306
 21
31.92395195
  0
LINE
  5
3D8
100
AcDbEntity
  8
0
100
AcDbLine
 62
7
  6
CONTINUOUS
 10
120.7318865199
 20
31.4397627656
 11
120.5575930857
 21
31.4112588961
  0
LINE
  5
3D9
100
AcDbEntity
  8
0
100
AcDbLine
 62
7
  6
CONTINUOUS
 10
93.3292633395
 20
27.2983357057
 11
93.5712717259
 21
27.3256815361
  0
LINE
  5
3DA
100
AcDbEntity
  8
0
100
AcDbLine
 62
7
  6
CONTINUOUS
 10
96.138518627
 20
26.5443881066
 11
95.8863934945
 21
26.5434446708
  0
LINE
  5
3DB
100
AcDbEntity
  8
0
100
AcDbLine
 62
7
  6
CONTINUOUS
 10
93.4812549785
 20
27.6416386735
 11
93.2366981893
 21
27.702948436
  0
LINE
  5
3DC
100
AcDbEntity
  8
0
100
AcDbLine
 62
7
  6
CONTINUOUS
 10
78.5687017086
 20
31.8643993442
 11
78.7581735862
 21
31.8145922604
  0
LINE
  5
3DD
100
AcDbEntity
  8
0
100
AcDbLine
 62
7
  6
CONTINUOUS
 10
96.7079522205
 20
26.7599583494
 11
96.4775576767
 21
26.8302418459
  0
LINE
  5
3DE
100
AcDbEntity
  8
0
100
AcDbLine
 62
7
  6
CONTINUOUS
 10
91.1095135584
 20
29.4295367217
 11
90.8876518179
 21
29.5493087576
  0
LINE
  5
3DF
100
AcDbEntity
  8
0
100
AcDbLine
 62
7
  6
CONTINUOUS
 10
94.0862787724
 20
27.7100015334
 11
93.8803555798
 21
27.8349739977
  0
LINE
  5
3E0
100
AcDbEntity
  8
0
100
AcDbLine
 62
7
  6
CONTINUOUS
 10
93.690126697
 20
28.8215119666
 11
93.8548660052
 21
28.7215335375
  0
LINE
  5
3E1
100
AcDbEntity
  8
0
100
AcDbLine
 62
7
  6
CONTINUOUS
 10
94.0094079322
 20
28.9761797683
 11
93.8446686239
 21
29.0761581974
  0
LINE
  5
3E2
100
AcDbEntity
  8
0
100
AcDbLine
 62
7
  6
CONTINUOUS
 10
94.8874266697
 20
29.4015191725
 11
95.0933498624
 21
29.2765467082
  0
LINE
  5
3E3
100
AcDbEntity
  8
0
100
AcDbLine
 62
7
  6
CONTINUOUS
 10
95.7020774376
 20
26.5996715967
 11
95.4934092638
 21
26.7411833126
  0
LINE
  5
3E4
100
AcDbEntity
  8
0
100
AcDbLine
 62
7
  6
CONTINUOUS
 10
93.8446686239
 20
29.0761581974
 11
93.6361970286
 21
29.2897862546
  0
LINE
  5
3E5
100
AcDbEntity
  8
0
100
AcDbLine
 62
7
  6
CONTINUOUS
 10
95.1517486858
 20
26.6118412956
 11
95.2926098934
 21
26.4131585745
  0
LINE
  5
3E6
100
AcDbEntity
  8
0
100
AcDbLine
 62
7
  6
CONTINUOUS
 10
93.2693417581
 20
31.4814276575
 11
93.1200430555
 21
31.7398986448
  0
LINE
  5
3E7
100
AcDbEntity
  8
0
100
AcDbLine
 62
7
  6
CONTINUOUS
 10
92.8542821921
 20
31.4791141326
 11
92.9698396021
 21
31.2550283065
  0
LINE
  5
3E8
100
AcDbEntity
  8
0
100
AcDbLine
 62
7
  6
CONTINUOUS
 10
95.4934092638
 20
26.7411833126
 11
95.3986286525
 21
26.9258088196
  0
LINE
  5
3E9
100
AcDbEntity
  8
0
100
AcDbLine
 62
7
  6
CONTINUOUS
 10
93.3092705854
 20
29.4010852317
 11
93.4379228145
 21
29.1487896519
  0
LINE
  5
3EA
100
AcDbEntity
  8
0
100
AcDbLine
 62
7
  6
CONTINUOUS
 10
92.5828434176
 20
27.9255475341
 11
92.6703098771
 21
27.6982471338
  0
LINE
  5
3EB
100
AcDbEntity
  8
0
100
AcDbLine
 62
7
  6
CONTINUOUS
 10
92.9046730555
 20
27.9915597429
 11
92.8583904804
 21
28.1938661081
  0
LINE
  5
3EC
100
AcDbEntity
  8
0
100
AcDbLine
 62
7
  6
CONTINUOUS
 10
92.5726479216
 20
28.2801710499
 11
92.5828434176
 21
27.9255475341
  0
LINE
  5
3ED
100
AcDbEntity
  8
0
100
AcDbLine
 62
7
  6
CONTINUOUS
 10
93.2785948237
 20
31.1530280274
 11
93.2693417581
 21
31.4814276575
  0
LINE
  5
3EE
100
AcDbEntity
  8
0
100
AcDbLine
 62
7
  6
CONTINUOUS
 10
92.9698396021
 20
31.2550283065
 11
92.9647607079
 21
31.0475574725
  0
LINE
  5
3EF
100
AcDbEntity
  8
0
100
AcDbLine
 62
7
  6
CONTINUOUS
 10
92.8583904804
 20
28.1938661081
 11
92.8919272714
 21
28.4348399957
  0
LINE
  5
3F0
100
AcDbEntity
  8
0
100
AcDbLine
 62
7
  6
CONTINUOUS
 10
93.3428073764
 20
29.6420591193
 11
93.3092705854
 21
29.4010852317
  0
LINE
  5
3F1
100
AcDbEntity
  8
0
100
AcDbLine
 62
7
  6
CONTINUOUS
 10
93.2203637457
 20
30.89340028
 11
93.2785948237
 21
31.1530280274
  0
LINE
  5
3F2
100
AcDbEntity
  8
0
100
AcDbLine
 62
7
  6
CONTINUOUS
 10
99.7372747612
 20
49.1815117701
 11
99.6003669978
 21
48.8220993312
  0
LINE
  5
3F3
100
AcDbEntity
  8
0
100
AcDbLine
 62
7
  6
CONTINUOUS
 10
90.7771748466
 20
29.9808638437
 11
90.9611197089
 21
30.4313491349
  0
LINE
  5
3F4
100
AcDbEntity
  8
0
100
AcDbLine
 62
7
  6
CONTINUOUS
 10
90.6666963308
 20
30.4124205038
 11
90.5215718089
 21
30.1350210361
  0
LINE
  5
3F5
100
AcDbEntity
  8
0
100
AcDbLine
 62
7
  6
CONTINUOUS
 10
99.8397693881
 20
48.7954802547
 11
99.9602186898
 21
49.0068687207
  0
LINE
  5
3F6
100
AcDbEntity
  8
0
100
AcDbLine
 62
7
  6
CONTINUOUS
 10
100.9724425641
 20
48.5196846964
 11
100.8519935594
 21
48.3082964073
  0
LINE
  5
3F7
100
AcDbEntity
  8
0
100
AcDbLine
 62
7
  6
CONTINUOUS
 10
99.6273017067
 20
47.3205645238
 11
99.8038606785
 21
47.6006410604
  0
LINE
  5
3F8
100
AcDbEntity
  8
0
100
AcDbLine
 62
7
  6
CONTINUOUS
 10
100.8475064163
 20
46.9601093698
 11
100.6709474503
 21
46.6800328851
  0
LINE
  5
3F9
100
AcDbEntity
  8
0
100
AcDbLine
 62
7
  6
CONTINUOUS
 10
90.7924116782
 20
30.6032764918
 11
90.6666963308
 21
30.4124205038
  0
LINE
  5
3FA
100
AcDbEntity
  8
0
100
AcDbLine
 62
7
  6
CONTINUOUS
 10
100.9066076217
 20
47.9275889267
 11
101.074937214
 21
48.1336533883
  0
LINE
  5
3FB
100
AcDbEntity
  8
0
100
AcDbLine
 62
7
  6
CONTINUOUS
 10
100.7816714652
 20
46.3680135223
 11
100.9500010605
 21
46.5740780099
  0
LINE
  5
3FC
100
AcDbEntity
  8
0
100
AcDbLine
 62
7
  6
CONTINUOUS
 10
82.6025658729
 20
31.8616677185
 11
82.6809831384
 21
31.909290187
  0
LINE
  5
3FD
100
AcDbEntity
  8
0
100
AcDbLine
 62
7
  6
CONTINUOUS
 10
108.1522081074
 20
44.0462771236
 11
107.8083641714
 21
43.8955136417
  0
LINE
  5
3FE
100
AcDbEntity
  8
0
100
AcDbLine
 62
7
  6
CONTINUOUS
 10
108.368453493
 20
44.1202257287
 11
108.1522081074
 21
44.0462771236
  0
LINE
  5
3FF
100
AcDbEntity
  8
0
100
AcDbLine
 62
7
  6
CONTINUOUS
 10
93.6820794804
 20
27.6939785392
 11
93.4812549785
 21
27.6416386735
  0
LINE
  5
400
100
AcDbEntity
  8
0
100
AcDbLine
 62
7
  6
CONTINUOUS
 10
116.3831817136
 20
31.9154382084
 11
116.4352408877
 21
31.92395195
  0
LINE
  5
401
100
AcDbEntity
  8
0
100
AcDbLine
 62
7
  6
CONTINUOUS
 10
120.8238058583
 20
31.3620717057
 11
121.0770083262
 21
31.3942079927
  0
LINE
  5
402
100
AcDbEntity
  8
0
100
AcDbLine
 62
7
  6
CONTINUOUS
 10
120.5575930857
 20
31.4112588961
 11
120.2731731635
 21
31.3879259477
  0
LINE
  5
403
100
AcDbEntity
  8
0
100
AcDbLine
 62
7
  6
CONTINUOUS
 10
120.4604764602
 20
31.3351063194
 11
120.8238058583
 21
31.3620717057
  0
LINE
  5
404
100
AcDbEntity
  8
0
100
AcDbLine
 62
7
  6
CONTINUOUS
 10
119.2768375275
 20
31.2806198994
 11
120.4604764602
 21
31.3351063194
  0
LINE
  5
405
100
AcDbEntity
  8
0
100
AcDbLine
 62
7
  6
CONTINUOUS
 10
120.2731731635
 20
31.3879259477
 11
119.0895342308
 21
31.3334395277
  0
LINE
  5
406
100
AcDbEntity
  8
0
100
AcDbLine
 62
7
  6
CONTINUOUS
 10
117.4263596952
 20
31.5436068134
 11
120.1881840005
 21
31.6707417993
  0
LINE
  5
407
100
AcDbEntity
  8
0
100
AcDbLine
 62
7
  6
CONTINUOUS
 10
120.4743362326
 20
31.7453559935
 11
116.7656008144
 21
31.5746318731
  0
LINE
  5
408
100
AcDbEntity
  8
0
100
AcDbLine
 62
7
  6
CONTINUOUS
 10
91.3170433252
 20
29.4306934681
 11
91.1095135584
 21
29.4295367217
  0
LINE
  5
409
100
AcDbEntity
  8
0
100
AcDbLine
 62
7
  6
CONTINUOUS
 10
80.2657006661
 20
30.693236383
 11
78.0657704467
 21
30.693236383
  0
LINE
  5
40A
100
AcDbEntity
  8
0
100
AcDbLine
 62
7
  6
CONTINUOUS
 10
76.8657006661
 20
30.693236383
 11
74.6657704467
 21
30.693236383
  0
LINE
  5
40B
100
AcDbEntity
  8
0
100
AcDbLine
 62
7
  6
CONTINUOUS
 10
99.1271741021
 20
29.193446809
 11
98.8381278744
 21
29.1954807137
  0
LINE
  5
40C
100
AcDbEntity
  8
0
100
AcDbLine
 62
7
  6
CONTINUOUS
 10
90.8774940295
 20
29.1343670895
 11
91.2056601005
 21
29.1189088439
  0
LINE
  5
40D
100
AcDbEntity
  8
0
100
AcDbLine
 62
7
  6
CONTINUOUS
 10
93.3657486565
 20
28.8441553507
 11
93.690126697
 21
28.8215119666
  0
LINE
  5
40E
100
AcDbEntity
  8
0
100
AcDbLine
 62
7
  6
CONTINUOUS
 10
79.010538242
 20
31.7823705693
 11
79.3731636415
 21
31.7552824267
  0
LINE
  5
40F
100
AcDbEntity
  8
0
100
AcDbLine
 62
7
  6
CONTINUOUS
 10
79.5618416167
 20
31.808038504
 11
79.2780307516
 21
31.8314675491
  0
LINE
  5
410
100
AcDbEntity
  8
0
100
AcDbLine
 62
7
  6
CONTINUOUS
 10
79.3918642828
 20
31.3750669726
 11
77.5468944254
 21
31.552996452
  0
LINE
  5
411
100
AcDbEntity
  8
0
100
AcDbLine
 62
7
  6
CONTINUOUS
 10
80.4956617568
 20
31.2725581725
 11
79.6756751929
 21
31.3516379401
  0
LINE
  5
412
100
AcDbEntity
  8
0
100
AcDbLine
 62
7
  6
CONTINUOUS
 10
77.1058518843
 20
31.5324620911
 11
80.3069837816
 21
31.2198020952
  0
LINE
  5
413
100
AcDbEntity
  8
0
100
AcDbLine
 62
7
  6
CONTINUOUS
 10
97.8832412371
 20
28.9132086434
 11
98.1224572784
 21
28.8849568522
  0
LINE
  5
414
100
AcDbEntity
  8
0
100
AcDbLine
 62
7
  6
CONTINUOUS
 10
98.5055907257
 20
29.6645500863
 11
98.2663746844
 21
29.6928018775
  0
LINE
  5
415
100
AcDbEntity
  8
0
100
AcDbLine
 62
7
  6
CONTINUOUS
 10
78.7581735862
 20
31.8145922604
 11
79.010538242
 21
31.7823705693
  0
LINE
  5
416
100
AcDbEntity
  8
0
100
AcDbLine
 62
7
  6
CONTINUOUS
 10
79.2780307516
 20
31.8314675491
 11
79.1044801885
 21
31.8600301633
  0
LINE
  5
417
100
AcDbEntity
  8
0
100
AcDbLine
 62
7
  6
CONTINUOUS
 10
94.6122815614
 20
30.5267007156
 11
94.408906768
 21
30.5630175814
  0
LINE
  5
418
100
AcDbEntity
  8
0
100
AcDbLine
 62
7
  6
CONTINUOUS
 10
94.2157293357
 20
30.2447097539
 11
94.4602880101
 21
30.1833988473
  0
LINE
  5
419
100
AcDbEntity
  8
0
100
AcDbLine
 62
7
  6
CONTINUOUS
 10
95.7687649423
 20
29.4600006
 11
97.0589815593
 21
29.0664108316
  0
LINE
  5
41A
100
AcDbEntity
  8
0
100
AcDbLine
 62
7
  6
CONTINUOUS
 10
97.5362581943
 20
29.3100942655
 11
95.8774073542
 21
29.8161385292
  0
LINE
  5
41B
100
AcDbEntity
  8
0
100
AcDbLine
 62
7
  6
CONTINUOUS
 10
92.6324219961
 20
31.5988845945
 11
92.8542821921
 21
31.4791141326
  0
LINE
  5
41C
100
AcDbEntity
  8
0
100
AcDbLine
 62
7
  6
CONTINUOUS
 10
93.1200430555
 20
31.7398986448
 11
92.8644400131
 21
31.8940558327
  0
LINE
  5
41D
100
AcDbEntity
  8
0
100
AcDbLine
 62
7
  6
CONTINUOUS
 10
94.4602880101
 20
30.1833988473
 11
94.7073950871
 21
30.0334323478
  0
LINE
  5
41E
100
AcDbEntity
  8
0
100
AcDbLine
 62
7
  6
CONTINUOUS
 10
94.9417564073
 20
30.3267461457
 11
94.6122815614
 21
30.5267007156
  0
LINE
  5
41F
100
AcDbEntity
  8
0
100
AcDbLine
 62
7
  6
CONTINUOUS
 10
94.7073950871
 20
30.0334323478
 11
94.8746827981
 21
29.8447983258
  0
LINE
  5
420
100
AcDbEntity
  8
0
100
AcDbLine
 62
7
  6
CONTINUOUS
 10
95.0678602304
 20
30.1631061533
 11
94.9417564073
 21
30.3267461457
  0
LINE
  5
421
100
AcDbEntity
  8
0
100
AcDbLine
 62
7
  6
CONTINUOUS
 10
88.8189305329
 20
43.7350466937
 11
89.1237819616
 21
43.2228487931
  0
LINE
  5
422
100
AcDbEntity
  8
BEZUGSACHSEN
100
AcDbLine
 62
7
  6
CONTINUOUS
 10
94.7125191954
 20
32.443236383
 11
95.4342070319
 21
31.193236383
  0
LINE
  5
423
100
AcDbEntity
  8
0
100
AcDbLine
 62
7
  6
CONTINUOUS
 10
94.8746827981
 20
29.8447983258
 11
94.9184150852
 21
29.7311486977
  0
LINE
  5
424
100
AcDbEntity
  8
0
100
AcDbLine
 62
7
  6
CONTINUOUS
 10
95.1553266797
 20
29.9358057362
 11
95.0678602304
 21
30.1631061533
  0
LINE
  5
425
100
AcDbEntity
  8
0
100
AcDbLine
 62
7
  6
CONTINUOUS
 10
95.0543465463
 20
26.952978525
 11
95.1517486858
 21
26.6118412956
  0
LINE
  5
426
100
AcDbEntity
  8
0
100
AcDbLine
 62
7
  6
CONTINUOUS
 10
93.6361970286
 20
29.2897862546
 11
93.5899144535
 21
29.4920926198
  0
LINE
  5
427
100
AcDbEntity
  8
0
100
AcDbLine
 62
7
  6
CONTINUOUS
 10
95.2016092413
 20
29.7334993488
 11
95.1553266797
 21
29.9358057362
  0
LINE
  5
428
100
AcDbEntity
  8
0
100
AcDbLine
 62
7
  6
CONTINUOUS
 10
95.3986286525
 20
26.9258088196
 11
95.3716571167
 21
27.1676046884
  0
LINE
  5
429
100
AcDbEntity
  8
0
100
AcDbLine
 62
7
  6
CONTINUOUS
 10
94.9184150852
 20
29.7311486977
 11
94.9235137488
 21
29.5538363231
  0
LINE
  5
42A
100
AcDbEntity
  8
0
100
AcDbLine
 62
7
  6
CONTINUOUS
 10
97.8373413844
 20
49.6389747241
 11
97.6627657181
 21
46.4336702428
  0
LINE
  5
42B
100
AcDbEntity
  8
0
100
AcDbLine
 62
7
  6
CONTINUOUS
 10
95.0951819767
 20
27.2519453991
 11
95.0543465463
 21
26.952978525
  0
LINE
  5
42C
100
AcDbEntity
  8
0
100
AcDbLine
 62
7
  6
CONTINUOUS
 10
95.1680724502
 20
29.4925254611
 11
95.2016092413
 21
29.7334993488
  0
LINE
  5
42D
100
AcDbEntity
  8
0
100
AcDbLine
 62
7
  6
CONTINUOUS
 10
93.5899144535
 20
29.4920926198
 11
93.6620886657
 21
29.7967270102
  0
LINE
  5
42E
100
AcDbEntity
  8
0
100
AcDbLine
 62
7
  6
CONTINUOUS
 10
94.9235137488
 20
29.5538363231
 11
94.8874266697
 21
29.4015191725
  0
LINE
  5
42F
100
AcDbEntity
  8
0
100
AcDbLine
 62
7
  6
CONTINUOUS
 10
99.5248070683
 20
47.7065959356
 11
99.3878990425
 21
47.3471836308
  0
LINE
  5
430
100
AcDbEntity
  8
0
100
AcDbLine
 62
7
  6
CONTINUOUS
 10
100.9500010605
 20
46.5740780099
 11
101.0869088066
 21
46.9334902933
  0
LINE
  5
431
100
AcDbEntity
  8
0
100
AcDbLine
 62
7
  6
CONTINUOUS
 10
92.6860040788
 20
28.5598124601
 11
92.5726479216
 21
28.2801710499
  0
LINE
  5
432
100
AcDbEntity
  8
0
100
AcDbLine
 62
7
  6
CONTINUOUS
 10
93.456165473
 20
29.9216994745
 11
93.3428073764
 21
29.6420591193
  0
LINE
  5
433
100
AcDbEntity
  8
0
100
AcDbLine
 62
7
  6
CONTINUOUS
 10
92.9647607079
 20
31.0475574725
 11
92.7808144128
 21
30.5970738649
  0
LINE
  5
434
100
AcDbEntity
  8
0
100
AcDbLine
 62
7
  6
CONTINUOUS
 10
101.074937214
 20
48.1336533883
 11
101.2036158606
 21
48.4190536182
  0
LINE
  5
435
100
AcDbEntity
  8
0
100
AcDbLine
 62
7
  6
CONTINUOUS
 10
93.0752391866
 20
30.6160007758
 11
93.2203637457
 21
30.89340028
  0
LINE
  5
436
100
AcDbEntity
  8
0
100
AcDbLine
 62
7
  6
CONTINUOUS
 10
93.6107073999
 20
30.1763457053
 11
93.456165473
 21
29.9216994745
  0
LINE
  5
437
100
AcDbEntity
  8
0
100
AcDbLine
 62
7
  6
CONTINUOUS
 10
92.7632751505
 20
28.6871357538
 11
92.6860040788
 21
28.5598124601
  0
LINE
  5
438
100
AcDbEntity
  8
0
100
AcDbLine
 62
7
  6
CONTINUOUS
 10
92.9495239881
 20
30.4251449339
 11
93.0752391866
 21
30.6160007758
  0
LINE
  5
439
100
AcDbEntity
  8
0
100
AcDbLine
 62
7
  6
CONTINUOUS
 10
91.0244296625
 20
30.8984476981
 11
90.7924116782
 21
30.6032764918
  0
LINE
  5
43A
100
AcDbEntity
  8
0
100
AcDbLine
 62
7
  6
CONTINUOUS
 10
90.9611197089
 20
30.4313491349
 11
91.246291403
 21
30.7786756622
  0
LINE
  5
43B
100
AcDbEntity
  8
0
100
AcDbLine
 62
7
  6
CONTINUOUS
 10
91.5027991496
 20
31.3678597541
 11
91.0244296625
 21
30.8984476981
  0
LINE
  5
43C
100
AcDbEntity
  8
0
100
AcDbLine
 62
7
  6
CONTINUOUS
 10
91.246291403
 20
30.7786756622
 11
91.6183565597
 21
31.143773928
  0
LINE
  5
43D
100
AcDbEntity
  8
0
100
AcDbLine
 62
7
  6
CONTINUOUS
 10
91.5366913299
 20
32.443236383
 11
89.3122417691
 21
30.87385404
  0
LINE
  5
43E
100
AcDbEntity
  8
0
100
AcDbLine
 62
7
  6
CONTINUOUS
 10
107.8083641714
 20
43.8955136417
 11
107.2341698901
 21
43.5498462121
  0
LINE
  5
43F
100
AcDbEntity
  8
0
100
AcDbLine
 62
7
  6
CONTINUOUS
 10
107.4222042514
 20
43.3818847539
 11
107.8687998035
 21
43.6507371991
  0
LINE
  5
440
100
AcDbEntity
  8
0
100
AcDbLine
 62
7
  6
CONTINUOUS
 10
107.8687998035
 20
43.6507371991
 11
108.2764425354
 21
43.8399091179
  0
LINE
  5
441
100
AcDbEntity
  8
RUNDUNGEN
100
AcDbLine
 62
7
  6
CONTINUOUS
 10
115.9696199573
 20
43.7789192744
 11
115.9686913538
 21
43.7786243587
  0
LWPOLYLINE
  5
442
100
AcDbEntity
  8
RUNDUNGEN
100
AcDbPolyline
 62
7
  6
CONTINUOUS
 90
25
 70
0
 10
118.0302386543
 20
43.9171470851
 10
118.0322159743
 20
43.9177599593
 10
118.0325365782
 20
43.9178549532
 10
118.0305764538
 20
43.9173443558
 10
118.0266268947
 20
43.9163918886
 10
118.0206117528
 20
43.915047033
 10
118.0124884322
 20
43.9133614026
 10
118.0026542382
 20
43.9114635669
 10
117.9911621786
 20
43.9093955145
 10
117.9779629883
 20
43.907177129
 10
117.9633558396
 20
43.9048808708
 10
117.9474335718
 20
43.9025358069
 10
117.9301679511
 20
43.9001504273
 10
117.9116884005
 20
43.8977520324
 10
117.8920306999
 20
43.8953516118
 10
117.8712176072
 20
43.8929582164
 10
117.8493502088
 20
43.8905891532
 10
117.8264822281
 20
43.888255194
 10
117.8026199218
 20
43.8859621988
 10
117.7777873404
 20
43.8837179712
 10
117.7520078836
 20
43.8815273861
 10
117.7253106709
 20
43.8793940736
 10
117.6977213255
 20
43.8773219509
 10
117.6692711193
 20
43.8753160416
 10
117.6399792485
 20
43.8733812643
  0
LWPOLYLINE
  5
443
100
AcDbEntity
  8
RUNDUNGEN
100
AcDbPolyline
 62
7
  6
CONTINUOUS
 90
4
 70
0
 10
115.9671852491
 20
43.7781502312
 10
115.9638674709
 20
43.7771317857
 10
115.9594131633
 20
43.7758059116
 10
115.9537714692
 20
43.7741780525
  0
LINE
  5
444
100
AcDbEntity
  8
RUNDUNGEN
100
AcDbLine
 62
7
  6
CONTINUOUS
 10
116.0151717306
 20
43.7926537199
 11
115.9696327721
 21
43.7789224764
  0
LINE
  5
445
100
AcDbEntity
  8
0
100
AcDbLine
 62
7
  6
CONTINUOUS
 10
94.1668983714
 20
30.5356717343
 11
93.9660738559
 21
30.4833318463
  0
LINE
  5
446
100
AcDbEntity
  8
0
100
AcDbLine
 62
7
  6
CONTINUOUS
 10
91.2056601005
 20
29.1189088439
 11
91.4663420324
 21
29.1722224854
  0
LINE
  5
447
100
AcDbEntity
  8
0
100
AcDbLine
 62
7
  6
CONTINUOUS
 10
94.0947260851
 20
30.2310362666
 11
94.2157293357
 21
30.2447097539
  0
LINE
  5
448
100
AcDbEntity
  8
0
100
AcDbLine
 62
7
  6
CONTINUOUS
 10
94.408906768
 20
30.5630175814
 11
94.1668983714
 21
30.5356717343
  0
LINE
  5
449
100
AcDbEntity
  8
0
100
AcDbLine
 62
7
  6
CONTINUOUS
 10
81.6420632832
 20
31.7729764807
 11
81.3900956132
 21
31.753916619
  0
LINE
  5
44A
100
AcDbEntity
  8
RUNDUNGEN
100
AcDbLine
 62
7
  6
CONTINUOUS
 10
80.704696444
 20
31.5111567243
 11
80.7641181971
 21
31.5149502459
  0
LINE
  5
44B
100
AcDbEntity
  8
RUNDUNGEN
100
AcDbLine
 62
7
  6
CONTINUOUS
 10
80.7641181971
 20
31.5149502459
 11
80.8268008617
 21
31.5184154099
  0
LINE
  5
44C
100
AcDbEntity
  8
RUNDUNGEN
100
AcDbLine
 62
7
  6
CONTINUOUS
 10
81.9335541599
 20
31.5310247584
 11
82.0408233027
 21
31.5360620126
  0
LINE
  5
44D
100
AcDbEntity
  8
0
100
AcDbLine
 62
7
  6
CONTINUOUS
 10
81.3590463204
 20
31.6938423648
 11
81.8000889791
 21
31.7143767497
  0
LINE
  5
44E
100
AcDbEntity
  8
0
100
AcDbLine
 62
7
  6
CONTINUOUS
 10
117.7784113325
 20
31.703176875
 11
120.2245985632
 21
31.8157821477
  0
LINE
  5
44F
100
AcDbEntity
  8
0
100
AcDbLine
 62
7
  6
CONTINUOUS
 10
120.0372952665
 20
31.8686017759
 11
117.5911080358
 21
31.7559965032
  0
LINE
  5
450
100
AcDbEntity
  8
0
100
AcDbLine
 62
7
  6
CONTINUOUS
 10
120.4743362326
 20
32.2485908598
 11
120.2245985632
 21
32.2370946923
  0
LINE
  5
451
100
AcDbEntity
  8
0
100
AcDbLine
 62
7
  6
CONTINUOUS
 10
119.4937191709
 20
32.3468142181
 11
119.2880820797
 21
32.3373481313
  0
LWPOLYLINE
  5
452
100
AcDbEntity
  8
RUNDUNGEN
100
AcDbPolyline
 62
7
  6
CONTINUOUS
 90
3
 70
0
 10
80.8268008617
 20
31.5184154099
 10
80.8925594225
 20
31.5215256947
 10
80.9160837809
 20
31.5225050154
  0
LINE
  5
453
100
AcDbEntity
  8
0
100
AcDbLine
 62
7
  6
CONTINUOUS
 10
118.8510741564
 20
31.2712609989
 11
119.2768375275
 21
31.2806198994
  0
LINE
  5
454
100
AcDbEntity
  8
0
100
AcDbLine
 62
7
  6
CONTINUOUS
 10
117.3526477828
 20
31.6938180248
 11
117.7784113325
 21
31.703176875
  0
LINE
  5
455
100
AcDbEntity
  8
0
100
AcDbLine
 62
7
  6
CONTINUOUS
 10
81.3900956132
 20
31.753916619
 11
81.0907600741
 21
31.7473085383
  0
LINE
  5
456
100
AcDbEntity
  8
0
100
AcDbLine
 62
7
  6
CONTINUOUS
 10
119.0895342308
 20
31.3334395277
 11
118.7426801145
 21
31.3277130548
  0
LINE
  5
457
100
AcDbEntity
  8
0
100
AcDbLine
 62
7
  6
CONTINUOUS
 10
117.5911080358
 20
31.7559965032
 11
117.2442537409
 21
31.7502700807
  0
LINE
  5
458
100
AcDbEntity
  8
0
100
AcDbLine
 62
7
  6
CONTINUOUS
 10
80.9808964125
 20
31.6908933739
 11
81.3590463204
 21
31.6938423648
  0
LINE
  5
459
100
AcDbEntity
  8
RUNDUNGEN
100
AcDbLine
 62
7
  6
CONTINUOUS
 10
81.9119222598
 20
31.5308772841
 11
81.9335541599
 21
31.5310247584
  0
LINE
  5
45A
100
AcDbEntity
  8
0
100
AcDbLine
 62
7
  6
CONTINUOUS
 10
92.4248922294
 20
31.597727848
 11
92.6324219961
 21
31.5988845945
  0
LINE
  5
45B
100
AcDbEntity
  8
RUNDUNGEN
100
AcDbLine
 62
7
  6
CONTINUOUS
 10
71.1810917024
 20
31.193236383
 11
82.1869837816
 21
31.193236383
  0
LINE
  5
45C
100
AcDbEntity
  8
BEZUGSACHSEN
100
AcDbLine
 62
7
  6
CONTINUOUS
 10
95.4342070319
 20
31.193236383
 11
102.9397605314
 21
31.193236383
  0
LINE
  5
45D
100
AcDbEntity
  8
RUNDUNGEN
100
AcDbLine
 62
7
  6
CONTINUOUS
 10
116.1869837816
 20
31.193236383
 11
127.1928758609
 21
31.193236383
  0
LINE
  5
45E
100
AcDbEntity
  8
RUNDUNGEN
100
AcDbLine
 62
7
  6
CONTINUOUS
 10
81.4195018426
 20
31.5308722597
 11
81.9119222781
 21
31.5308722597
  0
LINE
  5
45F
100
AcDbEntity
  8
RUNDUNGEN
100
AcDbLine
 62
7
  6
CONTINUOUS
 10
116.4620451981
 20
31.5308722597
 11
116.920776459
 21
31.5308722597
  0
LINE
  5
460
100
AcDbEntity
  8
0
100
AcDbLine
 62
7
  6
CONTINUOUS
 10
119.2880820797
 20
31.943236383
 11
113.9560513637
 21
31.943236383
  0
LINE
  5
461
100
AcDbEntity
  8
0
100
AcDbLine
 62
7
  6
CONTINUOUS
 10
83.4830631503
 20
31.943236383
 11
78.6443694177
 21
31.943236383
  0
LINE
  5
462
100
AcDbEntity
  8
RUNDUNGEN
100
AcDbLine
 62
7
  6
CONTINUOUS
 10
124.65488051
 20
32.443236383
 11
73.6954296832
 21
32.443236383
  0
LINE
  5
463
100
AcDbEntity
  8
0
100
AcDbLine
 62
7
  6
CONTINUOUS
 10
81.5648369195
 20
31.5715092685
 11
77.3574225029
 21
31.6028035232
  0
LINE
  5
464
100
AcDbEntity
  8
0
100
AcDbLine
 62
7
  6
CONTINUOUS
 10
78.5368582783
 20
32.0972658847
 11
77.3574225029
 21
32.1060383896
  0
LINE
  5
465
100
AcDbEntity
  8
0
100
AcDbLine
 62
7
  6
CONTINUOUS
 10
80.3046017843
 20
31.527491533
 11
81.3761589443
 21
31.5187531913
  0
LINE
  5
466
100
AcDbEntity
  8
0
100
AcDbLine
 62
7
  6
CONTINUOUS
 10
77.5468944254
 20
31.552996452
 11
79.9578982308
 21
31.5333352107
  0
LINE
  5
467
100
AcDbEntity
  8
0
100
AcDbLine
 62
7
  6
CONTINUOUS
 10
118.4730025306
 20
31.2743378621
 11
118.8510741564
 21
31.2712609989
  0
LINE
  5
468
100
AcDbEntity
  8
0
100
AcDbLine
 62
7
  6
CONTINUOUS
 10
116.9745763356
 20
31.6968948376
 11
117.3526477828
 21
31.6938180248
  0
LINE
  5
469
100
AcDbEntity
  8
RUNDUNGEN
100
AcDbLine
 62
7
  6
CONTINUOUS
 10
116.4332832943
 20
31.5311374056
 11
116.4620451983
 21
31.5308773489
  0
LINE
  5
46A
100
AcDbEntity
  8
0
100
AcDbLine
 62
7
  6
CONTINUOUS
 10
81.0907600741
 20
31.7473085383
 11
80.7440564307
 21
31.7531521908
  0
LINE
  5
46B
100
AcDbEntity
  8
0
100
AcDbLine
 62
7
  6
CONTINUOUS
 10
80.5553784555
 20
31.7003961136
 11
80.9808964125
 21
31.6908933739
  0
LINE
  5
46C
100
AcDbEntity
  8
0
100
AcDbLine
 62
7
  6
CONTINUOUS
 10
118.7426801145
 20
31.3277130548
 11
118.4435177988
 21
31.3344223482
  0
LINE
  5
46D
100
AcDbEntity
  8
0
100
AcDbLine
 62
7
  6
CONTINUOUS
 10
117.2442537409
 20
31.7502700807
 11
116.9450916037
 21
31.7569793237
  0
LINE
  5
46E
100
AcDbEntity
  8
0
100
AcDbLine
 62
7
  6
CONTINUOUS
 10
79.3731636415
 20
31.7552824267
 11
80.5553784555
 21
31.7003961136
  0
LINE
  5
46F
100
AcDbEntity
  8
0
100
AcDbLine
 62
7
  6
CONTINUOUS
 10
80.7440564307
 20
31.7531521908
 11
79.5618416167
 21
31.808038504
  0
LINE
  5
470
100
AcDbEntity
  8
0
100
AcDbLine
 62
7
  6
CONTINUOUS
 10
118.0324967383
 20
31.2950212021
 11
118.4730025306
 21
31.2743378621
  0
LINE
  5
471
100
AcDbEntity
  8
0
100
AcDbLine
 62
7
  6
CONTINUOUS
 10
116.5340703647
 20
31.717578228
 11
116.9745763356
 21
31.6968948376
  0
LINE
  5
472
100
AcDbEntity
  8
0
100
AcDbLine
 62
7
  6
CONTINUOUS
 10
92.8644400131
 20
31.8940558327
 11
92.5362754727
 21
31.9095124905
  0
LINE
  5
473
100
AcDbEntity
  8
RUNDUNGEN
100
AcDbLine
 62
7
  6
CONTINUOUS
 10
116.3259955447
 20
31.5366526719
 11
116.4332832943
 21
31.5311374056
  0
LINE
  5
474
100
AcDbEntity
  8
0
100
AcDbLine
 62
7
  6
CONTINUOUS
 10
118.4435177988
 20
31.3344223482
 11
118.1920475855
 21
31.3535673044
  0
LINE
  5
475
100
AcDbEntity
  8
0
100
AcDbLine
 62
7
  6
CONTINUOUS
 10
116.9450916037
 20
31.7569793237
 11
116.6936213905
 21
31.77612428
  0
LINE
  5
476
100
AcDbEntity
  8
0
100
AcDbLine
 62
7
  6
CONTINUOUS
 10
89.6264046696
 20
42.943236383
 11
89.3336565194
 21
43.4350986999
  0
LINE
  5
477
100
AcDbEntity
  8
0
100
AcDbLine
 62
7
  6
CONTINUOUS
 10
98.8381278744
 20
29.1954807137
 11
98.8135003593
 21
25.6955673597
  0
LINE
  5
478
100
AcDbEntity
  8
0
100
AcDbLine
 62
7
  6
CONTINUOUS
 10
99.1067385039
 20
26.2892633165
 11
99.1271741021
 21
29.193446809
  0
LINE
  5
479
100
AcDbEntity
  8
0
100
AcDbLine
 62
7
  6
CONTINUOUS
 10
99.395260742
 20
26.2127631791
 11
99.3994526604
 21
26.8084932493
  0
LINE
  5
47A
100
AcDbEntity
  8
KONSTRUKTIONSELEMENTE
100
AcDbLine
 62
7
  6
CONTINUOUS
 10
98.8359126529
 20
43.2203738937
 11
98.820876053
 21
42.943236383
  0
LINE
  5
47B
100
AcDbEntity
  8
0
100
AcDbLine
 62
7
  6
CONTINUOUS
 10
97.9165689789
 20
46.0999706104
 11
98.10765133
 21
48.9301941264
  0
LINE
  5
47C
100
AcDbEntity
  8
0
100
AcDbLine
 62
7
  6
CONTINUOUS
 10
99.3878990425
 20
47.3471836308
 11
99.3632109391
 21
47.1251477172
  0
LINE
  5
47D
100
AcDbEntity
  8
0
100
AcDbLine
 62
7
  6
CONTINUOUS
 10
99.6003669978
 20
48.8220993312
 11
99.5756788944
 21
48.6000634176
  0
LINE
  5
47E
100
AcDbEntity
  8
0
100
AcDbLine
 62
7
  6
CONTINUOUS
 10
99.6026136033
 20
47.0985286102
 11
99.6273017067
 21
47.3205645238
  0
LINE
  5
47F
100
AcDbEntity
  8
0
100
AcDbLine
 62
7
  6
CONTINUOUS
 10
99.8233106525
 20
48.6474563123
 11
99.8397693881
 21
48.7954802547
  0
LINE
  5
480
100
AcDbEntity
  8
0
100
AcDbLine
 62
7
  6
CONTINUOUS
 10
100.9889012997
 20
48.6677086388
 11
100.9724425641
 21
48.5196846964
  0
LINE
  5
481
100
AcDbEntity
  8
KONSTRUKTIONSELEMENTE
100
AcDbLine
 62
7
  6
CONTINUOUS
 10
99.8906113814
 20
43.1631492948
 11
99.8279187777
 21
42.943236383
  0
LINE
  5
482
100
AcDbEntity
  8
0
100
AcDbLine
 62
7
  6
CONTINUOUS
 10
95.8774073542
 20
29.8161385292
 11
95.7687649423
 21
29.4600006
  0
LINE
  5
483
100
AcDbEntity
  8
0
100
AcDbLine
 62
7
  6
CONTINUOUS
 10
95.1386389962
 20
27.3944007503
 11
95.0951819767
 21
27.2519453991
  0
LINE
  5
484
100
AcDbEntity
  8
0
100
AcDbLine
 62
7
  6
CONTINUOUS
 10
95.3716571167
 20
27.1676046884
 11
95.4151141362
 21
27.3100600397
  0
LINE
  5
485
100
AcDbEntity
  8
0
100
AcDbLine
 62
7
  6
CONTINUOUS
 10
97.4276157824
 20
28.9539563363
 11
97.5362581943
 21
29.3100942655
  0
LINE
  5
486
100
AcDbEntity
  8
0
100
AcDbLine
 62
7
  6
CONTINUOUS
 10
95.0933498624
 20
29.2765467082
 11
95.1680724502
 21
29.4925254611
  0
LINE
  5
487
100
AcDbEntity
  8
0
100
AcDbLine
 62
7
  6
CONTINUOUS
 10
95.2716314004
 20
27.6652544832
 11
95.1386389962
 21
27.3944007503
  0
LINE
  5
488
100
AcDbEntity
  8
0
100
AcDbLine
 62
7
  6
CONTINUOUS
 10
93.6620886657
 20
29.7967270102
 11
93.8166305926
 21
30.051373241
  0
LINE
  5
489
100
AcDbEntity
  8
0
100
AcDbLine
 62
7
  6
CONTINUOUS
 10
92.8919272714
 20
28.4348399957
 11
92.9691983431
 21
28.5621632895
  0
LINE
  5
48A
100
AcDbEntity
  8
0
100
AcDbLine
 62
7
  6
CONTINUOUS
 10
93.8548660052
 20
28.7215335375
 11
94.0094079322
 21
28.9761797683
  0
LINE
  5
48B
100
AcDbEntity
  8
0
100
AcDbLine
 62
7
  6
CONTINUOUS
 10
104.3724482703
 20
46.4115943408
 11
104.1715779583
 21
46.0980842853
  0
LINE
  5
48C
100
AcDbEntity
  8
0
100
AcDbLine
 62
7
  6
CONTINUOUS
 10
104.7394705132
 20
45.7342275198
 11
104.9403408253
 21
46.0477375752
  0
LINE
  5
48D
100
AcDbEntity
  8
0
100
AcDbLine
 62
7
  6
CONTINUOUS
 10
92.7175043847
 20
30.1299752287
 11
92.9495239881
 21
30.4251449339
  0
LINE
  5
48E
100
AcDbEntity
  8
0
100
AcDbLine
 62
7
  6
CONTINUOUS
 10
92.7808144128
 20
30.5970738649
 11
92.4956441888
 21
30.2497456905
  0
LINE
  5
48F
100
AcDbEntity
  8
0
100
AcDbLine
 62
7
  6
CONTINUOUS
 10
92.9590028471
 20
28.9167868052
 11
92.7632751505
 21
28.6871357538
  0
LINE
  5
490
100
AcDbEntity
  8
0
100
AcDbLine
 62
7
  6
CONTINUOUS
 10
93.7677977566
 20
30.3423363878
 11
93.6107073999
 21
30.1763457053
  0
LINE
  5
491
100
AcDbEntity
  8
0
100
AcDbLine
 62
7
  6
CONTINUOUS
 10
92.4956441888
 20
30.2497456905
 11
92.1235790321
 21
29.8846474247
  0
LINE
  5
492
100
AcDbEntity
  8
0
100
AcDbLine
 62
7
  6
CONTINUOUS
 10
92.2391348976
 20
29.6605631726
 11
92.7175043847
 21
30.1299752287
  0
LINE
  5
493
100
AcDbEntity
  8
0
100
AcDbLine
 62
7
  6
CONTINUOUS
 10
106.9400200909
 20
43.3165347184
 11
106.7734691102
 21
43.1600382628
  0
LINE
  5
494
100
AcDbEntity
  8
0
100
AcDbLine
 62
7
  6
CONTINUOUS
 10
107.2341698901
 20
43.5498462121
 11
106.9400200909
 21
43.3165347184
  0
LINE
  5
495
100
AcDbEntity
  8
0
100
AcDbLine
 62
7
  6
CONTINUOUS
 10
91.6183565597
 20
31.143773928
 11
91.9710109227
 21
31.4223302152
  0
LINE
  5
496
100
AcDbEntity
  8
0
100
AcDbLine
 62
7
  6
CONTINUOUS
 10
92.1235790321
 20
29.8846474247
 11
91.7709231989
 21
29.6060927846
  0
LINE
  5
497
100
AcDbEntity
  8
0
100
AcDbLine
 62
7
  6
CONTINUOUS
 10
107.0642545189
 20
43.1101667126
 11
107.4222042514
 21
43.3818847539
  0
LINE
  5
498
100
AcDbEntity
  8
0
100
AcDbLine
 62
7
  6
CONTINUOUS
 10
91.802302892
 20
31.5942575721
 11
91.5027991496
 21
31.3678597541
  0
LINE
  5
499
100
AcDbEntity
  8
0
100
AcDbLine
 62
7
  6
CONTINUOUS
 10
91.9396327742
 20
29.4341638536
 11
92.2391348976
 21
29.6605631726
  0
LINE
  5
49A
100
AcDbEntity
  8
0
100
AcDbLine
 62
7
  6
CONTINUOUS
 10
89.4511028394
 20
30.6770317372
 11
91.9545292135
 21
32.443236383
  0
LINE
  5
49B
100
AcDbEntity
  8
0
100
AcDbLine
 62
7
  6
CONTINUOUS
 10
91.995500685
 20
31.7163431009
 11
91.802302892
 21
31.5942575721
  0
LINE
  5
49C
100
AcDbEntity
  8
0
100
AcDbLine
 62
7
  6
CONTINUOUS
 10
89.8856757994
 20
32.443236383
 11
88.6942136488
 21
31.8466475946
  0
LINE
  5
49D
100
AcDbEntity
  8
0
100
AcDbLine
 62
7
  6
CONTINUOUS
 10
88.8020628251
 20
31.6312593505
 11
90.4236821384
 21
32.443236383
  0
LINE
  5
49E
100
AcDbEntity
  8
0
100
AcDbLine
 62
7
  6
CONTINUOUS
 10
92.2755935221
 20
31.8561988307
 11
91.995500685
 21
31.7163431009
  0
LINE
  5
49F
100
AcDbEntity
  8
RUNDUNGEN
100
AcDbLine
 62
7
  6
CONTINUOUS
 10
82.404347606
 20
31.6075534916
 11
82.4052762095
 21
31.6078484072
  0
LWPOLYLINE
  5
4A0
100
AcDbEntity
  8
RUNDUNGEN
100
AcDbPolyline
 62
7
  6
CONTINUOUS
 90
4
 70
0
 10
82.4067823141
 20
31.6083225347
 10
82.4101000924
 20
31.6093409802
 10
82.4145543999
 20
31.6106668543
 10
82.4201960941
 20
31.6122947134
  0
LINE
  5
4A1
100
AcDbEntity
  8
RUNDUNGEN
100
AcDbLine
 62
7
  6
CONTINUOUS
 10
82.3587958327
 20
31.593819046
 11
82.4043347912
 21
31.6075502895
  0
LINE
  5
4A2
100
AcDbEntity
  8
0
100
AcDbLine
 62
7
  6
CONTINUOUS
 10
92.5362754727
 20
31.9095124905
 11
92.2755935221
 21
31.8561988307
  0
LINE
  5
4A3
100
AcDbEntity
  8
0
100
AcDbLine
 62
7
  6
CONTINUOUS
 10
82.0835028237
 20
31.7422292589
 11
82.3195489101
 21
31.7825336027
  0
LINE
  5
4A4
100
AcDbEntity
  8
0
100
AcDbLine
 62
7
  6
CONTINUOUS
 10
81.8466629735
 20
31.8044881284
 11
81.6420632832
 21
31.7729764807
  0
LWPOLYLINE
  5
4A5
100
AcDbEntity
  8
RUNDUNGEN
100
AcDbPolyline
 62
7
  6
CONTINUOUS
 90
10
 70
0
 10
80.4956617568
 20
31.4926994442
 10
80.502749956
 20
31.4935145495
 10
80.5246173545
 20
31.4958836127
 10
80.5474853352
 20
31.4982175719
 10
80.5713476415
 20
31.5005105671
 10
80.5961802229
 20
31.5027547947
 10
80.6219596797
 20
31.5049453798
 10
80.6486568924
 20
31.5070786924
 10
80.6762462378
 20
31.509150815
 10
80.704696444
 20
31.5111567243
  0
LWPOLYLINE
  5
4A6
100
AcDbEntity
  8
RUNDUNGEN
100
AcDbPolyline
 62
7
  6
CONTINUOUS
 90
4
 70
0
 10
82.0408233027
 20
31.5360620126
 10
82.1477533142
 20
31.5482438769
 10
82.2538899387
 20
31.5675237766
 10
82.3587958327
 20
31.593819046
  0
LINE
  5
4A7
100
AcDbEntity
  8
0
100
AcDbLine
 62
7
  6
CONTINUOUS
 10
81.8000889791
 20
31.7143767497
 11
82.0835028237
 21
31.7422292589
  0
LINE
  5
4A8
100
AcDbEntity
  8
RUNDUNGEN
100
AcDbLine
 62
7
  6
CONTINUOUS
 10
85.4255765715
 20
32.4379626444
 11
85.4457220203
 21
32.4396827876
  0
LINE
  5
4A9
100
AcDbEntity
  8
RUNDUNGEN
100
AcDbLine
 62
7
  6
CONTINUOUS
 10
70.6870458314
 20
33.443236383
 11
127.6869217319
 21
33.443236383
  0
LINE
  5
4AA
100
AcDbEntity
  8
RUNDUNGEN
100
AcDbLine
 62
7
  6
CONTINUOUS
 10
112.9282470066
 20
32.4396826748
 11
112.9495408999
 21
32.4378543037
  0
LINE
  5
4AB
100
AcDbEntity
  8
0
100
AcDbLine
 62
7
  6
CONTINUOUS
 10
117.7498094626
 20
31.3229693977
 11
118.0324967383
 21
31.2950212021
  0
LINE
  5
4AC
100
AcDbEntity
  8
0
100
AcDbLine
 62
7
  6
CONTINUOUS
 10
116.2513829103
 20
31.745526474
 11
116.5340703647
 21
31.717578228
  0
LWPOLYLINE
  5
4AD
100
AcDbEntity
  8
RUNDUNGEN
100
AcDbPolyline
 62
7
  6
CONTINUOUS
 90
7
 70
0
 10
112.9495408999
 20
32.4378543037
 10
112.9828532424
 20
32.4342414644
 10
113.0155373102
 20
32.4298103601
 10
113.0475946109
 20
32.4246187744
 10
113.0790381051
 20
32.4187212344
 10
113.1098913134
 20
32.4121674045
 10
113.1401589447
 20
32.4050080026
  0
LINE
  5
4AE
100
AcDbEntity
  8
0
100
AcDbLine
 62
7
  6
CONTINUOUS
 10
118.1920475855
 20
31.3535673044
 11
117.9882695853
 21
31.3851479287
  0
LINE
  5
4AF
100
AcDbEntity
  8
0
100
AcDbLine
 62
7
  6
CONTINUOUS
 10
116.6936213905
 20
31.77612428
 11
116.4898432117
 21
31.8077049546
  0
LINE
  5
4B0
100
AcDbEntity
  8
0
100
AcDbLine
 62
7
  6
CONTINUOUS
 10
117.5148140012
 20
31.3633533602
 11
117.7498094626
 21
31.3229693977
  0
LINE
  5
4B1
100
AcDbEntity
  8
0
100
AcDbLine
 62
7
  6
CONTINUOUS
 10
116.0163876275
 20
31.7859103861
 11
116.2513829103
 21
31.745526474
  0
LINE
  5
4B2
100
AcDbEntity
  8
0
100
AcDbLine
 62
7
  6
CONTINUOUS
 10
95.986427525
 20
49.3161994038
 11
96.5877077918
 21
45.8682344909
  0
LINE
  5
4B3
100
AcDbEntity
  8
0
100
AcDbLine
 62
7
  6
CONTINUOUS
 10
96.8724637701
 20
45.9178922325
 11
96.3991154598
 21
48.6322476769
  0
LINE
  5
4B4
100
AcDbEntity
  8
KONSTRUKTIONSELEMENTE
100
AcDbLine
 62
7
  6
CONTINUOUS
 10
100.1227881184
 20
42.943236383
 11
100.1340033956
 21
43.1499436182
  0
LINE
  5
4B5
100
AcDbEntity
  8
0
100
AcDbLine
 62
7
  6
CONTINUOUS
 10
100.8721945197
 20
47.1821452834
 11
100.8475064163
 21
46.9601093698
  0
LINE
  5
4B6
100
AcDbEntity
  8
0
100
AcDbLine
 62
7
  6
CONTINUOUS
 10
101.2036158606
 20
48.4190536182
 11
101.228303964
 21
48.6410895318
  0
LINE
  5
4B7
100
AcDbEntity
  8
0
100
AcDbLine
 62
7
  6
CONTINUOUS
 10
101.0869088066
 20
46.9334902933
 11
101.11159691
 21
47.1555262069
  0
LINE
  5
4B8
100
AcDbEntity
  8
0
100
AcDbLine
 62
7
  6
CONTINUOUS
 10
96.5749598163
 20
26.4891046166
 11
96.7079522205
 21
26.7599583494
  0
LINE
  5
4B9
100
AcDbEntity
  8
0
100
AcDbLine
 62
7
  6
CONTINUOUS
 10
98.2663746844
 20
29.6928018775
 11
97.8832412371
 21
28.9132086434
  0
LINE
  5
4BA
100
AcDbEntity
  8
0
100
AcDbLine
 62
7
  6
CONTINUOUS
 10
98.1224572784
 20
28.8849568522
 11
98.5055907257
 21
29.6645500863
  0
LINE
  5
4BB
100
AcDbEntity
  8
0
100
AcDbLine
 62
7
  6
CONTINUOUS
 10
95.4151141362
 20
27.3100600397
 11
95.5941850273
 21
27.5668572019
  0
LINE
  5
4BC
100
AcDbEntity
  8
0
100
AcDbLine
 62
7
  6
CONTINUOUS
 10
106.9446472608
 20
42.943236383
 11
107.0642545189
 21
43.1101667126
  0
LINE
  5
4BD
100
AcDbEntity
  8
0
100
AcDbLine
 62
7
  6
CONTINUOUS
 10
95.4289759215
 20
27.850823426
 11
95.2716314004
 21
27.6652544832
  0
LINE
  5
4BE
100
AcDbEntity
  8
0
100
AcDbLine
 62
7
  6
CONTINUOUS
 10
93.8905510758
 20
27.480350482
 11
94.0862787724
 21
27.7100015334
  0
LINE
  5
4BF
100
AcDbEntity
  8
0
100
AcDbLine
 62
7
  6
CONTINUOUS
 10
106.7734691102
 20
43.1600382628
 11
106.5848240756
 21
42.943236383
  0
LINE
  5
4C0
100
AcDbEntity
  8
0
100
AcDbLine
 62
7
  6
CONTINUOUS
 10
109.2886508167
 20
42.943236383
 11
109.3690586568
 21
43.0356457736
  0
LINE
  5
4C1
100
AcDbEntity
  8
0
100
AcDbLine
 62
7
  6
CONTINUOUS
 10
93.8166305926
 20
30.051373241
 11
93.9350854405
 21
30.1537023212
  0
LINE
  5
4C2
100
AcDbEntity
  8
0
100
AcDbLine
 62
7
  6
CONTINUOUS
 10
92.9691983431
 20
28.5621632895
 11
93.2061099242
 21
28.7668203057
  0
LINE
  5
4C3
100
AcDbEntity
  8
0
100
AcDbLine
 62
7
  6
CONTINUOUS
 10
93.1572770611
 20
29.0577834079
 11
92.9590028471
 21
28.9167868052
  0
LINE
  5
4C4
100
AcDbEntity
  8
0
100
AcDbLine
 62
7
  6
CONTINUOUS
 10
93.9660738559
 20
30.4833318463
 11
93.7677977566
 21
30.3423363878
  0
LINE
  5
4C5
100
AcDbEntity
  8
0
100
AcDbLine
 62
7
  6
CONTINUOUS
 10
91.7464348324
 20
29.3120781787
 11
91.9396327742
 21
29.4341638536
  0
LINE
  5
4C6
100
AcDbEntity
  8
0
100
AcDbLine
 62
7
  6
CONTINUOUS
 10
91.4663420324
 20
29.1722224854
 11
91.7464348324
 21
29.3120781787
  0
LINE
  5
4C7
100
AcDbEntity
  8
0
100
AcDbLine
 62
7
  6
CONTINUOUS
 10
93.9350854405
 20
30.1537023212
 11
94.0947260851
 21
30.2310362666
  0
LINE
  5
4C8
100
AcDbEntity
  8
0
100
AcDbLine
 62
7
  6
CONTINUOUS
 10
91.9710109227
 20
31.4223302152
 11
92.4248922294
 21
31.597727848
  0
LINE
  5
4C9
100
AcDbEntity
  8
0
100
AcDbLine
 62
7
  6
CONTINUOUS
 10
91.7709231989
 20
29.6060927846
 11
91.3170433252
 21
29.4306934681
  0
LINE
  5
4CA
100
AcDbEntity
  8
RUNDUNGEN
100
AcDbLine
 62
7
  6
CONTINUOUS
 10
85.1903398955
 20
32.3934783447
 11
82.4201960941
 21
31.6122947134
  0
LINE
  5
4CB
100
AcDbEntity
  8
0
100
AcDbLine
 62
7
  6
CONTINUOUS
 10
80.3069837816
 20
31.2198020952
 11
80.4956617568
 21
31.2725581725
  0
LINE
  5
4CC
100
AcDbEntity
  8
0
100
AcDbLine
 62
7
  6
CONTINUOUS
 10
81.3761589443
 20
31.5187531913
 11
81.5648369195
 21
31.5715092685
  0
LINE
  5
4CD
100
AcDbEntity
  8
0
100
AcDbLine
 62
7
  6
CONTINUOUS
 10
82.3195489101
 20
31.7825336027
 11
82.6025658729
 21
31.8616677185
  0
LINE
  5
4CE
100
AcDbEntity
  8
0
100
AcDbLine
 62
7
  6
CONTINUOUS
 10
82.1296799363
 20
31.8836222443
 11
81.8466629735
 21
31.8044881284
  0
LINE
  5
4CF
100
AcDbEntity
  8
0
100
AcDbLine
 62
7
  6
CONTINUOUS
 10
79.6756751929
 20
31.3516379401
 11
80.3046017843
 21
31.527491533
  0
LINE
  5
4D0
100
AcDbEntity
  8
0
100
AcDbLine
 62
7
  6
CONTINUOUS
 10
79.9578982308
 20
31.5333352107
 11
79.3918642828
 21
31.3750669726
  0
LINE
  5
4D1
100
AcDbEntity
  8
0
100
AcDbLine
 62
7
  6
CONTINUOUS
 10
77.3574225029
 20
31.6028035232
 11
77.1058518843
 21
31.5324620911
  0
LWPOLYLINE
  5
4D2
100
AcDbEntity
  8
RUNDUNGEN
100
AcDbPolyline
 62
7
  6
CONTINUOUS
 90
3
 70
0
 10
85.1903449782
 20
32.3934797509
 10
85.2053888711
 20
32.3976351324
 10
85.2350401946
 20
32.4053133178
  0
LWPOLYLINE
  5
4D3
100
AcDbEntity
  8
RUNDUNGEN
100
AcDbPolyline
 62
7
  6
CONTINUOUS
 90
7
 70
0
 10
85.2350401946
 20
32.4053133178
 10
85.2652914189
 20
32.4124397976
 10
85.2961288516
 20
32.4189607227
 10
85.327557497
 20
32.4248254108
 10
85.3596014819
 20
32.4299842316
 10
85.3922740321
 20
32.4343826045
 10
85.4255765715
 20
32.4379626444
  0
LWPOLYLINE
  5
4D4
100
AcDbEntity
  8
RUNDUNGEN
100
AcDbPolyline
 62
7
  6
CONTINUOUS
 90
4
 70
0
 10
116.0082197721
 20
31.5958228799
 10
116.1130215915
 20
31.5690637076
 10
116.2190925266
 20
31.5493116839
 10
116.3259955447
 20
31.5366526719
  0
LWPOLYLINE
  5
4D5
100
AcDbEntity
  8
RUNDUNGEN
100
AcDbPolyline
 62
7
  6
CONTINUOUS
 90
3
 70
0
 10
113.1401589447
 20
32.4050080026
 10
113.1698273568
 20
32.3972968577
 10
113.1836220655
 20
32.3934798974
  0
LINE
  5
4D6
100
AcDbEntity
  8
RUNDUNGEN
100
AcDbLine
 62
7
  6
CONTINUOUS
 10
113.9560513637
 20
32.175654456
 11
113.1836276678
 21
32.3934783447
  0
LINE
  5
4D7
100
AcDbEntity
  8
0
100
AcDbLine
 62
7
  6
CONTINUOUS
 10
115.8915187035
 20
31.8211234884
 11
116.0163876275
 21
31.7859103861
  0
LINE
  5
4D8
100
AcDbEntity
  8
0
100
AcDbLine
 62
7
  6
CONTINUOUS
 10
116.7656008144
 20
31.5746318731
 11
117.5148140012
 21
31.3633533602
  0
LINE
  5
4D9
100
AcDbEntity
  8
0
100
AcDbLine
 62
7
  6
CONTINUOUS
 10
117.9882695853
 20
31.3851479287
 11
117.4263596952
 21
31.5436068134
  0
LINE
  5
4DA
100
AcDbEntity
  8
0
100
AcDbLine
 62
7
  6
CONTINUOUS
 10
116.4898432117
 20
31.8077049546
 11
116.3649742876
 21
31.8429180569
  0
LINE
  5
4DB
100
AcDbEntity
  8
0
100
AcDbLine
 62
7
  6
CONTINUOUS
 10
120.1881840005
 20
31.6707417993
 11
120.7500938906
 21
31.5122829146
  0
LINE
  5
4DC
100
AcDbEntity
  8
0
100
AcDbLine
 62
7
  6
CONTINUOUS
 10
121.2235494195
 20
31.5340774805
 11
120.4743362326
 21
31.7453559935
  0
LINE
  5
4DD
100
AcDbEntity
  8
0
100
AcDbLine
 62
7
  6
CONTINUOUS
 10
120.2245985632
 20
31.8157821477
 11
120.0372952665
 21
31.8686017759
  0
LWPOLYLINE
  5
4DE
100
AcDbEntity
  8
RUNDUNGEN
100
AcDbPolyline
 62
7
  6
CONTINUOUS
 90
6
 70
0
 10
114.7802273895
 20
31.943236383
 10
115.9545144714
 20
31.612083157
 10
115.9599595476
 20
31.6105063553
 10
115.9642475583
 20
31.6092258224
 10
115.967427847
 20
31.6082467471
 10
115.9686893852
 20
31.607849033
  0
LINE
  5
4DF
100
AcDbEntity
  8
RUNDUNGEN
100
AcDbLine
 62
7
  6
CONTINUOUS
 10
115.9696332431
 20
31.6075500684
 11
116.0082197721
 21
31.5958228799
  0
LINE
  5
4E0
100
AcDbEntity
  8
0
100
AcDbLine
 62
7
  6
CONTINUOUS
 10
89.1237819616
 20
43.2228487931
 11
89.603611054
 21
42.943236383
  0
LINE
  5
4E1
100
AcDbEntity
  8
0
100
AcDbLine
 62
7
  6
CONTINUOUS
 10
89.3336565194
 20
43.4350986999
 11
90.1777172281
 21
42.943236383
  0
LINE
  5
4E2
100
AcDbEntity
  8
0
100
AcDbLine
 62
7
  6
CONTINUOUS
 10
90.7518234021
 20
42.943236383
 11
88.9644643423
 21
43.9847900997
  0
LINE
  5
4E3
100
AcDbEntity
  8
0
100
AcDbLine
 62
7
  6
CONTINUOUS
 10
106.9372028914
 20
32.0432117762
 11
107.3228691699
 21
31.8176027948
  0
LINE
  5
4E4
100
AcDbEntity
  8
0
100
AcDbLine
 62
7
  6
CONTINUOUS
 10
107.5661237592
 20
32.23343328
 11
109.301621787
 21
31.2181929954
  0
LINE
  5
4E5
100
AcDbEntity
  8
0
100
AcDbLine
 62
7
  6
CONTINUOUS
 10
108.9333531788
 20
31.7685035721
 11
107.7799341505
 21
32.443236383
  0
LINE
  5
4E6
100
AcDbEntity
  8
0
100
AcDbLine
 62
7
  6
CONTINUOUS
 10
105.5984488089
 20
32.1113351098
 11
105.882709001
 21
31.8708490573
  0
LINE
  5
4E7
100
AcDbEntity
  8
0
100
AcDbLine
 62
7
  6
CONTINUOUS
 10
106.9628976991
 20
30.9570020846
 11
107.2471578514
 21
30.7165160657
  0
LINE
  5
4E8
100
AcDbEntity
  8
0
100
AcDbLine
 62
7
  6
CONTINUOUS
 10
107.4027357247
 20
30.9004127852
 11
107.1184755724
 21
31.1408988041
  0
LINE
  5
4E9
100
AcDbEntity
  8
0
100
AcDbLine
 62
7
  6
CONTINUOUS
 10
106.0382868743
 20
32.0547457768
 11
105.7540266822
 21
32.2952318293
  0
LINE
  5
4EA
100
AcDbEntity
  8
0
100
AcDbLine
 62
7
  6
CONTINUOUS
 10
104.9287419933
 20
31.4190221296
 11
107.3780181902
 21
28.9188129161
  0
LINE
  5
4EB
100
AcDbEntity
  8
0
100
AcDbLine
 62
7
  6
CONTINUOUS
 10
107.1676041446
 20
29.546657983
 11
105.1352259741
 21
31.6212997215
  0
LINE
  5
4EC
100
AcDbEntity
  8
0
100
AcDbLine
 62
7
  6
CONTINUOUS
 10
107.4262003786
 20
29.6957396406
 11
107.0093022063
 21
30.1213072646
  0
LINE
  5
4ED
100
AcDbEntity
  8
0
100
AcDbLine
 62
7
  6
CONTINUOUS
 10
92.7664736796
 20
45.5466341773
 11
92.9924303694
 21
45.2506932854
  0
LINE
  5
4EE
100
AcDbEntity
  8
0
100
AcDbLine
 62
7
  6
CONTINUOUS
 10
93.5284968022
 20
45.6599905472
 11
93.3025401124
 21
45.955931439
  0
LINE
  5
4EF
100
AcDbEntity
  8
0
100
AcDbLine
 62
7
  6
CONTINUOUS
 10
102.5332821936
 20
28.512281395
 11
102.6727852017
 21
28.16706212
  0
LINE
  5
4F0
100
AcDbEntity
  8
0
100
AcDbLine
 62
7
  6
CONTINUOUS
 10
103.2981163928
 20
28.4197582715
 11
103.1586133846
 21
28.7649775465
  0
LINE
  5
4F1
100
AcDbEntity
  8
0
100
AcDbLine
 62
7
  6
CONTINUOUS
 10
98.10765133
 20
48.9301941264
 11
98.5809996403
 21
46.215838682
  0
LINE
  5
4F2
100
AcDbEntity
  8
0
100
AcDbLine
 62
7
  6
CONTINUOUS
 10
98.8657556187
 20
46.2654964236
 11
98.2644753519
 21
49.7134613365
  0
LINE
  5
4F3
100
AcDbEntity
  8
KONSTRUKTIONSELEMENTE
100
AcDbLine
 62
7
  6
CONTINUOUS
 10
99.1244215757
 20
42.943236383
 11
99.0793046672
 21
43.207168217
  0
LINE
  5
4F4
100
AcDbEntity
  8
0
100
AcDbLine
 62
7
  6
CONTINUOUS
 10
99.3632109391
 20
47.1251477172
 11
99.4178252696
 21
46.7444401543
  0
LINE
  5
4F5
100
AcDbEntity
  8
0
100
AcDbLine
 62
7
  6
CONTINUOUS
 10
99.3994526604
 20
26.8084932493
 11
99.1067385039
 21
26.2892633165
  0
LINE
  5
4F6
100
AcDbEntity
  8
0
100
AcDbLine
 62
7
  6
CONTINUOUS
 10
99.102546587
 20
25.693533455
 11
99.395260742
 21
26.2127631791
  0
LINE
  5
4F7
100
AcDbEntity
  8
0
100
AcDbLine
 62
7
  6
CONTINUOUS
 10
109.1561777512
 20
43.2448802662
 11
108.9400458706
 21
42.943236383
  0
LINE
  5
4F8
100
AcDbEntity
  8
0
100
AcDbLine
 62
7
  6
CONTINUOUS
 10
96.4775576767
 20
26.8302418459
 11
96.3202131556
 21
26.644672903
  0
LINE
  5
4F9
100
AcDbEntity
  8
0
100
AcDbLine
 62
7
  6
CONTINUOUS
 10
96.3037298421
 20
26.260421239
 11
96.5749598163
 21
26.4891046166
  0
LINE
  5
4FA
100
AcDbEntity
  8
0
100
AcDbLine
 62
7
  6
CONTINUOUS
 10
95.5941850273
 20
27.5668572019
 11
97.4276157824
 21
28.9539563363
  0
LINE
  5
4FB
100
AcDbEntity
  8
0
100
AcDbLine
 62
7
  6
CONTINUOUS
 10
97.0589815593
 20
29.0664108316
 11
95.4289759215
 21
27.850823426
  0
LINE
  5
4FC
100
AcDbEntity
  8
0
100
AcDbLine
 62
7
  6
CONTINUOUS
 10
93.8803555798
 20
27.8349739977
 11
93.6820794804
 21
27.6939785392
  0
LINE
  5
4FD
100
AcDbEntity
  8
0
100
AcDbLine
 62
7
  6
CONTINUOUS
 10
93.2061099242
 20
28.7668203057
 11
93.3657486565
 21
28.8441553507
  0
LINE
  5
4FE
100
AcDbEntity
  8
0
100
AcDbLine
 62
7
  6
CONTINUOUS
 10
93.5712717259
 20
27.3256815361
 11
93.8905510758
 21
27.480350482
  0
LINE
  5
4FF
100
AcDbEntity
  8
0
100
AcDbLine
 62
7
  6
CONTINUOUS
 10
93.4379228145
 20
29.1487896519
 11
93.1572770611
 21
29.0577834079
  0
LINE
  5
500
100
AcDbEntity
  8
RUNDUNGEN
100
AcDbLine
 62
7
  6
CONTINUOUS
 10
113.1836276678
 20
42.9929944212
 11
115.9537714692
 21
43.7741780525
  0
LINE
  5
501
100
AcDbEntity
  8
0
100
AcDbLine
 62
7
  6
CONTINUOUS
 10
77.3574225029
 20
32.1060383896
 11
77.1058518843
 21
32.0356969574
  0
LWPOLYLINE
  5
502
100
AcDbEntity
  8
RUNDUNGEN
100
AcDbPolyline
 62
7
  6
CONTINUOUS
 90
3
 70
0
 10
113.1836223087
 20
42.9929929254
 10
113.1685785107
 20
42.9888375729
 10
113.1389273423
 20
42.9811594404
  0
LWPOLYLINE
  5
503
100
AcDbEntity
  8
RUNDUNGEN
100
AcDbPolyline
 62
7
  6
CONTINUOUS
 90
7
 70
0
 10
113.1389273423
 20
42.9811594404
 10
113.1086761368
 20
42.9740329739
 10
113.0778386185
 20
42.9675120293
 10
113.0464099082
 20
42.9616473299
 10
113.0143659339
 20
42.9564885103
 10
112.9816934565
 20
42.9520901463
 10
112.9483909664
 20
42.9485101161
  0
LWPOLYLINE
  5
504
100
AcDbEntity
  8
RUNDUNGEN
100
AcDbPolyline
 62
7
  6
CONTINUOUS
 90
4
 70
0
 10
82.3657477912
 20
43.790649886
 10
82.2609459718
 20
43.8174090583
 10
82.1548750367
 20
43.8371610821
 10
82.0479720186
 20
43.8498200941
  0
LWPOLYLINE
  5
505
100
AcDbEntity
  8
RUNDUNGEN
100
AcDbPolyline
 62
7
  6
CONTINUOUS
 90
3
 70
0
 10
85.2338086399
 20
42.9814647563
 10
85.2041404005
 20
42.9891758438
 10
85.1903457815
 20
42.9929927768
  0
LINE
  5
506
100
AcDbEntity
  8
0
100
AcDbLine
 62
7
  6
CONTINUOUS
 10
121.2235494195
 20
32.0373123469
 11
120.4743362326
 21
32.2485908598
  0
LINE
  5
507
100
AcDbEntity
  8
0
100
AcDbLine
 62
7
  6
CONTINUOUS
 10
120.1260271016
 20
32.3468142181
 11
120.2245985632
 21
32.319017014
  0
LWPOLYLINE
  5
508
100
AcDbEntity
  8
RUNDUNGEN
100
AcDbPolyline
 62
7
  6
CONTINUOUS
 90
6
 70
0
 10
85.1903398955
 20
42.9929944212
 10
82.4194530919
 20
43.7743896089
 10
82.4140080157
 20
43.7759664106
 10
82.409720005
 20
43.7772469435
 10
82.4065397163
 20
43.7782260188
 10
82.4052781781
 20
43.7786237329
  0
LINE
  5
509
100
AcDbEntity
  8
RUNDUNGEN
100
AcDbLine
 62
7
  6
CONTINUOUS
 10
82.4043343202
 20
43.7789226976
 11
82.3657477912
 21
43.790649886
  0
LINE
  5
50A
100
AcDbEntity
  8
0
100
AcDbLine
 62
7
  6
CONTINUOUS
 10
96.3991154598
 20
48.6322476769
 11
97.5368943637
 21
46.0337602922
  0
LINE
  5
50B
100
AcDbEntity
  8
0
100
AcDbLine
 62
7
  6
CONTINUOUS
 10
97.6627657181
 20
46.4336702428
 11
96.4135614926
 21
49.3906860162
  0
LINE
  5
50C
100
AcDbEntity
  8
0
100
AcDbLine
 62
7
  6
CONTINUOUS
 10
99.7133376153
 20
46.7865092215
 11
99.6026136033
 21
47.0985286102
  0
LINE
  5
50D
100
AcDbEntity
  8
0
100
AcDbLine
 62
7
  6
CONTINUOUS
 10
99.8943837243
 20
48.4147727437
 11
99.8233106525
 21
48.6474563123
  0
LINE
  5
50E
100
AcDbEntity
  8
0
100
AcDbLine
 62
7
  6
CONTINUOUS
 10
99.5756788944
 20
48.6000634176
 11
99.6385223245
 21
48.2933679082
  0
LINE
  5
50F
100
AcDbEntity
  8
0
100
AcDbLine
 62
7
  6
CONTINUOUS
 10
101.11159691
 20
47.1555262069
 11
101.0569828592
 21
47.5362337911
  0
LINE
  5
510
100
AcDbEntity
  8
0
100
AcDbLine
 62
7
  6
CONTINUOUS
 10
101.228303964
 20
48.6410895318
 11
101.1736896508
 21
49.0217972502
  0
LINE
  5
511
100
AcDbEntity
  8
0
100
AcDbLine
 62
7
  6
CONTINUOUS
 10
109.3690586568
 20
43.0356457736
 11
109.48591598
 21
43.2746892426
  0
LINE
  5
512
100
AcDbEntity
  8
BEZUGSACHSEN
100
AcDbLine
 62
7
  6
CONTINUOUS
 10
102.9397605314
 20
31.193236383
 11
103.6614483679
 21
32.443236383
  0
LINE
  5
513
100
AcDbEntity
  8
0
100
AcDbLine
 62
7
  6
CONTINUOUS
 10
105.7540266822
 20
32.2952318293
 11
105.5984488089
 21
32.1113351098
  0
LINE
  5
514
100
AcDbEntity
  8
0
100
AcDbLine
 62
7
  6
CONTINUOUS
 10
105.882709001
 20
31.8708490573
 11
106.0382868743
 21
32.0547457768
  0
LINE
  5
515
100
AcDbEntity
  8
0
100
AcDbLine
 62
7
  6
CONTINUOUS
 10
105.1352259741
 20
31.6212997215
 11
104.9287419933
 21
31.4190221296
  0
LINE
  5
516
100
AcDbEntity
  8
0
100
AcDbLine
 62
7
  6
CONTINUOUS
 10
96.3202131556
 20
26.644672903
 11
96.138518627
 21
26.5443881066
  0
LINE
  5
517
100
AcDbEntity
  8
0
100
AcDbLine
 62
7
  6
CONTINUOUS
 10
96.0759547172
 20
26.1741936567
 11
96.3037298421
 21
26.260421239
  0
LINE
  5
518
100
AcDbEntity
  8
0
100
AcDbLine
 62
7
  6
CONTINUOUS
 10
108.6733446088
 20
44.1913086841
 11
108.368453493
 21
44.1202257287
  0
LINE
  5
519
100
AcDbEntity
  8
0
100
AcDbLine
 62
7
  6
CONTINUOUS
 10
108.2764425354
 20
43.8399091179
 11
108.7586267853
 21
43.9052592072
  0
LWPOLYLINE
  5
51A
100
AcDbEntity
  8
RUNDUNGEN
100
AcDbPolyline
 62
7
  6
CONTINUOUS
 90
4
 70
0
 10
116.3331442606
 20
43.8504107533
 10
116.2262142491
 20
43.8382288891
 10
116.1200776246
 20
43.8189489893
 10
116.0151717306
 20
43.7926537199
  0
LINE
  5
51B
100
AcDbEntity
  8
RUNDUNGEN
100
AcDbLine
 62
7
  6
CONTINUOUS
 10
112.9483909664
 20
42.9485101161
 11
112.9282455344
 21
42.946789977
  0
LINE
  5
51C
100
AcDbEntity
  8
RUNDUNGEN
100
AcDbLine
 62
7
  6
CONTINUOUS
 10
127.6869217318
 20
41.943236383
 11
70.6870458314
 21
41.943236383
  0
LINE
  5
51D
100
AcDbEntity
  8
RUNDUNGEN
100
AcDbLine
 62
7
  6
CONTINUOUS
 10
85.4457205601
 20
42.9467900901
 11
85.4244266857
 21
42.9486184569
  0
LWPOLYLINE
  5
51E
100
AcDbEntity
  8
RUNDUNGEN
100
AcDbPolyline
 62
7
  6
CONTINUOUS
 90
7
 70
0
 10
85.4244266857
 20
42.9486184569
 10
85.3911143942
 20
42.9522312865
 10
85.3584303988
 20
42.9566623822
 10
85.3263731018
 20
42.9618539678
 10
85.2949295348
 20
42.967751521
 10
85.26407624
 20
42.974305371
 10
85.2338086399
 20
42.9814647563
  0
LINE
  5
51F
100
AcDbEntity
  8
0
100
AcDbLine
 62
7
  6
CONTINUOUS
 10
115.8143419442
 20
31.8687722564
 11
115.8915187035
 21
31.8211234884
  0
LINE
  5
520
100
AcDbEntity
  8
0
100
AcDbLine
 62
7
  6
CONTINUOUS
 10
109.4475747633
 20
31.4676916672
 11
108.8895071125
 21
32.443236383
  0
LINE
  5
521
100
AcDbEntity
  8
0
100
AcDbLine
 62
7
  6
CONTINUOUS
 10
108.5499053576
 20
32.443236383
 11
108.9333531788
 21
31.7685035721
  0
LINE
  5
522
100
AcDbEntity
  8
0
100
AcDbLine
 62
7
  6
CONTINUOUS
 10
99.4178252696
 20
46.7444401543
 11
99.5367786522
 21
46.5064327628
  0
LINE
  5
523
100
AcDbEntity
  8
0
100
AcDbLine
 62
7
  6
CONTINUOUS
 10
99.6385223245
 20
48.2933679082
 11
99.75747571
 21
48.0553605426
  0
LINE
  5
524
100
AcDbEntity
  8
0
100
AcDbLine
 62
7
  6
CONTINUOUS
 10
100.7614705135
 20
47.4941647239
 11
100.8721945197
 21
47.1821452834
  0
LINE
  5
525
100
AcDbEntity
  8
0
100
AcDbLine
 62
7
  6
CONTINUOUS
 10
100.9178285249
 20
48.9003923843
 11
100.9889012997
 21
48.6677086388
  0
LINE
  5
526
100
AcDbEntity
  8
0
100
AcDbLine
 62
7
  6
CONTINUOUS
 10
107.0093022063
 20
30.1213072646
 11
107.1676041446
 21
29.546657983
  0
LINE
  5
527
100
AcDbEntity
  8
0
100
AcDbLine
 62
7
  6
CONTINUOUS
 10
107.584502171
 20
29.121090508
 11
107.4262003786
 21
29.6957396406
  0
LINE
  5
528
100
AcDbEntity
  8
0
100
AcDbLine
 62
7
  6
CONTINUOUS
 10
109.48591598
 20
43.2746892426
 11
109.5530790771
 21
43.5962806695
  0
LINE
  5
529
100
AcDbEntity
  8
0
100
AcDbLine
 62
7
  6
CONTINUOUS
 10
109.2092357098
 20
43.445516243
 11
109.1561777512
 21
43.2448802662
  0
LINE
  5
52A
100
AcDbEntity
  8
0
100
AcDbLine
 62
7
  6
CONTINUOUS
 10
107.1712112793
 20
32.443236383
 11
106.9372028914
 21
32.0432117762
  0
LINE
  5
52B
100
AcDbEntity
  8
0
100
AcDbLine
 62
7
  6
CONTINUOUS
 10
107.3228691699
 20
31.8176027948
 11
107.5661237592
 21
32.23343328
  0
LINE
  5
52C
100
AcDbEntity
  8
0
100
AcDbLine
 62
7
  6
CONTINUOUS
 10
107.1184755724
 20
31.1408988041
 11
106.9628976991
 21
30.9570020846
  0
LINE
  5
52D
100
AcDbEntity
  8
0
100
AcDbLine
 62
7
  6
CONTINUOUS
 10
107.2471578514
 20
30.7165160657
 11
107.4027357247
 21
30.9004127852
  0
LINE
  5
52E
100
AcDbEntity
  8
0
100
AcDbLine
 62
7
  6
CONTINUOUS
 10
103.1586133846
 20
28.7649775465
 11
102.5332821936
 21
28.512281395
  0
LINE
  5
52F
100
AcDbEntity
  8
0
100
AcDbLine
 62
7
  6
CONTINUOUS
 10
102.6727852017
 20
28.16706212
 11
103.2981163928
 21
28.4197582715
  0
LINE
  5
530
100
AcDbEntity
  8
RUNDUNGEN
100
AcDbLine
 62
7
  6
CONTINUOUS
 10
117.6399792485
 20
43.8733812643
 11
117.5789017831
 21
43.8697465042
  0
LINE
  5
531
100
AcDbEntity
  8
RUNDUNGEN
100
AcDbLine
 62
7
  6
CONTINUOUS
 10
117.5789017831
 20
43.8697465042
 11
117.5146618206
 21
43.866456643
  0
LINE
  5
532
100
AcDbEntity
  8
RUNDUNGEN
100
AcDbLine
 62
7
  6
CONTINUOUS
 10
116.4404134034
 20
43.8554480075
 11
116.3331442606
 21
43.8504107533
  0
LINE
  5
533
100
AcDbEntity
  8
RUNDUNGEN
100
AcDbLine
 62
7
  6
CONTINUOUS
 10
117.5146618206
 20
43.866456643
 11
117.4474372276
 21
43.8635328597
  0
LINE
  5
534
100
AcDbEntity
  8
RUNDUNGEN
100
AcDbLine
 62
7
  6
CONTINUOUS
 10
117.4474372276
 20
43.8635328597
 11
117.3774867141
 21
43.8610131565
  0
LINE
  5
535
100
AcDbEntity
  8
RUNDUNGEN
100
AcDbLine
 62
7
  6
CONTINUOUS
 10
117.3774867141
 20
43.8610131565
 11
117.305037922
 21
43.8589437245
  0
LINE
  5
536
100
AcDbEntity
  8
RUNDUNGEN
100
AcDbLine
 62
7
  6
CONTINUOUS
 10
117.305037922
 20
43.8589437245
 11
117.2302794172
 21
43.8573423166
  0
LINE
  5
537
100
AcDbEntity
  8
RUNDUNGEN
100
AcDbLine
 62
7
  6
CONTINUOUS
 10
117.2302794172
 20
43.8573423166
 11
117.153455303
 21
43.8562339063
  0
LINE
  5
538
100
AcDbEntity
  8
RUNDUNGEN
100
AcDbLine
 62
7
  6
CONTINUOUS
 10
116.4620453035
 20
43.8555954819
 11
116.4404134034
 21
43.8554480075
  0
LINE
  5
539
100
AcDbEntity
  8
RUNDUNGEN
100
AcDbLine
 62
7
  6
CONTINUOUS
 10
117.153455303
 20
43.8562339063
 11
117.0748265039
 21
43.8556682276
  0
LINE
  5
53A
100
AcDbEntity
  8
RUNDUNGEN
100
AcDbLine
 62
7
  6
CONTINUOUS
 10
124.6548396568
 20
42.943236383
 11
73.6954627884
 21
42.943236383
  0
LINE
  5
53B
100
AcDbEntity
  8
RUNDUNGEN
100
AcDbLine
 62
7
  6
CONTINUOUS
 10
117.0748265039
 20
43.8556682276
 11
116.4620452852
 21
43.8556005062
  0
LINE
  5
53C
100
AcDbEntity
  8
BEZUGSACHSEN
100
AcDbLine
 62
7
  6
CONTINUOUS
 10
102.9397605314
 20
44.193236383
 11
95.4342070319
 21
44.193236383
  0
LINE
  5
53D
100
AcDbEntity
  8
RUNDUNGEN
100
AcDbLine
 62
7
  6
CONTINUOUS
 10
71.1810917024
 20
44.193236383
 11
82.1869837816
 21
44.193236383
  0
LINE
  5
53E
100
AcDbEntity
  8
RUNDUNGEN
100
AcDbLine
 62
7
  6
CONTINUOUS
 10
116.1869837816
 20
44.193236383
 11
127.1928758609
 21
44.193236383
  0
LINE
  5
53F
100
AcDbEntity
  8
RUNDUNGEN
100
AcDbLine
 62
7
  6
CONTINUOUS
 10
81.9119223651
 20
43.8556005062
 11
81.3039006012
 21
43.855652571
  0
LINE
  5
540
100
AcDbEntity
  8
RUNDUNGEN
100
AcDbLine
 62
7
  6
CONTINUOUS
 10
81.3039006012
 20
43.855652571
 11
81.2234164252
 21
43.8562026951
  0
LINE
  5
541
100
AcDbEntity
  8
RUNDUNGEN
100
AcDbLine
 62
7
  6
CONTINUOUS
 10
81.940684269
 20
43.8553353603
 11
81.911922365
 21
43.855595417
  0
LINE
  5
542
100
AcDbEntity
  8
RUNDUNGEN
100
AcDbLine
 62
7
  6
CONTINUOUS
 10
81.2234164252
 20
43.8562026951
 11
81.1447154388
 21
43.8573239258
  0
LINE
  5
543
100
AcDbEntity
  8
RUNDUNGEN
100
AcDbLine
 62
7
  6
CONTINUOUS
 10
81.1447154388
 20
43.8573239258
 11
81.0680951258
 21
43.8589645389
  0
LINE
  5
544
100
AcDbEntity
  8
RUNDUNGEN
100
AcDbLine
 62
7
  6
CONTINUOUS
 10
81.0680951258
 20
43.8589645389
 11
80.9938406069
 21
43.8610988095
  0
LINE
  5
545
100
AcDbEntity
  8
0
100
AcDbLine
 62
7
  6
CONTINUOUS
 10
108.9392834731
 20
44.1827101683
 11
108.6733446088
 21
44.1913086841
  0
LINE
  5
546
100
AcDbEntity
  8
RUNDUNGEN
100
AcDbLine
 62
7
  6
CONTINUOUS
 10
80.9938406069
 20
43.8610988095
 11
80.9221787374
 21
43.8637069493
  0
LINE
  5
547
100
AcDbEntity
  8
RUNDUNGEN
100
AcDbLine
 62
7
  6
CONTINUOUS
 10
80.9221787374
 20
43.8637069493
 11
80.8533736184
 21
43.8667393018
  0
LINE
  5
548
100
AcDbEntity
  8
RUNDUNGEN
100
AcDbLine
 62
7
  6
CONTINUOUS
 10
82.0479720186
 20
43.8498200941
 11
81.940684269
 21
43.8553353603
  0
LWPOLYLINE
  5
549
100
AcDbEntity
  8
RUNDUNGEN
100
AcDbPolyline
 62
7
  6
CONTINUOUS
 90
25
 70
0
 10
80.8533736184
 20
43.8667393018
 10
80.7877403448
 20
43.8701550295
 10
80.7561660787
 20
43.8720004999
 10
80.7254546952
 20
43.8739317226
 10
80.6956324706
 20
43.8759412356
 10
80.6667149969
 20
43.8780232151
 10
80.6387258934
 20
43.8801722922
 10
80.6116950924
 20
43.8823834717
 10
80.585650911
 20
43.8846526196
 10
80.560618544
 20
43.8869759962
 10
80.5366294052
 20
43.8893458066
 10
80.5137246565
 20
43.8917516188
 10
80.4919105904
 20
43.8941867918
 10
80.4712404361
 20
43.8966396901
 10
80.4518303795
 20
43.8990898558
 10
80.433701235
 20
43.9015271076
 10
80.4168876901
 20
43.9039384017
 10
80.4015351278
 20
43.9062898169
 10
80.3876078226
 20
43.9085708382
 10
80.3751959769
 20
43.9107487342
 10
80.3646233214
 20
43.9127396812
 10
80.355836874
 20
43.9145185327
 10
80.3488872363
 20
43.9160359956
 10
80.3442159305
 20
43.9171389725
 10
80.3417607444
 20
43.9177657371
  0
LINE
  5
54A
100
AcDbEntity
  8
KONSTRUKTIONSELEMENTE
100
AcDbLine
 62
7
  6
CONTINUOUS
 10
100.1340033956
 20
43.1499436182
 11
99.8906113814
 21
43.1631492948
  0
LINE
  5
54B
100
AcDbEntity
  8
KONSTRUKTIONSELEMENTE
100
AcDbLine
 62
7
  6
CONTINUOUS
 10
99.0793046672
 20
43.207168217
 11
98.8359126529
 21
43.2203738937
  0
LINE
  5
54C
100
AcDbEntity
  8
0
100
AcDbLine
 62
7
  6
CONTINUOUS
 10
121.3007263643
 20
31.4864286624
 11
121.2235494195
 21
31.5340774805
  0
LINE
  5
54D
100
AcDbEntity
  8
0
100
AcDbLine
 62
7
  6
CONTINUOUS
 10
121.3007263643
 20
31.9896635288
 11
121.2235494195
 21
32.0373123469
  0
LINE
  5
54E
100
AcDbEntity
  8
0
100
AcDbLine
 62
7
  6
CONTINUOUS
 10
116.3649742876
 20
31.8429180569
 11
116.3190147971
 21
31.8817635364
  0
LINE
  5
54F
100
AcDbEntity
  8
0
100
AcDbLine
 62
7
  6
CONTINUOUS
 10
99.8884006823
 20
46.6171900301
 11
99.7133376153
 21
46.7865092215
  0
LINE
  5
550
100
AcDbEntity
  8
0
100
AcDbLine
 62
7
  6
CONTINUOUS
 10
99.75747571
 20
48.0553605426
 11
99.8450075175
 21
47.9707009164
  0
LINE
  5
551
100
AcDbEntity
  8
0
100
AcDbLine
 62
7
  6
CONTINUOUS
 10
99.5367786522
 20
46.5064327628
 11
99.7514929369
 21
46.2577777532
  0
LINE
  5
552
100
AcDbEntity
  8
0
100
AcDbLine
 62
7
  6
CONTINUOUS
 10
100.0612174235
 20
48.1714415811
 11
99.8943837243
 21
48.4147727437
  0
LINE
  5
553
100
AcDbEntity
  8
0
100
AcDbLine
 62
7
  6
CONTINUOUS
 10
101.0569828592
 20
47.5362337911
 11
100.8901488861
 21
47.7795649843
  0
LINE
  5
554
100
AcDbEntity
  8
0
100
AcDbLine
 62
7
  6
CONTINUOUS
 10
100.7509945517
 20
49.1437235774
 11
100.9178285249
 21
48.9003923843
  0
LINE
  5
555
100
AcDbEntity
  8
BEZUGSACHSEN
100
AcDbLine
 62
7
  6
CONTINUOUS
 10
103.6614483679
 20
42.943236383
 11
102.9397605314
 21
44.193236383
  0
LINE
  5
556
100
AcDbEntity
  8
0
100
AcDbLine
 62
7
  6
CONTINUOUS
 10
101.1736896508
 20
49.0217972502
 11
101.0547362652
 21
49.2598046158
  0
LINE
  5
557
100
AcDbEntity
  8
0
100
AcDbLine
 62
7
  6
CONTINUOUS
 10
109.301621787
 20
31.2181929954
 11
109.4475747633
 21
31.4676916672
  0
LINE
  5
558
100
AcDbEntity
  8
0
100
AcDbLine
 62
7
  6
CONTINUOUS
 10
107.3780181902
 20
28.9188129161
 11
107.584502171
 21
29.121090508
  0
LINE
  5
559
100
AcDbEntity
  8
0
100
AcDbLine
 62
7
  6
CONTINUOUS
 10
116.3190147971
 20
31.8817635364
 11
116.3831817136
 21
31.9154382084
  0
LINE
  5
55A
100
AcDbEntity
  8
0
100
AcDbLine
 62
7
  6
CONTINUOUS
 10
100.4629666381
 20
46.5533042221
 11
100.2632154677
 21
46.5005874999
  0
LINE
  5
55B
100
AcDbEntity
  8
0
100
AcDbLine
 62
7
  6
CONTINUOUS
 10
100.0118412167
 20
47.7273697538
 11
100.2115926611
 21
47.7800864455
  0
LINE
  5
55C
100
AcDbEntity
  8
0
100
AcDbLine
 62
7
  6
CONTINUOUS
 10
100.6357833794
 20
48.1075557731
 11
100.4360322089
 21
48.0548390509
  0
LINE
  5
55D
100
AcDbEntity
  8
0
100
AcDbLine
 62
7
  6
CONTINUOUS
 10
100.2699489366
 20
46.125203795
 11
100.5175809693
 21
46.1725966657
  0
LINE
  5
55E
100
AcDbEntity
  8
0
100
AcDbLine
 62
7
  6
CONTINUOUS
 10
96.5877077918
 20
45.8682344909
 11
96.8724637701
 21
45.9178922325
  0
LINE
  5
55F
100
AcDbEntity
  8
0
100
AcDbLine
 62
7
  6
CONTINUOUS
 10
97.5368943637
 20
46.0337602922
 11
97.9165689789
 21
46.0999706104
  0
LINE
  5
560
100
AcDbEntity
  8
0
100
AcDbLine
 62
7
  6
CONTINUOUS
 10
98.5809996403
 20
46.215838682
 11
98.8657556187
 21
46.2654964236
  0
LINE
  5
561
100
AcDbEntity
  8
0
100
AcDbLine
 62
7
  6
CONTINUOUS
 10
99.9826659586
 20
46.157146699
 11
100.2699489366
 21
46.125203795
  0
LINE
  5
562
100
AcDbEntity
  8
0
100
AcDbLine
 62
7
  6
CONTINUOUS
 10
100.2632154677
 20
46.5005874999
 11
100.0716933911
 21
46.5218827794
  0
LINE
  5
563
100
AcDbEntity
  8
0
100
AcDbLine
 62
7
  6
CONTINUOUS
 10
108.7586267853
 20
43.9052592072
 11
108.960766285
 21
43.8582531991
  0
LINE
  5
564
100
AcDbEntity
  8
0
100
AcDbLine
 62
7
  6
CONTINUOUS
 10
109.2549159949
 20
44.0915646391
 11
108.9392834731
 21
44.1827101683
  0
LINE
  5
565
100
AcDbEntity
  8
0
100
AcDbLine
 62
7
  6
CONTINUOUS
 10
99.7514929369
 20
46.2577777532
 11
99.9826659586
 21
46.157146699
  0
LINE
  5
566
100
AcDbEntity
  8
0
100
AcDbLine
 62
7
  6
CONTINUOUS
 10
100.0716933911
 20
46.5218827794
 11
99.8884006823
 21
46.6171900301
  0
LINE
  5
567
100
AcDbEntity
  8
0
100
AcDbLine
 62
7
  6
CONTINUOUS
 10
100.4031147377
 20
47.758791166
 11
100.5864071725
 21
47.6634839458
  0
LINE
  5
568
100
AcDbEntity
  8
0
100
AcDbLine
 62
7
  6
CONTINUOUS
 10
100.2445101323
 20
48.0761343304
 11
100.0612174235
 21
48.1714415811
  0
LINE
  5
569
100
AcDbEntity
  8
0
100
AcDbLine
 62
7
  6
CONTINUOUS
 10
104.1715779583
 20
46.0980842853
 11
104.7394705132
 21
45.7342275198
  0
LINE
  5
56A
100
AcDbEntity
  8
0
100
AcDbLine
 62
7
  6
CONTINUOUS
 10
120.7500938906
 20
31.5122829146
 11
120.7960533812
 21
31.473437435
  0
LINE
  5
56B
100
AcDbEntity
  8
0
100
AcDbLine
 62
7
  6
CONTINUOUS
 10
100.5864071725
 20
47.6634839458
 11
100.7614705135
 21
47.4941647239
  0
LINE
  5
56C
100
AcDbEntity
  8
0
100
AcDbLine
 62
7
  6
CONTINUOUS
 10
100.8901488861
 20
47.7795649843
 11
100.8026173525
 21
47.86422458
  0
LINE
  5
56D
100
AcDbEntity
  8
0
100
AcDbLine
 62
7
  6
CONTINUOUS
 10
101.0547362652
 20
49.2598046158
 11
100.8400219784
 21
49.508459606
  0
LINE
  5
56E
100
AcDbEntity
  8
0
100
AcDbLine
 62
7
  6
CONTINUOUS
 10
109.1488000776
 20
43.6902926856
 11
109.2092357098
 21
43.445516243
  0
LINE
  5
56F
100
AcDbEntity
  8
RUNDUNGEN
100
AcDbLine
 62
7
  6
CONTINUOUS
 10
117.9153442543
 20
43.9308433078
 11
117.8964680023
 21
43.895893455
  0
LINE
  5
570
100
AcDbEntity
  8
0
100
AcDbLine
 62
7
  6
CONTINUOUS
 10
120.7960533812
 20
31.473437435
 11
120.7318865199
 21
31.4397627656
  0
LINE
  5
571
100
AcDbEntity
  8
0
100
AcDbLine
 62
7
  6
CONTINUOUS
 10
100.1764285959
 20
49.2076093854
 11
100.3761800403
 21
49.2603260771
  0
LINE
  5
572
100
AcDbEntity
  8
0
100
AcDbLine
 62
7
  6
CONTINUOUS
 10
100.4173268793
 20
49.6303859332
 11
100.1696951213
 21
49.5829930385
  0
LINE
  5
573
100
AcDbEntity
  8
0
100
AcDbLine
 62
7
  6
CONTINUOUS
 10
98.2644753519
 20
49.7134613365
 11
97.8373413844
 21
49.6389747241
  0
LINE
  5
574
100
AcDbEntity
  8
0
100
AcDbLine
 62
7
  6
CONTINUOUS
 10
96.4135614926
 20
49.3906860162
 11
95.986427525
 21
49.3161994038
  0
LINE
  5
575
100
AcDbEntity
  8
0
100
AcDbLine
 62
7
  6
CONTINUOUS
 10
89.6004966467
 20
47.893236383
 11
89.1228179208
 21
47.893236383
  0
LINE
  5
576
100
AcDbEntity
  8
0
100
AcDbLine
 62
7
  6
CONTINUOUS
 10
108.7734709166
 20
47.893236383
 11
109.2511496425
 21
47.893236383
  0
LINE
  5
577
100
AcDbEntity
  8
0
100
AcDbLine
 62
7
  6
CONTINUOUS
 10
108.1131116428
 20
49.7678490174
 11
106.2684348855
 21
49.7678490174
  0
LINE
  5
578
100
AcDbEntity
  8
0
100
AcDbLine
 62
7
  6
CONTINUOUS
 10
92.1055326778
 20
49.7678490174
 11
90.2608559205
 21
49.7678490174
  0
LINE
  5
579
100
AcDbEntity
  8
0
100
AcDbLine
 62
7
  6
CONTINUOUS
 10
100.2115926611
 20
47.7800864455
 11
100.4031147377
 21
47.758791166
  0
LINE
  5
57A
100
AcDbEntity
  8
0
100
AcDbLine
 62
7
  6
CONTINUOUS
 10
100.4360322089
 20
48.0548390509
 11
100.2445101323
 21
48.0761343304
  0
LINE
  5
57B
100
AcDbEntity
  8
0
100
AcDbLine
 62
7
  6
CONTINUOUS
 10
100.3761800403
 20
49.2603260771
 11
100.5677021169
 21
49.2390307976
  0
LINE
  5
57C
100
AcDbEntity
  8
0
100
AcDbLine
 62
7
  6
CONTINUOUS
 10
100.6088489559
 20
49.6090906537
 11
100.4173268793
 21
49.6303859332
  0
LINE
  5
57D
100
AcDbEntity
  8
0
100
AcDbLine
 62
7
  6
CONTINUOUS
 10
100.8400219784
 20
49.508459606
 11
100.6088489559
 21
49.6090906537
  0
LINE
  5
57E
100
AcDbEntity
  8
0
100
AcDbLine
 62
7
  6
CONTINUOUS
 10
100.5677021169
 20
49.2390307976
 11
100.7509945517
 21
49.1437235774
  0
LINE
  5
57F
100
AcDbEntity
  8
0
100
AcDbLine
 62
7
  6
CONTINUOUS
 10
104.9403408253
 20
46.0477375752
 11
104.3724482703
 21
46.4115943408
  0
LINE
  5
580
100
AcDbEntity
  8
0
100
AcDbLine
 62
7
  6
CONTINUOUS
 10
108.960766285
 20
43.8582531991
 11
109.1488000776
 21
43.6902926856
  0
LINE
  5
581
100
AcDbEntity
  8
0
100
AcDbLine
 62
7
  6
CONTINUOUS
 10
109.4677969006
 20
43.8823301465
 11
109.2549159949
 21
44.0915646391
  0
LINE
  5
582
100
AcDbEntity
  8
0
100
AcDbLine
 62
7
  6
CONTINUOUS
 10
109.5530790771
 20
43.5962806695
 11
109.4677969006
 21
43.8823301465
  0
LINE
  5
583
100
AcDbEntity
  8
0
100
AcDbLine
 62
7
  6
CONTINUOUS
 10
113.9560513637
 20
32.443236383
 11
113.9560513637
 21
31.943236383
  0
LINE
  5
584
100
AcDbEntity
  8
RUNDUNGEN
100
AcDbLine
 62
7
  6
CONTINUOUS
 10
114.4369837816
 20
45.7924869063
 11
114.4369837816
 21
43.8850070759
  0
LINE
  5
585
100
AcDbEntity
  8
RUNDUNGEN
100
AcDbLine
 62
7
  6
CONTINUOUS
 10
114.4369837816
 20
31.943236383
 11
114.4369837816
 21
29.49296986
  0
LINE
  5
586
100
AcDbEntity
  8
0
100
AcDbLine
 62
7
  6
CONTINUOUS
 10
115.8143419442
 20
31.943236383
 11
115.8143419442
 21
31.8687722564
  0
LINE
  5
587
100
AcDbEntity
  8
0
100
AcDbLine
 62
7
  6
CONTINUOUS
 10
115.8472915505
 20
31.943236383
 11
115.8472915505
 21
31.911250215
  0
LINE
  5
588
100
AcDbEntity
  8
0
100
AcDbLine
 62
7
  6
CONTINUOUS
 10
115.8472915505
 20
31.911250215
 11
115.8143419442
 21
31.8687722564
  0
LINE
  5
589
100
AcDbEntity
  8
RUNDUNGEN
100
AcDbLine
 62
7
  6
CONTINUOUS
 10
88.1878055308
 20
49.893236383
 11
88.9178316367
 21
49.893236383
  0
LINE
  5
58A
100
AcDbEntity
  8
0
100
AcDbLine
 62
7
  6
CONTINUOUS
 10
88.9178316367
 20
49.893236383
 11
92.325765573
 21
49.893236383
  0
LINE
  5
58B
100
AcDbEntity
  8
0
100
AcDbLine
 62
7
  6
CONTINUOUS
 10
106.0482019903
 20
49.893236383
 11
109.4561359266
 21
49.893236383
  0
LINE
  5
58C
100
AcDbEntity
  8
RUNDUNGEN
100
AcDbLine
 62
7
  6
CONTINUOUS
 10
109.4561359266
 20
49.893236383
 11
110.186222957
 21
49.893236383
  0
LINE
  5
58D
100
AcDbEntity
  8
0
100
AcDbLine
 62
7
  6
CONTINUOUS
 10
113.4296880014
 20
43.0623835648
 11
109.1734781283
 21
47.9830332499
  0
LINE
  5
58E
100
AcDbEntity
  8
0
100
AcDbLine
 62
7
  6
CONTINUOUS
 10
116.3649742876
 20
31.905882987
 11
116.3649742876
 21
31.8429180569
  0
LINE
  5
58F
100
AcDbEntity
  8
0
100
AcDbLine
 62
7
  6
CONTINUOUS
 10
116.4898432117
 20
31.931809787
 11
116.4898432117
 21
31.8077049546
  0
LINE
  5
590
100
AcDbEntity
  8
0
100
AcDbLine
 62
7
  6
CONTINUOUS
 10
116.6936213905
 20
31.943236383
 11
116.6936213905
 21
31.77612428
  0
LINE
  5
591
100
AcDbEntity
  8
0
100
AcDbLine
 62
7
  6
CONTINUOUS
 10
116.7656008144
 20
31.706707014
 11
116.7656008144
 21
31.5746318731
  0
LINE
  5
592
100
AcDbEntity
  8
0
100
AcDbLine
 62
7
  6
CONTINUOUS
 10
116.9450916037
 20
31.943236383
 11
116.9450916037
 21
31.7569793237
  0
LINE
  5
593
100
AcDbEntity
  8
0
100
AcDbLine
 62
7
  6
CONTINUOUS
 10
117.2442537409
 20
31.943236383
 11
117.2442537409
 21
31.7502700807
  0
LINE
  5
594
100
AcDbEntity
  8
0
100
AcDbLine
 62
7
  6
CONTINUOUS
 10
117.5911080358
 20
31.943236383
 11
117.5911080358
 21
31.7559965032
  0
LINE
  5
595
100
AcDbEntity
  8
0
100
AcDbLine
 62
7
  6
CONTINUOUS
 10
117.664786782
 20
32.443236383
 11
117.664786782
 21
31.943236383
  0
LINE
  5
596
100
AcDbEntity
  8
0
100
AcDbLine
 62
7
  6
CONTINUOUS
 10
117.9882695853
 20
31.5694731966
 11
117.9882695853
 21
31.3851479287
  0
LINE
  5
597
100
AcDbEntity
  8
0
100
AcDbLine
 62
7
  6
CONTINUOUS
 10
118.1920475855
 20
31.578853704
 11
118.1920475855
 21
31.3535673044
  0
LINE
  5
598
100
AcDbEntity
  8
0
100
AcDbLine
 62
7
  6
CONTINUOUS
 10
118.4139999688
 20
32.443236383
 11
118.4139999688
 21
31.943236383
  0
LINE
  5
599
100
AcDbEntity
  8
0
100
AcDbLine
 62
7
  6
CONTINUOUS
 10
118.4435177988
 20
31.5904296257
 11
118.4435177988
 21
31.3344223482
  0
LINE
  5
59A
100
AcDbEntity
  8
0
100
AcDbLine
 62
7
  6
CONTINUOUS
 10
118.4911768244
 20
32.443236383
 11
118.4911768244
 21
31.943236383
  0
LINE
  5
59B
100
AcDbEntity
  8
RUNDUNGEN
100
AcDbLine
 62
7
  6
CONTINUOUS
 10
111.4467877032
 20
50.3707713226
 11
110.5591388279
 21
50.7438386664
  0
LINE
  5
59C
100
AcDbEntity
  8
0
100
AcDbLine
 62
7
  6
CONTINUOUS
 10
114.8114788618
 20
43.4520493146
 11
110.1566995486
 21
48.8334893856
  0
LINE
  5
59D
100
AcDbEntity
  8
0
100
AcDbLine
 62
7
  6
CONTINUOUS
 10
118.7426801145
 20
31.6042009568
 11
118.7426801145
 21
31.3277130548
  0
LINE
  5
59E
100
AcDbEntity
  8
0
100
AcDbLine
 62
7
  6
CONTINUOUS
 10
119.0895342308
 20
31.6201676832
 11
119.0895342308
 21
31.3334395277
  0
LINE
  5
59F
100
AcDbEntity
  8
0
100
AcDbLine
 62
7
  6
CONTINUOUS
 10
119.1007786937
 20
32.443236383
 11
119.1007786937
 21
31.943236383
  0
LINE
  5
5A0
100
AcDbEntity
  8
0
100
AcDbLine
 62
7
  6
CONTINUOUS
 10
119.2880820797
 20
32.443236383
 11
119.2880820797
 21
31.943236383
  0
LINE
  5
5A1
100
AcDbEntity
  8
0
100
AcDbLine
 62
7
  6
CONTINUOUS
 10
120.0372952665
 20
32.3702001424
 11
120.0372952665
 21
31.8686017759
  0
LINE
  5
5A2
100
AcDbEntity
  8
0
100
AcDbLine
 62
7
  6
CONTINUOUS
 10
120.2245985632
 20
32.319017014
 11
120.2245985632
 21
31.8157821477
  0
LINE
  5
5A3
100
AcDbEntity
  8
0
100
AcDbLine
 62
7
  6
CONTINUOUS
 10
120.2731731635
 20
31.6467748106
 11
120.2731731635
 21
31.3879259477
  0
LINE
  5
5A4
100
AcDbEntity
  8
0
100
AcDbLine
 62
7
  6
CONTINUOUS
 10
120.4743362326
 20
32.2485908598
 11
120.4743362326
 21
31.7453559935
  0
LINE
  5
5A5
100
AcDbEntity
  8
0
100
AcDbLine
 62
7
  6
CONTINUOUS
 10
120.5575930857
 20
31.5665682429
 11
120.5575930857
 21
31.4112588961
  0
LINE
  5
5A6
100
AcDbEntity
  8
0
100
AcDbLine
 62
7
  6
CONTINUOUS
 10
120.7318865199
 20
31.5174174027
 11
120.7318865199
 21
31.4397627656
  0
LINE
  5
5A7
100
AcDbEntity
  8
0
100
AcDbLine
 62
7
  6
CONTINUOUS
 10
121.2677766001
 20
31.4439507552
 11
121.3007263643
 21
31.4864286624
  0
LINE
  5
5A8
100
AcDbEntity
  8
0
100
AcDbLine
 62
7
  6
CONTINUOUS
 10
121.2235494195
 20
32.0373123469
 11
121.2235494195
 21
31.5340774805
  0
LINE
  5
5A9
100
AcDbEntity
  8
0
100
AcDbLine
 62
7
  6
CONTINUOUS
 10
121.3007263643
 20
31.9896635288
 11
121.3007263643
 21
31.4864286624
  0
LINE
  5
5AA
100
AcDbEntity
  8
RUNDUNGEN
100
AcDbLine
 62
7
  6
CONTINUOUS
 10
128.192877865
 20
32.193236383
 11
128.192877865
 21
33.531774367
  0
LINE
  5
5AB
100
AcDbEntity
  8
RUNDUNGEN
100
AcDbLine
 62
7
  6
CONTINUOUS
 10
128.192877865
 20
41.8546983989
 11
128.192877865
 21
43.193236383
  0
LINE
  5
5AC
100
AcDbEntity
  8
0
100
AcDbLine
 62
7
  6
CONTINUOUS
 10
129.1869837816
 20
40.443236383
 11
129.1869837816
 21
34.943236383
  0
ARC
  5
5AD
100
AcDbEntity
  8
RUNDUNGEN
100
AcDbCircle
 62
7
  6
CONTINUOUS
 10
58.1066944399
 20
129.6732956341
 40
18.0
100
AcDbArc
 50
337.999988081
 51
31.147412132
  0
ARC
  5
5AE
100
AcDbEntity
  8
RUNDUNGEN
100
AcDbCircle
 62
7
  6
CONTINUOUS
 10
74.1482265491
 20
132.2036544036
 40
4.0
100
AcDbArc
 50
337.06
 51
11.0
  0
ARC
  5
5AF
100
AcDbEntity
  8
RUNDUNGEN
100
AcDbCircle
 62
7
  6
CONTINUOUS
 10
76.1810896983
 20
110.3417818204
 40
6.0
100
AcDbArc
 50
158.0
 51
203.0
  0
ARC
  5
5B0
100
AcDbEntity
  8
0
100
AcDbCircle
 62
7
  6
CONTINUOUS
 10
80.0657006661
 20
105.6335202033
 40
2.0
100
AcDbArc
 50
84.2608295227
 51
275.7391704773
  0
ARC
  5
5B1
100
AcDbEntity
  8
0
100
AcDbCircle
 62
7
  6
CONTINUOUS
 10
76.6657006661
 20
105.6335202033
 40
2.0
100
AcDbArc
 50
84.2608295227
 51
275.7391704773
  0
ARC
  5
5B2
100
AcDbEntity
  8
RUNDUNGEN
100
AcDbCircle
 62
7
  6
CONTINUOUS
 10
81.6869837816
 20
96.0008977656
 40
1.5
100
AcDbArc
 50
270.0
 51
360.0
  0
ARC
  5
5B3
100
AcDbEntity
  8
0
100
AcDbCircle
 62
7
  6
CONTINUOUS
 10
80.0657006661
 20
105.6335202033
 40
1.4
100
AcDbArc
 50
192.3736251162
 51
278.2132107017
  0
ARC
  5
5B4
100
AcDbEntity
  8
0
100
AcDbCircle
 62
7
  6
CONTINUOUS
 10
80.0657006661
 20
105.6335202033
 40
1.4
100
AcDbArc
 50
81.7867892983
 51
167.4447123387
  0
ARC
  5
5B5
100
AcDbEntity
  8
0
100
AcDbCircle
 62
7
  6
CONTINUOUS
 10
76.6657006661
 20
105.6335202033
 40
1.4
100
AcDbArc
 50
81.7867892983
 51
278.2132107017
  0
ARC
  5
5B6
100
AcDbEntity
  8
RUNDUNGEN
100
AcDbCircle
 62
7
  6
CONTINUOUS
 10
84.9369837816
 20
112.9031477656
 40
1.0
100
AcDbArc
 50
90.0
 51
180.0
  0
ARC
  5
5B7
100
AcDbEntity
  8
RUNDUNGEN
100
AcDbCircle
 62
7
  6
CONTINUOUS
 10
84.1869837816
 20
95.5008977656
 40
1.0
100
AcDbArc
 50
104.4874974433
 51
168.5562634114
  0
ARC
  5
5B8
100
AcDbEntity
  8
RUNDUNGEN
100
AcDbCircle
 62
7
  6
CONTINUOUS
 10
84.1869837816
 20
108.5008977656
 40
1.0
100
AcDbArc
 50
180.0
 51
255.5125025567
  0
ARC
  5
5B9
100
AcDbEntity
  8
RUNDUNGEN
100
AcDbCircle
 62
7
  6
CONTINUOUS
 10
77.0488669514
 20
95.5009033995
 40
1.0
100
AcDbArc
 50
203.000350676
 51
270.000137013
  0
ARC
  5
5BA
100
AcDbEntity
  8
RUNDUNGEN
100
AcDbCircle
 62
7
  6
CONTINUOUS
 10
82.6869837816
 20
109.8658977656
 40
0.5
100
AcDbArc
 50
0.0
 51
90.0
  0
ARC
  5
5BB
100
AcDbEntity
  8
RUNDUNGEN
100
AcDbCircle
 62
7
  6
CONTINUOUS
 10
92.2843627056
 20
122.5008977656
 40
6.0
100
AcDbArc
 50
89.9999999996
 51
158.0000176946
  0
ARC
  5
5BC
100
AcDbEntity
  8
RUNDUNGEN
100
AcDbCircle
 62
7
  6
CONTINUOUS
 10
86.1869837816
 20
115.4177568382
 40
3.0
100
AcDbArc
 50
158.0
 51
180.0008553389
  0
ARC
  5
5BD
100
AcDbEntity
  8
0
100
AcDbCircle
 62
7
  6
CONTINUOUS
 10
92.4292921593
 20
114.2058263184
 40
1.0169252888
100
AcDbArc
 50
160.1014063464
 51
164.2582997612
  0
ARC
  5
5BE
100
AcDbEntity
  8
RUNDUNGEN
100
AcDbCircle
 62
7
  6
CONTINUOUS
 10
92.4349837816
 20
114.2531477656
 40
1.0
100
AcDbArc
 50
90.0
 51
166.7886700598
  0
ARC
  5
5BF
100
AcDbEntity
  8
0
100
AcDbCircle
 62
7
  6
CONTINUOUS
 10
90.9814837816
 20
114.2531477656
 40
1.0
100
AcDbArc
 50
142.6137009011
 51
166.7870196398
  0
ARC
  5
5C0
100
AcDbEntity
  8
RUNDUNGEN
100
AcDbCircle
 62
7
  6
CONTINUOUS
 10
89.8913587816
 20
114.2531477656
 40
1.0
100
AcDbArc
 50
90.0
 51
166.7870196398
  0
ARC
  5
5C1
100
AcDbEntity
  8
RUNDUNGEN
100
AcDbCircle
 62
7
  6
CONTINUOUS
 10
90.7313112779
 20
114.6531477656
 40
0.75
100
AcDbArc
 50
269.9984963564
 51
346.7848190813
  0
ARC
  5
5C2
100
AcDbEntity
  8
0
100
AcDbCircle
 62
7
  6
CONTINUOUS
 10
89.2778112779
 20
114.6531477656
 40
0.75
100
AcDbArc
 50
270.0
 51
346.7870196398
  0
ARC
  5
5C3
100
AcDbEntity
  8
RUNDUNGEN
100
AcDbCircle
 62
7
  6
CONTINUOUS
 10
88.1876862779
 20
114.6531477656
 40
0.75
100
AcDbArc
 50
270.0
 51
346.7870196398
  0
ARC
  5
5C4
100
AcDbEntity
  8
0
100
AcDbCircle
 62
7
  6
CONTINUOUS
 10
90.8784690787
 20
114.6424084943
 40
0.5941789003
100
AcDbArc
 50
341.7237063166
 51
344.3095931519
  0
ARC
  5
5C5
100
AcDbEntity
  8
RUNDUNGEN
100
AcDbCircle
 62
7
  6
CONTINUOUS
 10
83.0254809062
 20
116.9358977032
 40
0.4999999688
100
AcDbArc
 50
270.0000028917
 51
338.0000077194
  0
ARC
  5
5C6
100
AcDbEntity
  8
RUNDUNGEN
100
AcDbCircle
 62
7
  6
CONTINUOUS
 10
77.1954014643
 20
158.4540429694
 40
4.0
100
AcDbArc
 50
151.0
 51
191.0
  0
ARC
  5
5C7
100
AcDbEntity
  8
RUNDUNGEN
100
AcDbCircle
 62
7
  6
CONTINUOUS
 10
84.1807633968
 20
171.0559694835
 40
4.0
100
AcDbArc
 50
111.0
 51
151.0
  0
ARC
  5
5C8
100
AcDbEntity
  8
RUNDUNGEN
100
AcDbCircle
 62
7
  6
CONTINUOUS
 10
122.192877865
 20
110.3417818204
 40
6.0
100
AcDbArc
 50
337.0
 51
22.0
  0
ARC
  5
5C9
100
AcDbEntity
  8
RUNDUNGEN
100
AcDbCircle
 62
7
  6
CONTINUOUS
 10
116.6869837816
 20
96.0008977656
 40
1.5
100
AcDbArc
 50
180.0
 51
270.0
  0
ARC
  5
5CA
100
AcDbEntity
  8
RUNDUNGEN
100
AcDbCircle
 62
7
  6
CONTINUOUS
 10
113.4369837816
 20
112.9031477656
 40
1.0
100
AcDbArc
 50
0.0
 51
90.0
  0
ARC
  5
5CB
100
AcDbEntity
  8
RUNDUNGEN
100
AcDbCircle
 62
7
  6
CONTINUOUS
 10
114.1869837816
 20
95.5008977656
 40
1.0
100
AcDbArc
 50
11.5210457177
 51
75.5125025585
  0
ARC
  5
5CC
100
AcDbEntity
  8
RUNDUNGEN
100
AcDbCircle
 62
7
  6
CONTINUOUS
 10
114.1869837816
 20
108.5008977656
 40
1.0
100
AcDbArc
 50
284.4874974415
 51
360.0
  0
ARC
  5
5CD
100
AcDbEntity
  8
RUNDUNGEN
100
AcDbCircle
 62
7
  6
CONTINUOUS
 10
121.3250982205
 20
95.5008977656
 40
1.0
100
AcDbArc
 50
270.0
 51
337.0
  0
ARC
  5
5CE
100
AcDbEntity
  8
RUNDUNGEN
100
AcDbCircle
 62
7
  6
CONTINUOUS
 10
115.6869837816
 20
109.8658977656
 40
0.5
100
AcDbArc
 50
90.0
 51
180.0
  0
ARC
  5
5CF
100
AcDbEntity
  8
RUNDUNGEN
100
AcDbCircle
 62
7
  6
CONTINUOUS
 10
106.0896048577
 20
122.5008977656
 40
6.0
100
AcDbArc
 50
21.9999822951
 51
90.0
  0
ARC
  5
5D0
100
AcDbEntity
  8
BEZUGSACHSEN
100
AcDbCircle
 62
7
  6
CONTINUOUS
 10
104.6419063861
 20
120.9738857744
 40
3.6496795202
100
AcDbArc
 50
70.8601023901
 51
74.2498830609
  0
ARC
  5
5D1
100
AcDbEntity
  8
RUNDUNGEN
100
AcDbCircle
 62
7
  6
CONTINUOUS
 10
112.1869837816
 20
115.4177568382
 40
3.0
100
AcDbArc
 50
359.9991409938
 51
22.0
  0
ARC
  5
5D2
100
AcDbEntity
  8
0
100
AcDbCircle
 62
7
  6
CONTINUOUS
 10
105.9284152267
 20
114.2002587384
 40
1.0341130823
100
AcDbArc
 50
17.4482345912
 51
20.7110184857
  0
ARC
  5
5D3
100
AcDbEntity
  8
RUNDUNGEN
100
AcDbCircle
 62
7
  6
CONTINUOUS
 10
108.4826087816
 20
114.2531477656
 40
1.0
100
AcDbArc
 50
13.2129803602
 51
90.0
  0
ARC
  5
5D4
100
AcDbEntity
  8
0
100
AcDbCircle
 62
7
  6
CONTINUOUS
 10
107.3924837816
 20
114.2531477656
 40
1.0
100
AcDbArc
 50
13.2129803602
 51
37.3862399285
  0
ARC
  5
5D5
100
AcDbEntity
  8
RUNDUNGEN
100
AcDbCircle
 62
7
  6
CONTINUOUS
 10
105.9389837816
 20
114.2531477656
 40
1.0
100
AcDbArc
 50
13.2136347531
 51
90.0
  0
ARC
  5
5D6
100
AcDbEntity
  8
0
100
AcDbCircle
 62
7
  6
CONTINUOUS
 10
105.9789832672
 20
114.2162642909
 40
0.9810726029
100
AcDbArc
 50
15.6985573668
 51
17.4420099256
  0
ARC
  5
5D7
100
AcDbEntity
  8
RUNDUNGEN
100
AcDbCircle
 62
7
  6
CONTINUOUS
 10
107.6426562854
 20
114.6531477656
 40
0.75
100
AcDbArc
 50
193.212107836
 51
269.9981865373
  0
ARC
  5
5D8
100
AcDbEntity
  8
0
100
AcDbCircle
 62
7
  6
CONTINUOUS
 10
109.0961562854
 20
114.6531477656
 40
0.75
100
AcDbArc
 50
193.2129803602
 51
270.0
  0
ARC
  5
5D9
100
AcDbEntity
  8
RUNDUNGEN
100
AcDbCircle
 62
7
  6
CONTINUOUS
 10
110.1862812854
 20
114.6531477656
 40
0.75
100
AcDbArc
 50
193.2129803602
 51
270.0
  0
ARC
  5
5DA
100
AcDbEntity
  8
0
100
AcDbCircle
 62
7
  6
CONTINUOUS
 10
107.4815947701
 20
114.6380702468
 40
0.5796201965
100
AcDbArc
 50
195.6492374314
 51
203.3427572438
  0
ARC
  5
5DB
100
AcDbEntity
  8
RUNDUNGEN
100
AcDbCircle
 62
7
  6
CONTINUOUS
 10
115.3484866318
 20
116.9358977656
 40
0.5
100
AcDbArc
 50
202.0
 51
270.0
  0
ARC
  5
5DC
100
AcDbEntity
  8
RUNDUNGEN
100
AcDbCircle
 62
7
  6
CONTINUOUS
 10
140.2672731234
 20
129.6732956341
 40
18.0
100
AcDbArc
 50
148.852578251
 51
202.0000119174
  0
ARC
  5
5DD
100
AcDbEntity
  8
RUNDUNGEN
100
AcDbCircle
 62
7
  6
CONTINUOUS
 10
124.0874493988
 20
132.4816100158
 40
4.0
100
AcDbArc
 50
168.59
 51
202.92
  0
ARC
  5
5DE
100
AcDbEntity
  8
RUNDUNGEN
100
AcDbCircle
 62
7
  6
CONTINUOUS
 10
99.1869837816
 20
154.5008977656
 40
30.0
100
AcDbArc
 50
328.8525936382
 51
211.1474063372
  0
CIRCLE
  5
5DF
100
AcDbEntity
  8
RUNDUNGEN
100
AcDbCircle
 62
7
  6
CONTINUOUS
 10
99.1869837816
 20
154.5008977656
 40
19.0
  0
ARC
  5
5E0
100
AcDbEntity
  8
RUNDUNGEN
100
AcDbCircle
 62
7
  6
CONTINUOUS
 10
99.2612736337
 20
176.8448349934
 40
4.0
100
AcDbArc
 50
71.0
 51
111.0
  0
ARC
  5
5E1
100
AcDbEntity
  8
RUNDUNGEN
100
AcDbCircle
 62
7
  6
CONTINUOUS
 10
112.8847439376
 20
172.153897979
 40
4.0
100
AcDbArc
 50
31.0
 51
71.0
  0
ARC
  5
5E2
100
AcDbEntity
  8
RUNDUNGEN
100
AcDbCircle
 62
7
  6
CONTINUOUS
 10
121.1549135575
 20
158.390024365
 40
4.0
100
AcDbArc
 50
348.59
 51
31.0
  0
ARC
  5
5E3
100
AcDbEntity
  8
RUNDUNGEN
100
AcDbCircle
 62
7
  6
CONTINUOUS
 10
217.6058419681
 20
125.8237686886
 40
15.0
100
AcDbArc
 50
179.9998973594
 51
186.5000910059
  0
ARC
  5
5E4
100
AcDbEntity
  8
RUNDUNGEN
100
AcDbCircle
 62
7
  6
CONTINUOUS
 10
188.8558419681
 20
113.1491360387
 40
15.0
100
AcDbArc
 50
359.9999809609
 51
6.5000222028
  0
ARC
  5
5E5
100
AcDbEntity
  8
RUNDUNGEN
100
AcDbCircle
 62
7
  6
CONTINUOUS
 10
177.1058419681
 20
125.8237686886
 40
15.0
100
AcDbArc
 50
353.4999528179
 51
0.0001280697
  0
ARC
  5
5E6
100
AcDbEntity
  8
RUNDUNGEN
100
AcDbCircle
 62
7
  6
CONTINUOUS
 10
205.8558419681
 20
113.1491360387
 40
15.0
100
AcDbArc
 50
173.4999777928
 51
180.000019034
  0
ARC
  5
5E7
100
AcDbEntity
  8
BEZUGSACHSEN
100
AcDbCircle
 62
7
  6
CONTINUOUS
 10
199.4780437145
 20
110.9244586839
 40
13.8103654002
100
AcDbArc
 50
71.5187888275
 51
74.3896164795
  0
ARC
  5
5E8
100
AcDbEntity
  8
0
100
AcDbCircle
 62
7
  6
CONTINUOUS
 10
206.1058419681
 20
125.1707513647
 40
3.0
100
AcDbArc
 50
180.0
 51
186.5
  0
ARC
  5
5E9
100
AcDbEntity
  8
RUNDUNGEN
100
AcDbCircle
 62
7
  6
CONTINUOUS
 10
201.8558419681
 20
96.5008977656
 40
2.0
100
AcDbArc
 50
270.0
 51
0.0012324438
  0
ARC
  5
5EA
100
AcDbEntity
  8
RUNDUNGEN
100
AcDbCircle
 62
7
  6
CONTINUOUS
 10
192.8558419681
 20
96.5008977656
 40
2.0
100
AcDbArc
 50
180.0
 51
270.0
  0
ARC
  5
5EB
100
AcDbEntity
  8
RUNDUNGEN
100
AcDbCircle
 62
7
  6
CONTINUOUS
 10
194.6058419681
 20
183.0008977656
 40
1.5
100
AcDbArc
 50
90.0
 51
180.0
  0
ARC
  5
5EC
100
AcDbEntity
  8
RUNDUNGEN
100
AcDbCircle
 62
7
  6
CONTINUOUS
 10
200.1058419681
 20
183.0008977656
 40
1.5
100
AcDbArc
 50
0.0
 51
90.0
  0
ARC
  5
5ED
100
AcDbEntity
  8
RUNDUNGEN
100
AcDbCircle
 62
7
  6
CONTINUOUS
 10
183.1058419681
 20
114.2531477656
 40
1.0
100
AcDbArc
 50
90.0
 51
180.0
  0
ARC
  5
5EE
100
AcDbEntity
  8
RUNDUNGEN
100
AcDbCircle
 62
7
  6
CONTINUOUS
 10
211.6058419681
 20
114.2531477656
 40
1.0
100
AcDbArc
 50
0.0
 51
90.0
  0
ARC
  5
5EF
100
AcDbEntity
  8
RUNDUNGEN
100
AcDbCircle
 62
7
  6
CONTINUOUS
 10
192.6058419681
 20
181.3448349934
 40
0.5
100
AcDbArc
 50
270.0
 51
360.0
  0
ARC
  5
5F0
100
AcDbEntity
  8
RUNDUNGEN
100
AcDbCircle
 62
7
  6
CONTINUOUS
 10
192.6058419681
 20
180.3448349934
 40
0.5
100
AcDbArc
 50
90.0
 51
180.0
  0
ARC
  5
5F1
100
AcDbEntity
  8
RUNDUNGEN
100
AcDbCircle
 62
7
  6
CONTINUOUS
 10
202.1058419681
 20
181.3448349934
 40
0.5
100
AcDbArc
 50
180.0
 51
270.0
  0
ARC
  5
5F2
100
AcDbEntity
  8
RUNDUNGEN
100
AcDbCircle
 62
7
  6
CONTINUOUS
 10
202.1058419681
 20
180.3448349934
 40
0.5
100
AcDbArc
 50
0.0
 51
90.0
  0
ARC
  5
5F3
100
AcDbEntity
  8
RUNDUNGEN
100
AcDbCircle
 62
7
  6
CONTINUOUS
 10
88.7819837816
 20
29.49296986
 40
4.845
100
AcDbArc
 50
180.0
 51
246.072900436
  0
ARC
  5
5F4
100
AcDbEntity
  8
RUNDUNGEN
100
AcDbCircle
 62
7
  6
CONTINUOUS
 10
82.1869822163
 20
32.693236383
 40
1.5000002819
100
AcDbArc
 50
270.000059791
 51
323.1301382287
  0
ARC
  5
5F5
100
AcDbEntity
  8
RUNDUNGEN
100
AcDbCircle
 62
7
  6
CONTINUOUS
 10
70.6869837816
 20
34.943236383
 40
1.5
100
AcDbArc
 50
180.0
 51
270.0
  0
ARC
  5
5F6
100
AcDbEntity
  8
RUNDUNGEN
100
AcDbCircle
 62
7
  6
CONTINUOUS
 10
81.6869837816
 20
32.693236383
 40
1.5
100
AcDbArc
 50
270.0
 51
319.9937286811
  0
ARC
  5
5F7
100
AcDbEntity
  8
RUNDUNGEN
100
AcDbCircle
 62
7
  6
CONTINUOUS
 10
71.1810896983
 20
32.193236383
 40
1.0
100
AcDbArc
 50
180.0
 51
270.0
  0
ARC
  5
5F8
100
AcDbEntity
  8
RUNDUNGEN
100
AcDbCircle
 62
7
  6
CONTINUOUS
 10
84.1869837816
 20
31.193236383
 40
1.0
100
AcDbArc
 50
133.7127699591
 51
143.1301023542
  0
ARC
  5
5F9
100
AcDbEntity
  8
RUNDUNGEN
100
AcDbCircle
 62
7
  6
CONTINUOUS
 10
72.6954014643
 20
32.943236383
 40
0.5
100
AcDbArc
 50
0.0
 51
90.0
  0
ARC
  5
5FA
100
AcDbEntity
  8
RUNDUNGEN
100
AcDbCircle
 62
7
  6
CONTINUOUS
 10
73.6954014643
 20
32.943236383
 40
0.5
100
AcDbArc
 50
180.0
 51
270.0
  0
ARC
  5
5FB
100
AcDbEntity
  8
RUNDUNGEN
100
AcDbCircle
 62
7
  6
CONTINUOUS
 10
80.0186881442
 20
31.693236383
 40
0.5
100
AcDbArc
 50
270.0
 51
291.9193530735
  0
ARC
  5
5FC
100
AcDbEntity
  8
RUNDUNGEN
100
AcDbCircle
 62
7
  6
CONTINUOUS
 10
88.9369837816
 20
45.7924869063
 40
5.0
100
AcDbArc
 50
113.700813931
 51
180.0
  0
ARC
  5
5FD
100
AcDbEntity
  8
0
100
AcDbCircle
 62
7
  6
CONTINUOUS
 10
90.2608559205
 20
47.0658490174
 40
2.702
100
AcDbArc
 50
90.0
 51
139.1412076665
  0
ARC
  5
5FE
100
AcDbEntity
  8
RUNDUNGEN
100
AcDbCircle
 62
7
  6
CONTINUOUS
 10
82.1869822163
 20
42.693236383
 40
1.5000002819
100
AcDbArc
 50
36.8698617713
 51
89.999940209
  0
ARC
  5
5FF
100
AcDbEntity
  8
RUNDUNGEN
100
AcDbCircle
 62
7
  6
CONTINUOUS
 10
70.6869837816
 20
40.443236383
 40
1.5
100
AcDbArc
 50
90.0
 51
180.0
  0
ARC
  5
600
100
AcDbEntity
  8
RUNDUNGEN
100
AcDbCircle
 62
7
  6
CONTINUOUS
 10
81.6869837816
 20
42.693236383
 40
1.5
100
AcDbArc
 50
40.0062713189
 51
90.0
  0
ARC
  5
601
100
AcDbEntity
  8
0
100
AcDbCircle
 62
7
  6
CONTINUOUS
 10
90.2608559205
 20
47.0658490174
 40
1.402
100
AcDbArc
 50
90.2974726987
 51
139.1412076665
  0
ARC
  5
602
100
AcDbEntity
  8
RUNDUNGEN
100
AcDbCircle
 62
7
  6
CONTINUOUS
 10
71.1810896983
 20
43.193236383
 40
1.0
100
AcDbArc
 50
90.0
 51
180.0
  0
ARC
  5
603
100
AcDbEntity
  8
RUNDUNGEN
100
AcDbCircle
 62
7
  6
CONTINUOUS
 10
84.1869837816
 20
44.193236383
 40
1.0
100
AcDbArc
 50
216.8698976458
 51
226.2872300409
  0
ARC
  5
604
100
AcDbEntity
  8
RUNDUNGEN
100
AcDbCircle
 62
7
  6
CONTINUOUS
 10
72.6954014643
 20
42.443236383
 40
0.5
100
AcDbArc
 50
270.0
 51
360.0
  0
ARC
  5
605
100
AcDbEntity
  8
RUNDUNGEN
100
AcDbCircle
 62
7
  6
CONTINUOUS
 10
73.6954014643
 20
42.443236383
 40
0.5
100
AcDbArc
 50
90.0
 51
180.0
  0
ARC
  5
606
100
AcDbEntity
  8
RUNDUNGEN
100
AcDbCircle
 62
7
  6
CONTINUOUS
 10
80.0186881442
 20
43.693236383
 40
0.5
100
AcDbArc
 50
28.373274675
 51
90.0
  0
ARC
  5
607
100
AcDbEntity
  8
RUNDUNGEN
100
AcDbCircle
 62
7
  6
CONTINUOUS
 10
99.1869837816
 20
22.443236383
 40
30.5
100
AcDbArc
 50
66.299186069
 51
113.700813931
  0
ARC
  5
608
100
AcDbEntity
  8
RUNDUNGEN
100
AcDbCircle
 62
7
  6
CONTINUOUS
 10
109.5919837816
 20
29.49296986
 40
4.845
100
AcDbArc
 50
293.927099564
 51
360.0
  0
ARC
  5
609
100
AcDbEntity
  8
RUNDUNGEN
100
AcDbCircle
 62
7
  6
CONTINUOUS
 10
116.1869855123
 20
32.693236383
 40
1.5000003137
100
AcDbArc
 50
216.8698579812
 51
269.9999338922
  0
ARC
  5
60A
100
AcDbEntity
  8
RUNDUNGEN
100
AcDbCircle
 62
7
  6
CONTINUOUS
 10
127.6869837816
 20
34.943236383
 40
1.5
100
AcDbArc
 50
270.0
 51
360.0
  0
ARC
  5
60B
100
AcDbEntity
  8
RUNDUNGEN
100
AcDbCircle
 62
7
  6
CONTINUOUS
 10
116.6869837816
 20
32.693236383
 40
1.5
100
AcDbArc
 50
220.0062713122
 51
270.0
  0
ARC
  5
60C
100
AcDbEntity
  8
RUNDUNGEN
100
AcDbCircle
 62
7
  6
CONTINUOUS
 10
127.192877865
 20
32.193236383
 40
1.0
100
AcDbArc
 50
270.0
 51
360.0
  0
ARC
  5
60D
100
AcDbEntity
  8
RUNDUNGEN
100
AcDbCircle
 62
7
  6
CONTINUOUS
 10
114.1869837816
 20
31.193236383
 40
1.0
100
AcDbArc
 50
36.8698976458
 51
46.2872304729
  0
ARC
  5
60E
100
AcDbEntity
  8
RUNDUNGEN
100
AcDbCircle
 62
7
  6
CONTINUOUS
 10
125.6549135575
 20
32.943236383
 40
0.5
100
AcDbArc
 50
90.0
 51
180.0
  0
ARC
  5
60F
100
AcDbEntity
  8
RUNDUNGEN
100
AcDbCircle
 62
7
  6
CONTINUOUS
 10
124.6549135575
 20
32.943236383
 40
0.5
100
AcDbArc
 50
270.0
 51
360.0
  0
ARC
  5
610
100
AcDbEntity
  8
RUNDUNGEN
100
AcDbCircle
 62
7
  6
CONTINUOUS
 10
118.3552794191
 20
31.693236383
 40
0.5
100
AcDbArc
 50
233.0374675982
 51
270.0
  0
ARC
  5
611
100
AcDbEntity
  8
0
100
AcDbCircle
 62
7
  6
CONTINUOUS
 10
99.1869837816
 20
37.693236383
 40
14.0
100
AcDbArc
 50
22.0267412094
 51
157.9732587906
  0
ARC
  5
612
100
AcDbEntity
  8
0
100
AcDbCircle
 62
7
  6
CONTINUOUS
 10
99.1869837816
 20
37.693236383
 40
14.0
100
AcDbArc
 50
202.0267412094
 51
337.9732587906
  0
ARC
  5
613
100
AcDbEntity
  8
BEZUGSACHSEN
100
AcDbCircle
 62
7
  6
CONTINUOUS
 10
99.1869837816
 20
37.693236383
 40
6.5
100
AcDbArc
 50
233.9286292635
 51
306.0713707365
  0
ARC
  5
614
100
AcDbEntity
  8
BEZUGSACHSEN
100
AcDbCircle
 62
7
  6
CONTINUOUS
 10
99.1869837816
 20
37.693236383
 40
6.5
100
AcDbArc
 50
53.9286292635
 51
126.0713707683
  0
ARC
  5
615
100
AcDbEntity
  8
RUNDUNGEN
100
AcDbCircle
 62
7
  6
CONTINUOUS
 10
99.1869837816
 20
52.943236383
 40
30.5
100
AcDbArc
 50
246.072900436
 51
293.927099564
  0
ARC
  5
616
100
AcDbEntity
  8
RUNDUNGEN
100
AcDbCircle
 62
7
  6
CONTINUOUS
 10
109.4369837816
 20
45.7924869063
 40
5.0
100
AcDbArc
 50
0.0
 51
66.299186069
  0
ARC
  5
617
100
AcDbEntity
  8
0
100
AcDbCircle
 62
7
  6
CONTINUOUS
 10
108.1131116428
 20
47.0658490174
 40
2.702
100
AcDbArc
 50
40.8587923335
 51
90.0
  0
ARC
  5
618
100
AcDbEntity
  8
0
100
AcDbCircle
 62
7
  6
CONTINUOUS
 10
108.1131116428
 20
47.0658490174
 40
1.402
100
AcDbArc
 50
40.8587923335
 51
89.7025273013
  0
ARC
  5
619
100
AcDbEntity
  8
RUNDUNGEN
100
AcDbCircle
 62
7
  6
CONTINUOUS
 10
116.1869855123
 20
42.693236383
 40
1.5000003137
100
AcDbArc
 50
90.0000661078
 51
143.1301420188
  0
ARC
  5
61A
100
AcDbEntity
  8
RUNDUNGEN
100
AcDbCircle
 62
7
  6
CONTINUOUS
 10
127.6869837816
 20
40.443236383
 40
1.5
100
AcDbArc
 50
0.0
 51
90.0
  0
ARC
  5
61B
100
AcDbEntity
  8
RUNDUNGEN
100
AcDbCircle
 62
7
  6
CONTINUOUS
 10
116.6869837816
 20
42.693236383
 40
1.5
100
AcDbArc
 50
90.0
 51
139.9937286811
  0
ARC
  5
61C
100
AcDbEntity
  8
RUNDUNGEN
100
AcDbCircle
 62
7
  6
CONTINUOUS
 10
127.192877865
 20
43.193236383
 40
1.0
100
AcDbArc
 50
0.0
 51
90.0
  0
ARC
  5
61D
100
AcDbEntity
  8
RUNDUNGEN
100
AcDbCircle
 62
7
  6
CONTINUOUS
 10
114.1869837816
 20
44.193236383
 40
1.0
100
AcDbArc
 50
313.7127695271
 51
323.1301023542
  0
ARC
  5
61E
100
AcDbEntity
  8
RUNDUNGEN
100
AcDbCircle
 62
7
  6
CONTINUOUS
 10
125.6549135575
 20
42.443236383
 40
0.5
100
AcDbArc
 50
180.0
 51
270.0
  0
ARC
  5
61F
100
AcDbEntity
  8
RUNDUNGEN
100
AcDbCircle
 62
7
  6
CONTINUOUS
 10
124.6549135575
 20
42.443236383
 40
0.5
100
AcDbArc
 50
0.0
 51
90.0
  0
ARC
  5
620
100
AcDbEntity
  8
RUNDUNGEN
100
AcDbCircle
 62
7
  6
CONTINUOUS
 10
118.3552794191
 20
43.693236383
 40
0.5
100
AcDbArc
 50
90.0
 51
151.626725325
  0
SPLINE
  5
621
100
AcDbEntity
  8
BEZUGSACHSEN
100
AcDbSpline
 62
7
  6
CONTINUOUS
 70
0
 71
3
 72
11
 73
7
 74
0
 42
0.0000001
 43
0.0000001
 44
0.0000000001
 40
0.0
 40
0.0
 40
0.0
 40
0.0
 40
0.2616223753
 40
0.5144735034
 40
0.7595874882
 40
1.0
 40
1.0
 40
1.0
 40
1.0
 10
91.6814302822
 20
124.022591182
 30
0.0
 10
91.8314138358
 20
124.1091842271
 30
0.0
 10
92.1331482268
 20
124.2682374425
 30
0.0
 10
92.6010573819
 20
124.4555246628
 30
0.0
 10
93.0766771914
 20
124.5753482095
 30
0.0
 10
93.3986728543
 20
124.6031477656
 30
0.0
 10
93.5578186571
 20
124.6031477656
 30
0.0
  0
SPLINE
  5
622
100
AcDbEntity
  8
BEZUGSACHSEN
100
AcDbSpline
 62
7
  6
CONTINUOUS
 70
0
 71
3
 72
11
 73
7
 74
0
 42
0.0000001
 43
0.0000001
 44
0.0000000001
 40
0.0
 40
0.0
 40
0.0
 40
0.0
 40
0.2404125418
 40
0.4855265075
 40
0.7383775997
 40
1.0
 40
1.0
 40
1.0
 40
1.0
 10
93.5578186571
 20
124.6031477656
 30
0.0
 10
93.7169644795
 20
124.6031477656
 30
0.0
 10
94.0389601299
 20
124.5753480774
 30
0.0
 10
94.5145799823
 20
124.4555247814
 30
0.0
 10
94.9824890558
 20
124.2682373862
 30
0.0
 10
95.2842234642
 20
124.1091842352
 30
0.0
 10
95.4342070319
 20
124.022591182
 30
0.0
  0
SPLINE
  5
623
100
AcDbEntity
  8
BEZUGSACHSEN
100
AcDbSpline
 62
7
  6
CONTINUOUS
 70
0
 71
3
 72
10
 73
6
 74
0
 42
0.0000001
 43
0.0000001
 44
0.0000000001
 40
0.0
 40
0.0
 40
0.0
 40
0.0
 40
0.4998769648
 40
0.7499453308
 40
1.0
 40
1.0
 40
1.0
 40
1.0
 10
95.4342070319
 20
124.022591182
 30
0.0
 10
96.0439195032
 20
124.1986000117
 30
0.0
 10
96.9734816013
 20
124.4186506353
 30
0.0
 10
98.2342769378
 20
124.5759983994
 30
0.0
 10
98.8695318488
 20
124.6031477656
 30
0.0
 10
99.1869837816
 20
124.6031477656
 30
0.0
  0
SPLINE
  5
624
100
AcDbEntity
  8
BEZUGSACHSEN
100
AcDbSpline
 62
7
  6
CONTINUOUS
 70
0
 71
3
 72
10
 73
6
 74
0
 42
0.0000001
 43
0.0000001
 44
0.0000000001
 40
0.0
 40
0.0
 40
0.0
 40
0.0
 40
0.2500561649
 40
0.5001262613
 40
1.0
 40
1.0
 40
1.0
 40
1.0
 10
99.1869837816
 20
124.6031477656
 30
0.0
 10
99.5044376056
 20
124.6031477656
 30
0.0
 10
100.1396960951
 20
124.5759903777
 30
0.0
 10
101.4004930591
 20
124.418657338
 30
0.0
 10
102.3300520099
 20
124.1985988715
 30
0.0
 10
102.9397605314
 20
124.022591182
 30
0.0
  0
SPLINE
  5
625
100
AcDbEntity
  8
BEZUGSACHSEN
100
AcDbSpline
 62
7
  6
CONTINUOUS
 70
0
 71
3
 72
11
 73
7
 74
0
 42
0.0000001
 43
0.0000001
 44
0.0000000001
 40
0.0
 40
0.0
 40
0.0
 40
0.0
 40
0.2616223753
 40
0.5144735034
 40
0.7595874882
 40
1.0
 40
1.0
 40
1.0
 40
1.0
 10
102.9397605314
 20
124.022591182
 30
0.0
 10
103.089744085
 20
124.1091842271
 30
0.0
 10
103.391478476
 20
124.2682374425
 30
0.0
 10
103.8593876311
 20
124.4555246628
 30
0.0
 10
104.3350074406
 20
124.5753482095
 30
0.0
 10
104.6570031035
 20
124.6031477656
 30
0.0
 10
104.8161489063
 20
124.6031477656
 30
0.0
  0
SPLINE
  5
626
100
AcDbEntity
  8
BEZUGSACHSEN
100
AcDbSpline
 62
7
  6
CONTINUOUS
 70
0
 71
3
 72
9
 73
5
 74
0
 42
0.0000001
 43
0.0000001
 44
0.0000000001
 40
0.0
 40
0.0
 40
0.0
 40
0.0
 40
0.2479242635
 40
1.0
 40
1.0
 40
1.0
 40
1.0
 10
104.8161489063
 20
124.6031477656
 30
0.0
 10
104.8844296708
 20
124.6031477656
 30
0.0
 10
105.1598101029
 20
124.5930476366
 30
0.0
 10
105.4332017095
 20
124.5426532709
 30
0.0
 10
105.6325842062
 20
124.4865369181
 30
0.0
  0
SPLINE
  5
627
100
AcDbEntity
  8
BEZUGSACHSEN
100
AcDbSpline
 62
7
  6
CONTINUOUS
 70
0
 71
3
 72
9
 73
5
 74
0
 42
0.0000001
 43
0.0000001
 44
0.0000000001
 40
0.0
 40
0.0
 40
0.0
 40
0.0
 40
0.2442842299
 40
1.0
 40
1.0
 40
1.0
 40
1.0
 10
105.838548087
 20
124.4218140277
 30
0.0
 10
105.9111458924
 20
124.3966608493
 30
0.0
 10
106.2052565167
 20
124.2847925104
 30
0.0
 10
106.4866949799
 20
124.1414342901
 30
0.0
 10
106.6925372811
 20
124.022591182
 30
0.0
  0
SPLINE
  5
628
100
AcDbEntity
  8
0
100
AcDbSpline
 62
7
  6
CONTINUOUS
 70
0
 71
3
 72
9
 73
5
 74
0
 42
0.0000001
 43
0.0000001
 44
0.0000000001
 40
0.0
 40
0.0
 40
0.0
 40
0.0
 40
0.2406107235
 40
1.0
 40
1.0
 40
1.0
 40
1.0
 10
91.5924159052
 20
114.7917379378
 30
0.0
 10
91.5808333459
 20
114.7736182377
 30
0.0
 10
91.5345711772
 20
114.6971468523
 30
0.0
 10
91.4961630314
 20
114.6157707493
 30
0.0
 10
91.4730808884
 20
114.5519434204
 30
0.0
  0
SPLINE
  5
629
100
AcDbEntity
  8
0
100
AcDbSpline
 62
7
  6
CONTINUOUS
 70
0
 71
3
 72
9
 73
5
 74
0
 42
0.0000001
 43
0.0000001
 44
0.0000000001
 40
0.0
 40
0.0
 40
0.0
 40
0.0
 40
0.2598899986
 40
1.0
 40
1.0
 40
1.0
 40
1.0
 10
106.8956998237
 20
114.5659777228
 30
0.0
 10
106.8879537498
 20
114.5865033778
 30
0.0
 10
106.8557480104
 20
114.6645664112
 30
0.0
 10
106.8152008738
 20
114.7390972665
 30
0.0
 10
106.7815516581
 20
114.7917379378
 30
0.0
  0
SPLINE
  5
62A
100
AcDbEntity
  8
0
100
AcDbSpline
 62
7
  6
CONTINUOUS
 70
0
 71
3
 72
9
 73
5
 74
0
 42
0.0000001
 43
0.0000001
 44
0.0000000001
 40
0.0
 40
0.0
 40
0.0
 40
0.0
 40
0.4421377945
 40
1.0
 40
1.0
 40
1.0
 40
1.0
 10
107.2024389371
 20
114.1586737735
 30
0.0
 10
107.151892173
 20
114.1763315607
 30
0.0
 10
107.0456227371
 20
114.2420920203
 30
0.0
 10
106.9762064388
 20
114.3463897501
 30
0.0
 10
106.9494159372
 20
114.40840688
 30
0.0
  0
SPLINE
  5
62B
100
AcDbEntity
  8
0
100
AcDbSpline
 62
7
  6
CONTINUOUS
 70
0
 71
3
 72
12
 73
8
 74
0
 42
0.0000001
 43
0.0000001
 44
0.0000000001
 40
0.0
 40
0.0
 40
0.0
 40
0.0
 40
0.1866768935
 40
0.2931309019
 40
0.4106149162
 40
0.6804280198
 40
1.0
 40
1.0
 40
1.0
 40
1.0
 10
108.4003199872
 20
114.1418621307
 30
0.0
 10
108.3372926537
 20
114.0989919342
 30
0.0
 10
108.2184779021
 20
114.0625830599
 30
0.0
 10
108.0523983274
 20
114.0437878477
 30
0.0
 10
107.8503940512
 20
114.0389536404
 30
0.0
 10
107.5622240885
 20
114.062881783
 30
0.0
 10
107.3256285444
 20
114.1156392508
 30
0.0
 10
107.2024389371
 20
114.1586737735
 30
0.0
  0
SPLINE
  5
62C
100
AcDbEntity
  8
0
100
AcDbSpline
 62
7
  6
CONTINUOUS
 70
0
 71
3
 72
11
 73
7
 74
0
 42
0.0000001
 43
0.0000001
 44
0.0000000001
 40
0.0
 40
0.0
 40
0.0
 40
0.0
 40
0.2461635705
 40
0.469550331
 40
0.7094012771
 40
1.0
 40
1.0
 40
1.0
 40
1.0
 10
108.5524717293
 20
114.1365172366
 30
0.0
 10
108.5428896606
 20
114.1466010828
 30
0.0
 10
108.5225407513
 20
114.1644101589
 30
0.0
 10
108.4826168964
 20
114.1765329501
 30
0.0
 10
108.4397155236
 20
114.166694023
 30
0.0
 10
108.4138981217
 20
114.1510977633
 30
0.0
 10
108.4003199872
 20
114.1418621307
 30
0.0
  0
SPLINE
  5
62D
100
AcDbEntity
  8
0
100
AcDbSpline
 62
7
  6
CONTINUOUS
 70
0
 71
3
 72
9
 73
5
 74
0
 42
0.0000001
 43
0.0000001
 44
0.0000000001
 40
0.0
 40
0.0
 40
0.0
 40
0.0
 40
0.2570609114
 40
1.0
 40
1.0
 40
1.0
 40
1.0
 10
91.4426748096
 20
114.4560742282
 30
0.0
 10
91.4406296704
 20
114.4498828414
 30
0.0
 10
91.4322754974
 20
114.4259313748
 30
0.0
 10
91.4223455257
 20
114.4025262686
 30
0.0
 10
91.4140860773
 20
114.3855878549
 30
0.0
  0
SPLINE
  5
62E
100
AcDbEntity
  8
0
100
AcDbSpline
 62
7
  6
CONTINUOUS
 70
0
 71
3
 72
9
 73
5
 74
0
 42
0.0000001
 43
0.0000001
 44
0.0000000001
 40
0.0
 40
0.0
 40
0.0
 40
0.0
 40
0.5538390592
 40
1.0
 40
1.0
 40
1.0
 40
1.0
 10
91.4140860773
 20
114.3855878549
 30
0.0
 10
91.3866864366
 20
114.3293968802
 30
0.0
 10
91.3185813573
 20
114.2350721738
 30
0.0
 10
91.21907213
 20
114.1752824148
 30
0.0
 10
91.1715286262
 20
114.1586737735
 30
0.0
  0
SPLINE
  5
62F
100
AcDbEntity
  8
0
100
AcDbSpline
 62
7
  6
CONTINUOUS
 70
0
 71
3
 72
13
 73
9
 74
0
 42
0.0000001
 43
0.0000001
 44
0.0000000001
 40
0.0
 40
0.0
 40
0.0
 40
0.0
 40
0.3192642376
 40
0.5887577142
 40
0.7060952258
 40
0.81245584
 40
0.9091498862
 40
1.0
 40
1.0
 40
1.0
 40
1.0
 10
91.1715286262
 20
114.1586737735
 30
0.0
 10
91.0483293609
 20
114.1156358769
 30
0.0
 10
90.8117750344
 20
114.0628665159
 30
0.0
 10
90.5234880032
 20
114.0390525072
 30
0.0
 10
90.3217316502
 20
114.0436369117
 30
0.0
 10
90.1914206512
 20
114.0587348199
 30
0.0
 10
90.0742065146
 20
114.0870624009
 30
0.0
 10
90.0043530858
 20
114.1209767281
 30
0.0
 10
89.9736475761
 20
114.1418621307
 30
0.0
  0
SPLINE
  5
630
100
AcDbEntity
  8
0
100
AcDbSpline
 62
7
  6
CONTINUOUS
 70
0
 71
3
 72
11
 73
7
 74
0
 42
0.0000001
 43
0.0000001
 44
0.0000000001
 40
0.0
 40
0.0
 40
0.0
 40
0.0
 40
0.2905987295
 40
0.5304497002
 40
0.7538364479
 40
1.0
 40
1.0
 40
1.0
 40
1.0
 10
89.9736475761
 20
114.1418621307
 30
0.0
 10
89.9600694412
 20
114.1510977636
 30
0.0
 10
89.9342520108
 20
114.166693967
 30
0.0
 10
89.8913506596
 20
114.1765329685
 30
0.0
 10
89.8514267895
 20
114.1644101788
 30
0.0
 10
89.831077902
 20
114.1466010821
 30
0.0
 10
89.821495834
 20
114.1365172366
 30
0.0
  0
SPLINE
  5
631
100
AcDbEntity
  8
RUNDUNGEN
100
AcDbSpline
 62
7
  6
CONTINUOUS
 70
0
 71
3
 72
9
 73
5
 74
0
 42
0.0000001
 43
0.0000001
 44
0.0000000001
 40
0.0
 40
0.0
 40
0.0
 40
0.0
 40
0.4995507696
 40
1.0
 40
1.0
 40
1.0
 40
1.0
 10
122.4492217043
 20
126.0742051061
 30
0.0
 10
122.3574933399
 20
126.298308579
 30
0.0
 10
122.1701594726
 20
126.7453927715
 30
0.0
 10
121.981256877
 20
127.1918017517
 30
0.0
 10
121.8867827454
 20
127.415234532
 30
0.0
  0
SPLINE
  5
632
100
AcDbEntity
  8
RUNDUNGEN
100
AcDbSpline
 62
7
  6
CONTINUOUS
 70
0
 71
3
 72
9
 73
5
 74
0
 42
0.0000001
 43
0.0000001
 44
0.0000000001
 40
0.0
 40
0.0
 40
0.0
 40
0.0
 40
0.5073346886
 40
1.0
 40
1.0
 40
1.0
 40
1.0
 10
122.7690010955
 20
125.2491799585
 30
0.0
 10
122.7672877043
 20
125.2534430641
 30
0.0
 10
122.764198706
 20
125.2619633347
 30
0.0
 10
122.7603452551
 20
125.2701689271
 30
0.0
 10
122.7586710992
 20
125.2743046094
 30
0.0
  0
SPLINE
  5
633
100
AcDbEntity
  8
RUNDUNGEN
100
AcDbSpline
 62
7
  6
CONTINUOUS
 70
0
 71
3
 72
9
 73
5
 74
0
 42
0.0000001
 43
0.0000001
 44
0.0000000001
 40
0.0
 40
0.0
 40
0.0
 40
0.0
 40
0.247325961
 40
1.0
 40
1.0
 40
1.0
 40
1.0
 10
122.7547788119
 20
125.3041827219
 30
0.0
 10
122.7556343084
 20
125.2995792466
 30
0.0
 10
122.7596381881
 20
125.2810681384
 30
0.0
 10
122.7648615974
 20
125.2628515235
 30
0.0
 10
122.7689897995
 20
125.249213248
 30
0.0
  0
SPLINE
  5
634
100
AcDbEntity
  8
RUNDUNGEN
100
AcDbSpline
 62
7
  6
CONTINUOUS
 70
0
 71
3
 72
18
 73
14
 74
0
 42
0.0000001
 43
0.0000001
 44
0.0000000001
 40
0.0
 40
0.0
 40
0.0
 40
0.0
 40
0.003184889
 40
0.0121571549
 40
0.0271209053
 40
0.0481978937
 40
0.1089200779
 40
0.1953782662
 40
0.3141533839
 40
0.4827460537
 40
0.7025890881
 40
0.8320123662
 40
1.0
 40
1.0
 40
1.0
 40
1.0
 10
122.7799947569
 20
125.4077247489
 30
0.0
 10
122.7800220808
 20
125.4076127304
 30
0.0
 10
122.7796242012
 20
125.4072479902
 30
0.0
 10
122.7792606251
 20
125.4064056897
 30
0.0
 10
122.7783168039
 20
125.4050240937
 30
0.0
 10
122.7765650726
 20
125.4020190014
 30
0.0
 10
122.773468518
 20
125.3967512633
 30
0.0
 10
122.7688457613
 20
125.3883149977
 30
0.0
 10
122.7632075167
 20
125.3759654999
 30
0.0
 10
122.7585365176
 20
125.3581234342
 30
0.0
 10
122.7555276096
 20
125.3396393039
 30
0.0
 10
122.7529543268
 20
125.3210314132
 30
0.0
 10
122.7539757028
 20
125.3102149516
 30
0.0
 10
122.7548046892
 20
125.3041900496
 30
0.0
  0
SPLINE
  5
635
100
AcDbEntity
  8
BEZUGSACHSEN
100
AcDbSpline
 62
7
  6
CONTINUOUS
 70
0
 71
3
 72
9
 73
5
 74
0
 42
0.0000001
 43
0.0000001
 44
0.0000000001
 40
0.0
 40
0.0
 40
0.0
 40
0.0
 40
0.2506033461
 40
1.0
 40
1.0
 40
1.0
 40
1.0
 10
190.8558419681
 20
124.022591182
 30
0.0
 10
190.9528743422
 20
124.0549353067
 30
0.0
 10
191.3413392884
 20
124.180106364
 30
0.0
 10
191.7354177082
 20
124.2882813112
 30
0.0
 10
192.0334771678
 20
124.3569097703
 30
0.0
  0
SPLINE
  5
636
100
AcDbEntity
  8
0
100
AcDbSpline
 62
7
  6
CONTINUOUS
 70
0
 71
3
 72
9
 73
5
 74
0
 42
0.0000001
 43
0.0000001
 44
0.0000000001
 40
0.0
 40
0.0
 40
0.0
 40
0.0
 40
0.2446997216
 40
1.0
 40
1.0
 40
1.0
 40
1.0
 10
204.0386928568
 20
115.2531477656
 30
0.0
 10
204.0122481701
 20
115.2531477656
 30
0.0
 10
203.9041929965
 20
115.2489535941
 30
0.0
 10
203.7969718703
 20
115.2287481598
 30
0.0
 10
203.7184988467
 20
115.2062833388
 30
0.0
  0
LINE
  5
637
100
AcDbEntity
  8
RUNDUNGEN
100
AcDbLine
 62
7
  6
CONTINUOUS
 10
88.1566372514
 20
49.8932363443
 11
88.1878108999
 21
49.893236383
  0
LINE
  5
638
100
AcDbEntity
  8
RUNDUNGEN
100
AcDbLine
 62
7
  6
CONTINUOUS
 10
110.2173386707
 20
49.893236383
 11
110.186217628
 21
49.8932230839
  0
ELLIPSE
  5
639
100
AcDbEntity
  8
0
100
AcDbEllipse
 62
7
  6
CONTINUOUS
 10
116.6718417358
 20
28.943236383
 30
0.0
 11
0.0
 21
3.0
 31
0.0
 40
0.6966847206
 41
0.0547468872
 42
0.1134464014
  0
ELLIPSE
  5
63A
100
AcDbEntity
  8
0
100
AcDbEllipse
 62
7
  6
CONTINUOUS
 10
82.1011575212
 20
28.943236383
 30
0.0
 11
0.0
 21
3.0
 31
0.0
 40
0.213998805
 41
-0.1134464014
 42
-0.0295048393
  0
ELLIPSE
  5
63B
100
AcDbEntity
  8
0
100
AcDbEllipse
 62
7
  6
CONTINUOUS
 10
79.1245596746
 20
28.943236383
 30
0.0
 11
-0.0
 21
3.0
 31
0.0
 40
0.1378238777
 41
0.0881444686
 42
0.1134464014
  0
ELLIPSE
  5
63C
100
AcDbEntity
  8
0
100
AcDbEllipse
 62
7
  6
CONTINUOUS
 10
79.1957739305
 20
28.943236383
 30
0.0
 11
0.0
 21
3.0
 31
0.0
 40
0.4074817726
 41
0.0587728415
 42
0.0881444686
  0
ELLIPSE
  5
63D
100
AcDbEntity
  8
0
100
AcDbEllipse
 62
7
  6
CONTINUOUS
 10
119.4399710934
 20
17.443236383
 30
0.0
 11
0.0
 21
15.0
 31
0.0
 40
0.4040262258
 41
-0.1134464014
 42
-0.0987222282
  0
ELLIPSE
  5
63E
100
AcDbEntity
  8
0
100
AcDbEllipse
 62
7
  6
CONTINUOUS
 10
123.6965359633
 20
17.443236383
 30
0.0
 11
37.1263028012
 21
0.0
 31
0.0
 40
0.4040262258
 41
1.669518555
 42
1.6842427282
  0
ELLIPSE
  5
63F
100
AcDbEntity
  8
0
100
AcDbEllipse
 62
7
  6
CONTINUOUS
 10
116.0443977412
 20
28.943236383
 30
0.0
 11
0.0
 21
3.0
 31
0.0
 40
0.4369540573
 41
0.0048349201
 42
0.1134464014
  0
ELLIPSE
  5
640
100
AcDbEntity
  8
0
100
AcDbEllipse
 62
7
  6
CONTINUOUS
 10
78.6443694177
 20
28.943236383
 30
0.0
 11
0.0
 21
3.0
 31
0.0
 40
0.4074817726
 41
-0.0
 42
0.0238018289
  0
ELLIPSE
  5
641
100
AcDbEntity
  8
0
100
AcDbEllipse
 62
7
  6
CONTINUOUS
 10
78.6286709683
 20
28.943236383
 30
0.0
 11
0.0
 21
3.0
 31
0.0
 40
0.1876116683
 41
0.0238018289
 42
0.1134464014
  0
ELLIPSE
  5
642
100
AcDbEntity
  8
0
100
AcDbEllipse
 62
7
  6
CONTINUOUS
 10
82.640995992
 20
28.943236383
 30
0.0
 11
0.0
 21
3.0
 31
0.0
 40
0.085388927
 41
-0.1134464014
 42
-0.0317966589
  0
ELLIPSE
  5
643
100
AcDbEntity
  8
0
100
AcDbEllipse
 62
7
  6
CONTINUOUS
 10
78.9104620744
 20
17.443236383
 30
0.0
 11
0.0
 21
15.0
 31
0.0
 40
0.4074817726
 41
6.2851762983
 42
6.3314985047
  0
ELLIPSE
  5
644
100
AcDbEntity
  8
0
100
AcDbEllipse
 62
7
  6
CONTINUOUS
 10
78.7511846379
 20
17.443236383
 30
0.0
 11
0.0
 21
15.0
 31
0.0
 40
0.1876116683
 41
6.3314985047
 42
6.3594186944
  0
ENDSEC
  0
SECTION
  2
OBJECTS
  0
DICTIONARY
  5
C
100
AcDbDictionary
280
0
281
1
  3
ACAD_GROUP
350
D
  3
ACAD_MLINESTYLE
350
17
  3
ACAD_LAYOUT
350
1A
  3
ACAD_PLOTSETTINGS
350
19
  3
ACAD_PLOTSTYLENAME
350
E
  0
DICTIONARY
  5
D
102
{ACAD_REACTORS
330
C
102
}
100
AcDbDictionary
280
0
281
1
  0
ACDBDICTIONARYWDFLT
  5
E
102
{ACAD_REACTORS
330
C
102
}
100
AcDbDictionary
281
1
  3
Normal
350
F
100
AcDbDictionaryWithDefault
340
F
  0
DICTIONARY
  5
17
102
{ACAD_REACTORS
330
C
102
}
100
AcDbDictionary
280
0
281
1
  3
Standard
350
18
  0
DICTIONARY
  5
19
102
{ACAD_REACTORS
330
C
102
}
100
AcDbDictionary
281
1
  0
DICTIONARY
  5
1A
102
{ACAD_REACTORS
330
C
102
}
100
AcDbDictionary
281
1
  3
Model
350
645
  3
Layout1
350
646
  0
ACDBPLACEHOLDER
  5
F
102
{ACAD_REACTORS
330
E
102
}
  0
MLINESTYLE
  5
18
102
{ACAD_REACTORS
330
17
102
}
100
AcDbMlineStyle
  2
STANDARD
 70
0
  3

 62
256
 51
90.0
 52
90.0
 71
2
 49
0.5
 62
256
  6
BYLAYER
 49
-0.5
 62
256
  6
BYLAYER
  0
LAYOUT
  5
645
102
{ACAD_REACTORS
330
1A
102
}
100
AcDbPlotSettings
  1

  2
none_device
  4
ISO_A4_(297.00_x_210.00_MM)
  6

 40
0.0
 41
0.0
 42
0.0
 43
0.0
 44
297.0
 45
210.0
 46
0.0
 47
0.0
 48
0.0
 49
0.0
140
0.0
141
0.0
142
1.0
143
1.0
 70
1024
 72
1
 73
0
 74
0
  7

 75
0
147
1.0
148
0.0
149
0.0
100
AcDbLayout
  1
Model
 70
0
 71
0
 10
0.0
 20
0.0
 11
297.0
 21
210.0
 12
0.0
 22
0.0
 32
0.0
 14
0.0
 24
0.0
 34
0.0
 15
0.0
 25
0.0
 35
0.0
146
0.0
 13
0.0
 23
0.0
 33
0.0
 16
1.0
 26
0.0
 36
0.0
 17
0.0
 27
1.0
 37
0.0
 76
0
330
210
345
0
346
0
  0
LAYOUT
  5
646
102
{ACAD_REACTORS
330
1A
102
}
100
AcDbPlotSettings
  1

  2
none_device
  4
ISO_A4_(297.00_x_210.00_MM)
  6

 40
0.0
 41
0.0
 42
0.0
 43
0.0
 44
297.0
 45
210.0
 46
0.0
 47
0.0
 48
0.0
 49
0.0
140
0.0
141
0.0
142
1.0
143
1.0
 70
0
 72
1
 73
0
 74
0
  7

 75
0
147
1.0
148
0.0
149
0.0
100
AcDbLayout
  1
Layout1
 70
0
 71
1
 10
0.0
 20
0.0
 11
297.0
 21
210.0
 12
0.0
 22
0.0
 32
0.0
 14
0.0
 24
0.0
 34
0.0
 15
0.0
 25
0.0
 35
0.0
146
0.0
 13
0.0
 23
0.0
 33
0.0
 16
1.0
 26
0.0
 36
0.0
 17
0.0
 27
1.0
 37
0.0
 76
0
330
211
345
0
346
0
  0
ENDSEC
  0
EOF
