999
DXF file: IMAGH-13_7906216_M35194-P-10.dxf
999
Pro/ENGINEER 2010140 by Parametric Technology Corporation
  0
SECTION
  2
HEADER
  9
$ACADVER
  1
AC1015
  9
$DWGCODEPAGE
  3
ANSI_1252
  9
$EXTMAX
 10
420.0
 20
297.0
 30
0.0
  9
$EXTMIN
 10
0.0
 20
-0.0
 30
0.0
  9
$LIMMIN
 10
0.0
 20
-0.0
  9
$LIMMAX
 10
420.0
 20
297.0
  9
$VIEWCTR
 10
210.0
 20
148.5
  9
$VIEWSIZE
 40
297.0
  9
$CLAYER
  8
0
  9
$LTSCALE
 40
23.1
  9
$CELTYPE
  6
BYLAYER
  9
$DIMSCALE
 40
1.0
  9
$DIMASZ
 40
3.5
  9
$DIMEXO
 40
2.625
  9
$DIMDLI
 40
15.96
  9
$DIMEXE
 40
7.56
  9
$DIMCEN
 40
3.78
  9
$DIMLFAC
 40
1.0
  9
$DIMBLK
  1
_FILLED
  9
$DIMTXT
 40
3.5
  9
$DIMTOL
 70
1
  9
$DIMLIM
 70
0
  9
$DIMTFAC
 40
1.0
  9
$DIMTP
 40
0.005
  9
$DIMTM
 40
0.005
  9
$PDMODE
 70
3
  9
$PDSIZE
 40
0.3125
  9
$HANDSEED
  5
45F
  9
$TILEMODE
 70
1
  9
$MEASUREMENT
 70
1
  9
$INSUNITS
 70
4
  0
ENDSEC
  0
SECTION
  2
CLASSES
  0
CLASS
  1
ACDBDICTIONARYWDFLT
  2
AcDbDictionaryWithDefault
  3
AutoCAD 2000
 90
0
280
0
281
0
  0
CLASS
  1
ACDBPLACEHOLDER
  2
AcDbPlaceHolder
  3
AutoCAD 2000
 90
0
280
0
281
0
  0
CLASS
  1
LAYOUT
  2
AcDbLayout
  3
AutoCAD 2000
 90
0
280
0
281
0
  0
ENDSEC
  0
SECTION
  2
TABLES
  0
TABLE
  2
VPORT
  5
8
100
AcDbSymbolTable
 70
2
  0
VPORT
  5
1F4
100
AcDbSymbolTableRecord
100
AcDbViewportTableRecord
  2
*ACTIVE
 70
0
 10
0.0
 20
0.0
 11
1.0
 21
1.0
 12
210.0
 22
148.5
 13
0.0
 23
0.0
 14
1.0
 24
1.0
 15
0.0
 25
0.0
 16
0.0
 26
0.0
 36
1.0
 17
0.0
 27
0.0
 37
0.0
 40
297.0
 41
1.4141414141
 42
50.0
 43
0.0
 44
0.0
 50
0.0
 51
0.0
 71
0
 72
100
 73
1
 74
1
 75
0
 76
0
 77
0
 78
0
  0
ENDTAB
  0
TABLE
  2
LTYPE
  5
5
100
AcDbSymbolTable
 70
6
  0
LTYPE
  5
14
100
AcDbSymbolTableRecord
100
AcDbLinetypeTableRecord
  2
BYBLOCK
 70
0
  3

 72
65
 73
0
 40
0.0
  0
LTYPE
  5
15
100
AcDbSymbolTableRecord
100
AcDbLinetypeTableRecord
  2
BYLAYER
 70
0
  3

 72
65
 73
0
 40
0.0
  0
LTYPE
  5
16
100
AcDbSymbolTableRecord
100
AcDbLinetypeTableRecord
  2
CONTINUOUS
 70
64
  3
Solid line
 72
65
 73
0
 40
0.0
  0
LTYPE
  5
1F5
100
AcDbSymbolTableRecord
100
AcDbLinetypeTableRecord
  2
CENTER
 70
64
  3
____ _ ____ _ ____ _ ____ _ ____ _ ____ _ ____
 72
65
 73
4
 40
0.6
 49
0.375
 74
0
 49
-0.075
 74
0
 49
0.075
 74
0
 49
-0.075
 74
0
  0
LTYPE
  5
1F6
100
AcDbSymbolTableRecord
100
AcDbLinetypeTableRecord
  2
HIDDEN
 70
64
  3
- - - - - - - - - - - - - - - - - - - -
 72
65
 73
2
 40
0.2
 49
0.1
 74
0
 49
-0.1
 74
0
  0
LTYPE
  5
1F7
100
AcDbSymbolTableRecord
100
AcDbLinetypeTableRecord
  2
PHANTOM
 70
64
  3
_____ _ _ _____ _ _ _____ _ _ _____
 72
65
 73
6
 40
0.8
 49
0.45
 74
0
 49
-0.05
 74
0
 49
0.1
 74
0
 49
-0.05
 74
0
 49
0.1
 74
0
 49
-0.05
 74
0
  0
LTYPE
  5
1F8
100
AcDbSymbolTableRecord
100
AcDbLinetypeTableRecord
  2
DOT
 70
64
  3
. . . . . . . . . . . . . . . . . . . .
 72
65
 73
2
 40
0.2
 49
0.1
 74
0
 49
-0.1
 74
0
  0
LTYPE
  5
1F9
100
AcDbSymbolTableRecord
100
AcDbLinetypeTableRecord
  2
DASHED
 70
64
  3
- - - - - - - - - - - - - - - - - - - -
 72
65
 73
2
 40
0.2
 49
0.1
 74
0
 49
-0.1
 74
0
  0
ENDTAB
  0
TABLE
  2
LAYER
  5
2
100
AcDbSymbolTable
 70
36
  0
LAYER
  5
10
100
AcDbSymbolTableRecord
100
AcDbLayerTableRecord
  2
0
 70
0
 62
7
  6
CONTINUOUS
370
-3
390
F
  0
LAYER
  5
1FA
100
AcDbSymbolTableRecord
100
AcDbLayerTableRecord
  2
DEFAULT_1
 70
0
 62
7
  6
CENTER
370
-3
390
F
  0
LAYER
  5
1FB
100
AcDbSymbolTableRecord
100
AcDbLayerTableRecord
  2
DEFAULT_2
 70
0
 62
8
  6
HIDDEN
370
-3
390
F
  0
LAYER
  5
1FC
100
AcDbSymbolTableRecord
100
AcDbLayerTableRecord
  2
DEFAULT_3
 70
0
 62
7
  6
PHANTOM
370
-3
390
F
  0
LAYER
  5
1FD
100
AcDbSymbolTableRecord
100
AcDbLayerTableRecord
  2
AUSFORMSCHRAEGEN
 70
0
 62
7
  6
CONTINUOUS
370
-3
390
F
  0
LAYER
  5
1FE
100
AcDbSymbolTableRecord
100
AcDbLayerTableRecord
  2
BEZUGSACHSEN
 70
0
 62
7
  6
CONTINUOUS
370
-3
390
F
  0
LAYER
  5
1FF
100
AcDbSymbolTableRecord
100
AcDbLayerTableRecord
  2
BEZUGSEBENEN
 70
0
 62
7
  6
CONTINUOUS
370
-3
390
F
  0
LAYER
  5
200
100
AcDbSymbolTableRecord
100
AcDbLayerTableRecord
  2
BEZUGSPUNKTE
 70
0
 62
7
  6
CONTINUOUS
370
-3
390
F
  0
LAYER
  5
201
100
AcDbSymbolTableRecord
100
AcDbLayerTableRecord
  2
BG_STARTBEZUEGE
 70
0
 62
7
  6
CONTINUOUS
370
-3
390
F
  0
LAYER
  5
202
100
AcDbSymbolTableRecord
100
AcDbLayerTableRecord
  2
FASEN
 70
0
 62
7
  6
CONTINUOUS
370
-3
390
F
  0
LAYER
  5
203
100
AcDbSymbolTableRecord
100
AcDbLayerTableRecord
  2
FLAECHEN
 70
0
 62
7
  6
CONTINUOUS
370
-3
390
F
  0
LAYER
  5
204
100
AcDbSymbolTableRecord
100
AcDbLayerTableRecord
  2
FLAECHENVERBUND
 70
0
 62
7
  6
CONTINUOUS
370
-3
390
F
  0
LAYER
  5
205
100
AcDbSymbolTableRecord
100
AcDbLayerTableRecord
  2
HILFEN
 70
0
 62
7
  6
CONTINUOUS
370
-3
390
F
  0
LAYER
  5
206
100
AcDbSymbolTableRecord
100
AcDbLayerTableRecord
  2
KONSTRUKTIONSELEMENTE
 70
0
 62
7
  6
CONTINUOUS
370
-3
390
F
  0
LAYER
  5
207
100
AcDbSymbolTableRecord
100
AcDbLayerTableRecord
  2
KURVEN
 70
0
 62
7
  6
CONTINUOUS
370
-3
390
F
  0
LAYER
  5
208
100
AcDbSymbolTableRecord
100
AcDbLayerTableRecord
  2
NORM
 70
0
 62
7
  6
CONTINUOUS
370
-3
390
F
  0
LAYER
  5
209
100
AcDbSymbolTableRecord
100
AcDbLayerTableRecord
  2
PLATZIERUNG
 70
0
 62
7
  6
CONTINUOUS
370
-3
390
F
  0
LAYER
  5
20A
100
AcDbSymbolTableRecord
100
AcDbLayerTableRecord
  2
RUNDUNGEN
 70
0
 62
7
  6
CONTINUOUS
370
-3
390
F
  0
LAYER
  5
20B
100
AcDbSymbolTableRecord
100
AcDbLayerTableRecord
  2
TEIL_STARTBEZUEGE
 70
0
 62
7
  6
CONTINUOUS
370
-3
390
F
  0
LAYER
  5
20C
100
AcDbSymbolTableRecord
100
AcDbLayerTableRecord
  2
VERRIEGELUNG
 70
0
 62
7
  6
CONTINUOUS
370
-3
390
F
  0
LAYER
  5
20D
100
AcDbSymbolTableRecord
100
AcDbLayerTableRecord
  2
VERSATZ
 70
0
 62
7
  6
CONTINUOUS
370
-3
390
F
  0
ENDTAB
  0
TABLE
  2
STYLE
  5
3
100
AcDbSymbolTable
 70
1
  0
STYLE
  5
11
100
AcDbSymbolTableRecord
100
AcDbTextStyleTableRecord
  2
STANDARD
 70
0
 40
0.0
 41
0.7
 50
0.0
 71
0
 42
0.2
  3
txt
  4

  0
STYLE
  5
20E
100
AcDbSymbolTableRecord
100
AcDbTextStyleTableRecord
  2
TEXTSTYLE_1
 70
0
 40
0.0
 41
0.8
 50
0.0
 71
0
 42
0.2
  3
gdt
  4

  0
ENDTAB
  0
TABLE
  2
VIEW
  5
6
100
AcDbSymbolTable
 70
0
  0
ENDTAB
  0
TABLE
  2
UCS
  5
7
100
AcDbSymbolTable
 70
0
  0
ENDTAB
  0
TABLE
  2
APPID
  5
9
100
AcDbSymbolTable
 70
1
  0
APPID
  5
20F
100
AcDbSymbolTableRecord
100
AcDbRegAppTableRecord
  2
ACAD
 70
0
  0
ENDTAB
  0
TABLE
  2
BLOCK_RECORD
  5
1
100
AcDbSymbolTable
 70
0
  0
BLOCK_RECORD
  5
210
100
AcDbSymbolTableRecord
100
AcDbBlockTableRecord
  2
*Model_Space
  0
BLOCK_RECORD
  5
211
100
AcDbSymbolTableRecord
100
AcDbBlockTableRecord
  2
*Paper_Space
  0
ENDTAB
  0
TABLE
  2
DIMSTYLE
  5
A
100
AcDbSymbolTable
 70
1
100
AcDbDimStyleTable
 71
0
  0
DIMSTYLE
105
212
100
AcDbSymbolTableRecord
100
AcDbDimStyleTableRecord
  2
STANDARD
 70
0
  3

  4

 40
1.0
 41
3.5
 42
0.0625
 43
0.38
 44
0.18
 45
0.0
 46
0.0
 47
0.005
 48
0.005
140
3.5
141
0.09
142
0.0
143
25.4
144
1.0
145
0.0
146
1.0
147
0.09
 71
1.0
 72
0.0
 73
0
 74
0
 75
0
 76
0
 77
1
 78
8
170
0
171
2
172
0
173
0
174
0
175
0
176
0
177
0
178
5
270
2
271
3
272
3
273
2
274
2
275
0
280
0
281
0
282
0
283
1
284
8
285
0
286
0
287
3
288
0
340
11
  0
ENDTAB
  0
ENDSEC
  0
SECTION
  2
BLOCKS
  0
BLOCK
  5
20
100
AcDbEntity
  8
0
100
AcDbBlockBegin
  2
*Model_Space
 70
0
 10
0.0
 20
0.0
 30
0.0
  3
*Model_Space
  1

  0
ENDBLK
  5
21
100
AcDbEntity
  8
0
100
AcDbBlockEnd
  0
BLOCK
  5
1C
100
AcDbEntity
  8
0
100
AcDbBlockBegin
  2
*Paper_Space
 70
0
 10
0.0
 20
0.0
 30
0.0
  3
*Paper_Space
  1

  0
ENDBLK
  5
1D
100
AcDbEntity
  8
0
100
AcDbBlockEnd
  0
ENDSEC
  0
SECTION
  2
ENTITIES
  0
MTEXT
  5
213
100
AcDbEntity
  8
0
100
AcDbMText
 62
5
  6
CONTINUOUS
  7
STANDARD
 71
2
 72
1
 10
92.8733194533
 20
236.6704590126
 30
0.0
 11
0.0
 21
1.0
 31
0.0
 44
0.9
  1
RUD\PIMAGH-13
 40
5.0
 41
29.6428571429
  0
LINE
  5
214
100
AcDbEntity
  8
0
100
AcDbLine
 62
7
  6
CONTINUOUS
 10
0.0
 20
-0.0
 11
0.0
 21
297.0
  0
LINE
  5
215
100
AcDbEntity
  8
0
100
AcDbLine
 62
7
  6
CONTINUOUS
 10
0.0
 20
-0.0
 11
420.0
 21
-0.0
  0
LINE
  5
216
100
AcDbEntity
  8
0
100
AcDbLine
 62
7
  6
CONTINUOUS
 10
0.0
 20
297.0
 11
420.0
 21
297.0
  0
LINE
  5
217
100
AcDbEntity
  8
0
100
AcDbLine
 62
7
  6
CONTINUOUS
 10
420.0
 20
-0.0
 11
420.0
 21
297.0
  0
LINE
  5
218
100
AcDbEntity
  8
0
100
AcDbLine
 62
7
  6
CONTINUOUS
 10
248.122133371
 20
263.9304856389
 11
252.6287093206
 21
269.3012137171
  0
LINE
  5
219
100
AcDbEntity
  8
0
100
AcDbLine
 62
7
  6
CONTINUOUS
 10
229.3025570079
 20
74.3887485285
 11
228.9316134122
 21
74.4886707985
  0
LINE
  5
21A
100
AcDbEntity
  8
0
100
AcDbLine
 62
7
  6
CONTINUOUS
 10
225.8745523238
 20
78.5881432642
 11
225.5131724939
 21
78.7184821679
  0
LINE
  5
21B
100
AcDbEntity
  8
0
100
AcDbLine
 62
7
  6
CONTINUOUS
 10
228.5086803518
 20
73.9856455993
 11
228.9486133562
 21
73.8054444546
  0
LINE
  5
21C
100
AcDbEntity
  8
0
100
AcDbLine
 62
7
  6
CONTINUOUS
 10
225.049981655
 20
78.2522625685
 11
225.4734564406
 21
78.0361998004
  0
LINE
  5
21D
100
AcDbEntity
  8
0
100
AcDbLine
 62
7
  6
CONTINUOUS
 10
224.3395370276
 20
83.4849041576
 11
224.7440872191
 21
83.2351985556
  0
LINE
  5
21E
100
AcDbEntity
  8
0
100
AcDbLine
 62
7
  6
CONTINUOUS
 10
228.9316134122
 20
74.4886707985
 11
228.5736676366
 21
74.7393295273
  0
LINE
  5
21F
100
AcDbEntity
  8
0
100
AcDbLine
 62
7
  6
CONTINUOUS
 10
228.0817443348
 20
74.3165840846
 11
228.5086803518
 21
73.9856455993
  0
LINE
  5
220
100
AcDbEntity
  8
0
100
AcDbLine
 62
7
  6
CONTINUOUS
 10
225.5131724939
 20
78.7184821679
 11
225.177245302
 21
78.9979609884
  0
LINE
  5
221
100
AcDbEntity
  8
0
100
AcDbLine
 62
7
  6
CONTINUOUS
 10
224.7466199924
 20
83.8559056296
 11
224.489409185
 21
84.0712371574
  0
LINE
  5
222
100
AcDbEntity
  8
0
100
AcDbLine
 62
7
  6
CONTINUOUS
 10
224.6519598165
 20
78.6174647297
 11
225.049981655
 21
78.2522625685
  0
LINE
  5
223
100
AcDbEntity
  8
0
100
AcDbLine
 62
7
  6
CONTINUOUS
 10
226.4259913469
 20
76.243283688
 11
228.0817443348
 21
74.3165840846
  0
LINE
  5
224
100
AcDbEntity
  8
0
100
AcDbLine
 62
7
  6
CONTINUOUS
 10
228.5736676366
 20
74.7393295273
 11
227.3318528956
 21
76.1843542298
  0
LINE
  5
225
100
AcDbEntity
  8
0
100
AcDbLine
 62
7
  6
CONTINUOUS
 10
230.2014055564
 20
78.6503693698
 11
231.4432202974
 21
77.2053446672
  0
LINE
  5
226
100
AcDbEntity
  8
0
100
AcDbLine
 62
7
  6
CONTINUOUS
 10
231.9351435417
 20
77.6280900605
 11
230.2793905538
 21
79.554789664
  0
LINE
  5
227
100
AcDbEntity
  8
0
100
AcDbLine
 62
7
  6
CONTINUOUS
 10
224.4035801952
 20
78.960359586
 11
224.6519598165
 21
78.6174647297
  0
LINE
  5
228
100
AcDbEntity
  8
0
100
AcDbLine
 62
7
  6
CONTINUOUS
 10
225.177245302
 20
78.9979609884
 11
224.9288656807
 21
79.3408558447
  0
LINE
  5
229
100
AcDbEntity
  8
0
100
AcDbLine
 62
7
  6
CONTINUOUS
 10
220.6211155643
 20
84.8183818805
 11
220.9507296771
 21
84.2755097785
  0
LINE
  5
22A
100
AcDbEntity
  8
0
100
AcDbLine
 62
7
  6
CONTINUOUS
 10
222.3241217614
 20
82.0135427733
 11
222.7086716644
 21
81.3801918151
  0
LINE
  5
22B
100
AcDbEntity
  8
0
100
AcDbLine
 62
7
  6
CONTINUOUS
 10
228.9486133562
 20
73.8054444546
 11
229.5525207827
 21
73.7661584472
  0
LINE
  5
22C
100
AcDbEntity
  8
0
100
AcDbLine
 62
7
  6
CONTINUOUS
 10
224.7440872191
 20
83.2351985556
 11
225.2785092796
 21
83.1881805972
  0
LINE
  5
22D
100
AcDbEntity
  8
0
100
AcDbLine
 62
7
  6
CONTINUOUS
 10
225.4734564406
 20
78.0361998004
 11
226.0720263753
 21
77.9469691092
  0
LINE
  5
22E
100
AcDbEntity
  8
0
100
AcDbLine
 62
7
  6
CONTINUOUS
 10
225.0412989178
 20
83.7871572223
 11
224.7466199924
 21
83.8559056296
  0
LINE
  5
22F
100
AcDbEntity
  8
0
100
AcDbLine
 62
7
  6
CONTINUOUS
 10
215.9974860197
 20
102.9356572631
 11
237.6766144931
 21
76.4489380558
  0
LINE
  5
230
100
AcDbEntity
  8
0
100
AcDbLine
 62
7
  6
CONTINUOUS
 10
229.7602142594
 20
80.2264398293
 11
229.3876450051
 21
80.7407818685
  0
LINE
  5
231
100
AcDbEntity
  8
0
100
AcDbLine
 62
7
  6
CONTINUOUS
 10
227.897367988
 20
82.798150025
 11
227.5247985561
 21
83.3124923094
  0
LINE
  5
232
100
AcDbEntity
  8
0
100
AcDbLine
 62
7
  6
CONTINUOUS
 10
222.8912087075
 20
85.4537049218
 11
223.8251153342
 21
83.9155673427
  0
LINE
  5
233
100
AcDbEntity
  8
0
100
AcDbLine
 62
7
  6
CONTINUOUS
 10
224.489409185
 20
84.0712371574
 11
223.4456312136
 21
85.7903320607
  0
LINE
  5
234
100
AcDbEntity
  8
0
100
AcDbLine
 62
7
  6
CONTINUOUS
 10
224.8316877378
 20
86.6319000651
 11
225.8754657092
 21
84.9128051618
  0
LINE
  5
235
100
AcDbEntity
  8
0
100
AcDbLine
 62
7
  6
CONTINUOUS
 10
226.2825488312
 20
85.283806375
 11
224.9640923801
 21
87.4552947828
  0
LINE
  5
236
100
AcDbEntity
  8
0
100
AcDbLine
 62
7
  6
CONTINUOUS
 10
232.1981051367
 20
77.156236438
 11
231.9351435417
 21
77.6280900605
  0
LINE
  5
237
100
AcDbEntity
  8
0
100
AcDbLine
 62
7
  6
CONTINUOUS
 10
231.4432202974
 20
77.2053446672
 11
231.6371916581
 21
76.8137708073
  0
LINE
  5
238
100
AcDbEntity
  8
0
100
AcDbLine
 62
7
  6
CONTINUOUS
 10
224.1806535134
 20
79.4523938297
 11
224.4035801952
 21
78.960359586
  0
LINE
  5
239
100
AcDbEntity
  8
0
100
AcDbLine
 62
7
  6
CONTINUOUS
 10
224.9288656807
 20
79.3408558447
 11
224.7680339854
 21
79.7471662462
  0
LINE
  5
23A
100
AcDbEntity
  8
0
100
AcDbLine
 62
7
  6
CONTINUOUS
 10
226.4648235599
 20
84.7753083472
 11
226.2825488312
 21
85.283806375
  0
LINE
  5
23B
100
AcDbEntity
  8
0
100
AcDbLine
 62
7
  6
CONTINUOUS
 10
229.5525207827
 20
73.7661584472
 11
230.0184493485
 21
73.8874301522
  0
LINE
  5
23C
100
AcDbEntity
  8
0
100
AcDbLine
 62
7
  6
CONTINUOUS
 10
226.0720263753
 20
77.9469691092
 11
226.5464063524
 21
78.0291861136
  0
LINE
  5
23D
100
AcDbEntity
  8
0
100
AcDbLine
 62
7
  6
CONTINUOUS
 10
229.6864983089
 20
74.4395626187
 11
229.3025570079
 21
74.3887485285
  0
LINE
  5
23E
100
AcDbEntity
  8
0
100
AcDbLine
 62
7
  6
CONTINUOUS
 10
226.2613846688
 20
78.6069441885
 11
225.8745523238
 21
78.5881432642
  0
LINE
  5
23F
100
AcDbEntity
  8
0
100
AcDbLine
 62
7
  6
CONTINUOUS
 10
244.7647714058
 20
68.2644543803
 11
257.2523222542
 21
46.0119004852
  0
LINE
  5
240
100
AcDbEntity
  8
0
100
AcDbLine
 62
7
  6
CONTINUOUS
 10
265.4303622342
 20
43.8973367702
 11
257.9327649789
 21
57.2578979429
  0
LINE
  5
241
100
AcDbEntity
  8
0
100
AcDbLine
 62
7
  6
CONTINUOUS
 10
232.3100892901
 20
76.6942050126
 11
232.1981051367
 21
77.156236438
  0
LINE
  5
242
100
AcDbEntity
  8
0
100
AcDbLine
 62
7
  6
CONTINUOUS
 10
225.8754657092
 20
84.9128051618
 11
225.9478690146
 21
84.5852645877
  0
LINE
  5
243
100
AcDbEntity
  8
0
100
AcDbLine
 62
7
  6
CONTINUOUS
 10
224.1073690565
 20
79.922120774
 11
224.1806535134
 21
79.4523938297
  0
LINE
  5
244
100
AcDbEntity
  8
0
100
AcDbLine
 62
7
  6
CONTINUOUS
 10
224.7680339854
 20
79.7471662462
 11
224.756844561
 21
80.1311693816
  0
LINE
  5
245
100
AcDbEntity
  8
0
100
AcDbLine
 62
7
  6
CONTINUOUS
 10
225.2785092796
 20
83.1881805972
 11
225.6106561657
 21
83.2660155692
  0
LINE
  5
246
100
AcDbEntity
  8
0
100
AcDbLine
 62
7
  6
CONTINUOUS
 10
225.3734458039
 20
83.8649921944
 11
225.0412989178
 21
83.7871572223
  0
LINE
  5
247
100
AcDbEntity
  8
0
100
AcDbLine
 62
7
  6
CONTINUOUS
 10
231.6371916581
 20
76.8137708073
 11
231.6801863668
 21
76.4320182258
  0
LINE
  5
248
100
AcDbEntity
  8
0
100
AcDbLine
 62
7
  6
CONTINUOUS
 10
232.2580990286
 20
76.091258456
 11
232.3100892901
 21
76.6942050126
  0
LINE
  5
249
100
AcDbEntity
  8
0
100
AcDbLine
 62
7
  6
CONTINUOUS
 10
226.4073549963
 20
84.2450801294
 11
226.4648235599
 21
84.7753083472
  0
LINE
  5
24A
100
AcDbEntity
  8
0
100
AcDbLine
 62
7
  6
CONTINUOUS
 10
224.209180104
 20
80.5186793049
 11
224.1073690565
 21
79.922120774
  0
LINE
  5
24B
100
AcDbEntity
  8
0
100
AcDbLine
 62
7
  6
CONTINUOUS
 10
231.7909634809
 20
161.3403482503
 11
223.0194512219
 21
151.142524448
  0
LINE
  5
24C
100
AcDbEntity
  8
0
100
AcDbLine
 62
7
  6
CONTINUOUS
 10
268.4200428251
 20
203.7382089676
 11
231.8913471077
 21
161.2696822588
  0
LINE
  5
24D
100
AcDbEntity
  8
RUNDUNGEN
100
AcDbLine
 62
7
  6
CONTINUOUS
 10
230.6498640483
 20
150.1082730973
 11
249.7101748735
 21
133.7138188128
  0
LINE
  5
24E
100
AcDbEntity
  8
RUNDUNGEN
100
AcDbLine
 62
7
  6
CONTINUOUS
 10
247.6542222573
 20
234.3896670296
 11
247.6542222573
 21
262.644850064
  0
LINE
  5
24F
100
AcDbEntity
  8
RUNDUNGEN
100
AcDbLine
 62
7
  6
CONTINUOUS
 10
250.5542222573
 20
183.6879985393
 11
250.5542222573
 21
213.1895361145
  0
LINE
  5
250
100
AcDbEntity
  8
0
100
AcDbLine
 62
7
  6
CONTINUOUS
 10
225.9478690146
 20
84.5852645877
 11
225.8729329359
 21
84.2920980878
  0
LINE
  5
251
100
AcDbEntity
  8
0
100
AcDbLine
 62
7
  6
CONTINUOUS
 10
231.6801863668
 20
76.4320182258
 11
231.5722041938
 21
76.0600867252
  0
LINE
  5
252
100
AcDbEntity
  8
0
100
AcDbLine
 62
7
  6
CONTINUOUS
 10
224.756844561
 20
80.1311693816
 11
224.8952972847
 21
80.4928651621
  0
LINE
  5
253
100
AcDbEntity
  8
RUNDUNGEN
100
AcDbLine
 62
7
  6
CONTINUOUS
 10
234.9511504241
 20
142.4515008027
 11
226.2085947323
 21
132.2873421156
  0
LINE
  5
254
100
AcDbEntity
  8
0
100
AcDbLine
 62
7
  6
CONTINUOUS
 10
326.2334061677
 20
133.1901594171
 11
325.7725551777
 21
133.0978450553
  0
LINE
  5
255
100
AcDbEntity
  8
0
100
AcDbLine
 62
7
  6
CONTINUOUS
 10
329.3311608139
 20
127.6837846788
 11
329.9399153876
 21
127.7585925739
  0
LINE
  5
256
100
AcDbEntity
  8
0
100
AcDbLine
 62
7
  6
CONTINUOUS
 10
326.2080358738
 20
127.9065273341
 11
326.816791047
 21
127.9813385195
  0
LINE
  5
257
100
AcDbEntity
  8
0
100
AcDbLine
 62
7
  6
CONTINUOUS
 10
262.282628832
 20
254.3728508881
 11
262.282628832
 21
254.8658548078
  0
LINE
  5
258
100
AcDbEntity
  8
0
100
AcDbLine
 62
7
  6
CONTINUOUS
 10
226.2025470487
 20
83.7492259858
 11
226.4073549963
 21
84.2450801294
  0
LINE
  5
259
100
AcDbEntity
  8
0
100
AcDbLine
 62
7
  6
CONTINUOUS
 10
232.0681298779
 20
75.6488695872
 11
232.2580990286
 21
76.091258456
  0
LINE
  5
25A
100
AcDbEntity
  8
0
100
AcDbLine
 62
7
  6
CONTINUOUS
 10
224.4351806374
 20
80.9437909203
 11
224.209180104
 21
80.5186793049
  0
LINE
  5
25B
100
AcDbEntity
  8
0
100
AcDbLine
 62
7
  6
CONTINUOUS
 10
324.3273537089
 20
140.6857707882
 11
331.1777715757
 21
142.1251369854
  0
LINE
  5
25C
100
AcDbEntity
  8
0
100
AcDbLine
 62
7
  6
CONTINUOUS
 10
330.9978508011
 20
142.9814392188
 11
328.2285328618
 21
142.3995677609
  0
LINE
  5
25D
100
AcDbEntity
  8
0
100
AcDbLine
 62
7
  6
CONTINUOUS
 10
327.3540115363
 20
142.2158189066
 11
324.1474329342
 21
141.5420730216
  0
LINE
  5
25E
100
AcDbEntity
  8
0
100
AcDbLine
 62
7
  6
CONTINUOUS
 10
323.3078024238
 20
145.5381511994
 11
326.5143810258
 21
146.2118970844
  0
LINE
  5
25F
100
AcDbEntity
  8
0
100
AcDbLine
 62
7
  6
CONTINUOUS
 10
327.3889023514
 20
146.3956459388
 11
330.1582202906
 21
146.9775173966
  0
LINE
  5
260
100
AcDbEntity
  8
0
100
AcDbLine
 62
7
  6
CONTINUOUS
 10
329.978299516
 20
147.83381963
 11
323.1278816491
 21
146.3944534328
  0
LINE
  5
261
100
AcDbEntity
  8
0
100
AcDbLine
 62
7
  6
CONTINUOUS
 10
323.6917597781
 20
148.0460166128
 11
324.2988860195
 21
148.1330607987
  0
LINE
  5
262
100
AcDbEntity
  8
0
100
AcDbLine
 62
7
  6
CONTINUOUS
 10
327.0536625717
 20
137.6638794387
 11
327.7962301795
 21
137.7199427628
  0
LINE
  5
263
100
AcDbEntity
  8
0
100
AcDbLine
 62
7
  6
CONTINUOUS
 10
327.6425233411
 20
139.7558141837
 11
326.8999557333
 21
139.6997508596
  0
LINE
  5
264
100
AcDbEntity
  8
0
100
AcDbLine
 62
7
  6
CONTINUOUS
 10
324.5719920818
 20
134.5567976725
 11
331.5719916532
 21
134.5592473775
  0
LINE
  5
265
100
AcDbEntity
  8
0
100
AcDbLine
 62
7
  6
CONTINUOUS
 10
330.3801962934
 20
135.4338303529
 11
324.5716858687
 21
135.4317976189
  0
LINE
  5
266
100
AcDbEntity
  8
0
100
AcDbLine
 62
7
  6
CONTINUOUS
 10
330.5288262236
 20
136.3088824207
 11
329.3373366596
 21
136.3084654495
  0
LINE
  5
267
100
AcDbEntity
  8
0
100
AcDbLine
 62
7
  6
CONTINUOUS
 10
325.6164195555
 20
127.976539991
 11
326.2080358738
 21
127.9065273341
  0
LINE
  5
268
100
AcDbEntity
  8
0
100
AcDbLine
 62
7
  6
CONTINUOUS
 10
329.0353522404
 20
127.7187910563
 11
329.3311608139
 21
127.6837846788
  0
LINE
  5
269
100
AcDbEntity
  8
0
100
AcDbLine
 62
7
  6
CONTINUOUS
 10
326.293728328
 20
128.6306400384
 11
325.7021120098
 21
128.7006526953
  0
LINE
  5
26A
100
AcDbEntity
  8
0
100
AcDbLine
 62
7
  6
CONTINUOUS
 10
329.4168532681
 20
128.4078973831
 11
329.1210446947
 21
128.4429037605
  0
LINE
  5
26B
100
AcDbEntity
  8
0
100
AcDbLine
 62
7
  6
CONTINUOUS
 10
328.1777511655
 20
130.6104466351
 11
327.5861348472
 21
130.6804592919
  0
LINE
  5
26C
100
AcDbEntity
  8
RUNDUNGEN
100
AcDbLine
 62
7
  6
CONTINUOUS
 10
311.3159227835
 20
52.6264945418
 11
308.9851543564
 21
56.7798750301
  0
LINE
  5
26D
100
AcDbEntity
  8
0
100
AcDbLine
 62
7
  6
CONTINUOUS
 10
275.3042222573
 20
232.1388593097
 11
275.3042222573
 21
231.7278508881
  0
LINE
  5
26E
100
AcDbEntity
  8
0
100
AcDbLine
 62
7
  6
CONTINUOUS
 10
275.3042222573
 20
235.2552475961
 11
275.3042222573
 21
235.4068424664
  0
LINE
  5
26F
100
AcDbEntity
  8
RUNDUNGEN
100
AcDbLine
 62
7
  6
CONTINUOUS
 10
275.3042222573
 20
235.4068424664
 11
275.3042222573
 21
263.5658637622
  0
LINE
  5
270
100
AcDbEntity
  8
0
100
AcDbLine
 62
7
  6
CONTINUOUS
 10
222.7086716644
 20
81.3801918151
 11
224.3395370276
 21
83.4849041576
  0
LINE
  5
271
100
AcDbEntity
  8
0
100
AcDbLine
 62
7
  6
CONTINUOUS
 10
223.8251153342
 20
83.9155673427
 11
222.3241217614
 21
82.0135427733
  0
LINE
  5
272
100
AcDbEntity
  8
0
100
AcDbLine
 62
7
  6
CONTINUOUS
 10
300.5911231925
 20
176.0667144112
 11
281.2578798038
 21
153.5897453572
  0
LINE
  5
273
100
AcDbEntity
  8
0
100
AcDbLine
 62
7
  6
CONTINUOUS
 10
281.4790894014
 20
153.6595525162
 11
270.2555625246
 21
140.6109987265
  0
LINE
  5
274
100
AcDbEntity
  8
0
100
AcDbLine
 62
7
  6
CONTINUOUS
 10
317.5027545422
 20
158.0596249507
 11
319.3278351024
 21
158.5108051637
  0
LINE
  5
275
100
AcDbEntity
  8
0
100
AcDbLine
 62
7
  6
CONTINUOUS
 10
319.9104629699
 20
158.7024398434
 11
324.0168950256
 21
159.7175943436
  0
LINE
  5
276
100
AcDbEntity
  8
0
100
AcDbLine
 62
7
  6
CONTINUOUS
 10
324.213535013
 20
160.527855078
 11
317.0395694396
 21
158.80197565
  0
LINE
  5
277
100
AcDbEntity
  8
0
100
AcDbLine
 62
7
  6
CONTINUOUS
 10
325.6850341742
 20
154.6639406024
 11
324.9397321691
 21
154.5213128843
  0
LINE
  5
278
100
AcDbEntity
  8
0
100
AcDbLine
 62
7
  6
CONTINUOUS
 10
325.2662938698
 20
153.7095355407
 11
325.8734206373
 21
153.7965781393
  0
LINE
  5
279
100
AcDbEntity
  8
0
100
AcDbLine
 62
7
  6
CONTINUOUS
 10
324.1104991693
 20
149.0004231061
 11
323.6415478753
 21
148.9689639228
  0
LINE
  5
27A
100
AcDbEntity
  8
0
100
AcDbLine
 62
7
  6
CONTINUOUS
 10
328.4608741776
 20
127.9336242651
 11
329.0353522404
 21
127.7187910563
  0
LINE
  5
27B
100
AcDbEntity
  8
0
100
AcDbLine
 62
7
  6
CONTINUOUS
 10
330.4883481933
 20
132.3929231625
 11
329.9138701305
 21
132.6077563714
  0
LINE
  5
27C
100
AcDbEntity
  8
0
100
AcDbLine
 62
7
  6
CONTINUOUS
 10
325.189845861
 20
128.1738733627
 11
325.6164195555
 21
127.976539991
  0
LINE
  5
27D
100
AcDbEntity
  8
RUNDUNGEN
100
AcDbLine
 62
7
  6
CONTINUOUS
 10
289.8042222573
 20
263.56573971
 11
289.8042222573
 21
235.4068424664
  0
LINE
  5
27E
100
AcDbEntity
  8
0
100
AcDbLine
 62
7
  6
CONTINUOUS
 10
289.8042222573
 20
232.29045418
 11
289.8042222573
 21
231.7278508881
  0
LINE
  5
27F
100
AcDbEntity
  8
0
100
AcDbLine
 62
7
  6
CONTINUOUS
 10
231.5722041938
 20
76.0600867252
 11
231.3132448089
 21
75.697977619
  0
LINE
  5
280
100
AcDbEntity
  8
0
100
AcDbLine
 62
7
  6
CONTINUOUS
 10
231.7271830559
 20
75.2163027182
 11
232.0681298779
 21
75.6488695872
  0
LINE
  5
281
100
AcDbEntity
  8
0
100
AcDbLine
 62
7
  6
CONTINUOUS
 10
312.5542222573
 20
174.7716313768
 11
301.647034777
 21
161.7729515121
  0
LINE
  5
282
100
AcDbEntity
  8
0
100
AcDbLine
 62
7
  6
CONTINUOUS
 10
224.8952972847
 20
80.4928651621
 11
225.1833929287
 21
80.8322526512
  0
LINE
  5
283
100
AcDbEntity
  8
0
100
AcDbLine
 62
7
  6
CONTINUOUS
 10
225.8729329359
 20
84.2920980878
 11
225.6506573159
 21
84.033305921
  0
LINE
  5
284
100
AcDbEntity
  8
0
100
AcDbLine
 62
7
  6
CONTINUOUS
 10
225.9802714287
 20
83.490433819
 11
226.2025470487
 21
83.7492259858
  0
LINE
  5
285
100
AcDbEntity
  8
0
100
AcDbLine
 62
7
  6
CONTINUOUS
 10
224.8108234967
 20
81.3465949356
 11
224.4351806374
 21
80.9437909203
  0
LINE
  5
286
100
AcDbEntity
  8
0
100
AcDbLine
 62
7
  6
CONTINUOUS
 10
316.715563039
 20
169.6694733747
 11
311.5928944081
 21
164.8989109239
  0
LINE
  5
287
100
AcDbEntity
  8
0
100
AcDbLine
 62
7
  6
CONTINUOUS
 10
320.5916448881
 20
165.5073052647
 11
314.523140535
 21
162.84508311
  0
LINE
  5
288
100
AcDbEntity
  8
0
100
AcDbLine
 62
7
  6
CONTINUOUS
 10
314.3757225517
 20
161.9106875049
 11
319.7998756753
 21
164.1721253088
  0
LINE
  5
289
100
AcDbEntity
  8
RUNDUNGEN
100
AcDbLine
 62
7
  6
CONTINUOUS
 10
230.5542222573
 20
161.6428508881
 11
232.2123227658
 21
161.6428508881
  0
LINE
  5
28A
100
AcDbEntity
  8
0
100
AcDbLine
 62
7
  6
CONTINUOUS
 10
326.3465870613
 20
154.6156890416
 11
325.6850341742
 21
154.6639406024
  0
LINE
  5
28B
100
AcDbEntity
  8
0
100
AcDbLine
 62
7
  6
CONTINUOUS
 10
325.8734206373
 20
153.7965781393
 11
326.3967990609
 21
153.6927417705
  0
LINE
  5
28C
100
AcDbEntity
  8
0
100
AcDbLine
 62
7
  6
CONTINUOUS
 10
322.9213527348
 20
148.3648611182
 11
323.6917597781
 21
148.0460166128
  0
LINE
  5
28D
100
AcDbEntity
  8
0
100
AcDbLine
 62
7
  6
CONTINUOUS
 10
325.7021120098
 20
128.7006526953
 11
325.4234424984
 21
128.8804828905
  0
LINE
  5
28E
100
AcDbEntity
  8
0
100
AcDbLine
 62
7
  6
CONTINUOUS
 10
329.1210446947
 20
128.4429037605
 11
328.5637052797
 21
128.8025608362
  0
LINE
  5
28F
100
AcDbEntity
  8
0
100
AcDbLine
 62
7
  6
CONTINUOUS
 10
324.7804105256
 20
128.5160272741
 11
325.189845861
 21
128.1738733627
  0
LINE
  5
290
100
AcDbEntity
  8
0
100
AcDbLine
 62
7
  6
CONTINUOUS
 10
328.0514392345
 20
128.2757814913
 11
328.4608741776
 21
127.9336242651
  0
LINE
  5
291
100
AcDbEntity
  8
0
100
AcDbLine
 62
7
  6
CONTINUOUS
 10
329.8281776763
 20
131.8836436671
 11
330.2376130117
 21
131.5414897557
  0
LINE
  5
292
100
AcDbEntity
  8
BEZUGSACHSEN
100
AcDbLine
 62
7
  6
CONTINUOUS
 10
330.0543528525
 20
115.7650083874
 11
338.1156441182
 21
106.1579355606
  0
LINE
  5
293
100
AcDbEntity
  8
0
100
AcDbLine
 62
7
  6
CONTINUOUS
 10
330.5987962362
 20
115.2173847071
 11
339.8051340379
 21
104.2456985573
  0
LINE
  5
294
100
AcDbEntity
  8
0
100
AcDbLine
 62
7
  6
CONTINUOUS
 10
302.8258156826
 20
254.3728508881
 11
302.8258156826
 21
254.8658548078
  0
LINE
  5
295
100
AcDbEntity
  8
0
100
AcDbLine
 62
7
  6
CONTINUOUS
 10
316.2219539794
 20
168.0141266294
 11
313.5806287152
 21
162.7644657119
  0
LINE
  5
296
100
AcDbEntity
  8
0
100
AcDbLine
 62
7
  6
CONTINUOUS
 10
314.523140535
 20
162.84508311
 11
317.6100434986
 21
168.7089730064
  0
LINE
  5
297
100
AcDbEntity
  8
0
100
AcDbLine
 62
7
  6
CONTINUOUS
 10
314.3966070513
 20
171.5080081677
 11
309.9313823481
 21
166.1171113638
  0
LINE
  5
298
100
AcDbEntity
  8
0
100
AcDbLine
 62
7
  6
CONTINUOUS
 10
310.6052444486
 20
165.5589582759
 11
315.0704691518
 21
170.9498550798
  0
LINE
  5
299
100
AcDbEntity
  8
0
100
AcDbLine
 62
7
  6
CONTINUOUS
 10
237.6530556828
 20
74.5207191411
 11
230.1248868472
 21
65.7684154253
  0
LINE
  5
29A
100
AcDbEntity
  8
0
100
AcDbLine
 62
7
  6
CONTINUOUS
 10
312.1892147144
 20
164.258577345
 11
316.2219539794
 21
168.0141266294
  0
LINE
  5
29B
100
AcDbEntity
  8
0
100
AcDbLine
 62
7
  6
CONTINUOUS
 10
319.7998756753
 20
164.1721253088
 11
315.7671364103
 21
160.4165760244
  0
LINE
  5
29C
100
AcDbEntity
  8
0
100
AcDbLine
 62
7
  6
CONTINUOUS
 10
316.3634567167
 20
159.7762424456
 11
321.4861253477
 21
164.5468048964
  0
LINE
  5
29D
100
AcDbEntity
  8
0
100
AcDbLine
 62
7
  6
CONTINUOUS
 10
230.2793905538
 20
79.554789664
 11
226.4259913469
 21
76.243283688
  0
LINE
  5
29E
100
AcDbEntity
  8
0
100
AcDbLine
 62
7
  6
CONTINUOUS
 10
227.3318528956
 20
76.1843542298
 11
230.2014055564
 21
78.6503693698
  0
LINE
  5
29F
100
AcDbEntity
  8
0
100
AcDbLine
 62
7
  6
CONTINUOUS
 10
227.5247985561
 20
83.3124923094
 11
224.8108234967
 21
81.3465949356
  0
LINE
  5
2A0
100
AcDbEntity
  8
0
100
AcDbLine
 62
7
  6
CONTINUOUS
 10
322.6953988815
 20
152.5181238962
 11
323.1936709183
 21
152.8757610072
  0
LINE
  5
2A1
100
AcDbEntity
  8
0
100
AcDbLine
 62
7
  6
CONTINUOUS
 10
322.8671092176
 20
153.6875383509
 11
322.2306623303
 21
153.2743162762
  0
LINE
  5
2A2
100
AcDbEntity
  8
0
100
AcDbLine
 62
7
  6
CONTINUOUS
 10
324.9397321691
 20
154.5213128843
 11
322.8671092176
 21
153.6875383509
  0
LINE
  5
2A3
100
AcDbEntity
  8
0
100
AcDbLine
 62
7
  6
CONTINUOUS
 10
323.1936709183
 20
152.8757610072
 11
325.2662938698
 21
153.7095355407
  0
LINE
  5
2A4
100
AcDbEntity
  8
0
100
AcDbLine
 62
7
  6
CONTINUOUS
 10
325.5551047192
 20
150.9962786913
 11
324.7260556161
 21
150.662768909
  0
LINE
  5
2A5
100
AcDbEntity
  8
0
100
AcDbLine
 62
7
  6
CONTINUOUS
 10
325.2158981671
 20
149.4451028936
 11
324.1104991693
 21
149.0004231061
  0
LINE
  5
2A6
100
AcDbEntity
  8
0
100
AcDbLine
 62
7
  6
CONTINUOUS
 10
324.2988860195
 20
148.1330607987
 11
326.371508971
 21
148.9668353322
  0
LINE
  5
2A7
100
AcDbEntity
  8
0
100
AcDbLine
 62
7
  6
CONTINUOUS
 10
327.1169946791
 20
154.2968429684
 11
326.3465870613
 21
154.6156890416
  0
LINE
  5
2A8
100
AcDbEntity
  8
0
100
AcDbLine
 62
7
  6
CONTINUOUS
 10
323.6415478753
 20
148.9689639228
 11
323.2019172271
 21
149.2636826282
  0
LINE
  5
2A9
100
AcDbEntity
  8
0
100
AcDbLine
 62
7
  6
CONTINUOUS
 10
326.3967990609
 20
153.6927417705
 11
326.8364296123
 21
153.3980230261
  0
LINE
  5
2AA
100
AcDbEntity
  8
0
100
AcDbLine
 62
7
  6
CONTINUOUS
 10
329.3373366596
 20
136.3084654495
 11
330.3801962934
 21
135.4338303529
  0
LINE
  5
2AB
100
AcDbEntity
  8
0
100
AcDbLine
 62
7
  6
CONTINUOUS
 10
331.5716854401
 20
135.4342473239
 11
330.5288262236
 21
136.3088824207
  0
LINE
  5
2AC
100
AcDbEntity
  8
0
100
AcDbLine
 62
7
  6
CONTINUOUS
 10
322.4272947817
 20
148.7948771041
 11
322.9213527348
 21
148.3648611182
  0
LINE
  5
2AD
100
AcDbEntity
  8
0
100
AcDbLine
 62
7
  6
CONTINUOUS
 10
325.4234424984
 20
128.8804828905
 11
325.161911139
 21
129.2051336499
  0
LINE
  5
2AE
100
AcDbEntity
  8
0
100
AcDbLine
 62
7
  6
CONTINUOUS
 10
328.5637052797
 20
128.8025608362
 11
328.3021744161
 21
129.1272148981
  0
LINE
  5
2AF
100
AcDbEntity
  8
0
100
AcDbLine
 62
7
  6
CONTINUOUS
 10
331.0114103128
 20
131.7436183534
 11
330.4883481933
 21
132.3929231625
  0
LINE
  5
2B0
100
AcDbEntity
  8
0
100
AcDbLine
 62
7
  6
CONTINUOUS
 10
327.6762808023
 20
128.9075798215
 11
328.0514392345
 21
128.2757814913
  0
LINE
  5
2B1
100
AcDbEntity
  8
0
100
AcDbLine
 62
7
  6
CONTINUOUS
 10
324.5360178657
 20
128.9855018941
 11
324.7804105256
 21
128.5160272741
  0
LINE
  5
2B2
100
AcDbEntity
  8
0
100
AcDbLine
 62
7
  6
CONTINUOUS
 10
317.5542222573
 20
259.8809401853
 11
317.5542222573
 21
240.0368446453
  0
LINE
  5
2B3
100
AcDbEntity
  8
0
100
AcDbLine
 62
7
  6
CONTINUOUS
 10
321.7868163164
 20
152.7813849668
 11
321.4518250816
 21
152.0178591645
  0
LINE
  5
2B4
100
AcDbEntity
  8
0
100
AcDbLine
 62
7
  6
CONTINUOUS
 10
322.3897278149
 20
152.0807775895
 11
322.6953988815
 21
152.5181238962
  0
LINE
  5
2B5
100
AcDbEntity
  8
0
100
AcDbLine
 62
7
  6
CONTINUOUS
 10
320.1274702709
 20
153.8529707521
 11
324.8311154443
 21
159.5380536737
  0
LINE
  5
2B6
100
AcDbEntity
  8
0
100
AcDbLine
 62
7
  6
CONTINUOUS
 10
320.8717852972
 20
156.0363030687
 11
319.6642851683
 21
154.5953214514
  0
LINE
  5
2B7
100
AcDbEntity
  8
0
100
AcDbLine
 62
7
  6
CONTINUOUS
 10
324.0168950256
 20
159.7175943436
 11
321.3000182777
 21
156.4753877456
  0
LINE
  5
2B8
100
AcDbEntity
  8
0
100
AcDbLine
 62
7
  6
CONTINUOUS
 10
235.07412597
 20
59.0560421742
 11
243.1345677972
 21
68.4271703324
  0
LINE
  5
2B9
100
AcDbEntity
  8
0
100
AcDbLine
 62
7
  6
CONTINUOUS
 10
322.2306623303
 20
153.2743162762
 11
321.7868163164
 21
152.7813849668
  0
LINE
  5
2BA
100
AcDbEntity
  8
0
100
AcDbLine
 62
7
  6
CONTINUOUS
 10
231.3132448089
 20
75.697977619
 11
230.0834365831
 21
74.641114037
  0
LINE
  5
2BB
100
AcDbEntity
  8
0
100
AcDbLine
 62
7
  6
CONTINUOUS
 10
230.4973748301
 20
74.1594391361
 11
231.7271830559
 21
75.2163027182
  0
LINE
  5
2BC
100
AcDbEntity
  8
0
100
AcDbLine
 62
7
  6
CONTINUOUS
 10
327.6486191212
 20
150.5809281038
 11
327.2885209251
 21
150.2788773492
  0
LINE
  5
2BD
100
AcDbEntity
  8
0
100
AcDbLine
 62
7
  6
CONTINUOUS
 10
225.1833929287
 20
80.8322526512
 11
227.897367988
 21
82.798150025
  0
LINE
  5
2BE
100
AcDbEntity
  8
0
100
AcDbLine
 62
7
  6
CONTINUOUS
 10
229.3876450051
 20
80.7407818685
 11
226.6736699457
 21
78.7748844947
  0
LINE
  5
2BF
100
AcDbEntity
  8
0
100
AcDbLine
 62
7
  6
CONTINUOUS
 10
227.0462392
 20
78.2605424555
 11
229.7602142594
 21
80.2264398293
  0
LINE
  5
2C0
100
AcDbEntity
  8
0
100
AcDbLine
 62
7
  6
CONTINUOUS
 10
327.6150826258
 20
149.4671000055
 11
328.251530523
 21
149.8803206876
  0
LINE
  5
2C1
100
AcDbEntity
  8
0
100
AcDbLine
 62
7
  6
CONTINUOUS
 10
224.9640923801
 20
87.4552947828
 11
220.6211155643
 21
84.8183818805
  0
LINE
  5
2C2
100
AcDbEntity
  8
0
100
AcDbLine
 62
7
  6
CONTINUOUS
 10
220.9507296771
 20
84.2755097785
 11
222.8912087075
 21
85.4537049218
  0
LINE
  5
2C3
100
AcDbEntity
  8
0
100
AcDbLine
 62
7
  6
CONTINUOUS
 10
223.4456312136
 20
85.7903320607
 11
224.8316877378
 21
86.6319000651
  0
LINE
  5
2C4
100
AcDbEntity
  8
0
100
AcDbLine
 62
7
  6
CONTINUOUS
 10
225.6506573159
 20
84.033305921
 11
225.3734458039
 21
83.8649921944
  0
LINE
  5
2C5
100
AcDbEntity
  8
0
100
AcDbLine
 62
7
  6
CONTINUOUS
 10
225.6106561657
 20
83.2660155692
 11
225.9802714287
 21
83.490433819
  0
LINE
  5
2C6
100
AcDbEntity
  8
0
100
AcDbLine
 62
7
  6
CONTINUOUS
 10
325.8347669065
 20
132.3562291745
 11
326.1477137134
 21
132.4660467128
  0
LINE
  5
2C7
100
AcDbEntity
  8
0
100
AcDbLine
 62
7
  6
CONTINUOUS
 10
309.9313823481
 20
166.1171113638
 11
310.6052444486
 21
165.5589582759
  0
LINE
  5
2C8
100
AcDbEntity
  8
0
100
AcDbLine
 62
7
  6
CONTINUOUS
 10
315.0704691518
 20
170.9498550798
 11
314.3966070513
 21
171.5080081677
  0
LINE
  5
2C9
100
AcDbEntity
  8
0
100
AcDbLine
 62
7
  6
CONTINUOUS
 10
327.611051973
 20
153.8668285162
 11
327.1169946791
 21
154.2968429684
  0
LINE
  5
2CA
100
AcDbEntity
  8
0
100
AcDbLine
 62
7
  6
CONTINUOUS
 10
311.5928944081
 20
164.8989109239
 11
312.1892147144
 21
164.258577345
  0
LINE
  5
2CB
100
AcDbEntity
  8
0
100
AcDbLine
 62
7
  6
CONTINUOUS
 10
313.5806287152
 20
162.7644657119
 11
314.3757225517
 21
161.9106875049
  0
LINE
  5
2CC
100
AcDbEntity
  8
0
100
AcDbLine
 62
7
  6
CONTINUOUS
 10
315.7671364103
 20
160.4165760244
 11
316.3634567167
 21
159.7762424456
  0
LINE
  5
2CD
100
AcDbEntity
  8
0
100
AcDbLine
 62
7
  6
CONTINUOUS
 10
321.4861253477
 20
164.5468048964
 11
320.5916448881
 21
165.5073052647
  0
LINE
  5
2CE
100
AcDbEntity
  8
0
100
AcDbLine
 62
7
  6
CONTINUOUS
 10
317.6100434986
 20
168.7089730064
 11
316.715563039
 21
169.6694733747
  0
LINE
  5
2CF
100
AcDbEntity
  8
0
100
AcDbLine
 62
7
  6
CONTINUOUS
 10
323.2019172271
 20
149.2636826282
 11
322.8460347837
 21
149.7492820442
  0
LINE
  5
2D0
100
AcDbEntity
  8
0
100
AcDbLine
 62
7
  6
CONTINUOUS
 10
326.8364296123
 20
153.3980230261
 11
327.1923126786
 21
152.9124220619
  0
LINE
  5
2D1
100
AcDbEntity
  8
0
100
AcDbLine
 62
7
  6
CONTINUOUS
 10
322.0169855838
 20
149.415772223
 11
322.4272947817
 21
148.7948771041
  0
LINE
  5
2D2
100
AcDbEntity
  8
0
100
AcDbLine
 62
7
  6
CONTINUOUS
 10
328.0213617818
 20
153.2459318441
 11
327.611051973
 21
153.8668285162
  0
LINE
  5
2D3
100
AcDbEntity
  8
0
100
AcDbLine
 62
7
  6
CONTINUOUS
 10
317.0395694396
 20
158.80197565
 11
317.5027545422
 21
158.0596249507
  0
LINE
  5
2D4
100
AcDbEntity
  8
0
100
AcDbLine
 62
7
  6
CONTINUOUS
 10
319.6642851683
 20
154.5953214514
 11
320.1274702709
 21
153.8529707521
  0
LINE
  5
2D5
100
AcDbEntity
  8
0
100
AcDbLine
 62
7
  6
CONTINUOUS
 10
319.3278351024
 20
158.5108051637
 11
320.8717852972
 21
156.0363030687
  0
LINE
  5
2D6
100
AcDbEntity
  8
0
100
AcDbLine
 62
7
  6
CONTINUOUS
 10
321.3000182777
 20
156.4753877456
 11
319.9104629699
 21
158.7024398434
  0
LINE
  5
2D7
100
AcDbEntity
  8
0
100
AcDbLine
 62
7
  6
CONTINUOUS
 10
330.2376130117
 20
131.5414897557
 11
330.4820056198
 21
131.0720151418
  0
LINE
  5
2D8
100
AcDbEntity
  8
0
100
AcDbLine
 62
7
  6
CONTINUOUS
 10
321.5271430327
 20
150.6334382385
 11
322.0169855838
 21
149.415772223
  0
LINE
  5
2D9
100
AcDbEntity
  8
0
100
AcDbLine
 62
7
  6
CONTINUOUS
 10
322.8460347837
 20
149.7492820442
 11
322.3561922327
 21
150.9669480596
  0
LINE
  5
2DA
100
AcDbEntity
  8
0
100
AcDbLine
 62
7
  6
CONTINUOUS
 10
324.7260556161
 20
150.662768909
 11
325.2158981671
 21
149.4451028936
  0
LINE
  5
2DB
100
AcDbEntity
  8
0
100
AcDbLine
 62
7
  6
CONTINUOUS
 10
324.3087638665
 20
129.5998003794
 11
324.5360178657
 21
128.9855018941
  0
LINE
  5
2DC
100
AcDbEntity
  8
0
100
AcDbLine
 62
7
  6
CONTINUOUS
 10
325.161911139
 20
129.2051336499
 11
325.0482843549
 21
129.5122845476
  0
LINE
  5
2DD
100
AcDbEntity
  8
0
100
AcDbLine
 62
7
  6
CONTINUOUS
 10
331.2386642731
 20
131.1293198727
 11
331.0114103128
 21
131.7436183534
  0
LINE
  5
2DE
100
AcDbEntity
  8
0
100
AcDbLine
 62
7
  6
CONTINUOUS
 10
321.3931829371
 20
151.3655048428
 11
321.5271430327
 21
150.6334382385
  0
LINE
  5
2DF
100
AcDbEntity
  8
0
100
AcDbLine
 62
7
  6
CONTINUOUS
 10
325.0482843549
 20
129.5122845476
 11
324.9860727296
 21
130.2539004161
  0
LINE
  5
2E0
100
AcDbEntity
  8
0
100
AcDbLine
 62
7
  6
CONTINUOUS
 10
330.4820056198
 20
131.0720151418
 11
330.5442168528
 21
130.3303959586
  0
LINE
  5
2E1
100
AcDbEntity
  8
0
100
AcDbLine
 62
7
  6
CONTINUOUS
 10
326.8999557333
 20
139.6997508596
 11
327.0536625717
 21
137.6638794387
  0
LINE
  5
2E2
100
AcDbEntity
  8
0
100
AcDbLine
 62
7
  6
CONTINUOUS
 10
327.7962301795
 20
137.7199427628
 11
327.6425233411
 21
139.7558141837
  0
LINE
  5
2E3
100
AcDbEntity
  8
0
100
AcDbLine
 62
7
  6
CONTINUOUS
 10
328.4473379305
 20
114.6728574564
 11
328.4431569395
 21
114.8058697915
  0
LINE
  5
2E4
100
AcDbEntity
  8
0
100
AcDbLine
 62
7
  6
CONTINUOUS
 10
331.2665989952
 20
130.0980595855
 11
331.2386642731
 21
131.1293198727
  0
LINE
  5
2E5
100
AcDbEntity
  8
0
100
AcDbLine
 62
7
  6
CONTINUOUS
 10
324.5716858687
 20
135.4317976189
 11
324.5719920818
 21
134.5567976725
  0
LINE
  5
2E6
100
AcDbEntity
  8
0
100
AcDbLine
 62
7
  6
CONTINUOUS
 10
331.5719916532
 20
134.5592473775
 11
331.5716854401
 21
135.4342473239
  0
LINE
  5
2E7
100
AcDbEntity
  8
0
100
AcDbLine
 62
7
  6
CONTINUOUS
 10
330.5987962362
 20
117.0436327345
 11
330.5987962362
 21
115.2173847071
  0
LINE
  5
2E8
100
AcDbEntity
  8
0
100
AcDbLine
 62
7
  6
CONTINUOUS
 10
321.4518250816
 20
152.0178591645
 11
321.3931829371
 21
151.3655048428
  0
LINE
  5
2E9
100
AcDbEntity
  8
0
100
AcDbLine
 62
7
  6
CONTINUOUS
 10
328.5865223323
 20
150.6438449221
 11
328.6451638176
 21
151.2962007775
  0
LINE
  5
2EA
100
AcDbEntity
  8
0
100
AcDbLine
 62
7
  6
CONTINUOUS
 10
324.366521978
 20
131.3551766872
 11
324.2294135805
 21
130.1965923827
  0
LINE
  5
2EB
100
AcDbEntity
  8
0
100
AcDbLine
 62
7
  6
CONTINUOUS
 10
324.9860727296
 20
130.2539004161
 11
325.0889038317
 21
131.1228369871
  0
LINE
  5
2EC
100
AcDbEntity
  8
0
100
AcDbLine
 62
7
  6
CONTINUOUS
 10
326.1477137134
 20
132.4660467128
 11
326.2334061677
 21
133.1901594171
  0
LINE
  5
2ED
100
AcDbEntity
  8
0
100
AcDbLine
 62
7
  6
CONTINUOUS
 10
327.5861348472
 20
130.6804592919
 11
327.5175810407
 21
130.1011704544
  0
LINE
  5
2EE
100
AcDbEntity
  8
0
100
AcDbLine
 62
7
  6
CONTINUOUS
 10
328.109197359
 20
130.0311577975
 11
328.1777511655
 21
130.6104466351
  0
LINE
  5
2EF
100
AcDbEntity
  8
0
100
AcDbLine
 62
7
  6
CONTINUOUS
 10
329.9138701305
 20
132.6077563714
 11
329.8281776763
 21
131.8836436671
  0
LINE
  5
2F0
100
AcDbEntity
  8
0
100
AcDbLine
 62
7
  6
CONTINUOUS
 10
322.2766588675
 20
151.5637189513
 11
322.3897278149
 21
152.0807775895
  0
LINE
  5
2F1
100
AcDbEntity
  8
0
100
AcDbLine
 62
7
  6
CONTINUOUS
 10
327.761687972
 20
151.0979867031
 11
327.6486191212
 21
150.5809281038
  0
LINE
  5
2F2
100
AcDbEntity
  8
0
100
AcDbLine
 62
7
  6
CONTINUOUS
 10
327.5175810407
 20
130.1011704544
 11
327.2668458591
 21
129.2497370476
  0
LINE
  5
2F3
100
AcDbEntity
  8
0
100
AcDbLine
 62
7
  6
CONTINUOUS
 10
325.0889038317
 20
131.1228369871
 11
325.3225003655
 21
131.8294465272
  0
LINE
  5
2F4
100
AcDbEntity
  8
0
100
AcDbLine
 62
7
  6
CONTINUOUS
 10
324.582979877
 20
131.916962359
 11
324.366521978
 21
131.3551766872
  0
LINE
  5
2F5
100
AcDbEntity
  8
0
100
AcDbLine
 62
7
  6
CONTINUOUS
 10
328.251530523
 20
149.8803206876
 11
328.5865223323
 21
150.6438449221
  0
LINE
  5
2F6
100
AcDbEntity
  8
0
100
AcDbLine
 62
7
  6
CONTINUOUS
 10
324.9473422738
 20
132.4612481782
 11
324.582979877
 21
131.916962359
  0
LINE
  5
2F7
100
AcDbEntity
  8
0
100
AcDbLine
 62
7
  6
CONTINUOUS
 10
325.3225003655
 20
131.8294465272
 11
325.5046817406
 21
132.1015910965
  0
LINE
  5
2F8
100
AcDbEntity
  8
0
100
AcDbLine
 62
7
  6
CONTINUOUS
 10
325.2945660357
 20
132.8607101292
 11
324.9473422738
 21
132.4612481782
  0
LINE
  5
2F9
100
AcDbEntity
  8
0
100
AcDbLine
 62
7
  6
CONTINUOUS
 10
327.2668458591
 20
129.2497370476
 11
326.919622149
 21
128.8502750905
  0
LINE
  5
2FA
100
AcDbEntity
  8
0
100
AcDbLine
 62
7
  6
CONTINUOUS
 10
325.5046817406
 20
132.1015910965
 11
325.8347669065
 21
132.3562291745
  0
LINE
  5
2FB
100
AcDbEntity
  8
0
100
AcDbLine
 62
7
  6
CONTINUOUS
 10
329.9399153876
 20
127.7585925739
 11
330.6000859046
 21
128.2678720693
  0
LINE
  5
2FC
100
AcDbEntity
  8
0
100
AcDbLine
 62
7
  6
CONTINUOUS
 10
230.0184493485
 20
73.8874301522
 11
230.4973748301
 21
74.1594391361
  0
LINE
  5
2FD
100
AcDbEntity
  8
0
100
AcDbLine
 62
7
  6
CONTINUOUS
 10
230.0834365831
 20
74.641114037
 11
229.6864983089
 21
74.4395626187
  0
LINE
  5
2FE
100
AcDbEntity
  8
0
100
AcDbLine
 62
7
  6
CONTINUOUS
 10
325.7725551777
 20
133.0978450553
 11
325.2945660357
 21
132.8607101292
  0
LINE
  5
2FF
100
AcDbEntity
  8
0
100
AcDbLine
 62
7
  6
CONTINUOUS
 10
326.816791047
 20
127.9813385195
 11
327.2947801889
 21
128.2184734456
  0
LINE
  5
300
100
AcDbEntity
  8
0
100
AcDbLine
 62
7
  6
CONTINUOUS
 10
329.8948424101
 20
128.6450323092
 11
329.4168532681
 21
128.4078973831
  0
LINE
  5
301
100
AcDbEntity
  8
0
100
AcDbLine
 62
7
  6
CONTINUOUS
 10
226.5464063524
 20
78.0291861136
 11
227.0462392
 21
78.2605424555
  0
LINE
  5
302
100
AcDbEntity
  8
0
100
AcDbLine
 62
7
  6
CONTINUOUS
 10
226.6736699457
 20
78.7748844947
 11
226.2613846688
 21
78.6069441885
  0
LINE
  5
303
100
AcDbEntity
  8
0
100
AcDbLine
 62
7
  6
CONTINUOUS
 10
326.919622149
 20
128.8502750905
 11
326.293728328
 21
128.6306400384
  0
LINE
  5
304
100
AcDbEntity
  8
0
100
AcDbLine
 62
7
  6
CONTINUOUS
 10
324.8311154443
 20
159.5380536737
 11
324.213535013
 21
160.527855078
  0
LINE
  5
305
100
AcDbEntity
  8
0
100
AcDbLine
 62
7
  6
CONTINUOUS
 10
326.371508971
 20
148.9668353322
 11
325.5551047192
 21
150.9962786913
  0
LINE
  5
306
100
AcDbEntity
  8
0
100
AcDbLine
 62
7
  6
CONTINUOUS
 10
327.2885209251
 20
150.2788773492
 11
327.6150826258
 21
149.4671000055
  0
LINE
  5
307
100
AcDbEntity
  8
0
100
AcDbLine
 62
7
  6
CONTINUOUS
 10
327.1923126786
 20
152.9124220619
 11
327.6821552296
 21
151.6947560464
  0
LINE
  5
308
100
AcDbEntity
  8
0
100
AcDbLine
 62
7
  6
CONTINUOUS
 10
328.5112043328
 20
152.0282658286
 11
328.0213617818
 21
153.2459318441
  0
LINE
  5
309
100
AcDbEntity
  8
0
100
AcDbLine
 62
7
  6
CONTINUOUS
 10
317.1307154747
 20
215.2848943945
 11
322.2027403446
 21
197.5966416034
  0
LINE
  5
30A
100
AcDbEntity
  8
0
100
AcDbLine
 62
7
  6
CONTINUOUS
 10
328.3021744161
 20
129.1272148981
 11
328.109197359
 21
130.0311577975
  0
LINE
  5
30B
100
AcDbEntity
  8
0
100
AcDbLine
 62
7
  6
CONTINUOUS
 10
323.1278816491
 20
146.3944534328
 11
323.3078024238
 21
145.5381511994
  0
LINE
  5
30C
100
AcDbEntity
  8
0
100
AcDbLine
 62
7
  6
CONTINUOUS
 10
324.1474329342
 20
141.5420730216
 11
324.3273537089
 21
140.6857707882
  0
LINE
  5
30D
100
AcDbEntity
  8
0
100
AcDbLine
 62
7
  6
CONTINUOUS
 10
326.5143810258
 20
146.2118970844
 11
327.3540115363
 21
142.2158189066
  0
LINE
  5
30E
100
AcDbEntity
  8
0
100
AcDbLine
 62
7
  6
CONTINUOUS
 10
328.2285328618
 20
142.3995677609
 11
327.3889023514
 21
146.3956459388
  0
LINE
  5
30F
100
AcDbEntity
  8
0
100
AcDbLine
 62
7
  6
CONTINUOUS
 10
331.1777715757
 20
142.1251369854
 11
330.9978508011
 21
142.9814392188
  0
LINE
  5
310
100
AcDbEntity
  8
0
100
AcDbLine
 62
7
  6
CONTINUOUS
 10
330.1582202906
 20
146.9775173966
 11
329.978299516
 21
147.83381963
  0
LINE
  5
311
100
AcDbEntity
  8
0
100
AcDbLine
 62
7
  6
CONTINUOUS
 10
328.6451638176
 20
151.2962007775
 11
328.5112043328
 21
152.0282658286
  0
LINE
  5
312
100
AcDbEntity
  8
0
100
AcDbLine
 62
7
  6
CONTINUOUS
 10
322.3561922327
 20
150.9669480596
 11
322.2766588675
 21
151.5637189513
  0
LINE
  5
313
100
AcDbEntity
  8
0
100
AcDbLine
 62
7
  6
CONTINUOUS
 10
327.6821552296
 20
151.6947560464
 11
327.761687972
 21
151.0979867031
  0
LINE
  5
314
100
AcDbEntity
  8
0
100
AcDbLine
 62
7
  6
CONTINUOUS
 10
324.2294135805
 20
130.1965923827
 11
324.3087638665
 21
129.5998003794
  0
LINE
  5
315
100
AcDbEntity
  8
0
100
AcDbLine
 62
7
  6
CONTINUOUS
 10
330.5442168528
 20
130.3303959586
 11
330.4756630463
 21
129.751107121
  0
LINE
  5
316
100
AcDbEntity
  8
0
100
AcDbLine
 62
7
  6
CONTINUOUS
 10
331.2323216996
 20
129.808411852
 11
331.2665989952
 21
130.0980595855
  0
LINE
  5
317
100
AcDbEntity
  8
BEZUGSACHSEN
100
AcDbLine
 62
7
  6
CONTINUOUS
 10
337.258231358
 20
100.554718081
 11
338.1156441182
 21
106.1579355606
  0
LINE
  5
318
100
AcDbEntity
  8
0
100
AcDbLine
 62
7
  6
CONTINUOUS
 10
330.9644482625
 20
128.8121578932
 11
331.2323216996
 21
129.808411852
  0
LINE
  5
319
100
AcDbEntity
  8
0
100
AcDbLine
 62
7
  6
CONTINUOUS
 10
330.4756630463
 20
129.751107121
 11
330.2420661202
 21
129.0444942663
  0
LINE
  5
31A
100
AcDbEntity
  8
0
100
AcDbLine
 62
7
  6
CONTINUOUS
 10
327.2947801889
 20
128.2184734456
 11
327.6762808023
 21
128.9075798215
  0
LINE
  5
31B
100
AcDbEntity
  8
0
100
AcDbLine
 62
7
  6
CONTINUOUS
 10
330.6000859046
 20
128.2678720693
 11
330.9644482625
 21
128.8121578932
  0
LINE
  5
31C
100
AcDbEntity
  8
0
100
AcDbLine
 62
7
  6
CONTINUOUS
 10
328.4431569395
 20
114.8058697915
 11
321.7782544199
 21
105.5306764732
  0
LINE
  5
31D
100
AcDbEntity
  8
0
100
AcDbLine
 62
7
  6
CONTINUOUS
 10
274.7220741302
 20
52.6419459482
 11
267.0605658428
 21
43.7346208181
  0
LINE
  5
31E
100
AcDbEntity
  8
0
100
AcDbLine
 62
7
  6
CONTINUOUS
 10
330.2420661202
 20
129.0444942663
 11
329.8948424101
 21
128.6450323092
  0
LINE
  5
31F
100
AcDbEntity
  8
0
100
AcDbLine
 62
7
  6
CONTINUOUS
 10
333.0169370629
 20
81.5237967852
 11
335.5366265572
 21
91.8599784835
  0
LINE
  5
320
100
AcDbEntity
  8
0
100
AcDbLine
 62
7
  6
CONTINUOUS
 10
340.2751234088
 20
106.130722965
 11
339.8051340379
 21
104.2456985573
  0
LINE
  5
321
100
AcDbEntity
  8
0
100
AcDbLine
 62
7
  6
CONTINUOUS
 10
276.1926855719
 20
45.0018935549
 11
282.5135637021
 21
52.3505923361
  0
LINE
  5
322
100
AcDbEntity
  8
0
100
AcDbLine
 62
7
  6
CONTINUOUS
 10
275.3042222573
 20
231.7278508881
 11
275.4424028698
 21
231.7278508881
  0
LINE
  5
323
100
AcDbEntity
  8
0
100
AcDbLine
 62
7
  6
CONTINUOUS
 10
289.6660416447
 20
231.7278508881
 11
289.8042222573
 21
231.7278508881
  0
LINE
  5
324
100
AcDbEntity
  8
BEZUGSACHSEN
100
AcDbLine
 62
7
  6
CONTINUOUS
 10
275.3042222573
 20
240.7178508881
 11
289.8042222573
 21
240.7178508881
  0
LINE
  5
325
100
AcDbEntity
  8
0
100
AcDbLine
 62
7
  6
CONTINUOUS
 10
316.8523555866
 20
261.8093030143
 11
310.5658960791
 21
269.3012137171
  0
LINE
  5
326
100
AcDbEntity
  8
BEZUGSACHSEN
100
AcDbLine
 62
7
  6
CONTINUOUS
 10
289.8042222573
 20
259.0678508881
 11
275.3042222573
 21
259.0678508881
  0
LINE
  5
327
100
AcDbEntity
  8
KONSTRUKTIONSELEMENTE
100
AcDbLine
 62
7
  6
CONTINUOUS
 10
308.2677627497
 20
270.3728508881
 11
302.3707177195
 21
270.3728508881
  0
LINE
  5
328
100
AcDbEntity
  8
0
100
AcDbLine
 62
7
  6
CONTINUOUS
 10
262.737726795
 20
270.3728508881
 11
254.92684265
 21
270.3728508881
  0
LWPOLYLINE
  5
329
100
AcDbEntity
  8
0
100
AcDbPolyline
 62
7
  6
CONTINUOUS
 90
19
 70
0
 10
104.5122368997
 20
33.5405083014
 10
104.6901759741
 20
33.5472401579
 10
105.0748675546
 20
33.5867875533
 10
105.4551179347
 20
33.6603456066
 10
105.8276419477
 20
33.7674263199
 10
106.1892743819
 20
33.9072000335
 10
106.5370685032
 20
34.0785656562
 10
106.8681178974
 20
34.2800905718
 10
107.1798435183
 20
34.5101811729
 10
107.4697673042
 20
34.7669834248
 10
107.7356106553
 20
35.0484465345
 10
107.97527767
 20
35.3523125105
 10
108.1868987824
 20
35.6761661382
 10
108.368816961
 20
36.0174206681
 10
108.5196297727
 20
36.373393012
 10
108.638165911
 20
36.74127237
 10
108.7235091309
 20
37.1181810847
 10
108.7749927766
 20
37.5011826541
 10
108.7922004306
 20
37.8872269402
  0
LINE
  5
32A
100
AcDbEntity
  8
0
100
AcDbLine
 62
7
  6
CONTINUOUS
 10
104.5122366565
 20
33.5405081789
 11
98.9215164306
 21
33.4429217944
  0
LINE
  5
32B
100
AcDbEntity
  8
AUSFORMSCHRAEGEN
100
AcDbLine
 62
7
  6
CONTINUOUS
 10
98.9215164306
 20
33.4429217944
 11
93.3307962047
 21
33.5405081789
  0
LINE
  5
32C
100
AcDbEntity
  8
0
100
AcDbLine
 62
7
  6
CONTINUOUS
 10
110.2265526887
 20
53.7324566743
 11
108.7922004306
 21
53.7324566743
  0
LINE
  5
32D
100
AcDbEntity
  8
KONSTRUKTIONSELEMENTE
100
AcDbLine
 62
7
  6
CONTINUOUS
 10
89.0508324306
 20
53.7324566743
 11
87.6164801725
 21
53.7324566743
  0
LINE
  5
32E
100
AcDbEntity
  8
BEZUGSACHSEN
100
AcDbLine
 62
7
  6
CONTINUOUS
 10
89.0508324306
 20
56.1276265259
 11
88.4995678124
 21
56.1276265259
  0
LINE
  5
32F
100
AcDbEntity
  8
0
100
AcDbLine
 62
7
  6
CONTINUOUS
 10
108.7922004306
 20
56.1276265259
 11
109.3434650488
 21
56.1276265259
  0
LINE
  5
330
100
AcDbEntity
  8
0
100
AcDbLine
 62
7
  6
CONTINUOUS
 10
84.864221662
 20
263.6152911832
 11
82.8619936409
 21
261.1117617724
  0
LINE
  5
331
100
AcDbEntity
  8
0
100
AcDbLine
 62
7
  6
CONTINUOUS
 10
91.4215164306
 20
104.2456985573
 11
106.4215164306
 21
104.2456985573
  0
LINE
  5
332
100
AcDbEntity
  8
RUNDUNGEN
100
AcDbLine
 62
7
  6
CONTINUOUS
 10
89.595790177
 20
80.4487012408
 11
89.9335809306
 21
79.367970054
  0
LINE
  5
333
100
AcDbEntity
  8
RUNDUNGEN
100
AcDbLine
 62
7
  6
CONTINUOUS
 10
89.1118012143
 20
82.0282831886
 11
89.595790177
 21
80.4487012408
  0
LINE
  5
334
100
AcDbEntity
  8
RUNDUNGEN
100
AcDbLine
 62
7
  6
CONTINUOUS
 10
88.028795765
 20
85.5825651684
 11
89.1118012143
 21
82.0282831886
  0
LWPOLYLINE
  5
335
100
AcDbEntity
  8
RUNDUNGEN
100
AcDbPolyline
 62
7
  6
CONTINUOUS
 90
7
 70
0
 10
89.9335851096
 20
79.3679580609
 10
90.0711772349
 20
78.8949706136
 10
90.2211423645
 20
78.2605353786
 10
90.3309617339
 20
77.6339102434
 10
90.4017551996
 20
77.0176269488
 10
90.434534381
 20
76.4139849866
 10
90.4357235534
 20
76.0193357059
  0
LWPOLYLINE
  5
336
100
AcDbEntity
  8
RUNDUNGEN
100
AcDbPolyline
 62
7
  6
CONTINUOUS
 90
7
 70
0
 10
80.9385979401
 20
133.351889927
 10
81.0720593057
 20
131.911914532
 10
81.2263447776
 20
130.1792385477
 10
81.381571891
 20
128.3674546584
 10
81.5375993097
 20
126.4825640814
 10
81.694330391
 20
124.5305155025
 10
81.8516839728
 20
122.5174739196
  0
LINE
  5
337
100
AcDbEntity
  8
RUNDUNGEN
100
AcDbLine
 62
7
  6
CONTINUOUS
 10
81.8516839728
 20
122.5174739196
 11
82.1679689185
 21
118.3343746702
  0
LINE
  5
338
100
AcDbEntity
  8
RUNDUNGEN
100
AcDbLine
 62
7
  6
CONTINUOUS
 10
82.1679689185
 20
118.3343746702
 11
82.4859392204
 21
113.9872720057
  0
LINE
  5
339
100
AcDbEntity
  8
RUNDUNGEN
100
AcDbLine
 62
7
  6
CONTINUOUS
 10
82.4859392204
 20
113.9872720057
 11
82.9894111881
 21
106.9416736265
  0
LINE
  5
33A
100
AcDbEntity
  8
RUNDUNGEN
100
AcDbLine
 62
7
  6
CONTINUOUS
 10
80.9385848221
 20
133.352028663
 11
80.9216076937
 21
133.6881754491
  0
LWPOLYLINE
  5
33B
100
AcDbEntity
  8
RUNDUNGEN
100
AcDbPolyline
 62
7
  6
CONTINUOUS
 90
19
 70
0
 10
89.0508324306
 20
37.8872269399
 10
89.0681334285
 20
37.5001390496
 10
89.1198956188
 20
37.116118585
 10
89.2056981701
 20
36.7382401412
 10
89.3248670206
 20
36.3694645423
 10
89.4764755504
 20
36.0126928768
 10
89.6593398386
 20
35.6707569634
 10
89.8720424815
 20
35.3463595601
 10
90.1129088022
 20
35.0421058264
 10
90.3800497309
 20
34.7604269957
 10
90.6713472548
 20
34.5035953788
 10
90.984499124
 20
34.2736732332
 10
91.3170021416
 20
34.0725231582
 10
91.6662520631
 20
33.9017440471
 10
92.029312855
 20
33.7627715557
 10
92.4032097714
 20
33.6567052651
 10
92.7847455306
 20
33.584369805
 10
93.1706025601
 20
33.5462427353
 10
93.3307964044
 20
33.5405082939
  0
LWPOLYLINE
  5
33C
100
AcDbEntity
  8
RUNDUNGEN
100
AcDbPolyline
 62
7
  6
CONTINUOUS
 90
16
 70
0
 10
78.9215932324
 20
165.0858047909
 10
78.9300061128
 20
164.8268651831
 10
78.9510481047
 20
164.5739956436
 10
78.9837643794
 20
164.3281934033
 10
79.0271384523
 20
164.0901946821
 10
79.0800876543
 20
163.8606833009
 10
79.1415508687
 20
163.639987443
 10
79.2101683848
 20
163.4291856612
 10
79.284573884
 20
163.2288812997
 10
79.3632433274
 20
163.0397625836
 10
79.4447867757
 20
162.8619575102
 10
79.5274186287
 20
162.6962609299
 10
79.6094644246
 20
162.5429555363
 10
79.6897281965
 20
162.4013932566
 10
79.7669844638
 20
162.2711201644
 10
79.7875071075
 20
162.2372858489
  0
LWPOLYLINE
  5
33D
100
AcDbEntity
  8
0
100
AcDbPolyline
 62
7
  6
CONTINUOUS
 90
14
 70
0
 10
80.6715447915
 20
226.7643301668
 10
80.6783428972
 20
226.4930147724
 10
80.703723061
 20
226.0857391223
 10
80.7479121502
 20
225.6136908134
 10
80.812942615
 20
225.0731188284
 10
80.9018442474
 20
224.4607279216
 10
81.0170266423
 20
223.780260143
 10
81.161825486
 20
223.030418041
 10
81.3400163207
 20
222.2095718541
 10
81.5562973462
 20
221.3140335765
 10
81.8162295166
 20
220.3393111988
 10
82.1264056117
 20
219.2801194768
 10
82.4945557106
 20
218.1308440731
 10
82.9315149807
 20
216.8806850496
  0
LWPOLYLINE
  5
33E
100
AcDbEntity
  8
RUNDUNGEN
100
AcDbPolyline
 62
7
  6
CONTINUOUS
 90
7
 70
0
 10
87.5873739317
 20
88.5379807425
 10
87.5939683809
 20
88.1709264822
 10
87.6313317502
 20
87.5925147408
 10
87.7013255152
 20
87.0201532977
 10
87.8034532141
 20
86.4554065623
 10
87.9371177325
 20
85.8998643034
 10
88.0287897697
 20
85.5825847044
  0
LINE
  5
33F
100
AcDbEntity
  8
RUNDUNGEN
100
AcDbLine
 62
7
  6
CONTINUOUS
 10
78.9215164306
 20
204.1001388265
 11
78.9215932324
 21
165.0858047909
  0
LINE
  5
340
100
AcDbEntity
  8
0
100
AcDbLine
 62
7
  6
CONTINUOUS
 10
80.6715164306
 20
254.8658548078
 11
80.6715443294
 21
226.7648794487
  0
LINE
  5
341
100
AcDbEntity
  8
RUNDUNGEN
100
AcDbLine
 62
7
  6
CONTINUOUS
 10
80.9215164306
 20
133.7138188128
 11
80.9215164306
 21
159.9035431666
  0
LINE
  5
342
100
AcDbEntity
  8
RUNDUNGEN
100
AcDbLine
 62
7
  6
CONTINUOUS
 10
87.5873739306
 20
88.5378591325
 11
87.5873739306
 21
103.1824434433
  0
LINE
  5
343
100
AcDbEntity
  8
0
100
AcDbLine
 62
7
  6
CONTINUOUS
 10
88.4215164306
 20
121.482562773
 11
88.4215164306
 21
107.0866373837
  0
LWPOLYLINE
  5
344
100
AcDbEntity
  8
RUNDUNGEN
100
AcDbPolyline
 62
7
  6
CONTINUOUS
 90
5
 70
0
 10
79.7875605737
 20
162.237218945
 10
79.8500024244
 20
162.1369793647
 10
79.9633171629
 20
161.9655929853
 10
80.0828100974
 20
161.7976908538
 10
80.1543841663
 20
161.702667524
  0
LWPOLYLINE
  5
345
100
AcDbEntity
  8
0
100
AcDbPolyline
 62
7
  6
CONTINUOUS
 90
11
 70
0
 10
109.3864191454
 20
69.3925052395
 10
109.3849035157
 20
69.3975418875
 10
109.375429402
 20
69.4302520788
 10
109.3592794972
 20
69.4896738319
 10
109.3375556592
 20
69.5747216943
 10
109.3110130917
 20
69.685015684
 10
109.2803793633
 20
69.819795617
 10
109.2461689848
 20
69.9787784878
 10
109.2088810521
 20
70.1613923588
 10
109.1688697316
 20
70.3674400025
 10
109.1264800538
 20
70.5965053664
  0
LINE
  5
346
100
AcDbEntity
  8
0
100
AcDbLine
 62
7
  6
CONTINUOUS
 10
90.9062624875
 20
175.0874838202
 11
90.9429933928
 21
174.0177318485
  0
LINE
  5
347
100
AcDbEntity
  8
RUNDUNGEN
100
AcDbLine
 62
7
  6
CONTINUOUS
 10
90.9429933928
 20
174.0177318485
 11
90.9429909713
 21
174.0178072744
  0
LINE
  5
348
100
AcDbEntity
  8
0
100
AcDbLine
 62
7
  6
CONTINUOUS
 10
90.9429909896
 20
174.0178072749
 11
91.0292074174
 21
171.0153557442
  0
LINE
  5
349
100
AcDbEntity
  8
0
100
AcDbLine
 62
7
  6
CONTINUOUS
 10
91.0292074174
 20
171.0153557442
 11
91.0534768574
 21
169.9110628693
  0
LWPOLYLINE
  5
34A
100
AcDbEntity
  8
0
100
AcDbPolyline
 62
7
  6
CONTINUOUS
 90
4
 70
0
 10
91.1711763514
 20
175.3316556118
 10
91.1712713377
 20
174.8278870945
 10
91.1626106918
 20
173.615846214
 10
91.1449109172
 20
172.5751859128
  0
LINE
  5
34B
100
AcDbEntity
  8
RUNDUNGEN
100
AcDbLine
 62
7
  6
CONTINUOUS
 10
89.0508324306
 20
37.8872267447
 11
89.0508324306
 21
56.7798750301
  0
LINE
  5
34C
100
AcDbEntity
  8
0
100
AcDbLine
 62
7
  6
CONTINUOUS
 10
98.9215164306
 20
33.4429217944
 11
98.9215164306
 21
91.8599784835
  0
LINE
  5
34D
100
AcDbEntity
  8
BEZUGSACHSEN
100
AcDbLine
 62
7
  6
CONTINUOUS
 10
98.9215164306
 20
100.554718081
 11
98.9215164306
 21
104.2456985573
  0
LWPOLYLINE
  5
34E
100
AcDbEntity
  8
0
100
AcDbPolyline
 62
7
  6
CONTINUOUS
 90
7
 70
0
 10
91.1449116168
 20
172.5751871813
 10
91.0971362797
 20
170.9135166167
 10
91.0162137127
 20
169.0554725514
 10
90.9055062278
 20
167.1738819563
 10
90.7648875193
 20
165.2700968218
 10
90.5942832097
 20
163.3454946785
 10
90.0321202321
 20
157.8683964567
  0
LWPOLYLINE
  5
34F
100
AcDbEntity
  8
0
100
AcDbPolyline
 62
7
  6
CONTINUOUS
 90
10
 70
0
 10
90.0321202321
 20
157.8683964567
 10
89.6778111622
 20
153.9257634307
 10
89.369434228
 20
149.9342360267
 10
89.1065070772
 20
145.9016103259
 10
88.8883251871
 20
141.8356029124
 10
88.7138103789
 20
137.7448553367
 10
88.5816781765
 20
133.6380403799
 10
88.4902270998
 20
129.5230768833
 10
88.4375855732
 20
125.4080348211
 10
88.4215167662
 20
121.482562647
  0
LWPOLYLINE
  5
350
100
AcDbEntity
  8
RUNDUNGEN
100
AcDbPolyline
 62
7
  6
CONTINUOUS
 90
4
 70
0
 10
87.6236450756
 20
103.8228705677
 10
87.6024367666
 20
103.5949226936
 10
87.5904276538
 20
103.3683206537
 10
87.5873740736
 20
103.182717181
  0
LWPOLYLINE
  5
351
100
AcDbEntity
  8
RUNDUNGEN
100
AcDbPolyline
 62
7
  6
CONTINUOUS
 90
3
 70
0
 10
89.8526859651
 20
79.6254750452
 10
89.7606082432
 20
78.7550347409
 10
89.5826759722
 20
77.1354116975
  0
LINE
  5
352
100
AcDbEntity
  8
RUNDUNGEN
100
AcDbLine
 62
7
  6
CONTINUOUS
 10
89.5826759722
 20
77.1354116975
 11
89.3205616443
 21
74.8685602083
  0
LINE
  5
353
100
AcDbEntity
  8
RUNDUNGEN
100
AcDbLine
 62
7
  6
CONTINUOUS
 10
87.6548152095
 20
104.0572853086
 11
87.6236450756
 21
103.8228705677
  0
LINE
  5
354
100
AcDbEntity
  8
RUNDUNGEN
100
AcDbLine
 62
7
  6
CONTINUOUS
 10
87.6548816911
 20
104.0577235489
 11
87.6548152095
 21
104.0572853087
  0
LINE
  5
355
100
AcDbEntity
  8
RUNDUNGEN
100
AcDbLine
 62
7
  6
CONTINUOUS
 10
87.6679375215
 20
104.1386728447
 11
87.6548816911
 21
104.0577235489
  0
LWPOLYLINE
  5
356
100
AcDbEntity
  8
RUNDUNGEN
100
AcDbPolyline
 62
7
  6
CONTINUOUS
 90
3
 70
0
 10
87.7105778507
 20
104.3578320924
 10
87.688096806
 20
104.2494018824
 10
87.6679375215
 20
104.1386728447
  0
LWPOLYLINE
  5
357
100
AcDbEntity
  8
RUNDUNGEN
100
AcDbPolyline
 62
7
  6
CONTINUOUS
 90
15
 70
0
 10
113.6178343073
 20
213.4592662384
 10
114.9115178806
 20
216.8806850496
 10
115.3484771506
 20
218.1308440731
 10
115.7166272496
 20
219.2801194768
 10
116.0268033446
 20
220.3393111988
 10
116.286735515
 20
221.3140335765
 10
116.5030165406
 20
222.2095718541
 10
116.6812073752
 20
223.030418041
 10
116.826006219
 20
223.780260143
 10
116.9411886138
 20
224.4607279216
 10
117.0300902462
 20
225.0731188284
 10
117.095120711
 20
225.6136908134
 10
117.1393098003
 20
226.0857391223
 10
117.1646899641
 20
226.4930147724
 10
117.1714880698
 20
226.7643301668
  0
LINE
  5
358
100
AcDbEntity
  8
RUNDUNGEN
100
AcDbLine
 62
7
  6
CONTINUOUS
 10
114.4683946311
 20
215.7102909412
 11
114.4683584844
 21
215.7101988579
  0
LINE
  5
359
100
AcDbEntity
  8
RUNDUNGEN
100
AcDbLine
 62
7
  6
CONTINUOUS
 10
80.1543479978
 20
161.7027145695
 11
80.1548107395
 21
161.7021128905
  0
LWPOLYLINE
  5
35A
100
AcDbEntity
  8
RUNDUNGEN
100
AcDbPolyline
 62
7
  6
CONTINUOUS
 90
9
 70
0
 10
80.1547650414
 20
161.702100169
 10
80.3077745388
 20
161.4925378538
 10
80.4891734824
 20
161.2098323498
 10
80.6387820394
 20
160.9337497411
 10
80.754730898
 20
160.6720551532
 10
80.8373447445
 20
160.4320226673
 10
80.8897334205
 20
160.217128968
 10
80.9159037192
 20
160.0307228689
 10
80.9215164336
 20
159.90340527
  0
LINE
  5
35B
100
AcDbEntity
  8
0
100
AcDbLine
 62
7
  6
CONTINUOUS
 10
110.0515524773
 20
104.684599017
 11
110.0515706337
 21
104.6845317658
  0
LINE
  5
35C
100
AcDbEntity
  8
0
100
AcDbLine
 62
7
  6
CONTINUOUS
 10
110.0715683171
 20
104.6090230364
 11
109.7967827786
 21
105.6492724238
  0
LINE
  5
35D
100
AcDbEntity
  8
0
100
AcDbLine
 62
7
  6
CONTINUOUS
 10
109.7967827786
 20
105.6492724238
 11
109.5026530297
 21
106.8232508364
  0
LWPOLYLINE
  5
35E
100
AcDbEntity
  8
0
100
AcDbPolyline
 62
7
  6
CONTINUOUS
 90
4
 70
0
 10
110.1212456057
 20
104.4073068489
 10
110.1144726477
 20
104.4361612435
 10
110.0938326902
 20
104.5213319021
 10
110.0715683171
 20
104.6090230364
  0
LINE
  5
35F
100
AcDbEntity
  8
0
100
AcDbLine
 62
7
  6
CONTINUOUS
 10
109.5026530297
 20
106.8232508364
 11
109.4215164306
 21
107.1693980056
  0
LINE
  5
360
100
AcDbEntity
  8
0
100
AcDbLine
 62
7
  6
CONTINUOUS
 10
110.1324550105
 20
104.3578320924
 11
110.1212375333
 21
104.4073415269
  0
LINE
  5
361
100
AcDbEntity
  8
0
100
AcDbLine
 62
7
  6
CONTINUOUS
 10
88.1658754373
 20
199.587986039
 11
88.5646562916
 21
197.6054256268
  0
LINE
  5
362
100
AcDbEntity
  8
0
100
AcDbLine
 62
7
  6
CONTINUOUS
 10
88.5646198534
 20
197.6056155638
 11
88.5646562916
 21
197.6054256268
  0
LWPOLYLINE
  5
363
100
AcDbEntity
  8
0
100
AcDbPolyline
 62
7
  6
CONTINUOUS
 90
16
 70
0
 10
88.564620594
 20
197.6056157065
 10
88.8359692988
 20
196.1351681242
 10
89.116238482
 20
194.4861408602
 10
89.3707361832
 20
192.8481307194
 10
89.6009173302
 20
191.2226789826
 10
89.8079900062
 20
189.6131439468
 10
89.9932531441
 20
188.0227518104
 10
90.1580403779
 20
186.454939132
 10
90.3037455297
 20
184.912963717
 10
90.4317939352
 20
183.3998638671
 10
90.5435982361
 20
181.9186761767
 10
90.6405716339
 20
180.4719984017
 10
90.7240534788
 20
179.0628195537
 10
90.7953512015
 20
177.6937914596
 10
90.8556850167
 20
176.368068204
 10
90.9062624875
 20
175.0874838202
  0
LINE
  5
364
100
AcDbEntity
  8
0
100
AcDbLine
 62
7
  6
CONTINUOUS
 10
109.1264800538
 20
70.5965053664
 11
109.0819665801
 21
70.8484149598
  0
LINE
  5
365
100
AcDbEntity
  8
0
100
AcDbLine
 62
7
  6
CONTINUOUS
 10
108.5224712169
 20
74.8685602083
 11
108.2603568891
 21
77.1354116975
  0
LINE
  5
366
100
AcDbEntity
  8
0
100
AcDbLine
 62
7
  6
CONTINUOUS
 10
108.2603568891
 20
77.1354116975
 11
108.0163910899
 21
79.3792709095
  0
LINE
  5
367
100
AcDbEntity
  8
0
100
AcDbLine
 62
7
  6
CONTINUOUS
 10
108.0163910899
 20
79.3792709095
 11
107.9903468962
 21
79.6254750452
  0
LWPOLYLINE
  5
368
100
AcDbEntity
  8
RUNDUNGEN
100
AcDbPolyline
 62
7
  6
CONTINUOUS
 90
7
 70
0
 10
107.8109126291
 20
157.8683964567
 10
107.2487496515
 20
163.3454946785
 10
107.078145342
 20
165.2700968218
 10
106.9375266334
 20
167.1738819563
 10
106.8268191485
 20
169.0554725514
 10
106.7458965815
 20
170.9135166167
 10
106.6981212444
 20
172.5751871813
  0
LWPOLYLINE
  5
369
100
AcDbEntity
  8
RUNDUNGEN
100
AcDbPolyline
 62
7
  6
CONTINUOUS
 90
4
 70
0
 10
106.6981219411
 20
172.5751860462
 10
106.6795102017
 20
173.6912471045
 10
106.6715729283
 20
174.9796378893
 10
106.6718940354
 20
175.3304509557
  0
LWPOLYLINE
  5
36A
100
AcDbEntity
  8
0
100
AcDbPolyline
 62
7
  6
CONTINUOUS
 90
4
 70
0
 10
110.2556587877
 20
103.182717181
 10
110.2526052074
 20
103.3683206537
 10
110.2405960947
 20
103.5949226936
 10
110.2193877856
 20
103.8228705677
  0
LWPOLYLINE
  5
36B
100
AcDbEntity
  8
RUNDUNGEN
100
AcDbPolyline
 62
7
  6
CONTINUOUS
 90
10
 70
0
 10
109.4215160951
 20
121.482562649
 10
109.4054472881
 20
125.4080348211
 10
109.3528057615
 20
129.5230768833
 10
109.2613546847
 20
133.6380403799
 10
109.1292224824
 20
137.7448553367
 10
108.9547076742
 20
141.8356029124
 10
108.7365257841
 20
145.9016103259
 10
108.4735986333
 20
149.9342360267
 10
108.1652216991
 20
153.9257634307
 10
107.8109126291
 20
157.8683964567
  0
LINE
  5
36C
100
AcDbEntity
  8
0
100
AcDbLine
 62
7
  6
CONTINUOUS
 10
108.7922004306
 20
37.8872267453
 11
108.7922004306
 21
56.7798750301
  0
LINE
  5
36D
100
AcDbEntity
  8
0
100
AcDbLine
 62
7
  6
CONTINUOUS
 10
109.4215164306
 20
121.4820691722
 11
109.4215164306
 21
107.0866373837
  0
LINE
  5
36E
100
AcDbEntity
  8
RUNDUNGEN
100
AcDbLine
 62
7
  6
CONTINUOUS
 10
109.4215164306
 20
107.0866373837
 11
109.4215164306
 21
121.4825623204
  0
LINE
  5
36F
100
AcDbEntity
  8
0
100
AcDbLine
 62
7
  6
CONTINUOUS
 10
110.2556589306
 20
88.5378591325
 11
110.2556589306
 21
103.1824434433
  0
LWPOLYLINE
  5
370
100
AcDbEntity
  8
0
100
AcDbPolyline
 62
7
  6
CONTINUOUS
 90
7
 70
0
 10
107.4073093119
 20
76.0193354818
 10
107.4088305406
 20
76.4276405131
 10
107.4422338948
 20
77.0288578697
 10
107.5133239402
 20
77.6425292736
 10
107.6230946515
 20
78.266385586
 10
107.7726472661
 20
78.8979295691
 10
107.9094477742
 20
79.3679581327
  0
LINE
  5
371
100
AcDbEntity
  8
RUNDUNGEN
100
AcDbLine
 62
7
  6
CONTINUOUS
 10
106.7895615863
 20
169.9109346931
 11
106.8126459569
 21
170.9687544909
  0
LINE
  5
372
100
AcDbEntity
  8
RUNDUNGEN
100
AcDbLine
 62
7
  6
CONTINUOUS
 10
106.8126459569
 20
170.9687544909
 11
106.9000418707
 21
174.0178072446
  0
LWPOLYLINE
  5
373
100
AcDbEntity
  8
RUNDUNGEN
100
AcDbPolyline
 62
7
  6
CONTINUOUS
 90
17
 70
0
 10
106.9000394684
 20
174.0177318485
 10
106.9367703737
 20
175.0874838202
 10
106.9873478446
 20
176.368068204
 10
107.0476816597
 20
177.6937914596
 10
107.1189793824
 20
179.0628195537
 10
107.2024612273
 20
180.4719984017
 10
107.2994346252
 20
181.9186761767
 10
107.4112389261
 20
183.3998638671
 10
107.5392873316
 20
184.912963717
 10
107.6849924833
 20
186.454939132
 10
107.8497797172
 20
188.0227518104
 10
108.0350428551
 20
189.6131439468
 10
108.242115531
 20
191.2226789826
 10
108.472296678
 20
192.8481307194
 10
108.7267943793
 20
194.4861408602
 10
109.0070635625
 20
196.1351681242
 10
109.2784122672
 20
197.6056157065
  0
LINE
  5
374
100
AcDbEntity
  8
RUNDUNGEN
100
AcDbLine
 62
7
  6
CONTINUOUS
 10
88.7608616843
 20
70.8472312183
 11
88.71711273
 21
70.5996027949
  0
LWPOLYLINE
  5
375
100
AcDbEntity
  8
RUNDUNGEN
100
AcDbPolyline
 62
7
  6
CONTINUOUS
 90
10
 70
0
 10
88.71711273
 20
70.5996027949
 10
88.6754723256
 20
70.3743517363
 10
88.6361484106
 20
70.171431729
 10
88.5994400977
 20
69.9910906567
 10
88.5656521204
 20
69.8333855979
 10
88.5352336017
 20
69.6987959099
 10
88.5086410363
 20
69.587522727
 10
88.4865673971
 20
69.5003894274
 10
88.4697144695
 20
69.4377937391
 10
88.4679384812
 20
69.4314437351
  0
LINE
  5
376
100
AcDbEntity
  8
RUNDUNGEN
100
AcDbLine
 62
7
  6
CONTINUOUS
 10
109.2784130078
 20
197.6056155638
 11
109.2783765696
 21
197.6054256268
  0
LWPOLYLINE
  5
377
100
AcDbEntity
  8
RUNDUNGEN
100
AcDbPolyline
 62
7
  6
CONTINUOUS
 90
8
 70
0
 10
109.2783765696
 20
197.6054256268
 10
109.6771574239
 20
199.587986039
 10
110.1708014777
 20
201.8132991659
 10
110.7249018141
 20
204.0778023686
 10
111.3430088559
 20
206.3781016465
 10
112.0288261546
 20
208.711363462
 10
112.785821248
 20
211.0732090032
 10
113.6178343073
 20
213.4592662384
  0
LINE
  5
378
100
AcDbEntity
  8
RUNDUNGEN
100
AcDbLine
 62
7
  6
CONTINUOUS
 10
87.721795328
 20
104.4073415269
 11
87.7105778507
 21
104.3578320924
  0
LINE
  5
379
100
AcDbEntity
  8
RUNDUNGEN
100
AcDbLine
 62
7
  6
CONTINUOUS
 10
88.4215164306
 20
107.1693980056
 11
88.3403798316
 21
106.8232508364
  0
LINE
  5
37A
100
AcDbEntity
  8
RUNDUNGEN
100
AcDbLine
 62
7
  6
CONTINUOUS
 10
88.3403798316
 20
106.8232508364
 11
88.0462500826
 21
105.6492724238
  0
LWPOLYLINE
  5
37B
100
AcDbEntity
  8
RUNDUNGEN
100
AcDbPolyline
 62
7
  6
CONTINUOUS
 90
5
 70
0
 10
88.0462500826
 20
105.6492724238
 10
87.7714645442
 20
104.6090230364
 10
87.749200171
 20
104.5213319021
 10
87.7285602135
 20
104.4361612435
 10
87.7217872556
 20
104.4073068489
  0
LINE
  5
37C
100
AcDbEntity
  8
RUNDUNGEN
100
AcDbLine
 62
7
  6
CONTINUOUS
 10
87.791480384
 20
104.684599017
 11
87.7914622275
 21
104.6845317658
  0
LINE
  5
37D
100
AcDbEntity
  8
0
100
AcDbLine
 62
7
  6
CONTINUOUS
 10
83.3746382302
 20
215.7102909412
 11
83.3746743768
 21
215.7101988579
  0
LWPOLYLINE
  5
37E
100
AcDbEntity
  8
0
100
AcDbPolyline
 62
7
  6
CONTINUOUS
 90
8
 70
0
 10
82.9315149807
 20
216.8806850496
 10
84.225198554
 20
213.4592662384
 10
85.0572116133
 20
211.0732090032
 10
85.8142067066
 20
208.711363462
 10
86.5000240053
 20
206.3781016465
 10
87.1181310472
 20
204.0778023686
 10
87.6722313836
 20
201.8132991659
 10
88.1658754373
 20
199.587986039
  0
LINE
  5
37F
100
AcDbEntity
  8
0
100
AcDbLine
 62
7
  6
CONTINUOUS
 10
110.1549360553
 20
104.2494018824
 11
110.1324550105
 21
104.3578320924
  0
LINE
  5
380
100
AcDbEntity
  8
0
100
AcDbLine
 62
7
  6
CONTINUOUS
 10
110.1750953398
 20
104.1386728447
 11
110.1549360553
 21
104.2494018824
  0
LINE
  5
381
100
AcDbEntity
  8
0
100
AcDbLine
 62
7
  6
CONTINUOUS
 10
110.1881511701
 20
104.0577235489
 11
110.1750953398
 21
104.1386728447
  0
LINE
  5
382
100
AcDbEntity
  8
0
100
AcDbLine
 62
7
  6
CONTINUOUS
 10
110.1881511701
 20
104.0577235489
 11
110.1882176517
 21
104.0572853087
  0
LINE
  5
383
100
AcDbEntity
  8
0
100
AcDbLine
 62
7
  6
CONTINUOUS
 10
110.2193877856
 20
103.8228705677
 11
110.1882176517
 21
104.0572853086
  0
LWPOLYLINE
  5
384
100
AcDbEntity
  8
0
100
AcDbPolyline
 62
7
  6
CONTINUOUS
 90
20
 70
0
 10
118.9215164306
 20
204.10013954
 10
118.8998837464
 20
204.6465396526
 10
118.8351210001
 20
205.1895231624
 10
118.7276335812
 20
205.7256904138
 10
118.5780937485
 20
206.2516868904
 10
118.3874366187
 20
206.764221195
 10
118.1568544414
 20
207.2600857718
 10
117.8877889115
 20
207.7361775697
 10
117.5819227402
 20
208.1895164012
 10
117.2411685884
 20
208.6172646935
 10
116.8676577794
 20
209.0167443226
 10
116.4637264225
 20
209.3854541763
 10
116.0319011079
 20
209.7210854391
 10
115.5748826015
 20
210.0215364206
 10
115.0955303483
 20
210.2849248072
 10
114.5968422828
 20
210.5096008829
 10
114.0819412335
 20
210.6941556148
 10
113.5540501993
 20
210.8374323465
 10
113.0164748265
 20
210.9385330191
 10
112.7517496794
 20
210.9669047706
  0
LINE
  5
385
100
AcDbEntity
  8
0
100
AcDbLine
 62
7
  6
CONTINUOUS
 10
116.9215164306
 20
133.7138188128
 11
116.9215164306
 21
159.9035431666
  0
LINE
  5
386
100
AcDbEntity
  8
0
100
AcDbLine
 62
7
  6
CONTINUOUS
 10
117.1715164306
 20
226.7789136349
 11
117.1715164306
 21
238.3651355759
  0
LINE
  5
387
100
AcDbEntity
  8
0
100
AcDbLine
 62
7
  6
CONTINUOUS
 10
118.9215164306
 20
204.1001388265
 11
118.9215164306
 21
165.121211012
  0
LINE
  5
388
100
AcDbEntity
  8
RUNDUNGEN
100
AcDbLine
 62
7
  6
CONTINUOUS
 10
117.1714885318
 20
226.7648794487
 11
117.1715164306
 21
254.8658548078
  0
LWPOLYLINE
  5
389
100
AcDbEntity
  8
0
100
AcDbPolyline
 62
7
  6
CONTINUOUS
 90
9
 70
0
 10
116.9215164276
 20
159.90340527
 10
116.9271291421
 20
160.0307228689
 10
116.9532994407
 20
160.217128968
 10
117.0056881167
 20
160.4320226673
 10
117.0883019633
 20
160.6720551532
 10
117.2042508218
 20
160.9337497411
 10
117.3538593789
 20
161.2098323498
 10
117.5352583225
 20
161.4925378538
 10
117.6882678198
 20
161.702100169
  0
LINE
  5
38A
100
AcDbEntity
  8
0
100
AcDbLine
 62
7
  6
CONTINUOUS
 10
116.9044479675
 20
133.3520279047
 11
116.9214251676
 21
133.6881754491
  0
LINE
  5
38B
100
AcDbEntity
  8
0
100
AcDbLine
 62
7
  6
CONTINUOUS
 10
114.8536216731
 20
106.9416736265
 11
115.3484179901
 21
113.8671654273
  0
LINE
  5
38C
100
AcDbEntity
  8
0
100
AcDbLine
 62
7
  6
CONTINUOUS
 10
115.3484179901
 20
113.8671654273
 11
115.6681570081
 21
118.2412699756
  0
LWPOLYLINE
  5
38D
100
AcDbEntity
  8
0
100
AcDbPolyline
 62
7
  6
CONTINUOUS
 90
8
 70
0
 10
115.6681570081
 20
118.2412699756
 10
115.9861998824
 20
122.450769476
 10
116.1444269338
 20
124.4764962097
 10
116.3020268256
 20
126.440738157
 10
116.4589173968
 20
128.3372244775
 10
116.6150009718
 20
130.1599066248
 10
116.7701344727
 20
131.9026845499
 10
116.9044348495
 20
133.3518891687
  0
LWPOLYLINE
  5
38E
100
AcDbEntity
  8
0
100
AcDbPolyline
 62
7
  6
CONTINUOUS
 90
17
 70
0
 10
118.0555176724
 20
162.237272584
 10
118.0755492712
 20
162.2702938988
 10
118.1523157288
 20
162.399692339
 10
118.2321009211
 20
162.5402991417
 10
118.3137022237
 20
162.6925718604
 10
118.3959512483
 20
162.8571761596
 10
118.477186951
 20
163.0338281072
 10
118.5556407969
 20
163.2217472284
 10
118.6299348491
 20
163.4208109614
 10
118.698556595
 20
163.6303449486
 10
118.7601445614
 20
163.8497445128
 10
118.8133438793
 20
164.0779328329
 10
118.8571017187
 20
164.3145919047
 10
118.8903421912
 20
164.5590497281
 10
118.912053842
 20
164.8105723466
 10
118.9212871139
 20
165.0681648842
 10
118.9215600025
 20
165.1191860255
  0
LWPOLYLINE
  5
38F
100
AcDbEntity
  8
0
100
AcDbPolyline
 62
7
  6
CONTINUOUS
 90
5
 70
0
 10
117.6886510469
 20
161.702670583
 10
117.7497104179
 20
161.7834872746
 10
117.872228138
 20
161.9547057887
 10
117.9883075566
 20
162.1295741715
 10
118.0554692431
 20
162.2372139483
  0
LINE
  5
390
100
AcDbEntity
  8
0
100
AcDbLine
 62
7
  6
CONTINUOUS
 10
117.6886872139
 20
161.7027176267
 11
117.6882221218
 21
161.7021128905
  0
LWPOLYLINE
  5
391
100
AcDbEntity
  8
0
100
AcDbPolyline
 62
7
  6
CONTINUOUS
 90
7
 70
0
 10
109.8142430916
 20
85.5825847044
 10
109.9059151288
 20
85.8998643034
 10
110.0395796471
 20
86.4554065623
 10
110.141707346
 20
87.0201532977
 10
110.2117011111
 20
87.5925147408
 10
110.2490644803
 20
88.1709264822
 10
110.2556589296
 20
88.5379807425
  0
LINE
  5
392
100
AcDbEntity
  8
0
100
AcDbLine
 62
7
  6
CONTINUOUS
 10
108.3683588084
 20
80.8404320298
 11
109.8142370962
 21
85.5825651684
  0
LWPOLYLINE
  5
393
100
AcDbEntity
  8
0
100
AcDbPolyline
 62
7
  6
CONTINUOUS
 90
3
 70
0
 10
107.9094519306
 20
79.367970054
 10
107.9860501053
 20
79.6117453589
 10
108.3683588084
 20
80.8404320298
  0
LWPOLYLINE
  5
394
100
AcDbEntity
  8
RUNDUNGEN
100
AcDbPolyline
 62
7
  6
CONTINUOUS
 90
20
 70
0
 10
85.0912768223
 20
210.9669246127
 10
84.8428653369
 20
210.9409166139
 10
84.3041571961
 20
210.8408948353
 10
83.7750705224
 20
210.6985340181
 10
83.2589295659
 20
210.514729475
 10
82.7589759085
 20
210.2906370261
 10
82.2783508062
 20
210.0276667713
 10
81.8200702015
 20
209.7274713259
 10
81.3870110284
 20
209.391937702
 10
80.9818908399
 20
209.0231740201
 10
80.6072521466
 20
208.6234971686
 10
80.2654459553
 20
208.195417874
 10
79.9586173287
 20
207.7416253105
 10
79.6886913631
 20
207.2649693905
 10
79.4573618003
 20
206.7684438113
 10
79.2660798545
 20
206.2551661587
 10
79.1160456902
 20
205.7283593823
 10
79.0082006666
 20
205.1913309956
 10
78.9432215437
 20
204.6474521616
 10
78.9215164306
 20
204.10013954
  0
LINE
  5
395
100
AcDbEntity
  8
RUNDUNGEN
100
AcDbLine
 62
7
  6
CONTINUOUS
 10
112.9788111993
 20
263.6152911832
 11
114.9810392203
 21
261.1117617724
  0
ARC
  5
396
100
AcDbEntity
  8
0
100
AcDbCircle
 62
7
  6
CONTINUOUS
 10
228.987685343
 20
66.746563031
 40
1.5
100
AcDbArc
 50
219.9504868547
 51
319.3
  0
ARC
  5
397
100
AcDbEntity
  8
0
100
AcDbCircle
 62
7
  6
CONTINUOUS
 10
236.5158541785
 20
75.4988667468
 40
1.5
100
AcDbArc
 50
319.3
 51
35.3538954068
  0
ARC
  5
398
100
AcDbEntity
  8
0
100
AcDbCircle
 62
7
  6
CONTINUOUS
 10
243.8927021334
 20
67.7750719286
 40
1.0
100
AcDbArc
 50
46.6734932081
 51
139.3
  0
ARC
  5
399
100
AcDbEntity
  8
0
100
AcDbCircle
 62
7
  6
CONTINUOUS
 10
235.8322603062
 20
58.4039437703
 40
1.0
100
AcDbArc
 50
139.3
 51
223.2732196325
  0
ARC
  5
39A
100
AcDbEntity
  8
0
100
AcDbCircle
 62
7
  6
CONTINUOUS
 10
215.6105659148
 20
102.6189668268
 40
0.5
100
AcDbArc
 50
39.3
 51
181.0495441826
  0
ARC
  5
39B
100
AcDbEntity
  8
0
100
AcDbCircle
 62
7
  6
CONTINUOUS
 10
236.7788377902
 20
115.9323605006
 40
101.6493011197
100
AcDbArc
 50
346.3011893458
 51
351.2988106542
  0
ARC
  5
39C
100
AcDbEntity
  8
RUNDUNGEN
100
AcDbCircle
 62
7
  6
CONTINUOUS
 10
241.8292552542
 20
171.5359611633
 40
15.0
100
AcDbArc
 50
165.6830501673
 51
221.2648522238
  0
ARC
  5
39D
100
AcDbEntity
  8
RUNDUNGEN
100
AcDbCircle
 62
7
  6
CONTINUOUS
 10
237.2255534327
 20
140.4952055912
 40
3.0
100
AcDbArc
 50
49.3
 51
139.3
  0
ARC
  5
39E
100
AcDbEntity
  8
RUNDUNGEN
100
AcDbCircle
 62
7
  6
CONTINUOUS
 10
237.7733571409
 20
140.0240200682
 40
3.0
100
AcDbArc
 50
321.4026415276
 51
49.3
  0
ARC
  5
39F
100
AcDbEntity
  8
RUNDUNGEN
100
AcDbCircle
 62
7
  6
CONTINUOUS
 10
228.2640585855
 20
174.9979604903
 40
1.0
100
AcDbArc
 50
80.6971910454
 51
165.6830501673
  0
ARC
  5
3A0
100
AcDbEntity
  8
0
100
AcDbCircle
 62
7
  6
CONTINUOUS
 10
278.1022789271
 20
103.7638181818
 40
72.65576175
100
AcDbArc
 50
139.3
 51
229.3
  0
ARC
  5
3A1
100
AcDbEntity
  8
0
100
AcDbCircle
 62
7
  6
CONTINUOUS
 10
278.1022789271
 20
103.7638181818
 40
63.002199
100
AcDbArc
 50
181.0495441826
 51
192.0655369313
  0
ARC
  5
3A2
100
AcDbEntity
  8
RUNDUNGEN
100
AcDbCircle
 62
7
  6
CONTINUOUS
 10
278.1022789271
 20
103.7638181818
 40
63.002199
100
AcDbArc
 50
192.0655369313
 51
229.3
  0
ARC
  5
3A3
100
AcDbEntity
  8
0
100
AcDbCircle
 62
7
  6
CONTINUOUS
 10
271.8072060666
 20
96.4451207944
 40
63.002199
100
AcDbArc
 50
229.3
 51
346.3
  0
ARC
  5
3A4
100
AcDbEntity
  8
BEZUGSACHSEN
100
AcDbCircle
 62
7
  6
CONTINUOUS
 10
271.8072060666
 20
96.4451207944
 40
54.36480075
100
AcDbArc
 50
302.8868847649
 51
331.4902573247
  0
ARC
  5
3A5
100
AcDbEntity
  8
KONSTRUKTIONSELEMENTE
100
AcDbCircle
 62
7
  6
CONTINUOUS
 10
271.8072060666
 20
96.4451207944
 40
53.34863625
100
AcDbArc
 50
229.3
 51
286.6228368248
  0
ARC
  5
3A6
100
AcDbEntity
  8
0
100
AcDbCircle
 62
7
  6
CONTINUOUS
 10
260.8761086727
 20
102.468575934
 40
45.7274025
100
AcDbArc
 50
145.4686216746
 51
179.5676719817
  0
ARC
  5
3A7
100
AcDbEntity
  8
KONSTRUKTIONSELEMENTE
100
AcDbCircle
 62
7
  6
CONTINUOUS
 10
260.8761086727
 20
102.468575934
 40
45.7274025
100
AcDbArc
 50
139.3
 51
145.4686216746
  0
ARC
  5
3A8
100
AcDbEntity
  8
0
100
AcDbCircle
 62
7
  6
CONTINUOUS
 10
266.3024315066
 20
44.3867192219
 40
1.0
100
AcDbArc
 50
270.8628827888
 51
319.3
  0
ARC
  5
3A9
100
AcDbEntity
  8
0
100
AcDbCircle
 62
7
  6
CONTINUOUS
 10
273.963939794
 20
53.294044352
 40
1.0
100
AcDbArc
 50
319.3
 51
81.8323460094
  0
ARC
  5
3AA
100
AcDbEntity
  8
0
100
AcDbCircle
 62
7
  6
CONTINUOUS
 10
276.9508199081
 20
44.3497951511
 40
1.0
100
AcDbArc
 50
139.3
 51
268.7271281289
  0
ARC
  5
3AB
100
AcDbEntity
  8
0
100
AcDbCircle
 62
7
  6
CONTINUOUS
 10
258.8048342513
 20
57.7472803947
 40
1.0
100
AcDbArc
 50
65.4256209248
 51
209.3
  0
ARC
  5
3AC
100
AcDbEntity
  8
0
100
AcDbCircle
 62
7
  6
CONTINUOUS
 10
266.3024315066
 20
44.3867192219
 40
1.0
100
AcDbArc
 50
209.3
 51
258.9169720957
  0
ARC
  5
3AD
100
AcDbEntity
  8
0
100
AcDbCircle
 62
7
  6
CONTINUOUS
 10
256.816287618
 20
45.7672092593
 40
0.5
100
AcDbArc
 50
267.6699344937
 51
29.3
  0
ARC
  5
3AE
100
AcDbEntity
  8
0
100
AcDbCircle
 62
7
  6
CONTINUOUS
 10
248.2417758933
 20
129.077213696
 40
94.8508223041
100
AcDbArc
 50
346.0
 51
28.2204278005
  0
ARC
  5
3AF
100
AcDbEntity
  8
BEZUGSACHSEN
100
AcDbCircle
 62
7
  6
CONTINUOUS
 10
258.5094011075
 20
113.9018011542
 40
69.8620858913
100
AcDbArc
 50
304.2107949832
 51
324.3554816634
  0
ARC
  5
3B0
100
AcDbEntity
  8
0
100
AcDbCircle
 62
7
  6
CONTINUOUS
 10
273.5899734526
 20
122.1133646526
 40
50.808225
100
AcDbArc
 50
300.45
 51
339.8338167759
  0
ARC
  5
3B1
100
AcDbEntity
  8
RUNDUNGEN
100
AcDbCircle
 62
7
  6
CONTINUOUS
 10
253.5290480222
 20
124.5133339889
 40
45.0
100
AcDbArc
 50
41.6702883687
 51
46.6742982682
  0
ARC
  5
3B2
100
AcDbEntity
  8
0
100
AcDbCircle
 62
7
  6
CONTINUOUS
 10
253.5290480222
 20
124.5133339889
 40
45.0
100
AcDbArc
 50
38.3266341719
 51
41.6702883687
  0
ARC
  5
3B3
100
AcDbEntity
  8
0
100
AcDbCircle
 62
7
  6
CONTINUOUS
 10
250.9958325577
 20
157.1769799385
 40
25.4041125
100
AcDbArc
 50
300.7103634974
 51
319.3
  0
ARC
  5
3B4
100
AcDbEntity
  8
RUNDUNGEN
100
AcDbCircle
 62
7
  6
CONTINUOUS
 10
249.3463016832
 20
133.2907977116
 40
0.5579879531
100
AcDbArc
 50
45.4110830203
 51
49.2945916602
  0
ARC
  5
3B5
100
AcDbEntity
  8
0
100
AcDbCircle
 62
7
  6
CONTINUOUS
 10
64.4938321678
 20
317.3808241475
 40
242.4846510092
100
AcDbArc
 50
347.7343665471
 51
348.78456501
  0
ARC
  5
3B6
100
AcDbEntity
  8
RUNDUNGEN
100
AcDbCircle
 62
7
  6
CONTINUOUS
 10
232.6286680398
 20
201.6428508881
 40
26.0
100
AcDbArc
 50
260.6971910454
 51
311.6983286314
  0
ARC
  5
3B7
100
AcDbEntity
  8
RUNDUNGEN
100
AcDbCircle
 62
7
  6
CONTINUOUS
 10
248.5542222573
 20
183.6879985393
 40
2.0
100
AcDbArc
 50
311.5723116112
 51
313.5375745518
  0
ARC
  5
3B8
100
AcDbEntity
  8
RUNDUNGEN
100
AcDbCircle
 62
7
  6
CONTINUOUS
 10
248.554233636
 20
183.6880073868
 40
1.9999943106
100
AcDbArc
 50
324.7929099858
 51
359.9997465345
  0
ARC
  5
3B9
100
AcDbEntity
  8
0
100
AcDbCircle
 62
7
  6
CONTINUOUS
 10
264.3650222605
 20
207.5063584345
 40
56.5010601822
100
AcDbArc
 50
287.3965311263
 51
287.6317567465
  0
ARC
  5
3BA
100
AcDbEntity
  8
0
100
AcDbCircle
 62
7
  6
CONTINUOUS
 10
264.3650222605
 20
207.5063584345
 40
56.5010601822
100
AcDbArc
 50
234.7937677852
 51
234.9182567175
  0
ARC
  5
3BB
100
AcDbEntity
  8
RUNDUNGEN
100
AcDbCircle
 62
7
  6
CONTINUOUS
 10
266.8684425932
 20
238.2753000026
 40
20.0
100
AcDbArc
 50
202.8651330612
 51
227.1751729354
  0
ARC
  5
3BC
100
AcDbEntity
  8
RUNDUNGEN
100
AcDbCircle
 62
7
  6
CONTINUOUS
 10
257.6542222573
 20
234.3896670296
 40
10.0
100
AcDbArc
 50
180.0
 51
202.8651330612
  0
ARC
  5
3BD
100
AcDbEntity
  8
RUNDUNGEN
100
AcDbCircle
 62
7
  6
CONTINUOUS
 10
255.5542222573
 20
213.1895361145
 40
5.0
100
AcDbArc
 50
123.7504012598
 51
180.0
  0
ARC
  5
3BE
100
AcDbEntity
  8
RUNDUNGEN
100
AcDbCircle
 62
7
  6
CONTINUOUS
 10
250.5542222573
 20
220.6728508881
 40
4.0
100
AcDbArc
 50
303.747222766
 51
47.1751747417
  0
ARC
  5
3BF
100
AcDbEntity
  8
0
100
AcDbCircle
 62
7
  6
CONTINUOUS
 10
269.097339935
 20
254.8658433627
 40
6.814711103
100
AcDbArc
 50
177.9468443715
 51
179.9999037735
  0
ARC
  5
3C0
100
AcDbEntity
  8
0
100
AcDbCircle
 62
7
  6
CONTINUOUS
 10
254.92684265
 20
267.3728508881
 40
3.0
100
AcDbArc
 50
90.0
 51
140.0
  0
ARC
  5
3C1
100
AcDbEntity
  8
RUNDUNGEN
100
AcDbCircle
 62
7
  6
CONTINUOUS
 10
249.6542222573
 20
262.6449104195
 40
2.0
100
AcDbArc
 50
140.0
 51
180.0
  0
ARC
  5
3C2
100
AcDbEntity
  8
RUNDUNGEN
100
AcDbCircle
 62
7
  6
CONTINUOUS
 10
273.3042222573
 20
263.5658637622
 40
2.0
100
AcDbArc
 50
0.0
 51
75.9114579674
  0
ARC
  5
3C3
100
AcDbEntity
  8
RUNDUNGEN
100
AcDbCircle
 62
7
  6
CONTINUOUS
 10
289.7544165402
 20
98.532009082
 40
63.51028125
100
AcDbArc
 50
141.4026415276
 51
163.3282128147
  0
ARC
  5
3C4
100
AcDbEntity
  8
BEZUGSACHSEN
100
AcDbCircle
 62
7
  6
CONTINUOUS
 10
281.8296246998
 20
108.0972574243
 40
54.36480075
100
AcDbArc
 50
229.3
 51
287.0708212568
  0
ARC
  5
3C5
100
AcDbEntity
  8
KONSTRUKTIONSELEMENTE
100
AcDbCircle
 62
7
  6
CONTINUOUS
 10
280.8356658271
 20
106.9416736263
 40
52.840554
100
AcDbArc
 50
169.3
 51
229.3
  0
ARC
  5
3C6
100
AcDbEntity
  8
0
100
AcDbCircle
 62
7
  6
CONTINUOUS
 10
351.5542222573
 20
158.7278508881
 40
50.0
100
AcDbArc
 50
176.5084110324
 51
206.3390323648
  0
ARC
  5
3C7
100
AcDbEntity
  8
0
100
AcDbCircle
 62
7
  6
CONTINUOUS
 10
285.0716882875
 20
135.4179742837
 40
48.0
100
AcDbArc
 50
345.5546744296
 51
55.0715678297
  0
ARC
  5
3C8
100
AcDbEntity
  8
0
100
AcDbCircle
 62
7
  6
CONTINUOUS
 10
280.5542222573
 20
98.7278508881
 40
46.0
100
AcDbArc
 50
29.7435094843
 51
55.2940567367
  0
ARC
  5
3C9
100
AcDbEntity
  8
0
100
AcDbCircle
 62
7
  6
CONTINUOUS
 10
295.2523920623
 20
143.8206015898
 40
42.1073664864
100
AcDbArc
 50
284.8109709506
 51
320.7091834702
  0
ARC
  5
3CA
100
AcDbEntity
  8
0
100
AcDbCircle
 62
7
  6
CONTINUOUS
 10
281.8296246998
 20
108.0972574243
 40
34.549593
100
AcDbArc
 50
229.3
 51
300.45
  0
ARC
  5
3CB
100
AcDbEntity
  8
0
100
AcDbCircle
 62
7
  6
CONTINUOUS
 10
280.8356658271
 20
106.9416736263
 40
33.02534625
100
AcDbArc
 50
120.7103634974
 51
229.3
  0
ARC
  5
3CC
100
AcDbEntity
  8
0
100
AcDbCircle
 62
7
  6
CONTINUOUS
 10
280.9792222573
 20
97.5278508881
 40
24.6327926358
100
AcDbArc
 50
14.8078852789
 51
65.9170277276
  0
ARC
  5
3CD
100
AcDbEntity
  8
0
100
AcDbCircle
 62
7
  6
CONTINUOUS
 10
328.5542222573
 20
107.7278508881
 40
16.0
100
AcDbArc
 50
79.1930771251
 51
120.2495249846
  0
ARC
  5
3CE
100
AcDbEntity
  8
0
100
AcDbCircle
 62
7
  6
CONTINUOUS
 10
285.8207508893
 20
49.5059625878
 40
4.3622706812
100
AcDbArc
 50
93.8968613773
 51
139.3
  0
ARC
  5
3CF
100
AcDbEntity
  8
KONSTRUKTIONSELEMENTE
100
AcDbCircle
 62
7
  6
CONTINUOUS
 10
285.8207508893
 20
49.5059625878
 40
4.3622706812
100
AcDbArc
 50
286.6228368248
 51
93.8968583853
  0
ARC
  5
3D0
100
AcDbEntity
  8
0
100
AcDbCircle
 62
7
  6
CONTINUOUS
 10
324.9675663478
 20
103.2419199882
 40
3.9255721648
100
AcDbArc
 50
144.3355183145
 51
159.7982984614
  0
ARC
  5
3D1
100
AcDbEntity
  8
BEZUGSACHSEN
100
AcDbCircle
 62
7
  6
CONTINUOUS
 10
299.5882858055
 20
53.4805483109
 40
3.200918175
100
AcDbArc
 50
124.2107949832
 51
302.8868847649
  0
ARC
  5
3D2
100
AcDbEntity
  8
BEZUGSACHSEN
100
AcDbCircle
 62
7
  6
CONTINUOUS
 10
317.3471608829
 20
71.7089152977
 40
2.54041125
100
AcDbArc
 50
331.4902573247
 51
144.3554816634
  0
ARC
  5
3D3
100
AcDbEntity
  8
BEZUGSACHSEN
100
AcDbCircle
 62
7
  6
CONTINUOUS
 10
330.3473544192
 20
113.4399814905
 40
2.3434163073
100
AcDbArc
 50
97.1825923836
 51
144.3479779451
  0
ARC
  5
3D4
100
AcDbEntity
  8
0
100
AcDbCircle
 62
7
  6
CONTINUOUS
 10
329.3889231105
 20
115.8893104209
 40
2.0
100
AcDbArc
 50
54.8610295179
 51
140.7091834698
  0
ARC
  5
3D5
100
AcDbEntity
  8
0
100
AcDbCircle
 62
7
  6
CONTINUOUS
 10
328.5987962362
 20
117.0436327345
 40
2.0
100
AcDbArc
 50
0.0
 51
13.921794628
  0
ARC
  5
3D6
100
AcDbEntity
  8
0
100
AcDbCircle
 62
7
  6
CONTINUOUS
 10
305.7607043248
 20
104.0790496216
 40
1.0
100
AcDbArc
 50
194.8078852789
 51
284.8109709506
  0
ARC
  5
3D7
100
AcDbEntity
  8
0
100
AcDbCircle
 62
7
  6
CONTINUOUS
 10
291.4389180181
 20
120.9294496134
 40
1.0
100
AcDbArc
 50
138.6019147535
 51
245.9170277276
  0
ARC
  5
3D8
100
AcDbEntity
  8
0
100
AcDbCircle
 62
7
  6
CONTINUOUS
 10
495.3008245658
 20
316.2789683297
 40
237.0580828725
100
AcDbArc
 50
191.1658305858
 51
192.278245107
  0
ARC
  5
3D9
100
AcDbEntity
  8
RUNDUNGEN
100
AcDbCircle
 62
7
  6
CONTINUOUS
 10
437.5542222573
 20
230.6728508881
 40
120.0
100
AcDbArc
 50
195.9998641941
 51
208.2205439059
  0
ARC
  5
3DA
100
AcDbEntity
  8
0
100
AcDbCircle
 62
7
  6
CONTINUOUS
 10
437.5542222573
 20
230.6728508881
 40
120.0
100
AcDbArc
 50
195.9998641941
 51
208.2205439059
  0
ARC
  5
3DB
100
AcDbEntity
  8
0
100
AcDbCircle
 62
7
  6
CONTINUOUS
 10
282.5542222573
 20
300.4228508881
 40
36.0
100
AcDbArc
 50
236.601546417
 51
255.9114579674
  0
ARC
  5
3DC
100
AcDbEntity
  8
KONSTRUKTIONSELEMENTE
100
AcDbCircle
 62
7
  6
CONTINUOUS
 10
282.5542222573
 20
300.4228508881
 40
36.0
100
AcDbArc
 50
284.0885420326
 51
303.398453583
  0
ARC
  5
3DD
100
AcDbEntity
  8
0
100
AcDbCircle
 62
7
  6
CONTINUOUS
 10
350.7748698881
 20
224.9322190911
 40
35.0
100
AcDbArc
 50
166.5625917611
 51
196.0000293648
  0
ARC
  5
3DE
100
AcDbEntity
  8
0
100
AcDbCircle
 62
7
  6
CONTINUOUS
 10
287.5542222573
 20
240.0368446453
 40
30.0
100
AcDbArc
 50
346.563117842
 51
360.0
  0
ARC
  5
3DF
100
AcDbEntity
  8
0
100
AcDbCircle
 62
7
  6
CONTINUOUS
 10
284.5055830088
 20
189.9024616894
 40
21.2172690455
100
AcDbArc
 50
319.3
 51
139.3
  0
ARC
  5
3E0
100
AcDbEntity
  8
0
100
AcDbCircle
 62
7
  6
CONTINUOUS
 10
282.5542222573
 20
233.7728508881
 40
7.4318522912
100
AcDbArc
 50
293.3412070462
 51
344.0280374883
  0
ARC
  5
3E1
100
AcDbEntity
  8
0
100
AcDbCircle
 62
7
  6
CONTINUOUS
 10
282.5542222573
 20
233.7728508881
 40
7.4318522912
100
AcDbArc
 50
347.2989958574
 51
12.7010041426
  0
ARC
  5
3E2
100
AcDbEntity
  8
0
100
AcDbCircle
 62
7
  6
CONTINUOUS
 10
282.5542222573
 20
233.7728508881
 40
7.4318522912
100
AcDbArc
 50
167.2989958574
 51
192.7010041426
  0
ARC
  5
3E3
100
AcDbEntity
  8
0
100
AcDbCircle
 62
7
  6
CONTINUOUS
 10
282.5542222573
 20
233.7728508881
 40
7.4318522912
100
AcDbArc
 50
195.9719625117
 51
290.5875062267
  0
ARC
  5
3E4
100
AcDbEntity
  8
0
100
AcDbCircle
 62
7
  6
CONTINUOUS
 10
282.5563988051
 20
233.7679011558
 40
7.4264452811
100
AcDbArc
 50
290.5908573287
 51
293.3326774903
  0
ARC
  5
3E5
100
AcDbEntity
  8
0
100
AcDbCircle
 62
7
  6
CONTINUOUS
 10
282.5542222573
 20
233.7728508881
 40
7.4
100
AcDbArc
 50
168.4441007441
 51
191.5558992559
  0
ARC
  5
3E6
100
AcDbEntity
  8
0
100
AcDbCircle
 62
7
  6
CONTINUOUS
 10
282.5542222573
 20
233.7728508881
 40
7.4
100
AcDbArc
 50
348.4441007441
 51
11.5558992559
  0
ARC
  5
3E7
100
AcDbEntity
  8
0
100
AcDbCircle
 62
7
  6
CONTINUOUS
 10
282.5542222573
 20
233.7728508881
 40
7.4
100
AcDbArc
 50
196.0425620745
 51
343.9574379255
  0
ARC
  5
3E8
100
AcDbEntity
  8
0
100
AcDbCircle
 62
7
  6
CONTINUOUS
 10
296.0111045796
 20
254.8658433627
 40
6.814711103
100
AcDbArc
 50
0.0000962265
 51
2.0531556285
  0
ARC
  5
3E9
100
AcDbEntity
  8
0
100
AcDbCircle
 62
7
  6
CONTINUOUS
 10
314.5542222573
 20
259.8809401853
 40
3.0
100
AcDbArc
 50
0.0
 51
40.0
  0
ARC
  5
3EA
100
AcDbEntity
  8
0
100
AcDbCircle
 62
7
  6
CONTINUOUS
 10
308.2677627497
 20
267.3728508881
 40
3.0
100
AcDbArc
 50
40.0
 51
90.0
  0
CIRCLE
  5
3EB
100
AcDbEntity
  8
BEZUGSACHSEN
100
AcDbCircle
 62
7
  6
CONTINUOUS
 10
307.0542222573
 20
249.8928508881
 40
3.0
  0
ARC
  5
3EC
100
AcDbEntity
  8
RUNDUNGEN
100
AcDbCircle
 62
7
  6
CONTINUOUS
 10
291.8042222573
 20
263.5658637622
 40
2.0
100
AcDbArc
 50
104.0885420326
 51
180.0
  0
ARC
  5
3ED
100
AcDbEntity
  8
0
100
AcDbCircle
 62
7
  6
CONTINUOUS
 10
-358.3952778393
 20
159.6597406716
 40
449.5684548345
100
AcDbArc
 50
1.3988417605
 51
1.6456850738
  0
ARC
  5
3EE
100
AcDbEntity
  8
KONSTRUKTIONSELEMENTE
100
AcDbCircle
 62
7
  6
CONTINUOUS
 10
94.9555860883
 20
66.4105074316
 40
7.2060483936
100
AcDbArc
 50
154.0238277134
 51
155.0349767705
  0
ARC
  5
3EF
100
AcDbEntity
  8
KONSTRUKTIONSELEMENTE
100
AcDbCircle
 62
7
  6
CONTINUOUS
 10
94.9310528164
 20
66.4224526624
 40
7.1787615851
100
AcDbArc
 50
153.2191427549
 51
154.0237716178
  0
ARC
  5
3F0
100
AcDbEntity
  8
0
100
AcDbCircle
 62
7
  6
CONTINUOUS
 10
102.9119953408
 20
66.4224602041
 40
7.1787445311
100
AcDbArc
 50
25.976227742
 51
26.781813725
  0
ARC
  5
3F1
100
AcDbEntity
  8
RUNDUNGEN
100
AcDbCircle
 62
7
  6
CONTINUOUS
 10
84.6599094989
 20
133.7142908613
 40
3.7383930696
100
AcDbArc
 50
180.0076274684
 51
180.4002562559
  0
ARC
  5
3F2
100
AcDbEntity
  8
0
100
AcDbCircle
 62
7
  6
CONTINUOUS
 10
113.1831233654
 20
133.7142908613
 40
3.7383930666
100
AcDbArc
 50
359.599743744
 51
359.9923725318
  0
ARC
  5
3F3
100
AcDbEntity
  8
0
100
AcDbCircle
 62
7
  6
CONTINUOUS
 10
91.1178545107
 20
107.086673027
 40
2.6963380803
100
AcDbArc
 50
180.000757401
 51
186.5819412724
  0
ARC
  5
3F4
100
AcDbEntity
  8
0
100
AcDbCircle
 62
7
  6
CONTINUOUS
 10
106.7251783505
 20
107.086673027
 40
2.6963380803
100
AcDbArc
 50
353.4180587277
 51
359.999242599
  0
ARC
  5
3F5
100
AcDbEntity
  8
RUNDUNGEN
100
AcDbCircle
 62
7
  6
CONTINUOUS
 10
91.0772705033
 20
52.6232517576
 40
2.0264507232
100
AcDbArc
 50
180.9726826976
 51
187.7655446952
  0
ARC
  5
3F6
100
AcDbEntity
  8
0
100
AcDbCircle
 62
7
  6
CONTINUOUS
 10
106.7657623579
 20
52.6232517576
 40
2.0264507232
100
AcDbArc
 50
352.2344553048
 51
359.0273173024
  0
ARC
  5
3F7
100
AcDbEntity
  8
0
100
AcDbCircle
 62
7
  6
CONTINUOUS
 10
24.9809134319
 20
170.8880714278
 40
66.1875432562
100
AcDbArc
 50
1.4683860393
 51
3.3637669221
  0
ARC
  5
3F8
100
AcDbEntity
  8
0
100
AcDbCircle
 62
7
  6
CONTINUOUS
 10
90.6715164306
 20
254.8658548078
 40
10.0
100
AcDbArc
 50
141.3478480377
 51
180.0
  0
ARC
  5
3F9
100
AcDbEntity
  8
0
100
AcDbCircle
 62
7
  6
CONTINUOUS
 10
172.8621190347
 20
170.8880714454
 40
66.1875428613
100
AcDbArc
 50
176.636233073
 51
178.5316138509
  0
ARC
  5
3FA
100
AcDbEntity
  8
RUNDUNGEN
100
AcDbCircle
 62
7
  6
CONTINUOUS
 10
98.9215164306
 20
252.3728508881
 40
18.0
100
AcDbArc
 50
38.6513684092
 51
70.0
  0
ARC
  5
3FB
100
AcDbEntity
  8
0
100
AcDbCircle
 62
7
  6
CONTINUOUS
 10
98.9215164306
 20
252.3728508881
 40
18.0
100
AcDbArc
 50
38.6514970531
 51
41.0054872591
  0
ARC
  5
3FC
100
AcDbEntity
  8
0
100
AcDbCircle
 62
7
  6
CONTINUOUS
 10
98.9215164306
 20
252.3728508881
 40
18.0
100
AcDbArc
 50
60.0420077694
 51
63.4965165191
  0
ARC
  5
3FD
100
AcDbEntity
  8
0
100
AcDbCircle
 62
7
  6
CONTINUOUS
 10
98.9215164306
 20
252.3728508881
 40
18.0
100
AcDbArc
 50
56.1306168022
 51
59.8007950266
  0
ARC
  5
3FE
100
AcDbEntity
  8
0
100
AcDbCircle
 62
7
  6
CONTINUOUS
 10
98.9215164306
 20
252.3728508881
 40
18.0
100
AcDbArc
 50
52.4566178803
 51
56.0673643839
  0
ARC
  5
3FF
100
AcDbEntity
  8
0
100
AcDbCircle
 62
7
  6
CONTINUOUS
 10
98.9215164306
 20
252.3728508881
 40
18.0
100
AcDbArc
 50
45.5700269869
 51
52.1498214706
  0
ARC
  5
400
100
AcDbEntity
  8
0
100
AcDbCircle
 62
7
  6
CONTINUOUS
 10
98.9215164306
 20
252.3728508881
 40
18.0
100
AcDbArc
 50
63.8651410792
 51
141.3485029469
  0
ARC
  5
401
100
AcDbEntity
  8
RUNDUNGEN
100
AcDbCircle
 62
7
  6
CONTINUOUS
 10
107.1715164306
 20
254.8658548078
 40
10.0
100
AcDbArc
 50
0.0
 51
38.6521519623
  0
SPLINE
  5
402
100
AcDbEntity
  8
0
100
AcDbSpline
 62
7
  6
CONTINUOUS
 70
0
 71
3
 72
9
 73
5
 74
0
 42
0.0000001
 43
0.0000001
 44
0.0000000001
 40
0.0
 40
0.0
 40
0.0
 40
0.0
 40
0.6250443132
 40
1.0
 40
1.0
 40
1.0
 40
1.0
 10
288.8309188286
 20
152.4197060338
 30
0.0
 10
290.5000007047
 20
150.7576806193
 30
0.0
 10
292.7645657651
 20
148.0904316932
 30
0.0
 10
294.3757643791
 20
145.4140558453
 30
0.0
 10
294.8879169127
 20
144.4095898624
 30
0.0
  0
SPLINE
  5
403
100
AcDbEntity
  8
0
100
AcDbSpline
 62
7
  6
CONTINUOUS
 70
0
 71
3
 72
9
 73
5
 74
0
 42
0.0000001
 43
0.0000001
 44
0.0000000001
 40
0.0
 40
0.0
 40
0.0
 40
0.0
 40
0.9862499739
 40
1.0
 40
1.0
 40
1.0
 40
1.0
 10
294.8879169127
 20
144.4095898624
 30
0.0
 10
296.3113113681
 20
141.6179385146
 30
0.0
 10
297.0342108253
 20
138.7799762849
 30
0.0
 10
297.0241323597
 20
135.9420140551
 30
0.0
 10
297.0238552082
 20
135.9029920203
 30
0.0
  0
SPLINE
  5
404
100
AcDbEntity
  8
0
100
AcDbSpline
 62
7
  6
CONTINUOUS
 70
0
 71
3
 72
8
 73
4
 74
0
 42
0.0000001
 43
0.0000001
 44
0.0000000001
 40
0.0
 40
0.0
 40
0.0
 40
0.0
 40
1.0
 40
1.0
 40
1.0
 40
1.0
 10
297.0238552107
 20
135.9029923688
 30
0.0
 10
297.006994434
 20
133.5290423576
 30
0.0
 10
296.4772724987
 20
131.1551654483
 30
0.0
 10
295.4362298345
 20
128.7858088975
 30
0.0
  0
SPLINE
  5
405
100
AcDbEntity
  8
0
100
AcDbSpline
 62
7
  6
CONTINUOUS
 70
0
 71
3
 72
9
 73
5
 74
0
 42
0.0000001
 43
0.0000001
 44
0.0000000001
 40
0.0
 40
0.0
 40
0.0
 40
0.0
 40
0.5782223683
 40
1.0
 40
1.0
 40
1.0
 40
1.0
 10
295.4362299872
 20
128.7858092452
 30
0.0
 10
294.8253369068
 20
127.3954497129
 30
0.0
 10
293.4643316878
 20
124.9936004471
 30
0.0
 10
291.5776378512
 20
122.5990945625
 30
0.0
 10
290.6887157586
 20
121.5907973208
 30
0.0
  0
SPLINE
  5
406
100
AcDbEntity
  8
0
100
AcDbSpline
 62
7
  6
CONTINUOUS
 70
0
 71
3
 72
9
 73
5
 74
0
 42
0.0000001
 43
0.0000001
 44
0.0000000001
 40
0.0
 40
0.0
 40
0.0
 40
0.0
 40
0.2643618883
 40
1.0
 40
1.0
 40
1.0
 40
1.0
 10
263.9637481268
 20
263.6153227454
 30
0.0
 10
263.952124657
 20
263.8151963731
 30
0.0
 10
263.8949747771
 20
264.5703586712
 30
0.0
 10
263.7837315599
 20
265.3219872668
 30
0.0
 10
263.6651157163
 20
265.8663405372
 30
0.0
  0
SPLINE
  5
407
100
AcDbEntity
  8
0
100
AcDbSpline
 62
7
  6
CONTINUOUS
 70
0
 71
3
 72
16
 73
12
 74
0
 42
0.0000001
 43
0.0000001
 44
0.0000000001
 40
0.0
 40
0.0
 40
0.0
 40
0.0
 40
0.2499804597
 40
0.3749870987
 40
0.4999904818
 40
0.6249816876
 40
0.7499307546
 40
0.8124423848
 40
0.87495577
 40
0.9374784902
 40
1.0
 40
1.0
 40
1.0
 40
1.0
 10
299.0066731136
 20
250.4401094301
 30
0.0
 10
299.4128154041
 20
250.6810717494
 30
0.0
 10
300.0116270439
 20
251.0610019203
 30
0.0
 10
300.7776993804
 20
251.6139450573
 30
0.0
 10
301.331073798
 20
252.0569497632
 30
0.0
 10
301.8536664241
 20
252.5358725391
 30
0.0
 10
302.248919158
 20
252.9769153213
 30
0.0
 10
302.5175455669
 20
253.3661960793
 30
0.0
 10
302.683788791
 20
253.6803448845
 30
0.0
 10
302.798001679
 20
254.0177647489
 30
0.0
 10
302.8258156826
 20
254.2547400238
 30
0.0
 10
302.8258156826
 20
254.3728508881
 30
0.0
  0
SPLINE
  5
408
100
AcDbEntity
  8
0
100
AcDbSpline
 62
7
  6
CONTINUOUS
 70
0
 71
3
 72
16
 73
12
 74
0
 42
0.0000001
 43
0.0000001
 44
0.0000000001
 40
0.0
 40
0.0
 40
0.0
 40
0.0
 40
0.2499804597
 40
0.3749870987
 40
0.4999904818
 40
0.6249816876
 40
0.7499307546
 40
0.8124423848
 40
0.87495577
 40
0.9374784902
 40
1.0
 40
1.0
 40
1.0
 40
1.0
 10
266.1017714009
 20
250.4401094301
 30
0.0
 10
265.6956291104
 20
250.6810717494
 30
0.0
 10
265.0968174707
 20
251.0610019203
 30
0.0
 10
264.3307451341
 20
251.6139450573
 30
0.0
 10
263.7773707165
 20
252.0569497632
 30
0.0
 10
263.2547780905
 20
252.5358725391
 30
0.0
 10
262.8595253566
 20
252.9769153213
 30
0.0
 10
262.5908989477
 20
253.3661960793
 30
0.0
 10
262.4246557235
 20
253.6803448845
 30
0.0
 10
262.3104428356
 20
254.0177647489
 30
0.0
 10
262.282628832
 20
254.2547400238
 30
0.0
 10
262.282628832
 20
254.3728508881
 30
0.0
  0
SPLINE
  5
409
100
AcDbEntity
  8
0
100
AcDbSpline
 62
7
  6
CONTINUOUS
 70
0
 71
3
 72
9
 73
5
 74
0
 42
0.0000001
 43
0.0000001
 44
0.0000000001
 40
0.0
 40
0.0
 40
0.0
 40
0.0
 40
0.2643618883
 40
1.0
 40
1.0
 40
1.0
 40
1.0
 10
301.1446963878
 20
263.6153227454
 30
0.0
 10
301.1563198575
 20
263.8151963731
 30
0.0
 10
301.2134697374
 20
264.5703586712
 30
0.0
 10
301.3247129546
 20
265.3219872668
 30
0.0
 10
301.4433287983
 20
265.8663405372
 30
0.0
  0
SPLINE
  5
40A
100
AcDbEntity
  8
0
100
AcDbSpline
 62
7
  6
CONTINUOUS
 70
0
 71
3
 72
9
 73
5
 74
0
 42
0.0000001
 43
0.0000001
 44
0.0000000001
 40
0.0
 40
0.0
 40
0.0
 40
0.0
 40
0.504454056
 40
1.0
 40
1.0
 40
1.0
 40
1.0
 10
301.6316632701
 20
261.1116725063
 30
0.0
 10
301.4601055606
 20
261.5080596256
 30
0.0
 10
301.1863678912
 20
262.3266475739
 30
0.0
 10
301.1200636501
 20
263.1917457301
 30
0.0
 10
301.1446963878
 20
263.6153227454
 30
0.0
  0
SPLINE
  5
40B
100
AcDbEntity
  8
0
100
AcDbSpline
 62
7
  6
CONTINUOUS
 70
0
 71
3
 72
11
 73
7
 74
0
 42
0.0000001
 43
0.0000001
 44
0.0000000001
 40
0.0
 40
0.0
 40
0.0
 40
0.0
 40
0.227153949
 40
0.4726327035
 40
0.7322472859
 40
1.0
 40
1.0
 40
1.0
 40
1.0
 10
301.6316632701
 20
261.1116725063
 30
0.0
 10
301.8166166531
 20
260.6843344465
 30
0.0
 10
302.1406031494
 20
259.7683506309
 30
0.0
 10
302.4905011078
 20
258.3065788625
 30
0.0
 10
302.7243095401
 20
256.7379248308
 30
0.0
 10
302.8017759573
 20
255.6585087641
 30
0.0
 10
302.8214407612
 20
255.1099919774
 30
0.0
  0
SPLINE
  5
40C
100
AcDbEntity
  8
0
100
AcDbSpline
 62
7
  6
CONTINUOUS
 70
0
 71
3
 72
9
 73
5
 74
0
 42
0.0000001
 43
0.0000001
 44
0.0000000001
 40
0.0
 40
0.0
 40
0.0
 40
0.0
 40
0.504454056
 40
1.0
 40
1.0
 40
1.0
 40
1.0
 10
263.4767812444
 20
261.1116725063
 30
0.0
 10
263.6483389539
 20
261.5080596256
 30
0.0
 10
263.9220766233
 20
262.3266475739
 30
0.0
 10
263.9883808644
 20
263.1917457301
 30
0.0
 10
263.9637481268
 20
263.6153227454
 30
0.0
  0
SPLINE
  5
40D
100
AcDbEntity
  8
0
100
AcDbSpline
 62
7
  6
CONTINUOUS
 70
0
 71
3
 72
11
 73
7
 74
0
 42
0.0000001
 43
0.0000001
 44
0.0000000001
 40
0.0
 40
0.0
 40
0.0
 40
0.0
 40
0.227153949
 40
0.4726327035
 40
0.7322472859
 40
1.0
 40
1.0
 40
1.0
 40
1.0
 10
263.4767812444
 20
261.1116725063
 30
0.0
 10
263.2918278614
 20
260.6843344465
 30
0.0
 10
262.9678413652
 20
259.7683506309
 30
0.0
 10
262.6179434067
 20
258.3065788625
 30
0.0
 10
262.3841349744
 20
256.7379248308
 30
0.0
 10
262.3066685573
 20
255.6585087641
 30
0.0
 10
262.2870037533
 20
255.1099919774
 30
0.0
  0
LINE
  5
40E
100
AcDbEntity
  8
0
100
AcDbLine
 62
7
  6
CONTINUOUS
 10
302.3783868003
 20
270.3728351746
 11
302.3477040126
 21
270.2178977806
  0
SPLINE
  5
40F
100
AcDbEntity
  8
KONSTRUKTIONSELEMENTE
100
AcDbSpline
 62
7
  6
CONTINUOUS
 70
0
 71
3
 72
23
 73
19
 74
0
 42
0.0000001
 43
0.0000001
 44
0.0000000001
 40
0.0
 40
0.0
 40
0.0
 40
0.0
 40
0.0701665623
 40
0.1395217142
 40
0.2069768882
 40
0.2715435887
 40
0.3322924476
 40
0.3886175891
 40
0.4408296482
 40
0.491169656
 40
0.5437485634
 40
0.6019019856
 40
0.6660721628
 40
0.7345191547
 40
0.8046862451
 40
0.8738935959
 40
0.9396171231
 40
1.0
 40
1.0
 40
1.0
 40
1.0
 10
297.3623503148
 20
70.7445971757
 30
0.0
 10
297.2061922273
 20
70.9121113773
 30
0.0
 10
296.9150486765
 20
71.2634642171
 30
0.0
 10
296.5289019689
 20
71.8183810701
 30
0.0
 10
296.1901595757
 20
72.3821646731
 30
0.0
 10
295.9014841318
 20
72.9417567947
 30
0.0
 10
295.6727753012
 20
73.489689935
 30
0.0
 10
295.5222287274
 20
74.023339449
 30
0.0
 10
295.4785165299
 20
74.5450001236
 30
0.0
 10
295.5820898943
 20
75.0492666766
 30
0.0
 10
295.8492359071
 20
75.5109236504
 30
0.0
 10
296.2501173553
 20
75.9223741488
 30
0.0
 10
296.7487638021
 20
76.2975153127
 30
0.0
 10
297.3129965358
 20
76.6446414492
 30
0.0
 10
297.912504191
 20
76.9626894469
 30
0.0
 10
298.5220604243
 20
77.2407174321
 30
0.0
 10
299.1221203046
 20
77.4580480003
 30
0.0
 10
299.5270007328
 20
77.5458337102
 30
0.0
 10
299.7231345667
 20
77.5651161973
 30
0.0
  0
SPLINE
  5
410
100
AcDbEntity
  8
KONSTRUKTIONSELEMENTE
100
AcDbSpline
 62
7
  6
CONTINUOUS
 70
0
 71
3
 72
19
 73
15
 74
0
 42
0.0000001
 43
0.0000001
 44
0.0000000001
 40
0.0
 40
0.0
 40
0.0
 40
0.0
 40
0.1251618165
 40
0.2502197549
 40
0.3127974163
 40
0.3753441234
 40
0.4378272843
 40
0.5002029905
 40
0.5625092479
 40
0.6248828196
 40
0.6873666387
 40
0.7499142553
 40
0.8748655746
 40
1.0
 40
1.0
 40
1.0
 40
1.0
 10
302.7362861099
 20
74.3630689348
 30
0.0
 10
302.8608891847
 20
73.9218781784
 30
0.0
 10
303.0673594538
 20
73.0270221897
 30
0.0
 10
303.163730981
 20
71.8779914189
 30
0.0
 10
303.0834096537
 20
70.9626014574
 30
0.0
 10
302.91948417
 20
70.2916685885
 30
0.0
 10
302.6215610338
 20
69.6661179975
 30
0.0
 10
302.1598827639
 20
69.1433836277
 30
0.0
 10
301.5433609476
 20
68.8103880508
 30
0.0
 10
300.8522758168
 20
68.7132974513
 30
0.0
 10
300.1664046136
 20
68.8143286073
 30
0.0
 10
299.3039170082
 20
69.1355310031
 30
0.0
 10
298.338739467
 20
69.7745411623
 30
0.0
 10
297.6748880878
 20
70.4093310595
 30
0.0
 10
297.3623503148
 20
70.7445971757
 30
0.0
  0
SPLINE
  5
411
100
AcDbEntity
  8
KONSTRUKTIONSELEMENTE
100
AcDbSpline
 62
7
  6
CONTINUOUS
 70
0
 71
3
 72
25
 73
21
 74
0
 42
0.0000001
 43
0.0000001
 44
0.0000000001
 40
0.0
 40
0.0
 40
0.0
 40
0.0
 40
0.0710076576
 40
0.1413223527
 40
0.2098914322
 40
0.2756785935
 40
0.3376845679
 40
0.3951324137
 40
0.4482253714
 40
0.4739875595
 40
0.5000424148
 40
0.5558052379
 40
0.6191789283
 40
0.6885126005
 40
0.7593060995
 40
0.8267367617
 40
0.8878919875
 40
0.9164515948
 40
0.9442858043
 40
1.0
 40
1.0
 40
1.0
 40
1.0
 10
257.3511632925
 20
73.416385067
 30
0.0
 10
257.4039355937
 20
73.7127257687
 30
0.0
 10
257.5615383654
 20
74.293517773
 30
0.0
 10
257.8968208424
 20
75.1189178434
 30
0.0
 10
258.2894638169
 20
75.8934976836
 30
0.0
 10
258.7153071781
 20
76.6093876238
 30
0.0
 10
259.1676010286
 20
77.2526613252
 30
0.0
 10
259.6553958243
 20
77.8005805758
 30
0.0
 10
260.1251765629
 20
78.1501515452
 30
0.0
 10
260.5380226331
 20
78.3213743744
 30
0.0
 10
260.9863163079
 20
78.4181546442
 30
0.0
 10
261.6121613077
 20
78.374650893
 30
0.0
 10
262.3720334133
 20
78.1125916588
 30
0.0
 10
263.1357631667
 20
77.7062000222
 30
0.0
 10
263.8571392521
 20
77.1983042456
 30
0.0
 10
264.4744795378
 20
76.6154776061
 30
0.0
 10
264.8519061441
 20
76.0554015252
 30
0.0
 10
265.0248225455
 20
75.5857070523
 30
0.0
 10
265.1145891489
 20
75.1171864754
 30
0.0
 10
265.09715778
 20
74.7574512527
 30
0.0
 10
265.0587615854
 20
74.5244197257
 30
0.0
  0
SPLINE
  5
412
100
AcDbEntity
  8
KONSTRUKTIONSELEMENTE
100
AcDbSpline
 62
7
  6
CONTINUOUS
 70
0
 71
3
 72
17
 73
13
 74
0
 42
0.0000001
 43
0.0000001
 44
0.0000000001
 40
0.0
 40
0.0
 40
0.0
 40
0.0
 40
0.1251876025
 40
0.2502528181
 40
0.3750156183
 40
0.4375587208
 40
0.5000662405
 40
0.5625673913
 40
0.6250958303
 40
0.7497737326
 40
0.8748131242
 40
1.0
 40
1.0
 40
1.0
 40
1.0
 10
262.3790810941
 20
70.4266948388
 30
0.0
 10
262.0991090184
 20
70.2205806637
 30
0.0
 10
261.5113083536
 20
69.8439337319
 30
0.0
 10
260.5422139899
 20
69.4444208348
 30
0.0
 10
259.6641913271
 20
69.3324777603
 30
0.0
 10
258.9749850511
 20
69.4483849118
 30
0.0
 10
258.4896504597
 20
69.6511281732
 30
0.0
 10
258.0686294902
 20
69.9667468764
 30
0.0
 10
257.6245386466
 20
70.5069294376
 30
0.0
 10
257.3021521867
 20
71.3342521606
 30
0.0
 10
257.2149016353
 20
72.379783686
 30
0.0
 10
257.2902113596
 20
73.0741119671
 30
0.0
 10
257.3511632925
 20
73.416385067
 30
0.0
  0
SPLINE
  5
413
100
AcDbEntity
  8
KONSTRUKTIONSELEMENTE
100
AcDbSpline
 62
7
  6
CONTINUOUS
 70
0
 71
3
 72
24
 73
20
 74
0
 42
0.0000001
 43
0.0000001
 44
0.0000000001
 40
0.0
 40
0.0
 40
0.0
 40
0.0
 40
0.0704062638
 40
0.1401178925
 40
0.2080792614
 40
0.2732620308
 40
0.334705338
 40
0.3918026829
 40
0.4451958371
 40
0.4715316335
 40
0.4984429031
 40
0.5562578895
 40
0.6210160715
 40
0.6905035165
 40
0.7604858481
 40
0.8267946462
 40
0.887256759
 40
0.9435801646
 40
1.0
 40
1.0
 40
1.0
 40
1.0
 10
277.3448863723
 20
66.3708943944
 30
0.0
 10
277.2475650053
 20
66.6367486756
 30
0.0
 10
277.1000312689
 20
67.1831236089
 30
0.0
 10
276.9817035646
 20
68.0126395238
 30
0.0
 10
276.9390641736
 20
68.8281558297
 30
0.0
 10
276.9596756148
 20
69.6111662493
 30
0.0
 10
277.0475229885
 20
70.3461607948
 30
0.0
 10
277.2231805653
 20
71.0180817304
 30
0.0
 10
277.4846132013
 20
71.5117519323
 30
0.0
 10
277.7752522471
 20
71.829923583
 30
0.0
 10
278.1313595982
 20
72.1031748193
 30
0.0
 10
278.6952162276
 20
72.3378338325
 30
0.0
 10
279.4615414369
 20
72.4605769308
 30
0.0
 10
280.2850193943
 20
72.4692971478
 30
0.0
 10
281.109408078
 20
72.3752593973
 30
0.0
 10
281.8774654108
 20
72.1693468578
 30
0.0
 10
282.5368133251
 20
71.8207029726
 30
0.0
 10
283.028602661
 20
71.3101854125
 30
0.0
 10
283.2291757776
 20
70.8963075622
 30
0.0
 10
283.305357266
 20
70.6826133688
 30
0.0
  0
SPLINE
  5
414
100
AcDbEntity
  8
KONSTRUKTIONSELEMENTE
100
AcDbSpline
 62
7
  6
CONTINUOUS
 70
0
 71
3
 72
18
 73
14
 74
0
 42
0.0000001
 43
0.0000001
 44
0.0000000001
 40
0.0
 40
0.0
 40
0.0
 40
0.0
 40
0.1251307938
 40
0.2501538208
 40
0.3748860651
 40
0.4374028194
 40
0.4998736669
 40
0.5623305495
 40
0.6248161212
 40
0.6873446512
 40
0.7499122146
 40
0.8748814686
 40
1.0
 40
1.0
 40
1.0
 40
1.0
 10
283.0699042661
 20
66.4416658978
 30
0.0
 10
282.9370257291
 20
66.1228861449
 30
0.0
 10
282.6325573532
 20
65.500172755
 30
0.0
 10
282.0267604459
 20
64.6543571968
 30
0.0
 10
281.3540883104
 20
64.0893588557
 30
0.0
 10
280.7166510101
 20
63.8138426137
 30
0.0
 10
280.2016055682
 20
63.723772907
 30
0.0
 10
279.6803371705
 20
63.7694338567
 30
0.0
 10
279.188221181
 20
63.9449772045
 30
0.0
 10
278.748084583
 20
64.2242916023
 30
0.0
 10
278.2399366497
 20
64.6956973774
 30
0.0
 10
277.7436111351
 20
65.4128541055
 30
0.0
 10
277.4635978751
 20
66.046608349
 30
0.0
 10
277.3448863723
 20
66.3708943944
 30
0.0
  0
SPLINE
  5
415
100
AcDbEntity
  8
RUNDUNGEN
100
AcDbSpline
 62
7
  6
CONTINUOUS
 70
0
 71
3
 72
21
 73
17
 74
0
 42
0.0000001
 43
0.0000001
 44
0.0000000001
 40
0.0
 40
0.0
 40
0.0
 40
0.0
 40
0.0961947646
 40
0.1915726682
 40
0.2851437885
 40
0.3760650802
 40
0.5465793262
 40
0.6967064377
 40
0.7623388915
 40
0.820851961
 40
0.8717085723
 40
0.9144518382
 40
0.9487254971
 40
0.9742898024
 40
0.9911305575
 40
1.0
 40
1.0
 40
1.0
 40
1.0
 10
217.7405624748
 20
130.9297568576
 30
0.0
 10
217.5560984594
 20
131.0133982736
 30
0.0
 10
217.1916444596
 20
131.1863407295
 30
0.0
 10
216.6518633604
 20
131.4491668436
 30
0.0
 10
216.1216899567
 20
131.7063989507
 30
0.0
 10
215.4520300998
 20
132.0384987196
 30
0.0
 10
214.6799047288
 20
132.4319333211
 30
0.0
 10
213.9612981186
 20
132.8129765257
 30
0.0
 10
213.4561493654
 20
133.0928352853
 30
0.0
 10
213.1364319829
 20
133.2761120993
 30
0.0
 10
212.8616280189
 20
133.4404526795
 30
0.0
 10
212.6338925381
 20
133.5847313424
 30
0.0
 10
212.4561889835
 20
133.7061293868
 30
0.0
 10
212.327115916
 20
133.8067717717
 30
0.0
 10
212.2516585963
 20
133.8783223074
 30
0.0
 10
212.2187497804
 20
133.9300679213
 30
0.0
 10
212.2217956818
 20
133.9484927329
 30
0.0
  0
SPLINE
  5
416
100
AcDbEntity
  8
RUNDUNGEN
100
AcDbSpline
 62
7
  6
CONTINUOUS
 70
0
 71
3
 72
20
 73
16
 74
0
 42
0.0000001
 43
0.0000001
 44
0.0000000001
 40
0.0
 40
0.0
 40
0.0
 40
0.0
 40
0.0027388691
 40
0.0074148356
 40
0.0234167311
 40
0.0484584862
 40
0.0823607591
 40
0.1248389821
 40
0.1755211446
 40
0.2339435804
 40
0.299574677
 40
0.4499647757
 40
0.6211448423
 40
0.8067704733
 40
1.0
 40
1.0
 40
1.0
 40
1.0
 10
314.0608649105
 20
49.8551126427
 30
0.0
 10
314.0575281181
 20
49.8539815916
 30
0.0
 10
314.0474476691
 20
49.8564344753
 30
0.0
 10
314.0216072998
 20
49.8709804889
 30
0.0
 10
313.9747837057
 20
49.9076691237
 30
0.0
 10
313.9019275575
 20
49.9703164574
 30
0.0
 10
313.8062025365
 20
50.0592149972
 30
0.0
 10
313.688835154
 20
50.1729038093
 30
0.0
 10
313.5504487123
 20
50.3103138237
 30
0.0
 10
313.3922293163
 20
50.4699705126
 30
0.0
 10
313.1451862886
 20
50.7221854175
 30
0.0
 10
312.7987397058
 20
51.0800601549
 30
0.0
 10
312.3462813879
 20
51.5501449881
 30
0.0
 10
311.8557064051
 20
52.0600298865
 30
0.0
 10
311.5170456619
 20
52.4104984239
 30
0.0
 10
311.3439062247
 20
52.5888513376
 30
0.0
  0
SPLINE
  5
417
100
AcDbEntity
  8
RUNDUNGEN
100
AcDbSpline
 62
7
  6
CONTINUOUS
 70
0
 71
3
 72
22
 73
18
 74
0
 42
0.0000001
 43
0.0000001
 44
0.0000000001
 40
0.0
 40
0.0
 40
0.0
 40
0.0
 40
0.0022620455
 40
0.0068360062
 40
0.0136765033
 40
0.0227679586
 40
0.0341262412
 40
0.0477470516
 40
0.0816825126
 40
0.1242607746
 40
0.1750795796
 40
0.2336628276
 40
0.2994603825
 40
0.4501671103
 40
0.6215436842
 40
0.8071383948
 40
1.0
 40
1.0
 40
1.0
 40
1.0
 10
225.9836991532
 20
154.2714554425
 30
0.0
 10
225.9844133159
 20
154.2667916494
 30
0.0
 10
225.9915876663
 20
154.2539942552
 30
0.0
 10
226.0065328872
 20
154.2300109864
 30
0.0
 10
226.0334553962
 20
154.1964631658
 30
0.0
 10
226.0724657139
 20
154.1550629936
 30
0.0
 10
226.1235155006
 20
154.1055747104
 30
0.0
 10
226.2131746238
 20
154.0215597148
 30
0.0
 10
226.3504846464
 20
153.8931319703
 30
0.0
 10
226.545387653
 20
153.7127150508
 30
0.0
 10
226.7800883515
 20
153.4996259213
 30
0.0
 10
227.0516370988
 20
153.2550853899
 30
0.0
 10
227.4793375132
 20
152.8726037655
 30
0.0
 10
228.0850826649
 20
152.3362983499
 30
0.0
 10
228.8811283681
 20
151.6380074854
 30
0.0
 10
229.7466445205
 20
150.8855960582
 30
0.0
 10
230.3444051765
 20
150.3700274567
 30
0.0
 10
230.6498640477
 20
150.1082730966
 30
0.0
  0
SPLINE
  5
418
100
AcDbEntity
  8
RUNDUNGEN
100
AcDbSpline
 62
7
  6
CONTINUOUS
 70
0
 71
3
 72
23
 73
19
 74
0
 42
0.0000001
 43
0.0000001
 44
0.0000000001
 40
0.0
 40
0.0
 40
0.0
 40
0.0
 40
0.0020738214
 40
0.006468663
 40
0.013190457
 40
0.0222309311
 40
0.0335709771
 40
0.0471810739
 40
0.0810874705
 40
0.123637933
 40
0.1744367435
 40
0.2330060564
 40
0.2988037698
 40
0.3712072264
 40
0.4495441224
 40
0.6210254072
 40
0.8068174253
 40
1.0
 40
1.0
 40
1.0
 40
1.0
 10
255.5400964931
 20
128.4520462378
 30
0.0
 10
255.5348204058
 20
128.4532196039
 30
0.0
 10
255.5206643984
 20
128.4634009148
 30
0.0
 10
255.4924240036
 20
128.4822350015
 30
0.0
 10
255.4505633001
 20
128.5143893904
 30
0.0
 10
255.3948497029
 20
128.5576451767
 30
0.0
 10
255.3256480685
 20
128.6130215623
 30
0.0
 10
255.2065723307
 20
128.7096982587
 30
0.0
 10
255.0258340575
 20
128.8595149936
 30
0.0
 10
254.772275623
 20
129.0733103818
 30
0.0
 10
254.4713928857
 20
129.3306923023
 30
0.0
 10
254.1263142378
 20
129.6295994085
 30
0.0
 10
253.7406260051
 20
129.9676143938
 30
0.0
 10
253.3182849185
 20
130.3419613307
 30
0.0
 10
252.6929622976
 20
130.9025401133
 30
0.0
 10
251.8543221018
 20
131.6678654034
 30
0.0
 10
250.8070718307
 20
132.648478031
 30
0.0
 10
250.0966110615
 20
133.3347443932
 30
0.0
 10
249.7380177706
 20
133.6881754491
 30
0.0
  0
SPLINE
  5
419
100
AcDbEntity
  8
KONSTRUKTIONSELEMENTE
100
AcDbSpline
 62
7
  6
CONTINUOUS
 70
0
 71
3
 72
14
 73
10
 74
0
 42
0.0000001
 43
0.0000001
 44
0.0000000001
 40
0.0
 40
0.0
 40
0.0
 40
0.0
 40
0.1126887529
 40
0.2203477039
 40
0.3315245292
 40
0.4512280731
 40
0.5799804931
 40
0.7160373259
 40
1.0
 40
1.0
 40
1.0
 40
1.0
 10
299.7231345667
 20
77.5651161973
 30
0.0
 10
299.9005962031
 20
77.5825630707
 30
0.0
 10
300.2544792071
 20
77.5785357533
 30
0.0
 10
300.7599709569
 20
77.4090289341
 30
0.0
 10
301.2007534365
 20
77.0943838264
 30
0.0
 10
301.5880266035
 20
76.6741405088
 30
0.0
 10
301.9372857545
 20
76.1742420829
 30
0.0
 10
302.3628590157
 20
75.4167217745
 30
0.0
 10
302.6141590367
 20
74.79549274
 30
0.0
 10
302.7362861099
 20
74.3630689348
 30
0.0
  0
SPLINE
  5
41A
100
AcDbEntity
  8
RUNDUNGEN
100
AcDbSpline
 62
7
  6
CONTINUOUS
 70
0
 71
3
 72
8
 73
4
 74
0
 42
0.0000001
 43
0.0000001
 44
0.0000000001
 40
0.0
 40
0.0
 40
0.0
 40
0.0
 40
1.0
 40
1.0
 40
1.0
 40
1.0
 10
311.3159227834
 20
52.6264945419
 30
0.0
 10
311.3235717553
 20
52.612858304
 30
0.0
 10
311.333015777
 20
52.6000697114
 30
0.0
 10
311.3439062242
 20
52.5888513373
 30
0.0
  0
SPLINE
  5
41B
100
AcDbEntity
  8
RUNDUNGEN
100
AcDbSpline
 62
7
  6
CONTINUOUS
 70
0
 71
3
 72
8
 73
4
 74
0
 42
0.0000001
 43
0.0000001
 44
0.0000000001
 40
0.0
 40
0.0
 40
0.0
 40
0.0
 40
1.0
 40
1.0
 40
1.0
 40
1.0
 10
223.2051488089
 20
128.3894964876
 30
0.0
 10
221.3869013549
 20
129.2432732003
 30
0.0
 10
219.5699982167
 20
130.1002251119
 30
0.0
 10
217.7405568523
 20
130.9297447163
 30
0.0
  0
SPLINE
  5
41C
100
AcDbEntity
  8
KONSTRUKTIONSELEMENTE
100
AcDbSpline
 62
7
  6
CONTINUOUS
 70
0
 71
3
 72
11
 73
7
 74
0
 42
0.0000001
 43
0.0000001
 44
0.0000000001
 40
0.0
 40
0.0
 40
0.0
 40
0.0
 40
0.22541691
 40
0.4713288484
 40
0.7320298813
 40
1.0
 40
1.0
 40
1.0
 40
1.0
 10
265.0587615854
 20
74.5244197257
 30
0.0
 10
264.9978873526
 20
74.1549660449
 30
0.0
 10
264.7374474738
 20
73.4059061762
 30
0.0
 10
264.1443459108
 20
72.3418019745
 30
0.0
 10
263.3766581399
 20
71.304715649
 30
0.0
 10
262.7375377142
 20
70.6905889802
 30
0.0
 10
262.3790810941
 20
70.4266948388
 30
0.0
  0
SPLINE
  5
41D
100
AcDbEntity
  8
KONSTRUKTIONSELEMENTE
100
AcDbSpline
 62
7
  6
CONTINUOUS
 70
0
 71
3
 72
11
 73
7
 74
0
 42
0.0000001
 43
0.0000001
 44
0.0000000001
 40
0.0
 40
0.0
 40
0.0
 40
0.0
 40
0.2280482471
 40
0.4744958609
 40
0.7340357892
 40
1.0
 40
1.0
 40
1.0
 40
1.0
 10
283.305357266
 20
70.6826133688
 30
0.0
 10
283.4156356197
 20
70.3732751774
 30
0.0
 10
283.5452558907
 20
69.694565135
 30
0.0
 10
283.5612323598
 20
68.6350194692
 30
0.0
 10
283.4284266988
 20
67.527914175
 30
0.0
 10
283.2172662546
 20
66.7951919025
 30
0.0
 10
283.0699042661
 20
66.4416658978
 30
0.0
  0
LINE
  5
41E
100
AcDbEntity
  8
0
100
AcDbLine
 62
7
  6
CONTINUOUS
 10
91.0559418933
 20
169.9259232252
 11
91.0391981668
 21
170.6345918944
  0
LINE
  5
41F
100
AcDbEntity
  8
0
100
AcDbLine
 62
7
  6
CONTINUOUS
 10
90.9877452129
 20
172.5707504963
 11
90.9450554224
 21
173.9799912926
  0
SPLINE
  5
420
100
AcDbEntity
  8
RUNDUNGEN
100
AcDbSpline
 62
7
  6
CONTINUOUS
 70
0
 71
3
 72
14
 73
10
 74
0
 42
0.0000001
 43
0.0000001
 44
0.0000000001
 40
0.0
 40
0.0
 40
0.0
 40
0.0
 40
0.361741013
 40
0.5223091551
 40
0.6647637701
 40
0.785893756
 40
0.8831190502
 40
0.9547510331
 40
1.0
 40
1.0
 40
1.0
 40
1.0
 10
114.4998315199
 20
215.8498057525
 30
0.0
 10
114.9959926852
 20
217.1163435178
 30
0.0
 10
115.6410051918
 20
218.9747677336
 30
0.0
 10
116.3053877252
 20
221.3851204894
 30
0.0
 10
116.6641737637
 20
222.9397192486
 30
0.0
 10
116.9132572809
 20
224.2737894987
 30
0.0
 10
117.0682086392
 20
225.3535716307
 30
0.0
 10
117.1471943189
 20
226.1549263025
 30
0.0
 10
117.1708343115
 20
226.5941759786
 30
0.0
 10
117.1714880359
 20
226.7643244533
 30
0.0
  0
SPLINE
  5
421
100
AcDbEntity
  8
0
100
AcDbSpline
 62
7
  6
CONTINUOUS
 70
0
 71
3
 72
14
 73
10
 74
0
 42
0.0000001
 43
0.0000001
 44
0.0000000001
 40
0.0
 40
0.0
 40
0.0
 40
0.0
 40
0.361741013
 40
0.5223091551
 40
0.6647637701
 40
0.785893756
 40
0.8831190502
 40
0.9547510331
 40
1.0
 40
1.0
 40
1.0
 40
1.0
 10
83.3432013413
 20
215.8498057525
 30
0.0
 10
82.8470401761
 20
217.1163435178
 30
0.0
 10
82.2020276694
 20
218.9747677336
 30
0.0
 10
81.537645136
 20
221.3851204894
 30
0.0
 10
81.1788590976
 20
222.9397192486
 30
0.0
 10
80.9297755804
 20
224.2737894987
 30
0.0
 10
80.774824222
 20
225.3535716307
 30
0.0
 10
80.6958385424
 20
226.1549263025
 30
0.0
 10
80.6721985497
 20
226.5941759786
 30
0.0
 10
80.6715448254
 20
226.7643244533
 30
0.0
  0
SPLINE
  5
422
100
AcDbEntity
  8
0
100
AcDbSpline
 62
7
  6
CONTINUOUS
 70
0
 71
3
 72
15
 73
11
 74
0
 42
0.0000001
 43
0.0000001
 44
0.0000000001
 40
0.0
 40
0.0
 40
0.0
 40
0.0
 40
0.1267255784
 40
0.2668262201
 40
0.4084059945
 40
0.5449499422
 40
0.6742403499
 40
0.795128396
 40
0.9053215629
 40
1.0
 40
1.0
 40
1.0
 40
1.0
 10
108.3231752577
 20
76.5647050061
 30
0.0
 10
108.4785621048
 20
76.3085065865
 30
0.0
 10
108.8572760584
 20
75.8015293418
 30
0.0
 10
109.4715083564
 20
75.0572395616
 30
0.0
 10
110.0820516606
 20
74.278675829
 30
0.0
 10
110.6215271812
 20
73.4791498963
 30
0.0
 10
111.0561792302
 20
72.67262892
 30
0.0
 10
111.372405283
 20
71.8791318108
 30
0.0
 10
111.5681733318
 20
71.1322419022
 30
0.0
 10
111.6311686135
 20
70.6502306715
 30
0.0
 10
111.6432749121
 20
70.4266948388
 30
0.0
  0
SPLINE
  5
423
100
AcDbEntity
  8
0
100
AcDbSpline
 62
7
  6
CONTINUOUS
 70
0
 71
3
 72
9
 73
5
 74
0
 42
0.0000001
 43
0.0000001
 44
0.0000000001
 40
0.0
 40
0.0
 40
0.0
 40
0.0
 40
0.5080712778
 40
1.0
 40
1.0
 40
1.0
 40
1.0
 10
109.3655133144
 20
69.5667373559
 30
0.0
 10
109.6053261964
 20
69.0745354746
 30
0.0
 10
109.9669083084
 20
68.0481899088
 30
0.0
 10
110.1025288176
 20
66.97148235
 30
0.0
 10
110.1204493332
 20
66.4416658978
 30
0.0
  0
SPLINE
  5
424
100
AcDbEntity
  8
KONSTRUKTIONSELEMENTE
100
AcDbSpline
 62
7
  6
CONTINUOUS
 70
0
 71
3
 72
11
 73
7
 74
0
 42
0.0000001
 43
0.0000001
 44
0.0000000001
 40
0.0
 40
0.0
 40
0.0
 40
0.0
 40
0.2068298408
 40
0.4500686574
 40
0.7185691585
 40
1.0
 40
1.0
 40
1.0
 40
1.0
 10
85.4942566806
 20
66.8814352952
 30
0.0
 10
85.2612886079
 20
69.6389653267
 30
0.0
 10
84.8193367312
 20
75.6448731611
 30
0.0
 10
84.2116791471
 20
85.2400341524
 30
0.0
 10
83.6012555653
 20
95.8350103852
 30
0.0
 10
83.1965465036
 20
103.1818707602
 30
0.0
 10
82.9894112086
 20
106.9416736275
 30
0.0
  0
SPLINE
  5
425
100
AcDbEntity
  8
0
100
AcDbSpline
 62
7
  6
CONTINUOUS
 70
0
 71
3
 72
9
 73
5
 74
0
 42
0.0000001
 43
0.0000001
 44
0.0000000001
 40
0.0
 40
0.0
 40
0.0
 40
0.0
 40
0.2400841497
 40
1.0
 40
1.0
 40
1.0
 40
1.0
 10
108.9895367956
 20
71.4067529952
 30
0.0
 10
108.9735830831
 20
71.5071495761
 30
0.0
 10
108.8909851714
 20
71.9226973128
 30
0.0
 10
108.7468058147
 20
72.3251526278
 30
0.0
 10
108.6110099921
 20
72.6168561304
 30
0.0
  0
SPLINE
  5
426
100
AcDbEntity
  8
BEZUGSACHSEN
100
AcDbSpline
 62
7
  6
CONTINUOUS
 70
0
 71
3
 72
9
 73
5
 74
0
 42
0.0000001
 43
0.0000001
 44
0.0000000001
 40
0.0
 40
0.0
 40
0.0
 40
0.0
 40
0.5308627724
 40
1.0
 40
1.0
 40
1.0
 40
1.0
 10
89.9374859192
 20
70.4963562047
 30
0.0
 10
89.791251969
 20
68.0684911614
 30
0.0
 10
89.5100564237
 20
63.4954026151
 30
0.0
 10
89.2048855535
 20
58.92380316
 30
0.0
 10
89.0508324306
 20
56.7798750301
 30
0.0
  0
SPLINE
  5
427
100
AcDbEntity
  8
0
100
AcDbSpline
 62
7
  6
CONTINUOUS
 70
0
 71
3
 72
9
 73
5
 74
0
 42
0.0000001
 43
0.0000001
 44
0.0000000001
 40
0.0
 40
0.0
 40
0.0
 40
0.0
 40
0.2476121082
 40
1.0
 40
1.0
 40
1.0
 40
1.0
 10
108.5224665564
 20
74.8685619532
 30
0.0
 10
108.5274323623
 20
74.8270239748
 30
0.0
 10
108.5453297479
 20
74.6590154307
 30
0.0
 10
108.5548980152
 20
74.4901473533
 30
0.0
 10
108.557946724
 20
74.3630689348
 30
0.0
  0
SPLINE
  5
428
100
AcDbEntity
  8
0
100
AcDbSpline
 62
7
  6
CONTINUOUS
 70
0
 71
3
 72
21
 73
17
 74
0
 42
0.0000001
 43
0.0000001
 44
0.0000000001
 40
0.0
 40
0.0
 40
0.0
 40
0.0
 40
0.0021803433
 40
0.006675667
 40
0.0138341323
 40
0.02370376
 40
0.0515024354
 40
0.0896994862
 40
0.1376882137
 40
0.1946864767
 40
0.2597392118
 40
0.3317632851
 40
0.4918088714
 40
0.6641698923
 40
0.8373802705
 40
1.0
 40
1.0
 40
1.0
 40
1.0
 10
107.8340127639
 20
74.249319975
 30
0.0
 10
107.8312798819
 20
74.2493193378
 30
0.0
 10
107.8252275207
 20
74.2411039595
 30
0.0
 10
107.8211836704
 20
74.2252386412
 30
0.0
 10
107.8158792183
 20
74.1982488718
 30
0.0
 10
107.8095849426
 20
74.1426767074
 30
0.0
 10
107.8034892357
 20
74.0475391885
 30
0.0
 10
107.7989778492
 20
73.9048281705
 30
0.0
 10
107.796678615
 20
73.7253286002
 30
0.0
 10
107.7967496963
 20
73.512206524
 30
0.0
 10
107.7991504477
 20
73.2689540419
 30
0.0
 10
107.8056345332
 20
72.8965908569
 30
0.0
 10
107.8192261696
 20
72.3898403347
 30
0.0
 10
107.8421006404
 20
71.7564964313
 30
0.0
 10
107.8705908648
 20
71.1201503448
 30
0.0
 10
107.8932921325
 20
70.6998180123
 30
0.0
 10
107.9055469421
 20
70.4963562047
 30
0.0
  0
SPLINE
  5
429
100
AcDbEntity
  8
0
100
AcDbSpline
 62
7
  6
CONTINUOUS
 70
0
 71
3
 72
21
 73
17
 74
0
 42
0.0000001
 43
0.0000001
 44
0.0000000001
 40
0.0
 40
0.0
 40
0.0
 40
0.0
 40
0.0050053902
 40
0.0107492393
 40
0.0177374663
 40
0.0262559701
 40
0.0484179276
 40
0.0778628886
 40
0.1147890029
 40
0.1592489711
 40
0.2112281798
 40
0.2706668152
 40
0.4115496744
 40
0.5809407836
 40
0.7775911664
 40
1.0
 40
1.0
 40
1.0
 40
1.0
 10
110.2264895117
 20
53.7324607744
 30
0.0
 10
110.2489435889
 20
53.7324604387
 30
0.0
 10
110.2974730531
 20
53.7431294283
 30
0.0
 10
110.3651331923
 20
53.7870327452
 30
0.0
 10
110.4311547184
 20
53.8565755639
 30
0.0
 10
110.5269481249
 20
53.9963369456
 30
0.0
 10
110.6409988438
 20
54.2422486164
 30
0.0
 10
110.7699931251
 20
54.6180333647
 30
0.0
 10
110.8998688426
 20
55.09830295
 30
0.0
 10
111.0305731499
 20
55.6822197184
 30
0.0
 10
111.1617877713
 20
56.369162041
 30
0.0
 10
111.3479521076
 20
57.4856344933
 30
0.0
 10
111.5750403635
 20
59.1288161219
 30
0.0
 10
111.8364958768
 20
61.3878802009
 30
0.0
 10
112.0989889807
 20
64.0146589216
 30
0.0
 10
112.2647835745
 20
65.8872555728
 30
0.0
 10
112.3487761806
 20
66.8814352952
 30
0.0
  0
SPLINE
  5
42A
100
AcDbEntity
  8
KONSTRUKTIONSELEMENTE
100
AcDbSpline
 62
7
  6
CONTINUOUS
 70
0
 71
3
 72
15
 73
11
 74
0
 42
0.0000001
 43
0.0000001
 44
0.0000000001
 40
0.0
 40
0.0
 40
0.0
 40
0.0
 40
0.1267255784
 40
0.2668262201
 40
0.4084059945
 40
0.5449499422
 40
0.6742403499
 40
0.795128396
 40
0.9053215629
 40
1.0
 40
1.0
 40
1.0
 40
1.0
 10
89.5198576035
 20
76.5647050061
 30
0.0
 10
89.3644707565
 20
76.3085065865
 30
0.0
 10
88.9857568029
 20
75.8015293418
 30
0.0
 10
88.3715245048
 20
75.0572395617
 30
0.0
 10
87.7609812006
 20
74.278675829
 30
0.0
 10
87.22150568
 20
73.4791498963
 30
0.0
 10
86.786853631
 20
72.67262892
 30
0.0
 10
86.4706275782
 20
71.8791318108
 30
0.0
 10
86.2748595294
 20
71.1322419022
 30
0.0
 10
86.2118642478
 20
70.6502306715
 30
0.0
 10
86.1997579491
 20
70.4266948388
 30
0.0
  0
SPLINE
  5
42B
100
AcDbEntity
  8
KONSTRUKTIONSELEMENTE
100
AcDbSpline
 62
7
  6
CONTINUOUS
 70
0
 71
3
 72
9
 73
5
 74
0
 42
0.0000001
 43
0.0000001
 44
0.0000000001
 40
0.0
 40
0.0
 40
0.0
 40
0.0
 40
0.508273461
 40
1.0
 40
1.0
 40
1.0
 40
1.0
 10
88.4228304335
 20
69.4519276599
 30
0.0
 10
88.2006921468
 20
68.9747966899
 30
0.0
 10
87.866259476
 20
67.9850040978
 30
0.0
 10
87.7397959659
 20
66.9505481742
 30
0.0
 10
87.722583528
 20
66.4416658978
 30
0.0
  0
SPLINE
  5
42C
100
AcDbEntity
  8
KONSTRUKTIONSELEMENTE
100
AcDbSpline
 62
7
  6
CONTINUOUS
 70
0
 71
3
 72
9
 73
5
 74
0
 42
0.0000001
 43
0.0000001
 44
0.0000000001
 40
0.0
 40
0.0
 40
0.0
 40
0.0
 40
0.2400840883
 40
1.0
 40
1.0
 40
1.0
 40
1.0
 10
88.8534951429
 20
71.406747188
 30
0.0
 10
88.8694487745
 20
71.5071442297
 30
0.0
 10
88.9520465459
 20
71.9226939886
 30
0.0
 10
89.0962264098
 20
72.32515126
 30
0.0
 10
89.2320228691
 20
72.6168561304
 30
0.0
  0
SPLINE
  5
42D
100
AcDbEntity
  8
KONSTRUKTIONSELEMENTE
100
AcDbSpline
 62
7
  6
CONTINUOUS
 70
0
 71
3
 72
9
 73
5
 74
0
 42
0.0000001
 43
0.0000001
 44
0.0000000001
 40
0.0
 40
0.0
 40
0.0
 40
0.0
 40
0.2476121082
 40
1.0
 40
1.0
 40
1.0
 40
1.0
 10
89.3205663049
 20
74.8685619532
 30
0.0
 10
89.315600499
 20
74.8270239748
 30
0.0
 10
89.2977031133
 20
74.6590154307
 30
0.0
 10
89.2881348461
 20
74.4901473533
 30
0.0
 10
89.2850861373
 20
74.3630689348
 30
0.0
  0
SPLINE
  5
42E
100
AcDbEntity
  8
BEZUGSACHSEN
100
AcDbSpline
 62
7
  6
CONTINUOUS
 70
0
 71
3
 72
21
 73
17
 74
0
 42
0.0000001
 43
0.0000001
 44
0.0000000001
 40
0.0
 40
0.0
 40
0.0
 40
0.0
 40
0.0021803433
 40
0.006675667
 40
0.0138341323
 40
0.02370376
 40
0.0515024354
 40
0.0896994862
 40
0.1376882137
 40
0.1946864767
 40
0.2597392118
 40
0.3317632851
 40
0.4918088714
 40
0.6641698923
 40
0.8373802705
 40
1.0
 40
1.0
 40
1.0
 40
1.0
 10
90.0090200973
 20
74.249319975
 30
0.0
 10
90.0117529794
 20
74.2493193378
 30
0.0
 10
90.0178053405
 20
74.2411039595
 30
0.0
 10
90.0218491908
 20
74.2252386412
 30
0.0
 10
90.027153643
 20
74.1982488718
 30
0.0
 10
90.0334479186
 20
74.1426767074
 30
0.0
 10
90.0395436255
 20
74.0475391885
 30
0.0
 10
90.044055012
 20
73.9048281705
 30
0.0
 10
90.0463542462
 20
73.7253286002
 30
0.0
 10
90.046283165
 20
73.512206524
 30
0.0
 10
90.0438824135
 20
73.2689540419
 30
0.0
 10
90.037398328
 20
72.8965908569
 30
0.0
 10
90.0238066916
 20
72.3898403347
 30
0.0
 10
90.0009322208
 20
71.7564964313
 30
0.0
 10
89.9724419964
 20
71.1201503448
 30
0.0
 10
89.9497407288
 20
70.6998180123
 30
0.0
 10
89.9374859192
 20
70.4963562047
 30
0.0
  0
SPLINE
  5
42F
100
AcDbEntity
  8
BEZUGSACHSEN
100
AcDbSpline
 62
7
  6
CONTINUOUS
 70
0
 71
3
 72
21
 73
17
 74
0
 42
0.0000001
 43
0.0000001
 44
0.0000000001
 40
0.0
 40
0.0
 40
0.0
 40
0.0
 40
0.0050053902
 40
0.0107492393
 40
0.0177374663
 40
0.0262559701
 40
0.0484179276
 40
0.0778628886
 40
0.1147890029
 40
0.1592489711
 40
0.2112281798
 40
0.2706668152
 40
0.4115496744
 40
0.5809407836
 40
0.7775911664
 40
1.0
 40
1.0
 40
1.0
 40
1.0
 10
87.6165433496
 20
53.7324607744
 30
0.0
 10
87.5940892723
 20
53.7324604387
 30
0.0
 10
87.5455598082
 20
53.7431294283
 30
0.0
 10
87.477899669
 20
53.7870327452
 30
0.0
 10
87.4118781428
 20
53.8565755639
 30
0.0
 10
87.3160847364
 20
53.9963369456
 30
0.0
 10
87.2020340175
 20
54.2422486164
 30
0.0
 10
87.0730397361
 20
54.6180333647
 30
0.0
 10
86.9431640187
 20
55.09830295
 30
0.0
 10
86.8124597113
 20
55.6822197184
 30
0.0
 10
86.6812450899
 20
56.369162041
 30
0.0
 10
86.4950807537
 20
57.4856344933
 30
0.0
 10
86.2679924978
 20
59.1288161219
 30
0.0
 10
86.0065369844
 20
61.3878802009
 30
0.0
 10
85.7440438806
 20
64.0146589216
 30
0.0
 10
85.5782492868
 20
65.8872555728
 30
0.0
 10
85.4942566806
 20
66.8814352952
 30
0.0
  0
SPLINE
  5
430
100
AcDbEntity
  8
KONSTRUKTIONSELEMENTE
100
AcDbSpline
 62
7
  6
CONTINUOUS
 70
0
 71
3
 72
17
 73
13
 74
0
 42
0.0000001
 43
0.0000001
 44
0.0000000001
 40
0.0
 40
0.0
 40
0.0
 40
0.0
 40
0.1695898768
 40
0.3335351485
 40
0.4897386471
 40
0.6352206441
 40
0.7657634363
 40
0.8754257865
 40
0.9199875936
 40
0.9562742712
 40
0.9831998909
 40
1.0
 40
1.0
 40
1.0
 40
1.0
 10
87.722583528
 20
66.4416658978
 30
0.0
 10
87.7174306037
 20
66.2893207227
 30
0.0
 10
87.7066910408
 20
65.989721068
 30
0.0
 10
87.6886399131
 20
65.5498968137
 30
0.0
 10
87.6686907774
 20
65.1318488496
 30
0.0
 10
87.6466754751
 20
64.7439572824
 30
0.0
 10
87.6224030163
 20
64.3981547846
 30
0.0
 10
87.5994042525
 20
64.1431372514
 30
0.0
 10
87.5784135376
 20
63.9732466409
 30
0.0
 10
87.5635278482
 20
63.877350645
 30
0.0
 10
87.548225309
 20
63.8073613316
 30
0.0
 10
87.5361781977
 20
63.7692841361
 30
0.0
 10
87.5282372709
 20
63.7564402848
 30
0.0
  0
SPLINE
  5
431
100
AcDbEntity
  8
KONSTRUKTIONSELEMENTE
100
AcDbSpline
 62
7
  6
CONTINUOUS
 70
0
 71
3
 72
14
 73
10
 74
0
 42
0.0000001
 43
0.0000001
 44
0.0000000001
 40
0.0
 40
0.0
 40
0.0
 40
0.0
 40
0.3588270633
 40
0.5174057596
 40
0.659241809
 40
0.7815524055
 40
0.8814331968
 40
0.9553167912
 40
1.0
 40
1.0
 40
1.0
 40
1.0
 10
86.1997579491
 20
70.4266948388
 30
0.0
 10
86.1929274728
 20
70.3005740268
 30
0.0
 10
86.1820073578
 20
70.1187563768
 30
0.0
 10
86.1641183743
 20
69.8874080391
 30
0.0
 10
86.150444692
 20
69.7391907252
 30
0.0
 10
86.1357696226
 20
69.6120049507
 30
0.0
 10
86.120624216
 20
69.5085363331
 30
0.0
 10
86.1042812432
 20
69.4340611068
 30
0.0
 10
86.0914154093
 20
69.3930671115
 30
0.0
 10
86.0819133206
 20
69.3805335617
 30
0.0
  0
SPLINE
  5
432
100
AcDbEntity
  8
KONSTRUKTIONSELEMENTE
100
AcDbSpline
 62
7
  6
CONTINUOUS
 70
0
 71
3
 72
21
 73
17
 74
0
 42
0.0000001
 43
0.0000001
 44
0.0000000001
 40
0.0
 40
0.0
 40
0.0
 40
0.0
 40
0.1437135288
 40
0.2897227469
 40
0.437424265
 40
0.5851983285
 40
0.6579927717
 40
0.7289568042
 40
0.7966449788
 40
0.8589630426
 40
0.9131238592
 40
0.9559854451
 40
0.9723688217
 40
0.985130541
 40
0.9942952129
 40
1.0
 40
1.0
 40
1.0
 40
1.0
 10
89.2850861373
 20
74.3630689348
 30
0.0
 10
89.2786278949
 20
74.0938719442
 30
0.0
 10
89.2647914327
 20
73.5511969112
 30
0.0
 10
89.2408847169
 20
72.7319462479
 30
0.0
 10
89.2128850403
 20
71.905211803
 30
0.0
 10
89.1852786071
 20
71.215733121
 30
0.0
 10
89.159710289
 20
70.6700886371
 30
0.0
 10
89.1389031511
 20
70.274446543
 30
0.0
 10
89.1162822132
 20
69.8985688625
 30
0.0
 10
89.0920115915
 20
69.55433431
 30
0.0
 10
89.0663935323
 20
69.2568890093
 30
0.0
 10
89.0431647172
 20
69.0455853585
 30
0.0
 10
89.0232158506
 20
68.9121769452
 30
0.0
 10
89.0098972756
 20
68.8415254787
 30
0.0
 10
88.996992972
 20
68.7915327994
 30
0.0
 10
88.9870099387
 20
68.7650866803
 30
0.0
 10
88.9810655986
 20
68.7562030174
 30
0.0
  0
SPLINE
  5
433
100
AcDbEntity
  8
0
100
AcDbSpline
 62
7
  6
CONTINUOUS
 70
0
 71
3
 72
21
 73
17
 74
0
 42
0.0000001
 43
0.0000001
 44
0.0000000001
 40
0.0
 40
0.0
 40
0.0
 40
0.0
 40
0.1437135288
 40
0.2897227469
 40
0.437424265
 40
0.5851983285
 40
0.6579927717
 40
0.7289568042
 40
0.7966449788
 40
0.8589630426
 40
0.9131238592
 40
0.9559854451
 40
0.9723688217
 40
0.985130541
 40
0.9942952129
 40
1.0
 40
1.0
 40
1.0
 40
1.0
 10
108.557946724
 20
74.3630689348
 30
0.0
 10
108.5644049663
 20
74.0938719442
 30
0.0
 10
108.5782414286
 20
73.5511969112
 30
0.0
 10
108.6021481444
 20
72.7319462479
 30
0.0
 10
108.6301478209
 20
71.905211803
 30
0.0
 10
108.6577542542
 20
71.215733121
 30
0.0
 10
108.6833225723
 20
70.6700886371
 30
0.0
 10
108.7041297102
 20
70.274446543
 30
0.0
 10
108.726750648
 20
69.8985688625
 30
0.0
 10
108.7510212697
 20
69.55433431
 30
0.0
 10
108.7766393289
 20
69.2568890093
 30
0.0
 10
108.7998681441
 20
69.0455853585
 30
0.0
 10
108.8198170106
 20
68.9121769452
 30
0.0
 10
108.8331355857
 20
68.8415254787
 30
0.0
 10
108.8460398893
 20
68.7915327994
 30
0.0
 10
108.8560229225
 20
68.7650866803
 30
0.0
 10
108.8619672626
 20
68.7562030174
 30
0.0
  0
SPLINE
  5
434
100
AcDbEntity
  8
0
100
AcDbSpline
 62
7
  6
CONTINUOUS
 70
0
 71
3
 72
14
 73
10
 74
0
 42
0.0000001
 43
0.0000001
 44
0.0000000001
 40
0.0
 40
0.0
 40
0.0
 40
0.0
 40
0.3588270633
 40
0.5174057596
 40
0.659241809
 40
0.7815524055
 40
0.8814331968
 40
0.9553167912
 40
1.0
 40
1.0
 40
1.0
 40
1.0
 10
111.6432749121
 20
70.4266948388
 30
0.0
 10
111.6501053885
 20
70.3005740268
 30
0.0
 10
111.6610255034
 20
70.1187563768
 30
0.0
 10
111.6789144869
 20
69.8874080391
 30
0.0
 10
111.6925881693
 20
69.7391907252
 30
0.0
 10
111.7072632387
 20
69.6120049507
 30
0.0
 10
111.7224086453
 20
69.5085363331
 30
0.0
 10
111.7387516181
 20
69.4340611068
 30
0.0
 10
111.751617452
 20
69.3930671115
 30
0.0
 10
111.7611195407
 20
69.3805335617
 30
0.0
  0
SPLINE
  5
435
100
AcDbEntity
  8
0
100
AcDbSpline
 62
7
  6
CONTINUOUS
 70
0
 71
3
 72
17
 73
13
 74
0
 42
0.0000001
 43
0.0000001
 44
0.0000000001
 40
0.0
 40
0.0
 40
0.0
 40
0.0
 40
0.1695898768
 40
0.3335351485
 40
0.4897386471
 40
0.6352206441
 40
0.7657634363
 40
0.8754257865
 40
0.9199875936
 40
0.9562742712
 40
0.9831998909
 40
1.0
 40
1.0
 40
1.0
 40
1.0
 10
110.1204493332
 20
66.4416658978
 30
0.0
 10
110.1256022575
 20
66.2893207227
 30
0.0
 10
110.1363418205
 20
65.989721068
 30
0.0
 10
110.1543929482
 20
65.5498968137
 30
0.0
 10
110.1743420838
 20
65.1318488496
 30
0.0
 10
110.1963573862
 20
64.7439572824
 30
0.0
 10
110.2206298449
 20
64.3981547846
 30
0.0
 10
110.2436286088
 20
64.1431372514
 30
0.0
 10
110.2646193237
 20
63.9732466409
 30
0.0
 10
110.279505013
 20
63.877350645
 30
0.0
 10
110.2948075522
 20
63.8073613316
 30
0.0
 10
110.3068546636
 20
63.7692841361
 30
0.0
 10
110.3147955904
 20
63.7564402848
 30
0.0
  0
SPLINE
  5
436
100
AcDbEntity
  8
0
100
AcDbSpline
 62
7
  6
CONTINUOUS
 70
0
 71
3
 72
11
 73
7
 74
0
 42
0.0000001
 43
0.0000001
 44
0.0000000001
 40
0.0
 40
0.0
 40
0.0
 40
0.0
 40
0.2068298408
 40
0.4500686574
 40
0.7185691585
 40
1.0
 40
1.0
 40
1.0
 40
1.0
 10
112.3487761806
 20
66.8814352952
 30
0.0
 10
112.5817442533
 20
69.6389653267
 30
0.0
 10
113.02369613
 20
75.6448731611
 30
0.0
 10
113.6313537142
 20
85.2400341524
 30
0.0
 10
114.2417772959
 20
95.8350103852
 30
0.0
 10
114.6464863576
 20
103.1818707602
 30
0.0
 10
114.8536216526
 20
106.9416736275
 30
0.0
  0
SPLINE
  5
437
100
AcDbEntity
  8
0
100
AcDbSpline
 62
7
  6
CONTINUOUS
 70
0
 71
3
 72
9
 73
5
 74
0
 42
0.0000001
 43
0.0000001
 44
0.0000000001
 40
0.0
 40
0.0
 40
0.0
 40
0.0
 40
0.5308627724
 40
1.0
 40
1.0
 40
1.0
 40
1.0
 10
107.9055469421
 20
70.4963562047
 30
0.0
 10
108.0517808922
 20
68.0684911614
 30
0.0
 10
108.3329764376
 20
63.4954026151
 30
0.0
 10
108.6381473077
 20
58.92380316
 30
0.0
 10
108.7922004306
 20
56.7798750301
 30
0.0
  0
LINE
  5
438
100
AcDbEntity
  8
0
100
AcDbLine
 62
7
  6
CONTINUOUS
 10
98.9215164306
 20
91.8599784835
 11
98.9215164306
 21
100.554718081
  0
SPLINE
  5
439
100
AcDbEntity
  8
0
100
AcDbSpline
 62
7
  6
CONTINUOUS
 70
0
 71
3
 72
22
 73
18
 74
0
 42
0.0000001
 43
0.0000001
 44
0.0000000001
 40
0.0
 40
0.0
 40
0.0
 40
0.0
 40
0.0058949109
 40
0.0099229491
 40
0.0150811498
 40
0.0229298197
 40
0.0474103636
 40
0.0828685339
 40
0.1280158536
 40
0.1816294251
 40
0.2425105029
 40
0.3097567788
 40
0.3825611819
 40
0.4601653422
 40
0.6276806646
 40
0.8085483175
 40
1.0
 40
1.0
 40
1.0
 40
1.0
 10
108.8619672626
 20
68.7562030174
 30
0.0
 10
108.8641866975
 20
68.7528861293
 30
0.0
 10
108.8683478144
 20
68.7469215994
 30
0.0
 10
108.8798294173
 20
68.745753422
 30
0.0
 10
108.8880976609
 20
68.7552199094
 30
0.0
 10
108.8993301757
 20
68.777529534
 30
0.0
 10
108.9112780134
 20
68.8225678896
 30
0.0
 10
108.9243172612
 20
68.8922256953
 30
0.0
 10
108.9366901413
 20
68.9823923087
 30
0.0
 10
108.9484640135
 20
69.0897935118
 30
0.0
 10
108.9595688176
 20
69.2123522577
 30
0.0
 10
108.9700117393
 20
69.3479832244
 30
0.0
 10
108.9798226847
 20
69.4950151996
 30
0.0
 10
108.9924606716
 20
69.7098843782
 30
0.0
 10
109.0065840838
 20
69.9979447135
 30
0.0
 10
109.0213618562
 20
70.3631246227
 30
0.0
 10
109.0299336272
 20
70.6150463554
 30
0.0
 10
109.0340343713
 20
70.7445971757
 30
0.0
  0
SPLINE
  5
43A
100
AcDbEntity
  8
RUNDUNGEN
100
AcDbSpline
 62
7
  6
CONTINUOUS
 70
0
 71
3
 72
13
 73
9
 74
0
 42
0.0000001
 43
0.0000001
 44
0.0000000001
 40
0.0
 40
0.0
 40
0.0
 40
0.0
 40
0.289195409
 40
0.5555228452
 40
0.676827385
 40
0.7899824871
 40
0.8966716297
 40
1.0
 40
1.0
 40
1.0
 40
1.0
 10
88.4763920439
 20
128.4538195756
 30
0.0
 10
87.5359393789
 20
128.4704498358
 30
0.0
 10
85.7257868205
 20
128.7102756385
 30
0.0
 10
83.6581792203
 20
129.5665795265
 30
0.0
 10
82.3577116605
 20
130.5618952406
 30
0.0
 10
81.6224379606
 20
131.4045502677
 30
0.0
 10
81.1263501901
 20
132.3426924465
 30
0.0
 10
80.9703066637
 20
133.0173147715
 30
0.0
 10
80.9386310205
 20
133.3518912205
 30
0.0
  0
SPLINE
  5
43B
100
AcDbEntity
  8
0
100
AcDbSpline
 62
7
  6
CONTINUOUS
 70
0
 71
3
 72
23
 73
19
 74
0
 42
0.0000001
 43
0.0000001
 44
0.0000000001
 40
0.0
 40
0.0
 40
0.0
 40
0.0
 40
0.0031537188
 40
0.0057949094
 40
0.0101556607
 40
0.01712047
 40
0.0269900946
 40
0.0399415467
 40
0.0560488135
 40
0.0752848798
 40
0.1228935944
 40
0.1815086526
 40
0.2492270178
 40
0.3238473282
 40
0.486154559
 40
0.6566938937
 40
0.8290423928
 40
1.0
 40
1.0
 40
1.0
 40
1.0
 10
111.7611195407
 20
69.3805335617
 30
0.0
 10
111.7637121576
 20
69.3771138195
 30
0.0
 10
111.7699950635
 20
69.3702376123
 30
0.0
 10
111.7849811579
 20
69.3754910475
 30
0.0
 10
111.7944002855
 20
69.3926958845
 30
0.0
 10
111.8053515308
 20
69.4191441339
 30
0.0
 10
111.8160757601
 20
69.4584332025
 30
0.0
 10
111.8273774779
 20
69.5101336725
 30
0.0
 10
111.8387918186
 20
69.5748900111
 30
0.0
 10
111.8554745529
 20
69.6865242431
 30
0.0
 10
111.8754488435
 20
69.8561122615
 30
0.0
 10
111.8979306449
 20
70.0917383151
 30
0.0
 10
111.9196547046
 20
70.3643323404
 30
0.0
 10
111.948035722
 20
70.7779112091
 30
0.0
 10
111.9790471893
 20
71.33152334
 30
0.0
 10
112.0105297384
 20
72.0182521945
 30
0.0
 10
112.0373764025
 20
72.716956817
 30
0.0
 10
112.0526700512
 20
73.1838622081
 30
0.0
 10
112.0597459169
 20
73.416385067
 30
0.0
  0
SPLINE
  5
43C
100
AcDbEntity
  8
RUNDUNGEN
100
AcDbSpline
 62
7
  6
CONTINUOUS
 70
0
 71
3
 72
14
 73
10
 74
0
 42
0.0000001
 43
0.0000001
 44
0.0000000001
 40
0.0
 40
0.0
 40
0.0
 40
0.0
 40
0.1427550341
 40
0.2828084998
 40
0.5471711038
 40
0.6699089831
 40
0.7856223091
 40
0.8950655476
 40
1.0
 40
1.0
 40
1.0
 40
1.0
 10
92.8800640778
 20
49.8551126427
 30
0.0
 10
92.6450652759
 20
49.8518117425
 30
0.0
 10
92.1782671504
 20
49.8790996234
 30
0.0
 10
91.2928408405
 20
50.0526282088
 30
0.0
 10
90.4798141996
 20
50.4028183039
 30
0.0
 10
89.8259285917
 20
50.9167651242
 30
0.0
 10
89.4482323725
 20
51.3527114919
 30
0.0
 10
89.18546355
 20
51.8333683099
 30
0.0
 10
89.0927129362
 20
52.1782611435
 30
0.0
 10
89.0694038024
 20
52.3494382358
 30
0.0
  0
SPLINE
  5
43D
100
AcDbEntity
  8
BEZUGSACHSEN
100
AcDbSpline
 62
7
  6
CONTINUOUS
 70
0
 71
3
 72
15
 73
11
 74
0
 42
0.0000001
 43
0.0000001
 44
0.0000000001
 40
0.0
 40
0.0
 40
0.0
 40
0.0
 40
0.2171233887
 40
0.4071102814
 40
0.5698540498
 40
0.7054653698
 40
0.8143953652
 40
0.8591750764
 40
0.8977887182
 40
1.0
 40
1.0
 40
1.0
 40
1.0
 10
88.4995678124
 20
56.1276265259
 30
0.0
 10
88.4650625079
 20
55.9411847721
 30
0.0
 10
88.39683704
 20
55.5922387422
 30
0.0
 10
88.2877859202
 20
55.1065923516
 30
0.0
 10
88.1790875716
 20
54.6941534501
 30
0.0
 10
88.0704265037
 20
54.3550532842
 30
0.0
 10
87.9758386633
 20
54.1209185498
 30
0.0
 10
87.8967497439
 20
53.9713661398
 30
0.0
 10
87.8119048823
 20
53.837730674
 30
0.0
 10
87.7058016434
 20
53.7324621086
 30
0.0
 10
87.6165433496
 20
53.7324607744
 30
0.0
  0
SPLINE
  5
43E
100
AcDbEntity
  8
KONSTRUKTIONSELEMENTE
100
AcDbSpline
 62
7
  6
CONTINUOUS
 70
0
 71
3
 72
9
 73
5
 74
0
 42
0.0000001
 43
0.0000001
 44
0.0000000001
 40
0.0
 40
0.0
 40
0.0
 40
0.0
 40
0.4975637902
 40
1.0
 40
1.0
 40
1.0
 40
1.0
 10
87.312291074
 20
66.3708943944
 30
0.0
 10
87.2868980723
 20
67.1594420793
 30
0.0
 10
87.5096405368
 20
68.763310402
 30
0.0
 10
88.2610079956
 20
70.2037966717
 30
0.0
 10
88.7552551745
 20
70.8286346224
 30
0.0
  0
SPLINE
  5
43F
100
AcDbEntity
  8
KONSTRUKTIONSELEMENTE
100
AcDbSpline
 62
7
  6
CONTINUOUS
 70
0
 71
3
 72
17
 73
13
 74
0
 42
0.0000001
 43
0.0000001
 44
0.0000000001
 40
0.0
 40
0.0
 40
0.0
 40
0.0
 40
0.1501730708
 40
0.2933578278
 40
0.4317040451
 40
0.5663929977
 40
0.6958341113
 40
0.8148658202
 40
0.8683905396
 40
0.9167891571
 40
0.9602043901
 40
1.0
 40
1.0
 40
1.0
 40
1.0
 10
85.7832869443
 20
73.416385067
 30
0.0
 10
85.7721859097
 20
73.7811807205
 30
0.0
 10
85.7976599888
 20
74.4969175758
 30
0.0
 10
86.0115993192
 20
75.5295676903
 30
0.0
 10
86.3964665987
 20
76.4714474998
 30
0.0
 10
86.9382821179
 20
77.2941830095
 30
0.0
 10
87.6122582868
 20
77.948175142
 30
0.0
 10
88.2724364377
 20
78.3035737896
 30
0.0
 10
88.8035476024
 20
78.4069414443
 30
0.0
 10
89.1605112687
 20
78.3898884013
 30
0.0
 10
89.4672972044
 20
78.2825704848
 30
0.0
 10
89.627871318
 20
78.1508870455
 30
0.0
 10
89.6892376161
 20
78.076134353
 30
0.0
  0
SPLINE
  5
440
100
AcDbEntity
  8
KONSTRUKTIONSELEMENTE
100
AcDbSpline
 62
7
  6
CONTINUOUS
 70
0
 71
3
 72
9
 73
5
 74
0
 42
0.0000001
 43
0.0000001
 44
0.0000000001
 40
0.0
 40
0.0
 40
0.0
 40
0.0
 40
0.2398633962
 40
1.0
 40
1.0
 40
1.0
 40
1.0
 10
88.80899849
 20
70.7445971757
 30
0.0
 10
88.807318336
 20
70.7976766447
 30
0.0
 10
88.8061649602
 20
71.0191336059
 30
0.0
 10
88.8270835098
 20
71.2405373932
 30
0.0
 10
88.8534951429
 20
71.406747188
 30
0.0
  0
SPLINE
  5
441
100
AcDbEntity
  8
0
100
AcDbSpline
 62
7
  6
CONTINUOUS
 70
0
 71
3
 72
9
 73
5
 74
0
 42
0.0000001
 43
0.0000001
 44
0.0000000001
 40
0.0
 40
0.0
 40
0.0
 40
0.0
 40
0.2398633319
 40
1.0
 40
1.0
 40
1.0
 40
1.0
 10
109.0340343713
 20
70.7445971757
 30
0.0
 10
109.0357145396
 20
70.7976770995
 30
0.0
 10
109.0368678756
 20
71.0191360191
 30
0.0
 10
109.0159489131
 20
71.2405417571
 30
0.0
 10
108.9895367956
 20
71.4067529952
 30
0.0
  0
SPLINE
  5
442
100
AcDbEntity
  8
0
100
AcDbSpline
 62
7
  6
CONTINUOUS
 70
0
 71
3
 72
17
 73
13
 74
0
 42
0.0000001
 43
0.0000001
 44
0.0000000001
 40
0.0
 40
0.0
 40
0.0
 40
0.0
 40
0.1501730708
 40
0.2933578278
 40
0.4317040451
 40
0.5663929977
 40
0.6958341113
 40
0.8148658202
 40
0.8683905396
 40
0.9167891571
 40
0.9602043901
 40
1.0
 40
1.0
 40
1.0
 40
1.0
 10
112.0597459169
 20
73.416385067
 30
0.0
 10
112.0708469515
 20
73.7811807205
 30
0.0
 10
112.0453728724
 20
74.4969175758
 30
0.0
 10
111.8314335421
 20
75.5295676903
 30
0.0
 10
111.4465662626
 20
76.4714474998
 30
0.0
 10
110.9047507434
 20
77.2941830095
 30
0.0
 10
110.2307745745
 20
77.948175142
 30
0.0
 10
109.5705964236
 20
78.3035737896
 30
0.0
 10
109.0394852589
 20
78.4069414443
 30
0.0
 10
108.6825215926
 20
78.3898884013
 30
0.0
 10
108.3757356569
 20
78.2825704848
 30
0.0
 10
108.2151615433
 20
78.1508870455
 30
0.0
 10
108.1537952452
 20
78.076134353
 30
0.0
  0
SPLINE
  5
443
100
AcDbEntity
  8
0
100
AcDbSpline
 62
7
  6
CONTINUOUS
 70
0
 71
3
 72
9
 73
5
 74
0
 42
0.0000001
 43
0.0000001
 44
0.0000000001
 40
0.0
 40
0.0
 40
0.0
 40
0.0
 40
0.4975637495
 40
1.0
 40
1.0
 40
1.0
 40
1.0
 10
110.5307417872
 20
66.3708943944
 30
0.0
 10
110.5561347304
 20
67.1594402601
 30
0.0
 10
110.3333933966
 20
68.7633049485
 30
0.0
 10
109.5820294035
 20
70.2037887206
 30
0.0
 10
109.0877843617
 20
70.8286261838
 30
0.0
  0
LINE
  5
444
100
AcDbEntity
  8
RUNDUNGEN
100
AcDbLine
 62
7
  6
CONTINUOUS
 10
89.0508324306
 20
52.6264945419
 11
89.0511117993
 21
52.5888513373
  0
SPLINE
  5
445
100
AcDbEntity
  8
0
100
AcDbSpline
 62
7
  6
CONTINUOUS
 70
0
 71
3
 72
14
 73
10
 74
0
 42
0.0000001
 43
0.0000001
 44
0.0000000001
 40
0.0
 40
0.0
 40
0.0
 40
0.0
 40
0.1427550341
 40
0.2828084998
 40
0.5471711038
 40
0.6699089831
 40
0.7856223091
 40
0.8950655476
 40
1.0
 40
1.0
 40
1.0
 40
1.0
 10
104.9629687835
 20
49.8551126427
 30
0.0
 10
105.1979675853
 20
49.8518117425
 30
0.0
 10
105.6647657108
 20
49.8790996234
 30
0.0
 10
106.5501920208
 20
50.0526282088
 30
0.0
 10
107.3632186616
 20
50.4028183039
 30
0.0
 10
108.0171042695
 20
50.9167651242
 30
0.0
 10
108.3948004887
 20
51.3527114919
 30
0.0
 10
108.6575693113
 20
51.8333683099
 30
0.0
 10
108.7503199251
 20
52.1782611435
 30
0.0
 10
108.7736290589
 20
52.3494382358
 30
0.0
  0
SPLINE
  5
446
100
AcDbEntity
  8
0
100
AcDbSpline
 62
7
  6
CONTINUOUS
 70
0
 71
3
 72
15
 73
11
 74
0
 42
0.0000001
 43
0.0000001
 44
0.0000000001
 40
0.0
 40
0.0
 40
0.0
 40
0.0
 40
0.2171233887
 40
0.4071102814
 40
0.5698540498
 40
0.7054653698
 40
0.8143953652
 40
0.8591750764
 40
0.8977887182
 40
1.0
 40
1.0
 40
1.0
 40
1.0
 10
109.3434650488
 20
56.1276265259
 30
0.0
 10
109.3779703534
 20
55.9411847721
 30
0.0
 10
109.4461958212
 20
55.5922387422
 30
0.0
 10
109.5552469411
 20
55.1065923516
 30
0.0
 10
109.6639452896
 20
54.6941534501
 30
0.0
 10
109.7726063575
 20
54.3550532842
 30
0.0
 10
109.8671941979
 20
54.1209185498
 30
0.0
 10
109.9462831174
 20
53.9713661398
 30
0.0
 10
110.031127979
 20
53.837730674
 30
0.0
 10
110.1372312179
 20
53.7324621086
 30
0.0
 10
110.2264895117
 20
53.7324607744
 30
0.0
  0
SPLINE
  5
447
100
AcDbEntity
  8
0
100
AcDbSpline
 62
7
  6
CONTINUOUS
 70
0
 71
3
 72
13
 73
9
 74
0
 42
0.0000001
 43
0.0000001
 44
0.0000000001
 40
0.0
 40
0.0
 40
0.0
 40
0.0
 40
0.289195405
 40
0.5555228411
 40
0.6768273824
 40
0.7899824865
 40
0.8966716304
 40
1.0
 40
1.0
 40
1.0
 40
1.0
 10
109.3666408173
 20
128.4538195756
 30
0.0
 10
110.3070933965
 20
128.4704498342
 30
0.0
 10
112.1172458008
 20
128.7102755985
 30
0.0
 10
114.1848532568
 20
129.5665793353
 30
0.0
 10
115.4853207997
 20
130.5618948775
 30
0.0
 10
116.2205945445
 20
131.404549768
 30
0.0
 10
116.7166824203
 20
132.3426918043
 30
0.0
 10
116.872726062
 20
133.0173140476
 30
0.0
 10
116.9044017689
 20
133.3518904622
 30
0.0
  0
SPLINE
  5
448
100
AcDbEntity
  8
BEZUGSACHSEN
100
AcDbSpline
 62
7
  6
CONTINUOUS
 70
0
 71
3
 72
16
 73
12
 74
0
 42
0.0000001
 43
0.0000001
 44
0.0000000001
 40
0.0
 40
0.0
 40
0.0
 40
0.0
 40
0.2185700486
 40
0.4149847113
 40
0.5861821565
 40
0.7298957355
 40
0.8442045383
 40
0.9275289499
 40
0.9789906746
 40
0.992890799
 40
1.0
 40
1.0
 40
1.0
 40
1.0
 10
89.8781744078
 20
73.1893515551
 30
0.0
 10
89.8838945911
 20
73.2672723534
 30
0.0
 10
89.8952950734
 20
73.4151796795
 30
0.0
 10
89.9132525242
 20
73.6239384578
 30
0.0
 10
89.9309568544
 20
73.8058974559
 30
0.0
 10
89.9480039245
 20
73.9582863501
 30
0.0
 10
89.96424482
 20
74.0794949303
 30
0.0
 10
89.9787585102
 20
74.1667545197
 30
0.0
 10
89.9913917284
 20
74.2195751831
 30
0.0
 10
90.0005469923
 20
74.242748775
 30
0.0
 10
90.0064788285
 20
74.2493205676
 30
0.0
 10
90.0090200973
 20
74.249319975
 30
0.0
  0
SPLINE
  5
449
100
AcDbEntity
  8
BEZUGSACHSEN
100
AcDbSpline
 62
7
  6
CONTINUOUS
 70
0
 71
3
 72
9
 73
5
 74
0
 42
0.0000001
 43
0.0000001
 44
0.0000000001
 40
0.0
 40
0.0
 40
0.0
 40
0.0
 40
0.4593122285
 40
1.0
 40
1.0
 40
1.0
 40
1.0
 10
88.4995678124
 20
56.1276265259
 30
0.0
 10
88.7042452988
 20
58.3279052323
 30
0.0
 10
89.1135045055
 20
63.121646487
 30
0.0
 10
89.4849723321
 20
67.9183613721
 30
0.0
 10
89.6795627352
 20
70.5123535518
 30
0.0
  0
LINE
  5
44A
100
AcDbEntity
  8
BEZUGSACHSEN
100
AcDbLine
 62
7
  6
CONTINUOUS
 10
89.6795627352
 20
70.5123535518
 11
89.6963147855
 21
70.735882355
  0
SPLINE
  5
44B
100
AcDbEntity
  8
BEZUGSACHSEN
100
AcDbSpline
 62
7
  6
CONTINUOUS
 70
0
 71
3
 72
9
 73
5
 74
0
 42
0.0000001
 43
0.0000001
 44
0.0000000001
 40
0.0
 40
0.0
 40
0.0
 40
0.0
 40
0.2469404094
 40
1.0
 40
1.0
 40
1.0
 40
1.0
 10
89.6963147855
 20
70.735882355
 30
0.0
 10
89.7114345552
 20
70.9378247331
 30
0.0
 10
89.7725052115
 20
71.7556143133
 30
0.0
 10
89.8329609211
 20
72.5734497922
 30
0.0
 10
89.8781744078
 20
73.1893515551
 30
0.0
  0
SPLINE
  5
44C
100
AcDbEntity
  8
0
100
AcDbSpline
 62
7
  6
CONTINUOUS
 70
0
 71
3
 72
9
 73
5
 74
0
 42
0.0000001
 43
0.0000001
 44
0.0000000001
 40
0.0
 40
0.0
 40
0.0
 40
0.0
 40
0.4593122285
 40
1.0
 40
1.0
 40
1.0
 40
1.0
 10
109.3434650488
 20
56.1276265259
 30
0.0
 10
109.1387875625
 20
58.3279052323
 30
0.0
 10
108.7295283557
 20
63.121646487
 30
0.0
 10
108.3580605292
 20
67.9183613721
 30
0.0
 10
108.163470126
 20
70.5123535518
 30
0.0
  0
LINE
  5
44D
100
AcDbEntity
  8
0
100
AcDbLine
 62
7
  6
CONTINUOUS
 10
108.163470126
 20
70.5123535518
 11
108.1467180758
 21
70.735882355
  0
SPLINE
  5
44E
100
AcDbEntity
  8
0
100
AcDbSpline
 62
7
  6
CONTINUOUS
 70
0
 71
3
 72
9
 73
5
 74
0
 42
0.0000001
 43
0.0000001
 44
0.0000000001
 40
0.0
 40
0.0
 40
0.0
 40
0.0
 40
0.2469404094
 40
1.0
 40
1.0
 40
1.0
 40
1.0
 10
108.1467180758
 20
70.735882355
 30
0.0
 10
108.131598306
 20
70.9378247331
 30
0.0
 10
108.0705276498
 20
71.7556143133
 30
0.0
 10
108.0100719401
 20
72.5734497922
 30
0.0
 10
107.9648584534
 20
73.1893515551
 30
0.0
  0
SPLINE
  5
44F
100
AcDbEntity
  8
0
100
AcDbSpline
 62
7
  6
CONTINUOUS
 70
0
 71
3
 72
16
 73
12
 74
0
 42
0.0000001
 43
0.0000001
 44
0.0000000001
 40
0.0
 40
0.0
 40
0.0
 40
0.0
 40
0.2185700486
 40
0.4149847113
 40
0.5861821565
 40
0.7298957355
 40
0.8442045383
 40
0.9275289499
 40
0.9789906746
 40
0.992890799
 40
1.0
 40
1.0
 40
1.0
 40
1.0
 10
107.9648584534
 20
73.1893515551
 30
0.0
 10
107.9591382701
 20
73.2672723534
 30
0.0
 10
107.9477377879
 20
73.4151796795
 30
0.0
 10
107.929780337
 20
73.6239384578
 30
0.0
 10
107.9120760069
 20
73.8058974559
 30
0.0
 10
107.8950289368
 20
73.9582863501
 30
0.0
 10
107.8787880412
 20
74.0794949303
 30
0.0
 10
107.8642743511
 20
74.1667545197
 30
0.0
 10
107.8516411328
 20
74.2195751831
 30
0.0
 10
107.8424858689
 20
74.242748775
 30
0.0
 10
107.8365540327
 20
74.2493205676
 30
0.0
 10
107.8340127639
 20
74.249319975
 30
0.0
  0
LINE
  5
450
100
AcDbEntity
  8
0
100
AcDbLine
 62
7
  6
CONTINUOUS
 10
108.7922004306
 20
52.6264945419
 11
108.791921062
 21
52.5888513373
  0
SPLINE
  5
451
100
AcDbEntity
  8
KONSTRUKTIONSELEMENTE
100
AcDbSpline
 62
7
  6
CONTINUOUS
 70
0
 71
3
 72
22
 73
18
 74
0
 42
0.0000001
 43
0.0000001
 44
0.0000000001
 40
0.0
 40
0.0
 40
0.0
 40
0.0
 40
0.0058949109
 40
0.0099229491
 40
0.0150811498
 40
0.0229298197
 40
0.0474103636
 40
0.0828685339
 40
0.1280158536
 40
0.1816294251
 40
0.2425105029
 40
0.3097567788
 40
0.3825611819
 40
0.4601653422
 40
0.6276806646
 40
0.8085483175
 40
1.0
 40
1.0
 40
1.0
 40
1.0
 10
88.9810655986
 20
68.7562030174
 30
0.0
 10
88.9788461637
 20
68.7528861293
 30
0.0
 10
88.9746850469
 20
68.7469215994
 30
0.0
 10
88.9632034439
 20
68.745753422
 30
0.0
 10
88.9549352003
 20
68.7552199094
 30
0.0
 10
88.9437026856
 20
68.777529534
 30
0.0
 10
88.9317548478
 20
68.8225678896
 30
0.0
 10
88.9187156
 20
68.8922256953
 30
0.0
 10
88.9063427199
 20
68.9823923087
 30
0.0
 10
88.8945688478
 20
69.0897935118
 30
0.0
 10
88.8834640437
 20
69.2123522577
 30
0.0
 10
88.873021122
 20
69.3479832244
 30
0.0
 10
88.8632101765
 20
69.4950151996
 30
0.0
 10
88.8505721896
 20
69.7098843782
 30
0.0
 10
88.8364487774
 20
69.9979447135
 30
0.0
 10
88.821671005
 20
70.3631246227
 30
0.0
 10
88.8130992341
 20
70.6150463554
 30
0.0
 10
88.80899849
 20
70.7445971757
 30
0.0
  0
SPLINE
  5
452
100
AcDbEntity
  8
KONSTRUKTIONSELEMENTE
100
AcDbSpline
 62
7
  6
CONTINUOUS
 70
0
 71
3
 72
23
 73
19
 74
0
 42
0.0000001
 43
0.0000001
 44
0.0000000001
 40
0.0
 40
0.0
 40
0.0
 40
0.0
 40
0.0031537188
 40
0.0057949094
 40
0.0101556607
 40
0.01712047
 40
0.0269900946
 40
0.0399415467
 40
0.0560488135
 40
0.0752848798
 40
0.1228935944
 40
0.1815086526
 40
0.2492270178
 40
0.3238473282
 40
0.486154559
 40
0.6566938937
 40
0.8290423928
 40
1.0
 40
1.0
 40
1.0
 40
1.0
 10
86.0819133206
 20
69.3805335617
 30
0.0
 10
86.0793207036
 20
69.3771138195
 30
0.0
 10
86.0730377978
 20
69.3702376123
 30
0.0
 10
86.0580517033
 20
69.3754910475
 30
0.0
 10
86.0486325757
 20
69.3926958845
 30
0.0
 10
86.0376813305
 20
69.4191441339
 30
0.0
 10
86.0269571012
 20
69.4584332025
 30
0.0
 10
86.0156553833
 20
69.5101336725
 30
0.0
 10
86.0042410426
 20
69.5748900111
 30
0.0
 10
85.9875583083
 20
69.6865242431
 30
0.0
 10
85.9675840177
 20
69.8561122615
 30
0.0
 10
85.9451022163
 20
70.0917383151
 30
0.0
 10
85.9233781567
 20
70.3643323404
 30
0.0
 10
85.8949971392
 20
70.7779112091
 30
0.0
 10
85.863985672
 20
71.33152334
 30
0.0
 10
85.8325031229
 20
72.0182521945
 30
0.0
 10
85.8056564588
 20
72.716956817
 30
0.0
 10
85.7903628101
 20
73.1838622081
 30
0.0
 10
85.7832869443
 20
73.416385067
 30
0.0
  0
SPLINE
  5
453
100
AcDbEntity
  8
KONSTRUKTIONSELEMENTE
100
AcDbSpline
 62
7
  6
CONTINUOUS
 70
0
 71
3
 72
23
 73
19
 74
0
 42
0.0000001
 43
0.0000001
 44
0.0000000001
 40
0.0
 40
0.0
 40
0.0
 40
0.0
 40
0.00507564
 40
0.0084872658
 40
0.0129606795
 40
0.0200639305
 40
0.0432589727
 40
0.0783022958
 40
0.0999124721
 40
0.1240250183
 40
0.1504669191
 40
0.1790613716
 40
0.2419931563
 40
0.3114532532
 40
0.4657385854
 40
0.6348080585
 40
0.8139800931
 40
1.0
 40
1.0
 40
1.0
 40
1.0
 10
87.5282372709
 20
63.7564402848
 30
0.0
 10
87.5258669795
 20
63.7526065169
 30
0.0
 10
87.521602957
 20
63.7457053421
 30
0.0
 10
87.5086498021
 20
63.7436102059
 30
0.0
 10
87.4991359831
 20
63.754851658
 30
0.0
 10
87.485869398
 20
63.7820016026
 30
0.0
 10
87.471331451
 20
63.8392449265
 30
0.0
 10
87.4588974082
 20
63.9086648297
 30
0.0
 10
87.4486094991
 20
63.9797295068
 30
0.0
 10
87.4405507472
 20
64.0432880653
 30
0.0
 10
87.4326823822
 20
64.1131409511
 30
0.0
 10
87.4221172939
 20
64.217365767
 30
0.0
 10
87.4096712954
 20
64.3597918277
 30
0.0
 10
87.3907110206
 20
64.6136671324
 30
0.0
 10
87.3697595098
 20
64.9618859647
 30
0.0
 10
87.3480337439
 20
65.4076216872
 30
0.0
 10
87.3287967817
 20
65.8816773716
 30
0.0
 10
87.3176078621
 20
66.2057882369
 30
0.0
 10
87.312291074
 20
66.3708943944
 30
0.0
  0
SPLINE
  5
454
100
AcDbEntity
  8
0
100
AcDbSpline
 62
7
  6
CONTINUOUS
 70
0
 71
3
 72
23
 73
19
 74
0
 42
0.0000001
 43
0.0000001
 44
0.0000000001
 40
0.0
 40
0.0
 40
0.0
 40
0.0
 40
0.00507564
 40
0.0084872658
 40
0.0129606795
 40
0.0200639305
 40
0.0432589727
 40
0.0783022958
 40
0.0999124721
 40
0.1240250183
 40
0.1504669191
 40
0.1790613716
 40
0.2419931563
 40
0.3114532532
 40
0.4657385854
 40
0.6348080585
 40
0.8139800931
 40
1.0
 40
1.0
 40
1.0
 40
1.0
 10
110.3147955904
 20
63.7564402848
 30
0.0
 10
110.3171658818
 20
63.7526065169
 30
0.0
 10
110.3214299043
 20
63.7457053421
 30
0.0
 10
110.3343830591
 20
63.7436102059
 30
0.0
 10
110.3438968781
 20
63.754851658
 30
0.0
 10
110.3571634633
 20
63.7820016026
 30
0.0
 10
110.3717014102
 20
63.8392449265
 30
0.0
 10
110.3841354531
 20
63.9086648297
 30
0.0
 10
110.3944233621
 20
63.9797295068
 30
0.0
 10
110.402482114
 20
64.0432880653
 30
0.0
 10
110.4103504791
 20
64.1131409511
 30
0.0
 10
110.4209155673
 20
64.217365767
 30
0.0
 10
110.4333615659
 20
64.3597918277
 30
0.0
 10
110.4523218407
 20
64.6136671324
 30
0.0
 10
110.4732733515
 20
64.9618859647
 30
0.0
 10
110.4949991173
 20
65.4076216872
 30
0.0
 10
110.5142360795
 20
65.8816773716
 30
0.0
 10
110.5254249992
 20
66.2057882369
 30
0.0
 10
110.5307417872
 20
66.3708943944
 30
0.0
  0
ELLIPSE
  5
455
100
AcDbEntity
  8
RUNDUNGEN
100
AcDbEllipse
 62
7
  6
CONTINUOUS
 10
291.8042222573
 20
244.8554952082
 30
0.0
 11
-0.0
 21
-2.3094010768
 31
0.0
 40
0.8660254038
 41
-2.8957012083
 42
-1.5707963268
  0
ELLIPSE
  5
456
100
AcDbEntity
  8
RUNDUNGEN
100
AcDbEllipse
 62
7
  6
CONTINUOUS
 10
282.5542222573
 20
287.4142780855
 30
0.0
 11
0.0
 21
41.5692193817
 31
0.0
 40
0.8660254038
 41
-2.8957012083
 42
-2.6669591164
  0
ELLIPSE
  5
457
100
AcDbEntity
  8
RUNDUNGEN
100
AcDbEllipse
 62
7
  6
CONTINUOUS
 10
282.5542222573
 20
287.4142780855
 30
0.0
 11
-0.0
 21
-41.5692193817
 31
0.0
 40
0.8660254038
 41
-0.4746335372
 42
-0.2458914453
  0
ELLIPSE
  5
458
100
AcDbEntity
  8
RUNDUNGEN
100
AcDbEllipse
 62
7
  6
CONTINUOUS
 10
273.3042222573
 20
244.8554952082
 30
0.0
 11
0.0
 21
2.3094010768
 31
0.0
 40
0.8660254038
 41
-1.5707963268
 42
-0.2458914453
  0
ELLIPSE
  5
459
100
AcDbEntity
  8
0
100
AcDbEllipse
 62
7
  6
CONTINUOUS
 10
106.4215164306
 20
107.0863475737
 30
0.0
 11
3.0
 21
0.0
 31
0.0
 40
0.9468830055
 41
-1.5707963268
 42
-0.1089014626
  0
ELLIPSE
  5
45A
100
AcDbEntity
  8
0
100
AcDbEllipse
 62
7
  6
CONTINUOUS
 10
91.4215164306
 20
107.0863475737
 30
0.0
 11
3.0
 21
0.0
 31
0.0
 40
0.9468830055
 41
-3.032691191
 42
-1.5707963268
  0
ELLIPSE
  5
45B
100
AcDbEntity
  8
0
100
AcDbEllipse
 62
7
  6
CONTINUOUS
 10
253.1782128592
 20
164.6999717326
 30
0.0
 11
0.0
 21
251.9635989582
 31
0.0
 40
0.5814597705
 41
7.8139983041
 42
7.8267403609
  0
ELLIPSE
  5
45C
100
AcDbEntity
  8
0
100
AcDbEllipse
 62
7
  6
CONTINUOUS
 10
-55.3351799979
 20
164.6999717326
 30
0.0
 11
-0.0
 21
251.9635989582
 31
0.0
 40
0.5814597705
 41
-1.5435550537
 42
-1.530812997
  0
ENDSEC
  0
SECTION
  2
OBJECTS
  0
DICTIONARY
  5
C
100
AcDbDictionary
280
0
281
1
  3
ACAD_GROUP
350
D
  3
ACAD_MLINESTYLE
350
17
  3
ACAD_LAYOUT
350
1A
  3
ACAD_PLOTSETTINGS
350
19
  3
ACAD_PLOTSTYLENAME
350
E
  0
DICTIONARY
  5
D
102
{ACAD_REACTORS
330
C
102
}
100
AcDbDictionary
280
0
281
1
  0
ACDBDICTIONARYWDFLT
  5
E
102
{ACAD_REACTORS
330
C
102
}
100
AcDbDictionary
281
1
  3
Normal
350
F
100
AcDbDictionaryWithDefault
340
F
  0
DICTIONARY
  5
17
102
{ACAD_REACTORS
330
C
102
}
100
AcDbDictionary
280
0
281
1
  3
Standard
350
18
  0
DICTIONARY
  5
19
102
{ACAD_REACTORS
330
C
102
}
100
AcDbDictionary
281
1
  0
DICTIONARY
  5
1A
102
{ACAD_REACTORS
330
C
102
}
100
AcDbDictionary
281
1
  3
Model
350
45D
  3
Layout1
350
45E
  0
ACDBPLACEHOLDER
  5
F
102
{ACAD_REACTORS
330
E
102
}
  0
MLINESTYLE
  5
18
102
{ACAD_REACTORS
330
17
102
}
100
AcDbMlineStyle
  2
STANDARD
 70
0
  3

 62
256
 51
90.0
 52
90.0
 71
2
 49
0.5
 62
256
  6
BYLAYER
 49
-0.5
 62
256
  6
BYLAYER
  0
LAYOUT
  5
45D
102
{ACAD_REACTORS
330
1A
102
}
100
AcDbPlotSettings
  1

  2
none_device
  4
ISO_A3_(420.00_x_297.00_MM)
  6

 40
0.0
 41
0.0
 42
0.0
 43
0.0
 44
420.0
 45
297.0
 46
0.0
 47
0.0
 48
0.0
 49
0.0
140
0.0
141
0.0
142
1.0
143
1.0
 70
1024
 72
1
 73
0
 74
0
  7

 75
0
147
1.0
148
0.0
149
0.0
100
AcDbLayout
  1
Model
 70
0
 71
0
 10
0.0
 20
0.0
 11
420.0
 21
297.0
 12
0.0
 22
0.0
 32
0.0
 14
0.0
 24
0.0
 34
0.0
 15
0.0
 25
0.0
 35
0.0
146
0.0
 13
0.0
 23
0.0
 33
0.0
 16
1.0
 26
0.0
 36
0.0
 17
0.0
 27
1.0
 37
0.0
 76
0
330
210
345
0
346
0
  0
LAYOUT
  5
45E
102
{ACAD_REACTORS
330
1A
102
}
100
AcDbPlotSettings
  1

  2
none_device
  4
ISO_A3_(420.00_x_297.00_MM)
  6

 40
0.0
 41
0.0
 42
0.0
 43
0.0
 44
420.0
 45
297.0
 46
0.0
 47
0.0
 48
0.0
 49
0.0
140
0.0
141
0.0
142
1.0
143
1.0
 70
0
 72
1
 73
0
 74
0
  7

 75
0
147
1.0
148
0.0
149
0.0
100
AcDbLayout
  1
Layout1
 70
0
 71
1
 10
0.0
 20
0.0
 11
420.0
 21
297.0
 12
0.0
 22
0.0
 32
0.0
 14
0.0
 24
0.0
 34
0.0
 15
0.0
 25
0.0
 35
0.0
146
0.0
 13
0.0
 23
0.0
 33
0.0
 16
1.0
 26
0.0
 36
0.0
 17
0.0
 27
1.0
 37
0.0
 76
0
330
211
345
0
346
0
  0
ENDSEC
  0
EOF
