999
DXF file: 001-m34355-p-01.dxf
999
Pro/ENGINEER 2011490 by Parametric Technology Corporation
  0
SECTION
  2
HEADER
  9
$ACADVER
  1
AC1015
  9
$DWGCODEPAGE
  3
ANSI_1252
  9
$EXTMAX
 10
420.0
 20
297.0
 30
0.0
  9
$EXTMIN
 10
0.0
 20
0.0
 30
0.0
  9
$LIMMIN
 10
0.0
 20
0.0
  9
$LIMMAX
 10
420.0
 20
297.0
  9
$VIEWCTR
 10
210.0
 20
148.5
  9
$VIEWSIZE
 40
297.0
  9
$CLAYER
  8
0
  9
$LTSCALE
 40
23.1
  9
$CELTYPE
  6
BYLAYER
  9
$DIMSCALE
 40
1.0
  9
$DIMASZ
 40
3.5
  9
$DIMEXO
 40
2.625
  9
$DIMDLI
 40
15.96
  9
$DIMEXE
 40
7.56
  9
$DIMCEN
 40
3.78
  9
$DIMLFAC
 40
1.0
  9
$DIMBLK
  1
_FILLED
  9
$DIMTXT
 40
3.5
  9
$DIMTOL
 70
1
  9
$DIMLIM
 70
0
  9
$DIMTFAC
 40
1.0
  9
$DIMTP
 40
0.005
  9
$DIMTM
 40
0.005
  9
$PDMODE
 70
3
  9
$PDSIZE
 40
0.3125
  9
$HANDSEED
  5
633
  9
$TILEMODE
 70
1
  9
$MEASUREMENT
 70
1
  9
$INSUNITS
 70
4
  0
ENDSEC
  0
SECTION
  2
CLASSES
  0
CLASS
  1
ACDBDICTIONARYWDFLT
  2
AcDbDictionaryWithDefault
  3
AutoCAD 2000
 90
0
280
0
281
0
  0
CLASS
  1
ACDBPLACEHOLDER
  2
AcDbPlaceHolder
  3
AutoCAD 2000
 90
0
280
0
281
0
  0
CLASS
  1
LAYOUT
  2
AcDbLayout
  3
AutoCAD 2000
 90
0
280
0
281
0
  0
ENDSEC
  0
SECTION
  2
TABLES
  0
TABLE
  2
VPORT
  5
8
100
AcDbSymbolTable
 70
2
  0
VPORT
  5
1F4
100
AcDbSymbolTableRecord
100
AcDbViewportTableRecord
  2
*ACTIVE
 70
0
 10
0.0
 20
0.0
 11
1.0
 21
1.0
 12
210.0
 22
148.5
 13
0.0
 23
0.0
 14
1.0
 24
1.0
 15
0.0
 25
0.0
 16
0.0
 26
0.0
 36
1.0
 17
0.0
 27
0.0
 37
0.0
 40
297.0
 41
1.4141414141
 42
50.0
 43
0.0
 44
0.0
 50
0.0
 51
0.0
 71
0
 72
100
 73
1
 74
1
 75
0
 76
0
 77
0
 78
0
  0
ENDTAB
  0
TABLE
  2
LTYPE
  5
5
100
AcDbSymbolTable
 70
6
  0
LTYPE
  5
14
100
AcDbSymbolTableRecord
100
AcDbLinetypeTableRecord
  2
BYBLOCK
 70
0
  3

 72
65
 73
0
 40
0.0
  0
LTYPE
  5
15
100
AcDbSymbolTableRecord
100
AcDbLinetypeTableRecord
  2
BYLAYER
 70
0
  3

 72
65
 73
0
 40
0.0
  0
LTYPE
  5
16
100
AcDbSymbolTableRecord
100
AcDbLinetypeTableRecord
  2
CONTINUOUS
 70
64
  3
Solid line
 72
65
 73
0
 40
0.0
  0
LTYPE
  5
1F5
100
AcDbSymbolTableRecord
100
AcDbLinetypeTableRecord
  2
CENTER
 70
64
  3
____ _ ____ _ ____ _ ____ _ ____ _ ____ _ ____
 72
65
 73
4
 40
0.6
 49
0.375
 74
0
 49
-0.075
 74
0
 49
0.075
 74
0
 49
-0.075
 74
0
  0
LTYPE
  5
1F6
100
AcDbSymbolTableRecord
100
AcDbLinetypeTableRecord
  2
HIDDEN
 70
64
  3
- - - - - - - - - - - - - - - - - - - -
 72
65
 73
2
 40
0.2
 49
0.1
 74
0
 49
-0.1
 74
0
  0
LTYPE
  5
1F7
100
AcDbSymbolTableRecord
100
AcDbLinetypeTableRecord
  2
PHANTOM
 70
64
  3
_____ _ _ _____ _ _ _____ _ _ _____
 72
65
 73
6
 40
0.8
 49
0.45
 74
0
 49
-0.05
 74
0
 49
0.1
 74
0
 49
-0.05
 74
0
 49
0.1
 74
0
 49
-0.05
 74
0
  0
LTYPE
  5
1F8
100
AcDbSymbolTableRecord
100
AcDbLinetypeTableRecord
  2
DOT
 70
64
  3
. . . . . . . . . . . . . . . . . . . .
 72
65
 73
2
 40
0.2
 49
0.1
 74
0
 49
-0.1
 74
0
  0
LTYPE
  5
1F9
100
AcDbSymbolTableRecord
100
AcDbLinetypeTableRecord
  2
DASHED
 70
64
  3
- - - - - - - - - - - - - - - - - - - -
 72
65
 73
2
 40
0.2
 49
0.1
 74
0
 49
-0.1
 74
0
  0
ENDTAB
  0
TABLE
  2
LAYER
  5
2
100
AcDbSymbolTable
 70
36
  0
LAYER
  5
10
100
AcDbSymbolTableRecord
100
AcDbLayerTableRecord
  2
0
 70
0
 62
7
  6
CONTINUOUS
370
-3
390
F
  0
LAYER
  5
1FA
100
AcDbSymbolTableRecord
100
AcDbLayerTableRecord
  2
DEFAULT_1
 70
0
 62
7
  6
CENTER
370
-3
390
F
  0
LAYER
  5
1FB
100
AcDbSymbolTableRecord
100
AcDbLayerTableRecord
  2
DEFAULT_2
 70
0
 62
8
  6
HIDDEN
370
-3
390
F
  0
LAYER
  5
1FC
100
AcDbSymbolTableRecord
100
AcDbLayerTableRecord
  2
DEFAULT_3
 70
0
 62
7
  6
PHANTOM
370
-3
390
F
  0
LAYER
  5
1FD
100
AcDbSymbolTableRecord
100
AcDbLayerTableRecord
  2
AUSFORMSCHRAEGEN
 70
0
 62
7
  6
CONTINUOUS
370
-3
390
F
  0
LAYER
  5
1FE
100
AcDbSymbolTableRecord
100
AcDbLayerTableRecord
  2
BEZUGSACHSEN
 70
0
 62
7
  6
CONTINUOUS
370
-3
390
F
  0
LAYER
  5
1FF
100
AcDbSymbolTableRecord
100
AcDbLayerTableRecord
  2
BEZUGSEBENEN
 70
0
 62
7
  6
CONTINUOUS
370
-3
390
F
  0
LAYER
  5
200
100
AcDbSymbolTableRecord
100
AcDbLayerTableRecord
  2
BEZUGSPUNKTE
 70
0
 62
7
  6
CONTINUOUS
370
-3
390
F
  0
LAYER
  5
201
100
AcDbSymbolTableRecord
100
AcDbLayerTableRecord
  2
BG_STARTBEZUEGE
 70
0
 62
7
  6
CONTINUOUS
370
-3
390
F
  0
LAYER
  5
202
100
AcDbSymbolTableRecord
100
AcDbLayerTableRecord
  2
FASEN
 70
0
 62
7
  6
CONTINUOUS
370
-3
390
F
  0
LAYER
  5
203
100
AcDbSymbolTableRecord
100
AcDbLayerTableRecord
  2
FLAECHEN
 70
0
 62
7
  6
CONTINUOUS
370
-3
390
F
  0
LAYER
  5
204
100
AcDbSymbolTableRecord
100
AcDbLayerTableRecord
  2
FLAECHENVERBUND
 70
0
 62
7
  6
CONTINUOUS
370
-3
390
F
  0
LAYER
  5
205
100
AcDbSymbolTableRecord
100
AcDbLayerTableRecord
  2
HILFEN
 70
0
 62
7
  6
CONTINUOUS
370
-3
390
F
  0
LAYER
  5
206
100
AcDbSymbolTableRecord
100
AcDbLayerTableRecord
  2
KONSTRUKTIONSELEMENTE
 70
0
 62
7
  6
CONTINUOUS
370
-3
390
F
  0
LAYER
  5
207
100
AcDbSymbolTableRecord
100
AcDbLayerTableRecord
  2
KURVEN
 70
0
 62
7
  6
CONTINUOUS
370
-3
390
F
  0
LAYER
  5
208
100
AcDbSymbolTableRecord
100
AcDbLayerTableRecord
  2
PLATZIERUNG
 70
0
 62
7
  6
CONTINUOUS
370
-3
390
F
  0
LAYER
  5
209
100
AcDbSymbolTableRecord
100
AcDbLayerTableRecord
  2
RUNDUNGEN
 70
0
 62
7
  6
CONTINUOUS
370
-3
390
F
  0
LAYER
  5
20A
100
AcDbSymbolTableRecord
100
AcDbLayerTableRecord
  2
TEIL_STARTBEZUEGE
 70
0
 62
7
  6
CONTINUOUS
370
-3
390
F
  0
LAYER
  5
20B
100
AcDbSymbolTableRecord
100
AcDbLayerTableRecord
  2
VERRIEGELUNG
 70
0
 62
7
  6
CONTINUOUS
370
-3
390
F
  0
LAYER
  5
20C
100
AcDbSymbolTableRecord
100
AcDbLayerTableRecord
  2
VERSATZ
 70
0
 62
7
  6
CONTINUOUS
370
-3
390
F
  0
LAYER
  5
20D
100
AcDbSymbolTableRecord
100
AcDbLayerTableRecord
  2
XSEC_DATUMS
 70
0
 62
7
  6
CONTINUOUS
370
-3
390
F
  0
LAYER
  5
20E
100
AcDbSymbolTableRecord
100
AcDbLayerTableRecord
  2
ZEICHNUNGSBEMASSUNGEN
 70
0
 62
7
  6
CONTINUOUS
370
-3
390
F
  0
ENDTAB
  0
TABLE
  2
STYLE
  5
3
100
AcDbSymbolTable
 70
1
  0
STYLE
  5
11
100
AcDbSymbolTableRecord
100
AcDbTextStyleTableRecord
  2
STANDARD
 70
0
 40
0.0
 41
0.7
 50
0.0
 71
0
 42
0.2
  3
txt
  4

  0
STYLE
  5
20F
100
AcDbSymbolTableRecord
100
AcDbTextStyleTableRecord
  2
TEXTSTYLE_1
 70
0
 40
0.0
 41
0.8
 50
0.0
 71
0
 42
0.2
  3
gdt
  4

  0
ENDTAB
  0
TABLE
  2
VIEW
  5
6
100
AcDbSymbolTable
 70
0
  0
ENDTAB
  0
TABLE
  2
UCS
  5
7
100
AcDbSymbolTable
 70
0
  0
ENDTAB
  0
TABLE
  2
APPID
  5
9
100
AcDbSymbolTable
 70
1
  0
APPID
  5
210
100
AcDbSymbolTableRecord
100
AcDbRegAppTableRecord
  2
ACAD
 70
0
  0
ENDTAB
  0
TABLE
  2
BLOCK_RECORD
  5
1
100
AcDbSymbolTable
 70
0
  0
BLOCK_RECORD
  5
211
100
AcDbSymbolTableRecord
100
AcDbBlockTableRecord
  2
*Model_Space
  0
BLOCK_RECORD
  5
212
100
AcDbSymbolTableRecord
100
AcDbBlockTableRecord
  2
*Paper_Space
  0
ENDTAB
  0
TABLE
  2
DIMSTYLE
  5
A
100
AcDbSymbolTable
 70
1
100
AcDbDimStyleTable
 71
0
  0
DIMSTYLE
105
213
100
AcDbSymbolTableRecord
100
AcDbDimStyleTableRecord
  2
STANDARD
 70
0
  3

  4

 40
1.0
 41
3.5
 42
0.0625
 43
0.38
 44
0.18
 45
0.0
 46
0.0
 47
0.005
 48
0.005
140
3.5
141
0.09
142
0.0
143
25.4
144
1.0
145
0.0
146
1.0
147
0.09
 71
1.0
 72
0.0
 73
0
 74
0
 75
0
 76
0
 77
1
 78
8
170
0
171
2
172
0
173
0
174
0
175
0
176
0
177
0
178
5
270
2
271
3
272
3
273
2
274
2
275
0
280
0
281
0
282
0
283
1
284
8
285
0
286
0
287
3
288
0
340
11
  0
ENDTAB
  0
ENDSEC
  0
SECTION
  2
BLOCKS
  0
BLOCK
  5
20
100
AcDbEntity
  8
0
100
AcDbBlockBegin
  2
*Model_Space
 70
0
 10
0.0
 20
0.0
 30
0.0
  3
*Model_Space
  1

  0
ENDBLK
  5
21
100
AcDbEntity
  8
0
100
AcDbBlockEnd
  0
BLOCK
  5
1C
100
AcDbEntity
  8
0
100
AcDbBlockBegin
  2
*Paper_Space
 70
0
 10
0.0
 20
0.0
 30
0.0
  3
*Paper_Space
  1

  0
ENDBLK
  5
1D
100
AcDbEntity
  8
0
100
AcDbBlockEnd
  0
ENDSEC
  0
SECTION
  2
ENTITIES
  0
MTEXT
  5
214
100
AcDbEntity
  8
0
100
AcDbMText
 62
5
  6
CONTINUOUS
  7
STANDARD
 71
1
 72
1
 10
292.9869434932
 20
139.122859589
 30
0.0
 11
0.0
 21
1.0
 31
0.0
 44
0.9
  1
IMAGH-10\PRUD
 40
5.0
 41
30.9523809524
  0
MTEXT
  5
215
100
AcDbEntity
  8
0
100
AcDbMText
 62
5
  6
CONTINUOUS
  7
STANDARD
 71
1
 72
1
 10
125.5483507457
 20
32.0206618548
 30
0.0
 11
1.0
 21
0.0
 31
0.0
 44
0.9
  1
IMAGH-10\PRUD
 40
5.0
 41
30.9523809524
  0
MTEXT
  5
216
100
AcDbEntity
  8
0
100
AcDbMText
 62
5
  6
CONTINUOUS
  7
STANDARD
 71
1
 72
1
 10
129.7954469462
 20
220.9256641941
 30
0.0
 11
1.0
 21
0.0
 31
0.0
 44
0.9
  1
IMAGH-10\PRUD
 40
5.0
 41
30.9523809524
  0
LINE
  5
217
100
AcDbEntity
  8
0
100
AcDbLine
 62
7
  6
CONTINUOUS
 10
0.0
 20
0.0
 11
0.0
 21
297.0
  0
LINE
  5
218
100
AcDbEntity
  8
0
100
AcDbLine
 62
7
  6
CONTINUOUS
 10
0.0
 20
0.0
 11
420.0
 21
0.0
  0
LINE
  5
219
100
AcDbEntity
  8
0
100
AcDbLine
 62
7
  6
CONTINUOUS
 10
0.0
 20
297.0
 11
420.0
 21
297.0
  0
LINE
  5
21A
100
AcDbEntity
  8
0
100
AcDbLine
 62
7
  6
CONTINUOUS
 10
420.0
 20
0.0
 11
420.0
 21
297.0
  0
LINE
  5
21B
100
AcDbEntity
  8
0
100
AcDbLine
 62
7
  6
CONTINUOUS
 10
162.5727245509
 20
80.6269406722
 11
162.9387350383
 21
80.7051696161
  0
LINE
  5
21C
100
AcDbEntity
  8
0
100
AcDbLine
 62
7
  6
CONTINUOUS
 10
162.1170822903
 20
84.753747602
 11
161.751071817
 21
84.6755186407
  0
LINE
  5
21D
100
AcDbEntity
  8
0
100
AcDbLine
 62
7
  6
CONTINUOUS
 10
162.681239871
 20
81.1539370082
 11
162.3798858481
 21
81.1282813744
  0
LINE
  5
21E
100
AcDbEntity
  8
0
100
AcDbLine
 62
7
  6
CONTINUOUS
 10
110.1909728348
 20
287.8429724871
 11
114.0977660859
 21
292.4995351568
  0
LINE
  5
21F
100
AcDbEntity
  8
0
100
AcDbLine
 62
7
  6
CONTINUOUS
 10
171.2190692873
 20
89.3096806153
 11
170.9280505449
 21
89.2273370038
  0
LINE
  5
220
100
AcDbEntity
  8
0
100
AcDbLine
 62
7
  6
CONTINUOUS
 10
169.4707592735
 20
91.8612783675
 11
169.7617780159
 21
91.943621979
  0
LINE
  5
221
100
AcDbEntity
  8
0
100
AcDbLine
 62
7
  6
CONTINUOUS
 10
162.0085669513
 20
84.2267512892
 11
162.3099208442
 21
84.252406894
  0
LINE
  5
222
100
AcDbEntity
  8
0
100
AcDbLine
 62
7
  6
CONTINUOUS
 10
170.6722177693
 20
88.7893955857
 11
171.0284774764
 21
88.8170883391
  0
LINE
  5
223
100
AcDbEntity
  8
0
100
AcDbLine
 62
7
  6
CONTINUOUS
 10
170.0176107915
 20
92.381563397
 11
169.6613511073
 21
92.3538706245
  0
LINE
  5
224
100
AcDbEntity
  8
0
100
AcDbLine
 62
7
  6
CONTINUOUS
 10
162.0993299998
 20
80.6807762738
 11
162.5727245509
 21
80.6269406722
  0
LINE
  5
225
100
AcDbEntity
  8
0
100
AcDbLine
 62
7
  6
CONTINUOUS
 10
162.5904769151
 20
84.6999120987
 11
162.1170822903
 21
84.753747602
  0
LINE
  5
226
100
AcDbEntity
  8
0
100
AcDbLine
 62
7
  6
CONTINUOUS
 10
170.9280505449
 20
89.2273370038
 11
170.3225559073
 21
89.2997152671
  0
LINE
  5
227
100
AcDbEntity
  8
0
100
AcDbLine
 62
7
  6
CONTINUOUS
 10
162.3798858481
 20
81.1282813744
 11
162.0894966449
 21
81.2212315086
  0
LINE
  5
228
100
AcDbEntity
  8
0
100
AcDbLine
 62
7
  6
CONTINUOUS
 10
85.8122018078
 20
107.7088647352
 11
85.4246352751
 21
107.8951985705
  0
LINE
  5
229
100
AcDbEntity
  8
0
100
AcDbLine
 62
7
  6
CONTINUOUS
 10
81.9819800488
 20
110.9228024005
 11
81.5944130595
 21
111.109136619
  0
LINE
  5
22A
100
AcDbEntity
  8
0
100
AcDbLine
 62
7
  6
CONTINUOUS
 10
85.0143453125
 20
107.4062340336
 11
85.4817087561
 21
107.1529426519
  0
LINE
  5
22B
100
AcDbEntity
  8
0
100
AcDbLine
 62
7
  6
CONTINUOUS
 10
81.1841230969
 20
110.620172082
 11
81.6514860839
 21
110.3668810835
  0
LINE
  5
22C
100
AcDbEntity
  8
0
100
AcDbLine
 62
7
  6
CONTINUOUS
 10
75.9175675504
 20
115.0393368986
 11
76.3963453274
 21
114.6375946426
  0
LINE
  5
22D
100
AcDbEntity
  8
0
100
AcDbLine
 62
7
  6
CONTINUOUS
 10
78.3912526552
 20
112.9636686395
 11
78.9498268805
 21
112.4949692131
  0
LINE
  5
22E
100
AcDbEntity
  8
0
100
AcDbLine
 62
7
  6
CONTINUOUS
 10
80.86493776
 20
110.8880003804
 11
81.1841230969
 21
110.620172082
  0
LINE
  5
22F
100
AcDbEntity
  8
0
100
AcDbLine
 62
7
  6
CONTINUOUS
 10
83.0992342047
 20
109.0132030578
 11
85.0143453125
 21
107.4062340336
  0
LINE
  5
230
100
AcDbEntity
  8
0
100
AcDbLine
 62
7
  6
CONTINUOUS
 10
85.4246352751
 20
107.8951985705
 11
83.9883019442
 21
109.1004253387
  0
LINE
  5
231
100
AcDbEntity
  8
0
100
AcDbLine
 62
7
  6
CONTINUOUS
 10
81.5944130595
 20
111.109136619
 11
81.2752277226
 21
111.3769649174
  0
LINE
  5
232
100
AcDbEntity
  8
0
100
AcDbLine
 62
7
  6
CONTINUOUS
 10
77.8323602204
 20
116.3489705504
 11
79.1888972171
 21
115.2107008568
  0
LINE
  5
233
100
AcDbEntity
  8
0
100
AcDbLine
 62
7
  6
CONTINUOUS
 10
79.7587796861
 20
115.5657512833
 11
78.2426501352
 21
116.8379350303
  0
LINE
  5
234
100
AcDbEntity
  8
0
100
AcDbLine
 62
7
  6
CONTINUOUS
 10
86.3816601153
 20
111.9527185375
 11
87.8179934462
 21
110.7474917693
  0
LINE
  5
235
100
AcDbEntity
  8
0
100
AcDbLine
 62
7
  6
CONTINUOUS
 10
79.2683751135
 20
118.0603464583
 11
80.7845046644
 21
116.7881627113
  0
LINE
  5
236
100
AcDbEntity
  8
0
100
AcDbLine
 62
7
  6
CONTINUOUS
 10
88.2282833609
 20
111.2364562492
 11
86.3131722531
 21
112.8434252734
  0
LINE
  5
237
100
AcDbEntity
  8
0
100
AcDbLine
 62
7
  6
CONTINUOUS
 10
85.674802036
 20
113.3790814871
 11
85.1960242591
 21
113.7808237431
  0
LINE
  5
238
100
AcDbEntity
  8
0
100
AcDbLine
 62
7
  6
CONTINUOUS
 10
83.2809131513
 20
115.3877927674
 11
82.802135146
 21
115.789535215
  0
LINE
  5
239
100
AcDbEntity
  8
0
100
AcDbLine
 62
7
  6
CONTINUOUS
 10
81.0466167066
 20
117.26259009
 11
79.1315055988
 21
118.8695591142
  0
LINE
  5
23A
100
AcDbEntity
  8
0
100
AcDbLine
 62
7
  6
CONTINUOUS
 10
80.5343380899
 20
111.3042795532
 11
80.86493776
 21
110.8880003804
  0
LINE
  5
23B
100
AcDbEntity
  8
0
100
AcDbLine
 62
7
  6
CONTINUOUS
 10
81.2752277226
 20
111.3769649174
 11
81.0244244949
 21
111.7262869126
  0
LINE
  5
23C
100
AcDbEntity
  8
0
100
AcDbLine
 62
7
  6
CONTINUOUS
 10
86.188354049
 20
107.6709818242
 11
85.8122018078
 21
107.7088647352
  0
LINE
  5
23D
100
AcDbEntity
  8
0
100
AcDbLine
 62
7
  6
CONTINUOUS
 10
82.35813229
 20
110.8849194895
 11
81.9819800488
 21
110.9228024005
  0
LINE
  5
23E
100
AcDbEntity
  8
0
100
AcDbLine
 62
7
  6
CONTINUOUS
 10
169.7617780159
 20
91.943621979
 11
170.3672727906
 21
91.8712436008
  0
LINE
  5
23F
100
AcDbEntity
  8
0
100
AcDbLine
 62
7
  6
CONTINUOUS
 10
85.4817087561
 20
107.1529426519
 11
85.9376569592
 21
107.048102918
  0
LINE
  5
240
100
AcDbEntity
  8
0
100
AcDbLine
 62
7
  6
CONTINUOUS
 10
81.6514860839
 20
110.3668810835
 11
82.1074347436
 21
110.2620409664
  0
LINE
  5
241
100
AcDbEntity
  8
0
100
AcDbLine
 62
7
  6
CONTINUOUS
 10
79.8044384131
 20
114.971946665
 11
80.2603868265
 21
114.8671067181
  0
LINE
  5
242
100
AcDbEntity
  8
0
100
AcDbLine
 62
7
  6
CONTINUOUS
 10
170.304229792
 20
88.8802359411
 11
170.6722177693
 21
88.7893955857
  0
LINE
  5
243
100
AcDbEntity
  8
0
100
AcDbLine
 62
7
  6
CONTINUOUS
 10
170.3855987231
 20
92.29072308
 11
170.0176107915
 21
92.381563397
  0
LINE
  5
244
100
AcDbEntity
  8
0
100
AcDbLine
 62
7
  6
CONTINUOUS
 10
80.066550227
 20
115.4463742352
 11
79.7587796861
 21
115.5657512833
  0
LINE
  5
245
100
AcDbEntity
  8
0
100
AcDbLine
 62
7
  6
CONTINUOUS
 10
170.054994272
 20
88.9803062075
 11
170.304229792
 21
88.8802359411
  0
LINE
  5
246
100
AcDbEntity
  8
0
100
AcDbLine
 62
7
  6
CONTINUOUS
 10
161.7552487757
 20
80.8397587618
 11
162.0993299998
 21
80.6807762738
  0
LINE
  5
247
100
AcDbEntity
  8
0
100
AcDbLine
 62
7
  6
CONTINUOUS
 10
81.3772166111
 20
116.8463107328
 11
81.0466167066
 21
117.26259009
  0
LINE
  5
248
100
AcDbEntity
  8
0
100
AcDbLine
 62
7
  6
CONTINUOUS
 10
88.5588834936
 20
110.8201767004
 11
88.2282833609
 21
111.2364562492
  0
LINE
  5
249
100
AcDbEntity
  8
0
100
AcDbLine
 62
7
  6
CONTINUOUS
 10
87.8179934462
 20
110.7474917693
 11
88.0687966739
 21
110.398169774
  0
LINE
  5
24A
100
AcDbEntity
  8
0
100
AcDbLine
 62
7
  6
CONTINUOUS
 10
80.7845046644
 20
116.7881627113
 11
80.9555119005
 21
116.5057975033
  0
LINE
  5
24B
100
AcDbEntity
  8
0
100
AcDbLine
 62
7
  6
CONTINUOUS
 10
80.3519160759
 20
111.735096033
 11
80.5343380899
 21
111.3042795532
  0
LINE
  5
24C
100
AcDbEntity
  8
0
100
AcDbLine
 62
7
  6
CONTINUOUS
 10
88.7413050689
 20
110.3893606252
 11
88.5588834936
 21
110.8201767004
  0
LINE
  5
24D
100
AcDbEntity
  8
0
100
AcDbLine
 62
7
  6
CONTINUOUS
 10
81.0244244949
 20
111.7262869126
 11
80.9217989592
 21
112.0901462577
  0
LINE
  5
24E
100
AcDbEntity
  8
0
100
AcDbLine
 62
7
  6
CONTINUOUS
 10
80.3062578294
 20
112.3289002967
 11
80.3519160759
 21
111.735096033
  0
LINE
  5
24F
100
AcDbEntity
  8
0
100
AcDbLine
 62
7
  6
CONTINUOUS
 10
80.9555119005
 20
116.5057975033
 11
80.978341264
 21
116.2088951941
  0
LINE
  5
250
100
AcDbEntity
  8
0
100
AcDbLine
 62
7
  6
CONTINUOUS
 10
85.9376569592
 20
107.048102918
 11
86.5303684732
 21
107.1062513511
  0
LINE
  5
251
100
AcDbEntity
  8
0
100
AcDbLine
 62
7
  6
CONTINUOUS
 10
82.1074347436
 20
110.2620409664
 11
82.7001467142
 21
110.3201890164
  0
LINE
  5
252
100
AcDbEntity
  8
0
100
AcDbLine
 62
7
  6
CONTINUOUS
 10
170.6348344259
 20
92.1906526604
 11
170.3855987231
 21
92.29072308
  0
LINE
  5
253
100
AcDbEntity
  8
0
100
AcDbLine
 62
7
  6
CONTINUOUS
 10
169.6752773893
 20
89.1896789596
 11
170.054994272
 21
88.9803062075
  0
LINE
  5
254
100
AcDbEntity
  8
0
100
AcDbLine
 62
7
  6
CONTINUOUS
 10
171.0145512173
 20
91.9812799849
 11
170.6348344259
 21
92.1906526604
  0
LINE
  5
255
100
AcDbEntity
  8
0
100
AcDbLine
 62
7
  6
CONTINUOUS
 10
170.3225559073
 20
89.2997152671
 11
169.8775980828
 21
89.5637388582
  0
LINE
  5
256
100
AcDbEntity
  8
0
100
AcDbLine
 62
7
  6
CONTINUOUS
 10
162.3099208442
 20
84.252406894
 11
162.5356537099
 21
84.1068832935
  0
LINE
  5
257
100
AcDbEntity
  8
0
100
AcDbLine
 62
7
  6
CONTINUOUS
 10
162.0894966449
 20
81.2212315086
 11
161.8100720388
 21
81.4327873068
  0
LINE
  5
258
100
AcDbEntity
  8
0
100
AcDbLine
 62
7
  6
CONTINUOUS
 10
161.4221321863
 20
81.1173468674
 11
161.7552487757
 21
80.8397587618
  0
LINE
  5
259
100
AcDbEntity
  8
0
100
AcDbLine
 62
7
  6
CONTINUOUS
 10
88.0687966739
 20
110.398169774
 11
88.1714222575
 21
110.0343104861
  0
LINE
  5
25A
100
AcDbEntity
  8
0
100
AcDbLine
 62
7
  6
CONTINUOUS
 10
81.4912567623
 20
116.334000386
 11
81.3772166111
 21
116.8463107328
  0
LINE
  5
25B
100
AcDbEntity
  8
0
100
AcDbLine
 62
7
  6
CONTINUOUS
 10
88.7869633394
 20
109.79555639
 11
88.7413050689
 21
110.3893606252
  0
LINE
  5
25C
100
AcDbEntity
  8
0
100
AcDbLine
 62
7
  6
CONTINUOUS
 10
81.4571190409
 20
115.807152938
 11
81.4912567623
 21
116.334000386
  0
LINE
  5
25D
100
AcDbEntity
  8
0
100
AcDbLine
 62
7
  6
CONTINUOUS
 10
80.9217989592
 20
112.0901462577
 11
80.9673510198
 21
112.4685428384
  0
LINE
  5
25E
100
AcDbEntity
  8
0
100
AcDbLine
 62
7
  6
CONTINUOUS
 10
88.7531428033
 20
200.3813696059
 11
85.9772431506
 21
190.1516566232
  0
LINE
  5
25F
100
AcDbEntity
  8
0
100
AcDbLine
 62
7
  6
CONTINUOUS
 10
80.2603868265
 20
114.8671067181
 11
80.7733023248
 21
114.99221191
  0
LINE
  5
260
100
AcDbEntity
  8
0
100
AcDbLine
 62
7
  6
CONTINUOUS
 10
80.3629062003
 20
115.475448246
 11
80.066550227
 21
115.4463742352
  0
LINE
  5
261
100
AcDbEntity
  8
0
100
AcDbLine
 62
7
  6
CONTINUOUS
 10
170.3672727906
 20
91.8712436008
 11
170.8122305238
 21
91.6072200863
  0
LINE
  5
262
100
AcDbEntity
  8
0
100
AcDbLine
 62
7
  6
CONTINUOUS
 10
162.9235933774
 20
84.4223235825
 11
162.5904769151
 21
84.6999120987
  0
LINE
  5
263
100
AcDbEntity
  8
0
100
AcDbLine
 62
7
  6
CONTINUOUS
 10
169.0881089127
 20
89.6815365107
 11
169.6752773893
 21
89.1896789596
  0
LINE
  5
264
100
AcDbEntity
  8
0
100
AcDbLine
 62
7
  6
CONTINUOUS
 10
169.8775980828
 20
89.5637388582
 11
169.4209114898
 21
89.9462947312
  0
LINE
  5
265
100
AcDbEntity
  8
0
100
AcDbLine
 62
7
  6
CONTINUOUS
 10
170.8122305238
 20
91.6072200863
 11
171.2689171167
 21
91.2246642133
  0
LINE
  5
266
100
AcDbEntity
  8
0
100
AcDbLine
 62
7
  6
CONTINUOUS
 10
167.1524411831
 20
89.0947254113
 11
167.6535126663
 21
88.6337636407
  0
LINE
  5
267
100
AcDbEntity
  8
0
100
AcDbLine
 62
7
  6
CONTINUOUS
 10
167.5535938187
 20
89.4050794956
 11
169.9963167949
 21
87.1578913279
  0
LINE
  5
268
100
AcDbEntity
  8
0
100
AcDbLine
 62
7
  6
CONTINUOUS
 10
88.1714222575
 20
110.0343104861
 11
88.1258700053
 21
109.6559136771
  0
LINE
  5
269
100
AcDbEntity
  8
0
100
AcDbLine
 62
7
  6
CONTINUOUS
 10
80.4201918187
 20
112.7887908229
 11
80.3062578294
 21
112.3289002967
  0
LINE
  5
26A
100
AcDbEntity
  8
0
100
AcDbLine
 62
7
  6
CONTINUOUS
 10
76.6361347788
 20
169.2504827705
 11
84.7750827362
 21
178.9501032387
  0
LINE
  5
26B
100
AcDbEntity
  8
RUNDUNGEN
100
AcDbLine
 62
7
  6
CONTINUOUS
 10
76.6361347788
 20
169.2504827705
 11
126.0049911512
 21
228.0859947146
  0
LINE
  5
26C
100
AcDbEntity
  8
0
100
AcDbLine
 62
7
  6
CONTINUOUS
 10
171.6017196939
 20
91.4894224338
 11
171.0145512173
 21
91.9812799849
  0
LINE
  5
26D
100
AcDbEntity
  8
0
100
AcDbLine
 62
7
  6
CONTINUOUS
 10
170.334835517
 20
87.5258656134
 11
167.3910412331
 21
90.2340153903
  0
LINE
  5
26E
100
AcDbEntity
  8
0
100
AcDbLine
 62
7
  6
CONTINUOUS
 10
166.965439988
 20
86.693855416
 11
167.2702635372
 21
86.3969377965
  0
LINE
  5
26F
100
AcDbEntity
  8
0
100
AcDbLine
 62
7
  6
CONTINUOUS
 10
168.084312768
 20
87.2326624538
 11
167.7794892188
 21
87.5295800732
  0
LINE
  5
270
100
AcDbEntity
  8
0
100
AcDbLine
 62
7
  6
CONTINUOUS
 10
162.7804375534
 20
85.6559204797
 11
165.5032160475
 21
82.725651333
  0
LINE
  5
271
100
AcDbEntity
  8
0
100
AcDbLine
 62
7
  6
CONTINUOUS
 10
165.5219109478
 20
83.4400755562
 11
164.5950076194
 21
84.4376140012
  0
LINE
  5
272
100
AcDbEntity
  8
0
100
AcDbLine
 62
7
  6
CONTINUOUS
 10
164.247418917
 20
84.8116908689
 11
163.4943098993
 21
85.6221909237
  0
LINE
  5
273
100
AcDbEntity
  8
0
100
AcDbLine
 62
7
  6
CONTINUOUS
 10
166.1822366241
 20
85.912452244
 11
165.8346479216
 21
86.2865291117
  0
LINE
  5
274
100
AcDbEntity
  8
0
100
AcDbLine
 62
7
  6
CONTINUOUS
 10
167.7009175582
 20
84.767734879
 11
167.3533288152
 21
85.1418117904
  0
LINE
  5
275
100
AcDbEntity
  8
0
100
AcDbLine
 62
7
  6
CONTINUOUS
 10
165.3257277666
 20
87.3239271579
 11
164.9781390641
 21
87.6980040257
  0
LINE
  5
276
100
AcDbEntity
  8
0
100
AcDbLine
 62
7
  6
CONTINUOUS
 10
169.4209114898
 20
89.9462947312
 11
169.0829779209
 21
90.3380812847
  0
LINE
  5
277
100
AcDbEntity
  8
0
100
AcDbLine
 62
7
  6
CONTINUOUS
 10
160.6167523617
 20
82.1078315716
 11
161.4221321863
 21
81.1173468674
  0
LINE
  5
278
100
AcDbEntity
  8
0
100
AcDbLine
 62
7
  6
CONTINUOUS
 10
161.8100720388
 20
81.4327873068
 11
161.0046922142
 21
82.423272011
  0
LINE
  5
279
100
AcDbEntity
  8
0
100
AcDbLine
 62
7
  6
CONTINUOUS
 10
158.8108664022
 20
82.481211189
 11
161.1946120563
 21
79.2690846883
  0
LINE
  5
27A
100
AcDbEntity
  8
0
100
AcDbLine
 62
7
  6
CONTINUOUS
 10
161.5961278689
 20
79.5670528951
 11
159.2123822148
 21
82.7791793958
  0
LINE
  5
27B
100
AcDbEntity
  8
0
100
AcDbLine
 62
7
  6
CONTINUOUS
 10
109.7240109925
 20
273.5439864525
 11
109.812240404
 21
271.6687764875
  0
LINE
  5
27C
100
AcDbEntity
  8
0
100
AcDbLine
 62
7
  6
CONTINUOUS
 10
113.2471674669
 20
235.2210786666
 11
113.3353968784
 21
233.3458687016
  0
LINE
  5
27D
100
AcDbEntity
  8
RUNDUNGEN
100
AcDbLine
 62
7
  6
CONTINUOUS
 10
109.7234324803
 20
282.2581722417
 11
109.7236077359
 21
279.6182807389
  0
LINE
  5
27E
100
AcDbEntity
  8
0
100
AcDbLine
 62
7
  6
CONTINUOUS
 10
109.723147068
 20
286.5573662072
 11
109.7240109925
 21
273.5439864525
  0
LINE
  5
27F
100
AcDbEntity
  8
0
100
AcDbLine
 62
7
  6
CONTINUOUS
 10
113.3353968784
 20
233.3458687016
 11
113.336659833
 21
214.3218591147
  0
LINE
  5
280
100
AcDbEntity
  8
0
100
AcDbLine
 62
7
  6
CONTINUOUS
 10
88.6730296263
 20
109.3356657293
 11
88.7869633394
 21
109.79555639
  0
LINE
  5
281
100
AcDbEntity
  8
0
100
AcDbLine
 62
7
  6
CONTINUOUS
 10
78.9498268805
 20
112.4949692131
 11
79.8044384131
 21
114.971946665
  0
LINE
  5
282
100
AcDbEntity
  8
0
100
AcDbLine
 62
7
  6
CONTINUOUS
 10
79.1888972171
 20
115.2107008568
 11
78.3912526552
 21
112.9636686395
  0
LINE
  5
283
100
AcDbEntity
  8
0
100
AcDbLine
 62
7
  6
CONTINUOUS
 10
80.978341264
 20
116.2088951941
 11
80.8529925267
 21
115.8974559753
  0
LINE
  5
284
100
AcDbEntity
  8
0
100
AcDbLine
 62
7
  6
CONTINUOUS
 10
81.3317703036
 20
115.4957137193
 11
81.4571190409
 21
115.807152938
  0
LINE
  5
285
100
AcDbEntity
  8
0
100
AcDbLine
 62
7
  6
CONTINUOUS
 10
171.2689171167
 20
91.2246642133
 11
171.606850777
 21
90.8328775832
  0
LINE
  5
286
100
AcDbEntity
  8
0
100
AcDbLine
 62
7
  6
CONTINUOUS
 10
168.8154162856
 20
90.0186722252
 11
169.0881089127
 21
89.6815365107
  0
LINE
  5
287
100
AcDbEntity
  8
0
100
AcDbLine
 62
7
  6
CONTINUOUS
 10
171.8744124124
 20
91.1522866427
 11
171.6017196939
 21
91.4894224338
  0
LINE
  5
288
100
AcDbEntity
  8
0
100
AcDbLine
 62
7
  6
CONTINUOUS
 10
160.4129489678
 20
82.4905667255
 11
160.6167523617
 21
82.1078315716
  0
LINE
  5
289
100
AcDbEntity
  8
0
100
AcDbLine
 62
7
  6
CONTINUOUS
 10
164.3623126269
 20
82.5208456292
 11
164.1585090683
 21
82.9035804187
  0
LINE
  5
28A
100
AcDbEntity
  8
0
100
AcDbLine
 62
7
  6
CONTINUOUS
 10
109.812240404
 20
271.6687764875
 11
113.2471674669
 21
235.2210786666
  0
LINE
  5
28B
100
AcDbEntity
  8
0
100
AcDbLine
 62
7
  6
CONTINUOUS
 10
80.9673510198
 20
112.4685428384
 11
81.1610816379
 21
112.8614759456
  0
LINE
  5
28C
100
AcDbEntity
  8
0
100
AcDbLine
 62
7
  6
CONTINUOUS
 10
88.1258700053
 20
109.6559136771
 11
87.9321393873
 21
109.2629805699
  0
LINE
  5
28D
100
AcDbEntity
  8
0
100
AcDbLine
 62
7
  6
CONTINUOUS
 10
80.6823036326
 20
113.2632183932
 11
80.4201918187
 21
112.7887908229
  0
LINE
  5
28E
100
AcDbEntity
  8
0
100
AcDbLine
 62
7
  6
CONTINUOUS
 10
168.6732059718
 20
90.2465071458
 11
168.8154162856
 21
90.0186722252
  0
LINE
  5
28F
100
AcDbEntity
  8
0
100
AcDbLine
 62
7
  6
CONTINUOUS
 10
172.0166225434
 20
90.9244518752
 11
171.8744124124
 21
91.1522866427
  0
LINE
  5
290
100
AcDbEntity
  8
0
100
AcDbLine
 62
7
  6
CONTINUOUS
 10
161.0046922142
 20
82.423272011
 11
160.854580954
 21
82.7399746725
  0
LINE
  5
291
100
AcDbEntity
  8
0
100
AcDbLine
 62
7
  6
CONTINUOUS
 10
163.7705694008
 20
82.5881401297
 11
163.8669885852
 21
82.3374697005
  0
LINE
  5
292
100
AcDbEntity
  8
0
100
AcDbLine
 62
7
  6
CONTINUOUS
 10
133.3745531778
 20
265.3777805024
 11
133.3730769089
 21
287.6149645568
  0
LINE
  5
293
100
AcDbEntity
  8
0
100
AcDbLine
 62
7
  6
CONTINUOUS
 10
88.4109171642
 20
108.8612383138
 11
88.6730296263
 21
109.3356657293
  0
LINE
  5
294
100
AcDbEntity
  8
0
100
AcDbLine
 62
7
  6
CONTINUOUS
 10
79.1315055988
 20
118.8695591142
 11
75.9175675504
 21
115.0393368986
  0
LINE
  5
295
100
AcDbEntity
  8
0
100
AcDbLine
 62
7
  6
CONTINUOUS
 10
76.3963453274
 20
114.6375946426
 11
77.8323602204
 21
116.3489705504
  0
LINE
  5
296
100
AcDbEntity
  8
0
100
AcDbLine
 62
7
  6
CONTINUOUS
 10
78.2426501352
 20
116.8379350303
 11
79.2683751135
 21
118.0603464583
  0
LINE
  5
297
100
AcDbEntity
  8
0
100
AcDbLine
 62
7
  6
CONTINUOUS
 10
80.8529925267
 20
115.8974559753
 11
80.6478473777
 21
115.6529735071
  0
LINE
  5
298
100
AcDbEntity
  8
0
100
AcDbLine
 62
7
  6
CONTINUOUS
 10
81.0582435022
 20
115.1697371711
 11
81.3317703036
 21
115.4957137193
  0
LINE
  5
299
100
AcDbEntity
  8
0
100
AcDbLine
 62
7
  6
CONTINUOUS
 10
82.802135146
 20
115.789535215
 11
80.6823036326
 21
113.2632183932
  0
LINE
  5
29A
100
AcDbEntity
  8
0
100
AcDbLine
 62
7
  6
CONTINUOUS
 10
81.1610816379
 20
112.8614759456
 11
83.2809131513
 21
115.3877927674
  0
LINE
  5
29B
100
AcDbEntity
  8
RUNDUNGEN
100
AcDbLine
 62
7
  6
CONTINUOUS
 10
158.1788577622
 20
201.0889151078
 11
128.6622453485
 21
165.9123862225
  0
LINE
  5
29C
100
AcDbEntity
  8
0
100
AcDbLine
 62
7
  6
CONTINUOUS
 10
85.1960242591
 20
113.7808237431
 11
83.0761927457
 21
111.2545069214
  0
LINE
  5
29D
100
AcDbEntity
  8
0
100
AcDbLine
 62
7
  6
CONTINUOUS
 10
168.5192663686
 20
90.5928735408
 11
168.6732059718
 21
90.2465071458
  0
LINE
  5
29E
100
AcDbEntity
  8
0
100
AcDbLine
 62
7
  6
CONTINUOUS
 10
172.1705621923
 20
90.5780854419
 11
172.0166225434
 21
90.9244518752
  0
LINE
  5
29F
100
AcDbEntity
  8
0
100
AcDbLine
 62
7
  6
CONTINUOUS
 10
160.3274942879
 20
82.8598427434
 11
160.4129489678
 21
82.4905667255
  0
LINE
  5
2A0
100
AcDbEntity
  8
0
100
AcDbLine
 62
7
  6
CONTINUOUS
 10
160.854580954
 20
82.7399746725
 11
160.822818107
 21
83.0432185679
  0
LINE
  5
2A1
100
AcDbEntity
  8
0
100
AcDbLine
 62
7
  6
CONTINUOUS
 10
145.5745531509
 20
265.3785904287
 11
145.5730768822
 21
287.615772487
  0
LINE
  5
2A2
100
AcDbEntity
  8
0
100
AcDbLine
 62
7
  6
CONTINUOUS
 10
83.5549705226
 20
110.8527646653
 11
85.674802036
 21
113.3790814871
  0
LINE
  5
2A3
100
AcDbEntity
  8
0
100
AcDbLine
 62
7
  6
CONTINUOUS
 10
86.3131722531
 20
112.8434252734
 11
83.0992342047
 21
109.0132030578
  0
LINE
  5
2A4
100
AcDbEntity
  8
0
100
AcDbLine
 62
7
  6
CONTINUOUS
 10
83.9883019442
 20
109.1004253387
 11
86.3816601153
 21
111.9527185375
  0
LINE
  5
2A5
100
AcDbEntity
  8
0
100
AcDbLine
 62
7
  6
CONTINUOUS
 10
87.9321393873
 20
109.2629805699
 11
86.9064145047
 21
108.0405692561
  0
LINE
  5
2A6
100
AcDbEntity
  8
0
100
AcDbLine
 62
7
  6
CONTINUOUS
 10
87.3851922816
 20
107.638827
 11
88.4109171642
 21
108.8612383138
  0
LINE
  5
2A7
100
AcDbEntity
  8
0
100
AcDbLine
 62
7
  6
CONTINUOUS
 10
196.3089770492
 20
127.3785109172
 11
186.2514440115
 21
139.3646120476
  0
LINE
  5
2A8
100
AcDbEntity
  8
0
100
AcDbLine
 62
7
  6
CONTINUOUS
 10
150.6303156797
 20
167.8544775436
 11
153.3769096384
 21
162.7848587261
  0
LINE
  5
2A9
100
AcDbEntity
  8
RUNDUNGEN
100
AcDbLine
 62
7
  6
CONTINUOUS
 10
151.0790094119
 20
167.0262858916
 11
153.3769096384
 21
162.7848587261
  0
LINE
  5
2AA
100
AcDbEntity
  8
0
100
AcDbLine
 62
7
  6
CONTINUOUS
 10
153.6344072168
 20
162.231335795
 11
154.9465032739
 21
158.8914552265
  0
LINE
  5
2AB
100
AcDbEntity
  8
0
100
AcDbLine
 62
7
  6
CONTINUOUS
 10
169.0829779209
 20
90.3380812847
 11
168.9055810279
 21
90.9215132809
  0
LINE
  5
2AC
100
AcDbEntity
  8
0
100
AcDbLine
 62
7
  6
CONTINUOUS
 10
171.606850777
 20
90.8328775832
 11
171.784247533
 21
90.2494457019
  0
LINE
  5
2AD
100
AcDbEntity
  8
0
100
AcDbLine
 62
7
  6
CONTINUOUS
 10
168.4840804018
 20
90.9484713474
 11
168.5192663686
 21
90.5928735408
  0
LINE
  5
2AE
100
AcDbEntity
  8
0
100
AcDbLine
 62
7
  6
CONTINUOUS
 10
172.2057481819
 20
90.2224876162
 11
172.1705621923
 21
90.5780854419
  0
LINE
  5
2AF
100
AcDbEntity
  8
0
100
AcDbLine
 62
7
  6
CONTINUOUS
 10
83.133265812
 20
110.5122514358
 11
83.5549705226
 21
110.8527646653
  0
LINE
  5
2B0
100
AcDbEntity
  8
0
100
AcDbLine
 62
7
  6
CONTINUOUS
 10
86.9634880276
 20
107.2983133874
 11
87.3851922816
 21
107.638827
  0
LINE
  5
2B1
100
AcDbEntity
  8
0
100
AcDbLine
 62
7
  6
CONTINUOUS
 10
83.0761927457
 20
111.2545069214
 11
82.7228696875
 21
110.9954877718
  0
LINE
  5
2B2
100
AcDbEntity
  8
0
100
AcDbLine
 62
7
  6
CONTINUOUS
 10
80.6478473777
 20
115.6529735071
 11
80.3629062003
 21
115.475448246
  0
LINE
  5
2B3
100
AcDbEntity
  8
0
100
AcDbLine
 62
7
  6
CONTINUOUS
 10
80.7733023248
 20
114.99221191
 11
81.0582435022
 21
115.1697371711
  0
LINE
  5
2B4
100
AcDbEntity
  8
0
100
AcDbLine
 62
7
  6
CONTINUOUS
 10
167.052522511
 20
89.8660411048
 11
167.1524411831
 21
89.0947254113
  0
LINE
  5
2B5
100
AcDbEntity
  8
0
100
AcDbLine
 62
7
  6
CONTINUOUS
 10
167.6535126663
 20
88.6337636407
 11
167.5535938187
 21
89.4050794956
  0
LINE
  5
2B6
100
AcDbEntity
  8
RUNDUNGEN
100
AcDbLine
 62
7
  6
CONTINUOUS
 10
170.473608821
 20
279.6039523593
 11
170.4739226108
 21
274.877304759
  0
LINE
  5
2B7
100
AcDbEntity
  8
0
100
AcDbLine
 62
7
  6
CONTINUOUS
 10
170.4733062639
 20
284.161399247
 11
170.4746478249
 21
263.9533335174
  0
LINE
  5
2B8
100
AcDbEntity
  8
0
100
AcDbLine
 62
7
  6
CONTINUOUS
 10
160.371352954
 20
83.3342656245
 11
160.3274942879
 21
82.8598427434
  0
LINE
  5
2B9
100
AcDbEntity
  8
0
100
AcDbLine
 62
7
  6
CONTINUOUS
 10
164.3184538872
 20
82.0464226497
 11
164.3623126269
 21
82.5208456292
  0
LINE
  5
2BA
100
AcDbEntity
  8
0
100
AcDbLine
 62
7
  6
CONTINUOUS
 10
168.9055810279
 20
90.9215132809
 11
168.9356360029
 21
91.2224602484
  0
LINE
  5
2BB
100
AcDbEntity
  8
0
100
AcDbLine
 62
7
  6
CONTINUOUS
 10
154.5378407322
 20
156.7856494873
 11
148.6065154298
 21
150.5162717161
  0
LINE
  5
2BC
100
AcDbEntity
  8
0
100
AcDbLine
 62
7
  6
CONTINUOUS
 10
86.9064145047
 20
108.0405692561
 11
86.5530919031
 21
107.7815497234
  0
LINE
  5
2BD
100
AcDbEntity
  8
0
100
AcDbLine
 62
7
  6
CONTINUOUS
 10
187.5273869658
 20
140.9612534225
 11
187.5275456024
 21
138.5716950926
  0
LINE
  5
2BE
100
AcDbEntity
  8
0
100
AcDbLine
 62
7
  6
CONTINUOUS
 10
171.784247533
 20
90.2494457019
 11
171.754192558
 21
89.9484987344
  0
LINE
  5
2BF
100
AcDbEntity
  8
0
100
AcDbLine
 62
7
  6
CONTINUOUS
 10
168.5559192116
 20
91.4318329239
 11
168.4840804018
 21
90.9484713474
  0
LINE
  5
2C0
100
AcDbEntity
  8
0
100
AcDbLine
 62
7
  6
CONTINUOUS
 10
172.1339093893
 20
89.7391260253
 11
172.2057481819
 21
90.2224876162
  0
LINE
  5
2C1
100
AcDbEntity
  8
0
100
AcDbLine
 62
7
  6
CONTINUOUS
 10
160.822818107
 20
83.0432185679
 11
160.9094041592
 21
83.3330034777
  0
LINE
  5
2C2
100
AcDbEntity
  8
0
100
AcDbLine
 62
7
  6
CONTINUOUS
 10
163.8669885852
 20
82.3374697005
 11
163.7804026632
 21
82.0476848196
  0
LINE
  5
2C3
100
AcDbEntity
  8
0
100
AcDbLine
 62
7
  6
CONTINUOUS
 10
82.7001467142
 20
110.3201890164
 11
83.133265812
 21
110.5122514358
  0
LINE
  5
2C4
100
AcDbEntity
  8
0
100
AcDbLine
 62
7
  6
CONTINUOUS
 10
86.5303684732
 20
107.1062513511
 11
86.9634880276
 21
107.2983133874
  0
LINE
  5
2C5
100
AcDbEntity
  8
0
100
AcDbLine
 62
7
  6
CONTINUOUS
 10
82.7228696875
 20
110.9954877718
 11
82.35813229
 21
110.8849194895
  0
LINE
  5
2C6
100
AcDbEntity
  8
0
100
AcDbLine
 62
7
  6
CONTINUOUS
 10
170.0527784798
 20
239.2013753611
 11
175.1260572515
 21
221.5131816744
  0
LINE
  5
2C7
100
AcDbEntity
  8
0
100
AcDbLine
 62
7
  6
CONTINUOUS
 10
160.5225954941
 20
83.6766238156
 11
160.371352954
 21
83.3342656245
  0
LINE
  5
2C8
100
AcDbEntity
  8
0
100
AcDbLine
 62
7
  6
CONTINUOUS
 10
164.1672113612
 20
81.7040644413
 11
164.3184538872
 21
82.0464226497
  0
LINE
  5
2C9
100
AcDbEntity
  8
0
100
AcDbLine
 62
7
  6
CONTINUOUS
 10
186.2514440115
 20
139.3646120476
 11
181.9210437256
 21
133.1801595109
  0
LINE
  5
2CA
100
AcDbEntity
  8
RUNDUNGEN
100
AcDbLine
 62
7
  6
CONTINUOUS
 10
177.8792359885
 20
127.4078598475
 11
181.9210437256
 21
133.1801595109
  0
LINE
  5
2CB
100
AcDbEntity
  8
0
100
AcDbLine
 62
7
  6
CONTINUOUS
 10
86.5530919031
 20
107.7815497234
 11
86.188354049
 21
107.6709818242
  0
LINE
  5
2CC
100
AcDbEntity
  8
0
100
AcDbLine
 62
7
  6
CONTINUOUS
 10
197.2044385968
 20
130.0489860632
 11
197.1984542628
 21
130.0249774206
  0
LINE
  5
2CD
100
AcDbEntity
  8
RUNDUNGEN
100
AcDbLine
 62
7
  6
CONTINUOUS
 10
190.5454284222
 20
106.1943565624
 11
196.3089770492
 21
127.3785109172
  0
LINE
  5
2CE
100
AcDbEntity
  8
0
100
AcDbLine
 62
7
  6
CONTINUOUS
 10
195.3033187634
 20
123.6821735158
 11
196.3089770492
 21
127.3785109172
  0
LINE
  5
2CF
100
AcDbEntity
  8
0
100
AcDbLine
 62
7
  6
CONTINUOUS
 10
168.9356360029
 20
91.2224602484
 11
169.1379566964
 21
91.5965201469
  0
LINE
  5
2D0
100
AcDbEntity
  8
0
100
AcDbLine
 62
7
  6
CONTINUOUS
 10
171.754192558
 20
89.9484987344
 11
171.5518718645
 21
89.5744388358
  0
LINE
  5
2D1
100
AcDbEntity
  8
0
100
AcDbLine
 62
7
  6
CONTINUOUS
 10
168.8117519871
 20
91.869774342
 11
168.5559192116
 21
91.4318329239
  0
LINE
  5
2D2
100
AcDbEntity
  8
0
100
AcDbLine
 62
7
  6
CONTINUOUS
 10
171.8780766194
 20
89.3011846025
 11
172.1339093893
 21
89.7391260253
  0
LINE
  5
2D3
100
AcDbEntity
  8
0
100
AcDbLine
 62
7
  6
CONTINUOUS
 10
160.9094041592
 20
83.3330034777
 11
161.1143386826
 21
83.6093293613
  0
LINE
  5
2D4
100
AcDbEntity
  8
0
100
AcDbLine
 62
7
  6
CONTINUOUS
 10
163.7804026632
 20
82.0476848196
 11
163.5754681398
 21
81.771358936
  0
LINE
  5
2D5
100
AcDbEntity
  8
0
100
AcDbLine
 62
7
  6
CONTINUOUS
 10
160.7921867829
 20
84.005523206
 11
160.5225954941
 21
83.6766238156
  0
LINE
  5
2D6
100
AcDbEntity
  8
0
100
AcDbLine
 62
7
  6
CONTINUOUS
 10
163.8976200771
 20
81.3751650451
 11
164.1672113612
 21
81.7040644413
  0
LINE
  5
2D7
100
AcDbEntity
  8
0
100
AcDbLine
 62
7
  6
CONTINUOUS
 10
167.3910412331
 20
90.2340153903
 11
167.052522511
 21
89.8660411048
  0
LINE
  5
2D8
100
AcDbEntity
  8
0
100
AcDbLine
 62
7
  6
CONTINUOUS
 10
169.9963167949
 20
87.1578913279
 11
170.334835517
 21
87.5258656134
  0
LINE
  5
2D9
100
AcDbEntity
  8
0
100
AcDbLine
 62
7
  6
CONTINUOUS
 10
167.7794892188
 20
87.5295800732
 11
166.965439988
 21
86.693855416
  0
LINE
  5
2DA
100
AcDbEntity
  8
0
100
AcDbLine
 62
7
  6
CONTINUOUS
 10
167.2702635372
 20
86.3969377965
 11
168.084312768
 21
87.2326624538
  0
LINE
  5
2DB
100
AcDbEntity
  8
0
100
AcDbLine
 62
7
  6
CONTINUOUS
 10
164.9781390641
 20
87.6980040257
 11
162.7804375534
 21
85.6559204797
  0
LINE
  5
2DC
100
AcDbEntity
  8
0
100
AcDbLine
 62
7
  6
CONTINUOUS
 10
163.4943098993
 20
85.6221909237
 11
165.3257277666
 21
87.3239271579
  0
LINE
  5
2DD
100
AcDbEntity
  8
0
100
AcDbLine
 62
7
  6
CONTINUOUS
 10
165.8346479216
 20
86.2865291117
 11
164.247418917
 21
84.8116908689
  0
LINE
  5
2DE
100
AcDbEntity
  8
0
100
AcDbLine
 62
7
  6
CONTINUOUS
 10
164.5950076194
 20
84.4376140012
 11
166.1822366241
 21
85.912452244
  0
LINE
  5
2DF
100
AcDbEntity
  8
0
100
AcDbLine
 62
7
  6
CONTINUOUS
 10
169.1980666464
 20
92.198414082
 11
168.8117519871
 21
91.869774342
  0
LINE
  5
2E0
100
AcDbEntity
  8
0
100
AcDbLine
 62
7
  6
CONTINUOUS
 10
161.3740965616
 20
84.4786838652
 11
160.7921867829
 21
84.005523206
  0
LINE
  5
2E1
100
AcDbEntity
  8
0
100
AcDbLine
 62
7
  6
CONTINUOUS
 10
169.1379566964
 20
91.5965201469
 11
169.4707592735
 21
91.8612783675
  0
LINE
  5
2E2
100
AcDbEntity
  8
0
100
AcDbLine
 62
7
  6
CONTINUOUS
 10
167.3533288152
 20
85.1418117904
 11
165.5219109478
 21
83.4400755562
  0
LINE
  5
2E3
100
AcDbEntity
  8
0
100
AcDbLine
 62
7
  6
CONTINUOUS
 10
165.5032160475
 20
82.725651333
 11
167.7009175582
 21
84.767734879
  0
LINE
  5
2E4
100
AcDbEntity
  8
0
100
AcDbLine
 62
7
  6
CONTINUOUS
 10
171.4917619544
 20
88.9725448673
 11
171.8780766194
 21
89.3011846025
  0
LINE
  5
2E5
100
AcDbEntity
  8
RUNDUNGEN
100
AcDbLine
 62
7
  6
CONTINUOUS
 10
168.1564662738
 20
73.0491398016
 11
172.8914308376
 21
77.0223449581
  0
LINE
  5
2E6
100
AcDbEntity
  8
0
100
AcDbLine
 62
7
  6
CONTINUOUS
 10
161.1143386826
 20
83.6093293613
 11
161.6962484614
 21
84.0824900205
  0
LINE
  5
2E7
100
AcDbEntity
  8
0
100
AcDbLine
 62
7
  6
CONTINUOUS
 10
162.5356537099
 20
84.1068832935
 11
162.9235933774
 21
84.4223235825
  0
LINE
  5
2E8
100
AcDbEntity
  8
0
100
AcDbLine
 62
7
  6
CONTINUOUS
 10
164.1585090683
 20
82.9035804187
 11
163.7705694008
 21
82.5881401297
  0
LINE
  5
2E9
100
AcDbEntity
  8
0
100
AcDbLine
 62
7
  6
CONTINUOUS
 10
163.5754681398
 20
81.771358936
 11
162.993558361
 21
81.2981982769
  0
LINE
  5
2EA
100
AcDbEntity
  8
0
100
AcDbLine
 62
7
  6
CONTINUOUS
 10
163.3157102983
 20
80.9020043859
 11
163.8976200771
 21
81.3751650451
  0
LINE
  5
2EB
100
AcDbEntity
  8
0
100
AcDbLine
 62
7
  6
CONTINUOUS
 10
171.5518718645
 20
89.5744388358
 11
171.2190692873
 21
89.3096806153
  0
LINE
  5
2EC
100
AcDbEntity
  8
0
100
AcDbLine
 62
7
  6
CONTINUOUS
 10
159.2123822148
 20
82.7791793958
 11
158.8108664022
 21
82.481211189
  0
LINE
  5
2ED
100
AcDbEntity
  8
0
100
AcDbLine
 62
7
  6
CONTINUOUS
 10
161.1946120563
 20
79.2690846883
 11
161.5961278689
 21
79.5670528951
  0
LINE
  5
2EE
100
AcDbEntity
  8
0
100
AcDbLine
 62
7
  6
CONTINUOUS
 10
161.751071817
 20
84.6755186407
 11
161.3740965616
 21
84.4786838652
  0
LINE
  5
2EF
100
AcDbEntity
  8
0
100
AcDbLine
 62
7
  6
CONTINUOUS
 10
162.9387350383
 20
80.7051696161
 11
163.3157102983
 21
80.9020043859
  0
LINE
  5
2F0
100
AcDbEntity
  8
0
100
AcDbLine
 62
7
  6
CONTINUOUS
 10
161.6962484614
 20
84.0824900205
 11
162.0085669513
 21
84.2267512892
  0
LINE
  5
2F1
100
AcDbEntity
  8
0
100
AcDbLine
 62
7
  6
CONTINUOUS
 10
162.993558361
 20
81.2981982769
 11
162.681239871
 21
81.1539370082
  0
LINE
  5
2F2
100
AcDbEntity
  8
0
100
AcDbLine
 62
7
  6
CONTINUOUS
 10
169.6613511073
 20
92.3538706245
 11
169.1980666464
 21
92.198414082
  0
LINE
  5
2F3
100
AcDbEntity
  8
0
100
AcDbLine
 62
7
  6
CONTINUOUS
 10
171.0284774764
 20
88.8170883391
 11
171.4917619544
 21
88.9725448673
  0
LINE
  5
2F4
100
AcDbEntity
  8
BEZUGSACHSEN
100
AcDbLine
 62
7
  6
CONTINUOUS
 10
145.5742139713
 20
270.4876866994
 11
133.3742139982
 21
270.4868767731
  0
LINE
  5
2F5
100
AcDbEntity
  8
0
100
AcDbLine
 62
7
  6
CONTINUOUS
 10
170.0053098052
 20
285.4469434002
 11
164.0838998741
 21
292.5028536063
  0
LINE
  5
2F6
100
AcDbEntity
  8
BEZUGSACHSEN
100
AcDbLine
 62
7
  6
CONTINUOUS
 10
145.5732845477
 20
284.4876866686
 11
133.3732845746
 21
284.4868767423
  0
LINE
  5
2F7
100
AcDbEntity
  8
KONSTRUKTIONSELEMENTE
100
AcDbLine
 62
7
  6
CONTINUOUS
 10
160.253559095
 20
294.2886612754
 11
159.7420073686
 21
294.2886273148
  0
LINE
  5
2F8
100
AcDbEntity
  8
0
100
AcDbLine
 62
7
  6
CONTINUOUS
 10
119.2032605606
 20
294.2859360528
 11
117.9278697211
 21
294.285851383
  0
LINE
  5
2F9
100
AcDbEntity
  8
0
100
AcDbLine
 62
7
  6
CONTINUOUS
 10
294.6272037348
 20
59.4950868885
 11
304.6272037348
 21
59.4950868885
  0
LWPOLYLINE
  5
2FA
100
AcDbEntity
  8
RUNDUNGEN
100
AcDbPolyline
 62
7
  6
CONTINUOUS
 90
31
 70
0
 10
309.9311314448
 20
81.879832333
 10
310.019425081
 20
81.9043638486
 10
310.3076465721
 20
82.0226640967
 10
310.5520609278
 20
82.1765171494
 10
310.7510740668
 20
82.3484847209
 10
310.905985811
 20
82.5206437541
 10
311.030582594
 20
82.6909847051
 10
311.133511383
 20
82.8589122837
 10
311.2214854664
 20
83.0262449064
 10
311.2999701567
 20
83.1972229226
 10
311.3715696532
 20
83.3733714851
 10
311.4388172875
 20
83.5580397889
 10
311.5028473297
 20
83.7524134185
 10
311.5647739167
 20
83.9585084014
 10
311.6252301498
 20
84.1775451734
 10
311.6848250882
 20
84.4111934634
 10
311.7438648206
 20
84.6603810484
 10
311.802668013
 20
84.9263414359
 10
311.8614058552
 20
85.2098659869
 10
311.9202556924
 20
85.51192763
 10
311.979316475
 20
85.8332332747
 10
312.038691387
 20
86.1746021404
 10
312.0984385004
 20
86.5366669511
 10
312.1586183822
 20
86.9201029171
 10
312.2192690785
 20
87.3254819226
 10
312.2804282493
 20
87.7534038552
 10
312.3421221592
 20
88.2044156112
 10
312.4043752985
 20
88.6790544101
 10
312.4672092854
 20
89.1778357945
 10
312.5306451307
 20
89.7012841837
 10
312.6593723468
 20
90.8240201804
  0
LINE
  5
2FB
100
AcDbEntity
  8
AUSFORMSCHRAEGEN
100
AcDbLine
 62
7
  6
CONTINUOUS
 10
309.6272037348
 20
81.8040318305
 11
309.9319326177
 21
81.8800092743
  0
LINE
  5
2FC
100
AcDbEntity
  8
RUNDUNGEN
100
AcDbLine
 62
7
  6
CONTINUOUS
 10
309.931073785
 20
81.8797970945
 11
309.9318742216
 21
81.8799947145
  0
LINE
  5
2FD
100
AcDbEntity
  8
0
100
AcDbLine
 62
7
  6
CONTINUOUS
 10
289.322533248
 20
81.8799947145
 11
289.6272037348
 21
81.8040318305
  0
LINE
  5
2FE
100
AcDbEntity
  8
RUNDUNGEN
100
AcDbLine
 62
7
  6
CONTINUOUS
 10
283.5676662366
 20
285.0245452762
 11
285.5698294073
 21
287.5280864942
  0
LINE
  5
2FF
100
AcDbEntity
  8
0
100
AcDbLine
 62
7
  6
CONTINUOUS
 10
306.6272037348
 20
238.5754258435
 11
317.3772037348
 21
244.7819412221
  0
LWPOLYLINE
  5
300
100
AcDbEntity
  8
0
100
AcDbPolyline
 62
7
  6
CONTINUOUS
 90
5
 70
0
 10
289.1534230519
 20
78.7381998228
 10
289.2688469607
 20
78.3583645368
 10
289.3751715778
 20
77.9494927409
 10
289.4628934462
 20
77.5283433542
 10
289.5312752607
 20
77.0965993532
  0
LWPOLYLINE
  5
301
100
AcDbEntity
  8
0
100
AcDbPolyline
 62
7
  6
CONTINUOUS
 90
30
 70
0
 10
286.7231306276
 20
89.7065966188
 10
286.7865188665
 20
89.183335775
 10
286.8493076936
 20
88.6846928822
 10
286.9115174968
 20
88.2101505035
 10
286.9731692589
 20
87.7591994677
 10
287.034286859
 20
87.3313082797
 10
287.0948959515
 20
86.9259347805
 10
287.1550334122
 20
86.542484082
 10
287.2147365354
 20
86.1803881935
 10
287.27406491
 20
85.8389763578
 10
287.3330756819
 20
85.5176190407
 10
287.391870587
 20
85.2155012702
 10
287.4505471943
 20
84.9319185347
 10
287.5092805232
 20
84.6659025825
 10
287.568239681
 20
84.4166634694
 10
287.6277386295
 20
84.1829766601
 10
287.6880792708
 20
83.9639165296
 10
287.7498606063
 20
83.757828355
 10
287.8137045391
 20
83.5635001551
 10
287.8807074101
 20
83.3789281414
 10
287.9519852218
 20
83.2029251435
 10
288.0300193286
 20
83.0321856309
 10
288.1173602024
 20
82.8651866737
 10
288.219349918
 20
82.6977310624
 10
288.3425211183
 20
82.5280060918
 10
288.4954050261
 20
82.3563915784
 10
288.6915162411
 20
82.1846820981
 10
288.9325283233
 20
82.0301574793
 10
289.217511475
 20
81.9098353984
 10
289.3232286732
 20
81.8798438972
  0
LINE
  5
302
100
AcDbEntity
  8
0
100
AcDbLine
 62
7
  6
CONTINUOUS
 10
286.4633565148
 20
92.0546316079
 11
286.5945082652
 21
90.8287799193
  0
LINE
  5
303
100
AcDbEntity
  8
0
100
AcDbLine
 62
7
  6
CONTINUOUS
 10
286.3296144883
 20
93.387178327
 11
286.4633565148
 21
92.0546316079
  0
LWPOLYLINE
  5
304
100
AcDbEntity
  8
0
100
AcDbPolyline
 62
7
  6
CONTINUOUS
 90
7
 70
0
 10
281.649266108
 20
156.6888784878
 10
281.7852609562
 20
155.3047108419
 10
281.9403426026
 20
153.6630442232
 10
282.0961207263
 20
151.9508619546
 10
282.2524723301
 20
150.1738821567
 10
282.4093424203
 20
148.3377648701
 10
282.5666526968
 20
146.4484246991
  0
LINE
  5
305
100
AcDbEntity
  8
0
100
AcDbLine
 62
7
  6
CONTINUOUS
 10
282.4907623174
 20
157.0061869125
 11
282.4928155882
 21
156.9852500638
  0
LINE
  5
306
100
AcDbEntity
  8
0
100
AcDbLine
 62
7
  6
CONTINUOUS
 10
281.6451543431
 20
156.7320305581
 11
281.6492897232
 21
156.6886429451
  0
LINE
  5
307
100
AcDbEntity
  8
0
100
AcDbLine
 62
7
  6
CONTINUOUS
 10
286.1932360608
 20
94.8290368842
 11
286.3296144883
 21
93.387178327
  0
LINE
  5
308
100
AcDbEntity
  8
0
100
AcDbLine
 62
7
  6
CONTINUOUS
 10
282.4928155882
 20
156.9852500638
 11
282.495602489
 21
156.954607659
  0
LINE
  5
309
100
AcDbEntity
  8
0
100
AcDbLine
 62
7
  6
CONTINUOUS
 10
282.495602489
 20
156.954607659
 11
282.5006731786
 21
156.8947480966
  0
LINE
  5
30A
100
AcDbEntity
  8
0
100
AcDbLine
 62
7
  6
CONTINUOUS
 10
282.5666526968
 20
146.4484246991
 11
282.8824086574
 21
142.53465935
  0
LINE
  5
30B
100
AcDbEntity
  8
0
100
AcDbLine
 62
7
  6
CONTINUOUS
 10
282.5006731786
 20
156.8947480966
 11
282.5065102107
 21
156.8213514638
  0
LINE
  5
30C
100
AcDbEntity
  8
0
100
AcDbLine
 62
7
  6
CONTINUOUS
 10
282.8824086574
 20
142.53465935
 11
283.199346961
 21
138.4836052393
  0
LINE
  5
30D
100
AcDbEntity
  8
0
100
AcDbLine
 62
7
  6
CONTINUOUS
 10
283.199346961
 20
138.4836052393
 11
283.6272037348
 21
132.9083251516
  0
LWPOLYLINE
  5
30E
100
AcDbEntity
  8
0
100
AcDbPolyline
 62
7
  6
CONTINUOUS
 90
6
 70
0
 10
288.6550132826
 20
82.2166430649
 10
288.6583563309
 20
82.1722849973
 10
288.6667963144
 20
82.0500685003
 10
288.675027167
 20
81.920018932
 10
288.6830075905
 20
81.7824142099
 10
288.6906979539
 20
81.6376013837
  0
LWPOLYLINE
  5
30F
100
AcDbEntity
  8
0
100
AcDbPolyline
 62
7
  6
CONTINUOUS
 90
3
 70
0
 10
282.9841846047
 20
147.8569232733
 10
282.9919551833
 20
147.7509413097
 10
283.0029083816
 20
147.64495819
  0
LINE
  5
310
100
AcDbEntity
  8
0
100
AcDbLine
 62
7
  6
CONTINUOUS
 10
282.5065102107
 20
156.8213514638
 11
282.5197883775
 21
156.6425602752
  0
LINE
  5
311
100
AcDbEntity
  8
0
100
AcDbLine
 62
7
  6
CONTINUOUS
 10
281.6331770888
 20
156.9004077489
 11
281.6451543431
 21
156.7320305581
  0
LINE
  5
312
100
AcDbEntity
  8
0
100
AcDbLine
 62
7
  6
CONTINUOUS
 10
282.5197883775
 20
156.6425602752
 11
282.545818909
 21
156.2619565983
  0
LWPOLYLINE
  5
313
100
AcDbEntity
  8
0
100
AcDbPolyline
 62
7
  6
CONTINUOUS
 90
9
 70
0
 10
284.9278287817
 20
111.6683123631
 10
285.0801529117
 20
109.365316414
 10
285.2325265374
 20
107.1242465194
 10
285.3849540936
 20
104.951549418
 10
285.5374530682
 20
102.8532509461
 10
285.6900382709
 20
100.8353249609
 10
285.8427497786
 20
98.9031998793
 10
285.9956323706
 20
97.0621574745
 10
286.1932360608
 20
94.8290368842
  0
LINE
  5
314
100
AcDbEntity
  8
0
100
AcDbLine
 62
7
  6
CONTINUOUS
 10
284.6233020947
 20
116.4338615001
 11
284.9278287817
 21
111.6683123631
  0
LINE
  5
315
100
AcDbEntity
  8
0
100
AcDbLine
 62
7
  6
CONTINUOUS
 10
284.3188861708
 20
121.3672463232
 11
284.6233020947
 21
116.4338615001
  0
LINE
  5
316
100
AcDbEntity
  8
0
100
AcDbLine
 62
7
  6
CONTINUOUS
 10
282.545818909
 20
156.2619565983
 11
282.6001408014
 21
155.3912342243
  0
LINE
  5
317
100
AcDbEntity
  8
0
100
AcDbLine
 62
7
  6
CONTINUOUS
 10
283.6272037323
 20
132.9083251933
 11
284.3188861708
 21
121.3672463232
  0
LINE
  5
318
100
AcDbEntity
  8
0
100
AcDbLine
 62
7
  6
CONTINUOUS
 10
282.6001408014
 20
155.3912342243
 11
282.6945131506
 21
153.7243484449
  0
LWPOLYLINE
  5
319
100
AcDbEntity
  8
0
100
AcDbPolyline
 62
7
  6
CONTINUOUS
 90
8
 70
0
 10
288.7113965389
 20
81.3387968029
 10
288.7211872109
 20
81.1527520885
 10
288.7516484461
 20
80.7760267536
 10
288.7974483371
 20
80.3865767268
 10
288.8598863278
 20
79.9848588315
 10
288.9400636224
 20
79.5743376987
 10
289.0376320607
 20
79.1586851926
 10
289.1534230519
 20
78.7381998228
  0
LINE
  5
31A
100
AcDbEntity
  8
0
100
AcDbLine
 62
7
  6
CONTINUOUS
 10
282.9819664501
 20
147.8993263384
 11
282.9841846047
 21
147.8569232733
  0
LINE
  5
31B
100
AcDbEntity
  8
0
100
AcDbLine
 62
7
  6
CONTINUOUS
 10
282.6945131506
 20
153.7243484449
 11
282.8016255027
 21
151.6636392235
  0
LINE
  5
31C
100
AcDbEntity
  8
0
100
AcDbLine
 62
7
  6
CONTINUOUS
 10
282.8016255027
 20
151.6636392235
 11
282.9339975705
 21
148.9279125716
  0
LINE
  5
31D
100
AcDbEntity
  8
0
100
AcDbLine
 62
7
  6
CONTINUOUS
 10
282.9339975705
 20
148.9279125716
 11
282.981967455
 21
147.8993237231
  0
LINE
  5
31E
100
AcDbEntity
  8
0
100
AcDbLine
 62
7
  6
CONTINUOUS
 10
288.6906979539
 20
81.6376013837
 11
288.7045289571
 21
81.3409516701
  0
LINE
  5
31F
100
AcDbEntity
  8
0
100
AcDbLine
 62
7
  6
CONTINUOUS
 10
288.7045646267
 20
81.3401271454
 11
288.7045289571
 21
81.3409516701
  0
LWPOLYLINE
  5
320
100
AcDbEntity
  8
0
100
AcDbPolyline
 62
7
  6
CONTINUOUS
 90
3
 70
0
 10
281.6272179194
 20
157.1298440651
 10
281.6276361336
 20
157.0690530906
 10
281.6331770888
 20
156.9004077489
  0
LINE
  5
321
100
AcDbEntity
  8
RUNDUNGEN
100
AcDbLine
 62
7
  6
CONTINUOUS
 10
281.3772037348
 20
245.647966624
 11
281.3772037348
 21
278.7785141077
  0
LINE
  5
322
100
AcDbEntity
  8
0
100
AcDbLine
 62
7
  6
CONTINUOUS
 10
281.6272037348
 20
157.1300980771
 11
281.6272037348
 21
230.5874301988
  0
LINE
  5
323
100
AcDbEntity
  8
0
100
AcDbLine
 62
7
  6
CONTINUOUS
 10
306.6272037348
 20
177.3116114691
 11
292.6272037348
 21
177.3116114691
  0
LWPOLYLINE
  5
324
100
AcDbEntity
  8
0
100
AcDbPolyline
 62
7
  6
CONTINUOUS
 90
8
 70
0
 10
288.0961054131
 20
113.5264960358
 10
288.4390073761
 20
111.5095651106
 10
288.7632110295
 20
109.3203327882
 10
289.0351893724
 20
107.1466119815
 10
289.2550157754
 20
104.9935465859
 10
289.4230817733
 20
102.8660961564
 10
289.5402631446
 20
100.7689618065
 10
289.6076884839
 20
98.7070047336
  0
LINE
  5
325
100
AcDbEntity
  8
0
100
AcDbLine
 62
7
  6
CONTINUOUS
 10
284.0041486448
 20
141.0185085779
 11
285.0411798045
 21
134.4160906308
  0
LINE
  5
326
100
AcDbEntity
  8
0
100
AcDbLine
 62
7
  6
CONTINUOUS
 10
285.0411798045
 20
134.4160906308
 11
285.4925445742
 21
131.4764902771
  0
LINE
  5
327
100
AcDbEntity
  8
0
100
AcDbLine
 62
7
  6
CONTINUOUS
 10
285.4925445742
 20
131.4764902771
 11
285.624927984
 21
130.586854297
  0
LWPOLYLINE
  5
328
100
AcDbEntity
  8
0
100
AcDbPolyline
 62
7
  6
CONTINUOUS
 90
4
 70
0
 10
283.0144323531
 20
147.5569323191
 10
283.3065008672
 20
145.5628378894
 10
283.6476080503
 20
143.3135598695
 10
284.0041486448
 20
141.0185085779
  0
LWPOLYLINE
  5
329
100
AcDbEntity
  8
0
100
AcDbPolyline
 62
7
  6
CONTINUOUS
 90
5
 70
0
 10
285.5864739721
 20
130.8715097835
 10
285.9561544968
 20
128.2514748751
 10
286.1980150029
 20
126.4795417027
 10
286.4306349496
 20
124.7184897588
 10
286.8191455068
 20
121.6899680076
  0
LWPOLYLINE
  5
32A
100
AcDbEntity
  8
0
100
AcDbPolyline
 62
7
  6
CONTINUOUS
 90
6
 70
0
 10
286.8191455068
 20
121.6899680076
 10
287.0505760416
 20
120.0115197107
 10
287.2976253834
 20
118.3341772452
 10
287.5603713497
 20
116.6592076499
 10
287.8388970667
 20
114.9878314979
 10
288.0961242946
 20
113.5264909337
  0
LINE
  5
32B
100
AcDbEntity
  8
0
100
AcDbLine
 62
7
  6
CONTINUOUS
 10
283.0029083816
 20
147.64495819
 11
283.0144353159
 21
147.5569111154
  0
LINE
  5
32C
100
AcDbEntity
  8
0
100
AcDbLine
 62
7
  6
CONTINUOUS
 10
286.5945082652
 20
90.8287799193
 11
286.7231306276
 21
89.7065966188
  0
LWPOLYLINE
  5
32D
100
AcDbEntity
  8
0
100
AcDbPolyline
 62
7
  6
CONTINUOUS
 90
3
 70
0
 10
282.490029599
 20
157.0130423857
 10
282.4901797541
 20
157.0116900139
 10
282.4907623174
 20
157.0061869125
  0
LWPOLYLINE
  5
32E
100
AcDbEntity
  8
0
100
AcDbPolyline
 62
7
  6
CONTINUOUS
 90
4
 70
0
 10
289.5312752607
 20
77.0965993532
 10
289.5802547803
 20
76.6548156113
 10
289.6111739246
 20
76.2064555044
 10
289.6257280664
 20
75.7556715572
  0
LINE
  5
32F
100
AcDbEntity
  8
0
100
AcDbLine
 62
7
  6
CONTINUOUS
 10
289.6076884839
 20
98.7070047336
 11
289.6272023238
 21
96.8641112628
  0
LINE
  5
330
100
AcDbEntity
  8
0
100
AcDbLine
 62
7
  6
CONTINUOUS
 10
289.6257280664
 20
75.7556715572
 11
289.6271862119
 21
75.5806864418
  0
LINE
  5
331
100
AcDbEntity
  8
0
100
AcDbLine
 62
7
  6
CONTINUOUS
 10
289.6272037348
 20
64.4952264949
 11
289.6272037348
 21
96.8641166832
  0
LINE
  5
332
100
AcDbEntity
  8
0
100
AcDbLine
 62
7
  6
CONTINUOUS
 10
292.6272037348
 20
235.5873003372
 11
292.6272037348
 21
177.3116114691
  0
LINE
  5
333
100
AcDbEntity
  8
RUNDUNGEN
100
AcDbLine
 62
7
  6
CONTINUOUS
 10
293.1272037348
 20
241.9898485267
 11
293.1272037348
 21
177.3116114691
  0
LINE
  5
334
100
AcDbEntity
  8
0
100
AcDbLine
 62
7
  6
CONTINUOUS
 10
316.7103022936
 20
241.7805332759
 11
316.8178110035
 21
242.121564055
  0
LWPOLYLINE
  5
335
100
AcDbEntity
  8
0
100
AcDbPolyline
 62
7
  6
CONTINUOUS
 90
3
 70
0
 10
314.231324056
 20
235.3175207529
 10
314.5805218086
 20
236.2249553748
 10
315.1787877
 20
237.6753308951
  0
LWPOLYLINE
  5
336
100
AcDbEntity
  8
0
100
AcDbPolyline
 62
7
  6
CONTINUOUS
 90
17
 70
0
 10
315.3389258229
 20
238.055227458
 10
315.4453681559
 20
238.3128331499
 10
315.5483026147
 20
238.5660212401
 10
315.6477819683
 20
238.8146920811
 10
315.7438591004
 20
239.0587523319
 10
315.8365881176
 20
239.2981177498
 10
315.9260216562
 20
239.5327062074
 10
316.0122158405
 20
239.7624505851
 10
316.0952206824
 20
239.9872654321
 10
316.1751003422
 20
240.2070747626
 10
316.2519294646
 20
240.4218297118
 10
316.3257798329
 20
240.6314823985
 10
316.3967237271
 20
240.8359951327
 10
316.4648325573
 20
241.0353365701
 10
316.5301764721
 20
241.2294804157
 10
316.5928273448
 20
241.4184142836
 10
316.7103022936
 20
241.7805332759
  0
LINE
  5
337
100
AcDbEntity
  8
0
100
AcDbLine
 62
7
  6
CONTINUOUS
 10
315.1787786873
 20
237.6753192315
 11
315.3389258229
 21
238.055227458
  0
LINE
  5
338
100
AcDbEntity
  8
0
100
AcDbLine
 62
7
  6
CONTINUOUS
 10
304.1272037348
 20
187.6279156051
 11
295.1272037348
 21
187.6279156051
  0
LINE
  5
339
100
AcDbEntity
  8
0
100
AcDbLine
 62
7
  6
CONTINUOUS
 10
306.1272037348
 20
241.9898485267
 11
306.1272037348
 21
177.3116114691
  0
LINE
  5
33A
100
AcDbEntity
  8
0
100
AcDbLine
 62
7
  6
CONTINUOUS
 10
306.6272037348
 20
235.5873003372
 11
306.6272037348
 21
177.3116114691
  0
LINE
  5
33B
100
AcDbEntity
  8
0
100
AcDbLine
 62
7
  6
CONTINUOUS
 10
317.3894120811
 20
244.120108738
 11
317.5780510748
 21
244.8435023137
  0
LINE
  5
33C
100
AcDbEntity
  8
0
100
AcDbLine
 62
7
  6
CONTINUOUS
 10
317.3144052499
 20
243.8382893634
 11
317.3894120811
 21
244.120108738
  0
LINE
  5
33D
100
AcDbEntity
  8
0
100
AcDbLine
 62
7
  6
CONTINUOUS
 10
317.5780510748
 20
244.8435023137
 11
317.6004269819
 21
244.9274623405
  0
LINE
  5
33E
100
AcDbEntity
  8
0
100
AcDbLine
 62
7
  6
CONTINUOUS
 10
317.2574140593
 20
243.6280987808
 11
317.3144052499
 21
243.8382893634
  0
LINE
  5
33F
100
AcDbEntity
  8
0
100
AcDbLine
 62
7
  6
CONTINUOUS
 10
317.6004269819
 20
244.9274623405
 11
317.6134447285
 21
244.9753755676
  0
LINE
  5
340
100
AcDbEntity
  8
0
100
AcDbLine
 62
7
  6
CONTINUOUS
 10
317.1942284833
 20
243.3992178564
 11
317.2574140593
 21
243.6280987808
  0
LINE
  5
341
100
AcDbEntity
  8
0
100
AcDbLine
 62
7
  6
CONTINUOUS
 10
317.1242731454
 20
243.1509110653
 11
317.1942284833
 21
243.3992178564
  0
LINE
  5
342
100
AcDbEntity
  8
0
100
AcDbLine
 62
7
  6
CONTINUOUS
 10
317.0469492448
 20
242.8825299305
 11
317.1242731454
 21
243.1509110653
  0
LINE
  5
343
100
AcDbEntity
  8
0
100
AcDbLine
 62
7
  6
CONTINUOUS
 10
316.9617167618
 20
242.5937180322
 11
317.0469492448
 21
242.8825299305
  0
LWPOLYLINE
  5
344
100
AcDbEntity
  8
0
100
AcDbPolyline
 62
7
  6
CONTINUOUS
 90
3
 70
0
 10
316.8178110035
 20
242.121564055
 10
316.8680175683
 20
242.2841789556
 10
316.9617167618
 20
242.5937180322
  0
LINE
  5
345
100
AcDbEntity
  8
0
100
AcDbLine
 62
7
  6
CONTINUOUS
 10
295.1272037348
 20
201.8575978151
 11
304.1272037348
 21
201.8575978151
  0
LWPOLYLINE
  5
346
100
AcDbEntity
  8
RUNDUNGEN
100
AcDbPolyline
 62
7
  6
CONTINUOUS
 90
3
 70
0
 10
284.0756197696
 20
237.6753308951
 10
284.6738856609
 20
236.2249553748
 10
285.0230834135
 20
235.3175207529
  0
LWPOLYLINE
  5
347
100
AcDbEntity
  8
RUNDUNGEN
100
AcDbPolyline
 62
7
  6
CONTINUOUS
 90
18
 70
0
 10
282.6335657272
 20
241.5038163628
 10
282.696698481
 20
241.312164696
 10
282.7626404025
 20
241.1150107544
 10
282.8314694949
 20
240.912363627
 10
282.9032611045
 20
240.7042500854
 10
282.9780924843
 20
240.4907009849
 10
283.0560415183
 20
240.2717551737
 10
283.1371864213
 20
240.0474603769
 10
283.2216084445
 20
239.8178658822
 10
283.309379329
 20
239.5830516265
 10
283.4005569229
 20
239.3431067377
 10
283.4952015508
 20
239.0981042011
 10
283.5933697993
 20
238.8481331728
 10
283.6951207666
 20
238.5932828811
 10
283.8005119879
 20
238.3336532373
 10
283.9096008806
 20
238.0693511688
 10
284.0224402417
 20
237.8005013618
 10
284.0756288345
 20
237.675319109
  0
LINE
  5
348
100
AcDbEntity
  8
RUNDUNGEN
100
AcDbLine
 62
7
  6
CONTINUOUS
 10
282.5154606346
 20
241.8704681631
 11
282.6335657272
 21
241.5038163628
  0
LINE
  5
349
100
AcDbEntity
  8
RUNDUNGEN
100
AcDbLine
 62
7
  6
CONTINUOUS
 10
282.4077061258
 20
242.214868427
 11
282.5154606346
 21
241.8704681631
  0
LINE
  5
34A
100
AcDbEntity
  8
RUNDUNGEN
100
AcDbLine
 62
7
  6
CONTINUOUS
 10
282.3096389917
 20
242.5371265
 11
282.4077061258
 21
242.214868427
  0
LINE
  5
34B
100
AcDbEntity
  8
RUNDUNGEN
100
AcDbLine
 62
7
  6
CONTINUOUS
 10
282.2206165072
 20
242.8374734985
 11
282.3096389917
 21
242.5371265
  0
LINE
  5
34C
100
AcDbEntity
  8
RUNDUNGEN
100
AcDbLine
 62
7
  6
CONTINUOUS
 10
282.1400309847
 20
243.1162097016
 11
282.2206165072
 21
242.8374734985
  0
LINE
  5
34D
100
AcDbEntity
  8
RUNDUNGEN
100
AcDbLine
 62
7
  6
CONTINUOUS
 10
282.0672930672
 20
243.3737228927
 11
282.1400309847
 21
243.1162097016
  0
LINE
  5
34E
100
AcDbEntity
  8
RUNDUNGEN
100
AcDbLine
 62
7
  6
CONTINUOUS
 10
282.0017664527
 20
243.610655817
 11
282.0672930672
 21
243.3737228927
  0
LINE
  5
34F
100
AcDbEntity
  8
RUNDUNGEN
100
AcDbLine
 62
7
  6
CONTINUOUS
 10
281.6409796979
 20
244.9753586108
 11
281.6615189211
 21
244.8993580059
  0
LINE
  5
350
100
AcDbEntity
  8
RUNDUNGEN
100
AcDbLine
 62
7
  6
CONTINUOUS
 10
281.9156401785
 20
243.9291997534
 11
282.0017664527
 21
243.610655817
  0
LINE
  5
351
100
AcDbEntity
  8
RUNDUNGEN
100
AcDbLine
 62
7
  6
CONTINUOUS
 10
281.6615189211
 20
244.8993580059
 11
281.6990717055
 21
244.7570092664
  0
LINE
  5
352
100
AcDbEntity
  8
RUNDUNGEN
100
AcDbLine
 62
7
  6
CONTINUOUS
 10
281.8206503503
 20
244.2891820929
 11
281.9156401785
 21
243.9291997534
  0
LINE
  5
353
100
AcDbEntity
  8
RUNDUNGEN
100
AcDbLine
 62
7
  6
CONTINUOUS
 10
281.6990717055
 20
244.7570092664
 11
281.8206503503
 21
244.2891820929
  0
LINE
  5
354
100
AcDbEntity
  8
RUNDUNGEN
100
AcDbLine
 62
7
  6
CONTINUOUS
 10
309.6272037348
 20
64.4952264949
 11
309.6272037348
 21
96.8641166832
  0
LINE
  5
355
100
AcDbEntity
  8
RUNDUNGEN
100
AcDbLine
 62
7
  6
CONTINUOUS
 10
317.6272037348
 20
157.1300980771
 11
317.6272037348
 21
230.5874301988
  0
LINE
  5
356
100
AcDbEntity
  8
0
100
AcDbLine
 62
7
  6
CONTINUOUS
 10
317.8772037348
 20
245.6481099135
 11
317.8772037348
 21
278.7785141077
  0
LINE
  5
357
100
AcDbEntity
  8
RUNDUNGEN
100
AcDbLine
 62
7
  6
CONTINUOUS
 10
317.6266406254
 20
157.0601975092
 11
317.6271895502
 21
157.1298381246
  0
LINE
  5
358
100
AcDbEntity
  8
RUNDUNGEN
100
AcDbLine
 62
7
  6
CONTINUOUS
 10
309.6272212576
 20
75.5806864418
 11
309.6286794032
 21
75.7556715572
  0
LWPOLYLINE
  5
359
100
AcDbEntity
  8
RUNDUNGEN
100
AcDbPolyline
 62
7
  6
CONTINUOUS
 90
9
 70
0
 10
309.6272051458
 20
96.8641112628
 10
309.6467189857
 20
98.7070047336
 10
309.7141443249
 20
100.7689618065
 10
309.8313256963
 20
102.8660961564
 10
309.9993916941
 20
104.9935465859
 10
310.2192180972
 20
107.1466119815
 10
310.4911964401
 20
109.3203327882
 10
310.8154000935
 20
111.5095651106
 10
311.1583020565
 20
113.5264960358
  0
LWPOLYLINE
  5
35A
100
AcDbEntity
  8
RUNDUNGEN
100
AcDbPolyline
 62
7
  6
CONTINUOUS
 90
3
 70
0
 10
309.6286794032
 20
75.7556715572
 10
309.643233545
 20
76.2064555044
 10
309.6741526892
 20
76.6548156113
  0
LINE
  5
35B
100
AcDbEntity
  8
RUNDUNGEN
100
AcDbLine
 62
7
  6
CONTINUOUS
 10
317.6205209847
 20
156.8871431443
 11
317.6266406254
 21
157.0601975092
  0
LINE
  5
35C
100
AcDbEntity
  8
RUNDUNGEN
100
AcDbLine
 62
7
  6
CONTINUOUS
 10
310.5498428428
 20
81.3401271454
 11
310.5597918081
 21
81.5586600459
  0
LINE
  5
35D
100
AcDbEntity
  8
RUNDUNGEN
100
AcDbLine
 62
7
  6
CONTINUOUS
 10
316.2724400145
 20
147.8993237231
 11
316.414828937
 21
150.8984405874
  0
LINE
  5
35E
100
AcDbEntity
  8
RUNDUNGEN
100
AcDbLine
 62
7
  6
CONTINUOUS
 10
316.414828937
 20
150.8984405874
 11
316.5258704844
 21
153.086934589
  0
LINE
  5
35F
100
AcDbEntity
  8
RUNDUNGEN
100
AcDbLine
 62
7
  6
CONTINUOUS
 10
316.2702228648
 20
147.8569232733
 11
316.2724410195
 21
147.8993263384
  0
LWPOLYLINE
  5
360
100
AcDbEntity
  8
RUNDUNGEN
100
AcDbPolyline
 62
7
  6
CONTINUOUS
 90
6
 70
0
 10
310.5597918081
 20
81.5586600459
 10
310.5724966628
 20
81.8020526393
 10
310.579192291
 20
81.9169130942
 10
310.586090668
 20
82.0268880054
 10
310.593167817
 20
82.1317258922
 10
310.5993956874
 20
82.2174191909
  0
LINE
  5
361
100
AcDbEntity
  8
RUNDUNGEN
100
AcDbLine
 62
7
  6
CONTINUOUS
 10
316.5258704844
 20
153.086934589
 11
316.6245871313
 21
154.8849718794
  0
LINE
  5
362
100
AcDbEntity
  8
RUNDUNGEN
100
AcDbLine
 62
7
  6
CONTINUOUS
 10
314.9234486935
 20
121.1690611092
 11
315.6272037373
 21
132.9083251933
  0
LINE
  5
363
100
AcDbEntity
  8
RUNDUNGEN
100
AcDbLine
 62
7
  6
CONTINUOUS
 10
316.6245871313
 20
154.8849718794
 11
316.6825323326
 21
155.8546782909
  0
LINE
  5
364
100
AcDbEntity
  8
RUNDUNGEN
100
AcDbLine
 62
7
  6
CONTINUOUS
 10
316.6825323326
 20
155.8546782909
 11
316.7252946946
 21
156.5099923597
  0
LINE
  5
365
100
AcDbEntity
  8
RUNDUNGEN
100
AcDbLine
 62
7
  6
CONTINUOUS
 10
316.7253655955
 20
156.5110109548
 11
316.7411050717
 21
156.7316094725
  0
LINE
  5
366
100
AcDbEntity
  8
RUNDUNGEN
100
AcDbLine
 62
7
  6
CONTINUOUS
 10
316.7411050717
 20
156.7316094725
 11
316.7504859896
 21
156.8543946951
  0
LWPOLYLINE
  5
367
100
AcDbEntity
  8
RUNDUNGEN
100
AcDbPolyline
 62
7
  6
CONTINUOUS
 90
3
 70
0
 10
316.7504859896
 20
156.8543946951
 10
316.756566975
 20
156.9287345252
 10
316.7583484769
 20
156.9494098041
  0
LINE
  5
368
100
AcDbEntity
  8
RUNDUNGEN
100
AcDbLine
 62
7
  6
CONTINUOUS
 10
317.6076242805
 20
156.7143950797
 11
317.6205209847
 21
156.8871431443
  0
LINE
  5
369
100
AcDbEntity
  8
RUNDUNGEN
100
AcDbLine
 62
7
  6
CONTINUOUS
 10
315.6272037348
 20
132.9083251516
 11
316.067320879
 21
138.6420017247
  0
LINE
  5
36A
100
AcDbEntity
  8
RUNDUNGEN
100
AcDbLine
 62
7
  6
CONTINUOUS
 10
316.067320879
 20
138.6420017247
 11
316.3817799678
 21
142.6579815654
  0
LWPOLYLINE
  5
36B
100
AcDbEntity
  8
RUNDUNGEN
100
AcDbPolyline
 62
7
  6
CONTINUOUS
 90
8
 70
0
 10
316.3817799678
 20
142.6579815654
 10
316.6950585501
 20
146.5371248455
 10
316.8511341729
 20
148.4097287536
 10
317.0067739985
 20
150.2297003821
 10
317.1619016902
 20
151.9912744333
 10
317.3164639551
 20
153.6889312684
 10
317.4703405368
 20
155.3170935332
 10
317.6076242805
 20
156.7143950797
  0
LWPOLYLINE
  5
36C
100
AcDbEntity
  8
RUNDUNGEN
100
AcDbPolyline
 62
7
  6
CONTINUOUS
 90
11
 70
0
 10
313.2577583152
 20
97.0502372039
 10
313.4096281864
 20
98.8781372077
 10
313.5613315351
 20
100.7960202015
 10
313.7129111949
 20
102.7987013677
 10
313.8644062727
 20
104.8808636005
 10
314.0158312841
 20
107.03665475
 10
314.1672030595
 20
109.2601716846
 10
314.3185253361
 20
111.5450902627
 10
314.4698035121
 20
113.8850174993
 10
314.6210460326
 20
116.2734283955
 10
314.9234486935
 20
121.1690611092
  0
LINE
  5
36D
100
AcDbEntity
  8
RUNDUNGEN
100
AcDbLine
 62
7
  6
CONTINUOUS
 10
313.0610768062
 20
94.8280083123
 11
313.2577583152
 21
97.0502372039
  0
LINE
  5
36E
100
AcDbEntity
  8
RUNDUNGEN
100
AcDbLine
 62
7
  6
CONTINUOUS
 10
316.7583484769
 20
156.9494098041
 11
316.7614244921
 21
156.9834704829
  0
LINE
  5
36F
100
AcDbEntity
  8
RUNDUNGEN
100
AcDbLine
 62
7
  6
CONTINUOUS
 10
312.9245301489
 20
93.3844795906
 11
313.0610768062
 21
94.8280083123
  0
LINE
  5
370
100
AcDbEntity
  8
RUNDUNGEN
100
AcDbLine
 62
7
  6
CONTINUOUS
 10
316.7614244921
 20
156.9834704829
 11
316.7634299886
 21
157.0040878319
  0
LINE
  5
371
100
AcDbEntity
  8
RUNDUNGEN
100
AcDbLine
 62
7
  6
CONTINUOUS
 10
312.7906455846
 20
92.0507180164
 11
312.9245301489
 21
93.3844795906
  0
LWPOLYLINE
  5
372
100
AcDbEntity
  8
RUNDUNGEN
100
AcDbPolyline
 62
7
  6
CONTINUOUS
 90
3
 70
0
 10
316.251499088
 20
147.64495819
 10
316.2624522863
 20
147.7509413097
 10
316.2702228648
 20
147.8569232733
  0
LINE
  5
373
100
AcDbEntity
  8
RUNDUNGEN
100
AcDbLine
 62
7
  6
CONTINUOUS
 10
312.6593723468
 20
90.8240201804
 11
312.7906455846
 21
92.0507180164
  0
LINE
  5
374
100
AcDbEntity
  8
RUNDUNGEN
100
AcDbLine
 62
7
  6
CONTINUOUS
 10
309.6741526892
 20
76.6548156113
 11
309.7231322088
 21
77.0965993532
  0
LINE
  5
375
100
AcDbEntity
  8
RUNDUNGEN
100
AcDbLine
 62
7
  6
CONTINUOUS
 10
316.2399721536
 20
147.5569111154
 11
316.251499088
 21
147.64495819
  0
LWPOLYLINE
  5
376
100
AcDbEntity
  8
RUNDUNGEN
100
AcDbPolyline
 62
7
  6
CONTINUOUS
 90
3
 70
0
 10
312.8189772363
 20
124.6815028113
 10
313.0463943021
 20
126.4050903246
 10
313.2827111638
 20
128.1391684661
  0
LINE
  5
377
100
AcDbEntity
  8
RUNDUNGEN
100
AcDbLine
 62
7
  6
CONTINUOUS
 10
313.2827111638
 20
128.1391684661
 11
313.6680239324
 21
130.8720964423
  0
LINE
  5
378
100
AcDbEntity
  8
RUNDUNGEN
100
AcDbLine
 62
7
  6
CONTINUOUS
 10
313.5763498962
 20
130.2292801985
 11
313.86670446
 21
132.1625392773
  0
LWPOLYLINE
  5
379
100
AcDbEntity
  8
RUNDUNGEN
100
AcDbPolyline
 62
7
  6
CONTINUOUS
 90
4
 70
0
 10
315.2573538795
 20
141.0638168664
 10
315.6113761183
 20
143.3433239126
 10
315.9500883037
 20
145.5774623362
 10
316.2399750774
 20
147.5569320471
  0
LINE
  5
37A
100
AcDbEntity
  8
RUNDUNGEN
100
AcDbLine
 62
7
  6
CONTINUOUS
 10
313.86670446
 20
132.1625392773
 11
314.2219094313
 21
134.4721795993
  0
LINE
  5
37B
100
AcDbEntity
  8
RUNDUNGEN
100
AcDbLine
 62
7
  6
CONTINUOUS
 10
314.2219094313
 20
134.4721795993
 11
315.2573538795
 21
141.0638168664
  0
LWPOLYLINE
  5
37C
100
AcDbEntity
  8
RUNDUNGEN
100
AcDbPolyline
 62
7
  6
CONTINUOUS
 90
4
 70
0
 10
309.7231322088
 20
77.0965993532
 10
309.7915140233
 20
77.5283433542
 10
309.8792358918
 20
77.9494927409
 10
309.9855605089
 20
78.3583645368
  0
LWPOLYLINE
  5
37D
100
AcDbEntity
  8
RUNDUNGEN
100
AcDbPolyline
 62
7
  6
CONTINUOUS
 90
7
 70
0
 10
311.1582831749
 20
113.5264909337
 10
311.4155104028
 20
114.9878314979
 10
311.6940361199
 20
116.6592076499
 10
311.9567820861
 20
118.3341772452
 10
312.203831428
 20
120.0115197107
 10
312.4352619628
 20
121.6899680076
 10
312.8189772363
 20
124.6815028113
  0
LWPOLYLINE
  5
37E
100
AcDbEntity
  8
RUNDUNGEN
100
AcDbPolyline
 62
7
  6
CONTINUOUS
 90
8
 70
0
 10
310.1009844177
 20
78.7381998228
 10
310.2167754089
 20
79.1586851926
 10
310.3143438472
 20
79.5743376987
 10
310.3945211417
 20
79.9848588315
 10
310.4569591325
 20
80.3865767268
 10
310.5027590235
 20
80.7760267536
 10
310.5332202587
 20
81.1527520885
 10
310.5430109306
 20
81.3387968029
  0
LINE
  5
37F
100
AcDbEntity
  8
RUNDUNGEN
100
AcDbLine
 62
7
  6
CONTINUOUS
 10
309.9855605089
 20
78.3583645368
 11
310.1009844177
 21
78.7381998228
  0
LINE
  5
380
100
AcDbEntity
  8
KONSTRUKTIONSELEMENTE
100
AcDbLine
 62
7
  6
CONTINUOUS
 10
286.6272037348
 20
235.5874549112
 11
292.6272037348
 21
235.5874549112
  0
LINE
  5
381
100
AcDbEntity
  8
KONSTRUKTIONSELEMENTE
100
AcDbLine
 62
7
  6
CONTINUOUS
 10
306.6272037348
 20
235.5874549112
 11
312.6272037348
 21
235.5874549112
  0
LINE
  5
382
100
AcDbEntity
  8
RUNDUNGEN
100
AcDbLine
 62
7
  6
CONTINUOUS
 10
292.6272037348
 20
238.5754258435
 11
281.8772037348
 21
244.7819412221
  0
LINE
  5
383
100
AcDbEntity
  8
0
100
AcDbLine
 62
7
  6
CONTINUOUS
 10
315.6867412329
 20
285.0245452762
 11
313.6845780622
 21
287.5280864942
  0
LWPOLYLINE
  5
384
100
AcDbEntity
  8
RUNDUNGEN
100
AcDbPolyline
 62
7
  6
CONTINUOUS
 90
19
 70
0
 10
61.005297737
 20
17.388889798
 10
61.0165207817
 20
17.0181586862
 10
61.0957899587
 20
16.3392603824
 10
61.2475098087
 20
15.678292352
 10
61.4646915879
 20
15.0466356453
 10
61.7381673776
 20
14.4525721937
 10
62.0605942698
 20
13.8967399211
 10
62.4239154142
 20
13.3806623241
 10
62.8243965368
 20
12.8999753288
 10
63.2588408993
 20
12.4515445548
 10
63.7274409461
 20
12.0303315903
 10
64.2317229389
 20
11.632070982
 10
64.774085376
 20
11.2533953302
 10
65.3582525775
 20
10.8913679662
 10
65.9882375664
 20
10.5440900662
 10
66.6691006435
 20
10.2101386446
 10
67.4056958687
 20
9.8891538719
 10
68.2043036283
 20
9.5810041831
 10
68.9775299163
 20
9.3164843835
  0
LINE
  5
385
100
AcDbEntity
  8
RUNDUNGEN
100
AcDbLine
 62
7
  6
CONTINUOUS
 10
61.0052699927
 20
17.3858326001
 11
61.0052838941
 21
17.3793288523
  0
LINE
  5
386
100
AcDbEntity
  8
0
100
AcDbLine
 62
7
  6
CONTINUOUS
 10
61.0052693671
 20
34.1210032157
 11
61.0052693671
 21
17.3780202218
  0
LINE
  5
387
100
AcDbEntity
  8
0
100
AcDbLine
 62
7
  6
CONTINUOUS
 10
83.4002248966
 20
18.7495117187
 11
83.4002248966
 21
32.7495117187
  0
LINE
  5
388
100
AcDbEntity
  8
0
100
AcDbLine
 62
7
  6
CONTINUOUS
 10
85.9074408377
 20
30.2495117187
 11
85.9074408377
 21
21.2495117187
  0
LWPOLYLINE
  5
389
100
AcDbEntity
  8
RUNDUNGEN
100
AcDbPolyline
 62
7
  6
CONTINUOUS
 90
4
 70
0
 10
68.9772332234
 20
9.3165791386
 10
69.2782511661
 20
9.2300939031
 10
69.6182987037
 20
9.1570108498
 10
69.94893009
 20
9.109947062
  0
LINE
  5
38A
100
AcDbEntity
  8
RUNDUNGEN
100
AcDbLine
 62
7
  6
CONTINUOUS
 10
68.9772700488
 20
9.3165672598
 11
68.9775354306
 21
9.3164816649
  0
LINE
  5
38B
100
AcDbEntity
  8
RUNDUNGEN
100
AcDbLine
 62
7
  6
CONTINUOUS
 10
191.7675215382
 20
11.9083805276
 11
191.7675635679
 21
11.908391495
  0
LWPOLYLINE
  5
38C
100
AcDbEntity
  8
RUNDUNGEN
100
AcDbPolyline
 62
7
  6
CONTINUOUS
 90
7
 70
0
 10
69.9515297439
 20
9.1096544458
 10
71.2743019179
 20
8.9763745597
 10
72.8216455016
 20
8.8364494061
 10
74.5014701718
 20
8.6983797017
 10
76.307658438
 20
8.5616233156
 10
78.2336302214
 20
8.4258046331
 10
83.9374344881
 20
8.0501456923
  0
LINE
  5
38D
100
AcDbEntity
  8
RUNDUNGEN
100
AcDbLine
 62
7
  6
CONTINUOUS
 10
69.9515331038
 20
9.1096682827
 11
69.9493883255
 21
9.1098979151
  0
LINE
  5
38E
100
AcDbEntity
  8
0
100
AcDbLine
 62
7
  6
CONTINUOUS
 10
109.7231881938
 20
29.262762992
 11
109.7237531895
 21
9.4995117187
  0
LINE
  5
38F
100
AcDbEntity
  8
RUNDUNGEN
100
AcDbLine
 62
7
  6
CONTINUOUS
 10
109.7231881899
 20
29.262811318
 11
109.7237531895
 21
41.9995117187
  0
LINE
  5
390
100
AcDbEntity
  8
0
100
AcDbLine
 62
7
  6
CONTINUOUS
 10
111.7237531646
 20
7.4995117187
 11
168.4739226152
 21
7.4995117187
  0
LINE
  5
391
100
AcDbEntity
  8
RUNDUNGEN
100
AcDbLine
 62
7
  6
CONTINUOUS
 10
88.5914658074
 20
7.7495117187
 11
110.7601505489
 21
7.7495117187
  0
LINE
  5
392
100
AcDbEntity
  8
0
100
AcDbLine
 62
7
  6
CONTINUOUS
 10
170.4739226108
 20
9.4995117187
 11
170.4746478249
 21
9.4995117187
  0
LINE
  5
393
100
AcDbEntity
  8
RUNDUNGEN
100
AcDbLine
 62
7
  6
CONTINUOUS
 10
83.9374344881
 20
8.0501456923
 11
88.3400038696
 21
7.7560755948
  0
LWPOLYLINE
  5
394
100
AcDbEntity
  8
0
100
AcDbPolyline
 62
7
  6
CONTINUOUS
 90
19
 70
0
 10
68.9775284453
 20
42.1825385796
 10
68.2057536824
 20
41.9185449223
 10
67.4084863524
 20
41.6110146416
 10
66.6731364795
 20
41.2907510913
 10
65.993385925
 20
40.9576099547
 10
65.364365812
 20
40.6112263423
 10
64.7810026491
 20
40.2501733197
 10
64.2392758321
 20
39.8725519365
 10
63.7354457735
 20
39.4754215038
 10
63.2670843468
 20
39.0553959992
 10
62.8326901921
 20
38.6082436178
 10
62.4320613965
 20
38.1289441958
 10
62.0683724721
 20
37.6143714963
 10
61.7453196064
 20
37.0601617811
 10
61.4709185007
 20
36.4678111655
 10
61.252463533
 20
35.837912477
 10
61.0991019631
 20
35.1787085913
 10
61.0178109868
 20
34.5015371161
 10
61.0052976891
 20
34.1101805641
  0
LINE
  5
395
100
AcDbEntity
  8
0
100
AcDbLine
 62
7
  6
CONTINUOUS
 10
68.9774384412
 20
42.1825104924
 11
68.9775339596
 21
42.1825412982
  0
LWPOLYLINE
  5
396
100
AcDbEntity
  8
RUNDUNGEN
100
AcDbPolyline
 62
7
  6
CONTINUOUS
 90
7
 70
0
 10
190.5502392148
 20
11.7495084366
 10
190.7360281769
 20
11.7532681709
 10
190.9771155373
 20
11.7691925022
 10
191.2095406966
 20
11.7962891072
 10
191.4328359304
 20
11.8331608055
 10
191.6470676567
 20
11.8785409253
 10
191.7675215382
 20
11.9083805276
  0
LWPOLYLINE
  5
397
100
AcDbEntity
  8
0
100
AcDbPolyline
 62
7
  6
CONTINUOUS
 90
24
 70
0
 10
197.5337796761
 20
15.2495669277
 10
197.5793620668
 20
15.2501459098
 10
197.6266583485
 20
15.2514609822
 10
197.6770290708
 20
15.2537259533
 10
197.7311084034
 20
15.2572215919
 10
197.7906435766
 20
15.2624258853
 10
197.8566310708
 20
15.2699505756
 10
197.9316903605
 20
15.2808735358
 10
198.0176195997
 20
15.2966227392
 10
198.1171235969
 20
15.3194090003
 10
198.2330421555
 20
15.3524599757
 10
198.3646165288
 20
15.399039198
 10
198.512860131
 20
15.4640932034
 10
198.6710360391
 20
15.5499542831
 10
198.8339407734
 20
15.6590261001
 10
198.9949044478
 20
15.791910997
 10
199.1472719953
 20
15.9475177177
 10
199.2862935996
 20
16.1248848503
 10
199.4069521999
 20
16.3210395351
 10
199.5061095697
 20
16.5340549404
 10
199.5806806128
 20
16.7608113646
 10
199.6282476511
 20
16.997828826
 10
199.647029759
 20
17.2407412682
 10
199.6473029126
 20
17.2738876402
  0
LINE
  5
398
100
AcDbEntity
  8
0
100
AcDbLine
 62
7
  6
CONTINUOUS
 10
179.2140417376
 20
15.2729265972
 11
181.9559901418
 21
15.2972330916
  0
LINE
  5
399
100
AcDbEntity
  8
0
100
AcDbLine
 62
7
  6
CONTINUOUS
 10
177.9883059781
 20
15.2663333779
 11
179.2140417376
 21
15.2729265972
  0
LINE
  5
39A
100
AcDbEntity
  8
0
100
AcDbLine
 62
7
  6
CONTINUOUS
 10
181.9559901418
 20
15.2972330916
 11
182.8887831071
 21
15.3017506458
  0
LINE
  5
39B
100
AcDbEntity
  8
0
100
AcDbLine
 62
7
  6
CONTINUOUS
 10
182.9332796899
 20
17.9995061589
 11
182.9525666694
 21
17.9995117187
  0
LINE
  5
39C
100
AcDbEntity
  8
RUNDUNGEN
100
AcDbLine
 62
7
  6
CONTINUOUS
 10
184.7186046391
 20
11.7495117187
 11
190.5502392144
 21
11.7495118188
  0
LINE
  5
39D
100
AcDbEntity
  8
0
100
AcDbLine
 62
7
  6
CONTINUOUS
 10
132.1776961791
 20
13.0024319382
 11
132.1776472422
 21
13.0024319382
  0
LINE
  5
39E
100
AcDbEntity
  8
0
100
AcDbLine
 62
7
  6
CONTINUOUS
 10
189.9427045763
 20
14.0297561671
 11
193.3392932962
 21
14.0297561671
  0
LINE
  5
39F
100
AcDbEntity
  8
0
100
AcDbLine
 62
7
  6
CONTINUOUS
 10
133.3736961764
 20
14.471303614
 11
133.3736472396
 21
14.471303614
  0
LINE
  5
3A0
100
AcDbEntity
  8
0
100
AcDbLine
 62
7
  6
CONTINUOUS
 10
197.5337796761
 20
15.2495669277
 11
189.3559942838
 21
15.2495117187
  0
LINE
  5
3A1
100
AcDbEntity
  8
0
100
AcDbLine
 62
7
  6
CONTINUOUS
 10
182.8887831071
 20
15.3017506458
 11
183.9839723099
 21
15.3008047196
  0
LINE
  5
3A2
100
AcDbEntity
  8
0
100
AcDbLine
 62
7
  6
CONTINUOUS
 10
189.0084398566
 20
15.2505992909
 11
189.1564496366
 21
15.2499341121
  0
LINE
  5
3A3
100
AcDbEntity
  8
0
100
AcDbLine
 62
7
  6
CONTINUOUS
 10
183.9839723099
 20
15.3008047196
 11
185.5306616256
 21
15.2914640942
  0
LINE
  5
3A4
100
AcDbEntity
  8
0
100
AcDbLine
 62
7
  6
CONTINUOUS
 10
188.6814746858
 20
15.2532008754
 11
189.0084398566
 21
15.2505992909
  0
LINE
  5
3A5
100
AcDbEntity
  8
0
100
AcDbLine
 62
7
  6
CONTINUOUS
 10
177.6836462011
 20
15.2693209646
 11
177.9882944533
 21
15.26633568
  0
LINE
  5
3A6
100
AcDbEntity
  8
RUNDUNGEN
100
AcDbLine
 62
7
  6
CONTINUOUS
 10
184.6128248727
 20
11.7507671368
 11
184.7190417317
 21
11.7495122397
  0
LINE
  5
3A7
100
AcDbEntity
  8
0
100
AcDbLine
 62
7
  6
CONTINUOUS
 10
185.5306616256
 20
15.2914640942
 11
187.2640245721
 21
15.2727559927
  0
LINE
  5
3A8
100
AcDbEntity
  8
0
100
AcDbLine
 62
7
  6
CONTINUOUS
 10
187.2640245721
 20
15.2727559927
 11
188.6814746858
 21
15.2532008754
  0
LINE
  5
3A9
100
AcDbEntity
  8
0
100
AcDbLine
 62
7
  6
CONTINUOUS
 10
188.2750378003
 20
15.2584857888
 11
188.2751499705
 21
15.258484022
  0
LINE
  5
3AA
100
AcDbEntity
  8
0
100
AcDbLine
 62
7
  6
CONTINUOUS
 10
177.6836675325
 20
15.2693203895
 11
177.6915355861
 21
15.2691338333
  0
LINE
  5
3AB
100
AcDbEntity
  8
RUNDUNGEN
100
AcDbLine
 62
7
  6
CONTINUOUS
 10
184.4217115116
 20
11.7593245029
 11
184.6128248727
 21
11.7507671368
  0
LWPOLYLINE
  5
3AC
100
AcDbEntity
  8
0
100
AcDbPolyline
 62
7
  6
CONTINUOUS
 90
5
 70
0
 10
173.4216347223
 20
15.4445874724
 10
174.2414738352
 20
15.4025099992
 10
175.4057991536
 20
15.3486221125
 10
176.5262217862
 20
15.3042708067
 10
177.6915245838
 20
15.2691340955
  0
LWPOLYLINE
  5
3AD
100
AcDbEntity
  8
RUNDUNGEN
100
AcDbPolyline
 62
7
  6
CONTINUOUS
 90
3
 70
0
 10
184.2173023401
 20
11.7772699408
 10
184.2397408763
 20
11.7748634889
 10
184.4217115116
 20
11.7593245029
  0
LINE
  5
3AE
100
AcDbEntity
  8
0
100
AcDbLine
 62
7
  6
CONTINUOUS
 10
109.7232724392
 20
18.7495117187
 11
83.4002248966
 21
18.7495117187
  0
LINE
  5
3AF
100
AcDbEntity
  8
BEZUGSACHSEN
100
AcDbLine
 62
7
  6
CONTINUOUS
 10
133.3737492864
 20
18.7495117187
 11
145.5737492595
 21
18.7495117187
  0
LINE
  5
3B0
100
AcDbEntity
  8
0
100
AcDbLine
 62
7
  6
CONTINUOUS
 10
109.7232603577
 20
19.2495117187
 11
87.9074408377
 21
19.2495117187
  0
LINE
  5
3B1
100
AcDbEntity
  8
0
100
AcDbLine
 62
7
  6
CONTINUOUS
 10
159.3692510904
 20
7.7522612151
 11
159.3716319458
 21
7.750685193
  0
LINE
  5
3B2
100
AcDbEntity
  8
0
100
AcDbLine
 62
7
  6
CONTINUOUS
 10
186.3157517976
 20
34.853023045
 11
186.7895282356
 21
34.8701597149
  0
LINE
  5
3B3
100
AcDbEntity
  8
RUNDUNGEN
100
AcDbLine
 62
7
  6
CONTINUOUS
 10
109.7232603577
 20
32.2495117187
 11
87.9074408377
 21
32.2495117187
  0
LINE
  5
3B4
100
AcDbEntity
  8
0
100
AcDbLine
 62
7
  6
CONTINUOUS
 10
109.7232724392
 20
32.7495117187
 11
83.4002248966
 21
32.7495117187
  0
LINE
  5
3B5
100
AcDbEntity
  8
BEZUGSACHSEN
100
AcDbLine
 62
7
  6
CONTINUOUS
 10
133.3737492864
 20
32.7495117187
 11
145.5737492595
 21
32.7495117187
  0
LINE
  5
3B6
100
AcDbEntity
  8
RUNDUNGEN
100
AcDbLine
 62
7
  6
CONTINUOUS
 10
182.9342633569
 20
33.4995167249
 11
182.9525666694
 21
33.4995117188
  0
LINE
  5
3B7
100
AcDbEntity
  8
0
100
AcDbLine
 62
7
  6
CONTINUOUS
 10
133.374553213
 20
41.6489004408
 11
133.3742601515
 21
8.9995124004
  0
LINE
  5
3B8
100
AcDbEntity
  8
RUNDUNGEN
100
AcDbLine
 62
7
  6
CONTINUOUS
 10
133.3742601515
 20
42.4995110371
 11
133.3732580359
 21
34.062523929
  0
LWPOLYLINE
  5
3B9
100
AcDbEntity
  8
0
100
AcDbPolyline
 62
7
  6
CONTINUOUS
 90
7
 70
0
 10
184.2167967913
 20
39.7216776737
 10
184.0658217192
 20
39.7025892168
 10
183.6854414372
 20
39.6319335462
 10
183.3121394857
 20
39.529862405
 10
182.9482187782
 20
39.3968593087
 10
182.5959872989
 20
39.2336893061
 10
182.2949041495
 20
39.0642478334
  0
LINE
  5
3BA
100
AcDbEntity
  8
0
100
AcDbLine
 62
7
  6
CONTINUOUS
 10
184.2173107001
 20
39.7217544133
 11
184.2167945893
 21
39.7216977299
  0
LINE
  5
3BB
100
AcDbEntity
  8
0
100
AcDbLine
 62
7
  6
CONTINUOUS
 10
184.4105913605
 20
39.7389547383
 11
184.2173107001
 21
39.7217544133
  0
LINE
  5
3BC
100
AcDbEntity
  8
0
100
AcDbLine
 62
7
  6
CONTINUOUS
 10
183.2208719005
 20
36.1939512058
 11
183.2011653839
 21
36.1929980211
  0
LINE
  5
3BD
100
AcDbEntity
  8
0
100
AcDbLine
 62
7
  6
CONTINUOUS
 10
184.2963826234
 20
35.8460996865
 11
184.0007435863
 21
35.8336713447
  0
LINE
  5
3BE
100
AcDbEntity
  8
0
100
AcDbLine
 62
7
  6
CONTINUOUS
 10
183.9186417395
 20
35.7985427248
 11
184.2947619564
 21
35.8114736508
  0
LINE
  5
3BF
100
AcDbEntity
  8
0
100
AcDbLine
 62
7
  6
CONTINUOUS
 10
185.4287484273
 20
35.1957209703
 11
184.9549719227
 21
35.1801459048
  0
LWPOLYLINE
  5
3C0
100
AcDbEntity
  8
RUNDUNGEN
100
AcDbPolyline
 62
7
  6
CONTINUOUS
 90
5
 70
0
 10
177.6915245838
 20
36.229889342
 10
176.5262217862
 20
36.1947526308
 10
175.4057991536
 20
36.150401325
 10
174.2414738352
 20
36.0965134383
 10
173.4216347223
 20
36.0544359651
  0
LINE
  5
3C1
100
AcDbEntity
  8
0
100
AcDbLine
 62
7
  6
CONTINUOUS
 10
192.0400673008
 20
36.0895955821
 11
191.7057322265
 21
36.0805863096
  0
LINE
  5
3C2
100
AcDbEntity
  8
0
100
AcDbLine
 62
7
  6
CONTINUOUS
 10
183.905715205
 20
36.2733816894
 11
183.9385469961
 21
36.2742437089
  0
LINE
  5
3C3
100
AcDbEntity
  8
0
100
AcDbLine
 62
7
  6
CONTINUOUS
 10
190.7010652051
 20
36.3267684187
 11
190.7236042021
 21
36.3273442419
  0
LINE
  5
3C4
100
AcDbEntity
  8
0
100
AcDbLine
 62
7
  6
CONTINUOUS
 10
183.9619663152
 20
36.3001742036
 11
183.9379576437
 21
36.2995713663
  0
LINE
  5
3C5
100
AcDbEntity
  8
RUNDUNGEN
100
AcDbLine
 62
7
  6
CONTINUOUS
 10
177.6836399246
 20
36.2297023829
 11
177.6915355861
 21
36.2298896042
  0
LINE
  5
3C6
100
AcDbEntity
  8
0
100
AcDbLine
 62
7
  6
CONTINUOUS
 10
186.2342152175
 20
36.2859049431
 11
186.5010820073
 21
36.2921638732
  0
LINE
  5
3C7
100
AcDbEntity
  8
0
100
AcDbLine
 62
7
  6
CONTINUOUS
 10
185.9837248811
 20
34.8453835186
 11
186.3157517976
 21
34.853023045
  0
LINE
  5
3C8
100
AcDbEntity
  8
0
100
AcDbLine
 62
7
  6
CONTINUOUS
 10
186.6017184379
 20
36.3162460791
 11
186.3348516481
 21
36.3101538929
  0
LINE
  5
3C9
100
AcDbEntity
  8
0
100
AcDbLine
 62
7
  6
CONTINUOUS
 10
185.7607750773
 20
35.2026163997
 11
185.4287484273
 21
35.1957209703
  0
LINE
  5
3CA
100
AcDbEntity
  8
0
100
AcDbLine
 62
7
  6
CONTINUOUS
 10
191.5664879974
 20
36.0430245792
 11
192.1082414056
 21
36.0542338586
  0
LINE
  5
3CB
100
AcDbEntity
  8
0
100
AcDbLine
 62
7
  6
CONTINUOUS
 10
189.9238127243
 20
36.2119639035
 11
190.3618569406
 21
36.220884098
  0
LINE
  5
3CC
100
AcDbEntity
  8
0
100
AcDbLine
 62
7
  6
CONTINUOUS
 10
184.0007435863
 20
35.8336713447
 11
183.6517208224
 21
35.8267689142
  0
LINE
  5
3CD
100
AcDbEntity
  8
0
100
AcDbLine
 62
7
  6
CONTINUOUS
 10
183.8904943388
 20
36.1951398334
 11
184.2408512292
 21
36.2016573644
  0
LINE
  5
3CE
100
AcDbEntity
  8
0
100
AcDbLine
 62
7
  6
CONTINUOUS
 10
183.4891373449
 20
35.7912413194
 11
183.9186417395
 21
35.7985427248
  0
LINE
  5
3CF
100
AcDbEntity
  8
0
100
AcDbLine
 62
7
  6
CONTINUOUS
 10
184.372392858
 20
36.2282859459
 11
183.9399274972
 21
36.2214367042
  0
LWPOLYLINE
  5
3D0
100
AcDbEntity
  8
0
100
AcDbPolyline
 62
7
  6
CONTINUOUS
 90
3
 70
0
 10
184.7190594778
 20
39.7495111942
 10
184.5976229614
 20
39.7478703025
 10
184.4105913605
 20
39.7389547383
  0
LINE
  5
3D1
100
AcDbEntity
  8
RUNDUNGEN
100
AcDbLine
 62
7
  6
CONTINUOUS
 10
188.6814746858
 20
36.2458225621
 11
187.7718181038
 21
36.233109011
  0
LINE
  5
3D2
100
AcDbEntity
  8
0
100
AcDbLine
 62
7
  6
CONTINUOUS
 10
190.3646160477
 20
36.5226984119
 11
190.3331864491
 21
36.5223467884
  0
LINE
  5
3D3
100
AcDbEntity
  8
0
100
AcDbLine
 62
7
  6
CONTINUOUS
 10
185.4614181685
 20
34.8396473315
 11
185.9837248811
 21
34.8453835186
  0
LINE
  5
3D4
100
AcDbEntity
  8
0
100
AcDbLine
 62
7
  6
CONTINUOUS
 10
193.816054609
 20
36.5406191412
 11
193.8403945816
 21
36.5408802769
  0
LINE
  5
3D5
100
AcDbEntity
  8
0
100
AcDbLine
 62
7
  6
CONTINUOUS
 10
186.2830819232
 20
35.2077745992
 11
185.7607750773
 21
35.2026163997
  0
LINE
  5
3D6
100
AcDbEntity
  8
RUNDUNGEN
100
AcDbLine
 62
7
  6
CONTINUOUS
 10
177.9882951209
 20
36.2326877545
 11
177.6836185931
 21
36.2297018078
  0
LINE
  5
3D7
100
AcDbEntity
  8
0
100
AcDbLine
 62
7
  6
CONTINUOUS
 10
190.1500947226
 20
36.0661825942
 11
189.3204212418
 21
36.0584377032
  0
LINE
  5
3D8
100
AcDbEntity
  8
0
100
AcDbLine
 62
7
  6
CONTINUOUS
 10
190.9812160678
 20
36.1267344346
 11
190.3589610662
 21
36.1211931371
  0
LINE
  5
3D9
100
AcDbEntity
  8
0
100
AcDbLine
 62
7
  6
CONTINUOUS
 10
185.9007562275
 20
36.2829878602
 11
186.2342152175
 21
36.2859049431
  0
LINE
  5
3DA
100
AcDbEntity
  8
0
100
AcDbLine
 62
7
  6
CONTINUOUS
 10
186.3348516481
 20
36.3101538929
 11
186.0847573472
 21
36.3080249378
  0
LINE
  5
3DB
100
AcDbEntity
  8
0
100
AcDbLine
 62
7
  6
CONTINUOUS
 10
189.8712715693
 20
36.6568246855
 11
189.9235835913
 21
36.6572651305
  0
LINE
  5
3DC
100
AcDbEntity
  8
0
100
AcDbLine
 62
7
  6
CONTINUOUS
 10
189.8927698293
 20
36.6695041303
 11
189.8632790205
 21
36.6692730024
  0
LINE
  5
3DD
100
AcDbEntity
  8
0
100
AcDbLine
 62
7
  6
CONTINUOUS
 10
186.2167688637
 20
34.8976220054
 11
185.5993226533
 21
34.8929114226
  0
LINE
  5
3DE
100
AcDbEntity
  8
0
100
AcDbLine
 62
7
  6
CONTINUOUS
 10
186.0038876572
 20
36.3984921018
 11
186.084066106
 21
36.3991010564
  0
LINE
  5
3DF
100
AcDbEntity
  8
0
100
AcDbLine
 62
7
  6
CONTINUOUS
 10
185.2179560718
 20
36.4129818988
 11
185.1596738658
 21
36.4125481629
  0
LINE
  5
3E0
100
AcDbEntity
  8
0
100
AcDbLine
 62
7
  6
CONTINUOUS
 10
185.8506423083
 20
36.4176723483
 11
185.6845460631
 21
36.4164441766
  0
LINE
  5
3E1
100
AcDbEntity
  8
0
100
AcDbLine
 62
7
  6
CONTINUOUS
 10
186.0839372589
 20
36.4193935738
 11
186.0037380987
 21
36.4188023784
  0
LINE
  5
3E2
100
AcDbEntity
  8
0
100
AcDbLine
 62
7
  6
CONTINUOUS
 10
185.5277310947
 20
35.1548715955
 11
186.1451774384
 21
35.159234697
  0
LINE
  5
3E3
100
AcDbEntity
  8
0
100
AcDbLine
 62
7
  6
CONTINUOUS
 10
183.5831433986
 20
36.0585385753
 11
183.7148829107
 21
36.0594416166
  0
LINE
  5
3E4
100
AcDbEntity
  8
RUNDUNGEN
100
AcDbLine
 62
7
  6
CONTINUOUS
 10
188.9901303638
 20
36.2482996036
 11
188.6814746858
 21
36.2458225621
  0
LINE
  5
3E5
100
AcDbEntity
  8
0
100
AcDbLine
 62
7
  6
CONTINUOUS
 10
186.2600440026
 20
36.1054524553
 11
186.1283112232
 21
36.1045801542
  0
LINE
  5
3E6
100
AcDbEntity
  8
0
100
AcDbLine
 62
7
  6
CONTINUOUS
 10
184.2408512292
 20
36.2016573644
 11
184.3725493745
 21
36.2024609473
  0
LINE
  5
3E7
100
AcDbEntity
  8
0
100
AcDbLine
 62
7
  6
CONTINUOUS
 10
186.6431125395
 20
35.715505895
 11
186.786210267
 21
35.7163684517
  0
LINE
  5
3E8
100
AcDbEntity
  8
0
100
AcDbLine
 62
7
  6
CONTINUOUS
 10
186.9177518958
 20
36.2433292161
 11
186.7860597243
 21
36.2425563197
  0
LINE
  5
3E9
100
AcDbEntity
  8
0
100
AcDbLine
 62
7
  6
CONTINUOUS
 10
186.4533713173
 20
35.6598607667
 11
186.6434085803
 21
35.66087491
  0
LINE
  5
3EA
100
AcDbEntity
  8
0
100
AcDbLine
 62
7
  6
CONTINUOUS
 10
191.407054139
 20
35.7318133448
 11
191.2170258875
 21
35.7308329792
  0
LINE
  5
3EB
100
AcDbEntity
  8
0
100
AcDbLine
 62
7
  6
CONTINUOUS
 10
187.5288595702
 20
35.9136237791
 11
187.7188397403
 21
35.9145112678
  0
LINE
  5
3EC
100
AcDbEntity
  8
0
100
AcDbLine
 62
7
  6
CONTINUOUS
 10
190.3669221318
 20
35.9268324924
 11
192.2927503899
 21
35.9357354405
  0
LINE
  5
3ED
100
AcDbEntity
  8
0
100
AcDbLine
 62
7
  6
CONTINUOUS
 10
191.7062191323
 20
35.9729679965
 11
191.566807805
 21
35.9723400634
  0
LINE
  5
3EE
100
AcDbEntity
  8
0
100
AcDbLine
 62
7
  6
CONTINUOUS
 10
192.4825423919
 20
35.9764600371
 11
192.1086008877
 21
35.9747789669
  0
LINE
  5
3EF
100
AcDbEntity
  8
0
100
AcDbLine
 62
7
  6
CONTINUOUS
 10
183.4891373449
 20
35.2899525138
 11
182.2819161534
 21
35.2859287604
  0
LINE
  5
3F0
100
AcDbEntity
  8
0
100
AcDbLine
 62
7
  6
CONTINUOUS
 10
182.2819161534
 20
35.7872229843
 11
182.4446163342
 21
35.7877650374
  0
LINE
  5
3F1
100
AcDbEntity
  8
0
100
AcDbLine
 62
7
  6
CONTINUOUS
 10
183.6517208224
 20
35.8267689142
 11
183.4890230414
 21
35.8262380145
  0
LINE
  5
3F2
100
AcDbEntity
  8
0
100
AcDbLine
 62
7
  6
CONTINUOUS
 10
184.5382798824
 20
35.984041534
 11
184.727217177
 21
35.9846027011
  0
LINE
  5
3F3
100
AcDbEntity
  8
0
100
AcDbLine
 62
7
  6
CONTINUOUS
 10
182.3983169668
 20
36.0090350555
 11
182.0781033032
 21
36.0080992158
  0
LINE
  5
3F4
100
AcDbEntity
  8
0
100
AcDbLine
 62
7
  6
CONTINUOUS
 10
183.7149052035
 20
36.0128766185
 11
183.5832775112
 21
36.0124930038
  0
LINE
  5
3F5
100
AcDbEntity
  8
0
100
AcDbLine
 62
7
  6
CONTINUOUS
 10
187.2927342364
 20
35.4776359182
 11
187.7883561836
 21
35.4777880983
  0
LINE
  5
3F6
100
AcDbEntity
  8
0
100
AcDbLine
 62
7
  6
CONTINUOUS
 10
188.3178058639
 20
35.5956062484
 11
187.8221839168
 21
35.5954613232
  0
LINE
  5
3F7
100
AcDbEntity
  8
RUNDUNGEN
100
AcDbLine
 62
7
  6
CONTINUOUS
 10
133.3736961764
 20
37.0277198235
 11
133.3736472396
 21
37.0277198235
  0
LINE
  5
3F8
100
AcDbEntity
  8
0
100
AcDbLine
 62
7
  6
CONTINUOUS
 10
189.9427045763
 20
37.4692672704
 11
193.3392932962
 21
37.4692672704
  0
LINE
  5
3F9
100
AcDbEntity
  8
RUNDUNGEN
100
AcDbLine
 62
7
  6
CONTINUOUS
 10
132.1776961791
 20
38.4965914993
 11
132.1776472422
 21
38.4965914993
  0
LINE
  5
3FA
100
AcDbEntity
  8
0
100
AcDbLine
 62
7
  6
CONTINUOUS
 10
184.7186046391
 20
39.7495117187
 11
190.5495568755
 21
39.7495117187
  0
LINE
  5
3FB
100
AcDbEntity
  8
0
100
AcDbLine
 62
7
  6
CONTINUOUS
 10
194.7187261303
 20
36.5777262014
 11
193.6408724658
 21
36.5780937758
  0
LINE
  5
3FC
100
AcDbEntity
  8
0
100
AcDbLine
 62
7
  6
CONTINUOUS
 10
189.7808582302
 20
36.561715596
 11
190.3325272338
 21
36.5611665141
  0
LINE
  5
3FD
100
AcDbEntity
  8
0
100
AcDbLine
 62
7
  6
CONTINUOUS
 10
192.5520773955
 20
36.2643630905
 11
192.0567388189
 21
36.2655533445
  0
LINE
  5
3FE
100
AcDbEntity
  8
0
100
AcDbLine
 62
7
  6
CONTINUOUS
 10
188.2925422205
 20
34.7859263035
 11
188.415890696
 21
34.7855393231
  0
LINE
  5
3FF
100
AcDbEntity
  8
0
100
AcDbLine
 62
7
  6
CONTINUOUS
 10
184.7953289687
 20
35.2988303301
 11
185.7610666722
 21
35.2958146508
  0
LINE
  5
400
100
AcDbEntity
  8
0
100
AcDbLine
 62
7
  6
CONTINUOUS
 10
187.1396236553
 20
35.2915044166
 11
187.8075972823
 21
35.2894136035
  0
LINE
  5
401
100
AcDbEntity
  8
0
100
AcDbLine
 62
7
  6
CONTINUOUS
 10
188.4158922697
 20
35.2875082786
 11
189.3860810209
 21
35.28446683
  0
LINE
  5
402
100
AcDbEntity
  8
0
100
AcDbLine
 62
7
  6
CONTINUOUS
 10
188.8523215299
 20
35.3418532691
 11
188.4160698352
 21
35.3431940478
  0
LINE
  5
403
100
AcDbEntity
  8
0
100
AcDbLine
 62
7
  6
CONTINUOUS
 10
189.1976421144
 20
35.395437941
 11
188.4162373293
 21
35.3977926416
  0
LINE
  5
404
100
AcDbEntity
  8
0
100
AcDbLine
 62
7
  6
CONTINUOUS
 10
189.4928032562
 20
36.4386900284
 11
189.5804295838
 21
36.4383662057
  0
LINE
  5
405
100
AcDbEntity
  8
0
100
AcDbLine
 62
7
  6
CONTINUOUS
 10
191.1049854236
 20
36.4341142759
 11
193.8173194395
 21
36.4239389784
  0
LINE
  5
406
100
AcDbEntity
  8
0
100
AcDbLine
 62
7
  6
CONTINUOUS
 10
190.8422351314
 20
36.4581659539
 11
190.6983803575
 21
36.4587214831
  0
LINE
  5
407
100
AcDbEntity
  8
RUNDUNGEN
100
AcDbLine
 62
7
  6
CONTINUOUS
 10
183.2162609193
 20
36.1969783849
 11
182.2435500269
 21
36.1997301574
  0
LINE
  5
408
100
AcDbEntity
  8
0
100
AcDbLine
 62
7
  6
CONTINUOUS
 10
191.9174945898
 20
36.2335397338
 11
192.3091237089
 21
36.231470756
  0
LINE
  5
409
100
AcDbEntity
  8
0
100
AcDbLine
 62
7
  6
CONTINUOUS
 10
183.1945253102
 20
36.060769556
 11
183.5831433986
 21
36.0585385753
  0
LINE
  5
40A
100
AcDbEntity
  8
0
100
AcDbLine
 62
7
  6
CONTINUOUS
 10
188.6858383884
 20
36.0217259553
 11
189.0774678458
 21
36.0192681455
  0
LINE
  5
40B
100
AcDbEntity
  8
0
100
AcDbLine
 62
7
  6
CONTINUOUS
 10
186.0847573472
 20
36.3080249378
 11
185.8514360023
 21
36.3098882136
  0
LINE
  5
40C
100
AcDbEntity
  8
RUNDUNGEN
100
AcDbLine
 62
7
  6
CONTINUOUS
 10
180.5215556723
 20
36.2163369121
 11
177.9883059781
 21
36.2326900596
  0
LINE
  5
40D
100
AcDbEntity
  8
0
100
AcDbLine
 62
7
  6
CONTINUOUS
 10
185.6674348826
 20
36.2849033928
 11
185.9007562275
 21
36.2829878602
  0
LINE
  5
40E
100
AcDbEntity
  8
0
100
AcDbLine
 62
7
  6
CONTINUOUS
 10
183.7146849647
 20
36.0884929641
 11
183.4081752212
 21
36.091224498
  0
LINE
  5
40F
100
AcDbEntity
  8
0
100
AcDbLine
 62
7
  6
CONTINUOUS
 10
186.1451774384
 20
35.159234697
 11
186.2826235407
 21
35.1579706557
  0
LINE
  5
410
100
AcDbEntity
  8
0
100
AcDbLine
 62
7
  6
CONTINUOUS
 10
185.5993226533
 20
34.8929114226
 11
185.4619607088
 21
34.8942765855
  0
LINE
  5
411
100
AcDbEntity
  8
RUNDUNGEN
100
AcDbLine
 62
7
  6
CONTINUOUS
 10
182.2435500269
 20
36.1997301574
 11
180.5215556723
 21
36.2163369121
  0
LINE
  5
412
100
AcDbEntity
  8
0
100
AcDbLine
 62
7
  6
CONTINUOUS
 10
189.3204212418
 20
36.0584377032
 11
189.032501024
 21
36.0617972624
  0
LINE
  5
413
100
AcDbEntity
  8
0
100
AcDbLine
 62
7
  6
CONTINUOUS
 10
181.90660627
 20
35.7918664453
 11
182.2819161534
 21
35.7872229843
  0
LINE
  5
414
100
AcDbEntity
  8
0
100
AcDbLine
 62
7
  6
CONTINUOUS
 10
182.4444996309
 20
35.8228259762
 11
182.1496711527
 21
35.8276447715
  0
LWPOLYLINE
  5
415
100
AcDbEntity
  8
RUNDUNGEN
100
AcDbPolyline
 62
7
  6
CONTINUOUS
 90
8
 70
0
 10
182.9342541513
 20
33.4995169245
 10
181.796180345
 20
33.5216705359
 10
180.254880938
 20
33.6286164948
 10
178.8168350185
 20
33.8254173342
 10
177.490772925
 20
34.1120228059
 10
176.2826248096
 20
34.4871700781
 10
175.1976711539
 20
34.9478676328
 10
174.281364012
 20
35.4621792843
  0
LINE
  5
416
100
AcDbEntity
  8
0
100
AcDbLine
 62
7
  6
CONTINUOUS
 10
182.9099390198
 20
36.0685781767
 11
183.1945253102
 21
36.060769556
  0
LINE
  5
417
100
AcDbEntity
  8
0
100
AcDbLine
 62
7
  6
CONTINUOUS
 10
192.3091237089
 20
36.231470756
 11
192.320948336
 21
36.2310979959
  0
LINE
  5
418
100
AcDbEntity
  8
0
100
AcDbLine
 62
7
  6
CONTINUOUS
 10
185.3842943414
 20
36.2942411569
 11
185.6674348826
 21
36.2849033928
  0
LINE
  5
419
100
AcDbEntity
  8
0
100
AcDbLine
 62
7
  6
CONTINUOUS
 10
181.6388751885
 20
35.8027162559
 11
181.90660627
 21
35.7918664453
  0
LINE
  5
41A
100
AcDbEntity
  8
0
100
AcDbLine
 62
7
  6
CONTINUOUS
 10
183.4081752212
 20
36.091224498
 11
183.2056973333
 21
36.0994037466
  0
LINE
  5
41B
100
AcDbEntity
  8
0
100
AcDbLine
 62
7
  6
CONTINUOUS
 10
185.8514360023
 20
36.3098882136
 11
185.7182521169
 21
36.3164223511
  0
LINE
  5
41C
100
AcDbEntity
  8
0
100
AcDbLine
 62
7
  6
CONTINUOUS
 10
187.8072362737
 20
35.1740295424
 11
187.7759886996
 21
35.1756222699
  0
LINE
  5
41D
100
AcDbEntity
  8
0
100
AcDbLine
 62
7
  6
CONTINUOUS
 10
182.1496711527
 20
35.8276447715
 11
181.9624215328
 21
35.8385495409
  0
LWPOLYLINE
  5
41E
100
AcDbEntity
  8
RUNDUNGEN
100
AcDbPolyline
 62
7
  6
CONTINUOUS
 90
7
 70
0
 10
182.2947840394
 20
12.4348491906
 10
182.6209595315
 20
12.2525705054
 10
182.9685497194
 20
12.0938132684
 10
183.3274231142
 20
11.9643172895
 10
183.6954952609
 20
11.864798127
 10
184.0707490272
 20
11.7957319533
 10
184.2168156227
 20
11.7773436921
  0
LINE
  5
41F
100
AcDbEntity
  8
RUNDUNGEN
100
AcDbLine
 62
7
  6
CONTINUOUS
 10
182.2945554227
 20
12.4349844698
 11
179.4708051657
 21
14.1657753401
  0
LINE
  5
420
100
AcDbEntity
  8
0
100
AcDbLine
 62
7
  6
CONTINUOUS
 10
145.5742601249
 20
8.9995120178
 11
145.573258009
 21
34.062523929
  0
LINE
  5
421
100
AcDbEntity
  8
RUNDUNGEN
100
AcDbLine
 62
7
  6
CONTINUOUS
 10
145.573258009
 20
34.062523929
 11
145.5742601249
 21
42.4995114197
  0
LWPOLYLINE
  5
422
100
AcDbEntity
  8
0
100
AcDbPolyline
 62
7
  6
CONTINUOUS
 90
6
 70
0
 10
78.2336302214
 20
43.0732188044
 10
76.307658438
 20
42.9374001219
 10
74.5014701718
 20
42.8006437358
 10
72.8216455016
 20
42.6625740314
 10
71.2743019179
 20
42.5226488778
 10
69.9515297439
 20
42.3893689917
  0
LINE
  5
423
100
AcDbEntity
  8
0
100
AcDbLine
 62
7
  6
CONTINUOUS
 10
88.3400038696
 20
43.7429478427
 11
82.5591668155
 21
43.3577738518
  0
LINE
  5
424
100
AcDbEntity
  8
0
100
AcDbLine
 62
7
  6
CONTINUOUS
 10
82.5591668155
 20
43.3577738518
 11
78.2336302214
 21
43.0732188044
  0
LINE
  5
425
100
AcDbEntity
  8
RUNDUNGEN
100
AcDbLine
 62
7
  6
CONTINUOUS
 10
170.4739226108
 20
41.9995117187
 11
170.4746478249
 21
41.9995117187
  0
LINE
  5
426
100
AcDbEntity
  8
0
100
AcDbLine
 62
7
  6
CONTINUOUS
 10
88.5914658074
 20
43.7495117187
 11
110.7601505489
 21
43.7495117187
  0
LINE
  5
427
100
AcDbEntity
  8
RUNDUNGEN
100
AcDbLine
 62
7
  6
CONTINUOUS
 10
111.7237531646
 20
43.9995117187
 11
168.4739226152
 21
43.9995117187
  0
LWPOLYLINE
  5
428
100
AcDbEntity
  8
RUNDUNGEN
100
AcDbPolyline
 62
7
  6
CONTINUOUS
 90
3
 70
0
 10
177.9867170411
 20
15.2641850569
 10
178.5737906596
 20
14.8299747934
 10
179.077734947
 20
14.4400814705
  0
LWPOLYLINE
  5
429
100
AcDbEntity
  8
RUNDUNGEN
100
AcDbPolyline
 62
7
  6
CONTINUOUS
 90
3
 70
0
 10
179.078353325
 20
14.4395953295
 10
179.2323797133
 20
14.3237990762
 10
179.468692347
 20
14.1670769004
  0
LINE
  5
42A
100
AcDbEntity
  8
RUNDUNGEN
100
AcDbLine
 62
7
  6
CONTINUOUS
 10
179.0777386721
 20
14.4400808942
 11
179.0783131044
 21
14.4396271015
  0
LWPOLYLINE
  5
42B
100
AcDbEntity
  8
0
100
AcDbPolyline
 62
7
  6
CONTINUOUS
 90
4
 70
0
 10
69.9489947921
 20
42.3890833189
 10
69.5780791936
 20
42.3346908128
 10
69.2333078182
 20
42.2573434588
 10
68.9774014921
 20
42.1824985736
  0
LINE
  5
42C
100
AcDbEntity
  8
0
100
AcDbLine
 62
7
  6
CONTINUOUS
 10
69.9515331038
 20
42.3893551548
 11
69.9494526698
 21
42.3891324273
  0
LWPOLYLINE
  5
42D
100
AcDbEntity
  8
0
100
AcDbPolyline
 62
7
  6
CONTINUOUS
 90
7
 70
0
 10
191.7675213862
 20
39.5906429495
 10
191.6527834309
 20
39.6191372539
 10
191.4416295295
 20
39.6641933198
 10
191.2215359007
 20
39.7010238068
 10
190.99242303
 20
39.7284001343
 10
190.7547490326
 20
39.7449647986
 10
190.550181652
 20
39.7495150173
  0
LINE
  5
42E
100
AcDbEntity
  8
0
100
AcDbLine
 62
7
  6
CONTINUOUS
 10
191.7675213862
 20
39.5906429495
 11
191.7675639
 21
39.5906318558
  0
LINE
  5
42F
100
AcDbEntity
  8
0
100
AcDbLine
 62
7
  6
CONTINUOUS
 10
191.9907401443
 20
39.526724577
 11
191.7675584544
 21
39.590610977
  0
LWPOLYLINE
  5
430
100
AcDbEntity
  8
RUNDUNGEN
100
AcDbPolyline
 62
7
  6
CONTINUOUS
 90
6
 70
0
 10
174.2813855793
 20
35.4621654486
 10
173.5375316593
 20
35.9666398137
 10
172.7461203806
 20
36.5661626855
 10
171.9529413006
 20
37.2321586818
 10
171.1593579821
 20
37.964087946
 10
170.4735845282
 20
38.6536805976
  0
LINE
  5
431
100
AcDbEntity
  8
0
100
AcDbLine
 62
7
  6
CONTINUOUS
 10
179.469207757
 20
37.3322683502
 11
182.2937370204
 21
39.0635374662
  0
LINE
  5
432
100
AcDbEntity
  8
0
100
AcDbLine
 62
7
  6
CONTINUOUS
 10
192.4072387478
 20
39.3758543295
 11
191.9907401443
 21
39.526724577
  0
LINE
  5
433
100
AcDbEntity
  8
0
100
AcDbLine
 62
7
  6
CONTINUOUS
 10
170.4733377809
 20
28.441914648
 11
170.4739226108
 21
9.4995117187
  0
LINE
  5
434
100
AcDbEntity
  8
0
100
AcDbLine
 62
7
  6
CONTINUOUS
 10
170.474647891
 20
39.6590506499
 11
170.474647891
 21
41.9995117187
  0
LINE
  5
435
100
AcDbEntity
  8
RUNDUNGEN
100
AcDbLine
 62
7
  6
CONTINUOUS
 10
170.4733377809
 20
28.441914648
 11
170.4739226108
 21
41.9995117187
  0
LINE
  5
436
100
AcDbEntity
  8
0
100
AcDbLine
 62
7
  6
CONTINUOUS
 10
179.0777385335
 20
37.0589424338
 11
179.078230349
 21
37.0593309724
  0
LWPOLYLINE
  5
437
100
AcDbEntity
  8
0
100
AcDbPolyline
 62
7
  6
CONTINUOUS
 90
3
 70
0
 10
179.0777348084
 20
37.0589418574
 10
178.5737690246
 20
36.6690322391
 10
177.9867169022
 20
36.2348385718
  0
LWPOLYLINE
  5
438
100
AcDbEntity
  8
0
100
AcDbPolyline
 62
7
  6
CONTINUOUS
 90
3
 70
0
 10
179.4689082674
 20
37.3320790305
 10
179.182483516
 20
37.1389647883
 10
179.0782704533
 20
37.0593626528
  0
LWPOLYLINE
  5
439
100
AcDbEntity
  8
0
100
AcDbPolyline
 62
7
  6
CONTINUOUS
 90
8
 70
0
 10
174.281364111
 20
16.0368442166
 10
175.1844520385
 20
16.5446506375
 10
176.2526979228
 20
17.000890526
 10
177.440594273
 20
17.3738000579
 10
178.743045874
 20
17.6605496434
 10
180.1543453784
 20
17.8599469138
 10
181.6660452275
 20
17.9719343811
 10
182.9332703868
 20
17.9995059596
  0
LINE
  5
43A
100
AcDbEntity
  8
0
100
AcDbLine
 62
7
  6
CONTINUOUS
 10
181.3727644709
 20
35.3468798428
 11
181.3727644709
 21
35.8480920027
  0
LINE
  5
43B
100
AcDbEntity
  8
0
100
AcDbLine
 62
7
  6
CONTINUOUS
 10
181.4253384209
 20
35.3240382367
 11
181.4253384209
 21
35.8252811472
  0
LINE
  5
43C
100
AcDbEntity
  8
0
100
AcDbLine
 62
7
  6
CONTINUOUS
 10
181.6388751885
 20
35.3014429226
 11
181.6388751885
 21
35.8027162559
  0
LINE
  5
43D
100
AcDbEntity
  8
0
100
AcDbLine
 62
7
  6
CONTINUOUS
 10
181.90660627
 20
35.2905784826
 11
181.90660627
 21
35.7918664453
  0
LINE
  5
43E
100
AcDbEntity
  8
0
100
AcDbLine
 62
7
  6
CONTINUOUS
 10
181.9106578811
 20
35.8554308258
 11
181.9106578811
 21
35.8781180091
  0
LINE
  5
43F
100
AcDbEntity
  8
0
100
AcDbLine
 62
7
  6
CONTINUOUS
 10
182.2819161534
 20
35.2859287604
 11
182.2819161534
 21
35.7872229843
  0
LINE
  5
440
100
AcDbEntity
  8
0
100
AcDbLine
 62
7
  6
CONTINUOUS
 10
182.3984083136
 20
35.8228259762
 11
182.3984083136
 21
35.977671444
  0
LINE
  5
441
100
AcDbEntity
  8
0
100
AcDbLine
 62
7
  6
CONTINUOUS
 10
182.5926777384
 20
36.0095979344
 11
182.5926777384
 21
36.1048157038
  0
LINE
  5
442
100
AcDbEntity
  8
0
100
AcDbLine
 62
7
  6
CONTINUOUS
 10
182.6692000306
 20
36.0098208086
 11
182.6692000306
 21
36.0862696607
  0
LINE
  5
443
100
AcDbEntity
  8
0
100
AcDbLine
 62
7
  6
CONTINUOUS
 10
182.9099390198
 20
36.0105219705
 11
182.9099390198
 21
36.0685781767
  0
LINE
  5
444
100
AcDbEntity
  8
0
100
AcDbLine
 62
7
  6
CONTINUOUS
 10
183.1945253102
 20
36.0113508394
 11
183.1945253102
 21
36.060769556
  0
LINE
  5
445
100
AcDbEntity
  8
0
100
AcDbLine
 62
7
  6
CONTINUOUS
 10
183.2005318625
 20
36.0994037466
 11
183.2005318625
 21
36.1505695164
  0
LINE
  5
446
100
AcDbEntity
  8
0
100
AcDbLine
 62
7
  6
CONTINUOUS
 10
183.2163131716
 20
36.1905930519
 11
183.2163131716
 21
36.2551002618
  0
LINE
  5
447
100
AcDbEntity
  8
0
100
AcDbLine
 62
7
  6
CONTINUOUS
 10
183.3703345012
 20
36.091224498
 11
183.3703345012
 21
36.1697327124
  0
LINE
  5
448
100
AcDbEntity
  8
0
100
AcDbLine
 62
7
  6
CONTINUOUS
 10
183.4519578797
 20
34.4865574945
 11
183.4519578797
 21
34.9889304757
  0
LINE
  5
449
100
AcDbEntity
  8
0
100
AcDbLine
 62
7
  6
CONTINUOUS
 10
183.4891373449
 20
35.2899525138
 11
183.4891373449
 21
35.7912413194
  0
LINE
  5
44A
100
AcDbEntity
  8
0
100
AcDbLine
 62
7
  6
CONTINUOUS
 10
183.5043324157
 20
34.4327474765
 11
183.5043324157
 21
34.9351932414
  0
LINE
  5
44B
100
AcDbEntity
  8
0
100
AcDbLine
 62
7
  6
CONTINUOUS
 10
183.5831433986
 20
36.0124827051
 11
183.5831433986
 21
36.0585385753
  0
LINE
  5
44C
100
AcDbEntity
  8
0
100
AcDbLine
 62
7
  6
CONTINUOUS
 10
183.6003220316
 20
36.0884929641
 11
183.6003220316
 21
36.1845365803
  0
LINE
  5
44D
100
AcDbEntity
  8
0
100
AcDbLine
 62
7
  6
CONTINUOUS
 10
183.6499243396
 20
34.3989366753
 11
183.6499243396
 21
34.9014281837
  0
LINE
  5
44E
100
AcDbEntity
  8
0
100
AcDbLine
 62
7
  6
CONTINUOUS
 10
183.7530408174
 20
36.2949069769
 11
183.7530408174
 21
36.3811808873
  0
LINE
  5
44F
100
AcDbEntity
  8
0
100
AcDbLine
 62
7
  6
CONTINUOUS
 10
183.8904943388
 20
36.0896643656
 11
183.8904943388
 21
36.1951398334
  0
LINE
  5
450
100
AcDbEntity
  8
0
100
AcDbLine
 62
7
  6
CONTINUOUS
 10
183.9186417395
 20
35.2972637643
 11
183.9186417395
 21
35.7985427248
  0
LINE
  5
451
100
AcDbEntity
  8
0
100
AcDbLine
 62
7
  6
CONTINUOUS
 10
183.9372639512
 20
34.3743197559
 11
183.9372639512
 21
34.8768445743
  0
LINE
  5
452
100
AcDbEntity
  8
0
100
AcDbLine
 62
7
  6
CONTINUOUS
 10
184.1121691354
 20
34.9621562222
 11
184.1121691354
 21
35.0454648129
  0
LINE
  5
453
100
AcDbEntity
  8
0
100
AcDbLine
 62
7
  6
CONTINUOUS
 10
184.1760742883
 20
34.3609956869
 11
184.1760742883
 21
34.8635385364
  0
LINE
  5
454
100
AcDbEntity
  8
0
100
AcDbLine
 62
7
  6
CONTINUOUS
 10
184.2408512292
 20
36.0919987611
 11
184.2408512292
 21
36.2016573644
  0
LINE
  5
455
100
AcDbEntity
  8
0
100
AcDbLine
 62
7
  6
CONTINUOUS
 10
184.2947619564
 20
35.310212125
 11
184.2947619564
 21
35.8114736508
  0
LINE
  5
456
100
AcDbEntity
  8
0
100
AcDbLine
 62
7
  6
CONTINUOUS
 10
184.4403526159
 20
34.9155237741
 11
184.4403526159
 21
35.0939507413
  0
LINE
  5
457
100
AcDbEntity
  8
0
100
AcDbLine
 62
7
  6
CONTINUOUS
 10
184.6051626877
 20
34.3457075341
 11
184.6051626877
 21
34.8482710743
  0
LINE
  5
458
100
AcDbEntity
  8
0
100
AcDbLine
 62
7
  6
CONTINUOUS
 10
184.725076459
 20
35.3347957421
 11
184.725076459
 21
35.8360241698
  0
LINE
  5
459
100
AcDbEntity
  8
0
100
AcDbLine
 62
7
  6
CONTINUOUS
 10
184.7704582146
 20
34.9044964574
 11
184.7704582146
 21
35.1214651956
  0
LINE
  5
45A
100
AcDbEntity
  8
0
100
AcDbLine
 62
7
  6
CONTINUOUS
 10
184.7953289687
 20
35.170358775
 11
184.7953289687
 21
35.2988303301
  0
LINE
  5
45B
100
AcDbEntity
  8
0
100
AcDbLine
 62
7
  6
CONTINUOUS
 10
184.9944281512
 20
35.3585359044
 11
184.9944281512
 21
35.8597323738
  0
LINE
  5
45C
100
AcDbEntity
  8
0
100
AcDbLine
 62
7
  6
CONTINUOUS
 10
185.210395891
 20
35.3873897843
 11
185.210395891
 21
35.8885474168
  0
LINE
  5
45D
100
AcDbEntity
  8
0
100
AcDbLine
 62
7
  6
CONTINUOUS
 10
185.2846559009
 20
36.2336774915
 11
185.2846559009
 21
36.3089129483
  0
LINE
  5
45E
100
AcDbEntity
  8
0
100
AcDbLine
 62
7
  6
CONTINUOUS
 10
185.3842943414
 20
36.2342663625
 11
185.3842943414
 21
36.2942411569
  0
LINE
  5
45F
100
AcDbEntity
  8
0
100
AcDbLine
 62
7
  6
CONTINUOUS
 10
185.4614181685
 20
34.3370721036
 11
185.4614181685
 21
34.8396473315
  0
LINE
  5
460
100
AcDbEntity
  8
0
100
AcDbLine
 62
7
  6
CONTINUOUS
 10
185.5277310947
 20
34.8929114226
 11
185.5277310947
 21
35.1548715955
  0
LINE
  5
461
100
AcDbEntity
  8
0
100
AcDbLine
 62
7
  6
CONTINUOUS
 10
185.6674348826
 20
36.2359397451
 11
185.6674348826
 21
36.2849033928
  0
LINE
  5
462
100
AcDbEntity
  8
0
100
AcDbLine
 62
7
  6
CONTINUOUS
 10
185.860729801
 20
35.5181345385
 11
185.860729801
 21
36.0191162663
  0
LINE
  5
463
100
AcDbEntity
  8
0
100
AcDbLine
 62
7
  6
CONTINUOUS
 10
185.9007562275
 20
36.2373186925
 11
185.9007562275
 21
36.2829878602
  0
LINE
  5
464
100
AcDbEntity
  8
0
100
AcDbLine
 62
7
  6
CONTINUOUS
 10
185.9837248811
 20
34.342816065
 11
185.9837248811
 21
34.8453835186
  0
LINE
  5
465
100
AcDbEntity
  8
0
100
AcDbLine
 62
7
  6
CONTINUOUS
 10
186.0038876572
 20
36.3080249378
 11
186.0038876572
 21
36.3984921018
  0
LINE
  5
466
100
AcDbEntity
  8
0
100
AcDbLine
 62
7
  6
CONTINUOUS
 10
186.1285024365
 20
35.574976284
 11
186.1285024365
 21
36.0758815751
  0
LINE
  5
467
100
AcDbEntity
  8
0
100
AcDbLine
 62
7
  6
CONTINUOUS
 10
186.1451774384
 20
34.8976220054
 11
186.1451774384
 21
35.159234697
  0
LINE
  5
468
100
AcDbEntity
  8
0
100
AcDbLine
 62
7
  6
CONTINUOUS
 10
186.2342152175
 20
36.2392894611
 11
186.2342152175
 21
36.2859049431
  0
LINE
  5
469
100
AcDbEntity
  8
0
100
AcDbLine
 62
7
  6
CONTINUOUS
 10
186.2600440026
 20
35.6045869734
 11
186.2600440026
 21
36.1054524553
  0
LINE
  5
46A
100
AcDbEntity
  8
0
100
AcDbLine
 62
7
  6
CONTINUOUS
 10
186.3157517976
 20
34.3504659449
 11
186.3157517976
 21
34.853023045
  0
LINE
  5
46B
100
AcDbEntity
  8
0
100
AcDbLine
 62
7
  6
CONTINUOUS
 10
186.4533713173
 20
35.3492125599
 11
186.4533713173
 21
35.6598607667
  0
LINE
  5
46C
100
AcDbEntity
  8
0
100
AcDbLine
 62
7
  6
CONTINUOUS
 10
186.5010820073
 20
36.2408666646
 11
186.5010820073
 21
36.2921638732
  0
LWPOLYLINE
  5
46D
100
AcDbEntity
  8
0
100
AcDbPolyline
 62
7
  6
CONTINUOUS
 90
6
 70
0
 10
170.4735845282
 20
12.8453428399
 10
171.1593579821
 20
13.5349354915
 10
171.9529413006
 20
14.2668647557
 10
172.7461203806
 20
14.932860752
 10
173.5375316593
 20
15.5323836238
 10
174.2813855793
 20
16.0368579889
  0
LWPOLYLINE
  5
46E
100
AcDbEntity
  8
RUNDUNGEN
100
AcDbPolyline
 62
7
  6
CONTINUOUS
 90
9
 70
0
 10
191.9913682728
 20
11.9724948789
 10
192.4081968337
 20
12.1235660878
 10
192.8096393011
 20
12.3117227901
 10
193.1926028481
 20
12.5355549478
 10
193.5540893485
 20
12.7933968363
 10
193.8910840689
 20
13.0831978283
 10
194.2007915824
 20
13.4026083898
 10
194.4806003076
 20
13.7491153259
 10
194.5764175728
 20
13.8840895501
  0
LINE
  5
46F
100
AcDbEntity
  8
RUNDUNGEN
100
AcDbLine
 62
7
  6
CONTINUOUS
 10
191.7675581224
 20
11.9084123738
 11
191.9913682728
 21
11.9724948789
  0
LWPOLYLINE
  5
470
100
AcDbEntity
  8
0
100
AcDbPolyline
 62
7
  6
CONTINUOUS
 90
8
 70
0
 10
194.5764137362
 20
37.6149394885
 10
194.4793880863
 20
37.7515557459
 10
194.1997394149
 20
38.0976032251
 10
193.8902461302
 20
38.4166146922
 10
193.5533142918
 20
38.7062341835
 10
193.1918114922
 20
38.9639803226
 10
192.8087165195
 20
39.1877852108
 10
192.4072387478
 20
39.3758543295
  0
LINE
  5
471
100
AcDbEntity
  8
0
100
AcDbLine
 62
7
  6
CONTINUOUS
 10
195.5054042906
 20
36.2596645913
 11
194.5755250905
 21
37.6162718436
  0
LINE
  5
472
100
AcDbEntity
  8
0
100
AcDbLine
 62
7
  6
CONTINUOUS
 10
186.786210267
 20
35.7163684517
 11
186.786210267
 21
36.2170837097
  0
LINE
  5
473
100
AcDbEntity
  8
0
100
AcDbLine
 62
7
  6
CONTINUOUS
 10
186.7895282356
 20
34.367625838
 11
186.7895282356
 21
34.8701597149
  0
LINE
  5
474
100
AcDbEntity
  8
0
100
AcDbLine
 62
7
  6
CONTINUOUS
 10
186.8111539234
 20
34.9256373328
 11
186.8111539234
 21
35.1531052479
  0
LINE
  5
475
100
AcDbEntity
  8
0
100
AcDbLine
 62
7
  6
CONTINUOUS
 10
186.8848589791
 20
36.2433292161
 11
186.8848589791
 21
36.3071360223
  0
LINE
  5
476
100
AcDbEntity
  8
0
100
AcDbLine
 62
7
  6
CONTINUOUS
 10
186.9177518958
 20
35.742649264
 11
186.9177518958
 21
36.2433292161
  0
LINE
  5
477
100
AcDbEntity
  8
0
100
AcDbLine
 62
7
  6
CONTINUOUS
 10
187.2020439842
 20
35.8245167246
 11
187.2020439842
 21
36.325086727
  0
LINE
  5
478
100
AcDbEntity
  8
0
100
AcDbLine
 62
7
  6
CONTINUOUS
 10
187.2147733322
 20
34.396056034
 11
187.2147733322
 21
34.89855144
  0
LINE
  5
479
100
AcDbEntity
  8
0
100
AcDbLine
 62
7
  6
CONTINUOUS
 10
187.2927342364
 20
35.3466376354
 11
187.2927342364
 21
35.4776359182
  0
LINE
  5
47A
100
AcDbEntity
  8
0
100
AcDbLine
 62
7
  6
CONTINUOUS
 10
187.3353816874
 20
34.9621119322
 11
187.3353816874
 21
35.1381839783
  0
LINE
  5
47B
100
AcDbEntity
  8
0
100
AcDbLine
 62
7
  6
CONTINUOUS
 10
187.3692723815
 20
35.844590698
 11
187.3692723815
 21
36.345133748
  0
LINE
  5
47C
100
AcDbEntity
  8
0
100
AcDbLine
 62
7
  6
CONTINUOUS
 10
187.5288595702
 20
35.7117038613
 11
187.5288595702
 21
35.9136237791
  0
LINE
  5
47D
100
AcDbEntity
  8
0
100
AcDbLine
 62
7
  6
CONTINUOUS
 10
187.7197831149
 20
35.0440697235
 11
187.7197831149
 21
35.0939081267
  0
LINE
  5
47E
100
AcDbEntity
  8
0
100
AcDbLine
 62
7
  6
CONTINUOUS
 10
187.7332358084
 20
34.4448215414
 11
187.7332358084
 21
34.9472509731
  0
LINE
  5
47F
100
AcDbEntity
  8
0
100
AcDbLine
 62
7
  6
CONTINUOUS
 10
187.7718181038
 20
35.9549067912
 11
187.7718181038
 21
36.4317130817
  0
LINE
  5
480
100
AcDbEntity
  8
0
100
AcDbLine
 62
7
  6
CONTINUOUS
 10
187.7883561836
 20
35.3451172094
 11
187.7883561836
 21
35.4777880983
  0
LINE
  5
481
100
AcDbEntity
  8
0
100
AcDbLine
 62
7
  6
CONTINUOUS
 10
188.1080285122
 20
34.5048614021
 11
188.1080285122
 21
35.0072096301
  0
LINE
  5
482
100
AcDbEntity
  8
0
100
AcDbLine
 62
7
  6
CONTINUOUS
 10
188.249242384
 20
35.9573073404
 11
188.249242384
 21
36.0665629802
  0
LINE
  5
483
100
AcDbEntity
  8
0
100
AcDbLine
 62
7
  6
CONTINUOUS
 10
188.2925422203
 20
34.5656808661
 11
188.2925422203
 21
35.0679468629
  0
LINE
  5
484
100
AcDbEntity
  8
0
100
AcDbLine
 62
7
  6
CONTINUOUS
 10
188.3178058639
 20
35.3434930098
 11
188.3178058639
 21
35.5956062484
  0
LINE
  5
485
100
AcDbEntity
  8
0
100
AcDbLine
 62
7
  6
CONTINUOUS
 10
188.3638310819
 20
35.9578257734
 11
188.3638310819
 21
36.0433420325
  0
LINE
  5
486
100
AcDbEntity
  8
0
100
AcDbLine
 62
7
  6
CONTINUOUS
 10
188.4162373293
 20
35.3431910503
 11
188.4162373293
 21
35.3977926416
  0
LINE
  5
487
100
AcDbEntity
  8
0
100
AcDbLine
 62
7
  6
CONTINUOUS
 10
188.6858383884
 20
35.9592826294
 11
188.6858383884
 21
36.0217259553
  0
LINE
  5
488
100
AcDbEntity
  8
0
100
AcDbLine
 62
7
  6
CONTINUOUS
 10
188.9957360326
 20
36.2042324388
 11
188.9957360326
 21
36.2820607097
  0
LINE
  5
489
100
AcDbEntity
  8
0
100
AcDbLine
 62
7
  6
CONTINUOUS
 10
189.0774678458
 20
35.9610544765
 11
189.0774678458
 21
36.0192681455
  0
LINE
  5
48A
100
AcDbEntity
  8
0
100
AcDbLine
 62
7
  6
CONTINUOUS
 10
189.0926913064
 20
36.0617972624
 11
189.0926913064
 21
36.155618341
  0
LINE
  5
48B
100
AcDbEntity
  8
0
100
AcDbLine
 62
7
  6
CONTINUOUS
 10
189.2892301365
 20
36.0584377032
 11
189.2892301365
 21
36.1795401102
  0
LINE
  5
48C
100
AcDbEntity
  8
0
100
AcDbLine
 62
7
  6
CONTINUOUS
 10
189.3860810209
 20
34.7824937574
 11
189.3860810209
 21
35.28446683
  0
LINE
  5
48D
100
AcDbEntity
  8
0
100
AcDbLine
 62
7
  6
CONTINUOUS
 10
189.4928032562
 20
36.3224771374
 11
189.4928032562
 21
36.4386900284
  0
LINE
  5
48E
100
AcDbEntity
  8
0
100
AcDbLine
 62
7
  6
CONTINUOUS
 10
189.5662706575
 20
36.0607326746
 11
189.5662706575
 21
36.1982420816
  0
LINE
  5
48F
100
AcDbEntity
  8
0
100
AcDbLine
 62
7
  6
CONTINUOUS
 10
189.6337260414
 20
34.8375513478
 11
189.6337260414
 21
35.3394500895
  0
LINE
  5
490
100
AcDbEntity
  8
0
100
AcDbLine
 62
7
  6
CONTINUOUS
 10
189.678804606
 20
36.4630202742
 11
189.678804606
 21
36.4938563316
  0
LINE
  5
491
100
AcDbEntity
  8
0
100
AcDbLine
 62
7
  6
CONTINUOUS
 10
189.7808582302
 20
36.5153119231
 11
189.7808582302
 21
36.561715596
  0
LINE
  5
492
100
AcDbEntity
  8
0
100
AcDbLine
 62
7
  6
CONTINUOUS
 10
189.8712715693
 20
36.5859323828
 11
189.8712715693
 21
36.6568246855
  0
LINE
  5
493
100
AcDbEntity
  8
0
100
AcDbLine
 62
7
  6
CONTINUOUS
 10
189.8931172301
 20
36.5859323828
 11
189.8931172301
 21
36.6242886214
  0
LINE
  5
494
100
AcDbEntity
  8
0
100
AcDbLine
 62
7
  6
CONTINUOUS
 10
189.9238127243
 20
36.064070282
 11
189.9238127243
 21
36.2119639035
  0
LINE
  5
495
100
AcDbEntity
  8
0
100
AcDbLine
 62
7
  6
CONTINUOUS
 10
190.3618569406
 20
36.1211931371
 11
190.3618569406
 21
36.220884098
  0
LINE
  5
496
100
AcDbEntity
  8
0
100
AcDbLine
 62
7
  6
CONTINUOUS
 10
190.3669221318
 20
35.7264354022
 11
190.3669221318
 21
35.9268324924
  0
LINE
  5
497
100
AcDbEntity
  8
0
100
AcDbLine
 62
7
  6
CONTINUOUS
 10
190.633105495
 20
35.9680926396
 11
190.633105495
 21
36.034162086
  0
LINE
  5
498
100
AcDbEntity
  8
0
100
AcDbLine
 62
7
  6
CONTINUOUS
 10
190.9812160678
 20
35.9696675944
 11
190.9812160678
 21
36.1267344346
  0
LINE
  5
499
100
AcDbEntity
  8
0
100
AcDbLine
 62
7
  6
CONTINUOUS
 10
191.1049854236
 20
36.360996591
 11
191.1049854236
 21
36.4341142759
  0
LINE
  5
49A
100
AcDbEntity
  8
0
100
AcDbLine
 62
7
  6
CONTINUOUS
 10
191.217262137
 20
35.1837085415
 11
191.217262137
 21
35.6851404541
  0
LINE
  5
49B
100
AcDbEntity
  8
0
100
AcDbLine
 62
7
  6
CONTINUOUS
 10
191.407054139
 20
35.2304443938
 11
191.407054139
 21
35.7318133448
  0
LINE
  5
49C
100
AcDbEntity
  8
0
100
AcDbLine
 62
7
  6
CONTINUOUS
 10
191.5664879974
 20
35.9723155371
 11
191.5664879974
 21
36.0430245792
  0
LINE
  5
49D
100
AcDbEntity
  8
0
100
AcDbLine
 62
7
  6
CONTINUOUS
 10
191.9174945898
 20
36.0895955821
 11
191.9174945898
 21
36.2335397338
  0
LINE
  5
49E
100
AcDbEntity
  8
0
100
AcDbLine
 62
7
  6
CONTINUOUS
 10
192.1082414056
 20
35.9747665891
 11
192.1082414056
 21
36.0542338586
  0
LINE
  5
49F
100
AcDbEntity
  8
0
100
AcDbLine
 62
7
  6
CONTINUOUS
 10
192.2927503899
 20
35.4346413947
 11
192.2927503899
 21
35.9357354405
  0
LINE
  5
4A0
100
AcDbEntity
  8
0
100
AcDbLine
 62
7
  6
CONTINUOUS
 10
192.3091237089
 20
36.1097346034
 11
192.3091237089
 21
36.231470756
  0
LINE
  5
4A1
100
AcDbEntity
  8
0
100
AcDbLine
 62
7
  6
CONTINUOUS
 10
192.4825423919
 20
35.4754208556
 11
192.4825423919
 21
35.9764600371
  0
LINE
  5
4A2
100
AcDbEntity
  8
0
100
AcDbLine
 62
7
  6
CONTINUOUS
 10
192.5738369343
 20
36.1498251809
 11
192.5738369343
 21
36.2230937625
  0
LINE
  5
4A3
100
AcDbEntity
  8
0
100
AcDbLine
 62
7
  6
CONTINUOUS
 10
192.6159074708
 20
35.5821098869
 11
192.6159074708
 21
36.0830055869
  0
LINE
  5
4A4
100
AcDbEntity
  8
0
100
AcDbLine
 62
7
  6
CONTINUOUS
 10
192.9161554678
 20
35.608440214
 11
192.9161554678
 21
36.1093005161
  0
LINE
  5
4A5
100
AcDbEntity
  8
0
100
AcDbLine
 62
7
  6
CONTINUOUS
 10
193.1359013153
 20
35.6392375613
 11
193.1359013153
 21
36.1400564664
  0
LINE
  5
4A6
100
AcDbEntity
  8
0
100
AcDbLine
 62
7
  6
CONTINUOUS
 10
193.344767659
 20
35.6911877762
 11
193.344767659
 21
36.1919368668
  0
LINE
  5
4A7
100
AcDbEntity
  8
0
100
AcDbLine
 62
7
  6
CONTINUOUS
 10
193.3570954382
 20
35.7181971964
 11
193.3570954382
 21
36.2189099975
  0
LINE
  5
4A8
100
AcDbEntity
  8
0
100
AcDbLine
 62
7
  6
CONTINUOUS
 10
194.1801609452
 20
35.9105456293
 11
194.1801609452
 21
36.4110001451
  0
LWPOLYLINE
  5
4A9
100
AcDbEntity
  8
RUNDUNGEN
100
AcDbPolyline
 62
7
  6
CONTINUOUS
 90
25
 70
0
 10
199.647302905
 20
34.2251322923
 10
199.6459790443
 20
34.298076074
 10
199.6199889114
 20
34.5553002389
 10
199.5642283115
 20
34.7968738019
 10
199.4831225339
 20
35.0205531015
 10
199.3809839332
 20
35.2246882542
 10
199.2616867708
 20
35.4086578088
 10
199.1284183291
 20
35.5726650825
 10
198.985200748
 20
35.715948109
 10
198.83492721
 20
35.8392648142
 10
198.6829877466
 20
35.9418227291
 10
198.5343215133
 20
36.0243245727
 10
198.3928701875
 20
36.0886516044
 10
198.2631707569
 20
36.1367731761
 10
198.1459280715
 20
36.1720708196
 10
198.0429844169
 20
36.1970653368
 10
197.952391053
 20
36.2146786275
 10
197.8726813416
 20
36.2269526765
 10
197.8022873139
 20
36.2354066611
 10
197.7393646467
 20
36.2411668173
 10
197.6825734917
 20
36.2449909664
 10
197.6301220353
 20
36.2474359783
 10
197.5812655983
 20
36.2488390401
 10
197.5345067175
 20
36.2494522838
 10
194.9177307092
 20
36.2495117187
  0
LINE
  5
4AA
100
AcDbEntity
  8
0
100
AcDbLine
 62
7
  6
CONTINUOUS
 10
194.2971179882
 20
35.9442553824
 11
194.2971179882
 21
36.4446646602
  0
LINE
  5
4AB
100
AcDbEntity
  8
0
100
AcDbLine
 62
7
  6
CONTINUOUS
 10
194.672801995
 20
36.0494443571
 11
194.672801995
 21
36.5497125253
  0
LINE
  5
4AC
100
AcDbEntity
  8
0
100
AcDbLine
 62
7
  6
CONTINUOUS
 10
194.7187261303
 20
36.0774956501
 11
194.7187261303
 21
36.5777262014
  0
LINE
  5
4AD
100
AcDbEntity
  8
0
100
AcDbLine
 62
7
  6
CONTINUOUS
 10
194.8708627152
 20
36.6746691655
 11
194.8708627152
 21
36.6941772285
  0
LINE
  5
4AE
100
AcDbEntity
  8
0
100
AcDbLine
 62
7
  6
CONTINUOUS
 10
194.871806574
 20
36.1556974286
 11
194.871806574
 21
36.6558231406
  0
LINE
  5
4AF
100
AcDbEntity
  8
0
100
AcDbLine
 62
7
  6
CONTINUOUS
 10
194.9177307092
 20
36.1745687463
 11
194.9177307092
 21
36.6746691655
  0
LINE
  5
4B0
100
AcDbEntity
  8
0
100
AcDbLine
 62
7
  6
CONTINUOUS
 10
199.6473030551
 20
34.2245598906
 11
199.6473030551
 21
17.2744635469
  0
LINE
  5
4B1
100
AcDbEntity
  8
RUNDUNGEN
100
AcDbLine
 62
7
  6
CONTINUOUS
 10
194.5753234476
 20
13.8824574202
 11
195.5054042906
 21
15.2393588462
  0
ARC
  5
4B2
100
AcDbEntity
  8
0
100
AcDbCircle
 62
7
  6
CONTINUOUS
 10
82.9752114021
 20
93.5053382156
 40
115.0
100
AcDbArc
 50
24.8322313313
 51
25.8066717542
  0
ARC
  5
4B3
100
AcDbEntity
  8
0
100
AcDbCircle
 62
7
  6
CONTINUOUS
 10
87.2744325135
 20
75.5186178105
 40
112.1110227796
100
AcDbArc
 50
87.5990030724
 51
89.6821613679
  0
ARC
  5
4B4
100
AcDbEntity
  8
0
100
AcDbCircle
 62
7
  6
CONTINUOUS
 10
87.2744325135
 20
75.5186178105
 40
112.1110227796
100
AcDbArc
 50
56.3138018601
 51
63.6219183069
  0
ARC
  5
4B5
100
AcDbEntity
  8
0
100
AcDbCircle
 62
7
  6
CONTINUOUS
 10
127.8155659432
 20
126.3053834646
 40
66.8102965761
100
AcDbArc
 50
191.0915355981
 51
211.3479971114
  0
ARC
  5
4B6
100
AcDbEntity
  8
RUNDUNGEN
100
AcDbCircle
 62
7
  6
CONTINUOUS
 10
127.8155659432
 20
126.3053834646
 40
66.8102965761
100
AcDbArc
 50
139.9996994501
 51
307.1434473554
  0
ARC
  5
4B7
100
AcDbEntity
  8
0
100
AcDbCircle
 62
7
  6
CONTINUOUS
 10
130.7200837298
 20
122.4709696141
 40
62.0
100
AcDbArc
 50
312.8580770543
 51
340.1939154078
  0
ARC
  5
4B8
100
AcDbEntity
  8
RUNDUNGEN
100
AcDbCircle
 62
7
  6
CONTINUOUS
 10
130.7200837298
 20
122.4709696141
 40
62.0
100
AcDbArc
 50
307.1434473554
 51
344.78
  0
ARC
  5
4B9
100
AcDbEntity
  8
AUSFORMSCHRAEGEN
100
AcDbCircle
 62
7
  6
CONTINUOUS
 10
127.9892808306
 20
130.0257168443
 40
39.0412250786
100
AcDbArc
 50
170.0898755161
 51
192.9860609409
  0
ARC
  5
4BA
100
AcDbEntity
  8
RUNDUNGEN
100
AcDbCircle
 62
7
  6
CONTINUOUS
 10
124.2900568242
 20
131.902289816
 40
35.0205969205
100
AcDbArc
 50
159.8352629823
 51
165.3930821461
  0
ARC
  5
4BB
100
AcDbEntity
  8
0
100
AcDbCircle
 62
7
  6
CONTINUOUS
 10
117.3633249193
 20
149.9499816312
 40
82.2839781358
100
AcDbArc
 50
346.0038037178
 51
31.1532425212
  0
ARC
  5
4BC
100
AcDbEntity
  8
RUNDUNGEN
100
AcDbCircle
 62
7
  6
CONTINUOUS
 10
117.3633249193
 20
149.9499816312
 40
82.2839781358
100
AcDbArc
 50
346.0038037178
 51
351.3526382415
  0
ARC
  5
4BD
100
AcDbEntity
  8
RUNDUNGEN
100
AcDbCircle
 62
7
  6
CONTINUOUS
 10
117.3633249193
 20
149.9499816312
 40
82.2839781358
100
AcDbArc
 50
353.729945992
 51
24.6626977245
  0
ARC
  5
4BE
100
AcDbEntity
  8
0
100
AcDbCircle
 62
7
  6
CONTINUOUS
 10
132.165760469
 20
147.7504477883
 40
50.0
100
AcDbArc
 50
321.0354080096
 51
335.5899451185
  0
ARC
  5
4BF
100
AcDbEntity
  8
RUNDUNGEN
100
AcDbCircle
 62
7
  6
CONTINUOUS
 10
132.165760469
 20
147.7504477883
 40
50.0
100
AcDbArc
 50
301.15
 51
335.5899451185
  0
ARC
  5
4C0
100
AcDbEntity
  8
RUNDUNGEN
100
AcDbCircle
 62
7
  6
CONTINUOUS
 10
109.5111342705
 20
181.9820764647
 40
25.0
100
AcDbArc
 50
301.4103634974
 51
320.0
  0
ARC
  5
4C1
100
AcDbEntity
  8
0
100
AcDbCircle
 62
7
  6
CONTINUOUS
 10
90.6833404904
 20
199.8575978151
 40
2.0
100
AcDbArc
 50
60.7975017185
 51
164.8180060195
  0
ARC
  5
4C2
100
AcDbEntity
  8
RUNDUNGEN
100
AcDbCircle
 62
7
  6
CONTINUOUS
 10
90.6833404904
 20
199.8575978151
 40
2.0
100
AcDbArc
 50
60.7975017185
 51
164.8180060195
  0
ARC
  5
4C3
100
AcDbEntity
  8
0
100
AcDbCircle
 62
7
  6
CONTINUOUS
 10
87.9074408377
 20
189.6278848323
 40
2.0
100
AcDbArc
 50
164.8180060195
 51
269.6821613679
  0
ARC
  5
4C4
100
AcDbEntity
  8
RUNDUNGEN
100
AcDbCircle
 62
7
  6
CONTINUOUS
 10
139.6144572743
 20
132.6993930719
 40
50.9715353809
100
AcDbArc
 50
207.1575230519
 51
219.384716104
  0
ARC
  5
4C5
100
AcDbEntity
  8
RUNDUNGEN
100
AcDbCircle
 62
7
  6
CONTINUOUS
 10
139.5602409962
 20
132.6728304922
 40
50.9111029147
100
AcDbArc
 50
192.9627158515
 51
203.289977436
  0
ARC
  5
4C6
100
AcDbEntity
  8
AUSFORMSCHRAEGEN
100
AcDbCircle
 62
7
  6
CONTINUOUS
 10
139.5397105003
 20
127.9181853505
 40
50.7820994609
100
AcDbArc
 50
165.3822722414
 51
169.9903405356
  0
ARC
  5
4C7
100
AcDbEntity
  8
RUNDUNGEN
100
AcDbCircle
 62
7
  6
CONTINUOUS
 10
140.4422463264
 20
134.0573918163
 40
34.0
100
AcDbArc
 50
230.0
 51
301.15
  0
ARC
  5
4C8
100
AcDbEntity
  8
RUNDUNGEN
100
AcDbCircle
 62
7
  6
CONTINUOUS
 10
139.4780649118
 20
132.9083251516
 40
32.5
100
AcDbArc
 50
121.4103634974
 51
230.0
  0
ARC
  5
4C9
100
AcDbEntity
  8
0
100
AcDbCircle
 62
7
  6
CONTINUOUS
 10
137.9088431486
 20
125.4421774958
 40
24.6327926358
100
AcDbArc
 50
16.9967322503
 51
62.8562995962
  0
ARC
  5
4CA
100
AcDbEntity
  8
0
100
AcDbCircle
 62
7
  6
CONTINUOUS
 10
163.3783534667
 20
133.2273998905
 40
2.0
100
AcDbArc
 50
196.9967322503
 51
286.4145212582
  0
ARC
  5
4CB
100
AcDbEntity
  8
0
100
AcDbCircle
 62
7
  6
CONTINUOUS
 10
179.5175403086
 20
126.2607073054
 40
2.0
100
AcDbArc
 50
145.0000115643
 51
155.5899451185
  0
ARC
  5
4CC
100
AcDbEntity
  8
RUNDUNGEN
100
AcDbCircle
 62
7
  6
CONTINUOUS
 10
179.5175403086
 20
126.2607073054
 40
2.0
100
AcDbArc
 50
145.0000115643
 51
155.5899451185
  0
ARC
  5
4CD
100
AcDbEntity
  8
0
100
AcDbCircle
 62
7
  6
CONTINUOUS
 10
152.7978436389
 20
169.1433892135
 40
39.4420282206
100
AcDbArc
 50
286.4144758447
 51
320.3480391049
  0
ARC
  5
4CE
100
AcDbEntity
  8
RUNDUNGEN
100
AcDbCircle
 62
7
  6
CONTINUOUS
 10
152.7978436389
 20
169.1433892135
 40
39.4420282206
100
AcDbArc
 50
286.4144758447
 51
302.1037528399
  0
ARC
  5
4CF
100
AcDbEntity
  8
0
100
AcDbCircle
 62
7
  6
CONTINUOUS
 10
148.9806498063
 20
160.4030737887
 40
5.0
100
AcDbArc
 50
21.4477381024
 51
28.4477401728
  0
ARC
  5
4D0
100
AcDbEntity
  8
0
100
AcDbCircle
 62
7
  6
CONTINUOUS
 10
146.6827494936
 20
164.6445011131
 40
5.0
100
AcDbArc
 50
28.4477381024
 51
56.3114671186
  0
ARC
  5
4D1
100
AcDbEntity
  8
RUNDUNGEN
100
AcDbCircle
 62
7
  6
CONTINUOUS
 10
146.6827494936
 20
164.6445011131
 40
5.0
100
AcDbArc
 50
28.4477381024
 51
56.3114671186
  0
ARC
  5
4D2
100
AcDbEntity
  8
0
100
AcDbCircle
 62
7
  6
CONTINUOUS
 10
150.0593557885
 20
149.1417700275
 40
2.0
100
AcDbArc
 50
136.5871185761
 51
242.8562995962
  0
ARC
  5
4D3
100
AcDbEntity
  8
RUNDUNGEN
100
AcDbCircle
 62
7
  6
CONTINUOUS
 10
150.0593557885
 20
149.1417700275
 40
2.0
100
AcDbArc
 50
136.5871185761
 51
242.8562995962
  0
ARC
  5
4D4
100
AcDbEntity
  8
0
100
AcDbCircle
 62
7
  6
CONTINUOUS
 10
153.0850001197
 20
158.1601509077
 40
2.0
100
AcDbArc
 50
316.5871291557
 51
21.4477232122
  0
ARC
  5
4D5
100
AcDbEntity
  8
0
100
AcDbCircle
 62
7
  6
CONTINUOUS
 10
185.5273869702
 20
140.9611206477
 40
2.0
100
AcDbArc
 50
0.0038037178
 51
24.8322434368
  0
ARC
  5
4D6
100
AcDbEntity
  8
0
100
AcDbCircle
 62
7
  6
CONTINUOUS
 10
184.7055052251
 20
142.6982982677
 40
2.0
100
AcDbArc
 50
25.8066845051
 51
140.3480240266
  0
ARC
  5
4D7
100
AcDbEntity
  8
0
100
AcDbCircle
 62
7
  6
CONTINUOUS
 10
93.3353969225
 20
233.3445409536
 40
20.0
100
AcDbArc
 50
0.0038037178
 51
5.3838037178
  0
ARC
  5
4D8
100
AcDbEntity
  8
0
100
AcDbCircle
 62
7
  6
CONTINUOUS
 10
117.374553213
 20
265.376718304
 40
16.0
100
AcDbArc
 50
340.8156672641
 51
0.0038037178
  0
ARC
  5
4D9
100
AcDbEntity
  8
0
100
AcDbCircle
 62
7
  6
CONTINUOUS
 10
98.7674299857
 20
214.3208919014
 40
14.5692298794
100
AcDbArc
 50
354.3780012357
 51
0.0038037178
  0
ARC
  5
4DA
100
AcDbEntity
  8
0
100
AcDbCircle
 62
7
  6
CONTINUOUS
 10
98.7674299857
 20
214.3208919014
 40
14.5692298794
100
AcDbArc
 50
240.7975017185
 51
285.6288014872
  0
ARC
  5
4DB
100
AcDbEntity
  8
0
100
AcDbCircle
 62
7
  6
CONTINUOUS
 10
129.7240109484
 20
273.5453142005
 40
20.0
100
AcDbArc
 50
180.0038037178
 51
185.3838037178
  0
ARC
  5
4DC
100
AcDbEntity
  8
RUNDUNGEN
100
AcDbCircle
 62
7
  6
CONTINUOUS
 10
129.7240109484
 20
273.5453142005
 40
20.0
100
AcDbArc
 50
180.0038037178
 51
185.3838037178
  0
ARC
  5
4DD
100
AcDbEntity
  8
0
100
AcDbCircle
 62
7
  6
CONTINUOUS
 10
117.9282016581
 20
289.285851394
 40
5.0
100
AcDbArc
 50
90.0038037178
 51
140.0038037178
  0
ARC
  5
4DE
100
AcDbEntity
  8
0
100
AcDbCircle
 62
7
  6
CONTINUOUS
 10
111.7231470636
 20
286.557498982
 40
2.0
100
AcDbArc
 50
140.0038037178
 51
180.0038037178
  0
ARC
  5
4DF
100
AcDbEntity
  8
0
100
AcDbCircle
 62
7
  6
CONTINUOUS
 10
119.2033601114
 20
292.7859298194
 40
1.500000025
100
AcDbArc
 50
57.2851167994
 51
90.003802544
  0
ARC
  5
4E0
100
AcDbEntity
  8
RUNDUNGEN
100
AcDbCircle
 62
7
  6
CONTINUOUS
 10
140.474647891
 20
263.9513418954
 40
30.0
100
AcDbArc
 50
357.8330440326
 51
0.0038037178
  0
ARC
  5
4E1
100
AcDbEntity
  8
0
100
AcDbCircle
 62
7
  6
CONTINUOUS
 10
140.474647891
 20
263.9513418954
 40
30.0
100
AcDbArc
 50
346.5666532061
 51
0.0038037178
  0
ARC
  5
4E2
100
AcDbEntity
  8
RUNDUNGEN
100
AcDbCircle
 62
7
  6
CONTINUOUS
 10
142.0919244567
 20
214.5874549112
 40
21.0
100
AcDbArc
 50
320.0
 51
140.0
  0
ARC
  5
4E3
100
AcDbEntity
  8
RUNDUNGEN
100
AcDbCircle
 62
7
  6
CONTINUOUS
 10
161.5745531156
 20
265.3796526271
 40
16.0
100
AcDbArc
 50
180.0038037177
 51
199.1919401718
  0
ARC
  5
4E4
100
AcDbEntity
  8
0
100
AcDbCircle
 62
7
  6
CONTINUOUS
 10
161.5745531156
 20
265.3796526271
 40
16.0
100
AcDbArc
 50
180.0038037178
 51
199.1919401716
  0
ARC
  5
4E5
100
AcDbEntity
  8
0
100
AcDbCircle
 62
7
  6
CONTINUOUS
 10
139.4750637434
 20
257.6872817645
 40
7.4
100
AcDbArc
 50
160.8156672635
 51
19.1919401723
  0
ARC
  5
4E6
100
AcDbEntity
  8
0
100
AcDbCircle
 62
7
  6
CONTINUOUS
 10
139.4706390232
 20
324.3372816176
 40
36.0
100
AcDbArc
 50
237.2849890223
 51
258.3108617914
  0
ARC
  5
4E7
100
AcDbEntity
  8
KONSTRUKTIONSELEMENTE
100
AcDbCircle
 62
7
  6
CONTINUOUS
 10
139.4706390232
 20
324.3372816176
 40
36.0
100
AcDbArc
 50
281.6967456442
 51
302.7226184134
  0
ARC
  5
4E8
100
AcDbEntity
  8
0
100
AcDbCircle
 62
7
  6
CONTINUOUS
 10
160.253891032
 20
289.2886612865
 40
5.0
100
AcDbArc
 50
40.0038037178
 51
90.0038037178
  0
ARC
  5
4E9
100
AcDbEntity
  8
0
100
AcDbCircle
 62
7
  6
CONTINUOUS
 10
168.4733062683
 20
284.1612664722
 40
2.0
100
AcDbArc
 50
0.0038037178
 51
40.0038037178
  0
ARC
  5
4EA
100
AcDbEntity
  8
0
100
AcDbCircle
 62
7
  6
CONTINUOUS
 10
159.7421069856
 20
292.7886247787
 40
1.5000000155
100
AcDbArc
 50
90.0038050828
 51
122.722567132
  0
ARC
  5
4EB
100
AcDbEntity
  8
0
100
AcDbCircle
 62
7
  6
CONTINUOUS
 10
131.8730769043
 20
287.614985259
 40
1.5
100
AcDbArc
 50
0.0038037178
 51
78.3108617914
  0
ARC
  5
4EC
100
AcDbEntity
  8
0
100
AcDbCircle
 62
7
  6
CONTINUOUS
 10
147.0730768708
 20
287.6159943475
 40
1.5
100
AcDbArc
 50
101.6967456442
 51
180.0038037178
  0
ARC
  5
4ED
100
AcDbEntity
  8
0
100
AcDbCircle
 62
7
  6
CONTINUOUS
 10
189.527545598
 20
138.5718278674
 40
2.0
100
AcDbArc
 50
180.0038037178
 51
220.0038037178
  0
ARC
  5
4EE
100
AcDbEntity
  8
0
100
AcDbCircle
 62
7
  6
CONTINUOUS
 10
195.7429843402
 20
130.3877546312
 40
1.5
100
AcDbArc
 50
220.0038007512
 51
346.0041583616
  0
ARC
  5
4EF
100
AcDbEntity
  8
RUNDUNGEN
100
AcDbCircle
 62
7
  6
CONTINUOUS
 10
195.7429843402
 20
130.3877546312
 40
1.5
100
AcDbArc
 50
220.0038007512
 51
346.0041583616
  0
ARC
  5
4F0
100
AcDbEntity
  8
0
100
AcDbCircle
 62
7
  6
CONTINUOUS
 10
290.4752692116
 20
254.5973062687
 40
120.0
100
AcDbArc
 50
196.0037958148
 51
211.1532410367
  0
ARC
  5
4F1
100
AcDbEntity
  8
RUNDUNGEN
100
AcDbCircle
 62
7
  6
CONTINUOUS
 10
290.4752692116
 20
254.5973062687
 40
120.0
100
AcDbArc
 50
196.0037958148
 51
211.1532410367
  0
ARC
  5
4F2
100
AcDbEntity
  8
0
100
AcDbCircle
 62
7
  6
CONTINUOUS
 10
203.6962981394
 20
248.8509134289
 40
35.0
100
AcDbArc
 50
166.5666254966
 51
196.0037987571
  0
ARC
  5
4F3
100
AcDbEntity
  8
RUNDUNGEN
100
AcDbCircle
 62
7
  6
CONTINUOUS
 10
203.6962981394
 20
248.8509134289
 40
35.0
100
AcDbArc
 50
166.5666254966
 51
190.263131172
  0
ARC
  5
4F4
100
AcDbEntity
  8
0
100
AcDbCircle
 62
7
  6
CONTINUOUS
 10
-354.5316062998
 20
34.7751071536
 40
647.2883266111
100
AcDbArc
 50
8.6462446936
 51
8.7749650901
  0
ARC
  5
4F5
100
AcDbEntity
  8
0
100
AcDbCircle
 62
7
  6
CONTINUOUS
 10
280.0981093006
 20
75.8656816831
 40
9.5158134867
100
AcDbArc
 50
7.0000584526
 51
7.616662141
  0
ARC
  5
4F6
100
AcDbEntity
  8
0
100
AcDbCircle
 62
7
  6
CONTINUOUS
 10
281.8235430076
 20
76.2687038639
 40
7.7416025025
100
AcDbArc
 50
17.2026877586
 51
17.5742887142
  0
ARC
  5
4F7
100
AcDbEntity
  8
0
100
AcDbCircle
 62
7
  6
CONTINUOUS
 10
294.6272037348
 20
64.4950868885
 40
5.0
100
AcDbArc
 50
180.0
 51
270.0
  0
ARC
  5
4F8
100
AcDbEntity
  8
RUNDUNGEN
100
AcDbCircle
 62
7
  6
CONTINUOUS
 10
-505.2910236962
 20
175.1605054581
 40
822.269557154
100
AcDbArc
 50
358.0549950495
 51
358.7002805512
  0
ARC
  5
4F9
100
AcDbEntity
  8
RUNDUNGEN
100
AcDbCircle
 62
7
  6
CONTINUOUS
 10
295.1272244692
 20
199.8575770807
 40
2.000023549
100
AcDbArc
 50
90.0005939899
 51
179.9994060101
  0
ARC
  5
4FA
100
AcDbEntity
  8
RUNDUNGEN
100
AcDbCircle
 62
7
  6
CONTINUOUS
 10
295.1272082748
 20
189.6279223675
 40
2.0000084128
100
AcDbArc
 50
180.0010753006
 51
269.9998699385
  0
ARC
  5
4FB
100
AcDbEntity
  8
0
100
AcDbCircle
 62
7
  6
CONTINUOUS
 10
286.6272037348
 20
230.5874549112
 40
5.0
100
AcDbArc
 50
90.0
 51
180.0
  0
ARC
  5
4FC
100
AcDbEntity
  8
RUNDUNGEN
100
AcDbCircle
 62
7
  6
CONTINUOUS
 10
282.3772037348
 20
245.6479667649
 40
1.0
100
AcDbArc
 50
180.0000080714
 51
240.000003981
  0
ARC
  5
4FD
100
AcDbEntity
  8
RUNDUNGEN
100
AcDbCircle
 62
7
  6
CONTINUOUS
 10
292.1272037348
 20
237.7094004401
 40
1.0
100
AcDbArc
 50
0.0
 51
59.9999999453
  0
ARC
  5
4FE
100
AcDbEntity
  8
RUNDUNGEN
100
AcDbCircle
 62
7
  6
CONTINUOUS
 10
291.3772037348
 20
278.7785912878
 40
10.0
100
AcDbArc
 50
141.3496599188
 51
180.0021471866
  0
ARC
  5
4FF
100
AcDbEntity
  8
RUNDUNGEN
100
AcDbCircle
 62
7
  6
CONTINUOUS
 10
299.6272037348
 20
276.286011093
 40
18.0
100
AcDbArc
 50
109.9981768204
 51
141.3486575078
  0
ARC
  5
500
100
AcDbEntity
  8
0
100
AcDbCircle
 62
7
  6
CONTINUOUS
 10
299.6272037348
 20
276.2858126769
 40
18.0
100
AcDbArc
 50
38.6551261334
 51
131.9058126801
  0
ARC
  5
501
100
AcDbEntity
  8
RUNDUNGEN
100
AcDbCircle
 62
7
  6
CONTINUOUS
 10
961.9388907271
 20
33.5251404011
 40
655.536465285
100
AcDbArc
 50
171.2203426199
 51
171.3458484448
  0
ARC
  5
502
100
AcDbEntity
  8
RUNDUNGEN
100
AcDbCircle
 62
7
  6
CONTINUOUS
 10
319.156298169
 20
75.8656816832
 40
9.5158134866
100
AcDbArc
 50
172.383337859
 51
172.9999415474
  0
ARC
  5
503
100
AcDbEntity
  8
RUNDUNGEN
100
AcDbCircle
 62
7
  6
CONTINUOUS
 10
317.4308644664
 20
76.2687038625
 40
7.7416025071
100
AcDbArc
 50
162.4257112859
 51
162.7973122414
  0
ARC
  5
504
100
AcDbEntity
  8
RUNDUNGEN
100
AcDbCircle
 62
7
  6
CONTINUOUS
 10
304.6272037348
 20
64.4950868885
 40
5.0
100
AcDbArc
 50
270.0
 51
360.0
  0
ARC
  5
505
100
AcDbEntity
  8
0
100
AcDbCircle
 62
7
  6
CONTINUOUS
 10
1104.545519162
 20
175.1605080212
 40
822.2696451866
100
AcDbArc
 50
181.2997192941
 51
181.9450049209
  0
ARC
  5
506
100
AcDbEntity
  8
0
100
AcDbCircle
 62
7
  6
CONTINUOUS
 10
307.8772037348
 20
278.7789399136
 40
10.0
100
AcDbArc
 50
359.9978528134
 51
38.653360806
  0
ARC
  5
507
100
AcDbEntity
  8
RUNDUNGEN
100
AcDbCircle
 62
7
  6
CONTINUOUS
 10
312.6272037348
 20
230.5874549112
 40
5.0
100
AcDbArc
 50
0.0
 51
90.0
  0
ARC
  5
508
100
AcDbEntity
  8
0
100
AcDbCircle
 62
7
  6
CONTINUOUS
 10
304.1271830004
 20
199.8575770807
 40
2.000023549
100
AcDbArc
 50
0.0005939899
 51
89.9994060101
  0
ARC
  5
509
100
AcDbEntity
  8
0
100
AcDbCircle
 62
7
  6
CONTINUOUS
 10
304.1271991948
 20
189.6279223675
 40
2.0000084128
100
AcDbArc
 50
270.0001300615
 51
359.9989246994
  0
ARC
  5
50A
100
AcDbEntity
  8
0
100
AcDbCircle
 62
7
  6
CONTINUOUS
 10
307.1272037348
 20
237.7094004401
 40
1.0
100
AcDbArc
 50
120.0000000547
 51
180.0
  0
ARC
  5
50B
100
AcDbEntity
  8
0
100
AcDbCircle
 62
7
  6
CONTINUOUS
 10
316.8772037348
 20
245.6479667649
 40
1.0
100
AcDbArc
 50
299.999996019
 51
359.9999919286
  0
ARC
  5
50C
100
AcDbEntity
  8
RUNDUNGEN
100
AcDbCircle
 62
7
  6
CONTINUOUS
 10
88.5914632895
 20
16.7508654665
 40
9.0013537478
100
AcDbArc
 50
269.1790093779
 51
270.000016027
  0
ARC
  5
50D
100
AcDbEntity
  8
0
100
AcDbCircle
 62
7
  6
CONTINUOUS
 10
111.7237531851
 20
9.4995117187
 40
2.0
100
AcDbArc
 50
180.0
 51
270.0
  0
ARC
  5
50E
100
AcDbEntity
  8
0
100
AcDbCircle
 62
7
  6
CONTINUOUS
 10
87.9074334908
 20
21.249472377
 40
1.9999606582
100
AcDbArc
 50
180.0087917499
 51
270.0002104751
  0
ARC
  5
50F
100
AcDbEntity
  8
0
100
AcDbCircle
 62
7
  6
CONTINUOUS
 10
131.8736472429
 20
14.471303614
 40
1.5
100
AcDbArc
 50
281.6929419016
 51
360.0
  0
ARC
  5
510
100
AcDbEntity
  8
0
100
AcDbCircle
 62
7
  6
CONTINUOUS
 10
131.8742601543
 20
8.9995117187
 40
1.5
100
AcDbArc
 50
270.0000120699
 51
0.0000260362
  0
ARC
  5
511
100
AcDbEntity
  8
0
100
AcDbCircle
 62
7
  6
CONTINUOUS
 10
118.7448204688
 20
8.9995117187
 40
1.499992678
100
AcDbArc
 50
269.9988846498
 51
303.5563802298
  0
ARC
  5
512
100
AcDbEntity
  8
0
100
AcDbCircle
 62
7
  6
CONTINUOUS
 10
88.5914632895
 20
34.748157971
 40
9.0013537478
100
AcDbArc
 50
89.999983973
 51
90.8209906221
  0
ARC
  5
513
100
AcDbEntity
  8
RUNDUNGEN
100
AcDbCircle
 62
7
  6
CONTINUOUS
 10
87.9074607425
 20
30.2494918139
 40
2.0000226663
100
AcDbArc
 50
90.000570225
 51
179.9994297749
  0
ARC
  5
514
100
AcDbEntity
  8
RUNDUNGEN
100
AcDbCircle
 62
7
  6
CONTINUOUS
 10
111.7237531851
 20
41.9995117187
 40
2.0
100
AcDbArc
 50
90.0
 51
180.0
  0
ARC
  5
515
100
AcDbEntity
  8
RUNDUNGEN
100
AcDbCircle
 62
7
  6
CONTINUOUS
 10
131.874553213
 20
42.4995117187
 40
1.5
100
AcDbArc
 50
0.0
 51
90.0
  0
ARC
  5
516
100
AcDbEntity
  8
RUNDUNGEN
100
AcDbCircle
 62
7
  6
CONTINUOUS
 10
131.8736472429
 20
37.0277198235
 40
1.5
100
AcDbArc
 50
0.0
 51
78.3070580984
  0
ARC
  5
517
100
AcDbEntity
  8
RUNDUNGEN
100
AcDbCircle
 62
7
  6
CONTINUOUS
 10
118.7448204688
 20
42.4995117187
 40
1.499992678
100
AcDbArc
 50
56.4436197702
 51
90.0011153502
  0
ARC
  5
518
100
AcDbEntity
  8
0
100
AcDbCircle
 62
7
  6
CONTINUOUS
 10
139.4736472261
 20
-22.2504882813
 40
36.0
100
AcDbArc
 50
56.4523625523
 51
78.3070580987
  0
ARC
  5
519
100
AcDbEntity
  8
0
100
AcDbCircle
 62
7
  6
CONTINUOUS
 10
139.4736472261
 20
-22.2504882813
 40
36.0
100
AcDbArc
 50
101.6929419013
 51
123.5572555568
  0
ARC
  5
51A
100
AcDbEntity
  8
0
100
AcDbCircle
 62
7
  6
CONTINUOUS
 10
147.0742601214
 20
8.9995117187
 40
1.5
100
AcDbArc
 50
179.9999885779
 51
269.9999857263
  0
ARC
  5
51B
100
AcDbEntity
  8
0
100
AcDbCircle
 62
7
  6
CONTINUOUS
 10
147.0736472094
 20
14.471303614
 40
1.5
100
AcDbArc
 50
180.0
 51
258.3070580987
  0
ARC
  5
51C
100
AcDbEntity
  8
0
100
AcDbCircle
 62
7
  6
CONTINUOUS
 10
168.4739226152
 20
9.4995117187
 40
2.0
100
AcDbArc
 50
270.0
 51
360.0
  0
ARC
  5
51D
100
AcDbEntity
  8
0
100
AcDbCircle
 62
7
  6
CONTINUOUS
 10
160.2025681776
 20
8.9995118424
 40
1.5000000008
100
AcDbArc
 50
236.4426976884
 51
270.0000057373
  0
ARC
  5
51E
100
AcDbEntity
  8
RUNDUNGEN
100
AcDbCircle
 62
7
  6
CONTINUOUS
 10
160.2025681776
 20
42.4995115951
 40
1.5000000008
100
AcDbArc
 50
89.9999942627
 51
123.5573023116
  0
ARC
  5
51F
100
AcDbEntity
  8
RUNDUNGEN
100
AcDbCircle
 62
7
  6
CONTINUOUS
 10
147.0742601214
 20
42.4995117187
 40
1.5
100
AcDbArc
 50
90.0000142737
 51
180.0000114221
  0
ARC
  5
520
100
AcDbEntity
  8
RUNDUNGEN
100
AcDbCircle
 62
7
  6
CONTINUOUS
 10
147.0736472094
 20
37.0277198235
 40
1.5
100
AcDbArc
 50
101.6929419016
 51
180.0
  0
ARC
  5
521
100
AcDbEntity
  8
RUNDUNGEN
100
AcDbCircle
 62
7
  6
CONTINUOUS
 10
139.4736472261
 20
73.7495117187
 40
36.0
100
AcDbArc
 50
281.6929419013
 51
303.5476374477
  0
ARC
  5
522
100
AcDbEntity
  8
RUNDUNGEN
100
AcDbCircle
 62
7
  6
CONTINUOUS
 10
139.4736472261
 20
73.7495117187
 40
36.0
100
AcDbArc
 50
236.4427444432
 51
258.3070580987
  0
ARC
  5
523
100
AcDbEntity
  8
0
100
AcDbCircle
 62
7
  6
CONTINUOUS
 10
139.4736472261
 20
73.7495117187
 40
36.0
100
AcDbArc
 50
236.452384432
 51
258.3070580987
  0
ARC
  5
524
100
AcDbEntity
  8
KONSTRUKTIONSELEMENTE
100
AcDbCircle
 62
7
  6
CONTINUOUS
 10
139.4736472261
 20
73.7495117187
 40
36.0
100
AcDbArc
 50
281.6929419013
 51
303.547615568
  0
ARC
  5
525
100
AcDbEntity
  8
RUNDUNGEN
100
AcDbCircle
 62
7
  6
CONTINUOUS
 10
168.4739226152
 20
41.9995117187
 40
2.0
100
AcDbArc
 50
0.0
 51
90.0
  0
ARC
  5
526
100
AcDbEntity
  8
0
100
AcDbCircle
 62
7
  6
CONTINUOUS
 10
189.3885900778
 20
77.7804850014
 40
62.5309817858
100
AcDbArc
 50
269.7872942706
 51
269.9701200046
  0
SPLINE
  5
527
100
AcDbEntity
  8
RUNDUNGEN
100
AcDbSpline
 62
7
  6
CONTINUOUS
 70
0
 71
3
 72
8
 73
4
 74
0
 42
0.0000001
 43
0.0000001
 44
0.0000000001
 40
0.0
 40
0.0
 40
0.0
 40
0.0
 40
1.0
 40
1.0
 40
1.0
 40
1.0
 10
83.0874553769
 20
156.7183378721
 30
0.0
 10
86.6988921344
 20
153.4848869348
 30
0.0
 10
90.3659289181
 20
150.3103023757
 30
0.0
 10
94.1272445493
 20
147.252495132
 30
0.0
  0
SPLINE
  5
528
100
AcDbEntity
  8
RUNDUNGEN
100
AcDbSpline
 62
7
  6
CONTINUOUS
 70
0
 71
3
 72
9
 73
5
 74
0
 42
0.0000001
 43
0.0000001
 44
0.0000000001
 40
0.0
 40
0.0
 40
0.0
 40
0.0
 40
0.5022620947
 40
1.0
 40
1.0
 40
1.0
 40
1.0
 10
83.0874553769
 20
156.7183378721
 30
0.0
 10
83.0417046662
 20
156.75925451
 30
0.0
 10
82.9409738039
 20
156.8311348926
 30
0.0
 10
82.8170266847
 20
156.8619401675
 30
0.0
 10
82.7562536111
 20
156.8594164524
 30
0.0
  0
SPLINE
  5
529
100
AcDbEntity
  8
RUNDUNGEN
100
AcDbSpline
 62
7
  6
CONTINUOUS
 70
0
 71
3
 72
9
 73
5
 74
0
 42
0.0000001
 43
0.0000001
 44
0.0000000001
 40
0.0
 40
0.0
 40
0.0
 40
0.0
 40
0.5085216686
 40
1.0
 40
1.0
 40
1.0
 40
1.0
 10
100.2184116417
 20
100.3567121749
 30
0.0
 10
100.3852297544
 20
100.1535081573
 30
0.0
 10
100.7021316529
 20
99.7448355995
 30
0.0
 10
101.010985992
 20
99.3302079659
 30
0.0
 10
101.1600381596
 20
99.1244215207
 30
0.0
  0
SPLINE
  5
52A
100
AcDbEntity
  8
RUNDUNGEN
100
AcDbSpline
 62
7
  6
CONTINUOUS
 70
0
 71
3
 72
11
 73
7
 74
0
 42
0.0000001
 43
0.0000001
 44
0.0000000001
 40
0.0
 40
0.0
 40
0.0
 40
0.0
 40
0.2513088263
 40
0.4998661897
 40
0.7482286437
 40
1.0
 40
1.0
 40
1.0
 40
1.0
 10
93.3563921855
 20
111.1428641639
 30
0.0
 10
93.4275484766
 20
110.9972852155
 30
0.0
 10
93.5705378359
 20
110.7083683773
 30
0.0
 10
93.801410251
 20
110.2846709425
 30
0.0
 10
94.0390034788
 20
109.864427626
 30
0.0
 10
94.1881840717
 20
109.5784668691
 30
0.0
 10
94.2622786
 20
109.4340259228
 30
0.0
  0
SPLINE
  5
52B
100
AcDbEntity
  8
RUNDUNGEN
100
AcDbSpline
 62
7
  6
CONTINUOUS
 70
0
 71
3
 72
9
 73
5
 74
0
 42
0.0000001
 43
0.0000001
 44
0.0000000001
 40
0.0
 40
0.0
 40
0.0
 40
0.0
 40
0.2450356294
 40
1.0
 40
1.0
 40
1.0
 40
1.0
 10
93.3563921855
 20
111.1428641639
 30
0.0
 10
93.3127189841
 20
111.2580243218
 30
0.0
 10
93.1334991054
 20
111.7276031627
 30
0.0
 10
92.9476363993
 20
112.194801644
 30
0.0
 10
92.7976008546
 20
112.543352432
 30
0.0
  0
SPLINE
  5
52C
100
AcDbEntity
  8
RUNDUNGEN
100
AcDbSpline
 62
7
  6
CONTINUOUS
 70
0
 71
3
 72
21
 73
17
 74
0
 42
0.0000001
 43
0.0000001
 44
0.0000000001
 40
0.0
 40
0.0
 40
0.0
 40
0.0
 40
0.1234289795
 40
0.2471172115
 40
0.3711094525
 40
0.4954486556
 40
0.5577744835
 40
0.6202090339
 40
0.6827634381
 40
0.7454548847
 40
0.8083146914
 40
0.871412301
 40
0.9031635101
 40
0.9351388507
 40
0.9674317978
 40
1.0
 40
1.0
 40
1.0
 40
1.0
 10
91.4160332003
 20
143.9746088334
 30
0.0
 10
91.4803584691
 20
144.1502038416
 30
0.0
 10
91.618343384
 20
144.4984736908
 30
0.0
 10
91.8532847532
 20
145.0096021399
 30
0.0
 10
92.117451699
 20
145.50786042
 30
0.0
 10
92.3635287833
 20
145.9095473844
 30
0.0
 10
92.5780463826
 20
146.2201631284
 30
0.0
 10
92.7488990966
 20
146.4468936634
 30
0.0
 10
92.9308749978
 20
146.6655487654
 30
0.0
 10
93.1260588624
 20
146.8735655589
 30
0.0
 10
93.3378095644
 20
147.0659416155
 30
0.0
 10
93.5332457351
 20
147.2056002588
 30
0.0
 10
93.7064088326
 20
147.290196468
 30
0.0
 10
93.847156214
 20
147.3310208923
 30
0.0
 10
93.9974278255
 20
147.3296854459
 30
0.0
 10
94.088956776
 20
147.2836216431
 30
0.0
 10
94.1272445494
 20
147.2524951324
 30
0.0
  0
LINE
  5
52D
100
AcDbEntity
  8
RUNDUNGEN
100
AcDbLine
 62
7
  6
CONTINUOUS
 10
316.2424162135
 20
147.5839575564
 11
316.2386111092
 21
147.5573991567
  0
SPLINE
  5
52E
100
AcDbEntity
  8
RUNDUNGEN
100
AcDbSpline
 62
7
  6
CONTINUOUS
 70
0
 71
3
 72
9
 73
5
 74
0
 42
0.0000001
 43
0.0000001
 44
0.0000000001
 40
0.0
 40
0.0
 40
0.0
 40
0.0
 40
0.2425217638
 40
1.0
 40
1.0
 40
1.0
 40
1.0
 10
316.2386111092
 20
147.5573991567
 30
0.0
 10
316.1119205739
 20
146.6734117338
 30
0.0
 10
315.5738530846
 20
143.0306684342
 30
0.0
 10
314.9937941069
 20
139.3943460833
 30
0.0
 10
314.5604935869
 20
136.6390026352
 30
0.0
  0
LINE
  5
52F
100
AcDbEntity
  8
RUNDUNGEN
100
AcDbLine
 62
7
  6
CONTINUOUS
 10
314.5604935869
 20
136.6390026352
 11
314.4782552029
 21
136.115577718
  0
SPLINE
  5
530
100
AcDbEntity
  8
RUNDUNGEN
100
AcDbSpline
 62
7
  6
CONTINUOUS
 70
0
 71
3
 72
9
 73
5
 74
0
 42
0.0000001
 43
0.0000001
 44
0.0000000001
 40
0.0
 40
0.0
 40
0.0
 40
0.0
 40
0.249493786
 40
1.0
 40
1.0
 40
1.0
 40
1.0
 10
314.4782552029
 20
136.115577718
 30
0.0
 10
314.4568217547
 20
135.9790243068
 30
0.0
 10
314.3709847141
 20
135.4316913268
 30
0.0
 10
314.2854832028
 20
134.8843056606
 30
0.0
 10
314.2215908262
 20
134.473446263
 30
0.0
  0
SPLINE
  5
531
100
AcDbEntity
  8
RUNDUNGEN
100
AcDbSpline
 62
7
  6
CONTINUOUS
 70
0
 71
3
 72
8
 73
4
 74
0
 42
0.0000001
 43
0.0000001
 44
0.0000000001
 40
0.0
 40
0.0
 40
0.0
 40
0.0
 40
1.0
 40
1.0
 40
1.0
 40
1.0
 10
314.2215908262
 20
134.473446263
 30
0.0
 10
314.1754330851
 20
134.176629292
 30
0.0
 10
314.1294199964
 20
133.8797897722
 30
0.0
 10
314.0835847416
 20
133.582922831
 30
0.0
  0
SPLINE
  5
532
100
AcDbEntity
  8
RUNDUNGEN
100
AcDbSpline
 62
7
  6
CONTINUOUS
 70
0
 71
3
 72
8
 73
4
 74
0
 42
0.0000001
 43
0.0000001
 44
0.0000000001
 40
0.0
 40
0.0
 40
0.0
 40
0.0
 40
1.0
 40
1.0
 40
1.0
 40
1.0
 10
313.8659636415
 20
132.1635634267
 30
0.0
 10
313.8161795772
 20
131.8363696395
 30
0.0
 10
313.7666750761
 20
131.5091331527
 30
0.0
 10
313.7174941962
 20
131.1818481569
 30
0.0
  0
LINE
  5
533
100
AcDbEntity
  8
RUNDUNGEN
100
AcDbLine
 62
7
  6
CONTINUOUS
 10
313.7174941962
 20
131.1818481569
 11
313.6710081356
 21
130.8718284286
  0
LINE
  5
534
100
AcDbEntity
  8
RUNDUNGEN
100
AcDbLine
 62
7
  6
CONTINUOUS
 10
313.6710081356
 20
130.8718284286
 11
313.650994479
 21
130.7379332439
  0
LINE
  5
535
100
AcDbEntity
  8
RUNDUNGEN
100
AcDbLine
 62
7
  6
CONTINUOUS
 10
313.650994479
 20
130.7379332439
 11
313.6284858692
 21
130.5870320024
  0
LINE
  5
536
100
AcDbEntity
  8
RUNDUNGEN
100
AcDbLine
 62
7
  6
CONTINUOUS
 10
313.6284858692
 20
130.5870320024
 11
313.5994442488
 21
130.3918272829
  0
SPLINE
  5
537
100
AcDbEntity
  8
0
100
AcDbSpline
 62
7
  6
CONTINUOUS
 70
0
 71
3
 72
9
 73
5
 74
0
 42
0.0000001
 43
0.0000001
 44
0.0000000001
 40
0.0
 40
0.0
 40
0.0
 40
0.0
 40
0.2476722627
 40
1.0
 40
1.0
 40
1.0
 40
1.0
 10
289.6271827379
 20
75.5804682649
 30
0.0
 10
289.6269754693
 20
75.6999954537
 30
0.0
 10
289.619849651
 20
76.1825254051
 30
0.0
 10
289.587252
 20
76.6650094524
 30
0.0
 10
289.5429921734
 20
77.0253772603
 30
0.0
  0
SPLINE
  5
538
100
AcDbEntity
  8
0
100
AcDbSpline
 62
7
  6
CONTINUOUS
 70
0
 71
3
 72
9
 73
5
 74
0
 42
0.0000001
 43
0.0000001
 44
0.0000000001
 40
0.0
 40
0.0
 40
0.0
 40
0.0
 40
0.2536250454
 40
1.0
 40
1.0
 40
1.0
 40
1.0
 10
289.5299651165
 20
77.1269517492
 30
0.0
 10
289.5135370402
 20
77.2497715642
 30
0.0
 10
289.4391039932
 20
77.7326512543
 30
0.0
 10
289.3266714338
 20
78.2099622083
 30
0.0
 10
289.2188209687
 20
78.5583049608
 30
0.0
  0
SPLINE
  5
539
100
AcDbEntity
  8
RUNDUNGEN
100
AcDbSpline
 62
7
  6
CONTINUOUS
 70
0
 71
3
 72
11
 73
7
 74
0
 42
0.0000001
 43
0.0000001
 44
0.0000000001
 40
0.0
 40
0.0
 40
0.0
 40
0.0
 40
0.2067804111
 40
0.4501769914
 40
0.7188189764
 40
1.0
 40
1.0
 40
1.0
 40
1.0
 10
313.1220240712
 20
95.5382497017
 30
0.0
 10
313.3535698259
 20
98.1077238554
 30
0.0
 10
313.7934038205
 20
103.7073937515
 30
0.0
 10
314.3996041286
 20
112.6552222283
 30
0.0
 10
315.0103828754
 20
122.5329655014
 30
0.0
 10
315.4170405661
 20
129.380736937
 30
0.0
 10
315.6256750585
 20
132.882669012
 30
0.0
  0
SPLINE
  5
53A
100
AcDbEntity
  8
0
100
AcDbSpline
 62
7
  6
CONTINUOUS
 70
0
 71
3
 72
9
 73
5
 74
0
 42
0.0000001
 43
0.0000001
 44
0.0000000001
 40
0.0
 40
0.0
 40
0.0
 40
0.0
 40
0.251172307
 40
1.0
 40
1.0
 40
1.0
 40
1.0
 10
283.6272038787
 20
132.9083252422
 30
0.0
 10
283.5899620856
 20
133.5334192827
 30
0.0
 10
283.4416032599
 20
136.0221201025
 30
0.0
 10
283.29246234
 20
138.5107747113
 30
0.0
 10
283.1795433193
 20
140.374273224
 30
0.0
  0
SPLINE
  5
53B
100
AcDbEntity
  8
RUNDUNGEN
100
AcDbSpline
 62
7
  6
CONTINUOUS
 70
0
 71
3
 72
9
 73
5
 74
0
 42
0.0000001
 43
0.0000001
 44
0.0000000001
 40
0.0
 40
0.0
 40
0.0
 40
0.0
 40
0.2476722627
 40
1.0
 40
1.0
 40
1.0
 40
1.0
 10
309.6272247316
 20
75.5804682649
 30
0.0
 10
309.6274320002
 20
75.6999954537
 30
0.0
 10
309.6345578185
 20
76.1825254051
 30
0.0
 10
309.6671554696
 20
76.6650094524
 30
0.0
 10
309.7114152962
 20
77.0253772603
 30
0.0
  0
SPLINE
  5
53C
100
AcDbEntity
  8
RUNDUNGEN
100
AcDbSpline
 62
7
  6
CONTINUOUS
 70
0
 71
3
 72
9
 73
5
 74
0
 42
0.0000001
 43
0.0000001
 44
0.0000000001
 40
0.0
 40
0.0
 40
0.0
 40
0.0
 40
0.2536250454
 40
1.0
 40
1.0
 40
1.0
 40
1.0
 10
309.724442353
 20
77.1269517492
 30
0.0
 10
309.7408704293
 20
77.2497715642
 30
0.0
 10
309.8153034764
 20
77.7326512543
 30
0.0
 10
309.9277360357
 20
78.2099622083
 30
0.0
 10
310.0355865008
 20
78.5583049608
 30
0.0
  0
SPLINE
  5
53D
100
AcDbEntity
  8
RUNDUNGEN
100
AcDbSpline
 62
7
  6
CONTINUOUS
 70
0
 71
3
 72
9
 73
5
 74
0
 42
0.0000001
 43
0.0000001
 44
0.0000000001
 40
0.0
 40
0.0
 40
0.0
 40
0.0
 40
0.251172307
 40
1.0
 40
1.0
 40
1.0
 40
1.0
 10
315.6272035909
 20
132.9083252422
 30
0.0
 10
315.664445384
 20
133.5334192827
 30
0.0
 10
315.8128042097
 20
136.0221201025
 30
0.0
 10
315.9619451296
 20
138.5107747113
 30
0.0
 10
316.0748641503
 20
140.374273224
 30
0.0
  0
LINE
  5
53E
100
AcDbEntity
  8
0
100
AcDbLine
 62
7
  6
CONTINUOUS
 10
283.011991256
 20
147.5839575564
 11
283.0157963603
 21
147.5573991567
  0
SPLINE
  5
53F
100
AcDbEntity
  8
0
100
AcDbSpline
 62
7
  6
CONTINUOUS
 70
0
 71
3
 72
9
 73
5
 74
0
 42
0.0000001
 43
0.0000001
 44
0.0000000001
 40
0.0
 40
0.0
 40
0.0
 40
0.0
 40
0.2425050625
 40
1.0
 40
1.0
 40
1.0
 40
1.0
 10
283.0157963603
 20
147.5573991567
 30
0.0
 10
283.1429331519
 20
146.670297966
 30
0.0
 10
283.6829882014
 20
143.0144795468
 30
0.0
 10
284.2652632857
 20
139.3651184501
 30
0.0
 10
284.7000768892
 20
136.5998098592
 30
0.0
  0
LINE
  5
540
100
AcDbEntity
  8
0
100
AcDbLine
 62
7
  6
CONTINUOUS
 10
284.7000768892
 20
136.5998098592
 11
284.7882936923
 21
136.0382117162
  0
SPLINE
  5
541
100
AcDbEntity
  8
0
100
AcDbSpline
 62
7
  6
CONTINUOUS
 70
0
 71
3
 72
9
 73
5
 74
0
 42
0.0000001
 43
0.0000001
 44
0.0000000001
 40
0.0
 40
0.0
 40
0.0
 40
0.0
 40
0.2495051229
 40
1.0
 40
1.0
 40
1.0
 40
1.0
 10
284.7882936923
 20
136.0382117162
 30
0.0
 10
284.8094424814
 20
135.9034282108
 30
0.0
 10
284.8941341395
 20
135.3632136771
 30
0.0
 10
284.9784900605
 20
134.8229464445
 30
0.0
 10
285.0415249629
 20
134.4174361249
 30
0.0
  0
SPLINE
  5
542
100
AcDbEntity
  8
0
100
AcDbSpline
 62
7
  6
CONTINUOUS
 70
0
 71
3
 72
8
 73
4
 74
0
 42
0.0000001
 43
0.0000001
 44
0.0000000001
 40
0.0
 40
0.0
 40
0.0
 40
0.0
 40
1.0
 40
1.0
 40
1.0
 40
1.0
 10
285.0415249629
 20
134.4174361249
 30
0.0
 10
285.0879419243
 20
134.1188308109
 30
0.0
 10
285.134210369
 20
133.8202023542
 30
0.0
 10
285.1802965288
 20
133.521545806
 30
0.0
  0
SPLINE
  5
543
100
AcDbEntity
  8
0
100
AcDbSpline
 62
7
  6
CONTINUOUS
 70
0
 71
3
 72
8
 73
4
 74
0
 42
0.0000001
 43
0.0000001
 44
0.0000000001
 40
0.0
 40
0.0
 40
0.0
 40
0.0
 40
1.0
 40
1.0
 40
1.0
 40
1.0
 10
285.4005251987
 20
132.0841244279
 30
0.0
 10
285.449946166
 20
131.7590127253
 30
0.0
 10
285.4990876144
 20
131.4338583697
 30
0.0
 10
285.547906318
 20
131.1086556862
 30
0.0
  0
LINE
  5
544
100
AcDbEntity
  8
0
100
AcDbLine
 62
7
  6
CONTINUOUS
 10
285.547906318
 20
131.1086556862
 11
285.583493319
 21
130.8712002556
  0
LINE
  5
545
100
AcDbEntity
  8
0
100
AcDbLine
 62
7
  6
CONTINUOUS
 10
285.583493319
 20
130.8712002556
 11
285.6034129906
 21
130.7379332439
  0
LINE
  5
546
100
AcDbEntity
  8
0
100
AcDbLine
 62
7
  6
CONTINUOUS
 10
285.6034129906
 20
130.7379332439
 11
285.6259216004
 21
130.5870320024
  0
LINE
  5
547
100
AcDbEntity
  8
0
100
AcDbLine
 62
7
  6
CONTINUOUS
 10
285.6259216004
 20
130.5870320024
 11
285.6565200683
 21
130.3813464579
  0
SPLINE
  5
548
100
AcDbEntity
  8
0
100
AcDbSpline
 62
7
  6
CONTINUOUS
 70
0
 71
3
 72
11
 73
7
 74
0
 42
0.0000001
 43
0.0000001
 44
0.0000000001
 40
0.0
 40
0.0
 40
0.0
 40
0.0
 40
0.2067802564
 40
0.4501771302
 40
0.7188193537
 40
1.0
 40
1.0
 40
1.0
 40
1.0
 10
286.1323833984
 20
95.5382497017
 30
0.0
 10
285.9008322108
 20
98.1077841436
 30
0.0
 10
285.4609887631
 20
103.707591458
 30
0.0
 10
284.8547760516
 20
112.6556414436
 30
0.0
 10
284.2439847107
 20
122.5336259413
 30
0.0
 10
283.8373178945
 20
129.3815614783
 30
0.0
 10
283.6286785163
 20
132.8835736348
 30
0.0
  0
SPLINE
  5
549
100
AcDbEntity
  8
RUNDUNGEN
100
AcDbSpline
 62
7
  6
CONTINUOUS
 70
0
 71
3
 72
20
 73
16
 74
0
 42
0.0000001
 43
0.0000001
 44
0.0000000001
 40
0.0
 40
0.0
 40
0.0
 40
0.0
 40
0.1667990818
 40
0.3282381124
 40
0.4827972322
 40
0.6279429318
 40
0.7589650632
 40
0.8163928159
 40
0.8656859651
 40
0.9031979773
 40
0.9245967795
 40
0.9334538098
 40
0.9478733501
 40
0.9702297382
 40
1.0
 40
1.0
 40
1.0
 40
1.0
 10
316.0751177801
 20
146.4394905136
 30
0.0
 10
316.0969088174
 20
146.4946885858
 30
0.0
 10
316.1400131868
 20
146.6032261728
 30
0.0
 10
316.204351897
 20
146.7624804151
 30
0.0
 10
316.2671815705
 20
146.9140836113
 30
0.0
 10
316.3277886296
 20
147.0547017855
 30
0.0
 10
316.3776603474
 20
147.1628136104
 30
0.0
 10
316.4158360212
 20
147.2376460522
 30
0.0
 10
316.4425082324
 20
147.2831356091
 30
0.0
 10
316.4623170459
 20
147.3121790808
 30
0.0
 10
316.4852970693
 20
147.3326608127
 30
0.0
 10
316.4992714215
 20
147.3213635072
 30
0.0
 10
316.5029520511
 20
147.3051397717
 30
0.0
 10
316.5054222288
 20
147.2817111993
 30
0.0
 10
316.5051663229
 20
147.2630802729
 30
0.0
 10
316.5047949661
 20
147.2524951324
 30
0.0
  0
LINE
  5
54A
100
AcDbEntity
  8
0
100
AcDbLine
 62
7
  6
CONTINUOUS
 10
282.4826477005
 20
156.7183378721
 11
282.4874271303
 21
156.5094297559
  0
SPLINE
  5
54B
100
AcDbEntity
  8
0
100
AcDbSpline
 62
7
  6
CONTINUOUS
 70
0
 71
3
 72
12
 73
8
 74
0
 42
0.0000001
 43
0.0000001
 44
0.0000000001
 40
0.0
 40
0.0
 40
0.0
 40
0.0
 40
0.3899317093
 40
0.7021568999
 40
0.8212570847
 40
0.9111098097
 40
1.0
 40
1.0
 40
1.0
 40
1.0
 10
282.4826477005
 20
156.7183378721
 30
0.0
 10
282.4822170717
 20
156.7373686891
 30
0.0
 10
282.4821003475
 20
156.7717618404
 30
0.0
 10
282.4832997739
 20
156.8115203379
 30
0.0
 10
282.4873831169
 20
156.8372780128
 30
0.0
 10
282.4894138625
 20
156.8503935566
 30
0.0
 10
282.4968315129
 20
156.8607281639
 30
0.0
 10
282.5009679568
 20
156.8594164524
 30
0.0
  0
LINE
  5
54C
100
AcDbEntity
  8
RUNDUNGEN
100
AcDbLine
 62
7
  6
CONTINUOUS
 10
316.7717597691
 20
156.7183378721
 11
316.7669802753
 21
156.5094269699
  0
SPLINE
  5
54D
100
AcDbEntity
  8
RUNDUNGEN
100
AcDbSpline
 62
7
  6
CONTINUOUS
 70
0
 71
3
 72
12
 73
8
 74
0
 42
0.0000001
 43
0.0000001
 44
0.0000000001
 40
0.0
 40
0.0
 40
0.0
 40
0.0
 40
0.3899317093
 40
0.7021568999
 40
0.8212570847
 40
0.9111098097
 40
1.0
 40
1.0
 40
1.0
 40
1.0
 10
316.7717597691
 20
156.7183378721
 30
0.0
 10
316.7721903979
 20
156.7373686891
 30
0.0
 10
316.7723071221
 20
156.7717618404
 30
0.0
 10
316.7711076956
 20
156.8115203379
 30
0.0
 10
316.7670243527
 20
156.8372780128
 30
0.0
 10
316.764993607
 20
156.8503935566
 30
0.0
 10
316.7575759567
 20
156.8607281639
 30
0.0
 10
316.7534395127
 20
156.8594164524
 30
0.0
  0
SPLINE
  5
54E
100
AcDbEntity
  8
0
100
AcDbSpline
 62
7
  6
CONTINUOUS
 70
0
 71
3
 72
20
 73
16
 74
0
 42
0.0000001
 43
0.0000001
 44
0.0000000001
 40
0.0
 40
0.0
 40
0.0
 40
0.0
 40
0.1668822032
 40
0.3283868967
 40
0.4829870078
 40
0.6281370168
 40
0.7591048279
 40
0.8164700516
 40
0.8656699473
 40
0.9030552319
 40
0.9243395791
 40
0.9332470995
 40
0.9477511976
 40
0.9701790781
 40
1.0
 40
1.0
 40
1.0
 40
1.0
 10
283.1773894193
 20
146.444303177
 30
0.0
 10
283.1556867468
 20
146.4992581739
 30
0.0
 10
283.1127574457
 20
146.6073121916
 30
0.0
 10
283.0486789957
 20
146.7658452369
 30
0.0
 10
282.9861046187
 20
146.9167344187
 30
0.0
 10
282.9257527148
 20
147.0566512723
 30
0.0
 10
282.8760837712
 20
147.1641734424
 30
0.0
 10
282.8380854422
 20
147.2385614089
 30
0.0
 10
282.81151248
 20
147.2836836616
 30
0.0
 10
282.7918788531
 20
147.3125312698
 30
0.0
 10
282.7688607413
 20
147.3326457543
 30
0.0
 10
282.7550897279
 20
147.32121655
 30
0.0
 10
282.7514366433
 20
147.3050318941
 30
0.0
 10
282.7489869279
 20
147.2816244372
 30
0.0
 10
282.7492423198
 20
147.2630468328
 30
0.0
 10
282.7496125035
 20
147.2524951324
 30
0.0
  0
ELLIPSE
  5
54F
100
AcDbEntity
  8
0
100
AcDbEllipse
 62
7
  6
CONTINUOUS
 10
189.5787575184
 20
19.5466457619
 30
0.0
 11
-0.5649419427
 21
5.5066236186
 31
0.0
 40
0.5954651126
 41
-3.8838895687
 42
-3.2026074754
  0
ELLIPSE
  5
550
100
AcDbEntity
  8
0
100
AcDbEllipse
 62
7
  6
CONTINUOUS
 10
192.3959747917
 20
19.5466457619
 30
0.0
 11
-1.6805509066
 21
5.4064316445
 31
0.0
 40
0.653618251
 41
-3.3420369156
 42
-2.6648667817
  0
ELLIPSE
  5
551
100
AcDbEntity
  8
0
100
AcDbEllipse
 62
7
  6
CONTINUOUS
 10
192.3959747917
 20
31.9523776756
 30
0.0
 11
1.6805509066
 21
5.4064316445
 31
0.0
 40
0.653618251
 41
-0.4767258719
 42
0.200444262
  0
ELLIPSE
  5
552
100
AcDbEntity
  8
0
100
AcDbEllipse
 62
7
  6
CONTINUOUS
 10
189.5787575184
 20
31.9523776756
 30
0.0
 11
0.5649419427
 21
5.5066236186
 31
0.0
 40
0.5954651126
 41
6.344200129
 42
7.0286895032
  0
ELLIPSE
  5
553
100
AcDbEntity
  8
0
100
AcDbEllipse
 62
7
  6
CONTINUOUS
 10
198.9506092822
 20
-336.4762672807
 30
0.0
 11
0.0
 21
373.2257789994
 31
0.0
 40
0.5608779527
 41
6.3511821948
 42
6.3520865558
  0
ELLIPSE
  5
554
100
AcDbEntity
  8
0
100
AcDbEllipse
 62
7
  6
CONTINUOUS
 10
208.739527036
 20
-336.4762672807
 30
0.0
 11
0.0
 21
373.2257789994
 31
0.0
 40
0.9418381785
 41
0.0689012486
 42
0.0695920705
  0
ELLIPSE
  5
555
100
AcDbEntity
  8
0
100
AcDbEllipse
 62
7
  6
CONTINUOUS
 10
749.9957889281
 20
-336.4762672807
 30
0.0
 11
8058.9681360599
 21
-0.0
 31
0.0
 40
0.0463118569
 41
1.6411495475
 42
1.6412794796
  0
ELLIPSE
  5
556
100
AcDbEntity
  8
0
100
AcDbEllipse
 62
7
  6
CONTINUOUS
 10
173.3935573886
 20
-336.4762672807
 30
0.0
 11
0.0
 21
373.2257789994
 31
0.0
 40
0.3288042604
 41
-0.0698823866
 42
-0.0692315929
  0
ELLIPSE
  5
557
100
AcDbEntity
  8
0
100
AcDbEllipse
 62
7
  6
CONTINUOUS
 10
192.9812182154
 20
-336.4762672807
 30
0.0
 11
0.0
 21
373.2257789994
 31
0.0
 40
0.3254792414
 41
6.3471582763
 42
6.3511821948
  0
ELLIPSE
  5
558
100
AcDbEntity
  8
0
100
AcDbEllipse
 62
7
  6
CONTINUOUS
 10
689.7963646119
 20
-336.4762672807
 30
0.0
 11
8058.9681360595
 21
-0.0
 31
0.0
 40
0.0463118569
 41
7.9165534936
 42
7.9168202834
  0
ELLIPSE
  5
559
100
AcDbEntity
  8
0
100
AcDbEllipse
 62
7
  6
CONTINUOUS
 10
689.7963646119
 20
-336.4762672807
 30
0.0
 11
8058.9681360595
 21
-0.0
 31
0.0
 40
0.0463118569
 41
1.6336513416
 42
1.6337986694
  0
ELLIPSE
  5
55A
100
AcDbEntity
  8
0
100
AcDbEllipse
 62
7
  6
CONTINUOUS
 10
189.7312189094
 20
-336.4762672807
 30
0.0
 11
0.0
 21
373.2257789994
 31
0.0
 40
0.3254792414
 41
6.3462274627
 42
6.3515925981
  0
ELLIPSE
  5
55B
100
AcDbEntity
  8
0
100
AcDbEllipse
 62
7
  6
CONTINUOUS
 10
184.8292718182
 20
-336.4762672807
 30
0.0
 11
0.0
 21
373.2257789994
 31
0.0
 40
0.133332349
 41
0.0684072909
 42
0.0695152607
  0
ELLIPSE
  5
55C
100
AcDbEntity
  8
0
100
AcDbEllipse
 62
7
  6
CONTINUOUS
 10
381.0227585652
 20
-336.4762672807
 30
0.0
 11
3316.6616097544
 21
-0.0
 31
0.0
 40
0.1125305572
 41
7.9127777388
 42
7.9135067418
  0
ELLIPSE
  5
55D
100
AcDbEntity
  8
0
100
AcDbEllipse
 62
7
  6
CONTINUOUS
 10
173.7826049605
 20
-336.4762672807
 30
0.0
 11
0.0
 21
373.2257789994
 31
0.0
 40
0.4279461177
 41
-0.0590316588
 42
-0.0584142307
  0
ELLIPSE
  5
55E
100
AcDbEntity
  8
0
100
AcDbEllipse
 62
7
  6
CONTINUOUS
 10
359.5955920843
 20
-336.4762672807
 30
0.0
 11
3316.6616097544
 21
-0.0
 31
0.0
 40
0.1125305572
 41
7.9061086937
 42
7.9068374373
  0
ELLIPSE
  5
55F
100
AcDbEntity
  8
0
100
AcDbEllipse
 62
7
  6
CONTINUOUS
 10
220.4018326105
 20
-336.4762672807
 30
0.0
 11
685.6714078825
 21
-0.0
 31
0.0
 40
0.5443216309
 41
7.9071836649
 42
7.9077273853
  0
ELLIPSE
  5
560
100
AcDbEntity
  8
0
100
AcDbEllipse
 62
7
  6
CONTINUOUS
 10
206.2196271126
 20
-336.4762672807
 30
0.0
 11
421.6684820685
 21
-0.0
 31
0.0
 40
0.8851166138
 41
7.9077273853
 42
7.9085509805
  0
ELLIPSE
  5
561
100
AcDbEntity
  8
0
100
AcDbEllipse
 62
7
  6
CONTINUOUS
 10
206.2196271126
 20
-336.4762672807
 30
0.0
 11
421.6684820685
 21
-0.0
 31
0.0
 40
0.8851166138
 41
1.6254124777
 42
1.6255303915
  0
ELLIPSE
  5
562
100
AcDbEntity
  8
0
100
AcDbEllipse
 62
7
  6
CONTINUOUS
 10
197.8538810193
 20
-336.4762672807
 30
0.0
 11
-0.0
 21
373.2257789994
 31
0.0
 40
0.7200698715
 41
6.3379193718
 42
6.3388581504
  0
ELLIPSE
  5
563
100
AcDbEntity
  8
0
100
AcDbEllipse
 62
7
  6
CONTINUOUS
 10
192.3028362444
 20
-336.4762672807
 30
0.0
 11
0.0
 21
373.2257789994
 31
0.0
 40
0.4527790378
 41
0.0556728433
 42
0.0568091902
  0
ELLIPSE
  5
564
100
AcDbEntity
  8
0
100
AcDbEllipse
 62
7
  6
CONTINUOUS
 10
188.3160916293
 20
-336.4762672807
 30
0.0
 11
0.0
 21
373.2257789994
 31
0.0
 40
0.264647412
 41
0.0568091902
 42
0.0576984832
  0
ELLIPSE
  5
565
100
AcDbEntity
  8
0
100
AcDbEllipse
 62
7
  6
CONTINUOUS
 10
190.5158492901
 20
-336.4762672807
 30
0.0
 11
0.0
 21
373.2257789994
 31
0.0
 40
0.204299321
 41
6.3259721416
 42
6.3301558057
  0
ELLIPSE
  5
566
100
AcDbEntity
  8
0
100
AcDbEllipse
 62
7
  6
CONTINUOUS
 10
195.9152018451
 20
-336.4762672807
 30
0.0
 11
0.0
 21
373.2257789994
 31
0.0
 40
0.5124084646
 41
6.3301558057
 42
6.3308556064
  0
ELLIPSE
  5
567
100
AcDbEntity
  8
0
100
AcDbEllipse
 62
7
  6
CONTINUOUS
 10
205.220464835
 20
-336.4762672807
 30
0.0
 11
386.5184303786
 21
-0.0
 31
0.0
 40
0.965609269
 41
7.9016519332
 42
7.9021706799
  0
ELLIPSE
  5
568
100
AcDbEntity
  8
0
100
AcDbEllipse
 62
7
  6
CONTINUOUS
 10
183.1545988034
 20
-336.4762672807
 30
0.0
 11
0.0
 21
373.2257789994
 31
0.0
 40
0.1426250284
 41
-0.0481792403
 42
-0.0475577197
  0
ELLIPSE
  5
569
100
AcDbEntity
  8
0
100
AcDbEllipse
 62
7
  6
CONTINUOUS
 10
219.786309938
 20
-336.4762672807
 30
0.0
 11
730.2868413482
 21
-0.0
 31
0.0
 40
0.511067375
 41
7.9013338065
 42
7.9030564977
  0
ELLIPSE
  5
56A
100
AcDbEntity
  8
0
100
AcDbEllipse
 62
7
  6
CONTINUOUS
 10
219.786309938
 20
-336.4762672807
 30
0.0
 11
730.2868413482
 21
-0.0
 31
0.0
 40
0.511067375
 41
7.903089413
 42
7.9039178231
  0
ELLIPSE
  5
56B
100
AcDbEntity
  8
0
100
AcDbEllipse
 62
7
  6
CONTINUOUS
 10
275.7286955579
 20
-336.4762672807
 30
0.0
 11
2131.8521211538
 21
-0.0
 31
0.0
 40
0.175071139
 41
7.8952517812
 42
7.8960442128
  0
ELLIPSE
  5
56C
100
AcDbEntity
  8
0
100
AcDbEllipse
 62
7
  6
CONTINUOUS
 10
275.7286955579
 20
-336.4762672807
 30
0.0
 11
2131.8521211538
 21
-0.0
 31
0.0
 40
0.175071139
 41
1.6128965584
 42
1.6129684358
  0
ELLIPSE
  5
56D
100
AcDbEntity
  8
0
100
AcDbEllipse
 62
7
  6
CONTINUOUS
 10
275.7286955579
 20
-336.4762672807
 30
0.0
 11
2131.8521211538
 21
-0.0
 31
0.0
 40
0.175071139
 41
7.8962317241
 42
7.8964507866
  0
ELLIPSE
  5
56E
100
AcDbEntity
  8
0
100
AcDbEllipse
 62
7
  6
CONTINUOUS
 10
275.7286955579
 20
-336.4762672807
 30
0.0
 11
2131.8521211538
 21
-0.0
 31
0.0
 40
0.175071139
 41
1.6132928429
 42
1.6139060158
  0
ELLIPSE
  5
56F
100
AcDbEntity
  8
0
100
AcDbEllipse
 62
7
  6
CONTINUOUS
 10
188.8278062458
 20
-336.4762672807
 30
0.0
 11
0.0
 21
373.2257789994
 31
0.0
 40
0.204299321
 41
0.0436087926
 42
0.0473521725
  0
ELLIPSE
  5
570
100
AcDbEntity
  8
0
100
AcDbEllipse
 62
7
  6
CONTINUOUS
 10
197.0241079891
 20
-336.4762672807
 30
0.0
 11
0.0
 21
373.2257789994
 31
0.0
 40
0.2610733104
 41
6.3782993012
 42
6.3797211104
  0
ELLIPSE
  5
571
100
AcDbEntity
  8
0
100
AcDbEllipse
 62
7
  6
CONTINUOUS
 10
210.8117887645
 20
-336.4762672807
 30
0.0
 11
0.0
 21
373.2257789994
 31
0.0
 40
0.6443442798
 41
0.0965358032
 42
0.0979069465
  0
ELLIPSE
  5
572
100
AcDbEntity
  8
0
100
AcDbEllipse
 62
7
  6
CONTINUOUS
 10
228.4954530703
 20
-336.4762672807
 30
0.0
 11
421.391832297
 21
-0.0
 31
0.0
 40
0.8856977055
 41
7.9518885805
 42
7.9526757504
  0
ELLIPSE
  5
573
100
AcDbEntity
  8
0
100
AcDbEllipse
 62
7
  6
CONTINUOUS
 10
264.6895438571
 20
-336.4762672807
 30
0.0
 11
788.7178412429
 21
-0.0
 31
0.0
 40
0.4732057011
 41
1.6694904432
 42
1.6704553164
  0
ELLIPSE
  5
574
100
AcDbEntity
  8
0
100
AcDbEllipse
 62
7
  6
CONTINUOUS
 10
230.9397505738
 20
-336.4762672807
 30
0.0
 11
1164.0255505377
 21
-0.0
 31
0.0
 40
0.3206336655
 41
7.8860301322
 42
7.8888462947
  0
ELLIPSE
  5
575
100
AcDbEntity
  8
0
100
AcDbEllipse
 62
7
  6
CONTINUOUS
 10
230.9397505738
 20
-336.4762672807
 30
0.0
 11
1164.0255505377
 21
-0.0
 31
0.0
 40
0.3206336655
 41
1.6056880047
 42
1.6062242056
  0
ELLIPSE
  5
576
100
AcDbEntity
  8
0
100
AcDbEllipse
 62
7
  6
CONTINUOUS
 10
206.5612404962
 20
-336.4762672807
 30
0.0
 11
565.4552610186
 21
-0.0
 31
0.0
 40
0.6600447546
 41
7.876508183
 42
7.8835896471
  0
ELLIPSE
  5
577
100
AcDbEntity
  8
0
100
AcDbEllipse
 62
7
  6
CONTINUOUS
 10
218.2278351234
 20
-336.4762672807
 30
0.0
 11
1164.0255505377
 21
-0.0
 31
0.0
 40
0.3206336655
 41
7.874008396
 42
7.8782997357
  0
ELLIPSE
  5
578
100
AcDbEntity
  8
0
100
AcDbEllipse
 62
7
  6
CONTINUOUS
 10
-812.4410833242
 20
-336.4762672807
 30
0.0
 11
33199.069484478
 21
-0.0
 31
0.0
 40
0.0112420554
 41
1.5404871637
 42
1.5405868606
  0
ELLIPSE
  5
579
100
AcDbEntity
  8
0
100
AcDbEllipse
 62
7
  6
CONTINUOUS
 10
223.139145379
 20
-336.4762672807
 30
0.0
 11
703.5622956527
 21
-0.0
 31
0.0
 40
0.5304800745
 41
7.900523459
 42
7.902405213
  0
ELLIPSE
  5
57A
100
AcDbEntity
  8
0
100
AcDbEllipse
 62
7
  6
CONTINUOUS
 10
192.9113381177
 20
-336.4762672807
 30
0.0
 11
0.0
 21
373.2257789994
 31
0.0
 40
0.1442868399
 41
6.324292308
 42
6.3297271322
  0
ELLIPSE
  5
57B
100
AcDbEntity
  8
0
100
AcDbEllipse
 62
7
  6
CONTINUOUS
 10
39.966880917
 20
-336.4762672807
 30
0.0
 11
3819.1748133621
 21
-0.0
 31
0.0
 40
0.0977241936
 41
7.8135613137
 42
7.8144666517
  0
ELLIPSE
  5
57C
100
AcDbEntity
  8
0
100
AcDbEllipse
 62
7
  6
CONTINUOUS
 10
39.966880917
 20
-336.4762672807
 30
0.0
 11
3819.1748133621
 21
-0.0
 31
0.0
 40
0.0977241936
 41
7.8145043476
 42
7.8147972707
  0
ELLIPSE
  5
57D
100
AcDbEntity
  8
0
100
AcDbEllipse
 62
7
  6
CONTINUOUS
 10
223.1979745579
 20
-336.4762672807
 30
0.0
 11
703.5630261953
 21
-0.0
 31
0.0
 40
0.5304795237
 41
7.8957535863
 42
7.8999868353
  0
ELLIPSE
  5
57E
100
AcDbEntity
  8
0
100
AcDbEllipse
 62
7
  6
CONTINUOUS
 10
188.8067446561
 20
-336.4762672807
 30
0.0
 11
0.0
 21
373.2257789994
 31
0.0
 40
0.0247030478
 41
0.0591652879
 42
0.0605047515
  0
ELLIPSE
  5
57F
100
AcDbEntity
  8
0
100
AcDbEllipse
 62
7
  6
CONTINUOUS
 10
193.234447188
 20
-336.4762672807
 30
0.0
 11
0.0
 21
373.2257789994
 31
0.0
 40
0.2253318255
 41
0.0566775574
 42
0.0591652879
  0
ELLIPSE
  5
580
100
AcDbEntity
  8
0
100
AcDbEllipse
 62
7
  6
CONTINUOUS
 10
197.2215927498
 20
-336.4762672807
 30
0.0
 11
0.0
 21
373.2257789994
 31
0.0
 40
0.4139188787
 41
0.0552528855
 42
0.0566775574
  0
ELLIPSE
  5
581
100
AcDbEntity
  8
0
100
AcDbEllipse
 62
7
  6
CONTINUOUS
 10
202.6335693858
 20
-336.4762672807
 30
0.0
 11
-0.0
 21
373.2257789994
 31
0.0
 40
0.6764920286
 41
6.3372472399
 42
6.3384381927
  0
ELLIPSE
  5
582
100
AcDbEntity
  8
0
100
AcDbEllipse
 62
7
  6
CONTINUOUS
 10
210.5133835024
 20
-336.4762672807
 30
0.0
 11
398.3106046921
 21
-0.0
 31
0.0
 40
0.9370219487
 41
1.6235818895
 42
1.6248582596
  0
ELLIPSE
  5
583
100
AcDbEntity
  8
0
100
AcDbEllipse
 62
7
  6
CONTINUOUS
 10
223.1746210018
 20
-336.4762672807
 30
0.0
 11
638.2837803709
 21
-0.0
 31
0.0
 40
0.5847332965
 41
1.6228582523
 42
1.6235818895
  0
ELLIPSE
  5
584
100
AcDbEntity
  8
0
100
AcDbEllipse
 62
7
  6
CONTINUOUS
 10
247.5666514217
 20
-336.4762672807
 30
0.0
 11
1107.0150560823
 21
-0.0
 31
0.0
 40
0.3371460731
 41
7.9055535197
 42
7.9060435595
  0
ELLIPSE
  5
585
100
AcDbEntity
  8
0
100
AcDbEllipse
 62
7
  6
CONTINUOUS
 10
315.7442324825
 20
-336.4762672807
 30
0.0
 11
2429.5924848177
 21
-0.0
 31
0.0
 40
0.1536166173
 41
1.6217270831
 42
1.6223682125
  0
ELLIPSE
  5
586
100
AcDbEntity
  8
0
100
AcDbEllipse
 62
7
  6
CONTINUOUS
 10
143.2837377597
 20
-336.4762672807
 30
0.0
 11
966.5904946562
 21
-0.0
 31
0.0
 40
0.3861260597
 41
7.8026066164
 42
7.8029882726
  0
ELLIPSE
  5
587
100
AcDbEntity
  8
0
100
AcDbEllipse
 62
7
  6
CONTINUOUS
 10
175.1983829889
 20
-336.4762672807
 30
0.0
 11
-0.0
 21
373.2257789994
 31
0.0
 40
0.9246620496
 41
-0.0523093352
 42
-0.0513750175
  0
ELLIPSE
  5
588
100
AcDbEntity
  8
0
100
AcDbEllipse
 62
7
  6
CONTINUOUS
 10
187.3595954877
 20
-336.4762672807
 30
0.0
 11
0.0
 21
373.2257789994
 31
0.0
 40
0.3014668212
 41
-0.0533291883
 42
-0.0523093352
  0
ELLIPSE
  5
589
100
AcDbEntity
  8
0
100
AcDbEllipse
 62
7
  6
CONTINUOUS
 10
210.0722051259
 20
-336.4762672807
 30
0.0
 11
0.0
 21
373.2257789994
 31
0.0
 40
0.8128194516
 41
0.0585606097
 42
0.0594754268
  0
ELLIPSE
  5
58A
100
AcDbEntity
  8
0
100
AcDbEllipse
 62
7
  6
CONTINUOUS
 10
202.3502157769
 20
-336.4762672807
 30
0.0
 11
0.0
 21
373.2257789994
 31
0.0
 40
0.4593106527
 41
0.0574121912
 42
0.0585606097
  0
ELLIPSE
  5
58B
100
AcDbEntity
  8
0
100
AcDbEllipse
 62
7
  6
CONTINUOUS
 10
197.339339209
 20
-336.4762672807
 30
0.0
 11
0.0
 21
373.2257789994
 31
0.0
 40
0.2253318255
 41
0.0549247097
 42
0.0574121912
  0
ELLIPSE
  5
58C
100
AcDbEntity
  8
0
100
AcDbEllipse
 62
7
  6
CONTINUOUS
 10
188.2801752781
 20
-336.4762672807
 30
0.0
 11
0.0
 21
373.2257789994
 31
0.0
 40
0.0274716616
 41
-0.0599717199
 42
-0.0589087259
  0
ELLIPSE
  5
58D
100
AcDbEntity
  8
0
100
AcDbEllipse
 62
7
  6
CONTINUOUS
 10
177.7712843363
 20
-336.4762672807
 30
0.0
 11
0.0
 21
373.2257789994
 31
0.0
 40
0.4972566233
 41
-0.0607155547
 42
-0.0599717199
  0
ELLIPSE
  5
58E
100
AcDbEntity
  8
0
100
AcDbEllipse
 62
7
  6
CONTINUOUS
 10
195.2368335466
 20
-336.4762672807
 30
0.0
 11
0.0
 21
373.2257789994
 31
0.0
 40
0.2253318255
 41
0.0580336758
 42
0.0605216042
  0
ELLIPSE
  5
58F
100
AcDbEntity
  8
0
100
AcDbEllipse
 62
7
  6
CONTINUOUS
 10
195.1266832377
 20
-336.4762672807
 30
0.0
 11
0.0
 21
373.2257789994
 31
0.0
 40
0.3043390406
 41
0.0652652326
 42
0.0669397828
  0
ELLIPSE
  5
590
100
AcDbEntity
  8
0
100
AcDbEllipse
 62
7
  6
CONTINUOUS
 10
536.9462428252
 20
-336.4762672807
 30
0.0
 11
5354.6984525731
 21
-0.0
 31
0.0
 40
0.0697006157
 41
1.6352400009
 42
1.6353153029
  0
ELLIPSE
  5
591
100
AcDbEntity
  8
0
100
AcDbEllipse
 62
7
  6
CONTINUOUS
 10
536.9462428252
 20
-336.4762672807
 30
0.0
 11
5354.6984525731
 21
-0.0
 31
0.0
 40
0.0697006157
 41
7.9185266998
 42
7.9192468666
  0
ELLIPSE
  5
592
100
AcDbEntity
  8
0
100
AcDbEllipse
 62
7
  6
CONTINUOUS
 10
586.5711550214
 20
-336.4762672807
 30
0.0
 11
5354.6984525735
 21
-0.0
 31
0.0
 40
0.0697006157
 41
1.6446967
 42
1.645021755
  0
ELLIPSE
  5
593
100
AcDbEntity
  8
0
100
AcDbEllipse
 62
7
  6
CONTINUOUS
 10
195.1266832377
 20
-336.4762672807
 30
0.0
 11
0.0
 21
373.2257789994
 31
0.0
 40
0.3043390406
 41
0.0747569157
 42
0.0764325944
  0
ELLIPSE
  5
594
100
AcDbEntity
  8
0
100
AcDbEllipse
 62
7
  6
CONTINUOUS
 10
586.5711550214
 20
-336.4762672807
 30
0.0
 11
5354.6984525733
 21
-0.0
 31
0.0
 40
0.0697006157
 41
7.9283209506
 42
7.9287385497
  0
ELLIPSE
  5
595
100
AcDbEntity
  8
0
100
AcDbEllipse
 62
7
  6
CONTINUOUS
 10
197.309287444
 20
-336.4762672807
 30
0.0
 11
0.0
 21
373.2257789994
 31
0.0
 40
0.3043390406
 41
6.3497077219
 42
6.3575246238
  0
ELLIPSE
  5
596
100
AcDbEntity
  8
0
100
AcDbEllipse
 62
7
  6
CONTINUOUS
 10
198.469691075
 20
-336.4762672807
 30
0.0
 11
0.0
 21
373.2257789994
 31
0.0
 40
0.3630535763
 41
6.3618452341
 42
6.3657653194
  0
ELLIPSE
  5
597
100
AcDbEntity
  8
0
100
AcDbEllipse
 62
7
  6
CONTINUOUS
 10
197.828261721
 20
-336.4762672807
 30
0.0
 11
0.0
 21
373.2257789994
 31
0.0
 40
0.3964402514
 41
0.0865173215
 42
0.087917419
  0
ELLIPSE
  5
598
100
AcDbEntity
  8
0
100
AcDbEllipse
 62
7
  6
CONTINUOUS
 10
-728.686775377
 20
-336.4762672807
 30
0.0
 11
10574.4219186987
 21
-0.0
 31
0.0
 40
0.0352951473
 41
1.4839588169
 42
1.4842790053
  0
ELLIPSE
  5
599
100
AcDbEntity
  8
0
100
AcDbEllipse
 62
7
  6
CONTINUOUS
 10
167.8483126401
 20
-336.4762672807
 30
0.0
 11
0.0
 21
373.2257789994
 31
0.0
 40
0.672135025
 41
6.1962322101
 42
6.1979770396
  0
ELLIPSE
  5
59A
100
AcDbEntity
  8
0
100
AcDbEllipse
 62
7
  6
CONTINUOUS
 10
-155.0449285371
 20
-336.4762672807
 30
0.0
 11
3759.1231025099
 21
-0.0
 31
0.0
 40
0.0992853303
 41
7.7628277701
 42
7.763056498
  0
ELLIPSE
  5
59B
100
AcDbEntity
  8
0
100
AcDbEllipse
 62
7
  6
CONTINUOUS
 10
90.5885879111
 20
-336.4762672807
 30
0.0
 11
1060.674581238
 21
-0.0
 31
0.0
 40
0.3518758586
 41
7.7624215333
 42
7.7628277701
  0
ELLIPSE
  5
59C
100
AcDbEntity
  8
0
100
AcDbEllipse
 62
7
  6
CONTINUOUS
 10
125.8734886114
 20
-336.4762672807
 30
0.0
 11
674.7614044466
 21
0.0
 31
0.0
 40
0.5531225949
 41
7.7621126255
 42
7.7624215333
  0
ELLIPSE
  5
59D
100
AcDbEntity
  8
0
100
AcDbEllipse
 62
7
  6
CONTINUOUS
 10
147.6786433415
 20
-336.4762672807
 30
0.0
 11
437.1966294214
 21
0.0
 31
0.0
 40
0.853679452
 41
1.4782207749
 42
1.478880813
  0
ELLIPSE
  5
59E
100
AcDbEntity
  8
0
100
AcDbEllipse
 62
7
  6
CONTINUOUS
 10
173.3030699225
 20
-336.4762672807
 30
0.0
 11
0.0
 21
373.2257789994
 31
0.0
 40
0.4287113284
 41
6.1896958888
 42
6.1906097553
  0
ELLIPSE
  5
59F
100
AcDbEntity
  8
0
100
AcDbEllipse
 62
7
  6
CONTINUOUS
 10
184.9047975598
 20
-336.4762672807
 30
0.0
 11
0.0
 21
373.2257789994
 31
0.0
 40
0.0957288349
 41
-0.0949618543
 42
-0.0934894183
  0
ELLIPSE
  5
5A0
100
AcDbEntity
  8
0
100
AcDbEllipse
 62
7
  6
CONTINUOUS
 10
194.0236182239
 20
-336.4762672807
 30
0.0
 11
0.0
 21
373.2257789994
 31
0.0
 40
0.2919625312
 41
0.0954679094
 42
0.0971690788
  0
ELLIPSE
  5
5A1
100
AcDbEntity
  8
0
100
AcDbEllipse
 62
7
  6
CONTINUOUS
 10
205.3854718294
 20
-336.4762672807
 30
0.0
 11
-0.0
 21
373.2257789994
 31
0.0
 40
0.6113221832
 41
6.3770031656
 42
6.3786532166
  0
ELLIPSE
  5
5A2
100
AcDbEntity
  8
0
100
AcDbEllipse
 62
7
  6
CONTINUOUS
 10
220.9731030096
 20
-336.4762672807
 30
0.0
 11
394.5529858277
 21
-0.0
 31
0.0
 40
0.9459458993
 41
7.9464797193
 42
7.9477994924
  0
ELLIPSE
  5
5A3
100
AcDbEntity
  8
0
100
AcDbEllipse
 62
7
  6
CONTINUOUS
 10
236.3439046464
 20
-336.4762672807
 30
0.0
 11
560.9644523249
 21
-0.0
 31
0.0
 40
0.665328752
 41
7.9457184308
 42
7.9464797193
  0
ELLIPSE
  5
5A4
100
AcDbEntity
  8
0
100
AcDbEllipse
 62
7
  6
CONTINUOUS
 10
178.4497002312
 20
-336.4762672807
 30
0.0
 11
0.0
 21
373.2257789994
 31
0.0
 40
0.1528130602
 41
-0.0979057325
 42
-0.097016909
  0
ELLIPSE
  5
5A5
100
AcDbEntity
  8
0
100
AcDbEllipse
 62
7
  6
CONTINUOUS
 10
154.2938930022
 20
-336.4762672807
 30
0.0
 11
0.0
 21
373.2257789994
 31
0.0
 40
0.8149317493
 41
6.1840095741
 42
6.1852795746
  0
ELLIPSE
  5
5A6
100
AcDbEntity
  8
0
100
AcDbEllipse
 62
7
  6
CONTINUOUS
 10
63.6570364474
 20
-336.4762672807
 30
0.0
 11
1219.5549744517
 21
-0.0
 31
0.0
 40
0.3060344034
 41
7.7543739171
 42
7.7548059009
  0
ELLIPSE
  5
5A7
100
AcDbEntity
  8
0
100
AcDbEllipse
 62
7
  6
CONTINUOUS
 10
-188.8854543035
 20
-336.4762672807
 30
0.0
 11
3759.12310251
 21
-0.0
 31
0.0
 40
0.0992853303
 41
1.4710472867
 42
1.4711886099
  0
ELLIPSE
  5
5A8
100
AcDbEntity
  8
0
100
AcDbEllipse
 62
7
  6
CONTINUOUS
 10
216.4094973109
 20
-336.4762672807
 30
0.0
 11
397.777752965
 21
-0.0
 31
0.0
 40
0.9370201733
 41
1.6306483457
 42
1.630984226
  0
ELLIPSE
  5
5A9
100
AcDbEntity
  8
0
100
AcDbEllipse
 62
7
  6
CONTINUOUS
 10
207.6983191512
 20
-336.4762672807
 30
0.0
 11
0.0
 21
372.7257789994
 31
0.0
 40
0.6764907755
 41
0.0586591527
 42
0.0598520189
  0
ELLIPSE
  5
5AA
100
AcDbEntity
  8
0
100
AcDbEllipse
 62
7
  6
CONTINUOUS
 10
201.9608058762
 20
-336.4762672807
 30
0.0
 11
0.0
 21
372.7257789994
 31
0.0
 40
0.4139192814
 41
0.0572324117
 42
0.0586591527
  0
ELLIPSE
  5
5AB
100
AcDbEntity
  8
0
100
AcDbEllipse
 62
7
  6
CONTINUOUS
 10
197.9400550324
 20
-336.4762672807
 30
0.0
 11
0.0
 21
372.7257789994
 31
0.0
 40
0.2253318255
 41
0.0547416188
 42
0.0572324117
  0
ELLIPSE
  5
5AC
100
AcDbEntity
  8
0
100
AcDbEllipse
 62
7
  6
CONTINUOUS
 10
193.8485574107
 20
-336.4762672807
 30
0.0
 11
0.0
 21
372.7257789994
 31
0.0
 40
0.0247035398
 41
0.0534007958
 42
0.0547416188
  0
ELLIPSE
  5
5AD
100
AcDbEntity
  8
0
100
AcDbEllipse
 62
7
  6
CONTINUOUS
 10
595.3284905027
 20
-336.4762672807
 30
0.0
 11
5347.5249147927
 21
-0.0
 31
0.0
 40
0.0697006157
 41
1.6464382095
 42
1.6467351871
  0
ELLIPSE
  5
5AE
100
AcDbEntity
  8
0
100
AcDbEllipse
 62
7
  6
CONTINUOUS
 10
199.7895194588
 20
-336.4762672807
 30
0.0
 11
0.0
 21
372.7257789994
 31
0.0
 40
0.3043390406
 41
0.0739640563
 42
0.0756418827
  0
ELLIPSE
  5
5AF
100
AcDbEntity
  8
0
100
AcDbEllipse
 62
7
  6
CONTINUOUS
 10
545.7035783065
 20
-336.4762672807
 30
0.0
 11
5347.5249147928
 21
-0.0
 31
0.0
 40
0.0697006157
 41
1.6369332045
 42
1.6370991956
  0
ELLIPSE
  5
5B0
100
AcDbEntity
  8
0
100
AcDbEllipse
 62
7
  6
CONTINUOUS
 10
199.7895194588
 20
-336.4762672807
 30
0.0
 11
0.0
 21
372.7257789994
 31
0.0
 40
0.3043390406
 41
0.0644601698
 42
0.0661368777
  0
ELLIPSE
  5
5B1
100
AcDbEntity
  8
0
100
AcDbEllipse
 62
7
  6
CONTINUOUS
 10
202.3668869782
 20
-336.4762672807
 30
0.0
 11
-0.0
 21
372.7257789994
 31
0.0
 40
0.8522365037
 41
0.0477588065
 42
0.0486666322
  0
ELLIPSE
  5
5B2
100
AcDbEntity
  8
0
100
AcDbEllipse
 62
7
  6
CONTINUOUS
 10
194.2022027059
 20
-336.4762672807
 30
0.0
 11
0.0
 21
372.7257789994
 31
0.0
 40
0.3933961464
 41
0.046617048
 42
0.0477588065
  0
ELLIPSE
  5
5B3
100
AcDbEntity
  8
0
100
AcDbEllipse
 62
7
  6
CONTINUOUS
 10
190.917764247
 20
-336.4762672807
 30
0.0
 11
0.0
 21
372.7257789994
 31
0.0
 40
0.204299321
 41
6.3277044257
 42
6.3298023552
  0
ELLIPSE
  5
5B4
100
AcDbEntity
  8
0
100
AcDbEllipse
 62
7
  6
CONTINUOUS
 10
385.3081914526
 20
-336.4762672807
 30
0.0
 11
3312.2183721803
 21
-0.0
 31
0.0
 40
0.1125305572
 41
1.6309674592
 42
1.6310485629
  0
ELLIPSE
  5
5B5
100
AcDbEntity
  8
0
100
AcDbEllipse
 62
7
  6
CONTINUOUS
 10
192.060256968
 20
-336.4762672807
 30
0.0
 11
0.0
 21
372.7257789994
 31
0.0
 40
0.264647412
 41
0.0588352284
 42
0.0601711324
  0
ELLIPSE
  5
5B6
100
AcDbEntity
  8
0
100
AcDbEllipse
 62
7
  6
CONTINUOUS
 10
363.8810270153
 20
-336.4762672807
 30
0.0
 11
3312.2183721802
 21
-0.0
 31
0.0
 40
0.1125305572
 41
1.6243322312
 42
1.6244482489
  0
ELLIPSE
  5
5B7
100
AcDbEntity
  8
0
100
AcDbEllipse
 62
7
  6
CONTINUOUS
 10
192.060256968
 20
-336.4762672807
 30
0.0
 11
0.0
 21
372.7257789994
 31
0.0
 40
0.264647412
 41
0.0521572364
 42
0.0534926395
  0
ELLIPSE
  5
5B8
100
AcDbEntity
  8
0
100
AcDbEllipse
 62
7
  6
CONTINUOUS
 10
177.1863401172
 20
-336.4762672807
 30
0.0
 11
0.0
 21
372.7257789994
 31
0.0
 40
0.1614883861
 41
-0.070484265
 42
-0.0696086641
  0
ELLIPSE
  5
5B9
100
AcDbEntity
  8
0
100
AcDbEllipse
 62
7
  6
CONTINUOUS
 10
163.804556204
 20
-336.4762672807
 30
0.0
 11
0.0
 21
372.7257789994
 31
0.0
 40
0.6712792688
 41
-0.0713398691
 42
-0.070484265
  0
ELLIPSE
  5
5BA
100
AcDbEntity
  8
0
100
AcDbEllipse
 62
7
  6
CONTINUOUS
 10
134.7188391553
 20
-336.4762672807
 30
0.0
 11
658.2554642406
 21
-0.0
 31
0.0
 40
0.5662327155
 41
1.4990486863
 42
1.4994564577
  0
ELLIPSE
  5
5BB
100
AcDbEntity
  8
0
100
AcDbEllipse
 62
7
  6
CONTINUOUS
 10
26.7148503695
 20
-336.4762672807
 30
0.0
 11
2164.879323031
 21
-0.0
 31
0.0
 40
0.1721693099
 41
1.4988748751
 42
1.4990486863
  0
ELLIPSE
  5
5BC
100
AcDbEntity
  8
0
100
AcDbEllipse
 62
7
  6
CONTINUOUS
 10
296.1582808235
 20
-336.4762672807
 30
0.0
 11
1571.1893207413
 21
-0.0
 31
0.0
 40
0.2372252497
 41
1.6422933256
 42
1.6425673911
  0
ELLIPSE
  5
5BD
100
AcDbEntity
  8
0
100
AcDbEllipse
 62
7
  6
CONTINUOUS
 10
239.1210663789
 20
-336.4762672807
 30
0.0
 11
772.7524854888
 21
-0.0
 31
0.0
 40
0.4823352703
 41
1.6418053595
 42
1.6422933256
  0
ELLIPSE
  5
5BE
100
AcDbEntity
  8
0
100
AcDbEllipse
 62
7
  6
CONTINUOUS
 10
217.0018497892
 20
-336.4762672807
 30
0.0
 11
460.9919213434
 21
-0.0
 31
0.0
 40
0.8085299584
 41
1.6408695787
 42
1.6418053595
  0
ELLIPSE
  5
5BF
100
AcDbEntity
  8
0
100
AcDbEllipse
 62
7
  6
CONTINUOUS
 10
205.3707970372
 20
-336.4762672807
 30
0.0
 11
-0.0
 21
372.7257789994
 31
0.0
 40
0.7911226461
 41
6.3523428876
 42
6.3532585591
  0
ELLIPSE
  5
5C0
100
AcDbEntity
  8
0
100
AcDbEllipse
 62
7
  6
CONTINUOUS
 10
198.2387068127
 20
-336.4762672807
 30
0.0
 11
0.0
 21
372.7257789994
 31
0.0
 40
0.5142156995
 41
6.3512134126
 42
6.3523428876
  0
ELLIPSE
  5
5C1
100
AcDbEntity
  8
0
100
AcDbEllipse
 62
7
  6
CONTINUOUS
 10
193.456827805
 20
-336.4762672807
 30
0.0
 11
0.0
 21
372.7257789994
 31
0.0
 40
0.3254792414
 41
0.0626559078
 42
0.0680281054
  0
ELLIPSE
  5
5C2
100
AcDbEntity
  8
0
100
AcDbEllipse
 62
7
  6
CONTINUOUS
 10
-746.6329366332
 20
-336.4762672807
 30
0.0
 11
10560.2556653021
 21
-0.0
 31
0.0
 40
0.0352951473
 41
1.4820438368
 42
1.4821360713
  0
ELLIPSE
  5
5C3
100
AcDbEntity
  8
0
100
AcDbEllipse
 62
7
  6
CONTINUOUS
 10
202.4832494906
 20
-336.4762672807
 30
0.0
 11
0.0
 21
372.7257789994
 31
0.0
 40
0.3964402514
 41
0.0870700374
 42
0.08875249
  0
ELLIPSE
  5
5C4
100
AcDbEntity
  8
0
100
AcDbEllipse
 62
7
  6
CONTINUOUS
 10
179.9857144495
 20
-336.4762672807
 30
0.0
 11
0.0
 21
372.7257789994
 31
0.0
 40
0.0957288801
 41
-0.098774794
 42
-0.0972998408
  0
ELLIPSE
  5
5C5
100
AcDbEntity
  8
0
100
AcDbEllipse
 62
7
  6
CONTINUOUS
 10
167.7465829132
 20
-336.4762672807
 30
0.0
 11
0.0
 21
372.7257789994
 31
0.0
 40
0.4287114223
 41
-0.0996904336
 42
-0.098774794
  0
ELLIPSE
  5
5C6
100
AcDbEntity
  8
0
100
AcDbEllipse
 62
7
  6
CONTINUOUS
 10
140.196041506
 20
-336.4762672807
 30
0.0
 11
436.6110189567
 21
0.0
 31
0.0
 40
0.853679277
 41
1.4704444739
 42
1.4711058932
  0
ELLIPSE
  5
5C7
100
AcDbEntity
  8
0
100
AcDbEllipse
 62
7
  6
CONTINUOUS
 10
116.4279246118
 20
-336.4762672807
 30
0.0
 11
673.8568286472
 21
0.0
 31
0.0
 40
0.5531231015
 41
1.4700882822
 42
1.4704444739
  0
ELLIPSE
  5
5C8
100
AcDbEntity
  8
0
100
AcDbEllipse
 62
7
  6
CONTINUOUS
 10
77.6809166855
 20
-336.4762672807
 30
0.0
 11
1059.2538617089
 21
-0.0
 31
0.0
 40
0.3518757802
 41
1.4696811254
 42
1.4700882822
  0
ELLIPSE
  5
5C9
100
AcDbEntity
  8
0
100
AcDbEllipse
 62
7
  6
CONTINUOUS
 10
-194.3435939489
 20
-336.4762672807
 30
0.0
 11
3754.0871118121
 21
-0.0
 31
0.0
 40
0.0992853303
 41
1.4694518655
 42
1.4696811254
  0
ELLIPSE
  5
5CA
100
AcDbEntity
  8
0
100
AcDbEllipse
 62
7
  6
CONTINUOUS
 10
533.8960438935
 20
-336.4762672807
 30
0.0
 11
3444.014417954
 21
-0.0
 31
0.0
 40
0.1082242214
 41
1.6719883507
 42
1.6721407881
  0
ELLIPSE
  5
5CB
100
AcDbEntity
  8
0
100
AcDbEllipse
 62
7
  6
CONTINUOUS
 10
351.7535656467
 20
-336.4762672807
 30
0.0
 11
1640.9701251152
 21
-0.0
 31
0.0
 40
0.2271374556
 41
1.6717849767
 42
1.6719883507
  0
ELLIPSE
  5
5CC
100
AcDbEntity
  8
0
100
AcDbEllipse
 62
7
  6
CONTINUOUS
 10
291.2078946062
 20
-336.4762672807
 30
0.0
 11
1040.4203773213
 21
-0.0
 31
0.0
 40
0.3582453661
 41
1.6713272851
 42
1.6717849767
  0
ELLIPSE
  5
5CD
100
AcDbEntity
  8
0
100
AcDbEllipse
 62
7
  6
CONTINUOUS
 10
243.0134512339
 20
-336.4762672807
 30
0.0
 11
560.212893705
 21
-0.0
 31
0.0
 40
0.6653288119
 41
1.6705643847
 42
1.6713272851
  0
ELLIPSE
  5
5CE
100
AcDbEntity
  8
0
100
AcDbEllipse
 62
7
  6
CONTINUOUS
 10
226.4606394293
 20
-336.4762672807
 30
0.0
 11
394.0243933904
 21
-0.0
 31
0.0
 40
0.9459459497
 41
1.6692420828
 42
1.6705643847
  0
ELLIPSE
  5
5CF
100
AcDbEntity
  8
0
100
AcDbEllipse
 62
7
  6
CONTINUOUS
 10
210.1284308439
 20
-336.4762672807
 30
0.0
 11
0.0
 21
372.7257789994
 31
0.0
 40
0.6113221688
 41
0.0967930173
 42
0.098445756
  0
ELLIPSE
  5
5D0
100
AcDbEntity
  8
0
100
AcDbEllipse
 62
7
  6
CONTINUOUS
 10
198.6247953326
 20
-336.4762672807
 30
0.0
 11
0.0
 21
372.7257789994
 31
0.0
 40
0.2919625448
 41
0.0950896277
 42
0.0967930173
  0
ELLIPSE
  5
5D1
100
AcDbEntity
  8
0
100
AcDbEllipse
 62
7
  6
CONTINUOUS
 10
184.0708966095
 20
-336.4762672807
 30
0.0
 11
0.0
 21
373.2257789994
 31
0.0
 40
0.0847514944
 41
0.0683472312
 42
0.0692315929
  0
ELLIPSE
  5
5D2
100
AcDbEntity
  8
0
100
AcDbEllipse
 62
7
  6
CONTINUOUS
 10
190.2068285545
 20
-336.4762672807
 30
0.0
 11
0.0
 21
373.2257789994
 31
0.0
 40
0.3254792414
 41
0.0643232193
 42
0.0683472312
  0
ELLIPSE
  5
5D3
100
AcDbEntity
  8
0
100
AcDbEllipse
 62
7
  6
CONTINUOUS
 10
700.4197936243
 20
-336.4762672807
 30
0.0
 11
8058.9681360594
 21
-0.0
 31
0.0
 40
0.0463118569
 41
1.6348534714
 42
1.6351195461
  0
ELLIPSE
  5
5D4
100
AcDbEntity
  8
0
100
AcDbEllipse
 62
7
  6
CONTINUOUS
 10
700.4197936243
 20
-336.4762672807
 30
0.0
 11
8058.9681360594
 21
-0.0
 31
0.0
 40
0.0463118569
 41
1.6347692959
 42
1.6348299789
  0
ELLIPSE
  5
5D5
100
AcDbEntity
  8
0
100
AcDbEllipse
 62
7
  6
CONTINUOUS
 10
177.1863401172
 20
-336.4762672807
 30
0.0
 11
0.0
 21
373.2257789994
 31
0.0
 40
0.1614883861
 41
-0.0703896828
 42
-0.0695152607
  0
ELLIPSE
  5
5D6
100
AcDbEntity
  8
0
100
AcDbEllipse
 62
7
  6
CONTINUOUS
 10
163.804556204
 20
-336.4762672807
 30
0.0
 11
0.0
 21
373.2257789994
 31
0.0
 40
0.6712792688
 41
-0.0712441349
 42
-0.0703896828
  0
ELLIPSE
  5
5D7
100
AcDbEntity
  8
0
100
AcDbEllipse
 62
7
  6
CONTINUOUS
 10
760.6192179405
 20
-336.4762672807
 30
0.0
 11
8058.9681360599
 21
-0.0
 31
0.0
 40
0.0463118569
 41
1.6424710763
 42
1.6426010203
  0
ELLIPSE
  5
5D8
100
AcDbEntity
  8
0
100
AcDbEllipse
 62
7
  6
CONTINUOUS
 10
217.0018497892
 20
-336.4762672807
 30
0.0
 11
461.6103276186
 21
-0.0
 31
0.0
 40
0.8085299584
 41
1.6407755499
 42
1.6417100708
  0
ELLIPSE
  5
5D9
100
AcDbEntity
  8
0
100
AcDbEllipse
 62
7
  6
CONTINUOUS
 10
205.3707970372
 20
-336.4762672807
 30
0.0
 11
0.0
 21
373.2257789994
 31
0.0
 40
0.7911226461
 41
0.0690647843
 42
0.0699792231
  0
ELLIPSE
  5
5DA
100
AcDbEntity
  8
0
100
AcDbEllipse
 62
7
  6
CONTINUOUS
 10
198.2387068127
 20
-336.4762672807
 30
0.0
 11
0.0
 21
373.2257789994
 31
0.0
 40
0.5142156995
 41
0.0679368295
 42
0.0690647843
  0
ELLIPSE
  5
5DB
100
AcDbEntity
  8
0
100
AcDbEllipse
 62
7
  6
CONTINUOUS
 10
193.456827805
 20
-336.4762672807
 30
0.0
 11
0.0
 21
373.2257789994
 31
0.0
 40
0.3254792414
 41
0.0625718596
 42
0.0679368295
  0
ELLIPSE
  5
5DC
100
AcDbEntity
  8
0
100
AcDbEllipse
 62
7
  6
CONTINUOUS
 10
192.060256968
 20
-336.4762672807
 30
0.0
 11
0.0
 21
373.2257789994
 31
0.0
 40
0.264647412
 41
0.0587563177
 42
0.0600904256
  0
ELLIPSE
  5
5DD
100
AcDbEntity
  8
0
100
AcDbEllipse
 62
7
  6
CONTINUOUS
 10
183.4851084339
 20
-336.4762672807
 30
0.0
 11
0.0
 21
373.2257789994
 31
0.0
 40
0.0173414044
 41
0.0575496983
 42
0.0584142307
  0
ELLIPSE
  5
5DE
100
AcDbEntity
  8
0
100
AcDbEllipse
 62
7
  6
CONTINUOUS
 10
188.794070182
 20
-336.4762672807
 30
0.0
 11
0.0
 21
373.2257789994
 31
0.0
 40
0.264647412
 41
0.0566604128
 42
0.0575496983
  0
ELLIPSE
  5
5DF
100
AcDbEntity
  8
0
100
AcDbEllipse
 62
7
  6
CONTINUOUS
 10
193.7374993124
 20
-336.4762672807
 30
0.0
 11
-0.0
 21
373.2257789994
 31
0.0
 40
0.4985361693
 41
0.0557463787
 42
0.0566604128
  0
ELLIPSE
  5
5E0
100
AcDbEntity
  8
0
100
AcDbEllipse
 62
7
  6
CONTINUOUS
 10
201.2827268497
 20
-336.4762672807
 30
0.0
 11
-0.0
 21
373.2257789994
 31
0.0
 40
0.8613710331
 41
0.0550298907
 42
0.0557463787
  0
ELLIPSE
  5
5E1
100
AcDbEntity
  8
0
100
AcDbEllipse
 62
7
  6
CONTINUOUS
 10
214.4001609248
 20
-336.4762672807
 30
0.0
 11
559.9754814614
 21
-0.0
 31
0.0
 40
0.666503787
 41
1.6253072517
 42
1.6258262175
  0
ELLIPSE
  5
5E2
100
AcDbEntity
  8
0
100
AcDbEllipse
 62
7
  6
CONTINUOUS
 10
363.8810270153
 20
-336.4762672807
 30
0.0
 11
3316.6616097543
 21
-0.0
 31
0.0
 40
0.1125305572
 41
1.6242172354
 42
1.6249460274
  0
ELLIPSE
  5
5E3
100
AcDbEntity
  8
0
100
AcDbEllipse
 62
7
  6
CONTINUOUS
 10
192.060256968
 20
-336.4762672807
 30
0.0
 11
0.0
 21
373.2257789994
 31
0.0
 40
0.264647412
 41
0.0520872995
 42
0.0534209086
  0
ELLIPSE
  5
5E4
100
AcDbEntity
  8
0
100
AcDbEllipse
 62
7
  6
CONTINUOUS
 10
177.2298290968
 20
-336.4762672807
 30
0.0
 11
0.0
 21
373.2257789994
 31
0.0
 40
0.2445709438
 41
-0.0596251583
 42
-0.0587853637
  0
ELLIPSE
  5
5E5
100
AcDbEntity
  8
0
100
AcDbEllipse
 62
7
  6
CONTINUOUS
 10
164.4828346588
 20
-336.4762672807
 30
0.0
 11
0.0
 21
373.2257789994
 31
0.0
 40
0.8177152464
 41
-0.0604153918
 42
-0.0596251583
  0
ELLIPSE
  5
5E6
100
AcDbEntity
  8
0
100
AcDbEllipse
 62
7
  6
CONTINUOUS
 10
385.3081914526
 20
-336.4762672807
 30
0.0
 11
3316.6616097544
 21
-0.0
 31
0.0
 40
0.1125305572
 41
1.6308867524
 42
1.6316158099
  0
ELLIPSE
  5
5E7
100
AcDbEntity
  8
0
100
AcDbEllipse
 62
7
  6
CONTINUOUS
 10
278.4417329124
 20
-336.4762672807
 30
0.0
 11
2131.8521211537
 21
-0.0
 31
0.0
 40
0.175071139
 41
1.6135831612
 42
1.6141326261
  0
ELLIPSE
  5
5E8
100
AcDbEntity
  8
0
100
AcDbEllipse
 62
7
  6
CONTINUOUS
 10
189.3101041941
 20
-336.4762672807
 30
0.0
 11
0.0
 21
373.2257789994
 31
0.0
 40
0.204299321
 41
0.0433739445
 42
0.0475577197
  0
ELLIPSE
  5
5E9
100
AcDbEntity
  8
0
100
AcDbEllipse
 62
7
  6
CONTINUOUS
 10
220.1812040481
 20
-336.4762672807
 30
0.0
 11
718.3893065506
 21
-0.0
 31
0.0
 40
0.5195313677
 41
1.6213133962
 42
1.6222742951
  0
ELLIPSE
  5
5EA
100
AcDbEntity
  8
0
100
AcDbEllipse
 62
7
  6
CONTINUOUS
 10
220.1812040481
 20
-336.4762672807
 30
0.0
 11
718.3893065506
 21
-0.0
 31
0.0
 40
0.5195313677
 41
1.6193915471
 42
1.6212676359
  0
ELLIPSE
  5
5EB
100
AcDbEntity
  8
0
100
AcDbEllipse
 62
7
  6
CONTINUOUS
 10
179.2472391645
 20
-336.4762672807
 30
0.0
 11
0.0
 21
373.2257789994
 31
0.0
 40
0.3330097201
 41
-0.0493978586
 42
-0.0485952203
  0
ELLIPSE
  5
5EC
100
AcDbEntity
  8
0
100
AcDbEllipse
 62
7
  6
CONTINUOUS
 10
209.7676522086
 20
-336.4762672807
 30
0.0
 11
470.1245744065
 21
-0.0
 31
0.0
 40
0.7938869809
 41
1.6194894596
 42
1.6203067751
  0
ELLIPSE
  5
5ED
100
AcDbEntity
  8
0
100
AcDbEllipse
 62
7
  6
CONTINUOUS
 10
202.3668869782
 20
-336.4762672807
 30
0.0
 11
0.0
 21
373.2257789994
 31
0.0
 40
0.8522365037
 41
0.0476947767
 42
0.0486931328
  0
ELLIPSE
  5
5EE
100
AcDbEntity
  8
0
100
AcDbEllipse
 62
7
  6
CONTINUOUS
 10
194.2022027059
 20
-336.4762672807
 30
0.0
 11
0.0
 21
373.2257789994
 31
0.0
 40
0.3933961464
 41
0.0465545513
 42
0.0476947767
  0
ELLIPSE
  5
5EF
100
AcDbEntity
  8
0
100
AcDbEllipse
 62
7
  6
CONTINUOUS
 10
190.917764247
 20
-336.4762672807
 30
0.0
 11
0.0
 21
373.2257789994
 31
0.0
 40
0.204299321
 41
0.0412701472
 42
0.0465545513
  0
ELLIPSE
  5
5F0
100
AcDbEntity
  8
0
100
AcDbEllipse
 62
7
  6
CONTINUOUS
 10
278.4417329124
 20
-336.4762672807
 30
0.0
 11
2131.8521211538
 21
-0.0
 31
0.0
 40
0.175071139
 41
1.6144051194
 42
1.6152271071
  0
ELLIPSE
  5
5F1
100
AcDbEntity
  8
0
100
AcDbEllipse
 62
7
  6
CONTINUOUS
 10
159.1031668366
 20
-336.4762672807
 30
0.0
 11
0.0
 21
373.2257789994
 31
0.0
 40
0.8149321388
 41
-0.0942254095
 42
-0.0929560146
  0
ELLIPSE
  5
5F2
100
AcDbEntity
  8
0
100
AcDbEllipse
 62
7
  6
CONTINUOUS
 10
182.3537010854
 20
-336.4762672807
 30
0.0
 11
0.0
 21
373.2257789994
 31
0.0
 40
0.1528130602
 41
-0.095113994
 42
-0.0942254095
  0
ELLIPSE
  5
5F3
100
AcDbEntity
  8
0
100
AcDbEllipse
 62
7
  6
CONTINUOUS
 10
211.8648398107
 20
-336.4762672807
 30
0.0
 11
986.9246315423
 21
-0.0
 31
0.0
 40
0.3781704976
 41
1.5880163013
 42
1.5930301057
  0
ELLIPSE
  5
5F4
100
AcDbEntity
  8
0
100
AcDbEllipse
 62
7
  6
CONTINUOUS
 10
-187.9519599886
 20
-336.4762672807
 30
0.0
 11
11908.7688246828
 21
-0.0
 31
0.0
 40
0.0313404168
 41
1.5387478286
 42
1.539025777
  0
ELLIPSE
  5
5F5
100
AcDbEntity
  8
0
100
AcDbEllipse
 62
7
  6
CONTINUOUS
 10
220.0438231068
 20
-336.4762672807
 30
0.0
 11
1164.0255505377
 21
-0.0
 31
0.0
 40
0.3206336655
 41
1.5933228758
 42
1.5967013237
  0
ELLIPSE
  5
5F6
100
AcDbEntity
  8
0
100
AcDbEllipse
 62
7
  6
CONTINUOUS
 10
195.304204599
 20
-336.4762672807
 30
0.0
 11
0.0
 21
373.2257789994
 31
0.0
 40
0.051709081
 41
0.020026762
 42
0.0224068904
  0
ELLIPSE
  5
5F7
100
AcDbEntity
  8
0
100
AcDbEllipse
 62
7
  6
CONTINUOUS
 10
207.9107933966
 20
-336.4762672807
 30
0.0
 11
581.9673193918
 21
-0.0
 31
0.0
 40
0.6413174186
 41
1.5932032172
 42
1.601005793
  0
ELLIPSE
  5
5F8
100
AcDbEntity
  8
0
100
AcDbEllipse
 62
7
  6
CONTINUOUS
 10
195.304204599
 20
-336.4762672807
 30
0.0
 11
0.0
 21
373.2257789994
 31
0.0
 40
0.051709081
 41
0.0303416444
 42
0.0327224206
  0
ELLIPSE
  5
5F9
100
AcDbEntity
  8
0
100
AcDbEllipse
 62
7
  6
CONTINUOUS
 10
232.7557385572
 20
-336.4762672807
 30
0.0
 11
1164.0255505377
 21
-0.0
 31
0.0
 40
0.3206336655
 41
1.6042551717
 42
1.6078116418
  0
ELLIPSE
  5
5FA
100
AcDbEntity
  8
0
100
AcDbEllipse
 62
7
  6
CONTINUOUS
 10
232.7557385572
 20
-336.4762672807
 30
0.0
 11
1164.0255505377
 21
-0.0
 31
0.0
 40
0.3206336655
 41
1.6035187474
 42
1.6042342498
  0
ELLIPSE
  5
5FB
100
AcDbEntity
  8
0
100
AcDbEllipse
 62
7
  6
CONTINUOUS
 10
196.4732229577
 20
-336.4762672807
 30
0.0
 11
0.0
 21
373.2257789994
 31
0.0
 40
0.1442868399
 41
0.0404203203
 42
0.0425940339
  0
ELLIPSE
  5
5FC
100
AcDbEntity
  8
0
100
AcDbEllipse
 62
7
  6
CONTINUOUS
 10
223.8027469567
 20
-336.4762672807
 30
0.0
 11
695.6736027634
 21
-0.0
 31
0.0
 40
0.5364955311
 41
1.6183965018
 42
1.6208507626
  0
ELLIPSE
  5
5FD
100
AcDbEntity
  8
0
100
AcDbEllipse
 62
7
  6
CONTINUOUS
 10
223.8027469567
 20
-336.4762672807
 30
0.0
 11
695.6736027634
 21
-0.0
 31
0.0
 40
0.5364955311
 41
1.6133903607
 42
1.6183640663
  0
ELLIPSE
  5
5FE
100
AcDbEntity
  8
0
100
AcDbEllipse
 62
7
  6
CONTINUOUS
 10
21.1623005946
 20
-336.4762672807
 30
0.0
 11
4125.4223662981
 21
-0.0
 31
0.0
 40
0.0904697134
 41
1.529689326
 42
1.5299605211
  0
ELLIPSE
  5
5FF
100
AcDbEntity
  8
0
100
AcDbEllipse
 62
7
  6
CONTINUOUS
 10
193.318410622
 20
-336.4762672807
 30
0.0
 11
0.0
 21
373.2257789994
 31
0.0
 40
0.1442868399
 41
0.0411139169
 42
0.0460052014
  0
ELLIPSE
  5
600
100
AcDbEntity
  8
0
100
AcDbEllipse
 62
7
  6
CONTINUOUS
 10
340.9866243725
 20
-336.4762672807
 30
0.0
 11
2429.5924848176
 21
-0.0
 31
0.0
 40
0.1536166173
 41
1.6327201485
 42
1.6333616783
  0
ELLIPSE
  5
601
100
AcDbEntity
  8
0
100
AcDbEllipse
 62
7
  6
CONTINUOUS
 10
167.1443508829
 20
-336.4762672807
 30
0.0
 11
-0.0
 21
373.2257789994
 31
0.0
 40
0.9246660609
 41
-0.0624599392
 42
-0.0615250842
  0
ELLIPSE
  5
602
100
AcDbEntity
  8
0
100
AcDbEllipse
 62
7
  6
CONTINUOUS
 10
181.4457268702
 20
-336.4762672807
 30
0.0
 11
0.0
 21
373.2257789994
 31
0.0
 40
0.3014652626
 41
-0.0615250842
 42
-0.0605047515
  0
ELLIPSE
  5
603
100
AcDbEntity
  8
0
100
AcDbEllipse
 62
7
  6
CONTINUOUS
 10
232.7557385572
 20
-336.4762672807
 30
0.0
 11
1162.4661384927
 21
-0.0
 31
0.0
 40
0.3206336655
 41
1.6035626592
 42
1.6038869435
  0
ELLIPSE
  5
604
100
AcDbEntity
  8
0
100
AcDbEllipse
 62
7
  6
CONTINUOUS
 10
195.304204599
 20
-336.4762672807
 30
0.0
 11
0.0
 21
372.7257789994
 31
0.0
 40
0.051709081
 41
0.0303823593
 42
0.0327663324
  0
ELLIPSE
  5
605
100
AcDbEntity
  8
0
100
AcDbEllipse
 62
7
  6
CONTINUOUS
 10
207.9107933966
 20
-336.4762672807
 30
0.0
 11
581.1876742653
 21
-0.0
 31
0.0
 40
0.6413174186
 41
1.5932332804
 42
1.5934987033
  0
ELLIPSE
  5
606
100
AcDbEntity
  8
0
100
AcDbEllipse
 62
7
  6
CONTINUOUS
 10
195.304204599
 20
-336.4762672807
 30
0.0
 11
0.0
 21
372.7257789994
 31
0.0
 40
0.051709081
 41
0.0200536309
 42
0.0224369536
  0
ELLIPSE
  5
607
100
AcDbEntity
  8
0
100
AcDbEllipse
 62
7
  6
CONTINUOUS
 10
193.8485574107
 20
-336.4762672807
 30
0.0
 11
0.0
 21
373.2257789994
 31
0.0
 40
0.0247035398
 41
0.0533291883
 42
0.0546682098
  0
ELLIPSE
  5
608
100
AcDbEntity
  8
0
100
AcDbEllipse
 62
7
  6
CONTINUOUS
 10
197.9400550324
 20
-336.4762672807
 30
0.0
 11
0.0
 21
373.2257789994
 31
0.0
 40
0.2253318255
 41
0.0546682098
 42
0.0571556554
  0
ELLIPSE
  5
609
100
AcDbEntity
  8
0
100
AcDbEllipse
 62
7
  6
CONTINUOUS
 10
201.9608058762
 20
-336.4762672807
 30
0.0
 11
0.0
 21
373.2257789994
 31
0.0
 40
0.4139192814
 41
0.0571556554
 42
0.0585804786
  0
ELLIPSE
  5
60A
100
AcDbEntity
  8
0
100
AcDbEllipse
 62
7
  6
CONTINUOUS
 10
207.6983191512
 20
-336.4762672807
 30
0.0
 11
0.0
 21
373.2257789994
 31
0.0
 40
0.6764907755
 41
0.0585804786
 42
0.0597717412
  0
ELLIPSE
  5
60B
100
AcDbEntity
  8
0
100
AcDbEllipse
 62
7
  6
CONTINUOUS
 10
216.4094973109
 20
-336.4762672807
 30
0.0
 11
398.3113594062
 21
-0.0
 31
0.0
 40
0.9370201733
 41
1.630568068
 42
1.6318449431
  0
ELLIPSE
  5
60C
100
AcDbEntity
  8
0
100
AcDbEllipse
 62
7
  6
CONTINUOUS
 10
192.1596608589
 20
-336.4762672807
 30
0.0
 11
0.0
 21
373.2257789994
 31
0.0
 40
0.0274709093
 41
-0.0549247097
 42
-0.0538620182
  0
ELLIPSE
  5
60D
100
AcDbEntity
  8
0
100
AcDbEllipse
 62
7
  6
CONTINUOUS
 10
182.7202738879
 20
-336.4762672807
 30
0.0
 11
0.0
 21
373.2257789994
 31
0.0
 40
0.4972563411
 41
-0.0538620182
 42
-0.0531184737
  0
ELLIPSE
  5
60E
100
AcDbEntity
  8
0
100
AcDbEllipse
 62
7
  6
CONTINUOUS
 10
159.413958534
 20
-336.4762672807
 30
0.0
 11
624.5562990155
 21
0.0
 31
0.0
 40
0.5975854852
 41
1.5176778531
 42
1.5180833298
  0
ELLIPSE
  5
60F
100
AcDbEntity
  8
0
100
AcDbEllipse
 62
7
  6
CONTINUOUS
 10
319.6276773887
 20
-336.4762672807
 30
0.0
 11
2429.5924848177
 21
-0.0
 31
0.0
 40
0.1536166173
 41
1.623385009
 42
1.6240261937
  0
ELLIPSE
  5
610
100
AcDbEntity
  8
0
100
AcDbEllipse
 62
7
  6
CONTINUOUS
 10
218.1353599768
 20
-336.4762672807
 30
0.0
 11
525.8302976391
 21
-0.0
 31
0.0
 40
0.7097837091
 41
1.624473529
 42
1.6251544793
  0
ELLIPSE
  5
611
100
AcDbEntity
  8
0
100
AcDbEllipse
 62
7
  6
CONTINUOUS
 10
206.048525011
 20
-336.4762672807
 30
0.0
 11
-0.0
 21
373.2257789994
 31
0.0
 40
0.8128196381
 41
0.0543581526
 42
0.0552727506
  0
ELLIPSE
  5
612
100
AcDbEntity
  8
0
100
AcDbEllipse
 62
7
  6
CONTINUOUS
 10
198.759611394
 20
-336.4762672807
 30
0.0
 11
0.0
 21
373.2257789994
 31
0.0
 40
0.4593100082
 41
0.0552727506
 42
0.0564210324
  0
ELLIPSE
  5
613
100
AcDbEntity
  8
0
100
AcDbEllipse
 62
7
  6
CONTINUOUS
 10
193.8351630816
 20
-336.4762672807
 30
0.0
 11
0.0
 21
373.2257789994
 31
0.0
 40
0.2253318255
 41
0.0564210324
 42
0.0589087259
  0
ELLIPSE
  5
614
100
AcDbEntity
  8
0
100
AcDbEllipse
 62
7
  6
CONTINUOUS
 10
196.4732229577
 20
-336.4762672807
 30
0.0
 11
0.0
 21
372.7257789994
 31
0.0
 40
0.1442868399
 41
0.0404745725
 42
0.0426512072
  0
ELLIPSE
  5
615
100
AcDbEntity
  8
0
100
AcDbEllipse
 62
7
  6
CONTINUOUS
 10
195.83754937
 20
-336.4762672807
 30
0.0
 11
0.0
 21
373.2257789994
 31
0.0
 40
0.2253318255
 41
0.0577771308
 42
0.0619238217
  0
ELLIPSE
  5
616
100
AcDbEntity
  8
0
100
AcDbEllipse
 62
7
  6
CONTINUOUS
 10
545.7035783064
 20
-336.4762672807
 30
0.0
 11
5354.698452573
 21
-0.0
 31
0.0
 40
0.0697006157
 41
1.6373187415
 42
1.6377005509
  0
ELLIPSE
  5
617
100
AcDbEntity
  8
0
100
AcDbEllipse
 62
7
  6
CONTINUOUS
 10
199.7895194588
 20
-336.4762672807
 30
0.0
 11
0.0
 21
373.2257789994
 31
0.0
 40
0.3043390406
 41
0.0643736947
 42
0.0660481468
  0
ELLIPSE
  5
618
100
AcDbEntity
  8
0
100
AcDbEllipse
 62
7
  6
CONTINUOUS
 10
197.9045430609
 20
-336.4762672807
 30
0.0
 11
0.0
 21
373.2257789994
 31
0.0
 40
0.3043390406
 41
0.066408589
 42
0.0742254283
  0
ELLIPSE
  5
619
100
AcDbEntity
  8
0
100
AcDbEllipse
 62
7
  6
CONTINUOUS
 10
199.7895194588
 20
-336.4762672807
 30
0.0
 11
0.0
 21
373.2257789994
 31
0.0
 40
0.3043390406
 41
0.073864788
 42
0.0755403541
  0
ELLIPSE
  5
61A
100
AcDbEntity
  8
0
100
AcDbEllipse
 62
7
  6
CONTINUOUS
 10
595.3284905027
 20
-336.4762672807
 30
0.0
 11
5354.6984525731
 21
-0.0
 31
0.0
 40
0.0697006157
 41
1.6463366809
 42
1.6471933275
  0
ELLIPSE
  5
61B
100
AcDbEntity
  8
0
100
AcDbEllipse
 62
7
  6
CONTINUOUS
 10
198.9646454813
 20
-336.4762672807
 30
0.0
 11
0.0
 21
373.2257789994
 31
0.0
 40
0.3630535763
 41
0.0786549852
 42
0.0825750689
  0
ELLIPSE
  5
61C
100
AcDbEntity
  8
0
100
AcDbEllipse
 62
7
  6
CONTINUOUS
 10
-746.6329366332
 20
-336.4762672807
 30
0.0
 11
10574.4219186984
 21
-0.0
 31
0.0
 40
0.0352951473
 41
1.4823763263
 42
1.4825072039
  0
ELLIPSE
  5
61D
100
AcDbEntity
  8
0
100
AcDbEllipse
 62
7
  6
CONTINUOUS
 10
-746.6329366332
 20
-336.4762672807
 30
0.0
 11
10574.4219186984
 21
-0.0
 31
0.0
 40
0.0352951473
 41
1.4822551583
 42
1.4823129095
  0
ELLIPSE
  5
61E
100
AcDbEntity
  8
0
100
AcDbEllipse
 62
7
  6
CONTINUOUS
 10
167.0854321356
 20
-336.4762672807
 30
0.0
 11
0.0
 21
373.2257789994
 31
0.0
 40
0.6721354367
 41
-0.0868789214
 42
-0.085134103
  0
ELLIPSE
  5
61F
100
AcDbEntity
  8
0
100
AcDbEllipse
 62
7
  6
CONTINUOUS
 10
202.4832494906
 20
-336.4762672807
 30
0.0
 11
0.0
 21
373.2257789994
 31
0.0
 40
0.3964402514
 41
0.0869530971
 42
0.0886332783
  0
ELLIPSE
  5
620
100
AcDbEntity
  8
0
100
AcDbEllipse
 62
7
  6
CONTINUOUS
 10
198.6247953326
 20
-336.4762672807
 30
0.0
 11
0.0
 21
373.2257789994
 31
0.0
 40
0.2919625448
 41
0.0949618543
 42
0.0966629407
  0
ELLIPSE
  5
621
100
AcDbEntity
  8
0
100
AcDbEllipse
 62
7
  6
CONTINUOUS
 10
210.1284308439
 20
-336.4762672807
 30
0.0
 11
0.0
 21
373.2257789994
 31
0.0
 40
0.6113221688
 41
0.0966629407
 42
0.0983134442
  0
ELLIPSE
  5
622
100
AcDbEntity
  8
0
100
AcDbEllipse
 62
7
  6
CONTINUOUS
 10
226.4606394293
 20
-336.4762672807
 30
0.0
 11
394.5529648168
 21
-0.0
 31
0.0
 40
0.9459459497
 41
1.669109771
 42
1.6704302839
  0
ELLIPSE
  5
623
100
AcDbEntity
  8
0
100
AcDbEllipse
 62
7
  6
CONTINUOUS
 10
243.0134512339
 20
-336.4762672807
 30
0.0
 11
560.964401818
 21
-0.0
 31
0.0
 40
0.6653288119
 41
1.6704302839
 42
1.671192152
  0
ELLIPSE
  5
624
100
AcDbEntity
  8
0
100
AcDbEllipse
 62
7
  6
CONTINUOUS
 10
-194.3435939489
 20
-336.4762672807
 30
0.0
 11
3759.1231025099
 21
-0.0
 31
0.0
 40
0.0992853303
 41
1.4695880996
 42
1.4698170492
  0
ELLIPSE
  5
625
100
AcDbEntity
  8
0
100
AcDbEllipse
 62
7
  6
CONTINUOUS
 10
77.6809166855
 20
-336.4762672807
 30
0.0
 11
1060.6748177058
 21
-0.0
 31
0.0
 40
0.3518757802
 41
1.4698170492
 42
1.470223655
  0
ELLIPSE
  5
626
100
AcDbEntity
  8
0
100
AcDbEllipse
 62
7
  6
CONTINUOUS
 10
116.4279246118
 20
-336.4762672807
 30
0.0
 11
674.7607865522
 21
0.0
 31
0.0
 40
0.5531231015
 41
1.470223655
 42
1.4705793646
  0
ELLIPSE
  5
627
100
AcDbEntity
  8
0
100
AcDbEllipse
 62
7
  6
CONTINUOUS
 10
140.196041506
 20
-336.4762672807
 30
0.0
 11
437.1967190123
 21
0.0
 31
0.0
 40
0.853679277
 41
1.4705793646
 42
1.4712398889
  0
ELLIPSE
  5
628
100
AcDbEntity
  8
0
100
AcDbEllipse
 62
7
  6
CONTINUOUS
 10
167.7465829132
 20
-336.4762672807
 30
0.0
 11
0.0
 21
373.2257789994
 31
0.0
 40
0.4287114223
 41
-0.0995564379
 42
-0.098642037
  0
ELLIPSE
  5
629
100
AcDbEntity
  8
0
100
AcDbEllipse
 62
7
  6
CONTINUOUS
 10
179.9857144495
 20
-336.4762672807
 30
0.0
 11
0.0
 21
373.2257789994
 31
0.0
 40
0.0957288801
 41
-0.098642037
 42
-0.0971690788
  0
ELLIPSE
  5
62A
100
AcDbEntity
  8
0
100
AcDbEllipse
 62
7
  6
CONTINUOUS
 10
223.8027469567
 20
-336.4762672807
 30
0.0
 11
694.7416285511
 21
-0.0
 31
0.0
 40
0.5364955311
 41
1.6134475339
 42
1.6146391868
  0
ELLIPSE
  5
62B
100
AcDbEntity
  8
0
100
AcDbEllipse
 62
7
  6
CONTINUOUS
 10
74.1336216973
 20
-336.4762672807
 30
0.0
 11
1219.5547650099
 21
-0.0
 31
0.0
 40
0.3060344559
 41
1.4778403122
 42
1.4782720192
  0
ELLIPSE
  5
62C
100
AcDbEntity
  8
0
100
AcDbEllipse
 62
7
  6
CONTINUOUS
 10
-160.5030681825
 20
-336.4762672807
 30
0.0
 11
3759.12310251
 21
-0.0
 31
0.0
 40
0.0992853303
 41
1.4782720192
 42
1.4784132216
  0
ELLIPSE
  5
62D
100
AcDbEntity
  8
0
100
AcDbEllipse
 62
7
  6
CONTINUOUS
 10
258.3589644482
 20
-336.4762672807
 30
0.0
 11
788.7175893662
 21
-0.0
 31
0.0
 40
0.4732058522
 41
1.6632693969
 42
1.6642336918
  0
ELLIPSE
  5
62E
100
AcDbEntity
  8
0
100
AcDbEllipse
 62
7
  6
CONTINUOUS
 10
224.0869333331
 20
-336.4762672807
 30
0.0
 11
421.391832297
 21
-0.0
 31
0.0
 40
0.8856977055
 41
1.6642336918
 42
1.6650205227
  0
ELLIPSE
  5
62F
100
AcDbEntity
  8
0
100
AcDbEllipse
 62
7
  6
CONTINUOUS
 10
207.0664282704
 20
-336.4762672807
 30
0.0
 11
-0.0
 21
373.2257789994
 31
0.0
 40
0.6443442798
 41
0.094224196
 42
0.0955950339
  0
ELLIPSE
  5
630
100
AcDbEntity
  8
0
100
AcDbEllipse
 62
7
  6
CONTINUOUS
 10
193.4127008659
 20
-336.4762672807
 30
0.0
 11
0.0
 21
373.2257789994
 31
0.0
 40
0.2610733104
 41
0.0955950339
 42
0.097016909
  0
ENDSEC
  0
SECTION
  2
OBJECTS
  0
DICTIONARY
  5
C
100
AcDbDictionary
280
0
281
1
  3
ACAD_GROUP
350
D
  3
ACAD_MLINESTYLE
350
17
  3
ACAD_LAYOUT
350
1A
  3
ACAD_PLOTSETTINGS
350
19
  3
ACAD_PLOTSTYLENAME
350
E
  0
DICTIONARY
  5
D
102
{ACAD_REACTORS
330
C
102
}
100
AcDbDictionary
280
0
281
1
  0
ACDBDICTIONARYWDFLT
  5
E
102
{ACAD_REACTORS
330
C
102
}
100
AcDbDictionary
281
1
  3
Normal
350
F
100
AcDbDictionaryWithDefault
340
F
  0
DICTIONARY
  5
17
102
{ACAD_REACTORS
330
C
102
}
100
AcDbDictionary
280
0
281
1
  3
Standard
350
18
  0
DICTIONARY
  5
19
102
{ACAD_REACTORS
330
C
102
}
100
AcDbDictionary
281
1
  0
DICTIONARY
  5
1A
102
{ACAD_REACTORS
330
C
102
}
100
AcDbDictionary
281
1
  3
Model
350
631
  3
Layout1
350
632
  0
ACDBPLACEHOLDER
  5
F
102
{ACAD_REACTORS
330
E
102
}
  0
MLINESTYLE
  5
18
102
{ACAD_REACTORS
330
17
102
}
100
AcDbMlineStyle
  2
STANDARD
 70
0
  3

 62
256
 51
90.0
 52
90.0
 71
2
 49
0.5
 62
256
  6
BYLAYER
 49
-0.5
 62
256
  6
BYLAYER
  0
LAYOUT
  5
631
102
{ACAD_REACTORS
330
1A
102
}
100
AcDbPlotSettings
  1

  2
none_device
  4
ISO_A3_(420.00_x_297.00_MM)
  6

 40
0.0
 41
0.0
 42
0.0
 43
0.0
 44
420.0
 45
297.0
 46
0.0
 47
0.0
 48
0.0
 49
0.0
140
0.0
141
0.0
142
1.0
143
1.0
 70
1024
 72
1
 73
0
 74
0
  7

 75
0
147
1.0
148
0.0
149
0.0
100
AcDbLayout
  1
Model
 70
0
 71
0
 10
0.0
 20
0.0
 11
420.0
 21
297.0
 12
0.0
 22
0.0
 32
0.0
 14
0.0
 24
0.0
 34
0.0
 15
0.0
 25
0.0
 35
0.0
146
0.0
 13
0.0
 23
0.0
 33
0.0
 16
1.0
 26
0.0
 36
0.0
 17
0.0
 27
1.0
 37
0.0
 76
0
330
211
345
0
346
0
  0
LAYOUT
  5
632
102
{ACAD_REACTORS
330
1A
102
}
100
AcDbPlotSettings
  1

  2
none_device
  4
ISO_A3_(420.00_x_297.00_MM)
  6

 40
0.0
 41
0.0
 42
0.0
 43
0.0
 44
420.0
 45
297.0
 46
0.0
 47
0.0
 48
0.0
 49
0.0
140
0.0
141
0.0
142
1.0
143
1.0
 70
0
 72
1
 73
0
 74
0
  7

 75
0
147
1.0
148
0.0
149
0.0
100
AcDbLayout
  1
Layout1
 70
0
 71
1
 10
0.0
 20
0.0
 11
420.0
 21
297.0
 12
0.0
 22
0.0
 32
0.0
 14
0.0
 24
0.0
 34
0.0
 15
0.0
 25
0.0
 35
0.0
146
0.0
 13
0.0
 23
0.0
 33
0.0
 16
1.0
 26
0.0
 36
0.0
 17
0.0
 27
1.0
 37
0.0
 76
0
330
212
345
0
346
0
  0
ENDSEC
  0
EOF
