999
DXF file: 001-m34963-p-2.dxf
999
Pro/ENGINEER 2011490 by Parametric Technology Corporation
  0
SECTION
  2
HEADER
  9
$ACADVER
  1
AC1015
  9
$DWGCODEPAGE
  3
ANSI_1252
  9
$EXTMAX
 10
594.0
 20
420.0
 30
0.0
  9
$EXTMIN
 10
0.0
 20
0.0
 30
0.0
  9
$LIMMIN
 10
0.0
 20
0.0
  9
$LIMMAX
 10
594.0
 20
420.0
  9
$VIEWCTR
 10
297.0
 20
210.0
  9
$VIEWSIZE
 40
420.0
  9
$CLAYER
  8
0
  9
$LTSCALE
 40
32.67
  9
$CELTYPE
  6
BYLAYER
  9
$DIMSCALE
 40
1.0
  9
$DIMASZ
 40
3.5
  9
$DIMEXO
 40
3.7125
  9
$DIMDLI
 40
22.572
  9
$DIMEXE
 40
10.692
  9
$DIMCEN
 40
5.346
  9
$DIMLFAC
 40
1.0
  9
$DIMBLK
  1
_FILLED
  9
$DIMTXT
 40
3.5
  9
$DIMTOL
 70
1
  9
$DIMLIM
 70
0
  9
$DIMTFAC
 40
1.0
  9
$DIMTP
 40
0.005
  9
$DIMTM
 40
0.005
  9
$PDMODE
 70
3
  9
$PDSIZE
 40
0.3125
  9
$HANDSEED
  5
640
  9
$TILEMODE
 70
1
  9
$MEASUREMENT
 70
1
  9
$INSUNITS
 70
4
  0
ENDSEC
  0
SECTION
  2
CLASSES
  0
CLASS
  1
ACDBDICTIONARYWDFLT
  2
AcDbDictionaryWithDefault
  3
AutoCAD 2000
 90
0
280
0
281
0
  0
CLASS
  1
ACDBPLACEHOLDER
  2
AcDbPlaceHolder
  3
AutoCAD 2000
 90
0
280
0
281
0
  0
CLASS
  1
LAYOUT
  2
AcDbLayout
  3
AutoCAD 2000
 90
0
280
0
281
0
  0
ENDSEC
  0
SECTION
  2
TABLES
  0
TABLE
  2
VPORT
  5
8
100
AcDbSymbolTable
 70
2
  0
VPORT
  5
1F4
100
AcDbSymbolTableRecord
100
AcDbViewportTableRecord
  2
*ACTIVE
 70
0
 10
0.0
 20
0.0
 11
1.0
 21
1.0
 12
297.0
 22
210.0
 13
0.0
 23
0.0
 14
1.0
 24
1.0
 15
0.0
 25
0.0
 16
0.0
 26
0.0
 36
1.0
 17
0.0
 27
0.0
 37
0.0
 40
420.0
 41
1.4142857143
 42
50.0
 43
0.0
 44
0.0
 50
0.0
 51
0.0
 71
0
 72
100
 73
1
 74
1
 75
0
 76
0
 77
0
 78
0
  0
ENDTAB
  0
TABLE
  2
LTYPE
  5
5
100
AcDbSymbolTable
 70
6
  0
LTYPE
  5
14
100
AcDbSymbolTableRecord
100
AcDbLinetypeTableRecord
  2
BYBLOCK
 70
0
  3

 72
65
 73
0
 40
0.0
  0
LTYPE
  5
15
100
AcDbSymbolTableRecord
100
AcDbLinetypeTableRecord
  2
BYLAYER
 70
0
  3

 72
65
 73
0
 40
0.0
  0
LTYPE
  5
16
100
AcDbSymbolTableRecord
100
AcDbLinetypeTableRecord
  2
CONTINUOUS
 70
64
  3
Solid line
 72
65
 73
0
 40
0.0
  0
LTYPE
  5
1F5
100
AcDbSymbolTableRecord
100
AcDbLinetypeTableRecord
  2
CENTER
 70
64
  3
____ _ ____ _ ____ _ ____ _ ____ _ ____ _ ____
 72
65
 73
4
 40
0.6
 49
0.375
 74
0
 49
-0.075
 74
0
 49
0.075
 74
0
 49
-0.075
 74
0
  0
LTYPE
  5
1F6
100
AcDbSymbolTableRecord
100
AcDbLinetypeTableRecord
  2
HIDDEN
 70
64
  3
- - - - - - - - - - - - - - - - - - - -
 72
65
 73
2
 40
0.2
 49
0.1
 74
0
 49
-0.1
 74
0
  0
LTYPE
  5
1F7
100
AcDbSymbolTableRecord
100
AcDbLinetypeTableRecord
  2
PHANTOM
 70
64
  3
_____ _ _ _____ _ _ _____ _ _ _____
 72
65
 73
6
 40
0.8
 49
0.45
 74
0
 49
-0.05
 74
0
 49
0.1
 74
0
 49
-0.05
 74
0
 49
0.1
 74
0
 49
-0.05
 74
0
  0
LTYPE
  5
1F8
100
AcDbSymbolTableRecord
100
AcDbLinetypeTableRecord
  2
DOT
 70
64
  3
. . . . . . . . . . . . . . . . . . . .
 72
65
 73
2
 40
0.2
 49
0.1
 74
0
 49
-0.1
 74
0
  0
LTYPE
  5
1F9
100
AcDbSymbolTableRecord
100
AcDbLinetypeTableRecord
  2
DASHED
 70
64
  3
- - - - - - - - - - - - - - - - - - - -
 72
65
 73
2
 40
0.2
 49
0.1
 74
0
 49
-0.1
 74
0
  0
ENDTAB
  0
TABLE
  2
LAYER
  5
2
100
AcDbSymbolTable
 70
36
  0
LAYER
  5
10
100
AcDbSymbolTableRecord
100
AcDbLayerTableRecord
  2
0
 70
0
 62
7
  6
CONTINUOUS
370
-3
390
F
  0
LAYER
  5
1FA
100
AcDbSymbolTableRecord
100
AcDbLayerTableRecord
  2
DEFAULT_1
 70
0
 62
7
  6
CENTER
370
-3
390
F
  0
LAYER
  5
1FB
100
AcDbSymbolTableRecord
100
AcDbLayerTableRecord
  2
DEFAULT_2
 70
0
 62
8
  6
HIDDEN
370
-3
390
F
  0
LAYER
  5
1FC
100
AcDbSymbolTableRecord
100
AcDbLayerTableRecord
  2
DEFAULT_3
 70
0
 62
7
  6
PHANTOM
370
-3
390
F
  0
LAYER
  5
1FD
100
AcDbSymbolTableRecord
100
AcDbLayerTableRecord
  2
AUSFORMSCHRAEGEN
 70
0
 62
7
  6
CONTINUOUS
370
-3
390
F
  0
LAYER
  5
1FE
100
AcDbSymbolTableRecord
100
AcDbLayerTableRecord
  2
BEZUGSACHSEN
 70
0
 62
7
  6
CONTINUOUS
370
-3
390
F
  0
LAYER
  5
1FF
100
AcDbSymbolTableRecord
100
AcDbLayerTableRecord
  2
BEZUGSEBENEN
 70
0
 62
7
  6
CONTINUOUS
370
-3
390
F
  0
LAYER
  5
200
100
AcDbSymbolTableRecord
100
AcDbLayerTableRecord
  2
BG_STARTBEZUEGE
 70
0
 62
7
  6
CONTINUOUS
370
-3
390
F
  0
LAYER
  5
201
100
AcDbSymbolTableRecord
100
AcDbLayerTableRecord
  2
FASEN
 70
0
 62
7
  6
CONTINUOUS
370
-3
390
F
  0
LAYER
  5
202
100
AcDbSymbolTableRecord
100
AcDbLayerTableRecord
  2
HILFEN
 70
0
 62
7
  6
CONTINUOUS
370
-3
390
F
  0
LAYER
  5
203
100
AcDbSymbolTableRecord
100
AcDbLayerTableRecord
  2
KONSTRUKTIONSELEMENTE
 70
0
 62
7
  6
CONTINUOUS
370
-3
390
F
  0
LAYER
  5
204
100
AcDbSymbolTableRecord
100
AcDbLayerTableRecord
  2
KURVEN
 70
0
 62
7
  6
CONTINUOUS
370
-3
390
F
  0
LAYER
  5
205
100
AcDbSymbolTableRecord
100
AcDbLayerTableRecord
  2
NORM
 70
0
 62
7
  6
CONTINUOUS
370
-3
390
F
  0
LAYER
  5
206
100
AcDbSymbolTableRecord
100
AcDbLayerTableRecord
  2
PLATZIERUNG
 70
0
 62
7
  6
CONTINUOUS
370
-3
390
F
  0
LAYER
  5
207
100
AcDbSymbolTableRecord
100
AcDbLayerTableRecord
  2
RUNDUNGEN
 70
0
 62
7
  6
CONTINUOUS
370
-3
390
F
  0
LAYER
  5
208
100
AcDbSymbolTableRecord
100
AcDbLayerTableRecord
  2
TEIL_STARTBEZUEGE
 70
0
 62
7
  6
CONTINUOUS
370
-3
390
F
  0
LAYER
  5
209
100
AcDbSymbolTableRecord
100
AcDbLayerTableRecord
  2
T_STARTBEZUEGE
 70
0
 62
7
  6
CONTINUOUS
370
-3
390
F
  0
LAYER
  5
20A
100
AcDbSymbolTableRecord
100
AcDbLayerTableRecord
  2
ZEICHNUNGSBEMASSUNGEN
 70
0
 62
7
  6
CONTINUOUS
370
-3
390
F
  0
ENDTAB
  0
TABLE
  2
STYLE
  5
3
100
AcDbSymbolTable
 70
1
  0
STYLE
  5
11
100
AcDbSymbolTableRecord
100
AcDbTextStyleTableRecord
  2
STANDARD
 70
0
 40
0.0
 41
0.7
 50
0.0
 71
0
 42
0.2
  3
txt
  4

  0
STYLE
  5
20B
100
AcDbSymbolTableRecord
100
AcDbTextStyleTableRecord
  2
TEXTSTYLE_1
 70
0
 40
0.0
 41
0.8
 50
0.0
 71
0
 42
0.2
  3
gdt
  4

  0
ENDTAB
  0
TABLE
  2
VIEW
  5
6
100
AcDbSymbolTable
 70
0
  0
ENDTAB
  0
TABLE
  2
UCS
  5
7
100
AcDbSymbolTable
 70
0
  0
ENDTAB
  0
TABLE
  2
APPID
  5
9
100
AcDbSymbolTable
 70
1
  0
APPID
  5
20C
100
AcDbSymbolTableRecord
100
AcDbRegAppTableRecord
  2
ACAD
 70
0
  0
ENDTAB
  0
TABLE
  2
BLOCK_RECORD
  5
1
100
AcDbSymbolTable
 70
0
  0
BLOCK_RECORD
  5
20D
100
AcDbSymbolTableRecord
100
AcDbBlockTableRecord
  2
*Model_Space
  0
BLOCK_RECORD
  5
20E
100
AcDbSymbolTableRecord
100
AcDbBlockTableRecord
  2
*Paper_Space
  0
ENDTAB
  0
TABLE
  2
DIMSTYLE
  5
A
100
AcDbSymbolTable
 70
1
100
AcDbDimStyleTable
 71
0
  0
DIMSTYLE
105
20F
100
AcDbSymbolTableRecord
100
AcDbDimStyleTableRecord
  2
STANDARD
 70
0
  3

  4

 40
1.0
 41
3.5
 42
0.0625
 43
0.38
 44
0.18
 45
0.0
 46
0.0
 47
0.005
 48
0.005
140
3.5
141
0.09
142
0.0
143
25.4
144
1.0
145
0.0
146
1.0
147
0.09
 71
1.0
 72
0.0
 73
0
 74
0
 75
0
 76
0
 77
1
 78
8
170
0
171
2
172
0
173
0
174
0
175
0
176
0
177
0
178
5
270
2
271
3
272
3
273
2
274
2
275
0
280
0
281
0
282
0
283
1
284
8
285
0
286
0
287
3
288
0
340
11
  0
ENDTAB
  0
ENDSEC
  0
SECTION
  2
BLOCKS
  0
BLOCK
  5
20
100
AcDbEntity
  8
0
100
AcDbBlockBegin
  2
*Model_Space
 70
0
 10
0.0
 20
0.0
 30
0.0
  3
*Model_Space
  1

  0
ENDBLK
  5
21
100
AcDbEntity
  8
0
100
AcDbBlockEnd
  0
BLOCK
  5
1C
100
AcDbEntity
  8
0
100
AcDbBlockBegin
  2
*Paper_Space
 70
0
 10
0.0
 20
0.0
 30
0.0
  3
*Paper_Space
  1

  0
ENDBLK
  5
1D
100
AcDbEntity
  8
0
100
AcDbBlockEnd
  0
ENDSEC
  0
SECTION
  2
ENTITIES
  0
MTEXT
  5
210
100
AcDbEntity
  8
0
100
AcDbMText
 62
5
  6
CONTINUOUS
  7
STANDARD
 71
1
 72
1
 10
188.9058939041
 20
201.1005754795
 30
0.0
 11
1.0
 21
0.0
 31
0.0
 44
0.9
  1
IWK-2S-8
 40
7.0
 41
47.3333333333
  0
MTEXT
  5
211
100
AcDbEntity
  8
0
100
AcDbMText
 62
5
  6
CONTINUOUS
  7
STANDARD
 71
1
 72
1
 10
450.0928938356
 20
251.0742722603
 30
0.0
 11
0.0
 21
1.0
 31
0.0
 44
0.9
  1
IWK-2S-8
 40
7.0
 41
47.3333333333
  0
LINE
  5
212
100
AcDbEntity
  8
0
100
AcDbLine
 62
7
  6
CONTINUOUS
 10
0.0
 20
0.0
 11
0.0
 21
420.0
  0
LINE
  5
213
100
AcDbEntity
  8
0
100
AcDbLine
 62
7
  6
CONTINUOUS
 10
0.0
 20
0.0
 11
594.0
 21
0.0
  0
LINE
  5
214
100
AcDbEntity
  8
0
100
AcDbLine
 62
7
  6
CONTINUOUS
 10
0.0
 20
420.0
 11
594.0
 21
420.0
  0
LINE
  5
215
100
AcDbEntity
  8
0
100
AcDbLine
 62
7
  6
CONTINUOUS
 10
594.0
 20
0.0
 11
594.0
 21
420.0
  0
LINE
  5
216
100
AcDbEntity
  8
BEZUGSACHSEN
100
AcDbLine
 62
7
  6
CONTINUOUS
 10
295.2128378887
 20
9.671691236
 11
292.2806727618
 21
9.3635082627
  0
LINE
  5
217
100
AcDbEntity
  8
BEZUGSACHSEN
100
AcDbLine
 62
7
  6
CONTINUOUS
 10
145.2128378887
 20
9.671691236
 11
142.2806727618
 21
9.3635082627
  0
LINE
  5
218
100
AcDbEntity
  8
AUSFORMSCHRAEGEN
100
AcDbLine
 62
7
  6
CONTINUOUS
 10
142.2806727618
 20
9.3635082627
 11
139.3485076348
 21
9.671691236
  0
LINE
  5
219
100
AcDbEntity
  8
BEZUGSACHSEN
100
AcDbLine
 62
7
  6
CONTINUOUS
 10
142.2806727618
 20
9.3635082627
 11
139.3485076348
 21
9.671691236
  0
LINE
  5
21A
100
AcDbEntity
  8
RUNDUNGEN
100
AcDbLine
 62
7
  6
CONTINUOUS
 10
28.8367155755
 20
70.9581071104
 11
32.3722494815
 21
67.4225732045
  0
LINE
  5
21B
100
AcDbEntity
  8
AUSFORMSCHRAEGEN
100
AcDbLine
 62
7
  6
CONTINUOUS
 10
292.2806727618
 20
9.3635082627
 11
289.3485076348
 21
9.671691236
  0
LINE
  5
21C
100
AcDbEntity
  8
BEZUGSACHSEN
100
AcDbLine
 62
7
  6
CONTINUOUS
 10
292.2806727618
 20
9.3635082627
 11
289.3485076348
 21
9.671691236
  0
LINE
  5
21D
100
AcDbEntity
  8
0
100
AcDbLine
 62
7
  6
CONTINUOUS
 10
225.5581721657
 20
87.2635516459
 11
224.9331727618
 21
87.1039771968
  0
LINE
  5
21E
100
AcDbEntity
  8
0
100
AcDbLine
 62
7
  6
CONTINUOUS
 10
218.0581730598
 20
87.2635516459
 11
217.4331727618
 21
87.1039771968
  0
LINE
  5
21F
100
AcDbEntity
  8
0
100
AcDbLine
 62
7
  6
CONTINUOUS
 10
224.9331727618
 20
86.1465303907
 11
225.7144233578
 21
86.3061048537
  0
LINE
  5
220
100
AcDbEntity
  8
0
100
AcDbLine
 62
7
  6
CONTINUOUS
 10
217.4331727618
 20
86.1465303907
 11
218.2144224637
 21
86.3061048537
  0
LINE
  5
221
100
AcDbEntity
  8
BEZUGSACHSEN
100
AcDbLine
 62
7
  6
CONTINUOUS
 10
147.9709741824
 20
73.0459252099
 11
217.2806727618
 21
85.2670950942
  0
LINE
  5
222
100
AcDbEntity
  8
0
100
AcDbLine
 62
7
  6
CONTINUOUS
 10
170.6367600945
 20
81.1906405361
 11
171.0618755392
 21
81.1791805755
  0
LINE
  5
223
100
AcDbEntity
  8
RUNDUNGEN
100
AcDbLine
 62
7
  6
CONTINUOUS
 10
135.2306011311
 20
40.7693162765
 11
134.2580326651
 21
41.7418847424
  0
LINE
  5
224
100
AcDbEntity
  8
0
100
AcDbLine
 62
7
  6
CONTINUOUS
 10
162.2806727618
 20
79.6308176028
 11
162.7730766383
 21
79.7176416916
  0
LINE
  5
225
100
AcDbEntity
  8
0
100
AcDbLine
 62
7
  6
CONTINUOUS
 10
164.0861536814
 20
79.9491726021
 11
164.7426921443
 21
80.064938047
  0
LINE
  5
226
100
AcDbEntity
  8
0
100
AcDbLine
 62
7
  6
CONTINUOUS
 10
166.05576907
 20
80.2964689367
 11
166.7123076503
 21
80.4122344023
  0
LINE
  5
227
100
AcDbEntity
  8
0
100
AcDbLine
 62
7
  6
CONTINUOUS
 10
171.0618755392
 20
81.1791805755
 11
171.5542794157
 21
81.2660046644
  0
LINE
  5
228
100
AcDbEntity
  8
0
100
AcDbLine
 62
7
  6
CONTINUOUS
 10
177.3810579949
 20
82.2934229385
 11
177.8734618714
 21
82.3802470273
  0
LINE
  5
229
100
AcDbEntity
  8
0
100
AcDbLine
 62
7
  6
CONTINUOUS
 10
179.8430783166
 20
82.7275435482
 11
180.5816841314
 21
82.8577796815
  0
LINE
  5
22A
100
AcDbEntity
  8
0
100
AcDbLine
 62
7
  6
CONTINUOUS
 10
182.3871637596
 20
83.1761344531
 11
185.3415870187
 21
83.6970789861
  0
LINE
  5
22B
100
AcDbEntity
  8
0
100
AcDbLine
 62
7
  6
CONTINUOUS
 10
171.3983186337
 20
81.6706010102
 11
171.0700496958
 21
81.6127183395
  0
LINE
  5
22C
100
AcDbEntity
  8
0
100
AcDbLine
 62
7
  6
CONTINUOUS
 10
185.252915609
 20
84.1999595396
 11
182.7908962265
 21
83.7658390954
  0
LINE
  5
22D
100
AcDbEntity
  8
0
100
AcDbLine
 62
7
  6
CONTINUOUS
 10
180.4930127217
 20
83.360660235
 11
179.754406907
 21
83.2304241017
  0
LINE
  5
22E
100
AcDbEntity
  8
0
100
AcDbLine
 62
7
  6
CONTINUOUS
 10
181.5532830645
 20
84.0661302187
 11
181.0608791879
 21
83.9793061298
  0
LINE
  5
22F
100
AcDbEntity
  8
0
100
AcDbLine
 62
7
  6
CONTINUOUS
 10
167.7741491588
 20
82.0685935194
 11
168.9230913808
 21
82.2711830324
  0
LINE
  5
230
100
AcDbEntity
  8
0
100
AcDbLine
 62
7
  6
CONTINUOUS
 10
168.8491985273
 20
82.6902502288
 11
167.7002563054
 21
82.4876607158
  0
LINE
  5
231
100
AcDbEntity
  8
0
100
AcDbLine
 62
7
  6
CONTINUOUS
 10
170.8188140334
 20
83.0375465841
 11
171.1470829713
 21
83.0954292548
  0
LINE
  5
232
100
AcDbEntity
  8
0
100
AcDbLine
 62
7
  6
CONTINUOUS
 10
182.5544391306
 20
85.1068539242
 11
184.6881905144
 21
85.4830918633
  0
LINE
  5
233
100
AcDbEntity
  8
0
100
AcDbLine
 62
7
  6
CONTINUOUS
 10
171.0879687051
 20
83.430682918
 11
170.7596997672
 21
83.3728002473
  0
LINE
  5
234
100
AcDbEntity
  8
0
100
AcDbLine
 62
7
  6
CONTINUOUS
 10
184.5995191151
 20
85.9859723581
 11
182.4657677313
 21
85.609734419
  0
LINE
  5
235
100
AcDbEntity
  8
0
100
AcDbLine
 62
7
  6
CONTINUOUS
 10
180.7209721366
 20
85.9070148106
 11
181.2133760131
 21
85.9938388994
  0
LINE
  5
236
100
AcDbEntity
  8
0
100
AcDbLine
 62
7
  6
CONTINUOUS
 10
179.2371570052
 20
86.1638940655
 11
179.97576282
 21
86.2941301988
  0
LINE
  5
237
100
AcDbEntity
  8
0
100
AcDbLine
 62
7
  6
CONTINUOUS
 10
182.2736463248
 20
86.6993090592
 11
184.7356657073
 21
87.1334295034
  0
LINE
  5
238
100
AcDbEntity
  8
0
100
AcDbLine
 62
7
  6
CONTINUOUS
 10
170.523242661
 20
84.7138151349
 11
170.8515115989
 21
84.7716978055
  0
LINE
  5
239
100
AcDbEntity
  8
0
100
AcDbLine
 62
7
  6
CONTINUOUS
 10
184.646994308
 20
87.6363099981
 11
181.692571049
 21
87.1153654651
  0
LINE
  5
23A
100
AcDbEntity
  8
0
100
AcDbLine
 62
7
  6
CONTINUOUS
 10
179.8870914207
 20
86.7970106935
 11
179.1484856059
 21
86.6667745603
  0
LINE
  5
23B
100
AcDbEntity
  8
0
100
AcDbLine
 62
7
  6
CONTINUOUS
 10
177.1788691607
 20
86.3194780394
 11
176.6864652842
 21
86.2326539505
  0
LINE
  5
23C
100
AcDbEntity
  8
0
100
AcDbLine
 62
7
  6
CONTINUOUS
 10
170.7776187661
 20
85.1907648845
 11
170.4493498282
 21
85.1328822138
  0
LINE
  5
23D
100
AcDbEntity
  8
0
100
AcDbLine
 62
7
  6
CONTINUOUS
 10
166.6742532851
 20
84.4672308385
 11
166.1818494086
 21
84.3804067497
  0
LINE
  5
23E
100
AcDbEntity
  8
0
100
AcDbLine
 62
7
  6
CONTINUOUS
 10
165.0329071866
 20
84.1778172367
 11
164.3763686064
 21
84.0620517711
  0
LINE
  5
23F
100
AcDbEntity
  8
0
100
AcDbLine
 62
7
  6
CONTINUOUS
 10
163.227426267
 20
83.8594622374
 11
162.7350223905
 21
83.7726381485
  0
LINE
  5
240
100
AcDbEntity
  8
0
100
AcDbLine
 62
7
  6
CONTINUOUS
 10
162.0784839276
 20
83.6568727037
 11
161.5860800511
 21
83.5700486148
  0
LINE
  5
241
100
AcDbEntity
  8
AUSFORMSCHRAEGEN
100
AcDbLine
 62
7
  6
CONTINUOUS
 10
292.2806727618
 20
98.3695525187
 11
289.3485076348
 21
98.0613695453
  0
LINE
  5
242
100
AcDbEntity
  8
BEZUGSACHSEN
100
AcDbLine
 62
7
  6
CONTINUOUS
 10
292.2806727618
 20
98.3695525187
 11
289.3485076348
 21
98.0613695453
  0
LINE
  5
243
100
AcDbEntity
  8
0
100
AcDbLine
 62
7
  6
CONTINUOUS
 10
207.1206727618
 20
86.1465303907
 11
208.0581727618
 21
86.1465303907
  0
LINE
  5
244
100
AcDbEntity
  8
0
100
AcDbLine
 62
7
  6
CONTINUOUS
 10
211.9644226128
 20
86.1465303907
 11
213.0581729108
 21
86.1465303907
  0
LINE
  5
245
100
AcDbEntity
  8
0
100
AcDbLine
 62
7
  6
CONTINUOUS
 10
216.8081724637
 20
86.1465303907
 11
217.4331727618
 21
86.1465303907
  0
LINE
  5
246
100
AcDbEntity
  8
0
100
AcDbLine
 62
7
  6
CONTINUOUS
 10
221.1831727618
 20
86.1465303907
 11
224.9331727618
 21
86.1465303907
  0
LINE
  5
247
100
AcDbEntity
  8
0
100
AcDbLine
 62
7
  6
CONTINUOUS
 10
224.9331727618
 20
87.1039771968
 11
222.1206727618
 21
87.1039771968
  0
LINE
  5
248
100
AcDbEntity
  8
0
100
AcDbLine
 62
7
  6
CONTINUOUS
 10
217.4331727618
 20
87.1039771968
 11
216.8081724637
 21
87.1039771968
  0
LINE
  5
249
100
AcDbEntity
  8
0
100
AcDbLine
 62
7
  6
CONTINUOUS
 10
208.0581727618
 20
89.497594268
 11
210.7144226873
 21
89.497594268
  0
LINE
  5
24A
100
AcDbEntity
  8
0
100
AcDbLine
 62
7
  6
CONTINUOUS
 10
211.0269226128
 20
90.4550409624
 11
208.0581727618
 21
90.4550409624
  0
LINE
  5
24B
100
AcDbEntity
  8
0
100
AcDbLine
 62
7
  6
CONTINUOUS
 10
222.1206727618
 20
92.6890836963
 11
224.9331727618
 21
92.6890836963
  0
LINE
  5
24C
100
AcDbEntity
  8
0
100
AcDbLine
 62
7
  6
CONTINUOUS
 10
208.0581727618
 20
92.8486581454
 11
211.0269226128
 21
92.8486581454
  0
LINE
  5
24D
100
AcDbEntity
  8
0
100
AcDbLine
 62
7
  6
CONTINUOUS
 10
224.9331727618
 20
93.6465303907
 11
221.1831727618
 21
93.6465303907
  0
LINE
  5
24E
100
AcDbEntity
  8
0
100
AcDbLine
 62
7
  6
CONTINUOUS
 10
219.9331730598
 20
93.6465303907
 11
218.9956730598
 21
93.6465303907
  0
LINE
  5
24F
100
AcDbEntity
  8
0
100
AcDbLine
 62
7
  6
CONTINUOUS
 10
215.2456730598
 20
93.6465303907
 11
214.3081726128
 21
93.6465303907
  0
LINE
  5
250
100
AcDbEntity
  8
0
100
AcDbLine
 62
7
  6
CONTINUOUS
 10
210.8706727618
 20
93.6465303907
 11
207.1206727618
 21
93.6465303907
  0
LINE
  5
251
100
AcDbEntity
  8
0
100
AcDbLine
 62
7
  6
CONTINUOUS
 10
179.4179619328
 20
82.7390033432
 11
179.8430783166
 21
82.7275435482
  0
LINE
  5
252
100
AcDbEntity
  8
0
100
AcDbLine
 62
7
  6
CONTINUOUS
 10
171.2027342095
 20
85.1793049313
 11
170.7776187661
 21
85.1907648845
  0
LINE
  5
253
100
AcDbEntity
  8
0
100
AcDbLine
 62
7
  6
CONTINUOUS
 10
180.3122059249
 20
86.7855505747
 11
179.8870914207
 21
86.7970106935
  0
LINE
  5
254
100
AcDbEntity
  8
0
100
AcDbLine
 62
7
  6
CONTINUOUS
 10
171.0700496958
 20
81.6127183395
 11
170.7270021913
 21
81.6386490846
  0
LINE
  5
255
100
AcDbEntity
  8
0
100
AcDbLine
 62
7
  6
CONTINUOUS
 10
171.1470829713
 20
83.0954292548
 11
171.490131415
 21
83.0694986753
  0
LINE
  5
256
100
AcDbEntity
  8
0
100
AcDbLine
 62
7
  6
CONTINUOUS
 10
170.7596997672
 20
83.3728002473
 11
170.4166522627
 21
83.3987309924
  0
LINE
  5
257
100
AcDbEntity
  8
0
100
AcDbLine
 62
7
  6
CONTINUOUS
 10
179.754406907
 20
83.2304241017
 11
179.4113584633
 21
83.2563546812
  0
LINE
  5
258
100
AcDbEntity
  8
0
100
AcDbLine
 62
7
  6
CONTINUOUS
 10
170.8515115989
 20
84.7716978055
 11
171.1945600426
 21
84.745767226
  0
LINE
  5
259
100
AcDbEntity
  8
0
100
AcDbLine
 62
7
  6
CONTINUOUS
 10
179.97576282
 20
86.2941301988
 11
180.3188093853
 21
86.2681992881
  0
LINE
  5
25A
100
AcDbEntity
  8
BEZUGSACHSEN
100
AcDbLine
 62
7
  6
CONTINUOUS
 10
145.2128378887
 20
98.0613695453
 11
142.2806727618
 21
98.3695525187
  0
LINE
  5
25B
100
AcDbEntity
  8
BEZUGSACHSEN
100
AcDbLine
 62
7
  6
CONTINUOUS
 10
286.5903713411
 20
73.0459252099
 11
217.2806727618
 21
85.2670950942
  0
LINE
  5
25C
100
AcDbEntity
  8
0
100
AcDbLine
 62
7
  6
CONTINUOUS
 10
170.7270021913
 20
81.6386490846
 11
170.3691751811
 21
81.7483930799
  0
LINE
  5
25D
100
AcDbEntity
  8
0
100
AcDbLine
 62
7
  6
CONTINUOUS
 10
169.9538055193
 20
83.144280072
 11
170.1327180852
 21
83.0894079087
  0
LINE
  5
25E
100
AcDbEntity
  8
0
100
AcDbLine
 62
7
  6
CONTINUOUS
 10
171.490131415
 20
83.0694986753
 11
171.847957486
 21
82.9597545144
  0
LINE
  5
25F
100
AcDbEntity
  8
0
100
AcDbLine
 62
7
  6
CONTINUOUS
 10
171.9529781584
 20
83.3239495957
 11
171.7740646533
 21
83.3788215934
  0
LINE
  5
260
100
AcDbEntity
  8
0
100
AcDbLine
 62
7
  6
CONTINUOUS
 10
179.060136797
 20
82.8487476917
 11
179.4179619328
 21
82.7390033432
  0
LINE
  5
261
100
AcDbEntity
  8
0
100
AcDbLine
 62
7
  6
CONTINUOUS
 10
180.6700329351
 20
86.6758065794
 11
180.3122059249
 21
86.7855505747
  0
LINE
  5
262
100
AcDbEntity
  8
0
100
AcDbLine
 62
7
  6
CONTINUOUS
 10
170.1820875142
 20
81.3697273429
 11
170.6367600945
 21
81.1906405361
  0
LINE
  5
263
100
AcDbEntity
  8
0
100
AcDbLine
 62
7
  6
CONTINUOUS
 10
171.657406786
 20
85.0002181465
 11
171.2027342095
 21
85.1793049313
  0
LINE
  5
264
100
AcDbEntity
  8
0
100
AcDbLine
 62
7
  6
CONTINUOUS
 10
170.4166522627
 20
83.3987309924
 11
170.0440466859
 21
83.5922884035
  0
LINE
  5
265
100
AcDbEntity
  8
RUNDUNGEN
100
AcDbLine
 62
7
  6
CONTINUOUS
 10
89.4310891938
 20
124.4814129168
 11
85.8955552879
 21
128.0169468227
  0
LINE
  5
266
100
AcDbEntity
  8
RUNDUNGEN
100
AcDbLine
 62
7
  6
CONTINUOUS
 10
86.0474973769
 20
128.1688889117
 11
89.5830312828
 21
124.6333550058
  0
LINE
  5
267
100
AcDbEntity
  8
KONSTRUKTIONSELEMENTE
100
AcDbLine
 62
7
  6
CONTINUOUS
 10
91.6277977449
 20
123.778983665
 11
95.1633316508
 21
120.2434497591
  0
LINE
  5
268
100
AcDbEntity
  8
KONSTRUKTIONSELEMENTE
100
AcDbLine
 62
7
  6
CONTINUOUS
 10
91.9813511355
 20
124.1325370556
 11
95.5168850414
 21
120.5970031497
  0
LINE
  5
269
100
AcDbEntity
  8
BEZUGSACHSEN
100
AcDbLine
 62
7
  6
CONTINUOUS
 10
150.3032909512
 20
65.9911979461
 11
149.3307494619
 21
66.9637394354
  0
LINE
  5
26A
100
AcDbEntity
  8
AUSFORMSCHRAEGEN
100
AcDbLine
 62
7
  6
CONTINUOUS
 10
142.2806727618
 20
98.3695525187
 11
139.3485076348
 21
98.0613695453
  0
LINE
  5
26B
100
AcDbEntity
  8
BEZUGSACHSEN
100
AcDbLine
 62
7
  6
CONTINUOUS
 10
142.2806727618
 20
98.3695525187
 11
139.3485076348
 21
98.0613695453
  0
LINE
  5
26C
100
AcDbEntity
  8
0
100
AcDbLine
 62
7
  6
CONTINUOUS
 10
215.2806727618
 20
111.3665303907
 11
193.2814172067
 21
111.3665303907
  0
LINE
  5
26D
100
AcDbEntity
  8
BEZUGSACHSEN
100
AcDbLine
 62
7
  6
CONTINUOUS
 10
219.2806727618
 20
111.3665303907
 11
241.2799283168
 21
111.3665303907
  0
LINE
  5
26E
100
AcDbEntity
  8
KONSTRUKTIONSELEMENTE
100
AcDbLine
 62
7
  6
CONTINUOUS
 10
217.4806727618
 20
112.5665303907
 11
217.0806727618
 21
112.5665303907
  0
LINE
  5
26F
100
AcDbEntity
  8
BEZUGSACHSEN
100
AcDbLine
 62
7
  6
CONTINUOUS
 10
295.2128378887
 20
98.0613695453
 11
292.2806727618
 21
98.3695525187
  0
LINE
  5
270
100
AcDbEntity
  8
0
100
AcDbLine
 62
7
  6
CONTINUOUS
 10
216.0269227618
 20
86.3061048537
 11
216.8081724637
 21
86.1465303907
  0
LINE
  5
271
100
AcDbEntity
  8
0
100
AcDbLine
 62
7
  6
CONTINUOUS
 10
211.6519229108
 20
93.4869559416
 11
210.8706727618
 21
93.6465303907
  0
LINE
  5
272
100
AcDbEntity
  8
0
100
AcDbLine
 62
7
  6
CONTINUOUS
 10
225.7144233578
 20
93.4869559416
 11
224.9331727618
 21
93.6465303907
  0
LINE
  5
273
100
AcDbEntity
  8
0
100
AcDbLine
 62
7
  6
CONTINUOUS
 10
216.8081724637
 20
87.1039771968
 11
216.1831730598
 21
87.2635516459
  0
LINE
  5
274
100
AcDbEntity
  8
0
100
AcDbLine
 62
7
  6
CONTINUOUS
 10
224.9331727618
 20
92.6890836963
 11
225.5581721657
 21
92.5295092472
  0
LINE
  5
275
100
AcDbEntity
  8
0
100
AcDbLine
 62
7
  6
CONTINUOUS
 10
211.0269226128
 20
92.8486581454
 11
211.4956726128
 21
92.6890836963
  0
LINE
  5
276
100
AcDbEntity
  8
0
100
AcDbLine
 62
7
  6
CONTINUOUS
 10
179.4113584633
 20
83.2563546812
 11
179.1355993816
 21
83.3805695271
  0
LINE
  5
277
100
AcDbEntity
  8
0
100
AcDbLine
 62
7
  6
CONTINUOUS
 10
180.3188093853
 20
86.2681992881
 11
180.5945684567
 21
86.1439845009
  0
LINE
  5
278
100
AcDbEntity
  8
0
100
AcDbLine
 62
7
  6
CONTINUOUS
 10
172.325582796
 20
83.130392019
 11
171.9529781584
 21
83.3239495957
  0
LINE
  5
279
100
AcDbEntity
  8
0
100
AcDbLine
 62
7
  6
CONTINUOUS
 10
171.1945600426
 20
84.745767226
 11
171.5671646802
 21
84.5522096493
  0
LINE
  5
27A
100
AcDbEntity
  8
0
100
AcDbLine
 62
7
  6
CONTINUOUS
 10
169.8915503407
 20
81.5777556581
 11
170.1820875142
 21
81.3697273429
  0
LINE
  5
27B
100
AcDbEntity
  8
0
100
AcDbLine
 62
7
  6
CONTINUOUS
 10
169.6632674118
 20
83.3523081922
 11
169.9538055193
 21
83.144280072
  0
LINE
  5
27C
100
AcDbEntity
  8
0
100
AcDbLine
 62
7
  6
CONTINUOUS
 10
171.9479444239
 20
84.7921899435
 11
171.657406786
 21
85.0002181465
  0
LINE
  5
27D
100
AcDbEntity
  8
0
100
AcDbLine
 62
7
  6
CONTINUOUS
 10
178.6727526485
 20
83.126118548
 11
179.060136797
 21
82.8487476917
  0
LINE
  5
27E
100
AcDbEntity
  8
KONSTRUKTIONSELEMENTE
100
AcDbLine
 62
7
  6
CONTINUOUS
 10
213.3806727618
 20
116.4665303907
 11
221.1806727618
 21
116.4665303907
  0
LINE
  5
27F
100
AcDbEntity
  8
0
100
AcDbLine
 62
7
  6
CONTINUOUS
 10
215.4019224637
 20
86.6252537937
 11
216.0269227618
 21
86.3061048537
  0
LINE
  5
280
100
AcDbEntity
  8
0
100
AcDbLine
 62
7
  6
CONTINUOUS
 10
181.0574152001
 20
86.3984354213
 11
180.6700329351
 21
86.6758065794
  0
LINE
  5
281
100
AcDbEntity
  8
0
100
AcDbLine
 62
7
  6
CONTINUOUS
 10
170.3691751811
 20
81.7483930799
 11
170.0638589662
 21
82.0402347574
  0
LINE
  5
282
100
AcDbEntity
  8
0
100
AcDbLine
 62
7
  6
CONTINUOUS
 10
171.847957486
 20
82.9597545144
 11
172.1532737112
 21
82.6679127782
  0
LINE
  5
283
100
AcDbEntity
  8
0
100
AcDbLine
 62
7
  6
CONTINUOUS
 10
170.0440466859
 20
83.5922884035
 11
169.8355769869
 21
83.8147873984
  0
LINE
  5
284
100
AcDbEntity
  8
0
100
AcDbLine
 62
7
  6
CONTINUOUS
 10
171.5671646802
 20
84.5522096493
 11
171.7756353598
 21
84.3297105853
  0
LINE
  5
285
100
AcDbEntity
  8
0
100
AcDbLine
 62
7
  6
CONTINUOUS
 10
179.1355993816
 20
83.3805695271
 11
178.9271296825
 21
83.603068522
  0
LINE
  5
286
100
AcDbEntity
  8
0
100
AcDbLine
 62
7
  6
CONTINUOUS
 10
226.3394227618
 20
93.1678070435
 11
225.7144233578
 21
93.4869559416
  0
LINE
  5
287
100
AcDbEntity
  8
0
100
AcDbLine
 62
7
  6
CONTINUOUS
 10
216.1831730598
 20
87.2635516459
 11
215.7144230598
 21
87.5827006558
  0
LINE
  5
288
100
AcDbEntity
  8
0
100
AcDbLine
 62
7
  6
CONTINUOUS
 10
225.5581721657
 20
92.5295092472
 11
226.0269221657
 21
92.2103603491
  0
LINE
  5
289
100
AcDbEntity
  8
0
100
AcDbLine
 62
7
  6
CONTINUOUS
 10
212.2769227618
 20
93.0082325944
 11
211.6519229108
 21
93.4869559416
  0
LINE
  5
28A
100
AcDbEntity
  8
0
100
AcDbLine
 62
7
  6
CONTINUOUS
 10
169.4400186766
 20
83.65862052
 11
169.6632674118
 21
83.3523081922
  0
LINE
  5
28B
100
AcDbEntity
  8
0
100
AcDbLine
 62
7
  6
CONTINUOUS
 10
178.4495043726
 20
83.4324310173
 11
178.6727526485
 21
83.126118548
  0
LINE
  5
28C
100
AcDbEntity
  8
0
100
AcDbLine
 62
7
  6
CONTINUOUS
 10
169.653522559
 20
81.9678813776
 11
169.8915503407
 21
81.5777556581
  0
LINE
  5
28D
100
AcDbEntity
  8
0
100
AcDbLine
 62
7
  6
CONTINUOUS
 10
172.563610588
 20
82.7402662408
 11
172.325582796
 21
83.130392019
  0
LINE
  5
28E
100
AcDbEntity
  8
0
100
AcDbLine
 62
7
  6
CONTINUOUS
 10
172.1859712974
 20
84.4020638822
 11
171.9479444239
 21
84.7921899435
  0
LWPOLYLINE
  5
28F
100
AcDbEntity
  8
KONSTRUKTIONSELEMENTE
100
AcDbPolyline
 62
7
  6
CONTINUOUS
 90
13
 70
0
 10
200.46400952
 20
153.0671792773
 10
200.1651709651
 20
152.9983830252
 10
199.574491744
 20
152.8055561324
 10
199.0103499215
 20
152.5432832543
 10
198.4812480029
 20
152.2152880631
 10
197.9950310829
 20
151.8263225753
 10
197.5588682175
 20
151.3821171086
 10
197.1791227389
 20
150.8892761064
 10
196.861246082
 20
150.3551664088
 10
196.6096794225
 20
149.7877811442
 10
196.4277722048
 20
149.1955651382
 10
196.3177652887
 20
148.5874085111
 10
196.2806884348
 20
147.9718744315
  0
LINE
  5
290
100
AcDbEntity
  8
KONSTRUKTIONSELEMENTE
100
AcDbLine
 62
7
  6
CONTINUOUS
 10
213.3806727618
 20
150.2665303907
 11
221.1806727618
 21
150.2665303907
  0
LINE
  5
291
100
AcDbEntity
  8
KONSTRUKTIONSELEMENTE
100
AcDbLine
 62
7
  6
CONTINUOUS
 10
201.6806727618
 20
123.2215285402
 11
213.3806727618
 21
116.4665303907
  0
LINE
  5
292
100
AcDbEntity
  8
0
100
AcDbLine
 62
7
  6
CONTINUOUS
 10
214.7769230598
 20
87.2635516459
 11
215.4019224637
 21
86.6252537937
  0
LINE
  5
293
100
AcDbEntity
  8
0
100
AcDbLine
 62
7
  6
CONTINUOUS
 10
211.4956726128
 20
92.6890836963
 11
211.8081727618
 21
92.3699347982
  0
LINE
  5
294
100
AcDbEntity
  8
0
100
AcDbLine
 62
7
  6
CONTINUOUS
 10
180.5945684567
 20
86.1439845009
 11
180.7209721366
 21
85.9070148106
  0
LINE
  5
295
100
AcDbEntity
  8
RUNDUNGEN
100
AcDbLine
 62
7
  6
CONTINUOUS
 10
155.7899032086
 20
106.9837845322
 11
164.1554358051
 21
90.5655023741
  0
LINE
  5
296
100
AcDbEntity
  8
0
100
AcDbLine
 62
7
  6
CONTINUOUS
 10
166.22147399
 20
81.27629934
 11
165.0329071866
 21
84.1778172367
  0
LINE
  5
297
100
AcDbEntity
  8
0
100
AcDbLine
 62
7
  6
CONTINUOUS
 10
164.8376451129
 20
83.3656137824
 11
166.05576907
 21
80.2964689367
  0
LINE
  5
298
100
AcDbEntity
  8
0
100
AcDbLine
 62
7
  6
CONTINUOUS
 10
162.7350223905
 20
83.7726381485
 11
164.0861536814
 21
79.9491726021
  0
LINE
  5
299
100
AcDbEntity
  8
0
100
AcDbLine
 62
7
  6
CONTINUOUS
 10
164.2518587188
 20
80.929003026
 11
163.227426267
 21
83.8594622374
  0
LINE
  5
29A
100
AcDbEntity
  8
RUNDUNGEN
100
AcDbLine
 62
7
  6
CONTINUOUS
 10
137.6202529335
 20
27.3591472713
 11
135.9337933453
 21
39.3589307632
  0
LINE
  5
29B
100
AcDbEntity
  8
RUNDUNGEN
100
AcDbLine
 62
7
  6
CONTINUOUS
 10
133.5306727618
 20
43.4979213235
 11
133.5306727618
 21
64.2351739869
  0
LINE
  5
29C
100
AcDbEntity
  8
BEZUGSACHSEN
100
AcDbLine
 62
7
  6
CONTINUOUS
 10
133.5306727618
 20
47.4519661408
 11
133.5306727618
 21
64.2351739869
  0
LINE
  5
29D
100
AcDbEntity
  8
RUNDUNGEN
100
AcDbLine
 62
7
  6
CONTINUOUS
 10
137.6806727618
 20
11.5240095187
 11
137.6806727618
 21
43.7467235682
  0
LINE
  5
29E
100
AcDbEntity
  8
RUNDUNGEN
100
AcDbLine
 62
7
  6
CONTINUOUS
 10
137.6806727618
 20
81.2379585433
 11
137.6806727618
 21
96.2090512626
  0
LINE
  5
29F
100
AcDbEntity
  8
BEZUGSACHSEN
100
AcDbLine
 62
7
  6
CONTINUOUS
 10
137.6806727618
 20
81.2379585433
 11
137.6806727618
 21
96.2090512626
  0
LINE
  5
2A0
100
AcDbEntity
  8
BEZUGSACHSEN
100
AcDbLine
 62
7
  6
CONTINUOUS
 10
255.2723593406
 20
122.3241440603
 11
277.4603942416
 21
111.018775604
  0
LINE
  5
2A1
100
AcDbEntity
  8
RUNDUNGEN
100
AcDbLine
 62
7
  6
CONTINUOUS
 10
285.2306011311
 20
40.7693162765
 11
284.2580326651
 21
41.7418847424
  0
LINE
  5
2A2
100
AcDbEntity
  8
KONSTRUKTIONSELEMENTE
100
AcDbLine
 62
7
  6
CONTINUOUS
 10
152.7925343176
 20
184.9437202377
 11
156.3280682235
 21
181.4081863317
  0
LINE
  5
2A3
100
AcDbEntity
  8
0
100
AcDbLine
 62
7
  6
CONTINUOUS
 10
226.9644221657
 20
92.5295092472
 11
226.3394227618
 21
93.1678070435
  0
LINE
  5
2A4
100
AcDbEntity
  8
0
100
AcDbLine
 62
7
  6
CONTINUOUS
 10
212.7456727618
 20
92.3699347982
 11
212.2769227618
 21
93.0082325944
  0
LINE
  5
2A5
100
AcDbEntity
  8
0
100
AcDbLine
 62
7
  6
CONTINUOUS
 10
178.9271296825
 20
83.603068522
 11
178.7859474775
 21
83.9238513933
  0
LINE
  5
2A6
100
AcDbEntity
  8
0
100
AcDbLine
 62
7
  6
CONTINUOUS
 10
178.293543601
 20
83.8370273044
 11
178.4495043726
 21
83.4324310173
  0
LINE
  5
2A7
100
AcDbEntity
  8
0
100
AcDbLine
 62
7
  6
CONTINUOUS
 10
181.2133760131
 20
85.9938388994
 11
181.0574152001
 21
86.3984354213
  0
LINE
  5
2A8
100
AcDbEntity
  8
0
100
AcDbLine
 62
7
  6
CONTINUOUS
 10
161.5860800511
 20
83.5700486148
 11
162.2806727618
 21
79.6308176028
  0
LINE
  5
2A9
100
AcDbEntity
  8
0
100
AcDbLine
 62
7
  6
CONTINUOUS
 10
162.7730766383
 20
79.7176416916
 11
162.0784839276
 21
83.6568727037
  0
LINE
  5
2AA
100
AcDbEntity
  8
BEZUGSACHSEN
100
AcDbLine
 62
7
  6
CONTINUOUS
 10
146.9410925282
 20
80.3739139498
 11
148.6275522453
 21
68.3741295411
  0
LINE
  5
2AB
100
AcDbEntity
  8
0
100
AcDbLine
 62
7
  6
CONTINUOUS
 10
141.2806727618
 20
255.8665303907
 11
141.2806727618
 21
335.8665303907
  0
LINE
  5
2AC
100
AcDbEntity
  8
0
100
AcDbLine
 62
7
  6
CONTINUOUS
 10
142.2806727618
 20
60.3417665379
 11
142.2806727618
 21
57.5915731299
  0
LINE
  5
2AD
100
AcDbEntity
  8
0
100
AcDbLine
 62
7
  6
CONTINUOUS
 10
142.2806727618
 20
50.1414876514
 11
142.2806727618
 21
49.3105061462
  0
LINE
  5
2AE
100
AcDbEntity
  8
BEZUGSACHSEN
100
AcDbLine
 62
7
  6
CONTINUOUS
 10
142.2806727618
 20
50.1414876514
 11
142.2806727618
 21
49.3105061462
  0
LINE
  5
2AF
100
AcDbEntity
  8
RUNDUNGEN
100
AcDbLine
 62
7
  6
CONTINUOUS
 10
142.2806727618
 20
38.2408579627
 11
142.2806727618
 21
38.2035082627
  0
LINE
  5
2B0
100
AcDbEntity
  8
BEZUGSACHSEN
100
AcDbLine
 62
7
  6
CONTINUOUS
 10
142.2806727618
 20
9.3635082627
 11
142.2806727618
 21
38.2035082627
  0
LINE
  5
2B1
100
AcDbEntity
  8
RUNDUNGEN
100
AcDbLine
 62
7
  6
CONTINUOUS
 10
142.2806727618
 20
43.2837889769
 11
142.2806727618
 21
47.5397626135
  0
LINE
  5
2B2
100
AcDbEntity
  8
BEZUGSACHSEN
100
AcDbLine
 62
7
  6
CONTINUOUS
 10
142.2806727618
 20
43.2837889769
 11
142.2806727618
 21
47.5397626135
  0
LINE
  5
2B3
100
AcDbEntity
  8
BEZUGSACHSEN
100
AcDbLine
 62
7
  6
CONTINUOUS
 10
142.2806727618
 20
57.5915731299
 11
142.2806727618
 21
98.3695525187
  0
LINE
  5
2B4
100
AcDbEntity
  8
BEZUGSACHSEN
100
AcDbLine
 62
7
  6
CONTINUOUS
 10
146.8806727618
 20
11.5240095187
 11
146.8806727618
 21
38.3035138196
  0
LINE
  5
2B5
100
AcDbEntity
  8
RUNDUNGEN
100
AcDbLine
 62
7
  6
CONTINUOUS
 10
146.8806727618
 20
38.2035082627
 11
146.8806727618
 21
43.7468901524
  0
LINE
  5
2B6
100
AcDbEntity
  8
BEZUGSACHSEN
100
AcDbLine
 62
7
  6
CONTINUOUS
 10
146.8806727618
 20
81.2379585433
 11
146.8806727618
 21
96.2090512626
  0
LINE
  5
2B7
100
AcDbEntity
  8
BEZUGSACHSEN
100
AcDbLine
 62
7
  6
CONTINUOUS
 10
151.0306727618
 20
45.2739616478
 11
151.0306727618
 21
43.4979213235
  0
LINE
  5
2B8
100
AcDbEntity
  8
RUNDUNGEN
100
AcDbLine
 62
7
  6
CONTINUOUS
 10
151.0306727618
 20
43.4978866341
 11
151.0306727618
 21
48.8369062894
  0
LINE
  5
2B9
100
AcDbEntity
  8
BEZUGSACHSEN
100
AcDbLine
 62
7
  6
CONTINUOUS
 10
151.0306727618
 20
47.4519661408
 11
151.0306727618
 21
64.2351739869
  0
LINE
  5
2BA
100
AcDbEntity
  8
RUNDUNGEN
100
AcDbLine
 62
7
  6
CONTINUOUS
 10
135.9337932783
 20
68.3741295411
 11
137.6202529953
 21
80.3739139498
  0
LINE
  5
2BB
100
AcDbEntity
  8
BEZUGSACHSEN
100
AcDbLine
 62
7
  6
CONTINUOUS
 10
135.9337932783
 20
68.3741295411
 11
137.6202529953
 21
80.3739139498
  0
LINE
  5
2BC
100
AcDbEntity
  8
BEZUGSACHSEN
100
AcDbLine
 62
7
  6
CONTINUOUS
 10
240.9713326591
 20
143.0787959601
 11
301.8144732563
 21
112.0776673986
  0
LINE
  5
2BD
100
AcDbEntity
  8
KONSTRUKTIONSELEMENTE
100
AcDbLine
 62
7
  6
CONTINUOUS
 10
232.8806727618
 20
143.1362545662
 11
221.1806727618
 21
149.8912527157
  0
LINE
  5
2BE
100
AcDbEntity
  8
KONSTRUKTIONSELEMENTE
100
AcDbLine
 62
7
  6
CONTINUOUS
 10
153.1460877081
 20
185.2972736283
 11
156.6816216141
 21
181.7617397223
  0
LINE
  5
2BF
100
AcDbEntity
  8
0
100
AcDbLine
 62
7
  6
CONTINUOUS
 10
215.7144230598
 20
87.5827006558
 11
215.4019224637
 21
88.0614240029
  0
LINE
  5
2C0
100
AcDbEntity
  8
0
100
AcDbLine
 62
7
  6
CONTINUOUS
 10
226.0269221657
 20
92.2103603491
 11
226.3394227618
 21
91.7316365549
  0
LINE
  5
2C1
100
AcDbEntity
  8
0
100
AcDbLine
 62
7
  6
CONTINUOUS
 10
214.4644229108
 20
87.9018495539
 11
214.7769230598
 21
87.2635516459
  0
LINE
  5
2C2
100
AcDbEntity
  8
0
100
AcDbLine
 62
7
  6
CONTINUOUS
 10
167.7002563054
 20
82.4876607158
 11
167.7741491588
 21
82.0685935194
  0
LINE
  5
2C3
100
AcDbEntity
  8
0
100
AcDbLine
 62
7
  6
CONTINUOUS
 10
168.9230913808
 20
82.2711830324
 11
168.8491985273
 21
82.6902502288
  0
LINE
  5
2C4
100
AcDbEntity
  8
0
100
AcDbLine
 62
7
  6
CONTINUOUS
 10
169.6091868594
 20
82.219321625
 11
169.653522559
 21
81.9678813776
  0
LINE
  5
2C5
100
AcDbEntity
  8
0
100
AcDbLine
 62
7
  6
CONTINUOUS
 10
169.3956829769
 20
83.9100607674
 11
169.4400186766
 21
83.65862052
  0
LINE
  5
2C6
100
AcDbEntity
  8
0
100
AcDbLine
 62
7
  6
CONTINUOUS
 10
170.0638589662
 20
82.0402347574
 11
170.0195232666
 21
82.2916750047
  0
LINE
  5
2C7
100
AcDbEntity
  8
0
100
AcDbLine
 62
7
  6
CONTINUOUS
 10
169.8355769869
 20
83.8147873984
 11
169.8060198538
 21
83.98241423
  0
LINE
  5
2C8
100
AcDbEntity
  8
0
100
AcDbLine
 62
7
  6
CONTINUOUS
 10
171.7756353598
 20
84.3297105853
 11
171.8051924929
 21
84.1620837537
  0
LINE
  5
2C9
100
AcDbEntity
  8
0
100
AcDbLine
 62
7
  6
CONTINUOUS
 10
172.1532737112
 20
82.6679127782
 11
172.1976094108
 21
82.4164725308
  0
LINE
  5
2CA
100
AcDbEntity
  8
0
100
AcDbLine
 62
7
  6
CONTINUOUS
 10
172.2303069971
 20
84.1506236349
 11
172.1859712974
 21
84.4020638822
  0
LINE
  5
2CB
100
AcDbEntity
  8
0
100
AcDbLine
 62
7
  6
CONTINUOUS
 10
172.6079462877
 20
82.4888259934
 11
172.563610588
 21
82.7402662408
  0
LINE
  5
2CC
100
AcDbEntity
  8
0
100
AcDbLine
 62
7
  6
CONTINUOUS
 10
176.6864652842
 20
86.2326539505
 11
177.3810579949
 21
82.2934229385
  0
LINE
  5
2CD
100
AcDbEntity
  8
0
100
AcDbLine
 62
7
  6
CONTINUOUS
 10
177.8734618714
 20
82.3802470273
 11
177.1788691607
 21
86.3194780394
  0
LINE
  5
2CE
100
AcDbEntity
  8
0
100
AcDbLine
 62
7
  6
CONTINUOUS
 10
178.071865082
 20
85.0942286588
 11
178.293543601
 21
83.8370273044
  0
LINE
  5
2CF
100
AcDbEntity
  8
0
100
AcDbLine
 62
7
  6
CONTINUOUS
 10
178.7859474775
 20
83.9238513933
 11
178.5642689585
 21
85.1810527476
  0
LINE
  5
2D0
100
AcDbEntity
  8
0
100
AcDbLine
 62
7
  6
CONTINUOUS
 10
166.1818494086
 20
84.3804067497
 11
166.22147399
 21
81.27629934
  0
LINE
  5
2D1
100
AcDbEntity
  8
0
100
AcDbLine
 62
7
  6
CONTINUOUS
 10
166.7123076503
 20
80.4122344023
 11
166.6742532851
 21
84.4672308385
  0
LINE
  5
2D2
100
AcDbEntity
  8
0
100
AcDbLine
 62
7
  6
CONTINUOUS
 10
167.2806727618
 20
255.8665303907
 11
167.2806727618
 21
335.8665303907
  0
LINE
  5
2D3
100
AcDbEntity
  8
0
100
AcDbLine
 62
7
  6
CONTINUOUS
 10
164.7426921443
 20
80.064938047
 11
164.8376451129
 21
83.3656137824
  0
LINE
  5
2D4
100
AcDbEntity
  8
0
100
AcDbLine
 62
7
  6
CONTINUOUS
 10
164.3763686064
 20
84.0620517711
 11
164.2518587188
 21
80.929003026
  0
LINE
  5
2D5
100
AcDbEntity
  8
BEZUGSACHSEN
100
AcDbLine
 62
7
  6
CONTINUOUS
 10
146.94109259
 20
27.3591472713
 11
148.6275521782
 21
39.3589307632
  0
LINE
  5
2D6
100
AcDbEntity
  8
KONSTRUKTIONSELEMENTE
100
AcDbLine
 62
7
  6
CONTINUOUS
 10
147.2063907462
 20
199.2979878958
 11
138.7918200501
 21
190.8834171996
  0
LINE
  5
2D7
100
AcDbEntity
  8
KONSTRUKTIONSELEMENTE
100
AcDbLine
 62
7
  6
CONTINUOUS
 10
86.0416541735
 20
138.1332513231
 11
77.6270834774
 21
129.718680627
  0
LINE
  5
2D8
100
AcDbEntity
  8
KONSTRUKTIONSELEMENTE
100
AcDbLine
 62
7
  6
CONTINUOUS
 10
118.6392767862
 20
168.5388429141
 11
108.0326750684
 21
157.9322411963
  0
LINE
  5
2D9
100
AcDbEntity
  8
KONSTRUKTIONSELEMENTE
100
AcDbLine
 62
7
  6
CONTINUOUS
 10
150.7419246521
 20
195.7624539898
 11
142.327353956
 21
187.3478832937
  0
LINE
  5
2DA
100
AcDbEntity
  8
KONSTRUKTIONSELEMENTE
100
AcDbLine
 62
7
  6
CONTINUOUS
 10
89.5771880795
 20
134.5977174172
 11
81.1626173834
 21
126.1831467211
  0
LINE
  5
2DB
100
AcDbEntity
  8
KONSTRUKTIONSELEMENTE
100
AcDbLine
 62
7
  6
CONTINUOUS
 10
121.8212573016
 20
165.3568623988
 11
111.2146555838
 21
154.750260681
  0
LINE
  5
2DC
100
AcDbEntity
  8
KONSTRUKTIONSELEMENTE
100
AcDbLine
 62
7
  6
CONTINUOUS
 10
152.9339556738
 20
195.7624539898
 11
181.8758235752
 21
224.7043218913
  0
LINE
  5
2DD
100
AcDbEntity
  8
RUNDUNGEN
100
AcDbLine
 62
7
  6
CONTINUOUS
 10
28.8367155755
 20
70.9581071104
 11
86.0475819704
 21
128.1689735052
  0
LINE
  5
2DE
100
AcDbEntity
  8
KONSTRUKTIONSELEMENTE
100
AcDbLine
 62
7
  6
CONTINUOUS
 10
92.4763258823
 20
134.2441640266
 11
111.1850108575
 21
152.9528490018
  0
LINE
  5
2DF
100
AcDbEntity
  8
KONSTRUKTIONSELEMENTE
100
AcDbLine
 62
7
  6
CONTINUOUS
 10
123.5890242545
 20
165.3568623988
 11
142.2977092297
 21
184.065547374
  0
LINE
  5
2E0
100
AcDbEntity
  8
BEZUGSACHSEN
100
AcDbLine
 62
7
  6
CONTINUOUS
 10
300.3032909512
 20
65.9911979461
 11
299.3307494619
 21
66.9637394354
  0
LINE
  5
2E1
100
AcDbEntity
  8
0
100
AcDbLine
 62
7
  6
CONTINUOUS
 10
227.2769227618
 20
91.891211451
 11
226.9644221657
 21
92.5295092472
  0
LINE
  5
2E2
100
AcDbEntity
  8
0
100
AcDbLine
 62
7
  6
CONTINUOUS
 10
213.0581729108
 20
86.1465303907
 11
211.6519229108
 21
89.8167431661
  0
LINE
  5
2E3
100
AcDbEntity
  8
0
100
AcDbLine
 62
7
  6
CONTINUOUS
 10
210.7144226873
 20
89.497594268
 11
211.9644226128
 21
86.1465303907
  0
LINE
  5
2E4
100
AcDbEntity
  8
0
100
AcDbLine
 62
7
  6
CONTINUOUS
 10
211.8081727618
 20
92.3699347982
 11
211.9644226128
 21
91.891211451
  0
LINE
  5
2E5
100
AcDbEntity
  8
0
100
AcDbLine
 62
7
  6
CONTINUOUS
 10
181.692571049
 20
87.1153654651
 11
182.3871637596
 21
83.1761344531
  0
LINE
  5
2E6
100
AcDbEntity
  8
0
100
AcDbLine
 62
7
  6
CONTINUOUS
 10
182.7908962265
 20
83.7658390954
 11
182.5544391306
 21
85.1068539242
  0
LINE
  5
2E7
100
AcDbEntity
  8
0
100
AcDbLine
 62
7
  6
CONTINUOUS
 10
182.4657677313
 20
85.609734419
 11
182.2736463248
 21
86.6993090592
  0
LINE
  5
2E8
100
AcDbEntity
  8
0
100
AcDbLine
 62
7
  6
CONTINUOUS
 10
184.6881905144
 20
85.4830918633
 11
184.5995191151
 21
85.9859723581
  0
LINE
  5
2E9
100
AcDbEntity
  8
0
100
AcDbLine
 62
7
  6
CONTINUOUS
 10
185.3415870187
 20
83.6970789861
 11
185.252915609
 21
84.1999595396
  0
LINE
  5
2EA
100
AcDbEntity
  8
0
100
AcDbLine
 62
7
  6
CONTINUOUS
 10
184.7356657073
 20
87.1334295034
 11
184.646994308
 21
87.6363099981
  0
LINE
  5
2EB
100
AcDbEntity
  8
0
100
AcDbLine
 62
7
  6
CONTINUOUS
 10
178.0800401467
 20
85.5277667644
 11
178.071865082
 21
85.0942286588
  0
LINE
  5
2EC
100
AcDbEntity
  8
0
100
AcDbLine
 62
7
  6
CONTINUOUS
 10
181.5451079687
 20
83.6325922891
 11
181.5532830645
 21
84.0661302187
  0
LINE
  5
2ED
100
AcDbEntity
  8
0
100
AcDbLine
 62
7
  6
CONTINUOUS
 10
178.5642689585
 20
85.1810527476
 11
178.5872226312
 21
85.5307772027
  0
LINE
  5
2EE
100
AcDbEntity
  8
KONSTRUKTIONSELEMENTE
100
AcDbLine
 62
7
  6
CONTINUOUS
 10
95.6583063977
 20
131.0621835112
 11
114.3669913729
 21
149.7708684864
  0
LINE
  5
2EF
100
AcDbEntity
  8
KONSTRUKTIONSELEMENTE
100
AcDbLine
 62
7
  6
CONTINUOUS
 10
126.7710047699
 20
162.1748818835
 11
145.4796897451
 21
180.8835668586
  0
LINE
  5
2F0
100
AcDbEntity
  8
RUNDUNGEN
100
AcDbLine
 62
7
  6
CONTINUOUS
 10
32.3722494815
 20
67.4225732045
 11
89.5831224185
 21
124.6334461415
  0
LINE
  5
2F1
100
AcDbEntity
  8
KONSTRUKTIONSELEMENTE
100
AcDbLine
 62
7
  6
CONTINUOUS
 10
157.2261064881
 20
191.5693234299
 11
186.1184642624
 21
220.4616812041
  0
LINE
  5
2F2
100
AcDbEntity
  8
KONSTRUKTIONSELEMENTE
100
AcDbLine
 62
7
  6
CONTINUOUS
 10
116.1644030521
 20
149.8005132127
 11
126.7710047699
 21
160.4071149305
  0
LINE
  5
2F3
100
AcDbEntity
  8
KONSTRUKTIONSELEMENTE
100
AcDbLine
 62
7
  6
CONTINUOUS
 10
87.5972890922
 20
119.7484750123
 11
91.6277977449
 21
123.778983665
  0
LINE
  5
2F4
100
AcDbEntity
  8
KONSTRUKTIONSELEMENTE
100
AcDbLine
 62
7
  6
CONTINUOUS
 10
91.9813511355
 20
124.1325370556
 11
96.0118597883
 21
128.1630457084
  0
LINE
  5
2F5
100
AcDbEntity
  8
KONSTRUKTIONSELEMENTE
100
AcDbLine
 62
7
  6
CONTINUOUS
 10
148.7620256648
 20
180.9132115849
 11
152.7925343176
 21
184.9437202377
  0
LINE
  5
2F6
100
AcDbEntity
  8
KONSTRUKTIONSELEMENTE
100
AcDbLine
 62
7
  6
CONTINUOUS
 10
153.1460877081
 20
185.2972736283
 11
157.1765963609
 21
189.327782281
  0
LINE
  5
2F7
100
AcDbEntity
  8
KONSTRUKTIONSELEMENTE
100
AcDbLine
 62
7
  6
CONTINUOUS
 10
119.3463835674
 20
146.6185326974
 11
129.9529852852
 21
157.2251344152
  0
LINE
  5
2F8
100
AcDbEntity
  8
KONSTRUKTIONSELEMENTE
100
AcDbLine
 62
7
  6
CONTINUOUS
 10
91.1328229981
 20
116.2129411063
 11
95.1633316508
 21
120.2434497591
  0
LINE
  5
2F9
100
AcDbEntity
  8
KONSTRUKTIONSELEMENTE
100
AcDbLine
 62
7
  6
CONTINUOUS
 10
95.5168850414
 20
120.5970031497
 11
99.5473936942
 21
124.6275118025
  0
LINE
  5
2FA
100
AcDbEntity
  8
KONSTRUKTIONSELEMENTE
100
AcDbLine
 62
7
  6
CONTINUOUS
 10
152.2975595707
 20
177.377677679
 11
156.3280682235
 21
181.4081863317
  0
LINE
  5
2FB
100
AcDbEntity
  8
KONSTRUKTIONSELEMENTE
100
AcDbLine
 62
7
  6
CONTINUOUS
 10
156.6816216141
 20
181.7617397223
 11
160.7121302668
 21
185.7922483751
  0
LINE
  5
2FC
100
AcDbEntity
  8
BEZUGSACHSEN
100
AcDbLine
 62
7
  6
CONTINUOUS
 10
244.1880155961
 20
105.533809664
 11
241.2799283168
 21
111.3665303907
  0
LINE
  5
2FD
100
AcDbEntity
  8
0
100
AcDbLine
 62
7
  6
CONTINUOUS
 10
212.9019226128
 20
91.891211451
 11
212.7456727618
 21
92.3699347982
  0
LINE
  5
2FE
100
AcDbEntity
  8
0
100
AcDbLine
 62
7
  6
CONTINUOUS
 10
215.4019224637
 20
88.0614240029
 11
215.2456730598
 21
88.6997217992
  0
LINE
  5
2FF
100
AcDbEntity
  8
KONSTRUKTIONSELEMENTE
100
AcDbLine
 62
7
  6
CONTINUOUS
 10
196.2806727618
 20
133.3665303907
 11
196.2806727618
 21
147.6944171408
  0
LINE
  5
300
100
AcDbEntity
  8
KONSTRUKTIONSELEMENTE
100
AcDbLine
 62
7
  6
CONTINUOUS
 10
201.6806727618
 20
143.1362545662
 11
201.6806727618
 21
123.2215285402
  0
LINE
  5
301
100
AcDbEntity
  8
0
100
AcDbLine
 62
7
  6
CONTINUOUS
 10
181.0608791879
 20
83.9793061298
 11
181.0231469487
 21
83.7133950906
  0
LINE
  5
302
100
AcDbEntity
  8
0
100
AcDbLine
 62
7
  6
CONTINUOUS
 10
169.4859245718
 20
84.3580694165
 11
169.3956829769
 21
83.9100607674
  0
LINE
  5
303
100
AcDbEntity
  8
0
100
AcDbLine
 62
7
  6
CONTINUOUS
 10
169.6994289445
 20
82.6673302395
 11
169.6091868594
 21
82.219321625
  0
LINE
  5
304
100
AcDbEntity
  8
0
100
AcDbLine
 62
7
  6
CONTINUOUS
 10
172.5177041922
 20
82.0408174376
 11
172.6079462877
 21
82.4888259934
  0
LINE
  5
305
100
AcDbEntity
  8
BEZUGSACHSEN
100
AcDbLine
 62
7
  6
CONTINUOUS
 10
265.048087061
 20
90.588880434
 11
251.2255847566
 21
118.3125310484
  0
LINE
  5
306
100
AcDbEntity
  8
0
100
AcDbLine
 62
7
  6
CONTINUOUS
 10
226.3394227618
 20
91.7316365549
 11
226.4956721657
 21
91.0933387586
  0
LINE
  5
307
100
AcDbEntity
  8
0
100
AcDbLine
 62
7
  6
CONTINUOUS
 10
214.3081726128
 20
88.6997217992
 11
214.4644229108
 21
87.9018495539
  0
LINE
  5
308
100
AcDbEntity
  8
0
100
AcDbLine
 62
7
  6
CONTINUOUS
 10
227.4331721657
 20
91.0933387586
 11
227.2769227618
 21
91.891211451
  0
LINE
  5
309
100
AcDbEntity
  8
BEZUGSACHSEN
100
AcDbLine
 62
7
  6
CONTINUOUS
 10
223.8793035131
 20
94.9438357762
 11
222.8374144471
 21
100.8526822943
  0
LINE
  5
30A
100
AcDbEntity
  8
0
100
AcDbLine
 62
7
  6
CONTINUOUS
 10
207.1206727618
 20
93.6465303907
 11
207.1206727618
 21
86.1465303907
  0
LINE
  5
30B
100
AcDbEntity
  8
0
100
AcDbLine
 62
7
  6
CONTINUOUS
 10
208.0581727618
 20
86.1465303907
 11
208.0581727618
 21
89.497594268
  0
LINE
  5
30C
100
AcDbEntity
  8
0
100
AcDbLine
 62
7
  6
CONTINUOUS
 10
208.0581727618
 20
90.4550409624
 11
208.0581727618
 21
92.8486581454
  0
LINE
  5
30D
100
AcDbEntity
  8
KONSTRUKTIONSELEMENTE
100
AcDbLine
 62
7
  6
CONTINUOUS
 10
208.8306727618
 20
215.0165303907
 11
208.8306727618
 21
163.2665303907
  0
LINE
  5
30E
100
AcDbEntity
  8
0
100
AcDbLine
 62
7
  6
CONTINUOUS
 10
211.9644226128
 20
91.891211451
 11
211.9644226128
 21
91.4124876568
  0
LINE
  5
30F
100
AcDbEntity
  8
0
100
AcDbLine
 62
7
  6
CONTINUOUS
 10
212.9019226128
 20
91.2529132077
 11
212.9019226128
 21
91.891211451
  0
LINE
  5
310
100
AcDbEntity
  8
KONSTRUKTIONSELEMENTE
100
AcDbLine
 62
7
  6
CONTINUOUS
 10
213.3806727618
 20
150.2665303907
 11
213.3806727618
 21
116.4665303907
  0
LINE
  5
311
100
AcDbEntity
  8
0
100
AcDbLine
 62
7
  6
CONTINUOUS
 10
214.3081726128
 20
93.6465303907
 11
214.3081726128
 21
88.6997217992
  0
LINE
  5
312
100
AcDbEntity
  8
0
100
AcDbLine
 62
7
  6
CONTINUOUS
 10
215.2456730598
 20
88.6997217992
 11
215.2456730598
 21
93.6465303907
  0
LINE
  5
313
100
AcDbEntity
  8
0
100
AcDbLine
 62
7
  6
CONTINUOUS
 10
215.2806727618
 20
112.6691915234
 11
215.2806727618
 21
111.3665303907
  0
LINE
  5
314
100
AcDbEntity
  8
0
100
AcDbLine
 62
7
  6
CONTINUOUS
 10
218.9956730598
 20
93.6465303907
 11
218.9956730598
 21
88.6997217992
  0
LINE
  5
315
100
AcDbEntity
  8
BEZUGSACHSEN
100
AcDbLine
 62
7
  6
CONTINUOUS
 10
219.2806727618
 20
112.6691915234
 11
219.2806727618
 21
111.3665303907
  0
LINE
  5
316
100
AcDbEntity
  8
0
100
AcDbLine
 62
7
  6
CONTINUOUS
 10
219.9331730598
 20
88.6997217992
 11
219.9331730598
 21
93.6465303907
  0
LINE
  5
317
100
AcDbEntity
  8
KONSTRUKTIONSELEMENTE
100
AcDbLine
 62
7
  6
CONTINUOUS
 10
221.1806727618
 20
150.2665303907
 11
221.1806727618
 21
116.4665303907
  0
LINE
  5
318
100
AcDbEntity
  8
0
100
AcDbLine
 62
7
  6
CONTINUOUS
 10
221.1831727618
 20
93.6465303907
 11
221.1831727618
 21
86.1465303907
  0
LINE
  5
319
100
AcDbEntity
  8
0
100
AcDbLine
 62
7
  6
CONTINUOUS
 10
222.1206727618
 20
87.1039771968
 11
222.1206727618
 21
92.6890836963
  0
LINE
  5
31A
100
AcDbEntity
  8
0
100
AcDbLine
 62
7
  6
CONTINUOUS
 10
172.1252872639
 20
83.7864287191
 11
172.2303069971
 21
84.1506236349
  0
LINE
  5
31B
100
AcDbEntity
  8
0
100
AcDbLine
 62
7
  6
CONTINUOUS
 10
178.1850598799
 20
85.8919616802
 11
178.0800401467
 21
85.5277667644
  0
LINE
  5
31C
100
AcDbEntity
  8
0
100
AcDbLine
 62
7
  6
CONTINUOUS
 10
169.8060198538
 20
83.98241423
 11
169.9258181121
 21
84.2627959647
  0
LINE
  5
31D
100
AcDbEntity
  8
0
100
AcDbLine
 62
7
  6
CONTINUOUS
 10
171.8051924929
 20
84.1620837537
 11
171.685393254
 21
83.8817020882
  0
LWPOLYLINE
  5
31E
100
AcDbEntity
  8
KONSTRUKTIONSELEMENTE
100
AcDbPolyline
 62
7
  6
CONTINUOUS
 90
13
 70
0
 10
238.2806562369
 20
147.9720754708
 10
238.2438352901
 20
148.5852729345
 10
238.1346199332
 20
149.191246065
 10
237.9539968415
 20
149.7815282613
 10
237.7041574955
 20
150.3472957098
 10
237.3883936594
 20
150.8801675962
 10
237.0110819834
 20
151.3722065636
 10
236.5776037185
 20
151.8160926186
 10
236.0942474395
 20
152.2052589563
 10
235.568103714
 20
152.534003593
 10
235.0069362962
 20
152.7975933857
 10
234.4191697289
 20
152.9923119079
 10
234.097335924
 20
153.0671773282
  0
LINE
  5
31F
100
AcDbEntity
  8
KONSTRUKTIONSELEMENTE
100
AcDbLine
 62
7
  6
CONTINUOUS
 10
225.7306727618
 20
215.0165303907
 11
225.7306727618
 21
163.2665303907
  0
LINE
  5
320
100
AcDbEntity
  8
0
100
AcDbLine
 62
7
  6
CONTINUOUS
 10
226.4956721657
 20
91.0933387586
 11
226.4956721657
 21
88.6997217992
  0
LINE
  5
321
100
AcDbEntity
  8
0
100
AcDbLine
 62
7
  6
CONTINUOUS
 10
227.4331721657
 20
88.6997217992
 11
227.4331721657
 21
91.0933387586
  0
LINE
  5
322
100
AcDbEntity
  8
KONSTRUKTIONSELEMENTE
100
AcDbLine
 62
7
  6
CONTINUOUS
 10
232.8806727618
 20
123.2215285402
 11
232.8806727618
 21
143.1362545662
  0
LINE
  5
323
100
AcDbEntity
  8
KONSTRUKTIONSELEMENTE
100
AcDbLine
 62
7
  6
CONTINUOUS
 10
238.2806727618
 20
147.6944169706
 11
238.2806727618
 21
133.3665303907
  0
LINE
  5
324
100
AcDbEntity
  8
0
100
AcDbLine
 62
7
  6
CONTINUOUS
 10
210.6820420104
 20
94.9438357762
 11
211.7239310764
 21
100.8526822943
  0
LINE
  5
325
100
AcDbEntity
  8
0
100
AcDbLine
 62
7
  6
CONTINUOUS
 10
178.5872226312
 20
85.5307772027
 11
178.7070208895
 21
85.8111589374
  0
LINE
  5
326
100
AcDbEntity
  8
0
100
AcDbLine
 62
7
  6
CONTINUOUS
 10
170.0195232666
 20
82.2916750047
 11
170.2066109179
 21
82.6703408297
  0
LINE
  5
327
100
AcDbEntity
  8
0
100
AcDbLine
 62
7
  6
CONTINUOUS
 10
172.1976094108
 20
82.4164725308
 11
172.0105217491
 21
82.0378067645
  0
LINE
  5
328
100
AcDbEntity
  8
RUNDUNGEN
100
AcDbLine
 62
7
  6
CONTINUOUS
 10
169.5132584625
 20
90.588880434
 11
183.3357607669
 21
118.3125310484
  0
LINE
  5
329
100
AcDbEntity
  8
0
100
AcDbLine
 62
7
  6
CONTINUOUS
 10
190.3733299275
 20
105.533809664
 11
193.2814172067
 21
111.3665303907
  0
LINE
  5
32A
100
AcDbEntity
  8
0
100
AcDbLine
 62
7
  6
CONTINUOUS
 10
219.7769227618
 20
87.9018495539
 11
219.9331730598
 21
88.6997217992
  0
LINE
  5
32B
100
AcDbEntity
  8
0
100
AcDbLine
 62
7
  6
CONTINUOUS
 10
227.2769227618
 20
87.9018495539
 11
227.4331721657
 21
88.6997217992
  0
LINE
  5
32C
100
AcDbEntity
  8
0
100
AcDbLine
 62
7
  6
CONTINUOUS
 10
218.9956730598
 20
88.6997217992
 11
218.8394227618
 21
88.0614240029
  0
LINE
  5
32D
100
AcDbEntity
  8
0
100
AcDbLine
 62
7
  6
CONTINUOUS
 10
226.4956721657
 20
88.6997217992
 11
226.3394227618
 21
88.0614240029
  0
LINE
  5
32E
100
AcDbEntity
  8
0
100
AcDbLine
 62
7
  6
CONTINUOUS
 10
211.9644226128
 20
91.4124876568
 11
211.8081727618
 21
90.9337643096
  0
LINE
  5
32F
100
AcDbEntity
  8
0
100
AcDbLine
 62
7
  6
CONTINUOUS
 10
212.7456727618
 20
90.7741898605
 11
212.9019226128
 21
91.2529132077
  0
LINE
  5
330
100
AcDbEntity
  8
0
100
AcDbLine
 62
7
  6
CONTINUOUS
 10
169.68779128
 20
84.6529217911
 11
169.4859245718
 21
84.3580694165
  0
LINE
  5
331
100
AcDbEntity
  8
0
100
AcDbLine
 62
7
  6
CONTINUOUS
 10
171.9234210253
 20
83.4915764273
 11
172.1252872639
 21
83.7864287191
  0
LINE
  5
332
100
AcDbEntity
  8
0
100
AcDbLine
 62
7
  6
CONTINUOUS
 10
172.3158379588
 20
81.7459651164
 11
172.5177041922
 21
82.0408174376
  0
LINE
  5
333
100
AcDbEntity
  8
0
100
AcDbLine
 62
7
  6
CONTINUOUS
 10
178.4542154908
 20
86.2850981797
 11
178.1850598799
 21
85.8919616802
  0
LINE
  5
334
100
AcDbEntity
  8
0
100
AcDbLine
 62
7
  6
CONTINUOUS
 10
181.2759542413
 20
83.2394560915
 11
181.5451079687
 21
83.6325922891
  0
LINE
  5
335
100
AcDbEntity
  8
RUNDUNGEN
100
AcDbLine
 62
7
  6
CONTINUOUS
 10
134.2580545724
 20
65.9911979461
 11
135.2305960616
 21
66.9637394354
  0
LINE
  5
336
100
AcDbEntity
  8
BEZUGSACHSEN
100
AcDbLine
 62
7
  6
CONTINUOUS
 10
134.2580545724
 20
65.9911979461
 11
135.2305960616
 21
66.9637394354
  0
LINE
  5
337
100
AcDbEntity
  8
KONSTRUKTIONSELEMENTE
100
AcDbLine
 62
7
  6
CONTINUOUS
 10
213.3806727618
 20
149.8912527157
 11
201.6806727618
 21
143.1362545662
  0
LINE
  5
338
100
AcDbEntity
  8
BEZUGSACHSEN
100
AcDbLine
 62
7
  6
CONTINUOUS
 10
193.5900128644
 20
143.0787959601
 11
132.7468722672
 21
112.0776673986
  0
LINE
  5
339
100
AcDbEntity
  8
RUNDUNGEN
100
AcDbLine
 62
7
  6
CONTINUOUS
 10
179.2889861829
 20
122.3241440603
 11
157.1009512819
 21
111.018775604
  0
LINE
  5
33A
100
AcDbEntity
  8
0
100
AcDbLine
 62
7
  6
CONTINUOUS
 10
267.2806727618
 20
335.8665303907
 11
267.2806727618
 21
255.8665303907
  0
LINE
  5
33B
100
AcDbEntity
  8
0
100
AcDbLine
 62
7
  6
CONTINUOUS
 10
219.4644230598
 20
87.2635516459
 11
219.7769227618
 21
87.9018495539
  0
LINE
  5
33C
100
AcDbEntity
  8
0
100
AcDbLine
 62
7
  6
CONTINUOUS
 10
169.9258181121
 20
84.2627959647
 11
170.2097522896
 21
84.5721190484
  0
LINE
  5
33D
100
AcDbEntity
  8
0
100
AcDbLine
 62
7
  6
CONTINUOUS
 10
169.9833626524
 20
82.9766532404
 11
169.6994289445
 21
82.6673302395
  0
LINE
  5
33E
100
AcDbEntity
  8
0
100
AcDbLine
 62
7
  6
CONTINUOUS
 10
171.685393254
 20
83.8817020882
 11
171.4014600157
 21
83.5723791701
  0
LINE
  5
33F
100
AcDbEntity
  8
0
100
AcDbLine
 62
7
  6
CONTINUOUS
 10
178.7070208895
 20
85.8111589374
 11
178.9236656947
 21
86.0221978134
  0
LINE
  5
340
100
AcDbEntity
  8
0
100
AcDbLine
 62
7
  6
CONTINUOUS
 10
181.0231469487
 20
83.7133950906
 11
180.8065021539
 21
83.5023561559
  0
LINE
  5
341
100
AcDbEntity
  8
0
100
AcDbLine
 62
7
  6
CONTINUOUS
 10
170.0537915179
 20
84.9767153355
 11
169.68779128
 21
84.6529217911
  0
LINE
  5
342
100
AcDbEntity
  8
0
100
AcDbLine
 62
7
  6
CONTINUOUS
 10
171.9498367855
 20
81.4221713844
 11
172.3158379588
 21
81.7459651164
  0
LINE
  5
343
100
AcDbEntity
  8
RUNDUNGEN
100
AcDbLine
 62
7
  6
CONTINUOUS
 10
287.6202529335
 20
27.3591472713
 11
285.9337933453
 21
39.3589307632
  0
LINE
  5
344
100
AcDbEntity
  8
RUNDUNGEN
100
AcDbLine
 62
7
  6
CONTINUOUS
 10
283.5306727618
 20
43.4979213235
 11
283.5306727618
 21
64.2351739869
  0
LINE
  5
345
100
AcDbEntity
  8
BEZUGSACHSEN
100
AcDbLine
 62
7
  6
CONTINUOUS
 10
283.5306727618
 20
47.4519661408
 11
283.5306727618
 21
64.2351739869
  0
LINE
  5
346
100
AcDbEntity
  8
RUNDUNGEN
100
AcDbLine
 62
7
  6
CONTINUOUS
 10
287.6806727618
 20
11.5240095187
 11
287.6806727618
 21
43.7467235682
  0
LINE
  5
347
100
AcDbEntity
  8
RUNDUNGEN
100
AcDbLine
 62
7
  6
CONTINUOUS
 10
287.6806727618
 20
81.2379585433
 11
287.6806727618
 21
96.2090512626
  0
LINE
  5
348
100
AcDbEntity
  8
BEZUGSACHSEN
100
AcDbLine
 62
7
  6
CONTINUOUS
 10
287.6806727618
 20
81.2379585433
 11
287.6806727618
 21
96.2090512626
  0
LINE
  5
349
100
AcDbEntity
  8
0
100
AcDbLine
 62
7
  6
CONTINUOUS
 10
226.9644221657
 20
87.2635516459
 11
227.2769227618
 21
87.9018495539
  0
LINE
  5
34A
100
AcDbEntity
  8
0
100
AcDbLine
 62
7
  6
CONTINUOUS
 10
218.8394227618
 20
88.0614240029
 11
218.5269230598
 21
87.5827006558
  0
LINE
  5
34B
100
AcDbEntity
  8
0
100
AcDbLine
 62
7
  6
CONTINUOUS
 10
226.3394227618
 20
88.0614240029
 11
226.0269221657
 21
87.5827006558
  0
LINE
  5
34C
100
AcDbEntity
  8
0
100
AcDbLine
 62
7
  6
CONTINUOUS
 10
212.2769227618
 20
90.1358920643
 11
212.7456727618
 21
90.7741898605
  0
LINE
  5
34D
100
AcDbEntity
  8
0
100
AcDbLine
 62
7
  6
CONTINUOUS
 10
211.8081727618
 20
90.9337643096
 11
211.4956726128
 21
90.6146154115
  0
LINE
  5
34E
100
AcDbEntity
  8
BEZUGSACHSEN
100
AcDbLine
 62
7
  6
CONTINUOUS
 10
149.3307443925
 20
40.7693162765
 11
150.3033128584
 21
41.7418847424
  0
LINE
  5
34F
100
AcDbEntity
  8
0
100
AcDbLine
 62
7
  6
CONTINUOUS
 10
170.1327180852
 20
83.0894079087
 11
169.9833626524
 21
82.9766532404
  0
LINE
  5
350
100
AcDbEntity
  8
0
100
AcDbLine
 62
7
  6
CONTINUOUS
 10
170.2066109179
 20
82.6703408297
 11
170.505323662
 21
82.8958504976
  0
LINE
  5
351
100
AcDbEntity
  8
0
100
AcDbLine
 62
7
  6
CONTINUOUS
 10
171.7740646533
 20
83.3788215934
 11
171.9234210253
 21
83.4915764273
  0
LINE
  5
352
100
AcDbEntity
  8
0
100
AcDbLine
 62
7
  6
CONTINUOUS
 10
172.0105217491
 20
82.0378067645
 11
171.7118099443
 21
81.8122972622
  0
LINE
  5
353
100
AcDbEntity
  8
0
100
AcDbLine
 62
7
  6
CONTINUOUS
 10
178.7529263565
 20
86.5106075163
 11
178.4542154908
 21
86.2850981797
  0
LINE
  5
354
100
AcDbEntity
  8
0
100
AcDbLine
 62
7
  6
CONTINUOUS
 10
180.9772415012
 20
83.0139464016
 11
181.2759542413
 21
83.2394560915
  0
LINE
  5
355
100
AcDbEntity
  8
KONSTRUKTIONSELEMENTE
100
AcDbLine
 62
7
  6
CONTINUOUS
 10
221.1806727618
 20
116.4665303907
 11
232.8806727618
 21
123.2215285402
  0
LINE
  5
356
100
AcDbEntity
  8
0
100
AcDbLine
 62
7
  6
CONTINUOUS
 10
170.2097522896
 20
84.5721190484
 11
170.523242661
 21
84.7138151349
  0
LINE
  5
357
100
AcDbEntity
  8
0
100
AcDbLine
 62
7
  6
CONTINUOUS
 10
171.4014600157
 20
83.5723791701
 11
171.0879687051
 21
83.430682918
  0
LINE
  5
358
100
AcDbEntity
  8
0
100
AcDbLine
 62
7
  6
CONTINUOUS
 10
170.505323662
 20
82.8958504976
 11
170.8188140334
 21
83.0375465841
  0
LINE
  5
359
100
AcDbEntity
  8
0
100
AcDbLine
 62
7
  6
CONTINUOUS
 10
178.9236656947
 20
86.0221978134
 11
179.2371570052
 21
86.1638940655
  0
LINE
  5
35A
100
AcDbEntity
  8
0
100
AcDbLine
 62
7
  6
CONTINUOUS
 10
170.4493498282
 20
85.1328822138
 11
170.0537915179
 21
84.9767153355
  0
LINE
  5
35B
100
AcDbEntity
  8
BEZUGSACHSEN
100
AcDbLine
 62
7
  6
CONTINUOUS
 10
296.9410925282
 20
80.3739139498
 11
298.6275522453
 21
68.3741295411
  0
LINE
  5
35C
100
AcDbEntity
  8
0
100
AcDbLine
 62
7
  6
CONTINUOUS
 10
292.2806727618
 20
60.3417665379
 11
292.2806727618
 21
57.5915731299
  0
LINE
  5
35D
100
AcDbEntity
  8
0
100
AcDbLine
 62
7
  6
CONTINUOUS
 10
292.2806727618
 20
50.1414876514
 11
292.2806727618
 21
49.3105061462
  0
LINE
  5
35E
100
AcDbEntity
  8
BEZUGSACHSEN
100
AcDbLine
 62
7
  6
CONTINUOUS
 10
292.2806727618
 20
50.1414876514
 11
292.2806727618
 21
49.3105061462
  0
LINE
  5
35F
100
AcDbEntity
  8
RUNDUNGEN
100
AcDbLine
 62
7
  6
CONTINUOUS
 10
292.2806727618
 20
38.2408579627
 11
292.2806727618
 21
38.2035082627
  0
LINE
  5
360
100
AcDbEntity
  8
BEZUGSACHSEN
100
AcDbLine
 62
7
  6
CONTINUOUS
 10
292.2806727618
 20
9.3635082627
 11
292.2806727618
 21
38.2035082627
  0
LINE
  5
361
100
AcDbEntity
  8
RUNDUNGEN
100
AcDbLine
 62
7
  6
CONTINUOUS
 10
292.2806727618
 20
43.2837889769
 11
292.2806727618
 21
47.5397626135
  0
LINE
  5
362
100
AcDbEntity
  8
BEZUGSACHSEN
100
AcDbLine
 62
7
  6
CONTINUOUS
 10
292.2806727618
 20
43.2837889769
 11
292.2806727618
 21
47.5397626135
  0
LINE
  5
363
100
AcDbEntity
  8
BEZUGSACHSEN
100
AcDbLine
 62
7
  6
CONTINUOUS
 10
292.2806727618
 20
57.5915731299
 11
292.2806727618
 21
98.3695525187
  0
LINE
  5
364
100
AcDbEntity
  8
0
100
AcDbLine
 62
7
  6
CONTINUOUS
 10
293.2806727618
 20
335.8665303907
 11
293.2806727618
 21
255.8665303907
  0
LINE
  5
365
100
AcDbEntity
  8
BEZUGSACHSEN
100
AcDbLine
 62
7
  6
CONTINUOUS
 10
296.8806727618
 20
11.5240095187
 11
296.8806727618
 21
38.3035138196
  0
LINE
  5
366
100
AcDbEntity
  8
RUNDUNGEN
100
AcDbLine
 62
7
  6
CONTINUOUS
 10
296.8806727618
 20
38.2035082627
 11
296.8806727618
 21
43.7468901524
  0
LINE
  5
367
100
AcDbEntity
  8
BEZUGSACHSEN
100
AcDbLine
 62
7
  6
CONTINUOUS
 10
296.8806727618
 20
81.2379585433
 11
296.8806727618
 21
96.2090512626
  0
LINE
  5
368
100
AcDbEntity
  8
BEZUGSACHSEN
100
AcDbLine
 62
7
  6
CONTINUOUS
 10
301.0306727618
 20
45.2739616478
 11
301.0306727618
 21
43.4979213235
  0
LINE
  5
369
100
AcDbEntity
  8
RUNDUNGEN
100
AcDbLine
 62
7
  6
CONTINUOUS
 10
301.0306727618
 20
43.4978866341
 11
301.0306727618
 21
48.8369062894
  0
LINE
  5
36A
100
AcDbEntity
  8
BEZUGSACHSEN
100
AcDbLine
 62
7
  6
CONTINUOUS
 10
301.0306727618
 20
47.4519661408
 11
301.0306727618
 21
64.2351739869
  0
LINE
  5
36B
100
AcDbEntity
  8
RUNDUNGEN
100
AcDbLine
 62
7
  6
CONTINUOUS
 10
285.9337932783
 20
68.3741295411
 11
287.6202529953
 21
80.3739139498
  0
LINE
  5
36C
100
AcDbEntity
  8
BEZUGSACHSEN
100
AcDbLine
 62
7
  6
CONTINUOUS
 10
285.9337932783
 20
68.3741295411
 11
287.6202529953
 21
80.3739139498
  0
LINE
  5
36D
100
AcDbEntity
  8
0
100
AcDbLine
 62
7
  6
CONTINUOUS
 10
218.8394227618
 20
86.6252537937
 11
219.4644230598
 21
87.2635516459
  0
LINE
  5
36E
100
AcDbEntity
  8
0
100
AcDbLine
 62
7
  6
CONTINUOUS
 10
226.3394227618
 20
86.6252537937
 11
226.9644221657
 21
87.2635516459
  0
LINE
  5
36F
100
AcDbEntity
  8
0
100
AcDbLine
 62
7
  6
CONTINUOUS
 10
218.5269230598
 20
87.5827006558
 11
218.0581730598
 21
87.2635516459
  0
LINE
  5
370
100
AcDbEntity
  8
0
100
AcDbLine
 62
7
  6
CONTINUOUS
 10
226.0269221657
 20
87.5827006558
 11
225.5581721657
 21
87.2635516459
  0
LINE
  5
371
100
AcDbEntity
  8
0
100
AcDbLine
 62
7
  6
CONTINUOUS
 10
211.6519229108
 20
89.8167431661
 11
212.2769227618
 21
90.1358920643
  0
LINE
  5
372
100
AcDbEntity
  8
0
100
AcDbLine
 62
7
  6
CONTINUOUS
 10
218.2144224637
 20
86.3061048537
 11
218.8394227618
 21
86.6252537937
  0
LINE
  5
373
100
AcDbEntity
  8
0
100
AcDbLine
 62
7
  6
CONTINUOUS
 10
171.7118099443
 20
81.8122972622
 11
171.3983186337
 21
81.6706010102
  0
LINE
  5
374
100
AcDbEntity
  8
0
100
AcDbLine
 62
7
  6
CONTINUOUS
 10
180.8065021539
 20
83.5023561559
 11
180.4930127217
 21
83.360660235
  0
LINE
  5
375
100
AcDbEntity
  8
0
100
AcDbLine
 62
7
  6
CONTINUOUS
 10
179.1484856059
 20
86.6667745603
 11
178.7529263565
 21
86.5106075163
  0
LINE
  5
376
100
AcDbEntity
  8
0
100
AcDbLine
 62
7
  6
CONTINUOUS
 10
171.5542794157
 20
81.2660046644
 11
171.9498367855
 21
81.4221713844
  0
LINE
  5
377
100
AcDbEntity
  8
0
100
AcDbLine
 62
7
  6
CONTINUOUS
 10
180.5816841314
 20
82.8577796815
 11
180.9772415012
 21
83.0139464016
  0
LINE
  5
378
100
AcDbEntity
  8
0
100
AcDbLine
 62
7
  6
CONTINUOUS
 10
211.4956726128
 20
90.6146154115
 11
211.0269226128
 21
90.4550409624
  0
LINE
  5
379
100
AcDbEntity
  8
BEZUGSACHSEN
100
AcDbLine
 62
7
  6
CONTINUOUS
 10
278.7714423149
 20
106.9837845322
 11
270.4059097184
 21
90.5655023741
  0
LINE
  5
37A
100
AcDbEntity
  8
0
100
AcDbLine
 62
7
  6
CONTINUOUS
 10
225.7144233578
 20
86.3061048537
 11
226.3394227618
 21
86.6252537937
  0
LINE
  5
37B
100
AcDbEntity
  8
BEZUGSACHSEN
100
AcDbLine
 62
7
  6
CONTINUOUS
 10
296.94109259
 20
27.3591472713
 11
298.6275521782
 21
39.3589307632
  0
LINE
  5
37C
100
AcDbEntity
  8
RUNDUNGEN
100
AcDbLine
 62
7
  6
CONTINUOUS
 10
284.2580545724
 20
65.9911979461
 11
285.2305960616
 21
66.9637394354
  0
LINE
  5
37D
100
AcDbEntity
  8
BEZUGSACHSEN
100
AcDbLine
 62
7
  6
CONTINUOUS
 10
284.2580545724
 20
65.9911979461
 11
285.2305960616
 21
66.9637394354
  0
LINE
  5
37E
100
AcDbEntity
  8
BEZUGSACHSEN
100
AcDbLine
 62
7
  6
CONTINUOUS
 10
299.3307443925
 20
40.7693162765
 11
300.3033128584
 21
41.7418847424
  0
LINE
  5
37F
100
AcDbEntity
  8
0
100
AcDbLine
 62
7
  6
CONTINUOUS
 10
462.8759985309
 20
18.899285226
 11
463.2516079176
 21
18.9318127866
  0
LINE
  5
380
100
AcDbEntity
  8
0
100
AcDbLine
 62
7
  6
CONTINUOUS
 10
463.4998352823
 20
17.2673103227
 11
463.9920612842
 21
17.2716184163
  0
LINE
  5
381
100
AcDbEntity
  8
0
100
AcDbLine
 62
7
  6
CONTINUOUS
 10
457.3083912592
 20
14.553461678
 11
457.7979581867
 21
14.6717596758
  0
LINE
  5
382
100
AcDbEntity
  8
0
100
AcDbLine
 62
7
  6
CONTINUOUS
 10
456.8515742047
 20
18.5882950952
 11
456.3620072773
 21
18.4699970975
  0
LINE
  5
383
100
AcDbEntity
  8
0
100
AcDbLine
 62
7
  6
CONTINUOUS
 10
463.3092111949
 20
19.473255007
 11
463.0502192261
 21
19.4125085076
  0
LINE
  5
384
100
AcDbEntity
  8
0
100
AcDbLine
 62
7
  6
CONTINUOUS
 10
463.1003257601
 20
20.7579828812
 11
463.3593177288
 21
20.8187293806
  0
LINE
  5
385
100
AcDbEntity
  8
0
100
AcDbLine
 62
7
  6
CONTINUOUS
 10
470.207217496
 20
23.1977361955
 11
470.5633252287
 21
23.2501738402
  0
LINE
  5
386
100
AcDbEntity
  8
0
100
AcDbLine
 62
7
  6
CONTINUOUS
 10
468.8004762627
 20
24.3243346509
 11
469.1565839711
 21
24.3767723132
  0
LINE
  5
387
100
AcDbEntity
  8
0
100
AcDbLine
 62
7
  6
CONTINUOUS
 10
469.4493439718
 20
26.9661226384
 11
469.0932362635
 21
26.9136849761
  0
LINE
  5
388
100
AcDbEntity
  8
0
100
AcDbLine
 62
7
  6
CONTINUOUS
 10
464.5133123832
 20
19.922391838
 11
464.1377038112
 21
19.8898647864
  0
LINE
  5
389
100
AcDbEntity
  8
0
100
AcDbLine
 62
7
  6
CONTINUOUS
 10
470.4340647161
 20
23.6555133907
 11
470.0086186453
 21
23.6534903166
  0
LINE
  5
38A
100
AcDbEntity
  8
0
100
AcDbLine
 62
7
  6
CONTINUOUS
 10
470.6586278545
 20
25.567948535
 11
471.0840739738
 21
25.5699715737
  0
LINE
  5
38B
100
AcDbEntity
  8
0
100
AcDbLine
 62
7
  6
CONTINUOUS
 10
463.0502192261
 20
19.4125085076
 11
462.7457979295
 21
19.4244641751
  0
LINE
  5
38C
100
AcDbEntity
  8
0
100
AcDbLine
 62
7
  6
CONTINUOUS
 10
464.339091688
 20
19.4091685564
 11
464.6435129846
 21
19.3972128888
  0
LINE
  5
38D
100
AcDbEntity
  8
0
100
AcDbLine
 62
7
  6
CONTINUOUS
 10
468.9086216665
 20
24.7646336612
 11
468.6018774606
 21
24.7800887367
  0
LINE
  5
38E
100
AcDbEntity
  8
0
100
AcDbLine
 62
7
  6
CONTINUOUS
 10
469.3411996979
 20
26.525825182
 11
469.6479429682
 21
26.5103684114
  0
LINE
  5
38F
100
AcDbEntity
  8
0
100
AcDbLine
 62
7
  6
CONTINUOUS
 10
463.5789677519
 20
21.2592504952
 11
463.1579290373
 21
21.2994251016
  0
LINE
  5
390
100
AcDbEntity
  8
0
100
AcDbLine
 62
7
  6
CONTINUOUS
 10
468.4243948728
 20
24.3902058332
 11
468.8004762627
 21
24.3243346509
  0
LINE
  5
391
100
AcDbEntity
  8
0
100
AcDbLine
 62
7
  6
CONTINUOUS
 10
463.7906725649
 20
17.7523141818
 11
463.4408219086
 21
17.8369720673
  0
LINE
  5
392
100
AcDbEntity
  8
0
100
AcDbLine
 62
7
  6
CONTINUOUS
 10
462.4095313032
 20
19.0121625084
 11
462.8759985309
 21
18.899285226
  0
LINE
  5
393
100
AcDbEntity
  8
0
100
AcDbLine
 62
7
  6
CONTINUOUS
 10
464.9797796109
 20
19.8095145556
 11
464.5133123832
 21
19.922391838
  0
LINE
  5
394
100
AcDbEntity
  8
0
100
AcDbLine
 62
7
  6
CONTINUOUS
 10
463.3593177288
 20
20.8187293806
 11
463.59255175
 21
20.7622909939
  0
LINE
  5
395
100
AcDbEntity
  8
0
100
AcDbLine
 62
7
  6
CONTINUOUS
 10
469.7617966139
 20
23.3140204122
 11
470.207217496
 21
23.1977361955
  0
LINE
  5
396
100
AcDbEntity
  8
BEZUGSACHSEN
100
AcDbLine
 62
7
  6
CONTINUOUS
 10
461.3498748516
 20
42.7495525187
 11
465.3606353167
 21
42.7495525187
  0
LINE
  5
397
100
AcDbEntity
  8
BEZUGSACHSEN
100
AcDbLine
 62
7
  6
CONTINUOUS
 10
479.8161271589
 20
42.7495525187
 11
483.5415340308
 21
42.7495525187
  0
LINE
  5
398
100
AcDbEntity
  8
RUNDUNGEN
100
AcDbLine
 62
7
  6
CONTINUOUS
 10
435.8614314784
 20
44.0322807347
 11
426.372649203
 21
44.0322807347
  0
LINE
  5
399
100
AcDbEntity
  8
RUNDUNGEN
100
AcDbLine
 62
7
  6
CONTINUOUS
 10
466.6847162298
 20
44.4598568067
 11
473.7180782571
 21
44.4598568067
  0
LINE
  5
39A
100
AcDbEntity
  8
0
100
AcDbLine
 62
7
  6
CONTINUOUS
 10
426.6323279845
 20
44.8874328787
 11
435.7790353167
 21
44.8874328787
  0
LINE
  5
39B
100
AcDbEntity
  8
BEZUGSACHSEN
100
AcDbLine
 62
7
  6
CONTINUOUS
 10
426.6323279845
 20
44.8874328787
 11
435.7790353167
 21
44.8874328787
  0
LINE
  5
39C
100
AcDbEntity
  8
0
100
AcDbLine
 62
7
  6
CONTINUOUS
 10
471.3308948754
 20
25.9094399242
 11
470.8854750746
 21
26.0257257301
  0
LINE
  5
39D
100
AcDbEntity
  8
0
100
AcDbLine
 62
7
  6
CONTINUOUS
 10
469.8947649996
 20
26.8498383159
 11
469.4493439718
 21
26.9661226384
  0
LINE
  5
39E
100
AcDbEntity
  8
0
100
AcDbLine
 62
7
  6
CONTINUOUS
 10
463.9742477041
 20
21.1018904936
 11
463.5789677519
 21
21.2592504952
  0
LINE
  5
39F
100
AcDbEntity
  8
0
100
AcDbLine
 62
7
  6
CONTINUOUS
 10
464.6435129846
 20
19.3972128888
 11
464.9221763972
 21
19.2680722333
  0
LINE
  5
3A0
100
AcDbEntity
  8
0
100
AcDbLine
 62
7
  6
CONTINUOUS
 10
463.0591259545
 20
17.4973725675
 11
463.4998352823
 21
17.2673103227
  0
LINE
  5
3A1
100
AcDbEntity
  8
0
100
AcDbLine
 62
7
  6
CONTINUOUS
 10
478.5744462458
 20
50.6165303907
 11
478.3147853882
 21
50.6165303907
  0
LINE
  5
3A2
100
AcDbEntity
  8
0
100
AcDbLine
 62
7
  6
CONTINUOUS
 10
466.6847162298
 20
50.6165303907
 11
466.6023162298
 21
50.6165303907
  0
LINE
  5
3A3
100
AcDbEntity
  8
0
100
AcDbLine
 62
7
  6
CONTINUOUS
 10
425.1309862138
 20
50.6165303907
 11
425.3906470714
 21
50.6165303907
  0
LINE
  5
3A4
100
AcDbEntity
  8
0
100
AcDbLine
 62
7
  6
CONTINUOUS
 10
437.0207162298
 20
50.6165303907
 11
437.1031162298
 21
50.6165303907
  0
LINE
  5
3A5
100
AcDbEntity
  8
0
100
AcDbLine
 62
7
  6
CONTINUOUS
 10
442.8527162298
 20
50.6165303907
 11
460.0927162298
 21
50.6165303907
  0
LINE
  5
3A6
100
AcDbEntity
  8
0
100
AcDbLine
 62
7
  6
CONTINUOUS
 10
478.5744462458
 20
57.1165303907
 11
478.3147853882
 21
57.1165303907
  0
LINE
  5
3A7
100
AcDbEntity
  8
0
100
AcDbLine
 62
7
  6
CONTINUOUS
 10
466.6847162298
 20
57.1165303907
 11
466.6023162298
 21
57.1165303907
  0
LINE
  5
3A8
100
AcDbEntity
  8
0
100
AcDbLine
 62
7
  6
CONTINUOUS
 10
425.1309862138
 20
57.1165303907
 11
425.3906470714
 21
57.1165303907
  0
LINE
  5
3A9
100
AcDbEntity
  8
0
100
AcDbLine
 62
7
  6
CONTINUOUS
 10
437.0207162298
 20
57.1165303907
 11
437.1031162298
 21
57.1165303907
  0
LINE
  5
3AA
100
AcDbEntity
  8
0
100
AcDbLine
 62
7
  6
CONTINUOUS
 10
442.8527162298
 20
57.1165303907
 11
460.0927162298
 21
57.1165303907
  0
LINE
  5
3AB
100
AcDbEntity
  8
0
100
AcDbLine
 62
7
  6
CONTINUOUS
 10
465.3038723513
 20
19.6076717331
 11
464.9797796109
 21
19.8095145556
  0
LINE
  5
3AC
100
AcDbEntity
  8
0
100
AcDbLine
 62
7
  6
CONTINUOUS
 10
463.59255175
 20
20.7622909939
 11
463.7545976811
 21
20.661369379
  0
LINE
  5
3AD
100
AcDbEntity
  8
0
100
AcDbLine
 62
7
  6
CONTINUOUS
 10
477.0731044751
 20
62.8456279027
 11
467.9263971429
 21
62.8456279027
  0
LINE
  5
3AE
100
AcDbEntity
  8
RUNDUNGEN
100
AcDbLine
 62
7
  6
CONTINUOUS
 10
437.0207162298
 20
63.2732039747
 11
429.9873542112
 21
63.2732039747
  0
LINE
  5
3AF
100
AcDbEntity
  8
BEZUGSACHSEN
100
AcDbLine
 62
7
  6
CONTINUOUS
 10
437.0207162298
 20
63.2732039747
 11
429.9873542112
 21
63.2732039747
  0
LINE
  5
3B0
100
AcDbEntity
  8
RUNDUNGEN
100
AcDbLine
 62
7
  6
CONTINUOUS
 10
467.8439971429
 20
63.7007800467
 11
477.3327653327
 21
63.7007800467
  0
LINE
  5
3B1
100
AcDbEntity
  8
BEZUGSACHSEN
100
AcDbLine
 62
7
  6
CONTINUOUS
 10
467.8439971429
 20
63.7007800467
 11
477.3327653327
 21
63.7007800467
  0
LINE
  5
3B2
100
AcDbEntity
  8
BEZUGSACHSEN
100
AcDbLine
 62
7
  6
CONTINUOUS
 10
441.5955576079
 20
64.9835082627
 11
438.3447971429
 21
64.9835082627
  0
LINE
  5
3B3
100
AcDbEntity
  8
BEZUGSACHSEN
100
AcDbLine
 62
7
  6
CONTINUOUS
 10
423.8893053007
 20
64.9835082627
 11
420.4198984288
 21
64.9835082627
  0
LINE
  5
3B4
100
AcDbEntity
  8
RUNDUNGEN
100
AcDbLine
 62
7
  6
CONTINUOUS
 10
428.3527162298
 20
67.4225732045
 11
430.9527162298
 21
67.4225732045
  0
LINE
  5
3B5
100
AcDbEntity
  8
RUNDUNGEN
100
AcDbLine
 62
7
  6
CONTINUOUS
 10
472.7527162298
 20
67.4225732045
 11
475.3527162298
 21
67.4225732045
  0
LINE
  5
3B6
100
AcDbEntity
  8
RUNDUNGEN
100
AcDbLine
 62
7
  6
CONTINUOUS
 10
428.3527162298
 20
70.9581071104
 11
430.9527162298
 21
70.9581071104
  0
LINE
  5
3B7
100
AcDbEntity
  8
RUNDUNGEN
100
AcDbLine
 62
7
  6
CONTINUOUS
 10
472.7527162298
 20
70.9581071104
 11
475.3527162298
 21
70.9581071104
  0
LINE
  5
3B8
100
AcDbEntity
  8
BEZUGSACHSEN
100
AcDbLine
 62
7
  6
CONTINUOUS
 10
441.8527162298
 20
72.3665303907
 11
461.8527162298
 21
72.3665303907
  0
LINE
  5
3B9
100
AcDbEntity
  8
RUNDUNGEN
100
AcDbLine
 62
7
  6
CONTINUOUS
 10
434.9527162298
 20
74.4936410163
 11
440.4024263713
 21
74.4936410163
  0
LINE
  5
3BA
100
AcDbEntity
  8
RUNDUNGEN
100
AcDbLine
 62
7
  6
CONTINUOUS
 10
463.3030060882
 20
74.4936410163
 11
468.7527162298
 21
74.4936410163
  0
LINE
  5
3BB
100
AcDbEntity
  8
0
100
AcDbLine
 62
7
  6
CONTINUOUS
 10
469.5537816725
 20
23.465264071
 11
469.7617966139
 21
23.3140204122
  0
LINE
  5
3BC
100
AcDbEntity
  8
0
100
AcDbLine
 62
7
  6
CONTINUOUS
 10
468.2163799314
 20
24.541449492
 11
468.4243948728
 21
24.3902058332
  0
LINE
  5
3BD
100
AcDbEntity
  8
0
100
AcDbLine
 62
7
  6
CONTINUOUS
 10
470.0086186453
 20
23.6534903166
 11
469.8006037039
 21
23.8047339755
  0
LINE
  5
3BE
100
AcDbEntity
  8
0
100
AcDbLine
 62
7
  6
CONTINUOUS
 10
468.6018774606
 20
24.7800887367
 11
468.4632008329
 21
24.8809178426
  0
LINE
  5
3BF
100
AcDbEntity
  8
0
100
AcDbLine
 62
7
  6
CONTINUOUS
 10
469.6479429682
 20
26.5103684114
 11
469.7866195958
 21
26.4095393055
  0
LINE
  5
3C0
100
AcDbEntity
  8
0
100
AcDbLine
 62
7
  6
CONTINUOUS
 10
471.0840739738
 20
25.5699715737
 11
471.2920889153
 21
25.4187279149
  0
LINE
  5
3C1
100
AcDbEntity
  8
0
100
AcDbLine
 62
7
  6
CONTINUOUS
 10
470.1027799411
 20
26.698594657
 11
469.8947649996
 21
26.8498383159
  0
LINE
  5
3C2
100
AcDbEntity
  8
0
100
AcDbLine
 62
7
  6
CONTINUOUS
 10
471.5389098168
 20
25.7581962654
 11
471.3308948754
 21
25.9094399242
  0
LINE
  5
3C3
100
AcDbEntity
  8
0
100
AcDbLine
 62
7
  6
CONTINUOUS
 10
463.4408219086
 20
17.8369720673
 11
463.2333466497
 21
18.0105958491
  0
LINE
  5
3C4
100
AcDbEntity
  8
0
100
AcDbLine
 62
7
  6
CONTINUOUS
 10
462.7457979295
 20
19.4244641751
 11
462.5383226706
 21
19.598087957
  0
LINE
  5
3C5
100
AcDbEntity
  8
0
100
AcDbLine
 62
7
  6
CONTINUOUS
 10
464.181722963
 20
20.9282667118
 11
463.9742477041
 21
21.1018904936
  0
LINE
  5
3C6
100
AcDbEntity
  8
RUNDUNGEN
100
AcDbLine
 62
7
  6
CONTINUOUS
 10
434.9527162298
 20
78.0291749223
 11
440.4024263713
 21
78.0291749223
  0
LINE
  5
3C7
100
AcDbEntity
  8
RUNDUNGEN
100
AcDbLine
 62
7
  6
CONTINUOUS
 10
463.3030060882
 20
78.0291749223
 11
468.7527162298
 21
78.0291749223
  0
LINE
  5
3C8
100
AcDbEntity
  8
0
100
AcDbLine
 62
7
  6
CONTINUOUS
 10
462.8062213678
 20
17.7436985164
 11
463.0591259545
 21
17.4973725675
  0
LINE
  5
3C9
100
AcDbEntity
  8
0
100
AcDbLine
 62
7
  6
CONTINUOUS
 10
462.1566267165
 20
19.2584884572
 11
462.4095313032
 21
19.0121625084
  0
LINE
  5
3CA
100
AcDbEntity
  8
0
100
AcDbLine
 62
7
  6
CONTINUOUS
 10
460.3468165491
 20
16.0185357207
 11
457.9925163689
 21
18.8808350827
  0
LINE
  5
3CB
100
AcDbEntity
  8
0
100
AcDbLine
 62
7
  6
CONTINUOUS
 10
457.5221569573
 20
18.7007456145
 11
460.2171646171
 21
15.4181089604
  0
LINE
  5
3CC
100
AcDbEntity
  8
BEZUGSACHSEN
100
AcDbLine
 62
7
  6
CONTINUOUS
 10
430.8739401358
 20
21.0281586545
 11
416.7875000988
 21
43.7030537891
  0
LINE
  5
3CD
100
AcDbEntity
  8
0
100
AcDbLine
 62
7
  6
CONTINUOUS
 10
440.6629020416
 20
110.8389295693
 11
444.5029020416
 21
110.8389295693
  0
LINE
  5
3CE
100
AcDbEntity
  8
0
100
AcDbLine
 62
7
  6
CONTINUOUS
 10
446.5395430828
 20
110.8389295693
 11
447.3075430828
 21
110.8389295693
  0
LINE
  5
3CF
100
AcDbEntity
  8
0
100
AcDbLine
 62
7
  6
CONTINUOUS
 10
450.9659062163
 20
110.8389295693
 11
451.8527162298
 21
110.8389295693
  0
LINE
  5
3D0
100
AcDbEntity
  8
0
100
AcDbLine
 62
7
  6
CONTINUOUS
 10
458.5348513712
 20
110.8389295693
 11
461.3172250253
 21
110.8389295693
  0
LINE
  5
3D1
100
AcDbEntity
  8
0
100
AcDbLine
 62
7
  6
CONTINUOUS
 10
461.3340542077
 20
111.1217722818
 11
459.3028513712
 21
111.1217722818
  0
LINE
  5
3D2
100
AcDbEntity
  8
0
100
AcDbLine
 62
7
  6
CONTINUOUS
 10
443.1829020416
 20
111.2349093668
 11
441.9829020416
 21
111.2349093668
  0
LINE
  5
3D3
100
AcDbEntity
  8
0
100
AcDbLine
 62
7
  6
CONTINUOUS
 10
461.3340542077
 20
111.4046149943
 11
459.3028513712
 21
111.4046149943
  0
LINE
  5
3D4
100
AcDbEntity
  8
0
100
AcDbLine
 62
7
  6
CONTINUOUS
 10
443.1829020416
 20
111.5177520793
 11
441.9829020416
 21
111.5177520793
  0
LINE
  5
3D5
100
AcDbEntity
  8
0
100
AcDbLine
 62
7
  6
CONTINUOUS
 10
442.1989020416
 20
111.7723105205
 11
442.9669020416
 21
111.7723105205
  0
LINE
  5
3D6
100
AcDbEntity
  8
0
100
AcDbLine
 62
7
  6
CONTINUOUS
 10
442.6669020416
 20
112.1682903179
 11
442.4989020416
 21
112.1682903179
  0
LINE
  5
3D7
100
AcDbEntity
  8
0
100
AcDbLine
 62
7
  6
CONTINUOUS
 10
442.9669020416
 20
112.3379959454
 11
442.7629020416
 21
112.3379959454
  0
LINE
  5
3D8
100
AcDbEntity
  8
0
100
AcDbLine
 62
7
  6
CONTINUOUS
 10
442.4029020416
 20
112.3379959454
 11
442.1989020416
 21
112.3379959454
  0
LINE
  5
3D9
100
AcDbEntity
  8
0
100
AcDbLine
 62
7
  6
CONTINUOUS
 10
442.6669020416
 20
112.4511330304
 11
442.4989020416
 21
112.4511330304
  0
LINE
  5
3DA
100
AcDbEntity
  8
KONSTRUKTIONSELEMENTE
100
AcDbLine
 62
7
  6
CONTINUOUS
 10
482.4027162298
 20
112.5665303907
 11
480.1861066525
 21
112.5665303907
  0
LINE
  5
3DB
100
AcDbEntity
  8
KONSTRUKTIONSELEMENTE
100
AcDbLine
 62
7
  6
CONTINUOUS
 10
425.0094959668
 20
112.5665303907
 11
408.4027162298
 21
112.5665303907
  0
LINE
  5
3DC
100
AcDbEntity
  8
0
100
AcDbLine
 62
7
  6
CONTINUOUS
 10
442.9669020416
 20
112.6208386579
 11
442.7629020416
 21
112.6208386579
  0
LINE
  5
3DD
100
AcDbEntity
  8
0
100
AcDbLine
 62
7
  6
CONTINUOUS
 10
442.4029020416
 20
112.6208386579
 11
442.1989020416
 21
112.6208386579
  0
LINE
  5
3DE
100
AcDbEntity
  8
0
100
AcDbLine
 62
7
  6
CONTINUOUS
 10
441.9829020416
 20
112.8753970991
 11
442.4029020416
 21
112.8753970991
  0
LINE
  5
3DF
100
AcDbEntity
  8
0
100
AcDbLine
 62
7
  6
CONTINUOUS
 10
442.7629020416
 20
112.8753970991
 11
443.1829020416
 21
112.8753970991
  0
LINE
  5
3E0
100
AcDbEntity
  8
0
100
AcDbLine
 62
7
  6
CONTINUOUS
 10
443.1829020416
 20
112.9319656416
 11
442.7629020416
 21
112.9319656416
  0
LINE
  5
3E1
100
AcDbEntity
  8
0
100
AcDbLine
 62
7
  6
CONTINUOUS
 10
442.4029020416
 20
112.9319656416
 11
441.9829020416
 21
112.9319656416
  0
LINE
  5
3E2
100
AcDbEntity
  8
0
100
AcDbLine
 62
7
  6
CONTINUOUS
 10
447.3075430828
 20
112.9679809017
 11
449.2275430828
 21
112.9679809017
  0
LINE
  5
3E3
100
AcDbEntity
  8
0
100
AcDbLine
 62
7
  6
CONTINUOUS
 10
443.1829020416
 20
113.2148083541
 11
442.7629020416
 21
113.2148083541
  0
LINE
  5
3E4
100
AcDbEntity
  8
0
100
AcDbLine
 62
7
  6
CONTINUOUS
 10
442.4029020416
 20
113.2148083541
 11
441.9829020416
 21
113.2148083541
  0
LINE
  5
3E5
100
AcDbEntity
  8
0
100
AcDbLine
 62
7
  6
CONTINUOUS
 10
449.5475430828
 20
113.2281961972
 11
447.3075430828
 21
113.2281961972
  0
LINE
  5
3E6
100
AcDbEntity
  8
0
100
AcDbLine
 62
7
  6
CONTINUOUS
 10
442.1989020416
 20
113.4693667953
 11
442.4029020416
 21
113.4693667953
  0
LINE
  5
3E7
100
AcDbEntity
  8
0
100
AcDbLine
 62
7
  6
CONTINUOUS
 10
442.7629020416
 20
113.4693667953
 11
442.9669020416
 21
113.4693667953
  0
LINE
  5
3E8
100
AcDbEntity
  8
0
100
AcDbLine
 62
7
  6
CONTINUOUS
 10
449.5475430828
 20
113.5110389097
 11
447.3075430828
 21
113.5110389097
  0
LINE
  5
3E9
100
AcDbEntity
  8
0
100
AcDbLine
 62
7
  6
CONTINUOUS
 10
442.4989020416
 20
113.6390724228
 11
442.6669020416
 21
113.6390724228
  0
LINE
  5
3EA
100
AcDbEntity
  8
0
100
AcDbLine
 62
7
  6
CONTINUOUS
 10
459.3028513712
 20
113.9501994065
 11
458.5348513712
 21
113.9501994065
  0
LINE
  5
3EB
100
AcDbEntity
  8
0
100
AcDbLine
 62
7
  6
CONTINUOUS
 10
447.3075430828
 20
113.9784836778
 11
446.5395430828
 21
113.9784836778
  0
LINE
  5
3EC
100
AcDbEntity
  8
0
100
AcDbLine
 62
7
  6
CONTINUOUS
 10
442.9669020416
 20
114.0350522203
 11
442.1989020416
 21
114.0350522203
  0
LINE
  5
3ED
100
AcDbEntity
  8
0
100
AcDbLine
 62
7
  6
CONTINUOUS
 10
459.3028513712
 20
114.233042119
 11
458.5348513712
 21
114.233042119
  0
LINE
  5
3EE
100
AcDbEntity
  8
0
100
AcDbLine
 62
7
  6
CONTINUOUS
 10
447.3075430828
 20
114.2613263903
 11
446.5395430828
 21
114.2613263903
  0
LINE
  5
3EF
100
AcDbEntity
  8
0
100
AcDbLine
 62
7
  6
CONTINUOUS
 10
442.9669020416
 20
114.3178949328
 11
442.1989020416
 21
114.3178949328
  0
LINE
  5
3F0
100
AcDbEntity
  8
0
100
AcDbLine
 62
7
  6
CONTINUOUS
 10
441.9829020416
 20
114.572453374
 11
443.1829020416
 21
114.572453374
  0
LINE
  5
3F1
100
AcDbEntity
  8
0
100
AcDbLine
 62
7
  6
CONTINUOUS
 10
458.5348513712
 20
114.708217876
 11
461.3340542077
 21
114.708217876
  0
LINE
  5
3F2
100
AcDbEntity
  8
0
100
AcDbLine
 62
7
  6
CONTINUOUS
 10
446.5395430828
 20
114.7365021472
 11
449.5475430828
 21
114.7365021472
  0
LINE
  5
3F3
100
AcDbEntity
  8
0
100
AcDbLine
 62
7
  6
CONTINUOUS
 10
461.3172250253
 20
114.9684331714
 11
458.5348513712
 21
114.9684331714
  0
LINE
  5
3F4
100
AcDbEntity
  8
0
100
AcDbLine
 62
7
  6
CONTINUOUS
 10
456.8548513712
 20
114.9684331714
 11
456.0868513712
 21
114.9684331714
  0
LINE
  5
3F5
100
AcDbEntity
  8
0
100
AcDbLine
 62
7
  6
CONTINUOUS
 10
453.0675430828
 20
114.9684331714
 11
452.2995430828
 21
114.9684331714
  0
LINE
  5
3F6
100
AcDbEntity
  8
0
100
AcDbLine
 62
7
  6
CONTINUOUS
 10
449.5475430828
 20
114.9684331714
 11
446.5395430828
 21
114.9684331714
  0
LINE
  5
3F7
100
AcDbEntity
  8
0
100
AcDbLine
 62
7
  6
CONTINUOUS
 10
444.5029020416
 20
114.9684331714
 11
440.6629020416
 21
114.9684331714
  0
LINE
  5
3F8
100
AcDbEntity
  8
0
100
AcDbLine
 62
7
  6
CONTINUOUS
 10
461.3172250253
 20
115.2512758839
 11
458.5348513712
 21
115.2512758839
  0
LINE
  5
3F9
100
AcDbEntity
  8
0
100
AcDbLine
 62
7
  6
CONTINUOUS
 10
456.8548513712
 20
115.2512758839
 11
456.0868513712
 21
115.2512758839
  0
LINE
  5
3FA
100
AcDbEntity
  8
0
100
AcDbLine
 62
7
  6
CONTINUOUS
 10
453.0675430828
 20
115.2512758839
 11
452.2995430828
 21
115.2512758839
  0
LINE
  5
3FB
100
AcDbEntity
  8
0
100
AcDbLine
 62
7
  6
CONTINUOUS
 10
449.5475430828
 20
115.2512758839
 11
446.5395430828
 21
115.2512758839
  0
LINE
  5
3FC
100
AcDbEntity
  8
0
100
AcDbLine
 62
7
  6
CONTINUOUS
 10
444.5029020416
 20
115.2512758839
 11
440.6629020416
 21
115.2512758839
  0
LINE
  5
3FD
100
AcDbEntity
  8
0
100
AcDbLine
 62
7
  6
CONTINUOUS
 10
461.9749092779
 20
19.5492973288
 11
462.1566267165
 21
19.2584884572
  0
LINE
  5
3FE
100
AcDbEntity
  8
0
100
AcDbLine
 62
7
  6
CONTINUOUS
 10
462.5383226706
 20
19.598087957
 11
462.447464015
 21
19.7434922909
  0
LINE
  5
3FF
100
AcDbEntity
  8
KONSTRUKTIONSELEMENTE
100
AcDbLine
 62
7
  6
CONTINUOUS
 10
484.0480543409
 20
116.4665303907
 11
487.6027162298
 21
116.4665303907
  0
LINE
  5
400
100
AcDbEntity
  8
KONSTRUKTIONSELEMENTE
100
AcDbLine
 62
7
  6
CONTINUOUS
 10
417.1925780283
 20
119.0352926563
 11
408.4027162298
 21
119.0352926563
  0
LINE
  5
401
100
AcDbEntity
  8
BEZUGSACHSEN
100
AcDbLine
 62
7
  6
CONTINUOUS
 10
465.5027162298
 20
122.9665303907
 11
461.8527162298
 21
122.9665303907
  0
LINE
  5
402
100
AcDbEntity
  8
BEZUGSACHSEN
100
AcDbLine
 62
7
  6
CONTINUOUS
 10
441.8527162298
 20
122.9665303907
 11
438.2027162298
 21
122.9665303907
  0
LINE
  5
403
100
AcDbEntity
  8
RUNDUNGEN
100
AcDbLine
 62
7
  6
CONTINUOUS
 10
417.5405892666
 20
118.60417626
 11
419.4333915065
 21
116.6927239743
  0
LINE
  5
404
100
AcDbEntity
  8
RUNDUNGEN
100
AcDbLine
 62
7
  6
CONTINUOUS
 10
425.2265135137
 20
110.8425215244
 11
437.267048986
 21
98.6833489691
  0
LINE
  5
405
100
AcDbEntity
  8
RUNDUNGEN
100
AcDbLine
 62
7
  6
CONTINUOUS
 10
455.9484764512
 20
79.8178507817
 11
460.0263979111
 21
75.6997489904
  0
LINE
  5
406
100
AcDbEntity
  8
RUNDUNGEN
100
AcDbLine
 62
7
  6
CONTINUOUS
 10
417.5405892666
 20
122.1397101659
 11
419.4333915065
 21
120.2282578803
  0
LINE
  5
407
100
AcDbEntity
  8
RUNDUNGEN
100
AcDbLine
 62
7
  6
CONTINUOUS
 10
425.2265135137
 20
114.3780554303
 11
437.267048986
 21
102.218882875
  0
LINE
  5
408
100
AcDbEntity
  8
RUNDUNGEN
100
AcDbLine
 62
7
  6
CONTINUOUS
 10
455.9484764512
 20
83.3533846876
 11
460.0263979111
 21
79.2352828963
  0
LINE
  5
409
100
AcDbEntity
  8
RUNDUNGEN
100
AcDbLine
 62
7
  6
CONTINUOUS
 10
427.513478526
 20
116.5462425623
 11
426.5933243907
 21
117.4754631051
  0
LINE
  5
40A
100
AcDbEntity
  8
RUNDUNGEN
100
AcDbLine
 62
7
  6
CONTINUOUS
 10
428.7155572052
 20
118.8678535393
 11
426.5933243907
 21
121.0109970111
  0
LINE
  5
40B
100
AcDbEntity
  8
0
100
AcDbLine
 62
7
  6
CONTINUOUS
 10
467.9684163027
 20
24.9293094274
 11
468.2163799314
 21
24.541449492
  0
LINE
  5
40C
100
AcDbEntity
  8
0
100
AcDbLine
 62
7
  6
CONTINUOUS
 10
469.3058192708
 20
23.8531254897
 11
469.5537816725
 21
23.465264071
  0
LINE
  5
40D
100
AcDbEntity
  8
0
100
AcDbLine
 62
7
  6
CONTINUOUS
 10
471.7868732998
 20
25.370336436
 11
471.5389098168
 21
25.7581962654
  0
LINE
  5
40E
100
AcDbEntity
  8
0
100
AcDbLine
 62
7
  6
CONTINUOUS
 10
464.9221763972
 20
19.2680722333
 11
465.0584643807
 21
19.0499657324
  0
LINE
  5
40F
100
AcDbEntity
  8
0
100
AcDbLine
 62
7
  6
CONTINUOUS
 10
465.5310189905
 20
19.2441608982
 11
465.3038723513
 21
19.6076717331
  0
LINE
  5
410
100
AcDbEntity
  8
BEZUGSACHSEN
100
AcDbLine
 62
7
  6
CONTINUOUS
 10
441.8527162298
 20
143.0787959601
 11
443.8527162298
 21
143.0787959601
  0
LINE
  5
411
100
AcDbEntity
  8
BEZUGSACHSEN
100
AcDbLine
 62
7
  6
CONTINUOUS
 10
448.3527162298
 20
143.0787959601
 11
455.3527162298
 21
143.0787959601
  0
LINE
  5
412
100
AcDbEntity
  8
BEZUGSACHSEN
100
AcDbLine
 62
7
  6
CONTINUOUS
 10
459.8527162298
 20
143.0787959601
 11
461.8527162298
 21
143.0787959601
  0
LINE
  5
413
100
AcDbEntity
  8
KONSTRUKTIONSELEMENTE
100
AcDbLine
 62
7
  6
CONTINUOUS
 10
482.4027162298
 20
143.1362545662
 11
487.6027162298
 21
143.1362545662
  0
LINE
  5
414
100
AcDbEntity
  8
RUNDUNGEN
100
AcDbLine
 62
7
  6
CONTINUOUS
 10
467.2548147266
 20
119.8094800444
 11
458.735633466
 21
124.0275098362
  0
LINE
  5
415
100
AcDbEntity
  8
RUNDUNGEN
100
AcDbLine
 62
7
  6
CONTINUOUS
 10
478.6293244069
 20
80.1739079885
 11
466.4383834735
 21
92.4849679709
  0
LINE
  5
416
100
AcDbEntity
  8
RUNDUNGEN
100
AcDbLine
 62
7
  6
CONTINUOUS
 10
436.1222768939
 20
123.0997833962
 11
434.0884805933
 21
125.1536189766
  0
LINE
  5
417
100
AcDbEntity
  8
0
100
AcDbLine
 62
7
  6
CONTINUOUS
 10
449.2275430828
 20
112.9679809017
 11
450.9659062163
 21
110.8389295693
  0
LINE
  5
418
100
AcDbEntity
  8
0
100
AcDbLine
 62
7
  6
CONTINUOUS
 10
470.2814039318
 20
26.3611478619
 11
470.1027799411
 21
26.698594657
  0
LINE
  5
419
100
AcDbEntity
  8
BEZUGSACHSEN
100
AcDbLine
 62
7
  6
CONTINUOUS
 10
465.5027162298
 20
143.7665303907
 11
461.8527162298
 21
143.7665303907
  0
LINE
  5
41A
100
AcDbEntity
  8
BEZUGSACHSEN
100
AcDbLine
 62
7
  6
CONTINUOUS
 10
441.8527162298
 20
143.7665303907
 11
438.2027162298
 21
143.7665303907
  0
LINE
  5
41B
100
AcDbEntity
  8
KONSTRUKTIONSELEMENTE
100
AcDbLine
 62
7
  6
CONTINUOUS
 10
408.4027162298
 20
149.3431348389
 11
411.6927458731
 21
149.3431314966
  0
LINE
  5
41C
100
AcDbEntity
  8
KONSTRUKTIONSELEMENTE
100
AcDbLine
 62
7
  6
CONTINUOUS
 10
482.4027162298
 20
150.2665303907
 11
487.6027162298
 21
150.2665303907
  0
LINE
  5
41D
100
AcDbEntity
  8
KONSTRUKTIONSELEMENTE
100
AcDbLine
 62
7
  6
CONTINUOUS
 10
408.4027162298
 20
152.8665303907
 11
411.6927466839
 21
152.8665303907
  0
LINE
  5
41E
100
AcDbEntity
  8
RUNDUNGEN
100
AcDbLine
 62
7
  6
CONTINUOUS
 10
487.4761664853
 20
124.9433177725
 11
481.5782717664
 21
127.8634922437
  0
LINE
  5
41F
100
AcDbEntity
  8
0
100
AcDbLine
 62
7
  6
CONTINUOUS
 10
451.6217761221
 20
110.8389295693
 11
450.045261898
 21
112.76975728
  0
LINE
  5
420
100
AcDbEntity
  8
0
100
AcDbLine
 62
7
  6
CONTINUOUS
 10
451.8527162298
 20
110.8389295693
 11
450.045261898
 21
113.0525999925
  0
LINE
  5
421
100
AcDbEntity
  8
0
100
AcDbLine
 62
7
  6
CONTINUOUS
 10
468.4632008329
 20
24.8809178426
 11
468.3539149618
 21
25.167950226
  0
LINE
  5
422
100
AcDbEntity
  8
0
100
AcDbLine
 62
7
  6
CONTINUOUS
 10
461.8643792421
 20
19.8845887158
 11
461.9749092779
 21
19.5492973288
  0
LINE
  5
423
100
AcDbEntity
  8
KONSTRUKTIONSELEMENTE
100
AcDbLine
 62
7
  6
CONTINUOUS
 10
408.4027162298
 20
112.5665303907
 11
408.4027162298
 21
152.8665303907
  0
LINE
  5
424
100
AcDbEntity
  8
0
100
AcDbLine
 62
7
  6
CONTINUOUS
 10
415.8527162298
 20
46.9792119048
 11
415.8527162298
 21
50.1414876514
  0
LINE
  5
425
100
AcDbEntity
  8
0
100
AcDbLine
 62
7
  6
CONTINUOUS
 10
415.8527162298
 20
57.5915731299
 11
415.8527162298
 21
58.4225546352
  0
LINE
  5
426
100
AcDbEntity
  8
RUNDUNGEN
100
AcDbLine
 62
7
  6
CONTINUOUS
 10
416.8171974437
 20
123.7620293166
 11
416.8171974437
 21
120.2264954106
  0
LINE
  5
427
100
AcDbEntity
  8
BEZUGSACHSEN
100
AcDbLine
 62
7
  6
CONTINUOUS
 10
441.8527162298
 20
158.3665303907
 11
449.6027162298
 21
158.3665303907
  0
LINE
  5
428
100
AcDbEntity
  8
BEZUGSACHSEN
100
AcDbLine
 62
7
  6
CONTINUOUS
 10
454.1027162298
 20
158.3665303907
 11
461.8527162298
 21
158.3665303907
  0
LINE
  5
429
100
AcDbEntity
  8
BEZUGSACHSEN
100
AcDbLine
 62
7
  6
CONTINUOUS
 10
472.8314923238
 20
86.7049021269
 11
473.9585116356
 21
84.8907429324
  0
LINE
  5
42A
100
AcDbEntity
  8
BEZUGSACHSEN
100
AcDbLine
 62
7
  6
CONTINUOUS
 10
479.3527162298
 20
76.2077099456
 11
487.1739323607
 21
63.6179246535
  0
LINE
  5
42B
100
AcDbEntity
  8
0
100
AcDbLine
 62
7
  6
CONTINUOUS
 10
469.7866195958
 20
26.4095393055
 11
469.8959064026
 21
26.1225086173
  0
LINE
  5
42C
100
AcDbEntity
  8
0
100
AcDbLine
 62
7
  6
CONTINUOUS
 10
469.8006037039
 20
23.8047339755
 11
469.6713431184
 21
24.2100735789
  0
LINE
  5
42D
100
AcDbEntity
  8
0
100
AcDbLine
 62
7
  6
CONTINUOUS
 10
471.2920889153
 20
25.4187279149
 11
471.4213494522
 21
25.0133883467
  0
LINE
  5
42E
100
AcDbEntity
  8
0
100
AcDbLine
 62
7
  6
CONTINUOUS
 10
462.447464015
 20
19.7434922909
 11
462.3823631797
 21
20.0060817147
  0
LINE
  5
42F
100
AcDbEntity
  8
0
100
AcDbLine
 62
7
  6
CONTINUOUS
 10
456.3620072773
 20
18.4699970975
 11
457.3083912592
 21
14.553461678
  0
LINE
  5
430
100
AcDbEntity
  8
0
100
AcDbLine
 62
7
  6
CONTINUOUS
 10
457.7979581867
 20
14.6717596758
 11
456.8515742047
 21
18.5882950952
  0
LINE
  5
431
100
AcDbEntity
  8
KONSTRUKTIONSELEMENTE
100
AcDbLine
 62
7
  6
CONTINUOUS
 10
421.3027162298
 20
163.2665303907
 11
421.3027162298
 21
193.5665303907
  0
LINE
  5
432
100
AcDbEntity
  8
KONSTRUKTIONSELEMENTE
100
AcDbLine
 62
7
  6
CONTINUOUS
 10
421.4027162298
 20
127.4114636611
 11
421.4027162298
 21
151.5561421315
  0
LINE
  5
433
100
AcDbEntity
  8
RUNDUNGEN
100
AcDbLine
 62
7
  6
CONTINUOUS
 10
423.0127162298
 20
69.4922028187
 11
423.0127162298
 21
69.5295525187
  0
LINE
  5
434
100
AcDbEntity
  8
BEZUGSACHSEN
100
AcDbLine
 62
7
  6
CONTINUOUS
 10
423.0127162298
 20
69.4922028187
 11
423.0127162298
 21
69.5295525187
  0
LINE
  5
435
100
AcDbEntity
  8
RUNDUNGEN
100
AcDbLine
 62
7
  6
CONTINUOUS
 10
424.3527162298
 20
78.5515888378
 11
424.3527162298
 21
70.2510003292
  0
LINE
  5
436
100
AcDbEntity
  8
RUNDUNGEN
100
AcDbLine
 62
7
  6
CONTINUOUS
 10
425.0094959668
 20
114.8647511755
 11
425.0094959668
 21
111.3292172696
  0
LINE
  5
437
100
AcDbEntity
  8
RUNDUNGEN
100
AcDbLine
 62
7
  6
CONTINUOUS
 10
425.1309862138
 20
45.2739616478
 11
425.1309862138
 21
63.7417947517
  0
LINE
  5
438
100
AcDbEntity
  8
RUNDUNGEN
100
AcDbLine
 62
7
  6
CONTINUOUS
 10
425.3906470714
 20
58.2638215208
 11
425.3906470714
 21
46.129390677
  0
LINE
  5
439
100
AcDbEntity
  8
BEZUGSACHSEN
100
AcDbLine
 62
7
  6
CONTINUOUS
 10
425.3906470714
 20
46.129390677
 11
425.3906470714
 21
59.5091758919
  0
LINE
  5
43A
100
AcDbEntity
  8
KONSTRUKTIONSELEMENTE
100
AcDbLine
 62
7
  6
CONTINUOUS
 10
430.9527162298
 20
67.4225732045
 11
430.9527162298
 21
70.9581071104
  0
LINE
  5
43B
100
AcDbEntity
  8
RUNDUNGEN
100
AcDbLine
 62
7
  6
CONTINUOUS
 10
430.9527162298
 20
70.9581071104
 11
430.9527162298
 21
75.2007477975
  0
LINE
  5
43C
100
AcDbEntity
  8
0
100
AcDbLine
 62
7
  6
CONTINUOUS
 10
437.0207162298
 20
58.6664170145
 11
437.0207162298
 21
49.2626403029
  0
LINE
  5
43D
100
AcDbEntity
  8
RUNDUNGEN
100
AcDbLine
 62
7
  6
CONTINUOUS
 10
437.0207162298
 20
58.6664170145
 11
437.0207162298
 21
46.1293906714
  0
LINE
  5
43E
100
AcDbEntity
  8
0
100
AcDbLine
 62
7
  6
CONTINUOUS
 10
437.0207162298
 20
63.2732039747
 11
437.0207162298
 21
69.5295525187
  0
LINE
  5
43F
100
AcDbEntity
  8
BEZUGSACHSEN
100
AcDbLine
 62
7
  6
CONTINUOUS
 10
437.0207162298
 20
46.1293906714
 11
437.0207162298
 21
69.5295525187
  0
LINE
  5
440
100
AcDbEntity
  8
RUNDUNGEN
100
AcDbLine
 62
7
  6
CONTINUOUS
 10
437.1031162298
 20
45.2739616478
 11
437.1031162298
 21
63.7417947517
  0
LINE
  5
441
100
AcDbEntity
  8
KONSTRUKTIONSELEMENTE
100
AcDbLine
 62
7
  6
CONTINUOUS
 10
438.2027162298
 20
122.0262466001
 11
438.2027162298
 21
193.5665303907
  0
LINE
  5
442
100
AcDbEntity
  8
0
100
AcDbLine
 62
7
  6
CONTINUOUS
 10
438.8527162298
 20
192.9299671986
 11
438.8527162298
 21
193.537790203
  0
LINE
  5
443
100
AcDbEntity
  8
0
100
AcDbLine
 62
7
  6
CONTINUOUS
 10
438.8527162298
 20
200.5213133733
 11
438.8527162298
 21
398.8030935828
  0
LINE
  5
444
100
AcDbEntity
  8
0
100
AcDbLine
 62
7
  6
CONTINUOUS
 10
440.1829020416
 20
114.9118646289
 11
440.1829020416
 21
111.1783408243
  0
LINE
  5
445
100
AcDbEntity
  8
0
100
AcDbLine
 62
7
  6
CONTINUOUS
 10
441.7429020416
 20
111.4046149943
 11
441.7429020416
 21
112.7056914716
  0
LINE
  5
446
100
AcDbEntity
  8
0
100
AcDbLine
 62
7
  6
CONTINUOUS
 10
441.7429020416
 20
113.1016712691
 11
441.7429020416
 21
114.4027477465
  0
LINE
  5
447
100
AcDbEntity
  8
BEZUGSACHSEN
100
AcDbLine
 62
7
  6
CONTINUOUS
 10
441.8527162298
 20
74.687793632
 11
441.8527162298
 21
72.3666058196
  0
LINE
  5
448
100
AcDbEntity
  8
BEZUGSACHSEN
100
AcDbLine
 62
7
  6
CONTINUOUS
 10
441.8527162298
 20
122.4841751472
 11
441.8527162298
 21
158.3663293708
  0
LINE
  5
449
100
AcDbEntity
  8
0
100
AcDbLine
 62
7
  6
CONTINUOUS
 10
442.1029020416
 20
114.2500126818
 11
442.1029020416
 21
113.5372490463
  0
LINE
  5
44A
100
AcDbEntity
  8
0
100
AcDbLine
 62
7
  6
CONTINUOUS
 10
442.1029020416
 20
112.5529564069
 11
442.1029020416
 21
111.8401927715
  0
LINE
  5
44B
100
AcDbEntity
  8
0
100
AcDbLine
 62
7
  6
CONTINUOUS
 10
442.4029020416
 20
112.2361725689
 11
442.4029020416
 21
112.6208386579
  0
LINE
  5
44C
100
AcDbEntity
  8
0
100
AcDbLine
 62
7
  6
CONTINUOUS
 10
442.4029020416
 20
112.8753970991
 11
442.4029020416
 21
113.2148083541
  0
LINE
  5
44D
100
AcDbEntity
  8
0
100
AcDbLine
 62
7
  6
CONTINUOUS
 10
442.4029020416
 20
113.4693667953
 11
442.4029020416
 21
113.5711901718
  0
LINE
  5
44E
100
AcDbEntity
  8
0
100
AcDbLine
 62
7
  6
CONTINUOUS
 10
442.7629020416
 20
113.5711901718
 11
442.7629020416
 21
113.4693667953
  0
LINE
  5
44F
100
AcDbEntity
  8
0
100
AcDbLine
 62
7
  6
CONTINUOUS
 10
442.7629020416
 20
113.2148083541
 11
442.7629020416
 21
112.8753970991
  0
LINE
  5
450
100
AcDbEntity
  8
0
100
AcDbLine
 62
7
  6
CONTINUOUS
 10
442.7629020416
 20
112.6208386579
 11
442.7629020416
 21
112.2361725689
  0
LINE
  5
451
100
AcDbEntity
  8
0
100
AcDbLine
 62
7
  6
CONTINUOUS
 10
442.8527162298
 20
63.7399168509
 11
442.8527162298
 21
57.1165303907
  0
LINE
  5
452
100
AcDbEntity
  8
0
100
AcDbLine
 62
7
  6
CONTINUOUS
 10
442.8527162298
 20
50.6165303907
 11
442.8527162298
 21
41.4257108433
  0
LINE
  5
453
100
AcDbEntity
  8
0
100
AcDbLine
 62
7
  6
CONTINUOUS
 10
443.0629020416
 20
111.8401927715
 11
443.0629020416
 21
112.5529564069
  0
LINE
  5
454
100
AcDbEntity
  8
0
100
AcDbLine
 62
7
  6
CONTINUOUS
 10
443.0629020416
 20
113.5372490463
 11
443.0629020416
 21
114.2500126818
  0
LINE
  5
455
100
AcDbEntity
  8
0
100
AcDbLine
 62
7
  6
CONTINUOUS
 10
443.4229020416
 20
114.4027477465
 11
443.4229020416
 21
113.1016712691
  0
LINE
  5
456
100
AcDbEntity
  8
0
100
AcDbLine
 62
7
  6
CONTINUOUS
 10
443.4229020416
 20
112.7056914716
 11
443.4229020416
 21
111.4046149943
  0
LINE
  5
457
100
AcDbEntity
  8
KONSTRUKTIONSELEMENTE
100
AcDbLine
 62
7
  6
CONTINUOUS
 10
443.8527162298
 20
178.4383378507
 11
443.8527162298
 21
167.8317361329
  0
LINE
  5
458
100
AcDbEntity
  8
KONSTRUKTIONSELEMENTE
100
AcDbLine
 62
7
  6
CONTINUOUS
 10
443.8527162298
 20
147.3256394785
 11
443.8527162298
 21
136.7190377607
  0
LINE
  5
459
100
AcDbEntity
  8
0
100
AcDbLine
 62
7
  6
CONTINUOUS
 10
467.9084941282
 20
25.2842344073
 11
467.9684163027
 21
24.9293094274
  0
LINE
  5
45A
100
AcDbEntity
  8
0
100
AcDbLine
 62
7
  6
CONTINUOUS
 10
470.3413261063
 20
26.006222882
 11
470.2814039318
 21
26.3611478619
  0
LINE
  5
45B
100
AcDbEntity
  8
0
100
AcDbLine
 62
7
  6
CONTINUOUS
 10
471.8467954986
 20
25.0154114384
 11
471.7868732998
 21
25.370336436
  0
LINE
  5
45C
100
AcDbEntity
  8
0
100
AcDbLine
 62
7
  6
CONTINUOUS
 10
465.570360968
 20
18.864386232
 11
465.5310189905
 21
19.2441608982
  0
LINE
  5
45D
100
AcDbEntity
  8
0
100
AcDbLine
 62
7
  6
CONTINUOUS
 10
460.8443103498
 20
15.6582281941
 11
460.6578865179
 21
19.9013421266
  0
LINE
  5
45E
100
AcDbEntity
  8
0
100
AcDbLine
 62
7
  6
CONTINUOUS
 10
460.1875271062
 20
19.7212526584
 11
460.3468165491
 21
16.0185357207
  0
LINE
  5
45F
100
AcDbEntity
  8
0
100
AcDbLine
 62
7
  6
CONTINUOUS
 10
444.9829020416
 20
111.1783408243
 11
444.9829020416
 21
114.9118646289
  0
LINE
  5
460
100
AcDbEntity
  8
0
100
AcDbLine
 62
7
  6
CONTINUOUS
 10
446.5395430828
 20
115.2512758839
 11
446.5395430828
 21
114.7365021472
  0
LINE
  5
461
100
AcDbEntity
  8
0
100
AcDbLine
 62
7
  6
CONTINUOUS
 10
446.5395430828
 20
114.2613263903
 11
446.5395430828
 21
110.8389295693
  0
LINE
  5
462
100
AcDbEntity
  8
0
100
AcDbLine
 62
7
  6
CONTINUOUS
 10
447.3075430828
 20
110.8389295693
 11
447.3075430828
 21
112.9679809017
  0
LINE
  5
463
100
AcDbEntity
  8
0
100
AcDbLine
 62
7
  6
CONTINUOUS
 10
447.3075430828
 20
113.2281961972
 11
447.3075430828
 21
114.2613263903
  0
LINE
  5
464
100
AcDbEntity
  8
KONSTRUKTIONSELEMENTE
100
AcDbLine
 62
7
  6
CONTINUOUS
 10
448.3527162298
 20
178.4383378507
 11
448.3527162298
 21
167.8317361329
  0
LINE
  5
465
100
AcDbEntity
  8
KONSTRUKTIONSELEMENTE
100
AcDbLine
 62
7
  6
CONTINUOUS
 10
448.3527162298
 20
147.3256394785
 11
448.3527162298
 21
136.7190377607
  0
LINE
  5
466
100
AcDbEntity
  8
KONSTRUKTIONSELEMENTE
100
AcDbLine
 62
7
  6
CONTINUOUS
 10
449.3527162298
 20
199.5951181354
 11
449.3527162298
 21
177.1408611666
  0
LINE
  5
467
100
AcDbEntity
  8
KONSTRUKTIONSELEMENTE
100
AcDbLine
 62
7
  6
CONTINUOUS
 10
449.3527162298
 20
138.4303815628
 11
449.3527162298
 21
116.4936982699
  0
LINE
  5
468
100
AcDbEntity
  8
KONSTRUKTIONSELEMENTE
100
AcDbLine
 62
7
  6
CONTINUOUS
 10
449.6027162298
 20
168.6319886646
 11
449.6027162298
 21
146.5253869468
  0
LINE
  5
469
100
AcDbEntity
  8
0
100
AcDbLine
 62
7
  6
CONTINUOUS
 10
450.045261898
 20
113.0525999925
 11
450.045261898
 21
112.76975728
  0
LINE
  5
46A
100
AcDbEntity
  8
0
100
AcDbLine
 62
7
  6
CONTINUOUS
 10
450.4140764481
 20
113.840927816
 11
450.4140764481
 21
114.1237705284
  0
LINE
  5
46B
100
AcDbEntity
  8
0
100
AcDbLine
 62
7
  6
CONTINUOUS
 10
451.8527162298
 20
50.6165684716
 11
451.8527162298
 21
57.1164923098
  0
LINE
  5
46C
100
AcDbEntity
  8
0
100
AcDbLine
 62
7
  6
CONTINUOUS
 10
452.2995430828
 20
115.2512758839
 11
452.2995430828
 21
112.4595252068
  0
LINE
  5
46D
100
AcDbEntity
  8
0
100
AcDbLine
 62
7
  6
CONTINUOUS
 10
453.0675430828
 20
112.1766824943
 11
453.0675430828
 21
115.2512758839
  0
LINE
  5
46E
100
AcDbEntity
  8
KONSTRUKTIONSELEMENTE
100
AcDbLine
 62
7
  6
CONTINUOUS
 10
454.1027162298
 20
168.6319886646
 11
454.1027162298
 21
146.5253869468
  0
LINE
  5
46F
100
AcDbEntity
  8
KONSTRUKTIONSELEMENTE
100
AcDbLine
 62
7
  6
CONTINUOUS
 10
454.3527162298
 20
199.5951181354
 11
454.3527162298
 21
177.1408611666
  0
LINE
  5
470
100
AcDbEntity
  8
KONSTRUKTIONSELEMENTE
100
AcDbLine
 62
7
  6
CONTINUOUS
 10
454.3527162298
 20
138.4303815628
 11
454.3527162298
 21
116.4936982699
  0
LINE
  5
471
100
AcDbEntity
  8
KONSTRUKTIONSELEMENTE
100
AcDbLine
 62
7
  6
CONTINUOUS
 10
455.3527162298
 20
136.7190377607
 11
455.3527162298
 21
147.3256394785
  0
LINE
  5
472
100
AcDbEntity
  8
KONSTRUKTIONSELEMENTE
100
AcDbLine
 62
7
  6
CONTINUOUS
 10
455.3527162298
 20
167.8317361329
 11
455.3527162298
 21
178.4383378507
  0
LINE
  5
473
100
AcDbEntity
  8
0
100
AcDbLine
 62
7
  6
CONTINUOUS
 10
456.0868513712
 20
115.2512758839
 11
456.0868513712
 21
112.1766824943
  0
LINE
  5
474
100
AcDbEntity
  8
0
100
AcDbLine
 62
7
  6
CONTINUOUS
 10
456.8548513712
 20
112.4595252068
 11
456.8548513712
 21
115.2512758839
  0
LINE
  5
475
100
AcDbEntity
  8
0
100
AcDbLine
 62
7
  6
CONTINUOUS
 10
468.3539149618
 20
25.167950226
 11
468.3433562896
 21
25.5907679436
  0
LINE
  5
476
100
AcDbEntity
  8
0
100
AcDbLine
 62
7
  6
CONTINUOUS
 10
469.2952605987
 20
24.2759432073
 11
469.3058192708
 21
23.8531254897
  0
LINE
  5
477
100
AcDbEntity
  8
0
100
AcDbLine
 62
7
  6
CONTINUOUS
 10
469.8959064026
 20
26.1225086173
 11
469.9064639449
 21
25.6996893457
  0
LINE
  5
478
100
AcDbEntity
  8
0
100
AcDbLine
 62
7
  6
CONTINUOUS
 10
458.5348513712
 20
115.2512758839
 11
458.5348513712
 21
114.708217876
  0
LINE
  5
479
100
AcDbEntity
  8
0
100
AcDbLine
 62
7
  6
CONTINUOUS
 10
458.5348513712
 20
114.233042119
 11
458.5348513712
 21
110.8389295693
  0
LINE
  5
47A
100
AcDbEntity
  8
0
100
AcDbLine
 62
7
  6
CONTINUOUS
 10
459.3028513712
 20
111.1217722818
 11
459.3028513712
 21
114.233042119
  0
LINE
  5
47B
100
AcDbEntity
  8
KONSTRUKTIONSELEMENTE
100
AcDbLine
 62
7
  6
CONTINUOUS
 10
459.8527162298
 20
136.7190377607
 11
459.8527162298
 21
147.3256394785
  0
LINE
  5
47C
100
AcDbEntity
  8
KONSTRUKTIONSELEMENTE
100
AcDbLine
 62
7
  6
CONTINUOUS
 10
459.8527162298
 20
167.8317361329
 11
459.8527162298
 21
178.4383378507
  0
LINE
  5
47D
100
AcDbEntity
  8
0
100
AcDbLine
 62
7
  6
CONTINUOUS
 10
460.0927162298
 20
43.9931439305
 11
460.0927162298
 21
50.6165303907
  0
LINE
  5
47E
100
AcDbEntity
  8
BEZUGSACHSEN
100
AcDbLine
 62
7
  6
CONTINUOUS
 10
460.0927162298
 20
43.9931439305
 11
460.0927162298
 21
50.6165303907
  0
LINE
  5
47F
100
AcDbEntity
  8
0
100
AcDbLine
 62
7
  6
CONTINUOUS
 10
460.0927162298
 20
57.1165303907
 11
460.0927162298
 21
64.9097614625
  0
LINE
  5
480
100
AcDbEntity
  8
BEZUGSACHSEN
100
AcDbLine
 62
7
  6
CONTINUOUS
 10
460.0927162298
 20
57.1165303907
 11
460.0927162298
 21
64.9097614625
  0
LINE
  5
481
100
AcDbEntity
  8
BEZUGSACHSEN
100
AcDbLine
 62
7
  6
CONTINUOUS
 10
461.8527162298
 20
158.3663293708
 11
461.8527162298
 21
122.4841751472
  0
LINE
  5
482
100
AcDbEntity
  8
BEZUGSACHSEN
100
AcDbLine
 62
7
  6
CONTINUOUS
 10
461.8527162298
 20
74.6877832044
 11
461.8527162298
 21
72.3666058196
  0
LINE
  5
483
100
AcDbEntity
  8
0
100
AcDbLine
 62
7
  6
CONTINUOUS
 10
462.6089423735
 20
112.7735737226
 11
462.6089423735
 21
113.0564164351
  0
LINE
  5
484
100
AcDbEntity
  8
0
100
AcDbLine
 62
7
  6
CONTINUOUS
 10
464.8527162298
 20
192.9299671986
 11
464.8527162298
 21
193.5318959178
  0
LINE
  5
485
100
AcDbEntity
  8
0
100
AcDbLine
 62
7
  6
CONTINUOUS
 10
464.8527162298
 20
200.5203704716
 11
464.8527162298
 21
398.8030935828
  0
LINE
  5
486
100
AcDbEntity
  8
KONSTRUKTIONSELEMENTE
100
AcDbLine
 62
7
  6
CONTINUOUS
 10
465.5027162298
 20
120.6769816777
 11
465.5027162298
 21
193.5665303907
  0
LINE
  5
487
100
AcDbEntity
  8
RUNDUNGEN
100
AcDbLine
 62
7
  6
CONTINUOUS
 10
466.6023162298
 20
43.9912660296
 11
466.6023162298
 21
62.4590991336
  0
LINE
  5
488
100
AcDbEntity
  8
BEZUGSACHSEN
100
AcDbLine
 62
7
  6
CONTINUOUS
 10
466.6023162298
 20
43.9912660296
 11
466.6023162298
 21
62.4590991336
  0
LINE
  5
489
100
AcDbEntity
  8
0
100
AcDbLine
 62
7
  6
CONTINUOUS
 10
466.6847162298
 20
44.4598568067
 11
466.6847162298
 21
38.2035082627
  0
LINE
  5
48A
100
AcDbEntity
  8
BEZUGSACHSEN
100
AcDbLine
 62
7
  6
CONTINUOUS
 10
466.6847162298
 20
44.4598568067
 11
466.6847162298
 21
49.0666437669
  0
LINE
  5
48B
100
AcDbEntity
  8
0
100
AcDbLine
 62
7
  6
CONTINUOUS
 10
466.6847162298
 20
49.0666437669
 11
466.6847162298
 21
58.4704204785
  0
LINE
  5
48C
100
AcDbEntity
  8
RUNDUNGEN
100
AcDbLine
 62
7
  6
CONTINUOUS
 10
466.6847162298
 20
49.0666437669
 11
466.6847162298
 21
61.6039189876
  0
LINE
  5
48D
100
AcDbEntity
  8
0
100
AcDbLine
 62
7
  6
CONTINUOUS
 10
465.0584643807
 20
19.0499657324
 11
465.0523769986
 21
18.7428932842
  0
LINE
  5
48E
100
AcDbEntity
  8
RUNDUNGEN
100
AcDbLine
 62
7
  6
CONTINUOUS
 10
472.7527162298
 20
75.2007477975
 11
472.7527162298
 21
70.9581071104
  0
LINE
  5
48F
100
AcDbEntity
  8
KONSTRUKTIONSELEMENTE
100
AcDbLine
 62
7
  6
CONTINUOUS
 10
472.7527162298
 20
67.4225732045
 11
472.7527162298
 21
70.9581071104
  0
LINE
  5
490
100
AcDbEntity
  8
BEZUGSACHSEN
100
AcDbLine
 62
7
  6
CONTINUOUS
 10
478.3147853882
 20
49.4692392605
 11
478.3147853882
 21
48.2238848952
  0
LINE
  5
491
100
AcDbEntity
  8
RUNDUNGEN
100
AcDbLine
 62
7
  6
CONTINUOUS
 10
478.3147853882
 20
49.4692392605
 11
478.3147853882
 21
61.6039189767
  0
LINE
  5
492
100
AcDbEntity
  8
RUNDUNGEN
100
AcDbLine
 62
7
  6
CONTINUOUS
 10
478.5744462458
 20
62.4590991336
 11
478.5744462458
 21
43.9912334318
  0
LINE
  5
493
100
AcDbEntity
  8
BEZUGSACHSEN
100
AcDbLine
 62
7
  6
CONTINUOUS
 10
478.5744462458
 20
62.4590991336
 11
478.5744462458
 21
43.9912334318
  0
LINE
  5
494
100
AcDbEntity
  8
RUNDUNGEN
100
AcDbLine
 62
7
  6
CONTINUOUS
 10
479.3527162298
 20
70.2510003292
 11
479.3527162298
 21
78.5515888378
  0
LINE
  5
495
100
AcDbEntity
  8
RUNDUNGEN
100
AcDbLine
 62
7
  6
CONTINUOUS
 10
480.6927162298
 20
38.2408579627
 11
480.6927162298
 21
38.2035082627
  0
LINE
  5
496
100
AcDbEntity
  8
KONSTRUKTIONSELEMENTE
100
AcDbLine
 62
7
  6
CONTINUOUS
 10
482.4027162298
 20
112.5665303907
 11
482.4027162298
 21
114.8049805327
  0
LINE
  5
497
100
AcDbEntity
  8
KONSTRUKTIONSELEMENTE
100
AcDbLine
 62
7
  6
CONTINUOUS
 10
482.4027162298
 20
127.4552920655
 11
482.4027162298
 21
193.5665303907
  0
LINE
  5
498
100
AcDbEntity
  8
0
100
AcDbLine
 62
7
  6
CONTINUOUS
 10
467.9473012182
 20
25.7749479706
 11
467.9084941282
 21
25.2842344073
  0
LINE
  5
499
100
AcDbEntity
  8
KONSTRUKTIONSELEMENTE
100
AcDbLine
 62
7
  6
CONTINUOUS
 10
487.6027162298
 20
120.0562168612
 11
487.6027162298
 21
116.4665303907
  0
LINE
  5
49A
100
AcDbEntity
  8
KONSTRUKTIONSELEMENTE
100
AcDbLine
 62
7
  6
CONTINUOUS
 10
487.6027162298
 20
124.8699139575
 11
487.6027162298
 21
150.2665303907
  0
LINE
  5
49B
100
AcDbEntity
  8
RUNDUNGEN
100
AcDbLine
 62
7
  6
CONTINUOUS
 10
487.9878747616
 20
124.248244214
 11
487.9878747616
 21
120.7127103081
  0
LINE
  5
49C
100
AcDbEntity
  8
0
100
AcDbLine
 62
7
  6
CONTINUOUS
 10
488.1087162298
 20
60.3417665379
 11
488.1087162298
 21
57.5915731299
  0
LINE
  5
49D
100
AcDbEntity
  8
BEZUGSACHSEN
100
AcDbLine
 62
7
  6
CONTINUOUS
 10
488.1087162298
 20
60.3417665379
 11
488.1087162298
 21
57.5915731299
  0
LINE
  5
49E
100
AcDbEntity
  8
0
100
AcDbLine
 62
7
  6
CONTINUOUS
 10
488.1087162298
 20
50.1414876514
 11
488.1087162298
 21
49.3105061462
  0
LINE
  5
49F
100
AcDbEntity
  8
BEZUGSACHSEN
100
AcDbLine
 62
7
  6
CONTINUOUS
 10
488.1087162298
 20
50.1414876514
 11
488.1087162298
 21
49.3105061462
  0
LINE
  5
4A0
100
AcDbEntity
  8
0
100
AcDbLine
 62
7
  6
CONTINUOUS
 10
471.8079895567
 20
24.5246994158
 11
471.8467954986
 21
25.0154114384
  0
LINE
  5
4A1
100
AcDbEntity
  8
0
100
AcDbLine
 62
7
  6
CONTINUOUS
 10
469.3246515494
 20
24.4621463436
 11
469.2952605987
 21
24.2759432073
  0
LINE
  5
4A2
100
AcDbEntity
  8
0
100
AcDbLine
 62
7
  6
CONTINUOUS
 10
469.6713431184
 20
24.2100735789
 11
469.7301227601
 21
24.5824767436
  0
LINE
  5
4A3
100
AcDbEntity
  8
0
100
AcDbLine
 62
7
  6
CONTINUOUS
 10
470.3119362855
 20
25.8200212996
 11
470.3413261063
 21
26.006222882
  0
LINE
  5
4A4
100
AcDbEntity
  8
0
100
AcDbLine
 62
7
  6
CONTINUOUS
 10
471.4213494522
 20
25.0133883467
 11
471.3625686806
 21
24.6409836281
  0
LINE
  5
4A5
100
AcDbEntity
  8
0
100
AcDbLine
 62
7
  6
CONTINUOUS
 10
461.9674118472
 20
20.3533287693
 11
461.8643792421
 21
19.8845887158
  0
LINE
  5
4A6
100
AcDbEntity
  8
0
100
AcDbLine
 62
7
  6
CONTINUOUS
 10
465.4673283788
 20
18.3956461532
 11
465.570360968
 21
18.864386232
  0
LINE
  5
4A7
100
AcDbEntity
  8
RUNDUNGEN
100
AcDbLine
 62
7
  6
CONTINUOUS
 10
419.3910943438
 20
64.4492718045
 11
416.411029521
 21
60.1932981678
  0
LINE
  5
4A8
100
AcDbEntity
  8
RUNDUNGEN
100
AcDbLine
 62
7
  6
CONTINUOUS
 10
437.267048986
 20
92.4849679709
 11
425.0761080526
 21
80.1739079885
  0
LINE
  5
4A9
100
AcDbEntity
  8
RUNDUNGEN
100
AcDbLine
 62
7
  6
CONTINUOUS
 10
420.1611957869
 20
126.8901007533
 11
418.5228916983
 21
126.0789411779
  0
LINE
  5
4AA
100
AcDbEntity
  8
RUNDUNGEN
100
AcDbLine
 62
7
  6
CONTINUOUS
 10
423.8078674294
 20
121.3582933664
 11
421.1046656833
 21
120.0198800671
  0
LINE
  5
4AB
100
AcDbEntity
  8
RUNDUNGEN
100
AcDbLine
 62
7
  6
CONTINUOUS
 10
423.8078674294
 20
117.8227594605
 11
421.1046656833
 21
116.4843461611
  0
LINE
  5
4AC
100
AcDbEntity
  8
0
100
AcDbLine
 62
7
  6
CONTINUOUS
 10
468.3433562896
 20
25.5907679436
 11
468.471475375
 21
25.9127581093
  0
LINE
  5
4AD
100
AcDbEntity
  8
0
100
AcDbLine
 62
7
  6
CONTINUOUS
 10
469.9064639449
 20
25.6996893457
 11
469.7783459894
 21
25.3777007339
  0
LINE
  5
4AE
100
AcDbEntity
  8
0
100
AcDbLine
 62
7
  6
CONTINUOUS
 10
469.7301227601
 20
24.5824767436
 11
469.8582418455
 21
24.9044669094
  0
LINE
  5
4AF
100
AcDbEntity
  8
0
100
AcDbLine
 62
7
  6
CONTINUOUS
 10
471.3625686806
 20
24.6409836281
 11
471.2344507251
 21
24.3189950163
  0
LINE
  5
4B0
100
AcDbEntity
  8
0
100
AcDbLine
 62
7
  6
CONTINUOUS
 10
462.3823631797
 20
20.0060817147
 11
462.505067165
 21
20.284934715
  0
LINE
  5
4B1
100
AcDbEntity
  8
RUNDUNGEN
100
AcDbLine
 62
7
  6
CONTINUOUS
 10
472.8257286492
 20
120.504072755
 11
479.9069975896
 21
127.6551144305
  0
LINE
  5
4B2
100
AcDbEntity
  8
RUNDUNGEN
100
AcDbLine
 62
7
  6
CONTINUOUS
 10
443.6790345485
 20
79.2352828963
 11
447.7569560083
 21
83.3533846876
  0
LINE
  5
4B3
100
AcDbEntity
  8
RUNDUNGEN
100
AcDbLine
 62
7
  6
CONTINUOUS
 10
466.4383834735
 20
102.218882875
 11
487.7708572148
 21
123.7615484688
  0
LINE
  5
4B4
100
AcDbEntity
  8
RUNDUNGEN
100
AcDbLine
 62
7
  6
CONTINUOUS
 10
425.5212042432
 20
115.5598247339
 11
428.2244059894
 21
116.8982380333
  0
LINE
  5
4B5
100
AcDbEntity
  8
RUNDUNGEN
100
AcDbLine
 62
7
  6
CONTINUOUS
 10
444.9697989936
 20
124.0275098362
 11
441.6931908164
 21
122.4051906855
  0
LINE
  5
4B6
100
AcDbEntity
  8
0
100
AcDbLine
 62
7
  6
CONTINUOUS
 10
465.0523769986
 20
18.7428932842
 11
464.9296730451
 21
18.4640402329
  0
LINE
  5
4B7
100
AcDbEntity
  8
0
100
AcDbLine
 62
7
  6
CONTINUOUS
 10
468.1247838059
 20
26.164830874
 11
467.9473012182
 21
25.7749479706
  0
LINE
  5
4B8
100
AcDbEntity
  8
0
100
AcDbLine
 62
7
  6
CONTINUOUS
 10
471.6305058451
 20
24.134814954
 11
471.8079895567
 21
24.5246994158
  0
LINE
  5
4B9
100
AcDbEntity
  8
RUNDUNGEN
100
AcDbLine
 62
7
  6
CONTINUOUS
 10
443.6790345485
 20
75.6997489904
 11
447.7569560083
 21
79.8178507817
  0
LINE
  5
4BA
100
AcDbEntity
  8
RUNDUNGEN
100
AcDbLine
 62
7
  6
CONTINUOUS
 10
466.4383834735
 20
98.6833489691
 11
487.7708572148
 21
120.2260145629
  0
LINE
  5
4BB
100
AcDbEntity
  8
0
100
AcDbLine
 62
7
  6
CONTINUOUS
 10
462.1613039226
 20
20.6766649978
 11
461.9674118472
 21
20.3533287693
  0
LINE
  5
4BC
100
AcDbEntity
  8
0
100
AcDbLine
 62
7
  6
CONTINUOUS
 10
465.27343713
 20
18.0723104146
 11
465.4673283788
 21
18.3956461532
  0
LINE
  5
4BD
100
AcDbEntity
  8
RUNDUNGEN
100
AcDbLine
 62
7
  6
CONTINUOUS
 10
484.5703381157
 20
43.2837889769
 11
487.5504029385
 21
47.5397626135
  0
LINE
  5
4BE
100
AcDbEntity
  8
BEZUGSACHSEN
100
AcDbLine
 62
7
  6
CONTINUOUS
 10
484.5703381157
 20
43.2837889769
 11
487.5504029385
 21
47.5397626135
  0
LINE
  5
4BF
100
AcDbEntity
  8
0
100
AcDbLine
 62
7
  6
CONTINUOUS
 10
468.3222412051
 20
26.4364064868
 11
468.1247838059
 21
26.164830874
  0
LINE
  5
4C0
100
AcDbEntity
  8
0
100
AcDbLine
 62
7
  6
CONTINUOUS
 10
468.471475375
 20
25.9127581093
 11
468.6689327742
 21
26.1843337221
  0
LINE
  5
4C1
100
AcDbEntity
  8
0
100
AcDbLine
 62
7
  6
CONTINUOUS
 10
469.7783459894
 20
25.3777007339
 11
469.5808885902
 21
25.1061251211
  0
LINE
  5
4C2
100
AcDbEntity
  8
0
100
AcDbLine
 62
7
  6
CONTINUOUS
 10
469.8582418455
 20
24.9044669094
 11
470.0556992446
 21
25.1760425222
  0
LINE
  5
4C3
100
AcDbEntity
  8
0
100
AcDbLine
 62
7
  6
CONTINUOUS
 10
471.2344507251
 20
24.3189950163
 11
471.036993326
 21
24.0474194035
  0
LINE
  5
4C4
100
AcDbEntity
  8
0
100
AcDbLine
 62
7
  6
CONTINUOUS
 10
471.3343203113
 20
23.7274523118
 11
471.6305058451
 21
24.134814954
  0
LINE
  5
4C5
100
AcDbEntity
  8
0
100
AcDbLine
 62
7
  6
CONTINUOUS
 10
462.505067165
 20
20.284934715
 11
462.6732004781
 21
20.4910855484
  0
LINE
  5
4C6
100
AcDbEntity
  8
0
100
AcDbLine
 62
7
  6
CONTINUOUS
 10
462.4006245112
 20
20.9272985503
 11
462.1613039226
 21
20.6766649978
  0
LINE
  5
4C7
100
AcDbEntity
  8
0
100
AcDbLine
 62
7
  6
CONTINUOUS
 10
464.9296730451
 20
18.4640402329
 11
464.6903524566
 21
18.2134066804
  0
LINE
  5
4C8
100
AcDbEntity
  8
0
100
AcDbLine
 62
7
  6
CONTINUOUS
 10
464.9629284553
 20
17.7771936276
 11
465.27343713
 21
18.0723104146
  0
LINE
  5
4C9
100
AcDbEntity
  8
0
100
AcDbLine
 62
7
  6
CONTINUOUS
 10
468.6384004205
 20
26.7254602844
 11
468.3222412051
 21
26.4364064868
  0
LINE
  5
4CA
100
AcDbEntity
  8
0
100
AcDbLine
 62
7
  6
CONTINUOUS
 10
471.0181610899
 20
23.4383985186
 11
471.3343203113
 21
23.7274523118
  0
LINE
  5
4CB
100
AcDbEntity
  8
0
100
AcDbLine
 62
7
  6
CONTINUOUS
 10
468.6689327742
 20
26.1843337221
 11
468.9357273573
 21
26.405493228
  0
LINE
  5
4CC
100
AcDbEntity
  8
0
100
AcDbLine
 62
7
  6
CONTINUOUS
 10
469.5808885902
 20
25.1061251211
 11
469.3140928773
 21
24.8849640613
  0
LINE
  5
4CD
100
AcDbEntity
  8
0
100
AcDbLine
 62
7
  6
CONTINUOUS
 10
470.0556992446
 20
25.1760425222
 11
470.3224938278
 21
25.397202028
  0
LINE
  5
4CE
100
AcDbEntity
  8
0
100
AcDbLine
 62
7
  6
CONTINUOUS
 10
471.036993326
 20
24.0474194035
 11
470.770197613
 21
23.8262583436
  0
LINE
  5
4CF
100
AcDbEntity
  8
0
100
AcDbLine
 62
7
  6
CONTINUOUS
 10
462.7565625177
 20
21.1497131639
 11
462.4006245112
 21
20.9272985503
  0
LINE
  5
4D0
100
AcDbEntity
  8
0
100
AcDbLine
 62
7
  6
CONTINUOUS
 10
462.6732004781
 20
20.4910855484
 11
463.1003257601
 21
20.7579828812
  0
LINE
  5
4D1
100
AcDbEntity
  8
0
100
AcDbLine
 62
7
  6
CONTINUOUS
 10
463.7545976811
 20
20.661369379
 11
464.181722963
 21
20.9282667118
  0
LINE
  5
4D2
100
AcDbEntity
  8
0
100
AcDbLine
 62
7
  6
CONTINUOUS
 10
463.7363364768
 20
19.7401523398
 11
463.3092111949
 21
19.473255007
  0
LINE
  5
4D3
100
AcDbEntity
  8
0
100
AcDbLine
 62
7
  6
CONTINUOUS
 10
463.5817871618
 20
19.0370420051
 11
464.0089124438
 21
19.3039393379
  0
LINE
  5
4D4
100
AcDbEntity
  8
0
100
AcDbLine
 62
7
  6
CONTINUOUS
 10
463.2333466497
 20
18.0105958491
 11
462.8062213678
 21
17.7436985164
  0
LINE
  5
4D5
100
AcDbEntity
  8
0
100
AcDbLine
 62
7
  6
CONTINUOUS
 10
464.6903524566
 20
18.2134066804
 11
464.1208518091
 21
17.8575434003
  0
LINE
  5
4D6
100
AcDbEntity
  8
0
100
AcDbLine
 62
7
  6
CONTINUOUS
 10
464.3934278079
 20
17.4213303475
 11
464.9629284553
 21
17.7771936276
  0
LINE
  5
4D7
100
AcDbEntity
  8
0
100
AcDbLine
 62
7
  6
CONTINUOUS
 10
470.480002734
 20
25.9053937761
 11
470.3119362855
 21
25.8200212996
  0
LINE
  5
4D8
100
AcDbEntity
  8
0
100
AcDbLine
 62
7
  6
CONTINUOUS
 10
470.3224938278
 20
25.397202028
 11
470.6586278545
 21
25.567948535
  0
LINE
  5
4D9
100
AcDbEntity
  8
0
100
AcDbLine
 62
7
  6
CONTINUOUS
 10
469.1565839711
 20
24.3767723132
 11
469.3246515494
 21
24.4621463436
  0
LINE
  5
4DA
100
AcDbEntity
  8
0
100
AcDbLine
 62
7
  6
CONTINUOUS
 10
470.770197613
 20
23.8262583436
 11
470.4340647161
 21
23.6555133907
  0
LINE
  5
4DB
100
AcDbEntity
  8
0
100
AcDbLine
 62
7
  6
CONTINUOUS
 10
469.0932362635
 20
26.9136849761
 11
468.6384004205
 21
26.7254602844
  0
LINE
  5
4DC
100
AcDbEntity
  8
0
100
AcDbLine
 62
7
  6
CONTINUOUS
 10
470.5633252287
 20
23.2501738402
 11
471.0181610899
 21
23.4383985186
  0
LINE
  5
4DD
100
AcDbEntity
  8
0
100
AcDbLine
 62
7
  6
CONTINUOUS
 10
460.6578865179
 20
19.9013421266
 11
460.1875271062
 21
19.7212526584
  0
LINE
  5
4DE
100
AcDbEntity
  8
0
100
AcDbLine
 62
7
  6
CONTINUOUS
 10
457.9925163689
 20
18.8808350827
 11
457.5221569573
 21
18.7007456145
  0
LINE
  5
4DF
100
AcDbEntity
  8
0
100
AcDbLine
 62
7
  6
CONTINUOUS
 10
463.1579290373
 20
21.2994251016
 11
462.7565625177
 21
21.1497131639
  0
LINE
  5
4E0
100
AcDbEntity
  8
0
100
AcDbLine
 62
7
  6
CONTINUOUS
 10
468.9357273573
 20
26.405493228
 11
469.3411996979
 21
26.525825182
  0
LINE
  5
4E1
100
AcDbEntity
  8
0
100
AcDbLine
 62
7
  6
CONTINUOUS
 10
470.8854750746
 20
26.0257257301
 11
470.480002734
 21
25.9053937761
  0
LINE
  5
4E2
100
AcDbEntity
  8
0
100
AcDbLine
 62
7
  6
CONTINUOUS
 10
460.2171646171
 20
15.4181089604
 11
460.8443103498
 21
15.6582281941
  0
LINE
  5
4E3
100
AcDbEntity
  8
0
100
AcDbLine
 62
7
  6
CONTINUOUS
 10
464.1377038112
 20
19.8898647864
 11
463.7363364768
 21
19.7401523398
  0
LINE
  5
4E4
100
AcDbEntity
  8
0
100
AcDbLine
 62
7
  6
CONTINUOUS
 10
463.9920612842
 20
17.2716184163
 11
464.3934278079
 21
17.4213303475
  0
LINE
  5
4E5
100
AcDbEntity
  8
0
100
AcDbLine
 62
7
  6
CONTINUOUS
 10
464.0089124438
 20
19.3039393379
 11
464.339091688
 21
19.4091685564
  0
LINE
  5
4E6
100
AcDbEntity
  8
0
100
AcDbLine
 62
7
  6
CONTINUOUS
 10
463.2516079176
 20
18.9318127866
 11
463.5817871618
 21
19.0370420051
  0
LINE
  5
4E7
100
AcDbEntity
  8
0
100
AcDbLine
 62
7
  6
CONTINUOUS
 10
464.1208518091
 20
17.8575434003
 11
463.7906725649
 21
17.7523141818
  0
LINE
  5
4E8
100
AcDbEntity
  8
0
100
AcDbLine
 62
7
  6
CONTINUOUS
 10
469.3140928773
 20
24.8849640613
 11
468.9086216665
 21
24.7646336612
  0
ARC
  5
4E9
100
AcDbEntity
  8
RUNDUNGEN
100
AcDbCircle
 62
7
  6
CONTINUOUS
 10
131.4722681963
 20
81.2379568652
 40
6.2084045654
100
AcDbArc
 50
351.9999810605
 51
0.000015487
  0
ARC
  5
4EA
100
AcDbEntity
  8
RUNDUNGEN
100
AcDbCircle
 62
7
  6
CONTINUOUS
 10
131.4722681963
 20
26.4951039162
 40
6.2084045654
100
AcDbArc
 50
2.126811799
 51
8.000004098
  0
ARC
  5
4EB
100
AcDbEntity
  8
BEZUGSACHSEN
100
AcDbCircle
 62
7
  6
CONTINUOUS
 10
131.4722681963
 20
81.2379568652
 40
6.2084045654
100
AcDbArc
 50
351.9999810605
 51
0.000015487
  0
ARC
  5
4EC
100
AcDbEntity
  8
KONSTRUKTIONSELEMENTE
100
AcDbCircle
 62
7
  6
CONTINUOUS
 10
92.7945239339
 20
131.3803815628
 40
9.55
100
AcDbArc
 50
315.0
 51
31.3702929546
  0
ARC
  5
4ED
100
AcDbEntity
  8
KONSTRUKTIONSELEMENTE
100
AcDbCircle
 62
7
  6
CONTINUOUS
 10
92.7945239339
 20
131.3803815628
 40
9.55
100
AcDbArc
 50
58.6297070454
 51
135.0
  0
ARC
  5
4EE
100
AcDbEntity
  8
KONSTRUKTIONSELEMENTE
100
AcDbCircle
 62
7
  6
CONTINUOUS
 10
84.3799532378
 20
122.9658108667
 40
9.55
100
AcDbArc
 50
135.0
 51
209.8048644765
  0
ARC
  5
4EF
100
AcDbEntity
  8
KONSTRUKTIONSELEMENTE
100
AcDbCircle
 62
7
  6
CONTINUOUS
 10
84.3799532378
 20
122.9658108667
 40
9.55
100
AcDbArc
 50
240.1951355235
 51
315.0
  0
ARC
  5
4F0
100
AcDbEntity
  8
KONSTRUKTIONSELEMENTE
100
AcDbCircle
 62
7
  6
CONTINUOUS
 10
92.7945239339
 20
131.3803815628
 40
4.55
100
AcDbArc
 50
315.0
 51
15.3477978529
  0
ARC
  5
4F1
100
AcDbEntity
  8
KONSTRUKTIONSELEMENTE
100
AcDbCircle
 62
7
  6
CONTINUOUS
 10
92.7945239339
 20
131.3803815628
 40
4.55
100
AcDbArc
 50
74.6522021471
 51
135.0
  0
ARC
  5
4F2
100
AcDbEntity
  8
KONSTRUKTIONSELEMENTE
100
AcDbCircle
 62
7
  6
CONTINUOUS
 10
84.3799532378
 20
122.9658108667
 40
4.55
100
AcDbArc
 50
135.0
 51
191.6416672297
  0
ARC
  5
4F3
100
AcDbEntity
  8
KONSTRUKTIONSELEMENTE
100
AcDbCircle
 62
7
  6
CONTINUOUS
 10
84.3799532378
 20
122.9658108667
 40
4.55
100
AcDbArc
 50
258.3583327703
 51
315.0
  0
ARC
  5
4F4
100
AcDbEntity
  8
KONSTRUKTIONSELEMENTE
100
AcDbCircle
 62
7
  6
CONTINUOUS
 10
94.06731614
 20
132.6531737689
 40
2.25
100
AcDbArc
 50
135.0
 51
315.0
  0
ARC
  5
4F5
100
AcDbEntity
  8
KONSTRUKTIONSELEMENTE
100
AcDbCircle
 62
7
  6
CONTINUOUS
 10
113.6895293179
 20
152.2753869468
 40
8.0
100
AcDbArc
 50
135.0
 51
208.6357041722
  0
ARC
  5
4F6
100
AcDbEntity
  8
KONSTRUKTIONSELEMENTE
100
AcDbCircle
 62
7
  6
CONTINUOUS
 10
113.6895293179
 20
152.2753869468
 40
8.0
100
AcDbArc
 50
241.3642958278
 51
315.0
  0
ARC
  5
4F7
100
AcDbEntity
  8
KONSTRUKTIONSELEMENTE
100
AcDbCircle
 62
7
  6
CONTINUOUS
 10
124.2961310357
 20
162.8819886646
 40
8.0
100
AcDbArc
 50
315.0
 51
28.6357041722
  0
ARC
  5
4F8
100
AcDbEntity
  8
KONSTRUKTIONSELEMENTE
100
AcDbCircle
 62
7
  6
CONTINUOUS
 10
124.2961310357
 20
162.8819886646
 40
8.0
100
AcDbArc
 50
61.3642958278
 51
135.0
  0
ARC
  5
4F9
100
AcDbEntity
  8
KONSTRUKTIONSELEMENTE
100
AcDbCircle
 62
7
  6
CONTINUOUS
 10
113.6895293179
 20
152.2753869468
 40
3.5
100
AcDbArc
 50
135.0
 51
184.8461224921
  0
ARC
  5
4FA
100
AcDbEntity
  8
KONSTRUKTIONSELEMENTE
100
AcDbCircle
 62
7
  6
CONTINUOUS
 10
113.6895293179
 20
152.2753869468
 40
3.5
100
AcDbArc
 50
265.1538775079
 51
315.0
  0
ARC
  5
4FB
100
AcDbEntity
  8
KONSTRUKTIONSELEMENTE
100
AcDbCircle
 62
7
  6
CONTINUOUS
 10
124.2961310357
 20
162.8819886646
 40
3.5
100
AcDbArc
 50
315.0
 51
4.8461224921
  0
ARC
  5
4FC
100
AcDbEntity
  8
KONSTRUKTIONSELEMENTE
100
AcDbCircle
 62
7
  6
CONTINUOUS
 10
124.2961310357
 20
162.8819886646
 40
3.5
100
AcDbArc
 50
85.1538775079
 51
135.0
  0
ARC
  5
4FD
100
AcDbEntity
  8
KONSTRUKTIONSELEMENTE
100
AcDbCircle
 62
7
  6
CONTINUOUS
 10
112.8056458415
 20
151.3915034704
 40
2.25
100
AcDbArc
 50
315.0
 51
135.0
  0
ARC
  5
4FE
100
AcDbEntity
  8
KONSTRUKTIONSELEMENTE
100
AcDbCircle
 62
7
  6
CONTINUOUS
 10
125.1800145122
 20
163.7658721411
 40
2.25
100
AcDbArc
 50
135.0
 51
315.0
  0
ARC
  5
4FF
100
AcDbEntity
  8
RUNDUNGEN
100
AcDbCircle
 62
7
  6
CONTINUOUS
 10
133.4745993587
 20
39.013314074
 40
2.4833618262
100
AcDbArc
 50
7.9999888872
 51
45.0000070166
  0
ARC
  5
500
100
AcDbEntity
  8
RUNDUNGEN
100
AcDbCircle
 62
7
  6
CONTINUOUS
 10
136.0140345879
 20
43.4978867945
 40
2.4833618262
100
AcDbArc
 50
179.9992078183
 51
224.9986963196
  0
ARC
  5
501
100
AcDbEntity
  8
RUNDUNGEN
100
AcDbCircle
 62
7
  6
CONTINUOUS
 10
139.5431941314
 20
11.5240095187
 40
1.8625213696
100
AcDbArc
 50
180.0
 51
264.0
  0
ARC
  5
502
100
AcDbEntity
  8
RUNDUNGEN
100
AcDbCircle
 62
7
  6
CONTINUOUS
 10
134.7723544479
 20
47.4519651612
 40
1.2416809192
100
AcDbArc
 50
179.9999384528
 51
220.5081217045
  0
ARC
  5
503
100
AcDbEntity
  8
BEZUGSACHSEN
100
AcDbCircle
 62
7
  6
CONTINUOUS
 10
134.7723536749
 20
47.4519661408
 40
1.2416809131
100
AcDbArc
 50
179.9999384528
 51
220.5081792421
  0
ARC
  5
504
100
AcDbEntity
  8
RUNDUNGEN
100
AcDbCircle
 62
7
  6
CONTINUOUS
 10
133.4745993587
 20
68.7197467073
 40
2.4833618262
100
AcDbArc
 50
314.999827574
 51
352.0000226953
  0
ARC
  5
505
100
AcDbEntity
  8
RUNDUNGEN
100
AcDbCircle
 62
7
  6
CONTINUOUS
 10
136.0140345879
 20
64.2351739869
 40
2.4833618262
100
AcDbArc
 50
134.9992830869
 51
180.0
  0
ARC
  5
506
100
AcDbEntity
  8
BEZUGSACHSEN
100
AcDbCircle
 62
7
  6
CONTINUOUS
 10
133.4745993587
 20
68.7197467073
 40
2.4833618262
100
AcDbArc
 50
314.999827574
 51
352.0000226953
  0
ARC
  5
507
100
AcDbEntity
  8
BEZUGSACHSEN
100
AcDbCircle
 62
7
  6
CONTINUOUS
 10
136.0140345879
 20
64.2351739869
 40
2.4833618262
100
AcDbArc
 50
134.9992830869
 51
180.0
  0
ARC
  5
508
100
AcDbEntity
  8
RUNDUNGEN
100
AcDbCircle
 62
7
  6
CONTINUOUS
 10
142.2806727618
 20
53.8665303907
 40
11.116977872
100
AcDbArc
 50
220.5081792421
 51
319.4918207579
  0
ARC
  5
509
100
AcDbEntity
  8
BEZUGSACHSEN
100
AcDbCircle
 62
7
  6
CONTINUOUS
 10
142.2806727618
 20
53.8665303907
 40
11.116977872
100
AcDbArc
 50
220.5081792421
 51
319.4918207579
  0
CIRCLE
  5
50A
100
AcDbEntity
  8
0
100
AcDbCircle
 62
7
  6
CONTINUOUS
 10
142.2806727618
 20
53.8665303907
 40
3.7250427393
  0
CIRCLE
  5
50B
100
AcDbEntity
  8
BEZUGSACHSEN
100
AcDbCircle
 62
7
  6
CONTINUOUS
 10
142.2806727618
 20
53.8665303907
 40
3.7250427393
  0
ARC
  5
50C
100
AcDbEntity
  8
BEZUGSACHSEN
100
AcDbCircle
 62
7
  6
CONTINUOUS
 10
153.0890773272
 20
26.4951039162
 40
6.2084045654
100
AcDbArc
 50
171.999995902
 51
180.0000349267
  0
ARC
  5
50D
100
AcDbEntity
  8
BEZUGSACHSEN
100
AcDbCircle
 62
7
  6
CONTINUOUS
 10
151.0867461649
 20
39.013314074
 40
2.4833618262
100
AcDbArc
 50
134.9999929834
 51
172.0000111128
  0
ARC
  5
50E
100
AcDbEntity
  8
BEZUGSACHSEN
100
AcDbCircle
 62
7
  6
CONTINUOUS
 10
148.5473109356
 20
43.4978867945
 40
2.4833618262
100
AcDbArc
 50
315.0013036804
 51
0.0007921817
  0
ARC
  5
50F
100
AcDbEntity
  8
BEZUGSACHSEN
100
AcDbCircle
 62
7
  6
CONTINUOUS
 10
145.0181513921
 20
11.5240095187
 40
1.8625213696
100
AcDbArc
 50
276.0
 51
360.0
  0
ARC
  5
510
100
AcDbEntity
  8
BEZUGSACHSEN
100
AcDbCircle
 62
7
  6
CONTINUOUS
 10
153.0890773272
 20
81.2379568652
 40
6.2084045654
100
AcDbArc
 50
179.999984513
 51
188.0000189395
  0
ARC
  5
511
100
AcDbEntity
  8
BEZUGSACHSEN
100
AcDbCircle
 62
7
  6
CONTINUOUS
 10
151.0867461649
 20
68.7197467073
 40
2.4833618262
100
AcDbArc
 50
187.9999773047
 51
225.000172426
  0
ARC
  5
512
100
AcDbEntity
  8
BEZUGSACHSEN
100
AcDbCircle
 62
7
  6
CONTINUOUS
 10
148.5473109356
 20
64.2351739869
 40
2.4833618262
100
AcDbArc
 50
0.0
 51
45.0007169131
  0
ARC
  5
513
100
AcDbEntity
  8
RUNDUNGEN
100
AcDbCircle
 62
7
  6
CONTINUOUS
 10
149.7889918487
 20
47.4519661408
 40
1.2416809131
100
AcDbArc
 50
319.4918207579
 51
360.0
  0
ARC
  5
514
100
AcDbEntity
  8
BEZUGSACHSEN
100
AcDbCircle
 62
7
  6
CONTINUOUS
 10
149.7889918487
 20
47.4519661408
 40
1.2416809131
100
AcDbArc
 50
319.4918207579
 51
360.0
  0
ARC
  5
515
100
AcDbEntity
  8
BEZUGSACHSEN
100
AcDbCircle
 62
7
  6
CONTINUOUS
 10
142.2806727618
 20
93.3665303907
 40
21.0
100
AcDbArc
 50
117.0
 51
254.3184773075
  0
ARC
  5
516
100
AcDbEntity
  8
RUNDUNGEN
100
AcDbCircle
 62
7
  6
CONTINUOUS
 10
142.2806727618
 20
93.3665303907
 40
9.0
100
AcDbArc
 50
300.7550724794
 51
239.2449275232
  0
ARC
  5
517
100
AcDbEntity
  8
RUNDUNGEN
100
AcDbCircle
 62
7
  6
CONTINUOUS
 10
158.4629227812
 20
108.3457560314
 40
3.0
100
AcDbArc
 50
117.0
 51
207.0
  0
ARC
  5
518
100
AcDbEntity
  8
RUNDUNGEN
100
AcDbCircle
 62
7
  6
CONTINUOUS
 10
180.6509576821
 20
119.6511244878
 40
3.0
100
AcDbArc
 50
333.5
 51
117.0
  0
ARC
  5
519
100
AcDbEntity
  8
RUNDUNGEN
100
AcDbCircle
 62
7
  6
CONTINUOUS
 10
166.8284553777
 20
91.9274738733
 40
3.0
100
AcDbArc
 50
207.0
 51
333.5
  0
ARC
  5
51A
100
AcDbEntity
  8
RUNDUNGEN
100
AcDbCircle
 62
7
  6
CONTINUOUS
 10
139.5431941314
 20
96.2090512626
 40
1.8625213696
100
AcDbArc
 50
96.0
 51
180.0
  0
ARC
  5
51B
100
AcDbEntity
  8
BEZUGSACHSEN
100
AcDbCircle
 62
7
  6
CONTINUOUS
 10
145.0181513921
 20
96.2090512626
 40
1.8625213696
100
AcDbArc
 50
0.0
 51
84.0
  0
ARC
  5
51C
100
AcDbEntity
  8
BEZUGSACHSEN
100
AcDbCircle
 62
7
  6
CONTINUOUS
 10
139.5431941314
 20
96.2090512626
 40
1.8625213696
100
AcDbArc
 50
96.0
 51
180.0
  0
ARC
  5
51D
100
AcDbEntity
  8
KONSTRUKTIONSELEMENTE
100
AcDbCircle
 62
7
  6
CONTINUOUS
 10
153.9592605065
 20
192.5451181354
 40
9.55
100
AcDbArc
 50
315.0
 51
26.6609039942
  0
ARC
  5
51E
100
AcDbEntity
  8
KONSTRUKTIONSELEMENTE
100
AcDbCircle
 62
7
  6
CONTINUOUS
 10
153.9592605065
 20
192.5451181354
 40
9.55
100
AcDbArc
 50
63.3390960058
 51
135.0
  0
ARC
  5
51F
100
AcDbEntity
  8
KONSTRUKTIONSELEMENTE
100
AcDbCircle
 62
7
  6
CONTINUOUS
 10
145.5446898104
 20
184.1305474393
 40
9.55
100
AcDbArc
 50
135.0
 51
211.3702929546
  0
ARC
  5
520
100
AcDbEntity
  8
KONSTRUKTIONSELEMENTE
100
AcDbCircle
 62
7
  6
CONTINUOUS
 10
145.5446898104
 20
184.1305474393
 40
9.55
100
AcDbArc
 50
238.6297070454
 51
315.0
  0
ARC
  5
521
100
AcDbEntity
  8
KONSTRUKTIONSELEMENTE
100
AcDbCircle
 62
7
  6
CONTINUOUS
 10
153.9592605065
 20
192.5451181354
 40
4.55
100
AcDbArc
 50
315.0
 51
3.7275989874
  0
ARC
  5
522
100
AcDbEntity
  8
KONSTRUKTIONSELEMENTE
100
AcDbCircle
 62
7
  6
CONTINUOUS
 10
153.9592605065
 20
192.5451181354
 40
4.55
100
AcDbArc
 50
86.2724010126
 51
135.0
  0
ARC
  5
523
100
AcDbEntity
  8
KONSTRUKTIONSELEMENTE
100
AcDbCircle
 62
7
  6
CONTINUOUS
 10
145.5446898104
 20
184.1305474393
 40
4.55
100
AcDbArc
 50
135.0
 51
195.3477978529
  0
ARC
  5
524
100
AcDbEntity
  8
KONSTRUKTIONSELEMENTE
100
AcDbCircle
 62
7
  6
CONTINUOUS
 10
145.5446898104
 20
184.1305474393
 40
4.55
100
AcDbArc
 50
254.6522021471
 51
315.0
  0
ARC
  5
525
100
AcDbEntity
  8
KONSTRUKTIONSELEMENTE
100
AcDbCircle
 62
7
  6
CONTINUOUS
 10
184.046654046
 20
222.6325116749
 40
3.0
100
AcDbArc
 50
315.0
 51
135.0
  0
ARC
  5
526
100
AcDbEntity
  8
KONSTRUKTIONSELEMENTE
100
AcDbCircle
 62
7
  6
CONTINUOUS
 10
155.0552760173
 20
193.6411336463
 40
3.0
100
AcDbArc
 50
135.0
 51
315.0
  0
ARC
  5
527
100
AcDbEntity
  8
KONSTRUKTIONSELEMENTE
100
AcDbCircle
 62
7
  6
CONTINUOUS
 10
143.9183442137
 20
182.5042018426
 40
2.25
100
AcDbArc
 50
315.0
 51
135.0
  0
ARC
  5
528
100
AcDbEntity
  8
BEZUGSACHSEN
100
AcDbCircle
 62
7
  6
CONTINUOUS
 10
217.2806727618
 20
132.3665303907
 40
38.0
100
AcDbArc
 50
280.0
 51
315.0795594347
  0
ARC
  5
529
100
AcDbEntity
  8
0
100
AcDbCircle
 62
7
  6
CONTINUOUS
 10
217.2806727618
 20
132.3665303907
 40
38.0
100
AcDbArc
 50
224.9204405653
 51
260.0
  0
ARC
  5
52A
100
AcDbEntity
  8
BEZUGSACHSEN
100
AcDbCircle
 62
7
  6
CONTINUOUS
 10
217.2806727618
 20
132.3665303907
 40
32.0
100
AcDbArc
 50
260.0
 51
280.0
  0
ARC
  5
52B
100
AcDbEntity
  8
BEZUGSACHSEN
100
AcDbCircle
 62
7
  6
CONTINUOUS
 10
217.2806727618
 20
132.3665303907
 40
26.0
100
AcDbArc
 50
24.3311760181
 51
36.1276872784
  0
ARC
  5
52C
100
AcDbEntity
  8
BEZUGSACHSEN
100
AcDbCircle
 62
7
  6
CONTINUOUS
 10
217.2806727618
 20
132.3665303907
 40
26.0
100
AcDbArc
 50
54.8548211136
 51
62.3651745646
  0
ARC
  5
52D
100
AcDbEntity
  8
BEZUGSACHSEN
100
AcDbCircle
 62
7
  6
CONTINUOUS
 10
217.2806727618
 20
132.3665303907
 40
26.0
100
AcDbArc
 50
117.6352092951
 51
125.1456040846
  0
ARC
  5
52E
100
AcDbEntity
  8
BEZUGSACHSEN
100
AcDbCircle
 62
7
  6
CONTINUOUS
 10
217.2806727618
 20
132.3665303907
 40
26.0
100
AcDbArc
 50
143.8724928261
 51
155.6688239819
  0
ARC
  5
52F
100
AcDbEntity
  8
KONSTRUKTIONSELEMENTE
100
AcDbCircle
 62
7
  6
CONTINUOUS
 10
217.4806727618
 20
133.3665303907
 40
20.8
100
AcDbArc
 50
270.0
 51
360.0
  0
ARC
  5
530
100
AcDbEntity
  8
KONSTRUKTIONSELEMENTE
100
AcDbCircle
 62
7
  6
CONTINUOUS
 10
217.0806727618
 20
133.3665303907
 40
20.8
100
AcDbArc
 50
180.0
 51
270.0
  0
ARC
  5
531
100
AcDbEntity
  8
KONSTRUKTIONSELEMENTE
100
AcDbCircle
 62
7
  6
CONTINUOUS
 10
236.1306727618
 20
163.2665303907
 40
10.4
100
AcDbArc
 50
180.0
 51
258.761611675
  0
ARC
  5
532
100
AcDbEntity
  8
KONSTRUKTIONSELEMENTE
100
AcDbCircle
 62
7
  6
CONTINUOUS
 10
198.4306727618
 20
163.2665303907
 40
10.4
100
AcDbArc
 50
281.2292614864
 51
360.0
  0
ARC
  5
533
100
AcDbEntity
  8
KONSTRUKTIONSELEMENTE
100
AcDbCircle
 62
7
  6
CONTINUOUS
 10
201.4820452898
 20
147.6954521974
 40
5.2013069511
100
AcDbArc
 50
93.285218525
 51
180.0114016776
  0
ARC
  5
534
100
AcDbEntity
  8
KONSTRUKTIONSELEMENTE
100
AcDbCircle
 62
7
  6
CONTINUOUS
 10
233.0793013528
 20
147.69545234
 40
5.2013062883
100
AcDbArc
 50
359.9885948747
 51
86.7147935625
  0
ARC
  5
535
100
AcDbEntity
  8
RUNDUNGEN
100
AcDbCircle
 62
7
  6
CONTINUOUS
 10
281.4722681963
 20
26.4951039162
 40
6.2084045654
100
AcDbArc
 50
2.126811799
 51
8.000004098
  0
ARC
  5
536
100
AcDbEntity
  8
RUNDUNGEN
100
AcDbCircle
 62
7
  6
CONTINUOUS
 10
283.4745993587
 20
39.013314074
 40
2.4833618262
100
AcDbArc
 50
7.9999888872
 51
45.0000070166
  0
ARC
  5
537
100
AcDbEntity
  8
RUNDUNGEN
100
AcDbCircle
 62
7
  6
CONTINUOUS
 10
286.0140345879
 20
43.4978867945
 40
2.4833618262
100
AcDbArc
 50
179.9992078183
 51
224.9986963196
  0
ARC
  5
538
100
AcDbEntity
  8
RUNDUNGEN
100
AcDbCircle
 62
7
  6
CONTINUOUS
 10
289.5431941314
 20
11.5240095187
 40
1.8625213696
100
AcDbArc
 50
180.0
 51
264.0
  0
ARC
  5
539
100
AcDbEntity
  8
RUNDUNGEN
100
AcDbCircle
 62
7
  6
CONTINUOUS
 10
281.4722681963
 20
81.2379568652
 40
6.2084045654
100
AcDbArc
 50
351.9999810605
 51
0.000015487
  0
ARC
  5
53A
100
AcDbEntity
  8
BEZUGSACHSEN
100
AcDbCircle
 62
7
  6
CONTINUOUS
 10
281.4722681963
 20
81.2379568652
 40
6.2084045654
100
AcDbArc
 50
351.9999810605
 51
0.000015487
  0
ARC
  5
53B
100
AcDbEntity
  8
RUNDUNGEN
100
AcDbCircle
 62
7
  6
CONTINUOUS
 10
283.4745993587
 20
68.7197467073
 40
2.4833618262
100
AcDbArc
 50
314.999827574
 51
352.0000226953
  0
ARC
  5
53C
100
AcDbEntity
  8
RUNDUNGEN
100
AcDbCircle
 62
7
  6
CONTINUOUS
 10
286.0140345879
 20
64.2351739869
 40
2.4833618262
100
AcDbArc
 50
134.9992830869
 51
180.0
  0
ARC
  5
53D
100
AcDbEntity
  8
BEZUGSACHSEN
100
AcDbCircle
 62
7
  6
CONTINUOUS
 10
283.4745993587
 20
68.7197467073
 40
2.4833618262
100
AcDbArc
 50
314.999827574
 51
352.0000226953
  0
ARC
  5
53E
100
AcDbEntity
  8
BEZUGSACHSEN
100
AcDbCircle
 62
7
  6
CONTINUOUS
 10
286.0140345879
 20
64.2351739869
 40
2.4833618262
100
AcDbArc
 50
134.9992830869
 51
180.0
  0
ARC
  5
53F
100
AcDbEntity
  8
RUNDUNGEN
100
AcDbCircle
 62
7
  6
CONTINUOUS
 10
284.7723544479
 20
47.4519651612
 40
1.2416809192
100
AcDbArc
 50
179.9999384528
 51
220.5081217045
  0
ARC
  5
540
100
AcDbEntity
  8
BEZUGSACHSEN
100
AcDbCircle
 62
7
  6
CONTINUOUS
 10
284.7723536749
 20
47.4519661408
 40
1.2416809131
100
AcDbArc
 50
179.9999384528
 51
220.5081792421
  0
ARC
  5
541
100
AcDbEntity
  8
BEZUGSACHSEN
100
AcDbCircle
 62
7
  6
CONTINUOUS
 10
303.0890773272
 20
26.4951039162
 40
6.2084045654
100
AcDbArc
 50
171.999995902
 51
180.0000349267
  0
ARC
  5
542
100
AcDbEntity
  8
BEZUGSACHSEN
100
AcDbCircle
 62
7
  6
CONTINUOUS
 10
301.0867461649
 20
39.013314074
 40
2.4833618262
100
AcDbArc
 50
134.9999929834
 51
172.0000111128
  0
ARC
  5
543
100
AcDbEntity
  8
BEZUGSACHSEN
100
AcDbCircle
 62
7
  6
CONTINUOUS
 10
298.5473109356
 20
43.4978867945
 40
2.4833618262
100
AcDbArc
 50
315.0013036804
 51
0.0007921817
  0
ARC
  5
544
100
AcDbEntity
  8
BEZUGSACHSEN
100
AcDbCircle
 62
7
  6
CONTINUOUS
 10
295.0181513921
 20
11.5240095187
 40
1.8625213696
100
AcDbArc
 50
276.0
 51
360.0
  0
ARC
  5
545
100
AcDbEntity
  8
RUNDUNGEN
100
AcDbCircle
 62
7
  6
CONTINUOUS
 10
292.2806727618
 20
53.8665303907
 40
11.116977872
100
AcDbArc
 50
220.5081792421
 51
319.4918207579
  0
ARC
  5
546
100
AcDbEntity
  8
BEZUGSACHSEN
100
AcDbCircle
 62
7
  6
CONTINUOUS
 10
292.2806727618
 20
53.8665303907
 40
11.116977872
100
AcDbArc
 50
220.5081792421
 51
319.4918207579
  0
CIRCLE
  5
547
100
AcDbEntity
  8
0
100
AcDbCircle
 62
7
  6
CONTINUOUS
 10
292.2806727618
 20
53.8665303907
 40
3.7250427393
  0
CIRCLE
  5
548
100
AcDbEntity
  8
BEZUGSACHSEN
100
AcDbCircle
 62
7
  6
CONTINUOUS
 10
292.2806727618
 20
53.8665303907
 40
3.7250427393
  0
ARC
  5
549
100
AcDbEntity
  8
BEZUGSACHSEN
100
AcDbCircle
 62
7
  6
CONTINUOUS
 10
298.5473109356
 20
64.2351739869
 40
2.4833618262
100
AcDbArc
 50
0.0
 51
45.0007169131
  0
ARC
  5
54A
100
AcDbEntity
  8
RUNDUNGEN
100
AcDbCircle
 62
7
  6
CONTINUOUS
 10
299.7889918487
 20
47.4519661408
 40
1.2416809131
100
AcDbArc
 50
319.4918207579
 51
360.0
  0
ARC
  5
54B
100
AcDbEntity
  8
BEZUGSACHSEN
100
AcDbCircle
 62
7
  6
CONTINUOUS
 10
299.7889918487
 20
47.4519661408
 40
1.2416809131
100
AcDbArc
 50
319.4918207579
 51
360.0
  0
ARC
  5
54C
100
AcDbEntity
  8
BEZUGSACHSEN
100
AcDbCircle
 62
7
  6
CONTINUOUS
 10
303.0890773272
 20
81.2379568652
 40
6.2084045654
100
AcDbArc
 50
179.999984513
 51
188.0000189395
  0
ARC
  5
54D
100
AcDbEntity
  8
BEZUGSACHSEN
100
AcDbCircle
 62
7
  6
CONTINUOUS
 10
301.0867461649
 20
68.7197467073
 40
2.4833618262
100
AcDbArc
 50
187.9999773047
 51
225.000172426
  0
ARC
  5
54E
100
AcDbEntity
  8
BEZUGSACHSEN
100
AcDbCircle
 62
7
  6
CONTINUOUS
 10
267.7328901459
 20
91.9274738733
 40
3.0
100
AcDbArc
 50
206.5
 51
333.0
  0
ARC
  5
54F
100
AcDbEntity
  8
BEZUGSACHSEN
100
AcDbCircle
 62
7
  6
CONTINUOUS
 10
253.9103878414
 20
119.6511244878
 40
3.0
100
AcDbArc
 50
63.0
 51
206.5
  0
ARC
  5
550
100
AcDbEntity
  8
RUNDUNGEN
100
AcDbCircle
 62
7
  6
CONTINUOUS
 10
289.5431941314
 20
96.2090512626
 40
1.8625213696
100
AcDbArc
 50
96.0
 51
180.0
  0
ARC
  5
551
100
AcDbEntity
  8
BEZUGSACHSEN
100
AcDbCircle
 62
7
  6
CONTINUOUS
 10
289.5431941314
 20
96.2090512626
 40
1.8625213696
100
AcDbArc
 50
96.0
 51
180.0
  0
ARC
  5
552
100
AcDbEntity
  8
BEZUGSACHSEN
100
AcDbCircle
 62
7
  6
CONTINUOUS
 10
292.2806727618
 20
93.3665303907
 40
21.0
100
AcDbArc
 50
285.6815226925
 51
63.0
  0
ARC
  5
553
100
AcDbEntity
  8
BEZUGSACHSEN
100
AcDbCircle
 62
7
  6
CONTINUOUS
 10
292.2806727618
 20
93.3665303907
 40
9.0
100
AcDbArc
 50
300.7550724768
 51
239.2449275206
  0
ARC
  5
554
100
AcDbEntity
  8
BEZUGSACHSEN
100
AcDbCircle
 62
7
  6
CONTINUOUS
 10
295.0181513921
 20
96.2090512626
 40
1.8625213696
100
AcDbArc
 50
0.0
 51
84.0
  0
ARC
  5
555
100
AcDbEntity
  8
BEZUGSACHSEN
100
AcDbCircle
 62
7
  6
CONTINUOUS
 10
276.0984227424
 20
108.3457560314
 40
3.0
100
AcDbArc
 50
333.0
 51
63.0
  0
ARC
  5
556
100
AcDbEntity
  8
0
100
AcDbCircle
 62
7
  6
CONTINUOUS
 10
217.2806727618
 20
335.8665303907
 40
76.0
100
AcDbArc
 50
0.0
 51
180.0
  0
ARC
  5
557
100
AcDbEntity
  8
0
100
AcDbCircle
 62
7
  6
CONTINUOUS
 10
217.2806727618
 20
255.8665303907
 40
76.0
100
AcDbArc
 50
276.3852909514
 51
360.0
  0
ARC
  5
558
100
AcDbEntity
  8
0
100
AcDbCircle
 62
7
  6
CONTINUOUS
 10
217.2806727618
 20
255.8665303907
 40
76.0
100
AcDbArc
 50
227.2629076068
 51
263.6147090486
  0
ARC
  5
559
100
AcDbEntity
  8
0
100
AcDbCircle
 62
7
  6
CONTINUOUS
 10
217.2806727618
 20
255.8665303907
 40
76.0
100
AcDbArc
 50
180.0
 51
222.7370923932
  0
ARC
  5
55A
100
AcDbEntity
  8
0
100
AcDbCircle
 62
7
  6
CONTINUOUS
 10
217.2806727618
 20
255.8665303907
 40
50.0
100
AcDbArc
 50
279.7315021094
 51
360.0
  0
ARC
  5
55B
100
AcDbEntity
  8
0
100
AcDbCircle
 62
7
  6
CONTINUOUS
 10
217.2806727618
 20
255.8665303907
 40
50.0
100
AcDbArc
 50
228.44093775
 51
260.2684978906
  0
ARC
  5
55C
100
AcDbEntity
  8
0
100
AcDbCircle
 62
7
  6
CONTINUOUS
 10
217.2806727618
 20
255.8665303907
 40
50.0
100
AcDbArc
 50
180.0
 51
221.55906225
  0
ARC
  5
55D
100
AcDbEntity
  8
0
100
AcDbCircle
 62
7
  6
CONTINUOUS
 10
217.2806727618
 20
335.8665303907
 40
50.0
100
AcDbArc
 50
0.0
 51
180.0
  0
ARC
  5
55E
100
AcDbEntity
  8
KONSTRUKTIONSELEMENTE
100
AcDbCircle
 62
7
  6
CONTINUOUS
 10
217.2806727618
 20
215.0165303907
 40
8.45
100
AcDbArc
 50
0.0
 51
180.0
  0
ARC
  5
55F
100
AcDbEntity
  8
KONSTRUKTIONSELEMENTE
100
AcDbCircle
 62
7
  6
CONTINUOUS
 10
410.9027162298
 20
163.2665303907
 40
10.4
100
AcDbArc
 50
274.3478763823
 51
360.0
  0
ARC
  5
560
100
AcDbEntity
  8
BEZUGSACHSEN
100
AcDbCircle
 62
7
  6
CONTINUOUS
 10
436.6443116643
 20
41.4257108433
 40
6.2084045654
100
AcDbArc
 50
334.1610143067
 51
360.0
  0
ARC
  5
561
100
AcDbEntity
  8
BEZUGSACHSEN
100
AcDbCircle
 62
7
  6
CONTINUOUS
 10
422.0611207952
 20
46.9792119048
 40
6.2084045654
100
AcDbArc
 50
180.0
 51
211.85
  0
ARC
  5
562
100
AcDbEntity
  8
BEZUGSACHSEN
100
AcDbCircle
 62
7
  6
CONTINUOUS
 10
421.8552107633
 20
63.4274328787
 40
5.2775054665
100
AcDbArc
 50
311.9880592811
 51
68.3418233597
  0
ARC
  5
563
100
AcDbEntity
  8
BEZUGSACHSEN
100
AcDbCircle
 62
7
  6
CONTINUOUS
 10
418.9391668518
 20
58.4227900107
 40
3.086450631
100
AcDbArc
 50
144.9956305717
 51
180.0043694283
  0
CIRCLE
  5
564
100
AcDbEntity
  8
BEZUGSACHSEN
100
AcDbCircle
 62
7
  6
CONTINUOUS
 10
421.3147853882
 20
53.8665303907
 40
1.25
  0
ARC
  5
565
100
AcDbEntity
  8
RUNDUNGEN
100
AcDbCircle
 62
7
  6
CONTINUOUS
 10
435.7790353167
 20
46.1291137918
 40
1.2416809131
100
AcDbArc
 50
270.0
 51
360.0
  0
ARC
  5
566
100
AcDbEntity
  8
RUNDUNGEN
100
AcDbCircle
 62
7
  6
CONTINUOUS
 10
426.6323279845
 20
46.1291137918
 40
1.2416809131
100
AcDbArc
 50
180.0
 51
270.0
  0
ARC
  5
567
100
AcDbEntity
  8
BEZUGSACHSEN
100
AcDbCircle
 62
7
  6
CONTINUOUS
 10
435.7790353167
 20
46.1291137918
 40
1.2416809131
100
AcDbArc
 50
270.0
 51
360.0
  0
ARC
  5
568
100
AcDbEntity
  8
BEZUGSACHSEN
100
AcDbCircle
 62
7
  6
CONTINUOUS
 10
426.6323279845
 20
46.1291137918
 40
1.2416809131
100
AcDbArc
 50
180.0
 51
270.0
  0
ARC
  5
569
100
AcDbEntity
  8
RUNDUNGEN
100
AcDbCircle
 62
7
  6
CONTINUOUS
 10
423.8893053007
 20
63.7418273496
 40
1.2416809131
100
AcDbArc
 50
0.0
 51
90.0
  0
ARC
  5
56A
100
AcDbEntity
  8
RUNDUNGEN
100
AcDbCircle
 62
7
  6
CONTINUOUS
 10
438.3447971429
 20
63.7418273496
 40
1.2416809131
100
AcDbArc
 50
90.0
 51
180.0
  0
ARC
  5
56B
100
AcDbEntity
  8
RUNDUNGEN
100
AcDbCircle
 62
7
  6
CONTINUOUS
 10
426.3726671269
 20
45.2739616478
 40
1.2416809131
100
AcDbArc
 50
180.0
 51
269.9991729245
  0
ARC
  5
56C
100
AcDbEntity
  8
RUNDUNGEN
100
AcDbCircle
 62
7
  6
CONTINUOUS
 10
435.8614353167
 20
45.2739616478
 40
1.2416809131
100
AcDbArc
 50
269.9998228884
 51
360.0
  0
ARC
  5
56D
100
AcDbEntity
  8
0
100
AcDbCircle
 62
7
  6
CONTINUOUS
 10
441.9830808919
 20
113.2655334105
 40
0.3335678168
100
AcDbArc
 50
258.8903114983
 51
269.9692795105
  0
ARC
  5
56E
100
AcDbEntity
  8
BEZUGSACHSEN
100
AcDbCircle
 62
7
  6
CONTINUOUS
 10
451.8527162298
 20
38.2035082627
 40
28.84
100
AcDbArc
 50
270.0
 51
360.0
  0
ARC
  5
56F
100
AcDbEntity
  8
BEZUGSACHSEN
100
AcDbCircle
 62
7
  6
CONTINUOUS
 10
451.8527162298
 20
69.5295525187
 40
28.84
100
AcDbArc
 50
116.2115028238
 51
158.4416445815
  0
ARC
  5
570
100
AcDbEntity
  8
BEZUGSACHSEN
100
AcDbCircle
 62
7
  6
CONTINUOUS
 10
451.8527162298
 20
69.5295525187
 40
28.84
100
AcDbArc
 50
162.5024894365
 51
180.0
  0
ARC
  5
571
100
AcDbEntity
  8
BEZUGSACHSEN
100
AcDbCircle
 62
7
  6
CONTINUOUS
 10
451.8527162298
 20
34.0609100627
 40
24.6974018
100
AcDbArc
 50
211.85
 51
270.0
  0
ARC
  5
572
100
AcDbEntity
  8
BEZUGSACHSEN
100
AcDbCircle
 62
7
  6
CONTINUOUS
 10
451.8527162298
 20
73.6721507187
 40
24.6974018
100
AcDbArc
 50
31.85
 51
58.0822689443
  0
ARC
  5
573
100
AcDbEntity
  8
BEZUGSACHSEN
100
AcDbCircle
 62
7
  6
CONTINUOUS
 10
451.8527162298
 20
38.2035082627
 40
14.832
100
AcDbArc
 50
270.0
 51
360.0
  0
ARC
  5
574
100
AcDbEntity
  8
BEZUGSACHSEN
100
AcDbCircle
 62
7
  6
CONTINUOUS
 10
451.8527162298
 20
69.5295525187
 40
14.832
100
AcDbArc
 50
160.4453920131
 51
180.0
  0
ARC
  5
575
100
AcDbEntity
  8
BEZUGSACHSEN
100
AcDbCircle
 62
7
  6
CONTINUOUS
 10
451.8527162298
 20
34.0609100627
 40
10.6894018
100
AcDbArc
 50
154.1610143067
 51
270.0
  0
ARC
  5
576
100
AcDbEntity
  8
BEZUGSACHSEN
100
AcDbCircle
 62
7
  6
CONTINUOUS
 10
451.8527162298
 20
73.6721507187
 40
10.6894018
100
AcDbArc
 50
328.7648355016
 51
4.721451409
  0
ARC
  5
577
100
AcDbEntity
  8
BEZUGSACHSEN
100
AcDbCircle
 62
7
  6
CONTINUOUS
 10
466.3011207952
 20
64.9097614625
 40
6.2084045654
100
AcDbArc
 50
148.7648355016
 51
180.0
  0
ARC
  5
578
100
AcDbEntity
  8
0
100
AcDbCircle
 62
7
  6
CONTINUOUS
 10
461.8232096792
 20
112.7601523447
 40
1.703100729
100
AcDbArc
 50
4.6040060488
 51
9.3607397855
  0
ARC
  5
579
100
AcDbEntity
  8
RUNDUNGEN
100
AcDbCircle
 62
7
  6
CONTINUOUS
 10
465.3606353167
 20
43.9912334318
 40
1.2416809131
100
AcDbArc
 50
270.0
 51
360.0
  0
ARC
  5
57A
100
AcDbEntity
  8
RUNDUNGEN
100
AcDbCircle
 62
7
  6
CONTINUOUS
 10
467.8439971429
 20
62.4590991336
 40
1.2416809131
100
AcDbArc
 50
89.9998229982
 51
180.0
  0
ARC
  5
57B
100
AcDbEntity
  8
BEZUGSACHSEN
100
AcDbCircle
 62
7
  6
CONTINUOUS
 10
465.3606353167
 20
43.9912334318
 40
1.2416809131
100
AcDbArc
 50
270.0
 51
360.0
  0
ARC
  5
57C
100
AcDbEntity
  8
RUNDUNGEN
100
AcDbCircle
 62
7
  6
CONTINUOUS
 10
467.9263971429
 20
61.6039469896
 40
1.2416809131
100
AcDbArc
 50
90.0
 51
180.0
  0
ARC
  5
57D
100
AcDbEntity
  8
BEZUGSACHSEN
100
AcDbCircle
 62
7
  6
CONTINUOUS
 10
467.8439971429
 20
62.4590991336
 40
1.2416809131
100
AcDbArc
 50
89.9998229982
 51
180.0
  0
ARC
  5
57E
100
AcDbEntity
  8
0
100
AcDbCircle
 62
7
  6
CONTINUOUS
 10
453.4910477992
 20
112.4676703651
 40
1.1921418144
100
AcDbArc
 50
189.1507496866
 51
197.9056765135
  0
ARC
  5
57F
100
AcDbEntity
  8
0
100
AcDbCircle
 62
7
  6
CONTINUOUS
 10
453.4471270182
 20
112.4601500372
 40
1.1475841055
100
AcDbArc
 50
180.0311961003
 51
189.1287925098
  0
ARC
  5
580
100
AcDbEntity
  8
0
100
AcDbCircle
 62
7
  6
CONTINUOUS
 10
453.8303074996
 20
112.4601861315
 40
0.7627647032
100
AcDbArc
 50
180.0496459843
 51
190.6655153824
  0
ARC
  5
581
100
AcDbEntity
  8
KONSTRUKTIONSELEMENTE
100
AcDbCircle
 62
7
  6
CONTINUOUS
 10
452.5027162298
 20
193.5665303907
 40
29.9
100
AcDbArc
 50
0.0
 51
45.0349505031
  0
ARC
  5
582
100
AcDbEntity
  8
KONSTRUKTIONSELEMENTE
100
AcDbCircle
 62
7
  6
CONTINUOUS
 10
451.2027162298
 20
193.5665303907
 40
29.9
100
AcDbArc
 50
134.9734382116
 51
180.0
  0
ARC
  5
583
100
AcDbEntity
  8
0
100
AcDbCircle
 62
7
  6
CONTINUOUS
 10
451.8527162298
 20
192.8665303907
 40
13.0
100
AcDbArc
 50
301.5088555994
 51
360.0
  0
ARC
  5
584
100
AcDbEntity
  8
0
100
AcDbCircle
 62
7
  6
CONTINUOUS
 10
451.8527162298
 20
192.8665303907
 40
13.0
100
AcDbArc
 50
180.0
 51
238.4751252644
  0
ARC
  5
585
100
AcDbEntity
  8
KONSTRUKTIONSELEMENTE
100
AcDbCircle
 62
7
  6
CONTINUOUS
 10
452.5027162298
 20
193.5665303907
 40
13.0
100
AcDbArc
 50
0.0
 51
1.3403364097
  0
ARC
  5
586
100
AcDbEntity
  8
KONSTRUKTIONSELEMENTE
100
AcDbCircle
 62
7
  6
CONTINUOUS
 10
451.2027162298
 20
193.5665303907
 40
13.0
100
AcDbArc
 50
178.6526093045
 51
180.0
  0
ARC
  5
587
100
AcDbEntity
  8
KONSTRUKTIONSELEMENTE
100
AcDbCircle
 62
7
  6
CONTINUOUS
 10
451.8527162298
 20
199.5951181354
 40
2.5
100
AcDbArc
 50
0.0
 51
180.0
  0
ARC
  5
588
100
AcDbEntity
  8
KONSTRUKTIONSELEMENTE
100
AcDbCircle
 62
7
  6
CONTINUOUS
 10
451.8527162298
 20
177.0805474393
 40
2.5
100
AcDbArc
 50
180.0
 51
360.0
  0
ARC
  5
589
100
AcDbEntity
  8
KONSTRUKTIONSELEMENTE
100
AcDbCircle
 62
7
  6
CONTINUOUS
 10
451.8527162298
 20
138.4303815628
 40
2.5
100
AcDbArc
 50
0.0
 51
180.0
  0
ARC
  5
58A
100
AcDbEntity
  8
KONSTRUKTIONSELEMENTE
100
AcDbCircle
 62
7
  6
CONTINUOUS
 10
451.8527162298
 20
146.5253869468
 40
2.25
100
AcDbArc
 50
180.0
 51
360.0
  0
ARC
  5
58B
100
AcDbEntity
  8
KONSTRUKTIONSELEMENTE
100
AcDbCircle
 62
7
  6
CONTINUOUS
 10
451.8527162298
 20
168.6319886646
 40
2.25
100
AcDbArc
 50
0.0
 51
180.0
  0
ARC
  5
58C
100
AcDbEntity
  8
BEZUGSACHSEN
100
AcDbCircle
 62
7
  6
CONTINUOUS
 10
481.9003116643
 20
60.3417665379
 40
6.2084045654
100
AcDbArc
 50
0.0
 51
31.85
  0
ARC
  5
58D
100
AcDbEntity
  8
BEZUGSACHSEN
100
AcDbCircle
 62
7
  6
CONTINUOUS
 10
481.8502216962
 20
44.3056279027
 40
5.2775054665
100
AcDbArc
 50
131.9880587331
 51
248.3418233597
  0
ARC
  5
58E
100
AcDbEntity
  8
BEZUGSACHSEN
100
AcDbCircle
 62
7
  6
CONTINUOUS
 10
485.0222656078
 20
49.3102707706
 40
3.086450631
100
AcDbArc
 50
324.9956305717
 51
0.0043694283
  0
CIRCLE
  5
58F
100
AcDbEntity
  8
BEZUGSACHSEN
100
AcDbCircle
 62
7
  6
CONTINUOUS
 10
482.3906470714
 20
53.8665303907
 40
1.25
  0
ARC
  5
590
100
AcDbEntity
  8
RUNDUNGEN
100
AcDbCircle
 62
7
  6
CONTINUOUS
 10
479.8161271589
 20
43.9912334318
 40
1.2416809131
100
AcDbArc
 50
180.0
 51
270.0
  0
ARC
  5
591
100
AcDbEntity
  8
RUNDUNGEN
100
AcDbCircle
 62
7
  6
CONTINUOUS
 10
477.3327653327
 20
62.4590991336
 40
1.2416809131
100
AcDbArc
 50
0.0
 51
89.9991729017
  0
ARC
  5
592
100
AcDbEntity
  8
BEZUGSACHSEN
100
AcDbCircle
 62
7
  6
CONTINUOUS
 10
479.8161271589
 20
43.9912334318
 40
1.2416809131
100
AcDbArc
 50
180.0
 51
270.0
  0
ARC
  5
593
100
AcDbEntity
  8
RUNDUNGEN
100
AcDbCircle
 62
7
  6
CONTINUOUS
 10
477.0731044751
 20
61.6039469896
 40
1.2416809131
100
AcDbArc
 50
0.0
 51
90.0
  0
ARC
  5
594
100
AcDbEntity
  8
BEZUGSACHSEN
100
AcDbCircle
 62
7
  6
CONTINUOUS
 10
477.3327653327
 20
62.4590991336
 40
1.2416809131
100
AcDbArc
 50
0.0
 51
89.9991729017
  0
ARC
  5
595
100
AcDbEntity
  8
KONSTRUKTIONSELEMENTE
100
AcDbCircle
 62
7
  6
CONTINUOUS
 10
487.6027162298
 20
133.3665303907
 40
16.9
100
AcDbArc
 50
270.0
 51
90.0
  0
ARC
  5
596
100
AcDbEntity
  8
0
100
AcDbCircle
 62
7
  6
CONTINUOUS
 10
451.8527162298
 20
398.8665303907
 40
13.0
100
AcDbArc
 50
0.0
 51
180.0
  0
LINE
  5
597
100
AcDbEntity
  8
RUNDUNGEN
100
AcDbLine
 62
7
  6
CONTINUOUS
 10
292.2806727618
 20
42.7495527537
 11
292.2806727618
 21
43.2837889769
  0
LINE
  5
598
100
AcDbEntity
  8
RUNDUNGEN
100
AcDbLine
 62
7
  6
CONTINUOUS
 10
142.2806727618
 20
42.7495527537
 11
142.2806727618
 21
43.2837889769
  0
LINE
  5
599
100
AcDbEntity
  8
RUNDUNGEN
100
AcDbLine
 62
7
  6
CONTINUOUS
 10
142.2806727618
 20
39.4007014742
 11
142.2806727618
 21
38.2408579627
  0
LINE
  5
59A
100
AcDbEntity
  8
BEZUGSACHSEN
100
AcDbLine
 62
7
  6
CONTINUOUS
 10
142.2806727618
 20
49.3105061462
 11
142.2806727618
 21
47.5397626135
  0
LINE
  5
59B
100
AcDbEntity
  8
BEZUGSACHSEN
100
AcDbLine
 62
7
  6
CONTINUOUS
 10
142.2806727618
 20
42.7495527537
 11
142.2806727618
 21
43.2837889769
  0
LINE
  5
59C
100
AcDbEntity
  8
RUNDUNGEN
100
AcDbLine
 62
7
  6
CONTINUOUS
 10
292.2806727618
 20
39.4007014742
 11
292.2806727618
 21
38.2408579627
  0
LINE
  5
59D
100
AcDbEntity
  8
BEZUGSACHSEN
100
AcDbLine
 62
7
  6
CONTINUOUS
 10
292.2806727618
 20
49.3105061462
 11
292.2806727618
 21
47.5397626135
  0
LINE
  5
59E
100
AcDbEntity
  8
BEZUGSACHSEN
100
AcDbLine
 62
7
  6
CONTINUOUS
 10
292.2806727618
 20
42.7495527537
 11
292.2806727618
 21
43.2837889769
  0
SPLINE
  5
59F
100
AcDbEntity
  8
KONSTRUKTIONSELEMENTE
100
AcDbSpline
 62
7
  6
CONTINUOUS
 70
0
 71
3
 72
12
 73
8
 74
0
 42
0.0000001
 43
0.0000001
 44
0.0000000001
 40
0.0
 40
0.0
 40
0.0
 40
0.0
 40
0.1250809066
 40
0.2501681781
 40
0.4998516094
 40
0.7498327845
 40
1.0
 40
1.0
 40
1.0
 40
1.0
 10
201.1839805265
 20
152.888145924
 30
0.0
 10
202.0025490424
 20
152.9350854307
 30
0.0
 10
203.634247632
 20
153.1801723671
 30
0.0
 10
206.7609516003
 20
154.1988071052
 30
0.0
 10
210.329364811
 20
156.3053745495
 30
0.0
 10
213.9865172322
 20
159.6125555542
 30
0.0
 10
216.1827293515
 20
162.0484715459
 30
0.0
 10
217.2806727568
 20
163.2665303907
 30
0.0
  0
SPLINE
  5
5A0
100
AcDbEntity
  8
KONSTRUKTIONSELEMENTE
100
AcDbSpline
 62
7
  6
CONTINUOUS
 70
0
 71
3
 72
12
 73
8
 74
0
 42
0.0000001
 43
0.0000001
 44
0.0000000001
 40
0.0
 40
0.0
 40
0.0
 40
0.0
 40
0.250168084
 40
0.5001502813
 40
0.7498337259
 40
0.8749200113
 40
1.0
 40
1.0
 40
1.0
 40
1.0
 10
217.2806727568
 20
163.2665303907
 30
0.0
 10
218.3786199683
 20
162.0484673234
 30
0.0
 10
220.5748404563
 20
159.6125424939
 30
0.0
 10
224.2320045772
 20
156.3053541004
 30
0.0
 10
227.8004235736
 20
154.1987983292
 30
0.0
 10
230.9271157296
 20
153.1801642216
 30
0.0
 10
232.5588028479
 20
152.9350910744
 30
0.0
 10
233.3773650089
 20
152.8881459233
 30
0.0
  0
SPLINE
  5
5A1
100
AcDbEntity
  8
KONSTRUKTIONSELEMENTE
100
AcDbSpline
 62
7
  6
CONTINUOUS
 70
0
 71
3
 72
13
 73
9
 74
0
 42
0.0000001
 43
0.0000001
 44
0.0000000001
 40
0.0
 40
0.0
 40
0.0
 40
0.0
 40
0.1197290731
 40
0.2397365246
 40
0.3609040964
 40
0.4836831257
 40
0.7359942557
 40
1.0
 40
1.0
 40
1.0
 40
1.0
 10
459.8527162298
 20
178.4383378507
 30
0.0
 10
459.8527162298
 20
178.7875515529
 30
0.0
 10
459.780612608
 20
179.4888925889
 30
0.0
 10
459.4623272732
 20
180.499110837
 30
0.0
 10
458.9529437316
 20
181.4376890557
 30
0.0
 10
458.041143203
 20
182.5704635624
 30
0.0
 10
456.5252519374
 20
183.7076069785
 30
0.0
 10
455.1023650874
 20
184.2541527024
 30
0.0
 10
454.3561405657
 20
184.444121193
 30
0.0
  0
SPLINE
  5
5A2
100
AcDbEntity
  8
KONSTRUKTIONSELEMENTE
100
AcDbSpline
 62
7
  6
CONTINUOUS
 70
0
 71
3
 72
13
 73
9
 74
0
 42
0.0000001
 43
0.0000001
 44
0.0000000001
 40
0.0
 40
0.0
 40
0.0
 40
0.0
 40
0.2640112835
 40
0.5163080567
 40
0.6390830379
 40
0.7602378991
 40
0.8802701562
 40
1.0
 40
1.0
 40
1.0
 40
1.0
 10
449.3483884273
 20
184.4438740034
 30
0.0
 10
448.602248605
 20
184.2538394021
 30
0.0
 10
447.1795721636
 20
183.707272771
 30
0.0
 10
445.6639820965
 20
182.57012743
 30
0.0
 10
444.7523918191
 20
181.4375119214
 30
0.0
 10
444.2430009032
 20
180.4990346348
 30
0.0
 10
443.9248641842
 20
179.4888465317
 30
0.0
 10
443.8527162298
 20
178.7875166482
 30
0.0
 10
443.8527162298
 20
178.4383378507
 30
0.0
  0
SPLINE
  5
5A3
100
AcDbEntity
  8
KONSTRUKTIONSELEMENTE
100
AcDbSpline
 62
7
  6
CONTINUOUS
 70
0
 71
3
 72
12
 73
8
 74
0
 42
0.0000001
 43
0.0000001
 44
0.0000000001
 40
0.0
 40
0.0
 40
0.0
 40
0.0
 40
0.1282453638
 40
0.2146169864
 40
0.321985829
 40
0.6101725692
 40
1.0
 40
1.0
 40
1.0
 40
1.0
 10
455.3527162298
 20
178.4383378507
 30
0.0
 10
455.3527162298
 20
178.5076008606
 30
0.0
 10
455.3330532441
 20
178.6241447102
 30
0.0
 10
455.2663633504
 20
178.7851682341
 30
0.0
 10
455.1351984596
 20
179.0109794081
 30
0.0
 10
454.8439039992
 20
179.3259538515
 30
0.0
 10
454.5416065958
 20
179.5373210936
 30
0.0
 10
454.3590702948
 20
179.64223569
 30
0.0
  0
SPLINE
  5
5A4
100
AcDbEntity
  8
KONSTRUKTIONSELEMENTE
100
AcDbSpline
 62
7
  6
CONTINUOUS
 70
0
 71
3
 72
12
 73
8
 74
0
 42
0.0000001
 43
0.0000001
 44
0.0000000001
 40
0.0
 40
0.0
 40
0.0
 40
0.0
 40
0.3898396094
 40
0.6780156338
 40
0.7853729626
 40
0.8717632718
 40
1.0
 40
1.0
 40
1.0
 40
1.0
 10
449.3462706287
 20
179.6421832189
 30
0.0
 10
449.1637433852
 20
179.5372678094
 30
0.0
 10
448.8614956216
 20
179.3258784716
 30
0.0
 10
448.5701906454
 20
179.0109605541
 30
0.0
 10
448.4390524871
 20
178.7851520921
 30
0.0
 10
448.37240668
 20
178.6241263577
 30
0.0
 10
448.3527162298
 20
178.5075915831
 30
0.0
 10
448.3527162298
 20
178.4383378507
 30
0.0
  0
SPLINE
  5
5A5
100
AcDbEntity
  8
KONSTRUKTIONSELEMENTE
100
AcDbSpline
 62
7
  6
CONTINUOUS
 70
0
 71
3
 72
11
 73
7
 74
0
 42
0.0000001
 43
0.0000001
 44
0.0000000001
 40
0.0
 40
0.0
 40
0.0
 40
0.0
 40
0.3114703232
 40
0.4450990083
 40
0.6063354134
 40
1.0
 40
1.0
 40
1.0
 40
1.0
 10
448.3527162298
 20
167.8317361329
 30
0.0
 10
448.3527162298
 20
167.6345812865
 30
0.0
 10
448.4914267654
 20
167.3594863995
 30
0.0
 10
448.7427946119
 20
167.0731344051
 30
0.0
 10
449.0711632862
 20
166.7833543989
 30
0.0
 10
449.3759653682
 20
166.6019719686
 30
0.0
 10
449.6007243415
 20
166.4943838376
 30
0.0
  0
SPLINE
  5
5A6
100
AcDbEntity
  8
KONSTRUKTIONSELEMENTE
100
AcDbSpline
 62
7
  6
CONTINUOUS
 70
0
 71
3
 72
11
 73
7
 74
0
 42
0.0000001
 43
0.0000001
 44
0.0000000001
 40
0.0
 40
0.0
 40
0.0
 40
0.0
 40
0.3936803283
 40
0.5549226436
 40
0.6885473432
 40
1.0
 40
1.0
 40
1.0
 40
1.0
 10
454.1044654653
 20
166.4942719096
 30
0.0
 10
454.3292733712
 20
166.6018618102
 30
0.0
 10
454.6341402799
 20
166.7832649279
 30
0.0
 10
454.9625680798
 20
167.0730841991
 30
0.0
 10
455.2140114566
 20
167.3594293454
 30
0.0
 10
455.3527162298
 20
167.6345648291
 30
0.0
 10
455.3527162298
 20
167.8317361329
 30
0.0
  0
SPLINE
  5
5A7
100
AcDbEntity
  8
KONSTRUKTIONSELEMENTE
100
AcDbSpline
 62
7
  6
CONTINUOUS
 70
0
 71
3
 72
13
 73
9
 74
0
 42
0.0000001
 43
0.0000001
 44
0.0000000001
 40
0.0
 40
0.0
 40
0.0
 40
0.0
 40
0.1194785188
 40
0.2392741704
 40
0.3602835725
 40
0.4830059608
 40
0.7355440041
 40
1.0
 40
1.0
 40
1.0
 40
1.0
 10
443.8527162298
 20
167.8317361329
 30
0.0
 10
443.8527162298
 20
167.4730965217
 30
0.0
 10
443.9288117129
 20
166.7525898927
 30
0.0
 10
444.2643879406
 20
165.717094137
 30
0.0
 10
444.8003724058
 20
164.7587744579
 30
0.0
 10
445.7580679716
 20
163.608394697
 30
0.0
 10
447.3443866143
 20
162.4690521777
 30
0.0
 10
448.8244400567
 20
161.9415261574
 30
0.0
 10
449.5986039093
 20
161.7659700123
 30
0.0
  0
SPLINE
  5
5A8
100
AcDbEntity
  8
KONSTRUKTIONSELEMENTE
100
AcDbSpline
 62
7
  6
CONTINUOUS
 70
0
 71
3
 72
13
 73
9
 74
0
 42
0.0000001
 43
0.0000001
 44
0.0000000001
 40
0.0
 40
0.0
 40
0.0
 40
0.0
 40
0.2644681654
 40
0.5169944072
 40
0.6397129492
 40
0.760706397
 40
0.8805228501
 40
1.0
 40
1.0
 40
1.0
 40
1.0
 10
454.1048870086
 20
161.7655388
 30
0.0
 10
454.8792843351
 20
161.9410189042
 30
0.0
 10
456.3597751827
 20
162.4683396329
 30
0.0
 10
457.9466255898
 20
163.6076920963
 30
0.0
 10
458.9045975491
 20
164.7581346452
 30
0.0
 10
459.4409143068
 20
165.7165564317
 30
0.0
 10
459.7765286434
 20
166.7523098442
 30
0.0
 10
459.8527162298
 20
167.4730218626
 30
0.0
 10
459.8527162298
 20
167.8317361329
 30
0.0
  0
SPLINE
  5
5A9
100
AcDbEntity
  8
KONSTRUKTIONSELEMENTE
100
AcDbSpline
 62
7
  6
CONTINUOUS
 70
0
 71
3
 72
13
 73
9
 74
0
 42
0.0000001
 43
0.0000001
 44
0.0000000001
 40
0.0
 40
0.0
 40
0.0
 40
0.0
 40
0.1194785188
 40
0.2392741704
 40
0.3602835725
 40
0.4830059608
 40
0.7355440041
 40
1.0
 40
1.0
 40
1.0
 40
1.0
 10
459.8527162298
 20
147.3256394785
 30
0.0
 10
459.8527162298
 20
147.6842790898
 30
0.0
 10
459.7766207466
 20
148.4047857188
 30
0.0
 10
459.441044519
 20
149.4402814745
 30
0.0
 10
458.9050600537
 20
150.3986011536
 30
0.0
 10
457.947364488
 20
151.5489809145
 30
0.0
 10
456.3610458453
 20
152.6883234338
 30
0.0
 10
454.8809924028
 20
153.2158494541
 30
0.0
 10
454.1068285503
 20
153.3914055992
 30
0.0
  0
SPLINE
  5
5AA
100
AcDbEntity
  8
KONSTRUKTIONSELEMENTE
100
AcDbSpline
 62
7
  6
CONTINUOUS
 70
0
 71
3
 72
13
 73
9
 74
0
 42
0.0000001
 43
0.0000001
 44
0.0000000001
 40
0.0
 40
0.0
 40
0.0
 40
0.0
 40
0.2644681654
 40
0.5169944072
 40
0.6397129492
 40
0.760706397
 40
0.8805228501
 40
1.0
 40
1.0
 40
1.0
 40
1.0
 10
449.600545451
 20
153.3918368115
 30
0.0
 10
448.8261481245
 20
153.2163567073
 30
0.0
 10
447.3456572769
 20
152.6890359786
 30
0.0
 10
445.7588068698
 20
151.5496835152
 30
0.0
 10
444.8008349105
 20
150.3992409663
 30
0.0
 10
444.2645181528
 20
149.4408191798
 30
0.0
 10
443.9289038162
 20
148.4050657673
 30
0.0
 10
443.8527162298
 20
147.6843537489
 30
0.0
 10
443.8527162298
 20
147.3256394785
 30
0.0
  0
SPLINE
  5
5AB
100
AcDbEntity
  8
KONSTRUKTIONSELEMENTE
100
AcDbSpline
 62
7
  6
CONTINUOUS
 70
0
 71
3
 72
11
 73
7
 74
0
 42
0.0000001
 43
0.0000001
 44
0.0000000001
 40
0.0
 40
0.0
 40
0.0
 40
0.0
 40
0.3114703232
 40
0.4450990083
 40
0.6063354134
 40
1.0
 40
1.0
 40
1.0
 40
1.0
 10
455.3527162298
 20
147.3256394785
 30
0.0
 10
455.3527162298
 20
147.522794325
 30
0.0
 10
455.2140056942
 20
147.797889212
 30
0.0
 10
454.9626378477
 20
148.0842412064
 30
0.0
 10
454.6342691733
 20
148.3740212126
 30
0.0
 10
454.3294670914
 20
148.5554036429
 30
0.0
 10
454.1047081181
 20
148.6629917739
 30
0.0
  0
SPLINE
  5
5AC
100
AcDbEntity
  8
KONSTRUKTIONSELEMENTE
100
AcDbSpline
 62
7
  6
CONTINUOUS
 70
0
 71
3
 72
11
 73
7
 74
0
 42
0.0000001
 43
0.0000001
 44
0.0000000001
 40
0.0
 40
0.0
 40
0.0
 40
0.0
 40
0.3936803283
 40
0.5549226436
 40
0.6885473432
 40
1.0
 40
1.0
 40
1.0
 40
1.0
 10
449.6009669943
 20
148.6631037019
 30
0.0
 10
449.3761590883
 20
148.5555138013
 30
0.0
 10
449.0712921797
 20
148.3741106836
 30
0.0
 10
448.7428643798
 20
148.0842914124
 30
0.0
 10
448.491421003
 20
147.7979462661
 30
0.0
 10
448.3527162298
 20
147.5228107824
 30
0.0
 10
448.3527162298
 20
147.3256394785
 30
0.0
  0
SPLINE
  5
5AD
100
AcDbEntity
  8
KONSTRUKTIONSELEMENTE
100
AcDbSpline
 62
7
  6
CONTINUOUS
 70
0
 71
3
 72
12
 73
8
 74
0
 42
0.0000001
 43
0.0000001
 44
0.0000000001
 40
0.0
 40
0.0
 40
0.0
 40
0.0
 40
0.1282453638
 40
0.2146169864
 40
0.321985829
 40
0.6101725692
 40
1.0
 40
1.0
 40
1.0
 40
1.0
 10
448.3527162298
 20
136.7190377607
 30
0.0
 10
448.3527162298
 20
136.6497747509
 30
0.0
 10
448.3723792155
 20
136.5332309013
 30
0.0
 10
448.4390691092
 20
136.3722073774
 30
0.0
 10
448.5702339999
 20
136.1463962033
 30
0.0
 10
448.8615284603
 20
135.83142176
 30
0.0
 10
449.1638258637
 20
135.6200545179
 30
0.0
 10
449.3463621648
 20
135.5151399215
 30
0.0
  0
SPLINE
  5
5AE
100
AcDbEntity
  8
KONSTRUKTIONSELEMENTE
100
AcDbSpline
 62
7
  6
CONTINUOUS
 70
0
 71
3
 72
12
 73
8
 74
0
 42
0.0000001
 43
0.0000001
 44
0.0000000001
 40
0.0
 40
0.0
 40
0.0
 40
0.0
 40
0.3898396094
 40
0.6780156338
 40
0.7853729626
 40
0.8717632718
 40
1.0
 40
1.0
 40
1.0
 40
1.0
 10
454.3591618309
 20
135.5151923926
 30
0.0
 10
454.5416890743
 20
135.6201078021
 30
0.0
 10
454.843936838
 20
135.8314971398
 30
0.0
 10
455.1352418142
 20
136.1464150574
 30
0.0
 10
455.2663799725
 20
136.3722235194
 30
0.0
 10
455.3330257796
 20
136.5332492538
 30
0.0
 10
455.3527162298
 20
136.6497840284
 30
0.0
 10
455.3527162298
 20
136.7190377607
 30
0.0
  0
SPLINE
  5
5AF
100
AcDbEntity
  8
KONSTRUKTIONSELEMENTE
100
AcDbSpline
 62
7
  6
CONTINUOUS
 70
0
 71
3
 72
13
 73
9
 74
0
 42
0.0000001
 43
0.0000001
 44
0.0000000001
 40
0.0
 40
0.0
 40
0.0
 40
0.0
 40
0.1197290731
 40
0.2397365246
 40
0.3609040964
 40
0.4836831257
 40
0.7359942557
 40
1.0
 40
1.0
 40
1.0
 40
1.0
 10
443.8527162298
 20
136.7190377607
 30
0.0
 10
443.8527162298
 20
136.3698240586
 30
0.0
 10
443.9248198516
 20
135.6684830226
 30
0.0
 10
444.2431051863
 20
134.6582647745
 30
0.0
 10
444.752488728
 20
133.7196865558
 30
0.0
 10
445.6642892565
 20
132.5869120491
 30
0.0
 10
447.1801805222
 20
131.449768633
 30
0.0
 10
448.6030673722
 20
130.9032229091
 30
0.0
 10
449.3492918939
 20
130.7132544185
 30
0.0
  0
SPLINE
  5
5B0
100
AcDbEntity
  8
KONSTRUKTIONSELEMENTE
100
AcDbSpline
 62
7
  6
CONTINUOUS
 70
0
 71
3
 72
13
 73
9
 74
0
 42
0.0000001
 43
0.0000001
 44
0.0000000001
 40
0.0
 40
0.0
 40
0.0
 40
0.0
 40
0.2640112835
 40
0.5163080567
 40
0.6390830379
 40
0.7602378991
 40
0.8802701562
 40
1.0
 40
1.0
 40
1.0
 40
1.0
 10
454.3570440323
 20
130.7135016081
 30
0.0
 10
455.1031838546
 20
130.9035362094
 30
0.0
 10
456.525860296
 20
131.4501028405
 30
0.0
 10
458.0414503631
 20
132.5872481815
 30
0.0
 10
458.9530406405
 20
133.7198636901
 30
0.0
 10
459.4624315563
 20
134.6583409767
 30
0.0
 10
459.7805682754
 20
135.6685290798
 30
0.0
 10
459.8527162298
 20
136.3698589633
 30
0.0
 10
459.8527162298
 20
136.7190377607
 30
0.0
  0
SPLINE
  5
5B1
100
AcDbEntity
  8
KONSTRUKTIONSELEMENTE
100
AcDbSpline
 62
7
  6
CONTINUOUS
 70
0
 71
3
 72
14
 73
10
 74
0
 42
0.0000001
 43
0.0000001
 44
0.0000000001
 40
0.0
 40
0.0
 40
0.0
 40
0.0
 40
0.1118036627
 40
0.2253829785
 40
0.3423808581
 40
0.464112494
 40
0.5912619309
 40
0.7237355667
 40
1.0
 40
1.0
 40
1.0
 40
1.0
 10
428.3527162298
 20
208.1368226606
 30
0.0
 10
428.3527162298
 20
207.0250264383
 30
0.0
 10
428.6397101675
 20
204.7740701105
 30
0.0
 10
429.8940467919
 20
201.5758623029
 30
0.0
 10
431.8906867263
 20
198.6636062446
 30
0.0
 10
434.5269512963
 20
196.1245164743
 30
0.0
 10
437.7005968724
 20
194.0141347834
 30
0.0
 10
442.5662413388
 20
191.80216721
 30
0.0
 10
446.611964104
 20
190.9547852424
 30
0.0
 10
449.3507220477
 20
190.7392696214
 30
0.0
  0
SPLINE
  5
5B2
100
AcDbEntity
  8
KONSTRUKTIONSELEMENTE
100
AcDbSpline
 62
7
  6
CONTINUOUS
 70
0
 71
3
 72
14
 73
10
 74
0
 42
0.0000001
 43
0.0000001
 44
0.0000000001
 40
0.0
 40
0.0
 40
0.0
 40
0.0
 40
0.2762672291
 40
0.4087406592
 40
0.5358892349
 40
0.6576192992
 40
0.7746159913
 40
0.8881946208
 40
1.0
 40
1.0
 40
1.0
 40
1.0
 10
454.35403688
 20
190.7392092888
 30
0.0
 10
457.0928905201
 20
190.9546562143
 30
0.0
 10
461.1387470576
 20
191.8020133042
 30
0.0
 10
466.0045487495
 20
194.0139663822
 30
0.0
 10
469.1782694699
 20
196.1243440504
 30
0.0
 10
471.8146008096
 20
198.6634318316
 30
0.0
 10
473.8112990106
 20
201.5757025947
 30
0.0
 10
475.0657074149
 20
204.7739648338
 30
0.0
 10
475.3527162298
 20
207.0249841927
 30
0.0
 10
475.3527162298
 20
208.1368226606
 30
0.0
  0
SPLINE
  5
5B3
100
AcDbEntity
  8
KONSTRUKTIONSELEMENTE
100
AcDbSpline
 62
7
  6
CONTINUOUS
 70
0
 71
3
 72
13
 73
9
 74
0
 42
0.0000001
 43
0.0000001
 44
0.0000000001
 40
0.0
 40
0.0
 40
0.0
 40
0.0
 40
0.1174178025
 40
0.2356260305
 40
0.3554917157
 40
0.4777394097
 40
0.7313243863
 40
1.0
 40
1.0
 40
1.0
 40
1.0
 10
475.3527162298
 20
208.1368226606
 30
0.0
 10
475.3527162298
 20
208.8777584213
 30
0.0
 10
475.2270900301
 20
210.3675930882
 30
0.0
 10
474.6684767666
 20
212.5499682264
 30
0.0
 10
473.7573452179
 20
214.6435035672
 30
0.0
 10
472.0858291876
 20
217.2995790253
 30
0.0
 10
469.2046557624
 20
220.2405867309
 30
0.0
 10
466.3794977443
 20
221.994739462
 30
0.0
 10
464.8573157431
 20
222.7413173707
 30
0.0
  0
SPLINE
  5
5B4
100
AcDbEntity
  8
KONSTRUKTIONSELEMENTE
100
AcDbSpline
 62
7
  6
CONTINUOUS
 70
0
 71
3
 72
13
 73
9
 74
0
 42
0.0000001
 43
0.0000001
 44
0.0000000001
 40
0.0
 40
0.0
 40
0.0
 40
0.0
 40
0.2686794114
 40
0.5222637958
 40
0.6445102008
 40
0.7643736901
 40
0.882582676
 40
1.0
 40
1.0
 40
1.0
 40
1.0
 10
438.8516223894
 20
222.74303758
 30
0.0
 10
437.3289803866
 20
221.996551875
 30
0.0
 10
434.5029775164
 20
220.2424111123
 30
0.0
 10
431.6208186701
 20
217.3011554473
 30
0.0
 10
429.948714623
 20
214.6447158977
 30
0.0
 10
429.0372170045
 20
212.5508432337
 30
0.0
 10
428.4784016951
 20
210.3680499051
 30
0.0
 10
428.3527162298
 20
208.877907684
 30
0.0
 10
428.3527162298
 20
208.1368226606
 30
0.0
  0
SPLINE
  5
5B5
100
AcDbEntity
  8
KONSTRUKTIONSELEMENTE
100
AcDbSpline
 62
7
  6
CONTINUOUS
 70
0
 71
3
 72
14
 73
10
 74
0
 42
0.0000001
 43
0.0000001
 44
0.0000000001
 40
0.0
 40
0.0
 40
0.0
 40
0.0
 40
0.0923039402
 40
0.1906740315
 40
0.2992162423
 40
0.4197171364
 40
0.5519476081
 40
0.6944211199
 40
1.0
 40
1.0
 40
1.0
 40
1.0
 10
434.3527162298
 20
208.1368226606
 30
0.0
 10
434.3527162298
 20
207.5082942054
 30
0.0
 10
434.5256553366
 20
206.2043787128
 30
0.0
 10
435.2990506074
 20
204.2989713719
 30
0.0
 10
436.5934496205
 20
202.4625290427
 30
0.0
 10
438.3917164731
 20
200.7633007534
 30
0.0
 10
440.6492844245
 20
199.2756164527
 30
0.0
 10
444.2534235828
 20
197.6293276328
 30
0.0
 10
447.2793206438
 20
196.9635095795
 30
0.0
 10
449.3503492294
 20
196.7622054172
 30
0.0
  0
SPLINE
  5
5B6
100
AcDbEntity
  8
KONSTRUKTIONSELEMENTE
100
AcDbSpline
 62
7
  6
CONTINUOUS
 70
0
 71
3
 72
14
 73
10
 74
0
 42
0.0000001
 43
0.0000001
 44
0.0000000001
 40
0.0
 40
0.0
 40
0.0
 40
0.0
 40
0.3055774424
 40
0.4480520662
 40
0.5802837627
 40
0.7007860378
 40
0.8093276023
 40
0.9076986363
 40
1.0
 40
1.0
 40
1.0
 40
1.0
 10
454.3547430567
 20
196.7621656428
 30
0.0
 10
456.4257986677
 20
196.9634503841
 30
0.0
 10
459.4517546606
 20
197.6292344115
 30
0.0
 10
463.0559735784
 20
199.2755219492
 30
0.0
 10
465.3136203806
 20
200.7632180386
 30
0.0
 10
467.1119254725
 20
202.4624831712
 30
0.0
 10
468.4063885121
 20
204.2989421456
 30
0.0
 10
469.1797692393
 20
206.2043779245
 30
0.0
 10
469.3527162298
 20
207.5083012352
 30
0.0
 10
469.3527162298
 20
208.1368226606
 30
0.0
  0
SPLINE
  5
5B7
100
AcDbEntity
  8
KONSTRUKTIONSELEMENTE
100
AcDbSpline
 62
7
  6
CONTINUOUS
 70
0
 71
3
 72
11
 73
7
 74
0
 42
0.0000001
 43
0.0000001
 44
0.0000000001
 40
0.0
 40
0.0
 40
0.0
 40
0.0
 40
0.2176955932
 40
0.4510953427
 40
0.7105997876
 40
1.0
 40
1.0
 40
1.0
 40
1.0
 10
469.3527162298
 20
208.1368226606
 30
0.0
 10
469.3527162298
 20
208.8013449794
 30
0.0
 10
469.1584041175
 20
210.1847993485
 30
0.0
 10
468.2907908424
 20
212.197104138
 30
0.0
 10
466.8444468555
 20
214.1213860276
 30
0.0
 10
465.5757668196
 20
215.2341419124
 30
0.0
 10
464.8645535806
 20
215.7581421654
 30
0.0
  0
SPLINE
  5
5B8
100
AcDbEntity
  8
KONSTRUKTIONSELEMENTE
100
AcDbSpline
 62
7
  6
CONTINUOUS
 70
0
 71
3
 72
11
 73
7
 74
0
 42
0.0000001
 43
0.0000001
 44
0.0000000001
 40
0.0
 40
0.0
 40
0.0
 40
0.0
 40
0.2894071858
 40
0.5489128224
 40
0.782312458
 40
1.0
 40
1.0
 40
1.0
 40
1.0
 10
438.8416499221
 20
215.7587171278
 30
0.0
 10
438.1303126562
 20
215.2346934392
 30
0.0
 10
436.8614227193
 20
214.1218706324
 30
0.0
 10
435.4148069842
 20
212.1974430512
 30
0.0
 10
434.5470649768
 20
210.1849628736
 30
0.0
 10
434.3527162298
 20
208.8013899562
 30
0.0
 10
434.3527162298
 20
208.1368226606
 30
0.0
  0
SPLINE
  5
5B9
100
AcDbEntity
  8
RUNDUNGEN
100
AcDbSpline
 62
7
  6
CONTINUOUS
 70
0
 71
3
 72
11
 73
7
 74
0
 42
0.0000001
 43
0.0000001
 44
0.0000000001
 40
0.0
 40
0.0
 40
0.0
 40
0.0
 40
0.2500108003
 40
0.5000108986
 40
0.7500048993
 40
1.0
 40
1.0
 40
1.0
 40
1.0
 10
423.8029718829
 20
68.3323593071
 30
0.0
 10
423.6879783232
 20
68.3780235614
 30
0.0
 10
423.4702310331
 20
68.5043631564
 30
0.0
 10
423.2143091974
 20
68.7804959243
 30
0.0
 10
423.0503698543
 20
69.1194629647
 30
0.0
 10
423.0127162859
 20
69.3684820835
 30
0.0
 10
423.0127162298
 20
69.4922028187
 30
0.0
  0
SPLINE
  5
5BA
100
AcDbEntity
  8
RUNDUNGEN
100
AcDbSpline
 62
7
  6
CONTINUOUS
 70
0
 71
3
 72
11
 73
7
 74
0
 42
0.0000001
 43
0.0000001
 44
0.0000000001
 40
0.0
 40
0.0
 40
0.0
 40
0.0
 40
0.2500139656
 40
0.500003507
 40
0.7499908108
 40
1.0
 40
1.0
 40
1.0
 40
1.0
 10
483.5415340308
 20
42.7495527537
 30
0.0
 10
483.6417097333
 20
42.7495527724
 30
0.0
 10
483.8428695814
 20
42.7736589301
 30
0.0
 10
484.1268280896
 20
42.8802006934
 30
0.0
 10
484.3775040986
 20
43.0509444302
 30
0.0
 10
484.5128807404
 20
43.2017314485
 30
0.0
 10
484.5703381157
 20
43.2837889769
 30
0.0
  0
SPLINE
  5
5BB
100
AcDbEntity
  8
RUNDUNGEN
100
AcDbSpline
 62
7
  6
CONTINUOUS
 70
0
 71
3
 72
13
 73
9
 74
0
 42
0.0000001
 43
0.0000001
 44
0.0000000001
 40
0.0
 40
0.0
 40
0.0
 40
0.0
 40
0.2494185536
 40
0.4988218139
 40
0.6241166257
 40
0.7494130174
 40
0.8747019565
 40
1.0
 40
1.0
 40
1.0
 40
1.0
 10
461.3498748516
 20
42.7495541866
 30
0.0
 10
461.187242918
 20
42.7495540053
 30
0.0
 10
460.8586470951
 20
42.8133721708
 30
0.0
 10
460.5098149507
 20
43.0433942042
 30
0.0
 10
460.2998846979
 20
43.2951762429
 30
0.0
 10
460.1819591955
 20
43.5119441067
 30
0.0
 10
460.1091512204
 20
43.7475804223
 30
0.0
 10
460.0927162428
 20
43.9114440617
 30
0.0
 10
460.0927162298
 20
43.9931439305
 30
0.0
  0
SPLINE
  5
5BC
100
AcDbEntity
  8
0
100
AcDbSpline
 62
7
  6
CONTINUOUS
 70
0
 71
3
 72
11
 73
7
 74
0
 42
0.0000001
 43
0.0000001
 44
0.0000000001
 40
0.0
 40
0.0
 40
0.0
 40
0.0
 40
0.227142142
 40
0.4653047767
 40
0.7220182825
 40
1.0
 40
1.0
 40
1.0
 40
1.0
 10
462.6089279808
 20
113.0564164351
 30
0.0
 10
462.6089279808
 20
113.2127519348
 30
0.0
 10
462.5551313289
 20
113.535135882
 30
0.0
 10
462.3227754295
 20
113.9821451235
 30
0.0
 10
461.9564677465
 20
114.3753012793
 30
0.0
 10
461.6482173983
 20
114.5821440244
 30
0.0
 10
461.4799734653
 20
114.6732482315
 30
0.0
  0
SPLINE
  5
5BD
100
AcDbEntity
  8
RUNDUNGEN
100
AcDbSpline
 62
7
  6
CONTINUOUS
 70
0
 71
3
 72
13
 73
9
 74
0
 42
0.0000001
 43
0.0000001
 44
0.0000000001
 40
0.0
 40
0.0
 40
0.0
 40
0.0
 40
0.2870488383
 40
0.5535681889
 40
0.6755036401
 40
0.7893309605
 40
0.8965453445
 40
1.0
 40
1.0
 40
1.0
 40
1.0
 10
428.3527162298
 20
67.4225732045
 30
0.0
 10
427.8374494183
 20
67.4225732045
 30
0.0
 10
426.8386983138
 20
67.5567417672
 30
0.0
 10
425.7121858678
 20
68.0660813926
 30
0.0
 10
425.0207368807
 20
68.6532940869
 30
0.0
 10
424.6424396089
 20
69.1458693092
 30
0.0
 10
424.4066088007
 20
69.6852039874
 30
0.0
 10
424.3527162298
 20
70.0652941241
 30
0.0
 10
424.3527162298
 20
70.2510003292
 30
0.0
  0
SPLINE
  5
5BE
100
AcDbEntity
  8
RUNDUNGEN
100
AcDbSpline
 62
7
  6
CONTINUOUS
 70
0
 71
3
 72
10
 73
6
 74
0
 42
0.0000001
 43
0.0000001
 44
0.0000000001
 40
0.0
 40
0.0
 40
0.0
 40
0.0
 40
0.4720166319
 40
0.7322441348
 40
1.0
 40
1.0
 40
1.0
 40
1.0
 10
443.6790345485
 20
75.6997489904
 30
0.0
 10
443.2844895664
 20
75.3013165013
 30
0.0
 10
442.5005059327
 20
74.8473491215
 30
0.0
 10
441.3498451136
 20
74.5468078722
 30
0.0
 10
440.7205037335
 20
74.4936410163
 30
0.0
 10
440.4024263713
 20
74.4936410163
 30
0.0
  0
SPLINE
  5
5BF
100
AcDbEntity
  8
RUNDUNGEN
100
AcDbSpline
 62
7
  6
CONTINUOUS
 70
0
 71
3
 72
10
 73
6
 74
0
 42
0.0000001
 43
0.0000001
 44
0.0000000001
 40
0.0
 40
0.0
 40
0.0
 40
0.0
 40
0.2677556487
 40
0.52798306
 40
1.0
 40
1.0
 40
1.0
 40
1.0
 10
463.3030060882
 20
74.4936410163
 30
0.0
 10
462.9849289849
 20
74.4936410163
 30
0.0
 10
462.3555879784
 20
74.5468078058
 30
0.0
 10
461.2049271184
 20
74.8473488323
 30
0.0
 10
460.4209431486
 20
75.3013162434
 30
0.0
 10
460.0263979111
 20
75.6997489904
 30
0.0
  0
SPLINE
  5
5C0
100
AcDbEntity
  8
0
100
AcDbSpline
 62
7
  6
CONTINUOUS
 70
0
 71
3
 72
18
 73
14
 74
0
 42
0.0000001
 43
0.0000001
 44
0.0000000001
 40
0.0
 40
0.0
 40
0.0
 40
0.0
 40
0.053220101
 40
0.1095425706
 40
0.1695869285
 40
0.2334096405
 40
0.370074124
 40
0.5130595224
 40
0.6531726416
 40
0.7822120504
 40
0.8963120316
 40
0.9489712765
 40
1.0
 40
1.0
 40
1.0
 40
1.0
 10
452.3566486275
 20
112.101145298
 30
0.0
 10
452.3880716278
 20
112.0037399503
 30
0.0
 10
452.4784641819
 20
111.8108707336
 30
0.0
 10
452.6803953523
 20
111.5519290942
 30
0.0
 10
452.9441616396
 20
111.3240868962
 30
0.0
 10
453.3756904358
 20
111.0655672528
 30
0.0
 10
454.0147308143
 20
110.8631596702
 30
0.0
 10
454.8291713278
 20
110.8241202094
 30
0.0
 10
455.6143655608
 20
110.9870417872
 30
0.0
 10
456.2769257722
 20
111.3341473474
 30
0.0
 10
456.670614227
 20
111.7690673666
 30
0.0
 10
456.8285037846
 20
112.1610989761
 30
0.0
 10
456.8548513712
 20
112.3613910239
 30
0.0
 10
456.8548513712
 20
112.4595252068
 30
0.0
  0
SPLINE
  5
5C1
100
AcDbEntity
  8
0
100
AcDbSpline
 62
7
  6
CONTINUOUS
 70
0
 71
3
 72
11
 73
7
 74
0
 42
0.0000001
 43
0.0000001
 44
0.0000000001
 40
0.0
 40
0.0
 40
0.0
 40
0.0
 40
0.2094656921
 40
0.4446574861
 40
0.7119998836
 40
1.0
 40
1.0
 40
1.0
 40
1.0
 10
450.4140614902
 20
114.1237705284
 30
0.0
 10
450.4140614902
 20
114.2049638459
 30
0.0
 10
450.361350054
 20
114.3793712979
 30
0.0
 10
450.1594191227
 20
114.5790620978
 30
0.0
 10
449.8757997723
 20
114.7073221313
 30
0.0
 10
449.6591779984
 20
114.7365021472
 30
0.0
 10
449.5475430828
 20
114.7365021472
 30
0.0
  0
SPLINE
  5
5C2
100
AcDbEntity
  8
RUNDUNGEN
100
AcDbSpline
 62
7
  6
CONTINUOUS
 70
0
 71
3
 72
10
 73
6
 74
0
 42
0.0000001
 43
0.0000001
 44
0.0000000001
 40
0.0
 40
0.0
 40
0.0
 40
0.0
 40
0.5180947473
 40
0.7617139172
 40
1.0
 40
1.0
 40
1.0
 40
1.0
 10
417.5405892666
 20
118.60417626
 30
0.0
 10
417.3199482911
 20
118.8269912419
 30
0.0
 10
417.041740193
 20
119.2115999054
 30
0.0
 10
416.8494195962
 20
119.7890869249
 30
0.0
 10
416.8172272089
 20
120.0817627127
 30
0.0
 10
416.8171993845
 20
120.2259842748
 30
0.0
  0
SPLINE
  5
5C3
100
AcDbEntity
  8
RUNDUNGEN
100
AcDbSpline
 62
7
  6
CONTINUOUS
 70
0
 71
3
 72
11
 73
7
 74
0
 42
0.0000001
 43
0.0000001
 44
0.0000000001
 40
0.0
 40
0.0
 40
0.0
 40
0.0
 40
0.2524395071
 40
0.5157446812
 40
0.7702855009
 40
1.0
 40
1.0
 40
1.0
 40
1.0
 10
421.1046656833
 20
116.4843461611
 30
0.0
 10
420.9705881337
 20
116.4179614838
 30
0.0
 10
420.6724565505
 20
116.3288027227
 30
0.0
 10
420.2107076446
 20
116.3223348981
 30
0.0
 10
419.7767727014
 20
116.436245696
 30
0.0
 10
419.5291864575
 20
116.5959851423
 30
0.0
 10
419.4333915065
 20
116.6927239743
 30
0.0
  0
SPLINE
  5
5C4
100
AcDbEntity
  8
0
100
AcDbSpline
 62
7
  6
CONTINUOUS
 70
0
 71
3
 72
9
 73
5
 74
0
 42
0.0000001
 43
0.0000001
 44
0.0000000001
 40
0.0
 40
0.0
 40
0.0
 40
0.0
 40
0.4402133985
 40
1.0
 40
1.0
 40
1.0
 40
1.0
 10
442.1029020416
 20
111.8401927715
 30
0.0
 10
442.1029020416
 20
111.8216494004
 30
0.0
 10
442.131460273
 20
111.7812690102
 30
0.0
 10
442.1753218173
 20
111.7723105205
 30
0.0
 10
442.1989020416
 20
111.7723105205
 30
0.0
  0
SPLINE
  5
5C5
100
AcDbEntity
  8
RUNDUNGEN
100
AcDbSpline
 62
7
  6
CONTINUOUS
 70
0
 71
3
 72
9
 73
5
 74
0
 42
0.0000001
 43
0.0000001
 44
0.0000000001
 40
0.0
 40
0.0
 40
0.0
 40
0.0
 40
0.5194830631
 40
1.0
 40
1.0
 40
1.0
 40
1.0
 10
425.2265135137
 20
110.8425215244
 30
0.0
 10
425.1602465155
 20
110.9094414606
 30
0.0
 10
425.0508397836
 20
111.0595703583
 30
0.0
 10
425.0094506643
 20
111.2425758084
 30
0.0
 10
425.0095055635
 20
111.3296900308
 30
0.0
  0
SPLINE
  5
5C6
100
AcDbEntity
  8
0
100
AcDbSpline
 62
7
  6
CONTINUOUS
 70
0
 71
3
 72
9
 73
5
 74
0
 42
0.0000001
 43
0.0000001
 44
0.0000000001
 40
0.0
 40
0.0
 40
0.0
 40
0.0
 40
0.4402133985
 40
1.0
 40
1.0
 40
1.0
 40
1.0
 10
442.7629020416
 20
113.5711901718
 30
0.0
 10
442.7629020416
 20
113.5897335429
 30
0.0
 10
442.7343438101
 20
113.6301139331
 30
0.0
 10
442.6904822659
 20
113.6390724228
 30
0.0
 10
442.6669020416
 20
113.6390724228
 30
0.0
  0
SPLINE
  5
5C7
100
AcDbEntity
  8
0
100
AcDbSpline
 62
7
  6
CONTINUOUS
 70
0
 71
3
 72
9
 73
5
 74
0
 42
0.0000001
 43
0.0000001
 44
0.0000000001
 40
0.0
 40
0.0
 40
0.0
 40
0.0
 40
0.4402133985
 40
1.0
 40
1.0
 40
1.0
 40
1.0
 10
442.1029020416
 20
113.5372490463
 30
0.0
 10
442.1029020416
 20
113.5187056753
 30
0.0
 10
442.131460273
 20
113.478325285
 30
0.0
 10
442.1753218173
 20
113.4693667953
 30
0.0
 10
442.1989020416
 20
113.4693667953
 30
0.0
  0
SPLINE
  5
5C8
100
AcDbEntity
  8
0
100
AcDbSpline
 62
7
  6
CONTINUOUS
 70
0
 71
3
 72
11
 73
7
 74
0
 42
0.0000001
 43
0.0000001
 44
0.0000000001
 40
0.0
 40
0.0
 40
0.0
 40
0.0
 40
0.2094668498
 40
0.4446559298
 40
0.7120302568
 40
1.0
 40
1.0
 40
1.0
 40
1.0
 10
443.4229020416
 20
112.7056914716
 30
0.0
 10
443.4229020416
 20
112.7281795314
 30
0.0
 10
443.4082976712
 20
112.7764826889
 30
0.0
 10
443.352372348
 20
112.8317972326
 30
0.0
 10
443.2738143559
 20
112.8673142744
 30
0.0
 10
443.2138180591
 20
112.8753970991
 30
0.0
 10
443.1829020416
 20
112.8753970991
 30
0.0
  0
SPLINE
  5
5C9
100
AcDbEntity
  8
0
100
AcDbSpline
 62
7
  6
CONTINUOUS
 70
0
 71
3
 72
11
 73
7
 74
0
 42
0.0000001
 43
0.0000001
 44
0.0000000001
 40
0.0
 40
0.0
 40
0.0
 40
0.0
 40
0.2094668498
 40
0.4446559298
 40
0.7120302568
 40
1.0
 40
1.0
 40
1.0
 40
1.0
 10
443.4229020416
 20
114.4027477465
 30
0.0
 10
443.4229020416
 20
114.4252358063
 30
0.0
 10
443.4082976712
 20
114.4735389637
 30
0.0
 10
443.352372348
 20
114.5288535074
 30
0.0
 10
443.2738143559
 20
114.5643705492
 30
0.0
 10
443.2138180591
 20
114.572453374
 30
0.0
 10
443.1829020416
 20
114.572453374
 30
0.0
  0
SPLINE
  5
5CA
100
AcDbEntity
  8
0
100
AcDbSpline
 62
7
  6
CONTINUOUS
 70
0
 71
3
 72
9
 73
5
 74
0
 42
0.0000001
 43
0.0000001
 44
0.0000000001
 40
0.0
 40
0.0
 40
0.0
 40
0.0
 40
0.2432035461
 40
1.0
 40
1.0
 40
1.0
 40
1.0
 10
440.1829020416
 20
111.1783408243
 30
0.0
 10
440.1829020416
 20
111.165022731
 30
0.0
 10
440.1874557229
 20
111.1102597151
 30
0.0
 10
440.2109887258
 20
111.0578733665
 30
0.0
 10
440.2352180815
 20
111.0242510379
 30
0.0
  0
SPLINE
  5
5CB
100
AcDbEntity
  8
0
100
AcDbSpline
 62
7
  6
CONTINUOUS
 70
0
 71
3
 72
9
 73
5
 74
0
 42
0.0000001
 43
0.0000001
 44
0.0000000001
 40
0.0
 40
0.0
 40
0.0
 40
0.0
 40
0.4654299385
 40
1.0
 40
1.0
 40
1.0
 40
1.0
 10
440.2352180815
 20
111.0242510379
 30
0.0
 10
440.2786142196
 20
110.9640315574
 30
0.0
 10
440.4166529253
 20
110.8676133394
 30
0.0
 10
440.5776488255
 20
110.8389295693
 30
0.0
 10
440.6629020416
 20
110.8389295693
 30
0.0
  0
SPLINE
  5
5CC
100
AcDbEntity
  8
RUNDUNGEN
100
AcDbSpline
 62
7
  6
CONTINUOUS
 70
0
 71
3
 72
13
 73
9
 74
0
 42
0.0000001
 43
0.0000001
 44
0.0000000001
 40
0.0
 40
0.0
 40
0.0
 40
0.0
 40
0.1034545843
 40
0.2106688645
 40
0.3244961754
 40
0.4464316245
 40
0.7129509376
 40
1.0
 40
1.0
 40
1.0
 40
1.0
 10
479.3527162298
 20
70.2510003292
 30
0.0
 10
479.3527162298
 20
70.0652942518
 30
0.0
 10
479.2988237728
 20
69.6852044255
 30
0.0
 10
479.062993213
 20
69.1458700151
 30
0.0
 10
478.6846962812
 20
68.6532947963
 30
0.0
 10
477.9932475176
 20
68.0660819645
 30
0.0
 10
476.8667349064
 20
67.556741895
 30
0.0
 10
475.8679834433
 20
67.4225732045
 30
0.0
 10
475.3527162298
 20
67.4225732045
 30
0.0
  0
SPLINE
  5
5CD
100
AcDbEntity
  8
RUNDUNGEN
100
AcDbSpline
 62
7
  6
CONTINUOUS
 70
0
 71
3
 72
11
 73
7
 74
0
 42
0.0000001
 43
0.0000001
 44
0.0000000001
 40
0.0
 40
0.0
 40
0.0
 40
0.0
 40
0.2256927635
 40
0.4632951072
 40
0.7206222905
 40
1.0
 40
1.0
 40
1.0
 40
1.0
 10
429.0772371527
 20
118.0558841724
 30
0.0
 10
429.0771629774
 20
117.9422792857
 30
0.0
 10
429.0358478527
 20
117.707440351
 30
0.0
 10
428.8589596696
 20
117.3846347922
 30
0.0
 10
428.5819342884
 20
117.1045726818
 30
0.0
 10
428.3504322955
 20
116.9606363668
 30
0.0
 10
428.2244059894
 20
116.8982380333
 30
0.0
  0
SPLINE
  5
5CE
100
AcDbEntity
  8
RUNDUNGEN
100
AcDbSpline
 62
7
  6
CONTINUOUS
 70
0
 71
3
 72
9
 73
5
 74
0
 42
0.0000001
 43
0.0000001
 44
0.0000000001
 40
0.0
 40
0.0
 40
0.0
 40
0.0
 40
0.4805194799
 40
1.0
 40
1.0
 40
1.0
 40
1.0
 10
487.9878660739
 20
120.7131675056
 30
0.0
 10
487.9879179407
 20
120.6260552375
 30
0.0
 10
487.9465259978
 20
120.4430564198
 30
0.0
 10
487.8371220498
 20
120.2929323146
 30
0.0
 10
487.7708572148
 20
120.2260145629
 30
0.0
  0
SPLINE
  5
5CF
100
AcDbEntity
  8
RUNDUNGEN
100
AcDbSpline
 62
7
  6
CONTINUOUS
 70
0
 71
3
 72
11
 73
7
 74
0
 42
0.0000001
 43
0.0000001
 44
0.0000000001
 40
0.0
 40
0.0
 40
0.0
 40
0.0
 40
0.2256941656
 40
0.4632959394
 40
0.7206237852
 40
1.0
 40
1.0
 40
1.0
 40
1.0
 10
487.9878650837
 20
124.2487306254
 30
0.0
 10
487.9878205627
 20
124.3168939376
 30
0.0
 10
487.9630310822
 20
124.4577974273
 30
0.0
 10
487.8568978954
 20
124.6514809191
 30
0.0
 10
487.6906826865
 20
124.8195174388
 30
0.0
 10
487.5517818163
 20
124.9058789964
 30
0.0
 10
487.4761664853
 20
124.9433177725
 30
0.0
  0
SPLINE
  5
5D0
100
AcDbEntity
  8
RUNDUNGEN
100
AcDbSpline
 62
7
  6
CONTINUOUS
 70
0
 71
3
 72
11
 73
7
 74
0
 42
0.0000001
 43
0.0000001
 44
0.0000000001
 40
0.0
 40
0.0
 40
0.0
 40
0.0
 40
0.237780559
 40
0.4809056754
 40
0.7339193747
 40
1.0
 40
1.0
 40
1.0
 40
1.0
 10
439.4372244546
 20
97.3519250621
 30
0.0
 10
439.4372244392
 20
96.9191422384
 30
0.0
 10
439.3412166268
 20
96.0410538782
 30
0.0
 10
438.9155208356
 20
94.7652691743
 30
0.0
 10
438.2211638605
 20
93.5547802902
 30
0.0
 10
437.6078119439
 20
92.8290885139
 30
0.0
 10
437.267048986
 20
92.4849679709
 30
0.0
  0
SPLINE
  5
5D1
100
AcDbEntity
  8
RUNDUNGEN
100
AcDbSpline
 62
7
  6
CONTINUOUS
 70
0
 71
3
 72
9
 73
5
 74
0
 42
0.0000001
 43
0.0000001
 44
0.0000000001
 40
0.0
 40
0.0
 40
0.0
 40
0.0
 40
0.4843491198
 40
1.0
 40
1.0
 40
1.0
 40
1.0
 10
439.173609936
 20
95.5851163963
 30
0.0
 10
439.002824462
 20
96.1516741518
 30
0.0
 10
438.4844357269
 20
97.2755534917
 30
0.0
 10
437.7103238421
 20
98.2357064638
 30
0.0
 10
437.267048986
 20
98.6833489691
 30
0.0
  0
SPLINE
  5
5D2
100
AcDbEntity
  8
RUNDUNGEN
100
AcDbSpline
 62
7
  6
CONTINUOUS
 70
0
 71
3
 72
13
 73
9
 74
0
 42
0.0000001
 43
0.0000001
 44
0.0000000001
 40
0.0
 40
0.0
 40
0.0
 40
0.0
 40
0.1034545843
 40
0.2106688645
 40
0.3244961754
 40
0.4464316245
 40
0.7129509376
 40
1.0
 40
1.0
 40
1.0
 40
1.0
 10
472.7527162298
 20
71.6652138916
 30
0.0
 10
472.7527162298
 20
71.8509199689
 30
0.0
 10
472.6988237728
 20
72.2310097952
 30
0.0
 10
472.462993213
 20
72.7703442056
 30
0.0
 10
472.0846962812
 20
73.2629194245
 30
0.0
 10
471.3932475176
 20
73.8501322563
 30
0.0
 10
470.2667349064
 20
74.3594723258
 30
0.0
 10
469.2679834433
 20
74.4936410163
 30
0.0
 10
468.7527162298
 20
74.4936410163
 30
0.0
  0
SPLINE
  5
5D3
100
AcDbEntity
  8
BEZUGSACHSEN
100
AcDbSpline
 62
7
  6
CONTINUOUS
 70
0
 71
3
 72
19
 73
15
 74
0
 42
0.0000001
 43
0.0000001
 44
0.0000000001
 40
0.0
 40
0.0
 40
0.0
 40
0.0
 40
0.051729057
 40
0.1053341786
 40
0.1622493009
 40
0.2232160554
 40
0.3564757248
 40
0.5
 40
0.6435242752
 40
0.7767839446
 40
0.8377506991
 40
0.8946658214
 40
0.948270943
 40
1.0
 40
1.0
 40
1.0
 40
1.0
 10
446.8527162298
 20
119.5516479863
 30
0.0
 10
446.8527162298
 20
119.3195077473
 30
0.0
 10
446.9200779216
 20
118.8443949737
 30
0.0
 10
447.2148815523
 20
118.1702315134
 30
0.0
 10
447.6877588084
 20
117.5545133504
 30
0.0
 10
448.5519745395
 20
116.8205068458
 30
0.0
 10
449.9610282513
 20
116.1838334966
 30
0.0
 10
451.8527162298
 20
115.9291608705
 30
0.0
 10
453.7444042082
 20
116.1838334966
 30
0.0
 10
455.1534579201
 20
116.8205068458
 30
0.0
 10
456.0176736512
 20
117.5545133504
 30
0.0
 10
456.4905509073
 20
118.1702315134
 30
0.0
 10
456.7853545379
 20
118.8443949737
 30
0.0
 10
456.8527162298
 20
119.3195077473
 30
0.0
 10
456.8527162298
 20
119.5516479863
 30
0.0
  0
SPLINE
  5
5D4
100
AcDbEntity
  8
BEZUGSACHSEN
100
AcDbSpline
 62
7
  6
CONTINUOUS
 70
0
 71
3
 72
9
 73
5
 74
0
 42
0.0000001
 43
0.0000001
 44
0.0000000001
 40
0.0
 40
0.0
 40
0.0
 40
0.0
 40
0.4784360623
 40
1.0
 40
1.0
 40
1.0
 40
1.0
 10
456.1814655005
 20
117.7855573442
 30
0.0
 10
455.9539733784
 20
118.0638672293
 30
0.0
 10
455.3873893906
 20
118.5733598699
 30
0.0
 10
454.7178284352
 20
118.9287068176
 30
0.0
 10
454.3551081678
 20
119.0769893086
 30
0.0
  0
SPLINE
  5
5D5
100
AcDbEntity
  8
BEZUGSACHSEN
100
AcDbSpline
 62
7
  6
CONTINUOUS
 70
0
 71
3
 72
9
 73
5
 74
0
 42
0.0000001
 43
0.0000001
 44
0.0000000001
 40
0.0
 40
0.0
 40
0.0
 40
0.0
 40
0.5215639377
 40
1.0
 40
1.0
 40
1.0
 40
1.0
 10
449.3503242918
 20
119.0769893086
 30
0.0
 10
448.9876040244
 20
118.9287068176
 30
0.0
 10
448.318043069
 20
118.5733598699
 30
0.0
 10
447.7514590812
 20
118.0638672293
 30
0.0
 10
447.5239669591
 20
117.7855573442
 30
0.0
  0
SPLINE
  5
5D6
100
AcDbEntity
  8
RUNDUNGEN
100
AcDbSpline
 62
7
  6
CONTINUOUS
 70
0
 71
3
 72
10
 73
6
 74
0
 42
0.0000001
 43
0.0000001
 44
0.0000000001
 40
0.0
 40
0.0
 40
0.0
 40
0.0
 40
0.5180752096
 40
0.7617173681
 40
1.0
 40
1.0
 40
1.0
 40
1.0
 10
425.0761080526
 20
80.1739079885
 30
0.0
 10
424.8554134594
 20
79.9510388604
 30
0.0
 10
424.5771539605
 20
79.566300548
 30
0.0
 10
424.3848124488
 20
78.9886314758
 30
0.0
 10
424.3527162298
 20
78.6958488007
 30
0.0
 10
424.3527162298
 20
78.5515888378
 30
0.0
  0
SPLINE
  5
5D7
100
AcDbEntity
  8
RUNDUNGEN
100
AcDbSpline
 62
7
  6
CONTINUOUS
 70
0
 71
3
 72
11
 73
7
 74
0
 42
0.0000001
 43
0.0000001
 44
0.0000000001
 40
0.0
 40
0.0
 40
0.0
 40
0.0
 40
0.2793752682
 40
0.5367194959
 40
0.7743217448
 40
1.0
 40
1.0
 40
1.0
 40
1.0
 10
425.5212042432
 20
115.5598247339
 30
0.0
 10
425.4455852016
 20
115.5223841208
 30
0.0
 10
425.3066738118
 20
115.436014363
 30
0.0
 10
425.1404489864
 20
115.2679618703
 30
0.0
 10
425.0343225419
 20
115.0742604102
 30
0.0
 10
425.0095430381
 20
114.9333522728
 30
0.0
 10
425.0095045295
 20
114.8651901867
 30
0.0
  0
SPLINE
  5
5D8
100
AcDbEntity
  8
RUNDUNGEN
100
AcDbSpline
 62
7
  6
CONTINUOUS
 70
0
 71
3
 72
11
 73
7
 74
0
 42
0.0000001
 43
0.0000001
 44
0.0000000001
 40
0.0
 40
0.0
 40
0.0
 40
0.0
 40
0.2794013718
 40
0.5367226037
 40
0.7743080703
 40
1.0
 40
1.0
 40
1.0
 40
1.0
 10
418.5228916983
 20
126.0789411779
 30
0.0
 10
418.2706418897
 20
125.9540468747
 30
0.0
 10
417.8073145933
 20
125.6659222577
 30
0.0
 10
417.2530313225
 20
125.105234935
 30
0.0
 10
416.8993788747
 20
124.4589611832
 30
0.0
 10
416.817155519
 20
123.9888856613
 30
0.0
 10
416.8171993845
 20
123.7615181808
 30
0.0
  0
SPLINE
  5
5D9
100
AcDbEntity
  8
RUNDUNGEN
100
AcDbSpline
 62
7
  6
CONTINUOUS
 70
0
 71
3
 72
13
 73
9
 74
0
 42
0.0000001
 43
0.0000001
 44
0.0000000001
 40
0.0
 40
0.0
 40
0.0
 40
0.0
 40
0.2294024287
 40
0.3545996847
 40
0.4843111938
 40
0.616248878
 40
0.747903971
 40
1.0
 40
1.0
 40
1.0
 40
1.0
 10
434.0884805933
 20
125.1536189766
 30
0.0
 10
433.2902020993
 20
125.9597630204
 30
0.0
 10
431.7737210602
 20
126.9382790874
 30
0.0
 10
429.5128282394
 20
127.7383960275
 30
0.0
 10
427.627931866
 20
128.1080252692
 30
0.0
 10
425.6789255861
 20
128.2120479872
 30
0.0
 10
423.1334219258
 20
127.9976580872
 30
0.0
 10
421.2784884627
 20
127.4432963772
 30
0.0
 10
420.1611957869
 20
126.8901007533
 30
0.0
  0
SPLINE
  5
5DA
100
AcDbEntity
  8
0
100
AcDbSpline
 62
7
  6
CONTINUOUS
 70
0
 71
3
 72
9
 73
5
 74
0
 42
0.0000001
 43
0.0000001
 44
0.0000000001
 40
0.0
 40
0.0
 40
0.0
 40
0.0
 40
0.2423574743
 40
1.0
 40
1.0
 40
1.0
 40
1.0
 10
458.735633466
 20
124.0275098362
 30
0.0
 10
458.4030562651
 20
124.1921759582
 30
0.0
 10
457.0018943605
 20
124.8124901655
 30
0.0
 10
455.502222057
 20
125.2025811192
 30
0.0
 10
454.3550405968
 20
125.3754961498
 30
0.0
  0
SPLINE
  5
5DB
100
AcDbEntity
  8
0
100
AcDbSpline
 62
7
  6
CONTINUOUS
 70
0
 71
3
 72
9
 73
5
 74
0
 42
0.0000001
 43
0.0000001
 44
0.0000000001
 40
0.0
 40
0.0
 40
0.0
 40
0.0
 40
0.2572745118
 40
1.0
 40
1.0
 40
1.0
 40
1.0
 10
449.3503918627
 20
125.3754961498
 30
0.0
 10
448.9608744394
 20
125.3167840632
 30
0.0
 10
447.4559613995
 20
125.0343749388
 30
0.0
 10
445.988922299
 20
124.5320996943
 30
0.0
 10
444.9697989936
 20
124.0275098362
 30
0.0
  0
SPLINE
  5
5DC
100
AcDbEntity
  8
RUNDUNGEN
100
AcDbSpline
 62
7
  6
CONTINUOUS
 70
0
 71
3
 72
11
 73
7
 74
0
 42
0.0000001
 43
0.0000001
 44
0.0000000001
 40
0.0
 40
0.0
 40
0.0
 40
0.0
 40
0.2524504675
 40
0.5157648302
 40
0.7702974388
 40
1.0
 40
1.0
 40
1.0
 40
1.0
 10
481.5782717664
 20
127.8634922437
 30
0.0
 10
481.4441883884
 20
127.9298798067
 30
0.0
 10
481.1460440182
 20
128.0190400571
 30
0.0
 10
480.6842876153
 20
128.025499845
 30
0.0
 10
480.2503607552
 20
127.911584233
 30
0.0
 10
480.0027875672
 20
127.7518482402
 30
0.0
 10
479.9069975896
 20
127.6551144305
 30
0.0
  0
SPLINE
  5
5DD
100
AcDbEntity
  8
RUNDUNGEN
100
AcDbSpline
 62
7
  6
CONTINUOUS
 70
0
 71
3
 72
10
 73
6
 74
0
 42
0.0000001
 43
0.0000001
 44
0.0000000001
 40
0.0
 40
0.0
 40
0.0
 40
0.0
 40
0.2382827206
 40
0.4819249463
 40
1.0
 40
1.0
 40
1.0
 40
1.0
 10
479.3527162298
 20
78.5515888378
 30
0.0
 10
479.3527162298
 20
78.6958488546
 30
0.0
 10
479.3206199808
 20
78.9886316244
 30
0.0
 10
479.1282784179
 20
79.566300682
 30
0.0
 10
478.8500189341
 20
79.9510389272
 30
0.0
 10
478.6293244069
 20
80.1739079885
 30
0.0
  0
SPLINE
  5
5DE
100
AcDbEntity
  8
0
100
AcDbSpline
 62
7
  6
CONTINUOUS
 70
0
 71
3
 72
11
 73
7
 74
0
 42
0.0000001
 43
0.0000001
 44
0.0000000001
 40
0.0
 40
0.0
 40
0.0
 40
0.0
 40
0.2880052506
 40
0.5553344723
 40
0.7905070702
 40
1.0
 40
1.0
 40
1.0
 40
1.0
 10
444.5029020416
 20
110.8389295693
 30
0.0
 10
444.5647412676
 20
110.8389295693
 30
0.0
 10
444.6847380028
 20
110.8550828889
 30
0.0
 10
444.8418205169
 20
110.9261589134
 30
0.0
 10
444.9536998612
 20
111.036743829
 30
0.0
 10
444.9829020416
 20
111.1333594199
 30
0.0
 10
444.9829020416
 20
111.1783408243
 30
0.0
  0
SPLINE
  5
5DF
100
AcDbEntity
  8
0
100
AcDbSpline
 62
7
  6
CONTINUOUS
 70
0
 71
3
 72
11
 73
7
 74
0
 42
0.0000001
 43
0.0000001
 44
0.0000000001
 40
0.0
 40
0.0
 40
0.0
 40
0.0
 40
0.2879697432
 40
0.5553440702
 40
0.7905331502
 40
1.0
 40
1.0
 40
1.0
 40
1.0
 10
441.9829020416
 20
112.8753970991
 30
0.0
 10
441.951986024
 20
112.8753970991
 30
0.0
 10
441.8919897273
 20
112.8673142744
 30
0.0
 10
441.8134317351
 20
112.8317972326
 30
0.0
 10
441.757506412
 20
112.7764826889
 30
0.0
 10
441.7429020416
 20
112.7281795314
 30
0.0
 10
441.7429020416
 20
112.7056914716
 30
0.0
  0
SPLINE
  5
5E0
100
AcDbEntity
  8
0
100
AcDbSpline
 62
7
  6
CONTINUOUS
 70
0
 71
3
 72
11
 73
7
 74
0
 42
0.0000001
 43
0.0000001
 44
0.0000000001
 40
0.0
 40
0.0
 40
0.0
 40
0.0
 40
0.2879697432
 40
0.5553440702
 40
0.7905331502
 40
1.0
 40
1.0
 40
1.0
 40
1.0
 10
441.9829020416
 20
114.572453374
 30
0.0
 10
441.951986024
 20
114.572453374
 30
0.0
 10
441.8919897273
 20
114.5643705492
 30
0.0
 10
441.8134317351
 20
114.5288535074
 30
0.0
 10
441.757506412
 20
114.4735389637
 30
0.0
 10
441.7429020416
 20
114.4252358063
 30
0.0
 10
441.7429020416
 20
114.4027477465
 30
0.0
  0
SPLINE
  5
5E1
100
AcDbEntity
  8
0
100
AcDbSpline
 62
7
  6
CONTINUOUS
 70
0
 71
3
 72
9
 73
5
 74
0
 42
0.0000001
 43
0.0000001
 44
0.0000000001
 40
0.0
 40
0.0
 40
0.0
 40
0.0
 40
0.5597866015
 40
1.0
 40
1.0
 40
1.0
 40
1.0
 10
442.4989020416
 20
113.6390724228
 30
0.0
 10
442.4753218173
 20
113.6390724228
 30
0.0
 10
442.431460273
 20
113.6301139331
 30
0.0
 10
442.4029020416
 20
113.5897335429
 30
0.0
 10
442.4029020416
 20
113.5711901718
 30
0.0
  0
SPLINE
  5
5E2
100
AcDbEntity
  8
0
100
AcDbSpline
 62
7
  6
CONTINUOUS
 70
0
 71
3
 72
9
 73
5
 74
0
 42
0.0000001
 43
0.0000001
 44
0.0000000001
 40
0.0
 40
0.0
 40
0.0
 40
0.0
 40
0.5597866015
 40
1.0
 40
1.0
 40
1.0
 40
1.0
 10
442.9669020416
 20
113.4693667953
 30
0.0
 10
442.9904822659
 20
113.4693667953
 30
0.0
 10
443.0343438101
 20
113.478325285
 30
0.0
 10
443.0629020416
 20
113.5187056753
 30
0.0
 10
443.0629020416
 20
113.5372490463
 30
0.0
  0
SPLINE
  5
5E3
100
AcDbEntity
  8
0
100
AcDbSpline
 62
7
  6
CONTINUOUS
 70
0
 71
3
 72
9
 73
5
 74
0
 42
0.0000001
 43
0.0000001
 44
0.0000000001
 40
0.0
 40
0.0
 40
0.0
 40
0.0
 40
0.5597866015
 40
1.0
 40
1.0
 40
1.0
 40
1.0
 10
442.9669020416
 20
111.7723105205
 30
0.0
 10
442.9904822659
 20
111.7723105205
 30
0.0
 10
443.0343438101
 20
111.7812690102
 30
0.0
 10
443.0629020416
 20
111.8216494004
 30
0.0
 10
443.0629020416
 20
111.8401927715
 30
0.0
  0
SPLINE
  5
5E4
100
AcDbEntity
  8
0
100
AcDbSpline
 62
7
  6
CONTINUOUS
 70
0
 71
3
 72
11
 73
7
 74
0
 42
0.0000001
 43
0.0000001
 44
0.0000000001
 40
0.0
 40
0.0
 40
0.0
 40
0.0
 40
0.2865059912
 40
0.5484241175
 40
0.7833822346
 40
1.0
 40
1.0
 40
1.0
 40
1.0
 10
450.045261898
 20
113.0525999925
 30
0.0
 10
450.1982089965
 20
113.0881333861
 30
0.0
 10
450.4849552196
 20
113.1892382681
 30
0.0
 10
450.8435647693
 20
113.4358012796
 30
0.0
 10
451.0836567306
 20
113.7552435215
 30
0.0
 10
451.14209084
 20
114.0053058291
 30
0.0
 10
451.1420730307
 20
114.1240238672
 30
0.0
  0
SPLINE
  5
5E5
100
AcDbEntity
  8
0
100
AcDbSpline
 62
7
  6
CONTINUOUS
 70
0
 71
3
 72
9
 73
5
 74
0
 42
0.0000001
 43
0.0000001
 44
0.0000000001
 40
0.0
 40
0.0
 40
0.0
 40
0.0
 40
0.2536121958
 40
1.0
 40
1.0
 40
1.0
 40
1.0
 10
461.3172250253
 20
110.8389295693
 30
0.0
 10
461.3336511591
 20
110.8389295693
 30
0.0
 10
461.3983894257
 20
110.8412762673
 30
0.0
 10
461.4628612088
 20
110.8529718486
 30
0.0
 10
461.5090582862
 20
110.8672138406
 30
0.0
  0
SPLINE
  5
5E6
100
AcDbEntity
  8
0
100
AcDbSpline
 62
7
  6
CONTINUOUS
 70
0
 71
3
 72
12
 73
8
 74
0
 42
0.0000001
 43
0.0000001
 44
0.0000000001
 40
0.0
 40
0.0
 40
0.0
 40
0.0
 40
0.2844670851
 40
0.5445747
 40
0.7798379195
 40
0.8910272787
 40
1.0
 40
1.0
 40
1.0
 40
1.0
 10
461.5090582862
 20
110.8672138406
 30
0.0
 10
461.7959345205
 20
110.9556542626
 30
0.0
 10
462.3298364528
 20
111.1846553774
 30
0.0
 10
462.9885159198
 20
111.6945281342
 30
0.0
 10
463.3566741401
 20
112.2360422927
 30
0.0
 10
463.5020259018
 20
112.6970729733
 30
0.0
 10
463.5262084968
 20
112.9301033202
 30
0.0
 10
463.5262084968
 20
113.0451027266
 30
0.0
  0
SPLINE
  5
5E7
100
AcDbEntity
  8
0
100
AcDbSpline
 62
7
  6
CONTINUOUS
 70
0
 71
3
 72
9
 73
5
 74
0
 42
0.0000001
 43
0.0000001
 44
0.0000000001
 40
0.0
 40
0.0
 40
0.0
 40
0.0
 40
0.239729366
 40
1.0
 40
1.0
 40
1.0
 40
1.0
 10
461.4799734653
 20
114.6732482315
 30
0.0
 10
461.4693683392
 20
114.6789909147
 30
0.0
 10
461.4234228989
 20
114.6997367096
 30
0.0
 10
461.372301397
 20
114.708217876
 30
0.0
 10
461.3340542077
 20
114.708217876
 30
0.0
  0
SPLINE
  5
5E8
100
AcDbEntity
  8
RUNDUNGEN
100
AcDbSpline
 62
7
  6
CONTINUOUS
 70
0
 71
3
 72
13
 73
9
 74
0
 42
0.0000001
 43
0.0000001
 44
0.0000000001
 40
0.0
 40
0.0
 40
0.0
 40
0.0
 40
0.2870488383
 40
0.5535681889
 40
0.6755036401
 40
0.7893309605
 40
0.8965453445
 40
1.0
 40
1.0
 40
1.0
 40
1.0
 10
434.9527162298
 20
74.4936410163
 30
0.0
 10
434.4374494183
 20
74.4936410163
 30
0.0
 10
433.4386983138
 20
74.3594724536
 30
0.0
 10
432.3121858678
 20
73.8501328281
 30
0.0
 10
431.6207368807
 20
73.2629201339
 30
0.0
 10
431.2424396089
 20
72.7703449116
 30
0.0
 10
431.0066088007
 20
72.2310102334
 30
0.0
 10
430.9527162298
 20
71.8509200967
 30
0.0
 10
430.9527162298
 20
71.6652138916
 30
0.0
  0
SPLINE
  5
5E9
100
AcDbEntity
  8
RUNDUNGEN
100
AcDbSpline
 62
7
  6
CONTINUOUS
 70
0
 71
3
 72
13
 73
9
 74
0
 42
0.0000001
 43
0.0000001
 44
0.0000000001
 40
0.0
 40
0.0
 40
0.0
 40
0.0
 40
0.2360075932
 40
0.3661259598
 40
0.4999999244
 40
0.6338738582
 40
0.7639922548
 40
1.0
 40
1.0
 40
1.0
 40
1.0
 10
455.9484764512
 20
79.8178507817
 30
0.0
 10
455.4552967523
 20
80.3158898493
 30
0.0
 10
454.4754970575
 20
80.8833704686
 30
0.0
 10
453.036633067
 20
81.2590124402
 30
0.0
 10
451.8527170172
 20
81.3591951695
 30
0.0
 10
450.6688008583
 20
81.2590126789
 30
0.0
 10
449.2299363611
 20
80.8833709014
 30
0.0
 10
448.2501360249
 20
80.31589017
 30
0.0
 10
447.7569560083
 20
79.8178507817
 30
0.0
  0
SPLINE
  5
5EA
100
AcDbEntity
  8
RUNDUNGEN
100
AcDbSpline
 62
7
  6
CONTINUOUS
 70
0
 71
3
 72
9
 73
5
 74
0
 42
0.0000001
 43
0.0000001
 44
0.0000000001
 40
0.0
 40
0.0
 40
0.0
 40
0.0
 40
0.5156509212
 40
1.0
 40
1.0
 40
1.0
 40
1.0
 10
466.4383834735
 20
98.6833489691
 30
0.0
 10
465.9951059411
 20
98.2357037611
 30
0.0
 10
465.2209899289
 20
97.2755444741
 30
0.0
 10
464.7026007038
 20
96.1516569812
 30
0.0
 10
464.5318161601
 20
95.5850953153
 30
0.0
  0
SPLINE
  5
5EB
100
AcDbEntity
  8
RUNDUNGEN
100
AcDbSpline
 62
7
  6
CONTINUOUS
 70
0
 71
3
 72
11
 73
7
 74
0
 42
0.0000001
 43
0.0000001
 44
0.0000000001
 40
0.0
 40
0.0
 40
0.0
 40
0.0
 40
0.2660806488
 40
0.5190943636
 40
0.7622194616
 40
1.0
 40
1.0
 40
1.0
 40
1.0
 10
466.4383834735
 20
92.4849679709
 30
0.0
 10
466.0976204409
 20
92.8290885894
 30
0.0
 10
465.4842684185
 20
93.5547805358
 30
0.0
 10
464.7899113871
 20
94.7652696456
 30
0.0
 10
464.3642156797
 20
96.0410545258
 30
0.0
 10
464.2682079897
 20
96.9191429408
 30
0.0
 10
464.268208005
 20
97.3519257838
 30
0.0
  0
SPLINE
  5
5EC
100
AcDbEntity
  8
RUNDUNGEN
100
AcDbSpline
 62
7
  6
CONTINUOUS
 70
0
 71
3
 72
11
 73
7
 74
0
 42
0.0000001
 43
0.0000001
 44
0.0000000001
 40
0.0
 40
0.0
 40
0.0
 40
0.0
 40
0.2297153182
 40
0.4842567112
 40
0.7475604635
 40
1.0
 40
1.0
 40
1.0
 40
1.0
 10
426.5933243907
 20
117.4754631051
 30
0.0
 10
426.4336655743
 20
117.6366950622
 30
0.0
 10
426.021020283
 20
117.9029277694
 30
0.0
 10
425.2977952384
 20
118.0927784035
 30
0.0
 10
424.52821469
 20
118.0819980036
 30
0.0
 10
424.0313300319
 20
117.9334005991
 30
0.0
 10
423.8078674294
 20
117.8227594605
 30
0.0
  0
SPLINE
  5
5ED
100
AcDbEntity
  8
RUNDUNGEN
100
AcDbSpline
 62
7
  6
CONTINUOUS
 70
0
 71
3
 72
12
 73
8
 74
0
 42
0.0000001
 43
0.0000001
 44
0.0000000001
 40
0.0
 40
0.0
 40
0.0
 40
0.0
 40
0.2295488423
 40
0.3548243544
 40
0.4846199331
 40
0.7477426437
 40
1.0
 40
1.0
 40
1.0
 40
1.0
 10
472.8257286492
 20
120.504072755
 30
0.0
 10
472.5064168605
 20
120.1816147426
 30
0.0
 10
471.8998584967
 20
119.7902243664
 30
0.0
 10
470.9954225584
 20
119.4701158105
 30
0.0
 10
469.9864344816
 20
119.2724987918
 30
0.0
 10
468.6952071474
 20
119.2911536077
 30
0.0
 10
467.7017331057
 20
119.5882011468
 30
0.0
 10
467.2548147266
 20
119.8094800444
 30
0.0
  0
SPLINE
  5
5EE
100
AcDbEntity
  8
RUNDUNGEN
100
AcDbSpline
 62
7
  6
CONTINUOUS
 70
0
 71
3
 72
12
 73
8
 74
0
 42
0.0000001
 43
0.0000001
 44
0.0000000001
 40
0.0
 40
0.0
 40
0.0
 40
0.0
 40
0.252259356
 40
0.5153839756
 40
0.6451803977
 40
0.7704553584
 40
1.0
 40
1.0
 40
1.0
 40
1.0
 10
441.6931908164
 20
122.4051906855
 30
0.0
 10
441.2462688885
 20
122.1839100308
 30
0.0
 10
440.2527867076
 20
121.8868612283
 30
0.0
 10
438.9615495759
 20
121.868210574
 30
0.0
 10
437.9525580144
 20
122.0658329857
 30
0.0
 10
437.0481313101
 20
122.3859446729
 30
0.0
 10
436.4415828436
 20
122.7773312802
 30
0.0
 10
436.1222768939
 20
123.0997833962
 30
0.0
  0
SPLINE
  5
5EF
100
AcDbEntity
  8
0
100
AcDbSpline
 62
7
  6
CONTINUOUS
 70
0
 71
3
 72
11
 73
7
 74
0
 42
0.0000001
 43
0.0000001
 44
0.0000000001
 40
0.0
 40
0.0
 40
0.0
 40
0.0
 40
0.2094668498
 40
0.4446559298
 40
0.7120302568
 40
1.0
 40
1.0
 40
1.0
 40
1.0
 10
441.7429020416
 20
111.6874577067
 30
0.0
 10
441.7429020416
 20
111.6649696469
 30
0.0
 10
441.757506412
 20
111.6166664895
 30
0.0
 10
441.8134317351
 20
111.5613519458
 30
0.0
 10
441.8919897273
 20
111.525834904
 30
0.0
 10
441.951986024
 20
111.5177520793
 30
0.0
 10
441.9829020416
 20
111.5177520793
 30
0.0
  0
SPLINE
  5
5F0
100
AcDbEntity
  8
0
100
AcDbSpline
 62
7
  6
CONTINUOUS
 70
0
 71
3
 72
11
 73
7
 74
0
 42
0.0000001
 43
0.0000001
 44
0.0000000001
 40
0.0
 40
0.0
 40
0.0
 40
0.0
 40
0.2271431222
 40
0.4653008165
 40
0.7220302627
 40
1.0
 40
1.0
 40
1.0
 40
1.0
 10
462.6089423735
 20
112.7735737226
 30
0.0
 10
462.6089423735
 20
112.6172369882
 30
0.0
 10
462.5551364677
 20
112.2948571746
 30
0.0
 10
462.3227894264
 20
111.8478315569
 30
0.0
 10
461.9564574084
 20
111.45469404
 30
0.0
 10
461.6482107502
 20
111.2478425334
 30
0.0
 10
461.4799734653
 20
111.1567419262
 30
0.0
  0
SPLINE
  5
5F1
100
AcDbEntity
  8
0
100
AcDbSpline
 62
7
  6
CONTINUOUS
 70
0
 71
3
 72
9
 73
5
 74
0
 42
0.0000001
 43
0.0000001
 44
0.0000000001
 40
0.0
 40
0.0
 40
0.0
 40
0.0
 40
0.4402133985
 40
1.0
 40
1.0
 40
1.0
 40
1.0
 10
443.0629020416
 20
114.2500126818
 30
0.0
 10
443.0629020416
 20
114.2685560528
 30
0.0
 10
443.0343438101
 20
114.3089364431
 30
0.0
 10
442.9904822659
 20
114.3178949328
 30
0.0
 10
442.9669020416
 20
114.3178949328
 30
0.0
  0
SPLINE
  5
5F2
100
AcDbEntity
  8
0
100
AcDbSpline
 62
7
  6
CONTINUOUS
 70
0
 71
3
 72
9
 73
5
 74
0
 42
0.0000001
 43
0.0000001
 44
0.0000000001
 40
0.0
 40
0.0
 40
0.0
 40
0.0
 40
0.4402133985
 40
1.0
 40
1.0
 40
1.0
 40
1.0
 10
443.0629020416
 20
113.9671699693
 30
0.0
 10
443.0629020416
 20
113.9857133403
 30
0.0
 10
443.0343438101
 20
114.0260937306
 30
0.0
 10
442.9904822659
 20
114.0350522203
 30
0.0
 10
442.9669020416
 20
114.0350522203
 30
0.0
  0
SPLINE
  5
5F3
100
AcDbEntity
  8
RUNDUNGEN
100
AcDbSpline
 62
7
  6
CONTINUOUS
 70
0
 71
3
 72
9
 73
5
 74
0
 42
0.0000001
 43
0.0000001
 44
0.0000000001
 40
0.0
 40
0.0
 40
0.0
 40
0.0
 40
0.4805181646
 40
1.0
 40
1.0
 40
1.0
 40
1.0
 10
425.0095045295
 20
114.8651901867
 30
0.0
 10
425.0094553165
 20
114.7780809989
 30
0.0
 10
425.0508498042
 20
114.5950895938
 30
0.0
 10
425.1602506738
 20
114.4449711672
 30
0.0
 10
425.2265135137
 20
114.3780554303
 30
0.0
  0
SPLINE
  5
5F4
100
AcDbEntity
  8
0
100
AcDbSpline
 62
7
  6
CONTINUOUS
 70
0
 71
3
 72
9
 73
5
 74
0
 42
0.0000001
 43
0.0000001
 44
0.0000000001
 40
0.0
 40
0.0
 40
0.0
 40
0.0
 40
0.4402133985
 40
1.0
 40
1.0
 40
1.0
 40
1.0
 10
443.0629020416
 20
112.5529564069
 30
0.0
 10
443.0629020416
 20
112.571499778
 30
0.0
 10
443.0343438101
 20
112.6118801682
 30
0.0
 10
442.9904822659
 20
112.6208386579
 30
0.0
 10
442.9669020416
 20
112.6208386579
 30
0.0
  0
SPLINE
  5
5F5
100
AcDbEntity
  8
0
100
AcDbSpline
 62
7
  6
CONTINUOUS
 70
0
 71
3
 72
9
 73
5
 74
0
 42
0.0000001
 43
0.0000001
 44
0.0000000001
 40
0.0
 40
0.0
 40
0.0
 40
0.0
 40
0.4402133985
 40
1.0
 40
1.0
 40
1.0
 40
1.0
 10
443.0629020416
 20
112.2701136944
 30
0.0
 10
443.0629020416
 20
112.2886570655
 30
0.0
 10
443.0343438101
 20
112.3290374557
 30
0.0
 10
442.9904822659
 20
112.3379959454
 30
0.0
 10
442.9669020416
 20
112.3379959454
 30
0.0
  0
SPLINE
  5
5F6
100
AcDbEntity
  8
RUNDUNGEN
100
AcDbSpline
 62
7
  6
CONTINUOUS
 70
0
 71
3
 72
10
 73
6
 74
0
 42
0.0000001
 43
0.0000001
 44
0.0000000001
 40
0.0
 40
0.0
 40
0.0
 40
0.0
 40
0.2382860828
 40
0.4819052527
 40
1.0
 40
1.0
 40
1.0
 40
1.0
 10
416.8171993845
 20
123.7615181808
 30
0.0
 10
416.8172272089
 20
123.6172966186
 30
0.0
 10
416.8494195962
 20
123.3246208309
 30
0.0
 10
417.041740193
 20
122.7471338114
 30
0.0
 10
417.3199482911
 20
122.3625251478
 30
0.0
 10
417.5405892666
 20
122.1397101659
 30
0.0
  0
SPLINE
  5
5F7
100
AcDbEntity
  8
0
100
AcDbSpline
 62
7
  6
CONTINUOUS
 70
0
 71
3
 72
11
 73
7
 74
0
 42
0.0000001
 43
0.0000001
 44
0.0000000001
 40
0.0
 40
0.0
 40
0.0
 40
0.0
 40
0.2201392239
 40
0.4579219398
 40
0.7183374379
 40
1.0
 40
1.0
 40
1.0
 40
1.0
 10
463.5036316535
 20
113.0371615165
 30
0.0
 10
463.4691553592
 20
113.2464351803
 30
0.0
 10
463.3135026042
 20
113.6707031543
 30
0.0
 10
462.8717056526
 20
114.2160394321
 30
0.0
 10
462.2546070647
 20
114.6575523064
 30
0.0
 10
461.7683841708
 20
114.8602019128
 30
0.0
 10
461.5090582862
 20
114.9401489002
 30
0.0
  0
SPLINE
  5
5F8
100
AcDbEntity
  8
0
100
AcDbSpline
 62
7
  6
CONTINUOUS
 70
0
 71
3
 72
17
 73
13
 74
0
 42
0.0000001
 43
0.0000001
 44
0.0000000001
 40
0.0
 40
0.0
 40
0.0
 40
0.0
 40
0.0524419281
 40
0.1075582763
 40
0.2285246639
 40
0.364048001
 40
0.5075058624
 40
0.6492051673
 40
0.7800959593
 40
0.8955526031
 40
0.9486584643
 40
1.0
 40
1.0
 40
1.0
 40
1.0
 10
453.0807200405
 20
112.3190173194
 30
0.0
 10
453.093373119
 20
112.2516581587
 30
0.0
 10
453.1380158381
 20
112.1164511952
 30
0.0
 10
453.2988821116
 20
111.8619566353
 30
0.0
 10
453.624519947
 20
111.5995338096
 30
0.0
 10
454.1214139751
 20
111.4165041834
 30
0.0
 10
454.6756310153
 20
111.369869186
 30
0.0
 10
455.2174497211
 20
111.4661384735
 30
0.0
 10
455.6793689623
 20
111.6934765852
 30
0.0
 10
455.9566509682
 20
111.9874236073
 30
0.0
 10
456.0681891546
 20
112.2552861344
 30
0.0
 10
456.0868513712
 20
112.3924260621
 30
0.0
 10
456.0868513712
 20
112.4595252068
 30
0.0
  0
SPLINE
  5
5F9
100
AcDbEntity
  8
0
100
AcDbSpline
 62
7
  6
CONTINUOUS
 70
0
 71
3
 72
11
 73
7
 74
0
 42
0.0000001
 43
0.0000001
 44
0.0000000001
 40
0.0
 40
0.0
 40
0.0
 40
0.0
 40
0.209467371
 40
0.4446665809
 40
0.7119933023
 40
1.0
 40
1.0
 40
1.0
 40
1.0
 10
450.4140764481
 20
113.840927816
 30
0.0
 10
450.4140764481
 20
113.759734157
 30
0.0
 10
450.3613360853
 20
113.5853291645
 30
0.0
 10
450.1594058091
 20
113.3856552437
 30
0.0
 10
449.8758013305
 20
113.2573648371
 30
0.0
 10
449.6591801243
 20
113.2281961972
 30
0.0
 10
449.5475430828
 20
113.2281961972
 30
0.0
  0
SPLINE
  5
5FA
100
AcDbEntity
  8
0
100
AcDbSpline
 62
7
  6
CONTINUOUS
 70
0
 71
3
 72
11
 73
7
 74
0
 42
0.0000001
 43
0.0000001
 44
0.0000000001
 40
0.0
 40
0.0
 40
0.0
 40
0.0
 40
0.2094929298
 40
0.4446655277
 40
0.7119947494
 40
1.0
 40
1.0
 40
1.0
 40
1.0
 10
444.9829020416
 20
114.9118646289
 30
0.0
 10
444.9829020416
 20
114.9568460333
 30
0.0
 10
444.9536998612
 20
115.0534616242
 30
0.0
 10
444.8418205169
 20
115.1640465399
 30
0.0
 10
444.6847380028
 20
115.2351225643
 30
0.0
 10
444.5647412676
 20
115.2512758839
 30
0.0
 10
444.5029020416
 20
115.2512758839
 30
0.0
  0
SPLINE
  5
5FB
100
AcDbEntity
  8
BEZUGSACHSEN
100
AcDbSpline
 62
7
  6
CONTINUOUS
 70
0
 71
3
 72
12
 73
8
 74
0
 42
0.0000001
 43
0.0000001
 44
0.0000000001
 40
0.0
 40
0.0
 40
0.0
 40
0.0
 40
0.1108217967
 40
0.2235429053
 40
0.4598709646
 40
0.718266993
 40
1.0
 40
1.0
 40
1.0
 40
1.0
 10
456.8527162298
 20
119.5516479863
 30
0.0
 10
456.8527162298
 20
119.7060216474
 30
0.0
 10
456.8234799682
 20
120.0181779149
 30
0.0
 10
456.6482159765
 20
120.6374655457
 30
0.0
 10
456.2028826597
 20
121.3765178403
 30
0.0
 10
455.3892729705
 20
122.1072526172
 30
0.0
 10
454.7183764187
 20
122.4640167042
 30
0.0
 10
454.3551081678
 20
122.6125232145
 30
0.0
  0
SPLINE
  5
5FC
100
AcDbEntity
  8
BEZUGSACHSEN
100
AcDbSpline
 62
7
  6
CONTINUOUS
 70
0
 71
3
 72
12
 73
8
 74
0
 42
0.0000001
 43
0.0000001
 44
0.0000000001
 40
0.0
 40
0.0
 40
0.0
 40
0.0
 40
0.281733007
 40
0.5401290354
 40
0.7764570947
 40
0.8891782033
 40
1.0
 40
1.0
 40
1.0
 40
1.0
 10
449.3503242918
 20
122.6125232145
 30
0.0
 10
448.9870560409
 20
122.4640167042
 30
0.0
 10
448.3161594891
 20
122.1072526172
 30
0.0
 10
447.5025497999
 20
121.3765178403
 30
0.0
 10
447.0572164831
 20
120.6374655457
 30
0.0
 10
446.8819524914
 20
120.0181779149
 30
0.0
 10
446.8527162298
 20
119.7060216474
 30
0.0
 10
446.8527162298
 20
119.5516479863
 30
0.0
  0
SPLINE
  5
5FD
100
AcDbEntity
  8
0
100
AcDbSpline
 62
7
  6
CONTINUOUS
 70
0
 71
3
 72
9
 73
5
 74
0
 42
0.0000001
 43
0.0000001
 44
0.0000000001
 40
0.0
 40
0.0
 40
0.0
 40
0.0
 40
0.2445376398
 40
1.0
 40
1.0
 40
1.0
 40
1.0
 10
444.9829020416
 20
114.6290219165
 30
0.0
 10
444.9829020416
 20
114.6400944947
 30
0.0
 10
444.9797217695
 20
114.6853591144
 30
0.0
 10
444.9636345227
 20
114.7293817022
 30
0.0
 10
444.9463642172
 20
114.7589089805
 30
0.0
  0
SPLINE
  5
5FE
100
AcDbEntity
  8
0
100
AcDbSpline
 62
7
  6
CONTINUOUS
 70
0
 71
3
 72
9
 73
5
 74
0
 42
0.0000001
 43
0.0000001
 44
0.0000000001
 40
0.0
 40
0.0
 40
0.0
 40
0.0
 40
0.461013727
 40
1.0
 40
1.0
 40
1.0
 40
1.0
 10
444.9463642172
 20
114.7589089805
 30
0.0
 10
444.9070990277
 20
114.8260412136
 30
0.0
 10
444.7644123664
 20
114.9365133814
 30
0.0
 10
444.5938278973
 20
114.9684331714
 30
0.0
 10
444.5029020416
 20
114.9684331714
 30
0.0
  0
SPLINE
  5
5FF
100
AcDbEntity
  8
RUNDUNGEN
100
AcDbSpline
 62
7
  6
CONTINUOUS
 70
0
 71
3
 72
13
 73
9
 74
0
 42
0.0000001
 43
0.0000001
 44
0.0000000001
 40
0.0
 40
0.0
 40
0.0
 40
0.0
 40
0.1034546555
 40
0.2106690395
 40
0.3244963599
 40
0.4464318111
 40
0.7129511617
 40
1.0
 40
1.0
 40
1.0
 40
1.0
 10
424.3527162298
 20
73.7865342351
 30
0.0
 10
424.3527162298
 20
73.60082803
 30
0.0
 10
424.4066088007
 20
73.2207378934
 30
0.0
 10
424.6424396089
 20
72.6814032151
 30
0.0
 10
425.0207368807
 20
72.1888279928
 30
0.0
 10
425.7121858678
 20
71.6016152986
 30
0.0
 10
426.8386983138
 20
71.0922756732
 30
0.0
 10
427.8374494183
 20
70.9581071104
 30
0.0
 10
428.3527162298
 20
70.9581071104
 30
0.0
  0
SPLINE
  5
600
100
AcDbEntity
  8
0
100
AcDbSpline
 62
7
  6
CONTINUOUS
 70
0
 71
3
 72
12
 73
8
 74
0
 42
0.0000001
 43
0.0000001
 44
0.0000000001
 40
0.0
 40
0.0
 40
0.0
 40
0.0
 40
0.1089727213
 40
0.2201620805
 40
0.4554253
 40
0.7155329149
 40
1.0
 40
1.0
 40
1.0
 40
1.0
 10
463.5262084968
 20
113.0451027266
 30
0.0
 10
463.5262084968
 20
113.1601021331
 30
0.0
 10
463.5020259018
 20
113.3931324799
 30
0.0
 10
463.3566741401
 20
113.8541631606
 30
0.0
 10
462.9885159198
 20
114.395677319
 30
0.0
 10
462.3298364528
 20
114.9055500758
 30
0.0
 10
461.7959345205
 20
115.1345511906
 30
0.0
 10
461.5090582862
 20
115.2229916127
 30
0.0
  0
SPLINE
  5
601
100
AcDbEntity
  8
RUNDUNGEN
100
AcDbSpline
 62
7
  6
CONTINUOUS
 70
0
 71
3
 72
11
 73
7
 74
0
 42
0.0000001
 43
0.0000001
 44
0.0000000001
 40
0.0
 40
0.0
 40
0.0
 40
0.0
 40
0.2297023479
 40
0.4842340123
 40
0.7475494683
 40
1.0
 40
1.0
 40
1.0
 40
1.0
 10
419.4333915065
 20
120.2282578803
 30
0.0
 10
419.5291813943
 20
120.1315241613
 30
0.0
 10
419.7767539734
 20
119.9717885458
 30
0.0
 10
420.2106806321
 20
119.857872548
 30
0.0
 10
420.6724372265
 20
119.8643320955
 30
0.0
 10
420.9705822725
 20
119.9534924878
 30
0.0
 10
421.1046656833
 20
120.0198800671
 30
0.0
  0
SPLINE
  5
602
100
AcDbEntity
  8
0
100
AcDbSpline
 62
7
  6
CONTINUOUS
 70
0
 71
3
 72
11
 73
7
 74
0
 42
0.0000001
 43
0.0000001
 44
0.0000000001
 40
0.0
 40
0.0
 40
0.0
 40
0.0
 40
0.2094668498
 40
0.4446559298
 40
0.7120302568
 40
1.0
 40
1.0
 40
1.0
 40
1.0
 10
441.7429020416
 20
113.3845139816
 30
0.0
 10
441.7429020416
 20
113.3620259218
 30
0.0
 10
441.757506412
 20
113.3137227643
 30
0.0
 10
441.8134317351
 20
113.2584082206
 30
0.0
 10
441.8919897273
 20
113.2228911789
 30
0.0
 10
441.951986024
 20
113.2148083541
 30
0.0
 10
441.9829020416
 20
113.2148083541
 30
0.0
  0
SPLINE
  5
603
100
AcDbEntity
  8
0
100
AcDbSpline
 62
7
  6
CONTINUOUS
 70
0
 71
3
 72
12
 73
8
 74
0
 42
0.0000001
 43
0.0000001
 44
0.0000000001
 40
0.0
 40
0.0
 40
0.0
 40
0.0
 40
0.1035930223
 40
0.210949621
 40
0.4457011106
 40
0.7125563401
 40
1.0
 40
1.0
 40
1.0
 40
1.0
 10
451.1420730307
 20
114.1240238672
 30
0.0
 10
451.1420619267
 20
114.1980443578
 30
0.0
 10
451.1204836287
 20
114.3495359086
 30
0.0
 10
450.991604597
 20
114.6443652022
 30
0.0
 10
450.6734163363
 20
114.9626693985
 30
0.0
 10
450.1514705935
 20
115.1972584517
 30
0.0
 10
449.7529306705
 20
115.2512758839
 30
0.0
 10
449.5475430828
 20
115.2512758839
 30
0.0
  0
SPLINE
  5
604
100
AcDbEntity
  8
RUNDUNGEN
100
AcDbSpline
 62
7
  6
CONTINUOUS
 70
0
 71
3
 72
9
 73
5
 74
0
 42
0.0000001
 43
0.0000001
 44
0.0000000001
 40
0.0
 40
0.0
 40
0.0
 40
0.0
 40
0.5194816775
 40
1.0
 40
1.0
 40
1.0
 40
1.0
 10
487.7708572148
 20
123.7615484688
 30
0.0
 10
487.8371256589
 20
123.8284698652
 30
0.0
 10
487.9465346659
 20
123.9786030214
 30
0.0
 10
487.9879219841
 20
124.1616140199
 30
0.0
 10
487.9878650837
 20
124.2487306254
 30
0.0
  0
SPLINE
  5
605
100
AcDbEntity
  8
RUNDUNGEN
100
AcDbSpline
 62
7
  6
CONTINUOUS
 70
0
 71
3
 72
13
 73
9
 74
0
 42
0.0000001
 43
0.0000001
 44
0.0000000001
 40
0.0
 40
0.0
 40
0.0
 40
0.0
 40
0.2870490624
 40
0.5535683755
 40
0.6755038246
 40
0.7893311355
 40
0.8965454157
 40
1.0
 40
1.0
 40
1.0
 40
1.0
 10
475.3527162298
 20
70.9581071104
 30
0.0
 10
475.8679834433
 20
70.9581071104
 30
0.0
 10
476.8667349064
 20
71.092275801
 30
0.0
 10
477.9932475176
 20
71.6016158704
 30
0.0
 10
478.6846962812
 20
72.1888287022
 30
0.0
 10
479.062993213
 20
72.6814039211
 30
0.0
 10
479.2988237728
 20
73.2207383315
 30
0.0
 10
479.3527162298
 20
73.6008281578
 30
0.0
 10
479.3527162298
 20
73.7865342351
 30
0.0
  0
SPLINE
  5
606
100
AcDbEntity
  8
RUNDUNGEN
100
AcDbSpline
 62
7
  6
CONTINUOUS
 70
0
 71
3
 72
10
 73
6
 74
0
 42
0.0000001
 43
0.0000001
 44
0.0000000001
 40
0.0
 40
0.0
 40
0.0
 40
0.0
 40
0.47201694
 40
0.7322443513
 40
1.0
 40
1.0
 40
1.0
 40
1.0
 10
460.0263979111
 20
79.2352828963
 30
0.0
 10
460.4209431486
 20
78.8368501493
 30
0.0
 10
461.2049271184
 20
78.3828827383
 30
0.0
 10
462.3555879784
 20
78.0823417117
 30
0.0
 10
462.9849289849
 20
78.0291749223
 30
0.0
 10
463.3030060882
 20
78.0291749223
 30
0.0
  0
SPLINE
  5
607
100
AcDbEntity
  8
RUNDUNGEN
100
AcDbSpline
 62
7
  6
CONTINUOUS
 70
0
 71
3
 72
10
 73
6
 74
0
 42
0.0000001
 43
0.0000001
 44
0.0000000001
 40
0.0
 40
0.0
 40
0.0
 40
0.0
 40
0.2677558652
 40
0.5279833681
 40
1.0
 40
1.0
 40
1.0
 40
1.0
 10
440.4024263713
 20
78.0291749223
 30
0.0
 10
440.7205037335
 20
78.0291749223
 30
0.0
 10
441.3498451136
 20
78.0823417781
 30
0.0
 10
442.5005059327
 20
78.3828830274
 30
0.0
 10
443.2844895664
 20
78.8368504073
 30
0.0
 10
443.6790345485
 20
79.2352828963
 30
0.0
  0
SPLINE
  5
608
100
AcDbEntity
  8
0
100
AcDbSpline
 62
7
  6
CONTINUOUS
 70
0
 71
3
 72
11
 73
7
 74
0
 42
0.0000001
 43
0.0000001
 44
0.0000000001
 40
0.0
 40
0.0
 40
0.0
 40
0.0
 40
0.2880052506
 40
0.5553344723
 40
0.7905070702
 40
1.0
 40
1.0
 40
1.0
 40
1.0
 10
440.6629020416
 20
115.2512758839
 30
0.0
 10
440.6010628156
 20
115.2512758839
 30
0.0
 10
440.4810660803
 20
115.2351225643
 30
0.0
 10
440.3239835663
 20
115.1640465399
 30
0.0
 10
440.2121042219
 20
115.0534616242
 30
0.0
 10
440.1829020416
 20
114.9568460333
 30
0.0
 10
440.1829020416
 20
114.9118646289
 30
0.0
  0
SPLINE
  5
609
100
AcDbEntity
  8
0
100
AcDbSpline
 62
7
  6
CONTINUOUS
 70
0
 71
3
 72
11
 73
7
 74
0
 42
0.0000001
 43
0.0000001
 44
0.0000000001
 40
0.0
 40
0.0
 40
0.0
 40
0.0
 40
0.2879697432
 40
0.5553440702
 40
0.7905331502
 40
1.0
 40
1.0
 40
1.0
 40
1.0
 10
443.1829020416
 20
113.2148083541
 30
0.0
 10
443.2138180591
 20
113.2148083541
 30
0.0
 10
443.2738143559
 20
113.2228911789
 30
0.0
 10
443.352372348
 20
113.2584082206
 30
0.0
 10
443.4082976712
 20
113.3137227643
 30
0.0
 10
443.4229020416
 20
113.3620259218
 30
0.0
 10
443.4229020416
 20
113.3845139816
 30
0.0
  0
SPLINE
  5
60A
100
AcDbEntity
  8
0
100
AcDbSpline
 62
7
  6
CONTINUOUS
 70
0
 71
3
 72
11
 73
7
 74
0
 42
0.0000001
 43
0.0000001
 44
0.0000000001
 40
0.0
 40
0.0
 40
0.0
 40
0.0
 40
0.2879697432
 40
0.5553440702
 40
0.7905331502
 40
1.0
 40
1.0
 40
1.0
 40
1.0
 10
443.1829020416
 20
111.5177520793
 30
0.0
 10
443.2138180591
 20
111.5177520793
 30
0.0
 10
443.2738143559
 20
111.525834904
 30
0.0
 10
443.352372348
 20
111.5613519458
 30
0.0
 10
443.4082976712
 20
111.6166664895
 30
0.0
 10
443.4229020416
 20
111.6649696469
 30
0.0
 10
443.4229020416
 20
111.6874577067
 30
0.0
  0
SPLINE
  5
60B
100
AcDbEntity
  8
0
100
AcDbSpline
 62
7
  6
CONTINUOUS
 70
0
 71
3
 72
9
 73
5
 74
0
 42
0.0000001
 43
0.0000001
 44
0.0000000001
 40
0.0
 40
0.0
 40
0.0
 40
0.0
 40
0.5597866015
 40
1.0
 40
1.0
 40
1.0
 40
1.0
 10
442.1989020416
 20
114.3178949328
 30
0.0
 10
442.1753218173
 20
114.3178949328
 30
0.0
 10
442.131460273
 20
114.3089364431
 30
0.0
 10
442.1029020416
 20
114.2685560528
 30
0.0
 10
442.1029020416
 20
114.2500126818
 30
0.0
  0
SPLINE
  5
60C
100
AcDbEntity
  8
0
100
AcDbSpline
 62
7
  6
CONTINUOUS
 70
0
 71
3
 72
9
 73
5
 74
0
 42
0.0000001
 43
0.0000001
 44
0.0000000001
 40
0.0
 40
0.0
 40
0.0
 40
0.0
 40
0.5597866015
 40
1.0
 40
1.0
 40
1.0
 40
1.0
 10
442.1989020416
 20
112.6208386579
 30
0.0
 10
442.1753218173
 20
112.6208386579
 30
0.0
 10
442.131460273
 20
112.6118801682
 30
0.0
 10
442.1029020416
 20
112.571499778
 30
0.0
 10
442.1029020416
 20
112.5529564069
 30
0.0
  0
SPLINE
  5
60D
100
AcDbEntity
  8
0
100
AcDbSpline
 62
7
  6
CONTINUOUS
 70
0
 71
3
 72
9
 73
5
 74
0
 42
0.0000001
 43
0.0000001
 44
0.0000000001
 40
0.0
 40
0.0
 40
0.0
 40
0.0
 40
0.5597866015
 40
1.0
 40
1.0
 40
1.0
 40
1.0
 10
442.6669020416
 20
112.4511330304
 30
0.0
 10
442.6904822659
 20
112.4511330304
 30
0.0
 10
442.7343438101
 20
112.4600915201
 30
0.0
 10
442.7629020416
 20
112.5004719104
 30
0.0
 10
442.7629020416
 20
112.5190152814
 30
0.0
  0
SPLINE
  5
60E
100
AcDbEntity
  8
0
100
AcDbSpline
 62
7
  6
CONTINUOUS
 70
0
 71
3
 72
9
 73
5
 74
0
 42
0.0000001
 43
0.0000001
 44
0.0000000001
 40
0.0
 40
0.0
 40
0.0
 40
0.0
 40
0.2457811574
 40
1.0
 40
1.0
 40
1.0
 40
1.0
 10
461.5090582862
 20
114.9401489002
 30
0.0
 10
461.4938451932
 20
114.9448389101
 30
0.0
 10
461.4312058798
 20
114.9614516813
 30
0.0
 10
461.3660769375
 20
114.9684331714
 30
0.0
 10
461.3172250253
 20
114.9684331714
 30
0.0
  0
SPLINE
  5
60F
100
AcDbEntity
  8
0
100
AcDbSpline
 62
7
  6
CONTINUOUS
 70
0
 71
3
 72
11
 73
7
 74
0
 42
0.0000001
 43
0.0000001
 44
0.0000000001
 40
0.0
 40
0.0
 40
0.0
 40
0.0
 40
0.2880001164
 40
0.5553425139
 40
0.7905343079
 40
1.0
 40
1.0
 40
1.0
 40
1.0
 10
449.5475430828
 20
113.5110389097
 30
0.0
 10
449.6591779984
 20
113.5110389097
 30
0.0
 10
449.8757997723
 20
113.5402189256
 30
0.0
 10
450.1594191227
 20
113.6684789591
 30
0.0
 10
450.361350054
 20
113.868169759
 30
0.0
 10
450.4140614902
 20
114.042577211
 30
0.0
 10
450.4140614902
 20
114.1237705284
 30
0.0
  0
SPLINE
  5
610
100
AcDbEntity
  8
0
100
AcDbSpline
 62
7
  6
CONTINUOUS
 70
0
 71
3
 72
9
 73
5
 74
0
 42
0.0000001
 43
0.0000001
 44
0.0000000001
 40
0.0
 40
0.0
 40
0.0
 40
0.0
 40
0.239729366
 40
1.0
 40
1.0
 40
1.0
 40
1.0
 10
461.4799734653
 20
111.1567419262
 30
0.0
 10
461.4693683392
 20
111.1509992431
 30
0.0
 10
461.4234228989
 20
111.1302534481
 30
0.0
 10
461.372301397
 20
111.1217722818
 30
0.0
 10
461.3340542077
 20
111.1217722818
 30
0.0
  0
SPLINE
  5
611
100
AcDbEntity
  8
0
100
AcDbSpline
 62
7
  6
CONTINUOUS
 70
0
 71
3
 72
9
 73
5
 74
0
 42
0.0000001
 43
0.0000001
 44
0.0000000001
 40
0.0
 40
0.0
 40
0.0
 40
0.0
 40
0.2457811574
 40
1.0
 40
1.0
 40
1.0
 40
1.0
 10
461.5090582862
 20
115.2229916127
 30
0.0
 10
461.4938451932
 20
115.2276816225
 30
0.0
 10
461.4312058798
 20
115.2442943938
 30
0.0
 10
461.3660769375
 20
115.2512758839
 30
0.0
 10
461.3172250253
 20
115.2512758839
 30
0.0
  0
SPLINE
  5
612
100
AcDbEntity
  8
0
100
AcDbSpline
 62
7
  6
CONTINUOUS
 70
0
 71
3
 72
11
 73
7
 74
0
 42
0.0000001
 43
0.0000001
 44
0.0000000001
 40
0.0
 40
0.0
 40
0.0
 40
0.0
 40
0.2779817175
 40
0.5346952233
 40
0.772857858
 40
1.0
 40
1.0
 40
1.0
 40
1.0
 10
461.4799734653
 20
111.4395846387
 30
0.0
 10
461.6482173983
 20
111.5306888458
 30
0.0
 10
461.9564677465
 20
111.7375315909
 30
0.0
 10
462.3227754295
 20
112.1306877468
 30
0.0
 10
462.5551313289
 20
112.5776969882
 30
0.0
 10
462.6089279808
 20
112.9000809354
 30
0.0
 10
462.6089279808
 20
113.0564164351
 30
0.0
  0
SPLINE
  5
613
100
AcDbEntity
  8
0
100
AcDbSpline
 62
7
  6
CONTINUOUS
 70
0
 71
3
 72
9
 73
5
 74
0
 42
0.0000001
 43
0.0000001
 44
0.0000000001
 40
0.0
 40
0.0
 40
0.0
 40
0.0
 40
0.2591205677
 40
1.0
 40
1.0
 40
1.0
 40
1.0
 10
461.3340542077
 20
111.4046149943
 30
0.0
 10
461.3470860043
 20
111.4046149943
 30
0.0
 10
461.3972888745
 20
111.4074912101
 30
0.0
 10
461.4472082342
 20
111.4218422432
 30
0.0
 10
461.4799734653
 20
111.4395846387
 30
0.0
  0
SPLINE
  5
614
100
AcDbEntity
  8
0
100
AcDbSpline
 62
7
  6
CONTINUOUS
 70
0
 71
3
 72
17
 73
13
 74
0
 42
0.0000001
 43
0.0000001
 44
0.0000000001
 40
0.0
 40
0.0
 40
0.0
 40
0.0
 40
0.0517709371
 40
0.1054831679
 40
0.2228477996
 40
0.3562840245
 40
0.5
 40
0.6437159755
 40
0.7771522004
 40
0.8945168321
 40
0.9482290629
 40
1.0
 40
1.0
 40
1.0
 40
1.0
 10
456.0868513712
 20
112.1766824943
 30
0.0
 10
456.0868513712
 20
112.1066291224
 30
0.0
 10
456.0664176684
 20
111.9631840007
 30
0.0
 10
455.9445810421
 20
111.6839279447
 30
0.0
 10
455.6432679533
 20
111.3825352959
 30
0.0
 10
455.1487471025
 20
111.1603339221
 30
0.0
 10
454.577197227
 20
111.0827063658
 30
0.0
 10
454.0056473516
 20
111.1603339221
 30
0.0
 10
453.5111265007
 20
111.3825352959
 30
0.0
 10
453.2098134119
 20
111.6839279447
 30
0.0
 10
453.0879767856
 20
111.9631840007
 30
0.0
 10
453.0675430828
 20
112.1066291224
 30
0.0
 10
453.0675430828
 20
112.1766824943
 30
0.0
  0
SPLINE
  5
615
100
AcDbEntity
  8
0
100
AcDbSpline
 62
7
  6
CONTINUOUS
 70
0
 71
3
 72
9
 73
5
 74
0
 42
0.0000001
 43
0.0000001
 44
0.0000000001
 40
0.0
 40
0.0
 40
0.0
 40
0.0
 40
0.4402133985
 40
1.0
 40
1.0
 40
1.0
 40
1.0
 10
442.7629020416
 20
112.2361725689
 30
0.0
 10
442.7629020416
 20
112.2176291979
 30
0.0
 10
442.7343438101
 20
112.1772488076
 30
0.0
 10
442.6904822659
 20
112.1682903179
 30
0.0
 10
442.6669020416
 20
112.1682903179
 30
0.0
  0
SPLINE
  5
616
100
AcDbEntity
  8
0
100
AcDbSpline
 62
7
  6
CONTINUOUS
 70
0
 71
3
 72
9
 73
5
 74
0
 42
0.0000001
 43
0.0000001
 44
0.0000000001
 40
0.0
 40
0.0
 40
0.0
 40
0.0
 40
0.5597866015
 40
1.0
 40
1.0
 40
1.0
 40
1.0
 10
442.4989020416
 20
112.1682903179
 30
0.0
 10
442.4753218173
 20
112.1682903179
 30
0.0
 10
442.431460273
 20
112.1772488076
 30
0.0
 10
442.4029020416
 20
112.2176291979
 30
0.0
 10
442.4029020416
 20
112.2361725689
 30
0.0
  0
SPLINE
  5
617
100
AcDbEntity
  8
RUNDUNGEN
100
AcDbSpline
 62
7
  6
CONTINUOUS
 70
0
 71
3
 72
11
 73
7
 74
0
 42
0.0000001
 43
0.0000001
 44
0.0000000001
 40
0.0
 40
0.0
 40
0.0
 40
0.0
 40
0.237780559
 40
0.4809056754
 40
0.7339193747
 40
1.0
 40
1.0
 40
1.0
 40
1.0
 10
464.268208005
 20
97.3519257838
 30
0.0
 10
464.2682080204
 20
97.7847086075
 30
0.0
 10
464.3642158328
 20
98.6627969678
 30
0.0
 10
464.7899116239
 20
99.9385816716
 30
0.0
 10
465.4842685991
 20
101.1490705558
 30
0.0
 10
466.0976205157
 20
101.874762332
 30
0.0
 10
466.4383834735
 20
102.218882875
 30
0.0
  0
SPLINE
  5
618
100
AcDbEntity
  8
0
100
AcDbSpline
 62
7
  6
CONTINUOUS
 70
0
 71
3
 72
9
 73
5
 74
0
 42
0.0000001
 43
0.0000001
 44
0.0000000001
 40
0.0
 40
0.0
 40
0.0
 40
0.0
 40
0.5597866015
 40
1.0
 40
1.0
 40
1.0
 40
1.0
 10
442.1989020416
 20
112.3379959454
 30
0.0
 10
442.1753218173
 20
112.3379959454
 30
0.0
 10
442.131460273
 20
112.3290374557
 30
0.0
 10
442.1029020416
 20
112.2886570655
 30
0.0
 10
442.1029020416
 20
112.2701136944
 30
0.0
  0
SPLINE
  5
619
100
AcDbEntity
  8
0
100
AcDbSpline
 62
7
  6
CONTINUOUS
 70
0
 71
3
 72
9
 73
5
 74
0
 42
0.0000001
 43
0.0000001
 44
0.0000000001
 40
0.0
 40
0.0
 40
0.0
 40
0.0
 40
0.5597866015
 40
1.0
 40
1.0
 40
1.0
 40
1.0
 10
442.1989020416
 20
114.0350522203
 30
0.0
 10
442.1753218173
 20
114.0350522203
 30
0.0
 10
442.131460273
 20
114.0260937306
 30
0.0
 10
442.1029020416
 20
113.9857133403
 30
0.0
 10
442.1029020416
 20
113.9671699693
 30
0.0
  0
SPLINE
  5
61A
100
AcDbEntity
  8
0
100
AcDbSpline
 62
7
  6
CONTINUOUS
 70
0
 71
3
 72
9
 73
5
 74
0
 42
0.0000001
 43
0.0000001
 44
0.0000000001
 40
0.0
 40
0.0
 40
0.0
 40
0.0
 40
0.4575243679
 40
1.0
 40
1.0
 40
1.0
 40
1.0
 10
443.4229020416
 20
113.1016712691
 30
0.0
 10
443.4229020416
 20
113.0714243712
 30
0.0
 10
443.3947195988
 20
113.0049480847
 30
0.0
 10
443.3361275701
 20
112.9682007873
 30
0.0
 10
443.3029020416
 20
112.9547018845
 30
0.0
  0
SPLINE
  5
61B
100
AcDbEntity
  8
0
100
AcDbSpline
 62
7
  6
CONTINUOUS
 70
0
 71
3
 72
9
 73
5
 74
0
 42
0.0000001
 43
0.0000001
 44
0.0000000001
 40
0.0
 40
0.0
 40
0.0
 40
0.0
 40
0.2441493338
 40
1.0
 40
1.0
 40
1.0
 40
1.0
 10
443.3029020416
 20
112.9547018845
 30
0.0
 10
443.2936615959
 20
112.9509476665
 30
0.0
 10
443.2549887331
 20
112.9376638377
 30
0.0
 10
443.2137799817
 20
112.9319656416
 30
0.0
 10
443.1829020416
 20
112.9319656416
 30
0.0
  0
SPLINE
  5
61C
100
AcDbEntity
  8
0
100
AcDbSpline
 62
7
  6
CONTINUOUS
 70
0
 71
3
 72
11
 73
7
 74
0
 42
0.0000001
 43
0.0000001
 44
0.0000000001
 40
0.0
 40
0.0
 40
0.0
 40
0.0
 40
0.2092798753
 40
0.444592951
 40
0.7123432609
 40
1.0
 40
1.0
 40
1.0
 40
1.0
 10
443.4229020416
 20
111.4046149943
 30
0.0
 10
443.4229020416
 20
111.3821502626
 30
0.0
 10
443.4081736509
 20
111.3339240451
 30
0.0
 10
443.352434501
 20
111.2784053619
 30
0.0
 10
443.2737297507
 20
111.2431147508
 30
0.0
 10
443.2137799817
 20
111.2349093668
 30
0.0
 10
443.1829020416
 20
111.2349093668
 30
0.0
  0
SPLINE
  5
61D
100
AcDbEntity
  8
0
100
AcDbSpline
 62
7
  6
CONTINUOUS
 70
0
 71
3
 72
11
 73
7
 74
0
 42
0.0000001
 43
0.0000001
 44
0.0000000001
 40
0.0
 40
0.0
 40
0.0
 40
0.0
 40
0.2876567391
 40
0.555407049
 40
0.7907201247
 40
1.0
 40
1.0
 40
1.0
 40
1.0
 10
441.9829020416
 20
111.2349093668
 30
0.0
 10
441.9520241014
 20
111.2349093668
 30
0.0
 10
441.8920743324
 20
111.2431147508
 30
0.0
 10
441.8133695822
 20
111.2784053619
 30
0.0
 10
441.7576304323
 20
111.3339240451
 30
0.0
 10
441.7429020416
 20
111.3821502626
 30
0.0
 10
441.7429020416
 20
111.4046149943
 30
0.0
  0
SPLINE
  5
61E
100
AcDbEntity
  8
0
100
AcDbSpline
 62
7
  6
CONTINUOUS
 70
0
 71
3
 72
9
 73
5
 74
0
 42
0.0000001
 43
0.0000001
 44
0.0000000001
 40
0.0
 40
0.0
 40
0.0
 40
0.0
 40
0.7469507947
 40
1.0
 40
1.0
 40
1.0
 40
1.0
 10
451.1220331089
 20
114.0191381
 30
0.0
 10
451.113057407
 20
114.0587883177
 30
0.0
 10
451.0970568301
 20
114.1110767271
 30
0.0
 10
451.0763841947
 20
114.1614290199
 30
0.0
 10
451.0708653801
 20
114.1740473539
 30
0.0
  0
SPLINE
  5
61F
100
AcDbEntity
  8
0
100
AcDbSpline
 62
7
  6
CONTINUOUS
 70
0
 71
3
 72
11
 73
7
 74
0
 42
0.0000001
 43
0.0000001
 44
0.0000000001
 40
0.0
 40
0.0
 40
0.0
 40
0.0
 40
0.21623005
 40
0.4576660775
 40
0.7221248053
 40
1.0
 40
1.0
 40
1.0
 40
1.0
 10
451.0708653801
 20
114.1740473539
 30
0.0
 10
451.0187551454
 20
114.293193293
 30
0.0
 10
450.8523124776
 20
114.5220931627
 30
0.0
 10
450.4906023861
 20
114.7729304046
 30
0.0
 10
450.0420937797
 20
114.932399954
 30
0.0
 10
449.7146603583
 20
114.9684331714
 30
0.0
 10
449.5475430828
 20
114.9684331714
 30
0.0
  0
SPLINE
  5
620
100
AcDbEntity
  8
RUNDUNGEN
100
AcDbSpline
 62
7
  6
CONTINUOUS
 70
0
 71
3
 72
13
 73
9
 74
0
 42
0.0000001
 43
0.0000001
 44
0.0000000001
 40
0.0
 40
0.0
 40
0.0
 40
0.0
 40
0.1034546555
 40
0.2106690395
 40
0.3244963599
 40
0.4464318111
 40
0.7129511617
 40
1.0
 40
1.0
 40
1.0
 40
1.0
 10
430.9527162298
 20
75.2007477975
 30
0.0
 10
430.9527162298
 20
75.3864540026
 30
0.0
 10
431.0066088007
 20
75.7665441393
 30
0.0
 10
431.2424396089
 20
76.3058788176
 30
0.0
 10
431.6207368807
 20
76.7984540398
 30
0.0
 10
432.3121858678
 20
77.3856667341
 30
0.0
 10
433.4386983138
 20
77.8950063595
 30
0.0
 10
434.4374494183
 20
78.0291749223
 30
0.0
 10
434.9527162298
 20
78.0291749223
 30
0.0
  0
SPLINE
  5
621
100
AcDbEntity
  8
0
100
AcDbSpline
 62
7
  6
CONTINUOUS
 70
0
 71
3
 72
8
 73
4
 74
0
 42
0.0000001
 43
0.0000001
 44
0.0000000001
 40
0.0
 40
0.0
 40
0.0
 40
0.0
 40
1.0
 40
1.0
 40
1.0
 40
1.0
 10
441.9188064108
 20
112.9382166228
 30
0.0
 10
441.8997420764
 20
112.9419586175
 30
0.0
 10
441.8809013392
 20
112.9473891109
 30
0.0
 10
441.8629020416
 20
112.9547018845
 30
0.0
  0
SPLINE
  5
622
100
AcDbEntity
  8
0
100
AcDbSpline
 62
7
  6
CONTINUOUS
 70
0
 71
3
 72
9
 73
5
 74
0
 42
0.0000001
 43
0.0000001
 44
0.0000000001
 40
0.0
 40
0.0
 40
0.0
 40
0.0
 40
0.5424756321
 40
1.0
 40
1.0
 40
1.0
 40
1.0
 10
441.8629020416
 20
112.9547018845
 30
0.0
 10
441.829676513
 20
112.9682007873
 30
0.0
 10
441.7710844844
 20
113.0049480847
 30
0.0
 10
441.7429020416
 20
113.0714243712
 30
0.0
 10
441.7429020416
 20
113.1016712691
 30
0.0
  0
SPLINE
  5
623
100
AcDbEntity
  8
RUNDUNGEN
100
AcDbSpline
 62
7
  6
CONTINUOUS
 70
0
 71
3
 72
13
 73
9
 74
0
 42
0.0000001
 43
0.0000001
 44
0.0000000001
 40
0.0
 40
0.0
 40
0.0
 40
0.0
 40
0.2870490624
 40
0.5535683755
 40
0.6755038246
 40
0.7893311355
 40
0.8965454157
 40
1.0
 40
1.0
 40
1.0
 40
1.0
 10
468.7527162298
 20
78.0291749223
 30
0.0
 10
469.2679834433
 20
78.0291749223
 30
0.0
 10
470.2667349064
 20
77.8950062317
 30
0.0
 10
471.3932475176
 20
77.3856661622
 30
0.0
 10
472.0846962812
 20
76.7984533305
 30
0.0
 10
472.462993213
 20
76.3058781116
 30
0.0
 10
472.6988237728
 20
75.7665437012
 30
0.0
 10
472.7527162298
 20
75.3864538749
 30
0.0
 10
472.7527162298
 20
75.2007477975
 30
0.0
  0
SPLINE
  5
624
100
AcDbEntity
  8
RUNDUNGEN
100
AcDbSpline
 62
7
  6
CONTINUOUS
 70
0
 71
3
 72
13
 73
9
 74
0
 42
0.0000001
 43
0.0000001
 44
0.0000000001
 40
0.0
 40
0.0
 40
0.0
 40
0.0
 40
0.2360077452
 40
0.3661261418
 40
0.5000000756
 40
0.6338740402
 40
0.7639924068
 40
1.0
 40
1.0
 40
1.0
 40
1.0
 10
447.7569560083
 20
83.3533846876
 30
0.0
 10
448.2501360249
 20
83.851424076
 30
0.0
 10
449.2299363611
 20
84.4189048073
 30
0.0
 10
450.6688008583
 20
84.7945465849
 30
0.0
 10
451.8527170172
 20
84.8947290754
 30
0.0
 10
453.036633067
 20
84.7945463461
 30
0.0
 10
454.4754970575
 20
84.4189043745
 30
0.0
 10
455.4552967523
 20
83.8514237552
 30
0.0
 10
455.9484764512
 20
83.3533846876
 30
0.0
  0
SPLINE
  5
625
100
AcDbEntity
  8
RUNDUNGEN
100
AcDbSpline
 62
7
  6
CONTINUOUS
 70
0
 71
3
 72
11
 73
7
 74
0
 42
0.0000001
 43
0.0000001
 44
0.0000000001
 40
0.0
 40
0.0
 40
0.0
 40
0.0
 40
0.2660806488
 40
0.5190943636
 40
0.7622194616
 40
1.0
 40
1.0
 40
1.0
 40
1.0
 10
437.267048986
 20
102.218882875
 30
0.0
 10
437.6078120187
 20
101.8747622565
 30
0.0
 10
438.2211640411
 20
101.1490703101
 30
0.0
 10
438.9155210725
 20
99.9385812003
 30
0.0
 10
439.3412167798
 20
98.6627963201
 30
0.0
 10
439.4372244699
 20
97.7847079051
 30
0.0
 10
439.4372244546
 20
97.3519250621
 30
0.0
  0
SPLINE
  5
626
100
AcDbEntity
  8
RUNDUNGEN
100
AcDbSpline
 62
7
  6
CONTINUOUS
 70
0
 71
3
 72
11
 73
7
 74
0
 42
0.0000001
 43
0.0000001
 44
0.0000000001
 40
0.0
 40
0.0
 40
0.0
 40
0.0
 40
0.2524507309
 40
0.5157647478
 40
0.7702968692
 40
1.0
 40
1.0
 40
1.0
 40
1.0
 10
423.8078674294
 20
121.3582933664
 30
0.0
 10
424.0313399598
 20
121.4689394205
 30
0.0
 10
424.5282472585
 20
121.6175395447
 30
0.0
 10
425.2978406374
 20
121.6283060491
 30
0.0
 10
426.0210518753
 20
121.4384470591
 30
0.0
 10
426.4336740317
 20
121.1722204274
 30
0.0
 10
426.5933243907
 20
121.0109970111
 30
0.0
  0
SPLINE
  5
627
100
AcDbEntity
  8
RUNDUNGEN
100
AcDbSpline
 62
7
  6
CONTINUOUS
 70
0
 71
3
 72
9
 73
5
 74
0
 42
0.0000001
 43
0.0000001
 44
0.0000000001
 40
0.0
 40
0.0
 40
0.0
 40
0.0
 40
0.5194825986
 40
1.0
 40
1.0
 40
1.0
 40
1.0
 10
428.7155572052
 20
118.8678535393
 30
0.0
 10
428.8260047025
 20
118.7563177874
 30
0.0
 10
429.0083525905
 20
118.5060959638
 30
0.0
 10
429.0773319532
 20
118.2010780982
 30
0.0
 10
429.0772371527
 20
118.0558841724
 30
0.0
  0
SPLINE
  5
628
100
AcDbEntity
  8
0
100
AcDbSpline
 62
7
  6
CONTINUOUS
 70
0
 71
3
 72
9
 73
5
 74
0
 42
0.0000001
 43
0.0000001
 44
0.0000000001
 40
0.0
 40
0.0
 40
0.0
 40
0.0
 40
0.538986273
 40
1.0
 40
1.0
 40
1.0
 40
1.0
 10
440.6629020416
 20
114.9684331714
 30
0.0
 10
440.5719761859
 20
114.9684331714
 30
0.0
 10
440.4013917167
 20
114.9365133814
 30
0.0
 10
440.2587050555
 20
114.8260412136
 30
0.0
 10
440.219439866
 20
114.7589089805
 30
0.0
  0
SPLINE
  5
629
100
AcDbEntity
  8
0
100
AcDbSpline
 62
7
  6
CONTINUOUS
 70
0
 71
3
 72
9
 73
5
 74
0
 42
0.0000001
 43
0.0000001
 44
0.0000000001
 40
0.0
 40
0.0
 40
0.0
 40
0.0
 40
0.2592261758
 40
1.0
 40
1.0
 40
1.0
 40
1.0
 10
440.219439866
 20
114.7589089805
 30
0.0
 10
440.2135151432
 20
114.7487794007
 30
0.0
 10
440.1930164747
 20
114.7083963545
 30
0.0
 10
440.1829020416
 20
114.6625563258
 30
0.0
 10
440.1829020416
 20
114.6290219165
 30
0.0
  0
SPLINE
  5
62A
100
AcDbEntity
  8
0
100
AcDbSpline
 62
7
  6
CONTINUOUS
 70
0
 71
3
 72
9
 73
5
 74
0
 42
0.0000001
 43
0.0000001
 44
0.0000000001
 40
0.0
 40
0.0
 40
0.0
 40
0.0
 40
0.4402133985
 40
1.0
 40
1.0
 40
1.0
 40
1.0
 10
442.4029020416
 20
112.5190152814
 30
0.0
 10
442.4029020416
 20
112.5004719104
 30
0.0
 10
442.431460273
 20
112.4600915201
 30
0.0
 10
442.4753218173
 20
112.4511330304
 30
0.0
 10
442.4989020416
 20
112.4511330304
 30
0.0
  0
SPLINE
  5
62B
100
AcDbEntity
  8
BEZUGSACHSEN
100
AcDbSpline
 62
7
  6
CONTINUOUS
 70
0
 71
3
 72
11
 73
7
 74
0
 42
0.0000001
 43
0.0000001
 44
0.0000000001
 40
0.0
 40
0.0
 40
0.0
 40
0.0
 40
0.2500108003
 40
0.5000108986
 40
0.7500048993
 40
1.0
 40
1.0
 40
1.0
 40
1.0
 10
423.8029718829
 20
68.3323593071
 30
0.0
 10
423.6879783232
 20
68.3780235614
 30
0.0
 10
423.4702310331
 20
68.5043631564
 30
0.0
 10
423.2143091974
 20
68.7804959243
 30
0.0
 10
423.0503698543
 20
69.1194629647
 30
0.0
 10
423.0127162859
 20
69.3684820835
 30
0.0
 10
423.0127162298
 20
69.4922028187
 30
0.0
  0
SPLINE
  5
62C
100
AcDbEntity
  8
BEZUGSACHSEN
100
AcDbSpline
 62
7
  6
CONTINUOUS
 70
0
 71
3
 72
11
 73
7
 74
0
 42
0.0000001
 43
0.0000001
 44
0.0000000001
 40
0.0
 40
0.0
 40
0.0
 40
0.0
 40
0.2500139656
 40
0.500003507
 40
0.7499908108
 40
1.0
 40
1.0
 40
1.0
 40
1.0
 10
483.5415340308
 20
42.7495527537
 30
0.0
 10
483.6417097333
 20
42.7495527724
 30
0.0
 10
483.8428695814
 20
42.7736589301
 30
0.0
 10
484.1268280896
 20
42.8802006934
 30
0.0
 10
484.3775040986
 20
43.0509444302
 30
0.0
 10
484.5128807404
 20
43.2017314485
 30
0.0
 10
484.5703381157
 20
43.2837889769
 30
0.0
  0
SPLINE
  5
62D
100
AcDbEntity
  8
BEZUGSACHSEN
100
AcDbSpline
 62
7
  6
CONTINUOUS
 70
0
 71
3
 72
13
 73
9
 74
0
 42
0.0000001
 43
0.0000001
 44
0.0000000001
 40
0.0
 40
0.0
 40
0.0
 40
0.0
 40
0.2494185536
 40
0.4988218139
 40
0.6241166257
 40
0.7494130174
 40
0.8747019565
 40
1.0
 40
1.0
 40
1.0
 40
1.0
 10
461.3498748516
 20
42.7495541866
 30
0.0
 10
461.187242918
 20
42.7495540053
 30
0.0
 10
460.8586470951
 20
42.8133721708
 30
0.0
 10
460.5098149507
 20
43.0433942042
 30
0.0
 10
460.2998846979
 20
43.2951762429
 30
0.0
 10
460.1819591955
 20
43.5119441067
 30
0.0
 10
460.1091512204
 20
43.7475804223
 30
0.0
 10
460.0927162428
 20
43.9114440617
 30
0.0
 10
460.0927162298
 20
43.9931439305
 30
0.0
  0
SPLINE
  5
62E
100
AcDbEntity
  8
RUNDUNGEN
100
AcDbSpline
 62
7
  6
CONTINUOUS
 70
0
 71
3
 72
13
 73
9
 74
0
 42
0.0000001
 43
0.0000001
 44
0.0000000001
 40
0.0
 40
0.0
 40
0.0
 40
0.0
 40
0.2494185537
 40
0.4988218139
 40
0.6241166257
 40
0.7494130173
 40
0.8747019565
 40
1.0
 40
1.0
 40
1.0
 40
1.0
 10
441.5955576079
 20
64.9835066226
 30
0.0
 10
441.7581895448
 20
64.9835068119
 30
0.0
 10
442.0867853768
 20
64.919688648
 30
0.0
 10
442.4356175276
 20
64.689666608
 30
0.0
 10
442.6455477774
 20
64.4378845582
 30
0.0
 10
442.7634732755
 20
64.2211166866
 30
0.0
 10
442.8362812452
 20
63.9854803643
 30
0.0
 10
442.852716219
 20
63.8216167213
 30
0.0
 10
442.8527162298
 20
63.7399168509
 30
0.0
  0
SPLINE
  5
62F
100
AcDbEntity
  8
RUNDUNGEN
100
AcDbSpline
 62
7
  6
CONTINUOUS
 70
0
 71
3
 72
11
 73
7
 74
0
 42
0.0000001
 43
0.0000001
 44
0.0000000001
 40
0.0
 40
0.0
 40
0.0
 40
0.0
 40
0.2500139656
 40
0.500003507
 40
0.7499908108
 40
1.0
 40
1.0
 40
1.0
 40
1.0
 10
420.4198984288
 20
64.9835080271
 30
0.0
 10
420.3197227263
 20
64.9835080084
 30
0.0
 10
420.1185628781
 20
64.9594018511
 30
0.0
 10
419.83460437
 20
64.8528600877
 30
0.0
 10
419.5839283609
 20
64.6821163511
 30
0.0
 10
419.4485517191
 20
64.5313293328
 30
0.0
 10
419.3910943438
 20
64.4492718045
 30
0.0
  0
SPLINE
  5
630
100
AcDbEntity
  8
RUNDUNGEN
100
AcDbSpline
 62
7
  6
CONTINUOUS
 70
0
 71
3
 72
11
 73
7
 74
0
 42
0.0000001
 43
0.0000001
 44
0.0000000001
 40
0.0
 40
0.0
 40
0.0
 40
0.0
 40
0.2500108003
 40
0.5000108986
 40
0.7500048993
 40
1.0
 40
1.0
 40
1.0
 40
1.0
 10
479.9024605766
 20
39.4007014742
 30
0.0
 10
480.0174541364
 20
39.3550372198
 30
0.0
 10
480.2352014265
 20
39.2286976249
 30
0.0
 10
480.4911232621
 20
38.952564857
 30
0.0
 10
480.6550626052
 20
38.6135978167
 30
0.0
 10
480.6927161737
 20
38.3645786979
 30
0.0
 10
480.6927162298
 20
38.2408579627
 30
0.0
  0
SPLINE
  5
631
100
AcDbEntity
  8
BEZUGSACHSEN
100
AcDbSpline
 62
7
  6
CONTINUOUS
 70
0
 71
3
 72
14
 73
10
 74
0
 42
0.0000001
 43
0.0000001
 44
0.0000000001
 40
0.0
 40
0.0
 40
0.0
 40
0.0
 40
0.1250031919
 40
0.2500045165
 40
0.3750028465
 40
0.499999905
 40
0.6249991797
 40
0.7500016807
 40
1.0
 40
1.0
 40
1.0
 40
1.0
 10
468.5472375994
 20
49.3433402749
 30
0.0
 10
468.8757179122
 20
49.3068027886
 30
0.0
 10
469.532836543
 20
49.2349948999
 30
0.0
 10
470.5213151293
 20
49.1546861628
 30
0.0
 10
471.5126929993
 20
49.1208501104
 30
0.0
 10
472.5044416007
 20
49.1420639699
 30
0.0
 10
473.4937108407
 20
49.2129273011
 30
0.0
 10
474.8085057525
 20
49.3507609113
 30
0.0
 10
475.7933587857
 20
49.4680997098
 30
0.0
 10
476.4522640186
 20
49.5205679946
 30
0.0
  0
SPLINE
  5
632
100
AcDbEntity
  8
BEZUGSACHSEN
100
AcDbSpline
 62
7
  6
CONTINUOUS
 70
0
 71
3
 72
21
 73
17
 74
0
 42
0.0000001
 43
0.0000001
 44
0.0000000001
 40
0.0
 40
0.0
 40
0.0
 40
0.0
 40
0.1925098576
 40
0.3776145828
 40
0.548186454
 40
0.62593224
 40
0.6976384904
 40
0.8202445779
 40
0.870014535
 40
0.9115133757
 40
0.9445215853
 40
0.9691520595
 40
0.9786027104
 40
0.9864863744
 40
0.9933477325
 40
1.0
 40
1.0
 40
1.0
 40
1.0
 10
476.4522640186
 20
49.5205679946
 30
0.0
 10
476.5732016507
 20
49.530198196
 30
0.0
 10
476.8108041418
 20
49.5444108285
 30
0.0
 10
477.1560995073
 20
49.5560006288
 30
0.0
 10
477.4292261545
 20
49.5601508557
 30
0.0
 10
477.6309106489
 20
49.5606343213
 30
0.0
 10
477.8023526224
 20
49.5593172705
 30
0.0
 10
477.9561832222
 20
49.5557679222
 30
0.0
 10
478.0907167831
 20
49.5474222495
 30
0.0
 10
478.1686879635
 20
49.5394071251
 30
0.0
 10
478.2302538109
 20
49.528765439
 30
0.0
 10
478.2710855095
 20
49.5165888459
 30
0.0
 10
478.2943644993
 20
49.5037921542
 30
0.0
 10
478.3060446651
 20
49.4937389825
 30
0.0
 10
478.3133001274
 20
49.4820548148
 30
0.0
 10
478.3147853882
 20
49.473431545
 30
0.0
 10
478.3147853882
 20
49.4692392605
 30
0.0
  0
SPLINE
  5
633
100
AcDbEntity
  8
BEZUGSACHSEN
100
AcDbSpline
 62
7
  6
CONTINUOUS
 70
0
 71
3
 72
17
 73
13
 74
0
 42
0.0000001
 43
0.0000001
 44
0.0000000001
 40
0.0
 40
0.0
 40
0.0
 40
0.0
 40
0.0308457477
 40
0.0604157096
 40
0.1268752388
 40
0.1684403352
 40
0.2166972523
 40
0.3337006668
 40
0.4760035978
 40
0.6387807084
 40
0.815778551
 40
1.0
 40
1.0
 40
1.0
 40
1.0
 10
437.0207162298
 20
58.6664170145
 30
0.0
 10
437.0207162298
 20
58.6458784775
 30
0.0
 10
437.0158855624
 20
58.6052995834
 30
0.0
 10
436.9794106136
 20
58.5273888596
 30
0.0
 10
436.9021987711
 20
58.4699154072
 30
0.0
 10
436.8063932745
 20
58.4300383001
 30
0.0
 10
436.6735053061
 20
58.3922862996
 30
0.0
 10
436.4704030698
 20
58.3622819197
 30
0.0
 10
436.189771373
 20
58.3446235252
 30
0.0
 10
435.8686390222
 20
58.3426355745
 30
0.0
 10
435.5199026507
 20
58.3560568314
 30
0.0
 10
435.2801062324
 20
58.376160074
 30
0.0
 10
435.1581948602
 20
58.3897205064
 30
0.0
  0
SPLINE
  5
634
100
AcDbEntity
  8
BEZUGSACHSEN
100
AcDbSpline
 62
7
  6
CONTINUOUS
 70
0
 71
3
 72
17
 73
13
 74
0
 42
0.0000001
 43
0.0000001
 44
0.0000000001
 40
0.0
 40
0.0
 40
0.0
 40
0.0
 40
0.0308457484
 40
0.0604157161
 40
0.126875261
 40
0.1684403638
 40
0.2166972802
 40
0.3337006699
 40
0.4760035602
 40
0.6387806631
 40
0.8157785321
 40
1.0
 40
1.0
 40
1.0
 40
1.0
 10
466.6847162298
 20
49.0666437669
 30
0.0
 10
466.6847162298
 20
49.0871823043
 30
0.0
 10
466.6895468992
 20
49.1277612025
 30
0.0
 10
466.7260218576
 20
49.2056719391
 30
0.0
 10
466.8032337252
 20
49.2631453918
 30
0.0
 10
466.8990392361
 20
49.3030224996
 30
0.0
 10
467.0319271948
 20
49.3407744877
 30
0.0
 10
467.2350293866
 20
49.3707788599
 30
0.0
 10
467.5156610345
 20
49.3884372527
 30
0.0
 10
467.8367933702
 20
49.3904252091
 30
0.0
 10
468.1855297666
 20
49.377003954
 30
0.0
 10
468.4253262148
 20
49.3569007088
 30
0.0
 10
468.5472375994
 20
49.3433402749
 30
0.0
  0
SPLINE
  5
635
100
AcDbEntity
  8
BEZUGSACHSEN
100
AcDbSpline
 62
7
  6
CONTINUOUS
 70
0
 71
3
 72
21
 73
17
 74
0
 42
0.0000001
 43
0.0000001
 44
0.0000000001
 40
0.0
 40
0.0
 40
0.0
 40
0.0
 40
0.1925098576
 40
0.3776145828
 40
0.548186454
 40
0.62593224
 40
0.6976384904
 40
0.8202445779
 40
0.870014535
 40
0.9115133757
 40
0.9445215853
 40
0.9691520595
 40
0.9786027104
 40
0.9864863744
 40
0.9933477325
 40
1.0
 40
1.0
 40
1.0
 40
1.0
 10
427.253168441
 20
58.2124927868
 30
0.0
 10
427.1322308089
 20
58.2028625853
 30
0.0
 10
426.8946283177
 20
58.1886499529
 30
0.0
 10
426.5493329523
 20
58.1770601525
 30
0.0
 10
426.2762063051
 20
58.1729099256
 30
0.0
 10
426.0745218107
 20
58.1724264601
 30
0.0
 10
425.9030798372
 20
58.1737435109
 30
0.0
 10
425.7492492374
 20
58.1772928592
 30
0.0
 10
425.6147156765
 20
58.1856385319
 30
0.0
 10
425.536744496
 20
58.1936536563
 30
0.0
 10
425.4751786487
 20
58.2042953423
 30
0.0
 10
425.43434695
 20
58.2164719355
 30
0.0
 10
425.4110679602
 20
58.2292686272
 30
0.0
 10
425.3993877945
 20
58.2393217988
 30
0.0
 10
425.3921323321
 20
58.2510059666
 30
0.0
 10
425.3906470714
 20
58.2596292363
 30
0.0
 10
425.3906470714
 20
58.2638215208
 30
0.0
  0
SPLINE
  5
636
100
AcDbEntity
  8
BEZUGSACHSEN
100
AcDbSpline
 62
7
  6
CONTINUOUS
 70
0
 71
3
 72
14
 73
10
 74
0
 42
0.0000001
 43
0.0000001
 44
0.0000000001
 40
0.0
 40
0.0
 40
0.0
 40
0.0
 40
0.1250031919
 40
0.2500045148
 40
0.3750028425
 40
0.4999999016
 40
0.6249991776
 40
0.7500016795
 40
1.0
 40
1.0
 40
1.0
 40
1.0
 10
435.1581948602
 20
58.3897205064
 30
0.0
 10
434.8297145472
 20
58.4262579928
 30
0.0
 10
434.1725959206
 20
58.4980658804
 30
0.0
 10
433.1841173445
 20
58.5783746127
 30
0.0
 10
432.1927394843
 20
58.6122106865
 30
0.0
 10
431.2009908829
 20
58.5909968375
 30
0.0
 10
430.2117216386
 20
58.5201334657
 30
0.0
 10
428.8969267158
 20
58.3822998779
 30
0.0
 10
427.9120736773
 20
58.2649610719
 30
0.0
 10
427.253168441
 20
58.2124927868
 30
0.0
  0
SPLINE
  5
637
100
AcDbEntity
  8
KONSTRUKTIONSELEMENTE
100
AcDbSpline
 62
7
  6
CONTINUOUS
 70
0
 71
3
 72
10
 73
6
 74
0
 42
0.0000001
 43
0.0000001
 44
0.0000000001
 40
0.0
 40
0.0
 40
0.0
 40
0.0
 40
0.2500217189
 40
0.5000367431
 40
1.0
 40
1.0
 40
1.0
 40
1.0
 10
411.6927458731
 20
149.3431314966
 30
0.0
 10
412.5266196683
 20
149.3431219463
 30
0.0
 10
414.1963185034
 20
149.4728792867
 30
0.0
 10
417.4650540727
 20
150.1721139766
 30
0.0
 10
419.81828535
 20
151.0364605859
 30
0.0
 10
421.4027162298
 20
151.5561421315
 30
0.0
  0
ELLIPSE
  5
638
100
AcDbEntity
  8
0
100
AcDbEllipse
 62
7
  6
CONTINUOUS
 10
488.1087162298
 20
53.8665303907
 30
0.0
 11
0.0
 21
3.7250427393
 31
0.0
 40
0.1051042353
 41
-0.0
 42
3.1415926536
  0
ELLIPSE
  5
639
100
AcDbEntity
  8
0
100
AcDbEllipse
 62
7
  6
CONTINUOUS
 10
460.0927162298
 20
53.8665303907
 30
0.0
 11
0.0
 21
3.25
 31
0.0
 40
0.1583844403
 41
3.1415926536
 42
6.2831853072
  0
ELLIPSE
  5
63A
100
AcDbEntity
  8
0
100
AcDbEllipse
 62
7
  6
CONTINUOUS
 10
415.8527162298
 20
53.8665303907
 30
0.0
 11
0.0
 21
3.7250427393
 31
0.0
 40
0.1051042353
 41
3.1415926536
 42
6.2831853072
  0
ELLIPSE
  5
63B
100
AcDbEntity
  8
BEZUGSACHSEN
100
AcDbEllipse
 62
7
  6
CONTINUOUS
 10
488.1087162298
 20
53.8665303907
 30
0.0
 11
0.0
 21
3.7250427393
 31
0.0
 40
0.1051042353
 41
-0.0
 42
3.1415926536
  0
ELLIPSE
  5
63C
100
AcDbEntity
  8
BEZUGSACHSEN
100
AcDbEllipse
 62
7
  6
CONTINUOUS
 10
460.0927162298
 20
53.8665303907
 30
0.0
 11
-0.0
 21
3.25
 31
0.0
 40
0.1583844403
 41
-3.1415926536
 42
0.0
  0
ELLIPSE
  5
63D
100
AcDbEntity
  8
0
100
AcDbEllipse
 62
7
  6
CONTINUOUS
 10
442.8527162298
 20
53.8665303907
 30
0.0
 11
0.0
 21
3.25
 31
0.0
 40
0.1583844403
 41
0.0
 42
3.1415926536
  0
ENDSEC
  0
SECTION
  2
OBJECTS
  0
DICTIONARY
  5
C
100
AcDbDictionary
280
0
281
1
  3
ACAD_GROUP
350
D
  3
ACAD_MLINESTYLE
350
17
  3
ACAD_LAYOUT
350
1A
  3
ACAD_PLOTSETTINGS
350
19
  3
ACAD_PLOTSTYLENAME
350
E
  0
DICTIONARY
  5
D
102
{ACAD_REACTORS
330
C
102
}
100
AcDbDictionary
280
0
281
1
  0
ACDBDICTIONARYWDFLT
  5
E
102
{ACAD_REACTORS
330
C
102
}
100
AcDbDictionary
281
1
  3
Normal
350
F
100
AcDbDictionaryWithDefault
340
F
  0
DICTIONARY
  5
17
102
{ACAD_REACTORS
330
C
102
}
100
AcDbDictionary
280
0
281
1
  3
Standard
350
18
  0
DICTIONARY
  5
19
102
{ACAD_REACTORS
330
C
102
}
100
AcDbDictionary
281
1
  0
DICTIONARY
  5
1A
102
{ACAD_REACTORS
330
C
102
}
100
AcDbDictionary
281
1
  3
Model
350
63E
  3
Layout1
350
63F
  0
ACDBPLACEHOLDER
  5
F
102
{ACAD_REACTORS
330
E
102
}
  0
MLINESTYLE
  5
18
102
{ACAD_REACTORS
330
17
102
}
100
AcDbMlineStyle
  2
STANDARD
 70
0
  3

 62
256
 51
90.0
 52
90.0
 71
2
 49
0.5
 62
256
  6
BYLAYER
 49
-0.5
 62
256
  6
BYLAYER
  0
LAYOUT
  5
63E
102
{ACAD_REACTORS
330
1A
102
}
100
AcDbPlotSettings
  1

  2
none_device
  4
ISO_A2_(594.00_x_420.00_MM)
  6

 40
0.0
 41
0.0
 42
0.0
 43
0.0
 44
594.0
 45
420.0
 46
0.0
 47
0.0
 48
0.0
 49
0.0
140
0.0
141
0.0
142
1.0
143
1.0
 70
1024
 72
1
 73
0
 74
0
  7

 75
0
147
1.0
148
0.0
149
0.0
100
AcDbLayout
  1
Model
 70
0
 71
0
 10
0.0
 20
0.0
 11
594.0
 21
420.0
 12
0.0
 22
0.0
 32
0.0
 14
0.0
 24
0.0
 34
0.0
 15
0.0
 25
0.0
 35
0.0
146
0.0
 13
0.0
 23
0.0
 33
0.0
 16
1.0
 26
0.0
 36
0.0
 17
0.0
 27
1.0
 37
0.0
 76
0
330
20D
345
0
346
0
  0
LAYOUT
  5
63F
102
{ACAD_REACTORS
330
1A
102
}
100
AcDbPlotSettings
  1

  2
none_device
  4
ISO_A2_(594.00_x_420.00_MM)
  6

 40
0.0
 41
0.0
 42
0.0
 43
0.0
 44
594.0
 45
420.0
 46
0.0
 47
0.0
 48
0.0
 49
0.0
140
0.0
141
0.0
142
1.0
143
1.0
 70
0
 72
1
 73
0
 74
0
  7

 75
0
147
1.0
148
0.0
149
0.0
100
AcDbLayout
  1
Layout1
 70
0
 71
1
 10
0.0
 20
0.0
 11
594.0
 21
420.0
 12
0.0
 22
0.0
 32
0.0
 14
0.0
 24
0.0
 34
0.0
 15
0.0
 25
0.0
 35
0.0
146
0.0
 13
0.0
 23
0.0
 33
0.0
 16
1.0
 26
0.0
 36
0.0
 17
0.0
 27
1.0
 37
0.0
 76
0
330
20E
345
0
346
0
  0
ENDSEC
  0
EOF
