999
DXF file: 001-m34963-p-1.dxf
999
Pro/ENGINEER 2011490 by Parametric Technology Corporation
  0
SECTION
  2
HEADER
  9
$ACADVER
  1
AC1015
  9
$DWGCODEPAGE
  3
ANSI_1252
  9
$EXTMAX
 10
594.0
 20
420.0
 30
0.0
  9
$EXTMIN
 10
0.0
 20
0.0
 30
0.0
  9
$LIMMIN
 10
0.0
 20
0.0
  9
$LIMMAX
 10
594.0
 20
420.0
  9
$VIEWCTR
 10
297.0
 20
210.0
  9
$VIEWSIZE
 40
420.0
  9
$CLAYER
  8
0
  9
$LTSCALE
 40
32.67
  9
$CELTYPE
  6
BYLAYER
  9
$DIMSCALE
 40
1.0
  9
$DIMASZ
 40
3.5
  9
$DIMEXO
 40
3.7125
  9
$DIMDLI
 40
22.572
  9
$DIMEXE
 40
10.692
  9
$DIMCEN
 40
5.346
  9
$DIMLFAC
 40
1.0
  9
$DIMBLK
  1
_FILLED
  9
$DIMTXT
 40
3.5
  9
$DIMTOL
 70
1
  9
$DIMLIM
 70
0
  9
$DIMTFAC
 40
1.0
  9
$DIMTP
 40
0.005
  9
$DIMTM
 40
0.005
  9
$PDMODE
 70
3
  9
$PDSIZE
 40
0.3125
  9
$HANDSEED
  5
8A6
  9
$TILEMODE
 70
1
  9
$MEASUREMENT
 70
1
  9
$INSUNITS
 70
4
  0
ENDSEC
  0
SECTION
  2
CLASSES
  0
CLASS
  1
ACDBDICTIONARYWDFLT
  2
AcDbDictionaryWithDefault
  3
AutoCAD 2000
 90
0
280
0
281
0
  0
CLASS
  1
ACDBPLACEHOLDER
  2
AcDbPlaceHolder
  3
AutoCAD 2000
 90
0
280
0
281
0
  0
CLASS
  1
LAYOUT
  2
AcDbLayout
  3
AutoCAD 2000
 90
0
280
0
281
0
  0
ENDSEC
  0
SECTION
  2
TABLES
  0
TABLE
  2
VPORT
  5
8
100
AcDbSymbolTable
 70
2
  0
VPORT
  5
1F4
100
AcDbSymbolTableRecord
100
AcDbViewportTableRecord
  2
*ACTIVE
 70
0
 10
0.0
 20
0.0
 11
1.0
 21
1.0
 12
297.0
 22
210.0
 13
0.0
 23
0.0
 14
1.0
 24
1.0
 15
0.0
 25
0.0
 16
0.0
 26
0.0
 36
1.0
 17
0.0
 27
0.0
 37
0.0
 40
420.0
 41
1.4142857143
 42
50.0
 43
0.0
 44
0.0
 50
0.0
 51
0.0
 71
0
 72
100
 73
1
 74
1
 75
0
 76
0
 77
0
 78
0
  0
ENDTAB
  0
TABLE
  2
LTYPE
  5
5
100
AcDbSymbolTable
 70
6
  0
LTYPE
  5
14
100
AcDbSymbolTableRecord
100
AcDbLinetypeTableRecord
  2
BYBLOCK
 70
0
  3

 72
65
 73
0
 40
0.0
  0
LTYPE
  5
15
100
AcDbSymbolTableRecord
100
AcDbLinetypeTableRecord
  2
BYLAYER
 70
0
  3

 72
65
 73
0
 40
0.0
  0
LTYPE
  5
16
100
AcDbSymbolTableRecord
100
AcDbLinetypeTableRecord
  2
CONTINUOUS
 70
64
  3
Solid line
 72
65
 73
0
 40
0.0
  0
LTYPE
  5
1F5
100
AcDbSymbolTableRecord
100
AcDbLinetypeTableRecord
  2
CENTER
 70
64
  3
____ _ ____ _ ____ _ ____ _ ____ _ ____ _ ____
 72
65
 73
4
 40
0.6
 49
0.375
 74
0
 49
-0.075
 74
0
 49
0.075
 74
0
 49
-0.075
 74
0
  0
LTYPE
  5
1F6
100
AcDbSymbolTableRecord
100
AcDbLinetypeTableRecord
  2
HIDDEN
 70
64
  3
- - - - - - - - - - - - - - - - - - - -
 72
65
 73
2
 40
0.2
 49
0.1
 74
0
 49
-0.1
 74
0
  0
LTYPE
  5
1F7
100
AcDbSymbolTableRecord
100
AcDbLinetypeTableRecord
  2
PHANTOM
 70
64
  3
_____ _ _ _____ _ _ _____ _ _ _____
 72
65
 73
6
 40
0.8
 49
0.45
 74
0
 49
-0.05
 74
0
 49
0.1
 74
0
 49
-0.05
 74
0
 49
0.1
 74
0
 49
-0.05
 74
0
  0
LTYPE
  5
1F8
100
AcDbSymbolTableRecord
100
AcDbLinetypeTableRecord
  2
DOT
 70
64
  3
. . . . . . . . . . . . . . . . . . . .
 72
65
 73
2
 40
0.2
 49
0.1
 74
0
 49
-0.1
 74
0
  0
LTYPE
  5
1F9
100
AcDbSymbolTableRecord
100
AcDbLinetypeTableRecord
  2
DASHED
 70
64
  3
- - - - - - - - - - - - - - - - - - - -
 72
65
 73
2
 40
0.2
 49
0.1
 74
0
 49
-0.1
 74
0
  0
ENDTAB
  0
TABLE
  2
LAYER
  5
2
100
AcDbSymbolTable
 70
36
  0
LAYER
  5
10
100
AcDbSymbolTableRecord
100
AcDbLayerTableRecord
  2
0
 70
0
 62
7
  6
CONTINUOUS
370
-3
390
F
  0
LAYER
  5
1FA
100
AcDbSymbolTableRecord
100
AcDbLayerTableRecord
  2
DEFAULT_1
 70
0
 62
7
  6
CENTER
370
-3
390
F
  0
LAYER
  5
1FB
100
AcDbSymbolTableRecord
100
AcDbLayerTableRecord
  2
DEFAULT_2
 70
0
 62
8
  6
HIDDEN
370
-3
390
F
  0
LAYER
  5
1FC
100
AcDbSymbolTableRecord
100
AcDbLayerTableRecord
  2
DEFAULT_3
 70
0
 62
7
  6
PHANTOM
370
-3
390
F
  0
LAYER
  5
1FD
100
AcDbSymbolTableRecord
100
AcDbLayerTableRecord
  2
AUSFORMSCHRAEGEN
 70
0
 62
7
  6
CONTINUOUS
370
-3
390
F
  0
LAYER
  5
1FE
100
AcDbSymbolTableRecord
100
AcDbLayerTableRecord
  2
BEZUGSACHSEN
 70
0
 62
7
  6
CONTINUOUS
370
-3
390
F
  0
LAYER
  5
1FF
100
AcDbSymbolTableRecord
100
AcDbLayerTableRecord
  2
BEZUGSEBENEN
 70
0
 62
7
  6
CONTINUOUS
370
-3
390
F
  0
LAYER
  5
200
100
AcDbSymbolTableRecord
100
AcDbLayerTableRecord
  2
BG_STARTBEZUEGE
 70
0
 62
7
  6
CONTINUOUS
370
-3
390
F
  0
LAYER
  5
201
100
AcDbSymbolTableRecord
100
AcDbLayerTableRecord
  2
FASEN
 70
0
 62
7
  6
CONTINUOUS
370
-3
390
F
  0
LAYER
  5
202
100
AcDbSymbolTableRecord
100
AcDbLayerTableRecord
  2
HILFEN
 70
0
 62
7
  6
CONTINUOUS
370
-3
390
F
  0
LAYER
  5
203
100
AcDbSymbolTableRecord
100
AcDbLayerTableRecord
  2
KONSTRUKTIONSELEMENTE
 70
0
 62
7
  6
CONTINUOUS
370
-3
390
F
  0
LAYER
  5
204
100
AcDbSymbolTableRecord
100
AcDbLayerTableRecord
  2
NORM
 70
0
 62
7
  6
CONTINUOUS
370
-3
390
F
  0
LAYER
  5
205
100
AcDbSymbolTableRecord
100
AcDbLayerTableRecord
  2
PLATZIERUNG
 70
0
 62
7
  6
CONTINUOUS
370
-3
390
F
  0
LAYER
  5
206
100
AcDbSymbolTableRecord
100
AcDbLayerTableRecord
  2
RUNDUNGEN
 70
0
 62
7
  6
CONTINUOUS
370
-3
390
F
  0
LAYER
  5
207
100
AcDbSymbolTableRecord
100
AcDbLayerTableRecord
  2
TEIL_STARTBEZUEGE
 70
0
 62
7
  6
CONTINUOUS
370
-3
390
F
  0
LAYER
  5
208
100
AcDbSymbolTableRecord
100
AcDbLayerTableRecord
  2
T_STARTBEZUEGE
 70
0
 62
7
  6
CONTINUOUS
370
-3
390
F
  0
LAYER
  5
209
100
AcDbSymbolTableRecord
100
AcDbLayerTableRecord
  2
ZEICHNUNGSBEMASSUNGEN
 70
0
 62
7
  6
CONTINUOUS
370
-3
390
F
  0
ENDTAB
  0
TABLE
  2
STYLE
  5
3
100
AcDbSymbolTable
 70
1
  0
STYLE
  5
11
100
AcDbSymbolTableRecord
100
AcDbTextStyleTableRecord
  2
STANDARD
 70
0
 40
0.0
 41
0.7
 50
0.0
 71
0
 42
0.2
  3
txt
  4

  0
STYLE
  5
20A
100
AcDbSymbolTableRecord
100
AcDbTextStyleTableRecord
  2
TEXTSTYLE_1
 70
0
 40
0.0
 41
0.8
 50
0.0
 71
0
 42
0.2
  3
gdt
  4

  0
ENDTAB
  0
TABLE
  2
VIEW
  5
6
100
AcDbSymbolTable
 70
0
  0
ENDTAB
  0
TABLE
  2
UCS
  5
7
100
AcDbSymbolTable
 70
0
  0
ENDTAB
  0
TABLE
  2
APPID
  5
9
100
AcDbSymbolTable
 70
1
  0
APPID
  5
20B
100
AcDbSymbolTableRecord
100
AcDbRegAppTableRecord
  2
ACAD
 70
0
  0
ENDTAB
  0
TABLE
  2
BLOCK_RECORD
  5
1
100
AcDbSymbolTable
 70
0
  0
BLOCK_RECORD
  5
20C
100
AcDbSymbolTableRecord
100
AcDbBlockTableRecord
  2
*Model_Space
  0
BLOCK_RECORD
  5
20D
100
AcDbSymbolTableRecord
100
AcDbBlockTableRecord
  2
*Paper_Space
  0
ENDTAB
  0
TABLE
  2
DIMSTYLE
  5
A
100
AcDbSymbolTable
 70
1
100
AcDbDimStyleTable
 71
0
  0
DIMSTYLE
105
20E
100
AcDbSymbolTableRecord
100
AcDbDimStyleTableRecord
  2
STANDARD
 70
0
  3

  4

 40
1.0
 41
3.5
 42
0.0625
 43
0.38
 44
0.18
 45
0.0
 46
0.0
 47
0.005
 48
0.005
140
3.5
141
0.09
142
0.0
143
25.4
144
1.0
145
0.0
146
1.0
147
0.09
 71
1.0
 72
0.0
 73
0
 74
0
 75
0
 76
0
 77
1
 78
8
170
0
171
2
172
0
173
0
174
0
175
0
176
0
177
0
178
5
270
2
271
3
272
3
273
2
274
2
275
0
280
0
281
0
282
0
283
1
284
8
285
0
286
0
287
3
288
0
340
11
  0
ENDTAB
  0
ENDSEC
  0
SECTION
  2
BLOCKS
  0
BLOCK
  5
20
100
AcDbEntity
  8
0
100
AcDbBlockBegin
  2
*Model_Space
 70
0
 10
0.0
 20
0.0
 30
0.0
  3
*Model_Space
  1

  0
ENDBLK
  5
21
100
AcDbEntity
  8
0
100
AcDbBlockEnd
  0
BLOCK
  5
1C
100
AcDbEntity
  8
0
100
AcDbBlockBegin
  2
*Paper_Space
 70
0
 10
0.0
 20
0.0
 30
0.0
  3
*Paper_Space
  1

  0
ENDBLK
  5
1D
100
AcDbEntity
  8
0
100
AcDbBlockEnd
  0
ENDSEC
  0
SECTION
  2
ENTITIES
  0
MTEXT
  5
20F
100
AcDbEntity
  8
0
100
AcDbMText
 62
5
  6
CONTINUOUS
  7
STANDARD
 71
1
 72
1
 10
217.3448709616
 20
190.758989726
 30
0.0
 11
1.0
 21
0.0
 31
0.0
 44
0.9
  1
IWK-2S-6
 40
5.0
 41
33.8095238095
  0
MTEXT
  5
210
100
AcDbEntity
  8
0
100
AcDbMText
 62
5
  6
CONTINUOUS
  7
STANDARD
 71
1
 72
1
 10
410.4019372099
 20
257.9937469342
 30
0.0
 11
0.0
 21
1.0
 31
0.0
 44
0.9
  1
IWK-2S-6
 40
5.0
 41
33.8095238095
  0
LINE
  5
211
100
AcDbEntity
  8
0
100
AcDbLine
 62
7
  6
CONTINUOUS
 10
0.0
 20
0.0
 11
0.0
 21
420.0
  0
LINE
  5
212
100
AcDbEntity
  8
0
100
AcDbLine
 62
7
  6
CONTINUOUS
 10
0.0
 20
0.0
 11
594.0
 21
0.0
  0
LINE
  5
213
100
AcDbEntity
  8
0
100
AcDbLine
 62
7
  6
CONTINUOUS
 10
0.0
 20
420.0
 11
594.0
 21
420.0
  0
LINE
  5
214
100
AcDbEntity
  8
0
100
AcDbLine
 62
7
  6
CONTINUOUS
 10
594.0
 20
0.0
 11
594.0
 21
420.0
  0
LINE
  5
215
100
AcDbEntity
  8
RUNDUNGEN
100
AcDbLine
 62
7
  6
CONTINUOUS
 10
66.9607813642
 20
67.1717741255
 11
63.4252474583
 21
70.7073080314
  0
LINE
  5
216
100
AcDbEntity
  8
BEZUGSACHSEN
100
AcDbLine
 62
7
  6
CONTINUOUS
 10
293.0168082476
 20
43.9332398656
 11
290.7471700335
 21
43.6946912768
  0
LINE
  5
217
100
AcDbEntity
  8
BEZUGSACHSEN
100
AcDbLine
 62
7
  6
CONTINUOUS
 10
183.0168082476
 20
43.9332398656
 11
180.7471700335
 21
43.6946912768
  0
LINE
  5
218
100
AcDbEntity
  8
BEZUGSACHSEN
100
AcDbLine
 62
7
  6
CONTINUOUS
 10
180.7471700335
 20
43.6946912768
 11
178.4775318193
 21
43.9332398656
  0
LINE
  5
219
100
AcDbEntity
  8
AUSFORMSCHRAEGEN
100
AcDbLine
 62
7
  6
CONTINUOUS
 10
180.7471700335
 20
43.6946912768
 11
178.4775318193
 21
43.9332398656
  0
LINE
  5
21A
100
AcDbEntity
  8
BEZUGSACHSEN
100
AcDbLine
 62
7
  6
CONTINUOUS
 10
290.7471700335
 20
43.6946912768
 11
288.4775318193
 21
43.9332398656
  0
LINE
  5
21B
100
AcDbEntity
  8
AUSFORMSCHRAEGEN
100
AcDbLine
 62
7
  6
CONTINUOUS
 10
290.7471700335
 20
43.6946912768
 11
288.4775318193
 21
43.9332398656
  0
LINE
  5
21C
100
AcDbEntity
  8
RUNDUNGEN
100
AcDbLine
 62
7
  6
CONTINUOUS
 10
99.2187700943
 20
106.5008306674
 11
102.7543040002
 21
102.9652967614
  0
LINE
  5
21D
100
AcDbEntity
  8
RUNDUNGEN
100
AcDbLine
 62
7
  6
CONTINUOUS
 10
108.9726273743
 20
109.1836201355
 11
105.4370934683
 21
112.7191540414
  0
LINE
  5
21E
100
AcDbEntity
  8
RUNDUNGEN
100
AcDbLine
 62
7
  6
CONTINUOUS
 10
105.5558912266
 20
112.8379517997
 11
109.0914251325
 21
109.3024178937
  0
LINE
  5
21F
100
AcDbEntity
  8
0
100
AcDbLine
 62
7
  6
CONTINUOUS
 10
240.4996696758
 20
100.5239094537
 11
240.1246700335
 21
100.4281647843
  0
LINE
  5
220
100
AcDbEntity
  8
0
100
AcDbLine
 62
7
  6
CONTINUOUS
 10
235.9996702123
 20
100.5239094537
 11
235.6246700335
 21
100.4281647843
  0
LINE
  5
221
100
AcDbEntity
  8
0
100
AcDbLine
 62
7
  6
CONTINUOUS
 10
240.1246700335
 20
99.8536967006
 11
240.5934203911
 21
99.9494413784
  0
LINE
  5
222
100
AcDbEntity
  8
0
100
AcDbLine
 62
7
  6
CONTINUOUS
 10
235.6246700335
 20
99.8536967006
 11
236.0934198546
 21
99.9494413784
  0
LINE
  5
223
100
AcDbEntity
  8
BEZUGSACHSEN
100
AcDbLine
 62
7
  6
CONTINUOUS
 10
185.0358313693
 20
90.4953643091
 11
235.7471700335
 21
99.4371415435
  0
LINE
  5
224
100
AcDbEntity
  8
0
100
AcDbLine
 62
7
  6
CONTINUOUS
 10
194.7471700335
 20
95.2540151701
 11
195.1164729408
 21
95.3191332367
  0
LINE
  5
225
100
AcDbEntity
  8
0
100
AcDbLine
 62
7
  6
CONTINUOUS
 10
196.1012807232
 20
95.4927814196
 11
196.5936845704
 21
95.5796055032
  0
LINE
  5
226
100
AcDbEntity
  8
0
100
AcDbLine
 62
7
  6
CONTINUOUS
 10
197.5784922647
 20
95.7532536705
 11
198.0708961999
 21
95.8400777697
  0
LINE
  5
227
100
AcDbEntity
  8
0
100
AcDbLine
 62
7
  6
CONTINUOUS
 10
201.3946223663
 20
96.4261403693
 11
201.7023750239
 21
96.4804054663
  0
LINE
  5
228
100
AcDbEntity
  8
0
100
AcDbLine
 62
7
  6
CONTINUOUS
 10
206.0724589583
 20
97.2509691719
 11
206.4417618657
 21
97.3160872385
  0
LINE
  5
229
100
AcDbEntity
  8
0
100
AcDbLine
 62
7
  6
CONTINUOUS
 10
207.9189741996
 20
97.5765596292
 11
208.4729285607
 21
97.6742367291
  0
LINE
  5
22A
100
AcDbEntity
  8
0
100
AcDbLine
 62
7
  6
CONTINUOUS
 10
209.8270382819
 20
97.9130028078
 11
212.0428557261
 21
98.3037112076
  0
LINE
  5
22B
100
AcDbEntity
  8
0
100
AcDbLine
 62
7
  6
CONTINUOUS
 10
201.7085056413
 20
96.8055587892
 11
201.2776524842
 21
96.7295877529
  0
LINE
  5
22C
100
AcDbEntity
  8
0
100
AcDbLine
 62
7
  6
CONTINUOUS
 10
211.9763521689
 20
98.6808716227
 11
210.129837632
 21
98.3552812895
  0
LINE
  5
22D
100
AcDbEntity
  8
0
100
AcDbLine
 62
7
  6
CONTINUOUS
 10
208.4064250034
 20
98.0513971442
 11
207.8524706424
 21
97.9537200443
  0
LINE
  5
22E
100
AcDbEntity
  8
0
100
AcDbLine
 62
7
  6
CONTINUOUS
 10
209.2016277605
 20
98.580499632
 11
208.8323248531
 21
98.5153815654
  0
LINE
  5
22F
100
AcDbEntity
  8
0
100
AcDbLine
 62
7
  6
CONTINUOUS
 10
198.8672773312
 20
97.0823471075
 11
199.7289839977
 21
97.2342892423
  0
LINE
  5
230
100
AcDbEntity
  8
0
100
AcDbLine
 62
7
  6
CONTINUOUS
 10
199.6735643576
 20
97.5485896396
 11
198.8118576912
 21
97.3966475048
  0
LINE
  5
231
100
AcDbEntity
  8
0
100
AcDbLine
 62
7
  6
CONTINUOUS
 10
209.9524948101
 20
99.3610424112
 11
211.5528083479
 21
99.6432208655
  0
LINE
  5
232
100
AcDbEntity
  8
0
100
AcDbLine
 62
7
  6
CONTINUOUS
 10
201.0559739627
 20
97.9867891219
 11
201.4868271198
 21
98.0627601583
  0
LINE
  5
233
100
AcDbEntity
  8
0
100
AcDbLine
 62
7
  6
CONTINUOUS
 10
211.4863047985
 20
100.0203812366
 11
209.8859912606
 21
99.7382027823
  0
LINE
  5
234
100
AcDbEntity
  8
0
100
AcDbLine
 62
7
  6
CONTINUOUS
 10
201.3698572455
 20
98.3662074978
 11
201.0621045879
 21
98.3119424009
  0
LINE
  5
235
100
AcDbEntity
  8
0
100
AcDbLine
 62
7
  6
CONTINUOUS
 10
208.5773945646
 20
99.9611630759
 11
208.946697472
 21
100.0262811425
  0
LINE
  5
236
100
AcDbEntity
  8
0
100
AcDbLine
 62
7
  6
CONTINUOUS
 10
201.7957570719
 20
98.830192051
 11
202.1035097295
 21
98.8844571479
  0
LINE
  5
237
100
AcDbEntity
  8
0
100
AcDbLine
 62
7
  6
CONTINUOUS
 10
207.4645332161
 20
100.1538225171
 11
208.0184875771
 21
100.2514996171
  0
LINE
  5
238
100
AcDbEntity
  8
0
100
AcDbLine
 62
7
  6
CONTINUOUS
 10
209.7419002057
 20
100.5553837624
 11
211.5884147426
 21
100.8809740955
  0
LINE
  5
239
100
AcDbEntity
  8
0
100
AcDbLine
 62
7
  6
CONTINUOUS
 10
200.8675472081
 20
99.0554103494
 11
201.2368501155
 21
99.1205284161
  0
LINE
  5
23A
100
AcDbEntity
  8
0
100
AcDbLine
 62
7
  6
CONTINUOUS
 10
211.5219111931
 20
101.2581344666
 11
209.3060937489
 21
100.8674260668
  0
LINE
  5
23B
100
AcDbEntity
  8
0
100
AcDbLine
 62
7
  6
CONTINUOUS
 10
207.9519840277
 20
100.6286599882
 11
207.3980296666
 21
100.5309828882
  0
LINE
  5
23C
100
AcDbEntity
  8
0
100
AcDbLine
 62
7
  6
CONTINUOUS
 10
205.9208173327
 20
100.2705104975
 11
205.5515144253
 21
100.2053924309
  0
LINE
  5
23D
100
AcDbEntity
  8
0
100
AcDbLine
 62
7
  6
CONTINUOUS
 10
201.1198795367
 20
99.4239756314
 11
200.8736778333
 21
99.3805636284
  0
LINE
  5
23E
100
AcDbEntity
  8
0
100
AcDbLine
 62
7
  6
CONTINUOUS
 10
198.042355426
 20
98.8813250969
 11
197.6730525186
 21
98.8162070303
  0
LINE
  5
23F
100
AcDbEntity
  8
0
100
AcDbLine
 62
7
  6
CONTINUOUS
 10
196.8113458521
 20
98.6642648955
 11
196.3189419169
 21
98.5774407963
  0
LINE
  5
240
100
AcDbEntity
  8
0
100
AcDbLine
 62
7
  6
CONTINUOUS
 10
195.4572351624
 20
98.425498646
 11
195.087932255
 21
98.3603805794
  0
LINE
  5
241
100
AcDbEntity
  8
0
100
AcDbLine
 62
7
  6
CONTINUOUS
 10
194.5955284078
 20
98.2735564957
 11
194.2262255005
 21
98.2084384291
  0
LINE
  5
242
100
AcDbEntity
  8
BEZUGSACHSEN
100
AcDbLine
 62
7
  6
CONTINUOUS
 10
290.7471700335
 20
110.2927021244
 11
288.5841118193
 21
110.065355545
  0
LINE
  5
243
100
AcDbEntity
  8
AUSFORMSCHRAEGEN
100
AcDbLine
 62
7
  6
CONTINUOUS
 10
290.7471700335
 20
110.2927021244
 11
288.5841118193
 21
110.065355545
  0
LINE
  5
244
100
AcDbEntity
  8
0
100
AcDbLine
 62
7
  6
CONTINUOUS
 10
229.4371700335
 20
99.8536967006
 11
229.9996700335
 21
99.8536967006
  0
LINE
  5
245
100
AcDbEntity
  8
0
100
AcDbLine
 62
7
  6
CONTINUOUS
 10
232.3434199441
 20
99.8536967006
 11
232.9996701229
 21
99.8536967006
  0
LINE
  5
246
100
AcDbEntity
  8
0
100
AcDbLine
 62
7
  6
CONTINUOUS
 10
235.2496698546
 20
99.8536967006
 11
235.6246700335
 21
99.8536967006
  0
LINE
  5
247
100
AcDbEntity
  8
0
100
AcDbLine
 62
7
  6
CONTINUOUS
 10
237.8746700335
 20
99.8536967006
 11
240.1246700335
 21
99.8536967006
  0
LINE
  5
248
100
AcDbEntity
  8
0
100
AcDbLine
 62
7
  6
CONTINUOUS
 10
240.1246700335
 20
100.4281647843
 11
238.4371700335
 21
100.4281647843
  0
LINE
  5
249
100
AcDbEntity
  8
0
100
AcDbLine
 62
7
  6
CONTINUOUS
 10
235.6246700335
 20
100.4281647843
 11
235.2496698546
 21
100.4281647843
  0
LINE
  5
24A
100
AcDbEntity
  8
0
100
AcDbLine
 62
7
  6
CONTINUOUS
 10
201.0757857828
 20
96.4347353398
 11
201.3946223663
 21
96.4261403693
  0
LINE
  5
24B
100
AcDbEntity
  8
0
100
AcDbLine
 62
7
  6
CONTINUOUS
 10
207.6001369117
 20
97.5851544754
 11
207.9189741996
 21
97.5765596292
  0
LINE
  5
24C
100
AcDbEntity
  8
0
100
AcDbLine
 62
7
  6
CONTINUOUS
 10
201.6886931236
 20
98.3576124087
 11
201.3698572455
 21
98.3662074978
  0
LINE
  5
24D
100
AcDbEntity
  8
0
100
AcDbLine
 62
7
  6
CONTINUOUS
 10
201.4387161193
 20
99.4153806665
 11
201.1198795367
 21
99.4239756314
  0
LINE
  5
24E
100
AcDbEntity
  8
0
100
AcDbLine
 62
7
  6
CONTINUOUS
 10
207.8524706424
 20
97.9537200443
 11
207.5951843096
 21
97.9731679789
  0
LINE
  5
24F
100
AcDbEntity
  8
0
100
AcDbLine
 62
7
  6
CONTINUOUS
 10
201.2776524842
 20
96.7295877529
 11
201.0819171056
 21
96.7598887814
  0
LINE
  5
250
100
AcDbEntity
  8
KONSTRUKTIONSELEMENTE
100
AcDbLine
 62
7
  6
CONTINUOUS
 10
103.6596233078
 20
120.9118894956
 11
107.1951572137
 21
117.3763555897
  0
LINE
  5
251
100
AcDbEntity
  8
KONSTRUKTIONSELEMENTE
100
AcDbLine
 62
7
  6
CONTINUOUS
 10
104.0131766984
 20
121.2654428862
 11
107.5487106043
 21
117.7299089803
  0
LINE
  5
252
100
AcDbEntity
  8
BEZUGSACHSEN
100
AcDbLine
 62
7
  6
CONTINUOUS
 10
180.7471700335
 20
110.2927021244
 11
178.5841118193
 21
110.065355545
  0
LINE
  5
253
100
AcDbEntity
  8
AUSFORMSCHRAEGEN
100
AcDbLine
 62
7
  6
CONTINUOUS
 10
180.7471700335
 20
110.2927021244
 11
178.5841118193
 21
110.065355545
  0
LINE
  5
254
100
AcDbEntity
  8
0
100
AcDbLine
 62
7
  6
CONTINUOUS
 10
229.9996700335
 20
101.864335027
 11
231.5934199888
 21
101.864335027
  0
LINE
  5
255
100
AcDbEntity
  8
0
100
AcDbLine
 62
7
  6
CONTINUOUS
 10
231.7809199441
 20
102.4388030437
 11
229.9996700335
 21
102.4388030437
  0
LINE
  5
256
100
AcDbEntity
  8
0
100
AcDbLine
 62
7
  6
CONTINUOUS
 10
238.4371700335
 20
103.779228684
 11
240.1246700335
 21
103.779228684
  0
LINE
  5
257
100
AcDbEntity
  8
0
100
AcDbLine
 62
7
  6
CONTINUOUS
 10
229.9996700335
 20
103.8749733534
 11
231.7809199441
 21
103.8749733534
  0
LINE
  5
258
100
AcDbEntity
  8
0
100
AcDbLine
 62
7
  6
CONTINUOUS
 10
240.1246700335
 20
104.3536967006
 11
237.8746700335
 21
104.3536967006
  0
LINE
  5
259
100
AcDbEntity
  8
0
100
AcDbLine
 62
7
  6
CONTINUOUS
 10
237.1246702123
 20
104.3536967006
 11
236.5621702123
 21
104.3536967006
  0
LINE
  5
25A
100
AcDbEntity
  8
0
100
AcDbLine
 62
7
  6
CONTINUOUS
 10
234.3121702123
 20
104.3536967006
 11
233.7496699441
 21
104.3536967006
  0
LINE
  5
25B
100
AcDbEntity
  8
0
100
AcDbLine
 62
7
  6
CONTINUOUS
 10
231.6871700335
 20
104.3536967006
 11
229.4371700335
 21
104.3536967006
  0
LINE
  5
25C
100
AcDbEntity
  8
0
100
AcDbLine
 62
7
  6
CONTINUOUS
 10
208.2708199058
 20
100.620064899
 11
207.9519840277
 21
100.6286599882
  0
LINE
  5
25D
100
AcDbEntity
  8
0
100
AcDbLine
 62
7
  6
CONTINUOUS
 10
208.0184875771
 20
100.2514996171
 11
208.2757725011
 21
100.232051434
  0
LINE
  5
25E
100
AcDbEntity
  8
BEZUGSACHSEN
100
AcDbLine
 62
7
  6
CONTINUOUS
 10
182.9102282476
 20
110.065355545
 11
180.7471700335
 21
110.2927021244
  0
LINE
  5
25F
100
AcDbEntity
  8
0
100
AcDbLine
 62
7
  6
CONTINUOUS
 10
201.4868271198
 20
98.0627601583
 11
201.6825624984
 21
98.0324591297
  0
LINE
  5
260
100
AcDbEntity
  8
0
100
AcDbLine
 62
7
  6
CONTINUOUS
 10
201.2368501155
 20
99.1205284161
 11
201.4325854941
 21
99.0902273875
  0
LINE
  5
261
100
AcDbEntity
  8
BEZUGSACHSEN
100
AcDbLine
 62
7
  6
CONTINUOUS
 10
286.4585086976
 20
90.4953643091
 11
235.7471700335
 21
99.4371415435
  0
LINE
  5
262
100
AcDbEntity
  8
0
100
AcDbLine
 62
7
  6
CONTINUOUS
 10
234.7809200335
 20
99.9494413784
 11
235.2496698546
 21
99.8536967006
  0
LINE
  5
263
100
AcDbEntity
  8
0
100
AcDbLine
 62
7
  6
CONTINUOUS
 10
207.3317680599
 20
97.6674627368
 11
207.6001369117
 21
97.5851544754
  0
LINE
  5
264
100
AcDbEntity
  8
0
100
AcDbLine
 62
7
  6
CONTINUOUS
 10
208.5391901635
 20
100.5377569025
 11
208.2708199058
 21
100.620064899
  0
LINE
  5
265
100
AcDbEntity
  8
0
100
AcDbLine
 62
7
  6
CONTINUOUS
 10
200.7347820519
 20
96.5690505691
 11
201.0757857828
 21
96.4347353398
  0
LINE
  5
266
100
AcDbEntity
  8
0
100
AcDbLine
 62
7
  6
CONTINUOUS
 10
202.029697556
 20
98.22329732
 11
201.6886931236
 21
98.3576124087
  0
LINE
  5
267
100
AcDbEntity
  8
0
100
AcDbLine
 62
7
  6
CONTINUOUS
 10
201.7797205516
 20
99.2810655778
 11
201.4387161193
 21
99.4153806665
  0
LINE
  5
268
100
AcDbEntity
  8
0
100
AcDbLine
 62
7
  6
CONTINUOUS
 10
201.0819171056
 20
96.7598887814
 11
200.8750978021
 21
96.8530498718
  0
LINE
  5
269
100
AcDbEntity
  8
RUNDUNGEN
100
AcDbLine
 62
7
  6
CONTINUOUS
 10
175.4397521376
 20
67.3318819025
 11
174.7837434401
 21
67.9878906
  0
LINE
  5
26A
100
AcDbEntity
  8
KONSTRUKTIONSELEMENTE
100
AcDbLine
 62
7
  6
CONTINUOUS
 10
236.7471700335
 20
121.4936967006
 11
234.7471700335
 21
121.4936967006
  0
LINE
  5
26B
100
AcDbEntity
  8
0
100
AcDbLine
 62
7
  6
CONTINUOUS
 10
233.7471700335
 20
121.4936967006
 11
217.2836142846
 21
121.4936967006
  0
LINE
  5
26C
100
AcDbEntity
  8
BEZUGSACHSEN
100
AcDbLine
 62
7
  6
CONTINUOUS
 10
237.7471700335
 20
121.4936967006
 11
254.2107257823
 21
121.4936967006
  0
LINE
  5
26D
100
AcDbEntity
  8
KONSTRUKTIONSELEMENTE
100
AcDbLine
 62
7
  6
CONTINUOUS
 10
232.7471700335
 20
124.4936967006
 11
238.7471700335
 21
124.4936967006
  0
LINE
  5
26E
100
AcDbEntity
  8
BEZUGSACHSEN
100
AcDbLine
 62
7
  6
CONTINUOUS
 10
292.9102282476
 20
110.065355545
 11
290.7471700335
 21
110.2927021244
  0
LINE
  5
26F
100
AcDbEntity
  8
0
100
AcDbLine
 62
7
  6
CONTINUOUS
 10
232.1559201229
 20
104.2579520312
 11
231.6871700335
 21
104.3536967006
  0
LINE
  5
270
100
AcDbEntity
  8
0
100
AcDbLine
 62
7
  6
CONTINUOUS
 10
240.5934203911
 20
104.2579520312
 11
240.1246700335
 21
104.3536967006
  0
LINE
  5
271
100
AcDbEntity
  8
0
100
AcDbLine
 62
7
  6
CONTINUOUS
 10
235.2496698546
 20
100.4281647843
 11
234.8746702123
 21
100.5239094537
  0
LINE
  5
272
100
AcDbEntity
  8
0
100
AcDbLine
 62
7
  6
CONTINUOUS
 10
240.1246700335
 20
103.779228684
 11
240.4996696758
 21
103.6834840146
  0
LINE
  5
273
100
AcDbEntity
  8
0
100
AcDbLine
 62
7
  6
CONTINUOUS
 10
231.7809199441
 20
103.8749733534
 11
232.0621699441
 21
103.779228684
  0
LINE
  5
274
100
AcDbEntity
  8
0
100
AcDbLine
 62
7
  6
CONTINUOUS
 10
201.6825624984
 20
98.0324591297
 11
201.8893818019
 21
97.9392980393
  0
LINE
  5
275
100
AcDbEntity
  8
0
100
AcDbLine
 62
7
  6
CONTINUOUS
 10
201.4325854941
 20
99.0902273875
 11
201.6394047976
 21
98.9970662971
  0
LINE
  5
276
100
AcDbEntity
  8
0
100
AcDbLine
 62
7
  6
CONTINUOUS
 10
207.5951843096
 20
97.9731679789
 11
207.3883649983
 21
98.0663291133
  0
LINE
  5
277
100
AcDbEntity
  8
0
100
AcDbLine
 62
7
  6
CONTINUOUS
 10
208.2757725011
 20
100.232051434
 11
208.4825918046
 21
100.1388903437
  0
LINE
  5
278
100
AcDbEntity
  8
BEZUGSACHSEN
100
AcDbLine
 62
7
  6
CONTINUOUS
 10
186.7105804717
 20
85.8929389563
 11
185.948011617
 21
86.6555078111
  0
LINE
  5
279
100
AcDbEntity
  8
0
100
AcDbLine
 62
7
  6
CONTINUOUS
 10
234.4059198546
 20
100.1409307425
 11
234.7809200335
 21
99.9494413784
  0
LINE
  5
27A
100
AcDbEntity
  8
0
100
AcDbLine
 62
7
  6
CONTINUOUS
 10
240.9684200335
 20
104.0664626923
 11
240.5934203911
 21
104.2579520312
  0
LINE
  5
27B
100
AcDbEntity
  8
0
100
AcDbLine
 62
7
  6
CONTINUOUS
 10
201.8893818019
 20
97.9392980393
 11
202.0346508557
 21
97.8352839792
  0
LINE
  5
27C
100
AcDbEntity
  8
0
100
AcDbLine
 62
7
  6
CONTINUOUS
 10
202.2476007844
 20
98.0672761678
 11
202.029697556
 21
98.22329732
  0
LINE
  5
27D
100
AcDbEntity
  8
0
100
AcDbLine
 62
7
  6
CONTINUOUS
 10
207.0412299485
 20
97.875490879
 11
207.3317680599
 21
97.6674627368
  0
LINE
  5
27E
100
AcDbEntity
  8
0
100
AcDbLine
 62
7
  6
CONTINUOUS
 10
208.8297268622
 20
100.329728534
 11
208.5391901635
 21
100.5377569025
  0
LINE
  5
27F
100
AcDbEntity
  8
0
100
AcDbLine
 62
7
  6
CONTINUOUS
 10
200.5057945425
 20
96.7879317431
 11
200.7347820519
 21
96.5690505691
  0
LINE
  5
280
100
AcDbEntity
  8
0
100
AcDbLine
 62
7
  6
CONTINUOUS
 10
202.008707705
 20
99.0621843638
 11
201.7797205516
 21
99.2810655778
  0
LWPOLYLINE
  5
281
100
AcDbEntity
  8
KONSTRUKTIONSELEMENTE
100
AcDbPolyline
 62
7
  6
CONTINUOUS
 90
13
 70
0
 10
222.2301009189
 20
152.5536964845
 10
221.9901007709
 20
152.515489333
 10
221.5042615504
 20
152.389783587
 10
221.0379810113
 20
152.2042316062
 10
220.5986015896
 20
151.9617536274
 10
220.1930412364
 20
151.666166655
 10
219.8276851327
 20
151.322124421
 10
219.5082850173
 20
150.9350440014
 10
219.2398684958
 20
150.5110203806
 10
219.0266597679
 20
150.0567302859
 10
218.8720130476
 20
149.5793267957
 10
218.7783598972
 20
149.0863274042
 10
218.7471697893
 20
148.5877804803
  0
LINE
  5
282
100
AcDbEntity
  8
KONSTRUKTIONSELEMENTE
100
AcDbLine
 62
7
  6
CONTINUOUS
 10
232.7471700335
 20
150.4936967006
 11
238.7471700335
 21
150.4936967006
  0
LINE
  5
283
100
AcDbEntity
  8
KONSTRUKTIONSELEMENTE
100
AcDbLine
 62
7
  6
CONTINUOUS
 10
222.7471700335
 20
152.4936967006
 11
222.7856886366
 21
152.4936967006
  0
LINE
  5
284
100
AcDbEntity
  8
KONSTRUKTIONSELEMENTE
100
AcDbLine
 62
7
  6
CONTINUOUS
 10
248.7086514303
 20
152.4936967006
 11
248.7471700335
 21
152.4936967006
  0
LINE
  5
285
100
AcDbEntity
  8
0
100
AcDbLine
 62
7
  6
CONTINUOUS
 10
234.8746702123
 20
100.5239094537
 11
234.5934202123
 21
100.7153988597
  0
LINE
  5
286
100
AcDbEntity
  8
0
100
AcDbLine
 62
7
  6
CONTINUOUS
 10
240.4996696758
 20
103.6834840146
 11
240.7809196758
 21
103.4919946757
  0
LINE
  5
287
100
AcDbEntity
  8
0
100
AcDbLine
 62
7
  6
CONTINUOUS
 10
232.5309200335
 20
103.9707180229
 11
232.1559201229
 21
104.2579520312
  0
LINE
  5
288
100
AcDbEntity
  8
0
100
AcDbLine
 62
7
  6
CONTINUOUS
 10
200.8750978021
 20
96.8530498718
 11
200.7187448157
 21
97.0199240378
  0
LINE
  5
289
100
AcDbEntity
  8
0
100
AcDbLine
 62
7
  6
CONTINUOUS
 10
201.6394047976
 20
98.9970662971
 11
201.7957570719
 21
98.830192051
  0
LINE
  5
28A
100
AcDbEntity
  8
0
100
AcDbLine
 62
7
  6
CONTINUOUS
 10
207.3883649983
 20
98.0663291133
 11
207.232012724
 21
98.2332033595
  0
LINE
  5
28B
100
AcDbEntity
  8
KONSTRUKTIONSELEMENTE
100
AcDbLine
 62
7
  6
CONTINUOUS
 10
241.8453254923
 20
166.4936967006
 11
242.4971700335
 21
166.4936967006
  0
LINE
  5
28C
100
AcDbEntity
  8
KONSTRUKTIONSELEMENTE
100
AcDbLine
 62
7
  6
CONTINUOUS
 10
241.8453254923
 20
166.9162485602
 11
242.4971700335
 21
166.9162485602
  0
LINE
  5
28D
100
AcDbEntity
  8
KONSTRUKTIONSELEMENTE
100
AcDbLine
 62
7
  6
CONTINUOUS
 10
242.2471700335
 20
167.9022028658
 11
242.4971700335
 21
167.9022028658
  0
LINE
  5
28E
100
AcDbEntity
  8
KONSTRUKTIONSELEMENTE
100
AcDbLine
 62
7
  6
CONTINUOUS
 10
241.8453254923
 20
168.8881571713
 11
242.4971700335
 21
168.8881571713
  0
LINE
  5
28F
100
AcDbEntity
  8
KONSTRUKTIONSELEMENTE
100
AcDbLine
 62
7
  6
CONTINUOUS
 10
223.7471700335
 20
129.6898491233
 11
232.7471700335
 21
124.4936967006
  0
LINE
  5
290
100
AcDbEntity
  8
0
100
AcDbLine
 62
7
  6
CONTINUOUS
 10
234.0309202123
 20
100.5239094537
 11
234.4059198546
 21
100.1409307425
  0
LINE
  5
291
100
AcDbEntity
  8
0
100
AcDbLine
 62
7
  6
CONTINUOUS
 10
232.0621699441
 20
103.779228684
 11
232.2496700335
 21
103.5877393451
  0
LINE
  5
292
100
AcDbEntity
  8
0
100
AcDbLine
 62
7
  6
CONTINUOUS
 10
206.8737937416
 20
98.105225231
 11
207.0412299485
 21
97.875490879
  0
LINE
  5
293
100
AcDbEntity
  8
0
100
AcDbLine
 62
7
  6
CONTINUOUS
 10
200.3272740585
 20
97.0805260948
 11
200.5057945425
 21
96.7879317431
  0
LINE
  5
294
100
AcDbEntity
  8
0
100
AcDbLine
 62
7
  6
CONTINUOUS
 10
202.4261216129
 20
97.7746819222
 11
202.2476007844
 21
98.0672761678
  0
LINE
  5
295
100
AcDbEntity
  8
KONSTRUKTIONSELEMENTE
100
AcDbLine
 62
7
  6
CONTINUOUS
 10
241.8453254923
 20
169.3107090309
 11
242.4971700335
 21
169.3107090309
  0
LINE
  5
296
100
AcDbEntity
  8
KONSTRUKTIONSELEMENTE
100
AcDbLine
 62
7
  6
CONTINUOUS
 10
242.2471700335
 20
169.5097348458
 11
242.4971700335
 21
169.5097348458
  0
LINE
  5
297
100
AcDbEntity
  8
KONSTRUKTIONSELEMENTE
100
AcDbLine
 62
7
  6
CONTINUOUS
 10
241.8453254923
 20
169.8741115776
 11
242.4971700335
 21
169.8741115776
  0
LINE
  5
298
100
AcDbEntity
  8
KONSTRUKTIONSELEMENTE
100
AcDbLine
 62
7
  6
CONTINUOUS
 10
241.8453254923
 20
170.2966634372
 11
242.4971700335
 21
170.2966634372
  0
LINE
  5
299
100
AcDbEntity
  8
KONSTRUKTIONSELEMENTE
100
AcDbLine
 62
7
  6
CONTINUOUS
 10
242.2471700335
 20
171.282617642
 11
242.4971700335
 21
171.282617642
  0
LINE
  5
29A
100
AcDbEntity
  8
KONSTRUKTIONSELEMENTE
100
AcDbLine
 62
7
  6
CONTINUOUS
 10
241.8453254923
 20
172.2685722498
 11
242.4971700335
 21
172.2685722498
  0
LINE
  5
29B
100
AcDbEntity
  8
KONSTRUKTIONSELEMENTE
100
AcDbLine
 62
7
  6
CONTINUOUS
 10
241.8453254923
 20
172.6911241094
 11
242.4971700335
 21
172.6911241094
  0
LINE
  5
29C
100
AcDbEntity
  8
KONSTRUKTIONSELEMENTE
100
AcDbLine
 62
7
  6
CONTINUOUS
 10
242.2471700335
 20
172.8965288247
 11
242.4971700335
 21
172.8965288247
  0
LINE
  5
29D
100
AcDbEntity
  8
KONSTRUKTIONSELEMENTE
100
AcDbLine
 62
7
  6
CONTINUOUS
 10
242.2471700335
 20
173.065868354
 11
242.4971700335
 21
173.065868354
  0
LINE
  5
29E
100
AcDbEntity
  8
KONSTRUKTIONSELEMENTE
100
AcDbLine
 62
7
  6
CONTINUOUS
 10
242.2471700335
 20
173.150538361
 11
242.4971700335
 21
173.150538361
  0
LINE
  5
29F
100
AcDbEntity
  8
KONSTRUKTIONSELEMENTE
100
AcDbLine
 62
7
  6
CONTINUOUS
 10
242.2431446047
 20
173.2352078834
 11
242.4971700335
 21
173.2352078834
  0
LINE
  5
2A0
100
AcDbEntity
  8
KONSTRUKTIONSELEMENTE
100
AcDbLine
 62
7
  6
CONTINUOUS
 10
242.2342532587
 20
173.2545264545
 11
242.4971700335
 21
173.2545264545
  0
LINE
  5
2A1
100
AcDbEntity
  8
KONSTRUKTIONSELEMENTE
100
AcDbLine
 62
7
  6
CONTINUOUS
 10
242.2342532587
 20
174.2404810623
 11
242.4971700335
 21
174.2404810623
  0
LINE
  5
2A2
100
AcDbEntity
  8
KONSTRUKTIONSELEMENTE
100
AcDbLine
 62
7
  6
CONTINUOUS
 10
242.2471700335
 20
174.8038830045
 11
242.4971700335
 21
174.8038830045
  0
LINE
  5
2A3
100
AcDbEntity
  8
KONSTRUKTIONSELEMENTE
100
AcDbLine
 62
7
  6
CONTINUOUS
 10
242.1568548329
 20
175.0151589343
 11
242.4971700335
 21
175.0151589343
  0
LINE
  5
2A4
100
AcDbEntity
  8
KONSTRUKTIONSELEMENTE
100
AcDbLine
 62
7
  6
CONTINUOUS
 10
242.0704614226
 20
175.0855847815
 11
242.4971700335
 21
175.0855847815
  0
LINE
  5
2A5
100
AcDbEntity
  8
KONSTRUKTIONSELEMENTE
100
AcDbLine
 62
7
  6
CONTINUOUS
 10
241.9537644315
 20
175.3672857526
 11
242.4971700335
 21
175.3672857526
  0
LINE
  5
2A6
100
AcDbEntity
  8
KONSTRUKTIONSELEMENTE
100
AcDbLine
 62
7
  6
CONTINUOUS
 10
241.8835293785
 20
175.6489867237
 11
242.4971700335
 21
175.6489867237
  0
LINE
  5
2A7
100
AcDbEntity
  8
KONSTRUKTIONSELEMENTE
100
AcDbLine
 62
7
  6
CONTINUOUS
 10
241.8453254923
 20
175.9306885008
 11
242.4971700335
 21
175.9306885008
  0
LINE
  5
2A8
100
AcDbEntity
  8
KONSTRUKTIONSELEMENTE
100
AcDbLine
 62
7
  6
CONTINUOUS
 10
241.8453254923
 20
176.2828145132
 11
242.4971700335
 21
176.2828145132
  0
LINE
  5
2A9
100
AcDbEntity
  8
KONSTRUKTIONSELEMENTE
100
AcDbLine
 62
7
  6
CONTINUOUS
 10
241.8835293785
 20
176.6349413315
 11
242.4971700335
 21
176.6349413315
  0
LINE
  5
2AA
100
AcDbEntity
  8
KONSTRUKTIONSELEMENTE
100
AcDbLine
 62
7
  6
CONTINUOUS
 10
241.985865091
 20
176.9166423026
 11
242.4971700335
 21
176.9166423026
  0
LINE
  5
2AB
100
AcDbEntity
  8
KONSTRUKTIONSELEMENTE
100
AcDbLine
 62
7
  6
CONTINUOUS
 10
242.0948449864
 20
177.1279182324
 11
242.4971700335
 21
177.1279182324
  0
LINE
  5
2AC
100
AcDbEntity
  8
KONSTRUKTIONSELEMENTE
100
AcDbLine
 62
7
  6
CONTINUOUS
 10
242.1568548329
 20
177.1983440796
 11
242.4971700335
 21
177.1983440796
  0
LINE
  5
2AD
100
AcDbEntity
  8
KONSTRUKTIONSELEMENTE
100
AcDbLine
 62
7
  6
CONTINUOUS
 10
242.2471700335
 20
177.2687691209
 11
242.4971700335
 21
177.2687691209
  0
LINE
  5
2AE
100
AcDbEntity
  8
KONSTRUKTIONSELEMENTE
100
AcDbLine
 62
7
  6
CONTINUOUS
 10
242.2471700335
 20
177.4096200095
 11
242.4971700335
 21
177.4096200095
  0
LINE
  5
2AF
100
AcDbEntity
  8
KONSTRUKTIONSELEMENTE
100
AcDbLine
 62
7
  6
CONTINUOUS
 10
242.2240393391
 20
177.9730219516
 11
242.4971700335
 21
177.9730219516
  0
LINE
  5
2B0
100
AcDbEntity
  8
KONSTRUKTIONSELEMENTE
100
AcDbLine
 62
7
  6
CONTINUOUS
 10
242.1568548329
 20
178.0434477989
 11
242.4971700335
 21
178.0434477989
  0
LINE
  5
2B1
100
AcDbEntity
  8
KONSTRUKTIONSELEMENTE
100
AcDbLine
 62
7
  6
CONTINUOUS
 10
242.0704614226
 20
178.1842978815
 11
242.4971700335
 21
178.1842978815
  0
LINE
  5
2B2
100
AcDbEntity
  8
KONSTRUKTIONSELEMENTE
100
AcDbLine
 62
7
  6
CONTINUOUS
 10
241.9537644315
 20
178.4659996585
 11
242.4971700335
 21
178.4659996585
  0
LINE
  5
2B3
100
AcDbEntity
  8
KONSTRUKTIONSELEMENTE
100
AcDbLine
 62
7
  6
CONTINUOUS
 10
241.8835293785
 20
178.7477006296
 11
242.4971700335
 21
178.7477006296
  0
LINE
  5
2B4
100
AcDbEntity
  8
KONSTRUKTIONSELEMENTE
100
AcDbLine
 62
7
  6
CONTINUOUS
 10
241.8453254923
 20
179.0998274479
 11
242.4971700335
 21
179.0998274479
  0
LINE
  5
2B5
100
AcDbEntity
  8
KONSTRUKTIONSELEMENTE
100
AcDbLine
 62
7
  6
CONTINUOUS
 10
241.8453254923
 20
179.7336552374
 11
242.4971700335
 21
179.7336552374
  0
LINE
  5
2B6
100
AcDbEntity
  8
KONSTRUKTIONSELEMENTE
100
AcDbLine
 62
7
  6
CONTINUOUS
 10
241.8835293785
 20
180.0857820557
 11
242.4971700335
 21
180.0857820557
  0
LINE
  5
2B7
100
AcDbEntity
  8
KONSTRUKTIONSELEMENTE
100
AcDbLine
 62
7
  6
CONTINUOUS
 10
241.9537644315
 20
180.3674822208
 11
242.4971700335
 21
180.3674822208
  0
LINE
  5
2B8
100
AcDbEntity
  8
KONSTRUKTIONSELEMENTE
100
AcDbLine
 62
7
  6
CONTINUOUS
 10
242.0704614226
 20
180.6491839979
 11
242.4971700335
 21
180.6491839979
  0
LINE
  5
2B9
100
AcDbEntity
  8
KONSTRUKTIONSELEMENTE
100
AcDbLine
 62
7
  6
CONTINUOUS
 10
242.173870932
 20
180.7196098451
 11
242.4971700335
 21
180.7196098451
  0
LINE
  5
2BA
100
AcDbEntity
  8
KONSTRUKTIONSELEMENTE
100
AcDbLine
 62
7
  6
CONTINUOUS
 10
241.8453254923
 20
181.2830117873
 11
242.4971700335
 21
181.2830117873
  0
LINE
  5
2BB
100
AcDbEntity
  8
KONSTRUKTIONSELEMENTE
100
AcDbLine
 62
7
  6
CONTINUOUS
 10
241.8453254923
 20
181.7055636469
 11
242.4971700335
 21
181.7055636469
  0
LINE
  5
2BC
100
AcDbEntity
  8
BEZUGSACHSEN
100
AcDbLine
 62
7
  6
CONTINUOUS
 10
265.1150855012
 20
129.7493632304
 11
280.6796880185
 21
121.4735172719
  0
LINE
  5
2BD
100
AcDbEntity
  8
KONSTRUKTIONSELEMENTE
100
AcDbLine
 62
7
  6
CONTINUOUS
 10
164.8243598804
 20
182.0766260683
 11
168.3598937864
 21
178.5410921623
  0
LINE
  5
2BE
100
AcDbEntity
  8
KONSTRUKTIONSELEMENTE
100
AcDbLine
 62
7
  6
CONTINUOUS
 10
165.177913271
 20
182.4301794589
 11
168.713447177
 21
178.8946455529
  0
LINE
  5
2BF
100
AcDbEntity
  8
RUNDUNGEN
100
AcDbLine
 62
7
  6
CONTINUOUS
 10
285.4397521376
 20
67.3318819025
 11
284.7837434401
 21
67.9878906
  0
LINE
  5
2C0
100
AcDbEntity
  8
0
100
AcDbLine
 62
7
  6
CONTINUOUS
 10
241.3434196758
 20
103.6834840146
 11
240.9684200335
 21
104.0664626923
  0
LINE
  5
2C1
100
AcDbEntity
  8
0
100
AcDbLine
 62
7
  6
CONTINUOUS
 10
200.7187448157
 20
97.0199240378
 11
200.6239427912
 21
97.1976512536
  0
LINE
  5
2C2
100
AcDbEntity
  8
0
100
AcDbLine
 62
7
  6
CONTINUOUS
 10
202.0346508557
 20
97.8352839792
 11
202.1294528957
 21
97.6575566754
  0
LINE
  5
2C3
100
AcDbEntity
  8
0
100
AcDbLine
 62
7
  6
CONTINUOUS
 10
202.1035097295
 20
98.8844571479
 11
202.008707705
 21
99.0621843638
  0
LINE
  5
2C4
100
AcDbEntity
  8
0
100
AcDbLine
 62
7
  6
CONTINUOUS
 10
208.4825918046
 20
100.1388903437
 11
208.5773945646
 21
99.9611630759
  0
LINE
  5
2C5
100
AcDbEntity
  8
RUNDUNGEN
100
AcDbLine
 62
7
  6
CONTINUOUS
 10
189.5742239582
 20
117.416259805
 11
195.4773275114
 21
106.3141367248
  0
LINE
  5
2C6
100
AcDbEntity
  8
0
100
AcDbLine
 62
7
  6
CONTINUOUS
 10
197.7027709547
 20
96.488126473
 11
196.8113458521
 21
98.6642648955
  0
LINE
  5
2C7
100
AcDbEntity
  8
0
100
AcDbLine
 62
7
  6
CONTINUOUS
 10
196.6648992968
 20
98.0551123048
 11
197.5784922647
 21
95.7532536705
  0
LINE
  5
2C8
100
AcDbEntity
  8
0
100
AcDbLine
 62
7
  6
CONTINUOUS
 10
195.087932255
 20
98.3603805794
 11
196.1012807232
 21
95.4927814196
  0
LINE
  5
2C9
100
AcDbEntity
  8
0
100
AcDbLine
 62
7
  6
CONTINUOUS
 10
196.2255595012
 20
96.2276542375
 11
195.4572351624
 21
98.425498646
  0
LINE
  5
2CA
100
AcDbEntity
  8
RUNDUNGEN
100
AcDbLine
 62
7
  6
CONTINUOUS
 10
177.202598327
 20
57.4392001674
 11
175.9584970633
 21
66.2914406307
  0
LINE
  5
2CB
100
AcDbEntity
  8
0
100
AcDbLine
 62
7
  6
CONTINUOUS
 10
172.7471700335
 20
239.4936967006
 11
172.7471700335
 21
309.4936967006
  0
LINE
  5
2CC
100
AcDbEntity
  8
KONSTRUKTIONSELEMENTE
100
AcDbLine
 62
7
  6
CONTINUOUS
 10
241.8453254923
 20
183.6774728625
 11
242.4971700335
 21
183.6774728625
  0
LINE
  5
2CD
100
AcDbEntity
  8
KONSTRUKTIONSELEMENTE
100
AcDbLine
 62
7
  6
CONTINUOUS
 10
241.8453254923
 20
184.1000247221
 11
242.4971700335
 21
184.1000247221
  0
LINE
  5
2CE
100
AcDbEntity
  8
BEZUGSACHSEN
100
AcDbLine
 62
7
  6
CONTINUOUS
 10
255.3612935889
 20
143.9961067902
 11
298.4934508194
 21
121.0623319828
  0
LINE
  5
2CF
100
AcDbEntity
  8
KONSTRUKTIONSELEMENTE
100
AcDbLine
 62
7
  6
CONTINUOUS
 10
247.7471700335
 20
145.0088691433
 11
238.7471700335
 21
150.205021566
  0
LINE
  5
2D0
100
AcDbEntity
  8
0
100
AcDbLine
 62
7
  6
CONTINUOUS
 10
232.8121700335
 20
103.5877393451
 11
232.5309200335
 21
103.9707180229
  0
LINE
  5
2D1
100
AcDbEntity
  8
0
100
AcDbLine
 62
7
  6
CONTINUOUS
 10
234.5934202123
 20
100.7153988597
 11
234.4059198546
 21
101.002632868
  0
LINE
  5
2D2
100
AcDbEntity
  8
0
100
AcDbLine
 62
7
  6
CONTINUOUS
 10
207.232012724
 20
98.2332033595
 11
207.1261260702
 21
98.4737905129
  0
LINE
  5
2D3
100
AcDbEntity
  8
0
100
AcDbLine
 62
7
  6
CONTINUOUS
 10
206.7568231629
 20
98.4086724463
 11
206.8737937416
 21
98.105225231
  0
LINE
  5
2D4
100
AcDbEntity
  8
0
100
AcDbLine
 62
7
  6
CONTINUOUS
 10
208.946697472
 20
100.0262811425
 11
208.8297268622
 21
100.329728534
  0
LINE
  5
2D5
100
AcDbEntity
  8
0
100
AcDbLine
 62
7
  6
CONTINUOUS
 10
200.1881359666
 20
97.509693584
 11
200.3272740585
 21
97.0805260948
  0
LINE
  5
2D6
100
AcDbEntity
  8
BEZUGSACHSEN
100
AcDbLine
 62
7
  6
CONTINUOUS
 10
185.4292629274
 20
87.6959533127
 11
184.1851619059
 21
96.548192053
  0
LWPOLYLINE
  5
2D7
100
AcDbEntity
  8
RUNDUNGEN
100
AcDbPolyline
 62
7
  6
CONTINUOUS
 90
4
 70
0
 10
184.2471700335
 20
68.9649832187
 10
184.2439539116
 20
69.0416643186
 10
184.2343280458
 20
69.1178074595
 10
184.2281259224
 20
69.1507700314
  0
LINE
  5
2D8
100
AcDbEntity
  8
RUNDUNGEN
100
AcDbLine
 62
7
  6
CONTINUOUS
 10
174.2471700335
 20
69.2833166273
 11
174.2471700335
 21
84.5975200815
  0
LINE
  5
2D9
100
AcDbEntity
  8
BEZUGSACHSEN
100
AcDbLine
 62
7
  6
CONTINUOUS
 10
174.2471700335
 20
72.3150076998
 11
174.2471700335
 21
84.5975200815
  0
LINE
  5
2DA
100
AcDbEntity
  8
RUNDUNGEN
100
AcDbLine
 62
7
  6
CONTINUOUS
 10
177.2471700335
 20
45.2996950628
 11
177.2471700335
 21
68.965010793
  0
LINE
  5
2DB
100
AcDbEntity
  8
RUNDUNGEN
100
AcDbLine
 62
7
  6
CONTINUOUS
 10
177.3537500335
 20
97.1855992488
 11
177.3537500335
 21
108.6989003479
  0
LINE
  5
2DC
100
AcDbEntity
  8
BEZUGSACHSEN
100
AcDbLine
 62
7
  6
CONTINUOUS
 10
177.3537500335
 20
97.1855992488
 11
177.3537500335
 21
108.6989003479
  0
LINE
  5
2DD
100
AcDbEntity
  8
BEZUGSACHSEN
100
AcDbLine
 62
7
  6
CONTINUOUS
 10
184.1405900335
 20
97.1855992488
 11
184.1405900335
 21
108.6989003479
  0
LINE
  5
2DE
100
AcDbEntity
  8
BEZUGSACHSEN
100
AcDbLine
 62
7
  6
CONTINUOUS
 10
184.2471700335
 20
45.2996950628
 11
184.2471700335
 21
65.4946912768
  0
LINE
  5
2DF
100
AcDbEntity
  8
RUNDUNGEN
100
AcDbLine
 62
7
  6
CONTINUOUS
 10
184.2471700335
 20
45.2996950628
 11
184.2471700335
 21
68.9650098887
  0
LINE
  5
2E0
100
AcDbEntity
  8
BEZUGSACHSEN
100
AcDbLine
 62
7
  6
CONTINUOUS
 10
296.7105804717
 20
85.8929389563
 11
295.948011617
 21
86.6555078111
  0
LINE
  5
2E1
100
AcDbEntity
  8
0
100
AcDbLine
 62
7
  6
CONTINUOUS
 10
240.7809196758
 20
103.4919946757
 11
240.9684200335
 21
103.2047603992
  0
LINE
  5
2E2
100
AcDbEntity
  8
0
100
AcDbLine
 62
7
  6
CONTINUOUS
 10
233.8434201229
 20
100.9068881985
 11
234.0309202123
 21
100.5239094537
  0
LINE
  5
2E3
100
AcDbEntity
  8
0
100
AcDbLine
 62
7
  6
CONTINUOUS
 10
194.2262255005
 20
98.2084384291
 11
194.7471700335
 21
95.2540151701
  0
LINE
  5
2E4
100
AcDbEntity
  8
0
100
AcDbLine
 62
7
  6
CONTINUOUS
 10
195.1164729408
 20
95.3191332367
 11
194.5955284078
 21
98.2735564957
  0
LINE
  5
2E5
100
AcDbEntity
  8
0
100
AcDbLine
 62
7
  6
CONTINUOUS
 10
198.8118576912
 20
97.3966475048
 11
198.8672773312
 21
97.0823471075
  0
LINE
  5
2E6
100
AcDbEntity
  8
0
100
AcDbLine
 62
7
  6
CONTINUOUS
 10
199.7289839977
 20
97.2342892423
 11
199.6735643576
 21
97.5485896396
  0
LINE
  5
2E7
100
AcDbEntity
  8
0
100
AcDbLine
 62
7
  6
CONTINUOUS
 10
200.1105484922
 20
97.949714017
 11
200.1881359666
 21
97.509693584
  0
LINE
  5
2E8
100
AcDbEntity
  8
0
100
AcDbLine
 62
7
  6
CONTINUOUS
 10
200.4404686474
 20
97.8782589281
 11
200.4183007976
 21
98.0039790518
  0
LINE
  5
2E9
100
AcDbEntity
  8
0
100
AcDbLine
 62
7
  6
CONTINUOUS
 10
200.6239427912
 20
97.1976512536
 11
200.5906910164
 21
97.3862314392
  0
LINE
  5
2EA
100
AcDbEntity
  8
0
100
AcDbLine
 62
7
  6
CONTINUOUS
 10
202.1294528957
 20
97.6575566754
 11
202.1627046704
 21
97.4689764898
  0
LINE
  5
2EB
100
AcDbEntity
  8
0
100
AcDbLine
 62
7
  6
CONTINUOUS
 10
202.481541253
 20
97.4603815249
 11
202.4261216129
 21
97.7746819222
  0
LINE
  5
2EC
100
AcDbEntity
  8
0
100
AcDbLine
 62
7
  6
CONTINUOUS
 10
205.5515144253
 20
100.2053924309
 11
206.0724589583
 21
97.2509691719
  0
LINE
  5
2ED
100
AcDbEntity
  8
0
100
AcDbLine
 62
7
  6
CONTINUOUS
 10
206.4417618657
 20
97.3160872385
 11
205.9208173327
 21
100.2705104975
  0
LINE
  5
2EE
100
AcDbEntity
  8
0
100
AcDbLine
 62
7
  6
CONTINUOUS
 10
200.0945116198
 20
98.4005874817
 11
200.1105484922
 21
97.949714017
  0
LINE
  5
2EF
100
AcDbEntity
  8
0
100
AcDbLine
 62
7
  6
CONTINUOUS
 10
197.6730525186
 20
98.8162070303
 11
197.7027709547
 21
96.488126473
  0
LINE
  5
2F0
100
AcDbEntity
  8
0
100
AcDbLine
 62
7
  6
CONTINUOUS
 10
200.4183007976
 20
98.0039790518
 11
200.4133482023
 21
98.3919925168
  0
LINE
  5
2F1
100
AcDbEntity
  8
0
100
AcDbLine
 62
7
  6
CONTINUOUS
 10
198.0708961999
 20
95.8400777697
 11
198.042355426
 21
98.8813250969
  0
LINE
  5
2F2
100
AcDbEntity
  8
BEZUGSACHSEN
100
AcDbLine
 62
7
  6
CONTINUOUS
 10
187.2471700335
 20
70.654958739
 11
187.2471700335
 21
69.2833166273
  0
LINE
  5
2F3
100
AcDbEntity
  8
RUNDUNGEN
100
AcDbLine
 62
7
  6
CONTINUOUS
 10
187.2471700335
 20
69.2832931936
 11
187.2471700335
 21
73.2848384092
  0
LINE
  5
2F4
100
AcDbEntity
  8
BEZUGSACHSEN
100
AcDbLine
 62
7
  6
CONTINUOUS
 10
187.2471700335
 20
72.3150076998
 11
187.2471700335
 21
84.5975200815
  0
LINE
  5
2F5
100
AcDbEntity
  8
0
100
AcDbLine
 62
7
  6
CONTINUOUS
 10
190.7471700335
 20
239.4936967006
 11
190.7471700335
 21
309.4936967006
  0
LINE
  5
2F6
100
AcDbEntity
  8
0
100
AcDbLine
 62
7
  6
CONTINUOUS
 10
196.5936845704
 20
95.5796055032
 11
196.6648992968
 21
98.0551123048
  0
LINE
  5
2F7
100
AcDbEntity
  8
0
100
AcDbLine
 62
7
  6
CONTINUOUS
 10
196.3189419169
 20
98.5774407963
 11
196.2255595012
 21
96.2276542375
  0
LINE
  5
2F8
100
AcDbEntity
  8
RUNDUNGEN
100
AcDbLine
 62
7
  6
CONTINUOUS
 10
176.0650771395
 20
87.6959533127
 11
177.309178161
 21
96.548192053
  0
LINE
  5
2F9
100
AcDbEntity
  8
BEZUGSACHSEN
100
AcDbLine
 62
7
  6
CONTINUOUS
 10
176.0650771395
 20
87.6959533127
 11
177.309178161
 21
96.548192053
  0
LINE
  5
2FA
100
AcDbEntity
  8
KONSTRUKTIONSELEMENTE
100
AcDbLine
 62
7
  6
CONTINUOUS
 10
99.629114655
 20
116.8813808429
 11
103.6596233078
 21
120.9118894956
  0
LINE
  5
2FB
100
AcDbEntity
  8
KONSTRUKTIONSELEMENTE
100
AcDbLine
 62
7
  6
CONTINUOUS
 10
104.0131766984
 20
121.2654428862
 11
108.0436853512
 21
125.295951539
  0
LINE
  5
2FC
100
AcDbEntity
  8
KONSTRUKTIONSELEMENTE
100
AcDbLine
 62
7
  6
CONTINUOUS
 10
160.7938512277
 20
178.0461174155
 11
164.8243598804
 21
182.0766260683
  0
LINE
  5
2FD
100
AcDbEntity
  8
KONSTRUKTIONSELEMENTE
100
AcDbLine
 62
7
  6
CONTINUOUS
 10
165.177913271
 20
182.4301794589
 11
169.2084219238
 21
186.4606881116
  0
LINE
  5
2FE
100
AcDbEntity
  8
KONSTRUKTIONSELEMENTE
100
AcDbLine
 62
7
  6
CONTINUOUS
 10
130.0347062461
 20
145.0949414122
 11
140.6413079639
 21
155.70154313
  0
LINE
  5
2FF
100
AcDbEntity
  8
KONSTRUKTIONSELEMENTE
100
AcDbLine
 62
7
  6
CONTINUOUS
 10
103.164648561
 20
113.3458469369
 11
107.1951572137
 21
117.3763555897
  0
LINE
  5
300
100
AcDbEntity
  8
KONSTRUKTIONSELEMENTE
100
AcDbLine
 62
7
  6
CONTINUOUS
 10
107.5487106043
 20
117.7299089803
 11
111.5792192571
 21
121.7604176331
  0
LINE
  5
301
100
AcDbEntity
  8
KONSTRUKTIONSELEMENTE
100
AcDbLine
 62
7
  6
CONTINUOUS
 10
164.3293851336
 20
174.5105835096
 11
168.3598937864
 21
178.5410921623
  0
LINE
  5
302
100
AcDbEntity
  8
KONSTRUKTIONSELEMENTE
100
AcDbLine
 62
7
  6
CONTINUOUS
 10
168.713447177
 20
178.8946455529
 11
172.7439558297
 21
182.9251542057
  0
LINE
  5
303
100
AcDbEntity
  8
KONSTRUKTIONSELEMENTE
100
AcDbLine
 62
7
  6
CONTINUOUS
 10
133.2166867614
 20
141.9129608969
 11
143.8232884792
 21
152.5195626147
  0
LINE
  5
304
100
AcDbEntity
  8
KONSTRUKTIONSELEMENTE
100
AcDbLine
 62
7
  6
CONTINUOUS
 10
203.9273648801
 20
211.9165322343
 11
174.9359868514
 21
182.9251542057
  0
LINE
  5
305
100
AcDbEntity
  8
RUNDUNGEN
100
AcDbLine
 62
7
  6
CONTINUOUS
 10
63.4252474583
 20
70.7073080314
 11
105.555803383
 21
112.8378639561
  0
LINE
  5
306
100
AcDbEntity
  8
KONSTRUKTIONSELEMENTE
100
AcDbLine
 62
7
  6
CONTINUOUS
 10
164.3293851336
 20
171.2578923161
 11
145.6207001584
 21
152.5492073409
  0
LINE
  5
307
100
AcDbEntity
  8
KONSTRUKTIONSELEMENTE
100
AcDbLine
 62
7
  6
CONTINUOUS
 10
133.2166867614
 20
140.1451939439
 11
114.5080017862
 21
121.4365089687
  0
LINE
  5
308
100
AcDbEntity
  8
0
100
AcDbLine
 62
7
  6
CONTINUOUS
 10
241.5309200335
 20
103.3005053368
 11
241.3434196758
 21
103.6834840146
  0
LINE
  5
309
100
AcDbEntity
  8
0
100
AcDbLine
 62
7
  6
CONTINUOUS
 10
232.9996701229
 20
99.8536967006
 11
232.1559201229
 21
102.0558243659
  0
LINE
  5
30A
100
AcDbEntity
  8
0
100
AcDbLine
 62
7
  6
CONTINUOUS
 10
231.5934199888
 20
101.864335027
 11
232.3434199441
 21
99.8536967006
  0
LINE
  5
30B
100
AcDbEntity
  8
0
100
AcDbLine
 62
7
  6
CONTINUOUS
 10
232.2496700335
 20
103.5877393451
 11
232.3434199441
 21
103.3005053368
  0
LINE
  5
30C
100
AcDbEntity
  8
0
100
AcDbLine
 62
7
  6
CONTINUOUS
 10
232.9059199441
 20
103.3005053368
 11
232.8121700335
 21
103.5877393451
  0
LINE
  5
30D
100
AcDbEntity
  8
0
100
AcDbLine
 62
7
  6
CONTINUOUS
 10
206.5905642736
 20
99.3515734621
 11
206.7568231629
 21
98.4086724463
  0
LINE
  5
30E
100
AcDbEntity
  8
0
100
AcDbLine
 62
7
  6
CONTINUOUS
 10
207.1261260702
 20
98.4737905129
 11
206.959867181
 21
99.4166915287
  0
LINE
  5
30F
100
AcDbEntity
  8
0
100
AcDbLine
 62
7
  6
CONTINUOUS
 10
209.3060937489
 20
100.8674260668
 11
209.8270382819
 21
97.9130028078
  0
LINE
  5
310
100
AcDbEntity
  8
0
100
AcDbLine
 62
7
  6
CONTINUOUS
 10
210.129837632
 20
98.3552812895
 11
209.9524948101
 21
99.3610424112
  0
LINE
  5
311
100
AcDbEntity
  8
0
100
AcDbLine
 62
7
  6
CONTINUOUS
 10
209.8859912606
 20
99.7382027823
 11
209.7419002057
 21
100.5553837624
  0
LINE
  5
312
100
AcDbEntity
  8
0
100
AcDbLine
 62
7
  6
CONTINUOUS
 10
211.5528083479
 20
99.6432208655
 11
211.4863047985
 21
100.0203812366
  0
LINE
  5
313
100
AcDbEntity
  8
0
100
AcDbLine
 62
7
  6
CONTINUOUS
 10
212.0428557261
 20
98.3037112076
 11
211.9763521689
 21
98.6808716227
  0
LINE
  5
314
100
AcDbEntity
  8
0
100
AcDbLine
 62
7
  6
CONTINUOUS
 10
211.5884147426
 20
100.8809740955
 11
211.5219111931
 21
101.2581344666
  0
LINE
  5
315
100
AcDbEntity
  8
0
100
AcDbLine
 62
7
  6
CONTINUOUS
 10
206.5966955722
 20
99.6767270413
 11
206.5905642736
 21
99.3515734621
  0
LINE
  5
316
100
AcDbEntity
  8
0
100
AcDbLine
 62
7
  6
CONTINUOUS
 10
209.1954964386
 20
98.2553461848
 11
209.2016277605
 21
98.580499632
  0
LINE
  5
317
100
AcDbEntity
  8
0
100
AcDbLine
 62
7
  6
CONTINUOUS
 10
206.959867181
 20
99.4166915287
 11
206.9770824355
 21
99.67898487
  0
LINE
  5
318
100
AcDbEntity
  8
BEZUGSACHSEN
100
AcDbLine
 62
7
  6
CONTINUOUS
 10
184.2917417399
 20
57.4392001674
 11
185.5358430036
 21
66.2914406307
  0
LWPOLYLINE
  5
319
100
AcDbEntity
  8
RUNDUNGEN
100
AcDbPolyline
 62
7
  6
CONTINUOUS
 90
4
 70
0
 10
177.2662147282
 20
69.1507811441
 10
177.2600124278
 20
69.1178171801
 10
177.2503862609
 20
69.041670637
 10
177.2471700335
 20
68.9649860114
  0
LINE
  5
31A
100
AcDbEntity
  8
KONSTRUKTIONSELEMENTE
100
AcDbLine
 62
7
  6
CONTINUOUS
 10
167.511365649
 20
168.0759118008
 11
148.8026806738
 21
149.3672268256
  0
LINE
  5
31B
100
AcDbEntity
  8
KONSTRUKTIONSELEMENTE
100
AcDbLine
 62
7
  6
CONTINUOUS
 10
136.3986672767
 20
136.9632134286
 11
117.6899823016
 21
118.2545284534
  0
LINE
  5
31C
100
AcDbEntity
  8
RUNDUNGEN
100
AcDbLine
 62
7
  6
CONTINUOUS
 10
66.9607813642
 20
67.1717741255
 11
109.0913250445
 21
109.3023178057
  0
LINE
  5
31D
100
AcDbEntity
  8
KONSTRUKTIONSELEMENTE
100
AcDbLine
 62
7
  6
CONTINUOUS
 10
208.1700055672
 20
207.6738915472
 11
179.2281376657
 21
178.7320236458
  0
LINE
  5
31E
100
AcDbEntity
  8
KONSTRUKTIONSELEMENTE
100
AcDbLine
 62
7
  6
CONTINUOUS
 10
148.7730359475
 20
147.5698151464
 11
138.1664342297
 21
136.9632134286
  0
LINE
  5
31F
100
AcDbEntity
  8
KONSTRUKTIONSELEMENTE
100
AcDbLine
 62
7
  6
CONTINUOUS
 10
179.1786275385
 20
176.4904824969
 11
170.7640568424
 21
168.0759118008
  0
LINE
  5
320
100
AcDbEntity
  8
KONSTRUKTIONSELEMENTE
100
AcDbLine
 62
7
  6
CONTINUOUS
 10
118.0138909659
 20
115.3257459243
 11
109.5993202698
 21
106.9111752281
  0
LINE
  5
321
100
AcDbEntity
  8
KONSTRUKTIONSELEMENTE
100
AcDbLine
 62
7
  6
CONTINUOUS
 10
151.9550164629
 20
144.387834631
 11
141.3484147451
 21
133.7812329132
  0
LINE
  5
322
100
AcDbEntity
  8
KONSTRUKTIONSELEMENTE
100
AcDbLine
 62
7
  6
CONTINUOUS
 10
182.7141614445
 20
172.954948591
 11
174.2995907483
 21
164.5403778948
  0
LINE
  5
323
100
AcDbEntity
  8
KONSTRUKTIONSELEMENTE
100
AcDbLine
 62
7
  6
CONTINUOUS
 10
121.5494248718
 20
111.7902120183
 11
113.1348541757
 21
103.3756413222
  0
LINE
  5
324
100
AcDbEntity
  8
BEZUGSACHSEN
100
AcDbLine
 62
7
  6
CONTINUOUS
 10
258.1328615396
 20
113.6271093778
 11
254.2107257823
 21
121.4936967006
  0
LINE
  5
325
100
AcDbEntity
  8
0
100
AcDbLine
 62
7
  6
CONTINUOUS
 10
234.4059198546
 20
101.002632868
 11
234.3121702123
 21
101.3856115457
  0
LINE
  5
326
100
AcDbEntity
  8
0
100
AcDbLine
 62
7
  6
CONTINUOUS
 10
233.7496699441
 20
101.3856115457
 11
233.8434201229
 21
100.9068881985
  0
LINE
  5
327
100
AcDbEntity
  8
KONSTRUKTIONSELEMENTE
100
AcDbLine
 62
7
  6
CONTINUOUS
 10
218.7471700335
 20
137.4936967006
 11
218.7471700335
 21
148.4936967006
  0
LINE
  5
328
100
AcDbEntity
  8
KONSTRUKTIONSELEMENTE
100
AcDbLine
 62
7
  6
CONTINUOUS
 10
223.7471700335
 20
145.0088691433
 11
223.7471700335
 21
129.6898491233
  0
LINE
  5
329
100
AcDbEntity
  8
0
100
AcDbLine
 62
7
  6
CONTINUOUS
 10
200.4133482023
 20
98.3919925168
 11
200.4416466463
 21
98.5914258481
  0
LINE
  5
32A
100
AcDbEntity
  8
0
100
AcDbLine
 62
7
  6
CONTINUOUS
 10
200.5906910164
 20
97.3862314392
 11
200.6189894759
 21
97.5856646824
  0
LINE
  5
32B
100
AcDbEntity
  8
0
100
AcDbLine
 62
7
  6
CONTINUOUS
 10
202.1627046704
 20
97.4689764898
 11
202.1344061954
 21
97.2695433346
  0
LINE
  5
32C
100
AcDbEntity
  8
0
100
AcDbLine
 62
7
  6
CONTINUOUS
 10
208.8323248531
 20
98.5153815654
 11
208.8040256737
 21
98.3159482859
  0
LINE
  5
32D
100
AcDbEntity
  8
0
100
AcDbLine
 62
7
  6
CONTINUOUS
 10
200.1621928159
 20
98.7365939685
 11
200.0945116198
 21
98.4005874817
  0
LINE
  5
32E
100
AcDbEntity
  8
0
100
AcDbLine
 62
7
  6
CONTINUOUS
 10
202.4138596814
 20
97.124375108
 11
202.481541253
 21
97.4603815249
  0
LINE
  5
32F
100
AcDbEntity
  8
BEZUGSACHSEN
100
AcDbLine
 62
7
  6
CONTINUOUS
 10
270.6833666922
 20
106.3839579738
 11
261.021867728
 21
125.7619270125
  0
LINE
  5
330
100
AcDbEntity
  8
0
100
AcDbLine
 62
7
  6
CONTINUOUS
 10
240.9684200335
 20
103.2047603992
 11
241.0621696758
 21
102.8217817214
  0
LINE
  5
331
100
AcDbEntity
  8
0
100
AcDbLine
 62
7
  6
CONTINUOUS
 10
241.6246696758
 20
102.8217817214
 11
241.5309200335
 21
103.3005053368
  0
LINE
  5
332
100
AcDbEntity
  8
BEZUGSACHSEN
100
AcDbLine
 62
7
  6
CONTINUOUS
 10
241.3039117188
 20
104.9798486042
 11
240.4356708305
 21
109.9038873693
  0
LINE
  5
333
100
AcDbEntity
  8
KONSTRUKTIONSELEMENTE
100
AcDbLine
 62
7
  6
CONTINUOUS
 10
229.2471700335
 20
200.9936967006
 11
229.2471700335
 21
160.4936967006
  0
LINE
  5
334
100
AcDbEntity
  8
0
100
AcDbLine
 62
7
  6
CONTINUOUS
 10
229.4371700335
 20
104.3536967006
 11
229.4371700335
 21
99.8536967006
  0
LINE
  5
335
100
AcDbEntity
  8
0
100
AcDbLine
 62
7
  6
CONTINUOUS
 10
229.9996700335
 20
99.8536967006
 11
229.9996700335
 21
101.864335027
  0
LINE
  5
336
100
AcDbEntity
  8
0
100
AcDbLine
 62
7
  6
CONTINUOUS
 10
229.9996700335
 20
102.4388030437
 11
229.9996700335
 21
103.8749733534
  0
LINE
  5
337
100
AcDbEntity
  8
0
100
AcDbLine
 62
7
  6
CONTINUOUS
 10
232.3434199441
 20
103.3005053368
 11
232.3434199441
 21
103.0132710603
  0
LINE
  5
338
100
AcDbEntity
  8
KONSTRUKTIONSELEMENTE
100
AcDbLine
 62
7
  6
CONTINUOUS
 10
232.7471700335
 20
150.4936967006
 11
232.7471700335
 21
124.4936967006
  0
LINE
  5
339
100
AcDbEntity
  8
0
100
AcDbLine
 62
7
  6
CONTINUOUS
 10
232.9059199441
 20
102.9175263908
 11
232.9059199441
 21
103.3005053368
  0
LINE
  5
33A
100
AcDbEntity
  8
0
100
AcDbLine
 62
7
  6
CONTINUOUS
 10
233.7496699441
 20
104.3536967006
 11
233.7496699441
 21
101.3856115457
  0
LINE
  5
33B
100
AcDbEntity
  8
0
100
AcDbLine
 62
7
  6
CONTINUOUS
 10
234.3121702123
 20
101.3856115457
 11
234.3121702123
 21
104.3536967006
  0
LINE
  5
33C
100
AcDbEntity
  8
0
100
AcDbLine
 62
7
  6
CONTINUOUS
 10
236.5621702123
 20
104.3536967006
 11
236.5621702123
 21
101.3856115457
  0
LINE
  5
33D
100
AcDbEntity
  8
0
100
AcDbLine
 62
7
  6
CONTINUOUS
 10
237.1246702123
 20
101.3856115457
 11
237.1246702123
 21
104.3536967006
  0
LINE
  5
33E
100
AcDbEntity
  8
0
100
AcDbLine
 62
7
  6
CONTINUOUS
 10
237.8746700335
 20
104.3536967006
 11
237.8746700335
 21
99.8536967006
  0
LINE
  5
33F
100
AcDbEntity
  8
0
100
AcDbLine
 62
7
  6
CONTINUOUS
 10
238.4371700335
 20
100.4281647843
 11
238.4371700335
 21
103.779228684
  0
LINE
  5
340
100
AcDbEntity
  8
KONSTRUKTIONSELEMENTE
100
AcDbLine
 62
7
  6
CONTINUOUS
 10
238.7471700335
 20
150.4936967006
 11
238.7471700335
 21
124.4936967006
  0
LINE
  5
341
100
AcDbEntity
  8
0
100
AcDbLine
 62
7
  6
CONTINUOUS
 10
241.0621696758
 20
102.8217817214
 11
241.0621696758
 21
101.3856115457
  0
LINE
  5
342
100
AcDbEntity
  8
0
100
AcDbLine
 62
7
  6
CONTINUOUS
 10
241.6246696758
 20
101.3856115457
 11
241.6246696758
 21
102.8217817214
  0
LINE
  5
343
100
AcDbEntity
  8
0
100
AcDbLine
 62
7
  6
CONTINUOUS
 10
206.6754603721
 20
99.9498732281
 11
206.5966955722
 21
99.6767270413
  0
LWPOLYLINE
  5
344
100
AcDbEntity
  8
KONSTRUKTIONSELEMENTE
100
AcDbPolyline
 62
7
  6
CONTINUOUS
 90
13
 70
0
 10
252.7471703518
 20
148.5877821418
 10
252.716221415
 20
149.0844053335
 10
252.6232122816
 20
149.5758624036
 10
252.4695931805
 20
150.0518778217
 10
252.257764139
 20
150.505005276
 10
251.9910361819
 20
150.9281568843
 10
251.6735796704
 20
151.3147134658
 10
251.3103590076
 20
151.6586283107
 10
250.9070548951
 20
151.9545219255
 10
250.4699753648
 20
152.1977663014
 10
250.0059569989
 20
152.384557396
 10
249.5222585352
 20
152.5119745826
 10
249.2639396811
 20
152.5537060711
  0
LINE
  5
345
100
AcDbEntity
  8
KONSTRUKTIONSELEMENTE
100
AcDbLine
 62
7
  6
CONTINUOUS
 10
241.8453254923
 20
181.7055636469
 11
241.8453254923
 21
181.2830117873
  0
LINE
  5
346
100
AcDbEntity
  8
KONSTRUKTIONSELEMENTE
100
AcDbLine
 62
7
  6
CONTINUOUS
 10
241.8453254923
 20
172.6911241094
 11
241.8453254923
 21
172.2685722498
  0
LINE
  5
347
100
AcDbEntity
  8
KONSTRUKTIONSELEMENTE
100
AcDbLine
 62
7
  6
CONTINUOUS
 10
241.8453254923
 20
170.2966634372
 11
241.8453254923
 21
169.8741115776
  0
LINE
  5
348
100
AcDbEntity
  8
KONSTRUKTIONSELEMENTE
100
AcDbLine
 62
7
  6
CONTINUOUS
 10
241.8453254923
 20
169.3107090309
 11
241.8453254923
 21
168.8881571713
  0
LINE
  5
349
100
AcDbEntity
  8
KONSTRUKTIONSELEMENTE
100
AcDbLine
 62
7
  6
CONTINUOUS
 10
241.8453254923
 20
166.9162485602
 11
241.8453254923
 21
166.4936967006
  0
LINE
  5
34A
100
AcDbEntity
  8
KONSTRUKTIONSELEMENTE
100
AcDbLine
 62
7
  6
CONTINUOUS
 10
241.8453254923
 20
175.9306885008
 11
241.8453254923
 21
176.2828145132
  0
LINE
  5
34B
100
AcDbEntity
  8
KONSTRUKTIONSELEMENTE
100
AcDbLine
 62
7
  6
CONTINUOUS
 10
241.8453254923
 20
179.0998274479
 11
241.8453254923
 21
179.7336552374
  0
LINE
  5
34C
100
AcDbEntity
  8
KONSTRUKTIONSELEMENTE
100
AcDbLine
 62
7
  6
CONTINUOUS
 10
241.8453254923
 20
183.6774728625
 11
241.8453254923
 21
184.1000247221
  0
LINE
  5
34D
100
AcDbEntity
  8
KONSTRUKTIONSELEMENTE
100
AcDbLine
 62
7
  6
CONTINUOUS
 10
242.2431446047
 20
181.7055636469
 11
242.2431446047
 21
183.6774728625
  0
LINE
  5
34E
100
AcDbEntity
  8
KONSTRUKTIONSELEMENTE
100
AcDbLine
 62
7
  6
CONTINUOUS
 10
242.2471700335
 20
200.9936967006
 11
242.2471700335
 21
184.1000247221
  0
LINE
  5
34F
100
AcDbEntity
  8
KONSTRUKTIONSELEMENTE
100
AcDbLine
 62
7
  6
CONTINUOUS
 10
242.2471700335
 20
181.2830117873
 11
242.2471700335
 21
180.7196098451
  0
LINE
  5
350
100
AcDbEntity
  8
KONSTRUKTIONSELEMENTE
100
AcDbLine
 62
7
  6
CONTINUOUS
 10
242.2471700335
 20
177.9730219516
 11
242.2471700335
 21
177.1983440796
  0
LINE
  5
351
100
AcDbEntity
  8
KONSTRUKTIONSELEMENTE
100
AcDbLine
 62
7
  6
CONTINUOUS
 10
242.2471700335
 20
175.0151589343
 11
242.2471700335
 21
172.6911241094
  0
LINE
  5
352
100
AcDbEntity
  8
KONSTRUKTIONSELEMENTE
100
AcDbLine
 62
7
  6
CONTINUOUS
 10
242.2471700335
 20
171.7600300551
 11
242.2471700335
 21
170.805205424
  0
LINE
  5
353
100
AcDbEntity
  8
KONSTRUKTIONSELEMENTE
100
AcDbLine
 62
7
  6
CONTINUOUS
 10
242.2471700335
 20
169.8741115776
 11
242.2471700335
 21
169.3107090309
  0
LINE
  5
354
100
AcDbEntity
  8
KONSTRUKTIONSELEMENTE
100
AcDbLine
 62
7
  6
CONTINUOUS
 10
242.2471700335
 20
168.3796151325
 11
242.2471700335
 21
167.424790599
  0
LINE
  5
355
100
AcDbEntity
  8
KONSTRUKTIONSELEMENTE
100
AcDbLine
 62
7
  6
CONTINUOUS
 10
242.2471700335
 20
166.4936967006
 11
242.2471700335
 21
160.4936967006
  0
LINE
  5
356
100
AcDbEntity
  8
KONSTRUKTIONSELEMENTE
100
AcDbLine
 62
7
  6
CONTINUOUS
 10
242.4971700335
 20
184.1000247221
 11
242.4971700335
 21
181.2830117873
  0
LINE
  5
357
100
AcDbEntity
  8
KONSTRUKTIONSELEMENTE
100
AcDbLine
 62
7
  6
CONTINUOUS
 10
242.4971700335
 20
180.7196098451
 11
242.4971700335
 21
177.9730219516
  0
LINE
  5
358
100
AcDbEntity
  8
KONSTRUKTIONSELEMENTE
100
AcDbLine
 62
7
  6
CONTINUOUS
 10
242.4971700335
 20
177.4096200095
 11
242.4971700335
 21
173.2545264545
  0
LINE
  5
359
100
AcDbEntity
  8
KONSTRUKTIONSELEMENTE
100
AcDbLine
 62
7
  6
CONTINUOUS
 10
242.4971700335
 20
173.2352078834
 11
242.4971700335
 21
169.8741115776
  0
LINE
  5
35A
100
AcDbEntity
  8
KONSTRUKTIONSELEMENTE
100
AcDbLine
 62
7
  6
CONTINUOUS
 10
242.4971700335
 20
169.5097348458
 11
242.4971700335
 21
166.4936967006
  0
LINE
  5
35B
100
AcDbEntity
  8
KONSTRUKTIONSELEMENTE
100
AcDbLine
 62
7
  6
CONTINUOUS
 10
247.7471700335
 20
129.6898491233
 11
247.7471700335
 21
145.0088691433
  0
LINE
  5
35C
100
AcDbEntity
  8
KONSTRUKTIONSELEMENTE
100
AcDbLine
 62
7
  6
CONTINUOUS
 10
252.7471700335
 20
148.4936967006
 11
252.7471700335
 21
137.4936967006
  0
LINE
  5
35D
100
AcDbEntity
  8
0
100
AcDbLine
 62
7
  6
CONTINUOUS
 10
230.1904283481
 20
104.9798486042
 11
231.0586692365
 21
109.9038873693
  0
LINE
  5
35E
100
AcDbEntity
  8
0
100
AcDbLine
 62
7
  6
CONTINUOUS
 10
200.4416466463
 20
98.5914258481
 11
200.5314960754
 21
98.8017120973
  0
LINE
  5
35F
100
AcDbEntity
  8
0
100
AcDbLine
 62
7
  6
CONTINUOUS
 10
202.1344061954
 20
97.2695433346
 11
202.044556774
 21
97.0592570414
  0
LINE
  5
360
100
AcDbEntity
  8
0
100
AcDbLine
 62
7
  6
CONTINUOUS
 10
206.9770824355
 20
99.67898487
 11
207.0669311293
 21
99.8892711711
  0
LINE
  5
361
100
AcDbEntity
  8
0
100
AcDbLine
 62
7
  6
CONTINUOUS
 10
202.2735439312
 20
96.8403758053
 11
202.4138596814
 21
97.124375108
  0
LINE
  5
362
100
AcDbEntity
  8
0
100
AcDbLine
 62
7
  6
CONTINUOUS
 10
200.3025089221
 20
99.0205933113
 11
200.1621928159
 21
98.7365939685
  0
LINE
  5
363
100
AcDbEntity
  8
RUNDUNGEN
100
AcDbLine
 62
7
  6
CONTINUOUS
 10
200.8109733748
 20
106.3839579738
 11
210.4724723389
 21
125.7619270125
  0
LINE
  5
364
100
AcDbEntity
  8
0
100
AcDbLine
 62
7
  6
CONTINUOUS
 10
213.3614785273
 20
113.6271093778
 11
217.2836142846
 21
121.4936967006
  0
LINE
  5
365
100
AcDbEntity
  8
0
100
AcDbLine
 62
7
  6
CONTINUOUS
 10
237.0309200335
 20
100.9068881985
 11
237.1246702123
 21
101.3856115457
  0
LINE
  5
366
100
AcDbEntity
  8
0
100
AcDbLine
 62
7
  6
CONTINUOUS
 10
241.5309200335
 20
100.9068881985
 11
241.6246696758
 21
101.3856115457
  0
LINE
  5
367
100
AcDbEntity
  8
0
100
AcDbLine
 62
7
  6
CONTINUOUS
 10
236.5621702123
 20
101.3856115457
 11
236.4684200335
 21
101.002632868
  0
LINE
  5
368
100
AcDbEntity
  8
0
100
AcDbLine
 62
7
  6
CONTINUOUS
 10
241.0621696758
 20
101.3856115457
 11
240.9684200335
 21
101.002632868
  0
LINE
  5
369
100
AcDbEntity
  8
0
100
AcDbLine
 62
7
  6
CONTINUOUS
 10
232.3434199441
 20
103.0132710603
 11
232.2496700335
 21
102.726037052
  0
LINE
  5
36A
100
AcDbEntity
  8
0
100
AcDbLine
 62
7
  6
CONTINUOUS
 10
232.8121700335
 20
102.6302923825
 11
232.9059199441
 21
102.9175263908
  0
LINE
  5
36B
100
AcDbEntity
  8
0
100
AcDbLine
 62
7
  6
CONTINUOUS
 10
200.6189894759
 20
97.5856646824
 11
200.71992283
 21
97.7330908698
  0
LINE
  5
36C
100
AcDbEntity
  8
0
100
AcDbLine
 62
7
  6
CONTINUOUS
 10
206.8773270803
 20
100.2447256027
 11
206.6754603721
 21
99.9498732281
  0
LINE
  5
36D
100
AcDbEntity
  8
0
100
AcDbLine
 62
7
  6
CONTINUOUS
 10
208.9936311431
 20
97.9604940366
 11
209.1954964386
 21
98.2553461848
  0
LINE
  5
36E
100
AcDbEntity
  8
RUNDUNGEN
100
AcDbLine
 62
7
  6
CONTINUOUS
 10
174.7837595952
 20
85.8929389563
 11
175.5463284499
 21
86.6555078111
  0
LINE
  5
36F
100
AcDbEntity
  8
BEZUGSACHSEN
100
AcDbLine
 62
7
  6
CONTINUOUS
 10
174.7837595952
 20
85.8929389563
 11
175.5463284499
 21
86.6555078111
  0
LINE
  5
370
100
AcDbEntity
  8
KONSTRUKTIONSELEMENTE
100
AcDbLine
 62
7
  6
CONTINUOUS
 10
232.7471700335
 20
150.205021566
 11
223.7471700335
 21
145.0088691433
  0
LINE
  5
371
100
AcDbEntity
  8
BEZUGSACHSEN
100
AcDbLine
 62
7
  6
CONTINUOUS
 10
216.133046478
 20
143.9961067902
 11
173.0008892475
 21
121.0623319828
  0
LINE
  5
372
100
AcDbEntity
  8
RUNDUNGEN
100
AcDbLine
 62
7
  6
CONTINUOUS
 10
206.3792545657
 20
129.7493632304
 11
190.8146520484
 21
121.4735172719
  0
LINE
  5
373
100
AcDbEntity
  8
RUNDUNGEN
100
AcDbLine
 62
7
  6
CONTINUOUS
 10
287.202598327
 20
57.4392001674
 11
285.9584970633
 21
66.2914406307
  0
LINE
  5
374
100
AcDbEntity
  8
0
100
AcDbLine
 62
7
  6
CONTINUOUS
 10
280.7471700335
 20
309.4936967006
 11
280.7471700335
 21
239.4936967006
  0
LINE
  5
375
100
AcDbEntity
  8
0
100
AcDbLine
 62
7
  6
CONTINUOUS
 10
236.8434202123
 20
100.5239094537
 11
237.0309200335
 21
100.9068881985
  0
LINE
  5
376
100
AcDbEntity
  8
0
100
AcDbLine
 62
7
  6
CONTINUOUS
 10
200.5314960754
 20
98.8017120973
 11
200.6939796793
 21
98.9599912543
  0
LINE
  5
377
100
AcDbEntity
  8
0
100
AcDbLine
 62
7
  6
CONTINUOUS
 10
200.7654358552
 20
98.1948172421
 11
200.4404686474
 21
97.8782589281
  0
LINE
  5
378
100
AcDbEntity
  8
0
100
AcDbLine
 62
7
  6
CONTINUOUS
 10
200.71992283
 20
97.7330908698
 11
200.8824064339
 21
97.8913700268
  0
LINE
  5
379
100
AcDbEntity
  8
0
100
AcDbLine
 62
7
  6
CONTINUOUS
 10
202.044556774
 20
97.0592570414
 11
201.8820731701
 21
96.9009778844
  0
LINE
  5
37A
100
AcDbEntity
  8
0
100
AcDbLine
 62
7
  6
CONTINUOUS
 10
207.0669311293
 20
99.8892711711
 11
207.2294147331
 21
100.0475503281
  0
LINE
  5
37B
100
AcDbEntity
  8
0
100
AcDbLine
 62
7
  6
CONTINUOUS
 10
208.8040256737
 20
98.3159482859
 11
208.6415420776
 21
98.1576690849
  0
LINE
  5
37C
100
AcDbEntity
  8
0
100
AcDbLine
 62
7
  6
CONTINUOUS
 10
200.5770091006
 20
99.2634384696
 11
200.3025089221
 21
99.0205933113
  0
LINE
  5
37D
100
AcDbEntity
  8
0
100
AcDbLine
 62
7
  6
CONTINUOUS
 10
201.9990430512
 20
96.5975305063
 11
202.2735439312
 21
96.8403758053
  0
LINE
  5
37E
100
AcDbEntity
  8
BEZUGSACHSEN
100
AcDbLine
 62
7
  6
CONTINUOUS
 10
295.4292629274
 20
87.6959533127
 11
294.1851619059
 21
96.548192053
  0
LWPOLYLINE
  5
37F
100
AcDbEntity
  8
RUNDUNGEN
100
AcDbPolyline
 62
7
  6
CONTINUOUS
 90
4
 70
0
 10
294.2471700335
 20
68.9649832187
 10
294.2439539116
 20
69.0416643186
 10
294.2343280458
 20
69.1178074595
 10
294.2281259224
 20
69.1507700314
  0
LINE
  5
380
100
AcDbEntity
  8
RUNDUNGEN
100
AcDbLine
 62
7
  6
CONTINUOUS
 10
284.2471700335
 20
69.2833166273
 11
284.2471700335
 21
84.5975200815
  0
LINE
  5
381
100
AcDbEntity
  8
BEZUGSACHSEN
100
AcDbLine
 62
7
  6
CONTINUOUS
 10
284.2471700335
 20
72.3150076998
 11
284.2471700335
 21
84.5975200815
  0
LINE
  5
382
100
AcDbEntity
  8
RUNDUNGEN
100
AcDbLine
 62
7
  6
CONTINUOUS
 10
287.2471700335
 20
45.2996950628
 11
287.2471700335
 21
68.965010793
  0
LINE
  5
383
100
AcDbEntity
  8
RUNDUNGEN
100
AcDbLine
 62
7
  6
CONTINUOUS
 10
287.3537500335
 20
97.1855992488
 11
287.3537500335
 21
108.6989003479
  0
LINE
  5
384
100
AcDbEntity
  8
BEZUGSACHSEN
100
AcDbLine
 62
7
  6
CONTINUOUS
 10
287.3537500335
 20
97.1855992488
 11
287.3537500335
 21
108.6989003479
  0
LINE
  5
385
100
AcDbEntity
  8
BEZUGSACHSEN
100
AcDbLine
 62
7
  6
CONTINUOUS
 10
294.1405900335
 20
97.1855992488
 11
294.1405900335
 21
108.6989003479
  0
LINE
  5
386
100
AcDbEntity
  8
BEZUGSACHSEN
100
AcDbLine
 62
7
  6
CONTINUOUS
 10
294.2471700335
 20
45.2996950628
 11
294.2471700335
 21
65.4946912768
  0
LINE
  5
387
100
AcDbEntity
  8
RUNDUNGEN
100
AcDbLine
 62
7
  6
CONTINUOUS
 10
294.2471700335
 20
45.2996950628
 11
294.2471700335
 21
68.9650098887
  0
LINE
  5
388
100
AcDbEntity
  8
0
100
AcDbLine
 62
7
  6
CONTINUOUS
 10
241.3434196758
 20
100.5239094537
 11
241.5309200335
 21
100.9068881985
  0
LINE
  5
389
100
AcDbEntity
  8
0
100
AcDbLine
 62
7
  6
CONTINUOUS
 10
236.4684200335
 20
101.002632868
 11
236.2809202123
 21
100.7153988597
  0
LINE
  5
38A
100
AcDbEntity
  8
0
100
AcDbLine
 62
7
  6
CONTINUOUS
 10
240.9684200335
 20
101.002632868
 11
240.7809196758
 21
100.7153988597
  0
LINE
  5
38B
100
AcDbEntity
  8
0
100
AcDbLine
 62
7
  6
CONTINUOUS
 10
232.5309200335
 20
102.2473137048
 11
232.8121700335
 21
102.6302923825
  0
LINE
  5
38C
100
AcDbEntity
  8
0
100
AcDbLine
 62
7
  6
CONTINUOUS
 10
232.2496700335
 20
102.726037052
 11
232.0621699441
 21
102.5345477131
  0
LINE
  5
38D
100
AcDbEntity
  8
BEZUGSACHSEN
100
AcDbLine
 62
7
  6
CONTINUOUS
 10
186.054591617
 20
67.3318855902
 11
186.7105966268
 21
67.9878906
  0
LINE
  5
38E
100
AcDbEntity
  8
0
100
AcDbLine
 62
7
  6
CONTINUOUS
 10
207.1013602295
 20
100.4138576052
 11
206.8773270803
 21
100.2447256027
  0
LINE
  5
38F
100
AcDbEntity
  8
0
100
AcDbLine
 62
7
  6
CONTINUOUS
 10
208.769596588
 20
97.7913617692
 11
208.9936311431
 21
97.9604940366
  0
LINE
  5
390
100
AcDbEntity
  8
KONSTRUKTIONSELEMENTE
100
AcDbLine
 62
7
  6
CONTINUOUS
 10
238.7471700335
 20
124.4936967006
 11
247.7471700335
 21
129.6898491233
  0
LINE
  5
391
100
AcDbEntity
  8
0
100
AcDbLine
 62
7
  6
CONTINUOUS
 10
200.6939796793
 20
98.9599912543
 11
200.8675472081
 21
99.0554103494
  0
LINE
  5
392
100
AcDbEntity
  8
0
100
AcDbLine
 62
7
  6
CONTINUOUS
 10
200.8824064339
 20
97.8913700268
 11
201.0559739627
 21
97.9867891219
  0
LINE
  5
393
100
AcDbEntity
  8
0
100
AcDbLine
 62
7
  6
CONTINUOUS
 10
201.8820731701
 20
96.9009778844
 11
201.7085056413
 21
96.8055587892
  0
LINE
  5
394
100
AcDbEntity
  8
0
100
AcDbLine
 62
7
  6
CONTINUOUS
 10
207.2294147331
 20
100.0475503281
 11
207.4645332161
 21
100.1538225171
  0
LINE
  5
395
100
AcDbEntity
  8
0
100
AcDbLine
 62
7
  6
CONTINUOUS
 10
208.6415420776
 20
98.1576690849
 11
208.4064250034
 21
98.0513971442
  0
LINE
  5
396
100
AcDbEntity
  8
0
100
AcDbLine
 62
7
  6
CONTINUOUS
 10
200.8736778333
 20
99.3805636284
 11
200.5770091006
 21
99.2634384696
  0
LINE
  5
397
100
AcDbEntity
  8
0
100
AcDbLine
 62
7
  6
CONTINUOUS
 10
201.0621045879
 20
98.3119424009
 11
200.7654358552
 21
98.1948172421
  0
LINE
  5
398
100
AcDbEntity
  8
0
100
AcDbLine
 62
7
  6
CONTINUOUS
 10
207.3980296666
 20
100.5309828882
 11
207.1013602295
 21
100.4138576052
  0
LINE
  5
399
100
AcDbEntity
  8
0
100
AcDbLine
 62
7
  6
CONTINUOUS
 10
201.7023750239
 20
96.4804054663
 11
201.9990430512
 21
96.5975305063
  0
LINE
  5
39A
100
AcDbEntity
  8
BEZUGSACHSEN
100
AcDbLine
 62
7
  6
CONTINUOUS
 10
297.2471700335
 20
70.654958739
 11
297.2471700335
 21
69.2833166273
  0
LINE
  5
39B
100
AcDbEntity
  8
RUNDUNGEN
100
AcDbLine
 62
7
  6
CONTINUOUS
 10
297.2471700335
 20
69.2832931936
 11
297.2471700335
 21
73.2848384092
  0
LINE
  5
39C
100
AcDbEntity
  8
BEZUGSACHSEN
100
AcDbLine
 62
7
  6
CONTINUOUS
 10
297.2471700335
 20
72.3150076998
 11
297.2471700335
 21
84.5975200815
  0
LINE
  5
39D
100
AcDbEntity
  8
0
100
AcDbLine
 62
7
  6
CONTINUOUS
 10
298.7471700335
 20
309.4936967006
 11
298.7471700335
 21
239.4936967006
  0
LINE
  5
39E
100
AcDbEntity
  8
RUNDUNGEN
100
AcDbLine
 62
7
  6
CONTINUOUS
 10
286.0650771395
 20
87.6959533127
 11
287.309178161
 21
96.548192053
  0
LINE
  5
39F
100
AcDbEntity
  8
BEZUGSACHSEN
100
AcDbLine
 62
7
  6
CONTINUOUS
 10
286.0650771395
 20
87.6959533127
 11
287.309178161
 21
96.548192053
  0
LINE
  5
3A0
100
AcDbEntity
  8
0
100
AcDbLine
 62
7
  6
CONTINUOUS
 10
236.4684200335
 20
100.1409307425
 11
236.8434202123
 21
100.5239094537
  0
LINE
  5
3A1
100
AcDbEntity
  8
0
100
AcDbLine
 62
7
  6
CONTINUOUS
 10
240.9684200335
 20
100.1409307425
 11
241.3434196758
 21
100.5239094537
  0
LINE
  5
3A2
100
AcDbEntity
  8
0
100
AcDbLine
 62
7
  6
CONTINUOUS
 10
236.2809202123
 20
100.7153988597
 11
235.9996702123
 21
100.5239094537
  0
LINE
  5
3A3
100
AcDbEntity
  8
0
100
AcDbLine
 62
7
  6
CONTINUOUS
 10
240.7809196758
 20
100.7153988597
 11
240.4996696758
 21
100.5239094537
  0
LINE
  5
3A4
100
AcDbEntity
  8
0
100
AcDbLine
 62
7
  6
CONTINUOUS
 10
232.1559201229
 20
102.0558243659
 11
232.5309200335
 21
102.2473137048
  0
LINE
  5
3A5
100
AcDbEntity
  8
0
100
AcDbLine
 62
7
  6
CONTINUOUS
 10
236.0934198546
 20
99.9494413784
 11
236.4684200335
 21
100.1409307425
  0
LINE
  5
3A6
100
AcDbEntity
  8
0
100
AcDbLine
 62
7
  6
CONTINUOUS
 10
240.5934203911
 20
99.9494413784
 11
240.9684200335
 21
100.1409307425
  0
LINE
  5
3A7
100
AcDbEntity
  8
0
100
AcDbLine
 62
7
  6
CONTINUOUS
 10
208.4729285607
 20
97.6742367291
 11
208.769596588
 21
97.7913617692
  0
LINE
  5
3A8
100
AcDbEntity
  8
0
100
AcDbLine
 62
7
  6
CONTINUOUS
 10
232.0621699441
 20
102.5345477131
 11
231.7809199441
 21
102.4388030437
  0
LINE
  5
3A9
100
AcDbEntity
  8
BEZUGSACHSEN
100
AcDbLine
 62
7
  6
CONTINUOUS
 10
294.2917417399
 20
57.4392001674
 11
295.5358430036
 21
66.2914406307
  0
LWPOLYLINE
  5
3AA
100
AcDbEntity
  8
RUNDUNGEN
100
AcDbPolyline
 62
7
  6
CONTINUOUS
 90
4
 70
0
 10
287.2662147282
 20
69.1507811441
 10
287.2600124278
 20
69.1178171801
 10
287.2503862609
 20
69.041670637
 10
287.2471700335
 20
68.9649860114
  0
LINE
  5
3AB
100
AcDbEntity
  8
BEZUGSACHSEN
100
AcDbLine
 62
7
  6
CONTINUOUS
 10
281.9201161088
 20
117.416259805
 11
276.0170125555
 21
106.3141367248
  0
LINE
  5
3AC
100
AcDbEntity
  8
RUNDUNGEN
100
AcDbLine
 62
7
  6
CONTINUOUS
 10
284.7837595952
 20
85.8929389563
 11
285.5463284499
 21
86.6555078111
  0
LINE
  5
3AD
100
AcDbEntity
  8
BEZUGSACHSEN
100
AcDbLine
 62
7
  6
CONTINUOUS
 10
284.7837595952
 20
85.8929389563
 11
285.5463284499
 21
86.6555078111
  0
LINE
  5
3AE
100
AcDbEntity
  8
BEZUGSACHSEN
100
AcDbLine
 62
7
  6
CONTINUOUS
 10
296.054591617
 20
67.3318855902
 11
296.7105966268
 21
67.9878906
  0
LINE
  5
3AF
100
AcDbEntity
  8
0
100
AcDbLine
 62
7
  6
CONTINUOUS
 10
420.6838001804
 20
51.1900696836
 11
420.9609359756
 21
51.2134955075
  0
LINE
  5
3B0
100
AcDbEntity
  8
0
100
AcDbLine
 62
7
  6
CONTINUOUS
 10
421.8931958568
 20
51.9423304344
 11
421.6160606633
 21
51.9189049848
  0
LINE
  5
3B1
100
AcDbEntity
  8
0
100
AcDbLine
 62
7
  6
CONTINUOUS
 10
421.1415282755
 20
49.9852181355
 11
421.5046491639
 21
49.9876496239
  0
LINE
  5
3B2
100
AcDbEntity
  8
0
100
AcDbLine
 62
7
  6
CONTINUOUS
 10
420.8131009488
 20
51.5684094483
 11
420.5885479668
 21
51.5776908577
  0
LINE
  5
3B3
100
AcDbEntity
  8
0
100
AcDbLine
 62
7
  6
CONTINUOUS
 10
421.7638950884
 20
51.5639906697
 11
421.9884480704
 21
51.5547092603
  0
LINE
  5
3B4
100
AcDbEntity
  8
0
100
AcDbLine
 62
7
  6
CONTINUOUS
 10
416.5744492333
 20
47.9905320579
 11
416.9356780031
 21
48.0774884951
  0
LINE
  5
3B5
100
AcDbEntity
  8
0
100
AcDbLine
 62
7
  6
CONTINUOUS
 10
416.2400265058
 20
50.9673186536
 11
415.878797736
 21
50.8803622164
  0
LINE
  5
3B6
100
AcDbEntity
  8
0
100
AcDbLine
 62
7
  6
CONTINUOUS
 10
421.0042510578
 20
51.6128292192
 11
420.8131009488
 21
51.5684094483
  0
LINE
  5
3B7
100
AcDbEntity
  8
0
100
AcDbLine
 62
7
  6
CONTINUOUS
 10
420.8521052138
 20
52.5608877965
 11
421.0432553228
 21
52.6053075674
  0
LINE
  5
3B8
100
AcDbEntity
  8
0
100
AcDbLine
 62
7
  6
CONTINUOUS
 10
426.4527726388
 20
56.541603961
 11
426.1899389903
 21
56.5038348867
  0
LINE
  5
3B9
100
AcDbEntity
  8
0
100
AcDbLine
 62
7
  6
CONTINUOUS
 10
426.2842535663
 20
56.2044859743
 11
426.4594757195
 21
56.229664976
  0
LINE
  5
3BA
100
AcDbEntity
  8
0
100
AcDbLine
 62
7
  6
CONTINUOUS
 10
426.0837988124
 20
54.4323698448
 11
426.3976536537
 21
54.4327703577
  0
LINE
  5
3BB
100
AcDbEntity
  8
0
100
AcDbLine
 62
7
  6
CONTINUOUS
 10
425.5998433765
 20
57.0895422176
 11
425.2859885531
 21
57.0891416916
  0
LINE
  5
3BC
100
AcDbEntity
  8
0
100
AcDbLine
 62
7
  6
CONTINUOUS
 10
426.3033390598
 20
54.7321192833
 11
426.077095696
 21
54.744308856
  0
LINE
  5
3BD
100
AcDbEntity
  8
0
100
AcDbLine
 62
7
  6
CONTINUOUS
 10
425.3803031291
 20
56.7897927792
 11
425.6065472947
 21
56.7776043761
  0
LINE
  5
3BE
100
AcDbEntity
  8
0
100
AcDbLine
 62
7
  6
CONTINUOUS
 10
421.2059589642
 20
52.9299461518
 11
420.895420296
 21
52.9602215082
  0
LINE
  5
3BF
100
AcDbEntity
  8
0
100
AcDbLine
 62
7
  6
CONTINUOUS
 10
421.3568141167
 20
50.3425635977
 11
421.0988582382
 21
50.405546225
  0
LINE
  5
3C0
100
AcDbEntity
  8
0
100
AcDbLine
 62
7
  6
CONTINUOUS
 10
420.3398592409
 20
51.2740465946
 11
420.6838001804
 21
51.1900696836
  0
LINE
  5
3C1
100
AcDbEntity
  8
0
100
AcDbLine
 62
7
  6
CONTINUOUS
 10
422.2371367963
 20
51.8583535234
 11
421.8931958568
 21
51.9423304344
  0
LINE
  5
3C2
100
AcDbEntity
  8
0
100
AcDbLine
 62
7
  6
CONTINUOUS
 10
421.0432553228
 20
52.6053075674
 11
421.2152260934
 21
52.563319299
  0
LINE
  5
3C3
100
AcDbEntity
  8
0
100
AcDbLine
 62
7
  6
CONTINUOUS
 10
425.7555130987
 20
54.5192965141
 11
426.0837988124
 21
54.4323698448
  0
LINE
  5
3C4
100
AcDbEntity
  8
RUNDUNGEN
100
AcDbLine
 62
7
  6
CONTINUOUS
 10
429.9518585107
 20
67.1717741255
 11
428.7518585107
 21
67.1717741255
  0
LINE
  5
3C5
100
AcDbEntity
  8
RUNDUNGEN
100
AcDbLine
 62
7
  6
CONTINUOUS
 10
396.3518585107
 20
67.1717741255
 11
395.1518585107
 21
67.1717741255
  0
LINE
  5
3C6
100
AcDbEntity
  8
BEZUGSACHSEN
100
AcDbLine
 62
7
  6
CONTINUOUS
 10
420.479264426
 20
68.7927021244
 11
422.6358705011
 21
68.7927021244
  0
LINE
  5
3C7
100
AcDbEntity
  8
BEZUGSACHSEN
100
AcDbLine
 62
7
  6
CONTINUOUS
 10
433.2996868331
 20
68.7927021244
 11
437.1826482025
 21
68.7927021244
  0
LINE
  5
3C8
100
AcDbEntity
  8
RUNDUNGEN
100
AcDbLine
 62
7
  6
CONTINUOUS
 10
400.6358705011
 20
69.7389707294
 11
396.6518585107
 21
69.7389707294
  0
LINE
  5
3C9
100
AcDbEntity
  8
0
100
AcDbLine
 62
7
  6
CONTINUOUS
 10
396.6704826649
 20
70.369816466
 11
400.5358705011
 21
70.369816466
  0
LINE
  5
3CA
100
AcDbEntity
  8
BEZUGSACHSEN
100
AcDbLine
 62
7
  6
CONTINUOUS
 10
396.6704826649
 20
70.369816466
 11
400.5358705011
 21
70.369816466
  0
LINE
  5
3CB
100
AcDbEntity
  8
RUNDUNGEN
100
AcDbLine
 62
7
  6
CONTINUOUS
 10
429.9518585107
 20
70.7073080314
 11
428.7518585107
 21
70.7073080314
  0
LINE
  5
3CC
100
AcDbEntity
  8
RUNDUNGEN
100
AcDbLine
 62
7
  6
CONTINUOUS
 10
396.3518585107
 20
70.7073080314
 11
395.1518585107
 21
70.7073080314
  0
LINE
  5
3CD
100
AcDbEntity
  8
RUNDUNGEN
100
AcDbLine
 62
7
  6
CONTINUOUS
 10
425.4518585107
 20
72.26294295
 11
421.124638166
 21
72.26294295
  0
LINE
  5
3CE
100
AcDbEntity
  8
RUNDUNGEN
100
AcDbLine
 62
7
  6
CONTINUOUS
 10
403.9790788554
 20
72.26294295
 11
399.6518585107
 21
72.26294295
  0
LINE
  5
3CF
100
AcDbEntity
  8
0
100
AcDbLine
 62
7
  6
CONTINUOUS
 10
407.8512434378
 20
74.5961717006
 11
417.2524735836
 21
74.5961717006
  0
LINE
  5
3D0
100
AcDbEntity
  8
0
100
AcDbLine
 62
7
  6
CONTINUOUS
 10
426.7810583168
 20
56.4546773179
 11
426.4527726388
 21
56.541603961
  0
LINE
  5
3D1
100
AcDbEntity
  8
0
100
AcDbLine
 62
7
  6
CONTINUOUS
 10
426.077095696
 20
54.744308856
 11
425.8874418508
 21
54.80645588
  0
LINE
  5
3D2
100
AcDbEntity
  8
0
100
AcDbLine
 62
7
  6
CONTINUOUS
 10
426.4594757195
 20
56.229664976
 11
426.6491296361
 21
56.1675178997
  0
LINE
  5
3D3
100
AcDbEntity
  8
0
100
AcDbLine
 62
7
  6
CONTINUOUS
 10
425.7894972217
 20
57.0273951936
 11
425.5998433765
 21
57.0895422176
  0
LINE
  5
3D4
100
AcDbEntity
  8
0
100
AcDbLine
 62
7
  6
CONTINUOUS
 10
421.4973176923
 20
52.8132623818
 11
421.2059589642
 21
52.9299461518
  0
LINE
  5
3D5
100
AcDbEntity
  8
0
100
AcDbLine
 62
7
  6
CONTINUOUS
 10
421.9884480704
 20
51.5547092603
 11
422.1938217608
 21
51.4590197364
  0
LINE
  5
3D6
100
AcDbEntity
  8
0
100
AcDbLine
 62
7
  6
CONTINUOUS
 10
420.8167666393
 20
50.1556031422
 11
421.1415282755
 21
49.9852181355
  0
LINE
  5
3D7
100
AcDbEntity
  8
RUNDUNGEN
100
AcDbLine
 62
7
  6
CONTINUOUS
 10
425.4518585107
 20
75.7984768559
 11
421.124638166
 21
75.7984768559
  0
LINE
  5
3D8
100
AcDbEntity
  8
RUNDUNGEN
100
AcDbLine
 62
7
  6
CONTINUOUS
 10
403.9790788554
 20
75.7984768559
 11
399.6518585107
 21
75.7984768559
  0
LINE
  5
3D9
100
AcDbEntity
  8
0
100
AcDbLine
 62
7
  6
CONTINUOUS
 10
432.3836988235
 20
79.3912217006
 11
432.2313605288
 21
79.3912217006
  0
LINE
  5
3DA
100
AcDbEntity
  8
0
100
AcDbLine
 62
7
  6
CONTINUOUS
 10
392.7200181979
 20
79.3912217006
 11
392.8723564925
 21
79.3912217006
  0
LINE
  5
3DB
100
AcDbEntity
  8
0
100
AcDbLine
 62
7
  6
CONTINUOUS
 10
405.2518585107
 20
81.7381738179
 11
419.8518585107
 21
81.7381738179
  0
LINE
  5
3DC
100
AcDbEntity
  8
0
100
AcDbLine
 62
7
  6
CONTINUOUS
 10
419.5518585107
 20
81.9503058523
 11
405.5518585107
 21
81.9503058523
  0
LINE
  5
3DD
100
AcDbEntity
  8
0
100
AcDbLine
 62
7
  6
CONTINUOUS
 10
417.3518585107
 20
83.5337736772
 11
417.7685251898
 21
83.5337736772
  0
LINE
  5
3DE
100
AcDbEntity
  8
0
100
AcDbLine
 62
7
  6
CONTINUOUS
 10
418.0289418688
 20
83.5337736772
 11
418.6018585107
 21
83.5337736772
  0
LINE
  5
3DF
100
AcDbEntity
  8
0
100
AcDbLine
 62
7
  6
CONTINUOUS
 10
431.3153725192
 20
83.6175769352
 11
426.469422983
 21
83.6175769352
  0
LINE
  5
3E0
100
AcDbEntity
  8
0
100
AcDbLine
 62
7
  6
CONTINUOUS
 10
418.6018585107
 20
83.6842219106
 11
418.0289418688
 21
83.6842219106
  0
LINE
  5
3E1
100
AcDbEntity
  8
0
100
AcDbLine
 62
7
  6
CONTINUOUS
 10
417.7685251898
 20
83.6842219106
 11
417.3518585107
 21
83.6842219106
  0
LINE
  5
3E2
100
AcDbEntity
  8
0
100
AcDbLine
 62
7
  6
CONTINUOUS
 10
418.0289418688
 20
83.7729864483
 11
417.7685251898
 21
83.7729864483
  0
LINE
  5
3E3
100
AcDbEntity
  8
RUNDUNGEN
100
AcDbLine
 62
7
  6
CONTINUOUS
 10
397.7152065176
 20
83.9329998035
 11
398.2325995837
 21
83.9329998035
  0
LINE
  5
3E4
100
AcDbEntity
  8
BEZUGSACHSEN
100
AcDbLine
 62
7
  6
CONTINUOUS
 10
397.7152065176
 20
83.9329998035
 11
398.2325995837
 21
83.9329998035
  0
LINE
  5
3E5
100
AcDbEntity
  8
0
100
AcDbLine
 62
7
  6
CONTINUOUS
 10
418.0289418688
 20
83.9851184827
 11
417.7685251898
 21
83.9851184827
  0
LINE
  5
3E6
100
AcDbEntity
  8
RUNDUNGEN
100
AcDbLine
 62
7
  6
CONTINUOUS
 10
425.8447324101
 20
84.2484226719
 11
431.4677232582
 21
84.2484226719
  0
LINE
  5
3E7
100
AcDbEntity
  8
BEZUGSACHSEN
100
AcDbLine
 62
7
  6
CONTINUOUS
 10
425.8447324101
 20
84.2484226719
 11
431.4677232582
 21
84.2484226719
  0
LINE
  5
3E8
100
AcDbEntity
  8
0
100
AcDbLine
 62
7
  6
CONTINUOUS
 10
405.5518585107
 20
85.1322863676
 11
419.5518585107
 21
85.1322863676
  0
LINE
  5
3E9
100
AcDbEntity
  8
BEZUGSACHSEN
100
AcDbLine
 62
7
  6
CONTINUOUS
 10
391.8040301883
 20
85.1946912768
 11
387.9210688189
 21
85.1946912768
  0
LINE
  5
3EA
100
AcDbEntity
  8
0
100
AcDbLine
 62
7
  6
CONTINUOUS
 10
417.9590381876
 20
85.344418402
 11
406.9695414164
 21
85.344418402
  0
LINE
  5
3EB
100
AcDbEntity
  8
0
100
AcDbLine
 62
7
  6
CONTINUOUS
 10
418.1851918688
 20
82.5182479998
 11
418.4976918688
 21
82.4806359381
  0
LINE
  5
3EC
100
AcDbEntity
  8
0
100
AcDbLine
 62
7
  6
CONTINUOUS
 10
418.4976918688
 20
82.6310841847
 11
418.2372751525
 21
82.6686962562
  0
LINE
  5
3ED
100
AcDbEntity
  8
0
100
AcDbLine
 62
7
  6
CONTINUOUS
 10
425.3617744823
 20
54.7309177837
 11
425.7555130987
 21
54.5192965141
  0
LINE
  5
3EE
100
AcDbEntity
  8
0
100
AcDbLine
 62
7
  6
CONTINUOUS
 10
422.4759133598
 20
51.7089628191
 11
422.2371367963
 21
51.8583535234
  0
LINE
  5
3EF
100
AcDbEntity
  8
0
100
AcDbLine
 62
7
  6
CONTINUOUS
 10
421.2152260934
 20
52.563319299
 11
421.3346140509
 21
52.4886237974
  0
LINE
  5
3F0
100
AcDbEntity
  8
0
100
AcDbLine
 62
7
  6
CONTINUOUS
 10
409.6508148802
 20
88.8191875377
 11
409.437209766
 21
88.7614553939
  0
LINE
  5
3F1
100
AcDbEntity
  8
0
100
AcDbLine
 62
7
  6
CONTINUOUS
 10
409.3996010023
 20
89.4776295895
 11
409.6132063006
 21
89.5353616975
  0
LINE
  5
3F2
100
AcDbEntity
  8
0
100
AcDbLine
 62
7
  6
CONTINUOUS
 10
408.2767744149
 20
89.275876605
 11
408.1655925456
 21
89.2600352794
  0
LINE
  5
3F3
100
AcDbEntity
  8
0
100
AcDbLine
 62
7
  6
CONTINUOUS
 10
407.9031972397
 20
89.7300885483
 11
408.0143791091
 21
89.7459298739
  0
LINE
  5
3F4
100
AcDbEntity
  8
0
100
AcDbLine
 62
7
  6
CONTINUOUS
 10
408.0475655976
 20
89.8584892445
 11
407.8252018486
 21
89.8268065963
  0
LINE
  5
3F5
100
AcDbEntity
  8
0
100
AcDbLine
 62
7
  6
CONTINUOUS
 10
408.1139385886
 20
90.0836080501
 11
408.225120458
 21
90.0994493757
  0
LINE
  5
3F6
100
AcDbEntity
  8
0
100
AcDbLine
 62
7
  6
CONTINUOUS
 10
409.4381673505
 20
88.6494618418
 11
409.5702689658
 21
88.6653563316
  0
LINE
  5
3F7
100
AcDbEntity
  8
0
100
AcDbLine
 62
7
  6
CONTINUOUS
 10
409.6122487095
 20
89.6473552432
 11
409.4801471008
 21
89.6314607598
  0
LINE
  5
3F8
100
AcDbEntity
  8
0
100
AcDbLine
 62
7
  6
CONTINUOUS
 10
408.1324061113
 20
89.1474758776
 11
408.3135769925
 21
89.1669463551
  0
LINE
  5
3F9
100
AcDbEntity
  8
0
100
AcDbLine
 62
7
  6
CONTINUOUS
 10
408.2583069465
 20
90.2120087463
 11
408.0771360067
 21
90.1925382927
  0
LINE
  5
3FA
100
AcDbEntity
  8
0
100
AcDbLine
 62
7
  6
CONTINUOUS
 10
405.5518585107
 20
89.516348411
 11
405.2518585107
 21
89.516348411
  0
LINE
  5
3FB
100
AcDbEntity
  8
0
100
AcDbLine
 62
7
  6
CONTINUOUS
 10
405.5518585107
 20
89.7284804453
 11
405.2518585107
 21
89.7284804453
  0
LINE
  5
3FC
100
AcDbEntity
  8
0
100
AcDbLine
 62
7
  6
CONTINUOUS
 10
405.2518585107
 20
91.7083794326
 11
419.8518585107
 21
91.7083794326
  0
LINE
  5
3FD
100
AcDbEntity
  8
0
100
AcDbLine
 62
7
  6
CONTINUOUS
 10
419.5518585107
 20
91.920511467
 11
405.5518585107
 21
91.920511467
  0
LINE
  5
3FE
100
AcDbEntity
  8
0
100
AcDbLine
 62
7
  6
CONTINUOUS
 10
417.3518585107
 20
93.7938930722
 11
417.7685251898
 21
93.7938930722
  0
LINE
  5
3FF
100
AcDbEntity
  8
0
100
AcDbLine
 62
7
  6
CONTINUOUS
 10
418.0289418688
 20
93.7938930722
 11
418.6018585107
 21
93.7938930722
  0
LINE
  5
400
100
AcDbEntity
  8
0
100
AcDbLine
 62
7
  6
CONTINUOUS
 10
418.6018585107
 20
93.9443413056
 11
418.0289418688
 21
93.9443413056
  0
LINE
  5
401
100
AcDbEntity
  8
0
100
AcDbLine
 62
7
  6
CONTINUOUS
 10
417.7685251898
 20
93.9443413056
 11
417.3518585107
 21
93.9443413056
  0
LINE
  5
402
100
AcDbEntity
  8
0
100
AcDbLine
 62
7
  6
CONTINUOUS
 10
418.0289418688
 20
94.0331058434
 11
417.7685251898
 21
94.0331058434
  0
LINE
  5
403
100
AcDbEntity
  8
0
100
AcDbLine
 62
7
  6
CONTINUOUS
 10
418.0289418688
 20
94.2452378777
 11
417.7685251898
 21
94.2452378777
  0
LINE
  5
404
100
AcDbEntity
  8
0
100
AcDbLine
 62
7
  6
CONTINUOUS
 10
405.5518585107
 20
95.1024919823
 11
419.5518585107
 21
95.1024919823
  0
LINE
  5
405
100
AcDbEntity
  8
0
100
AcDbLine
 62
7
  6
CONTINUOUS
 10
419.0059835891
 20
95.3146240167
 11
406.0994654928
 21
95.3146240167
  0
LINE
  5
406
100
AcDbEntity
  8
0
100
AcDbLine
 62
7
  6
CONTINUOUS
 10
409.437209766
 20
88.7614553939
 11
409.323843017
 21
88.7638306289
  0
LINE
  5
407
100
AcDbEntity
  8
0
100
AcDbLine
 62
7
  6
CONTINUOUS
 10
409.6132063006
 20
89.5353616975
 11
409.7265730496
 21
89.5329864625
  0
LINE
  5
408
100
AcDbEntity
  8
0
100
AcDbLine
 62
7
  6
CONTINUOUS
 10
408.1655925456
 20
89.2600352794
 11
408.0668072653
 21
89.2649892028
  0
LINE
  5
409
100
AcDbEntity
  8
0
100
AcDbLine
 62
7
  6
CONTINUOUS
 10
408.0143791091
 20
89.7459298739
 11
408.1131644305
 21
89.7409759382
  0
LINE
  5
40A
100
AcDbEntity
  8
0
100
AcDbLine
 62
7
  6
CONTINUOUS
 10
408.225120458
 20
90.0994493757
 11
408.3239057794
 21
90.09449544
  0
LINE
  5
40B
100
AcDbEntity
  8
0
100
AcDbLine
 62
7
  6
CONTINUOUS
 10
409.2554676206
 20
88.6595105176
 11
409.4381673505
 21
88.6494618418
  0
LINE
  5
40C
100
AcDbEntity
  8
0
100
AcDbLine
 62
7
  6
CONTINUOUS
 10
409.7949482898
 20
89.6373066368
 11
409.6122487095
 21
89.6473552432
  0
LINE
  5
40D
100
AcDbEntity
  8
0
100
AcDbLine
 62
7
  6
CONTINUOUS
 10
418.1851918688
 20
92.7783673948
 11
418.4976918688
 21
92.7407553332
  0
LINE
  5
40E
100
AcDbEntity
  8
0
100
AcDbLine
 62
7
  6
CONTINUOUS
 10
407.9760282456
 20
89.1695959511
 11
408.1324061113
 21
89.1474758776
  0
LINE
  5
40F
100
AcDbEntity
  8
0
100
AcDbLine
 62
7
  6
CONTINUOUS
 10
408.2039434416
 20
89.8363691753
 11
408.0475655976
 21
89.8584892445
  0
LINE
  5
410
100
AcDbEntity
  8
0
100
AcDbLine
 62
7
  6
CONTINUOUS
 10
408.4146847905
 20
90.1898886771
 11
408.2583069465
 21
90.2120087463
  0
LINE
  5
411
100
AcDbEntity
  8
0
100
AcDbLine
 62
7
  6
CONTINUOUS
 10
418.4976918688
 20
92.8912035797
 11
418.2372751525
 21
92.9288156512
  0
LINE
  5
412
100
AcDbEntity
  8
0
100
AcDbLine
 62
7
  6
CONTINUOUS
 10
418.0289418688
 20
82.5558600614
 11
418.1851918688
 21
82.5182479998
  0
LINE
  5
413
100
AcDbEntity
  8
0
100
AcDbLine
 62
7
  6
CONTINUOUS
 10
418.0289418688
 20
92.8159794564
 11
418.1851918688
 21
92.7783673948
  0
LINE
  5
414
100
AcDbEntity
  8
0
100
AcDbLine
 62
7
  6
CONTINUOUS
 10
407.8320469701
 20
89.2125112755
 11
407.9760282456
 21
89.1695959511
  0
LINE
  5
415
100
AcDbEntity
  8
0
100
AcDbLine
 62
7
  6
CONTINUOUS
 10
408.0668072653
 20
89.2649892028
 11
407.8652334466
 21
89.3250706668
  0
LINE
  5
416
100
AcDbEntity
  8
0
100
AcDbLine
 62
7
  6
CONTINUOUS
 10
408.1131644305
 20
89.7409759382
 11
408.3147382492
 21
89.6808944742
  0
LINE
  5
417
100
AcDbEntity
  8
0
100
AcDbLine
 62
7
  6
CONTINUOUS
 10
408.3479247171
 20
89.7934538509
 11
408.2039434416
 21
89.8363691753
  0
LINE
  5
418
100
AcDbEntity
  8
0
100
AcDbLine
 62
7
  6
CONTINUOUS
 10
408.6526741295
 20
89.8495609436
 11
408.7966553638
 21
89.8066456315
  0
LINE
  5
419
100
AcDbEntity
  8
0
100
AcDbLine
 62
7
  6
CONTINUOUS
 10
408.3239057794
 20
90.09449544
 11
408.4966833265
 21
90.0429970458
  0
LINE
  5
41A
100
AcDbEntity
  8
0
100
AcDbLine
 62
7
  6
CONTINUOUS
 10
408.5298697944
 20
90.1555564225
 11
408.4146847905
 21
90.1898886771
  0
LINE
  5
41B
100
AcDbEntity
  8
0
100
AcDbLine
 62
7
  6
CONTINUOUS
 10
410.5860762648
 20
89.1608289922
 11
410.6716829413
 21
89.133805304
  0
LINE
  5
41C
100
AcDbEntity
  8
0
100
AcDbLine
 62
7
  6
CONTINUOUS
 10
410.7820899961
 20
89.1772096117
 11
410.73894533
 21
89.1908292036
  0
LINE
  5
41D
100
AcDbEntity
  8
0
100
AcDbLine
 62
7
  6
CONTINUOUS
 10
410.8245520064
 20
89.3759375498
 11
410.73894533
 21
89.402961238
  0
LINE
  5
41E
100
AcDbEntity
  8
0
100
AcDbLine
 62
7
  6
CONTINUOUS
 10
409.323843017
 20
88.7638306289
 11
409.1786130113
 21
88.8104187465
  0
LINE
  5
41F
100
AcDbEntity
  8
0
100
AcDbLine
 62
7
  6
CONTINUOUS
 10
409.7265730496
 20
89.5329864625
 11
409.8718029105
 21
89.4863984191
  0
LINE
  5
420
100
AcDbEntity
  8
0
100
AcDbLine
 62
7
  6
CONTINUOUS
 10
409.0849386999
 20
88.7190701414
 11
409.2554676206
 21
88.6595105176
  0
LINE
  5
421
100
AcDbEntity
  8
0
100
AcDbLine
 62
7
  6
CONTINUOUS
 10
409.9654772088
 20
89.5777470114
 11
409.7949482898
 21
89.6373066368
  0
LINE
  5
422
100
AcDbEntity
  8
0
100
AcDbLine
 62
7
  6
CONTINUOUS
 10
412.5518585107
 20
87.5518902613
 11
417.9590381876
 21
85.344418402
  0
LINE
  5
423
100
AcDbEntity
  8
0
100
AcDbLine
 62
7
  6
CONTINUOUS
 10
419.8518585107
 20
84.8494436551
 11
419.5518585107
 21
84.9719181423
  0
LINE
  5
424
100
AcDbEntity
  8
0
100
AcDbLine
 62
7
  6
CONTINUOUS
 10
419.1590381876
 20
85.1322863676
 11
412.5518585107
 21
87.8296561755
  0
LINE
  5
425
100
AcDbEntity
  8
0
100
AcDbLine
 62
7
  6
CONTINUOUS
 10
419.8518585107
 20
85.0615756895
 11
412.5518585107
 21
88.0417882099
  0
LINE
  5
426
100
AcDbEntity
  8
0
100
AcDbLine
 62
7
  6
CONTINUOUS
 10
417.8726918316
 20
82.6310841847
 11
418.0289418688
 21
82.5558600614
  0
LINE
  5
427
100
AcDbEntity
  8
0
100
AcDbLine
 62
7
  6
CONTINUOUS
 10
418.2372751525
 20
82.6686962562
 11
418.0810251525
 21
82.7439203729
  0
LINE
  5
428
100
AcDbEntity
  8
0
100
AcDbLine
 62
7
  6
CONTINUOUS
 10
407.7004622229
 20
89.2762218693
 11
407.8320469701
 21
89.2125112755
  0
LINE
  5
429
100
AcDbEntity
  8
0
100
AcDbLine
 62
7
  6
CONTINUOUS
 10
425.0046262577
 20
54.9924976218
 11
425.3617744823
 21
54.7309177837
  0
LINE
  5
42A
100
AcDbEntity
  8
0
100
AcDbLine
 62
7
  6
CONTINUOUS
 10
425.2896193721
 20
55.1675524862
 11
425.1875770223
 21
55.2422895828
  0
LINE
  5
42B
100
AcDbEntity
  8
0
100
AcDbLine
 62
7
  6
CONTINUOUS
 10
425.8874418508
 20
54.80645588
 11
425.734378326
 21
54.9185615249
  0
LINE
  5
42C
100
AcDbEntity
  8
0
100
AcDbLine
 62
7
  6
CONTINUOUS
 10
426.6491296361
 20
56.1675178997
 11
426.8021931609
 21
56.0554122548
  0
LINE
  5
42D
100
AcDbEntity
  8
0
100
AcDbLine
 62
7
  6
CONTINUOUS
 10
427.0361642629
 20
56.267834524
 11
426.7810583168
 21
56.4546773179
  0
LINE
  5
42E
100
AcDbEntity
  8
0
100
AcDbLine
 62
7
  6
CONTINUOUS
 10
421.0988582382
 20
50.405546225
 11
420.9460674077
 21
50.533942907
  0
LINE
  5
42F
100
AcDbEntity
  8
0
100
AcDbLine
 62
7
  6
CONTINUOUS
 10
420.5885479668
 20
51.5776908577
 11
420.4357571363
 21
51.7060875397
  0
LINE
  5
430
100
AcDbEntity
  8
0
100
AcDbLine
 62
7
  6
CONTINUOUS
 10
421.6501085228
 20
52.6848656998
 11
421.4973176923
 21
52.8132623818
  0
LINE
  5
431
100
AcDbEntity
  8
0
100
AcDbLine
 62
7
  6
CONTINUOUS
 10
417.6143584511
 20
101.6665491866
 11
417.4268585405
 21
101.6214147166
  0
LINE
  5
432
100
AcDbEntity
  8
0
100
AcDbLine
 62
7
  6
CONTINUOUS
 10
423.2393582723
 20
103.0521775361
 11
423.0518582723
 21
103.0070430661
  0
LINE
  5
433
100
AcDbEntity
  8
0
100
AcDbLine
 62
7
  6
CONTINUOUS
 10
422.0518585107
 20
102.8265051861
 11
422.2393585107
 21
102.8716396561
  0
LINE
  5
434
100
AcDbEntity
  8
0
100
AcDbLine
 62
7
  6
CONTINUOUS
 10
417.6143584511
 20
101.8786812209
 11
417.4268585405
 21
101.8335467509
  0
LINE
  5
435
100
AcDbEntity
  8
0
100
AcDbLine
 62
7
  6
CONTINUOUS
 10
422.2393585107
 20
103.0521775361
 11
422.0518585107
 21
103.0070430661
  0
LINE
  5
436
100
AcDbEntity
  8
0
100
AcDbLine
 62
7
  6
CONTINUOUS
 10
420.4268586299
 20
103.0521775361
 11
420.2393586299
 21
103.0070430661
  0
LINE
  5
437
100
AcDbEntity
  8
0
100
AcDbLine
 62
7
  6
CONTINUOUS
 10
419.2393585107
 20
102.8265051861
 11
419.4268585107
 21
102.8716396561
  0
LINE
  5
438
100
AcDbEntity
  8
0
100
AcDbLine
 62
7
  6
CONTINUOUS
 10
419.4268585107
 20
103.0521775361
 11
419.2393585107
 21
103.0070430661
  0
LINE
  5
439
100
AcDbEntity
  8
0
100
AcDbLine
 62
7
  6
CONTINUOUS
 10
416.8018585107
 20
102.691101776
 11
416.9893585107
 21
102.736236246
  0
LINE
  5
43A
100
AcDbEntity
  8
0
100
AcDbLine
 62
7
  6
CONTINUOUS
 10
416.8018585107
 20
103.4583878927
 11
416.9893585107
 21
103.5035223627
  0
LINE
  5
43B
100
AcDbEntity
  8
0
100
AcDbLine
 62
7
  6
CONTINUOUS
 10
409.7643585405
 20
103.6253854571
 11
409.9518585405
 21
103.6705199271
  0
LINE
  5
43C
100
AcDbEntity
  8
0
100
AcDbLine
 62
7
  6
CONTINUOUS
 10
410.5768585703
 20
101.923815691
 11
410.3268585405
 21
101.8786812209
  0
LINE
  5
43D
100
AcDbEntity
  8
0
100
AcDbLine
 62
7
  6
CONTINUOUS
 10
410.5768585703
 20
102.1359477253
 11
410.3268585405
 21
102.0908132553
  0
LINE
  5
43E
100
AcDbEntity
  8
0
100
AcDbLine
 62
7
  6
CONTINUOUS
 10
409.9518585405
 20
103.7291947128
 11
409.7018585107
 21
103.6840602428
  0
LINE
  5
43F
100
AcDbEntity
  8
0
100
AcDbLine
 62
7
  6
CONTINUOUS
 10
409.9518585405
 20
103.9413267472
 11
409.7018585107
 21
103.8961922771
  0
LINE
  5
440
100
AcDbEntity
  8
0
100
AcDbLine
 62
7
  6
CONTINUOUS
 10
417.3643585107
 20
101.6078743692
 11
417.6768585703
 21
101.6530088432
  0
LINE
  5
441
100
AcDbEntity
  8
0
100
AcDbLine
 62
7
  6
CONTINUOUS
 10
417.0518585405
 20
102.7497765618
 11
416.7393585256
 21
102.7046420917
  0
LINE
  5
442
100
AcDbEntity
  8
0
100
AcDbLine
 62
7
  6
CONTINUOUS
 10
410.3268585405
 20
101.8200064036
 11
410.6393585107
 21
101.8651408776
  0
LINE
  5
443
100
AcDbEntity
  8
0
100
AcDbLine
 62
7
  6
CONTINUOUS
 10
417.0518585405
 20
102.9619085961
 11
416.7393585256
 21
102.9167741261
  0
LINE
  5
444
100
AcDbEntity
  8
0
100
AcDbLine
 62
7
  6
CONTINUOUS
 10
417.0518585405
 20
103.5170626784
 11
416.7393585256
 21
103.4719282084
  0
LINE
  5
445
100
AcDbEntity
  8
0
100
AcDbLine
 62
7
  6
CONTINUOUS
 10
417.0518585405
 20
103.7291947128
 11
416.7393585256
 21
103.6840602428
  0
LINE
  5
446
100
AcDbEntity
  8
0
100
AcDbLine
 62
7
  6
CONTINUOUS
 10
408.5027581221
 20
100.2070611028
 11
408.6574735435
 21
100.2277389933
  0
LINE
  5
447
100
AcDbEntity
  8
0
100
AcDbLine
 62
7
  6
CONTINUOUS
 10
408.9020636955
 20
99.7362342505
 11
408.7896179271
 21
99.7257639962
  0
LINE
  5
448
100
AcDbEntity
  8
0
100
AcDbLine
 62
7
  6
CONTINUOUS
 10
408.7457065103
 20
99.6150563778
 11
408.9283283977
 21
99.6257892555
  0
LINE
  5
449
100
AcDbEntity
  8
0
100
AcDbLine
 62
7
  6
CONTINUOUS
 10
408.7013849515
 20
100.3384465994
 11
408.5187630679
 21
100.3277137269
  0
LINE
  5
44A
100
AcDbEntity
  8
0
100
AcDbLine
 62
7
  6
CONTINUOUS
 10
405.5518585107
 20
100.1936608069
 11
405.2518585107
 21
100.1936608069
  0
LINE
  5
44B
100
AcDbEntity
  8
0
100
AcDbLine
 62
7
  6
CONTINUOUS
 10
405.5518585107
 20
100.4057928412
 11
405.2518585107
 21
100.4057928412
  0
LINE
  5
44C
100
AcDbEntity
  8
0
100
AcDbLine
 62
7
  6
CONTINUOUS
 10
400.2518585107
 20
101.6078743692
 11
408.3518585107
 21
101.6078743692
  0
LINE
  5
44D
100
AcDbEntity
  8
0
100
AcDbLine
 62
7
  6
CONTINUOUS
 10
417.0518585405
 20
101.6078743692
 11
417.3643585107
 21
101.6078743692
  0
LINE
  5
44E
100
AcDbEntity
  8
0
100
AcDbLine
 62
7
  6
CONTINUOUS
 10
418.8018585703
 20
101.6078743692
 11
419.1143586299
 21
101.6078743692
  0
LINE
  5
44F
100
AcDbEntity
  8
0
100
AcDbLine
 62
7
  6
CONTINUOUS
 10
419.8018585107
 20
101.6078743692
 11
420.1143583915
 21
101.6078743692
  0
LINE
  5
450
100
AcDbEntity
  8
0
100
AcDbLine
 62
7
  6
CONTINUOUS
 10
420.8018586299
 20
101.6078743692
 11
421.1143585107
 21
101.6078743692
  0
LINE
  5
451
100
AcDbEntity
  8
0
100
AcDbLine
 62
7
  6
CONTINUOUS
 10
421.6143583915
 20
101.6078743692
 11
421.9268586299
 21
101.6078743692
  0
LINE
  5
452
100
AcDbEntity
  8
0
100
AcDbLine
 62
7
  6
CONTINUOUS
 10
422.6143585107
 20
101.6078743692
 11
422.9268587491
 21
101.6078743692
  0
LINE
  5
453
100
AcDbEntity
  8
0
100
AcDbLine
 62
7
  6
CONTINUOUS
 10
423.6143582723
 20
101.6078743692
 11
423.9268585107
 21
101.6078743692
  0
LINE
  5
454
100
AcDbEntity
  8
0
100
AcDbLine
 62
7
  6
CONTINUOUS
 10
417.4268585405
 20
101.6214147166
 11
416.9893585107
 21
101.6214147166
  0
LINE
  5
455
100
AcDbEntity
  8
0
100
AcDbLine
 62
7
  6
CONTINUOUS
 10
408.0518585107
 20
101.8200064036
 11
400.5518585107
 21
101.8200064036
  0
LINE
  5
456
100
AcDbEntity
  8
0
100
AcDbLine
 62
7
  6
CONTINUOUS
 10
409.8268584809
 20
101.8200064036
 11
410.3268585405
 21
101.8200064036
  0
LINE
  5
457
100
AcDbEntity
  8
0
100
AcDbLine
 62
7
  6
CONTINUOUS
 10
417.4268585405
 20
101.8335467509
 11
416.9893585107
 21
101.8335467509
  0
LINE
  5
458
100
AcDbEntity
  8
0
100
AcDbLine
 62
7
  6
CONTINUOUS
 10
410.3268585405
 20
101.8786812209
 11
409.8268584809
 21
101.8786812209
  0
LINE
  5
459
100
AcDbEntity
  8
0
100
AcDbLine
 62
7
  6
CONTINUOUS
 10
410.3268585405
 20
102.0908132553
 11
409.8268584809
 21
102.0908132553
  0
LINE
  5
45A
100
AcDbEntity
  8
0
100
AcDbLine
 62
7
  6
CONTINUOUS
 10
409.3268585107
 20
102.1946225427
 11
409.0406085288
 21
102.1946225427
  0
LINE
  5
45B
100
AcDbEntity
  8
0
100
AcDbLine
 62
7
  6
CONTINUOUS
 10
409.3268585107
 20
102.406754577
 11
408.9518585107
 21
102.406754577
  0
LINE
  5
45C
100
AcDbEntity
  8
0
100
AcDbLine
 62
7
  6
CONTINUOUS
 10
416.9893585107
 20
102.736236246
 11
417.4268585405
 21
102.736236246
  0
LINE
  5
45D
100
AcDbEntity
  8
0
100
AcDbLine
 62
7
  6
CONTINUOUS
 10
417.3643585107
 20
102.7497765618
 11
417.0518585405
 21
102.7497765618
  0
LINE
  5
45E
100
AcDbEntity
  8
0
100
AcDbLine
 62
7
  6
CONTINUOUS
 10
409.9518585405
 20
102.7678304003
 11
410.3268585405
 21
102.7678304003
  0
LINE
  5
45F
100
AcDbEntity
  8
0
100
AcDbLine
 62
7
  6
CONTINUOUS
 10
410.3268585405
 20
102.8265051861
 11
409.9518585405
 21
102.8265051861
  0
LINE
  5
460
100
AcDbEntity
  8
0
100
AcDbLine
 62
7
  6
CONTINUOUS
 10
423.4893587491
 20
102.8400455018
 11
423.4518587476
 21
102.8400455018
  0
LINE
  5
461
100
AcDbEntity
  8
0
100
AcDbLine
 62
7
  6
CONTINUOUS
 10
422.4893582723
 20
102.8400455018
 11
422.4518584853
 21
102.8400455018
  0
LINE
  5
462
100
AcDbEntity
  8
0
100
AcDbLine
 62
7
  6
CONTINUOUS
 10
421.9268586299
 20
102.8400455018
 11
421.6143583915
 21
102.8400455018
  0
LINE
  5
463
100
AcDbEntity
  8
0
100
AcDbLine
 62
7
  6
CONTINUOUS
 10
420.6768583915
 20
102.8400455018
 11
420.6393584973
 21
102.8400455018
  0
LINE
  5
464
100
AcDbEntity
  8
0
100
AcDbLine
 62
7
  6
CONTINUOUS
 10
419.6768586299
 20
102.8400455018
 11
419.6393586284
 21
102.8400455018
  0
LINE
  5
465
100
AcDbEntity
  8
0
100
AcDbLine
 62
7
  6
CONTINUOUS
 10
419.1143586299
 20
102.8400455018
 11
418.8018585703
 21
102.8400455018
  0
LINE
  5
466
100
AcDbEntity
  8
0
100
AcDbLine
 62
7
  6
CONTINUOUS
 10
419.4268585107
 20
102.8716396561
 11
419.5518583915
 21
102.8716396561
  0
LINE
  5
467
100
AcDbEntity
  8
0
100
AcDbLine
 62
7
  6
CONTINUOUS
 10
420.3643585107
 20
102.8716396561
 11
420.5518585107
 21
102.8716396561
  0
LINE
  5
468
100
AcDbEntity
  8
0
100
AcDbLine
 62
7
  6
CONTINUOUS
 10
422.2393585107
 20
102.8716396561
 11
422.3643587491
 21
102.8716396561
  0
LINE
  5
469
100
AcDbEntity
  8
0
100
AcDbLine
 62
7
  6
CONTINUOUS
 10
423.1768585107
 20
102.8716396561
 11
423.3643585107
 21
102.8716396561
  0
LINE
  5
46A
100
AcDbEntity
  8
0
100
AcDbLine
 62
7
  6
CONTINUOUS
 10
417.3643585107
 20
102.9619085961
 11
417.0518585405
 21
102.9619085961
  0
LINE
  5
46B
100
AcDbEntity
  8
0
100
AcDbLine
 62
7
  6
CONTINUOUS
 10
410.3268585405
 20
103.0386372204
 11
409.9518585405
 21
103.0386372204
  0
LINE
  5
46C
100
AcDbEntity
  8
0
100
AcDbLine
 62
7
  6
CONTINUOUS
 10
423.4893587491
 20
103.0521775361
 11
423.2393582723
 21
103.0521775361
  0
LINE
  5
46D
100
AcDbEntity
  8
0
100
AcDbLine
 62
7
  6
CONTINUOUS
 10
422.4893582723
 20
103.0521775361
 11
422.2393585107
 21
103.0521775361
  0
LINE
  5
46E
100
AcDbEntity
  8
0
100
AcDbLine
 62
7
  6
CONTINUOUS
 10
421.9268586299
 20
103.0521775361
 11
421.6143583915
 21
103.0521775361
  0
LINE
  5
46F
100
AcDbEntity
  8
0
100
AcDbLine
 62
7
  6
CONTINUOUS
 10
420.6768583915
 20
103.0521775361
 11
420.4268586299
 21
103.0521775361
  0
LINE
  5
470
100
AcDbEntity
  8
0
100
AcDbLine
 62
7
  6
CONTINUOUS
 10
419.6768586299
 20
103.0521775361
 11
419.4268585107
 21
103.0521775361
  0
LINE
  5
471
100
AcDbEntity
  8
0
100
AcDbLine
 62
7
  6
CONTINUOUS
 10
419.1143586299
 20
103.0521775361
 11
418.8018585703
 21
103.0521775361
  0
LINE
  5
472
100
AcDbEntity
  8
0
100
AcDbLine
 62
7
  6
CONTINUOUS
 10
417.8643585703
 20
103.2327155426
 11
418.1768584511
 21
103.2327155426
  0
LINE
  5
473
100
AcDbEntity
  8
0
100
AcDbLine
 62
7
  6
CONTINUOUS
 10
410.7018584511
 20
103.444847577
 11
411.0768584511
 21
103.444847577
  0
LINE
  5
474
100
AcDbEntity
  8
0
100
AcDbLine
 62
7
  6
CONTINUOUS
 10
416.9893585107
 20
103.5035223627
 11
417.3643585107
 21
103.5035223627
  0
LINE
  5
475
100
AcDbEntity
  8
0
100
AcDbLine
 62
7
  6
CONTINUOUS
 10
417.3018584809
 20
103.5170626784
 11
417.0518585405
 21
103.5170626784
  0
LINE
  5
476
100
AcDbEntity
  8
0
100
AcDbLine
 62
7
  6
CONTINUOUS
 10
409.9518585405
 20
103.6705199271
 11
410.3268585405
 21
103.6705199271
  0
LINE
  5
477
100
AcDbEntity
  8
0
100
AcDbLine
 62
7
  6
CONTINUOUS
 10
417.3018584809
 20
103.7291947128
 11
417.0518585405
 21
103.7291947128
  0
LINE
  5
478
100
AcDbEntity
  8
0
100
AcDbLine
 62
7
  6
CONTINUOUS
 10
410.2643585107
 20
103.7291947128
 11
409.9518585405
 21
103.7291947128
  0
LINE
  5
479
100
AcDbEntity
  8
0
100
AcDbLine
 62
7
  6
CONTINUOUS
 10
410.2643585107
 20
103.9413267472
 11
409.9518585405
 21
103.9413267472
  0
LINE
  5
47A
100
AcDbEntity
  8
0
100
AcDbLine
 62
7
  6
CONTINUOUS
 10
400.2518585107
 20
104.6484335283
 11
408.3518585107
 21
104.6484335283
  0
LINE
  5
47B
100
AcDbEntity
  8
0
100
AcDbLine
 62
7
  6
CONTINUOUS
 10
408.3518585107
 20
104.8605655627
 11
400.2518585107
 21
104.8605655627
  0
LINE
  5
47C
100
AcDbEntity
  8
0
100
AcDbLine
 62
7
  6
CONTINUOUS
 10
409.5143585107
 20
101.8651408776
 11
409.8268584809
 21
101.8200064036
  0
LINE
  5
47D
100
AcDbEntity
  8
0
100
AcDbLine
 62
7
  6
CONTINUOUS
 10
416.7393585256
 20
101.6530088432
 11
417.0518585405
 21
101.6078743692
  0
LINE
  5
47E
100
AcDbEntity
  8
0
100
AcDbLine
 62
7
  6
CONTINUOUS
 10
410.6393585107
 20
102.7813707161
 11
410.3268585405
 21
102.8265051861
  0
LINE
  5
47F
100
AcDbEntity
  8
0
100
AcDbLine
 62
7
  6
CONTINUOUS
 10
410.6393585107
 20
102.9935027504
 11
410.3268585405
 21
103.0386372204
  0
LINE
  5
480
100
AcDbEntity
  8
0
100
AcDbLine
 62
7
  6
CONTINUOUS
 10
410.5768585703
 20
103.6840602428
 11
410.2643585107
 21
103.7291947128
  0
LINE
  5
481
100
AcDbEntity
  8
0
100
AcDbLine
 62
7
  6
CONTINUOUS
 10
417.6768585703
 20
102.7046420917
 11
417.3643585107
 21
102.7497765618
  0
LINE
  5
482
100
AcDbEntity
  8
0
100
AcDbLine
 62
7
  6
CONTINUOUS
 10
410.5768585703
 20
103.8961922771
 11
410.2643585107
 21
103.9413267472
  0
LINE
  5
483
100
AcDbEntity
  8
0
100
AcDbLine
 62
7
  6
CONTINUOUS
 10
417.6768585703
 20
102.9167741261
 11
417.3643585107
 21
102.9619085961
  0
LINE
  5
484
100
AcDbEntity
  8
0
100
AcDbLine
 62
7
  6
CONTINUOUS
 10
417.6143584511
 20
103.4719282084
 11
417.3018584809
 21
103.5170626784
  0
LINE
  5
485
100
AcDbEntity
  8
0
100
AcDbLine
 62
7
  6
CONTINUOUS
 10
417.6143584511
 20
103.6840602428
 11
417.3018584809
 21
103.7291947128
  0
LINE
  5
486
100
AcDbEntity
  8
0
100
AcDbLine
 62
7
  6
CONTINUOUS
 10
408.7896179271
 20
99.7257639962
 11
408.6636293664
 21
99.7453912434
  0
LINE
  5
487
100
AcDbEntity
  8
0
100
AcDbLine
 62
7
  6
CONTINUOUS
 10
408.6574735435
 20
100.2277389933
 11
408.7834621042
 21
100.2081117461
  0
LINE
  5
488
100
AcDbEntity
  8
0
100
AcDbLine
 62
7
  6
CONTINUOUS
 10
407.2852944008
 20
100.0076655265
 11
407.4670586269
 21
99.9751231227
  0
LINE
  5
489
100
AcDbEntity
  8
0
100
AcDbLine
 62
7
  6
CONTINUOUS
 10
407.4419647315
 20
100.2330712609
 11
407.3949636279
 21
100.241486167
  0
LINE
  5
48A
100
AcDbEntity
  8
0
100
AcDbLine
 62
7
  6
CONTINUOUS
 10
406.6679067232
 20
100.4441115673
 11
407.3949636279
 21
100.3139419524
  0
LINE
  5
48B
100
AcDbEntity
  8
0
100
AcDbLine
 62
7
  6
CONTINUOUS
 10
407.5767278541
 20
100.2813995487
 11
407.8796682022
 21
100.2271622143
  0
LINE
  5
48C
100
AcDbEntity
  8
0
100
AcDbLine
 62
7
  6
CONTINUOUS
 10
407.9266693058
 20
100.3584235572
 11
407.6237289577
 21
100.4126608916
  0
LINE
  5
48D
100
AcDbEntity
  8
0
100
AcDbLine
 62
7
  6
CONTINUOUS
 10
407.4419647315
 20
100.4452032953
 11
406.9269660834
 21
100.5374067738
  0
LINE
  5
48E
100
AcDbEntity
  8
0
100
AcDbLine
 62
7
  6
CONTINUOUS
 10
407.7638513974
 20
100.8039848858
 11
407.6534696703
 21
100.8237472274
  0
LINE
  5
48F
100
AcDbEntity
  8
0
100
AcDbLine
 62
7
  6
CONTINUOUS
 10
407.8352338965
 20
101.003336858
 11
407.6534696703
 21
101.0358792618
  0
LINE
  5
490
100
AcDbEntity
  8
0
100
AcDbLine
 62
7
  6
CONTINUOUS
 10
409.8268584809
 20
101.8786812209
 11
409.5768584958
 21
101.923815691
  0
LINE
  5
491
100
AcDbEntity
  8
0
100
AcDbLine
 62
7
  6
CONTINUOUS
 10
409.8268584809
 20
102.0908132553
 11
409.5768584958
 21
102.1359477253
  0
LINE
  5
492
100
AcDbEntity
  8
0
100
AcDbLine
 62
7
  6
CONTINUOUS
 10
409.7018585107
 20
102.8129648704
 11
409.9518585405
 21
102.7678304003
  0
LINE
  5
493
100
AcDbEntity
  8
0
100
AcDbLine
 62
7
  6
CONTINUOUS
 10
410.3268585405
 20
102.7678304003
 11
410.5768585703
 21
102.7226959303
  0
LINE
  5
494
100
AcDbEntity
  8
0
100
AcDbLine
 62
7
  6
CONTINUOUS
 10
408.5918118055
 20
99.6446285274
 11
408.7457065103
 21
99.6150563778
  0
LINE
  5
495
100
AcDbEntity
  8
0
100
AcDbLine
 62
7
  6
CONTINUOUS
 10
408.8552796551
 20
100.308874448
 11
408.7013849515
 21
100.3384465994
  0
LINE
  5
496
100
AcDbEntity
  8
0
100
AcDbLine
 62
7
  6
CONTINUOUS
 10
409.9518585405
 20
102.8265051861
 11
409.7643585405
 21
102.8716396561
  0
LINE
  5
497
100
AcDbEntity
  8
0
100
AcDbLine
 62
7
  6
CONTINUOUS
 10
409.9518585405
 20
103.0386372204
 11
409.7643585405
 21
103.0837716904
  0
LINE
  5
498
100
AcDbEntity
  8
0
100
AcDbLine
 62
7
  6
CONTINUOUS
 10
416.9893585107
 20
101.6214147166
 11
416.8018585107
 21
101.6665491866
  0
LINE
  5
499
100
AcDbEntity
  8
0
100
AcDbLine
 62
7
  6
CONTINUOUS
 10
416.9893585107
 20
101.8335467509
 11
416.8018585107
 21
101.8786812209
  0
LINE
  5
49A
100
AcDbEntity
  8
0
100
AcDbLine
 62
7
  6
CONTINUOUS
 10
410.3268585405
 20
103.6705199271
 11
410.5143584511
 21
103.6253854571
  0
LINE
  5
49B
100
AcDbEntity
  8
0
100
AcDbLine
 62
7
  6
CONTINUOUS
 10
417.4268585405
 20
102.736236246
 11
417.6143584511
 21
102.691101776
  0
LINE
  5
49C
100
AcDbEntity
  8
0
100
AcDbLine
 62
7
  6
CONTINUOUS
 10
419.8643586299
 20
102.7949110318
 11
419.6768586299
 21
102.8400455018
  0
LINE
  5
49D
100
AcDbEntity
  8
0
100
AcDbLine
 62
7
  6
CONTINUOUS
 10
417.3643585107
 20
103.5035223627
 11
417.5518585107
 21
103.4583878927
  0
LINE
  5
49E
100
AcDbEntity
  8
0
100
AcDbLine
 62
7
  6
CONTINUOUS
 10
419.8643586299
 20
103.0070430661
 11
419.6768586299
 21
103.0521775361
  0
LINE
  5
49F
100
AcDbEntity
  8
0
100
AcDbLine
 62
7
  6
CONTINUOUS
 10
420.8643583915
 20
102.7949110318
 11
420.6768583915
 21
102.8400455018
  0
LINE
  5
4A0
100
AcDbEntity
  8
0
100
AcDbLine
 62
7
  6
CONTINUOUS
 10
420.8643583915
 20
103.0070430661
 11
420.6768583915
 21
103.0521775361
  0
LINE
  5
4A1
100
AcDbEntity
  8
0
100
AcDbLine
 62
7
  6
CONTINUOUS
 10
422.6768582723
 20
102.7949110318
 11
422.4893582723
 21
102.8400455018
  0
LINE
  5
4A2
100
AcDbEntity
  8
0
100
AcDbLine
 62
7
  6
CONTINUOUS
 10
422.6768582723
 20
103.0070430661
 11
422.4893582723
 21
103.0521775361
  0
LINE
  5
4A3
100
AcDbEntity
  8
0
100
AcDbLine
 62
7
  6
CONTINUOUS
 10
423.6768587491
 20
102.7949110318
 11
423.4893587491
 21
102.8400455018
  0
LINE
  5
4A4
100
AcDbEntity
  8
0
100
AcDbLine
 62
7
  6
CONTINUOUS
 10
423.6768587491
 20
103.0070430661
 11
423.4893587491
 21
103.0521775361
  0
LINE
  5
4A5
100
AcDbEntity
  8
0
100
AcDbLine
 62
7
  6
CONTINUOUS
 10
410.1157313001
 20
100.2183770546
 11
410.2041366439
 21
100.1963139894
  0
LINE
  5
4A6
100
AcDbEntity
  8
0
100
AcDbLine
 62
7
  6
CONTINUOUS
 10
410.2999295123
 20
100.2414711358
 11
410.2405388443
 21
100.2562930926
  0
LINE
  5
4A7
100
AcDbEntity
  8
0
100
AcDbLine
 62
7
  6
CONTINUOUS
 10
410.3289441881
 20
100.4463620617
 11
410.2405388443
 21
100.4684251269
  0
LINE
  5
4A8
100
AcDbEntity
  8
0
100
AcDbLine
 62
7
  6
CONTINUOUS
 10
408.4243743095
 20
99.7042981803
 11
408.5918118055
 21
99.6446285274
  0
LINE
  5
4A9
100
AcDbEntity
  8
0
100
AcDbLine
 62
7
  6
CONTINUOUS
 10
408.3455802078
 20
99.823501138
 11
408.2154381231
 21
99.8698798357
  0
LINE
  5
4AA
100
AcDbEntity
  8
0
100
AcDbLine
 62
7
  6
CONTINUOUS
 10
408.6636293664
 20
99.7453912434
 11
408.4961918705
 21
99.8050608963
  0
LINE
  5
4AB
100
AcDbEntity
  8
0
100
AcDbLine
 62
7
  6
CONTINUOUS
 10
408.3455802078
 20
100.0356331723
 11
408.1781427119
 21
100.0953028252
  0
LINE
  5
4AC
100
AcDbEntity
  8
0
100
AcDbLine
 62
7
  6
CONTINUOUS
 10
408.3074143236
 20
100.2766757168
 11
408.5027581221
 21
100.2070611028
  0
LINE
  5
4AD
100
AcDbEntity
  8
0
100
AcDbLine
 62
7
  6
CONTINUOUS
 10
408.7834621042
 20
100.2081117461
 11
408.9508996002
 21
100.1484420932
  0
LINE
  5
4AE
100
AcDbEntity
  8
0
100
AcDbLine
 62
7
  6
CONTINUOUS
 10
409.0227171511
 20
100.2492047951
 11
408.8552796551
 21
100.308874448
  0
LINE
  5
4AF
100
AcDbEntity
  8
0
100
AcDbLine
 62
7
  6
CONTINUOUS
 10
408.6998266333
 20
100.5817526607
 11
408.6808656285
 21
100.5885097886
  0
LINE
  5
4B0
100
AcDbEntity
  8
0
100
AcDbLine
 62
7
  6
CONTINUOUS
 10
408.748579271
 20
100.6501544294
 11
409.5578606079
 21
100.3617510692
  0
LINE
  5
4B1
100
AcDbEntity
  8
0
100
AcDbLine
 62
7
  6
CONTINUOUS
 10
409.6296781588
 20
100.4625137711
 11
408.6808656285
 21
100.800641823
  0
LINE
  5
4B2
100
AcDbEntity
  8
0
100
AcDbLine
 62
7
  6
CONTINUOUS
 10
409.4518585256
 20
102.9032338104
 11
409.7018585107
 21
102.8129648704
  0
LINE
  5
4B3
100
AcDbEntity
  8
0
100
AcDbLine
 62
7
  6
CONTINUOUS
 10
410.8893584511
 20
102.691101776
 11
410.6393585107
 21
102.7813707161
  0
LINE
  5
4B4
100
AcDbEntity
  8
0
100
AcDbLine
 62
7
  6
CONTINUOUS
 10
410.8893584511
 20
102.9032338104
 11
410.6393585107
 21
102.9935027504
  0
LINE
  5
4B5
100
AcDbEntity
  8
0
100
AcDbLine
 62
7
  6
CONTINUOUS
 10
409.2018585181
 20
102.0005442995
 11
409.5143585107
 21
101.8651408776
  0
LINE
  5
4B6
100
AcDbEntity
  8
0
100
AcDbLine
 62
7
  6
CONTINUOUS
 10
417.8726918316
 20
92.8912035797
 11
418.0289418688
 21
92.8159794564
  0
LINE
  5
4B7
100
AcDbEntity
  8
0
100
AcDbLine
 62
7
  6
CONTINUOUS
 10
418.2372751525
 20
92.9288156512
 11
418.0810251525
 21
93.0040397679
  0
LINE
  5
4B8
100
AcDbEntity
  8
0
100
AcDbLine
 62
7
  6
CONTINUOUS
 10
408.4795094859
 20
89.7297432528
 11
408.3479247171
 21
89.7934538509
  0
LINE
  5
4B9
100
AcDbEntity
  8
0
100
AcDbLine
 62
7
  6
CONTINUOUS
 10
408.6614545221
 20
89.8797138023
 11
408.6425993288
 21
89.8888430944
  0
LINE
  5
4BA
100
AcDbEntity
  8
0
100
AcDbLine
 62
7
  6
CONTINUOUS
 10
408.6614545221
 20
90.0918458367
 11
408.5298697944
 21
90.1555564225
  0
LINE
  5
4BB
100
AcDbEntity
  8
0
100
AcDbLine
 62
7
  6
CONTINUOUS
 10
407.8652334466
 20
89.3250706668
 11
407.791241221
 21
89.3716151253
  0
LINE
  5
4BC
100
AcDbEntity
  8
0
100
AcDbLine
 62
7
  6
CONTINUOUS
 10
408.3147382492
 20
89.6808944742
 11
408.3887304337
 21
89.634350028
  0
LINE
  5
4BD
100
AcDbEntity
  8
0
100
AcDbLine
 62
7
  6
CONTINUOUS
 10
408.4966833265
 20
90.0429970458
 11
408.5706755522
 21
89.9964525873
  0
LINE
  5
4BE
100
AcDbEntity
  8
0
100
AcDbLine
 62
7
  6
CONTINUOUS
 10
408.9518795018
 20
88.8151692053
 11
409.0849386999
 21
88.7190701414
  0
LINE
  5
4BF
100
AcDbEntity
  8
0
100
AcDbLine
 62
7
  6
CONTINUOUS
 10
410.0985364086
 20
89.2695159148
 11
410.0179295882
 21
89.3277324069
  0
LINE
  5
4C0
100
AcDbEntity
  8
0
100
AcDbLine
 62
7
  6
CONTINUOUS
 10
410.0985364086
 20
89.4816479491
 11
409.9654772088
 21
89.5777470114
  0
LINE
  5
4C1
100
AcDbEntity
  8
0
100
AcDbLine
 62
7
  6
CONTINUOUS
 10
424.6840683536
 20
55.3040360808
 11
425.0046262577
 21
54.9924976218
  0
LINE
  5
4C2
100
AcDbEntity
  8
0
100
AcDbLine
 62
7
  6
CONTINUOUS
 10
420.6305729358
 20
50.3377010045
 11
420.8167666393
 21
50.1556031422
  0
LINE
  5
4C3
100
AcDbEntity
  8
0
100
AcDbLine
 62
7
  6
CONTINUOUS
 10
420.1536655374
 20
51.4561444569
 11
420.3398592409
 21
51.2740465946
  0
LINE
  5
4C4
100
AcDbEntity
  8
0
100
AcDbLine
 62
7
  6
CONTINUOUS
 10
425.1875770223
 20
55.2422895828
 11
424.9180394556
 21
55.51645835
  0
LINE
  5
4C5
100
AcDbEntity
  8
0
100
AcDbLine
 62
7
  6
CONTINUOUS
 10
419.5518583915
 20
102.8716396561
 11
419.6768586299
 21
102.8265051861
  0
LINE
  5
4C6
100
AcDbEntity
  8
0
100
AcDbLine
 62
7
  6
CONTINUOUS
 10
420.5518585107
 20
102.8716396561
 11
420.6768583915
 21
102.8265051861
  0
LINE
  5
4C7
100
AcDbEntity
  8
0
100
AcDbLine
 62
7
  6
CONTINUOUS
 10
422.3643587491
 20
102.8716396561
 11
422.4893582723
 21
102.8265051861
  0
LINE
  5
4C8
100
AcDbEntity
  8
0
100
AcDbLine
 62
7
  6
CONTINUOUS
 10
423.3643585107
 20
102.8716396561
 11
423.4893587491
 21
102.8265051861
  0
LINE
  5
4C9
100
AcDbEntity
  8
0
100
AcDbLine
 62
7
  6
CONTINUOUS
 10
416.4268585107
 20
101.7884122651
 11
416.7393585256
 21
101.6530088432
  0
LINE
  5
4CA
100
AcDbEntity
  8
0
100
AcDbLine
 62
7
  6
CONTINUOUS
 10
417.9893584511
 20
102.5692386817
 11
417.6768585703
 21
102.7046420917
  0
LINE
  5
4CB
100
AcDbEntity
  8
0
100
AcDbLine
 62
7
  6
CONTINUOUS
 10
417.9893584511
 20
102.7813707161
 11
417.6768585703
 21
102.9167741261
  0
LINE
  5
4CC
100
AcDbEntity
  8
0
100
AcDbLine
 62
7
  6
CONTINUOUS
 10
417.9268585107
 20
103.3365247984
 11
417.6143584511
 21
103.4719282084
  0
LINE
  5
4CD
100
AcDbEntity
  8
0
100
AcDbLine
 62
7
  6
CONTINUOUS
 10
417.9268585107
 20
103.5486568327
 11
417.6143584511
 21
103.6840602428
  0
LINE
  5
4CE
100
AcDbEntity
  8
0
100
AcDbLine
 62
7
  6
CONTINUOUS
 10
409.7643585405
 20
102.8716396561
 11
409.5768584958
 21
102.9619085961
  0
LINE
  5
4CF
100
AcDbEntity
  8
0
100
AcDbLine
 62
7
  6
CONTINUOUS
 10
409.7643585405
 20
103.0837716904
 11
409.5768584958
 21
103.1740406305
  0
LINE
  5
4D0
100
AcDbEntity
  8
0
100
AcDbLine
 62
7
  6
CONTINUOUS
 10
410.5768585703
 20
102.7226959303
 11
410.7643585703
 21
102.6324269903
  0
LINE
  5
4D1
100
AcDbEntity
  8
0
100
AcDbLine
 62
7
  6
CONTINUOUS
 10
416.8018585107
 20
101.6665491866
 11
416.6143585107
 21
101.7568181266
  0
LINE
  5
4D2
100
AcDbEntity
  8
0
100
AcDbLine
 62
7
  6
CONTINUOUS
 10
416.8018585107
 20
101.8786812209
 11
416.6143585107
 21
101.968950161
  0
LINE
  5
4D3
100
AcDbEntity
  8
0
100
AcDbLine
 62
7
  6
CONTINUOUS
 10
417.6143584511
 20
102.691101776
 11
417.8018584511
 21
102.600832836
  0
LINE
  5
4D4
100
AcDbEntity
  8
0
100
AcDbLine
 62
7
  6
CONTINUOUS
 10
417.5518585107
 20
103.4583878927
 11
417.7393585107
 21
103.3681189527
  0
LINE
  5
4D5
100
AcDbEntity
  8
0
100
AcDbLine
 62
7
  6
CONTINUOUS
 10
410.8268585107
 20
103.5486568327
 11
410.5768585703
 21
103.6840602428
  0
LINE
  5
4D6
100
AcDbEntity
  8
0
100
AcDbLine
 62
7
  6
CONTINUOUS
 10
410.8268585107
 20
103.7607888671
 11
410.5768585703
 21
103.8961922771
  0
LINE
  5
4D7
100
AcDbEntity
  8
0
100
AcDbLine
 62
7
  6
CONTINUOUS
 10
408.2992066276
 20
99.7741754142
 11
408.4243743095
 21
99.7042981803
  0
LINE
  5
4D8
100
AcDbEntity
  8
0
100
AcDbLine
 62
7
  6
CONTINUOUS
 10
409.1478848343
 20
99.9671955286
 11
409.1077038515
 21
99.989627324
  0
LINE
  5
4D9
100
AcDbEntity
  8
0
100
AcDbLine
 62
7
  6
CONTINUOUS
 10
409.1478848343
 20
100.179327563
 11
409.0227171511
 21
100.2492047951
  0
LINE
  5
4DA
100
AcDbEntity
  8
0
100
AcDbLine
 62
7
  6
CONTINUOUS
 10
408.4961918705
 20
99.8050608963
 11
408.3989303301
 21
99.8649932242
  0
LINE
  5
4DB
100
AcDbEntity
  8
0
100
AcDbLine
 62
7
  6
CONTINUOUS
 10
408.9508996002
 20
100.1484420932
 11
409.0481611405
 21
100.0885097653
  0
LINE
  5
4DC
100
AcDbEntity
  8
0
100
AcDbLine
 62
7
  6
CONTINUOUS
 10
412.5518585107
 20
99.9071450122
 11
419.0059835891
 21
95.3146240167
  0
LINE
  5
4DD
100
AcDbEntity
  8
0
100
AcDbLine
 62
7
  6
CONTINUOUS
 10
419.8518585107
 20
95.1024919823
 11
412.5518585107
 21
100.2969068503
  0
LINE
  5
4DE
100
AcDbEntity
  8
0
100
AcDbLine
 62
7
  6
CONTINUOUS
 10
419.8518585107
 20
95.3146240167
 11
412.5518585107
 21
100.5090388847
  0
LINE
  5
4DF
100
AcDbEntity
  8
0
100
AcDbLine
 62
7
  6
CONTINUOUS
 10
409.5768584958
 20
101.923815691
 11
409.3893584958
 21
102.0592191326
  0
LINE
  5
4E0
100
AcDbEntity
  8
0
100
AcDbLine
 62
7
  6
CONTINUOUS
 10
409.5768584958
 20
102.1359477253
 11
409.3893584958
 21
102.271351167
  0
LINE
  5
4E1
100
AcDbEntity
  8
0
100
AcDbLine
 62
7
  6
CONTINUOUS
 10
409.2018585181
 20
103.0837716904
 11
409.4518585256
 21
102.9032338104
  0
LINE
  5
4E2
100
AcDbEntity
  8
0
100
AcDbLine
 62
7
  6
CONTINUOUS
 10
411.1393585703
 20
102.510563896
 11
410.8893584511
 21
102.691101776
  0
LINE
  5
4E3
100
AcDbEntity
  8
0
100
AcDbLine
 62
7
  6
CONTINUOUS
 10
411.1393585703
 20
102.7226959303
 11
410.8893584511
 21
102.9032338104
  0
LINE
  5
4E4
100
AcDbEntity
  8
0
100
AcDbLine
 62
7
  6
CONTINUOUS
 10
409.1786130113
 20
88.8104187465
 11
409.0708528697
 21
88.8935462267
  0
LINE
  5
4E5
100
AcDbEntity
  8
0
100
AcDbLine
 62
7
  6
CONTINUOUS
 10
409.8718029105
 20
89.4863984191
 11
409.9795631969
 21
89.4032708646
  0
LINE
  5
4E6
100
AcDbEntity
  8
0
100
AcDbLine
 62
7
  6
CONTINUOUS
 10
407.5936705737
 20
89.3815229895
 11
407.7004622229
 21
89.2762218693
  0
LINE
  5
4E7
100
AcDbEntity
  8
0
100
AcDbLine
 62
7
  6
CONTINUOUS
 10
408.5863010766
 20
89.4123101221
 11
408.4860212575
 21
89.5111903319
  0
LINE
  5
4E8
100
AcDbEntity
  8
0
100
AcDbLine
 62
7
  6
CONTINUOUS
 10
408.5863010766
 20
89.6244421565
 11
408.4795094859
 21
89.7297432528
  0
LINE
  5
4E9
100
AcDbEntity
  8
0
100
AcDbLine
 62
7
  6
CONTINUOUS
 10
408.70908662
 20
89.8327465327
 11
408.6614545221
 21
89.8797138023
  0
LINE
  5
4EA
100
AcDbEntity
  8
0
100
AcDbLine
 62
7
  6
CONTINUOUS
 10
408.7682461951
 20
89.9865447158
 11
408.6614545221
 21
90.0918458367
  0
LINE
  5
4EB
100
AcDbEntity
  8
RUNDUNGEN
100
AcDbLine
 62
7
  6
CONTINUOUS
 10
418.6671820331
 20
73.1675239305
 11
415.5008058701
 21
76.3650988415
  0
LINE
  5
4EC
100
AcDbEntity
  8
RUNDUNGEN
100
AcDbLine
 62
7
  6
CONTINUOUS
 10
401.6126080779
 20
90.3901389924
 11
386.1956104156
 21
105.9590424927
  0
LINE
  5
4ED
100
AcDbEntity
  8
RUNDUNGEN
100
AcDbLine
 62
7
  6
CONTINUOUS
 10
418.6671820331
 20
76.7030578365
 11
415.5008058701
 21
79.9006327474
  0
LINE
  5
4EE
100
AcDbEntity
  8
RUNDUNGEN
100
AcDbLine
 62
7
  6
CONTINUOUS
 10
401.6126080779
 20
93.9256728983
 11
386.1956104156
 21
109.4945763986
  0
LINE
  5
4EF
100
AcDbEntity
  8
0
100
AcDbLine
 62
7
  6
CONTINUOUS
 10
418.815817698
 20
49.0685056841
 11
417.0818829309
 21
51.1823505117
  0
LINE
  5
4F0
100
AcDbEntity
  8
0
100
AcDbLine
 62
7
  6
CONTINUOUS
 10
416.7347209899
 20
51.0499638324
 11
418.7195797104
 21
48.6256994915
  0
LINE
  5
4F1
100
AcDbEntity
  8
BEZUGSACHSEN
100
AcDbLine
 62
7
  6
CONTINUOUS
 10
396.5825272522
 20
52.5739826752
 11
385.2414485709
 21
70.8296788723
  0
LINE
  5
4F2
100
AcDbEntity
  8
KONSTRUKTIONSELEMENTE
100
AcDbLine
 62
7
  6
CONTINUOUS
 10
436.0518585107
 20
121.4936967006
 11
423.0518585107
 21
121.4936967006
  0
LINE
  5
4F3
100
AcDbEntity
  8
KONSTRUKTIONSELEMENTE
100
AcDbLine
 62
7
  6
CONTINUOUS
 10
402.0518585107
 20
121.4936967006
 11
380.0518585107
 21
121.4936967006
  0
LINE
  5
4F4
100
AcDbEntity
  8
KONSTRUKTIONSELEMENTE
100
AcDbLine
 62
7
  6
CONTINUOUS
 10
436.0518585107
 20
124.4936967006
 11
440.0518585107
 21
124.4936967006
  0
LINE
  5
4F5
100
AcDbEntity
  8
KONSTRUKTIONSELEMENTE
100
AcDbLine
 62
7
  6
CONTINUOUS
 10
390.0518585107
 20
125.6430638061
 11
380.0518585107
 21
125.6430638061
  0
LINE
  5
4F6
100
AcDbEntity
  8
BEZUGSACHSEN
100
AcDbLine
 62
7
  6
CONTINUOUS
 10
423.0518585107
 20
129.4936967006
 11
420.5518585107
 21
129.4936967006
  0
LINE
  5
4F7
100
AcDbEntity
  8
BEZUGSACHSEN
100
AcDbLine
 62
7
  6
CONTINUOUS
 10
404.5518585107
 20
129.4936967006
 11
402.0518585107
 21
129.4936967006
  0
LINE
  5
4F8
100
AcDbEntity
  8
KONSTRUKTIONSELEMENTE
100
AcDbLine
 62
7
  6
CONTINUOUS
 10
436.0518585107
 20
129.6898491233
 11
440.0518585107
 21
129.6898491233
  0
LINE
  5
4F9
100
AcDbEntity
  8
RUNDUNGEN
100
AcDbLine
 62
7
  6
CONTINUOUS
 10
431.5173831043
 20
103.1405538096
 11
429.551418198
 21
104.1139453
  0
LINE
  5
4FA
100
AcDbEntity
  8
RUNDUNGEN
100
AcDbLine
 62
7
  6
CONTINUOUS
 10
417.7140464378
 20
110.2821431192
 11
420.1715025707
 21
109.0654037562
  0
LINE
  5
4FB
100
AcDbEntity
  8
RUNDUNGEN
100
AcDbLine
 62
7
  6
CONTINUOUS
 10
432.9928768161
 20
104.0537791861
 11
434.9588417224
 21
103.0803876957
  0
LINE
  5
4FC
100
AcDbEntity
  8
RUNDUNGEN
100
AcDbLine
 62
7
  6
CONTINUOUS
 10
432.9928768161
 20
107.589313092
 11
434.9588417224
 21
106.6159216016
  0
LINE
  5
4FD
100
AcDbEntity
  8
RUNDUNGEN
100
AcDbLine
 62
7
  6
CONTINUOUS
 10
436.205074865
 20
111.6961235146
 11
437.0242269093
 21
111.290543727
  0
LINE
  5
4FE
100
AcDbEntity
  8
0
100
AcDbLine
 62
7
  6
CONTINUOUS
 10
410.5143584511
 20
103.6253854571
 11
410.6393585107
 21
103.535116517
  0
LINE
  5
4FF
100
AcDbEntity
  8
0
100
AcDbLine
 62
7
  6
CONTINUOUS
 10
417.8018584511
 20
102.600832836
 11
417.9268585107
 21
102.510563896
  0
LINE
  5
500
100
AcDbEntity
  8
0
100
AcDbLine
 62
7
  6
CONTINUOUS
 10
418.1768584511
 20
102.4338352717
 11
417.9893584511
 21
102.5692386817
  0
LINE
  5
501
100
AcDbEntity
  8
0
100
AcDbLine
 62
7
  6
CONTINUOUS
 10
418.1768584511
 20
102.645967306
 11
417.9893584511
 21
102.7813707161
  0
LINE
  5
502
100
AcDbEntity
  8
0
100
AcDbLine
 62
7
  6
CONTINUOUS
 10
419.6768586299
 20
102.8265051861
 11
419.7393583915
 21
102.7813707161
  0
LINE
  5
503
100
AcDbEntity
  8
0
100
AcDbLine
 62
7
  6
CONTINUOUS
 10
420.0518586299
 20
102.6595076217
 11
419.8643586299
 21
102.7949110318
  0
LINE
  5
504
100
AcDbEntity
  8
0
100
AcDbLine
 62
7
  6
CONTINUOUS
 10
420.0518586299
 20
102.8716396561
 11
419.8643586299
 21
103.0070430661
  0
LINE
  5
505
100
AcDbEntity
  8
0
100
AcDbLine
 62
7
  6
CONTINUOUS
 10
420.6768583915
 20
102.8265051861
 11
420.7393585107
 21
102.7813707161
  0
LINE
  5
506
100
AcDbEntity
  8
0
100
AcDbLine
 62
7
  6
CONTINUOUS
 10
420.9893586299
 20
102.7046420917
 11
420.8643583915
 21
102.7949110318
  0
LINE
  5
507
100
AcDbEntity
  8
0
100
AcDbLine
 62
7
  6
CONTINUOUS
 10
420.9893586299
 20
102.9167741261
 11
420.8643583915
 21
103.0070430661
  0
LINE
  5
508
100
AcDbEntity
  8
0
100
AcDbLine
 62
7
  6
CONTINUOUS
 10
422.4893582723
 20
102.8265051861
 11
422.5518587491
 21
102.7813707161
  0
LINE
  5
509
100
AcDbEntity
  8
0
100
AcDbLine
 62
7
  6
CONTINUOUS
 10
422.8643582723
 20
102.6595076217
 11
422.6768582723
 21
102.7949110318
  0
LINE
  5
50A
100
AcDbEntity
  8
0
100
AcDbLine
 62
7
  6
CONTINUOUS
 10
422.8643582723
 20
102.8716396561
 11
422.6768582723
 21
103.0070430661
  0
LINE
  5
50B
100
AcDbEntity
  8
0
100
AcDbLine
 62
7
  6
CONTINUOUS
 10
423.4893587491
 20
102.8265051861
 11
423.5518585107
 21
102.7813707161
  0
LINE
  5
50C
100
AcDbEntity
  8
0
100
AcDbLine
 62
7
  6
CONTINUOUS
 10
423.8018582723
 20
102.7046420917
 11
423.6768587491
 21
102.7949110318
  0
LINE
  5
50D
100
AcDbEntity
  8
0
100
AcDbLine
 62
7
  6
CONTINUOUS
 10
423.8018582723
 20
102.9167741261
 11
423.6768587491
 21
103.0070430661
  0
LINE
  5
50E
100
AcDbEntity
  8
0
100
AcDbLine
 62
7
  6
CONTINUOUS
 10
410.9346709844
 20
103.444847577
 11
410.8268585107
 21
103.5486568327
  0
LINE
  5
50F
100
AcDbEntity
  8
0
100
AcDbLine
 62
7
  6
CONTINUOUS
 10
411.0143585107
 20
103.580250987
 11
410.8268585107
 21
103.7607888671
  0
LINE
  5
510
100
AcDbEntity
  8
RUNDUNGEN
100
AcDbLine
 62
7
  6
CONTINUOUS
 10
397.0678448094
 20
107.7612392447
 11
392.3392507477
 21
112.5364248062
  0
LINE
  5
511
100
AcDbEntity
  8
RUNDUNGEN
100
AcDbLine
 62
7
  6
CONTINUOUS
 10
423.4911089435
 20
86.6252367202
 11
432.4093146435
 21
77.6191586899
  0
LINE
  5
512
100
AcDbEntity
  8
0
100
AcDbLine
 62
7
  6
CONTINUOUS
 10
407.791241221
 20
89.3716151253
 11
407.7296455432
 21
89.4389548452
  0
LINE
  5
513
100
AcDbEntity
  8
0
100
AcDbLine
 62
7
  6
CONTINUOUS
 10
408.3887304337
 20
89.634350028
 11
408.4503261115
 21
89.5670103081
  0
LINE
  5
514
100
AcDbEntity
  8
0
100
AcDbLine
 62
7
  6
CONTINUOUS
 10
408.5706755522
 20
89.9964525873
 11
408.63227123
 21
89.9291128674
  0
LINE
  5
515
100
AcDbEntity
  8
0
100
AcDbLine
 62
7
  6
CONTINUOUS
 10
408.2027658088
 20
99.8843577893
 11
408.2992066276
 21
99.7741754142
  0
LINE
  5
516
100
AcDbEntity
  8
0
100
AcDbLine
 62
7
  6
CONTINUOUS
 10
424.9180394556
 20
55.51645835
 11
424.8015661082
 21
55.6785227205
  0
LINE
  5
517
100
AcDbEntity
  8
0
100
AcDbLine
 62
7
  6
CONTINUOUS
 10
425.734378326
 20
54.9185615249
 11
425.6179050501
 21
55.080625843
  0
LINE
  5
518
100
AcDbEntity
  8
0
100
AcDbLine
 62
7
  6
CONTINUOUS
 10
426.8021931609
 20
56.0554122548
 11
426.9186663653
 21
55.893347989
  0
LINE
  5
519
100
AcDbEntity
  8
0
100
AcDbLine
 62
7
  6
CONTINUOUS
 10
420.0200539517
 20
51.6709493286
 11
420.1536655374
 21
51.4561444569
  0
LINE
  5
51A
100
AcDbEntity
  8
0
100
AcDbLine
 62
7
  6
CONTINUOUS
 10
420.4357571363
 20
51.7060875397
 11
420.3689513902
 21
51.8134899003
  0
LINE
  5
51B
100
AcDbEntity
  8
0
100
AcDbLine
 62
7
  6
CONTINUOUS
 10
422.1938217608
 20
51.4590197364
 11
422.2940303799
 21
51.2979161954
  0
LINE
  5
51C
100
AcDbEntity
  8
0
100
AcDbLine
 62
7
  6
CONTINUOUS
 10
422.6429277249
 20
51.4404569176
 11
422.4759133598
 21
51.7089628191
  0
LINE
  5
51D
100
AcDbEntity
  8
0
100
AcDbLine
 62
7
  6
CONTINUOUS
 10
416.2393585107
 20
101.968950161
 11
416.4268585107
 21
101.7884122651
  0
LINE
  5
51E
100
AcDbEntity
  8
0
100
AcDbLine
 62
7
  6
CONTINUOUS
 10
418.0346709844
 20
103.2327155426
 11
417.9268585107
 21
103.3365247984
  0
LINE
  5
51F
100
AcDbEntity
  8
0
100
AcDbLine
 62
7
  6
CONTINUOUS
 10
418.1143585107
 20
103.3681189527
 11
417.9268585107
 21
103.5486568327
  0
LINE
  5
520
100
AcDbEntity
  8
0
100
AcDbLine
 62
7
  6
CONTINUOUS
 10
410.7643585703
 20
102.6324269903
 11
410.8893584511
 21
102.497023517
  0
LINE
  5
521
100
AcDbEntity
  8
0
100
AcDbLine
 62
7
  6
CONTINUOUS
 10
416.6143585107
 20
101.7568181266
 11
416.4893584958
 21
101.8922215683
  0
LINE
  5
522
100
AcDbEntity
  8
0
100
AcDbLine
 62
7
  6
CONTINUOUS
 10
416.6143585107
 20
101.968950161
 11
416.4893584958
 21
102.1043536026
  0
LINE
  5
523
100
AcDbEntity
  8
0
100
AcDbLine
 62
7
  6
CONTINUOUS
 10
417.7393585107
 20
103.3681189527
 11
417.8643585703
 21
103.2327155426
  0
LINE
  5
524
100
AcDbEntity
  8
0
100
AcDbLine
 62
7
  6
CONTINUOUS
 10
409.2443256568
 20
99.8570131588
 11
409.1478848343
 21
99.9671955286
  0
LINE
  5
525
100
AcDbEntity
  8
0
100
AcDbLine
 62
7
  6
CONTINUOUS
 10
409.2443256568
 20
100.0691451932
 11
409.1478848343
 21
100.179327563
  0
LINE
  5
526
100
AcDbEntity
  8
0
100
AcDbLine
 62
7
  6
CONTINUOUS
 10
409.0143585125
 20
102.226216697
 11
409.2018585181
 21
102.0005442995
  0
LINE
  5
527
100
AcDbEntity
  8
0
100
AcDbLine
 62
7
  6
CONTINUOUS
 10
408.3989303301
 20
99.8649932242
 11
408.3439386025
 21
99.9351331314
  0
LINE
  5
528
100
AcDbEntity
  8
0
100
AcDbLine
 62
7
  6
CONTINUOUS
 10
409.0481611405
 20
100.0885097653
 11
409.1031528681
 21
100.0183698581
  0
LINE
  5
529
100
AcDbEntity
  8
0
100
AcDbLine
 62
7
  6
CONTINUOUS
 10
417.7685251898
 20
82.7815324313
 11
417.8726918316
 21
82.6310841847
  0
LINE
  5
52A
100
AcDbEntity
  8
0
100
AcDbLine
 62
7
  6
CONTINUOUS
 10
424.5021421393
 20
55.5907950253
 11
424.6840683536
 21
55.3040360808
  0
LINE
  5
52B
100
AcDbEntity
  8
0
100
AcDbLine
 62
7
  6
CONTINUOUS
 10
427.21809037
 20
55.981075658
 11
427.0361642629
 21
56.267834524
  0
LINE
  5
52C
100
AcDbEntity
  8
0
100
AcDbLine
 62
7
  6
CONTINUOUS
 10
408.8815890844
 20
88.9348361273
 11
408.9518795018
 21
88.8151692053
  0
LINE
  5
52D
100
AcDbEntity
  8
BEZUGSACHSEN
100
AcDbLine
 62
7
  6
CONTINUOUS
 10
405.0518585107
 20
143.9961067902
 11
410.3018585107
 21
143.9961067902
  0
LINE
  5
52E
100
AcDbEntity
  8
BEZUGSACHSEN
100
AcDbLine
 62
7
  6
CONTINUOUS
 10
414.8018585107
 20
143.9961067902
 11
420.0518585107
 21
143.9961067902
  0
LINE
  5
52F
100
AcDbEntity
  8
KONSTRUKTIONSELEMENTE
100
AcDbLine
 62
7
  6
CONTINUOUS
 10
436.0518585107
 20
145.0088691433
 11
440.0518585107
 21
145.0088691433
  0
LINE
  5
530
100
AcDbEntity
  8
BEZUGSACHSEN
100
AcDbLine
 62
7
  6
CONTINUOUS
 10
423.0518585107
 20
145.4936967006
 11
420.0518585107
 21
145.4936967006
  0
LINE
  5
531
100
AcDbEntity
  8
BEZUGSACHSEN
100
AcDbLine
 62
7
  6
CONTINUOUS
 10
405.0518585107
 20
145.4936967006
 11
402.0518585107
 21
145.4936967006
  0
LINE
  5
532
100
AcDbEntity
  8
KONSTRUKTIONSELEMENTE
100
AcDbLine
 62
7
  6
CONTINUOUS
 10
380.0518585107
 20
150.4152641171
 11
381.9411966809
 21
150.4152775095
  0
LINE
  5
533
100
AcDbEntity
  8
KONSTRUKTIONSELEMENTE
100
AcDbLine
 62
7
  6
CONTINUOUS
 10
436.0518585107
 20
150.4936967006
 11
440.0518585107
 21
150.4936967006
  0
LINE
  5
534
100
AcDbEntity
  8
KONSTRUKTIONSELEMENTE
100
AcDbLine
 62
7
  6
CONTINUOUS
 10
380.0518585107
 20
152.4936967006
 11
381.9411990599
 21
152.4936967006
  0
LINE
  5
535
100
AcDbEntity
  8
KONSTRUKTIONSELEMENTE
100
AcDbLine
 62
7
  6
CONTINUOUS
 10
423.0518585107
 20
152.4936967006
 11
423.1292422213
 21
152.4936967006
  0
LINE
  5
536
100
AcDbEntity
  8
KONSTRUKTIONSELEMENTE
100
AcDbLine
 62
7
  6
CONTINUOUS
 10
435.9744748
 20
152.4936967006
 11
436.0518585107
 21
152.4936967006
  0
LINE
  5
537
100
AcDbEntity
  8
0
100
AcDbLine
 62
7
  6
CONTINUOUS
 10
411.2643584511
 20
102.3300259527
 11
411.1393585703
 21
102.510563896
  0
LINE
  5
538
100
AcDbEntity
  8
0
100
AcDbLine
 62
7
  6
CONTINUOUS
 10
417.7685251898
 20
93.0416518263
 11
417.8726918316
 21
92.8912035797
  0
LINE
  5
539
100
AcDbEntity
  8
0
100
AcDbLine
 62
7
  6
CONTINUOUS
 10
411.2643584511
 20
102.5421579871
 11
411.1393585703
 21
102.7226959303
  0
LINE
  5
53A
100
AcDbEntity
  8
0
100
AcDbLine
 62
7
  6
CONTINUOUS
 10
410.6393585107
 20
103.535116517
 11
410.7018584511
 21
103.444847577
  0
LINE
  5
53B
100
AcDbEntity
  8
0
100
AcDbLine
 62
7
  6
CONTINUOUS
 10
419.7393583915
 20
102.7813707161
 11
419.8018585107
 21
102.691101776
  0
LINE
  5
53C
100
AcDbEntity
  8
0
100
AcDbLine
 62
7
  6
CONTINUOUS
 10
420.7393585107
 20
102.7813707161
 11
420.8018586299
 21
102.691101776
  0
LINE
  5
53D
100
AcDbEntity
  8
0
100
AcDbLine
 62
7
  6
CONTINUOUS
 10
422.5518587491
 20
102.7813707161
 11
422.6143585107
 21
102.691101776
  0
LINE
  5
53E
100
AcDbEntity
  8
0
100
AcDbLine
 62
7
  6
CONTINUOUS
 10
410.159168247
 20
89.166292538
 11
410.0985364086
 21
89.2695159148
  0
LINE
  5
53F
100
AcDbEntity
  8
0
100
AcDbLine
 62
7
  6
CONTINUOUS
 10
410.1688269756
 20
89.3619809577
 11
410.0985364086
 21
89.4816479491
  0
LINE
  5
540
100
AcDbEntity
  8
0
100
AcDbLine
 62
7
  6
CONTINUOUS
 10
408.4503261115
 20
89.5670103081
 11
408.4831255588
 21
89.5082536457
  0
LINE
  5
541
100
AcDbEntity
  8
0
100
AcDbLine
 62
7
  6
CONTINUOUS
 10
408.6071470579
 20
89.3749667752
 11
408.5863010766
 21
89.4123101221
  0
LINE
  5
542
100
AcDbEntity
  8
0
100
AcDbLine
 62
7
  6
CONTINUOUS
 10
408.6355002065
 20
89.5363071752
 11
408.5863010766
 21
89.6244421565
  0
LINE
  5
543
100
AcDbEntity
  8
0
100
AcDbLine
 62
7
  6
CONTINUOUS
 10
409.0708528697
 20
88.8935462267
 11
409.0324255593
 21
88.9690003356
  0
LINE
  5
544
100
AcDbEntity
  8
0
100
AcDbLine
 62
7
  6
CONTINUOUS
 10
409.9795631969
 20
89.4032708646
 11
410.0179905073
 21
89.3278167558
  0
LINE
  5
545
100
AcDbEntity
  8
BEZUGSACHSEN
100
AcDbLine
 62
7
  6
CONTINUOUS
 10
409.0518585107
 20
157.4936967006
 11
411.080994212
 21
157.4936967006
  0
LINE
  5
546
100
AcDbEntity
  8
BEZUGSACHSEN
100
AcDbLine
 62
7
  6
CONTINUOUS
 10
414.0227228094
 20
157.4936967006
 11
416.0518585107
 21
157.4936967006
  0
LINE
  5
547
100
AcDbEntity
  8
0
100
AcDbLine
 62
7
  6
CONTINUOUS
 10
423.5518585107
 20
102.7813707161
 11
423.6143582723
 21
102.691101776
  0
LINE
  5
548
100
AcDbEntity
  8
BEZUGSACHSEN
100
AcDbLine
 62
7
  6
CONTINUOUS
 10
430.7901402858
 20
97.7610887131
 11
439.8622684505
 21
83.1577145289
  0
LINE
  5
549
100
AcDbEntity
  8
0
100
AcDbLine
 62
7
  6
CONTINUOUS
 10
416.1143585125
 20
102.1946225427
 11
416.2393585107
 21
101.968950161
  0
LINE
  5
54A
100
AcDbEntity
  8
0
100
AcDbLine
 62
7
  6
CONTINUOUS
 10
418.3018585107
 20
102.2081629216
 11
418.1768584511
 21
102.4338352717
  0
LINE
  5
54B
100
AcDbEntity
  8
0
100
AcDbLine
 62
7
  6
CONTINUOUS
 10
418.3018585107
 20
102.4202949559
 11
418.1768584511
 21
102.645967306
  0
LINE
  5
54C
100
AcDbEntity
  8
0
100
AcDbLine
 62
7
  6
CONTINUOUS
 10
421.1143585107
 20
102.4789697417
 11
420.9893586299
 21
102.7046420917
  0
LINE
  5
54D
100
AcDbEntity
  8
0
100
AcDbLine
 62
7
  6
CONTINUOUS
 10
421.1143585107
 20
102.691101776
 11
420.9893586299
 21
102.9167741261
  0
LINE
  5
54E
100
AcDbEntity
  8
0
100
AcDbLine
 62
7
  6
CONTINUOUS
 10
423.9268585107
 20
102.4789697417
 11
423.8018582723
 21
102.7046420917
  0
LINE
  5
54F
100
AcDbEntity
  8
0
100
AcDbLine
 62
7
  6
CONTINUOUS
 10
423.9268585107
 20
102.691101776
 11
423.8018582723
 21
102.9167741261
  0
LINE
  5
550
100
AcDbEntity
  8
0
100
AcDbLine
 62
7
  6
CONTINUOUS
 10
418.0750355686
 20
82.5447645153
 11
418.0289418688
 21
82.6446245399
  0
LINE
  5
551
100
AcDbEntity
  8
0
100
AcDbLine
 62
7
  6
CONTINUOUS
 10
418.0810251525
 20
82.7439203729
 11
418.0289418688
 21
82.8567565743
  0
LINE
  5
552
100
AcDbEntity
  8
0
100
AcDbLine
 62
7
  6
CONTINUOUS
 10
409.3893584958
 20
102.0592191326
 11
409.3268585107
 21
102.1946225427
  0
LINE
  5
553
100
AcDbEntity
  8
0
100
AcDbLine
 62
7
  6
CONTINUOUS
 10
409.3893584958
 20
102.271351167
 11
409.3268585107
 21
102.406754577
  0
LINE
  5
554
100
AcDbEntity
  8
0
100
AcDbLine
 62
7
  6
CONTINUOUS
 10
409.5768584958
 20
102.9619085961
 11
409.5143585107
 21
103.0973120062
  0
LINE
  5
555
100
AcDbEntity
  8
0
100
AcDbLine
 62
7
  6
CONTINUOUS
 10
409.5768584958
 20
103.1740406305
 11
409.5143585107
 21
103.3094440405
  0
LINE
  5
556
100
AcDbEntity
  8
0
100
AcDbLine
 62
7
  6
CONTINUOUS
 10
411.0768584511
 20
103.444847577
 11
411.0143585107
 21
103.580250987
  0
LINE
  5
557
100
AcDbEntity
  8
0
100
AcDbLine
 62
7
  6
CONTINUOUS
 10
418.0750355686
 20
92.8048839104
 11
418.0289418688
 21
92.9047439349
  0
LINE
  5
558
100
AcDbEntity
  8
0
100
AcDbLine
 62
7
  6
CONTINUOUS
 10
418.0810251525
 20
93.0040397679
 11
418.0289418688
 21
93.1168759693
  0
LINE
  5
559
100
AcDbEntity
  8
0
100
AcDbLine
 62
7
  6
CONTINUOUS
 10
416.4893584958
 20
101.8922215683
 11
416.4268585107
 21
102.0276249783
  0
LINE
  5
55A
100
AcDbEntity
  8
0
100
AcDbLine
 62
7
  6
CONTINUOUS
 10
416.4893584958
 20
102.1043536026
 11
416.4268585107
 21
102.2397570127
  0
LINE
  5
55B
100
AcDbEntity
  8
0
100
AcDbLine
 62
7
  6
CONTINUOUS
 10
410.0689284314
 20
100.3237893978
 11
410.1157313001
 21
100.2183770546
  0
LINE
  5
55C
100
AcDbEntity
  8
0
100
AcDbLine
 62
7
  6
CONTINUOUS
 10
410.3757469973
 20
100.3409495993
 11
410.3289441881
 21
100.4463620617
  0
LINE
  5
55D
100
AcDbEntity
  8
0
100
AcDbLine
 62
7
  6
CONTINUOUS
 10
424.8015661082
 20
55.6785227205
 11
424.7216823868
 21
55.8905444638
  0
LINE
  5
55E
100
AcDbEntity
  8
0
100
AcDbLine
 62
7
  6
CONTINUOUS
 10
426.9186663653
 20
55.893347989
 11
426.9985501225
 21
55.6813262196
  0
LINE
  5
55F
100
AcDbEntity
  8
0
100
AcDbLine
 62
7
  6
CONTINUOUS
 10
407.5568679961
 20
89.4904532394
 11
407.5936705737
 21
89.3815229895
  0
LINE
  5
560
100
AcDbEntity
  8
0
100
AcDbLine
 62
7
  6
CONTINUOUS
 10
408.8050487771
 20
89.8776144732
 11
408.7682461951
 21
89.9865447158
  0
LINE
  5
561
100
AcDbEntity
  8
0
100
AcDbLine
 62
7
  6
CONTINUOUS
 10
419.939024671
 20
51.9184609088
 11
420.0200539517
 21
51.6709493286
  0
LINE
  5
562
100
AcDbEntity
  8
KONSTRUKTIONSELEMENTE
100
AcDbLine
 62
7
  6
CONTINUOUS
 10
380.0518585107
 20
121.4936967006
 11
380.0518585107
 21
152.4936967006
  0
LINE
  5
563
100
AcDbEntity
  8
0
100
AcDbLine
 62
7
  6
CONTINUOUS
 10
417.9268585107
 20
102.510563896
 11
417.9893584511
 21
102.3751604227
  0
LINE
  5
564
100
AcDbEntity
  8
0
100
AcDbLine
 62
7
  6
CONTINUOUS
 10
418.1768584511
 20
103.2327155426
 11
418.1143585107
 21
103.3681189527
  0
LINE
  5
565
100
AcDbEntity
  8
0
100
AcDbLine
 62
7
  6
CONTINUOUS
 10
408.9518585107
 20
102.406754577
 11
409.0143585125
 21
102.226216697
  0
LINE
  5
566
100
AcDbEntity
  8
0
100
AcDbLine
 62
7
  6
CONTINUOUS
 10
409.1393585107
 20
103.2643095705
 11
409.2018585181
 21
103.0837716904
  0
LINE
  5
567
100
AcDbEntity
  8
0
100
AcDbLine
 62
7
  6
CONTINUOUS
 10
410.5514258948
 20
89.2685633519
 11
410.5860762648
 21
89.1608289922
  0
LINE
  5
568
100
AcDbEntity
  8
0
100
AcDbLine
 62
7
  6
CONTINUOUS
 10
410.8592023036
 20
89.2682030746
 11
410.8245520064
 21
89.3759375498
  0
LINE
  5
569
100
AcDbEntity
  8
0
100
AcDbLine
 62
7
  6
CONTINUOUS
 10
424.4078275633
 20
55.8901439377
 11
424.5021421393
 21
55.5907950253
  0
LINE
  5
56A
100
AcDbEntity
  8
0
100
AcDbLine
 62
7
  6
CONTINUOUS
 10
427.3124049639
 20
55.6817267325
 11
427.21809037
 21
55.981075658
  0
LINE
  5
56B
100
AcDbEntity
  8
0
100
AcDbLine
 62
7
  6
CONTINUOUS
 10
407.7193174684
 20
89.2670925522
 11
407.709242673
 21
89.306374743
  0
LINE
  5
56C
100
AcDbEntity
  8
0
100
AcDbLine
 62
7
  6
CONTINUOUS
 10
407.7296455432
 20
89.4389548452
 11
407.709242673
 21
89.5185067774
  0
LINE
  5
56D
100
AcDbEntity
  8
0
100
AcDbLine
 62
7
  6
CONTINUOUS
 10
408.63227123
 20
89.9291128674
 11
408.6526741295
 21
89.8495609436
  0
LINE
  5
56E
100
AcDbEntity
  8
0
100
AcDbLine
 62
7
  6
CONTINUOUS
 10
420.3689513902
 20
51.8134899003
 11
420.321324889
 21
52.0073004506
  0
LINE
  5
56F
100
AcDbEntity
  8
0
100
AcDbLine
 62
7
  6
CONTINUOUS
 10
415.878797736
 20
50.8803622164
 11
416.5744492333
 21
47.9905320579
  0
LINE
  5
570
100
AcDbEntity
  8
0
100
AcDbLine
 62
7
  6
CONTINUOUS
 10
416.9356780031
 20
48.0774884951
 11
416.2400265058
 21
50.9673186536
  0
LINE
  5
571
100
AcDbEntity
  8
0
100
AcDbLine
 62
7
  6
CONTINUOUS
 10
408.1765011065
 20
99.9948027843
 11
408.2027658088
 21
99.8843577893
  0
LINE
  5
572
100
AcDbEntity
  8
0
100
AcDbLine
 62
7
  6
CONTINUOUS
 10
384.5518585107
 20
73.2465007142
 11
384.5518585107
 21
74.2457326719
  0
LINE
  5
573
100
AcDbEntity
  8
0
100
AcDbLine
 62
7
  6
CONTINUOUS
 10
384.5518585107
 20
79.7416607294
 11
384.5518585107
 21
80.3546757858
  0
LINE
  5
574
100
AcDbEntity
  8
RUNDUNGEN
100
AcDbLine
 62
7
  6
CONTINUOUS
 10
386.0147624598
 20
106.3646222804
 11
386.0147624598
 21
109.9001561863
  0
LINE
  5
575
100
AcDbEntity
  8
KONSTRUKTIONSELEMENTE
100
AcDbLine
 62
7
  6
CONTINUOUS
 10
389.0518585107
 20
160.4936967006
 11
389.0518585107
 21
184.4936967006
  0
LINE
  5
576
100
AcDbEntity
  8
KONSTRUKTIONSELEMENTE
100
AcDbLine
 62
7
  6
CONTINUOUS
 10
390.0518585107
 20
125.6430638061
 11
390.0518585107
 21
152.0723653613
  0
LINE
  5
577
100
AcDbEntity
  8
RUNDUNGEN
100
AcDbLine
 62
7
  6
CONTINUOUS
 10
392.1518585107
 20
69.293094469
 11
392.1518585107
 21
76.4024193269
  0
LINE
  5
578
100
AcDbEntity
  8
RUNDUNGEN
100
AcDbLine
 62
7
  6
CONTINUOUS
 10
392.7200181979
 20
77.6450269063
 11
392.7200181979
 21
84.2787032672
  0
LINE
  5
579
100
AcDbEntity
  8
RUNDUNGEN
100
AcDbLine
 62
7
  6
CONTINUOUS
 10
392.8723564925
 20
80.1795086858
 11
392.8723564925
 21
77.7988662115
  0
LINE
  5
57A
100
AcDbEntity
  8
BEZUGSACHSEN
100
AcDbLine
 62
7
  6
CONTINUOUS
 10
392.8723564925
 20
77.7988662115
 11
392.8723564925
 21
80.8441816884
  0
LINE
  5
57B
100
AcDbEntity
  8
0
100
AcDbLine
 62
7
  6
CONTINUOUS
 10
409.2491435586
 20
99.8367535345
 11
409.2443256568
 21
99.8570131588
  0
LINE
  5
57C
100
AcDbEntity
  8
0
100
AcDbLine
 62
7
  6
CONTINUOUS
 10
409.2705903641
 20
99.9587002052
 11
409.2443256568
 21
100.0691451932
  0
LINE
  5
57D
100
AcDbEntity
  8
0
100
AcDbLine
 62
7
  6
CONTINUOUS
 10
408.8618966403
 20
89.028559961
 11
408.8815890844
 21
88.9348361273
  0
LINE
  5
57E
100
AcDbEntity
  8
0
100
AcDbLine
 62
7
  6
CONTINUOUS
 10
410.1885194264
 20
89.2682571304
 11
410.1688269756
 21
89.3619809577
  0
LINE
  5
57F
100
AcDbEntity
  8
0
100
AcDbLine
 62
7
  6
CONTINUOUS
 10
416.0518585107
 20
102.510563896
 11
416.1143585125
 21
102.1946225427
  0
LINE
  5
580
100
AcDbEntity
  8
0
100
AcDbLine
 62
7
  6
CONTINUOUS
 10
409.1031528681
 20
100.0183698581
 11
409.115874783
 21
99.9380223717
  0
LINE
  5
581
100
AcDbEntity
  8
0
100
AcDbLine
 62
7
  6
CONTINUOUS
 10
422.6713742159
 20
51.1602380665
 11
422.6429277249
 21
51.4404569176
  0
LINE
  5
582
100
AcDbEntity
  8
RUNDUNGEN
100
AcDbLine
 62
7
  6
CONTINUOUS
 10
396.6518585107
 20
67.3839061598
 11
396.6518585107
 21
73.6771565124
  0
LINE
  5
583
100
AcDbEntity
  8
0
100
AcDbLine
 62
7
  6
CONTINUOUS
 10
400.2518585107
 20
104.8605655627
 11
400.2518585107
 21
101.6078743692
  0
LINE
  5
584
100
AcDbEntity
  8
0
100
AcDbLine
 62
7
  6
CONTINUOUS
 10
400.5518585107
 20
101.6078743692
 11
400.5518585107
 21
104.6484335283
  0
LINE
  5
585
100
AcDbEntity
  8
RUNDUNGEN
100
AcDbLine
 62
7
  6
CONTINUOUS
 10
401.4518585107
 20
72.26294295
 11
401.4518585107
 21
71.2860087297
  0
LINE
  5
586
100
AcDbEntity
  8
BEZUGSACHSEN
100
AcDbLine
 62
7
  6
CONTINUOUS
 10
401.4518585107
 20
72.26294295
 11
401.4518585107
 21
71.2860087297
  0
LINE
  5
587
100
AcDbEntity
  8
RUNDUNGEN
100
AcDbLine
 62
7
  6
CONTINUOUS
 10
401.5518585107
 20
72.26294295
 11
401.5518585107
 21
70.654958739
  0
LINE
  5
588
100
AcDbEntity
  8
BEZUGSACHSEN
100
AcDbLine
 62
7
  6
CONTINUOUS
 10
401.5518585107
 20
86.5638885791
 11
401.5518585107
 21
88.4927021244
  0
LINE
  5
589
100
AcDbEntity
  8
KONSTRUKTIONSELEMENTE
100
AcDbLine
 62
7
  6
CONTINUOUS
 10
402.0518585107
 20
121.4936967006
 11
402.0518585107
 21
141.5110063352
  0
LINE
  5
58A
100
AcDbEntity
  8
KONSTRUKTIONSELEMENTE
100
AcDbLine
 62
7
  6
CONTINUOUS
 10
402.0518585107
 20
141.5119722425
 11
402.0518585107
 21
179.6422993909
  0
LINE
  5
58B
100
AcDbEntity
  8
0
100
AcDbLine
 62
7
  6
CONTINUOUS
 10
403.5518585107
 20
185.5548603847
 11
403.5518585107
 21
363.4325330165
  0
LINE
  5
58C
100
AcDbEntity
  8
KONSTRUKTIONSELEMENTE
100
AcDbLine
 62
7
  6
CONTINUOUS
 10
404.5518585107
 20
123.8817379766
 11
404.5518585107
 21
134.4883396944
  0
LINE
  5
58D
100
AcDbEntity
  8
KONSTRUKTIONSELEMENTE
100
AcDbLine
 62
7
  6
CONTINUOUS
 10
404.5518585107
 20
154.9944363488
 11
404.5518585107
 21
165.6010380666
  0
LINE
  5
58E
100
AcDbEntity
  8
BEZUGSACHSEN
100
AcDbLine
 62
7
  6
CONTINUOUS
 10
405.0518585107
 20
121.6655233
 11
405.0518585107
 21
109.1246421025
  0
LINE
  5
58F
100
AcDbEntity
  8
BEZUGSACHSEN
100
AcDbLine
 62
7
  6
CONTINUOUS
 10
405.0518585107
 20
136.709747981
 11
405.0518585107
 21
152.7782216722
  0
LINE
  5
590
100
AcDbEntity
  8
0
100
AcDbLine
 62
7
  6
CONTINUOUS
 10
405.2518585107
 20
81.7381738179
 11
405.2518585107
 21
89.7284804453
  0
LINE
  5
591
100
AcDbEntity
  8
0
100
AcDbLine
 62
7
  6
CONTINUOUS
 10
405.2518585107
 20
91.7083794326
 11
405.2518585107
 21
100.4057928412
  0
LINE
  5
592
100
AcDbEntity
  8
0
100
AcDbLine
 62
7
  6
CONTINUOUS
 10
405.5518585107
 20
72.5799172801
 11
405.5518585107
 21
67.4099613707
  0
LINE
  5
593
100
AcDbEntity
  8
0
100
AcDbLine
 62
7
  6
CONTINUOUS
 10
405.5518585107
 20
81.7381738179
 11
405.5518585107
 21
89.7284804453
  0
LINE
  5
594
100
AcDbEntity
  8
0
100
AcDbLine
 62
7
  6
CONTINUOUS
 10
405.5518585107
 20
91.7083794326
 11
405.5518585107
 21
95.1024919823
  0
LINE
  5
595
100
AcDbEntity
  8
0
100
AcDbLine
 62
7
  6
CONTINUOUS
 10
405.5518585107
 20
95.3146240167
 11
405.5518585107
 21
100.4057928412
  0
LINE
  5
596
100
AcDbEntity
  8
0
100
AcDbLine
 62
7
  6
CONTINUOUS
 10
406.0994654928
 20
95.3146240167
 11
406.0994654928
 21
95.1024919823
  0
LINE
  5
597
100
AcDbEntity
  8
0
100
AcDbLine
 62
7
  6
CONTINUOUS
 10
406.7149078268
 20
100.5753729102
 11
406.7149078268
 21
100.4356966612
  0
LINE
  5
598
100
AcDbEntity
  8
0
100
AcDbLine
 62
7
  6
CONTINUOUS
 10
425.6179050501
 20
55.080625843
 11
425.5890425036
 21
55.255279038
  0
LINE
  5
599
100
AcDbEntity
  8
0
100
AcDbLine
 62
7
  6
CONTINUOUS
 10
419.182462188
 20
48.8022150218
 11
419.0491340401
 21
51.9325417363
  0
LINE
  5
59A
100
AcDbEntity
  8
0
100
AcDbLine
 62
7
  6
CONTINUOUS
 10
418.7019720991
 20
51.800155057
 11
418.815817698
 21
49.0685056841
  0
LINE
  5
59B
100
AcDbEntity
  8
0
100
AcDbLine
 62
7
  6
CONTINUOUS
 10
406.9269660834
 20
100.5374067738
 11
406.9269660834
 21
100.3977305248
  0
LINE
  5
59C
100
AcDbEntity
  8
0
100
AcDbLine
 62
7
  6
CONTINUOUS
 10
406.9695414164
 20
85.344418402
 11
406.9695414164
 21
85.1322863676
  0
LINE
  5
59D
100
AcDbEntity
  8
0
100
AcDbLine
 62
7
  6
CONTINUOUS
 10
407.3949636279
 20
100.3139419524
 11
407.3949636279
 21
100.101809918
  0
LINE
  5
59E
100
AcDbEntity
  8
0
100
AcDbLine
 62
7
  6
CONTINUOUS
 10
407.4419647315
 20
100.4452032953
 11
407.4419647315
 21
100.2330712609
  0
LINE
  5
59F
100
AcDbEntity
  8
0
100
AcDbLine
 62
7
  6
CONTINUOUS
 10
407.5612582294
 20
89.6115956921
 11
407.5612582294
 21
89.4904532394
  0
LINE
  5
5A0
100
AcDbEntity
  8
0
100
AcDbLine
 62
7
  6
CONTINUOUS
 10
407.5908015468
 20
100.8608641787
 11
407.5908015468
 21
100.6487321444
  0
LINE
  5
5A1
100
AcDbEntity
  8
0
100
AcDbLine
 62
7
  6
CONTINUOUS
 10
407.6192378233
 20
89.7657456168
 11
407.6192378233
 21
89.5536135825
  0
LINE
  5
5A2
100
AcDbEntity
  8
0
100
AcDbLine
 62
7
  6
CONTINUOUS
 10
407.6237289577
 20
100.4126608916
 11
407.6237289577
 21
100.2729846426
  0
LINE
  5
5A3
100
AcDbEntity
  8
0
100
AcDbLine
 62
7
  6
CONTINUOUS
 10
407.6534696703
 20
101.0358792618
 11
407.6534696703
 21
100.8237472274
  0
LINE
  5
5A4
100
AcDbEntity
  8
0
100
AcDbLine
 62
7
  6
CONTINUOUS
 10
407.7060136585
 20
89.9113124465
 11
407.7060136585
 21
89.6991804122
  0
LINE
  5
5A5
100
AcDbEntity
  8
0
100
AcDbLine
 62
7
  6
CONTINUOUS
 10
407.709242673
 20
89.5185067774
 11
407.709242673
 21
89.306374743
  0
LINE
  5
5A6
100
AcDbEntity
  8
0
100
AcDbLine
 62
7
  6
CONTINUOUS
 10
407.7296455432
 20
89.4389548452
 11
407.7296455432
 21
89.2620919135
  0
LINE
  5
5A7
100
AcDbEntity
  8
0
100
AcDbLine
 62
7
  6
CONTINUOUS
 10
407.791241221
 20
89.3716151253
 11
407.791241221
 21
89.2322685693
  0
LINE
  5
5A8
100
AcDbEntity
  8
0
100
AcDbLine
 62
7
  6
CONTINUOUS
 10
407.8215857525
 20
90.0482962103
 11
407.8215857525
 21
89.8361641759
  0
LINE
  5
5A9
100
AcDbEntity
  8
0
100
AcDbLine
 62
7
  6
CONTINUOUS
 10
407.8252018486
 20
89.8268065963
 11
407.8252018486
 21
89.705664159
  0
LINE
  5
5AA
100
AcDbEntity
  8
0
100
AcDbLine
 62
7
  6
CONTINUOUS
 10
407.8652334466
 20
89.3250706668
 11
407.8652334466
 21
89.2026196532
  0
LINE
  5
5AB
100
AcDbEntity
  8
0
100
AcDbLine
 62
7
  6
CONTINUOUS
 10
407.9411610415
 20
90.1351064443
 11
407.9411610415
 21
89.9710614844
  0
LINE
  5
5AC
100
AcDbEntity
  8
0
100
AcDbLine
 62
7
  6
CONTINUOUS
 10
408.0475655976
 20
89.8584892445
 11
408.0475655976
 21
89.7459298739
  0
LINE
  5
5AD
100
AcDbEntity
  8
0
100
AcDbLine
 62
7
  6
CONTINUOUS
 10
408.0518585107
 20
104.6484335283
 11
408.0518585107
 21
101.6078743692
  0
LINE
  5
5AE
100
AcDbEntity
  8
0
100
AcDbLine
 62
7
  6
CONTINUOUS
 10
408.0668072653
 20
89.2649892028
 11
408.0668072653
 21
89.1567550124
  0
LINE
  5
5AF
100
AcDbEntity
  8
0
100
AcDbLine
 62
7
  6
CONTINUOUS
 10
408.0771360067
 20
90.1925382927
 11
408.0771360067
 21
90.0660498957
  0
LINE
  5
5B0
100
AcDbEntity
  8
0
100
AcDbLine
 62
7
  6
CONTINUOUS
 10
408.1655925456
 20
89.2600352794
 11
408.1655925456
 21
89.1474758776
  0
LINE
  5
5B1
100
AcDbEntity
  8
0
100
AcDbLine
 62
7
  6
CONTINUOUS
 10
408.2039434416
 20
89.8363691753
 11
408.2039434416
 21
89.7139181788
  0
LINE
  5
5B2
100
AcDbEntity
  8
0
100
AcDbLine
 62
7
  6
CONTINUOUS
 10
408.2583069465
 20
90.2120087463
 11
408.2583069465
 21
90.0994493757
  0
LINE
  5
5B3
100
AcDbEntity
  8
0
100
AcDbLine
 62
7
  6
CONTINUOUS
 10
408.2767744149
 20
89.275876605
 11
408.2767744149
 21
89.1669463551
  0
LINE
  5
5B4
100
AcDbEntity
  8
0
100
AcDbLine
 62
7
  6
CONTINUOUS
 10
408.3439386025
 20
99.9351331314
 11
408.3439386025
 21
99.7492029402
  0
LINE
  5
5B5
100
AcDbEntity
  8
0
100
AcDbLine
 62
7
  6
CONTINUOUS
 10
408.3479247171
 20
89.7934538509
 11
408.3479247171
 21
89.6600186779
  0
LINE
  5
5B6
100
AcDbEntity
  8
0
100
AcDbLine
 62
7
  6
CONTINUOUS
 10
408.3518585107
 20
101.6078743692
 11
408.3518585107
 21
104.8605655627
  0
LINE
  5
5B7
100
AcDbEntity
  8
0
100
AcDbLine
 62
7
  6
CONTINUOUS
 10
408.3715566104
 20
89.3210962641
 11
408.3715566104
 21
89.1914352523
  0
LINE
  5
5B8
100
AcDbEntity
  8
0
100
AcDbLine
 62
7
  6
CONTINUOUS
 10
408.3989303301
 20
99.8649932242
 11
408.3989303301
 21
99.7185027647
  0
LINE
  5
5B9
100
AcDbEntity
  8
0
100
AcDbLine
 62
7
  6
CONTINUOUS
 10
408.4146847905
 20
90.1898886771
 11
408.4146847905
 21
90.0674376806
  0
LINE
  5
5BA
100
AcDbEntity
  8
0
100
AcDbLine
 62
7
  6
CONTINUOUS
 10
408.4375424845
 20
89.3748989908
 11
408.4375424845
 21
89.2243782108
  0
LINE
  5
5BB
100
AcDbEntity
  8
0
100
AcDbLine
 62
7
  6
CONTINUOUS
 10
408.4747321282
 20
89.4372847749
 11
408.4747321282
 21
89.2426586998
  0
LINE
  5
5BC
100
AcDbEntity
  8
0
100
AcDbLine
 62
7
  6
CONTINUOUS
 10
408.4795094859
 20
89.7297432528
 11
408.4795094859
 21
89.5176112185
  0
LINE
  5
5BD
100
AcDbEntity
  8
0
100
AcDbLine
 62
7
  6
CONTINUOUS
 10
408.4831255588
 20
89.4372847749
 11
408.4831255588
 21
89.2961216114
  0
LINE
  5
5BE
100
AcDbEntity
  8
0
100
AcDbLine
 62
7
  6
CONTINUOUS
 10
408.4961918705
 20
99.8050608963
 11
408.4961918705
 21
99.6787045765
  0
LINE
  5
5BF
100
AcDbEntity
  8
0
100
AcDbLine
 62
7
  6
CONTINUOUS
 10
408.5187630679
 20
100.3277137269
 11
408.5187630679
 21
100.2070611028
  0
LINE
  5
5C0
100
AcDbEntity
  8
0
100
AcDbLine
 62
7
  6
CONTINUOUS
 10
408.5298697944
 20
90.1555564225
 11
408.5298697944
 21
90.0221212556
  0
LINE
  5
5C1
100
AcDbEntity
  8
0
100
AcDbLine
 62
7
  6
CONTINUOUS
 10
408.5863010766
 20
89.6244421565
 11
408.5863010766
 21
89.4123101221
  0
LINE
  5
5C2
100
AcDbEntity
  8
0
100
AcDbLine
 62
7
  6
CONTINUOUS
 10
408.6614545221
 20
90.0918458367
 11
408.6614545221
 21
89.8797138023
  0
LINE
  5
5C3
100
AcDbEntity
  8
0
100
AcDbLine
 62
7
  6
CONTINUOUS
 10
408.6636293664
 20
99.7453912434
 11
408.6636293664
 21
99.6308281848
  0
LINE
  5
5C4
100
AcDbEntity
  8
0
100
AcDbLine
 62
7
  6
CONTINUOUS
 10
408.6808656285
 20
100.800641823
 11
408.6808656285
 21
100.5885097886
  0
LINE
  5
5C5
100
AcDbEntity
  8
0
100
AcDbLine
 62
7
  6
CONTINUOUS
 10
408.7013849515
 20
100.3384465994
 11
408.7013849515
 21
100.2277389933
  0
LINE
  5
5C6
100
AcDbEntity
  8
0
100
AcDbLine
 62
7
  6
CONTINUOUS
 10
408.7682461951
 20
89.9865447158
 11
408.7682461951
 21
89.8151133207
  0
LINE
  5
5C7
100
AcDbEntity
  8
0
100
AcDbLine
 62
7
  6
CONTINUOUS
 10
408.7896179271
 20
99.7257639962
 11
408.7896179271
 21
99.6150563778
  0
LINE
  5
5C8
100
AcDbEntity
  8
0
100
AcDbLine
 62
7
  6
CONTINUOUS
 10
408.8552796551
 20
100.308874448
 11
408.8552796551
 21
100.1825181459
  0
LINE
  5
5C9
100
AcDbEntity
  8
0
100
AcDbLine
 62
7
  6
CONTINUOUS
 10
408.8862380481
 20
89.1275819746
 11
408.8862380481
 21
88.9348361273
  0
LINE
  5
5CA
100
AcDbEntity
  8
0
100
AcDbLine
 62
7
  6
CONTINUOUS
 10
408.9020636955
 20
99.7362342505
 11
408.9020636955
 21
99.6257892555
  0
LINE
  5
5CB
100
AcDbEntity
  8
0
100
AcDbLine
 62
7
  6
CONTINUOUS
 10
408.9171436413
 20
89.1953626749
 11
408.9171436413
 21
88.9832306406
  0
LINE
  5
5CC
100
AcDbEntity
  8
0
100
AcDbLine
 62
7
  6
CONTINUOUS
 10
408.98551898
 20
89.2996828378
 11
408.98551898
 21
89.0875508034
  0
LINE
  5
5CD
100
AcDbEntity
  8
0
100
AcDbLine
 62
7
  6
CONTINUOUS
 10
409.0009666815
 20
99.7768020204
 11
409.0009666815
 21
99.6519149247
  0
LINE
  5
5CE
100
AcDbEntity
  8
0
100
AcDbLine
 62
7
  6
CONTINUOUS
 10
409.0227171511
 20
100.2492047951
 11
409.0227171511
 21
100.1041882906
  0
LINE
  5
5CF
100
AcDbEntity
  8
0
100
AcDbLine
 62
7
  6
CONTINUOUS
 10
409.0324255593
 20
88.9690003356
 11
409.0324255593
 21
88.7568683012
  0
LINE
  5
5D0
100
AcDbEntity
  8
KONSTRUKTIONSELEMENTE
100
AcDbLine
 62
7
  6
CONTINUOUS
 10
409.0518585107
 20
123.8817379766
 11
409.0518585107
 21
134.4883396944
  0
LINE
  5
5D1
100
AcDbEntity
  8
KONSTRUKTIONSELEMENTE
100
AcDbLine
 62
7
  6
CONTINUOUS
 10
409.0518585107
 20
154.9944363488
 11
409.0518585107
 21
165.6010380666
  0
LINE
  5
5D2
100
AcDbEntity
  8
0
100
AcDbLine
 62
7
  6
CONTINUOUS
 10
409.0708528697
 20
88.8935462267
 11
409.0708528697
 21
88.7292433208
  0
LINE
  5
5D3
100
AcDbEntity
  8
0
100
AcDbLine
 62
7
  6
CONTINUOUS
 10
409.0719635146
 20
99.8273146805
 11
409.0719635146
 21
99.6765645977
  0
LINE
  5
5D4
100
AcDbEntity
  8
0
100
AcDbLine
 62
7
  6
CONTINUOUS
 10
409.1006905349
 20
99.8676197612
 11
409.1006905349
 21
99.6963277489
  0
LINE
  5
5D5
100
AcDbEntity
  8
0
100
AcDbLine
 62
7
  6
CONTINUOUS
 10
409.115874783
 20
99.9380223717
 11
409.115874783
 21
99.7258903373
  0
LINE
  5
5D6
100
AcDbEntity
  8
0
100
AcDbLine
 62
7
  6
CONTINUOUS
 10
409.1393585107
 20
103.444847577
 11
409.1393585107
 21
103.2643095705
  0
LINE
  5
5D7
100
AcDbEntity
  8
0
100
AcDbLine
 62
7
  6
CONTINUOUS
 10
409.1478848343
 20
100.179327563
 11
409.1478848343
 21
99.9671955286
  0
LINE
  5
5D8
100
AcDbEntity
  8
0
100
AcDbLine
 62
7
  6
CONTINUOUS
 10
409.154132717
 20
89.4641103039
 11
409.154132717
 21
89.2758979977
  0
LINE
  5
5D9
100
AcDbEntity
  8
0
100
AcDbLine
 62
7
  6
CONTINUOUS
 10
409.1786130113
 20
88.8104187465
 11
409.1786130113
 21
88.6863530707
  0
LINE
  5
5DA
100
AcDbEntity
  8
0
100
AcDbLine
 62
7
  6
CONTINUOUS
 10
409.2018585181
 20
103.6253854571
 11
409.2018585181
 21
103.4132534227
  0
LINE
  5
5DB
100
AcDbEntity
  8
0
100
AcDbLine
 62
7
  6
CONTINUOUS
 10
409.2443256568
 20
100.0691451932
 11
409.2443256568
 21
99.8570131588
  0
LINE
  5
5DC
100
AcDbEntity
  8
0
100
AcDbLine
 62
7
  6
CONTINUOUS
 10
409.273106001
 20
89.5424873513
 11
409.273106001
 21
89.3888523861
  0
LINE
  5
5DD
100
AcDbEntity
  8
0
100
AcDbLine
 62
7
  6
CONTINUOUS
 10
409.323843017
 20
88.7638306289
 11
409.323843017
 21
88.6557497994
  0
LINE
  5
5DE
100
AcDbEntity
  8
0
100
AcDbLine
 62
7
  6
CONTINUOUS
 10
409.3268585107
 20
102.406754577
 11
409.3268585107
 21
102.1946225427
  0
LINE
  5
5DF
100
AcDbEntity
  8
0
100
AcDbLine
 62
7
  6
CONTINUOUS
 10
409.3546096183
 20
89.5843250129
 11
409.3546096183
 21
89.446053565
  0
LINE
  5
5E0
100
AcDbEntity
  8
0
100
AcDbLine
 62
7
  6
CONTINUOUS
 10
409.3893584958
 20
102.271351167
 11
409.3893584958
 21
102.0592191326
  0
LINE
  5
5E1
100
AcDbEntity
  8
0
100
AcDbLine
 62
7
  6
CONTINUOUS
 10
409.437209766
 20
88.7614553939
 11
409.437209766
 21
88.6494618418
  0
LINE
  5
5E2
100
AcDbEntity
  8
0
100
AcDbLine
 62
7
  6
CONTINUOUS
 10
409.4518585256
 20
103.8059233371
 11
409.4518585256
 21
103.5937913028
  0
LINE
  5
5E3
100
AcDbEntity
  8
0
100
AcDbLine
 62
7
  6
CONTINUOUS
 10
409.4801471008
 20
89.6314607598
 11
409.4801471008
 21
89.4993991621
  0
LINE
  5
5E4
100
AcDbEntity
  8
0
100
AcDbLine
 62
7
  6
CONTINUOUS
 10
409.5143585107
 20
103.0973120062
 11
409.5143585107
 21
103.3997129805
  0
LINE
  5
5E5
100
AcDbEntity
  8
0
100
AcDbLine
 62
7
  6
CONTINUOUS
 10
409.5768584958
 20
103.1740406305
 11
409.5768584958
 21
102.9619085961
  0
LINE
  5
5E6
100
AcDbEntity
  8
0
100
AcDbLine
 62
7
  6
CONTINUOUS
 10
409.5768584958
 20
102.1359477253
 11
409.5768584958
 21
101.923815691
  0
LINE
  5
5E7
100
AcDbEntity
  8
0
100
AcDbLine
 62
7
  6
CONTINUOUS
 10
409.6122487095
 20
89.6473552432
 11
409.6122487095
 21
89.5353616975
  0
LINE
  5
5E8
100
AcDbEntity
  8
0
100
AcDbLine
 62
7
  6
CONTINUOUS
 10
409.6508148802
 20
88.8191875377
 11
409.6508148802
 21
88.6955990732
  0
LINE
  5
5E9
100
AcDbEntity
  8
0
100
AcDbLine
 62
7
  6
CONTINUOUS
 10
409.7018585107
 20
103.8961922771
 11
409.7018585107
 21
103.6840602428
  0
LINE
  5
5EA
100
AcDbEntity
  8
0
100
AcDbLine
 62
7
  6
CONTINUOUS
 10
409.7643585405
 20
103.0837716904
 11
409.7643585405
 21
102.8716396561
  0
LINE
  5
5EB
100
AcDbEntity
  8
0
100
AcDbLine
 62
7
  6
CONTINUOUS
 10
409.7805784578
 20
98.5365673083
 11
409.7805784578
 21
98.324435274
  0
LINE
  5
5EC
100
AcDbEntity
  8
0
100
AcDbLine
 62
7
  6
CONTINUOUS
 10
409.7885231225
 20
88.9158342921
 11
409.7885231225
 21
88.7617166578
  0
LINE
  5
5ED
100
AcDbEntity
  8
0
100
AcDbLine
 62
7
  6
CONTINUOUS
 10
409.7949482898
 20
89.6373066368
 11
409.7949482898
 21
89.5110524839
  0
LINE
  5
5EE
100
AcDbEntity
  8
0
100
AcDbLine
 62
7
  6
CONTINUOUS
 10
409.8268584809
 20
102.0908132553
 11
409.8268584809
 21
101.8786812209
  0
LINE
  5
5EF
100
AcDbEntity
  8
0
100
AcDbLine
 62
7
  6
CONTINUOUS
 10
409.9196671402
 20
89.0437223213
 11
409.9196671402
 21
88.8555101228
  0
LINE
  5
5F0
100
AcDbEntity
  8
0
100
AcDbLine
 62
7
  6
CONTINUOUS
 10
409.9518585405
 20
103.9413267472
 11
409.9518585405
 21
103.7291947128
  0
LINE
  5
5F1
100
AcDbEntity
  8
0
100
AcDbLine
 62
7
  6
CONTINUOUS
 10
409.9518585405
 20
103.0386372204
 11
409.9518585405
 21
102.8265051861
  0
LINE
  5
5F2
100
AcDbEntity
  8
0
100
AcDbLine
 62
7
  6
CONTINUOUS
 10
409.9654772088
 20
89.5777470114
 11
409.9654772088
 21
89.4141369618
  0
LINE
  5
5F3
100
AcDbEntity
  8
0
100
AcDbLine
 62
7
  6
CONTINUOUS
 10
409.9920144552
 20
98.6870578712
 11
409.9920144552
 21
98.4749258368
  0
LINE
  5
5F4
100
AcDbEntity
  8
0
100
AcDbLine
 62
7
  6
CONTINUOUS
 10
410.0067772399
 20
89.1663122141
 11
410.0067772399
 21
88.9541801797
  0
LINE
  5
5F5
100
AcDbEntity
  8
0
100
AcDbLine
 62
7
  6
CONTINUOUS
 10
410.0179905073
 20
89.3278167558
 11
410.0179905073
 21
89.1156847214
  0
LINE
  5
5F6
100
AcDbEntity
  8
KONSTRUKTIONSELEMENTE
100
AcDbLine
 62
7
  6
CONTINUOUS
 10
410.0518585107
 20
104.702996445
 11
410.0518585107
 21
119.1441225427
  0
LINE
  5
5F7
100
AcDbEntity
  8
KONSTRUKTIONSELEMENTE
100
AcDbLine
 62
7
  6
CONTINUOUS
 10
410.0518585107
 20
119.4976759333
 11
410.0518585107
 21
125.5802194359
  0
LINE
  5
5F8
100
AcDbEntity
  8
KONSTRUKTIONSELEMENTE
100
AcDbLine
 62
7
  6
CONTINUOUS
 10
410.0518585107
 20
164.2432476552
 11
410.0518585107
 21
180.3088591153
  0
LINE
  5
5F9
100
AcDbEntity
  8
KONSTRUKTIONSELEMENTE
100
AcDbLine
 62
7
  6
CONTINUOUS
 10
410.0518585107
 20
180.6624125059
 11
410.0518585107
 21
186.7449560086
  0
LINE
  5
5FA
100
AcDbEntity
  8
0
100
AcDbLine
 62
7
  6
CONTINUOUS
 10
410.0985364086
 20
89.4816479491
 11
410.0985364086
 21
89.2695159148
  0
LINE
  5
5FB
100
AcDbEntity
  8
0
100
AcDbLine
 62
7
  6
CONTINUOUS
 10
410.110530966
 20
100.407138795
 11
410.110530966
 21
100.230089572
  0
LINE
  5
5FC
100
AcDbEntity
  8
0
100
AcDbLine
 62
7
  6
CONTINUOUS
 10
410.1688269756
 20
89.3619809577
 11
410.1688269756
 21
89.1881475325
  0
LINE
  5
5FD
100
AcDbEntity
  8
0
100
AcDbLine
 62
7
  6
CONTINUOUS
 10
410.2405388443
 20
100.4684251269
 11
410.2405388443
 21
100.2562930926
  0
LINE
  5
5FE
100
AcDbEntity
  8
0
100
AcDbLine
 62
7
  6
CONTINUOUS
 10
410.2643585107
 20
103.9413267472
 11
410.2643585107
 21
103.7291947128
  0
LINE
  5
5FF
100
AcDbEntity
  8
0
100
AcDbLine
 62
7
  6
CONTINUOUS
 10
410.2649238228
 20
87.1374425981
 11
410.2649238228
 21
86.9253105638
  0
LINE
  5
600
100
AcDbEntity
  8
KONSTRUKTIONSELEMENTE
100
AcDbLine
 62
7
  6
CONTINUOUS
 10
410.3018585107
 20
133.6985777259
 11
410.3018585107
 21
155.7841983173
  0
LINE
  5
601
100
AcDbEntity
  8
0
100
AcDbLine
 62
7
  6
CONTINUOUS
 10
410.3268585405
 20
103.0386372204
 11
410.3268585405
 21
102.8265051861
  0
LINE
  5
602
100
AcDbEntity
  8
0
100
AcDbLine
 62
7
  6
CONTINUOUS
 10
410.3268585405
 20
102.0908132553
 11
410.3268585405
 21
101.8786812209
  0
LINE
  5
603
100
AcDbEntity
  8
0
100
AcDbLine
 62
7
  6
CONTINUOUS
 10
410.3289441881
 20
100.4463620617
 11
410.3289441881
 21
100.2576002022
  0
LINE
  5
604
100
AcDbEntity
  8
0
100
AcDbLine
 62
7
  6
CONTINUOUS
 10
410.5267607846
 20
87.2409834245
 11
410.5267607846
 21
87.0288513901
  0
LINE
  5
605
100
AcDbEntity
  8
0
100
AcDbLine
 62
7
  6
CONTINUOUS
 10
410.5768585703
 20
103.8961922771
 11
410.5768585703
 21
103.6840602428
  0
LINE
  5
606
100
AcDbEntity
  8
0
100
AcDbLine
 62
7
  6
CONTINUOUS
 10
410.5768585703
 20
102.1359477253
 11
410.5768585703
 21
101.923815691
  0
LINE
  5
607
100
AcDbEntity
  8
0
100
AcDbLine
 62
7
  6
CONTINUOUS
 10
410.6023822741
 20
89.349274139
 11
410.6023822741
 21
89.1608289922
  0
LINE
  5
608
100
AcDbEntity
  8
0
100
AcDbLine
 62
7
  6
CONTINUOUS
 10
410.6393585107
 20
102.9935027504
 11
410.6393585107
 21
102.7813707161
  0
LINE
  5
609
100
AcDbEntity
  8
0
100
AcDbLine
 62
7
  6
CONTINUOUS
 10
410.73894533
 20
89.402961238
 11
410.73894533
 21
89.1908292036
  0
LINE
  5
60A
100
AcDbEntity
  8
0
100
AcDbLine
 62
7
  6
CONTINUOUS
 10
410.7643585703
 20
102.226216697
 11
410.7643585703
 21
102.0140846626
  0
LINE
  5
60B
100
AcDbEntity
  8
0
100
AcDbLine
 62
7
  6
CONTINUOUS
 10
410.8245520064
 20
89.3759375498
 11
410.8245520064
 21
89.213319804
  0
LINE
  5
60C
100
AcDbEntity
  8
0
100
AcDbLine
 62
7
  6
CONTINUOUS
 10
410.8268585107
 20
103.7607888671
 11
410.8268585107
 21
103.5486568327
  0
LINE
  5
60D
100
AcDbEntity
  8
0
100
AcDbLine
 62
7
  6
CONTINUOUS
 10
410.8893584511
 20
102.9032338104
 11
410.8893584511
 21
102.691101776
  0
LINE
  5
60E
100
AcDbEntity
  8
0
100
AcDbLine
 62
7
  6
CONTINUOUS
 10
410.8893584511
 20
102.497023517
 11
410.8893584511
 21
102.1494880726
  0
LINE
  5
60F
100
AcDbEntity
  8
0
100
AcDbLine
 62
7
  6
CONTINUOUS
 10
411.0143585107
 20
103.580250987
 11
411.0143585107
 21
103.444847577
  0
LINE
  5
610
100
AcDbEntity
  8
0
100
AcDbLine
 62
7
  6
CONTINUOUS
 10
411.1393585703
 20
102.7226959303
 11
411.1393585703
 21
102.510563896
  0
LINE
  5
611
100
AcDbEntity
  8
0
100
AcDbLine
 62
7
  6
CONTINUOUS
 10
411.2643584511
 20
102.316485637
 11
411.2643584511
 21
102.5421579871
  0
LINE
  5
612
100
AcDbEntity
  8
0
100
AcDbLine
 62
7
  6
CONTINUOUS
 10
412.5518585107
 20
100.5090388847
 11
412.5518585107
 21
100.2969068503
  0
LINE
  5
613
100
AcDbEntity
  8
0
100
AcDbLine
 62
7
  6
CONTINUOUS
 10
412.5518585107
 20
88.0417882099
 11
412.5518585107
 21
87.8296561755
  0
LINE
  5
614
100
AcDbEntity
  8
0
100
AcDbLine
 62
7
  6
CONTINUOUS
 10
412.5518585107
 20
74.5961997929
 11
412.5518585107
 21
77.4505901177
  0
LINE
  5
615
100
AcDbEntity
  8
KONSTRUKTIONSELEMENTE
100
AcDbLine
 62
7
  6
CONTINUOUS
 10
414.8018585107
 20
133.6985777259
 11
414.8018585107
 21
155.7841983173
  0
LINE
  5
616
100
AcDbEntity
  8
KONSTRUKTIONSELEMENTE
100
AcDbLine
 62
7
  6
CONTINUOUS
 10
415.0518585107
 20
104.702996445
 11
415.0518585107
 21
119.1441225427
  0
LINE
  5
617
100
AcDbEntity
  8
KONSTRUKTIONSELEMENTE
100
AcDbLine
 62
7
  6
CONTINUOUS
 10
415.0518585107
 20
119.4976759333
 11
415.0518585107
 21
125.5802194359
  0
LINE
  5
618
100
AcDbEntity
  8
KONSTRUKTIONSELEMENTE
100
AcDbLine
 62
7
  6
CONTINUOUS
 10
415.0518585107
 20
164.2432476552
 11
415.0518585107
 21
180.3088591153
  0
LINE
  5
619
100
AcDbEntity
  8
KONSTRUKTIONSELEMENTE
100
AcDbLine
 62
7
  6
CONTINUOUS
 10
415.0518585107
 20
180.6624125059
 11
415.0518585107
 21
186.7449560086
  0
LINE
  5
61A
100
AcDbEntity
  8
KONSTRUKTIONSELEMENTE
100
AcDbLine
 62
7
  6
CONTINUOUS
 10
416.0518585107
 20
165.6010380666
 11
416.0518585107
 21
154.9944363488
  0
LINE
  5
61B
100
AcDbEntity
  8
KONSTRUKTIONSELEMENTE
100
AcDbLine
 62
7
  6
CONTINUOUS
 10
416.0518585107
 20
134.4883396944
 11
416.0518585107
 21
123.8817379766
  0
LINE
  5
61C
100
AcDbEntity
  8
0
100
AcDbLine
 62
7
  6
CONTINUOUS
 10
416.0518585107
 20
102.8265051861
 11
416.0518585107
 21
102.510563896
  0
LINE
  5
61D
100
AcDbEntity
  8
0
100
AcDbLine
 62
7
  6
CONTINUOUS
 10
416.1143585125
 20
103.1424464762
 11
416.1143585125
 21
102.9303144418
  0
LINE
  5
61E
100
AcDbEntity
  8
0
100
AcDbLine
 62
7
  6
CONTINUOUS
 10
416.2393585107
 20
103.3681189527
 11
416.2393585107
 21
103.1559869183
  0
LINE
  5
61F
100
AcDbEntity
  8
0
100
AcDbLine
 62
7
  6
CONTINUOUS
 10
416.3643585032
 20
102.5241042117
 11
416.3643585032
 21
102.8265051861
  0
LINE
  5
620
100
AcDbEntity
  8
0
100
AcDbLine
 62
7
  6
CONTINUOUS
 10
416.4268585107
 20
103.5486568327
 11
416.4268585107
 21
103.3365247984
  0
LINE
  5
621
100
AcDbEntity
  8
0
100
AcDbLine
 62
7
  6
CONTINUOUS
 10
416.4268585107
 20
102.0276249783
 11
416.4268585107
 21
102.3751604227
  0
LINE
  5
622
100
AcDbEntity
  8
0
100
AcDbLine
 62
7
  6
CONTINUOUS
 10
416.4893584958
 20
102.1043536026
 11
416.4893584958
 21
101.8922215683
  0
LINE
  5
623
100
AcDbEntity
  8
0
100
AcDbLine
 62
7
  6
CONTINUOUS
 10
416.6143585107
 20
101.968950161
 11
416.6143585107
 21
101.7568181266
  0
LINE
  5
624
100
AcDbEntity
  8
0
100
AcDbLine
 62
7
  6
CONTINUOUS
 10
416.7393585256
 20
103.6840602428
 11
416.7393585256
 21
103.4719282084
  0
LINE
  5
625
100
AcDbEntity
  8
0
100
AcDbLine
 62
7
  6
CONTINUOUS
 10
416.7393585256
 20
102.9167741261
 11
416.7393585256
 21
102.7046420917
  0
LINE
  5
626
100
AcDbEntity
  8
0
100
AcDbLine
 62
7
  6
CONTINUOUS
 10
416.8018585107
 20
101.8786812209
 11
416.8018585107
 21
101.6665491866
  0
LINE
  5
627
100
AcDbEntity
  8
0
100
AcDbLine
 62
7
  6
CONTINUOUS
 10
416.9893585107
 20
101.8335467509
 11
416.9893585107
 21
101.6214147166
  0
LINE
  5
628
100
AcDbEntity
  8
0
100
AcDbLine
 62
7
  6
CONTINUOUS
 10
417.0518585405
 20
103.7291947128
 11
417.0518585405
 21
103.5170626784
  0
LINE
  5
629
100
AcDbEntity
  8
0
100
AcDbLine
 62
7
  6
CONTINUOUS
 10
417.0518585405
 20
102.9619085961
 11
417.0518585405
 21
102.7497765618
  0
LINE
  5
62A
100
AcDbEntity
  8
0
100
AcDbLine
 62
7
  6
CONTINUOUS
 10
417.3018584809
 20
103.7291947128
 11
417.3018584809
 21
103.5170626784
  0
LINE
  5
62B
100
AcDbEntity
  8
0
100
AcDbLine
 62
7
  6
CONTINUOUS
 10
417.3518585107
 20
93.9443413056
 11
417.3518585107
 21
93.7938930722
  0
LINE
  5
62C
100
AcDbEntity
  8
0
100
AcDbLine
 62
7
  6
CONTINUOUS
 10
417.3518585107
 20
83.6842219106
 11
417.3518585107
 21
83.5337736772
  0
LINE
  5
62D
100
AcDbEntity
  8
0
100
AcDbLine
 62
7
  6
CONTINUOUS
 10
417.3643585107
 20
102.9619085961
 11
417.3643585107
 21
102.7497765618
  0
LINE
  5
62E
100
AcDbEntity
  8
0
100
AcDbLine
 62
7
  6
CONTINUOUS
 10
417.4268585405
 20
101.8335467509
 11
417.4268585405
 21
101.6214147166
  0
LINE
  5
62F
100
AcDbEntity
  8
0
100
AcDbLine
 62
7
  6
CONTINUOUS
 10
417.6143584511
 20
103.6840602428
 11
417.6143584511
 21
103.4719282084
  0
LINE
  5
630
100
AcDbEntity
  8
0
100
AcDbLine
 62
7
  6
CONTINUOUS
 10
417.6143584511
 20
101.8786812209
 11
417.6143584511
 21
101.6665491866
  0
LINE
  5
631
100
AcDbEntity
  8
0
100
AcDbLine
 62
7
  6
CONTINUOUS
 10
417.6768585703
 20
102.9167741261
 11
417.6768585703
 21
102.7046420917
  0
LINE
  5
632
100
AcDbEntity
  8
0
100
AcDbLine
 62
7
  6
CONTINUOUS
 10
417.7685251898
 20
94.2452378777
 11
417.7685251898
 21
93.0416518263
  0
LINE
  5
633
100
AcDbEntity
  8
0
100
AcDbLine
 62
7
  6
CONTINUOUS
 10
417.7685251898
 20
83.9851184827
 11
417.7685251898
 21
82.7815324313
  0
LINE
  5
634
100
AcDbEntity
  8
0
100
AcDbLine
 62
7
  6
CONTINUOUS
 10
417.8018584511
 20
101.968950161
 11
417.8018584511
 21
101.7568181266
  0
LINE
  5
635
100
AcDbEntity
  8
0
100
AcDbLine
 62
7
  6
CONTINUOUS
 10
417.9268585107
 20
103.5486568327
 11
417.9268585107
 21
103.3365247984
  0
LINE
  5
636
100
AcDbEntity
  8
0
100
AcDbLine
 62
7
  6
CONTINUOUS
 10
417.9268585107
 20
102.1043536026
 11
417.9268585107
 21
101.8922215683
  0
LINE
  5
637
100
AcDbEntity
  8
0
100
AcDbLine
 62
7
  6
CONTINUOUS
 10
417.9590381876
 20
85.344418402
 11
417.9590381876
 21
85.1322863676
  0
LINE
  5
638
100
AcDbEntity
  8
0
100
AcDbLine
 62
7
  6
CONTINUOUS
 10
417.9893584511
 20
102.7813707161
 11
417.9893584511
 21
102.5692386817
  0
LINE
  5
639
100
AcDbEntity
  8
0
100
AcDbLine
 62
7
  6
CONTINUOUS
 10
417.9893584511
 20
102.3751604227
 11
417.9893584511
 21
102.0276249783
  0
LINE
  5
63A
100
AcDbEntity
  8
0
100
AcDbLine
 62
7
  6
CONTINUOUS
 10
418.0289418688
 20
82.6446245399
 11
418.0289418688
 21
83.9851184827
  0
LINE
  5
63B
100
AcDbEntity
  8
0
100
AcDbLine
 62
7
  6
CONTINUOUS
 10
418.0289418688
 20
92.9047439349
 11
418.0289418688
 21
94.2452378777
  0
LINE
  5
63C
100
AcDbEntity
  8
0
100
AcDbLine
 62
7
  6
CONTINUOUS
 10
408.1781427119
 20
100.0953028252
 11
408.1765011065
 21
99.9948027843
  0
LINE
  5
63D
100
AcDbEntity
  8
0
100
AcDbLine
 62
7
  6
CONTINUOUS
 10
408.3439386025
 20
99.9351331314
 11
408.3455802078
 21
100.0356331723
  0
LINE
  5
63E
100
AcDbEntity
  8
0
100
AcDbLine
 62
7
  6
CONTINUOUS
 10
407.5612582294
 20
89.6115956921
 11
407.5568679961
 21
89.4904532394
  0
LINE
  5
63F
100
AcDbEntity
  8
0
100
AcDbLine
 62
7
  6
CONTINUOUS
 10
408.6311100102
 20
89.4151647287
 11
408.6355002065
 21
89.5363071752
  0
LINE
  5
640
100
AcDbEntity
  8
0
100
AcDbLine
 62
7
  6
CONTINUOUS
 10
409.0324255593
 20
88.9690003356
 11
409.0436386425
 21
89.1305049131
  0
LINE
  5
641
100
AcDbEntity
  8
0
100
AcDbLine
 62
7
  6
CONTINUOUS
 10
418.0810251525
 20
93.0040397679
 11
418.0810251525
 21
92.8034421145
  0
LINE
  5
642
100
AcDbEntity
  8
0
100
AcDbLine
 62
7
  6
CONTINUOUS
 10
418.0810251525
 20
82.7439203729
 11
418.0810251525
 21
82.5433227195
  0
LINE
  5
643
100
AcDbEntity
  8
0
100
AcDbLine
 62
7
  6
CONTINUOUS
 10
418.1143585107
 20
103.3681189527
 11
418.1143585107
 21
103.2327155426
  0
LINE
  5
644
100
AcDbEntity
  8
0
100
AcDbLine
 62
7
  6
CONTINUOUS
 10
418.1768584511
 20
102.645967306
 11
418.1768584511
 21
102.4338352717
  0
LINE
  5
645
100
AcDbEntity
  8
0
100
AcDbLine
 62
7
  6
CONTINUOUS
 10
418.2372751525
 20
92.9288156512
 11
418.2372751525
 21
92.7783673948
  0
LINE
  5
646
100
AcDbEntity
  8
0
100
AcDbLine
 62
7
  6
CONTINUOUS
 10
418.2372751525
 20
82.6686962562
 11
418.2372751525
 21
82.5182479998
  0
LINE
  5
647
100
AcDbEntity
  8
0
100
AcDbLine
 62
7
  6
CONTINUOUS
 10
418.3018585107
 20
102.1946225427
 11
418.3018585107
 21
102.4202949559
  0
LINE
  5
648
100
AcDbEntity
  8
0
100
AcDbLine
 62
7
  6
CONTINUOUS
 10
418.4976918688
 20
82.4806359381
 11
418.4976918688
 21
82.6310841847
  0
LINE
  5
649
100
AcDbEntity
  8
0
100
AcDbLine
 62
7
  6
CONTINUOUS
 10
418.4976918688
 20
92.7407553332
 11
418.4976918688
 21
92.8912035797
  0
LINE
  5
64A
100
AcDbEntity
  8
0
100
AcDbLine
 62
7
  6
CONTINUOUS
 10
418.6018585107
 20
83.5337736772
 11
418.6018585107
 21
83.6842219106
  0
LINE
  5
64B
100
AcDbEntity
  8
0
100
AcDbLine
 62
7
  6
CONTINUOUS
 10
418.6018585107
 20
93.7938930722
 11
418.6018585107
 21
93.9443413056
  0
LINE
  5
64C
100
AcDbEntity
  8
0
100
AcDbLine
 62
7
  6
CONTINUOUS
 10
418.8018585703
 20
103.0521775361
 11
418.8018585703
 21
101.6078743692
  0
LINE
  5
64D
100
AcDbEntity
  8
0
100
AcDbLine
 62
7
  6
CONTINUOUS
 10
419.0059835891
 20
95.3146240167
 11
419.0059835891
 21
95.1024919823
  0
LINE
  5
64E
100
AcDbEntity
  8
0
100
AcDbLine
 62
7
  6
CONTINUOUS
 10
419.1143586299
 20
101.6078743692
 11
419.1143586299
 21
103.0521775361
  0
LINE
  5
64F
100
AcDbEntity
  8
0
100
AcDbLine
 62
7
  6
CONTINUOUS
 10
419.2393585107
 20
103.0070430661
 11
419.2393585107
 21
102.8265051861
  0
LINE
  5
650
100
AcDbEntity
  8
0
100
AcDbLine
 62
7
  6
CONTINUOUS
 10
419.4268585107
 20
103.0521775361
 11
419.4268585107
 21
102.8716396561
  0
LINE
  5
651
100
AcDbEntity
  8
0
100
AcDbLine
 62
7
  6
CONTINUOUS
 10
419.5518585107
 20
95.1024919823
 11
419.5518585107
 21
91.7083794326
  0
LINE
  5
652
100
AcDbEntity
  8
0
100
AcDbLine
 62
7
  6
CONTINUOUS
 10
419.5518585107
 20
85.1322863676
 11
419.5518585107
 21
81.7381738179
  0
LINE
  5
653
100
AcDbEntity
  8
0
100
AcDbLine
 62
7
  6
CONTINUOUS
 10
419.5518585107
 20
69.7100995089
 11
419.5518585107
 21
72.5799226045
  0
LINE
  5
654
100
AcDbEntity
  8
BEZUGSACHSEN
100
AcDbLine
 62
7
  6
CONTINUOUS
 10
419.5518585107
 20
69.7100995089
 11
419.5518585107
 21
72.5799226045
  0
LINE
  5
655
100
AcDbEntity
  8
0
100
AcDbLine
 62
7
  6
CONTINUOUS
 10
419.6768586299
 20
103.0521775361
 11
419.6768586299
 21
102.8400455018
  0
LINE
  5
656
100
AcDbEntity
  8
0
100
AcDbLine
 62
7
  6
CONTINUOUS
 10
419.8018585107
 20
102.691101776
 11
419.8018585107
 21
101.6078743692
  0
LINE
  5
657
100
AcDbEntity
  8
0
100
AcDbLine
 62
7
  6
CONTINUOUS
 10
419.8518585107
 20
81.7381738179
 11
419.8518585107
 21
85.0615756895
  0
LINE
  5
658
100
AcDbEntity
  8
0
100
AcDbLine
 62
7
  6
CONTINUOUS
 10
419.8518585107
 20
91.7083794326
 11
419.8518585107
 21
95.3146240167
  0
LINE
  5
659
100
AcDbEntity
  8
0
100
AcDbLine
 62
7
  6
CONTINUOUS
 10
419.8643586299
 20
103.0070430661
 11
419.8643586299
 21
102.7949110318
  0
LINE
  5
65A
100
AcDbEntity
  8
BEZUGSACHSEN
100
AcDbLine
 62
7
  6
CONTINUOUS
 10
420.0518585107
 20
152.7730280622
 11
420.0518585107
 21
136.704554371
  0
LINE
  5
65B
100
AcDbEntity
  8
BEZUGSACHSEN
100
AcDbLine
 62
7
  6
CONTINUOUS
 10
420.0518585107
 20
121.66032969
 11
420.0518585107
 21
109.1246421025
  0
LINE
  5
65C
100
AcDbEntity
  8
0
100
AcDbLine
 62
7
  6
CONTINUOUS
 10
420.0518586299
 20
102.8716396561
 11
420.0518586299
 21
102.6595076217
  0
LINE
  5
65D
100
AcDbEntity
  8
0
100
AcDbLine
 62
7
  6
CONTINUOUS
 10
420.1143583915
 20
101.6078743692
 11
420.1143583915
 21
102.691101776
  0
LINE
  5
65E
100
AcDbEntity
  8
0
100
AcDbLine
 62
7
  6
CONTINUOUS
 10
420.2393586299
 20
103.0070430661
 11
420.2393586299
 21
102.8265051861
  0
LINE
  5
65F
100
AcDbEntity
  8
0
100
AcDbLine
 62
7
  6
CONTINUOUS
 10
420.4268586299
 20
103.0521775361
 11
420.4268586299
 21
102.8716396561
  0
LINE
  5
660
100
AcDbEntity
  8
KONSTRUKTIONSELEMENTE
100
AcDbLine
 62
7
  6
CONTINUOUS
 10
420.5518585107
 20
165.6010380666
 11
420.5518585107
 21
154.9944363488
  0
LINE
  5
661
100
AcDbEntity
  8
KONSTRUKTIONSELEMENTE
100
AcDbLine
 62
7
  6
CONTINUOUS
 10
420.5518585107
 20
134.4883396944
 11
420.5518585107
 21
123.8817379766
  0
LINE
  5
662
100
AcDbEntity
  8
0
100
AcDbLine
 62
7
  6
CONTINUOUS
 10
420.6768583915
 20
103.0521775361
 11
420.6768583915
 21
102.8400455018
  0
LINE
  5
663
100
AcDbEntity
  8
0
100
AcDbLine
 62
7
  6
CONTINUOUS
 10
420.8018586299
 20
102.691101776
 11
420.8018586299
 21
101.6078743692
  0
LINE
  5
664
100
AcDbEntity
  8
0
100
AcDbLine
 62
7
  6
CONTINUOUS
 10
420.8643583915
 20
103.0070430661
 11
420.8643583915
 21
102.7949110318
  0
LINE
  5
665
100
AcDbEntity
  8
0
100
AcDbLine
 62
7
  6
CONTINUOUS
 10
420.9893586299
 20
102.9167741261
 11
420.9893586299
 21
102.7046420917
  0
LINE
  5
666
100
AcDbEntity
  8
0
100
AcDbLine
 62
7
  6
CONTINUOUS
 10
421.1143585107
 20
101.6078743692
 11
421.1143585107
 21
102.691101776
  0
LINE
  5
667
100
AcDbEntity
  8
0
100
AcDbLine
 62
7
  6
CONTINUOUS
 10
421.5518585107
 20
185.5548603847
 11
421.5518585107
 21
363.4325330165
  0
LINE
  5
668
100
AcDbEntity
  8
0
100
AcDbLine
 62
7
  6
CONTINUOUS
 10
421.6143583915
 20
103.0521775361
 11
421.6143583915
 21
101.6078743692
  0
LINE
  5
669
100
AcDbEntity
  8
0
100
AcDbLine
 62
7
  6
CONTINUOUS
 10
421.9268586299
 20
101.6078743692
 11
421.9268586299
 21
103.0521775361
  0
LINE
  5
66A
100
AcDbEntity
  8
0
100
AcDbLine
 62
7
  6
CONTINUOUS
 10
422.0518585107
 20
103.0070430661
 11
422.0518585107
 21
102.8265051861
  0
LINE
  5
66B
100
AcDbEntity
  8
0
100
AcDbLine
 62
7
  6
CONTINUOUS
 10
422.2393585107
 20
103.0521775361
 11
422.2393585107
 21
102.8716396561
  0
LINE
  5
66C
100
AcDbEntity
  8
0
100
AcDbLine
 62
7
  6
CONTINUOUS
 10
422.4893582723
 20
103.0521775361
 11
422.4893582723
 21
102.8400455018
  0
LINE
  5
66D
100
AcDbEntity
  8
0
100
AcDbLine
 62
7
  6
CONTINUOUS
 10
422.6143585107
 20
102.691101776
 11
422.6143585107
 21
101.6078743692
  0
LINE
  5
66E
100
AcDbEntity
  8
0
100
AcDbLine
 62
7
  6
CONTINUOUS
 10
422.6768582723
 20
103.0070430661
 11
422.6768582723
 21
102.7949110318
  0
LINE
  5
66F
100
AcDbEntity
  8
0
100
AcDbLine
 62
7
  6
CONTINUOUS
 10
422.8643582723
 20
102.8716396561
 11
422.8643582723
 21
102.6595076217
  0
LINE
  5
670
100
AcDbEntity
  8
0
100
AcDbLine
 62
7
  6
CONTINUOUS
 10
422.9268587491
 20
101.6078743692
 11
422.9268587491
 21
102.691101776
  0
LINE
  5
671
100
AcDbEntity
  8
0
100
AcDbLine
 62
7
  6
CONTINUOUS
 10
423.0518582723
 20
103.0070430661
 11
423.0518582723
 21
102.8265051861
  0
LINE
  5
672
100
AcDbEntity
  8
KONSTRUKTIONSELEMENTE
100
AcDbLine
 62
7
  6
CONTINUOUS
 10
423.0518585107
 20
121.4936967006
 11
423.0518585107
 21
179.6410280978
  0
LINE
  5
673
100
AcDbEntity
  8
0
100
AcDbLine
 62
7
  6
CONTINUOUS
 10
423.2393582723
 20
103.0521775361
 11
423.2393582723
 21
102.8716396561
  0
LINE
  5
674
100
AcDbEntity
  8
0
100
AcDbLine
 62
7
  6
CONTINUOUS
 10
423.4893587491
 20
103.0521775361
 11
423.4893587491
 21
102.8400455018
  0
LINE
  5
675
100
AcDbEntity
  8
RUNDUNGEN
100
AcDbLine
 62
7
  6
CONTINUOUS
 10
423.5518585107
 20
68.5184723068
 11
423.5518585107
 21
65.4946912768
  0
LINE
  5
676
100
AcDbEntity
  8
RUNDUNGEN
100
AcDbLine
 62
7
  6
CONTINUOUS
 10
423.5518585107
 20
69.708690134
 11
423.5518585107
 21
72.26294295
  0
LINE
  5
677
100
AcDbEntity
  8
BEZUGSACHSEN
100
AcDbLine
 62
7
  6
CONTINUOUS
 10
423.5518585107
 20
69.708690134
 11
423.5518585107
 21
72.26294295
  0
LINE
  5
678
100
AcDbEntity
  8
0
100
AcDbLine
 62
7
  6
CONTINUOUS
 10
423.6143582723
 20
102.691101776
 11
423.6143582723
 21
101.6078743692
  0
LINE
  5
679
100
AcDbEntity
  8
BEZUGSACHSEN
100
AcDbLine
 62
7
  6
CONTINUOUS
 10
423.6518585107
 20
70.8173418997
 11
423.6518585107
 21
72.26294295
  0
LINE
  5
67A
100
AcDbEntity
  8
0
100
AcDbLine
 62
7
  6
CONTINUOUS
 10
423.6768587491
 20
103.0070430661
 11
423.6768587491
 21
102.7949110318
  0
LINE
  5
67B
100
AcDbEntity
  8
0
100
AcDbLine
 62
7
  6
CONTINUOUS
 10
423.8018582723
 20
102.9167741261
 11
423.8018582723
 21
102.7046420917
  0
LINE
  5
67C
100
AcDbEntity
  8
0
100
AcDbLine
 62
7
  6
CONTINUOUS
 10
423.9268585107
 20
101.6078743692
 11
423.9268585107
 21
102.691101776
  0
LINE
  5
67D
100
AcDbEntity
  8
RUNDUNGEN
100
AcDbLine
 62
7
  6
CONTINUOUS
 10
428.4518585107
 20
67.3839061598
 11
428.4518585107
 21
73.6771565124
  0
LINE
  5
67E
100
AcDbEntity
  8
0
100
AcDbLine
 62
7
  6
CONTINUOUS
 10
422.2940303799
 20
51.2979161954
 11
422.2890739745
 21
51.0713985623
  0
LINE
  5
67F
100
AcDbEntity
  8
0
100
AcDbLine
 62
7
  6
CONTINUOUS
 10
410.0179905073
 20
89.3278167558
 11
410.0067772399
 21
89.1663122141
  0
LINE
  5
680
100
AcDbEntity
  8
0
100
AcDbLine
 62
7
  6
CONTINUOUS
 10
410.0179905073
 20
89.1156847214
 11
410.0100240616
 21
89.0009441085
  0
LINE
  5
681
100
AcDbEntity
  8
0
100
AcDbLine
 62
7
  6
CONTINUOUS
 10
407.709242673
 20
89.5185067774
 11
407.7176360657
 21
89.5894756252
  0
LINE
  5
682
100
AcDbEntity
  8
0
100
AcDbLine
 62
7
  6
CONTINUOUS
 10
408.4831255588
 20
89.5082536457
 11
408.4747321282
 21
89.4372847749
  0
LINE
  5
683
100
AcDbEntity
  8
0
100
AcDbLine
 62
7
  6
CONTINUOUS
 10
408.4831255588
 20
89.2961216114
 11
408.476997011
 21
89.2443029768
  0
LINE
  5
684
100
AcDbEntity
  8
0
100
AcDbLine
 62
7
  6
CONTINUOUS
 10
408.7966553638
 20
89.8066456315
 11
408.8050487771
 21
89.8776144732
  0
LINE
  5
685
100
AcDbEntity
  8
0
100
AcDbLine
 62
7
  6
CONTINUOUS
 10
409.2545852385
 20
99.8380476098
 11
409.2705903641
 21
99.9587002052
  0
LINE
  5
686
100
AcDbEntity
  8
RUNDUNGEN
100
AcDbLine
 62
7
  6
CONTINUOUS
 10
431.9011643115
 20
99.0837147348
 11
431.9011643115
 21
102.6192486408
  0
LINE
  5
687
100
AcDbEntity
  8
RUNDUNGEN
100
AcDbLine
 62
7
  6
CONTINUOUS
 10
432.2313605288
 20
77.7988662115
 11
432.2313605288
 21
82.7015682605
  0
LINE
  5
688
100
AcDbEntity
  8
RUNDUNGEN
100
AcDbLine
 62
7
  6
CONTINUOUS
 10
432.3836988235
 20
83.3324346623
 11
432.3836988235
 21
77.6450269063
  0
LINE
  5
689
100
AcDbEntity
  8
BEZUGSACHSEN
100
AcDbLine
 62
7
  6
CONTINUOUS
 10
432.3836988235
 20
83.3324346623
 11
432.3836988235
 21
77.6450269063
  0
LINE
  5
68A
100
AcDbEntity
  8
RUNDUNGEN
100
AcDbLine
 62
7
  6
CONTINUOUS
 10
432.9518585107
 20
69.293094469
 11
432.9518585107
 21
76.4024193269
  0
LINE
  5
68B
100
AcDbEntity
  8
KONSTRUKTIONSELEMENTE
100
AcDbLine
 62
7
  6
CONTINUOUS
 10
436.0518585107
 20
121.4936967006
 11
436.0518585107
 21
152.4936967006
  0
LINE
  5
68C
100
AcDbEntity
  8
KONSTRUKTIONSELEMENTE
100
AcDbLine
 62
7
  6
CONTINUOUS
 10
436.0518585107
 20
152.5335083059
 11
436.0518585107
 21
184.4936967006
  0
LINE
  5
68D
100
AcDbEntity
  8
RUNDUNGEN
100
AcDbLine
 62
7
  6
CONTINUOUS
 10
438.3034976002
 20
106.017325925
 11
438.3034976002
 21
109.552859831
  0
LINE
  5
68E
100
AcDbEntity
  8
KONSTRUKTIONSELEMENTE
100
AcDbLine
 62
7
  6
CONTINUOUS
 10
440.0518585107
 20
124.4936967006
 11
440.0518585107
 21
150.4936967006
  0
LINE
  5
68F
100
AcDbEntity
  8
0
100
AcDbLine
 62
7
  6
CONTINUOUS
 10
424.7216823868
 20
55.8905444638
 11
424.7294101606
 21
56.1151562796
  0
LINE
  5
690
100
AcDbEntity
  8
0
100
AcDbLine
 62
7
  6
CONTINUOUS
 10
425.3050749198
 20
55.6167761179
 11
425.2896193721
 21
55.1675524862
  0
LINE
  5
691
100
AcDbEntity
  8
0
100
AcDbLine
 62
7
  6
CONTINUOUS
 10
425.5890425036
 20
55.255279038
 11
425.5967702774
 21
55.4798908538
  0
LINE
  5
692
100
AcDbEntity
  8
0
100
AcDbLine
 62
7
  6
CONTINUOUS
 10
426.9985501225
 20
55.6813262196
 11
426.9908223487
 21
55.4567144037
  0
LINE
  5
693
100
AcDbEntity
  8
0
100
AcDbLine
 62
7
  6
CONTINUOUS
 10
424.437714803
 20
56.2520415437
 11
424.4078275633
 21
55.8901439377
  0
LINE
  5
694
100
AcDbEntity
  8
0
100
AcDbLine
 62
7
  6
CONTINUOUS
 10
427.282518575
 20
55.3198302602
 11
427.3124049639
 21
55.6817267325
  0
LINE
  5
695
100
AcDbEntity
  8
0
100
AcDbLine
 62
7
  6
CONTINUOUS
 10
416.1143585125
 20
103.1424464762
 11
416.0518585107
 21
102.8265051861
  0
LINE
  5
696
100
AcDbEntity
  8
0
100
AcDbLine
 62
7
  6
CONTINUOUS
 10
416.1143585125
 20
102.9303144418
 11
416.0518585107
 21
102.6143731517
  0
LINE
  5
697
100
AcDbEntity
  8
0
100
AcDbLine
 62
7
  6
CONTINUOUS
 10
409.115874783
 20
99.9380223717
 11
409.1006905349
 21
99.8676197612
  0
LINE
  5
698
100
AcDbEntity
  8
0
100
AcDbLine
 62
7
  6
CONTINUOUS
 10
409.115874783
 20
99.7258903373
 11
409.1108931312
 21
99.7027926318
  0
LINE
  5
699
100
AcDbEntity
  8
0
100
AcDbLine
 62
7
  6
CONTINUOUS
 10
416.3643585032
 20
102.8265051861
 11
416.4268585107
 21
103.0973120062
  0
LINE
  5
69A
100
AcDbEntity
  8
0
100
AcDbLine
 62
7
  6
CONTINUOUS
 10
408.8862380481
 20
89.1275819746
 11
408.8618966403
 21
89.028559961
  0
LINE
  5
69B
100
AcDbEntity
  8
0
100
AcDbLine
 62
7
  6
CONTINUOUS
 10
410.1641779593
 20
89.1692351667
 11
410.1885194264
 21
89.2682571304
  0
LINE
  5
69C
100
AcDbEntity
  8
0
100
AcDbLine
 62
7
  6
CONTINUOUS
 10
440.5518585107
 20
80.740892687
 11
440.5518585107
 21
79.7416607294
  0
LINE
  5
69D
100
AcDbEntity
  8
BEZUGSACHSEN
100
AcDbLine
 62
7
  6
CONTINUOUS
 10
440.5518585107
 20
80.740892687
 11
440.5518585107
 21
79.7416607294
  0
LINE
  5
69E
100
AcDbEntity
  8
0
100
AcDbLine
 62
7
  6
CONTINUOUS
 10
440.5518585107
 20
74.2457326719
 11
440.5518585107
 21
73.6327176154
  0
LINE
  5
69F
100
AcDbEntity
  8
BEZUGSACHSEN
100
AcDbLine
 62
7
  6
CONTINUOUS
 10
440.5518585107
 20
74.2457326719
 11
440.5518585107
 21
73.6327176154
  0
LINE
  5
6A0
100
AcDbEntity
  8
0
100
AcDbLine
 62
7
  6
CONTINUOUS
 10
409.2018585181
 20
103.6253854571
 11
409.1393585107
 21
103.444847577
  0
LINE
  5
6A1
100
AcDbEntity
  8
0
100
AcDbLine
 62
7
  6
CONTINUOUS
 10
409.2018585181
 20
103.4132534227
 11
409.1491254487
 21
103.2609283759
  0
LINE
  5
6A2
100
AcDbEntity
  8
0
100
AcDbLine
 62
7
  6
CONTINUOUS
 10
406.7149078268
 20
100.5753729102
 11
406.6679067232
 21
100.4441115673
  0
LINE
  5
6A3
100
AcDbEntity
  8
0
100
AcDbLine
 62
7
  6
CONTINUOUS
 10
407.5908015468
 20
100.8608641787
 11
407.4419647315
 21
100.4452032953
  0
LINE
  5
6A4
100
AcDbEntity
  8
0
100
AcDbLine
 62
7
  6
CONTINUOUS
 10
407.3949636279
 20
100.3139419524
 11
407.2852944008
 21
100.0076655265
  0
LINE
  5
6A5
100
AcDbEntity
  8
0
100
AcDbLine
 62
7
  6
CONTINUOUS
 10
407.3949636279
 20
100.101809918
 11
407.3566768999
 21
99.9948854643
  0
LINE
  5
6A6
100
AcDbEntity
  8
0
100
AcDbLine
 62
7
  6
CONTINUOUS
 10
407.5908015468
 20
100.6487321444
 11
407.4419647315
 21
100.2330712609
  0
LINE
  5
6A7
100
AcDbEntity
  8
0
100
AcDbLine
 62
7
  6
CONTINUOUS
 10
407.4670586269
 20
99.9751231227
 11
407.5767278541
 21
100.2813995487
  0
LINE
  5
6A8
100
AcDbEntity
  8
0
100
AcDbLine
 62
7
  6
CONTINUOUS
 10
407.6237289577
 20
100.4126608916
 11
407.8352338965
 21
101.003336858
  0
LINE
  5
6A9
100
AcDbEntity
  8
0
100
AcDbLine
 62
7
  6
CONTINUOUS
 10
407.8796682022
 20
100.2271622143
 11
407.9266693058
 21
100.3584235572
  0
LINE
  5
6AA
100
AcDbEntity
  8
0
100
AcDbLine
 62
7
  6
CONTINUOUS
 10
407.6192378233
 20
89.7657456168
 11
407.5612582294
 21
89.6115956921
  0
LINE
  5
6AB
100
AcDbEntity
  8
0
100
AcDbLine
 62
7
  6
CONTINUOUS
 10
407.6192378233
 20
89.5536135825
 11
407.575139957
 21
89.4363709061
  0
LINE
  5
6AC
100
AcDbEntity
  8
0
100
AcDbLine
 62
7
  6
CONTINUOUS
 10
420.0157426262
 20
52.2640934403
 11
419.939024671
 21
51.9184609088
  0
LINE
  5
6AD
100
AcDbEntity
  8
0
100
AcDbLine
 62
7
  6
CONTINUOUS
 10
422.5946562723
 20
50.8146055162
 11
422.6713742159
 21
51.1602380665
  0
LINE
  5
6AE
100
AcDbEntity
  8
0
100
AcDbLine
 62
7
  6
CONTINUOUS
 10
408.9171436413
 20
89.1953626749
 11
408.8862380481
 21
89.1275819746
  0
LINE
  5
6AF
100
AcDbEntity
  8
0
100
AcDbLine
 62
7
  6
CONTINUOUS
 10
408.9171436413
 20
88.9832306406
 11
408.8927558501
 21
88.9297444785
  0
LINE
  5
6B0
100
AcDbEntity
  8
0
100
AcDbLine
 62
7
  6
CONTINUOUS
 10
410.133272386
 20
89.1014543781
 11
410.1641779593
 21
89.1692351667
  0
LINE
  5
6B1
100
AcDbEntity
  8
0
100
AcDbLine
 62
7
  6
CONTINUOUS
 10
409.5143585107
 20
103.3997129805
 11
409.5768584958
 21
103.535116517
  0
LINE
  5
6B2
100
AcDbEntity
  8
0
100
AcDbLine
 62
7
  6
CONTINUOUS
 10
416.4268585107
 20
103.0973120062
 11
416.4893584958
 21
103.2327155426
  0
LINE
  5
6B3
100
AcDbEntity
  8
0
100
AcDbLine
 62
7
  6
CONTINUOUS
 10
416.4268585107
 20
102.3751604227
 11
416.4893584958
 21
102.510563896
  0
LINE
  5
6B4
100
AcDbEntity
  8
0
100
AcDbLine
 62
7
  6
CONTINUOUS
 10
417.9893584511
 20
102.2397570127
 11
417.9268585107
 21
102.1043536026
  0
LINE
  5
6B5
100
AcDbEntity
  8
0
100
AcDbLine
 62
7
  6
CONTINUOUS
 10
417.9893584511
 20
102.0276249783
 11
417.9268585107
 21
101.8922215683
  0
LINE
  5
6B6
100
AcDbEntity
  8
0
100
AcDbLine
 62
7
  6
CONTINUOUS
 10
410.110530966
 20
100.407138795
 11
410.0689284314
 21
100.3237893978
  0
LINE
  5
6B7
100
AcDbEntity
  8
0
100
AcDbLine
 62
7
  6
CONTINUOUS
 10
410.3341444627
 20
100.2576002022
 11
410.3757469973
 21
100.3409495993
  0
LINE
  5
6B8
100
AcDbEntity
  8
0
100
AcDbLine
 62
7
  6
CONTINUOUS
 10
424.7294101606
 20
56.1151562796
 11
424.7881591094
 21
56.3023995471
  0
LINE
  5
6B9
100
AcDbEntity
  8
0
100
AcDbLine
 62
7
  6
CONTINUOUS
 10
425.5967702774
 20
55.4798908538
 11
425.6555192262
 21
55.6671341213
  0
LINE
  5
6BA
100
AcDbEntity
  8
0
100
AcDbLine
 62
7
  6
CONTINUOUS
 10
426.9908223487
 20
55.4567144037
 11
426.9320733999
 21
55.2694711362
  0
LINE
  5
6BB
100
AcDbEntity
  8
0
100
AcDbLine
 62
7
  6
CONTINUOUS
 10
416.2393585107
 20
103.3681189527
 11
416.1143585125
 21
103.1424464762
  0
LINE
  5
6BC
100
AcDbEntity
  8
0
100
AcDbLine
 62
7
  6
CONTINUOUS
 10
416.2393585107
 20
103.1559869183
 11
416.1143585125
 21
102.9303144418
  0
LINE
  5
6BD
100
AcDbEntity
  8
0
100
AcDbLine
 62
7
  6
CONTINUOUS
 10
418.1768584511
 20
101.968950161
 11
418.3018585107
 21
102.1946225427
  0
LINE
  5
6BE
100
AcDbEntity
  8
0
100
AcDbLine
 62
7
  6
CONTINUOUS
 10
407.7060136585
 20
89.9113124465
 11
407.6192378233
 21
89.7657456168
  0
LINE
  5
6BF
100
AcDbEntity
  8
0
100
AcDbLine
 62
7
  6
CONTINUOUS
 10
407.7060136585
 20
89.6991804122
 11
407.6192378233
 21
89.5536135825
  0
LINE
  5
6C0
100
AcDbEntity
  8
0
100
AcDbLine
 62
7
  6
CONTINUOUS
 10
407.8252018486
 20
89.8268065963
 11
407.8499949444
 21
89.868397119
  0
LINE
  5
6C1
100
AcDbEntity
  8
0
100
AcDbLine
 62
7
  6
CONTINUOUS
 10
407.7176360657
 20
89.5894756252
 11
407.7548257094
 21
89.6518614093
  0
LINE
  5
6C2
100
AcDbEntity
  8
0
100
AcDbLine
 62
7
  6
CONTINUOUS
 10
408.4747321282
 20
89.4372847749
 11
408.4375424845
 21
89.3748989908
  0
LINE
  5
6C3
100
AcDbEntity
  8
0
100
AcDbLine
 62
7
  6
CONTINUOUS
 10
408.5691272533
 20
89.3111883927
 11
408.6311100102
 21
89.4151647287
  0
LINE
  5
6C4
100
AcDbEntity
  8
0
100
AcDbLine
 62
7
  6
CONTINUOUS
 10
411.1393585703
 20
102.1359477253
 11
411.2643584511
 21
102.316485637
  0
LINE
  5
6C5
100
AcDbEntity
  8
RUNDUNGEN
100
AcDbLine
 62
7
  6
CONTINUOUS
 10
387.1621200454
 20
84.8005850416
 11
384.9637262256
 21
81.6609532898
  0
LINE
  5
6C6
100
AcDbEntity
  8
0
100
AcDbLine
 62
7
  6
CONTINUOUS
 10
408.6808656285
 20
100.800641823
 11
408.3074143236
 21
100.2766757168
  0
LINE
  5
6C7
100
AcDbEntity
  8
0
100
AcDbLine
 62
7
  6
CONTINUOUS
 10
408.6808656285
 20
100.5885097886
 11
408.4279845122
 21
100.2337081529
  0
LINE
  5
6C8
100
AcDbEntity
  8
0
100
AcDbLine
 62
7
  6
CONTINUOUS
 10
408.5187630679
 20
100.3277137269
 11
408.748579271
 21
100.6501544294
  0
LINE
  5
6C9
100
AcDbEntity
  8
0
100
AcDbLine
 62
7
  6
CONTINUOUS
 10
409.1006905349
 20
99.8676197612
 11
409.0719635146
 21
99.8273146805
  0
LINE
  5
6CA
100
AcDbEntity
  8
0
100
AcDbLine
 62
7
  6
CONTINUOUS
 10
409.5578606079
 20
100.3617510692
 11
409.6296781588
 21
100.4625137711
  0
LINE
  5
6CB
100
AcDbEntity
  8
0
100
AcDbLine
 62
7
  6
CONTINUOUS
 10
409.1971311978
 20
99.7574374483
 11
409.2545852385
 21
99.8380476098
  0
LINE
  5
6CC
100
AcDbEntity
  8
0
100
AcDbLine
 62
7
  6
CONTINUOUS
 10
420.321324889
 20
52.0073004506
 11
420.4122663789
 21
52.2128237625
  0
LINE
  5
6CD
100
AcDbEntity
  8
0
100
AcDbLine
 62
7
  6
CONTINUOUS
 10
422.2890739745
 20
51.0713985623
 11
422.1981325079
 21
50.8658752128
  0
LINE
  5
6CE
100
AcDbEntity
  8
0
100
AcDbLine
 62
7
  6
CONTINUOUS
 10
410.6023822741
 20
89.349274139
 11
410.5514258948
 21
89.2685633519
  0
LINE
  5
6CF
100
AcDbEntity
  8
0
100
AcDbLine
 62
7
  6
CONTINUOUS
 10
410.8082459242
 20
89.1874922875
 11
410.8592023036
 21
89.2682030746
  0
LINE
  5
6D0
100
AcDbEntity
  8
0
100
AcDbLine
 62
7
  6
CONTINUOUS
 10
408.98551898
 20
89.2996828378
 11
408.9171436413
 21
89.1953626749
  0
LINE
  5
6D1
100
AcDbEntity
  8
0
100
AcDbLine
 62
7
  6
CONTINUOUS
 10
408.98551898
 20
89.0875508034
 11
408.9171436413
 21
88.9832306406
  0
LINE
  5
6D2
100
AcDbEntity
  8
0
100
AcDbLine
 62
7
  6
CONTINUOUS
 10
410.0648970011
 20
88.9971342779
 11
410.133272386
 21
89.1014543781
  0
LINE
  5
6D3
100
AcDbEntity
  8
0
100
AcDbLine
 62
7
  6
CONTINUOUS
 10
420.1143583915
 20
102.691101776
 11
420.1768585107
 21
102.7813707161
  0
LINE
  5
6D4
100
AcDbEntity
  8
0
100
AcDbLine
 62
7
  6
CONTINUOUS
 10
422.9268587491
 20
102.691101776
 11
422.9893585107
 21
102.7813707161
  0
LINE
  5
6D5
100
AcDbEntity
  8
0
100
AcDbLine
 62
7
  6
CONTINUOUS
 10
409.0436386425
 20
89.1305049131
 11
409.1307489133
 21
89.2530947573
  0
LINE
  5
6D6
100
AcDbEntity
  8
0
100
AcDbLine
 62
7
  6
CONTINUOUS
 10
410.0067772399
 20
89.1663122141
 11
409.9196671402
 21
89.0437223213
  0
LINE
  5
6D7
100
AcDbEntity
  8
0
100
AcDbLine
 62
7
  6
CONTINUOUS
 10
410.0067772399
 20
88.9541801797
 11
409.975021005
 21
88.9094896852
  0
LINE
  5
6D8
100
AcDbEntity
  8
0
100
AcDbLine
 62
7
  6
CONTINUOUS
 10
410.8893584511
 20
102.361620107
 11
410.7643585703
 21
102.226216697
  0
LINE
  5
6D9
100
AcDbEntity
  8
0
100
AcDbLine
 62
7
  6
CONTINUOUS
 10
410.8893584511
 20
102.1494880726
 11
410.7643585703
 21
102.0140846626
  0
LINE
  5
6DA
100
AcDbEntity
  8
0
100
AcDbLine
 62
7
  6
CONTINUOUS
 10
424.5696435551
 20
56.5392009095
 11
424.437714803
 21
56.2520415437
  0
LINE
  5
6DB
100
AcDbEntity
  8
0
100
AcDbLine
 62
7
  6
CONTINUOUS
 10
425.4370036719
 20
55.9039354837
 11
425.3050749198
 21
55.6167761179
  0
LINE
  5
6DC
100
AcDbEntity
  8
0
100
AcDbLine
 62
7
  6
CONTINUOUS
 10
427.1505889899
 20
55.0326697476
 11
427.282518575
 21
55.3198302602
  0
LINE
  5
6DD
100
AcDbEntity
  8
0
100
AcDbLine
 62
7
  6
CONTINUOUS
 10
407.8215857525
 20
90.0482962103
 11
407.7060136585
 21
89.9113124465
  0
LINE
  5
6DE
100
AcDbEntity
  8
0
100
AcDbLine
 62
7
  6
CONTINUOUS
 10
407.8215857525
 20
89.8361641759
 11
407.7060136585
 21
89.6991804122
  0
LINE
  5
6DF
100
AcDbEntity
  8
0
100
AcDbLine
 62
7
  6
CONTINUOUS
 10
407.8499949444
 20
89.868397119
 11
407.953170493
 21
89.9845856206
  0
LINE
  5
6E0
100
AcDbEntity
  8
0
100
AcDbLine
 62
7
  6
CONTINUOUS
 10
416.4893584958
 20
103.2327155426
 11
416.6143585107
 21
103.3681189527
  0
LINE
  5
6E1
100
AcDbEntity
  8
0
100
AcDbLine
 62
7
  6
CONTINUOUS
 10
417.9268585107
 20
102.1043536026
 11
417.8018584511
 21
101.968950161
  0
LINE
  5
6E2
100
AcDbEntity
  8
0
100
AcDbLine
 62
7
  6
CONTINUOUS
 10
417.9268585107
 20
101.8922215683
 11
417.8018584511
 21
101.7568181266
  0
LINE
  5
6E3
100
AcDbEntity
  8
RUNDUNGEN
100
AcDbLine
 62
7
  6
CONTINUOUS
 10
392.6944023778
 20
77.6191586899
 11
401.6126080779
 21
86.6252367202
  0
LINE
  5
6E4
100
AcDbEntity
  8
RUNDUNGEN
100
AcDbLine
 62
7
  6
CONTINUOUS
 10
424.3496880126
 20
109.5863482892
 11
425.0632470199
 21
110.3069380933
  0
LINE
  5
6E5
100
AcDbEntity
  8
0
100
AcDbLine
 62
7
  6
CONTINUOUS
 10
409.154132717
 20
89.4641103039
 11
408.98551898
 21
89.2996828378
  0
LINE
  5
6E6
100
AcDbEntity
  8
0
100
AcDbLine
 62
7
  6
CONTINUOUS
 10
409.1307489133
 20
89.2530947573
 11
409.2618929309
 21
89.3809827865
  0
LINE
  5
6E7
100
AcDbEntity
  8
0
100
AcDbLine
 62
7
  6
CONTINUOUS
 10
409.0753948723
 20
89.1751952949
 11
408.98551898
 21
89.0875508034
  0
LINE
  5
6E8
100
AcDbEntity
  8
0
100
AcDbLine
 62
7
  6
CONTINUOUS
 10
416.4268585107
 20
103.5486568327
 11
416.2393585107
 21
103.3681189527
  0
LINE
  5
6E9
100
AcDbEntity
  8
0
100
AcDbLine
 62
7
  6
CONTINUOUS
 10
416.4268585107
 20
103.3365247984
 11
416.2393585107
 21
103.1559869183
  0
LINE
  5
6EA
100
AcDbEntity
  8
0
100
AcDbLine
 62
7
  6
CONTINUOUS
 10
417.9893584511
 20
101.7884122651
 11
418.1768584511
 21
101.968950161
  0
LINE
  5
6EB
100
AcDbEntity
  8
RUNDUNGEN
100
AcDbLine
 62
7
  6
CONTINUOUS
 10
386.4411860235
 20
110.4793841516
 11
390.9465222671
 21
112.7100729838
  0
LINE
  5
6EC
100
AcDbEntity
  8
0
100
AcDbLine
 62
7
  6
CONTINUOUS
 10
420.1592669293
 20
52.5023239854
 11
420.0157426262
 21
52.2640934403
  0
LINE
  5
6ED
100
AcDbEntity
  8
0
100
AcDbLine
 62
7
  6
CONTINUOUS
 10
422.4511325798
 20
50.5763753313
 11
422.5946562723
 21
50.8146055162
  0
LINE
  5
6EE
100
AcDbEntity
  8
RUNDUNGEN
100
AcDbLine
 62
7
  6
CONTINUOUS
 10
429.1830547861
 20
105.5911569295
 11
430.9037840951
 21
107.3288408255
  0
LINE
  5
6EF
100
AcDbEntity
  8
RUNDUNGEN
100
AcDbLine
 62
7
  6
CONTINUOUS
 10
430.6719216835
 20
103.5591599352
 11
430.9037840951
 21
103.7933069196
  0
LINE
  5
6F0
100
AcDbEntity
  8
RUNDUNGEN
100
AcDbLine
 62
7
  6
CONTINUOUS
 10
437.7609537331
 20
108.3361204679
 11
436.2122973549
 21
106.7722049615
  0
LINE
  5
6F1
100
AcDbEntity
  8
RUNDUNGEN
100
AcDbLine
 62
7
  6
CONTINUOUS
 10
431.7384011514
 20
102.2542268319
 11
423.4911089435
 21
93.9256728983
  0
LINE
  5
6F2
100
AcDbEntity
  8
RUNDUNGEN
100
AcDbLine
 62
7
  6
CONTINUOUS
 10
409.6029111512
 20
79.9006327474
 11
406.4365349882
 21
76.7030578365
  0
LINE
  5
6F3
100
AcDbEntity
  8
RUNDUNGEN
100
AcDbLine
 62
7
  6
CONTINUOUS
 10
437.7609537331
 20
104.800586562
 11
436.2122973549
 21
103.2366710556
  0
LINE
  5
6F4
100
AcDbEntity
  8
RUNDUNGEN
100
AcDbLine
 62
7
  6
CONTINUOUS
 10
431.7384011514
 20
98.7186929259
 11
423.4911089435
 21
90.3901389924
  0
LINE
  5
6F5
100
AcDbEntity
  8
RUNDUNGEN
100
AcDbLine
 62
7
  6
CONTINUOUS
 10
409.6029111512
 20
76.3650988415
 11
406.4365349882
 21
73.1675239305
  0
LINE
  5
6F6
100
AcDbEntity
  8
0
100
AcDbLine
 62
7
  6
CONTINUOUS
 10
409.9196671402
 20
89.0437223213
 11
409.7885231225
 21
88.9158342921
  0
LINE
  5
6F7
100
AcDbEntity
  8
0
100
AcDbLine
 62
7
  6
CONTINUOUS
 10
409.8962832641
 20
88.8327068118
 11
410.0648970011
 21
88.9971342779
  0
LINE
  5
6F8
100
AcDbEntity
  8
0
100
AcDbLine
 62
7
  6
CONTINUOUS
 10
407.953170493
 20
89.9845856206
 11
408.0191564224
 21
90.0383883994
  0
LINE
  5
6F9
100
AcDbEntity
  8
0
100
AcDbLine
 62
7
  6
CONTINUOUS
 10
407.7548257094
 20
89.6518614093
 11
407.8208116214
 21
89.705664159
  0
LINE
  5
6FA
100
AcDbEntity
  8
0
100
AcDbLine
 62
7
  6
CONTINUOUS
 10
408.4375424845
 20
89.3748989908
 11
408.3715566104
 21
89.3210962641
  0
LINE
  5
6FB
100
AcDbEntity
  8
0
100
AcDbLine
 62
7
  6
CONTINUOUS
 10
407.9411610415
 20
90.1351064443
 11
407.8215857525
 21
90.0482962103
  0
LINE
  5
6FC
100
AcDbEntity
  8
0
100
AcDbLine
 62
7
  6
CONTINUOUS
 10
409.4518585256
 20
103.8059233371
 11
409.2018585181
 21
103.6253854571
  0
LINE
  5
6FD
100
AcDbEntity
  8
0
100
AcDbLine
 62
7
  6
CONTINUOUS
 10
409.4518585256
 20
103.5937913028
 11
409.2018585181
 21
103.4132534227
  0
LINE
  5
6FE
100
AcDbEntity
  8
0
100
AcDbLine
 62
7
  6
CONTINUOUS
 10
410.8893584511
 20
101.9554098295
 11
411.1393585703
 21
102.1359477253
  0
LINE
  5
6FF
100
AcDbEntity
  8
0
100
AcDbLine
 62
7
  6
CONTINUOUS
 10
416.4893584958
 20
102.510563896
 11
416.6143585107
 21
102.600832836
  0
LINE
  5
700
100
AcDbEntity
  8
0
100
AcDbLine
 62
7
  6
CONTINUOUS
 10
419.2393585107
 20
103.0070430661
 11
419.1143586299
 21
102.9167741261
  0
LINE
  5
701
100
AcDbEntity
  8
0
100
AcDbLine
 62
7
  6
CONTINUOUS
 10
419.1143586299
 20
102.736236246
 11
419.2393585107
 21
102.8265051861
  0
LINE
  5
702
100
AcDbEntity
  8
0
100
AcDbLine
 62
7
  6
CONTINUOUS
 10
420.2393586299
 20
103.0070430661
 11
420.0518586299
 21
102.8716396561
  0
LINE
  5
703
100
AcDbEntity
  8
0
100
AcDbLine
 62
7
  6
CONTINUOUS
 10
420.1768585107
 20
102.7813707161
 11
420.2393586299
 21
102.8265051861
  0
LINE
  5
704
100
AcDbEntity
  8
0
100
AcDbLine
 62
7
  6
CONTINUOUS
 10
420.1331081896
 20
102.7181821148
 11
420.0518586299
 21
102.6595076217
  0
LINE
  5
705
100
AcDbEntity
  8
0
100
AcDbLine
 62
7
  6
CONTINUOUS
 10
422.0518585107
 20
103.0070430661
 11
421.9268586299
 21
102.9167741261
  0
LINE
  5
706
100
AcDbEntity
  8
0
100
AcDbLine
 62
7
  6
CONTINUOUS
 10
421.9268586299
 20
102.736236246
 11
422.0518585107
 21
102.8265051861
  0
LINE
  5
707
100
AcDbEntity
  8
0
100
AcDbLine
 62
7
  6
CONTINUOUS
 10
423.0518582723
 20
103.0070430661
 11
422.8643582723
 21
102.8716396561
  0
LINE
  5
708
100
AcDbEntity
  8
0
100
AcDbLine
 62
7
  6
CONTINUOUS
 10
422.9893585107
 20
102.7813707161
 11
423.0518582723
 21
102.8265051861
  0
LINE
  5
709
100
AcDbEntity
  8
0
100
AcDbLine
 62
7
  6
CONTINUOUS
 10
422.9456090479
 20
102.7181829929
 11
422.8643582723
 21
102.6595076217
  0
LINE
  5
70A
100
AcDbEntity
  8
0
100
AcDbLine
 62
7
  6
CONTINUOUS
 10
412.5518585107
 20
100.5090388847
 11
409.9920144552
 21
98.6870578712
  0
LINE
  5
70B
100
AcDbEntity
  8
0
100
AcDbLine
 62
7
  6
CONTINUOUS
 10
409.7805784578
 20
98.5365673083
 11
405.5518585107
 21
95.526756051
  0
LINE
  5
70C
100
AcDbEntity
  8
0
100
AcDbLine
 62
7
  6
CONTINUOUS
 10
412.5518585107
 20
100.2969068503
 11
409.9920144552
 21
98.4749258368
  0
LINE
  5
70D
100
AcDbEntity
  8
0
100
AcDbLine
 62
7
  6
CONTINUOUS
 10
409.7805784578
 20
98.324435274
 11
405.5518585107
 21
95.3146240167
  0
LINE
  5
70E
100
AcDbEntity
  8
0
100
AcDbLine
 62
7
  6
CONTINUOUS
 10
406.0994654928
 20
95.3146240167
 11
412.5518585107
 21
99.9071450122
  0
LINE
  5
70F
100
AcDbEntity
  8
0
100
AcDbLine
 62
7
  6
CONTINUOUS
 10
409.0719635146
 20
99.8273146805
 11
409.0009666815
 21
99.7768020204
  0
LINE
  5
710
100
AcDbEntity
  8
0
100
AcDbLine
 62
7
  6
CONTINUOUS
 10
409.0695011914
 20
99.6765645977
 11
409.1971311978
 21
99.7574374483
  0
LINE
  5
711
100
AcDbEntity
  8
RUNDUNGEN
100
AcDbLine
 62
7
  6
CONTINUOUS
 10
407.3896705835
 20
110.2821431192
 11
401.2460302513
 21
107.2402947117
  0
LINE
  5
712
100
AcDbEntity
  8
0
100
AcDbLine
 62
7
  6
CONTINUOUS
 10
409.5768584958
 20
103.535116517
 11
409.7643585405
 21
103.6253854571
  0
LINE
  5
713
100
AcDbEntity
  8
RUNDUNGEN
100
AcDbLine
 62
7
  6
CONTINUOUS
 10
437.9415969759
 20
69.1868083597
 11
440.1399907957
 21
72.3264401114
  0
LINE
  5
714
100
AcDbEntity
  8
BEZUGSACHSEN
100
AcDbLine
 62
7
  6
CONTINUOUS
 10
437.9415969759
 20
69.1868083597
 11
440.1399907957
 21
72.3264401114
  0
LINE
  5
715
100
AcDbEntity
  8
0
100
AcDbLine
 62
7
  6
CONTINUOUS
 10
424.7160039992
 20
56.7390342497
 11
424.5696435551
 21
56.5392009095
  0
LINE
  5
716
100
AcDbEntity
  8
0
100
AcDbLine
 62
7
  6
CONTINUOUS
 10
424.7881591094
 20
56.3023995471
 11
425.0076993568
 21
56.6021489856
  0
LINE
  5
717
100
AcDbEntity
  8
0
100
AcDbLine
 62
7
  6
CONTINUOUS
 10
425.6065472947
 20
56.7776043761
 11
425.7894972217
 21
57.0273951936
  0
LINE
  5
718
100
AcDbEntity
  8
0
100
AcDbLine
 62
7
  6
CONTINUOUS
 10
425.619953599
 20
56.1537263013
 11
425.4370036719
 21
55.9039354837
  0
LINE
  5
719
100
AcDbEntity
  8
0
100
AcDbLine
 62
7
  6
CONTINUOUS
 10
425.6555192262
 20
55.6671341213
 11
425.911649794
 21
56.0168421807
  0
LINE
  5
71A
100
AcDbEntity
  8
0
100
AcDbLine
 62
7
  6
CONTINUOUS
 10
426.9320733999
 20
55.2694711362
 11
426.6759428321
 21
54.9197630768
  0
LINE
  5
71B
100
AcDbEntity
  8
0
100
AcDbLine
 62
7
  6
CONTINUOUS
 10
426.9676390629
 20
54.78287893
 11
427.1505889899
 21
55.0326697476
  0
LINE
  5
71C
100
AcDbEntity
  8
0
100
AcDbLine
 62
7
  6
CONTINUOUS
 10
420.4122663789
 20
52.2128237625
 11
420.5366107418
 21
52.364645894
  0
LINE
  5
71D
100
AcDbEntity
  8
0
100
AcDbLine
 62
7
  6
CONTINUOUS
 10
408.449551962
 20
89.2243782108
 11
408.5691272533
 21
89.3111883927
  0
LINE
  5
71E
100
AcDbEntity
  8
0
100
AcDbLine
 62
7
  6
CONTINUOUS
 10
409.2618929309
 20
89.3809827865
 11
409.3996010023
 21
89.4776295895
  0
LINE
  5
71F
100
AcDbEntity
  8
0
100
AcDbLine
 62
7
  6
CONTINUOUS
 10
409.7885231225
 20
88.9158342921
 11
409.6508148802
 21
88.8191875377
  0
LINE
  5
720
100
AcDbEntity
  8
0
100
AcDbLine
 62
7
  6
CONTINUOUS
 10
409.273106001
 20
89.5424873513
 11
409.154132717
 21
89.4641103039
  0
LINE
  5
721
100
AcDbEntity
  8
0
100
AcDbLine
 62
7
  6
CONTINUOUS
 10
409.7773100262
 20
88.7543297017
 11
409.8962832641
 21
88.8327068118
  0
LINE
  5
722
100
AcDbEntity
  8
0
100
AcDbLine
 62
7
  6
CONTINUOUS
 10
409.3546096183
 20
89.5843250129
 11
409.273106001
 21
89.5424873513
  0
LINE
  5
723
100
AcDbEntity
  8
0
100
AcDbLine
 62
7
  6
CONTINUOUS
 10
407.6534696703
 20
101.0358792618
 11
406.7149078268
 21
100.5753729102
  0
LINE
  5
724
100
AcDbEntity
  8
0
100
AcDbLine
 62
7
  6
CONTINUOUS
 10
407.6534696703
 20
100.8237472274
 11
407.5908015468
 21
100.792999047
  0
LINE
  5
725
100
AcDbEntity
  8
0
100
AcDbLine
 62
7
  6
CONTINUOUS
 10
406.9269660834
 20
100.4672874816
 11
406.8231012699
 21
100.416326102
  0
LINE
  5
726
100
AcDbEntity
  8
0
100
AcDbLine
 62
7
  6
CONTINUOUS
 10
406.9269660834
 20
100.5374067738
 11
407.5908015468
 21
100.8608641787
  0
LINE
  5
727
100
AcDbEntity
  8
0
100
AcDbLine
 62
7
  6
CONTINUOUS
 10
410.7643585703
 20
102.226216697
 11
410.5768585703
 21
102.1359477253
  0
LINE
  5
728
100
AcDbEntity
  8
0
100
AcDbLine
 62
7
  6
CONTINUOUS
 10
410.7643585703
 20
102.0140846626
 11
410.5768585703
 21
101.923815691
  0
LINE
  5
729
100
AcDbEntity
  8
0
100
AcDbLine
 62
7
  6
CONTINUOUS
 10
416.6143585107
 20
103.3681189527
 11
416.8018585107
 21
103.4583878927
  0
LINE
  5
72A
100
AcDbEntity
  8
0
100
AcDbLine
 62
7
  6
CONTINUOUS
 10
416.7393585256
 20
102.9167741261
 11
416.3643585032
 21
102.736236246
  0
LINE
  5
72B
100
AcDbEntity
  8
0
100
AcDbLine
 62
7
  6
CONTINUOUS
 10
416.7393585256
 20
102.7046420917
 11
416.3643585032
 21
102.5241042117
  0
LINE
  5
72C
100
AcDbEntity
  8
0
100
AcDbLine
 62
7
  6
CONTINUOUS
 10
416.6143585107
 20
102.600832836
 11
416.8018585107
 21
102.691101776
  0
LINE
  5
72D
100
AcDbEntity
  8
0
100
AcDbLine
 62
7
  6
CONTINUOUS
 10
417.8018584511
 20
101.968950161
 11
417.6143584511
 21
101.8786812209
  0
LINE
  5
72E
100
AcDbEntity
  8
0
100
AcDbLine
 62
7
  6
CONTINUOUS
 10
417.8018584511
 20
101.7568181266
 11
417.6143584511
 21
101.6665491866
  0
LINE
  5
72F
100
AcDbEntity
  8
0
100
AcDbLine
 62
7
  6
CONTINUOUS
 10
410.2405388443
 20
100.4684251269
 11
410.110530966
 21
100.407138795
  0
LINE
  5
730
100
AcDbEntity
  8
0
100
AcDbLine
 62
7
  6
CONTINUOUS
 10
410.2405388443
 20
100.2562930926
 11
410.1447460691
 21
100.2111359229
  0
LINE
  5
731
100
AcDbEntity
  8
0
100
AcDbLine
 62
7
  6
CONTINUOUS
 10
410.2041366439
 20
100.1963139894
 11
410.3341444627
 21
100.2576002022
  0
LINE
  5
732
100
AcDbEntity
  8
0
100
AcDbLine
 62
7
  6
CONTINUOUS
 10
416.7393585256
 20
103.6840602428
 11
416.4268585107
 21
103.5486568327
  0
LINE
  5
733
100
AcDbEntity
  8
0
100
AcDbLine
 62
7
  6
CONTINUOUS
 10
416.7393585256
 20
103.4719282084
 11
416.4268585107
 21
103.3365247984
  0
LINE
  5
734
100
AcDbEntity
  8
0
100
AcDbLine
 62
7
  6
CONTINUOUS
 10
417.6768585703
 20
101.6530088432
 11
417.9893584511
 21
101.7884122651
  0
LINE
  5
735
100
AcDbEntity
  8
0
100
AcDbLine
 62
7
  6
CONTINUOUS
 10
409.0009666815
 20
99.7768020204
 11
408.9020636955
 21
99.7362342505
  0
LINE
  5
736
100
AcDbEntity
  8
0
100
AcDbLine
 62
7
  6
CONTINUOUS
 10
409.7018585107
 20
103.8961922771
 11
409.4518585256
 21
103.8059233371
  0
LINE
  5
737
100
AcDbEntity
  8
0
100
AcDbLine
 62
7
  6
CONTINUOUS
 10
409.7018585107
 20
103.6840602428
 11
409.4518585256
 21
103.5937913028
  0
LINE
  5
738
100
AcDbEntity
  8
0
100
AcDbLine
 62
7
  6
CONTINUOUS
 10
410.6393585107
 20
101.8651408776
 11
410.8893584511
 21
101.9554098295
  0
LINE
  5
739
100
AcDbEntity
  8
0
100
AcDbLine
 62
7
  6
CONTINUOUS
 10
420.2393586299
 20
102.8265051861
 11
420.3643585107
 21
102.8716396561
  0
LINE
  5
73A
100
AcDbEntity
  8
0
100
AcDbLine
 62
7
  6
CONTINUOUS
 10
423.0518582723
 20
102.8265051861
 11
423.1768585107
 21
102.8716396561
  0
LINE
  5
73B
100
AcDbEntity
  8
0
100
AcDbLine
 62
7
  6
CONTINUOUS
 10
408.9283283977
 20
99.6257892555
 11
409.0695011914
 21
99.6765645977
  0
LINE
  5
73C
100
AcDbEntity
  8
0
100
AcDbLine
 62
7
  6
CONTINUOUS
 10
420.3361935036
 20
52.6868529759
 11
420.1592669293
 21
52.5023239854
  0
LINE
  5
73D
100
AcDbEntity
  8
0
100
AcDbLine
 62
7
  6
CONTINUOUS
 10
422.1981325079
 20
50.8658752128
 11
422.0212059336
 21
50.6813462223
  0
LINE
  5
73E
100
AcDbEntity
  8
0
100
AcDbLine
 62
7
  6
CONTINUOUS
 10
409.6958063891
 20
88.7124921284
 11
409.7773100262
 21
88.7543297017
  0
LINE
  5
73F
100
AcDbEntity
  8
0
100
AcDbLine
 62
7
  6
CONTINUOUS
 10
408.0191564224
 20
90.0383883994
 11
408.1139385886
 21
90.0836080501
  0
LINE
  5
740
100
AcDbEntity
  8
0
100
AcDbLine
 62
7
  6
CONTINUOUS
 10
408.3715566104
 20
89.3210962641
 11
408.2767744149
 21
89.275876605
  0
LINE
  5
741
100
AcDbEntity
  8
0
100
AcDbLine
 62
7
  6
CONTINUOUS
 10
408.0771360067
 20
90.1925382927
 11
407.9411610415
 21
90.1351064443
  0
LINE
  5
742
100
AcDbEntity
  8
0
100
AcDbLine
 62
7
  6
CONTINUOUS
 10
408.3135769925
 20
89.1669463551
 11
408.449551962
 21
89.2243782108
  0
LINE
  5
743
100
AcDbEntity
  8
0
100
AcDbLine
 62
7
  6
CONTINUOUS
 10
412.5518585107
 20
88.0417882099
 11
410.5267607846
 21
87.2409834245
  0
LINE
  5
744
100
AcDbEntity
  8
0
100
AcDbLine
 62
7
  6
CONTINUOUS
 10
410.2649238228
 20
87.1374425981
 11
405.5518585107
 21
85.2737077238
  0
LINE
  5
745
100
AcDbEntity
  8
0
100
AcDbLine
 62
7
  6
CONTINUOUS
 10
412.5518585107
 20
87.8296561755
 11
410.5267607846
 21
87.0288513901
  0
LINE
  5
746
100
AcDbEntity
  8
0
100
AcDbLine
 62
7
  6
CONTINUOUS
 10
410.2649238228
 20
86.9253105638
 11
405.7306736677
 21
85.1322863676
  0
LINE
  5
747
100
AcDbEntity
  8
0
100
AcDbLine
 62
7
  6
CONTINUOUS
 10
406.9695414164
 20
85.344418402
 11
412.5518585107
 21
87.5518902613
  0
LINE
  5
748
100
AcDbEntity
  8
0
100
AcDbLine
 62
7
  6
CONTINUOUS
 10
410.73894533
 20
89.402961238
 11
410.6023822741
 21
89.349274139
  0
LINE
  5
749
100
AcDbEntity
  8
0
100
AcDbLine
 62
7
  6
CONTINUOUS
 10
410.73894533
 20
89.1908292036
 11
410.6285383742
 21
89.1474248647
  0
LINE
  5
74A
100
AcDbEntity
  8
0
100
AcDbLine
 62
7
  6
CONTINUOUS
 10
410.6716829413
 20
89.133805304
 11
410.8082459242
 21
89.1874922875
  0
LINE
  5
74B
100
AcDbEntity
  8
0
100
AcDbLine
 62
7
  6
CONTINUOUS
 10
409.4801471008
 20
89.6314607598
 11
409.3546096183
 21
89.5843250129
  0
LINE
  5
74C
100
AcDbEntity
  8
0
100
AcDbLine
 62
7
  6
CONTINUOUS
 10
409.5702689658
 20
88.6653563316
 11
409.6958063891
 21
88.7124921284
  0
LINE
  5
74D
100
AcDbEntity
  8
0
100
AcDbLine
 62
7
  6
CONTINUOUS
 10
407.8208116214
 20
89.705664159
 11
407.9031972397
 21
89.7300885483
  0
LINE
  5
74E
100
AcDbEntity
  8
0
100
AcDbLine
 62
7
  6
CONTINUOUS
 10
422.2216231952
 20
50.3591391028
 11
422.4511325798
 21
50.5763753313
  0
LINE
  5
74F
100
AcDbEntity
  8
0
100
AcDbLine
 62
7
  6
CONTINUOUS
 10
424.9499751012
 20
56.9514565189
 11
424.7160039992
 21
56.7390342497
  0
LINE
  5
750
100
AcDbEntity
  8
0
100
AcDbLine
 62
7
  6
CONTINUOUS
 10
425.8539255384
 20
56.366149714
 11
425.619953599
 21
56.1537263013
  0
LINE
  5
751
100
AcDbEntity
  8
0
100
AcDbLine
 62
7
  6
CONTINUOUS
 10
426.7336679564
 20
54.570456664
 11
426.9676390629
 21
54.78287893
  0
LINE
  5
752
100
AcDbEntity
  8
0
100
AcDbLine
 62
7
  6
CONTINUOUS
 10
425.0076993568
 20
56.6021489856
 11
425.1684906555
 21
56.7146551565
  0
LINE
  5
753
100
AcDbEntity
  8
0
100
AcDbLine
 62
7
  6
CONTINUOUS
 10
425.911649794
 20
56.0168421807
 11
426.0724410927
 21
56.1293483516
  0
LINE
  5
754
100
AcDbEntity
  8
0
100
AcDbLine
 62
7
  6
CONTINUOUS
 10
426.6759428321
 20
54.9197630768
 11
426.5151515334
 21
54.8072569059
  0
LINE
  5
755
100
AcDbEntity
  8
0
100
AcDbLine
 62
7
  6
CONTINUOUS
 10
420.5991057642
 20
52.8503880194
 11
420.3361935036
 21
52.6868529759
  0
LINE
  5
756
100
AcDbEntity
  8
0
100
AcDbLine
 62
7
  6
CONTINUOUS
 10
420.5366107418
 20
52.364645894
 11
420.8521052138
 21
52.5608877965
  0
LINE
  5
757
100
AcDbEntity
  8
0
100
AcDbLine
 62
7
  6
CONTINUOUS
 10
421.3346140509
 20
52.4886237974
 11
421.6501085228
 21
52.6848656998
  0
LINE
  5
758
100
AcDbEntity
  8
0
100
AcDbLine
 62
7
  6
CONTINUOUS
 10
421.3197455298
 20
51.8090711217
 11
421.0042510578
 21
51.6128292192
  0
LINE
  5
759
100
AcDbEntity
  8
0
100
AcDbLine
 62
7
  6
CONTINUOUS
 10
421.204668296
 20
51.2906221373
 11
421.520162768
 21
51.4868640398
  0
LINE
  5
75A
100
AcDbEntity
  8
0
100
AcDbLine
 62
7
  6
CONTINUOUS
 10
420.9460674077
 20
50.533942907
 11
420.6305729358
 21
50.3377010045
  0
LINE
  5
75B
100
AcDbEntity
  8
0
100
AcDbLine
 62
7
  6
CONTINUOUS
 10
422.0212059336
 20
50.6813462223
 11
421.6005464371
 21
50.4196902276
  0
LINE
  5
75C
100
AcDbEntity
  8
0
100
AcDbLine
 62
7
  6
CONTINUOUS
 10
421.8009636987
 20
50.0974831081
 11
422.2216231952
 21
50.3591391028
  0
LINE
  5
75D
100
AcDbEntity
  8
0
100
AcDbLine
 62
7
  6
CONTINUOUS
 10
425.2859885531
 20
57.0891416916
 11
424.9499751012
 21
56.9514565189
  0
LINE
  5
75E
100
AcDbEntity
  8
0
100
AcDbLine
 62
7
  6
CONTINUOUS
 10
426.1899389903
 20
56.5038348867
 11
425.8539255384
 21
56.366149714
  0
LINE
  5
75F
100
AcDbEntity
  8
0
100
AcDbLine
 62
7
  6
CONTINUOUS
 10
426.3976536537
 20
54.4327703577
 11
426.7336679564
 21
54.570456664
  0
LINE
  5
760
100
AcDbEntity
  8
0
100
AcDbLine
 62
7
  6
CONTINUOUS
 10
419.0491340401
 20
51.9325417363
 11
418.7019720991
 21
51.800155057
  0
LINE
  5
761
100
AcDbEntity
  8
0
100
AcDbLine
 62
7
  6
CONTINUOUS
 10
417.0818829309
 20
51.1823505117
 11
416.7347209899
 21
51.0499638324
  0
LINE
  5
762
100
AcDbEntity
  8
0
100
AcDbLine
 62
7
  6
CONTINUOUS
 10
420.895420296
 20
52.9602215082
 11
420.5991057642
 21
52.8503880194
  0
LINE
  5
763
100
AcDbEntity
  8
0
100
AcDbLine
 62
7
  6
CONTINUOUS
 10
425.1684906555
 20
56.7146551565
 11
425.3803031291
 21
56.7897927792
  0
LINE
  5
764
100
AcDbEntity
  8
0
100
AcDbLine
 62
7
  6
CONTINUOUS
 10
426.0724410927
 20
56.1293483516
 11
426.2842535663
 21
56.2044859743
  0
LINE
  5
765
100
AcDbEntity
  8
0
100
AcDbLine
 62
7
  6
CONTINUOUS
 10
418.7195797104
 20
48.6256994915
 11
419.182462188
 21
48.8022150218
  0
LINE
  5
766
100
AcDbEntity
  8
0
100
AcDbLine
 62
7
  6
CONTINUOUS
 10
421.6160606633
 20
51.9189049848
 11
421.3197455298
 21
51.8090711217
  0
LINE
  5
767
100
AcDbEntity
  8
0
100
AcDbLine
 62
7
  6
CONTINUOUS
 10
421.5046491639
 20
49.9876496239
 11
421.8009636987
 21
50.0974831081
  0
LINE
  5
768
100
AcDbEntity
  8
0
100
AcDbLine
 62
7
  6
CONTINUOUS
 10
426.5151515334
 20
54.8072569059
 11
426.3033390598
 21
54.7321192833
  0
LINE
  5
769
100
AcDbEntity
  8
0
100
AcDbLine
 62
7
  6
CONTINUOUS
 10
421.520162768
 20
51.4868640398
 11
421.7638950884
 21
51.5639906697
  0
LINE
  5
76A
100
AcDbEntity
  8
0
100
AcDbLine
 62
7
  6
CONTINUOUS
 10
420.9609359756
 20
51.2134955075
 11
421.204668296
 21
51.2906221373
  0
LINE
  5
76B
100
AcDbEntity
  8
0
100
AcDbLine
 62
7
  6
CONTINUOUS
 10
421.6005464371
 20
50.4196902276
 11
421.3568141167
 21
50.3425635977
  0
ARC
  5
76C
100
AcDbEntity
  8
KONSTRUKTIONSELEMENTE
100
AcDbCircle
 62
7
  6
CONTINUOUS
 10
114.7965551115
 20
118.5430817787
 40
9.55
100
AcDbArc
 50
58.6297070454
 51
135.0
  0
ARC
  5
76D
100
AcDbEntity
  8
KONSTRUKTIONSELEMENTE
100
AcDbCircle
 62
7
  6
CONTINUOUS
 10
114.7965551115
 20
118.5430817787
 40
9.55
100
AcDbArc
 50
315.0
 51
31.3702929546
  0
ARC
  5
76E
100
AcDbEntity
  8
KONSTRUKTIONSELEMENTE
100
AcDbCircle
 62
7
  6
CONTINUOUS
 10
106.3819844154
 20
110.1285110825
 40
9.55
100
AcDbArc
 50
240.1951355235
 51
315.0
  0
ARC
  5
76F
100
AcDbEntity
  8
KONSTRUKTIONSELEMENTE
100
AcDbCircle
 62
7
  6
CONTINUOUS
 10
106.3819844154
 20
110.1285110825
 40
9.55
100
AcDbArc
 50
135.0
 51
209.8048644765
  0
ARC
  5
770
100
AcDbEntity
  8
KONSTRUKTIONSELEMENTE
100
AcDbCircle
 62
7
  6
CONTINUOUS
 10
135.6915604956
 20
139.4380871627
 40
8.0
100
AcDbArc
 50
241.3642958278
 51
315.0
  0
ARC
  5
771
100
AcDbEntity
  8
KONSTRUKTIONSELEMENTE
100
AcDbCircle
 62
7
  6
CONTINUOUS
 10
135.6915604956
 20
139.4380871627
 40
8.0
100
AcDbArc
 50
135.0
 51
208.6357041722
  0
ARC
  5
772
100
AcDbEntity
  8
KONSTRUKTIONSELEMENTE
100
AcDbCircle
 62
7
  6
CONTINUOUS
 10
146.2981622134
 20
150.0446888805
 40
8.0
100
AcDbArc
 50
61.3642958278
 51
135.0
  0
ARC
  5
773
100
AcDbEntity
  8
KONSTRUKTIONSELEMENTE
100
AcDbCircle
 62
7
  6
CONTINUOUS
 10
146.2981622134
 20
150.0446888805
 40
8.0
100
AcDbArc
 50
315.0
 51
28.6357041722
  0
ARC
  5
774
100
AcDbEntity
  8
KONSTRUKTIONSELEMENTE
100
AcDbCircle
 62
7
  6
CONTINUOUS
 10
114.7965551115
 20
118.5430817787
 40
4.55
100
AcDbArc
 50
74.6522021471
 51
135.0
  0
ARC
  5
775
100
AcDbEntity
  8
KONSTRUKTIONSELEMENTE
100
AcDbCircle
 62
7
  6
CONTINUOUS
 10
114.7965551115
 20
118.5430817787
 40
4.55
100
AcDbArc
 50
315.0
 51
15.3477978529
  0
ARC
  5
776
100
AcDbEntity
  8
KONSTRUKTIONSELEMENTE
100
AcDbCircle
 62
7
  6
CONTINUOUS
 10
106.3819844154
 20
110.1285110825
 40
4.55
100
AcDbArc
 50
258.3583327703
 51
315.0
  0
ARC
  5
777
100
AcDbEntity
  8
KONSTRUKTIONSELEMENTE
100
AcDbCircle
 62
7
  6
CONTINUOUS
 10
106.3819844154
 20
110.1285110825
 40
4.55
100
AcDbArc
 50
135.0
 51
191.6416672297
  0
ARC
  5
778
100
AcDbEntity
  8
KONSTRUKTIONSELEMENTE
100
AcDbCircle
 62
7
  6
CONTINUOUS
 10
135.6915604956
 20
139.4380871627
 40
3.5
100
AcDbArc
 50
265.1538775079
 51
315.0
  0
ARC
  5
779
100
AcDbEntity
  8
KONSTRUKTIONSELEMENTE
100
AcDbCircle
 62
7
  6
CONTINUOUS
 10
135.6915604956
 20
139.4380871627
 40
3.5
100
AcDbArc
 50
135.0
 51
184.8461224921
  0
ARC
  5
77A
100
AcDbEntity
  8
KONSTRUKTIONSELEMENTE
100
AcDbCircle
 62
7
  6
CONTINUOUS
 10
146.2981622134
 20
150.0446888805
 40
3.5
100
AcDbArc
 50
85.1538775079
 51
135.0
  0
ARC
  5
77B
100
AcDbEntity
  8
KONSTRUKTIONSELEMENTE
100
AcDbCircle
 62
7
  6
CONTINUOUS
 10
146.2981622134
 20
150.0446888805
 40
3.5
100
AcDbArc
 50
315.0
 51
4.8461224921
  0
ARC
  5
77C
100
AcDbEntity
  8
KONSTRUKTIONSELEMENTE
100
AcDbCircle
 62
7
  6
CONTINUOUS
 10
134.8076770191
 20
138.5542036862
 40
2.25
100
AcDbArc
 50
315.0
 51
135.0
  0
ARC
  5
77D
100
AcDbEntity
  8
KONSTRUKTIONSELEMENTE
100
AcDbCircle
 62
7
  6
CONTINUOUS
 10
116.0693473176
 20
119.8158739848
 40
2.25
100
AcDbArc
 50
135.0
 51
315.0
  0
ARC
  5
77E
100
AcDbEntity
  8
KONSTRUKTIONSELEMENTE
100
AcDbCircle
 62
7
  6
CONTINUOUS
 10
147.1820456898
 20
150.928572357
 40
2.25
100
AcDbArc
 50
135.0
 51
315.0
  0
ARC
  5
77F
100
AcDbEntity
  8
RUNDUNGEN
100
AcDbCircle
 62
7
  6
CONTINUOUS
 10
172.6672299855
 20
56.8017953904
 40
4.5799400479
100
AcDbArc
 50
1.5411211782
 51
8.000004022
  0
ARC
  5
780
100
AcDbEntity
  8
BEZUGSACHSEN
100
AcDbCircle
 62
7
  6
CONTINUOUS
 10
173.4539542509
 20
69.9406189352
 40
3.8932157826
100
AcDbArc
 50
348.2816952706
 51
354.1112135662
  0
ARC
  5
781
100
AcDbEntity
  8
RUNDUNGEN
100
AcDbCircle
 62
7
  6
CONTINUOUS
 10
174.144349684
 20
66.0364790238
 40
1.8319760192
100
AcDbArc
 50
7.9999944208
 51
45.0000093999
  0
ARC
  5
782
100
AcDbEntity
  8
RUNDUNGEN
100
AcDbCircle
 62
7
  6
CONTINUOUS
 10
176.0791460526
 20
69.2832933197
 40
1.8319760192
100
AcDbArc
 50
179.9992760679
 51
224.9996179208
  0
ARC
  5
783
100
AcDbEntity
  8
RUNDUNGEN
100
AcDbCircle
 62
7
  6
CONTINUOUS
 10
178.6211520478
 20
45.2996950628
 40
1.3739820144
100
AcDbArc
 50
180.0
 51
264.0
  0
ARC
  5
784
100
AcDbEntity
  8
BEZUGSACHSEN
100
AcDbCircle
 62
7
  6
CONTINUOUS
 10
182.8731880191
 20
45.2996950628
 40
1.3739820144
100
AcDbArc
 50
276.0
 51
360.0
  0
ARC
  5
785
100
AcDbEntity
  8
RUNDUNGEN
100
AcDbCircle
 62
7
  6
CONTINUOUS
 10
175.1631586101
 20
72.3150069667
 40
0.9159880141
100
AcDbArc
 50
179.9999371173
 51
219.9586513126
  0
ARC
  5
786
100
AcDbEntity
  8
BEZUGSACHSEN
100
AcDbCircle
 62
7
  6
CONTINUOUS
 10
175.163158043
 20
72.3150076998
 40
0.9159880096
100
AcDbArc
 50
179.9999371173
 51
219.9587092451
  0
ARC
  5
787
100
AcDbEntity
  8
RUNDUNGEN
100
AcDbCircle
 62
7
  6
CONTINUOUS
 10
174.250929684
 20
87.9509143774
 40
1.8319760192
100
AcDbArc
 50
314.9998274938
 51
352.0000227018
  0
ARC
  5
788
100
AcDbEntity
  8
RUNDUNGEN
100
AcDbCircle
 62
7
  6
CONTINUOUS
 10
176.0791460526
 20
84.5975200815
 40
1.8319760192
100
AcDbArc
 50
134.9992830847
 51
180.0
  0
ARC
  5
789
100
AcDbEntity
  8
BEZUGSACHSEN
100
AcDbCircle
 62
7
  6
CONTINUOUS
 10
174.250929684
 20
87.9509143774
 40
1.8319760192
100
AcDbArc
 50
314.9998274938
 51
352.0000227018
  0
ARC
  5
78A
100
AcDbEntity
  8
BEZUGSACHSEN
100
AcDbCircle
 62
7
  6
CONTINUOUS
 10
176.0791460526
 20
84.5975200815
 40
1.8319760192
100
AcDbArc
 50
134.9992830847
 51
180.0
  0
ARC
  5
78B
100
AcDbEntity
  8
RUNDUNGEN
100
AcDbCircle
 62
7
  6
CONTINUOUS
 10
172.7738099855
 20
97.1855980109
 40
4.5799400479
100
AcDbArc
 50
351.9999810606
 51
0.0000154867
  0
ARC
  5
78C
100
AcDbEntity
  8
BEZUGSACHSEN
100
AcDbCircle
 62
7
  6
CONTINUOUS
 10
172.7738099855
 20
97.1855980109
 40
4.5799400479
100
AcDbArc
 50
351.9999810606
 51
0.0000154867
  0
ARC
  5
78D
100
AcDbEntity
  8
RUNDUNGEN
100
AcDbCircle
 62
7
  6
CONTINUOUS
 10
180.7471700335
 20
76.9936967006
 40
8.2009945762
100
AcDbArc
 50
219.9587092451
 51
320.0412907549
  0
ARC
  5
78E
100
AcDbEntity
  8
BEZUGSACHSEN
100
AcDbCircle
 62
7
  6
CONTINUOUS
 10
180.7471700335
 20
76.9936967006
 40
8.2009945762
100
AcDbArc
 50
219.9587092451
 51
320.0412907549
  0
CIRCLE
  5
78F
100
AcDbEntity
  8
0
100
AcDbCircle
 62
7
  6
CONTINUOUS
 10
180.7471700335
 20
76.9936967006
 40
2.7479640288
  0
CIRCLE
  5
790
100
AcDbEntity
  8
BEZUGSACHSEN
100
AcDbCircle
 62
7
  6
CONTINUOUS
 10
180.7471700335
 20
76.9936967006
 40
2.7479640288
  0
ARC
  5
791
100
AcDbEntity
  8
BEZUGSACHSEN
100
AcDbCircle
 62
7
  6
CONTINUOUS
 10
180.7471700335
 20
106.4936967006
 40
16.5
100
AcDbArc
 50
118.0
 51
254.9587526214
  0
ARC
  5
792
100
AcDbEntity
  8
RUNDUNGEN
100
AcDbCircle
 62
7
  6
CONTINUOUS
 10
180.7471700335
 20
106.4936967006
 40
7.0
100
AcDbArc
 50
299.0189717998
 51
240.98102817
  0
ARC
  5
793
100
AcDbEntity
  8
BEZUGSACHSEN
100
AcDbCircle
 62
7
  6
CONTINUOUS
 10
188.8271100814
 20
56.8017953904
 40
4.5799400479
100
AcDbArc
 50
171.999995978
 51
180.0000358248
  0
ARC
  5
794
100
AcDbEntity
  8
BEZUGSACHSEN
100
AcDbCircle
 62
7
  6
CONTINUOUS
 10
188.0403858161
 20
69.9406189352
 40
3.8932157826
100
AcDbArc
 50
185.8855220598
 51
191.7249842028
  0
ARC
  5
795
100
AcDbEntity
  8
BEZUGSACHSEN
100
AcDbCircle
 62
7
  6
CONTINUOUS
 10
187.3499903829
 20
66.0364790238
 40
1.8319760192
100
AcDbArc
 50
134.9999906001
 51
172.0000055792
  0
ARC
  5
796
100
AcDbEntity
  8
BEZUGSACHSEN
100
AcDbCircle
 62
7
  6
CONTINUOUS
 10
185.4151940143
 20
69.2832933197
 40
1.8319760192
100
AcDbArc
 50
315.0003820792
 51
0.0007239321
  0
ARC
  5
797
100
AcDbEntity
  8
RUNDUNGEN
100
AcDbCircle
 62
7
  6
CONTINUOUS
 10
186.3311820239
 20
72.3150076998
 40
0.9159880096
100
AcDbArc
 50
320.0412907549
 51
360.0
  0
ARC
  5
798
100
AcDbEntity
  8
BEZUGSACHSEN
100
AcDbCircle
 62
7
  6
CONTINUOUS
 10
186.3311820239
 20
72.3150076998
 40
0.9159880096
100
AcDbArc
 50
320.0412907549
 51
360.0
  0
ARC
  5
799
100
AcDbEntity
  8
BEZUGSACHSEN
100
AcDbCircle
 62
7
  6
CONTINUOUS
 10
188.7205300814
 20
97.1855980109
 40
4.5799400479
100
AcDbArc
 50
179.9999845133
 51
188.0000189394
  0
ARC
  5
79A
100
AcDbEntity
  8
RUNDUNGEN
100
AcDbCircle
 62
7
  6
CONTINUOUS
 10
198.12617029
 20
107.7225514131
 40
3.0
100
AcDbArc
 50
208.0
 51
333.5
  0
ARC
  5
79B
100
AcDbEntity
  8
BEZUGSACHSEN
100
AcDbCircle
 62
7
  6
CONTINUOUS
 10
187.2434103829
 20
87.9509143774
 40
1.8319760192
100
AcDbArc
 50
187.9999772982
 51
225.0001725062
  0
ARC
  5
79C
100
AcDbEntity
  8
BEZUGSACHSEN
100
AcDbCircle
 62
7
  6
CONTINUOUS
 10
185.4151940143
 20
84.5975200815
 40
1.8319760192
100
AcDbArc
 50
0.0
 51
45.0007169153
  0
ARC
  5
79D
100
AcDbEntity
  8
KONSTRUKTIONSELEMENTE
100
AcDbCircle
 62
7
  6
CONTINUOUS
 10
167.546720988
 20
171.2932476552
 40
9.55
100
AcDbArc
 50
238.6297070454
 51
315.0
  0
ARC
  5
79E
100
AcDbEntity
  8
KONSTRUKTIONSELEMENTE
100
AcDbCircle
 62
7
  6
CONTINUOUS
 10
167.546720988
 20
171.2932476552
 40
9.55
100
AcDbArc
 50
135.0
 51
211.3702929546
  0
ARC
  5
79F
100
AcDbEntity
  8
KONSTRUKTIONSELEMENTE
100
AcDbCircle
 62
7
  6
CONTINUOUS
 10
167.546720988
 20
171.2932476552
 40
4.55
100
AcDbArc
 50
254.6522021471
 51
315.0
  0
ARC
  5
7A0
100
AcDbEntity
  8
KONSTRUKTIONSELEMENTE
100
AcDbCircle
 62
7
  6
CONTINUOUS
 10
167.546720988
 20
171.2932476552
 40
4.55
100
AcDbArc
 50
135.0
 51
195.3477978529
  0
ARC
  5
7A1
100
AcDbEntity
  8
RUNDUNGEN
100
AcDbCircle
 62
7
  6
CONTINUOUS
 10
192.2230667367
 20
118.8246744933
 40
3.0
100
AcDbArc
 50
118.0
 51
208.0
  0
ARC
  5
7A2
100
AcDbEntity
  8
KONSTRUKTIONSELEMENTE
100
AcDbCircle
 62
7
  6
CONTINUOUS
 10
165.9203753913
 20
169.6669020585
 40
2.25
100
AcDbArc
 50
315.0
 51
135.0
  0
ARC
  5
7A3
100
AcDbEntity
  8
RUNDUNGEN
100
AcDbCircle
 62
7
  6
CONTINUOUS
 10
178.7277320478
 20
108.6989003479
 40
1.3739820144
100
AcDbArc
 50
96.0
 51
180.0
  0
ARC
  5
7A4
100
AcDbEntity
  8
BEZUGSACHSEN
100
AcDbCircle
 62
7
  6
CONTINUOUS
 10
178.7277320478
 20
108.6989003479
 40
1.3739820144
100
AcDbArc
 50
96.0
 51
180.0
  0
ARC
  5
7A5
100
AcDbEntity
  8
BEZUGSACHSEN
100
AcDbCircle
 62
7
  6
CONTINUOUS
 10
182.7666080191
 20
108.6989003479
 40
1.3739820144
100
AcDbArc
 50
0.0
 51
84.0
  0
ARC
  5
7A6
100
AcDbEntity
  8
KONSTRUKTIONSELEMENTE
100
AcDbCircle
 62
7
  6
CONTINUOUS
 10
175.9612916841
 20
179.7078183513
 40
9.55
100
AcDbArc
 50
63.3390960058
 51
135.0
  0
ARC
  5
7A7
100
AcDbEntity
  8
KONSTRUKTIONSELEMENTE
100
AcDbCircle
 62
7
  6
CONTINUOUS
 10
175.9612916841
 20
179.7078183513
 40
9.55
100
AcDbArc
 50
315.0
 51
26.6609039942
  0
ARC
  5
7A8
100
AcDbEntity
  8
KONSTRUKTIONSELEMENTE
100
AcDbCircle
 62
7
  6
CONTINUOUS
 10
175.9612916841
 20
179.7078183513
 40
4.55
100
AcDbArc
 50
86.2724010126
 51
135.0
  0
ARC
  5
7A9
100
AcDbEntity
  8
KONSTRUKTIONSELEMENTE
100
AcDbCircle
 62
7
  6
CONTINUOUS
 10
175.9612916841
 20
179.7078183513
 40
4.55
100
AcDbArc
 50
315.0
 51
3.7275989874
  0
ARC
  5
7AA
100
AcDbEntity
  8
KONSTRUKTIONSELEMENTE
100
AcDbCircle
 62
7
  6
CONTINUOUS
 10
177.057307195
 20
180.8038338621
 40
3.0
100
AcDbArc
 50
135.0
 51
315.0
  0
ARC
  5
7AB
100
AcDbEntity
  8
RUNDUNGEN
100
AcDbCircle
 62
7
  6
CONTINUOUS
 10
207.7876692541
 20
127.1005204519
 40
3.0
100
AcDbArc
 50
333.5
 51
118.0
  0
ARC
  5
7AC
100
AcDbEntity
  8
KONSTRUKTIONSELEMENTE
100
AcDbCircle
 62
7
  6
CONTINUOUS
 10
221.2471700335
 20
160.4936967006
 40
8.0
100
AcDbArc
 50
277.0568652008
 51
360.0
  0
ARC
  5
7AD
100
AcDbEntity
  8
KONSTRUKTIONSELEMENTE
100
AcDbCircle
 62
7
  6
CONTINUOUS
 10
222.7471700335
 20
148.4936967006
 40
4.0
100
AcDbArc
 50
90.0
 51
180.0
  0
ARC
  5
7AE
100
AcDbEntity
  8
BEZUGSACHSEN
100
AcDbCircle
 62
7
  6
CONTINUOUS
 10
235.7471700335
 20
136.4936967006
 40
32.0
100
AcDbArc
 50
280.0
 51
314.391140861
  0
ARC
  5
7AF
100
AcDbEntity
  8
0
100
AcDbCircle
 62
7
  6
CONTINUOUS
 10
235.7471700335
 20
136.4936967006
 40
32.0
100
AcDbArc
 50
225.608859139
 51
260.0
  0
ARC
  5
7B0
100
AcDbEntity
  8
BEZUGSACHSEN
100
AcDbCircle
 62
7
  6
CONTINUOUS
 10
235.7471700335
 20
136.4936967006
 40
27.0
100
AcDbArc
 50
260.0
 51
280.0
  0
ARC
  5
7B1
100
AcDbEntity
  8
BEZUGSACHSEN
100
AcDbCircle
 62
7
  6
CONTINUOUS
 10
235.7471700335
 20
136.4936967006
 40
21.0
100
AcDbArc
 50
20.9318724931
 51
35.9634521019
  0
ARC
  5
7B2
100
AcDbEntity
  8
BEZUGSACHSEN
100
AcDbCircle
 62
7
  6
CONTINUOUS
 10
235.7471700335
 20
136.4936967006
 40
21.0
100
AcDbArc
 50
49.9132263984
 51
67.7442462052
  0
ARC
  5
7B3
100
AcDbEntity
  8
BEZUGSACHSEN
100
AcDbCircle
 62
7
  6
CONTINUOUS
 10
235.7471700335
 20
136.4936967006
 40
21.0
100
AcDbArc
 50
112.2557537948
 51
130.0874446282
  0
ARC
  5
7B4
100
AcDbEntity
  8
BEZUGSACHSEN
100
AcDbCircle
 62
7
  6
CONTINUOUS
 10
235.7471700335
 20
136.4936967006
 40
21.0
100
AcDbArc
 50
144.0362642447
 51
159.0681275069
  0
ARC
  5
7B5
100
AcDbEntity
  8
KONSTRUKTIONSELEMENTE
100
AcDbCircle
 62
7
  6
CONTINUOUS
 10
236.7471700335
 20
137.4936967006
 40
16.0
100
AcDbArc
 50
270.0
 51
360.0
  0
ARC
  5
7B6
100
AcDbEntity
  8
KONSTRUKTIONSELEMENTE
100
AcDbCircle
 62
7
  6
CONTINUOUS
 10
234.7471700335
 20
137.4936967006
 40
16.0
100
AcDbArc
 50
180.0
 51
270.0
  0
ARC
  5
7B7
100
AcDbEntity
  8
KONSTRUKTIONSELEMENTE
100
AcDbCircle
 62
7
  6
CONTINUOUS
 10
250.2471700335
 20
160.4936967006
 40
8.0
100
AcDbArc
 50
180.0
 51
262.9410151056
  0
ARC
  5
7B8
100
AcDbEntity
  8
KONSTRUKTIONSELEMENTE
100
AcDbCircle
 62
7
  6
CONTINUOUS
 10
248.7471700335
 20
148.4936967006
 40
4.0
100
AcDbArc
 50
0.0
 51
90.0
  0
ARC
  5
7B9
100
AcDbEntity
  8
RUNDUNGEN
100
AcDbCircle
 62
7
  6
CONTINUOUS
 10
282.6672299855
 20
56.8017953904
 40
4.5799400479
100
AcDbArc
 50
1.5411211782
 51
8.000004022
  0
ARC
  5
7BA
100
AcDbEntity
  8
BEZUGSACHSEN
100
AcDbCircle
 62
7
  6
CONTINUOUS
 10
283.4539542509
 20
69.9406189352
 40
3.8932157826
100
AcDbArc
 50
348.2816952706
 51
354.1112135662
  0
ARC
  5
7BB
100
AcDbEntity
  8
RUNDUNGEN
100
AcDbCircle
 62
7
  6
CONTINUOUS
 10
284.144349684
 20
66.0364790238
 40
1.8319760192
100
AcDbArc
 50
7.9999944208
 51
45.0000093999
  0
ARC
  5
7BC
100
AcDbEntity
  8
RUNDUNGEN
100
AcDbCircle
 62
7
  6
CONTINUOUS
 10
286.0791460526
 20
69.2832933197
 40
1.8319760192
100
AcDbArc
 50
179.9992760679
 51
224.9996179208
  0
ARC
  5
7BD
100
AcDbEntity
  8
RUNDUNGEN
100
AcDbCircle
 62
7
  6
CONTINUOUS
 10
288.6211520478
 20
45.2996950628
 40
1.3739820144
100
AcDbArc
 50
180.0
 51
264.0
  0
ARC
  5
7BE
100
AcDbEntity
  8
RUNDUNGEN
100
AcDbCircle
 62
7
  6
CONTINUOUS
 10
282.7738099855
 20
97.1855980109
 40
4.5799400479
100
AcDbArc
 50
351.9999810606
 51
0.0000154867
  0
ARC
  5
7BF
100
AcDbEntity
  8
BEZUGSACHSEN
100
AcDbCircle
 62
7
  6
CONTINUOUS
 10
282.7738099855
 20
97.1855980109
 40
4.5799400479
100
AcDbArc
 50
351.9999810606
 51
0.0000154867
  0
ARC
  5
7C0
100
AcDbEntity
  8
RUNDUNGEN
100
AcDbCircle
 62
7
  6
CONTINUOUS
 10
284.250929684
 20
87.9509143774
 40
1.8319760192
100
AcDbArc
 50
314.9998274938
 51
352.0000227018
  0
ARC
  5
7C1
100
AcDbEntity
  8
RUNDUNGEN
100
AcDbCircle
 62
7
  6
CONTINUOUS
 10
286.0791460526
 20
84.5975200815
 40
1.8319760192
100
AcDbArc
 50
134.9992830847
 51
180.0
  0
ARC
  5
7C2
100
AcDbEntity
  8
BEZUGSACHSEN
100
AcDbCircle
 62
7
  6
CONTINUOUS
 10
284.250929684
 20
87.9509143774
 40
1.8319760192
100
AcDbArc
 50
314.9998274938
 51
352.0000227018
  0
ARC
  5
7C3
100
AcDbEntity
  8
BEZUGSACHSEN
100
AcDbCircle
 62
7
  6
CONTINUOUS
 10
286.0791460526
 20
84.5975200815
 40
1.8319760192
100
AcDbArc
 50
134.9992830847
 51
180.0
  0
ARC
  5
7C4
100
AcDbEntity
  8
RUNDUNGEN
100
AcDbCircle
 62
7
  6
CONTINUOUS
 10
285.1631586101
 20
72.3150069667
 40
0.9159880141
100
AcDbArc
 50
179.9999371173
 51
219.9586513126
  0
ARC
  5
7C5
100
AcDbEntity
  8
BEZUGSACHSEN
100
AcDbCircle
 62
7
  6
CONTINUOUS
 10
285.163158043
 20
72.3150076998
 40
0.9159880096
100
AcDbArc
 50
179.9999371173
 51
219.9587092451
  0
ARC
  5
7C6
100
AcDbEntity
  8
BEZUGSACHSEN
100
AcDbCircle
 62
7
  6
CONTINUOUS
 10
298.8271100814
 20
56.8017953904
 40
4.5799400479
100
AcDbArc
 50
171.999995978
 51
180.0000358248
  0
ARC
  5
7C7
100
AcDbEntity
  8
BEZUGSACHSEN
100
AcDbCircle
 62
7
  6
CONTINUOUS
 10
298.0403858161
 20
69.9406189352
 40
3.8932157826
100
AcDbArc
 50
185.8855220598
 51
191.7249842028
  0
ARC
  5
7C8
100
AcDbEntity
  8
BEZUGSACHSEN
100
AcDbCircle
 62
7
  6
CONTINUOUS
 10
297.3499903829
 20
66.0364790238
 40
1.8319760192
100
AcDbArc
 50
134.9999906001
 51
172.0000055792
  0
ARC
  5
7C9
100
AcDbEntity
  8
BEZUGSACHSEN
100
AcDbCircle
 62
7
  6
CONTINUOUS
 10
295.4151940143
 20
69.2832933197
 40
1.8319760192
100
AcDbArc
 50
315.0003820792
 51
0.0007239321
  0
ARC
  5
7CA
100
AcDbEntity
  8
BEZUGSACHSEN
100
AcDbCircle
 62
7
  6
CONTINUOUS
 10
292.8731880191
 20
45.2996950628
 40
1.3739820144
100
AcDbArc
 50
276.0
 51
360.0
  0
ARC
  5
7CB
100
AcDbEntity
  8
RUNDUNGEN
100
AcDbCircle
 62
7
  6
CONTINUOUS
 10
290.7471700335
 20
76.9936967006
 40
8.2009945762
100
AcDbArc
 50
219.9587092451
 51
320.0412907549
  0
ARC
  5
7CC
100
AcDbEntity
  8
BEZUGSACHSEN
100
AcDbCircle
 62
7
  6
CONTINUOUS
 10
290.7471700335
 20
76.9936967006
 40
8.2009945762
100
AcDbArc
 50
219.9587092451
 51
320.0412907549
  0
CIRCLE
  5
7CD
100
AcDbEntity
  8
0
100
AcDbCircle
 62
7
  6
CONTINUOUS
 10
290.7471700335
 20
76.9936967006
 40
2.7479640288
  0
CIRCLE
  5
7CE
100
AcDbEntity
  8
BEZUGSACHSEN
100
AcDbCircle
 62
7
  6
CONTINUOUS
 10
290.7471700335
 20
76.9936967006
 40
2.7479640288
  0
ARC
  5
7CF
100
AcDbEntity
  8
BEZUGSACHSEN
100
AcDbCircle
 62
7
  6
CONTINUOUS
 10
295.4151940143
 20
84.5975200815
 40
1.8319760192
100
AcDbArc
 50
0.0
 51
45.0007169153
  0
ARC
  5
7D0
100
AcDbEntity
  8
RUNDUNGEN
100
AcDbCircle
 62
7
  6
CONTINUOUS
 10
296.3311820239
 20
72.3150076998
 40
0.9159880096
100
AcDbArc
 50
320.0412907549
 51
360.0
  0
ARC
  5
7D1
100
AcDbEntity
  8
BEZUGSACHSEN
100
AcDbCircle
 62
7
  6
CONTINUOUS
 10
296.3311820239
 20
72.3150076998
 40
0.9159880096
100
AcDbArc
 50
320.0412907549
 51
360.0
  0
ARC
  5
7D2
100
AcDbEntity
  8
BEZUGSACHSEN
100
AcDbCircle
 62
7
  6
CONTINUOUS
 10
298.7205300814
 20
97.1855980109
 40
4.5799400479
100
AcDbArc
 50
179.9999845133
 51
188.0000189394
  0
ARC
  5
7D3
100
AcDbEntity
  8
BEZUGSACHSEN
100
AcDbCircle
 62
7
  6
CONTINUOUS
 10
297.2434103829
 20
87.9509143774
 40
1.8319760192
100
AcDbArc
 50
187.9999772982
 51
225.0001725062
  0
ARC
  5
7D4
100
AcDbEntity
  8
BEZUGSACHSEN
100
AcDbCircle
 62
7
  6
CONTINUOUS
 10
273.368169777
 20
107.7225514131
 40
3.0
100
AcDbArc
 50
206.5
 51
332.0
  0
ARC
  5
7D5
100
AcDbEntity
  8
BEZUGSACHSEN
100
AcDbCircle
 62
7
  6
CONTINUOUS
 10
263.7066708128
 20
127.1005204519
 40
3.0
100
AcDbArc
 50
62.0
 51
206.5
  0
ARC
  5
7D6
100
AcDbEntity
  8
RUNDUNGEN
100
AcDbCircle
 62
7
  6
CONTINUOUS
 10
288.7277320478
 20
108.6989003479
 40
1.3739820144
100
AcDbArc
 50
96.0
 51
180.0
  0
ARC
  5
7D7
100
AcDbEntity
  8
BEZUGSACHSEN
100
AcDbCircle
 62
7
  6
CONTINUOUS
 10
288.7277320478
 20
108.6989003479
 40
1.3739820144
100
AcDbArc
 50
96.0
 51
180.0
  0
ARC
  5
7D8
100
AcDbEntity
  8
BEZUGSACHSEN
100
AcDbCircle
 62
7
  6
CONTINUOUS
 10
290.7471700335
 20
106.4936967006
 40
16.5
100
AcDbArc
 50
285.0412473786
 51
62.0
  0
ARC
  5
7D9
100
AcDbEntity
  8
BEZUGSACHSEN
100
AcDbCircle
 62
7
  6
CONTINUOUS
 10
290.7471700335
 20
106.4936967006
 40
7.0
100
AcDbArc
 50
299.01897183
 51
240.9810282002
  0
ARC
  5
7DA
100
AcDbEntity
  8
BEZUGSACHSEN
100
AcDbCircle
 62
7
  6
CONTINUOUS
 10
292.7666080191
 20
108.6989003479
 40
1.3739820144
100
AcDbArc
 50
0.0
 51
84.0
  0
ARC
  5
7DB
100
AcDbEntity
  8
BEZUGSACHSEN
100
AcDbCircle
 62
7
  6
CONTINUOUS
 10
279.2712733302
 20
118.8246744933
 40
3.0
100
AcDbArc
 50
332.0
 51
62.0
  0
ARC
  5
7DC
100
AcDbEntity
  8
0
100
AcDbCircle
 62
7
  6
CONTINUOUS
 10
235.7471700335
 20
309.4936967006
 40
63.0
100
AcDbArc
 50
0.0
 51
180.0
  0
ARC
  5
7DD
100
AcDbEntity
  8
0
100
AcDbCircle
 62
7
  6
CONTINUOUS
 10
235.7471700335
 20
239.4936967006
 40
63.0
100
AcDbArc
 50
276.1661297587
 51
360.0
  0
ARC
  5
7DE
100
AcDbEntity
  8
0
100
AcDbCircle
 62
7
  6
CONTINUOUS
 10
235.7471700335
 20
239.4936967006
 40
63.0
100
AcDbArc
 50
227.7296175156
 51
264.0778192218
  0
ARC
  5
7DF
100
AcDbEntity
  8
0
100
AcDbCircle
 62
7
  6
CONTINUOUS
 10
235.7471700335
 20
239.4936967006
 40
63.0
100
AcDbArc
 50
180.0
 51
222.2703824844
  0
ARC
  5
7E0
100
AcDbEntity
  8
0
100
AcDbCircle
 62
7
  6
CONTINUOUS
 10
235.7471700335
 20
239.4936967006
 40
45.0
100
AcDbArc
 50
278.3070153632
 51
360.0
  0
ARC
  5
7E1
100
AcDbEntity
  8
0
100
AcDbCircle
 62
7
  6
CONTINUOUS
 10
235.7471700335
 20
239.4936967006
 40
45.0
100
AcDbArc
 50
228.8236401915
 51
261.6929846368
  0
ARC
  5
7E2
100
AcDbEntity
  8
0
100
AcDbCircle
 62
7
  6
CONTINUOUS
 10
235.7471700335
 20
239.4936967006
 40
45.0
100
AcDbArc
 50
180.0
 51
221.1763598085
  0
ARC
  5
7E3
100
AcDbEntity
  8
0
100
AcDbCircle
 62
7
  6
CONTINUOUS
 10
235.7471700335
 20
309.4936967006
 40
45.0
100
AcDbArc
 50
0.0
 51
180.0
  0
ARC
  5
7E4
100
AcDbEntity
  8
KONSTRUKTIONSELEMENTE
100
AcDbCircle
 62
7
  6
CONTINUOUS
 10
235.7471700335
 20
200.9936967006
 40
6.5
100
AcDbArc
 50
0.0
 51
180.0
  0
ARC
  5
7E5
100
AcDbEntity
  8
KONSTRUKTIONSELEMENTE
100
AcDbCircle
 62
7
  6
CONTINUOUS
 10
206.0486852236
 20
209.7952118908
 40
3.0
100
AcDbArc
 50
315.0
 51
135.0
  0
ARC
  5
7E6
100
AcDbEntity
  8
KONSTRUKTIONSELEMENTE
100
AcDbCircle
 62
7
  6
CONTINUOUS
 10
381.0518585107
 20
160.4936967006
 40
8.0
100
AcDbArc
 50
270.0
 51
360.0
  0
ARC
  5
7E7
100
AcDbEntity
  8
0
100
AcDbCircle
 62
7
  6
CONTINUOUS
 10
406.6021578277
 20
93.6481072806
 40
5.8982459536
100
AcDbArc
 50
54.9197756294
 51
56.9543594173
  0
ARC
  5
7E8
100
AcDbEntity
  8
BEZUGSACHSEN
100
AcDbCircle
 62
7
  6
CONTINUOUS
 10
400.9719184627
 20
67.4099613707
 40
4.5799400479
100
AcDbArc
 50
337.0005149599
 51
360.0
  0
ARC
  5
7E9
100
AcDbEntity
  8
BEZUGSACHSEN
100
AcDbCircle
 62
7
  6
CONTINUOUS
 10
389.1317985586
 20
73.2465007142
 40
4.5799400479
100
AcDbArc
 50
180.0
 51
211.85
  0
ARC
  5
7EA
100
AcDbEntity
  8
0
100
AcDbCircle
 62
7
  6
CONTINUOUS
 10
407.3824172882
 20
84.5411358722
 40
4.0094419215
100
AcDbArc
 50
38.3500470086
 51
41.9699912142
  0
ARC
  5
7EB
100
AcDbEntity
  8
BEZUGSACHSEN
100
AcDbCircle
 62
7
  6
CONTINUOUS
 10
390.6586427281
 20
84.046774466
 40
3.8932157826
100
AcDbArc
 50
304.6532165268
 51
77.8060972633
  0
ARC
  5
7EC
100
AcDbEntity
  8
BEZUGSACHSEN
100
AcDbCircle
 62
7
  6
CONTINUOUS
 10
386.8287331345
 20
80.3548494223
 40
2.2768746305
100
AcDbArc
 50
144.9956305717
 51
180.0043694283
  0
CIRCLE
  5
7ED
100
AcDbEntity
  8
BEZUGSACHSEN
100
AcDbCircle
 62
7
  6
CONTINUOUS
 10
389.2313605288
 20
76.9936967006
 40
1.25
  0
ARC
  5
7EE
100
AcDbEntity
  8
RUNDUNGEN
100
AcDbCircle
 62
7
  6
CONTINUOUS
 10
400.5358705011
 20
71.2858044756
 40
0.9159880096
100
AcDbArc
 50
270.0
 51
360.0
  0
ARC
  5
7EF
100
AcDbEntity
  8
BEZUGSACHSEN
100
AcDbCircle
 62
7
  6
CONTINUOUS
 10
400.5358705011
 20
71.2858044756
 40
0.9159880096
100
AcDbArc
 50
270.0
 51
360.0
  0
ARC
  5
7F0
100
AcDbEntity
  8
RUNDUNGEN
100
AcDbCircle
 62
7
  6
CONTINUOUS
 10
391.8040301883
 20
84.2787032672
 40
0.9159880096
100
AcDbArc
 50
0.0
 51
90.0
  0
ARC
  5
7F1
100
AcDbEntity
  8
RUNDUNGEN
100
AcDbCircle
 62
7
  6
CONTINUOUS
 10
400.6358705011
 20
70.654958739
 40
0.9159880096
100
AcDbArc
 50
269.9994379862
 51
360.0
  0
ARC
  5
7F2
100
AcDbEntity
  8
BEZUGSACHSEN
100
AcDbCircle
 62
7
  6
CONTINUOUS
 10
400.6358705011
 20
70.654958739
 40
0.9159880096
100
AcDbArc
 50
269.9994379862
 51
295.6778110176
  0
ARC
  5
7F3
100
AcDbEntity
  8
RUNDUNGEN
100
AcDbCircle
 62
7
  6
CONTINUOUS
 10
412.5518585107
 20
88.4927021244
 40
21.8
100
AcDbArc
 50
151.8991648625
 51
179.2948300459
  0
ARC
  5
7F4
100
AcDbEntity
  8
RUNDUNGEN
100
AcDbCircle
 62
7
  6
CONTINUOUS
 10
412.5518585107
 20
65.4946912768
 40
21.8
100
AcDbArc
 50
270.0
 51
359.2948300459
  0
ARC
  5
7F5
100
AcDbEntity
  8
BEZUGSACHSEN
100
AcDbCircle
 62
7
  6
CONTINUOUS
 10
412.5518585107
 20
88.4927021244
 40
21.8
100
AcDbArc
 50
151.8991648625
 51
179.2948300459
  0
ARC
  5
7F6
100
AcDbEntity
  8
BEZUGSACHSEN
100
AcDbCircle
 62
7
  6
CONTINUOUS
 10
412.5518585107
 20
62.4946912768
 40
18.8
100
AcDbArc
 50
211.85
 51
270.0
  0
ARC
  5
7F7
100
AcDbEntity
  8
BEZUGSACHSEN
100
AcDbCircle
 62
7
  6
CONTINUOUS
 10
412.5518585107
 20
65.4946912768
 40
11.0
100
AcDbArc
 50
270.0
 51
360.0
  0
ARC
  5
7F8
100
AcDbEntity
  8
BEZUGSACHSEN
100
AcDbCircle
 62
7
  6
CONTINUOUS
 10
412.5518585107
 20
88.4927021244
 40
11.0
100
AcDbArc
 50
170.5876012418
 51
180.0
  0
ARC
  5
7F9
100
AcDbEntity
  8
BEZUGSACHSEN
100
AcDbCircle
 62
7
  6
CONTINUOUS
 10
412.5518585107
 20
62.4946912768
 40
8.0
100
AcDbArc
 50
157.0005149599
 51
270.0
  0
ARC
  5
7FA
100
AcDbEntity
  8
BEZUGSACHSEN
100
AcDbCircle
 62
7
  6
CONTINUOUS
 10
419.8586427281
 20
69.9406189352
 40
3.8932157826
100
AcDbArc
 50
343.9016732661
 51
13.0141976473
  0
ARC
  5
7FB
100
AcDbEntity
  8
RUNDUNGEN
100
AcDbCircle
 62
7
  6
CONTINUOUS
 10
419.8586427281
 20
69.9406189352
 40
3.8932157826
100
AcDbArc
 50
343.9016732661
 51
13.0141976473
  0
ARC
  5
7FC
100
AcDbEntity
  8
KONSTRUKTIONSELEMENTE
100
AcDbCircle
 62
7
  6
CONTINUOUS
 10
411.30417893
 20
119.4982323929
 40
1.2523205429
100
AcDbArc
 50
180.0254589667
 51
188.182377078
  0
ARC
  5
7FD
100
AcDbEntity
  8
KONSTRUKTIONSELEMENTE
100
AcDbCircle
 62
7
  6
CONTINUOUS
 10
413.7995380914
 20
119.4982323929
 40
1.2523205429
100
AcDbArc
 50
351.817622922
 51
359.9745410333
  0
ARC
  5
7FE
100
AcDbEntity
  8
RUNDUNGEN
100
AcDbCircle
 62
7
  6
CONTINUOUS
 10
422.6358705011
 20
69.708690134
 40
0.9159880096
100
AcDbArc
 50
270.0
 51
360.0
  0
ARC
  5
7FF
100
AcDbEntity
  8
BEZUGSACHSEN
100
AcDbCircle
 62
7
  6
CONTINUOUS
 10
422.6358705011
 20
69.708690134
 40
0.9159880096
100
AcDbArc
 50
270.0
 51
360.0
  0
ARC
  5
800
100
AcDbEntity
  8
KONSTRUKTIONSELEMENTE
100
AcDbCircle
 62
7
  6
CONTINUOUS
 10
412.0518585107
 20
184.4936967006
 40
23.0
100
AcDbArc
 50
164.5524796884
 51
180.0
  0
ARC
  5
801
100
AcDbEntity
  8
KONSTRUKTIONSELEMENTE
100
AcDbCircle
 62
7
  6
CONTINUOUS
 10
413.0518585107
 20
184.4936967006
 40
23.0
100
AcDbArc
 50
0.0
 51
15.4472404331
  0
ARC
  5
802
100
AcDbEntity
  8
KONSTRUKTIONSELEMENTE
100
AcDbCircle
 62
7
  6
CONTINUOUS
 10
413.0518585107
 20
184.4936967006
 40
10.0
100
AcDbArc
 50
9.1985868599
 51
31.6839937034
  0
ARC
  5
803
100
AcDbEntity
  8
KONSTRUKTIONSELEMENTE
100
AcDbCircle
 62
7
  6
CONTINUOUS
 10
412.0518585107
 20
184.4936967006
 40
10.0
100
AcDbArc
 50
148.3160062966
 51
170.7889633894
  0
ARC
  5
804
100
AcDbEntity
  8
0
100
AcDbCircle
 62
7
  6
CONTINUOUS
 10
412.5518585107
 20
185.4936967006
 40
9.0
100
AcDbArc
 50
359.9296400668
 51
360.0
  0
ARC
  5
805
100
AcDbEntity
  8
0
100
AcDbCircle
 62
7
  6
CONTINUOUS
 10
412.5518585107
 20
185.4936967006
 40
9.0
100
AcDbArc
 50
286.1355748509
 51
306.510279531
  0
ARC
  5
806
100
AcDbEntity
  8
0
100
AcDbCircle
 62
7
  6
CONTINUOUS
 10
412.5518585107
 20
185.4936967006
 40
9.0
100
AcDbArc
 50
233.4107857718
 51
253.8644251491
  0
ARC
  5
807
100
AcDbEntity
  8
KONSTRUKTIONSELEMENTE
100
AcDbCircle
 62
7
  6
CONTINUOUS
 10
412.5518585107
 20
186.7578183513
 40
2.5
100
AcDbArc
 50
0.0
 51
180.0
  0
ARC
  5
808
100
AcDbEntity
  8
KONSTRUKTIONSELEMENTE
100
AcDbCircle
 62
7
  6
CONTINUOUS
 10
412.5518585107
 20
164.2432476552
 40
2.5
100
AcDbArc
 50
180.0
 51
360.0
  0
ARC
  5
809
100
AcDbEntity
  8
KONSTRUKTIONSELEMENTE
100
AcDbCircle
 62
7
  6
CONTINUOUS
 10
412.5518585107
 20
125.5930817787
 40
2.5
100
AcDbArc
 50
0.0
 51
180.0
  0
ARC
  5
80A
100
AcDbEntity
  8
KONSTRUKTIONSELEMENTE
100
AcDbCircle
 62
7
  6
CONTINUOUS
 10
412.5518585107
 20
133.6880871627
 40
2.25
100
AcDbArc
 50
180.0
 51
360.0
  0
ARC
  5
80B
100
AcDbEntity
  8
KONSTRUKTIONSELEMENTE
100
AcDbCircle
 62
7
  6
CONTINUOUS
 10
412.5518585107
 20
155.7946888805
 40
2.25
100
AcDbArc
 50
0.0
 51
180.0
  0
ARC
  5
80C
100
AcDbEntity
  8
KONSTRUKTIONSELEMENTE
100
AcDbCircle
 62
7
  6
CONTINUOUS
 10
411.3041789299
 20
180.6629689655
 40
1.2523205429
100
AcDbArc
 50
180.0254589667
 51
188.182377078
  0
ARC
  5
80D
100
AcDbEntity
  8
KONSTRUKTIONSELEMENTE
100
AcDbCircle
 62
7
  6
CONTINUOUS
 10
413.7995380914
 20
180.6629689655
 40
1.2523205429
100
AcDbArc
 50
351.817622922
 51
359.9745410333
  0
ARC
  5
80E
100
AcDbEntity
  8
BEZUGSACHSEN
100
AcDbCircle
 62
7
  6
CONTINUOUS
 10
435.9719184627
 20
80.740892687
 40
4.5799400479
100
AcDbArc
 50
0.0
 51
31.85
  0
ARC
  5
80F
100
AcDbEntity
  8
BEZUGSACHSEN
100
AcDbCircle
 62
7
  6
CONTINUOUS
 10
434.4450742933
 20
69.9406189352
 40
3.8932157826
100
AcDbArc
 50
219.6483086602
 51
257.8060972633
  0
ARC
  5
810
100
AcDbEntity
  8
BEZUGSACHSEN
100
AcDbCircle
 62
7
  6
CONTINUOUS
 10
438.2749838868
 20
73.6325439789
 40
2.2768746305
100
AcDbArc
 50
324.9956305717
 51
0.0043694283
  0
CIRCLE
  5
811
100
AcDbEntity
  8
BEZUGSACHSEN
100
AcDbCircle
 62
7
  6
CONTINUOUS
 10
435.8723564925
 20
76.9936967006
 40
1.25
  0
ARC
  5
812
100
AcDbEntity
  8
RUNDUNGEN
100
AcDbCircle
 62
7
  6
CONTINUOUS
 10
433.2996868331
 20
69.708690134
 40
0.9159880096
100
AcDbArc
 50
243.8310773296
 51
270.0
  0
ARC
  5
813
100
AcDbEntity
  8
RUNDUNGEN
100
AcDbCircle
 62
7
  6
CONTINUOUS
 10
431.4677108139
 20
83.3324346623
 40
0.9159880096
100
AcDbArc
 50
0.0
 51
89.9992215964
  0
ARC
  5
814
100
AcDbEntity
  8
BEZUGSACHSEN
100
AcDbCircle
 62
7
  6
CONTINUOUS
 10
433.2996868331
 20
69.708690134
 40
0.9159880096
100
AcDbArc
 50
243.8352840558
 51
270.0
  0
ARC
  5
815
100
AcDbEntity
  8
RUNDUNGEN
100
AcDbCircle
 62
7
  6
CONTINUOUS
 10
431.3153725192
 20
82.7015889256
 40
0.9159880096
100
AcDbArc
 50
0.0
 51
90.0
  0
ARC
  5
816
100
AcDbEntity
  8
BEZUGSACHSEN
100
AcDbCircle
 62
7
  6
CONTINUOUS
 10
431.4677108139
 20
83.3324346623
 40
0.9159880096
100
AcDbArc
 50
0.0
 51
89.9992215964
  0
ARC
  5
817
100
AcDbEntity
  8
KONSTRUKTIONSELEMENTE
100
AcDbCircle
 62
7
  6
CONTINUOUS
 10
440.0518585107
 20
137.4936967006
 40
13.0
100
AcDbArc
 50
270.0
 51
90.0
  0
ARC
  5
818
100
AcDbEntity
  8
0
100
AcDbCircle
 62
7
  6
CONTINUOUS
 10
412.5518585107
 20
363.4936967006
 40
9.0
100
AcDbArc
 50
0.0
 51
180.0
  0
SPLINE
  5
819
100
AcDbEntity
  8
KONSTRUKTIONSELEMENTE
100
AcDbSpline
 62
7
  6
CONTINUOUS
 70
0
 71
3
 72
13
 73
9
 74
0
 42
0.0000001
 43
0.0000001
 44
0.0000000001
 40
0.0
 40
0.0
 40
0.0
 40
0.0
 40
0.125019982
 40
0.2500507049
 40
0.3750818131
 40
0.5001022538
 40
0.7499434691
 40
1.0
 40
1.0
 40
1.0
 40
1.0
 10
222.7856886366
 20
152.4936967006
 30
0.0
 10
223.4404477954
 20
152.4936967006
 30
0.0
 10
224.7528640886
 20
152.6230523057
 30
0.0
 10
226.6511612921
 20
153.1606337305
 30
0.0
 10
228.4415024427
 20
153.9858264879
 30
0.0
 10
230.6585660421
 20
155.3900970779
 30
0.0
 10
233.1177197518
 20
157.5760880963
 30
0.0
 10
234.8703448178
 20
159.5207431828
 30
0.0
 10
235.7471700297
 20
160.4934934171
 30
0.0
  0
SPLINE
  5
81A
100
AcDbEntity
  8
KONSTRUKTIONSELEMENTE
100
AcDbSpline
 62
7
  6
CONTINUOUS
 70
0
 71
3
 72
13
 73
9
 74
0
 42
0.0000001
 43
0.0000001
 44
0.0000000001
 40
0.0
 40
0.0
 40
0.0
 40
0.0
 40
0.2500575135
 40
0.4998998789
 40
0.6249205552
 40
0.7499513588
 40
0.8749810087
 40
1.0
 40
1.0
 40
1.0
 40
1.0
 10
235.7471700297
 20
160.4934934171
 30
0.0
 10
236.6239986792
 20
159.520739369
 30
0.0
 10
238.3766310249
 20
157.5760758086
 30
0.0
 10
240.8357965809
 20
155.3900790014
 30
0.0
 10
243.0528680057
 20
153.9858099582
 30
0.0
 10
244.8432061773
 20
153.1606252517
 30
0.0
 10
246.741491938
 20
152.6230496844
 30
0.0
 10
248.0538974661
 20
152.4936967006
 30
0.0
 10
248.7086514303
 20
152.4936967006
 30
0.0
  0
SPLINE
  5
81B
100
AcDbEntity
  8
KONSTRUKTIONSELEMENTE
100
AcDbSpline
 62
7
  6
CONTINUOUS
 70
0
 71
3
 72
12
 73
8
 74
0
 42
0.0000001
 43
0.0000001
 44
0.0000000001
 40
0.0
 40
0.0
 40
0.0
 40
0.0
 40
0.2811077472
 40
0.5467167699
 40
0.7858873281
 40
0.8956645462
 40
1.0
 40
1.0
 40
1.0
 40
1.0
 10
412.5518585107
 20
182.0766260683
 30
0.0
 10
412.8346269706
 20
182.0766260683
 30
0.0
 10
413.3871445847
 20
182.0106306496
 30
0.0
 10
414.1326297407
 20
181.7227767837
 30
0.0
 10
414.6286538464
 20
181.3315116085
 30
0.0
 10
414.8919774731
 20
180.9557749669
 30
0.0
 10
414.9752604541
 20
180.7547445609
 30
0.0
 10
415.003677171
 20
180.653712986
 30
0.0
  0
SPLINE
  5
81C
100
AcDbEntity
  8
KONSTRUKTIONSELEMENTE
100
AcDbSpline
 62
7
  6
CONTINUOUS
 70
0
 71
3
 72
9
 73
5
 74
0
 42
0.0000001
 43
0.0000001
 44
0.0000000001
 40
0.0
 40
0.0
 40
0.0
 40
0.0
 40
0.2523720539
 40
1.0
 40
1.0
 40
1.0
 40
1.0
 10
415.003677171
 20
180.653712986
 30
0.0
 10
415.0116222631
 20
180.6254653468
 30
0.0
 10
415.0394109915
 20
180.5125366528
 30
0.0
 10
415.0518585107
 20
180.39578705
 30
0.0
 10
415.0518585107
 20
180.3088591153
 30
0.0
  0
SPLINE
  5
81D
100
AcDbEntity
  8
KONSTRUKTIONSELEMENTE
100
AcDbSpline
 62
7
  6
CONTINUOUS
 70
0
 71
3
 72
9
 73
5
 74
0
 42
0.0000001
 43
0.0000001
 44
0.0000000001
 40
0.0
 40
0.0
 40
0.0
 40
0.0
 40
0.7476279461
 40
1.0
 40
1.0
 40
1.0
 40
1.0
 10
410.0518585107
 20
180.3088591153
 30
0.0
 10
410.0518585107
 20
180.39578705
 30
0.0
 10
410.0643060299
 20
180.5125366528
 30
0.0
 10
410.0920947582
 20
180.6254653468
 30
0.0
 10
410.1000398503
 20
180.653712986
 30
0.0
  0
SPLINE
  5
81E
100
AcDbEntity
  8
KONSTRUKTIONSELEMENTE
100
AcDbSpline
 62
7
  6
CONTINUOUS
 70
0
 71
3
 72
12
 73
8
 74
0
 42
0.0000001
 43
0.0000001
 44
0.0000000001
 40
0.0
 40
0.0
 40
0.0
 40
0.0
 40
0.1043354538
 40
0.2141126719
 40
0.4532832301
 40
0.7188922528
 40
1.0
 40
1.0
 40
1.0
 40
1.0
 10
410.1000398503
 20
180.653712986
 30
0.0
 10
410.1284565673
 20
180.7547445609
 30
0.0
 10
410.2117395482
 20
180.9557749669
 30
0.0
 10
410.475063175
 20
181.3315116085
 30
0.0
 10
410.9710872807
 20
181.7227767837
 30
0.0
 10
411.7165724366
 20
182.0106306496
 30
0.0
 10
412.2690900507
 20
182.0766260683
 30
0.0
 10
412.5518585107
 20
182.0766260683
 30
0.0
  0
SPLINE
  5
81F
100
AcDbEntity
  8
KONSTRUKTIONSELEMENTE
100
AcDbSpline
 62
7
  6
CONTINUOUS
 70
0
 71
3
 72
13
 73
9
 74
0
 42
0.0000001
 43
0.0000001
 44
0.0000000001
 40
0.0
 40
0.0
 40
0.0
 40
0.0
 40
0.287055648
 40
0.5535812554
 40
0.6754845091
 40
0.7893375695
 40
0.896542204
 40
1.0
 40
1.0
 40
1.0
 40
1.0
 10
412.5518585107
 20
182.4301794589
 30
0.0
 10
412.8739003603
 20
182.4301794589
 30
0.0
 10
413.4980561006
 20
182.346261041
 30
0.0
 10
414.2023123521
 20
182.02815991
 30
0.0
 10
414.6340647698
 20
181.6607762061
 30
0.0
 10
414.8708963562
 20
181.3532291854
 30
0.0
 10
415.0178991399
 20
181.015959374
 30
0.0
 10
415.0518585107
 20
180.7784796873
 30
0.0
 10
415.0518585107
 20
180.6624125059
 30
0.0
  0
SPLINE
  5
820
100
AcDbEntity
  8
KONSTRUKTIONSELEMENTE
100
AcDbSpline
 62
7
  6
CONTINUOUS
 70
0
 71
3
 72
13
 73
9
 74
0
 42
0.0000001
 43
0.0000001
 44
0.0000000001
 40
0.0
 40
0.0
 40
0.0
 40
0.0
 40
0.103457796
 40
0.2106624305
 40
0.3245154909
 40
0.4464187446
 40
0.712944352
 40
1.0
 40
1.0
 40
1.0
 40
1.0
 10
410.0518585107
 20
180.6624125059
 30
0.0
 10
410.0518585107
 20
180.7784796873
 30
0.0
 10
410.0858178814
 20
181.015959374
 30
0.0
 10
410.2328206651
 20
181.3532291854
 30
0.0
 10
410.4696522516
 20
181.6607762061
 30
0.0
 10
410.9014046693
 20
182.02815991
 30
0.0
 10
411.6056609208
 20
182.346261041
 30
0.0
 10
412.229816661
 20
182.4301794589
 30
0.0
 10
412.5518585107
 20
182.4301794589
 30
0.0
  0
SPLINE
  5
821
100
AcDbEntity
  8
KONSTRUKTIONSELEMENTE
100
AcDbSpline
 62
7
  6
CONTINUOUS
 70
0
 71
3
 72
12
 73
8
 74
0
 42
0.0000001
 43
0.0000001
 44
0.0000000001
 40
0.0
 40
0.0
 40
0.0
 40
0.0
 40
0.2811077472
 40
0.5467167699
 40
0.7858873281
 40
0.8956645462
 40
1.0
 40
1.0
 40
1.0
 40
1.0
 10
412.5518585107
 20
120.9118894956
 30
0.0
 10
412.8346269706
 20
120.9118894956
 30
0.0
 10
413.3871445847
 20
120.845894077
 30
0.0
 10
414.1326297407
 20
120.5580402111
 30
0.0
 10
414.6286538464
 20
120.1667750358
 30
0.0
 10
414.8919774731
 20
119.7910383942
 30
0.0
 10
414.9752604541
 20
119.5900079883
 30
0.0
 10
415.003677171
 20
119.4889764134
 30
0.0
  0
SPLINE
  5
822
100
AcDbEntity
  8
KONSTRUKTIONSELEMENTE
100
AcDbSpline
 62
7
  6
CONTINUOUS
 70
0
 71
3
 72
9
 73
5
 74
0
 42
0.0000001
 43
0.0000001
 44
0.0000000001
 40
0.0
 40
0.0
 40
0.0
 40
0.0
 40
0.2523720539
 40
1.0
 40
1.0
 40
1.0
 40
1.0
 10
415.003677171
 20
119.4889764134
 30
0.0
 10
415.0116222631
 20
119.4607287741
 30
0.0
 10
415.0394109915
 20
119.3478000801
 30
0.0
 10
415.0518585107
 20
119.2310504773
 30
0.0
 10
415.0518585107
 20
119.1441225427
 30
0.0
  0
SPLINE
  5
823
100
AcDbEntity
  8
KONSTRUKTIONSELEMENTE
100
AcDbSpline
 62
7
  6
CONTINUOUS
 70
0
 71
3
 72
9
 73
5
 74
0
 42
0.0000001
 43
0.0000001
 44
0.0000000001
 40
0.0
 40
0.0
 40
0.0
 40
0.0
 40
0.7476279461
 40
1.0
 40
1.0
 40
1.0
 40
1.0
 10
410.0518585107
 20
119.1441225427
 30
0.0
 10
410.0518585107
 20
119.2310504773
 30
0.0
 10
410.0643060299
 20
119.3478000801
 30
0.0
 10
410.0920947582
 20
119.4607287741
 30
0.0
 10
410.1000398503
 20
119.4889764134
 30
0.0
  0
SPLINE
  5
824
100
AcDbEntity
  8
KONSTRUKTIONSELEMENTE
100
AcDbSpline
 62
7
  6
CONTINUOUS
 70
0
 71
3
 72
12
 73
8
 74
0
 42
0.0000001
 43
0.0000001
 44
0.0000000001
 40
0.0
 40
0.0
 40
0.0
 40
0.0
 40
0.1043354538
 40
0.2141126719
 40
0.4532832301
 40
0.7188922528
 40
1.0
 40
1.0
 40
1.0
 40
1.0
 10
410.1000398503
 20
119.4889764134
 30
0.0
 10
410.1284565673
 20
119.5900079883
 30
0.0
 10
410.2117395482
 20
119.7910383942
 30
0.0
 10
410.475063175
 20
120.1667750358
 30
0.0
 10
410.9710872807
 20
120.5580402111
 30
0.0
 10
411.7165724366
 20
120.845894077
 30
0.0
 10
412.2690900507
 20
120.9118894956
 30
0.0
 10
412.5518585107
 20
120.9118894956
 30
0.0
  0
SPLINE
  5
825
100
AcDbEntity
  8
KONSTRUKTIONSELEMENTE
100
AcDbSpline
 62
7
  6
CONTINUOUS
 70
0
 71
3
 72
13
 73
9
 74
0
 42
0.0000001
 43
0.0000001
 44
0.0000000001
 40
0.0
 40
0.0
 40
0.0
 40
0.0
 40
0.287055648
 40
0.5535812554
 40
0.6754845091
 40
0.7893375695
 40
0.896542204
 40
1.0
 40
1.0
 40
1.0
 40
1.0
 10
412.5518585107
 20
121.2654428862
 30
0.0
 10
412.8739003603
 20
121.2654428862
 30
0.0
 10
413.4980561006
 20
121.1815244684
 30
0.0
 10
414.2023123521
 20
120.8634233373
 30
0.0
 10
414.6340647698
 20
120.4960396334
 30
0.0
 10
414.8708963562
 20
120.1884926127
 30
0.0
 10
415.0178991399
 20
119.8512228014
 30
0.0
 10
415.0518585107
 20
119.6137431147
 30
0.0
 10
415.0518585107
 20
119.4976759333
 30
0.0
  0
SPLINE
  5
826
100
AcDbEntity
  8
KONSTRUKTIONSELEMENTE
100
AcDbSpline
 62
7
  6
CONTINUOUS
 70
0
 71
3
 72
13
 73
9
 74
0
 42
0.0000001
 43
0.0000001
 44
0.0000000001
 40
0.0
 40
0.0
 40
0.0
 40
0.0
 40
0.103457796
 40
0.2106624305
 40
0.3245154909
 40
0.4464187446
 40
0.712944352
 40
1.0
 40
1.0
 40
1.0
 40
1.0
 10
410.0518585107
 20
119.4976759333
 30
0.0
 10
410.0518585107
 20
119.6137431147
 30
0.0
 10
410.0858178814
 20
119.8512228014
 30
0.0
 10
410.2328206651
 20
120.1884926127
 30
0.0
 10
410.4696522516
 20
120.4960396334
 30
0.0
 10
410.9014046693
 20
120.8634233373
 30
0.0
 10
411.6056609208
 20
121.1815244684
 30
0.0
 10
412.229816661
 20
121.2654428862
 30
0.0
 10
412.5518585107
 20
121.2654428862
 30
0.0
  0
SPLINE
  5
827
100
AcDbEntity
  8
KONSTRUKTIONSELEMENTE
100
AcDbSpline
 62
7
  6
CONTINUOUS
 70
0
 71
3
 72
12
 73
8
 74
0
 42
0.0000001
 43
0.0000001
 44
0.0000000001
 40
0.0
 40
0.0
 40
0.0
 40
0.0
 40
0.1282453638
 40
0.2146169864
 40
0.321985829
 40
0.6101725692
 40
1.0
 40
1.0
 40
1.0
 40
1.0
 10
409.0518585107
 20
165.6010380666
 30
0.0
 10
409.0518585107
 20
165.6703010765
 30
0.0
 10
409.0715214964
 20
165.7868449261
 30
0.0
 10
409.1382113901
 20
165.94786845
 30
0.0
 10
409.2693762808
 20
166.173679624
 30
0.0
 10
409.5606707412
 20
166.4886540674
 30
0.0
 10
409.8629681446
 20
166.7000213094
 30
0.0
 10
410.0455044457
 20
166.8049359059
 30
0.0
  0
SPLINE
  5
828
100
AcDbEntity
  8
KONSTRUKTIONSELEMENTE
100
AcDbSpline
 62
7
  6
CONTINUOUS
 70
0
 71
3
 72
12
 73
8
 74
0
 42
0.0000001
 43
0.0000001
 44
0.0000000001
 40
0.0
 40
0.0
 40
0.0
 40
0.0
 40
0.3898396094
 40
0.6780156338
 40
0.7853729626
 40
0.8717632718
 40
1.0
 40
1.0
 40
1.0
 40
1.0
 10
415.0583041118
 20
166.8048834348
 30
0.0
 10
415.2408313552
 20
166.6999680252
 30
0.0
 10
415.5430791189
 20
166.4885786875
 30
0.0
 10
415.8343840951
 20
166.17366077
 30
0.0
 10
415.9655222534
 20
165.947852308
 30
0.0
 10
416.0321680605
 20
165.7868265736
 30
0.0
 10
416.0518585107
 20
165.670291799
 30
0.0
 10
416.0518585107
 20
165.6010380666
 30
0.0
  0
SPLINE
  5
829
100
AcDbEntity
  8
KONSTRUKTIONSELEMENTE
100
AcDbSpline
 62
7
  6
CONTINUOUS
 70
0
 71
3
 72
13
 73
9
 74
0
 42
0.0000001
 43
0.0000001
 44
0.0000000001
 40
0.0
 40
0.0
 40
0.0
 40
0.0
 40
0.1197290731
 40
0.2397365246
 40
0.3609040964
 40
0.4836831257
 40
0.7359942557
 40
1.0
 40
1.0
 40
1.0
 40
1.0
 10
404.5518585107
 20
165.6010380666
 30
0.0
 10
404.5518585107
 20
165.9502517687
 30
0.0
 10
404.6239621325
 20
166.6515928047
 30
0.0
 10
404.9422474672
 20
167.6618110529
 30
0.0
 10
405.4516310089
 20
168.6003892715
 30
0.0
 10
406.3634315374
 20
169.7331637782
 30
0.0
 10
407.879322803
 20
170.8703071943
 30
0.0
 10
409.3022096531
 20
171.4168529183
 30
0.0
 10
410.0484341748
 20
171.6068214089
 30
0.0
  0
SPLINE
  5
82A
100
AcDbEntity
  8
KONSTRUKTIONSELEMENTE
100
AcDbSpline
 62
7
  6
CONTINUOUS
 70
0
 71
3
 72
13
 73
9
 74
0
 42
0.0000001
 43
0.0000001
 44
0.0000000001
 40
0.0
 40
0.0
 40
0.0
 40
0.0
 40
0.2640112835
 40
0.5163080567
 40
0.6390830379
 40
0.7602378991
 40
0.8802701562
 40
1.0
 40
1.0
 40
1.0
 40
1.0
 10
415.0561863132
 20
171.6065742193
 30
0.0
 10
415.8023261355
 20
171.416539618
 30
0.0
 10
417.2250025769
 20
170.8699729868
 30
0.0
 10
418.740592644
 20
169.7328276459
 30
0.0
 10
419.6521829214
 20
168.6002121373
 30
0.0
 10
420.1615738372
 20
167.6617348507
 30
0.0
 10
420.4797105563
 20
166.6515467476
 30
0.0
 10
420.5518585107
 20
165.9502168641
 30
0.0
 10
420.5518585107
 20
165.6010380666
 30
0.0
  0
SPLINE
  5
82B
100
AcDbEntity
  8
KONSTRUKTIONSELEMENTE
100
AcDbSpline
 62
7
  6
CONTINUOUS
 70
0
 71
3
 72
13
 73
9
 74
0
 42
0.0000001
 43
0.0000001
 44
0.0000000001
 40
0.0
 40
0.0
 40
0.0
 40
0.0
 40
0.1194785188
 40
0.2392741704
 40
0.3602835725
 40
0.4830059608
 40
0.7355440041
 40
1.0
 40
1.0
 40
1.0
 40
1.0
 10
420.5518585107
 20
154.9944363488
 30
0.0
 10
420.5518585107
 20
154.6357967376
 30
0.0
 10
420.4757630275
 20
153.9152901086
 30
0.0
 10
420.1401867999
 20
152.8797943529
 30
0.0
 10
419.6042023346
 20
151.9214746737
 30
0.0
 10
418.6465067689
 20
150.7710949128
 30
0.0
 10
417.0601881262
 20
149.6317523935
 30
0.0
 10
415.5801346837
 20
149.1042263732
 30
0.0
 10
414.8059708312
 20
148.9286702282
 30
0.0
  0
SPLINE
  5
82C
100
AcDbEntity
  8
KONSTRUKTIONSELEMENTE
100
AcDbSpline
 62
7
  6
CONTINUOUS
 70
0
 71
3
 72
13
 73
9
 74
0
 42
0.0000001
 43
0.0000001
 44
0.0000000001
 40
0.0
 40
0.0
 40
0.0
 40
0.0
 40
0.2644681654
 40
0.5169944072
 40
0.6397129492
 40
0.760706397
 40
0.8805228501
 40
1.0
 40
1.0
 40
1.0
 40
1.0
 10
410.2996877319
 20
148.9282390159
 30
0.0
 10
409.5252904054
 20
149.1037191201
 30
0.0
 10
408.0447995578
 20
149.6310398488
 30
0.0
 10
406.4579491507
 20
150.7703923122
 30
0.0
 10
405.4999771914
 20
151.920834861
 30
0.0
 10
404.9636604336
 20
152.8792566476
 30
0.0
 10
404.628046097
 20
153.91501006
 30
0.0
 10
404.5518585107
 20
154.6357220785
 30
0.0
 10
404.5518585107
 20
154.9944363488
 30
0.0
  0
SPLINE
  5
82D
100
AcDbEntity
  8
KONSTRUKTIONSELEMENTE
100
AcDbSpline
 62
7
  6
CONTINUOUS
 70
0
 71
3
 72
11
 73
7
 74
0
 42
0.0000001
 43
0.0000001
 44
0.0000000001
 40
0.0
 40
0.0
 40
0.0
 40
0.0
 40
0.3114703232
 40
0.4450990083
 40
0.6063354134
 40
1.0
 40
1.0
 40
1.0
 40
1.0
 10
416.0518585107
 20
154.9944363488
 30
0.0
 10
416.0518585107
 20
154.7972815024
 30
0.0
 10
415.9131479751
 20
154.5221866154
 30
0.0
 10
415.6617801286
 20
154.235834621
 30
0.0
 10
415.3334114542
 20
153.9460546148
 30
0.0
 10
415.0286093723
 20
153.7646721845
 30
0.0
 10
414.803850399
 20
153.6570840535
 30
0.0
  0
SPLINE
  5
82E
100
AcDbEntity
  8
KONSTRUKTIONSELEMENTE
100
AcDbSpline
 62
7
  6
CONTINUOUS
 70
0
 71
3
 72
11
 73
7
 74
0
 42
0.0000001
 43
0.0000001
 44
0.0000000001
 40
0.0
 40
0.0
 40
0.0
 40
0.0
 40
0.3936803283
 40
0.5549226436
 40
0.6885473432
 40
1.0
 40
1.0
 40
1.0
 40
1.0
 10
410.3001092752
 20
153.6569721255
 30
0.0
 10
410.0753013692
 20
153.7645620261
 30
0.0
 10
409.7704344606
 20
153.9459651438
 30
0.0
 10
409.4420066606
 20
154.235784415
 30
0.0
 10
409.1905632839
 20
154.5221295613
 30
0.0
 10
409.0518585107
 20
154.797265045
 30
0.0
 10
409.0518585107
 20
154.9944363488
 30
0.0
  0
SPLINE
  5
82F
100
AcDbEntity
  8
KONSTRUKTIONSELEMENTE
100
AcDbSpline
 62
7
  6
CONTINUOUS
 70
0
 71
3
 72
11
 73
7
 74
0
 42
0.0000001
 43
0.0000001
 44
0.0000000001
 40
0.0
 40
0.0
 40
0.0
 40
0.0
 40
0.3114703232
 40
0.4450990083
 40
0.6063354134
 40
1.0
 40
1.0
 40
1.0
 40
1.0
 10
409.0518585107
 20
134.4883396944
 30
0.0
 10
409.0518585107
 20
134.6854945409
 30
0.0
 10
409.1905690463
 20
134.9605894278
 30
0.0
 10
409.4419368928
 20
135.2469414222
 30
0.0
 10
409.7703055671
 20
135.5367214284
 30
0.0
 10
410.0751076491
 20
135.7181038587
 30
0.0
 10
410.2998666224
 20
135.8256919897
 30
0.0
  0
SPLINE
  5
830
100
AcDbEntity
  8
KONSTRUKTIONSELEMENTE
100
AcDbSpline
 62
7
  6
CONTINUOUS
 70
0
 71
3
 72
11
 73
7
 74
0
 42
0.0000001
 43
0.0000001
 44
0.0000000001
 40
0.0
 40
0.0
 40
0.0
 40
0.0
 40
0.3936803283
 40
0.5549226436
 40
0.6885473432
 40
1.0
 40
1.0
 40
1.0
 40
1.0
 10
414.8036077462
 20
135.8258039178
 30
0.0
 10
415.0284156521
 20
135.7182140172
 30
0.0
 10
415.3332825608
 20
135.5368108994
 30
0.0
 10
415.6617103607
 20
135.2469916282
 30
0.0
 10
415.9131537374
 20
134.960646482
 30
0.0
 10
416.0518585107
 20
134.6855109983
 30
0.0
 10
416.0518585107
 20
134.4883396944
 30
0.0
  0
SPLINE
  5
831
100
AcDbEntity
  8
KONSTRUKTIONSELEMENTE
100
AcDbSpline
 62
7
  6
CONTINUOUS
 70
0
 71
3
 72
13
 73
9
 74
0
 42
0.0000001
 43
0.0000001
 44
0.0000000001
 40
0.0
 40
0.0
 40
0.0
 40
0.0
 40
0.1194785188
 40
0.2392741704
 40
0.3602835725
 40
0.4830059608
 40
0.7355440041
 40
1.0
 40
1.0
 40
1.0
 40
1.0
 10
404.5518585107
 20
134.4883396944
 30
0.0
 10
404.5518585107
 20
134.8469793056
 30
0.0
 10
404.6279539938
 20
135.5674859347
 30
0.0
 10
404.9635302215
 20
136.6029816904
 30
0.0
 10
405.4995146867
 20
137.5613013695
 30
0.0
 10
406.4572102524
 20
138.7116811304
 30
0.0
 10
408.0435288952
 20
139.8510236497
 30
0.0
 10
409.5235823376
 20
140.37854967
 30
0.0
 10
410.2977461902
 20
140.5541058151
 30
0.0
  0
SPLINE
  5
832
100
AcDbEntity
  8
KONSTRUKTIONSELEMENTE
100
AcDbSpline
 62
7
  6
CONTINUOUS
 70
0
 71
3
 72
13
 73
9
 74
0
 42
0.0000001
 43
0.0000001
 44
0.0000000001
 40
0.0
 40
0.0
 40
0.0
 40
0.0
 40
0.2644681654
 40
0.5169944072
 40
0.6397129492
 40
0.760706397
 40
0.8805228501
 40
1.0
 40
1.0
 40
1.0
 40
1.0
 10
414.8040292895
 20
140.5545370274
 30
0.0
 10
415.578426616
 20
140.3790569232
 30
0.0
 10
417.0589174636
 20
139.8517361945
 30
0.0
 10
418.6457678706
 20
138.7123837311
 30
0.0
 10
419.60373983
 20
137.5619411822
 30
0.0
 10
420.1400565877
 20
136.6035193957
 30
0.0
 10
420.4756709243
 20
135.5677659832
 30
0.0
 10
420.5518585107
 20
134.8470539647
 30
0.0
 10
420.5518585107
 20
134.4883396944
 30
0.0
  0
SPLINE
  5
833
100
AcDbEntity
  8
KONSTRUKTIONSELEMENTE
100
AcDbSpline
 62
7
  6
CONTINUOUS
 70
0
 71
3
 72
13
 73
9
 74
0
 42
0.0000001
 43
0.0000001
 44
0.0000000001
 40
0.0
 40
0.0
 40
0.0
 40
0.0
 40
0.1197290731
 40
0.2397365246
 40
0.3609040964
 40
0.4836831257
 40
0.7359942557
 40
1.0
 40
1.0
 40
1.0
 40
1.0
 10
420.5518585107
 20
123.8817379766
 30
0.0
 10
420.5518585107
 20
123.5325242745
 30
0.0
 10
420.4797548889
 20
122.8311832385
 30
0.0
 10
420.1614695541
 20
121.8209649903
 30
0.0
 10
419.6520860125
 20
120.8823867717
 30
0.0
 10
418.7402854839
 20
119.749612265
 30
0.0
 10
417.2243942183
 20
118.6124688489
 30
0.0
 10
415.8015073683
 20
118.065923125
 30
0.0
 10
415.0552828466
 20
117.8759546344
 30
0.0
  0
SPLINE
  5
834
100
AcDbEntity
  8
KONSTRUKTIONSELEMENTE
100
AcDbSpline
 62
7
  6
CONTINUOUS
 70
0
 71
3
 72
13
 73
9
 74
0
 42
0.0000001
 43
0.0000001
 44
0.0000000001
 40
0.0
 40
0.0
 40
0.0
 40
0.0
 40
0.2640112835
 40
0.5163080567
 40
0.6390830379
 40
0.7602378991
 40
0.8802701562
 40
1.0
 40
1.0
 40
1.0
 40
1.0
 10
410.0475307082
 20
117.8762018239
 30
0.0
 10
409.3013908859
 20
118.0662364252
 30
0.0
 10
407.8787144445
 20
118.6128030564
 30
0.0
 10
406.3631243774
 20
119.7499483974
 30
0.0
 10
405.4515340999
 20
120.882563906
 30
0.0
 10
404.9421431841
 20
121.8210411925
 30
0.0
 10
404.624006465
 20
122.8312292957
 30
0.0
 10
404.5518585107
 20
123.5325591792
 30
0.0
 10
404.5518585107
 20
123.8817379766
 30
0.0
  0
SPLINE
  5
835
100
AcDbEntity
  8
KONSTRUKTIONSELEMENTE
100
AcDbSpline
 62
7
  6
CONTINUOUS
 70
0
 71
3
 72
12
 73
8
 74
0
 42
0.0000001
 43
0.0000001
 44
0.0000000001
 40
0.0
 40
0.0
 40
0.0
 40
0.0
 40
0.1282453638
 40
0.2146169864
 40
0.321985829
 40
0.6101725692
 40
1.0
 40
1.0
 40
1.0
 40
1.0
 10
416.0518585107
 20
123.8817379766
 30
0.0
 10
416.0518585107
 20
123.8124749668
 30
0.0
 10
416.032195525
 20
123.6959311172
 30
0.0
 10
415.9655056313
 20
123.5349075933
 30
0.0
 10
415.8343407405
 20
123.3090964192
 30
0.0
 10
415.5430462801
 20
122.9941219759
 30
0.0
 10
415.2407488767
 20
122.7827547338
 30
0.0
 10
415.0582125757
 20
122.6778401374
 30
0.0
  0
SPLINE
  5
836
100
AcDbEntity
  8
KONSTRUKTIONSELEMENTE
100
AcDbSpline
 62
7
  6
CONTINUOUS
 70
0
 71
3
 72
12
 73
8
 74
0
 42
0.0000001
 43
0.0000001
 44
0.0000000001
 40
0.0
 40
0.0
 40
0.0
 40
0.0
 40
0.3898396094
 40
0.6780156338
 40
0.7853729626
 40
0.8717632718
 40
1.0
 40
1.0
 40
1.0
 40
1.0
 10
410.0454129096
 20
122.6778926085
 30
0.0
 10
409.8628856661
 20
122.782808018
 30
0.0
 10
409.5606379025
 20
122.9941973557
 30
0.0
 10
409.2693329263
 20
123.3091152733
 30
0.0
 10
409.138194768
 20
123.5349237353
 30
0.0
 10
409.0715489609
 20
123.6959494697
 30
0.0
 10
409.0518585107
 20
123.8124842442
 30
0.0
 10
409.0518585107
 20
123.8817379766
 30
0.0
  0
SPLINE
  5
837
100
AcDbEntity
  8
KONSTRUKTIONSELEMENTE
100
AcDbSpline
 62
7
  6
CONTINUOUS
 70
0
 71
3
 72
13
 73
9
 74
0
 42
0.0000001
 43
0.0000001
 44
0.0000000001
 40
0.0
 40
0.0
 40
0.0
 40
0.0
 40
0.099931324
 40
0.20378487
 40
0.314028372
 40
0.4329174231
 40
0.6986441072
 40
1.0
 40
1.0
 40
1.0
 40
1.0
 10
430.0518585107
 20
195.2995228765
 30
0.0
 10
430.0518585107
 20
194.8429631791
 30
0.0
 10
429.962468866
 20
193.9097295809
 30
0.0
 10
429.5616275235
 20
192.524276933
 30
0.0
 10
428.8841766044
 20
191.1537218967
 30
0.0
 10
427.5629024981
 20
189.3085062149
 30
0.0
 10
425.1777302035
 20
187.2117712708
 30
0.0
 10
422.8598877852
 20
186.0036567333
 30
0.0
 10
421.5829367323
 20
185.4888598702
 30
0.0
  0
SPLINE
  5
838
100
AcDbEntity
  8
KONSTRUKTIONSELEMENTE
100
AcDbSpline
 62
7
  6
CONTINUOUS
 70
0
 71
3
 72
9
 73
5
 74
0
 42
0.0000001
 43
0.0000001
 44
0.0000000001
 40
0.0
 40
0.0
 40
0.0
 40
0.0
 40
0.2423234262
 40
1.0
 40
1.0
 40
1.0
 40
1.0
 10
421.5829367323
 20
185.4888598702
 30
0.0
 10
421.0790247157
 20
185.2857100903
 30
0.0
 10
418.9671087902
 20
184.5290387984
 30
0.0
 10
416.7450658347
 20
184.0892554626
 30
0.0
 10
415.054225511
 20
183.9249056331
 30
0.0
  0
SPLINE
  5
839
100
AcDbEntity
  8
KONSTRUKTIONSELEMENTE
100
AcDbSpline
 62
7
  6
CONTINUOUS
 70
0
 71
3
 72
9
 73
5
 74
0
 42
0.0000001
 43
0.0000001
 44
0.0000000001
 40
0.0
 40
0.0
 40
0.0
 40
0.0
 40
0.2569635324
 40
1.0
 40
1.0
 40
1.0
 40
1.0
 10
410.0498316838
 20
183.9248658587
 30
0.0
 10
409.4763374953
 20
183.9806034394
 30
0.0
 10
407.2529660226
 20
184.2728470087
 30
0.0
 10
405.0654484633
 20
184.866066008
 30
0.0
 10
403.5201921993
 20
185.4891035176
 30
0.0
  0
SPLINE
  5
83A
100
AcDbEntity
  8
KONSTRUKTIONSELEMENTE
100
AcDbSpline
 62
7
  6
CONTINUOUS
 70
0
 71
3
 72
13
 73
9
 74
0
 42
0.0000001
 43
0.0000001
 44
0.0000000001
 40
0.0
 40
0.0
 40
0.0
 40
0.0
 40
0.3013568494
 40
0.5670841589
 40
0.68597296
 40
0.7962153069
 40
0.9000723672
 40
1.0
 40
1.0
 40
1.0
 40
1.0
 10
403.5201921993
 20
185.4891035176
 30
0.0
 10
402.2433177209
 20
186.0039311961
 30
0.0
 10
399.9255901927
 20
187.2120226404
 30
0.0
 10
397.5406142883
 20
189.3087653088
 30
0.0
 10
396.2194245844
 20
191.1539052123
 30
0.0
 10
395.5420291848
 20
192.5244210362
 30
0.0
 10
395.1412463073
 20
193.9098134997
 30
0.0
 10
395.0518585107
 20
194.8430012214
 30
0.0
 10
395.0518585107
 20
195.2995228765
 30
0.0
  0
SPLINE
  5
83B
100
AcDbEntity
  8
KONSTRUKTIONSELEMENTE
100
AcDbSpline
 62
7
  6
CONTINUOUS
 70
0
 71
3
 72
14
 73
10
 74
0
 42
0.0000001
 43
0.0000001
 44
0.0000000001
 40
0.0
 40
0.0
 40
0.0
 40
0.0
 40
0.1118036627
 40
0.2253829785
 40
0.3423808581
 40
0.464112494
 40
0.5912619309
 40
0.7237355667
 40
1.0
 40
1.0
 40
1.0
 40
1.0
 10
436.0518585107
 20
195.2995228765
 30
0.0
 10
436.0518585107
 20
194.1877266542
 30
0.0
 10
435.764864573
 20
191.9367703264
 30
0.0
 10
434.5105279486
 20
188.7385625187
 30
0.0
 10
432.5138880141
 20
185.8263064605
 30
0.0
 10
429.8776234442
 20
183.2872166902
 30
0.0
 10
426.7039778681
 20
181.1768349993
 30
0.0
 10
421.8383334017
 20
178.9648674259
 30
0.0
 10
417.7926106364
 20
178.1174854583
 30
0.0
 10
415.0538526927
 20
177.9019698373
 30
0.0
  0
SPLINE
  5
83C
100
AcDbEntity
  8
KONSTRUKTIONSELEMENTE
100
AcDbSpline
 62
7
  6
CONTINUOUS
 70
0
 71
3
 72
14
 73
10
 74
0
 42
0.0000001
 43
0.0000001
 44
0.0000000001
 40
0.0
 40
0.0
 40
0.0
 40
0.0
 40
0.2762672291
 40
0.4087406592
 40
0.5358892349
 40
0.6576192992
 40
0.7746159913
 40
0.8881946208
 40
1.0
 40
1.0
 40
1.0
 40
1.0
 10
410.0505378605
 20
177.9019095047
 30
0.0
 10
407.3116842204
 20
178.1173564302
 30
0.0
 10
403.2658276829
 20
178.9647135201
 30
0.0
 10
398.400025991
 20
181.1766665981
 30
0.0
 10
395.2263052706
 20
183.2870442663
 30
0.0
 10
392.5899739309
 20
185.8261320474
 30
0.0
 10
390.5932757298
 20
188.7384028106
 30
0.0
 10
389.3388673256
 20
191.9366650496
 30
0.0
 10
389.0518585107
 20
194.1876844086
 30
0.0
 10
389.0518585107
 20
195.2995228765
 30
0.0
  0
SPLINE
  5
83D
100
AcDbEntity
  8
KONSTRUKTIONSELEMENTE
100
AcDbSpline
 62
7
  6
CONTINUOUS
 70
0
 71
3
 72
13
 73
9
 74
0
 42
0.0000001
 43
0.0000001
 44
0.0000000001
 40
0.0
 40
0.0
 40
0.0
 40
0.0
 40
0.0998901079
 40
0.2037110076
 40
0.3139384643
 40
0.4328288473
 40
0.6985944655
 40
1.0
 40
1.0
 40
1.0
 40
1.0
 10
395.0518585107
 20
195.2995228765
 30
0.0
 10
395.0518585107
 20
195.7568447084
 30
0.0
 10
395.1415539262
 20
196.691689794
 30
0.0
 10
395.5437647875
 20
198.0794666598
 30
0.0
 10
396.2235260839
 20
199.4522095469
 30
0.0
 10
397.5493053921
 20
201.3001723242
 30
0.0
 10
399.9422106584
 20
203.3988669533
 30
0.0
 10
402.2668332111
 20
204.6066914843
 30
0.0
 10
403.5473640575
 20
205.1208817178
 30
0.0
  0
SPLINE
  5
83E
100
AcDbEntity
  8
KONSTRUKTIONSELEMENTE
100
AcDbSpline
 62
7
  6
CONTINUOUS
 70
0
 71
3
 72
13
 73
9
 74
0
 42
0.0000001
 43
0.0000001
 44
0.0000000001
 40
0.0
 40
0.0
 40
0.0
 40
0.0
 40
0.3014034156
 40
0.5671672452
 40
0.6860573137
 40
0.7962845856
 40
0.9001110185
 40
1.0
 40
1.0
 40
1.0
 40
1.0
 10
421.5585918337
 20
205.1199763459
 30
0.0
 10
422.8388233587
 20
204.6057158427
 30
0.0
 10
425.1629104611
 20
203.3978972342
 30
0.0
 10
427.5551396834
 20
201.2993159441
 30
0.0
 10
428.8805542704
 20
199.4515989497
 30
0.0
 10
429.5601167597
 20
198.0790310908
 30
0.0
 10
429.9621839265
 20
196.6914586233
 30
0.0
 10
430.0518585107
 20
195.7567593931
 30
0.0
 10
430.0518585107
 20
195.2995228765
 30
0.0
  0
SPLINE
  5
83F
100
AcDbEntity
  8
KONSTRUKTIONSELEMENTE
100
AcDbSpline
 62
7
  6
CONTINUOUS
 70
0
 71
3
 72
14
 73
10
 74
0
 42
0.0000001
 43
0.0000001
 44
0.0000000001
 40
0.0
 40
0.0
 40
0.0
 40
0.0
 40
0.1149437054
 40
0.23104361
 40
0.3494381543
 40
0.471128163
 40
0.5968807218
 40
0.7271025473
 40
1.0
 40
1.0
 40
1.0
 40
1.0
 10
389.0518585107
 20
195.2995228765
 30
0.0
 10
389.0518585107
 20
196.1895716702
 30
0.0
 10
389.2340610254
 20
197.9837086633
 30
0.0
 10
390.0394297881
 20
200.5839066751
 30
0.0
 10
391.3417003615
 20
203.0326539217
 30
0.0
 10
393.0934393986
 20
205.2753128098
 30
0.0
 10
395.2437435069
 20
207.2743899475
 30
0.0
 10
398.6202987343
 20
209.6096835633
 30
0.0
 10
401.5261702381
 20
210.8589974721
 30
0.0
 10
403.5471691764
 20
211.4761850684
 30
0.0
  0
SPLINE
  5
840
100
AcDbEntity
  8
KONSTRUKTIONSELEMENTE
100
AcDbSpline
 62
7
  6
CONTINUOUS
 70
0
 71
3
 72
14
 73
10
 74
0
 42
0.0000001
 43
0.0000001
 44
0.0000000001
 40
0.0
 40
0.0
 40
0.0
 40
0.0
 40
0.2728959573
 40
0.4031163318
 40
0.5288670632
 40
0.6505563576
 40
0.7689508401
 40
0.885052962
 40
1.0
 40
1.0
 40
1.0
 40
1.0
 10
421.5587438436
 20
211.4755076787
 30
0.0
 10
423.5794856693
 20
210.8582307548
 30
0.0
 10
426.484951706
 20
209.6088270637
 30
0.0
 10
429.8609875702
 20
207.2735618519
 30
0.0
 10
432.0109403531
 20
205.2745786283
 30
0.0
 10
433.7623796014
 20
203.0320700205
 30
0.0
 10
435.0644459601
 20
200.5835131924
 30
0.0
 10
435.8696785204
 20
197.9835113574
 30
0.0
 10
436.0518585107
 20
196.1895097684
 30
0.0
 10
436.0518585107
 20
195.2995228765
 30
0.0
  0
SPLINE
  5
841
100
AcDbEntity
  8
RUNDUNGEN
100
AcDbSpline
 62
7
  6
CONTINUOUS
 70
0
 71
3
 72
11
 73
7
 74
0
 42
0.0000001
 43
0.0000001
 44
0.0000000001
 40
0.0
 40
0.0
 40
0.0
 40
0.0
 40
0.2500117066
 40
0.5000175241
 40
0.7500134384
 40
1.0
 40
1.0
 40
1.0
 40
1.0
 10
391.4809708074
 20
87.8521529836
 30
0.0
 10
391.3788029665
 20
87.8742305454
 30
0.0
 10
391.1803982235
 20
87.9539841989
 30
0.0
 10
390.941068963
 20
88.1656726642
 30
0.0
 10
390.7862938411
 20
88.4452609522
 30
0.0
 10
390.7522232768
 20
88.656492088
 30
0.0
 10
390.7535095725
 20
88.7609996681
 30
0.0
  0
SPLINE
  5
842
100
AcDbEntity
  8
RUNDUNGEN
100
AcDbSpline
 62
7
  6
CONTINUOUS
 70
0
 71
3
 72
11
 73
7
 74
0
 42
0.0000001
 43
0.0000001
 44
0.0000000001
 40
0.0
 40
0.0
 40
0.0
 40
0.0
 40
0.2500139658
 40
0.5000035069
 40
0.7499908109
 40
1.0
 40
1.0
 40
1.0
 40
1.0
 10
437.1826482025
 20
68.7927023077
 30
0.0
 10
437.2565478176
 20
68.792702321
 30
0.0
 10
437.4049434342
 20
68.8104854456
 30
0.0
 10
437.6144196265
 20
68.8890812918
 30
0.0
 10
437.7993433186
 20
69.0150389433
 30
0.0
 10
437.8992106692
 20
69.1262745226
 30
0.0
 10
437.9415969759
 20
69.1868083597
 30
0.0
  0
SPLINE
  5
843
100
AcDbEntity
  8
RUNDUNGEN
100
AcDbSpline
 62
7
  6
CONTINUOUS
 70
0
 71
3
 72
13
 73
9
 74
0
 42
0.0000001
 43
0.0000001
 44
0.0000000001
 40
0.0
 40
0.0
 40
0.0
 40
0.0
 40
0.2494185528
 40
0.4988218131
 40
0.6241166251
 40
0.7494130169
 40
0.8747019563
 40
1.0
 40
1.0
 40
1.0
 40
1.0
 10
420.479264426
 20
68.792703329
 30
0.0
 10
420.3592908451
 20
68.7927031875
 30
0.0
 10
420.1168856918
 20
68.8397818245
 30
0.0
 10
419.8595522146
 20
69.0094690977
 30
0.0
 10
419.7046866709
 20
69.1952087207
 30
0.0
 10
419.617693033
 20
69.3551183839
 30
0.0
 10
419.5639825961
 20
69.5289473023
 30
0.0
 10
419.5518585177
 20
69.6498295137
 30
0.0
 10
419.5518585107
 20
69.7100995089
 30
0.0
  0
LINE
  5
844
100
AcDbEntity
  8
RUNDUNGEN
100
AcDbLine
 62
7
  6
CONTINUOUS
 10
397.6686204359
 20
83.9329998035
 11
397.7151810719
 21
83.9330104933
  0
SPLINE
  5
845
100
AcDbEntity
  8
0
100
AcDbSpline
 62
7
  6
CONTINUOUS
 70
0
 71
3
 72
12
 73
8
 74
0
 42
0.0000001
 43
0.0000001
 44
0.0000000001
 40
0.0
 40
0.0
 40
0.0
 40
0.0
 40
0.2238148859
 40
0.4682407666
 40
0.5972968093
 40
0.7296803052
 40
1.0
 40
1.0
 40
1.0
 40
1.0
 10
410.2649238228
 20
87.1374425981
 30
0.0
 10
410.0215088256
 20
87.4452199531
 30
0.0
 10
409.4086601955
 20
88.0098987303
 30
0.0
 10
408.4793361289
 20
88.5114815591
 30
0.0
 10
407.6415943132
 20
88.8066518469
 30
0.0
 10
406.7343759927
 20
89.0264899746
 30
0.0
 10
406.0257923521
 20
89.0920843422
 30
0.0
 10
405.5518585107
 20
89.0920843422
 30
0.0
  0
SPLINE
  5
846
100
AcDbEntity
  8
0
100
AcDbSpline
 62
7
  6
CONTINUOUS
 70
0
 71
3
 72
10
 73
6
 74
0
 42
0.0000001
 43
0.0000001
 44
0.0000000001
 40
0.0
 40
0.0
 40
0.0
 40
0.0
 40
0.234726841
 40
0.6092914654
 40
1.0
 40
1.0
 40
1.0
 40
1.0
 10
409.7805784578
 20
98.5365673083
 30
0.0
 10
409.4947811216
 20
98.7373368572
 30
0.0
 10
408.7027009192
 20
99.1888646711
 30
0.0
 10
407.2754584039
 20
99.6528550095
 30
0.0
 10
406.1332245269
 20
99.7693967382
 30
0.0
 10
405.5518585107
 20
99.7693967382
 30
0.0
  0
SPLINE
  5
847
100
AcDbEntity
  8
RUNDUNGEN
100
AcDbSpline
 62
7
  6
CONTINUOUS
 70
0
 71
3
 72
10
 73
6
 74
0
 42
0.0000001
 43
0.0000001
 44
0.0000000001
 40
0.0
 40
0.0
 40
0.0
 40
0.0
 40
0.5180750537
 40
0.7617172794
 40
1.0
 40
1.0
 40
1.0
 40
1.0
 10
392.6944023778
 20
77.6191586899
 30
0.0
 10
392.5288814824
 20
77.452006894
 30
0.0
 10
392.3201868696
 20
77.1634532101
 30
0.0
 10
392.1759306974
 20
76.7302014169
 30
0.0
 10
392.1518585107
 20
76.5106143396
 30
0.0
 10
392.1518585107
 20
76.4024193269
 30
0.0
  0
SPLINE
  5
848
100
AcDbEntity
  8
RUNDUNGEN
100
AcDbSpline
 62
7
  6
CONTINUOUS
 70
0
 71
3
 72
11
 73
7
 74
0
 42
0.0000001
 43
0.0000001
 44
0.0000000001
 40
0.0
 40
0.0
 40
0.0
 40
0.0
 40
0.2793753354
 40
0.5367191876
 40
0.7743210397
 40
1.0
 40
1.0
 40
1.0
 40
1.0
 10
386.4411860235
 20
110.4793841516
 30
0.0
 10
386.3781714981
 20
110.4481843054
 30
0.0
 10
386.2624144675
 20
110.3762113641
 30
0.0
 10
386.1238958094
 20
110.2361720237
 30
0.0
 10
386.0354561813
 20
110.0747594167
 30
0.0
 10
386.0148036671
 20
109.9573391592
 30
0.0
 10
386.0147696838
 20
109.9005384682
 30
0.0
  0
SPLINE
  5
849
100
AcDbEntity
  8
RUNDUNGEN
100
AcDbSpline
 62
7
  6
CONTINUOUS
 70
0
 71
3
 72
11
 73
7
 74
0
 42
0.0000001
 43
0.0000001
 44
0.0000000001
 40
0.0
 40
0.0
 40
0.0
 40
0.0
 40
0.2297149365
 40
0.4842569271
 40
0.747560856
 40
1.0
 40
1.0
 40
1.0
 40
1.0
 10
392.3392507477
 20
112.5364248062
 30
0.0
 10
392.2594214708
 20
112.6170406521
 30
0.0
 10
392.0530988178
 20
112.7501571702
 30
0.0
 10
391.6914860558
 20
112.8450825106
 30
0.0
 10
391.3066955793
 20
112.8396922603
 30
0.0
 10
391.0582533965
 20
112.765393468
 30
0.0
 10
390.9465222671
 20
112.7100729838
 30
0.0
  0
SPLINE
  5
84A
100
AcDbEntity
  8
0
100
AcDbSpline
 62
7
  6
CONTINUOUS
 70
0
 71
3
 72
9
 73
5
 74
0
 42
0.0000001
 43
0.0000001
 44
0.0000000001
 40
0.0
 40
0.0
 40
0.0
 40
0.0
 40
0.2432212797
 40
1.0
 40
1.0
 40
1.0
 40
1.0
 10
407.3896705835
 20
110.2821431192
 30
0.0
 10
407.5940562787
 20
110.3833388709
 30
0.0
 10
408.4489232575
 20
110.7697048955
 30
0.0
 10
409.3549505775
 20
111.0400065297
 30
0.0
 10
410.0501698351
 20
111.1822576665
 30
0.0
  0
SPLINE
  5
84B
100
AcDbEntity
  8
0
100
AcDbSpline
 62
7
  6
CONTINUOUS
 70
0
 71
3
 72
9
 73
5
 74
0
 42
0.0000001
 43
0.0000001
 44
0.0000000001
 40
0.0
 40
0.0
 40
0.0
 40
0.0
 40
0.2565045474
 40
1.0
 40
1.0
 40
1.0
 40
1.0
 10
415.0535471863
 20
111.1822576665
 30
0.0
 10
415.2891741781
 20
111.1340452399
 30
0.0
 10
416.2017766621
 20
110.9185913647
 30
0.0
 10
417.0892992181
 20
110.5914688988
 30
0.0
 10
417.7140464378
 20
110.2821431192
 30
0.0
  0
SPLINE
  5
84C
100
AcDbEntity
  8
RUNDUNGEN
100
AcDbSpline
 62
7
  6
CONTINUOUS
 70
0
 71
3
 72
13
 73
9
 74
0
 42
0.0000001
 43
0.0000001
 44
0.0000000001
 40
0.0
 40
0.0
 40
0.0
 40
0.0
 40
0.2520973387
 40
0.3837531395
 40
0.5156914498
 40
0.6454036081
 40
0.7706002201
 40
1.0
 40
1.0
 40
1.0
 40
1.0
 10
436.205074865
 20
111.6961235146
 30
0.0
 10
435.3112360517
 20
112.1386823273
 30
0.0
 10
433.8272807274
 20
112.5821728136
 30
0.0
 10
431.7908669615
 20
112.753681694
 30
0.0
 10
430.2316541376
 20
112.6704596371
 30
0.0
 10
428.7237355043
 20
112.3747506567
 30
0.0
 10
426.915032852
 20
111.734655116
 30
0.0
 10
425.7018624622
 20
110.9518459031
 30
0.0
 10
425.0632470199
 20
110.3069380933
 30
0.0
  0
SPLINE
  5
84D
100
AcDbEntity
  8
RUNDUNGEN
100
AcDbSpline
 62
7
  6
CONTINUOUS
 70
0
 71
3
 72
11
 73
7
 74
0
 42
0.0000001
 43
0.0000001
 44
0.0000000001
 40
0.0
 40
0.0
 40
0.0
 40
0.0
 40
0.2256934588
 40
0.4632957354
 40
0.7206235605
 40
1.0
 40
1.0
 40
1.0
 40
1.0
 10
431.9011571141
 20
102.6196032117
 30
0.0
 10
431.9011248965
 20
102.6707262988
 30
0.0
 10
431.8825346631
 20
102.7764059137
 30
0.0
 10
431.8029353221
 20
102.9216717428
 30
0.0
 10
431.6782726916
 20
103.047701968
 30
0.0
 10
431.5740954938
 20
103.1124742863
 30
0.0
 10
431.5173831043
 20
103.1405538096
 30
0.0
  0
SPLINE
  5
84E
100
AcDbEntity
  8
RUNDUNGEN
100
AcDbSpline
 62
7
  6
CONTINUOUS
 70
0
 71
3
 72
9
 73
5
 74
0
 42
0.0000001
 43
0.0000001
 44
0.0000000001
 40
0.0
 40
0.0
 40
0.0
 40
0.0
 40
0.4805181646
 40
1.0
 40
1.0
 40
1.0
 40
1.0
 10
431.9011578896
 20
99.0840439932
 30
0.0
 10
431.9011947993
 20
99.0187121024
 30
0.0
 10
431.8701489335
 20
98.8814685485
 30
0.0
 10
431.7880982813
 20
98.7688797286
 30
0.0
 10
431.7384011514
 20
98.7186929259
 30
0.0
  0
SPLINE
  5
84F
100
AcDbEntity
  8
RUNDUNGEN
100
AcDbSpline
 62
7
  6
CONTINUOUS
 70
0
 71
3
 72
11
 73
7
 74
0
 42
0.0000001
 43
0.0000001
 44
0.0000000001
 40
0.0
 40
0.0
 40
0.0
 40
0.0
 40
0.2256919297
 40
0.4632773963
 40
0.7205986282
 40
1.0
 40
1.0
 40
1.0
 40
1.0
 10
438.3034961446
 20
109.5524764791
 30
0.0
 10
438.3035290438
 20
109.7230020895
 30
0.0
 10
438.241861527
 20
110.0755587309
 30
0.0
 10
437.9766221911
 20
110.5602640448
 30
0.0
 10
437.5609097381
 20
110.9807795368
 30
0.0
 10
437.2134142657
 20
111.1968729995
 30
0.0
 10
437.0242269093
 20
111.290543727
 30
0.0
  0
SPLINE
  5
850
100
AcDbEntity
  8
RUNDUNGEN
100
AcDbSpline
 62
7
  6
CONTINUOUS
 70
0
 71
3
 72
10
 73
6
 74
0
 42
0.0000001
 43
0.0000001
 44
0.0000000001
 40
0.0
 40
0.0
 40
0.0
 40
0.0
 40
0.2382860828
 40
0.4819052527
 40
1.0
 40
1.0
 40
1.0
 40
1.0
 10
438.3034961446
 20
106.0169425732
 30
0.0
 10
438.3034752763
 20
105.9087764016
 30
0.0
 10
438.2793309858
 20
105.6892695607
 30
0.0
 10
438.1350905382
 20
105.2561542961
 30
0.0
 10
437.9264344647
 20
104.9676977985
 30
0.0
 10
437.7609537331
 20
104.800586562
 30
0.0
  0
SPLINE
  5
851
100
AcDbEntity
  8
RUNDUNGEN
100
AcDbSpline
 62
7
  6
CONTINUOUS
 70
0
 71
3
 72
9
 73
5
 74
0
 42
0.0000001
 43
0.0000001
 44
0.0000000001
 40
0.0
 40
0.0
 40
0.0
 40
0.0
 40
0.4865850533
 40
1.0
 40
1.0
 40
1.0
 40
1.0
 10
402.8855968303
 20
88.5087736665
 30
0.0
 10
402.7454049094
 20
88.8514196164
 30
0.0
 10
402.3782987137
 20
89.5250088792
 30
0.0
 10
401.887467479
 20
90.1125713631
 30
0.0
 10
401.6126080779
 20
90.3901389924
 30
0.0
  0
SPLINE
  5
852
100
AcDbEntity
  8
RUNDUNGEN
100
AcDbSpline
 62
7
  6
CONTINUOUS
 70
0
 71
3
 72
11
 73
7
 74
0
 42
0.0000001
 43
0.0000001
 44
0.0000000001
 40
0.0
 40
0.0
 40
0.0
 40
0.0
 40
0.2377805384
 40
0.4809056364
 40
0.7339193512
 40
1.0
 40
1.0
 40
1.0
 40
1.0
 10
403.2402396793
 20
90.2754550799
 30
0.0
 10
403.2402396908
 20
89.9508679477
 30
0.0
 10
403.1682339232
 20
89.2923016364
 30
0.0
 10
402.8489621427
 20
88.3354629763
 30
0.0
 10
402.3281943692
 20
87.4275961439
 30
0.0
 10
401.8681803523
 20
86.8833271842
 30
0.0
 10
401.6126080779
 20
86.6252367202
 30
0.0
  0
SPLINE
  5
853
100
AcDbEntity
  8
RUNDUNGEN
100
AcDbSpline
 62
7
  6
CONTINUOUS
 70
0
 71
3
 72
10
 73
6
 74
0
 42
0.0000001
 43
0.0000001
 44
0.0000000001
 40
0.0
 40
0.0
 40
0.0
 40
0.0
 40
0.2382826319
 40
0.4819247904
 40
1.0
 40
1.0
 40
1.0
 40
1.0
 10
432.9518585107
 20
76.4024193269
 30
0.0
 10
432.9518585107
 20
76.5106142991
 30
0.0
 10
432.9277863464
 20
76.7302013054
 30
0.0
 10
432.7835302126
 20
77.1634531096
 30
0.0
 10
432.5748355885
 20
77.4520068439
 30
0.0
 10
432.4093146435
 20
77.6191586899
 30
0.0
  0
SPLINE
  5
854
100
AcDbEntity
  8
BEZUGSACHSEN
100
AcDbSpline
 62
7
  6
CONTINUOUS
 70
0
 71
3
 72
19
 73
15
 74
0
 42
0.0000001
 43
0.0000001
 44
0.0000000001
 40
0.0
 40
0.0
 40
0.0
 40
0.0
 40
0.051729057
 40
0.1053341786
 40
0.1622493009
 40
0.2232160554
 40
0.3564757248
 40
0.5
 40
0.6435242752
 40
0.7767839446
 40
0.8377506991
 40
0.8946658214
 40
0.948270943
 40
1.0
 40
1.0
 40
1.0
 40
1.0
 10
416.5518585107
 20
106.9075690622
 30
0.0
 10
416.5518585107
 20
106.7218568711
 30
0.0
 10
416.4979691572
 20
106.3417666522
 30
0.0
 10
416.2621262527
 20
105.8024358839
 30
0.0
 10
415.8838244478
 20
105.3098613536
 30
0.0
 10
415.1924518629
 20
104.7226561499
 30
0.0
 10
414.0652088934
 20
104.2133174705
 30
0.0
 10
412.5518585107
 20
104.0095793696
 30
0.0
 10
411.0385081279
 20
104.2133174705
 30
0.0
 10
409.9112651584
 20
104.7226561499
 30
0.0
 10
409.2198925735
 20
105.3098613536
 30
0.0
 10
408.8415907687
 20
105.8024358839
 30
0.0
 10
408.6057478642
 20
106.3417666522
 30
0.0
 10
408.5518585107
 20
106.7218568711
 30
0.0
 10
408.5518585107
 20
106.9075690622
 30
0.0
  0
SPLINE
  5
855
100
AcDbEntity
  8
BEZUGSACHSEN
100
AcDbSpline
 62
7
  6
CONTINUOUS
 70
0
 71
3
 72
9
 73
5
 74
0
 42
0.0000001
 43
0.0000001
 44
0.0000000001
 40
0.0
 40
0.0
 40
0.0
 40
0.0
 40
0.2432940019
 40
1.0
 40
1.0
 40
1.0
 40
1.0
 10
409.4312495275
 20
105.1414604599
 30
0.0
 10
409.4773557335
 20
105.1821202789
 30
0.0
 10
409.6715345533
 20
105.3439127719
 30
0.0
 10
409.883216885
 20
105.4843429988
 30
0.0
 10
410.0495356041
 20
105.5786559693
 30
0.0
  0
SPLINE
  5
856
100
AcDbEntity
  8
BEZUGSACHSEN
100
AcDbSpline
 62
7
  6
CONTINUOUS
 70
0
 71
3
 72
9
 73
5
 74
0
 42
0.0000001
 43
0.0000001
 44
0.0000000001
 40
0.0
 40
0.0
 40
0.0
 40
0.0
 40
0.25695157
 40
1.0
 40
1.0
 40
1.0
 40
1.0
 10
415.0541814173
 20
105.5786559693
 30
0.0
 10
415.1106554319
 20
105.5466317203
 30
0.0
 10
415.3274149986
 20
105.4167958923
 30
0.0
 10
415.5316591025
 20
105.2656355808
 30
0.0
 10
415.6724674939
 20
105.1414604599
 30
0.0
  0
SPLINE
  5
857
100
AcDbEntity
  8
RUNDUNGEN
100
AcDbSpline
 62
7
  6
CONTINUOUS
 70
0
 71
3
 72
11
 73
7
 74
0
 42
0.0000001
 43
0.0000001
 44
0.0000000001
 40
0.0
 40
0.0
 40
0.0
 40
0.0
 40
0.2880068215
 40
0.5553366529
 40
0.7905059061
 40
1.0
 40
1.0
 40
1.0
 40
1.0
 10
428.7518585107
 20
67.1717741255
 30
0.0
 10
428.7132087785
 20
67.1717741255
 30
0.0
 10
428.6382106189
 20
67.1818703346
 30
0.0
 10
428.5400338839
 20
67.2262923589
 30
0.0
 10
428.4701100044
 20
67.295408254
 30
0.0
 10
428.4518585107
 20
67.3557926222
 30
0.0
 10
428.4518585107
 20
67.3839061598
 30
0.0
  0
SPLINE
  5
858
100
AcDbEntity
  8
RUNDUNGEN
100
AcDbSpline
 62
7
  6
CONTINUOUS
 70
0
 71
3
 72
13
 73
9
 74
0
 42
0.0000001
 43
0.0000001
 44
0.0000000001
 40
0.0
 40
0.0
 40
0.0
 40
0.0
 40
0.1034546555
 40
0.2106690395
 40
0.3244963599
 40
0.4464318111
 40
0.7129511617
 40
1.0
 40
1.0
 40
1.0
 40
1.0
 10
432.9518585107
 20
69.293094469
 30
0.0
 10
432.9518585107
 20
69.1538148152
 30
0.0
 10
432.9114390825
 20
68.8687472127
 30
0.0
 10
432.7345659763
 20
68.464246204
 30
0.0
 10
432.4508430225
 20
68.0948147873
 30
0.0
 10
431.9322562822
 20
67.6544052666
 30
0.0
 10
431.0873719477
 20
67.2724005475
 30
0.0
 10
430.3383086193
 20
67.1717741255
 30
0.0
 10
429.9518585107
 20
67.1717741255
 30
0.0
  0
SPLINE
  5
859
100
AcDbEntity
  8
RUNDUNGEN
100
AcDbSpline
 62
7
  6
CONTINUOUS
 70
0
 71
3
 72
11
 73
7
 74
0
 42
0.0000001
 43
0.0000001
 44
0.0000000001
 40
0.0
 40
0.0
 40
0.0
 40
0.0
 40
0.2297023479
 40
0.4842340123
 40
0.7475494683
 40
1.0
 40
1.0
 40
1.0
 40
1.0
 10
436.2122973549
 20
103.2366710556
 30
0.0
 10
436.1404549391
 20
103.1641207664
 30
0.0
 10
435.9547755048
 20
103.0443190547
 30
0.0
 10
435.6293305107
 20
102.9588820564
 30
0.0
 10
435.283013065
 20
102.963726717
 30
0.0
 10
435.0594042805
 20
103.0305970112
 30
0.0
 10
434.9588417224
 20
103.0803876957
 30
0.0
  0
SPLINE
  5
85A
100
AcDbEntity
  8
RUNDUNGEN
100
AcDbSpline
 62
7
  6
CONTINUOUS
 70
0
 71
3
 72
9
 73
5
 74
0
 42
0.0000001
 43
0.0000001
 44
0.0000000001
 40
0.0
 40
0.0
 40
0.0
 40
0.0
 40
0.5194815986
 40
1.0
 40
1.0
 40
1.0
 40
1.0
 10
386.1956104156
 20
105.9590424927
 30
0.0
 10
386.1403865015
 20
106.0148105357
 30
0.0
 10
386.0492120717
 20
106.1399220983
 30
0.0
 10
386.014722811
 20
106.292431996
 30
0.0
 10
386.0147705136
 20
106.365029467
 30
0.0
  0
SPLINE
  5
85B
100
AcDbEntity
  8
RUNDUNGEN
100
AcDbSpline
 62
7
  6
CONTINUOUS
 70
0
 71
3
 72
13
 73
9
 74
0
 42
0.0000001
 43
0.0000001
 44
0.0000000001
 40
0.0
 40
0.0
 40
0.0
 40
0.0
 40
0.2870490624
 40
0.5535683755
 40
0.6755038246
 40
0.7893311355
 40
0.8965454157
 40
1.0
 40
1.0
 40
1.0
 40
1.0
 10
395.1518585107
 20
67.1717741255
 30
0.0
 10
394.7654081005
 20
67.1717741255
 30
0.0
 10
394.0163445032
 20
67.2724006434
 30
0.0
 10
393.1714600448
 20
67.6544056955
 30
0.0
 10
392.6528734721
 20
68.0948153193
 30
0.0
 10
392.3691507733
 20
68.4642467335
 30
0.0
 10
392.1922778534
 20
68.8687475413
 30
0.0
 10
392.1518585107
 20
69.153814911
 30
0.0
 10
392.1518585107
 20
69.293094469
 30
0.0
  0
SPLINE
  5
85C
100
AcDbEntity
  8
RUNDUNGEN
100
AcDbSpline
 62
7
  6
CONTINUOUS
 70
0
 71
3
 72
11
 73
7
 74
0
 42
0.0000001
 43
0.0000001
 44
0.0000000001
 40
0.0
 40
0.0
 40
0.0
 40
0.0
 40
0.2094942263
 40
0.444667264
 40
0.7119932261
 40
1.0
 40
1.0
 40
1.0
 40
1.0
 10
396.6518585107
 20
67.3839061598
 30
0.0
 10
396.6518585107
 20
67.3557926067
 30
0.0
 10
396.6336066664
 20
67.2954077749
 30
0.0
 10
396.5636826013
 20
67.2262920167
 30
0.0
 10
396.4655058873
 20
67.1818701276
 30
0.0
 10
396.3905082332
 20
67.1717741255
 30
0.0
 10
396.3518585107
 20
67.1717741255
 30
0.0
  0
SPLINE
  5
85D
100
AcDbEntity
  8
RUNDUNGEN
100
AcDbSpline
 62
7
  6
CONTINUOUS
 70
0
 71
3
 72
10
 73
6
 74
0
 42
0.0000001
 43
0.0000001
 44
0.0000000001
 40
0.0
 40
0.0
 40
0.0
 40
0.0
 40
0.47201694
 40
0.7322443513
 40
1.0
 40
1.0
 40
1.0
 40
1.0
 10
406.4365349882
 20
73.1675239305
 30
0.0
 10
406.1406260601
 20
72.8686993703
 30
0.0
 10
405.5526380828
 20
72.528223812
 30
0.0
 10
404.6896424377
 20
72.3028180421
 30
0.0
 10
404.2176366829
 20
72.26294295
 30
0.0
 10
403.9790788554
 20
72.26294295
 30
0.0
  0
SPLINE
  5
85E
100
AcDbEntity
  8
RUNDUNGEN
100
AcDbSpline
 62
7
  6
CONTINUOUS
 70
0
 71
3
 72
10
 73
6
 74
0
 42
0.0000001
 43
0.0000001
 44
0.0000000001
 40
0.0
 40
0.0
 40
0.0
 40
0.0
 40
0.2677558652
 40
0.5279833681
 40
1.0
 40
1.0
 40
1.0
 40
1.0
 10
421.124638166
 20
72.26294295
 30
0.0
 10
420.8860801443
 20
72.26294295
 30
0.0
 10
420.4140741093
 20
72.3028180919
 30
0.0
 10
419.5510784949
 20
72.5282240289
 30
0.0
 10
418.9630907697
 20
72.8686995638
 30
0.0
 10
418.6671820331
 20
73.1675239305
 30
0.0
  0
SPLINE
  5
85F
100
AcDbEntity
  8
RUNDUNGEN
100
AcDbSpline
 62
7
  6
CONTINUOUS
 70
0
 71
3
 72
13
 73
9
 74
0
 42
0.0000001
 43
0.0000001
 44
0.0000000001
 40
0.0
 40
0.0
 40
0.0
 40
0.0
 40
0.1034546555
 40
0.2106690395
 40
0.3244963599
 40
0.4464318111
 40
0.7129511617
 40
1.0
 40
1.0
 40
1.0
 40
1.0
 10
428.4518585107
 20
70.1416226064
 30
0.0
 10
428.4518585107
 20
70.2809022603
 30
0.0
 10
428.4114390825
 20
70.5659698628
 30
0.0
 10
428.2345659763
 20
70.9704708715
 30
0.0
 10
427.9508430225
 20
71.3399022882
 30
0.0
 10
427.4322562822
 20
71.7803118089
 30
0.0
 10
426.5873719477
 20
72.1623165279
 30
0.0
 10
425.8383086193
 20
72.26294295
 30
0.0
 10
425.4518585107
 20
72.26294295
 30
0.0
  0
SPLINE
  5
860
100
AcDbEntity
  8
RUNDUNGEN
100
AcDbSpline
 62
7
  6
CONTINUOUS
 70
0
 71
3
 72
13
 73
9
 74
0
 42
0.0000001
 43
0.0000001
 44
0.0000000001
 40
0.0
 40
0.0
 40
0.0
 40
0.0
 40
0.2870490624
 40
0.5535683755
 40
0.6755038246
 40
0.7893311355
 40
0.8965454157
 40
1.0
 40
1.0
 40
1.0
 40
1.0
 10
399.6518585107
 20
72.26294295
 30
0.0
 10
399.2654081005
 20
72.26294295
 30
0.0
 10
398.5163445032
 20
72.1623164321
 30
0.0
 10
397.6714600448
 20
71.78031138
 30
0.0
 10
397.1528734721
 20
71.3399017562
 30
0.0
 10
396.8691507733
 20
70.970470342
 30
0.0
 10
396.6922778534
 20
70.5659695342
 30
0.0
 10
396.6518585107
 20
70.2809021645
 30
0.0
 10
396.6518585107
 20
70.1416226064
 30
0.0
  0
SPLINE
  5
861
100
AcDbEntity
  8
RUNDUNGEN
100
AcDbSpline
 62
7
  6
CONTINUOUS
 70
0
 71
3
 72
13
 73
9
 74
0
 42
0.0000001
 43
0.0000001
 44
0.0000000001
 40
0.0
 40
0.0
 40
0.0
 40
0.0
 40
0.2360077172
 40
0.3661261163
 40
0.500000078
 40
0.6338740716
 40
0.7639924399
 40
1.0
 40
1.0
 40
1.0
 40
1.0
 10
415.5008058701
 20
76.3650988415
 30
0.0
 10
415.1457162998
 20
76.7236871591
 30
0.0
 10
414.4402601253
 20
77.1322732773
 30
0.0
 10
413.4042776891
 20
77.4027353964
 30
0.0
 10
412.5518579254
 20
77.4748668102
 30
0.0
 10
411.6994382425
 20
77.4027352186
 30
0.0
 10
410.6634561826
 20
77.1322729557
 30
0.0
 10
409.9580004852
 20
76.7236869204
 30
0.0
 10
409.6029111512
 20
76.3650988415
 30
0.0
  0
SPLINE
  5
862
100
AcDbEntity
  8
RUNDUNGEN
100
AcDbSpline
 62
7
  6
CONTINUOUS
 70
0
 71
3
 72
11
 73
7
 74
0
 42
0.0000001
 43
0.0000001
 44
0.0000000001
 40
0.0
 40
0.0
 40
0.0
 40
0.0
 40
0.2660806253
 40
0.5190943246
 40
0.762219441
 40
1.0
 40
1.0
 40
1.0
 40
1.0
 10
423.4911089435
 20
86.6252367202
 30
0.0
 10
423.2355367251
 20
86.8833271275
 30
0.0
 10
422.7755227876
 20
87.4275959597
 30
0.0
 10
422.2547550563
 20
88.3354626228
 30
0.0
 10
421.9354832129
 20
89.2923011507
 30
0.0
 10
421.8634773536
 20
89.9508674209
 30
0.0
 10
421.8634773421
 20
90.2754545387
 30
0.0
  0
SPLINE
  5
863
100
AcDbEntity
  8
RUNDUNGEN
100
AcDbSpline
 62
7
  6
CONTINUOUS
 70
0
 71
3
 72
9
 73
5
 74
0
 42
0.0000001
 43
0.0000001
 44
0.0000000001
 40
0.0
 40
0.0
 40
0.0
 40
0.0
 40
0.5134149199
 40
1.0
 40
1.0
 40
1.0
 40
1.0
 10
423.4911089435
 20
90.3901389924
 30
0.0
 10
423.2162504905
 20
90.1125723206
 30
0.0
 10
422.7254207812
 20
89.5250119993
 30
0.0
 10
422.3583151207
 20
88.851425473
 30
0.0
 10
422.2181231374
 20
88.5087808856
 30
0.0
  0
SPLINE
  5
864
100
AcDbEntity
  8
RUNDUNGEN
100
AcDbSpline
 62
7
  6
CONTINUOUS
 70
0
 71
3
 72
11
 73
7
 74
0
 42
0.0000001
 43
0.0000001
 44
0.0000000001
 40
0.0
 40
0.0
 40
0.0
 40
0.0
 40
0.2524507309
 40
0.5157647478
 40
0.7702968692
 40
1.0
 40
1.0
 40
1.0
 40
1.0
 10
432.9928768161
 20
104.0537791861
 30
0.0
 10
432.8252724183
 20
104.1367637267
 30
0.0
 10
432.4525919443
 20
104.2482138199
 30
0.0
 10
431.8753969101
 20
104.2562886981
 30
0.0
 10
431.3329884817
 20
104.1138944556
 30
0.0
 10
431.0235218644
 20
103.9142244819
 30
0.0
 10
430.9037840951
 20
103.7933069196
 30
0.0
  0
SPLINE
  5
865
100
AcDbEntity
  8
RUNDUNGEN
100
AcDbSpline
 62
7
  6
CONTINUOUS
 70
0
 71
3
 72
11
 73
7
 74
0
 42
0.0000001
 43
0.0000001
 44
0.0000000001
 40
0.0
 40
0.0
 40
0.0
 40
0.0
 40
0.2793777095
 40
0.5367048928
 40
0.7743072365
 40
1.0
 40
1.0
 40
1.0
 40
1.0
 10
429.551418198
 20
104.1139453
 30
0.0
 10
429.4568984683
 20
104.1607440502
 30
0.0
 10
429.2832719737
 20
104.2686962864
 30
0.0
 10
429.0755029378
 20
104.4787428692
 30
0.0
 10
428.9428368005
 20
104.7208470383
 30
0.0
 10
428.9118504569
 20
104.8969762393
 30
0.0
 10
428.9117948254
 20
104.9821799044
 30
0.0
  0
SPLINE
  5
866
100
AcDbEntity
  8
RUNDUNGEN
100
AcDbSpline
 62
7
  6
CONTINUOUS
 70
0
 71
3
 72
12
 73
8
 74
0
 42
0.0000001
 43
0.0000001
 44
0.0000000001
 40
0.0
 40
0.0
 40
0.0
 40
0.0
 40
0.252259356
 40
0.5153839756
 40
0.6451803977
 40
0.7704553584
 40
1.0
 40
1.0
 40
1.0
 40
1.0
 10
401.2460302513
 20
107.2402947117
 30
0.0
 10
400.9108388054
 20
107.0743342207
 30
0.0
 10
400.1657271697
 20
106.8515476188
 30
0.0
 10
399.197299321
 20
106.8375596281
 30
0.0
 10
398.4405556498
 20
106.9857764368
 30
0.0
 10
397.7622356216
 20
107.2258602023
 30
0.0
 10
397.3073242717
 20
107.5194001577
 30
0.0
 10
397.0678448094
 20
107.7612392447
 30
0.0
  0
SPLINE
  5
867
100
AcDbEntity
  8
RUNDUNGEN
100
AcDbSpline
 62
7
  6
CONTINUOUS
 70
0
 71
3
 72
12
 73
8
 74
0
 42
0.0000001
 43
0.0000001
 44
0.0000000001
 40
0.0
 40
0.0
 40
0.0
 40
0.0
 40
0.2295488423
 40
0.3548243544
 40
0.4846199331
 40
0.7477426437
 40
1.0
 40
1.0
 40
1.0
 40
1.0
 10
424.3496880126
 20
109.5863482892
 30
0.0
 10
424.1102041711
 20
109.3445047798
 30
0.0
 10
423.6552853983
 20
109.0509619977
 30
0.0
 10
422.9769584445
 20
108.8108805808
 30
0.0
 10
422.2202173869
 20
108.6626678168
 30
0.0
 10
421.2517968863
 20
108.6766589287
 30
0.0
 10
420.506691355
 20
108.899444583
 30
0.0
 10
420.1715025707
 20
109.0654037562
 30
0.0
  0
SPLINE
  5
868
100
AcDbEntity
  8
RUNDUNGEN
100
AcDbSpline
 62
7
  6
CONTINUOUS
 70
0
 71
3
 72
10
 73
6
 74
0
 42
0.0000001
 43
0.0000001
 44
0.0000000001
 40
0.0
 40
0.0
 40
0.0
 40
0.0
 40
0.4720166319
 40
0.7322441348
 40
1.0
 40
1.0
 40
1.0
 40
1.0
 10
418.6671820331
 20
76.7030578365
 30
0.0
 10
418.9630907697
 20
76.4042334697
 30
0.0
 10
419.5510784949
 20
76.0637579348
 30
0.0
 10
420.4140741093
 20
75.8383519978
 30
0.0
 10
420.8860801443
 20
75.7984768559
 30
0.0
 10
421.124638166
 20
75.7984768559
 30
0.0
  0
SPLINE
  5
869
100
AcDbEntity
  8
RUNDUNGEN
100
AcDbSpline
 62
7
  6
CONTINUOUS
 70
0
 71
3
 72
10
 73
6
 74
0
 42
0.0000001
 43
0.0000001
 44
0.0000000001
 40
0.0
 40
0.0
 40
0.0
 40
0.0
 40
0.2677556487
 40
0.52798306
 40
1.0
 40
1.0
 40
1.0
 40
1.0
 10
403.9790788554
 20
75.7984768559
 30
0.0
 10
404.2176366829
 20
75.7984768559
 30
0.0
 10
404.6896424377
 20
75.838351948
 30
0.0
 10
405.5526380828
 20
76.0637577179
 30
0.0
 10
406.1406260601
 20
76.4042332762
 30
0.0
 10
406.4365349882
 20
76.7030578365
 30
0.0
  0
SPLINE
  5
86A
100
AcDbEntity
  8
RUNDUNGEN
100
AcDbSpline
 62
7
  6
CONTINUOUS
 70
0
 71
3
 72
11
 73
7
 74
0
 42
0.0000001
 43
0.0000001
 44
0.0000000001
 40
0.0
 40
0.0
 40
0.0
 40
0.0
 40
0.2880067739
 40
0.555332736
 40
0.7905057737
 40
1.0
 40
1.0
 40
1.0
 40
1.0
 10
396.3518585107
 20
70.7073080314
 30
0.0
 10
396.3905082332
 20
70.7073080314
 30
0.0
 10
396.4655058873
 20
70.7174040336
 30
0.0
 10
396.5636826013
 20
70.7618259227
 30
0.0
 10
396.6336066664
 20
70.8309416808
 30
0.0
 10
396.6518585107
 20
70.8913265127
 30
0.0
 10
396.6518585107
 20
70.9194400657
 30
0.0
  0
SPLINE
  5
86B
100
AcDbEntity
  8
0
100
AcDbSpline
 62
7
  6
CONTINUOUS
 70
0
 71
3
 72
10
 73
6
 74
0
 42
0.0000001
 43
0.0000001
 44
0.0000000001
 40
0.0
 40
0.0
 40
0.0
 40
0.0
 40
0.234726841
 40
0.6092914654
 40
1.0
 40
1.0
 40
1.0
 40
1.0
 10
409.9920144552
 20
98.6870578712
 30
0.0
 10
409.6919272521
 20
98.8978658975
 30
0.0
 10
408.8602430396
 20
99.3719701021
 30
0.0
 10
407.3616383986
 20
99.8591599575
 30
0.0
 10
406.1622928277
 20
99.9815287725
 30
0.0
 10
405.5518585107
 20
99.9815287725
 30
0.0
  0
SPLINE
  5
86C
100
AcDbEntity
  8
RUNDUNGEN
100
AcDbSpline
 62
7
  6
CONTINUOUS
 70
0
 71
3
 72
11
 73
7
 74
0
 42
0.0000001
 43
0.0000001
 44
0.0000000001
 40
0.0
 40
0.0
 40
0.0
 40
0.0
 40
0.2094940939
 40
0.4446633471
 40
0.7119931785
 40
1.0
 40
1.0
 40
1.0
 40
1.0
 10
428.4518585107
 20
70.9194400657
 30
0.0
 10
428.4518585107
 20
70.8913265281
 30
0.0
 10
428.4701100044
 20
70.8309421599
 30
0.0
 10
428.5400338839
 20
70.7618262648
 30
0.0
 10
428.6382106189
 20
70.7174042406
 30
0.0
 10
428.7132087785
 20
70.7073080314
 30
0.0
 10
428.7518585107
 20
70.7073080314
 30
0.0
  0
SPLINE
  5
86D
100
AcDbEntity
  8
RUNDUNGEN
100
AcDbSpline
 62
7
  6
CONTINUOUS
 70
0
 71
3
 72
10
 73
6
 74
0
 42
0.0000001
 43
0.0000001
 44
0.0000000001
 40
0.0
 40
0.0
 40
0.0
 40
0.0
 40
0.5180947473
 40
0.7617139172
 40
1.0
 40
1.0
 40
1.0
 40
1.0
 10
437.7609537331
 20
108.3361204679
 30
0.0
 10
437.9264344647
 20
108.5032317044
 30
0.0
 10
438.1350905382
 20
108.791688202
 30
0.0
 10
438.2793309858
 20
109.2248034667
 30
0.0
 10
438.3034752763
 20
109.4443103075
 30
0.0
 10
438.3034961446
 20
109.5524764791
 30
0.0
  0
SPLINE
  5
86E
100
AcDbEntity
  8
RUNDUNGEN
100
AcDbSpline
 62
7
  6
CONTINUOUS
 70
0
 71
3
 72
11
 73
7
 74
0
 42
0.0000001
 43
0.0000001
 44
0.0000000001
 40
0.0
 40
0.0
 40
0.0
 40
0.0
 40
0.2524395071
 40
0.5157446812
 40
0.7702855009
 40
1.0
 40
1.0
 40
1.0
 40
1.0
 10
434.9588417224
 20
106.6159216016
 30
0.0
 10
435.0593998846
 20
106.5661330937
 30
0.0
 10
435.282998572
 20
106.4992640228
 30
0.0
 10
435.6293102514
 20
106.4944131543
 30
0.0
 10
435.9547614588
 20
106.5798462528
 30
0.0
 10
436.1404511417
 20
106.6996508375
 30
0.0
 10
436.2122973549
 20
106.7722049615
 30
0.0
  0
SPLINE
  5
86F
100
AcDbEntity
  8
RUNDUNGEN
100
AcDbSpline
 62
7
  6
CONTINUOUS
 70
0
 71
3
 72
9
 73
5
 74
0
 42
0.0000001
 43
0.0000001
 44
0.0000000001
 40
0.0
 40
0.0
 40
0.0
 40
0.0
 40
0.5194830631
 40
1.0
 40
1.0
 40
1.0
 40
1.0
 10
431.7384011514
 20
102.2542268319
 30
0.0
 10
431.7881014
 20
102.304416784
 30
0.0
 10
431.870156449
 20
102.4170134573
 30
0.0
 10
431.9011982884
 20
102.5542675449
 30
0.0
 10
431.9011571141
 20
102.6196032117
 30
0.0
  0
SPLINE
  5
870
100
AcDbEntity
  8
RUNDUNGEN
100
AcDbSpline
 62
7
  6
CONTINUOUS
 70
0
 71
3
 72
13
 73
9
 74
0
 42
0.0000001
 43
0.0000001
 44
0.0000000001
 40
0.0
 40
0.0
 40
0.0
 40
0.0
 40
0.2870488383
 40
0.5535681889
 40
0.6755036401
 40
0.7893309605
 40
0.8965453445
 40
1.0
 40
1.0
 40
1.0
 40
1.0
 10
429.9518585107
 20
70.7073080314
 30
0.0
 10
430.3383086193
 20
70.7073080314
 30
0.0
 10
431.0873719477
 20
70.8079344535
 30
0.0
 10
431.9322562822
 20
71.1899391725
 30
0.0
 10
432.4508430225
 20
71.6303486932
 30
0.0
 10
432.7345659763
 20
71.9997801099
 30
0.0
 10
432.9114390825
 20
72.4042811186
 30
0.0
 10
432.9518585107
 20
72.6893487211
 30
0.0
 10
432.9518585107
 20
72.828628375
 30
0.0
  0
SPLINE
  5
871
100
AcDbEntity
  8
RUNDUNGEN
100
AcDbSpline
 62
7
  6
CONTINUOUS
 70
0
 71
3
 72
13
 73
9
 74
0
 42
0.0000001
 43
0.0000001
 44
0.0000000001
 40
0.0
 40
0.0
 40
0.0
 40
0.0
 40
0.1034545843
 40
0.2106688645
 40
0.3244961754
 40
0.4464316245
 40
0.7129509376
 40
1.0
 40
1.0
 40
1.0
 40
1.0
 10
392.1518585107
 20
72.828628375
 30
0.0
 10
392.1518585107
 20
72.6893488169
 30
0.0
 10
392.1922778534
 20
72.4042814472
 30
0.0
 10
392.3691507733
 20
71.9997806394
 30
0.0
 10
392.6528734721
 20
71.6303492252
 30
0.0
 10
393.1714600448
 20
71.1899396014
 30
0.0
 10
394.0163445032
 20
70.8079345493
 30
0.0
 10
394.7654081005
 20
70.7073080314
 30
0.0
 10
395.1518585107
 20
70.7073080314
 30
0.0
  0
SPLINE
  5
872
100
AcDbEntity
  8
RUNDUNGEN
100
AcDbSpline
 62
7
  6
CONTINUOUS
 70
0
 71
3
 72
9
 73
5
 74
0
 42
0.0000001
 43
0.0000001
 44
0.0000000001
 40
0.0
 40
0.0
 40
0.0
 40
0.0
 40
0.4805174014
 40
1.0
 40
1.0
 40
1.0
 40
1.0
 10
428.9117948254
 20
104.9821799044
 30
0.0
 10
428.9117237251
 20
105.0910753487
 30
0.0
 10
428.9634582471
 20
105.3198387479
 30
0.0
 10
429.1002191631
 20
105.5075051156
 30
0.0
 10
429.1830547861
 20
105.5911569295
 30
0.0
  0
SPLINE
  5
873
100
AcDbEntity
  8
RUNDUNGEN
100
AcDbSpline
 62
7
  6
CONTINUOUS
 70
0
 71
3
 72
9
 73
5
 74
0
 42
0.0000001
 43
0.0000001
 44
0.0000000001
 40
0.0
 40
0.0
 40
0.0
 40
0.0
 40
0.4805195529
 40
1.0
 40
1.0
 40
1.0
 40
1.0
 10
386.0147696838
 20
109.9005384682
 30
0.0
 10
386.0147262517
 20
109.8279447004
 30
0.0
 10
386.0492194646
 20
109.6754451839
 30
0.0
 10
386.1403895752
 20
109.5503413377
 30
0.0
 10
386.1956104156
 20
109.4945763986
 30
0.0
  0
SPLINE
  5
874
100
AcDbEntity
  8
RUNDUNGEN
100
AcDbSpline
 62
7
  6
CONTINUOUS
 70
0
 71
3
 72
11
 73
7
 74
0
 42
0.0000001
 43
0.0000001
 44
0.0000000001
 40
0.0
 40
0.0
 40
0.0
 40
0.0
 40
0.2377805384
 40
0.4809056364
 40
0.7339193512
 40
1.0
 40
1.0
 40
1.0
 40
1.0
 10
421.8634773421
 20
90.2754545387
 30
0.0
 10
421.8634773306
 20
90.6000416709
 30
0.0
 10
421.9354830981
 20
91.2586079822
 30
0.0
 10
422.2547548786
 20
92.2154466423
 30
0.0
 10
422.7755226522
 20
93.1233134747
 30
0.0
 10
423.235536669
 20
93.6675824344
 30
0.0
 10
423.4911089435
 20
93.9256728983
 30
0.0
  0
SPLINE
  5
875
100
AcDbEntity
  8
RUNDUNGEN
100
AcDbSpline
 62
7
  6
CONTINUOUS
 70
0
 71
3
 72
13
 73
9
 74
0
 42
0.0000001
 43
0.0000001
 44
0.0000000001
 40
0.0
 40
0.0
 40
0.0
 40
0.0
 40
0.1034545843
 40
0.2106688645
 40
0.3244961754
 40
0.4464316245
 40
0.7129509376
 40
1.0
 40
1.0
 40
1.0
 40
1.0
 10
396.6518585107
 20
73.6771565124
 30
0.0
 10
396.6518585107
 20
73.8164360704
 30
0.0
 10
396.6922778534
 20
74.1015034401
 30
0.0
 10
396.8691507733
 20
74.5060042479
 30
0.0
 10
397.1528734721
 20
74.8754356621
 30
0.0
 10
397.6714600448
 20
75.3158452859
 30
0.0
 10
398.5163445032
 20
75.697850338
 30
0.0
 10
399.2654081005
 20
75.7984768559
 30
0.0
 10
399.6518585107
 20
75.7984768559
 30
0.0
  0
SPLINE
  5
876
100
AcDbEntity
  8
BEZUGSACHSEN
100
AcDbSpline
 62
7
  6
CONTINUOUS
 70
0
 71
3
 72
11
 73
7
 74
0
 42
0.0000001
 43
0.0000001
 44
0.0000000001
 40
0.0
 40
0.0
 40
0.0
 40
0.0
 40
0.2279232111
 40
0.4663851525
 40
0.7228056147
 40
1.0
 40
1.0
 40
1.0
 40
1.0
 10
408.5518585107
 20
106.9075690622
 30
0.0
 10
408.5518585107
 20
107.1193805364
 30
0.0
 10
408.6227733673
 20
107.555562464
 30
0.0
 10
408.9298574033
 20
108.1629508301
 30
0.0
 10
409.4154080628
 20
108.7008172887
 30
0.0
 10
409.8254561234
 20
108.9871229908
 30
0.0
 10
410.0495356041
 20
109.1141898753
 30
0.0
  0
SPLINE
  5
877
100
AcDbEntity
  8
BEZUGSACHSEN
100
AcDbSpline
 62
7
  6
CONTINUOUS
 70
0
 71
3
 72
11
 73
7
 74
0
 42
0.0000001
 43
0.0000001
 44
0.0000000001
 40
0.0
 40
0.0
 40
0.0
 40
0.0
 40
0.2771943853
 40
0.5336148475
 40
0.7720767889
 40
1.0
 40
1.0
 40
1.0
 40
1.0
 10
415.0541814173
 20
109.1141898753
 30
0.0
 10
415.2782608979
 20
108.9871229908
 30
0.0
 10
415.6883089586
 20
108.7008172887
 30
0.0
 10
416.1738596181
 20
108.1629508301
 30
0.0
 10
416.480943654
 20
107.555562464
 30
0.0
 10
416.5518585107
 20
107.1193805364
 30
0.0
 10
416.5518585107
 20
106.9075690622
 30
0.0
  0
SPLINE
  5
878
100
AcDbEntity
  8
RUNDUNGEN
100
AcDbSpline
 62
7
  6
CONTINUOUS
 70
0
 71
3
 72
13
 73
9
 74
0
 42
0.0000001
 43
0.0000001
 44
0.0000000001
 40
0.0
 40
0.0
 40
0.0
 40
0.0
 40
0.2870488383
 40
0.5535681889
 40
0.6755036401
 40
0.7893309605
 40
0.8965453445
 40
1.0
 40
1.0
 40
1.0
 40
1.0
 10
425.4518585107
 20
75.7984768559
 30
0.0
 10
425.8383086193
 20
75.7984768559
 30
0.0
 10
426.5873719477
 20
75.6978504339
 30
0.0
 10
427.4322562822
 20
75.3158457148
 30
0.0
 10
427.9508430225
 20
74.8754361941
 30
0.0
 10
428.2345659763
 20
74.5060047774
 30
0.0
 10
428.4114390825
 20
74.1015037687
 30
0.0
 10
428.4518585107
 20
73.8164361662
 30
0.0
 10
428.4518585107
 20
73.6771565124
 30
0.0
  0
SPLINE
  5
879
100
AcDbEntity
  8
RUNDUNGEN
100
AcDbSpline
 62
7
  6
CONTINUOUS
 70
0
 71
3
 72
13
 73
9
 74
0
 42
0.0000001
 43
0.0000001
 44
0.0000000001
 40
0.0
 40
0.0
 40
0.0
 40
0.0
 40
0.2360075601
 40
0.3661259284
 40
0.499999922
 40
0.6338738837
 40
0.7639922828
 40
1.0
 40
1.0
 40
1.0
 40
1.0
 10
409.6029111512
 20
79.9006327474
 30
0.0
 10
409.9580004852
 20
80.2592208263
 30
0.0
 10
410.6634561826
 20
80.6678068617
 30
0.0
 10
411.6994382425
 20
80.9382691245
 30
0.0
 10
412.5518579254
 20
81.0104007161
 30
0.0
 10
413.4042776891
 20
80.9382693023
 30
0.0
 10
414.4402601253
 20
80.6678071832
 30
0.0
 10
415.1457162998
 20
80.259221065
 30
0.0
 10
415.5008058701
 20
79.9006327474
 30
0.0
  0
SPLINE
  5
87A
100
AcDbEntity
  8
RUNDUNGEN
100
AcDbSpline
 62
7
  6
CONTINUOUS
 70
0
 71
3
 72
11
 73
7
 74
0
 42
0.0000001
 43
0.0000001
 44
0.0000000001
 40
0.0
 40
0.0
 40
0.0
 40
0.0
 40
0.2660806253
 40
0.5190943246
 40
0.762219441
 40
1.0
 40
1.0
 40
1.0
 40
1.0
 10
401.6126080779
 20
93.9256728983
 30
0.0
 10
401.8681802962
 20
93.6675824911
 30
0.0
 10
402.3281942337
 20
93.1233136589
 30
0.0
 10
402.8489619651
 20
92.2154469958
 30
0.0
 10
403.1682338084
 20
91.2586084679
 30
0.0
 10
403.2402396678
 20
90.6000421977
 30
0.0
 10
403.2402396793
 20
90.2754550799
 30
0.0
  0
SPLINE
  5
87B
100
AcDbEntity
  8
RUNDUNGEN
100
AcDbSpline
 62
7
  6
CONTINUOUS
 70
0
 71
3
 72
11
 73
7
 74
0
 42
0.0000001
 43
0.0000001
 44
0.0000000001
 40
0.0
 40
0.0
 40
0.0
 40
0.0
 40
0.2297153182
 40
0.4842567112
 40
0.7475604635
 40
1.0
 40
1.0
 40
1.0
 40
1.0
 10
430.9037840951
 20
107.3288408255
 30
0.0
 10
431.0235282074
 20
107.4497647934
 30
0.0
 10
431.3330121759
 20
107.6494393237
 30
0.0
 10
431.8754309594
 20
107.7918272993
 30
0.0
 10
432.4526163707
 20
107.7837419994
 30
0.0
 10
432.8252798642
 20
107.672293946
 30
0.0
 10
432.9928768161
 20
107.589313092
 30
0.0
  0
SPLINE
  5
87C
100
AcDbEntity
  8
0
100
AcDbSpline
 62
7
  6
CONTINUOUS
 70
0
 71
3
 72
12
 73
8
 74
0
 42
0.0000001
 43
0.0000001
 44
0.0000000001
 40
0.0
 40
0.0
 40
0.0
 40
0.0
 40
0.2238148859
 40
0.4682407666
 40
0.5972968093
 40
0.7296803052
 40
1.0
 40
1.0
 40
1.0
 40
1.0
 10
410.5267607846
 20
87.2409834245
 30
0.0
 10
410.269822732
 20
87.5658595214
 30
0.0
 10
409.6229269557
 20
88.1619093417
 30
0.0
 10
408.6419737744
 20
88.6913578833
 30
0.0
 10
407.7576907467
 20
89.0029265204
 30
0.0
 10
406.8000714084
 20
89.2349778774
 30
0.0
 10
406.05212201
 20
89.3042163766
 30
0.0
 10
405.5518585107
 20
89.3042163766
 30
0.0
  0
SPLINE
  5
87D
100
AcDbEntity
  8
0
100
AcDbSpline
 62
7
  6
CONTINUOUS
 70
0
 71
3
 72
10
 73
6
 74
0
 42
0.0000001
 43
0.0000001
 44
0.0000000001
 40
0.0
 40
0.0
 40
0.0
 40
0.0
 40
0.4713605316
 40
0.7305636987
 40
1.0
 40
1.0
 40
1.0
 40
1.0
 10
410.3634180398
 20
87.2224152386
 30
0.0
 10
409.9133810002
 20
87.7232853896
 30
0.0
 10
409.024076556
 20
88.3344329961
 30
0.0
 10
407.6827246268
 20
88.8303052533
 30
0.0
 10
406.9384031505
 20
88.98065653
 30
0.0
 10
406.556547837
 20
89.0289577748
 30
0.0
  0
SPLINE
  5
87E
100
AcDbEntity
  8
0
100
AcDbSpline
 62
7
  6
CONTINUOUS
 70
0
 71
3
 72
9
 73
5
 74
0
 42
0.0000001
 43
0.0000001
 44
0.0000000001
 40
0.0
 40
0.0
 40
0.0
 40
0.0
 40
0.2380967801
 40
1.0
 40
1.0
 40
1.0
 40
1.0
 10
409.8185122154
 20
98.5922320547
 30
0.0
 10
409.5887071236
 20
98.7417709683
 30
0.0
 10
408.581204137
 20
99.3041296136
 30
0.0
 10
407.440104595
 20
99.610292868
 30
0.0
 10
406.5685478425
 20
99.7109892122
 30
0.0
  0
SPLINE
  5
87F
100
AcDbEntity
  8
BEZUGSACHSEN
100
AcDbSpline
 62
7
  6
CONTINUOUS
 70
0
 71
3
 72
11
 73
7
 74
0
 42
0.0000001
 43
0.0000001
 44
0.0000000001
 40
0.0
 40
0.0
 40
0.0
 40
0.0
 40
0.2500117066
 40
0.5000175241
 40
0.7500134384
 40
1.0
 40
1.0
 40
1.0
 40
1.0
 10
391.4809708074
 20
87.8521529836
 30
0.0
 10
391.3788029665
 20
87.8742305454
 30
0.0
 10
391.1803982235
 20
87.9539841989
 30
0.0
 10
390.941068963
 20
88.1656726642
 30
0.0
 10
390.7862938411
 20
88.4452609522
 30
0.0
 10
390.7522232768
 20
88.656492088
 30
0.0
 10
390.7535095725
 20
88.7609996681
 30
0.0
  0
SPLINE
  5
880
100
AcDbEntity
  8
BEZUGSACHSEN
100
AcDbSpline
 62
7
  6
CONTINUOUS
 70
0
 71
3
 72
11
 73
7
 74
0
 42
0.0000001
 43
0.0000001
 44
0.0000000001
 40
0.0
 40
0.0
 40
0.0
 40
0.0
 40
0.2500139658
 40
0.5000035069
 40
0.7499908109
 40
1.0
 40
1.0
 40
1.0
 40
1.0
 10
437.1826482025
 20
68.7927023077
 30
0.0
 10
437.2565478176
 20
68.792702321
 30
0.0
 10
437.4049434342
 20
68.8104854456
 30
0.0
 10
437.6144196265
 20
68.8890812918
 30
0.0
 10
437.7993433186
 20
69.0150389433
 30
0.0
 10
437.8992106692
 20
69.1262745226
 30
0.0
 10
437.9415969759
 20
69.1868083597
 30
0.0
  0
SPLINE
  5
881
100
AcDbEntity
  8
BEZUGSACHSEN
100
AcDbSpline
 62
7
  6
CONTINUOUS
 70
0
 71
3
 72
13
 73
9
 74
0
 42
0.0000001
 43
0.0000001
 44
0.0000000001
 40
0.0
 40
0.0
 40
0.0
 40
0.0
 40
0.2494185528
 40
0.4988218131
 40
0.6241166251
 40
0.7494130169
 40
0.8747019563
 40
1.0
 40
1.0
 40
1.0
 40
1.0
 10
420.479264426
 20
68.792703329
 30
0.0
 10
420.3592908451
 20
68.7927031875
 30
0.0
 10
420.1168856918
 20
68.8397818245
 30
0.0
 10
419.8595522146
 20
69.0094690977
 30
0.0
 10
419.7046866709
 20
69.1952087207
 30
0.0
 10
419.617693033
 20
69.3551183839
 30
0.0
 10
419.5639825961
 20
69.5289473023
 30
0.0
 10
419.5518585177
 20
69.6498295137
 30
0.0
 10
419.5518585107
 20
69.7100995089
 30
0.0
  0
SPLINE
  5
882
100
AcDbEntity
  8
RUNDUNGEN
100
AcDbSpline
 62
7
  6
CONTINUOUS
 70
0
 71
3
 72
11
 73
7
 74
0
 42
0.0000001
 43
0.0000001
 44
0.0000000001
 40
0.0
 40
0.0
 40
0.0
 40
0.0
 40
0.2500139658
 40
0.5000035069
 40
0.7499908109
 40
1.0
 40
1.0
 40
1.0
 40
1.0
 10
387.9210688189
 20
85.1946910936
 30
0.0
 10
387.8471692038
 20
85.1946910803
 30
0.0
 10
387.6987735871
 20
85.1769079557
 30
0.0
 10
387.4892973948
 20
85.0983121095
 30
0.0
 10
387.3043737027
 20
84.9723544579
 30
0.0
 10
387.2045063522
 20
84.8611188786
 30
0.0
 10
387.1621200454
 20
84.8005850416
 30
0.0
  0
SPLINE
  5
883
100
AcDbEntity
  8
RUNDUNGEN
100
AcDbSpline
 62
7
  6
CONTINUOUS
 70
0
 71
3
 72
11
 73
7
 74
0
 42
0.0000001
 43
0.0000001
 44
0.0000000001
 40
0.0
 40
0.0
 40
0.0
 40
0.0
 40
0.2500117071
 40
0.5000175246
 40
0.7500134389
 40
1.0
 40
1.0
 40
1.0
 40
1.0
 10
433.622746214
 20
66.1352404177
 30
0.0
 10
433.7249140675
 20
66.1131629131
 30
0.0
 10
433.9233187925
 20
66.0334091755
 30
0.0
 10
434.1626480603
 20
65.8217207436
 30
0.0
 10
434.3174231799
 20
65.5421324466
 30
0.0
 10
434.3514937446
 20
65.3309013131
 30
0.0
 10
434.3502074488
 20
65.2263937332
 30
0.0
  0
SPLINE
  5
884
100
AcDbEntity
  8
RUNDUNGEN
100
AcDbSpline
 62
7
  6
CONTINUOUS
 70
0
 71
3
 72
8
 73
4
 74
0
 42
0.0000001
 43
0.0000001
 44
0.0000000001
 40
0.0
 40
0.0
 40
0.0
 40
0.0
 40
1.0
 40
1.0
 40
1.0
 40
1.0
 10
423.5991943467
 20
68.8610825282
 30
0.0
 10
423.5671488022
 20
68.7503374792
 30
0.0
 10
423.5518584859
 20
68.6337605664
 30
0.0
 10
423.5518585107
 20
68.5184723068
 30
0.0
  0
SPLINE
  5
885
100
AcDbEntity
  8
BEZUGSACHSEN
100
AcDbSpline
 62
7
  6
CONTINUOUS
 70
0
 71
3
 72
22
 73
18
 74
0
 42
0.0000001
 43
0.0000001
 44
0.0000000001
 40
0.0
 40
0.0
 40
0.0
 40
0.0
 40
0.0324054525
 40
0.0647346747
 40
0.0970797141
 40
0.1294892697
 40
0.1619084066
 40
0.1943154957
 40
0.2590085285
 40
0.323543067
 40
0.3878308435
 40
0.4517920616
 40
0.5153492613
 40
0.6409364637
 40
0.7639827828
 40
0.8838723202
 40
1.0
 40
1.0
 40
1.0
 40
1.0
 10
398.2325995837
 20
83.9329998035
 30
0.0
 10
398.2201810297
 20
83.9493134458
 30
0.0
 10
398.1984410989
 20
83.9846280602
 30
0.0
 10
398.1847451528
 20
84.0462056129
 30
0.0
 10
398.1980048335
 20
84.1079268394
 30
0.0
 10
398.2303391693
 20
84.1610191902
 30
0.0
 10
398.272379161
 20
84.2062614416
 30
0.0
 10
398.3355618539
 20
84.2586731028
 30
0.0
 10
398.4222469176
 20
84.3135405331
 30
0.0
 10
398.5313023374
 20
84.3693419845
 30
0.0
 10
398.6430333396
 20
84.4184030845
 30
0.0
 10
398.7560742642
 20
84.4626048175
 30
0.0
 10
398.9069439943
 20
84.5163467329
 30
0.0
 10
399.0952577012
 20
84.5761237475
 30
0.0
 10
399.31953512
 20
84.6399425832
 30
0.0
 10
399.5393233878
 20
84.6974549386
 30
0.0
 10
399.6843591687
 20
84.7330098407
 30
0.0
 10
399.7558207657
 20
84.7500825465
 30
0.0
  0
LINE
  5
886
100
AcDbEntity
  8
BEZUGSACHSEN
100
AcDbLine
 62
7
  6
CONTINUOUS
 10
397.6686204359
 20
83.9329998035
 11
397.7151810719
 21
83.9330104933
  0
SPLINE
  5
887
100
AcDbEntity
  8
BEZUGSACHSEN
100
AcDbSpline
 62
7
  6
CONTINUOUS
 70
0
 71
3
 72
14
 73
10
 74
0
 42
0.0000001
 43
0.0000001
 44
0.0000000001
 40
0.0
 40
0.0
 40
0.0
 40
0.0
 40
0.3421599475
 40
0.5007436345
 40
0.6447238652
 40
0.7699083479
 40
0.8726672022
 40
0.9500610861
 40
1.0
 40
1.0
 40
1.0
 40
1.0
 10
394.2463385069
 20
80.1632030094
 30
0.0
 10
394.0928638469
 20
80.1573559685
 30
0.0
 10
393.8681786558
 20
80.150644645
 30
0.0
 10
393.5788180926
 20
80.1458772955
 30
0.0
 10
393.3868096088
 20
80.1446443113
 30
0.0
 10
393.2198732616
 20
80.1456947845
 30
0.0
 10
393.082809729
 20
80.148798645
 30
0.0
 10
392.9797194788
 20
80.1541504861
 30
0.0
 10
392.9226648998
 20
80.15945426
 30
0.0
 10
392.9006463269
 20
80.163657526
 30
0.0
  0
SPLINE
  5
888
100
AcDbEntity
  8
BEZUGSACHSEN
100
AcDbSpline
 62
7
  6
CONTINUOUS
 70
0
 71
3
 72
11
 73
7
 74
0
 42
0.0000001
 43
0.0000001
 44
0.0000000001
 40
0.0
 40
0.0
 40
0.0
 40
0.0
 40
0.3695964871
 40
0.6470987928
 40
0.8451970129
 40
1.0
 40
1.0
 40
1.0
 40
1.0
 10
392.9006463269
 20
80.163657526
 30
0.0
 10
392.8964836402
 20
80.1644521679
 30
0.0
 10
392.8892181298
 20
80.1660856359
 30
0.0
 10
392.8801355501
 20
80.1694790627
 30
0.0
 10
392.8739725123
 20
80.1736486199
 30
0.0
 10
392.8723564925
 20
80.1777336888
 30
0.0
 10
392.8723564925
 20
80.1795086858
 30
0.0
  0
SPLINE
  5
889
100
AcDbEntity
  8
BEZUGSACHSEN
100
AcDbSpline
 62
7
  6
CONTINUOUS
 70
0
 71
3
 72
8
 73
4
 74
0
 42
0.0000001
 43
0.0000001
 44
0.0000000001
 40
0.0
 40
0.0
 40
0.0
 40
0.0
 40
1.0
 40
1.0
 40
1.0
 40
1.0
 10
395.2784353864
 20
80.228403982
 30
0.0
 10
394.9388238968
 20
80.2007554331
 30
0.0
 10
394.5987719116
 20
80.1765992025
 30
0.0
 10
394.2582826766
 20
80.163657526
 30
0.0
  0
LINE
  5
88A
100
AcDbEntity
  8
BEZUGSACHSEN
100
AcDbLine
 62
7
  6
CONTINUOUS
 10
394.2463385069
 20
80.1632030094
 11
394.2582826766
 21
80.163657526
  0
SPLINE
  5
88B
100
AcDbEntity
  8
KONSTRUKTIONSELEMENTE
100
AcDbSpline
 62
7
  6
CONTINUOUS
 70
0
 71
3
 72
11
 73
7
 74
0
 42
0.0000001
 43
0.0000001
 44
0.0000000001
 40
0.0
 40
0.0
 40
0.0
 40
0.0
 40
0.2499067723
 40
0.4998885724
 40
0.7499446638
 40
1.0
 40
1.0
 40
1.0
 40
1.0
 10
381.9411966809
 20
150.4152775095
 30
0.0
 10
382.6328582091
 20
150.4153350571
 30
0.0
 10
384.0178644859
 20
150.5290293193
 30
0.0
 10
386.0509988779
 20
150.9609399114
 30
0.0
 10
388.0483037003
 20
151.5277224084
 30
0.0
 10
389.3804633979
 20
151.9044569484
 30
0.0
 10
390.0518585107
 20
152.0723653613
 30
0.0
  0
ELLIPSE
  5
88C
100
AcDbEntity
  8
KONSTRUKTIONSELEMENTE
100
AcDbEllipse
 62
7
  6
CONTINUOUS
 10
235.7471700335
 20
167.4248566957
 30
0.0
 11
6.5
 21
-0.0
 31
0.0
 40
0.2260480602
 41
-0.3534683866
 42
-0.0000454921
  0
ELLIPSE
  5
88D
100
AcDbEntity
  8
KONSTRUKTIONSELEMENTE
100
AcDbEllipse
 62
7
  6
CONTINUOUS
 10
235.7471700335
 20
168.3795490358
 30
0.0
 11
6.5
 21
-0.0
 31
0.0
 40
0.2260480602
 41
6.2832307993
 42
6.6366536938
  0
ELLIPSE
  5
88E
100
AcDbEntity
  8
KONSTRUKTIONSELEMENTE
100
AcDbEllipse
 62
7
  6
CONTINUOUS
 10
235.7471700335
 20
170.8052715207
 30
0.0
 11
6.5
 21
0.0
 31
0.0
 40
0.2260480371
 41
-0.3534683866
 42
-0.0000454921
  0
ELLIPSE
  5
88F
100
AcDbEntity
  8
KONSTRUKTIONSELEMENTE
100
AcDbEllipse
 62
7
  6
CONTINUOUS
 10
235.7471700335
 20
171.7599639584
 30
0.0
 11
6.5
 21
0.0
 31
0.0
 40
0.2260481295
 41
6.2832307993
 42
6.6366536938
  0
ELLIPSE
  5
890
100
AcDbEntity
  8
KONSTRUKTIONSELEMENTE
100
AcDbEllipse
 62
7
  6
CONTINUOUS
 10
235.7471700335
 20
180.8484890694
 30
0.0
 11
6.5
 21
0.0
 31
0.0
 40
0.1324005344
 41
-0.2337093076
 42
-0.1503199462
  0
ELLIPSE
  5
891
100
AcDbEntity
  8
KONSTRUKTIONSELEMENTE
100
AcDbEllipse
 62
7
  6
CONTINUOUS
 10
235.7471700335
 20
181.6457042118
 30
0.0
 11
6.5
 21
0.0
 31
0.0
 40
0.661999255
 41
-0.3016059166
 42
-0.2337093076
  0
ELLIPSE
  5
892
100
AcDbEntity
  8
KONSTRUKTIONSELEMENTE
100
AcDbEllipse
 62
7
  6
CONTINUOUS
 10
235.7471700335
 20
182.9239115746
 30
0.0
 11
0.0
 21
8.605941071
 31
0.0
 40
0.7552921809
 41
-1.9068745207
 42
-1.8724022434
  0
ELLIPSE
  5
893
100
AcDbEntity
  8
KONSTRUKTIONSELEMENTE
100
AcDbEllipse
 62
7
  6
CONTINUOUS
 10
235.7471700335
 20
187.181138333
 30
0.0
 11
-0.0
 21
21.514951165
 31
0.0
 40
0.3021154894
 41
-1.9242647134
 42
-1.9068745207
  0
ELLIPSE
  5
894
100
AcDbEntity
  8
KONSTRUKTIONSELEMENTE
100
AcDbEllipse
 62
7
  6
CONTINUOUS
 10
235.7471700335
 20
171.6523443524
 30
0.0
 11
0.0
 21
21.514951165
 31
0.0
 40
0.3021154894
 41
-1.2347181329
 42
-1.2173279402
  0
ELLIPSE
  5
895
100
AcDbEntity
  8
KONSTRUKTIONSELEMENTE
100
AcDbEllipse
 62
7
  6
CONTINUOUS
 10
235.7471700335
 20
175.9095629907
 30
0.0
 11
0.0
 21
8.6059656929
 31
0.0
 40
0.75529002
 41
-1.2691904102
 42
-1.2347181329
  0
ELLIPSE
  5
896
100
AcDbEntity
  8
KONSTRUKTIONSELEMENTE
100
AcDbEllipse
 62
7
  6
CONTINUOUS
 10
235.7471700335
 20
177.1877776676
 30
0.0
 11
6.5
 21
0.0
 31
0.0
 40
0.661999255
 41
0.2337093076
 42
0.3016059166
  0
ELLIPSE
  5
897
100
AcDbEntity
  8
KONSTRUKTIONSELEMENTE
100
AcDbEllipse
 62
7
  6
CONTINUOUS
 10
235.7471700335
 20
174.8364533025
 30
0.0
 11
6.5
 21
-0.0
 31
0.0
 40
0.1655007607
 41
0.1668948344
 42
0.2337093076
  0
ELLIPSE
  5
898
100
AcDbEntity
  8
KONSTRUKTIONSELEMENTE
100
AcDbEllipse
 62
7
  6
CONTINUOUS
 10
235.7471700335
 20
174.0890674187
 30
0.0
 11
6.5
 21
0.0
 31
0.0
 40
0.661997361
 41
0.2337093076
 42
0.3016059166
  0
ELLIPSE
  5
899
100
AcDbEntity
  8
KONSTRUKTIONSELEMENTE
100
AcDbEllipse
 62
7
  6
CONTINUOUS
 10
235.7471700335
 20
172.8108490848
 30
0.0
 11
0.0
 21
8.6059656929
 31
0.0
 40
0.75529002
 41
-1.2691904102
 42
-1.2347181329
  0
ELLIPSE
  5
89A
100
AcDbEntity
  8
KONSTRUKTIONSELEMENTE
100
AcDbEllipse
 62
7
  6
CONTINUOUS
 10
235.7471700335
 20
169.9726952059
 30
0.0
 11
0.0
 21
17.2119806295
 31
0.0
 40
0.3776439295
 41
-1.2347181329
 42
-1.2173279402
  0
ELLIPSE
  5
89B
100
AcDbEntity
  8
KONSTRUKTIONSELEMENTE
100
AcDbEllipse
 62
7
  6
CONTINUOUS
 10
235.7471700335
 20
183.7302976088
 30
0.0
 11
-0.0
 21
21.514951165
 31
0.0
 40
0.3021154894
 41
-1.9242647134
 42
-1.9068745207
  0
ELLIPSE
  5
89C
100
AcDbEntity
  8
KONSTRUKTIONSELEMENTE
100
AcDbEllipse
 62
7
  6
CONTINUOUS
 10
235.7471700335
 20
178.5270330908
 30
0.0
 11
6.5
 21
0.0
 31
0.0
 40
0.882663148
 41
-0.3360781939
 42
-0.2845102315
  0
ELLIPSE
  5
89D
100
AcDbEntity
  8
KONSTRUKTIONSELEMENTE
100
AcDbEllipse
 62
7
  6
CONTINUOUS
 10
235.7471700335
 20
177.8224879848
 30
0.0
 11
6.5
 21
-0.0
 31
0.0
 40
0.4964984942
 41
-0.2845102315
 42
-0.2169180916
  0
ELLIPSE
  5
89E
100
AcDbEntity
  8
KONSTRUKTIONSELEMENTE
100
AcDbEllipse
 62
7
  6
CONTINUOUS
 10
235.7471700335
 20
177.4366182553
 30
0.0
 11
6.5
 21
0.0
 31
0.0
 40
0.220667681
 41
-0.2169180916
 42
-0.1668948344
  0
ELLIPSE
  5
89F
100
AcDbEntity
  8
KONSTRUKTIONSELEMENTE
100
AcDbEllipse
 62
7
  6
CONTINUOUS
 10
235.7471700335
 20
177.6860406256
 30
0.0
 11
6.5
 21
0.0
 31
0.0
 40
0.3309977335
 41
0.1668948344
 42
0.2337093076
  0
ELLIPSE
  5
8A0
100
AcDbEntity
  8
KONSTRUKTIONSELEMENTE
100
AcDbEllipse
 62
7
  6
CONTINUOUS
 10
235.7471700335
 20
177.9004833736
 30
0.0
 11
6.5
 21
0.0
 31
0.0
 40
0.1324005344
 41
0.0843881619
 42
0.1668948344
  0
ELLIPSE
  5
8A1
100
AcDbEntity
  8
0
100
AcDbEllipse
 62
7
  6
CONTINUOUS
 10
440.5518585107
 20
76.9936967006
 30
0.0
 11
-0.0
 21
2.7479640288
 31
0.0
 40
0.1051042353
 41
-0.0
 42
3.1415926536
  0
ELLIPSE
  5
8A2
100
AcDbEntity
  8
0
100
AcDbEllipse
 62
7
  6
CONTINUOUS
 10
384.5518585107
 20
76.9936967006
 30
0.0
 11
0.0
 21
2.7479640288
 31
0.0
 40
0.1051042353
 41
-3.1415926536
 42
-0.0
  0
ELLIPSE
  5
8A3
100
AcDbEntity
  8
BEZUGSACHSEN
100
AcDbEllipse
 62
7
  6
CONTINUOUS
 10
440.5518585107
 20
76.9936967006
 30
0.0
 11
0.0
 21
2.7479640288
 31
0.0
 40
0.1051042353
 41
-0.0
 42
3.1415926536
  0
ENDSEC
  0
SECTION
  2
OBJECTS
  0
DICTIONARY
  5
C
100
AcDbDictionary
280
0
281
1
  3
ACAD_GROUP
350
D
  3
ACAD_MLINESTYLE
350
17
  3
ACAD_LAYOUT
350
1A
  3
ACAD_PLOTSETTINGS
350
19
  3
ACAD_PLOTSTYLENAME
350
E
  0
DICTIONARY
  5
D
102
{ACAD_REACTORS
330
C
102
}
100
AcDbDictionary
280
0
281
1
  0
ACDBDICTIONARYWDFLT
  5
E
102
{ACAD_REACTORS
330
C
102
}
100
AcDbDictionary
281
1
  3
Normal
350
F
100
AcDbDictionaryWithDefault
340
F
  0
DICTIONARY
  5
17
102
{ACAD_REACTORS
330
C
102
}
100
AcDbDictionary
280
0
281
1
  3
Standard
350
18
  0
DICTIONARY
  5
19
102
{ACAD_REACTORS
330
C
102
}
100
AcDbDictionary
281
1
  0
DICTIONARY
  5
1A
102
{ACAD_REACTORS
330
C
102
}
100
AcDbDictionary
281
1
  3
Model
350
8A4
  3
Layout1
350
8A5
  0
ACDBPLACEHOLDER
  5
F
102
{ACAD_REACTORS
330
E
102
}
  0
MLINESTYLE
  5
18
102
{ACAD_REACTORS
330
17
102
}
100
AcDbMlineStyle
  2
STANDARD
 70
0
  3

 62
256
 51
90.0
 52
90.0
 71
2
 49
0.5
 62
256
  6
BYLAYER
 49
-0.5
 62
256
  6
BYLAYER
  0
LAYOUT
  5
8A4
102
{ACAD_REACTORS
330
1A
102
}
100
AcDbPlotSettings
  1

  2
none_device
  4
ISO_A2_(594.00_x_420.00_MM)
  6

 40
0.0
 41
0.0
 42
0.0
 43
0.0
 44
594.0
 45
420.0
 46
0.0
 47
0.0
 48
0.0
 49
0.0
140
0.0
141
0.0
142
1.0
143
1.0
 70
1024
 72
1
 73
0
 74
0
  7

 75
0
147
1.0
148
0.0
149
0.0
100
AcDbLayout
  1
Model
 70
0
 71
0
 10
0.0
 20
0.0
 11
594.0
 21
420.0
 12
0.0
 22
0.0
 32
0.0
 14
0.0
 24
0.0
 34
0.0
 15
0.0
 25
0.0
 35
0.0
146
0.0
 13
0.0
 23
0.0
 33
0.0
 16
1.0
 26
0.0
 36
0.0
 17
0.0
 27
1.0
 37
0.0
 76
0
330
20C
345
0
346
0
  0
LAYOUT
  5
8A5
102
{ACAD_REACTORS
330
1A
102
}
100
AcDbPlotSettings
  1

  2
none_device
  4
ISO_A2_(594.00_x_420.00_MM)
  6

 40
0.0
 41
0.0
 42
0.0
 43
0.0
 44
594.0
 45
420.0
 46
0.0
 47
0.0
 48
0.0
 49
0.0
140
0.0
141
0.0
142
1.0
143
1.0
 70
0
 72
1
 73
0
 74
0
  7

 75
0
147
1.0
148
0.0
149
0.0
100
AcDbLayout
  1
Layout1
 70
0
 71
1
 10
0.0
 20
0.0
 11
594.0
 21
420.0
 12
0.0
 22
0.0
 32
0.0
 14
0.0
 24
0.0
 34
0.0
 15
0.0
 25
0.0
 35
0.0
146
0.0
 13
0.0
 23
0.0
 33
0.0
 16
1.0
 26
0.0
 36
0.0
 17
0.0
 27
1.0
 37
0.0
 76
0
330
20D
345
0
346
0
  0
ENDSEC
  0
EOF
