999
DXF file: IMK-2S-16_7904658_M34963-P-5.dxf
999
Pro/ENGINEER 2011490 by Parametric Technology Corporation
  0
SECTION
  2
HEADER
  9
$ACADVER
  1
AC1015
  9
$DWGCODEPAGE
  3
ANSI_1252
  9
$EXTMAX
 10
1189.0
 20
841.0
 30
0.0
  9
$EXTMIN
 10
0.0
 20
0.0
 30
0.0
  9
$LIMMIN
 10
0.0
 20
0.0
  9
$LIMMAX
 10
1189.0
 20
841.0
  9
$VIEWCTR
 10
594.5
 20
420.5
  9
$VIEWSIZE
 40
841.0
  9
$CLAYER
  8
0
  9
$LTSCALE
 40
65.395
  9
$CELTYPE
  6
BYLAYER
  9
$DIMSCALE
 40
1.0
  9
$DIMASZ
 40
3.5
  9
$DIMEXO
 40
7.43125
  9
$DIMDLI
 40
45.182
  9
$DIMEXE
 40
21.402
  9
$DIMCEN
 40
10.701
  9
$DIMLFAC
 40
1.0
  9
$DIMBLK
  1
_FILLED
  9
$DIMTXT
 40
3.5
  9
$DIMTOL
 70
1
  9
$DIMLIM
 70
0
  9
$DIMTFAC
 40
1.0
  9
$DIMTP
 40
0.005
  9
$DIMTM
 40
0.005
  9
$PDMODE
 70
3
  9
$PDSIZE
 40
0.3125
  9
$HANDSEED
  5
895
  9
$TILEMODE
 70
1
  9
$MEASUREMENT
 70
1
  9
$INSUNITS
 70
4
  0
ENDSEC
  0
SECTION
  2
CLASSES
  0
CLASS
  1
ACDBDICTIONARYWDFLT
  2
AcDbDictionaryWithDefault
  3
AutoCAD 2000
 90
0
280
0
281
0
  0
CLASS
  1
ACDBPLACEHOLDER
  2
AcDbPlaceHolder
  3
AutoCAD 2000
 90
0
280
0
281
0
  0
CLASS
  1
LAYOUT
  2
AcDbLayout
  3
AutoCAD 2000
 90
0
280
0
281
0
  0
ENDSEC
  0
SECTION
  2
TABLES
  0
TABLE
  2
VPORT
  5
8
100
AcDbSymbolTable
 70
2
  0
VPORT
  5
1F4
100
AcDbSymbolTableRecord
100
AcDbViewportTableRecord
  2
*ACTIVE
 70
0
 10
0.0
 20
0.0
 11
1.0
 21
1.0
 12
594.5
 22
420.5
 13
0.0
 23
0.0
 14
1.0
 24
1.0
 15
0.0
 25
0.0
 16
0.0
 26
0.0
 36
1.0
 17
0.0
 27
0.0
 37
0.0
 40
841.0
 41
1.4137931034
 42
50.0
 43
0.0
 44
0.0
 50
0.0
 51
0.0
 71
0
 72
100
 73
1
 74
1
 75
0
 76
0
 77
0
 78
0
  0
ENDTAB
  0
TABLE
  2
LTYPE
  5
5
100
AcDbSymbolTable
 70
6
  0
LTYPE
  5
14
100
AcDbSymbolTableRecord
100
AcDbLinetypeTableRecord
  2
BYBLOCK
 70
0
  3

 72
65
 73
0
 40
0.0
  0
LTYPE
  5
15
100
AcDbSymbolTableRecord
100
AcDbLinetypeTableRecord
  2
BYLAYER
 70
0
  3

 72
65
 73
0
 40
0.0
  0
LTYPE
  5
16
100
AcDbSymbolTableRecord
100
AcDbLinetypeTableRecord
  2
CONTINUOUS
 70
64
  3
Solid line
 72
65
 73
0
 40
0.0
  0
LTYPE
  5
1F5
100
AcDbSymbolTableRecord
100
AcDbLinetypeTableRecord
  2
CENTER
 70
64
  3
____ _ ____ _ ____ _ ____ _ ____ _ ____ _ ____
 72
65
 73
4
 40
0.6
 49
0.375
 74
0
 49
-0.075
 74
0
 49
0.075
 74
0
 49
-0.075
 74
0
  0
LTYPE
  5
1F6
100
AcDbSymbolTableRecord
100
AcDbLinetypeTableRecord
  2
HIDDEN
 70
64
  3
- - - - - - - - - - - - - - - - - - - -
 72
65
 73
2
 40
0.2
 49
0.1
 74
0
 49
-0.1
 74
0
  0
LTYPE
  5
1F7
100
AcDbSymbolTableRecord
100
AcDbLinetypeTableRecord
  2
PHANTOM
 70
64
  3
_____ _ _ _____ _ _ _____ _ _ _____
 72
65
 73
6
 40
0.8
 49
0.45
 74
0
 49
-0.05
 74
0
 49
0.1
 74
0
 49
-0.05
 74
0
 49
0.1
 74
0
 49
-0.05
 74
0
  0
LTYPE
  5
1F8
100
AcDbSymbolTableRecord
100
AcDbLinetypeTableRecord
  2
DOT
 70
64
  3
. . . . . . . . . . . . . . . . . . . .
 72
65
 73
2
 40
0.2
 49
0.1
 74
0
 49
-0.1
 74
0
  0
LTYPE
  5
1F9
100
AcDbSymbolTableRecord
100
AcDbLinetypeTableRecord
  2
DASHED
 70
64
  3
- - - - - - - - - - - - - - - - - - - -
 72
65
 73
2
 40
0.2
 49
0.1
 74
0
 49
-0.1
 74
0
  0
ENDTAB
  0
TABLE
  2
LAYER
  5
2
100
AcDbSymbolTable
 70
36
  0
LAYER
  5
10
100
AcDbSymbolTableRecord
100
AcDbLayerTableRecord
  2
0
 70
0
 62
7
  6
CONTINUOUS
370
-3
390
F
  0
LAYER
  5
1FA
100
AcDbSymbolTableRecord
100
AcDbLayerTableRecord
  2
DEFAULT_1
 70
0
 62
7
  6
CENTER
370
-3
390
F
  0
LAYER
  5
1FB
100
AcDbSymbolTableRecord
100
AcDbLayerTableRecord
  2
DEFAULT_2
 70
0
 62
8
  6
HIDDEN
370
-3
390
F
  0
LAYER
  5
1FC
100
AcDbSymbolTableRecord
100
AcDbLayerTableRecord
  2
DEFAULT_3
 70
0
 62
7
  6
PHANTOM
370
-3
390
F
  0
LAYER
  5
1FD
100
AcDbSymbolTableRecord
100
AcDbLayerTableRecord
  2
AUSFORMSCHRAEGEN
 70
0
 62
7
  6
CONTINUOUS
370
-3
390
F
  0
LAYER
  5
1FE
100
AcDbSymbolTableRecord
100
AcDbLayerTableRecord
  2
BEZUGSACHSEN
 70
0
 62
7
  6
CONTINUOUS
370
-3
390
F
  0
LAYER
  5
1FF
100
AcDbSymbolTableRecord
100
AcDbLayerTableRecord
  2
BEZUGSEBENEN
 70
0
 62
7
  6
CONTINUOUS
370
-3
390
F
  0
LAYER
  5
200
100
AcDbSymbolTableRecord
100
AcDbLayerTableRecord
  2
BG_STARTBEZUEGE
 70
0
 62
7
  6
CONTINUOUS
370
-3
390
F
  0
LAYER
  5
201
100
AcDbSymbolTableRecord
100
AcDbLayerTableRecord
  2
BOHRUNGEN
 70
0
 62
7
  6
CONTINUOUS
370
-3
390
F
  0
LAYER
  5
202
100
AcDbSymbolTableRecord
100
AcDbLayerTableRecord
  2
FASEN
 70
0
 62
7
  6
CONTINUOUS
370
-3
390
F
  0
LAYER
  5
203
100
AcDbSymbolTableRecord
100
AcDbLayerTableRecord
  2
HILFEN
 70
0
 62
7
  6
CONTINUOUS
370
-3
390
F
  0
LAYER
  5
204
100
AcDbSymbolTableRecord
100
AcDbLayerTableRecord
  2
KONSTRUKTIONSELEMENTE
 70
0
 62
7
  6
CONTINUOUS
370
-3
390
F
  0
LAYER
  5
205
100
AcDbSymbolTableRecord
100
AcDbLayerTableRecord
  2
KURVEN
 70
0
 62
7
  6
CONTINUOUS
370
-3
390
F
  0
LAYER
  5
206
100
AcDbSymbolTableRecord
100
AcDbLayerTableRecord
  2
NORM
 70
0
 62
7
  6
CONTINUOUS
370
-3
390
F
  0
LAYER
  5
207
100
AcDbSymbolTableRecord
100
AcDbLayerTableRecord
  2
PLATZIERUNG
 70
0
 62
7
  6
CONTINUOUS
370
-3
390
F
  0
LAYER
  5
208
100
AcDbSymbolTableRecord
100
AcDbLayerTableRecord
  2
RUNDUNGEN
 70
0
 62
7
  6
CONTINUOUS
370
-3
390
F
  0
LAYER
  5
209
100
AcDbSymbolTableRecord
100
AcDbLayerTableRecord
  2
TEIL_STARTBEZUEGE
 70
0
 62
7
  6
CONTINUOUS
370
-3
390
F
  0
LAYER
  5
20A
100
AcDbSymbolTableRecord
100
AcDbLayerTableRecord
  2
T_STARTBEZUEGE
 70
0
 62
7
  6
CONTINUOUS
370
-3
390
F
  0
LAYER
  5
20B
100
AcDbSymbolTableRecord
100
AcDbLayerTableRecord
  2
ZEICHNUNGSBEMASSUNGEN
 70
0
 62
7
  6
CONTINUOUS
370
-3
390
F
  0
ENDTAB
  0
TABLE
  2
STYLE
  5
3
100
AcDbSymbolTable
 70
1
  0
STYLE
  5
11
100
AcDbSymbolTableRecord
100
AcDbTextStyleTableRecord
  2
STANDARD
 70
0
 40
0.0
 41
0.7
 50
0.0
 71
0
 42
0.2
  3
txt
  4

  0
STYLE
  5
20C
100
AcDbSymbolTableRecord
100
AcDbTextStyleTableRecord
  2
TEXTSTYLE_1
 70
0
 40
0.0
 41
0.8
 50
0.0
 71
0
 42
0.2
  3
gdt
  4

  0
ENDTAB
  0
TABLE
  2
VIEW
  5
6
100
AcDbSymbolTable
 70
0
  0
ENDTAB
  0
TABLE
  2
UCS
  5
7
100
AcDbSymbolTable
 70
0
  0
ENDTAB
  0
TABLE
  2
APPID
  5
9
100
AcDbSymbolTable
 70
1
  0
APPID
  5
20D
100
AcDbSymbolTableRecord
100
AcDbRegAppTableRecord
  2
ACAD
 70
0
  0
ENDTAB
  0
TABLE
  2
BLOCK_RECORD
  5
1
100
AcDbSymbolTable
 70
0
  0
BLOCK_RECORD
  5
20E
100
AcDbSymbolTableRecord
100
AcDbBlockTableRecord
  2
*Model_Space
  0
BLOCK_RECORD
  5
20F
100
AcDbSymbolTableRecord
100
AcDbBlockTableRecord
  2
*Paper_Space
  0
ENDTAB
  0
TABLE
  2
DIMSTYLE
  5
A
100
AcDbSymbolTable
 70
1
100
AcDbDimStyleTable
 71
0
  0
DIMSTYLE
105
210
100
AcDbSymbolTableRecord
100
AcDbDimStyleTableRecord
  2
STANDARD
 70
0
  3

  4

 40
1.0
 41
3.5
 42
0.0625
 43
0.38
 44
0.18
 45
0.0
 46
0.0
 47
0.005
 48
0.005
140
3.5
141
0.09
142
0.0
143
25.4
144
1.0
145
0.0
146
1.0
147
0.09
 71
1.0
 72
0.0
 73
0
 74
0
 75
0
 76
0
 77
1
 78
8
170
0
171
2
172
0
173
0
174
0
175
0
176
0
177
0
178
5
270
2
271
3
272
3
273
2
274
2
275
0
280
0
281
0
282
0
283
1
284
8
285
0
286
0
287
3
288
0
340
11
  0
ENDTAB
  0
ENDSEC
  0
SECTION
  2
BLOCKS
  0
BLOCK
  5
20
100
AcDbEntity
  8
0
100
AcDbBlockBegin
  2
*Model_Space
 70
0
 10
0.0
 20
0.0
 30
0.0
  3
*Model_Space
  1

  0
ENDBLK
  5
21
100
AcDbEntity
  8
0
100
AcDbBlockEnd
  0
BLOCK
  5
1C
100
AcDbEntity
  8
0
100
AcDbBlockBegin
  2
*Paper_Space
 70
0
 10
0.0
 20
0.0
 30
0.0
  3
*Paper_Space
  1

  0
ENDBLK
  5
1D
100
AcDbEntity
  8
0
100
AcDbBlockEnd
  0
ENDSEC
  0
SECTION
  2
ENTITIES
  0
MTEXT
  5
211
100
AcDbEntity
  8
0
100
AcDbMText
 62
5
  6
CONTINUOUS
  7
STANDARD
 71
1
 72
1
 10
361.4199628312
 20
407.5652085567
 30
0.0
 11
1.0
 21
0.0
 31
0.0
 44
0.9
  1
IWK-2S-16
 40
12.0
 41
88.0
  0
MTEXT
  5
212
100
AcDbEntity
  8
0
100
AcDbMText
 62
5
  6
CONTINUOUS
  7
STANDARD
 71
1
 72
1
 10
849.9529130089
 20
530.2617776099
 30
0.0
 11
0.0
 21
1.0
 31
0.0
 44
0.9
  1
IWK-2S-16
 40
12.0
 41
88.0
  0
LINE
  5
213
100
AcDbEntity
  8
0
100
AcDbLine
 62
7
  6
CONTINUOUS
 10
0.0
 20
0.0
 11
0.0
 21
841.0
  0
LINE
  5
214
100
AcDbEntity
  8
0
100
AcDbLine
 62
7
  6
CONTINUOUS
 10
0.0
 20
0.0
 11
1189.0
 21
0.0
  0
LINE
  5
215
100
AcDbEntity
  8
0
100
AcDbLine
 62
7
  6
CONTINUOUS
 10
0.0
 20
841.0
 11
1189.0
 21
841.0
  0
LINE
  5
216
100
AcDbEntity
  8
0
100
AcDbLine
 62
7
  6
CONTINUOUS
 10
1189.0
 20
0.0
 11
1189.0
 21
841.0
  0
LINE
  5
217
100
AcDbEntity
  8
RUNDUNGEN
100
AcDbLine
 62
7
  6
CONTINUOUS
 10
556.5996576507
 20
41.1064257634
 11
563.5241097401
 21
41.8342150049
  0
LINE
  5
218
100
AcDbEntity
  8
AUSFORMSCHRAEGEN
100
AcDbLine
 62
7
  6
CONTINUOUS
 10
556.4743782356
 20
41.0932583663
 11
563.5241097401
 21
41.8342150049
  0
LINE
  5
219
100
AcDbEntity
  8
BEZUGSACHSEN
100
AcDbLine
 62
7
  6
CONTINUOUS
 10
556.4743782356
 20
41.0932583663
 11
556.5996576507
 21
41.1064257634
  0
LINE
  5
21A
100
AcDbEntity
  8
BEZUGSACHSEN
100
AcDbLine
 62
7
  6
CONTINUOUS
 10
256.4743782356
 20
41.0932583663
 11
249.424646731
 21
41.8342150049
  0
LINE
  5
21B
100
AcDbEntity
  8
RUNDUNGEN
100
AcDbLine
 62
7
  6
CONTINUOUS
 10
256.5996576507
 20
41.1064257634
 11
263.5241097401
 21
41.8342150049
  0
LINE
  5
21C
100
AcDbEntity
  8
AUSFORMSCHRAEGEN
100
AcDbLine
 62
7
  6
CONTINUOUS
 10
256.4743782356
 20
41.0932583663
 11
263.5241097401
 21
41.8342150049
  0
LINE
  5
21D
100
AcDbEntity
  8
BEZUGSACHSEN
100
AcDbLine
 62
7
  6
CONTINUOUS
 10
256.4743782356
 20
41.0932583663
 11
256.5996576507
 21
41.1064257634
  0
LINE
  5
21E
100
AcDbEntity
  8
BEZUGSACHSEN
100
AcDbLine
 62
7
  6
CONTINUOUS
 10
556.4743782356
 20
41.0932583663
 11
549.424646731
 21
41.8342150049
  0
LINE
  5
21F
100
AcDbEntity
  8
RUNDUNGEN
100
AcDbLine
 62
7
  6
CONTINUOUS
 10
111.9644038714
 20
215.5928053768
 11
108.4288699654
 21
219.1283392827
  0
LINE
  5
220
100
AcDbEntity
  8
BEZUGSACHSEN
100
AcDbLine
 62
7
  6
CONTINUOUS
 10
241.2720147577
 20
99.58184156
 11
242.1626525348
 21
98.6912037829
  0
LINE
  5
221
100
AcDbEntity
  8
0
100
AcDbLine
 62
7
  6
CONTINUOUS
 10
423.0993770435
 20
182.5823561573
 11
421.8493782356
 21
182.2632072592
  0
LINE
  5
222
100
AcDbEntity
  8
0
100
AcDbLine
 62
7
  6
CONTINUOUS
 10
408.0993788316
 20
182.5823561573
 11
406.8493782356
 21
182.2632072592
  0
LINE
  5
223
100
AcDbEntity
  8
0
100
AcDbLine
 62
7
  6
CONTINUOUS
 10
421.8493782356
 20
180.3483136469
 11
423.4118794277
 21
180.667462573
  0
LINE
  5
224
100
AcDbEntity
  8
0
100
AcDbLine
 62
7
  6
CONTINUOUS
 10
406.8493782356
 20
180.3483136469
 11
408.4118776395
 21
180.667462573
  0
LINE
  5
225
100
AcDbEntity
  8
BEZUGSACHSEN
100
AcDbLine
 62
7
  6
CONTINUOUS
 10
266.4653596791
 20
152.9329287638
 11
406.4743782356
 21
177.6202962778
  0
LINE
  5
226
100
AcDbEntity
  8
0
100
AcDbLine
 62
7
  6
CONTINUOUS
 10
296.4743782356
 20
166.3477412949
 11
297.4591859886
 21
166.5213894726
  0
LINE
  5
227
100
AcDbEntity
  8
0
100
AcDbLine
 62
7
  6
CONTINUOUS
 10
300.0853400749
 20
166.9844512935
 11
301.3984170006
 21
167.2159821833
  0
LINE
  5
228
100
AcDbEntity
  8
0
100
AcDbLine
 62
7
  6
CONTINUOUS
 10
304.0245708521
 20
167.6790439628
 11
305.3376480127
 21
167.9105748939
  0
LINE
  5
229
100
AcDbEntity
  8
0
100
AcDbLine
 62
7
  6
CONTINUOUS
 10
312.5595721609
 20
169.1839949739
 11
313.5443799139
 21
169.3576431516
  0
LINE
  5
22A
100
AcDbEntity
  8
0
100
AcDbLine
 62
7
  6
CONTINUOUS
 10
317.483610926
 20
170.0522358622
 11
318.3042828012
 21
170.1969424561
  0
LINE
  5
22B
100
AcDbEntity
  8
0
100
AcDbLine
 62
7
  6
CONTINUOUS
 10
329.957841838
 20
172.2517793356
 11
330.942649591
 21
172.4254275133
  0
LINE
  5
22C
100
AcDbEntity
  8
0
100
AcDbLine
 62
7
  6
CONTINUOUS
 10
334.8818806031
 20
173.1200202239
 11
336.3590922326
 21
173.3804924904
  0
LINE
  5
22D
100
AcDbEntity
  8
0
100
AcDbLine
 62
7
  6
CONTINUOUS
 10
339.9700552459
 20
174.017202696
 11
345.8789017639
 21
175.059091762
  0
LINE
  5
22E
100
AcDbEntity
  8
0
100
AcDbLine
 62
7
  6
CONTINUOUS
 10
318.3206329928
 20
171.0640183153
 11
317.171689362
 21
170.8614285538
  0
LINE
  5
22F
100
AcDbEntity
  8
0
100
AcDbLine
 62
7
  6
CONTINUOUS
 10
345.7015589446
 20
176.064852869
 11
340.7775201796
 21
175.1966119807
  0
LINE
  5
230
100
AcDbEntity
  8
0
100
AcDbLine
 62
7
  6
CONTINUOUS
 10
336.1817494133
 20
174.3862535974
 11
334.7045377837
 21
174.1257813309
  0
LINE
  5
231
100
AcDbEntity
  8
0
100
AcDbLine
 62
7
  6
CONTINUOUS
 10
338.3022900987
 20
175.7971935648
 11
337.3174823457
 21
175.6235453871
  0
LINE
  5
232
100
AcDbEntity
  8
0
100
AcDbLine
 62
7
  6
CONTINUOUS
 10
307.4613310297
 20
171.2232931281
 11
309.7592154736
 21
171.6284721542
  0
LINE
  5
233
100
AcDbEntity
  8
0
100
AcDbLine
 62
7
  6
CONTINUOUS
 10
309.6114297667
 20
172.4666065469
 11
307.3135453228
 21
172.0614275209
  0
LINE
  5
234
100
AcDbEntity
  8
0
100
AcDbLine
 62
7
  6
CONTINUOUS
 10
340.3046059879
 20
177.8786416384
 11
344.5721049987
 21
178.6311168541
  0
LINE
  5
235
100
AcDbEntity
  8
0
100
AcDbLine
 62
7
  6
CONTINUOUS
 10
316.5805466379
 20
174.2139655379
 11
317.7294902687
 21
174.4165552993
  0
LINE
  5
236
100
AcDbEntity
  8
0
100
AcDbLine
 62
7
  6
CONTINUOUS
 10
344.3947622001
 20
179.6368778437
 11
340.1272631893
 21
178.8844026279
  0
LINE
  5
237
100
AcDbEntity
  8
0
100
AcDbLine
 62
7
  6
CONTINUOUS
 10
317.4175687254
 20
175.2257478736
 11
316.5968968501
 21
175.0810412796
  0
LINE
  5
238
100
AcDbEntity
  8
0
100
AcDbLine
 62
7
  6
CONTINUOUS
 10
336.637668243
 20
179.4789627486
 11
337.622475996
 21
179.6526109262
  0
LINE
  5
239
100
AcDbEntity
  8
0
100
AcDbLine
 62
7
  6
CONTINUOUS
 10
318.5533034741
 20
176.4630403467
 11
319.3739772278
 21
176.6077472718
  0
LINE
  5
23A
100
AcDbEntity
  8
0
100
AcDbLine
 62
7
  6
CONTINUOUS
 10
333.6700379803
 20
179.9927212585
 11
335.1472496098
 21
180.253193525
  0
LINE
  5
23B
100
AcDbEntity
  8
0
100
AcDbLine
 62
7
  6
CONTINUOUS
 10
339.7430203761
 20
181.0635519082
 11
344.6670591412
 21
181.9317927966
  0
LINE
  5
23C
100
AcDbEntity
  8
0
100
AcDbLine
 62
7
  6
CONTINUOUS
 10
316.0780752924
 20
177.0636221446
 11
317.0628830454
 21
177.2372703223
  0
LINE
  5
23D
100
AcDbEntity
  8
BEZUGSACHSEN
100
AcDbLine
 62
7
  6
CONTINUOUS
 10
556.4743782356
 20
202.4833689276
 11
549.424646731
 21
201.742412289
  0
LINE
  5
23E
100
AcDbEntity
  8
0
100
AcDbLine
 62
7
  6
CONTINUOUS
 10
386.2243782356
 20
180.3483136469
 11
388.0993782356
 21
180.3483136469
  0
LINE
  5
23F
100
AcDbEntity
  8
0
100
AcDbLine
 62
7
  6
CONTINUOUS
 10
395.9118779376
 20
180.3483136469
 11
398.0993785336
 21
180.3483136469
  0
LINE
  5
240
100
AcDbEntity
  8
0
100
AcDbLine
 62
7
  6
CONTINUOUS
 10
405.5993776395
 20
180.3483136469
 11
406.8493782356
 21
180.3483136469
  0
LINE
  5
241
100
AcDbEntity
  8
0
100
AcDbLine
 62
7
  6
CONTINUOUS
 10
414.3493782356
 20
180.3483136469
 11
421.8493782356
 21
180.3483136469
  0
LINE
  5
242
100
AcDbEntity
  8
0
100
AcDbLine
 62
7
  6
CONTINUOUS
 10
421.8493782356
 20
182.2632072592
 11
416.2243782356
 21
182.2632072592
  0
LINE
  5
243
100
AcDbEntity
  8
0
100
AcDbLine
 62
7
  6
CONTINUOUS
 10
406.8493782356
 20
182.2632072592
 11
405.5993776395
 21
182.2632072592
  0
LINE
  5
244
100
AcDbEntity
  8
0
100
AcDbLine
 62
7
  6
CONTINUOUS
 10
388.0993782356
 20
187.0504414016
 11
393.4118780866
 21
187.0504414016
  0
LINE
  5
245
100
AcDbEntity
  8
0
100
AcDbLine
 62
7
  6
CONTINUOUS
 10
316.6333800366
 20
170.0751557834
 11
317.483610926
 21
170.0522358622
  0
LINE
  5
246
100
AcDbEntity
  8
0
100
AcDbLine
 62
7
  6
CONTINUOUS
 10
334.0316515921
 20
173.1429404763
 11
334.8818806031
 21
173.1200202239
  0
LINE
  5
247
100
AcDbEntity
  8
0
100
AcDbLine
 62
7
  6
CONTINUOUS
 10
318.2677996121
 20
175.2028279671
 11
317.4175687254
 21
175.2257478736
  0
LINE
  5
248
100
AcDbEntity
  8
0
100
AcDbLine
 62
7
  6
CONTINUOUS
 10
317.6011942672
 20
178.0235433212
 11
316.7509633805
 21
178.0464632277
  0
LINE
  5
249
100
AcDbEntity
  8
0
100
AcDbLine
 62
7
  6
CONTINUOUS
 10
335.8201358196
 20
181.2360342769
 11
334.9699068112
 21
181.2589545145
  0
LINE
  5
24A
100
AcDbEntity
  8
0
100
AcDbLine
 62
7
  6
CONTINUOUS
 10
334.7045377837
 20
174.1257813309
 11
334.0184408964
 21
174.1776424899
  0
LINE
  5
24B
100
AcDbEntity
  8
0
100
AcDbLine
 62
7
  6
CONTINUOUS
 10
335.1472496098
 20
180.253193525
 11
335.8333464972
 21
180.201332366
  0
LINE
  5
24C
100
AcDbEntity
  8
0
100
AcDbLine
 62
7
  6
CONTINUOUS
 10
317.171689362
 20
170.8614285538
 11
316.6497283524
 21
170.9422312966
  0
LINE
  5
24D
100
AcDbEntity
  8
0
100
AcDbLine
 62
7
  6
CONTINUOUS
 10
317.7294902687
 20
174.4165552993
 11
318.2514512783
 21
174.3357525566
  0
LINE
  5
24E
100
AcDbEntity
  8
0
100
AcDbLine
 62
7
  6
CONTINUOUS
 10
317.0628830454
 20
177.2372703223
 11
317.584844055
 21
177.1564675795
  0
LINE
  5
24F
100
AcDbEntity
  8
0
100
AcDbLine
 62
7
  6
CONTINUOUS
 10
333.3159975639
 20
173.3624285109
 11
334.0316515921
 21
173.1429404763
  0
LINE
  5
250
100
AcDbEntity
  8
0
100
AcDbLine
 62
7
  6
CONTINUOUS
 10
336.5357898401
 20
181.0165462863
 11
335.8201358196
 21
181.2360342769
  0
LINE
  5
251
100
AcDbEntity
  8
0
100
AcDbLine
 62
7
  6
CONTINUOUS
 10
315.7240348759
 20
170.4333293971
 11
316.6333800366
 21
170.0751557834
  0
LINE
  5
252
100
AcDbEntity
  8
0
100
AcDbLine
 62
7
  6
CONTINUOUS
 10
319.1771447651
 20
174.8446543974
 11
318.2677996121
 21
175.2028279671
  0
LINE
  5
253
100
AcDbEntity
  8
0
100
AcDbLine
 62
7
  6
CONTINUOUS
 10
318.5105375418
 20
177.6653694204
 11
317.6011942672
 21
178.0235433212
  0
LINE
  5
254
100
AcDbEntity
  8
0
100
AcDbLine
 62
7
  6
CONTINUOUS
 10
316.6497283524
 20
170.9422312966
 11
316.0982102097
 21
171.190660871
  0
LINE
  5
255
100
AcDbEntity
  8
0
100
AcDbLine
 62
7
  6
CONTINUOUS
 10
318.2514512783
 20
174.3357525566
 11
318.802969421
 21
174.0873229822
  0
LINE
  5
256
100
AcDbEntity
  8
0
100
AcDbLine
 62
7
  6
CONTINUOUS
 10
317.584844055
 20
177.1564675795
 11
318.1363621977
 21
176.9080380052
  0
LINE
  5
257
100
AcDbEntity
  8
RUNDUNGEN
100
AcDbLine
 62
7
  6
CONTINUOUS
 10
270.7860950954
 20
144.8854323519
 11
271.6767895731
 21
143.9947378742
  0
LINE
  5
258
100
AcDbEntity
  8
BEZUGSACHSEN
100
AcDbLine
 62
7
  6
CONTINUOUS
 10
270.7860950954
 20
144.8854323519
 11
271.6767895731
 21
143.9947378742
  0
LINE
  5
259
100
AcDbEntity
  8
0
100
AcDbLine
 62
7
  6
CONTINUOUS
 10
344.4897163426
 20
182.9375537861
 11
338.5808698245
 21
181.8956647201
  0
LINE
  5
25A
100
AcDbEntity
  8
0
100
AcDbLine
 62
7
  6
CONTINUOUS
 10
334.9699068112
 20
181.2589545145
 11
333.4926951817
 21
180.998482248
  0
LINE
  5
25B
100
AcDbEntity
  8
0
100
AcDbLine
 62
7
  6
CONTINUOUS
 10
329.5534641697
 20
180.3038895374
 11
328.5686564167
 21
180.1302413597
  0
LINE
  5
25C
100
AcDbEntity
  8
0
100
AcDbLine
 62
7
  6
CONTINUOUS
 10
316.7509633805
 20
178.0464632277
 11
316.0944255046
 21
177.9306978863
  0
LINE
  5
25D
100
AcDbEntity
  8
0
100
AcDbLine
 62
7
  6
CONTINUOUS
 10
312.1551944926
 20
177.2361051757
 11
311.1703867396
 21
177.062456998
  0
LINE
  5
25E
100
AcDbEntity
  8
0
100
AcDbLine
 62
7
  6
CONTINUOUS
 10
305.2615392823
 20
176.0205677664
 11
304.2767315293
 21
175.8469195887
  0
LINE
  5
25F
100
AcDbEntity
  8
0
100
AcDbLine
 62
7
  6
CONTINUOUS
 10
301.9788470853
 20
175.4417405627
 11
300.6657699248
 21
175.2102096315
  0
LINE
  5
260
100
AcDbEntity
  8
0
100
AcDbLine
 62
7
  6
CONTINUOUS
 10
298.367885246
 20
174.8050305641
 11
297.383077493
 21
174.6313823865
  0
LINE
  5
261
100
AcDbEntity
  8
0
100
AcDbLine
 62
7
  6
CONTINUOUS
 10
296.0700005673
 20
174.3998514967
 11
295.0851928142
 21
174.226203319
  0
LINE
  5
262
100
AcDbEntity
  8
BEZUGSACHSEN
100
AcDbLine
 62
7
  6
CONTINUOUS
 10
256.4743782356
 20
202.4833689276
 11
249.424646731
 21
201.742412289
  0
LINE
  5
263
100
AcDbEntity
  8
0
100
AcDbLine
 62
7
  6
CONTINUOUS
 10
394.0368779376
 20
188.9653347904
 11
388.0993782356
 21
188.9653347904
  0
LINE
  5
264
100
AcDbEntity
  8
0
100
AcDbLine
 62
7
  6
CONTINUOUS
 10
416.2243782356
 20
193.4334202582
 11
421.8493782356
 21
193.4334202582
  0
LINE
  5
265
100
AcDbEntity
  8
0
100
AcDbLine
 62
7
  6
CONTINUOUS
 10
388.0993782356
 20
193.7525691563
 11
394.0368779376
 21
193.7525691563
  0
LINE
  5
266
100
AcDbEntity
  8
0
100
AcDbLine
 62
7
  6
CONTINUOUS
 10
421.8493782356
 20
195.3483136469
 11
414.3493782356
 21
195.3483136469
  0
LINE
  5
267
100
AcDbEntity
  8
0
100
AcDbLine
 62
7
  6
CONTINUOUS
 10
411.8493788316
 20
195.3483136469
 11
409.9743788316
 21
195.3483136469
  0
LINE
  5
268
100
AcDbEntity
  8
0
100
AcDbLine
 62
7
  6
CONTINUOUS
 10
402.4743788316
 20
195.3483136469
 11
400.5993779376
 21
195.3483136469
  0
LINE
  5
269
100
AcDbEntity
  8
0
100
AcDbLine
 62
7
  6
CONTINUOUS
 10
393.7243782356
 20
195.3483136469
 11
386.2243782356
 21
195.3483136469
  0
LINE
  5
26A
100
AcDbEntity
  8
AUSFORMSCHRAEGEN
100
AcDbLine
 62
7
  6
CONTINUOUS
 10
256.4743782356
 20
202.4833689276
 11
263.5241097401
 21
201.742412289
  0
LINE
  5
26B
100
AcDbEntity
  8
RUNDUNGEN
100
AcDbLine
 62
7
  6
CONTINUOUS
 10
256.5996576507
 20
202.4702015305
 11
263.5241097401
 21
201.742412289
  0
LINE
  5
26C
100
AcDbEntity
  8
BEZUGSACHSEN
100
AcDbLine
 62
7
  6
CONTINUOUS
 10
256.4743782356
 20
202.4833689276
 11
263.5241097401
 21
201.742412289
  0
LINE
  5
26D
100
AcDbEntity
  8
BEZUGSACHSEN
100
AcDbLine
 62
7
  6
CONTINUOUS
 10
546.4833967921
 20
152.9329287638
 11
406.4743782356
 21
177.6202962778
  0
LINE
  5
26E
100
AcDbEntity
  8
0
100
AcDbLine
 62
7
  6
CONTINUOUS
 10
404.0368782356
 20
180.667462573
 11
405.5993776395
 21
180.3483136469
  0
LINE
  5
26F
100
AcDbEntity
  8
0
100
AcDbLine
 62
7
  6
CONTINUOUS
 10
395.2868785336
 20
195.0291647488
 11
393.7243782356
 21
195.3483136469
  0
LINE
  5
270
100
AcDbEntity
  8
0
100
AcDbLine
 62
7
  6
CONTINUOUS
 10
423.4118794277
 20
195.0291647488
 11
421.8493782356
 21
195.3483136469
  0
LINE
  5
271
100
AcDbEntity
  8
0
100
AcDbLine
 62
7
  6
CONTINUOUS
 10
405.5993776395
 20
182.2632072592
 11
404.3493788316
 21
182.5823561573
  0
LINE
  5
272
100
AcDbEntity
  8
0
100
AcDbLine
 62
7
  6
CONTINUOUS
 10
421.8493782356
 20
193.4334202582
 11
423.0993770435
 21
193.1142713601
  0
LINE
  5
273
100
AcDbEntity
  8
0
100
AcDbLine
 62
7
  6
CONTINUOUS
 10
334.0184408964
 20
174.1776424899
 11
333.466922733
 21
174.4260721817
  0
LINE
  5
274
100
AcDbEntity
  8
0
100
AcDbLine
 62
7
  6
CONTINUOUS
 10
335.8333464972
 20
180.201332366
 11
336.3848646399
 21
179.9529027916
  0
LINE
  5
275
100
AcDbEntity
  8
0
100
AcDbLine
 62
7
  6
CONTINUOUS
 10
318.802969421
 20
174.0873229822
 11
319.1903516859
 21
173.8099518241
  0
LINE
  5
276
100
AcDbEntity
  8
0
100
AcDbLine
 62
7
  6
CONTINUOUS
 10
319.7582200409
 20
174.4285979915
 11
319.1771447651
 21
174.8446543974
  0
LINE
  5
277
100
AcDbEntity
  8
0
100
AcDbLine
 62
7
  6
CONTINUOUS
 10
332.5412292669
 20
173.9171702234
 11
333.3159975639
 21
173.3624285109
  0
LINE
  5
278
100
AcDbEntity
  8
0
100
AcDbLine
 62
7
  6
CONTINUOUS
 10
337.3105581267
 20
180.4618046325
 11
336.5357898401
 21
181.0165462863
  0
LINE
  5
279
100
AcDbEntity
  8
0
100
AcDbLine
 62
7
  6
CONTINUOUS
 10
315.1134024567
 20
171.0170126933
 11
315.7240348759
 21
170.4333293971
  0
LINE
  5
27A
100
AcDbEntity
  8
RUNDUNGEN
100
AcDbLine
 62
7
  6
CONTINUOUS
 10
272.1206117591
 20
143.475578326
 11
272.1133824964
 21
143.4854972499
  0
LINE
  5
27B
100
AcDbEntity
  8
RUNDUNGEN
100
AcDbLine
 62
7
  6
CONTINUOUS
 10
246.6710905086
 20
144.1762155976
 11
246.7180683468
 21
144.0769782524
  0
LINE
  5
27C
100
AcDbEntity
  8
BEZUGSACHSEN
100
AcDbLine
 62
7
  6
CONTINUOUS
 10
246.6710904939
 20
144.1762156308
 11
246.7180683468
 21
144.0769782524
  0
LINE
  5
27D
100
AcDbEntity
  8
0
100
AcDbLine
 62
7
  6
CONTINUOUS
 10
381.8532788182
 20
245.2883136469
 11
368.6102221061
 21
245.2883136469
  0
LINE
  5
27E
100
AcDbEntity
  8
BEZUGSACHSEN
100
AcDbLine
 62
7
  6
CONTINUOUS
 10
431.0952727865
 20
245.2883136469
 11
444.338534365
 21
245.2883136469
  0
LINE
  5
27F
100
AcDbEntity
  8
AUSFORMSCHRAEGEN
100
AcDbLine
 62
7
  6
CONTINUOUS
 10
556.4743782356
 20
202.4833689276
 11
563.5241097401
 21
201.742412289
  0
LINE
  5
280
100
AcDbEntity
  8
RUNDUNGEN
100
AcDbLine
 62
7
  6
CONTINUOUS
 10
556.5996576507
 20
202.4702015305
 11
563.5241097401
 21
201.742412289
  0
LINE
  5
281
100
AcDbEntity
  8
BEZUGSACHSEN
100
AcDbLine
 62
7
  6
CONTINUOUS
 10
556.4743782356
 20
202.4833689276
 11
563.5241097401
 21
201.742412289
  0
LINE
  5
282
100
AcDbEntity
  8
0
100
AcDbLine
 62
7
  6
CONTINUOUS
 10
394.0368779376
 20
193.7525691563
 11
394.9743779376
 21
193.4334202582
  0
LINE
  5
283
100
AcDbEntity
  8
0
100
AcDbLine
 62
7
  6
CONTINUOUS
 10
402.7868776395
 20
181.3057604531
 11
404.0368782356
 21
180.667462573
  0
LINE
  5
284
100
AcDbEntity
  8
0
100
AcDbLine
 62
7
  6
CONTINUOUS
 10
319.1211699507
 20
177.0816861828
 11
318.5105375418
 21
177.6653694204
  0
LINE
  5
285
100
AcDbEntity
  8
RUNDUNGEN
100
AcDbLine
 62
7
  6
CONTINUOUS
 10
204.0649418691
 20
314.7644111864
 11
207.600475775
 21
311.2288772804
  0
LINE
  5
286
100
AcDbEntity
  8
0
100
AcDbLine
 62
7
  6
CONTINUOUS
 10
316.0982102097
 20
171.190660871
 11
315.6812707909
 21
171.6356589781
  0
LINE
  5
287
100
AcDbEntity
  8
0
100
AcDbLine
 62
7
  6
CONTINUOUS
 10
318.1363621977
 20
176.9080380052
 11
318.5533034741
 21
176.4630403467
  0
LINE
  5
288
100
AcDbEntity
  8
0
100
AcDbLine
 62
7
  6
CONTINUOUS
 10
333.466922733
 20
174.4260721817
 11
333.0499833349
 21
174.8710701714
  0
LINE
  5
289
100
AcDbEntity
  8
RUNDUNGEN
100
AcDbLine
 62
7
  6
CONTINUOUS
 10
246.6041507204
 20
144.3460984206
 11
246.6710905086
 21
144.1762155976
  0
LINE
  5
28A
100
AcDbEntity
  8
0
100
AcDbLine
 62
7
  6
CONTINUOUS
 10
424.6618782356
 20
194.3908669526
 11
423.4118794277
 21
195.0291647488
  0
LINE
  5
28B
100
AcDbEntity
  8
0
100
AcDbLine
 62
7
  6
CONTINUOUS
 10
404.3493788316
 20
182.5823561573
 11
403.4118788316
 21
183.2206541771
  0
LINE
  5
28C
100
AcDbEntity
  8
0
100
AcDbLine
 62
7
  6
CONTINUOUS
 10
423.0993770435
 20
193.1142713601
 11
424.0368770435
 21
192.4759735638
  0
LINE
  5
28D
100
AcDbEntity
  8
0
100
AcDbLine
 62
7
  6
CONTINUOUS
 10
396.5368782356
 20
194.0717180544
 11
395.2868785336
 21
195.0291647488
  0
LINE
  5
28E
100
AcDbEntity
  8
KONSTRUKTIONSELEMENTE
100
AcDbLine
 62
7
  6
CONTINUOUS
 10
213.5756483279
 20
334.2453232599
 11
217.1111822338
 21
330.709789354
  0
LINE
  5
28F
100
AcDbEntity
  8
KONSTRUKTIONSELEMENTE
100
AcDbLine
 62
7
  6
CONTINUOUS
 10
213.9292017185
 20
334.5988766505
 11
217.4647356244
 21
331.0633427446
  0
LINE
  5
290
100
AcDbEntity
  8
RUNDUNGEN
100
AcDbLine
 62
7
  6
CONTINUOUS
 10
223.9118445642
 20
327.5402460697
 11
220.3763106583
 21
331.0757799756
  0
LINE
  5
291
100
AcDbEntity
  8
0
100
AcDbLine
 62
7
  6
CONTINUOUS
 10
332.094732715
 20
174.5297951621
 11
332.5412292669
 21
173.9171702234
  0
LINE
  5
292
100
AcDbEntity
  8
0
100
AcDbLine
 62
7
  6
CONTINUOUS
 10
314.6373487717
 20
171.7972644636
 11
315.1134024567
 21
171.0170126933
  0
LINE
  5
293
100
AcDbEntity
  8
0
100
AcDbLine
 62
7
  6
CONTINUOUS
 10
320.2342737051
 20
173.6483463386
 11
319.7582200409
 21
174.4285979915
  0
LINE
  5
294
100
AcDbEntity
  8
RUNDUNGEN
100
AcDbLine
 62
7
  6
CONTINUOUS
 10
285.0231592513
 20
217.5085643584
 11
300.2783883317
 21
191.08573251
  0
LINE
  5
295
100
AcDbEntity
  8
0
100
AcDbLine
 62
7
  6
CONTINUOUS
 10
315.6812707909
 20
171.6356589781
 11
315.4284635139
 21
172.1095978891
  0
LINE
  5
296
100
AcDbEntity
  8
0
100
AcDbLine
 62
7
  6
CONTINUOUS
 10
319.1903516859
 20
173.8099518241
 11
319.4431590044
 21
173.3360126783
  0
LWPOLYLINE
  5
297
100
AcDbEntity
  8
BEZUGSACHSEN
100
AcDbPolyline
 62
7
  6
CONTINUOUS
 90
4
 70
0
 10
246.5137962834
 20
144.699607373
 10
246.5515975049
 20
144.5209676635
 10
246.6041507166
 20
144.3460984315
 10
246.6710904939
 20
144.1762156308
  0
LINE
  5
298
100
AcDbEntity
  8
BEZUGSACHSEN
100
AcDbLine
 62
7
  6
CONTINUOUS
 10
243.4027508274
 20
96.2039595418
 11
246.3768451919
 21
75.0421785486
  0
LINE
  5
299
100
AcDbEntity
  8
0
100
AcDbLine
 62
7
  6
CONTINUOUS
 10
401.5368788316
 20
182.5823561573
 11
402.7868776395
 21
181.3057604531
  0
LINE
  5
29A
100
AcDbEntity
  8
0
100
AcDbLine
 62
7
  6
CONTINUOUS
 10
394.9743779376
 20
193.4334202582
 11
395.5993782356
 21
192.7951224619
  0
LINE
  5
29B
100
AcDbEntity
  8
0
100
AcDbLine
 62
7
  6
CONTINUOUS
 10
319.3739772278
 20
176.6077472718
 11
319.1211699507
 21
177.0816861828
  0
LINE
  5
29C
100
AcDbEntity
  8
0
100
AcDbLine
 62
7
  6
CONTINUOUS
 10
336.3848646399
 20
179.9529027916
 11
336.637668243
 21
179.4789627486
  0
LINE
  5
29D
100
AcDbEntity
  8
0
100
AcDbLine
 62
7
  6
CONTINUOUS
 10
333.0499833349
 20
174.8710701714
 11
332.7676189248
 21
175.512635914
  0
LINE
  5
29E
100
AcDbEntity
  8
0
100
AcDbLine
 62
7
  6
CONTINUOUS
 10
304.3559806921
 20
169.6387047693
 11
301.9788470853
 21
175.4417405627
  0
LINE
  5
29F
100
AcDbEntity
  8
0
100
AcDbLine
 62
7
  6
CONTINUOUS
 10
301.5883229378
 20
173.8173336542
 11
304.0245708521
 21
167.6790439628
  0
LINE
  5
2A0
100
AcDbEntity
  8
0
100
AcDbLine
 62
7
  6
CONTINUOUS
 10
297.383077493
 20
174.6313823865
 11
300.0853400749
 21
166.9844512935
  0
LINE
  5
2A1
100
AcDbEntity
  8
0
100
AcDbLine
 62
7
  6
CONTINUOUS
 10
300.4167501497
 20
168.9441121414
 11
298.367885246
 21
174.8050305641
  0
LINE
  5
2A2
100
AcDbEntity
  8
RUNDUNGEN
100
AcDbLine
 62
7
  6
CONTINUOUS
 10
268.7089628728
 20
153.3285365408
 11
269.5460064836
 21
147.3726617765
  0
LINE
  5
2A3
100
AcDbEntity
  8
BEZUGSACHSEN
100
AcDbLine
 62
7
  6
CONTINUOUS
 10
268.7089628728
 20
153.3285365408
 11
269.5460064836
 21
147.3726617765
  0
LWPOLYLINE
  5
2A4
100
AcDbEntity
  8
RUNDUNGEN
100
AcDbPolyline
 62
7
  6
CONTINUOUS
 90
5
 70
0
 10
246.4833967921
 20
145.0632119621
 10
246.4910098974
 20
144.8807754054
 10
246.5137962802
 20
144.6996073918
 10
246.5515975029
 20
144.5209676713
 10
246.6041507204
 20
144.3460984206
  0
LWPOLYLINE
  5
2A5
100
AcDbEntity
  8
BEZUGSACHSEN
100
AcDbPolyline
 62
7
  6
CONTINUOUS
 90
3
 70
0
 10
246.4833967921
 20
145.0632119621
 10
246.4910098987
 20
144.8807753897
 10
246.5137962834
 20
144.699607373
  0
LINE
  5
2A6
100
AcDbEntity
  8
BEZUGSACHSEN
100
AcDbLine
 62
7
  6
CONTINUOUS
 10
239.9892582356
 20
140.8980037503
 11
239.9892582356
 21
131.7347492595
  0
LINE
  5
2A7
100
AcDbEntity
  8
RUNDUNGEN
100
AcDbLine
 62
7
  6
CONTINUOUS
 10
239.9892582356
 20
137.6516730382
 11
239.9892582356
 21
130.6231843951
  0
LINE
  5
2A8
100
AcDbEntity
  8
BEZUGSACHSEN
100
AcDbLine
 62
7
  6
CONTINUOUS
 10
239.9892582356
 20
130.6231843951
 11
239.9892582356
 21
102.6786227832
  0
LINE
  5
2A9
100
AcDbEntity
  8
BEZUGSACHSEN
100
AcDbLine
 62
7
  6
CONTINUOUS
 10
246.4833967921
 20
73.518420336
 11
246.4833967921
 21
45.1008039964
  0
LINE
  5
2AA
100
AcDbEntity
  8
RUNDUNGEN
100
AcDbLine
 62
7
  6
CONTINUOUS
 10
246.4833967921
 20
145.063405559
 11
246.4833967921
 21
198.4758232975
  0
LINE
  5
2AB
100
AcDbEntity
  8
BEZUGSACHSEN
100
AcDbLine
 62
7
  6
CONTINUOUS
 10
246.4833967921
 20
145.0634055566
 11
246.4833967921
 21
198.4758232975
  0
LINE
  5
2AC
100
AcDbEntity
  8
KONSTRUKTIONSELEMENTE
100
AcDbLine
 62
7
  6
CONTINUOUS
 10
423.5243782356
 20
333.4883136469
 11
422.0307274217
 21
333.4883136469
  0
LINE
  5
2AD
100
AcDbEntity
  8
KONSTRUKTIONSELEMENTE
100
AcDbLine
 62
7
  6
CONTINUOUS
 10
423.5243782356
 20
334.8633136469
 11
422.0307274217
 21
334.8633136469
  0
LINE
  5
2AE
100
AcDbEntity
  8
KONSTRUKTIONSELEMENTE
100
AcDbLine
 62
7
  6
CONTINUOUS
 10
423.5243782356
 20
338.071646871
 11
422.9743782356
 21
338.071646871
  0
LINE
  5
2AF
100
AcDbEntity
  8
BEZUGSACHSEN
100
AcDbLine
 62
7
  6
CONTINUOUS
 10
541.2720147577
 20
99.58184156
 11
542.1626525348
 21
98.6912037829
  0
LINE
  5
2B0
100
AcDbEntity
  8
0
100
AcDbLine
 62
7
  6
CONTINUOUS
 10
425.9118770435
 20
193.1142713601
 11
424.6618782356
 21
194.3908669526
  0
LINE
  5
2B1
100
AcDbEntity
  8
0
100
AcDbLine
 62
7
  6
CONTINUOUS
 10
397.4743782356
 20
192.7951224619
 11
396.5368782356
 21
194.0717180544
  0
LINE
  5
2B2
100
AcDbEntity
  8
0
100
AcDbLine
 62
7
  6
CONTINUOUS
 10
403.4118788316
 20
183.2206541771
 11
402.7868776395
 21
184.1781008715
  0
LINE
  5
2B3
100
AcDbEntity
  8
0
100
AcDbLine
 62
7
  6
CONTINUOUS
 10
331.7828111718
 20
175.3389877363
 11
332.094732715
 21
174.5297951621
  0
LINE
  5
2B4
100
AcDbEntity
  8
0
100
AcDbLine
 62
7
  6
CONTINUOUS
 10
337.622475996
 20
179.6526109262
 11
337.3105581267
 21
180.4618046325
  0
LINE
  5
2B5
100
AcDbEntity
  8
0
100
AcDbLine
 62
7
  6
CONTINUOUS
 10
314.2663129209
 20
172.9417109358
 11
314.6373487717
 21
171.7972644636
  0
LINE
  5
2B6
100
AcDbEntity
  8
0
100
AcDbLine
 62
7
  6
CONTINUOUS
 10
295.0851928142
 20
174.226203319
 11
296.4743782356
 21
166.3477412949
  0
LINE
  5
2B7
100
AcDbEntity
  8
0
100
AcDbLine
 62
7
  6
CONTINUOUS
 10
297.4591859886
 20
166.5213894726
 11
296.0700005673
 21
174.3998514967
  0
LINE
  5
2B8
100
AcDbEntity
  8
0
100
AcDbLine
 62
7
  6
CONTINUOUS
 10
307.3135453228
 20
172.0614275209
 11
307.4613310297
 21
171.2232931281
  0
LINE
  5
2B9
100
AcDbEntity
  8
0
100
AcDbLine
 62
7
  6
CONTINUOUS
 10
265.4743782356
 20
673.6383136469
 11
265.4743782356
 21
513.6383136469
  0
LINE
  5
2BA
100
AcDbEntity
  8
RUNDUNGEN
100
AcDbLine
 62
7
  6
CONTINUOUS
 10
266.4653596791
 20
198.4758232975
 11
266.4653596791
 21
145.0632161014
  0
LINE
  5
2BB
100
AcDbEntity
  8
BEZUGSACHSEN
100
AcDbLine
 62
7
  6
CONTINUOUS
 10
266.4653596791
 20
198.4758232975
 11
266.4653596791
 21
145.0632161007
  0
LINE
  5
2BC
100
AcDbEntity
  8
RUNDUNGEN
100
AcDbLine
 62
7
  6
CONTINUOUS
 10
266.4653596791
 20
73.518420336
 11
266.4653596791
 21
45.1008039964
  0
LINE
  5
2BD
100
AcDbEntity
  8
BEZUGSACHSEN
100
AcDbLine
 62
7
  6
CONTINUOUS
 10
272.9594982356
 20
140.8980037503
 11
272.9594982356
 21
131.7347492595
  0
LINE
  5
2BE
100
AcDbEntity
  8
RUNDUNGEN
100
AcDbLine
 62
7
  6
CONTINUOUS
 10
272.9594982356
 20
140.8980037503
 11
272.9594982356
 21
102.6786227832
  0
LINE
  5
2BF
100
AcDbEntity
  8
BEZUGSACHSEN
100
AcDbLine
 62
7
  6
CONTINUOUS
 10
244.290590282
 20
153.6899737259
 11
243.4027499876
 21
147.3726617765
  0
LINE
  5
2C0
100
AcDbEntity
  8
KONSTRUKTIONSELEMENTE
100
AcDbLine
 62
7
  6
CONTINUOUS
 10
423.5243782356
 20
341.2799800951
 11
422.0307274217
 21
341.2799800951
  0
LINE
  5
2C1
100
AcDbEntity
  8
KONSTRUKTIONSELEMENTE
100
AcDbLine
 62
7
  6
CONTINUOUS
 10
423.5243782356
 20
342.6549800951
 11
422.0307274217
 21
342.6549800951
  0
LINE
  5
2C2
100
AcDbEntity
  8
KONSTRUKTIONSELEMENTE
100
AcDbLine
 62
7
  6
CONTINUOUS
 10
423.5243782356
 20
343.5716471988
 11
422.9743782356
 21
343.5716471988
  0
LINE
  5
2C3
100
AcDbEntity
  8
KONSTRUKTIONSELEMENTE
100
AcDbLine
 62
7
  6
CONTINUOUS
 10
423.5243782356
 20
344.4883136469
 11
422.8807445432
 21
344.4883136469
  0
LINE
  5
2C4
100
AcDbEntity
  8
KONSTRUKTIONSELEMENTE
100
AcDbLine
 62
7
  6
CONTINUOUS
 10
423.5243782356
 20
344.7174807507
 11
422.7129514863
 21
344.7174807507
  0
LINE
  5
2C5
100
AcDbEntity
  8
KONSTRUKTIONSELEMENTE
100
AcDbLine
 62
7
  6
CONTINUOUS
 10
423.5243782356
 20
345.1758136469
 11
422.5161130286
 21
345.1758136469
  0
LINE
  5
2C6
100
AcDbEntity
  8
KONSTRUKTIONSELEMENTE
100
AcDbLine
 62
7
  6
CONTINUOUS
 10
423.5243782356
 20
346.0924807507
 11
422.2614115288
 21
346.0924807507
  0
LINE
  5
2C7
100
AcDbEntity
  8
KONSTRUKTIONSELEMENTE
100
AcDbLine
 62
7
  6
CONTINUOUS
 10
423.5243782356
 20
347.0091465432
 11
422.1115036707
 21
347.0091465432
  0
LINE
  5
2C8
100
AcDbEntity
  8
KONSTRUKTIONSELEMENTE
100
AcDbLine
 62
7
  6
CONTINUOUS
 10
423.5243782356
 20
348.1549807507
 11
422.0307274217
 21
348.1549807507
  0
LINE
  5
2C9
100
AcDbEntity
  8
KONSTRUKTIONSELEMENTE
100
AcDbLine
 62
7
  6
CONTINUOUS
 10
423.5243782356
 20
350.2174807507
 11
422.0307274217
 21
350.2174807507
  0
LINE
  5
2CA
100
AcDbEntity
  8
KONSTRUKTIONSELEMENTE
100
AcDbLine
 62
7
  6
CONTINUOUS
 10
423.5243782356
 20
351.3633136469
 11
422.1115036707
 21
351.3633136469
  0
LINE
  5
2CB
100
AcDbEntity
  8
KONSTRUKTIONSELEMENTE
100
AcDbLine
 62
7
  6
CONTINUOUS
 10
423.5243782356
 20
352.2799807507
 11
422.2614115288
 21
352.2799807507
  0
LINE
  5
2CC
100
AcDbEntity
  8
KONSTRUKTIONSELEMENTE
100
AcDbLine
 62
7
  6
CONTINUOUS
 10
423.5243782356
 20
353.1966465432
 11
422.5161130286
 21
353.1966465432
  0
LINE
  5
2CD
100
AcDbEntity
  8
KONSTRUKTIONSELEMENTE
100
AcDbLine
 62
7
  6
CONTINUOUS
 10
423.5243782356
 20
353.4258136469
 11
422.7533796405
 21
353.4258136469
  0
LINE
  5
2CE
100
AcDbEntity
  8
KONSTRUKTIONSELEMENTE
100
AcDbLine
 62
7
  6
CONTINUOUS
 10
423.5243782356
 20
353.8841465432
 11
422.9743782356
 21
353.8841465432
  0
LINE
  5
2CF
100
AcDbEntity
  8
KONSTRUKTIONSELEMENTE
100
AcDbLine
 62
7
  6
CONTINUOUS
 10
423.5243782356
 20
354.3424807507
 11
422.9743782356
 21
354.3424807507
  0
LINE
  5
2D0
100
AcDbEntity
  8
KONSTRUKTIONSELEMENTE
100
AcDbLine
 62
7
  6
CONTINUOUS
 10
423.5243782356
 20
354.5716465432
 11
422.9743782356
 21
354.5716465432
  0
LINE
  5
2D1
100
AcDbEntity
  8
KONSTRUKTIONSELEMENTE
100
AcDbLine
 62
7
  6
CONTINUOUS
 10
423.5243782356
 20
354.8008136469
 11
422.9743782356
 21
354.8008136469
  0
LINE
  5
2D2
100
AcDbEntity
  8
KONSTRUKTIONSELEMENTE
100
AcDbLine
 62
7
  6
CONTINUOUS
 10
423.5243782356
 20
355.2591465432
 11
422.9706430921
 21
355.2591465432
  0
LINE
  5
2D3
100
AcDbEntity
  8
KONSTRUKTIONSELEMENTE
100
AcDbLine
 62
7
  6
CONTINUOUS
 10
423.5243782356
 20
358.4674794394
 11
422.9706430921
 21
358.4674794394
  0
LINE
  5
2D4
100
AcDbEntity
  8
KONSTRUKTIONSELEMENTE
100
AcDbLine
 62
7
  6
CONTINUOUS
 10
423.5243782356
 20
359.6133136469
 11
422.9743782356
 21
359.6133136469
  0
LINE
  5
2D5
100
AcDbEntity
  8
KONSTRUKTIONSELEMENTE
100
AcDbLine
 62
7
  6
CONTINUOUS
 10
423.5243782356
 20
360.3008136469
 11
422.9743782356
 21
360.3008136469
  0
LINE
  5
2D6
100
AcDbEntity
  8
KONSTRUKTIONSELEMENTE
100
AcDbLine
 62
7
  6
CONTINUOUS
 10
423.5243782356
 20
360.9883136469
 11
422.7129514863
 21
360.9883136469
  0
LINE
  5
2D7
100
AcDbEntity
  8
KONSTRUKTIONSELEMENTE
100
AcDbLine
 62
7
  6
CONTINUOUS
 10
423.5243782356
 20
361.2174794394
 11
422.5161130286
 21
361.2174794394
  0
LINE
  5
2D8
100
AcDbEntity
  8
KONSTRUKTIONSELEMENTE
100
AcDbLine
 62
7
  6
CONTINUOUS
 10
423.5243782356
 20
362.1341478545
 11
422.2614115288
 21
362.1341478545
  0
LINE
  5
2D9
100
AcDbEntity
  8
KONSTRUKTIONSELEMENTE
100
AcDbLine
 62
7
  6
CONTINUOUS
 10
423.5243782356
 20
363.0508136469
 11
422.1115036707
 21
363.0508136469
  0
LINE
  5
2DA
100
AcDbEntity
  8
KONSTRUKTIONSELEMENTE
100
AcDbLine
 62
7
  6
CONTINUOUS
 10
423.5243782356
 20
363.9674794394
 11
422.0307274217
 21
363.9674794394
  0
LINE
  5
2DB
100
AcDbEntity
  8
KONSTRUKTIONSELEMENTE
100
AcDbLine
 62
7
  6
CONTINUOUS
 10
423.5243782356
 20
365.1133136469
 11
422.0307274217
 21
365.1133136469
  0
LINE
  5
2DC
100
AcDbEntity
  8
KONSTRUKTIONSELEMENTE
100
AcDbLine
 62
7
  6
CONTINUOUS
 10
423.5243782356
 20
366.2591478545
 11
422.1115036707
 21
366.2591478545
  0
LINE
  5
2DD
100
AcDbEntity
  8
KONSTRUKTIONSELEMENTE
100
AcDbLine
 62
7
  6
CONTINUOUS
 10
423.5243782356
 20
367.1758136469
 11
422.3306532286
 21
367.1758136469
  0
LINE
  5
2DE
100
AcDbEntity
  8
KONSTRUKTIONSELEMENTE
100
AcDbLine
 62
7
  6
CONTINUOUS
 10
423.5243782356
 20
367.8633136469
 11
422.5706537176
 21
367.8633136469
  0
LINE
  5
2DF
100
AcDbEntity
  8
KONSTRUKTIONSELEMENTE
100
AcDbLine
 62
7
  6
CONTINUOUS
 10
423.5243782356
 20
368.0924794394
 11
422.7129514863
 21
368.0924794394
  0
LINE
  5
2E0
100
AcDbEntity
  8
KONSTRUKTIONSELEMENTE
100
AcDbLine
 62
7
  6
CONTINUOUS
 10
423.5243782356
 20
368.3216478545
 11
422.9743782356
 21
368.3216478545
  0
LINE
  5
2E1
100
AcDbEntity
  8
KONSTRUKTIONSELEMENTE
100
AcDbLine
 62
7
  6
CONTINUOUS
 10
423.5243782356
 20
368.7799794394
 11
422.9743782356
 21
368.7799794394
  0
LINE
  5
2E2
100
AcDbEntity
  8
KONSTRUKTIONSELEMENTE
100
AcDbLine
 62
7
  6
CONTINUOUS
 10
423.5243782356
 20
369.9258136469
 11
422.9743782356
 21
369.9258136469
  0
LINE
  5
2E3
100
AcDbEntity
  8
KONSTRUKTIONSELEMENTE
100
AcDbLine
 62
7
  6
CONTINUOUS
 10
423.5243782356
 20
370.6133136469
 11
422.8807445432
 21
370.6133136469
  0
LINE
  5
2E4
100
AcDbEntity
  8
KONSTRUKTIONSELEMENTE
100
AcDbLine
 62
7
  6
CONTINUOUS
 10
423.5243782356
 20
370.8424794394
 11
422.7129514863
 21
370.8424794394
  0
LINE
  5
2E5
100
AcDbEntity
  8
BEZUGSACHSEN
100
AcDbLine
 62
7
  6
CONTINUOUS
 10
484.7108243143
 20
252.8509299739
 11
524.6313685858
 21
229.8027929925
  0
LINE
  5
2E6
100
AcDbEntity
  8
BEZUGSACHSEN
100
AcDbLine
 62
7
  6
CONTINUOUS
 10
460.5305488612
 20
293.3695308985
 11
576.4743782356
 21
226.4293297983
  0
LINE
  5
2E7
100
AcDbEntity
  8
KONSTRUKTIONSELEMENTE
100
AcDbLine
 62
7
  6
CONTINUOUS
 10
274.7403849005
 20
395.4100598325
 11
278.2759188065
 21
391.8745259266
  0
LINE
  5
2E8
100
AcDbEntity
  8
KONSTRUKTIONSELEMENTE
100
AcDbLine
 62
7
  6
CONTINUOUS
 10
275.0939382911
 20
395.7636132231
 11
278.629472197
 21
392.2280793172
  0
LINE
  5
2E9
100
AcDbEntity
  8
0
100
AcDbLine
 62
7
  6
CONTINUOUS
 10
424.0368770435
 20
192.4759735638
 11
424.6618782356
 21
191.5185259754
  0
LINE
  5
2EA
100
AcDbEntity
  8
0
100
AcDbLine
 62
7
  6
CONTINUOUS
 10
400.9118785336
 20
183.8589519733
 11
401.5368788316
 21
182.5823561573
  0
LINE
  5
2EB
100
AcDbEntity
  8
0
100
AcDbLine
 62
7
  6
CONTINUOUS
 10
309.7592154736
 20
171.6284721542
 11
309.6114297667
 21
172.4666065469
  0
LINE
  5
2EC
100
AcDbEntity
  8
0
100
AcDbLine
 62
7
  6
CONTINUOUS
 10
310.3924779791
 20
175.7154208336
 11
310.6289351267
 21
174.3744057112
  0
LINE
  5
2ED
100
AcDbEntity
  8
0
100
AcDbLine
 62
7
  6
CONTINUOUS
 10
311.4068438044
 20
175.7214423452
 11
312.5595721609
 21
169.1839949739
  0
LINE
  5
2EE
100
AcDbEntity
  8
0
100
AcDbLine
 62
7
  6
CONTINUOUS
 10
313.5443799139
 20
169.3576431516
 11
312.1551944926
 21
177.2361051757
  0
LINE
  5
2EF
100
AcDbEntity
  8
0
100
AcDbLine
 62
7
  6
CONTINUOUS
 10
314.0594129892
 20
174.1150987569
 11
314.2663129209
 21
172.9417109358
  0
LINE
  5
2F0
100
AcDbEntity
  8
0
100
AcDbLine
 62
7
  6
CONTINUOUS
 10
314.939201009
 20
173.9245520189
 11
314.8800867428
 21
174.2598056821
  0
LINE
  5
2F1
100
AcDbEntity
  8
0
100
AcDbLine
 62
7
  6
CONTINUOUS
 10
315.4284635139
 20
172.1095978891
 11
315.3397921146
 21
172.6124783839
  0
LINE
  5
2F2
100
AcDbEntity
  8
0
100
AcDbLine
 62
7
  6
CONTINUOUS
 10
319.4431590044
 20
173.3360126783
 11
319.5318304037
 21
172.8331321835
  0
LINE
  5
2F3
100
AcDbEntity
  8
0
100
AcDbLine
 62
7
  6
CONTINUOUS
 10
320.382059412
 20
172.8102119458
 11
320.2342737051
 21
173.6483463386
  0
LINE
  5
2F4
100
AcDbEntity
  8
0
100
AcDbLine
 62
7
  6
CONTINUOUS
 10
328.5686564167
 20
180.1302413597
 11
329.957841838
 21
172.2517793356
  0
LINE
  5
2F5
100
AcDbEntity
  8
0
100
AcDbLine
 62
7
  6
CONTINUOUS
 10
330.942649591
 20
172.4254275133
 11
329.5534641697
 21
180.3038895374
  0
LINE
  5
2F6
100
AcDbEntity
  8
0
100
AcDbLine
 62
7
  6
CONTINUOUS
 10
331.3394541338
 20
177.853390445
 11
331.7828111718
 21
175.3389877363
  0
LINE
  5
2F7
100
AcDbEntity
  8
0
100
AcDbLine
 62
7
  6
CONTINUOUS
 10
332.7676189248
 20
175.512635914
 11
332.3242618869
 21
178.0270386227
  0
LINE
  5
2F8
100
AcDbEntity
  8
0
100
AcDbLine
 62
7
  6
CONTINUOUS
 10
314.0166489352
 20
175.3174281618
 11
314.0594129892
 21
174.1150987569
  0
LINE
  5
2F9
100
AcDbEntity
  8
0
100
AcDbLine
 62
7
  6
CONTINUOUS
 10
304.2767315293
 20
175.8469195887
 11
304.3559806921
 21
169.6387047693
  0
LINE
  5
2FA
100
AcDbEntity
  8
0
100
AcDbLine
 62
7
  6
CONTINUOUS
 10
314.8800867428
 20
174.2598056821
 11
314.8668779436
 21
175.2945079242
  0
LINE
  5
2FB
100
AcDbEntity
  8
0
100
AcDbLine
 62
7
  6
CONTINUOUS
 10
305.3376480127
 20
167.9105748939
 11
305.2615392823
 21
176.0205677664
  0
LINE
  5
2FC
100
AcDbEntity
  8
0
100
AcDbLine
 62
7
  6
CONTINUOUS
 10
311.4743782356
 20
673.6383136469
 11
311.4743782356
 21
513.6383136469
  0
LINE
  5
2FD
100
AcDbEntity
  8
0
100
AcDbLine
 62
7
  6
CONTINUOUS
 10
301.3984170006
 20
167.2159821833
 11
301.5883229378
 21
173.8173336542
  0
LINE
  5
2FE
100
AcDbEntity
  8
0
100
AcDbLine
 62
7
  6
CONTINUOUS
 10
300.6657699248
 20
175.2102096315
 11
300.4167501497
 21
168.9441121414
  0
LWPOLYLINE
  5
2FF
100
AcDbEntity
  8
BEZUGSACHSEN
100
AcDbPolyline
 62
7
  6
CONTINUOUS
 90
3
 70
0
 10
266.4349604572
 20
144.6996186934
 10
266.4577466429
 20
144.8807844857
 10
266.4653596791
 20
145.0632187381
  0
LINE
  5
300
100
AcDbEntity
  8
RUNDUNGEN
100
AcDbLine
 62
7
  6
CONTINUOUS
 10
269.5460056438
 20
96.2039595418
 11
266.5719112792
 21
75.0421785486
  0
LINE
  5
301
100
AcDbEntity
  8
KONSTRUKTIONSELEMENTE
100
AcDbLine
 62
7
  6
CONTINUOUS
 10
209.5451396751
 20
330.2148146071
 11
213.5756483279
 21
334.2453232599
  0
LINE
  5
302
100
AcDbEntity
  8
KONSTRUKTIONSELEMENTE
100
AcDbLine
 62
7
  6
CONTINUOUS
 10
213.9292017185
 20
334.5988766505
 11
217.9597103712
 21
338.6293853033
  0
LINE
  5
303
100
AcDbEntity
  8
KONSTRUKTIONSELEMENTE
100
AcDbLine
 62
7
  6
CONTINUOUS
 10
270.7098762478
 20
391.3795511798
 11
274.7403849005
 21
395.4100598325
  0
LINE
  5
304
100
AcDbEntity
  8
KONSTRUKTIONSELEMENTE
100
AcDbLine
 62
7
  6
CONTINUOUS
 10
275.0939382911
 20
395.7636132231
 11
279.1244469439
 21
399.7941218759
  0
LINE
  5
305
100
AcDbEntity
  8
KONSTRUKTIONSELEMENTE
100
AcDbLine
 62
7
  6
CONTINUOUS
 10
239.9507312661
 20
358.4283751765
 11
250.5573329839
 21
369.0349768943
  0
LINE
  5
306
100
AcDbEntity
  8
KONSTRUKTIONSELEMENTE
100
AcDbLine
 62
7
  6
CONTINUOUS
 10
213.0806735811
 20
326.6792807012
 11
217.1111822338
 21
330.709789354
  0
LINE
  5
307
100
AcDbEntity
  8
KONSTRUKTIONSELEMENTE
100
AcDbLine
 62
7
  6
CONTINUOUS
 10
217.4647356244
 20
331.0633427446
 11
221.4952442772
 21
335.0938513973
  0
LINE
  5
308
100
AcDbEntity
  8
KONSTRUKTIONSELEMENTE
100
AcDbLine
 62
7
  6
CONTINUOUS
 10
274.2454101537
 20
387.8440172739
 11
278.2759188065
 21
391.8745259266
  0
LINE
  5
309
100
AcDbEntity
  8
KONSTRUKTIONSELEMENTE
100
AcDbLine
 62
7
  6
CONTINUOUS
 10
278.629472197
 20
392.2280793172
 11
282.6599808498
 21
396.25858797
  0
LINE
  5
30A
100
AcDbEntity
  8
KONSTRUKTIONSELEMENTE
100
AcDbLine
 62
7
  6
CONTINUOUS
 10
283.4377983091
 20
396.25858797
 11
338.5921272417
 21
451.4129169025
  0
LINE
  5
30B
100
AcDbEntity
  8
KONSTRUKTIONSELEMENTE
100
AcDbLine
 62
7
  6
CONTINUOUS
 10
423.5243782356
 20
371.3008136469
 11
422.5161130286
 21
371.3008136469
  0
LINE
  5
30C
100
AcDbEntity
  8
KONSTRUKTIONSELEMENTE
100
AcDbLine
 62
7
  6
CONTINUOUS
 10
423.5243782356
 20
372.2174794394
 11
422.2614115288
 21
372.2174794394
  0
LINE
  5
30D
100
AcDbEntity
  8
KONSTRUKTIONSELEMENTE
100
AcDbLine
 62
7
  6
CONTINUOUS
 10
423.5243782356
 20
373.1341478545
 11
422.1115036707
 21
373.1341478545
  0
LINE
  5
30E
100
AcDbEntity
  8
KONSTRUKTIONSELEMENTE
100
AcDbLine
 62
7
  6
CONTINUOUS
 10
423.5243782356
 20
374.2799794394
 11
422.0307274217
 21
374.2799794394
  0
LINE
  5
30F
100
AcDbEntity
  8
KONSTRUKTIONSELEMENTE
100
AcDbLine
 62
7
  6
CONTINUOUS
 10
423.5243782356
 20
376.3424794394
 11
422.0307274217
 21
376.3424794394
  0
LINE
  5
310
100
AcDbEntity
  8
KONSTRUKTIONSELEMENTE
100
AcDbLine
 62
7
  6
CONTINUOUS
 10
423.5243782356
 20
377.4883136469
 11
422.1115036707
 21
377.4883136469
  0
LINE
  5
311
100
AcDbEntity
  8
KONSTRUKTIONSELEMENTE
100
AcDbLine
 62
7
  6
CONTINUOUS
 10
423.5243782356
 20
378.404982062
 11
422.2614115288
 21
378.404982062
  0
LINE
  5
312
100
AcDbEntity
  8
KONSTRUKTIONSELEMENTE
100
AcDbLine
 62
7
  6
CONTINUOUS
 10
423.5243782356
 20
379.3216452319
 11
422.5161130286
 21
379.3216452319
  0
LINE
  5
313
100
AcDbEntity
  8
KONSTRUKTIONSELEMENTE
100
AcDbLine
 62
7
  6
CONTINUOUS
 10
423.5243782356
 20
379.5508136469
 11
422.7533796405
 21
379.5508136469
  0
LINE
  5
314
100
AcDbEntity
  8
KONSTRUKTIONSELEMENTE
100
AcDbLine
 62
7
  6
CONTINUOUS
 10
423.5243782356
 20
381.3841452319
 11
422.0307274217
 21
381.3841452319
  0
LINE
  5
315
100
AcDbEntity
  8
KONSTRUKTIONSELEMENTE
100
AcDbLine
 62
7
  6
CONTINUOUS
 10
423.5243782356
 20
382.7591452319
 11
422.0307274217
 21
382.7591452319
  0
LINE
  5
316
100
AcDbEntity
  8
KONSTRUKTIONSELEMENTE
100
AcDbLine
 62
7
  6
CONTINUOUS
 10
423.5243782356
 20
389.1758136469
 11
422.0307274217
 21
389.1758136469
  0
LINE
  5
317
100
AcDbEntity
  8
KONSTRUKTIONSELEMENTE
100
AcDbLine
 62
7
  6
CONTINUOUS
 10
423.5243782356
 20
390.5508136469
 11
422.0307274217
 21
390.5508136469
  0
LWPOLYLINE
  5
318
100
AcDbEntity
  8
KONSTRUKTIONSELEMENTE
100
AcDbPolyline
 62
7
  6
CONTINUOUS
 90
17
 70
0
 10
431.2243721804
 20
307.2011249726
 10
430.3195536267
 20
307.9664460918
 10
429.4148822572
 20
308.8216574392
 10
428.5599484028
 20
309.7267677155
 10
427.7575198219
 20
310.6788758076
 10
427.010188975
 20
311.6749318548
 10
426.3203714769
 20
312.7117400599
 10
425.6902960932
 20
313.7859713086
 10
425.1219973097
 20
314.8941743912
 10
424.6173089758
 20
316.0327867845
 10
424.1778580896
 20
317.1981465784
 10
423.8050593801
 20
318.3865046076
 10
423.5001106081
 20
319.5940368856
 10
423.2639886047
 20
320.8168572961
 10
423.0974460637
 20
322.0510304865
 10
423.0010094797
 20
323.2925771286
 10
422.9743738783
 20
324.3748204326
  0
LINE
  5
319
100
AcDbEntity
  8
RUNDUNGEN
100
AcDbLine
 62
7
  6
CONTINUOUS
 10
570.7860950954
 20
144.8854323519
 11
571.6767895731
 21
143.9947378742
  0
LINE
  5
31A
100
AcDbEntity
  8
BEZUGSACHSEN
100
AcDbLine
 62
7
  6
CONTINUOUS
 10
570.7860950954
 20
144.8854323519
 11
571.6767895731
 21
143.9947378742
  0
LINE
  5
31B
100
AcDbEntity
  8
0
100
AcDbLine
 62
7
  6
CONTINUOUS
 10
426.5368782356
 20
191.8376757676
 11
425.9118770435
 21
193.1142713601
  0
LINE
  5
31C
100
AcDbEntity
  8
0
100
AcDbLine
 62
7
  6
CONTINUOUS
 10
398.0993785336
 20
180.3483136469
 11
395.2868785336
 21
187.6887391979
  0
LINE
  5
31D
100
AcDbEntity
  8
0
100
AcDbLine
 62
7
  6
CONTINUOUS
 10
393.4118780866
 20
187.0504414016
 11
395.9118779376
 21
180.3483136469
  0
LINE
  5
31E
100
AcDbEntity
  8
0
100
AcDbLine
 62
7
  6
CONTINUOUS
 10
395.5993782356
 20
192.7951224619
 11
395.9118779376
 21
191.8376757676
  0
LINE
  5
31F
100
AcDbEntity
  8
0
100
AcDbLine
 62
7
  6
CONTINUOUS
 10
397.7868779376
 20
191.8376757676
 11
397.4743782356
 21
192.7951224619
  0
LINE
  5
320
100
AcDbEntity
  8
0
100
AcDbLine
 62
7
  6
CONTINUOUS
 10
338.5808698245
 20
181.8956647201
 11
339.9700552459
 21
174.017202696
  0
LINE
  5
321
100
AcDbEntity
  8
0
100
AcDbLine
 62
7
  6
CONTINUOUS
 10
340.7775201796
 20
175.1966119807
 11
340.3046059879
 21
177.8786416384
  0
LINE
  5
322
100
AcDbEntity
  8
0
100
AcDbLine
 62
7
  6
CONTINUOUS
 10
340.1272631893
 20
178.8844026279
 11
339.7430203761
 21
181.0635519082
  0
LINE
  5
323
100
AcDbEntity
  8
0
100
AcDbLine
 62
7
  6
CONTINUOUS
 10
344.5721049987
 20
178.6311168541
 11
344.3947622001
 21
179.6368778437
  0
LINE
  5
324
100
AcDbEntity
  8
0
100
AcDbLine
 62
7
  6
CONTINUOUS
 10
345.8789017639
 20
175.059091762
 11
345.7015589446
 21
176.064852869
  0
LINE
  5
325
100
AcDbEntity
  8
0
100
AcDbLine
 62
7
  6
CONTINUOUS
 10
344.6670591412
 20
181.9317927966
 11
344.4897163426
 21
182.9375537861
  0
LINE
  5
326
100
AcDbEntity
  8
0
100
AcDbLine
 62
7
  6
CONTINUOUS
 10
331.3558042633
 20
178.7204666563
 11
331.3394541338
 21
177.853390445
  0
LINE
  5
327
100
AcDbEntity
  8
0
100
AcDbLine
 62
7
  6
CONTINUOUS
 10
338.2859436639
 20
174.9301183681
 11
338.3022900987
 21
175.7971935648
  0
LINE
  5
328
100
AcDbEntity
  8
0
100
AcDbLine
 62
7
  6
CONTINUOUS
 10
332.3242618869
 20
178.0270386227
 11
332.3701692322
 21
178.7264875328
  0
LINE
  5
329
100
AcDbEntity
  8
0
100
AcDbLine
 62
7
  6
CONTINUOUS
 10
314.8668779436
 20
175.2945079242
 11
314.9423423392
 21
175.8263304723
  0
LINE
  5
32A
100
AcDbEntity
  8
0
100
AcDbLine
 62
7
  6
CONTINUOUS
 10
315.3397921146
 20
172.6124783839
 11
315.4152565516
 21
173.1443006972
  0
LINE
  5
32B
100
AcDbEntity
  8
0
100
AcDbLine
 62
7
  6
CONTINUOUS
 10
319.5318304037
 20
172.8331321835
 11
319.4563659252
 21
172.301310105
  0
LINE
  5
32C
100
AcDbEntity
  8
KONSTRUKTIONSELEMENTE
100
AcDbLine
 62
7
  6
CONTINUOUS
 10
243.1327117815
 20
355.2463946612
 11
253.7393134993
 21
365.8529963789
  0
LINE
  5
32D
100
AcDbEntity
  8
RUNDUNGEN
100
AcDbLine
 62
7
  6
CONTINUOUS
 10
108.4288699654
 20
219.1283392827
 11
220.3765106559
 21
331.0759799732
  0
LINE
  5
32E
100
AcDbEntity
  8
KONSTRUKTIONSELEMENTE
100
AcDbLine
 62
7
  6
CONTINUOUS
 10
274.2454101537
 20
384.5913260804
 11
255.5367251785
 21
365.8826411052
  0
LINE
  5
32F
100
AcDbEntity
  8
KONSTRUKTIONSELEMENTE
100
AcDbLine
 62
7
  6
CONTINUOUS
 10
243.1327117815
 20
353.4786277082
 11
224.4240268063
 21
334.769942733
  0
LINE
  5
330
100
AcDbEntity
  8
KONSTRUKTIONSELEMENTE
100
AcDbLine
 62
7
  6
CONTINUOUS
 10
277.427390669
 20
381.4093455651
 11
258.7187056939
 21
362.7006605899
  0
LINE
  5
331
100
AcDbEntity
  8
KONSTRUKTIONSELEMENTE
100
AcDbLine
 62
7
  6
CONTINUOUS
 10
246.3146922968
 20
350.2966471928
 11
227.6060073216
 21
331.5879622177
  0
LINE
  5
332
100
AcDbEntity
  8
RUNDUNGEN
100
AcDbLine
 62
7
  6
CONTINUOUS
 10
111.9644038714
 20
215.5928053768
 11
223.9120301715
 21
327.5404316769
  0
LINE
  5
333
100
AcDbEntity
  8
KONSTRUKTIONSELEMENTE
100
AcDbLine
 62
7
  6
CONTINUOUS
 10
258.6890609676
 20
360.9032489106
 11
248.0824592498
 21
350.2966471928
  0
LINE
  5
334
100
AcDbEntity
  8
KONSTRUKTIONSELEMENTE
100
AcDbLine
 62
7
  6
CONTINUOUS
 10
289.0946525586
 20
390.6017337205
 11
344.2489814912
 21
445.756062653
  0
LINE
  5
335
100
AcDbEntity
  8
KONSTRUKTIONSELEMENTE
100
AcDbLine
 62
7
  6
CONTINUOUS
 10
289.0946525586
 20
389.8239162612
 11
280.6800818625
 21
381.4093455651
  0
LINE
  5
336
100
AcDbEntity
  8
KONSTRUKTIONSELEMENTE
100
AcDbLine
 62
7
  6
CONTINUOUS
 10
227.929915986
 20
328.6591796885
 11
219.5153452899
 21
320.2446089924
  0
LINE
  5
337
100
AcDbEntity
  8
KONSTRUKTIONSELEMENTE
100
AcDbLine
 62
7
  6
CONTINUOUS
 10
261.8710414829
 20
357.7212683953
 11
251.2644397651
 21
347.1146666775
  0
LINE
  5
338
100
AcDbEntity
  8
KONSTRUKTIONSELEMENTE
100
AcDbLine
 62
7
  6
CONTINUOUS
 10
292.6301864645
 20
386.2883823552
 11
284.2156157684
 21
377.8738116591
  0
LINE
  5
339
100
AcDbEntity
  8
KONSTRUKTIONSELEMENTE
100
AcDbLine
 62
7
  6
CONTINUOUS
 10
231.4654498919
 20
325.1236457826
 11
223.0508791958
 21
316.7090750865
  0
LINE
  5
33A
100
AcDbEntity
  8
BEZUGSACHSEN
100
AcDbLine
 62
7
  6
CONTINUOUS
 10
457.474622666
 20
218.9413965348
 11
444.338534365
 21
245.2883136469
  0
LINE
  5
33B
100
AcDbEntity
  8
0
100
AcDbLine
 62
7
  6
CONTINUOUS
 10
402.7868776395
 20
184.1781008715
 11
402.4743788316
 21
185.454696464
  0
LINE
  5
33C
100
AcDbEntity
  8
0
100
AcDbLine
 62
7
  6
CONTINUOUS
 10
400.5993779376
 20
185.454696464
 11
400.9118785336
 21
183.8589519733
  0
LINE
  5
33D
100
AcDbEntity
  8
0
100
AcDbLine
 62
7
  6
CONTINUOUS
 10
386.2243782356
 20
195.3483136469
 11
386.2243782356
 21
180.3483136469
  0
LINE
  5
33E
100
AcDbEntity
  8
0
100
AcDbLine
 62
7
  6
CONTINUOUS
 10
337.3174823457
 20
175.6235453871
 11
337.242021624
 21
175.091723971
  0
LINE
  5
33F
100
AcDbEntity
  8
0
100
AcDbLine
 62
7
  6
CONTINUOUS
 10
314.1971311857
 20
176.2134452945
 11
314.0166489352
 21
175.3174281618
  0
LINE
  5
340
100
AcDbEntity
  8
0
100
AcDbLine
 62
7
  6
CONTINUOUS
 10
320.2015770995
 20
171.9141951654
 11
320.382059412
 21
172.8102119458
  0
LINE
  5
341
100
AcDbEntity
  8
RUNDUNGEN
100
AcDbLine
 62
7
  6
CONTINUOUS
 10
572.1206117591
 20
143.475578326
 11
572.1133824964
 21
143.4854972499
  0
LINE
  5
342
100
AcDbEntity
  8
BEZUGSACHSEN
100
AcDbLine
 62
7
  6
CONTINUOUS
 10
496.8217302509
 20
191.569952192
 11
472.1564150598
 21
241.0409210218
  0
LINE
  5
343
100
AcDbEntity
  8
0
100
AcDbLine
 62
7
  6
CONTINUOUS
 10
424.6618782356
 20
191.5185259754
 11
424.9743770435
 21
190.2419303829
  0
LINE
  5
344
100
AcDbEntity
  8
0
100
AcDbLine
 62
7
  6
CONTINUOUS
 10
426.8493770435
 20
190.2419303829
 11
426.5368782356
 21
191.8376757676
  0
LINE
  5
345
100
AcDbEntity
  8
BEZUGSACHSEN
100
AcDbLine
 62
7
  6
CONTINUOUS
 10
419.6716397383
 20
200.442924418
 11
417.5878616063
 21
212.2606174542
  0
LINE
  5
346
100
AcDbEntity
  8
0
100
AcDbLine
 62
7
  6
CONTINUOUS
 10
388.0993782356
 20
180.3483136469
 11
388.0993782356
 21
187.0504414016
  0
LINE
  5
347
100
AcDbEntity
  8
0
100
AcDbLine
 62
7
  6
CONTINUOUS
 10
388.0993782356
 20
188.9653347904
 11
388.0993782356
 21
193.7525691563
  0
LINE
  5
348
100
AcDbEntity
  8
BEZUGSACHSEN
100
AcDbLine
 62
7
  6
CONTINUOUS
 10
389.9743782356
 20
392.3383136469
 11
389.9743782356
 21
324.3965876771
  0
LINE
  5
349
100
AcDbEntity
  8
KONSTRUKTIONSELEMENTE
100
AcDbLine
 62
7
  6
CONTINUOUS
 10
389.9743782356
 20
392.3383136469
 11
389.9743782356
 21
437.9882325427
  0
LINE
  5
34A
100
AcDbEntity
  8
0
100
AcDbLine
 62
7
  6
CONTINUOUS
 10
395.9118779376
 20
191.8376757676
 11
395.9118779376
 21
190.8802281791
  0
LINE
  5
34B
100
AcDbEntity
  8
0
100
AcDbLine
 62
7
  6
CONTINUOUS
 10
397.7868779376
 20
190.561079281
 11
397.7868779376
 21
191.8376757676
  0
LINE
  5
34C
100
AcDbEntity
  8
0
100
AcDbLine
 62
7
  6
CONTINUOUS
 10
400.5993779376
 20
195.3483136469
 11
400.5993779376
 21
185.454696464
  0
LINE
  5
34D
100
AcDbEntity
  8
KONSTRUKTIONSELEMENTE
100
AcDbLine
 62
7
  6
CONTINUOUS
 10
400.9743782356
 20
300.9832523996
 11
400.9743782356
 21
251.5933748942
  0
LINE
  5
34E
100
AcDbEntity
  8
0
100
AcDbLine
 62
7
  6
CONTINUOUS
 10
402.4743788316
 20
185.454696464
 11
402.4743788316
 21
195.3483136469
  0
LINE
  5
34F
100
AcDbEntity
  8
0
100
AcDbLine
 62
7
  6
CONTINUOUS
 10
409.9743788316
 20
195.3483136469
 11
409.9743788316
 21
185.454696464
  0
LINE
  5
350
100
AcDbEntity
  8
0
100
AcDbLine
 62
7
  6
CONTINUOUS
 10
411.8493788316
 20
185.454696464
 11
411.8493788316
 21
195.3483136469
  0
LINE
  5
351
100
AcDbEntity
  8
KONSTRUKTIONSELEMENTE
100
AcDbLine
 62
7
  6
CONTINUOUS
 10
411.9743782356
 20
251.5933748942
 11
411.9743782356
 21
300.9832523996
  0
LINE
  5
352
100
AcDbEntity
  8
0
100
AcDbLine
 62
7
  6
CONTINUOUS
 10
414.3493782356
 20
195.3483136469
 11
414.3493782356
 21
180.3483136469
  0
LINE
  5
353
100
AcDbEntity
  8
0
100
AcDbLine
 62
7
  6
CONTINUOUS
 10
416.2243782356
 20
182.2632072592
 11
416.2243782356
 21
193.4334202582
  0
LINE
  5
354
100
AcDbEntity
  8
0
100
AcDbLine
 62
7
  6
CONTINUOUS
 10
331.5658437296
 20
179.4488564878
 11
331.3558042633
 21
178.7204666563
  0
LINE
  5
355
100
AcDbEntity
  8
0
100
AcDbLine
 62
7
  6
CONTINUOUS
 10
314.9423423392
 20
175.8263304723
 11
315.1819389387
 21
176.3870934722
  0
LWPOLYLINE
  5
356
100
AcDbEntity
  8
BEZUGSACHSEN
100
AcDbPolyline
 62
7
  6
CONTINUOUS
 90
5
 70
0
 10
266.2306895801
 20
144.0769958968
 10
266.2776674072
 20
144.176232814
 10
266.3446067281
 20
144.3461138217
 10
266.3971595446
 20
144.5209810925
 10
266.4349604572
 20
144.6996186934
  0
LWPOLYLINE
  5
357
100
AcDbEntity
  8
RUNDUNGEN
100
AcDbPolyline
 62
7
  6
CONTINUOUS
 90
7
 70
0
 10
266.2306895801
 20
144.0769958968
 10
266.2776673337
 20
144.1762326481
 10
266.3446067226
 20
144.3461138059
 10
266.3971595717
 20
144.5209811983
 10
266.4349604858
 20
144.6996188628
 10
266.4577466538
 20
144.8807846161
 10
266.4653596791
 20
145.0632187381
  0
LINE
  5
358
100
AcDbEntity
  8
RUNDUNGEN
100
AcDbLine
 62
7
  6
CONTINUOUS
 10
546.6710905086
 20
144.1762155976
 11
546.7180683468
 21
144.0769782524
  0
LINE
  5
359
100
AcDbEntity
  8
BEZUGSACHSEN
100
AcDbLine
 62
7
  6
CONTINUOUS
 10
546.6710904939
 20
144.1762156308
 11
546.7180683468
 21
144.0769782524
  0
LINE
  5
35A
100
AcDbEntity
  8
KONSTRUKTIONSELEMENTE
100
AcDbLine
 62
7
  6
CONTINUOUS
 10
422.0307274217
 20
390.5508136469
 11
422.0307274217
 21
389.1758136469
  0
LINE
  5
35B
100
AcDbEntity
  8
KONSTRUKTIONSELEMENTE
100
AcDbLine
 62
7
  6
CONTINUOUS
 10
422.0307274217
 20
382.7591452319
 11
422.0307274217
 21
381.3841452319
  0
LINE
  5
35C
100
AcDbEntity
  8
KONSTRUKTIONSELEMENTE
100
AcDbLine
 62
7
  6
CONTINUOUS
 10
422.0307274217
 20
376.3424794394
 11
422.0307274217
 21
374.2799794394
  0
LINE
  5
35D
100
AcDbEntity
  8
KONSTRUKTIONSELEMENTE
100
AcDbLine
 62
7
  6
CONTINUOUS
 10
422.0307274217
 20
365.1133136469
 11
422.0307274217
 21
363.9674794394
  0
LINE
  5
35E
100
AcDbEntity
  8
KONSTRUKTIONSELEMENTE
100
AcDbLine
 62
7
  6
CONTINUOUS
 10
422.0307274217
 20
350.2174807507
 11
422.0307274217
 21
348.1549807507
  0
LINE
  5
35F
100
AcDbEntity
  8
KONSTRUKTIONSELEMENTE
100
AcDbLine
 62
7
  6
CONTINUOUS
 10
422.0307274217
 20
342.6549800951
 11
422.0307274217
 21
341.2799800951
  0
LINE
  5
360
100
AcDbEntity
  8
KONSTRUKTIONSELEMENTE
100
AcDbLine
 62
7
  6
CONTINUOUS
 10
422.0307274217
 20
334.8633136469
 11
422.0307274217
 21
333.4883136469
  0
LINE
  5
361
100
AcDbEntity
  8
KONSTRUKTIONSELEMENTE
100
AcDbLine
 62
7
  6
CONTINUOUS
 10
422.940731443
 20
389.1758136469
 11
422.940731443
 21
382.7591452319
  0
LINE
  5
362
100
AcDbEntity
  8
KONSTRUKTIONSELEMENTE
100
AcDbLine
 62
7
  6
CONTINUOUS
 10
422.9743782356
 20
437.9882325427
 11
422.9743782356
 21
392.3383136469
  0
LINE
  5
363
100
AcDbEntity
  8
BEZUGSACHSEN
100
AcDbLine
 62
7
  6
CONTINUOUS
 10
422.9743782356
 20
392.3383136469
 11
422.9743782356
 21
390.5508136469
  0
LINE
  5
364
100
AcDbEntity
  8
BEZUGSACHSEN
100
AcDbLine
 62
7
  6
CONTINUOUS
 10
422.9743782356
 20
381.3841452319
 11
422.9743782356
 21
379.5508136469
  0
LINE
  5
365
100
AcDbEntity
  8
BEZUGSACHSEN
100
AcDbLine
 62
7
  6
CONTINUOUS
 10
422.9743782356
 20
370.6133136469
 11
422.9743782356
 21
368.0924794394
  0
LINE
  5
366
100
AcDbEntity
  8
BEZUGSACHSEN
100
AcDbLine
 62
7
  6
CONTINUOUS
 10
422.9743782356
 20
360.9883136469
 11
422.9743782356
 21
353.4258136469
  0
LINE
  5
367
100
AcDbEntity
  8
BEZUGSACHSEN
100
AcDbLine
 62
7
  6
CONTINUOUS
 10
422.9743782356
 20
344.4883136469
 11
422.9743782356
 21
342.6549800951
  0
LINE
  5
368
100
AcDbEntity
  8
BEZUGSACHSEN
100
AcDbLine
 62
7
  6
CONTINUOUS
 10
422.9743782356
 20
339.4409338224
 11
422.9743782356
 21
336.7023599196
  0
LINE
  5
369
100
AcDbEntity
  8
BEZUGSACHSEN
100
AcDbLine
 62
7
  6
CONTINUOUS
 10
422.9743782356
 20
333.4883136469
 11
422.9743782356
 21
324.3962816419
  0
LINE
  5
36A
100
AcDbEntity
  8
KONSTRUKTIONSELEMENTE
100
AcDbLine
 62
7
  6
CONTINUOUS
 10
423.5243782356
 20
333.4883136469
 11
423.5243782356
 21
342.6549800951
  0
LINE
  5
36B
100
AcDbEntity
  8
KONSTRUKTIONSELEMENTE
100
AcDbLine
 62
7
  6
CONTINUOUS
 10
423.5243782356
 20
343.5716471988
 11
423.5243782356
 21
354.8008136469
  0
LINE
  5
36C
100
AcDbEntity
  8
KONSTRUKTIONSELEMENTE
100
AcDbLine
 62
7
  6
CONTINUOUS
 10
423.5243782356
 20
355.2591465432
 11
423.5243782356
 21
379.5508136469
  0
LINE
  5
36D
100
AcDbEntity
  8
KONSTRUKTIONSELEMENTE
100
AcDbLine
 62
7
  6
CONTINUOUS
 10
423.5243782356
 20
381.3841452319
 11
423.5243782356
 21
390.5508136469
  0
LINE
  5
36E
100
AcDbEntity
  8
0
100
AcDbLine
 62
7
  6
CONTINUOUS
 10
424.9743770435
 20
190.2419303829
 11
424.9743770435
 21
185.454696464
  0
LINE
  5
36F
100
AcDbEntity
  8
0
100
AcDbLine
 62
7
  6
CONTINUOUS
 10
426.8493770435
 20
185.454696464
 11
426.8493770435
 21
190.2419303829
  0
LINE
  5
370
100
AcDbEntity
  8
0
100
AcDbLine
 62
7
  6
CONTINUOUS
 10
393.2771167329
 20
200.442924418
 11
395.3608948649
 21
212.2606174542
  0
LINE
  5
371
100
AcDbEntity
  8
0
100
AcDbLine
 62
7
  6
CONTINUOUS
 10
319.4563659252
 20
172.301310105
 11
319.2167693465
 21
171.7405469877
  0
LINE
  5
372
100
AcDbEntity
  8
0
100
AcDbLine
 62
7
  6
CONTINUOUS
 10
332.3701692322
 20
178.7264875328
 11
332.6097657489
 21
179.2872510023
  0
LINE
  5
373
100
AcDbEntity
  8
0
100
AcDbLine
 62
7
  6
CONTINUOUS
 10
314.5713065298
 20
176.9707767097
 11
314.1971311857
 21
176.2134452945
  0
LINE
  5
374
100
AcDbEntity
  8
0
100
AcDbLine
 62
7
  6
CONTINUOUS
 10
319.8274017657
 20
171.1568636915
 11
320.2015770995
 21
171.9141951654
  0
LINE
  5
375
100
AcDbEntity
  8
RUNDUNGEN
100
AcDbLine
 62
7
  6
CONTINUOUS
 10
316.1270262202
 20
191.569952192
 11
340.7923414113
 21
241.0409210218
  0
LINE
  5
376
100
AcDbEntity
  8
0
100
AcDbLine
 62
7
  6
CONTINUOUS
 10
311.1703867396
 20
177.062456998
 11
310.3924779791
 21
175.7154208336
  0
LINE
  5
377
100
AcDbEntity
  8
0
100
AcDbLine
 62
7
  6
CONTINUOUS
 10
310.6289351267
 20
174.3744057112
 11
311.4068438044
 21
175.7214423452
  0
LINE
  5
378
100
AcDbEntity
  8
BEZUGSACHSEN
100
AcDbLine
 62
7
  6
CONTINUOUS
 10
240.8353807333
 20
143.4855066419
 11
240.8321399609
 21
143.4810754352
  0
LINE
  5
379
100
AcDbEntity
  8
RUNDUNGEN
100
AcDbLine
 62
7
  6
CONTINUOUS
 10
546.6041507204
 20
144.3460984206
 11
546.6710905086
 21
144.1762155976
  0
LINE
  5
37A
100
AcDbEntity
  8
0
100
AcDbLine
 62
7
  6
CONTINUOUS
 10
411.5368782356
 20
183.8589519733
 11
411.8493788316
 21
185.454696464
  0
LINE
  5
37B
100
AcDbEntity
  8
0
100
AcDbLine
 62
7
  6
CONTINUOUS
 10
426.5368782356
 20
183.8589519733
 11
426.8493770435
 21
185.454696464
  0
LINE
  5
37C
100
AcDbEntity
  8
0
100
AcDbLine
 62
7
  6
CONTINUOUS
 10
409.9743788316
 20
185.454696464
 11
409.6618782356
 21
184.1781008715
  0
LINE
  5
37D
100
AcDbEntity
  8
0
100
AcDbLine
 62
7
  6
CONTINUOUS
 10
395.9118779376
 20
190.8802281791
 11
395.5993782356
 21
189.9227814847
  0
LINE
  5
37E
100
AcDbEntity
  8
0
100
AcDbLine
 62
7
  6
CONTINUOUS
 10
397.4743782356
 20
189.6036325866
 11
397.7868779376
 21
190.561079281
  0
LINE
  5
37F
100
AcDbEntity
  8
0
100
AcDbLine
 62
7
  6
CONTINUOUS
 10
355.4741338051
 20
218.9413965348
 11
368.6102221061
 21
245.2883136469
  0
LINE
  5
380
100
AcDbEntity
  8
0
100
AcDbLine
 62
7
  6
CONTINUOUS
 10
315.4152565516
 20
173.1443006972
 11
315.6844102842
 21
173.5374368655
  0
LINE
  5
381
100
AcDbEntity
  8
0
100
AcDbLine
 62
7
  6
CONTINUOUS
 10
332.1041549515
 20
180.2351294868
 11
331.5658437296
 21
179.4488564878
  0
LINE
  5
382
100
AcDbEntity
  8
BEZUGSACHSEN
100
AcDbLine
 62
7
  6
CONTINUOUS
 10
242.1626613757
 20
144.8854323519
 11
241.271966898
 21
143.9947378742
  0
LINE
  5
383
100
AcDbEntity
  8
BEZUGSACHSEN
100
AcDbLine
 62
7
  6
CONTINUOUS
 10
352.41820761
 20
293.3695308985
 11
236.4743782356
 21
226.4293297983
  0
LINE
  5
384
100
AcDbEntity
  8
0
100
AcDbLine
 62
7
  6
CONTINUOUS
 10
501.4743782356
 20
513.6383136469
 11
501.4743782356
 21
673.6383136469
  0
LINE
  5
385
100
AcDbEntity
  8
0
100
AcDbLine
 62
7
  6
CONTINUOUS
 10
424.9743770435
 20
185.454696464
 11
424.6618782356
 21
184.1781008715
  0
LINE
  5
386
100
AcDbEntity
  8
0
100
AcDbLine
 62
7
  6
CONTINUOUS
 10
337.7476324524
 20
174.1438453104
 11
338.2859436639
 21
174.9301183681
  0
LINE
  5
387
100
AcDbEntity
  8
0
100
AcDbLine
 62
7
  6
CONTINUOUS
 10
315.1819389387
 20
176.3870934722
 11
315.615228549
 21
176.8091712242
  0
LINE
  5
388
100
AcDbEntity
  8
0
100
AcDbLine
 62
7
  6
CONTINUOUS
 10
315.8057802296
 20
174.7687075229
 11
314.939201009
 21
173.9245520189
  0
LINE
  5
389
100
AcDbEntity
  8
0
100
AcDbLine
 62
7
  6
CONTINUOUS
 10
315.6844102842
 20
173.5374368655
 11
316.1176998945
 21
173.9595146175
  0
LINE
  5
38A
100
AcDbEntity
  8
RUNDUNGEN
100
AcDbLine
 62
7
  6
CONTINUOUS
 10
328.2379321569
 20
252.8509299739
 11
288.3173878854
 21
229.8027929925
  0
LWPOLYLINE
  5
38B
100
AcDbEntity
  8
BEZUGSACHSEN
100
AcDbPolyline
 62
7
  6
CONTINUOUS
 90
4
 70
0
 10
546.5137962834
 20
144.699607373
 10
546.5515975049
 20
144.5209676635
 10
546.6041507166
 20
144.3460984315
 10
546.6710904939
 20
144.1762156308
  0
LINE
  5
38C
100
AcDbEntity
  8
BEZUGSACHSEN
100
AcDbLine
 62
7
  6
CONTINUOUS
 10
543.4027508274
 20
96.2039595418
 11
546.3768451919
 21
75.0421785486
  0
LWPOLYLINE
  5
38D
100
AcDbEntity
  8
BEZUGSACHSEN
100
AcDbPolyline
 62
7
  6
CONTINUOUS
 90
3
 70
0
 10
546.4833967921
 20
145.0632119621
 10
546.4910098987
 20
144.8807753897
 10
546.5137962834
 20
144.699607373
  0
LWPOLYLINE
  5
38E
100
AcDbEntity
  8
RUNDUNGEN
100
AcDbPolyline
 62
7
  6
CONTINUOUS
 90
5
 70
0
 10
546.4833967921
 20
145.0632119621
 10
546.4910098974
 20
144.8807754054
 10
546.5137962802
 20
144.6996073918
 10
546.5515975029
 20
144.5209676713
 10
546.6041507204
 20
144.3460984206
  0
LINE
  5
38F
100
AcDbEntity
  8
0
100
AcDbLine
 62
7
  6
CONTINUOUS
 10
410.9118788316
 20
182.5823561573
 11
411.5368782356
 21
183.8589519733
  0
LINE
  5
390
100
AcDbEntity
  8
0
100
AcDbLine
 62
7
  6
CONTINUOUS
 10
425.9118770435
 20
182.5823561573
 11
426.5368782356
 21
183.8589519733
  0
LINE
  5
391
100
AcDbEntity
  8
0
100
AcDbLine
 62
7
  6
CONTINUOUS
 10
409.6618782356
 20
184.1781008715
 11
409.0368788316
 21
183.2206541771
  0
LINE
  5
392
100
AcDbEntity
  8
0
100
AcDbLine
 62
7
  6
CONTINUOUS
 10
396.5368782356
 20
188.3270369941
 11
397.4743782356
 21
189.6036325866
  0
LINE
  5
393
100
AcDbEntity
  8
RUNDUNGEN
100
AcDbLine
 62
7
  6
CONTINUOUS
 10
271.6767417134
 20
99.58184156
 11
270.7861039363
 21
98.6912037829
  0
LINE
  5
394
100
AcDbEntity
  8
0
100
AcDbLine
 62
7
  6
CONTINUOUS
 10
319.2167693465
 20
171.7405469877
 11
318.7834797362
 21
171.3184692357
  0
LINE
  5
395
100
AcDbEntity
  8
0
100
AcDbLine
 62
7
  6
CONTINUOUS
 10
332.6097657489
 20
179.2872510023
 11
333.0430553592
 21
179.7093287543
  0
LINE
  5
396
100
AcDbEntity
  8
0
100
AcDbLine
 62
7
  6
CONTINUOUS
 10
337.242021624
 20
175.091723971
 11
336.8087320344
 21
174.6696461016
  0
LINE
  5
397
100
AcDbEntity
  8
0
100
AcDbLine
 62
7
  6
CONTINUOUS
 10
315.3033088841
 20
177.6183641296
 11
314.5713065298
 21
176.9707767097
  0
LINE
  5
398
100
AcDbEntity
  8
0
100
AcDbLine
 62
7
  6
CONTINUOUS
 10
319.0953994192
 20
170.5092762275
 11
319.8274017657
 21
171.1568636915
  0
LINE
  5
399
100
AcDbEntity
  8
0
100
AcDbLine
 62
7
  6
CONTINUOUS
 10
332.7015804396
 20
180.6861488225
 11
332.1041549515
 21
180.2351294868
  0
LINE
  5
39A
100
AcDbEntity
  8
RUNDUNGEN
100
AcDbLine
 62
7
  6
CONTINUOUS
 10
568.6581661892
 20
153.6899737259
 11
569.5460064836
 21
147.3726617765
  0
LINE
  5
39B
100
AcDbEntity
  8
BEZUGSACHSEN
100
AcDbLine
 62
7
  6
CONTINUOUS
 10
568.6581661892
 20
153.6899737259
 11
569.5460064836
 21
147.3726617765
  0
LINE
  5
39C
100
AcDbEntity
  8
BEZUGSACHSEN
100
AcDbLine
 62
7
  6
CONTINUOUS
 10
539.9892582356
 20
140.8980037503
 11
539.9892582356
 21
131.7347492595
  0
LINE
  5
39D
100
AcDbEntity
  8
RUNDUNGEN
100
AcDbLine
 62
7
  6
CONTINUOUS
 10
539.9892582356
 20
137.6516730382
 11
539.9892582356
 21
130.6231843951
  0
LINE
  5
39E
100
AcDbEntity
  8
BEZUGSACHSEN
100
AcDbLine
 62
7
  6
CONTINUOUS
 10
539.9892582356
 20
130.6231843951
 11
539.9892582356
 21
102.6786227832
  0
LINE
  5
39F
100
AcDbEntity
  8
BEZUGSACHSEN
100
AcDbLine
 62
7
  6
CONTINUOUS
 10
546.4833967921
 20
73.518420336
 11
546.4833967921
 21
45.1008039964
  0
LINE
  5
3A0
100
AcDbEntity
  8
RUNDUNGEN
100
AcDbLine
 62
7
  6
CONTINUOUS
 10
546.4833967921
 20
145.063405559
 11
546.4833967921
 21
198.4758232975
  0
LINE
  5
3A1
100
AcDbEntity
  8
BEZUGSACHSEN
100
AcDbLine
 62
7
  6
CONTINUOUS
 10
546.4833967921
 20
145.0634055566
 11
546.4833967921
 21
198.4758232975
  0
LINE
  5
3A2
100
AcDbEntity
  8
0
100
AcDbLine
 62
7
  6
CONTINUOUS
 10
547.4743782356
 20
513.6383136469
 11
547.4743782356
 21
673.6383136469
  0
LINE
  5
3A3
100
AcDbEntity
  8
RUNDUNGEN
100
AcDbLine
 62
7
  6
CONTINUOUS
 10
566.4653596791
 20
198.4758232975
 11
566.4653596791
 21
145.0632161014
  0
LINE
  5
3A4
100
AcDbEntity
  8
BEZUGSACHSEN
100
AcDbLine
 62
7
  6
CONTINUOUS
 10
566.4653596791
 20
198.4758232975
 11
566.4653596791
 21
145.0632161007
  0
LINE
  5
3A5
100
AcDbEntity
  8
RUNDUNGEN
100
AcDbLine
 62
7
  6
CONTINUOUS
 10
566.4653596791
 20
73.518420336
 11
566.4653596791
 21
45.1008039964
  0
LINE
  5
3A6
100
AcDbEntity
  8
0
100
AcDbLine
 62
7
  6
CONTINUOUS
 10
424.6618782356
 20
184.1781008715
 11
424.0368770435
 21
183.2206541771
  0
LINE
  5
3A7
100
AcDbEntity
  8
0
100
AcDbLine
 62
7
  6
CONTINUOUS
 10
395.5993782356
 20
189.9227814847
 11
394.9743779376
 21
189.2844836885
  0
LINE
  5
3A8
100
AcDbEntity
  8
0
100
AcDbLine
 62
7
  6
CONTINUOUS
 10
409.6618782356
 20
181.3057604531
 11
410.9118788316
 21
182.5823561573
  0
LINE
  5
3A9
100
AcDbEntity
  8
0
100
AcDbLine
 62
7
  6
CONTINUOUS
 10
337.1502069721
 20
173.6928259306
 11
337.7476324524
 21
174.1438453104
  0
LINE
  5
3AA
100
AcDbEntity
  8
0
100
AcDbLine
 62
7
  6
CONTINUOUS
 10
315.615228549
 20
176.8091712242
 11
316.0780752924
 21
177.0636221446
  0
LINE
  5
3AB
100
AcDbEntity
  8
0
100
AcDbLine
 62
7
  6
CONTINUOUS
 10
316.1176998945
 20
173.9595146175
 11
316.5805466379
 21
174.2139655379
  0
LINE
  5
3AC
100
AcDbEntity
  8
0
100
AcDbLine
 62
7
  6
CONTINUOUS
 10
318.7834797362
 20
171.3184692357
 11
318.3206329928
 21
171.0640183153
  0
LINE
  5
3AD
100
AcDbEntity
  8
BEZUGSACHSEN
100
AcDbLine
 62
7
  6
CONTINUOUS
 10
572.9594982356
 20
140.8980037503
 11
572.9594982356
 21
131.7347492595
  0
LINE
  5
3AE
100
AcDbEntity
  8
RUNDUNGEN
100
AcDbLine
 62
7
  6
CONTINUOUS
 10
572.9594982356
 20
140.8980037503
 11
572.9594982356
 21
102.6786227832
  0
LWPOLYLINE
  5
3AF
100
AcDbEntity
  8
BEZUGSACHSEN
100
AcDbPolyline
 62
7
  6
CONTINUOUS
 90
3
 70
0
 10
566.4349604572
 20
144.6996186934
 10
566.4577466429
 20
144.8807844857
 10
566.4653596791
 20
145.0632187381
  0
LINE
  5
3B0
100
AcDbEntity
  8
BEZUGSACHSEN
100
AcDbLine
 62
7
  6
CONTINUOUS
 10
544.2397935983
 20
153.3285365408
 11
543.4027499876
 21
147.3726617765
  0
LINE
  5
3B1
100
AcDbEntity
  8
0
100
AcDbLine
 62
7
  6
CONTINUOUS
 10
424.6618782356
 20
181.3057604531
 11
425.9118770435
 21
182.5823561573
  0
LINE
  5
3B2
100
AcDbEntity
  8
0
100
AcDbLine
 62
7
  6
CONTINUOUS
 10
409.0368788316
 20
183.2206541771
 11
408.0993788316
 21
182.5823561573
  0
LINE
  5
3B3
100
AcDbEntity
  8
0
100
AcDbLine
 62
7
  6
CONTINUOUS
 10
424.0368770435
 20
183.2206541771
 11
423.0993770435
 21
182.5823561573
  0
LINE
  5
3B4
100
AcDbEntity
  8
0
100
AcDbLine
 62
7
  6
CONTINUOUS
 10
395.2868785336
 20
187.6887391979
 11
396.5368782356
 21
188.3270369941
  0
LINE
  5
3B5
100
AcDbEntity
  8
0
100
AcDbLine
 62
7
  6
CONTINUOUS
 10
408.4118776395
 20
180.667462573
 11
409.6618782356
 21
181.3057604531
  0
LINE
  5
3B6
100
AcDbEntity
  8
0
100
AcDbLine
 62
7
  6
CONTINUOUS
 10
333.0430553592
 20
179.7093287543
 11
333.6700379803
 21
179.9927212585
  0
LINE
  5
3B7
100
AcDbEntity
  8
0
100
AcDbLine
 62
7
  6
CONTINUOUS
 10
336.8087320344
 20
174.6696461016
 11
336.1817494133
 21
174.3862535974
  0
LINE
  5
3B8
100
AcDbEntity
  8
0
100
AcDbLine
 62
7
  6
CONTINUOUS
 10
316.0944255046
 20
177.9306978863
 11
315.3033088841
 21
177.6183641296
  0
LINE
  5
3B9
100
AcDbEntity
  8
0
100
AcDbLine
 62
7
  6
CONTINUOUS
 10
316.5968968501
 20
175.0810412796
 11
315.8057802296
 21
174.7687075229
  0
LINE
  5
3BA
100
AcDbEntity
  8
0
100
AcDbLine
 62
7
  6
CONTINUOUS
 10
333.4926951817
 20
180.998482248
 11
332.7015804396
 21
180.6861488225
  0
LINE
  5
3BB
100
AcDbEntity
  8
0
100
AcDbLine
 62
7
  6
CONTINUOUS
 10
318.3042828012
 20
170.1969424561
 11
319.0953994192
 21
170.5092762275
  0
LINE
  5
3BC
100
AcDbEntity
  8
0
100
AcDbLine
 62
7
  6
CONTINUOUS
 10
336.3590922326
 20
173.3804924904
 11
337.1502069721
 21
173.6928259306
  0
LINE
  5
3BD
100
AcDbEntity
  8
0
100
AcDbLine
 62
7
  6
CONTINUOUS
 10
394.9743779376
 20
189.2844836885
 11
394.0368779376
 21
188.9653347904
  0
LINE
  5
3BE
100
AcDbEntity
  8
RUNDUNGEN
100
AcDbLine
 62
7
  6
CONTINUOUS
 10
569.5460056438
 20
96.2039595418
 11
566.5719112792
 21
75.0421785486
  0
LINE
  5
3BF
100
AcDbEntity
  8
BEZUGSACHSEN
100
AcDbLine
 62
7
  6
CONTINUOUS
 10
527.9255972199
 20
217.5085643584
 11
512.6703681394
 21
191.08573251
  0
LINE
  5
3C0
100
AcDbEntity
  8
0
100
AcDbLine
 62
7
  6
CONTINUOUS
 10
423.4118794277
 20
180.667462573
 11
424.6618782356
 21
181.3057604531
  0
LWPOLYLINE
  5
3C1
100
AcDbEntity
  8
RUNDUNGEN
100
AcDbPolyline
 62
7
  6
CONTINUOUS
 90
7
 70
0
 10
566.2306895801
 20
144.0769958968
 10
566.2776673337
 20
144.1762326481
 10
566.3446067226
 20
144.3461138059
 10
566.3971595717
 20
144.5209811983
 10
566.4349604858
 20
144.6996188628
 10
566.4577466538
 20
144.8807846161
 10
566.4653596791
 20
145.0632187381
  0
LWPOLYLINE
  5
3C2
100
AcDbEntity
  8
BEZUGSACHSEN
100
AcDbPolyline
 62
7
  6
CONTINUOUS
 90
5
 70
0
 10
566.2306895801
 20
144.0769958968
 10
566.2776674072
 20
144.176232814
 10
566.3446067281
 20
144.3461138217
 10
566.3971595446
 20
144.5209810925
 10
566.4349604572
 20
144.6996186934
  0
LINE
  5
3C3
100
AcDbEntity
  8
BEZUGSACHSEN
100
AcDbLine
 62
7
  6
CONTINUOUS
 10
540.8353807333
 20
143.4855066419
 11
540.8321399609
 21
143.4810754352
  0
LINE
  5
3C4
100
AcDbEntity
  8
BEZUGSACHSEN
100
AcDbLine
 62
7
  6
CONTINUOUS
 10
542.1626613757
 20
144.8854323519
 11
541.271966898
 21
143.9947378742
  0
LINE
  5
3C5
100
AcDbEntity
  8
RUNDUNGEN
100
AcDbLine
 62
7
  6
CONTINUOUS
 10
571.6767417134
 20
99.58184156
 11
570.7861039363
 21
98.6912037829
  0
LINE
  5
3C6
100
AcDbEntity
  8
BEZUGSACHSEN
100
AcDbLine
 62
7
  6
CONTINUOUS
 10
841.4984188423
 20
102.1833689276
 11
833.0111356976
 21
102.1833689276
  0
LINE
  5
3C7
100
AcDbEntity
  8
BEZUGSACHSEN
100
AcDbLine
 62
7
  6
CONTINUOUS
 10
807.5186752717
 20
102.1833689276
 11
798.6101630465
 21
102.1833689276
  0
LINE
  5
3C8
100
AcDbEntity
  8
BEZUGSACHSEN
100
AcDbLine
 62
7
  6
CONTINUOUS
 10
882.1742706221
 20
104.4454779337
 11
898.9079118122
 21
104.4454779337
  0
LINE
  5
3C9
100
AcDbEntity
  8
0
100
AcDbLine
 62
7
  6
CONTINUOUS
 10
898.5308609497
 20
105.9535506044
 11
882.4005156636
 21
105.9535506044
  0
LINE
  5
3CA
100
AcDbEntity
  8
BEZUGSACHSEN
100
AcDbLine
 62
7
  6
CONTINUOUS
 10
898.5308609497
 20
105.9535506044
 11
882.4005156636
 21
105.9535506044
  0
LINE
  5
3CB
100
AcDbEntity
  8
0
100
AcDbLine
 62
7
  6
CONTINUOUS
 10
901.0976006352
 20
115.4383136469
 11
900.7205824675
 21
115.4383136469
  0
LINE
  5
3CC
100
AcDbEntity
  8
0
100
AcDbLine
 62
7
  6
CONTINUOUS
 10
880.2107941457
 20
115.4383136469
 11
879.9845832451
 21
115.4383136469
  0
LINE
  5
3CD
100
AcDbEntity
  8
0
100
AcDbLine
 62
7
  6
CONTINUOUS
 10
867.0905619105
 20
115.4383136469
 11
843.7154355143
 21
115.4383136469
  0
LINE
  5
3CE
100
AcDbEntity
  8
0
100
AcDbLine
 62
7
  6
CONTINUOUS
 10
830.8214141797
 20
115.4383136469
 11
830.5952032791
 21
115.4383136469
  0
LINE
  5
3CF
100
AcDbEntity
  8
0
100
AcDbLine
 62
7
  6
CONTINUOUS
 10
810.0854149573
 20
115.4383136469
 11
809.7083967896
 21
115.4383136469
  0
LINE
  5
3D0
100
AcDbEntity
  8
0
100
AcDbLine
 62
7
  6
CONTINUOUS
 10
901.0976006352
 20
128.1383136469
 11
900.7205824675
 21
128.1383136469
  0
LINE
  5
3D1
100
AcDbEntity
  8
0
100
AcDbLine
 62
7
  6
CONTINUOUS
 10
880.2107941457
 20
128.1383136469
 11
879.9845832451
 21
128.1383136469
  0
LINE
  5
3D2
100
AcDbEntity
  8
0
100
AcDbLine
 62
7
  6
CONTINUOUS
 10
867.0905619105
 20
128.1383136469
 11
843.7154355143
 21
128.1383136469
  0
LINE
  5
3D3
100
AcDbEntity
  8
0
100
AcDbLine
 62
7
  6
CONTINUOUS
 10
830.8214141797
 20
128.1383136469
 11
830.5952032791
 21
128.1383136469
  0
LINE
  5
3D4
100
AcDbEntity
  8
0
100
AcDbLine
 62
7
  6
CONTINUOUS
 10
810.0854149573
 20
128.1383136469
 11
809.7083967896
 21
128.1383136469
  0
LINE
  5
3D5
100
AcDbEntity
  8
0
100
AcDbLine
 62
7
  6
CONTINUOUS
 10
812.2751364752
 20
137.6230766895
 11
828.4054817612
 21
137.6230766895
  0
LINE
  5
3D6
100
AcDbEntity
  8
BEZUGSACHSEN
100
AcDbLine
 62
7
  6
CONTINUOUS
 10
828.6317268027
 20
139.1311493602
 11
811.8980856126
 21
139.1311493602
  0
LINE
  5
3D7
100
AcDbEntity
  8
BEZUGSACHSEN
100
AcDbLine
 62
7
  6
CONTINUOUS
 10
869.3075785825
 20
141.3932583663
 11
877.7948617273
 21
141.3932583663
  0
LINE
  5
3D8
100
AcDbEntity
  8
BEZUGSACHSEN
100
AcDbLine
 62
7
  6
CONTINUOUS
 10
903.2873221531
 20
141.3932583663
 11
912.1958343783
 21
141.3932583663
  0
LINE
  5
3D9
100
AcDbEntity
  8
BEZUGSACHSEN
100
AcDbLine
 62
7
  6
CONTINUOUS
 10
837.9029987124
 20
151.7883136469
 11
872.9029987124
 21
151.7883136469
  0
LINE
  5
3DA
100
AcDbEntity
  8
RUNDUNGEN
100
AcDbLine
 62
7
  6
CONTINUOUS
 10
901.9029987124
 20
215.5928053768
 11
898.3529987124
 21
215.5928053768
  0
LINE
  5
3DB
100
AcDbEntity
  8
RUNDUNGEN
100
AcDbLine
 62
7
  6
CONTINUOUS
 10
812.4529987124
 20
215.5928053768
 11
808.9029987124
 21
215.5928053768
  0
LINE
  5
3DC
100
AcDbEntity
  8
RUNDUNGEN
100
AcDbLine
 62
7
  6
CONTINUOUS
 10
901.9029987124
 20
219.1283392827
 11
898.3529987124
 21
219.1283392827
  0
LINE
  5
3DD
100
AcDbEntity
  8
RUNDUNGEN
100
AcDbLine
 62
7
  6
CONTINUOUS
 10
812.4529987124
 20
219.1283392827
 11
808.9029987124
 21
219.1283392827
  0
LINE
  5
3DE
100
AcDbEntity
  8
RUNDUNGEN
100
AcDbLine
 62
7
  6
CONTINUOUS
 10
796.7958527687
 20
103.1255023339
 11
791.5404671069
 21
110.6309708914
  0
LINE
  5
3DF
100
AcDbEntity
  8
BEZUGSACHSEN
100
AcDbLine
 62
7
  6
CONTINUOUS
 10
796.7958527687
 20
103.1255023339
 11
791.5404671069
 21
110.6309708914
  0
LINE
  5
3E0
100
AcDbEntity
  8
RUNDUNGEN
100
AcDbLine
 62
7
  6
CONTINUOUS
 10
889.5529987124
 20
229.0278342194
 11
878.5037859675
 21
229.0278342194
  0
LINE
  5
3E1
100
AcDbEntity
  8
RUNDUNGEN
100
AcDbLine
 62
7
  6
CONTINUOUS
 10
832.3022114573
 20
229.0278342194
 11
821.2529987124
 21
229.0278342194
  0
LINE
  5
3E2
100
AcDbEntity
  8
RUNDUNGEN
100
AcDbLine
 62
7
  6
CONTINUOUS
 10
889.5529987124
 20
232.5633681253
 11
878.5037859675
 21
232.5633681253
  0
LINE
  5
3E3
100
AcDbEntity
  8
RUNDUNGEN
100
AcDbLine
 62
7
  6
CONTINUOUS
 10
832.3022114573
 20
232.5633681253
 11
821.2529987124
 21
232.5633681253
  0
LINE
  5
3E4
100
AcDbEntity
  8
BEZUGSACHSEN
100
AcDbLine
 62
7
  6
CONTINUOUS
 10
796.4029987124
 20
236.6883136469
 11
801.6466780884
 21
236.6883136469
  0
LINE
  5
3E5
100
AcDbEntity
  8
BEZUGSACHSEN
100
AcDbLine
 62
7
  6
CONTINUOUS
 10
909.159322055
 20
236.6883136469
 11
914.1029987124
 21
236.6883136469
  0
LINE
  5
3E6
100
AcDbEntity
  8
0
100
AcDbLine
 62
7
  6
CONTINUOUS
 10
846.9193457642
 20
266.3322494689
 11
847.1999051453
 21
266.3710223257
  0
LINE
  5
3E7
100
AcDbEntity
  8
0
100
AcDbLine
 62
7
  6
CONTINUOUS
 10
847.2169605004
 20
268.4668755431
 11
846.9364011328
 21
268.4281027002
  0
LINE
  5
3E8
100
AcDbEntity
  8
0
100
AcDbLine
 62
7
  6
CONTINUOUS
 10
844.4402431562
 20
267.6419848444
 11
844.2019628387
 21
267.6122795188
  0
LINE
  5
3E9
100
AcDbEntity
  8
0
100
AcDbLine
 62
7
  6
CONTINUOUS
 10
843.6768463517
 20
268.624390991
 11
843.9151266691
 21
268.6540963165
  0
LINE
  5
3EA
100
AcDbEntity
  8
0
100
AcDbLine
 62
7
  6
CONTINUOUS
 10
843.9941636593
 20
268.8929342444
 11
843.5176030026
 21
268.8335236003
  0
LINE
  5
3EB
100
AcDbEntity
  8
0
100
AcDbLine
 62
7
  6
CONTINUOUS
 10
844.1522376745
 20
269.3706102372
 11
844.390517992
 21
269.4003155627
  0
LINE
  5
3EC
100
AcDbEntity
  8
0
100
AcDbLine
 62
7
  6
CONTINUOUS
 10
844.1229259618
 20
267.3734415224
 11
844.5107383187
 21
267.4083186992
  0
LINE
  5
3ED
100
AcDbEntity
  8
0
100
AcDbLine
 62
7
  6
CONTINUOUS
 10
844.4695549822
 20
269.6391534906
 11
844.0817425022
 21
269.6042763669
  0
LINE
  5
3EE
100
AcDbEntity
  8
0
100
AcDbLine
 62
7
  6
CONTINUOUS
 10
851.3877252535
 20
266.508564164
 11
851.7201626995
 21
266.5258314741
  0
LINE
  5
3EF
100
AcDbEntity
  8
0
100
AcDbLine
 62
7
  6
CONTINUOUS
 10
851.8594418924
 20
266.6332802647
 11
851.5270041588
 21
266.6160127774
  0
LINE
  5
3F0
100
AcDbEntity
  8
0
100
AcDbLine
 62
7
  6
CONTINUOUS
 10
851.8594418924
 20
266.9868336553
 11
851.5270041588
 21
266.969566168
  0
LINE
  5
3F1
100
AcDbEntity
  8
KONSTRUKTIONSELEMENTE
100
AcDbLine
 62
7
  6
CONTINUOUS
 10
796.4029987124
 20
246.0383136469
 11
774.4029987124
 21
246.0383136469
  0
LINE
  5
3F2
100
AcDbEntity
  8
0
100
AcDbLine
 62
7
  6
CONTINUOUS
 10
836.4029987124
 20
248.473270702
 11
874.4029987124
 21
248.473270702
  0
LINE
  5
3F3
100
AcDbEntity
  8
0
100
AcDbLine
 62
7
  6
CONTINUOUS
 10
873.9029987124
 20
248.8268240926
 11
836.9029987124
 21
248.8268240926
  0
LINE
  5
3F4
100
AcDbEntity
  8
BEZUGSACHSEN
100
AcDbLine
 62
7
  6
CONTINUOUS
 10
914.1029987124
 20
250.9883136469
 11
921.8029987124
 21
250.9883136469
  0
LINE
  5
3F5
100
AcDbEntity
  8
KONSTRUKTIONSELEMENTE
100
AcDbLine
 62
7
  6
CONTINUOUS
 10
920.7029987124
 20
251.5933748942
 11
927.3029987124
 21
251.5933748942
  0
LINE
  5
3F6
100
AcDbEntity
  8
0
100
AcDbLine
 62
7
  6
CONTINUOUS
 10
868.2029987124
 20
252.9370702669
 11
869.2696654109
 21
252.9370702669
  0
LINE
  5
3F7
100
AcDbEntity
  8
0
100
AcDbLine
 62
7
  6
CONTINUOUS
 10
869.9363321093
 20
252.9370702669
 11
871.4029987124
 21
252.9370702669
  0
LINE
  5
3F8
100
AcDbEntity
  8
0
100
AcDbLine
 62
7
  6
CONTINUOUS
 10
871.4029987124
 20
252.9686643537
 11
869.9363321093
 21
252.9686643537
  0
LINE
  5
3F9
100
AcDbEntity
  8
0
100
AcDbLine
 62
7
  6
CONTINUOUS
 10
869.2696654109
 20
252.9686643537
 11
868.2029987124
 21
252.9686643537
  0
LINE
  5
3FA
100
AcDbEntity
  8
0
100
AcDbLine
 62
7
  6
CONTINUOUS
 10
871.4029987124
 20
253.3222177443
 11
869.9363321093
 21
253.3222177443
  0
LINE
  5
3FB
100
AcDbEntity
  8
0
100
AcDbLine
 62
7
  6
CONTINUOUS
 10
869.2696654109
 20
253.3222177443
 11
868.2029987124
 21
253.3222177443
  0
LINE
  5
3FC
100
AcDbEntity
  8
KONSTRUKTIONSELEMENTE
100
AcDbLine
 62
7
  6
CONTINUOUS
 10
771.1029987124
 20
253.7383136469
 11
766.7029987124
 21
253.7383136469
  0
LINE
  5
3FD
100
AcDbEntity
  8
0
100
AcDbLine
 62
7
  6
CONTINUOUS
 10
869.9363321093
 20
253.7389595784
 11
869.2696654109
 21
253.7389595784
  0
LINE
  5
3FE
100
AcDbEntity
  8
0
100
AcDbLine
 62
7
  6
CONTINUOUS
 10
869.9363321093
 20
254.092512969
 11
869.2696654109
 21
254.092512969
  0
LINE
  5
3FF
100
AcDbEntity
  8
0
100
AcDbLine
 62
7
  6
CONTINUOUS
 10
836.9029987124
 20
255.8978919044
 11
873.9029987124
 21
255.8978919044
  0
LINE
  5
400
100
AcDbEntity
  8
0
100
AcDbLine
 62
7
  6
CONTINUOUS
 10
872.7494088739
 20
256.251445295
 11
837.1844202481
 21
256.251445295
  0
LINE
  5
401
100
AcDbEntity
  8
KONSTRUKTIONSELEMENTE
100
AcDbLine
 62
7
  6
CONTINUOUS
 10
761.2029987124
 20
256.4883136469
 11
766.7029987124
 21
256.4883136469
  0
LINE
  5
402
100
AcDbEntity
  8
KONSTRUKTIONSELEMENTE
100
AcDbLine
 62
7
  6
CONTINUOUS
 10
771.1029987124
 20
256.4883136469
 11
774.4029987124
 21
256.4883136469
  0
LINE
  5
403
100
AcDbEntity
  8
0
100
AcDbLine
 62
7
  6
CONTINUOUS
 10
836.9029987124
 20
268.6258139658
 11
836.4029987124
 21
268.6258139658
  0
LINE
  5
404
100
AcDbEntity
  8
0
100
AcDbLine
 62
7
  6
CONTINUOUS
 10
836.9029987124
 20
268.9793673564
 11
836.4029987124
 21
268.9793673564
  0
LINE
  5
405
100
AcDbEntity
  8
0
100
AcDbLine
 62
7
  6
CONTINUOUS
 10
846.9090380495
 20
266.5710622132
 11
846.6670860589
 21
266.5719444522
  0
LINE
  5
406
100
AcDbEntity
  8
0
100
AcDbLine
 62
7
  6
CONTINUOUS
 10
847.2272682286
 20
268.2280628127
 11
847.4692202191
 21
268.2271805737
  0
LINE
  5
407
100
AcDbEntity
  8
0
100
AcDbLine
 62
7
  6
CONTINUOUS
 10
846.5289613527
 20
266.3469383193
 11
846.9193457642
 21
266.3322494689
  0
LINE
  5
408
100
AcDbEntity
  8
0
100
AcDbLine
 62
7
  6
CONTINUOUS
 10
847.6073445876
 20
268.4521868352
 11
847.2169605004
 21
268.4668755431
  0
LINE
  5
409
100
AcDbEntity
  8
0
100
AcDbLine
 62
7
  6
CONTINUOUS
 10
844.2019628387
 20
267.6122795188
 11
843.991646799
 21
267.6264694082
  0
LINE
  5
40A
100
AcDbEntity
  8
0
100
AcDbLine
 62
7
  6
CONTINUOUS
 10
843.9151266691
 20
268.6540963165
 11
844.1254427958
 21
268.6399063995
  0
LINE
  5
40B
100
AcDbEntity
  8
0
100
AcDbLine
 62
7
  6
CONTINUOUS
 10
844.390517992
 20
269.4003155627
 11
844.6008341186
 21
269.3861256457
  0
LINE
  5
40C
100
AcDbEntity
  8
0
100
AcDbLine
 62
7
  6
CONTINUOUS
 10
870.3363321093
 20
250.3373245327
 11
871.1363321093
 21
250.2410376549
  0
LINE
  5
40D
100
AcDbEntity
  8
0
100
AcDbLine
 62
7
  6
CONTINUOUS
 10
871.1363321093
 20
250.2726317755
 11
870.4696653155
 21
250.3689186786
  0
LINE
  5
40E
100
AcDbEntity
  8
0
100
AcDbLine
 62
7
  6
CONTINUOUS
 10
871.1363321093
 20
250.6261851661
 11
870.4696653155
 21
250.7224720692
  0
LINE
  5
40F
100
AcDbEntity
  8
0
100
AcDbLine
 62
7
  6
CONTINUOUS
 10
843.7910418176
 20
267.4263548938
 11
844.1229259618
 21
267.3734415224
  0
LINE
  5
410
100
AcDbEntity
  8
0
100
AcDbLine
 62
7
  6
CONTINUOUS
 10
844.3260477576
 20
268.8400208831
 11
843.9941636593
 21
268.8929342444
  0
LINE
  5
411
100
AcDbEntity
  8
0
100
AcDbLine
 62
7
  6
CONTINUOUS
 10
844.8014390805
 20
269.5862401293
 11
844.4695549822
 21
269.6391534906
  0
LINE
  5
412
100
AcDbEntity
  8
0
100
AcDbLine
 62
7
  6
CONTINUOUS
 10
869.9363321093
 20
250.4336114105
 11
870.3363321093
 21
250.3373245327
  0
LINE
  5
413
100
AcDbEntity
  8
0
100
AcDbLine
 62
7
  6
CONTINUOUS
 10
846.6670860589
 20
266.5719444522
 11
846.3539164117
 21
266.6659434769
  0
LINE
  5
414
100
AcDbEntity
  8
0
100
AcDbLine
 62
7
  6
CONTINUOUS
 10
843.4871219536
 20
267.5231634838
 11
843.7910418176
 21
267.4263548938
  0
LINE
  5
415
100
AcDbEntity
  8
0
100
AcDbLine
 62
7
  6
CONTINUOUS
 10
843.991646799
 20
267.6264694082
 11
843.5661589199
 21
267.7620014564
  0
LINE
  5
416
100
AcDbEntity
  8
0
100
AcDbLine
 62
7
  6
CONTINUOUS
 10
846.1608794993
 20
266.4676680396
 11
846.5289613527
 21
266.3469383193
  0
LINE
  5
417
100
AcDbEntity
  8
0
100
AcDbLine
 62
7
  6
CONTINUOUS
 10
843.4993499983
 20
268.5753239502
 11
843.6768463517
 21
268.624390991
  0
LINE
  5
418
100
AcDbEntity
  8
0
100
AcDbLine
 62
7
  6
CONTINUOUS
 10
846.6946012347
 20
297.3616107007
 11
846.4532689296
 21
297.3493420222
  0
LINE
  5
419
100
AcDbEntity
  8
0
100
AcDbLine
 62
7
  6
CONTINUOUS
 10
846.3400075779
 20
297.1174952837
 11
846.7308338911
 21
297.1240643923
  0
LINE
  5
41A
100
AcDbEntity
  8
KONSTRUKTIONSELEMENTE
100
AcDbLine
 62
7
  6
CONTINUOUS
 10
771.1029987124
 20
274.9877098346
 11
766.7029987124
 21
274.9877098346
  0
LINE
  5
41B
100
AcDbEntity
  8
KONSTRUKTIONSELEMENTE
100
AcDbLine
 62
7
  6
CONTINUOUS
 10
796.4029987124
 20
276.2883136469
 11
774.4029987124
 21
276.2883136469
  0
LINE
  5
41C
100
AcDbEntity
  8
KONSTRUKTIONSELEMENTE
100
AcDbLine
 62
7
  6
CONTINUOUS
 10
771.1029987124
 20
276.2883136469
 11
766.7029987124
 21
276.2883136469
  0
LINE
  5
41D
100
AcDbEntity
  8
KONSTRUKTIONSELEMENTE
100
AcDbLine
 62
7
  6
CONTINUOUS
 10
771.1029987124
 20
277.5889174593
 11
766.7029987124
 21
277.5889174593
  0
LINE
  5
41E
100
AcDbEntity
  8
0
100
AcDbLine
 62
7
  6
CONTINUOUS
 10
836.4029987124
 20
277.8182021212
 11
874.4029987124
 21
277.8182021212
  0
LINE
  5
41F
100
AcDbEntity
  8
0
100
AcDbLine
 62
7
  6
CONTINUOUS
 10
873.9029987124
 20
278.1717555118
 11
836.9029987124
 21
278.1717555118
  0
LINE
  5
420
100
AcDbEntity
  8
0
100
AcDbLine
 62
7
  6
CONTINUOUS
 10
868.2029987124
 20
281.9284482955
 11
869.2696654109
 21
281.9284482955
  0
LINE
  5
421
100
AcDbEntity
  8
0
100
AcDbLine
 62
7
  6
CONTINUOUS
 10
869.9363321093
 20
281.9284482955
 11
871.4029987124
 21
281.9284482955
  0
LINE
  5
422
100
AcDbEntity
  8
0
100
AcDbLine
 62
7
  6
CONTINUOUS
 10
871.4029987124
 20
281.9600423824
 11
869.9363321093
 21
281.9600423824
  0
LINE
  5
423
100
AcDbEntity
  8
0
100
AcDbLine
 62
7
  6
CONTINUOUS
 10
869.2696654109
 20
281.9600423824
 11
868.2029987124
 21
281.9600423824
  0
LINE
  5
424
100
AcDbEntity
  8
0
100
AcDbLine
 62
7
  6
CONTINUOUS
 10
871.4029987124
 20
282.313595773
 11
869.9363321093
 21
282.313595773
  0
LINE
  5
425
100
AcDbEntity
  8
0
100
AcDbLine
 62
7
  6
CONTINUOUS
 10
869.2696654109
 20
282.313595773
 11
868.2029987124
 21
282.313595773
  0
LINE
  5
426
100
AcDbEntity
  8
0
100
AcDbLine
 62
7
  6
CONTINUOUS
 10
869.9363321093
 20
282.730337607
 11
869.2696654109
 21
282.730337607
  0
LINE
  5
427
100
AcDbEntity
  8
0
100
AcDbLine
 62
7
  6
CONTINUOUS
 10
869.9363321093
 20
283.0838909976
 11
869.2696654109
 21
283.0838909976
  0
LINE
  5
428
100
AcDbEntity
  8
0
100
AcDbLine
 62
7
  6
CONTINUOUS
 10
836.9029987124
 20
285.2428233237
 11
873.9029987124
 21
285.2428233237
  0
LINE
  5
429
100
AcDbEntity
  8
0
100
AcDbLine
 62
7
  6
CONTINUOUS
 10
872.98878515
 20
285.5963767143
 11
837.227744573
 21
285.5963767143
  0
LINE
  5
42A
100
AcDbEntity
  8
KONSTRUKTIONSELEMENTE
100
AcDbLine
 62
7
  6
CONTINUOUS
 10
761.2029987124
 20
296.0883136469
 11
766.7029987124
 21
296.0883136469
  0
LINE
  5
42B
100
AcDbEntity
  8
KONSTRUKTIONSELEMENTE
100
AcDbLine
 62
7
  6
CONTINUOUS
 10
771.1029987124
 20
296.0883136469
 11
774.4029987124
 21
296.0883136469
  0
LINE
  5
42C
100
AcDbEntity
  8
0
100
AcDbLine
 62
7
  6
CONTINUOUS
 10
870.3363321093
 20
279.3287025614
 11
871.1363321093
 21
279.2324156836
  0
LINE
  5
42D
100
AcDbEntity
  8
0
100
AcDbLine
 62
7
  6
CONTINUOUS
 10
871.1363321093
 20
279.2640098042
 11
870.4696653155
 21
279.3602967073
  0
LINE
  5
42E
100
AcDbEntity
  8
0
100
AcDbLine
 62
7
  6
CONTINUOUS
 10
871.1363321093
 20
279.6175631948
 11
870.4696653155
 21
279.7138500979
  0
LINE
  5
42F
100
AcDbEntity
  8
0
100
AcDbLine
 62
7
  6
CONTINUOUS
 10
846.4532689296
 20
297.3493420222
 11
846.1884645341
 21
297.4023768772
  0
LINE
  5
430
100
AcDbEntity
  8
0
100
AcDbLine
 62
7
  6
CONTINUOUS
 10
869.9363321093
 20
279.4249894392
 11
870.3363321093
 21
279.3287025614
  0
LINE
  5
431
100
AcDbEntity
  8
0
100
AcDbLine
 62
7
  6
CONTINUOUS
 10
847.4692202191
 20
268.2271805737
 11
847.7823895522
 21
268.1331817019
  0
LINE
  5
432
100
AcDbEntity
  8
0
100
AcDbLine
 62
7
  6
CONTINUOUS
 10
844.1254427958
 20
268.6399063995
 11
844.5509306749
 21
268.5043743512
  0
LINE
  5
433
100
AcDbEntity
  8
0
100
AcDbLine
 62
7
  6
CONTINUOUS
 10
844.6299676216
 20
268.743212293
 11
844.3260477576
 21
268.8400208831
  0
LINE
  5
434
100
AcDbEntity
  8
0
100
AcDbLine
 62
7
  6
CONTINUOUS
 10
845.2840247317
 20
268.851690094
 11
845.5879445087
 21
268.7548815316
  0
LINE
  5
435
100
AcDbEntity
  8
0
100
AcDbLine
 62
7
  6
CONTINUOUS
 10
844.6008341186
 20
269.3861256457
 11
844.9655379901
 21
269.2699553265
  0
LINE
  5
436
100
AcDbEntity
  8
0
100
AcDbLine
 62
7
  6
CONTINUOUS
 10
845.0445749368
 20
269.5087932683
 11
844.8014390805
 21
269.5862401293
  0
LINE
  5
437
100
AcDbEntity
  8
0
100
AcDbLine
 62
7
  6
CONTINUOUS
 10
847.9754264375
 20
268.3314571115
 11
847.6073445876
 21
268.4521868352
  0
LINE
  5
438
100
AcDbEntity
  8
0
100
AcDbLine
 62
7
  6
CONTINUOUS
 10
855.4029987124
 20
263.3330875892
 11
872.7494088739
 21
256.251445295
  0
LINE
  5
439
100
AcDbEntity
  8
0
100
AcDbLine
 62
7
  6
CONTINUOUS
 10
874.4029987124
 20
256.0393132607
 11
855.4029987124
 21
263.7960307795
  0
LINE
  5
43A
100
AcDbEntity
  8
0
100
AcDbLine
 62
7
  6
CONTINUOUS
 10
874.4029987124
 20
256.3928666513
 11
855.4029987124
 21
264.1495841701
  0
LINE
  5
43B
100
AcDbEntity
  8
0
100
AcDbLine
 62
7
  6
CONTINUOUS
 10
869.5363320139
 20
250.6261851661
 11
869.9363321093
 21
250.4336114105
  0
LINE
  5
43C
100
AcDbEntity
  8
0
100
AcDbLine
 62
7
  6
CONTINUOUS
 10
870.4696653155
 20
250.3689186786
 11
870.0696653155
 21
250.5614924173
  0
LINE
  5
43D
100
AcDbEntity
  8
0
100
AcDbLine
 62
7
  6
CONTINUOUS
 10
870.4696653155
 20
250.7224720692
 11
870.0696653155
 21
250.9150458079
  0
LINE
  5
43E
100
AcDbEntity
  8
0
100
AcDbLine
 62
7
  6
CONTINUOUS
 10
843.2111662395
 20
267.6638673341
 11
843.4871219536
 21
267.5231634838
  0
LINE
  5
43F
100
AcDbEntity
  8
0
100
AcDbLine
 62
7
  6
CONTINUOUS
 10
844.9059233816
 20
268.2489550422
 11
844.7847529147
 21
268.3107372367
  0
LINE
  5
440
100
AcDbEntity
  8
0
100
AcDbLine
 62
7
  6
CONTINUOUS
 10
844.9059233816
 20
268.6025084328
 11
844.6299676216
 21
268.743212293
  0
LINE
  5
441
100
AcDbEntity
  8
0
100
AcDbLine
 62
7
  6
CONTINUOUS
 10
845.3205306099
 20
269.0145360452
 11
845.1993603573
 21
269.0763181377
  0
LINE
  5
442
100
AcDbEntity
  8
0
100
AcDbLine
 62
7
  6
CONTINUOUS
 10
845.3205306099
 20
269.3680894358
 11
845.0445749368
 21
269.5087932683
  0
LINE
  5
443
100
AcDbEntity
  8
0
100
AcDbLine
 62
7
  6
CONTINUOUS
 10
843.5661589199
 20
267.7620014564
 11
843.411771175
 21
267.8639818585
  0
LINE
  5
444
100
AcDbEntity
  8
0
100
AcDbLine
 62
7
  6
CONTINUOUS
 10
844.5509306749
 20
268.5043743512
 11
844.7053183328
 21
268.4023939768
  0
LINE
  5
445
100
AcDbEntity
  8
0
100
AcDbLine
 62
7
  6
CONTINUOUS
 10
844.9655379901
 20
269.2699553265
 11
845.1199257351
 21
269.1679749244
  0
LINE
  5
446
100
AcDbEntity
  8
0
100
AcDbLine
 62
7
  6
CONTINUOUS
 10
845.8700124069
 20
266.6677079305
 11
846.1608794993
 21
266.4676680396
  0
LINE
  5
447
100
AcDbEntity
  8
0
100
AcDbLine
 62
7
  6
CONTINUOUS
 10
848.2662935333
 20
267.7778638334
 11
848.0284662858
 21
267.9414262869
  0
LINE
  5
448
100
AcDbEntity
  8
0
100
AcDbLine
 62
7
  6
CONTINUOUS
 10
848.2662935333
 20
268.131417224
 11
847.9754264375
 21
268.3314571115
  0
LINE
  5
449
100
AcDbEntity
  8
0
100
AcDbLine
 62
7
  6
CONTINUOUS
 10
846.3539164117
 20
266.6659434769
 11
846.1179618328
 21
266.8392525125
  0
LINE
  5
44A
100
AcDbEntity
  8
0
100
AcDbLine
 62
7
  6
CONTINUOUS
 10
847.7823895522
 20
268.1331817019
 11
848.0183444453
 21
267.9598725134
  0
LINE
  5
44B
100
AcDbEntity
  8
0
100
AcDbLine
 62
7
  6
CONTINUOUS
 10
885.9029987124
 20
306.0648611839
 11
885.4029987124
 21
305.9445025972
  0
LINE
  5
44C
100
AcDbEntity
  8
0
100
AcDbLine
 62
7
  6
CONTINUOUS
 10
885.9029987124
 20
306.4184145745
 11
885.4029987124
 21
306.2980559878
  0
LINE
  5
44D
100
AcDbEntity
  8
0
100
AcDbLine
 62
7
  6
CONTINUOUS
 10
870.9029987124
 20
302.9355376767
 11
870.4029987124
 21
302.81517909
  0
LINE
  5
44E
100
AcDbEntity
  8
0
100
AcDbLine
 62
7
  6
CONTINUOUS
 10
882.7363326815
 20
305.816621641
 11
883.2363326815
 21
305.9369802277
  0
LINE
  5
44F
100
AcDbEntity
  8
0
100
AcDbLine
 62
7
  6
CONTINUOUS
 10
883.2363326815
 20
306.0648611839
 11
882.7363326815
 21
305.9445025972
  0
LINE
  5
450
100
AcDbEntity
  8
0
100
AcDbLine
 62
7
  6
CONTINUOUS
 10
870.9029987124
 20
303.2890910673
 11
870.4029987124
 21
303.1687324806
  0
LINE
  5
451
100
AcDbEntity
  8
0
100
AcDbLine
 62
7
  6
CONTINUOUS
 10
883.2363326815
 20
306.4184145745
 11
882.7363326815
 21
306.2980559878
  0
LINE
  5
452
100
AcDbEntity
  8
0
100
AcDbLine
 62
7
  6
CONTINUOUS
 10
878.4029987124
 20
306.0648611839
 11
877.9029987124
 21
305.9445025972
  0
LINE
  5
453
100
AcDbEntity
  8
0
100
AcDbLine
 62
7
  6
CONTINUOUS
 10
878.4029987124
 20
306.4184145745
 11
877.9029987124
 21
306.2980559878
  0
LINE
  5
454
100
AcDbEntity
  8
0
100
AcDbLine
 62
7
  6
CONTINUOUS
 10
875.2363317278
 20
305.816621641
 11
875.7363317278
 21
305.9369802277
  0
LINE
  5
455
100
AcDbEntity
  8
0
100
AcDbLine
 62
7
  6
CONTINUOUS
 10
875.7363317278
 20
306.0648611839
 11
875.2363317278
 21
305.9445025972
  0
LINE
  5
456
100
AcDbEntity
  8
0
100
AcDbLine
 62
7
  6
CONTINUOUS
 10
875.7363317278
 20
306.4184145745
 11
875.2363317278
 21
306.2980559878
  0
LINE
  5
457
100
AcDbEntity
  8
0
100
AcDbLine
 62
7
  6
CONTINUOUS
 10
868.7363322047
 20
305.4555458809
 11
869.2363322047
 21
305.5759044676
  0
LINE
  5
458
100
AcDbEntity
  8
0
100
AcDbLine
 62
7
  6
CONTINUOUS
 10
868.7363322047
 20
307.501642192
 11
869.2363322047
 21
307.6220007787
  0
LINE
  5
459
100
AcDbEntity
  8
0
100
AcDbLine
 62
7
  6
CONTINUOUS
 10
848.5696654585
 20
307.805547674
 11
849.0696654585
 21
307.9259062607
  0
LINE
  5
45A
100
AcDbEntity
  8
0
100
AcDbLine
 62
7
  6
CONTINUOUS
 10
850.7363322047
 20
303.4801603321
 11
850.0696654585
 21
303.3598017454
  0
LINE
  5
45B
100
AcDbEntity
  8
0
100
AcDbLine
 62
7
  6
CONTINUOUS
 10
850.7363322047
 20
303.8337137227
 11
850.0696654585
 21
303.713355136
  0
LINE
  5
45C
100
AcDbEntity
  8
0
100
AcDbLine
 62
7
  6
CONTINUOUS
 10
849.0696654585
 20
308.2945043904
 11
848.4029987124
 21
308.1741458037
  0
LINE
  5
45D
100
AcDbEntity
  8
0
100
AcDbLine
 62
7
  6
CONTINUOUS
 10
849.0696654585
 20
308.648057781
 11
848.4029987124
 21
308.5276991943
  0
LINE
  5
45E
100
AcDbEntity
  8
0
100
AcDbLine
 62
7
  6
CONTINUOUS
 10
870.2363322047
 20
302.5669394628
 11
871.0696652201
 21
302.68729806
  0
LINE
  5
45F
100
AcDbEntity
  8
0
100
AcDbLine
 62
7
  6
CONTINUOUS
 10
850.0696654585
 20
302.9912035315
 11
850.9029987124
 21
303.1115621287
  0
LINE
  5
460
100
AcDbEntity
  8
0
100
AcDbLine
 62
7
  6
CONTINUOUS
 10
869.4029987124
 20
305.8241440105
 11
868.5696652201
 21
305.7037854238
  0
LINE
  5
461
100
AcDbEntity
  8
0
100
AcDbLine
 62
7
  6
CONTINUOUS
 10
869.4029987124
 20
306.1776974011
 11
868.5696652201
 21
306.0573388144
  0
LINE
  5
462
100
AcDbEntity
  8
0
100
AcDbLine
 62
7
  6
CONTINUOUS
 10
869.4029987124
 20
307.8702403217
 11
868.5696652201
 21
307.7498817349
  0
LINE
  5
463
100
AcDbEntity
  8
0
100
AcDbLine
 62
7
  6
CONTINUOUS
 10
869.4029987124
 20
308.2237937122
 11
868.5696652201
 21
308.1034351255
  0
LINE
  5
464
100
AcDbEntity
  8
0
100
AcDbLine
 62
7
  6
CONTINUOUS
 10
851.0127697769
 20
297.6436908855
 11
851.3411552995
 21
297.684150273
  0
LINE
  5
465
100
AcDbEntity
  8
0
100
AcDbLine
 62
7
  6
CONTINUOUS
 10
851.4151921365
 20
297.7990855495
 11
851.0868063526
 21
297.7586259656
  0
LINE
  5
466
100
AcDbEntity
  8
0
100
AcDbLine
 62
7
  6
CONTINUOUS
 10
851.4151921365
 20
298.1526389401
 11
851.0868063526
 21
298.1121793562
  0
LINE
  5
467
100
AcDbEntity
  8
0
100
AcDbLine
 62
7
  6
CONTINUOUS
 10
845.928223536
 20
298.3998974142
 11
846.2613941472
 21
298.4301343521
  0
LINE
  5
468
100
AcDbEntity
  8
0
100
AcDbLine
 62
7
  6
CONTINUOUS
 10
846.3746554778
 20
298.6619810651
 11
845.9838291737
 21
298.6554119674
  0
LINE
  5
469
100
AcDbEntity
  8
0
100
AcDbLine
 62
7
  6
CONTINUOUS
 10
836.9029987124
 20
298.8192735225
 11
836.4029987124
 21
298.8192735225
  0
LINE
  5
46A
100
AcDbEntity
  8
KONSTRUKTIONSELEMENTE
100
AcDbLine
 62
7
  6
CONTINUOUS
 10
771.1029987124
 20
298.8383136469
 11
766.7029987124
 21
298.8383136469
  0
LINE
  5
46B
100
AcDbEntity
  8
0
100
AcDbLine
 62
7
  6
CONTINUOUS
 10
836.9029987124
 20
299.1728269131
 11
836.4029987124
 21
299.1728269131
  0
LINE
  5
46C
100
AcDbEntity
  8
KONSTRUKTIONSELEMENTE
100
AcDbLine
 62
7
  6
CONTINUOUS
 10
920.7029987124
 20
300.9832523996
 11
927.3029987124
 21
300.9832523996
  0
LINE
  5
46D
100
AcDbEntity
  8
0
100
AcDbLine
 62
7
  6
CONTINUOUS
 10
821.4029987124
 20
301.506279291
 11
844.4029987124
 21
301.506279291
  0
LINE
  5
46E
100
AcDbEntity
  8
BEZUGSACHSEN
100
AcDbLine
 62
7
  6
CONTINUOUS
 10
914.1029987124
 20
301.5883136469
 11
921.8029987124
 21
301.5883136469
  0
LINE
  5
46F
100
AcDbEntity
  8
0
100
AcDbLine
 62
7
  6
CONTINUOUS
 10
843.9029987124
 20
301.8598326816
 11
821.9029987124
 21
301.8598326816
  0
LINE
  5
470
100
AcDbEntity
  8
0
100
AcDbLine
 62
7
  6
CONTINUOUS
 10
864.4029987124
 20
302.5669394628
 11
865.4029987124
 21
302.5669394628
  0
LINE
  5
471
100
AcDbEntity
  8
0
100
AcDbLine
 62
7
  6
CONTINUOUS
 10
869.4029987124
 20
302.5669394628
 11
870.2363322047
 21
302.5669394628
  0
LINE
  5
472
100
AcDbEntity
  8
0
100
AcDbLine
 62
7
  6
CONTINUOUS
 10
874.069665697
 20
302.5669394628
 11
874.9029987124
 21
302.5669394628
  0
LINE
  5
473
100
AcDbEntity
  8
0
100
AcDbLine
 62
7
  6
CONTINUOUS
 10
876.7363317278
 20
302.5669394628
 11
877.569665697
 21
302.5669394628
  0
LINE
  5
474
100
AcDbEntity
  8
0
100
AcDbLine
 62
7
  6
CONTINUOUS
 10
879.4029987124
 20
302.5669394628
 11
880.2363326815
 21
302.5669394628
  0
LINE
  5
475
100
AcDbEntity
  8
0
100
AcDbLine
 62
7
  6
CONTINUOUS
 10
881.5696647433
 20
302.5669394628
 11
882.4029987124
 21
302.5669394628
  0
LINE
  5
476
100
AcDbEntity
  8
0
100
AcDbLine
 62
7
  6
CONTINUOUS
 10
884.2363326815
 20
302.5669394628
 11
885.0696647433
 21
302.5669394628
  0
LINE
  5
477
100
AcDbEntity
  8
0
100
AcDbLine
 62
7
  6
CONTINUOUS
 10
886.9029987124
 20
302.5669394628
 11
887.7363326815
 21
302.5669394628
  0
LINE
  5
478
100
AcDbEntity
  8
0
100
AcDbLine
 62
7
  6
CONTINUOUS
 10
870.4029987124
 20
302.81517909
 11
869.2363322047
 21
302.81517909
  0
LINE
  5
479
100
AcDbEntity
  8
0
100
AcDbLine
 62
7
  6
CONTINUOUS
 10
848.7363319663
 20
302.9912035315
 11
850.0696654585
 21
302.9912035315
  0
LINE
  5
47A
100
AcDbEntity
  8
0
100
AcDbLine
 62
7
  6
CONTINUOUS
 10
870.4029987124
 20
303.1687324806
 11
869.2363322047
 21
303.1687324806
  0
LINE
  5
47B
100
AcDbEntity
  8
0
100
AcDbLine
 62
7
  6
CONTINUOUS
 10
850.0696654585
 20
303.3598017454
 11
848.7363319663
 21
303.3598017454
  0
LINE
  5
47C
100
AcDbEntity
  8
0
100
AcDbLine
 62
7
  6
CONTINUOUS
 10
850.0696654585
 20
303.713355136
 11
848.7363319663
 21
303.713355136
  0
LINE
  5
47D
100
AcDbEntity
  8
0
100
AcDbLine
 62
7
  6
CONTINUOUS
 10
847.4029987124
 20
304.2023119366
 11
846.525394564
 21
304.2023119366
  0
LINE
  5
47E
100
AcDbEntity
  8
0
100
AcDbLine
 62
7
  6
CONTINUOUS
 10
847.4029987124
 20
304.5558653272
 11
846.4029987124
 21
304.5558653272
  0
LINE
  5
47F
100
AcDbEntity
  8
0
100
AcDbLine
 62
7
  6
CONTINUOUS
 10
849.0696654585
 20
305.5187341894
 11
850.0696654585
 21
305.5187341894
  0
LINE
  5
480
100
AcDbEntity
  8
0
100
AcDbLine
 62
7
  6
CONTINUOUS
 10
869.2363322047
 20
305.5759044676
 11
870.4029987124
 21
305.5759044676
  0
LINE
  5
481
100
AcDbEntity
  8
0
100
AcDbLine
 62
7
  6
CONTINUOUS
 10
870.2363322047
 20
305.8241440105
 11
869.4029987124
 21
305.8241440105
  0
LINE
  5
482
100
AcDbEntity
  8
0
100
AcDbLine
 62
7
  6
CONTINUOUS
 10
850.0696654585
 20
305.8873323191
 11
849.0696654585
 21
305.8873323191
  0
LINE
  5
483
100
AcDbEntity
  8
0
100
AcDbLine
 62
7
  6
CONTINUOUS
 10
875.7363317278
 20
305.9369802277
 11
876.069665697
 21
305.9369802277
  0
LINE
  5
484
100
AcDbEntity
  8
0
100
AcDbLine
 62
7
  6
CONTINUOUS
 10
878.2363317278
 20
305.9369802277
 11
878.7363317278
 21
305.9369802277
  0
LINE
  5
485
100
AcDbEntity
  8
0
100
AcDbLine
 62
7
  6
CONTINUOUS
 10
883.2363326815
 20
305.9369802277
 11
883.5696647433
 21
305.9369802277
  0
LINE
  5
486
100
AcDbEntity
  8
0
100
AcDbLine
 62
7
  6
CONTINUOUS
 10
885.7363326815
 20
305.9369802277
 11
886.2363326815
 21
305.9369802277
  0
LINE
  5
487
100
AcDbEntity
  8
0
100
AcDbLine
 62
7
  6
CONTINUOUS
 10
886.5696647433
 20
306.0648611839
 11
885.9029987124
 21
306.0648611839
  0
LINE
  5
488
100
AcDbEntity
  8
0
100
AcDbLine
 62
7
  6
CONTINUOUS
 10
883.9029987124
 20
306.0648611839
 11
883.2363326815
 21
306.0648611839
  0
LINE
  5
489
100
AcDbEntity
  8
0
100
AcDbLine
 62
7
  6
CONTINUOUS
 10
882.4029987124
 20
306.0648611839
 11
881.5696647433
 21
306.0648611839
  0
LINE
  5
48A
100
AcDbEntity
  8
0
100
AcDbLine
 62
7
  6
CONTINUOUS
 10
879.069665697
 20
306.0648611839
 11
878.4029987124
 21
306.0648611839
  0
LINE
  5
48B
100
AcDbEntity
  8
0
100
AcDbLine
 62
7
  6
CONTINUOUS
 10
876.4029987124
 20
306.0648611839
 11
875.7363317278
 21
306.0648611839
  0
LINE
  5
48C
100
AcDbEntity
  8
0
100
AcDbLine
 62
7
  6
CONTINUOUS
 10
874.9029987124
 20
306.0648611839
 11
874.069665697
 21
306.0648611839
  0
LINE
  5
48D
100
AcDbEntity
  8
0
100
AcDbLine
 62
7
  6
CONTINUOUS
 10
870.2363322047
 20
306.1776974011
 11
869.4029987124
 21
306.1776974011
  0
LINE
  5
48E
100
AcDbEntity
  8
0
100
AcDbLine
 62
7
  6
CONTINUOUS
 10
850.0696654585
 20
306.2408857097
 11
849.0696654585
 21
306.2408857097
  0
LINE
  5
48F
100
AcDbEntity
  8
0
100
AcDbLine
 62
7
  6
CONTINUOUS
 10
886.5696647433
 20
306.4184145745
 11
885.9029987124
 21
306.4184145745
  0
LINE
  5
490
100
AcDbEntity
  8
0
100
AcDbLine
 62
7
  6
CONTINUOUS
 10
883.9029987124
 20
306.4184145745
 11
883.2363326815
 21
306.4184145745
  0
LINE
  5
491
100
AcDbEntity
  8
0
100
AcDbLine
 62
7
  6
CONTINUOUS
 10
882.4029987124
 20
306.4184145745
 11
881.5696647433
 21
306.4184145745
  0
LINE
  5
492
100
AcDbEntity
  8
0
100
AcDbLine
 62
7
  6
CONTINUOUS
 10
879.069665697
 20
306.4184145745
 11
878.4029987124
 21
306.4184145745
  0
LINE
  5
493
100
AcDbEntity
  8
0
100
AcDbLine
 62
7
  6
CONTINUOUS
 10
876.4029987124
 20
306.4184145745
 11
875.7363317278
 21
306.4184145745
  0
LINE
  5
494
100
AcDbEntity
  8
0
100
AcDbLine
 62
7
  6
CONTINUOUS
 10
874.9029987124
 20
306.4184145745
 11
874.069665697
 21
306.4184145745
  0
LINE
  5
495
100
AcDbEntity
  8
KONSTRUKTIONSELEMENTE
100
AcDbLine
 62
7
  6
CONTINUOUS
 10
796.4029987124
 20
306.5383136469
 11
774.4029987124
 21
306.5383136469
  0
LINE
  5
496
100
AcDbEntity
  8
0
100
AcDbLine
 62
7
  6
CONTINUOUS
 10
871.569665697
 20
306.8998492585
 11
872.4029987124
 21
306.8998492585
  0
LINE
  5
497
100
AcDbEntity
  8
0
100
AcDbLine
 62
7
  6
CONTINUOUS
 10
851.0696652201
 20
307.3241133272
 11
852.0696652201
 21
307.3241133272
  0
LINE
  5
498
100
AcDbEntity
  8
0
100
AcDbLine
 62
7
  6
CONTINUOUS
 10
869.2363322047
 20
307.6220007787
 11
870.2363322047
 21
307.6220007787
  0
LINE
  5
499
100
AcDbEntity
  8
0
100
AcDbLine
 62
7
  6
CONTINUOUS
 10
870.0696652201
 20
307.8702403217
 11
869.4029987124
 21
307.8702403217
  0
LINE
  5
49A
100
AcDbEntity
  8
0
100
AcDbLine
 62
7
  6
CONTINUOUS
 10
865.4029987124
 20
307.8702403217
 11
864.4029987124
 21
307.8702403217
  0
LINE
  5
49B
100
AcDbEntity
  8
0
100
AcDbLine
 62
7
  6
CONTINUOUS
 10
849.0696654585
 20
307.9259062607
 11
850.0696654585
 21
307.9259062607
  0
LINE
  5
49C
100
AcDbEntity
  8
0
100
AcDbLine
 62
7
  6
CONTINUOUS
 10
870.0696652201
 20
308.2237937122
 11
869.4029987124
 21
308.2237937122
  0
LINE
  5
49D
100
AcDbEntity
  8
0
100
AcDbLine
 62
7
  6
CONTINUOUS
 10
865.4029987124
 20
308.2237937122
 11
864.4029987124
 21
308.2237937122
  0
LINE
  5
49E
100
AcDbEntity
  8
0
100
AcDbLine
 62
7
  6
CONTINUOUS
 10
849.9029987124
 20
308.2945043904
 11
849.0696654585
 21
308.2945043904
  0
LINE
  5
49F
100
AcDbEntity
  8
0
100
AcDbLine
 62
7
  6
CONTINUOUS
 10
849.9029987124
 20
308.648057781
 11
849.0696654585
 21
308.648057781
  0
LINE
  5
4A0
100
AcDbEntity
  8
0
100
AcDbLine
 62
7
  6
CONTINUOUS
 10
821.4029987124
 20
308.9309004934
 11
844.4029987124
 21
308.9309004934
  0
LINE
  5
4A1
100
AcDbEntity
  8
0
100
AcDbLine
 62
7
  6
CONTINUOUS
 10
844.4029987124
 20
309.284453884
 11
821.4029987124
 21
309.284453884
  0
LINE
  5
4A2
100
AcDbEntity
  8
0
100
AcDbLine
 62
7
  6
CONTINUOUS
 10
847.9029987124
 20
303.1115621287
 11
848.7363319663
 21
302.9912035315
  0
LINE
  5
4A3
100
AcDbEntity
  8
0
100
AcDbLine
 62
7
  6
CONTINUOUS
 10
868.5696652201
 20
302.68729806
 11
869.4029987124
 21
302.5669394628
  0
LINE
  5
4A4
100
AcDbEntity
  8
0
100
AcDbLine
 62
7
  6
CONTINUOUS
 10
850.9029987124
 20
305.7669737324
 11
850.0696654585
 21
305.8873323191
  0
LINE
  5
4A5
100
AcDbEntity
  8
0
100
AcDbLine
 62
7
  6
CONTINUOUS
 10
850.9029987124
 20
306.120527123
 11
850.0696654585
 21
306.2408857097
  0
LINE
  5
4A6
100
AcDbEntity
  8
0
100
AcDbLine
 62
7
  6
CONTINUOUS
 10
850.7363322047
 20
308.1741458037
 11
849.9029987124
 21
308.2945043904
  0
LINE
  5
4A7
100
AcDbEntity
  8
0
100
AcDbLine
 62
7
  6
CONTINUOUS
 10
850.7363322047
 20
308.5276991943
 11
849.9029987124
 21
308.648057781
  0
LINE
  5
4A8
100
AcDbEntity
  8
0
100
AcDbLine
 62
7
  6
CONTINUOUS
 10
871.0696652201
 20
305.7037854238
 11
870.2363322047
 21
305.8241440105
  0
LINE
  5
4A9
100
AcDbEntity
  8
0
100
AcDbLine
 62
7
  6
CONTINUOUS
 10
871.0696652201
 20
306.0573388144
 11
870.2363322047
 21
306.1776974011
  0
LINE
  5
4AA
100
AcDbEntity
  8
0
100
AcDbLine
 62
7
  6
CONTINUOUS
 10
870.9029987124
 20
307.7498817349
 11
870.0696652201
 21
307.8702403217
  0
LINE
  5
4AB
100
AcDbEntity
  8
0
100
AcDbLine
 62
7
  6
CONTINUOUS
 10
870.9029987124
 20
308.1034351255
 11
870.0696652201
 21
308.2237937122
  0
LINE
  5
4AC
100
AcDbEntity
  8
0
100
AcDbLine
 62
7
  6
CONTINUOUS
 10
848.7363319663
 20
303.3598017454
 11
848.0696653393
 21
303.4801603321
  0
LINE
  5
4AD
100
AcDbEntity
  8
0
100
AcDbLine
 62
7
  6
CONTINUOUS
 10
848.7363319663
 20
303.713355136
 11
848.0696653393
 21
303.8337137227
  0
LINE
  5
4AE
100
AcDbEntity
  8
0
100
AcDbLine
 62
7
  6
CONTINUOUS
 10
848.4029987124
 20
305.6390927762
 11
849.0696654585
 21
305.5187341894
  0
LINE
  5
4AF
100
AcDbEntity
  8
0
100
AcDbLine
 62
7
  6
CONTINUOUS
 10
850.0696654585
 20
305.5187341894
 11
850.7363322047
 21
305.3983756027
  0
LINE
  5
4B0
100
AcDbEntity
  8
0
100
AcDbLine
 62
7
  6
CONTINUOUS
 10
846.2613941472
 20
298.4301343521
 11
846.5261985426
 21
298.3770994971
  0
LINE
  5
4B1
100
AcDbEntity
  8
0
100
AcDbLine
 62
7
  6
CONTINUOUS
 10
846.0175481463
 20
297.1941977044
 11
846.3400075779
 21
297.1174952837
  0
LINE
  5
4B2
100
AcDbEntity
  8
0
100
AcDbLine
 62
7
  6
CONTINUOUS
 10
846.6971149065
 20
298.5852786407
 11
846.3746554778
 21
298.6619810651
  0
LINE
  5
4B3
100
AcDbEntity
  8
0
100
AcDbLine
 62
7
  6
CONTINUOUS
 10
849.0696654585
 20
305.8873323191
 11
848.5696654585
 21
306.0076909058
  0
LINE
  5
4B4
100
AcDbEntity
  8
0
100
AcDbLine
 62
7
  6
CONTINUOUS
 10
849.0696654585
 20
306.2408857097
 11
848.5696654585
 21
306.3612442964
  0
LINE
  5
4B5
100
AcDbEntity
  8
0
100
AcDbLine
 62
7
  6
CONTINUOUS
 10
869.2363322047
 20
302.81517909
 11
868.7363322047
 21
302.9355376767
  0
LINE
  5
4B6
100
AcDbEntity
  8
0
100
AcDbLine
 62
7
  6
CONTINUOUS
 10
869.2363322047
 20
303.1687324806
 11
868.7363322047
 21
303.2890910673
  0
LINE
  5
4B7
100
AcDbEntity
  8
0
100
AcDbLine
 62
7
  6
CONTINUOUS
 10
850.0696654585
 20
307.9259062607
 11
850.5696652201
 21
307.805547674
  0
LINE
  5
4B8
100
AcDbEntity
  8
0
100
AcDbLine
 62
7
  6
CONTINUOUS
 10
870.4029987124
 20
305.5759044676
 11
870.9029987124
 21
305.4555458809
  0
LINE
  5
4B9
100
AcDbEntity
  8
0
100
AcDbLine
 62
7
  6
CONTINUOUS
 10
876.9029987124
 20
305.9445025972
 11
876.4029987124
 21
306.0648611839
  0
LINE
  5
4BA
100
AcDbEntity
  8
0
100
AcDbLine
 62
7
  6
CONTINUOUS
 10
870.2363322047
 20
307.6220007787
 11
870.7363322047
 21
307.501642192
  0
LINE
  5
4BB
100
AcDbEntity
  8
0
100
AcDbLine
 62
7
  6
CONTINUOUS
 10
876.9029987124
 20
306.2980559878
 11
876.4029987124
 21
306.4184145745
  0
LINE
  5
4BC
100
AcDbEntity
  8
0
100
AcDbLine
 62
7
  6
CONTINUOUS
 10
879.5696647433
 20
305.9445025972
 11
879.069665697
 21
306.0648611839
  0
LINE
  5
4BD
100
AcDbEntity
  8
0
100
AcDbLine
 62
7
  6
CONTINUOUS
 10
879.5696647433
 20
306.2980559878
 11
879.069665697
 21
306.4184145745
  0
LINE
  5
4BE
100
AcDbEntity
  8
0
100
AcDbLine
 62
7
  6
CONTINUOUS
 10
884.4029987124
 20
305.9445025972
 11
883.9029987124
 21
306.0648611839
  0
LINE
  5
4BF
100
AcDbEntity
  8
0
100
AcDbLine
 62
7
  6
CONTINUOUS
 10
884.4029987124
 20
306.2980559878
 11
883.9029987124
 21
306.4184145745
  0
LINE
  5
4C0
100
AcDbEntity
  8
0
100
AcDbLine
 62
7
  6
CONTINUOUS
 10
887.0696647433
 20
305.9445025972
 11
886.5696647433
 21
306.0648611839
  0
LINE
  5
4C1
100
AcDbEntity
  8
0
100
AcDbLine
 62
7
  6
CONTINUOUS
 10
887.0696647433
 20
306.2980559878
 11
886.5696647433
 21
306.4184145745
  0
LINE
  5
4C2
100
AcDbEntity
  8
0
100
AcDbLine
 62
7
  6
CONTINUOUS
 10
843.3234454119
 20
298.1221501554
 11
843.6986713069
 21
298.0241564626
  0
LINE
  5
4C3
100
AcDbEntity
  8
0
100
AcDbLine
 62
7
  6
CONTINUOUS
 10
843.795220773
 20
298.6718300598
 11
843.642534572
 21
298.7117054653
  0
LINE
  5
4C4
100
AcDbEntity
  8
0
100
AcDbLine
 62
7
  6
CONTINUOUS
 10
842.1527845712
 20
299.146388208
 11
843.6536881515
 21
298.7544134366
  0
LINE
  5
4C5
100
AcDbEntity
  8
0
100
AcDbLine
 62
7
  6
CONTINUOUS
 10
844.0289140465
 20
298.6564197438
 11
844.6542904787
 21
298.493096938
  0
LINE
  5
4C6
100
AcDbEntity
  8
0
100
AcDbLine
 62
7
  6
CONTINUOUS
 10
844.7958231002
 20
298.7640669518
 11
844.1704466681
 21
298.9273897576
  0
LINE
  5
4C7
100
AcDbEntity
  8
0
100
AcDbLine
 62
7
  6
CONTINUOUS
 10
843.795220773
 20
299.0253834504
 11
842.7320807221
 21
299.3030322507
  0
LINE
  5
4C8
100
AcDbEntity
  8
0
100
AcDbLine
 62
7
  6
CONTINUOUS
 10
844.6448424169
 20
299.8356398924
 11
844.4321174875
 21
299.8911949638
  0
LINE
  5
4C9
100
AcDbEntity
  8
0
100
AcDbLine
 62
7
  6
CONTINUOUS
 10
844.8073433825
 20
300.1467546616
 11
844.4321174875
 21
300.2447483544
  0
LINE
  5
4CA
100
AcDbEntity
  8
0
100
AcDbLine
 62
7
  6
CONTINUOUS
 10
847.7363320855
 20
305.8798099496
 11
848.4029987124
 21
305.6390927762
  0
LINE
  5
4CB
100
AcDbEntity
  8
0
100
AcDbLine
 62
7
  6
CONTINUOUS
 10
851.5696652201
 20
305.526256559
 11
850.9029987124
 21
305.7669737324
  0
LINE
  5
4CC
100
AcDbEntity
  8
0
100
AcDbLine
 62
7
  6
CONTINUOUS
 10
851.5696652201
 20
305.8798099496
 11
850.9029987124
 21
306.120527123
  0
LINE
  5
4CD
100
AcDbEntity
  8
0
100
AcDbLine
 62
7
  6
CONTINUOUS
 10
876.069665697
 20
305.9369802277
 11
876.4029987124
 21
305.816621641
  0
LINE
  5
4CE
100
AcDbEntity
  8
0
100
AcDbLine
 62
7
  6
CONTINUOUS
 10
878.7363317278
 20
305.9369802277
 11
879.069665697
 21
305.816621641
  0
LINE
  5
4CF
100
AcDbEntity
  8
0
100
AcDbLine
 62
7
  6
CONTINUOUS
 10
883.5696647433
 20
305.9369802277
 11
883.9029987124
 21
305.816621641
  0
LINE
  5
4D0
100
AcDbEntity
  8
0
100
AcDbLine
 62
7
  6
CONTINUOUS
 10
886.2363326815
 20
305.9369802277
 11
886.5696647433
 21
305.816621641
  0
LINE
  5
4D1
100
AcDbEntity
  8
0
100
AcDbLine
 62
7
  6
CONTINUOUS
 10
845.6716166272
 20
297.3362036623
 11
846.0175481463
 21
297.1941977044
  0
LINE
  5
4D2
100
AcDbEntity
  8
0
100
AcDbLine
 62
7
  6
CONTINUOUS
 10
846.1884645341
 20
297.4023768772
 11
845.8425330151
 21
297.544382835
  0
LINE
  5
4D3
100
AcDbEntity
  8
0
100
AcDbLine
 62
7
  6
CONTINUOUS
 10
845.5414959513
 20
297.7040833038
 11
845.2169871509
 21
297.8372951694
  0
LINE
  5
4D4
100
AcDbEntity
  8
0
100
AcDbLine
 62
7
  6
CONTINUOUS
 10
845.56291867
 20
298.0488426021
 11
845.2169871509
 21
298.19084856
  0
LINE
  5
4D5
100
AcDbEntity
  8
0
100
AcDbLine
 62
7
  6
CONTINUOUS
 10
845.5246366539
 20
298.5655710768
 11
845.928223536
 21
298.3998974142
  0
LINE
  5
4D6
100
AcDbEntity
  8
0
100
AcDbLine
 62
7
  6
CONTINUOUS
 10
846.5261985426
 20
298.3770994971
 11
846.8721300616
 21
298.2350935392
  0
LINE
  5
4D7
100
AcDbEntity
  8
0
100
AcDbLine
 62
7
  6
CONTINUOUS
 10
847.0430464256
 20
298.4432726829
 11
846.6971149065
 21
298.5852786407
  0
LINE
  5
4D8
100
AcDbEntity
  8
0
100
AcDbLine
 62
7
  6
CONTINUOUS
 10
846.4845770503
 20
299.2653317068
 11
846.413401842
 21
299.2945493498
  0
LINE
  5
4D9
100
AcDbEntity
  8
0
100
AcDbLine
 62
7
  6
CONTINUOUS
 10
846.530761634
 20
299.3215853437
 11
848.2027641959
 21
298.6352231237
  0
LINE
  5
4DA
100
AcDbEntity
  8
0
100
AcDbLine
 62
7
  6
CONTINUOUS
 10
848.3736805599
 20
298.8434022674
 11
846.413401842
 21
299.6481027404
  0
LINE
  5
4DB
100
AcDbEntity
  8
0
100
AcDbLine
 62
7
  6
CONTINUOUS
 10
847.0696653989
 20
303.4726379204
 11
847.9029987124
 21
303.1115621287
  0
LINE
  5
4DC
100
AcDbEntity
  8
0
100
AcDbLine
 62
7
  6
CONTINUOUS
 10
867.7363322047
 20
303.0483738517
 11
868.5696652201
 21
302.68729806
  0
LINE
  5
4DD
100
AcDbEntity
  8
0
100
AcDbLine
 62
7
  6
CONTINUOUS
 10
871.9029987124
 20
305.3427096637
 11
871.0696652201
 21
305.7037854238
  0
LINE
  5
4DE
100
AcDbEntity
  8
0
100
AcDbLine
 62
7
  6
CONTINUOUS
 10
871.9029987124
 20
305.6962630543
 11
871.0696652201
 21
306.0573388144
  0
LINE
  5
4DF
100
AcDbEntity
  8
0
100
AcDbLine
 62
7
  6
CONTINUOUS
 10
871.7363317278
 20
307.3888059748
 11
870.9029987124
 21
307.7498817349
  0
LINE
  5
4E0
100
AcDbEntity
  8
0
100
AcDbLine
 62
7
  6
CONTINUOUS
 10
871.7363317278
 20
307.7423593654
 11
870.9029987124
 21
308.1034351255
  0
LINE
  5
4E1
100
AcDbEntity
  8
0
100
AcDbLine
 62
7
  6
CONTINUOUS
 10
869.5363320139
 20
279.6175631948
 11
869.9363321093
 21
279.4249894392
  0
LINE
  5
4E2
100
AcDbEntity
  8
0
100
AcDbLine
 62
7
  6
CONTINUOUS
 10
870.4696653155
 20
279.3602967073
 11
870.0696653155
 21
279.552870446
  0
LINE
  5
4E3
100
AcDbEntity
  8
0
100
AcDbLine
 62
7
  6
CONTINUOUS
 10
870.4696653155
 20
279.7138500979
 11
870.0696653155
 21
279.9064238366
  0
LINE
  5
4E4
100
AcDbEntity
  8
0
100
AcDbLine
 62
7
  6
CONTINUOUS
 10
848.5696654585
 20
306.0076909058
 11
848.0696653393
 21
306.2484080792
  0
LINE
  5
4E5
100
AcDbEntity
  8
0
100
AcDbLine
 62
7
  6
CONTINUOUS
 10
848.5696654585
 20
306.3612442964
 11
848.0696653393
 21
306.6019614698
  0
LINE
  5
4E6
100
AcDbEntity
  8
0
100
AcDbLine
 62
7
  6
CONTINUOUS
 10
850.7363322047
 20
305.3983756027
 11
851.2363322047
 21
305.1576584293
  0
LINE
  5
4E7
100
AcDbEntity
  8
0
100
AcDbLine
 62
7
  6
CONTINUOUS
 10
868.7363322047
 20
302.9355376767
 11
868.2363322047
 21
303.1762548501
  0
LINE
  5
4E8
100
AcDbEntity
  8
0
100
AcDbLine
 62
7
  6
CONTINUOUS
 10
868.7363322047
 20
303.2890910673
 11
868.2363322047
 21
303.5298082407
  0
LINE
  5
4E9
100
AcDbEntity
  8
0
100
AcDbLine
 62
7
  6
CONTINUOUS
 10
870.9029987124
 20
305.4555458809
 11
871.4029987124
 21
305.2148287074
  0
LINE
  5
4EA
100
AcDbEntity
  8
0
100
AcDbLine
 62
7
  6
CONTINUOUS
 10
851.4029987124
 20
307.8130700435
 11
850.7363322047
 21
308.1741458037
  0
LINE
  5
4EB
100
AcDbEntity
  8
0
100
AcDbLine
 62
7
  6
CONTINUOUS
 10
851.4029987124
 20
308.1666234341
 11
850.7363322047
 21
308.5276991943
  0
LINE
  5
4EC
100
AcDbEntity
  8
0
100
AcDbLine
 62
7
  6
CONTINUOUS
 10
845.4175237471
 20
297.4961777477
 11
845.6716166272
 21
297.3362036623
  0
LINE
  5
4ED
100
AcDbEntity
  8
0
100
AcDbLine
 62
7
  6
CONTINUOUS
 10
847.2971393087
 20
297.9297452105
 11
847.0983030313
 21
298.0549303416
  0
LINE
  5
4EE
100
AcDbEntity
  8
0
100
AcDbLine
 62
7
  6
CONTINUOUS
 10
847.2971393087
 20
298.2832986011
 11
847.0430464256
 21
298.4432726829
  0
LINE
  5
4EF
100
AcDbEntity
  8
0
100
AcDbLine
 62
7
  6
CONTINUOUS
 10
850.8670860942
 20
297.7405832603
 11
851.0127697769
 21
297.6436908855
  0
LINE
  5
4F0
100
AcDbEntity
  8
0
100
AcDbLine
 62
7
  6
CONTINUOUS
 10
851.4570279183
 20
297.7712611001
 11
851.4151921365
 21
297.7990855495
  0
LINE
  5
4F1
100
AcDbEntity
  8
0
100
AcDbLine
 62
7
  6
CONTINUOUS
 10
851.5608758192
 20
298.0557465653
 11
851.4151921365
 21
298.1526389401
  0
LINE
  5
4F2
100
AcDbEntity
  8
0
100
AcDbLine
 62
7
  6
CONTINUOUS
 10
845.8425330151
 20
297.544382835
 11
845.6460951652
 21
297.6806893475
  0
LINE
  5
4F3
100
AcDbEntity
  8
0
100
AcDbLine
 62
7
  6
CONTINUOUS
 10
846.8721300616
 20
298.2350935392
 11
847.0685679115
 21
298.0987870268
  0
LINE
  5
4F4
100
AcDbEntity
  8
0
100
AcDbLine
 62
7
  6
CONTINUOUS
 10
855.4029987124
 20
298.0314055568
 11
872.98878515
 21
285.5963767143
  0
LINE
  5
4F5
100
AcDbEntity
  8
0
100
AcDbLine
 62
7
  6
CONTINUOUS
 10
874.4029987124
 20
285.2428233237
 11
855.4029987124
 21
298.6778521662
  0
LINE
  5
4F6
100
AcDbEntity
  8
0
100
AcDbLine
 62
7
  6
CONTINUOUS
 10
874.4029987124
 20
285.5963767143
 11
855.4029987124
 21
299.0314055568
  0
LINE
  5
4F7
100
AcDbEntity
  8
0
100
AcDbLine
 62
7
  6
CONTINUOUS
 10
848.0696653393
 20
303.4801603321
 11
847.5696653393
 21
303.8412361765
  0
LINE
  5
4F8
100
AcDbEntity
  8
0
100
AcDbLine
 62
7
  6
CONTINUOUS
 10
848.0696653393
 20
303.8337137227
 11
847.5696653393
 21
304.1947895671
  0
LINE
  5
4F9
100
AcDbEntity
  8
0
100
AcDbLine
 62
7
  6
CONTINUOUS
 10
847.0696653989
 20
306.3612442964
 11
847.7363320855
 21
305.8798099496
  0
LINE
  5
4FA
100
AcDbEntity
  8
0
100
AcDbLine
 62
7
  6
CONTINUOUS
 10
851.2563261849
 20
266.6151809657
 11
851.3877252535
 21
266.508564164
  0
LINE
  5
4FB
100
AcDbEntity
  8
0
100
AcDbLine
 62
7
  6
CONTINUOUS
 10
851.9908409609
 20
266.8802168537
 11
851.8594418924
 21
266.9868336553
  0
LINE
  5
4FC
100
AcDbEntity
  8
RUNDUNGEN
100
AcDbLine
 62
7
  6
CONTINUOUS
 10
871.9505696132
 20
231.4400501675
 11
863.5945191553
 21
239.8784339612
  0
LINE
  5
4FD
100
AcDbEntity
  8
RUNDUNGEN
100
AcDbLine
 62
7
  6
CONTINUOUS
 10
825.8300416804
 20
278.0150101237
 11
785.024074386
 21
319.223044331
  0
LINE
  5
4FE
100
AcDbEntity
  8
RUNDUNGEN
100
AcDbLine
 62
7
  6
CONTINUOUS
 10
871.9505696132
 20
234.9755840734
 11
863.5945191553
 21
243.4139678672
  0
LINE
  5
4FF
100
AcDbEntity
  8
RUNDUNGEN
100
AcDbLine
 62
7
  6
CONTINUOUS
 10
825.8300416804
 20
281.5505440296
 11
785.024074386
 21
322.7585782369
  0
LINE
  5
500
100
AcDbEntity
  8
RUNDUNGEN
100
AcDbLine
 62
7
  6
CONTINUOUS
 10
812.6787794316
 20
317.3300432037
 11
799.9735991943
 21
330.1604093619
  0
LINE
  5
501
100
AcDbEntity
  8
0
100
AcDbLine
 62
7
  6
CONTINUOUS
 10
842.991138912
 20
267.8923616771
 11
843.2111662395
 21
267.6638673341
  0
LINE
  5
502
100
AcDbEntity
  8
0
100
AcDbLine
 62
7
  6
CONTINUOUS
 10
845.125950586
 20
268.0204607522
 11
844.9059233816
 21
268.2489550422
  0
LINE
  5
503
100
AcDbEntity
  8
0
100
AcDbLine
 62
7
  6
CONTINUOUS
 10
845.125950586
 20
268.3740141428
 11
844.9059233816
 21
268.6025084328
  0
LINE
  5
504
100
AcDbEntity
  8
0
100
AcDbLine
 62
7
  6
CONTINUOUS
 10
845.5405579883
 20
268.7860416998
 11
845.3205306099
 21
269.0145360452
  0
LINE
  5
505
100
AcDbEntity
  8
0
100
AcDbLine
 62
7
  6
CONTINUOUS
 10
845.5405579883
 20
269.1395950904
 11
845.3205306099
 21
269.3680894358
  0
LINE
  5
506
100
AcDbEntity
  8
0
100
AcDbLine
 62
7
  6
CONTINUOUS
 10
843.3323366188
 20
267.6020851783
 11
843.2853476209
 21
267.6563041125
  0
LINE
  5
507
100
AcDbEntity
  8
0
100
AcDbLine
 62
7
  6
CONTINUOUS
 10
843.411771175
 20
267.8639818585
 11
843.2853476209
 21
268.0098575031
  0
LINE
  5
508
100
AcDbEntity
  8
0
100
AcDbLine
 62
7
  6
CONTINUOUS
 10
844.7053183328
 20
268.4023939768
 11
844.8317418869
 21
268.2565183322
  0
LINE
  5
509
100
AcDbEntity
  8
0
100
AcDbLine
 62
7
  6
CONTINUOUS
 10
845.1199257351
 20
269.1679749244
 11
845.2463492891
 21
269.0220992798
  0
LINE
  5
50A
100
AcDbEntity
  8
RUNDUNGEN
100
AcDbLine
 62
7
  6
CONTINUOUS
 10
914.0101446561
 20
140.45112496
 11
919.2655303179
 21
132.9456564024
  0
LINE
  5
50B
100
AcDbEntity
  8
KONSTRUKTIONSELEMENTE
100
AcDbLine
 62
7
  6
CONTINUOUS
 10
761.2029987124
 20
296.0883136469
 11
761.2029987124
 21
256.4883136469
  0
LINE
  5
50C
100
AcDbEntity
  8
KONSTRUKTIONSELEMENTE
100
AcDbLine
 62
7
  6
CONTINUOUS
 10
766.7029987124
 20
253.7383136469
 11
766.7029987124
 21
298.8383136469
  0
LINE
  5
50D
100
AcDbEntity
  8
KONSTRUKTIONSELEMENTE
100
AcDbLine
 62
7
  6
CONTINUOUS
 10
771.1029987124
 20
253.7383136469
 11
771.1029987124
 21
298.8383136469
  0
LINE
  5
50E
100
AcDbEntity
  8
KONSTRUKTIONSELEMENTE
100
AcDbLine
 62
7
  6
CONTINUOUS
 10
774.4029987124
 20
246.0383136469
 11
774.4029987124
 21
306.5383136469
  0
LINE
  5
50F
100
AcDbEntity
  8
BEZUGSACHSEN
100
AcDbLine
 62
7
  6
CONTINUOUS
 10
837.9029987124
 20
332.2883136469
 11
850.381248901
 21
332.2883136469
  0
LINE
  5
510
100
AcDbEntity
  8
BEZUGSACHSEN
100
AcDbLine
 62
7
  6
CONTINUOUS
 10
860.4242809566
 20
332.2883136469
 11
872.9029987124
 21
332.2883136469
  0
LINE
  5
511
100
AcDbEntity
  8
0
100
AcDbLine
 62
7
  6
CONTINUOUS
 10
870.7363322047
 20
307.501642192
 11
871.2363322047
 21
307.2609250186
  0
LINE
  5
512
100
AcDbEntity
  8
RUNDUNGEN
100
AcDbLine
 62
7
  6
CONTINUOUS
 10
906.1826039757
 20
306.0481519667
 11
900.8581156878
 21
308.6844205866
  0
LINE
  5
513
100
AcDbEntity
  8
RUNDUNGEN
100
AcDbLine
 62
7
  6
CONTINUOUS
 10
869.1688331848
 20
324.7622181643
 11
875.7220495391
 21
321.5175798629
  0
LINE
  5
514
100
AcDbEntity
  8
RUNDUNGEN
100
AcDbLine
 62
7
  6
CONTINUOUS
 10
909.8059080949
 20
314.1848429399
 11
915.1303963828
 21
311.54857432
  0
LINE
  5
515
100
AcDbEntity
  8
0
100
AcDbLine
 62
7
  6
CONTINUOUS
 10
852.2363322047
 20
305.0448222121
 11
851.5696652201
 21
305.526256559
  0
LINE
  5
516
100
AcDbEntity
  8
0
100
AcDbLine
 62
7
  6
CONTINUOUS
 10
852.2363322047
 20
305.3983756027
 11
851.5696652201
 21
305.8798099496
  0
LINE
  5
517
100
AcDbEntity
  8
0
100
AcDbLine
 62
7
  6
CONTINUOUS
 10
850.5696652201
 20
307.805547674
 11
850.9029987124
 21
307.5648305006
  0
LINE
  5
518
100
AcDbEntity
  8
0
100
AcDbLine
 62
7
  6
CONTINUOUS
 10
871.4029987124
 20
305.2148287074
 11
871.7363317278
 21
304.974111534
  0
LINE
  5
519
100
AcDbEntity
  8
0
100
AcDbLine
 62
7
  6
CONTINUOUS
 10
872.4029987124
 20
304.9816339036
 11
871.9029987124
 21
305.3427096637
  0
LINE
  5
51A
100
AcDbEntity
  8
0
100
AcDbLine
 62
7
  6
CONTINUOUS
 10
872.4029987124
 20
305.3351872941
 11
871.9029987124
 21
305.6962630543
  0
LINE
  5
51B
100
AcDbEntity
  8
0
100
AcDbLine
 62
7
  6
CONTINUOUS
 10
876.4029987124
 20
305.816621641
 11
876.569665697
 21
305.6962630543
  0
LINE
  5
51C
100
AcDbEntity
  8
0
100
AcDbLine
 62
7
  6
CONTINUOUS
 10
877.4029987124
 20
305.5834268371
 11
876.9029987124
 21
305.9445025972
  0
LINE
  5
51D
100
AcDbEntity
  8
0
100
AcDbLine
 62
7
  6
CONTINUOUS
 10
877.4029987124
 20
305.9369802277
 11
876.9029987124
 21
306.2980559878
  0
LINE
  5
51E
100
AcDbEntity
  8
0
100
AcDbLine
 62
7
  6
CONTINUOUS
 10
879.069665697
 20
305.816621641
 11
879.2363317278
 21
305.6962630543
  0
LINE
  5
51F
100
AcDbEntity
  8
0
100
AcDbLine
 62
7
  6
CONTINUOUS
 10
879.9029987124
 20
305.7037854238
 11
879.5696647433
 21
305.9445025972
  0
LINE
  5
520
100
AcDbEntity
  8
0
100
AcDbLine
 62
7
  6
CONTINUOUS
 10
879.9029987124
 20
306.0573388144
 11
879.5696647433
 21
306.2980559878
  0
LINE
  5
521
100
AcDbEntity
  8
0
100
AcDbLine
 62
7
  6
CONTINUOUS
 10
883.9029987124
 20
305.816621641
 11
884.0696647433
 21
305.6962630543
  0
LINE
  5
522
100
AcDbEntity
  8
0
100
AcDbLine
 62
7
  6
CONTINUOUS
 10
884.9029987124
 20
305.5834268371
 11
884.4029987124
 21
305.9445025972
  0
LINE
  5
523
100
AcDbEntity
  8
0
100
AcDbLine
 62
7
  6
CONTINUOUS
 10
884.9029987124
 20
305.9369802277
 11
884.4029987124
 21
306.2980559878
  0
LINE
  5
524
100
AcDbEntity
  8
0
100
AcDbLine
 62
7
  6
CONTINUOUS
 10
886.5696647433
 20
305.816621641
 11
886.7363326815
 21
305.6962630543
  0
LINE
  5
525
100
AcDbEntity
  8
0
100
AcDbLine
 62
7
  6
CONTINUOUS
 10
887.4029987124
 20
305.7037854238
 11
887.0696647433
 21
305.9445025972
  0
LINE
  5
526
100
AcDbEntity
  8
0
100
AcDbLine
 62
7
  6
CONTINUOUS
 10
887.4029987124
 20
306.0573388144
 11
887.0696647433
 21
306.2980559878
  0
LINE
  5
527
100
AcDbEntity
  8
0
100
AcDbLine
 62
7
  6
CONTINUOUS
 10
851.9029987124
 20
307.3316356967
 11
851.4029987124
 21
307.8130700435
  0
LINE
  5
528
100
AcDbEntity
  8
0
100
AcDbLine
 62
7
  6
CONTINUOUS
 10
851.9029987124
 20
307.6851890873
 11
851.4029987124
 21
308.1666234341
  0
LINE
  5
529
100
AcDbEntity
  8
0
100
AcDbLine
 62
7
  6
CONTINUOUS
 10
867.2363319663
 20
303.5298082407
 11
867.7363322047
 21
303.0483738517
  0
LINE
  5
52A
100
AcDbEntity
  8
RUNDUNGEN
100
AcDbLine
 62
7
  6
CONTINUOUS
 10
884.9759557444
 20
261.271554646
 11
908.4562150667
 21
237.5599410389
  0
LINE
  5
52B
100
AcDbEntity
  8
0
100
AcDbLine
 62
7
  6
CONTINUOUS
 10
851.2363322047
 20
305.1576584293
 11
851.5696652201
 21
304.7965825006
  0
LINE
  5
52C
100
AcDbEntity
  8
0
100
AcDbLine
 62
7
  6
CONTINUOUS
 10
846.569665384
 20
304.0744309804
 11
847.0696653989
 21
303.4726379204
  0
LINE
  5
52D
100
AcDbEntity
  8
0
100
AcDbLine
 62
7
  6
CONTINUOUS
 10
845.2317970886
 20
297.7394236333
 11
845.4175237471
 21
297.4961777477
  0
LINE
  5
52E
100
AcDbEntity
  8
0
100
AcDbLine
 62
7
  6
CONTINUOUS
 10
847.4828659761
 20
297.6864993358
 11
847.2971393087
 21
297.9297452105
  0
LINE
  5
52F
100
AcDbEntity
  8
0
100
AcDbLine
 62
7
  6
CONTINUOUS
 10
847.4828659761
 20
298.0400527264
 11
847.2971393087
 21
298.2832986011
  0
LINE
  5
530
100
AcDbEntity
  8
0
100
AcDbLine
 62
7
  6
CONTINUOUS
 10
869.2696654109
 20
251.0113326773
 11
869.5363320139
 21
250.6261851661
  0
LINE
  5
531
100
AcDbEntity
  8
0
100
AcDbLine
 62
7
  6
CONTINUOUS
 10
845.6163600963
 20
297.370992567
 11
845.5414959513
 21
297.4814105933
  0
LINE
  5
532
100
AcDbEntity
  8
0
100
AcDbLine
 62
7
  6
CONTINUOUS
 10
845.6460951652
 20
297.6806893475
 11
845.5414959513
 21
297.8349639839
  0
LINE
  5
533
100
AcDbEntity
  8
0
100
AcDbLine
 62
7
  6
CONTINUOUS
 10
847.0685679115
 20
298.0987870268
 11
847.1731671255
 21
297.9445123904
  0
LINE
  5
534
100
AcDbEntity
  8
0
100
AcDbLine
 62
7
  6
CONTINUOUS
 10
845.7112725923
 20
266.9203271403
 11
845.8700124069
 21
266.6677079305
  0
LINE
  5
535
100
AcDbEntity
  8
0
100
AcDbLine
 62
7
  6
CONTINUOUS
 10
848.4250336723
 20
267.525244481
 11
848.2662935333
 21
267.7778638334
  0
LINE
  5
536
100
AcDbEntity
  8
0
100
AcDbLine
 62
7
  6
CONTINUOUS
 10
848.4250336723
 20
267.8787978716
 11
848.2662935333
 21
268.131417224
  0
LINE
  5
537
100
AcDbEntity
  8
0
100
AcDbLine
 62
7
  6
CONTINUOUS
 10
846.1078400879
 20
266.5041451742
 11
846.0304393505
 21
266.6452016885
  0
LINE
  5
538
100
AcDbEntity
  8
0
100
AcDbLine
 62
7
  6
CONTINUOUS
 10
846.1179618328
 20
266.8392525125
 11
846.0304393505
 21
266.9987550791
  0
LINE
  5
539
100
AcDbEntity
  8
0
100
AcDbLine
 62
7
  6
CONTINUOUS
 10
848.0183444453
 20
267.9598725134
 11
848.1058669276
 21
267.8003699468
  0
LINE
  5
53A
100
AcDbEntity
  8
0
100
AcDbLine
 62
7
  6
CONTINUOUS
 10
844.8317418869
 20
268.2565183322
 11
844.8973815203
 21
268.1300043889
  0
LINE
  5
53B
100
AcDbEntity
  8
0
100
AcDbLine
 62
7
  6
CONTINUOUS
 10
845.1815588323
 20
267.9132812429
 11
845.125950586
 21
268.0204607522
  0
LINE
  5
53C
100
AcDbEntity
  8
0
100
AcDbLine
 62
7
  6
CONTINUOUS
 10
845.2244099493
 20
268.1842432556
 11
845.125950586
 21
268.3740141428
  0
LINE
  5
53D
100
AcDbEntity
  8
RUNDUNGEN
100
AcDbLine
 62
7
  6
CONTINUOUS
 10
784.5719544968
 20
320.2369938001
 11
784.5719544968
 21
323.7725277061
  0
LINE
  5
53E
100
AcDbEntity
  8
0
100
AcDbLine
 62
7
  6
CONTINUOUS
 10
790.5558738714
 20
135.6549531589
 11
790.5558738714
 21
128.3574782006
  0
LINE
  5
53F
100
AcDbEntity
  8
BEZUGSACHSEN
100
AcDbLine
 62
7
  6
CONTINUOUS
 10
790.5558738714
 20
135.6549531589
 11
790.5558738714
 21
128.3574782006
  0
LINE
  5
540
100
AcDbEntity
  8
0
100
AcDbLine
 62
7
  6
CONTINUOUS
 10
790.5558738714
 20
115.2191490933
 11
790.5558738714
 21
113.7537016793
  0
LINE
  5
541
100
AcDbEntity
  8
BEZUGSACHSEN
100
AcDbLine
 62
7
  6
CONTINUOUS
 10
790.5558738714
 20
115.2191490933
 11
790.5558738714
 21
113.7537016793
  0
LINE
  5
542
100
AcDbEntity
  8
BEZUGSACHSEN
100
AcDbLine
 62
7
  6
CONTINUOUS
 10
796.4029987124
 20
395.6383136469
 11
796.4029987124
 21
392.3383136469
  0
LINE
  5
543
100
AcDbEntity
  8
KONSTRUKTIONSELEMENTE
100
AcDbLine
 62
7
  6
CONTINUOUS
 10
796.4029987124
 20
236.6883136515
 11
796.4029987124
 21
307.732001869
  0
LINE
  5
544
100
AcDbEntity
  8
KONSTRUKTIONSELEMENTE
100
AcDbLine
 62
7
  6
CONTINUOUS
 10
796.4029987124
 20
330.5505732758
 11
796.4029987124
 21
392.3383136469
  0
LINE
  5
545
100
AcDbEntity
  8
RUNDUNGEN
100
AcDbLine
 62
7
  6
CONTINUOUS
 10
800.9029987124
 20
221.2496596263
 11
800.9029987124
 21
234.3153027375
  0
LINE
  5
546
100
AcDbEntity
  8
RUNDUNGEN
100
AcDbLine
 62
7
  6
CONTINUOUS
 10
909.8059080949
 20
317.7203768459
 11
915.1303963828
 21
315.084108226
  0
LINE
  5
547
100
AcDbEntity
  8
RUNDUNGEN
100
AcDbLine
 62
7
  6
CONTINUOUS
 10
919.0243436868
 20
328.262446027
 11
920.6626477753
 21
327.4512864516
  0
LINE
  5
548
100
AcDbEntity
  8
0
100
AcDbLine
 62
7
  6
CONTINUOUS
 10
872.2363317278
 20
306.907371628
 11
871.7363317278
 21
307.3888059748
  0
LINE
  5
549
100
AcDbEntity
  8
0
100
AcDbLine
 62
7
  6
CONTINUOUS
 10
872.2363317278
 20
307.2609250186
 11
871.7363317278
 21
307.7423593654
  0
LINE
  5
54A
100
AcDbEntity
  8
0
100
AcDbLine
 62
7
  6
CONTINUOUS
 10
868.2363322047
 20
303.1762548501
 11
867.9029987124
 21
303.5373306945
  0
LINE
  5
54B
100
AcDbEntity
  8
0
100
AcDbLine
 62
7
  6
CONTINUOUS
 10
868.2363322047
 20
303.5298082407
 11
867.9029987124
 21
303.8908840851
  0
LINE
  5
54C
100
AcDbEntity
  8
0
100
AcDbLine
 62
7
  6
CONTINUOUS
 10
871.2363322047
 20
307.2609250186
 11
871.569665697
 21
306.8998492585
  0
LINE
  5
54D
100
AcDbEntity
  8
0
100
AcDbLine
 62
7
  6
CONTINUOUS
 10
869.2696654109
 20
280.0027107059
 11
869.5363320139
 21
279.6175631948
  0
LINE
  5
54E
100
AcDbEntity
  8
0
100
AcDbLine
 62
7
  6
CONTINUOUS
 10
852.5696652201
 20
304.5633876967
 11
852.2363322047
 21
305.0448222121
  0
LINE
  5
54F
100
AcDbEntity
  8
0
100
AcDbLine
 62
7
  6
CONTINUOUS
 10
852.5696652201
 20
304.9169410873
 11
852.2363322047
 21
305.3983756027
  0
LINE
  5
550
100
AcDbEntity
  8
0
100
AcDbLine
 62
7
  6
CONTINUOUS
 10
850.9029987124
 20
307.5648305006
 11
851.0696652201
 21
307.3241133272
  0
LINE
  5
551
100
AcDbEntity
  8
0
100
AcDbLine
 62
7
  6
CONTINUOUS
 10
876.569665697
 20
305.6962630543
 11
876.7363317278
 21
305.4555458809
  0
LINE
  5
552
100
AcDbEntity
  8
0
100
AcDbLine
 62
7
  6
CONTINUOUS
 10
870.0696653155
 20
250.5614924173
 11
869.9363321093
 21
250.8503530929
  0
LINE
  5
553
100
AcDbEntity
  8
0
100
AcDbLine
 62
7
  6
CONTINUOUS
 10
870.0696653155
 20
250.9150458079
 11
869.9363321093
 21
251.2039064835
  0
LINE
  5
554
100
AcDbEntity
  8
0
100
AcDbLine
 62
7
  6
CONTINUOUS
 10
847.5696653393
 20
303.8412361765
 11
847.4029987124
 21
304.2023119366
  0
LINE
  5
555
100
AcDbEntity
  8
0
100
AcDbLine
 62
7
  6
CONTINUOUS
 10
847.5696653393
 20
304.1947895671
 11
847.4029987124
 21
304.5558653272
  0
LINE
  5
556
100
AcDbEntity
  8
0
100
AcDbLine
 62
7
  6
CONTINUOUS
 10
848.0696653393
 20
306.2484080792
 11
847.9029987124
 21
306.6094838393
  0
LINE
  5
557
100
AcDbEntity
  8
0
100
AcDbLine
 62
7
  6
CONTINUOUS
 10
848.0696653393
 20
306.6019614698
 11
847.9029987124
 21
306.9630372299
  0
LINE
  5
558
100
AcDbEntity
  8
0
100
AcDbLine
 62
7
  6
CONTINUOUS
 10
852.0696652201
 20
307.3241133272
 11
851.9029987124
 21
307.6851890873
  0
LINE
  5
559
100
AcDbEntity
  8
0
100
AcDbLine
 62
7
  6
CONTINUOUS
 10
842.9206437494
 20
268.1260278222
 11
842.991138912
 21
267.8923616771
  0
LINE
  5
55A
100
AcDbEntity
  8
0
100
AcDbLine
 62
7
  6
CONTINUOUS
 10
845.6110531606
 20
268.9059289607
 11
845.5405579883
 21
269.1395950904
  0
LINE
  5
55B
100
AcDbEntity
  8
RUNDUNGEN
100
AcDbLine
 62
7
  6
CONTINUOUS
 10
809.7083967896
 20
136.9414278423
 11
809.7083967896
 21
104.3731440062
  0
LINE
  5
55C
100
AcDbEntity
  8
BEZUGSACHSEN
100
AcDbLine
 62
7
  6
CONTINUOUS
 10
809.7083967896
 20
136.9414278423
 11
809.7083967896
 21
104.3731440062
  0
LINE
  5
55D
100
AcDbEntity
  8
0
100
AcDbLine
 62
7
  6
CONTINUOUS
 10
810.0854149573
 20
111.1182559786
 11
810.0854149573
 21
117.9692059647
  0
LINE
  5
55E
100
AcDbEntity
  8
BEZUGSACHSEN
100
AcDbLine
 62
7
  6
CONTINUOUS
 10
810.0854149573
 20
110.1627225469
 11
810.0854149573
 21
117.9692059647
  0
LINE
  5
55F
100
AcDbEntity
  8
0
100
AcDbLine
 62
7
  6
CONTINUOUS
 10
810.0854149573
 20
125.6074213292
 11
810.0854149573
 21
134.4552091505
  0
LINE
  5
560
100
AcDbEntity
  8
BEZUGSACHSEN
100
AcDbLine
 62
7
  6
CONTINUOUS
 10
810.0854149573
 20
125.6074213292
 11
810.0854149573
 21
134.4552602672
  0
LINE
  5
561
100
AcDbEntity
  8
RUNDUNGEN
100
AcDbLine
 62
7
  6
CONTINUOUS
 10
810.0854149573
 20
134.4552091505
 11
810.0854149573
 21
135.4333057704
  0
LINE
  5
562
100
AcDbEntity
  8
RUNDUNGEN
100
AcDbLine
 62
7
  6
CONTINUOUS
 10
813.2529987124
 20
216.1584908018
 11
813.2529987124
 21
226.9065138758
  0
LINE
  5
563
100
AcDbEntity
  8
0
100
AcDbLine
 62
7
  6
CONTINUOUS
 10
821.4029987124
 20
309.284453884
 11
821.4029987124
 21
301.506279291
  0
LINE
  5
564
100
AcDbEntity
  8
0
100
AcDbLine
 62
7
  6
CONTINUOUS
 10
821.9029987124
 20
301.506279291
 11
821.9029987124
 21
308.9309004934
  0
LINE
  5
565
100
AcDbEntity
  8
BEZUGSACHSEN
100
AcDbLine
 62
7
  6
CONTINUOUS
 10
829.4029987124
 20
392.3383136469
 11
829.4029987124
 21
337.8884498632
  0
LINE
  5
566
100
AcDbEntity
  8
KONSTRUKTIONSELEMENTE
100
AcDbLine
 62
7
  6
CONTINUOUS
 10
829.4029987124
 20
392.3383136469
 11
829.4029987124
 21
318.7048197953
  0
LINE
  5
567
100
AcDbEntity
  8
KONSTRUKTIONSELEMENTE
100
AcDbLine
 62
7
  6
CONTINUOUS
 10
829.4029987124
 20
272.6525875919
 11
829.4029987124
 21
266.6339674742
  0
LINE
  5
568
100
AcDbEntity
  8
RUNDUNGEN
100
AcDbLine
 62
7
  6
CONTINUOUS
 10
830.5197996455
 20
100.9401512939
 11
830.5197996455
 21
92.5764574332
  0
LINE
  5
569
100
AcDbEntity
  8
RUNDUNGEN
100
AcDbLine
 62
7
  6
CONTINUOUS
 10
830.5952032791
 20
135.4333057897
 11
830.5952032791
 21
134.4552572955
  0
LINE
  5
56A
100
AcDbEntity
  8
BEZUGSACHSEN
100
AcDbLine
 62
7
  6
CONTINUOUS
 10
830.5952032791
 20
106.3032918634
 11
830.5952032791
 21
117.9692059647
  0
LINE
  5
56B
100
AcDbEntity
  8
BEZUGSACHSEN
100
AcDbLine
 62
7
  6
CONTINUOUS
 10
830.5952032791
 20
125.6074213292
 11
830.5952032791
 21
134.4552572955
  0
LINE
  5
56C
100
AcDbEntity
  8
RUNDUNGEN
100
AcDbLine
 62
7
  6
CONTINUOUS
 10
830.8214141797
 20
104.3731440062
 11
830.8214141797
 21
136.9414278423
  0
LINE
  5
56D
100
AcDbEntity
  8
BEZUGSACHSEN
100
AcDbLine
 62
7
  6
CONTINUOUS
 10
830.8214141797
 20
104.3731440062
 11
830.8214141797
 21
136.9414278423
  0
LINE
  5
56E
100
AcDbEntity
  8
KONSTRUKTIONSELEMENTE
100
AcDbLine
 62
7
  6
CONTINUOUS
 10
897.6029987124
 20
392.3383136469
 11
881.1037319448
 21
392.3383136469
  0
LINE
  5
56F
100
AcDbEntity
  8
KONSTRUKTIONSELEMENTE
100
AcDbLine
 62
7
  6
CONTINUOUS
 10
829.4022654801
 20
392.3383136469
 11
812.9029987124
 21
392.3383136469
  0
LINE
  5
570
100
AcDbEntity
  8
0
100
AcDbLine
 62
7
  6
CONTINUOUS
 10
879.2363317278
 20
305.6962630543
 11
879.4029987124
 21
305.4555458809
  0
LINE
  5
571
100
AcDbEntity
  8
0
100
AcDbLine
 62
7
  6
CONTINUOUS
 10
884.0696647433
 20
305.6962630543
 11
884.2363326815
 21
305.4555458809
  0
LINE
  5
572
100
AcDbEntity
  8
0
100
AcDbLine
 62
7
  6
CONTINUOUS
 10
886.7363326815
 20
305.6962630543
 11
886.9029987124
 21
305.4555458809
  0
LINE
  5
573
100
AcDbEntity
  8
0
100
AcDbLine
 62
7
  6
CONTINUOUS
 10
866.9029987124
 20
304.1316012585
 11
867.2363319663
 21
303.5298082407
  0
LINE
  5
574
100
AcDbEntity
  8
0
100
AcDbLine
 62
7
  6
CONTINUOUS
 10
872.7363317278
 20
304.37984097
 11
872.4029987124
 21
304.9816339036
  0
LINE
  5
575
100
AcDbEntity
  8
0
100
AcDbLine
 62
7
  6
CONTINUOUS
 10
872.7363317278
 20
304.7333943606
 11
872.4029987124
 21
305.3351872941
  0
LINE
  5
576
100
AcDbEntity
  8
0
100
AcDbLine
 62
7
  6
CONTINUOUS
 10
880.2363326815
 20
305.1019924903
 11
879.9029987124
 21
305.7037854238
  0
LINE
  5
577
100
AcDbEntity
  8
0
100
AcDbLine
 62
7
  6
CONTINUOUS
 10
880.2363326815
 20
305.4555458809
 11
879.9029987124
 21
306.0573388144
  0
LINE
  5
578
100
AcDbEntity
  8
0
100
AcDbLine
 62
7
  6
CONTINUOUS
 10
887.7363326815
 20
305.1019924903
 11
887.4029987124
 21
305.7037854238
  0
LINE
  5
579
100
AcDbEntity
  8
0
100
AcDbLine
 62
7
  6
CONTINUOUS
 10
887.7363326815
 20
305.4555458809
 11
887.4029987124
 21
306.0573388144
  0
LINE
  5
57A
100
AcDbEntity
  8
0
100
AcDbLine
 62
7
  6
CONTINUOUS
 10
870.0696653155
 20
279.552870446
 11
869.9363321093
 21
279.8417311215
  0
LINE
  5
57B
100
AcDbEntity
  8
0
100
AcDbLine
 62
7
  6
CONTINUOUS
 10
870.0696653155
 20
279.9064238366
 11
869.9363321093
 21
280.1952845121
  0
LINE
  5
57C
100
AcDbEntity
  8
0
100
AcDbLine
 62
7
  6
CONTINUOUS
 10
867.9029987124
 20
303.5373306945
 11
867.7363322047
 21
303.8984064546
  0
LINE
  5
57D
100
AcDbEntity
  8
0
100
AcDbLine
 62
7
  6
CONTINUOUS
 10
867.9029987124
 20
303.8908840851
 11
867.7363322047
 21
304.2519598452
  0
LINE
  5
57E
100
AcDbEntity
  8
0
100
AcDbLine
 62
7
  6
CONTINUOUS
 10
871.7363317278
 20
304.974111534
 11
871.9029987124
 21
304.6130356053
  0
LINE
  5
57F
100
AcDbEntity
  8
0
100
AcDbLine
 62
7
  6
CONTINUOUS
 10
872.4029987124
 20
306.8998492585
 11
872.2363317278
 21
307.2609250186
  0
LINE
  5
580
100
AcDbEntity
  8
0
100
AcDbLine
 62
7
  6
CONTINUOUS
 10
846.4029987124
 20
304.5558653272
 11
846.569665384
 21
304.0744309804
  0
LINE
  5
581
100
AcDbEntity
  8
0
100
AcDbLine
 62
7
  6
CONTINUOUS
 10
846.9029987124
 20
306.8426786432
 11
847.0696653989
 21
306.3612442964
  0
LINE
  5
582
100
AcDbEntity
  8
0
100
AcDbLine
 62
7
  6
CONTINUOUS
 10
845.6623575005
 20
267.1194848028
 11
845.7112725923
 21
266.9203271403
  0
LINE
  5
583
100
AcDbEntity
  8
0
100
AcDbLine
 62
7
  6
CONTINUOUS
 10
848.4739487776
 20
267.6796402231
 11
848.4250336723
 21
267.8787978716
  0
LINE
  5
584
100
AcDbEntity
  8
0
100
AcDbLine
 62
7
  6
CONTINUOUS
 10
843.2853476209
 20
267.6563041125
 11
843.2476722414
 21
267.8267133152
  0
LINE
  5
585
100
AcDbEntity
  8
0
100
AcDbLine
 62
7
  6
CONTINUOUS
 10
843.2853476209
 20
268.0098575031
 11
843.2476722414
 21
268.1802667058
  0
LINE
  5
586
100
AcDbEntity
  8
0
100
AcDbLine
 62
7
  6
CONTINUOUS
 10
845.2463492891
 20
269.0220992798
 11
845.2840247317
 21
268.851690094
  0
LINE
  5
587
100
AcDbEntity
  8
0
100
AcDbLine
 62
7
  6
CONTINUOUS
 10
845.1955644322
 20
297.9769699417
 11
845.2317970886
 21
297.7394236333
  0
LINE
  5
588
100
AcDbEntity
  8
0
100
AcDbLine
 62
7
  6
CONTINUOUS
 10
847.5190986445
 20
297.8025064325
 11
847.4828659761
 21
298.0400527264
  0
LINE
  5
589
100
AcDbEntity
  8
0
100
AcDbLine
 62
7
  6
CONTINUOUS
 10
847.1731671255
 20
297.9445123904
 11
847.1859277035
 21
297.7722696301
  0
LINE
  5
58A
100
AcDbEntity
  8
0
100
AcDbLine
 62
7
  6
CONTINUOUS
 10
832.4029987124
 20
791.6383136469
 11
832.4029987124
 21
403.3201821665
  0
LINE
  5
58B
100
AcDbEntity
  8
0
100
AcDbLine
 62
7
  6
CONTINUOUS
 10
836.4029987124
 20
248.473270702
 11
836.4029987124
 21
268.9793673564
  0
LINE
  5
58C
100
AcDbEntity
  8
0
100
AcDbLine
 62
7
  6
CONTINUOUS
 10
836.4029987124
 20
277.8182021212
 11
836.4029987124
 21
299.1728269131
  0
LINE
  5
58D
100
AcDbEntity
  8
0
100
AcDbLine
 62
7
  6
CONTINUOUS
 10
836.9029987124
 20
248.473270702
 11
836.9029987124
 21
255.8978919044
  0
LINE
  5
58E
100
AcDbEntity
  8
0
100
AcDbLine
 62
7
  6
CONTINUOUS
 10
836.9029987124
 20
256.6049986856
 11
836.9029987124
 21
268.9793673564
  0
LINE
  5
58F
100
AcDbEntity
  8
0
100
AcDbLine
 62
7
  6
CONTINUOUS
 10
836.9029987124
 20
277.8182021212
 11
836.9029987124
 21
285.2428233237
  0
LINE
  5
590
100
AcDbEntity
  8
0
100
AcDbLine
 62
7
  6
CONTINUOUS
 10
836.9029987124
 20
286.020640783
 11
836.9029987124
 21
299.1728269131
  0
LINE
  5
591
100
AcDbEntity
  8
0
100
AcDbLine
 62
7
  6
CONTINUOUS
 10
837.1844202481
 20
256.251445295
 11
837.1844202481
 21
255.8978919044
  0
LINE
  5
592
100
AcDbEntity
  8
0
100
AcDbLine
 62
7
  6
CONTINUOUS
 10
837.227744573
 20
285.5963767143
 11
837.227744573
 21
285.2428233237
  0
LINE
  5
593
100
AcDbEntity
  8
BEZUGSACHSEN
100
AcDbLine
 62
7
  6
CONTINUOUS
 10
837.9029987124
 20
230.6479610439
 11
837.9029987124
 21
151.7884231882
  0
LINE
  5
594
100
AcDbEntity
  8
BEZUGSACHSEN
100
AcDbLine
 62
7
  6
CONTINUOUS
 10
837.9029987124
 20
322.9133525326
 11
837.9029987124
 21
332.2883136469
  0
LINE
  5
595
100
AcDbEntity
  8
0
100
AcDbLine
 62
7
  6
CONTINUOUS
 10
842.2943171928
 20
299.4173582218
 11
842.2943171928
 21
299.1094256624
  0
LINE
  5
596
100
AcDbEntity
  8
0
100
AcDbLine
 62
7
  6
CONTINUOUS
 10
842.7320807221
 20
299.3030322507
 11
842.7320807221
 21
298.9950996914
  0
LINE
  5
597
100
AcDbEntity
  8
0
100
AcDbLine
 62
7
  6
CONTINUOUS
 10
843.0738621627
 20
268.7108559846
 11
843.0738621627
 21
268.357302594
  0
LINE
  5
598
100
AcDbEntity
  8
0
100
AcDbLine
 62
7
  6
CONTINUOUS
 10
843.2476722414
 20
268.1802667058
 11
843.2476722414
 21
267.8267133152
  0
LINE
  5
599
100
AcDbEntity
  8
0
100
AcDbLine
 62
7
  6
CONTINUOUS
 10
843.2696114986
 20
269.0181226824
 11
843.2696114986
 21
268.6645692918
  0
LINE
  5
59A
100
AcDbEntity
  8
0
100
AcDbLine
 62
7
  6
CONTINUOUS
 10
843.2853476209
 20
268.0098575031
 11
843.2853476209
 21
267.6563041125
  0
LINE
  5
59B
100
AcDbEntity
  8
0
100
AcDbLine
 62
7
  6
CONTINUOUS
 10
843.411771175
 20
267.8639818585
 11
843.411771175
 21
267.5615832162
  0
LINE
  5
59C
100
AcDbEntity
  8
0
100
AcDbLine
 62
7
  6
CONTINUOUS
 10
843.5176030026
 20
268.8335236003
 11
843.5176030026
 21
268.5753239502
  0
LINE
  5
59D
100
AcDbEntity
  8
0
100
AcDbLine
 62
7
  6
CONTINUOUS
 10
843.526144815
 20
269.3060276597
 11
843.526144815
 21
268.9524742691
  0
LINE
  5
59E
100
AcDbEntity
  8
0
100
AcDbLine
 62
7
  6
CONTINUOUS
 10
843.5661589199
 20
267.7620014564
 11
843.5661589199
 21
267.49798758
  0
LINE
  5
59F
100
AcDbEntity
  8
0
100
AcDbLine
 62
7
  6
CONTINUOUS
 10
843.6536881515
 20
298.7544134366
 11
843.6536881515
 21
298.400860046
  0
LINE
  5
5A0
100
AcDbEntity
  8
0
100
AcDbLine
 62
7
  6
CONTINUOUS
 10
843.7154355143
 20
104.3764596364
 11
843.7154355143
 21
115.4383136469
  0
LINE
  5
5A1
100
AcDbEntity
  8
BEZUGSACHSEN
100
AcDbLine
 62
7
  6
CONTINUOUS
 10
843.7154355143
 20
104.3764596364
 11
843.7154355143
 21
115.4383136469
  0
LINE
  5
5A2
100
AcDbEntity
  8
0
100
AcDbLine
 62
7
  6
CONTINUOUS
 10
843.7154355143
 20
128.1383136469
 11
843.7154355143
 21
137.6516730382
  0
LINE
  5
5A3
100
AcDbEntity
  8
BEZUGSACHSEN
100
AcDbLine
 62
7
  6
CONTINUOUS
 10
843.7154355143
 20
128.1383136469
 11
843.7154355143
 21
137.6516730382
  0
LINE
  5
5A4
100
AcDbEntity
  8
0
100
AcDbLine
 62
7
  6
CONTINUOUS
 10
843.787533803
 20
269.4867805563
 11
843.787533803
 21
269.1653238185
  0
LINE
  5
5A5
100
AcDbEntity
  8
0
100
AcDbLine
 62
7
  6
CONTINUOUS
 10
843.795220773
 20
299.0253834504
 11
843.795220773
 21
298.6718300598
  0
LINE
  5
5A6
100
AcDbEntity
  8
0
100
AcDbLine
 62
7
  6
CONTINUOUS
 10
843.9029987124
 20
308.9309004934
 11
843.9029987124
 21
301.506279291
  0
LINE
  5
5A7
100
AcDbEntity
  8
0
100
AcDbLine
 62
7
  6
CONTINUOUS
 10
843.991646799
 20
267.6264694082
 11
843.991646799
 21
267.3943717874
  0
LINE
  5
5A8
100
AcDbEntity
  8
0
100
AcDbLine
 62
7
  6
CONTINUOUS
 10
843.9941636593
 20
268.8929342444
 11
843.9941636593
 21
268.6540963165
  0
LINE
  5
5A9
100
AcDbEntity
  8
0
100
AcDbLine
 62
7
  6
CONTINUOUS
 10
844.0817425022
 20
269.6042763669
 11
844.0817425022
 21
269.3387141268
  0
LINE
  5
5AA
100
AcDbEntity
  8
0
100
AcDbLine
 62
7
  6
CONTINUOUS
 10
844.1704466681
 20
298.9273897576
 11
844.1704466681
 21
298.6194571982
  0
LINE
  5
5AB
100
AcDbEntity
  8
0
100
AcDbLine
 62
7
  6
CONTINUOUS
 10
844.2019628387
 20
267.6122795188
 11
844.2019628387
 21
267.3734415224
  0
LINE
  5
5AC
100
AcDbEntity
  8
0
100
AcDbLine
 62
7
  6
CONTINUOUS
 10
844.2434073694
 20
299.883455087
 11
844.2434073694
 21
299.5299016964
  0
LINE
  5
5AD
100
AcDbEntity
  8
0
100
AcDbLine
 62
7
  6
CONTINUOUS
 10
844.3260477576
 20
268.8400208831
 11
844.3260477576
 21
268.5760070437
  0
LINE
  5
5AE
100
AcDbEntity
  8
0
100
AcDbLine
 62
7
  6
CONTINUOUS
 10
844.4029987124
 20
301.506279291
 11
844.4029987124
 21
309.284453884
  0
LINE
  5
5AF
100
AcDbEntity
  8
0
100
AcDbLine
 62
7
  6
CONTINUOUS
 10
844.4321174875
 20
300.2447483544
 11
844.4321174875
 21
299.8911949638
  0
LINE
  5
5B0
100
AcDbEntity
  8
0
100
AcDbLine
 62
7
  6
CONTINUOUS
 10
844.4402431562
 20
267.6419848444
 11
844.4402431562
 21
267.4083186992
  0
LINE
  5
5B1
100
AcDbEntity
  8
0
100
AcDbLine
 62
7
  6
CONTINUOUS
 10
844.4695549822
 20
269.6391534906
 11
844.4695549822
 21
269.4003155627
  0
LINE
  5
5B2
100
AcDbEntity
  8
0
100
AcDbLine
 62
7
  6
CONTINUOUS
 10
844.6299676216
 20
268.743212293
 11
844.6299676216
 21
268.4521666973
  0
LINE
  5
5B3
100
AcDbEntity
  8
0
100
AcDbLine
 62
7
  6
CONTINUOUS
 10
844.6457037634
 20
267.7349471446
 11
844.6457037634
 21
267.462218791
  0
LINE
  5
5B4
100
AcDbEntity
  8
0
100
AcDbLine
 62
7
  6
CONTINUOUS
 10
844.7903802566
 20
267.8472711708
 11
844.7903802566
 21
267.5258145252
  0
LINE
  5
5B5
100
AcDbEntity
  8
0
100
AcDbLine
 62
7
  6
CONTINUOUS
 10
844.8014390805
 20
269.5862401293
 11
844.8014390805
 21
269.3222262899
  0
LINE
  5
5B6
100
AcDbEntity
  8
0
100
AcDbLine
 62
7
  6
CONTINUOUS
 10
844.8742728292
 20
267.9789568984
 11
844.8742728292
 21
267.6254035078
  0
LINE
  5
5B7
100
AcDbEntity
  8
0
100
AcDbLine
 62
7
  6
CONTINUOUS
 10
844.8973815203
 20
267.9789568984
 11
844.8973815203
 21
267.7764509983
  0
LINE
  5
5B8
100
AcDbEntity
  8
0
100
AcDbLine
 62
7
  6
CONTINUOUS
 10
844.9059233816
 20
268.6025084328
 11
844.9059233816
 21
268.2489550422
  0
LINE
  5
5B9
100
AcDbEntity
  8
0
100
AcDbLine
 62
7
  6
CONTINUOUS
 10
845.0445749368
 20
269.5087932683
 11
845.0445749368
 21
269.2177476878
  0
LINE
  5
5BA
100
AcDbEntity
  8
0
100
AcDbLine
 62
7
  6
CONTINUOUS
 10
845.125950586
 20
268.3740141428
 11
845.125950586
 21
268.0204607522
  0
LINE
  5
5BB
100
AcDbEntity
  8
0
100
AcDbLine
 62
7
  6
CONTINUOUS
 10
845.3205306099
 20
269.3680894358
 11
845.3205306099
 21
269.0145360452
  0
LINE
  5
5BC
100
AcDbEntity
  8
0
100
AcDbLine
 62
7
  6
CONTINUOUS
 10
845.5405579883
 20
269.1395950904
 11
845.5405579883
 21
268.7860416998
  0
LINE
  5
5BD
100
AcDbEntity
  8
0
100
AcDbLine
 62
7
  6
CONTINUOUS
 10
845.5414959513
 20
297.8349639839
 11
845.5414959513
 21
297.4814105933
  0
LINE
  5
5BE
100
AcDbEntity
  8
0
100
AcDbLine
 62
7
  6
CONTINUOUS
 10
845.6460951652
 20
297.6806893475
 11
845.6460951652
 21
297.3522716943
  0
LINE
  5
5BF
100
AcDbEntity
  8
0
100
AcDbLine
 62
7
  6
CONTINUOUS
 10
845.7069621591
 20
267.3315667855
 11
845.7069621591
 21
266.9780133949
  0
LINE
  5
5C0
100
AcDbEntity
  8
0
100
AcDbLine
 62
7
  6
CONTINUOUS
 10
845.7678719306
 20
267.4772628067
 11
845.7678719306
 21
267.1237094161
  0
LINE
  5
5C1
100
AcDbEntity
  8
0
100
AcDbLine
 62
7
  6
CONTINUOUS
 10
845.8425330151
 20
297.544382835
 11
845.8425330151
 21
297.2660419567
  0
LINE
  5
5C2
100
AcDbEntity
  8
0
100
AcDbLine
 62
7
  6
CONTINUOUS
 10
845.9059965102
 20
267.7022690472
 11
845.9059965102
 21
267.3487156566
  0
LINE
  5
5C3
100
AcDbEntity
  8
0
100
AcDbLine
 62
7
  6
CONTINUOUS
 10
845.9838291737
 20
298.6554119674
 11
845.9838291737
 21
298.3998974142
  0
LINE
  5
5C4
100
AcDbEntity
  8
0
100
AcDbLine
 62
7
  6
CONTINUOUS
 10
846.0304393505
 20
266.9987550791
 11
846.0304393505
 21
266.6452016885
  0
LINE
  5
5C5
100
AcDbEntity
  8
0
100
AcDbLine
 62
7
  6
CONTINUOUS
 10
846.1179618328
 20
266.8392525125
 11
846.1179618328
 21
266.4971840816
  0
LINE
  5
5C6
100
AcDbEntity
  8
0
100
AcDbLine
 62
7
  6
CONTINUOUS
 10
846.1884645341
 20
297.4023768772
 11
846.1884645341
 21
297.1535423555
  0
LINE
  5
5C7
100
AcDbEntity
  8
0
100
AcDbLine
 62
7
  6
CONTINUOUS
 10
846.2534629037
 20
268.0591647844
 11
846.2534629037
 21
267.7056113938
  0
LINE
  5
5C8
100
AcDbEntity
  8
0
100
AcDbLine
 62
7
  6
CONTINUOUS
 10
846.3539164117
 20
266.6659434769
 11
846.3539164117
 21
266.4043525237
  0
LINE
  5
5C9
100
AcDbEntity
  8
0
100
AcDbLine
 62
7
  6
CONTINUOUS
 10
846.3746554778
 20
298.6619810651
 11
846.3746554778
 21
298.4074504452
  0
LINE
  5
5CA
100
AcDbEntity
  8
0
100
AcDbLine
 62
7
  6
CONTINUOUS
 10
846.413401842
 20
299.6481027404
 11
846.413401842
 21
299.2945493498
  0
LINE
  5
5CB
100
AcDbEntity
  8
0
100
AcDbLine
 62
7
  6
CONTINUOUS
 10
846.4532689296
 20
297.3493420222
 11
846.4532689296
 21
297.1174952837
  0
LINE
  5
5CC
100
AcDbEntity
  8
0
100
AcDbLine
 62
7
  6
CONTINUOUS
 10
846.5014121488
 20
268.2307094185
 11
846.5014121488
 21
267.8946959469
  0
LINE
  5
5CD
100
AcDbEntity
  8
0
100
AcDbLine
 62
7
  6
CONTINUOUS
 10
846.6670860589
 20
266.5719444522
 11
846.6670860589
 21
266.3469383193
  0
LINE
  5
5CE
100
AcDbEntity
  8
0
100
AcDbLine
 62
7
  6
CONTINUOUS
 10
846.6721467479
 20
268.3229439999
 11
846.6721467479
 21
268.020531921
  0
LINE
  5
5CF
100
AcDbEntity
  8
0
100
AcDbLine
 62
7
  6
CONTINUOUS
 10
846.6946012347
 20
297.3616107007
 11
846.6946012347
 21
297.1240643923
  0
LINE
  5
5D0
100
AcDbEntity
  8
0
100
AcDbLine
 62
7
  6
CONTINUOUS
 10
846.6971149065
 20
298.5852786407
 11
846.6971149065
 21
298.3069378014
  0
LINE
  5
5D1
100
AcDbEntity
  8
0
100
AcDbLine
 62
7
  6
CONTINUOUS
 10
846.9029987124
 20
307.3241133272
 11
846.9029987124
 21
306.8426786432
  0
LINE
  5
5D2
100
AcDbEntity
  8
0
100
AcDbLine
 62
7
  6
CONTINUOUS
 10
846.9090380495
 20
266.5710622132
 11
846.9090380495
 21
266.3322494689
  0
LINE
  5
5D3
100
AcDbEntity
  8
0
100
AcDbLine
 62
7
  6
CONTINUOUS
 10
846.9124614733
 20
297.4391829419
 11
846.9124614733
 21
297.180095476
  0
LINE
  5
5D4
100
AcDbEntity
  8
0
100
AcDbLine
 62
7
  6
CONTINUOUS
 10
846.9364011328
 20
268.4281027002
 11
846.9364011328
 21
268.1436262451
  0
LINE
  5
5D5
100
AcDbEntity
  8
0
100
AcDbLine
 62
7
  6
CONTINUOUS
 10
847.0430464256
 20
298.4432726829
 11
847.0430464256
 21
298.1164961635
  0
LINE
  5
5D6
100
AcDbEntity
  8
0
100
AcDbLine
 62
7
  6
CONTINUOUS
 10
847.0696653989
 20
307.805547674
 11
847.0696653989
 21
307.4519942834
  0
LINE
  5
5D7
100
AcDbEntity
  8
0
100
AcDbLine
 62
7
  6
CONTINUOUS
 10
847.0726666548
 20
297.5404227233
 11
847.0726666548
 21
297.2376622491
  0
LINE
  5
5D8
100
AcDbEntity
  8
0
100
AcDbLine
 62
7
  6
CONTINUOUS
 10
847.1410332004
 20
297.6236943808
 11
847.1410332004
 21
297.2701409902
  0
LINE
  5
5D9
100
AcDbEntity
  8
0
100
AcDbLine
 62
7
  6
CONTINUOUS
 10
847.1859277035
 20
297.7722696301
 11
847.1859277035
 21
297.4187162395
  0
LINE
  5
5DA
100
AcDbEntity
  8
0
100
AcDbLine
 62
7
  6
CONTINUOUS
 10
847.2169605004
 20
268.4668755431
 11
847.2169605004
 21
268.2280628127
  0
LINE
  5
5DB
100
AcDbEntity
  8
0
100
AcDbLine
 62
7
  6
CONTINUOUS
 10
847.2971393087
 20
298.2832986011
 11
847.2971393087
 21
297.9297452105
  0
LINE
  5
5DC
100
AcDbEntity
  8
0
100
AcDbLine
 62
7
  6
CONTINUOUS
 10
847.360331778
 20
266.7020696306
 11
847.360331778
 21
266.4348633901
  0
LINE
  5
5DD
100
AcDbEntity
  8
0
100
AcDbLine
 62
7
  6
CONTINUOUS
 10
847.4029987124
 20
304.5558653272
 11
847.4029987124
 21
304.2023119366
  0
LINE
  5
5DE
100
AcDbEntity
  8
KONSTRUKTIONSELEMENTE
100
AcDbLine
 62
7
  6
CONTINUOUS
 10
847.4029987124
 20
337.2151717409
 11
847.4029987124
 21
347.8217734587
  0
LINE
  5
5DF
100
AcDbEntity
  8
KONSTRUKTIONSELEMENTE
100
AcDbLine
 62
7
  6
CONTINUOUS
 10
847.4029987124
 20
368.3278701131
 11
847.4029987124
 21
378.9344718309
  0
LINE
  5
5E0
100
AcDbEntity
  8
0
100
AcDbLine
 62
7
  6
CONTINUOUS
 10
847.4828659761
 20
298.0400527264
 11
847.4828659761
 21
297.6864993358
  0
LINE
  5
5E1
100
AcDbEntity
  8
0
100
AcDbLine
 62
7
  6
CONTINUOUS
 10
847.5696653393
 20
304.1947895671
 11
847.5696653393
 21
303.8412361765
  0
LINE
  5
5E2
100
AcDbEntity
  8
0
100
AcDbLine
 62
7
  6
CONTINUOUS
 10
847.6073445876
 20
268.4521868352
 11
847.6073445876
 21
268.1857220609
  0
LINE
  5
5E3
100
AcDbEntity
  8
0
100
AcDbLine
 62
7
  6
CONTINUOUS
 10
847.6468886113
 20
266.9132693257
 11
847.6468886113
 21
266.5767140183
  0
LINE
  5
5E4
100
AcDbEntity
  8
0
100
AcDbLine
 62
7
  6
CONTINUOUS
 10
847.7363320855
 20
308.2869820208
 11
847.7363320855
 21
307.9334286302
  0
LINE
  5
5E5
100
AcDbEntity
  8
0
100
AcDbLine
 62
7
  6
CONTINUOUS
 10
847.9029987124
 20
306.6094838393
 11
847.9029987124
 21
307.2037544033
  0
LINE
  5
5E6
100
AcDbEntity
  8
0
100
AcDbLine
 62
7
  6
CONTINUOUS
 10
847.9171402507
 20
267.1908548991
 11
847.9171402507
 21
266.8373015085
  0
LINE
  5
5E7
100
AcDbEntity
  8
0
100
AcDbLine
 62
7
  6
CONTINUOUS
 10
847.9754264375
 20
268.3314571115
 11
847.9754264375
 21
267.9913958483
  0
LINE
  5
5E8
100
AcDbEntity
  8
0
100
AcDbLine
 62
7
  6
CONTINUOUS
 10
848.0696653393
 20
306.6019614698
 11
848.0696653393
 21
306.2484080792
  0
LINE
  5
5E9
100
AcDbEntity
  8
0
100
AcDbLine
 62
7
  6
CONTINUOUS
 10
848.0696653393
 20
303.8337137227
 11
848.0696653393
 21
303.4801603321
  0
LINE
  5
5EA
100
AcDbEntity
  8
0
100
AcDbLine
 62
7
  6
CONTINUOUS
 10
848.0938719962
 20
267.4555162425
 11
848.0938719962
 21
267.1019628519
  0
LINE
  5
5EB
100
AcDbEntity
  8
0
100
AcDbLine
 62
7
  6
CONTINUOUS
 10
848.2662935333
 20
268.131417224
 11
848.2662935333
 21
267.7778638334
  0
LINE
  5
5EC
100
AcDbEntity
  8
0
100
AcDbLine
 62
7
  6
CONTINUOUS
 10
848.401634892
 20
294.2412573489
 11
848.401634892
 21
293.8877039583
  0
LINE
  5
5ED
100
AcDbEntity
  8
0
100
AcDbLine
 62
7
  6
CONTINUOUS
 10
848.4029987124
 20
308.5276991943
 11
848.4029987124
 21
308.1741458037
  0
LINE
  5
5EE
100
AcDbEntity
  8
0
100
AcDbLine
 62
7
  6
CONTINUOUS
 10
848.4250336723
 20
267.8787978716
 11
848.4250336723
 21
267.525244481
  0
LINE
  5
5EF
100
AcDbEntity
  8
0
100
AcDbLine
 62
7
  6
CONTINUOUS
 10
848.5696654585
 20
306.3612442964
 11
848.5696654585
 21
306.0076909058
  0
LINE
  5
5F0
100
AcDbEntity
  8
0
100
AcDbLine
 62
7
  6
CONTINUOUS
 10
848.7363319663
 20
303.713355136
 11
848.7363319663
 21
303.3598017454
  0
LINE
  5
5F1
100
AcDbEntity
  8
0
100
AcDbLine
 62
7
  6
CONTINUOUS
 10
848.7609672726
 20
294.4871030732
 11
848.7609672726
 21
294.1335496826
  0
LINE
  5
5F2
100
AcDbEntity
  8
0
100
AcDbLine
 62
7
  6
CONTINUOUS
 10
849.0696654585
 20
308.648057781
 11
849.0696654585
 21
308.2945043904
  0
LINE
  5
5F3
100
AcDbEntity
  8
0
100
AcDbLine
 62
7
  6
CONTINUOUS
 10
849.0696654585
 20
306.2408857097
 11
849.0696654585
 21
305.8873323191
  0
LINE
  5
5F4
100
AcDbEntity
  8
0
100
AcDbLine
 62
7
  6
CONTINUOUS
 10
849.9029987124
 20
308.648057781
 11
849.9029987124
 21
308.2945043904
  0
LINE
  5
5F5
100
AcDbEntity
  8
0
100
AcDbLine
 62
7
  6
CONTINUOUS
 10
850.0478406596
 20
262.0680104714
 11
850.0478406596
 21
261.7144570808
  0
LINE
  5
5F6
100
AcDbEntity
  8
0
100
AcDbLine
 62
7
  6
CONTINUOUS
 10
850.0696654585
 20
306.2408857097
 11
850.0696654585
 21
305.8873323191
  0
LINE
  5
5F7
100
AcDbEntity
  8
0
100
AcDbLine
 62
7
  6
CONTINUOUS
 10
850.0696654585
 20
303.713355136
 11
850.0696654585
 21
303.3598017454
  0
LINE
  5
5F8
100
AcDbEntity
  8
0
100
AcDbLine
 62
7
  6
CONTINUOUS
 10
850.3983697782
 20
262.2042626953
 11
850.3983697782
 21
261.8507093047
  0
LINE
  5
5F9
100
AcDbEntity
  8
0
100
AcDbLine
 62
7
  6
CONTINUOUS
 10
850.7363322047
 20
308.5276991943
 11
850.7363322047
 21
308.1741458037
  0
LINE
  5
5FA
100
AcDbEntity
  8
0
100
AcDbLine
 62
7
  6
CONTINUOUS
 10
850.7363322047
 20
303.8337137227
 11
850.7363322047
 21
303.4801603321
  0
LINE
  5
5FB
100
AcDbEntity
  8
0
100
AcDbLine
 62
7
  6
CONTINUOUS
 10
850.9029987124
 20
306.120527123
 11
850.9029987124
 21
305.7669737324
  0
LINE
  5
5FC
100
AcDbEntity
  8
0
100
AcDbLine
 62
7
  6
CONTINUOUS
 10
850.9041042514
 20
297.9748273974
 11
850.9041042514
 21
297.7405832603
  0
LINE
  5
5FD
100
AcDbEntity
  8
0
100
AcDbLine
 62
7
  6
CONTINUOUS
 10
851.0868063526
 20
298.1121793562
 11
851.0868063526
 21
297.7586259656
  0
LINE
  5
5FE
100
AcDbEntity
  8
0
100
AcDbLine
 62
7
  6
CONTINUOUS
 10
851.2363322047
 20
304.0744309804
 11
851.2363322047
 21
303.7208775898
  0
LINE
  5
5FF
100
AcDbEntity
  8
0
100
AcDbLine
 62
7
  6
CONTINUOUS
 10
851.3259654938
 20
266.845681879
 11
851.3259654938
 21
266.5586758438
  0
LINE
  5
600
100
AcDbEntity
  8
0
100
AcDbLine
 62
7
  6
CONTINUOUS
 10
851.4029987124
 20
308.1666234341
 11
851.4029987124
 21
307.8130700435
  0
LINE
  5
601
100
AcDbEntity
  8
0
100
AcDbLine
 62
7
  6
CONTINUOUS
 10
851.4151921365
 20
298.1526389401
 11
851.4151921365
 21
297.7990855495
  0
LINE
  5
602
100
AcDbEntity
  8
0
100
AcDbLine
 62
7
  6
CONTINUOUS
 10
851.5270041588
 20
266.969566168
 11
851.5270041588
 21
266.6160127774
  0
LINE
  5
603
100
AcDbEntity
  8
0
100
AcDbLine
 62
7
  6
CONTINUOUS
 10
851.5696652201
 20
305.8798099496
 11
851.5696652201
 21
305.526256559
  0
LINE
  5
604
100
AcDbEntity
  8
0
100
AcDbLine
 62
7
  6
CONTINUOUS
 10
851.5696652201
 20
304.7965825006
 11
851.5696652201
 21
304.0819533499
  0
LINE
  5
605
100
AcDbEntity
  8
0
100
AcDbLine
 62
7
  6
CONTINUOUS
 10
851.8594418924
 20
266.9868336553
 11
851.8594418924
 21
266.6332802647
  0
LINE
  5
606
100
AcDbEntity
  8
0
100
AcDbLine
 62
7
  6
CONTINUOUS
 10
851.9029987124
 20
307.6851890873
 11
851.9029987124
 21
307.3316356967
  0
LINE
  5
607
100
AcDbEntity
  8
KONSTRUKTIONSELEMENTE
100
AcDbLine
 62
7
  6
CONTINUOUS
 10
851.9029987124
 20
337.2151717409
 11
851.9029987124
 21
347.8217734587
  0
LINE
  5
608
100
AcDbEntity
  8
KONSTRUKTIONSELEMENTE
100
AcDbLine
 62
7
  6
CONTINUOUS
 10
851.9029987124
 20
368.3278701131
 11
851.9029987124
 21
378.9344718309
  0
LINE
  5
609
100
AcDbEntity
  8
0
100
AcDbLine
 62
7
  6
CONTINUOUS
 10
852.2363322047
 20
305.3983756027
 11
852.2363322047
 21
305.0448222121
  0
LINE
  5
60A
100
AcDbEntity
  8
0
100
AcDbLine
 62
7
  6
CONTINUOUS
 10
852.5696652201
 20
304.3151481538
 11
852.5696652201
 21
304.9169410873
  0
LINE
  5
60B
100
AcDbEntity
  8
KONSTRUKTIONSELEMENTE
100
AcDbLine
 62
7
  6
CONTINUOUS
 10
852.9029987124
 20
316.4119448468
 11
852.9029987124
 21
332.4775563069
  0
LINE
  5
60C
100
AcDbEntity
  8
KONSTRUKTIONSELEMENTE
100
AcDbLine
 62
7
  6
CONTINUOUS
 10
852.9029987124
 20
332.8311096975
 11
852.9029987124
 21
338.9136532002
  0
LINE
  5
60D
100
AcDbEntity
  8
KONSTRUKTIONSELEMENTE
100
AcDbLine
 62
7
  6
CONTINUOUS
 10
852.9029987124
 20
377.5766814195
 11
852.9029987124
 21
393.6422928796
  0
LINE
  5
60E
100
AcDbEntity
  8
KONSTRUKTIONSELEMENTE
100
AcDbLine
 62
7
  6
CONTINUOUS
 10
852.9029987124
 20
393.9958462702
 11
852.9029987124
 21
400.0783897728
  0
LINE
  5
60F
100
AcDbEntity
  8
KONSTRUKTIONSELEMENTE
100
AcDbLine
 62
7
  6
CONTINUOUS
 10
853.1529987124
 20
347.0320114902
 11
853.1529987124
 21
369.1176320816
  0
LINE
  5
610
100
AcDbEntity
  8
0
100
AcDbLine
 62
7
  6
CONTINUOUS
 10
855.4029987124
 20
299.0314055568
 11
855.4029987124
 21
298.6778521662
  0
LINE
  5
611
100
AcDbEntity
  8
0
100
AcDbLine
 62
7
  6
CONTINUOUS
 10
855.4029987124
 20
264.1495841701
 11
855.4029987124
 21
263.7960307795
  0
LINE
  5
612
100
AcDbEntity
  8
0
100
AcDbLine
 62
7
  6
CONTINUOUS
 10
855.4029987124
 20
128.1383136469
 11
855.4029987124
 21
115.4383136469
  0
LINE
  5
613
100
AcDbEntity
  8
KONSTRUKTIONSELEMENTE
100
AcDbLine
 62
7
  6
CONTINUOUS
 10
857.6529987124
 20
347.0320114902
 11
857.6529987124
 21
369.1176320816
  0
LINE
  5
614
100
AcDbEntity
  8
0
100
AcDbLine
 62
7
  6
CONTINUOUS
 10
846.0304393505
 20
266.9987550791
 11
846.0424338865
 21
267.343608853
  0
LINE
  5
615
100
AcDbEntity
  8
0
100
AcDbLine
 62
7
  6
CONTINUOUS
 10
848.1058669276
 20
267.8003699468
 11
848.0938719962
 21
267.4555162425
  0
LINE
  5
616
100
AcDbEntity
  8
0
100
AcDbLine
 62
7
  6
CONTINUOUS
 10
848.1058669276
 20
267.4468165562
 11
848.0938719962
 21
267.1019628519
  0
LINE
  5
617
100
AcDbEntity
  8
0
100
AcDbLine
 62
7
  6
CONTINUOUS
 10
842.9388967679
 20
268.3842275048
 11
842.9206437494
 21
268.1260278222
  0
LINE
  5
618
100
AcDbEntity
  8
0
100
AcDbLine
 62
7
  6
CONTINUOUS
 10
845.2061570101
 20
267.9260435847
 11
845.2244099493
 21
268.1842432556
  0
LINE
  5
619
100
AcDbEntity
  8
0
100
AcDbLine
 62
7
  6
CONTINUOUS
 10
866.7363319663
 20
304.974111534
 11
866.9029987124
 21
304.1316012585
  0
LINE
  5
61A
100
AcDbEntity
  8
KONSTRUKTIONSELEMENTE
100
AcDbLine
 62
7
  6
CONTINUOUS
 10
857.9029987124
 20
316.4119448468
 11
857.9029987124
 21
332.4775563069
  0
LINE
  5
61B
100
AcDbEntity
  8
KONSTRUKTIONSELEMENTE
100
AcDbLine
 62
7
  6
CONTINUOUS
 10
857.9029987124
 20
332.8311096975
 11
857.9029987124
 21
338.9136532002
  0
LINE
  5
61C
100
AcDbEntity
  8
KONSTRUKTIONSELEMENTE
100
AcDbLine
 62
7
  6
CONTINUOUS
 10
857.9029987124
 20
377.5766814195
 11
857.9029987124
 21
393.6422928796
  0
LINE
  5
61D
100
AcDbEntity
  8
KONSTRUKTIONSELEMENTE
100
AcDbLine
 62
7
  6
CONTINUOUS
 10
857.9029987124
 20
393.9958462702
 11
857.9029987124
 21
400.0783897728
  0
LINE
  5
61E
100
AcDbEntity
  8
KONSTRUKTIONSELEMENTE
100
AcDbLine
 62
7
  6
CONTINUOUS
 10
858.9029987124
 20
378.9344718309
 11
858.9029987124
 21
368.3278701131
  0
LINE
  5
61F
100
AcDbEntity
  8
KONSTRUKTIONSELEMENTE
100
AcDbLine
 62
7
  6
CONTINUOUS
 10
858.9029987124
 20
347.8217734587
 11
858.9029987124
 21
337.2151717409
  0
LINE
  5
620
100
AcDbEntity
  8
KONSTRUKTIONSELEMENTE
100
AcDbLine
 62
7
  6
CONTINUOUS
 10
863.4029987124
 20
378.9344718309
 11
863.4029987124
 21
368.3278701131
  0
LINE
  5
621
100
AcDbEntity
  8
KONSTRUKTIONSELEMENTE
100
AcDbLine
 62
7
  6
CONTINUOUS
 10
863.4029987124
 20
347.8217734587
 11
863.4029987124
 21
337.2151717409
  0
LINE
  5
622
100
AcDbEntity
  8
0
100
AcDbLine
 62
7
  6
CONTINUOUS
 10
863.4029987124
 20
307.3812836053
 11
863.4029987124
 21
306.4184145745
  0
LINE
  5
623
100
AcDbEntity
  8
0
100
AcDbLine
 62
7
  6
CONTINUOUS
 10
864.4029987124
 20
308.2237937122
 11
864.4029987124
 21
307.8702403217
  0
LINE
  5
624
100
AcDbEntity
  8
0
100
AcDbLine
 62
7
  6
CONTINUOUS
 10
864.4029987124
 20
307.2609250186
 11
864.4029987124
 21
302.5669394628
  0
LINE
  5
625
100
AcDbEntity
  8
0
100
AcDbLine
 62
7
  6
CONTINUOUS
 10
865.4029987124
 20
302.5669394628
 11
865.4029987124
 21
308.2237937122
  0
LINE
  5
626
100
AcDbEntity
  8
0
100
AcDbLine
 62
7
  6
CONTINUOUS
 10
866.7363319663
 20
305.816621641
 11
866.7363319663
 21
304.974111534
  0
LINE
  5
627
100
AcDbEntity
  8
0
100
AcDbLine
 62
7
  6
CONTINUOUS
 10
866.9029987124
 20
306.6591317479
 11
866.9029987124
 21
306.3055783573
  0
LINE
  5
628
100
AcDbEntity
  8
0
100
AcDbLine
 62
7
  6
CONTINUOUS
 10
867.0905619105
 20
139.2001676575
 11
867.0905619105
 21
128.1383136469
  0
LINE
  5
629
100
AcDbEntity
  8
0
100
AcDbLine
 62
7
  6
CONTINUOUS
 10
867.0905619105
 20
115.4383136469
 11
867.0905619105
 21
105.9249542557
  0
LINE
  5
62A
100
AcDbEntity
  8
0
100
AcDbLine
 62
7
  6
CONTINUOUS
 10
867.2363319663
 20
307.2609250186
 11
867.2363319663
 21
306.907371628
  0
LINE
  5
62B
100
AcDbEntity
  8
0
100
AcDbLine
 62
7
  6
CONTINUOUS
 10
867.5696652201
 20
305.222351077
 11
867.5696652201
 21
305.816621641
  0
LINE
  5
62C
100
AcDbEntity
  8
0
100
AcDbLine
 62
7
  6
CONTINUOUS
 10
867.7363322047
 20
307.7423593654
 11
867.7363322047
 21
307.3888059748
  0
LINE
  5
62D
100
AcDbEntity
  8
0
100
AcDbLine
 62
7
  6
CONTINUOUS
 10
867.7363322047
 20
303.8984064546
 11
867.7363322047
 21
304.6130356053
  0
LINE
  5
62E
100
AcDbEntity
  8
0
100
AcDbLine
 62
7
  6
CONTINUOUS
 10
867.9029987124
 20
303.8908840851
 11
867.9029987124
 21
303.5373306945
  0
LINE
  5
62F
100
AcDbEntity
  8
0
100
AcDbLine
 62
7
  6
CONTINUOUS
 10
868.2029987124
 20
282.313595773
 11
868.2029987124
 21
281.9284482955
  0
LINE
  5
630
100
AcDbEntity
  8
0
100
AcDbLine
 62
7
  6
CONTINUOUS
 10
868.2029987124
 20
253.3222177443
 11
868.2029987124
 21
252.9370702669
  0
LINE
  5
631
100
AcDbEntity
  8
0
100
AcDbLine
 62
7
  6
CONTINUOUS
 10
868.2363322047
 20
303.5298082407
 11
868.2363322047
 21
303.1762548501
  0
LINE
  5
632
100
AcDbEntity
  8
0
100
AcDbLine
 62
7
  6
CONTINUOUS
 10
868.5696652201
 20
308.1034351255
 11
868.5696652201
 21
307.7498817349
  0
LINE
  5
633
100
AcDbEntity
  8
0
100
AcDbLine
 62
7
  6
CONTINUOUS
 10
868.5696652201
 20
306.0573388144
 11
868.5696652201
 21
305.7037854238
  0
LINE
  5
634
100
AcDbEntity
  8
0
100
AcDbLine
 62
7
  6
CONTINUOUS
 10
868.7363322047
 20
303.2890910673
 11
868.7363322047
 21
302.9355376767
  0
LINE
  5
635
100
AcDbEntity
  8
0
100
AcDbLine
 62
7
  6
CONTINUOUS
 10
869.2363322047
 20
303.1687324806
 11
869.2363322047
 21
302.81517909
  0
LINE
  5
636
100
AcDbEntity
  8
0
100
AcDbLine
 62
7
  6
CONTINUOUS
 10
869.2696654109
 20
281.9284482955
 11
869.2696654109
 21
280.0027107059
  0
LINE
  5
637
100
AcDbEntity
  8
0
100
AcDbLine
 62
7
  6
CONTINUOUS
 10
869.2696654109
 20
283.0838909976
 11
869.2696654109
 21
281.9600423824
  0
LINE
  5
638
100
AcDbEntity
  8
0
100
AcDbLine
 62
7
  6
CONTINUOUS
 10
869.2696654109
 20
254.092512969
 11
869.2696654109
 21
252.9686643537
  0
LINE
  5
639
100
AcDbEntity
  8
0
100
AcDbLine
 62
7
  6
CONTINUOUS
 10
869.2696654109
 20
252.9370702669
 11
869.2696654109
 21
251.0113326773
  0
LINE
  5
63A
100
AcDbEntity
  8
0
100
AcDbLine
 62
7
  6
CONTINUOUS
 10
869.4029987124
 20
308.2237937122
 11
869.4029987124
 21
307.8702403217
  0
LINE
  5
63B
100
AcDbEntity
  8
0
100
AcDbLine
 62
7
  6
CONTINUOUS
 10
869.4029987124
 20
306.1776974011
 11
869.4029987124
 21
305.8241440105
  0
LINE
  5
63C
100
AcDbEntity
  8
0
100
AcDbLine
 62
7
  6
CONTINUOUS
 10
869.9363321093
 20
250.8503530929
 11
869.9363321093
 21
252.9370702669
  0
LINE
  5
63D
100
AcDbEntity
  8
0
100
AcDbLine
 62
7
  6
CONTINUOUS
 10
869.9363321093
 20
252.9686643537
 11
869.9363321093
 21
254.092512969
  0
LINE
  5
63E
100
AcDbEntity
  8
0
100
AcDbLine
 62
7
  6
CONTINUOUS
 10
869.9363321093
 20
279.8417311215
 11
869.9363321093
 21
281.9284482955
  0
LINE
  5
63F
100
AcDbEntity
  8
0
100
AcDbLine
 62
7
  6
CONTINUOUS
 10
869.9363321093
 20
281.9600423824
 11
869.9363321093
 21
283.0838909976
  0
LINE
  5
640
100
AcDbEntity
  8
0
100
AcDbLine
 62
7
  6
CONTINUOUS
 10
870.0696652201
 20
308.2237937122
 11
870.0696652201
 21
307.8702403217
  0
LINE
  5
641
100
AcDbEntity
  8
0
100
AcDbLine
 62
7
  6
CONTINUOUS
 10
870.0696653155
 20
279.9064238366
 11
870.0696653155
 21
279.552870446
  0
LINE
  5
642
100
AcDbEntity
  8
0
100
AcDbLine
 62
7
  6
CONTINUOUS
 10
870.0696653155
 20
250.9150458079
 11
870.0696653155
 21
250.5614924173
  0
LINE
  5
643
100
AcDbEntity
  8
0
100
AcDbLine
 62
7
  6
CONTINUOUS
 10
870.2363322047
 20
306.1776974011
 11
870.2363322047
 21
305.8241440105
  0
LINE
  5
644
100
AcDbEntity
  8
0
100
AcDbLine
 62
7
  6
CONTINUOUS
 10
870.4029987124
 20
303.1687324806
 11
870.4029987124
 21
302.81517909
  0
LINE
  5
645
100
AcDbEntity
  8
0
100
AcDbLine
 62
7
  6
CONTINUOUS
 10
870.4696653155
 20
279.7138500979
 11
870.4696653155
 21
279.3602967073
  0
LINE
  5
646
100
AcDbEntity
  8
0
100
AcDbLine
 62
7
  6
CONTINUOUS
 10
870.4696653155
 20
250.7224720692
 11
870.4696653155
 21
250.3689186786
  0
LINE
  5
647
100
AcDbEntity
  8
0
100
AcDbLine
 62
7
  6
CONTINUOUS
 10
870.9029987124
 20
308.1034351255
 11
870.9029987124
 21
307.7498817349
  0
LINE
  5
648
100
AcDbEntity
  8
0
100
AcDbLine
 62
7
  6
CONTINUOUS
 10
870.9029987124
 20
303.2890910673
 11
870.9029987124
 21
302.9355376767
  0
LINE
  5
649
100
AcDbEntity
  8
0
100
AcDbLine
 62
7
  6
CONTINUOUS
 10
871.0696652201
 20
306.0573388144
 11
871.0696652201
 21
305.7037854238
  0
LINE
  5
64A
100
AcDbEntity
  8
0
100
AcDbLine
 62
7
  6
CONTINUOUS
 10
871.1363321093
 20
250.2410376549
 11
871.1363321093
 21
250.6261851661
  0
LINE
  5
64B
100
AcDbEntity
  8
0
100
AcDbLine
 62
7
  6
CONTINUOUS
 10
871.1363321093
 20
279.2324156836
 11
871.1363321093
 21
279.6175631948
  0
LINE
  5
64C
100
AcDbEntity
  8
0
100
AcDbLine
 62
7
  6
CONTINUOUS
 10
871.4029987124
 20
303.5298082407
 11
871.4029987124
 21
303.1762548501
  0
LINE
  5
64D
100
AcDbEntity
  8
0
100
AcDbLine
 62
7
  6
CONTINUOUS
 10
871.4029987124
 20
252.9370702669
 11
871.4029987124
 21
253.3222177443
  0
LINE
  5
64E
100
AcDbEntity
  8
0
100
AcDbLine
 62
7
  6
CONTINUOUS
 10
871.4029987124
 20
281.9284482955
 11
871.4029987124
 21
282.313595773
  0
LINE
  5
64F
100
AcDbEntity
  8
0
100
AcDbLine
 62
7
  6
CONTINUOUS
 10
871.7363317278
 20
307.7423593654
 11
871.7363317278
 21
307.3888059748
  0
LINE
  5
650
100
AcDbEntity
  8
0
100
AcDbLine
 62
7
  6
CONTINUOUS
 10
871.7363317278
 20
303.8908840851
 11
871.7363317278
 21
303.5373306945
  0
LINE
  5
651
100
AcDbEntity
  8
0
100
AcDbLine
 62
7
  6
CONTINUOUS
 10
871.9029987124
 20
305.6962630543
 11
871.9029987124
 21
305.3427096637
  0
LINE
  5
652
100
AcDbEntity
  8
0
100
AcDbLine
 62
7
  6
CONTINUOUS
 10
871.9029987124
 20
304.6130356053
 11
871.9029987124
 21
303.8984064546
  0
LINE
  5
653
100
AcDbEntity
  8
0
100
AcDbLine
 62
7
  6
CONTINUOUS
 10
872.2363317278
 20
307.2609250186
 11
872.2363317278
 21
306.907371628
  0
LINE
  5
654
100
AcDbEntity
  8
0
100
AcDbLine
 62
7
  6
CONTINUOUS
 10
872.4029987124
 20
305.3351872941
 11
872.4029987124
 21
304.9816339036
  0
LINE
  5
655
100
AcDbEntity
  8
0
100
AcDbLine
 62
7
  6
CONTINUOUS
 10
872.7363317278
 20
304.1316012585
 11
872.7363317278
 21
304.7333943606
  0
LINE
  5
656
100
AcDbEntity
  8
0
100
AcDbLine
 62
7
  6
CONTINUOUS
 10
872.7494088739
 20
256.251445295
 11
872.7494088739
 21
255.8978919044
  0
LINE
  5
657
100
AcDbEntity
  8
BEZUGSACHSEN
100
AcDbLine
 62
7
  6
CONTINUOUS
 10
872.9029987124
 20
332.2883136469
 11
872.9029987124
 21
322.9133525326
  0
LINE
  5
658
100
AcDbEntity
  8
BEZUGSACHSEN
100
AcDbLine
 62
7
  6
CONTINUOUS
 10
872.9029987124
 20
230.6479427201
 11
872.9029987124
 21
151.7884231882
  0
LINE
  5
659
100
AcDbEntity
  8
0
100
AcDbLine
 62
7
  6
CONTINUOUS
 10
872.98878515
 20
285.5963767143
 11
872.98878515
 21
285.2428233237
  0
LINE
  5
65A
100
AcDbEntity
  8
0
100
AcDbLine
 62
7
  6
CONTINUOUS
 10
873.9029987124
 20
285.2428233237
 11
873.9029987124
 21
277.8182021212
  0
LINE
  5
65B
100
AcDbEntity
  8
0
100
AcDbLine
 62
7
  6
CONTINUOUS
 10
873.9029987124
 20
255.8978919044
 11
873.9029987124
 21
248.473270702
  0
LINE
  5
65C
100
AcDbEntity
  8
0
100
AcDbLine
 62
7
  6
CONTINUOUS
 10
874.069665697
 20
306.4184145745
 11
874.069665697
 21
302.5669394628
  0
LINE
  5
65D
100
AcDbEntity
  8
0
100
AcDbLine
 62
7
  6
CONTINUOUS
 10
874.4029987124
 20
248.473270702
 11
874.4029987124
 21
256.3928666513
  0
LINE
  5
65E
100
AcDbEntity
  8
0
100
AcDbLine
 62
7
  6
CONTINUOUS
 10
874.4029987124
 20
277.8182021212
 11
874.4029987124
 21
285.5963767143
  0
LINE
  5
65F
100
AcDbEntity
  8
0
100
AcDbLine
 62
7
  6
CONTINUOUS
 10
874.9029987124
 20
302.5669394628
 11
874.9029987124
 21
305.5759044676
  0
LINE
  5
660
100
AcDbEntity
  8
0
100
AcDbLine
 62
7
  6
CONTINUOUS
 10
874.9029987124
 20
305.7037854238
 11
874.9029987124
 21
306.4184145745
  0
LINE
  5
661
100
AcDbEntity
  8
0
100
AcDbLine
 62
7
  6
CONTINUOUS
 10
875.2363317278
 20
306.2980559878
 11
875.2363317278
 21
305.9445025972
  0
LINE
  5
662
100
AcDbEntity
  8
0
100
AcDbLine
 62
7
  6
CONTINUOUS
 10
875.7363317278
 20
306.4184145745
 11
875.7363317278
 21
306.0648611839
  0
LINE
  5
663
100
AcDbEntity
  8
0
100
AcDbLine
 62
7
  6
CONTINUOUS
 10
876.4029987124
 20
306.4184145745
 11
876.4029987124
 21
306.0648611839
  0
LINE
  5
664
100
AcDbEntity
  8
0
100
AcDbLine
 62
7
  6
CONTINUOUS
 10
876.7363317278
 20
305.4555458809
 11
876.7363317278
 21
302.5669394628
  0
LINE
  5
665
100
AcDbEntity
  8
0
100
AcDbLine
 62
7
  6
CONTINUOUS
 10
876.9029987124
 20
306.2980559878
 11
876.9029987124
 21
305.9445025972
  0
LINE
  5
666
100
AcDbEntity
  8
0
100
AcDbLine
 62
7
  6
CONTINUOUS
 10
877.4029987124
 20
305.9369802277
 11
877.4029987124
 21
305.5834268371
  0
LINE
  5
667
100
AcDbEntity
  8
0
100
AcDbLine
 62
7
  6
CONTINUOUS
 10
877.569665697
 20
302.5669394628
 11
877.569665697
 21
305.4555458809
  0
LINE
  5
668
100
AcDbEntity
  8
0
100
AcDbLine
 62
7
  6
CONTINUOUS
 10
877.9029987124
 20
306.2980559878
 11
877.9029987124
 21
305.9445025972
  0
LINE
  5
669
100
AcDbEntity
  8
0
100
AcDbLine
 62
7
  6
CONTINUOUS
 10
878.4029987124
 20
791.6383136469
 11
878.4029987124
 21
403.3208347898
  0
LINE
  5
66A
100
AcDbEntity
  8
0
100
AcDbLine
 62
7
  6
CONTINUOUS
 10
878.4029987124
 20
306.4184145745
 11
878.4029987124
 21
306.0648611839
  0
LINE
  5
66B
100
AcDbEntity
  8
0
100
AcDbLine
 62
7
  6
CONTINUOUS
 10
879.069665697
 20
306.4184145745
 11
879.069665697
 21
306.0648611839
  0
LINE
  5
66C
100
AcDbEntity
  8
0
100
AcDbLine
 62
7
  6
CONTINUOUS
 10
879.4029987124
 20
305.4555458809
 11
879.4029987124
 21
302.5669394628
  0
LINE
  5
66D
100
AcDbEntity
  8
0
100
AcDbLine
 62
7
  6
CONTINUOUS
 10
879.5696647433
 20
306.2980559878
 11
879.5696647433
 21
305.9445025972
  0
LINE
  5
66E
100
AcDbEntity
  8
0
100
AcDbLine
 62
7
  6
CONTINUOUS
 10
879.9029987124
 20
306.0573388144
 11
879.9029987124
 21
305.7037854238
  0
LINE
  5
66F
100
AcDbEntity
  8
RUNDUNGEN
100
AcDbLine
 62
7
  6
CONTINUOUS
 10
879.9845832451
 20
139.2034832876
 11
879.9845832451
 21
106.6351994515
  0
LINE
  5
670
100
AcDbEntity
  8
RUNDUNGEN
100
AcDbLine
 62
7
  6
CONTINUOUS
 10
880.2107941457
 20
134.5393842234
 11
880.2107941457
 21
125.6074213292
  0
LINE
  5
671
100
AcDbEntity
  8
RUNDUNGEN
100
AcDbLine
 62
7
  6
CONTINUOUS
 10
880.2107941457
 20
108.1433215041
 11
880.2107941457
 21
117.9692059647
  0
LINE
  5
672
100
AcDbEntity
  8
BEZUGSACHSEN
100
AcDbLine
 62
7
  6
CONTINUOUS
 10
880.2107941457
 20
108.1433215041
 11
880.2107941457
 21
117.9692059647
  0
LINE
  5
673
100
AcDbEntity
  8
BEZUGSACHSEN
100
AcDbLine
 62
7
  6
CONTINUOUS
 10
880.2107941457
 20
125.6074213292
 11
880.2107941457
 21
137.2733354305
  0
LINE
  5
674
100
AcDbEntity
  8
0
100
AcDbLine
 62
7
  6
CONTINUOUS
 10
880.2363326815
 20
302.5669394628
 11
880.2363326815
 21
305.4555458809
  0
LINE
  5
675
100
AcDbEntity
  8
RUNDUNGEN
100
AcDbLine
 62
7
  6
CONTINUOUS
 10
880.2861977793
 20
142.636476
 11
880.2861977793
 21
151.0001698607
  0
LINE
  5
676
100
AcDbEntity
  8
BEZUGSACHSEN
100
AcDbLine
 62
7
  6
CONTINUOUS
 10
880.2861977793
 20
142.636476
 11
880.2861977793
 21
151.0001698607
  0
LINE
  5
677
100
AcDbEntity
  8
BEZUGSACHSEN
100
AcDbLine
 62
7
  6
CONTINUOUS
 10
881.1029987124
 20
392.3383136469
 11
881.1029987124
 21
337.8884963394
  0
LINE
  5
678
100
AcDbEntity
  8
KONSTRUKTIONSELEMENTE
100
AcDbLine
 62
7
  6
CONTINUOUS
 10
881.1029987124
 20
267.4137915911
 11
881.1029987124
 21
271.8728568675
  0
LINE
  5
679
100
AcDbEntity
  8
KONSTRUKTIONSELEMENTE
100
AcDbLine
 62
7
  6
CONTINUOUS
 10
881.1029987124
 20
320.5276768418
 11
881.1029987124
 21
392.3383136469
  0
LINE
  5
67A
100
AcDbEntity
  8
0
100
AcDbLine
 62
7
  6
CONTINUOUS
 10
881.5696647433
 20
306.4184145745
 11
881.5696647433
 21
302.5669394628
  0
LINE
  5
67B
100
AcDbEntity
  8
0
100
AcDbLine
 62
7
  6
CONTINUOUS
 10
882.4029987124
 20
302.5669394628
 11
882.4029987124
 21
305.5759044676
  0
LINE
  5
67C
100
AcDbEntity
  8
0
100
AcDbLine
 62
7
  6
CONTINUOUS
 10
882.4029987124
 20
305.7037854238
 11
882.4029987124
 21
306.4184145745
  0
LINE
  5
67D
100
AcDbEntity
  8
0
100
AcDbLine
 62
7
  6
CONTINUOUS
 10
882.7363326815
 20
306.2980559878
 11
882.7363326815
 21
305.9445025972
  0
LINE
  5
67E
100
AcDbEntity
  8
0
100
AcDbLine
 62
7
  6
CONTINUOUS
 10
883.2363326815
 20
306.4184145745
 11
883.2363326815
 21
306.0648611839
  0
LINE
  5
67F
100
AcDbEntity
  8
0
100
AcDbLine
 62
7
  6
CONTINUOUS
 10
883.9029987124
 20
306.4184145745
 11
883.9029987124
 21
306.0648611839
  0
LINE
  5
680
100
AcDbEntity
  8
0
100
AcDbLine
 62
7
  6
CONTINUOUS
 10
845.2169871509
 20
298.19084856
 11
845.1955644322
 21
297.9769699417
  0
LINE
  5
681
100
AcDbEntity
  8
0
100
AcDbLine
 62
7
  6
CONTINUOUS
 10
845.5414959513
 20
297.8349639839
 11
845.56291867
 21
298.0488426021
  0
LINE
  5
682
100
AcDbEntity
  8
0
100
AcDbLine
 62
7
  6
CONTINUOUS
 10
843.2476722414
 20
268.1802667058
 11
843.2707808499
 21
268.3313141487
  0
LINE
  5
683
100
AcDbEntity
  8
0
100
AcDbLine
 62
7
  6
CONTINUOUS
 10
844.8973815203
 20
268.1300043889
 11
844.8742728292
 21
267.9789568984
  0
LINE
  5
684
100
AcDbEntity
  8
0
100
AcDbLine
 62
7
  6
CONTINUOUS
 10
844.8973815203
 20
267.7764509983
 11
844.8742728292
 21
267.6254035078
  0
LINE
  5
685
100
AcDbEntity
  8
0
100
AcDbLine
 62
7
  6
CONTINUOUS
 10
845.5879445087
 20
268.7548815316
 11
845.6110531606
 21
268.9059289607
  0
LINE
  5
686
100
AcDbEntity
  8
0
100
AcDbLine
 62
7
  6
CONTINUOUS
 10
850.9041042514
 20
297.9748273974
 11
850.8670860942
 21
297.7405832603
  0
LINE
  5
687
100
AcDbEntity
  8
0
100
AcDbLine
 62
7
  6
CONTINUOUS
 10
851.5238574007
 20
297.8215022317
 11
851.5608758192
 21
298.0557465653
  0
LINE
  5
688
100
AcDbEntity
  8
0
100
AcDbLine
 62
7
  6
CONTINUOUS
 10
845.7069621591
 20
267.3315667855
 11
845.6623575005
 21
267.1194848028
  0
LINE
  5
689
100
AcDbEntity
  8
0
100
AcDbLine
 62
7
  6
CONTINUOUS
 10
848.4293439889
 20
267.4675583446
 11
848.4739487776
 21
267.6796402231
  0
LINE
  5
68A
100
AcDbEntity
  8
0
100
AcDbLine
 62
7
  6
CONTINUOUS
 10
847.4634926291
 20
297.5469919564
 11
847.5190986445
 21
297.8025064325
  0
LINE
  5
68B
100
AcDbEntity
  8
0
100
AcDbLine
 62
7
  6
CONTINUOUS
 10
884.2363326815
 20
305.4555458809
 11
884.2363326815
 21
302.5669394628
  0
LINE
  5
68C
100
AcDbEntity
  8
0
100
AcDbLine
 62
7
  6
CONTINUOUS
 10
884.4029987124
 20
306.2980559878
 11
884.4029987124
 21
305.9445025972
  0
LINE
  5
68D
100
AcDbEntity
  8
0
100
AcDbLine
 62
7
  6
CONTINUOUS
 10
884.9029987124
 20
305.9369802277
 11
884.9029987124
 21
305.5834268371
  0
LINE
  5
68E
100
AcDbEntity
  8
0
100
AcDbLine
 62
7
  6
CONTINUOUS
 10
885.0696647433
 20
302.5669394628
 11
885.0696647433
 21
305.4555458809
  0
LINE
  5
68F
100
AcDbEntity
  8
0
100
AcDbLine
 62
7
  6
CONTINUOUS
 10
885.4029987124
 20
306.2980559878
 11
885.4029987124
 21
305.9445025972
  0
LINE
  5
690
100
AcDbEntity
  8
0
100
AcDbLine
 62
7
  6
CONTINUOUS
 10
885.9029987124
 20
306.4184145745
 11
885.9029987124
 21
306.0648611839
  0
LINE
  5
691
100
AcDbEntity
  8
0
100
AcDbLine
 62
7
  6
CONTINUOUS
 10
886.5696647433
 20
306.4184145745
 11
886.5696647433
 21
306.0648611839
  0
LINE
  5
692
100
AcDbEntity
  8
0
100
AcDbLine
 62
7
  6
CONTINUOUS
 10
886.9029987124
 20
305.4555458809
 11
886.9029987124
 21
302.5669394628
  0
LINE
  5
693
100
AcDbEntity
  8
0
100
AcDbLine
 62
7
  6
CONTINUOUS
 10
887.0696647433
 20
306.2980559878
 11
887.0696647433
 21
305.9445025972
  0
LINE
  5
694
100
AcDbEntity
  8
0
100
AcDbLine
 62
7
  6
CONTINUOUS
 10
887.4029987124
 20
306.0573388144
 11
887.4029987124
 21
305.7037854238
  0
LINE
  5
695
100
AcDbEntity
  8
0
100
AcDbLine
 62
7
  6
CONTINUOUS
 10
887.7363326815
 20
302.5669394628
 11
887.7363326815
 21
305.4555458809
  0
LINE
  5
696
100
AcDbEntity
  8
RUNDUNGEN
100
AcDbLine
 62
7
  6
CONTINUOUS
 10
897.5529987124
 20
216.1584908018
 11
897.5529987124
 21
226.9065138758
  0
LINE
  5
697
100
AcDbEntity
  8
0
100
AcDbLine
 62
7
  6
CONTINUOUS
 10
900.7205824675
 20
132.4583713153
 11
900.7205824675
 21
125.6074213292
  0
LINE
  5
698
100
AcDbEntity
  8
RUNDUNGEN
100
AcDbLine
 62
7
  6
CONTINUOUS
 10
900.7205824675
 20
132.4583713153
 11
900.7205824675
 21
125.6074213292
  0
LINE
  5
699
100
AcDbEntity
  8
BEZUGSACHSEN
100
AcDbLine
 62
7
  6
CONTINUOUS
 10
900.7205824675
 20
133.4139047469
 11
900.7205824675
 21
125.6074213292
  0
LINE
  5
69A
100
AcDbEntity
  8
0
100
AcDbLine
 62
7
  6
CONTINUOUS
 10
900.7205824675
 20
117.9692059647
 11
900.7205824675
 21
109.1214181433
  0
LINE
  5
69B
100
AcDbEntity
  8
RUNDUNGEN
100
AcDbLine
 62
7
  6
CONTINUOUS
 10
900.7205824675
 20
117.9692059647
 11
900.7205824675
 21
108.1433215234
  0
LINE
  5
69C
100
AcDbEntity
  8
BEZUGSACHSEN
100
AcDbLine
 62
7
  6
CONTINUOUS
 10
900.7205824675
 20
117.9692059647
 11
900.7205824675
 21
108.1433215234
  0
LINE
  5
69D
100
AcDbEntity
  8
RUNDUNGEN
100
AcDbLine
 62
7
  6
CONTINUOUS
 10
901.0976006352
 20
106.6351994515
 11
901.0976006352
 21
139.2034832876
  0
LINE
  5
69E
100
AcDbEntity
  8
RUNDUNGEN
100
AcDbLine
 62
7
  6
CONTINUOUS
 10
907.2486628848
 20
301.0645481474
 11
907.2486628848
 21
304.6000820533
  0
LINE
  5
69F
100
AcDbEntity
  8
RUNDUNGEN
100
AcDbLine
 62
7
  6
CONTINUOUS
 10
909.9029987124
 20
221.2496596263
 11
909.9029987124
 21
234.3153027375
  0
LINE
  5
6A0
100
AcDbEntity
  8
0
100
AcDbLine
 62
7
  6
CONTINUOUS
 10
866.9029987124
 20
306.6591317479
 11
866.7363319663
 21
305.816621641
  0
LINE
  5
6A1
100
AcDbEntity
  8
0
100
AcDbLine
 62
7
  6
CONTINUOUS
 10
866.9029987124
 20
306.3055783573
 11
866.7363319663
 21
305.4630682504
  0
LINE
  5
6A2
100
AcDbEntity
  8
0
100
AcDbLine
 62
7
  6
CONTINUOUS
 10
867.5696652201
 20
305.816621641
 11
867.7363322047
 21
306.5387731612
  0
LINE
  5
6A3
100
AcDbEntity
  8
0
100
AcDbLine
 62
7
  6
CONTINUOUS
 10
851.3259654938
 20
266.845681879
 11
851.2563261849
 21
266.6151809657
  0
LINE
  5
6A4
100
AcDbEntity
  8
0
100
AcDbLine
 62
7
  6
CONTINUOUS
 10
851.9212013645
 20
266.6497157631
 11
851.9908409609
 21
266.8802168537
  0
LINE
  5
6A5
100
AcDbEntity
  8
0
100
AcDbLine
 62
7
  6
CONTINUOUS
 10
847.1859277035
 20
297.7722696301
 11
847.1410332004
 21
297.6236943808
  0
LINE
  5
6A6
100
AcDbEntity
  8
0
100
AcDbLine
 62
7
  6
CONTINUOUS
 10
847.1859277035
 20
297.4187162395
 11
847.1410332004
 21
297.2701409902
  0
LINE
  5
6A7
100
AcDbEntity
  8
0
100
AcDbLine
 62
7
  6
CONTINUOUS
 10
847.0696653989
 20
307.805547674
 11
846.9029987124
 21
307.3241133272
  0
LINE
  5
6A8
100
AcDbEntity
  8
0
100
AcDbLine
 62
7
  6
CONTINUOUS
 10
847.0696653989
 20
307.4519942834
 11
846.9029987124
 21
306.9705599366
  0
LINE
  5
6A9
100
AcDbEntity
  8
0
100
AcDbLine
 62
7
  6
CONTINUOUS
 10
843.0738621627
 20
268.7108559846
 11
842.9388967679
 21
268.3842275048
  0
LINE
  5
6AA
100
AcDbEntity
  8
0
100
AcDbLine
 62
7
  6
CONTINUOUS
 10
843.0738621627
 20
268.357302594
 11
842.9449740372
 21
268.0453816565
  0
LINE
  5
6AB
100
AcDbEntity
  8
0
100
AcDbLine
 62
7
  6
CONTINUOUS
 10
845.7678719306
 20
267.4772628067
 11
845.7069621591
 21
267.3315667855
  0
LINE
  5
6AC
100
AcDbEntity
  8
0
100
AcDbLine
 62
7
  6
CONTINUOUS
 10
845.7678719306
 20
267.1237094161
 11
845.7069621591
 21
266.9780133949
  0
LINE
  5
6AD
100
AcDbEntity
  8
0
100
AcDbLine
 62
7
  6
CONTINUOUS
 10
847.9029987124
 20
307.2037544033
 11
848.0696653393
 21
307.5648305006
  0
LINE
  5
6AE
100
AcDbEntity
  8
0
100
AcDbLine
 62
7
  6
CONTINUOUS
 10
842.2943171928
 20
299.4173582218
 11
842.1527845712
 21
299.146388208
  0
LINE
  5
6AF
100
AcDbEntity
  8
0
100
AcDbLine
 62
7
  6
CONTINUOUS
 10
844.2434073694
 20
299.883455087
 11
843.795220773
 21
299.0253834504
  0
LINE
  5
6B0
100
AcDbEntity
  8
0
100
AcDbLine
 62
7
  6
CONTINUOUS
 10
843.6536881515
 20
298.7544134366
 11
843.3234454119
 21
298.1221501554
  0
LINE
  5
6B1
100
AcDbEntity
  8
0
100
AcDbLine
 62
7
  6
CONTINUOUS
 10
843.6536881515
 20
298.400860046
 11
843.4859463775
 21
298.079711534
  0
LINE
  5
6B2
100
AcDbEntity
  8
0
100
AcDbLine
 62
7
  6
CONTINUOUS
 10
844.2434073694
 20
299.5299016964
 11
843.795220773
 21
298.6718300598
  0
LINE
  5
6B3
100
AcDbEntity
  8
0
100
AcDbLine
 62
7
  6
CONTINUOUS
 10
843.6986713069
 20
298.0241564626
 11
844.0289140465
 21
298.6564197438
  0
LINE
  5
6B4
100
AcDbEntity
  8
0
100
AcDbLine
 62
7
  6
CONTINUOUS
 10
844.1704466681
 20
298.9273897576
 11
844.8073433825
 21
300.1467546616
  0
LINE
  5
6B5
100
AcDbEntity
  8
0
100
AcDbLine
 62
7
  6
CONTINUOUS
 10
844.6542904787
 20
298.493096938
 11
844.7958231002
 21
298.7640669518
  0
LINE
  5
6B6
100
AcDbEntity
  8
BEZUGSACHSEN
100
AcDbLine
 62
7
  6
CONTINUOUS
 10
914.1029987124
 20
395.6383136469
 11
914.1029987124
 21
337.8884498632
  0
LINE
  5
6B7
100
AcDbEntity
  8
KONSTRUKTIONSELEMENTE
100
AcDbLine
 62
7
  6
CONTINUOUS
 10
914.1029987124
 20
392.3383136469
 11
914.1029987124
 21
330.0830396636
  0
LINE
  5
6B8
100
AcDbEntity
  8
KONSTRUKTIONSELEMENTE
100
AcDbLine
 62
7
  6
CONTINUOUS
 10
914.1029987124
 20
312.0572609942
 11
914.1029987124
 21
236.6883136517
  0
LINE
  5
6B9
100
AcDbEntity
  8
0
100
AcDbLine
 62
7
  6
CONTINUOUS
 10
920.2501235534
 20
107.921674135
 11
920.2501235534
 21
115.2191490933
  0
LINE
  5
6BA
100
AcDbEntity
  8
0
100
AcDbLine
 62
7
  6
CONTINUOUS
 10
920.2501235534
 20
128.3574782006
 11
920.2501235534
 21
129.8229256145
  0
LINE
  5
6BB
100
AcDbEntity
  8
KONSTRUKTIONSELEMENTE
100
AcDbLine
 62
7
  6
CONTINUOUS
 10
920.7029987124
 20
300.9832523996
 11
920.7029987124
 21
251.5933748942
  0
LINE
  5
6BC
100
AcDbEntity
  8
RUNDUNGEN
100
AcDbLine
 62
7
  6
CONTINUOUS
 10
924.0740362845
 20
319.281928823
 11
924.0740362845
 21
322.8174627289
  0
LINE
  5
6BD
100
AcDbEntity
  8
0
100
AcDbLine
 62
7
  6
CONTINUOUS
 10
848.3684342664
 20
267.3218621358
 11
848.4293439889
 21
267.4675583446
  0
LINE
  5
6BE
100
AcDbEntity
  8
0
100
AcDbLine
 62
7
  6
CONTINUOUS
 10
867.7363322047
 20
306.5387731612
 11
867.9029987124
 21
306.8998492585
  0
LINE
  5
6BF
100
AcDbEntity
  8
0
100
AcDbLine
 62
7
  6
CONTINUOUS
 10
867.7363322047
 20
304.6130356053
 11
867.9029987124
 21
304.974111534
  0
LINE
  5
6C0
100
AcDbEntity
  8
0
100
AcDbLine
 62
7
  6
CONTINUOUS
 10
871.9029987124
 20
304.2519598452
 11
871.7363317278
 21
303.8908840851
  0
LINE
  5
6C1
100
AcDbEntity
  8
0
100
AcDbLine
 62
7
  6
CONTINUOUS
 10
871.9029987124
 20
303.8984064546
 11
871.7363317278
 21
303.5373306945
  0
LINE
  5
6C2
100
AcDbEntity
  8
0
100
AcDbLine
 62
7
  6
CONTINUOUS
 10
867.2363319663
 20
307.2609250186
 11
866.9029987124
 21
306.6591317479
  0
LINE
  5
6C3
100
AcDbEntity
  8
0
100
AcDbLine
 62
7
  6
CONTINUOUS
 10
867.2363319663
 20
306.907371628
 11
866.9029987124
 21
306.3055783573
  0
LINE
  5
6C4
100
AcDbEntity
  8
0
100
AcDbLine
 62
7
  6
CONTINUOUS
 10
872.4029987124
 20
303.5298082407
 11
872.7363317278
 21
304.1316012585
  0
LINE
  5
6C5
100
AcDbEntity
  8
0
100
AcDbLine
 62
7
  6
CONTINUOUS
 10
845.9059965102
 20
267.7022690472
 11
845.7678719306
 21
267.4772628067
  0
LINE
  5
6C6
100
AcDbEntity
  8
0
100
AcDbLine
 62
7
  6
CONTINUOUS
 10
845.9059965102
 20
267.3487156566
 11
845.7678719306
 21
267.1237094161
  0
LINE
  5
6C7
100
AcDbEntity
  8
0
100
AcDbLine
 62
7
  6
CONTINUOUS
 10
848.2303095838
 20
267.0968560273
 11
848.3684342664
 21
267.3218621358
  0
LINE
  5
6C8
100
AcDbEntity
  8
0
100
AcDbLine
 62
7
  6
CONTINUOUS
 10
843.2696114986
 20
269.0181226824
 11
843.0738621627
 21
268.7108559846
  0
LINE
  5
6C9
100
AcDbEntity
  8
0
100
AcDbLine
 62
7
  6
CONTINUOUS
 10
843.2696114986
 20
268.6645692918
 11
843.0738621627
 21
268.357302594
  0
LINE
  5
6CA
100
AcDbEntity
  8
0
100
AcDbLine
 62
7
  6
CONTINUOUS
 10
843.5176030026
 20
268.8335236003
 11
843.5735313843
 21
268.9213140854
  0
LINE
  5
6CB
100
AcDbEntity
  8
0
100
AcDbLine
 62
7
  6
CONTINUOUS
 10
843.2707808499
 20
268.3313141487
 11
843.3546734225
 21
268.4629998763
  0
LINE
  5
6CC
100
AcDbEntity
  8
0
100
AcDbLine
 62
7
  6
CONTINUOUS
 10
844.8742728292
 20
267.9789568984
 11
844.7903802566
 21
267.8472711708
  0
LINE
  5
6CD
100
AcDbEntity
  8
0
100
AcDbLine
 62
7
  6
CONTINUOUS
 10
844.8742728292
 20
267.6254035078
 11
844.8091302448
 21
267.5231495375
  0
LINE
  5
6CE
100
AcDbEntity
  8
0
100
AcDbLine
 62
7
  6
CONTINUOUS
 10
845.0663360167
 20
267.7065673105
 11
845.2061570101
 21
267.9260435847
  0
LINE
  5
6CF
100
AcDbEntity
  8
0
100
AcDbLine
 62
7
  6
CONTINUOUS
 10
846.0424338865
 20
267.343608853
 11
846.2191660003
 21
267.608270099
  0
LINE
  5
6D0
100
AcDbEntity
  8
0
100
AcDbLine
 62
7
  6
CONTINUOUS
 10
852.2363322047
 20
303.8337137227
 11
852.5696652201
 21
304.3151481538
  0
LINE
  5
6D1
100
AcDbEntity
  8
0
100
AcDbLine
 62
7
  6
CONTINUOUS
 10
846.413401842
 20
299.6481027404
 11
845.5246366539
 21
298.5655710768
  0
LINE
  5
6D2
100
AcDbEntity
  8
0
100
AcDbLine
 62
7
  6
CONTINUOUS
 10
846.413401842
 20
299.2945493498
 11
845.7535897375
 21
298.4908865773
  0
LINE
  5
6D3
100
AcDbEntity
  8
0
100
AcDbLine
 62
7
  6
CONTINUOUS
 10
845.9838291737
 20
298.6554119674
 11
846.530761634
 21
299.3215853437
  0
LINE
  5
6D4
100
AcDbEntity
  8
0
100
AcDbLine
 62
7
  6
CONTINUOUS
 10
847.1410332004
 20
297.6236943808
 11
847.0726666548
 21
297.5404227233
  0
LINE
  5
6D5
100
AcDbEntity
  8
0
100
AcDbLine
 62
7
  6
CONTINUOUS
 10
848.2027641959
 20
298.6352231237
 11
848.3736805599
 21
298.8434022674
  0
LINE
  5
6D6
100
AcDbEntity
  8
0
100
AcDbLine
 62
7
  6
CONTINUOUS
 10
847.3267595379
 20
297.3804486415
 11
847.4634926291
 21
297.5469919564
  0
LINE
  5
6D7
100
AcDbEntity
  8
0
100
AcDbLine
 62
7
  6
CONTINUOUS
 10
851.5696652201
 20
304.4355067405
 11
851.2363322047
 21
304.0744309804
  0
LINE
  5
6D8
100
AcDbEntity
  8
0
100
AcDbLine
 62
7
  6
CONTINUOUS
 10
851.5696652201
 20
304.0819533499
 11
851.2363322047
 21
303.7208775898
  0
LINE
  5
6D9
100
AcDbEntity
  8
RUNDUNGEN
100
AcDbLine
 62
7
  6
CONTINUOUS
 10
785.6380134059
 20
325.2205976194
 11
796.4917779927
 21
330.5945298061
  0
LINE
  5
6DA
100
AcDbEntity
  8
BEZUGSACHSEN
100
AcDbLine
 62
7
  6
CONTINUOUS
 10
816.7955193517
 20
181.0167806369
 11
792.2043781941
 21
141.4325034508
  0
LINE
  5
6DB
100
AcDbEntity
  8
0
100
AcDbLine
 62
7
  6
CONTINUOUS
 10
848.0938719962
 20
267.4555162425
 11
847.9171402507
 21
267.1908548991
  0
LINE
  5
6DC
100
AcDbEntity
  8
0
100
AcDbLine
 62
7
  6
CONTINUOUS
 10
848.0938719962
 20
267.1019628519
 11
847.9171402507
 21
266.8373015085
  0
LINE
  5
6DD
100
AcDbEntity
  8
0
100
AcDbLine
 62
7
  6
CONTINUOUS
 10
877.569665697
 20
305.4555458809
 11
877.7363317278
 21
305.6962630543
  0
LINE
  5
6DE
100
AcDbEntity
  8
0
100
AcDbLine
 62
7
  6
CONTINUOUS
 10
885.0696647433
 20
305.4555458809
 11
885.2363326815
 21
305.6962630543
  0
LINE
  5
6DF
100
AcDbEntity
  8
0
100
AcDbLine
 62
7
  6
CONTINUOUS
 10
843.526144815
 20
269.3060276597
 11
843.2696114986
 21
269.0181226824
  0
LINE
  5
6E0
100
AcDbEntity
  8
0
100
AcDbLine
 62
7
  6
CONTINUOUS
 10
843.526144815
 20
268.9524742691
 11
843.2696114986
 21
268.6645692918
  0
LINE
  5
6E1
100
AcDbEntity
  8
0
100
AcDbLine
 62
7
  6
CONTINUOUS
 10
867.9029987124
 20
306.8998492585
 11
868.2363322047
 21
307.2609250186
  0
LINE
  5
6E2
100
AcDbEntity
  8
0
100
AcDbLine
 62
7
  6
CONTINUOUS
 10
871.7363317278
 20
303.8908840851
 11
871.4029987124
 21
303.5298082407
  0
LINE
  5
6E3
100
AcDbEntity
  8
0
100
AcDbLine
 62
7
  6
CONTINUOUS
 10
871.7363317278
 20
303.5373306945
 11
871.4029987124
 21
303.1762548501
  0
LINE
  5
6E4
100
AcDbEntity
  8
0
100
AcDbLine
 62
7
  6
CONTINUOUS
 10
843.5735313843
 20
268.9213140854
 11
843.8021005153
 21
269.1653238185
  0
LINE
  5
6E5
100
AcDbEntity
  8
0
100
AcDbLine
 62
7
  6
CONTINUOUS
 10
846.2534629037
 20
268.0591647844
 11
845.9059965102
 21
267.7022690472
  0
LINE
  5
6E6
100
AcDbEntity
  8
0
100
AcDbLine
 62
7
  6
CONTINUOUS
 10
846.2534629037
 20
267.7056113938
 11
845.9059965102
 21
267.3487156566
  0
LINE
  5
6E7
100
AcDbEntity
  8
0
100
AcDbLine
 62
7
  6
CONTINUOUS
 10
846.2191660003
 20
267.608270099
 11
846.4894176397
 21
267.8858556723
  0
LINE
  5
6E8
100
AcDbEntity
  8
0
100
AcDbLine
 62
7
  6
CONTINUOUS
 10
847.9171402507
 20
267.1908548991
 11
847.6468886113
 21
266.9132693257
  0
LINE
  5
6E9
100
AcDbEntity
  8
0
100
AcDbLine
 62
7
  6
CONTINUOUS
 10
847.9171402507
 20
266.8373015085
 11
847.6975863631
 21
266.6117894934
  0
LINE
  5
6EA
100
AcDbEntity
  8
0
100
AcDbLine
 62
7
  6
CONTINUOUS
 10
847.8828431902
 20
266.7399602901
 11
848.2303095838
 21
267.0968560273
  0
LINE
  5
6EB
100
AcDbEntity
  8
RUNDUNGEN
100
AcDbLine
 62
7
  6
CONTINUOUS
 10
802.3497823581
 20
237.5599410389
 11
825.8300416804
 21
261.271554646
  0
LINE
  5
6EC
100
AcDbEntity
  8
RUNDUNGEN
100
AcDbLine
 62
7
  6
CONTINUOUS
 10
886.8638773843
 20
322.9067652842
 11
888.3843171127
 21
324.4421861183
  0
LINE
  5
6ED
100
AcDbEntity
  8
0
100
AcDbLine
 62
7
  6
CONTINUOUS
 10
867.7363322047
 20
307.7423593654
 11
867.2363319663
 21
307.2609250186
  0
LINE
  5
6EE
100
AcDbEntity
  8
0
100
AcDbLine
 62
7
  6
CONTINUOUS
 10
867.7363322047
 20
307.3888059748
 11
867.2363319663
 21
306.907371628
  0
LINE
  5
6EF
100
AcDbEntity
  8
0
100
AcDbLine
 62
7
  6
CONTINUOUS
 10
871.9029987124
 20
303.0483738517
 11
872.4029987124
 21
303.5298082407
  0
LINE
  5
6F0
100
AcDbEntity
  8
0
100
AcDbLine
 62
7
  6
CONTINUOUS
 10
864.4029987124
 20
308.2237937122
 11
863.4029987124
 21
307.3812836053
  0
LINE
  5
6F1
100
AcDbEntity
  8
0
100
AcDbLine
 62
7
  6
CONTINUOUS
 10
864.4029987124
 20
307.8702403217
 11
863.4029987124
 21
307.0277302147
  0
LINE
  5
6F2
100
AcDbEntity
  8
0
100
AcDbLine
 62
7
  6
CONTINUOUS
 10
863.4029987124
 20
306.4184145745
 11
864.4029987124
 21
307.2609250186
  0
LINE
  5
6F3
100
AcDbEntity
  8
0
100
AcDbLine
 62
7
  6
CONTINUOUS
 10
851.0868063526
 20
298.1121793562
 11
850.9041042514
 21
297.9748273974
  0
LINE
  5
6F4
100
AcDbEntity
  8
0
100
AcDbLine
 62
7
  6
CONTINUOUS
 10
851.0868063526
 20
297.7586259656
 11
850.9842985686
 21
297.6815625666
  0
LINE
  5
6F5
100
AcDbEntity
  8
0
100
AcDbLine
 62
7
  6
CONTINUOUS
 10
851.3411552995
 20
297.684150273
 11
851.5238574007
 21
297.8215022317
  0
LINE
  5
6F6
100
AcDbEntity
  8
0
100
AcDbLine
 62
7
  6
CONTINUOUS
 10
847.7363320855
 20
308.2869820208
 11
847.0696653989
 21
307.805547674
  0
LINE
  5
6F7
100
AcDbEntity
  8
0
100
AcDbLine
 62
7
  6
CONTINUOUS
 10
847.7363320855
 20
307.9334286302
 11
847.0696653989
 21
307.4519942834
  0
LINE
  5
6F8
100
AcDbEntity
  8
0
100
AcDbLine
 62
7
  6
CONTINUOUS
 10
851.5696652201
 20
303.3522793337
 11
852.2363322047
 21
303.8337137227
  0
LINE
  5
6F9
100
AcDbEntity
  8
0
100
AcDbLine
 62
7
  6
CONTINUOUS
 10
867.9029987124
 20
304.974111534
 11
868.2363322047
 21
305.2148287074
  0
LINE
  5
6FA
100
AcDbEntity
  8
0
100
AcDbLine
 62
7
  6
CONTINUOUS
 10
855.4029987124
 20
299.0314055568
 11
848.7609672726
 21
294.4871030732
  0
LINE
  5
6FB
100
AcDbEntity
  8
0
100
AcDbLine
 62
7
  6
CONTINUOUS
 10
848.401634892
 20
294.2412573489
 11
836.9029987124
 21
286.3741941736
  0
LINE
  5
6FC
100
AcDbEntity
  8
0
100
AcDbLine
 62
7
  6
CONTINUOUS
 10
855.4029987124
 20
298.6778521662
 11
848.7609672726
 21
294.1335496826
  0
LINE
  5
6FD
100
AcDbEntity
  8
0
100
AcDbLine
 62
7
  6
CONTINUOUS
 10
848.401634892
 20
293.8877039583
 11
836.9029987124
 21
286.020640783
  0
LINE
  5
6FE
100
AcDbEntity
  8
0
100
AcDbLine
 62
7
  6
CONTINUOUS
 10
837.227744573
 20
285.5963767143
 11
855.4029987124
 21
298.0314055568
  0
LINE
  5
6FF
100
AcDbEntity
  8
0
100
AcDbLine
 62
7
  6
CONTINUOUS
 10
847.0726666548
 20
297.5404227233
 11
846.9124614733
 21
297.4391829419
  0
LINE
  5
700
100
AcDbEntity
  8
RUNDUNGEN
100
AcDbLine
 62
7
  6
CONTINUOUS
 10
841.63716424
 20
324.7622181643
 11
823.8206072767
 21
315.9408577824
  0
LINE
  5
701
100
AcDbEntity
  8
0
100
AcDbLine
 62
7
  6
CONTINUOUS
 10
848.0696653393
 20
307.5648305006
 11
848.5696654585
 21
307.805547674
  0
LINE
  5
702
100
AcDbEntity
  8
RUNDUNGEN
100
AcDbLine
 62
7
  6
CONTINUOUS
 10
899.8758132561
 20
312.6236515986
 11
904.2349941723
 21
317.0257841352
  0
LINE
  5
703
100
AcDbEntity
  8
RUNDUNGEN
100
AcDbLine
 62
7
  6
CONTINUOUS
 10
900.0281673495
 20
309.2419729524
 11
904.2349941723
 21
313.4902502293
  0
LINE
  5
704
100
AcDbEntity
  8
RUNDUNGEN
100
AcDbLine
 62
7
  6
CONTINUOUS
 10
922.6272526388
 20
319.5728244275
 11
918.6122175844
 21
315.5182286701
  0
LINE
  5
705
100
AcDbEntity
  8
RUNDUNGEN
100
AcDbLine
 62
7
  6
CONTINUOUS
 10
906.7965429956
 20
303.5861325842
 11
884.9759557444
 21
281.5505440296
  0
LINE
  5
706
100
AcDbEntity
  8
RUNDUNGEN
100
AcDbLine
 62
7
  6
CONTINUOUS
 10
847.2114782695
 20
243.4139678672
 11
838.8554278116
 21
234.9755840734
  0
LINE
  5
707
100
AcDbEntity
  8
RUNDUNGEN
100
AcDbLine
 62
7
  6
CONTINUOUS
 10
922.6272526388
 20
316.0372905216
 11
918.6122175844
 21
311.9826947642
  0
LINE
  5
708
100
AcDbEntity
  8
RUNDUNGEN
100
AcDbLine
 62
7
  6
CONTINUOUS
 10
906.7965429956
 20
300.0505986782
 11
884.9759557444
 21
278.0150101237
  0
LINE
  5
709
100
AcDbEntity
  8
RUNDUNGEN
100
AcDbLine
 62
7
  6
CONTINUOUS
 10
847.2114782695
 20
239.8784339612
 11
838.8554278116
 21
231.4400501675
  0
LINE
  5
70A
100
AcDbEntity
  8
0
100
AcDbLine
 62
7
  6
CONTINUOUS
 10
843.8021005153
 20
269.1653238185
 11
843.9467771303
 21
269.2776479538
  0
LINE
  5
70B
100
AcDbEntity
  8
0
100
AcDbLine
 62
7
  6
CONTINUOUS
 10
843.3546734225
 20
268.4629998763
 11
843.4993499983
 21
268.5753239502
  0
LINE
  5
70C
100
AcDbEntity
  8
0
100
AcDbLine
 62
7
  6
CONTINUOUS
 10
844.7903802566
 20
267.8472711708
 11
844.6457037634
 21
267.7349471446
  0
LINE
  5
70D
100
AcDbEntity
  8
0
100
AcDbLine
 62
7
  6
CONTINUOUS
 10
846.4894176397
 20
267.8858556723
 11
846.7759741048
 21
268.0970554648
  0
LINE
  5
70E
100
AcDbEntity
  8
0
100
AcDbLine
 62
7
  6
CONTINUOUS
 10
847.6468886113
 20
266.9132693257
 11
847.360331778
 21
266.7020696306
  0
LINE
  5
70F
100
AcDbEntity
  8
0
100
AcDbLine
 62
7
  6
CONTINUOUS
 10
875.2363317278
 20
306.2980559878
 11
874.9029987124
 21
306.0573388144
  0
LINE
  5
710
100
AcDbEntity
  8
0
100
AcDbLine
 62
7
  6
CONTINUOUS
 10
875.2363317278
 20
305.9445025972
 11
874.9029987124
 21
305.7037854238
  0
LINE
  5
711
100
AcDbEntity
  8
0
100
AcDbLine
 62
7
  6
CONTINUOUS
 10
874.9029987124
 20
305.5759044676
 11
875.2363317278
 21
305.816621641
  0
LINE
  5
712
100
AcDbEntity
  8
0
100
AcDbLine
 62
7
  6
CONTINUOUS
 10
877.9029987124
 20
306.2980559878
 11
877.4029987124
 21
305.9369802277
  0
LINE
  5
713
100
AcDbEntity
  8
0
100
AcDbLine
 62
7
  6
CONTINUOUS
 10
877.9029987124
 20
305.9445025972
 11
877.4029987124
 21
305.5834268371
  0
LINE
  5
714
100
AcDbEntity
  8
0
100
AcDbLine
 62
7
  6
CONTINUOUS
 10
877.7363317278
 20
305.6962630543
 11
877.9029987124
 21
305.816621641
  0
LINE
  5
715
100
AcDbEntity
  8
0
100
AcDbLine
 62
7
  6
CONTINUOUS
 10
882.7363326815
 20
306.2980559878
 11
882.4029987124
 21
306.0573388144
  0
LINE
  5
716
100
AcDbEntity
  8
0
100
AcDbLine
 62
7
  6
CONTINUOUS
 10
882.7363326815
 20
305.9445025972
 11
882.4029987124
 21
305.7037854238
  0
LINE
  5
717
100
AcDbEntity
  8
0
100
AcDbLine
 62
7
  6
CONTINUOUS
 10
882.4029987124
 20
305.5759044676
 11
882.7363326815
 21
305.816621641
  0
LINE
  5
718
100
AcDbEntity
  8
0
100
AcDbLine
 62
7
  6
CONTINUOUS
 10
885.4029987124
 20
306.2980559878
 11
884.9029987124
 21
305.9369802277
  0
LINE
  5
719
100
AcDbEntity
  8
0
100
AcDbLine
 62
7
  6
CONTINUOUS
 10
885.4029987124
 20
305.9445025972
 11
884.9029987124
 21
305.5834268371
  0
LINE
  5
71A
100
AcDbEntity
  8
0
100
AcDbLine
 62
7
  6
CONTINUOUS
 10
885.2363326815
 20
305.6962630543
 11
885.4029987124
 21
305.816621641
  0
LINE
  5
71B
100
AcDbEntity
  8
0
100
AcDbLine
 62
7
  6
CONTINUOUS
 10
846.5014121488
 20
268.2307094185
 11
846.2534629037
 21
268.0591647844
  0
LINE
  5
71C
100
AcDbEntity
  8
0
100
AcDbLine
 62
7
  6
CONTINUOUS
 10
846.4387199872
 20
267.833782216
 11
846.2534629037
 21
267.7056113938
  0
LINE
  5
71D
100
AcDbEntity
  8
0
100
AcDbLine
 62
7
  6
CONTINUOUS
 10
847.6348940482
 20
266.568415524
 11
847.8828431902
 21
266.7399602901
  0
LINE
  5
71E
100
AcDbEntity
  8
0
100
AcDbLine
 62
7
  6
CONTINUOUS
 10
843.787533803
 20
269.4867805563
 11
843.526144815
 21
269.3060276597
  0
LINE
  5
71F
100
AcDbEntity
  8
0
100
AcDbLine
 62
7
  6
CONTINUOUS
 10
843.7435338803
 20
269.1028008132
 11
843.526144815
 21
268.9524742691
  0
LINE
  5
720
100
AcDbEntity
  8
0
100
AcDbLine
 62
7
  6
CONTINUOUS
 10
844.8049470277
 20
267.5258145252
 11
845.0663360167
 21
267.7065673105
  0
LINE
  5
721
100
AcDbEntity
  8
0
100
AcDbLine
 62
7
  6
CONTINUOUS
 10
851.5270041588
 20
266.969566168
 11
851.3259654938
 21
266.845681879
  0
LINE
  5
722
100
AcDbEntity
  8
0
100
AcDbLine
 62
7
  6
CONTINUOUS
 10
851.5270041588
 20
266.6160127774
 11
851.3780683296
 21
266.5242353609
  0
LINE
  5
723
100
AcDbEntity
  8
0
100
AcDbLine
 62
7
  6
CONTINUOUS
 10
851.7201626995
 20
266.5258314741
 11
851.9212013645
 21
266.6497157631
  0
LINE
  5
724
100
AcDbEntity
  8
0
100
AcDbLine
 62
7
  6
CONTINUOUS
 10
847.0405327537
 20
297.2196047429
 11
847.3267595379
 21
297.3804486415
  0
LINE
  5
725
100
AcDbEntity
  8
0
100
AcDbLine
 62
7
  6
CONTINUOUS
 10
851.2363322047
 20
304.0744309804
 11
850.7363322047
 21
303.8337137227
  0
LINE
  5
726
100
AcDbEntity
  8
0
100
AcDbLine
 62
7
  6
CONTINUOUS
 10
851.2363322047
 20
303.7208775898
 11
850.7363322047
 21
303.4801603321
  0
LINE
  5
727
100
AcDbEntity
  8
0
100
AcDbLine
 62
7
  6
CONTINUOUS
 10
868.2363322047
 20
307.2609250186
 11
868.7363322047
 21
307.501642192
  0
LINE
  5
728
100
AcDbEntity
  8
0
100
AcDbLine
 62
7
  6
CONTINUOUS
 10
868.5696652201
 20
306.0573388144
 11
867.5696652201
 21
305.5759044676
  0
LINE
  5
729
100
AcDbEntity
  8
0
100
AcDbLine
 62
7
  6
CONTINUOUS
 10
868.5696652201
 20
305.7037854238
 11
867.5696652201
 21
305.222351077
  0
LINE
  5
72A
100
AcDbEntity
  8
0
100
AcDbLine
 62
7
  6
CONTINUOUS
 10
868.2363322047
 20
305.2148287074
 11
868.7363322047
 21
305.4555458809
  0
LINE
  5
72B
100
AcDbEntity
  8
0
100
AcDbLine
 62
7
  6
CONTINUOUS
 10
871.4029987124
 20
303.5298082407
 11
870.9029987124
 21
303.2890910673
  0
LINE
  5
72C
100
AcDbEntity
  8
0
100
AcDbLine
 62
7
  6
CONTINUOUS
 10
871.4029987124
 20
303.1762548501
 11
870.9029987124
 21
302.9355376767
  0
LINE
  5
72D
100
AcDbEntity
  8
0
100
AcDbLine
 62
7
  6
CONTINUOUS
 10
868.5696652201
 20
308.1034351255
 11
867.7363322047
 21
307.7423593654
  0
LINE
  5
72E
100
AcDbEntity
  8
0
100
AcDbLine
 62
7
  6
CONTINUOUS
 10
868.5696652201
 20
307.7498817349
 11
867.7363322047
 21
307.3888059748
  0
LINE
  5
72F
100
AcDbEntity
  8
0
100
AcDbLine
 62
7
  6
CONTINUOUS
 10
871.0696652201
 20
302.68729806
 11
871.9029987124
 21
303.0483738517
  0
LINE
  5
730
100
AcDbEntity
  8
0
100
AcDbLine
 62
7
  6
CONTINUOUS
 10
844.4321174875
 20
300.2447483544
 11
842.2943171928
 21
299.4173582218
  0
LINE
  5
731
100
AcDbEntity
  8
0
100
AcDbLine
 62
7
  6
CONTINUOUS
 10
844.4321174875
 20
299.8911949638
 11
844.2434073694
 21
299.8181587266
  0
LINE
  5
732
100
AcDbEntity
  8
0
100
AcDbLine
 62
7
  6
CONTINUOUS
 10
842.7320807221
 20
299.2332318939
 11
842.3646992987
 21
299.0910447283
  0
LINE
  5
733
100
AcDbEntity
  8
0
100
AcDbLine
 62
7
  6
CONTINUOUS
 10
842.7320807221
 20
299.3030322507
 11
844.2434073694
 21
299.883455087
  0
LINE
  5
734
100
AcDbEntity
  8
0
100
AcDbLine
 62
7
  6
CONTINUOUS
 10
848.4029987124
 20
308.5276991943
 11
847.7363320855
 21
308.2869820208
  0
LINE
  5
735
100
AcDbEntity
  8
0
100
AcDbLine
 62
7
  6
CONTINUOUS
 10
848.4029987124
 20
308.1741458037
 11
847.7363320855
 21
307.9334286302
  0
LINE
  5
736
100
AcDbEntity
  8
0
100
AcDbLine
 62
7
  6
CONTINUOUS
 10
850.9029987124
 20
303.1115621287
 11
851.5696652201
 21
303.3522793337
  0
LINE
  5
737
100
AcDbEntity
  8
0
100
AcDbLine
 62
7
  6
CONTINUOUS
 10
877.9029987124
 20
305.816621641
 11
878.2363317278
 21
305.9369802277
  0
LINE
  5
738
100
AcDbEntity
  8
0
100
AcDbLine
 62
7
  6
CONTINUOUS
 10
885.4029987124
 20
305.816621641
 11
885.7363326815
 21
305.9369802277
  0
LINE
  5
739
100
AcDbEntity
  8
0
100
AcDbLine
 62
7
  6
CONTINUOUS
 10
846.9124614733
 20
297.4391829419
 11
846.6946012347
 21
297.3616107007
  0
LINE
  5
73A
100
AcDbEntity
  8
0
100
AcDbLine
 62
7
  6
CONTINUOUS
 10
846.7308338911
 20
297.1240643923
 11
847.0405327537
 21
297.2196047429
  0
LINE
  5
73B
100
AcDbEntity
  8
0
100
AcDbLine
 62
7
  6
CONTINUOUS
 10
846.6721467479
 20
268.3229439999
 11
846.5014121488
 21
268.2307094185
  0
LINE
  5
73C
100
AcDbEntity
  8
0
100
AcDbLine
 62
7
  6
CONTINUOUS
 10
847.4641594001
 20
266.4761811302
 11
847.6348940482
 21
266.568415524
  0
LINE
  5
73D
100
AcDbEntity
  8
0
100
AcDbLine
 62
7
  6
CONTINUOUS
 10
843.9467771303
 20
269.2776479538
 11
844.1522376745
 21
269.3706102372
  0
LINE
  5
73E
100
AcDbEntity
  8
0
100
AcDbLine
 62
7
  6
CONTINUOUS
 10
844.6457037634
 20
267.7349471446
 11
844.4402431562
 21
267.6419848444
  0
LINE
  5
73F
100
AcDbEntity
  8
0
100
AcDbLine
 62
7
  6
CONTINUOUS
 10
844.0817425022
 20
269.6042763669
 11
843.787533803
 21
269.4867805563
  0
LINE
  5
740
100
AcDbEntity
  8
0
100
AcDbLine
 62
7
  6
CONTINUOUS
 10
844.5107383187
 20
267.4083186992
 11
844.8049470277
 21
267.5258145252
  0
LINE
  5
741
100
AcDbEntity
  8
0
100
AcDbLine
 62
7
  6
CONTINUOUS
 10
846.9364011328
 20
268.4281027002
 11
846.6721467479
 21
268.3229439999
  0
LINE
  5
742
100
AcDbEntity
  8
0
100
AcDbLine
 62
7
  6
CONTINUOUS
 10
847.1999051453
 20
266.3710223257
 11
847.4641594001
 21
266.4761811302
  0
LINE
  5
743
100
AcDbEntity
  8
0
100
AcDbLine
 62
7
  6
CONTINUOUS
 10
855.4029987124
 20
264.1495841701
 11
850.3983697782
 21
262.2042626953
  0
LINE
  5
744
100
AcDbEntity
  8
0
100
AcDbLine
 62
7
  6
CONTINUOUS
 10
850.0478406596
 20
262.0680104714
 11
836.9029987124
 21
256.9585520762
  0
LINE
  5
745
100
AcDbEntity
  8
0
100
AcDbLine
 62
7
  6
CONTINUOUS
 10
855.4029987124
 20
263.7960307795
 11
850.3983697782
 21
261.8507093047
  0
LINE
  5
746
100
AcDbEntity
  8
0
100
AcDbLine
 62
7
  6
CONTINUOUS
 10
850.0478406596
 20
261.7144570808
 11
836.9029987124
 21
256.6049986856
  0
LINE
  5
747
100
AcDbEntity
  8
0
100
AcDbLine
 62
7
  6
CONTINUOUS
 10
837.1844202481
 20
256.251445295
 11
855.4029987124
 21
263.3330875892
  0
LINE
  5
748
100
AcDbEntity
  8
0
100
AcDbLine
 62
7
  6
CONTINUOUS
 10
846.7759741048
 20
268.0970554648
 11
847.2272682286
 21
268.2280628127
  0
LINE
  5
749
100
AcDbEntity
  8
0
100
AcDbLine
 62
7
  6
CONTINUOUS
 10
847.360331778
 20
266.7020696306
 11
846.9090380495
 21
266.5710622132
  0
LINE
  5
74A
100
AcDbEntity
  8
BEZUGSACHSEN
100
AcDbLine
 62
7
  6
CONTINUOUS
 10
894.0104780731
 20
62.5598466569
 11
918.6016192307
 21
102.1441238431
  0
ARC
  5
74B
100
AcDbEntity
  8
BEZUGSACHSEN
100
AcDbCircle
 62
7
  6
CONTINUOUS
 10
235.5347892026
 20
73.5184232953
 40
10.9486075894
100
AcDbArc
 50
359.9999845135
 51
8.0000189394
  0
ARC
  5
74C
100
AcDbEntity
  8
BEZUGSACHSEN
100
AcDbCircle
 62
7
  6
CONTINUOUS
 10
239.0659279887
 20
95.5944605922
 40
4.3794430358
100
AcDbArc
 50
7.9999773001
 51
45.0001724812
  0
ARC
  5
74D
100
AcDbEntity
  8
BEZUGSACHSEN
100
AcDbCircle
 62
7
  6
CONTINUOUS
 10
244.3687012713
 20
102.6786227832
 40
4.3794430358
100
AcDbArc
 50
180.0
 51
224.9999906585
  0
ARC
  5
74E
100
AcDbEntity
  8
BEZUGSACHSEN
100
AcDbCircle
 62
7
  6
CONTINUOUS
 10
249.7679790689
 20
45.1008039964
 40
3.2845822768
100
AcDbArc
 50
180.0
 51
264.0
  0
ARC
  5
74F
100
AcDbEntity
  8
BEZUGSACHSEN
100
AcDbCircle
 62
7
  6
CONTINUOUS
 10
238.4085380514
 20
139.8851856956
 40
9.3069541127
100
AcDbArc
 50
356.5012655482
 51
26.8195688436
  0
ARC
  5
750
100
AcDbEntity
  8
BEZUGSACHSEN
100
AcDbCircle
 62
7
  6
CONTINUOUS
 10
239.0659279887
 20
147.9821667017
 40
4.3794430358
100
AcDbArc
 50
314.9999910932
 51
351.9999437536
  0
ARC
  5
751
100
AcDbEntity
  8
RUNDUNGEN
100
AcDbCircle
 62
7
  6
CONTINUOUS
 10
242.1789797535
 20
131.7347492595
 40
2.1897215179
100
AcDbArc
 50
145.1706208901
 51
180.0
  0
ARC
  5
752
100
AcDbEntity
  8
BEZUGSACHSEN
100
AcDbCircle
 62
7
  6
CONTINUOUS
 10
244.3687012713
 20
140.8980045107
 40
4.3794430358
100
AcDbArc
 50
135.0000093415
 51
180.0000099481
  0
ARC
  5
753
100
AcDbEntity
  8
BEZUGSACHSEN
100
AcDbCircle
 62
7
  6
CONTINUOUS
 10
249.7679790689
 20
198.4758232975
 40
3.2845822768
100
AcDbArc
 50
96.0
 51
180.0
  0
ARC
  5
754
100
AcDbEntity
  8
RUNDUNGEN
100
AcDbCircle
 62
7
  6
CONTINUOUS
 10
277.4139672685
 20
73.5184232953
 40
10.9486075894
100
AcDbArc
 50
171.9999810606
 51
180.0000154865
  0
ARC
  5
755
100
AcDbEntity
  8
RUNDUNGEN
100
AcDbCircle
 62
7
  6
CONTINUOUS
 10
273.8828284825
 20
95.5944605922
 40
4.3794430358
100
AcDbArc
 50
134.9998275188
 51
172.0000226999
  0
ARC
  5
756
100
AcDbEntity
  8
RUNDUNGEN
100
AcDbCircle
 62
7
  6
CONTINUOUS
 10
268.5800551998
 20
102.6786227832
 40
4.3794430358
100
AcDbArc
 50
315.0000093415
 51
360.0
  0
ARC
  5
757
100
AcDbEntity
  8
RUNDUNGEN
100
AcDbCircle
 62
7
  6
CONTINUOUS
 10
263.1807774023
 20
45.1008039964
 40
3.2845822768
100
AcDbArc
 50
276.0
 51
360.0
  0
ARC
  5
758
100
AcDbEntity
  8
RUNDUNGEN
100
AcDbCircle
 62
7
  6
CONTINUOUS
 10
256.4743782356
 20
121.7883136469
 40
19.6049447194
100
AcDbArc
 50
34.8293791099
 51
145.1706208901
  0
CIRCLE
  5
759
100
AcDbEntity
  8
0
100
AcDbCircle
 62
7
  6
CONTINUOUS
 10
256.4743782356
 20
121.7883136469
 40
6.5691645537
  0
ARC
  5
75A
100
AcDbEntity
  8
BEZUGSACHSEN
100
AcDbCircle
 62
7
  6
CONTINUOUS
 10
256.4743782356
 20
191.7883136469
 40
40.0
100
AcDbArc
 50
120.0
 51
255.5346314508
  0
ARC
  5
75B
100
AcDbEntity
  8
RUNDUNGEN
100
AcDbCircle
 62
7
  6
CONTINUOUS
 10
256.4743782356
 20
191.7883136469
 40
16.0
100
AcDbArc
 50
308.6620363764
 51
231.3379635965
  0
ARC
  5
75C
100
AcDbEntity
  8
RUNDUNGEN
100
AcDbCircle
 62
7
  6
CONTINUOUS
 10
263.1807774023
 20
198.4758232975
 40
3.2845822768
100
AcDbArc
 50
0.0
 51
84.0
  0
ARC
  5
75D
100
AcDbEntity
  8
BEZUGSACHSEN
100
AcDbCircle
 62
7
  6
CONTINUOUS
 10
263.1807774023
 20
198.4758232975
 40
3.2845822768
100
AcDbArc
 50
0.0
 51
84.0
  0
ARC
  5
75E
100
AcDbEntity
  8
RUNDUNGEN
100
AcDbCircle
 62
7
  6
CONTINUOUS
 10
270.7697748251
 20
131.7347523573
 40
2.189721545
100
AcDbArc
 50
359.9999189446
 51
34.8292842921
  0
ARC
  5
75F
100
AcDbEntity
  8
RUNDUNGEN
100
AcDbCircle
 62
7
  6
CONTINUOUS
 10
268.5800551998
 20
140.8980045107
 40
4.3794430358
100
AcDbArc
 50
359.9999900519
 51
44.9999906585
  0
ARC
  5
760
100
AcDbEntity
  8
BEZUGSACHSEN
100
AcDbCircle
 62
7
  6
CONTINUOUS
 10
268.5800551998
 20
140.8980045107
 40
4.3794430358
100
AcDbArc
 50
359.9999900519
 51
44.9999906585
  0
ARC
  5
761
100
AcDbEntity
  8
RUNDUNGEN
100
AcDbCircle
 62
7
  6
CONTINUOUS
 10
269.9050625229
 20
141.8683012576
 40
2.7371518974
100
AcDbArc
 50
36.0999234439
 51
36.2151458399
  0
ARC
  5
762
100
AcDbEntity
  8
BEZUGSACHSEN
100
AcDbCircle
 62
7
  6
CONTINUOUS
 10
269.9050625229
 20
141.8683012576
 40
2.7371518974
100
AcDbArc
 50
36.0999234439
 51
36.2151458399
  0
ARC
  5
763
100
AcDbEntity
  8
BEZUGSACHSEN
100
AcDbCircle
 62
7
  6
CONTINUOUS
 10
274.5402184198
 20
139.8851856956
 40
9.3069541127
100
AcDbArc
 50
153.226178041
 51
183.5056530348
  0
ARC
  5
764
100
AcDbEntity
  8
RUNDUNGEN
100
AcDbCircle
 62
7
  6
CONTINUOUS
 10
273.8828284825
 20
147.9821667017
 40
4.3794430358
100
AcDbArc
 50
188.0000562464
 51
225.0000089068
  0
ARC
  5
765
100
AcDbEntity
  8
BEZUGSACHSEN
100
AcDbCircle
 62
7
  6
CONTINUOUS
 10
273.8828284825
 20
147.9821667017
 40
4.3794430358
100
AcDbArc
 50
188.0000562464
 51
225.0000089068
  0
ARC
  5
766
100
AcDbEntity
  8
KONSTRUKTIONSELEMENTE
100
AcDbCircle
 62
7
  6
CONTINUOUS
 10
224.7125801316
 20
331.8765155429
 40
9.55
100
AcDbArc
 50
58.6297070454
 51
135.0
  0
ARC
  5
767
100
AcDbEntity
  8
KONSTRUKTIONSELEMENTE
100
AcDbCircle
 62
7
  6
CONTINUOUS
 10
224.7125801316
 20
331.8765155429
 40
9.55
100
AcDbArc
 50
315.0
 51
31.3702929546
  0
ARC
  5
768
100
AcDbEntity
  8
KONSTRUKTIONSELEMENTE
100
AcDbCircle
 62
7
  6
CONTINUOUS
 10
216.2980094355
 20
323.4619448468
 40
9.55
100
AcDbArc
 50
240.1951355235
 51
315.0
  0
ARC
  5
769
100
AcDbEntity
  8
KONSTRUKTIONSELEMENTE
100
AcDbCircle
 62
7
  6
CONTINUOUS
 10
216.2980094355
 20
323.4619448468
 40
9.55
100
AcDbArc
 50
135.0
 51
209.8048644765
  0
ARC
  5
76A
100
AcDbEntity
  8
KONSTRUKTIONSELEMENTE
100
AcDbCircle
 62
7
  6
CONTINUOUS
 10
245.6075855156
 20
352.771520927
 40
8.0
100
AcDbArc
 50
241.3642958278
 51
315.0
  0
ARC
  5
76B
100
AcDbEntity
  8
KONSTRUKTIONSELEMENTE
100
AcDbCircle
 62
7
  6
CONTINUOUS
 10
245.6075855156
 20
352.771520927
 40
8.0
100
AcDbArc
 50
135.0
 51
208.6357041722
  0
ARC
  5
76C
100
AcDbEntity
  8
KONSTRUKTIONSELEMENTE
100
AcDbCircle
 62
7
  6
CONTINUOUS
 10
224.7125801316
 20
331.8765155429
 40
4.55
100
AcDbArc
 50
74.6522021471
 51
135.0
  0
ARC
  5
76D
100
AcDbEntity
  8
KONSTRUKTIONSELEMENTE
100
AcDbCircle
 62
7
  6
CONTINUOUS
 10
224.7125801316
 20
331.8765155429
 40
4.55
100
AcDbArc
 50
315.0
 51
15.3477978529
  0
ARC
  5
76E
100
AcDbEntity
  8
KONSTRUKTIONSELEMENTE
100
AcDbCircle
 62
7
  6
CONTINUOUS
 10
216.2980094355
 20
323.4619448468
 40
4.55
100
AcDbArc
 50
258.3583327703
 51
315.0
  0
ARC
  5
76F
100
AcDbEntity
  8
KONSTRUKTIONSELEMENTE
100
AcDbCircle
 62
7
  6
CONTINUOUS
 10
216.2980094355
 20
323.4619448468
 40
4.55
100
AcDbArc
 50
135.0
 51
191.6416672297
  0
ARC
  5
770
100
AcDbEntity
  8
KONSTRUKTIONSELEMENTE
100
AcDbCircle
 62
7
  6
CONTINUOUS
 10
245.6075855156
 20
352.771520927
 40
3.5
100
AcDbArc
 50
265.1538775079
 51
315.0
  0
ARC
  5
771
100
AcDbEntity
  8
KONSTRUKTIONSELEMENTE
100
AcDbCircle
 62
7
  6
CONTINUOUS
 10
245.6075855156
 20
352.771520927
 40
3.5
100
AcDbArc
 50
135.0
 51
184.8461224921
  0
ARC
  5
772
100
AcDbEntity
  8
KONSTRUKTIONSELEMENTE
100
AcDbCircle
 62
7
  6
CONTINUOUS
 10
244.7237020392
 20
351.8876374505
 40
2.25
100
AcDbArc
 50
315.0
 51
135.0
  0
ARC
  5
773
100
AcDbEntity
  8
KONSTRUKTIONSELEMENTE
100
AcDbCircle
 62
7
  6
CONTINUOUS
 10
225.9853723377
 20
333.1493077491
 40
2.25
100
AcDbArc
 50
135.0
 51
315.0
  0
ARC
  5
774
100
AcDbEntity
  8
RUNDUNGEN
100
AcDbCircle
 62
7
  6
CONTINUOUS
 10
308.0726169658
 20
195.58573251
 40
9.0
100
AcDbArc
 50
210.0
 51
333.5
  0
ARC
  5
775
100
AcDbEntity
  8
KONSTRUKTIONSELEMENTE
100
AcDbCircle
 62
7
  6
CONTINUOUS
 10
367.9743877979
 20
324.3748191978
 40
21.9999945379
100
AcDbArc
 50
308.682256462
 51
359.9999999868
  0
ARC
  5
776
100
AcDbEntity
  8
RUNDUNGEN
100
AcDbCircle
 62
7
  6
CONTINUOUS
 10
292.8173878854
 20
222.0085643584
 40
9.0
100
AcDbArc
 50
120.0
 51
210.0
  0
ARC
  5
777
100
AcDbEntity
  8
RUNDUNGEN
100
AcDbCircle
 62
7
  6
CONTINUOUS
 10
332.7379321569
 20
245.0567013398
 40
9.0
100
AcDbArc
 50
333.5
 51
120.0
  0
ARC
  5
778
100
AcDbEntity
  8
KONSTRUKTIONSELEMENTE
100
AcDbCircle
 62
7
  6
CONTINUOUS
 10
285.8773167042
 20
393.0412521156
 40
9.55
100
AcDbArc
 50
69.7697649129
 51
135.0
  0
ARC
  5
779
100
AcDbEntity
  8
KONSTRUKTIONSELEMENTE
100
AcDbCircle
 62
7
  6
CONTINUOUS
 10
285.8773167042
 20
393.0412521156
 40
9.55
100
AcDbArc
 50
315.0
 51
20.2302350871
  0
ARC
  5
77A
100
AcDbEntity
  8
KONSTRUKTIONSELEMENTE
100
AcDbCircle
 62
7
  6
CONTINUOUS
 10
277.4627460081
 20
384.6266814195
 40
9.55
100
AcDbArc
 50
238.6297070454
 51
315.0
  0
ARC
  5
77B
100
AcDbEntity
  8
KONSTRUKTIONSELEMENTE
100
AcDbCircle
 62
7
  6
CONTINUOUS
 10
277.4627460081
 20
384.6266814195
 40
9.55
100
AcDbArc
 50
135.0
 51
211.3702929546
  0
ARC
  5
77C
100
AcDbEntity
  8
KONSTRUKTIONSELEMENTE
100
AcDbCircle
 62
7
  6
CONTINUOUS
 10
256.2141872334
 20
363.3781226448
 40
8.0
100
AcDbArc
 50
61.3642958278
 51
135.0
  0
ARC
  5
77D
100
AcDbEntity
  8
KONSTRUKTIONSELEMENTE
100
AcDbCircle
 62
7
  6
CONTINUOUS
 10
256.2141872334
 20
363.3781226448
 40
8.0
100
AcDbArc
 50
315.0
 51
28.6357041722
  0
ARC
  5
77E
100
AcDbEntity
  8
KONSTRUKTIONSELEMENTE
100
AcDbCircle
 62
7
  6
CONTINUOUS
 10
285.8773167042
 20
393.0412521156
 40
4.55
100
AcDbArc
 50
106.7776530551
 51
135.0
  0
ARC
  5
77F
100
AcDbEntity
  8
KONSTRUKTIONSELEMENTE
100
AcDbCircle
 62
7
  6
CONTINUOUS
 10
285.8773167042
 20
393.0412521156
 40
4.55
100
AcDbArc
 50
315.0
 51
343.2223469449
  0
ARC
  5
780
100
AcDbEntity
  8
KONSTRUKTIONSELEMENTE
100
AcDbCircle
 62
7
  6
CONTINUOUS
 10
277.4627460081
 20
384.6266814195
 40
4.55
100
AcDbArc
 50
254.6522021471
 51
315.0
  0
ARC
  5
781
100
AcDbEntity
  8
KONSTRUKTIONSELEMENTE
100
AcDbCircle
 62
7
  6
CONTINUOUS
 10
277.4627460081
 20
384.6266814195
 40
4.55
100
AcDbArc
 50
135.0
 51
195.3477978529
  0
ARC
  5
782
100
AcDbEntity
  8
KONSTRUKTIONSELEMENTE
100
AcDbCircle
 62
7
  6
CONTINUOUS
 10
286.2662254339
 20
393.4301608452
 40
4.0
100
AcDbArc
 50
135.0
 51
315.0
  0
ARC
  5
783
100
AcDbEntity
  8
KONSTRUKTIONSELEMENTE
100
AcDbCircle
 62
7
  6
CONTINUOUS
 10
341.4205543664
 20
448.5844897778
 40
4.0
100
AcDbArc
 50
315.0
 51
135.0
  0
ARC
  5
784
100
AcDbEntity
  8
KONSTRUKTIONSELEMENTE
100
AcDbCircle
 62
7
  6
CONTINUOUS
 10
256.2141872334
 20
363.3781226448
 40
3.5
100
AcDbArc
 50
85.1538775079
 51
135.0
  0
ARC
  5
785
100
AcDbEntity
  8
KONSTRUKTIONSELEMENTE
100
AcDbCircle
 62
7
  6
CONTINUOUS
 10
256.2141872334
 20
363.3781226448
 40
3.5
100
AcDbArc
 50
315.0
 51
4.8461224921
  0
ARC
  5
786
100
AcDbEntity
  8
KONSTRUKTIONSELEMENTE
100
AcDbCircle
 62
7
  6
CONTINUOUS
 10
275.8364004114
 20
383.0003358227
 40
2.25
100
AcDbArc
 50
315.0
 51
135.0
  0
ARC
  5
787
100
AcDbEntity
  8
KONSTRUKTIONSELEMENTE
100
AcDbCircle
 62
7
  6
CONTINUOUS
 10
257.0980707099
 20
364.2620061213
 40
2.25
100
AcDbArc
 50
135.0
 51
315.0
  0
ARC
  5
788
100
AcDbEntity
  8
BEZUGSACHSEN
100
AcDbCircle
 62
7
  6
CONTINUOUS
 10
406.4743782356
 20
275.2883136469
 40
76.0
100
AcDbArc
 50
280.0
 51
312.1486080286
  0
ARC
  5
789
100
AcDbEntity
  8
0
100
AcDbCircle
 62
7
  6
CONTINUOUS
 10
406.4743782356
 20
275.2883136469
 40
76.0
100
AcDbArc
 50
227.8513919714
 51
260.0
  0
ARC
  5
78A
100
AcDbEntity
  8
BEZUGSACHSEN
100
AcDbCircle
 62
7
  6
CONTINUOUS
 10
406.4743782356
 20
275.2883136469
 40
64.0
100
AcDbArc
 50
260.0
 51
280.0
  0
ARC
  5
78B
100
AcDbEntity
  8
BEZUGSACHSEN
100
AcDbCircle
 62
7
  6
CONTINUOUS
 10
406.4743782356
 20
275.2883136469
 40
57.0
100
AcDbArc
 50
18.494543218
 51
73.1717853489
  0
ARC
  5
78C
100
AcDbEntity
  8
BEZUGSACHSEN
100
AcDbCircle
 62
7
  6
CONTINUOUS
 10
406.4743782356
 20
275.2883136469
 40
57.0
100
AcDbArc
 50
106.8282146511
 51
161.505456782
  0
ARC
  5
78D
100
AcDbEntity
  8
KONSTRUKTIONSELEMENTE
100
AcDbCircle
 62
7
  6
CONTINUOUS
 10
406.4743782356
 20
276.2883136469
 40
39.6
100
AcDbArc
 50
124.3813799852
 51
55.6189282114
  0
CIRCLE
  5
78E
100
AcDbEntity
  8
KONSTRUKTIONSELEMENTE
100
AcDbCircle
 62
7
  6
CONTINUOUS
 10
406.4743782356
 20
276.2883136469
 40
25.3
  0
ARC
  5
78F
100
AcDbEntity
  8
BEZUGSACHSEN
100
AcDbCircle
 62
7
  6
CONTINUOUS
 10
480.2108243143
 20
245.0567013398
 40
9.0
100
AcDbArc
 50
60.0
 51
206.5
  0
ARC
  5
790
100
AcDbEntity
  8
BEZUGSACHSEN
100
AcDbCircle
 62
7
  6
CONTINUOUS
 10
535.5347892026
 20
73.5184232953
 40
10.9486075894
100
AcDbArc
 50
359.9999845135
 51
8.0000189394
  0
ARC
  5
791
100
AcDbEntity
  8
BEZUGSACHSEN
100
AcDbCircle
 62
7
  6
CONTINUOUS
 10
539.0659279887
 20
95.5944605922
 40
4.3794430358
100
AcDbArc
 50
7.9999773001
 51
45.0001724812
  0
ARC
  5
792
100
AcDbEntity
  8
BEZUGSACHSEN
100
AcDbCircle
 62
7
  6
CONTINUOUS
 10
549.7679790689
 20
45.1008039964
 40
3.2845822768
100
AcDbArc
 50
180.0
 51
264.0
  0
ARC
  5
793
100
AcDbEntity
  8
BEZUGSACHSEN
100
AcDbCircle
 62
7
  6
CONTINUOUS
 10
538.4085380514
 20
139.8851856956
 40
9.3069541127
100
AcDbArc
 50
356.5012655482
 51
26.8195688436
  0
ARC
  5
794
100
AcDbEntity
  8
BEZUGSACHSEN
100
AcDbCircle
 62
7
  6
CONTINUOUS
 10
539.0659279887
 20
147.9821667017
 40
4.3794430358
100
AcDbArc
 50
314.9999910932
 51
351.9999437536
  0
ARC
  5
795
100
AcDbEntity
  8
BEZUGSACHSEN
100
AcDbCircle
 62
7
  6
CONTINUOUS
 10
544.3687012713
 20
102.6786227832
 40
4.3794430358
100
AcDbArc
 50
180.0
 51
224.9999906585
  0
ARC
  5
796
100
AcDbEntity
  8
RUNDUNGEN
100
AcDbCircle
 62
7
  6
CONTINUOUS
 10
542.1789797535
 20
131.7347492595
 40
2.1897215179
100
AcDbArc
 50
145.1706208901
 51
180.0
  0
ARC
  5
797
100
AcDbEntity
  8
BEZUGSACHSEN
100
AcDbCircle
 62
7
  6
CONTINUOUS
 10
544.3687012713
 20
140.8980045107
 40
4.3794430358
100
AcDbArc
 50
135.0000093415
 51
180.0000099481
  0
ARC
  5
798
100
AcDbEntity
  8
RUNDUNGEN
100
AcDbCircle
 62
7
  6
CONTINUOUS
 10
577.4139672685
 20
73.5184232953
 40
10.9486075894
100
AcDbArc
 50
171.9999810606
 51
180.0000154865
  0
ARC
  5
799
100
AcDbEntity
  8
RUNDUNGEN
100
AcDbCircle
 62
7
  6
CONTINUOUS
 10
573.8828284825
 20
95.5944605922
 40
4.3794430358
100
AcDbArc
 50
134.9998275188
 51
172.0000226999
  0
ARC
  5
79A
100
AcDbEntity
  8
RUNDUNGEN
100
AcDbCircle
 62
7
  6
CONTINUOUS
 10
563.1807774023
 20
45.1008039964
 40
3.2845822768
100
AcDbArc
 50
276.0
 51
360.0
  0
ARC
  5
79B
100
AcDbEntity
  8
RUNDUNGEN
100
AcDbCircle
 62
7
  6
CONTINUOUS
 10
556.4743782356
 20
121.7883136469
 40
19.6049447194
100
AcDbArc
 50
34.8293791099
 51
145.1706208901
  0
CIRCLE
  5
79C
100
AcDbEntity
  8
0
100
AcDbCircle
 62
7
  6
CONTINUOUS
 10
556.4743782356
 20
121.7883136469
 40
6.5691645537
  0
ARC
  5
79D
100
AcDbEntity
  8
RUNDUNGEN
100
AcDbCircle
 62
7
  6
CONTINUOUS
 10
568.5800551998
 20
102.6786227832
 40
4.3794430358
100
AcDbArc
 50
315.0000093415
 51
360.0
  0
ARC
  5
79E
100
AcDbEntity
  8
RUNDUNGEN
100
AcDbCircle
 62
7
  6
CONTINUOUS
 10
570.7697748251
 20
131.7347523573
 40
2.189721545
100
AcDbArc
 50
359.9999189446
 51
34.8292842921
  0
ARC
  5
79F
100
AcDbEntity
  8
RUNDUNGEN
100
AcDbCircle
 62
7
  6
CONTINUOUS
 10
568.5800551998
 20
140.8980045107
 40
4.3794430358
100
AcDbArc
 50
359.9999900519
 51
44.9999906585
  0
ARC
  5
7A0
100
AcDbEntity
  8
BEZUGSACHSEN
100
AcDbCircle
 62
7
  6
CONTINUOUS
 10
568.5800551998
 20
140.8980045107
 40
4.3794430358
100
AcDbArc
 50
359.9999900519
 51
44.9999906585
  0
ARC
  5
7A1
100
AcDbEntity
  8
RUNDUNGEN
100
AcDbCircle
 62
7
  6
CONTINUOUS
 10
569.9050625229
 20
141.8683012576
 40
2.7371518974
100
AcDbArc
 50
36.0999234439
 51
36.2151458399
  0
ARC
  5
7A2
100
AcDbEntity
  8
BEZUGSACHSEN
100
AcDbCircle
 62
7
  6
CONTINUOUS
 10
569.9050625229
 20
141.8683012576
 40
2.7371518974
100
AcDbArc
 50
36.0999234439
 51
36.2151458399
  0
ARC
  5
7A3
100
AcDbEntity
  8
BEZUGSACHSEN
100
AcDbCircle
 62
7
  6
CONTINUOUS
 10
574.5402184198
 20
139.8851856956
 40
9.3069541127
100
AcDbArc
 50
153.226178041
 51
183.5056530348
  0
ARC
  5
7A4
100
AcDbEntity
  8
RUNDUNGEN
100
AcDbCircle
 62
7
  6
CONTINUOUS
 10
573.8828284825
 20
147.9821667017
 40
4.3794430358
100
AcDbArc
 50
188.0000562464
 51
225.0000089068
  0
ARC
  5
7A5
100
AcDbEntity
  8
BEZUGSACHSEN
100
AcDbCircle
 62
7
  6
CONTINUOUS
 10
573.8828284825
 20
147.9821667017
 40
4.3794430358
100
AcDbArc
 50
188.0000562464
 51
225.0000089068
  0
ARC
  5
7A6
100
AcDbEntity
  8
BEZUGSACHSEN
100
AcDbCircle
 62
7
  6
CONTINUOUS
 10
504.8761395054
 20
195.58573251
 40
9.0
100
AcDbArc
 50
206.5
 51
330.0
  0
ARC
  5
7A7
100
AcDbEntity
  8
BEZUGSACHSEN
100
AcDbCircle
 62
7
  6
CONTINUOUS
 10
520.1313685858
 20
222.0085643584
 40
9.0
100
AcDbArc
 50
330.0
 51
60.0
  0
ARC
  5
7A8
100
AcDbEntity
  8
BEZUGSACHSEN
100
AcDbCircle
 62
7
  6
CONTINUOUS
 10
549.7679790689
 20
198.4758232975
 40
3.2845822768
100
AcDbArc
 50
96.0
 51
180.0
  0
ARC
  5
7A9
100
AcDbEntity
  8
BEZUGSACHSEN
100
AcDbCircle
 62
7
  6
CONTINUOUS
 10
556.4743782356
 20
191.7883136469
 40
40.0
100
AcDbArc
 50
284.4653685492
 51
60.0
  0
ARC
  5
7AA
100
AcDbEntity
  8
BEZUGSACHSEN
100
AcDbCircle
 62
7
  6
CONTINUOUS
 10
556.4743782356
 20
191.7883136469
 40
16.0
100
AcDbArc
 50
308.6620364035
 51
231.3379636236
  0
ARC
  5
7AB
100
AcDbEntity
  8
RUNDUNGEN
100
AcDbCircle
 62
7
  6
CONTINUOUS
 10
563.1807774023
 20
198.4758232975
 40
3.2845822768
100
AcDbArc
 50
0.0
 51
84.0
  0
ARC
  5
7AC
100
AcDbEntity
  8
BEZUGSACHSEN
100
AcDbCircle
 62
7
  6
CONTINUOUS
 10
563.1807774023
 20
198.4758232975
 40
3.2845822768
100
AcDbArc
 50
0.0
 51
84.0
  0
ARC
  5
7AD
100
AcDbEntity
  8
0
100
AcDbCircle
 62
7
  6
CONTINUOUS
 10
406.4743782356
 20
673.6383136469
 40
141.0
100
AcDbArc
 50
0.0
 51
180.0
  0
ARC
  5
7AE
100
AcDbEntity
  8
0
100
AcDbCircle
 62
7
  6
CONTINUOUS
 10
406.4743782356
 20
513.6383136469
 40
141.0
100
AcDbArc
 50
180.0
 51
223.3741240241
  0
ARC
  5
7AF
100
AcDbEntity
  8
0
100
AcDbCircle
 62
7
  6
CONTINUOUS
 10
406.4743782356
 20
513.6383136469
 40
141.0
100
AcDbArc
 50
226.6258759759
 51
263.2788024837
  0
ARC
  5
7B0
100
AcDbEntity
  8
0
100
AcDbCircle
 62
7
  6
CONTINUOUS
 10
406.4743782356
 20
513.6383136469
 40
141.0
100
AcDbArc
 50
276.9463815263
 51
360.0
  0
ARC
  5
7B1
100
AcDbEntity
  8
0
100
AcDbCircle
 62
7
  6
CONTINUOUS
 10
406.4743782356
 20
513.6383136469
 40
95.0
100
AcDbArc
 50
180.0
 51
222.5864328658
  0
ARC
  5
7B2
100
AcDbEntity
  8
0
100
AcDbCircle
 62
7
  6
CONTINUOUS
 10
406.4743782356
 20
513.6383136469
 40
95.0
100
AcDbArc
 50
227.4135671342
 51
259.9978967213
  0
ARC
  5
7B3
100
AcDbEntity
  8
0
100
AcDbCircle
 62
7
  6
CONTINUOUS
 10
406.4743782356
 20
513.6383136469
 40
95.0
100
AcDbArc
 50
280.0021032787
 51
360.0
  0
ARC
  5
7B4
100
AcDbEntity
  8
0
100
AcDbCircle
 62
7
  6
CONTINUOUS
 10
406.4743782356
 20
673.6383136469
 40
95.0
100
AcDbArc
 50
0.0
 51
180.0
  0
ARC
  5
7B5
100
AcDbEntity
  8
KONSTRUKTIONSELEMENTE
100
AcDbCircle
 62
7
  6
CONTINUOUS
 10
406.4743782356
 20
437.9883136469
 40
16.5
100
AcDbArc
 50
0.0
 51
180.0000000206
  0
ARC
  5
7B6
100
AcDbEntity
  8
BEZUGSACHSEN
100
AcDbCircle
 62
7
  6
CONTINUOUS
 10
801.5044814609
 20
135.6549531589
 40
10.9486075894
100
AcDbArc
 50
148.15
 51
180.0
  0
ARC
  5
7B7
100
AcDbEntity
  8
BEZUGSACHSEN
100
AcDbCircle
 62
7
  6
CONTINUOUS
 10
803.396475001
 20
103.6914415983
 40
9.3069541127
100
AcDbArc
 50
283.7117268775
 51
44.0524622899
  0
ARC
  5
7B8
100
AcDbEntity
  8
BEZUGSACHSEN
100
AcDbCircle
 62
7
  6
CONTINUOUS
 10
795.9988723662
 20
113.7532865913
 40
5.4429985106
100
AcDbArc
 50
179.9956305717
 51
215.0043694283
  0
CIRCLE
  5
7B9
100
AcDbEntity
  8
BEZUGSACHSEN
100
AcDbCircle
 62
7
  6
CONTINUOUS
 10
802.7305445422
 20
121.7883136469
 40
2.7381713883
  0
ARC
  5
7BA
100
AcDbEntity
  8
RUNDUNGEN
100
AcDbCircle
 62
7
  6
CONTINUOUS
 10
798.608641656
 20
104.398457477
 40
2.2150887897
100
AcDbArc
 50
215.0768435916
 51
270.0393524921
  0
ARC
  5
7BB
100
AcDbEntity
  8
BEZUGSACHSEN
100
AcDbCircle
 62
7
  6
CONTINUOUS
 10
798.608641656
 20
104.398457477
 40
2.2150887897
100
AcDbArc
 50
215.0768435916
 51
270.0393524921
  0
ARC
  5
7BC
100
AcDbEntity
  8
RUNDUNGEN
100
AcDbCircle
 62
7
  6
CONTINUOUS
 10
807.5186752717
 20
104.3730904455
 40
2.1897215179
100
AcDbArc
 50
270.0
 51
360.0
  0
ARC
  5
7BD
100
AcDbEntity
  8
RUNDUNGEN
100
AcDbCircle
 62
7
  6
CONTINUOUS
 10
811.8981183075
 20
136.9414278423
 40
2.1897215179
100
AcDbArc
 50
90.0008554875
 51
126.5766543165
  0
ARC
  5
7BE
100
AcDbEntity
  8
BEZUGSACHSEN
100
AcDbCircle
 62
7
  6
CONTINUOUS
 10
807.5186752717
 20
104.3730904455
 40
2.1897215179
100
AcDbArc
 50
270.0
 51
360.0
  0
ARC
  5
7BF
100
AcDbEntity
  8
RUNDUNGEN
100
AcDbCircle
 62
7
  6
CONTINUOUS
 10
812.2751364752
 20
135.4333551716
 40
2.1897215179
100
AcDbArc
 50
90.0
 51
180.0
  0
ARC
  5
7C0
100
AcDbEntity
  8
BEZUGSACHSEN
100
AcDbCircle
 62
7
  6
CONTINUOUS
 10
811.8981183075
 20
136.9414278423
 40
2.1897215179
100
AcDbArc
 50
90.0008554875
 51
180.0
  0
ARC
  5
7C1
100
AcDbEntity
  8
BEZUGSACHSEN
100
AcDbCircle
 62
7
  6
CONTINUOUS
 10
839.5281553694
 20
103.6914415983
 40
9.3069541127
100
AcDbArc
 50
163.7019364916
 51
192.4720186323
  0
ARC
  5
7C2
100
AcDbEntity
  8
RUNDUNGEN
100
AcDbCircle
 62
7
  6
CONTINUOUS
 10
839.5281553694
 20
103.6914415983
 40
9.3069541127
100
AcDbArc
 50
163.7019364916
 51
192.4720186323
  0
ARC
  5
7C3
100
AcDbEntity
  8
RUNDUNGEN
100
AcDbCircle
 62
7
  6
CONTINUOUS
 10
833.0111356976
 20
104.3730904455
 40
2.1897215179
100
AcDbArc
 50
180.0
 51
270.0
  0
ARC
  5
7C4
100
AcDbEntity
  8
BEZUGSACHSEN
100
AcDbCircle
 62
7
  6
CONTINUOUS
 10
833.0111356976
 20
104.3730904455
 40
2.1897215179
100
AcDbArc
 50
180.0
 51
270.0
  0
ARC
  5
7C5
100
AcDbEntity
  8
RUNDUNGEN
100
AcDbCircle
 62
7
  6
CONTINUOUS
 10
828.4054817612
 20
135.4333551716
 40
2.1897215179
100
AcDbArc
 50
0.0
 51
90.0
  0
ARC
  5
7C6
100
AcDbEntity
  8
RUNDUNGEN
100
AcDbCircle
 62
7
  6
CONTINUOUS
 10
828.6316926618
 20
136.9414278423
 40
2.1897215179
100
AcDbArc
 50
53.4233456835
 51
89.9991066749
  0
ARC
  5
7C7
100
AcDbEntity
  8
BEZUGSACHSEN
100
AcDbCircle
 62
7
  6
CONTINUOUS
 10
828.6316926618
 20
136.9414278423
 40
2.1897215179
100
AcDbArc
 50
0.0
 51
89.9991066749
  0
ARC
  5
7C8
100
AcDbEntity
  8
BEZUGSACHSEN
100
AcDbCircle
 62
7
  6
CONTINUOUS
 10
832.7668279249
 20
137.6516730382
 40
10.9486075894
100
AcDbArc
 50
0.0
 51
40.5696972304
  0
ARC
  5
7C9
100
AcDbEntity
  8
RUNDUNGEN
100
AcDbCircle
 62
7
  6
CONTINUOUS
 10
855.4029987124
 20
92.5764574332
 40
51.4831990669
100
AcDbArc
 50
180.0700672439
 51
270.0
  0
ARC
  5
7CA
100
AcDbEntity
  8
BEZUGSACHSEN
100
AcDbCircle
 62
7
  6
CONTINUOUS
 10
855.4029987124
 20
86.5441667503
 40
45.450908384
100
AcDbArc
 50
270.0
 51
328.15
  0
ARC
  5
7CB
100
AcDbEntity
  8
BEZUGSACHSEN
100
AcDbCircle
 62
7
  6
CONTINUOUS
 10
855.4029987124
 20
92.5764574332
 40
24.8831990669
100
AcDbArc
 50
180.0
 51
270.0
  0
ARC
  5
7CC
100
AcDbEntity
  8
BEZUGSACHSEN
100
AcDbCircle
 62
7
  6
CONTINUOUS
 10
855.4029987124
 20
86.5441667503
 40
18.850908384
100
AcDbArc
 50
270.0
 51
40.5696972304
  0
ARC
  5
7CD
100
AcDbEntity
  8
RUNDUNGEN
100
AcDbCircle
 62
7
  6
CONTINUOUS
 10
855.4029987124
 20
151.0001698607
 40
51.4831990669
100
AcDbArc
 50
0.0700672439
 51
70.1239315379
  0
ARC
  5
7CE
100
AcDbEntity
  8
BEZUGSACHSEN
100
AcDbCircle
 62
7
  6
CONTINUOUS
 10
855.4029987124
 20
151.0001698607
 40
51.4831990669
100
AcDbArc
 50
0.0700672439
 51
70.1239315379
  0
ARC
  5
7CF
100
AcDbEntity
  8
BEZUGSACHSEN
100
AcDbCircle
 62
7
  6
CONTINUOUS
 10
855.4029987124
 20
157.0324605436
 40
45.450908384
100
AcDbArc
 50
112.6505558917
 51
148.15
  0
ARC
  5
7D0
100
AcDbEntity
  8
BEZUGSACHSEN
100
AcDbCircle
 62
7
  6
CONTINUOUS
 10
855.4029987124
 20
151.0001698607
 40
24.8831990669
100
AcDbArc
 50
0.0
 51
45.3023130878
  0
ARC
  5
7D1
100
AcDbEntity
  8
BEZUGSACHSEN
100
AcDbCircle
 62
7
  6
CONTINUOUS
 10
855.4029987124
 20
157.0324605436
 40
18.850908384
100
AcDbArc
 50
158.1815255082
 51
220.5696972304
  0
ARC
  5
7D2
100
AcDbEntity
  8
KONSTRUKTIONSELEMENTE
100
AcDbCircle
 62
7
  6
CONTINUOUS
 10
855.2529987124
 20
395.6383136469
 40
58.85
100
AcDbArc
 50
112.8537256796
 51
180.0
  0
ARC
  5
7D3
100
AcDbEntity
  8
KONSTRUKTIONSELEMENTE
100
AcDbCircle
 62
7
  6
CONTINUOUS
 10
855.2529987124
 20
395.6383136469
 40
58.85
100
AcDbArc
 50
0.0
 51
66.8285138172
  0
ARC
  5
7D4
100
AcDbEntity
  8
KONSTRUKTIONSELEMENTE
100
AcDbCircle
 62
7
  6
CONTINUOUS
 10
855.2529987124
 20
392.3383136469
 40
25.85
100
AcDbArc
 50
172.5345826713
 51
180.0
  0
ARC
  5
7D5
100
AcDbEntity
  8
KONSTRUKTIONSELEMENTE
100
AcDbCircle
 62
7
  6
CONTINUOUS
 10
855.2529987124
 20
392.3383136469
 40
25.85
100
AcDbArc
 50
152.1529470736
 51
154.2310880422
  0
ARC
  5
7D6
100
AcDbEntity
  8
KONSTRUKTIONSELEMENTE
100
AcDbCircle
 62
7
  6
CONTINUOUS
 10
855.2529987124
 20
392.3383136469
 40
25.85
100
AcDbArc
 50
25.4247368064
 51
26.4065166284
  0
ARC
  5
7D7
100
AcDbEntity
  8
KONSTRUKTIONSELEMENTE
100
AcDbCircle
 62
7
  6
CONTINUOUS
 10
855.2529987124
 20
392.3383136469
 40
25.85
100
AcDbArc
 50
0.0
 51
7.1318616002
  0
ARC
  5
7D8
100
AcDbEntity
  8
0
100
AcDbCircle
 62
7
  6
CONTINUOUS
 10
855.4029987124
 20
395.6383136469
 40
23.0
100
AcDbArc
 50
183.3838295956
 51
249.6452816358
  0
ARC
  5
7D9
100
AcDbEntity
  8
0
100
AcDbCircle
 62
7
  6
CONTINUOUS
 10
855.4029987124
 20
395.6383136469
 40
23.0
100
AcDbArc
 50
261.2468862924
 51
278.7531137076
  0
ARC
  5
7DA
100
AcDbEntity
  8
0
100
AcDbCircle
 62
7
  6
CONTINUOUS
 10
855.4029987124
 20
395.6383136469
 40
23.0
100
AcDbArc
 50
290.3547183642
 51
356.6050098767
  0
ARC
  5
7DB
100
AcDbEntity
  8
0
100
AcDbCircle
 62
7
  6
CONTINUOUS
 10
839.8935869957
 20
281.9984295514
 40
15.0296897364
100
AcDbArc
 50
53.8436370756
 51
55.1955422106
  0
ARC
  5
7DC
100
AcDbEntity
  8
0
100
AcDbCircle
 62
7
  6
CONTINUOUS
 10
841.9204676126
 20
255.2561875401
 40
10.7407144003
100
AcDbArc
 50
38.5386150783
 51
39.9557464507
  0
ARC
  5
7DD
100
AcDbEntity
  8
0
100
AcDbCircle
 62
7
  6
CONTINUOUS
 10
842.0778092763
 20
255.3820714056
 40
10.5392126525
100
AcDbArc
 50
37.8624996842
 51
38.5362532322
  0
ARC
  5
7DE
100
AcDbEntity
  8
KONSTRUKTIONSELEMENTE
100
AcDbCircle
 62
7
  6
CONTINUOUS
 10
855.4029987124
 20
400.0912521156
 40
2.5
100
AcDbArc
 50
0.0
 51
180.0
  0
ARC
  5
7DF
100
AcDbEntity
  8
KONSTRUKTIONSELEMENTE
100
AcDbCircle
 62
7
  6
CONTINUOUS
 10
855.4029987124
 20
377.5766814195
 40
2.5
100
AcDbArc
 50
180.0
 51
360.0
  0
ARC
  5
7E0
100
AcDbEntity
  8
KONSTRUKTIONSELEMENTE
100
AcDbCircle
 62
7
  6
CONTINUOUS
 10
855.4029987124
 20
338.9265155429
 40
2.5
100
AcDbArc
 50
0.0
 51
180.0
  0
ARC
  5
7E1
100
AcDbEntity
  8
KONSTRUKTIONSELEMENTE
100
AcDbCircle
 62
7
  6
CONTINUOUS
 10
855.4029987124
 20
316.4119448468
 40
2.5
100
AcDbArc
 50
336.7931457467
 51
360.0
  0
ARC
  5
7E2
100
AcDbEntity
  8
KONSTRUKTIONSELEMENTE
100
AcDbCircle
 62
7
  6
CONTINUOUS
 10
855.4029987124
 20
316.4119448468
 40
2.5
100
AcDbArc
 50
180.0
 51
203.2068542533
  0
ARC
  5
7E3
100
AcDbEntity
  8
KONSTRUKTIONSELEMENTE
100
AcDbCircle
 62
7
  6
CONTINUOUS
 10
855.4029987124
 20
347.021520927
 40
2.25
100
AcDbArc
 50
180.0
 51
360.0
  0
ARC
  5
7E4
100
AcDbEntity
  8
KONSTRUKTIONSELEMENTE
100
AcDbCircle
 62
7
  6
CONTINUOUS
 10
855.4029987124
 20
369.1281226448
 40
2.25
100
AcDbArc
 50
0.0
 51
180.0
  0
ARC
  5
7E5
100
AcDbEntity
  8
KONSTRUKTIONSELEMENTE
100
AcDbCircle
 62
7
  6
CONTINUOUS
 10
854.1553191317
 20
393.9964027298
 40
1.2523205429
100
AcDbArc
 50
180.0254589667
 51
188.182377078
  0
ARC
  5
7E6
100
AcDbEntity
  8
KONSTRUKTIONSELEMENTE
100
AcDbCircle
 62
7
  6
CONTINUOUS
 10
856.6506782931
 20
393.9964027298
 40
1.2523205429
100
AcDbArc
 50
351.817622922
 51
359.9745410333
  0
ARC
  5
7E7
100
AcDbEntity
  8
KONSTRUKTIONSELEMENTE
100
AcDbCircle
 62
7
  6
CONTINUOUS
 10
854.1553191317
 20
332.8316661571
 40
1.2523205429
100
AcDbArc
 50
180.0254589667
 51
188.182377078
  0
ARC
  5
7E8
100
AcDbEntity
  8
KONSTRUKTIONSELEMENTE
100
AcDbCircle
 62
7
  6
CONTINUOUS
 10
856.6506782931
 20
332.8316661571
 40
1.2523205429
100
AcDbArc
 50
351.817622922
 51
359.9745410333
  0
ARC
  5
7E9
100
AcDbEntity
  8
0
100
AcDbCircle
 62
7
  6
CONTINUOUS
 10
855.4029987124
 20
791.6383136469
 40
23.0
100
AcDbArc
 50
0.0
 51
180.0
  0
ARC
  5
7EA
100
AcDbEntity
  8
BEZUGSACHSEN
100
AcDbCircle
 62
7
  6
CONTINUOUS
 10
878.0391694999
 20
105.9249542557
 40
10.9486075894
100
AcDbArc
 50
180.0
 51
220.5696972304
  0
ARC
  5
7EB
100
AcDbEntity
  8
RUNDUNGEN
100
AcDbCircle
 62
7
  6
CONTINUOUS
 10
882.4005156636
 20
108.1432721223
 40
2.1897215179
100
AcDbArc
 50
180.0
 51
270.0
  0
ARC
  5
7EC
100
AcDbEntity
  8
BEZUGSACHSEN
100
AcDbCircle
 62
7
  6
CONTINUOUS
 10
882.4005156636
 20
108.1432721223
 40
2.1897215179
100
AcDbArc
 50
180.0
 51
270.0
  0
ARC
  5
7ED
100
AcDbEntity
  8
RUNDUNGEN
100
AcDbCircle
 62
7
  6
CONTINUOUS
 10
882.174304763
 20
106.6351994515
 40
2.1897215179
100
AcDbArc
 50
233.4233456835
 51
269.9991066749
  0
ARC
  5
7EE
100
AcDbEntity
  8
BEZUGSACHSEN
100
AcDbCircle
 62
7
  6
CONTINUOUS
 10
882.174304763
 20
106.6351994515
 40
2.1897215179
100
AcDbArc
 50
180.0
 51
269.9991066749
  0
ARC
  5
7EF
100
AcDbEntity
  8
RUNDUNGEN
100
AcDbCircle
 62
7
  6
CONTINUOUS
 10
871.2778420554
 20
139.8851856956
 40
9.3069541127
100
AcDbArc
 50
343.7019364916
 51
12.4720186323
  0
ARC
  5
7F0
100
AcDbEntity
  8
BEZUGSACHSEN
100
AcDbCircle
 62
7
  6
CONTINUOUS
 10
871.2778420554
 20
139.8851856956
 40
9.3069541127
100
AcDbArc
 50
343.7019364916
 51
12.4720186323
  0
ARC
  5
7F1
100
AcDbEntity
  8
RUNDUNGEN
100
AcDbCircle
 62
7
  6
CONTINUOUS
 10
877.7948617273
 20
139.2035368484
 40
2.1897215179
100
AcDbArc
 50
0.0
 51
90.0
  0
ARC
  5
7F2
100
AcDbEntity
  8
RUNDUNGEN
100
AcDbCircle
 62
7
  6
CONTINUOUS
 10
898.5308609497
 20
108.1432721223
 40
2.1897215179
100
AcDbArc
 50
270.0
 51
360.0
  0
ARC
  5
7F3
100
AcDbEntity
  8
BEZUGSACHSEN
100
AcDbCircle
 62
7
  6
CONTINUOUS
 10
898.5308609497
 20
108.1432721223
 40
2.1897215179
100
AcDbArc
 50
270.0
 51
360.0
  0
ARC
  5
7F4
100
AcDbEntity
  8
RUNDUNGEN
100
AcDbCircle
 62
7
  6
CONTINUOUS
 10
898.9078791173
 20
106.6351994515
 40
2.1897215179
100
AcDbArc
 50
270.0008554875
 51
306.5766543165
  0
ARC
  5
7F5
100
AcDbEntity
  8
BEZUGSACHSEN
100
AcDbCircle
 62
7
  6
CONTINUOUS
 10
898.9078791173
 20
106.6351994515
 40
2.1897215179
100
AcDbArc
 50
270.0008554875
 51
360.0
  0
ARC
  5
7F6
100
AcDbEntity
  8
BEZUGSACHSEN
100
AcDbCircle
 62
7
  6
CONTINUOUS
 10
909.3015159639
 20
107.921674135
 40
10.9486075894
100
AcDbArc
 50
328.15
 51
360.0
  0
ARC
  5
7F7
100
AcDbEntity
  8
BEZUGSACHSEN
100
AcDbCircle
 62
7
  6
CONTINUOUS
 10
907.4095224238
 20
139.8851856956
 40
9.3069541127
100
AcDbArc
 50
103.7117268775
 51
224.0524622899
  0
ARC
  5
7F8
100
AcDbEntity
  8
BEZUGSACHSEN
100
AcDbCircle
 62
7
  6
CONTINUOUS
 10
914.8071250586
 20
129.8233407026
 40
5.4429985106
100
AcDbArc
 50
359.9956305717
 51
35.0043694283
  0
CIRCLE
  5
7F9
100
AcDbEntity
  8
BEZUGSACHSEN
100
AcDbCircle
 62
7
  6
CONTINUOUS
 10
908.0754528826
 20
121.7883136469
 40
2.7381713883
  0
ARC
  5
7FA
100
AcDbEntity
  8
RUNDUNGEN
100
AcDbCircle
 62
7
  6
CONTINUOUS
 10
912.1973557688
 20
139.1781698169
 40
2.2150887897
100
AcDbArc
 50
35.0768435916
 51
90.0393524921
  0
ARC
  5
7FB
100
AcDbEntity
  8
RUNDUNGEN
100
AcDbCircle
 62
7
  6
CONTINUOUS
 10
903.2873221531
 20
139.2035368484
 40
2.1897215179
100
AcDbArc
 50
90.0
 51
180.0
  0
ARC
  5
7FC
100
AcDbEntity
  8
KONSTRUKTIONSELEMENTE
100
AcDbCircle
 62
7
  6
CONTINUOUS
 10
921.8029987124
 20
276.2883136469
 40
25.3
100
AcDbArc
 50
270.0
 51
90.0
  0
CIRCLE
  5
7FD
100
AcDbEntity
  8
BEZUGSACHSEN
100
AcDbCircle
 62
7
  6
CONTINUOUS
 10
932.8029987124
 20
276.2332523996
 40
5.5
  0
SPLINE
  5
7FE
100
AcDbEntity
  8
KONSTRUKTIONSELEMENTE
100
AcDbSpline
 62
7
  6
CONTINUOUS
 70
0
 71
3
 72
15
 73
11
 74
0
 42
0.0000001
 43
0.0000001
 44
0.0000000001
 40
0.0
 40
0.0
 40
0.0
 40
0.0
 40
0.1249790487
 40
0.249985446
 40
0.3750049236
 40
0.5000229572
 40
0.6250329648
 40
0.7500361888
 40
0.8750252883
 40
1.0
 40
1.0
 40
1.0
 40
1.0
 10
406.4746122886
 20
337.8880155737
 30
0.0
 10
405.4712857987
 20
336.7291606625
 30
0.0
 10
403.5976934444
 20
334.294187378
 30
0.0
 10
401.1017777717
 20
330.4285607299
 30
0.0
 10
398.7416987171
 20
326.4803724938
 30
0.0
 10
396.3526856884
 20
322.5491305433
 30
0.0
 10
393.7991514957
 20
318.7204389512
 30
0.0
 10
390.9688027439
 20
315.0873295879
 30
0.0
 10
387.7780029095
 20
311.7621820066
 30
0.0
 10
385.3773253788
 20
309.8356222054
 30
0.0
 10
384.1123046569
 20
308.9700771437
 30
0.0
  0
SPLINE
  5
7FF
100
AcDbEntity
  8
KONSTRUKTIONSELEMENTE
100
AcDbSpline
 62
7
  6
CONTINUOUS
 70
0
 71
3
 72
15
 73
11
 74
0
 42
0.0000001
 43
0.0000001
 44
0.0000000001
 40
0.0
 40
0.0
 40
0.0
 40
0.0
 40
0.1249694115
 40
0.249961413
 40
0.3749653693
 40
0.4999766524
 40
0.6249967302
 40
0.7500183286
 40
0.8750245807
 40
1.0
 40
1.0
 40
1.0
 40
1.0
 10
428.8362760173
 20
308.9701974299
 30
0.0
 10
427.5712948632
 20
309.8356483503
 30
0.0
 10
425.17073202
 20
311.7622492046
 30
0.0
 10
421.9799933831
 20
315.0873256289
 30
0.0
 10
419.1495742253
 20
318.7203818778
 30
0.0
 10
416.5961223142
 20
322.5491154249
 30
0.0
 10
414.2070351836
 20
326.4803081084
 30
0.0
 10
411.8471047345
 20
330.4286007928
 30
0.0
 10
409.3507690332
 20
334.2937665198
 30
0.0
 10
407.4784283581
 20
336.7296711561
 30
0.0
 10
406.4746122886
 20
337.8880155737
 30
0.0
  0
SPLINE
  5
800
100
AcDbEntity
  8
KONSTRUKTIONSELEMENTE
100
AcDbSpline
 62
7
  6
CONTINUOUS
 70
0
 71
3
 72
11
 73
7
 74
0
 42
0.0000001
 43
0.0000001
 44
0.0000000001
 40
0.0
 40
0.0
 40
0.0
 40
0.0
 40
0.2814583156
 40
0.5473985784
 40
0.7868674053
 40
1.0
 40
1.0
 40
1.0
 40
1.0
 10
855.4029987124
 20
395.4100598325
 30
0.0
 10
855.6857671723
 20
395.4100598325
 30
0.0
 10
856.2382088919
 20
395.3443609044
 30
0.0
 10
856.9840093056
 20
395.0552754486
 30
0.0
 10
857.5622441797
 20
394.6022664952
 30
0.0
 10
857.7968410595
 20
394.1932732441
 30
0.0
 10
857.8548173727
 20
393.9871467503
 30
0.0
  0
SPLINE
  5
801
100
AcDbEntity
  8
KONSTRUKTIONSELEMENTE
100
AcDbSpline
 62
7
  6
CONTINUOUS
 70
0
 71
3
 72
8
 73
4
 74
0
 42
0.0000001
 43
0.0000001
 44
0.0000000001
 40
0.0
 40
0.0
 40
0.0
 40
0.0
 40
1.0
 40
1.0
 40
1.0
 40
1.0
 10
857.8548173727
 20
393.9871467503
 30
0.0
 10
857.8862438455
 20
393.8754144189
 30
0.0
 10
857.9029987124
 20
393.758360692
 30
0.0
 10
857.9029987124
 20
393.6422928796
 30
0.0
  0
SPLINE
  5
802
100
AcDbEntity
  8
KONSTRUKTIONSELEMENTE
100
AcDbSpline
 62
7
  6
CONTINUOUS
 70
0
 71
3
 72
8
 73
4
 74
0
 42
0.0000001
 43
0.0000001
 44
0.0000000001
 40
0.0
 40
0.0
 40
0.0
 40
0.0
 40
1.0
 40
1.0
 40
1.0
 40
1.0
 10
852.9029987124
 20
393.6422928796
 30
0.0
 10
852.9029987124
 20
393.758360692
 30
0.0
 10
852.9197535793
 20
393.8754144189
 30
0.0
 10
852.9511800521
 20
393.9871467503
 30
0.0
  0
SPLINE
  5
803
100
AcDbEntity
  8
KONSTRUKTIONSELEMENTE
100
AcDbSpline
 62
7
  6
CONTINUOUS
 70
0
 71
3
 72
11
 73
7
 74
0
 42
0.0000001
 43
0.0000001
 44
0.0000000001
 40
0.0
 40
0.0
 40
0.0
 40
0.0
 40
0.2131325947
 40
0.4526014216
 40
0.7185416844
 40
1.0
 40
1.0
 40
1.0
 40
1.0
 10
852.9511800521
 20
393.9871467503
 30
0.0
 10
853.0091563653
 20
394.1932732441
 30
0.0
 10
853.2437532451
 20
394.6022664952
 30
0.0
 10
853.8219881192
 20
395.0552754486
 30
0.0
 10
854.5677885329
 20
395.3443609044
 30
0.0
 10
855.1202302525
 20
395.4100598325
 30
0.0
 10
855.4029987124
 20
395.4100598325
 30
0.0
  0
SPLINE
  5
804
100
AcDbEntity
  8
KONSTRUKTIONSELEMENTE
100
AcDbSpline
 62
7
  6
CONTINUOUS
 70
0
 71
3
 72
12
 73
8
 74
0
 42
0.0000001
 43
0.0000001
 44
0.0000000001
 40
0.0
 40
0.0
 40
0.0
 40
0.0
 40
0.2874332746
 40
0.554309501
 40
0.7890604395
 40
0.8964061035
 40
1.0
 40
1.0
 40
1.0
 40
1.0
 10
855.4029987124
 20
395.7636132231
 30
0.0
 10
855.725040562
 20
395.7636132231
 30
0.0
 10
856.3499967205
 20
395.6789160138
 30
0.0
 10
857.1683305553
 20
395.31098482
 30
0.0
 10
857.6674418625
 20
394.811893899
 30
0.0
 10
857.8690336392
 20
394.3494109838
 30
0.0
 10
857.9029987124
 20
394.1119134516
 30
0.0
 10
857.9029987124
 20
393.9958462702
 30
0.0
  0
SPLINE
  5
805
100
AcDbEntity
  8
KONSTRUKTIONSELEMENTE
100
AcDbSpline
 62
7
  6
CONTINUOUS
 70
0
 71
3
 72
12
 73
8
 74
0
 42
0.0000001
 43
0.0000001
 44
0.0000000001
 40
0.0
 40
0.0
 40
0.0
 40
0.0
 40
0.1035938965
 40
0.2109395605
 40
0.445690499
 40
0.7125667254
 40
1.0
 40
1.0
 40
1.0
 40
1.0
 10
852.9029987124
 20
393.9958462702
 30
0.0
 10
852.9029987124
 20
394.1119134516
 30
0.0
 10
852.9369637856
 20
394.3494109838
 30
0.0
 10
853.1385555623
 20
394.811893899
 30
0.0
 10
853.6376668695
 20
395.31098482
 30
0.0
 10
854.4560007043
 20
395.6789160138
 30
0.0
 10
855.0809568628
 20
395.7636132231
 30
0.0
 10
855.4029987124
 20
395.7636132231
 30
0.0
  0
SPLINE
  5
806
100
AcDbEntity
  8
KONSTRUKTIONSELEMENTE
100
AcDbSpline
 62
7
  6
CONTINUOUS
 70
0
 71
3
 72
11
 73
7
 74
0
 42
0.0000001
 43
0.0000001
 44
0.0000000001
 40
0.0
 40
0.0
 40
0.0
 40
0.0
 40
0.2814583156
 40
0.5473985784
 40
0.7868674053
 40
1.0
 40
1.0
 40
1.0
 40
1.0
 10
855.4029987124
 20
334.2453232599
 30
0.0
 10
855.6857671723
 20
334.2453232599
 30
0.0
 10
856.2382088919
 20
334.1796243317
 30
0.0
 10
856.9840093056
 20
333.890538876
 30
0.0
 10
857.5622441797
 20
333.4375299226
 30
0.0
 10
857.7968410595
 20
333.0285366715
 30
0.0
 10
857.8548173727
 20
332.8224101777
 30
0.0
  0
SPLINE
  5
807
100
AcDbEntity
  8
KONSTRUKTIONSELEMENTE
100
AcDbSpline
 62
7
  6
CONTINUOUS
 70
0
 71
3
 72
8
 73
4
 74
0
 42
0.0000001
 43
0.0000001
 44
0.0000000001
 40
0.0
 40
0.0
 40
0.0
 40
0.0
 40
1.0
 40
1.0
 40
1.0
 40
1.0
 10
857.8548173727
 20
332.8224101777
 30
0.0
 10
857.8862438455
 20
332.7106778463
 30
0.0
 10
857.9029987124
 20
332.5936241193
 30
0.0
 10
857.9029987124
 20
332.4775563069
 30
0.0
  0
SPLINE
  5
808
100
AcDbEntity
  8
KONSTRUKTIONSELEMENTE
100
AcDbSpline
 62
7
  6
CONTINUOUS
 70
0
 71
3
 72
8
 73
4
 74
0
 42
0.0000001
 43
0.0000001
 44
0.0000000001
 40
0.0
 40
0.0
 40
0.0
 40
0.0
 40
1.0
 40
1.0
 40
1.0
 40
1.0
 10
852.9029987124
 20
332.4775563069
 30
0.0
 10
852.9029987124
 20
332.5936241193
 30
0.0
 10
852.9197535793
 20
332.7106778463
 30
0.0
 10
852.9511800521
 20
332.8224101777
 30
0.0
  0
SPLINE
  5
809
100
AcDbEntity
  8
KONSTRUKTIONSELEMENTE
100
AcDbSpline
 62
7
  6
CONTINUOUS
 70
0
 71
3
 72
11
 73
7
 74
0
 42
0.0000001
 43
0.0000001
 44
0.0000000001
 40
0.0
 40
0.0
 40
0.0
 40
0.0
 40
0.2131325947
 40
0.4526014216
 40
0.7185416844
 40
1.0
 40
1.0
 40
1.0
 40
1.0
 10
852.9511800521
 20
332.8224101777
 30
0.0
 10
853.0091563653
 20
333.0285366715
 30
0.0
 10
853.2437532451
 20
333.4375299226
 30
0.0
 10
853.8219881192
 20
333.890538876
 30
0.0
 10
854.5677885329
 20
334.1796243317
 30
0.0
 10
855.1202302525
 20
334.2453232599
 30
0.0
 10
855.4029987124
 20
334.2453232599
 30
0.0
  0
SPLINE
  5
80A
100
AcDbEntity
  8
KONSTRUKTIONSELEMENTE
100
AcDbSpline
 62
7
  6
CONTINUOUS
 70
0
 71
3
 72
12
 73
8
 74
0
 42
0.0000001
 43
0.0000001
 44
0.0000000001
 40
0.0
 40
0.0
 40
0.0
 40
0.0
 40
0.2874332746
 40
0.554309501
 40
0.7890604395
 40
0.8964061035
 40
1.0
 40
1.0
 40
1.0
 40
1.0
 10
855.4029987124
 20
334.5988766505
 30
0.0
 10
855.725040562
 20
334.5988766505
 30
0.0
 10
856.3499967205
 20
334.5141794411
 30
0.0
 10
857.1683305553
 20
334.1462482474
 30
0.0
 10
857.6674418625
 20
333.6471573263
 30
0.0
 10
857.8690336392
 20
333.1846744111
 30
0.0
 10
857.9029987124
 20
332.9471768789
 30
0.0
 10
857.9029987124
 20
332.8311096975
 30
0.0
  0
SPLINE
  5
80B
100
AcDbEntity
  8
KONSTRUKTIONSELEMENTE
100
AcDbSpline
 62
7
  6
CONTINUOUS
 70
0
 71
3
 72
12
 73
8
 74
0
 42
0.0000001
 43
0.0000001
 44
0.0000000001
 40
0.0
 40
0.0
 40
0.0
 40
0.0
 40
0.1035938965
 40
0.2109395605
 40
0.445690499
 40
0.7125667254
 40
1.0
 40
1.0
 40
1.0
 40
1.0
 10
852.9029987124
 20
332.8311096975
 30
0.0
 10
852.9029987124
 20
332.9471768789
 30
0.0
 10
852.9369637856
 20
333.1846744111
 30
0.0
 10
853.1385555623
 20
333.6471573263
 30
0.0
 10
853.6376668695
 20
334.1462482474
 30
0.0
 10
854.4560007043
 20
334.5141794411
 30
0.0
 10
855.0809568628
 20
334.5988766505
 30
0.0
 10
855.4029987124
 20
334.5988766505
 30
0.0
  0
SPLINE
  5
80C
100
AcDbEntity
  8
KONSTRUKTIONSELEMENTE
100
AcDbSpline
 62
7
  6
CONTINUOUS
 70
0
 71
3
 72
10
 73
6
 74
0
 42
0.0000001
 43
0.0000001
 44
0.0000000001
 40
0.0
 40
0.0
 40
0.0
 40
0.0
 40
0.3192646009
 40
0.6086079864
 40
1.0
 40
1.0
 40
1.0
 40
1.0
 10
851.9029987124
 20
378.9344718309
 30
0.0
 10
851.9029987124
 20
379.1062116061
 30
0.0
 10
852.045014499
 20
379.427062821
 30
0.0
 10
852.4108205136
 20
379.8204151604
 30
0.0
 10
852.7141083464
 20
380.0334550737
 30
0.0
 10
852.8966446474
 20
380.1383696702
 30
0.0
  0
SPLINE
  5
80D
100
AcDbEntity
  8
KONSTRUKTIONSELEMENTE
100
AcDbSpline
 62
7
  6
CONTINUOUS
 70
0
 71
3
 72
10
 73
6
 74
0
 42
0.0000001
 43
0.0000001
 44
0.0000000001
 40
0.0
 40
0.0
 40
0.0
 40
0.0
 40
0.3914026107
 40
0.6807340322
 40
1.0
 40
1.0
 40
1.0
 40
1.0
 10
857.9094443135
 20
380.138317199
 30
0.0
 10
858.0919715569
 20
380.0334017895
 30
0.0
 10
858.3952111377
 20
379.8203427181
 30
0.0
 10
858.7610318423
 20
379.4270443574
 30
0.0
 10
858.9029987124
 20
379.1062016165
 30
0.0
 10
858.9029987124
 20
378.9344718309
 30
0.0
  0
SPLINE
  5
80E
100
AcDbEntity
  8
KONSTRUKTIONSELEMENTE
100
AcDbSpline
 62
7
  6
CONTINUOUS
 70
0
 71
3
 72
13
 73
9
 74
0
 42
0.0000001
 43
0.0000001
 44
0.0000000001
 40
0.0
 40
0.0
 40
0.0
 40
0.0
 40
0.1197290731
 40
0.2397365246
 40
0.3609040964
 40
0.4836831257
 40
0.7359942557
 40
1.0
 40
1.0
 40
1.0
 40
1.0
 10
847.4029987124
 20
378.9344718309
 30
0.0
 10
847.4029987124
 20
379.283685533
 30
0.0
 10
847.4751023342
 20
379.985026569
 30
0.0
 10
847.793387669
 20
380.9952448172
 30
0.0
 10
848.3027712106
 20
381.9338230358
 30
0.0
 10
849.2145717392
 20
383.0665975425
 30
0.0
 10
850.7304630048
 20
384.2037409586
 30
0.0
 10
852.1533498548
 20
384.7502866825
 30
0.0
 10
852.8995743765
 20
384.9402551731
 30
0.0
  0
SPLINE
  5
80F
100
AcDbEntity
  8
KONSTRUKTIONSELEMENTE
100
AcDbSpline
 62
7
  6
CONTINUOUS
 70
0
 71
3
 72
13
 73
9
 74
0
 42
0.0000001
 43
0.0000001
 44
0.0000000001
 40
0.0
 40
0.0
 40
0.0
 40
0.0
 40
0.2640112835
 40
0.5163080567
 40
0.6390830379
 40
0.7602378991
 40
0.8802701562
 40
1.0
 40
1.0
 40
1.0
 40
1.0
 10
857.9073265149
 20
384.9400079836
 30
0.0
 10
858.6534663372
 20
384.7499733823
 30
0.0
 10
860.0761427786
 20
384.2034067511
 30
0.0
 10
861.5917328457
 20
383.0662614102
 30
0.0
 10
862.5033231231
 20
381.9336459015
 30
0.0
 10
863.012714039
 20
380.995168615
 30
0.0
 10
863.330850758
 20
379.9849805118
 30
0.0
 10
863.4029987124
 20
379.2836506283
 30
0.0
 10
863.4029987124
 20
378.9344718309
 30
0.0
  0
SPLINE
  5
810
100
AcDbEntity
  8
KONSTRUKTIONSELEMENTE
100
AcDbSpline
 62
7
  6
CONTINUOUS
 70
0
 71
3
 72
13
 73
9
 74
0
 42
0.0000001
 43
0.0000001
 44
0.0000000001
 40
0.0
 40
0.0
 40
0.0
 40
0.0
 40
0.1194785188
 40
0.2392741704
 40
0.3602835725
 40
0.4830059608
 40
0.7355440041
 40
1.0
 40
1.0
 40
1.0
 40
1.0
 10
863.4029987124
 20
368.3278701131
 30
0.0
 10
863.4029987124
 20
367.9692305019
 30
0.0
 10
863.3269032292
 20
367.2487238729
 30
0.0
 10
862.9913270016
 20
366.2132281172
 30
0.0
 10
862.4553425363
 20
365.254908438
 30
0.0
 10
861.4976469706
 20
364.1045286771
 30
0.0
 10
859.9113283279
 20
362.9651861578
 30
0.0
 10
858.4312748855
 20
362.4376601375
 30
0.0
 10
857.6571110329
 20
362.2621039924
 30
0.0
  0
SPLINE
  5
811
100
AcDbEntity
  8
KONSTRUKTIONSELEMENTE
100
AcDbSpline
 62
7
  6
CONTINUOUS
 70
0
 71
3
 72
13
 73
9
 74
0
 42
0.0000001
 43
0.0000001
 44
0.0000000001
 40
0.0
 40
0.0
 40
0.0
 40
0.0
 40
0.2644681654
 40
0.5169944072
 40
0.6397129492
 40
0.760706397
 40
0.8805228501
 40
1.0
 40
1.0
 40
1.0
 40
1.0
 10
853.1508279336
 20
362.2616727801
 30
0.0
 10
852.3764306071
 20
362.4371528844
 30
0.0
 10
850.8959397595
 20
362.964473613
 30
0.0
 10
849.3090893524
 20
364.1038260765
 30
0.0
 10
848.3511173931
 20
365.2542686253
 30
0.0
 10
847.8148006354
 20
366.2126904118
 30
0.0
 10
847.4791862988
 20
367.2484438243
 30
0.0
 10
847.4029987124
 20
367.9691558428
 30
0.0
 10
847.4029987124
 20
368.3278701131
 30
0.0
  0
SPLINE
  5
812
100
AcDbEntity
  8
KONSTRUKTIONSELEMENTE
100
AcDbSpline
 62
7
  6
CONTINUOUS
 70
0
 71
3
 72
10
 73
6
 74
0
 42
0.0000001
 43
0.0000001
 44
0.0000000001
 40
0.0
 40
0.0
 40
0.0
 40
0.0
 40
0.3116645009
 40
0.6060899939
 40
1.0
 40
1.0
 40
1.0
 40
1.0
 10
858.9029987124
 20
368.3278701131
 30
0.0
 10
858.9029987124
 20
368.1307152667
 30
0.0
 10
858.7154701559
 20
367.759389072
 30
0.0
 10
858.2581508862
 20
367.3255159822
 30
0.0
 10
857.879749574
 20
367.0981059488
 30
0.0
 10
857.6549906007
 20
366.9905178178
 30
0.0
  0
SPLINE
  5
813
100
AcDbEntity
  8
KONSTRUKTIONSELEMENTE
100
AcDbSpline
 62
7
  6
CONTINUOUS
 70
0
 71
3
 72
10
 73
6
 74
0
 42
0.0000001
 43
0.0000001
 44
0.0000000001
 40
0.0
 40
0.0
 40
0.0
 40
0.0
 40
0.3939255147
 40
0.6883533687
 40
1.0
 40
1.0
 40
1.0
 40
1.0
 10
853.1512494769
 20
366.9904058897
 30
0.0
 10
852.9264415709
 20
367.0979957904
 30
0.0
 10
852.5479790493
 20
367.3254413586
 30
0.0
 10
852.0905375316
 20
367.759319102
 30
0.0
 10
851.9029987124
 20
368.1306988092
 30
0.0
 10
851.9029987124
 20
368.3278701131
 30
0.0
  0
SPLINE
  5
814
100
AcDbEntity
  8
KONSTRUKTIONSELEMENTE
100
AcDbSpline
 62
7
  6
CONTINUOUS
 70
0
 71
3
 72
10
 73
6
 74
0
 42
0.0000001
 43
0.0000001
 44
0.0000000001
 40
0.0
 40
0.0
 40
0.0
 40
0.0
 40
0.3116645009
 40
0.6060899939
 40
1.0
 40
1.0
 40
1.0
 40
1.0
 10
851.9029987124
 20
347.8217734587
 30
0.0
 10
851.9029987124
 20
348.0189283051
 30
0.0
 10
852.0905272689
 20
348.3902544998
 30
0.0
 10
852.5478465386
 20
348.8241275896
 30
0.0
 10
852.9262478508
 20
349.051537623
 30
0.0
 10
853.1510068241
 20
349.159125754
 30
0.0
  0
SPLINE
  5
815
100
AcDbEntity
  8
KONSTRUKTIONSELEMENTE
100
AcDbSpline
 62
7
  6
CONTINUOUS
 70
0
 71
3
 72
10
 73
6
 74
0
 42
0.0000001
 43
0.0000001
 44
0.0000000001
 40
0.0
 40
0.0
 40
0.0
 40
0.0
 40
0.3939255147
 40
0.6883533687
 40
1.0
 40
1.0
 40
1.0
 40
1.0
 10
857.6547479479
 20
349.1592376821
 30
0.0
 10
857.8795558539
 20
349.0516477814
 30
0.0
 10
858.2580183755
 20
348.8242022132
 30
0.0
 10
858.7154598932
 20
348.3903244698
 30
0.0
 10
858.9029987124
 20
348.0189447626
 30
0.0
 10
858.9029987124
 20
347.8217734587
 30
0.0
  0
SPLINE
  5
816
100
AcDbEntity
  8
KONSTRUKTIONSELEMENTE
100
AcDbSpline
 62
7
  6
CONTINUOUS
 70
0
 71
3
 72
13
 73
9
 74
0
 42
0.0000001
 43
0.0000001
 44
0.0000000001
 40
0.0
 40
0.0
 40
0.0
 40
0.0
 40
0.1194785188
 40
0.2392741704
 40
0.3602835725
 40
0.4830059608
 40
0.7355440041
 40
1.0
 40
1.0
 40
1.0
 40
1.0
 10
847.4029987124
 20
347.8217734587
 30
0.0
 10
847.4029987124
 20
348.1804130699
 30
0.0
 10
847.4790941956
 20
348.9009196989
 30
0.0
 10
847.8146704232
 20
349.9364154546
 30
0.0
 10
848.3506548885
 20
350.8947351338
 30
0.0
 10
849.3083504542
 20
352.0451148947
 30
0.0
 10
850.8946690969
 20
353.184457414
 30
0.0
 10
852.3747225393
 20
353.7119834343
 30
0.0
 10
853.1488863919
 20
353.8875395793
 30
0.0
  0
SPLINE
  5
817
100
AcDbEntity
  8
KONSTRUKTIONSELEMENTE
100
AcDbSpline
 62
7
  6
CONTINUOUS
 70
0
 71
3
 72
13
 73
9
 74
0
 42
0.0000001
 43
0.0000001
 44
0.0000000001
 40
0.0
 40
0.0
 40
0.0
 40
0.0
 40
0.2644681654
 40
0.5169944072
 40
0.6397129492
 40
0.760706397
 40
0.8805228501
 40
1.0
 40
1.0
 40
1.0
 40
1.0
 10
857.6551694912
 20
353.8879707917
 30
0.0
 10
858.4295668177
 20
353.7124906874
 30
0.0
 10
859.9100576653
 20
353.1851699588
 30
0.0
 10
861.4969080724
 20
352.0458174953
 30
0.0
 10
862.4548800317
 20
350.8953749465
 30
0.0
 10
862.9911967894
 20
349.9369531599
 30
0.0
 10
863.326811126
 20
348.9011997475
 30
0.0
 10
863.4029987124
 20
348.180487729
 30
0.0
 10
863.4029987124
 20
347.8217734587
 30
0.0
  0
SPLINE
  5
818
100
AcDbEntity
  8
KONSTRUKTIONSELEMENTE
100
AcDbSpline
 62
7
  6
CONTINUOUS
 70
0
 71
3
 72
13
 73
9
 74
0
 42
0.0000001
 43
0.0000001
 44
0.0000000001
 40
0.0
 40
0.0
 40
0.0
 40
0.0
 40
0.1197290731
 40
0.2397365246
 40
0.3609040964
 40
0.4836831257
 40
0.7359942557
 40
1.0
 40
1.0
 40
1.0
 40
1.0
 10
863.4029987124
 20
337.2151717409
 30
0.0
 10
863.4029987124
 20
336.8659580388
 30
0.0
 10
863.3308950906
 20
336.1646170028
 30
0.0
 10
863.0126097559
 20
335.1543987546
 30
0.0
 10
862.5032262142
 20
334.215820536
 30
0.0
 10
861.5914256856
 20
333.0830460293
 30
0.0
 10
860.07553442
 20
331.9459026132
 30
0.0
 10
858.65264757
 20
331.3993568893
 30
0.0
 10
857.9064230483
 20
331.2093883987
 30
0.0
  0
SPLINE
  5
819
100
AcDbEntity
  8
KONSTRUKTIONSELEMENTE
100
AcDbSpline
 62
7
  6
CONTINUOUS
 70
0
 71
3
 72
13
 73
9
 74
0
 42
0.0000001
 43
0.0000001
 44
0.0000000001
 40
0.0
 40
0.0
 40
0.0
 40
0.0
 40
0.2640112835
 40
0.5163080567
 40
0.6390830379
 40
0.7602378991
 40
0.8802701562
 40
1.0
 40
1.0
 40
1.0
 40
1.0
 10
852.8986709099
 20
331.2096355882
 30
0.0
 10
852.1525310876
 20
331.3996701895
 30
0.0
 10
850.7298546462
 20
331.9462368207
 30
0.0
 10
849.2142645791
 20
333.0833821616
 30
0.0
 10
848.3026743017
 20
334.2159976703
 30
0.0
 10
847.7932833858
 20
335.1544749568
 30
0.0
 10
847.4751466668
 20
336.16466306
 30
0.0
 10
847.4029987124
 20
336.8659929435
 30
0.0
 10
847.4029987124
 20
337.2151717409
 30
0.0
  0
SPLINE
  5
81A
100
AcDbEntity
  8
KONSTRUKTIONSELEMENTE
100
AcDbSpline
 62
7
  6
CONTINUOUS
 70
0
 71
3
 72
10
 73
6
 74
0
 42
0.0000001
 43
0.0000001
 44
0.0000000001
 40
0.0
 40
0.0
 40
0.0
 40
0.0
 40
0.3192646009
 40
0.6086079864
 40
1.0
 40
1.0
 40
1.0
 40
1.0
 10
858.9029987124
 20
337.2151717409
 30
0.0
 10
858.9029987124
 20
337.0434319657
 30
0.0
 10
858.7609829258
 20
336.7225807508
 30
0.0
 10
858.3951769112
 20
336.3292284114
 30
0.0
 10
858.0918890785
 20
336.1161884981
 30
0.0
 10
857.9093527774
 20
336.0112739016
 30
0.0
  0
SPLINE
  5
81B
100
AcDbEntity
  8
KONSTRUKTIONSELEMENTE
100
AcDbSpline
 62
7
  6
CONTINUOUS
 70
0
 71
3
 72
10
 73
6
 74
0
 42
0.0000001
 43
0.0000001
 44
0.0000000001
 40
0.0
 40
0.0
 40
0.0
 40
0.0
 40
0.3914026107
 40
0.6807340322
 40
1.0
 40
1.0
 40
1.0
 40
1.0
 10
852.8965531113
 20
336.0113263728
 30
0.0
 10
852.7140258679
 20
336.1162417823
 30
0.0
 10
852.4107862871
 20
336.3293008537
 30
0.0
 10
852.0449655825
 20
336.7225992144
 30
0.0
 10
851.9029987124
 20
337.0434419553
 30
0.0
 10
851.9029987124
 20
337.2151717409
 30
0.0
  0
SPLINE
  5
81C
100
AcDbEntity
  8
KONSTRUKTIONSELEMENTE
100
AcDbSpline
 62
7
  6
CONTINUOUS
 70
0
 71
3
 72
12
 73
8
 74
0
 42
0.0000001
 43
0.0000001
 44
0.0000000001
 40
0.0
 40
0.0
 40
0.0
 40
0.0
 40
0.1082269951
 40
0.2186723657
 40
0.4525560719
 40
0.7121530683
 40
1.0
 40
1.0
 40
1.0
 40
1.0
 10
890.4029987124
 20
421.0073253115
 30
0.0
 10
890.4029987124
 20
421.8123935285
 30
0.0
 10
890.2749149291
 20
423.4418954197
 30
0.0
 10
889.4966744795
 20
426.7287032894
 30
0.0
 10
887.4675719747
 20
430.8114654067
 30
0.0
 10
883.5839690933
 20
435.2056618067
 30
0.0
 10
880.2561310206
 20
437.6107728276
 30
0.0
 10
878.4140893101
 20
438.702400243
 30
0.0
  0
SPLINE
  5
81D
100
AcDbEntity
  8
KONSTRUKTIONSELEMENTE
100
AcDbSpline
 62
7
  6
CONTINUOUS
 70
0
 71
3
 72
12
 73
8
 74
0
 42
0.0000001
 43
0.0000001
 44
0.0000000001
 40
0.0
 40
0.0
 40
0.0
 40
0.0
 40
0.2878471291
 40
0.5474443724
 40
0.7813277166
 40
0.8917737576
 40
1.0
 40
1.0
 40
1.0
 40
1.0
 10
832.3914189643
 20
438.7021060652
 30
0.0
 10
830.5494404489
 20
437.610476076
 30
0.0
 10
827.2217190194
 20
435.2053762028
 30
0.0
 10
823.3382824128
 20
430.8112333252
 30
0.0
 10
821.3092681497
 20
426.7285541594
 30
0.0
 10
820.531078117
 20
423.4418265664
 30
0.0
 10
820.4029987124
 20
421.8123674303
 30
0.0
 10
820.4029987124
 20
421.0073253115
 30
0.0
  0
SPLINE
  5
81E
100
AcDbEntity
  8
KONSTRUKTIONSELEMENTE
100
AcDbSpline
 62
7
  6
CONTINUOUS
 70
0
 71
3
 72
14
 73
10
 74
0
 42
0.0000001
 43
0.0000001
 44
0.0000000001
 40
0.0
 40
0.0
 40
0.0
 40
0.0
 40
0.1157241259
 40
0.2325028191
 40
0.3513369223
 40
0.4731266181
 40
0.5985907863
 40
0.7282091658
 40
1.0
 40
1.0
 40
1.0
 40
1.0
 10
898.4029987124
 20
421.0073253115
 30
0.0
 10
898.4029987124
 20
422.3657047048
 30
0.0
 10
898.1644058712
 20
425.1006174698
 30
0.0
 10
897.104023624
 20
429.1052657371
 30
0.0
 10
895.3722587693
 20
432.946362098
 30
0.0
 10
893.0146135186
 20
436.5578042006
 30
0.0
 10
890.0822749767
 20
439.8894814829
 30
0.0
 10
885.41218945
 20
443.9638085265
 30
0.0
 10
881.3089499462
 20
446.3866018215
 30
0.0
 10
878.412796258
 20
447.7246337307
 30
0.0
  0
SPLINE
  5
81F
100
AcDbEntity
  8
KONSTRUKTIONSELEMENTE
100
AcDbSpline
 62
7
  6
CONTINUOUS
 70
0
 71
3
 72
14
 73
10
 74
0
 42
0.0000001
 43
0.0000001
 44
0.0000000001
 40
0.0
 40
0.0
 40
0.0
 40
0.0
 40
0.2717922117
 40
0.4014107423
 40
0.5268747263
 40
0.6486639537
 40
0.7674975275
 40
0.8842757948
 40
1.0
 40
1.0
 40
1.0
 40
1.0
 10
832.3955665395
 20
447.7257246184
 30
0.0
 10
829.4991142544
 20
446.3877395638
 30
0.0
 10
825.39542262
 20
443.9649807479
 30
0.0
 10
820.7247913877
 20
439.8905577847
 30
0.0
 10
817.7920995167
 20
436.5587621953
 30
0.0
 10
815.4341561774
 20
432.9471497609
 30
0.0
 10
813.7021603493
 20
429.105833009
 30
0.0
 10
812.6416263497
 20
425.1009170902
 30
0.0
 10
812.4029987124
 20
422.3658058012
 30
0.0
 10
812.4029987124
 20
421.0073253115
 30
0.0
  0
SPLINE
  5
820
100
AcDbEntity
  8
KONSTRUKTIONSELEMENTE
100
AcDbSpline
 62
7
  6
CONTINUOUS
 70
0
 71
3
 72
14
 73
10
 74
0
 42
0.0000001
 43
0.0000001
 44
0.0000000001
 40
0.0
 40
0.0
 40
0.0
 40
0.0
 40
0.0959454843
 40
0.1972607022
 40
0.3077279273
 40
0.4289226675
 40
0.5606272693
 40
0.7013940283
 40
1.0
 40
1.0
 40
1.0
 40
1.0
 10
820.4029987124
 20
421.0073253115
 30
0.0
 10
820.4029987124
 20
419.6066626444
 30
0.0
 10
820.8026241208
 20
416.7133699981
 30
0.0
 10
822.5755086238
 20
412.5367988031
 30
0.0
 10
825.4915321747
 20
408.5976702096
 30
0.0
 10
829.4751049316
 20
405.0466565347
 30
0.0
 10
834.4001403964
 20
402.0307059543
 30
0.0
 10
842.1277953392
 20
398.83893501
 30
0.0
 10
848.5487020544
 20
397.7047032276
 30
0.0
 10
852.9026845579
 20
397.4913421964
 30
0.0
  0
SPLINE
  5
821
100
AcDbEntity
  8
KONSTRUKTIONSELEMENTE
100
AcDbSpline
 62
7
  6
CONTINUOUS
 70
0
 71
3
 72
14
 73
10
 74
0
 42
0.0000001
 43
0.0000001
 44
0.0000000001
 40
0.0
 40
0.0
 40
0.0
 40
0.0
 40
0.2986051852
 40
0.4393721458
 40
0.571077019
 40
0.6922722328
 40
0.8027396543
 40
0.9040546918
 40
1.0
 40
1.0
 40
1.0
 40
1.0
 10
857.9038201016
 20
397.4913692233
 30
0.0
 10
862.2577374578
 20
397.7047949952
 30
0.0
 10
868.6785481903
 20
398.8390433794
 30
0.0
 10
876.4060936329
 20
402.0308219435
 30
0.0
 10
881.3310558607
 20
405.0467888116
 30
0.0
 10
885.3145770915
 20
408.5977887684
 30
0.0
 10
888.2305386131
 20
412.5369013898
 30
0.0
 10
890.0033877773
 20
416.7134268104
 30
0.0
 10
890.4029987124
 20
419.6066814158
 30
0.0
 10
890.4029987124
 20
421.0073253115
 30
0.0
  0
SPLINE
  5
822
100
AcDbEntity
  8
KONSTRUKTIONSELEMENTE
100
AcDbSpline
 62
7
  6
CONTINUOUS
 70
0
 71
3
 72
14
 73
10
 74
0
 42
0.0000001
 43
0.0000001
 44
0.0000000001
 40
0.0
 40
0.0
 40
0.0
 40
0.0
 40
0.1095462911
 40
0.2213589315
 40
0.3374317958
 40
0.4591690589
 40
0.5871238915
 40
0.7209231541
 40
1.0
 40
1.0
 40
1.0
 40
1.0
 10
812.4029987124
 20
421.0073253115
 30
0.0
 10
812.4029987124
 20
418.9506213723
 30
0.0
 10
812.959107379
 20
414.7752867444
 30
0.0
 10
815.3872354767
 20
408.8576313308
 30
0.0
 10
819.251562784
 20
403.4846091952
 30
0.0
 10
824.3544794723
 20
398.8259127912
 30
0.0
 10
830.4945579049
 20
394.9954852217
 30
0.0
 10
839.8911154917
 20
391.0674033075
 30
0.0
 10
847.6600689078
 20
389.7057225213
 30
0.0
 10
852.8949469897
 20
389.4833914877
 30
0.0
  0
SPLINE
  5
823
100
AcDbEntity
  8
KONSTRUKTIONSELEMENTE
100
AcDbSpline
 62
7
  6
CONTINUOUS
 70
0
 71
3
 72
14
 73
10
 74
0
 42
0.0000001
 43
0.0000001
 44
0.0000000001
 40
0.0
 40
0.0
 40
0.0
 40
0.0
 40
0.2790779664
 40
0.4128778857
 40
0.5408330056
 40
0.6625700188
 40
0.7786422402
 40
0.890454035
 40
1.0
 40
1.0
 40
1.0
 40
1.0
 10
857.9066545609
 20
389.4832044753
 30
0.0
 10
863.1419762287
 20
389.7051852191
 30
0.0
 10
870.9116689801
 20
391.0664500429
 30
0.0
 10
880.3092223275
 20
394.9943129328
 30
0.0
 10
886.4499881279
 20
398.8247290304
 30
0.0
 10
891.5535191885
 20
403.4835367465
 30
0.0
 10
895.4183351453
 20
408.8568061883
 30
0.0
 10
897.8468104322
 20
414.7748268739
 30
0.0
 10
898.4029987124
 20
418.9504676186
 30
0.0
 10
898.4029987124
 20
421.0073253115
 30
0.0
  0
SPLINE
  5
824
100
AcDbEntity
  8
RUNDUNGEN
100
AcDbSpline
 62
7
  6
CONTINUOUS
 70
0
 71
3
 72
8
 73
4
 74
0
 42
0.0000001
 43
0.0000001
 44
0.0000000001
 40
0.0
 40
0.0
 40
0.0
 40
0.0
 40
1.0
 40
1.0
 40
1.0
 40
1.0
 10
880.3651649037
 20
141.8951411083
 30
0.0
 10
880.3113285092
 20
142.1377491626
 30
0.0
 10
880.2861976971
 20
142.3879663918
 30
0.0
 10
880.2861977793
 20
142.636476
 30
0.0
  0
SPLINE
  5
825
100
AcDbEntity
  8
RUNDUNGEN
100
AcDbSpline
 62
7
  6
CONTINUOUS
 70
0
 71
3
 72
11
 73
7
 74
0
 42
0.0000001
 43
0.0000001
 44
0.0000000001
 40
0.0
 40
0.0
 40
0.0
 40
0.0
 40
0.250010631
 40
0.5000175033
 40
0.7500145996
 40
1.0
 40
1.0
 40
1.0
 40
1.0
 10
905.2034300292
 20
148.9268974365
 30
0.0
 10
905.439669391
 20
148.9845362734
 30
0.0
 10
905.896508931
 20
149.1799110212
 30
0.0
 10
906.4465252371
 20
149.6788008848
 30
0.0
 10
906.8041480245
 20
150.3297089829
 30
0.0
 10
906.8864566252
 20
150.8199843582
 30
0.0
 10
906.8861592829
 20
151.0631288605
 30
0.0
  0
SPLINE
  5
826
100
AcDbEntity
  8
RUNDUNGEN
100
AcDbSpline
 62
7
  6
CONTINUOUS
 70
0
 71
3
 72
11
 73
7
 74
0
 42
0.0000001
 43
0.0000001
 44
0.0000000001
 40
0.0
 40
0.0
 40
0.0
 40
0.0
 40
0.2500346324
 40
0.500053935
 40
0.750042561
 40
1.0
 40
1.0
 40
1.0
 40
1.0
 10
841.4984188423
 20
102.1833719246
 30
0.0
 10
841.7852225081
 20
102.183371621
 30
0.0
 10
842.3649339477
 20
102.296247658
 30
0.0
 10
843.1013769365
 20
102.7810463808
 30
0.0
 10
843.5983242863
 20
103.5098724086
 30
0.0
 10
843.7154354621
 20
104.0897445158
 30
0.0
 10
843.7154355143
 20
104.3764596364
 30
0.0
  0
SPLINE
  5
827
100
AcDbEntity
  8
0
100
AcDbSpline
 62
7
  6
CONTINUOUS
 70
0
 71
3
 72
10
 73
6
 74
0
 42
0.0000001
 43
0.0000001
 44
0.0000000001
 40
0.0
 40
0.0
 40
0.0
 40
0.0
 40
0.4659991531
 40
0.7283064187
 40
1.0
 40
1.0
 40
1.0
 40
1.0
 10
850.0478406596
 20
262.0680104714
 30
0.0
 10
848.6526046755
 20
263.8627365531
 30
0.0
 10
845.5312772688
 20
265.9511089081
 30
0.0
 10
840.8448515978
 20
267.3187939065
 30
0.0
 10
838.2283895229
 20
267.565153794
 30
0.0
 10
836.9029987124
 20
267.565153794
 30
0.0
  0
SPLINE
  5
828
100
AcDbEntity
  8
0
100
AcDbSpline
 62
7
  6
CONTINUOUS
 70
0
 71
3
 72
9
 73
5
 74
0
 42
0.0000001
 43
0.0000001
 44
0.0000000001
 40
0.0
 40
0.0
 40
0.0
 40
0.0
 40
0.2351423968
 40
1.0
 40
1.0
 40
1.0
 40
1.0
 10
848.401634892
 20
294.2412573489
 30
0.0
 10
847.6348279518
 20
294.8016465201
 30
0.0
 10
844.1417913903
 20
296.8633523582
 30
0.0
 10
839.9922972248
 20
297.6879026726
 30
0.0
 10
836.9029987124
 20
297.6879026726
 30
0.0
  0
SPLINE
  5
829
100
AcDbEntity
  8
RUNDUNGEN
100
AcDbSpline
 62
7
  6
CONTINUOUS
 70
0
 71
3
 72
9
 73
5
 74
0
 42
0.0000001
 43
0.0000001
 44
0.0000000001
 40
0.0
 40
0.0
 40
0.0
 40
0.0
 40
0.5194633901
 40
1.0
 40
1.0
 40
1.0
 40
1.0
 10
802.3497823581
 20
237.5599410389
 30
0.0
 10
801.9083933037
 20
237.1142029163
 30
0.0
 10
801.179624648
 20
236.114333268
 30
0.0
 10
800.9029987124
 20
234.895596149
 30
0.0
 10
800.9029987124
 20
234.3153027375
 30
0.0
  0
SPLINE
  5
82A
100
AcDbEntity
  8
RUNDUNGEN
100
AcDbSpline
 62
7
  6
CONTINUOUS
 70
0
 71
3
 72
10
 73
6
 74
0
 42
0.0000001
 43
0.0000001
 44
0.0000000001
 40
0.0
 40
0.0
 40
0.0
 40
0.0
 40
0.5349738501
 40
0.7734707915
 40
1.0
 40
1.0
 40
1.0
 40
1.0
 10
785.6380134059
 20
325.2205976194
 30
0.0
 10
785.3374800857
 20
325.0717971116
 30
0.0
 10
784.9286933334
 20
324.7663494298
 30
0.0
 10
784.6238043942
 20
324.2091330153
 30
0.0
 10
784.5720573024
 20
323.9154834926
 30
0.0
 10
784.5719725801
 20
323.7734815708
 30
0.0
  0
SPLINE
  5
82B
100
AcDbEntity
  8
RUNDUNGEN
100
AcDbSpline
 62
7
  6
CONTINUOUS
 70
0
 71
3
 72
10
 73
6
 74
0
 42
0.0000001
 43
0.0000001
 44
0.0000000001
 40
0.0
 40
0.0
 40
0.0
 40
0.0
 40
0.480919227
 40
0.7459271703
 40
1.0
 40
1.0
 40
1.0
 40
1.0
 10
799.9735991943
 20
330.1604093619
 30
0.0
 10
799.5584697505
 20
330.5796291343
 30
0.0
 10
798.6225044433
 20
330.9394927076
 30
0.0
 10
797.3943412632
 20
330.9178636325
 30
0.0
 10
796.7711057863
 20
330.7328310018
 30
0.0
 10
796.4917779927
 20
330.5945298061
 30
0.0
  0
SPLINE
  5
82C
100
AcDbEntity
  8
0
100
AcDbSpline
 62
7
  6
CONTINUOUS
 70
0
 71
3
 72
9
 73
5
 74
0
 42
0.0000001
 43
0.0000001
 44
0.0000000001
 40
0.0
 40
0.0
 40
0.0
 40
0.0
 40
0.2414438721
 40
1.0
 40
1.0
 40
1.0
 40
1.0
 10
841.63716424
 20
324.7622181643
 30
0.0
 10
842.480448285
 20
325.1797462243
 30
0.0
 10
846.0660212389
 20
326.7185723746
 30
0.0
 10
849.9532291032
 20
327.5202801882
 30
0.0
 10
852.9014843999
 20
327.7388650362
 30
0.0
  0
SPLINE
  5
82D
100
AcDbEntity
  8
0
100
AcDbSpline
 62
7
  6
CONTINUOUS
 70
0
 71
3
 72
9
 73
5
 74
0
 42
0.0000001
 43
0.0000001
 44
0.0000000001
 40
0.0
 40
0.0
 40
0.0
 40
0.0
 40
0.2579460454
 40
1.0
 40
1.0
 40
1.0
 40
1.0
 10
857.9045130249
 20
327.7388650362
 30
0.0
 10
858.9069117762
 20
327.6645467847
 30
0.0
 10
862.7763488585
 20
327.2036970524
 30
0.0
 10
866.5774749391
 20
326.045255342
 30
0.0
 10
869.1688331848
 20
324.7622181643
 30
0.0
  0
SPLINE
  5
82E
100
AcDbEntity
  8
RUNDUNGEN
100
AcDbSpline
 62
7
  6
CONTINUOUS
 70
0
 71
3
 72
12
 73
8
 74
0
 42
0.0000001
 43
0.0000001
 44
0.0000000001
 40
0.0
 40
0.0
 40
0.0
 40
0.0
 40
0.2522581055
 40
0.5153826157
 40
0.6451774847
 40
0.7704539315
 40
1.0
 40
1.0
 40
1.0
 40
1.0
 10
919.0243436868
 20
328.262446027
 30
0.0
 10
916.5662868727
 20
329.4794828002
 30
0.0
 10
911.1021382267
 20
331.113181112
 30
0.0
 10
904.000378608
 20
331.215850348
 30
0.0
 10
898.450925779
 20
330.1289247217
 30
0.0
 10
893.4765853181
 20
328.3682711228
 30
0.0
 10
890.1405096067
 20
326.215682623
 30
0.0
 10
888.3843171127
 20
324.4421861183
 30
0.0
  0
SPLINE
  5
82F
100
AcDbEntity
  8
RUNDUNGEN
100
AcDbSpline
 62
7
  6
CONTINUOUS
 70
0
 71
3
 72
10
 73
6
 74
0
 42
0.0000001
 43
0.0000001
 44
0.0000000001
 40
0.0
 40
0.0
 40
0.0
 40
0.0
 40
0.2265435213
 40
0.4650408122
 40
1.0
 40
1.0
 40
1.0
 40
1.0
 10
907.2486428975
 20
304.6010703632
 30
0.0
 10
907.2485530062
 20
304.743078648
 30
0.0
 10
907.1967966761
 20
305.036730786
 30
0.0
 10
906.8918935245
 20
305.5939255013
 30
0.0
 10
906.4831235442
 20
305.8993582676
 30
0.0
 10
906.1826039757
 20
306.0481519667
 30
0.0
  0
SPLINE
  5
830
100
AcDbEntity
  8
RUNDUNGEN
100
AcDbSpline
 62
7
  6
CONTINUOUS
 70
0
 71
3
 72
9
 73
5
 74
0
 42
0.0000001
 43
0.0000001
 44
0.0000000001
 40
0.0
 40
0.0
 40
0.0
 40
0.0
 40
0.4805183102
 40
1.0
 40
1.0
 40
1.0
 40
1.0
 10
907.2486450525
 20
301.0654659559
 30
0.0
 10
907.2487480668
 20
300.8839879268
 30
0.0
 10
907.1625098699
 20
300.5027545536
 30
0.0
 10
906.9345909201
 20
300.1900068083
 30
0.0
 10
906.7965429956
 20
300.0505986782
 30
0.0
  0
SPLINE
  5
831
100
AcDbEntity
  8
RUNDUNGEN
100
AcDbSpline
 62
7
  6
CONTINUOUS
 70
0
 71
3
 72
11
 73
7
 74
0
 42
0.0000001
 43
0.0000001
 44
0.0000000001
 40
0.0
 40
0.0
 40
0.0
 40
0.0
 40
0.2256919297
 40
0.4632773963
 40
0.7205986282
 40
1.0
 40
1.0
 40
1.0
 40
1.0
 10
924.0740324029
 20
322.8164404573
 30
0.0
 10
924.074120134
 20
323.2711754184
 30
0.0
 10
923.9096734226
 20
324.2113264621
 30
0.0
 10
923.202368527
 20
325.5038739658
 30
0.0
 10
922.0938019854
 20
326.6252486113
 30
0.0
 10
921.1671473926
 20
327.2014978452
 30
0.0
 10
920.6626477753
 20
327.4512864516
 30
0.0
  0
SPLINE
  5
832
100
AcDbEntity
  8
RUNDUNGEN
100
AcDbSpline
 62
7
  6
CONTINUOUS
 70
0
 71
3
 72
9
 73
5
 74
0
 42
0.0000001
 43
0.0000001
 44
0.0000000001
 40
0.0
 40
0.0
 40
0.0
 40
0.0
 40
0.4805188659
 40
1.0
 40
1.0
 40
1.0
 40
1.0
 10
924.0740324029
 20
319.2809065513
 30
0.0
 10
924.0739204832
 20
318.7007951974
 30
0.0
 10
923.7971008604
 20
317.4824777306
 30
0.0
 10
923.0685345899
 20
316.4829204855
 30
0.0
 10
922.6272526388
 20
316.0372905216
 30
0.0
  0
SPLINE
  5
833
100
AcDbEntity
  8
RUNDUNGEN
100
AcDbSpline
 62
7
  6
CONTINUOUS
 70
0
 71
3
 72
9
 73
5
 74
0
 42
0.0000001
 43
0.0000001
 44
0.0000000001
 40
0.0
 40
0.0
 40
0.0
 40
0.0
 40
0.4817888776
 40
1.0
 40
1.0
 40
1.0
 40
1.0
 10
830.225736933
 20
269.6444334296
 30
0.0
 10
830.0091921179
 20
271.1672806028
 30
0.0
 10
828.9644526613
 20
274.2618419969
 30
0.0
 10
826.9941641457
 20
276.8394173967
 30
0.0
 10
825.8300416804
 20
278.0150101237
 30
0.0
  0
SPLINE
  5
834
100
AcDbEntity
  8
RUNDUNGEN
100
AcDbSpline
 62
7
  6
CONTINUOUS
 70
0
 71
3
 72
11
 73
7
 74
0
 42
0.0000001
 43
0.0000001
 44
0.0000000001
 40
0.0
 40
0.0
 40
0.0
 40
0.0
 40
0.2377805287
 40
0.4809056222
 40
0.7339193382
 40
1.0
 40
1.0
 40
1.0
 40
1.0
 10
830.3512405732
 20
271.4110500632
 30
0.0
 10
830.3512406041
 20
270.5094191791
 30
0.0
 10
830.1512245914
 20
268.6800683744
 30
0.0
 10
829.2643585835
 20
266.0221832501
 30
0.0
 10
827.8177814322
 20
263.5003309043
 30
0.0
 10
826.5399646981
 20
261.9884726347
 30
0.0
 10
825.8300416804
 20
261.271554646
 30
0.0
  0
SPLINE
  5
835
100
AcDbEntity
  8
RUNDUNGEN
100
AcDbSpline
 62
7
  6
CONTINUOUS
 70
0
 71
3
 72
9
 73
5
 74
0
 42
0.0000001
 43
0.0000001
 44
0.0000000001
 40
0.0
 40
0.0
 40
0.0
 40
0.0
 40
0.4805364547
 40
1.0
 40
1.0
 40
1.0
 40
1.0
 10
909.9029987124
 20
234.3153027375
 30
0.0
 10
909.9029987124
 20
234.8955959617
 30
0.0
 10
909.6263728764
 20
236.1143330741
 30
0.0
 10
908.8976042533
 20
237.1142027828
 30
0.0
 10
908.4562150667
 20
237.5599410389
 30
0.0
  0
SPLINE
  5
836
100
AcDbEntity
  8
BEZUGSACHSEN
100
AcDbSpline
 62
7
  6
CONTINUOUS
 70
0
 71
3
 72
17
 73
13
 74
0
 42
0.0000001
 43
0.0000001
 44
0.0000000001
 40
0.0
 40
0.0
 40
0.0
 40
0.0
 40
0.0517949727
 40
0.1054753999
 40
0.2228490968
 40
0.3562854944
 40
0.5
 40
0.6437145056
 40
0.7771509032
 40
0.8945246001
 40
0.9482050273
 40
1.0
 40
1.0
 40
1.0
 40
1.0
 10
861.4029987124
 20
319.3460283703
 30
0.0
 10
861.4029987124
 20
319.0674750694
 30
0.0
 10
861.3220790257
 20
318.4973339728
 30
0.0
 10
860.8372953566
 20
317.387659022
 30
0.0
 10
859.640199337
 20
316.1896529377
 30
0.0
 10
857.6745361611
 20
315.3066960054
 30
0.0
 10
855.4029987124
 20
314.9979962505
 30
0.0
 10
853.1314612637
 20
315.3066960054
 30
0.0
 10
851.1657980878
 20
316.1896529377
 30
0.0
 10
849.9687020682
 20
317.387659022
 30
0.0
 10
849.4839183991
 20
318.4973339728
 30
0.0
 10
849.4029987124
 20
319.0674750694
 30
0.0
 10
849.4029987124
 20
319.3460283703
 30
0.0
  0
SPLINE
  5
837
100
AcDbEntity
  8
BEZUGSACHSEN
100
AcDbSpline
 62
7
  6
CONTINUOUS
 70
0
 71
3
 72
9
 73
5
 74
0
 42
0.0000001
 43
0.0000001
 44
0.0000000001
 40
0.0
 40
0.0
 40
0.0
 40
0.0
 40
0.4709091429
 40
1.0
 40
1.0
 40
1.0
 40
1.0
 10
849.9492503266
 20
317.5791908942
 30
0.0
 10
850.2625721524
 20
318.0621496546
 30
0.0
 10
851.1635971113
 20
318.9385531139
 30
0.0
 10
852.2863328156
 20
319.467296268
 30
0.0
 10
852.9016046801
 20
319.6668319198
 30
0.0
  0
SPLINE
  5
838
100
AcDbEntity
  8
BEZUGSACHSEN
100
AcDbSpline
 62
7
  6
CONTINUOUS
 70
0
 71
3
 72
9
 73
5
 74
0
 42
0.0000001
 43
0.0000001
 44
0.0000000001
 40
0.0
 40
0.0
 40
0.0
 40
0.0
 40
0.5290908571
 40
1.0
 40
1.0
 40
1.0
 40
1.0
 10
857.9043927447
 20
319.6668319198
 30
0.0
 10
858.5196646092
 20
319.467296268
 30
0.0
 10
859.6424003135
 20
318.9385531139
 30
0.0
 10
860.5434252724
 20
318.0621496546
 30
0.0
 10
860.8567470983
 20
317.5791908942
 30
0.0
  0
SPLINE
  5
839
100
AcDbEntity
  8
RUNDUNGEN
100
AcDbSpline
 62
7
  6
CONTINUOUS
 70
0
 71
3
 72
11
 73
7
 74
0
 42
0.0000001
 43
0.0000001
 44
0.0000000001
 40
0.0
 40
0.0
 40
0.0
 40
0.0
 40
0.2880068215
 40
0.5553366529
 40
0.7905059061
 40
1.0
 40
1.0
 40
1.0
 40
1.0
 10
898.3529987124
 20
215.5928053768
 30
0.0
 10
898.2499327599
 20
215.5928053768
 30
0.0
 10
898.0499376677
 20
215.6197286012
 30
0.0
 10
897.7881330411
 20
215.7381873326
 30
0.0
 10
897.6016693622
 20
215.9224963861
 30
0.0
 10
897.5529987124
 20
216.083521368
 30
0.0
 10
897.5529987124
 20
216.1584908018
 30
0.0
  0
SPLINE
  5
83A
100
AcDbEntity
  8
RUNDUNGEN
100
AcDbSpline
 62
7
  6
CONTINUOUS
 70
0
 71
3
 72
13
 73
9
 74
0
 42
0.0000001
 43
0.0000001
 44
0.0000000001
 40
0.0
 40
0.0
 40
0.0
 40
0.0
 40
0.1034546555
 40
0.2106690395
 40
0.3244963599
 40
0.4464318111
 40
0.7129511617
 40
1.0
 40
1.0
 40
1.0
 40
1.0
 10
909.9029987124
 20
221.2496596263
 30
0.0
 10
909.9029987124
 20
220.878247216
 30
0.0
 10
909.7952135705
 20
220.1180669427
 30
0.0
 10
909.3235519541
 20
219.0393975862
 30
0.0
 10
908.5669574105
 20
218.0542471417
 30
0.0
 10
907.1840594364
 20
216.8798217532
 30
0.0
 10
904.9310345445
 20
215.8611425023
 30
0.0
 10
902.9335323353
 20
215.5928053768
 30
0.0
 10
901.9029987124
 20
215.5928053768
 30
0.0
  0
SPLINE
  5
83B
100
AcDbEntity
  8
RUNDUNGEN
100
AcDbSpline
 62
7
  6
CONTINUOUS
 70
0
 71
3
 72
10
 73
6
 74
0
 42
0.0000001
 43
0.0000001
 44
0.0000000001
 40
0.0
 40
0.0
 40
0.0
 40
0.0
 40
0.4808964971
 40
0.7459158261
 40
1.0
 40
1.0
 40
1.0
 40
1.0
 10
918.6122175844
 20
311.9826947642
 30
0.0
 10
918.1971074741
 20
311.5634945159
 30
0.0
 10
917.2611683721
 20
311.2036240921
 30
0.0
 10
916.033002364
 20
311.2252307206
 30
0.0
 10
915.4097368412
 20
311.4102668537
 30
0.0
 10
915.1303963828
 20
311.54857432
 30
0.0
  0
SPLINE
  5
83C
100
AcDbEntity
  8
RUNDUNGEN
100
AcDbSpline
 62
7
  6
CONTINUOUS
 70
0
 71
3
 72
9
 73
5
 74
0
 42
0.0000001
 43
0.0000001
 44
0.0000000001
 40
0.0
 40
0.0
 40
0.0
 40
0.0
 40
0.5194816315
 40
1.0
 40
1.0
 40
1.0
 40
1.0
 10
785.024074386
 20
319.223044331
 30
0.0
 10
784.8860149099
 20
319.3624641264
 30
0.0
 10
784.658079209
 20
319.6752421628
 30
0.0
 10
784.571855806
 20
320.0565158444
 30
0.0
 10
784.5719746476
 20
320.2380090918
 30
0.0
  0
SPLINE
  5
83D
100
AcDbEntity
  8
RUNDUNGEN
100
AcDbSpline
 62
7
  6
CONTINUOUS
 70
0
 71
3
 72
13
 73
9
 74
0
 42
0.0000001
 43
0.0000001
 44
0.0000000001
 40
0.0
 40
0.0
 40
0.0
 40
0.0
 40
0.2870490624
 40
0.5535683755
 40
0.6755038246
 40
0.7893311355
 40
0.8965454157
 40
1.0
 40
1.0
 40
1.0
 40
1.0
 10
808.9029987124
 20
215.5928053768
 30
0.0
 10
807.8724642853
 20
215.5928053768
 30
0.0
 10
805.8749613592
 20
215.8611427579
 30
0.0
 10
803.6219361367
 20
216.8798228969
 30
0.0
 10
802.2390386097
 20
218.0542485604
 30
0.0
 10
801.482444746
 20
219.0393989982
 30
0.0
 10
801.0107836264
 20
220.118067819
 30
0.0
 10
800.9029987124
 20
220.8782474716
 30
0.0
 10
800.9029987124
 20
221.2496596263
 30
0.0
  0
SPLINE
  5
83E
100
AcDbEntity
  8
RUNDUNGEN
100
AcDbSpline
 62
7
  6
CONTINUOUS
 70
0
 71
3
 72
11
 73
7
 74
0
 42
0.0000001
 43
0.0000001
 44
0.0000000001
 40
0.0
 40
0.0
 40
0.0
 40
0.0
 40
0.2094942263
 40
0.444667264
 40
0.7119932261
 40
1.0
 40
1.0
 40
1.0
 40
1.0
 10
813.2529987124
 20
216.1584908018
 30
0.0
 10
813.2529987124
 20
216.0835213269
 30
0.0
 10
813.2043271276
 20
215.9224951085
 30
0.0
 10
813.017862954
 20
215.7381864202
 30
0.0
 10
812.7560583835
 20
215.6197280493
 30
0.0
 10
812.5560646393
 20
215.5928053768
 30
0.0
 10
812.4529987124
 20
215.5928053768
 30
0.0
  0
SPLINE
  5
83F
100
AcDbEntity
  8
RUNDUNGEN
100
AcDbSpline
 62
7
  6
CONTINUOUS
 70
0
 71
3
 72
9
 73
5
 74
0
 42
0.0000001
 43
0.0000001
 44
0.0000000001
 40
0.0
 40
0.0
 40
0.0
 40
0.0
 40
0.4729729907
 40
1.0
 40
1.0
 40
1.0
 40
1.0
 10
838.8554278116
 20
231.4400501675
 30
0.0
 10
838.0663373366
 20
230.6431846734
 30
0.0
 10
835.9396225957
 20
229.4099877007
 30
0.0
 10
833.5518312014
 20
229.0278342194
 30
0.0
 10
832.3022114573
 20
229.0278342194
 30
0.0
  0
SPLINE
  5
840
100
AcDbEntity
  8
RUNDUNGEN
100
AcDbSpline
 62
7
  6
CONTINUOUS
 70
0
 71
3
 72
9
 73
5
 74
0
 42
0.0000001
 43
0.0000001
 44
0.0000000001
 40
0.0
 40
0.0
 40
0.0
 40
0.0
 40
0.5270273161
 40
1.0
 40
1.0
 40
1.0
 40
1.0
 10
878.5037859675
 20
229.0278342194
 30
0.0
 10
877.2541654944
 20
229.0278342194
 30
0.0
 10
874.8663740249
 20
229.4099879315
 30
0.0
 10
872.7396595773
 20
230.6431851894
 30
0.0
 10
871.9505696132
 20
231.4400501675
 30
0.0
  0
SPLINE
  5
841
100
AcDbEntity
  8
RUNDUNGEN
100
AcDbSpline
 62
7
  6
CONTINUOUS
 70
0
 71
3
 72
13
 73
9
 74
0
 42
0.0000001
 43
0.0000001
 44
0.0000000001
 40
0.0
 40
0.0
 40
0.0
 40
0.0
 40
0.1034546555
 40
0.2106690395
 40
0.3244963599
 40
0.4464318111
 40
0.7129511617
 40
1.0
 40
1.0
 40
1.0
 40
1.0
 10
897.5529987124
 20
223.3709799699
 30
0.0
 10
897.5529987124
 20
223.7423923801
 30
0.0
 10
897.4452135705
 20
224.5025726534
 30
0.0
 10
896.9735519541
 20
225.58124201
 30
0.0
 10
896.2169574105
 20
226.5663924545
 30
0.0
 10
894.8340594364
 20
227.740817843
 30
0.0
 10
892.5810345445
 20
228.7594970938
 30
0.0
 10
890.5835323353
 20
229.0278342194
 30
0.0
 10
889.5529987124
 20
229.0278342194
 30
0.0
  0
SPLINE
  5
842
100
AcDbEntity
  8
RUNDUNGEN
100
AcDbSpline
 62
7
  6
CONTINUOUS
 70
0
 71
3
 72
13
 73
9
 74
0
 42
0.0000001
 43
0.0000001
 44
0.0000000001
 40
0.0
 40
0.0
 40
0.0
 40
0.0
 40
0.2870490624
 40
0.5535683755
 40
0.6755038246
 40
0.7893311355
 40
0.8965454157
 40
1.0
 40
1.0
 40
1.0
 40
1.0
 10
821.2529987124
 20
229.0278342194
 30
0.0
 10
820.2224642853
 20
229.0278342194
 30
0.0
 10
818.2249613592
 20
228.7594968382
 30
0.0
 10
815.9719361367
 20
227.7408166992
 30
0.0
 10
814.5890386097
 20
226.5663910357
 30
0.0
 10
813.832444746
 20
225.581240598
 30
0.0
 10
813.3607836264
 20
224.5025717772
 30
0.0
 10
813.2529987124
 20
223.7423921246
 30
0.0
 10
813.2529987124
 20
223.3709799699
 30
0.0
  0
SPLINE
  5
843
100
AcDbEntity
  8
RUNDUNGEN
100
AcDbSpline
 62
7
  6
CONTINUOUS
 70
0
 71
3
 72
13
 73
9
 74
0
 42
0.0000001
 43
0.0000001
 44
0.0000000001
 40
0.0
 40
0.0
 40
0.0
 40
0.0
 40
0.2360077452
 40
0.3661261418
 40
0.5000000756
 40
0.6338740402
 40
0.7639924068
 40
1.0
 40
1.0
 40
1.0
 40
1.0
 10
863.5945191553
 20
239.8784339612
 30
0.0
 10
862.6081591222
 20
240.8745127379
 30
0.0
 10
860.6485584497
 20
242.0094742007
 30
0.0
 10
857.7708294554
 20
242.7607577557
 30
0.0
 10
855.4029971376
 20
242.9611227369
 30
0.0
 10
853.0351650379
 20
242.7607572782
 30
0.0
 10
850.157437057
 20
242.009473335
 30
0.0
 10
848.1978376674
 20
240.8745120964
 30
0.0
 10
847.2114782695
 20
239.8784339612
 30
0.0
  0
SPLINE
  5
844
100
AcDbEntity
  8
RUNDUNGEN
100
AcDbSpline
 62
7
  6
CONTINUOUS
 70
0
 71
3
 72
11
 73
7
 74
0
 42
0.0000001
 43
0.0000001
 44
0.0000000001
 40
0.0
 40
0.0
 40
0.0
 40
0.0
 40
0.266080639
 40
0.5190943402
 40
0.7622194514
 40
1.0
 40
1.0
 40
1.0
 40
1.0
 10
884.9759557444
 20
261.271554646
 30
0.0
 10
884.2660328776
 20
261.9884724823
 30
0.0
 10
882.9882163559
 20
263.5003304099
 30
0.0
 10
881.5416393177
 20
266.022182302
 30
0.0
 10
880.654773141
 20
268.6800670724
 30
0.0
 10
880.4547568825
 20
270.5094177671
 30
0.0
 10
880.4547568516
 20
271.4110486124
 30
0.0
  0
SPLINE
  5
845
100
AcDbEntity
  8
RUNDUNGEN
100
AcDbSpline
 62
7
  6
CONTINUOUS
 70
0
 71
3
 72
9
 73
5
 74
0
 42
0.0000001
 43
0.0000001
 44
0.0000000001
 40
0.0
 40
0.0
 40
0.0
 40
0.0
 40
0.5182111982
 40
1.0
 40
1.0
 40
1.0
 40
1.0
 10
884.9759557444
 20
278.0150101237
 30
0.0
 10
883.811828595
 20
276.8394126664
 30
0.0
 10
881.8415334454
 20
274.2618258851
 30
0.0
 10
880.7967962487
 20
271.167249614
 30
0.0
 10
880.58025517
 20
269.6443961293
 30
0.0
  0
SPLINE
  5
846
100
AcDbEntity
  8
RUNDUNGEN
100
AcDbSpline
 62
7
  6
CONTINUOUS
 70
0
 71
3
 72
10
 73
6
 74
0
 42
0.0000001
 43
0.0000001
 44
0.0000000001
 40
0.0
 40
0.0
 40
0.0
 40
0.0
 40
0.2540843695
 40
0.5191023225
 40
1.0
 40
1.0
 40
1.0
 40
1.0
 10
909.8059080949
 20
314.1848429399
 30
0.0
 10
909.3589630341
 20
314.4061350482
 30
0.0
 10
908.3617403676
 20
314.7021918632
 30
0.0
 10
906.3966751582
 20
314.7367640106
 30
0.0
 10
904.8991719542
 20
314.1609722478
 30
0.0
 10
904.2349941723
 20
313.4902502293
 30
0.0
  0
SPLINE
  5
847
100
AcDbEntity
  8
RUNDUNGEN
100
AcDbSpline
 62
7
  6
CONTINUOUS
 70
0
 71
3
 72
11
 73
7
 74
0
 42
0.0000001
 43
0.0000001
 44
0.0000000001
 40
0.0
 40
0.0
 40
0.0
 40
0.0
 40
0.2793777095
 40
0.5367048928
 40
0.7743072365
 40
1.0
 40
1.0
 40
1.0
 40
1.0
 10
900.8581156878
 20
308.6844205866
 30
0.0
 10
900.6060630754
 20
308.8092172537
 30
0.0
 10
900.1430590898
 20
309.0970898836
 30
0.0
 10
899.5890083273
 20
309.6572141044
 30
0.0
 10
899.2352319612
 20
310.3028252219
 30
0.0
 10
899.1526017117
 20
310.7725030914
 30
0.0
 10
899.1524533611
 20
310.9997128649
 30
0.0
  0
SPLINE
  5
848
100
AcDbEntity
  8
RUNDUNGEN
100
AcDbSpline
 62
7
  6
CONTINUOUS
 70
0
 71
3
 72
11
 73
7
 74
0
 42
0.0000001
 43
0.0000001
 44
0.0000000001
 40
0.0
 40
0.0
 40
0.0
 40
0.0
 40
0.2524375529
 40
0.5157480446
 40
0.7702932073
 40
1.0
 40
1.0
 40
1.0
 40
1.0
 10
823.8206072767
 20
315.9408577824
 30
0.0
 10
822.9267634209
 20
315.498296473
 30
0.0
 10
820.9392074885
 20
314.9039075814
 30
0.0
 10
817.8608453263
 20
314.8607468998
 30
0.0
 10
814.9679481259
 20
315.6202160826
 30
0.0
 10
813.317391331
 20
316.6851389717
 30
0.0
 10
812.6787794316
 20
317.3300432037
 30
0.0
  0
SPLINE
  5
849
100
AcDbEntity
  8
RUNDUNGEN
100
AcDbSpline
 62
7
  6
CONTINUOUS
 70
0
 71
3
 72
11
 73
7
 74
0
 42
0.0000001
 43
0.0000001
 44
0.0000000001
 40
0.0
 40
0.0
 40
0.0
 40
0.0
 40
0.2297109937
 40
0.4842558728
 40
0.7475644511
 40
1.0
 40
1.0
 40
1.0
 40
1.0
 10
886.8638773843
 20
322.9067652842
 30
0.0
 10
886.2252538069
 20
322.2618492592
 30
0.0
 10
884.5746787202
 20
321.196922293
 30
0.0
 10
881.6817706523
 20
320.4374655909
 30
0.0
 10
878.6034259521
 20
320.4806355416
 30
0.0
 10
876.6158862974
 20
321.0750220677
 30
0.0
 10
875.7220495391
 20
321.5175798629
 30
0.0
  0
SPLINE
  5
84A
100
AcDbEntity
  8
RUNDUNGEN
100
AcDbSpline
 62
7
  6
CONTINUOUS
 70
0
 71
3
 72
9
 73
5
 74
0
 42
0.0000001
 43
0.0000001
 44
0.0000000001
 40
0.0
 40
0.0
 40
0.0
 40
0.0
 40
0.4729726839
 40
1.0
 40
1.0
 40
1.0
 40
1.0
 10
871.9505696132
 20
234.9755840734
 30
0.0
 10
872.7396595773
 20
234.1787190953
 30
0.0
 10
874.8663740249
 20
232.9455218375
 30
0.0
 10
877.2541654944
 20
232.5633681253
 30
0.0
 10
878.5037859675
 20
232.5633681253
 30
0.0
  0
SPLINE
  5
84B
100
AcDbEntity
  8
RUNDUNGEN
100
AcDbSpline
 62
7
  6
CONTINUOUS
 70
0
 71
3
 72
9
 73
5
 74
0
 42
0.0000001
 43
0.0000001
 44
0.0000000001
 40
0.0
 40
0.0
 40
0.0
 40
0.0
 40
0.5270270093
 40
1.0
 40
1.0
 40
1.0
 40
1.0
 10
832.3022114573
 20
232.5633681253
 30
0.0
 10
833.5518312014
 20
232.5633681253
 30
0.0
 10
835.9396225957
 20
232.9455216066
 30
0.0
 10
838.0663373366
 20
234.1787185794
 30
0.0
 10
838.8554278116
 20
234.9755840734
 30
0.0
  0
SPLINE
  5
84C
100
AcDbEntity
  8
RUNDUNGEN
100
AcDbSpline
 62
7
  6
CONTINUOUS
 70
0
 71
3
 72
11
 73
7
 74
0
 42
0.0000001
 43
0.0000001
 44
0.0000000001
 40
0.0
 40
0.0
 40
0.0
 40
0.0
 40
0.2880067739
 40
0.555332736
 40
0.7905057737
 40
1.0
 40
1.0
 40
1.0
 40
1.0
 10
812.4529987124
 20
219.1283392827
 30
0.0
 10
812.5560646393
 20
219.1283392827
 30
0.0
 10
812.7560583835
 20
219.1552619552
 30
0.0
 10
813.017862954
 20
219.2737203262
 30
0.0
 10
813.2043271276
 20
219.4580290145
 30
0.0
 10
813.2529987124
 20
219.6190552328
 30
0.0
 10
813.2529987124
 20
219.6940247077
 30
0.0
  0
SPLINE
  5
84D
100
AcDbEntity
  8
RUNDUNGEN
100
AcDbSpline
 62
7
  6
CONTINUOUS
 70
0
 71
3
 72
11
 73
7
 74
0
 42
0.0000001
 43
0.0000001
 44
0.0000000001
 40
0.0
 40
0.0
 40
0.0
 40
0.0
 40
0.2094940939
 40
0.4446633471
 40
0.7119931785
 40
1.0
 40
1.0
 40
1.0
 40
1.0
 10
897.5529987124
 20
219.6940247077
 30
0.0
 10
897.5529987124
 20
219.6190552739
 30
0.0
 10
897.6016693622
 20
219.4580302921
 30
0.0
 10
897.7881330411
 20
219.2737212386
 30
0.0
 10
898.0499376677
 20
219.1552625072
 30
0.0
 10
898.2499327599
 20
219.1283392827
 30
0.0
 10
898.3529987124
 20
219.1283392827
 30
0.0
  0
SPLINE
  5
84E
100
AcDbEntity
  8
RUNDUNGEN
100
AcDbSpline
 62
7
  6
CONTINUOUS
 70
0
 71
3
 72
9
 73
5
 74
0
 42
0.0000001
 43
0.0000001
 44
0.0000000001
 40
0.0
 40
0.0
 40
0.0
 40
0.0
 40
0.5194811341
 40
1.0
 40
1.0
 40
1.0
 40
1.0
 10
922.6272526388
 20
319.5728244275
 30
0.0
 10
923.0685345899
 20
320.0184543914
 30
0.0
 10
923.7971008604
 20
321.0180116365
 30
0.0
 10
924.0739204832
 20
322.2363291033
 30
0.0
 10
924.0740324029
 20
322.8164404573
 30
0.0
  0
SPLINE
  5
84F
100
AcDbEntity
  8
RUNDUNGEN
100
AcDbSpline
 62
7
  6
CONTINUOUS
 70
0
 71
3
 72
10
 73
6
 74
0
 42
0.0000001
 43
0.0000001
 44
0.0000000001
 40
0.0
 40
0.0
 40
0.0
 40
0.0
 40
0.2540732316
 40
0.5190823794
 40
1.0
 40
1.0
 40
1.0
 40
1.0
 10
915.1303963828
 20
315.084108226
 30
0.0
 10
915.4097246332
 20
314.9458068041
 30
0.0
 10
916.0329621573
 20
314.7607738314
 30
0.0
 10
917.2611255873
 20
314.7391459184
 30
0.0
 10
918.197089505
 20
315.0990102756
 30
0.0
 10
918.6122175844
 20
315.5182286701
 30
0.0
  0
SPLINE
  5
850
100
AcDbEntity
  8
RUNDUNGEN
100
AcDbSpline
 62
7
  6
CONTINUOUS
 70
0
 71
3
 72
9
 73
5
 74
0
 42
0.0000001
 43
0.0000001
 44
0.0000000001
 40
0.0
 40
0.0
 40
0.0
 40
0.0
 40
0.51948291
 40
1.0
 40
1.0
 40
1.0
 40
1.0
 10
906.7965429956
 20
303.5861325842
 30
0.0
 10
906.9345996037
 20
303.7255494834
 30
0.0
 10
907.162530804
 20
304.0383191015
 30
0.0
 10
907.2487577799
 20
304.4195818128
 30
0.0
 10
907.2486428975
 20
304.6010703632
 30
0.0
  0
SPLINE
  5
851
100
AcDbEntity
  8
RUNDUNGEN
100
AcDbSpline
 62
7
  6
CONTINUOUS
 70
0
 71
3
 72
13
 73
9
 74
0
 42
0.0000001
 43
0.0000001
 44
0.0000000001
 40
0.0
 40
0.0
 40
0.0
 40
0.0
 40
0.2870488383
 40
0.5535681889
 40
0.6755036401
 40
0.7893309605
 40
0.8965453445
 40
1.0
 40
1.0
 40
1.0
 40
1.0
 10
901.9029987124
 20
219.1283392827
 30
0.0
 10
902.9335323353
 20
219.1283392827
 30
0.0
 10
904.9310345445
 20
219.3966764083
 30
0.0
 10
907.1840594364
 20
220.4153556591
 30
0.0
 10
908.5669574105
 20
221.5897810476
 30
0.0
 10
909.3235519541
 20
222.5749314921
 30
0.0
 10
909.7952135705
 20
223.6536008487
 30
0.0
 10
909.9029987124
 20
224.413781122
 30
0.0
 10
909.9029987124
 20
224.7851935322
 30
0.0
  0
SPLINE
  5
852
100
AcDbEntity
  8
RUNDUNGEN
100
AcDbSpline
 62
7
  6
CONTINUOUS
 70
0
 71
3
 72
13
 73
9
 74
0
 42
0.0000001
 43
0.0000001
 44
0.0000000001
 40
0.0
 40
0.0
 40
0.0
 40
0.0
 40
0.1034545843
 40
0.2106688645
 40
0.3244961754
 40
0.4464316245
 40
0.7129509376
 40
1.0
 40
1.0
 40
1.0
 40
1.0
 10
800.9029987124
 20
224.7851935322
 30
0.0
 10
800.9029987124
 20
224.4137813775
 30
0.0
 10
801.0107836264
 20
223.6536017249
 30
0.0
 10
801.482444746
 20
222.5749329041
 30
0.0
 10
802.2390386097
 20
221.5897824663
 30
0.0
 10
803.6219361367
 20
220.4153568029
 30
0.0
 10
805.8749613592
 20
219.3966766639
 30
0.0
 10
807.8724642853
 20
219.1283392827
 30
0.0
 10
808.9029987124
 20
219.1283392827
 30
0.0
  0
SPLINE
  5
853
100
AcDbEntity
  8
RUNDUNGEN
100
AcDbSpline
 62
7
  6
CONTINUOUS
 70
0
 71
3
 72
9
 73
5
 74
0
 42
0.0000001
 43
0.0000001
 44
0.0000000001
 40
0.0
 40
0.0
 40
0.0
 40
0.0
 40
0.4805174014
 40
1.0
 40
1.0
 40
1.0
 40
1.0
 10
899.1524533611
 20
310.9997128649
 30
0.0
 10
899.1522637601
 20
311.2901007163
 30
0.0
 10
899.2902224855
 20
311.9001364476
 30
0.0
 10
899.6549182615
 20
312.4005800947
 30
0.0
 10
899.8758132561
 20
312.6236515986
 30
0.0
  0
SPLINE
  5
854
100
AcDbEntity
  8
RUNDUNGEN
100
AcDbSpline
 62
7
  6
CONTINUOUS
 70
0
 71
3
 72
9
 73
5
 74
0
 42
0.0000001
 43
0.0000001
 44
0.0000000001
 40
0.0
 40
0.0
 40
0.0
 40
0.0
 40
0.4805195229
 40
1.0
 40
1.0
 40
1.0
 40
1.0
 10
784.5719725801
 20
323.7734815708
 30
0.0
 10
784.5718643017
 20
323.5919974493
 30
0.0
 10
784.6580974382
 20
323.2107493769
 30
0.0
 10
784.8860224954
 20
322.8979903721
 30
0.0
 10
785.024074386
 20
322.7585782369
 30
0.0
  0
SPLINE
  5
855
100
AcDbEntity
  8
RUNDUNGEN
100
AcDbSpline
 62
7
  6
CONTINUOUS
 70
0
 71
3
 72
11
 73
7
 74
0
 42
0.0000001
 43
0.0000001
 44
0.0000000001
 40
0.0
 40
0.0
 40
0.0
 40
0.0
 40
0.2377805287
 40
0.4809056222
 40
0.7339193382
 40
1.0
 40
1.0
 40
1.0
 40
1.0
 10
880.4547568516
 20
271.4110486124
 30
0.0
 10
880.4547568207
 20
272.3126794965
 30
0.0
 10
880.6547728334
 20
274.1420303013
 30
0.0
 10
881.5416388413
 20
276.7999154255
 30
0.0
 10
882.9882159926
 20
279.3217677713
 30
0.0
 10
884.2660327267
 20
280.833626041
 30
0.0
 10
884.9759557444
 20
281.5505440296
 30
0.0
  0
SPLINE
  5
856
100
AcDbEntity
  8
RUNDUNGEN
100
AcDbSpline
 62
7
  6
CONTINUOUS
 70
0
 71
3
 72
13
 73
9
 74
0
 42
0.0000001
 43
0.0000001
 44
0.0000000001
 40
0.0
 40
0.0
 40
0.0
 40
0.0
 40
0.1034545843
 40
0.2106688645
 40
0.3244961754
 40
0.4464316245
 40
0.7129509376
 40
1.0
 40
1.0
 40
1.0
 40
1.0
 10
813.2529987124
 20
226.9065138758
 30
0.0
 10
813.2529987124
 20
227.2779260305
 30
0.0
 10
813.3607836264
 20
228.0381056831
 30
0.0
 10
813.832444746
 20
229.1167745039
 30
0.0
 10
814.5890386097
 20
230.1019249417
 30
0.0
 10
815.9719361367
 20
231.2763506052
 30
0.0
 10
818.2249613592
 20
232.2950307442
 30
0.0
 10
820.2224642853
 20
232.5633681253
 30
0.0
 10
821.2529987124
 20
232.5633681253
 30
0.0
  0
SPLINE
  5
857
100
AcDbEntity
  8
BEZUGSACHSEN
100
AcDbSpline
 62
7
  6
CONTINUOUS
 70
0
 71
3
 72
11
 73
7
 74
0
 42
0.0000001
 43
0.0000001
 44
0.0000000001
 40
0.0
 40
0.0
 40
0.0
 40
0.0
 40
0.2198800529
 40
0.4555355091
 40
0.7156450445
 40
1.0
 40
1.0
 40
1.0
 40
1.0
 10
849.4029987124
 20
319.3460283703
 30
0.0
 10
849.4029987124
 20
319.7520458597
 30
0.0
 10
849.582127052
 20
320.6009695322
 30
0.0
 10
850.3318429555
 20
321.7198742456
 30
0.0
 10
851.4737925124
 20
322.6275690186
 30
0.0
 10
852.4021403808
 20
323.0403871294
 30
0.0
 10
852.9016046801
 20
323.2023658257
 30
0.0
  0
SPLINE
  5
858
100
AcDbEntity
  8
BEZUGSACHSEN
100
AcDbSpline
 62
7
  6
CONTINUOUS
 70
0
 71
3
 72
11
 73
7
 74
0
 42
0.0000001
 43
0.0000001
 44
0.0000000001
 40
0.0
 40
0.0
 40
0.0
 40
0.0
 40
0.2843549555
 40
0.5444644909
 40
0.7801199471
 40
1.0
 40
1.0
 40
1.0
 40
1.0
 10
857.9043927447
 20
323.2023658257
 30
0.0
 10
858.403857044
 20
323.0403871294
 30
0.0
 10
859.3322049124
 20
322.6275690186
 30
0.0
 10
860.4741544693
 20
321.7198742456
 30
0.0
 10
861.2238703728
 20
320.6009695322
 30
0.0
 10
861.4029987124
 20
319.7520458597
 30
0.0
 10
861.4029987124
 20
319.3460283703
 30
0.0
  0
SPLINE
  5
859
100
AcDbEntity
  8
RUNDUNGEN
100
AcDbSpline
 62
7
  6
CONTINUOUS
 70
0
 71
3
 72
13
 73
9
 74
0
 42
0.0000001
 43
0.0000001
 44
0.0000000001
 40
0.0
 40
0.0
 40
0.0
 40
0.0
 40
0.2870488383
 40
0.5535681889
 40
0.6755036401
 40
0.7893309605
 40
0.8965453445
 40
1.0
 40
1.0
 40
1.0
 40
1.0
 10
889.5529987124
 20
232.5633681253
 30
0.0
 10
890.5835323353
 20
232.5633681253
 30
0.0
 10
892.5810345445
 20
232.2950309997
 30
0.0
 10
894.8340594364
 20
231.2763517489
 30
0.0
 10
896.2169574105
 20
230.1019263604
 30
0.0
 10
896.9735519541
 20
229.1167759159
 30
0.0
 10
897.4452135705
 20
228.0381065594
 30
0.0
 10
897.5529987124
 20
227.2779262861
 30
0.0
 10
897.5529987124
 20
226.9065138758
 30
0.0
  0
SPLINE
  5
85A
100
AcDbEntity
  8
RUNDUNGEN
100
AcDbSpline
 62
7
  6
CONTINUOUS
 70
0
 71
3
 72
13
 73
9
 74
0
 42
0.0000001
 43
0.0000001
 44
0.0000000001
 40
0.0
 40
0.0
 40
0.0
 40
0.0
 40
0.2360075932
 40
0.3661259598
 40
0.4999999244
 40
0.6338738582
 40
0.7639922548
 40
1.0
 40
1.0
 40
1.0
 40
1.0
 10
847.2114782695
 20
243.4139678672
 30
0.0
 10
848.1978376674
 20
244.4100460024
 30
0.0
 10
850.157437057
 20
245.545007241
 30
0.0
 10
853.0351650379
 20
246.2962911841
 30
0.0
 10
855.4029971376
 20
246.4966566428
 30
0.0
 10
857.7708294554
 20
246.2962916616
 30
0.0
 10
860.6485584497
 20
245.5450081066
 30
0.0
 10
862.6081591222
 20
244.4100466439
 30
0.0
 10
863.5945191553
 20
243.4139678672
 30
0.0
  0
SPLINE
  5
85B
100
AcDbEntity
  8
RUNDUNGEN
100
AcDbSpline
 62
7
  6
CONTINUOUS
 70
0
 71
3
 72
11
 73
7
 74
0
 42
0.0000001
 43
0.0000001
 44
0.0000000001
 40
0.0
 40
0.0
 40
0.0
 40
0.0
 40
0.266080639
 40
0.5190943402
 40
0.7622194514
 40
1.0
 40
1.0
 40
1.0
 40
1.0
 10
825.8300416804
 20
281.5505440296
 30
0.0
 10
826.5399645472
 20
280.8336261934
 30
0.0
 10
827.8177810689
 20
279.3217682657
 30
0.0
 10
829.2643581071
 20
276.7999163737
 30
0.0
 10
830.1512242838
 20
274.1420316032
 30
0.0
 10
830.3512405423
 20
272.3126809085
 30
0.0
 10
830.3512405732
 20
271.4110500632
 30
0.0
  0
SPLINE
  5
85C
100
AcDbEntity
  8
RUNDUNGEN
100
AcDbSpline
 62
7
  6
CONTINUOUS
 70
0
 71
3
 72
10
 73
6
 74
0
 42
0.0000001
 43
0.0000001
 44
0.0000000001
 40
0.0
 40
0.0
 40
0.0
 40
0.0
 40
0.4809189764
 40
0.7459267511
 40
1.0
 40
1.0
 40
1.0
 40
1.0
 10
904.2349941723
 20
317.0257841352
 30
0.0
 10
904.8992009331
 20
317.6965354182
 30
0.0
 10
906.3967444149
 20
318.2723171131
 30
0.0
 10
908.3618054271
 20
318.2377109248
 30
0.0
 10
909.3589828899
 20
317.9416591231
 30
0.0
 10
909.8059080949
 20
317.7203768459
 30
0.0
  0
SPLINE
  5
85D
100
AcDbEntity
  8
0
100
AcDbSpline
 62
7
  6
CONTINUOUS
 70
0
 71
3
 72
9
 73
5
 74
0
 42
0.0000001
 43
0.0000001
 44
0.0000000001
 40
0.0
 40
0.0
 40
0.0
 40
0.0
 40
0.2373289326
 40
1.0
 40
1.0
 40
1.0
 40
1.0
 10
850.1536621814
 20
262.1538286602
 30
0.0
 10
849.8752944262
 20
262.4861305036
 30
0.0
 10
848.6191595313
 20
263.8163774457
 30
0.0
 10
847.0711918999
 20
264.8541712383
 30
0.0
 10
845.8265910077
 20
265.4799051567
 30
0.0
  0
SPLINE
  5
85E
100
AcDbEntity
  8
0
100
AcDbSpline
 62
7
  6
CONTINUOUS
 70
0
 71
3
 72
10
 73
6
 74
0
 42
0.0000001
 43
0.0000001
 44
0.0000000001
 40
0.0
 40
0.0
 40
0.0
 40
0.0
 40
0.4659993084
 40
0.728312767
 40
1.0
 40
1.0
 40
1.0
 40
1.0
 10
850.3983697782
 20
262.2042626953
 30
0.0
 10
848.9659273421
 20
264.0468483437
 30
0.0
 10
845.7613263484
 20
266.190906776
 30
0.0
 10
840.9499357706
 20
267.5950827692
 30
0.0
 10
838.2637011805
 20
267.8479965065
 30
0.0
 10
836.9029987124
 20
267.8479965065
 30
0.0
  0
SPLINE
  5
85F
100
AcDbEntity
  8
0
100
AcDbSpline
 62
7
  6
CONTINUOUS
 70
0
 71
3
 72
9
 73
5
 74
0
 42
0.0000001
 43
0.0000001
 44
0.0000000001
 40
0.0
 40
0.0
 40
0.0
 40
0.0
 40
0.2351423968
 40
1.0
 40
1.0
 40
1.0
 40
1.0
 10
848.7609672726
 20
294.4871030732
 30
0.0
 10
847.9701976155
 20
295.065004406
 30
0.0
 10
844.3680036614
 20
297.1911385515
 30
0.0
 10
840.0888378034
 20
298.0414560632
 30
0.0
 10
836.9029987124
 20
298.0414560632
 30
0.0
  0
SPLINE
  5
860
100
AcDbEntity
  8
0
100
AcDbSpline
 62
7
  6
CONTINUOUS
 70
0
 71
3
 72
9
 73
5
 74
0
 42
0.0000001
 43
0.0000001
 44
0.0000000001
 40
0.0
 40
0.0
 40
0.0
 40
0.0
 40
0.2379548015
 40
1.0
 40
1.0
 40
1.0
 40
1.0
 10
848.4721950366
 20
294.339379987
 30
0.0
 10
847.9366312337
 20
294.7117133732
 30
0.0
 10
845.5866966392
 20
296.1325266814
 30
0.0
 10
842.9161626195
 20
296.9883710006
 30
0.0
 10
840.8584096649
 20
297.3477077346
 30
0.0
  0
SPLINE
  5
861
100
AcDbEntity
  8
BEZUGSACHSEN
100
AcDbSpline
 62
7
  6
CONTINUOUS
 70
0
 71
3
 72
8
 73
4
 74
0
 42
0.0000001
 43
0.0000001
 44
0.0000000001
 40
0.0
 40
0.0
 40
0.0
 40
0.0
 40
1.0
 40
1.0
 40
1.0
 40
1.0
 10
880.3651649037
 20
141.8951411083
 30
0.0
 10
880.3113285092
 20
142.1377491626
 30
0.0
 10
880.2861976971
 20
142.3879663918
 30
0.0
 10
880.2861977793
 20
142.636476
 30
0.0
  0
SPLINE
  5
862
100
AcDbEntity
  8
BEZUGSACHSEN
100
AcDbSpline
 62
7
  6
CONTINUOUS
 70
0
 71
3
 72
11
 73
7
 74
0
 42
0.0000001
 43
0.0000001
 44
0.0000000001
 40
0.0
 40
0.0
 40
0.0
 40
0.0
 40
0.250010631
 40
0.5000175033
 40
0.7500145996
 40
1.0
 40
1.0
 40
1.0
 40
1.0
 10
905.2034300292
 20
148.9268974365
 30
0.0
 10
905.439669391
 20
148.9845362734
 30
0.0
 10
905.896508931
 20
149.1799110212
 30
0.0
 10
906.4465252371
 20
149.6788008848
 30
0.0
 10
906.8041480245
 20
150.3297089829
 30
0.0
 10
906.8864566252
 20
150.8199843582
 30
0.0
 10
906.8861592829
 20
151.0631288605
 30
0.0
  0
SPLINE
  5
863
100
AcDbEntity
  8
BEZUGSACHSEN
100
AcDbSpline
 62
7
  6
CONTINUOUS
 70
0
 71
3
 72
11
 73
7
 74
0
 42
0.0000001
 43
0.0000001
 44
0.0000000001
 40
0.0
 40
0.0
 40
0.0
 40
0.0
 40
0.2500346324
 40
0.500053935
 40
0.750042561
 40
1.0
 40
1.0
 40
1.0
 40
1.0
 10
841.4984188423
 20
102.1833719246
 30
0.0
 10
841.7852225081
 20
102.183371621
 30
0.0
 10
842.3649339477
 20
102.296247658
 30
0.0
 10
843.1013769365
 20
102.7810463808
 30
0.0
 10
843.5983242863
 20
103.5098724086
 30
0.0
 10
843.7154354621
 20
104.0897445158
 30
0.0
 10
843.7154355143
 20
104.3764596364
 30
0.0
  0
SPLINE
  5
864
100
AcDbEntity
  8
RUNDUNGEN
100
AcDbSpline
 62
7
  6
CONTINUOUS
 70
0
 71
3
 72
8
 73
4
 74
0
 42
0.0000001
 43
0.0000001
 44
0.0000000001
 40
0.0
 40
0.0
 40
0.0
 40
0.0
 40
1.0
 40
1.0
 40
1.0
 40
1.0
 10
830.4408325211
 20
101.6814861856
 30
0.0
 10
830.4946689156
 20
101.4388781313
 30
0.0
 10
830.5197997277
 20
101.1886609021
 30
0.0
 10
830.5197996455
 20
100.9401512939
 30
0.0
  0
SPLINE
  5
865
100
AcDbEntity
  8
RUNDUNGEN
100
AcDbSpline
 62
7
  6
CONTINUOUS
 70
0
 71
3
 72
11
 73
7
 74
0
 42
0.0000001
 43
0.0000001
 44
0.0000000001
 40
0.0
 40
0.0
 40
0.0
 40
0.0
 40
0.250010631
 40
0.5000175033
 40
0.7500145996
 40
1.0
 40
1.0
 40
1.0
 40
1.0
 10
805.6025673956
 20
94.6497298574
 30
0.0
 10
805.3663280338
 20
94.5920910205
 30
0.0
 10
804.9094884938
 20
94.3967162727
 30
0.0
 10
804.3594721877
 20
93.8978264091
 30
0.0
 10
804.0018494003
 20
93.246918311
 30
0.0
 10
803.9195407996
 20
92.7566429357
 30
0.0
 10
803.9198381419
 20
92.5134984334
 30
0.0
  0
SPLINE
  5
866
100
AcDbEntity
  8
RUNDUNGEN
100
AcDbSpline
 62
7
  6
CONTINUOUS
 70
0
 71
3
 72
11
 73
7
 74
0
 42
0.0000001
 43
0.0000001
 44
0.0000000001
 40
0.0
 40
0.0
 40
0.0
 40
0.0
 40
0.2500346324
 40
0.500053935
 40
0.750042561
 40
1.0
 40
1.0
 40
1.0
 40
1.0
 10
869.3075785825
 20
141.3932553692
 30
0.0
 10
869.0207749167
 20
141.3932556729
 30
0.0
 10
868.4410634771
 20
141.2803796359
 30
0.0
 10
867.7046204883
 20
140.7955809131
 30
0.0
 10
867.2076731385
 20
140.0667548853
 30
0.0
 10
867.0905619627
 20
139.4868827781
 30
0.0
 10
867.0905619105
 20
139.2001676575
 30
0.0
  0
SPLINE
  5
867
100
AcDbEntity
  8
BEZUGSACHSEN
100
AcDbSpline
 62
7
  6
CONTINUOUS
 70
0
 71
3
 72
10
 73
6
 74
0
 42
0.0000001
 43
0.0000001
 44
0.0000000001
 40
0.0
 40
0.0
 40
0.0
 40
0.0
 40
0.2263589792
 40
0.4728161749
 40
1.0
 40
1.0
 40
1.0
 40
1.0
 10
900.7205824675
 20
117.9692059647
 30
0.0
 10
900.7205824675
 20
118.2574370158
 30
0.0
 10
900.7070510768
 20
118.8594451452
 30
0.0
 10
900.6629871269
 20
120.1319465671
 30
0.0
 10
900.6407816643
 20
121.117031471
 30
0.0
 10
900.6407816643
 20
121.7883136469
 30
0.0
  0
SPLINE
  5
868
100
AcDbEntity
  8
BEZUGSACHSEN
100
AcDbSpline
 62
7
  6
CONTINUOUS
 70
0
 71
3
 72
10
 73
6
 74
0
 42
0.0000001
 43
0.0000001
 44
0.0000000001
 40
0.0
 40
0.0
 40
0.0
 40
0.0
 40
0.2263588718
 40
0.4728161402
 40
1.0
 40
1.0
 40
1.0
 40
1.0
 10
810.0854149573
 20
117.9692059647
 30
0.0
 10
810.0854149573
 20
118.2574368791
 30
0.0
 10
810.0989463404
 20
118.8594449644
 30
0.0
 10
810.1430102927
 20
120.1319463863
 30
0.0
 10
810.1652157605
 20
121.1170314269
 30
0.0
 10
810.1652157605
 20
121.7883136469
 30
0.0
  0
SPLINE
  5
869
100
AcDbEntity
  8
BEZUGSACHSEN
100
AcDbSpline
 62
7
  6
CONTINUOUS
 70
0
 71
3
 72
30
 73
26
 74
0
 42
0.0000001
 43
0.0000001
 44
0.0000000001
 40
0.0
 40
0.0
 40
0.0
 40
0.0
 40
0.0125480428
 40
0.0248977535
 40
0.0388708593
 40
0.0556717905
 40
0.0758742338
 40
0.0996633815
 40
0.1577207518
 40
0.2282833688
 40
0.3087261201
 40
0.3958710984
 40
0.4862231663
 40
0.5761520817
 40
0.6620675849
 40
0.7406367777
 40
0.8091129919
 40
0.8390305357
 40
0.8660099607
 40
0.8902691713
 40
0.912330136
 40
0.9330873334
 40
0.9537623976
 40
0.9756852277
 40
1.0
 40
1.0
 40
1.0
 40
1.0
 10
810.0854149573
 20
111.1182559786
 30
0.0
 10
810.0854149573
 20
111.2131671246
 30
0.0
 10
810.1144403004
 20
111.4044392626
 30
0.0
 10
810.2739392102
 20
111.6599075282
 30
0.0
 10
810.533379886
 20
111.864726692
 30
0.0
 10
810.8828511414
 20
112.0318278318
 30
0.0
 10
811.3223788319
 20
112.1702391289
 30
0.0
 10
812.0775279543
 20
112.333318038
 30
0.0
 10
813.2240855445
 20
112.4696281558
 30
0.0
 10
814.8024666813
 20
112.5677346989
 30
0.0
 10
816.6034105894
 20
112.6182949995
 30
0.0
 10
818.5544828689
 20
112.6290015777
 30
0.0
 10
820.5772000518
 20
112.6009124747
 30
0.0
 10
822.5895623687
 20
112.5297396575
 30
0.0
 10
824.510408865
 20
112.4056209013
 30
0.0
 10
826.2624196427
 20
112.2126588131
 30
0.0
 10
827.5813902771
 20
111.9683621391
 30
0.0
 10
828.4915890149
 20
111.6987661874
 30
0.0
 10
829.062406707
 20
111.4697800355
 30
0.0
 10
829.5486173558
 20
111.1993358403
 30
0.0
 10
829.9467898021
 20
110.8799674303
 30
0.0
 10
830.2523700977
 20
110.5041043447
 30
0.0
 10
830.461232363
 20
110.0679934982
 30
0.0
 10
830.5758677941
 20
109.5717221188
 30
0.0
 10
830.5952032791
 20
109.2211556492
 30
0.0
 10
830.5952032791
 20
109.0372430705
 30
0.0
  0
SPLINE
  5
86A
100
AcDbEntity
  8
BEZUGSACHSEN
100
AcDbSpline
 62
7
  6
CONTINUOUS
 70
0
 71
3
 72
30
 73
26
 74
0
 42
0.0000001
 43
0.0000001
 44
0.0000000001
 40
0.0
 40
0.0
 40
0.0
 40
0.0
 40
0.0125480428
 40
0.0248977535
 40
0.0388708593
 40
0.0556717905
 40
0.0758742338
 40
0.0996633815
 40
0.1577207518
 40
0.2282833688
 40
0.3087261201
 40
0.3958710984
 40
0.4862231663
 40
0.5761520817
 40
0.6620675849
 40
0.7406367777
 40
0.8091129919
 40
0.8390305357
 40
0.8660099607
 40
0.8902691713
 40
0.912330136
 40
0.9330873334
 40
0.9537623976
 40
0.9756852277
 40
1.0
 40
1.0
 40
1.0
 40
1.0
 10
900.7205824675
 20
132.4583713153
 30
0.0
 10
900.7205824675
 20
132.3634601693
 30
0.0
 10
900.6915571244
 20
132.1721880313
 30
0.0
 10
900.5320582146
 20
131.9167197657
 30
0.0
 10
900.2726175388
 20
131.7119006019
 30
0.0
 10
899.9231462834
 20
131.5447994621
 30
0.0
 10
899.4836185929
 20
131.406388165
 30
0.0
 10
898.7284694705
 20
131.2433092559
 30
0.0
 10
897.5819118804
 20
131.106999138
 30
0.0
 10
896.0035307435
 20
131.0088925949
 30
0.0
 10
894.2025868354
 20
130.9583322944
 30
0.0
 10
892.2515145559
 20
130.9476257162
 30
0.0
 10
890.228797373
 20
130.9757148192
 30
0.0
 10
888.2164350561
 20
131.0468876364
 30
0.0
 10
886.2955885598
 20
131.1710063926
 30
0.0
 10
884.5435777821
 20
131.3639684808
 30
0.0
 10
883.2246071477
 20
131.6082651547
 30
0.0
 10
882.3144084099
 20
131.8778611064
 30
0.0
 10
881.7435907178
 20
132.1068472584
 30
0.0
 10
881.257380069
 20
132.3772914536
 30
0.0
 10
880.8592076227
 20
132.6966598636
 30
0.0
 10
880.5536273271
 20
133.0725229492
 30
0.0
 10
880.3447650618
 20
133.5086337957
 30
0.0
 10
880.2301296307
 20
134.004905175
 30
0.0
 10
880.2107941457
 20
134.3554716447
 30
0.0
 10
880.2107941457
 20
134.5393842234
 30
0.0
  0
SPLINE
  5
86B
100
AcDbEntity
  8
BEZUGSACHSEN
100
AcDbSpline
 62
7
  6
CONTINUOUS
 70
0
 71
3
 72
10
 73
6
 74
0
 42
0.0000001
 43
0.0000001
 44
0.0000000001
 40
0.0
 40
0.0
 40
0.0
 40
0.0
 40
0.5271838679
 40
0.773641068
 40
1.0
 40
1.0
 40
1.0
 40
1.0
 10
880.290594949
 20
121.7883136469
 30
0.0
 10
880.290594949
 20
121.1170314165
 30
0.0
 10
880.2683894802
 20
120.1319464526
 30
0.0
 10
880.2243255345
 20
118.8594450306
 30
0.0
 10
880.2107941457
 20
118.2574369558
 30
0.0
 10
880.2107941457
 20
117.9692059647
 30
0.0
  0
SPLINE
  5
86C
100
AcDbEntity
  8
BEZUGSACHSEN
100
AcDbSpline
 62
7
  6
CONTINUOUS
 70
0
 71
3
 72
10
 73
6
 74
0
 42
0.0000001
 43
0.0000001
 44
0.0000000001
 40
0.0
 40
0.0
 40
0.0
 40
0.0
 40
0.5271838375
 40
0.7736410257
 40
1.0
 40
1.0
 40
1.0
 40
1.0
 10
900.6407816643
 20
121.7883136469
 30
0.0
 10
900.6407816643
 20
122.4595958386
 30
0.0
 10
900.662987129
 20
123.4446807487
 30
0.0
 10
900.7070510761
 20
124.7171821707
 30
0.0
 10
900.7205824675
 20
125.3191902843
 30
0.0
 10
900.7205824675
 20
125.6074213292
 30
0.0
  0
SPLINE
  5
86D
100
AcDbEntity
  8
BEZUGSACHSEN
100
AcDbSpline
 62
7
  6
CONTINUOUS
 70
0
 71
3
 72
10
 73
6
 74
0
 42
0.0000001
 43
0.0000001
 44
0.0000000001
 40
0.0
 40
0.0
 40
0.0
 40
0.0
 40
0.2263589266
 40
0.4728161194
 40
1.0
 40
1.0
 40
1.0
 40
1.0
 10
880.2107941457
 20
125.6074213292
 30
0.0
 10
880.2107941457
 20
125.3191903449
 30
0.0
 10
880.2243255351
 20
124.7171822863
 30
0.0
 10
880.2683894781
 20
123.4446808642
 30
0.0
 10
880.290594949
 20
122.4595958935
 30
0.0
 10
880.290594949
 20
121.7883136469
 30
0.0
  0
SPLINE
  5
86E
100
AcDbEntity
  8
BEZUGSACHSEN
100
AcDbSpline
 62
7
  6
CONTINUOUS
 70
0
 71
3
 72
10
 73
6
 74
0
 42
0.0000001
 43
0.0000001
 44
0.0000000001
 40
0.0
 40
0.0
 40
0.0
 40
0.0
 40
0.5271839041
 40
0.773641147
 40
1.0
 40
1.0
 40
1.0
 40
1.0
 10
810.1652157605
 20
121.7883136469
 30
0.0
 10
810.1652157605
 20
122.4595959234
 30
0.0
 10
810.1430102846
 20
123.4446809878
 30
0.0
 10
810.0989463437
 20
124.7171824099
 30
0.0
 10
810.0854149573
 20
125.3191904387
 30
0.0
 10
810.0854149573
 20
125.6074213292
 30
0.0
  0
SPLINE
  5
86F
100
AcDbEntity
  8
BEZUGSACHSEN
100
AcDbSpline
 62
7
  6
CONTINUOUS
 70
0
 71
3
 72
10
 73
6
 74
0
 42
0.0000001
 43
0.0000001
 44
0.0000000001
 40
0.0
 40
0.0
 40
0.0
 40
0.0
 40
0.2263588699
 40
0.4728161101
 40
1.0
 40
1.0
 40
1.0
 40
1.0
 10
830.5952032791
 20
125.6074213292
 30
0.0
 10
830.5952032791
 20
125.3191904172
 30
0.0
 10
830.581671892
 20
124.7171823704
 30
0.0
 10
830.5376079495
 20
123.4446809483
 30
0.0
 10
830.5154024758
 20
122.4595959053
 30
0.0
 10
830.5154024758
 20
121.7883136469
 30
0.0
  0
SPLINE
  5
870
100
AcDbEntity
  8
BEZUGSACHSEN
100
AcDbSpline
 62
7
  6
CONTINUOUS
 70
0
 71
3
 72
10
 73
6
 74
0
 42
0.0000001
 43
0.0000001
 44
0.0000000001
 40
0.0
 40
0.0
 40
0.0
 40
0.0
 40
0.5271838464
 40
0.7736411122
 40
1.0
 40
1.0
 40
1.0
 40
1.0
 10
830.5154024758
 20
121.7883136469
 30
0.0
 10
830.5154024758
 20
121.1170314439
 30
0.0
 10
830.5376079416
 20
120.1319464236
 30
0.0
 10
830.5816718954
 20
118.8594450018
 30
0.0
 10
830.5952032791
 20
118.2574368995
 30
0.0
 10
830.5952032791
 20
117.9692059647
 30
0.0
  0
ELLIPSE
  5
871
100
AcDbEntity
  8
KONSTRUKTIONSELEMENTE
100
AcDbEllipse
 62
7
  6
CONTINUOUS
 10
406.4743782356
 20
370.2695651508
 30
0.0
 11
16.5
 21
0.0
 31
0.0
 40
0.1958324999
 41
0.1065846569
 42
0.1782473677
  0
ELLIPSE
  5
872
100
AcDbEntity
  8
KONSTRUKTIONSELEMENTE
100
AcDbEllipse
 62
7
  6
CONTINUOUS
 10
406.4743782356
 20
369.4101847199
 30
0.0
 11
16.5
 21
-0.0
 31
0.0
 40
0.4895843255
 41
0.1782473677
 42
0.2362336651
  0
ELLIPSE
  5
873
100
AcDbEntity
  8
KONSTRUKTIONSELEMENTE
100
AcDbEllipse
 62
7
  6
CONTINUOUS
 10
406.4743782356
 20
367.519566611
 30
0.0
 11
16.5
 21
0.0
 31
0.0
 40
0.9791658496
 41
0.2362336651
 42
0.2950421164
  0
ELLIPSE
  5
874
100
AcDbEntity
  8
KONSTRUKTIONSELEMENTE
100
AcDbEllipse
 62
7
  6
CONTINUOUS
 10
406.4743782356
 20
362.821626901
 30
0.0
 11
-0.0
 21
32.3125654832
 31
0.0
 40
0.510637263
 41
-1.2757542104
 42
-1.2459650002
  0
ELLIPSE
  5
875
100
AcDbEntity
  8
KONSTRUKTIONSELEMENTE
100
AcDbEllipse
 62
7
  6
CONTINUOUS
 10
406.4743782356
 20
347.3529339836
 30
0.0
 11
-0.0
 21
80.7811363675
 31
0.0
 40
0.2042556065
 41
-1.2459650002
 42
-1.2309594173
  0
ELLIPSE
  5
876
100
AcDbEntity
  8
KONSTRUKTIONSELEMENTE
100
AcDbEllipse
 62
7
  6
CONTINUOUS
 10
406.4743782356
 20
403.2695865264
 30
0.0
 11
0.0
 21
80.7813212611
 31
0.0
 40
0.204255139
 41
-1.9106332362
 42
-1.8956276534
  0
ELLIPSE
  5
877
100
AcDbEntity
  8
KONSTRUKTIONSELEMENTE
100
AcDbEllipse
 62
7
  6
CONTINUOUS
 10
406.4743782356
 20
387.8008346005
 30
0.0
 11
-0.0
 21
32.3125654832
 31
0.0
 40
0.510637263
 41
-1.8956276534
 42
-1.8658384432
  0
ELLIPSE
  5
878
100
AcDbEntity
  8
KONSTRUKTIONSELEMENTE
100
AcDbEllipse
 62
7
  6
CONTINUOUS
 10
406.4743782356
 20
383.1028814495
 30
0.0
 11
16.5
 21
0.0
 31
0.0
 40
0.9791630482
 41
-0.2950421164
 42
-0.2362336651
  0
ELLIPSE
  5
879
100
AcDbEntity
  8
KONSTRUKTIONSELEMENTE
100
AcDbEllipse
 62
7
  6
CONTINUOUS
 10
406.4743782356
 20
380.0779007063
 30
0.0
 11
16.5
 21
-0.0
 31
0.0
 40
0.195834741
 41
-0.2362336651
 42
-0.1638527432
  0
ELLIPSE
  5
87A
100
AcDbEntity
  8
KONSTRUKTIONSELEMENTE
100
AcDbEllipse
 62
7
  6
CONTINUOUS
 10
406.4743782356
 20
336.7022363479
 30
0.0
 11
16.5
 21
0.0
 31
0.0
 40
0.334349582
 41
-0.3398369095
 42
0.0000224353
  0
ELLIPSE
  5
87B
100
AcDbEntity
  8
KONSTRUKTIONSELEMENTE
100
AcDbEllipse
 62
7
  6
CONTINUOUS
 10
406.4743782356
 20
360.272170385
 30
0.0
 11
16.5
 21
0.0
 31
0.0
 40
0.244790762
 41
0.1782473677
 42
0.2362336651
  0
ELLIPSE
  5
87C
100
AcDbEntity
  8
KONSTRUKTIONSELEMENTE
100
AcDbEllipse
 62
7
  6
CONTINUOUS
 10
406.4743782356
 20
357.4362215852
 30
0.0
 11
16.5
 21
0.0
 31
0.0
 40
0.979168651
 41
0.2362336651
 42
0.2950421164
  0
ELLIPSE
  5
87D
100
AcDbEntity
  8
KONSTRUKTIONSELEMENTE
100
AcDbEllipse
 62
7
  6
CONTINUOUS
 10
406.4743782356
 20
352.7383221977
 30
0.0
 11
0.0
 21
32.3124730363
 31
0.0
 40
0.510638724
 41
-1.2757542104
 42
-1.2459650002
  0
ELLIPSE
  5
87E
100
AcDbEntity
  8
KONSTRUKTIONSELEMENTE
100
AcDbEllipse
 62
7
  6
CONTINUOUS
 10
406.4743782356
 20
342.4258307485
 30
0.0
 11
-0.0
 21
64.6249460727
 31
0.0
 40
0.255319362
 41
-1.2459650002
 42
-1.2309594173
  0
ELLIPSE
  5
87F
100
AcDbEntity
  8
KONSTRUKTIONSELEMENTE
100
AcDbEllipse
 62
7
  6
CONTINUOUS
 10
406.4743782356
 20
392.040420734
 30
0.0
 11
-0.0
 21
80.7813212611
 31
0.0
 40
0.204255139
 41
-1.9106332362
 42
-1.8956276534
  0
ELLIPSE
  5
880
100
AcDbEntity
  8
KONSTRUKTIONSELEMENTE
100
AcDbEllipse
 62
7
  6
CONTINUOUS
 10
406.4743782356
 20
373.1341421539
 30
0.0
 11
0.0
 21
21.5416486909
 31
0.0
 40
0.765958086
 41
-1.8956276534
 42
-1.8510461683
  0
ELLIPSE
  5
881
100
AcDbEntity
  8
KONSTRUKTIONSELEMENTE
100
AcDbEllipse
 62
7
  6
CONTINUOUS
 10
406.4743782356
 20
370.5273766284
 30
0.0
 11
16.5
 21
-0.0
 31
0.0
 40
0.7343750875
 41
-0.2802498415
 42
-0.2216690803
  0
ELLIPSE
  5
882
100
AcDbEntity
  8
KONSTRUKTIONSELEMENTE
100
AcDbEllipse
 62
7
  6
CONTINUOUS
 10
406.4743782356
 20
369.047337122
 30
0.0
 11
16.5
 21
0.0
 31
0.0
 40
0.3263876827
 41
-0.2216690803
 42
-0.1782473677
  0
ELLIPSE
  5
883
100
AcDbEntity
  8
KONSTRUKTIONSELEMENTE
100
AcDbEllipse
 62
7
  6
CONTINUOUS
 10
406.4743782356
 20
344.1445631839
 30
0.0
 11
16.5
 21
-0.0
 31
0.0
 40
0.1958336205
 41
0.1065846569
 42
0.1782473677
  0
ELLIPSE
  5
884
100
AcDbEntity
  8
KONSTRUKTIONSELEMENTE
100
AcDbEllipse
 62
7
  6
CONTINUOUS
 10
406.4743782356
 20
343.285190129
 30
0.0
 11
16.5
 21
-0.0
 31
0.0
 40
0.4895829248
 41
0.1782473677
 42
0.2362336651
  0
ELLIPSE
  5
885
100
AcDbEntity
  8
KONSTRUKTIONSELEMENTE
100
AcDbEllipse
 62
7
  6
CONTINUOUS
 10
406.4743782356
 20
341.3945612019
 30
0.0
 11
16.5
 21
-0.0
 31
0.0
 40
0.9791672503
 41
0.2362336651
 42
0.2950421164
  0
ELLIPSE
  5
886
100
AcDbEntity
  8
KONSTRUKTIONSELEMENTE
100
AcDbEllipse
 62
7
  6
CONTINUOUS
 10
406.4743782356
 20
336.696655094
 30
0.0
 11
-0.0
 21
32.3124730363
 31
0.0
 40
0.510638724
 41
-1.2757542104
 42
-1.2459650002
  0
ELLIPSE
  5
887
100
AcDbEntity
  8
KONSTRUKTIONSELEMENTE
100
AcDbEllipse
 62
7
  6
CONTINUOUS
 10
406.4743782356
 20
339.4410573941
 30
0.0
 11
16.5
 21
0.0
 31
0.0
 40
0.334349582
 41
-0.0000224353
 42
0.3398369095
  0
ELLIPSE
  5
888
100
AcDbEntity
  8
KONSTRUKTIONSELEMENTE
100
AcDbEllipse
 62
7
  6
CONTINUOUS
 10
406.4743782356
 20
321.2278736637
 30
0.0
 11
0.0
 21
80.7813212611
 31
0.0
 40
0.204255139
 41
-1.2459650002
 42
-1.2309594173
  0
ELLIPSE
  5
889
100
AcDbEntity
  8
KONSTRUKTIONSELEMENTE
100
AcDbEllipse
 62
7
  6
CONTINUOUS
 10
406.4743782356
 20
377.1445570221
 30
0.0
 11
-0.0
 21
80.7812288143
 31
0.0
 40
0.2042553727
 41
-1.9106332362
 42
-1.8956276534
  0
ELLIPSE
  5
88A
100
AcDbEntity
  8
KONSTRUKTIONSELEMENTE
100
AcDbEllipse
 62
7
  6
CONTINUOUS
 10
406.4743782356
 20
361.6758198483
 30
0.0
 11
-0.0
 21
32.3125192598
 31
0.0
 40
0.5106379935
 41
-1.8956276534
 42
-1.8658384432
  0
ELLIPSE
  5
88B
100
AcDbEntity
  8
KONSTRUKTIONSELEMENTE
100
AcDbEllipse
 62
7
  6
CONTINUOUS
 10
406.4743782356
 20
356.9778935791
 30
0.0
 11
16.5
 21
0.0
 31
0.0
 40
0.9791658496
 41
-0.2950421164
 42
-0.2362336651
  0
ELLIPSE
  5
88C
100
AcDbEntity
  8
KONSTRUKTIONSELEMENTE
100
AcDbEllipse
 62
7
  6
CONTINUOUS
 10
406.4743782356
 20
353.9528976903
 30
0.0
 11
16.5
 21
0.0
 31
0.0
 40
0.1958336205
 41
-0.2362336651
 42
-0.1638527432
  0
ELLIPSE
  5
88D
100
AcDbEntity
  8
0
100
AcDbEllipse
 62
7
  6
CONTINUOUS
 10
790.5558738714
 20
121.7883136469
 30
0.0
 11
0.0
 21
6.5691645537
 31
0.0
 40
0.1051042353
 41
-3.1415926536
 42
-0.0
  0
ELLIPSE
  5
88E
100
AcDbEntity
  8
0
100
AcDbEllipse
 62
7
  6
CONTINUOUS
 10
843.7154355143
 20
121.7883136469
 30
0.0
 11
-0.0
 21
6.35
 31
0.0
 40
0.1583844403
 41
6.2831853072
 42
9.4247779608
  0
ELLIPSE
  5
88F
100
AcDbEntity
  8
BEZUGSACHSEN
100
AcDbEllipse
 62
7
  6
CONTINUOUS
 10
790.5558738714
 20
121.7883136469
 30
0.0
 11
0.0
 21
6.5691645537
 31
0.0
 40
0.1051042353
 41
-3.1415926536
 42
-0.0
  0
ELLIPSE
  5
890
100
AcDbEntity
  8
0
100
AcDbEllipse
 62
7
  6
CONTINUOUS
 10
920.2501235534
 20
121.7883136469
 30
0.0
 11
0.0
 21
6.5691645537
 31
0.0
 40
0.1051042353
 41
-0.0
 42
3.1415926536
  0
ELLIPSE
  5
891
100
AcDbEntity
  8
BEZUGSACHSEN
100
AcDbEllipse
 62
7
  6
CONTINUOUS
 10
843.7154355143
 20
121.7883136469
 30
0.0
 11
0.0
 21
6.35
 31
0.0
 40
0.1583844403
 41
6.2831853072
 42
9.4247779608
  0
ELLIPSE
  5
892
100
AcDbEntity
  8
0
100
AcDbEllipse
 62
7
  6
CONTINUOUS
 10
867.0905619105
 20
121.7883136469
 30
0.0
 11
0.0
 21
6.35
 31
0.0
 40
0.1583844403
 41
-3.1415926536
 42
0.0
  0
ENDSEC
  0
SECTION
  2
OBJECTS
  0
DICTIONARY
  5
C
100
AcDbDictionary
280
0
281
1
  3
ACAD_GROUP
350
D
  3
ACAD_MLINESTYLE
350
17
  3
ACAD_LAYOUT
350
1A
  3
ACAD_PLOTSETTINGS
350
19
  3
ACAD_PLOTSTYLENAME
350
E
  0
DICTIONARY
  5
D
102
{ACAD_REACTORS
330
C
102
}
100
AcDbDictionary
280
0
281
1
  0
ACDBDICTIONARYWDFLT
  5
E
102
{ACAD_REACTORS
330
C
102
}
100
AcDbDictionary
281
1
  3
Normal
350
F
100
AcDbDictionaryWithDefault
340
F
  0
DICTIONARY
  5
17
102
{ACAD_REACTORS
330
C
102
}
100
AcDbDictionary
280
0
281
1
  3
Standard
350
18
  0
DICTIONARY
  5
19
102
{ACAD_REACTORS
330
C
102
}
100
AcDbDictionary
281
1
  0
DICTIONARY
  5
1A
102
{ACAD_REACTORS
330
C
102
}
100
AcDbDictionary
281
1
  3
Model
350
893
  3
Layout1
350
894
  0
ACDBPLACEHOLDER
  5
F
102
{ACAD_REACTORS
330
E
102
}
  0
MLINESTYLE
  5
18
102
{ACAD_REACTORS
330
17
102
}
100
AcDbMlineStyle
  2
STANDARD
 70
0
  3

 62
256
 51
90.0
 52
90.0
 71
2
 49
0.5
 62
256
  6
BYLAYER
 49
-0.5
 62
256
  6
BYLAYER
  0
LAYOUT
  5
893
102
{ACAD_REACTORS
330
1A
102
}
100
AcDbPlotSettings
  1

  2
none_device
  4
ISO_A0_(1189.00_x_841.00_MM)
  6

 40
0.0
 41
0.0
 42
0.0
 43
0.0
 44
1189.0
 45
841.0
 46
0.0
 47
0.0
 48
0.0
 49
0.0
140
0.0
141
0.0
142
1.0
143
1.0
 70
1024
 72
1
 73
0
 74
0
  7

 75
0
147
1.0
148
0.0
149
0.0
100
AcDbLayout
  1
Model
 70
0
 71
0
 10
0.0
 20
0.0
 11
1189.0
 21
841.0
 12
0.0
 22
0.0
 32
0.0
 14
0.0
 24
0.0
 34
0.0
 15
0.0
 25
0.0
 35
0.0
146
0.0
 13
0.0
 23
0.0
 33
0.0
 16
1.0
 26
0.0
 36
0.0
 17
0.0
 27
1.0
 37
0.0
 76
0
330
20E
345
0
346
0
  0
LAYOUT
  5
894
102
{ACAD_REACTORS
330
1A
102
}
100
AcDbPlotSettings
  1

  2
none_device
  4
ISO_A0_(1189.00_x_841.00_MM)
  6

 40
0.0
 41
0.0
 42
0.0
 43
0.0
 44
1189.0
 45
841.0
 46
0.0
 47
0.0
 48
0.0
 49
0.0
140
0.0
141
0.0
142
1.0
143
1.0
 70
0
 72
1
 73
0
 74
0
  7

 75
0
147
1.0
148
0.0
149
0.0
100
AcDbLayout
  1
Layout1
 70
0
 71
1
 10
0.0
 20
0.0
 11
1189.0
 21
841.0
 12
0.0
 22
0.0
 32
0.0
 14
0.0
 24
0.0
 34
0.0
 15
0.0
 25
0.0
 35
0.0
146
0.0
 13
0.0
 23
0.0
 33
0.0
 16
1.0
 26
0.0
 36
0.0
 17
0.0
 27
1.0
 37
0.0
 76
0
330
20F
345
0
346
0
  0
ENDSEC
  0
EOF
