999
DXF file: 001-m34963-p-3.dxf
999
Pro/ENGINEER 2011490 by Parametric Technology Corporation
  0
SECTION
  2
HEADER
  9
$ACADVER
  1
AC1015
  9
$DWGCODEPAGE
  3
ANSI_1252
  9
$EXTMAX
 10
841.0
 20
594.0
 30
0.0
  9
$EXTMIN
 10
0.0
 20
0.0
 30
0.0
  9
$LIMMIN
 10
0.0
 20
0.0
  9
$LIMMAX
 10
841.0
 20
594.0
  9
$VIEWCTR
 10
420.5
 20
297.0
  9
$VIEWSIZE
 40
594.0
  9
$CLAYER
  8
0
  9
$LTSCALE
 40
46.255
  9
$CELTYPE
  6
BYLAYER
  9
$DIMSCALE
 40
1.0
  9
$DIMASZ
 40
3.5
  9
$DIMEXO
 40
5.25625
  9
$DIMDLI
 40
31.958
  9
$DIMEXE
 40
15.138
  9
$DIMCEN
 40
7.569
  9
$DIMLFAC
 40
1.0
  9
$DIMBLK
  1
_FILLED
  9
$DIMTXT
 40
3.5
  9
$DIMTOL
 70
1
  9
$DIMLIM
 70
0
  9
$DIMTFAC
 40
1.0
  9
$DIMTP
 40
0.005
  9
$DIMTM
 40
0.005
  9
$PDMODE
 70
3
  9
$PDSIZE
 40
0.3125
  9
$HANDSEED
  5
904
  9
$TILEMODE
 70
1
  9
$MEASUREMENT
 70
1
  9
$INSUNITS
 70
4
  0
ENDSEC
  0
SECTION
  2
CLASSES
  0
CLASS
  1
ACDBDICTIONARYWDFLT
  2
AcDbDictionaryWithDefault
  3
AutoCAD 2000
 90
0
280
0
281
0
  0
CLASS
  1
ACDBPLACEHOLDER
  2
AcDbPlaceHolder
  3
AutoCAD 2000
 90
0
280
0
281
0
  0
CLASS
  1
LAYOUT
  2
AcDbLayout
  3
AutoCAD 2000
 90
0
280
0
281
0
  0
ENDSEC
  0
SECTION
  2
TABLES
  0
TABLE
  2
VPORT
  5
8
100
AcDbSymbolTable
 70
2
  0
VPORT
  5
1F4
100
AcDbSymbolTableRecord
100
AcDbViewportTableRecord
  2
*ACTIVE
 70
0
 10
0.0
 20
0.0
 11
1.0
 21
1.0
 12
420.5
 22
297.0
 13
0.0
 23
0.0
 14
1.0
 24
1.0
 15
0.0
 25
0.0
 16
0.0
 26
0.0
 36
1.0
 17
0.0
 27
0.0
 37
0.0
 40
594.0
 41
1.4158249158
 42
50.0
 43
0.0
 44
0.0
 50
0.0
 51
0.0
 71
0
 72
100
 73
1
 74
1
 75
0
 76
0
 77
0
 78
0
  0
ENDTAB
  0
TABLE
  2
LTYPE
  5
5
100
AcDbSymbolTable
 70
6
  0
LTYPE
  5
14
100
AcDbSymbolTableRecord
100
AcDbLinetypeTableRecord
  2
BYBLOCK
 70
0
  3

 72
65
 73
0
 40
0.0
  0
LTYPE
  5
15
100
AcDbSymbolTableRecord
100
AcDbLinetypeTableRecord
  2
BYLAYER
 70
0
  3

 72
65
 73
0
 40
0.0
  0
LTYPE
  5
16
100
AcDbSymbolTableRecord
100
AcDbLinetypeTableRecord
  2
CONTINUOUS
 70
64
  3
Solid line
 72
65
 73
0
 40
0.0
  0
LTYPE
  5
1F5
100
AcDbSymbolTableRecord
100
AcDbLinetypeTableRecord
  2
CENTER
 70
64
  3
____ _ ____ _ ____ _ ____ _ ____ _ ____ _ ____
 72
65
 73
4
 40
0.6
 49
0.375
 74
0
 49
-0.075
 74
0
 49
0.075
 74
0
 49
-0.075
 74
0
  0
LTYPE
  5
1F6
100
AcDbSymbolTableRecord
100
AcDbLinetypeTableRecord
  2
HIDDEN
 70
64
  3
- - - - - - - - - - - - - - - - - - - -
 72
65
 73
2
 40
0.2
 49
0.1
 74
0
 49
-0.1
 74
0
  0
LTYPE
  5
1F7
100
AcDbSymbolTableRecord
100
AcDbLinetypeTableRecord
  2
PHANTOM
 70
64
  3
_____ _ _ _____ _ _ _____ _ _ _____
 72
65
 73
6
 40
0.8
 49
0.45
 74
0
 49
-0.05
 74
0
 49
0.1
 74
0
 49
-0.05
 74
0
 49
0.1
 74
0
 49
-0.05
 74
0
  0
LTYPE
  5
1F8
100
AcDbSymbolTableRecord
100
AcDbLinetypeTableRecord
  2
DOT
 70
64
  3
. . . . . . . . . . . . . . . . . . . .
 72
65
 73
2
 40
0.2
 49
0.1
 74
0
 49
-0.1
 74
0
  0
LTYPE
  5
1F9
100
AcDbSymbolTableRecord
100
AcDbLinetypeTableRecord
  2
DASHED
 70
64
  3
- - - - - - - - - - - - - - - - - - - -
 72
65
 73
2
 40
0.2
 49
0.1
 74
0
 49
-0.1
 74
0
  0
ENDTAB
  0
TABLE
  2
LAYER
  5
2
100
AcDbSymbolTable
 70
36
  0
LAYER
  5
10
100
AcDbSymbolTableRecord
100
AcDbLayerTableRecord
  2
0
 70
0
 62
7
  6
CONTINUOUS
370
-3
390
F
  0
LAYER
  5
1FA
100
AcDbSymbolTableRecord
100
AcDbLayerTableRecord
  2
DEFAULT_1
 70
0
 62
7
  6
CENTER
370
-3
390
F
  0
LAYER
  5
1FB
100
AcDbSymbolTableRecord
100
AcDbLayerTableRecord
  2
DEFAULT_2
 70
0
 62
8
  6
HIDDEN
370
-3
390
F
  0
LAYER
  5
1FC
100
AcDbSymbolTableRecord
100
AcDbLayerTableRecord
  2
DEFAULT_3
 70
0
 62
7
  6
PHANTOM
370
-3
390
F
  0
LAYER
  5
1FD
100
AcDbSymbolTableRecord
100
AcDbLayerTableRecord
  2
AUSFORMSCHRAEGEN
 70
0
 62
7
  6
CONTINUOUS
370
-3
390
F
  0
LAYER
  5
1FE
100
AcDbSymbolTableRecord
100
AcDbLayerTableRecord
  2
BEZUGSACHSEN
 70
0
 62
7
  6
CONTINUOUS
370
-3
390
F
  0
LAYER
  5
1FF
100
AcDbSymbolTableRecord
100
AcDbLayerTableRecord
  2
BEZUGSEBENEN
 70
0
 62
7
  6
CONTINUOUS
370
-3
390
F
  0
LAYER
  5
200
100
AcDbSymbolTableRecord
100
AcDbLayerTableRecord
  2
BG_STARTBEZUEGE
 70
0
 62
7
  6
CONTINUOUS
370
-3
390
F
  0
LAYER
  5
201
100
AcDbSymbolTableRecord
100
AcDbLayerTableRecord
  2
FASEN
 70
0
 62
7
  6
CONTINUOUS
370
-3
390
F
  0
LAYER
  5
202
100
AcDbSymbolTableRecord
100
AcDbLayerTableRecord
  2
HILFEN
 70
0
 62
7
  6
CONTINUOUS
370
-3
390
F
  0
LAYER
  5
203
100
AcDbSymbolTableRecord
100
AcDbLayerTableRecord
  2
KONSTRUKTIONSELEMENTE
 70
0
 62
7
  6
CONTINUOUS
370
-3
390
F
  0
LAYER
  5
204
100
AcDbSymbolTableRecord
100
AcDbLayerTableRecord
  2
KURVEN
 70
0
 62
7
  6
CONTINUOUS
370
-3
390
F
  0
LAYER
  5
205
100
AcDbSymbolTableRecord
100
AcDbLayerTableRecord
  2
NORM
 70
0
 62
7
  6
CONTINUOUS
370
-3
390
F
  0
LAYER
  5
206
100
AcDbSymbolTableRecord
100
AcDbLayerTableRecord
  2
PLATZIERUNG
 70
0
 62
7
  6
CONTINUOUS
370
-3
390
F
  0
LAYER
  5
207
100
AcDbSymbolTableRecord
100
AcDbLayerTableRecord
  2
RUNDUNGEN
 70
0
 62
7
  6
CONTINUOUS
370
-3
390
F
  0
LAYER
  5
208
100
AcDbSymbolTableRecord
100
AcDbLayerTableRecord
  2
TEIL_STARTBEZUEGE
 70
0
 62
7
  6
CONTINUOUS
370
-3
390
F
  0
LAYER
  5
209
100
AcDbSymbolTableRecord
100
AcDbLayerTableRecord
  2
T_STARTBEZUEGE
 70
0
 62
7
  6
CONTINUOUS
370
-3
390
F
  0
LAYER
  5
20A
100
AcDbSymbolTableRecord
100
AcDbLayerTableRecord
  2
ZEICHNUNGSBEMASSUNGEN
 70
0
 62
7
  6
CONTINUOUS
370
-3
390
F
  0
ENDTAB
  0
TABLE
  2
STYLE
  5
3
100
AcDbSymbolTable
 70
1
  0
STYLE
  5
11
100
AcDbSymbolTableRecord
100
AcDbTextStyleTableRecord
  2
STANDARD
 70
0
 40
0.0
 41
0.7
 50
0.0
 71
0
 42
0.2
  3
txt
  4

  0
STYLE
  5
20B
100
AcDbSymbolTableRecord
100
AcDbTextStyleTableRecord
  2
TEXTSTYLE_1
 70
0
 40
0.0
 41
0.8
 50
0.0
 71
0
 42
0.2
  3
gdt
  4

  0
ENDTAB
  0
TABLE
  2
VIEW
  5
6
100
AcDbSymbolTable
 70
0
  0
ENDTAB
  0
TABLE
  2
UCS
  5
7
100
AcDbSymbolTable
 70
0
  0
ENDTAB
  0
TABLE
  2
APPID
  5
9
100
AcDbSymbolTable
 70
1
  0
APPID
  5
20C
100
AcDbSymbolTableRecord
100
AcDbRegAppTableRecord
  2
ACAD
 70
0
  0
ENDTAB
  0
TABLE
  2
BLOCK_RECORD
  5
1
100
AcDbSymbolTable
 70
0
  0
BLOCK_RECORD
  5
20D
100
AcDbSymbolTableRecord
100
AcDbBlockTableRecord
  2
*Model_Space
  0
BLOCK_RECORD
  5
20E
100
AcDbSymbolTableRecord
100
AcDbBlockTableRecord
  2
*Paper_Space
  0
ENDTAB
  0
TABLE
  2
DIMSTYLE
  5
A
100
AcDbSymbolTable
 70
1
100
AcDbDimStyleTable
 71
0
  0
DIMSTYLE
105
20F
100
AcDbSymbolTableRecord
100
AcDbDimStyleTableRecord
  2
STANDARD
 70
0
  3

  4

 40
1.0
 41
3.5
 42
0.0625
 43
0.38
 44
0.18
 45
0.0
 46
0.0
 47
0.005
 48
0.005
140
3.5
141
0.09
142
0.0
143
25.4
144
1.0
145
0.0
146
1.0
147
0.09
 71
1.0
 72
0.0
 73
0
 74
0
 75
0
 76
0
 77
1
 78
8
170
0
171
2
172
0
173
0
174
0
175
0
176
0
177
0
178
5
270
2
271
3
272
3
273
2
274
2
275
0
280
0
281
0
282
0
283
1
284
8
285
0
286
0
287
3
288
0
340
11
  0
ENDTAB
  0
ENDSEC
  0
SECTION
  2
BLOCKS
  0
BLOCK
  5
20
100
AcDbEntity
  8
0
100
AcDbBlockBegin
  2
*Model_Space
 70
0
 10
0.0
 20
0.0
 30
0.0
  3
*Model_Space
  1

  0
ENDBLK
  5
21
100
AcDbEntity
  8
0
100
AcDbBlockEnd
  0
BLOCK
  5
1C
100
AcDbEntity
  8
0
100
AcDbBlockBegin
  2
*Paper_Space
 70
0
 10
0.0
 20
0.0
 30
0.0
  3
*Paper_Space
  1

  0
ENDBLK
  5
1D
100
AcDbEntity
  8
0
100
AcDbBlockEnd
  0
ENDSEC
  0
SECTION
  2
ENTITIES
  0
MTEXT
  5
210
100
AcDbEntity
  8
0
100
AcDbMText
 62
5
  6
CONTINUOUS
  7
STANDARD
 71
1
 72
1
 10
269.0078956862
 20
301.9166764058
 30
0.0
 11
1.0
 21
0.0
 31
0.0
 44
0.9
  1
IWK-2S-10
 40
8.0
 41
58.6666666667
  0
MTEXT
  5
211
100
AcDbEntity
  8
0
100
AcDbMText
 62
5
  6
CONTINUOUS
  7
STANDARD
 71
1
 72
1
 10
559.9115713143
 20
371.6508728051
 30
0.0
 11
0.0
 21
1.0
 31
0.0
 44
0.9
  1
IWK-2S-10
 40
8.0
 41
58.6666666667
  0
LINE
  5
212
100
AcDbEntity
  8
0
100
AcDbLine
 62
7
  6
CONTINUOUS
 10
0.0
 20
0.0
 11
0.0
 21
594.0
  0
LINE
  5
213
100
AcDbEntity
  8
0
100
AcDbLine
 62
7
  6
CONTINUOUS
 10
0.0
 20
0.0
 11
841.0
 21
0.0
  0
LINE
  5
214
100
AcDbEntity
  8
0
100
AcDbLine
 62
7
  6
CONTINUOUS
 10
0.0
 20
594.0
 11
841.0
 21
594.0
  0
LINE
  5
215
100
AcDbEntity
  8
0
100
AcDbLine
 62
7
  6
CONTINUOUS
 10
841.0
 20
0.0
 11
841.0
 21
594.0
  0
LINE
  5
216
100
AcDbEntity
  8
BEZUGSACHSEN
100
AcDbLine
 62
7
  6
CONTINUOUS
 10
388.0709355246
 20
69.3717430767
 11
383.9735069725
 21
68.9410859822
  0
LINE
  5
217
100
AcDbEntity
  8
BEZUGSACHSEN
100
AcDbLine
 62
7
  6
CONTINUOUS
 10
208.0709355246
 20
69.3717430767
 11
203.9735069725
 21
68.9410859822
  0
LINE
  5
218
100
AcDbEntity
  8
AUSFORMSCHRAEGEN
100
AcDbLine
 62
7
  6
CONTINUOUS
 10
203.9735069725
 20
68.9410859822
 11
199.8760784204
 21
69.3717430767
  0
LINE
  5
219
100
AcDbEntity
  8
BEZUGSACHSEN
100
AcDbLine
 62
7
  6
CONTINUOUS
 10
203.9735069725
 20
68.9410859822
 11
199.8760784204
 21
69.3717430767
  0
LINE
  5
21A
100
AcDbEntity
  8
AUSFORMSCHRAEGEN
100
AcDbLine
 62
7
  6
CONTINUOUS
 10
383.9735069725
 20
68.9410859822
 11
379.8760784204
 21
69.3717430767
  0
LINE
  5
21B
100
AcDbEntity
  8
BEZUGSACHSEN
100
AcDbLine
 62
7
  6
CONTINUOUS
 10
383.9735069725
 20
68.9410859822
 11
379.8760784204
 21
69.3717430767
  0
LINE
  5
21C
100
AcDbEntity
  8
RUNDUNGEN
100
AcDbLine
 62
7
  6
CONTINUOUS
 10
89.266093819
 20
155.7066609227
 11
85.730559913
 21
159.2421948287
  0
LINE
  5
21D
100
AcDbEntity
  8
RUNDUNGEN
100
AcDbLine
 62
7
  6
CONTINUOUS
 10
194.8786204129
 20
107.0549293174
 11
193.8562252234
 21
108.0773245069
  0
LINE
  5
21E
100
AcDbEntity
  8
0
100
AcDbLine
 62
7
  6
CONTINUOUS
 10
303.9585062572
 20
161.7200334884
 11
303.2085069725
 21
161.5285441495
  0
LINE
  5
21F
100
AcDbEntity
  8
0
100
AcDbLine
 62
7
  6
CONTINUOUS
 10
303.2085069725
 20
160.3796079822
 11
304.1460076877
 21
160.5710973378
  0
LINE
  5
220
100
AcDbEntity
  8
0
100
AcDbLine
 62
7
  6
CONTINUOUS
 10
294.2085069725
 20
160.3796079822
 11
295.1460066148
 21
160.5710973378
  0
LINE
  5
221
100
AcDbEntity
  8
BEZUGSACHSEN
100
AcDbLine
 62
7
  6
CONTINUOUS
 10
211.6781019626
 20
144.3761908216
 11
293.9735069725
 21
158.8870911131
  0
LINE
  5
222
100
AcDbEntity
  8
0
100
AcDbLine
 62
7
  6
CONTINUOUS
 10
294.9585073301
 20
161.7200334884
 11
294.2085069725
 21
161.5285441495
  0
LINE
  5
223
100
AcDbEntity
  8
0
100
AcDbLine
 62
7
  6
CONTINUOUS
 10
228.9735069725
 20
152.5029704265
 11
229.5890118181
 21
152.6115005375
  0
LINE
  5
224
100
AcDbEntity
  8
0
100
AcDbLine
 62
7
  6
CONTINUOUS
 10
231.230358122
 20
152.9009141756
 11
232.0510312006
 21
153.0456209817
  0
LINE
  5
225
100
AcDbEntity
  8
0
100
AcDbLine
 62
7
  6
CONTINUOUS
 10
233.6923773578
 20
153.3350345939
 11
234.5130505832
 21
153.4797414259
  0
LINE
  5
226
100
AcDbEntity
  8
0
100
AcDbLine
 62
7
  6
CONTINUOUS
 10
239.0267531758
 20
154.2756289759
 11
239.6422580214
 21
154.3841590869
  0
LINE
  5
227
100
AcDbEntity
  8
0
100
AcDbLine
 62
7
  6
CONTINUOUS
 10
249.900671724
 20
156.1929942019
 11
250.5161765696
 21
156.301524313
  0
LINE
  5
228
100
AcDbEntity
  8
0
100
AcDbLine
 62
7
  6
CONTINUOUS
 10
252.9781959521
 20
156.7356447571
 11
253.9014532206
 21
156.8984399237
  0
LINE
  5
229
100
AcDbEntity
  8
0
100
AcDbLine
 62
7
  6
CONTINUOUS
 10
256.1583051039
 20
157.2963838022
 11
259.8513341777
 21
157.9475644684
  0
LINE
  5
22A
100
AcDbEntity
  8
0
100
AcDbLine
 62
7
  6
CONTINUOUS
 10
259.7404949156
 20
158.5761651603
 11
256.6629706875
 21
158.0335146051
  0
LINE
  5
22B
100
AcDbEntity
  8
0
100
AcDbLine
 62
7
  6
CONTINUOUS
 10
253.7906139585
 20
157.5270406155
 11
252.8673566901
 21
157.364245449
  0
LINE
  5
22C
100
AcDbEntity
  8
0
100
AcDbLine
 62
7
  6
CONTINUOUS
 10
255.115951887
 20
158.4088780952
 11
254.5004470413
 21
158.3003479841
  0
LINE
  5
22D
100
AcDbEntity
  8
0
100
AcDbLine
 62
7
  6
CONTINUOUS
 10
235.8403524688
 20
155.5501903223
 11
237.2765302463
 21
155.8034272135
  0
LINE
  5
22E
100
AcDbEntity
  8
0
100
AcDbLine
 62
7
  6
CONTINUOUS
 10
237.1841641794
 20
156.327261209
 11
235.747986402
 21
156.0740243177
  0
LINE
  5
22F
100
AcDbEntity
  8
0
100
AcDbLine
 62
7
  6
CONTINUOUS
 10
256.3673993177
 20
159.7097831411
 11
259.0345861994
 21
160.180080151
  0
LINE
  5
230
100
AcDbEntity
  8
0
100
AcDbLine
 62
7
  6
CONTINUOUS
 10
258.9237469503
 20
160.8086807695
 11
256.2565600685
 21
160.3383837596
  0
LINE
  5
231
100
AcDbEntity
  8
0
100
AcDbLine
 62
7
  6
CONTINUOUS
 10
254.0755632271
 20
160.709983835
 11
254.6910680728
 21
160.8185139461
  0
LINE
  5
232
100
AcDbEntity
  8
0
100
AcDbLine
 62
7
  6
CONTINUOUS
 10
252.2207943129
 20
161.0310829037
 11
253.1440515814
 21
161.1938780703
  0
LINE
  5
233
100
AcDbEntity
  8
0
100
AcDbLine
 62
7
  6
CONTINUOUS
 10
256.0164083103
 20
161.7003520598
 11
259.0939325385
 21
162.243002615
  0
LINE
  5
234
100
AcDbEntity
  8
0
100
AcDbLine
 62
7
  6
CONTINUOUS
 10
258.9830932894
 20
162.8716032335
 11
255.2900642156
 21
162.2204225672
  0
LINE
  5
235
100
AcDbEntity
  8
0
100
AcDbLine
 62
7
  6
CONTINUOUS
 10
253.0332123323
 20
161.8224786888
 11
252.1099550638
 21
161.6596835222
  0
LINE
  5
236
100
AcDbEntity
  8
0
100
AcDbLine
 62
7
  6
CONTINUOUS
 10
249.6479356813
 20
161.225563078
 11
249.0324308357
 21
161.117032967
  0
LINE
  5
237
100
AcDbEntity
  8
0
100
AcDbLine
 62
7
  6
CONTINUOUS
 10
238.7740171331
 20
159.308197852
 11
238.1585122875
 21
159.1996677409
  0
LINE
  5
238
100
AcDbEntity
  8
0
100
AcDbLine
 62
7
  6
CONTINUOUS
 10
234.4654826267
 20
158.5484869712
 11
233.849977781
 21
158.4399568601
  0
LINE
  5
239
100
AcDbEntity
  8
0
100
AcDbLine
 62
7
  6
CONTINUOUS
 10
232.4138000036
 20
158.1867199689
 11
231.5931267782
 21
158.0420131369
  0
LINE
  5
23A
100
AcDbEntity
  8
0
100
AcDbLine
 62
7
  6
CONTINUOUS
 10
230.156948854
 20
157.7887762197
 11
229.5414440084
 21
157.6802461087
  0
LINE
  5
23B
100
AcDbEntity
  8
0
100
AcDbLine
 62
7
  6
CONTINUOUS
 10
228.7207709298
 20
157.5355393026
 11
228.1052660841
 21
157.4270091916
  0
LINE
  5
23C
100
AcDbEntity
  8
BEZUGSACHSEN
100
AcDbLine
 62
7
  6
CONTINUOUS
 10
383.9735069725
 20
176.9581299822
 11
379.8760784204
 21
176.5274728876
  0
LINE
  5
23D
100
AcDbEntity
  8
AUSFORMSCHRAEGEN
100
AcDbLine
 62
7
  6
CONTINUOUS
 10
383.9735069725
 20
176.9581299822
 11
379.8760784204
 21
176.5274728876
  0
LINE
  5
23E
100
AcDbEntity
  8
0
100
AcDbLine
 62
7
  6
CONTINUOUS
 10
241.6754668478
 20
154.8506927646
 11
242.3094449032
 21
154.8544560967
  0
LINE
  5
23F
100
AcDbEntity
  8
0
100
AcDbLine
 62
7
  6
CONTINUOUS
 10
242.0751820687
 20
159.7822582031
 11
241.4412040149
 21
159.7784948618
  0
LINE
  5
240
100
AcDbEntity
  8
0
100
AcDbLine
 62
7
  6
CONTINUOUS
 10
281.8335069725
 20
160.3796079822
 11
282.9585069725
 21
160.3796079822
  0
LINE
  5
241
100
AcDbEntity
  8
0
100
AcDbLine
 62
7
  6
CONTINUOUS
 10
287.6460067937
 20
160.3796079822
 11
288.9585071513
 21
160.3796079822
  0
LINE
  5
242
100
AcDbEntity
  8
0
100
AcDbLine
 62
7
  6
CONTINUOUS
 10
293.4585066148
 20
160.3796079822
 11
294.2085069725
 21
160.3796079822
  0
LINE
  5
243
100
AcDbEntity
  8
0
100
AcDbLine
 62
7
  6
CONTINUOUS
 10
298.7085069725
 20
160.3796079822
 11
303.2085069725
 21
160.3796079822
  0
LINE
  5
244
100
AcDbEntity
  8
0
100
AcDbLine
 62
7
  6
CONTINUOUS
 10
303.2085069725
 20
161.5285441495
 11
299.8335069725
 21
161.5285441495
  0
LINE
  5
245
100
AcDbEntity
  8
0
100
AcDbLine
 62
7
  6
CONTINUOUS
 10
294.2085069725
 20
161.5285441495
 11
293.4585066148
 21
161.5285441495
  0
LINE
  5
246
100
AcDbEntity
  8
0
100
AcDbLine
 62
7
  6
CONTINUOUS
 10
282.9585069725
 20
164.400884635
 11
286.1460068831
 21
164.400884635
  0
LINE
  5
247
100
AcDbEntity
  8
0
100
AcDbLine
 62
7
  6
CONTINUOUS
 10
286.5210067937
 20
165.5498206682
 11
282.9585069725
 21
165.5498206682
  0
LINE
  5
248
100
AcDbEntity
  8
0
100
AcDbLine
 62
7
  6
CONTINUOUS
 10
299.8335069725
 20
168.2306719489
 11
303.2085069725
 21
168.2306719489
  0
LINE
  5
249
100
AcDbEntity
  8
0
100
AcDbLine
 62
7
  6
CONTINUOUS
 10
282.9585069725
 20
168.4221612878
 11
286.5210067937
 21
168.4221612878
  0
LINE
  5
24A
100
AcDbEntity
  8
0
100
AcDbLine
 62
7
  6
CONTINUOUS
 10
303.2085069725
 20
169.3796079822
 11
298.7085069725
 21
169.3796079822
  0
LINE
  5
24B
100
AcDbEntity
  8
0
100
AcDbLine
 62
7
  6
CONTINUOUS
 10
297.2085073301
 20
169.3796079822
 11
296.0835073301
 21
169.3796079822
  0
LINE
  5
24C
100
AcDbEntity
  8
0
100
AcDbLine
 62
7
  6
CONTINUOUS
 10
291.5835073301
 20
169.3796079822
 11
290.4585067937
 21
169.3796079822
  0
LINE
  5
24D
100
AcDbEntity
  8
0
100
AcDbLine
 62
7
  6
CONTINUOUS
 10
286.3335069725
 20
169.3796079822
 11
281.8335069725
 21
169.3796079822
  0
LINE
  5
24E
100
AcDbEntity
  8
0
100
AcDbLine
 62
7
  6
CONTINUOUS
 10
242.2170788493
 20
155.3782900188
 11
241.6856857191
 21
155.3926151674
  0
LINE
  5
24F
100
AcDbEntity
  8
0
100
AcDbLine
 62
7
  6
CONTINUOUS
 10
252.4468028203
 20
156.7499699149
 11
252.9781959521
 21
156.7356447571
  0
LINE
  5
250
100
AcDbEntity
  8
0
100
AcDbLine
 62
7
  6
CONTINUOUS
 10
241.5335700558
 20
159.2546610131
 11
242.06496436
 21
159.2403360715
  0
LINE
  5
251
100
AcDbEntity
  8
0
100
AcDbLine
 62
7
  6
CONTINUOUS
 10
253.5646054625
 20
161.8081535402
 11
253.0332123323
 21
161.8224786888
  0
LINE
  5
252
100
AcDbEntity
  8
0
100
AcDbLine
 62
7
  6
CONTINUOUS
 10
252.8673566901
 20
157.364245449
 11
252.4385461355
 21
157.3966586734
  0
LINE
  5
253
100
AcDbEntity
  8
0
100
AcDbLine
 62
7
  6
CONTINUOUS
 10
253.1440515814
 20
161.1938780703
 11
253.572862136
 21
161.1614648459
  0
LINE
  5
254
100
AcDbEntity
  8
BEZUGSACHSEN
100
AcDbLine
 62
7
  6
CONTINUOUS
 10
208.0709355246
 20
176.5274728876
 11
203.9735069725
 21
176.9581299822
  0
LINE
  5
255
100
AcDbEntity
  8
BEZUGSACHSEN
100
AcDbLine
 62
7
  6
CONTINUOUS
 10
376.2689119823
 20
144.3761908216
 11
293.9735069725
 21
158.8870911131
  0
LINE
  5
256
100
AcDbEntity
  8
0
100
AcDbLine
 62
7
  6
CONTINUOUS
 10
292.5210069725
 20
160.5710973378
 11
293.4585066148
 21
160.3796079822
  0
LINE
  5
257
100
AcDbEntity
  8
0
100
AcDbLine
 62
7
  6
CONTINUOUS
 10
251.9995190527
 20
156.8871499365
 11
252.4468028203
 21
156.7499699149
  0
LINE
  5
258
100
AcDbEntity
  8
0
100
AcDbLine
 62
7
  6
CONTINUOUS
 10
254.0118892253
 20
161.6709735461
 11
253.5646054625
 21
161.8081535402
  0
LINE
  5
259
100
AcDbEntity
  8
0
100
AcDbLine
 62
7
  6
CONTINUOUS
 10
241.1071272963
 20
155.0745514802
 11
241.6754668478
 21
154.8506927646
  0
LINE
  5
25A
100
AcDbEntity
  8
0
100
AcDbLine
 62
7
  6
CONTINUOUS
 10
242.6435227893
 20
159.5583997221
 11
242.0751820687
 21
159.7822582031
  0
LINE
  5
25B
100
AcDbEntity
  8
0
100
AcDbLine
 62
7
  6
CONTINUOUS
 10
241.6856857191
 20
155.3926151674
 11
241.3409868799
 21
155.5478836514
  0
LINE
  5
25C
100
AcDbEntity
  8
0
100
AcDbLine
 62
7
  6
CONTINUOUS
 10
242.06496436
 20
159.2403360715
 11
242.4096631992
 21
159.0850675876
  0
LINE
  5
25D
100
AcDbEntity
  8
0
100
AcDbLine
 62
7
  6
CONTINUOUS
 10
252.4385461355
 20
157.3966586734
 11
252.0938472834
 21
157.5519272307
  0
LINE
  5
25E
100
AcDbEntity
  8
BEZUGSACHSEN
100
AcDbLine
 62
7
  6
CONTINUOUS
 10
214.0907620511
 20
137.8219181279
 11
213.0684010261
 21
138.8442791528
  0
LINE
  5
25F
100
AcDbEntity
  8
RUNDUNGEN
100
AcDbLine
 62
7
  6
CONTINUOUS
 10
145.386430973
 20
218.8980658886
 11
148.9219648789
 21
215.3625319827
  0
LINE
  5
260
100
AcDbEntity
  8
BEZUGSACHSEN
100
AcDbLine
 62
7
  6
CONTINUOUS
 10
203.9735069725
 20
176.9581299822
 11
199.8760784204
 21
176.5274728876
  0
LINE
  5
261
100
AcDbEntity
  8
AUSFORMSCHRAEGEN
100
AcDbLine
 62
7
  6
CONTINUOUS
 10
203.9735069725
 20
176.9581299822
 11
199.8760784204
 21
176.5274728876
  0
LINE
  5
262
100
AcDbEntity
  8
BEZUGSACHSEN
100
AcDbLine
 62
7
  6
CONTINUOUS
 10
388.0709355246
 20
176.5274728876
 11
383.9735069725
 21
176.9581299822
  0
LINE
  5
263
100
AcDbEntity
  8
0
100
AcDbLine
 62
7
  6
CONTINUOUS
 10
287.2710071513
 20
169.1881186433
 11
286.3335069725
 21
169.3796079822
  0
LINE
  5
264
100
AcDbEntity
  8
0
100
AcDbLine
 62
7
  6
CONTINUOUS
 10
304.1460076877
 20
169.1881186433
 11
303.2085069725
 21
169.3796079822
  0
LINE
  5
265
100
AcDbEntity
  8
0
100
AcDbLine
 62
7
  6
CONTINUOUS
 10
293.4585066148
 20
161.5285441495
 11
292.7085073301
 21
161.7200334884
  0
LINE
  5
266
100
AcDbEntity
  8
0
100
AcDbLine
 62
7
  6
CONTINUOUS
 10
303.2085069725
 20
168.2306719489
 11
303.9585062572
 21
168.03918261
  0
LINE
  5
267
100
AcDbEntity
  8
0
100
AcDbLine
 62
7
  6
CONTINUOUS
 10
286.5210067937
 20
168.4221612878
 11
287.0835067937
 21
168.2306719489
  0
LINE
  5
268
100
AcDbEntity
  8
0
100
AcDbLine
 62
7
  6
CONTINUOUS
 10
253.572862136
 20
161.1614648459
 11
253.9175609752
 21
161.0061963619
  0
LINE
  5
269
100
AcDbEntity
  8
0
100
AcDbLine
 62
7
  6
CONTINUOUS
 10
240.7439552424
 20
155.3345867706
 11
241.1071272963
 21
155.0745514802
  0
LINE
  5
26A
100
AcDbEntity
  8
0
100
AcDbLine
 62
7
  6
CONTINUOUS
 10
243.0066948366
 20
159.2983644683
 11
242.6435227893
 21
159.5583997221
  0
LINE
  5
26B
100
AcDbEntity
  8
0
100
AcDbLine
 62
7
  6
CONTINUOUS
 10
251.515288867
 20
157.2338635068
 11
251.9995190527
 21
156.8871499365
  0
LINE
  5
26C
100
AcDbEntity
  8
0
100
AcDbLine
 62
7
  6
CONTINUOUS
 10
254.4961194044
 20
161.3242600125
 11
254.0118892253
 21
161.6709735461
  0
LINE
  5
26D
100
AcDbEntity
  8
RUNDUNGEN
100
AcDbLine
 62
7
  6
CONTINUOUS
 10
159.1007031878
 20
225.5412702916
 11
155.5651692819
 21
229.0768041975
  0
LINE
  5
26E
100
AcDbEntity
  8
RUNDUNGEN
100
AcDbLine
 62
7
  6
CONTINUOUS
 10
155.7106771708
 20
229.2223120864
 11
159.2462110767
 21
225.6867781805
  0
LINE
  5
26F
100
AcDbEntity
  8
KONSTRUKTIONSELEMENTE
100
AcDbLine
 62
7
  6
CONTINUOUS
 10
164.4315446591
 20
220.9019061481
 11
160.8960107532
 21
224.4374400541
  0
LINE
  5
270
100
AcDbEntity
  8
KONSTRUKTIONSELEMENTE
100
AcDbLine
 62
7
  6
CONTINUOUS
 10
164.7850980497
 20
221.2554595387
 11
161.2495641438
 21
224.7909934447
  0
LINE
  5
271
100
AcDbEntity
  8
0
100
AcDbLine
 62
7
  6
CONTINUOUS
 10
290.9735069725
 20
197.9496079822
 11
268.9735069725
 21
197.9496079822
  0
LINE
  5
272
100
AcDbEntity
  8
BEZUGSACHSEN
100
AcDbLine
 62
7
  6
CONTINUOUS
 10
296.9735069725
 20
197.9496079822
 11
318.9735069725
 21
197.9496079822
  0
LINE
  5
273
100
AcDbEntity
  8
KONSTRUKTIONSELEMENTE
100
AcDbLine
 62
7
  6
CONTINUOUS
 10
294.3735069725
 20
199.3496079822
 11
293.5735069725
 21
199.3496079822
  0
LINE
  5
274
100
AcDbEntity
  8
KONSTRUKTIONSELEMENTE
100
AcDbLine
 62
7
  6
CONTINUOUS
 10
289.1735069725
 20
203.4496079822
 11
298.7735069725
 21
203.4496079822
  0
LINE
  5
275
100
AcDbEntity
  8
0
100
AcDbLine
 62
7
  6
CONTINUOUS
 10
291.7710066148
 20
160.9540760658
 11
292.5210069725
 21
160.5710973378
  0
LINE
  5
276
100
AcDbEntity
  8
0
100
AcDbLine
 62
7
  6
CONTINUOUS
 10
304.8960069725
 20
168.8051399655
 11
304.1460076877
 21
169.1881186433
  0
LINE
  5
277
100
AcDbEntity
  8
0
100
AcDbLine
 62
7
  6
CONTINUOUS
 10
292.7085073301
 20
161.7200334884
 11
292.1460073301
 21
162.1030123003
  0
LINE
  5
278
100
AcDbEntity
  8
0
100
AcDbLine
 62
7
  6
CONTINUOUS
 10
241.3409868799
 20
155.5478836514
 11
240.8198102714
 21
156.1041307979
  0
LINE
  5
279
100
AcDbEntity
  8
0
100
AcDbLine
 62
7
  6
CONTINUOUS
 10
242.4096631992
 20
159.0850675876
 11
242.9308386725
 21
158.5288200139
  0
LINE
  5
27A
100
AcDbEntity
  8
0
100
AcDbLine
 62
7
  6
CONTINUOUS
 10
252.0938472834
 20
157.5519272307
 11
251.8332601596
 21
157.8300509743
  0
LINE
  5
27B
100
AcDbEntity
  8
0
100
AcDbLine
 62
7
  6
CONTINUOUS
 10
240.4648937236
 20
155.7174771503
 11
240.7439552424
 21
155.3345867706
  0
LINE
  5
27C
100
AcDbEntity
  8
0
100
AcDbLine
 62
7
  6
CONTINUOUS
 10
303.9585062572
 20
168.03918261
 11
304.5210062572
 21
167.6562039323
  0
LINE
  5
27D
100
AcDbEntity
  8
0
100
AcDbLine
 62
7
  6
CONTINUOUS
 10
288.0210069725
 20
168.6136506267
 11
287.2710071513
 21
169.1881186433
  0
LINE
  5
27E
100
AcDbEntity
  8
0
100
AcDbLine
 62
7
  6
CONTINUOUS
 10
243.2857563426
 20
158.915474162
 11
243.0066948366
 21
159.2983644683
  0
LINE
  5
27F
100
AcDbEntity
  8
0
100
AcDbLine
 62
7
  6
CONTINUOUS
 10
251.2362285221
 20
157.6167540935
 11
251.515288867
 21
157.2338635068
  0
LINE
  5
280
100
AcDbEntity
  8
0
100
AcDbLine
 62
7
  6
CONTINUOUS
 10
240.3068903494
 20
156.0136891767
 11
240.4648937236
 21
155.7174771503
  0
LINE
  5
281
100
AcDbEntity
  8
RUNDUNGEN
100
AcDbLine
 62
7
  6
CONTINUOUS
 10
224.2388350385
 20
191.2854344561
 11
232.4029869039
 21
175.9308979756
  0
LINE
  5
282
100
AcDbEntity
  8
RUNDUNGEN
100
AcDbLine
 62
7
  6
CONTINUOUS
 10
197.7786819602
 20
90.7804535543
 11
195.7320071604
 21
105.3433014564
  0
LINE
  5
283
100
AcDbEntity
  8
RUNDUNGEN
100
AcDbLine
 62
7
  6
CONTINUOUS
 10
192.9735069725
 20
110.20839488
 11
192.9735069725
 21
135.6908210843
  0
LINE
  5
284
100
AcDbEntity
  8
BEZUGSACHSEN
100
AcDbLine
 62
7
  6
CONTINUOUS
 10
192.9735069725
 20
115.6344736313
 11
192.9735069725
 21
135.6908210843
  0
LINE
  5
285
100
AcDbEntity
  8
KONSTRUKTIONSELEMENTE
100
AcDbLine
 62
7
  6
CONTINUOUS
 10
289.1735069725
 20
244.4496079822
 11
298.7735069725
 21
244.4496079822
  0
LINE
  5
286
100
AcDbEntity
  8
KONSTRUKTIONSELEMENTE
100
AcDbLine
 62
7
  6
CONTINUOUS
 10
275.4735069725
 20
211.3593066701
 11
289.1735069725
 21
203.4496079822
  0
LINE
  5
287
100
AcDbEntity
  8
0
100
AcDbLine
 62
7
  6
CONTINUOUS
 10
291.0210073301
 20
161.7200334884
 11
291.7710066148
 21
160.9540760658
  0
LINE
  5
288
100
AcDbEntity
  8
0
100
AcDbLine
 62
7
  6
CONTINUOUS
 10
287.0835067937
 20
168.2306719489
 11
287.4585069725
 21
167.8476932712
  0
LINE
  5
289
100
AcDbEntity
  8
0
100
AcDbLine
 62
7
  6
CONTINUOUS
 10
305.6460062572
 20
168.03918261
 11
304.8960069725
 21
168.8051399655
  0
LINE
  5
28A
100
AcDbEntity
  8
0
100
AcDbLine
 62
7
  6
CONTINUOUS
 10
243.4437597685
 20
158.6192618421
 11
243.2857563426
 21
158.915474162
  0
LINE
  5
28B
100
AcDbEntity
  8
0
100
AcDbLine
 62
7
  6
CONTINUOUS
 10
253.9175609752
 20
161.0061963619
 11
254.0755632271
 21
160.709983835
  0
LINE
  5
28C
100
AcDbEntity
  8
0
100
AcDbLine
 62
7
  6
CONTINUOUS
 10
251.8332601596
 20
157.8300509743
 11
251.6567824032
 21
158.2310295634
  0
LINE
  5
28D
100
AcDbEntity
  8
0
100
AcDbLine
 62
7
  6
CONTINUOUS
 10
233.8995085078
 20
154.559822598
 11
232.4138000036
 21
158.1867199689
  0
LINE
  5
28E
100
AcDbEntity
  8
0
100
AcDbLine
 62
7
  6
CONTINUOUS
 10
232.1697224113
 20
157.171465651
 11
233.6923773578
 21
153.3350345939
  0
LINE
  5
28F
100
AcDbEntity
  8
0
100
AcDbLine
 62
7
  6
CONTINUOUS
 10
240.111939359
 20
156.5194346823
 11
240.3068903494
 21
156.0136891767
  0
LINE
  5
290
100
AcDbEntity
  8
0
100
AcDbLine
 62
7
  6
CONTINUOUS
 10
243.6387095591
 20
158.1135162763
 11
243.4437597685
 21
158.6192618421
  0
LINE
  5
291
100
AcDbEntity
  8
0
100
AcDbLine
 62
7
  6
CONTINUOUS
 10
229.5414440084
 20
157.6802461087
 11
231.230358122
 21
152.9009141756
  0
LINE
  5
292
100
AcDbEntity
  8
0
100
AcDbLine
 62
7
  6
CONTINUOUS
 10
231.4374894188
 20
154.1257022056
 11
230.156948854
 21
157.7887762197
  0
LINE
  5
293
100
AcDbEntity
  8
0
100
AcDbLine
 62
7
  6
CONTINUOUS
 10
240.8198102714
 20
156.1041307979
 11
240.6063872468
 21
156.7146432802
  0
LINE
  5
294
100
AcDbEntity
  8
BEZUGSACHSEN
100
AcDbLine
 62
7
  6
CONTINUOUS
 10
212.2150061795
 20
140.555918813
 11
210.1683322784
 21
155.1187603206
  0
LWPOLYLINE
  5
295
100
AcDbEntity
  8
RUNDUNGEN
100
AcDbPolyline
 62
7
  6
CONTINUOUS
 90
4
 70
0
 10
210.0950069725
 20
109.9653281559
 10
210.0902571585
 20
110.0848585775
 10
210.0760373554
 20
110.2036373665
 10
210.0718693585
 20
110.2283358232
  0
LINE
  5
296
100
AcDbEntity
  8
RUNDUNGEN
100
AcDbLine
 62
7
  6
CONTINUOUS
 10
197.8520069725
 20
71.6197021576
 11
197.8520069725
 21
109.965382129
  0
LINE
  5
297
100
AcDbEntity
  8
RUNDUNGEN
100
AcDbLine
 62
7
  6
CONTINUOUS
 10
197.8520069725
 20
156.1673605946
 11
197.8520069725
 21
174.2795138067
  0
LINE
  5
298
100
AcDbEntity
  8
BEZUGSACHSEN
100
AcDbLine
 62
7
  6
CONTINUOUS
 10
197.8520069725
 20
156.1673605946
 11
197.8520069725
 21
174.2795138067
  0
LINE
  5
299
100
AcDbEntity
  8
RUNDUNGEN
100
AcDbLine
 62
7
  6
CONTINUOUS
 10
203.9735069725
 20
103.986413288
 11
203.9735069725
 21
103.9410859822
  0
LINE
  5
29A
100
AcDbEntity
  8
0
100
AcDbLine
 62
7
  6
CONTINUOUS
 10
206.9735069725
 20
363.9496079822
 11
206.9735069725
 21
453.9496079822
  0
LINE
  5
29B
100
AcDbEntity
  8
BEZUGSACHSEN
100
AcDbLine
 62
7
  6
CONTINUOUS
 10
210.0950069725
 20
71.6197021576
 11
210.0950069725
 21
103.9814633034
  0
LINE
  5
29C
100
AcDbEntity
  8
RUNDUNGEN
100
AcDbLine
 62
7
  6
CONTINUOUS
 10
210.0950069725
 20
103.9410859822
 11
210.0950069725
 21
109.9654085903
  0
LINE
  5
29D
100
AcDbEntity
  8
BEZUGSACHSEN
100
AcDbLine
 62
7
  6
CONTINUOUS
 10
210.0950069725
 20
156.1673605946
 11
210.0950069725
 21
174.2795138067
  0
LINE
  5
29E
100
AcDbEntity
  8
KONSTRUKTIONSELEMENTE
100
AcDbLine
 62
7
  6
CONTINUOUS
 10
303.7305557066
 20
264.1496079822
 11
304.7735069725
 21
264.1496079822
  0
LINE
  5
29F
100
AcDbEntity
  8
KONSTRUKTIONSELEMENTE
100
AcDbLine
 62
7
  6
CONTINUOUS
 10
303.7305557066
 20
264.8256909576
 11
304.7735069725
 21
264.8256909576
  0
LINE
  5
2A0
100
AcDbEntity
  8
KONSTRUKTIONSELEMENTE
100
AcDbLine
 62
7
  6
CONTINUOUS
 10
304.3735069725
 20
266.4032178464
 11
304.7735069725
 21
266.4032178464
  0
LINE
  5
2A1
100
AcDbEntity
  8
KONSTRUKTIONSELEMENTE
100
AcDbLine
 62
7
  6
CONTINUOUS
 10
303.7305557066
 20
267.9807447353
 11
304.7735069725
 21
267.9807447353
  0
LINE
  5
2A2
100
AcDbEntity
  8
KONSTRUKTIONSELEMENTE
100
AcDbLine
 62
7
  6
CONTINUOUS
 10
303.7305557066
 20
268.6568277107
 11
304.7735069725
 21
268.6568277107
  0
LINE
  5
2A3
100
AcDbEntity
  8
KONSTRUKTIONSELEMENTE
100
AcDbLine
 62
7
  6
CONTINUOUS
 10
304.3735069725
 20
268.9752690145
 11
304.7735069725
 21
268.9752690145
  0
LINE
  5
2A4
100
AcDbEntity
  8
BEZUGSACHSEN
100
AcDbLine
 62
7
  6
CONTINUOUS
 10
340.1145325248
 20
209.4932490179
 11
361.6407987561
 21
198.0475302343
  0
LINE
  5
2A5
100
AcDbEntity
  8
RUNDUNGEN
100
AcDbLine
 62
7
  6
CONTINUOUS
 10
374.8786204129
 20
107.0549293174
 11
373.8562252234
 21
108.0773245069
  0
LINE
  5
2A6
100
AcDbEntity
  8
0
100
AcDbLine
 62
7
  6
CONTINUOUS
 10
288.5835069725
 20
167.8476932712
 11
288.0210069725
 21
168.6136506267
  0
LINE
  5
2A7
100
AcDbEntity
  8
0
100
AcDbLine
 62
7
  6
CONTINUOUS
 10
292.1460073301
 20
162.1030123003
 11
291.7710066148
 21
162.6774803169
  0
LINE
  5
2A8
100
AcDbEntity
  8
0
100
AcDbLine
 62
7
  6
CONTINUOUS
 10
251.0412775576
 20
158.1224994524
 11
251.2362285221
 21
157.6167540935
  0
LINE
  5
2A9
100
AcDbEntity
  8
0
100
AcDbLine
 62
7
  6
CONTINUOUS
 10
254.6910680728
 20
160.8185139461
 11
254.4961194044
 21
161.3242600125
  0
LINE
  5
2AA
100
AcDbEntity
  8
0
100
AcDbLine
 62
7
  6
CONTINUOUS
 10
242.9308386725
 20
158.5288200139
 11
243.1442628452
 21
157.9183078853
  0
LINE
  5
2AB
100
AcDbEntity
  8
0
100
AcDbLine
 62
7
  6
CONTINUOUS
 10
228.1052660841
 20
157.4270091916
 11
228.9735069725
 21
152.5029704265
  0
LINE
  5
2AC
100
AcDbEntity
  8
0
100
AcDbLine
 62
7
  6
CONTINUOUS
 10
229.5890118181
 20
152.6115005375
 11
228.7207709298
 21
157.5355393026
  0
LINE
  5
2AD
100
AcDbEntity
  8
0
100
AcDbLine
 62
7
  6
CONTINUOUS
 10
235.747986402
 20
156.0740243177
 11
235.8403524688
 21
155.5501903223
  0
LINE
  5
2AE
100
AcDbEntity
  8
0
100
AcDbLine
 62
7
  6
CONTINUOUS
 10
237.2765302463
 20
155.8034272135
 11
237.1841641794
 21
156.327261209
  0
LINE
  5
2AF
100
AcDbEntity
  8
0
100
AcDbLine
 62
7
  6
CONTINUOUS
 10
237.6723193122
 20
158.3577701381
 11
237.8201050294
 21
157.5196356867
  0
LINE
  5
2B0
100
AcDbEntity
  8
0
100
AcDbLine
 62
7
  6
CONTINUOUS
 10
238.306297953
 20
158.3615335829
 11
239.0267531758
 21
154.2756289759
  0
LINE
  5
2B1
100
AcDbEntity
  8
0
100
AcDbLine
 62
7
  6
CONTINUOUS
 10
233.849977781
 20
158.4399568601
 11
233.8995085078
 21
154.559822598
  0
LINE
  5
2B2
100
AcDbEntity
  8
RUNDUNGEN
100
AcDbLine
 62
7
  6
CONTINUOUS
 10
214.9735069725
 20
110.20839488
 11
214.9735069725
 21
116.8583235398
  0
LINE
  5
2B3
100
AcDbEntity
  8
BEZUGSACHSEN
100
AcDbLine
 62
7
  6
CONTINUOUS
 10
214.9735069725
 20
110.20839488
 11
214.9735069725
 21
135.6908210843
  0
LINE
  5
2B4
100
AcDbEntity
  8
RUNDUNGEN
100
AcDbLine
 62
7
  6
CONTINUOUS
 10
195.7320077654
 20
140.555918813
 11
197.7786816666
 21
155.1187603206
  0
LINE
  5
2B5
100
AcDbEntity
  8
BEZUGSACHSEN
100
AcDbLine
 62
7
  6
CONTINUOUS
 10
195.7320077654
 20
140.555918813
 11
197.7786816666
 21
155.1187603206
  0
LWPOLYLINE
  5
2B6
100
AcDbEntity
  8
RUNDUNGEN
100
AcDbPolyline
 62
7
  6
CONTINUOUS
 90
4
 70
0
 10
197.8751448099
 20
110.2283399041
 10
197.8709767572
 20
110.203641039
 10
197.8567568318
 20
110.0848608406
 10
197.8520069725
 20
109.965328924
  0
LINE
  5
2B7
100
AcDbEntity
  8
KONSTRUKTIONSELEMENTE
100
AcDbLine
 62
7
  6
CONTINUOUS
 10
146.8952964857
 20
230.377137016
 11
155.3098671818
 21
238.7917077121
  0
LINE
  5
2B8
100
AcDbEntity
  8
KONSTRUKTIONSELEMENTE
100
AcDbLine
 62
7
  6
CONTINUOUS
 10
208.4135864489
 20
291.8954269793
 11
216.828157145
 21
300.3099976754
  0
LINE
  5
2B9
100
AcDbEntity
  8
KONSTRUKTIONSELEMENTE
100
AcDbLine
 62
7
  6
CONTINUOUS
 10
188.2610431851
 20
269.5508526938
 11
177.6544414673
 21
258.944250976
  0
LINE
  5
2BA
100
AcDbEntity
  8
KONSTRUKTIONSELEMENTE
100
AcDbLine
 62
7
  6
CONTINUOUS
 10
303.7305557066
 20
269.5582717853
 11
304.7735069725
 21
269.5582717853
  0
LINE
  5
2BB
100
AcDbEntity
  8
KONSTRUKTIONSELEMENTE
100
AcDbLine
 62
7
  6
CONTINUOUS
 10
303.7305557066
 20
270.2343547607
 11
304.7735069725
 21
270.2343547607
  0
LINE
  5
2BC
100
AcDbEntity
  8
KONSTRUKTIONSELEMENTE
100
AcDbLine
 62
7
  6
CONTINUOUS
 10
304.3735069725
 20
271.8118814884
 11
304.7735069725
 21
271.8118814884
  0
LINE
  5
2BD
100
AcDbEntity
  8
KONSTRUKTIONSELEMENTE
100
AcDbLine
 62
7
  6
CONTINUOUS
 10
303.7305557066
 20
273.3894088608
 11
304.7735069725
 21
273.3894088608
  0
LINE
  5
2BE
100
AcDbEntity
  8
KONSTRUKTIONSELEMENTE
100
AcDbLine
 62
7
  6
CONTINUOUS
 10
303.7305557066
 20
274.0654918362
 11
304.7735069725
 21
274.0654918362
  0
LINE
  5
2BF
100
AcDbEntity
  8
KONSTRUKTIONSELEMENTE
100
AcDbLine
 62
7
  6
CONTINUOUS
 10
304.3735069725
 20
274.1231953585
 11
304.7735069725
 21
274.1231953585
  0
LINE
  5
2C0
100
AcDbEntity
  8
KONSTRUKTIONSELEMENTE
100
AcDbLine
 62
7
  6
CONTINUOUS
 10
304.3735069725
 20
274.5296106166
 11
304.7735069725
 21
274.5296106166
  0
LINE
  5
2C1
100
AcDbEntity
  8
KONSTRUKTIONSELEMENTE
100
AcDbLine
 62
7
  6
CONTINUOUS
 10
304.3735069725
 20
274.6650826276
 11
304.7735069725
 21
274.6650826276
  0
LINE
  5
2C2
100
AcDbEntity
  8
KONSTRUKTIONSELEMENTE
100
AcDbLine
 62
7
  6
CONTINUOUS
 10
304.3735069725
 20
274.9360258746
 11
304.7735069725
 21
274.9360258746
  0
LINE
  5
2C3
100
AcDbEntity
  8
KONSTRUKTIONSELEMENTE
100
AcDbLine
 62
7
  6
CONTINUOUS
 10
304.3528401328
 20
274.9669355884
 11
304.7735069725
 21
274.9669355884
  0
LINE
  5
2C4
100
AcDbEntity
  8
KONSTRUKTIONSELEMENTE
100
AcDbLine
 62
7
  6
CONTINUOUS
 10
304.3528401328
 20
276.5444629609
 11
304.7735069725
 21
276.5444629609
  0
LINE
  5
2C5
100
AcDbEntity
  8
KONSTRUKTIONSELEMENTE
100
AcDbLine
 62
7
  6
CONTINUOUS
 10
304.3735069725
 20
277.4459060684
 11
304.7735069725
 21
277.4459060684
  0
LINE
  5
2C6
100
AcDbEntity
  8
KONSTRUKTIONSELEMENTE
100
AcDbLine
 62
7
  6
CONTINUOUS
 10
304.2290026516
 20
277.7839475561
 11
304.7735069725
 21
277.7839475561
  0
LINE
  5
2C7
100
AcDbEntity
  8
KONSTRUKTIONSELEMENTE
100
AcDbLine
 62
7
  6
CONTINUOUS
 10
304.0907731952
 20
277.8966289116
 11
304.7735069725
 21
277.8966289116
  0
LINE
  5
2C8
100
AcDbEntity
  8
KONSTRUKTIONSELEMENTE
100
AcDbLine
 62
7
  6
CONTINUOUS
 10
303.9040580094
 20
278.3473504654
 11
304.7735069725
 21
278.3473504654
  0
LINE
  5
2C9
100
AcDbEntity
  8
KONSTRUKTIONSELEMENTE
100
AcDbLine
 62
7
  6
CONTINUOUS
 10
303.7916819246
 20
278.7980720191
 11
304.7735069725
 21
278.7980720191
  0
LINE
  5
2CA
100
AcDbEntity
  8
KONSTRUKTIONSELEMENTE
100
AcDbLine
 62
7
  6
CONTINUOUS
 10
303.7305557066
 20
279.2487948624
 11
304.7735069725
 21
279.2487948624
  0
LINE
  5
2CB
100
AcDbEntity
  8
KONSTRUKTIONSELEMENTE
100
AcDbLine
 62
7
  6
CONTINUOUS
 10
303.7305557066
 20
279.8121964822
 11
304.7735069725
 21
279.8121964822
  0
LINE
  5
2CC
100
AcDbEntity
  8
KONSTRUKTIONSELEMENTE
100
AcDbLine
 62
7
  6
CONTINUOUS
 10
303.7916819246
 20
280.3755993916
 11
304.7735069725
 21
280.3755993916
  0
LINE
  5
2CD
100
AcDbEntity
  8
KONSTRUKTIONSELEMENTE
100
AcDbLine
 62
7
  6
CONTINUOUS
 10
303.9554190646
 20
280.8263209453
 11
304.7735069725
 21
280.8263209453
  0
LINE
  5
2CE
100
AcDbEntity
  8
KONSTRUKTIONSELEMENTE
100
AcDbLine
 62
7
  6
CONTINUOUS
 10
304.1297868971
 20
281.164362433
 11
304.7735069725
 21
281.164362433
  0
LINE
  5
2CF
100
AcDbEntity
  8
KONSTRUKTIONSELEMENTE
100
AcDbLine
 62
7
  6
CONTINUOUS
 10
304.2290026516
 20
281.2770437886
 11
304.7735069725
 21
281.2770437886
  0
LINE
  5
2D0
100
AcDbEntity
  8
KONSTRUKTIONSELEMENTE
100
AcDbLine
 62
7
  6
CONTINUOUS
 10
304.3735069725
 20
281.3897238547
 11
304.7735069725
 21
281.3897238547
  0
LINE
  5
2D1
100
AcDbEntity
  8
KONSTRUKTIONSELEMENTE
100
AcDbLine
 62
7
  6
CONTINUOUS
 10
304.3735069725
 20
281.6150852763
 11
304.7735069725
 21
281.6150852763
  0
LINE
  5
2D2
100
AcDbEntity
  8
KONSTRUKTIONSELEMENTE
100
AcDbLine
 62
7
  6
CONTINUOUS
 10
304.3364978616
 20
282.5165283838
 11
304.7735069725
 21
282.5165283838
  0
LINE
  5
2D3
100
AcDbEntity
  8
KONSTRUKTIONSELEMENTE
100
AcDbLine
 62
7
  6
CONTINUOUS
 10
304.2290026516
 20
282.6292097394
 11
304.7735069725
 21
282.6292097394
  0
LINE
  5
2D4
100
AcDbEntity
  8
KONSTRUKTIONSELEMENTE
100
AcDbLine
 62
7
  6
CONTINUOUS
 10
304.0907731952
 20
282.8545698715
 11
304.7735069725
 21
282.8545698715
  0
LINE
  5
2D5
100
AcDbEntity
  8
KONSTRUKTIONSELEMENTE
100
AcDbLine
 62
7
  6
CONTINUOUS
 10
303.9040580094
 20
283.3052927148
 11
304.7735069725
 21
283.3052927148
  0
LINE
  5
2D6
100
AcDbEntity
  8
KONSTRUKTIONSELEMENTE
100
AcDbLine
 62
7
  6
CONTINUOUS
 10
303.7916819246
 20
283.7560142685
 11
304.7735069725
 21
283.7560142685
  0
LINE
  5
2D7
100
AcDbEntity
  8
KONSTRUKTIONSELEMENTE
100
AcDbLine
 62
7
  6
CONTINUOUS
 10
303.7305557066
 20
284.3194171779
 11
304.7735069725
 21
284.3194171779
  0
LINE
  5
2D8
100
AcDbEntity
  8
KONSTRUKTIONSELEMENTE
100
AcDbLine
 62
7
  6
CONTINUOUS
 10
303.7305557066
 20
285.333541641
 11
304.7735069725
 21
285.333541641
  0
LINE
  5
2D9
100
AcDbEntity
  8
KONSTRUKTIONSELEMENTE
100
AcDbLine
 62
7
  6
CONTINUOUS
 10
303.7916819246
 20
285.8969445503
 11
304.7735069725
 21
285.8969445503
  0
LINE
  5
2DA
100
AcDbEntity
  8
KONSTRUKTIONSELEMENTE
100
AcDbLine
 62
7
  6
CONTINUOUS
 10
303.9040580094
 20
286.3476648145
 11
304.7735069725
 21
286.3476648145
  0
LINE
  5
2DB
100
AcDbEntity
  8
KONSTRUKTIONSELEMENTE
100
AcDbLine
 62
7
  6
CONTINUOUS
 10
304.0907731952
 20
286.7983876578
 11
304.7735069725
 21
286.7983876578
  0
LINE
  5
2DC
100
AcDbEntity
  8
KONSTRUKTIONSELEMENTE
100
AcDbLine
 62
7
  6
CONTINUOUS
 10
304.2562284102
 20
286.9110690134
 11
304.7735069725
 21
286.9110690134
  0
LINE
  5
2DD
100
AcDbEntity
  8
KONSTRUKTIONSELEMENTE
100
AcDbLine
 62
7
  6
CONTINUOUS
 10
303.7305557066
 20
287.8125121209
 11
304.7735069725
 21
287.8125121209
  0
LINE
  5
2DE
100
AcDbEntity
  8
BEZUGSACHSEN
100
AcDbLine
 62
7
  6
CONTINUOUS
 10
327.4309462475
 20
233.2257822292
 11
397.1187107305
 21
196.1721405822
  0
LINE
  5
2DF
100
AcDbEntity
  8
KONSTRUKTIONSELEMENTE
100
AcDbLine
 62
7
  6
CONTINUOUS
 10
312.4735069725
 20
236.0780290789
 11
298.7735069725
 21
243.9877277668
  0
LINE
  5
2E0
100
AcDbEntity
  8
KONSTRUKTIONSELEMENTE
100
AcDbLine
 62
7
  6
CONTINUOUS
 10
225.9498346223
 20
282.4201961114
 11
222.4143007164
 21
285.9557300173
  0
LINE
  5
2E1
100
AcDbEntity
  8
KONSTRUKTIONSELEMENTE
100
AcDbLine
 62
7
  6
CONTINUOUS
 10
226.3033880129
 20
282.7737495019
 11
222.767854107
 21
286.3092834079
  0
LINE
  5
2E2
100
AcDbEntity
  8
0
100
AcDbLine
 62
7
  6
CONTINUOUS
 10
304.5210062572
 20
167.6562039323
 11
304.8960069725
 21
167.0817353792
  0
LINE
  5
2E3
100
AcDbEntity
  8
0
100
AcDbLine
 62
7
  6
CONTINUOUS
 10
290.6460071513
 20
162.485990978
 11
291.0210073301
 21
161.7200334884
  0
LINE
  5
2E4
100
AcDbEntity
  8
0
100
AcDbLine
 62
7
  6
CONTINUOUS
 10
239.6422580214
 20
154.3841590869
 11
238.7740171331
 21
159.308197852
  0
LINE
  5
2E5
100
AcDbEntity
  8
0
100
AcDbLine
 62
7
  6
CONTINUOUS
 10
239.9456804853
 20
157.46233561
 11
240.111939359
 21
156.5194346823
  0
LINE
  5
2E6
100
AcDbEntity
  8
0
100
AcDbLine
 62
7
  6
CONTINUOUS
 10
240.6063872468
 20
156.7146432802
 11
240.4770747895
 21
157.4480106685
  0
LINE
  5
2E7
100
AcDbEntity
  8
0
100
AcDbLine
 62
7
  6
CONTINUOUS
 10
243.1442628452
 20
157.9183078853
 11
243.2735753025
 21
157.1849404971
  0
LINE
  5
2E8
100
AcDbEntity
  8
0
100
AcDbLine
 62
7
  6
CONTINUOUS
 10
243.8049684328
 20
157.1706153485
 11
243.6387095591
 21
158.1135162763
  0
LINE
  5
2E9
100
AcDbEntity
  8
0
100
AcDbLine
 62
7
  6
CONTINUOUS
 10
249.0324308357
 20
161.117032967
 11
249.900671724
 21
156.1929942019
  0
LINE
  5
2EA
100
AcDbEntity
  8
0
100
AcDbLine
 62
7
  6
CONTINUOUS
 10
250.5161765696
 20
156.301524313
 11
249.6479356813
 21
161.225563078
  0
LINE
  5
2EB
100
AcDbEntity
  8
0
100
AcDbLine
 62
7
  6
CONTINUOUS
 10
250.7641794089
 20
159.6940011453
 11
251.0412775576
 21
158.1224994524
  0
LINE
  5
2EC
100
AcDbEntity
  8
0
100
AcDbLine
 62
7
  6
CONTINUOUS
 10
251.6567824032
 20
158.2310295634
 11
251.3796842545
 21
159.8025312564
  0
LINE
  5
2ED
100
AcDbEntity
  8
0
100
AcDbLine
 62
7
  6
CONTINUOUS
 10
255.2900642156
 20
162.2204225672
 11
256.1583051039
 21
157.2963838022
  0
LINE
  5
2EE
100
AcDbEntity
  8
0
100
AcDbLine
 62
7
  6
CONTINUOUS
 10
256.6629706875
 20
158.0335146051
 11
256.3673993177
 21
159.7097831411
  0
LINE
  5
2EF
100
AcDbEntity
  8
0
100
AcDbLine
 62
7
  6
CONTINUOUS
 10
256.2565600685
 20
160.3383837596
 11
256.0164083103
 21
161.7003520598
  0
LINE
  5
2F0
100
AcDbEntity
  8
0
100
AcDbLine
 62
7
  6
CONTINUOUS
 10
240.4770747895
 20
157.4480106685
 11
240.46881929
 21
158.0946995698
  0
LINE
  5
2F1
100
AcDbEntity
  8
0
100
AcDbLine
 62
7
  6
CONTINUOUS
 10
243.2735753025
 20
157.1849404971
 11
243.2818296539
 21
156.538251242
  0
LINE
  5
2F2
100
AcDbEntity
  8
0
100
AcDbLine
 62
7
  6
CONTINUOUS
 10
234.5130505832
 20
153.4797414259
 11
234.4654826267
 21
158.5484869712
  0
LINE
  5
2F3
100
AcDbEntity
  8
0
100
AcDbLine
 62
7
  6
CONTINUOUS
 10
238.9735069725
 20
363.9496079822
 11
238.9735069725
 21
453.9496079822
  0
LINE
  5
2F4
100
AcDbEntity
  8
0
100
AcDbLine
 62
7
  6
CONTINUOUS
 10
239.9558993679
 20
158.0042579486
 11
239.9456804853
 21
157.46233561
  0
LINE
  5
2F5
100
AcDbEntity
  8
0
100
AcDbLine
 62
7
  6
CONTINUOUS
 10
243.79475075
 20
156.6286930702
 11
243.8049684328
 21
157.1706153485
  0
LINE
  5
2F6
100
AcDbEntity
  8
0
100
AcDbLine
 62
7
  6
CONTINUOUS
 10
232.0510312006
 20
153.0456209817
 11
232.1697224113
 21
157.171465651
  0
LINE
  5
2F7
100
AcDbEntity
  8
0
100
AcDbLine
 62
7
  6
CONTINUOUS
 10
231.5931267782
 20
158.0420131369
 11
231.4374894188
 21
154.1257022056
  0
LINE
  5
2F8
100
AcDbEntity
  8
BEZUGSACHSEN
100
AcDbLine
 62
7
  6
CONTINUOUS
 10
210.1683319847
 20
90.7804535543
 11
212.2150067845
 21
105.3433014564
  0
LINE
  5
2F9
100
AcDbEntity
  8
KONSTRUKTIONSELEMENTE
100
AcDbLine
 62
7
  6
CONTINUOUS
 10
150.4308303916
 20
226.8416031101
 11
158.8454010877
 21
235.2561738062
  0
LINE
  5
2FA
100
AcDbEntity
  8
KONSTRUKTIONSELEMENTE
100
AcDbLine
 62
7
  6
CONTINUOUS
 10
211.9491203548
 20
288.3598930733
 11
220.363691051
 21
296.7744637694
  0
LINE
  5
2FB
100
AcDbEntity
  8
KONSTRUKTIONSELEMENTE
100
AcDbLine
 62
7
  6
CONTINUOUS
 10
255.0826340072
 20
330.0084824852
 11
221.8486152914
 21
296.7744637694
  0
LINE
  5
2FC
100
AcDbEntity
  8
KONSTRUKTIONSELEMENTE
100
AcDbLine
 62
7
  6
CONTINUOUS
 10
191.4430237004
 20
266.3688721784
 11
180.8364219826
 21
255.7622704606
  0
LINE
  5
2FD
100
AcDbEntity
  8
RUNDUNGEN
100
AcDbLine
 62
7
  6
CONTINUOUS
 10
85.730559913
 20
159.2421948287
 11
155.7105451222
 21
229.2221800378
  0
LINE
  5
2FE
100
AcDbEntity
  8
KONSTRUKTIONSELEMENTE
100
AcDbLine
 62
7
  6
CONTINUOUS
 10
162.0980922812
 20
235.2561738062
 11
180.8067772564
 21
253.9648587814
  0
LINE
  5
2FF
100
AcDbEntity
  8
KONSTRUKTIONSELEMENTE
100
AcDbLine
 62
7
  6
CONTINUOUS
 10
193.2107906534
 20
266.3688721784
 11
211.9194756286
 21
285.0775571536
  0
LINE
  5
300
100
AcDbEntity
  8
KONSTRUKTIONSELEMENTE
100
AcDbLine
 62
7
  6
CONTINUOUS
 10
165.2800727965
 20
232.0741932909
 11
183.9887577717
 21
250.7828782661
  0
LINE
  5
301
100
AcDbEntity
  8
KONSTRUKTIONSELEMENTE
100
AcDbLine
 62
7
  6
CONTINUOUS
 10
196.3927711687
 20
263.1868916631
 11
215.1014561439
 21
281.8955766383
  0
LINE
  5
302
100
AcDbEntity
  8
RUNDUNGEN
100
AcDbLine
 62
7
  6
CONTINUOUS
 10
89.266093819
 20
155.7066609227
 11
159.2460604992
 21
225.686627603
  0
LINE
  5
303
100
AcDbEntity
  8
KONSTRUKTIONSELEMENTE
100
AcDbLine
 62
7
  6
CONTINUOUS
 10
260.0323814755
 20
325.0587350169
 11
226.8448272882
 21
291.8711808295
  0
LINE
  5
304
100
AcDbEntity
  8
KONSTRUKTIONSELEMENTE
100
AcDbLine
 62
7
  6
CONTINUOUS
 10
185.7861694509
 20
250.8125229923
 11
196.3927711687
 21
261.4191247101
  0
LINE
  5
305
100
AcDbEntity
  8
KONSTRUKTIONSELEMENTE
100
AcDbLine
 62
7
  6
CONTINUOUS
 10
226.7983627598
 20
290.3397920606
 11
222.767854107
 21
286.3092834079
  0
LINE
  5
306
100
AcDbEntity
  8
KONSTRUKTIONSELEMENTE
100
AcDbLine
 62
7
  6
CONTINUOUS
 10
222.4143007164
 20
285.9557300173
 11
218.3837920636
 21
281.9252213645
  0
LINE
  5
307
100
AcDbEntity
  8
KONSTRUKTIONSELEMENTE
100
AcDbLine
 62
7
  6
CONTINUOUS
 10
165.2800727965
 20
228.8215020974
 11
161.2495641438
 21
224.7909934447
  0
LINE
  5
308
100
AcDbEntity
  8
KONSTRUKTIONSELEMENTE
100
AcDbLine
 62
7
  6
CONTINUOUS
 10
160.8960107532
 20
224.4374400541
 11
156.8655021004
 21
220.4069314013
  0
LINE
  5
309
100
AcDbEntity
  8
KONSTRUKTIONSELEMENTE
100
AcDbLine
 62
7
  6
CONTINUOUS
 10
188.9681499663
 20
247.630542477
 11
199.5747516841
 21
258.2371441948
  0
LINE
  5
30A
100
AcDbEntity
  8
KONSTRUKTIONSELEMENTE
100
AcDbLine
 62
7
  6
CONTINUOUS
 10
230.3338966657
 20
286.8042581547
 11
226.3033880129
 21
282.7737495019
  0
LINE
  5
30B
100
AcDbEntity
  8
KONSTRUKTIONSELEMENTE
100
AcDbLine
 62
7
  6
CONTINUOUS
 10
225.9498346223
 20
282.4201961114
 11
221.9193259696
 21
278.3896874586
  0
LINE
  5
30C
100
AcDbEntity
  8
KONSTRUKTIONSELEMENTE
100
AcDbLine
 62
7
  6
CONTINUOUS
 10
168.8156067025
 20
225.2859681915
 11
164.7850980497
 21
221.2554595387
  0
LINE
  5
30D
100
AcDbEntity
  8
KONSTRUKTIONSELEMENTE
100
AcDbLine
 62
7
  6
CONTINUOUS
 10
164.4315446591
 20
220.9019061481
 11
160.4010360063
 21
216.8713974954
  0
LINE
  5
30E
100
AcDbEntity
  8
KONSTRUKTIONSELEMENTE
100
AcDbLine
 62
7
  6
CONTINUOUS
 10
303.7305557066
 20
288.4885950963
 11
304.7735069725
 21
288.4885950963
  0
LINE
  5
30F
100
AcDbEntity
  8
KONSTRUKTIONSELEMENTE
100
AcDbLine
 62
7
  6
CONTINUOUS
 10
303.7305557066
 20
291.6436498411
 11
304.7735069725
 21
291.6436498411
  0
LINE
  5
310
100
AcDbEntity
  8
KONSTRUKTIONSELEMENTE
100
AcDbLine
 62
7
  6
CONTINUOUS
 10
303.7305557066
 20
292.3197328165
 11
304.7735069725
 21
292.3197328165
  0
LINE
  5
311
100
AcDbEntity
  8
BEZUGSACHSEN
100
AcDbLine
 62
7
  6
CONTINUOUS
 10
394.0907620511
 20
137.8219181279
 11
393.0684010261
 21
138.8442791528
  0
LINE
  5
312
100
AcDbEntity
  8
0
100
AcDbLine
 62
7
  6
CONTINUOUS
 10
306.0210069725
 20
167.2732252545
 11
305.6460062572
 21
168.03918261
  0
LINE
  5
313
100
AcDbEntity
  8
0
100
AcDbLine
 62
7
  6
CONTINUOUS
 10
288.9585071513
 20
160.3796079822
 11
287.2710071513
 21
164.7838633127
  0
LINE
  5
314
100
AcDbEntity
  8
0
100
AcDbLine
 62
7
  6
CONTINUOUS
 10
286.1460068831
 20
164.400884635
 11
287.6460067937
 21
160.3796079822
  0
LINE
  5
315
100
AcDbEntity
  8
0
100
AcDbLine
 62
7
  6
CONTINUOUS
 10
287.4585069725
 20
167.8476932712
 11
287.6460067937
 21
167.2732252545
  0
LINE
  5
316
100
AcDbEntity
  8
0
100
AcDbLine
 62
7
  6
CONTINUOUS
 10
288.7710067937
 20
167.2732252545
 11
288.5835069725
 21
167.8476932712
  0
LINE
  5
317
100
AcDbEntity
  8
0
100
AcDbLine
 62
7
  6
CONTINUOUS
 10
259.0345861994
 20
160.180080151
 11
258.9237469503
 21
160.8086807695
  0
LINE
  5
318
100
AcDbEntity
  8
0
100
AcDbLine
 62
7
  6
CONTINUOUS
 10
259.8513341777
 20
157.9475644684
 11
259.7404949156
 21
158.5761651603
  0
LINE
  5
319
100
AcDbEntity
  8
0
100
AcDbLine
 62
7
  6
CONTINUOUS
 10
259.0939325385
 20
162.243002615
 11
258.9830932894
 21
162.8716032335
  0
LINE
  5
31A
100
AcDbEntity
  8
KONSTRUKTIONSELEMENTE
100
AcDbLine
 62
7
  6
CONTINUOUS
 10
268.9735069725
 20
223.9496079822
 11
268.9735069725
 21
242.6428515899
  0
LINE
  5
31B
100
AcDbEntity
  8
0
100
AcDbLine
 62
7
  6
CONTINUOUS
 10
250.7743982398
 20
160.2359237774
 11
250.7641794089
 21
159.6940011453
  0
LINE
  5
31C
100
AcDbEntity
  8
0
100
AcDbLine
 62
7
  6
CONTINUOUS
 10
255.1057353652
 20
157.8669560972
 11
255.115951887
 21
158.4088780952
  0
LINE
  5
31D
100
AcDbEntity
  8
0
100
AcDbLine
 62
7
  6
CONTINUOUS
 10
251.3796842545
 20
159.8025312564
 11
251.4083763454
 21
160.2396868252
  0
LINE
  5
31E
100
AcDbEntity
  8
0
100
AcDbLine
 62
7
  6
CONTINUOUS
 10
240.0030634412
 20
158.3366468342
 11
239.9558993679
 21
158.0042579486
  0
LINE
  5
31F
100
AcDbEntity
  8
0
100
AcDbLine
 62
7
  6
CONTINUOUS
 10
243.7475866249
 20
156.2963044781
 11
243.79475075
 21
156.6286930702
  0
LINE
  5
320
100
AcDbEntity
  8
BEZUGSACHSEN
100
AcDbLine
 62
7
  6
CONTINUOUS
 10
318.9735069725
 20
197.9496079822
 11
326.8975757147
 21
182.0563848583
  0
LINE
  5
321
100
AcDbEntity
  8
0
100
AcDbLine
 62
7
  6
CONTINUOUS
 10
291.7710066148
 20
162.6774803169
 11
291.5835073301
 21
163.4434376724
  0
LINE
  5
322
100
AcDbEntity
  8
0
100
AcDbLine
 62
7
  6
CONTINUOUS
 10
304.8960069725
 20
167.0817353792
 11
305.0835062572
 21
166.3157780237
  0
LINE
  5
323
100
AcDbEntity
  8
0
100
AcDbLine
 62
7
  6
CONTINUOUS
 10
290.4585067937
 20
163.4434376724
 11
290.6460071513
 21
162.485990978
  0
LINE
  5
324
100
AcDbEntity
  8
KONSTRUKTIONSELEMENTE
100
AcDbLine
 62
7
  6
CONTINUOUS
 10
275.4735069725
 20
236.0780290789
 11
275.4735069725
 21
211.3593066701
  0
LINE
  5
325
100
AcDbEntity
  8
0
100
AcDbLine
 62
7
  6
CONTINUOUS
 10
281.8335069725
 20
169.3796079822
 11
281.8335069725
 21
160.3796079822
  0
LINE
  5
326
100
AcDbEntity
  8
0
100
AcDbLine
 62
7
  6
CONTINUOUS
 10
282.9585069725
 20
160.3796079822
 11
282.9585069725
 21
164.400884635
  0
LINE
  5
327
100
AcDbEntity
  8
0
100
AcDbLine
 62
7
  6
CONTINUOUS
 10
282.9585069725
 20
165.5498206682
 11
282.9585069725
 21
168.4221612878
  0
LINE
  5
328
100
AcDbEntity
  8
KONSTRUKTIONSELEMENTE
100
AcDbLine
 62
7
  6
CONTINUOUS
 10
283.5735069725
 20
319.3496079822
 11
283.5735069725
 21
261.7496079822
  0
LINE
  5
329
100
AcDbEntity
  8
0
100
AcDbLine
 62
7
  6
CONTINUOUS
 10
287.6460067937
 20
167.2732252545
 11
287.6460067937
 21
166.6987567015
  0
LINE
  5
32A
100
AcDbEntity
  8
0
100
AcDbLine
 62
7
  6
CONTINUOUS
 10
288.7710067937
 20
166.5072673626
 11
288.7710067937
 21
167.2732252545
  0
LINE
  5
32B
100
AcDbEntity
  8
KONSTRUKTIONSELEMENTE
100
AcDbLine
 62
7
  6
CONTINUOUS
 10
289.1735069725
 20
244.4496079822
 11
289.1735069725
 21
203.4496079822
  0
LINE
  5
32C
100
AcDbEntity
  8
0
100
AcDbLine
 62
7
  6
CONTINUOUS
 10
254.5004470413
 20
158.3003479841
 11
254.4532840903
 21
157.967959599
  0
LINE
  5
32D
100
AcDbEntity
  8
0
100
AcDbLine
 62
7
  6
CONTINUOUS
 10
240.1343392817
 20
158.7918906858
 11
240.0030634412
 21
158.3366468342
  0
LINE
  5
32E
100
AcDbEntity
  8
0
100
AcDbLine
 62
7
  6
CONTINUOUS
 10
243.6163107974
 20
155.8410605531
 11
243.7475866249
 21
156.2963044781
  0
LINE
  5
32F
100
AcDbEntity
  8
BEZUGSACHSEN
100
AcDbLine
 62
7
  6
CONTINUOUS
 10
346.6546172687
 20
176.047266724
 11
333.2925029029
 21
202.8475219881
  0
LINE
  5
330
100
AcDbEntity
  8
0
100
AcDbLine
 62
7
  6
CONTINUOUS
 10
306.2085062572
 20
166.3157780237
 11
306.0210069725
 21
167.2732252545
  0
LINE
  5
331
100
AcDbEntity
  8
BEZUGSACHSEN
100
AcDbLine
 62
7
  6
CONTINUOUS
 10
303.0900363
 20
171.247200949
 11
301.6140267898
 21
179.6180668496
  0
LINE
  5
332
100
AcDbEntity
  8
0
100
AcDbLine
 62
7
  6
CONTINUOUS
 10
290.4585067937
 20
169.3796079822
 11
290.4585067937
 21
163.4434376724
  0
LINE
  5
333
100
AcDbEntity
  8
0
100
AcDbLine
 62
7
  6
CONTINUOUS
 10
290.9735069725
 20
199.497896285
 11
290.9735069725
 21
197.9496079822
  0
LINE
  5
334
100
AcDbEntity
  8
0
100
AcDbLine
 62
7
  6
CONTINUOUS
 10
291.5835073301
 20
163.4434376724
 11
291.5835073301
 21
169.3796079822
  0
LINE
  5
335
100
AcDbEntity
  8
0
100
AcDbLine
 62
7
  6
CONTINUOUS
 10
296.0835073301
 20
169.3796079822
 11
296.0835073301
 21
163.4434376724
  0
LINE
  5
336
100
AcDbEntity
  8
BEZUGSACHSEN
100
AcDbLine
 62
7
  6
CONTINUOUS
 10
296.9735069725
 20
199.497896285
 11
296.9735069725
 21
197.9496079822
  0
LINE
  5
337
100
AcDbEntity
  8
0
100
AcDbLine
 62
7
  6
CONTINUOUS
 10
297.2085073301
 20
163.4434376724
 11
297.2085073301
 21
169.3796079822
  0
LINE
  5
338
100
AcDbEntity
  8
0
100
AcDbLine
 62
7
  6
CONTINUOUS
 10
298.7085069725
 20
169.3796079822
 11
298.7085069725
 21
160.3796079822
  0
LINE
  5
339
100
AcDbEntity
  8
KONSTRUKTIONSELEMENTE
100
AcDbLine
 62
7
  6
CONTINUOUS
 10
298.7735069725
 20
244.4496079822
 11
298.7735069725
 21
203.4496079822
  0
LINE
  5
33A
100
AcDbEntity
  8
0
100
AcDbLine
 62
7
  6
CONTINUOUS
 10
299.8335069725
 20
161.5285441495
 11
299.8335069725
 21
168.2306719489
  0
LINE
  5
33B
100
AcDbEntity
  8
KONSTRUKTIONSELEMENTE
100
AcDbLine
 62
7
  6
CONTINUOUS
 10
303.7305557066
 20
288.4885950963
 11
303.7305557066
 21
287.8125121209
  0
LINE
  5
33C
100
AcDbEntity
  8
KONSTRUKTIONSELEMENTE
100
AcDbLine
 62
7
  6
CONTINUOUS
 10
303.7305557066
 20
274.0654918362
 11
303.7305557066
 21
273.3894088608
  0
LINE
  5
33D
100
AcDbEntity
  8
KONSTRUKTIONSELEMENTE
100
AcDbLine
 62
7
  6
CONTINUOUS
 10
303.7305557066
 20
270.2343547607
 11
303.7305557066
 21
269.5582717853
  0
LINE
  5
33E
100
AcDbEntity
  8
KONSTRUKTIONSELEMENTE
100
AcDbLine
 62
7
  6
CONTINUOUS
 10
303.7305557066
 20
268.6568277107
 11
303.7305557066
 21
267.9807447353
  0
LINE
  5
33F
100
AcDbEntity
  8
KONSTRUKTIONSELEMENTE
100
AcDbLine
 62
7
  6
CONTINUOUS
 10
303.7305557066
 20
264.8256909576
 11
303.7305557066
 21
264.1496079822
  0
LINE
  5
340
100
AcDbEntity
  8
KONSTRUKTIONSELEMENTE
100
AcDbLine
 62
7
  6
CONTINUOUS
 10
303.7305557066
 20
279.2487948624
 11
303.7305557066
 21
279.8121964822
  0
LINE
  5
341
100
AcDbEntity
  8
KONSTRUKTIONSELEMENTE
100
AcDbLine
 62
7
  6
CONTINUOUS
 10
303.7305557066
 20
284.3194171779
 11
303.7305557066
 21
285.333541641
  0
LINE
  5
342
100
AcDbEntity
  8
KONSTRUKTIONSELEMENTE
100
AcDbLine
 62
7
  6
CONTINUOUS
 10
303.7305557066
 20
291.6436498411
 11
303.7305557066
 21
292.3197328165
  0
LINE
  5
343
100
AcDbEntity
  8
KONSTRUKTIONSELEMENTE
100
AcDbLine
 62
7
  6
CONTINUOUS
 10
304.3670662865
 20
288.4885950963
 11
304.3670662865
 21
291.6436498411
  0
LINE
  5
344
100
AcDbEntity
  8
KONSTRUKTIONSELEMENTE
100
AcDbLine
 62
7
  6
CONTINUOUS
 10
304.3735069725
 20
319.3496079822
 11
304.3735069725
 21
292.3197328165
  0
LINE
  5
345
100
AcDbEntity
  8
KONSTRUKTIONSELEMENTE
100
AcDbLine
 62
7
  6
CONTINUOUS
 10
304.3735069725
 20
287.8125121209
 11
304.3735069725
 21
286.9110690134
  0
LINE
  5
346
100
AcDbEntity
  8
KONSTRUKTIONSELEMENTE
100
AcDbLine
 62
7
  6
CONTINUOUS
 10
304.3735069725
 20
282.5165283838
 11
304.3735069725
 21
281.2770437886
  0
LINE
  5
347
100
AcDbEntity
  8
KONSTRUKTIONSELEMENTE
100
AcDbLine
 62
7
  6
CONTINUOUS
 10
304.3735069725
 20
277.7839475561
 11
304.3735069725
 21
274.0654918362
  0
LINE
  5
348
100
AcDbEntity
  8
KONSTRUKTIONSELEMENTE
100
AcDbLine
 62
7
  6
CONTINUOUS
 10
304.3735069725
 20
272.5757413493
 11
304.3735069725
 21
271.0480219396
  0
LINE
  5
349
100
AcDbEntity
  8
KONSTRUKTIONSELEMENTE
100
AcDbLine
 62
7
  6
CONTINUOUS
 10
304.3735069725
 20
269.5582717853
 11
304.3735069725
 21
268.6568277107
  0
LINE
  5
34A
100
AcDbEntity
  8
KONSTRUKTIONSELEMENTE
100
AcDbLine
 62
7
  6
CONTINUOUS
 10
304.3735069725
 20
267.1670774732
 11
304.3735069725
 21
265.6393582196
  0
LINE
  5
34B
100
AcDbEntity
  8
KONSTRUKTIONSELEMENTE
100
AcDbLine
 62
7
  6
CONTINUOUS
 10
304.3735069725
 20
264.1496079822
 11
304.3735069725
 21
261.7496079822
  0
LINE
  5
34C
100
AcDbEntity
  8
KONSTRUKTIONSELEMENTE
100
AcDbLine
 62
7
  6
CONTINUOUS
 10
304.7735069725
 20
292.3197328165
 11
304.7735069725
 21
287.8125121209
  0
LINE
  5
34D
100
AcDbEntity
  8
KONSTRUKTIONSELEMENTE
100
AcDbLine
 62
7
  6
CONTINUOUS
 10
304.7735069725
 20
286.9110690134
 11
304.7735069725
 21
282.5165283838
  0
LINE
  5
34E
100
AcDbEntity
  8
KONSTRUKTIONSELEMENTE
100
AcDbLine
 62
7
  6
CONTINUOUS
 10
304.7735069725
 20
281.6150852763
 11
304.7735069725
 21
274.9669355884
  0
LINE
  5
34F
100
AcDbEntity
  8
KONSTRUKTIONSELEMENTE
100
AcDbLine
 62
7
  6
CONTINUOUS
 10
304.7735069725
 20
274.9360258746
 11
304.7735069725
 21
269.5582717853
  0
LINE
  5
350
100
AcDbEntity
  8
KONSTRUKTIONSELEMENTE
100
AcDbLine
 62
7
  6
CONTINUOUS
 10
304.7735069725
 20
268.9752690145
 11
304.7735069725
 21
264.1496079822
  0
LINE
  5
351
100
AcDbEntity
  8
0
100
AcDbLine
 62
7
  6
CONTINUOUS
 10
305.0835062572
 20
166.3157780237
 11
305.0835062572
 21
163.4434376724
  0
LINE
  5
352
100
AcDbEntity
  8
0
100
AcDbLine
 62
7
  6
CONTINUOUS
 10
306.2085062572
 20
163.4434376724
 11
306.2085062572
 21
166.3157780237
  0
LINE
  5
353
100
AcDbEntity
  8
0
100
AcDbLine
 62
7
  6
CONTINUOUS
 10
284.856977645
 20
171.247200949
 11
286.3329871551
 21
179.6180668496
  0
LINE
  5
354
100
AcDbEntity
  8
0
100
AcDbLine
 62
7
  6
CONTINUOUS
 10
250.9056729063
 20
160.691167422
 11
250.7743982398
 21
160.2359237774
  0
LINE
  5
355
100
AcDbEntity
  8
0
100
AcDbLine
 62
7
  6
CONTINUOUS
 10
240.46881929
 20
158.0946995698
 11
240.7683173355
 21
158.7956540271
  0
LINE
  5
356
100
AcDbEntity
  8
0
100
AcDbLine
 62
7
  6
CONTINUOUS
 10
243.2818296539
 20
156.538251242
 11
242.9823327436
 21
155.8372972118
  0
LINE
  5
357
100
AcDbEntity
  8
0
100
AcDbLine
 62
7
  6
CONTINUOUS
 10
251.4083763454
 20
160.2396868252
 11
251.5581241683
 21
160.5901639936
  0
LINE
  5
358
100
AcDbEntity
  8
RUNDUNGEN
100
AcDbLine
 62
7
  6
CONTINUOUS
 10
241.2923966762
 20
176.047266724
 11
254.6545110421
 21
202.8475219881
  0
LWPOLYLINE
  5
359
100
AcDbEntity
  8
KONSTRUKTIONSELEMENTE
100
AcDbPolyline
 62
7
  6
CONTINUOUS
 90
11
 70
0
 10
318.9734376799
 20
243.1277786338
 10
318.9110369491
 20
244.0004534695
 10
318.7293033495
 20
244.8596225302
 10
318.4301862163
 20
245.6891900827
 10
318.0185632841
 20
246.4718910496
 10
317.5018825861
 20
247.1916988067
 10
316.8900583557
 20
247.8338685239
 10
316.1952195831
 20
248.3853549545
 10
315.4313864539
 20
248.8351695868
 10
314.6144704945
 20
249.1745400486
 10
314.1068337811
 20
249.3223025611
  0
LINE
  5
35A
100
AcDbEntity
  8
KONSTRUKTIONSELEMENTE
100
AcDbLine
 62
7
  6
CONTINUOUS
 10
312.4735069725
 20
211.3593066701
 11
312.4735069725
 21
236.0780290789
  0
LINE
  5
35B
100
AcDbEntity
  8
KONSTRUKTIONSELEMENTE
100
AcDbLine
 62
7
  6
CONTINUOUS
 10
318.9735069725
 20
242.6428515458
 11
318.9735069725
 21
223.9496079822
  0
LINE
  5
35C
100
AcDbEntity
  8
0
100
AcDbLine
 62
7
  6
CONTINUOUS
 10
297.0210069725
 20
162.485990978
 11
297.2085073301
 21
163.4434376724
  0
LINE
  5
35D
100
AcDbEntity
  8
0
100
AcDbLine
 62
7
  6
CONTINUOUS
 10
268.9735069725
 20
197.9496079822
 11
261.0494382302
 21
182.0563848583
  0
LINE
  5
35E
100
AcDbEntity
  8
0
100
AcDbLine
 62
7
  6
CONTINUOUS
 10
238.1585122875
 20
159.1996677409
 11
237.6723193122
 21
158.3577701381
  0
LINE
  5
35F
100
AcDbEntity
  8
0
100
AcDbLine
 62
7
  6
CONTINUOUS
 10
237.8201050294
 20
157.5196356867
 11
238.306297953
 21
158.3615335829
  0
LINE
  5
360
100
AcDbEntity
  8
0
100
AcDbLine
 62
7
  6
CONTINUOUS
 10
240.3866720799
 20
159.1604560506
 11
240.1343392817
 21
158.7918906858
  0
LINE
  5
361
100
AcDbEntity
  8
KONSTRUKTIONSELEMENTE
100
AcDbLine
 62
7
  6
CONTINUOUS
 10
289.1735069725
 20
243.9877277668
 11
275.4735069725
 21
236.0780290789
  0
LINE
  5
362
100
AcDbEntity
  8
BEZUGSACHSEN
100
AcDbLine
 62
7
  6
CONTINUOUS
 10
260.5160676974
 20
233.2257822292
 11
190.8283032145
 21
196.1721405822
  0
LWPOLYLINE
  5
363
100
AcDbEntity
  8
KONSTRUKTIONSELEMENTE
100
AcDbPolyline
 62
7
  6
CONTINUOUS
 90
11
 70
0
 10
273.840180148
 20
249.3223030482
 10
273.3597662559
 20
249.1836322725
 10
272.538479515
 20
248.8465179595
 10
271.7703373361
 20
248.3980350248
 10
271.071348604
 20
247.8469774677
 10
270.455656798
 20
247.2043710446
 10
269.9355178006
 20
246.4833068896
 10
269.5209773469
 20
245.698588547
 10
269.2196183294
 20
244.8663169495
 10
269.0364522668
 20
244.0038263862
 10
268.9735750217
 20
243.1274154918
  0
LINE
  5
364
100
AcDbEntity
  8
0
100
AcDbLine
 62
7
  6
CONTINUOUS
 10
306.0210069725
 20
162.485990978
 11
306.2085062572
 21
163.4434376724
  0
LINE
  5
365
100
AcDbEntity
  8
0
100
AcDbLine
 62
7
  6
CONTINUOUS
 10
296.0835073301
 20
163.4434376724
 11
295.8960069725
 21
162.6774803169
  0
LINE
  5
366
100
AcDbEntity
  8
0
100
AcDbLine
 62
7
  6
CONTINUOUS
 10
305.0835062572
 20
163.4434376724
 11
304.8960069725
 21
162.6774803169
  0
LINE
  5
367
100
AcDbEntity
  8
0
100
AcDbLine
 62
7
  6
CONTINUOUS
 10
287.6460067937
 20
166.6987567015
 11
287.4585069725
 21
166.1242886849
  0
LINE
  5
368
100
AcDbEntity
  8
0
100
AcDbLine
 62
7
  6
CONTINUOUS
 10
288.5835069725
 20
165.932799346
 11
288.7710067937
 21
166.5072673626
  0
LINE
  5
369
100
AcDbEntity
  8
0
100
AcDbLine
 62
7
  6
CONTINUOUS
 10
243.3639780056
 20
155.4724951517
 11
243.6163107974
 21
155.8410605531
  0
LINE
  5
36A
100
AcDbEntity
  8
0
100
AcDbLine
 62
7
  6
CONTINUOUS
 10
251.2421174199
 20
161.1825880464
 11
250.9056729063
 21
160.691167422
  0
LINE
  5
36B
100
AcDbEntity
  8
0
100
AcDbLine
 62
7
  6
CONTINUOUS
 10
254.769290858
 20
157.3755354362
 11
255.1057353652
 21
157.8669560972
  0
LINE
  5
36C
100
AcDbEntity
  8
RUNDUNGEN
100
AcDbLine
 62
7
  6
CONTINUOUS
 10
193.8562518939
 20
137.8219181279
 11
194.8786129188
 21
138.8442791528
  0
LINE
  5
36D
100
AcDbEntity
  8
BEZUGSACHSEN
100
AcDbLine
 62
7
  6
CONTINUOUS
 10
193.8562252234
 20
137.8218914574
 11
194.8786193321
 21
138.8442855661
  0
LINE
  5
36E
100
AcDbEntity
  8
RUNDUNGEN
100
AcDbLine
 62
7
  6
CONTINUOUS
 10
247.8324814201
 20
209.4932490179
 11
226.3062151888
 21
198.0475302343
  0
LINE
  5
36F
100
AcDbEntity
  8
RUNDUNGEN
100
AcDbLine
 62
7
  6
CONTINUOUS
 10
377.7786819602
 20
90.7804535543
 11
375.7320071604
 21
105.3433014564
  0
LINE
  5
370
100
AcDbEntity
  8
0
100
AcDbLine
 62
7
  6
CONTINUOUS
 10
348.9735069725
 20
453.9496079822
 11
348.9735069725
 21
363.9496079822
  0
LINE
  5
371
100
AcDbEntity
  8
0
100
AcDbLine
 62
7
  6
CONTINUOUS
 10
296.6460073301
 20
161.7200334884
 11
297.0210069725
 21
162.485990978
  0
LINE
  5
372
100
AcDbEntity
  8
0
100
AcDbLine
 62
7
  6
CONTINUOUS
 10
305.6460062572
 20
161.7200334884
 11
306.0210069725
 21
162.485990978
  0
LINE
  5
373
100
AcDbEntity
  8
0
100
AcDbLine
 62
7
  6
CONTINUOUS
 10
295.8960069725
 20
162.6774803169
 11
295.5210073301
 21
162.1030123003
  0
LINE
  5
374
100
AcDbEntity
  8
0
100
AcDbLine
 62
7
  6
CONTINUOUS
 10
288.0210069725
 20
165.1668419905
 11
288.5835069725
 21
165.932799346
  0
LINE
  5
375
100
AcDbEntity
  8
BEZUGSACHSEN
100
AcDbLine
 62
7
  6
CONTINUOUS
 10
213.0683946128
 20
107.0549303982
 11
214.0907887216
 21
108.0773245069
  0
LINE
  5
376
100
AcDbEntity
  8
0
100
AcDbLine
 62
7
  6
CONTINUOUS
 10
240.7683173355
 20
158.7956540271
 11
241.0391233419
 21
159.0594526221
  0
LINE
  5
377
100
AcDbEntity
  8
0
100
AcDbLine
 62
7
  6
CONTINUOUS
 10
242.9823327436
 20
155.8372972118
 11
242.7115267371
 21
155.5734986168
  0
LINE
  5
378
100
AcDbEntity
  8
0
100
AcDbLine
 62
7
  6
CONTINUOUS
 10
251.5581241683
 20
160.5901639936
 11
251.8289301747
 21
160.8539625886
  0
LINE
  5
379
100
AcDbEntity
  8
0
100
AcDbLine
 62
7
  6
CONTINUOUS
 10
254.4532840903
 20
157.967959599
 11
254.1824780968
 21
157.7041609307
  0
LINE
  5
37A
100
AcDbEntity
  8
0
100
AcDbLine
 62
7
  6
CONTINUOUS
 10
240.8441723774
 20
159.565197981
 11
240.3866720799
 21
159.1604560506
  0
LINE
  5
37B
100
AcDbEntity
  8
0
100
AcDbLine
 62
7
  6
CONTINUOUS
 10
242.906476539
 20
155.0677529867
 11
243.3639780056
 21
155.4724951517
  0
LINE
  5
37C
100
AcDbEntity
  8
0
100
AcDbLine
 62
7
  6
CONTINUOUS
 10
251.61550835
 20
161.4644751313
 11
251.2421174199
 21
161.1825880464
  0
LINE
  5
37D
100
AcDbEntity
  8
KONSTRUKTIONSELEMENTE
100
AcDbLine
 62
7
  6
CONTINUOUS
 10
298.7735069725
 20
203.4496079822
 11
312.4735069725
 21
211.3593066701
  0
LWPOLYLINE
  5
37E
100
AcDbEntity
  8
RUNDUNGEN
100
AcDbPolyline
 62
7
  6
CONTINUOUS
 90
4
 70
0
 10
390.0950069725
 20
109.9653281559
 10
390.0902571585
 20
110.0848585775
 10
390.0760373554
 20
110.2036373665
 10
390.0718693585
 20
110.2283358232
  0
LINE
  5
37F
100
AcDbEntity
  8
RUNDUNGEN
100
AcDbLine
 62
7
  6
CONTINUOUS
 10
372.9735069725
 20
110.20839488
 11
372.9735069725
 21
135.6908210843
  0
LINE
  5
380
100
AcDbEntity
  8
BEZUGSACHSEN
100
AcDbLine
 62
7
  6
CONTINUOUS
 10
372.9735069725
 20
115.6344736313
 11
372.9735069725
 21
135.6908210843
  0
LINE
  5
381
100
AcDbEntity
  8
RUNDUNGEN
100
AcDbLine
 62
7
  6
CONTINUOUS
 10
377.8520069725
 20
71.6197021576
 11
377.8520069725
 21
109.965382129
  0
LINE
  5
382
100
AcDbEntity
  8
RUNDUNGEN
100
AcDbLine
 62
7
  6
CONTINUOUS
 10
377.8520069725
 20
156.1673605946
 11
377.8520069725
 21
174.2795138067
  0
LINE
  5
383
100
AcDbEntity
  8
BEZUGSACHSEN
100
AcDbLine
 62
7
  6
CONTINUOUS
 10
377.8520069725
 20
156.1673605946
 11
377.8520069725
 21
174.2795138067
  0
LINE
  5
384
100
AcDbEntity
  8
0
100
AcDbLine
 62
7
  6
CONTINUOUS
 10
380.9735069725
 20
453.9496079822
 11
380.9735069725
 21
363.9496079822
  0
LINE
  5
385
100
AcDbEntity
  8
RUNDUNGEN
100
AcDbLine
 62
7
  6
CONTINUOUS
 10
383.9735069725
 20
103.986413288
 11
383.9735069725
 21
103.9410859822
  0
LINE
  5
386
100
AcDbEntity
  8
0
100
AcDbLine
 62
7
  6
CONTINUOUS
 10
304.8960069725
 20
162.6774803169
 11
304.5210062572
 21
162.1030123003
  0
LINE
  5
387
100
AcDbEntity
  8
0
100
AcDbLine
 62
7
  6
CONTINUOUS
 10
287.4585069725
 20
166.1242886849
 11
287.0835067937
 21
165.7413100071
  0
LINE
  5
388
100
AcDbEntity
  8
0
100
AcDbLine
 62
7
  6
CONTINUOUS
 10
295.8960069725
 20
160.9540760658
 11
296.6460073301
 21
161.7200334884
  0
LINE
  5
389
100
AcDbEntity
  8
0
100
AcDbLine
 62
7
  6
CONTINUOUS
 10
254.3958999328
 20
157.0936483238
 11
254.769290858
 21
157.3755354362
  0
LINE
  5
38A
100
AcDbEntity
  8
0
100
AcDbLine
 62
7
  6
CONTINUOUS
 10
251.8289301747
 20
160.8539625886
 11
252.2207943129
 21
161.0310829037
  0
LINE
  5
38B
100
AcDbEntity
  8
0
100
AcDbLine
 62
7
  6
CONTINUOUS
 10
254.1824780968
 20
157.7041609307
 11
253.7906139585
 21
157.5270406155
  0
LINE
  5
38C
100
AcDbEntity
  8
0
100
AcDbLine
 62
7
  6
CONTINUOUS
 10
241.0391233419
 20
159.0594526221
 11
241.5335700558
 21
159.2546610131
  0
LINE
  5
38D
100
AcDbEntity
  8
0
100
AcDbLine
 62
7
  6
CONTINUOUS
 10
252.1099550638
 20
161.6596835222
 11
251.61550835
 21
161.4644751313
  0
LINE
  5
38E
100
AcDbEntity
  8
0
100
AcDbLine
 62
7
  6
CONTINUOUS
 10
241.4412040149
 20
159.7784948618
 11
240.8441723774
 21
159.565197981
  0
LINE
  5
38F
100
AcDbEntity
  8
BEZUGSACHSEN
100
AcDbLine
 62
7
  6
CONTINUOUS
 10
392.2150061795
 20
140.555918813
 11
390.1683322784
 21
155.1187603206
  0
LINE
  5
390
100
AcDbEntity
  8
BEZUGSACHSEN
100
AcDbLine
 62
7
  6
CONTINUOUS
 10
390.0950069725
 20
71.6197021576
 11
390.0950069725
 21
103.9814633034
  0
LINE
  5
391
100
AcDbEntity
  8
RUNDUNGEN
100
AcDbLine
 62
7
  6
CONTINUOUS
 10
390.0950069725
 20
103.9410859822
 11
390.0950069725
 21
109.9654085903
  0
LINE
  5
392
100
AcDbEntity
  8
BEZUGSACHSEN
100
AcDbLine
 62
7
  6
CONTINUOUS
 10
390.0950069725
 20
156.1673605946
 11
390.0950069725
 21
174.2795138067
  0
LINE
  5
393
100
AcDbEntity
  8
RUNDUNGEN
100
AcDbLine
 62
7
  6
CONTINUOUS
 10
394.9735069725
 20
110.20839488
 11
394.9735069725
 21
116.8583235398
  0
LINE
  5
394
100
AcDbEntity
  8
BEZUGSACHSEN
100
AcDbLine
 62
7
  6
CONTINUOUS
 10
394.9735069725
 20
110.20839488
 11
394.9735069725
 21
135.6908210843
  0
LINE
  5
395
100
AcDbEntity
  8
RUNDUNGEN
100
AcDbLine
 62
7
  6
CONTINUOUS
 10
375.7320077654
 20
140.555918813
 11
377.7786816666
 21
155.1187603206
  0
LINE
  5
396
100
AcDbEntity
  8
BEZUGSACHSEN
100
AcDbLine
 62
7
  6
CONTINUOUS
 10
375.7320077654
 20
140.555918813
 11
377.7786816666
 21
155.1187603206
  0
LINE
  5
397
100
AcDbEntity
  8
BEZUGSACHSEN
100
AcDbLine
 62
7
  6
CONTINUOUS
 10
363.7081789065
 20
191.2854344561
 11
355.544027041
 21
175.9308979756
  0
LINE
  5
398
100
AcDbEntity
  8
0
100
AcDbLine
 62
7
  6
CONTINUOUS
 10
304.8960069725
 20
160.9540760658
 11
305.6460062572
 21
161.7200334884
  0
LINE
  5
399
100
AcDbEntity
  8
0
100
AcDbLine
 62
7
  6
CONTINUOUS
 10
295.5210073301
 20
162.1030123003
 11
294.9585073301
 21
161.7200334884
  0
LINE
  5
39A
100
AcDbEntity
  8
0
100
AcDbLine
 62
7
  6
CONTINUOUS
 10
304.5210062572
 20
162.1030123003
 11
303.9585062572
 21
161.7200334884
  0
LINE
  5
39B
100
AcDbEntity
  8
0
100
AcDbLine
 62
7
  6
CONTINUOUS
 10
287.2710071513
 20
164.7838633127
 11
288.0210069725
 21
165.1668419905
  0
LINE
  5
39C
100
AcDbEntity
  8
0
100
AcDbLine
 62
7
  6
CONTINUOUS
 10
295.1460066148
 20
160.5710973378
 11
295.8960069725
 21
160.9540760658
  0
LINE
  5
39D
100
AcDbEntity
  8
0
100
AcDbLine
 62
7
  6
CONTINUOUS
 10
304.1460076877
 20
160.5710973378
 11
304.8960069725
 21
160.9540760658
  0
LINE
  5
39E
100
AcDbEntity
  8
0
100
AcDbLine
 62
7
  6
CONTINUOUS
 10
242.7115267371
 20
155.5734986168
 11
242.2170788493
 21
155.3782900188
  0
LINE
  5
39F
100
AcDbEntity
  8
0
100
AcDbLine
 62
7
  6
CONTINUOUS
 10
253.9014532206
 20
156.8984399237
 11
254.3958999328
 21
157.0936483238
  0
LINE
  5
3A0
100
AcDbEntity
  8
0
100
AcDbLine
 62
7
  6
CONTINUOUS
 10
242.3094449032
 20
154.8544560967
 11
242.906476539
 21
155.0677529867
  0
LINE
  5
3A1
100
AcDbEntity
  8
0
100
AcDbLine
 62
7
  6
CONTINUOUS
 10
287.0835067937
 20
165.7413100071
 11
286.5210067937
 21
165.5498206682
  0
LINE
  5
3A2
100
AcDbEntity
  8
BEZUGSACHSEN
100
AcDbLine
 62
7
  6
CONTINUOUS
 10
390.1683319847
 20
90.7804535543
 11
392.2150067845
 21
105.3433014564
  0
LWPOLYLINE
  5
3A3
100
AcDbEntity
  8
RUNDUNGEN
100
AcDbPolyline
 62
7
  6
CONTINUOUS
 90
4
 70
0
 10
377.8751448099
 20
110.2283399041
 10
377.8709767572
 20
110.203641039
 10
377.8567568318
 20
110.0848608406
 10
377.8520069725
 20
109.965328924
  0
LINE
  5
3A4
100
AcDbEntity
  8
RUNDUNGEN
100
AcDbLine
 62
7
  6
CONTINUOUS
 10
373.8562518939
 20
137.8219181279
 11
374.8786129188
 21
138.8442791528
  0
LINE
  5
3A5
100
AcDbEntity
  8
BEZUGSACHSEN
100
AcDbLine
 62
7
  6
CONTINUOUS
 10
373.8562252234
 20
137.8218914574
 11
374.8786193321
 21
138.8442855661
  0
LINE
  5
3A6
100
AcDbEntity
  8
BEZUGSACHSEN
100
AcDbLine
 62
7
  6
CONTINUOUS
 10
393.0683946128
 20
107.0549303982
 11
394.0907887216
 21
108.0773245069
  0
LINE
  5
3A7
100
AcDbEntity
  8
0
100
AcDbLine
 62
7
  6
CONTINUOUS
 10
576.9091582915
 20
78.5330787734
 11
577.5065199443
 21
78.5383070424
  0
LINE
  5
3A8
100
AcDbEntity
  8
0
100
AcDbLine
 62
7
  6
CONTINUOUS
 10
569.3952699139
 20
75.2395731367
 11
569.9894045346
 21
75.383138668
  0
LINE
  5
3A9
100
AcDbEntity
  8
0
100
AcDbLine
 62
7
  6
CONTINUOUS
 10
568.8408802846
 20
80.1362156333
 11
568.2467456639
 21
79.9926501021
  0
LINE
  5
3AA
100
AcDbEntity
  8
0
100
AcDbLine
 62
7
  6
CONTINUOUS
 10
576.6778183795
 20
81.2101961087
 11
576.3635077378
 21
81.1364746289
  0
LINE
  5
3AB
100
AcDbEntity
  8
0
100
AcDbLine
 62
7
  6
CONTINUOUS
 10
576.4243166382
 20
82.7693318784
 11
576.7386272799
 21
82.8430533582
  0
LINE
  5
3AC
100
AcDbEntity
  8
0
100
AcDbLine
 62
7
  6
CONTINUOUS
 10
586.5871262887
 20
87.8124275991
 11
587.0125376815
 21
87.9116519716
  0
LINE
  5
3AD
100
AcDbEntity
  8
0
100
AcDbLine
 62
7
  6
CONTINUOUS
 10
585.1330166462
 20
92.0325636815
 11
584.7076052846
 21
91.9333392901
  0
LINE
  5
3AE
100
AcDbEntity
  8
0
100
AcDbLine
 62
7
  6
CONTINUOUS
 10
576.1520748553
 20
80.5136308405
 11
576.6079114896
 21
80.5531060354
  0
LINE
  5
3AF
100
AcDbEntity
  8
0
100
AcDbLine
 62
7
  6
CONTINUOUS
 10
578.1391062294
 20
81.7552650784
 11
577.6832705837
 21
81.7157905013
  0
LINE
  5
3B0
100
AcDbEntity
  8
0
100
AcDbLine
 62
7
  6
CONTINUOUS
 10
586.8154521339
 20
88.3888810677
 11
586.0703814787
 21
88.3645845845
  0
LINE
  5
3B1
100
AcDbEntity
  8
0
100
AcDbLine
 62
7
  6
CONTINUOUS
 10
584.904690801
 20
91.4561102129
 11
585.6497628532
 21
91.4804085756
  0
LINE
  5
3B2
100
AcDbEntity
  8
0
100
AcDbLine
 62
7
  6
CONTINUOUS
 10
576.3635077378
 20
81.1364746289
 11
575.9940644167
 21
81.1509839342
  0
LINE
  5
3B3
100
AcDbEntity
  8
0
100
AcDbLine
 62
7
  6
CONTINUOUS
 10
577.9276733469
 20
81.1324212901
 11
578.297116668
 21
81.1179119848
  0
LINE
  5
3B4
100
AcDbEntity
  8
0
100
AcDbLine
 62
7
  6
CONTINUOUS
 10
586.1256628046
 20
87.8542800458
 11
586.5871262887
 21
87.8124275991
  0
LINE
  5
3B5
100
AcDbEntity
  8
0
100
AcDbLine
 62
7
  6
CONTINUOUS
 10
585.594480068
 20
91.9907112726
 11
585.1330166462
 21
92.0325636815
  0
LINE
  5
3B6
100
AcDbEntity
  8
0
100
AcDbLine
 62
7
  6
CONTINUOUS
 10
577.0051928419
 20
83.3776663614
 11
576.4942235281
 21
83.4264219517
  0
LINE
  5
3B7
100
AcDbEntity
  8
0
100
AcDbLine
 62
7
  6
CONTINUOUS
 10
577.2621161586
 20
79.1216756899
 11
576.8375401195
 21
79.2244158422
  0
LINE
  5
3B8
100
AcDbEntity
  8
0
100
AcDbLine
 62
7
  6
CONTINUOUS
 10
575.5859738508
 20
80.6506178338
 11
576.1520748553
 21
80.5136308405
  0
LINE
  5
3B9
100
AcDbEntity
  8
0
100
AcDbLine
 62
7
  6
CONTINUOUS
 10
578.7052072339
 20
81.6182780852
 11
578.1391062294
 21
81.7552650784
  0
LINE
  5
3BA
100
AcDbEntity
  8
0
100
AcDbLine
 62
7
  6
CONTINUOUS
 10
576.7386272799
 20
82.8430533582
 11
577.0216782765
 21
82.7745601705
  0
LINE
  5
3BB
100
AcDbEntity
  8
BEZUGSACHSEN
100
AcDbLine
 62
7
  6
CONTINUOUS
 10
574.2999830115
 20
109.4581299822
 11
579.1674107603
 21
109.4581299822
  0
LINE
  5
3BC
100
AcDbEntity
  8
BEZUGSACHSEN
100
AcDbLine
 62
7
  6
CONTINUOUS
 10
596.7104833843
 20
109.4581299822
 11
601.2316082289
 21
109.4581299822
  0
LINE
  5
3BD
100
AcDbEntity
  8
RUNDUNGEN
100
AcDbLine
 62
7
  6
CONTINUOUS
 10
543.3674032429
 20
111.0148389822
 11
531.8518951423
 21
111.0148389822
  0
LINE
  5
3BE
100
AcDbEntity
  8
RUNDUNGEN
100
AcDbLine
 62
7
  6
CONTINUOUS
 10
581.1961474759
 20
111.5337419822
 11
580.7743050723
 21
111.5337419822
  0
LINE
  5
3BF
100
AcDbEntity
  8
0
100
AcDbLine
 62
7
  6
CONTINUOUS
 10
532.1670377843
 20
112.0526449822
 11
543.2674107603
 21
112.0526449822
  0
LINE
  5
3C0
100
AcDbEntity
  8
BEZUGSACHSEN
100
AcDbLine
 62
7
  6
CONTINUOUS
 10
532.1670377843
 20
112.0526449822
 11
543.2674107603
 21
112.0526449822
  0
LINE
  5
3C1
100
AcDbEntity
  8
0
100
AcDbLine
 62
7
  6
CONTINUOUS
 10
585.8060023631
 20
87.9292059232
 11
586.1256628046
 21
87.8542800458
  0
LINE
  5
3C2
100
AcDbEntity
  8
0
100
AcDbLine
 62
7
  6
CONTINUOUS
 10
585.9141407586
 20
91.915785244
 11
585.594480068
 21
91.9907112726
  0
LINE
  5
3C3
100
AcDbEntity
  8
0
100
AcDbLine
 62
7
  6
CONTINUOUS
 10
585.3084867564
 20
88.1121352079
 11
585.8060023631
 21
87.9292059232
  0
LINE
  5
3C4
100
AcDbEntity
  8
0
100
AcDbLine
 62
7
  6
CONTINUOUS
 10
586.4116574509
 20
91.7328580278
 11
585.9141407586
 21
91.915785244
  0
LINE
  5
3C5
100
AcDbEntity
  8
0
100
AcDbLine
 62
7
  6
CONTINUOUS
 10
577.4849015218
 20
83.1866954858
 11
577.0051928419
 21
83.3776663614
  0
LINE
  5
3C6
100
AcDbEntity
  8
0
100
AcDbLine
 62
7
  6
CONTINUOUS
 10
586.0703814787
 20
88.3645845845
 11
585.4839365364
 21
88.6015125457
  0
LINE
  5
3C7
100
AcDbEntity
  8
0
100
AcDbLine
 62
7
  6
CONTINUOUS
 10
578.297116668
 20
81.1179119848
 11
578.6353004212
 21
80.9611878883
  0
LINE
  5
3C8
100
AcDbEntity
  8
0
100
AcDbLine
 62
7
  6
CONTINUOUS
 10
576.3743168742
 20
78.8122805269
 11
576.9091582915
 21
78.5330787734
  0
LINE
  5
3C9
100
AcDbEntity
  8
0
100
AcDbLine
 62
7
  6
CONTINUOUS
 10
595.2035890723
 20
118.7996079822
 11
594.8884666723
 21
118.7996079822
  0
LINE
  5
3CA
100
AcDbEntity
  8
0
100
AcDbLine
 62
7
  6
CONTINUOUS
 10
580.7743050723
 20
118.7996079822
 11
580.6743050723
 21
118.7996079822
  0
LINE
  5
3CB
100
AcDbEntity
  8
0
100
AcDbLine
 62
7
  6
CONTINUOUS
 10
530.3450210723
 20
118.7996079822
 11
530.6601434723
 21
118.7996079822
  0
LINE
  5
3CC
100
AcDbEntity
  8
0
100
AcDbLine
 62
7
  6
CONTINUOUS
 10
544.7743050723
 20
118.7996079822
 11
544.8743050723
 21
118.7996079822
  0
LINE
  5
3CD
100
AcDbEntity
  8
0
100
AcDbLine
 62
7
  6
CONTINUOUS
 10
552.7743050723
 20
118.7996079822
 11
572.7743050723
 21
118.7996079822
  0
LINE
  5
3CE
100
AcDbEntity
  8
0
100
AcDbLine
 62
7
  6
CONTINUOUS
 10
595.2035890723
 20
127.0996079822
 11
594.8884666723
 21
127.0996079822
  0
LINE
  5
3CF
100
AcDbEntity
  8
0
100
AcDbLine
 62
7
  6
CONTINUOUS
 10
580.7743050723
 20
127.0996079822
 11
580.6743050723
 21
127.0996079822
  0
LINE
  5
3D0
100
AcDbEntity
  8
0
100
AcDbLine
 62
7
  6
CONTINUOUS
 10
530.3450210723
 20
127.0996079822
 11
530.6601434723
 21
127.0996079822
  0
LINE
  5
3D1
100
AcDbEntity
  8
0
100
AcDbLine
 62
7
  6
CONTINUOUS
 10
544.7743050723
 20
127.0996079822
 11
544.8743050723
 21
127.0996079822
  0
LINE
  5
3D2
100
AcDbEntity
  8
0
100
AcDbLine
 62
7
  6
CONTINUOUS
 10
552.7743050723
 20
127.0996079822
 11
572.7743050723
 21
127.0996079822
  0
LINE
  5
3D3
100
AcDbEntity
  8
0
100
AcDbLine
 62
7
  6
CONTINUOUS
 10
585.6497628532
 20
91.4804085756
 11
586.2362064608
 21
91.2434786971
  0
LINE
  5
3D4
100
AcDbEntity
  8
0
100
AcDbLine
 62
7
  6
CONTINUOUS
 10
584.5081336275
 20
88.5981412326
 11
585.3084867564
 21
88.1121352079
  0
LINE
  5
3D5
100
AcDbEntity
  8
0
100
AcDbLine
 62
7
  6
CONTINUOUS
 10
585.4839365364
 20
88.6015125457
 11
584.8614396584
 21
88.9795172315
  0
LINE
  5
3D6
100
AcDbEntity
  8
0
100
AcDbLine
 62
7
  6
CONTINUOUS
 10
579.0985236665
 20
81.3733232035
 11
578.7052072339
 21
81.6182780852
  0
LINE
  5
3D7
100
AcDbEntity
  8
0
100
AcDbLine
 62
7
  6
CONTINUOUS
 10
577.0216782765
 20
82.7745601705
 11
577.2183359599
 21
82.6520824826
  0
LINE
  5
3D8
100
AcDbEntity
  8
0
100
AcDbLine
 62
7
  6
CONTINUOUS
 10
593.3815723603
 20
133.8465709822
 11
582.2811993843
 21
133.8465709822
  0
LINE
  5
3D9
100
AcDbEntity
  8
RUNDUNGEN
100
AcDbLine
 62
7
  6
CONTINUOUS
 10
544.3524626688
 20
134.3654739822
 11
544.7743050723
 21
134.3654739822
  0
LINE
  5
3DA
100
AcDbEntity
  8
BEZUGSACHSEN
100
AcDbLine
 62
7
  6
CONTINUOUS
 10
544.3524626688
 20
134.3654739822
 11
544.7743050723
 21
134.3654739822
  0
LINE
  5
3DB
100
AcDbEntity
  8
RUNDUNGEN
100
AcDbLine
 62
7
  6
CONTINUOUS
 10
582.1812069018
 20
134.8843769822
 11
593.6967150024
 21
134.8843769822
  0
LINE
  5
3DC
100
AcDbEntity
  8
BEZUGSACHSEN
100
AcDbLine
 62
7
  6
CONTINUOUS
 10
582.1812069018
 20
134.8843769822
 11
593.6967150024
 21
134.8843769822
  0
LINE
  5
3DD
100
AcDbEntity
  8
BEZUGSACHSEN
100
AcDbLine
 62
7
  6
CONTINUOUS
 10
551.2486271332
 20
136.4410859822
 11
546.3811993843
 21
136.4410859822
  0
LINE
  5
3DE
100
AcDbEntity
  8
BEZUGSACHSEN
100
AcDbLine
 62
7
  6
CONTINUOUS
 10
528.8381267603
 20
136.4410859822
 11
524.3170019158
 21
136.4410859822
  0
LINE
  5
3DF
100
AcDbEntity
  8
BEZUGSACHSEN
100
AcDbLine
 62
7
  6
CONTINUOUS
 10
550.2743050723
 20
143.4496079822
 11
575.2541941643
 21
143.4496079822
  0
LINE
  5
3E0
100
AcDbEntity
  8
0
100
AcDbLine
 62
7
  6
CONTINUOUS
 10
586.2362064608
 20
91.2434786971
 11
586.8587033388
 21
90.8654740113
  0
LINE
  5
3E1
100
AcDbEntity
  8
0
100
AcDbLine
 62
7
  6
CONTINUOUS
 10
587.2120105799
 20
91.2468520032
 11
586.4116574509
 21
91.7328580278
  0
LINE
  5
3E2
100
AcDbEntity
  8
0
100
AcDbLine
 62
7
  6
CONTINUOUS
 10
582.081984779
 20
87.5924494154
 11
582.7299900486
 21
87.0701048757
  0
LINE
  5
3E3
100
AcDbEntity
  8
0
100
AcDbLine
 62
7
  6
CONTINUOUS
 10
582.5465820921
 20
88.0030351308
 11
585.7056071293
 21
85.4566060254
  0
LINE
  5
3E4
100
AcDbEntity
  8
0
100
AcDbLine
 62
7
  6
CONTINUOUS
 10
576.8375401195
 20
79.2244158422
 11
576.5857497568
 21
79.4351243153
  0
LINE
  5
3E5
100
AcDbEntity
  8
0
100
AcDbLine
 62
7
  6
CONTINUOUS
 10
575.9940644167
 20
81.1509839342
 11
575.7422740539
 21
81.3616924073
  0
LINE
  5
3E6
100
AcDbEntity
  8
0
100
AcDbLine
 62
7
  6
CONTINUOUS
 10
577.7366918845
 20
82.9759870127
 11
577.4849015218
 21
83.1866954858
  0
LINE
  5
3E7
100
AcDbEntity
  8
0
100
AcDbLine
 62
7
  6
CONTINUOUS
 10
540.6439193437
 20
154.4431057515
 11
539.8988472915
 21
154.4188073887
  0
LINE
  5
3E8
100
AcDbEntity
  8
BEZUGSACHSEN
100
AcDbLine
 62
7
  6
CONTINUOUS
 10
540.6439193437
 20
154.4431057515
 11
539.8988472915
 21
154.4188073887
  0
LINE
  5
3E9
100
AcDbEntity
  8
0
100
AcDbLine
 62
7
  6
CONTINUOUS
 10
538.7331580108
 20
157.5103348966
 11
539.478228666
 21
157.5346313798
  0
LINE
  5
3EA
100
AcDbEntity
  8
BEZUGSACHSEN
100
AcDbLine
 62
7
  6
CONTINUOUS
 10
538.7331580108
 20
157.5103348966
 11
539.478228666
 21
157.5346313798
  0
LINE
  5
3EB
100
AcDbEntity
  8
RUNDUNGEN
100
AcDbLine
 62
7
  6
CONTINUOUS
 10
591.7743050723
 20
155.7066609227
 11
589.4243050723
 21
155.7066609227
  0
LINE
  5
3EC
100
AcDbEntity
  8
RUNDUNGEN
100
AcDbLine
 62
7
  6
CONTINUOUS
 10
536.1243050723
 20
155.7066609227
 11
533.7743050723
 21
155.7066609227
  0
LINE
  5
3ED
100
AcDbEntity
  8
RUNDUNGEN
100
AcDbLine
 62
7
  6
CONTINUOUS
 10
591.7743050723
 20
159.2421948287
 11
589.4243050723
 21
159.2421948287
  0
LINE
  5
3EE
100
AcDbEntity
  8
RUNDUNGEN
100
AcDbLine
 62
7
  6
CONTINUOUS
 10
536.1243050723
 20
159.2421948287
 11
533.7743050723
 21
159.2421948287
  0
LINE
  5
3EF
100
AcDbEntity
  8
0
100
AcDbLine
 62
7
  6
CONTINUOUS
 10
539.9541300767
 20
153.9085046917
 11
540.4155934985
 21
153.8666522828
  0
LINE
  5
3F0
100
AcDbEntity
  8
BEZUGSACHSEN
100
AcDbLine
 62
7
  6
CONTINUOUS
 10
539.9541300767
 20
153.9085046917
 11
540.4155934985
 21
153.8666522828
  0
LINE
  5
3F1
100
AcDbEntity
  8
0
100
AcDbLine
 62
7
  6
CONTINUOUS
 10
539.4229473401
 20
158.0449359185
 11
538.961483856
 21
158.0867883652
  0
LINE
  5
3F2
100
AcDbEntity
  8
BEZUGSACHSEN
100
AcDbLine
 62
7
  6
CONTINUOUS
 10
539.4229473401
 20
158.0449359185
 11
538.961483856
 21
158.0867883652
  0
LINE
  5
3F3
100
AcDbEntity
  8
0
100
AcDbLine
 62
7
  6
CONTINUOUS
 10
548.5434173028
 20
162.5215496029
 11
549.0543866166
 21
162.4727940126
  0
LINE
  5
3F4
100
AcDbEntity
  8
BEZUGSACHSEN
100
AcDbLine
 62
7
  6
CONTINUOUS
 10
548.5434173028
 20
162.5215496029
 11
549.0543866166
 21
162.4727940126
  0
LINE
  5
3F5
100
AcDbEntity
  8
0
100
AcDbLine
 62
7
  6
CONTINUOUS
 10
539.6344693861
 20
153.9834307203
 11
539.9541300767
 21
153.9085046917
  0
LINE
  5
3F6
100
AcDbEntity
  8
BEZUGSACHSEN
100
AcDbLine
 62
7
  6
CONTINUOUS
 10
539.6344693861
 20
153.9834307203
 11
539.9541300767
 21
153.9085046917
  0
LINE
  5
3F7
100
AcDbEntity
  8
0
100
AcDbLine
 62
7
  6
CONTINUOUS
 10
539.7426077816
 20
157.9700100412
 11
539.4229473401
 21
158.0449359185
  0
LINE
  5
3F8
100
AcDbEntity
  8
BEZUGSACHSEN
100
AcDbLine
 62
7
  6
CONTINUOUS
 10
539.7426077816
 20
157.9700100412
 11
539.4229473401
 21
158.0449359185
  0
LINE
  5
3F9
100
AcDbEntity
  8
0
100
AcDbLine
 62
7
  6
CONTINUOUS
 10
539.1369526938
 20
154.1663579365
 11
539.6344693861
 21
153.9834307203
  0
LINE
  5
3FA
100
AcDbEntity
  8
BEZUGSACHSEN
100
AcDbLine
 62
7
  6
CONTINUOUS
 10
539.1369526938
 20
154.1663579365
 11
539.6344693861
 21
153.9834307203
  0
LINE
  5
3FB
100
AcDbEntity
  8
0
100
AcDbLine
 62
7
  6
CONTINUOUS
 10
540.2401233883
 20
157.7870807564
 11
539.7426077816
 21
157.9700100412
  0
LINE
  5
3FC
100
AcDbEntity
  8
BEZUGSACHSEN
100
AcDbLine
 62
7
  6
CONTINUOUS
 10
540.2401233883
 20
157.7870807564
 11
539.7426077816
 21
157.9700100412
  0
LINE
  5
3FD
100
AcDbEntity
  8
0
100
AcDbLine
 62
7
  6
CONTINUOUS
 10
539.8988472915
 20
154.4188073887
 11
539.3124036839
 21
154.6557372672
  0
LINE
  5
3FE
100
AcDbEntity
  8
BEZUGSACHSEN
100
AcDbLine
 62
7
  6
CONTINUOUS
 10
539.8988472915
 20
154.4188073887
 11
539.3124036839
 21
154.6557372672
  0
LINE
  5
3FF
100
AcDbEntity
  8
0
100
AcDbLine
 62
7
  6
CONTINUOUS
 10
539.478228666
 20
157.5346313798
 11
540.0646736083
 21
157.2977034186
  0
LINE
  5
400
100
AcDbEntity
  8
BEZUGSACHSEN
100
AcDbLine
 62
7
  6
CONTINUOUS
 10
539.478228666
 20
157.5346313798
 11
540.0646736083
 21
157.2977034186
  0
LINE
  5
401
100
AcDbEntity
  8
0
100
AcDbLine
 62
7
  6
CONTINUOUS
 10
538.3365995648
 20
154.6523639611
 11
539.1369526938
 21
154.1663579365
  0
LINE
  5
402
100
AcDbEntity
  8
BEZUGSACHSEN
100
AcDbLine
 62
7
  6
CONTINUOUS
 10
538.3365995648
 20
154.6523639611
 11
539.1369526938
 21
154.1663579365
  0
LINE
  5
403
100
AcDbEntity
  8
0
100
AcDbLine
 62
7
  6
CONTINUOUS
 10
539.3124036839
 20
154.6557372672
 11
538.6899068059
 21
155.0337419531
  0
LINE
  5
404
100
AcDbEntity
  8
BEZUGSACHSEN
100
AcDbLine
 62
7
  6
CONTINUOUS
 10
539.3124036839
 20
154.6557372672
 11
538.6899068059
 21
155.0337419531
  0
LINE
  5
405
100
AcDbEntity
  8
0
100
AcDbLine
 62
7
  6
CONTINUOUS
 10
586.089203812
 20
85.9324847854
 11
582.2821737322
 21
89.0012582476
  0
LINE
  5
406
100
AcDbEntity
  8
0
100
AcDbLine
 62
7
  6
CONTINUOUS
 10
584.8614396584
 20
88.9795172315
 11
584.3807469709
 21
89.3905973788
  0
LINE
  5
407
100
AcDbEntity
  8
0
100
AcDbLine
 62
7
  6
CONTINUOUS
 10
586.8587033388
 20
90.8654740113
 11
587.339397361
 21
90.4543957813
  0
LINE
  5
408
100
AcDbEntity
  8
0
100
AcDbLine
 62
7
  6
CONTINUOUS
 10
584.1163678553
 20
88.9552187175
 11
584.5081336275
 21
88.5981412326
  0
LINE
  5
409
100
AcDbEntity
  8
0
100
AcDbLine
 62
7
  6
CONTINUOUS
 10
587.6037752664
 20
90.8897724497
 11
587.2120105799
 21
91.2468520032
  0
LINE
  5
40A
100
AcDbEntity
  8
0
100
AcDbLine
 62
7
  6
CONTINUOUS
 10
576.0673938321
 20
79.1112197852
 11
576.3743168742
 21
78.8122805269
  0
LINE
  5
40B
100
AcDbEntity
  8
0
100
AcDbLine
 62
7
  6
CONTINUOUS
 10
575.2790508087
 20
80.9495570921
 11
575.5859738508
 21
80.6506178338
  0
LINE
  5
40C
100
AcDbEntity
  8
BEZUGSACHSEN
100
AcDbLine
 62
7
  6
CONTINUOUS
 10
537.3146253466
 20
83.0972150984
 11
519.9087515154
 21
111.1153916437
  0
LINE
  5
40D
100
AcDbEntity
  8
0
100
AcDbLine
 62
7
  6
CONTINUOUS
 10
549.1242935065
 20
163.1298840859
 11
548.8099828648
 21
163.0561626061
  0
LINE
  5
40E
100
AcDbEntity
  8
BEZUGSACHSEN
100
AcDbLine
 62
7
  6
CONTINUOUS
 10
549.1242935065
 20
163.1298840859
 11
548.8099828648
 21
163.0561626061
  0
LINE
  5
40F
100
AcDbEntity
  8
0
100
AcDbLine
 62
7
  6
CONTINUOUS
 10
540.4155934985
 20
153.8666522828
 11
540.8410048601
 21
153.9658766742
  0
LINE
  5
410
100
AcDbEntity
  8
BEZUGSACHSEN
100
AcDbLine
 62
7
  6
CONTINUOUS
 10
540.4155934985
 20
153.8666522828
 11
540.8410048601
 21
153.9658766742
  0
LINE
  5
411
100
AcDbEntity
  8
0
100
AcDbLine
 62
7
  6
CONTINUOUS
 10
538.961483856
 20
158.0867883652
 11
538.5360724632
 21
157.9875639927
  0
LINE
  5
412
100
AcDbEntity
  8
BEZUGSACHSEN
100
AcDbLine
 62
7
  6
CONTINUOUS
 10
538.961483856
 20
158.0867883652
 11
538.5360724632
 21
157.9875639927
  0
LINE
  5
413
100
AcDbEntity
  8
0
100
AcDbLine
 62
7
  6
CONTINUOUS
 10
547.4095039153
 20
164.1439508859
 11
547.865339561
 21
164.183425463
  0
LINE
  5
414
100
AcDbEntity
  8
BEZUGSACHSEN
100
AcDbLine
 62
7
  6
CONTINUOUS
 10
547.4095039153
 20
164.1439508859
 11
547.865339561
 21
164.183425463
  0
LINE
  5
415
100
AcDbEntity
  8
RUNDUNGEN
100
AcDbLine
 62
7
  6
CONTINUOUS
 10
583.9243050723
 20
164.191942297
 11
577.0622711645
 21
164.191942297
  0
LINE
  5
416
100
AcDbEntity
  8
RUNDUNGEN
100
AcDbLine
 62
7
  6
CONTINUOUS
 10
548.4863389802
 20
164.191942297
 11
541.6243050723
 21
164.191942297
  0
LINE
  5
417
100
AcDbEntity
  8
RUNDUNGEN
100
AcDbLine
 62
7
  6
CONTINUOUS
 10
583.9243050723
 20
167.7274762029
 11
577.0622711645
 21
167.7274762029
  0
LINE
  5
418
100
AcDbEntity
  8
RUNDUNGEN
100
AcDbLine
 62
7
  6
CONTINUOUS
 10
548.4863389802
 20
167.7274762029
 11
541.6243050723
 21
167.7274762029
  0
LINE
  5
419
100
AcDbEntity
  8
0
100
AcDbLine
 62
7
  6
CONTINUOUS
 10
548.8099828648
 20
163.0561626061
 11
548.5269318682
 21
163.1246557938
  0
LINE
  5
41A
100
AcDbEntity
  8
BEZUGSACHSEN
100
AcDbLine
 62
7
  6
CONTINUOUS
 10
548.8099828648
 20
163.0561626061
 11
548.5269318682
 21
163.1246557938
  0
LINE
  5
41B
100
AcDbEntity
  8
0
100
AcDbLine
 62
7
  6
CONTINUOUS
 10
547.2111786192
 20
164.191942297
 11
547.4095039153
 21
164.1439508859
  0
LINE
  5
41C
100
AcDbEntity
  8
BEZUGSACHSEN
100
AcDbLine
 62
7
  6
CONTINUOUS
 10
547.2111786192
 20
164.191942297
 11
547.4095039153
 21
164.1439508859
  0
LINE
  5
41D
100
AcDbEntity
  8
0
100
AcDbLine
 62
7
  6
CONTINUOUS
 10
548.0637086229
 20
162.7125204786
 11
548.5434173028
 21
162.5215496029
  0
LINE
  5
41E
100
AcDbEntity
  8
BEZUGSACHSEN
100
AcDbLine
 62
7
  6
CONTINUOUS
 10
548.0637086229
 20
162.7125204786
 11
548.5434173028
 21
162.5215496029
  0
LINE
  5
41F
100
AcDbEntity
  8
0
100
AcDbLine
 62
7
  6
CONTINUOUS
 10
540.0646736083
 20
157.2977034186
 11
540.6871704863
 21
156.9196987328
  0
LINE
  5
420
100
AcDbEntity
  8
BEZUGSACHSEN
100
AcDbLine
 62
7
  6
CONTINUOUS
 10
540.0646736083
 20
157.2977034186
 11
540.6871704863
 21
156.9196987328
  0
LINE
  5
421
100
AcDbEntity
  8
0
100
AcDbLine
 62
7
  6
CONTINUOUS
 10
541.0404765172
 20
157.3010747317
 11
540.2401233883
 21
157.7870807564
  0
LINE
  5
422
100
AcDbEntity
  8
BEZUGSACHSEN
100
AcDbLine
 62
7
  6
CONTINUOUS
 10
541.0404765172
 20
157.3010747317
 11
540.2401233883
 21
157.7870807564
  0
LINE
  5
423
100
AcDbEntity
  8
0
100
AcDbLine
 62
7
  6
CONTINUOUS
 10
548.5269318682
 20
163.1246557938
 11
548.3302741848
 21
163.2471334817
  0
LINE
  5
424
100
AcDbEntity
  8
BEZUGSACHSEN
100
AcDbLine
 62
7
  6
CONTINUOUS
 10
548.5269318682
 20
163.1246557938
 11
548.3302741848
 21
163.2471334817
  0
LINE
  5
425
100
AcDbEntity
  8
0
100
AcDbLine
 62
7
  6
CONTINUOUS
 10
539.4594063327
 20
159.9667311789
 11
543.2664364125
 21
156.8979577167
  0
LINE
  5
426
100
AcDbEntity
  8
BEZUGSACHSEN
100
AcDbLine
 62
7
  6
CONTINUOUS
 10
539.4594063327
 20
159.9667311789
 11
543.2664364125
 21
156.8979577167
  0
LINE
  5
427
100
AcDbEntity
  8
0
100
AcDbLine
 62
7
  6
CONTINUOUS
 10
543.0020280526
 20
157.8961808336
 11
539.8430030154
 21
160.4426099389
  0
LINE
  5
428
100
AcDbEntity
  8
BEZUGSACHSEN
100
AcDbLine
 62
7
  6
CONTINUOUS
 10
543.0020280526
 20
157.8961808336
 11
539.8430030154
 21
160.4426099389
  0
LINE
  5
429
100
AcDbEntity
  8
0
100
AcDbLine
 62
7
  6
CONTINUOUS
 10
543.4666253657
 20
158.3067665489
 11
542.8186200961
 21
158.8291110887
  0
LINE
  5
42A
100
AcDbEntity
  8
BEZUGSACHSEN
100
AcDbLine
 62
7
  6
CONTINUOUS
 10
543.4666253657
 20
158.3067665489
 11
542.8186200961
 21
158.8291110887
  0
LINE
  5
42B
100
AcDbEntity
  8
0
100
AcDbLine
 62
7
  6
CONTINUOUS
 10
538.6899068059
 20
155.0337419531
 11
538.2092127837
 21
155.444820183
  0
LINE
  5
42C
100
AcDbEntity
  8
BEZUGSACHSEN
100
AcDbLine
 62
7
  6
CONTINUOUS
 10
538.6899068059
 20
155.0337419531
 11
538.2092127837
 21
155.444820183
  0
LINE
  5
42D
100
AcDbEntity
  8
0
100
AcDbLine
 62
7
  6
CONTINUOUS
 10
540.6871704863
 20
156.9196987328
 11
541.1678631738
 21
156.5086185855
  0
LINE
  5
42E
100
AcDbEntity
  8
BEZUGSACHSEN
100
AcDbLine
 62
7
  6
CONTINUOUS
 10
540.6871704863
 20
156.9196987328
 11
541.1678631738
 21
156.5086185855
  0
LINE
  5
42F
100
AcDbEntity
  8
0
100
AcDbLine
 62
7
  6
CONTINUOUS
 10
537.9448348783
 20
155.0094435147
 11
538.3365995648
 21
154.6523639611
  0
LINE
  5
430
100
AcDbEntity
  8
BEZUGSACHSEN
100
AcDbLine
 62
7
  6
CONTINUOUS
 10
537.9448348783
 20
155.0094435147
 11
538.3365995648
 21
154.6523639611
  0
LINE
  5
431
100
AcDbEntity
  8
0
100
AcDbLine
 62
7
  6
CONTINUOUS
 10
541.4322422894
 20
156.9439972469
 11
541.0404765172
 21
157.3010747317
  0
LINE
  5
432
100
AcDbEntity
  8
BEZUGSACHSEN
100
AcDbLine
 62
7
  6
CONTINUOUS
 10
541.4322422894
 20
156.9439972469
 11
541.0404765172
 21
157.3010747317
  0
LINE
  5
433
100
AcDbEntity
  8
0
100
AcDbLine
 62
7
  6
CONTINUOUS
 10
583.902459295
 20
89.2042970078
 11
584.1163678553
 21
88.9552187175
  0
LINE
  5
434
100
AcDbEntity
  8
0
100
AcDbLine
 62
7
  6
CONTINUOUS
 10
573.0826792463
 20
77.0175756156
 11
570.2255188334
 21
80.49123989
  0
LINE
  5
435
100
AcDbEntity
  8
0
100
AcDbLine
 62
7
  6
CONTINUOUS
 10
569.6546943047
 20
80.2726847101
 11
572.9253346686
 21
76.2889023629
  0
LINE
  5
436
100
AcDbEntity
  8
0
100
AcDbLine
 62
7
  6
CONTINUOUS
 10
557.4828102986
 20
188.8493972532
 11
557.657853191
 21
188.874714764
  0
LINE
  5
437
100
AcDbEntity
  8
0
100
AcDbLine
 62
7
  6
CONTINUOUS
 10
557.6522958699
 20
190.1846388166
 11
557.4772529859
 21
190.1593213146
  0
LINE
  5
438
100
AcDbEntity
  8
0
100
AcDbLine
 62
7
  6
CONTINUOUS
 10
555.9236674841
 20
189.6584977134
 11
555.7749596827
 21
189.6390801376
  0
LINE
  5
439
100
AcDbEntity
  8
0
100
AcDbLine
 62
7
  6
CONTINUOUS
 10
555.4395317563
 20
190.2697506855
 11
555.5882395577
 21
190.2891682613
  0
LINE
  5
43A
100
AcDbEntity
  8
0
100
AcDbLine
 62
7
  6
CONTINUOUS
 10
555.6359273581
 20
190.4387198006
 11
555.3385117417
 21
190.3998846533
  0
LINE
  5
43B
100
AcDbEntity
  8
0
100
AcDbLine
 62
7
  6
CONTINUOUS
 10
555.7313029799
 20
190.7378229649
 11
555.8800107813
 21
190.7572405406
  0
LINE
  5
43C
100
AcDbEntity
  8
0
100
AcDbLine
 62
7
  6
CONTINUOUS
 10
555.7272719535
 20
189.4895285559
 11
555.9693972176
 21
189.5127133258
  0
LINE
  5
43D
100
AcDbEntity
  8
0
100
AcDbLine
 62
7
  6
CONTINUOUS
 10
555.9276985817
 20
190.90679208
 11
555.6855732404
 21
190.8836073428
  0
LINE
  5
43E
100
AcDbEntity
  8
0
100
AcDbLine
 62
7
  6
CONTINUOUS
 10
560.2732764128
 20
188.978356438
 11
560.4808924141
 21
188.9905695621
  0
LINE
  5
43F
100
AcDbEntity
  8
0
100
AcDbLine
 62
7
  6
CONTINUOUS
 10
560.5639951832
 20
189.2792780196
 11
560.3563790037
 21
189.2670647835
  0
LINE
  5
440
100
AcDbEntity
  8
0
100
AcDbLine
 62
7
  6
CONTINUOUS
 10
557.4745204278
 20
188.9986096219
 11
557.3232994016
 21
188.9982249572
  0
LINE
  5
441
100
AcDbEntity
  8
0
100
AcDbLine
 62
7
  6
CONTINUOUS
 10
557.6605857491
 20
190.0354264567
 11
557.8118067753
 21
190.0358111213
  0
LINE
  5
442
100
AcDbEntity
  8
0
100
AcDbLine
 62
7
  6
CONTINUOUS
 10
550.7743050723
 20
177.6269711395
 11
574.7743050723
 21
177.6269711395
  0
LINE
  5
443
100
AcDbEntity
  8
0
100
AcDbLine
 62
7
  6
CONTINUOUS
 10
574.2743050723
 20
177.9805245301
 11
551.2743050723
 21
177.9805245301
  0
LINE
  5
444
100
AcDbEntity
  8
0
100
AcDbLine
 62
7
  6
CONTINUOUS
 10
570.7743050723
 20
180.0957264579
 11
571.4409717589
 21
180.0957264579
  0
LINE
  5
445
100
AcDbEntity
  8
0
100
AcDbLine
 62
7
  6
CONTINUOUS
 10
571.8576384454
 20
180.0957264579
 11
572.7743050723
 21
180.0957264579
  0
LINE
  5
446
100
AcDbEntity
  8
0
100
AcDbLine
 62
7
  6
CONTINUOUS
 10
572.7743050723
 20
180.3364436313
 11
571.8576384454
 21
180.3364436313
  0
LINE
  5
447
100
AcDbEntity
  8
0
100
AcDbLine
 62
7
  6
CONTINUOUS
 10
571.4409717589
 20
180.3364436313
 11
570.7743050723
 21
180.3364436313
  0
LINE
  5
448
100
AcDbEntity
  8
0
100
AcDbLine
 62
7
  6
CONTINUOUS
 10
571.8576384454
 20
180.4643247561
 11
571.4409717589
 21
180.4643247561
  0
LINE
  5
449
100
AcDbEntity
  8
0
100
AcDbLine
 62
7
  6
CONTINUOUS
 10
571.8576384454
 20
180.8178781467
 11
571.4409717589
 21
180.8178781467
  0
LINE
  5
44A
100
AcDbEntity
  8
0
100
AcDbLine
 62
7
  6
CONTINUOUS
 10
551.2743050723
 20
182.2231652172
 11
574.2743050723
 21
182.2231652172
  0
LINE
  5
44B
100
AcDbEntity
  8
0
100
AcDbLine
 62
7
  6
CONTINUOUS
 10
572.7743050723
 20
182.5767186078
 11
552.4455586749
 21
182.5767186078
  0
LINE
  5
44C
100
AcDbEntity
  8
0
100
AcDbLine
 62
7
  6
CONTINUOUS
 10
551.2743050723
 20
190.0013398103
 11
550.7743050723
 21
190.0013398103
  0
LINE
  5
44D
100
AcDbEntity
  8
0
100
AcDbLine
 62
7
  6
CONTINUOUS
 10
551.2743050723
 20
190.3548932009
 11
550.7743050723
 21
190.3548932009
  0
LINE
  5
44E
100
AcDbEntity
  8
0
100
AcDbLine
 62
7
  6
CONTINUOUS
 10
557.2387157363
 20
188.8570671477
 11
557.4828102986
 21
188.8493972532
  0
LINE
  5
44F
100
AcDbEntity
  8
0
100
AcDbLine
 62
7
  6
CONTINUOUS
 10
557.8963902284
 20
190.1769690099
 11
557.6522958699
 21
190.1846388166
  0
LINE
  5
450
100
AcDbEntity
  8
0
100
AcDbLine
 62
7
  6
CONTINUOUS
 10
555.7749596827
 20
189.6390801376
 11
555.6434149462
 21
189.6471962038
  0
LINE
  5
451
100
AcDbEntity
  8
0
100
AcDbLine
 62
7
  6
CONTINUOUS
 10
555.5882395577
 20
190.2891682613
 11
555.7197843488
 21
190.2810521781
  0
LINE
  5
452
100
AcDbEntity
  8
0
100
AcDbLine
 62
7
  6
CONTINUOUS
 10
555.8800107813
 20
190.7572405406
 11
556.0115555724
 21
190.7491244574
  0
LINE
  5
453
100
AcDbEntity
  8
0
100
AcDbLine
 62
7
  6
CONTINUOUS
 10
572.1076384454
 20
178.4708853741
 11
572.6076384454
 21
178.4107060754
  0
LINE
  5
454
100
AcDbEntity
  8
0
100
AcDbLine
 62
7
  6
CONTINUOUS
 10
572.6076384454
 20
178.6514232699
 11
572.1909716993
 21
178.7116025844
  0
LINE
  5
455
100
AcDbEntity
  8
0
100
AcDbLine
 62
7
  6
CONTINUOUS
 10
555.5194726041
 20
189.5214111428
 11
555.7272719535
 21
189.4895285559
  0
LINE
  5
456
100
AcDbEntity
  8
0
100
AcDbLine
 62
7
  6
CONTINUOUS
 10
555.8437266788
 20
190.4068372198
 11
555.6359273581
 21
190.4387198006
  0
LINE
  5
457
100
AcDbEntity
  8
0
100
AcDbLine
 62
7
  6
CONTINUOUS
 10
556.1354979024
 20
190.8749094992
 11
555.9276985817
 21
190.90679208
  0
LINE
  5
458
100
AcDbEntity
  8
0
100
AcDbLine
 62
7
  6
CONTINUOUS
 10
571.8576384454
 20
178.5310646727
 11
572.1076384454
 21
178.4708853741
  0
LINE
  5
459
100
AcDbEntity
  8
0
100
AcDbLine
 62
7
  6
CONTINUOUS
 10
557.3232994016
 20
188.9982249572
 11
557.1268485612
 21
189.0557605331
  0
LINE
  5
45A
100
AcDbEntity
  8
0
100
AcDbLine
 62
7
  6
CONTINUOUS
 10
557.8118067753
 20
190.0358111213
 11
558.0082574181
 21
189.9782756398
  0
LINE
  5
45B
100
AcDbEntity
  8
0
100
AcDbLine
 62
7
  6
CONTINUOUS
 10
555.328836321
 20
189.5808273741
 11
555.5194726041
 21
189.5214111428
  0
LINE
  5
45C
100
AcDbEntity
  8
0
100
AcDbLine
 62
7
  6
CONTINUOUS
 10
555.6434149462
 20
189.6471962038
 11
555.3765241062
 21
189.7303789412
  0
LINE
  5
45D
100
AcDbEntity
  8
0
100
AcDbLine
 62
7
  6
CONTINUOUS
 10
555.7197843488
 20
190.2810521781
 11
555.9866751887
 21
190.1978694407
  0
LINE
  5
45E
100
AcDbEntity
  8
0
100
AcDbLine
 62
7
  6
CONTINUOUS
 10
556.0343629619
 20
190.3474209886
 11
555.8437266788
 21
190.4068372198
  0
LINE
  5
45F
100
AcDbEntity
  8
0
100
AcDbLine
 62
7
  6
CONTINUOUS
 10
556.4423591903
 20
190.417557029
 11
556.6329954189
 21
190.3581408148
  0
LINE
  5
460
100
AcDbEntity
  8
0
100
AcDbLine
 62
7
  6
CONTINUOUS
 10
556.0115555724
 20
190.7491244574
 11
556.2403191339
 21
190.6778249731
  0
LINE
  5
461
100
AcDbEntity
  8
0
100
AcDbLine
 62
7
  6
CONTINUOUS
 10
556.2880069071
 20
190.827376521
 11
556.1354979024
 21
190.8749094992
  0
LINE
  5
462
100
AcDbEntity
  8
0
100
AcDbLine
 62
7
  6
CONTINUOUS
 10
557.0077392554
 20
188.9310963286
 11
557.2387157363
 21
188.8570671477
  0
LINE
  5
463
100
AcDbEntity
  8
0
100
AcDbLine
 62
7
  6
CONTINUOUS
 10
558.1273667073
 20
190.1029398269
 11
557.8963902284
 21
190.1769690099
  0
LINE
  5
464
100
AcDbEntity
  8
0
100
AcDbLine
 62
7
  6
CONTINUOUS
 10
562.7743050723
 20
186.6592015125
 11
572.7743050723
 21
182.5767186078
  0
LINE
  5
465
100
AcDbEntity
  8
0
100
AcDbLine
 62
7
  6
CONTINUOUS
 10
574.7743050723
 20
182.2231652172
 11
562.7743050723
 21
187.1221447028
  0
LINE
  5
466
100
AcDbEntity
  8
0
100
AcDbLine
 62
7
  6
CONTINUOUS
 10
571.6076383858
 20
178.6514232699
 11
571.8576384454
 21
178.5310646727
  0
LINE
  5
467
100
AcDbEntity
  8
0
100
AcDbLine
 62
7
  6
CONTINUOUS
 10
572.1909716993
 20
178.7116025844
 11
571.9409716993
 21
178.8319611711
  0
LINE
  5
468
100
AcDbEntity
  8
0
100
AcDbLine
 62
7
  6
CONTINUOUS
 10
547.8119182602
 20
162.9232289517
 11
548.0637086229
 21
162.7125204786
  0
LINE
  5
469
100
AcDbEntity
  8
BEZUGSACHSEN
100
AcDbLine
 62
7
  6
CONTINUOUS
 10
547.8119182602
 20
162.9232289517
 11
548.0637086229
 21
162.7125204786
  0
LINE
  5
46A
100
AcDbEntity
  8
0
100
AcDbLine
 62
7
  6
CONTINUOUS
 10
587.8176835775
 20
90.6406943106
 11
587.6037752664
 21
90.8897724497
  0
LINE
  5
46B
100
AcDbEntity
  8
0
100
AcDbLine
 62
7
  6
CONTINUOUS
 10
537.7309265672
 20
155.2585216537
 11
537.9448348783
 21
155.0094435147
  0
LINE
  5
46C
100
AcDbEntity
  8
BEZUGSACHSEN
100
AcDbLine
 62
7
  6
CONTINUOUS
 10
537.7309265672
 20
155.2585216537
 11
537.9448348783
 21
155.0094435147
  0
LINE
  5
46D
100
AcDbEntity
  8
0
100
AcDbLine
 62
7
  6
CONTINUOUS
 10
541.6461508497
 20
156.6949189565
 11
541.4322422894
 21
156.9439972469
  0
LINE
  5
46E
100
AcDbEntity
  8
BEZUGSACHSEN
100
AcDbLine
 62
7
  6
CONTINUOUS
 10
541.6461508497
 20
156.6949189565
 11
541.4322422894
 21
156.9439972469
  0
LINE
  5
46F
100
AcDbEntity
  8
0
100
AcDbLine
 62
7
  6
CONTINUOUS
 10
575.0585199366
 20
81.3024804799
 11
575.2790508087
 21
80.9495570921
  0
LINE
  5
470
100
AcDbEntity
  8
0
100
AcDbLine
 62
7
  6
CONTINUOUS
 10
575.7422740539
 20
81.3616924073
 11
575.6320086951
 21
81.5381539776
  0
LINE
  5
471
100
AcDbEntity
  8
0
100
AcDbLine
 62
7
  6
CONTINUOUS
 10
555.328951206
 20
190.2384498652
 11
555.4395317563
 21
190.2697506855
  0
LINE
  5
472
100
AcDbEntity
  8
0
100
AcDbLine
 62
7
  6
CONTINUOUS
 10
557.338794185
 20
208.2425344694
 11
557.18805152
 21
208.2340273061
  0
LINE
  5
473
100
AcDbEntity
  8
0
100
AcDbLine
 62
7
  6
CONTINUOUS
 10
557.1188783302
 20
208.0887336025
 11
557.3630915079
 21
208.0941986612
  0
LINE
  5
474
100
AcDbEntity
  8
0
100
AcDbLine
 62
7
  6
CONTINUOUS
 10
557.1297875801
 20
209.0541278371
 11
556.8855744079
 21
209.0486627853
  0
LINE
  5
475
100
AcDbEntity
  8
0
100
AcDbLine
 62
7
  6
CONTINUOUS
 10
550.7743050723
 20
196.0117474504
 11
574.7743050723
 21
196.0117474504
  0
LINE
  5
476
100
AcDbEntity
  8
0
100
AcDbLine
 62
7
  6
CONTINUOUS
 10
574.2743050723
 20
196.365300841
 11
551.2743050723
 21
196.365300841
  0
LINE
  5
477
100
AcDbEntity
  8
0
100
AcDbLine
 62
7
  6
CONTINUOUS
 10
570.7743050723
 20
198.5646812435
 11
571.4409717589
 21
198.5646812435
  0
LINE
  5
478
100
AcDbEntity
  8
0
100
AcDbLine
 62
7
  6
CONTINUOUS
 10
571.8576384454
 20
198.5646812435
 11
572.7743050723
 21
198.5646812435
  0
LINE
  5
479
100
AcDbEntity
  8
0
100
AcDbLine
 62
7
  6
CONTINUOUS
 10
572.7743050723
 20
198.8053984169
 11
571.8576384454
 21
198.8053984169
  0
LINE
  5
47A
100
AcDbEntity
  8
0
100
AcDbLine
 62
7
  6
CONTINUOUS
 10
571.4409717589
 20
198.8053984169
 11
570.7743050723
 21
198.8053984169
  0
LINE
  5
47B
100
AcDbEntity
  8
0
100
AcDbLine
 62
7
  6
CONTINUOUS
 10
571.8576384454
 20
198.9332795417
 11
571.4409717589
 21
198.9332795417
  0
LINE
  5
47C
100
AcDbEntity
  8
0
100
AcDbLine
 62
7
  6
CONTINUOUS
 10
571.8576384454
 20
199.2868329323
 11
571.4409717589
 21
199.2868329323
  0
LINE
  5
47D
100
AcDbEntity
  8
KONSTRUKTIONSELEMENTE
100
AcDbLine
 62
7
  6
CONTINUOUS
 10
600.3743050723
 20
199.3496079822
 11
585.903806469
 21
199.3496079822
  0
LINE
  5
47E
100
AcDbEntity
  8
KONSTRUKTIONSELEMENTE
100
AcDbLine
 62
7
  6
CONTINUOUS
 10
539.6448036757
 20
199.3496079822
 11
510.7743050723
 21
199.3496079822
  0
LINE
  5
47F
100
AcDbEntity
  8
0
100
AcDbLine
 62
7
  6
CONTINUOUS
 10
551.2743050723
 20
200.6079415281
 11
574.2743050723
 21
200.6079415281
  0
LINE
  5
480
100
AcDbEntity
  8
0
100
AcDbLine
 62
7
  6
CONTINUOUS
 10
573.3645135364
 20
200.9614949187
 11
552.1869798263
 21
200.9614949187
  0
LINE
  5
481
100
AcDbEntity
  8
KONSTRUKTIONSELEMENTE
100
AcDbLine
 62
7
  6
CONTINUOUS
 10
600.3743050723
 20
203.4496079822
 11
606.7743050723
 21
203.4496079822
  0
LINE
  5
482
100
AcDbEntity
  8
KONSTRUKTIONSELEMENTE
100
AcDbLine
 62
7
  6
CONTINUOUS
 10
526.7743050723
 20
207.6217177327
 11
510.7743050723
 21
207.6217177327
  0
LINE
  5
483
100
AcDbEntity
  8
0
100
AcDbLine
 62
7
  6
CONTINUOUS
 10
551.2743050723
 20
209.0932229023
 11
550.7743050723
 21
209.0932229023
  0
LINE
  5
484
100
AcDbEntity
  8
0
100
AcDbLine
 62
7
  6
CONTINUOUS
 10
551.2743050723
 20
209.4467762929
 11
550.7743050723
 21
209.4467762929
  0
LINE
  5
485
100
AcDbEntity
  8
0
100
AcDbLine
 62
7
  6
CONTINUOUS
 10
572.1076384454
 20
196.9398401597
 11
572.6076384454
 21
196.879660861
  0
LINE
  5
486
100
AcDbEntity
  8
0
100
AcDbLine
 62
7
  6
CONTINUOUS
 10
572.6076384454
 20
197.1203780555
 11
572.1909716993
 21
197.1805573699
  0
LINE
  5
487
100
AcDbEntity
  8
0
100
AcDbLine
 62
7
  6
CONTINUOUS
 10
557.18805152
 20
208.2340273061
 11
557.0221849351
 21
208.2662519391
  0
LINE
  5
488
100
AcDbEntity
  8
0
100
AcDbLine
 62
7
  6
CONTINUOUS
 10
557.0606144031
 20
208.9088341495
 11
557.2264809881
 21
208.8766095165
  0
LINE
  5
489
100
AcDbEntity
  8
0
100
AcDbLine
 62
7
  6
CONTINUOUS
 10
556.9168138081
 20
208.1355494523
 11
557.1188783302
 21
208.0887336025
  0
LINE
  5
48A
100
AcDbEntity
  8
0
100
AcDbLine
 62
7
  6
CONTINUOUS
 10
557.3318521003
 20
209.0073119851
 11
557.1297875801
 21
209.0541278371
  0
LINE
  5
48B
100
AcDbEntity
  8
0
100
AcDbLine
 62
7
  6
CONTINUOUS
 10
571.8576384454
 20
197.0000194583
 11
572.1076384454
 21
196.9398401597
  0
LINE
  5
48C
100
AcDbEntity
  8
0
100
AcDbLine
 62
7
  6
CONTINUOUS
 10
555.2268083532
 20
208.7064706053
 11
555.4619426086
 21
208.6464211176
  0
LINE
  5
48D
100
AcDbEntity
  8
0
100
AcDbLine
 62
7
  6
CONTINUOUS
 10
555.5159072524
 20
208.9189258273
 11
555.4291775746
 21
208.9410751849
  0
LINE
  5
48E
100
AcDbEntity
  8
0
100
AcDbLine
 62
7
  6
CONTINUOUS
 10
554.488640553
 20
209.342874569
 11
555.4291775746
 21
209.1026766182
  0
LINE
  5
48F
100
AcDbEntity
  8
0
100
AcDbLine
 62
7
  6
CONTINUOUS
 10
555.66431183
 20
209.0426271305
 11
556.0562022182
 21
208.9425446606
  0
LINE
  5
490
100
AcDbEntity
  8
0
100
AcDbLine
 62
7
  6
CONTINUOUS
 10
556.1429318961
 20
209.1123472602
 11
555.7510415078
 21
209.2124297302
  0
LINE
  5
491
100
AcDbEntity
  8
0
100
AcDbLine
 62
7
  6
CONTINUOUS
 10
555.5159072524
 20
209.2724792179
 11
554.8496935195
 21
209.4426194353
  0
LINE
  5
492
100
AcDbEntity
  8
0
100
AcDbLine
 62
7
  6
CONTINUOUS
 10
555.9815789331
 20
209.6637845038
 11
555.9061907523
 21
209.6830374265
  0
LINE
  5
493
100
AcDbEntity
  8
0
100
AcDbLine
 62
7
  6
CONTINUOUS
 10
556.1413250077
 20
209.9765413294
 11
555.9061907523
 21
210.0365908171
  0
LINE
  5
494
100
AcDbEntity
  8
0
100
AcDbLine
 62
7
  6
CONTINUOUS
 10
574.7743050723
 20
182.5767186078
 11
562.7743050723
 21
187.4756980934
  0
LINE
  5
495
100
AcDbEntity
  8
0
100
AcDbLine
 62
7
  6
CONTINUOUS
 10
571.6076383858
 20
197.1203780555
 11
571.8576384454
 21
197.0000194583
  0
LINE
  5
496
100
AcDbEntity
  8
0
100
AcDbLine
 62
7
  6
CONTINUOUS
 10
572.1909716993
 20
197.1805573699
 11
571.9409716993
 21
197.3009159566
  0
LINE
  5
497
100
AcDbEntity
  8
0
100
AcDbLine
 62
7
  6
CONTINUOUS
 10
555.1553630225
 20
189.6677772752
 11
555.328836321
 21
189.5808273741
  0
LINE
  5
498
100
AcDbEntity
  8
0
100
AcDbLine
 62
7
  6
CONTINUOUS
 10
556.2078362892
 20
190.2604710814
 11
556.0343629619
 21
190.3474209886
  0
LINE
  5
499
100
AcDbEntity
  8
0
100
AcDbLine
 62
7
  6
CONTINUOUS
 10
556.4614801798
 20
190.7404266308
 11
556.2880069071
 21
190.827376521
  0
LINE
  5
49A
100
AcDbEntity
  8
0
100
AcDbLine
 62
7
  6
CONTINUOUS
 10
555.3765241062
 20
189.7303789412
 11
555.2793053358
 21
189.7935623423
  0
LINE
  5
49B
100
AcDbEntity
  8
0
100
AcDbLine
 62
7
  6
CONTINUOUS
 10
555.9866751887
 20
190.1978694407
 11
556.0838939046
 21
190.1346860566
  0
LINE
  5
49C
100
AcDbEntity
  8
0
100
AcDbLine
 62
7
  6
CONTINUOUS
 10
556.2403191339
 20
190.6778249731
 11
556.3375379043
 21
190.614641572
  0
LINE
  5
49D
100
AcDbEntity
  8
0
100
AcDbLine
 62
7
  6
CONTINUOUS
 10
556.8244064943
 20
189.0549911886
 11
557.0077392554
 21
188.9310963286
  0
LINE
  5
49E
100
AcDbEntity
  8
0
100
AcDbLine
 62
7
  6
CONTINUOUS
 10
558.3106994705
 20
189.6254915784
 11
558.2129981377
 21
189.6915173805
  0
LINE
  5
49F
100
AcDbEntity
  8
0
100
AcDbLine
 62
7
  6
CONTINUOUS
 10
558.3106994705
 20
189.979044969
 11
558.1273667073
 21
190.1029398269
  0
LINE
  5
4A0
100
AcDbEntity
  8
0
100
AcDbLine
 62
7
  6
CONTINUOUS
 10
557.1268485612
 20
189.0557605331
 11
556.9780416341
 21
189.1631616895
  0
LINE
  5
4A1
100
AcDbEntity
  8
0
100
AcDbLine
 62
7
  6
CONTINUOUS
 10
558.0082574181
 20
189.9782756398
 11
558.1570645428
 21
189.8708743891
  0
LINE
  5
4A2
100
AcDbEntity
  8
0
100
AcDbLine
 62
7
  6
CONTINUOUS
 10
560.1902440153
 20
189.0444269343
 11
560.2732764128
 21
188.978356438
  0
LINE
  5
4A3
100
AcDbEntity
  8
0
100
AcDbLine
 62
7
  6
CONTINUOUS
 10
560.6470275807
 20
189.2132075233
 11
560.5639951832
 21
189.2792780196
  0
LINE
  5
4A4
100
AcDbEntity
  8
RUNDUNGEN
100
AcDbLine
 62
7
  6
CONTINUOUS
 10
572.9665109431
 20
165.6995772645
 11
567.6892173381
 21
171.0288687828
  0
LINE
  5
4A5
100
AcDbEntity
  8
RUNDUNGEN
100
AcDbLine
 62
7
  6
CONTINUOUS
 10
544.5422210176
 20
194.403935701
 11
518.7516288411
 21
220.4486461957
  0
LINE
  5
4A6
100
AcDbEntity
  8
0
100
AcDbLine
 62
7
  6
CONTINUOUS
 10
537.4809649232
 20
155.6486746379
 11
537.7309265672
 21
155.2585216537
  0
LINE
  5
4A7
100
AcDbEntity
  8
BEZUGSACHSEN
100
AcDbLine
 62
7
  6
CONTINUOUS
 10
537.4809649232
 20
155.6486746379
 11
537.7309265672
 21
155.2585216537
  0
LINE
  5
4A8
100
AcDbEntity
  8
0
100
AcDbLine
 62
7
  6
CONTINUOUS
 10
583.6524977134
 20
89.5944499542
 11
583.902459295
 21
89.2042970078
  0
LINE
  5
4A9
100
AcDbEntity
  8
0
100
AcDbLine
 62
7
  6
CONTINUOUS
 10
541.8961124313
 20
156.3047660101
 11
541.6461508497
 21
156.6949189565
  0
LINE
  5
4AA
100
AcDbEntity
  8
BEZUGSACHSEN
100
AcDbLine
 62
7
  6
CONTINUOUS
 10
541.8961124313
 20
156.3047660101
 11
541.6461508497
 21
156.6949189565
  0
LINE
  5
4AB
100
AcDbEntity
  8
0
100
AcDbLine
 62
7
  6
CONTINUOUS
 10
588.0676452215
 20
90.2505413264
 11
587.8176835775
 21
90.6406943106
  0
LINE
  5
4AC
100
AcDbEntity
  8
0
100
AcDbLine
 62
7
  6
CONTINUOUS
 10
578.6353004212
 20
80.9611878883
 11
578.8006984594
 21
80.6964955328
  0
LINE
  5
4AD
100
AcDbEntity
  8
0
100
AcDbLine
 62
7
  6
CONTINUOUS
 10
579.3741870635
 20
80.9321692777
 11
579.0985236665
 21
81.3733232035
  0
LINE
  5
4AE
100
AcDbEntity
  8
0
100
AcDbLine
 62
7
  6
CONTINUOUS
 10
581.8368050723
 20
214.3288219719
 11
581.5243050723
 21
214.2535978552
  0
LINE
  5
4AF
100
AcDbEntity
  8
0
100
AcDbLine
 62
7
  6
CONTINUOUS
 10
579.857638803
 20
213.9527013884
 11
580.170138803
 21
214.0279255051
  0
LINE
  5
4B0
100
AcDbEntity
  8
0
100
AcDbLine
 62
7
  6
CONTINUOUS
 10
580.170138803
 20
214.3288219719
 11
579.857638803
 21
214.2535978552
  0
LINE
  5
4B1
100
AcDbEntity
  8
0
100
AcDbLine
 62
7
  6
CONTINUOUS
 10
577.1493050723
 20
214.3288219719
 11
576.8368050723
 21
214.2535978552
  0
LINE
  5
4B2
100
AcDbEntity
  8
0
100
AcDbLine
 62
7
  6
CONTINUOUS
 10
575.170138207
 20
213.9527013884
 11
575.482638207
 21
214.0279255051
  0
LINE
  5
4B3
100
AcDbEntity
  8
0
100
AcDbLine
 62
7
  6
CONTINUOUS
 10
575.482638207
 20
214.3288219719
 11
575.170138207
 21
214.2535978552
  0
LINE
  5
4B4
100
AcDbEntity
  8
0
100
AcDbLine
 62
7
  6
CONTINUOUS
 10
558.1284717887
 20
214.9306151162
 11
558.4409717887
 21
215.0058392328
  0
LINE
  5
4B5
100
AcDbEntity
  8
0
100
AcDbLine
 62
7
  6
CONTINUOUS
 10
559.482638505
 20
212.094665506
 11
559.0659717887
 21
212.0194413893
  0
LINE
  5
4B6
100
AcDbEntity
  8
0
100
AcDbLine
 62
7
  6
CONTINUOUS
 10
559.482638505
 20
212.4482188966
 11
559.0659717887
 21
212.3729947799
  0
LINE
  5
4B7
100
AcDbEntity
  8
0
100
AcDbLine
 62
7
  6
CONTINUOUS
 10
558.4409717887
 20
215.1036305424
 11
558.0243050723
 21
215.0284064257
  0
LINE
  5
4B8
100
AcDbEntity
  8
0
100
AcDbLine
 62
7
  6
CONTINUOUS
 10
558.4409717887
 20
215.457183933
 11
558.0243050723
 21
215.3819598163
  0
LINE
  5
4B9
100
AcDbEntity
  8
0
100
AcDbLine
 62
7
  6
CONTINUOUS
 10
572.2534716397
 20
212.0194413893
 11
571.732638505
 21
211.9442172726
  0
LINE
  5
4BA
100
AcDbEntity
  8
0
100
AcDbLine
 62
7
  6
CONTINUOUS
 10
572.2534716397
 20
212.3729947799
 11
571.732638505
 21
212.2977706632
  0
LINE
  5
4BB
100
AcDbEntity
  8
0
100
AcDbLine
 62
7
  6
CONTINUOUS
 10
559.0659717887
 20
211.9216500271
 11
559.5868050723
 21
211.9968741503
  0
LINE
  5
4BC
100
AcDbEntity
  8
0
100
AcDbLine
 62
7
  6
CONTINUOUS
 10
571.2118050723
 20
215.0058392328
 11
571.732638505
 21
215.0810633495
  0
LINE
  5
4BD
100
AcDbEntity
  8
0
100
AcDbLine
 62
7
  6
CONTINUOUS
 10
560.0346557703
 20
208.4352075144
 11
560.2395757897
 21
208.4617641564
  0
LINE
  5
4BE
100
AcDbEntity
  8
0
100
AcDbLine
 62
7
  6
CONTINUOUS
 10
560.2822219592
 20
208.7548447949
 11
560.077301778
 21
208.7282880291
  0
LINE
  5
4BF
100
AcDbEntity
  8
0
100
AcDbLine
 62
7
  6
CONTINUOUS
 10
571.732638505
 20
211.9216500271
 11
572.357638505
 21
211.9968741503
  0
LINE
  5
4C0
100
AcDbEntity
  8
0
100
AcDbLine
 62
7
  6
CONTINUOUS
 10
571.732638505
 20
215.1036305424
 11
571.107638505
 21
215.0284064257
  0
LINE
  5
4C1
100
AcDbEntity
  8
0
100
AcDbLine
 62
7
  6
CONTINUOUS
 10
571.732638505
 20
215.457183933
 11
571.107638505
 21
215.3819598163
  0
LINE
  5
4C2
100
AcDbEntity
  8
0
100
AcDbLine
 62
7
  6
CONTINUOUS
 10
556.8525995804
 20
208.8887777116
 11
557.0606144031
 21
208.9088341495
  0
LINE
  5
4C3
100
AcDbEntity
  8
0
100
AcDbLine
 62
7
  6
CONTINUOUS
 10
540.7743050723
 20
210.8609898553
 11
555.7743050723
 21
210.8609898553
  0
LINE
  5
4C4
100
AcDbEntity
  8
0
100
AcDbLine
 62
7
  6
CONTINUOUS
 10
555.2743050723
 20
211.2145432459
 11
541.2743050723
 21
211.2145432459
  0
LINE
  5
4C5
100
AcDbEntity
  8
KONSTRUKTIONSELEMENTE
100
AcDbLine
 62
7
  6
CONTINUOUS
 10
600.3743050723
 20
211.3593066701
 11
606.7743050723
 21
211.3593066701
  0
LINE
  5
4C6
100
AcDbEntity
  8
0
100
AcDbLine
 62
7
  6
CONTINUOUS
 10
558.232638356
 20
211.9216500271
 11
559.0659717887
 21
211.9216500271
  0
LINE
  5
4C7
100
AcDbEntity
  8
0
100
AcDbLine
 62
7
  6
CONTINUOUS
 10
568.3993050723
 20
211.9216500271
 11
569.0243050723
 21
211.9216500271
  0
LINE
  5
4C8
100
AcDbEntity
  8
0
100
AcDbLine
 62
7
  6
CONTINUOUS
 10
574.4409719377
 20
211.9216500271
 11
574.9618050723
 21
211.9216500271
  0
LINE
  5
4C9
100
AcDbEntity
  8
0
100
AcDbLine
 62
7
  6
CONTINUOUS
 10
576.107638207
 20
211.9216500271
 11
576.6284719377
 21
211.9216500271
  0
LINE
  5
4CA
100
AcDbEntity
  8
0
100
AcDbLine
 62
7
  6
CONTINUOUS
 10
577.7743050723
 20
211.9216500271
 11
578.295138803
 21
211.9216500271
  0
LINE
  5
4CB
100
AcDbEntity
  8
0
100
AcDbLine
 62
7
  6
CONTINUOUS
 10
579.1284713417
 20
211.9216500271
 11
579.6493050723
 21
211.9216500271
  0
LINE
  5
4CC
100
AcDbEntity
  8
0
100
AcDbLine
 62
7
  6
CONTINUOUS
 10
580.795138803
 20
211.9216500271
 11
581.3159713417
 21
211.9216500271
  0
LINE
  5
4CD
100
AcDbEntity
  8
0
100
AcDbLine
 62
7
  6
CONTINUOUS
 10
582.4618050723
 20
211.9216500271
 11
582.982638803
 21
211.9216500271
  0
LINE
  5
4CE
100
AcDbEntity
  8
0
100
AcDbLine
 62
7
  6
CONTINUOUS
 10
559.0659717887
 20
212.0194413893
 11
558.232638356
 21
212.0194413893
  0
LINE
  5
4CF
100
AcDbEntity
  8
0
100
AcDbLine
 62
7
  6
CONTINUOUS
 10
559.0659717887
 20
212.3729947799
 11
558.232638356
 21
212.3729947799
  0
LINE
  5
4D0
100
AcDbEntity
  8
0
100
AcDbLine
 62
7
  6
CONTINUOUS
 10
557.3993050723
 20
212.5460102588
 11
556.9222217692
 21
212.5460102588
  0
LINE
  5
4D1
100
AcDbEntity
  8
0
100
AcDbLine
 62
7
  6
CONTINUOUS
 10
557.3993050723
 20
212.8995636494
 11
556.7743050723
 21
212.8995636494
  0
LINE
  5
4D2
100
AcDbEntity
  8
0
100
AcDbLine
 62
7
  6
CONTINUOUS
 10
558.4409717887
 20
213.5013566883
 11
559.0659717887
 21
213.5013566883
  0
LINE
  5
4D3
100
AcDbEntity
  8
0
100
AcDbLine
 62
7
  6
CONTINUOUS
 10
559.0659717887
 20
213.5991479978
 11
558.4409717887
 21
213.5991479978
  0
LINE
  5
4D4
100
AcDbEntity
  8
0
100
AcDbLine
 62
7
  6
CONTINUOUS
 10
559.0659717887
 20
213.9527013884
 11
558.4409717887
 21
213.9527013884
  0
LINE
  5
4D5
100
AcDbEntity
  8
0
100
AcDbLine
 62
7
  6
CONTINUOUS
 10
582.2534713417
 20
213.9752685813
 11
582.1909716968
 21
213.9752685813
  0
LINE
  5
4D6
100
AcDbEntity
  8
0
100
AcDbLine
 62
7
  6
CONTINUOUS
 10
580.5868050723
 20
213.9752685813
 11
580.5243050699
 21
213.9752685813
  0
LINE
  5
4D7
100
AcDbEntity
  8
0
100
AcDbLine
 62
7
  6
CONTINUOUS
 10
579.6493050723
 20
213.9752685813
 11
579.1284713417
 21
213.9752685813
  0
LINE
  5
4D8
100
AcDbEntity
  8
0
100
AcDbLine
 62
7
  6
CONTINUOUS
 10
577.5659719377
 20
213.9752685813
 11
577.5034719352
 21
213.9752685813
  0
LINE
  5
4D9
100
AcDbEntity
  8
0
100
AcDbLine
 62
7
  6
CONTINUOUS
 10
575.8993050723
 20
213.9752685813
 11
575.8368052487
 21
213.9752685813
  0
LINE
  5
4DA
100
AcDbEntity
  8
0
100
AcDbLine
 62
7
  6
CONTINUOUS
 10
574.9618050723
 20
213.9752685813
 11
574.4409719377
 21
213.9752685813
  0
LINE
  5
4DB
100
AcDbEntity
  8
0
100
AcDbLine
 62
7
  6
CONTINUOUS
 10
575.482638207
 20
214.0279255051
 11
575.6909719377
 21
214.0279255051
  0
LINE
  5
4DC
100
AcDbEntity
  8
0
100
AcDbLine
 62
7
  6
CONTINUOUS
 10
577.045138207
 20
214.0279255051
 11
577.357638207
 21
214.0279255051
  0
LINE
  5
4DD
100
AcDbEntity
  8
0
100
AcDbLine
 62
7
  6
CONTINUOUS
 10
580.170138803
 20
214.0279255051
 11
580.3784713417
 21
214.0279255051
  0
LINE
  5
4DE
100
AcDbEntity
  8
0
100
AcDbLine
 62
7
  6
CONTINUOUS
 10
581.732638803
 20
214.0279255051
 11
582.045138803
 21
214.0279255051
  0
LINE
  5
4DF
100
AcDbEntity
  8
0
100
AcDbLine
 62
7
  6
CONTINUOUS
 10
582.2534713417
 20
214.3288219719
 11
581.8368050723
 21
214.3288219719
  0
LINE
  5
4E0
100
AcDbEntity
  8
0
100
AcDbLine
 62
7
  6
CONTINUOUS
 10
580.5868050723
 20
214.3288219719
 11
580.170138803
 21
214.3288219719
  0
LINE
  5
4E1
100
AcDbEntity
  8
0
100
AcDbLine
 62
7
  6
CONTINUOUS
 10
579.6493050723
 20
214.3288219719
 11
579.1284713417
 21
214.3288219719
  0
LINE
  5
4E2
100
AcDbEntity
  8
0
100
AcDbLine
 62
7
  6
CONTINUOUS
 10
577.5659719377
 20
214.3288219719
 11
577.1493050723
 21
214.3288219719
  0
LINE
  5
4E3
100
AcDbEntity
  8
0
100
AcDbLine
 62
7
  6
CONTINUOUS
 10
575.8993050723
 20
214.3288219719
 11
575.482638207
 21
214.3288219719
  0
LINE
  5
4E4
100
AcDbEntity
  8
0
100
AcDbLine
 62
7
  6
CONTINUOUS
 10
574.9618050723
 20
214.3288219719
 11
574.4409719377
 21
214.3288219719
  0
LINE
  5
4E5
100
AcDbEntity
  8
0
100
AcDbLine
 62
7
  6
CONTINUOUS
 10
559.6909716397
 20
214.6297186494
 11
560.3159716397
 21
214.6297186494
  0
LINE
  5
4E6
100
AcDbEntity
  8
0
100
AcDbLine
 62
7
  6
CONTINUOUS
 10
558.4409717887
 20
215.0058392328
 11
559.0659717887
 21
215.0058392328
  0
LINE
  5
4E7
100
AcDbEntity
  8
0
100
AcDbLine
 62
7
  6
CONTINUOUS
 10
569.0243050723
 20
215.1036305424
 11
568.3993050723
 21
215.1036305424
  0
LINE
  5
4E8
100
AcDbEntity
  8
0
100
AcDbLine
 62
7
  6
CONTINUOUS
 10
558.9618050723
 20
215.1036305424
 11
558.4409717887
 21
215.1036305424
  0
LINE
  5
4E9
100
AcDbEntity
  8
0
100
AcDbLine
 62
7
  6
CONTINUOUS
 10
569.0243050723
 20
215.457183933
 11
568.3993050723
 21
215.457183933
  0
LINE
  5
4EA
100
AcDbEntity
  8
0
100
AcDbLine
 62
7
  6
CONTINUOUS
 10
558.9618050723
 20
215.457183933
 11
558.4409717887
 21
215.457183933
  0
LINE
  5
4EB
100
AcDbEntity
  8
0
100
AcDbLine
 62
7
  6
CONTINUOUS
 10
540.7743050723
 20
216.1642907142
 11
555.7743050723
 21
216.1642907142
  0
LINE
  5
4EC
100
AcDbEntity
  8
0
100
AcDbLine
 62
7
  6
CONTINUOUS
 10
555.7743050723
 20
216.5178441048
 11
540.7743050723
 21
216.5178441048
  0
LINE
  5
4ED
100
AcDbEntity
  8
0
100
AcDbLine
 62
7
  6
CONTINUOUS
 10
571.107638505
 20
211.9968741503
 11
571.732638505
 21
211.9216500271
  0
LINE
  5
4EE
100
AcDbEntity
  8
0
100
AcDbLine
 62
7
  6
CONTINUOUS
 10
572.357638505
 20
215.0284064257
 11
571.732638505
 21
215.1036305424
  0
LINE
  5
4EF
100
AcDbEntity
  8
0
100
AcDbLine
 62
7
  6
CONTINUOUS
 10
572.357638505
 20
215.3819598163
 11
571.732638505
 21
215.457183933
  0
LINE
  5
4F0
100
AcDbEntity
  8
0
100
AcDbLine
 62
7
  6
CONTINUOUS
 10
557.7118050723
 20
211.9968741503
 11
558.232638356
 21
211.9216500271
  0
LINE
  5
4F1
100
AcDbEntity
  8
0
100
AcDbLine
 62
7
  6
CONTINUOUS
 10
559.5868050723
 20
213.5239238812
 11
559.0659717887
 21
213.5991479978
  0
LINE
  5
4F2
100
AcDbEntity
  8
0
100
AcDbLine
 62
7
  6
CONTINUOUS
 10
571.732638505
 20
211.9442172726
 11
571.2118050723
 21
212.0194413893
  0
LINE
  5
4F3
100
AcDbEntity
  8
0
100
AcDbLine
 62
7
  6
CONTINUOUS
 10
559.5868050723
 20
213.8774772718
 11
559.0659717887
 21
213.9527013884
  0
LINE
  5
4F4
100
AcDbEntity
  8
0
100
AcDbLine
 62
7
  6
CONTINUOUS
 10
571.732638505
 20
212.2977706632
 11
571.2118050723
 21
212.3729947799
  0
LINE
  5
4F5
100
AcDbEntity
  8
0
100
AcDbLine
 62
7
  6
CONTINUOUS
 10
559.482638505
 20
215.0284064257
 11
558.9618050723
 21
215.1036305424
  0
LINE
  5
4F6
100
AcDbEntity
  8
0
100
AcDbLine
 62
7
  6
CONTINUOUS
 10
559.482638505
 20
215.3819598163
 11
558.9618050723
 21
215.457183933
  0
LINE
  5
4F7
100
AcDbEntity
  8
0
100
AcDbLine
 62
7
  6
CONTINUOUS
 10
571.732638505
 20
215.0810633495
 11
572.2534716397
 21
215.0058392328
  0
LINE
  5
4F8
100
AcDbEntity
  8
0
100
AcDbLine
 62
7
  6
CONTINUOUS
 10
558.232638356
 20
212.0194413893
 11
557.8159717142
 21
212.094665506
  0
LINE
  5
4F9
100
AcDbEntity
  8
0
100
AcDbLine
 62
7
  6
CONTINUOUS
 10
558.232638356
 20
212.3729947799
 11
557.8159717142
 21
212.4482188966
  0
LINE
  5
4FA
100
AcDbEntity
  8
0
100
AcDbLine
 62
7
  6
CONTINUOUS
 10
558.0243050723
 20
213.576580805
 11
558.4409717887
 21
213.5013566883
  0
LINE
  5
4FB
100
AcDbEntity
  8
0
100
AcDbLine
 62
7
  6
CONTINUOUS
 10
559.0659717887
 20
213.5013566883
 11
559.482638505
 21
213.4261325716
  0
LINE
  5
4FC
100
AcDbEntity
  8
0
100
AcDbLine
 62
7
  6
CONTINUOUS
 10
558.4409717887
 20
213.5991479978
 11
558.1284717887
 21
213.6743721145
  0
LINE
  5
4FD
100
AcDbEntity
  8
0
100
AcDbLine
 62
7
  6
CONTINUOUS
 10
558.4409717887
 20
213.9527013884
 11
558.1284717887
 21
214.0279255051
  0
LINE
  5
4FE
100
AcDbEntity
  8
0
100
AcDbLine
 62
7
  6
CONTINUOUS
 10
559.0659717887
 20
215.0058392328
 11
559.3784716397
 21
214.9306151162
  0
LINE
  5
4FF
100
AcDbEntity
  8
0
100
AcDbLine
 62
7
  6
CONTINUOUS
 10
576.2118050723
 20
213.9000444646
 11
575.8993050723
 21
213.9752685813
  0
LINE
  5
500
100
AcDbEntity
  8
0
100
AcDbLine
 62
7
  6
CONTINUOUS
 10
576.2118050723
 20
214.2535978552
 11
575.8993050723
 21
214.3288219719
  0
LINE
  5
501
100
AcDbEntity
  8
0
100
AcDbLine
 62
7
  6
CONTINUOUS
 10
577.8784713417
 20
213.9000444646
 11
577.5659719377
 21
213.9752685813
  0
LINE
  5
502
100
AcDbEntity
  8
0
100
AcDbLine
 62
7
  6
CONTINUOUS
 10
577.8784713417
 20
214.2535978552
 11
577.5659719377
 21
214.3288219719
  0
LINE
  5
503
100
AcDbEntity
  8
0
100
AcDbLine
 62
7
  6
CONTINUOUS
 10
580.8993050723
 20
213.9000444646
 11
580.5868050723
 21
213.9752685813
  0
LINE
  5
504
100
AcDbEntity
  8
0
100
AcDbLine
 62
7
  6
CONTINUOUS
 10
580.8993050723
 20
214.2535978552
 11
580.5868050723
 21
214.3288219719
  0
LINE
  5
505
100
AcDbEntity
  8
0
100
AcDbLine
 62
7
  6
CONTINUOUS
 10
582.5659713417
 20
213.9000444646
 11
582.2534713417
 21
213.9752685813
  0
LINE
  5
506
100
AcDbEntity
  8
0
100
AcDbLine
 62
7
  6
CONTINUOUS
 10
582.5659713417
 20
214.2535978552
 11
582.2534713417
 21
214.3288219719
  0
LINE
  5
507
100
AcDbEntity
  8
0
100
AcDbLine
 62
7
  6
CONTINUOUS
 10
557.6076384305
 20
213.7270290384
 11
558.0243050723
 21
213.576580805
  0
LINE
  5
508
100
AcDbEntity
  8
0
100
AcDbLine
 62
7
  6
CONTINUOUS
 10
560.0034716397
 20
213.3734756478
 11
559.5868050723
 21
213.5239238812
  0
LINE
  5
509
100
AcDbEntity
  8
0
100
AcDbLine
 62
7
  6
CONTINUOUS
 10
560.0034716397
 20
213.7270290384
 11
559.5868050723
 21
213.8774772718
  0
LINE
  5
50A
100
AcDbEntity
  8
0
100
AcDbLine
 62
7
  6
CONTINUOUS
 10
575.6909719377
 20
214.0279255051
 11
575.8993050723
 21
213.9527013884
  0
LINE
  5
50B
100
AcDbEntity
  8
0
100
AcDbLine
 62
7
  6
CONTINUOUS
 10
577.357638207
 20
214.0279255051
 11
577.5659719377
 21
213.9527013884
  0
LINE
  5
50C
100
AcDbEntity
  8
0
100
AcDbLine
 62
7
  6
CONTINUOUS
 10
580.3784713417
 20
214.0279255051
 11
580.5868050723
 21
213.9527013884
  0
LINE
  5
50D
100
AcDbEntity
  8
0
100
AcDbLine
 62
7
  6
CONTINUOUS
 10
582.045138803
 20
214.0279255051
 11
582.2534713417
 21
213.9527013884
  0
LINE
  5
50E
100
AcDbEntity
  8
0
100
AcDbLine
 62
7
  6
CONTINUOUS
 10
556.6996253679
 20
208.2230971006
 11
556.9168138081
 21
208.1355494523
  0
LINE
  5
50F
100
AcDbEntity
  8
0
100
AcDbLine
 62
7
  6
CONTINUOUS
 10
556.6148325797
 20
208.3193483115
 11
556.5086129599
 21
208.3621649453
  0
LINE
  5
510
100
AcDbEntity
  8
0
100
AcDbLine
 62
7
  6
CONTINUOUS
 10
557.0221849351
 20
208.2662519391
 11
556.8049964949
 21
208.3537995874
  0
LINE
  5
511
100
AcDbEntity
  8
0
100
AcDbLine
 62
7
  6
CONTINUOUS
 10
556.6267334065
 20
208.6681045342
 11
556.4095449663
 21
208.7556521825
  0
LINE
  5
512
100
AcDbEntity
  8
0
100
AcDbLine
 62
7
  6
CONTINUOUS
 10
556.5992129979
 20
208.9909166625
 11
556.8525995804
 21
208.8887777116
  0
LINE
  5
513
100
AcDbEntity
  8
0
100
AcDbLine
 62
7
  6
CONTINUOUS
 10
557.2264809881
 20
208.8766095165
 11
557.4436694282
 21
208.7890618682
  0
LINE
  5
514
100
AcDbEntity
  8
0
100
AcDbLine
 62
7
  6
CONTINUOUS
 10
557.5490405405
 20
208.9197643367
 11
557.3318521003
 21
209.0073119851
  0
LINE
  5
515
100
AcDbEntity
  8
0
100
AcDbLine
 62
7
  6
CONTINUOUS
 10
557.222762026
 20
209.4669107578
 11
558.2725062916
 21
209.0437637353
  0
LINE
  5
516
100
AcDbEntity
  8
0
100
AcDbLine
 62
7
  6
CONTINUOUS
 10
558.3778774038
 20
209.1744662038
 11
557.1471428404
 21
209.6705695721
  0
LINE
  5
517
100
AcDbEntity
  8
0
100
AcDbLine
 62
7
  6
CONTINUOUS
 10
557.1909717514
 20
212.2225465202
 11
557.7118050723
 21
211.9968741503
  0
LINE
  5
518
100
AcDbEntity
  8
0
100
AcDbLine
 62
7
  6
CONTINUOUS
 10
570.5868050723
 20
212.2225465202
 11
571.107638505
 21
211.9968741503
  0
LINE
  5
519
100
AcDbEntity
  8
0
100
AcDbLine
 62
7
  6
CONTINUOUS
 10
572.8784719377
 20
214.8027340756
 11
572.357638505
 21
215.0284064257
  0
LINE
  5
51A
100
AcDbEntity
  8
0
100
AcDbLine
 62
7
  6
CONTINUOUS
 10
572.8784719377
 20
215.1562874662
 11
572.357638505
 21
215.3819598163
  0
LINE
  5
51B
100
AcDbEntity
  8
0
100
AcDbLine
 62
7
  6
CONTINUOUS
 10
558.1284717887
 20
213.6743721145
 11
557.8159717142
 21
213.8248203479
  0
LINE
  5
51C
100
AcDbEntity
  8
0
100
AcDbLine
 62
7
  6
CONTINUOUS
 10
558.1284717887
 20
214.0279255051
 11
557.8159717142
 21
214.1783737385
  0
LINE
  5
51D
100
AcDbEntity
  8
0
100
AcDbLine
 62
7
  6
CONTINUOUS
 10
559.482638505
 20
213.4261325716
 11
559.795138505
 21
213.2756843382
  0
LINE
  5
51E
100
AcDbEntity
  8
0
100
AcDbLine
 62
7
  6
CONTINUOUS
 10
571.2118050723
 20
212.0194413893
 11
570.8993050723
 21
212.1698896227
  0
LINE
  5
51F
100
AcDbEntity
  8
0
100
AcDbLine
 62
7
  6
CONTINUOUS
 10
571.2118050723
 20
212.3729947799
 11
570.8993050723
 21
212.5234430133
  0
LINE
  5
520
100
AcDbEntity
  8
0
100
AcDbLine
 62
7
  6
CONTINUOUS
 10
572.2534716397
 20
215.0058392328
 11
572.5659716397
 21
214.8553909995
  0
LINE
  5
521
100
AcDbEntity
  8
0
100
AcDbLine
 62
7
  6
CONTINUOUS
 10
559.8993050723
 20
214.8027340756
 11
559.482638505
 21
215.0284064257
  0
LINE
  5
522
100
AcDbEntity
  8
0
100
AcDbLine
 62
7
  6
CONTINUOUS
 10
559.8993050723
 20
215.1562874662
 11
559.482638505
 21
215.3819598163
  0
LINE
  5
523
100
AcDbEntity
  8
0
100
AcDbLine
 62
7
  6
CONTINUOUS
 10
556.5397092944
 20
208.3221939424
 11
556.6996253679
 21
208.2230971006
  0
LINE
  5
524
100
AcDbEntity
  8
0
100
AcDbLine
 62
7
  6
CONTINUOUS
 10
557.7089566158
 20
208.4671141067
 11
557.6461788022
 21
208.5060162802
  0
LINE
  5
525
100
AcDbEntity
  8
0
100
AcDbLine
 62
7
  6
CONTINUOUS
 10
557.7089566158
 20
208.8206674973
 11
557.5490405405
 21
208.9197643367
  0
LINE
  5
526
100
AcDbEntity
  8
0
100
AcDbLine
 62
7
  6
CONTINUOUS
 10
559.9428572221
 20
208.4951992911
 11
560.0346557703
 21
208.4352075144
  0
LINE
  5
527
100
AcDbEntity
  8
0
100
AcDbLine
 62
7
  6
CONTINUOUS
 10
560.3740205074
 20
208.6948530182
 11
560.2822219592
 21
208.7548447949
  0
LINE
  5
528
100
AcDbEntity
  8
0
100
AcDbLine
 62
7
  6
CONTINUOUS
 10
556.8049964949
 20
208.3537995874
 11
556.6812783549
 21
208.4383052079
  0
LINE
  5
529
100
AcDbEntity
  8
0
100
AcDbLine
 62
7
  6
CONTINUOUS
 10
557.4436694282
 20
208.7890618682
 11
557.5673875683
 21
208.7045562478
  0
LINE
  5
52A
100
AcDbEntity
  8
0
100
AcDbLine
 62
7
  6
CONTINUOUS
 10
562.7743050723
 20
208.4971026311
 11
573.3645135364
 21
200.9614949187
  0
LINE
  5
52B
100
AcDbEntity
  8
0
100
AcDbLine
 62
7
  6
CONTINUOUS
 10
574.7743050723
 20
200.6079415281
 11
562.7743050723
 21
209.1467056947
  0
LINE
  5
52C
100
AcDbEntity
  8
0
100
AcDbLine
 62
7
  6
CONTINUOUS
 10
574.7743050723
 20
200.9614949187
 11
562.7743050723
 21
209.5002590853
  0
LINE
  5
52D
100
AcDbEntity
  8
0
100
AcDbLine
 62
7
  6
CONTINUOUS
 10
557.8159717142
 20
212.094665506
 11
557.5034717142
 21
212.3203379087
  0
LINE
  5
52E
100
AcDbEntity
  8
0
100
AcDbLine
 62
7
  6
CONTINUOUS
 10
557.8159717142
 20
212.4482188966
 11
557.5034717142
 21
212.6738912993
  0
LINE
  5
52F
100
AcDbEntity
  8
0
100
AcDbLine
 62
7
  6
CONTINUOUS
 10
557.1909717514
 20
214.0279255051
 11
557.6076384305
 21
213.7270290384
  0
LINE
  5
530
100
AcDbEntity
  8
0
100
AcDbLine
 62
7
  6
CONTINUOUS
 10
560.420138505
 20
213.072579181
 11
560.0034716397
 21
213.3734756478
  0
LINE
  5
531
100
AcDbEntity
  8
0
100
AcDbLine
 62
7
  6
CONTINUOUS
 10
560.420138505
 20
213.4261325716
 11
560.0034716397
 21
213.7270290384
  0
LINE
  5
532
100
AcDbEntity
  8
RUNDUNGEN
100
AcDbLine
 62
7
  6
CONTINUOUS
 10
572.9665109431
 20
169.2351111705
 11
567.6892173381
 21
174.5644026887
  0
LINE
  5
533
100
AcDbEntity
  8
RUNDUNGEN
100
AcDbLine
 62
7
  6
CONTINUOUS
 10
544.5422210176
 20
197.9394696069
 11
518.7516288411
 21
223.9841801016
  0
LINE
  5
534
100
AcDbEntity
  8
RUNDUNGEN
100
AcDbLine
 62
7
  6
CONTINUOUS
 10
536.3942091393
 20
220.7148409994
 11
528.4176229637
 21
228.7700215961
  0
LINE
  5
535
100
AcDbEntity
  8
0
100
AcDbLine
 62
7
  6
CONTINUOUS
 10
555.0162157476
 20
189.809794499
 11
555.1553630225
 21
189.6677772752
  0
LINE
  5
536
100
AcDbEntity
  8
0
100
AcDbLine
 62
7
  6
CONTINUOUS
 10
556.3469834868
 20
189.7649004997
 11
556.2078362892
 21
189.9069176908
  0
LINE
  5
537
100
AcDbEntity
  8
0
100
AcDbLine
 62
7
  6
CONTINUOUS
 10
556.3469834868
 20
190.1184538903
 11
556.2078362892
 21
190.2604710814
  0
LINE
  5
538
100
AcDbEntity
  8
0
100
AcDbLine
 62
7
  6
CONTINUOUS
 10
556.6006274865
 20
190.5984094057
 11
556.4614801798
 21
190.7404266308
  0
LINE
  5
539
100
AcDbEntity
  8
0
100
AcDbLine
 62
7
  6
CONTINUOUS
 10
555.2793053358
 20
189.7935623423
 11
555.1992495757
 21
189.8842794023
  0
LINE
  5
53A
100
AcDbEntity
  8
0
100
AcDbLine
 62
7
  6
CONTINUOUS
 10
556.0838939046
 20
190.1346860566
 11
556.1639496647
 21
190.0439689966
  0
LINE
  5
53B
100
AcDbEntity
  8
0
100
AcDbLine
 62
7
  6
CONTINUOUS
 10
556.3375379043
 20
190.614641572
 11
556.4175936644
 21
190.523924512
  0
LINE
  5
53C
100
AcDbEntity
  8
0
100
AcDbLine
 62
7
  6
CONTINUOUS
 10
538.2092127837
 20
155.444820183
 11
537.8871470192
 21
156.1171267677
  0
LINE
  5
53D
100
AcDbEntity
  8
BEZUGSACHSEN
100
AcDbLine
 62
7
  6
CONTINUOUS
 10
538.2092127837
 20
155.444820183
 11
537.8871470192
 21
156.1171267677
  0
LINE
  5
53E
100
AcDbEntity
  8
0
100
AcDbLine
 62
7
  6
CONTINUOUS
 10
541.1678631738
 20
156.5086185855
 11
541.4899303353
 21
155.8363138803
  0
LINE
  5
53F
100
AcDbEntity
  8
BEZUGSACHSEN
100
AcDbLine
 62
7
  6
CONTINUOUS
 10
541.1678631738
 20
156.5086185855
 11
541.4899303353
 21
155.8363138803
  0
LINE
  5
540
100
AcDbEntity
  8
0
100
AcDbLine
 62
7
  6
CONTINUOUS
 10
584.3807469709
 20
89.3905973788
 11
584.0586798094
 21
90.062902084
  0
LINE
  5
541
100
AcDbEntity
  8
BEZUGSACHSEN
100
AcDbLine
 62
7
  6
CONTINUOUS
 10
550.2743050723
 20
233.2257822292
 11
557.1532380477
 21
233.2257822292
  0
LINE
  5
542
100
AcDbEntity
  8
BEZUGSACHSEN
100
AcDbLine
 62
7
  6
CONTINUOUS
 10
568.4018640945
 20
233.2257822292
 11
575.2743050723
 21
233.2257822292
  0
LINE
  5
543
100
AcDbEntity
  8
BEZUGSACHSEN
100
AcDbLine
 62
7
  6
CONTINUOUS
 10
579.5743050723
 20
235.9496079822
 11
575.2743050723
 21
235.9496079822
  0
LINE
  5
544
100
AcDbEntity
  8
BEZUGSACHSEN
100
AcDbLine
 62
7
  6
CONTINUOUS
 10
550.2743050723
 20
235.9496079822
 11
545.9743050723
 21
235.9496079822
  0
LINE
  5
545
100
AcDbEntity
  8
KONSTRUKTIONSELEMENTE
100
AcDbLine
 62
7
  6
CONTINUOUS
 10
600.3743050723
 20
236.0780290789
 11
606.7743050723
 21
236.0780290789
  0
LINE
  5
546
100
AcDbEntity
  8
RUNDUNGEN
100
AcDbLine
 62
7
  6
CONTINUOUS
 10
594.6129433029
 20
213.5292956451
 11
591.3363351257
 21
215.1516147958
  0
LINE
  5
547
100
AcDbEntity
  8
RUNDUNGEN
100
AcDbLine
 62
7
  6
CONTINUOUS
 10
571.3779516176
 20
225.2002533084
 11
575.4737118391
 21
223.17235437
  0
LINE
  5
548
100
AcDbEntity
  8
RUNDUNGEN
100
AcDbLine
 62
7
  6
CONTINUOUS
 10
596.8426689147
 20
217.1766693571
 11
600.1192770918
 21
215.5543502064
  0
LINE
  5
549
100
AcDbEntity
  8
RUNDUNGEN
100
AcDbLine
 62
7
  6
CONTINUOUS
 10
596.8426689147
 20
220.7122032631
 11
600.1192770918
 21
219.0898841124
  0
LINE
  5
54A
100
AcDbEntity
  8
0
100
AcDbLine
 62
7
  6
CONTINUOUS
 10
559.3784716397
 20
214.9306151162
 11
559.5868050723
 21
214.7801668828
  0
LINE
  5
54B
100
AcDbEntity
  8
0
100
AcDbLine
 62
7
  6
CONTINUOUS
 10
570.2743050723
 20
212.4482188966
 11
570.5868050723
 21
212.2225465202
  0
LINE
  5
54C
100
AcDbEntity
  8
0
100
AcDbLine
 62
7
  6
CONTINUOUS
 10
573.1909719377
 20
214.5770617256
 11
572.8784719377
 21
214.8027340756
  0
LINE
  5
54D
100
AcDbEntity
  8
0
100
AcDbLine
 62
7
  6
CONTINUOUS
 10
573.1909719377
 20
214.9306151162
 11
572.8784719377
 21
215.1562874662
  0
LINE
  5
54E
100
AcDbEntity
  8
0
100
AcDbLine
 62
7
  6
CONTINUOUS
 10
575.8993050723
 20
213.9527013884
 11
576.0034719377
 21
213.8774772718
  0
LINE
  5
54F
100
AcDbEntity
  8
0
100
AcDbLine
 62
7
  6
CONTINUOUS
 10
576.5243050723
 20
213.6743721145
 11
576.2118050723
 21
213.9000444646
  0
LINE
  5
550
100
AcDbEntity
  8
0
100
AcDbLine
 62
7
  6
CONTINUOUS
 10
576.5243050723
 20
214.0279255051
 11
576.2118050723
 21
214.2535978552
  0
LINE
  5
551
100
AcDbEntity
  8
0
100
AcDbLine
 62
7
  6
CONTINUOUS
 10
577.5659719377
 20
213.9527013884
 11
577.670138207
 21
213.8774772718
  0
LINE
  5
552
100
AcDbEntity
  8
0
100
AcDbLine
 62
7
  6
CONTINUOUS
 10
578.0868050723
 20
213.7495962312
 11
577.8784713417
 21
213.9000444646
  0
LINE
  5
553
100
AcDbEntity
  8
0
100
AcDbLine
 62
7
  6
CONTINUOUS
 10
578.0868050723
 20
214.1031496218
 11
577.8784713417
 21
214.2535978552
  0
LINE
  5
554
100
AcDbEntity
  8
0
100
AcDbLine
 62
7
  6
CONTINUOUS
 10
580.5868050723
 20
213.9527013884
 11
580.6909713417
 21
213.8774772718
  0
LINE
  5
555
100
AcDbEntity
  8
0
100
AcDbLine
 62
7
  6
CONTINUOUS
 10
581.2118050723
 20
213.6743721145
 11
580.8993050723
 21
213.9000444646
  0
LINE
  5
556
100
AcDbEntity
  8
0
100
AcDbLine
 62
7
  6
CONTINUOUS
 10
581.2118050723
 20
214.0279255051
 11
580.8993050723
 21
214.2535978552
  0
LINE
  5
557
100
AcDbEntity
  8
0
100
AcDbLine
 62
7
  6
CONTINUOUS
 10
582.2534713417
 20
213.9527013884
 11
582.357638803
 21
213.8774772718
  0
LINE
  5
558
100
AcDbEntity
  8
0
100
AcDbLine
 62
7
  6
CONTINUOUS
 10
582.7743050723
 20
213.7495962312
 11
582.5659713417
 21
213.9000444646
  0
LINE
  5
559
100
AcDbEntity
  8
0
100
AcDbLine
 62
7
  6
CONTINUOUS
 10
582.7743050723
 20
214.1031496218
 11
582.5659713417
 21
214.2535978552
  0
LINE
  5
55A
100
AcDbEntity
  8
0
100
AcDbLine
 62
7
  6
CONTINUOUS
 10
560.0789925286
 20
214.6297186494
 11
559.8993050723
 21
214.8027340756
  0
LINE
  5
55B
100
AcDbEntity
  8
0
100
AcDbLine
 62
7
  6
CONTINUOUS
 10
560.2118050723
 20
214.8553909995
 11
559.8993050723
 21
215.1562874662
  0
LINE
  5
55C
100
AcDbEntity
  8
RUNDUNGEN
100
AcDbLine
 62
7
  6
CONTINUOUS
 10
581.0063891271
 20
185.7720759767
 11
595.8700652938
 21
170.7619459262
  0
LINE
  5
55D
100
AcDbEntity
  8
0
100
AcDbLine
 62
7
  6
CONTINUOUS
 10
559.795138505
 20
213.2756843382
 11
560.0034716397
 21
213.0500118828
  0
LINE
  5
55E
100
AcDbEntity
  8
0
100
AcDbLine
 62
7
  6
CONTINUOUS
 10
556.8784717421
 20
212.5986671826
 11
557.1909717514
 21
212.2225465202
  0
LINE
  5
55F
100
AcDbEntity
  8
0
100
AcDbLine
 62
7
  6
CONTINUOUS
 10
556.4219414624
 20
208.4735718596
 11
556.5397092944
 21
208.3221939424
  0
LINE
  5
560
100
AcDbEntity
  8
0
100
AcDbLine
 62
7
  6
CONTINUOUS
 10
557.8014823845
 20
208.3481821655
 11
557.7089566158
 21
208.4671141067
  0
LINE
  5
561
100
AcDbEntity
  8
0
100
AcDbLine
 62
7
  6
CONTINUOUS
 10
557.8267244533
 20
208.6692895869
 11
557.7089566158
 21
208.8206674973
  0
LINE
  5
562
100
AcDbEntity
  8
0
100
AcDbLine
 62
7
  6
CONTINUOUS
 10
571.4409717589
 20
178.8921404644
 11
571.6076383858
 21
178.6514232699
  0
LINE
  5
563
100
AcDbEntity
  8
0
100
AcDbLine
 62
7
  6
CONTINUOUS
 10
556.6812783549
 20
208.4383052079
 11
556.6148325797
 21
208.5343600194
  0
LINE
  5
564
100
AcDbEntity
  8
0
100
AcDbLine
 62
7
  6
CONTINUOUS
 10
557.5673875683
 20
208.7045562478
 11
557.6338333435
 21
208.6085014362
  0
LINE
  5
565
100
AcDbEntity
  8
0
100
AcDbLine
 62
7
  6
CONTINUOUS
 10
556.723243289
 20
189.2122580264
 11
556.8244064943
 21
189.0549911886
  0
LINE
  5
566
100
AcDbEntity
  8
0
100
AcDbLine
 62
7
  6
CONTINUOUS
 10
558.3914866542
 20
189.4999011883
 11
558.3106994705
 21
189.6254915784
  0
LINE
  5
567
100
AcDbEntity
  8
0
100
AcDbLine
 62
7
  6
CONTINUOUS
 10
558.4118628795
 20
189.8217780434
 11
558.3106994705
 21
189.979044969
  0
LINE
  5
568
100
AcDbEntity
  8
0
100
AcDbLine
 62
7
  6
CONTINUOUS
 10
556.9780416341
 20
189.1631616895
 11
556.9221080392
 21
189.2625083745
  0
LINE
  5
569
100
AcDbEntity
  8
0
100
AcDbLine
 62
7
  6
CONTINUOUS
 10
558.1570645428
 20
189.8708743891
 11
558.2129981377
 21
189.771527704
  0
LINE
  5
56A
100
AcDbEntity
  8
0
100
AcDbLine
 62
7
  6
CONTINUOUS
 10
556.1639496647
 20
190.0439689966
 11
556.2058782009
 21
189.9651351726
  0
LINE
  5
56B
100
AcDbEntity
  8
0
100
AcDbLine
 62
7
  6
CONTINUOUS
 10
556.4098762366
 20
190.0002031712
 11
556.3469834868
 21
190.1184538903
  0
LINE
  5
56C
100
AcDbEntity
  8
0
100
AcDbLine
 62
7
  6
CONTINUOUS
 10
587.339397361
 20
90.4543957813
 11
587.6614631255
 21
89.7820891966
  0
LINE
  5
56D
100
AcDbEntity
  8
0
100
AcDbLine
 62
7
  6
CONTINUOUS
 10
574.9243815436
 20
81.709387503
 11
575.0585199366
 21
81.3024804799
  0
LINE
  5
56E
100
AcDbEntity
  8
0
100
AcDbLine
 62
7
  6
CONTINUOUS
 10
537.3728075011
 20
156.0719030646
 11
537.4809649232
 21
155.6486746379
  0
LINE
  5
56F
100
AcDbEntity
  8
BEZUGSACHSEN
100
AcDbLine
 62
7
  6
CONTINUOUS
 10
537.3728075011
 20
156.0719030646
 11
537.4809649232
 21
155.6486746379
  0
LINE
  5
570
100
AcDbEntity
  8
0
100
AcDbLine
 62
7
  6
CONTINUOUS
 10
542.0042698223
 20
155.8815376023
 11
541.8961124313
 21
156.3047660101
  0
LINE
  5
571
100
AcDbEntity
  8
BEZUGSACHSEN
100
AcDbLine
 62
7
  6
CONTINUOUS
 10
542.0042698223
 20
155.8815376023
 11
541.8961124313
 21
156.3047660101
  0
LINE
  5
572
100
AcDbEntity
  8
KONSTRUKTIONSELEMENTE
100
AcDbLine
 62
7
  6
CONTINUOUS
 10
510.7743050723
 20
199.3496079822
 11
510.7743050723
 21
248.9496079822
  0
LINE
  5
573
100
AcDbEntity
  8
RUNDUNGEN
100
AcDbLine
 62
7
  6
CONTINUOUS
 10
518.4803569075
 20
221.0570158772
 11
518.4803569075
 21
224.5925497831
  0
LINE
  5
574
100
AcDbEntity
  8
0
100
AcDbLine
 62
7
  6
CONTINUOUS
 10
518.7743050723
 20
115.091311687
 11
518.7743050723
 21
118.4289250462
  0
LINE
  5
575
100
AcDbEntity
  8
0
100
AcDbLine
 62
7
  6
CONTINUOUS
 10
518.7743050723
 20
127.4702909182
 11
518.7743050723
 21
128.4787636187
  0
LINE
  5
576
100
AcDbEntity
  8
KONSTRUKTIONSELEMENTE
100
AcDbLine
 62
7
  6
CONTINUOUS
 10
510.7743050723
 20
243.8790099511
 11
513.1110109223
 21
243.8790099511
  0
LINE
  5
577
100
AcDbEntity
  8
KONSTRUKTIONSELEMENTE
100
AcDbLine
 62
7
  6
CONTINUOUS
 10
600.3743050723
 20
244.4496079822
 11
606.7743050723
 21
244.4496079822
  0
LINE
  5
578
100
AcDbEntity
  8
KONSTRUKTIONSELEMENTE
100
AcDbLine
 62
7
  6
CONTINUOUS
 10
510.7743050723
 20
248.9496079822
 11
513.1110016643
 21
248.9496079822
  0
LINE
  5
579
100
AcDbEntity
  8
BEZUGSACHSEN
100
AcDbLine
 62
7
  6
CONTINUOUS
 10
550.2743050723
 20
257.9496079822
 11
560.5243050723
 21
257.9496079822
  0
LINE
  5
57A
100
AcDbEntity
  8
BEZUGSACHSEN
100
AcDbLine
 62
7
  6
CONTINUOUS
 10
565.0243050723
 20
257.9496079822
 11
575.2743050723
 21
257.9496079822
  0
LINE
  5
57B
100
AcDbEntity
  8
RUNDUNGEN
100
AcDbLine
 62
7
  6
CONTINUOUS
 10
602.7424336924
 20
227.2865007756
 11
603.5615857367
 21
226.880920988
  0
LINE
  5
57C
100
AcDbEntity
  8
0
100
AcDbLine
 62
7
  6
CONTINUOUS
 10
570.8993050723
 20
212.1698896227
 11
570.482638505
 21
212.6212343755
  0
LINE
  5
57D
100
AcDbEntity
  8
0
100
AcDbLine
 62
7
  6
CONTINUOUS
 10
570.8993050723
 20
212.5234430133
 11
570.482638505
 21
212.9747877661
  0
LINE
  5
57E
100
AcDbEntity
  8
0
100
AcDbLine
 62
7
  6
CONTINUOUS
 10
572.5659716397
 20
214.8553909995
 11
572.982638207
 21
214.4040460886
  0
LINE
  5
57F
100
AcDbEntity
  8
0
100
AcDbLine
 62
7
  6
CONTINUOUS
 10
560.6284716397
 20
212.7716826089
 11
560.420138505
 21
213.072579181
  0
LINE
  5
580
100
AcDbEntity
  8
0
100
AcDbLine
 62
7
  6
CONTINUOUS
 10
571.4409717589
 20
197.36109525
 11
571.6076383858
 21
197.1203780555
  0
LINE
  5
581
100
AcDbEntity
  8
0
100
AcDbLine
 62
7
  6
CONTINUOUS
 10
560.6284716397
 20
213.1252359995
 11
560.420138505
 21
213.4261325716
  0
LINE
  5
582
100
AcDbEntity
  8
0
100
AcDbLine
 62
7
  6
CONTINUOUS
 10
559.5868050723
 20
214.7801668828
 11
559.6909716397
 21
214.6297186494
  0
LINE
  5
583
100
AcDbEntity
  8
0
100
AcDbLine
 62
7
  6
CONTINUOUS
 10
570.0659717887
 20
212.749115416
 11
570.2743050723
 21
212.4482188966
  0
LINE
  5
584
100
AcDbEntity
  8
0
100
AcDbLine
 62
7
  6
CONTINUOUS
 10
573.3993050723
 20
214.2761652588
 11
573.1909719377
 21
214.5770617256
  0
LINE
  5
585
100
AcDbEntity
  8
0
100
AcDbLine
 62
7
  6
CONTINUOUS
 10
573.3993050723
 20
214.6297186494
 11
573.1909719377
 21
214.9306151162
  0
LINE
  5
586
100
AcDbEntity
  8
BEZUGSACHSEN
100
AcDbLine
 62
7
  6
CONTINUOUS
 10
592.608919504
 20
155.759683189
 11
605.6398586293
 21
134.7838243206
  0
LINE
  5
587
100
AcDbEntity
  8
0
100
AcDbLine
 62
7
  6
CONTINUOUS
 10
571.9240446239
 20
178.5150795637
 11
571.8576384454
 21
178.6589457027
  0
LINE
  5
588
100
AcDbEntity
  8
0
100
AcDbLine
 62
7
  6
CONTINUOUS
 10
571.9409716993
 20
178.8319611711
 11
571.8576384454
 21
179.0124990933
  0
LINE
  5
589
100
AcDbEntity
  8
0
100
AcDbLine
 62
7
  6
CONTINUOUS
 10
557.5034717142
 20
212.3203379087
 11
557.3993050723
 21
212.5460102588
  0
LINE
  5
58A
100
AcDbEntity
  8
0
100
AcDbLine
 62
7
  6
CONTINUOUS
 10
557.5034717142
 20
212.6738912993
 11
557.3993050723
 21
212.8995636494
  0
LINE
  5
58B
100
AcDbEntity
  8
0
100
AcDbLine
 62
7
  6
CONTINUOUS
 10
557.8159717142
 20
213.8248203479
 11
557.7118050723
 21
214.050492698
  0
LINE
  5
58C
100
AcDbEntity
  8
0
100
AcDbLine
 62
7
  6
CONTINUOUS
 10
557.8159717142
 20
214.1783737385
 11
557.7118050723
 21
214.4040460886
  0
LINE
  5
58D
100
AcDbEntity
  8
0
100
AcDbLine
 62
7
  6
CONTINUOUS
 10
554.9704860142
 20
189.9555788866
 11
555.0162157476
 21
189.809794499
  0
LINE
  5
58E
100
AcDbEntity
  8
0
100
AcDbLine
 62
7
  6
CONTINUOUS
 10
549.9214259539
 20
164.3416019627
 11
549.9956073176
 21
164.0423855016
  0
LINE
  5
58F
100
AcDbEntity
  8
BEZUGSACHSEN
100
AcDbLine
 62
7
  6
CONTINUOUS
 10
549.9214259539
 20
164.3416019627
 11
549.9956073176
 21
164.0423855016
  0
LINE
  5
590
100
AcDbEntity
  8
0
100
AcDbLine
 62
7
  6
CONTINUOUS
 10
575.6320086951
 20
81.5381539776
 11
575.5530028271
 21
81.8568304627
  0
LINE
  5
591
100
AcDbEntity
  8
0
100
AcDbLine
 62
7
  6
CONTINUOUS
 10
568.2467456639
 20
79.9926501021
 11
569.3952699139
 21
75.2395731367
  0
LINE
  5
592
100
AcDbEntity
  8
0
100
AcDbLine
 62
7
  6
CONTINUOUS
 10
569.9894045346
 20
75.383138668
 11
568.8408802846
 21
80.1362156333
  0
LINE
  5
593
100
AcDbEntity
  8
0
100
AcDbLine
 62
7
  6
CONTINUOUS
 10
542.8186200961
 20
158.8291110887
 11
543.0020280526
 21
157.8961808336
  0
LINE
  5
594
100
AcDbEntity
  8
BEZUGSACHSEN
100
AcDbLine
 62
7
  6
CONTINUOUS
 10
542.8186200961
 20
158.8291110887
 11
543.0020280526
 21
157.8961808336
  0
LINE
  5
595
100
AcDbEntity
  8
0
100
AcDbLine
 62
7
  6
CONTINUOUS
 10
543.6500330953
 20
157.3738364767
 11
543.4666253657
 21
158.3067665489
  0
LINE
  5
596
100
AcDbEntity
  8
BEZUGSACHSEN
100
AcDbLine
 62
7
  6
CONTINUOUS
 10
543.6500330953
 20
157.3738364767
 11
543.4666253657
 21
158.3067665489
  0
LINE
  5
597
100
AcDbEntity
  8
0
100
AcDbLine
 62
7
  6
CONTINUOUS
 10
537.8871470192
 20
156.1171267677
 11
537.8679177537
 21
156.4863545061
  0
LINE
  5
598
100
AcDbEntity
  8
BEZUGSACHSEN
100
AcDbLine
 62
7
  6
CONTINUOUS
 10
537.8871470192
 20
156.1171267677
 11
537.8679177537
 21
156.4863545061
  0
LINE
  5
599
100
AcDbEntity
  8
0
100
AcDbLine
 62
7
  6
CONTINUOUS
 10
541.4899303353
 20
155.8363138803
 11
541.5091596009
 21
155.4670861419
  0
LINE
  5
59A
100
AcDbEntity
  8
BEZUGSACHSEN
100
AcDbLine
 62
7
  6
CONTINUOUS
 10
541.4899303353
 20
155.8363138803
 11
541.5091596009
 21
155.4670861419
  0
LINE
  5
59B
100
AcDbEntity
  8
0
100
AcDbLine
 62
7
  6
CONTINUOUS
 10
537.3704010068
 20
156.6692817554
 11
537.3728075011
 21
156.0719030646
  0
LINE
  5
59C
100
AcDbEntity
  8
BEZUGSACHSEN
100
AcDbLine
 62
7
  6
CONTINUOUS
 10
537.3704010068
 20
156.6692817554
 11
537.3728075011
 21
156.0719030646
  0
LINE
  5
59D
100
AcDbEntity
  8
KONSTRUKTIONSELEMENTE
100
AcDbLine
 62
7
  6
CONTINUOUS
 10
525.1743050723
 20
261.7496079822
 11
525.1743050723
 21
292.9496079822
  0
LINE
  5
59E
100
AcDbEntity
  8
KONSTRUKTIONSELEMENTE
100
AcDbLine
 62
7
  6
CONTINUOUS
 10
526.7743050723
 20
207.6217177327
 11
526.7743050723
 21
212.3469214115
  0
LINE
  5
59F
100
AcDbEntity
  8
KONSTRUKTIONSELEMENTE
100
AcDbLine
 62
7
  6
CONTINUOUS
 10
526.7743050787
 20
229.1805421652
 11
526.7743050723
 21
247.4190761077
  0
LINE
  5
5A0
100
AcDbEntity
  8
RUNDUNGEN
100
AcDbLine
 62
7
  6
CONTINUOUS
 10
527.7743050723
 20
141.9128026764
 11
527.7743050723
 21
141.9581299822
  0
LINE
  5
5A1
100
AcDbEntity
  8
BEZUGSACHSEN
100
AcDbLine
 62
7
  6
CONTINUOUS
 10
527.7743050723
 20
141.9128026764
 11
527.7743050723
 21
141.9581299822
  0
LINE
  5
5A2
100
AcDbEntity
  8
RUNDUNGEN
100
AcDbLine
 62
7
  6
CONTINUOUS
 10
528.7743050723
 20
159.2421948287
 11
528.7743050723
 21
168.7340469879
  0
LINE
  5
5A3
100
AcDbEntity
  8
RUNDUNGEN
100
AcDbLine
 62
7
  6
CONTINUOUS
 10
530.3450210723
 20
112.5217332942
 11
530.3450210723
 21
134.9341916702
  0
LINE
  5
5A4
100
AcDbEntity
  8
RUNDUNGEN
100
AcDbLine
 62
7
  6
CONTINUOUS
 10
530.6601434723
 20
128.286126344
 11
530.6601434723
 21
113.5598753199
  0
LINE
  5
5A5
100
AcDbEntity
  8
BEZUGSACHSEN
100
AcDbLine
 62
7
  6
CONTINUOUS
 10
530.6601434723
 20
113.5598753199
 11
530.6601434723
 21
129.7974787411
  0
LINE
  5
5A6
100
AcDbEntity
  8
RUNDUNGEN
100
AcDbLine
 62
7
  6
CONTINUOUS
 10
536.6243050723
 20
156.0602143133
 11
536.6243050723
 21
164.191942297
  0
LINE
  5
5A7
100
AcDbEntity
  8
0
100
AcDbLine
 62
7
  6
CONTINUOUS
 10
576.0034719377
 20
213.8774772718
 11
576.107638207
 21
213.7270290384
  0
LINE
  5
5A8
100
AcDbEntity
  8
0
100
AcDbLine
 62
7
  6
CONTINUOUS
 10
577.670138207
 20
213.8774772718
 11
577.7743050723
 21
213.7270290384
  0
LINE
  5
5A9
100
AcDbEntity
  8
0
100
AcDbLine
 62
7
  6
CONTINUOUS
 10
580.6909713417
 20
213.8774772718
 11
580.795138803
 21
213.7270290384
  0
LINE
  5
5AA
100
AcDbEntity
  8
0
100
AcDbLine
 62
7
  6
CONTINUOUS
 10
582.357638803
 20
213.8774772718
 11
582.4618050723
 21
213.7270290384
  0
LINE
  5
5AB
100
AcDbEntity
  8
0
100
AcDbLine
 62
7
  6
CONTINUOUS
 10
578.295138803
 20
213.3734756478
 11
578.0868050723
 21
213.7495962312
  0
LINE
  5
5AC
100
AcDbEntity
  8
0
100
AcDbLine
 62
7
  6
CONTINUOUS
 10
578.295138803
 20
213.7270290384
 11
578.0868050723
 21
214.1031496218
  0
LINE
  5
5AD
100
AcDbEntity
  8
0
100
AcDbLine
 62
7
  6
CONTINUOUS
 10
582.982638803
 20
213.3734756478
 11
582.7743050723
 21
213.7495962312
  0
LINE
  5
5AE
100
AcDbEntity
  8
0
100
AcDbLine
 62
7
  6
CONTINUOUS
 10
582.982638803
 20
213.7270290384
 11
582.7743050723
 21
214.1031496218
  0
LINE
  5
5AF
100
AcDbEntity
  8
0
100
AcDbLine
 62
7
  6
CONTINUOUS
 10
560.3159716397
 20
214.6297186494
 11
560.2118050723
 21
214.8553909995
  0
LINE
  5
5B0
100
AcDbEntity
  8
0
100
AcDbLine
 62
7
  6
CONTINUOUS
 10
571.9240446239
 20
196.9840343493
 11
571.8576384454
 21
197.1279004883
  0
LINE
  5
5B1
100
AcDbEntity
  8
0
100
AcDbLine
 62
7
  6
CONTINUOUS
 10
571.9409716993
 20
197.3009159566
 11
571.8576384454
 21
197.4814538789
  0
LINE
  5
5B2
100
AcDbEntity
  8
0
100
AcDbLine
 62
7
  6
CONTINUOUS
 10
569.9618050723
 20
212.9747877661
 11
570.0659717887
 21
212.749115416
  0
LINE
  5
5B3
100
AcDbEntity
  8
0
100
AcDbLine
 62
7
  6
CONTINUOUS
 10
573.5034719377
 20
214.050492698
 11
573.3993050723
 21
214.2761652588
  0
LINE
  5
5B4
100
AcDbEntity
  8
0
100
AcDbLine
 62
7
  6
CONTINUOUS
 10
573.5034719377
 20
214.4040460886
 11
573.3993050723
 21
214.6297186494
  0
LINE
  5
5B5
100
AcDbEntity
  8
0
100
AcDbLine
 62
7
  6
CONTINUOUS
 10
556.7743050723
 20
212.8995636494
 11
556.8784717421
 21
212.5986671826
  0
LINE
  5
5B6
100
AcDbEntity
  8
0
100
AcDbLine
 62
7
  6
CONTINUOUS
 10
557.0868050723
 20
214.3288219719
 11
557.1909717514
 21
214.0279255051
  0
LINE
  5
5B7
100
AcDbEntity
  8
0
100
AcDbLine
 62
7
  6
CONTINUOUS
 10
556.646357226
 20
190.4526250277
 11
556.6006274865
 21
190.5984094057
  0
LINE
  5
5B8
100
AcDbEntity
  8
0
100
AcDbLine
 62
7
  6
CONTINUOUS
 10
556.6911315604
 20
189.3365375576
 11
556.723243289
 21
189.2122580264
  0
LINE
  5
5B9
100
AcDbEntity
  8
0
100
AcDbLine
 62
7
  6
CONTINUOUS
 10
558.4439746165
 20
189.6974985209
 11
558.4118628795
 21
189.8217780434
  0
LINE
  5
5BA
100
AcDbEntity
  8
0
100
AcDbLine
 62
7
  6
CONTINUOUS
 10
583.5443403224
 20
90.017678362
 11
583.6524977134
 21
89.5944499542
  0
LINE
  5
5BB
100
AcDbEntity
  8
0
100
AcDbLine
 62
7
  6
CONTINUOUS
 10
588.1758026436
 20
89.8273128997
 11
588.0676452215
 21
90.2505413264
  0
LINE
  5
5BC
100
AcDbEntity
  8
0
100
AcDbLine
 62
7
  6
CONTINUOUS
 10
555.1992495757
 20
189.8842794023
 11
555.1744840891
 21
189.9906468961
  0
LINE
  5
5BD
100
AcDbEntity
  8
0
100
AcDbLine
 62
7
  6
CONTINUOUS
 10
556.4175936644
 20
190.523924512
 11
556.4423591903
 21
190.417557029
  0
LINE
  5
5BE
100
AcDbEntity
  8
0
100
AcDbLine
 62
7
  6
CONTINUOUS
 10
557.6338333435
 20
208.6085014362
 11
557.6430067538
 21
208.5008974335
  0
LINE
  5
5BF
100
AcDbEntity
  8
0
100
AcDbLine
 62
7
  6
CONTINUOUS
 10
542.006675083
 20
155.2841569328
 11
542.0042698223
 21
155.8815376023
  0
LINE
  5
5C0
100
AcDbEntity
  8
BEZUGSACHSEN
100
AcDbLine
 62
7
  6
CONTINUOUS
 10
542.006675083
 20
155.2841569328
 11
542.0042698223
 21
155.8815376023
  0
LINE
  5
5C1
100
AcDbEntity
  8
0
100
AcDbLine
 62
7
  6
CONTINUOUS
 10
540.7743050723
 20
216.5178441048
 11
540.7743050723
 21
210.8609898553
  0
LINE
  5
5C2
100
AcDbEntity
  8
0
100
AcDbLine
 62
7
  6
CONTINUOUS
 10
541.2743050723
 20
210.8609898553
 11
541.2743050723
 21
216.1642907142
  0
LINE
  5
5C3
100
AcDbEntity
  8
0
100
AcDbLine
 62
7
  6
CONTINUOUS
 10
544.7743050723
 20
128.7747131082
 11
544.7743050723
 21
117.36236273
  0
LINE
  5
5C4
100
AcDbEntity
  8
RUNDUNGEN
100
AcDbLine
 62
7
  6
CONTINUOUS
 10
544.7743050723
 20
128.7747131082
 11
544.7743050723
 21
113.5598753132
  0
LINE
  5
5C5
100
AcDbEntity
  8
0
100
AcDbLine
 62
7
  6
CONTINUOUS
 10
544.7743050723
 20
134.3654739822
 11
544.7743050723
 21
141.9581299822
  0
LINE
  5
5C6
100
AcDbEntity
  8
BEZUGSACHSEN
100
AcDbLine
 62
7
  6
CONTINUOUS
 10
544.7743050723
 20
113.5598753132
 11
544.7743050723
 21
141.9581299822
  0
LINE
  5
5C7
100
AcDbEntity
  8
RUNDUNGEN
100
AcDbLine
 62
7
  6
CONTINUOUS
 10
544.8743050723
 20
112.5217332942
 11
544.8743050723
 21
134.9341916702
  0
LINE
  5
5C8
100
AcDbEntity
  8
KONSTRUKTIONSELEMENTE
100
AcDbLine
 62
7
  6
CONTINUOUS
 10
545.9743050723
 20
221.1420625036
 11
545.9743050723
 21
292.9496079822
  0
LINE
  5
5C9
100
AcDbEntity
  8
0
100
AcDbLine
 62
7
  6
CONTINUOUS
 10
546.7743050723
 20
292.9496079822
 11
546.7743050723
 21
294.6744696276
  0
LINE
  5
5CA
100
AcDbEntity
  8
0
100
AcDbLine
 62
7
  6
CONTINUOUS
 10
546.7743050723
 20
303.1457620259
 11
546.7743050723
 21
524.9496079822
  0
LINE
  5
5CB
100
AcDbEntity
  8
BEZUGSACHSEN
100
AcDbLine
 62
7
  6
CONTINUOUS
 10
550.2743050723
 20
164.4284899356
 11
550.2743050723
 21
143.4497590967
  0
LINE
  5
5CC
100
AcDbEntity
  8
BEZUGSACHSEN
100
AcDbLine
 62
7
  6
CONTINUOUS
 10
550.2743050723
 20
223.2710849471
 11
550.2743050723
 21
257.9494311367
  0
LINE
  5
5CD
100
AcDbEntity
  8
0
100
AcDbLine
 62
7
  6
CONTINUOUS
 10
550.7743050723
 20
177.6269711395
 11
550.7743050723
 21
190.3548932009
  0
LINE
  5
5CE
100
AcDbEntity
  8
0
100
AcDbLine
 62
7
  6
CONTINUOUS
 10
550.7743050723
 20
196.0117474504
 11
550.7743050723
 21
209.4467762929
  0
LINE
  5
5CF
100
AcDbEntity
  8
0
100
AcDbLine
 62
7
  6
CONTINUOUS
 10
551.2743050723
 20
177.6269711395
 11
551.2743050723
 21
182.2231652172
  0
LINE
  5
5D0
100
AcDbEntity
  8
0
100
AcDbLine
 62
7
  6
CONTINUOUS
 10
551.2743050723
 20
182.5767186078
 11
551.2743050723
 21
190.3548932009
  0
LINE
  5
5D1
100
AcDbEntity
  8
0
100
AcDbLine
 62
7
  6
CONTINUOUS
 10
551.2743050723
 20
196.0117474504
 11
551.2743050723
 21
200.6079415281
  0
LINE
  5
5D2
100
AcDbEntity
  8
0
100
AcDbLine
 62
7
  6
CONTINUOUS
 10
551.2743050723
 20
200.9614949187
 11
551.2743050723
 21
209.4467762929
  0
LINE
  5
5D3
100
AcDbEntity
  8
0
100
AcDbLine
 62
7
  6
CONTINUOUS
 10
552.1869798263
 20
200.9614949187
 11
552.1869798263
 21
200.6079415281
  0
LINE
  5
5D4
100
AcDbEntity
  8
0
100
AcDbLine
 62
7
  6
CONTINUOUS
 10
552.4455586749
 20
182.5767186078
 11
552.4455586749
 21
182.2231652172
  0
LINE
  5
5D5
100
AcDbEntity
  8
0
100
AcDbLine
 62
7
  6
CONTINUOUS
 10
552.7743050723
 20
134.9318731038
 11
552.7743050723
 21
127.0996079822
  0
LINE
  5
5D6
100
AcDbEntity
  8
0
100
AcDbLine
 62
7
  6
CONTINUOUS
 10
552.7743050723
 20
118.7996079822
 11
552.7743050723
 21
109.5476285261
  0
LINE
  5
5D7
100
AcDbEntity
  8
0
100
AcDbLine
 62
7
  6
CONTINUOUS
 10
554.5753702309
 20
209.5126771686
 11
554.5753702309
 21
209.3207252113
  0
LINE
  5
5D8
100
AcDbEntity
  8
KONSTRUKTIONSELEMENTE
100
AcDbLine
 62
7
  6
CONTINUOUS
 10
554.7743050723
 20
279.4503476304
 11
554.7743050723
 21
268.8437459126
  0
LINE
  5
5D9
100
AcDbEntity
  8
KONSTRUKTIONSELEMENTE
100
AcDbLine
 62
7
  6
CONTINUOUS
 10
554.7743050723
 20
248.3376492582
 11
554.7743050723
 21
237.7310475404
  0
LINE
  5
5DA
100
AcDbEntity
  8
0
100
AcDbLine
 62
7
  6
CONTINUOUS
 10
554.8496935195
 20
209.4426194353
 11
554.8496935195
 21
209.250667478
  0
LINE
  5
5DB
100
AcDbEntity
  8
0
100
AcDbLine
 62
7
  6
CONTINUOUS
 10
569.857638356
 20
213.3509084549
 11
569.9618050723
 21
212.9747877661
  0
LINE
  5
5DC
100
AcDbEntity
  8
0
100
AcDbLine
 62
7
  6
CONTINUOUS
 10
573.607638207
 20
213.6743721145
 11
573.5034719377
 21
214.050492698
  0
LINE
  5
5DD
100
AcDbEntity
  8
0
100
AcDbLine
 62
7
  6
CONTINUOUS
 10
573.607638207
 20
214.0279255051
 11
573.5034719377
 21
214.4040460886
  0
LINE
  5
5DE
100
AcDbEntity
  8
0
100
AcDbLine
 62
7
  6
CONTINUOUS
 10
570.482638505
 20
212.6212343755
 11
570.3784716397
 21
213.072579181
  0
LINE
  5
5DF
100
AcDbEntity
  8
0
100
AcDbLine
 62
7
  6
CONTINUOUS
 10
570.482638505
 20
212.9747877661
 11
570.3784716397
 21
213.4261325716
  0
LINE
  5
5E0
100
AcDbEntity
  8
0
100
AcDbLine
 62
7
  6
CONTINUOUS
 10
572.982638207
 20
214.4040460886
 11
573.0868050723
 21
213.9527013884
  0
LINE
  5
5E1
100
AcDbEntity
  8
0
100
AcDbLine
 62
7
  6
CONTINUOUS
 10
581.8985770494
 20
88.5253794876
 11
582.081984779
 21
87.5924494154
  0
LINE
  5
5E2
100
AcDbEntity
  8
0
100
AcDbLine
 62
7
  6
CONTINUOUS
 10
582.7299900486
 20
87.0701048757
 11
582.5465820921
 21
88.0030351308
  0
LINE
  5
5E3
100
AcDbEntity
  8
0
100
AcDbLine
 62
7
  6
CONTINUOUS
 10
556.3976441395
 20
208.6219076678
 11
556.4219414624
 21
208.4735718596
  0
LINE
  5
5E4
100
AcDbEntity
  8
0
100
AcDbLine
 62
7
  6
CONTINUOUS
 10
557.8510217837
 20
208.5209537879
 11
557.8267244533
 21
208.6692895869
  0
LINE
  5
5E5
100
AcDbEntity
  8
0
100
AcDbLine
 62
7
  6
CONTINUOUS
 10
579.4219321819
 20
80.4712776926
 11
579.3741870635
 21
80.9321692777
  0
LINE
  5
5E6
100
AcDbEntity
  8
0
100
AcDbLine
 62
7
  6
CONTINUOUS
 10
573.6864338587
 20
76.5803091999
 11
573.4601913443
 21
81.7297193122
  0
LINE
  5
5E7
100
AcDbEntity
  8
0
100
AcDbLine
 62
7
  6
CONTINUOUS
 10
572.8893668156
 20
81.5111641323
 11
573.0826792463
 21
77.0175756156
  0
LINE
  5
5E8
100
AcDbEntity
  8
0
100
AcDbLine
 62
7
  6
CONTINUOUS
 10
555.0620603933
 20
190.3216325941
 11
555.0620603933
 21
189.9680792035
  0
LINE
  5
5E9
100
AcDbEntity
  8
0
100
AcDbLine
 62
7
  6
CONTINUOUS
 10
555.1744840891
 20
189.9906468961
 11
555.1744840891
 21
189.6677772752
  0
LINE
  5
5EA
100
AcDbEntity
  8
0
100
AcDbLine
 62
7
  6
CONTINUOUS
 10
555.1822014656
 20
190.5143682067
 11
555.1822014656
 21
190.1608148161
  0
LINE
  5
5EB
100
AcDbEntity
  8
0
100
AcDbLine
 62
7
  6
CONTINUOUS
 10
555.1992495757
 20
189.8842794023
 11
555.1992495757
 21
189.6457800485
  0
LINE
  5
5EC
100
AcDbEntity
  8
0
100
AcDbLine
 62
7
  6
CONTINUOUS
 10
555.2743050723
 20
216.1642907142
 11
555.2743050723
 21
210.8609898553
  0
LINE
  5
5ED
100
AcDbEntity
  8
0
100
AcDbLine
 62
7
  6
CONTINUOUS
 10
555.2793053358
 20
189.7935623423
 11
555.2793053358
 21
189.6056537554
  0
LINE
  5
5EE
100
AcDbEntity
  8
0
100
AcDbLine
 62
7
  6
CONTINUOUS
 10
555.3385117417
 20
190.3998846533
 11
555.3385117417
 21
190.2384498652
  0
LINE
  5
5EF
100
AcDbEntity
  8
0
100
AcDbLine
 62
7
  6
CONTINUOUS
 10
555.3404697993
 20
190.6952205717
 11
555.3404697993
 21
190.3998846533
  0
LINE
  5
5F0
100
AcDbEntity
  8
0
100
AcDbLine
 62
7
  6
CONTINUOUS
 10
555.3765241062
 20
189.7303789412
 11
555.3765241062
 21
189.5659643667
  0
LINE
  5
5F1
100
AcDbEntity
  8
0
100
AcDbLine
 62
7
  6
CONTINUOUS
 10
555.4291775746
 20
209.1026766182
 11
555.4291775746
 21
208.7491232276
  0
LINE
  5
5F2
100
AcDbEntity
  8
0
100
AcDbLine
 62
7
  6
CONTINUOUS
 10
555.5025394184
 20
190.8091224492
 11
555.5025394184
 21
190.6082706762
  0
LINE
  5
5F3
100
AcDbEntity
  8
0
100
AcDbLine
 62
7
  6
CONTINUOUS
 10
555.5159072524
 20
209.2724792179
 11
555.5159072524
 21
208.9189258273
  0
LINE
  5
5F4
100
AcDbEntity
  8
0
100
AcDbLine
 62
7
  6
CONTINUOUS
 10
555.6359273581
 20
190.4387198006
 11
555.6359273581
 21
190.2891682613
  0
LINE
  5
5F5
100
AcDbEntity
  8
0
100
AcDbLine
 62
7
  6
CONTINUOUS
 10
555.6434149462
 20
189.6471962038
 11
555.6434149462
 21
189.5023947094
  0
LINE
  5
5F6
100
AcDbEntity
  8
0
100
AcDbLine
 62
7
  6
CONTINUOUS
 10
555.6855732404
 20
190.8836073428
 11
555.6855732404
 21
190.7167613521
  0
LINE
  5
5F7
100
AcDbEntity
  8
0
100
AcDbLine
 62
7
  6
CONTINUOUS
 10
555.7510415078
 20
209.2124297302
 11
555.7510415078
 21
209.0204777729
  0
LINE
  5
5F8
100
AcDbEntity
  8
0
100
AcDbLine
 62
7
  6
CONTINUOUS
 10
555.7743050723
 20
210.8609898553
 11
555.7743050723
 21
216.5178441048
  0
LINE
  5
5F9
100
AcDbEntity
  8
0
100
AcDbLine
 62
7
  6
CONTINUOUS
 10
555.7749596827
 20
189.6390801376
 11
555.7749596827
 21
189.4895285559
  0
LINE
  5
5FA
100
AcDbEntity
  8
0
100
AcDbLine
 62
7
  6
CONTINUOUS
 10
555.7905512088
 20
209.8101874038
 11
555.7905512088
 21
209.4566340132
  0
LINE
  5
5FB
100
AcDbEntity
  8
0
100
AcDbLine
 62
7
  6
CONTINUOUS
 10
555.8437266788
 20
190.4068372198
 11
555.8437266788
 21
190.2424226684
  0
LINE
  5
5FC
100
AcDbEntity
  8
0
100
AcDbLine
 62
7
  6
CONTINUOUS
 10
555.9061907523
 20
210.0365908171
 11
555.9061907523
 21
209.6830374265
  0
LINE
  5
5FD
100
AcDbEntity
  8
0
100
AcDbLine
 62
7
  6
CONTINUOUS
 10
555.9236674841
 20
189.6584977134
 11
555.9236674841
 21
189.5127133258
  0
LINE
  5
5FE
100
AcDbEntity
  8
0
100
AcDbLine
 62
7
  6
CONTINUOUS
 10
555.9276985817
 20
190.90679208
 11
555.9276985817
 21
190.7572405406
  0
LINE
  5
5FF
100
AcDbEntity
  8
0
100
AcDbLine
 62
7
  6
CONTINUOUS
 10
556.0343629619
 20
190.3474209886
 11
556.0343629619
 21
190.1668766955
  0
LINE
  5
600
100
AcDbEntity
  8
0
100
AcDbLine
 62
7
  6
CONTINUOUS
 10
556.051411084
 20
189.7173322034
 11
556.051411084
 21
189.5460885492
  0
LINE
  5
601
100
AcDbEntity
  8
0
100
AcDbLine
 62
7
  6
CONTINUOUS
 10
556.1354979024
 20
190.8749094992
 11
556.1354979024
 21
190.7104949478
  0
LINE
  5
602
100
AcDbEntity
  8
0
100
AcDbLine
 62
7
  6
CONTINUOUS
 10
556.1410273388
 20
189.7880499442
 11
556.1410273388
 21
189.5871982291
  0
LINE
  5
603
100
AcDbEntity
  8
0
100
AcDbLine
 62
7
  6
CONTINUOUS
 10
556.1925163698
 20
189.8706509211
 11
556.1925163698
 21
189.6153700165
  0
LINE
  5
604
100
AcDbEntity
  8
0
100
AcDbLine
 62
7
  6
CONTINUOUS
 10
556.2058782009
 20
189.9069176908
 11
556.2058782009
 21
189.624760652
  0
LINE
  5
605
100
AcDbEntity
  8
0
100
AcDbLine
 62
7
  6
CONTINUOUS
 10
556.2078362892
 20
190.2604710814
 11
556.2078362892
 21
189.9651351726
  0
LINE
  5
606
100
AcDbEntity
  8
0
100
AcDbLine
 62
7
  6
CONTINUOUS
 10
556.2880069071
 20
190.827376521
 11
556.2880069071
 21
190.646832237
  0
LINE
  5
607
100
AcDbEntity
  8
0
100
AcDbLine
 62
7
  6
CONTINUOUS
 10
556.3469834868
 20
190.1184538903
 11
556.3469834868
 21
189.7649004997
  0
LINE
  5
608
100
AcDbEntity
  8
0
100
AcDbLine
 62
7
  6
CONTINUOUS
 10
556.4095449663
 20
208.7556521825
 11
556.4095449663
 21
208.6219076678
  0
LINE
  5
609
100
AcDbEntity
  8
0
100
AcDbLine
 62
7
  6
CONTINUOUS
 10
556.4614801798
 20
190.7404266308
 11
556.4614801798
 21
190.417557029
  0
LINE
  5
60A
100
AcDbEntity
  8
0
100
AcDbLine
 62
7
  6
CONTINUOUS
 10
556.6006274865
 20
190.5984094057
 11
556.6006274865
 21
190.3682290337
  0
LINE
  5
60B
100
AcDbEntity
  8
0
100
AcDbLine
 62
7
  6
CONTINUOUS
 10
556.6148325797
 20
208.5343600194
 11
556.6148325797
 21
208.2756415218
  0
LINE
  5
60C
100
AcDbEntity
  8
0
100
AcDbLine
 62
7
  6
CONTINUOUS
 10
556.6812783549
 20
208.4383052079
 11
556.6812783549
 21
208.2344663833
  0
LINE
  5
60D
100
AcDbEntity
  8
0
100
AcDbLine
 62
7
  6
CONTINUOUS
 10
556.7173674351
 20
189.4692562806
 11
556.7173674351
 21
189.2349988876
  0
LINE
  5
60E
100
AcDbEntity
  8
0
100
AcDbLine
 62
7
  6
CONTINUOUS
 10
556.7543072714
 20
189.5605484472
 11
556.7543072714
 21
189.2069950566
  0
LINE
  5
60F
100
AcDbEntity
  8
0
100
AcDbLine
 62
7
  6
CONTINUOUS
 10
556.8049964949
 20
208.3537995874
 11
556.8049964949
 21
208.1806224902
  0
LINE
  5
610
100
AcDbEntity
  8
0
100
AcDbLine
 62
7
  6
CONTINUOUS
 10
556.8388908567
 20
189.7017063235
 11
556.8388908567
 21
189.3481529329
  0
LINE
  5
611
100
AcDbEntity
  8
0
100
AcDbLine
 62
7
  6
CONTINUOUS
 10
556.8855744079
 20
209.0486627853
 11
556.8855744079
 21
208.8887777116
  0
LINE
  5
612
100
AcDbEntity
  8
0
100
AcDbLine
 62
7
  6
CONTINUOUS
 10
556.9221080392
 20
189.2625083745
 11
556.9221080392
 21
188.9889652412
  0
LINE
  5
613
100
AcDbEntity
  8
0
100
AcDbLine
 62
7
  6
CONTINUOUS
 10
556.9780416341
 20
189.1631616895
 11
556.9780416341
 21
188.951165751
  0
LINE
  5
614
100
AcDbEntity
  8
0
100
AcDbLine
 62
7
  6
CONTINUOUS
 10
557.0221849351
 20
208.2662519391
 11
557.0221849351
 21
208.1111362658
  0
LINE
  5
615
100
AcDbEntity
  8
0
100
AcDbLine
 62
7
  6
CONTINUOUS
 10
557.0532875773
 20
189.9261018603
 11
557.0532875773
 21
189.6629537201
  0
LINE
  5
616
100
AcDbEntity
  8
0
100
AcDbLine
 62
7
  6
CONTINUOUS
 10
557.0868050723
 20
214.6297186494
 11
557.0868050723
 21
214.3288219719
  0
LINE
  5
617
100
AcDbEntity
  8
0
100
AcDbLine
 62
7
  6
CONTINUOUS
 10
557.1268485612
 20
189.0557605331
 11
557.1268485612
 21
188.8929211676
  0
LINE
  5
618
100
AcDbEntity
  8
0
100
AcDbLine
 62
7
  6
CONTINUOUS
 10
557.1297875801
 20
209.0541278371
 11
557.1297875801
 21
208.8953951543
  0
LINE
  5
619
100
AcDbEntity
  8
0
100
AcDbLine
 62
7
  6
CONTINUOUS
 10
557.1471428404
 20
209.6705695721
 11
557.1471428404
 21
209.3731126189
  0
LINE
  5
61A
100
AcDbEntity
  8
0
100
AcDbLine
 62
7
  6
CONTINUOUS
 10
557.18805152
 20
208.2340273061
 11
557.18805152
 21
208.0887336025
  0
LINE
  5
61B
100
AcDbEntity
  8
0
100
AcDbLine
 62
7
  6
CONTINUOUS
 10
557.1909717514
 20
214.9306151162
 11
557.1909717514
 21
214.5770617256
  0
LINE
  5
61C
100
AcDbEntity
  8
0
100
AcDbLine
 62
7
  6
CONTINUOUS
 10
557.2069226037
 20
190.034272393
 11
557.2069226037
 21
189.8187006568
  0
LINE
  5
61D
100
AcDbEntity
  8
0
100
AcDbLine
 62
7
  6
CONTINUOUS
 10
557.3129139812
 20
190.0925773208
 11
557.3129139812
 21
189.9018219523
  0
LINE
  5
61E
100
AcDbEntity
  8
0
100
AcDbLine
 62
7
  6
CONTINUOUS
 10
557.3232994016
 20
188.9982249572
 11
557.3232994016
 21
188.8570671477
  0
LINE
  5
61F
100
AcDbEntity
  8
0
100
AcDbLine
 62
7
  6
CONTINUOUS
 10
557.3318521003
 20
209.0073119851
 11
557.3318521003
 21
208.8341349121
  0
LINE
  5
620
100
AcDbEntity
  8
0
100
AcDbLine
 62
7
  6
CONTINUOUS
 10
557.338794185
 20
208.2425344694
 11
557.338794185
 21
208.0941986612
  0
LINE
  5
621
100
AcDbEntity
  8
0
100
AcDbLine
 62
7
  6
CONTINUOUS
 10
557.3993050723
 20
212.8995636494
 11
557.3993050723
 21
212.5460102588
  0
LINE
  5
622
100
AcDbEntity
  8
0
100
AcDbLine
 62
7
  6
CONTINUOUS
 10
557.4744129448
 20
208.2917734472
 11
557.4744129448
 21
208.1292807603
  0
LINE
  5
623
100
AcDbEntity
  8
0
100
AcDbLine
 62
7
  6
CONTINUOUS
 10
557.4745204278
 20
188.9986096219
 11
557.4745204278
 21
188.8493972532
  0
LINE
  5
624
100
AcDbEntity
  8
0
100
AcDbLine
 62
7
  6
CONTINUOUS
 10
557.4772529859
 20
190.1593213146
 11
557.4772529859
 21
189.9808753959
  0
LINE
  5
625
100
AcDbEntity
  8
0
100
AcDbLine
 62
7
  6
CONTINUOUS
 10
557.5034717142
 20
212.6738912993
 11
557.5034717142
 21
212.3203379087
  0
LINE
  5
626
100
AcDbEntity
  8
0
100
AcDbLine
 62
7
  6
CONTINUOUS
 10
557.5490405405
 20
208.9197643367
 11
557.5490405405
 21
208.717088177
  0
LINE
  5
627
100
AcDbEntity
  8
0
100
AcDbLine
 62
7
  6
CONTINUOUS
 10
557.5738337545
 20
208.3556036258
 11
557.5738337545
 21
208.1651813113
  0
LINE
  5
628
100
AcDbEntity
  8
0
100
AcDbLine
 62
7
  6
CONTINUOUS
 10
557.6076384305
 20
215.2315115829
 11
557.6076384305
 21
214.8779581923
  0
LINE
  5
629
100
AcDbEntity
  8
0
100
AcDbLine
 62
7
  6
CONTINUOUS
 10
557.6159821994
 20
208.4078846132
 11
557.6159821994
 21
208.189251604
  0
LINE
  5
62A
100
AcDbEntity
  8
0
100
AcDbLine
 62
7
  6
CONTINUOUS
 10
557.6430067538
 20
208.4671141067
 11
557.6430067538
 21
208.2046848884
  0
LINE
  5
62B
100
AcDbEntity
  8
0
100
AcDbLine
 62
7
  6
CONTINUOUS
 10
557.6522958699
 20
190.1846388166
 11
557.6522958699
 21
190.0354264567
  0
LINE
  5
62C
100
AcDbEntity
  8
0
100
AcDbLine
 62
7
  6
CONTINUOUS
 10
557.7089566158
 20
208.8206674973
 11
557.7089566158
 21
208.4671141067
  0
LINE
  5
62D
100
AcDbEntity
  8
0
100
AcDbLine
 62
7
  6
CONTINUOUS
 10
557.7118050723
 20
214.050492698
 11
557.7118050723
 21
214.554494322
  0
LINE
  5
62E
100
AcDbEntity
  8
0
100
AcDbLine
 62
7
  6
CONTINUOUS
 10
557.7555545405
 20
189.0822320464
 11
557.7555545405
 21
188.9143948622
  0
LINE
  5
62F
100
AcDbEntity
  8
0
100
AcDbLine
 62
7
  6
CONTINUOUS
 10
557.8159717142
 20
214.1783737385
 11
557.8159717142
 21
213.8248203479
  0
LINE
  5
630
100
AcDbEntity
  8
0
100
AcDbLine
 62
7
  6
CONTINUOUS
 10
557.8159717142
 20
212.4482188966
 11
557.8159717142
 21
212.094665506
  0
LINE
  5
631
100
AcDbEntity
  8
0
100
AcDbLine
 62
7
  6
CONTINUOUS
 10
557.8267244533
 20
208.6692895869
 11
557.8267244533
 21
208.4031441818
  0
LINE
  5
632
100
AcDbEntity
  8
0
100
AcDbLine
 62
7
  6
CONTINUOUS
 10
557.8963902284
 20
190.1769690099
 11
557.8963902284
 21
190.0110387427
  0
LINE
  5
633
100
AcDbEntity
  8
0
100
AcDbLine
 62
7
  6
CONTINUOUS
 10
557.933011557
 20
189.2153354043
 11
557.933011557
 21
188.9997636331
  0
LINE
  5
634
100
AcDbEntity
  8
0
100
AcDbLine
 62
7
  6
CONTINUOUS
 10
558.0243050723
 20
215.3819598163
 11
558.0243050723
 21
215.0284064257
  0
LINE
  5
635
100
AcDbEntity
  8
0
100
AcDbLine
 62
7
  6
CONTINUOUS
 10
558.0997645618
 20
189.3898652662
 11
558.0997645618
 21
189.1267172766
  0
LINE
  5
636
100
AcDbEntity
  8
0
100
AcDbLine
 62
7
  6
CONTINUOUS
 10
558.1273667073
 20
190.1029398269
 11
558.1273667073
 21
189.8923087437
  0
LINE
  5
637
100
AcDbEntity
  8
0
100
AcDbLine
 62
7
  6
CONTINUOUS
 10
558.1284717887
 20
214.0279255051
 11
558.1284717887
 21
213.6743721145
  0
LINE
  5
638
100
AcDbEntity
  8
0
100
AcDbLine
 62
7
  6
CONTINUOUS
 10
558.2081698729
 20
189.5559559923
 11
558.2081698729
 21
189.2401782843
  0
LINE
  5
639
100
AcDbEntity
  8
0
100
AcDbLine
 62
7
  6
CONTINUOUS
 10
558.2129981377
 20
189.771527704
 11
558.2129981377
 21
189.7493864363
  0
LINE
  5
63A
100
AcDbEntity
  8
0
100
AcDbLine
 62
7
  6
CONTINUOUS
 10
558.2129981377
 20
189.6254915784
 11
558.2129981377
 21
189.4179743134
  0
LINE
  5
63B
100
AcDbEntity
  8
0
100
AcDbLine
 62
7
  6
CONTINUOUS
 10
558.232638356
 20
212.3729947799
 11
558.232638356
 21
212.0194413893
  0
LINE
  5
63C
100
AcDbEntity
  8
0
100
AcDbLine
 62
7
  6
CONTINUOUS
 10
558.3106994705
 20
189.979044969
 11
558.3106994705
 21
189.6254915784
  0
LINE
  5
63D
100
AcDbEntity
  8
0
100
AcDbLine
 62
7
  6
CONTINUOUS
 10
558.3221578553
 20
206.3314100959
 11
558.3221578553
 21
205.9778567053
  0
LINE
  5
63E
100
AcDbEntity
  8
0
100
AcDbLine
 62
7
  6
CONTINUOUS
 10
558.4118628795
 20
189.8217780434
 11
558.4118628795
 21
189.5647798626
  0
LINE
  5
63F
100
AcDbEntity
  8
0
100
AcDbLine
 62
7
  6
CONTINUOUS
 10
558.4409717887
 20
215.457183933
 11
558.4409717887
 21
215.1036305424
  0
LINE
  5
640
100
AcDbEntity
  8
0
100
AcDbLine
 62
7
  6
CONTINUOUS
 10
558.4409717887
 20
213.9527013884
 11
558.4409717887
 21
213.5991479978
  0
LINE
  5
641
100
AcDbEntity
  8
0
100
AcDbLine
 62
7
  6
CONTINUOUS
 10
558.6745504945
 20
206.5822281853
 11
558.6745504945
 21
206.2286747947
  0
LINE
  5
642
100
AcDbEntity
  8
0
100
AcDbLine
 62
7
  6
CONTINUOUS
 10
558.9618050723
 20
215.457183933
 11
558.9618050723
 21
215.1036305424
  0
LINE
  5
643
100
AcDbEntity
  8
0
100
AcDbLine
 62
7
  6
CONTINUOUS
 10
559.0659717887
 20
213.9527013884
 11
559.0659717887
 21
213.5991479978
  0
LINE
  5
644
100
AcDbEntity
  8
0
100
AcDbLine
 62
7
  6
CONTINUOUS
 10
559.0659717887
 20
212.3729947799
 11
559.0659717887
 21
212.0194413893
  0
LINE
  5
645
100
AcDbEntity
  8
0
100
AcDbLine
 62
7
  6
CONTINUOUS
 10
559.1302923271
 20
186.0353858653
 11
559.1302923271
 21
185.6818324747
  0
LINE
  5
646
100
AcDbEntity
  8
KONSTRUKTIONSELEMENTE
100
AcDbLine
 62
7
  6
CONTINUOUS
 10
559.2743050723
 20
279.4503476304
 11
559.2743050723
 21
268.8437459126
  0
LINE
  5
647
100
AcDbEntity
  8
KONSTRUKTIONSELEMENTE
100
AcDbLine
 62
7
  6
CONTINUOUS
 10
559.2743050723
 20
248.3376492582
 11
559.2743050723
 21
237.7310475404
  0
LINE
  5
648
100
AcDbEntity
  8
0
100
AcDbLine
 62
7
  6
CONTINUOUS
 10
559.482638505
 20
215.3819598163
 11
559.482638505
 21
215.0284064257
  0
LINE
  5
649
100
AcDbEntity
  8
0
100
AcDbLine
 62
7
  6
CONTINUOUS
 10
559.482638505
 20
212.4482188966
 11
559.482638505
 21
212.094665506
  0
LINE
  5
64A
100
AcDbEntity
  8
0
100
AcDbLine
 62
7
  6
CONTINUOUS
 10
559.5667360635
 20
186.2078921913
 11
559.5667360635
 21
185.8543388007
  0
LINE
  5
64B
100
AcDbEntity
  8
0
100
AcDbLine
 62
7
  6
CONTINUOUS
 10
559.5868050723
 20
213.8774772718
 11
559.5868050723
 21
213.5239238812
  0
LINE
  5
64C
100
AcDbEntity
  8
0
100
AcDbLine
 62
7
  6
CONTINUOUS
 10
559.795138505
 20
212.5986671826
 11
559.795138505
 21
212.245113792
  0
LINE
  5
64D
100
AcDbEntity
  8
0
100
AcDbLine
 62
7
  6
CONTINUOUS
 10
559.8993050723
 20
215.1562874662
 11
559.8993050723
 21
214.8027340756
  0
LINE
  5
64E
100
AcDbEntity
  8
0
100
AcDbLine
 62
7
  6
CONTINUOUS
 10
559.964180145
 20
208.6417394865
 11
559.964180145
 21
208.4951992911
  0
LINE
  5
64F
100
AcDbEntity
  8
0
100
AcDbLine
 62
7
  6
CONTINUOUS
 10
560.0034716397
 20
213.7270290384
 11
560.0034716397
 21
213.3734756478
  0
LINE
  5
650
100
AcDbEntity
  8
0
100
AcDbLine
 62
7
  6
CONTINUOUS
 10
560.0034716397
 20
213.0500118828
 11
560.0034716397
 21
212.4707861421
  0
LINE
  5
651
100
AcDbEntity
  8
0
100
AcDbLine
 62
7
  6
CONTINUOUS
 10
560.077301778
 20
208.7282880291
 11
560.077301778
 21
208.4352075144
  0
LINE
  5
652
100
AcDbEntity
  8
0
100
AcDbLine
 62
7
  6
CONTINUOUS
 10
560.2118050723
 20
214.8553909995
 11
560.2118050723
 21
214.6297186494
  0
LINE
  5
653
100
AcDbEntity
  8
0
100
AcDbLine
 62
7
  6
CONTINUOUS
 10
560.2317952216
 20
189.1887810511
 11
560.2317952216
 21
189.0113638299
  0
LINE
  5
654
100
AcDbEntity
  8
KONSTRUKTIONSELEMENTE
100
AcDbLine
 62
7
  6
CONTINUOUS
 10
560.2743050723
 20
216.9401769576
 11
560.2743050723
 21
239.0759756091
  0
LINE
  5
655
100
AcDbEntity
  8
KONSTRUKTIONSELEMENTE
100
AcDbLine
 62
7
  6
CONTINUOUS
 10
560.2743050723
 20
278.0925572189
 11
560.2743050723
 21
300.5942655723
  0
LINE
  5
656
100
AcDbEntity
  8
0
100
AcDbLine
 62
7
  6
CONTINUOUS
 10
560.2822219592
 20
208.7548447949
 11
560.2822219592
 21
208.494392432
  0
LINE
  5
657
100
AcDbEntity
  8
0
100
AcDbLine
 62
7
  6
CONTINUOUS
 10
560.3563790037
 20
189.2670647835
 11
560.3563790037
 21
188.978356438
  0
LINE
  5
658
100
AcDbEntity
  8
0
100
AcDbLine
 62
7
  6
CONTINUOUS
 10
560.420138505
 20
213.4261325716
 11
560.420138505
 21
213.072579181
  0
LINE
  5
659
100
AcDbEntity
  8
KONSTRUKTIONSELEMENTE
100
AcDbLine
 62
7
  6
CONTINUOUS
 10
560.5243050723
 20
269.6439984443
 11
560.5243050723
 21
247.5373967265
  0
LINE
  5
65A
100
AcDbEntity
  8
0
100
AcDbLine
 62
7
  6
CONTINUOUS
 10
560.5639951832
 20
189.2792780196
 11
560.5639951832
 21
189.0427881963
  0
LINE
  5
65B
100
AcDbEntity
  8
0
100
AcDbLine
 62
7
  6
CONTINUOUS
 10
560.6284716397
 20
212.749115416
 11
560.6284716397
 21
213.1252359995
  0
LINE
  5
65C
100
AcDbEntity
  8
0
100
AcDbLine
 62
7
  6
CONTINUOUS
 10
562.7743050723
 20
209.5002590853
 11
562.7743050723
 21
209.1467056947
  0
LINE
  5
65D
100
AcDbEntity
  8
0
100
AcDbLine
 62
7
  6
CONTINUOUS
 10
562.7743050723
 20
187.4756980934
 11
562.7743050723
 21
187.1221447028
  0
LINE
  5
65E
100
AcDbEntity
  8
0
100
AcDbLine
 62
7
  6
CONTINUOUS
 10
562.7743050723
 20
118.7996079822
 11
562.7743050723
 21
127.0996079822
  0
LINE
  5
65F
100
AcDbEntity
  8
KONSTRUKTIONSELEMENTE
100
AcDbLine
 62
7
  6
CONTINUOUS
 10
565.0243050723
 20
269.6439984443
 11
565.0243050723
 21
247.5373967265
  0
LINE
  5
660
100
AcDbEntity
  8
KONSTRUKTIONSELEMENTE
100
AcDbLine
 62
7
  6
CONTINUOUS
 10
565.2743050723
 20
216.9401769576
 11
565.2743050723
 21
239.0759756091
  0
LINE
  5
661
100
AcDbEntity
  8
KONSTRUKTIONSELEMENTE
100
AcDbLine
 62
7
  6
CONTINUOUS
 10
565.2743050723
 20
278.0925572189
 11
565.2743050723
 21
300.5942655723
  0
LINE
  5
662
100
AcDbEntity
  8
KONSTRUKTIONSELEMENTE
100
AcDbLine
 62
7
  6
CONTINUOUS
 10
566.2743050723
 20
237.7310475404
 11
566.2743050723
 21
248.3376492582
  0
LINE
  5
663
100
AcDbEntity
  8
KONSTRUKTIONSELEMENTE
100
AcDbLine
 62
7
  6
CONTINUOUS
 10
566.2743050723
 20
268.8437459126
 11
566.2743050723
 21
279.4503476304
  0
LINE
  5
664
100
AcDbEntity
  8
0
100
AcDbLine
 62
7
  6
CONTINUOUS
 10
567.7743050723
 20
214.9306151162
 11
567.7743050723
 21
214.3288219719
  0
LINE
  5
665
100
AcDbEntity
  8
0
100
AcDbLine
 62
7
  6
CONTINUOUS
 10
568.3993050723
 20
214.8553909995
 11
568.3993050723
 21
211.9216500271
  0
LINE
  5
666
100
AcDbEntity
  8
0
100
AcDbLine
 62
7
  6
CONTINUOUS
 10
568.3993050723
 20
215.457183933
 11
568.3993050723
 21
215.1036305424
  0
LINE
  5
667
100
AcDbEntity
  8
0
100
AcDbLine
 62
7
  6
CONTINUOUS
 10
569.0243050723
 20
211.9216500271
 11
569.0243050723
 21
215.457183933
  0
LINE
  5
668
100
AcDbEntity
  8
0
100
AcDbLine
 62
7
  6
CONTINUOUS
 10
569.857638356
 20
214.0279255051
 11
569.857638356
 21
213.3509084549
  0
LINE
  5
669
100
AcDbEntity
  8
0
100
AcDbLine
 62
7
  6
CONTINUOUS
 10
569.9618050723
 20
214.4040460886
 11
569.9618050723
 21
214.050492698
  0
LINE
  5
66A
100
AcDbEntity
  8
0
100
AcDbLine
 62
7
  6
CONTINUOUS
 10
570.0659717887
 20
214.6297186494
 11
570.0659717887
 21
214.2761652588
  0
LINE
  5
66B
100
AcDbEntity
  8
0
100
AcDbLine
 62
7
  6
CONTINUOUS
 10
570.2743050723
 20
214.9306151162
 11
570.2743050723
 21
214.5770617256
  0
LINE
  5
66C
100
AcDbEntity
  8
0
100
AcDbLine
 62
7
  6
CONTINUOUS
 10
570.3784716397
 20
213.072579181
 11
570.3784716397
 21
213.9527013884
  0
LINE
  5
66D
100
AcDbEntity
  8
0
100
AcDbLine
 62
7
  6
CONTINUOUS
 10
570.482638505
 20
212.9747877661
 11
570.482638505
 21
212.6212343755
  0
LINE
  5
66E
100
AcDbEntity
  8
0
100
AcDbLine
 62
7
  6
CONTINUOUS
 10
570.5868050723
 20
215.1562874662
 11
570.5868050723
 21
214.8027340756
  0
LINE
  5
66F
100
AcDbEntity
  8
0
100
AcDbLine
 62
7
  6
CONTINUOUS
 10
570.7743050723
 20
198.8053984169
 11
570.7743050723
 21
198.5646812435
  0
LINE
  5
670
100
AcDbEntity
  8
0
100
AcDbLine
 62
7
  6
CONTINUOUS
 10
570.7743050723
 20
180.3364436313
 11
570.7743050723
 21
180.0957264579
  0
LINE
  5
671
100
AcDbEntity
  8
KONSTRUKTIONSELEMENTE
100
AcDbLine
 62
7
  6
CONTINUOUS
 10
570.7743050723
 20
237.7310475404
 11
570.7743050723
 21
248.3376492582
  0
LINE
  5
672
100
AcDbEntity
  8
KONSTRUKTIONSELEMENTE
100
AcDbLine
 62
7
  6
CONTINUOUS
 10
570.7743050723
 20
268.8437459126
 11
570.7743050723
 21
279.4503476304
  0
LINE
  5
673
100
AcDbEntity
  8
0
100
AcDbLine
 62
7
  6
CONTINUOUS
 10
570.8993050723
 20
212.5234430133
 11
570.8993050723
 21
212.1698896227
  0
LINE
  5
674
100
AcDbEntity
  8
0
100
AcDbLine
 62
7
  6
CONTINUOUS
 10
571.107638505
 20
215.3819598163
 11
571.107638505
 21
215.0284064257
  0
LINE
  5
675
100
AcDbEntity
  8
0
100
AcDbLine
 62
7
  6
CONTINUOUS
 10
556.9221080392
 20
189.2625083745
 11
556.9269360564
 21
189.4780801283
  0
LINE
  5
676
100
AcDbEntity
  8
0
100
AcDbLine
 62
7
  6
CONTINUOUS
 10
558.2129981377
 20
189.771527704
 11
558.2081698729
 21
189.5559559923
  0
LINE
  5
677
100
AcDbEntity
  8
0
100
AcDbLine
 62
7
  6
CONTINUOUS
 10
554.9800465584
 20
190.1170136951
 11
554.9704860142
 21
189.9555788866
  0
LINE
  5
678
100
AcDbEntity
  8
0
100
AcDbLine
 62
7
  6
CONTINUOUS
 10
556.4003157418
 20
189.8387683704
 11
556.4098762366
 21
190.0002031712
  0
LINE
  5
679
100
AcDbEntity
  8
0
100
AcDbLine
 62
7
  6
CONTINUOUS
 10
556.4095449663
 20
208.7556521825
 11
556.3976441395
 21
208.6219076678
  0
LINE
  5
67A
100
AcDbEntity
  8
0
100
AcDbLine
 62
7
  6
CONTINUOUS
 10
556.6148325797
 20
208.5343600194
 11
556.6267334065
 21
208.6681045342
  0
LINE
  5
67B
100
AcDbEntity
  8
0
100
AcDbLine
 62
7
  6
CONTINUOUS
 10
584.0586798094
 20
90.062902084
 11
584.0394505438
 21
90.4321298224
  0
LINE
  5
67C
100
AcDbEntity
  8
0
100
AcDbLine
 62
7
  6
CONTINUOUS
 10
587.6614631255
 20
89.7820891966
 11
587.680692391
 21
89.4128614582
  0
LINE
  5
67D
100
AcDbEntity
  8
0
100
AcDbLine
 62
7
  6
CONTINUOUS
 10
583.5419350617
 20
90.6150590316
 11
583.5443403224
 21
90.017678362
  0
LINE
  5
67E
100
AcDbEntity
  8
0
100
AcDbLine
 62
7
  6
CONTINUOUS
 10
588.1782091379
 20
89.229934209
 11
588.1758026436
 21
89.8273128997
  0
LINE
  5
67F
100
AcDbEntity
  8
0
100
AcDbLine
 62
7
  6
CONTINUOUS
 10
571.2118050723
 20
212.3729947799
 11
571.2118050723
 21
212.0194413893
  0
LINE
  5
680
100
AcDbEntity
  8
0
100
AcDbLine
 62
7
  6
CONTINUOUS
 10
571.4409717589
 20
199.2868329323
 11
571.4409717589
 21
197.36109525
  0
LINE
  5
681
100
AcDbEntity
  8
0
100
AcDbLine
 62
7
  6
CONTINUOUS
 10
571.4409717589
 20
180.8178781467
 11
571.4409717589
 21
178.8921404644
  0
LINE
  5
682
100
AcDbEntity
  8
0
100
AcDbLine
 62
7
  6
CONTINUOUS
 10
571.732638505
 20
215.457183933
 11
571.732638505
 21
215.1036305424
  0
LINE
  5
683
100
AcDbEntity
  8
0
100
AcDbLine
 62
7
  6
CONTINUOUS
 10
571.732638505
 20
212.2977706632
 11
571.732638505
 21
211.9442172726
  0
LINE
  5
684
100
AcDbEntity
  8
0
100
AcDbLine
 62
7
  6
CONTINUOUS
 10
571.8576384454
 20
178.6589457027
 11
571.8576384454
 21
180.8178781467
  0
LINE
  5
685
100
AcDbEntity
  8
0
100
AcDbLine
 62
7
  6
CONTINUOUS
 10
571.8576384454
 20
197.1279004883
 11
571.8576384454
 21
199.2868329323
  0
LINE
  5
686
100
AcDbEntity
  8
0
100
AcDbLine
 62
7
  6
CONTINUOUS
 10
571.9409716993
 20
197.3009159566
 11
571.9409716993
 21
196.9799597112
  0
LINE
  5
687
100
AcDbEntity
  8
0
100
AcDbLine
 62
7
  6
CONTINUOUS
 10
571.9409716993
 20
178.8319611711
 11
571.9409716993
 21
178.5110049256
  0
LINE
  5
688
100
AcDbEntity
  8
0
100
AcDbLine
 62
7
  6
CONTINUOUS
 10
572.1909716993
 20
197.1805573699
 11
572.1909716993
 21
196.9398401597
  0
LINE
  5
689
100
AcDbEntity
  8
0
100
AcDbLine
 62
7
  6
CONTINUOUS
 10
572.1909716993
 20
178.7116025844
 11
572.1909716993
 21
178.4708853741
  0
LINE
  5
68A
100
AcDbEntity
  8
0
100
AcDbLine
 62
7
  6
CONTINUOUS
 10
572.2534716397
 20
212.3729947799
 11
572.2534716397
 21
212.0194413893
  0
LINE
  5
68B
100
AcDbEntity
  8
0
100
AcDbLine
 62
7
  6
CONTINUOUS
 10
572.357638505
 20
215.3819598163
 11
572.357638505
 21
215.0284064257
  0
LINE
  5
68C
100
AcDbEntity
  8
0
100
AcDbLine
 62
7
  6
CONTINUOUS
 10
572.5659716397
 20
212.5234430133
 11
572.5659716397
 21
212.1698896227
  0
LINE
  5
68D
100
AcDbEntity
  8
0
100
AcDbLine
 62
7
  6
CONTINUOUS
 10
572.6076384454
 20
178.4107060754
 11
572.6076384454
 21
178.6514232699
  0
LINE
  5
68E
100
AcDbEntity
  8
0
100
AcDbLine
 62
7
  6
CONTINUOUS
 10
572.6076384454
 20
196.879660861
 11
572.6076384454
 21
197.1203780555
  0
LINE
  5
68F
100
AcDbEntity
  8
0
100
AcDbLine
 62
7
  6
CONTINUOUS
 10
572.7743050723
 20
182.5767186078
 11
572.7743050723
 21
182.2231652172
  0
LINE
  5
690
100
AcDbEntity
  8
0
100
AcDbLine
 62
7
  6
CONTINUOUS
 10
572.7743050723
 20
110.9673428605
 11
572.7743050723
 21
118.7996079822
  0
LINE
  5
691
100
AcDbEntity
  8
BEZUGSACHSEN
100
AcDbLine
 62
7
  6
CONTINUOUS
 10
572.7743050723
 20
110.9673428605
 11
572.7743050723
 21
118.7996079822
  0
LINE
  5
692
100
AcDbEntity
  8
0
100
AcDbLine
 62
7
  6
CONTINUOUS
 10
572.7743050723
 20
127.0996079822
 11
572.7743050723
 21
136.3515874382
  0
LINE
  5
693
100
AcDbEntity
  8
BEZUGSACHSEN
100
AcDbLine
 62
7
  6
CONTINUOUS
 10
572.7743050723
 20
127.0996079822
 11
572.7743050723
 21
136.3515874382
  0
LINE
  5
694
100
AcDbEntity
  8
0
100
AcDbLine
 62
7
  6
CONTINUOUS
 10
572.7743050723
 20
180.0957264579
 11
572.7743050723
 21
180.3364436313
  0
LINE
  5
695
100
AcDbEntity
  8
0
100
AcDbLine
 62
7
  6
CONTINUOUS
 10
572.7743050723
 20
198.5646812435
 11
572.7743050723
 21
198.8053984169
  0
LINE
  5
696
100
AcDbEntity
  8
0
100
AcDbLine
 62
7
  6
CONTINUOUS
 10
572.8784719377
 20
215.1562874662
 11
572.8784719377
 21
214.8027340756
  0
LINE
  5
697
100
AcDbEntity
  8
0
100
AcDbLine
 62
7
  6
CONTINUOUS
 10
572.982638207
 20
212.9747877661
 11
572.982638207
 21
212.6212343755
  0
LINE
  5
698
100
AcDbEntity
  8
0
100
AcDbLine
 62
7
  6
CONTINUOUS
 10
573.0868050723
 20
213.9527013884
 11
573.0868050723
 21
213.072579181
  0
LINE
  5
699
100
AcDbEntity
  8
0
100
AcDbLine
 62
7
  6
CONTINUOUS
 10
573.1909719377
 20
214.9306151162
 11
573.1909719377
 21
214.5770617256
  0
LINE
  5
69A
100
AcDbEntity
  8
0
100
AcDbLine
 62
7
  6
CONTINUOUS
 10
573.3645135364
 20
200.9614949187
 11
573.3645135364
 21
200.6079415281
  0
LINE
  5
69B
100
AcDbEntity
  8
0
100
AcDbLine
 62
7
  6
CONTINUOUS
 10
573.3993050723
 20
214.6297186494
 11
573.3993050723
 21
214.2761652588
  0
LINE
  5
69C
100
AcDbEntity
  8
0
100
AcDbLine
 62
7
  6
CONTINUOUS
 10
573.5034719377
 20
214.4040460886
 11
573.5034719377
 21
214.050492698
  0
LINE
  5
69D
100
AcDbEntity
  8
0
100
AcDbLine
 62
7
  6
CONTINUOUS
 10
573.607638207
 20
213.3509084549
 11
573.607638207
 21
214.0279255051
  0
LINE
  5
69E
100
AcDbEntity
  8
0
100
AcDbLine
 62
7
  6
CONTINUOUS
 10
574.2743050723
 20
200.6079415281
 11
574.2743050723
 21
196.0117474504
  0
LINE
  5
69F
100
AcDbEntity
  8
0
100
AcDbLine
 62
7
  6
CONTINUOUS
 10
574.2743050723
 20
182.2231652172
 11
574.2743050723
 21
177.6269711395
  0
LINE
  5
6A0
100
AcDbEntity
  8
0
100
AcDbLine
 62
7
  6
CONTINUOUS
 10
574.4409719377
 20
214.3288219719
 11
574.4409719377
 21
211.9216500271
  0
LINE
  5
6A1
100
AcDbEntity
  8
0
100
AcDbLine
 62
7
  6
CONTINUOUS
 10
574.7743050723
 20
177.6269711395
 11
574.7743050723
 21
182.5767186078
  0
LINE
  5
6A2
100
AcDbEntity
  8
0
100
AcDbLine
 62
7
  6
CONTINUOUS
 10
574.7743050723
 20
196.0117474504
 11
574.7743050723
 21
200.9614949187
  0
LINE
  5
6A3
100
AcDbEntity
  8
0
100
AcDbLine
 62
7
  6
CONTINUOUS
 10
574.9618050723
 20
211.9216500271
 11
574.9618050723
 21
214.3288219719
  0
LINE
  5
6A4
100
AcDbEntity
  8
0
100
AcDbLine
 62
7
  6
CONTINUOUS
 10
575.170138207
 20
214.2535978552
 11
575.170138207
 21
213.9527013884
  0
LINE
  5
6A5
100
AcDbEntity
  8
BEZUGSACHSEN
100
AcDbLine
 62
7
  6
CONTINUOUS
 10
575.2743050723
 20
257.9494311367
 11
575.2743050723
 21
223.2710849471
  0
LINE
  5
6A6
100
AcDbEntity
  8
BEZUGSACHSEN
100
AcDbLine
 62
7
  6
CONTINUOUS
 10
575.2743050723
 20
164.4285014272
 11
575.2743050723
 21
143.4497590967
  0
LINE
  5
6A7
100
AcDbEntity
  8
0
100
AcDbLine
 62
7
  6
CONTINUOUS
 10
575.482638207
 20
214.3288219719
 11
575.482638207
 21
214.0279255051
  0
LINE
  5
6A8
100
AcDbEntity
  8
0
100
AcDbLine
 62
7
  6
CONTINUOUS
 10
575.8993050723
 20
214.3288219719
 11
575.8993050723
 21
213.9752685813
  0
LINE
  5
6A9
100
AcDbEntity
  8
0
100
AcDbLine
 62
7
  6
CONTINUOUS
 10
576.107638207
 20
213.7270290384
 11
576.107638207
 21
211.9216500271
  0
LINE
  5
6AA
100
AcDbEntity
  8
0
100
AcDbLine
 62
7
  6
CONTINUOUS
 10
576.2118050723
 20
214.2535978552
 11
576.2118050723
 21
213.9000444646
  0
LINE
  5
6AB
100
AcDbEntity
  8
0
100
AcDbLine
 62
7
  6
CONTINUOUS
 10
576.5243050723
 20
214.0279255051
 11
576.5243050723
 21
213.6743721145
  0
LINE
  5
6AC
100
AcDbEntity
  8
0
100
AcDbLine
 62
7
  6
CONTINUOUS
 10
576.6284719377
 20
211.9216500271
 11
576.6284719377
 21
213.7270290384
  0
LINE
  5
6AD
100
AcDbEntity
  8
0
100
AcDbLine
 62
7
  6
CONTINUOUS
 10
576.8368050723
 20
214.2535978552
 11
576.8368050723
 21
213.9527013884
  0
LINE
  5
6AE
100
AcDbEntity
  8
0
100
AcDbLine
 62
7
  6
CONTINUOUS
 10
577.1493050723
 20
214.3288219719
 11
577.1493050723
 21
214.0279255051
  0
LINE
  5
6AF
100
AcDbEntity
  8
0
100
AcDbLine
 62
7
  6
CONTINUOUS
 10
577.5659719377
 20
214.3288219719
 11
577.5659719377
 21
213.9752685813
  0
LINE
  5
6B0
100
AcDbEntity
  8
0
100
AcDbLine
 62
7
  6
CONTINUOUS
 10
577.7743050723
 20
213.7270290384
 11
577.7743050723
 21
211.9216500271
  0
LINE
  5
6B1
100
AcDbEntity
  8
0
100
AcDbLine
 62
7
  6
CONTINUOUS
 10
577.8784713417
 20
214.2535978552
 11
577.8784713417
 21
213.9000444646
  0
LINE
  5
6B2
100
AcDbEntity
  8
0
100
AcDbLine
 62
7
  6
CONTINUOUS
 10
578.0868050723
 20
214.1031496218
 11
578.0868050723
 21
213.7495962312
  0
LINE
  5
6B3
100
AcDbEntity
  8
0
100
AcDbLine
 62
7
  6
CONTINUOUS
 10
578.295138803
 20
211.9216500271
 11
578.295138803
 21
213.7270290384
  0
LINE
  5
6B4
100
AcDbEntity
  8
0
100
AcDbLine
 62
7
  6
CONTINUOUS
 10
578.7743050723
 20
292.9496079822
 11
578.7743050723
 21
294.6773925737
  0
LINE
  5
6B5
100
AcDbEntity
  8
0
100
AcDbLine
 62
7
  6
CONTINUOUS
 10
578.7743050723
 20
303.1437488104
 11
578.7743050723
 21
524.9496079822
  0
LINE
  5
6B6
100
AcDbEntity
  8
0
100
AcDbLine
 62
7
  6
CONTINUOUS
 10
579.1284713417
 20
214.3288219719
 11
579.1284713417
 21
211.9216500271
  0
LINE
  5
6B7
100
AcDbEntity
  8
KONSTRUKTIONSELEMENTE
100
AcDbLine
 62
7
  6
CONTINUOUS
 10
579.5743050723
 20
222.6455527131
 11
579.5743050723
 21
292.9496079822
  0
LINE
  5
6B8
100
AcDbEntity
  8
0
100
AcDbLine
 62
7
  6
CONTINUOUS
 10
579.6493050723
 20
211.9216500271
 11
579.6493050723
 21
214.3288219719
  0
LINE
  5
6B9
100
AcDbEntity
  8
0
100
AcDbLine
 62
7
  6
CONTINUOUS
 10
579.857638803
 20
214.2535978552
 11
579.857638803
 21
213.9527013884
  0
LINE
  5
6BA
100
AcDbEntity
  8
0
100
AcDbLine
 62
7
  6
CONTINUOUS
 10
580.170138803
 20
214.3288219719
 11
580.170138803
 21
214.0279255051
  0
LINE
  5
6BB
100
AcDbEntity
  8
0
100
AcDbLine
 62
7
  6
CONTINUOUS
 10
580.5868050723
 20
214.3288219719
 11
580.5868050723
 21
213.9752685813
  0
LINE
  5
6BC
100
AcDbEntity
  8
RUNDUNGEN
100
AcDbLine
 62
7
  6
CONTINUOUS
 10
580.6743050723
 20
110.9650242942
 11
580.6743050723
 21
133.3774826702
  0
LINE
  5
6BD
100
AcDbEntity
  8
BEZUGSACHSEN
100
AcDbLine
 62
7
  6
CONTINUOUS
 10
580.6743050723
 20
110.9650242942
 11
580.6743050723
 21
133.3774826702
  0
LINE
  5
6BE
100
AcDbEntity
  8
0
100
AcDbLine
 62
7
  6
CONTINUOUS
 10
580.7743050723
 20
111.5337419822
 11
580.7743050723
 21
103.9410859822
  0
LINE
  5
6BF
100
AcDbEntity
  8
BEZUGSACHSEN
100
AcDbLine
 62
7
  6
CONTINUOUS
 10
580.7743050723
 20
111.5337419822
 11
580.7743050723
 21
117.1245028562
  0
LINE
  5
6C0
100
AcDbEntity
  8
0
100
AcDbLine
 62
7
  6
CONTINUOUS
 10
580.7743050723
 20
117.1245028562
 11
580.7743050723
 21
128.5368532343
  0
LINE
  5
6C1
100
AcDbEntity
  8
RUNDUNGEN
100
AcDbLine
 62
7
  6
CONTINUOUS
 10
580.7743050723
 20
117.1245028562
 11
580.7743050723
 21
132.3396426872
  0
LINE
  5
6C2
100
AcDbEntity
  8
0
100
AcDbLine
 62
7
  6
CONTINUOUS
 10
580.795138803
 20
213.7270290384
 11
580.795138803
 21
211.9216500271
  0
LINE
  5
6C3
100
AcDbEntity
  8
0
100
AcDbLine
 62
7
  6
CONTINUOUS
 10
580.8993050723
 20
214.2535978552
 11
580.8993050723
 21
213.9000444646
  0
LINE
  5
6C4
100
AcDbEntity
  8
0
100
AcDbLine
 62
7
  6
CONTINUOUS
 10
581.2118050723
 20
214.0279255051
 11
581.2118050723
 21
213.6743721145
  0
LINE
  5
6C5
100
AcDbEntity
  8
0
100
AcDbLine
 62
7
  6
CONTINUOUS
 10
581.3159713417
 20
211.9216500271
 11
581.3159713417
 21
213.7270290384
  0
LINE
  5
6C6
100
AcDbEntity
  8
0
100
AcDbLine
 62
7
  6
CONTINUOUS
 10
581.5243050723
 20
214.2535978552
 11
581.5243050723
 21
213.9527013884
  0
LINE
  5
6C7
100
AcDbEntity
  8
0
100
AcDbLine
 62
7
  6
CONTINUOUS
 10
581.8368050723
 20
214.3288219719
 11
581.8368050723
 21
214.0279255051
  0
LINE
  5
6C8
100
AcDbEntity
  8
0
100
AcDbLine
 62
7
  6
CONTINUOUS
 10
582.2534713417
 20
214.3288219719
 11
582.2534713417
 21
213.9752685813
  0
LINE
  5
6C9
100
AcDbEntity
  8
0
100
AcDbLine
 62
7
  6
CONTINUOUS
 10
582.4618050723
 20
213.7270290384
 11
582.4618050723
 21
211.9216500271
  0
LINE
  5
6CA
100
AcDbEntity
  8
0
100
AcDbLine
 62
7
  6
CONTINUOUS
 10
582.5659713417
 20
214.2535978552
 11
582.5659713417
 21
213.9000444646
  0
LINE
  5
6CB
100
AcDbEntity
  8
0
100
AcDbLine
 62
7
  6
CONTINUOUS
 10
582.7743050723
 20
214.1031496218
 11
582.7743050723
 21
213.7495962312
  0
LINE
  5
6CC
100
AcDbEntity
  8
0
100
AcDbLine
 62
7
  6
CONTINUOUS
 10
582.982638803
 20
211.9216500271
 11
582.982638803
 21
213.7270290384
  0
LINE
  5
6CD
100
AcDbEntity
  8
0
100
AcDbLine
 62
7
  6
CONTINUOUS
 10
578.8006984594
 20
80.6964955328
 11
578.7933108598
 21
80.3238347946
  0
LINE
  5
6CE
100
AcDbEntity
  8
0
100
AcDbLine
 62
7
  6
CONTINUOUS
 10
555.1744840891
 20
189.9906468961
 11
555.1878458689
 21
190.0851311175
  0
LINE
  5
6CF
100
AcDbEntity
  8
0
100
AcDbLine
 62
7
  6
CONTINUOUS
 10
556.2058782009
 20
189.9651351726
 11
556.1925163698
 21
189.8706509211
  0
LINE
  5
6D0
100
AcDbEntity
  8
0
100
AcDbLine
 62
7
  6
CONTINUOUS
 10
556.6329954189
 20
190.3581408148
 11
556.646357226
 21
190.4526250277
  0
LINE
  5
6D1
100
AcDbEntity
  8
0
100
AcDbLine
 62
7
  6
CONTINUOUS
 10
559.964180145
 20
208.6417394865
 11
559.9428572221
 21
208.4951992911
  0
LINE
  5
6D2
100
AcDbEntity
  8
0
100
AcDbLine
 62
7
  6
CONTINUOUS
 10
560.3526974226
 20
208.5483126989
 11
560.3740205074
 21
208.6948530182
  0
LINE
  5
6D3
100
AcDbEntity
  8
0
100
AcDbLine
 62
7
  6
CONTINUOUS
 10
556.7173674351
 20
189.4692562806
 11
556.6911315604
 21
189.3365375576
  0
LINE
  5
6D4
100
AcDbEntity
  8
0
100
AcDbLine
 62
7
  6
CONTINUOUS
 10
558.4177386597
 20
189.5647798626
 11
558.4439746165
 21
189.6974985209
  0
LINE
  5
6D5
100
AcDbEntity
  8
0
100
AcDbLine
 62
7
  6
CONTINUOUS
 10
557.8180467196
 20
208.3610687611
 11
557.8510217837
 21
208.5209537879
  0
LINE
  5
6D6
100
AcDbEntity
  8
0
100
AcDbLine
 62
7
  6
CONTINUOUS
 10
557.6430067538
 20
208.5008974335
 11
557.6159821994
 21
208.4078846132
  0
LINE
  5
6D7
100
AcDbEntity
  8
0
100
AcDbLine
 62
7
  6
CONTINUOUS
 10
557.1909717514
 20
214.9306151162
 11
557.0868050723
 21
214.6297186494
  0
LINE
  5
6D8
100
AcDbEntity
  8
0
100
AcDbLine
 62
7
  6
CONTINUOUS
 10
557.1909717514
 20
214.5770617256
 11
557.1030833024
 21
214.3231866476
  0
LINE
  5
6D9
100
AcDbEntity
  8
RUNDUNGEN
100
AcDbLine
 62
7
  6
CONTINUOUS
 10
588.9243050723
 20
156.0602143133
 11
588.9243050723
 21
164.191942297
  0
LINE
  5
6DA
100
AcDbEntity
  8
BEZUGSACHSEN
100
AcDbLine
 62
7
  6
CONTINUOUS
 10
594.8884666723
 20
117.6130896204
 11
594.8884666723
 21
116.1017372232
  0
LINE
  5
6DB
100
AcDbEntity
  8
RUNDUNGEN
100
AcDbLine
 62
7
  6
CONTINUOUS
 10
594.8884666723
 20
117.6130896204
 11
594.8884666723
 21
132.3396426739
  0
LINE
  5
6DC
100
AcDbEntity
  8
RUNDUNGEN
100
AcDbLine
 62
7
  6
CONTINUOUS
 10
595.2035890723
 20
133.3774826702
 11
595.2035890723
 21
110.9650242944
  0
LINE
  5
6DD
100
AcDbEntity
  8
BEZUGSACHSEN
100
AcDbLine
 62
7
  6
CONTINUOUS
 10
595.2035890723
 20
133.3774826702
 11
595.2035890723
 21
110.9650242942
  0
LINE
  5
6DE
100
AcDbEntity
  8
RUNDUNGEN
100
AcDbLine
 62
7
  6
CONTINUOUS
 10
595.2525786483
 20
209.1249197912
 11
595.2525786483
 21
212.6604536971
  0
LINE
  5
6DF
100
AcDbEntity
  8
RUNDUNGEN
100
AcDbLine
 62
7
  6
CONTINUOUS
 10
596.7743050723
 20
159.2421948287
 11
596.7743050723
 21
168.7340469879
  0
LINE
  5
6E0
100
AcDbEntity
  8
RUNDUNGEN
100
AcDbLine
 62
7
  6
CONTINUOUS
 10
597.7743050723
 20
103.986413288
 11
597.7743050723
 21
103.9410859822
  0
LINE
  5
6E1
100
AcDbEntity
  8
KONSTRUKTIONSELEMENTE
100
AcDbLine
 62
7
  6
CONTINUOUS
 10
600.3743050723
 20
199.3496079822
 11
600.3743050723
 21
215.454071119
  0
LINE
  5
6E2
100
AcDbEntity
  8
KONSTRUKTIONSELEMENTE
100
AcDbLine
 62
7
  6
CONTINUOUS
 10
600.3743050723
 20
228.2224313712
 11
600.3743050723
 21
292.9496079822
  0
LINE
  5
6E3
100
AcDbEntity
  8
0
100
AcDbLine
 62
7
  6
CONTINUOUS
 10
570.3784716397
 20
213.9527013884
 11
570.482638505
 21
214.4040460886
  0
LINE
  5
6E4
100
AcDbEntity
  8
0
100
AcDbLine
 62
7
  6
CONTINUOUS
 10
573.0868050723
 20
213.4261325716
 11
572.982638207
 21
212.9747877661
  0
LINE
  5
6E5
100
AcDbEntity
  8
0
100
AcDbLine
 62
7
  6
CONTINUOUS
 10
573.0868050723
 20
213.072579181
 11
572.982638207
 21
212.6212343755
  0
LINE
  5
6E6
100
AcDbEntity
  8
0
100
AcDbLine
 62
7
  6
CONTINUOUS
 10
569.9618050723
 20
214.4040460886
 11
569.857638356
 21
214.0279255051
  0
LINE
  5
6E7
100
AcDbEntity
  8
0
100
AcDbLine
 62
7
  6
CONTINUOUS
 10
569.9618050723
 20
214.050492698
 11
569.857638356
 21
213.6743721145
  0
LINE
  5
6E8
100
AcDbEntity
  8
0
100
AcDbLine
 62
7
  6
CONTINUOUS
 10
573.5034719377
 20
212.9747877661
 11
573.607638207
 21
213.3509084549
  0
LINE
  5
6E9
100
AcDbEntity
  8
0
100
AcDbLine
 62
7
  6
CONTINUOUS
 10
560.2317952216
 20
189.1887810511
 11
560.1902440153
 21
189.0444269343
  0
LINE
  5
6EA
100
AcDbEntity
  8
0
100
AcDbLine
 62
7
  6
CONTINUOUS
 10
560.6054761961
 20
189.0688532945
 11
560.6470275807
 21
189.2132075233
  0
LINE
  5
6EB
100
AcDbEntity
  8
0
100
AcDbLine
 62
7
  6
CONTINUOUS
 10
537.8679177537
 20
156.4863545061
 11
538.0433675336
 21
156.9757318439
  0
LINE
  5
6EC
100
AcDbEntity
  8
BEZUGSACHSEN
100
AcDbLine
 62
7
  6
CONTINUOUS
 10
537.8679177537
 20
156.4863545061
 11
538.0433675336
 21
156.9757318439
  0
LINE
  5
6ED
100
AcDbEntity
  8
0
100
AcDbLine
 62
7
  6
CONTINUOUS
 10
541.5091596009
 20
155.4670861419
 11
541.3337086107
 21
154.9777068112
  0
LINE
  5
6EE
100
AcDbEntity
  8
BEZUGSACHSEN
100
AcDbLine
 62
7
  6
CONTINUOUS
 10
541.5091596009
 20
155.4670861419
 11
541.3337086107
 21
154.9777068112
  0
LINE
  5
6EF
100
AcDbEntity
  8
0
100
AcDbLine
 62
7
  6
CONTINUOUS
 10
537.5987268442
 20
157.2457352287
 11
537.3704010068
 21
156.6692817554
  0
LINE
  5
6F0
100
AcDbEntity
  8
BEZUGSACHSEN
100
AcDbLine
 62
7
  6
CONTINUOUS
 10
537.5987268442
 20
157.2457352287
 11
537.3704010068
 21
156.6692817554
  0
LINE
  5
6F1
100
AcDbEntity
  8
0
100
AcDbLine
 62
7
  6
CONTINUOUS
 10
541.7783492378
 20
154.7077034642
 11
542.006675083
 21
155.2841569328
  0
LINE
  5
6F2
100
AcDbEntity
  8
BEZUGSACHSEN
100
AcDbLine
 62
7
  6
CONTINUOUS
 10
541.7783492378
 20
154.7077034642
 11
542.006675083
 21
155.2841569328
  0
LINE
  5
6F3
100
AcDbEntity
  8
0
100
AcDbLine
 62
7
  6
CONTINUOUS
 10
555.0620603933
 20
190.3216325941
 11
554.9800465584
 21
190.1170136951
  0
LINE
  5
6F4
100
AcDbEntity
  8
0
100
AcDbLine
 62
7
  6
CONTINUOUS
 10
555.0620603933
 20
189.9680792035
 11
555.0084898419
 21
189.834424348
  0
LINE
  5
6F5
100
AcDbEntity
  8
0
100
AcDbLine
 62
7
  6
CONTINUOUS
 10
556.7543072714
 20
189.5605484472
 11
556.7173674351
 21
189.4692562806
  0
LINE
  5
6F6
100
AcDbEntity
  8
0
100
AcDbLine
 62
7
  6
CONTINUOUS
 10
556.7543072714
 20
189.2069950566
 11
556.743619474
 21
189.1805815075
  0
LINE
  5
6F7
100
AcDbEntity
  8
0
100
AcDbLine
 62
7
  6
CONTINUOUS
 10
558.3807988554
 20
189.473487579
 11
558.4177386597
 21
189.5647798626
  0
LINE
  5
6F8
100
AcDbEntity
  8
0
100
AcDbLine
 62
7
  6
CONTINUOUS
 10
557.7118050723
 20
214.554494322
 11
557.8159717142
 21
214.7801668828
  0
LINE
  5
6F9
100
AcDbEntity
  8
0
100
AcDbLine
 62
7
  6
CONTINUOUS
 10
554.5753702309
 20
209.5126771686
 11
554.488640553
 21
209.342874569
  0
LINE
  5
6FA
100
AcDbEntity
  8
0
100
AcDbLine
 62
7
  6
CONTINUOUS
 10
555.4291775746
 20
209.1026766182
 11
555.2268083532
 21
208.7064706053
  0
LINE
  5
6FB
100
AcDbEntity
  8
0
100
AcDbLine
 62
7
  6
CONTINUOUS
 10
555.7905512088
 20
209.8101874038
 11
555.5159072524
 21
209.2724792179
  0
LINE
  5
6FC
100
AcDbEntity
  8
0
100
AcDbLine
 62
7
  6
CONTINUOUS
 10
555.4291775746
 20
208.7491232276
 11
555.3865544277
 21
208.6656740403
  0
LINE
  5
6FD
100
AcDbEntity
  8
0
100
AcDbLine
 62
7
  6
CONTINUOUS
 10
555.7905512088
 20
209.4566340132
 11
555.5159072524
 21
208.9189258273
  0
LINE
  5
6FE
100
AcDbEntity
  8
0
100
AcDbLine
 62
7
  6
CONTINUOUS
 10
555.4619426086
 20
208.6464211176
 11
555.66431183
 21
209.0426271305
  0
LINE
  5
6FF
100
AcDbEntity
  8
0
100
AcDbLine
 62
7
  6
CONTINUOUS
 10
555.7510415078
 20
209.2124297302
 11
556.1413250077
 21
209.9765413294
  0
LINE
  5
700
100
AcDbEntity
  8
0
100
AcDbLine
 62
7
  6
CONTINUOUS
 10
556.0562022182
 20
208.9425446606
 11
556.1429318961
 21
209.1123472602
  0
LINE
  5
701
100
AcDbEntity
  8
RUNDUNGEN
100
AcDbLine
 62
7
  6
CONTINUOUS
 10
605.6937035549
 20
220.4492472553
 11
605.6937035549
 21
223.9847811613
  0
LINE
  5
702
100
AcDbEntity
  8
0
100
AcDbLine
 62
7
  6
CONTINUOUS
 10
606.7743050723
 20
130.8079042773
 11
606.7743050723
 21
127.4702909182
  0
LINE
  5
703
100
AcDbEntity
  8
BEZUGSACHSEN
100
AcDbLine
 62
7
  6
CONTINUOUS
 10
606.7743050723
 20
130.8079042773
 11
606.7743050723
 21
127.4702909182
  0
LINE
  5
704
100
AcDbEntity
  8
0
100
AcDbLine
 62
7
  6
CONTINUOUS
 10
606.7743050723
 20
118.4289250462
 11
606.7743050723
 21
117.4204523456
  0
LINE
  5
705
100
AcDbEntity
  8
BEZUGSACHSEN
100
AcDbLine
 62
7
  6
CONTINUOUS
 10
606.7743050723
 20
118.4289250462
 11
606.7743050723
 21
117.4204523456
  0
LINE
  5
706
100
AcDbEntity
  8
KONSTRUKTIONSELEMENTE
100
AcDbLine
 62
7
  6
CONTINUOUS
 10
606.7743050723
 20
203.4496079822
 11
606.7743050723
 21
244.4496079822
  0
LINE
  5
707
100
AcDbEntity
  8
0
100
AcDbLine
 62
7
  6
CONTINUOUS
 10
549.9956073176
 20
164.0423855016
 11
549.8466947141
 21
163.7039716662
  0
LINE
  5
708
100
AcDbEntity
  8
BEZUGSACHSEN
100
AcDbLine
 62
7
  6
CONTINUOUS
 10
549.9956073176
 20
164.0423855016
 11
549.8466947141
 21
163.7039716662
  0
LINE
  5
709
100
AcDbEntity
  8
0
100
AcDbLine
 62
7
  6
CONTINUOUS
 10
570.0659717887
 20
214.6297186494
 11
569.9618050723
 21
214.4040460886
  0
LINE
  5
70A
100
AcDbEntity
  8
0
100
AcDbLine
 62
7
  6
CONTINUOUS
 10
570.0659717887
 20
214.2761652588
 11
569.9618050723
 21
214.050492698
  0
LINE
  5
70B
100
AcDbEntity
  8
0
100
AcDbLine
 62
7
  6
CONTINUOUS
 10
573.3993050723
 20
212.749115416
 11
573.5034719377
 21
212.9747877661
  0
LINE
  5
70C
100
AcDbEntity
  8
0
100
AcDbLine
 62
7
  6
CONTINUOUS
 10
556.8388908567
 20
189.7017063235
 11
556.7543072714
 21
189.5605484472
  0
LINE
  5
70D
100
AcDbEntity
  8
0
100
AcDbLine
 62
7
  6
CONTINUOUS
 10
556.8388908567
 20
189.3481529329
 11
556.7543072714
 21
189.2069950566
  0
LINE
  5
70E
100
AcDbEntity
  8
0
100
AcDbLine
 62
7
  6
CONTINUOUS
 10
558.2962152047
 20
189.3323297847
 11
558.3807988554
 21
189.473487579
  0
LINE
  5
70F
100
AcDbEntity
  8
0
100
AcDbLine
 62
7
  6
CONTINUOUS
 10
555.1822014656
 20
190.5143682067
 11
555.0620603933
 21
190.3216325941
  0
LINE
  5
710
100
AcDbEntity
  8
0
100
AcDbLine
 62
7
  6
CONTINUOUS
 10
555.1822014656
 20
190.1608148161
 11
555.0620603933
 21
189.9680792035
  0
LINE
  5
711
100
AcDbEntity
  8
0
100
AcDbLine
 62
7
  6
CONTINUOUS
 10
555.3385117417
 20
190.3998846533
 11
555.3728377623
 21
190.4549519712
  0
LINE
  5
712
100
AcDbEntity
  8
0
100
AcDbLine
 62
7
  6
CONTINUOUS
 10
555.1878458689
 20
190.0851311175
 11
555.2393348999
 21
190.1677320943
  0
LINE
  5
713
100
AcDbEntity
  8
0
100
AcDbLine
 62
7
  6
CONTINUOUS
 10
556.1925163698
 20
189.8706509211
 11
556.1410273388
 21
189.7880499442
  0
LINE
  5
714
100
AcDbEntity
  8
0
100
AcDbLine
 62
7
  6
CONTINUOUS
 10
556.3145006662
 20
189.701100037
 11
556.4003157418
 21
189.8387683704
  0
LINE
  5
715
100
AcDbEntity
  8
0
100
AcDbLine
 62
7
  6
CONTINUOUS
 10
560.420138505
 20
212.4482188966
 11
560.6284716397
 21
212.749115416
  0
LINE
  5
716
100
AcDbEntity
  8
0
100
AcDbLine
 62
7
  6
CONTINUOUS
 10
557.1471428404
 20
209.6705695721
 11
556.5992129979
 21
208.9909166625
  0
LINE
  5
717
100
AcDbEntity
  8
0
100
AcDbLine
 62
7
  6
CONTINUOUS
 10
556.8855744079
 20
209.0486627853
 11
557.222762026
 21
209.4669107578
  0
LINE
  5
718
100
AcDbEntity
  8
0
100
AcDbLine
 62
7
  6
CONTINUOUS
 10
556.8855744079
 20
208.9925663479
 11
556.8218721
 21
208.91354992
  0
LINE
  5
719
100
AcDbEntity
  8
RUNDUNGEN
100
AcDbLine
 62
7
  6
CONTINUOUS
 10
519.119992253
 20
225.4613917311
 11
526.3285302427
 21
229.0304938626
  0
LINE
  5
71A
100
AcDbEntity
  8
0
100
AcDbLine
 62
7
  6
CONTINUOUS
 10
575.0494211129
 20
82.2782467911
 11
574.9243815436
 21
81.709387503
  0
LINE
  5
71B
100
AcDbEntity
  8
0
100
AcDbLine
 62
7
  6
CONTINUOUS
 10
579.2968926319
 20
79.9024183735
 11
579.4219321819
 21
80.4712776926
  0
LINE
  5
71C
100
AcDbEntity
  8
0
100
AcDbLine
 62
7
  6
CONTINUOUS
 10
556.9269360564
 20
189.4780801283
 11
557.0353415984
 21
189.6441707948
  0
LINE
  5
71D
100
AcDbEntity
  8
0
100
AcDbLine
 62
7
  6
CONTINUOUS
 10
558.2081698729
 20
189.5559559923
 11
558.0997645618
 21
189.3898652662
  0
LINE
  5
71E
100
AcDbEntity
  8
0
100
AcDbLine
 62
7
  6
CONTINUOUS
 10
570.2743050723
 20
214.9306151162
 11
570.0659717887
 21
214.6297186494
  0
LINE
  5
71F
100
AcDbEntity
  8
0
100
AcDbLine
 62
7
  6
CONTINUOUS
 10
570.2743050723
 20
214.5770617256
 11
570.0659717887
 21
214.2761652588
  0
LINE
  5
720
100
AcDbEntity
  8
0
100
AcDbLine
 62
7
  6
CONTINUOUS
 10
573.1909719377
 20
212.4482188966
 11
573.3993050723
 21
212.749115416
  0
LINE
  5
721
100
AcDbEntity
  8
0
100
AcDbLine
 62
7
  6
CONTINUOUS
 10
576.6284719377
 20
213.7270290384
 11
576.732638207
 21
213.8774772718
  0
LINE
  5
722
100
AcDbEntity
  8
0
100
AcDbLine
 62
7
  6
CONTINUOUS
 10
581.3159713417
 20
213.7270290384
 11
581.420138803
 21
213.8774772718
  0
LINE
  5
723
100
AcDbEntity
  8
RUNDUNGEN
100
AcDbLine
 62
7
  6
CONTINUOUS
 10
523.068453269
 20
135.7927407659
 11
519.4518697462
 21
130.6277242166
  0
LINE
  5
724
100
AcDbEntity
  8
0
100
AcDbLine
 62
7
  6
CONTINUOUS
 10
557.6159821994
 20
208.4078846132
 11
557.5738337545
 21
208.3556036258
  0
LINE
  5
725
100
AcDbEntity
  8
0
100
AcDbLine
 62
7
  6
CONTINUOUS
 10
558.2725062916
 20
209.0437637353
 11
558.3778774038
 21
209.1744662038
  0
LINE
  5
726
100
AcDbEntity
  8
0
100
AcDbLine
 62
7
  6
CONTINUOUS
 10
557.7337498298
 20
208.2565067863
 11
557.8180467196
 21
208.3610687611
  0
LINE
  5
727
100
AcDbEntity
  8
0
100
AcDbLine
 62
7
  6
CONTINUOUS
 10
555.3404697993
 20
190.6952205717
 11
555.1822014656
 21
190.5143682067
  0
LINE
  5
728
100
AcDbEntity
  8
0
100
AcDbLine
 62
7
  6
CONTINUOUS
 10
555.3404697993
 20
190.3416671811
 11
555.1822014656
 21
190.1608148161
  0
LINE
  5
729
100
AcDbEntity
  8
0
100
AcDbLine
 62
7
  6
CONTINUOUS
 10
560.0034716397
 20
212.8243395327
 11
559.795138505
 21
212.5986671826
  0
LINE
  5
72A
100
AcDbEntity
  8
0
100
AcDbLine
 62
7
  6
CONTINUOUS
 10
560.0034716397
 20
212.4707861421
 11
559.795138505
 21
212.245113792
  0
LINE
  5
72B
100
AcDbEntity
  8
0
100
AcDbLine
 62
7
  6
CONTINUOUS
 10
570.482638505
 20
214.4040460886
 11
570.8993050723
 21
214.8553909995
  0
LINE
  5
72C
100
AcDbEntity
  8
0
100
AcDbLine
 62
7
  6
CONTINUOUS
 10
572.982638207
 20
212.9747877661
 11
572.5659716397
 21
212.5234430133
  0
LINE
  5
72D
100
AcDbEntity
  8
0
100
AcDbLine
 62
7
  6
CONTINUOUS
 10
572.982638207
 20
212.6212343755
 11
572.5659716397
 21
212.1698896227
  0
LINE
  5
72E
100
AcDbEntity
  8
RUNDUNGEN
100
AcDbLine
 62
7
  6
CONTINUOUS
 10
529.6785448509
 20
170.7619459262
 11
544.5422210176
 21
185.7720759767
  0
LINE
  5
72F
100
AcDbEntity
  8
RUNDUNGEN
100
AcDbLine
 62
7
  6
CONTINUOUS
 10
582.4373542423
 20
224.0405952583
 11
583.2442349634
 21
224.8554262883
  0
LINE
  5
730
100
AcDbEntity
  8
0
100
AcDbLine
 62
7
  6
CONTINUOUS
 10
557.6076384305
 20
215.2315115829
 11
557.1909717514
 21
214.9306151162
  0
LINE
  5
731
100
AcDbEntity
  8
0
100
AcDbLine
 62
7
  6
CONTINUOUS
 10
557.6076384305
 20
214.8779581923
 11
557.1909717514
 21
214.5770617256
  0
LINE
  5
732
100
AcDbEntity
  8
RUNDUNGEN
100
AcDbLine
 62
7
  6
CONTINUOUS
 10
554.1706585271
 20
225.2002533084
 11
543.3578515425
 21
219.8466001111
  0
LINE
  5
733
100
AcDbEntity
  8
0
100
AcDbLine
 62
7
  6
CONTINUOUS
 10
539.8430030154
 20
160.4426099389
 11
539.4594063327
 21
159.9667311789
  0
LINE
  5
734
100
AcDbEntity
  8
BEZUGSACHSEN
100
AcDbLine
 62
7
  6
CONTINUOUS
 10
539.8430030154
 20
160.4426099389
 11
539.4594063327
 21
159.9667311789
  0
LINE
  5
735
100
AcDbEntity
  8
0
100
AcDbLine
 62
7
  6
CONTINUOUS
 10
543.2664364125
 20
156.8979577167
 11
543.6500330953
 21
157.3738364767
  0
LINE
  5
736
100
AcDbEntity
  8
BEZUGSACHSEN
100
AcDbLine
 62
7
  6
CONTINUOUS
 10
543.2664364125
 20
156.8979577167
 11
543.6500330953
 21
157.3738364767
  0
LINE
  5
737
100
AcDbEntity
  8
0
100
AcDbLine
 62
7
  6
CONTINUOUS
 10
549.8466947141
 20
163.7039716662
 11
549.6426494312
 21
163.453788616
  0
LINE
  5
738
100
AcDbEntity
  8
BEZUGSACHSEN
100
AcDbLine
 62
7
  6
CONTINUOUS
 10
549.8466947141
 20
163.7039716662
 11
549.6426494312
 21
163.453788616
  0
LINE
  5
739
100
AcDbEntity
  8
0
100
AcDbLine
 62
7
  6
CONTINUOUS
 10
538.004908948
 20
157.7141873538
 11
537.5987268442
 21
157.2457352287
  0
LINE
  5
73A
100
AcDbEntity
  8
BEZUGSACHSEN
100
AcDbLine
 62
7
  6
CONTINUOUS
 10
538.004908948
 20
157.7141873538
 11
537.5987268442
 21
157.2457352287
  0
LINE
  5
73B
100
AcDbEntity
  8
0
100
AcDbLine
 62
7
  6
CONTINUOUS
 10
541.3721671418
 20
154.2392513344
 11
541.7783492378
 21
154.7077034642
  0
LINE
  5
73C
100
AcDbEntity
  8
BEZUGSACHSEN
100
AcDbLine
 62
7
  6
CONTINUOUS
 10
541.3721671418
 20
154.2392513344
 11
541.7783492378
 21
154.7077034642
  0
LINE
  5
73D
100
AcDbEntity
  8
0
100
AcDbLine
 62
7
  6
CONTINUOUS
 10
555.3728377623
 20
190.4549519712
 11
555.5139430891
 21
190.6082706762
  0
LINE
  5
73E
100
AcDbEntity
  8
0
100
AcDbLine
 62
7
  6
CONTINUOUS
 10
538.0433675336
 20
156.9757318439
 11
538.3966747747
 21
157.3571098358
  0
LINE
  5
73F
100
AcDbEntity
  8
BEZUGSACHSEN
100
AcDbLine
 62
7
  6
CONTINUOUS
 10
538.0433675336
 20
156.9757318439
 11
538.3966747747
 21
157.3571098358
  0
LINE
  5
740
100
AcDbEntity
  8
0
100
AcDbLine
 62
7
  6
CONTINUOUS
 10
541.3337086107
 20
154.9777068112
 11
540.9804025798
 21
154.5963308123
  0
LINE
  5
741
100
AcDbEntity
  8
BEZUGSACHSEN
100
AcDbLine
 62
7
  6
CONTINUOUS
 10
541.3337086107
 20
154.9777068112
 11
540.9804025798
 21
154.5963308123
  0
LINE
  5
742
100
AcDbEntity
  8
0
100
AcDbLine
 62
7
  6
CONTINUOUS
 10
557.0532875773
 20
189.9261018603
 11
556.8388908567
 21
189.7017063235
  0
LINE
  5
743
100
AcDbEntity
  8
0
100
AcDbLine
 62
7
  6
CONTINUOUS
 10
557.0353415984
 20
189.6441707948
 11
557.2020946032
 21
189.8187006568
  0
LINE
  5
744
100
AcDbEntity
  8
0
100
AcDbLine
 62
7
  6
CONTINUOUS
 10
556.9260697083
 20
189.4393975431
 11
556.8388908567
 21
189.3481529329
  0
LINE
  5
745
100
AcDbEntity
  8
0
100
AcDbLine
 62
7
  6
CONTINUOUS
 10
558.0997645618
 20
189.3898652662
 11
557.933011557
 21
189.2153354043
  0
LINE
  5
746
100
AcDbEntity
  8
0
100
AcDbLine
 62
7
  6
CONTINUOUS
 10
558.0818184841
 20
189.107934248
 11
558.2962152047
 21
189.3323297847
  0
LINE
  5
747
100
AcDbEntity
  8
RUNDUNGEN
100
AcDbLine
 62
7
  6
CONTINUOUS
 10
590.7223961059
 20
217.6136341783
 11
593.3608477131
 21
220.2780828189
  0
LINE
  5
748
100
AcDbEntity
  8
RUNDUNGEN
100
AcDbLine
 62
7
  6
CONTINUOUS
 10
591.637686567
 20
215.0024092186
 11
593.3608477131
 21
216.742548913
  0
LINE
  5
749
100
AcDbEntity
  8
0
100
AcDbLine
 62
7
  6
CONTINUOUS
 10
568.3993050723
 20
215.457183933
 11
567.7743050723
 21
214.9306151162
  0
LINE
  5
74A
100
AcDbEntity
  8
0
100
AcDbLine
 62
7
  6
CONTINUOUS
 10
568.3993050723
 20
215.1036305424
 11
567.7743050723
 21
214.5770617256
  0
LINE
  5
74B
100
AcDbEntity
  8
0
100
AcDbLine
 62
7
  6
CONTINUOUS
 10
567.7743050723
 20
214.3288219719
 11
568.3993050723
 21
214.8553909995
  0
LINE
  5
74C
100
AcDbEntity
  8
0
100
AcDbLine
 62
7
  6
CONTINUOUS
 10
555.5139430891
 20
190.6082706762
 11
555.6035594193
 21
190.6789884856
  0
LINE
  5
74D
100
AcDbEntity
  8
0
100
AcDbLine
 62
7
  6
CONTINUOUS
 10
555.2393348999
 20
190.1677320943
 11
555.328951206
 21
190.2384498652
  0
LINE
  5
74E
100
AcDbEntity
  8
0
100
AcDbLine
 62
7
  6
CONTINUOUS
 10
556.1410273388
 20
189.7880499442
 11
556.051411084
 21
189.7173322034
  0
LINE
  5
74F
100
AcDbEntity
  8
0
100
AcDbLine
 62
7
  6
CONTINUOUS
 10
560.077301778
 20
208.7282880291
 11
559.964180145
 21
208.6417394865
  0
LINE
  5
750
100
AcDbEntity
  8
0
100
AcDbLine
 62
7
  6
CONTINUOUS
 10
560.2395757897
 20
208.4617641564
 11
560.3526974226
 21
208.5483126989
  0
LINE
  5
751
100
AcDbEntity
  8
0
100
AcDbLine
 62
7
  6
CONTINUOUS
 10
560.0034716397
 20
212.1473224035
 11
560.420138505
 21
212.4482188966
  0
LINE
  5
752
100
AcDbEntity
  8
0
100
AcDbLine
 62
7
  6
CONTINUOUS
 10
570.5868050723
 20
215.1562874662
 11
570.2743050723
 21
214.9306151162
  0
LINE
  5
753
100
AcDbEntity
  8
0
100
AcDbLine
 62
7
  6
CONTINUOUS
 10
570.5868050723
 20
214.8027340756
 11
570.2743050723
 21
214.5770617256
  0
LINE
  5
754
100
AcDbEntity
  8
0
100
AcDbLine
 62
7
  6
CONTINUOUS
 10
575.170138207
 20
214.2535978552
 11
574.9618050723
 21
214.1031496218
  0
LINE
  5
755
100
AcDbEntity
  8
0
100
AcDbLine
 62
7
  6
CONTINUOUS
 10
574.9618050723
 20
213.8022531551
 11
575.170138207
 21
213.9527013884
  0
LINE
  5
756
100
AcDbEntity
  8
0
100
AcDbLine
 62
7
  6
CONTINUOUS
 10
572.8784719377
 20
212.2225465202
 11
573.1909719377
 21
212.4482188966
  0
LINE
  5
757
100
AcDbEntity
  8
0
100
AcDbLine
 62
7
  6
CONTINUOUS
 10
576.8368050723
 20
214.2535978552
 11
576.5243050723
 21
214.0279255051
  0
LINE
  5
758
100
AcDbEntity
  8
0
100
AcDbLine
 62
7
  6
CONTINUOUS
 10
576.732638207
 20
213.8774772718
 11
576.8368050723
 21
213.9527013884
  0
LINE
  5
759
100
AcDbEntity
  8
0
100
AcDbLine
 62
7
  6
CONTINUOUS
 10
576.6597218396
 20
213.7721635389
 11
576.5243050723
 21
213.6743721145
  0
LINE
  5
75A
100
AcDbEntity
  8
0
100
AcDbLine
 62
7
  6
CONTINUOUS
 10
579.857638803
 20
214.2535978552
 11
579.6493050723
 21
214.1031496218
  0
LINE
  5
75B
100
AcDbEntity
  8
0
100
AcDbLine
 62
7
  6
CONTINUOUS
 10
579.6493050723
 20
213.8022531551
 11
579.857638803
 21
213.9527013884
  0
LINE
  5
75C
100
AcDbEntity
  8
0
100
AcDbLine
 62
7
  6
CONTINUOUS
 10
581.5243050723
 20
214.2535978552
 11
581.2118050723
 21
214.0279255051
  0
LINE
  5
75D
100
AcDbEntity
  8
0
100
AcDbLine
 62
7
  6
CONTINUOUS
 10
581.420138803
 20
213.8774772718
 11
581.5243050723
 21
213.9527013884
  0
LINE
  5
75E
100
AcDbEntity
  8
0
100
AcDbLine
 62
7
  6
CONTINUOUS
 10
581.3472213628
 20
213.7721631945
 11
581.2118050723
 21
213.6743721145
  0
LINE
  5
75F
100
AcDbEntity
  8
0
100
AcDbLine
 62
7
  6
CONTINUOUS
 10
562.7743050723
 20
209.5002590853
 11
558.6745504945
 21
206.5822281853
  0
LINE
  5
760
100
AcDbEntity
  8
0
100
AcDbLine
 62
7
  6
CONTINUOUS
 10
558.3221578553
 20
206.3314100959
 11
551.2743050723
 21
201.3150483093
  0
LINE
  5
761
100
AcDbEntity
  8
0
100
AcDbLine
 62
7
  6
CONTINUOUS
 10
562.7743050723
 20
209.1467056947
 11
558.6745504945
 21
206.2286747947
  0
LINE
  5
762
100
AcDbEntity
  8
0
100
AcDbLine
 62
7
  6
CONTINUOUS
 10
558.3221578553
 20
205.9778567053
 11
551.2743050723
 21
200.9614949187
  0
LINE
  5
763
100
AcDbEntity
  8
0
100
AcDbLine
 62
7
  6
CONTINUOUS
 10
552.1869798263
 20
200.9614949187
 11
562.7743050723
 21
208.4971026311
  0
LINE
  5
764
100
AcDbEntity
  8
0
100
AcDbLine
 62
7
  6
CONTINUOUS
 10
557.5738337545
 20
208.3556036258
 11
557.4744129448
 21
208.2917734472
  0
LINE
  5
765
100
AcDbEntity
  8
0
100
AcDbLine
 62
7
  6
CONTINUOUS
 10
557.5559826252
 20
208.154986821
 11
557.7337498298
 21
208.2565067863
  0
LINE
  5
766
100
AcDbEntity
  8
0
100
AcDbLine
 62
7
  6
CONTINUOUS
 10
557.8159717142
 20
214.7801668828
 11
558.1284717887
 21
214.9306151162
  0
LINE
  5
767
100
AcDbEntity
  8
0
100
AcDbLine
 62
7
  6
CONTINUOUS
 10
559.795138505
 20
212.5986671826
 11
559.482638505
 21
212.4482188966
  0
LINE
  5
768
100
AcDbEntity
  8
0
100
AcDbLine
 62
7
  6
CONTINUOUS
 10
559.795138505
 20
212.245113792
 11
559.482638505
 21
212.094665506
  0
LINE
  5
769
100
AcDbEntity
  8
0
100
AcDbLine
 62
7
  6
CONTINUOUS
 10
570.8993050723
 20
214.8553909995
 11
571.2118050723
 21
215.0058392328
  0
LINE
  5
76A
100
AcDbEntity
  8
0
100
AcDbLine
 62
7
  6
CONTINUOUS
 10
571.107638505
 20
215.3819598163
 11
570.5868050723
 21
215.1562874662
  0
LINE
  5
76B
100
AcDbEntity
  8
0
100
AcDbLine
 62
7
  6
CONTINUOUS
 10
558.0243050723
 20
215.3819598163
 11
557.6076384305
 21
215.2315115829
  0
LINE
  5
76C
100
AcDbEntity
  8
0
100
AcDbLine
 62
7
  6
CONTINUOUS
 10
558.0243050723
 20
215.0284064257
 11
557.6076384305
 21
214.8779581923
  0
LINE
  5
76D
100
AcDbEntity
  8
0
100
AcDbLine
 62
7
  6
CONTINUOUS
 10
584.0394505438
 20
90.4321298224
 11
584.214901534
 21
90.9215091531
  0
LINE
  5
76E
100
AcDbEntity
  8
0
100
AcDbLine
 62
7
  6
CONTINUOUS
 10
587.680692391
 20
89.4128614582
 11
587.5052426111
 21
88.9234841205
  0
LINE
  5
76F
100
AcDbEntity
  8
0
100
AcDbLine
 62
7
  6
CONTINUOUS
 10
583.7702609069
 20
91.1915125002
 11
583.5419350617
 21
90.6150590316
  0
LINE
  5
770
100
AcDbEntity
  8
0
100
AcDbLine
 62
7
  6
CONTINUOUS
 10
587.9498833005
 20
88.6534807356
 11
588.1782091379
 21
89.229934209
  0
LINE
  5
771
100
AcDbEntity
  8
0
100
AcDbLine
 62
7
  6
CONTINUOUS
 10
575.5530028271
 20
81.8568304627
 11
575.7019154306
 21
82.1952442981
  0
LINE
  5
772
100
AcDbEntity
  8
0
100
AcDbLine
 62
7
  6
CONTINUOUS
 10
549.9734455075
 20
162.924403905
 11
550.263883115
 21
163.2285708376
  0
LINE
  5
773
100
AcDbEntity
  8
BEZUGSACHSEN
100
AcDbLine
 62
7
  6
CONTINUOUS
 10
549.9734455075
 20
162.924403905
 11
550.263883115
 21
163.2285708376
  0
LINE
  5
774
100
AcDbEntity
  8
RUNDUNGEN
100
AcDbLine
 62
7
  6
CONTINUOUS
 10
604.7894637764
 20
221.9568822229
 11
602.2083698128
 21
219.3503563789
  0
LINE
  5
775
100
AcDbEntity
  8
RUNDUNGEN
100
AcDbLine
 62
7
  6
CONTINUOUS
 10
594.9813067148
 20
212.0520840156
 11
581.0063891271
 21
197.9394696069
  0
LINE
  5
776
100
AcDbEntity
  8
RUNDUNGEN
100
AcDbLine
 62
7
  6
CONTINUOUS
 10
557.8593928066
 20
174.5644026887
 11
552.5820992016
 21
169.2351111705
  0
LINE
  5
777
100
AcDbEntity
  8
RUNDUNGEN
100
AcDbLine
 62
7
  6
CONTINUOUS
 10
604.7894637764
 20
218.421348317
 11
602.2083698128
 21
215.8148224729
  0
LINE
  5
778
100
AcDbEntity
  8
RUNDUNGEN
100
AcDbLine
 62
7
  6
CONTINUOUS
 10
594.9813067148
 20
208.5165501097
 11
581.0063891271
 21
194.403935701
  0
LINE
  5
779
100
AcDbEntity
  8
RUNDUNGEN
100
AcDbLine
 62
7
  6
CONTINUOUS
 10
557.8593928066
 20
171.0288687828
 11
552.5820992016
 21
165.6995772645
  0
LINE
  5
77A
100
AcDbEntity
  8
0
100
AcDbLine
 62
7
  6
CONTINUOUS
 10
557.2020946032
 20
189.8187006568
 11
557.3795513888
 21
189.9518040741
  0
LINE
  5
77B
100
AcDbEntity
  8
0
100
AcDbLine
 62
7
  6
CONTINUOUS
 10
557.933011557
 20
189.2153354043
 11
557.7555545405
 21
189.0822320464
  0
LINE
  5
77C
100
AcDbEntity
  8
0
100
AcDbLine
 62
7
  6
CONTINUOUS
 10
557.2069226037
 20
190.034272393
 11
557.0532875773
 21
189.9261018603
  0
LINE
  5
77D
100
AcDbEntity
  8
0
100
AcDbLine
 62
7
  6
CONTINUOUS
 10
557.9281835231
 20
188.9997636331
 11
558.0818184841
 21
189.107934248
  0
LINE
  5
77E
100
AcDbEntity
  8
0
100
AcDbLine
 62
7
  6
CONTINUOUS
 10
555.5025394184
 20
190.8091224492
 11
555.3404697993
 21
190.6952205717
  0
LINE
  5
77F
100
AcDbEntity
  8
0
100
AcDbLine
 62
7
  6
CONTINUOUS
 10
556.1524310456
 20
189.5871982291
 11
556.3145006662
 21
189.701100037
  0
LINE
  5
780
100
AcDbEntity
  8
0
100
AcDbLine
 62
7
  6
CONTINUOUS
 10
560.3563790037
 20
189.2670647835
 11
560.2317952216
 21
189.1887810511
  0
LINE
  5
781
100
AcDbEntity
  8
0
100
AcDbLine
 62
7
  6
CONTINUOUS
 10
560.4808924141
 20
188.9905695621
 11
560.6054761961
 21
189.0688532945
  0
LINE
  5
782
100
AcDbEntity
  8
0
100
AcDbLine
 62
7
  6
CONTINUOUS
 10
557.3129139812
 20
190.0925773208
 11
557.2069226037
 21
190.034272393
  0
LINE
  5
783
100
AcDbEntity
  8
0
100
AcDbLine
 62
7
  6
CONTINUOUS
 10
557.8221921136
 20
188.9414588224
 11
557.9281835231
 21
188.9997636331
  0
LINE
  5
784
100
AcDbEntity
  8
0
100
AcDbLine
 62
7
  6
CONTINUOUS
 10
572.5659716397
 20
212.5234430133
 11
572.2534716397
 21
212.3729947799
  0
LINE
  5
785
100
AcDbEntity
  8
0
100
AcDbLine
 62
7
  6
CONTINUOUS
 10
572.5659716397
 20
212.1698896227
 11
572.2534716397
 21
212.0194413893
  0
LINE
  5
786
100
AcDbEntity
  8
0
100
AcDbLine
 62
7
  6
CONTINUOUS
 10
555.6035594193
 20
190.6789884856
 11
555.7313029799
 21
190.7378229649
  0
LINE
  5
787
100
AcDbEntity
  8
0
100
AcDbLine
 62
7
  6
CONTINUOUS
 10
556.051411084
 20
189.7173322034
 11
555.9236674841
 21
189.6584977134
  0
LINE
  5
788
100
AcDbEntity
  8
0
100
AcDbLine
 62
7
  6
CONTINUOUS
 10
571.107638505
 20
215.0284064257
 11
570.5868050723
 21
214.8027340756
  0
LINE
  5
789
100
AcDbEntity
  8
0
100
AcDbLine
 62
7
  6
CONTINUOUS
 10
572.357638505
 20
211.9968741503
 11
572.8784719377
 21
212.2225465202
  0
LINE
  5
78A
100
AcDbEntity
  8
0
100
AcDbLine
 62
7
  6
CONTINUOUS
 10
555.9061907523
 20
210.0365908171
 11
554.5753702309
 21
209.5126771686
  0
LINE
  5
78B
100
AcDbEntity
  8
0
100
AcDbLine
 62
7
  6
CONTINUOUS
 10
555.9061907523
 20
209.6830374265
 11
555.7905512088
 21
209.637512779
  0
LINE
  5
78C
100
AcDbEntity
  8
0
100
AcDbLine
 62
7
  6
CONTINUOUS
 10
554.8496935195
 20
209.2671185922
 11
554.8243474977
 21
209.2571404423
  0
LINE
  5
78D
100
AcDbEntity
  8
0
100
AcDbLine
 62
7
  6
CONTINUOUS
 10
554.8496935195
 20
209.4426194353
 11
555.7905512088
 21
209.8101874038
  0
LINE
  5
78E
100
AcDbEntity
  8
0
100
AcDbLine
 62
7
  6
CONTINUOUS
 10
557.4744129448
 20
208.2917734472
 11
557.338794185
 21
208.2425344694
  0
LINE
  5
78F
100
AcDbEntity
  8
0
100
AcDbLine
 62
7
  6
CONTINUOUS
 10
559.5868050723
 20
211.9968741503
 11
560.0034716397
 21
212.1473224035
  0
LINE
  5
790
100
AcDbEntity
  8
0
100
AcDbLine
 62
7
  6
CONTINUOUS
 10
576.8368050723
 20
213.9527013884
 11
577.045138207
 21
214.0279255051
  0
LINE
  5
791
100
AcDbEntity
  8
0
100
AcDbLine
 62
7
  6
CONTINUOUS
 10
581.5243050723
 20
213.9527013884
 11
581.732638803
 21
214.0279255051
  0
LINE
  5
792
100
AcDbEntity
  8
0
100
AcDbLine
 62
7
  6
CONTINUOUS
 10
557.3630915079
 20
208.0941986612
 11
557.5559826252
 21
208.154986821
  0
LINE
  5
793
100
AcDbEntity
  8
0
100
AcDbLine
 62
7
  6
CONTINUOUS
 10
578.7933108598
 20
80.3238347946
 11
578.6443982949
 21
79.9854208975
  0
LINE
  5
794
100
AcDbEntity
  8
0
100
AcDbLine
 62
7
  6
CONTINUOUS
 10
548.3302741848
 20
163.2471334817
 11
547.8119182602
 21
162.9232289517
  0
LINE
  5
795
100
AcDbEntity
  8
BEZUGSACHSEN
100
AcDbLine
 62
7
  6
CONTINUOUS
 10
548.3302741848
 20
163.2471334817
 11
547.8119182602
 21
162.9232289517
  0
LINE
  5
796
100
AcDbEntity
  8
0
100
AcDbLine
 62
7
  6
CONTINUOUS
 10
549.6426494312
 20
163.453788616
 11
549.1242935065
 21
163.1298840859
  0
LINE
  5
797
100
AcDbEntity
  8
BEZUGSACHSEN
100
AcDbLine
 62
7
  6
CONTINUOUS
 10
549.6426494312
 20
163.453788616
 11
549.1242935065
 21
163.1298840859
  0
LINE
  5
798
100
AcDbEntity
  8
0
100
AcDbLine
 62
7
  6
CONTINUOUS
 10
549.5414819074
 20
162.6544832573
 11
549.9734455075
 21
162.924403905
  0
LINE
  5
799
100
AcDbEntity
  8
BEZUGSACHSEN
100
AcDbLine
 62
7
  6
CONTINUOUS
 10
549.5414819074
 20
162.6544832573
 11
549.9734455075
 21
162.924403905
  0
LINE
  5
79A
100
AcDbEntity
  8
0
100
AcDbLine
 62
7
  6
CONTINUOUS
 10
555.6855732404
 20
190.8836073428
 11
555.5025394184
 21
190.8091224492
  0
LINE
  5
79B
100
AcDbEntity
  8
0
100
AcDbLine
 62
7
  6
CONTINUOUS
 10
555.9693972176
 20
189.5127133258
 11
556.1524310456
 21
189.5871982291
  0
LINE
  5
79C
100
AcDbEntity
  8
0
100
AcDbLine
 62
7
  6
CONTINUOUS
 10
557.4772529859
 20
190.1593213146
 11
557.3129139812
 21
190.0925773208
  0
LINE
  5
79D
100
AcDbEntity
  8
0
100
AcDbLine
 62
7
  6
CONTINUOUS
 10
557.657853191
 20
188.874714764
 11
557.8221921136
 21
188.9414588224
  0
LINE
  5
79E
100
AcDbEntity
  8
0
100
AcDbLine
 62
7
  6
CONTINUOUS
 10
562.7743050723
 20
187.4756980934
 11
559.5667360635
 21
186.2078921913
  0
LINE
  5
79F
100
AcDbEntity
  8
0
100
AcDbLine
 62
7
  6
CONTINUOUS
 10
559.1302923271
 20
186.0353858653
 11
551.2743050723
 21
182.9302719984
  0
LINE
  5
7A0
100
AcDbEntity
  8
0
100
AcDbLine
 62
7
  6
CONTINUOUS
 10
562.7743050723
 20
187.1221447028
 11
559.5667360635
 21
185.8543388007
  0
LINE
  5
7A1
100
AcDbEntity
  8
0
100
AcDbLine
 62
7
  6
CONTINUOUS
 10
559.1302923271
 20
185.6818324747
 11
551.2743050723
 21
182.5767186078
  0
LINE
  5
7A2
100
AcDbEntity
  8
0
100
AcDbLine
 62
7
  6
CONTINUOUS
 10
552.4455586749
 20
182.5767186078
 11
562.7743050723
 21
186.6592015125
  0
LINE
  5
7A3
100
AcDbEntity
  8
0
100
AcDbLine
 62
7
  6
CONTINUOUS
 10
557.3795513888
 20
189.9518040741
 11
557.6605857491
 21
190.0354264567
  0
LINE
  5
7A4
100
AcDbEntity
  8
0
100
AcDbLine
 62
7
  6
CONTINUOUS
 10
557.7555545405
 20
189.0822320464
 11
557.4745204278
 21
188.9986096219
  0
LINE
  5
7A5
100
AcDbEntity
  8
0
100
AcDbLine
 62
7
  6
CONTINUOUS
 10
575.2847270297
 20
82.6706451267
 11
575.0494211129
 21
82.2782467911
  0
LINE
  5
7A6
100
AcDbEntity
  8
0
100
AcDbLine
 62
7
  6
CONTINUOUS
 10
579.0615877183
 20
79.5100206326
 11
579.2968926319
 21
79.9024183735
  0
LINE
  5
7A7
100
AcDbEntity
  8
0
100
AcDbLine
 62
7
  6
CONTINUOUS
 10
538.5360724632
 20
157.9875639927
 11
538.004908948
 21
157.7141873538
  0
LINE
  5
7A8
100
AcDbEntity
  8
BEZUGSACHSEN
100
AcDbLine
 62
7
  6
CONTINUOUS
 10
538.5360724632
 20
157.9875639927
 11
538.004908948
 21
157.7141873538
  0
LINE
  5
7A9
100
AcDbEntity
  8
0
100
AcDbLine
 62
7
  6
CONTINUOUS
 10
540.8410048601
 20
153.9658766742
 11
541.3721671418
 21
154.2392513344
  0
LINE
  5
7AA
100
AcDbEntity
  8
BEZUGSACHSEN
100
AcDbLine
 62
7
  6
CONTINUOUS
 10
540.8410048601
 20
153.9658766742
 11
541.3721671418
 21
154.2392513344
  0
LINE
  5
7AB
100
AcDbEntity
  8
0
100
AcDbLine
 62
7
  6
CONTINUOUS
 10
538.3966747747
 20
157.3571098358
 11
538.7331580108
 21
157.5103348966
  0
LINE
  5
7AC
100
AcDbEntity
  8
BEZUGSACHSEN
100
AcDbLine
 62
7
  6
CONTINUOUS
 10
538.3966747747
 20
157.3571098358
 11
538.7331580108
 21
157.5103348966
  0
LINE
  5
7AD
100
AcDbEntity
  8
0
100
AcDbLine
 62
7
  6
CONTINUOUS
 10
540.9804025798
 20
154.5963308123
 11
540.6439193437
 21
154.4431057515
  0
LINE
  5
7AE
100
AcDbEntity
  8
BEZUGSACHSEN
100
AcDbLine
 62
7
  6
CONTINUOUS
 10
540.9804025798
 20
154.5963308123
 11
540.6439193437
 21
154.4431057515
  0
LINE
  5
7AF
100
AcDbEntity
  8
0
100
AcDbLine
 62
7
  6
CONTINUOUS
 10
549.0543866166
 20
162.4727940126
 11
549.5414819074
 21
162.6544832573
  0
LINE
  5
7B0
100
AcDbEntity
  8
BEZUGSACHSEN
100
AcDbLine
 62
7
  6
CONTINUOUS
 10
549.0543866166
 20
162.4727940126
 11
549.5414819074
 21
162.6544832573
  0
LINE
  5
7B1
100
AcDbEntity
  8
RUNDUNGEN
100
AcDbLine
 62
7
  6
CONTINUOUS
 10
602.4801568757
 20
110.1064751984
 11
606.0967403985
 21
115.2714917478
  0
LINE
  5
7B2
100
AcDbEntity
  8
BEZUGSACHSEN
100
AcDbLine
 62
7
  6
CONTINUOUS
 10
602.4801568757
 20
110.1064751984
 11
606.0967403985
 21
115.2714917478
  0
LINE
  5
7B3
100
AcDbEntity
  8
0
100
AcDbLine
 62
7
  6
CONTINUOUS
 10
582.2821737322
 20
89.0012582476
 11
581.8985770494
 21
88.5253794876
  0
LINE
  5
7B4
100
AcDbEntity
  8
0
100
AcDbLine
 62
7
  6
CONTINUOUS
 10
575.7019154306
 20
82.1952442981
 11
575.9059607135
 21
82.4454273483
  0
LINE
  5
7B5
100
AcDbEntity
  8
0
100
AcDbLine
 62
7
  6
CONTINUOUS
 10
585.7056071293
 20
85.4566060254
 11
586.089203812
 21
85.9324847854
  0
LINE
  5
7B6
100
AcDbEntity
  8
0
100
AcDbLine
 62
7
  6
CONTINUOUS
 10
584.1764430029
 20
91.65996463
 11
583.7702609069
 21
91.1915125002
  0
LINE
  5
7B7
100
AcDbEntity
  8
0
100
AcDbLine
 62
7
  6
CONTINUOUS
 10
587.5437011967
 20
88.1850286105
 11
587.9498833005
 21
88.6534807356
  0
LINE
  5
7B8
100
AcDbEntity
  8
0
100
AcDbLine
 62
7
  6
CONTINUOUS
 10
584.214901534
 20
90.9215091531
 11
584.5682075649
 21
91.3028851521
  0
LINE
  5
7B9
100
AcDbEntity
  8
0
100
AcDbLine
 62
7
  6
CONTINUOUS
 10
587.5052426111
 20
88.9234841205
 11
587.15193537
 21
88.5421061285
  0
LINE
  5
7BA
100
AcDbEntity
  8
0
100
AcDbLine
 62
7
  6
CONTINUOUS
 10
575.5751646372
 20
82.9748120593
 11
575.2847270297
 21
82.6706451267
  0
LINE
  5
7BB
100
AcDbEntity
  8
0
100
AcDbLine
 62
7
  6
CONTINUOUS
 10
578.6443982949
 20
79.9854208975
 11
578.3539606874
 21
79.6812539649
  0
LINE
  5
7BC
100
AcDbEntity
  8
0
100
AcDbLine
 62
7
  6
CONTINUOUS
 10
578.6847568024
 20
79.151869192
 11
579.0615877183
 21
79.5100206326
  0
LINE
  5
7BD
100
AcDbEntity
  8
0
100
AcDbLine
 62
7
  6
CONTINUOUS
 10
576.0071282373
 20
83.244732707
 11
575.5751646372
 21
82.9748120593
  0
LINE
  5
7BE
100
AcDbEntity
  8
0
100
AcDbLine
 62
7
  6
CONTINUOUS
 10
575.9059607135
 20
82.4454273483
 11
576.4243166382
 21
82.7693318784
  0
LINE
  5
7BF
100
AcDbEntity
  8
0
100
AcDbLine
 62
7
  6
CONTINUOUS
 10
577.2183359599
 20
82.6520824826
 11
577.7366918845
 21
82.9759870127
  0
LINE
  5
7C0
100
AcDbEntity
  8
0
100
AcDbLine
 62
7
  6
CONTINUOUS
 10
577.1961743042
 20
81.5341006388
 11
576.6778183795
 21
81.2101961087
  0
LINE
  5
7C1
100
AcDbEntity
  8
0
100
AcDbLine
 62
7
  6
CONTINUOUS
 10
577.0086144559
 20
80.6808113977
 11
577.5269703806
 21
81.0047159278
  0
LINE
  5
7C2
100
AcDbEntity
  8
0
100
AcDbLine
 62
7
  6
CONTINUOUS
 10
576.5857497568
 20
79.4351243153
 11
576.0673938321
 21
79.1112197852
  0
LINE
  5
7C3
100
AcDbEntity
  8
0
100
AcDbLine
 62
7
  6
CONTINUOUS
 10
578.3539606874
 20
79.6812539649
 11
577.6628191249
 21
79.2493810522
  0
LINE
  5
7C4
100
AcDbEntity
  8
0
100
AcDbLine
 62
7
  6
CONTINUOUS
 10
577.9936152399
 20
78.7199962793
 11
578.6847568024
 21
79.151869192
  0
LINE
  5
7C5
100
AcDbEntity
  8
0
100
AcDbLine
 62
7
  6
CONTINUOUS
 10
584.7076052846
 20
91.9333392901
 11
584.1764430029
 21
91.65996463
  0
LINE
  5
7C6
100
AcDbEntity
  8
0
100
AcDbLine
 62
7
  6
CONTINUOUS
 10
587.0125376815
 20
87.9116519716
 11
587.5437011967
 21
88.1850286105
  0
LINE
  5
7C7
100
AcDbEntity
  8
0
100
AcDbLine
 62
7
  6
CONTINUOUS
 10
584.5682075649
 20
91.3028851521
 11
584.904690801
 21
91.4561102129
  0
LINE
  5
7C8
100
AcDbEntity
  8
0
100
AcDbLine
 62
7
  6
CONTINUOUS
 10
587.15193537
 20
88.5421061285
 11
586.8154521339
 21
88.3888810677
  0
LINE
  5
7C9
100
AcDbEntity
  8
0
100
AcDbLine
 62
7
  6
CONTINUOUS
 10
573.4601913443
 20
81.7297193122
 11
572.8893668156
 21
81.5111641323
  0
LINE
  5
7CA
100
AcDbEntity
  8
0
100
AcDbLine
 62
7
  6
CONTINUOUS
 10
570.2255188334
 20
80.49123989
 11
569.6546943047
 21
80.2726847101
  0
LINE
  5
7CB
100
AcDbEntity
  8
0
100
AcDbLine
 62
7
  6
CONTINUOUS
 10
576.4942235281
 20
83.4264219517
 11
576.0071282373
 21
83.244732707
  0
LINE
  5
7CC
100
AcDbEntity
  8
0
100
AcDbLine
 62
7
  6
CONTINUOUS
 10
577.6832705837
 20
81.7157905013
 11
577.1961743042
 21
81.5341006388
  0
LINE
  5
7CD
100
AcDbEntity
  8
0
100
AcDbLine
 62
7
  6
CONTINUOUS
 10
572.9253346686
 20
76.2889023629
 11
573.6864338587
 21
76.5803091999
  0
LINE
  5
7CE
100
AcDbEntity
  8
0
100
AcDbLine
 62
7
  6
CONTINUOUS
 10
577.5065199443
 20
78.5383070424
 11
577.9936152399
 21
78.7199962793
  0
LINE
  5
7CF
100
AcDbEntity
  8
0
100
AcDbLine
 62
7
  6
CONTINUOUS
 10
577.5269703806
 20
81.0047159278
 11
577.9276733469
 21
81.1324212901
  0
LINE
  5
7D0
100
AcDbEntity
  8
0
100
AcDbLine
 62
7
  6
CONTINUOUS
 10
576.6079114896
 20
80.5531060354
 11
577.0086144559
 21
80.6808113977
  0
LINE
  5
7D1
100
AcDbEntity
  8
0
100
AcDbLine
 62
7
  6
CONTINUOUS
 10
577.6628191249
 20
79.2493810522
 11
577.2621161586
 21
79.1216756899
  0
ARC
  5
7D2
100
AcDbEntity
  8
RUNDUNGEN
100
AcDbCircle
 62
7
  6
CONTINUOUS
 10
190.3175354125
 20
89.7318574063
 40
7.53447156
100
AcDbArc
 50
2.1699795818
 51
8.0000028944
  0
ARC
  5
7D3
100
AcDbEntity
  8
BEZUGSACHSEN
100
AcDbCircle
 62
7
  6
CONTINUOUS
 10
191.5687673287
 20
111.3465709822
 40
6.4047396438
100
AcDbArc
 50
349.9260705562
 51
355.7869758778
  0
ARC
  5
7D4
100
AcDbEntity
  8
RUNDUNGEN
100
AcDbCircle
 62
7
  6
CONTINUOUS
 10
192.747548959
 20
104.9238600251
 40
3.013788624
100
AcDbArc
 50
8.0000599534
 51
44.9999709427
  0
ARC
  5
7D5
100
AcDbEntity
  8
RUNDUNGEN
100
AcDbCircle
 62
7
  6
CONTINUOUS
 10
195.9872955965
 20
110.20839488
 40
3.013788624
100
AcDbArc
 50
180.0
 51
225.0
  0
ARC
  5
7D6
100
AcDbEntity
  8
RUNDUNGEN
100
AcDbCircle
 62
7
  6
CONTINUOUS
 10
200.1123484405
 20
71.6197021576
 40
2.260341468
100
AcDbArc
 50
180.0
 51
264.0
  0
ARC
  5
7D7
100
AcDbEntity
  8
RUNDUNGEN
100
AcDbCircle
 62
7
  6
CONTINUOUS
 10
190.3175354125
 20
156.167358558
 40
7.53447156
100
AcDbArc
 50
351.9999810606
 51
0.0000154868
  0
ARC
  5
7D8
100
AcDbEntity
  8
BEZUGSACHSEN
100
AcDbCircle
 62
7
  6
CONTINUOUS
 10
190.3175354125
 20
156.167358558
 40
7.53447156
100
AcDbArc
 50
351.9999810606
 51
0.0000154868
  0
ARC
  5
7D9
100
AcDbEntity
  8
RUNDUNGEN
100
AcDbCircle
 62
7
  6
CONTINUOUS
 10
192.747548959
 20
140.9753559392
 40
3.013788624
100
AcDbArc
 50
314.9998275724
 51
352.0000226955
  0
ARC
  5
7DA
100
AcDbEntity
  8
RUNDUNGEN
100
AcDbCircle
 62
7
  6
CONTINUOUS
 10
195.9872955965
 20
135.6908210843
 40
3.013788624
100
AcDbArc
 50
134.9997090258
 51
180.0006864453
  0
ARC
  5
7DB
100
AcDbEntity
  8
BEZUGSACHSEN
100
AcDbCircle
 62
7
  6
CONTINUOUS
 10
192.747548959
 20
140.9753559392
 40
3.013788624
100
AcDbArc
 50
314.9998275724
 51
352.0000226955
  0
ARC
  5
7DC
100
AcDbEntity
  8
BEZUGSACHSEN
100
AcDbCircle
 62
7
  6
CONTINUOUS
 10
195.9872955965
 20
135.6908210843
 40
3.013788624
100
AcDbArc
 50
134.9997090258
 51
180.0006864453
  0
ARC
  5
7DD
100
AcDbEntity
  8
RUNDUNGEN
100
AcDbCircle
 62
7
  6
CONTINUOUS
 10
194.4804025634
 20
115.6344717401
 40
1.5068943298
100
AcDbArc
 50
179.9999280903
 51
217.6168022636
  0
ARC
  5
7DE
100
AcDbEntity
  8
BEZUGSACHSEN
100
AcDbCircle
 62
7
  6
CONTINUOUS
 10
194.4804025634
 20
115.6344717401
 40
1.5068943298
100
AcDbArc
 50
179.9999280903
 51
217.6168022636
  0
ARC
  5
7DF
100
AcDbEntity
  8
BEZUGSACHSEN
100
AcDbCircle
 62
7
  6
CONTINUOUS
 10
211.9597183485
 20
110.20839488
 40
3.013788624
100
AcDbArc
 50
315.0
 51
360.0
  0
ARC
  5
7E0
100
AcDbEntity
  8
BEZUGSACHSEN
100
AcDbCircle
 62
7
  6
CONTINUOUS
 10
207.8346655045
 20
71.6197021576
 40
2.260341468
100
AcDbArc
 50
276.0
 51
360.0
  0
ARC
  5
7E1
100
AcDbEntity
  8
RUNDUNGEN
100
AcDbCircle
 62
7
  6
CONTINUOUS
 10
203.9735069725
 20
122.9496079822
 40
13.491478
100
AcDbArc
 50
217.6168889063
 51
322.3831110937
  0
ARC
  5
7E2
100
AcDbEntity
  8
BEZUGSACHSEN
100
AcDbCircle
 62
7
  6
CONTINUOUS
 10
203.9735069725
 20
122.9496079822
 40
13.491478
100
AcDbArc
 50
217.6168889063
 51
322.3831110937
  0
CIRCLE
  5
7E3
100
AcDbEntity
  8
0
100
AcDbCircle
 62
7
  6
CONTINUOUS
 10
203.9735069725
 20
122.9496079822
 40
4.520682936
  0
CIRCLE
  5
7E4
100
AcDbEntity
  8
BEZUGSACHSEN
100
AcDbCircle
 62
7
  6
CONTINUOUS
 10
203.9735069725
 20
122.9496079822
 40
4.520682936
  0
ARC
  5
7E5
100
AcDbEntity
  8
BEZUGSACHSEN
100
AcDbCircle
 62
7
  6
CONTINUOUS
 10
211.9597183485
 20
135.6908210843
 40
3.013788624
100
AcDbArc
 50
359.9993135547
 51
45.0002909742
  0
ARC
  5
7E6
100
AcDbEntity
  8
KONSTRUKTIONSELEMENTE
100
AcDbCircle
 62
7
  6
CONTINUOUS
 10
153.648166246
 20
223.6242672557
 40
9.55
100
AcDbArc
 50
240.2191995537
 51
315.0
  0
ARC
  5
7E7
100
AcDbEntity
  8
KONSTRUKTIONSELEMENTE
100
AcDbCircle
 62
7
  6
CONTINUOUS
 10
153.648166246
 20
223.6242672557
 40
9.55
100
AcDbArc
 50
135.0
 51
209.7805472336
  0
ARC
  5
7E8
100
AcDbEntity
  8
KONSTRUKTIONSELEMENTE
100
AcDbCircle
 62
7
  6
CONTINUOUS
 10
162.0627369421
 20
232.0388379518
 40
9.55
100
AcDbArc
 50
58.6297070454
 51
135.0
  0
ARC
  5
7E9
100
AcDbEntity
  8
KONSTRUKTIONSELEMENTE
100
AcDbCircle
 62
7
  6
CONTINUOUS
 10
162.0627369421
 20
232.0388379518
 40
9.55
100
AcDbArc
 50
315.0
 51
31.3702929546
  0
ARC
  5
7EA
100
AcDbEntity
  8
KONSTRUKTIONSELEMENTE
100
AcDbCircle
 62
7
  6
CONTINUOUS
 10
153.648166246
 20
223.6242672557
 40
4.55
100
AcDbArc
 50
258.3583327703
 51
315.0
  0
ARC
  5
7EB
100
AcDbEntity
  8
KONSTRUKTIONSELEMENTE
100
AcDbCircle
 62
7
  6
CONTINUOUS
 10
153.648166246
 20
223.6242672557
 40
4.55
100
AcDbArc
 50
135.0
 51
191.6416672297
  0
ARC
  5
7EC
100
AcDbEntity
  8
KONSTRUKTIONSELEMENTE
100
AcDbCircle
 62
7
  6
CONTINUOUS
 10
162.0627369421
 20
232.0388379518
 40
4.55
100
AcDbArc
 50
74.6522021471
 51
135.0
  0
ARC
  5
7ED
100
AcDbEntity
  8
KONSTRUKTIONSELEMENTE
100
AcDbCircle
 62
7
  6
CONTINUOUS
 10
162.0627369421
 20
232.0388379518
 40
4.55
100
AcDbArc
 50
315.0
 51
15.3477978529
  0
ARC
  5
7EE
100
AcDbEntity
  8
KONSTRUKTIONSELEMENTE
100
AcDbCircle
 62
7
  6
CONTINUOUS
 10
163.6890825389
 20
233.6651835485
 40
2.25
100
AcDbArc
 50
135.0
 51
315.0
  0
ARC
  5
7EF
100
AcDbEntity
  8
BEZUGSACHSEN
100
AcDbCircle
 62
7
  6
CONTINUOUS
 10
203.9735069725
 20
171.4496079822
 40
28.0
100
AcDbArc
 50
118.0
 51
254.0715511197
  0
ARC
  5
7F0
100
AcDbEntity
  8
RUNDUNGEN
100
AcDbCircle
 62
7
  6
CONTINUOUS
 10
203.9735069725
 20
171.4496079822
 40
11.5
100
AcDbArc
 50
302.1758808665
 51
237.8241191245
  0
ARC
  5
7F1
100
AcDbEntity
  8
RUNDUNGEN
100
AcDbCircle
 62
7
  6
CONTINUOUS
 10
200.1123484405
 20
174.2795138067
 40
2.260341468
100
AcDbArc
 50
96.0
 51
180.0
  0
ARC
  5
7F2
100
AcDbEntity
  8
BEZUGSACHSEN
100
AcDbCircle
 62
7
  6
CONTINUOUS
 10
207.8346655045
 20
174.2795138067
 40
2.260341468
100
AcDbArc
 50
0.0
 51
84.0
  0
ARC
  5
7F3
100
AcDbEntity
  8
BEZUGSACHSEN
100
AcDbCircle
 62
7
  6
CONTINUOUS
 10
200.1123484405
 20
174.2795138067
 40
2.260341468
100
AcDbArc
 50
96.0
 51
180.0
  0
ARC
  5
7F4
100
AcDbEntity
  8
KONSTRUKTIONSELEMENTE
100
AcDbCircle
 62
7
  6
CONTINUOUS
 10
183.3112957168
 20
253.2873967265
 40
8.0
100
AcDbArc
 50
135.0
 51
208.6357041722
  0
ARC
  5
7F5
100
AcDbEntity
  8
KONSTRUKTIONSELEMENTE
100
AcDbCircle
 62
7
  6
CONTINUOUS
 10
183.3112957168
 20
253.2873967265
 40
8.0
100
AcDbArc
 50
241.3642958278
 51
315.0
  0
ARC
  5
7F6
100
AcDbEntity
  8
KONSTRUKTIONSELEMENTE
100
AcDbCircle
 62
7
  6
CONTINUOUS
 10
183.3112957168
 20
253.2873967265
 40
3.5
100
AcDbArc
 50
135.0
 51
184.8461224921
  0
ARC
  5
7F7
100
AcDbEntity
  8
KONSTRUKTIONSELEMENTE
100
AcDbCircle
 62
7
  6
CONTINUOUS
 10
183.3112957168
 20
253.2873967265
 40
3.5
100
AcDbArc
 50
265.1538775079
 51
315.0
  0
ARC
  5
7F8
100
AcDbEntity
  8
KONSTRUKTIONSELEMENTE
100
AcDbCircle
 62
7
  6
CONTINUOUS
 10
182.4274122403
 20
252.40351325
 40
2.25
100
AcDbArc
 50
315.0
 51
135.0
  0
ARC
  5
7F9
100
AcDbEntity
  8
BEZUGSACHSEN
100
AcDbCircle
 62
7
  6
CONTINUOUS
 10
217.6294785325
 20
89.7318574063
 40
7.53447156
100
AcDbArc
 50
171.9999971056
 51
180.0000645766
  0
ARC
  5
7FA
100
AcDbEntity
  8
BEZUGSACHSEN
100
AcDbCircle
 62
7
  6
CONTINUOUS
 10
217.6294785325
 20
156.167358558
 40
7.53447156
100
AcDbArc
 50
179.9999845132
 51
188.0000189394
  0
ARC
  5
7FB
100
AcDbEntity
  8
BEZUGSACHSEN
100
AcDbCircle
 62
7
  6
CONTINUOUS
 10
216.3782466162
 20
111.3465709822
 40
6.4047396438
100
AcDbArc
 50
184.219192616
 51
190.0736309795
  0
ARC
  5
7FC
100
AcDbEntity
  8
BEZUGSACHSEN
100
AcDbCircle
 62
7
  6
CONTINUOUS
 10
215.1994649859
 20
104.9238600251
 40
3.013788624
100
AcDbArc
 50
135.0000290573
 51
171.9999400466
  0
ARC
  5
7FD
100
AcDbEntity
  8
BEZUGSACHSEN
100
AcDbCircle
 62
7
  6
CONTINUOUS
 10
215.1994649859
 20
140.9753559392
 40
3.013788624
100
AcDbArc
 50
187.9999773045
 51
225.0001724276
  0
ARC
  5
7FE
100
AcDbEntity
  8
RUNDUNGEN
100
AcDbCircle
 62
7
  6
CONTINUOUS
 10
213.4666126605
 20
115.6344736313
 40
1.506894312
100
AcDbArc
 50
322.3831110937
 51
360.0
  0
ARC
  5
7FF
100
AcDbEntity
  8
BEZUGSACHSEN
100
AcDbCircle
 62
7
  6
CONTINUOUS
 10
213.4666126605
 20
115.6344736313
 40
1.506894312
100
AcDbArc
 50
322.3831110937
 51
360.0
  0
ARC
  5
800
100
AcDbEntity
  8
KONSTRUKTIONSELEMENTE
100
AcDbCircle
 62
7
  6
CONTINUOUS
 10
270.7735069725
 20
261.7496079822
 40
12.8
100
AcDbArc
 50
283.7595535794
 51
360.0
  0
ARC
  5
801
100
AcDbEntity
  8
RUNDUNGEN
100
AcDbCircle
 62
7
  6
CONTINUOUS
 10
236.8177248682
 20
178.2782557895
 40
5.0
100
AcDbArc
 50
208.0
 51
333.5
  0
ARC
  5
802
100
AcDbEntity
  8
RUNDUNGEN
100
AcDbCircle
 62
7
  6
CONTINUOUS
 10
228.6535730028
 20
193.63279227
 40
5.0
100
AcDbArc
 50
118.0
 51
208.0
  0
ARC
  5
803
100
AcDbEntity
  8
RUNDUNGEN
100
AcDbCircle
 62
7
  6
CONTINUOUS
 10
250.1798392341
 20
205.0785110537
 40
5.0
100
AcDbArc
 50
333.5
 51
118.0
  0
ARC
  5
804
100
AcDbEntity
  8
KONSTRUKTIONSELEMENTE
100
AcDbCircle
 62
7
  6
CONTINUOUS
 10
215.1664562092
 20
285.1425572189
 40
9.55
100
AcDbArc
 50
238.6297070454
 51
315.0
  0
ARC
  5
805
100
AcDbEntity
  8
KONSTRUKTIONSELEMENTE
100
AcDbCircle
 62
7
  6
CONTINUOUS
 10
215.1664562092
 20
285.1425572189
 40
9.55
100
AcDbArc
 50
135.0
 51
211.3702929546
  0
ARC
  5
806
100
AcDbEntity
  8
KONSTRUKTIONSELEMENTE
100
AcDbCircle
 62
7
  6
CONTINUOUS
 10
223.5810269054
 20
293.557127915
 40
9.55
100
AcDbArc
 50
66.5165763377
 51
135.0
  0
ARC
  5
807
100
AcDbEntity
  8
KONSTRUKTIONSELEMENTE
100
AcDbCircle
 62
7
  6
CONTINUOUS
 10
223.5810269054
 20
293.557127915
 40
9.55
100
AcDbArc
 50
315.0
 51
23.4834236623
  0
ARC
  5
808
100
AcDbEntity
  8
KONSTRUKTIONSELEMENTE
100
AcDbCircle
 62
7
  6
CONTINUOUS
 10
193.9178974346
 20
263.8939984443
 40
8.0
100
AcDbArc
 50
315.0
 51
28.6357041722
  0
ARC
  5
809
100
AcDbEntity
  8
KONSTRUKTIONSELEMENTE
100
AcDbCircle
 62
7
  6
CONTINUOUS
 10
193.9178974346
 20
263.8939984443
 40
8.0
100
AcDbArc
 50
61.3642958278
 51
135.0
  0
ARC
  5
80A
100
AcDbEntity
  8
KONSTRUKTIONSELEMENTE
100
AcDbCircle
 62
7
  6
CONTINUOUS
 10
215.1664562092
 20
285.1425572189
 40
4.55
100
AcDbArc
 50
254.6522021471
 51
315.0
  0
ARC
  5
80B
100
AcDbEntity
  8
KONSTRUKTIONSELEMENTE
100
AcDbCircle
 62
7
  6
CONTINUOUS
 10
215.1664562092
 20
285.1425572189
 40
4.55
100
AcDbArc
 50
135.0
 51
195.3477978529
  0
ARC
  5
80C
100
AcDbEntity
  8
KONSTRUKTIONSELEMENTE
100
AcDbCircle
 62
7
  6
CONTINUOUS
 10
223.5810269054
 20
293.557127915
 40
4.55
100
AcDbArc
 50
95.3186932883
 51
135.0
  0
ARC
  5
80D
100
AcDbEntity
  8
KONSTRUKTIONSELEMENTE
100
AcDbCircle
 62
7
  6
CONTINUOUS
 10
223.5810269054
 20
293.557127915
 40
4.55
100
AcDbArc
 50
315.0
 51
354.6813067117
  0
ARC
  5
80E
100
AcDbEntity
  8
KONSTRUKTIONSELEMENTE
100
AcDbCircle
 62
7
  6
CONTINUOUS
 10
193.9178974346
 20
263.8939984443
 40
3.5
100
AcDbArc
 50
315.0
 51
4.8461224921
  0
ARC
  5
80F
100
AcDbEntity
  8
KONSTRUKTIONSELEMENTE
100
AcDbCircle
 62
7
  6
CONTINUOUS
 10
193.9178974346
 20
263.8939984443
 40
3.5
100
AcDbArc
 50
85.1538775079
 51
135.0
  0
ARC
  5
810
100
AcDbEntity
  8
KONSTRUKTIONSELEMENTE
100
AcDbCircle
 62
7
  6
CONTINUOUS
 10
224.3234890256
 20
294.2995900353
 40
3.5
100
AcDbArc
 50
135.0
 51
315.0
  0
ARC
  5
811
100
AcDbEntity
  8
KONSTRUKTIONSELEMENTE
100
AcDbCircle
 62
7
  6
CONTINUOUS
 10
213.5401106125
 20
283.5162116222
 40
2.25
100
AcDbArc
 50
315.0
 51
135.0
  0
ARC
  5
812
100
AcDbEntity
  8
KONSTRUKTIONSELEMENTE
100
AcDbCircle
 62
7
  6
CONTINUOUS
 10
194.8017809111
 20
264.7778819208
 40
2.25
100
AcDbArc
 50
135.0
 51
315.0
  0
ARC
  5
813
100
AcDbEntity
  8
KONSTRUKTIONSELEMENTE
100
AcDbCircle
 62
7
  6
CONTINUOUS
 10
257.5575077414
 20
327.5336087511
 40
3.5
100
AcDbArc
 50
315.0
 51
135.0
  0
ARC
  5
814
100
AcDbEntity
  8
BEZUGSACHSEN
100
AcDbCircle
 62
7
  6
CONTINUOUS
 10
293.9735069725
 20
222.9496079822
 40
52.5
100
AcDbArc
 50
280.0
 51
308.8383360769
  0
ARC
  5
815
100
AcDbEntity
  8
0
100
AcDbCircle
 62
7
  6
CONTINUOUS
 10
293.9735069725
 20
222.9496079822
 40
52.5
100
AcDbArc
 50
231.1616639231
 51
260.0
  0
ARC
  5
816
100
AcDbEntity
  8
BEZUGSACHSEN
100
AcDbCircle
 62
7
  6
CONTINUOUS
 10
293.9735069725
 20
222.9496079822
 40
44.0
100
AcDbArc
 50
260.0
 51
280.0
  0
ARC
  5
817
100
AcDbEntity
  8
BEZUGSACHSEN
100
AcDbCircle
 62
7
  6
CONTINUOUS
 10
293.9735069725
 20
222.9496079822
 40
35.0
100
AcDbArc
 50
17.0739046171
 51
70.2022448436
  0
ARC
  5
818
100
AcDbEntity
  8
BEZUGSACHSEN
100
AcDbCircle
 62
7
  6
CONTINUOUS
 10
293.9735069725
 20
222.9496079822
 40
35.0
100
AcDbArc
 50
109.7977529658
 51
162.9260953829
  0
ARC
  5
819
100
AcDbEntity
  8
KONSTRUKTIONSELEMENTE
100
AcDbCircle
 62
7
  6
CONTINUOUS
 10
294.3735069725
 20
223.9496079822
 40
24.6
100
AcDbArc
 50
270.0
 51
360.0
  0
ARC
  5
81A
100
AcDbEntity
  8
KONSTRUKTIONSELEMENTE
100
AcDbCircle
 62
7
  6
CONTINUOUS
 10
293.5735069725
 20
223.9496079822
 40
24.6
100
AcDbArc
 50
180.0
 51
270.0
  0
ARC
  5
81B
100
AcDbEntity
  8
KONSTRUKTIONSELEMENTE
100
AcDbCircle
 62
7
  6
CONTINUOUS
 10
317.1735069725
 20
261.7496079822
 40
12.8
100
AcDbArc
 50
180.0
 51
256.2434790026
  0
ARC
  5
81C
100
AcDbEntity
  8
BEZUGSACHSEN
100
AcDbCircle
 62
7
  6
CONTINUOUS
 10
337.7671747109
 20
205.0785110537
 40
5.0
100
AcDbArc
 50
62.0
 51
206.5
  0
ARC
  5
81D
100
AcDbEntity
  8
RUNDUNGEN
100
AcDbCircle
 62
7
  6
CONTINUOUS
 10
370.3175354125
 20
89.7318574063
 40
7.53447156
100
AcDbArc
 50
2.1699795818
 51
8.0000028944
  0
ARC
  5
81E
100
AcDbEntity
  8
BEZUGSACHSEN
100
AcDbCircle
 62
7
  6
CONTINUOUS
 10
371.5687673287
 20
111.3465709822
 40
6.4047396438
100
AcDbArc
 50
349.9260705562
 51
355.7869758778
  0
ARC
  5
81F
100
AcDbEntity
  8
RUNDUNGEN
100
AcDbCircle
 62
7
  6
CONTINUOUS
 10
372.747548959
 20
104.9238600251
 40
3.013788624
100
AcDbArc
 50
8.0000599534
 51
44.9999709427
  0
ARC
  5
820
100
AcDbEntity
  8
RUNDUNGEN
100
AcDbCircle
 62
7
  6
CONTINUOUS
 10
375.9872955965
 20
110.20839488
 40
3.013788624
100
AcDbArc
 50
180.0
 51
225.0
  0
ARC
  5
821
100
AcDbEntity
  8
RUNDUNGEN
100
AcDbCircle
 62
7
  6
CONTINUOUS
 10
380.1123484405
 20
71.6197021576
 40
2.260341468
100
AcDbArc
 50
180.0
 51
264.0
  0
ARC
  5
822
100
AcDbEntity
  8
RUNDUNGEN
100
AcDbCircle
 62
7
  6
CONTINUOUS
 10
370.3175354125
 20
156.167358558
 40
7.53447156
100
AcDbArc
 50
351.9999810606
 51
0.0000154868
  0
ARC
  5
823
100
AcDbEntity
  8
BEZUGSACHSEN
100
AcDbCircle
 62
7
  6
CONTINUOUS
 10
370.3175354125
 20
156.167358558
 40
7.53447156
100
AcDbArc
 50
351.9999810606
 51
0.0000154868
  0
ARC
  5
824
100
AcDbEntity
  8
RUNDUNGEN
100
AcDbCircle
 62
7
  6
CONTINUOUS
 10
372.747548959
 20
140.9753559392
 40
3.013788624
100
AcDbArc
 50
314.9998275724
 51
352.0000226955
  0
ARC
  5
825
100
AcDbEntity
  8
RUNDUNGEN
100
AcDbCircle
 62
7
  6
CONTINUOUS
 10
375.9872955965
 20
135.6908210843
 40
3.013788624
100
AcDbArc
 50
134.9997090258
 51
180.0006864453
  0
ARC
  5
826
100
AcDbEntity
  8
BEZUGSACHSEN
100
AcDbCircle
 62
7
  6
CONTINUOUS
 10
372.747548959
 20
140.9753559392
 40
3.013788624
100
AcDbArc
 50
314.9998275724
 51
352.0000226955
  0
ARC
  5
827
100
AcDbEntity
  8
BEZUGSACHSEN
100
AcDbCircle
 62
7
  6
CONTINUOUS
 10
375.9872955965
 20
135.6908210843
 40
3.013788624
100
AcDbArc
 50
134.9997090258
 51
180.0006864453
  0
ARC
  5
828
100
AcDbEntity
  8
RUNDUNGEN
100
AcDbCircle
 62
7
  6
CONTINUOUS
 10
374.4804025634
 20
115.6344717401
 40
1.5068943298
100
AcDbArc
 50
179.9999280903
 51
217.6168022636
  0
ARC
  5
829
100
AcDbEntity
  8
BEZUGSACHSEN
100
AcDbCircle
 62
7
  6
CONTINUOUS
 10
374.4804025634
 20
115.6344717401
 40
1.5068943298
100
AcDbArc
 50
179.9999280903
 51
217.6168022636
  0
ARC
  5
82A
100
AcDbEntity
  8
BEZUGSACHSEN
100
AcDbCircle
 62
7
  6
CONTINUOUS
 10
397.6294785325
 20
89.7318574063
 40
7.53447156
100
AcDbArc
 50
171.9999971056
 51
180.0000645766
  0
ARC
  5
82B
100
AcDbEntity
  8
BEZUGSACHSEN
100
AcDbCircle
 62
7
  6
CONTINUOUS
 10
396.3782466162
 20
111.3465709822
 40
6.4047396438
100
AcDbArc
 50
184.219192616
 51
190.0736309795
  0
ARC
  5
82C
100
AcDbEntity
  8
BEZUGSACHSEN
100
AcDbCircle
 62
7
  6
CONTINUOUS
 10
395.1994649859
 20
104.9238600251
 40
3.013788624
100
AcDbArc
 50
135.0000290573
 51
171.9999400466
  0
ARC
  5
82D
100
AcDbEntity
  8
BEZUGSACHSEN
100
AcDbCircle
 62
7
  6
CONTINUOUS
 10
391.9597183485
 20
110.20839488
 40
3.013788624
100
AcDbArc
 50
315.0
 51
360.0
  0
ARC
  5
82E
100
AcDbEntity
  8
BEZUGSACHSEN
100
AcDbCircle
 62
7
  6
CONTINUOUS
 10
387.8346655045
 20
71.6197021576
 40
2.260341468
100
AcDbArc
 50
276.0
 51
360.0
  0
ARC
  5
82F
100
AcDbEntity
  8
RUNDUNGEN
100
AcDbCircle
 62
7
  6
CONTINUOUS
 10
383.9735069725
 20
122.9496079822
 40
13.491478
100
AcDbArc
 50
217.6168889063
 51
322.3831110937
  0
ARC
  5
830
100
AcDbEntity
  8
BEZUGSACHSEN
100
AcDbCircle
 62
7
  6
CONTINUOUS
 10
383.9735069725
 20
122.9496079822
 40
13.491478
100
AcDbArc
 50
217.6168889063
 51
322.3831110937
  0
CIRCLE
  5
831
100
AcDbEntity
  8
0
100
AcDbCircle
 62
7
  6
CONTINUOUS
 10
383.9735069725
 20
122.9496079822
 40
4.520682936
  0
CIRCLE
  5
832
100
AcDbEntity
  8
BEZUGSACHSEN
100
AcDbCircle
 62
7
  6
CONTINUOUS
 10
383.9735069725
 20
122.9496079822
 40
4.520682936
  0
ARC
  5
833
100
AcDbEntity
  8
BEZUGSACHSEN
100
AcDbCircle
 62
7
  6
CONTINUOUS
 10
391.9597183485
 20
135.6908210843
 40
3.013788624
100
AcDbArc
 50
359.9993135547
 51
45.0002909742
  0
ARC
  5
834
100
AcDbEntity
  8
RUNDUNGEN
100
AcDbCircle
 62
7
  6
CONTINUOUS
 10
393.4666126605
 20
115.6344736313
 40
1.506894312
100
AcDbArc
 50
322.3831110937
 51
360.0
  0
ARC
  5
835
100
AcDbEntity
  8
BEZUGSACHSEN
100
AcDbCircle
 62
7
  6
CONTINUOUS
 10
393.4666126605
 20
115.6344736313
 40
1.506894312
100
AcDbArc
 50
322.3831110937
 51
360.0
  0
ARC
  5
836
100
AcDbEntity
  8
BEZUGSACHSEN
100
AcDbCircle
 62
7
  6
CONTINUOUS
 10
397.6294785325
 20
156.167358558
 40
7.53447156
100
AcDbArc
 50
179.9999845132
 51
188.0000189394
  0
ARC
  5
837
100
AcDbEntity
  8
BEZUGSACHSEN
100
AcDbCircle
 62
7
  6
CONTINUOUS
 10
395.1994649859
 20
140.9753559392
 40
3.013788624
100
AcDbArc
 50
187.9999773045
 51
225.0001724276
  0
ARC
  5
838
100
AcDbEntity
  8
BEZUGSACHSEN
100
AcDbCircle
 62
7
  6
CONTINUOUS
 10
351.1292890767
 20
178.2782557895
 40
5.0
100
AcDbArc
 50
206.5
 51
332.0
  0
ARC
  5
839
100
AcDbEntity
  8
BEZUGSACHSEN
100
AcDbCircle
 62
7
  6
CONTINUOUS
 10
359.2934409422
 20
193.63279227
 40
5.0
100
AcDbArc
 50
332.0
 51
62.0
  0
ARC
  5
83A
100
AcDbEntity
  8
RUNDUNGEN
100
AcDbCircle
 62
7
  6
CONTINUOUS
 10
380.1123484405
 20
174.2795138067
 40
2.260341468
100
AcDbArc
 50
96.0
 51
180.0
  0
ARC
  5
83B
100
AcDbEntity
  8
BEZUGSACHSEN
100
AcDbCircle
 62
7
  6
CONTINUOUS
 10
380.1123484405
 20
174.2795138067
 40
2.260341468
100
AcDbArc
 50
96.0
 51
180.0
  0
ARC
  5
83C
100
AcDbEntity
  8
BEZUGSACHSEN
100
AcDbCircle
 62
7
  6
CONTINUOUS
 10
383.9735069725
 20
171.4496079822
 40
28.0
100
AcDbArc
 50
285.9284488803
 51
62.0
  0
ARC
  5
83D
100
AcDbEntity
  8
BEZUGSACHSEN
100
AcDbCircle
 62
7
  6
CONTINUOUS
 10
383.9735069725
 20
171.4496079822
 40
11.5
100
AcDbArc
 50
302.1758808755
 51
237.8241191335
  0
ARC
  5
83E
100
AcDbEntity
  8
BEZUGSACHSEN
100
AcDbCircle
 62
7
  6
CONTINUOUS
 10
387.8346655045
 20
174.2795138067
 40
2.260341468
100
AcDbArc
 50
0.0
 51
84.0
  0
ARC
  5
83F
100
AcDbEntity
  8
0
100
AcDbCircle
 62
7
  6
CONTINUOUS
 10
293.9735069725
 20
363.9496079822
 40
87.0
100
AcDbArc
 50
277.1429179988
 51
360.0
  0
ARC
  5
840
100
AcDbEntity
  8
0
100
AcDbCircle
 62
7
  6
CONTINUOUS
 10
293.9735069725
 20
363.9496079822
 40
87.0
100
AcDbArc
 50
227.3062236683
 51
263.1329612002
  0
ARC
  5
841
100
AcDbEntity
  8
0
100
AcDbCircle
 62
7
  6
CONTINUOUS
 10
293.9735069725
 20
363.9496079822
 40
87.0
100
AcDbArc
 50
180.0
 51
222.6937763317
  0
ARC
  5
842
100
AcDbEntity
  8
0
100
AcDbCircle
 62
7
  6
CONTINUOUS
 10
293.9735069725
 20
453.9496079822
 40
87.0
100
AcDbArc
 50
0.0
 51
180.0
  0
ARC
  5
843
100
AcDbEntity
  8
0
100
AcDbCircle
 62
7
  6
CONTINUOUS
 10
293.9735069725
 20
363.9496079822
 40
55.0
100
AcDbArc
 50
280.9010373749
 51
360.0
  0
ARC
  5
844
100
AcDbEntity
  8
0
100
AcDbCircle
 62
7
  6
CONTINUOUS
 10
293.9735069725
 20
363.9496079822
 40
55.0
100
AcDbArc
 50
228.6495317666
 51
259.0989626251
  0
ARC
  5
845
100
AcDbEntity
  8
0
100
AcDbCircle
 62
7
  6
CONTINUOUS
 10
293.9735069725
 20
363.9496079822
 40
55.0
100
AcDbArc
 50
180.0
 51
221.3504682334
  0
ARC
  5
846
100
AcDbEntity
  8
0
100
AcDbCircle
 62
7
  6
CONTINUOUS
 10
293.9735069725
 20
453.9496079822
 40
55.0
100
AcDbArc
 50
0.0
 51
180.0
  0
ARC
  5
847
100
AcDbEntity
  8
KONSTRUKTIONSELEMENTE
100
AcDbCircle
 62
7
  6
CONTINUOUS
 10
293.9735069725
 20
319.3496079822
 40
10.4
100
AcDbArc
 50
0.0
 51
180.0
  0
ARC
  5
848
100
AcDbEntity
  8
KONSTRUKTIONSELEMENTE
100
AcDbCircle
 62
7
  6
CONTINUOUS
 10
512.3743050723
 20
261.7496079822
 40
12.8
100
AcDbArc
 50
273.2941652801
 51
360.0
  0
ARC
  5
849
100
AcDbEntity
  8
0
100
AcDbCircle
 62
7
  6
CONTINUOUS
 10
553.0247935236
 20
198.183951729
 40
9.8304284257
100
AcDbArc
 50
54.9198803891
 51
56.9544565457
  0
ARC
  5
84A
100
AcDbEntity
  8
BEZUGSACHSEN
100
AcDbCircle
 62
7
  6
CONTINUOUS
 10
545.2398335123
 20
109.5476285261
 40
7.53447156
100
AcDbArc
 50
328.7648355016
 51
360.0
  0
ARC
  5
84B
100
AcDbEntity
  8
BEZUGSACHSEN
100
AcDbCircle
 62
7
  6
CONTINUOUS
 10
526.3087766323
 20
115.091311687
 40
7.53447156
100
AcDbArc
 50
180.0
 51
211.85
  0
ARC
  5
84C
100
AcDbEntity
  8
0
100
AcDbCircle
 62
7
  6
CONTINUOUS
 10
554.2970888079
 20
181.6855602838
 40
6.7192184456
100
AcDbArc
 50
38.3472574677
 51
41.9476588101
  0
ARC
  5
84D
100
AcDbEntity
  8
BEZUGSACHSEN
100
AcDbCircle
 62
7
  6
CONTINUOUS
 10
526.3695654286
 20
134.5526449822
 40
6.4047396438
100
AcDbArc
 50
311.9880596788
 51
68.3418233597
  0
ARC
  5
84E
100
AcDbEntity
  8
BEZUGSACHSEN
100
AcDbCircle
 62
7
  6
CONTINUOUS
 10
522.5199975748
 20
128.4790492686
 40
3.7456925133
100
AcDbArc
 50
144.9956305717
 51
180.0043694283
  0
CIRCLE
  5
84F
100
AcDbEntity
  8
BEZUGSACHSEN
100
AcDbCircle
 62
7
  6
CONTINUOUS
 10
527.4549462103
 20
122.9496079822
 40
1.8843194701
  0
ARC
  5
850
100
AcDbEntity
  8
RUNDUNGEN
100
AcDbCircle
 62
7
  6
CONTINUOUS
 10
543.2674107603
 20
113.5595392942
 40
1.506894312
100
AcDbArc
 50
270.0
 51
360.0
  0
ARC
  5
851
100
AcDbEntity
  8
RUNDUNGEN
100
AcDbCircle
 62
7
  6
CONTINUOUS
 10
532.1670377843
 20
113.5595392942
 40
1.506894312
100
AcDbArc
 50
180.0
 51
270.0
  0
ARC
  5
852
100
AcDbEntity
  8
BEZUGSACHSEN
100
AcDbCircle
 62
7
  6
CONTINUOUS
 10
543.2674107603
 20
113.5595392942
 40
1.506894312
100
AcDbArc
 50
270.0
 51
360.0
  0
ARC
  5
853
100
AcDbEntity
  8
BEZUGSACHSEN
100
AcDbCircle
 62
7
  6
CONTINUOUS
 10
532.1670377843
 20
113.5595392942
 40
1.506894312
100
AcDbArc
 50
180.0
 51
270.0
  0
ARC
  5
854
100
AcDbEntity
  8
RUNDUNGEN
100
AcDbCircle
 62
7
  6
CONTINUOUS
 10
528.8381267603
 20
134.9341916702
 40
1.506894312
100
AcDbArc
 50
0.0
 51
90.0
  0
ARC
  5
855
100
AcDbEntity
  8
RUNDUNGEN
100
AcDbCircle
 62
7
  6
CONTINUOUS
 10
546.3811993843
 20
134.9341916702
 40
1.506894312
100
AcDbArc
 50
90.0
 51
180.0
  0
ARC
  5
856
100
AcDbEntity
  8
RUNDUNGEN
100
AcDbCircle
 62
7
  6
CONTINUOUS
 10
531.8519153843
 20
112.5217332942
 40
1.506894312
100
AcDbArc
 50
180.0
 51
269.9992303471
  0
ARC
  5
857
100
AcDbEntity
  8
RUNDUNGEN
100
AcDbCircle
 62
7
  6
CONTINUOUS
 10
543.3674107603
 20
112.5217332942
 40
1.506894312
100
AcDbArc
 50
269.9997141681
 51
360.0
  0
ARC
  5
858
100
AcDbEntity
  8
BEZUGSACHSEN
100
AcDbCircle
 62
7
  6
CONTINUOUS
 10
562.7743050723
 20
103.9410859822
 40
35.0
100
AcDbArc
 50
270.0
 51
360.0
  0
ARC
  5
859
100
AcDbEntity
  8
BEZUGSACHSEN
100
AcDbCircle
 62
7
  6
CONTINUOUS
 10
562.7743050723
 20
141.9581299822
 40
35.0
100
AcDbArc
 50
155.693010876
 51
180.0
  0
ARC
  5
85A
100
AcDbEntity
  8
BEZUGSACHSEN
100
AcDbCircle
 62
7
  6
CONTINUOUS
 10
562.7743050723
 20
98.9136609822
 40
29.972575
100
AcDbArc
 50
211.85
 51
270.0
  0
ARC
  5
85B
100
AcDbEntity
  8
BEZUGSACHSEN
100
AcDbCircle
 62
7
  6
CONTINUOUS
 10
562.7743050723
 20
103.9410859822
 40
18.0
100
AcDbArc
 50
270.0
 51
360.0
  0
ARC
  5
85C
100
AcDbEntity
  8
BEZUGSACHSEN
100
AcDbCircle
 62
7
  6
CONTINUOUS
 10
562.7743050723
 20
141.9581299822
 40
18.0
100
AcDbArc
 50
133.9981715971
 51
180.0
  0
ARC
  5
85D
100
AcDbEntity
  8
BEZUGSACHSEN
100
AcDbCircle
 62
7
  6
CONTINUOUS
 10
562.7743050723
 20
98.9136609822
 40
12.972575
100
AcDbArc
 50
148.7648355016
 51
270.0
  0
ARC
  5
85E
100
AcDbEntity
  8
BEZUGSACHSEN
100
AcDbCircle
 62
7
  6
CONTINUOUS
 10
562.7743050723
 20
146.9855549822
 40
12.972575
100
AcDbArc
 50
328.7648355016
 51
344.1809900182
  0
ARC
  5
85F
100
AcDbEntity
  8
BEZUGSACHSEN
100
AcDbCircle
 62
7
  6
CONTINUOUS
 10
562.7743050723
 20
146.9855549822
 40
12.972575
100
AcDbArc
 50
344.5342291862
 51
15.4432195225
  0
ARC
  5
860
100
AcDbEntity
  8
BEZUGSACHSEN
100
AcDbCircle
 62
7
  6
CONTINUOUS
 10
580.3087766323
 20
136.3515874382
 40
7.53447156
100
AcDbArc
 50
148.7648355016
 51
180.0
  0
ARC
  5
861
100
AcDbEntity
  8
RUNDUNGEN
100
AcDbCircle
 62
7
  6
CONTINUOUS
 10
579.1674107603
 20
110.9650242942
 40
1.506894312
100
AcDbArc
 50
270.0
 51
360.0
  0
ARC
  5
862
100
AcDbEntity
  8
RUNDUNGEN
100
AcDbCircle
 62
7
  6
CONTINUOUS
 10
582.1811993843
 20
133.3774826702
 40
1.506894312
100
AcDbArc
 50
89.9997141681
 51
180.0
  0
ARC
  5
863
100
AcDbEntity
  8
BEZUGSACHSEN
100
AcDbCircle
 62
7
  6
CONTINUOUS
 10
579.1674107603
 20
110.9650242942
 40
1.506894312
100
AcDbArc
 50
270.0
 51
360.0
  0
ARC
  5
864
100
AcDbEntity
  8
RUNDUNGEN
100
AcDbCircle
 62
7
  6
CONTINUOUS
 10
582.2811993843
 20
132.3396766702
 40
1.506894312
100
AcDbArc
 50
90.0
 51
180.0
  0
ARC
  5
865
100
AcDbEntity
  8
BEZUGSACHSEN
100
AcDbCircle
 62
7
  6
CONTINUOUS
 10
582.1811993843
 20
133.3774826702
 40
1.506894312
100
AcDbArc
 50
89.9997141681
 51
180.0
  0
ARC
  5
866
100
AcDbEntity
  8
KONSTRUKTIONSELEMENTE
100
AcDbCircle
 62
7
  6
CONTINUOUS
 10
563.5743050723
 20
292.9496079822
 40
36.8
100
AcDbArc
 50
0.0
 51
57.159196764
  0
ARC
  5
867
100
AcDbEntity
  8
KONSTRUKTIONSELEMENTE
100
AcDbCircle
 62
7
  6
CONTINUOUS
 10
561.9743050723
 20
292.9496079822
 40
36.8
100
AcDbArc
 50
122.7717876813
 51
180.0
  0
ARC
  5
868
100
AcDbEntity
  8
0
100
AcDbCircle
 62
7
  6
CONTINUOUS
 10
562.7743050723
 20
292.9496079822
 40
16.0
100
AcDbArc
 50
300.014776809
 51
360.0
  0
ARC
  5
869
100
AcDbEntity
  8
0
100
AcDbCircle
 62
7
  6
CONTINUOUS
 10
562.7743050723
 20
292.9496079822
 40
16.0
100
AcDbArc
 50
278.2522506196
 51
282.6419490577
  0
ARC
  5
86A
100
AcDbEntity
  8
0
100
AcDbCircle
 62
7
  6
CONTINUOUS
 10
562.7743050723
 20
292.9496079822
 40
16.0
100
AcDbArc
 50
257.3580509423
 51
261.7477493804
  0
ARC
  5
86B
100
AcDbEntity
  8
0
100
AcDbCircle
 62
7
  6
CONTINUOUS
 10
562.7743050723
 20
292.9496079822
 40
16.0
100
AcDbArc
 50
180.0
 51
239.985223191
  0
ARC
  5
86C
100
AcDbEntity
  8
KONSTRUKTIONSELEMENTE
100
AcDbCircle
 62
7
  6
CONTINUOUS
 10
563.5743050723
 20
292.9496079822
 40
16.0
100
AcDbArc
 50
0.0
 51
7.5608345096
  0
ARC
  5
86D
100
AcDbEntity
  8
KONSTRUKTIONSELEMENTE
100
AcDbCircle
 62
7
  6
CONTINUOUS
 10
561.9743050723
 20
292.9496079822
 40
16.0
100
AcDbArc
 50
172.4483208364
 51
180.0
  0
ARC
  5
86E
100
AcDbEntity
  8
KONSTRUKTIONSELEMENTE
100
AcDbCircle
 62
7
  6
CONTINUOUS
 10
562.7743050723
 20
278.0925572189
 40
2.5
100
AcDbArc
 50
180.0
 51
360.0
  0
ARC
  5
86F
100
AcDbEntity
  8
KONSTRUKTIONSELEMENTE
100
AcDbCircle
 62
7
  6
CONTINUOUS
 10
562.7743050723
 20
300.607127915
 40
2.5
100
AcDbArc
 50
0.0
 51
180.0
  0
ARC
  5
870
100
AcDbEntity
  8
KONSTRUKTIONSELEMENTE
100
AcDbCircle
 62
7
  6
CONTINUOUS
 10
562.7743050723
 20
239.0888379518
 40
2.5
100
AcDbArc
 50
0.0
 51
180.0
  0
ARC
  5
871
100
AcDbEntity
  8
KONSTRUKTIONSELEMENTE
100
AcDbCircle
 62
7
  6
CONTINUOUS
 10
562.7743050723
 20
247.5373967265
 40
2.25
100
AcDbArc
 50
180.0
 51
360.0
  0
ARC
  5
872
100
AcDbEntity
  8
KONSTRUKTIONSELEMENTE
100
AcDbCircle
 62
7
  6
CONTINUOUS
 10
562.7743050723
 20
269.6439984443
 40
2.25
100
AcDbArc
 50
0.0
 51
180.0
  0
ARC
  5
873
100
AcDbEntity
  8
BEZUGSACHSEN
100
AcDbCircle
 62
7
  6
CONTINUOUS
 10
599.2398335123
 20
130.8079042773
 40
7.53447156
100
AcDbArc
 50
0.0
 51
31.85
  0
ARC
  5
874
100
AcDbEntity
  8
BEZUGSACHSEN
100
AcDbCircle
 62
7
  6
CONTINUOUS
 10
599.1790447161
 20
111.3465709822
 40
6.4047396438
100
AcDbArc
 50
131.9880596788
 51
248.3418233597
  0
ARC
  5
875
100
AcDbEntity
  8
BEZUGSACHSEN
100
AcDbCircle
 62
7
  6
CONTINUOUS
 10
603.0286125699
 20
117.4201666957
 40
3.7456925133
100
AcDbArc
 50
324.9956305717
 51
0.0043694283
  0
CIRCLE
  5
876
100
AcDbEntity
  8
BEZUGSACHSEN
100
AcDbCircle
 62
7
  6
CONTINUOUS
 10
598.0936639343
 20
122.9496079822
 40
1.8843194701
  0
ARC
  5
877
100
AcDbEntity
  8
RUNDUNGEN
100
AcDbCircle
 62
7
  6
CONTINUOUS
 10
596.7104833843
 20
110.9650242942
 40
1.506894312
100
AcDbArc
 50
180.0
 51
270.0
  0
ARC
  5
878
100
AcDbEntity
  8
RUNDUNGEN
100
AcDbCircle
 62
7
  6
CONTINUOUS
 10
593.6966947603
 20
133.3774826702
 40
1.506894312
100
AcDbArc
 50
0.0
 51
89.9992303471
  0
ARC
  5
879
100
AcDbEntity
  8
BEZUGSACHSEN
100
AcDbCircle
 62
7
  6
CONTINUOUS
 10
596.7104833843
 20
110.9650242942
 40
1.506894312
100
AcDbArc
 50
180.0
 51
270.0
  0
ARC
  5
87A
100
AcDbEntity
  8
RUNDUNGEN
100
AcDbCircle
 62
7
  6
CONTINUOUS
 10
593.3815723603
 20
132.3396766702
 40
1.506894312
100
AcDbArc
 50
0.0
 51
90.0
  0
ARC
  5
87B
100
AcDbEntity
  8
BEZUGSACHSEN
100
AcDbCircle
 62
7
  6
CONTINUOUS
 10
593.6966947603
 20
133.3774826702
 40
1.506894312
100
AcDbArc
 50
0.0
 51
89.9992303471
  0
ARC
  5
87C
100
AcDbEntity
  8
KONSTRUKTIONSELEMENTE
100
AcDbCircle
 62
7
  6
CONTINUOUS
 10
606.7743050723
 20
223.9496079822
 40
20.5
100
AcDbArc
 50
270.0
 51
90.0
  0
ARC
  5
87D
100
AcDbEntity
  8
0
100
AcDbCircle
 62
7
  6
CONTINUOUS
 10
562.7743050723
 20
524.9496079822
 40
16.0
100
AcDbArc
 50
0.0
 51
180.0
  0
SPLINE
  5
87E
100
AcDbEntity
  8
KONSTRUKTIONSELEMENTE
100
AcDbSpline
 62
7
  6
CONTINUOUS
 70
0
 71
3
 72
11
 73
7
 74
0
 42
0.0000001
 43
0.0000001
 44
0.0000000001
 40
0.0
 40
0.0
 40
0.0
 40
0.0
 40
0.2500082172
 40
0.4999943207
 40
0.7499837015
 40
1.0
 40
1.0
 40
1.0
 40
1.0
 10
274.7736613427
 20
249.0225323977
 30
0.0
 10
273.9933550792
 20
248.9489780901
 30
0.0
 10
272.4453338215
 20
248.5068956312
 30
0.0
 10
270.5311797995
 20
247.0534118637
 30
0.0
 10
269.2671441139
 20
245.0092737297
 30
0.0
 10
268.9736166127
 20
243.4266422522
 30
0.0
 10
268.9735069725
 20
242.6428515899
 30
0.0
  0
SPLINE
  5
87F
100
AcDbEntity
  8
KONSTRUKTIONSELEMENTE
100
AcDbSpline
 62
7
  6
CONTINUOUS
 70
0
 71
3
 72
11
 73
7
 74
0
 42
0.0000001
 43
0.0000001
 44
0.0000000001
 40
0.0
 40
0.0
 40
0.0
 40
0.0
 40
0.2500156363
 40
0.5000045495
 40
0.7499911738
 40
1.0
 40
1.0
 40
1.0
 40
1.0
 10
318.9735069725
 20
242.6428515458
 30
0.0
 10
318.9733872791
 20
243.4266401839
 30
0.0
 10
318.6798785845
 20
245.0092687463
 30
0.0
 10
317.4158382003
 20
247.0534057503
 30
0.0
 10
315.5016860448
 20
248.5068933699
 30
0.0
 10
313.9536608134
 20
248.9489778549
 30
0.0
 10
313.173352601
 20
249.0225323978
 30
0.0
  0
SPLINE
  5
880
100
AcDbEntity
  8
KONSTRUKTIONSELEMENTE
100
AcDbSpline
 62
7
  6
CONTINUOUS
 70
0
 71
3
 72
11
 73
7
 74
0
 42
0.0000001
 43
0.0000001
 44
0.0000000001
 40
0.0
 40
0.0
 40
0.0
 40
0.0
 40
0.2495707792
 40
0.4994754626
 40
0.7496534976
 40
1.0
 40
1.0
 40
1.0
 40
1.0
 10
274.7736613427
 20
249.0225323977
 30
0.0
 10
276.7261712817
 20
249.2068586579
 30
0.0
 10
280.5860805101
 20
250.2753356084
 30
0.0
 10
285.6518525438
 20
253.3768073435
 30
0.0
 10
290.0223829433
 20
257.3660247967
 30
0.0
 10
292.6563412333
 20
260.2880185472
 30
0.0
 10
293.9735069664
 20
261.7492827287
 30
0.0
  0
SPLINE
  5
881
100
AcDbEntity
  8
KONSTRUKTIONSELEMENTE
100
AcDbSpline
 62
7
  6
CONTINUOUS
 70
0
 71
3
 72
11
 73
7
 74
0
 42
0.0000001
 43
0.0000001
 44
0.0000000001
 40
0.0
 40
0.0
 40
0.0
 40
0.0
 40
0.2503473362
 40
0.5005263585
 40
0.7504311225
 40
1.0
 40
1.0
 40
1.0
 40
1.0
 10
293.9735069664
 20
261.7492827287
 30
0.0
 10
295.2906770896
 20
260.2880136767
 30
0.0
 10
297.9246447903
 20
257.3660090226
 30
0.0
 10
302.295189458
 20
253.3767848614
 30
0.0
 10
307.3609623062
 20
250.2753244997
 30
0.0
 10
311.2208578873
 20
249.2068609802
 30
0.0
 10
313.173352601
 20
249.0225323978
 30
0.0
  0
SPLINE
  5
882
100
AcDbEntity
  8
KONSTRUKTIONSELEMENTE
100
AcDbSpline
 62
7
  6
CONTINUOUS
 70
0
 71
3
 72
13
 73
9
 74
0
 42
0.0000001
 43
0.0000001
 44
0.0000000001
 40
0.0
 40
0.0
 40
0.0
 40
0.0
 40
0.1197290731
 40
0.2397365246
 40
0.3609040964
 40
0.4836831257
 40
0.7359942557
 40
1.0
 40
1.0
 40
1.0
 40
1.0
 10
570.7743050723
 20
279.4503476304
 30
0.0
 10
570.7743050723
 20
279.7995613325
 30
0.0
 10
570.7022014505
 20
280.5009023685
 30
0.0
 10
570.3839161158
 20
281.5111206167
 30
0.0
 10
569.8745325741
 20
282.4496988353
 30
0.0
 10
568.9627320456
 20
283.582473342
 30
0.0
 10
567.44684078
 20
284.7196167581
 30
0.0
 10
566.0239539299
 20
285.266162482
 30
0.0
 10
565.2777294083
 20
285.4561309726
 30
0.0
  0
SPLINE
  5
883
100
AcDbEntity
  8
KONSTRUKTIONSELEMENTE
100
AcDbSpline
 62
7
  6
CONTINUOUS
 70
0
 71
3
 72
13
 73
9
 74
0
 42
0.0000001
 43
0.0000001
 44
0.0000000001
 40
0.0
 40
0.0
 40
0.0
 40
0.0
 40
0.2640112835
 40
0.5163080567
 40
0.6390830379
 40
0.7602378991
 40
0.8802701562
 40
1.0
 40
1.0
 40
1.0
 40
1.0
 10
560.2699772699
 20
285.4558837831
 30
0.0
 10
559.5238374475
 20
285.2658491818
 30
0.0
 10
558.1011610062
 20
284.7192825506
 30
0.0
 10
556.585570939
 20
283.5821372096
 30
0.0
 10
555.6739806616
 20
282.449521701
 30
0.0
 10
555.1645897458
 20
281.5110444145
 30
0.0
 10
554.8464530267
 20
280.5008563113
 30
0.0
 10
554.7743050723
 20
279.7995264278
 30
0.0
 10
554.7743050723
 20
279.4503476304
 30
0.0
  0
SPLINE
  5
884
100
AcDbEntity
  8
KONSTRUKTIONSELEMENTE
100
AcDbSpline
 62
7
  6
CONTINUOUS
 70
0
 71
3
 72
10
 73
6
 74
0
 42
0.0000001
 43
0.0000001
 44
0.0000000001
 40
0.0
 40
0.0
 40
0.0
 40
0.0
 40
0.3192646009
 40
0.6086079864
 40
1.0
 40
1.0
 40
1.0
 40
1.0
 10
566.2743050723
 20
279.4503476304
 30
0.0
 10
566.2743050723
 20
279.6220874056
 30
0.0
 10
566.1322892858
 20
279.9429386205
 30
0.0
 10
565.7664832711
 20
280.3362909599
 30
0.0
 10
565.4631954384
 20
280.5493308732
 30
0.0
 10
565.2806591373
 20
280.6542454696
 30
0.0
  0
SPLINE
  5
885
100
AcDbEntity
  8
KONSTRUKTIONSELEMENTE
100
AcDbSpline
 62
7
  6
CONTINUOUS
 70
0
 71
3
 72
10
 73
6
 74
0
 42
0.0000001
 43
0.0000001
 44
0.0000000001
 40
0.0
 40
0.0
 40
0.0
 40
0.0
 40
0.3914026107
 40
0.6807340322
 40
1.0
 40
1.0
 40
1.0
 40
1.0
 10
560.2678594713
 20
280.6541929985
 30
0.0
 10
560.0853322278
 20
280.549277589
 30
0.0
 10
559.7820926471
 20
280.3362185175
 30
0.0
 10
559.4162719425
 20
279.9429201569
 30
0.0
 10
559.2743050723
 20
279.622077416
 30
0.0
 10
559.2743050723
 20
279.4503476304
 30
0.0
  0
SPLINE
  5
886
100
AcDbEntity
  8
KONSTRUKTIONSELEMENTE
100
AcDbSpline
 62
7
  6
CONTINUOUS
 70
0
 71
3
 72
10
 73
6
 74
0
 42
0.0000001
 43
0.0000001
 44
0.0000000001
 40
0.0
 40
0.0
 40
0.0
 40
0.0
 40
0.3116645009
 40
0.6060899939
 40
1.0
 40
1.0
 40
1.0
 40
1.0
 10
559.2743050723
 20
268.8437459126
 30
0.0
 10
559.2743050723
 20
268.6465910661
 30
0.0
 10
559.4618336289
 20
268.2752648715
 30
0.0
 10
559.9191528985
 20
267.8413917817
 30
0.0
 10
560.2975542108
 20
267.6139817482
 30
0.0
 10
560.5223131841
 20
267.5063936172
 30
0.0
  0
SPLINE
  5
887
100
AcDbEntity
  8
KONSTRUKTIONSELEMENTE
100
AcDbSpline
 62
7
  6
CONTINUOUS
 70
0
 71
3
 72
10
 73
6
 74
0
 42
0.0000001
 43
0.0000001
 44
0.0000000001
 40
0.0
 40
0.0
 40
0.0
 40
0.0
 40
0.3939255147
 40
0.6883533687
 40
1.0
 40
1.0
 40
1.0
 40
1.0
 10
565.0260543079
 20
267.5062816892
 30
0.0
 10
565.2508622138
 20
267.6138715898
 30
0.0
 10
565.6293247355
 20
267.8413171581
 30
0.0
 10
566.0867662531
 20
268.2751949015
 30
0.0
 10
566.2743050723
 20
268.6465746087
 30
0.0
 10
566.2743050723
 20
268.8437459126
 30
0.0
  0
SPLINE
  5
888
100
AcDbEntity
  8
KONSTRUKTIONSELEMENTE
100
AcDbSpline
 62
7
  6
CONTINUOUS
 70
0
 71
3
 72
13
 73
9
 74
0
 42
0.0000001
 43
0.0000001
 44
0.0000000001
 40
0.0
 40
0.0
 40
0.0
 40
0.0
 40
0.1194785188
 40
0.2392741704
 40
0.3602835725
 40
0.4830059608
 40
0.7355440041
 40
1.0
 40
1.0
 40
1.0
 40
1.0
 10
554.7743050723
 20
268.8437459126
 30
0.0
 10
554.7743050723
 20
268.4851063014
 30
0.0
 10
554.8504005555
 20
267.7645996723
 30
0.0
 10
555.1859767831
 20
266.7291039166
 30
0.0
 10
555.7219612484
 20
265.7707842375
 30
0.0
 10
556.6796568141
 20
264.6204044766
 30
0.0
 10
558.2659754568
 20
263.4810619573
 30
0.0
 10
559.7460288993
 20
262.953535937
 30
0.0
 10
560.5201927518
 20
262.7779797919
 30
0.0
  0
SPLINE
  5
889
100
AcDbEntity
  8
KONSTRUKTIONSELEMENTE
100
AcDbSpline
 62
7
  6
CONTINUOUS
 70
0
 71
3
 72
13
 73
9
 74
0
 42
0.0000001
 43
0.0000001
 44
0.0000000001
 40
0.0
 40
0.0
 40
0.0
 40
0.0
 40
0.2644681654
 40
0.5169944072
 40
0.6397129492
 40
0.760706397
 40
0.8805228501
 40
1.0
 40
1.0
 40
1.0
 40
1.0
 10
565.0264758511
 20
262.7775485796
 30
0.0
 10
565.8008731777
 20
262.9530286838
 30
0.0
 10
567.2813640252
 20
263.4803494125
 30
0.0
 10
568.8682144323
 20
264.6197018759
 30
0.0
 10
569.8261863917
 20
265.7701444248
 30
0.0
 10
570.3625031494
 20
266.7285662113
 30
0.0
 10
570.698117486
 20
267.7643196238
 30
0.0
 10
570.7743050723
 20
268.4850316423
 30
0.0
 10
570.7743050723
 20
268.8437459126
 30
0.0
  0
SPLINE
  5
88A
100
AcDbEntity
  8
KONSTRUKTIONSELEMENTE
100
AcDbSpline
 62
7
  6
CONTINUOUS
 70
0
 71
3
 72
13
 73
9
 74
0
 42
0.0000001
 43
0.0000001
 44
0.0000000001
 40
0.0
 40
0.0
 40
0.0
 40
0.0
 40
0.1194785188
 40
0.2392741704
 40
0.3602835725
 40
0.4830059608
 40
0.7355440041
 40
1.0
 40
1.0
 40
1.0
 40
1.0
 10
570.7743050723
 20
248.3376492582
 30
0.0
 10
570.7743050723
 20
248.6962888694
 30
0.0
 10
570.6982095892
 20
249.4167954984
 30
0.0
 10
570.3626333616
 20
250.4522912541
 30
0.0
 10
569.8266488963
 20
251.4106109333
 30
0.0
 10
568.8689533306
 20
252.5609906941
 30
0.0
 10
567.2826346879
 20
253.7003332134
 30
0.0
 10
565.8025812454
 20
254.2278592338
 30
0.0
 10
565.0284173929
 20
254.4034153788
 30
0.0
  0
SPLINE
  5
88B
100
AcDbEntity
  8
KONSTRUKTIONSELEMENTE
100
AcDbSpline
 62
7
  6
CONTINUOUS
 70
0
 71
3
 72
13
 73
9
 74
0
 42
0.0000001
 43
0.0000001
 44
0.0000000001
 40
0.0
 40
0.0
 40
0.0
 40
0.0
 40
0.2644681654
 40
0.5169944072
 40
0.6397129492
 40
0.760706397
 40
0.8805228501
 40
1.0
 40
1.0
 40
1.0
 40
1.0
 10
560.5221342936
 20
254.4038465911
 30
0.0
 10
559.747736967
 20
254.2283664869
 30
0.0
 10
558.2672461195
 20
253.7010457582
 30
0.0
 10
556.6803957124
 20
252.5616932948
 30
0.0
 10
555.722423753
 20
251.411250746
 30
0.0
 10
555.1861069953
 20
250.4528289594
 30
0.0
 10
554.8504926587
 20
249.417075547
 30
0.0
 10
554.7743050723
 20
248.6963635285
 30
0.0
 10
554.7743050723
 20
248.3376492582
 30
0.0
  0
SPLINE
  5
88C
100
AcDbEntity
  8
KONSTRUKTIONSELEMENTE
100
AcDbSpline
 62
7
  6
CONTINUOUS
 70
0
 71
3
 72
10
 73
6
 74
0
 42
0.0000001
 43
0.0000001
 44
0.0000000001
 40
0.0
 40
0.0
 40
0.0
 40
0.0
 40
0.3116645009
 40
0.6060899939
 40
1.0
 40
1.0
 40
1.0
 40
1.0
 10
566.2743050723
 20
248.3376492582
 30
0.0
 10
566.2743050723
 20
248.5348041046
 30
0.0
 10
566.0867765158
 20
248.9061302993
 30
0.0
 10
565.6294572462
 20
249.3400033891
 30
0.0
 10
565.2510559339
 20
249.5674134225
 30
0.0
 10
565.0262969606
 20
249.6750015535
 30
0.0
  0
SPLINE
  5
88D
100
AcDbEntity
  8
KONSTRUKTIONSELEMENTE
100
AcDbSpline
 62
7
  6
CONTINUOUS
 70
0
 71
3
 72
10
 73
6
 74
0
 42
0.0000001
 43
0.0000001
 44
0.0000000001
 40
0.0
 40
0.0
 40
0.0
 40
0.0
 40
0.3939255147
 40
0.6883533687
 40
1.0
 40
1.0
 40
1.0
 40
1.0
 10
560.5225558368
 20
249.6751134815
 30
0.0
 10
560.2977479309
 20
249.5675235809
 30
0.0
 10
559.9192854092
 20
249.3400780126
 30
0.0
 10
559.4618438916
 20
248.9062002692
 30
0.0
 10
559.2743050723
 20
248.534820562
 30
0.0
 10
559.2743050723
 20
248.3376492582
 30
0.0
  0
SPLINE
  5
88E
100
AcDbEntity
  8
KONSTRUKTIONSELEMENTE
100
AcDbSpline
 62
7
  6
CONTINUOUS
 70
0
 71
3
 72
10
 73
6
 74
0
 42
0.0000001
 43
0.0000001
 44
0.0000000001
 40
0.0
 40
0.0
 40
0.0
 40
0.0
 40
0.3192646009
 40
0.6086079864
 40
1.0
 40
1.0
 40
1.0
 40
1.0
 10
559.2743050723
 20
237.7310475404
 30
0.0
 10
559.2743050723
 20
237.5593077652
 30
0.0
 10
559.4163208589
 20
237.2384565502
 30
0.0
 10
559.7821268736
 20
236.8451042108
 30
0.0
 10
560.0854147063
 20
236.6320642975
 30
0.0
 10
560.2679510073
 20
236.5271497011
 30
0.0
  0
SPLINE
  5
88F
100
AcDbEntity
  8
KONSTRUKTIONSELEMENTE
100
AcDbSpline
 62
7
  6
CONTINUOUS
 70
0
 71
3
 72
10
 73
6
 74
0
 42
0.0000001
 43
0.0000001
 44
0.0000000001
 40
0.0
 40
0.0
 40
0.0
 40
0.0
 40
0.3914026107
 40
0.6807340322
 40
1.0
 40
1.0
 40
1.0
 40
1.0
 10
565.2807506734
 20
236.5272021722
 30
0.0
 10
565.4632779169
 20
236.6321175818
 30
0.0
 10
565.7665174976
 20
236.8451766532
 30
0.0
 10
566.1323382022
 20
237.2384750138
 30
0.0
 10
566.2743050723
 20
237.5593177547
 30
0.0
 10
566.2743050723
 20
237.7310475404
 30
0.0
  0
SPLINE
  5
890
100
AcDbEntity
  8
KONSTRUKTIONSELEMENTE
100
AcDbSpline
 62
7
  6
CONTINUOUS
 70
0
 71
3
 72
13
 73
9
 74
0
 42
0.0000001
 43
0.0000001
 44
0.0000000001
 40
0.0
 40
0.0
 40
0.0
 40
0.0
 40
0.1197290731
 40
0.2397365246
 40
0.3609040964
 40
0.4836831257
 40
0.7359942557
 40
1.0
 40
1.0
 40
1.0
 40
1.0
 10
554.7743050723
 20
237.7310475404
 30
0.0
 10
554.7743050723
 20
237.3818338383
 30
0.0
 10
554.8464086942
 20
236.6804928022
 30
0.0
 10
555.1646940289
 20
235.6702745541
 30
0.0
 10
555.6740775706
 20
234.7316963354
 30
0.0
 10
556.5858780991
 20
233.5989218288
 30
0.0
 10
558.1017693647
 20
232.4617784127
 30
0.0
 10
559.5246562148
 20
231.9152326887
 30
0.0
 10
560.2708807364
 20
231.7252641981
 30
0.0
  0
SPLINE
  5
891
100
AcDbEntity
  8
KONSTRUKTIONSELEMENTE
100
AcDbSpline
 62
7
  6
CONTINUOUS
 70
0
 71
3
 72
13
 73
9
 74
0
 42
0.0000001
 43
0.0000001
 44
0.0000000001
 40
0.0
 40
0.0
 40
0.0
 40
0.0
 40
0.2640112835
 40
0.5163080567
 40
0.6390830379
 40
0.7602378991
 40
0.8802701562
 40
1.0
 40
1.0
 40
1.0
 40
1.0
 10
565.2786328748
 20
231.7255113877
 30
0.0
 10
566.0247726972
 20
231.915545989
 30
0.0
 10
567.4474491385
 20
232.4621126202
 30
0.0
 10
568.9630392057
 20
233.5992579611
 30
0.0
 10
569.8746294831
 20
234.7318734697
 30
0.0
 10
570.3840203989
 20
235.6703507563
 30
0.0
 10
570.702157118
 20
236.6805388594
 30
0.0
 10
570.7743050723
 20
237.3818687429
 30
0.0
 10
570.7743050723
 20
237.7310475404
 30
0.0
  0
SPLINE
  5
892
100
AcDbEntity
  8
KONSTRUKTIONSELEMENTE
100
AcDbSpline
 62
7
  6
CONTINUOUS
 70
0
 71
3
 72
14
 73
10
 74
0
 42
0.0000001
 43
0.0000001
 44
0.0000000001
 40
0.0
 40
0.0
 40
0.0
 40
0.0
 40
0.0917564881
 40
0.1897281682
 40
0.2981683621
 40
0.4187955144
 40
0.551304225
 40
0.6940972983
 40
1.0
 40
1.0
 40
1.0
 40
1.0
 10
582.7743050723
 20
310.9165993932
 30
0.0
 10
582.7743050723
 20
310.1920817707
 30
0.0
 10
582.5721464656
 20
308.6873974253
 30
0.0
 10
581.6673864404
 20
306.4896615018
 30
0.0
 10
580.15348759
 20
304.3725663718
 30
0.0
 10
578.0498563263
 20
302.4179059082
 30
0.0
 10
575.4112204393
 20
300.7138570457
 30
0.0
 10
571.2062011694
 20
298.8437469443
 30
0.0
 10
567.6832479558
 20
298.1094268237
 30
0.0
 10
565.2764544681
 20
297.9052828101
 30
0.0
  0
SPLINE
  5
893
100
AcDbEntity
  8
KONSTRUKTIONSELEMENTE
100
AcDbSpline
 62
7
  6
CONTINUOUS
 70
0
 71
3
 72
14
 73
10
 74
0
 42
0.0000001
 43
0.0000001
 44
0.0000000001
 40
0.0
 40
0.0
 40
0.0
 40
0.0
 40
0.3059013242
 40
0.4486952755
 40
0.5812052129
 40
0.7018334124
 40
0.8102733427
 40
0.9082452977
 40
1.0
 40
1.0
 40
1.0
 40
1.0
 10
560.2721790686
 20
297.9052877273
 30
0.0
 10
557.8653931306
 20
298.1094218668
 30
0.0
 10
554.3424394926
 20
298.8437405168
 30
0.0
 10
550.1374060526
 20
300.7138428945
 30
0.0
 10
547.4987418556
 20
302.4179027429
 30
0.0
 10
545.3951075634
 20
304.3725867029
 30
0.0
 10
543.8811961979
 20
306.489687627
 30
0.0
 10
542.976464029
 20
308.6874230963
 30
0.0
 10
542.7743050723
 20
310.192095116
 30
0.0
 10
542.7743050723
 20
310.9165993932
 30
0.0
  0
SPLINE
  5
894
100
AcDbEntity
  8
KONSTRUKTIONSELEMENTE
100
AcDbSpline
 62
7
  6
CONTINUOUS
 70
0
 71
3
 72
14
 73
10
 74
0
 42
0.0000001
 43
0.0000001
 44
0.0000000001
 40
0.0
 40
0.0
 40
0.0
 40
0.0
 40
0.1117689353
 40
0.2253264709
 40
0.342329432
 40
0.4640987427
 40
0.591309557
 40
0.7238376038
 40
1.0
 40
1.0
 40
1.0
 40
1.0
 10
589.7743050723
 20
310.9165993932
 30
0.0
 10
589.7743050723
 20
309.6253069699
 30
0.0
 10
589.4377958282
 20
307.0105890771
 30
0.0
 10
587.9680757161
 20
303.2997952254
 30
0.0
 10
585.6309131814
 20
299.9275121333
 30
0.0
 10
582.5484643454
 20
296.9959208556
 30
0.0
 10
578.8420249946
 20
294.5696288845
 30
0.0
 10
573.1684845211
 20
292.044851169
 30
0.0
 10
568.4589656244
 20
291.1026658884
 30
0.0
 10
565.2758324018
 20
290.8849774231
 30
0.0
  0
SPLINE
  5
895
100
AcDbEntity
  8
KONSTRUKTIONSELEMENTE
100
AcDbSpline
 62
7
  6
CONTINUOUS
 70
0
 71
3
 72
14
 73
10
 74
0
 42
0.0000001
 43
0.0000001
 44
0.0000000001
 40
0.0
 40
0.0
 40
0.0
 40
0.0
 40
0.2761649589
 40
0.4086929702
 40
0.5359028664
 40
0.657670879
 40
0.7746727641
 40
0.888229544
 40
1.0
 40
1.0
 40
1.0
 40
1.0
 10
560.2737545413
 20
290.8849139597
 30
0.0
 10
557.0904985057
 20
291.1025544507
 30
0.0
 10
552.380792745
 20
292.0446374349
 30
0.0
 10
546.7070236852
 20
294.569383444
 30
0.0
 10
543.0004606824
 20
296.9956653173
 30
0.0
 10
539.9179010897
 20
299.9272594833
 30
0.0
 10
537.5806502889
 20
303.2995772582
 30
0.0
 10
536.1108336514
 20
307.0104506027
 30
0.0
 10
535.7743050723
 20
309.6252531193
 30
0.0
 10
535.7743050723
 20
310.9165993932
 30
0.0
  0
SPLINE
  5
896
100
AcDbEntity
  8
KONSTRUKTIONSELEMENTE
100
AcDbSpline
 62
7
  6
CONTINUOUS
 70
0
 71
3
 72
11
 73
7
 74
0
 42
0.0000001
 43
0.0000001
 44
0.0000000001
 40
0.0
 40
0.0
 40
0.0
 40
0.0
 40
0.2223263378
 40
0.4577368185
 40
0.7154173906
 40
1.0
 40
1.0
 40
1.0
 40
1.0
 10
542.7743050723
 20
310.9165993932
 30
0.0
 10
542.7743050723
 20
311.5832012381
 30
0.0
 10
542.9441926525
 20
312.960801787
 30
0.0
 10
543.7061699411
 20
314.9849343228
 30
0.0
 10
544.9858879351
 20
316.9530960776
 30
0.0
 10
546.1228371734
 20
318.1295784335
 30
0.0
 10
546.7631564801
 20
318.6935397987
 30
0.0
  0
SPLINE
  5
897
100
AcDbEntity
  8
KONSTRUKTIONSELEMENTE
100
AcDbSpline
 62
7
  6
CONTINUOUS
 70
0
 71
3
 72
11
 73
7
 74
0
 42
0.0000001
 43
0.0000001
 44
0.0000000001
 40
0.0
 40
0.0
 40
0.0
 40
0.0
 40
0.2845774046
 40
0.5422536755
 40
0.7776709412
 40
1.0
 40
1.0
 40
1.0
 40
1.0
 10
578.7870588182
 20
318.6921207101
 30
0.0
 10
579.4271337378
 20
318.1282117776
 30
0.0
 10
580.5636343606
 20
316.9518821305
 30
0.0
 10
581.8428606264
 20
314.9840777429
 30
0.0
 10
582.6044846828
 20
312.9603488149
 30
0.0
 10
582.7743050723
 20
311.5830512403
 30
0.0
 10
582.7743050723
 20
310.9165993932
 30
0.0
  0
SPLINE
  5
898
100
AcDbEntity
  8
KONSTRUKTIONSELEMENTE
100
AcDbSpline
 62
7
  6
CONTINUOUS
 70
0
 71
3
 72
13
 73
9
 74
0
 42
0.0000001
 43
0.0000001
 44
0.0000000001
 40
0.0
 40
0.0
 40
0.0
 40
0.0
 40
0.1180851562
 40
0.2368777819
 40
0.3571586506
 40
0.4795872037
 40
0.7327309347
 40
1.0
 40
1.0
 40
1.0
 40
1.0
 10
535.7743050723
 20
310.9165993932
 30
0.0
 10
535.7743050723
 20
311.726248022
 30
0.0
 10
535.9044919348
 20
313.3533326804
 30
0.0
 10
536.4840815672
 20
315.7422650481
 30
0.0
 10
537.4312951124
 20
318.0430112248
 30
0.0
 10
539.171349215
 20
320.9757440898
 30
0.0
 10
542.1815744042
 20
324.2647003923
 30
0.0
 10
545.1604990089
 20
326.2844392372
 30
0.0
 10
546.7701629121
 20
327.1602993687
 30
0.0
  0
SPLINE
  5
899
100
AcDbEntity
  8
KONSTRUKTIONSELEMENTE
100
AcDbSpline
 62
7
  6
CONTINUOUS
 70
0
 71
3
 72
13
 73
9
 74
0
 42
0.0000001
 43
0.0000001
 44
0.0000000001
 40
0.0
 40
0.0
 40
0.0
 40
0.0
 40
0.2672699911
 40
0.5204126176
 40
0.6428402837
 40
0.7631198857
 40
0.8819141546
 40
1.0
 40
1.0
 40
1.0
 40
1.0
 10
578.7766659899
 20
327.1612688194
 30
0.0
 10
580.386567725
 20
326.2854557597
 30
0.0
 10
583.3659104968
 20
324.2656970401
 30
0.0
 10
586.3766338144
 20
320.9766088977
 30
0.0
 10
588.1169813501
 20
318.0436856759
 30
0.0
 10
589.0643945485
 20
315.7427590956
 30
0.0
 10
589.6440831002
 20
313.3535920366
 30
0.0
 10
589.7743050723
 20
311.7263323062
 30
0.0
 10
589.7743050723
 20
310.9165993932
 30
0.0
  0
SPLINE
  5
89A
100
AcDbEntity
  8
RUNDUNGEN
100
AcDbSpline
 62
7
  6
CONTINUOUS
 70
0
 71
3
 72
11
 73
7
 74
0
 42
0.0000001
 43
0.0000001
 44
0.0000000001
 40
0.0
 40
0.0
 40
0.0
 40
0.0
 40
0.25001079
 40
0.5000108943
 40
0.7500048976
 40
1.0
 40
1.0
 40
1.0
 40
1.0
 10
528.7333534606
 20
140.5052262677
 30
0.0
 10
528.5937982019
 20
140.5606440437
 30
0.0
 10
528.3295415732
 20
140.7139683143
 30
0.0
 10
528.0189569419
 20
141.0490809693
 30
0.0
 10
527.8200013196
 20
141.4604485613
 30
0.0
 10
527.7743051772
 20
141.762656179
 30
0.0
 10
527.7743050723
 20
141.9128026764
 30
0.0
  0
SPLINE
  5
89B
100
AcDbEntity
  8
RUNDUNGEN
100
AcDbSpline
 62
7
  6
CONTINUOUS
 70
0
 71
3
 72
11
 73
7
 74
0
 42
0.0000001
 43
0.0000001
 44
0.0000000001
 40
0.0
 40
0.0
 40
0.0
 40
0.0
 40
0.2500139668
 40
0.5000035064
 40
0.749990811
 40
1.0
 40
1.0
 40
1.0
 40
1.0
 10
601.2316082289
 20
109.4581303927
 30
0.0
 10
601.3531806763
 20
109.4581304078
 30
0.0
 10
601.5973066767
 20
109.4873855418
 30
0.0
 10
601.9419165235
 20
109.616683683
 30
0.0
 10
602.2461349852
 20
109.8238969191
 30
0.0
 10
602.4104270427
 20
110.0068908349
 30
0.0
 10
602.4801568757
 20
110.1064751984
 30
0.0
  0
SPLINE
  5
89C
100
AcDbEntity
  8
RUNDUNGEN
100
AcDbSpline
 62
7
  6
CONTINUOUS
 70
0
 71
3
 72
11
 73
7
 74
0
 42
0.0000001
 43
0.0000001
 44
0.0000000001
 40
0.0
 40
0.0
 40
0.0
 40
0.0
 40
0.2500346306
 40
0.5000539342
 40
0.7500425608
 40
1.0
 40
1.0
 40
1.0
 40
1.0
 10
574.2999830115
 20
109.458132132
 30
0.0
 10
574.1026141797
 20
109.4581319793
 30
0.0
 10
573.7036758781
 20
109.5358095457
 30
0.0
 10
573.1968801022
 20
109.8694320888
 30
0.0
 10
572.8548972459
 20
110.3709860907
 30
0.0
 10
572.7743051363
 20
110.770034961
 30
0.0
 10
572.7743050723
 20
110.9673428605
 30
0.0
  0
LINE
  5
89D
100
AcDbEntity
  8
RUNDUNGEN
100
AcDbLine
 62
7
  6
CONTINUOUS
 10
544.3249772937
 20
134.3654739822
 11
544.3530147064
 21
134.3654913452
  0
SPLINE
  5
89E
100
AcDbEntity
  8
0
100
AcDbSpline
 62
7
  6
CONTINUOUS
 70
0
 71
3
 72
12
 73
8
 74
0
 42
0.0000001
 43
0.0000001
 44
0.0000000001
 40
0.0
 40
0.0
 40
0.0
 40
0.0
 40
0.2238071189
 40
0.4682304664
 40
0.5972875971
 40
0.7296734351
 40
1.0
 40
1.0
 40
1.0
 40
1.0
 10
559.1302923271
 20
186.0353858653
 30
0.0
 10
558.7246668965
 20
186.5485052467
 30
0.0
 10
557.7032670729
 20
187.4899550556
 30
0.0
 10
556.1542487662
 20
188.3262108146
 30
0.0
 10
554.7578186618
 20
188.8183362119
 30
0.0
 10
553.2455323946
 20
189.1848688154
 30
0.0
 10
552.0643415464
 20
189.2942330291
 30
0.0
 10
551.2743050723
 20
189.2942330291
 30
0.0
  0
SPLINE
  5
89F
100
AcDbEntity
  8
0
100
AcDbSpline
 62
7
  6
CONTINUOUS
 70
0
 71
3
 72
9
 73
5
 74
0
 42
0.0000001
 43
0.0000001
 44
0.0000000001
 40
0.0
 40
0.0
 40
0.0
 40
0.0
 40
0.2357898421
 40
1.0
 40
1.0
 40
1.0
 40
1.0
 10
558.3221578553
 20
206.3314100959
 30
0.0
 10
557.845829282
 20
206.6660244842
 30
0.0
 10
555.6929615526
 20
207.8936992261
 30
0.0
 10
553.1609714553
 20
208.3861161211
 30
0.0
 10
551.2743050723
 20
208.3861161211
 30
0.0
  0
SPLINE
  5
8A0
100
AcDbEntity
  8
RUNDUNGEN
100
AcDbSpline
 62
7
  6
CONTINUOUS
 70
0
 71
3
 72
10
 73
6
 74
0
 42
0.0000001
 43
0.0000001
 44
0.0000000001
 40
0.0
 40
0.0
 40
0.0
 40
0.0
 40
0.5180750537
 40
0.7617172794
 40
1.0
 40
1.0
 40
1.0
 40
1.0
 10
529.6785448509
 20
170.7619459262
 30
0.0
 10
529.4026766919
 20
170.4833595996
 30
0.0
 10
529.0548523372
 20
170.0024367932
 30
0.0
 10
528.8144253836
 20
169.2803504712
 30
0.0
 10
528.7743050723
 20
168.9143720089
 30
0.0
 10
528.7743050723
 20
168.7340469879
 30
0.0
  0
SPLINE
  5
8A1
100
AcDbEntity
  8
RUNDUNGEN
100
AcDbSpline
 62
7
  6
CONTINUOUS
 70
0
 71
3
 72
11
 73
7
 74
0
 42
0.0000001
 43
0.0000001
 44
0.0000000001
 40
0.0
 40
0.0
 40
0.0
 40
0.0
 40
0.2793755914
 40
0.5367190118
 40
0.774320888
 40
1.0
 40
1.0
 40
1.0
 40
1.0
 10
519.119992253
 20
225.4613917311
 30
0.0
 10
519.02547022
 20
225.4145918405
 30
0.0
 10
518.8518344376
 20
225.3066322539
 30
0.0
 10
518.6440563428
 20
225.0965727373
 30
0.0
 10
518.5113969443
 20
224.8544533675
 30
0.0
 10
518.4804184962
 20
224.6783225165
 30
0.0
 10
518.4803677672
 20
224.5931212799
 30
0.0
  0
SPLINE
  5
8A2
100
AcDbEntity
  8
RUNDUNGEN
100
AcDbSpline
 62
7
  6
CONTINUOUS
 70
0
 71
3
 72
10
 73
6
 74
0
 42
0.0000001
 43
0.0000001
 44
0.0000000001
 40
0.0
 40
0.0
 40
0.0
 40
0.0
 40
0.4809192537
 40
0.7459271807
 40
1.0
 40
1.0
 40
1.0
 40
1.0
 10
528.4176229637
 20
228.7700215961
 30
0.0
 10
528.1685452833
 20
229.0215534738
 30
0.0
 10
527.6069660839
 20
229.2374716078
 30
0.0
 10
526.8700681735
 20
229.22449417
 30
0.0
 10
526.4961269123
 20
229.1134745768
 30
0.0
 10
526.3285302427
 20
229.0304938626
 30
0.0
  0
SPLINE
  5
8A3
100
AcDbEntity
  8
0
100
AcDbSpline
 62
7
  6
CONTINUOUS
 70
0
 71
3
 72
9
 73
5
 74
0
 42
0.0000001
 43
0.0000001
 44
0.0000000001
 40
0.0
 40
0.0
 40
0.0
 40
0.0
 40
0.2419366003
 40
1.0
 40
1.0
 40
1.0
 40
1.0
 10
554.1706585271
 20
225.2002533084
 30
0.0
 10
554.6311607203
 20
225.4282578443
 30
0.0
 10
556.5789012915
 20
226.2799040692
 30
0.0
 10
558.6748725779
 20
226.7787999267
 30
0.0
 10
560.2735581195
 20
226.9699566326
 30
0.0
  0
SPLINE
  5
8A4
100
AcDbEntity
  8
0
100
AcDbSpline
 62
7
  6
CONTINUOUS
 70
0
 71
3
 72
9
 73
5
 74
0
 42
0.0000001
 43
0.0000001
 44
0.0000000001
 40
0.0
 40
0.0
 40
0.0
 40
0.0
 40
0.2576167678
 40
1.0
 40
1.0
 40
1.0
 40
1.0
 10
565.2750520252
 20
226.9699566326
 30
0.0
 10
565.8182818425
 20
226.905002006
 30
0.0
 10
567.9154833485
 20
226.5701975592
 30
0.0
 10
569.9650554802
 20
225.8998085612
 30
0.0
 10
571.3779516176
 20
225.2002533084
 30
0.0
  0
SPLINE
  5
8A5
100
AcDbEntity
  8
RUNDUNGEN
100
AcDbSpline
 62
7
  6
CONTINUOUS
 70
0
 71
3
 72
13
 73
9
 74
0
 42
0.0000001
 43
0.0000001
 44
0.0000000001
 40
0.0
 40
0.0
 40
0.0
 40
0.0
 40
0.2520973512
 40
0.3837531518
 40
0.5156914539
 40
0.6454036045
 40
0.7706002144
 40
1.0
 40
1.0
 40
1.0
 40
1.0
 10
602.7424336924
 20
227.2865007756
 30
0.0
 10
601.1782156916
 20
228.0609787362
 30
0.0
 10
598.5812937789
 20
228.8370870887
 30
0.0
 10
595.0175696578
 20
229.1372275868
 30
0.0
 10
592.2889473316
 20
228.9915889712
 30
0.0
 10
589.6500898479
 20
228.47409828
 30
0.0
 10
586.4848602313
 20
227.3539311057
 30
0.0
 10
584.3618120151
 20
225.9840149832
 30
0.0
 10
583.2442349634
 20
224.8554262883
 30
0.0
  0
SPLINE
  5
8A6
100
AcDbEntity
  8
RUNDUNGEN
100
AcDbSpline
 62
7
  6
CONTINUOUS
 70
0
 71
3
 72
11
 73
7
 74
0
 42
0.0000001
 43
0.0000001
 44
0.0000000001
 40
0.0
 40
0.0
 40
0.0
 40
0.0
 40
0.2256934588
 40
0.4632957354
 40
0.7206235605
 40
1.0
 40
1.0
 40
1.0
 40
1.0
 10
595.2525666525
 20
212.6610446486
 30
0.0
 10
595.2525129565
 20
212.7462497938
 30
0.0
 10
595.2215292343
 20
212.9223824853
 30
0.0
 10
595.0888636659
 20
213.1644922005
 30
0.0
 10
594.8810926151
 20
213.3745425758
 30
0.0
 10
594.7074639522
 20
213.4824964396
 30
0.0
 10
594.6129433029
 20
213.5292956451
 30
0.0
  0
SPLINE
  5
8A7
100
AcDbEntity
  8
RUNDUNGEN
100
AcDbSpline
 62
7
  6
CONTINUOUS
 70
0
 71
3
 72
9
 73
5
 74
0
 42
0.0000001
 43
0.0000001
 44
0.0000000001
 40
0.0
 40
0.0
 40
0.0
 40
0.0
 40
0.4805181646
 40
1.0
 40
1.0
 40
1.0
 40
1.0
 10
595.252567945
 20
209.1254685551
 30
0.0
 10
595.2526294613
 20
209.0165820704
 30
0.0
 10
595.2008863516
 20
208.787842814
 30
0.0
 10
595.0641352646
 20
208.6001947808
 30
0.0
 10
594.9813067148
 20
208.5165501097
 30
0.0
  0
SPLINE
  5
8A8
100
AcDbEntity
  8
RUNDUNGEN
100
AcDbSpline
 62
7
  6
CONTINUOUS
 70
0
 71
3
 72
11
 73
7
 74
0
 42
0.0000001
 43
0.0000001
 44
0.0000000001
 40
0.0
 40
0.0
 40
0.0
 40
0.0
 40
0.2256919297
 40
0.4632773963
 40
0.7205986282
 40
1.0
 40
1.0
 40
1.0
 40
1.0
 10
605.6937011289
 20
223.9841422415
 30
0.0
 10
605.6937559608
 20
224.2683515922
 30
0.0
 10
605.5909767662
 20
224.8559459945
 30
0.0
 10
605.1489112065
 20
225.6637881843
 30
0.0
 10
604.456057118
 20
226.3646473377
 30
0.0
 10
603.8768979974
 20
226.7248031089
 30
0.0
 10
603.5615857367
 20
226.880920988
 30
0.0
  0
SPLINE
  5
8A9
100
AcDbEntity
  8
RUNDUNGEN
100
AcDbSpline
 62
7
  6
CONTINUOUS
 70
0
 71
3
 72
10
 73
6
 74
0
 42
0.0000001
 43
0.0000001
 44
0.0000000001
 40
0.0
 40
0.0
 40
0.0
 40
0.0
 40
0.2382860828
 40
0.4819052527
 40
1.0
 40
1.0
 40
1.0
 40
1.0
 10
605.6937011289
 20
220.4486083356
 30
0.0
 10
605.6936663485
 20
220.2683313829
 30
0.0
 10
605.6534258643
 20
219.9024866482
 30
0.0
 10
605.4130251183
 20
219.1806278738
 30
0.0
 10
605.0652649958
 20
218.6998670444
 30
0.0
 10
604.7894637764
 20
218.421348317
 30
0.0
  0
SPLINE
  5
8AA
100
AcDbEntity
  8
RUNDUNGEN
100
AcDbSpline
 62
7
  6
CONTINUOUS
 70
0
 71
3
 72
9
 73
5
 74
0
 42
0.0000001
 43
0.0000001
 44
0.0000000001
 40
0.0
 40
0.0
 40
0.0
 40
0.0
 40
0.4832260472
 40
1.0
 40
1.0
 40
1.0
 40
1.0
 10
547.0449444324
 20
190.0888059485
 30
0.0
 10
546.8562575439
 20
190.8776362854
 30
0.0
 10
546.2050679712
 20
192.4547071129
 30
0.0
 10
545.1525460292
 20
193.7875970716
 30
0.0
 10
544.5422210176
 20
194.403935701
 30
0.0
  0
SPLINE
  5
8AB
100
AcDbEntity
  8
RUNDUNGEN
100
AcDbSpline
 62
7
  6
CONTINUOUS
 70
0
 71
3
 72
11
 73
7
 74
0
 42
0.0000001
 43
0.0000001
 44
0.0000000001
 40
0.0
 40
0.0
 40
0.0
 40
0.0
 40
0.2377805384
 40
0.4809056364
 40
0.7339193512
 40
1.0
 40
1.0
 40
1.0
 40
1.0
 10
547.2549403533
 20
191.8557732428
 30
0.0
 10
547.2549403725
 20
191.3147946891
 30
0.0
 10
547.1349307599
 20
190.2171841704
 30
0.0
 10
546.6028111257
 20
188.6224530701
 30
0.0
 10
545.7348648365
 20
187.1093416829
 30
0.0
 10
544.9681748085
 20
186.2022267499
 30
0.0
 10
544.5422210176
 20
185.7720759767
 30
0.0
  0
SPLINE
  5
8AC
100
AcDbEntity
  8
RUNDUNGEN
100
AcDbSpline
 62
7
  6
CONTINUOUS
 70
0
 71
3
 72
10
 73
6
 74
0
 42
0.0000001
 43
0.0000001
 44
0.0000000001
 40
0.0
 40
0.0
 40
0.0
 40
0.0
 40
0.2382826319
 40
0.4819247904
 40
1.0
 40
1.0
 40
1.0
 40
1.0
 10
596.7743050723
 20
168.7340469879
 30
0.0
 10
596.7743050723
 20
168.9143719416
 30
0.0
 10
596.7341847986
 20
169.2803502854
 30
0.0
 10
596.493757909
 20
170.0024366257
 30
0.0
 10
596.1459335354
 20
170.4833595162
 30
0.0
 10
595.8700652938
 20
170.7619459262
 30
0.0
  0
SPLINE
  5
8AD
100
AcDbEntity
  8
BEZUGSACHSEN
100
AcDbSpline
 62
7
  6
CONTINUOUS
 70
0
 71
3
 72
19
 73
15
 74
0
 42
0.0000001
 43
0.0000001
 44
0.0000000001
 40
0.0
 40
0.0
 40
0.0
 40
0.0
 40
0.0517279957
 40
0.105334459
 40
0.1622489926
 40
0.2232158543
 40
0.3564755372
 40
0.5
 40
0.6435244628
 40
0.7767841457
 40
0.8377510074
 40
0.894665541
 40
0.9482720043
 40
1.0
 40
1.0
 40
1.0
 40
1.0
 10
568.2743050723
 20
220.4009211248
 30
0.0
 10
568.2743050723
 20
220.1455717997
 30
0.0
 10
568.200200068
 20
219.62294821
 30
0.0
 10
567.8759361335
 20
218.8813598043
 30
0.0
 10
567.3557574403
 20
218.2040724674
 30
0.0
 10
566.4051309253
 20
217.3966561578
 30
0.0
 10
564.8551651338
 20
216.6963156669
 30
0.0
 10
562.7743050723
 20
216.4161720745
 30
0.0
 10
560.6934450109
 20
216.6963156669
 30
0.0
 10
559.1434792194
 20
217.3966561578
 30
0.0
 10
558.1928527044
 20
218.2040724674
 30
0.0
 10
557.6726740112
 20
218.8813598043
 30
0.0
 10
557.3484100767
 20
219.62294821
 30
0.0
 10
557.2743050723
 20
220.1455717997
 30
0.0
 10
557.2743050723
 20
220.4009211248
 30
0.0
  0
SPLINE
  5
8AE
100
AcDbEntity
  8
BEZUGSACHSEN
100
AcDbSpline
 62
7
  6
CONTINUOUS
 70
0
 71
3
 72
9
 73
5
 74
0
 42
0.0000001
 43
0.0000001
 44
0.0000000001
 40
0.0
 40
0.0
 40
0.0
 40
0.0
 40
0.4742612099
 40
1.0
 40
1.0
 40
1.0
 40
1.0
 10
557.8763340931
 20
218.6345050092
 30
0.0
 10
558.1510083314
 20
219.014707455
 30
0.0
 10
558.8870799943
 20
219.7062394952
 30
0.0
 10
559.7833639026
 20
220.152136049
 30
0.0
 10
560.27239023
 20
220.3287819104
 30
0.0
  0
SPLINE
  5
8AF
100
AcDbEntity
  8
BEZUGSACHSEN
100
AcDbSpline
 62
7
  6
CONTINUOUS
 70
0
 71
3
 72
9
 73
5
 74
0
 42
0.0000001
 43
0.0000001
 44
0.0000000001
 40
0.0
 40
0.0
 40
0.0
 40
0.0
 40
0.5257387901
 40
1.0
 40
1.0
 40
1.0
 40
1.0
 10
565.2762199147
 20
220.3287819104
 30
0.0
 10
565.7652462421
 20
220.152136049
 30
0.0
 10
566.6615301504
 20
219.7062394952
 30
0.0
 10
567.3976018133
 20
219.014707455
 30
0.0
 10
567.6722760516
 20
218.6345050092
 30
0.0
  0
SPLINE
  5
8B0
100
AcDbEntity
  8
RUNDUNGEN
100
AcDbSpline
 62
7
  6
CONTINUOUS
 70
0
 71
3
 72
11
 73
7
 74
0
 42
0.0000001
 43
0.0000001
 44
0.0000000001
 40
0.0
 40
0.0
 40
0.0
 40
0.0
 40
0.2880068215
 40
0.5553366529
 40
0.7905059061
 40
1.0
 40
1.0
 40
1.0
 40
1.0
 10
589.4243050723
 20
155.7066609227
 30
0.0
 10
589.359888852
 20
155.7066609227
 30
0.0
 10
589.2348919194
 20
155.723487938
 30
0.0
 10
589.0712640278
 20
155.7975246451
 30
0.0
 10
588.9547242285
 20
155.9127178036
 30
0.0
 10
588.9243050723
 20
156.0133584172
 30
0.0
 10
588.9243050723
 20
156.0602143133
 30
0.0
  0
SPLINE
  5
8B1
100
AcDbEntity
  8
RUNDUNGEN
100
AcDbSpline
 62
7
  6
CONTINUOUS
 70
0
 71
3
 72
13
 73
9
 74
0
 42
0.0000001
 43
0.0000001
 44
0.0000000001
 40
0.0
 40
0.0
 40
0.0
 40
0.0
 40
0.1034546555
 40
0.2106690395
 40
0.3244963599
 40
0.4464318111
 40
0.7129511617
 40
1.0
 40
1.0
 40
1.0
 40
1.0
 10
596.7743050723
 20
159.2421948287
 30
0.0
 10
596.7743050723
 20
159.0100620722
 30
0.0
 10
596.7069393587
 20
158.5349494014
 30
0.0
 10
596.4121508484
 20
157.8607810536
 30
0.0
 10
595.9392792587
 20
157.2450620258
 30
0.0
 10
595.0749680249
 20
156.511046158
 30
0.0
 10
593.6668274674
 20
155.8743716262
 30
0.0
 10
592.4183885867
 20
155.7066609227
 30
0.0
 10
591.7743050723
 20
155.7066609227
 30
0.0
  0
SPLINE
  5
8B2
100
AcDbEntity
  8
RUNDUNGEN
100
AcDbSpline
 62
7
  6
CONTINUOUS
 70
0
 71
3
 72
10
 73
6
 74
0
 42
0.0000001
 43
0.0000001
 44
0.0000000001
 40
0.0
 40
0.0
 40
0.0
 40
0.0
 40
0.4808964563
 40
0.7459158441
 40
1.0
 40
1.0
 40
1.0
 40
1.0
 10
602.2083698128
 20
215.8148224729
 30
0.0
 10
601.9593037673
 20
215.5633023448
 30
0.0
 10
601.3977403056
 20
215.3473800864
 30
0.0
 10
600.6608406925
 20
215.3603440225
 30
0.0
 10
600.2868813554
 20
215.4713657323
 30
0.0
 10
600.1192770918
 20
215.5543502064
 30
0.0
  0
SPLINE
  5
8B3
100
AcDbEntity
  8
RUNDUNGEN
100
AcDbSpline
 62
7
  6
CONTINUOUS
 70
0
 71
3
 72
9
 73
5
 74
0
 42
0.0000001
 43
0.0000001
 44
0.0000000001
 40
0.0
 40
0.0
 40
0.0
 40
0.0
 40
0.5194816775
 40
1.0
 40
1.0
 40
1.0
 40
1.0
 10
518.7516288411
 20
220.4486461957
 30
0.0
 10
518.668793286
 20
220.5322979411
 30
0.0
 10
518.5320320273
 20
220.7199643863
 30
0.0
 10
518.4802978794
 20
220.9487281344
 30
0.0
 10
518.4803690049
 20
221.0576238914
 30
0.0
  0
SPLINE
  5
8B4
100
AcDbEntity
  8
RUNDUNGEN
100
AcDbSpline
 62
7
  6
CONTINUOUS
 70
0
 71
3
 72
13
 73
9
 74
0
 42
0.0000001
 43
0.0000001
 44
0.0000000001
 40
0.0
 40
0.0
 40
0.0
 40
0.0
 40
0.2870490624
 40
0.5535683755
 40
0.6755038246
 40
0.7893311355
 40
0.8965454157
 40
1.0
 40
1.0
 40
1.0
 40
1.0
 10
533.7743050723
 20
155.7066609227
 30
0.0
 10
533.1302210554
 20
155.7066609227
 30
0.0
 10
531.8817817266
 20
155.8743717859
 30
0.0
 10
530.4736409625
 20
156.5110468728
 30
0.0
 10
529.6093300081
 20
157.2450629125
 30
0.0
 10
529.1364588434
 20
157.8607819361
 30
0.0
 10
528.8416706436
 20
158.5349499491
 30
0.0
 10
528.7743050723
 20
159.010062232
 30
0.0
 10
528.7743050723
 20
159.2421948287
 30
0.0
  0
SPLINE
  5
8B5
100
AcDbEntity
  8
RUNDUNGEN
100
AcDbSpline
 62
7
  6
CONTINUOUS
 70
0
 71
3
 72
11
 73
7
 74
0
 42
0.0000001
 43
0.0000001
 44
0.0000000001
 40
0.0
 40
0.0
 40
0.0
 40
0.0
 40
0.2094942263
 40
0.444667264
 40
0.7119932261
 40
1.0
 40
1.0
 40
1.0
 40
1.0
 10
536.6243050723
 20
156.0602143133
 30
0.0
 10
536.6243050723
 20
156.0133583915
 30
0.0
 10
536.5938853319
 20
155.9127170051
 30
0.0
 10
536.4773452233
 20
155.7975240749
 30
0.0
 10
536.3137173668
 20
155.723487593
 30
0.0
 10
536.1887212766
 20
155.7066609227
 30
0.0
 10
536.1243050723
 20
155.7066609227
 30
0.0
  0
SPLINE
  5
8B6
100
AcDbEntity
  8
RUNDUNGEN
100
AcDbSpline
 62
7
  6
CONTINUOUS
 70
0
 71
3
 72
10
 73
6
 74
0
 42
0.0000001
 43
0.0000001
 44
0.0000000001
 40
0.0
 40
0.0
 40
0.0
 40
0.0
 40
0.47201694
 40
0.7322443513
 40
1.0
 40
1.0
 40
1.0
 40
1.0
 10
552.5820992016
 20
165.6995772645
 30
0.0
 10
552.0889176548
 20
165.2015363308
 30
0.0
 10
551.1089376925
 20
164.634077067
 30
0.0
 10
549.6706116175
 20
164.2584007838
 30
0.0
 10
548.8839353593
 20
164.191942297
 30
0.0
 10
548.4863389802
 20
164.191942297
 30
0.0
  0
SPLINE
  5
8B7
100
AcDbEntity
  8
RUNDUNGEN
100
AcDbSpline
 62
7
  6
CONTINUOUS
 70
0
 71
3
 72
10
 73
6
 74
0
 42
0.0000001
 43
0.0000001
 44
0.0000000001
 40
0.0
 40
0.0
 40
0.0
 40
0.0
 40
0.2677558652
 40
0.5279833681
 40
1.0
 40
1.0
 40
1.0
 40
1.0
 10
577.0622711645
 20
164.191942297
 30
0.0
 10
576.6646744618
 20
164.191942297
 30
0.0
 10
575.8779977367
 20
164.2584008668
 30
0.0
 10
574.4396717128
 20
164.6340774284
 30
0.0
 10
573.4596921706
 20
165.2015366532
 30
0.0
 10
572.9665109431
 20
165.6995772645
 30
0.0
  0
SPLINE
  5
8B8
100
AcDbEntity
  8
RUNDUNGEN
100
AcDbSpline
 62
7
  6
CONTINUOUS
 70
0
 71
3
 72
13
 73
9
 74
0
 42
0.0000001
 43
0.0000001
 44
0.0000000001
 40
0.0
 40
0.0
 40
0.0
 40
0.0
 40
0.1034546555
 40
0.2106690395
 40
0.3244963599
 40
0.4464318111
 40
0.7129511617
 40
1.0
 40
1.0
 40
1.0
 40
1.0
 10
588.9243050723
 20
160.656408391
 30
0.0
 10
588.9243050723
 20
160.8885411475
 30
0.0
 10
588.8569393587
 20
161.3636538183
 30
0.0
 10
588.5621508484
 20
162.0378221661
 30
0.0
 10
588.0892792587
 20
162.6535411939
 30
0.0
 10
587.2249680249
 20
163.3875570617
 30
0.0
 10
585.8168274674
 20
164.0242315935
 30
0.0
 10
584.5683885867
 20
164.191942297
 30
0.0
 10
583.9243050723
 20
164.191942297
 30
0.0
  0
SPLINE
  5
8B9
100
AcDbEntity
  8
RUNDUNGEN
100
AcDbSpline
 62
7
  6
CONTINUOUS
 70
0
 71
3
 72
13
 73
9
 74
0
 42
0.0000001
 43
0.0000001
 44
0.0000000001
 40
0.0
 40
0.0
 40
0.0
 40
0.0
 40
0.2870490624
 40
0.5535683755
 40
0.6755038246
 40
0.7893311355
 40
0.8965454157
 40
1.0
 40
1.0
 40
1.0
 40
1.0
 10
541.6243050723
 20
164.191942297
 30
0.0
 10
540.9802210554
 20
164.191942297
 30
0.0
 10
539.7317817266
 20
164.0242314338
 30
0.0
 10
538.3236409625
 20
163.3875563469
 30
0.0
 10
537.4593300081
 20
162.6535403072
 30
0.0
 10
536.9864588434
 20
162.0378212836
 30
0.0
 10
536.6916706436
 20
161.3636532706
 30
0.0
 10
536.6243050723
 20
160.8885409877
 30
0.0
 10
536.6243050723
 20
160.656408391
 30
0.0
  0
SPLINE
  5
8BA
100
AcDbEntity
  8
RUNDUNGEN
100
AcDbSpline
 62
7
  6
CONTINUOUS
 70
0
 71
3
 72
13
 73
9
 74
0
 42
0.0000001
 43
0.0000001
 44
0.0000000001
 40
0.0
 40
0.0
 40
0.0
 40
0.0
 40
0.2360077172
 40
0.3661261163
 40
0.500000078
 40
0.6338740716
 40
0.7639924399
 40
1.0
 40
1.0
 40
1.0
 40
1.0
 10
567.6892173381
 20
171.0288687828
 30
0.0
 10
567.0974013876
 20
171.6265159787
 30
0.0
 10
565.9216410967
 20
172.3074928424
 30
0.0
 10
564.1950037031
 20
172.7582630409
 30
0.0
 10
562.7743040969
 20
172.878482064
 30
0.0
 10
561.3536046253
 20
172.7582627446
 30
0.0
 10
559.6269678589
 20
172.3074923065
 30
0.0
 10
558.4512083632
 20
171.6265155809
 30
0.0
 10
557.8593928066
 20
171.0288687828
 30
0.0
  0
SPLINE
  5
8BB
100
AcDbEntity
  8
RUNDUNGEN
100
AcDbSpline
 62
7
  6
CONTINUOUS
 70
0
 71
3
 72
11
 73
7
 74
0
 42
0.0000001
 43
0.0000001
 44
0.0000000001
 40
0.0
 40
0.0
 40
0.0
 40
0.0
 40
0.2660806253
 40
0.5190943246
 40
0.762219441
 40
1.0
 40
1.0
 40
1.0
 40
1.0
 10
581.0063891271
 20
185.7720759767
 30
0.0
 10
580.5804354298
 20
186.2022266555
 30
0.0
 10
579.8137455339
 20
187.1093413758
 30
0.0
 10
578.945799315
 20
188.622452481
 30
0.0
 10
578.4136795761
 20
190.2171833608
 30
0.0
 10
578.2936698106
 20
191.3147938112
 30
0.0
 10
578.2936697914
 20
191.8557723408
 30
0.0
  0
SPLINE
  5
8BC
100
AcDbEntity
  8
RUNDUNGEN
100
AcDbSpline
 62
7
  6
CONTINUOUS
 70
0
 71
3
 72
9
 73
5
 74
0
 42
0.0000001
 43
0.0000001
 44
0.0000000001
 40
0.0
 40
0.0
 40
0.0
 40
0.0
 40
0.516774057
 40
1.0
 40
1.0
 40
1.0
 40
1.0
 10
581.0063891271
 20
194.403935701
 30
0.0
 10
580.3960603831
 20
193.7875933024
 30
0.0
 10
579.3435329112
 20
192.4546945465
 30
0.0
 10
578.6923436747
 20
190.8776122306
 30
0.0
 10
578.5036587221
 20
190.0887766788
 30
0.0
  0
SPLINE
  5
8BD
100
AcDbEntity
  8
RUNDUNGEN
100
AcDbSpline
 62
7
  6
CONTINUOUS
 70
0
 71
3
 72
11
 73
7
 74
0
 42
0.0000001
 43
0.0000001
 44
0.0000000001
 40
0.0
 40
0.0
 40
0.0
 40
0.0
 40
0.2524507309
 40
0.5157647478
 40
0.7702968692
 40
1.0
 40
1.0
 40
1.0
 40
1.0
 10
596.8426689147
 20
217.1766693571
 30
0.0
 10
596.5633282517
 20
217.3149769248
 30
0.0
 10
595.9421941283
 20
217.5007270801
 30
0.0
 10
594.9802024047
 20
217.5141852105
 30
0.0
 10
594.0761883574
 20
217.276861473
 30
0.0
 10
593.5604106619
 20
216.9440781834
 30
0.0
 10
593.3608477131
 20
216.742548913
 30
0.0
  0
SPLINE
  5
8BE
100
AcDbEntity
  8
RUNDUNGEN
100
AcDbSpline
 62
7
  6
CONTINUOUS
 70
0
 71
3
 72
11
 73
7
 74
0
 42
0.0000001
 43
0.0000001
 44
0.0000000001
 40
0.0
 40
0.0
 40
0.0
 40
0.0
 40
0.2793777095
 40
0.5367048928
 40
0.7743072365
 40
1.0
 40
1.0
 40
1.0
 40
1.0
 10
591.3363351257
 20
215.1516147958
 30
0.0
 10
591.178802243
 20
215.2296127128
 30
0.0
 10
590.8894247519
 20
215.4095331065
 30
0.0
 10
590.5431430254
 20
215.7596107445
 30
0.0
 10
590.3220327966
 20
216.1631176929
 30
0.0
 10
590.2703888906
 20
216.4566663613
 30
0.0
 10
590.2702961715
 20
216.5986724698
 30
0.0
  0
SPLINE
  5
8BF
100
AcDbEntity
  8
RUNDUNGEN
100
AcDbSpline
 62
7
  6
CONTINUOUS
 70
0
 71
3
 72
11
 73
7
 74
0
 42
0.0000001
 43
0.0000001
 44
0.0000000001
 40
0.0
 40
0.0
 40
0.0
 40
0.0
 40
0.2524375529
 40
0.5157480446
 40
0.7702932073
 40
1.0
 40
1.0
 40
1.0
 40
1.0
 10
543.3578515425
 20
219.8466001111
 30
0.0
 10
542.7991991326
 20
219.5699992927
 30
0.0
 10
541.5569766749
 20
219.1985062354
 30
0.0
 10
539.6330003235
 20
219.1715308095
 30
0.0
 10
537.8249395732
 20
219.6461990487
 30
0.0
 10
536.7933415764
 20
220.3117758544
 30
0.0
 10
536.3942091393
 20
220.7148409994
 30
0.0
  0
SPLINE
  5
8C0
100
AcDbEntity
  8
RUNDUNGEN
100
AcDbSpline
 62
7
  6
CONTINUOUS
 70
0
 71
3
 72
11
 73
7
 74
0
 42
0.0000001
 43
0.0000001
 44
0.0000000001
 40
0.0
 40
0.0
 40
0.0
 40
0.0
 40
0.2297109937
 40
0.4842558728
 40
0.7475644511
 40
1.0
 40
1.0
 40
1.0
 40
1.0
 10
582.4373542423
 20
224.0405952583
 30
0.0
 10
582.0382145064
 20
223.6375227427
 30
0.0
 10
581.0066050772
 20
222.9719433888
 30
0.0
 10
579.1985375348
 20
222.49728295
 30
0.0
 10
577.2745720971
 20
222.5242641692
 30
0.0
 10
576.032359813
 20
222.895755748
 30
0.0
 10
575.4737118391
 20
223.17235437
 30
0.0
  0
SPLINE
  5
8C1
100
AcDbEntity
  8
RUNDUNGEN
100
AcDbSpline
 62
7
  6
CONTINUOUS
 70
0
 71
3
 72
10
 73
6
 74
0
 42
0.0000001
 43
0.0000001
 44
0.0000000001
 40
0.0
 40
0.0
 40
0.0
 40
0.0
 40
0.4720166319
 40
0.7322441348
 40
1.0
 40
1.0
 40
1.0
 40
1.0
 10
572.9665109431
 20
169.2351111705
 30
0.0
 10
573.4596921706
 20
168.7370705592
 30
0.0
 10
574.4396717128
 20
168.1696113344
 30
0.0
 10
575.8779977367
 20
167.7939347727
 30
0.0
 10
576.6646744618
 20
167.7274762029
 30
0.0
 10
577.0622711645
 20
167.7274762029
 30
0.0
  0
SPLINE
  5
8C2
100
AcDbEntity
  8
RUNDUNGEN
100
AcDbSpline
 62
7
  6
CONTINUOUS
 70
0
 71
3
 72
10
 73
6
 74
0
 42
0.0000001
 43
0.0000001
 44
0.0000000001
 40
0.0
 40
0.0
 40
0.0
 40
0.0
 40
0.2677556487
 40
0.52798306
 40
1.0
 40
1.0
 40
1.0
 40
1.0
 10
548.4863389802
 20
167.7274762029
 30
0.0
 10
548.8839353593
 20
167.7274762029
 30
0.0
 10
549.6706116175
 20
167.7939346897
 30
0.0
 10
551.1089376925
 20
168.1696109729
 30
0.0
 10
552.0889176548
 20
168.7370702367
 30
0.0
 10
552.5820992016
 20
169.2351111705
 30
0.0
  0
SPLINE
  5
8C3
100
AcDbEntity
  8
0
100
AcDbSpline
 62
7
  6
CONTINUOUS
 70
0
 71
3
 72
9
 73
5
 74
0
 42
0.0000001
 43
0.0000001
 44
0.0000000001
 40
0.0
 40
0.0
 40
0.0
 40
0.0
 40
0.2357898421
 40
1.0
 40
1.0
 40
1.0
 40
1.0
 10
558.6745504945
 20
206.5822281853
 30
0.0
 10
558.1744054925
 20
206.9335732929
 30
0.0
 10
555.9138943766
 20
208.2226317719
 30
0.0
 10
553.2553047745
 20
208.7396695117
 30
0.0
 10
551.2743050723
 20
208.7396695117
 30
0.0
  0
SPLINE
  5
8C4
100
AcDbEntity
  8
RUNDUNGEN
100
AcDbSpline
 62
7
  6
CONTINUOUS
 70
0
 71
3
 72
11
 73
7
 74
0
 42
0.0000001
 43
0.0000001
 44
0.0000000001
 40
0.0
 40
0.0
 40
0.0
 40
0.0
 40
0.2880067739
 40
0.555332736
 40
0.7905057737
 40
1.0
 40
1.0
 40
1.0
 40
1.0
 10
536.1243050723
 20
159.2421948287
 30
0.0
 10
536.1887212766
 20
159.2421948287
 30
0.0
 10
536.3137173668
 20
159.2590214989
 30
0.0
 10
536.4773452233
 20
159.3330579808
 30
0.0
 10
536.5938853319
 20
159.448250911
 30
0.0
 10
536.6243050723
 20
159.5488922975
 30
0.0
 10
536.6243050723
 20
159.5957482193
 30
0.0
  0
SPLINE
  5
8C5
100
AcDbEntity
  8
RUNDUNGEN
100
AcDbSpline
 62
7
  6
CONTINUOUS
 70
0
 71
3
 72
10
 73
6
 74
0
 42
0.0000001
 43
0.0000001
 44
0.0000000001
 40
0.0
 40
0.0
 40
0.0
 40
0.0
 40
0.5180947473
 40
0.7617139172
 40
1.0
 40
1.0
 40
1.0
 40
1.0
 10
604.7894637764
 20
221.9568822229
 30
0.0
 10
605.0652649958
 20
222.2354009503
 30
0.0
 10
605.4130251183
 20
222.7161617797
 30
0.0
 10
605.6534258643
 20
223.4380205541
 30
0.0
 10
605.6936663485
 20
223.8038652888
 30
0.0
 10
605.6937011289
 20
223.9841422415
 30
0.0
  0
SPLINE
  5
8C6
100
AcDbEntity
  8
RUNDUNGEN
100
AcDbSpline
 62
7
  6
CONTINUOUS
 70
0
 71
3
 72
10
 73
6
 74
0
 42
0.0000001
 43
0.0000001
 44
0.0000000001
 40
0.0
 40
0.0
 40
0.0
 40
0.0
 40
0.2540732108
 40
0.5190824075
 40
1.0
 40
1.0
 40
1.0
 40
1.0
 10
600.1192770918
 20
219.0898841124
 30
0.0
 10
600.2868740289
 20
219.0069032658
 30
0.0
 10
600.6608165575
 20
218.8958834565
 30
0.0
 10
601.3977146243
 20
218.882906728
 30
0.0
 10
601.9592929789
 20
219.0988253561
 30
0.0
 10
602.2083698128
 20
219.3503563789
 30
0.0
  0
SPLINE
  5
8C7
100
AcDbEntity
  8
RUNDUNGEN
100
AcDbSpline
 62
7
  6
CONTINUOUS
 70
0
 71
3
 72
9
 73
5
 74
0
 42
0.0000001
 43
0.0000001
 44
0.0000000001
 40
0.0
 40
0.0
 40
0.0
 40
0.0
 40
0.5194830631
 40
1.0
 40
1.0
 40
1.0
 40
1.0
 10
594.9813067148
 20
212.0520840156
 30
0.0
 10
595.0641404624
 20
212.1357339358
 30
0.0
 10
595.2008988774
 20
212.323395058
 30
0.0
 10
595.2526352764
 20
212.5521518706
 30
0.0
 10
595.2525666525
 20
212.6610446486
 30
0.0
  0
SPLINE
  5
8C8
100
AcDbEntity
  8
RUNDUNGEN
100
AcDbSpline
 62
7
  6
CONTINUOUS
 70
0
 71
3
 72
13
 73
9
 74
0
 42
0.0000001
 43
0.0000001
 44
0.0000000001
 40
0.0
 40
0.0
 40
0.0
 40
0.0
 40
0.2870488383
 40
0.5535681889
 40
0.6755036401
 40
0.7893309605
 40
0.8965453445
 40
1.0
 40
1.0
 40
1.0
 40
1.0
 10
591.7743050723
 20
159.2421948287
 30
0.0
 10
592.4183885867
 20
159.2421948287
 30
0.0
 10
593.6668274674
 20
159.4099055321
 30
0.0
 10
595.0749680249
 20
160.0465800639
 30
0.0
 10
595.9392792587
 20
160.7805959317
 30
0.0
 10
596.4121508484
 20
161.3963149595
 30
0.0
 10
596.7069393587
 20
162.0704833074
 30
0.0
 10
596.7743050723
 20
162.5455959782
 30
0.0
 10
596.7743050723
 20
162.7777287346
 30
0.0
  0
SPLINE
  5
8C9
100
AcDbEntity
  8
RUNDUNGEN
100
AcDbSpline
 62
7
  6
CONTINUOUS
 70
0
 71
3
 72
11
 73
7
 74
0
 42
0.0000001
 43
0.0000001
 44
0.0000000001
 40
0.0
 40
0.0
 40
0.0
 40
0.0
 40
0.2094940939
 40
0.4446633471
 40
0.7119931785
 40
1.0
 40
1.0
 40
1.0
 40
1.0
 10
588.9243050723
 20
159.5957482193
 30
0.0
 10
588.9243050723
 20
159.5488923232
 30
0.0
 10
588.9547242285
 20
159.4482517095
 30
0.0
 10
589.0712640278
 20
159.333058551
 30
0.0
 10
589.2348919194
 20
159.2590218439
 30
0.0
 10
589.359888852
 20
159.2421948287
 30
0.0
 10
589.4243050723
 20
159.2421948287
 30
0.0
  0
SPLINE
  5
8CA
100
AcDbEntity
  8
RUNDUNGEN
100
AcDbSpline
 62
7
  6
CONTINUOUS
 70
0
 71
3
 72
13
 73
9
 74
0
 42
0.0000001
 43
0.0000001
 44
0.0000000001
 40
0.0
 40
0.0
 40
0.0
 40
0.0
 40
0.1034545843
 40
0.2106688645
 40
0.3244961754
 40
0.4464316245
 40
0.7129509376
 40
1.0
 40
1.0
 40
1.0
 40
1.0
 10
528.7743050723
 20
162.7777287346
 30
0.0
 10
528.7743050723
 20
162.5455961379
 30
0.0
 10
528.8416706436
 20
162.070483855
 30
0.0
 10
529.1364588434
 20
161.396315842
 30
0.0
 10
529.6093300081
 20
160.7805968184
 30
0.0
 10
530.4736409625
 20
160.0465807787
 30
0.0
 10
531.8817817266
 20
159.4099056919
 30
0.0
 10
533.1302210554
 20
159.2421948287
 30
0.0
 10
533.7743050723
 20
159.2421948287
 30
0.0
  0
SPLINE
  5
8CB
100
AcDbEntity
  8
RUNDUNGEN
100
AcDbSpline
 62
7
  6
CONTINUOUS
 70
0
 71
3
 72
9
 73
5
 74
0
 42
0.0000001
 43
0.0000001
 44
0.0000000001
 40
0.0
 40
0.0
 40
0.0
 40
0.0
 40
0.4805174014
 40
1.0
 40
1.0
 40
1.0
 40
1.0
 10
590.2702961715
 20
216.5986724698
 30
0.0
 10
590.2701776709
 20
216.7801648769
 30
0.0
 10
590.3564018742
 20
217.161437209
 30
0.0
 10
590.5843367343
 20
217.4742144884
 30
0.0
 10
590.7223961059
 20
217.6136341783
 30
0.0
  0
SPLINE
  5
8CC
100
AcDbEntity
  8
RUNDUNGEN
100
AcDbSpline
 62
7
  6
CONTINUOUS
 70
0
 71
3
 72
9
 73
5
 74
0
 42
0.0000001
 43
0.0000001
 44
0.0000000001
 40
0.0
 40
0.0
 40
0.0
 40
0.0
 40
0.4805194799
 40
1.0
 40
1.0
 40
1.0
 40
1.0
 10
518.4803677672
 20
224.5931212799
 30
0.0
 10
518.4803029337
 20
224.4842309448
 30
0.0
 10
518.5320428623
 20
224.2554824227
 30
0.0
 10
518.6687977974
 20
224.0678272912
 30
0.0
 10
518.7516288411
 20
223.9841801016
 30
0.0
  0
SPLINE
  5
8CD
100
AcDbEntity
  8
RUNDUNGEN
100
AcDbSpline
 62
7
  6
CONTINUOUS
 70
0
 71
3
 72
11
 73
7
 74
0
 42
0.0000001
 43
0.0000001
 44
0.0000000001
 40
0.0
 40
0.0
 40
0.0
 40
0.0
 40
0.2377805384
 40
0.4809056364
 40
0.7339193512
 40
1.0
 40
1.0
 40
1.0
 40
1.0
 10
578.2936697914
 20
191.8557723408
 30
0.0
 10
578.2936697722
 20
192.3967508945
 30
0.0
 10
578.4136793848
 20
193.4943614133
 30
0.0
 10
578.945799019
 20
195.0890925135
 30
0.0
 10
579.8137453082
 20
196.6022039008
 30
0.0
 10
580.5804353362
 20
197.5093188337
 30
0.0
 10
581.0063891271
 20
197.9394696069
 30
0.0
  0
SPLINE
  5
8CE
100
AcDbEntity
  8
RUNDUNGEN
100
AcDbSpline
 62
7
  6
CONTINUOUS
 70
0
 71
3
 72
13
 73
9
 74
0
 42
0.0000001
 43
0.0000001
 44
0.0000000001
 40
0.0
 40
0.0
 40
0.0
 40
0.0
 40
0.1034545843
 40
0.2106688645
 40
0.3244961754
 40
0.4464316245
 40
0.7129509376
 40
1.0
 40
1.0
 40
1.0
 40
1.0
 10
536.6243050723
 20
164.191942297
 30
0.0
 10
536.6243050723
 20
164.4240748937
 30
0.0
 10
536.6916706436
 20
164.8991871765
 30
0.0
 10
536.9864588434
 20
165.5733551895
 30
0.0
 10
537.4593300081
 20
166.1890742131
 30
0.0
 10
538.3236409625
 20
166.9230902528
 30
0.0
 10
539.7317817266
 20
167.5597653397
 30
0.0
 10
540.9802210554
 20
167.7274762029
 30
0.0
 10
541.6243050723
 20
167.7274762029
 30
0.0
  0
SPLINE
  5
8CF
100
AcDbEntity
  8
BEZUGSACHSEN
100
AcDbSpline
 62
7
  6
CONTINUOUS
 70
0
 71
3
 72
11
 73
7
 74
0
 42
0.0000001
 43
0.0000001
 44
0.0000000001
 40
0.0
 40
0.0
 40
0.0
 40
0.0
 40
0.2211778223
 40
0.4572018266
 40
0.7166414314
 40
1.0
 40
1.0
 40
1.0
 40
1.0
 10
557.2743050723
 20
220.4009211248
 30
0.0
 10
557.2743050723
 20
220.7591579593
 30
0.0
 10
557.4255882038
 20
221.5061648304
 30
0.0
 10
558.063008498
 20
222.5013747084
 30
0.0
 10
559.0407914563
 20
223.3225792531
 30
0.0
 10
559.8407383313
 20
223.7083947193
 30
0.0
 10
560.27239023
 20
223.8643158163
 30
0.0
  0
SPLINE
  5
8D0
100
AcDbEntity
  8
BEZUGSACHSEN
100
AcDbSpline
 62
7
  6
CONTINUOUS
 70
0
 71
3
 72
11
 73
7
 74
0
 42
0.0000001
 43
0.0000001
 44
0.0000000001
 40
0.0
 40
0.0
 40
0.0
 40
0.0
 40
0.2833585686
 40
0.5427981734
 40
0.7788221777
 40
1.0
 40
1.0
 40
1.0
 40
1.0
 10
565.2762199147
 20
223.8643158163
 30
0.0
 10
565.7078718134
 20
223.7083947193
 30
0.0
 10
566.5078186884
 20
223.3225792531
 30
0.0
 10
567.4856016467
 20
222.5013747084
 30
0.0
 10
568.1230219409
 20
221.5061648304
 30
0.0
 10
568.2743050723
 20
220.7591579593
 30
0.0
 10
568.2743050723
 20
220.4009211248
 30
0.0
  0
SPLINE
  5
8D1
100
AcDbEntity
  8
RUNDUNGEN
100
AcDbSpline
 62
7
  6
CONTINUOUS
 70
0
 71
3
 72
13
 73
9
 74
0
 42
0.0000001
 43
0.0000001
 44
0.0000000001
 40
0.0
 40
0.0
 40
0.0
 40
0.0
 40
0.2870488383
 40
0.5535681889
 40
0.6755036401
 40
0.7893309605
 40
0.8965453445
 40
1.0
 40
1.0
 40
1.0
 40
1.0
 10
583.9243050723
 20
167.7274762029
 30
0.0
 10
584.5683885867
 20
167.7274762029
 30
0.0
 10
585.8168274674
 20
167.5597654994
 30
0.0
 10
587.2249680249
 20
166.9230909677
 30
0.0
 10
588.0892792587
 20
166.1890750999
 30
0.0
 10
588.5621508484
 20
165.573356072
 30
0.0
 10
588.8569393587
 20
164.8991877242
 30
0.0
 10
588.9243050723
 20
164.4240750534
 30
0.0
 10
588.9243050723
 20
164.191942297
 30
0.0
  0
SPLINE
  5
8D2
100
AcDbEntity
  8
RUNDUNGEN
100
AcDbSpline
 62
7
  6
CONTINUOUS
 70
0
 71
3
 72
13
 73
9
 74
0
 42
0.0000001
 43
0.0000001
 44
0.0000000001
 40
0.0
 40
0.0
 40
0.0
 40
0.0
 40
0.2360075601
 40
0.3661259284
 40
0.499999922
 40
0.6338738837
 40
0.7639922828
 40
1.0
 40
1.0
 40
1.0
 40
1.0
 10
557.8593928066
 20
174.5644026887
 30
0.0
 10
558.4512083632
 20
175.1620494868
 30
0.0
 10
559.6269678589
 20
175.8430262124
 30
0.0
 10
561.3536046253
 20
176.2937966506
 30
0.0
 10
562.7743040969
 20
176.4140159699
 30
0.0
 10
564.1950037031
 20
176.2937969468
 30
0.0
 10
565.9216410967
 20
175.8430267483
 30
0.0
 10
567.0974013876
 20
175.1620498847
 30
0.0
 10
567.6892173381
 20
174.5644026887
 30
0.0
  0
SPLINE
  5
8D3
100
AcDbEntity
  8
RUNDUNGEN
100
AcDbSpline
 62
7
  6
CONTINUOUS
 70
0
 71
3
 72
11
 73
7
 74
0
 42
0.0000001
 43
0.0000001
 44
0.0000000001
 40
0.0
 40
0.0
 40
0.0
 40
0.0
 40
0.2660806253
 40
0.5190943246
 40
0.762219441
 40
1.0
 40
1.0
 40
1.0
 40
1.0
 10
544.5422210176
 20
197.9394696069
 30
0.0
 10
544.9681747149
 20
197.5093189282
 30
0.0
 10
545.7348646108
 20
196.6022042078
 30
0.0
 10
546.6028108297
 20
195.0890931027
 30
0.0
 10
547.1349305686
 20
193.4943622228
 30
0.0
 10
547.2549403341
 20
192.3967517725
 30
0.0
 10
547.2549403533
 20
191.8557732428
 30
0.0
  0
SPLINE
  5
8D4
100
AcDbEntity
  8
RUNDUNGEN
100
AcDbSpline
 62
7
  6
CONTINUOUS
 70
0
 71
3
 72
11
 73
7
 74
0
 42
0.0000001
 43
0.0000001
 44
0.0000000001
 40
0.0
 40
0.0
 40
0.0
 40
0.0
 40
0.2297153182
 40
0.4842567112
 40
0.7475604635
 40
1.0
 40
1.0
 40
1.0
 40
1.0
 10
593.3608477131
 20
220.2780828189
 30
0.0
 10
593.5604212336
 20
220.4796227653
 30
0.0
 10
594.0762278478
 20
220.8124136492
 30
0.0
 10
594.9802591535
 20
221.0497269419
 30
0.0
 10
595.942234839
 20
221.036251442
 30
0.0
 10
596.5633406616
 20
220.8505046863
 30
0.0
 10
596.8426689147
 20
220.7122032631
 30
0.0
  0
SPLINE
  5
8D5
100
AcDbEntity
  8
0
100
AcDbSpline
 62
7
  6
CONTINUOUS
 70
0
 71
3
 72
10
 73
6
 74
0
 42
0.0000001
 43
0.0000001
 44
0.0000000001
 40
0.0
 40
0.0
 40
0.0
 40
0.0
 40
0.4713508659
 40
0.7305568892
 40
1.0
 40
1.0
 40
1.0
 40
1.0
 10
559.294546388
 20
186.1770315635
 30
0.0
 10
558.5445573576
 20
187.0120874154
 30
0.0
 10
557.0622682749
 20
188.0310312208
 30
0.0
 10
554.8263876072
 20
188.8577726992
 30
0.0
 10
553.5856400536
 20
189.1084504049
 30
0.0
 10
552.9491000111
 20
189.1889824541
 30
0.0
  0
SPLINE
  5
8D6
100
AcDbEntity
  8
0
100
AcDbSpline
 62
7
  6
CONTINUOUS
 70
0
 71
3
 72
12
 73
8
 74
0
 42
0.0000001
 43
0.0000001
 44
0.0000000001
 40
0.0
 40
0.0
 40
0.0
 40
0.0
 40
0.2238071189
 40
0.4682304664
 40
0.5972875971
 40
0.7296734351
 40
1.0
 40
1.0
 40
1.0
 40
1.0
 10
559.5667360635
 20
186.2078921913
 30
0.0
 10
559.1385758867
 20
186.749518205
 30
0.0
 10
558.0604316285
 20
187.743270781
 30
0.0
 10
556.4253567491
 20
188.6259851933
 30
0.0
 10
554.9513471945
 20
189.1454508904
 30
0.0
 10
553.3550450236
 20
189.5323464163
 30
0.0
 10
552.1082324616
 20
189.6477864197
 30
0.0
 10
551.2743050723
 20
189.6477864197
 30
0.0
  0
SPLINE
  5
8D7
100
AcDbEntity
  8
0
100
AcDbSpline
 62
7
  6
CONTINUOUS
 70
0
 71
3
 72
9
 73
5
 74
0
 42
0.0000001
 43
0.0000001
 44
0.0000000001
 40
0.0
 40
0.0
 40
0.0
 40
0.0
 40
0.2380968332
 40
1.0
 40
1.0
 40
1.0
 40
1.0
 10
558.3853802907
 20
206.4241842831
 30
0.0
 10
558.0023721391
 20
206.6734146631
 30
0.0
 10
556.3232028679
 20
207.610674571
 30
0.0
 10
554.4213744498
 20
208.1209442876
 30
0.0
 10
552.968783112
 20
208.2887707282
 30
0.0
  0
SPLINE
  5
8D8
100
AcDbEntity
  8
BEZUGSACHSEN
100
AcDbSpline
 62
7
  6
CONTINUOUS
 70
0
 71
3
 72
11
 73
7
 74
0
 42
0.0000001
 43
0.0000001
 44
0.0000000001
 40
0.0
 40
0.0
 40
0.0
 40
0.0
 40
0.25001079
 40
0.5000108943
 40
0.7500048976
 40
1.0
 40
1.0
 40
1.0
 40
1.0
 10
528.7333534606
 20
140.5052262677
 30
0.0
 10
528.5937982019
 20
140.5606440437
 30
0.0
 10
528.3295415732
 20
140.7139683143
 30
0.0
 10
528.0189569419
 20
141.0490809693
 30
0.0
 10
527.8200013196
 20
141.4604485613
 30
0.0
 10
527.7743051772
 20
141.762656179
 30
0.0
 10
527.7743050723
 20
141.9128026764
 30
0.0
  0
SPLINE
  5
8D9
100
AcDbEntity
  8
BEZUGSACHSEN
100
AcDbSpline
 62
7
  6
CONTINUOUS
 70
0
 71
3
 72
11
 73
7
 74
0
 42
0.0000001
 43
0.0000001
 44
0.0000000001
 40
0.0
 40
0.0
 40
0.0
 40
0.0
 40
0.2500139668
 40
0.5000035064
 40
0.749990811
 40
1.0
 40
1.0
 40
1.0
 40
1.0
 10
601.2316082289
 20
109.4581303927
 30
0.0
 10
601.3531806763
 20
109.4581304078
 30
0.0
 10
601.5973066767
 20
109.4873855418
 30
0.0
 10
601.9419165235
 20
109.616683683
 30
0.0
 10
602.2461349852
 20
109.8238969191
 30
0.0
 10
602.4104270427
 20
110.0068908349
 30
0.0
 10
602.4801568757
 20
110.1064751984
 30
0.0
  0
SPLINE
  5
8DA
100
AcDbEntity
  8
BEZUGSACHSEN
100
AcDbSpline
 62
7
  6
CONTINUOUS
 70
0
 71
3
 72
11
 73
7
 74
0
 42
0.0000001
 43
0.0000001
 44
0.0000000001
 40
0.0
 40
0.0
 40
0.0
 40
0.0
 40
0.2500346306
 40
0.5000539342
 40
0.7500425608
 40
1.0
 40
1.0
 40
1.0
 40
1.0
 10
574.2999830115
 20
109.458132132
 30
0.0
 10
574.1026141797
 20
109.4581319793
 30
0.0
 10
573.7036758781
 20
109.5358095457
 30
0.0
 10
573.1968801022
 20
109.8694320888
 30
0.0
 10
572.8548972459
 20
110.3709860907
 30
0.0
 10
572.7743051363
 20
110.770034961
 30
0.0
 10
572.7743050723
 20
110.9673428605
 30
0.0
  0
SPLINE
  5
8DB
100
AcDbEntity
  8
RUNDUNGEN
100
AcDbSpline
 62
7
  6
CONTINUOUS
 70
0
 71
3
 72
11
 73
7
 74
0
 42
0.0000001
 43
0.0000001
 44
0.0000000001
 40
0.0
 40
0.0
 40
0.0
 40
0.0
 40
0.2500346306
 40
0.5000539342
 40
0.7500425608
 40
1.0
 40
1.0
 40
1.0
 40
1.0
 10
551.2486271332
 20
136.4410838323
 30
0.0
 10
551.445995965
 20
136.441083985
 30
0.0
 10
551.8449342666
 20
136.3634064186
 30
0.0
 10
552.3517300425
 20
136.0297838755
 30
0.0
 10
552.6937128988
 20
135.5282298736
 30
0.0
 10
552.7743050084
 20
135.1291810033
 30
0.0
 10
552.7743050723
 20
134.9318731038
 30
0.0
  0
SPLINE
  5
8DC
100
AcDbEntity
  8
RUNDUNGEN
100
AcDbSpline
 62
7
  6
CONTINUOUS
 70
0
 71
3
 72
11
 73
7
 74
0
 42
0.0000001
 43
0.0000001
 44
0.0000000001
 40
0.0
 40
0.0
 40
0.0
 40
0.0
 40
0.2500139668
 40
0.5000035064
 40
0.749990811
 40
1.0
 40
1.0
 40
1.0
 40
1.0
 10
524.3170019158
 20
136.4410855716
 30
0.0
 10
524.1954294683
 20
136.4410855565
 30
0.0
 10
523.951303468
 20
136.4118304225
 30
0.0
 10
523.6066936212
 20
136.2825322813
 30
0.0
 10
523.3024751595
 20
136.0753190452
 30
0.0
 10
523.138183102
 20
135.8923251295
 30
0.0
 10
523.068453269
 20
135.7927407659
 30
0.0
  0
SPLINE
  5
8DD
100
AcDbEntity
  8
RUNDUNGEN
100
AcDbSpline
 62
7
  6
CONTINUOUS
 70
0
 71
3
 72
11
 73
7
 74
0
 42
0.0000001
 43
0.0000001
 44
0.0000000001
 40
0.0
 40
0.0
 40
0.0
 40
0.0
 40
0.25001079
 40
0.5000108943
 40
0.7500048976
 40
1.0
 40
1.0
 40
1.0
 40
1.0
 10
596.8152566841
 20
105.3939896966
 30
0.0
 10
596.9548119428
 20
105.3385719206
 30
0.0
 10
597.2190685715
 20
105.18524765
 30
0.0
 10
597.5296532028
 20
104.850134995
 30
0.0
 10
597.7286088251
 20
104.438767403
 30
0.0
 10
597.7743049675
 20
104.1365597854
 30
0.0
 10
597.7743050723
 20
103.986413288
 30
0.0
  0
SPLINE
  5
8DE
100
AcDbEntity
  8
BEZUGSACHSEN
100
AcDbSpline
 62
7
  6
CONTINUOUS
 70
0
 71
3
 72
13
 73
9
 74
0
 42
0.0000001
 43
0.0000001
 44
0.0000000001
 40
0.0
 40
0.0
 40
0.0
 40
0.0
 40
0.2499874419
 40
0.3749886132
 40
0.499988518
 40
0.6249906401
 40
0.749995988
 40
1.0
 40
1.0
 40
1.0
 40
1.0
 10
583.0346465403
 20
117.4602995893
 30
0.0
 10
583.8318503002
 20
117.3716251076
 30
0.0
 10
585.0293361248
 20
117.2448242281
 30
0.0
 10
586.6335099218
 20
117.1903271333
 30
0.0
 10
587.8370759101
 20
117.2160214933
 30
0.0
 10
589.0376486949
 20
117.3020342584
 30
0.0
 10
590.6332725077
 20
117.469303513
 30
0.0
 10
591.8284829243
 20
117.6117066698
 30
0.0
 10
592.6281252043
 20
117.6753817733
 30
0.0
  0
SPLINE
  5
8DF
100
AcDbEntity
  8
BEZUGSACHSEN
100
AcDbSpline
 62
7
  6
CONTINUOUS
 70
0
 71
3
 72
18
 73
14
 74
0
 42
0.0000001
 43
0.0000001
 44
0.0000000001
 40
0.0
 40
0.0
 40
0.0
 40
0.0
 40
0.1925748537
 40
0.3777420748
 40
0.5483715353
 40
0.6261435702
 40
0.6978740304
 40
0.8205215128
 40
0.9117997304
 40
0.9448190844
 40
0.9694578745
 40
0.9867007619
 40
1.0
 40
1.0
 40
1.0
 40
1.0
 10
592.6281252043
 20
117.6753817733
 30
0.0
 10
592.7748941754
 20
117.687068911
 30
0.0
 10
593.0632468801
 20
117.7043181766
 30
0.0
 10
593.4822939455
 20
117.7183795419
 30
0.0
 10
593.8137602832
 20
117.7234270914
 30
0.0
 10
594.0585194448
 20
117.7239940057
 30
0.0
 10
594.266592008
 20
117.7224617021
 30
0.0
 10
594.4849351149
 20
117.717041061
 30
0.0
 10
594.6734725985
 20
117.7045522149
 30
0.0
 10
594.7860663223
 20
117.685404733
 30
0.0
 10
594.8407393576
 20
117.6686861554
 30
0.0
 10
594.8785159857
 20
117.6468792947
 30
0.0
 10
594.8884666723
 20
117.623257584
 30
0.0
 10
594.8884666723
 20
117.6130896204
 30
0.0
  0
LINE
  5
8E0
100
AcDbEntity
  8
RUNDUNGEN
100
AcDbLine
 62
7
  6
CONTINUOUS
 10
581.223632851
 20
111.5337419822
 11
581.1955954383
 21
111.5337246191
  0
SPLINE
  5
8E1
100
AcDbEntity
  8
BEZUGSACHSEN
100
AcDbSpline
 62
7
  6
CONTINUOUS
 70
0
 71
3
 72
17
 73
13
 74
0
 42
0.0000001
 43
0.0000001
 44
0.0000000001
 40
0.0
 40
0.0
 40
0.0
 40
0.0
 40
0.0308457472
 40
0.0604157048
 40
0.1268752226
 40
0.1684403144
 40
0.2166972321
 40
0.3337006645
 40
0.4760036251
 40
0.6387807413
 40
0.8157785648
 40
1.0
 40
1.0
 40
1.0
 40
1.0
 10
544.7743050723
 20
128.7747131082
 30
0.0
 10
544.7743050723
 20
128.7497876996
 30
0.0
 10
544.7684426136
 20
128.7005414726
 30
0.0
 10
544.7241769076
 20
128.6059896346
 30
0.0
 10
544.6304732373
 20
128.5362402994
 30
0.0
 10
544.5142044434
 20
128.4878457526
 30
0.0
 10
544.3529326286
 20
128.4420302069
 30
0.0
 10
544.1064492929
 20
128.4056171179
 30
0.0
 10
543.7658768022
 20
128.3841870259
 30
0.0
 10
543.3761530621
 20
128.3817744694
 30
0.0
 10
542.9529293323
 20
128.3980624041
 30
0.0
 10
542.6619142878
 20
128.4224595408
 30
0.0
 10
542.5139636043
 20
128.4389163751
 30
0.0
  0
SPLINE
  5
8E2
100
AcDbEntity
  8
BEZUGSACHSEN
100
AcDbSpline
 62
7
  6
CONTINUOUS
 70
0
 71
3
 72
17
 73
13
 74
0
 42
0.0000001
 43
0.0000001
 44
0.0000000001
 40
0.0
 40
0.0
 40
0.0
 40
0.0
 40
0.0308457472
 40
0.0604157048
 40
0.1268752226
 40
0.1684403144
 40
0.2166972321
 40
0.3337006645
 40
0.4760036251
 40
0.6387807413
 40
0.8157785648
 40
1.0
 40
1.0
 40
1.0
 40
1.0
 10
580.7743050723
 20
117.1245028562
 30
0.0
 10
580.7743050723
 20
117.1494282648
 30
0.0
 10
580.7801675311
 20
117.1986744917
 30
0.0
 10
580.8244332371
 20
117.2932263298
 30
0.0
 10
580.9181369074
 20
117.362975665
 30
0.0
 10
581.0344057013
 20
117.4113702118
 30
0.0
 10
581.1956775161
 20
117.4571857574
 30
0.0
 10
581.4421608518
 20
117.4935988464
 30
0.0
 10
581.7827333425
 20
117.5150289384
 30
0.0
 10
582.1724570826
 20
117.5174414949
 30
0.0
 10
582.5956808124
 20
117.5011535603
 30
0.0
 10
582.8866958569
 20
117.4767564235
 30
0.0
 10
583.0346465403
 20
117.4602995893
 30
0.0
  0
LINE
  5
8E3
100
AcDbEntity
  8
BEZUGSACHSEN
100
AcDbLine
 62
7
  6
CONTINUOUS
 10
544.3249772937
 20
134.3654739822
 11
544.3530147064
 21
134.3654913452
  0
SPLINE
  5
8E4
100
AcDbEntity
  8
BEZUGSACHSEN
100
AcDbSpline
 62
7
  6
CONTINUOUS
 70
0
 71
3
 72
18
 73
14
 74
0
 42
0.0000001
 43
0.0000001
 44
0.0000000001
 40
0.0
 40
0.0
 40
0.0
 40
0.0
 40
0.1925748537
 40
0.3777420748
 40
0.5483715353
 40
0.6261435702
 40
0.6978740304
 40
0.8205215128
 40
0.9117997304
 40
0.9448190844
 40
0.9694578745
 40
0.9867007619
 40
1.0
 40
1.0
 40
1.0
 40
1.0
 10
532.9204849403
 20
128.223834191
 30
0.0
 10
532.7737159693
 20
128.2121470533
 30
0.0
 10
532.4853632646
 20
128.1948977877
 30
0.0
 10
532.0663161992
 20
128.1808364224
 30
0.0
 10
531.7348498615
 20
128.1757888729
 30
0.0
 10
531.4900906999
 20
128.1752219587
 30
0.0
 10
531.2820181367
 20
128.1767542622
 30
0.0
 10
531.0636750298
 20
128.1821749034
 30
0.0
 10
530.8751375462
 20
128.1946637494
 30
0.0
 10
530.7625438224
 20
128.2138112313
 30
0.0
 10
530.7078707871
 20
128.2305298089
 30
0.0
 10
530.670094159
 20
128.2523366696
 30
0.0
 10
530.6601434723
 20
128.2759583803
 30
0.0
 10
530.6601434723
 20
128.286126344
 30
0.0
  0
SPLINE
  5
8E5
100
AcDbEntity
  8
BEZUGSACHSEN
100
AcDbSpline
 62
7
  6
CONTINUOUS
 70
0
 71
3
 72
13
 73
9
 74
0
 42
0.0000001
 43
0.0000001
 44
0.0000000001
 40
0.0
 40
0.0
 40
0.0
 40
0.0
 40
0.2499874419
 40
0.3749886132
 40
0.499988518
 40
0.6249906401
 40
0.749995988
 40
1.0
 40
1.0
 40
1.0
 40
1.0
 10
542.5139636043
 20
128.4389163751
 30
0.0
 10
541.7167598445
 20
128.5275908567
 30
0.0
 10
540.5192740199
 20
128.6543917362
 30
0.0
 10
538.9151002229
 20
128.708888831
 30
0.0
 10
537.7115342346
 20
128.6831944711
 30
0.0
 10
536.5109614498
 20
128.5971817059
 30
0.0
 10
534.915337637
 20
128.4299124513
 30
0.0
 10
533.7201272204
 20
128.2875092945
 30
0.0
 10
532.9204849403
 20
128.223834191
 30
0.0
  0
SPLINE
  5
8E6
100
AcDbEntity
  8
KONSTRUKTIONSELEMENTE
100
AcDbSpline
 62
7
  6
CONTINUOUS
 70
0
 71
3
 72
10
 73
6
 74
0
 42
0.0000001
 43
0.0000001
 44
0.0000000001
 40
0.0
 40
0.0
 40
0.0
 40
0.0
 40
0.250024915
 40
0.5000187591
 40
1.0
 40
1.0
 40
1.0
 40
1.0
 10
513.1110109223
 20
243.8790099511
 30
0.0
 10
514.2940049135
 20
243.8790116461
 30
0.0
 10
516.663916183
 20
244.0913232832
 30
0.0
 10
521.2668844619
 20
245.2466607354
 30
0.0
 10
524.5350165129
 20
246.6562194252
 30
0.0
 10
526.7743050723
 20
247.4190761077
 30
0.0
  0
ELLIPSE
  5
8E7
100
AcDbEntity
  8
KONSTRUKTIONSELEMENTE
100
AcDbEllipse
 62
7
  6
CONTINUOUS
 10
293.9735069725
 20
265.6394639743
 30
0.0
 11
10.4
 21
-0.0
 31
0.0
 40
0.2260480602
 41
-0.3534683866
 42
-0.0000454921
  0
ELLIPSE
  5
8E8
100
AcDbEntity
  8
KONSTRUKTIONSELEMENTE
100
AcDbEllipse
 62
7
  6
CONTINUOUS
 10
293.9735069725
 20
281.6582824697
 30
0.0
 11
10.4
 21
-0.0
 31
0.0
 40
0.220667681
 41
-0.2169180916
 42
-0.1668948344
  0
ELLIPSE
  5
8E9
100
AcDbEntity
  8
KONSTRUKTIONSELEMENTE
100
AcDbEllipse
 62
7
  6
CONTINUOUS
 10
293.9735069725
 20
282.2756740369
 30
0.0
 11
10.4
 21
-0.0
 31
0.0
 40
0.4964984942
 41
-0.2845102315
 42
-0.2169180916
  0
ELLIPSE
  5
8EA
100
AcDbEntity
  8
KONSTRUKTIONSELEMENTE
100
AcDbEllipse
 62
7
  6
CONTINUOUS
 10
293.9735069725
 20
283.4029462064
 30
0.0
 11
10.4
 21
0.0
 31
0.0
 40
0.882663148
 41
-0.3360781939
 42
-0.2845102315
  0
ELLIPSE
  5
8EB
100
AcDbEntity
  8
KONSTRUKTIONSELEMENTE
100
AcDbEllipse
 62
7
  6
CONTINUOUS
 10
293.9735069725
 20
291.7281694352
 30
0.0
 11
-0.0
 21
34.423921864
 31
0.0
 40
0.3021154894
 41
-1.9242647134
 42
-1.9068745207
  0
ELLIPSE
  5
8EC
100
AcDbEntity
  8
KONSTRUKTIONSELEMENTE
100
AcDbEllipse
 62
7
  6
CONTINUOUS
 10
293.9735069725
 20
269.7160055907
 30
0.0
 11
0.0
 21
27.5391690072
 31
0.0
 40
0.3776439295
 41
-1.2347181329
 42
-1.2173279402
  0
ELLIPSE
  5
8ED
100
AcDbEntity
  8
KONSTRUKTIONSELEMENTE
100
AcDbEllipse
 62
7
  6
CONTINUOUS
 10
293.9735069725
 20
274.2570517969
 30
0.0
 11
0.0
 21
13.7695451086
 31
0.0
 40
0.75529002
 41
-1.2691904102
 42
-1.2347181329
  0
ELLIPSE
  5
8EE
100
AcDbEntity
  8
KONSTRUKTIONSELEMENTE
100
AcDbEllipse
 62
7
  6
CONTINUOUS
 10
293.9735069725
 20
276.3022011311
 30
0.0
 11
10.4
 21
0.0
 31
0.0
 40
0.661997361
 41
0.2337093076
 42
0.3016059166
  0
ELLIPSE
  5
8EF
100
AcDbEntity
  8
KONSTRUKTIONSELEMENTE
100
AcDbEllipse
 62
7
  6
CONTINUOUS
 10
293.9735069725
 20
277.4980185452
 30
0.0
 11
10.4
 21
0.0
 31
0.0
 40
0.1655007607
 41
0.1668948344
 42
0.2337093076
  0
ELLIPSE
  5
8F0
100
AcDbEntity
  8
KONSTRUKTIONSELEMENTE
100
AcDbEllipse
 62
7
  6
CONTINUOUS
 10
293.9735069725
 20
267.1669717185
 30
0.0
 11
10.4
 21
-0.0
 31
0.0
 40
0.2260480602
 41
6.2832307993
 42
6.6366536938
  0
ELLIPSE
  5
8F1
100
AcDbEntity
  8
KONSTRUKTIONSELEMENTE
100
AcDbEllipse
 62
7
  6
CONTINUOUS
 10
293.9735069725
 20
271.0481276943
 30
0.0
 11
10.4
 21
-0.0
 31
0.0
 40
0.2260480371
 41
-0.3534683866
 42
-0.0000454921
  0
ELLIPSE
  5
8F2
100
AcDbEntity
  8
KONSTRUKTIONSELEMENTE
100
AcDbEllipse
 62
7
  6
CONTINUOUS
 10
293.9735069725
 20
272.5756355946
 30
0.0
 11
10.4
 21
0.0
 31
0.0
 40
0.2260481295
 41
6.2832307993
 42
6.6366536938
  0
ELLIPSE
  5
8F3
100
AcDbEntity
  8
KONSTRUKTIONSELEMENTE
100
AcDbEllipse
 62
7
  6
CONTINUOUS
 10
293.9735069725
 20
282.4004666589
 30
0.0
 11
10.4
 21
-0.0
 31
0.0
 40
0.1324005344
 41
0.0843881619
 42
0.1668948344
  0
ELLIPSE
  5
8F4
100
AcDbEntity
  8
KONSTRUKTIONSELEMENTE
100
AcDbEllipse
 62
7
  6
CONTINUOUS
 10
293.9735069725
 20
282.0573582621
 30
0.0
 11
10.4
 21
-0.0
 31
0.0
 40
0.3309977335
 41
0.1668948344
 42
0.2337093076
  0
ELLIPSE
  5
8F5
100
AcDbEntity
  8
KONSTRUKTIONSELEMENTE
100
AcDbEllipse
 62
7
  6
CONTINUOUS
 10
293.9735069725
 20
281.2601375293
 30
0.0
 11
10.4
 21
0.0
 31
0.0
 40
0.661999255
 41
0.2337093076
 42
0.3016059166
  0
ELLIPSE
  5
8F6
100
AcDbEntity
  8
KONSTRUKTIONSELEMENTE
100
AcDbEllipse
 62
7
  6
CONTINUOUS
 10
293.9735069725
 20
279.2149940463
 30
0.0
 11
0.0
 21
13.7695451086
 31
0.0
 40
0.75529002
 41
-1.2691904102
 42
-1.2347181329
  0
ELLIPSE
  5
8F7
100
AcDbEntity
  8
KONSTRUKTIONSELEMENTE
100
AcDbEllipse
 62
7
  6
CONTINUOUS
 10
293.9735069725
 20
272.4034442249
 30
0.0
 11
0.0
 21
34.423921864
 31
0.0
 40
0.3021154894
 41
-1.2347181329
 42
-1.2173279402
  0
ELLIPSE
  5
8F8
100
AcDbEntity
  8
KONSTRUKTIONSELEMENTE
100
AcDbEllipse
 62
7
  6
CONTINUOUS
 10
293.9735069725
 20
297.2495145939
 30
0.0
 11
-0.0
 21
34.423921864
 31
0.0
 40
0.3021154894
 41
-1.9242647134
 42
-1.9068745207
  0
ELLIPSE
  5
8F9
100
AcDbEntity
  8
KONSTRUKTIONSELEMENTE
100
AcDbEllipse
 62
7
  6
CONTINUOUS
 10
293.9735069725
 20
290.4379517806
 30
0.0
 11
-0.0
 21
13.7695057136
 31
0.0
 40
0.7552921809
 41
-1.9068745207
 42
-1.8724022434
  0
ELLIPSE
  5
8FA
100
AcDbEntity
  8
KONSTRUKTIONSELEMENTE
100
AcDbEllipse
 62
7
  6
CONTINUOUS
 10
293.9735069725
 20
288.39282
 30
0.0
 11
10.4
 21
-0.0
 31
0.0
 40
0.661999255
 41
-0.3016059166
 42
-0.2337093076
  0
ELLIPSE
  5
8FB
100
AcDbEntity
  8
KONSTRUKTIONSELEMENTE
100
AcDbEllipse
 62
7
  6
CONTINUOUS
 10
293.9735069725
 20
287.1172757722
 30
0.0
 11
10.4
 21
0.0
 31
0.0
 40
0.1324005344
 41
-0.2337093076
 42
-0.1503199462
  0
ELLIPSE
  5
8FC
100
AcDbEntity
  8
0
100
AcDbEllipse
 62
7
  6
CONTINUOUS
 10
606.7743050723
 20
122.9496079822
 30
0.0
 11
0.0
 21
4.520682936
 31
0.0
 40
0.1051042353
 41
0.0
 42
3.1415926536
  0
ELLIPSE
  5
8FD
100
AcDbEntity
  8
0
100
AcDbEllipse
 62
7
  6
CONTINUOUS
 10
572.7743050723
 20
122.9496079822
 30
0.0
 11
-0.0
 21
4.15
 31
0.0
 40
0.1583844403
 41
3.1415926536
 42
6.2831853072
  0
ELLIPSE
  5
8FE
100
AcDbEntity
  8
0
100
AcDbEllipse
 62
7
  6
CONTINUOUS
 10
518.7743050723
 20
122.9496079822
 30
0.0
 11
0.0
 21
4.520682936
 31
0.0
 40
0.1051042353
 41
3.1415926536
 42
6.2831853072
  0
ELLIPSE
  5
8FF
100
AcDbEntity
  8
BEZUGSACHSEN
100
AcDbEllipse
 62
7
  6
CONTINUOUS
 10
606.7743050723
 20
122.9496079822
 30
0.0
 11
0.0
 21
4.520682936
 31
0.0
 40
0.1051042353
 41
0.0
 42
3.1415926536
  0
ELLIPSE
  5
900
100
AcDbEntity
  8
BEZUGSACHSEN
100
AcDbEllipse
 62
7
  6
CONTINUOUS
 10
572.7743050723
 20
122.9496079822
 30
0.0
 11
-0.0
 21
4.15
 31
0.0
 40
0.1583844403
 41
-3.1415926536
 42
0.0
  0
ELLIPSE
  5
901
100
AcDbEntity
  8
0
100
AcDbEllipse
 62
7
  6
CONTINUOUS
 10
552.7743050723
 20
122.9496079822
 30
0.0
 11
-0.0
 21
4.15
 31
0.0
 40
0.1583844403
 41
0.0
 42
3.1415926536
  0
ENDSEC
  0
SECTION
  2
OBJECTS
  0
DICTIONARY
  5
C
100
AcDbDictionary
280
0
281
1
  3
ACAD_GROUP
350
D
  3
ACAD_MLINESTYLE
350
17
  3
ACAD_LAYOUT
350
1A
  3
ACAD_PLOTSETTINGS
350
19
  3
ACAD_PLOTSTYLENAME
350
E
  0
DICTIONARY
  5
D
102
{ACAD_REACTORS
330
C
102
}
100
AcDbDictionary
280
0
281
1
  0
ACDBDICTIONARYWDFLT
  5
E
102
{ACAD_REACTORS
330
C
102
}
100
AcDbDictionary
281
1
  3
Normal
350
F
100
AcDbDictionaryWithDefault
340
F
  0
DICTIONARY
  5
17
102
{ACAD_REACTORS
330
C
102
}
100
AcDbDictionary
280
0
281
1
  3
Standard
350
18
  0
DICTIONARY
  5
19
102
{ACAD_REACTORS
330
C
102
}
100
AcDbDictionary
281
1
  0
DICTIONARY
  5
1A
102
{ACAD_REACTORS
330
C
102
}
100
AcDbDictionary
281
1
  3
Model
350
902
  3
Layout1
350
903
  0
ACDBPLACEHOLDER
  5
F
102
{ACAD_REACTORS
330
E
102
}
  0
MLINESTYLE
  5
18
102
{ACAD_REACTORS
330
17
102
}
100
AcDbMlineStyle
  2
STANDARD
 70
0
  3

 62
256
 51
90.0
 52
90.0
 71
2
 49
0.5
 62
256
  6
BYLAYER
 49
-0.5
 62
256
  6
BYLAYER
  0
LAYOUT
  5
902
102
{ACAD_REACTORS
330
1A
102
}
100
AcDbPlotSettings
  1

  2
none_device
  4
ISO_A1_(594.00_x_841.00_MM)
  6

 40
0.0
 41
0.0
 42
0.0
 43
0.0
 44
841.0
 45
594.0
 46
0.0
 47
0.0
 48
0.0
 49
0.0
140
0.0
141
0.0
142
1.0
143
1.0
 70
1024
 72
1
 73
0
 74
0
  7

 75
0
147
1.0
148
0.0
149
0.0
100
AcDbLayout
  1
Model
 70
0
 71
0
 10
0.0
 20
0.0
 11
841.0
 21
594.0
 12
0.0
 22
0.0
 32
0.0
 14
0.0
 24
0.0
 34
0.0
 15
0.0
 25
0.0
 35
0.0
146
0.0
 13
0.0
 23
0.0
 33
0.0
 16
1.0
 26
0.0
 36
0.0
 17
0.0
 27
1.0
 37
0.0
 76
0
330
20D
345
0
346
0
  0
LAYOUT
  5
903
102
{ACAD_REACTORS
330
1A
102
}
100
AcDbPlotSettings
  1

  2
none_device
  4
ISO_A1_(594.00_x_841.00_MM)
  6

 40
0.0
 41
0.0
 42
0.0
 43
0.0
 44
841.0
 45
594.0
 46
0.0
 47
0.0
 48
0.0
 49
0.0
140
0.0
141
0.0
142
1.0
143
1.0
 70
0
 72
1
 73
0
 74
0
  7

 75
0
147
1.0
148
0.0
149
0.0
100
AcDbLayout
  1
Layout1
 70
0
 71
1
 10
0.0
 20
0.0
 11
841.0
 21
594.0
 12
0.0
 22
0.0
 32
0.0
 14
0.0
 24
0.0
 34
0.0
 15
0.0
 25
0.0
 35
0.0
146
0.0
 13
0.0
 23
0.0
 33
0.0
 16
1.0
 26
0.0
 36
0.0
 17
0.0
 27
1.0
 37
0.0
 76
0
330
20E
345
0
346
0
  0
ENDSEC
  0
EOF
