999
DXF file: ivs-8-dxf.dxf
999
Pro/ENGINEER 2010140 by Parametric Technology Corporation
  0
SECTION
  2
HEADER
  9
$ACADVER
  1
AC1021
  9
$DWGCODEPAGE
  3
ANSI_1252
  9
$EXTMAX
 10
420.0
 20
297.0
 30
0.0
  9
$EXTMIN
 10
0.0
 20
0.0
 30
0.0
  9
$LIMMIN
 10
0.0
 20
0.0
  9
$LIMMAX
 10
420.0
 20
297.0
  9
$VIEWCTR
 10
210.0
 20
148.5
  9
$VIEWSIZE
 40
297.0
  9
$CLAYER
  8
0
  9
$LTSCALE
 40
23.1
  9
$CELTYPE
  6
BYLAYER
  9
$DIMSCALE
 40
1.0
  9
$DIMASZ
 40
3.5
  9
$DIMEXO
 40
2.625
  9
$DIMDLI
 40
15.96
  9
$DIMEXE
 40
7.56
  9
$DIMCEN
 40
3.78
  9
$DIMLFAC
 40
1.0
  9
$DIMBLK
  1
_FILLED
  9
$DIMTXT
 40
3.5
  9
$DIMTOL
 70
1
  9
$DIMLIM
 70
0
  9
$DIMTFAC
 40
1.0
  9
$DIMTP
 40
0.005
  9
$DIMTM
 40
0.005
  9
$PDMODE
 70
3
  9
$PDSIZE
 40
0.3125
  9
$HANDSEED
  5
3A8
  9
$TILEMODE
 70
1
  9
$MEASUREMENT
 70
1
  9
$INSUNITS
 70
4
  0
ENDSEC
  0
SECTION
  2
CLASSES
  0
CLASS
  1
ACDBDICTIONARYWDFLT
  2
AcDbDictionaryWithDefault
  3
AutoCAD 2000
 90
0
 91
1
280
0
281
0
  0
CLASS
  1
ACDBPLACEHOLDER
  2
AcDbPlaceHolder
  3
AutoCAD 2000
 90
0
 91
1
280
0
281
0
  0
CLASS
  1
LAYOUT
  2
AcDbLayout
  3
AutoCAD 2000
 90
0
 91
0
280
0
281
0
  0
ENDSEC
  0
SECTION
  2
TABLES
  0
TABLE
  2
VPORT
  5
8
100
AcDbSymbolTable
 70
2
  0
VPORT
  5
1F4
100
AcDbSymbolTableRecord
100
AcDbViewportTableRecord
  2
*ACTIVE
 70
0
 10
0.0
 20
0.0
 11
1.0
 21
1.0
 12
210.0
 22
148.5
 13
0.0
 23
0.0
 14
1.0
 24
1.0
 15
0.0
 25
0.0
 16
0.0
 26
0.0
 36
1.0
 17
0.0
 27
0.0
 37
0.0
 40
297.0
 41
1.4141414141
 42
50.0
 43
0.0
 44
0.0
 50
0.0
 51
0.0
 71
0
 72
100
 73
1
 74
1
 75
0
 76
0
 77
0
 78
0
  0
ENDTAB
  0
TABLE
  2
LTYPE
  5
5
100
AcDbSymbolTable
 70
6
  0
LTYPE
  5
14
100
AcDbSymbolTableRecord
100
AcDbLinetypeTableRecord
  2
BYBLOCK
 70
0
  3

 72
65
 73
0
 40
0.0
  0
LTYPE
  5
15
100
AcDbSymbolTableRecord
100
AcDbLinetypeTableRecord
  2
BYLAYER
 70
0
  3

 72
65
 73
0
 40
0.0
  0
LTYPE
  5
16
100
AcDbSymbolTableRecord
100
AcDbLinetypeTableRecord
  2
CONTINUOUS
 70
64
  3
Solid line
 72
65
 73
0
 40
0.0
  0
LTYPE
  5
1F5
100
AcDbSymbolTableRecord
100
AcDbLinetypeTableRecord
  2
CENTER
 70
64
  3
____ _ ____ _ ____ _ ____ _ ____ _ ____ _ ____
 72
65
 73
4
 40
0.6
 49
0.375
 74
0
 49
-0.075
 74
0
 49
0.075
 74
0
 49
-0.075
 74
0
  0
LTYPE
  5
1F6
100
AcDbSymbolTableRecord
100
AcDbLinetypeTableRecord
  2
HIDDEN
 70
64
  3
- - - - - - - - - - - - - - - - - - - -
 72
65
 73
2
 40
0.2
 49
0.1
 74
0
 49
-0.1
 74
0
  0
LTYPE
  5
1F7
100
AcDbSymbolTableRecord
100
AcDbLinetypeTableRecord
  2
PHANTOM
 70
64
  3
_____ _ _ _____ _ _ _____ _ _ _____
 72
65
 73
6
 40
0.8
 49
0.45
 74
0
 49
-0.05
 74
0
 49
0.1
 74
0
 49
-0.05
 74
0
 49
0.1
 74
0
 49
-0.05
 74
0
  0
LTYPE
  5
1F8
100
AcDbSymbolTableRecord
100
AcDbLinetypeTableRecord
  2
DOT
 70
64
  3
. . . . . . . . . . . . . . . . . . . .
 72
65
 73
2
 40
0.2
 49
0.1
 74
0
 49
-0.1
 74
0
  0
LTYPE
  5
1F9
100
AcDbSymbolTableRecord
100
AcDbLinetypeTableRecord
  2
DASHED
 70
64
  3
- - - - - - - - - - - - - - - - - - - -
 72
65
 73
2
 40
0.2
 49
0.1
 74
0
 49
-0.1
 74
0
  0
ENDTAB
  0
TABLE
  2
LAYER
  5
2
100
AcDbSymbolTable
 70
36
  0
LAYER
  5
10
100
AcDbSymbolTableRecord
100
AcDbLayerTableRecord
  2
0
 70
0
 62
7
  6
CONTINUOUS
370
-3
390
F
  0
LAYER
  5
1FA
100
AcDbSymbolTableRecord
100
AcDbLayerTableRecord
  2
DEFAULT_1
 70
0
 62
7
  6
CENTER
370
-3
390
F
  0
LAYER
  5
1FB
100
AcDbSymbolTableRecord
100
AcDbLayerTableRecord
  2
DEFAULT_2
 70
0
 62
8
  6
HIDDEN
370
-3
390
F
  0
LAYER
  5
1FC
100
AcDbSymbolTableRecord
100
AcDbLayerTableRecord
  2
DEFAULT_3
 70
0
 62
7
  6
PHANTOM
370
-3
390
F
  0
LAYER
  5
1FD
100
AcDbSymbolTableRecord
100
AcDbLayerTableRecord
  2
AUSFORMSCHRAEGEN
 70
0
 62
7
  6
CONTINUOUS
370
-3
390
F
  0
LAYER
  5
1FE
100
AcDbSymbolTableRecord
100
AcDbLayerTableRecord
  2
BEZUGSACHSEN
 70
0
 62
7
  6
CONTINUOUS
370
-3
390
F
  0
LAYER
  5
1FF
100
AcDbSymbolTableRecord
100
AcDbLayerTableRecord
  2
BEZUGSEBENEN
 70
0
 62
7
  6
CONTINUOUS
370
-3
390
F
  0
LAYER
  5
200
100
AcDbSymbolTableRecord
100
AcDbLayerTableRecord
  2
HILFEN
 70
0
 62
7
  6
CONTINUOUS
370
-3
390
F
  0
LAYER
  5
201
100
AcDbSymbolTableRecord
100
AcDbLayerTableRecord
  2
PLATZIERUNG
 70
0
 62
7
  6
CONTINUOUS
370
-3
390
F
  0
LAYER
  5
202
100
AcDbSymbolTableRecord
100
AcDbLayerTableRecord
  2
RUNDUNGEN
 70
0
 62
7
  6
CONTINUOUS
370
-3
390
F
  0
LAYER
  5
203
100
AcDbSymbolTableRecord
100
AcDbLayerTableRecord
  2
T_STARTBEZUEGE
 70
0
 62
7
  6
CONTINUOUS
370
-3
390
F
  0
LAYER
  5
204
100
AcDbSymbolTableRecord
100
AcDbLayerTableRecord
  2
ZEICHNUNGSBEMASSUNGEN
 70
0
 62
7
  6
CONTINUOUS
370
-3
390
F
  0
ENDTAB
  0
TABLE
  2
STYLE
  5
3
100
AcDbSymbolTable
 70
1
  0
STYLE
  5
11
100
AcDbSymbolTableRecord
100
AcDbTextStyleTableRecord
  2
STANDARD
 70
0
 40
0.0
 41
0.7
 50
0.0
 71
0
 42
0.2
  3
txt
  4

  0
STYLE
  5
205
100
AcDbSymbolTableRecord
100
AcDbTextStyleTableRecord
  2
TEXTSTYLE_1
 70
0
 40
0.0
 41
0.8
 50
0.0
 71
0
 42
0.2
  3
gdt
  4

  0
ENDTAB
  0
TABLE
  2
VIEW
  5
6
100
AcDbSymbolTable
 70
0
  0
ENDTAB
  0
TABLE
  2
UCS
  5
7
100
AcDbSymbolTable
 70
0
  0
ENDTAB
  0
TABLE
  2
APPID
  5
9
100
AcDbSymbolTable
 70
1
  0
APPID
  5
206
100
AcDbSymbolTableRecord
100
AcDbRegAppTableRecord
  2
ACAD
 70
0
  0
ENDTAB
  0
TABLE
  2
BLOCK_RECORD
  5
1
100
AcDbSymbolTable
 70
0
  0
BLOCK_RECORD
  5
207
100
AcDbSymbolTableRecord
100
AcDbBlockTableRecord
  2
*Model_Space
  0
BLOCK_RECORD
  5
208
100
AcDbSymbolTableRecord
100
AcDbBlockTableRecord
  2
*Paper_Space
  0
ENDTAB
  0
TABLE
  2
DIMSTYLE
  5
A
100
AcDbSymbolTable
 70
1
100
AcDbDimStyleTable
 71
0
  0
DIMSTYLE
105
209
100
AcDbSymbolTableRecord
100
AcDbDimStyleTableRecord
  2
STANDARD
 70
0
  3

  4

 40
1.0
 41
3.5
 42
0.0625
 43
0.38
 44
0.18
 45
0.0
 46
0.0
 47
0.005
 48
0.005
140
3.5
141
0.09
142
0.0
143
25.4
144
1.0
145
0.0
146
1.0
147
0.09
 71
1.0
 72
0.0
 73
0
 74
0
 75
0
 76
0
 77
1
 78
8
170
0
171
2
172
0
173
0
174
0
175
0
176
0
177
0
178
5
270
2
271
3
272
3
273
2
274
2
275
0
280
0
281
0
282
0
283
1
284
8
285
0
286
0
287
3
288
0
340
11
  0
ENDTAB
  0
ENDSEC
  0
SECTION
  2
BLOCKS
  0
BLOCK
  5
20
100
AcDbEntity
  8
0
100
AcDbBlockBegin
  2
*Model_Space
 70
0
 10
0.0
 20
0.0
 30
0.0
  3
*Model_Space
  1

  0
ENDBLK
  5
21
100
AcDbEntity
  8
0
100
AcDbBlockEnd
  0
BLOCK
  5
1C
100
AcDbEntity
  8
0
100
AcDbBlockBegin
  2
*Paper_Space
 70
0
 10
0.0
 20
0.0
 30
0.0
  3
*Paper_Space
  1

  0
ENDBLK
  5
1D
100
AcDbEntity
  8
0
100
AcDbBlockEnd
  0
ENDSEC
  0
SECTION
  2
ENTITIES
  0
LINE
  5
20A
100
AcDbEntity
  8
0
100
AcDbLine
 62
7
  6
CONTINUOUS
 10
0.0
 20
0.0
 11
0.0
 21
297.0
  0
LINE
  5
20B
100
AcDbEntity
  8
0
100
AcDbLine
 62
7
  6
CONTINUOUS
 10
0.0
 20
0.0
 11
420.0
 21
0.0
  0
LINE
  5
20C
100
AcDbEntity
  8
0
100
AcDbLine
 62
7
  6
CONTINUOUS
 10
0.0
 20
297.0
 11
420.0
 21
297.0
  0
LINE
  5
20D
100
AcDbEntity
  8
0
100
AcDbLine
 62
7
  6
CONTINUOUS
 10
420.0
 20
0.0
 11
420.0
 21
297.0
  0
LINE
  5
20E
100
AcDbEntity
  8
BEZUGSACHSEN
100
AcDbLine
 62
7
  6
CONTINUOUS
 10
107.8955765607
 20
184.2529120748
 11
107.268430828
 21
184.012792841
  0
LINE
  5
20F
100
AcDbEntity
  8
BEZUGSACHSEN
100
AcDbLine
 62
7
  6
CONTINUOUS
 10
104.1206798936
 20
182.3994026189
 11
103.71931337
 21
182.2496906876
  0
LINE
  5
210
100
AcDbEntity
  8
BEZUGSACHSEN
100
AcDbLine
 62
7
  6
CONTINUOUS
 10
103.9918893687
 20
181.8134776348
 11
104.3220686129
 21
181.9187068533
  0
LINE
  5
211
100
AcDbEntity
  8
0
100
AcDbLine
 62
7
  6
CONTINUOUS
 10
121.7156999775
 20
106.4914219319
 11
122.2052669049
 21
106.6097199296
  0
LINE
  5
212
100
AcDbEntity
  8
0
100
AcDbLine
 62
7
  6
CONTINUOUS
 10
80.260024948
 20
138.9171721586
 11
80.260024948
 21
142.0794479052
  0
LINE
  5
213
100
AcDbEntity
  8
0
100
AcDbLine
 62
7
  6
CONTINUOUS
 10
80.260024948
 20
149.5295333838
 11
80.260024948
 21
150.360514889
  0
LINE
  5
214
100
AcDbEntity
  8
BEZUGSACHSEN
100
AcDbLine
 62
7
  6
CONTINUOUS
 10
103.1830681327
 20
181.2069808023
 11
103.4223887212
 21
181.4576143548
  0
LINE
  5
215
100
AcDbEntity
  8
BEZUGSACHSEN
100
AcDbLine
 62
7
  6
CONTINUOUS
 10
103.1498127225
 20
181.8938274076
 11
102.8393040478
 21
181.5987106205
  0
LINE
  5
216
100
AcDbEntity
  8
BEZUGSACHSEN
100
AcDbLine
 62
7
  6
CONTINUOUS
 10
97.0945800879
 20
176.2326225165
 11
96.7784208665
 21
175.9435687234
  0
LINE
  5
217
100
AcDbEntity
  8
BEZUGSACHSEN
100
AcDbLine
 62
7
  6
CONTINUOUS
 10
97.0757478519
 20
175.6236016317
 11
97.3425435648
 21
175.8447626915
  0
LINE
  5
218
100
AcDbEntity
  8
BEZUGSACHSEN
100
AcDbLine
 62
7
  6
CONTINUOUS
 10
103.71931337
 20
182.2496906876
 11
103.1498127225
 21
181.8938274076
  0
LINE
  5
219
100
AcDbEntity
  8
BEZUGSACHSEN
100
AcDbLine
 62
7
  6
CONTINUOUS
 10
103.4223887212
 20
181.4576143548
 11
103.9918893687
 21
181.8134776348
  0
LINE
  5
21A
100
AcDbEntity
  8
BEZUGSACHSEN
100
AcDbLine
 62
7
  6
CONTINUOUS
 10
104.8793945281
 20
181.660425186
 11
105.30651981
 21
181.9273225188
  0
LINE
  5
21B
100
AcDbEntity
  8
BEZUGSACHSEN
100
AcDbLine
 62
7
  6
CONTINUOUS
 10
104.530954016
 20
180.6339790301
 11
104.103828734
 21
180.3670816973
  0
LINE
  5
21C
100
AcDbEntity
  8
BEZUGSACHSEN
100
AcDbLine
 62
7
  6
CONTINUOUS
 10
104.376404701
 20
179.9308686954
 11
104.8035299829
 21
180.1977660282
  0
LINE
  5
21D
100
AcDbEntity
  8
BEZUGSACHSEN
100
AcDbLine
 62
7
  6
CONTINUOUS
 10
104.3581434967
 20
179.0096516561
 11
103.9310182148
 21
178.7427543234
  0
LINE
  5
21E
100
AcDbEntity
  8
BEZUGSACHSEN
100
AcDbLine
 62
7
  6
CONTINUOUS
 10
105.4395406997
 20
179.1799354868
 11
105.0124154178
 21
178.913038154
  0
LINE
  5
21F
100
AcDbEntity
  8
BEZUGSACHSEN
100
AcDbLine
 62
7
  6
CONTINUOUS
 10
97.3425435648
 20
175.8447626915
 11
97.6786764618
 21
176.0155076445
  0
LINE
  5
220
100
AcDbEntity
  8
BEZUGSACHSEN
100
AcDbLine
 62
7
  6
CONTINUOUS
 10
98.9561572068
 20
175.294248722
 11
98.7880896284
 21
175.2088746915
  0
LINE
  5
221
100
AcDbEntity
  8
BEZUGSACHSEN
100
AcDbLine
 62
7
  6
CONTINUOUS
 10
97.5494159491
 20
176.420847195
 11
97.0945800879
 21
176.2326225165
  0
LINE
  5
222
100
AcDbEntity
  8
BEZUGSACHSEN
100
AcDbLine
 62
7
  6
CONTINUOUS
 10
107.4548546599
 20
179.7696789086
 11
107.9252140716
 21
179.9497683768
  0
LINE
  5
223
100
AcDbEntity
  8
BEZUGSACHSEN
100
AcDbLine
 62
7
  6
CONTINUOUS
 10
110.1202248089
 20
180.7901859525
 11
110.5905842205
 21
180.9702754207
  0
LINE
  5
224
100
AcDbEntity
  8
BEZUGSACHSEN
100
AcDbLine
 62
7
  6
CONTINUOUS
 10
103.9750373666
 20
179.7811562487
 11
104.376404701
 21
179.9308686954
  0
LINE
  5
225
100
AcDbEntity
  8
BEZUGSACHSEN
100
AcDbLine
 62
7
  6
CONTINUOUS
 10
104.9548121405
 20
178.3715959336
 11
105.3561786601
 21
178.5213078712
  0
LINE
  5
226
100
AcDbEntity
  8
BEZUGSACHSEN
100
AcDbLine
 62
7
  6
CONTINUOUS
 10
104.8611332602
 20
180.7392082486
 11
104.530954016
 21
180.6339790301
  0
LINE
  5
227
100
AcDbEntity
  8
BEZUGSACHSEN
100
AcDbLine
 62
7
  6
CONTINUOUS
 10
104.103828734
 20
180.3670816973
 11
103.7736494898
 21
180.2618524788
  0
LINE
  5
228
100
AcDbEntity
  8
0
100
AcDbLine
 62
7
  6
CONTINUOUS
 10
121.2588829229
 20
110.5262553491
 11
120.7693159955
 21
110.4079573513
  0
LINE
  5
229
100
AcDbEntity
  8
0
100
AcDbLine
 62
7
  6
CONTINUOUS
 10
127.7165199131
 20
111.4112152608
 11
127.4575279444
 21
111.3504687614
  0
LINE
  5
22A
100
AcDbEntity
  8
0
100
AcDbLine
 62
7
  6
CONTINUOUS
 10
127.5076344783
 20
112.695943135
 11
127.7666264471
 21
112.7566896344
  0
LINE
  5
22B
100
AcDbEntity
  8
0
100
AcDbLine
 62
7
  6
CONTINUOUS
 10
127.2833072492
 20
110.8372454798
 11
127.6589166359
 21
110.8697730404
  0
LINE
  5
22C
100
AcDbEntity
  8
0
100
AcDbLine
 62
7
  6
CONTINUOUS
 10
128.9206211014
 20
111.8603520918
 11
128.5450125294
 21
111.8278250403
  0
LINE
  5
22D
100
AcDbEntity
  8
0
100
AcDbLine
 62
7
  6
CONTINUOUS
 10
127.9071440006
 20
109.2052705765
 11
128.3993700025
 21
109.2095786701
  0
LINE
  5
22E
100
AcDbEntity
  8
0
100
AcDbLine
 62
7
  6
CONTINUOUS
 10
127.4575279444
 20
111.3504687614
 11
127.1531066477
 21
111.362424429
  0
LINE
  5
22F
100
AcDbEntity
  8
0
100
AcDbLine
 62
7
  6
CONTINUOUS
 10
128.7464004062
 20
111.3471288102
 11
129.0508217028
 21
111.3351731426
  0
LINE
  5
230
100
AcDbEntity
  8
BEZUGSACHSEN
100
AcDbLine
 62
7
  6
CONTINUOUS
 10
95.281248854
 20
112.9661189083
 11
81.1948088171
 21
135.6410140429
  0
LINE
  5
231
100
AcDbEntity
  8
BEZUGSACHSEN
100
AcDbLine
 62
7
  6
CENTER
 10
85.7220941064
 20
145.8044906445
 11
85.7220941064
 21
141.5544906445
  0
LINE
  5
232
100
AcDbEntity
  8
BEZUGSACHSEN
100
AcDbLine
 62
7
  6
CENTER
 10
85.7220941064
 20
145.8044906445
 11
85.7220941064
 21
150.0544906445
  0
LINE
  5
233
100
AcDbEntity
  8
BEZUGSACHSEN
100
AcDbLine
 62
7
  6
CONTINUOUS
 10
96.4822353327
 20
175.5362060811
 11
96.3047516211
 21
175.1463216193
  0
LINE
  5
234
100
AcDbEntity
  8
RUNDUNGEN
100
AcDbLine
 62
7
  6
CONTINUOUS
 10
83.7984030621
 20
156.3872320583
 11
80.8183382393
 21
152.1312584216
  0
LINE
  5
235
100
AcDbEntity
  8
BEZUGSACHSEN
100
AcDbLine
 62
7
  6
CONTINUOUS
 10
96.7784208665
 20
175.9435687234
 11
96.4822353327
 21
175.5362060811
  0
LINE
  5
236
100
AcDbEntity
  8
BEZUGSACHSEN
100
AcDbLine
 62
7
  6
CONTINUOUS
 10
96.8782904527
 20
175.3520260189
 11
97.0757478519
 21
175.6236016317
  0
LINE
  5
237
100
AcDbEntity
  8
BEZUGSACHSEN
100
AcDbLine
 62
7
  6
CONTINUOUS
 10
98.2544993323
 20
174.7665541258
 11
98.0570419332
 21
174.494978513
  0
LINE
  5
238
100
AcDbEntity
  8
BEZUGSACHSEN
100
AcDbLine
 62
7
  6
CONTINUOUS
 10
98.3343951884
 20
174.2933203013
 11
98.5318525876
 21
174.5648959141
  0
LINE
  5
239
100
AcDbEntity
  8
BEZUGSACHSEN
100
AcDbLine
 62
7
  6
CONTINUOUS
 10
105.7121166666
 20
178.7437224849
 11
105.9514372552
 21
178.9943560374
  0
LINE
  5
23A
100
AcDbEntity
  8
BEZUGSACHSEN
100
AcDbLine
 62
7
  6
CONTINUOUS
 10
99.4743407573
 20
172.9455607508
 11
99.7904999727
 21
173.2346145483
  0
LINE
  5
23B
100
AcDbEntity
  8
BEZUGSACHSEN
100
AcDbLine
 62
7
  6
CONTINUOUS
 10
98.0570419332
 20
174.494978513
 11
97.7902473501
 21
174.2738190071
  0
LINE
  5
23C
100
AcDbEntity
  8
BEZUGSACHSEN
100
AcDbLine
 62
7
  6
CONTINUOUS
 10
98.5318525876
 20
174.5648959141
 11
98.7986483006
 21
174.7860569739
  0
LINE
  5
23D
100
AcDbEntity
  8
BEZUGSACHSEN
100
AcDbLine
 62
7
  6
CONTINUOUS
 10
99.4438084036
 20
173.486687313
 11
99.1770138205
 21
173.2655278071
  0
LINE
  5
23E
100
AcDbEntity
  8
BEZUGSACHSEN
100
AcDbLine
 62
7
  6
CONTINUOUS
 10
105.3561786601
 20
178.5213078712
 11
105.7121166666
 21
178.7437224849
  0
LINE
  5
23F
100
AcDbEntity
  8
BEZUGSACHSEN
100
AcDbLine
 62
7
  6
CONTINUOUS
 10
97.7902473501
 20
174.2738190071
 11
97.4541133233
 21
174.1030725002
  0
LINE
  5
240
100
AcDbEntity
  8
BEZUGSACHSEN
100
AcDbLine
 62
7
  6
CONTINUOUS
 10
97.6327384439
 20
173.765627259
 11
97.8008048923
 21
173.8509997355
  0
LINE
  5
241
100
AcDbEntity
  8
BEZUGSACHSEN
100
AcDbLine
 62
7
  6
CONTINUOUS
 10
99.0195049143
 20
172.7573360591
 11
99.4743407573
 21
172.9455607508
  0
LINE
  5
242
100
AcDbEntity
  8
BEZUGSACHSEN
100
AcDbLine
 62
7
  6
CONTINUOUS
 10
98.7986483006
 20
174.7860569739
 11
99.2041195113
 21
174.9063873739
  0
LINE
  5
243
100
AcDbEntity
  8
BEZUGSACHSEN
100
AcDbLine
 62
7
  6
CONTINUOUS
 10
97.2272661033
 20
173.6452953051
 11
97.6327384439
 21
173.765627259
  0
LINE
  5
244
100
AcDbEntity
  8
BEZUGSACHSEN
100
AcDbLine
 62
7
  6
CONTINUOUS
 10
99.1770138205
 20
173.2655278071
 11
98.7715414799
 21
173.1451958532
  0
LINE
  5
245
100
AcDbEntity
  8
0
100
AcDbLine
 62
7
  6
CONTINUOUS
 10
134.6145262143
 20
115.1356964494
 11
134.9706339469
 21
115.188134094
  0
LINE
  5
246
100
AcDbEntity
  8
0
100
AcDbLine
 62
7
  6
CONTINUOUS
 10
133.207784981
 20
116.2622949047
 11
133.5638926893
 21
116.314732567
  0
LINE
  5
247
100
AcDbEntity
  8
0
100
AcDbLine
 62
7
  6
CONTINUOUS
 10
134.8413734343
 20
115.5934736445
 11
134.4159273636
 21
115.5914505705
  0
LINE
  5
248
100
AcDbEntity
  8
0
100
AcDbLine
 62
7
  6
CONTINUOUS
 10
127.9862764701
 20
113.197210749
 11
127.5652377556
 21
113.2373853554
  0
LINE
  5
249
100
AcDbEntity
  8
0
100
AcDbLine
 62
7
  6
CONTINUOUS
 10
128.1979812831
 20
109.6902744357
 11
127.8481306269
 21
109.7749323211
  0
LINE
  5
24A
100
AcDbEntity
  8
0
100
AcDbLine
 62
7
  6
CONTINUOUS
 10
126.8168400215
 20
110.9501227622
 11
127.2833072492
 21
110.8372454798
  0
LINE
  5
24B
100
AcDbEntity
  8
BEZUGSACHSEN
100
AcDbLine
 62
7
  6
CONTINUOUS
 10
87.420024948
 20
161.4301630725
 11
87.420024948
 21
161.4675127725
  0
LINE
  5
24C
100
AcDbEntity
  8
RUNDUNGEN
100
AcDbLine
 62
7
  6
CONTINUOUS
 10
89.538294932
 20
137.2119219016
 11
89.538294932
 21
155.6797550055
  0
LINE
  5
24D
100
AcDbEntity
  8
BEZUGSACHSEN
100
AcDbLine
 62
7
  6
CONTINUOUS
 10
89.7979557896
 20
138.0671020585
 11
89.7979557896
 21
151.4471361457
  0
LINE
  5
24E
100
AcDbEntity
  8
BEZUGSACHSEN
100
AcDbLine
 62
7
  6
CONTINUOUS
 10
96.7501724972
 20
175.0300374071
 11
96.8782904527
 21
175.3520260189
  0
LINE
  5
24F
100
AcDbEntity
  8
BEZUGSACHSEN
100
AcDbLine
 62
7
  6
CONTINUOUS
 10
98.3826184177
 20
175.0885442915
 11
98.2544993323
 21
174.7665541258
  0
LINE
  5
250
100
AcDbEntity
  8
BEZUGSACHSEN
100
AcDbLine
 62
7
  6
CONTINUOUS
 10
98.2062772329
 20
173.9713316895
 11
98.3343951884
 21
174.2933203013
  0
LINE
  5
251
100
AcDbEntity
  8
BEZUGSACHSEN
100
AcDbLine
 62
7
  6
CONTINUOUS
 10
103.0603641792
 20
180.928127751
 11
103.1830681327
 21
181.2069808023
  0
LINE
  5
252
100
AcDbEntity
  8
BEZUGSACHSEN
100
AcDbLine
 62
7
  6
CONTINUOUS
 10
99.9879573719
 20
173.5061901611
 11
100.1654399596
 21
173.8960730646
  0
LINE
  5
253
100
AcDbEntity
  8
BEZUGSACHSEN
100
AcDbLine
 62
7
  6
CONTINUOUS
 10
102.8393040478
 20
181.5987106205
 11
102.645412799
 21
181.275374882
  0
LINE
  5
254
100
AcDbEntity
  8
BEZUGSACHSEN
100
AcDbLine
 62
7
  6
CONTINUOUS
 10
99.6412658028
 20
173.7582629258
 11
99.4438084036
 21
173.486687313
  0
LINE
  5
255
100
AcDbEntity
  8
BEZUGSACHSEN
100
AcDbLine
 62
7
  6
CONTINUOUS
 10
99.7904999727
 20
173.2346145483
 11
99.9879573719
 21
173.5061901611
  0
LINE
  5
256
100
AcDbEntity
  8
BEZUGSACHSEN
100
AcDbLine
 62
7
  6
CONTINUOUS
 10
105.6076740128
 20
179.3860863202
 11
105.4395406997
 21
179.1799354868
  0
LINE
  5
257
100
AcDbEntity
  8
0
100
AcDbLine
 62
7
  6
CONTINUOUS
 10
133.8566526901
 20
118.9040828922
 11
133.5005449817
 21
118.8516452299
  0
LINE
  5
258
100
AcDbEntity
  8
0
100
AcDbLine
 62
7
  6
CONTINUOUS
 10
135.0659365728
 20
117.5059087888
 11
135.4913826921
 21
117.5079318275
  0
LINE
  5
259
100
AcDbEntity
  8
0
100
AcDbLine
 62
7
  6
CONTINUOUS
 10
133.3159303848
 20
116.7025939151
 11
133.0091861788
 21
116.7180489905
  0
LINE
  5
25A
100
AcDbEntity
  8
0
100
AcDbLine
 62
7
  6
CONTINUOUS
 10
133.7485084161
 20
118.4637854358
 11
134.0552516864
 21
118.4483286652
  0
LINE
  5
25B
100
AcDbEntity
  8
0
100
AcDbLine
 62
7
  6
CONTINUOUS
 10
129.3870883291
 20
111.7474748094
 11
128.9206211014
 21
111.8603520918
  0
LINE
  5
25C
100
AcDbEntity
  8
0
100
AcDbLine
 62
7
  6
CONTINUOUS
 10
127.7666264471
 20
112.7566896344
 11
127.9998604683
 21
112.7002512477
  0
LINE
  5
25D
100
AcDbEntity
  8
0
100
AcDbLine
 62
7
  6
CONTINUOUS
 10
127.4664346728
 20
109.4353328214
 11
127.9071440006
 21
109.2052705765
  0
LINE
  5
25E
100
AcDbEntity
  8
BEZUGSACHSEN
100
AcDbLine
 62
7
  6
CONTINUOUS
 10
96.6913917257
 20
174.6576326884
 11
96.7501724972
 21
175.0300374071
  0
LINE
  5
25F
100
AcDbEntity
  8
BEZUGSACHSEN
100
AcDbLine
 62
7
  6
CONTINUOUS
 10
97.8008048923
 20
173.8509997355
 11
97.7714150715
 21
173.6647981532
  0
LINE
  5
260
100
AcDbEntity
  8
BEZUGSACHSEN
100
AcDbLine
 62
7
  6
CONTINUOUS
 10
99.7693848882
 20
174.0802530915
 11
99.6412658028
 21
173.7582629258
  0
LINE
  5
261
100
AcDbEntity
  8
BEZUGSACHSEN
100
AcDbLine
 62
7
  6
CONTINUOUS
 10
105.7303779982
 20
179.6649393205
 11
105.6076740128
 21
179.3860863202
  0
LINE
  5
262
100
AcDbEntity
  8
BEZUGSACHSEN
100
AcDbLine
 62
7
  6
CONTINUOUS
 10
105.9514372552
 20
178.9943560374
 11
106.1453293306
 21
179.3176922659
  0
LINE
  5
263
100
AcDbEntity
  8
0
100
AcDbLine
 62
7
  6
CONTINUOUS
 10
132.8317035911
 20
116.328166087
 11
133.207784981
 21
116.2622949047
  0
LINE
  5
264
100
AcDbEntity
  8
0
100
AcDbLine
 62
7
  6
CONTINUOUS
 10
134.1691053322
 20
115.251980666
 11
134.6145262143
 21
115.1356964494
  0
LINE
  5
265
100
AcDbEntity
  8
0
100
AcDbLine
 62
7
  6
CONTINUOUS
 10
128.3815564224
 20
113.0398507475
 11
127.9862764701
 21
113.197210749
  0
LINE
  5
266
100
AcDbEntity
  8
0
100
AcDbLine
 62
7
  6
CONTINUOUS
 10
129.0508217028
 20
111.3351731426
 11
129.3294851155
 21
111.2060324871
  0
LINE
  5
267
100
AcDbEntity
  8
BEZUGSACHSEN
100
AcDbLine
 62
7
  6
CONTINUOUS
 10
96.3047516211
 20
175.1463216193
 11
96.2659456792
 21
174.6556095967
  0
LINE
  5
268
100
AcDbEntity
  8
BEZUGSACHSEN
100
AcDbLine
 62
7
  6
CONTINUOUS
 10
98.4413980594
 20
175.4609474562
 11
98.3826184177
 21
175.0885442915
  0
LINE
  5
269
100
AcDbEntity
  8
BEZUGSACHSEN
100
AcDbLine
 62
7
  6
CONTINUOUS
 10
98.7880896284
 20
175.2088746915
 11
98.8174805791
 21
175.3950778279
  0
LINE
  5
26A
100
AcDbEntity
  8
BEZUGSACHSEN
100
AcDbLine
 62
7
  6
CONTINUOUS
 10
102.645412799
 20
181.275374882
 11
102.5423802098
 21
180.8066348031
  0
LINE
  5
26B
100
AcDbEntity
  8
0
100
AcDbLine
 62
7
  6
CONTINUOUS
 10
135.7382035936
 20
117.847400178
 11
135.2927837928
 21
117.9636859839
  0
LINE
  5
26C
100
AcDbEntity
  8
0
100
AcDbLine
 62
7
  6
CONTINUOUS
 10
134.3020737179
 20
118.7877985697
 11
133.8566526901
 21
118.9040828922
  0
LINE
  5
26D
100
AcDbEntity
  8
0
100
AcDbLine
 62
7
  6
CONTINUOUS
 10
129.7111810696
 20
111.5456319869
 11
129.3870883291
 21
111.7474748094
  0
LINE
  5
26E
100
AcDbEntity
  8
0
100
AcDbLine
 62
7
  6
CONTINUOUS
 10
127.9998604683
 20
112.7002512477
 11
128.1619063993
 21
112.5993296328
  0
LINE
  5
26F
100
AcDbEntity
  8
0
100
AcDbLine
 62
7
  6
CONTINUOUS
 10
127.8481306269
 20
109.7749323211
 11
127.640655368
 21
109.948556103
  0
LINE
  5
270
100
AcDbEntity
  8
0
100
AcDbLine
 62
7
  6
CONTINUOUS
 10
127.1531066477
 20
111.362424429
 11
126.9456313889
 21
111.5360482108
  0
LINE
  5
271
100
AcDbEntity
  8
BEZUGSACHSEN
100
AcDbLine
 62
7
  6
CONTINUOUS
 10
98.2168347752
 20
173.5485124179
 11
98.2062772329
 21
173.9713316895
  0
LINE
  5
272
100
AcDbEntity
  8
BEZUGSACHSEN
100
AcDbLine
 62
7
  6
CONTINUOUS
 10
98.8174805791
 20
175.3950778279
 11
98.806921907
 21
175.8178955455
  0
LINE
  5
273
100
AcDbEntity
  8
BEZUGSACHSEN
100
AcDbLine
 62
7
  6
CONTINUOUS
 10
99.758826216
 20
174.5030708092
 11
99.7693848882
 21
174.0802530915
  0
LINE
  5
274
100
AcDbEntity
  8
BEZUGSACHSEN
100
AcDbLine
 62
7
  6
CONTINUOUS
 10
101.428024948
 20
138.0671020476
 11
101.428024948
 21
161.4675127725
  0
LINE
  5
275
100
AcDbEntity
  8
RUNDUNGEN
100
AcDbLine
 62
7
  6
CONTINUOUS
 10
101.510424948
 20
137.2119219016
 11
101.510424948
 21
155.6797550055
  0
LINE
  5
276
100
AcDbEntity
  8
BEZUGSACHSEN
100
AcDbLine
 62
7
  6
CONTINUOUS
 10
100.1654399596
 20
173.8960730646
 11
100.2042470496
 21
174.3867866279
  0
LINE
  5
277
100
AcDbEntity
  8
BEZUGSACHSEN
100
AcDbLine
 62
7
  6
CONTINUOUS
 10
106.1453293306
 20
179.3176922659
 11
106.2483619357
 21
179.7864323193
  0
LINE
  5
278
100
AcDbEntity
  8
0
100
AcDbLine
 62
7
  6
CONTINUOUS
 10
128.5890316813
 20
112.8662269656
 11
128.3815564224
 21
113.0398507475
  0
LINE
  5
279
100
AcDbEntity
  8
0
100
AcDbLine
 62
7
  6
CONTINUOUS
 10
127.213530086
 20
109.6816587702
 11
127.4664346728
 21
109.4353328214
  0
LINE
  5
27A
100
AcDbEntity
  8
0
100
AcDbLine
 62
7
  6
CONTINUOUS
 10
126.5639354347
 20
111.196448711
 11
126.8168400215
 21
110.9501227622
  0
LINE
  5
27B
100
AcDbEntity
  8
0
100
AcDbLine
 62
7
  6
CONTINUOUS
 10
124.7541252674
 20
107.9564959745
 11
122.3998250872
 21
110.8187953365
  0
LINE
  5
27C
100
AcDbEntity
  8
0
100
AcDbLine
 62
7
  6
CONTINUOUS
 10
121.9294656755
 20
110.6387058683
 11
124.6244733353
 21
107.3560692142
  0
LINE
  5
27D
100
AcDbEntity
  8
BEZUGSACHSEN
100
AcDbLine
 62
7
  6
CONTINUOUS
 10
96.2659456792
 20
174.6556095967
 11
96.325867878
 21
174.3006845992
  0
LINE
  5
27E
100
AcDbEntity
  8
BEZUGSACHSEN
100
AcDbLine
 62
7
  6
CONTINUOUS
 10
103.0542767971
 20
180.6210553028
 11
103.0603641792
 21
180.928127751
  0
LINE
  5
27F
100
AcDbEntity
  8
BEZUGSACHSEN
100
AcDbLine
 62
7
  6
CONTINUOUS
 10
125.7571835699
 20
134.6875127725
 11
129.7679440349
 21
134.6875127725
  0
LINE
  5
280
100
AcDbEntity
  8
BEZUGSACHSEN
100
AcDbLine
 62
7
  6
CONTINUOUS
 10
144.2234358771
 20
134.6875127725
 11
147.948842749
 21
134.6875127725
  0
LINE
  5
281
100
AcDbEntity
  8
0
100
AcDbLine
 62
7
  6
CONTINUOUS
 10
133.9610903907
 20
115.4032243248
 11
134.1691053322
 21
115.251980666
  0
LINE
  5
282
100
AcDbEntity
  8
0
100
AcDbLine
 62
7
  6
CONTINUOUS
 10
132.6236886496
 20
116.4794097459
 11
132.8317035911
 21
116.328166087
  0
LINE
  5
283
100
AcDbEntity
  8
0
100
AcDbLine
 62
7
  6
CONTINUOUS
 10
134.4159273636
 20
115.5914505705
 11
134.2079124221
 21
115.7426942293
  0
LINE
  5
284
100
AcDbEntity
  8
0
100
AcDbLine
 62
7
  6
CONTINUOUS
 10
133.0091861788
 20
116.7180489905
 11
132.8705095512
 21
116.8188780964
  0
LINE
  5
285
100
AcDbEntity
  8
0
100
AcDbLine
 62
7
  6
CONTINUOUS
 10
134.0552516864
 20
118.4483286652
 11
134.1939283141
 21
118.3474995593
  0
LINE
  5
286
100
AcDbEntity
  8
0
100
AcDbLine
 62
7
  6
CONTINUOUS
 10
135.4913826921
 20
117.5079318275
 11
135.6993976335
 21
117.3566881687
  0
LINE
  5
287
100
AcDbEntity
  8
0
100
AcDbLine
 62
7
  6
CONTINUOUS
 10
134.5100886593
 20
118.6365549109
 11
134.3020737179
 21
118.7877985697
  0
LINE
  5
288
100
AcDbEntity
  8
0
100
AcDbLine
 62
7
  6
CONTINUOUS
 10
135.9462185351
 20
117.6961565192
 11
135.7382035936
 21
117.847400178
  0
LINE
  5
289
100
AcDbEntity
  8
BEZUGSACHSEN
100
AcDbLine
 62
7
  6
CONTINUOUS
 10
97.7714150715
 20
173.6647981532
 11
97.831337246
 21
173.3098731733
  0
LINE
  5
28A
100
AcDbEntity
  8
BEZUGSACHSEN
100
AcDbLine
 62
7
  6
CONTINUOUS
 10
100.2042470496
 20
174.3867866279
 11
100.1443248751
 21
174.7417116078
  0
LINE
  5
28B
100
AcDbEntity
  8
BEZUGSACHSEN
100
AcDbLine
 62
7
  6
CONTINUOUS
 10
102.5423802098
 20
180.8066348031
 11
102.5817221873
 21
180.426860137
  0
LINE
  5
28C
100
AcDbEntity
  8
BEZUGSACHSEN
100
AcDbLine
 62
7
  6
CONTINUOUS
 10
107.268430828
 20
184.012792841
 11
107.4548546599
 21
179.7696789086
  0
LINE
  5
28D
100
AcDbEntity
  8
0
100
AcDbLine
 62
7
  6
CONTINUOUS
 10
107.260024948
 20
155.6778771047
 11
107.260024948
 21
149.0544906445
  0
LINE
  5
28E
100
AcDbEntity
  8
0
100
AcDbLine
 62
7
  6
CONTINUOUS
 10
107.260024948
 20
142.5544906445
 11
107.260024948
 21
133.3636710971
  0
LINE
  5
28F
100
AcDbEntity
  8
RUNDUNGEN
100
AcDbLine
 62
7
  6
CONTINUOUS
 10
100.2687401967
 20
135.9702409885
 11
90.7799579212
 21
135.9702409885
  0
LINE
  5
290
100
AcDbEntity
  8
BEZUGSACHSEN
100
AcDbLine
 62
7
  6
CONTINUOUS
 10
91.0396367027
 20
136.8253931325
 11
100.1863440349
 21
136.8253931325
  0
LINE
  5
291
100
AcDbEntity
  8
0
100
AcDbLine
 62
7
  6
CONTINUOUS
 10
126.3822179962
 20
111.4872575826
 11
126.5639354347
 21
111.196448711
  0
LINE
  5
292
100
AcDbEntity
  8
0
100
AcDbLine
 62
7
  6
CONTINUOUS
 10
126.9456313889
 20
111.5360482108
 11
126.8547727332
 21
111.6814525448
  0
LINE
  5
293
100
AcDbEntity
  8
0
100
AcDbLine
 62
7
  6
CONTINUOUS
 10
129.3294851155
 20
111.2060324871
 11
129.4657730989
 21
110.9879259862
  0
LINE
  5
294
100
AcDbEntity
  8
BEZUGSACHSEN
100
AcDbLine
 62
7
  6
CONTINUOUS
 10
96.8206522626
 20
174.2522931203
 11
96.6913917257
 21
174.6576326884
  0
LINE
  5
295
100
AcDbEntity
  8
BEZUGSACHSEN
100
AcDbLine
 62
7
  6
CONTINUOUS
 10
98.3121374739
 20
175.8662870597
 11
98.4413980594
 21
175.4609474562
  0
LINE
  5
296
100
AcDbEntity
  8
BEZUGSACHSEN
100
AcDbLine
 62
7
  6
CONTINUOUS
 10
107.9252140716
 20
179.9497683768
 11
107.7659246287
 21
183.6524853145
  0
LINE
  5
297
100
AcDbEntity
  8
0
100
AcDbLine
 62
7
  6
CONTINUOUS
 10
129.9383277087
 20
111.182121152
 11
129.7111810696
 21
111.5456319869
  0
LINE
  5
298
100
AcDbEntity
  8
BEZUGSACHSEN
100
AcDbLine
 62
7
  6
CONTINUOUS
 10
97.831337246
 20
173.3098731733
 11
98.0099612367
 21
172.9724263781
  0
LINE
  5
299
100
AcDbEntity
  8
BEZUGSACHSEN
100
AcDbLine
 62
7
  6
CONTINUOUS
 10
98.326121582
 20
173.2614817297
 11
98.2168347752
 21
173.5485124179
  0
LINE
  5
29A
100
AcDbEntity
  8
BEZUGSACHSEN
100
AcDbLine
 62
7
  6
CONTINUOUS
 10
99.6495403449
 20
174.7901031926
 11
99.758826216
 21
174.5030708092
  0
LINE
  5
29B
100
AcDbEntity
  8
0
100
AcDbLine
 62
7
  6
CONTINUOUS
 10
120.7693159955
 20
110.4079573513
 11
121.7156999775
 21
106.4914219319
  0
LINE
  5
29C
100
AcDbEntity
  8
0
100
AcDbLine
 62
7
  6
CONTINUOUS
 10
122.2052669049
 20
106.6097199296
 11
121.2588829229
 21
110.5262553491
  0
LINE
  5
29D
100
AcDbEntity
  8
T_STARTBEZUEGE
100
AcDbLine
 62
7
  6
CENTER
 10
116.260024948
 20
98.3014685165
 11
116.260024948
 21
193.3075127725
  0
LINE
  5
29E
100
AcDbEntity
  8
0
100
AcDbLine
 62
7
  6
CONTINUOUS
 10
89.538294932
 20
142.5544906445
 11
89.7979557896
 21
142.5544906445
  0
LINE
  5
29F
100
AcDbEntity
  8
0
100
AcDbLine
 62
7
  6
CONTINUOUS
 10
101.428024948
 20
142.5544906445
 11
101.510424948
 21
142.5544906445
  0
LINE
  5
2A0
100
AcDbEntity
  8
0
100
AcDbLine
 62
7
  6
CONTINUOUS
 10
107.260024948
 20
142.5544906445
 11
124.500024948
 21
142.5544906445
  0
LINE
  5
2A1
100
AcDbEntity
  8
0
100
AcDbLine
 62
7
  6
CONTINUOUS
 10
131.009624948
 20
142.5544906445
 11
131.092024948
 21
142.5544906445
  0
LINE
  5
2A2
100
AcDbEntity
  8
0
100
AcDbLine
 62
7
  6
CONTINUOUS
 10
142.7220941064
 20
142.5544906445
 11
142.981754964
 21
142.5544906445
  0
LINE
  5
2A3
100
AcDbEntity
  8
BEZUGSACHSEN
100
AcDbLine
 62
7
  6
CENTER
 10
146.7979557896
 20
145.8044906445
 11
142.5479557896
 21
145.8044906445
  0
LINE
  5
2A4
100
AcDbEntity
  8
BEZUGSACHSEN
100
AcDbLine
 62
7
  6
CENTER
 10
85.7220941064
 20
145.8044906445
 11
81.4720941064
 21
145.8044906445
  0
LINE
  5
2A5
100
AcDbEntity
  8
T_STARTBEZUEGE
100
AcDbLine
 62
7
  6
CENTER
 10
77.2583696287
 20
145.8044906445
 11
155.5176802673
 21
145.8044906445
  0
LINE
  5
2A6
100
AcDbEntity
  8
BEZUGSACHSEN
100
AcDbLine
 62
7
  6
CENTER
 10
85.7220941064
 20
145.8044906445
 11
89.9720941064
 21
145.8044906445
  0
LINE
  5
2A7
100
AcDbEntity
  8
BEZUGSACHSEN
100
AcDbLine
 62
7
  6
CENTER
 10
146.7979557896
 20
145.8044906445
 11
151.0479557896
 21
145.8044906445
  0
LINE
  5
2A8
100
AcDbEntity
  8
0
100
AcDbLine
 62
7
  6
CONTINUOUS
 10
132.375725021
 20
116.8672696812
 11
132.6236886496
 21
116.4794097459
  0
LINE
  5
2A9
100
AcDbEntity
  8
0
100
AcDbLine
 62
7
  6
CONTINUOUS
 10
133.7131279891
 20
115.7910857435
 11
133.9610903907
 21
115.4032243248
  0
LINE
  5
2AA
100
AcDbEntity
  8
BEZUGSACHSEN
100
AcDbLine
 62
7
  6
CONTINUOUS
 10
96.325867878
 20
174.3006845992
 11
96.573831361
 21
173.9128247698
  0
LINE
  5
2AB
100
AcDbEntity
  8
0
100
AcDbLine
 62
7
  6
CONTINUOUS
 10
126.2716879603
 20
111.8225489697
 11
126.3822179962
 21
111.4872575826
  0
LINE
  5
2AC
100
AcDbEntity
  8
BEZUGSACHSEN
100
AcDbLine
 62
7
  6
CONTINUOUS
 10
105.6652771628
 20
179.9275287442
 11
105.7303779982
 21
179.6649393205
  0
LINE
  5
2AD
100
AcDbEntity
  8
0
100
AcDbLine
 62
7
  6
CONTINUOUS
 10
89.538294932
 20
149.0544906445
 11
89.7979557896
 21
149.0544906445
  0
LINE
  5
2AE
100
AcDbEntity
  8
0
100
AcDbLine
 62
7
  6
CONTINUOUS
 10
101.428024948
 20
149.0544906445
 11
101.510424948
 21
149.0544906445
  0
LINE
  5
2AF
100
AcDbEntity
  8
0
100
AcDbLine
 62
7
  6
CONTINUOUS
 10
107.260024948
 20
149.0544906445
 11
124.500024948
 21
149.0544906445
  0
LINE
  5
2B0
100
AcDbEntity
  8
0
100
AcDbLine
 62
7
  6
CONTINUOUS
 10
131.009624948
 20
149.0544906445
 11
131.092024948
 21
149.0544906445
  0
LINE
  5
2B1
100
AcDbEntity
  8
0
100
AcDbLine
 62
7
  6
CONTINUOUS
 10
142.7220941064
 20
149.0544906445
 11
142.981754964
 21
149.0544906445
  0
LINE
  5
2B2
100
AcDbEntity
  8
0
100
AcDbLine
 62
7
  6
CONTINUOUS
 10
136.194182018
 20
117.3082966898
 11
135.9462185351
 21
117.6961565192
  0
LINE
  5
2B3
100
AcDbEntity
  8
BEZUGSACHSEN
100
AcDbLine
 62
7
  6
CONTINUOUS
 10
98.806921907
 20
175.8178955455
 11
98.5589595053
 21
176.2057569642
  0
LINE
  5
2B4
100
AcDbEntity
  8
BEZUGSACHSEN
100
AcDbLine
 62
7
  6
CONTINUOUS
 10
100.1443248751
 20
174.7417116078
 11
99.8963612464
 21
175.1295715431
  0
LINE
  5
2B5
100
AcDbEntity
  8
0
100
AcDbLine
 62
7
  6
CONTINUOUS
 10
134.68871265
 20
118.2991081157
 11
134.5100886593
 21
118.6365549109
  0
LINE
  5
2B6
100
AcDbEntity
  8
BEZUGSACHSEN
100
AcDbLine
 62
7
  6
CONTINUOUS
 10
106.2483619357
 20
179.7864323193
 11
106.1378318999
 21
180.1217237063
  0
LINE
  5
2B7
100
AcDbEntity
  8
0
100
AcDbLine
 62
7
  6
CONTINUOUS
 10
126.8547727332
 20
111.6814525448
 11
126.7896718979
 21
111.9440419685
  0
LINE
  5
2B8
100
AcDbEntity
  8
BEZUGSACHSEN
100
AcDbLine
 62
7
  6
CONTINUOUS
 10
110.3147829911
 20
184.9992613594
 11
111.2611669731
 21
181.0827259399
  0
LINE
  5
2B9
100
AcDbEntity
  8
BEZUGSACHSEN
100
AcDbLine
 62
7
  6
CONTINUOUS
 10
111.7507339006
 20
181.2010239377
 11
110.8043499186
 21
185.1175593571
  0
LINE
  5
2BA
100
AcDbEntity
  8
0
100
AcDbLine
 62
7
  6
CONTINUOUS
 10
125.251619068
 20
107.5961884479
 11
125.0651952361
 21
111.8393023804
  0
LINE
  5
2BB
100
AcDbEntity
  8
0
100
AcDbLine
 62
7
  6
CONTINUOUS
 10
124.5948358244
 20
111.6592129122
 11
124.7541252674
 21
107.9564959745
  0
LINE
  5
2BC
100
AcDbEntity
  8
BEZUGSACHSEN
100
AcDbLine
 62
7
  6
CONTINUOUS
 10
124.500024948
 20
135.9311041843
 11
124.500024948
 21
142.5544906445
  0
LINE
  5
2BD
100
AcDbEntity
  8
BEZUGSACHSEN
100
AcDbLine
 62
7
  6
CONTINUOUS
 10
124.500024948
 20
149.0544906445
 11
124.500024948
 21
156.8477217163
  0
LINE
  5
2BE
100
AcDbEntity
  8
BEZUGSACHSEN
100
AcDbLine
 62
7
  6
CONTINUOUS
 10
102.5817221873
 20
180.426860137
 11
102.8088688265
 21
180.0633493021
  0
LINE
  5
2BF
100
AcDbEntity
  8
BEZUGSACHSEN
100
AcDbLine
 62
7
  6
CONTINUOUS
 10
103.1905647806
 20
180.4029488018
 11
103.0542767971
 21
180.6210553028
  0
LINE
  5
2C0
100
AcDbEntity
  8
0
100
AcDbLine
 62
7
  6
CONTINUOUS
 10
132.8705095512
 20
116.8188780964
 11
132.76122368
 21
117.1059104798
  0
LINE
  5
2C1
100
AcDbEntity
  8
0
100
AcDbLine
 62
7
  6
CONTINUOUS
 10
134.1939283141
 20
118.3474995593
 11
134.3032151209
 21
118.0604688711
  0
LINE
  5
2C2
100
AcDbEntity
  8
0
100
AcDbLine
 62
7
  6
CONTINUOUS
 10
134.2079124221
 20
115.7426942293
 11
134.0786518367
 21
116.1480338327
  0
LINE
  5
2C3
100
AcDbEntity
  8
0
100
AcDbLine
 62
7
  6
CONTINUOUS
 10
129.9776696863
 20
110.8023464859
 11
129.9383277087
 21
111.182121152
  0
LINE
  5
2C4
100
AcDbEntity
  8
0
100
AcDbLine
 62
7
  6
CONTINUOUS
 10
141.4804131933
 20
154.7835881565
 11
132.3337058611
 21
154.7835881565
  0
LINE
  5
2C5
100
AcDbEntity
  8
BEZUGSACHSEN
100
AcDbLine
 62
7
  6
CONTINUOUS
 10
132.2513058611
 20
155.6387403005
 11
141.740074051
 21
155.6387403005
  0
LINE
  5
2C6
100
AcDbEntity
  8
BEZUGSACHSEN
100
AcDbLine
 62
7
  6
CONTINUOUS
 10
106.0028663262
 20
156.9214685165
 11
102.7521058611
 21
156.9214685165
  0
LINE
  5
2C7
100
AcDbEntity
  8
BEZUGSACHSEN
100
AcDbLine
 62
7
  6
CONTINUOUS
 10
88.2966140189
 20
156.9214685165
 11
84.827207147
 21
156.9214685165
  0
LINE
  5
2C8
100
AcDbEntity
  8
BEZUGSACHSEN
100
AcDbLine
 62
7
  6
CONTINUOUS
 10
96.573831361
 20
173.9128247698
 11
96.7818463024
 21
173.761581111
  0
LINE
  5
2C9
100
AcDbEntity
  8
BEZUGSACHSEN
100
AcDbLine
 62
7
  6
CONTINUOUS
 10
98.0099612367
 20
172.9724263781
 11
98.2179761782
 21
172.8211827193
  0
LINE
  5
2CA
100
AcDbEntity
  8
BEZUGSACHSEN
100
AcDbLine
 62
7
  6
CONTINUOUS
 10
97.028667204
 20
174.1010494615
 11
96.8206522626
 21
174.2522931203
  0
LINE
  5
2CB
100
AcDbEntity
  8
BEZUGSACHSEN
100
AcDbLine
 62
7
  6
CONTINUOUS
 10
98.4647982096
 20
173.1606526238
 11
98.326121582
 21
173.2614817297
  0
LINE
  5
2CC
100
AcDbEntity
  8
BEZUGSACHSEN
100
AcDbLine
 62
7
  6
CONTINUOUS
 10
105.5744185072
 20
180.0729330782
 11
105.6652771628
 21
179.9275287442
  0
LINE
  5
2CD
100
AcDbEntity
  8
BEZUGSACHSEN
100
AcDbLine
 62
7
  6
CONTINUOUS
 10
106.1378318999
 20
180.1217237063
 11
105.9561144613
 21
180.4125325779
  0
LINE
  5
2CE
100
AcDbEntity
  8
0
100
AcDbLine
 62
7
  6
CONTINUOUS
 10
135.6993976335
 20
117.3566881687
 11
135.8286581704
 21
116.9513486005
  0
LINE
  5
2CF
100
AcDbEntity
  8
0
100
AcDbLine
 62
7
  6
CONTINUOUS
 10
132.3158028464
 20
117.2221946611
 11
132.375725021
 21
116.8672696812
  0
LINE
  5
2D0
100
AcDbEntity
  8
0
100
AcDbLine
 62
7
  6
CONTINUOUS
 10
132.76122368
 20
117.1059104798
 11
132.7506650079
 21
117.5287281974
  0
LINE
  5
2D1
100
AcDbEntity
  8
BEZUGSACHSEN
100
AcDbLine
 62
7
  6
CONTINUOUS
 10
131.009624948
 20
135.9292262834
 11
131.009624948
 21
154.3970593874
  0
LINE
  5
2D2
100
AcDbEntity
  8
0
100
AcDbLine
 62
7
  6
CONTINUOUS
 10
131.092024948
 20
136.3978170605
 11
131.092024948
 21
130.1414685165
  0
LINE
  5
2D3
100
AcDbEntity
  8
BEZUGSACHSEN
100
AcDbLine
 62
7
  6
CONTINUOUS
 10
131.092024948
 20
136.3978170605
 11
131.092024948
 21
141.0046040207
  0
LINE
  5
2D4
100
AcDbEntity
  8
0
100
AcDbLine
 62
7
  6
CONTINUOUS
 10
131.092024948
 20
141.0046040207
 11
131.092024948
 21
150.4083807323
  0
LINE
  5
2D5
100
AcDbEntity
  8
RUNDUNGEN
100
AcDbLine
 62
7
  6
CONTINUOUS
 10
131.092024948
 20
141.0046040207
 11
131.092024948
 21
153.5418792414
  0
LINE
  5
2D6
100
AcDbEntity
  8
0
100
AcDbLine
 62
7
  6
CONTINUOUS
 10
129.4657730989
 20
110.9879259862
 11
129.4596857169
 21
110.680853538
  0
LINE
  5
2D7
100
AcDbEntity
  8
BEZUGSACHSEN
100
AcDbLine
 62
7
  6
CONTINUOUS
 10
99.5108637172
 20
174.8909322985
 11
99.6495403449
 21
174.7901031926
  0
LINE
  5
2D8
100
AcDbEntity
  8
BEZUGSACHSEN
100
AcDbLine
 62
7
  6
CONTINUOUS
 10
98.1041225325
 20
176.0175307185
 11
98.3121374739
 21
175.8662870597
  0
LINE
  5
2D9
100
AcDbEntity
  8
BEZUGSACHSEN
100
AcDbLine
 62
7
  6
CONTINUOUS
 10
99.8963612464
 20
175.1295715431
 11
99.688346305
 21
175.2808152019
  0
LINE
  5
2DA
100
AcDbEntity
  8
BEZUGSACHSEN
100
AcDbLine
 62
7
  6
CONTINUOUS
 10
98.5589595053
 20
176.2057569642
 11
98.3509445639
 21
176.357000623
  0
LINE
  5
2DB
100
AcDbEntity
  8
0
100
AcDbLine
 62
7
  6
CONTINUOUS
 10
134.7486348246
 20
117.9441831358
 11
134.68871265
 21
118.2991081157
  0
LINE
  5
2DC
100
AcDbEntity
  8
0
100
AcDbLine
 62
7
  6
CONTINUOUS
 10
136.2541042168
 20
116.9533716922
 11
136.194182018
 21
117.3082966898
  0
LINE
  5
2DD
100
AcDbEntity
  8
0
100
AcDbLine
 62
7
  6
CONTINUOUS
 10
133.7025693169
 20
116.2139034611
 11
133.7131279891
 21
115.7910857435
  0
LINE
  5
2DE
100
AcDbEntity
  8
0
100
AcDbLine
 62
7
  6
CONTINUOUS
 10
134.3032151209
 20
118.0604688711
 11
134.3137726631
 21
117.6376495995
  0
LINE
  5
2DF
100
AcDbEntity
  8
0
100
AcDbLine
 62
7
  6
CONTINUOUS
 10
132.3546099364
 20
117.7129082244
 11
132.3158028464
 21
117.2221946611
  0
LINE
  5
2E0
100
AcDbEntity
  8
0
100
AcDbLine
 62
7
  6
CONTINUOUS
 10
126.3747205654
 20
112.2912890231
 11
126.2716879603
 21
111.8225489697
  0
LINE
  5
2E1
100
AcDbEntity
  8
BEZUGSACHSEN
100
AcDbLine
 62
7
  6
CONTINUOUS
 10
103.9310182148
 20
178.7427543234
 11
104.1384934737
 21
178.5691305415
  0
LINE
  5
2E2
100
AcDbEntity
  8
BEZUGSACHSEN
100
AcDbLine
 62
7
  6
CONTINUOUS
 10
105.3669432483
 20
180.24655686
 11
105.5744185072
 21
180.0729330782
  0
LINE
  5
2E3
100
AcDbEntity
  8
BEZUGSACHSEN
100
AcDbLine
 62
7
  6
CONTINUOUS
 10
105.9561144613
 20
180.4125325779
 11
105.7032098746
 21
180.6588585268
  0
LINE
  5
2E4
100
AcDbEntity
  8
BEZUGSACHSEN
100
AcDbLine
 62
7
  6
CONTINUOUS
 10
105.30651981
 20
181.9273225188
 11
105.0536152233
 21
182.1736484676
  0
LINE
  5
2E5
100
AcDbEntity
  8
BEZUGSACHSEN
100
AcDbLine
 62
7
  6
CONTINUOUS
 10
107.7659246287
 20
183.6524853145
 11
110.1202248089
 21
180.7901859525
  0
LINE
  5
2E6
100
AcDbEntity
  8
BEZUGSACHSEN
100
AcDbLine
 62
7
  6
CONTINUOUS
 10
110.5905842205
 20
180.9702754207
 11
107.8955765607
 21
184.2529120748
  0
LINE
  5
2E7
100
AcDbEntity
  8
0
100
AcDbLine
 62
7
  6
CONTINUOUS
 10
136.2152982749
 20
116.4626596697
 11
136.2541042168
 21
116.9533716922
  0
LINE
  5
2E8
100
AcDbEntity
  8
0
100
AcDbLine
 62
7
  6
CONTINUOUS
 10
133.7319602676
 20
116.4001065974
 11
133.7025693169
 21
116.2139034611
  0
LINE
  5
2E9
100
AcDbEntity
  8
0
100
AcDbLine
 62
7
  6
CONTINUOUS
 10
134.0786518367
 20
116.1480338327
 11
134.1374314784
 21
116.5204369974
  0
LINE
  5
2EA
100
AcDbEntity
  8
0
100
AcDbLine
 62
7
  6
CONTINUOUS
 10
134.7192450037
 20
117.7579815535
 11
134.7486348246
 21
117.9441831358
  0
LINE
  5
2EB
100
AcDbEntity
  8
0
100
AcDbLine
 62
7
  6
CONTINUOUS
 10
129.8746370971
 20
110.333606407
 11
129.9776696863
 21
110.8023464859
  0
LINE
  5
2EC
100
AcDbEntity
  8
0
100
AcDbLine
 62
7
  6
CONTINUOUS
 10
126.7896718979
 20
111.9440419685
 11
126.9123758832
 21
112.2228949688
  0
LINE
  5
2ED
100
AcDbEntity
  8
BEZUGSACHSEN
100
AcDbLine
 62
7
  6
CONTINUOUS
 10
98.2179761782
 20
172.8211827193
 11
98.663397206
 21
172.7048983968
  0
LINE
  5
2EE
100
AcDbEntity
  8
BEZUGSACHSEN
100
AcDbLine
 62
7
  6
CONTINUOUS
 10
96.7818463024
 20
173.761581111
 11
97.2272661033
 21
173.6452953051
  0
LINE
  5
2EF
100
AcDbEntity
  8
BEZUGSACHSEN
100
AcDbLine
 62
7
  6
CONTINUOUS
 10
104.5201894278
 20
178.9087300413
 11
104.3581434967
 21
179.0096516561
  0
LINE
  5
2F0
100
AcDbEntity
  8
BEZUGSACHSEN
100
AcDbLine
 62
7
  6
CONTINUOUS
 10
102.8088688265
 20
180.0633493021
 11
103.1329615669
 21
179.8615064796
  0
LINE
  5
2F1
100
AcDbEntity
  8
BEZUGSACHSEN
100
AcDbLine
 62
7
  6
CONTINUOUS
 10
104.6719192692
 20
181.8340489679
 11
104.8793945281
 21
181.660425186
  0
LINE
  5
2F2
100
AcDbEntity
  8
BEZUGSACHSEN
100
AcDbLine
 62
7
  6
CONTINUOUS
 10
142.7220941064
 20
141.4071995144
 11
142.7220941064
 21
140.161845149
  0
LINE
  5
2F3
100
AcDbEntity
  8
RUNDUNGEN
100
AcDbLine
 62
7
  6
CONTINUOUS
 10
142.7220941064
 20
141.4071995144
 11
142.7220941064
 21
153.5418792305
  0
LINE
  5
2F4
100
AcDbEntity
  8
BEZUGSACHSEN
100
AcDbLine
 62
7
  6
CONTINUOUS
 10
142.981754964
 20
154.3970593874
 11
142.981754964
 21
135.9291936856
  0
LINE
  5
2F5
100
AcDbEntity
  8
0
100
AcDbLine
 62
7
  6
CONTINUOUS
 10
135.8286581704
 20
116.9513486005
 11
135.7698773989
 21
116.5789438819
  0
LINE
  5
2F6
100
AcDbEntity
  8
0
100
AcDbLine
 62
7
  6
CONTINUOUS
 10
132.7506650079
 20
117.5287281974
 11
132.8787840932
 21
117.8507183632
  0
LINE
  5
2F7
100
AcDbEntity
  8
0
100
AcDbLine
 62
7
  6
CONTINUOUS
 10
134.3137726631
 20
117.6376495995
 11
134.1856547076
 21
117.3156609877
  0
LINE
  5
2F8
100
AcDbEntity
  8
0
100
AcDbLine
 62
7
  6
CONTINUOUS
 10
129.4596857169
 20
110.680853538
 11
129.3369817634
 21
110.4020004867
  0
LINE
  5
2F9
100
AcDbEntity
  8
0
100
AcDbLine
 62
7
  6
CONTINUOUS
 10
132.5320925242
 20
118.1027911279
 11
132.3546099364
 21
117.7129082244
  0
LINE
  5
2FA
100
AcDbEntity
  8
0
100
AcDbLine
 62
7
  6
CONTINUOUS
 10
126.5686126409
 20
112.6146252516
 11
126.3747205654
 21
112.2912890231
  0
LINE
  5
2FB
100
AcDbEntity
  8
BEZUGSACHSEN
100
AcDbLine
 62
7
  6
CONTINUOUS
 10
98.7715414799
 20
173.1451958532
 11
98.4647982096
 21
173.1606526238
  0
LINE
  5
2FC
100
AcDbEntity
  8
BEZUGSACHSEN
100
AcDbLine
 62
7
  6
CONTINUOUS
 10
99.688346305
 20
175.2808152019
 11
99.3122649151
 21
175.3466863843
  0
LINE
  5
2FD
100
AcDbEntity
  8
BEZUGSACHSEN
100
AcDbLine
 62
7
  6
CONTINUOUS
 10
98.3509445639
 20
176.357000623
 11
97.9055236818
 21
176.4732848396
  0
LINE
  5
2FE
100
AcDbEntity
  8
BEZUGSACHSEN
100
AcDbLine
 62
7
  6
CONTINUOUS
 10
104.1384934737
 20
178.5691305415
 11
104.5337734259
 21
178.41177054
  0
LINE
  5
2FF
100
AcDbEntity
  8
BEZUGSACHSEN
100
AcDbLine
 62
7
  6
CONTINUOUS
 10
103.4692281932
 20
180.2738081464
 11
103.1905647806
 21
180.4029488018
  0
LINE
  5
300
100
AcDbEntity
  8
BEZUGSACHSEN
100
AcDbLine
 62
7
  6
CONTINUOUS
 10
105.0536152233
 20
182.1736484676
 11
104.6129058955
 21
182.4037107125
  0
LINE
  5
301
100
AcDbEntity
  8
RUNDUNGEN
100
AcDbLine
 62
7
  6
CONTINUOUS
 10
145.100024948
 20
130.1788182165
 11
145.100024948
 21
130.1414685165
  0
LINE
  5
302
100
AcDbEntity
  8
BEZUGSACHSEN
100
AcDbLine
 62
7
  6
CENTER
 10
146.7979557896
 20
145.8044906445
 11
146.7979557896
 21
141.5544906445
  0
LINE
  5
303
100
AcDbEntity
  8
BEZUGSACHSEN
100
AcDbLine
 62
7
  6
CENTER
 10
146.7979557896
 20
145.8044906445
 11
146.7979557896
 21
150.0544906445
  0
LINE
  5
304
100
AcDbEntity
  8
0
100
AcDbLine
 62
7
  6
CONTINUOUS
 10
134.1374314784
 20
116.5204369974
 11
134.2655505637
 21
116.8424271632
  0
LINE
  5
305
100
AcDbEntity
  8
0
100
AcDbLine
 62
7
  6
CONTINUOUS
 10
135.7698773989
 20
116.5789438819
 11
135.6417594434
 21
116.2569552701
  0
LINE
  5
306
100
AcDbEntity
  8
0
100
AcDbLine
 62
7
  6
CONTINUOUS
 10
136.0378145634
 20
116.0727752078
 11
136.2152982749
 21
116.4626596697
  0
LINE
  5
307
100
AcDbEntity
  8
0
100
AcDbLine
 62
7
  6
CONTINUOUS
 10
129.6807458483
 20
110.0102706684
 11
129.8746370971
 21
110.333606407
  0
LINE
  5
308
100
AcDbEntity
  8
0
100
AcDbLine
 62
7
  6
CONTINUOUS
 10
132.7295499233
 20
118.3743667406
 11
132.5320925242
 21
118.1027911279
  0
LINE
  5
309
100
AcDbEntity
  8
0
100
AcDbLine
 62
7
  6
CONTINUOUS
 10
132.8787840932
 20
117.8507183632
 11
133.0762414924
 21
118.122293976
  0
LINE
  5
30A
100
AcDbEntity
  8
0
100
AcDbLine
 62
7
  6
CONTINUOUS
 10
126.9123758832
 20
112.2228949688
 11
127.0805091964
 21
112.4290458022
  0
LINE
  5
30B
100
AcDbEntity
  8
0
100
AcDbLine
 62
7
  6
CONTINUOUS
 10
126.8079332294
 20
112.8652588041
 11
126.5686126409
 21
112.6146252516
  0
LINE
  5
30C
100
AcDbEntity
  8
BEZUGSACHSEN
100
AcDbLine
 62
7
  6
CONTINUOUS
 10
98.663397206
 20
172.7048983968
 11
99.0195049143
 21
172.7573360591
  0
LINE
  5
30D
100
AcDbEntity
  8
BEZUGSACHSEN
100
AcDbLine
 62
7
  6
CONTINUOUS
 10
97.4541133233
 20
174.1030725002
 11
97.028667204
 21
174.1010494615
  0
LINE
  5
30E
100
AcDbEntity
  8
BEZUGSACHSEN
100
AcDbLine
 62
7
  6
CONTINUOUS
 10
97.6786764618
 20
176.0155076445
 11
98.1041225325
 21
176.0175307185
  0
LINE
  5
30F
100
AcDbEntity
  8
BEZUGSACHSEN
100
AcDbLine
 62
7
  6
CONTINUOUS
 10
99.2041195113
 20
174.9063873739
 11
99.5108637172
 21
174.8909322985
  0
LINE
  5
310
100
AcDbEntity
  8
BEZUGSACHSEN
100
AcDbLine
 62
7
  6
CONTINUOUS
 10
104.753423449
 20
178.8522916546
 11
104.5201894278
 21
178.9087300413
  0
LINE
  5
311
100
AcDbEntity
  8
BEZUGSACHSEN
100
AcDbLine
 62
7
  6
CONTINUOUS
 10
103.1329615669
 20
179.8615064796
 11
103.5994287946
 21
179.7486291972
  0
LINE
  5
312
100
AcDbEntity
  8
BEZUGSACHSEN
100
AcDbLine
 62
7
  6
CONTINUOUS
 10
148.977646834
 20
135.2217492307
 11
151.9577116568
 21
139.4777228673
  0
LINE
  5
313
100
AcDbEntity
  8
0
100
AcDbLine
 62
7
  6
CONTINUOUS
 10
134.1856547076
 20
117.3156609877
 11
133.9881973085
 21
117.0440853749
  0
LINE
  5
314
100
AcDbEntity
  8
0
100
AcDbLine
 62
7
  6
CONTINUOUS
 10
134.2655505637
 20
116.8424271632
 11
134.4630079629
 21
117.114002776
  0
LINE
  5
315
100
AcDbEntity
  8
0
100
AcDbLine
 62
7
  6
CONTINUOUS
 10
135.6417594434
 20
116.2569552701
 11
135.4443020442
 21
115.9853796573
  0
LINE
  5
316
100
AcDbEntity
  8
0
100
AcDbLine
 62
7
  6
CONTINUOUS
 10
135.7416290296
 20
115.6654125656
 11
136.0378145634
 21
116.0727752078
  0
LINE
  5
317
100
AcDbEntity
  8
0
100
AcDbLine
 62
7
  6
CONTINUOUS
 10
129.3369817634
 20
110.4020004867
 11
129.0976611748
 21
110.1513669342
  0
LINE
  5
318
100
AcDbEntity
  8
0
100
AcDbLine
 62
7
  6
CONTINUOUS
 10
133.0457091387
 20
118.6634205382
 11
132.7295499233
 21
118.3743667406
  0
LINE
  5
319
100
AcDbEntity
  8
0
100
AcDbLine
 62
7
  6
CONTINUOUS
 10
133.0762414924
 20
118.122293976
 11
133.3430360755
 21
118.3434534818
  0
LINE
  5
31A
100
AcDbEntity
  8
0
100
AcDbLine
 62
7
  6
CONTINUOUS
 10
133.9881973085
 20
117.0440853749
 11
133.7214015955
 21
116.8229243151
  0
LINE
  5
31B
100
AcDbEntity
  8
0
100
AcDbLine
 62
7
  6
CONTINUOUS
 10
134.4630079629
 20
117.114002776
 11
134.729802546
 21
117.3351622819
  0
LINE
  5
31C
100
AcDbEntity
  8
0
100
AcDbLine
 62
7
  6
CONTINUOUS
 10
127.1638712359
 20
113.0876734178
 11
126.8079332294
 21
112.8652588041
  0
LINE
  5
31D
100
AcDbEntity
  8
0
100
AcDbLine
 62
7
  6
CONTINUOUS
 10
127.0805091964
 20
112.4290458022
 11
127.5076344783
 21
112.695943135
  0
LINE
  5
31E
100
AcDbEntity
  8
0
100
AcDbLine
 62
7
  6
CONTINUOUS
 10
128.1619063993
 20
112.5993296328
 11
128.5890316813
 21
112.8662269656
  0
LINE
  5
31F
100
AcDbEntity
  8
0
100
AcDbLine
 62
7
  6
CONTINUOUS
 10
134.8873114522
 20
117.8433540299
 11
134.7192450037
 21
117.7579815535
  0
LINE
  5
320
100
AcDbEntity
  8
0
100
AcDbLine
 62
7
  6
CONTINUOUS
 10
134.729802546
 20
117.3351622819
 11
135.0659365728
 21
117.5059087888
  0
LINE
  5
321
100
AcDbEntity
  8
0
100
AcDbLine
 62
7
  6
CONTINUOUS
 10
133.5638926893
 20
116.314732567
 11
133.7319602676
 21
116.4001065974
  0
LINE
  5
322
100
AcDbEntity
  8
0
100
AcDbLine
 62
7
  6
CONTINUOUS
 10
133.5005449817
 20
118.8516452299
 11
133.0457091387
 21
118.6634205382
  0
LINE
  5
323
100
AcDbEntity
  8
0
100
AcDbLine
 62
7
  6
CONTINUOUS
 10
125.0651952361
 20
111.8393023804
 11
124.5948358244
 21
111.6592129122
  0
LINE
  5
324
100
AcDbEntity
  8
0
100
AcDbLine
 62
7
  6
CONTINUOUS
 10
122.3998250872
 20
110.8187953365
 11
121.9294656755
 21
110.6387058683
  0
LINE
  5
325
100
AcDbEntity
  8
0
100
AcDbLine
 62
7
  6
CONTINUOUS
 10
127.5652377556
 20
113.2373853554
 11
127.1638712359
 21
113.0876734178
  0
LINE
  5
326
100
AcDbEntity
  8
0
100
AcDbLine
 62
7
  6
CONTINUOUS
 10
133.3430360755
 20
118.3434534818
 11
133.7485084161
 21
118.4637854358
  0
LINE
  5
327
100
AcDbEntity
  8
0
100
AcDbLine
 62
7
  6
CONTINUOUS
 10
135.2927837928
 20
117.9636859839
 11
134.8873114522
 21
117.8433540299
  0
LINE
  5
328
100
AcDbEntity
  8
0
100
AcDbLine
 62
7
  6
CONTINUOUS
 10
133.7214015955
 20
116.8229243151
 11
133.3159303848
 21
116.7025939151
  0
LINE
  5
329
100
AcDbEntity
  8
BEZUGSACHSEN
100
AcDbLine
 62
7
  6
CONTINUOUS
 10
105.0124154178
 20
178.913038154
 11
104.753423449
 21
178.8522916546
  0
LINE
  5
32A
100
AcDbEntity
  8
BEZUGSACHSEN
100
AcDbLine
 62
7
  6
CONTINUOUS
 10
99.3122649151
 20
175.3466863843
 11
98.9561572068
 21
175.294248722
  0
LINE
  5
32B
100
AcDbEntity
  8
BEZUGSACHSEN
100
AcDbLine
 62
7
  6
CONTINUOUS
 10
97.9055236818
 20
176.4732848396
 11
97.5494159491
 21
176.420847195
  0
LINE
  5
32C
100
AcDbEntity
  8
BEZUGSACHSEN
100
AcDbLine
 62
7
  6
CONTINUOUS
 10
103.7736494898
 20
180.2618524788
 11
103.4692281932
 21
180.2738081464
  0
LINE
  5
32D
100
AcDbEntity
  8
BEZUGSACHSEN
100
AcDbLine
 62
7
  6
CONTINUOUS
 10
105.0625219517
 20
180.2585125276
 11
105.3669432483
 21
180.24655686
  0
LINE
  5
32E
100
AcDbEntity
  8
BEZUGSACHSEN
100
AcDbLine
 62
7
  6
CONTINUOUS
 10
104.5337734259
 20
178.41177054
 11
104.9548121405
 21
178.3715959336
  0
LINE
  5
32F
100
AcDbEntity
  8
BEZUGSACHSEN
100
AcDbLine
 62
7
  6
CONTINUOUS
 10
105.7032098746
 20
180.6588585268
 11
105.2367426469
 21
180.7717358092
  0
LINE
  5
330
100
AcDbEntity
  8
BEZUGSACHSEN
100
AcDbLine
 62
7
  6
CONTINUOUS
 10
104.3220686129
 20
181.9187068533
 11
104.6719192692
 21
181.8340489679
  0
LINE
  5
331
100
AcDbEntity
  8
BEZUGSACHSEN
100
AcDbLine
 62
7
  6
CONTINUOUS
 10
152.516024948
 20
152.2797267917
 11
152.516024948
 21
149.5295333838
  0
LINE
  5
332
100
AcDbEntity
  8
BEZUGSACHSEN
100
AcDbLine
 62
7
  6
CONTINUOUS
 10
152.516024948
 20
142.0794479052
 11
152.516024948
 21
141.2484664
  0
LINE
  5
333
100
AcDbEntity
  8
0
100
AcDbLine
 62
7
  6
CONTINUOUS
 10
129.3702371736
 20
109.7151538814
 11
129.6807458483
 21
110.0102706684
  0
LINE
  5
334
100
AcDbEntity
  8
0
100
AcDbLine
 62
7
  6
CONTINUOUS
 10
135.4254698081
 20
115.3763587725
 11
135.7416290296
 21
115.6654125656
  0
LINE
  5
335
100
AcDbEntity
  8
0
100
AcDbLine
 62
7
  6
CONTINUOUS
 10
135.4443020442
 20
115.9853796573
 11
135.1775063312
 21
115.7642185975
  0
LINE
  5
336
100
AcDbEntity
  8
0
100
AcDbLine
 62
7
  6
CONTINUOUS
 10
128.1436451951
 20
111.6781125936
 11
127.7165199131
 21
111.4112152608
  0
LINE
  5
337
100
AcDbEntity
  8
0
100
AcDbLine
 62
7
  6
CONTINUOUS
 10
127.9890958801
 20
110.9750022589
 11
128.416221162
 21
111.2418995917
  0
LINE
  5
338
100
AcDbEntity
  8
0
100
AcDbLine
 62
7
  6
CONTINUOUS
 10
127.640655368
 20
109.948556103
 11
127.213530086
 21
109.6816587702
  0
LINE
  5
339
100
AcDbEntity
  8
0
100
AcDbLine
 62
7
  6
CONTINUOUS
 10
129.0976611748
 20
110.1513669342
 11
128.5281605273
 21
109.7955036542
  0
LINE
  5
33A
100
AcDbEntity
  8
0
100
AcDbLine
 62
7
  6
CONTINUOUS
 10
128.8007365261
 20
109.3592906014
 11
129.3702371736
 21
109.7151538814
  0
LINE
  5
33B
100
AcDbEntity
  8
0
100
AcDbLine
 62
7
  6
CONTINUOUS
 10
135.1775063312
 20
115.7642185975
 11
134.8413734343
 21
115.5934736445
  0
LINE
  5
33C
100
AcDbEntity
  8
0
100
AcDbLine
 62
7
  6
CONTINUOUS
 10
134.9706339469
 20
115.188134094
 11
135.4254698081
 21
115.3763587725
  0
LINE
  5
33D
100
AcDbEntity
  8
0
100
AcDbLine
 62
7
  6
CONTINUOUS
 10
128.5450125294
 20
111.8278250403
 11
128.1436451951
 21
111.6781125936
  0
LINE
  5
33E
100
AcDbEntity
  8
0
100
AcDbLine
 62
7
  6
CONTINUOUS
 10
128.3993700025
 20
109.2095786701
 11
128.8007365261
 21
109.3592906014
  0
LINE
  5
33F
100
AcDbEntity
  8
0
100
AcDbLine
 62
7
  6
CONTINUOUS
 10
128.416221162
 20
111.2418995917
 11
128.7464004062
 21
111.3471288102
  0
LINE
  5
340
100
AcDbEntity
  8
0
100
AcDbLine
 62
7
  6
CONTINUOUS
 10
127.6589166359
 20
110.8697730404
 11
127.9890958801
 21
110.9750022589
  0
LINE
  5
341
100
AcDbEntity
  8
0
100
AcDbLine
 62
7
  6
CONTINUOUS
 10
128.5281605273
 20
109.7955036542
 11
128.1979812831
 21
109.6902744357
  0
LINE
  5
342
100
AcDbEntity
  8
BEZUGSACHSEN
100
AcDbLine
 62
7
  6
CONTINUOUS
 10
111.2611669731
 20
181.0827259399
 11
111.7507339006
 21
181.2010239377
  0
LINE
  5
343
100
AcDbEntity
  8
BEZUGSACHSEN
100
AcDbLine
 62
7
  6
CONTINUOUS
 10
104.8035299829
 20
180.1977660282
 11
105.0625219517
 21
180.2585125276
  0
LINE
  5
344
100
AcDbEntity
  8
BEZUGSACHSEN
100
AcDbLine
 62
7
  6
CONTINUOUS
 10
103.5994287946
 20
179.7486291972
 11
103.9750373666
 21
179.7811562487
  0
LINE
  5
345
100
AcDbEntity
  8
BEZUGSACHSEN
100
AcDbLine
 62
7
  6
CONTINUOUS
 10
105.2367426469
 20
180.7717358092
 11
104.8611332602
 21
180.7392082486
  0
LINE
  5
346
100
AcDbEntity
  8
BEZUGSACHSEN
100
AcDbLine
 62
7
  6
CONTINUOUS
 10
104.6129058955
 20
182.4037107125
 11
104.1206798936
 21
182.3994026189
  0
LINE
  5
347
100
AcDbEntity
  8
BEZUGSACHSEN
100
AcDbLine
 62
7
  6
CONTINUOUS
 10
137.238801042
 20
178.6428623807
 11
151.581241079
 21
155.5558849073
  0
LINE
  5
348
100
AcDbEntity
  8
0
100
AcDbLine
 62
7
  6
CONTINUOUS
 10
124.6244733353
 20
107.3560692142
 11
125.251619068
 21
107.5961884479
  0
LINE
  5
349
100
AcDbEntity
  8
BEZUGSACHSEN
100
AcDbLine
 62
7
  6
CONTINUOUS
 10
110.8043499186
 20
185.1175593571
 11
110.3147829911
 21
184.9992613594
  0
LINE
  5
34A
100
AcDbEntity
  8
AUSFORMSCHRAEGEN
100
AcDbLine
 62
7
  6
CONTINUOUS
 10
262.4636863511
 20
101.3014685165
 11
265.3958514781
 21
101.6096514898
  0
LINE
  5
34B
100
AcDbEntity
  8
BEZUGSACHSEN
100
AcDbLine
 62
7
  6
CONTINUOUS
 10
262.4636863511
 20
101.3014685165
 11
265.3958514781
 21
101.6096514898
  0
LINE
  5
34C
100
AcDbEntity
  8
BEZUGSACHSEN
100
AcDbLine
 62
7
  6
CONTINUOUS
 10
262.4636863511
 20
101.3014685165
 11
259.5315212242
 21
101.6096514898
  0
LINE
  5
34D
100
AcDbEntity
  8
BEZUGSACHSEN
100
AcDbLine
 62
8
  6
HIDDEN
 10
262.4636863511
 20
115.3094685165
 11
261.6597312584
 21
115.1821345391
  0
LINE
  5
34E
100
AcDbEntity
  8
BEZUGSACHSEN
100
AcDbLine
 62
8
  6
HIDDEN
 10
262.4636863511
 20
115.3094685165
 11
263.2676414438
 21
115.1821345391
  0
LINE
  5
34F
100
AcDbEntity
  8
BEZUGSACHSEN
100
AcDbLine
 62
7
  6
CONTINUOUS
 10
255.4136158612
 20
158.9017058994
 11
254.4410461899
 21
157.9291362281
  0
LINE
  5
350
100
AcDbEntity
  8
BEZUGSACHSEN
100
AcDbLine
 62
7
  6
CONTINUOUS
 10
254.4410681618
 20
133.679823089
 11
255.4136096512
 21
132.7072815996
  0
LINE
  5
351
100
AcDbEntity
  8
BEZUGSACHSEN
100
AcDbLine
 62
7
  6
CONTINUOUS
 10
253.7136863511
 20
156.1731342407
 11
253.7136863511
 21
152.2190548944
  0
LINE
  5
352
100
AcDbEntity
  8
RUNDUNGEN
100
AcDbLine
 62
7
  6
CONTINUOUS
 10
253.7136863511
 20
152.2190548944
 11
253.7136863511
 21
150.8341147458
  0
LINE
  5
353
100
AcDbEntity
  8
BEZUGSACHSEN
100
AcDbLine
 62
7
  6
CONTINUOUS
 10
253.7136863511
 20
150.8341147458
 11
253.7136863511
 21
135.4358470483
  0
LINE
  5
354
100
AcDbEntity
  8
BEZUGSACHSEN
100
AcDbLine
 62
7
  6
CONTINUOUS
 10
257.8032665409
 20
172.3118738922
 11
256.1168065156
 21
160.3120872903
  0
LINE
  5
355
100
AcDbEntity
  8
BEZUGSACHSEN
100
AcDbLine
 62
7
  6
CONTINUOUS
 10
256.1168070045
 20
131.2968905199
 11
257.8032662991
 21
119.2971091176
  0
LINE
  5
356
100
AcDbEntity
  8
BEZUGSACHSEN
100
AcDbLine
 62
7
  6
CONTINUOUS
 10
257.8636863511
 20
118.4330624919
 11
257.8636863511
 21
103.4619697725
  0
LINE
  5
357
100
AcDbEntity
  8
BEZUGSACHSEN
100
AcDbLine
 62
7
  6
CONTINUOUS
 10
257.8636863511
 20
155.9241308536
 11
257.8636863511
 21
188.1470115165
  0
LINE
  5
358
100
AcDbEntity
  8
T_STARTBEZUEGE
100
AcDbLine
 62
7
  6
CENTER
 10
262.4636863511
 20
193.3075127725
 11
262.4636863511
 21
98.3014685165
  0
LINE
  5
359
100
AcDbEntity
  8
BEZUGSACHSEN
100
AcDbLine
 62
7
  6
CONTINUOUS
 10
262.4636863511
 20
161.4301630725
 11
262.4636863511
 21
190.3075127725
  0
LINE
  5
35A
100
AcDbEntity
  8
T_STARTBEZUEGE
100
AcDbLine
 62
7
  6
CENTER
 10
275.1964988364
 20
145.8044906445
 11
249.7308738658
 21
145.8044906445
  0
LINE
  5
35B
100
AcDbEntity
  8
BEZUGSACHSEN
100
AcDbLine
 62
7
  6
CONTINUOUS
 10
267.0636863511
 20
188.1470115165
 11
267.0636863511
 21
155.9242981222
  0
LINE
  5
35C
100
AcDbEntity
  8
RUNDUNGEN
100
AcDbLine
 62
7
  6
CONTINUOUS
 10
267.0636863511
 20
118.4330624919
 11
267.0636863511
 21
103.4619697725
  0
LINE
  5
35D
100
AcDbEntity
  8
BEZUGSACHSEN
100
AcDbLine
 62
7
  6
CONTINUOUS
 10
271.2136863511
 20
156.1731342407
 11
271.2136863511
 21
152.2190548944
  0
LINE
  5
35E
100
AcDbEntity
  8
RUNDUNGEN
100
AcDbLine
 62
7
  6
CONTINUOUS
 10
271.2136863511
 20
152.2190548944
 11
271.2136863511
 21
135.4358470483
  0
LINE
  5
35F
100
AcDbEntity
  8
RUNDUNGEN
100
AcDbLine
 62
7
  6
CONTINUOUS
 10
268.8105656977
 20
131.2968905199
 11
267.1241064032
 21
119.2971091176
  0
LINE
  5
360
100
AcDbEntity
  8
BEZUGSACHSEN
100
AcDbLine
 62
7
  6
CONTINUOUS
 10
267.1241061613
 20
172.3118738922
 11
268.8105661866
 21
160.3120872903
  0
LINE
  5
361
100
AcDbEntity
  8
RUNDUNGEN
100
AcDbLine
 62
7
  6
CONTINUOUS
 10
270.4863045405
 20
133.679823089
 11
269.5137630511
 21
132.7072815996
  0
LINE
  5
362
100
AcDbEntity
  8
BEZUGSACHSEN
100
AcDbLine
 62
7
  6
CONTINUOUS
 10
269.5137630513
 20
158.9016996892
 11
270.4863265124
 21
157.9291362281
  0
LINE
  5
363
100
AcDbEntity
  8
BEZUGSACHSEN
100
AcDbLine
 62
8
  6
HIDDEN
 10
262.4636863511
 20
176.2995127725
 11
263.1357892623
 21
176.4059634159
  0
LINE
  5
364
100
AcDbEntity
  8
BEZUGSACHSEN
100
AcDbLine
 62
8
  6
HIDDEN
 10
262.4636863511
 20
176.2995127725
 11
261.79158344
 21
176.4059634159
  0
LINE
  5
365
100
AcDbEntity
  8
BEZUGSACHSEN
100
AcDbLine
 62
7
  6
CONTINUOUS
 10
262.4636863511
 20
190.3075127725
 11
259.5315212242
 21
189.9993297992
  0
LINE
  5
366
100
AcDbEntity
  8
BEZUGSACHSEN
100
AcDbLine
 62
7
  6
CONTINUOUS
 10
262.4636863511
 20
190.3075127725
 11
265.3958514781
 21
189.9993297992
  0
ARC
  5
367
100
AcDbEntity
  8
BEZUGSACHSEN
100
AcDbCircle
 62
7
  6
CONTINUOUS
 10
116.260024948
 20
130.1414685165
 40
28.84
100
AcDbArc
 50
270.0
 51
360.0
  0
ARC
  5
368
100
AcDbEntity
  8
BEZUGSACHSEN
100
AcDbCircle
 62
7
  6
CONTINUOUS
 10
116.260024948
 20
125.9988703165
 40
24.6974018
100
AcDbArc
 50
211.85
 51
270.0
  0
ARC
  5
369
100
AcDbEntity
  8
BEZUGSACHSEN
100
AcDbCircle
 62
7
  6
CONTINUOUS
 10
116.260024948
 20
130.1414685165
 40
14.832
100
AcDbArc
 50
270.0
 51
360.0
  0
ARC
  5
36A
100
AcDbEntity
  8
BEZUGSACHSEN
100
AcDbCircle
 62
7
  6
CONTINUOUS
 10
116.260024948
 20
125.9988703165
 40
10.6894018
100
AcDbArc
 50
154.1610143067
 51
270.0
  0
ARC
  5
36B
100
AcDbEntity
  8
BEZUGSACHSEN
100
AcDbCircle
 62
7
  6
CONTINUOUS
 10
101.0516203826
 20
133.3636710971
 40
6.2084045654
100
AcDbArc
 50
334.1610143067
 51
360.0
  0
ARC
  5
36C
100
AcDbEntity
  8
BEZUGSACHSEN
100
AcDbCircle
 62
7
  6
CONTINUOUS
 10
86.4684295135
 20
138.9171721586
 40
6.2084045654
100
AcDbArc
 50
180.0
 51
211.85
  0
ARC
  5
36D
100
AcDbEntity
  8
BEZUGSACHSEN
100
AcDbCircle
 62
7
  6
CONTINUOUS
 10
100.1863440349
 20
138.0670740456
 40
1.2416809131
100
AcDbArc
 50
270.0
 51
360.0
  0
ARC
  5
36E
100
AcDbEntity
  8
BEZUGSACHSEN
100
AcDbCircle
 62
7
  6
CONTINUOUS
 10
91.0396367027
 20
138.0670740456
 40
1.2416809131
100
AcDbArc
 50
180.0
 51
270.0
  0
ARC
  5
36F
100
AcDbEntity
  8
RUNDUNGEN
100
AcDbCircle
 62
7
  6
CONTINUOUS
 10
90.7799758451
 20
137.2119219016
 40
1.2416809131
100
AcDbArc
 50
180.0
 51
269.9991729245
  0
ARC
  5
370
100
AcDbEntity
  8
RUNDUNGEN
100
AcDbCircle
 62
7
  6
CONTINUOUS
 10
100.2687440349
 20
137.2119219016
 40
1.2416809131
100
AcDbArc
 50
269.9998228884
 51
360.0
  0
ARC
  5
371
100
AcDbEntity
  8
BEZUGSACHSEN
100
AcDbCircle
 62
7
  6
CONTINUOUS
 10
116.260024948
 20
161.4675127725
 40
28.84
100
AcDbArc
 50
90.0
 51
180.0
  0
ARC
  5
372
100
AcDbEntity
  8
BEZUGSACHSEN
100
AcDbCircle
 62
7
  6
CONTINUOUS
 10
116.260024948
 20
165.6101109725
 40
24.6974018
100
AcDbArc
 50
31.85
 51
90.0
  0
ARC
  5
373
100
AcDbEntity
  8
BEZUGSACHSEN
100
AcDbCircle
 62
7
  6
CONTINUOUS
 10
116.260024948
 20
161.4675127725
 40
14.832
100
AcDbArc
 50
90.0
 51
180.0
  0
ARC
  5
374
100
AcDbEntity
  8
BEZUGSACHSEN
100
AcDbCircle
 62
7
  6
CONTINUOUS
 10
116.260024948
 20
165.6101109725
 40
10.6894018
100
AcDbArc
 50
328.7648355016
 51
90.0
  0
ARC
  5
375
100
AcDbEntity
  8
BEZUGSACHSEN
100
AcDbCircle
 62
7
  6
CONTINUOUS
 10
86.2625194816
 20
155.3653931325
 40
5.2775054665
100
AcDbArc
 50
311.9880592811
 51
68.3418233597
  0
ARC
  5
376
100
AcDbEntity
  8
BEZUGSACHSEN
100
AcDbCircle
 62
7
  6
CONTINUOUS
 10
83.34647557
 20
150.3607502645
 40
3.086450631
100
AcDbArc
 50
144.9956305717
 51
180.0043694283
  0
CIRCLE
  5
377
100
AcDbEntity
  8
BEZUGSACHSEN
100
AcDbCircle
 62
7
  6
CONTINUOUS
 10
85.7220941064
 20
145.8044906445
 40
1.25
  0
ARC
  5
378
100
AcDbEntity
  8
RUNDUNGEN
100
AcDbCircle
 62
7
  6
CONTINUOUS
 10
88.2966140189
 20
155.6797876034
 40
1.2416809131
100
AcDbArc
 50
0.0
 51
90.0
  0
ARC
  5
379
100
AcDbEntity
  8
RUNDUNGEN
100
AcDbCircle
 62
7
  6
CONTINUOUS
 10
102.7521058611
 20
155.6797876034
 40
1.2416809131
100
AcDbArc
 50
90.0
 51
180.0
  0
ARC
  5
37A
100
AcDbEntity
  8
BEZUGSACHSEN
100
AcDbCircle
 62
7
  6
CONTINUOUS
 10
146.2575304145
 20
136.2435881565
 40
5.2775054665
100
AcDbArc
 50
131.9880587331
 51
248.3418233597
  0
ARC
  5
37B
100
AcDbEntity
  8
BEZUGSACHSEN
100
AcDbCircle
 62
7
  6
CONTINUOUS
 10
149.429574326
 20
141.2482310244
 40
3.086450631
100
AcDbArc
 50
324.9956305717
 51
0.0043694283
  0
ARC
  5
37C
100
AcDbEntity
  8
BEZUGSACHSEN
100
AcDbCircle
 62
7
  6
CONTINUOUS
 10
144.2234358771
 20
135.9291936856
 40
1.2416809131
100
AcDbArc
 50
180.0
 51
270.0
  0
ARC
  5
37D
100
AcDbEntity
  8
BEZUGSACHSEN
100
AcDbCircle
 62
7
  6
CONTINUOUS
 10
129.7679440349
 20
135.9291936856
 40
1.2416809131
100
AcDbArc
 50
270.0
 51
360.0
  0
ARC
  5
37E
100
AcDbEntity
  8
BEZUGSACHSEN
100
AcDbCircle
 62
7
  6
CONTINUOUS
 10
146.3076203826
 20
152.2797267917
 40
6.2084045654
100
AcDbArc
 50
0.0
 51
31.85
  0
ARC
  5
37F
100
AcDbEntity
  8
BEZUGSACHSEN
100
AcDbCircle
 62
7
  6
CONTINUOUS
 10
130.7084295135
 20
156.8477217163
 40
6.2084045654
100
AcDbArc
 50
148.7648355016
 51
180.0
  0
CIRCLE
  5
380
100
AcDbEntity
  8
BEZUGSACHSEN
100
AcDbCircle
 62
7
  6
CONTINUOUS
 10
146.7979557896
 20
145.8044906445
 40
1.25
  0
ARC
  5
381
100
AcDbEntity
  8
RUNDUNGEN
100
AcDbCircle
 62
7
  6
CONTINUOUS
 10
132.3337058611
 20
153.5419072434
 40
1.2416809131
100
AcDbArc
 50
90.0
 51
180.0
  0
ARC
  5
382
100
AcDbEntity
  8
RUNDUNGEN
100
AcDbCircle
 62
7
  6
CONTINUOUS
 10
141.4804131933
 20
153.5419072434
 40
1.2416809131
100
AcDbArc
 50
0.0
 51
90.0
  0
ARC
  5
383
100
AcDbEntity
  8
BEZUGSACHSEN
100
AcDbCircle
 62
7
  6
CONTINUOUS
 10
132.2513058611
 20
154.3970593874
 40
1.2416809131
100
AcDbArc
 50
89.9998229982
 51
180.0
  0
ARC
  5
384
100
AcDbEntity
  8
BEZUGSACHSEN
100
AcDbCircle
 62
7
  6
CONTINUOUS
 10
141.7400740509
 20
154.3970593874
 40
1.2416809131
100
AcDbArc
 50
0.0
 51
89.9991729017
  0
ARC
  5
385
100
AcDbEntity
  8
BEZUGSACHSEN
100
AcDbCircle
 62
7
  6
CONTINUOUS
 10
251.6552817857
 20
118.43306417
 40
6.2084045654
100
AcDbArc
 50
359.9999845138
 51
8.0000189393
  0
ARC
  5
386
100
AcDbEntity
  8
BEZUGSACHSEN
100
AcDbCircle
 62
8
  6
HIDDEN
 10
262.3636863511
 20
110.7375370064
 40
4.5
100
AcDbArc
 50
99.0
 51
180.0
  0
ARC
  5
387
100
AcDbEntity
  8
BEZUGSACHSEN
100
AcDbCircle
 62
7
  6
CONTINUOUS
 10
253.657612948
 20
130.9512743279
 40
2.4833618262
100
AcDbArc
 50
7.9999773054
 51
45.0001724189
  0
ARC
  5
388
100
AcDbEntity
  8
BEZUGSACHSEN
100
AcDbCircle
 62
7
  6
CONTINUOUS
 10
256.1970481773
 20
135.4358470483
 40
2.4833618262
100
AcDbArc
 50
180.0
 51
225.0007169142
  0
ARC
  5
389
100
AcDbEntity
  8
BEZUGSACHSEN
100
AcDbCircle
 62
7
  6
CONTINUOUS
 10
259.7262077208
 20
103.4619697725
 40
1.8625213696
100
AcDbArc
 50
180.0
 51
264.0
  0
ARC
  5
38A
100
AcDbEntity
  8
BEZUGSACHSEN
100
AcDbCircle
 62
7
  6
CONTINUOUS
 10
251.6552817857
 20
173.175917119
 40
6.2084045654
100
AcDbArc
 50
351.9999970981
 51
0.000015487
  0
ARC
  5
38B
100
AcDbEntity
  8
BEZUGSACHSEN
100
AcDbCircle
 62
8
  6
HIDDEN
 10
262.407382927
 20
181.0049400181
 40
4.6563034241
100
AcDbArc
 50
279.0
 51
360.0
  0
ARC
  5
38C
100
AcDbEntity
  8
BEZUGSACHSEN
100
AcDbCircle
 62
7
  6
CONTINUOUS
 10
256.1970481773
 20
156.1731342407
 40
2.4833618262
100
AcDbArc
 50
135.0
 51
180.0
  0
ARC
  5
38D
100
AcDbEntity
  8
BEZUGSACHSEN
100
AcDbCircle
 62
7
  6
CONTINUOUS
 10
253.657612948
 20
160.6577069611
 40
2.4833618262
100
AcDbArc
 50
315.0000302047
 51
351.999941644
  0
ARC
  5
38E
100
AcDbEntity
  8
BEZUGSACHSEN
100
AcDbCircle
 62
7
  6
CONTINUOUS
 10
259.7262077208
 20
188.1470115165
 40
1.8625213696
100
AcDbArc
 50
96.0
 51
180.0
  0
ARC
  5
38F
100
AcDbEntity
  8
RUNDUNGEN
100
AcDbCircle
 62
7
  6
CONTINUOUS
 10
254.9553672642
 20
152.2190548944
 40
1.2416809131
100
AcDbArc
 50
139.4918207579
 51
180.0
  0
ARC
  5
390
100
AcDbEntity
  8
RUNDUNGEN
100
AcDbCircle
 62
7
  6
CONTINUOUS
 10
273.2720909166
 20
118.43306417
 40
6.2084045654
100
AcDbArc
 50
171.9999810607
 51
180.0000154862
  0
ARC
  5
391
100
AcDbEntity
  8
RUNDUNGEN
100
AcDbCircle
 62
8
  6
HIDDEN
 10
262.5636863511
 20
110.7375370064
 40
4.5
100
AcDbArc
 50
0.0
 51
81.0
  0
ARC
  5
392
100
AcDbEntity
  8
RUNDUNGEN
100
AcDbCircle
 62
7
  6
CONTINUOUS
 10
271.2697597542
 20
130.9512743279
 40
2.4833618262
100
AcDbArc
 50
134.9998275811
 51
172.0000226946
  0
ARC
  5
393
100
AcDbEntity
  8
RUNDUNGEN
100
AcDbCircle
 62
7
  6
CONTINUOUS
 10
268.7303245249
 20
135.4358470483
 40
2.4833618262
100
AcDbArc
 50
314.9992830858
 51
360.0
  0
ARC
  5
394
100
AcDbEntity
  8
RUNDUNGEN
100
AcDbCircle
 62
7
  6
CONTINUOUS
 10
265.2011649815
 20
103.4619697725
 40
1.8625213696
100
AcDbArc
 50
276.0
 51
360.0
  0
ARC
  5
395
100
AcDbEntity
  8
RUNDUNGEN
100
AcDbCircle
 62
7
  6
CONTINUOUS
 10
262.4636863511
 20
145.8044906445
 40
11.116977872
100
AcDbArc
 50
40.5081792421
 51
139.4918207579
  0
CIRCLE
  5
396
100
AcDbEntity
  8
0
100
AcDbCircle
 62
7
  6
CONTINUOUS
 10
262.4636863511
 20
145.8044906445
 40
3.7250427393
  0
ARC
  5
397
100
AcDbEntity
  8
BEZUGSACHSEN
100
AcDbCircle
 62
8
  6
HIDDEN
 10
262.5199897752
 20
181.0049400181
 40
4.6563034241
100
AcDbArc
 50
180.0
 51
261.0
  0
ARC
  5
398
100
AcDbEntity
  8
BEZUGSACHSEN
100
AcDbCircle
 62
7
  6
CONTINUOUS
 10
265.2011649815
 20
188.1470115165
 40
1.8625213696
100
AcDbArc
 50
0.0
 51
84.0
  0
ARC
  5
399
100
AcDbEntity
  8
BEZUGSACHSEN
100
AcDbCircle
 62
7
  6
CONTINUOUS
 10
268.7303245249
 20
156.1731342407
 40
2.4833618262
100
AcDbArc
 50
0.0
 51
45.0
  0
ARC
  5
39A
100
AcDbEntity
  8
BEZUGSACHSEN
100
AcDbCircle
 62
7
  6
CONTINUOUS
 10
271.2697597542
 20
160.6577069611
 40
2.4833618262
100
AcDbArc
 50
188.000058356
 51
224.9999697953
  0
ARC
  5
39B
100
AcDbEntity
  8
RUNDUNGEN
100
AcDbCircle
 62
7
  6
CONTINUOUS
 10
269.972005438
 20
152.2190548944
 40
1.2416809131
100
AcDbArc
 50
359.9999384528
 51
40.5081792421
  0
ARC
  5
39C
100
AcDbEntity
  8
BEZUGSACHSEN
100
AcDbCircle
 62
7
  6
CONTINUOUS
 10
273.2720909166
 20
173.175917119
 40
6.2084045654
100
AcDbArc
 50
182.1261188598
 51
188.0000029019
  0
SPLINE
  5
39D
100
AcDbEntity
  8
BEZUGSACHSEN
100
AcDbSpline
 62
7
  6
CONTINUOUS
 70
0
 71
3
 72
11
 73
7
 74
0
 42
0.0000001
 43
0.0000001
 44
0.0000000001
 40
0.0
 40
0.0
 40
0.0
 40
0.0
 40
0.2500139656
 40
0.500003507
 40
0.7499908108
 40
1.0
 40
1.0
 40
1.0
 40
1.0
 10
147.948842749
 20
134.6875130075
 30
0.0
 10
148.0490184516
 20
134.6875130262
 30
0.0
 10
148.2501782996
 20
134.711619184
 30
0.0
 10
148.5341368078
 20
134.8181609472
 30
0.0
 10
148.7848128169
 20
134.988904684
 30
0.0
 10
148.9201894587
 20
135.1396917023
 30
0.0
 10
148.977646834
 20
135.2217492307
 30
0.0
  0
SPLINE
  5
39E
100
AcDbEntity
  8
BEZUGSACHSEN
100
AcDbSpline
 62
7
  6
CONTINUOUS
 70
0
 71
3
 72
15
 73
11
 74
0
 42
0.0000001
 43
0.0000001
 44
0.0000000001
 40
0.0
 40
0.0
 40
0.0
 40
0.0
 40
0.1250047633
 40
0.2500010336
 40
0.3750036572
 40
0.5000036904
 40
0.6250030325
 40
0.7500039506
 40
0.8749974339
 40
1.0
 40
1.0
 40
1.0
 40
1.0
 10
125.7571835699
 20
134.6875144404
 30
0.0
 10
125.6754822651
 20
134.6875143493
 30
0.0
 10
125.5116448282
 20
134.7033830727
 30
0.0
 10
125.2754007938
 20
134.7739692275
 30
0.0
 10
125.0571013627
 20
134.8888044848
 30
0.0
 10
124.8652008597
 20
135.043771354
 30
0.0
 10
124.7071436367
 20
135.2331579413
 30
0.0
 10
124.589281315
 20
135.4498985873
 30
0.0
 10
124.5164561095
 20
135.6855423257
 30
0.0
 10
124.500024961
 20
135.8494043155
 30
0.0
 10
124.500024948
 20
135.9311041843
 30
0.0
  0
SPLINE
  5
39F
100
AcDbEntity
  8
RUNDUNGEN
100
AcDbSpline
 62
7
  6
CONTINUOUS
 70
0
 71
3
 72
15
 73
11
 74
0
 42
0.0000001
 43
0.0000001
 44
0.0000000001
 40
0.0
 40
0.0
 40
0.0
 40
0.0
 40
0.1250047633
 40
0.2500010336
 40
0.3750036572
 40
0.5000036904
 40
0.6250030324
 40
0.7500039506
 40
0.8749974338
 40
1.0
 40
1.0
 40
1.0
 40
1.0
 10
106.0028663262
 20
156.9214668764
 30
0.0
 10
106.0845676326
 20
156.9214669715
 30
0.0
 10
106.2484050726
 20
156.9055982453
 30
0.0
 10
106.4846491142
 20
156.8350120992
 30
0.0
 10
106.7029485496
 20
156.7201768381
 30
0.0
 10
106.8948490542
 20
156.5652099631
 30
0.0
 10
107.052906275
 20
156.3758233675
 30
0.0
 10
107.1707685925
 20
156.1590827136
 30
0.0
 10
107.2435937926
 20
155.9234389685
 30
0.0
 10
107.2600249372
 20
155.7595769751
 30
0.0
 10
107.260024948
 20
155.6778771047
 30
0.0
  0
SPLINE
  5
3A0
100
AcDbEntity
  8
RUNDUNGEN
100
AcDbSpline
 62
7
  6
CONTINUOUS
 70
0
 71
3
 72
11
 73
7
 74
0
 42
0.0000001
 43
0.0000001
 44
0.0000000001
 40
0.0
 40
0.0
 40
0.0
 40
0.0
 40
0.2500139656
 40
0.500003507
 40
0.7499908108
 40
1.0
 40
1.0
 40
1.0
 40
1.0
 10
84.827207147
 20
156.9214682809
 30
0.0
 10
84.7270314445
 20
156.9214682622
 30
0.0
 10
84.5258715964
 20
156.897362105
 30
0.0
 10
84.2419130883
 20
156.7908203416
 30
0.0
 10
83.9912370792
 20
156.6200766049
 30
0.0
 10
83.8558604374
 20
156.4692895867
 30
0.0
 10
83.7984030621
 20
156.3872320583
 30
0.0
  0
LINE
  5
3A1
100
AcDbEntity
  8
BEZUGSACHSEN
100
AcDbLine
 62
7
  6
CONTINUOUS
 10
262.4636863511
 20
160.2703195609
 11
262.4636863511
 21
161.4301630725
  0
ELLIPSE
  5
3A2
100
AcDbEntity
  8
0
100
AcDbEllipse
 62
7
  6
CONTINUOUS
 10
80.260024948
 20
145.8044906445
 30
0.0
 11
-0.0
 21
3.7250427393
 31
0.0
 40
0.1051042353
 41
3.1415926536
 42
6.2831853072
  0
ELLIPSE
  5
3A3
100
AcDbEntity
  8
BEZUGSACHSEN
100
AcDbEllipse
 62
7
  6
CONTINUOUS
 10
152.516024948
 20
145.8044906445
 30
0.0
 11
0.0
 21
3.7250427393
 31
0.0
 40
0.1051042353
 41
0.0
 42
3.1415926536
  0
ELLIPSE
  5
3A4
100
AcDbEntity
  8
BEZUGSACHSEN
100
AcDbEllipse
 62
7
  6
CONTINUOUS
 10
124.500024948
 20
145.8044906445
 30
0.0
 11
-0.0
 21
3.25
 31
0.0
 40
0.1583844403
 41
-3.1415926536
 42
0.0
  0
ELLIPSE
  5
3A5
100
AcDbEntity
  8
0
100
AcDbEllipse
 62
7
  6
CONTINUOUS
 10
107.260024948
 20
145.8044906445
 30
0.0
 11
0.0
 21
3.25
 31
0.0
 40
0.1583844403
 41
0.0
 42
3.1415926536
  0
ENDSEC
  0
SECTION
  2
OBJECTS
  0
DICTIONARY
  5
C
100
AcDbDictionary
280
0
281
1
  3
ACAD_GROUP
350
D
  3
ACAD_MLINESTYLE
350
17
  3
ACAD_LAYOUT
350
1A
  3
ACAD_PLOTSETTINGS
350
19
  3
ACAD_PLOTSTYLENAME
350
E
  0
DICTIONARY
  5
D
102
{ACAD_REACTORS
330
C
102
}
100
AcDbDictionary
280
0
281
1
  0
ACDBDICTIONARYWDFLT
  5
E
102
{ACAD_REACTORS
330
C
102
}
100
AcDbDictionary
281
1
  3
Normal
350
F
100
AcDbDictionaryWithDefault
340
F
  0
DICTIONARY
  5
17
102
{ACAD_REACTORS
330
C
102
}
100
AcDbDictionary
280
0
281
1
  3
Standard
350
18
  0
DICTIONARY
  5
19
102
{ACAD_REACTORS
330
C
102
}
100
AcDbDictionary
281
1
  0
DICTIONARY
  5
1A
102
{ACAD_REACTORS
330
C
102
}
100
AcDbDictionary
281
1
  3
Model
350
3A6
  3
Layout1
350
3A7
  0
ACDBPLACEHOLDER
  5
F
102
{ACAD_REACTORS
330
E
102
}
  0
MLINESTYLE
  5
18
102
{ACAD_REACTORS
330
17
102
}
100
AcDbMlineStyle
  2
STANDARD
 70
0
  3

 62
256
 51
90.0
 52
90.0
 71
2
 49
0.5
 62
256
  6
BYLAYER
 49
-0.5
 62
256
  6
BYLAYER
  0
LAYOUT
  5
3A6
102
{ACAD_REACTORS
330
1A
102
}
100
AcDbPlotSettings
  1

  2
none_device
  4
ISO_A3_(420.00_x_297.00_MM)
  6

 40
0.0
 41
0.0
 42
0.0
 43
0.0
 44
420.0
 45
297.0
 46
0.0
 47
0.0
 48
0.0
 49
0.0
140
0.0
141
0.0
142
1.0
143
1.0
 70
1024
 72
1
 73
0
 74
0
  7

 75
0
147
1.0
148
0.0
149
0.0
100
AcDbLayout
  1
Model
 70
0
 71
0
 10
0.0
 20
0.0
 11
420.0
 21
297.0
 12
0.0
 22
0.0
 32
0.0
 14
0.0
 24
0.0
 34
0.0
 15
0.0
 25
0.0
 35
0.0
146
0.0
 13
0.0
 23
0.0
 33
0.0
 16
1.0
 26
0.0
 36
0.0
 17
0.0
 27
1.0
 37
0.0
 76
0
330
207
345
0
346
0
  0
LAYOUT
  5
3A7
102
{ACAD_REACTORS
330
1A
102
}
100
AcDbPlotSettings
  1

  2
none_device
  4
ISO_A3_(420.00_x_297.00_MM)
  6

 40
0.0
 41
0.0
 42
0.0
 43
0.0
 44
420.0
 45
297.0
 46
0.0
 47
0.0
 48
0.0
 49
0.0
140
0.0
141
0.0
142
1.0
143
1.0
 70
0
 72
1
 73
0
 74
0
  7

 75
0
147
1.0
148
0.0
149
0.0
100
AcDbLayout
  1
Layout1
 70
0
 71
1
 10
0.0
 20
0.0
 11
420.0
 21
297.0
 12
0.0
 22
0.0
 32
0.0
 14
0.0
 24
0.0
 34
0.0
 15
0.0
 25
0.0
 35
0.0
146
0.0
 13
0.0
 23
0.0
 33
0.0
 16
1.0
 26
0.0
 36
0.0
 17
0.0
 27
1.0
 37
0.0
 76
0
330
208
345
0
346
0
  0
ENDSEC
  0
EOF
