999
DXF file: ivs-6-dxf.dxf
999
Pro/ENGINEER 2010140 by Parametric Technology Corporation
  0
SECTION
  2
HEADER
  9
$ACADVER
  1
AC1021
  9
$DWGCODEPAGE
  3
ANSI_1252
  9
$EXTMAX
 10
420.0
 20
297.0
 30
0.0
  9
$EXTMIN
 10
0.0
 20
0.0
 30
0.0
  9
$LIMMIN
 10
0.0
 20
0.0
  9
$LIMMAX
 10
420.0
 20
297.0
  9
$VIEWCTR
 10
210.0
 20
148.5
  9
$VIEWSIZE
 40
297.0
  9
$CLAYER
  8
0
  9
$LTSCALE
 40
23.1
  9
$CELTYPE
  6
BYLAYER
  9
$DIMSCALE
 40
1.0
  9
$DIMASZ
 40
3.5
  9
$DIMEXO
 40
2.625
  9
$DIMDLI
 40
15.96
  9
$DIMEXE
 40
7.56
  9
$DIMCEN
 40
3.78
  9
$DIMLFAC
 40
1.0
  9
$DIMBLK
  1
_FILLED
  9
$DIMTXT
 40
3.5
  9
$DIMTOL
 70
1
  9
$DIMLIM
 70
0
  9
$DIMTFAC
 40
1.0
  9
$DIMTP
 40
0.005
  9
$DIMTM
 40
0.005
  9
$PDMODE
 70
3
  9
$PDSIZE
 40
0.3125
  9
$HANDSEED
  5
3A2
  9
$TILEMODE
 70
1
  9
$MEASUREMENT
 70
1
  9
$INSUNITS
 70
4
  0
ENDSEC
  0
SECTION
  2
CLASSES
  0
CLASS
  1
ACDBDICTIONARYWDFLT
  2
AcDbDictionaryWithDefault
  3
AutoCAD 2000
 90
0
 91
1
280
0
281
0
  0
CLASS
  1
ACDBPLACEHOLDER
  2
AcDbPlaceHolder
  3
AutoCAD 2000
 90
0
 91
1
280
0
281
0
  0
CLASS
  1
LAYOUT
  2
AcDbLayout
  3
AutoCAD 2000
 90
0
 91
0
280
0
281
0
  0
ENDSEC
  0
SECTION
  2
TABLES
  0
TABLE
  2
VPORT
  5
8
100
AcDbSymbolTable
 70
2
  0
VPORT
  5
1F4
100
AcDbSymbolTableRecord
100
AcDbViewportTableRecord
  2
*ACTIVE
 70
0
 10
0.0
 20
0.0
 11
1.0
 21
1.0
 12
210.0
 22
148.5
 13
0.0
 23
0.0
 14
1.0
 24
1.0
 15
0.0
 25
0.0
 16
0.0
 26
0.0
 36
1.0
 17
0.0
 27
0.0
 37
0.0
 40
297.0
 41
1.4141414141
 42
50.0
 43
0.0
 44
0.0
 50
0.0
 51
0.0
 71
0
 72
100
 73
1
 74
1
 75
0
 76
0
 77
0
 78
0
  0
ENDTAB
  0
TABLE
  2
LTYPE
  5
5
100
AcDbSymbolTable
 70
6
  0
LTYPE
  5
14
100
AcDbSymbolTableRecord
100
AcDbLinetypeTableRecord
  2
BYBLOCK
 70
0
  3

 72
65
 73
0
 40
0.0
  0
LTYPE
  5
15
100
AcDbSymbolTableRecord
100
AcDbLinetypeTableRecord
  2
BYLAYER
 70
0
  3

 72
65
 73
0
 40
0.0
  0
LTYPE
  5
16
100
AcDbSymbolTableRecord
100
AcDbLinetypeTableRecord
  2
CONTINUOUS
 70
64
  3
Solid line
 72
65
 73
0
 40
0.0
  0
LTYPE
  5
1F5
100
AcDbSymbolTableRecord
100
AcDbLinetypeTableRecord
  2
CENTER
 70
64
  3
____ _ ____ _ ____ _ ____ _ ____ _ ____ _ ____
 72
65
 73
4
 40
0.6
 49
0.375
 74
0
 49
-0.075
 74
0
 49
0.075
 74
0
 49
-0.075
 74
0
  0
LTYPE
  5
1F6
100
AcDbSymbolTableRecord
100
AcDbLinetypeTableRecord
  2
HIDDEN
 70
64
  3
- - - - - - - - - - - - - - - - - - - -
 72
65
 73
2
 40
0.2
 49
0.1
 74
0
 49
-0.1
 74
0
  0
LTYPE
  5
1F7
100
AcDbSymbolTableRecord
100
AcDbLinetypeTableRecord
  2
PHANTOM
 70
64
  3
_____ _ _ _____ _ _ _____ _ _ _____
 72
65
 73
6
 40
0.8
 49
0.45
 74
0
 49
-0.05
 74
0
 49
0.1
 74
0
 49
-0.05
 74
0
 49
0.1
 74
0
 49
-0.05
 74
0
  0
LTYPE
  5
1F8
100
AcDbSymbolTableRecord
100
AcDbLinetypeTableRecord
  2
DOT
 70
64
  3
. . . . . . . . . . . . . . . . . . . .
 72
65
 73
2
 40
0.2
 49
0.1
 74
0
 49
-0.1
 74
0
  0
LTYPE
  5
1F9
100
AcDbSymbolTableRecord
100
AcDbLinetypeTableRecord
  2
DASHED
 70
64
  3
- - - - - - - - - - - - - - - - - - - -
 72
65
 73
2
 40
0.2
 49
0.1
 74
0
 49
-0.1
 74
0
  0
ENDTAB
  0
TABLE
  2
LAYER
  5
2
100
AcDbSymbolTable
 70
36
  0
LAYER
  5
10
100
AcDbSymbolTableRecord
100
AcDbLayerTableRecord
  2
0
 70
0
 62
7
  6
CONTINUOUS
370
-3
390
F
  0
LAYER
  5
1FA
100
AcDbSymbolTableRecord
100
AcDbLayerTableRecord
  2
DEFAULT_1
 70
0
 62
7
  6
CENTER
370
-3
390
F
  0
LAYER
  5
1FB
100
AcDbSymbolTableRecord
100
AcDbLayerTableRecord
  2
DEFAULT_2
 70
0
 62
8
  6
HIDDEN
370
-3
390
F
  0
LAYER
  5
1FC
100
AcDbSymbolTableRecord
100
AcDbLayerTableRecord
  2
DEFAULT_3
 70
0
 62
7
  6
PHANTOM
370
-3
390
F
  0
LAYER
  5
1FD
100
AcDbSymbolTableRecord
100
AcDbLayerTableRecord
  2
AUSFORMSCHRAEGEN
 70
0
 62
7
  6
CONTINUOUS
370
-3
390
F
  0
LAYER
  5
1FE
100
AcDbSymbolTableRecord
100
AcDbLayerTableRecord
  2
BEZUGSACHSEN
 70
0
 62
7
  6
CONTINUOUS
370
-3
390
F
  0
LAYER
  5
1FF
100
AcDbSymbolTableRecord
100
AcDbLayerTableRecord
  2
BEZUGSEBENEN
 70
0
 62
7
  6
CONTINUOUS
370
-3
390
F
  0
LAYER
  5
200
100
AcDbSymbolTableRecord
100
AcDbLayerTableRecord
  2
HILFEN
 70
0
 62
7
  6
CONTINUOUS
370
-3
390
F
  0
LAYER
  5
201
100
AcDbSymbolTableRecord
100
AcDbLayerTableRecord
  2
PLATZIERUNG
 70
0
 62
7
  6
CONTINUOUS
370
-3
390
F
  0
LAYER
  5
202
100
AcDbSymbolTableRecord
100
AcDbLayerTableRecord
  2
RUNDUNGEN
 70
0
 62
7
  6
CONTINUOUS
370
-3
390
F
  0
LAYER
  5
203
100
AcDbSymbolTableRecord
100
AcDbLayerTableRecord
  2
T_STARTBEZUEGE
 70
0
 62
7
  6
CONTINUOUS
370
-3
390
F
  0
LAYER
  5
204
100
AcDbSymbolTableRecord
100
AcDbLayerTableRecord
  2
ZEICHNUNGSBEMASSUNGEN
 70
0
 62
7
  6
CONTINUOUS
370
-3
390
F
  0
ENDTAB
  0
TABLE
  2
STYLE
  5
3
100
AcDbSymbolTable
 70
1
  0
STYLE
  5
11
100
AcDbSymbolTableRecord
100
AcDbTextStyleTableRecord
  2
STANDARD
 70
0
 40
0.0
 41
0.7
 50
0.0
 71
0
 42
0.2
  3
txt
  4

  0
STYLE
  5
205
100
AcDbSymbolTableRecord
100
AcDbTextStyleTableRecord
  2
TEXTSTYLE_1
 70
0
 40
0.0
 41
0.8
 50
0.0
 71
0
 42
0.2
  3
gdt
  4

  0
ENDTAB
  0
TABLE
  2
VIEW
  5
6
100
AcDbSymbolTable
 70
0
  0
ENDTAB
  0
TABLE
  2
UCS
  5
7
100
AcDbSymbolTable
 70
0
  0
ENDTAB
  0
TABLE
  2
APPID
  5
9
100
AcDbSymbolTable
 70
1
  0
APPID
  5
206
100
AcDbSymbolTableRecord
100
AcDbRegAppTableRecord
  2
ACAD
 70
0
  0
ENDTAB
  0
TABLE
  2
BLOCK_RECORD
  5
1
100
AcDbSymbolTable
 70
0
  0
BLOCK_RECORD
  5
207
100
AcDbSymbolTableRecord
100
AcDbBlockTableRecord
  2
*Model_Space
  0
BLOCK_RECORD
  5
208
100
AcDbSymbolTableRecord
100
AcDbBlockTableRecord
  2
*Paper_Space
  0
ENDTAB
  0
TABLE
  2
DIMSTYLE
  5
A
100
AcDbSymbolTable
 70
1
100
AcDbDimStyleTable
 71
0
  0
DIMSTYLE
105
209
100
AcDbSymbolTableRecord
100
AcDbDimStyleTableRecord
  2
STANDARD
 70
0
  3

  4

 40
1.0
 41
3.5
 42
0.0625
 43
0.38
 44
0.18
 45
0.0
 46
0.0
 47
0.005
 48
0.005
140
3.5
141
0.09
142
0.0
143
25.4
144
1.0
145
0.0
146
1.0
147
0.09
 71
1.0
 72
0.0
 73
0
 74
0
 75
0
 76
0
 77
1
 78
8
170
0
171
2
172
0
173
0
174
0
175
0
176
0
177
0
178
5
270
2
271
3
272
3
273
2
274
2
275
0
280
0
281
0
282
0
283
1
284
8
285
0
286
0
287
3
288
0
340
11
  0
ENDTAB
  0
ENDSEC
  0
SECTION
  2
BLOCKS
  0
BLOCK
  5
20
100
AcDbEntity
  8
0
100
AcDbBlockBegin
  2
*Model_Space
 70
0
 10
0.0
 20
0.0
 30
0.0
  3
*Model_Space
  1

  0
ENDBLK
  5
21
100
AcDbEntity
  8
0
100
AcDbBlockEnd
  0
BLOCK
  5
1C
100
AcDbEntity
  8
0
100
AcDbBlockBegin
  2
*Paper_Space
 70
0
 10
0.0
 20
0.0
 30
0.0
  3
*Paper_Space
  1

  0
ENDBLK
  5
1D
100
AcDbEntity
  8
0
100
AcDbBlockEnd
  0
ENDSEC
  0
SECTION
  2
ENTITIES
  0
LINE
  5
20A
100
AcDbEntity
  8
0
100
AcDbLine
 62
7
  6
CONTINUOUS
 10
0.0
 20
0.0
 11
0.0
 21
297.0
  0
LINE
  5
20B
100
AcDbEntity
  8
0
100
AcDbLine
 62
7
  6
CONTINUOUS
 10
0.0
 20
0.0
 11
420.0
 21
0.0
  0
LINE
  5
20C
100
AcDbEntity
  8
0
100
AcDbLine
 62
7
  6
CONTINUOUS
 10
0.0
 20
297.0
 11
420.0
 21
297.0
  0
LINE
  5
20D
100
AcDbEntity
  8
0
100
AcDbLine
 62
7
  6
CONTINUOUS
 10
420.0
 20
0.0
 11
420.0
 21
297.0
  0
LINE
  5
20E
100
AcDbEntity
  8
BEZUGSACHSEN
100
AcDbLine
 62
7
  6
CONTINUOUS
 10
110.2203037483
 20
174.1724878536
 11
109.7574212707
 21
173.9959723234
  0
LINE
  5
20F
100
AcDbEntity
  8
0
100
AcDbLine
 62
7
  6
CONTINUOUS
 10
120.4106156706
 20
116.8013260018
 11
120.7718444404
 21
116.8882824389
  0
LINE
  5
210
100
AcDbEntity
  8
0
100
AcDbLine
 62
7
  6
CONTINUOUS
 10
88.388024948
 20
142.0572946581
 11
88.388024948
 21
143.0565266157
  0
LINE
  5
211
100
AcDbEntity
  8
0
100
AcDbLine
 62
7
  6
CONTINUOUS
 10
88.388024948
 20
148.5524546732
 11
88.388024948
 21
149.1654697297
  0
LINE
  5
212
100
AcDbEntity
  8
BEZUGSACHSEN
100
AcDbLine
 62
7
  6
CONTINUOUS
 10
106.7182602635
 20
172.4390482423
 11
106.4887508789
 21
172.2218120138
  0
LINE
  5
213
100
AcDbEntity
  8
BEZUGSACHSEN
100
AcDbLine
 62
7
  6
CONTINUOUS
 10
102.2062155023
 20
168.2277306811
 11
101.9722443958
 21
168.0153084151
  0
LINE
  5
214
100
AcDbEntity
  8
BEZUGSACHSEN
100
AcDbLine
 62
7
  6
CONTINUOUS
 10
102.2639406266
 20
167.8784242683
 11
102.4247319253
 21
167.9909304392
  0
LINE
  5
215
100
AcDbEntity
  8
BEZUGSACHSEN
100
AcDbLine
 62
7
  6
CONTINUOUS
 10
107.13891976
 20
172.700704237
 11
106.7182602635
 21
172.4390482423
  0
LINE
  5
216
100
AcDbEntity
  8
BEZUGSACHSEN
100
AcDbLine
 62
7
  6
CONTINUOUS
 10
106.9186775251
 20
172.1168411228
 11
107.3393370216
 21
172.3784971175
  0
LINE
  5
217
100
AcDbEntity
  8
BEZUGSACHSEN
100
AcDbLine
 62
7
  6
CONTINUOUS
 10
107.993816051
 20
172.2642444381
 11
108.3093105229
 21
172.4604863406
  0
LINE
  5
218
100
AcDbEntity
  8
BEZUGSACHSEN
100
AcDbLine
 62
7
  6
CONTINUOUS
 10
107.7352151627
 20
171.5075652078
 11
107.4197206907
 21
171.3113233053
  0
LINE
  5
219
100
AcDbEntity
  8
BEZUGSACHSEN
100
AcDbLine
 62
7
  6
CONTINUOUS
 10
107.6201379289
 20
170.9891162234
 11
107.9356324009
 21
171.1853581259
  0
LINE
  5
21A
100
AcDbEntity
  8
BEZUGSACHSEN
100
AcDbLine
 62
7
  6
CONTINUOUS
 10
102.542229805
 20
168.3654169874
 11
102.2062155023
 21
168.2277306811
  0
LINE
  5
21B
100
AcDbEntity
  8
BEZUGSACHSEN
100
AcDbLine
 62
7
  6
CONTINUOUS
 10
109.8907494186
 20
170.8656456088
 11
110.2379113596
 21
170.9980322881
  0
LINE
  5
21C
100
AcDbEntity
  8
BEZUGSACHSEN
100
AcDbLine
 62
7
  6
CONTINUOUS
 10
111.8580005278
 20
171.6158368334
 11
112.2051624688
 21
171.7482235127
  0
LINE
  5
21D
100
AcDbEntity
  8
BEZUGSACHSEN
100
AcDbLine
 62
7
  6
CONTINUOUS
 10
107.4352342948
 20
172.8105377212
 11
107.13891976
 21
172.700704237
  0
LINE
  5
21E
100
AcDbEntity
  8
BEZUGSACHSEN
100
AcDbLine
 62
7
  6
CONTINUOUS
 10
107.3238227954
 20
170.8792823603
 11
107.6201379289
 21
170.9891162234
  0
LINE
  5
21F
100
AcDbEntity
  8
BEZUGSACHSEN
100
AcDbLine
 62
7
  6
CONTINUOUS
 10
107.3393370216
 20
172.3784971175
 11
107.583069342
 21
172.4556237474
  0
LINE
  5
220
100
AcDbEntity
  8
BEZUGSACHSEN
100
AcDbLine
 62
7
  6
CONTINUOUS
 10
107.9789474831
 20
171.5846918377
 11
107.7352151627
 21
171.5075652078
  0
LINE
  5
221
100
AcDbEntity
  8
BEZUGSACHSEN
100
AcDbLine
 62
7
  6
CONTINUOUS
 10
107.4197206907
 20
171.3113233053
 11
107.1759883703
 21
171.2341966754
  0
LINE
  5
222
100
AcDbEntity
  8
0
100
AcDbLine
 62
7
  6
CONTINUOUS
 10
120.0761929431
 20
119.7781125974
 11
119.7149641733
 21
119.6911561603
  0
LINE
  5
223
100
AcDbEntity
  8
0
100
AcDbLine
 62
7
  6
CONTINUOUS
 10
124.8404174952
 20
120.4236231631
 11
124.6492673862
 21
120.3792033922
  0
LINE
  5
224
100
AcDbEntity
  8
0
100
AcDbLine
 62
7
  6
CONTINUOUS
 10
124.5199666178
 20
120.0008636274
 11
124.797102413
 21
120.0242894513
  0
LINE
  5
225
100
AcDbEntity
  8
0
100
AcDbLine
 62
7
  6
CONTINUOUS
 10
125.7293622941
 20
120.7531243783
 11
125.4522271007
 21
120.7296989287
  0
LINE
  5
226
100
AcDbEntity
  8
0
100
AcDbLine
 62
7
  6
CONTINUOUS
 10
124.9776947129
 20
118.7960120794
 11
125.3408156013
 21
118.7984435678
  0
LINE
  5
227
100
AcDbEntity
  8
BEZUGSACHSEN
100
AcDbLine
 62
7
  6
CONTINUOUS
 10
100.4186936896
 20
121.3847766191
 11
89.0776150082
 21
139.6404728162
  0
LINE
  5
228
100
AcDbEntity
  8
BEZUGSACHSEN
100
AcDbLine
 62
7
  6
CENTER
 10
93.0675269662
 20
145.8044906445
 11
93.0675269662
 21
141.5544906445
  0
LINE
  5
229
100
AcDbEntity
  8
BEZUGSACHSEN
100
AcDbLine
 62
7
  6
CENTER
 10
93.0675269662
 20
145.8044906445
 11
93.0675269662
 21
150.0544906445
  0
LINE
  5
22A
100
AcDbEntity
  8
RUNDUNGEN
100
AcDbLine
 62
7
  6
CONTINUOUS
 10
90.9982864828
 20
153.6113789854
 11
88.799892663
 21
150.4717472337
  0
LINE
  5
22B
100
AcDbEntity
  8
BEZUGSACHSEN
100
AcDbLine
 62
7
  6
CONTINUOUS
 10
101.9722443958
 20
168.0153084151
 11
101.7892944688
 21
167.7655175975
  0
LINE
  5
22C
100
AcDbEntity
  8
BEZUGSACHSEN
100
AcDbLine
 62
7
  6
CONTINUOUS
 10
102.0078100588
 20
167.5287162089
 11
102.2639406266
 21
167.8784242683
  0
LINE
  5
22D
100
AcDbEntity
  8
BEZUGSACHSEN
100
AcDbLine
 62
7
  6
CONTINUOUS
 10
103.2843642325
 20
167.1310532238
 11
103.0282336647
 21
166.7813451644
  0
LINE
  5
22E
100
AcDbEntity
  8
BEZUGSACHSEN
100
AcDbLine
 62
7
  6
CONTINUOUS
 10
103.3199298597
 20
166.6444610438
 11
103.5028797868
 21
166.8942518614
  0
LINE
  5
22F
100
AcDbEntity
  8
BEZUGSACHSEN
100
AcDbLine
 62
7
  6
CONTINUOUS
 10
106.7417509508
 20
171.9323121323
 11
106.9186775251
 21
172.1168411228
  0
LINE
  5
230
100
AcDbEntity
  8
BEZUGSACHSEN
100
AcDbLine
 62
7
  6
CONTINUOUS
 10
103.0859579203
 20
166.4320376311
 11
103.3199298597
 21
166.6444610438
  0
LINE
  5
231
100
AcDbEntity
  8
BEZUGSACHSEN
100
AcDbLine
 62
7
  6
CONTINUOUS
 10
103.9899083575
 20
165.8467308262
 11
104.2238794594
 21
166.0591530955
  0
LINE
  5
232
100
AcDbEntity
  8
BEZUGSACHSEN
100
AcDbLine
 62
7
  6
CONTINUOUS
 10
103.0282336647
 20
166.7813451644
 11
102.867442366
 21
166.6688389935
  0
LINE
  5
233
100
AcDbEntity
  8
BEZUGSACHSEN
100
AcDbLine
 62
7
  6
CONTINUOUS
 10
103.9321841019
 20
166.1960383595
 11
103.7713928032
 21
166.0835321886
  0
LINE
  5
234
100
AcDbEntity
  8
BEZUGSACHSEN
100
AcDbLine
 62
7
  6
CONTINUOUS
 10
107.6052694078
 20
170.3095635477
 11
107.2897749359
 21
170.1133216453
  0
LINE
  5
235
100
AcDbEntity
  8
BEZUGSACHSEN
100
AcDbLine
 62
7
  6
CONTINUOUS
 10
108.4032727169
 20
170.4335414511
 11
108.0877782449
 21
170.2372995486
  0
LINE
  5
236
100
AcDbEntity
  8
BEZUGSACHSEN
100
AcDbLine
 62
7
  6
CONTINUOUS
 10
108.3407776945
 20
169.9477993257
 11
108.6036899551
 21
170.1113343692
  0
LINE
  5
237
100
AcDbEntity
  8
BEZUGSACHSEN
100
AcDbLine
 62
7
  6
CONTINUOUS
 10
102.7499444684
 20
166.2943524584
 11
103.0859579203
 21
166.4320376311
  0
LINE
  5
238
100
AcDbEntity
  8
BEZUGSACHSEN
100
AcDbLine
 62
7
  6
CONTINUOUS
 10
103.6538949056
 20
165.7090456535
 11
103.9899083575
 21
165.8467308262
  0
LINE
  5
239
100
AcDbEntity
  8
BEZUGSACHSEN
100
AcDbLine
 62
7
  6
CONTINUOUS
 10
108.0444631627
 20
169.8379658369
 11
108.3407776945
 21
169.9477993257
  0
LINE
  5
23A
100
AcDbEntity
  8
BEZUGSACHSEN
100
AcDbLine
 62
7
  6
CONTINUOUS
 10
102.4247319253
 20
167.9909304392
 11
102.6365443989
 21
168.0660680619
  0
LINE
  5
23B
100
AcDbEntity
  8
BEZUGSACHSEN
100
AcDbLine
 62
7
  6
CONTINUOUS
 10
102.867442366
 20
166.6688389935
 11
102.6556298924
 21
166.5937013708
  0
LINE
  5
23C
100
AcDbEntity
  8
BEZUGSACHSEN
100
AcDbLine
 62
7
  6
CONTINUOUS
 10
103.7713928032
 20
166.0835321886
 11
103.5595803296
 21
166.0083945659
  0
LINE
  5
23D
100
AcDbEntity
  8
0
100
AcDbLine
 62
7
  6
CONTINUOUS
 10
124.6882716511
 20
121.3716817403
 11
124.8794217601
 21
121.4161015113
  0
LINE
  5
23E
100
AcDbEntity
  8
0
100
AcDbLine
 62
7
  6
CONTINUOUS
 10
124.6492673862
 20
120.3792033922
 11
124.4247144041
 21
120.3884848016
  0
LINE
  5
23F
100
AcDbEntity
  8
0
100
AcDbLine
 62
7
  6
CONTINUOUS
 10
125.6000615257
 20
120.3747846135
 11
125.8246145077
 21
120.3655032041
  0
LINE
  5
240
100
AcDbEntity
  8
0
100
AcDbLine
 62
7
  6
CONTINUOUS
 10
125.0421254016
 20
121.7407400957
 11
124.7315867333
 21
121.7710154521
  0
LINE
  5
241
100
AcDbEntity
  8
0
100
AcDbLine
 62
7
  6
CONTINUOUS
 10
125.192980554
 20
119.1533575416
 11
124.9350246756
 21
119.2163401689
  0
LINE
  5
242
100
AcDbEntity
  8
0
100
AcDbLine
 62
7
  6
CONTINUOUS
 10
124.1760256783
 20
120.0848405385
 11
124.5199666178
 21
120.0008636274
  0
LINE
  5
243
100
AcDbEntity
  8
BEZUGSACHSEN
100
AcDbLine
 62
7
  6
CONTINUOUS
 10
101.94906111
 20
167.3414729414
 11
102.0078100588
 21
167.5287162089
  0
LINE
  5
244
100
AcDbEntity
  8
BEZUGSACHSEN
100
AcDbLine
 62
7
  6
CONTINUOUS
 10
101.7892944688
 20
167.7655175975
 11
101.6573648837
 21
167.4783570849
  0
LINE
  5
245
100
AcDbEntity
  8
BEZUGSACHSEN
100
AcDbLine
 62
7
  6
CONTINUOUS
 10
103.5028797868
 20
166.8942518614
 11
103.6348085389
 21
167.1814112272
  0
LINE
  5
246
100
AcDbEntity
  8
BEZUGSACHSEN
100
AcDbLine
 62
7
  6
CONTINUOUS
 10
106.4887508789
 20
172.2218120138
 11
106.3452271864
 21
171.9835818289
  0
LINE
  5
247
100
AcDbEntity
  8
BEZUGSACHSEN
100
AcDbLine
 62
7
  6
CONTINUOUS
 10
103.333336164
 20
166.0205829691
 11
103.150386237
 21
165.7707921515
  0
LINE
  5
248
100
AcDbEntity
  8
BEZUGSACHSEN
100
AcDbLine
 62
7
  6
CONTINUOUS
 10
104.1517243493
 20
166.495787798
 11
103.9321841019
 21
166.1960383595
  0
LINE
  5
249
100
AcDbEntity
  8
BEZUGSACHSEN
100
AcDbLine
 62
7
  6
CONTINUOUS
 10
104.2238794594
 20
166.0591530955
 11
104.3702399036
 21
166.2589864356
  0
LINE
  5
24A
100
AcDbEntity
  8
BEZUGSACHSEN
100
AcDbLine
 62
7
  6
CONTINUOUS
 10
108.5276170798
 20
170.5853635826
 11
108.4032727169
 21
170.4335414511
  0
LINE
  5
24B
100
AcDbEntity
  8
BEZUGSACHSEN
100
AcDbLine
 62
7
  6
CONTINUOUS
 10
108.6036899551
 20
170.1113343692
 11
108.7806165294
 21
170.2958633597
  0
LINE
  5
24C
100
AcDbEntity
  8
0
100
AcDbLine
 62
7
  6
CONTINUOUS
 10
130.2889390761
 20
125.3523979049
 11
130.0261054276
 21
125.3146288306
  0
LINE
  5
24D
100
AcDbEntity
  8
0
100
AcDbLine
 62
7
  6
CONTINUOUS
 10
130.1204200036
 20
125.0152799181
 11
130.2956421568
 21
125.0404589199
  0
LINE
  5
24E
100
AcDbEntity
  8
0
100
AcDbLine
 62
7
  6
CONTINUOUS
 10
129.9199652498
 20
123.2431637887
 11
130.2338200911
 21
123.2435643016
  0
LINE
  5
24F
100
AcDbEntity
  8
0
100
AcDbLine
 62
7
  6
CONTINUOUS
 10
129.4360098139
 20
125.9003361615
 11
129.1221549904
 21
125.8999356355
  0
LINE
  5
250
100
AcDbEntity
  8
0
100
AcDbLine
 62
7
  6
CONTINUOUS
 10
130.1395054972
 20
123.5429132271
 11
129.9132621333
 21
123.5551027999
  0
LINE
  5
251
100
AcDbEntity
  8
0
100
AcDbLine
 62
7
  6
CONTINUOUS
 10
126.0733032336
 20
120.6691474672
 11
125.7293622941
 21
120.7531243783
  0
LINE
  5
252
100
AcDbEntity
  8
0
100
AcDbLine
 62
7
  6
CONTINUOUS
 10
124.8794217601
 20
121.4161015113
 11
125.0513925307
 21
121.3741132429
  0
LINE
  5
253
100
AcDbEntity
  8
0
100
AcDbLine
 62
7
  6
CONTINUOUS
 10
124.6529330767
 20
118.9663970861
 11
124.9776947129
 21
118.7960120794
  0
LINE
  5
254
100
AcDbEntity
  8
RUNDUNGEN
100
AcDbLine
 62
7
  6
CONTINUOUS
 10
96.5561846352
 20
139.4657526828
 11
96.5561846352
 21
153.0894972111
  0
LINE
  5
255
100
AcDbEntity
  8
BEZUGSACHSEN
100
AcDbLine
 62
7
  6
CONTINUOUS
 10
96.7085229299
 20
140.0966190846
 11
96.7085229299
 21
149.6549756323
  0
LINE
  5
256
100
AcDbEntity
  8
BEZUGSACHSEN
100
AcDbLine
 62
7
  6
CONTINUOUS
 10
103.3431131813
 20
167.3182964913
 11
103.2843642325
 21
167.1310532238
  0
LINE
  5
257
100
AcDbEntity
  8
BEZUGSACHSEN
100
AcDbLine
 62
7
  6
CONTINUOUS
 10
104.2104732981
 20
166.6830310655
 11
104.1517243493
 21
166.495787798
  0
LINE
  5
258
100
AcDbEntity
  8
BEZUGSACHSEN
100
AcDbLine
 62
7
  6
CONTINUOUS
 10
106.6508094842
 20
171.7267887829
 11
106.7417509508
 21
171.9323121323
  0
LINE
  5
259
100
AcDbEntity
  8
BEZUGSACHSEN
100
AcDbLine
 62
7
  6
CONTINUOUS
 10
108.6185585697
 20
170.7908868945
 11
108.5276170798
 21
170.5853635826
  0
LINE
  5
25A
100
AcDbEntity
  8
BEZUGSACHSEN
100
AcDbLine
 62
7
  6
CONTINUOUS
 10
104.3702399036
 20
166.2589864356
 11
104.5021686557
 21
166.5461458015
  0
LINE
  5
25B
100
AcDbEntity
  8
BEZUGSACHSEN
100
AcDbLine
 62
7
  6
CONTINUOUS
 10
108.7806165294
 20
170.2958633597
 11
108.9241408325
 21
170.5340939049
  0
LINE
  5
25C
100
AcDbEntity
  8
0
100
AcDbLine
 62
7
  6
CONTINUOUS
 10
129.2164695664
 20
125.600586723
 11
129.442713732
 21
125.5883983199
  0
LINE
  5
25D
100
AcDbEntity
  8
0
100
AcDbLine
 62
7
  6
CONTINUOUS
 10
129.591679536
 20
123.330090458
 11
129.9199652498
 21
123.2431637887
  0
LINE
  5
25E
100
AcDbEntity
  8
0
100
AcDbLine
 62
7
  6
CONTINUOUS
 10
125.3334841297
 20
121.6240563256
 11
125.0421254016
 21
121.7407400957
  0
LINE
  5
25F
100
AcDbEntity
  8
0
100
AcDbLine
 62
7
  6
CONTINUOUS
 10
125.8246145077
 20
120.3655032041
 11
126.0299881982
 21
120.2698136802
  0
LINE
  5
260
100
AcDbEntity
  8
BEZUGSACHSEN
100
AcDbLine
 62
7
  6
CONTINUOUS
 10
101.9413333362
 20
167.1168611256
 11
101.94906111
 21
167.3414729414
  0
LINE
  5
261
100
AcDbEntity
  8
BEZUGSACHSEN
100
AcDbLine
 62
7
  6
CONTINUOUS
 10
101.6573648837
 20
167.4783570849
 11
101.6274784948
 21
167.1164606126
  0
LINE
  5
262
100
AcDbEntity
  8
BEZUGSACHSEN
100
AcDbLine
 62
7
  6
CONTINUOUS
 10
106.3452271864
 20
171.9835818289
 11
106.2685092428
 21
171.6379492786
  0
LINE
  5
263
100
AcDbEntity
  8
0
100
AcDbLine
 62
7
  6
CONTINUOUS
 10
130.6172247541
 20
125.2654712617
 11
130.2889390761
 21
125.3523979049
  0
LINE
  5
264
100
AcDbEntity
  8
0
100
AcDbLine
 62
7
  6
CONTINUOUS
 10
129.9132621333
 20
123.5551027999
 11
129.7236082881
 21
123.6172498239
  0
LINE
  5
265
100
AcDbEntity
  8
0
100
AcDbLine
 62
7
  6
CONTINUOUS
 10
130.2956421568
 20
125.0404589199
 11
130.4852960735
 21
124.9783118435
  0
LINE
  5
266
100
AcDbEntity
  8
0
100
AcDbLine
 62
7
  6
CONTINUOUS
 10
129.6256636591
 20
125.8381891375
 11
129.4360098139
 21
125.9003361615
  0
LINE
  5
267
100
AcDbEntity
  8
0
100
AcDbLine
 62
7
  6
CONTINUOUS
 10
126.3120797971
 20
120.519756763
 11
126.0733032336
 21
120.6691474672
  0
LINE
  5
268
100
AcDbEntity
  8
0
100
AcDbLine
 62
7
  6
CONTINUOUS
 10
125.0513925307
 20
121.3741132429
 11
125.1707804882
 21
121.2994177412
  0
LINE
  5
269
100
AcDbEntity
  8
0
100
AcDbLine
 62
7
  6
CONTINUOUS
 10
124.9350246756
 20
119.2163401689
 11
124.7822338451
 21
119.3447368508
  0
LINE
  5
26A
100
AcDbEntity
  8
0
100
AcDbLine
 62
7
  6
CONTINUOUS
 10
124.4247144041
 20
120.3884848016
 11
124.2719235736
 21
120.5168814835
  0
LINE
  5
26B
100
AcDbEntity
  8
BEZUGSACHSEN
100
AcDbLine
 62
7
  6
CONTINUOUS
 10
103.3508409551
 20
167.5429083071
 11
103.3431131813
 21
167.3182964913
  0
LINE
  5
26C
100
AcDbEntity
  8
BEZUGSACHSEN
100
AcDbLine
 62
7
  6
CONTINUOUS
 10
103.6348085389
 20
167.1814112272
 11
103.6502640866
 21
167.6306348589
  0
LINE
  5
26D
100
AcDbEntity
  8
BEZUGSACHSEN
100
AcDbLine
 62
7
  6
CONTINUOUS
 10
104.2182010719
 20
166.9076428813
 11
104.2104732981
 21
166.6830310655
  0
LINE
  5
26E
100
AcDbEntity
  8
BEZUGSACHSEN
100
AcDbLine
 62
7
  6
CONTINUOUS
 10
104.5021686557
 20
166.5461458015
 11
104.5320558954
 21
166.9080434074
  0
LINE
  5
26F
100
AcDbEntity
  8
BEZUGSACHSEN
100
AcDbLine
 62
7
  6
CONTINUOUS
 10
108.9241408325
 20
170.5340939049
 11
109.0008587877
 21
170.8797264363
  0
LINE
  5
270
100
AcDbEntity
  8
0
100
AcDbLine
 62
7
  6
CONTINUOUS
 10
129.1979409196
 20
123.5417117275
 11
129.591679536
 21
123.330090458
  0
LINE
  5
271
100
AcDbEntity
  8
0
100
AcDbLine
 62
7
  6
CONTINUOUS
 10
125.4862749601
 20
121.4956596437
 11
125.3334841297
 21
121.6240563256
  0
LINE
  5
272
100
AcDbEntity
  8
0
100
AcDbLine
 62
7
  6
CONTINUOUS
 10
124.4667393731
 20
119.1484949484
 11
124.6529330767
 21
118.9663970861
  0
LINE
  5
273
100
AcDbEntity
  8
0
100
AcDbLine
 62
7
  6
CONTINUOUS
 10
123.9898319747
 20
120.2669384008
 11
124.1760256783
 21
120.0848405385
  0
LINE
  5
274
100
AcDbEntity
  8
0
100
AcDbLine
 62
7
  6
CONTINUOUS
 10
122.6519841353
 20
117.879299628
 11
120.9180493683
 21
119.9931444555
  0
LINE
  5
275
100
AcDbEntity
  8
0
100
AcDbLine
 62
7
  6
CONTINUOUS
 10
120.5708874273
 20
119.8607577763
 11
122.5557461478
 21
117.4364934353
  0
LINE
  5
276
100
AcDbEntity
  8
BEZUGSACHSEN
100
AcDbLine
 62
7
  6
CONTINUOUS
 10
105.288024948
 20
151.9808454454
 11
105.288024948
 21
140.0966190765
  0
LINE
  5
277
100
AcDbEntity
  8
RUNDUNGEN
100
AcDbLine
 62
7
  6
CONTINUOUS
 10
105.388024948
 20
139.4657526828
 11
105.388024948
 21
153.0894972111
  0
LINE
  5
278
100
AcDbEntity
  8
BEZUGSACHSEN
100
AcDbLine
 62
7
  6
CONTINUOUS
 10
105.388024948
 20
154.0893501734
 11
105.388024948
 21
157.3034960683
  0
LINE
  5
279
100
AcDbEntity
  8
BEZUGSACHSEN
100
AcDbLine
 62
7
  6
CONTINUOUS
 10
106.6458530788
 20
171.5002711497
 11
106.6508094842
 21
171.7267887829
  0
LINE
  5
27A
100
AcDbEntity
  8
0
100
AcDbLine
 62
7
  6
CONTINUOUS
 10
128.8407926951
 20
123.8032915656
 11
129.1979409196
 21
123.5417117275
  0
LINE
  5
27B
100
AcDbEntity
  8
0
100
AcDbLine
 62
7
  6
CONTINUOUS
 10
129.1257858095
 20
123.9783464301
 11
129.0237434596
 21
124.0530835267
  0
LINE
  5
27C
100
AcDbEntity
  8
0
100
AcDbLine
 62
7
  6
CONTINUOUS
 10
129.7236082881
 20
123.6172498239
 11
129.5705447633
 21
123.7293554688
  0
LINE
  5
27D
100
AcDbEntity
  8
0
100
AcDbLine
 62
7
  6
CONTINUOUS
 10
130.4852960735
 20
124.9783118435
 11
130.6383595983
 21
124.8662061986
  0
LINE
  5
27E
100
AcDbEntity
  8
BEZUGSACHSEN
100
AcDbLine
 62
7
  6
CONTINUOUS
 10
103.3219784086
 20
167.7175615021
 11
103.3508409551
 21
167.5429083071
  0
LINE
  5
27F
100
AcDbEntity
  8
BEZUGSACHSEN
100
AcDbLine
 62
7
  6
CONTINUOUS
 10
106.2685092428
 20
171.6379492786
 11
106.2969557338
 21
171.3577304275
  0
LINE
  5
280
100
AcDbEntity
  8
BEZUGSACHSEN
100
AcDbLine
 62
7
  6
CONTINUOUS
 10
109.7574212707
 20
173.9959723234
 11
109.8907494186
 21
170.8656456088
  0
LINE
  5
281
100
AcDbEntity
  8
0
100
AcDbLine
 62
7
  6
CONTINUOUS
 10
109.388024948
 20
153.0880878362
 11
109.388024948
 21
148.2020156445
  0
LINE
  5
282
100
AcDbEntity
  8
0
100
AcDbLine
 62
7
  6
CONTINUOUS
 10
109.388024948
 20
143.4069656445
 11
109.388024948
 21
136.2207553146
  0
LINE
  5
283
100
AcDbEntity
  8
BEZUGSACHSEN
100
AcDbLine
 62
7
  6
CONTINUOUS
 10
124.3154308634
 20
137.6034960683
 11
126.4720369384
 21
137.6034960683
  0
LINE
  5
284
100
AcDbEntity
  8
BEZUGSACHSEN
100
AcDbLine
 62
7
  6
CONTINUOUS
 10
137.1358532704
 20
137.6034960683
 11
141.0188146398
 21
137.6034960683
  0
LINE
  5
285
100
AcDbEntity
  8
RUNDUNGEN
100
AcDbLine
 62
7
  6
CONTINUOUS
 10
104.4720369384
 20
138.5497646733
 11
97.4721726448
 21
138.5497646733
  0
LINE
  5
286
100
AcDbEntity
  8
BEZUGSACHSEN
100
AcDbLine
 62
7
  6
CONTINUOUS
 10
97.6245109395
 20
139.1806104099
 11
104.3720369384
 21
139.1806104099
  0
LINE
  5
287
100
AcDbEntity
  8
0
100
AcDbLine
 62
7
  6
CONTINUOUS
 10
130.8723307002
 20
125.0786284679
 11
130.6172247541
 21
125.2654712617
  0
LINE
  5
288
100
AcDbEntity
  8
0
100
AcDbLine
 62
7
  6
CONTINUOUS
 10
128.520234791
 20
124.1148300246
 11
128.8407926951
 21
123.8032915656
  0
LINE
  5
289
100
AcDbEntity
  8
0
100
AcDbLine
 62
7
  6
CONTINUOUS
 10
129.0237434596
 20
124.0530835267
 11
128.7542058929
 21
124.3272522939
  0
LINE
  5
28A
100
AcDbEntity
  8
0
100
AcDbLine
 62
7
  6
CONTINUOUS
 10
123.856220389
 20
120.4817432725
 11
123.9898319747
 21
120.2669384008
  0
LINE
  5
28B
100
AcDbEntity
  8
0
100
AcDbLine
 62
7
  6
CONTINUOUS
 10
124.2719235736
 20
120.5168814835
 11
124.2051178276
 21
120.6242838442
  0
LINE
  5
28C
100
AcDbEntity
  8
BEZUGSACHSEN
100
AcDbLine
 62
7
  6
CONTINUOUS
 10
102.0212170934
 20
166.9048393561
 11
101.9413333362
 21
167.1168611256
  0
LINE
  5
28D
100
AcDbEntity
  8
BEZUGSACHSEN
100
AcDbLine
 62
7
  6
CONTINUOUS
 10
101.6274784948
 20
167.1164606126
 11
101.7217930887
 21
166.8171116871
  0
LINE
  5
28E
100
AcDbEntity
  8
BEZUGSACHSEN
100
AcDbLine
 62
7
  6
CONTINUOUS
 10
110.2379113596
 20
170.9980322881
 11
110.1240657607
 21
173.729681661
  0
LINE
  5
28F
100
AcDbEntity
  8
0
100
AcDbLine
 62
7
  6
CONTINUOUS
 10
126.0299881982
 20
120.2698136802
 11
126.1301968173
 21
120.1087101393
  0
LINE
  5
290
100
AcDbEntity
  8
0
100
AcDbLine
 62
7
  6
CONTINUOUS
 10
126.4790941623
 20
120.2512508614
 11
126.3120797971
 21
120.519756763
  0
LINE
  5
291
100
AcDbEntity
  8
BEZUGSACHSEN
100
AcDbLine
 62
7
  6
CONTINUOUS
 10
104.1383173505
 20
167.1196646246
 11
104.2182010719
 21
166.9076428813
  0
LINE
  5
292
100
AcDbEntity
  8
BEZUGSACHSEN
100
AcDbLine
 62
7
  6
CONTINUOUS
 10
104.5320558954
 20
166.9080434074
 11
104.4377413194
 21
167.2073923198
  0
LINE
  5
293
100
AcDbEntity
  8
0
100
AcDbLine
 62
7
  6
CONTINUOUS
 10
119.7149641733
 20
119.6911561603
 11
120.4106156706
 21
116.8013260018
  0
LINE
  5
294
100
AcDbEntity
  8
T_STARTBEZUEGE
100
AcDbLine
 62
7
  6
CENTER
 10
116.388024948
 20
109.5054852207
 11
116.388024948
 21
182.1034960683
  0
LINE
  5
295
100
AcDbEntity
  8
0
100
AcDbLine
 62
7
  6
CONTINUOUS
 10
96.5561846352
 20
143.4069656445
 11
96.7085229299
 21
143.4069656445
  0
LINE
  5
296
100
AcDbEntity
  8
0
100
AcDbLine
 62
7
  6
CONTINUOUS
 10
105.288024948
 20
143.4069656445
 11
105.388024948
 21
143.4069656445
  0
LINE
  5
297
100
AcDbEntity
  8
0
100
AcDbLine
 62
7
  6
CONTINUOUS
 10
109.388024948
 20
143.4069656445
 11
123.388024948
 21
143.4069656445
  0
LINE
  5
298
100
AcDbEntity
  8
0
100
AcDbLine
 62
7
  6
CONTINUOUS
 10
127.388024948
 20
143.4069656445
 11
127.488024948
 21
143.4069656445
  0
LINE
  5
299
100
AcDbEntity
  8
0
100
AcDbLine
 62
7
  6
CONTINUOUS
 10
136.0675269662
 20
143.4069656445
 11
136.2198652608
 21
143.4069656445
  0
LINE
  5
29A
100
AcDbEntity
  8
BEZUGSACHSEN
100
AcDbLine
 62
7
  6
CENTER
 10
139.7085229299
 20
145.8044906445
 11
135.4585229299
 21
145.8044906445
  0
LINE
  5
29B
100
AcDbEntity
  8
BEZUGSACHSEN
100
AcDbLine
 62
7
  6
CENTER
 10
93.0675269662
 20
145.8044906445
 11
88.8175269662
 21
145.8044906445
  0
LINE
  5
29C
100
AcDbEntity
  8
T_STARTBEZUEGE
100
AcDbLine
 62
7
  6
CENTER
 10
85.386803819
 20
145.8044906445
 11
147.3892460771
 21
145.8044906445
  0
LINE
  5
29D
100
AcDbEntity
  8
BEZUGSACHSEN
100
AcDbLine
 62
7
  6
CENTER
 10
93.0675269662
 20
145.8044906445
 11
97.3175269662
 21
145.8044906445
  0
LINE
  5
29E
100
AcDbEntity
  8
BEZUGSACHSEN
100
AcDbLine
 62
7
  6
CENTER
 10
139.7085229299
 20
145.8044906445
 11
143.9585229299
 21
145.8044906445
  0
LINE
  5
29F
100
AcDbEntity
  8
0
100
AcDbLine
 62
7
  6
CONTINUOUS
 10
128.7542058929
 20
124.3272522939
 11
128.6377325456
 21
124.4893166644
  0
LINE
  5
2A0
100
AcDbEntity
  8
0
100
AcDbLine
 62
7
  6
CONTINUOUS
 10
129.5705447633
 20
123.7293554688
 11
129.4540714875
 21
123.8914197869
  0
LINE
  5
2A1
100
AcDbEntity
  8
0
100
AcDbLine
 62
7
  6
CONTINUOUS
 10
130.6383595983
 20
124.8662061986
 11
130.7548328027
 21
124.7041419328
  0
LINE
  5
2A2
100
AcDbEntity
  8
0
100
AcDbLine
 62
7
  6
CONTINUOUS
 10
128.3383085767
 20
124.4015889692
 11
128.520234791
 21
124.1148300246
  0
LINE
  5
2A3
100
AcDbEntity
  8
BEZUGSACHSEN
100
AcDbLine
 62
7
  6
CONTINUOUS
 10
101.7217930887
 20
166.8171116871
 11
101.9037191958
 21
166.5303528211
  0
LINE
  5
2A4
100
AcDbEntity
  8
0
100
AcDbLine
 62
7
  6
CONTINUOUS
 10
123.7751911083
 20
120.7292548527
 11
123.856220389
 21
120.4817432725
  0
LINE
  5
2A5
100
AcDbEntity
  8
BEZUGSACHSEN
100
AcDbLine
 62
7
  6
CONTINUOUS
 10
108.5709320685
 20
170.9846974448
 11
108.6185585697
 21
170.7908868945
  0
LINE
  5
2A6
100
AcDbEntity
  8
0
100
AcDbLine
 62
7
  6
CONTINUOUS
 10
120.7718444404
 20
116.8882824389
 11
120.0761929431
 21
119.7781125974
  0
LINE
  5
2A7
100
AcDbEntity
  8
0
100
AcDbLine
 62
7
  6
CONTINUOUS
 10
96.5561846352
 20
148.2020156445
 11
96.7085229299
 21
148.2020156445
  0
LINE
  5
2A8
100
AcDbEntity
  8
0
100
AcDbLine
 62
7
  6
CONTINUOUS
 10
105.288024948
 20
148.2020156445
 11
105.388024948
 21
148.2020156445
  0
LINE
  5
2A9
100
AcDbEntity
  8
0
100
AcDbLine
 62
7
  6
CONTINUOUS
 10
109.388024948
 20
148.2020156445
 11
123.388024948
 21
148.2020156445
  0
LINE
  5
2AA
100
AcDbEntity
  8
0
100
AcDbLine
 62
7
  6
CONTINUOUS
 10
127.388024948
 20
148.2020156445
 11
127.488024948
 21
148.2020156445
  0
LINE
  5
2AB
100
AcDbEntity
  8
0
100
AcDbLine
 62
7
  6
CONTINUOUS
 10
136.0675269662
 20
148.2020156445
 11
136.2198652608
 21
148.2020156445
  0
LINE
  5
2AC
100
AcDbEntity
  8
BEZUGSACHSEN
100
AcDbLine
 62
7
  6
CONTINUOUS
 10
102.1376902978
 20
166.7427750903
 11
102.0212170934
 21
166.9048393561
  0
LINE
  5
2AD
100
AcDbEntity
  8
BEZUGSACHSEN
100
AcDbLine
 62
7
  6
CONTINUOUS
 10
103.2055051327
 20
167.8796258202
 11
103.3219784086
 21
167.7175615021
  0
LINE
  5
2AE
100
AcDbEntity
  8
BEZUGSACHSEN
100
AcDbLine
 62
7
  6
CONTINUOUS
 10
104.0218440031
 20
167.2817289951
 11
104.1383173505
 21
167.1196646246
  0
LINE
  5
2AF
100
AcDbEntity
  8
0
100
AcDbLine
 62
7
  6
CONTINUOUS
 10
131.0542568073
 20
124.7918696019
 11
130.8723307002
 21
125.0786284679
  0
LINE
  5
2B0
100
AcDbEntity
  8
BEZUGSACHSEN
100
AcDbLine
 62
7
  6
CONTINUOUS
 10
104.4377413194
 20
167.2073923198
 11
104.2558151051
 21
167.4941512643
  0
LINE
  5
2B1
100
AcDbEntity
  8
BEZUGSACHSEN
100
AcDbLine
 62
7
  6
CONTINUOUS
 10
109.0008587877
 20
170.8797264363
 11
108.919829507
 21
171.1272380165
  0
LINE
  5
2B2
100
AcDbEntity
  8
0
100
AcDbLine
 62
7
  6
CONTINUOUS
 10
124.2051178276
 20
120.6242838442
 11
124.1574913263
 21
120.8180943945
  0
LINE
  5
2B3
100
AcDbEntity
  8
BEZUGSACHSEN
100
AcDbLine
 62
7
  6
CONTINUOUS
 10
112.0042054556
 20
174.7206988501
 11
112.6998569529
 21
171.8308686915
  0
LINE
  5
2B4
100
AcDbEntity
  8
BEZUGSACHSEN
100
AcDbLine
 62
7
  6
CONTINUOUS
 10
113.0610857227
 20
171.9178251287
 11
112.3654342254
 21
174.8076552872
  0
LINE
  5
2B5
100
AcDbEntity
  8
0
100
AcDbLine
 62
7
  6
CONTINUOUS
 10
123.0186286254
 20
117.6130089656
 11
122.8853004774
 21
120.7433356802
  0
LINE
  5
2B6
100
AcDbEntity
  8
0
100
AcDbLine
 62
7
  6
CONTINUOUS
 10
122.5381385365
 20
120.6109490009
 11
122.6519841353
 21
117.879299628
  0
LINE
  5
2B7
100
AcDbEntity
  8
BEZUGSACHSEN
100
AcDbLine
 62
7
  6
CONTINUOUS
 10
106.2969557338
 20
171.3577304275
 11
106.4639700989
 21
171.089224526
  0
LINE
  5
2B8
100
AcDbEntity
  8
BEZUGSACHSEN
100
AcDbLine
 62
7
  6
CONTINUOUS
 10
106.7460616979
 20
171.3391676087
 11
106.6458530788
 21
171.5002711497
  0
LINE
  5
2B9
100
AcDbEntity
  8
0
100
AcDbLine
 62
7
  6
CONTINUOUS
 10
128.6377325456
 20
124.4893166644
 11
128.5578488241
 21
124.7013384076
  0
LINE
  5
2BA
100
AcDbEntity
  8
0
100
AcDbLine
 62
7
  6
CONTINUOUS
 10
130.7548328027
 20
124.7041419328
 11
130.8347165599
 21
124.4921201634
  0
LINE
  5
2BB
100
AcDbEntity
  8
0
100
AcDbLine
 62
7
  6
CONTINUOUS
 10
128.2439940007
 20
124.7009378816
 11
128.3383085767
 21
124.4015889692
  0
LINE
  5
2BC
100
AcDbEntity
  8
0
100
AcDbLine
 62
7
  6
CONTINUOUS
 10
126.5075406532
 20
119.9710320103
 11
126.4790941623
 21
120.2512508614
  0
LINE
  5
2BD
100
AcDbEntity
  8
BEZUGSACHSEN
100
AcDbLine
 62
7
  6
CONTINUOUS
 10
123.388024948
 20
138.5208934528
 11
123.388024948
 21
143.4069656445
  0
LINE
  5
2BE
100
AcDbEntity
  8
BEZUGSACHSEN
100
AcDbLine
 62
7
  6
CONTINUOUS
 10
123.388024948
 20
148.2020156445
 11
123.388024948
 21
155.3882259744
  0
LINE
  5
2BF
100
AcDbEntity
  8
0
100
AcDbLine
 62
7
  6
CONTINUOUS
 10
135.1515389566
 20
152.4283708791
 11
128.4040129576
 21
152.4283708791
  0
LINE
  5
2C0
100
AcDbEntity
  8
BEZUGSACHSEN
100
AcDbLine
 62
7
  6
CONTINUOUS
 10
128.3040186548
 20
153.0592166157
 11
135.3038896956
 21
153.0592166157
  0
LINE
  5
2C1
100
AcDbEntity
  8
BEZUGSACHSEN
100
AcDbLine
 62
7
  6
CONTINUOUS
 10
108.4606190327
 20
154.0054852207
 11
106.3040129576
 21
154.0054852207
  0
LINE
  5
2C2
100
AcDbEntity
  8
BEZUGSACHSEN
100
AcDbLine
 62
7
  6
CONTINUOUS
 10
95.6401966256
 20
154.0054852207
 11
91.7572352562
 21
154.0054852207
  0
LINE
  5
2C3
100
AcDbEntity
  8
BEZUGSACHSEN
100
AcDbLine
 62
7
  6
CONTINUOUS
 10
101.9037191958
 20
166.5303528211
 11
102.1588251419
 21
166.3435100272
  0
LINE
  5
2C4
100
AcDbEntity
  8
BEZUGSACHSEN
100
AcDbLine
 62
7
  6
CONTINUOUS
 10
102.2907538226
 20
166.6306694454
 11
102.1376902978
 21
166.7427750903
  0
LINE
  5
2C5
100
AcDbEntity
  8
BEZUGSACHSEN
100
AcDbLine
 62
7
  6
CONTINUOUS
 10
104.2558151051
 20
167.4941512643
 11
103.935257201
 21
167.8056897233
  0
LINE
  5
2C6
100
AcDbEntity
  8
BEZUGSACHSEN
100
AcDbLine
 62
7
  6
CONTINUOUS
 10
103.7523064364
 20
167.5558977623
 11
104.0218440031
 21
167.2817289951
  0
LINE
  5
2C7
100
AcDbEntity
  8
BEZUGSACHSEN
100
AcDbLine
 62
7
  6
CONTINUOUS
 10
108.5041263224
 20
171.0920998055
 11
108.5709320685
 21
170.9846974448
  0
LINE
  5
2C8
100
AcDbEntity
  8
BEZUGSACHSEN
100
AcDbLine
 62
7
  6
CONTINUOUS
 10
108.919829507
 20
171.1272380165
 11
108.7862179213
 21
171.3420428882
  0
LINE
  5
2C9
100
AcDbEntity
  8
0
100
AcDbLine
 62
7
  6
CONTINUOUS
 10
131.1485714012
 20
124.4925206764
 11
131.0542568073
 21
124.7918696019
  0
LINE
  5
2CA
100
AcDbEntity
  8
RUNDUNGEN
100
AcDbLine
 62
7
  6
CONTINUOUS
 10
127.388024948
 20
137.3292662507
 11
127.388024948
 21
134.3054852207
  0
LINE
  5
2CB
100
AcDbEntity
  8
BEZUGSACHSEN
100
AcDbLine
 62
7
  6
CONTINUOUS
 10
127.388024948
 20
138.5194840779
 11
127.388024948
 21
152.1432286061
  0
LINE
  5
2CC
100
AcDbEntity
  8
BEZUGSACHSEN
100
AcDbLine
 62
7
  6
CONTINUOUS
 10
127.488024948
 20
139.6281358436
 11
127.488024948
 21
142.3343673973
  0
LINE
  5
2CD
100
AcDbEntity
  8
0
100
AcDbLine
 62
7
  6
CONTINUOUS
 10
127.488024948
 20
142.3343673973
 11
127.488024948
 21
149.2007803623
  0
LINE
  5
2CE
100
AcDbEntity
  8
RUNDUNGEN
100
AcDbLine
 62
7
  6
CONTINUOUS
 10
127.488024948
 20
142.3343673973
 11
127.488024948
 21
151.5123622124
  0
LINE
  5
2CF
100
AcDbEntity
  8
0
100
AcDbLine
 62
7
  6
CONTINUOUS
 10
126.1301968173
 20
120.1087101393
 11
126.1252404118
 21
119.8821925061
  0
LINE
  5
2D0
100
AcDbEntity
  8
BEZUGSACHSEN
100
AcDbLine
 62
7
  6
CONTINUOUS
 10
103.0524416079
 20
167.9917314651
 11
103.2055051327
 21
167.8796258202
  0
LINE
  5
2D1
100
AcDbEntity
  8
BEZUGSACHSEN
100
AcDbLine
 62
7
  6
CONTINUOUS
 10
103.6502640866
 20
167.6306348589
 11
103.7523064364
 21
167.5558977623
  0
LINE
  5
2D2
100
AcDbEntity
  8
BEZUGSACHSEN
100
AcDbLine
 62
7
  6
CONTINUOUS
 10
103.935257201
 20
167.8056897233
 11
103.5781089764
 21
168.0672695614
  0
LINE
  5
2D3
100
AcDbEntity
  8
0
100
AcDbLine
 62
7
  6
CONTINUOUS
 10
129.4540714875
 20
123.8914197869
 11
129.4252089409
 21
124.0660729818
  0
LINE
  5
2D4
100
AcDbEntity
  8
0
100
AcDbLine
 62
7
  6
CONTINUOUS
 10
128.5578488241
 20
124.7013384076
 11
128.565576598
 21
124.9259502235
  0
LINE
  5
2D5
100
AcDbEntity
  8
0
100
AcDbLine
 62
7
  6
CONTINUOUS
 10
129.1412413572
 20
124.4275700617
 11
129.1257858095
 21
123.9783464301
  0
LINE
  5
2D6
100
AcDbEntity
  8
0
100
AcDbLine
 62
7
  6
CONTINUOUS
 10
129.4252089409
 20
124.0660729818
 11
129.4329367148
 21
124.2906847977
  0
LINE
  5
2D7
100
AcDbEntity
  8
0
100
AcDbLine
 62
7
  6
CONTINUOUS
 10
128.2738812404
 20
125.0628354875
 11
128.2439940007
 21
124.7009378816
  0
LINE
  5
2D8
100
AcDbEntity
  8
0
100
AcDbLine
 62
7
  6
CONTINUOUS
 10
123.8519090636
 20
121.0748873841
 11
123.7751911083
 21
120.7292548527
  0
LINE
  5
2D9
100
AcDbEntity
  8
BEZUGSACHSEN
100
AcDbLine
 62
7
  6
CONTINUOUS
 10
103.150386237
 20
165.7707921515
 11
103.3400400822
 21
165.7086451275
  0
LINE
  5
2DA
100
AcDbEntity
  8
BEZUGSACHSEN
100
AcDbLine
 62
7
  6
CONTINUOUS
 10
103.5781089764
 20
168.0672695614
 11
103.18437036
 21
168.278890831
  0
LINE
  5
2DB
100
AcDbEntity
  8
BEZUGSACHSEN
100
AcDbLine
 62
7
  6
CONTINUOUS
 10
107.2897749359
 20
170.1133216453
 11
107.4425657664
 21
169.9849249633
  0
LINE
  5
2DC
100
AcDbEntity
  8
BEZUGSACHSEN
100
AcDbLine
 62
7
  6
CONTINUOUS
 10
108.3513354919
 20
171.2204964874
 11
108.5041263224
 21
171.0920998055
  0
LINE
  5
2DD
100
AcDbEntity
  8
BEZUGSACHSEN
100
AcDbLine
 62
7
  6
CONTINUOUS
 10
107.8410252205
 20
172.3926411201
 11
107.993816051
 21
172.2642444381
  0
LINE
  5
2DE
100
AcDbEntity
  8
BEZUGSACHSEN
100
AcDbLine
 62
7
  6
CONTINUOUS
 10
108.7862179213
 20
171.3420428882
 11
108.6000242178
 21
171.5241407505
  0
LINE
  5
2DF
100
AcDbEntity
  8
BEZUGSACHSEN
100
AcDbLine
 62
7
  6
CONTINUOUS
 10
108.3093105229
 20
172.4604863406
 11
108.1231168194
 21
172.6425842029
  0
LINE
  5
2E0
100
AcDbEntity
  8
BEZUGSACHSEN
100
AcDbLine
 62
7
  6
CONTINUOUS
 10
110.1240657607
 20
173.729681661
 11
111.8580005278
 21
171.6158368334
  0
LINE
  5
2E1
100
AcDbEntity
  8
BEZUGSACHSEN
100
AcDbLine
 62
7
  6
CONTINUOUS
 10
112.2051624688
 20
171.7482235127
 11
110.2203037483
 21
174.1724878536
  0
LINE
  5
2E2
100
AcDbEntity
  8
0
100
AcDbLine
 62
7
  6
CONTINUOUS
 10
130.8347165599
 20
124.4921201634
 11
130.826988786
 21
124.2675083476
  0
LINE
  5
2E3
100
AcDbEntity
  8
0
100
AcDbLine
 62
7
  6
CONTINUOUS
 10
131.1186850124
 20
124.1306242041
 11
131.1485714012
 21
124.4925206764
  0
LINE
  5
2E4
100
AcDbEntity
  8
0
100
AcDbLine
 62
7
  6
CONTINUOUS
 10
126.4308227097
 20
119.6253994601
 11
126.5075406532
 21
119.9710320103
  0
LINE
  5
2E5
100
AcDbEntity
  8
0
100
AcDbLine
 62
7
  6
CONTINUOUS
 10
124.1574913263
 20
120.8180943945
 11
124.2484328162
 21
121.0236177064
  0
LINE
  5
2E6
100
AcDbEntity
  8
BEZUGSACHSEN
100
AcDbLine
 62
7
  6
CONTINUOUS
 10
102.1588251419
 20
166.3435100272
 11
102.4871108199
 21
166.2565833841
  0
LINE
  5
2E7
100
AcDbEntity
  8
BEZUGSACHSEN
100
AcDbLine
 62
7
  6
CONTINUOUS
 10
102.4804077392
 20
166.5685223691
 11
102.2907538226
 21
166.6306694454
  0
LINE
  5
2E8
100
AcDbEntity
  8
BEZUGSACHSEN
100
AcDbLine
 62
7
  6
CONTINUOUS
 10
102.8627877627
 20
168.0538784891
 11
103.0524416079
 21
167.9917314651
  0
LINE
  5
2E9
100
AcDbEntity
  8
BEZUGSACHSEN
100
AcDbLine
 62
7
  6
CONTINUOUS
 10
107.7246573653
 20
170.2348680461
 11
107.6052694078
 21
170.3095635477
  0
LINE
  5
2EA
100
AcDbEntity
  8
BEZUGSACHSEN
100
AcDbLine
 62
7
  6
CONTINUOUS
 10
106.4639700989
 20
171.089224526
 11
106.7027466624
 21
170.9398338218
  0
LINE
  5
2EB
100
AcDbEntity
  8
BEZUGSACHSEN
100
AcDbLine
 62
7
  6
CONTINUOUS
 10
136.0675269662
 20
142.6186786593
 11
136.0675269662
 21
141.9540056567
  0
LINE
  5
2EC
100
AcDbEntity
  8
RUNDUNGEN
100
AcDbLine
 62
7
  6
CONTINUOUS
 10
136.0675269662
 20
142.6186786593
 11
136.0675269662
 21
151.5123622044
  0
LINE
  5
2ED
100
AcDbEntity
  8
BEZUGSACHSEN
100
AcDbLine
 62
7
  6
CONTINUOUS
 10
136.2198652608
 20
152.1432286061
 11
136.2198652608
 21
138.5194840779
  0
LINE
  5
2EE
100
AcDbEntity
  8
0
100
AcDbLine
 62
7
  6
CONTINUOUS
 10
128.565576598
 20
124.9259502235
 11
128.6243255468
 21
125.113193491
  0
LINE
  5
2EF
100
AcDbEntity
  8
0
100
AcDbLine
 62
7
  6
CONTINUOUS
 10
129.4329367148
 20
124.2906847977
 11
129.4916856636
 21
124.4779280652
  0
LINE
  5
2F0
100
AcDbEntity
  8
0
100
AcDbLine
 62
7
  6
CONTINUOUS
 10
130.826988786
 20
124.2675083476
 11
130.7682398373
 21
124.0802650801
  0
LINE
  5
2F1
100
AcDbEntity
  8
0
100
AcDbLine
 62
7
  6
CONTINUOUS
 10
126.1252404118
 20
119.8821925061
 11
126.0342989453
 21
119.6766691567
  0
LINE
  5
2F2
100
AcDbEntity
  8
0
100
AcDbLine
 62
7
  6
CONTINUOUS
 10
128.4058099925
 20
125.3499948534
 11
128.2738812404
 21
125.0628354875
  0
LINE
  5
2F3
100
AcDbEntity
  8
0
100
AcDbLine
 62
7
  6
CONTINUOUS
 10
129.2731701093
 20
124.7147294276
 11
129.1412413572
 21
124.4275700617
  0
LINE
  5
2F4
100
AcDbEntity
  8
0
100
AcDbLine
 62
7
  6
CONTINUOUS
 10
123.9954333666
 20
121.3131179293
 11
123.8519090636
 21
121.0748873841
  0
LINE
  5
2F5
100
AcDbEntity
  8
BEZUGSACHSEN
100
AcDbLine
 62
7
  6
CONTINUOUS
 10
103.3400400822
 20
165.7086451275
 11
103.6538949056
 21
165.7090456535
  0
LINE
  5
2F6
100
AcDbEntity
  8
BEZUGSACHSEN
100
AcDbLine
 62
7
  6
CONTINUOUS
 10
103.5595803296
 20
166.0083945659
 11
103.333336164
 21
166.0205829691
  0
LINE
  5
2F7
100
AcDbEntity
  8
BEZUGSACHSEN
100
AcDbLine
 62
7
  6
CONTINUOUS
 10
103.18437036
 20
168.278890831
 11
102.8560846463
 21
168.3658175003
  0
LINE
  5
2F8
100
AcDbEntity
  8
BEZUGSACHSEN
100
AcDbLine
 62
7
  6
CONTINUOUS
 10
107.4425657664
 20
169.9849249633
 11
107.7339244945
 21
169.8682411933
  0
LINE
  5
2F9
100
AcDbEntity
  8
BEZUGSACHSEN
100
AcDbLine
 62
7
  6
CONTINUOUS
 10
106.9514353883
 20
171.2434780848
 11
106.7460616979
 21
171.3391676087
  0
LINE
  5
2FA
100
AcDbEntity
  8
BEZUGSACHSEN
100
AcDbLine
 62
7
  6
CONTINUOUS
 10
108.1231168194
 20
172.6425842029
 11
107.7983551832
 21
172.8129692096
  0
LINE
  5
2FB
100
AcDbEntity
  8
BEZUGSACHSEN
100
AcDbLine
 62
7
  6
CENTER
 10
139.7085229299
 20
145.8044906445
 11
139.7085229299
 21
141.5544906445
  0
LINE
  5
2FC
100
AcDbEntity
  8
BEZUGSACHSEN
100
AcDbLine
 62
7
  6
CENTER
 10
139.7085229299
 20
145.8044906445
 11
139.7085229299
 21
150.0544906445
  0
LINE
  5
2FD
100
AcDbEntity
  8
0
100
AcDbLine
 62
7
  6
CONTINUOUS
 10
130.9867554273
 20
123.8434636915
 11
131.1186850124
 21
124.1306242041
  0
LINE
  5
2FE
100
AcDbEntity
  8
0
100
AcDbLine
 62
7
  6
CONTINUOUS
 10
126.2872990171
 20
119.3871692752
 11
126.4308227097
 21
119.6253994601
  0
LINE
  5
2FF
100
AcDbEntity
  8
0
100
AcDbLine
 62
7
  6
CONTINUOUS
 10
128.5521704366
 20
125.5498281935
 11
128.4058099925
 21
125.3499948534
  0
LINE
  5
300
100
AcDbEntity
  8
0
100
AcDbLine
 62
7
  6
CONTINUOUS
 10
128.6243255468
 20
125.113193491
 11
128.8438657942
 21
125.4129429295
  0
LINE
  5
301
100
AcDbEntity
  8
0
100
AcDbLine
 62
7
  6
CONTINUOUS
 10
129.442713732
 20
125.5883983199
 11
129.6256636591
 21
125.8381891375
  0
LINE
  5
302
100
AcDbEntity
  8
0
100
AcDbLine
 62
7
  6
CONTINUOUS
 10
129.4561200363
 20
124.9645202452
 11
129.2731701093
 21
124.7147294276
  0
LINE
  5
303
100
AcDbEntity
  8
0
100
AcDbLine
 62
7
  6
CONTINUOUS
 10
129.4916856636
 20
124.4779280652
 11
129.7478162314
 21
124.8276361246
  0
LINE
  5
304
100
AcDbEntity
  8
0
100
AcDbLine
 62
7
  6
CONTINUOUS
 10
124.2484328162
 20
121.0236177064
 11
124.3727771792
 21
121.1754398379
  0
LINE
  5
305
100
AcDbEntity
  8
0
100
AcDbLine
 62
7
  6
CONTINUOUS
 10
124.172359941
 20
121.4976469198
 11
123.9954333666
 21
121.3131179293
  0
LINE
  5
306
100
AcDbEntity
  8
0
100
AcDbLine
 62
7
  6
CONTINUOUS
 10
128.7861415386
 20
125.7622504628
 11
128.5521704366
 21
125.5498281935
  0
LINE
  5
307
100
AcDbEntity
  8
0
100
AcDbLine
 62
7
  6
CONTINUOUS
 10
129.1221549904
 20
125.8999356355
 11
128.7861415386
 21
125.7622504628
  0
LINE
  5
308
100
AcDbEntity
  8
0
100
AcDbLine
 62
7
  6
CONTINUOUS
 10
129.0046570928
 20
125.5254491004
 11
129.2164695664
 21
125.600586723
  0
LINE
  5
309
100
AcDbEntity
  8
BEZUGSACHSEN
100
AcDbLine
 62
7
  6
CONTINUOUS
 10
102.4871108199
 20
166.2565833841
 11
102.7499444684
 21
166.2943524584
  0
LINE
  5
30A
100
AcDbEntity
  8
BEZUGSACHSEN
100
AcDbLine
 62
7
  6
CONTINUOUS
 10
102.6556298924
 20
166.5937013708
 11
102.4804077392
 21
166.5685223691
  0
LINE
  5
30B
100
AcDbEntity
  8
BEZUGSACHSEN
100
AcDbLine
 62
7
  6
CONTINUOUS
 10
102.8560846463
 20
168.3658175003
 11
102.542229805
 21
168.3654169874
  0
LINE
  5
30C
100
AcDbEntity
  8
BEZUGSACHSEN
100
AcDbLine
 62
7
  6
CONTINUOUS
 10
102.6365443989
 20
168.0660680619
 11
102.8627877627
 21
168.0538784891
  0
LINE
  5
30D
100
AcDbEntity
  8
BEZUGSACHSEN
100
AcDbLine
 62
7
  6
CONTINUOUS
 10
107.7339244945
 20
169.8682411933
 11
108.0444631627
 21
169.8379658369
  0
LINE
  5
30E
100
AcDbEntity
  8
BEZUGSACHSEN
100
AcDbLine
 62
7
  6
CONTINUOUS
 10
107.8966281359
 20
170.1928797777
 11
107.7246573653
 21
170.2348680461
  0
LINE
  5
30F
100
AcDbEntity
  8
BEZUGSACHSEN
100
AcDbLine
 62
7
  6
CONTINUOUS
 10
106.7027466624
 20
170.9398338218
 11
107.0466876019
 21
170.8558569107
  0
LINE
  5
310
100
AcDbEntity
  8
BEZUGSACHSEN
100
AcDbLine
 62
7
  6
CONTINUOUS
 10
108.6000242178
 20
171.5241407505
 11
108.2560832783
 21
171.6081176615
  0
LINE
  5
311
100
AcDbEntity
  8
BEZUGSACHSEN
100
AcDbLine
 62
7
  6
CONTINUOUS
 10
141.7777634133
 20
137.9976023035
 11
143.9761572331
 21
141.1372340553
  0
LINE
  5
312
100
AcDbEntity
  8
0
100
AcDbLine
 62
7
  6
CONTINUOUS
 10
130.7682398373
 20
124.0802650801
 11
130.5121092694
 21
123.7305570207
  0
LINE
  5
313
100
AcDbEntity
  8
0
100
AcDbLine
 62
7
  6
CONTINUOUS
 10
130.8038055002
 20
123.5936728739
 11
130.9867554273
 21
123.8434636915
  0
LINE
  5
314
100
AcDbEntity
  8
0
100
AcDbLine
 62
7
  6
CONTINUOUS
 10
126.0342989453
 20
119.6766691567
 11
125.857372371
 21
119.4921401661
  0
LINE
  5
315
100
AcDbEntity
  8
0
100
AcDbLine
 62
7
  6
CONTINUOUS
 10
126.0577896325
 20
119.1699330467
 11
126.2872990171
 21
119.3871692752
  0
LINE
  5
316
100
AcDbEntity
  8
0
100
AcDbLine
 62
7
  6
CONTINUOUS
 10
129.6900919758
 20
125.1769436579
 11
129.4561200363
 21
124.9645202452
  0
LINE
  5
317
100
AcDbEntity
  8
0
100
AcDbLine
 62
7
  6
CONTINUOUS
 10
130.5698343938
 20
123.3812506079
 11
130.8038055002
 21
123.5936728739
  0
LINE
  5
318
100
AcDbEntity
  8
0
100
AcDbLine
 62
7
  6
CONTINUOUS
 10
128.8438657942
 20
125.4129429295
 11
129.0046570928
 21
125.5254491004
  0
LINE
  5
319
100
AcDbEntity
  8
0
100
AcDbLine
 62
7
  6
CONTINUOUS
 10
129.7478162314
 20
124.8276361246
 11
129.90860753
 21
124.9401422955
  0
LINE
  5
31A
100
AcDbEntity
  8
0
100
AcDbLine
 62
7
  6
CONTINUOUS
 10
130.5121092694
 20
123.7305570207
 11
130.3513179708
 21
123.6180508498
  0
LINE
  5
31B
100
AcDbEntity
  8
0
100
AcDbLine
 62
7
  6
CONTINUOUS
 10
124.4352722015
 20
121.6611819632
 11
124.172359941
 21
121.4976469198
  0
LINE
  5
31C
100
AcDbEntity
  8
0
100
AcDbLine
 62
7
  6
CONTINUOUS
 10
124.3727771792
 20
121.1754398379
 11
124.6882716511
 21
121.3716817403
  0
LINE
  5
31D
100
AcDbEntity
  8
0
100
AcDbLine
 62
7
  6
CONTINUOUS
 10
125.1707804882
 20
121.2994177412
 11
125.4862749601
 21
121.4956596437
  0
LINE
  5
31E
100
AcDbEntity
  8
0
100
AcDbLine
 62
7
  6
CONTINUOUS
 10
125.1559119671
 20
120.6198650655
 11
124.8404174952
 21
120.4236231631
  0
LINE
  5
31F
100
AcDbEntity
  8
0
100
AcDbLine
 62
7
  6
CONTINUOUS
 10
125.0408347334
 20
120.1014160812
 11
125.3563292053
 21
120.2976579837
  0
LINE
  5
320
100
AcDbEntity
  8
0
100
AcDbLine
 62
7
  6
CONTINUOUS
 10
130.0261054276
 20
125.3146288306
 11
129.6900919758
 21
125.1769436579
  0
LINE
  5
321
100
AcDbEntity
  8
0
100
AcDbLine
 62
7
  6
CONTINUOUS
 10
130.2338200911
 20
123.2435643016
 11
130.5698343938
 21
123.3812506079
  0
LINE
  5
322
100
AcDbEntity
  8
0
100
AcDbLine
 62
7
  6
CONTINUOUS
 10
122.8853004774
 20
120.7433356802
 11
122.5381385365
 21
120.6109490009
  0
LINE
  5
323
100
AcDbEntity
  8
0
100
AcDbLine
 62
7
  6
CONTINUOUS
 10
120.9180493683
 20
119.9931444555
 11
120.5708874273
 21
119.8607577763
  0
LINE
  5
324
100
AcDbEntity
  8
0
100
AcDbLine
 62
7
  6
CONTINUOUS
 10
124.7315867333
 20
121.7710154521
 11
124.4352722015
 21
121.6611819632
  0
LINE
  5
325
100
AcDbEntity
  8
0
100
AcDbLine
 62
7
  6
CONTINUOUS
 10
129.90860753
 20
124.9401422955
 11
130.1204200036
 21
125.0152799181
  0
LINE
  5
326
100
AcDbEntity
  8
0
100
AcDbLine
 62
7
  6
CONTINUOUS
 10
130.3513179708
 20
123.6180508498
 11
130.1395054972
 21
123.5429132271
  0
LINE
  5
327
100
AcDbEntity
  8
BEZUGSACHSEN
100
AcDbLine
 62
7
  6
CONTINUOUS
 10
112.6998569529
 20
171.8308686915
 11
113.0610857227
 21
171.9178251287
  0
LINE
  5
328
100
AcDbEntity
  8
BEZUGSACHSEN
100
AcDbLine
 62
7
  6
CONTINUOUS
 10
108.0877782449
 20
170.2372995486
 11
107.8966281359
 21
170.1928797777
  0
LINE
  5
329
100
AcDbEntity
  8
BEZUGSACHSEN
100
AcDbLine
 62
7
  6
CONTINUOUS
 10
107.0466876019
 20
170.8558569107
 11
107.3238227954
 21
170.8792823603
  0
LINE
  5
32A
100
AcDbEntity
  8
BEZUGSACHSEN
100
AcDbLine
 62
7
  6
CONTINUOUS
 10
108.2560832783
 20
171.6081176615
 11
107.9789474831
 21
171.5846918377
  0
LINE
  5
32B
100
AcDbEntity
  8
BEZUGSACHSEN
100
AcDbLine
 62
7
  6
CONTINUOUS
 10
107.1759883703
 20
171.2341966754
 11
106.9514353883
 21
171.2434780848
  0
LINE
  5
32C
100
AcDbEntity
  8
BEZUGSACHSEN
100
AcDbLine
 62
7
  6
CONTINUOUS
 10
108.1267825099
 20
171.2297778968
 11
108.3513354919
 21
171.2204964874
  0
LINE
  5
32D
100
AcDbEntity
  8
BEZUGSACHSEN
100
AcDbLine
 62
7
  6
CONTINUOUS
 10
107.583069342
 20
172.4556237474
 11
107.8410252205
 21
172.3926411201
  0
LINE
  5
32E
100
AcDbEntity
  8
BEZUGSACHSEN
100
AcDbLine
 62
7
  6
CONTINUOUS
 10
132.3573562065
 20
170.2242046699
 11
143.6984348878
 21
151.9685084728
  0
LINE
  5
32F
100
AcDbEntity
  8
BEZUGSACHSEN
100
AcDbLine
 62
7
  6
CONTINUOUS
 10
144.388024948
 20
149.5516866309
 11
144.388024948
 21
148.5524546732
  0
LINE
  5
330
100
AcDbEntity
  8
BEZUGSACHSEN
100
AcDbLine
 62
7
  6
CONTINUOUS
 10
144.388024948
 20
143.0565266157
 11
144.388024948
 21
142.4435115593
  0
LINE
  5
331
100
AcDbEntity
  8
0
100
AcDbLine
 62
7
  6
CONTINUOUS
 10
124.7822338451
 20
119.3447368508
 11
124.4667393731
 21
119.1484949484
  0
LINE
  5
332
100
AcDbEntity
  8
0
100
AcDbLine
 62
7
  6
CONTINUOUS
 10
125.857372371
 20
119.4921401661
 11
125.4367128744
 21
119.2304841714
  0
LINE
  5
333
100
AcDbEntity
  8
0
100
AcDbLine
 62
7
  6
CONTINUOUS
 10
125.637130136
 20
118.908277052
 11
126.0577896325
 21
119.1699330467
  0
LINE
  5
334
100
AcDbEntity
  8
0
100
AcDbLine
 62
7
  6
CONTINUOUS
 10
122.5557461478
 20
117.4364934353
 11
123.0186286254
 21
117.6130089656
  0
LINE
  5
335
100
AcDbEntity
  8
0
100
AcDbLine
 62
7
  6
CONTINUOUS
 10
125.4522271007
 20
120.7296989287
 11
125.1559119671
 21
120.6198650655
  0
LINE
  5
336
100
AcDbEntity
  8
0
100
AcDbLine
 62
7
  6
CONTINUOUS
 10
125.3408156013
 20
118.7984435678
 11
125.637130136
 21
118.908277052
  0
LINE
  5
337
100
AcDbEntity
  8
0
100
AcDbLine
 62
7
  6
CONTINUOUS
 10
125.3563292053
 20
120.2976579837
 11
125.6000615257
 21
120.3747846135
  0
LINE
  5
338
100
AcDbEntity
  8
0
100
AcDbLine
 62
7
  6
CONTINUOUS
 10
124.797102413
 20
120.0242894513
 11
125.0408347334
 21
120.1014160812
  0
LINE
  5
339
100
AcDbEntity
  8
0
100
AcDbLine
 62
7
  6
CONTINUOUS
 10
125.4367128744
 20
119.2304841714
 11
125.192980554
 21
119.1533575416
  0
LINE
  5
33A
100
AcDbEntity
  8
BEZUGSACHSEN
100
AcDbLine
 62
7
  6
CONTINUOUS
 10
112.3654342254
 20
174.8076552872
 11
112.0042054556
 21
174.7206988501
  0
LINE
  5
33B
100
AcDbEntity
  8
BEZUGSACHSEN
100
AcDbLine
 62
7
  6
CONTINUOUS
 10
107.9356324009
 20
171.1853581259
 11
108.1267825099
 21
171.2297778968
  0
LINE
  5
33C
100
AcDbEntity
  8
BEZUGSACHSEN
100
AcDbLine
 62
7
  6
CONTINUOUS
 10
107.7983551832
 20
172.8129692096
 11
107.4352342948
 21
172.8105377212
  0
LINE
  5
33D
100
AcDbEntity
  8
AUSFORMSCHRAEGEN
100
AcDbLine
 62
7
  6
CONTINUOUS
 10
167.423405672
 20
112.5054852207
 11
169.6930438862
 21
112.7440338095
  0
LINE
  5
33E
100
AcDbEntity
  8
BEZUGSACHSEN
100
AcDbLine
 62
7
  6
CONTINUOUS
 10
167.423405672
 20
112.5054852207
 11
169.6930438862
 21
112.7440338095
  0
LINE
  5
33F
100
AcDbEntity
  8
BEZUGSACHSEN
100
AcDbLine
 62
7
  6
CONTINUOUS
 10
167.423405672
 20
112.5054852207
 11
165.1537674579
 21
112.7440338095
  0
LINE
  5
340
100
AcDbEntity
  8
BEZUGSACHSEN
100
AcDbLine
 62
8
  6
HIDDEN
 10
167.423405672
 20
123.3054852207
 11
166.7237480002
 21
123.1946703319
  0
LINE
  5
341
100
AcDbEntity
  8
BEZUGSACHSEN
100
AcDbLine
 62
8
  6
HIDDEN
 10
167.423405672
 20
123.3054852207
 11
168.1230633439
 21
123.1946703319
  0
LINE
  5
342
100
AcDbEntity
  8
BEZUGSACHSEN
100
AcDbLine
 62
7
  6
CONTINUOUS
 10
162.222568163
 20
155.4663058294
 11
161.4599790251
 21
154.7037166915
  0
LINE
  5
343
100
AcDbEntity
  8
BEZUGSACHSEN
100
AcDbLine
 62
7
  6
CONTINUOUS
 10
161.4599952337
 20
136.7986683888
 11
162.1159840885
 21
136.142679534
  0
LINE
  5
344
100
AcDbEntity
  8
BEZUGSACHSEN
100
AcDbLine
 62
7
  6
CONTINUOUS
 10
160.923405672
 20
153.4083140254
 11
160.923405672
 21
150.4831796453
  0
LINE
  5
345
100
AcDbEntity
  8
RUNDUNGEN
100
AcDbLine
 62
7
  6
CONTINUOUS
 10
160.923405672
 20
150.4831796453
 11
160.923405672
 21
149.5133489359
  0
LINE
  5
346
100
AcDbEntity
  8
BEZUGSACHSEN
100
AcDbLine
 62
7
  6
CONTINUOUS
 10
160.923405672
 20
149.5133489359
 11
160.923405672
 21
138.0940872636
  0
LINE
  5
347
100
AcDbEntity
  8
BEZUGSACHSEN
100
AcDbLine
 62
7
  6
CONTINUOUS
 10
163.985413979
 20
165.3589872732
 11
162.7413126922
 21
156.5067466458
  0
LINE
  5
348
100
AcDbEntity
  8
BEZUGSACHSEN
100
AcDbLine
 62
7
  6
CONTINUOUS
 10
162.6347327781
 20
135.1022340324
 11
163.8788337996
 21
126.2499952921
  0
LINE
  5
349
100
AcDbEntity
  8
BEZUGSACHSEN
100
AcDbLine
 62
7
  6
CONTINUOUS
 10
163.923405672
 20
125.6125880963
 11
163.923405672
 21
114.1104890066
  0
LINE
  5
34A
100
AcDbEntity
  8
BEZUGSACHSEN
100
AcDbLine
 62
7
  6
CONTINUOUS
 10
164.029985672
 20
153.2695567155
 11
164.029985672
 21
177.5096942917
  0
LINE
  5
34B
100
AcDbEntity
  8
T_STARTBEZUEGE
100
AcDbLine
 62
7
  6
CENTER
 10
167.423405672
 20
182.1034960683
 11
167.423405672
 21
109.5054852207
  0
LINE
  5
34C
100
AcDbEntity
  8
BEZUGSACHSEN
100
AcDbLine
 62
7
  6
CONTINUOUS
 10
167.423405672
 20
179.1034960683
 11
167.423405672
 21
157.5717936119
  0
LINE
  5
34D
100
AcDbEntity
  8
T_STARTBEZUEGE
100
AcDbLine
 62
7
  6
CENTER
 10
177.4363859105
 20
145.8044906445
 11
157.8196774887
 21
145.8044906445
  0
LINE
  5
34E
100
AcDbEntity
  8
BEZUGSACHSEN
100
AcDbLine
 62
7
  6
CONTINUOUS
 10
170.816825672
 20
177.5096942917
 11
170.816825672
 21
153.2701718893
  0
LINE
  5
34F
100
AcDbEntity
  8
RUNDUNGEN
100
AcDbLine
 62
7
  6
CONTINUOUS
 10
170.923405672
 20
125.6125880963
 11
170.923405672
 21
114.1104890066
  0
LINE
  5
350
100
AcDbEntity
  8
BEZUGSACHSEN
100
AcDbLine
 62
7
  6
CONTINUOUS
 10
173.923405672
 20
153.4083140254
 11
173.923405672
 21
150.4831796453
  0
LINE
  5
351
100
AcDbEntity
  8
RUNDUNGEN
100
AcDbLine
 62
7
  6
CONTINUOUS
 10
173.923405672
 20
150.4831796453
 11
173.923405672
 21
138.0940872636
  0
LINE
  5
352
100
AcDbEntity
  8
RUNDUNGEN
100
AcDbLine
 62
7
  6
CONTINUOUS
 10
172.212078566
 20
135.1022340324
 11
170.9679775445
 21
126.2499952921
  0
LINE
  5
353
100
AcDbEntity
  8
BEZUGSACHSEN
100
AcDbLine
 62
7
  6
CONTINUOUS
 10
170.8613973651
 20
165.3589872732
 11
172.1054986518
 21
156.5067466458
  0
LINE
  5
354
100
AcDbEntity
  8
RUNDUNGEN
100
AcDbLine
 62
7
  6
CONTINUOUS
 10
173.3868161104
 20
136.7986683888
 11
172.7308272556
 21
136.142679534
  0
LINE
  5
355
100
AcDbEntity
  8
BEZUGSACHSEN
100
AcDbLine
 62
7
  6
CONTINUOUS
 10
172.6242433554
 20
155.4663056551
 11
173.386832319
 21
154.7037166915
  0
LINE
  5
356
100
AcDbEntity
  8
BEZUGSACHSEN
100
AcDbLine
 62
8
  6
HIDDEN
 10
167.423405672
 20
168.3034960683
 11
167.9192159896
 21
168.382024708
  0
LINE
  5
357
100
AcDbEntity
  8
BEZUGSACHSEN
100
AcDbLine
 62
8
  6
HIDDEN
 10
167.423405672
 20
168.3034960683
 11
166.9275953545
 21
168.382024708
  0
LINE
  5
358
100
AcDbEntity
  8
BEZUGSACHSEN
100
AcDbLine
 62
7
  6
CONTINUOUS
 10
167.423405672
 20
179.1034960683
 11
165.2603474579
 21
178.8761494889
  0
LINE
  5
359
100
AcDbEntity
  8
BEZUGSACHSEN
100
AcDbLine
 62
7
  6
CONTINUOUS
 10
167.423405672
 20
179.1034960683
 11
169.5864638862
 21
178.8761494889
  0
ARC
  5
35A
100
AcDbEntity
  8
BEZUGSACHSEN
100
AcDbCircle
 62
7
  6
CONTINUOUS
 10
104.8080849001
 20
136.2207553146
 40
4.5799400479
100
AcDbArc
 50
337.0005149599
 51
360.0
  0
ARC
  5
35B
100
AcDbEntity
  8
BEZUGSACHSEN
100
AcDbCircle
 62
7
  6
CONTINUOUS
 10
92.9679649959
 20
142.0572946581
 40
4.5799400479
100
AcDbArc
 50
180.0
 51
211.85
  0
ARC
  5
35C
100
AcDbEntity
  8
BEZUGSACHSEN
100
AcDbCircle
 62
7
  6
CONTINUOUS
 10
104.3720369384
 20
140.0965984195
 40
0.9159880096
100
AcDbArc
 50
270.0
 51
360.0
  0
ARC
  5
35D
100
AcDbEntity
  8
BEZUGSACHSEN
100
AcDbCircle
 62
7
  6
CONTINUOUS
 10
97.6245109395
 20
140.0965984195
 40
0.9159880096
100
AcDbArc
 50
180.0
 51
270.0
  0
ARC
  5
35E
100
AcDbEntity
  8
RUNDUNGEN
100
AcDbCircle
 62
7
  6
CONTINUOUS
 10
97.4721726448
 20
139.4657526828
 40
0.9159880096
100
AcDbArc
 50
180.0
 51
269.9991802294
  0
ARC
  5
35F
100
AcDbEntity
  8
RUNDUNGEN
100
AcDbCircle
 62
7
  6
CONTINUOUS
 10
104.4720369384
 20
139.4657526828
 40
0.9159880096
100
AcDbArc
 50
269.9994379862
 51
360.0
  0
ARC
  5
360
100
AcDbEntity
  8
BEZUGSACHSEN
100
AcDbCircle
 62
7
  6
CONTINUOUS
 10
104.4720369384
 20
139.4657526828
 40
0.9159880096
100
AcDbArc
 50
269.9994379862
 51
295.6778110176
  0
ARC
  5
361
100
AcDbEntity
  8
BEZUGSACHSEN
100
AcDbCircle
 62
7
  6
CONTINUOUS
 10
94.4948091654
 20
152.8575684099
 40
3.8932157826
100
AcDbArc
 50
304.6532165268
 51
77.8060972633
  0
ARC
  5
362
100
AcDbEntity
  8
BEZUGSACHSEN
100
AcDbCircle
 62
7
  6
CONTINUOUS
 10
109.0812407306
 20
152.8575684099
 40
3.8932157826
100
AcDbArc
 50
161.5551407253
 51
193.0141976473
  0
ARC
  5
363
100
AcDbEntity
  8
BEZUGSACHSEN
100
AcDbCircle
 62
7
  6
CONTINUOUS
 10
90.6648995719
 20
149.1656433662
 40
2.2768746305
100
AcDbArc
 50
144.9956305717
 51
180.0043694283
  0
CIRCLE
  5
364
100
AcDbEntity
  8
BEZUGSACHSEN
100
AcDbCircle
 62
7
  6
CONTINUOUS
 10
93.0675269662
 20
145.8044906445
 40
1.25
  0
ARC
  5
365
100
AcDbEntity
  8
RUNDUNGEN
100
AcDbCircle
 62
7
  6
CONTINUOUS
 10
95.6401966256
 20
153.0894972111
 40
0.9159880096
100
AcDbArc
 50
0.0
 51
90.0
  0
ARC
  5
366
100
AcDbEntity
  8
RUNDUNGEN
100
AcDbCircle
 62
7
  6
CONTINUOUS
 10
106.3040129576
 20
153.0894972111
 40
0.9159880096
100
AcDbArc
 50
90.0
 51
180.0
  0
ARC
  5
367
100
AcDbEntity
  8
RUNDUNGEN
100
AcDbCircle
 62
7
  6
CONTINUOUS
 10
116.388024948
 20
134.3054852207
 40
21.8
100
AcDbArc
 50
270.0
 51
359.2948300459
  0
ARC
  5
368
100
AcDbEntity
  8
BEZUGSACHSEN
100
AcDbCircle
 62
7
  6
CONTINUOUS
 10
116.388024948
 20
131.3054852207
 40
18.8
100
AcDbArc
 50
211.85
 51
270.0
  0
ARC
  5
369
100
AcDbEntity
  8
BEZUGSACHSEN
100
AcDbCircle
 62
7
  6
CONTINUOUS
 10
116.388024948
 20
134.3054852207
 40
11.0
100
AcDbArc
 50
270.0
 51
360.0
  0
ARC
  5
36A
100
AcDbEntity
  8
BEZUGSACHSEN
100
AcDbCircle
 62
7
  6
CONTINUOUS
 10
116.388024948
 20
131.3054852207
 40
8.0
100
AcDbArc
 50
157.0005149599
 51
270.0
  0
ARC
  5
36B
100
AcDbEntity
  8
BEZUGSACHSEN
100
AcDbCircle
 62
7
  6
CONTINUOUS
 10
138.2812407306
 20
138.7514128791
 40
3.8932157826
100
AcDbArc
 50
124.6532165268
 51
257.8060972633
  0
ARC
  5
36C
100
AcDbEntity
  8
BEZUGSACHSEN
100
AcDbCircle
 62
7
  6
CONTINUOUS
 10
123.6948091654
 20
138.7514128791
 40
3.8932157826
100
AcDbArc
 50
343.9016732661
 51
13.0141976473
  0
ARC
  5
36D
100
AcDbEntity
  8
RUNDUNGEN
100
AcDbCircle
 62
7
  6
CONTINUOUS
 10
123.6948091654
 20
138.7514128791
 40
3.8932157826
100
AcDbArc
 50
343.9016732661
 51
13.0141976473
  0
ARC
  5
36E
100
AcDbEntity
  8
BEZUGSACHSEN
100
AcDbCircle
 62
7
  6
CONTINUOUS
 10
142.1111503242
 20
142.4433379228
 40
2.2768746305
100
AcDbArc
 50
324.9956305717
 51
0.0043694283
  0
ARC
  5
36F
100
AcDbEntity
  8
BEZUGSACHSEN
100
AcDbCircle
 62
7
  6
CONTINUOUS
 10
137.1358532704
 20
138.5194840779
 40
0.9159880096
100
AcDbArc
 50
180.0
 51
270.0
  0
ARC
  5
370
100
AcDbEntity
  8
BEZUGSACHSEN
100
AcDbCircle
 62
7
  6
CONTINUOUS
 10
126.4720369384
 20
138.5194840779
 40
0.9159880096
100
AcDbArc
 50
270.0
 51
360.0
  0
ARC
  5
371
100
AcDbEntity
  8
BEZUGSACHSEN
100
AcDbCircle
 62
7
  6
CONTINUOUS
 10
116.388024948
 20
157.3034960683
 40
21.8
100
AcDbArc
 50
90.0
 51
179.2948300459
  0
ARC
  5
372
100
AcDbEntity
  8
BEZUGSACHSEN
100
AcDbCircle
 62
7
  6
CONTINUOUS
 10
116.388024948
 20
160.3034960683
 40
18.8
100
AcDbArc
 50
31.85
 51
90.0
  0
ARC
  5
373
100
AcDbEntity
  8
BEZUGSACHSEN
100
AcDbCircle
 62
7
  6
CONTINUOUS
 10
116.388024948
 20
157.3034960683
 40
11.0
100
AcDbArc
 50
90.0
 51
180.0
  0
ARC
  5
374
100
AcDbEntity
  8
BEZUGSACHSEN
100
AcDbCircle
 62
7
  6
CONTINUOUS
 10
116.388024948
 20
160.3034960683
 40
8.0
100
AcDbArc
 50
337.0005149599
 51
90.0
  0
ARC
  5
375
100
AcDbEntity
  8
BEZUGSACHSEN
100
AcDbCircle
 62
7
  6
CONTINUOUS
 10
139.8080849001
 20
149.5516866309
 40
4.5799400479
100
AcDbArc
 50
0.0
 51
31.85
  0
ARC
  5
376
100
AcDbEntity
  8
BEZUGSACHSEN
100
AcDbCircle
 62
7
  6
CONTINUOUS
 10
127.9679649959
 20
155.3882259744
 40
4.5799400479
100
AcDbArc
 50
157.0005149599
 51
180.0
  0
CIRCLE
  5
377
100
AcDbEntity
  8
BEZUGSACHSEN
100
AcDbCircle
 62
7
  6
CONTINUOUS
 10
139.7085229299
 20
145.8044906445
 40
1.25
  0
ARC
  5
378
100
AcDbEntity
  8
RUNDUNGEN
100
AcDbCircle
 62
7
  6
CONTINUOUS
 10
128.4040129576
 20
151.5123828695
 40
0.9159880096
100
AcDbArc
 50
90.0
 51
180.0
  0
ARC
  5
379
100
AcDbEntity
  8
RUNDUNGEN
100
AcDbCircle
 62
7
  6
CONTINUOUS
 10
135.1515389566
 20
151.5123828695
 40
0.9159880096
100
AcDbArc
 50
0.0
 51
90.0
  0
ARC
  5
37A
100
AcDbEntity
  8
BEZUGSACHSEN
100
AcDbCircle
 62
7
  6
CONTINUOUS
 10
128.3040129576
 20
152.1432286061
 40
0.9159880096
100
AcDbArc
 50
89.999643634
 51
180.0
  0
ARC
  5
37B
100
AcDbEntity
  8
BEZUGSACHSEN
100
AcDbCircle
 62
7
  6
CONTINUOUS
 10
135.3038772512
 20
152.1432286061
 40
0.9159880096
100
AcDbArc
 50
0.0
 51
89.9992215964
  0
ARC
  5
37C
100
AcDbEntity
  8
BEZUGSACHSEN
100
AcDbCircle
 62
7
  6
CONTINUOUS
 10
159.3434656241
 20
125.6125893342
 40
4.5799400479
100
AcDbArc
 50
359.9999845138
 51
8.0000189393
  0
ARC
  5
37D
100
AcDbEntity
  8
BEZUGSACHSEN
100
AcDbCircle
 62
8
  6
HIDDEN
 10
167.243055672
 20
119.915890732
 40
3.31965
100
AcDbArc
 50
99.0
 51
180.0
  0
ARC
  5
37E
100
AcDbEntity
  8
BEZUGSACHSEN
100
AcDbCircle
 62
7
  6
CONTINUOUS
 10
160.8205853226
 20
134.8472729677
 40
1.8319760192
100
AcDbArc
 50
7.9999772982
 51
45.0001725057
  0
ARC
  5
37F
100
AcDbEntity
  8
BEZUGSACHSEN
100
AcDbCircle
 62
7
  6
CONTINUOUS
 10
162.7553816912
 20
138.0940872636
 40
1.8319760192
100
AcDbArc
 50
179.9992760679
 51
224.9996179208
  0
ARC
  5
380
100
AcDbEntity
  8
BEZUGSACHSEN
100
AcDbCircle
 62
7
  6
CONTINUOUS
 10
165.2973876864
 20
114.1104890066
 40
1.3739820144
100
AcDbArc
 50
180.0
 51
264.0
  0
ARC
  5
381
100
AcDbEntity
  8
BEZUGSACHSEN
100
AcDbCircle
 62
7
  6
CONTINUOUS
 10
159.4500456241
 20
165.9963919547
 40
4.5799400479
100
AcDbArc
 50
351.9999971842
 51
0.0000154867
  0
ARC
  5
382
100
AcDbEntity
  8
BEZUGSACHSEN
100
AcDbCircle
 62
8
  6
HIDDEN
 10
167.3818706361
 20
171.7746897474
 40
3.4349550359
100
AcDbArc
 50
279.0
 51
360.0
  0
ARC
  5
383
100
AcDbEntity
  8
BEZUGSACHSEN
100
AcDbCircle
 62
7
  6
CONTINUOUS
 10
162.7553816912
 20
153.4083140254
 40
1.8319760192
100
AcDbArc
 50
135.0
 51
180.0
  0
ARC
  5
384
100
AcDbEntity
  8
BEZUGSACHSEN
100
AcDbCircle
 62
7
  6
CONTINUOUS
 10
160.9271653226
 20
156.7617083213
 40
1.8319760192
100
AcDbArc
 50
315.0000077094
 51
352.0000034096
  0
ARC
  5
385
100
AcDbEntity
  8
BEZUGSACHSEN
100
AcDbCircle
 62
7
  6
CONTINUOUS
 10
165.4039676864
 20
177.5096942917
 40
1.3739820144
100
AcDbArc
 50
96.0
 51
180.0
  0
ARC
  5
386
100
AcDbEntity
  8
RUNDUNGEN
100
AcDbCircle
 62
7
  6
CONTINUOUS
 10
161.8393936816
 20
150.4831796453
 40
0.9159880096
100
AcDbArc
 50
140.0412907549
 51
180.0
  0
ARC
  5
387
100
AcDbEntity
  8
RUNDUNGEN
100
AcDbCircle
 62
8
  6
HIDDEN
 10
167.603755672
 20
119.915890732
 40
3.31965
100
AcDbArc
 50
0.0
 51
81.0
  0
ARC
  5
388
100
AcDbEntity
  8
RUNDUNGEN
100
AcDbCircle
 62
7
  6
CONTINUOUS
 10
169.5494236577
 20
114.1104890066
 40
1.3739820144
100
AcDbArc
 50
276.0
 51
360.0
  0
ARC
  5
389
100
AcDbEntity
  8
RUNDUNGEN
100
AcDbCircle
 62
7
  6
CONTINUOUS
 10
167.423405672
 20
145.8044906445
 40
8.2009945762
100
AcDbArc
 50
39.9587092451
 51
140.0412907549
  0
CIRCLE
  5
38A
100
AcDbEntity
  8
0
100
AcDbCircle
 62
7
  6
CONTINUOUS
 10
167.423405672
 20
145.8044906445
 40
2.7479640288
  0
ARC
  5
38B
100
AcDbEntity
  8
RUNDUNGEN
100
AcDbCircle
 62
7
  6
CONTINUOUS
 10
175.50334572
 20
125.6125893342
 40
4.5799400479
100
AcDbArc
 50
171.9999810607
 51
180.0000154862
  0
ARC
  5
38C
100
AcDbEntity
  8
RUNDUNGEN
100
AcDbCircle
 62
7
  6
CONTINUOUS
 10
174.0262260215
 20
134.8472729677
 40
1.8319760192
100
AcDbArc
 50
134.9998274943
 51
172.0000227018
  0
ARC
  5
38D
100
AcDbEntity
  8
RUNDUNGEN
100
AcDbCircle
 62
7
  6
CONTINUOUS
 10
172.0914296529
 20
138.0940872636
 40
1.8319760192
100
AcDbArc
 50
315.0003820792
 51
0.0007239321
  0
ARC
  5
38E
100
AcDbEntity
  8
BEZUGSACHSEN
100
AcDbCircle
 62
7
  6
CONTINUOUS
 10
175.39676572
 20
165.9963919547
 40
4.5799400479
100
AcDbArc
 50
181.4899103742
 51
188.0000028158
  0
ARC
  5
38F
100
AcDbEntity
  8
BEZUGSACHSEN
100
AcDbCircle
 62
8
  6
HIDDEN
 10
167.464940708
 20
171.7746897474
 40
3.4349550359
100
AcDbArc
 50
180.0
 51
261.0
  0
ARC
  5
390
100
AcDbEntity
  8
BEZUGSACHSEN
100
AcDbCircle
 62
7
  6
CONTINUOUS
 10
172.0914296529
 20
153.4083140254
 40
1.8319760192
100
AcDbArc
 50
0.0
 51
45.0
  0
ARC
  5
391
100
AcDbEntity
  8
BEZUGSACHSEN
100
AcDbCircle
 62
7
  6
CONTINUOUS
 10
173.9196460215
 20
156.7617083213
 40
1.8319760192
100
AcDbArc
 50
187.9999965904
 51
224.9999922906
  0
ARC
  5
392
100
AcDbEntity
  8
BEZUGSACHSEN
100
AcDbCircle
 62
7
  6
CONTINUOUS
 10
169.4428436577
 20
177.5096942917
 40
1.3739820144
100
AcDbArc
 50
0.0
 51
84.0
  0
ARC
  5
393
100
AcDbEntity
  8
RUNDUNGEN
100
AcDbCircle
 62
7
  6
CONTINUOUS
 10
173.0074176625
 20
150.4831796453
 40
0.9159880096
100
AcDbArc
 50
359.9999371173
 51
39.9587092451
  0
SPLINE
  5
394
100
AcDbEntity
  8
BEZUGSACHSEN
100
AcDbSpline
 62
7
  6
CONTINUOUS
 70
0
 71
3
 72
11
 73
7
 74
0
 42
0.0000001
 43
0.0000001
 44
0.0000000001
 40
0.0
 40
0.0
 40
0.0
 40
0.0
 40
0.2500117066
 40
0.5000175241
 40
0.7500134384
 40
1.0
 40
1.0
 40
1.0
 40
1.0
 10
95.3171372447
 20
156.6629469274
 30
0.0
 10
95.2149694038
 20
156.6850244892
 30
0.0
 10
95.0165646608
 20
156.7647781428
 30
0.0
 10
94.7772354003
 20
156.9764666081
 30
0.0
 10
94.6224602785
 20
157.256054896
 30
0.0
 10
94.5883897141
 20
157.4672860318
 30
0.0
 10
94.5896760099
 20
157.5717936119
 30
0.0
  0
SPLINE
  5
395
100
AcDbEntity
  8
BEZUGSACHSEN
100
AcDbSpline
 62
7
  6
CONTINUOUS
 70
0
 71
3
 72
11
 73
7
 74
0
 42
0.0000001
 43
0.0000001
 44
0.0000000001
 40
0.0
 40
0.0
 40
0.0
 40
0.0
 40
0.2500139658
 40
0.5000035069
 40
0.7499908109
 40
1.0
 40
1.0
 40
1.0
 40
1.0
 10
141.0188146398
 20
137.6034962516
 30
0.0
 10
141.0927142549
 20
137.6034962649
 30
0.0
 10
141.2411098716
 20
137.6212793894
 30
0.0
 10
141.4505860639
 20
137.6998752357
 30
0.0
 10
141.635509756
 20
137.8258328872
 30
0.0
 10
141.7353771065
 20
137.9370684665
 30
0.0
 10
141.7777634133
 20
137.9976023035
 30
0.0
  0
SPLINE
  5
396
100
AcDbEntity
  8
BEZUGSACHSEN
100
AcDbSpline
 62
7
  6
CONTINUOUS
 70
0
 71
3
 72
15
 73
11
 74
0
 42
0.0000001
 43
0.0000001
 44
0.0000000001
 40
0.0
 40
0.0
 40
0.0
 40
0.0
 40
0.1250047632
 40
0.2500010337
 40
0.3750036572
 40
0.5000036904
 40
0.6250030324
 40
0.7500039506
 40
0.8749974338
 40
1.0
 40
1.0
 40
1.0
 40
1.0
 10
124.3154308634
 20
137.6034972729
 30
0.0
 10
124.2551598088
 20
137.6034972018
 30
0.0
 10
124.1342969246
 20
137.6152035339
 30
0.0
 10
123.9600196946
 20
137.6672749486
 30
0.0
 10
123.7989801985
 20
137.7519889192
 30
0.0
 10
123.6574151968
 20
137.8663079886
 30
0.0
 10
123.540816386
 20
138.0060184843
 30
0.0
 10
123.4538693565
 20
138.1659080689
 30
0.0
 10
123.4001462087
 20
138.339742463
 30
0.0
 10
123.3880249551
 20
138.4606234575
 30
0.0
 10
123.388024948
 20
138.5208934528
 30
0.0
  0
SPLINE
  5
397
100
AcDbEntity
  8
RUNDUNGEN
100
AcDbSpline
 62
7
  6
CONTINUOUS
 70
0
 71
3
 72
15
 73
11
 74
0
 42
0.0000001
 43
0.0000001
 44
0.0000000001
 40
0.0
 40
0.0
 40
0.0
 40
0.0
 40
0.1250047631
 40
0.2500010337
 40
0.3750036571
 40
0.5000036903
 40
0.6250030324
 40
0.7500039506
 40
0.8749974338
 40
1.0
 40
1.0
 40
1.0
 40
1.0
 10
108.4606190327
 20
154.0054840396
 30
0.0
 10
108.5208900886
 20
154.0054841135
 30
0.0
 10
108.6417529765
 20
153.9937777878
 30
0.0
 10
108.8160302114
 20
153.9417063736
 30
0.0
 10
108.977069711
 20
153.8569924001
 30
0.0
 10
109.1186347132
 20
153.7426733244
 30
0.0
 10
109.235233522
 20
153.6029628215
 30
0.0
 10
109.3221805479
 20
153.4430732302
 30
0.0
 10
109.3759036917
 20
153.2692388305
 30
0.0
 10
109.3880249426
 20
153.1483578328
 30
0.0
 10
109.388024948
 20
153.0880878362
 30
0.0
  0
SPLINE
  5
398
100
AcDbEntity
  8
RUNDUNGEN
100
AcDbSpline
 62
7
  6
CONTINUOUS
 70
0
 71
3
 72
11
 73
7
 74
0
 42
0.0000001
 43
0.0000001
 44
0.0000000001
 40
0.0
 40
0.0
 40
0.0
 40
0.0
 40
0.2500139658
 40
0.5000035069
 40
0.7499908109
 40
1.0
 40
1.0
 40
1.0
 40
1.0
 10
91.7572352562
 20
154.0054850375
 30
0.0
 10
91.6833356411
 20
154.0054850241
 30
0.0
 10
91.5349400245
 20
153.9877018995
 30
0.0
 10
91.3254638322
 20
153.9091060533
 30
0.0
 10
91.1405401401
 20
153.7831484018
 30
0.0
 10
91.0406727895
 20
153.6719128225
 30
0.0
 10
90.9982864828
 20
153.6113789854
 30
0.0
  0
SPLINE
  5
399
100
AcDbEntity
  8
RUNDUNGEN
100
AcDbSpline
 62
7
  6
CONTINUOUS
 70
0
 71
3
 72
11
 73
7
 74
0
 42
0.0000001
 43
0.0000001
 44
0.0000000001
 40
0.0
 40
0.0
 40
0.0
 40
0.0
 40
0.2500117071
 40
0.5000175246
 40
0.7500134389
 40
1.0
 40
1.0
 40
1.0
 40
1.0
 10
137.4589126513
 20
134.9460343616
 30
0.0
 10
137.5610805048
 20
134.923956857
 30
0.0
 10
137.7594852299
 20
134.8442031194
 30
0.0
 10
137.9988144977
 20
134.6325146875
 30
0.0
 10
138.1535896172
 20
134.3529263905
 30
0.0
 10
138.1876601819
 20
134.1416952569
 30
0.0
 10
138.1863738862
 20
134.037187677
 30
0.0
  0
SPLINE
  5
39A
100
AcDbEntity
  8
RUNDUNGEN
100
AcDbSpline
 62
7
  6
CONTINUOUS
 70
0
 71
3
 72
9
 73
5
 74
0
 42
0.0000001
 43
0.0000001
 44
0.0000000001
 40
0.0
 40
0.0
 40
0.0
 40
0.0
 40
0.2502909185
 40
1.0
 40
1.0
 40
1.0
 40
1.0
 10
127.435360784
 20
137.6718764721
 30
0.0
 10
127.4273248729
 20
137.6441054548
 30
0.0
 10
127.3995032795
 20
137.5319366244
 30
0.0
 10
127.3880249294
 20
137.4158627291
 30
0.0
 10
127.388024948
 20
137.3292662507
 30
0.0
  0
SPLINE
  5
39B
100
AcDbEntity
  8
BEZUGSACHSEN
100
AcDbSpline
 62
7
  6
CONTINUOUS
 70
0
 71
3
 72
11
 73
7
 74
0
 42
0.0000001
 43
0.0000001
 44
0.0000000001
 40
0.0
 40
0.0
 40
0.0
 40
0.0
 40
0.1570259157
 40
0.3786694007
 40
0.663358305
 40
1.0
 40
1.0
 40
1.0
 40
1.0
 10
105.3094963084
 20
153.9492980775
 30
0.0
 10
105.317510299
 20
153.9523145667
 30
0.0
 10
105.3334919447
 20
153.966959123
 30
0.0
 10
105.3521354506
 20
153.9978612174
 30
0.0
 10
105.3708610055
 20
154.0400172579
 30
0.0
 10
105.3822167325
 20
154.0719355681
 30
0.0
 10
105.388024948
 20
154.0893501734
 30
0.0
  0
ELLIPSE
  5
39C
100
AcDbEntity
  8
0
100
AcDbEllipse
 62
7
  6
CONTINUOUS
 10
88.388024948
 20
145.8044906445
 30
0.0
 11
0.0
 21
2.7479640288
 31
0.0
 40
0.1051042353
 41
-3.1415926536
 42
-0.0
  0
ELLIPSE
  5
39D
100
AcDbEntity
  8
BEZUGSACHSEN
100
AcDbEllipse
 62
7
  6
CONTINUOUS
 10
144.388024948
 20
145.8044906445
 30
0.0
 11
-0.0
 21
2.7479640288
 31
0.0
 40
0.1051042353
 41
6.2831853072
 42
9.4247779608
  0
ELLIPSE
  5
39E
100
AcDbEntity
  8
BEZUGSACHSEN
100
AcDbEllipse
 62
7
  6
CONTINUOUS
 10
123.388024948
 20
145.8044906445
 30
0.0
 11
-0.0
 21
2.397525
 31
0.0
 40
0.1583844403
 41
-3.1415926536
 42
-0.0
  0
ELLIPSE
  5
39F
100
AcDbEntity
  8
0
100
AcDbEllipse
 62
7
  6
CONTINUOUS
 10
109.388024948
 20
145.8044906445
 30
0.0
 11
-0.0
 21
2.397525
 31
0.0
 40
0.1583844403
 41
-0.0
 42
3.1415926536
  0
ENDSEC
  0
SECTION
  2
OBJECTS
  0
DICTIONARY
  5
C
100
AcDbDictionary
280
0
281
1
  3
ACAD_GROUP
350
D
  3
ACAD_MLINESTYLE
350
17
  3
ACAD_LAYOUT
350
1A
  3
ACAD_PLOTSETTINGS
350
19
  3
ACAD_PLOTSTYLENAME
350
E
  0
DICTIONARY
  5
D
102
{ACAD_REACTORS
330
C
102
}
100
AcDbDictionary
280
0
281
1
  0
ACDBDICTIONARYWDFLT
  5
E
102
{ACAD_REACTORS
330
C
102
}
100
AcDbDictionary
281
1
  3
Normal
350
F
100
AcDbDictionaryWithDefault
340
F
  0
DICTIONARY
  5
17
102
{ACAD_REACTORS
330
C
102
}
100
AcDbDictionary
280
0
281
1
  3
Standard
350
18
  0
DICTIONARY
  5
19
102
{ACAD_REACTORS
330
C
102
}
100
AcDbDictionary
281
1
  0
DICTIONARY
  5
1A
102
{ACAD_REACTORS
330
C
102
}
100
AcDbDictionary
281
1
  3
Model
350
3A0
  3
Layout1
350
3A1
  0
ACDBPLACEHOLDER
  5
F
102
{ACAD_REACTORS
330
E
102
}
  0
MLINESTYLE
  5
18
102
{ACAD_REACTORS
330
17
102
}
100
AcDbMlineStyle
  2
STANDARD
 70
0
  3

 62
256
 51
90.0
 52
90.0
 71
2
 49
0.5
 62
256
  6
BYLAYER
 49
-0.5
 62
256
  6
BYLAYER
  0
LAYOUT
  5
3A0
102
{ACAD_REACTORS
330
1A
102
}
100
AcDbPlotSettings
  1

  2
none_device
  4
ISO_A3_(420.00_x_297.00_MM)
  6

 40
0.0
 41
0.0
 42
0.0
 43
0.0
 44
420.0
 45
297.0
 46
0.0
 47
0.0
 48
0.0
 49
0.0
140
0.0
141
0.0
142
1.0
143
1.0
 70
1024
 72
1
 73
0
 74
0
  7

 75
0
147
1.0
148
0.0
149
0.0
100
AcDbLayout
  1
Model
 70
0
 71
0
 10
0.0
 20
0.0
 11
420.0
 21
297.0
 12
0.0
 22
0.0
 32
0.0
 14
0.0
 24
0.0
 34
0.0
 15
0.0
 25
0.0
 35
0.0
146
0.0
 13
0.0
 23
0.0
 33
0.0
 16
1.0
 26
0.0
 36
0.0
 17
0.0
 27
1.0
 37
0.0
 76
0
330
207
345
0
346
0
  0
LAYOUT
  5
3A1
102
{ACAD_REACTORS
330
1A
102
}
100
AcDbPlotSettings
  1

  2
none_device
  4
ISO_A3_(420.00_x_297.00_MM)
  6

 40
0.0
 41
0.0
 42
0.0
 43
0.0
 44
420.0
 45
297.0
 46
0.0
 47
0.0
 48
0.0
 49
0.0
140
0.0
141
0.0
142
1.0
143
1.0
 70
0
 72
1
 73
0
 74
0
  7

 75
0
147
1.0
148
0.0
149
0.0
100
AcDbLayout
  1
Layout1
 70
0
 71
1
 10
0.0
 20
0.0
 11
420.0
 21
297.0
 12
0.0
 22
0.0
 32
0.0
 14
0.0
 24
0.0
 34
0.0
 15
0.0
 25
0.0
 35
0.0
146
0.0
 13
0.0
 23
0.0
 33
0.0
 16
1.0
 26
0.0
 36
0.0
 17
0.0
 27
1.0
 37
0.0
 76
0
330
208
345
0
346
0
  0
ENDSEC
  0
EOF
