999
DXF file: ivs-16-dxf.dxf
999
Pro/ENGINEER 2010140 by Parametric Technology Corporation
  0
SECTION
  2
HEADER
  9
$ACADVER
  1
AC1021
  9
$DWGCODEPAGE
  3
ANSI_1252
  9
$EXTMAX
 10
420.0
 20
297.0
 30
0.0
  9
$EXTMIN
 10
0.0
 20
0.0
 30
0.0
  9
$LIMMIN
 10
0.0
 20
0.0
  9
$LIMMAX
 10
420.0
 20
297.0
  9
$VIEWCTR
 10
210.0
 20
148.5
  9
$VIEWSIZE
 40
297.0
  9
$CLAYER
  8
0
  9
$LTSCALE
 40
23.1
  9
$CELTYPE
  6
BYLAYER
  9
$DIMSCALE
 40
1.0
  9
$DIMASZ
 40
3.5
  9
$DIMEXO
 40
2.625
  9
$DIMDLI
 40
15.96
  9
$DIMEXE
 40
7.56
  9
$DIMCEN
 40
3.78
  9
$DIMLFAC
 40
1.0
  9
$DIMBLK
  1
_FILLED
  9
$DIMTXT
 40
3.5
  9
$DIMTOL
 70
1
  9
$DIMLIM
 70
0
  9
$DIMTFAC
 40
1.0
  9
$DIMTP
 40
0.005
  9
$DIMTM
 40
0.005
  9
$PDMODE
 70
3
  9
$PDSIZE
 40
0.3125
  9
$HANDSEED
  5
3BC
  9
$TILEMODE
 70
1
  9
$MEASUREMENT
 70
1
  9
$INSUNITS
 70
4
  0
ENDSEC
  0
SECTION
  2
CLASSES
  0
CLASS
  1
ACDBDICTIONARYWDFLT
  2
AcDbDictionaryWithDefault
  3
AutoCAD 2000
 90
0
 91
1
280
0
281
0
  0
CLASS
  1
ACDBPLACEHOLDER
  2
AcDbPlaceHolder
  3
AutoCAD 2000
 90
0
 91
1
280
0
281
0
  0
CLASS
  1
LAYOUT
  2
AcDbLayout
  3
AutoCAD 2000
 90
0
 91
0
280
0
281
0
  0
ENDSEC
  0
SECTION
  2
TABLES
  0
TABLE
  2
VPORT
  5
8
100
AcDbSymbolTable
 70
2
  0
VPORT
  5
1F4
100
AcDbSymbolTableRecord
100
AcDbViewportTableRecord
  2
*ACTIVE
 70
0
 10
0.0
 20
0.0
 11
1.0
 21
1.0
 12
210.0
 22
148.5
 13
0.0
 23
0.0
 14
1.0
 24
1.0
 15
0.0
 25
0.0
 16
0.0
 26
0.0
 36
1.0
 17
0.0
 27
0.0
 37
0.0
 40
297.0
 41
1.4141414141
 42
50.0
 43
0.0
 44
0.0
 50
0.0
 51
0.0
 71
0
 72
100
 73
1
 74
1
 75
0
 76
0
 77
0
 78
0
  0
ENDTAB
  0
TABLE
  2
LTYPE
  5
5
100
AcDbSymbolTable
 70
6
  0
LTYPE
  5
14
100
AcDbSymbolTableRecord
100
AcDbLinetypeTableRecord
  2
BYBLOCK
 70
0
  3

 72
65
 73
0
 40
0.0
  0
LTYPE
  5
15
100
AcDbSymbolTableRecord
100
AcDbLinetypeTableRecord
  2
BYLAYER
 70
0
  3

 72
65
 73
0
 40
0.0
  0
LTYPE
  5
16
100
AcDbSymbolTableRecord
100
AcDbLinetypeTableRecord
  2
CONTINUOUS
 70
64
  3
Solid line
 72
65
 73
0
 40
0.0
  0
LTYPE
  5
1F5
100
AcDbSymbolTableRecord
100
AcDbLinetypeTableRecord
  2
CENTER
 70
64
  3
____ _ ____ _ ____ _ ____ _ ____ _ ____ _ ____
 72
65
 73
4
 40
0.6
 49
0.375
 74
0
 49
-0.075
 74
0
 49
0.075
 74
0
 49
-0.075
 74
0
  0
LTYPE
  5
1F6
100
AcDbSymbolTableRecord
100
AcDbLinetypeTableRecord
  2
HIDDEN
 70
64
  3
- - - - - - - - - - - - - - - - - - - -
 72
65
 73
2
 40
0.2
 49
0.1
 74
0
 49
-0.1
 74
0
  0
LTYPE
  5
1F7
100
AcDbSymbolTableRecord
100
AcDbLinetypeTableRecord
  2
PHANTOM
 70
64
  3
_____ _ _ _____ _ _ _____ _ _ _____
 72
65
 73
6
 40
0.8
 49
0.45
 74
0
 49
-0.05
 74
0
 49
0.1
 74
0
 49
-0.05
 74
0
 49
0.1
 74
0
 49
-0.05
 74
0
  0
LTYPE
  5
1F8
100
AcDbSymbolTableRecord
100
AcDbLinetypeTableRecord
  2
DOT
 70
64
  3
. . . . . . . . . . . . . . . . . . . .
 72
65
 73
2
 40
0.2
 49
0.1
 74
0
 49
-0.1
 74
0
  0
LTYPE
  5
1F9
100
AcDbSymbolTableRecord
100
AcDbLinetypeTableRecord
  2
DASHED
 70
64
  3
- - - - - - - - - - - - - - - - - - - -
 72
65
 73
2
 40
0.2
 49
0.1
 74
0
 49
-0.1
 74
0
  0
ENDTAB
  0
TABLE
  2
LAYER
  5
2
100
AcDbSymbolTable
 70
36
  0
LAYER
  5
10
100
AcDbSymbolTableRecord
100
AcDbLayerTableRecord
  2
0
 70
0
 62
7
  6
CONTINUOUS
370
-3
390
F
  0
LAYER
  5
1FA
100
AcDbSymbolTableRecord
100
AcDbLayerTableRecord
  2
DEFAULT_1
 70
0
 62
7
  6
CENTER
370
-3
390
F
  0
LAYER
  5
1FB
100
AcDbSymbolTableRecord
100
AcDbLayerTableRecord
  2
DEFAULT_2
 70
0
 62
8
  6
HIDDEN
370
-3
390
F
  0
LAYER
  5
1FC
100
AcDbSymbolTableRecord
100
AcDbLayerTableRecord
  2
DEFAULT_3
 70
0
 62
7
  6
PHANTOM
370
-3
390
F
  0
LAYER
  5
1FD
100
AcDbSymbolTableRecord
100
AcDbLayerTableRecord
  2
AUSFORMSCHRAEGEN
 70
0
 62
7
  6
CONTINUOUS
370
-3
390
F
  0
LAYER
  5
1FE
100
AcDbSymbolTableRecord
100
AcDbLayerTableRecord
  2
BEZUGSACHSEN
 70
0
 62
7
  6
CONTINUOUS
370
-3
390
F
  0
LAYER
  5
1FF
100
AcDbSymbolTableRecord
100
AcDbLayerTableRecord
  2
BEZUGSEBENEN
 70
0
 62
7
  6
CONTINUOUS
370
-3
390
F
  0
LAYER
  5
200
100
AcDbSymbolTableRecord
100
AcDbLayerTableRecord
  2
HILFEN
 70
0
 62
7
  6
CONTINUOUS
370
-3
390
F
  0
LAYER
  5
201
100
AcDbSymbolTableRecord
100
AcDbLayerTableRecord
  2
PLATZIERUNG
 70
0
 62
7
  6
CONTINUOUS
370
-3
390
F
  0
LAYER
  5
202
100
AcDbSymbolTableRecord
100
AcDbLayerTableRecord
  2
RUNDUNGEN
 70
0
 62
7
  6
CONTINUOUS
370
-3
390
F
  0
LAYER
  5
203
100
AcDbSymbolTableRecord
100
AcDbLayerTableRecord
  2
T_STARTBEZUEGE
 70
0
 62
7
  6
CONTINUOUS
370
-3
390
F
  0
LAYER
  5
204
100
AcDbSymbolTableRecord
100
AcDbLayerTableRecord
  2
ZEICHNUNGSBEMASSUNGEN
 70
0
 62
7
  6
CONTINUOUS
370
-3
390
F
  0
ENDTAB
  0
TABLE
  2
STYLE
  5
3
100
AcDbSymbolTable
 70
1
  0
STYLE
  5
11
100
AcDbSymbolTableRecord
100
AcDbTextStyleTableRecord
  2
STANDARD
 70
0
 40
0.0
 41
0.7
 50
0.0
 71
0
 42
0.2
  3
txt
  4

  0
STYLE
  5
205
100
AcDbSymbolTableRecord
100
AcDbTextStyleTableRecord
  2
TEXTSTYLE_1
 70
0
 40
0.0
 41
0.8
 50
0.0
 71
0
 42
0.2
  3
gdt
  4

  0
ENDTAB
  0
TABLE
  2
VIEW
  5
6
100
AcDbSymbolTable
 70
0
  0
ENDTAB
  0
TABLE
  2
UCS
  5
7
100
AcDbSymbolTable
 70
0
  0
ENDTAB
  0
TABLE
  2
APPID
  5
9
100
AcDbSymbolTable
 70
1
  0
APPID
  5
206
100
AcDbSymbolTableRecord
100
AcDbRegAppTableRecord
  2
ACAD
 70
0
  0
ENDTAB
  0
TABLE
  2
BLOCK_RECORD
  5
1
100
AcDbSymbolTable
 70
0
  0
BLOCK_RECORD
  5
207
100
AcDbSymbolTableRecord
100
AcDbBlockTableRecord
  2
*Model_Space
  0
BLOCK_RECORD
  5
208
100
AcDbSymbolTableRecord
100
AcDbBlockTableRecord
  2
*Paper_Space
  0
ENDTAB
  0
TABLE
  2
DIMSTYLE
  5
A
100
AcDbSymbolTable
 70
1
100
AcDbDimStyleTable
 71
0
  0
DIMSTYLE
105
209
100
AcDbSymbolTableRecord
100
AcDbDimStyleTableRecord
  2
STANDARD
 70
0
  3

  4

 40
1.0
 41
3.5
 42
0.0625
 43
0.38
 44
0.18
 45
0.0
 46
0.0
 47
0.005
 48
0.005
140
3.5
141
0.09
142
0.0
143
25.4
144
1.0
145
0.0
146
1.0
147
0.09
 71
1.0
 72
0.0
 73
0
 74
0
 75
0
 76
0
 77
1
 78
8
170
0
171
2
172
0
173
0
174
0
175
0
176
0
177
0
178
5
270
2
271
3
272
3
273
2
274
2
275
0
280
0
281
0
282
0
283
1
284
8
285
0
286
0
287
3
288
0
340
11
  0
ENDTAB
  0
ENDSEC
  0
SECTION
  2
BLOCKS
  0
BLOCK
  5
20
100
AcDbEntity
  8
0
100
AcDbBlockBegin
  2
*Model_Space
 70
0
 10
0.0
 20
0.0
 30
0.0
  3
*Model_Space
  1

  0
ENDBLK
  5
21
100
AcDbEntity
  8
0
100
AcDbBlockEnd
  0
BLOCK
  5
1C
100
AcDbEntity
  8
0
100
AcDbBlockBegin
  2
*Paper_Space
 70
0
 10
0.0
 20
0.0
 30
0.0
  3
*Paper_Space
  1

  0
ENDBLK
  5
1D
100
AcDbEntity
  8
0
100
AcDbBlockEnd
  0
ENDSEC
  0
SECTION
  2
ENTITIES
  0
LINE
  5
20A
100
AcDbEntity
  8
0
100
AcDbLine
 62
7
  6
CONTINUOUS
 10
0.0
 20
0.0
 11
0.0
 21
297.0
  0
LINE
  5
20B
100
AcDbEntity
  8
0
100
AcDbLine
 62
7
  6
CONTINUOUS
 10
0.0
 20
0.0
 11
420.0
 21
0.0
  0
LINE
  5
20C
100
AcDbEntity
  8
0
100
AcDbLine
 62
7
  6
CONTINUOUS
 10
0.0
 20
297.0
 11
420.0
 21
297.0
  0
LINE
  5
20D
100
AcDbEntity
  8
0
100
AcDbLine
 62
7
  6
CONTINUOUS
 10
420.0
 20
0.0
 11
420.0
 21
297.0
  0
LINE
  5
20E
100
AcDbEntity
  8
BEZUGSACHSEN
100
AcDbLine
 62
7
  6
CONTINUOUS
 10
101.9604448462
 20
215.3969521323
 11
100.8515409041
 21
214.9812151919
  0
LINE
  5
20F
100
AcDbEntity
  8
BEZUGSACHSEN
100
AcDbLine
 62
7
  6
CONTINUOUS
 10
101.1699777846
 20
214.1318417593
 11
102.2788817267
 21
214.5475786997
  0
LINE
  5
210
100
AcDbEntity
  8
BEZUGSACHSEN
100
AcDbLine
 62
7
  6
CONTINUOUS
 10
103.7592961497
 20
213.9723802825
 11
104.5909743045
 21
214.2841830621
  0
LINE
  5
211
100
AcDbEntity
  8
0
100
AcDbLine
 62
7
  6
CONTINUOUS
 10
122.90617759
 20
74.4743946856
 11
124.073890729
 21
74.6717577636
  0
LINE
  5
212
100
AcDbEntity
  8
0
100
AcDbLine
 62
7
  6
CONTINUOUS
 10
130.0826144226
 20
76.3725514913
 11
130.8284435105
 21
76.4927606222
  0
LINE
  5
213
100
AcDbEntity
  8
0
100
AcDbLine
 62
7
  6
CONTINUOUS
 10
130.5078039348
 20
77.341304986
 11
129.9004528421
 21
77.2734225401
  0
LINE
  5
214
100
AcDbEntity
  8
0
100
AcDbLine
 62
7
  6
CONTINUOUS
 10
117.5718007915
 20
73.9912528943
 11
118.4593585779
 21
74.0251748982
  0
LINE
  5
215
100
AcDbEntity
  8
0
100
AcDbLine
 62
7
  6
CONTINUOUS
 10
51.5409001071
 20
131.9378511325
 11
51.5409001071
 21
139.2353260908
  0
LINE
  5
216
100
AcDbEntity
  8
0
100
AcDbLine
 62
7
  6
CONTINUOUS
 10
51.5409001071
 20
152.3736551981
 11
51.5409001071
 21
153.8391026121
  0
LINE
  5
217
100
AcDbEntity
  8
BEZUGSACHSEN
100
AcDbLine
 62
7
  6
CONTINUOUS
 10
85.1161352143
 20
204.3499650766
 11
84.6134918509
 21
203.8066379899
  0
LINE
  5
218
100
AcDbEntity
  8
BEZUGSACHSEN
100
AcDbLine
 62
7
  6
CONTINUOUS
 10
85.0678516146
 20
203.1846367914
 11
85.771551403
 21
203.9452937179
  0
LINE
  5
219
100
AcDbEntity
  8
BEZUGSACHSEN
100
AcDbLine
 62
7
  6
CONTINUOUS
 10
89.0353598526
 20
208.0335590517
 11
88.3513769192
 21
207.4669225956
  0
LINE
  5
21A
100
AcDbEntity
  8
BEZUGSACHSEN
100
AcDbLine
 62
7
  6
CONTINUOUS
 10
85.729755937
 20
204.7906246642
 11
85.1161352143
 21
204.3499650766
  0
LINE
  5
21B
100
AcDbEntity
  8
BEZUGSACHSEN
100
AcDbLine
 62
7
  6
CONTINUOUS
 10
87.3291930872
 20
200.285954648
 11
87.9428126497
 21
200.7266130011
  0
LINE
  5
21C
100
AcDbEntity
  8
BEZUGSACHSEN
100
AcDbLine
 62
7
  6
CONTINUOUS
 10
100.6685982242
 20
213.7824109182
 11
101.1699777846
 21
214.1318417593
  0
LINE
  5
21D
100
AcDbEntity
  8
BEZUGSACHSEN
100
AcDbLine
 62
7
  6
CONTINUOUS
 10
100.8515409041
 20
214.9812151919
 11
100.2115488513
 21
214.5798174067
  0
LINE
  5
21E
100
AcDbEntity
  8
BEZUGSACHSEN
100
AcDbLine
 62
7
  6
CONTINUOUS
 10
85.771551403
 20
203.9452937179
 11
86.1841145405
 21
204.1686222312
  0
LINE
  5
21F
100
AcDbEntity
  8
BEZUGSACHSEN
100
AcDbLine
 62
7
  6
CONTINUOUS
 10
87.2873988397
 20
201.131286775
 11
86.8748357021
 21
200.9079582617
  0
LINE
  5
220
100
AcDbEntity
  8
BEZUGSACHSEN
100
AcDbLine
 62
7
  6
CONTINUOUS
 10
102.7977481593
 20
212.3202109078
 11
101.9660700045
 21
212.0084081282
  0
LINE
  5
221
100
AcDbEntity
  8
BEZUGSACHSEN
100
AcDbLine
 62
7
  6
CONTINUOUS
 10
102.2845068478
 20
211.1590347947
 11
103.1161850027
 21
211.4708375743
  0
LINE
  5
222
100
AcDbEntity
  8
BEZUGSACHSEN
100
AcDbLine
 62
7
  6
CONTINUOUS
 10
101.9304841067
 20
209.5731716183
 11
101.0988059518
 21
209.2613688387
  0
LINE
  5
223
100
AcDbEntity
  8
BEZUGSACHSEN
100
AcDbLine
 62
7
  6
CONTINUOUS
 10
103.8592044525
 20
209.4889660663
 11
103.0275262976
 21
209.1771632867
  0
LINE
  5
224
100
AcDbEntity
  8
BEZUGSACHSEN
100
AcDbLine
 62
7
  6
CONTINUOUS
 10
103.4845764312
 20
208.3797571822
 11
104.1776412958
 21
208.6395927328
  0
LINE
  5
225
100
AcDbEntity
  8
0
100
AcDbLine
 62
7
  6
CONTINUOUS
 10
146.5745167214
 20
87.7975673842
 11
146.0517099666
 21
87.6737658443
  0
LINE
  5
226
100
AcDbEntity
  8
0
100
AcDbLine
 62
7
  6
CONTINUOUS
 10
125.2251382625
 20
82.0727618477
 11
124.3493535126
 21
81.9247395568
  0
LINE
  5
227
100
AcDbEntity
  8
0
100
AcDbLine
 62
7
  6
CONTINUOUS
 10
120.2623579438
 20
81.2339688544
 11
119.386573194
 21
81.0859465635
  0
LINE
  5
228
100
AcDbEntity
  8
0
100
AcDbLine
 62
7
  6
CONTINUOUS
 10
131.2392152764
 20
80.8500317344
 11
130.4933869855
 21
80.7298228906
  0
LINE
  5
229
100
AcDbEntity
  8
0
100
AcDbLine
 62
7
  6
CONTINUOUS
 10
130.0319394676
 20
83.6261866153
 11
129.2861103844
 21
83.5059774721
  0
LINE
  5
22A
100
AcDbEntity
  8
0
100
AcDbLine
 62
7
  6
CONTINUOUS
 10
129.3758090727
 20
79.4994365946
 11
129.9831601655
 21
79.5673190405
  0
LINE
  5
22B
100
AcDbEntity
  8
0
100
AcDbLine
 62
7
  6
CONTINUOUS
 10
130.8140265238
 20
79.8812786258
 11
131.4213776165
 21
79.9491610717
  0
LINE
  5
22C
100
AcDbEntity
  8
0
100
AcDbLine
 62
7
  6
CONTINUOUS
 10
118.1879825467
 20
81.1256371897
 11
117.3004247603
 21
81.0917151858
  0
LINE
  5
22D
100
AcDbEntity
  8
0
100
AcDbLine
 62
7
  6
CONTINUOUS
 10
129.6625206272
 20
80.4158633053
 11
129.193647525
 21
80.4003075567
  0
LINE
  5
22E
100
AcDbEntity
  8
0
100
AcDbLine
 62
7
  6
CONTINUOUS
 10
129.7452279131
 20
82.7097599046
 11
130.2141010154
 21
82.7253156532
  0
LINE
  5
22F
100
AcDbEntity
  8
0
100
AcDbLine
 62
7
  6
CONTINUOUS
 10
128.7150188493
 20
79.5729784922
 11
129.3758090727
 21
79.4994365946
  0
LINE
  5
230
100
AcDbEntity
  8
0
100
AcDbLine
 62
7
  6
CONTINUOUS
 10
131.9000062921
 20
80.7764901362
 11
131.2392152764
 21
80.8500317344
  0
LINE
  5
231
100
AcDbEntity
  8
0
100
AcDbLine
 62
7
  6
CONTINUOUS
 10
129.2299062716
 20
76.5351907729
 11
130.0826144226
 21
76.3725514913
  0
LINE
  5
232
100
AcDbEntity
  8
BEZUGSACHSEN
100
AcDbLine
 62
7
  6
CONTINUOUS
 10
77.7805455873
 20
86.5760236545
 11
53.1894044298
 21
126.1603008406
  0
LINE
  5
233
100
AcDbEntity
  8
BEZUGSACHSEN
100
AcDbLine
 62
7
  6
CONTINUOUS
 10
84.6134918509
 20
203.8066379899
 11
84.2218269973
 21
203.1606446477
  0
LINE
  5
234
100
AcDbEntity
  8
RUNDUNGEN
100
AcDbLine
 62
7
  6
CONTINUOUS
 10
57.7808790043
 20
164.4673019575
 11
52.5254933425
 21
156.9618334
  0
LINE
  5
235
100
AcDbEntity
  8
BEZUGSACHSEN
100
AcDbLine
 62
7
  6
CONTINUOUS
 10
100.2115488513
 20
214.5798174067
 11
99.7632421121
 21
214.0888243062
  0
LINE
  5
236
100
AcDbEntity
  8
BEZUGSACHSEN
100
AcDbLine
 62
7
  6
CONTINUOUS
 10
87.991098628
 20
201.8919437015
 11
87.2873988397
 21
201.131286775
  0
LINE
  5
237
100
AcDbEntity
  8
BEZUGSACHSEN
100
AcDbLine
 62
7
  6
CONTINUOUS
 10
87.9428126497
 20
200.7266130011
 11
88.4454560131
 21
201.2699400878
  0
LINE
  5
238
100
AcDbEntity
  8
BEZUGSACHSEN
100
AcDbLine
 62
7
  6
CONTINUOUS
 10
87.8044490573
 20
199.2412859268
 11
87.3018068443
 21
198.6979600837
  0
LINE
  5
239
100
AcDbEntity
  8
BEZUGSACHSEN
100
AcDbLine
 62
7
  6
CONTINUOUS
 10
89.8777138821
 20
200.1465960832
 11
89.2745411557
 21
199.494602833
  0
LINE
  5
23A
100
AcDbEntity
  8
BEZUGSACHSEN
100
AcDbLine
 62
7
  6
CONTINUOUS
 10
89.9299572667
 20
199.0899315463
 11
90.3320712671
 21
199.5245924695
  0
LINE
  5
23B
100
AcDbEntity
  8
BEZUGSACHSEN
100
AcDbLine
 62
7
  6
CONTINUOUS
 10
92.8844685683
 20
201.9950591283
 11
93.5684515017
 21
202.5616955844
  0
LINE
  5
23C
100
AcDbEntity
  8
BEZUGSACHSEN
100
AcDbLine
 62
7
  6
CONTINUOUS
 10
104.2219707227
 20
209.7864296783
 11
103.8592044525
 21
209.4889660663
  0
LINE
  5
23D
100
AcDbEntity
  8
BEZUGSACHSEN
100
AcDbLine
 62
7
  6
CONTINUOUS
 10
89.3163377041
 20
198.6492731932
 11
89.9299572667
 21
199.0899315463
  0
LINE
  5
23E
100
AcDbEntity
  8
BEZUGSACHSEN
100
AcDbLine
 62
7
  6
CONTINUOUS
 10
104.1776412958
 20
208.6395927328
 11
104.6790208562
 21
208.9890235739
  0
LINE
  5
23F
100
AcDbEntity
  8
BEZUGSACHSEN
100
AcDbLine
 62
7
  6
CONTINUOUS
 10
89.2745411557
 20
199.494602833
 11
88.8619780182
 21
199.2712743197
  0
LINE
  5
240
100
AcDbEntity
  8
0
100
AcDbLine
 62
7
  6
CONTINUOUS
 10
145.864235004
 20
91.0540263702
 11
146.3870417588
 21
91.1778279101
  0
LINE
  5
241
100
AcDbEntity
  8
0
100
AcDbLine
 62
7
  6
CONTINUOUS
 10
143.8673038603
 20
92.6787524755
 11
144.3901106152
 21
92.8025540155
  0
LINE
  5
242
100
AcDbEntity
  8
0
100
AcDbLine
 62
7
  6
CONTINUOUS
 10
146.3870417588
 20
91.1778279101
 11
146.8099755453
 21
91.1923642911
  0
LINE
  5
243
100
AcDbEntity
  8
0
100
AcDbLine
 62
7
  6
CONTINUOUS
 10
146.8746970736
 20
91.9354283366
 11
146.2402986798
 21
91.913626266
  0
LINE
  5
244
100
AcDbEntity
  8
0
100
AcDbLine
 62
7
  6
CONTINUOUS
 10
145.4524630129
 20
87.0181648871
 11
146.1984530847
 21
86.9379674527
  0
LINE
  5
245
100
AcDbEntity
  8
0
100
AcDbLine
 62
7
  6
CONTINUOUS
 10
129.193647525
 20
80.4003075567
 11
128.6713344997
 21
80.5261758523
  0
LINE
  5
246
100
AcDbEntity
  8
0
100
AcDbLine
 62
7
  6
CONTINUOUS
 10
131.4213776165
 20
79.9491610717
 11
131.9436906418
 21
79.8232927761
  0
LINE
  5
247
100
AcDbEntity
  8
0
100
AcDbLine
 62
7
  6
CONTINUOUS
 10
130.746169614
 20
83.4112206735
 11
130.0319394676
 21
83.6261866153
  0
LINE
  5
248
100
AcDbEntity
  8
0
100
AcDbLine
 62
7
  6
CONTINUOUS
 10
129.9004528421
 20
77.2734225401
 11
129.3246998563
 21
77.5407149789
  0
LINE
  5
249
100
AcDbEntity
  8
0
100
AcDbLine
 62
7
  6
CONTINUOUS
 10
127.9473479875
 20
79.9293681787
 11
128.7150188493
 21
79.5729784922
  0
LINE
  5
24A
100
AcDbEntity
  8
BEZUGSACHSEN
100
AcDbLine
 62
7
  6
CENTER
 10
63.7155707778
 20
145.8044906445
 11
63.7155707778
 21
140.0663192562
  0
LINE
  5
24B
100
AcDbEntity
  8
BEZUGSACHSEN
100
AcDbLine
 62
7
  6
CENTER
 10
63.7155707778
 20
145.8044906445
 11
63.7155707778
 21
151.5426620328
  0
LINE
  5
24C
100
AcDbEntity
  8
BEZUGSACHSEN
100
AcDbLine
 62
7
  6
CONTINUOUS
 10
84.8772431762
 20
202.7559732981
 11
85.0678516146
 21
203.1846367914
  0
LINE
  5
24D
100
AcDbEntity
  8
BEZUGSACHSEN
100
AcDbLine
 62
7
  6
CONTINUOUS
 10
88.1817070664
 20
202.3206071948
 11
87.991098628
 21
201.8919437015
  0
LINE
  5
24E
100
AcDbEntity
  8
BEZUGSACHSEN
100
AcDbLine
 62
7
  6
CONTINUOUS
 10
88.4454560131
 20
201.2699400878
 11
88.8371220269
 21
201.9159346645
  0
LINE
  5
24F
100
AcDbEntity
  8
BEZUGSACHSEN
100
AcDbLine
 62
7
  6
CONTINUOUS
 10
90.3320712671
 20
199.5245924695
 11
90.7237372809
 21
200.1705870462
  0
LINE
  5
250
100
AcDbEntity
  8
BEZUGSACHSEN
100
AcDbLine
 62
7
  6
CONTINUOUS
 10
100.3589047984
 20
213.3433849848
 11
100.6685982242
 21
213.7824109182
  0
LINE
  5
251
100
AcDbEntity
  8
BEZUGSACHSEN
100
AcDbLine
 62
7
  6
CONTINUOUS
 10
104.6790208562
 20
208.9890235739
 11
105.1273268162
 21
209.4800163399
  0
LINE
  5
252
100
AcDbEntity
  8
0
100
AcDbLine
 62
7
  6
CONTINUOUS
 10
144.9893575689
 20
93.4581549727
 11
144.2433675361
 21
93.5383523714
  0
LINE
  5
253
100
AcDbEntity
  8
0
100
AcDbLine
 62
7
  6
CONTINUOUS
 10
146.0517099666
 20
87.6737658443
 11
145.5171867489
 21
87.7612315049
  0
LINE
  5
254
100
AcDbEntity
  8
0
100
AcDbLine
 62
7
  6
CONTINUOUS
 10
144.3901106152
 20
92.8025540155
 11
144.9246337547
 21
92.7150884263
  0
LINE
  5
255
100
AcDbEntity
  8
0
100
AcDbLine
 62
7
  6
CONTINUOUS
 10
132.6676763616
 20
80.4201001502
 11
131.9000062921
 21
80.7764901362
  0
LINE
  5
256
100
AcDbEntity
  8
0
100
AcDbLine
 62
7
  6
CONTINUOUS
 10
130.2141010154
 20
82.7253156532
 11
130.5979360501
 21
82.5471206602
  0
LINE
  5
257
100
AcDbEntity
  8
RUNDUNGEN
100
AcDbLine
 62
7
  6
CONTINUOUS
 10
70.6934230252
 20
130.6513764491
 11
70.6934230252
 21
163.2196602852
  0
LINE
  5
258
100
AcDbEntity
  8
BEZUGSACHSEN
100
AcDbLine
 62
7
  6
CONTINUOUS
 10
71.0704411929
 20
132.159498521
 11
71.0704411929
 21
157.4300817445
  0
LINE
  5
259
100
AcDbEntity
  8
BEZUGSACHSEN
100
AcDbLine
 62
7
  6
CONTINUOUS
 10
84.2218269973
 20
203.1606446477
 11
84.0521168623
 21
202.3093163075
  0
LINE
  5
25A
100
AcDbEntity
  8
BEZUGSACHSEN
100
AcDbLine
 62
7
  6
CONTINUOUS
 10
99.7632421121
 20
214.0888243062
 11
99.4210817851
 21
213.3147070461
  0
LINE
  5
25B
100
AcDbEntity
  8
BEZUGSACHSEN
100
AcDbLine
 62
7
  6
CONTINUOUS
 10
90.0683223204
 20
200.5752595765
 11
89.8777138821
 21
200.1465960832
  0
LINE
  5
25C
100
AcDbEntity
  8
BEZUGSACHSEN
100
AcDbLine
 62
7
  6
CONTINUOUS
 10
104.5316641857
 20
210.2254555126
 11
104.2219707227
 21
209.7864296783
  0
LINE
  5
25D
100
AcDbEntity
  8
0
100
AcDbLine
 62
7
  6
CONTINUOUS
 10
144.6947565172
 20
87.3096294864
 11
145.4524630129
 21
87.0181648871
  0
LINE
  5
25E
100
AcDbEntity
  8
0
100
AcDbLine
 62
7
  6
CONTINUOUS
 10
145.5171867489
 20
87.7612315049
 11
145.0825365777
 21
87.9579622531
  0
LINE
  5
25F
100
AcDbEntity
  8
0
100
AcDbLine
 62
7
  6
CONTINUOUS
 10
131.3753624854
 20
83.0025042897
 11
130.746169614
 21
83.4112206735
  0
LINE
  5
260
100
AcDbEntity
  8
0
100
AcDbLine
 62
7
  6
CONTINUOUS
 10
131.9436906418
 20
79.8232927761
 11
132.3809656744
 21
79.5036735409
  0
LINE
  5
261
100
AcDbEntity
  8
0
100
AcDbLine
 62
7
  6
CONTINUOUS
 10
128.547273421
 20
77.0853313495
 11
129.2299062716
 21
76.5351907729
  0
LINE
  5
262
100
AcDbEntity
  8
BEZUGSACHSEN
100
AcDbLine
 62
7
  6
CONTINUOUS
 10
84.7976120875
 20
202.2246423147
 11
84.8772431762
 21
202.7559732981
  0
LINE
  5
263
100
AcDbEntity
  8
BEZUGSACHSEN
100
AcDbLine
 62
7
  6
CONTINUOUS
 10
88.2613381551
 20
202.8519381782
 11
88.1817070664
 21
202.3206071948
  0
LINE
  5
264
100
AcDbEntity
  8
BEZUGSACHSEN
100
AcDbLine
 62
7
  6
CONTINUOUS
 10
88.8371220269
 20
201.9159346645
 11
88.9963842044
 21
202.9785966313
  0
LINE
  5
265
100
AcDbEntity
  8
BEZUGSACHSEN
100
AcDbLine
 62
7
  6
CONTINUOUS
 10
90.1479534092
 20
201.1065905599
 11
90.0683223204
 21
200.5752595765
  0
LINE
  5
266
100
AcDbEntity
  8
BEZUGSACHSEN
100
AcDbLine
 62
7
  6
CONTINUOUS
 10
90.7237372809
 20
200.1705870462
 11
90.8934485955
 21
201.021916603
  0
LINE
  5
267
100
AcDbEntity
  8
BEZUGSACHSEN
100
AcDbLine
 62
7
  6
CONTINUOUS
 10
105.1273268162
 20
209.4800163399
 11
105.469487955
 21
210.2541338477
  0
LINE
  5
268
100
AcDbEntity
  8
0
100
AcDbLine
 62
7
  6
CONTINUOUS
 10
147.632405777
 20
91.6439663097
 11
146.8746970736
 21
91.9354283366
  0
LINE
  5
269
100
AcDbEntity
  8
0
100
AcDbLine
 62
7
  6
CONTINUOUS
 10
146.8099755453
 20
91.1923642911
 11
147.2446235869
 21
90.9956308992
  0
LINE
  5
26A
100
AcDbEntity
  8
0
100
AcDbLine
 62
7
  6
CONTINUOUS
 10
145.4240054542
 20
93.2614217236
 11
144.9893575689
 21
93.4581549727
  0
LINE
  5
26B
100
AcDbEntity
  8
0
100
AcDbLine
 62
7
  6
CONTINUOUS
 10
133.1583921097
 20
79.9590571703
 11
132.6676763616
 21
80.4201001502
  0
LINE
  5
26C
100
AcDbEntity
  8
0
100
AcDbLine
 62
7
  6
CONTINUOUS
 10
130.5979360501
 20
82.5471206602
 11
130.8432938867
 21
82.3165992693
  0
LINE
  5
26D
100
AcDbEntity
  8
BEZUGSACHSEN
100
AcDbLine
 62
7
  6
CONTINUOUS
 10
100.2408974329
 20
212.8147641573
 11
100.3589047984
 21
213.3433849848
  0
LINE
  5
26E
100
AcDbEntity
  8
0
100
AcDbLine
 62
7
  6
CONTINUOUS
 10
143.8137396337
 20
87.9143582547
 11
144.6947565172
 21
87.3096294864
  0
LINE
  5
26F
100
AcDbEntity
  8
0
100
AcDbLine
 62
7
  6
CONTINUOUS
 10
129.3246998563
 20
77.5407149789
 11
129.0259020967
 21
77.912660414
  0
LINE
  5
270
100
AcDbEntity
  8
0
100
AcDbLine
 62
7
  6
CONTINUOUS
 10
128.6713344997
 20
80.5261758523
 11
128.3725367401
 21
80.8981212874
  0
LINE
  5
271
100
AcDbEntity
  8
0
100
AcDbLine
 62
7
  6
CONTINUOUS
 10
131.674160245
 20
82.6305588546
 11
131.3753624854
 21
83.0025042897
  0
LINE
  5
272
100
AcDbEntity
  8
0
100
AcDbLine
 62
7
  6
CONTINUOUS
 10
128.1950357383
 20
77.5987008286
 11
128.547273421
 21
77.0853313495
  0
LINE
  5
273
100
AcDbEntity
  8
0
100
AcDbLine
 62
7
  6
CONTINUOUS
 10
127.5951103048
 20
80.4427376579
 11
127.9473479875
 21
79.9293681787
  0
LINE
  5
274
100
AcDbEntity
  8
0
100
AcDbLine
 62
7
  6
CONTINUOUS
 10
123.3388622498
 20
75.467494655
 11
120.2623579438
 21
81.2339688544
  0
LINE
  5
275
100
AcDbEntity
  8
0
100
AcDbLine
 62
7
  6
CONTINUOUS
 10
119.386573194
 20
81.0859465635
 11
122.90617759
 21
74.4743946856
  0
LINE
  5
276
100
AcDbEntity
  8
BEZUGSACHSEN
100
AcDbLine
 62
7
  6
CONTINUOUS
 10
88.2404398809
 20
203.2746029981
 11
88.2613381551
 21
202.8519381782
  0
LINE
  5
277
100
AcDbEntity
  8
BEZUGSACHSEN
100
AcDbLine
 62
7
  6
CONTINUOUS
 10
91.5048258811
 20
166.6526529975
 11
91.5048258811
 21
175.0163468583
  0
LINE
  5
278
100
AcDbEntity
  8
BEZUGSACHSEN
100
AcDbLine
 62
7
  6
CONTINUOUS
 10
91.5802295147
 20
161.2895124281
 11
91.5802295147
 21
132.1594985017
  0
LINE
  5
279
100
AcDbEntity
  8
RUNDUNGEN
100
AcDbLine
 62
7
  6
CONTINUOUS
 10
91.8064404153
 20
130.6513764491
 11
91.8064404153
 21
163.2196602852
  0
LINE
  5
27A
100
AcDbEntity
  8
BEZUGSACHSEN
100
AcDbLine
 62
7
  6
CONTINUOUS
 10
92.80570296
 20
204.874671563
 11
92.7968615257
 21
203.4930764891
  0
LINE
  5
27B
100
AcDbEntity
  8
BEZUGSACHSEN
100
AcDbLine
 62
7
  6
CONTINUOUS
 10
93.5684515017
 20
202.5616955844
 11
93.5772932061
 21
203.9432903321
  0
LINE
  5
27C
100
AcDbEntity
  8
BEZUGSACHSEN
100
AcDbLine
 62
7
  6
CONTINUOUS
 10
99.4210817851
 20
213.3147070461
 11
99.3561464708
 21
212.6445235999
  0
LINE
  5
27D
100
AcDbEntity
  8
0
100
AcDbLine
 62
7
  6
CONTINUOUS
 10
143.0325981608
 20
88.62835454
 11
143.8137396337
 21
87.9143582547
  0
LINE
  5
27E
100
AcDbEntity
  8
0
100
AcDbLine
 62
7
  6
CONTINUOUS
 10
143.7551542812
 20
88.9706901492
 11
143.5319710033
 21
89.1746890878
  0
LINE
  5
27F
100
AcDbEntity
  8
0
100
AcDbLine
 62
7
  6
CONTINUOUS
 10
145.0825365777
 20
87.9579622531
 11
144.7477616607
 21
88.2639606611
  0
LINE
  5
280
100
AcDbEntity
  8
BEZUGSACHSEN
100
AcDbLine
 62
7
  6
CONTINUOUS
 10
84.0521168623
 20
202.3093163075
 11
84.1944405116
 21
201.5726503081
  0
LINE
  5
281
100
AcDbEntity
  8
BEZUGSACHSEN
100
AcDbLine
 62
7
  6
CONTINUOUS
 10
108.7088601706
 20
217.2026674354
 11
107.5488369516
 21
209.8030337643
  0
LINE
  5
282
100
AcDbEntity
  8
BEZUGSACHSEN
100
AcDbLine
 62
7
  6
CONTINUOUS
 10
108.4247966181
 20
209.9500174
 11
109.4429445069
 21
216.4060594685
  0
LINE
  5
283
100
AcDbEntity
  8
BEZUGSACHSEN
100
AcDbLine
 62
7
  6
CONTINUOUS
 10
130.2926048182
 20
126.1995459251
 11
138.7798879629
 21
126.1995459251
  0
LINE
  5
284
100
AcDbEntity
  8
BEZUGSACHSEN
100
AcDbLine
 62
7
  6
CONTINUOUS
 10
164.2723483887
 20
126.1995459251
 11
173.1808606139
 21
126.1995459251
  0
LINE
  5
285
100
AcDbEntity
  8
RUNDUNGEN
100
AcDbLine
 62
7
  6
CONTINUOUS
 10
89.6167530384
 20
128.4616549312
 11
72.8831118482
 21
128.4616549312
  0
LINE
  5
286
100
AcDbEntity
  8
BEZUGSACHSEN
100
AcDbLine
 62
7
  6
CONTINUOUS
 10
73.2601627108
 20
129.9697276019
 11
89.3905079968
 21
129.9697276019
  0
LINE
  5
287
100
AcDbEntity
  8
0
100
AcDbLine
 62
7
  6
CONTINUOUS
 10
147.2446235869
 20
90.9956308992
 11
147.5793985039
 21
90.6896324912
  0
LINE
  5
288
100
AcDbEntity
  8
0
100
AcDbLine
 62
7
  6
CONTINUOUS
 10
148.1903641283
 20
91.1339688202
 11
147.632405777
 21
91.6439663097
  0
LINE
  5
289
100
AcDbEntity
  8
0
100
AcDbLine
 62
7
  6
CONTINUOUS
 10
139.1772288836
 20
87.9802091429
 11
139.953497306
 21
87.0527233794
  0
LINE
  5
28A
100
AcDbEntity
  8
0
100
AcDbLine
 62
7
  6
CONTINUOUS
 10
139.9553846026
 20
88.4343454541
 11
143.7396923805
 21
83.912853291
  0
LINE
  5
28B
100
AcDbEntity
  8
0
100
AcDbLine
 62
7
  6
CONTINUOUS
 10
144.4208145807
 20
84.482925282
 11
139.8602386523
 21
89.9319028838
  0
LINE
  5
28C
100
AcDbEntity
  8
0
100
AcDbLine
 62
7
  6
CONTINUOUS
 10
142.3513319422
 20
89.4516184851
 11
143.0325981608
 21
88.62835454
  0
LINE
  5
28D
100
AcDbEntity
  8
0
100
AcDbLine
 62
7
  6
CONTINUOUS
 10
143.5319710033
 20
89.1746890878
 11
142.9622952807
 21
89.8959523132
  0
LINE
  5
28E
100
AcDbEntity
  8
BEZUGSACHSEN
100
AcDbLine
 62
7
  6
CONTINUOUS
 10
84.9294854881
 20
201.6993074457
 11
84.7976120875
 21
202.2246423147
  0
LINE
  5
28F
100
AcDbEntity
  8
BEZUGSACHSEN
100
AcDbLine
 62
7
  6
CONTINUOUS
 10
90.8934485955
 20
201.021916603
 11
90.751124985
 21
201.7585825665
  0
LINE
  5
290
100
AcDbEntity
  8
BEZUGSACHSEN
100
AcDbLine
 62
7
  6
CONTINUOUS
 10
104.5110589055
 20
210.702109805
 11
104.5316641857
 21
210.2254555126
  0
LINE
  5
291
100
AcDbEntity
  8
0
100
AcDbLine
 62
7
  6
CONTINUOUS
 10
104.7004617499
 20
163.216344655
 11
104.7004617499
 21
152.1544906445
  0
LINE
  5
292
100
AcDbEntity
  8
0
100
AcDbLine
 62
7
  6
CONTINUOUS
 10
104.7004617499
 20
139.4544906445
 11
104.7004617499
 21
129.9411312532
  0
LINE
  5
293
100
AcDbEntity
  8
0
100
AcDbLine
 62
7
  6
CONTINUOUS
 10
70.6934230252
 20
139.4544906445
 11
71.0704411929
 21
139.4544906445
  0
LINE
  5
294
100
AcDbEntity
  8
0
100
AcDbLine
 62
7
  6
CONTINUOUS
 10
91.5802295147
 20
139.4544906445
 11
91.8064404153
 21
139.4544906445
  0
LINE
  5
295
100
AcDbEntity
  8
0
100
AcDbLine
 62
7
  6
CONTINUOUS
 10
104.7004617499
 20
139.4544906445
 11
128.0755881461
 21
139.4544906445
  0
LINE
  5
296
100
AcDbEntity
  8
0
100
AcDbLine
 62
7
  6
CONTINUOUS
 10
140.9696094808
 20
139.4544906445
 11
141.1958203814
 21
139.4544906445
  0
LINE
  5
297
100
AcDbEntity
  8
0
100
AcDbLine
 62
7
  6
CONTINUOUS
 10
161.7056087032
 20
139.4544906445
 11
162.0826268708
 21
139.4544906445
  0
LINE
  5
298
100
AcDbEntity
  8
0
100
AcDbLine
 62
7
  6
CONTINUOUS
 10
127.3813504629
 20
81.0084342306
 11
127.5951103048
 21
80.4427376579
  0
LINE
  5
299
100
AcDbEntity
  8
0
100
AcDbLine
 62
7
  6
CONTINUOUS
 10
128.3725367401
 20
80.8981212874
 11
128.265656894
 21
81.1809693756
  0
LINE
  5
29A
100
AcDbEntity
  8
0
100
AcDbLine
 62
7
  6
CONTINUOUS
 10
132.3809656744
 20
79.5036735409
 11
132.5412854435
 21
79.0794014085
  0
LINE
  5
29B
100
AcDbEntity
  8
0
100
AcDbLine
 62
7
  6
CONTINUOUS
 10
133.4255917249
 20
79.2519369497
 11
133.1583921097
 21
79.9590571703
  0
LINE
  5
29C
100
AcDbEntity
  8
BEZUGSACHSEN
100
AcDbLine
 62
7
  6
CONTINUOUS
 10
90.0160777854
 20
201.6319228698
 11
90.1479534092
 21
201.1065905599
  0
LINE
  5
29D
100
AcDbEntity
  8
0
100
AcDbLine
 62
7
  6
CONTINUOUS
 10
117.3004247603
 20
81.0917151858
 11
117.5718007915
 21
73.9912528943
  0
LINE
  5
29E
100
AcDbEntity
  8
0
100
AcDbLine
 62
7
  6
CONTINUOUS
 10
118.4593585779
 20
74.0251748982
 11
118.1879825467
 21
81.1256371897
  0
LINE
  5
29F
100
AcDbEntity
  8
BEZUGSACHSEN
100
AcDbLine
 62
7
  6
CONTINUOUS
 10
114.3173291547
 20
217.844071934
 11
114.5869535033
 21
210.7435429104
  0
LINE
  5
2A0
100
AcDbEntity
  8
T_STARTBEZUEGE
100
AcDbLine
 62
7
  6
CENTER
 10
116.388024948
 20
62.1094353639
 11
116.388024948
 21
229.4995459251
  0
LINE
  5
2A1
100
AcDbEntity
  8
BEZUGSACHSEN
100
AcDbLine
 62
7
  6
CENTER
 10
169.0604791183
 20
145.8044906445
 11
163.32230773
 21
145.8044906445
  0
LINE
  5
2A2
100
AcDbEntity
  8
BEZUGSACHSEN
100
AcDbLine
 62
7
  6
CENTER
 10
63.7155707778
 20
145.8044906445
 11
57.9773993895
 21
145.8044906445
  0
LINE
  5
2A3
100
AcDbEntity
  8
T_STARTBEZUEGE
100
AcDbLine
 62
7
  6
CENTER
 10
48.5379809285
 20
145.8044906445
 11
184.2380689676
 21
145.8044906445
  0
LINE
  5
2A4
100
AcDbEntity
  8
BEZUGSACHSEN
100
AcDbLine
 62
7
  6
CENTER
 10
63.7155707778
 20
145.8044906445
 11
69.4537421661
 21
145.8044906445
  0
LINE
  5
2A5
100
AcDbEntity
  8
BEZUGSACHSEN
100
AcDbLine
 62
7
  6
CENTER
 10
169.0604791183
 20
145.8044906445
 11
174.7986505065
 21
145.8044906445
  0
LINE
  5
2A6
100
AcDbEntity
  8
0
100
AcDbLine
 62
7
  6
CONTINUOUS
 10
142.9622952807
 20
89.8959523132
 11
142.7273953054
 21
90.3112186667
  0
LINE
  5
2A7
100
AcDbEntity
  8
0
100
AcDbLine
 62
7
  6
CONTINUOUS
 10
144.7477616607
 20
88.2639606611
 11
144.5128618417
 21
88.6792268718
  0
LINE
  5
2A8
100
AcDbEntity
  8
0
100
AcDbLine
 62
7
  6
CONTINUOUS
 10
147.5793985039
 20
90.6896324912
 11
147.8143004525
 21
90.2743689243
  0
LINE
  5
2A9
100
AcDbEntity
  8
BEZUGSACHSEN
100
AcDbLine
 62
7
  6
CONTINUOUS
 10
85.1618904748
 20
201.2826412993
 11
84.9294854881
 21
201.6993074457
  0
LINE
  5
2AA
100
AcDbEntity
  8
0
100
AcDbLine
 62
7
  6
CONTINUOUS
 10
141.9931216573
 20
90.1801489363
 11
142.3513319422
 21
89.4516184851
  0
LINE
  5
2AB
100
AcDbEntity
  8
BEZUGSACHSEN
100
AcDbLine
 62
7
  6
CONTINUOUS
 10
84.1944405116
 20
201.5726503081
 11
84.5482686114
 21
200.8419804591
  0
LINE
  5
2AC
100
AcDbEntity
  8
BEZUGSACHSEN
100
AcDbLine
 62
7
  6
CONTINUOUS
 10
105.469487955
 20
210.2541338477
 11
105.3958100163
 21
210.8723499658
  0
LINE
  5
2AD
100
AcDbEntity
  8
BEZUGSACHSEN
100
AcDbLine
 62
7
  6
CONTINUOUS
 10
115.4745196312
 20
210.777245954
 11
115.2048952827
 21
217.8777749775
  0
LINE
  5
2AE
100
AcDbEntity
  8
0
100
AcDbLine
 62
7
  6
CONTINUOUS
 10
70.6934230252
 20
152.1544906445
 11
71.0704411929
 21
152.1544906445
  0
LINE
  5
2AF
100
AcDbEntity
  8
0
100
AcDbLine
 62
7
  6
CONTINUOUS
 10
91.5802295147
 20
152.1544906445
 11
91.8064404153
 21
152.1544906445
  0
LINE
  5
2B0
100
AcDbEntity
  8
0
100
AcDbLine
 62
7
  6
CONTINUOUS
 10
104.7004617499
 20
152.1544906445
 11
128.0755881461
 21
152.1544906445
  0
LINE
  5
2B1
100
AcDbEntity
  8
0
100
AcDbLine
 62
7
  6
CONTINUOUS
 10
140.9696094808
 20
152.1544906445
 11
141.1958203814
 21
152.1544906445
  0
LINE
  5
2B2
100
AcDbEntity
  8
0
100
AcDbLine
 62
7
  6
CONTINUOUS
 10
161.7056087032
 20
152.1544906445
 11
162.0826268708
 21
152.1544906445
  0
LINE
  5
2B3
100
AcDbEntity
  8
BEZUGSACHSEN
100
AcDbLine
 62
7
  6
CONTINUOUS
 10
88.0080370397
 20
203.6912717755
 11
88.2404398809
 21
203.2746029981
  0
LINE
  5
2B4
100
AcDbEntity
  8
BEZUGSACHSEN
100
AcDbLine
 62
7
  6
CONTINUOUS
 10
89.7836747886
 20
202.048591791
 11
90.0160777854
 21
201.6319228698
  0
LINE
  5
2B5
100
AcDbEntity
  8
0
100
AcDbLine
 62
7
  6
CONTINUOUS
 10
148.5485718928
 20
90.4054360824
 11
148.1903641283
 21
91.1339688202
  0
LINE
  5
2B6
100
AcDbEntity
  8
BEZUGSACHSEN
100
AcDbLine
 62
7
  6
CONTINUOUS
 10
90.751124985
 20
201.7585825665
 11
90.3972943512
 21
202.4892501441
  0
LINE
  5
2B7
100
AcDbEntity
  8
BEZUGSACHSEN
100
AcDbLine
 62
7
  6
CONTINUOUS
 10
99.3561464708
 20
212.6445235999
 11
99.6215105069
 21
211.9367124887
  0
LINE
  5
2B8
100
AcDbEntity
  8
0
100
AcDbLine
 62
7
  6
CONTINUOUS
 10
127.3060687612
 20
81.6264571045
 11
127.3813504629
 21
81.0084342306
  0
LINE
  5
2B9
100
AcDbEntity
  8
0
100
AcDbLine
 62
7
  6
CONTINUOUS
 10
128.265656894
 20
81.1809693756
 11
128.2438149656
 21
81.6575686016
  0
LINE
  5
2BA
100
AcDbEntity
  8
BEZUGSACHSEN
100
AcDbLine
 62
7
  6
CONTINUOUS
 10
128.0755881461
 20
128.392636634
 11
128.0755881461
 21
139.4544906445
  0
LINE
  5
2BB
100
AcDbEntity
  8
BEZUGSACHSEN
100
AcDbLine
 62
7
  6
CONTINUOUS
 10
128.0755881461
 20
152.1544906445
 11
128.0755881461
 21
161.6678500357
  0
LINE
  5
2BC
100
AcDbEntity
  8
BEZUGSACHSEN
100
AcDbLine
 62
7
  6
CONTINUOUS
 10
89.2183389036
 20
202.7732616512
 11
89.7836747886
 21
202.048591791
  0
LINE
  5
2BD
100
AcDbEntity
  8
BEZUGSACHSEN
100
AcDbLine
 62
7
  6
CONTINUOUS
 10
100.4001158545
 20
212.3900774905
 11
100.2408974329
 21
212.8147641573
  0
LINE
  5
2BE
100
AcDbEntity
  8
BEZUGSACHSEN
100
AcDbLine
 62
7
  6
CONTINUOUS
 10
104.4049132911
 20
210.9852342495
 11
104.5110589055
 21
210.702109805
  0
LINE
  5
2BF
100
AcDbEntity
  8
BEZUGSACHSEN
100
AcDbLine
 62
7
  6
CONTINUOUS
 10
105.3958100163
 20
210.8723499658
 11
105.1835186387
 21
211.4385992513
  0
LINE
  5
2C0
100
AcDbEntity
  8
0
100
AcDbLine
 62
7
  6
CONTINUOUS
 10
142.7273953054
 20
90.3112186667
 11
142.592368611
 21
90.8357498935
  0
LINE
  5
2C1
100
AcDbEntity
  8
0
100
AcDbLine
 62
7
  6
CONTINUOUS
 10
141.8463785782
 20
90.9159472922
 11
141.9931216573
 21
90.1801489363
  0
LINE
  5
2C2
100
AcDbEntity
  8
0
100
AcDbLine
 62
7
  6
CONTINUOUS
 10
124.073890729
 20
74.6717577636
 11
125.2251382625
 21
82.0727618477
  0
LINE
  5
2C3
100
AcDbEntity
  8
0
100
AcDbLine
 62
7
  6
CONTINUOUS
 10
124.3493535126
 20
81.9247395568
 11
123.3388622498
 21
75.467494655
  0
LINE
  5
2C4
100
AcDbEntity
  8
0
100
AcDbLine
 62
7
  6
CONTINUOUS
 10
159.5158871853
 20
161.6392536871
 11
143.3855418993
 21
161.6392536871
  0
LINE
  5
2C5
100
AcDbEntity
  8
BEZUGSACHSEN
100
AcDbLine
 62
7
  6
CONTINUOUS
 10
143.1592968577
 20
163.1473263578
 11
159.8929380478
 21
163.1473263578
  0
LINE
  5
2C6
100
AcDbEntity
  8
BEZUGSACHSEN
100
AcDbLine
 62
7
  6
CONTINUOUS
 10
102.4834450779
 20
165.4094353639
 11
93.9961619332
 21
165.4094353639
  0
LINE
  5
2C7
100
AcDbEntity
  8
BEZUGSACHSEN
100
AcDbLine
 62
7
  6
CONTINUOUS
 10
68.5037015073
 20
165.4094353639
 11
59.5951892822
 21
165.4094353639
  0
LINE
  5
2C8
100
AcDbEntity
  8
BEZUGSACHSEN
100
AcDbLine
 62
7
  6
CONTINUOUS
 10
84.5482686114
 20
200.8419804591
 11
85.1031555148
 21
200.3286428651
  0
LINE
  5
2C9
100
AcDbEntity
  8
BEZUGSACHSEN
100
AcDbLine
 62
7
  6
CONTINUOUS
 10
85.4948225236
 20
200.9746388292
 11
85.1618904748
 21
201.2826412993
  0
LINE
  5
2CA
100
AcDbEntity
  8
BEZUGSACHSEN
100
AcDbLine
 62
7
  6
CONTINUOUS
 10
88.3513769192
 20
207.4669225956
 11
92.8844685683
 21
201.9950591283
  0
LINE
  5
2CB
100
AcDbEntity
  8
BEZUGSACHSEN
100
AcDbLine
 62
7
  6
CONTINUOUS
 10
92.7968615257
 20
203.4930764891
 11
89.0353598526
 21
208.0335590517
  0
LINE
  5
2CC
100
AcDbEntity
  8
BEZUGSACHSEN
100
AcDbLine
 62
7
  6
CONTINUOUS
 10
93.5772932061
 20
203.9432903321
 11
92.80570296
 21
204.874671563
  0
LINE
  5
2CD
100
AcDbEntity
  8
BEZUGSACHSEN
100
AcDbLine
 62
7
  6
CONTINUOUS
 10
90.3972943512
 20
202.4892501441
 11
89.7209822669
 21
203.3165887379
  0
LINE
  5
2CE
100
AcDbEntity
  8
0
100
AcDbLine
 62
7
  6
CONTINUOUS
 10
147.8143004525
 20
90.2743689243
 11
147.9493249391
 21
89.7498351252
  0
LINE
  5
2CF
100
AcDbEntity
  8
0
100
AcDbLine
 62
7
  6
CONTINUOUS
 10
148.695315011
 20
89.6696376908
 11
148.5485718928
 21
90.4054360824
  0
LINE
  5
2D0
100
AcDbEntity
  8
0
100
AcDbLine
 62
7
  6
CONTINUOUS
 10
144.5128618417
 20
88.6792268718
 11
144.4894267864
 21
89.1017586292
  0
LINE
  5
2D1
100
AcDbEntity
  8
BEZUGSACHSEN
100
AcDbLine
 62
7
  6
CONTINUOUS
 10
140.9696094808
 20
128.389267443
 11
140.9696094808
 21
160.9576048399
  0
LINE
  5
2D2
100
AcDbEntity
  8
BEZUGSACHSEN
100
AcDbLine
 62
7
  6
CONTINUOUS
 10
141.1958203814
 20
130.3194688609
 11
141.1958203814
 21
136.2060333048
  0
LINE
  5
2D3
100
AcDbEntity
  8
0
100
AcDbLine
 62
7
  6
CONTINUOUS
 10
141.1958203814
 20
136.2060333048
 11
141.1958203814
 21
153.9235146908
  0
LINE
  5
2D4
100
AcDbEntity
  8
RUNDUNGEN
100
AcDbLine
 62
7
  6
CONTINUOUS
 10
141.1958203814
 20
136.2060333048
 11
141.1958203814
 21
159.4494827873
  0
LINE
  5
2D5
100
AcDbEntity
  8
RUNDUNGEN
100
AcDbLine
 62
7
  6
CONTINUOUS
 10
141.2712240149
 20
124.9563282915
 11
141.2712240149
 21
116.5926344307
  0
LINE
  5
2D6
100
AcDbEntity
  8
0
100
AcDbLine
 62
7
  6
CONTINUOUS
 10
139.1791164521
 20
89.3618308928
 11
139.1772288836
 21
87.9802091429
  0
LINE
  5
2D7
100
AcDbEntity
  8
0
100
AcDbLine
 62
7
  6
CONTINUOUS
 10
139.953497306
 20
87.0527233794
 11
139.9553846026
 21
88.4343454541
  0
LINE
  5
2D8
100
AcDbEntity
  8
0
100
AcDbLine
 62
7
  6
CONTINUOUS
 10
133.3623954735
 20
78.5815872794
 11
133.4255917249
 21
79.2519369497
  0
LINE
  5
2D9
100
AcDbEntity
  8
BEZUGSACHSEN
100
AcDbLine
 62
7
  6
CONTINUOUS
 10
87.6751049909
 20
203.9992742456
 11
88.0080370397
 21
203.6912717755
  0
LINE
  5
2DA
100
AcDbEntity
  8
BEZUGSACHSEN
100
AcDbLine
 62
7
  6
CONTINUOUS
 10
88.9963842044
 20
202.9785966313
 11
89.2183389036
 21
202.7732616512
  0
LINE
  5
2DB
100
AcDbEntity
  8
BEZUGSACHSEN
100
AcDbLine
 62
7
  6
CONTINUOUS
 10
89.7209822669
 20
203.3165887379
 11
88.9441408198
 21
204.0352611681
  0
LINE
  5
2DC
100
AcDbEntity
  8
BEZUGSACHSEN
100
AcDbLine
 62
7
  6
CONTINUOUS
 10
101.0988059518
 20
209.2613688387
 11
101.3966376637
 21
208.888649401
  0
LINE
  5
2DD
100
AcDbEntity
  8
BEZUGSACHSEN
100
AcDbLine
 62
7
  6
CONTINUOUS
 10
105.1835186387
 20
211.4385992513
 11
104.8326141196
 21
211.9528809113
  0
LINE
  5
2DE
100
AcDbEntity
  8
BEZUGSACHSEN
100
AcDbLine
 62
7
  6
CONTINUOUS
 10
109.4429445069
 20
216.4060594685
 11
112.512608465
 21
210.6359410451
  0
LINE
  5
2DF
100
AcDbEntity
  8
BEZUGSACHSEN
100
AcDbLine
 62
7
  6
CONTINUOUS
 10
113.3885681316
 20
210.7829246808
 11
109.8768065319
 21
217.3986456397
  0
LINE
  5
2E0
100
AcDbEntity
  8
0
100
AcDbLine
 62
7
  6
CONTINUOUS
 10
142.592368611
 20
90.8357498935
 11
142.6688088099
 21
91.3675493107
  0
LINE
  5
2E1
100
AcDbEntity
  8
0
100
AcDbLine
 62
7
  6
CONTINUOUS
 10
143.908034679
 20
90.0342889837
 11
143.7551542812
 21
88.9706901492
  0
LINE
  5
2E2
100
AcDbEntity
  8
0
100
AcDbLine
 62
7
  6
CONTINUOUS
 10
142.0109765037
 20
91.768280248
 11
141.8463785782
 21
90.9159472922
  0
LINE
  5
2E3
100
AcDbEntity
  8
0
100
AcDbLine
 62
7
  6
CONTINUOUS
 10
132.5412854435
 20
79.0794014085
 11
132.424650024
 21
78.5504761808
  0
LINE
  5
2E4
100
AcDbEntity
  8
BEZUGSACHSEN
100
AcDbLine
 62
7
  6
CONTINUOUS
 10
88.9441408198
 20
204.0352611681
 11
88.0667698542
 21
204.6452675787
  0
LINE
  5
2E5
100
AcDbEntity
  8
BEZUGSACHSEN
100
AcDbLine
 62
7
  6
CONTINUOUS
 10
104.1070815792
 20
211.3579536872
 11
104.4049132911
 21
210.9852342495
  0
LINE
  5
2E6
100
AcDbEntity
  8
BEZUGSACHSEN
100
AcDbLine
 62
7
  6
CONTINUOUS
 10
103.4614644378
 20
214.3450997202
 11
103.7592961497
 21
213.9723802825
  0
LINE
  5
2E7
100
AcDbEntity
  8
BEZUGSACHSEN
100
AcDbLine
 62
7
  6
CONTINUOUS
 10
104.5909743045
 20
214.2841830621
 11
104.2400697854
 21
214.7984647221
  0
LINE
  5
2E8
100
AcDbEntity
  8
0
100
AcDbLine
 62
7
  6
CONTINUOUS
 10
144.4894267864
 20
89.1017586292
 11
144.5658669853
 21
89.6335580464
  0
LINE
  5
2E9
100
AcDbEntity
  8
0
100
AcDbLine
 62
7
  6
CONTINUOUS
 10
147.9493249391
 20
89.7498351252
 11
147.8728847402
 21
89.218035708
  0
LINE
  5
2EA
100
AcDbEntity
  8
0
100
AcDbLine
 62
7
  6
CONTINUOUS
 10
127.6462202387
 20
82.4014597711
 11
127.3060687612
 21
81.6264571045
  0
LINE
  5
2EB
100
AcDbEntity
  8
BEZUGSACHSEN
100
AcDbLine
 62
7
  6
CONTINUOUS
 10
85.1031555148
 20
200.3286428651
 11
85.8591009887
 21
200.0326377418
  0
LINE
  5
2EC
100
AcDbEntity
  8
BEZUGSACHSEN
100
AcDbLine
 62
7
  6
CONTINUOUS
 10
87.3018068443
 20
198.6979600837
 11
87.7352659552
 21
198.4986212899
  0
LINE
  5
2ED
100
AcDbEntity
  8
BEZUGSACHSEN
100
AcDbLine
 62
7
  6
CONTINUOUS
 10
85.9282817899
 20
200.7752998916
 11
85.4948225236
 21
200.9746388292
  0
LINE
  5
2EE
100
AcDbEntity
  8
BEZUGSACHSEN
100
AcDbLine
 62
7
  6
CONTINUOUS
 10
87.2416435791
 20
204.1986105522
 11
87.6751049909
 21
203.9992742456
  0
LINE
  5
2EF
100
AcDbEntity
  8
BEZUGSACHSEN
100
AcDbLine
 62
7
  6
CONTINUOUS
 10
102.1752430113
 20
209.3420144028
 11
101.9304841067
 21
209.5731716183
  0
LINE
  5
2F0
100
AcDbEntity
  8
BEZUGSACHSEN
100
AcDbLine
 62
7
  6
CONTINUOUS
 10
99.6215105069
 20
211.9367124887
 11
100.1110283905
 21
211.4743978595
  0
LINE
  5
2F1
100
AcDbEntity
  8
BEZUGSACHSEN
100
AcDbLine
 62
7
  6
CONTINUOUS
 10
161.7056087032
 20
136.7350388631
 11
161.7056087032
 21
134.1788995445
  0
LINE
  5
2F2
100
AcDbEntity
  8
RUNDUNGEN
100
AcDbLine
 62
7
  6
CONTINUOUS
 10
161.7056087032
 20
136.7350388631
 11
161.7056087032
 21
159.449482768
  0
LINE
  5
2F3
100
AcDbEntity
  8
BEZUGSACHSEN
100
AcDbLine
 62
7
  6
CONTINUOUS
 10
162.0826268708
 20
160.9576048399
 11
162.0826268708
 21
128.389267443
  0
LINE
  5
2F4
100
AcDbEntity
  8
0
100
AcDbLine
 62
7
  6
CONTINUOUS
 10
148.5307182578
 20
88.8173059587
 11
148.695315011
 21
89.6696376908
  0
LINE
  5
2F5
100
AcDbEntity
  8
0
100
AcDbLine
 62
7
  6
CONTINUOUS
 10
142.6688088099
 20
91.3675493107
 11
142.8568406478
 21
91.7973492586
  0
LINE
  5
2F6
100
AcDbEntity
  8
0
100
AcDbLine
 62
7
  6
CONTINUOUS
 10
144.5658669853
 20
89.6335580464
 11
144.7538988231
 21
90.0633579943
  0
LINE
  5
2F7
100
AcDbEntity
  8
0
100
AcDbLine
 62
7
  6
CONTINUOUS
 10
133.0222448071
 20
77.8065848627
 11
133.3623954735
 21
78.5815872794
  0
LINE
  5
2F8
100
AcDbEntity
  8
0
100
AcDbLine
 62
7
  6
CONTINUOUS
 10
128.2438149656
 20
81.6575686016
 11
128.5523682987
 21
82.0973964825
  0
LINE
  5
2F9
100
AcDbEntity
  8
BEZUGSACHSEN
100
AcDbLine
 62
7
  6
CONTINUOUS
 10
87.7352659552
 20
198.4986212899
 11
88.4807611415
 21
198.4139473331
  0
LINE
  5
2FA
100
AcDbEntity
  8
BEZUGSACHSEN
100
AcDbLine
 62
7
  6
CONTINUOUS
 10
88.3384375311
 20
199.1506132965
 11
87.8044490573
 21
199.2412859268
  0
LINE
  5
2FB
100
AcDbEntity
  8
BEZUGSACHSEN
100
AcDbLine
 62
7
  6
CONTINUOUS
 10
88.0667698542
 20
204.6452675787
 11
87.3108266035
 21
204.941275261
  0
LINE
  5
2FC
100
AcDbEntity
  8
BEZUGSACHSEN
100
AcDbLine
 62
7
  6
CONTINUOUS
 10
101.3966376637
 20
208.888649401
 11
102.02476797
 21
208.4783019018
  0
LINE
  5
2FD
100
AcDbEntity
  8
BEZUGSACHSEN
100
AcDbLine
 62
7
  6
CONTINUOUS
 10
100.8365601378
 20
212.0693247862
 11
100.4001158545
 21
212.3900774905
  0
LINE
  5
2FE
100
AcDbEntity
  8
BEZUGSACHSEN
100
AcDbLine
 62
7
  6
CONTINUOUS
 10
104.2400697854
 20
214.7984647221
 11
103.5588666161
 21
215.3503745922
  0
LINE
  5
2FF
100
AcDbEntity
  8
BEZUGSACHSEN
100
AcDbLine
 62
7
  6
CENTER
 10
169.0604791183
 20
145.8044906445
 11
169.0604791183
 21
140.0663192562
  0
LINE
  5
300
100
AcDbEntity
  8
BEZUGSACHSEN
100
AcDbLine
 62
7
  6
CENTER
 10
169.0604791183
 20
145.8044906445
 11
169.0604791183
 21
151.5426620328
  0
LINE
  5
301
100
AcDbEntity
  8
0
100
AcDbLine
 62
7
  6
CONTINUOUS
 10
147.8728847402
 20
89.218035708
 11
147.6848529023
 21
88.7882357601
  0
LINE
  5
302
100
AcDbEntity
  8
0
100
AcDbLine
 62
7
  6
CONTINUOUS
 10
142.3987577071
 20
92.4166142651
 11
142.0109765037
 21
91.768280248
  0
LINE
  5
303
100
AcDbEntity
  8
0
100
AcDbLine
 62
7
  6
CONTINUOUS
 10
144.2958158825
 20
90.6826230008
 11
143.908034679
 21
90.0342889837
  0
LINE
  5
304
100
AcDbEntity
  8
0
100
AcDbLine
 62
7
  6
CONTINUOUS
 10
132.424650024
 20
78.5504761808
 11
132.1160967284
 21
78.1106482008
  0
LINE
  5
305
100
AcDbEntity
  8
0
100
AcDbLine
 62
7
  6
CONTINUOUS
 10
128.0932507699
 20
82.89361405
 11
127.6462202387
 21
82.4014597711
  0
LINE
  5
306
100
AcDbEntity
  8
0
100
AcDbLine
 62
7
  6
CONTINUOUS
 10
142.7982552953
 20
92.8536811531
 11
142.3987577071
 21
92.4166142651
  0
LINE
  5
307
100
AcDbEntity
  8
0
100
AcDbLine
 62
7
  6
CONTINUOUS
 10
142.8568406478
 20
91.7973492586
 11
143.4560887445
 21
92.4529514663
  0
LINE
  5
308
100
AcDbEntity
  8
BEZUGSACHSEN
100
AcDbLine
 62
7
  6
CONTINUOUS
 10
85.8591009887
 20
200.0326377418
 11
86.4936188254
 21
200.050631275
  0
LINE
  5
309
100
AcDbEntity
  8
BEZUGSACHSEN
100
AcDbLine
 62
7
  6
CONTINUOUS
 10
86.351295215
 20
200.7872972385
 11
85.9282817899
 21
200.7752998916
  0
LINE
  5
30A
100
AcDbEntity
  8
BEZUGSACHSEN
100
AcDbLine
 62
7
  6
CONTINUOUS
 10
87.3108266035
 20
204.941275261
 11
86.5653313783
 21
205.0259492538
  0
LINE
  5
30B
100
AcDbEntity
  8
BEZUGSACHSEN
100
AcDbLine
 62
7
  6
CONTINUOUS
 10
86.7076550276
 20
204.2892832544
 11
87.2416435791
 21
204.1986105522
  0
LINE
  5
30C
100
AcDbEntity
  8
BEZUGSACHSEN
100
AcDbLine
 62
7
  6
CONTINUOUS
 10
102.02476797
 20
208.4783019018
 11
102.7384379661
 21
208.2614835566
  0
LINE
  5
30D
100
AcDbEntity
  8
BEZUGSACHSEN
100
AcDbLine
 62
7
  6
CONTINUOUS
 10
102.558614413
 20
209.1628241191
 11
102.1752430113
 21
209.3420144028
  0
LINE
  5
30E
100
AcDbEntity
  8
BEZUGSACHSEN
100
AcDbLine
 62
7
  6
CONTINUOUS
 10
100.1110283905
 20
211.4743978595
 11
100.8777711939
 21
211.116017292
  0
LINE
  5
30F
100
AcDbEntity
  8
BEZUGSACHSEN
100
AcDbLine
 62
7
  6
CONTINUOUS
 10
104.8326141196
 20
211.9528809113
 11
104.0658705231
 21
212.3112611814
  0
LINE
  5
310
100
AcDbEntity
  8
0
100
AcDbLine
 62
7
  6
CONTINUOUS
 10
148.1429382071
 20
88.1689731831
 11
148.5307182578
 21
88.8173059587
  0
LINE
  5
311
100
AcDbEntity
  8
BEZUGSACHSEN
100
AcDbLine
 62
7
  6
CONTINUOUS
 10
174.9951708918
 20
127.1416793314
 11
180.2505565536
 21
134.647147889
  0
LINE
  5
312
100
AcDbEntity
  8
0
100
AcDbLine
 62
7
  6
CONTINUOUS
 10
132.5752134976
 20
77.3144302473
 11
133.0222448071
 21
77.8065848627
  0
LINE
  5
313
100
AcDbEntity
  8
0
100
AcDbLine
 62
7
  6
CONTINUOUS
 10
144.9246337547
 20
92.7150884263
 11
145.4240054542
 21
93.2614217236
  0
LINE
  5
314
100
AcDbEntity
  8
0
100
AcDbLine
 62
7
  6
CONTINUOUS
 10
144.7951887249
 20
91.2289575486
 11
144.2958158825
 21
90.6826230008
  0
LINE
  5
315
100
AcDbEntity
  8
0
100
AcDbLine
 62
7
  6
CONTINUOUS
 10
144.7538988231
 20
90.0633579943
 11
145.4530198882
 21
90.8282253609
  0
LINE
  5
316
100
AcDbEntity
  8
0
100
AcDbLine
 62
7
  6
CONTINUOUS
 10
147.6848529023
 20
88.7882357601
 11
146.9857318373
 21
88.0233683935
  0
LINE
  5
317
100
AcDbEntity
  8
0
100
AcDbLine
 62
7
  6
CONTINUOUS
 10
147.6435653646
 20
87.6226386353
 11
148.1429382071
 21
88.1689731831
  0
LINE
  5
318
100
AcDbEntity
  8
0
100
AcDbLine
 62
7
  6
CONTINUOUS
 10
139.8602386523
 20
89.9319028838
 11
139.1791164521
 21
89.3618308928
  0
LINE
  5
319
100
AcDbEntity
  8
0
100
AcDbLine
 62
7
  6
CONTINUOUS
 10
128.5523682987
 20
82.0973964825
 11
128.9143615548
 21
82.3958003193
  0
LINE
  5
31A
100
AcDbEntity
  8
0
100
AcDbLine
 62
7
  6
CONTINUOUS
 10
143.4092186337
 20
93.2980149811
 11
142.7982552953
 21
92.8536811531
  0
LINE
  5
31B
100
AcDbEntity
  8
0
100
AcDbLine
 62
7
  6
CONTINUOUS
 10
145.4061520634
 20
91.6732913766
 11
144.7951887249
 21
91.2289575486
  0
LINE
  5
31C
100
AcDbEntity
  8
0
100
AcDbLine
 62
7
  6
CONTINUOUS
 10
128.5937220165
 20
83.2443445841
 11
128.0932507699
 21
82.89361405
  0
LINE
  5
31D
100
AcDbEntity
  8
0
100
AcDbLine
 62
7
  6
CONTINUOUS
 10
143.4560887445
 20
92.4529514663
 11
143.8673038603
 21
92.6787524755
  0
LINE
  5
31E
100
AcDbEntity
  8
0
100
AcDbLine
 62
7
  6
CONTINUOUS
 10
145.4530198882
 20
90.8282253609
 11
145.864235004
 21
91.0540263702
  0
LINE
  5
31F
100
AcDbEntity
  8
0
100
AcDbLine
 62
7
  6
CONTINUOUS
 10
129.2861103844
 20
83.5059774721
 11
128.5937220165
 21
83.2443445841
  0
LINE
  5
320
100
AcDbEntity
  8
0
100
AcDbLine
 62
7
  6
CONTINUOUS
 10
144.2433675361
 20
93.5383523714
 11
143.4092186337
 21
93.2980149811
  0
LINE
  5
321
100
AcDbEntity
  8
0
100
AcDbLine
 62
7
  6
CONTINUOUS
 10
146.2402986798
 20
91.913626266
 11
145.4061520634
 21
91.6732913766
  0
LINE
  5
322
100
AcDbEntity
  8
BEZUGSACHSEN
100
AcDbLine
 62
7
  6
CONTINUOUS
 10
88.4807611415
 20
198.4139473331
 11
89.3163377041
 21
198.6492731932
  0
LINE
  5
323
100
AcDbEntity
  8
BEZUGSACHSEN
100
AcDbLine
 62
7
  6
CONTINUOUS
 10
86.4936188254
 20
200.050631275
 11
87.3291930872
 21
200.285954648
  0
LINE
  5
324
100
AcDbEntity
  8
BEZUGSACHSEN
100
AcDbLine
 62
7
  6
CONTINUOUS
 10
88.8619780182
 20
199.2712743197
 11
88.3384375311
 21
199.1506132965
  0
LINE
  5
325
100
AcDbEntity
  8
BEZUGSACHSEN
100
AcDbLine
 62
7
  6
CONTINUOUS
 10
86.8748357021
 20
200.9079582617
 11
86.351295215
 21
200.7872972385
  0
LINE
  5
326
100
AcDbEntity
  8
BEZUGSACHSEN
100
AcDbLine
 62
7
  6
CONTINUOUS
 10
101.3585448297
 20
211.9421017316
 11
100.8365601378
 21
212.0693247862
  0
LINE
  5
327
100
AcDbEntity
  8
BEZUGSACHSEN
100
AcDbLine
 62
7
  6
CONTINUOUS
 10
103.5850968873
 20
211.4851767419
 11
104.1070815792
 21
211.3579536872
  0
LINE
  5
328
100
AcDbEntity
  8
BEZUGSACHSEN
100
AcDbLine
 62
7
  6
CONTINUOUS
 10
102.8864069015
 20
214.6138850963
 11
103.4614644378
 21
214.3450997202
  0
LINE
  5
329
100
AcDbEntity
  8
BEZUGSACHSEN
100
AcDbLine
 62
7
  6
CONTINUOUS
 10
181.235149789
 20
159.6711301565
 11
181.235149789
 21
152.3736551981
  0
LINE
  5
32A
100
AcDbEntity
  8
BEZUGSACHSEN
100
AcDbLine
 62
7
  6
CONTINUOUS
 10
181.235149789
 20
139.2353260908
 11
181.235149789
 21
137.7698786769
  0
LINE
  5
32B
100
AcDbEntity
  8
0
100
AcDbLine
 62
7
  6
CONTINUOUS
 10
143.7396923805
 20
83.912853291
 11
144.4208145807
 21
84.482925282
  0
LINE
  5
32C
100
AcDbEntity
  8
0
100
AcDbLine
 62
7
  6
CONTINUOUS
 10
147.0326008734
 20
87.1783035657
 11
147.6435653646
 21
87.6226386353
  0
LINE
  5
32D
100
AcDbEntity
  8
0
100
AcDbLine
 62
7
  6
CONTINUOUS
 10
132.1160967284
 20
78.1106482008
 11
131.6156254818
 21
77.7599176667
  0
LINE
  5
32E
100
AcDbEntity
  8
0
100
AcDbLine
 62
7
  6
CONTINUOUS
 10
131.9362650575
 20
76.9113733028
 11
132.5752134976
 21
77.3144302473
  0
LINE
  5
32F
100
AcDbEntity
  8
0
100
AcDbLine
 62
7
  6
CONTINUOUS
 10
146.9857318373
 20
88.0233683935
 11
146.5745167214
 21
87.7975673842
  0
LINE
  5
330
100
AcDbEntity
  8
0
100
AcDbLine
 62
7
  6
CONTINUOUS
 10
128.9143615548
 20
82.3958003193
 11
129.7452279131
 21
82.7097599046
  0
LINE
  5
331
100
AcDbEntity
  8
0
100
AcDbLine
 62
7
  6
CONTINUOUS
 10
130.8432938867
 20
82.3165992693
 11
131.674160245
 21
82.6305588546
  0
LINE
  5
332
100
AcDbEntity
  8
0
100
AcDbLine
 62
7
  6
CONTINUOUS
 10
130.4933869855
 20
80.7298228906
 11
129.6625206272
 21
80.4158633053
  0
LINE
  5
333
100
AcDbEntity
  8
0
100
AcDbLine
 62
7
  6
CONTINUOUS
 10
129.9831601655
 20
79.5673190405
 11
130.8140265238
 21
79.8812786258
  0
LINE
  5
334
100
AcDbEntity
  8
0
100
AcDbLine
 62
7
  6
CONTINUOUS
 10
129.0259020967
 20
77.912660414
 11
128.1950357383
 21
77.5987008286
  0
LINE
  5
335
100
AcDbEntity
  8
0
100
AcDbLine
 62
7
  6
CONTINUOUS
 10
131.6156254818
 20
77.7599176667
 11
130.5078039348
 21
77.341304986
  0
LINE
  5
336
100
AcDbEntity
  8
0
100
AcDbLine
 62
7
  6
CONTINUOUS
 10
146.1984530847
 20
86.9379674527
 11
147.0326008734
 21
87.1783035657
  0
LINE
  5
337
100
AcDbEntity
  8
BEZUGSACHSEN
100
AcDbLine
 62
7
  6
CONTINUOUS
 10
86.5653313783
 20
205.0259492538
 11
85.729755937
 21
204.7906246642
  0
LINE
  5
338
100
AcDbEntity
  8
BEZUGSACHSEN
100
AcDbLine
 62
7
  6
CONTINUOUS
 10
86.1841145405
 20
204.1686222312
 11
86.7076550276
 21
204.2892832544
  0
LINE
  5
339
100
AcDbEntity
  8
BEZUGSACHSEN
100
AcDbLine
 62
7
  6
CONTINUOUS
 10
107.5488369516
 20
209.8030337643
 11
108.4247966181
 21
209.9500174
  0
LINE
  5
33A
100
AcDbEntity
  8
BEZUGSACHSEN
100
AcDbLine
 62
7
  6
CONTINUOUS
 10
112.512608465
 20
210.6359410451
 11
113.3885681316
 21
210.7829246808
  0
LINE
  5
33B
100
AcDbEntity
  8
BEZUGSACHSEN
100
AcDbLine
 62
7
  6
CONTINUOUS
 10
102.7384379661
 20
208.2614835566
 11
103.4845764312
 21
208.3797571822
  0
LINE
  5
33C
100
AcDbEntity
  8
BEZUGSACHSEN
100
AcDbLine
 62
7
  6
CONTINUOUS
 10
101.538369176
 20
211.0407614664
 11
102.2845068478
 21
211.1590347947
  0
LINE
  5
33D
100
AcDbEntity
  8
BEZUGSACHSEN
100
AcDbLine
 62
7
  6
CONTINUOUS
 10
101.9660700045
 20
212.0084081282
 11
101.3585448297
 21
211.9421017316
  0
LINE
  5
33E
100
AcDbEntity
  8
BEZUGSACHSEN
100
AcDbLine
 62
7
  6
CONTINUOUS
 10
103.4052733342
 20
212.3865173044
 11
102.7977481593
 21
212.3202109078
  0
LINE
  5
33F
100
AcDbEntity
  8
BEZUGSACHSEN
100
AcDbLine
 62
7
  6
CONTINUOUS
 10
102.2788817267
 20
214.5475786997
 11
102.8864069015
 21
214.6138850963
  0
LINE
  5
340
100
AcDbEntity
  8
BEZUGSACHSEN
100
AcDbLine
 62
7
  6
CONTINUOUS
 10
114.5869535033
 20
210.7435429104
 11
115.4745196312
 21
210.777245954
  0
LINE
  5
341
100
AcDbEntity
  8
BEZUGSACHSEN
100
AcDbLine
 62
7
  6
CONTINUOUS
 10
103.0275262976
 20
209.1771632867
 11
102.558614413
 21
209.1628241191
  0
LINE
  5
342
100
AcDbEntity
  8
BEZUGSACHSEN
100
AcDbLine
 62
7
  6
CONTINUOUS
 10
103.1161850027
 20
211.4708375743
 11
103.5850968873
 21
211.4851767419
  0
LINE
  5
343
100
AcDbEntity
  8
BEZUGSACHSEN
100
AcDbLine
 62
7
  6
CONTINUOUS
 10
100.8777711939
 20
211.116017292
 11
101.538369176
 21
211.0407614664
  0
LINE
  5
344
100
AcDbEntity
  8
BEZUGSACHSEN
100
AcDbLine
 62
7
  6
CONTINUOUS
 10
104.0658705231
 20
212.3112611814
 11
103.4052733342
 21
212.3865173044
  0
LINE
  5
345
100
AcDbEntity
  8
BEZUGSACHSEN
100
AcDbLine
 62
7
  6
CONTINUOUS
 10
103.5588666161
 20
215.3503745922
 11
102.7065833159
 21
215.5152257456
  0
LINE
  5
346
100
AcDbEntity
  8
BEZUGSACHSEN
100
AcDbLine
 62
7
  6
CONTINUOUS
 10
154.9955043088
 20
205.0329576345
 11
179.5866454663
 21
165.4486804484
  0
LINE
  5
347
100
AcDbEntity
  8
0
100
AcDbLine
 62
7
  6
CONTINUOUS
 10
130.8284435105
 20
76.4927606222
 11
131.9362650575
 21
76.9113733028
  0
LINE
  5
348
100
AcDbEntity
  8
BEZUGSACHSEN
100
AcDbLine
 62
7
  6
CONTINUOUS
 10
109.8768065319
 20
217.3986456397
 11
108.7088601706
 21
217.2026674354
  0
LINE
  5
349
100
AcDbEntity
  8
BEZUGSACHSEN
100
AcDbLine
 62
7
  6
CONTINUOUS
 10
102.7065833159
 20
215.5152257456
 11
101.9604448462
 21
215.3969521323
  0
LINE
  5
34A
100
AcDbEntity
  8
BEZUGSACHSEN
100
AcDbLine
 62
7
  6
CONTINUOUS
 10
115.2048952827
 20
217.8777749775
 11
114.3173291547
 21
217.844071934
  0
LINE
  5
34B
100
AcDbEntity
  8
BEZUGSACHSEN
100
AcDbLine
 62
7
  6
CONTINUOUS
 10
262.4636864753
 20
65.1094353639
 11
262.5889658904
 21
65.122602761
  0
LINE
  5
34C
100
AcDbEntity
  8
AUSFORMSCHRAEGEN
100
AcDbLine
 62
7
  6
CONTINUOUS
 10
262.4636864753
 20
65.1094353639
 11
269.5134179798
 21
65.8503920025
  0
LINE
  5
34D
100
AcDbEntity
  8
RUNDUNGEN
100
AcDbLine
 62
7
  6
CONTINUOUS
 10
262.5889658904
 20
65.122602761
 11
269.5134179798
 21
65.8503920025
  0
LINE
  5
34E
100
AcDbEntity
  8
BEZUGSACHSEN
100
AcDbLine
 62
7
  6
CONTINUOUS
 10
262.4636864753
 20
65.1094353639
 11
255.4139549707
 21
65.8503920025
  0
LINE
  5
34F
100
AcDbEntity
  8
BEZUGSACHSEN
100
AcDbLine
 62
8
  6
HIDDEN
 10
262.4636864753
 20
91.7094353639
 11
259.3996060454
 21
91.2241326999
  0
LINE
  5
350
100
AcDbEntity
  8
BEZUGSACHSEN
100
AcDbLine
 62
8
  6
HIDDEN
 10
262.4636864753
 20
91.7094353639
 11
265.5277669051
 21
91.2241326999
  0
LINE
  5
351
100
AcDbEntity
  8
BEZUGSACHSEN
100
AcDbLine
 62
7
  6
CONTINUOUS
 10
246.8246566494
 20
167.5016394999
 11
246.824688973
 21
167.5016836394
  0
LINE
  5
352
100
AcDbEntity
  8
BEZUGSACHSEN
100
AcDbLine
 62
7
  6
CONTINUOUS
 10
248.1519696154
 20
168.9016093494
 11
247.2612751377
 21
168.0109148718
  0
LINE
  5
353
100
AcDbEntity
  8
BEZUGSACHSEN
100
AcDbLine
 62
7
  6
CONTINUOUS
 10
247.2613229974
 20
123.5980185575
 11
248.1519607745
 21
122.7073807804
  0
LINE
  5
354
100
AcDbEntity
  8
BEZUGSACHSEN
100
AcDbLine
 62
7
  6
CONTINUOUS
 10
245.9785664753
 20
164.9141807479
 11
245.9785664753
 21
155.750926257
  0
LINE
  5
355
100
AcDbEntity
  8
RUNDUNGEN
100
AcDbLine
 62
7
  6
CONTINUOUS
 10
245.9785664753
 20
155.750926257
 11
245.9785664753
 21
154.6393613927
  0
LINE
  5
356
100
AcDbEntity
  8
BEZUGSACHSEN
100
AcDbLine
 62
7
  6
CONTINUOUS
 10
245.9785664753
 20
154.6393613927
 11
245.9785664753
 21
126.6947997807
  0
LINE
  5
357
100
AcDbEntity
  8
BEZUGSACHSEN
100
AcDbLine
 62
7
  6
CONTINUOUS
 10
252.3661538579
 20
192.5506287756
 11
249.3920582273
 21
171.3888387741
  0
LINE
  5
358
100
AcDbEntity
  8
BEZUGSACHSEN
100
AcDbLine
 62
7
  6
CONTINUOUS
 10
249.3920590671
 20
120.2201365393
 11
252.3661534316
 21
99.0583555462
  0
LWPOLYLINE
  5
359
100
AcDbEntity
  8
BEZUGSACHSEN
100
AcDbPolyline
 62
7
  6
CONTINUOUS
 90
6
 70
0
 10
252.4727050318
 20
169.0793889597
 10
252.4803181384
 20
168.8969523873
 10
252.5031045231
 20
168.7157843705
 10
252.5409057446
 20
168.5371446611
 10
252.5934589563
 20
168.3622754291
 10
252.6603987336
 20
168.1923926283
  0
LINE
  5
35A
100
AcDbEntity
  8
BEZUGSACHSEN
100
AcDbLine
 62
7
  6
CONTINUOUS
 10
252.4727050318
 20
97.5345973336
 11
252.4727050318
 21
69.1169809939
  0
LINE
  5
35B
100
AcDbEntity
  8
BEZUGSACHSEN
100
AcDbLine
 62
7
  6
CONTINUOUS
 10
252.4727050318
 20
169.0795825541
 11
252.4727050318
 21
222.4920002951
  0
LINE
  5
35C
100
AcDbEntity
  8
T_STARTBEZUEGE
100
AcDbLine
 62
7
  6
CENTER
 10
262.4636864753
 20
229.4995459251
 11
262.4636864753
 21
62.1094353639
  0
LINE
  5
35D
100
AcDbEntity
  8
BEZUGSACHSEN
100
AcDbLine
 62
7
  6
CONTINUOUS
 10
262.4636864753
 20
226.4995459251
 11
262.4636864753
 21
175.079305858
  0
LWPOLYLINE
  5
35E
100
AcDbEntity
  8
BEZUGSACHSEN
100
AcDbPolyline
 62
7
  6
CONTINUOUS
 90
7
 70
0
 10
272.2199978198
 20
168.0931728944
 10
272.2669756469
 20
168.1924098116
 10
272.3339149678
 20
168.3622908193
 10
272.3864677843
 20
168.53715809
 10
272.4242686969
 20
168.7157956909
 10
272.4470548826
 20
168.8969614832
 10
272.4546679188
 20
169.0793957357
  0
LINE
  5
35F
100
AcDbEntity
  8
T_STARTBEZUEGE
100
AcDbLine
 62
7
  6
CENTER
 10
282.3774419748
 20
145.8044906445
 11
242.9080707418
 21
145.8044906445
  0
LINE
  5
360
100
AcDbEntity
  8
BEZUGSACHSEN
100
AcDbLine
 62
7
  6
CONTINUOUS
 10
252.6603987336
 20
168.1923926283
 11
252.7073765865
 21
168.0931552499
  0
LINE
  5
361
100
AcDbEntity
  8
BEZUGSACHSEN
100
AcDbLine
 62
7
  6
CONTINUOUS
 10
272.4546679188
 20
222.4920002951
 11
272.4546679188
 21
169.0793930983
  0
LINE
  5
362
100
AcDbEntity
  8
RUNDUNGEN
100
AcDbLine
 62
7
  6
CONTINUOUS
 10
272.4546679188
 20
97.5345973336
 11
272.4546679188
 21
69.1169809939
  0
LINE
  5
363
100
AcDbEntity
  8
BEZUGSACHSEN
100
AcDbLine
 62
7
  6
CONTINUOUS
 10
278.9488064753
 20
164.9141807479
 11
278.9488064753
 21
155.750926257
  0
LINE
  5
364
100
AcDbEntity
  8
RUNDUNGEN
100
AcDbLine
 62
7
  6
CONTINUOUS
 10
278.9488064753
 20
155.750926257
 11
278.9488064753
 21
126.6947997807
  0
LINE
  5
365
100
AcDbEntity
  8
RUNDUNGEN
100
AcDbLine
 62
7
  6
CONTINUOUS
 10
275.5353138835
 20
120.2201365393
 11
272.5612195189
 21
99.0583555462
  0
LINE
  5
366
100
AcDbEntity
  8
BEZUGSACHSEN
100
AcDbLine
 62
7
  6
CONTINUOUS
 10
272.5612190927
 20
192.5506287756
 11
275.5353147233
 21
171.3888387741
  0
LINE
  5
367
100
AcDbEntity
  8
RUNDUNGEN
100
AcDbLine
 62
7
  6
CONTINUOUS
 10
277.6660499531
 20
123.5980185575
 11
276.775412176
 21
122.7073807804
  0
LINE
  5
368
100
AcDbEntity
  8
BEZUGSACHSEN
100
AcDbLine
 62
7
  6
CONTINUOUS
 10
276.7754033351
 20
168.9016093494
 11
277.6660978128
 21
168.0109148718
  0
LINE
  5
369
100
AcDbEntity
  8
BEZUGSACHSEN
100
AcDbLine
 62
7
  6
CONTINUOUS
 10
278.1027163011
 20
167.5016394999
 11
278.1026826118
 21
167.5016855044
  0
LINE
  5
36A
100
AcDbEntity
  8
BEZUGSACHSEN
100
AcDbLine
 62
8
  6
HIDDEN
 10
262.4636864753
 20
199.8995459251
 11
265.5277669051
 21
200.3848485891
  0
LINE
  5
36B
100
AcDbEntity
  8
BEZUGSACHSEN
100
AcDbLine
 62
8
  6
HIDDEN
 10
262.4636864753
 20
199.8995459251
 11
259.3996060454
 21
200.3848485891
  0
LINE
  5
36C
100
AcDbEntity
  8
BEZUGSACHSEN
100
AcDbLine
 62
7
  6
CONTINUOUS
 10
262.4636864753
 20
226.4995459251
 11
255.4139549707
 21
225.7585892865
  0
LINE
  5
36D
100
AcDbEntity
  8
BEZUGSACHSEN
100
AcDbLine
 62
7
  6
CONTINUOUS
 10
262.4636864753
 20
226.4995459251
 11
269.5134179798
 21
225.7585892865
  0
ARC
  5
36E
100
AcDbEntity
  8
BEZUGSACHSEN
100
AcDbCircle
 62
7
  6
CONTINUOUS
 10
93.7518541605
 20
129.9411312532
 40
10.9486075894
100
AcDbArc
 50
319.4303027696
 51
360.0
  0
ARC
  5
36F
100
AcDbEntity
  8
BEZUGSACHSEN
100
AcDbCircle
 62
7
  6
CONTINUOUS
 10
62.4895076965
 20
131.9378511325
 40
10.9486075894
100
AcDbArc
 50
180.0
 51
211.85
  0
ARC
  5
370
100
AcDbEntity
  8
BEZUGSACHSEN
100
AcDbCircle
 62
7
  6
CONTINUOUS
 10
89.3905079968
 20
132.1594491198
 40
2.1897215179
100
AcDbArc
 50
270.0
 51
360.0
  0
ARC
  5
371
100
AcDbEntity
  8
BEZUGSACHSEN
100
AcDbCircle
 62
7
  6
CONTINUOUS
 10
73.2601627108
 20
132.1594491198
 40
2.1897215179
100
AcDbArc
 50
180.0
 51
270.0
  0
ARC
  5
372
100
AcDbEntity
  8
RUNDUNGEN
100
AcDbCircle
 62
7
  6
CONTINUOUS
 10
72.8831445431
 20
130.6513764491
 40
2.1897215179
100
AcDbArc
 50
180.0
 51
269.9991445125
  0
ARC
  5
373
100
AcDbEntity
  8
BEZUGSACHSEN
100
AcDbCircle
 62
7
  6
CONTINUOUS
 10
72.8831445431
 20
130.6513764491
 40
2.1897215179
100
AcDbArc
 50
233.4233456835
 51
269.9991445125
  0
ARC
  5
374
100
AcDbEntity
  8
RUNDUNGEN
100
AcDbCircle
 62
7
  6
CONTINUOUS
 10
89.6167188974
 20
130.6513764491
 40
2.1897215179
100
AcDbArc
 50
270.0008933251
 51
360.0
  0
ARC
  5
375
100
AcDbEntity
  8
BEZUGSACHSEN
100
AcDbCircle
 62
7
  6
CONTINUOUS
 10
89.6167188974
 20
130.6513764491
 40
2.1897215179
100
AcDbArc
 50
270.0008933251
 51
306.5766543165
  0
ARC
  5
376
100
AcDbEntity
  8
BEZUGSACHSEN
100
AcDbCircle
 62
7
  6
CONTINUOUS
 10
64.3815012366
 20
163.9013626931
 40
9.3069541127
100
AcDbArc
 50
315.9475377101
 51
76.2882731225
  0
ARC
  5
377
100
AcDbEntity
  8
BEZUGSACHSEN
100
AcDbCircle
 62
7
  6
CONTINUOUS
 10
100.513181605
 20
163.9013626931
 40
9.3069541127
100
AcDbArc
 50
167.5279813677
 51
196.2980635084
  0
ARC
  5
378
100
AcDbEntity
  8
BEZUGSACHSEN
100
AcDbCircle
 62
7
  6
CONTINUOUS
 10
56.9838986018
 20
153.8395177001
 40
5.4429985106
100
AcDbArc
 50
144.9956305717
 51
180.0043694283
  0
CIRCLE
  5
379
100
AcDbEntity
  8
BEZUGSACHSEN
100
AcDbCircle
 62
7
  6
CONTINUOUS
 10
63.7155707778
 20
145.8044906445
 40
2.7381713883
  0
ARC
  5
37A
100
AcDbEntity
  8
RUNDUNGEN
100
AcDbCircle
 62
7
  6
CONTINUOUS
 10
68.5037015073
 20
163.219713846
 40
2.1897215179
100
AcDbArc
 50
0.0
 51
90.0
  0
ARC
  5
37B
100
AcDbEntity
  8
RUNDUNGEN
100
AcDbCircle
 62
7
  6
CONTINUOUS
 10
93.9961619332
 20
163.219713846
 40
2.1897215179
100
AcDbArc
 50
90.0
 51
180.0
  0
ARC
  5
37C
100
AcDbEntity
  8
RUNDUNGEN
100
AcDbCircle
 62
7
  6
CONTINUOUS
 10
116.388024948
 20
116.5926344307
 40
51.4831990669
100
AcDbArc
 50
270.0
 51
359.9299327561
  0
ARC
  5
37D
100
AcDbEntity
  8
BEZUGSACHSEN
100
AcDbCircle
 62
7
  6
CONTINUOUS
 10
116.388024948
 20
110.5603437479
 40
45.450908384
100
AcDbArc
 50
211.85
 51
270.0
  0
ARC
  5
37E
100
AcDbEntity
  8
BEZUGSACHSEN
100
AcDbCircle
 62
7
  6
CONTINUOUS
 10
116.388024948
 20
116.5926344307
 40
24.8831990669
100
AcDbArc
 50
270.0
 51
360.0
  0
ARC
  5
37F
100
AcDbEntity
  8
BEZUGSACHSEN
100
AcDbCircle
 62
7
  6
CONTINUOUS
 10
116.388024948
 20
110.5603437479
 40
18.850908384
100
AcDbArc
 50
139.4303027696
 51
270.0
  0
ARC
  5
380
100
AcDbEntity
  8
BEZUGSACHSEN
100
AcDbCircle
 62
7
  6
CONTINUOUS
 10
168.3945486594
 20
127.7076185959
 40
9.3069541127
100
AcDbArc
 50
135.9475377101
 51
256.2882731225
  0
ARC
  5
381
100
AcDbEntity
  8
BEZUGSACHSEN
100
AcDbCircle
 62
7
  6
CONTINUOUS
 10
132.2628682911
 20
127.7076185959
 40
9.3069541127
100
AcDbArc
 50
347.5279813677
 51
16.2980635084
  0
ARC
  5
382
100
AcDbEntity
  8
RUNDUNGEN
100
AcDbCircle
 62
7
  6
CONTINUOUS
 10
132.2628682911
 20
127.7076185959
 40
9.3069541127
100
AcDbArc
 50
347.5279813677
 51
16.2980635084
  0
ARC
  5
383
100
AcDbEntity
  8
BEZUGSACHSEN
100
AcDbCircle
 62
7
  6
CONTINUOUS
 10
175.7921512943
 20
137.7694635889
 40
5.4429985106
100
AcDbArc
 50
324.9956305717
 51
0.0043694283
  0
ARC
  5
384
100
AcDbEntity
  8
BEZUGSACHSEN
100
AcDbCircle
 62
7
  6
CONTINUOUS
 10
164.2723483887
 20
128.389267443
 40
2.1897215179
100
AcDbArc
 50
180.0
 51
270.0
  0
ARC
  5
385
100
AcDbEntity
  8
BEZUGSACHSEN
100
AcDbCircle
 62
7
  6
CONTINUOUS
 10
138.7798879629
 20
128.389267443
 40
2.1897215179
100
AcDbArc
 50
270.0
 51
360.0
  0
ARC
  5
386
100
AcDbEntity
  8
BEZUGSACHSEN
100
AcDbCircle
 62
7
  6
CONTINUOUS
 10
116.388024948
 20
175.0163468583
 40
51.4831990669
100
AcDbArc
 50
90.0
 51
179.9299327561
  0
ARC
  5
387
100
AcDbEntity
  8
BEZUGSACHSEN
100
AcDbCircle
 62
7
  6
CONTINUOUS
 10
116.388024948
 20
181.0486375411
 40
45.450908384
100
AcDbArc
 50
31.85
 51
90.0
  0
ARC
  5
388
100
AcDbEntity
  8
BEZUGSACHSEN
100
AcDbCircle
 62
7
  6
CONTINUOUS
 10
116.388024948
 20
175.0163468583
 40
24.8831990669
100
AcDbArc
 50
90.0
 51
180.0
  0
ARC
  5
389
100
AcDbEntity
  8
BEZUGSACHSEN
100
AcDbCircle
 62
7
  6
CONTINUOUS
 10
116.388024948
 20
181.0486375411
 40
18.850908384
100
AcDbArc
 50
319.4303027696
 51
90.0
  0
ARC
  5
38A
100
AcDbEntity
  8
BEZUGSACHSEN
100
AcDbCircle
 62
7
  6
CONTINUOUS
 10
170.2865421996
 20
159.6711301565
 40
10.9486075894
100
AcDbArc
 50
0.0
 51
31.85
  0
ARC
  5
38B
100
AcDbEntity
  8
BEZUGSACHSEN
100
AcDbCircle
 62
7
  6
CONTINUOUS
 10
139.0241957355
 20
161.6678500357
 40
10.9486075894
100
AcDbArc
 50
139.4303027696
 51
180.0
  0
CIRCLE
  5
38C
100
AcDbEntity
  8
BEZUGSACHSEN
100
AcDbCircle
 62
7
  6
CONTINUOUS
 10
169.0604791183
 20
145.8044906445
 40
2.7381713883
  0
ARC
  5
38D
100
AcDbEntity
  8
RUNDUNGEN
100
AcDbCircle
 62
7
  6
CONTINUOUS
 10
143.3855418993
 20
159.4495321692
 40
2.1897215179
100
AcDbArc
 50
90.0
 51
180.0
  0
ARC
  5
38E
100
AcDbEntity
  8
RUNDUNGEN
100
AcDbCircle
 62
7
  6
CONTINUOUS
 10
159.5158871853
 20
159.4495321692
 40
2.1897215179
100
AcDbArc
 50
0.0
 51
90.0
  0
ARC
  5
38F
100
AcDbEntity
  8
BEZUGSACHSEN
100
AcDbCircle
 62
7
  6
CONTINUOUS
 10
143.1593309986
 20
160.9576048399
 40
2.1897215179
100
AcDbArc
 50
90.0008933251
 51
180.0
  0
ARC
  5
390
100
AcDbEntity
  8
BEZUGSACHSEN
100
AcDbCircle
 62
7
  6
CONTINUOUS
 10
159.892905353
 20
160.9576048399
 40
2.1897215179
100
AcDbArc
 50
0.0
 51
89.9991445125
  0
ARC
  5
391
100
AcDbEntity
  8
BEZUGSACHSEN
100
AcDbCircle
 62
7
  6
CONTINUOUS
 10
241.5240974423
 20
97.5346002929
 40
10.9486075894
100
AcDbArc
 50
359.9999845135
 51
8.0000189394
  0
ARC
  5
392
100
AcDbEntity
  8
BEZUGSACHSEN
100
AcDbCircle
 62
8
  6
HIDDEN
 10
260.6841607238
 20
83.1137736535
 40
8.2114556921
100
AcDbArc
 50
99.0
 51
180.0
  0
ARC
  5
393
100
AcDbEntity
  8
BEZUGSACHSEN
100
AcDbCircle
 62
7
  6
CONTINUOUS
 10
245.0552362284
 20
119.6106375897
 40
4.3794430358
100
AcDbArc
 50
7.9999773001
 51
45.0001724812
  0
ARC
  5
394
100
AcDbEntity
  8
BEZUGSACHSEN
100
AcDbCircle
 62
7
  6
CONTINUOUS
 10
250.358009511
 20
126.6947997807
 40
4.3794430358
100
AcDbArc
 50
180.0
 51
224.9999906585
  0
ARC
  5
395
100
AcDbEntity
  8
BEZUGSACHSEN
100
AcDbCircle
 62
7
  6
CONTINUOUS
 10
255.7572873086
 20
69.1169809939
 40
3.2845822768
100
AcDbArc
 50
180.0
 51
264.0
  0
ARC
  5
396
100
AcDbEntity
  8
BEZUGSACHSEN
100
AcDbCircle
 62
7
  6
CONTINUOUS
 10
244.3978462911
 20
163.9013626931
 40
9.3069541127
100
AcDbArc
 50
356.5012655482
 51
26.8195688436
  0
ARC
  5
397
100
AcDbEntity
  8
BEZUGSACHSEN
100
AcDbCircle
 62
7
  6
CONTINUOUS
 10
250.358009511
 20
164.9141815082
 40
4.3794430358
100
AcDbArc
 50
134.9991238413
 51
180.0000099481
  0
ARC
  5
398
100
AcDbEntity
  8
BEZUGSACHSEN
100
AcDbCircle
 62
7
  6
CONTINUOUS
 10
245.0552362284
 20
171.9983436992
 40
4.3794430358
100
AcDbArc
 50
314.9999910932
 51
351.9999437536
  0
ARC
  5
399
100
AcDbEntity
  8
BEZUGSACHSEN
100
AcDbCircle
 62
7
  6
CONTINUOUS
 10
249.0330021879
 20
165.8844782551
 40
2.7371518974
100
AcDbArc
 50
143.7848541601
 51
143.900076556
  0
ARC
  5
39A
100
AcDbEntity
  8
RUNDUNGEN
100
AcDbCircle
 62
7
  6
CONTINUOUS
 10
248.1682879932
 20
155.750926257
 40
2.1897215179
100
AcDbArc
 50
145.1706208901
 51
180.0
  0
ARC
  5
39B
100
AcDbEntity
  8
BEZUGSACHSEN
100
AcDbCircle
 62
7
  6
CONTINUOUS
 10
241.5240974423
 20
194.0743809961
 40
10.9486075894
100
AcDbArc
 50
351.9999970878
 51
0.0000490893
  0
ARC
  5
39C
100
AcDbEntity
  8
BEZUGSACHSEN
100
AcDbCircle
 62
8
  6
HIDDEN
 10
260.6841607238
 20
208.4952076355
 40
8.2114556921
100
AcDbArc
 50
180.0
 51
261.0
  0
ARC
  5
39D
100
AcDbEntity
  8
BEZUGSACHSEN
100
AcDbCircle
 62
7
  6
CONTINUOUS
 10
255.7572873086
 20
222.4920002951
 40
3.2845822768
100
AcDbArc
 50
96.0
 51
180.0
  0
ARC
  5
39E
100
AcDbEntity
  8
RUNDUNGEN
100
AcDbCircle
 62
7
  6
CONTINUOUS
 10
283.4032755082
 20
97.5346002929
 40
10.9486075894
100
AcDbArc
 50
171.9999810606
 51
180.0000154865
  0
ARC
  5
39F
100
AcDbEntity
  8
RUNDUNGEN
100
AcDbCircle
 62
8
  6
HIDDEN
 10
264.2432122267
 20
83.1137736535
 40
8.2114556921
100
AcDbArc
 50
0.0
 51
81.0
  0
ARC
  5
3A0
100
AcDbEntity
  8
RUNDUNGEN
100
AcDbCircle
 62
7
  6
CONTINUOUS
 10
279.8721367222
 20
119.6106375897
 40
4.3794430358
100
AcDbArc
 50
134.9998275188
 51
172.0000226999
  0
ARC
  5
3A1
100
AcDbEntity
  8
RUNDUNGEN
100
AcDbCircle
 62
7
  6
CONTINUOUS
 10
274.5693634395
 20
126.6947997807
 40
4.3794430358
100
AcDbArc
 50
315.0000093415
 51
360.0
  0
ARC
  5
3A2
100
AcDbEntity
  8
RUNDUNGEN
100
AcDbCircle
 62
7
  6
CONTINUOUS
 10
269.170085642
 20
69.1169809939
 40
3.2845822768
100
AcDbArc
 50
276.0
 51
360.0
  0
ARC
  5
3A3
100
AcDbEntity
  8
RUNDUNGEN
100
AcDbCircle
 62
7
  6
CONTINUOUS
 10
262.4636864753
 20
145.8044906445
 40
19.6049447194
100
AcDbArc
 50
34.8293791099
 51
145.1706208901
  0
CIRCLE
  5
3A4
100
AcDbEntity
  8
0
100
AcDbCircle
 62
7
  6
CONTINUOUS
 10
262.4636864753
 20
145.8044906445
 40
6.5691645537
  0
ARC
  5
3A5
100
AcDbEntity
  8
BEZUGSACHSEN
100
AcDbCircle
 62
8
  6
HIDDEN
 10
264.2432122267
 20
208.4952076355
 40
8.2114556921
100
AcDbArc
 50
279.0
 51
360.0
  0
ARC
  5
3A6
100
AcDbEntity
  8
BEZUGSACHSEN
100
AcDbCircle
 62
7
  6
CONTINUOUS
 10
269.170085642
 20
222.4920002951
 40
3.2845822768
100
AcDbArc
 50
0.0
 51
84.0
  0
ARC
  5
3A7
100
AcDbEntity
  8
BEZUGSACHSEN
100
AcDbCircle
 62
7
  6
CONTINUOUS
 10
280.5295266595
 20
163.9013626931
 40
9.3069541127
100
AcDbArc
 50
153.226178041
 51
183.5056530348
  0
ARC
  5
3A8
100
AcDbEntity
  8
BEZUGSACHSEN
100
AcDbCircle
 62
7
  6
CONTINUOUS
 10
274.5693634395
 20
164.9141815082
 40
4.3794430358
100
AcDbArc
 50
359.9999900519
 51
45.0008761587
  0
ARC
  5
3A9
100
AcDbEntity
  8
BEZUGSACHSEN
100
AcDbCircle
 62
7
  6
CONTINUOUS
 10
279.8721367222
 20
171.9983436992
 40
4.3794430358
100
AcDbArc
 50
188.0000562464
 51
225.0000089068
  0
ARC
  5
3AA
100
AcDbEntity
  8
BEZUGSACHSEN
100
AcDbCircle
 62
7
  6
CONTINUOUS
 10
275.8943707626
 20
165.8844782551
 40
2.7371518974
100
AcDbArc
 50
36.0999234439
 51
36.2151458399
  0
ARC
  5
3AB
100
AcDbEntity
  8
RUNDUNGEN
100
AcDbCircle
 62
7
  6
CONTINUOUS
 10
276.7590830648
 20
155.7509293548
 40
2.189721545
100
AcDbArc
 50
359.9999189446
 51
34.8292842921
  0
ARC
  5
3AC
100
AcDbEntity
  8
BEZUGSACHSEN
100
AcDbCircle
 62
7
  6
CONTINUOUS
 10
283.4032755082
 20
194.0743809961
 40
10.9486075894
100
AcDbArc
 50
179.9999509107
 51
188.0000029122
  0
SPLINE
  5
3AD
100
AcDbEntity
  8
BEZUGSACHSEN
100
AcDbSpline
 62
7
  6
CONTINUOUS
 70
0
 71
3
 72
8
 73
4
 74
0
 42
0.0000001
 43
0.0000001
 44
0.0000000001
 40
0.0
 40
0.0
 40
0.0
 40
0.0
 40
1.0
 40
1.0
 40
1.0
 40
1.0
 10
91.4258587567
 20
165.9113181059
 30
0.0
 10
91.4796951513
 20
166.1539261601
 30
0.0
 10
91.5048259633
 20
166.4041433893
 30
0.0
 10
91.5048258811
 20
166.6526529975
 30
0.0
  0
SPLINE
  5
3AE
100
AcDbEntity
  8
BEZUGSACHSEN
100
AcDbSpline
 62
7
  6
CONTINUOUS
 70
0
 71
3
 72
11
 73
7
 74
0
 42
0.0000001
 43
0.0000001
 44
0.0000000001
 40
0.0
 40
0.0
 40
0.0
 40
0.0
 40
0.250010631
 40
0.5000175033
 40
0.7500145996
 40
1.0
 40
1.0
 40
1.0
 40
1.0
 10
66.5875936312
 20
172.943074434
 30
0.0
 10
66.3513542694
 20
173.000713271
 30
0.0
 10
65.8945147294
 20
173.1960880187
 30
0.0
 10
65.3444984233
 20
173.6949778823
 30
0.0
 10
64.9868756359
 20
174.3458859804
 30
0.0
 10
64.9045670352
 20
174.8361613557
 30
0.0
 10
64.9048643775
 20
175.079305858
 30
0.0
  0
SPLINE
  5
3AF
100
AcDbEntity
  8
BEZUGSACHSEN
100
AcDbSpline
 62
7
  6
CONTINUOUS
 70
0
 71
3
 72
11
 73
7
 74
0
 42
0.0000001
 43
0.0000001
 44
0.0000000001
 40
0.0
 40
0.0
 40
0.0
 40
0.0
 40
0.2500139961
 40
0.5000034845
 40
0.7499908137
 40
1.0
 40
1.0
 40
1.0
 40
1.0
 10
173.1808606139
 20
126.1995462073
 30
0.0
 10
173.3575218168
 20
126.1995459072
 30
0.0
 10
173.7122693531
 20
126.242061389
 30
0.0
 10
174.2130347451
 20
126.4299459671
 30
0.0
 10
174.6551052659
 20
126.7310552233
 30
0.0
 10
174.8938439887
 20
126.9969698344
 30
0.0
 10
174.9951708918
 20
127.1416793314
 30
0.0
  0
SPLINE
  5
3B0
100
AcDbEntity
  8
BEZUGSACHSEN
100
AcDbSpline
 62
7
  6
CONTINUOUS
 70
0
 71
3
 72
15
 73
11
 74
0
 42
0.0000001
 43
0.0000001
 44
0.0000000001
 40
0.0
 40
0.0
 40
0.0
 40
0.0
 40
0.1250047631
 40
0.2500010338
 40
0.3750036572
 40
0.5000036904
 40
0.6250030325
 40
0.7500039506
 40
0.8749974339
 40
1.0
 40
1.0
 40
1.0
 40
1.0
 10
130.2926048181
 20
126.1995489222
 30
0.0
 10
130.1485234359
 20
126.1995487696
 30
0.0
 10
129.8595938406
 20
126.2275334218
 30
0.0
 10
129.4429742251
 20
126.3520131362
 30
0.0
 10
129.0580001547
 20
126.5545266937
 30
0.0
 10
128.7195809601
 20
126.8278129151
 30
0.0
 10
128.4408448517
 20
127.1617987777
 30
0.0
 10
128.2329930057
 20
127.5440239036
 30
0.0
 10
128.1045647369
 20
127.9595848963
 30
0.0
 10
128.0755881723
 20
128.248557784
 30
0.0
 10
128.0755881461
 20
128.392636634
 30
0.0
  0
SPLINE
  5
3B1
100
AcDbEntity
  8
RUNDUNGEN
100
AcDbSpline
 62
7
  6
CONTINUOUS
 70
0
 71
3
 72
15
 73
11
 74
0
 42
0.0000001
 43
0.0000001
 44
0.0000000001
 40
0.0
 40
0.0
 40
0.0
 40
0.0
 40
0.1250047631
 40
0.2500010338
 40
0.3750036572
 40
0.5000036904
 40
0.6250030325
 40
0.7500039506
 40
0.8749974339
 40
1.0
 40
1.0
 40
1.0
 40
1.0
 10
102.4834450779
 20
165.4094323668
 30
0.0
 10
102.6275264601
 20
165.4094325194
 30
0.0
 10
102.9164560554
 20
165.3814478672
 30
0.0
 10
103.3330756709
 20
165.2569681528
 30
0.0
 10
103.7180497414
 20
165.0544545953
 30
0.0
 10
104.0564689359
 20
164.7811683739
 30
0.0
 10
104.3352050444
 20
164.4471825113
 30
0.0
 10
104.5430568903
 20
164.0649573853
 30
0.0
 10
104.6714851591
 20
163.6493963927
 30
0.0
 10
104.7004617237
 20
163.360423505
 30
0.0
 10
104.7004617499
 20
163.216344655
 30
0.0
  0
SPLINE
  5
3B2
100
AcDbEntity
  8
RUNDUNGEN
100
AcDbSpline
 62
7
  6
CONTINUOUS
 70
0
 71
3
 72
11
 73
7
 74
0
 42
0.0000001
 43
0.0000001
 44
0.0000000001
 40
0.0
 40
0.0
 40
0.0
 40
0.0
 40
0.2500139961
 40
0.5000034845
 40
0.7499908137
 40
1.0
 40
1.0
 40
1.0
 40
1.0
 10
59.5951892822
 20
165.4094350817
 30
0.0
 10
59.4185280793
 20
165.4094353818
 30
0.0
 10
59.0637805429
 20
165.3669198999
 30
0.0
 10
58.563015151
 20
165.1790353219
 30
0.0
 10
58.1209446302
 20
164.8779260657
 30
0.0
 10
57.8822059073
 20
164.6120114546
 30
0.0
 10
57.7808790043
 20
164.4673019575
 30
0.0
  0
SPLINE
  5
3B3
100
AcDbEntity
  8
RUNDUNGEN
100
AcDbSpline
 62
7
  6
CONTINUOUS
 70
0
 71
3
 72
11
 73
7
 74
0
 42
0.0000001
 43
0.0000001
 44
0.0000000001
 40
0.0
 40
0.0
 40
0.0
 40
0.0
 40
0.250010631
 40
0.5000175033
 40
0.7500145996
 40
1.0
 40
1.0
 40
1.0
 40
1.0
 10
166.1884562648
 20
118.665906855
 30
0.0
 10
166.4246956267
 20
118.608268018
 30
0.0
 10
166.8815351666
 20
118.4128932702
 30
0.0
 10
167.4315514727
 20
117.9140034067
 30
0.0
 10
167.7891742601
 20
117.2630953085
 30
0.0
 10
167.8714828608
 20
116.7728199333
 30
0.0
 10
167.8711855185
 20
116.529675431
 30
0.0
  0
SPLINE
  5
3B4
100
AcDbEntity
  8
RUNDUNGEN
100
AcDbSpline
 62
7
  6
CONTINUOUS
 70
0
 71
3
 72
8
 73
4
 74
0
 42
0.0000001
 43
0.0000001
 44
0.0000000001
 40
0.0
 40
0.0
 40
0.0
 40
0.0
 40
1.0
 40
1.0
 40
1.0
 40
1.0
 10
141.3501911393
 20
125.6976631831
 30
0.0
 10
141.2963547448
 20
125.4550551289
 30
0.0
 10
141.2712239327
 20
125.2048378997
 30
0.0
 10
141.2712240149
 20
124.9563282915
 30
0.0
  0
LINE
  5
3B5
100
AcDbEntity
  8
BEZUGSACHSEN
100
AcDbLine
 62
7
  6
CONTINUOUS
 10
262.4636864751
 20
172.943074434
 11
262.4636864753
 21
175.079305858
  0
ELLIPSE
  5
3B6
100
AcDbEntity
  8
0
100
AcDbEllipse
 62
7
  6
CONTINUOUS
 10
51.5409001071
 20
145.8044906445
 30
0.0
 11
0.0
 21
6.5691645537
 31
0.0
 40
0.1051042353
 41
3.1415926536
 42
6.2831853072
  0
ELLIPSE
  5
3B7
100
AcDbEntity
  8
BEZUGSACHSEN
100
AcDbEllipse
 62
7
  6
CONTINUOUS
 10
181.235149789
 20
145.8044906445
 30
0.0
 11
-0.0
 21
6.5691645537
 31
0.0
 40
0.1051042353
 41
0.0
 42
3.1415926536
  0
ELLIPSE
  5
3B8
100
AcDbEntity
  8
BEZUGSACHSEN
100
AcDbEllipse
 62
7
  6
CONTINUOUS
 10
128.0755881461
 20
145.8044906445
 30
0.0
 11
0.0
 21
6.35
 31
0.0
 40
0.1583844403
 41
-3.1415926536
 42
-0.0
  0
ELLIPSE
  5
3B9
100
AcDbEntity
  8
0
100
AcDbEllipse
 62
7
  6
CONTINUOUS
 10
104.7004617499
 20
145.8044906445
 30
0.0
 11
0.0
 21
6.35
 31
0.0
 40
0.1583844403
 41
-0.0
 42
3.1415926536
  0
ENDSEC
  0
SECTION
  2
OBJECTS
  0
DICTIONARY
  5
C
100
AcDbDictionary
280
0
281
1
  3
ACAD_GROUP
350
D
  3
ACAD_MLINESTYLE
350
17
  3
ACAD_LAYOUT
350
1A
  3
ACAD_PLOTSETTINGS
350
19
  3
ACAD_PLOTSTYLENAME
350
E
  0
DICTIONARY
  5
D
102
{ACAD_REACTORS
330
C
102
}
100
AcDbDictionary
280
0
281
1
  0
ACDBDICTIONARYWDFLT
  5
E
102
{ACAD_REACTORS
330
C
102
}
100
AcDbDictionary
281
1
  3
Normal
350
F
100
AcDbDictionaryWithDefault
340
F
  0
DICTIONARY
  5
17
102
{ACAD_REACTORS
330
C
102
}
100
AcDbDictionary
280
0
281
1
  3
Standard
350
18
  0
DICTIONARY
  5
19
102
{ACAD_REACTORS
330
C
102
}
100
AcDbDictionary
281
1
  0
DICTIONARY
  5
1A
102
{ACAD_REACTORS
330
C
102
}
100
AcDbDictionary
281
1
  3
Model
350
3BA
  3
Layout1
350
3BB
  0
ACDBPLACEHOLDER
  5
F
102
{ACAD_REACTORS
330
E
102
}
  0
MLINESTYLE
  5
18
102
{ACAD_REACTORS
330
17
102
}
100
AcDbMlineStyle
  2
STANDARD
 70
0
  3

 62
256
 51
90.0
 52
90.0
 71
2
 49
0.5
 62
256
  6
BYLAYER
 49
-0.5
 62
256
  6
BYLAYER
  0
LAYOUT
  5
3BA
102
{ACAD_REACTORS
330
1A
102
}
100
AcDbPlotSettings
  1

  2
none_device
  4
ISO_A3_(420.00_x_297.00_MM)
  6

 40
0.0
 41
0.0
 42
0.0
 43
0.0
 44
420.0
 45
297.0
 46
0.0
 47
0.0
 48
0.0
 49
0.0
140
0.0
141
0.0
142
1.0
143
1.0
 70
1024
 72
1
 73
0
 74
0
  7

 75
0
147
1.0
148
0.0
149
0.0
100
AcDbLayout
  1
Model
 70
0
 71
0
 10
0.0
 20
0.0
 11
420.0
 21
297.0
 12
0.0
 22
0.0
 32
0.0
 14
0.0
 24
0.0
 34
0.0
 15
0.0
 25
0.0
 35
0.0
146
0.0
 13
0.0
 23
0.0
 33
0.0
 16
1.0
 26
0.0
 36
0.0
 17
0.0
 27
1.0
 37
0.0
 76
0
330
207
345
0
346
0
  0
LAYOUT
  5
3BB
102
{ACAD_REACTORS
330
1A
102
}
100
AcDbPlotSettings
  1

  2
none_device
  4
ISO_A3_(420.00_x_297.00_MM)
  6

 40
0.0
 41
0.0
 42
0.0
 43
0.0
 44
420.0
 45
297.0
 46
0.0
 47
0.0
 48
0.0
 49
0.0
140
0.0
141
0.0
142
1.0
143
1.0
 70
0
 72
1
 73
0
 74
0
  7

 75
0
147
1.0
148
0.0
149
0.0
100
AcDbLayout
  1
Layout1
 70
0
 71
1
 10
0.0
 20
0.0
 11
420.0
 21
297.0
 12
0.0
 22
0.0
 32
0.0
 14
0.0
 24
0.0
 34
0.0
 15
0.0
 25
0.0
 35
0.0
146
0.0
 13
0.0
 23
0.0
 33
0.0
 16
1.0
 26
0.0
 36
0.0
 17
0.0
 27
1.0
 37
0.0
 76
0
330
208
345
0
346
0
  0
ENDSEC
  0
EOF
