999
DXF file: ivs-13-dxf.dxf
999
Pro/ENGINEER 2010140 by Parametric Technology Corporation
  0
SECTION
  2
HEADER
  9
$ACADVER
  1
AC1021
  9
$DWGCODEPAGE
  3
ANSI_1252
  9
$EXTMAX
 10
420.0
 20
297.0
 30
0.0
  9
$EXTMIN
 10
0.0
 20
0.0
 30
0.0
  9
$LIMMIN
 10
0.0
 20
0.0
  9
$LIMMAX
 10
420.0
 20
297.0
  9
$VIEWCTR
 10
210.0
 20
148.5
  9
$VIEWSIZE
 40
297.0
  9
$CLAYER
  8
0
  9
$LTSCALE
 40
23.1
  9
$CELTYPE
  6
BYLAYER
  9
$DIMSCALE
 40
1.0
  9
$DIMASZ
 40
3.5
  9
$DIMEXO
 40
2.625
  9
$DIMDLI
 40
15.96
  9
$DIMEXE
 40
7.56
  9
$DIMCEN
 40
3.78
  9
$DIMLFAC
 40
1.0
  9
$DIMBLK
  1
_FILLED
  9
$DIMTXT
 40
3.5
  9
$DIMTOL
 70
1
  9
$DIMLIM
 70
0
  9
$DIMTFAC
 40
1.0
  9
$DIMTP
 40
0.005
  9
$DIMTM
 40
0.005
  9
$PDMODE
 70
3
  9
$PDSIZE
 40
0.3125
  9
$HANDSEED
  5
3B6
  9
$TILEMODE
 70
1
  9
$MEASUREMENT
 70
1
  9
$INSUNITS
 70
4
  0
ENDSEC
  0
SECTION
  2
CLASSES
  0
CLASS
  1
ACDBDICTIONARYWDFLT
  2
AcDbDictionaryWithDefault
  3
AutoCAD 2000
 90
0
 91
1
280
0
281
0
  0
CLASS
  1
ACDBPLACEHOLDER
  2
AcDbPlaceHolder
  3
AutoCAD 2000
 90
0
 91
1
280
0
281
0
  0
CLASS
  1
LAYOUT
  2
AcDbLayout
  3
AutoCAD 2000
 90
0
 91
0
280
0
281
0
  0
ENDSEC
  0
SECTION
  2
TABLES
  0
TABLE
  2
VPORT
  5
8
100
AcDbSymbolTable
 70
2
  0
VPORT
  5
1F4
100
AcDbSymbolTableRecord
100
AcDbViewportTableRecord
  2
*ACTIVE
 70
0
 10
0.0
 20
0.0
 11
1.0
 21
1.0
 12
210.0
 22
148.5
 13
0.0
 23
0.0
 14
1.0
 24
1.0
 15
0.0
 25
0.0
 16
0.0
 26
0.0
 36
1.0
 17
0.0
 27
0.0
 37
0.0
 40
297.0
 41
1.4141414141
 42
50.0
 43
0.0
 44
0.0
 50
0.0
 51
0.0
 71
0
 72
100
 73
1
 74
1
 75
0
 76
0
 77
0
 78
0
  0
ENDTAB
  0
TABLE
  2
LTYPE
  5
5
100
AcDbSymbolTable
 70
6
  0
LTYPE
  5
14
100
AcDbSymbolTableRecord
100
AcDbLinetypeTableRecord
  2
BYBLOCK
 70
0
  3

 72
65
 73
0
 40
0.0
  0
LTYPE
  5
15
100
AcDbSymbolTableRecord
100
AcDbLinetypeTableRecord
  2
BYLAYER
 70
0
  3

 72
65
 73
0
 40
0.0
  0
LTYPE
  5
16
100
AcDbSymbolTableRecord
100
AcDbLinetypeTableRecord
  2
CONTINUOUS
 70
64
  3
Solid line
 72
65
 73
0
 40
0.0
  0
LTYPE
  5
1F5
100
AcDbSymbolTableRecord
100
AcDbLinetypeTableRecord
  2
CENTER
 70
64
  3
____ _ ____ _ ____ _ ____ _ ____ _ ____ _ ____
 72
65
 73
4
 40
0.6
 49
0.375
 74
0
 49
-0.075
 74
0
 49
0.075
 74
0
 49
-0.075
 74
0
  0
LTYPE
  5
1F6
100
AcDbSymbolTableRecord
100
AcDbLinetypeTableRecord
  2
HIDDEN
 70
64
  3
- - - - - - - - - - - - - - - - - - - -
 72
65
 73
2
 40
0.2
 49
0.1
 74
0
 49
-0.1
 74
0
  0
LTYPE
  5
1F7
100
AcDbSymbolTableRecord
100
AcDbLinetypeTableRecord
  2
PHANTOM
 70
64
  3
_____ _ _ _____ _ _ _____ _ _ _____
 72
65
 73
6
 40
0.8
 49
0.45
 74
0
 49
-0.05
 74
0
 49
0.1
 74
0
 49
-0.05
 74
0
 49
0.1
 74
0
 49
-0.05
 74
0
  0
LTYPE
  5
1F8
100
AcDbSymbolTableRecord
100
AcDbLinetypeTableRecord
  2
DOT
 70
64
  3
. . . . . . . . . . . . . . . . . . . .
 72
65
 73
2
 40
0.2
 49
0.1
 74
0
 49
-0.1
 74
0
  0
LTYPE
  5
1F9
100
AcDbSymbolTableRecord
100
AcDbLinetypeTableRecord
  2
DASHED
 70
64
  3
- - - - - - - - - - - - - - - - - - - -
 72
65
 73
2
 40
0.2
 49
0.1
 74
0
 49
-0.1
 74
0
  0
ENDTAB
  0
TABLE
  2
LAYER
  5
2
100
AcDbSymbolTable
 70
36
  0
LAYER
  5
10
100
AcDbSymbolTableRecord
100
AcDbLayerTableRecord
  2
0
 70
0
 62
7
  6
CONTINUOUS
370
-3
390
F
  0
LAYER
  5
1FA
100
AcDbSymbolTableRecord
100
AcDbLayerTableRecord
  2
DEFAULT_1
 70
0
 62
7
  6
CENTER
370
-3
390
F
  0
LAYER
  5
1FB
100
AcDbSymbolTableRecord
100
AcDbLayerTableRecord
  2
DEFAULT_2
 70
0
 62
8
  6
HIDDEN
370
-3
390
F
  0
LAYER
  5
1FC
100
AcDbSymbolTableRecord
100
AcDbLayerTableRecord
  2
DEFAULT_3
 70
0
 62
7
  6
PHANTOM
370
-3
390
F
  0
LAYER
  5
1FD
100
AcDbSymbolTableRecord
100
AcDbLayerTableRecord
  2
AUSFORMSCHRAEGEN
 70
0
 62
7
  6
CONTINUOUS
370
-3
390
F
  0
LAYER
  5
1FE
100
AcDbSymbolTableRecord
100
AcDbLayerTableRecord
  2
BEZUGSACHSEN
 70
0
 62
7
  6
CONTINUOUS
370
-3
390
F
  0
LAYER
  5
1FF
100
AcDbSymbolTableRecord
100
AcDbLayerTableRecord
  2
BEZUGSEBENEN
 70
0
 62
7
  6
CONTINUOUS
370
-3
390
F
  0
LAYER
  5
200
100
AcDbSymbolTableRecord
100
AcDbLayerTableRecord
  2
HILFEN
 70
0
 62
7
  6
CONTINUOUS
370
-3
390
F
  0
LAYER
  5
201
100
AcDbSymbolTableRecord
100
AcDbLayerTableRecord
  2
PLATZIERUNG
 70
0
 62
7
  6
CONTINUOUS
370
-3
390
F
  0
LAYER
  5
202
100
AcDbSymbolTableRecord
100
AcDbLayerTableRecord
  2
RUNDUNGEN
 70
0
 62
7
  6
CONTINUOUS
370
-3
390
F
  0
LAYER
  5
203
100
AcDbSymbolTableRecord
100
AcDbLayerTableRecord
  2
T_STARTBEZUEGE
 70
0
 62
7
  6
CONTINUOUS
370
-3
390
F
  0
LAYER
  5
204
100
AcDbSymbolTableRecord
100
AcDbLayerTableRecord
  2
ZEICHNUNGSBEMASSUNGEN
 70
0
 62
7
  6
CONTINUOUS
370
-3
390
F
  0
ENDTAB
  0
TABLE
  2
STYLE
  5
3
100
AcDbSymbolTable
 70
1
  0
STYLE
  5
11
100
AcDbSymbolTableRecord
100
AcDbTextStyleTableRecord
  2
STANDARD
 70
0
 40
0.0
 41
0.7
 50
0.0
 71
0
 42
0.2
  3
txt
  4

  0
STYLE
  5
205
100
AcDbSymbolTableRecord
100
AcDbTextStyleTableRecord
  2
TEXTSTYLE_1
 70
0
 40
0.0
 41
0.8
 50
0.0
 71
0
 42
0.2
  3
gdt
  4

  0
ENDTAB
  0
TABLE
  2
VIEW
  5
6
100
AcDbSymbolTable
 70
0
  0
ENDTAB
  0
TABLE
  2
UCS
  5
7
100
AcDbSymbolTable
 70
0
  0
ENDTAB
  0
TABLE
  2
APPID
  5
9
100
AcDbSymbolTable
 70
1
  0
APPID
  5
206
100
AcDbSymbolTableRecord
100
AcDbRegAppTableRecord
  2
ACAD
 70
0
  0
ENDTAB
  0
TABLE
  2
BLOCK_RECORD
  5
1
100
AcDbSymbolTable
 70
0
  0
BLOCK_RECORD
  5
207
100
AcDbSymbolTableRecord
100
AcDbBlockTableRecord
  2
*Model_Space
  0
BLOCK_RECORD
  5
208
100
AcDbSymbolTableRecord
100
AcDbBlockTableRecord
  2
*Paper_Space
  0
ENDTAB
  0
TABLE
  2
DIMSTYLE
  5
A
100
AcDbSymbolTable
 70
1
100
AcDbDimStyleTable
 71
0
  0
DIMSTYLE
105
209
100
AcDbSymbolTableRecord
100
AcDbDimStyleTableRecord
  2
STANDARD
 70
0
  3

  4

 40
1.0
 41
3.5
 42
0.0625
 43
0.38
 44
0.18
 45
0.0
 46
0.0
 47
0.005
 48
0.005
140
3.5
141
0.09
142
0.0
143
25.4
144
1.0
145
0.0
146
1.0
147
0.09
 71
1.0
 72
0.0
 73
0
 74
0
 75
0
 76
0
 77
1
 78
8
170
0
171
2
172
0
173
0
174
0
175
0
176
0
177
0
178
5
270
2
271
3
272
3
273
2
274
2
275
0
280
0
281
0
282
0
283
1
284
8
285
0
286
0
287
3
288
0
340
11
  0
ENDTAB
  0
ENDSEC
  0
SECTION
  2
BLOCKS
  0
BLOCK
  5
20
100
AcDbEntity
  8
0
100
AcDbBlockBegin
  2
*Model_Space
 70
0
 10
0.0
 20
0.0
 30
0.0
  3
*Model_Space
  1

  0
ENDBLK
  5
21
100
AcDbEntity
  8
0
100
AcDbBlockEnd
  0
BLOCK
  5
1C
100
AcDbEntity
  8
0
100
AcDbBlockBegin
  2
*Paper_Space
 70
0
 10
0.0
 20
0.0
 30
0.0
  3
*Paper_Space
  1

  0
ENDBLK
  5
1D
100
AcDbEntity
  8
0
100
AcDbBlockEnd
  0
ENDSEC
  0
SECTION
  2
ENTITIES
  0
LINE
  5
20A
100
AcDbEntity
  8
0
100
AcDbLine
 62
7
  6
CONTINUOUS
 10
0.0
 20
0.0
 11
0.0
 21
297.0
  0
LINE
  5
20B
100
AcDbEntity
  8
0
100
AcDbLine
 62
7
  6
CONTINUOUS
 10
0.0
 20
0.0
 11
420.0
 21
0.0
  0
LINE
  5
20C
100
AcDbEntity
  8
0
100
AcDbLine
 62
7
  6
CONTINUOUS
 10
0.0
 20
297.0
 11
420.0
 21
297.0
  0
LINE
  5
20D
100
AcDbEntity
  8
0
100
AcDbLine
 62
7
  6
CONTINUOUS
 10
420.0
 20
0.0
 11
420.0
 21
297.0
  0
LINE
  5
20E
100
AcDbEntity
  8
BEZUGSACHSEN
100
AcDbLine
 62
7
  6
CONTINUOUS
 10
96.6225496843
 20
203.2448740392
 11
95.7249974204
 21
202.6839454295
  0
LINE
  5
20F
100
AcDbEntity
  8
BEZUGSACHSEN
100
AcDbLine
 62
7
  6
CONTINUOUS
 10
103.2046967475
 20
206.4025184233
 11
102.2162712798
 21
206.0240287089
  0
LINE
  5
210
100
AcDbEntity
  8
BEZUGSACHSEN
100
AcDbLine
 62
7
  6
CONTINUOUS
 10
97.2551265969
 20
203.4808726363
 11
96.6225496843
 21
203.2448740392
  0
LINE
  5
211
100
AcDbEntity
  8
BEZUGSACHSEN
100
AcDbLine
 62
7
  6
CONTINUOUS
 10
97.052196924
 20
202.5573875283
 11
97.572580279
 21
202.7232703601
  0
LINE
  5
212
100
AcDbEntity
  8
0
100
AcDbLine
 62
7
  6
CONTINUOUS
 10
124.9710137162
 20
83.8288833597
 11
125.7431862332
 21
84.0129609235
  0
LINE
  5
213
100
AcDbEntity
  8
0
100
AcDbLine
 62
7
  6
CONTINUOUS
 10
60.388024948
 20
133.7089635741
 11
60.388024948
 21
139.9334738445
  0
LINE
  5
214
100
AcDbEntity
  8
0
100
AcDbLine
 62
7
  6
CONTINUOUS
 10
60.388024948
 20
151.6755074445
 11
60.388024948
 21
152.9852122504
  0
LINE
  5
215
100
AcDbEntity
  8
BEZUGSACHSEN
100
AcDbLine
 62
7
  6
CONTINUOUS
 10
86.6074998996
 20
194.4951000303
 11
86.109382739
 21
193.877027025
  0
LINE
  5
216
100
AcDbEntity
  8
BEZUGSACHSEN
100
AcDbLine
 62
7
  6
CONTINUOUS
 10
84.4767042929
 20
190.3316229827
 11
84.9354892725
 21
190.8269705716
  0
LINE
  5
217
100
AcDbEntity
  8
BEZUGSACHSEN
100
AcDbLine
 62
7
  6
CONTINUOUS
 10
95.7774770351
 20
201.6014139432
 11
96.1546446601
 21
201.9964589186
  0
LINE
  5
218
100
AcDbEntity
  8
BEZUGSACHSEN
100
AcDbLine
 62
7
  6
CONTINUOUS
 10
84.3579944893
 20
191.1775594983
 11
83.9678670213
 21
190.7953055064
  0
LINE
  5
219
100
AcDbEntity
  8
BEZUGSACHSEN
100
AcDbLine
 62
7
  6
CONTINUOUS
 10
95.7249974204
 20
202.6839454295
 11
95.2356349661
 21
202.2187838663
  0
LINE
  5
21A
100
AcDbEntity
  8
BEZUGSACHSEN
100
AcDbLine
 62
7
  6
CONTINUOUS
 10
96.1546446601
 20
201.9964589186
 11
97.052196924
 21
202.5573875283
  0
LINE
  5
21B
100
AcDbEntity
  8
BEZUGSACHSEN
100
AcDbLine
 62
7
  6
CONTINUOUS
 10
98.4510030087
 20
202.3162477529
 11
99.1241668857
 21
202.7369440095
  0
LINE
  5
21C
100
AcDbEntity
  8
BEZUGSACHSEN
100
AcDbLine
 62
7
  6
CONTINUOUS
 10
97.9019266616
 20
200.6984388579
 11
97.2287627847
 21
200.2777426012
  0
LINE
  5
21D
100
AcDbEntity
  8
BEZUGSACHSEN
100
AcDbLine
 62
7
  6
CONTINUOUS
 10
97.6584099743
 20
199.5902561705
 11
98.3315738513
 21
200.0109524272
  0
LINE
  5
21E
100
AcDbEntity
  8
BEZUGSACHSEN
100
AcDbLine
 62
7
  6
CONTINUOUS
 10
97.6297170824
 20
198.1383299469
 11
96.9565532055
 21
197.7176336902
  0
LINE
  5
21F
100
AcDbEntity
  8
BEZUGSACHSEN
100
AcDbLine
 62
7
  6
CONTINUOUS
 10
99.334084161
 20
198.4068171013
 11
98.6609202841
 21
197.9861208446
  0
LINE
  5
220
100
AcDbEntity
  8
BEZUGSACHSEN
100
AcDbLine
 62
7
  6
CONTINUOUS
 10
99.2027610252
 20
197.3687501893
 11
99.7637313506
 21
197.7193306707
  0
LINE
  5
221
100
AcDbEntity
  8
BEZUGSACHSEN
100
AcDbLine
 62
7
  6
CONTINUOUS
 10
84.8636193487
 20
191.4896931128
 11
84.3579944893
 21
191.1775594983
  0
LINE
  5
222
100
AcDbEntity
  8
BEZUGSACHSEN
100
AcDbLine
 62
7
  6
CONTINUOUS
 10
84.9354892725
 20
190.8269705716
 11
85.188301687
 21
190.9830373881
  0
LINE
  5
223
100
AcDbEntity
  8
BEZUGSACHSEN
100
AcDbLine
 62
7
  6
CONTINUOUS
 10
85.3005882678
 20
191.6887357187
 11
84.8636193487
 21
191.4896931128
  0
LINE
  5
224
100
AcDbEntity
  8
BEZUGSACHSEN
100
AcDbLine
 62
7
  6
CONTINUOUS
 10
102.5103584652
 20
199.3364947893
 11
103.2516777427
 21
199.6203621427
  0
LINE
  5
225
100
AcDbEntity
  8
BEZUGSACHSEN
100
AcDbLine
 62
7
  6
CONTINUOUS
 10
106.7111679401
 20
200.9450765492
 11
107.4524872176
 21
201.2289439026
  0
LINE
  5
226
100
AcDbEntity
  8
BEZUGSACHSEN
100
AcDbLine
 62
7
  6
CONTINUOUS
 10
97.0258317839
 20
199.3542567609
 11
97.6584099743
 21
199.5902561705
  0
LINE
  5
227
100
AcDbEntity
  8
BEZUGSACHSEN
100
AcDbLine
 62
7
  6
CONTINUOUS
 10
98.5701841188
 20
197.1327515821
 11
99.2027610252
 21
197.3687501893
  0
LINE
  5
228
100
AcDbEntity
  8
BEZUGSACHSEN
100
AcDbLine
 62
7
  6
CONTINUOUS
 10
98.4223100165
 20
200.8643216897
 11
97.9019266616
 21
200.6984388579
  0
LINE
  5
229
100
AcDbEntity
  8
BEZUGSACHSEN
100
AcDbLine
 62
7
  6
CONTINUOUS
 10
97.2287627847
 20
200.2777426012
 11
96.7083794298
 21
200.1118597693
  0
LINE
  5
22A
100
AcDbEntity
  8
0
100
AcDbLine
 62
7
  6
CONTINUOUS
 10
124.2705657229
 20
90.1903410599
 11
123.4983932058
 21
90.0062634961
  0
LINE
  5
22B
100
AcDbEntity
  8
0
100
AcDbLine
 62
7
  6
CONTINUOUS
 10
134.4515270443
 20
91.5294773787
 11
134.0426423182
 21
91.4367221877
  0
LINE
  5
22C
100
AcDbEntity
  8
0
100
AcDbLine
 62
7
  6
CONTINUOUS
 10
134.1371170556
 20
93.5566819489
 11
134.5460017817
 21
93.6494371399
  0
LINE
  5
22D
100
AcDbEntity
  8
0
100
AcDbLine
 62
7
  6
CONTINUOUS
 10
133.7621474932
 20
90.6298633609
 11
134.354502123
 21
90.6768002332
  0
LINE
  5
22E
100
AcDbEntity
  8
0
100
AcDbLine
 62
7
  6
CONTINUOUS
 10
136.3544282696
 20
92.2234650671
 11
135.7620749296
 21
92.1765289878
  0
LINE
  5
22F
100
AcDbEntity
  8
0
100
AcDbLine
 62
7
  6
CONTINUOUS
 10
134.7265407855
 20
88.0505979341
 11
135.5023640478
 21
88.0517156644
  0
LINE
  5
230
100
AcDbEntity
  8
0
100
AcDbLine
 62
7
  6
CONTINUOUS
 10
134.0426423182
 20
91.4367221877
 11
133.5629963894
 21
91.4590728633
  0
LINE
  5
231
100
AcDbEntity
  8
0
100
AcDbLine
 62
7
  6
CONTINUOUS
 10
136.0739334446
 20
91.4166062403
 11
136.5535793734
 21
91.3942555647
  0
LINE
  5
232
100
AcDbEntity
  8
BEZUGSACHSEN
100
AcDbLine
 62
7
  6
CONTINUOUS
 10
82.5997231324
 20
95.1629126445
 11
61.8613320169
 21
128.5454310504
  0
LINE
  5
233
100
AcDbEntity
  8
BEZUGSACHSEN
100
AcDbLine
 62
7
  6
CENTER
 10
69.313414348
 20
145.8044906445
 11
69.313414348
 21
140.3573225015
  0
LINE
  5
234
100
AcDbEntity
  8
BEZUGSACHSEN
100
AcDbLine
 62
7
  6
CENTER
 10
69.313414348
 20
145.8044906445
 11
69.313414348
 21
151.2516587875
  0
LINE
  5
235
100
AcDbEntity
  8
BEZUGSACHSEN
100
AcDbLine
 62
7
  6
CONTINUOUS
 10
95.2356349661
 20
202.2187838663
 11
94.9300752248
 21
201.709157789
  0
LINE
  5
236
100
AcDbEntity
  8
BEZUGSACHSEN
100
AcDbLine
 62
7
  6
CONTINUOUS
 10
83.9678670213
 20
190.7953055064
 11
83.4186115618
 21
189.8905645452
  0
LINE
  5
237
100
AcDbEntity
  8
BEZUGSACHSEN
100
AcDbLine
 62
7
  6
CONTINUOUS
 10
84.0647623054
 20
189.6530666147
 11
84.4767042929
 21
190.3316229827
  0
LINE
  5
238
100
AcDbEntity
  8
BEZUGSACHSEN
100
AcDbLine
 62
7
  6
CONTINUOUS
 10
85.8562685316
 20
191.041844416
 11
86.1995529974
 21
191.6073071931
  0
LINE
  5
239
100
AcDbEntity
  8
BEZUGSACHSEN
100
AcDbLine
 62
7
  6
CONTINUOUS
 10
86.3715306075
 20
189.0265296284
 11
86.096902092
 21
188.5741578536
  0
LINE
  5
23A
100
AcDbEntity
  8
BEZUGSACHSEN
100
AcDbLine
 62
7
  6
CONTINUOUS
 10
86.558897862
 20
188.2936867466
 11
86.8335263774
 21
188.7460585214
  0
LINE
  5
23B
100
AcDbEntity
  8
RUNDUNGEN
100
AcDbLine
 62
7
  6
CONTINUOUS
 10
65.9648407878
 20
162.4838838701
 11
61.2679790699
 21
155.7760701697
  0
LINE
  5
23C
100
AcDbEntity
  8
BEZUGSACHSEN
100
AcDbLine
 62
7
  6
CONTINUOUS
 10
91.0539667814
 20
189.89208974
 11
91.552083942
 21
190.5101627453
  0
LINE
  5
23D
100
AcDbEntity
  8
BEZUGSACHSEN
100
AcDbLine
 62
7
  6
CONTINUOUS
 10
88.4569350478
 20
186.2127746473
 11
89.0530334995
 21
186.9343068294
  0
LINE
  5
23E
100
AcDbEntity
  8
BEZUGSACHSEN
100
AcDbLine
 62
7
  6
CONTINUOUS
 10
86.096902092
 20
188.5741578536
 11
85.5694611621
 21
187.9657192623
  0
LINE
  5
23F
100
AcDbEntity
  8
BEZUGSACHSEN
100
AcDbLine
 62
7
  6
CONTINUOUS
 10
88.4068812653
 20
187.1718021223
 11
87.9480978571
 21
186.6764571219
  0
LINE
  5
240
100
AcDbEntity
  8
BEZUGSACHSEN
100
AcDbLine
 62
7
  6
CONTINUOUS
 10
99.7637313506
 20
197.7193306707
 11
100.1408989757
 21
198.1143756461
  0
LINE
  5
241
100
AcDbEntity
  8
BEZUGSACHSEN
100
AcDbLine
 62
7
  6
CONTINUOUS
 10
85.2043605954
 20
187.1039515268
 11
85.7786445175
 21
187.5291813389
  0
LINE
  5
242
100
AcDbEntity
  8
BEZUGSACHSEN
100
AcDbLine
 62
7
  6
CONTINUOUS
 10
87.9513086474
 20
185.900638426
 11
88.4569350478
 21
186.2127746473
  0
LINE
  5
243
100
AcDbEntity
  8
BEZUGSACHSEN
100
AcDbLine
 62
7
  6
CONTINUOUS
 10
85.5694611621
 20
187.9657192623
 11
85.1324922834
 21
187.7666766318
  0
LINE
  5
244
100
AcDbEntity
  8
BEZUGSACHSEN
100
AcDbLine
 62
7
  6
CONTINUOUS
 10
87.9480978571
 20
186.6764571219
 11
87.5111289784
 21
186.4774144914
  0
LINE
  5
245
100
AcDbEntity
  8
0
100
AcDbLine
 62
7
  6
CONTINUOUS
 10
147.6711199704
 20
100.4061627914
 11
147.3016755375
 21
100.3252223487
  0
LINE
  5
246
100
AcDbEntity
  8
0
100
AcDbLine
 62
7
  6
CONTINUOUS
 10
134.8972578094
 20
94.3411901001
 11
134.2341419768
 21
94.4093590945
  0
LINE
  5
247
100
AcDbEntity
  8
0
100
AcDbLine
 62
7
  6
CONTINUOUS
 10
135.1905041996
 20
88.8116376895
 11
134.6400970186
 21
88.9490943123
  0
LINE
  5
248
100
AcDbEntity
  8
0
100
AcDbLine
 62
7
  6
CONTINUOUS
 10
133.0282717478
 20
90.8131390148
 11
133.7621474932
 21
90.6298633609
  0
LINE
  5
249
100
AcDbEntity
  8
0
100
AcDbLine
 62
7
  6
CONTINUOUS
 10
137.088304015
 20
92.0401894132
 11
136.3544282696
 21
92.2234650671
  0
LINE
  5
24A
100
AcDbEntity
  8
RUNDUNGEN
100
AcDbLine
 62
7
  6
CONTINUOUS
 10
75.549684948
 20
132.2617962445
 11
75.549684948
 21
161.3688850445
  0
LINE
  5
24B
100
AcDbEntity
  8
BEZUGSACHSEN
100
AcDbLine
 62
7
  6
CONTINUOUS
 10
83.4186115618
 20
189.8905645452
 11
83.2594819989
 21
189.3680749875
  0
LINE
  5
24C
100
AcDbEntity
  8
BEZUGSACHSEN
100
AcDbLine
 62
7
  6
CONTINUOUS
 10
83.8369767821
 20
189.0174860608
 11
84.0647623054
 21
189.6530666147
  0
LINE
  5
24D
100
AcDbEntity
  8
BEZUGSACHSEN
100
AcDbLine
 62
7
  6
CONTINUOUS
 10
89.1903469715
 20
187.1604914226
 11
89.5554475382
 21
188.0222591581
  0
LINE
  5
24E
100
AcDbEntity
  8
BEZUGSACHSEN
100
AcDbLine
 62
7
  6
CONTINUOUS
 10
95.5841108767
 20
201.161903591
 11
95.7774770351
 21
201.6014139432
  0
LINE
  5
24F
100
AcDbEntity
  8
BEZUGSACHSEN
100
AcDbLine
 62
7
  6
CONTINUOUS
 10
100.1408989757
 20
198.1143756461
 11
100.4464600197
 21
198.6240024957
  0
LINE
  5
250
100
AcDbEntity
  8
BEZUGSACHSEN
100
AcDbLine
 62
7
  6
CONTINUOUS
 10
89.0183710946
 20
189.7412714776
 11
88.6750850574
 21
189.1758061119
  0
LINE
  5
251
100
AcDbEntity
  8
BEZUGSACHSEN
100
AcDbLine
 62
7
  6
CONTINUOUS
 10
88.6815097808
 20
187.6241738971
 11
88.4068812653
 21
187.1718021223
  0
LINE
  5
252
100
AcDbEntity
  8
BEZUGSACHSEN
100
AcDbLine
 62
7
  6
CONTINUOUS
 10
89.0530334995
 20
186.9343068294
 11
89.1903469715
 21
187.1604914226
  0
LINE
  5
253
100
AcDbEntity
  8
BEZUGSACHSEN
100
AcDbLine
 62
7
  6
CONTINUOUS
 10
99.5990582345
 20
198.7317463014
 11
99.334084161
 21
198.4068171013
  0
LINE
  5
254
100
AcDbEntity
  8
0
100
AcDbLine
 62
7
  6
CONTINUOUS
 10
145.716260969
 20
105.6874880794
 11
144.9773722636
 21
105.5256070937
  0
LINE
  5
255
100
AcDbEntity
  8
0
100
AcDbLine
 62
7
  6
CONTINUOUS
 10
147.065280101
 20
99.6927904436
 11
147.5492623559
 21
99.7020540413
  0
LINE
  5
256
100
AcDbEntity
  8
0
100
AcDbLine
 62
7
  6
CONTINUOUS
 10
148.1917101848
 20
104.2943701671
 11
147.7077295363
 21
104.2851091364
  0
LINE
  5
257
100
AcDbEntity
  8
0
100
AcDbLine
 62
7
  6
CONTINUOUS
 10
145.4096803749
 20
104.9429077994
 11
145.8936626298
 21
104.9521713971
  0
LINE
  5
258
100
AcDbEntity
  8
0
100
AcDbLine
 62
7
  6
CONTINUOUS
 10
147.3016755375
 20
100.3252223487
 11
147.0024162622
 21
100.3564302809
  0
LINE
  5
259
100
AcDbEntity
  8
0
100
AcDbLine
 62
7
  6
CONTINUOUS
 10
134.5460017817
 20
93.6494371399
 11
134.9129402993
 21
93.5577997095
  0
LINE
  5
25A
100
AcDbEntity
  8
0
100
AcDbLine
 62
7
  6
CONTINUOUS
 10
134.0346111743
 20
88.4182663304
 11
134.7265407855
 21
88.0505979341
  0
LINE
  5
25B
100
AcDbEntity
  8
BEZUGSACHSEN
100
AcDbLine
 62
7
  6
CONTINUOUS
 10
75.886634948
 20
133.6096403955
 11
75.886634948
 21
156.1945547235
  0
LINE
  5
25C
100
AcDbEntity
  8
BEZUGSACHSEN
100
AcDbLine
 62
7
  6
CONTINUOUS
 10
83.2594819989
 20
189.3680749875
 11
83.2158513988
 21
188.7754676408
  0
LINE
  5
25D
100
AcDbEntity
  8
BEZUGSACHSEN
100
AcDbLine
 62
7
  6
CONTINUOUS
 10
83.8151622526
 20
188.7211836909
 11
83.8369767821
 21
189.0174860608
  0
LINE
  5
25E
100
AcDbEntity
  8
BEZUGSACHSEN
100
AcDbLine
 62
7
  6
CONTINUOUS
 10
86.3779537595
 20
187.4748948251
 11
86.558897862
 21
188.2936867466
  0
LINE
  5
25F
100
AcDbEntity
  8
BEZUGSACHSEN
100
AcDbLine
 62
7
  6
CONTINUOUS
 10
88.909295304
 20
188.259754451
 11
88.6815097808
 21
187.6241738971
  0
LINE
  5
260
100
AcDbEntity
  8
BEZUGSACHSEN
100
AcDbLine
 62
7
  6
CONTINUOUS
 10
99.7924244431
 20
199.1712565733
 11
99.5990582345
 21
198.7317463014
  0
LINE
  5
261
100
AcDbEntity
  8
0
100
AcDbLine
 62
7
  6
CONTINUOUS
 10
147.770593295
 20
103.6214693493
 11
148.3691103996
 21
103.5590508176
  0
LINE
  5
262
100
AcDbEntity
  8
0
100
AcDbLine
 62
7
  6
CONTINUOUS
 10
146.6514860562
 20
99.795680455
 11
147.065280101
 21
99.6927904436
  0
LINE
  5
263
100
AcDbEntity
  8
0
100
AcDbLine
 62
7
  6
CONTINUOUS
 10
135.5184261435
 20
94.0886276914
 11
134.8972578094
 21
94.3411901001
  0
LINE
  5
264
100
AcDbEntity
  8
0
100
AcDbLine
 62
7
  6
CONTINUOUS
 10
136.5535793734
 20
91.3942555647
 11
136.9912791928
 21
91.1875121064
  0
LINE
  5
265
100
AcDbEntity
  8
BEZUGSACHSEN
100
AcDbLine
 62
7
  6
CONTINUOUS
 10
83.2158513988
 20
188.7754676408
 11
83.2408783304
 21
188.2959538787
  0
LINE
  5
266
100
AcDbEntity
  8
BEZUGSACHSEN
100
AcDbLine
 62
7
  6
CONTINUOUS
 10
89.5554475382
 20
188.0222591581
 11
89.5990765973
 21
188.614863898
  0
LINE
  5
267
100
AcDbEntity
  8
BEZUGSACHSEN
100
AcDbLine
 62
7
  6
CONTINUOUS
 10
94.9300752248
 20
201.709157789
 11
94.7677312197
 21
200.9703695582
  0
LINE
  5
268
100
AcDbEntity
  8
0
100
AcDbLine
 62
7
  6
CONTINUOUS
 10
148.7200422121
 20
104.1198032104
 11
148.1917101848
 21
104.2943701671
  0
LINE
  5
269
100
AcDbEntity
  8
0
100
AcDbLine
 62
7
  6
CONTINUOUS
 10
137.5967650371
 20
91.7183400883
 11
137.088304015
 21
92.0401894132
  0
LINE
  5
26A
100
AcDbEntity
  8
0
100
AcDbLine
 62
7
  6
CONTINUOUS
 10
134.9129402993
 20
93.5577997095
 11
135.1671701158
 21
93.3968747312
  0
LINE
  5
26B
100
AcDbEntity
  8
0
100
AcDbLine
 62
7
  6
CONTINUOUS
 10
134.6400970186
 20
88.9490943123
 11
134.3151059993
 21
89.2251251572
  0
LINE
  5
26C
100
AcDbEntity
  8
0
100
AcDbLine
 62
7
  6
CONTINUOUS
 10
133.5629963894
 20
91.4590728633
 11
133.2380053702
 21
91.7351037082
  0
LINE
  5
26D
100
AcDbEntity
  8
BEZUGSACHSEN
100
AcDbLine
 62
7
  6
CONTINUOUS
 10
85.7786445175
 20
187.5291813389
 11
85.8505128295
 21
186.8664562339
  0
LINE
  5
26E
100
AcDbEntity
  8
BEZUGSACHSEN
100
AcDbLine
 62
7
  6
CONTINUOUS
 10
88.8842684128
 20
188.7392681885
 11
88.909295304
 21
188.259754451
  0
LINE
  5
26F
100
AcDbEntity
  8
BEZUGSACHSEN
100
AcDbLine
 62
7
  6
CONTINUOUS
 10
100.4464600197
 20
198.6240024957
 11
100.6088040499
 21
199.3627906864
  0
LINE
  5
270
100
AcDbEntity
  8
0
100
AcDbLine
 62
7
  6
CONTINUOUS
 10
146.2445928358
 20
105.5129212231
 11
145.716260969
 21
105.6874880794
  0
LINE
  5
271
100
AcDbEntity
  8
0
100
AcDbLine
 62
7
  6
CONTINUOUS
 10
135.8434171628
 20
93.8125968465
 11
135.5184261435
 21
94.0886276914
  0
LINE
  5
272
100
AcDbEntity
  8
0
100
AcDbLine
 62
7
  6
CONTINUOUS
 10
133.6388589524
 20
88.8094030419
 11
134.0346111743
 21
88.4182663304
  0
LINE
  5
273
100
AcDbEntity
  8
0
100
AcDbLine
 62
7
  6
CONTINUOUS
 10
132.6325195259
 20
91.2042757263
 11
133.0282717478
 21
90.8131390148
  0
LINE
  5
274
100
AcDbEntity
  8
0
100
AcDbLine
 62
7
  6
CONTINUOUS
 10
129.7592321702
 20
86.1166307171
 11
126.0701845639
 21
90.6455226539
  0
LINE
  5
275
100
AcDbEntity
  8
0
100
AcDbLine
 62
7
  6
CONTINUOUS
 10
125.3275091874
 20
90.365222403
 11
129.5503791018
 21
85.1712868156
  0
LINE
  5
276
100
AcDbEntity
  8
BEZUGSACHSEN
100
AcDbLine
 62
7
  6
CONTINUOUS
 10
94.149324948
 20
164.4369834712
 11
94.149324948
 21
170.4943906445
  0
LINE
  5
277
100
AcDbEntity
  8
BEZUGSACHSEN
100
AcDbLine
 62
7
  6
CONTINUOUS
 10
94.216714948
 20
159.6438186591
 11
94.216714948
 21
133.6096403782
  0
LINE
  5
278
100
AcDbEntity
  8
RUNDUNGEN
100
AcDbLine
 62
7
  6
CONTINUOUS
 10
94.418884948
 20
132.2617962445
 11
94.418884948
 21
161.3688850445
  0
LINE
  5
279
100
AcDbEntity
  8
BEZUGSACHSEN
100
AcDbLine
 62
7
  6
CONTINUOUS
 10
95.5745460845
 20
200.6779280227
 11
95.5841108767
 21
201.161903591
  0
LINE
  5
27A
100
AcDbEntity
  8
BEZUGSACHSEN
100
AcDbLine
 62
7
  6
CONTINUOUS
 10
130.199424869
 20
128.2830906445
 11
136.400159348
 21
128.2830906445
  0
LINE
  5
27B
100
AcDbEntity
  8
BEZUGSACHSEN
100
AcDbLine
 62
7
  6
CONTINUOUS
 10
159.183370548
 20
128.2830906445
 11
165.1897173592
 21
128.2830906445
  0
LINE
  5
27C
100
AcDbEntity
  8
0
100
AcDbLine
 62
7
  6
CONTINUOUS
 10
146.0564187611
 20
102.665272956
 11
146.5145639442
 21
102.3785551078
  0
LINE
  5
27D
100
AcDbEntity
  8
0
100
AcDbLine
 62
7
  6
CONTINUOUS
 10
145.8936626298
 20
104.9521713971
 11
146.1227355422
 21
104.8088122722
  0
LINE
  5
27E
100
AcDbEntity
  8
0
100
AcDbLine
 62
7
  6
CONTINUOUS
 10
148.3691103996
 20
103.5590508176
 11
148.8272555827
 21
103.2723329693
  0
LINE
  5
27F
100
AcDbEntity
  8
0
100
AcDbLine
 62
7
  6
CONTINUOUS
 10
146.4736657482
 20
105.3695620981
 11
146.2445928358
 21
105.5129212231
  0
LINE
  5
280
100
AcDbEntity
  8
0
100
AcDbLine
 62
7
  6
CONTINUOUS
 10
149.1781873952
 20
103.8330853622
 11
148.7200422121
 21
104.1198032104
  0
LINE
  5
281
100
AcDbEntity
  8
0
100
AcDbLine
 62
7
  6
CONTINUOUS
 10
141.5413062803
 20
99.7488398669
 11
142.3748669869
 21
99.0606582776
  0
LINE
  5
282
100
AcDbEntity
  8
0
100
AcDbLine
 62
7
  6
CONTINUOUS
 10
142.1508845701
 20
100.2749632009
 11
146.2144921755
 21
96.9200786457
  0
LINE
  5
283
100
AcDbEntity
  8
0
100
AcDbLine
 62
7
  6
CONTINUOUS
 10
146.7198754135
 20
97.5322246482
 11
141.8227073934
 21
101.5752905518
  0
LINE
  5
284
100
AcDbEntity
  8
BEZUGSACHSEN
100
AcDbLine
 62
7
  6
CONTINUOUS
 10
83.908845175
 20
188.3547609067
 11
83.8151622526
 21
188.7211836909
  0
LINE
  5
285
100
AcDbEntity
  8
BEZUGSACHSEN
100
AcDbLine
 62
7
  6
CONTINUOUS
 10
86.4716381724
 20
187.1084746785
 11
86.3779537595
 21
187.4748948251
  0
LINE
  5
286
100
AcDbEntity
  8
BEZUGSACHSEN
100
AcDbLine
 62
7
  6
CONTINUOUS
 10
94.7677312197
 20
200.9703695582
 11
94.8297743426
 21
200.3718128378
  0
LINE
  5
287
100
AcDbEntity
  8
BEZUGSACHSEN
100
AcDbLine
 62
7
  6
CONTINUOUS
 10
102.2162712798
 20
206.0240287089
 11
102.5103584652
 21
199.3364947893
  0
LINE
  5
288
100
AcDbEntity
  8
0
100
AcDbLine
 62
7
  6
CONTINUOUS
 10
104.558024948
 20
161.3658739193
 11
104.558024948
 21
151.3044906445
  0
LINE
  5
289
100
AcDbEntity
  8
0
100
AcDbLine
 62
7
  6
CONTINUOUS
 10
104.558024948
 20
140.3044906445
 11
104.558024948
 21
131.7123787938
  0
LINE
  5
28A
100
AcDbEntity
  8
RUNDUNGEN
100
AcDbLine
 62
7
  6
CONTINUOUS
 10
92.4619142634
 20
130.3047906445
 11
77.5067012854
 21
130.3047906445
  0
LINE
  5
28B
100
AcDbEntity
  8
BEZUGSACHSEN
100
AcDbLine
 62
7
  6
CONTINUOUS
 10
77.843640548
 20
131.6525906445
 11
92.259709348
 21
131.6525906445
  0
LINE
  5
28C
100
AcDbEntity
  8
0
100
AcDbLine
 62
7
  6
CONTINUOUS
 10
132.349474517
 20
91.6646995152
 11
132.6325195259
 21
91.2042757263
  0
LINE
  5
28D
100
AcDbEntity
  8
0
100
AcDbLine
 62
7
  6
CONTINUOUS
 10
133.2380053702
 20
91.7351037082
 11
133.0964829648
 21
91.9653154414
  0
LINE
  5
28E
100
AcDbEntity
  8
BEZUGSACHSEN
100
AcDbLine
 62
7
  6
CONTINUOUS
 10
83.2408783304
 20
188.2959538787
 11
83.4500616859
 21
187.8594159553
  0
LINE
  5
28F
100
AcDbEntity
  8
BEZUGSACHSEN
100
AcDbLine
 62
7
  6
CONTINUOUS
 10
89.5990765973
 20
188.614863898
 11
89.4117093428
 21
189.3477067798
  0
LINE
  5
290
100
AcDbEntity
  8
BEZUGSACHSEN
100
AcDbLine
 62
7
  6
CONTINUOUS
 10
90.4721422591
 20
192.4000243317
 11
90.710452716
 21
191.1884498619
  0
LINE
  5
291
100
AcDbEntity
  8
BEZUGSACHSEN
100
AcDbLine
 62
7
  6
CONTINUOUS
 10
91.552083942
 20
190.5101627453
 11
91.3137737799
 21
191.7217369776
  0
LINE
  5
292
100
AcDbEntity
  8
BEZUGSACHSEN
100
AcDbLine
 62
7
  6
CONTINUOUS
 10
103.2516777427
 20
199.6203621427
 11
103.0003907438
 21
205.4561814045
  0
LINE
  5
293
100
AcDbEntity
  8
0
100
AcDbLine
 62
7
  6
CONTINUOUS
 10
75.549684948
 20
140.3044906445
 11
75.886634948
 21
140.3044906445
  0
LINE
  5
294
100
AcDbEntity
  8
0
100
AcDbLine
 62
7
  6
CONTINUOUS
 10
94.216714948
 20
140.3044906445
 11
94.418884948
 21
140.3044906445
  0
LINE
  5
295
100
AcDbEntity
  8
0
100
AcDbLine
 62
7
  6
CONTINUOUS
 10
104.558024948
 20
140.3044906445
 11
128.218024948
 21
140.3044906445
  0
LINE
  5
296
100
AcDbEntity
  8
0
100
AcDbLine
 62
7
  6
CONTINUOUS
 10
138.357164948
 20
140.3044906445
 11
138.559334948
 21
140.3044906445
  0
LINE
  5
297
100
AcDbEntity
  8
0
100
AcDbLine
 62
7
  6
CONTINUOUS
 10
156.889414948
 20
140.3044906445
 11
157.226364948
 21
140.3044906445
  0
LINE
  5
298
100
AcDbEntity
  8
0
100
AcDbLine
 62
7
  6
CONTINUOUS
 10
143.4703047587
 20
102.098684573
 11
143.858263258
 21
101.6998157328
  0
LINE
  5
299
100
AcDbEntity
  8
0
100
AcDbLine
 62
7
  6
CONTINUOUS
 10
146.8616242475
 20
104.9706932579
 11
146.4736657482
 21
105.3695620981
  0
LINE
  5
29A
100
AcDbEntity
  8
0
100
AcDbLine
 62
7
  6
CONTINUOUS
 10
136.9912791928
 20
91.1875121064
 11
137.2035628009
 21
90.8421945066
  0
LINE
  5
29B
100
AcDbEntity
  8
0
100
AcDbLine
 62
7
  6
CONTINUOUS
 10
137.9505710505
 20
91.1428107553
 11
137.5967650371
 21
91.7183400883
  0
LINE
  5
29C
100
AcDbEntity
  8
BEZUGSACHSEN
100
AcDbLine
 62
7
  6
CONTINUOUS
 10
85.8505128295
 20
186.8664562339
 11
86.059696185
 21
186.4299183105
  0
LINE
  5
29D
100
AcDbEntity
  8
BEZUGSACHSEN
100
AcDbLine
 62
7
  6
CONTINUOUS
 10
88.6750850574
 20
189.1758061119
 11
88.8842684128
 21
188.7392681885
  0
LINE
  5
29E
100
AcDbEntity
  8
0
100
AcDbLine
 62
7
  6
CONTINUOUS
 10
123.4983932058
 20
90.0062634961
 11
124.9710137162
 21
83.8288833597
  0
LINE
  5
29F
100
AcDbEntity
  8
0
100
AcDbLine
 62
7
  6
CONTINUOUS
 10
125.7431862332
 20
84.0129609235
 11
124.2705657229
 21
90.1903410599
  0
LINE
  5
2A0
100
AcDbEntity
  8
T_STARTBEZUEGE
100
AcDbLine
 62
7
  6
CENTER
 10
116.388024948
 20
73.3758906445
 11
116.388024948
 21
218.2330906445
  0
LINE
  5
2A1
100
AcDbEntity
  8
BEZUGSACHSEN
100
AcDbLine
 62
7
  6
CENTER
 10
163.462635548
 20
145.8044906445
 11
158.015467405
 21
145.8044906445
  0
LINE
  5
2A2
100
AcDbEntity
  8
BEZUGSACHSEN
100
AcDbLine
 62
7
  6
CENTER
 10
69.313414348
 20
145.8044906445
 11
63.866246205
 21
145.8044906445
  0
LINE
  5
2A3
100
AcDbEntity
  8
T_STARTBEZUEGE
100
AcDbLine
 62
7
  6
CENTER
 10
57.3854160095
 20
145.8044906445
 11
175.3906338865
 21
145.8044906445
  0
LINE
  5
2A4
100
AcDbEntity
  8
BEZUGSACHSEN
100
AcDbLine
 62
7
  6
CENTER
 10
69.313414348
 20
145.8044906445
 11
74.760582491
 21
145.8044906445
  0
LINE
  5
2A5
100
AcDbEntity
  8
BEZUGSACHSEN
100
AcDbLine
 62
7
  6
CENTER
 10
163.462635548
 20
145.8044906445
 11
168.909803691
 21
145.8044906445
  0
LINE
  5
2A6
100
AcDbEntity
  8
0
100
AcDbLine
 62
7
  6
CONTINUOUS
 10
149.4516096789
 20
103.5058959338
 11
149.1781873952
 21
103.8330853622
  0
LINE
  5
2A7
100
AcDbEntity
  8
BEZUGSACHSEN
100
AcDbLine
 62
7
  6
CONTINUOUS
 10
84.0711871097
 20
188.1014343508
 11
83.908845175
 21
188.3547609067
  0
LINE
  5
2A8
100
AcDbEntity
  8
BEZUGSACHSEN
100
AcDbLine
 62
7
  6
CONTINUOUS
 10
86.7963188989
 20
186.6018163899
 11
86.4716381724
 21
187.1084746785
  0
LINE
  5
2A9
100
AcDbEntity
  8
0
100
AcDbLine
 62
7
  6
CONTINUOUS
 10
132.1791371175
 20
92.1944097365
 11
132.349474517
 21
91.6646995152
  0
LINE
  5
2AA
100
AcDbEntity
  8
BEZUGSACHSEN
100
AcDbLine
 62
7
  6
CONTINUOUS
 10
99.6897941992
 20
199.5851158849
 11
99.7924244431
 21
199.1712565733
  0
LINE
  5
2AB
100
AcDbEntity
  8
0
100
AcDbLine
 62
7
  6
CONTINUOUS
 10
75.549684948
 20
151.3044906445
 11
75.886634948
 21
151.3044906445
  0
LINE
  5
2AC
100
AcDbEntity
  8
0
100
AcDbLine
 62
7
  6
CONTINUOUS
 10
94.216714948
 20
151.3044906445
 11
94.418884948
 21
151.3044906445
  0
LINE
  5
2AD
100
AcDbEntity
  8
0
100
AcDbLine
 62
7
  6
CONTINUOUS
 10
104.558024948
 20
151.3044906445
 11
128.218024948
 21
151.3044906445
  0
LINE
  5
2AE
100
AcDbEntity
  8
0
100
AcDbLine
 62
7
  6
CONTINUOUS
 10
138.357164948
 20
151.3044906445
 11
138.559334948
 21
151.3044906445
  0
LINE
  5
2AF
100
AcDbEntity
  8
0
100
AcDbLine
 62
7
  6
CONTINUOUS
 10
156.889414948
 20
151.3044906445
 11
157.226364948
 21
151.3044906445
  0
LINE
  5
2B0
100
AcDbEntity
  8
BEZUGSACHSEN
100
AcDbLine
 62
7
  6
CONTINUOUS
 10
83.4500616859
 20
187.8594159553
 11
83.7279010725
 21
187.5359689852
  0
LINE
  5
2B1
100
AcDbEntity
  8
0
100
AcDbLine
 62
7
  6
CONTINUOUS
 10
146.1227355422
 20
104.8088122722
 11
146.4405073577
 21
104.29779244
  0
LINE
  5
2B2
100
AcDbEntity
  8
0
100
AcDbLine
 62
7
  6
CONTINUOUS
 10
148.8272555827
 20
103.2723329693
 11
148.9861430969
 21
103.0168256202
  0
LINE
  5
2B3
100
AcDbEntity
  8
BEZUGSACHSEN
100
AcDbLine
 62
7
  6
CONTINUOUS
 10
100.6088040499
 20
199.3627906864
 11
100.4345661417
 21
199.8912307488
  0
LINE
  5
2B4
100
AcDbEntity
  8
BEZUGSACHSEN
100
AcDbLine
 62
7
  6
CONTINUOUS
 10
107.0176402222
 20
207.5789851145
 11
108.5093881876
 21
201.4061960751
  0
LINE
  5
2B5
100
AcDbEntity
  8
BEZUGSACHSEN
100
AcDbLine
 62
7
  6
CONTINUOUS
 10
109.2809868175
 20
201.5926645708
 11
107.7892388521
 21
207.7654536102
  0
LINE
  5
2B6
100
AcDbEntity
  8
0
100
AcDbLine
 62
7
  6
CONTINUOUS
 10
133.0964829648
 20
91.9653154414
 11
132.9969065698
 21
92.3799201185
  0
LINE
  5
2B7
100
AcDbEntity
  8
0
100
AcDbLine
 62
7
  6
CONTINUOUS
 10
130.5406127011
 20
85.5450203944
 11
130.2786786004
 21
92.2338908317
  0
LINE
  5
2B8
100
AcDbEntity
  8
0
100
AcDbLine
 62
7
  6
CONTINUOUS
 10
129.5360032239
 20
91.9535905807
 11
129.7592321702
 21
86.1166307171
  0
LINE
  5
2B9
100
AcDbEntity
  8
BEZUGSACHSEN
100
AcDbLine
 62
7
  6
CONTINUOUS
 10
128.218024948
 20
130.2431073697
 11
128.218024948
 21
140.3044906445
  0
LINE
  5
2BA
100
AcDbEntity
  8
BEZUGSACHSEN
100
AcDbLine
 62
7
  6
CONTINUOUS
 10
128.218024948
 20
151.3044906445
 11
128.218024948
 21
160.3266024952
  0
LINE
  5
2BB
100
AcDbEntity
  8
BEZUGSACHSEN
100
AcDbLine
 62
7
  6
CONTINUOUS
 10
86.059696185
 20
186.4299183105
 11
86.4530344332
 21
186.0363536127
  0
LINE
  5
2BC
100
AcDbEntity
  8
BEZUGSACHSEN
100
AcDbLine
 62
7
  6
CONTINUOUS
 10
89.4117093428
 20
189.3477067798
 11
89.0183710946
 21
189.7412714776
  0
LINE
  5
2BD
100
AcDbEntity
  8
BEZUGSACHSEN
100
AcDbLine
 62
7
  6
CONTINUOUS
 10
94.8297743426
 20
200.3718128378
 11
95.1878136673
 21
199.7989074789
  0
LINE
  5
2BE
100
AcDbEntity
  8
BEZUGSACHSEN
100
AcDbLine
 62
7
  6
CONTINUOUS
 10
95.7893696793
 20
200.3341848073
 11
95.5745460845
 21
200.6779280227
  0
LINE
  5
2BF
100
AcDbEntity
  8
0
100
AcDbLine
 62
7
  6
CONTINUOUS
 10
144.2091950704
 20
102.2605681257
 11
144.0059579443
 21
102.6999059288
  0
LINE
  5
2C0
100
AcDbEntity
  8
0
100
AcDbLine
 62
7
  6
CONTINUOUS
 10
147.0648613737
 20
104.5313554547
 11
146.8616242475
 21
104.9706932579
  0
LINE
  5
2C1
100
AcDbEntity
  8
0
100
AcDbLine
 62
7
  6
CONTINUOUS
 10
149.6548468051
 20
103.0665581306
 11
149.4516096789
 21
103.5058959338
  0
LINE
  5
2C2
100
AcDbEntity
  8
0
100
AcDbLine
 62
7
  6
CONTINUOUS
 10
138.0081997985
 20
90.5438129055
 11
137.9505710505
 21
91.1428107553
  0
LINE
  5
2C3
100
AcDbEntity
  8
0
100
AcDbLine
 62
7
  6
CONTINUOUS
 10
154.932409348
 20
159.9563906445
 11
140.516340548
 21
159.9563906445
  0
LINE
  5
2C4
100
AcDbEntity
  8
BEZUGSACHSEN
100
AcDbLine
 62
7
  6
CONTINUOUS
 10
140.3141368354
 20
161.3041906445
 11
155.2693539205
 21
161.3041906445
  0
LINE
  5
2C5
100
AcDbEntity
  8
BEZUGSACHSEN
100
AcDbLine
 62
7
  6
CONTINUOUS
 10
102.5766250271
 20
163.3258906445
 11
96.375890548
 21
163.3258906445
  0
LINE
  5
2C6
100
AcDbEntity
  8
BEZUGSACHSEN
100
AcDbLine
 62
7
  6
CONTINUOUS
 10
73.592679348
 20
163.3258906445
 11
67.5863325369
 21
163.3258906445
  0
LINE
  5
2C7
100
AcDbEntity
  8
BEZUGSACHSEN
100
AcDbLine
 62
7
  6
CONTINUOUS
 10
86.109382739
 20
193.877027025
 11
91.0539667814
 21
189.89208974
  0
LINE
  5
2C8
100
AcDbEntity
  8
BEZUGSACHSEN
100
AcDbLine
 62
7
  6
CONTINUOUS
 10
99.5465784693
 20
199.8142780285
 11
99.6897941992
 21
199.5851158849
  0
LINE
  5
2C9
100
AcDbEntity
  8
BEZUGSACHSEN
100
AcDbLine
 62
7
  6
CONTINUOUS
 10
100.4345661417
 20
199.8912307488
 11
100.1481344813
 21
200.3495553569
  0
LINE
  5
2CA
100
AcDbEntity
  8
0
100
AcDbLine
 62
7
  6
CONTINUOUS
 10
143.2929047043
 20
102.8340038222
 11
143.4703047587
 21
102.098684573
  0
LINE
  5
2CB
100
AcDbEntity
  8
0
100
AcDbLine
 62
7
  6
CONTINUOUS
 10
141.3173241554
 20
100.9631445493
 11
141.5413062803
 21
99.7488398669
  0
LINE
  5
2CC
100
AcDbEntity
  8
0
100
AcDbLine
 62
7
  6
CONTINUOUS
 10
142.3748669869
 20
99.0606582776
 11
142.1508845701
 21
100.2749632009
  0
LINE
  5
2CD
100
AcDbEntity
  8
BEZUGSACHSEN
100
AcDbLine
 62
7
  6
CONTINUOUS
 10
138.357164948
 20
130.2400962445
 11
138.357164948
 21
159.3471850445
  0
LINE
  5
2CE
100
AcDbEntity
  8
BEZUGSACHSEN
100
AcDbLine
 62
7
  6
CONTINUOUS
 10
138.559334948
 20
131.9651626299
 11
138.559334948
 21
137.2261236642
  0
LINE
  5
2CF
100
AcDbEntity
  8
0
100
AcDbLine
 62
7
  6
CONTINUOUS
 10
138.559334948
 20
137.2261236642
 11
138.559334948
 21
153.0606533097
  0
LINE
  5
2D0
100
AcDbEntity
  8
RUNDUNGEN
100
AcDbLine
 62
7
  6
CONTINUOUS
 10
138.559334948
 20
137.2261236642
 11
138.559334948
 21
157.9993409107
  0
LINE
  5
2D1
100
AcDbEntity
  8
RUNDUNGEN
100
AcDbLine
 62
7
  6
CONTINUOUS
 10
138.626724948
 20
127.1719978177
 11
138.626724948
 21
121.5445906445
  0
LINE
  5
2D2
100
AcDbEntity
  8
0
100
AcDbLine
 62
7
  6
CONTINUOUS
 10
137.2035628009
 20
90.8421945066
 11
137.1904302966
 21
90.3583026041
  0
LINE
  5
2D3
100
AcDbEntity
  8
BEZUGSACHSEN
100
AcDbLine
 62
7
  6
CONTINUOUS
 10
83.7279010725
 20
187.5359689852
 11
84.1898968424
 21
187.2554978782
  0
LINE
  5
2D4
100
AcDbEntity
  8
BEZUGSACHSEN
100
AcDbLine
 62
7
  6
CONTINUOUS
 10
86.4530344332
 20
186.0363536127
 11
86.6840326417
 21
185.8961178628
  0
LINE
  5
2D5
100
AcDbEntity
  8
BEZUGSACHSEN
100
AcDbLine
 62
7
  6
CONTINUOUS
 10
84.5331828796
 20
187.8209632439
 11
84.0711871097
 21
188.1014343508
  0
LINE
  5
2D6
100
AcDbEntity
  8
BEZUGSACHSEN
100
AcDbLine
 62
7
  6
CONTINUOUS
 10
87.0273171075
 20
186.4615806399
 11
86.7963188989
 21
186.6018163899
  0
LINE
  5
2D7
100
AcDbEntity
  8
BEZUGSACHSEN
100
AcDbLine
 62
7
  6
CONTINUOUS
 10
86.8335263774
 20
188.7460585214
 11
86.3715306075
 21
189.0265296284
  0
LINE
  5
2D8
100
AcDbEntity
  8
BEZUGSACHSEN
100
AcDbLine
 62
7
  6
CONTINUOUS
 10
90.710452716
 20
191.1884498619
 11
86.6074998996
 21
194.4951000303
  0
LINE
  5
2D9
100
AcDbEntity
  8
BEZUGSACHSEN
100
AcDbLine
 62
7
  6
CONTINUOUS
 10
91.3137737799
 20
191.7217369776
 11
90.4721422591
 21
192.4000243317
  0
LINE
  5
2DA
100
AcDbEntity
  8
0
100
AcDbLine
 62
7
  6
CONTINUOUS
 10
146.4405073577
 20
104.29779244
 11
146.5292081881
 21
103.9301340989
  0
LINE
  5
2DB
100
AcDbEntity
  8
0
100
AcDbLine
 62
7
  6
CONTINUOUS
 10
148.9861430969
 20
103.0168256202
 11
149.0748424011
 21
102.6491646619
  0
LINE
  5
2DC
100
AcDbEntity
  8
0
100
AcDbLine
 62
7
  6
CONTINUOUS
 10
147.1277251323
 20
103.8677156677
 11
147.0648613737
 21
104.5313554547
  0
LINE
  5
2DD
100
AcDbEntity
  8
0
100
AcDbLine
 62
7
  6
CONTINUOUS
 10
144.0059579443
 20
102.6999059288
 11
143.9874437976
 21
103.1797152619
  0
LINE
  5
2DE
100
AcDbEntity
  8
0
100
AcDbLine
 62
7
  6
CONTINUOUS
 10
132.3469232414
 20
92.9319810154
 11
132.1791371175
 21
92.1944097365
  0
LINE
  5
2DF
100
AcDbEntity
  8
BEZUGSACHSEN
100
AcDbLine
 62
7
  6
CONTINUOUS
 10
86.6840326417
 20
185.8961178628
 11
87.2146859334
 21
185.7287403466
  0
LINE
  5
2E0
100
AcDbEntity
  8
BEZUGSACHSEN
100
AcDbLine
 62
7
  6
CONTINUOUS
 10
84.1898968424
 20
187.2554978782
 11
84.7205502959
 21
187.0881202638
  0
LINE
  5
2E1
100
AcDbEntity
  8
BEZUGSACHSEN
100
AcDbLine
 62
7
  6
CONTINUOUS
 10
96.9565532055
 20
197.7176336902
 11
97.2835703518
 21
197.4440062502
  0
LINE
  5
2E2
100
AcDbEntity
  8
BEZUGSACHSEN
100
AcDbLine
 62
7
  6
CONTINUOUS
 10
100.1481344813
 20
200.3495553569
 11
99.7495094701
 21
200.7377638688
  0
LINE
  5
2E3
100
AcDbEntity
  8
BEZUGSACHSEN
100
AcDbLine
 62
7
  6
CONTINUOUS
 10
99.1241668857
 20
202.7369440095
 11
98.7255418744
 21
203.1251525214
  0
LINE
  5
2E4
100
AcDbEntity
  8
BEZUGSACHSEN
100
AcDbLine
 62
7
  6
CONTINUOUS
 10
103.0003907438
 20
205.4561814045
 11
106.7111679401
 21
200.9450765492
  0
LINE
  5
2E5
100
AcDbEntity
  8
BEZUGSACHSEN
100
AcDbLine
 62
7
  6
CONTINUOUS
 10
107.4524872176
 20
201.2289439026
 11
103.2046967475
 21
206.4025184233
  0
LINE
  5
2E6
100
AcDbEntity
  8
0
100
AcDbLine
 62
7
  6
CONTINUOUS
 10
149.6733609918
 20
102.5867487725
 11
149.6548468051
 21
103.0665581306
  0
LINE
  5
2E7
100
AcDbEntity
  8
0
100
AcDbLine
 62
7
  6
CONTINUOUS
 10
143.344575635
 20
103.4259615803
 11
143.2929047043
 21
102.8340038222
  0
LINE
  5
2E8
100
AcDbEntity
  8
0
100
AcDbLine
 62
7
  6
CONTINUOUS
 10
149.0748424011
 20
102.6491646619
 11
149.0490069357
 21
102.3531857829
  0
LINE
  5
2E9
100
AcDbEntity
  8
0
100
AcDbLine
 62
7
  6
CONTINUOUS
 10
137.8404136993
 20
89.8062415863
 11
138.0081997985
 21
90.5438129055
  0
LINE
  5
2EA
100
AcDbEntity
  8
BEZUGSACHSEN
100
AcDbLine
 62
7
  6
CONTINUOUS
 10
97.8851263638
 20
197.9792835786
 11
97.6297170824
 21
198.1383299469
  0
LINE
  5
2EB
100
AcDbEntity
  8
BEZUGSACHSEN
100
AcDbLine
 62
7
  6
CONTINUOUS
 10
95.1878136673
 20
199.7989074789
 11
95.6986336144
 21
199.4808153843
  0
LINE
  5
2EC
100
AcDbEntity
  8
BEZUGSACHSEN
100
AcDbLine
 62
7
  6
CONTINUOUS
 10
99.219561323
 20
200.0879054685
 11
99.5465784693
 21
199.8142780285
  0
LINE
  5
2ED
100
AcDbEntity
  8
BEZUGSACHSEN
100
AcDbLine
 62
7
  6
CONTINUOUS
 10
98.1239858624
 20
202.5898751929
 11
98.4510030087
 21
202.3162477529
  0
LINE
  5
2EE
100
AcDbEntity
  8
BEZUGSACHSEN
100
AcDbLine
 62
7
  6
CONTINUOUS
 10
156.889414948
 20
137.6989083683
 11
156.889414948
 21
135.4144265655
  0
LINE
  5
2EF
100
AcDbEntity
  8
RUNDUNGEN
100
AcDbLine
 62
7
  6
CONTINUOUS
 10
156.889414948
 20
137.6989083683
 11
156.889414948
 21
157.9993408935
  0
LINE
  5
2F0
100
AcDbEntity
  8
BEZUGSACHSEN
100
AcDbLine
 62
7
  6
CONTINUOUS
 10
157.226364948
 20
159.3471850445
 11
157.226364948
 21
130.2400962445
  0
LINE
  5
2F1
100
AcDbEntity
  8
0
100
AcDbLine
 62
7
  6
CONTINUOUS
 10
149.6216884847
 20
101.9947884286
 11
149.6733609918
 21
102.5867487725
  0
LINE
  5
2F2
100
AcDbEntity
  8
0
100
AcDbLine
 62
7
  6
CONTINUOUS
 10
146.5292081881
 20
103.9301340989
 11
146.3371638898
 21
103.1138743569
  0
LINE
  5
2F3
100
AcDbEntity
  8
0
100
AcDbLine
 62
7
  6
CONTINUOUS
 10
143.9874437976
 20
103.1797152619
 11
144.2238377079
 21
103.8121445499
  0
LINE
  5
2F4
100
AcDbEntity
  8
0
100
AcDbLine
 62
7
  6
CONTINUOUS
 10
143.7213429128
 20
104.2826928522
 11
143.344575635
 21
103.4259615803
  0
LINE
  5
2F5
100
AcDbEntity
  8
0
100
AcDbLine
 62
7
  6
CONTINUOUS
 10
132.9969065698
 20
92.3799201185
 11
133.1935076879
 21
92.8179929094
  0
LINE
  5
2F6
100
AcDbEntity
  8
0
100
AcDbLine
 62
7
  6
CONTINUOUS
 10
137.1904302966
 20
90.3583026041
 11
136.9938292281
 21
89.9202297326
  0
LINE
  5
2F7
100
AcDbEntity
  8
0
100
AcDbLine
 62
7
  6
CONTINUOUS
 10
132.6562330606
 20
93.4393413541
 11
132.3469232414
 21
92.9319810154
  0
LINE
  5
2F8
100
AcDbEntity
  8
BEZUGSACHSEN
100
AcDbLine
 62
7
  6
CONTINUOUS
 10
87.5111289784
 20
186.4774144914
 11
87.0273171075
 21
186.4615806399
  0
LINE
  5
2F9
100
AcDbEntity
  8
BEZUGSACHSEN
100
AcDbLine
 62
7
  6
CONTINUOUS
 10
84.7205502959
 20
187.0881202638
 11
85.2043605954
 21
187.1039515268
  0
LINE
  5
2FA
100
AcDbEntity
  8
BEZUGSACHSEN
100
AcDbLine
 62
7
  6
CONTINUOUS
 10
85.1324922834
 20
187.7666766318
 11
84.5331828796
 21
187.8209632439
  0
LINE
  5
2FB
100
AcDbEntity
  8
BEZUGSACHSEN
100
AcDbLine
 62
7
  6
CONTINUOUS
 10
85.5566131249
 20
191.0689863786
 11
85.8562685316
 21
191.041844416
  0
LINE
  5
2FC
100
AcDbEntity
  8
BEZUGSACHSEN
100
AcDbLine
 62
7
  6
CONTINUOUS
 10
86.1995529974
 20
191.6073071931
 11
85.7844001387
 21
191.7045695701
  0
LINE
  5
2FD
100
AcDbEntity
  8
BEZUGSACHSEN
100
AcDbLine
 62
7
  6
CONTINUOUS
 10
97.2835703518
 20
197.4440062502
 11
97.90658375
 21
197.1960300914
  0
LINE
  5
2FE
100
AcDbEntity
  8
BEZUGSACHSEN
100
AcDbLine
 62
7
  6
CONTINUOUS
 10
96.2285817614
 20
200.1306737845
 11
95.7893696793
 21
200.3341848073
  0
LINE
  5
2FF
100
AcDbEntity
  8
BEZUGSACHSEN
100
AcDbLine
 62
7
  6
CENTER
 10
163.462635548
 20
145.8044906445
 11
163.462635548
 21
140.3573225015
  0
LINE
  5
300
100
AcDbEntity
  8
BEZUGSACHSEN
100
AcDbLine
 62
7
  6
CENTER
 10
163.462635548
 20
145.8044906445
 11
163.462635548
 21
151.2516587875
  0
LINE
  5
301
100
AcDbEntity
  8
0
100
AcDbLine
 62
7
  6
CONTINUOUS
 10
149.4554796618
 20
101.4745075594
 11
149.6216884847
 21
101.9947884286
  0
LINE
  5
302
100
AcDbEntity
  8
0
100
AcDbLine
 62
7
  6
CONTINUOUS
 10
149.0490069357
 20
102.3531857829
 11
148.8126130254
 21
101.7207564949
  0
LINE
  5
303
100
AcDbEntity
  8
0
100
AcDbLine
 62
7
  6
CONTINUOUS
 10
137.5311051886
 20
89.2988820103
 11
137.8404136993
 21
89.8062415863
  0
LINE
  5
304
100
AcDbEntity
  8
0
100
AcDbLine
 62
7
  6
CONTINUOUS
 10
143.861714674
 20
104.5069922692
 11
143.7213429128
 21
104.2826928522
  0
LINE
  5
305
100
AcDbEntity
  8
0
100
AcDbLine
 62
7
  6
CONTINUOUS
 10
144.2238377079
 20
103.8121445499
 11
144.5045828366
 21
104.2607459508
  0
LINE
  5
306
100
AcDbEntity
  8
0
100
AcDbLine
 62
7
  6
CONTINUOUS
 10
143.858263258
 20
101.6998157328
 11
144.2091950704
 21
102.2605681257
  0
LINE
  5
307
100
AcDbEntity
  8
0
100
AcDbLine
 62
7
  6
CONTINUOUS
 10
146.3371638898
 20
103.1138743569
 11
146.0564187611
 21
102.665272956
  0
LINE
  5
308
100
AcDbEntity
  8
0
100
AcDbLine
 62
7
  6
CONTINUOUS
 10
141.8227073934
 20
101.5752905518
 11
141.3173241554
 21
100.9631445493
  0
LINE
  5
309
100
AcDbEntity
  8
0
100
AcDbLine
 62
7
  6
CONTINUOUS
 10
133.1935076879
 20
92.8179929094
 11
133.4608700086
 21
93.1409598336
  0
LINE
  5
30A
100
AcDbEntity
  8
0
100
AcDbLine
 62
7
  6
CONTINUOUS
 10
144.4675545434
 20
105.2203646169
 11
143.861714674
 21
104.5069922692
  0
LINE
  5
30B
100
AcDbEntity
  8
0
100
AcDbLine
 62
7
  6
CONTINUOUS
 10
133.0363027926
 20
93.8315950333
 11
132.6562330606
 21
93.4393413541
  0
LINE
  5
30C
100
AcDbEntity
  8
BEZUGSACHSEN
100
AcDbLine
 62
7
  6
CONTINUOUS
 10
87.2146859334
 20
185.7287403466
 11
87.9513086474
 21
185.900638426
  0
LINE
  5
30D
100
AcDbEntity
  8
BEZUGSACHSEN
100
AcDbLine
 62
7
  6
CONTINUOUS
 10
85.7844001387
 20
191.7045695701
 11
85.3005882678
 21
191.6887357187
  0
LINE
  5
30E
100
AcDbEntity
  8
BEZUGSACHSEN
100
AcDbLine
 62
7
  6
CONTINUOUS
 10
98.2527304807
 20
197.8903537881
 11
97.8851263638
 21
197.9792835786
  0
LINE
  5
30F
100
AcDbEntity
  8
BEZUGSACHSEN
100
AcDbLine
 62
7
  6
CONTINUOUS
 10
95.6986336144
 20
199.4808153843
 11
96.4338405641
 21
199.3029550009
  0
LINE
  5
310
100
AcDbEntity
  8
BEZUGSACHSEN
100
AcDbLine
 62
7
  6
CONTINUOUS
 10
98.7255418744
 20
203.1251525214
 11
98.030920536
 21
203.4877098723
  0
LINE
  5
311
100
AcDbEntity
  8
0
100
AcDbLine
 62
7
  6
CONTINUOUS
 10
146.5145639442
 20
102.3785551078
 11
146.7953090729
 21
102.8271565087
  0
LINE
  5
312
100
AcDbEntity
  8
0
100
AcDbLine
 62
7
  6
CONTINUOUS
 10
147.0024162622
 20
100.3564302809
 11
146.6514860562
 21
99.795680455
  0
LINE
  5
313
100
AcDbEntity
  8
0
100
AcDbLine
 62
7
  6
CONTINUOUS
 10
148.8126130254
 20
101.7207564949
 11
148.3914961356
 21
101.047855677
  0
LINE
  5
314
100
AcDbEntity
  8
0
100
AcDbLine
 62
7
  6
CONTINUOUS
 10
148.8939910109
 20
100.5773073246
 11
149.4554796618
 21
101.4745075594
  0
LINE
  5
315
100
AcDbEntity
  8
BEZUGSACHSEN
100
AcDbLine
 62
7
  6
CONTINUOUS
 10
166.8112091082
 20
129.1250974189
 11
171.5080708261
 21
135.8329111193
  0
LINE
  5
316
100
AcDbEntity
  8
0
100
AcDbLine
 62
7
  6
CONTINUOUS
 10
146.2144921755
 20
96.9200786457
 11
146.7198754135
 21
97.5322246482
  0
LINE
  5
317
100
AcDbEntity
  8
0
100
AcDbLine
 62
7
  6
CONTINUOUS
 10
146.7953090729
 20
102.8271565087
 11
147.3309622585
 21
103.4283778645
  0
LINE
  5
318
100
AcDbEntity
  8
0
100
AcDbLine
 62
7
  6
CONTINUOUS
 10
144.5045828366
 20
104.2607459508
 11
144.9700493384
 21
104.7498163146
  0
LINE
  5
319
100
AcDbEntity
  8
0
100
AcDbLine
 62
7
  6
CONTINUOUS
 10
148.3914961356
 20
101.047855677
 11
147.9260280273
 21
100.5587827463
  0
LINE
  5
31A
100
AcDbEntity
  8
0
100
AcDbLine
 62
7
  6
CONTINUOUS
 10
136.9938292281
 20
89.9202297326
 11
136.6137594961
 21
89.5279760535
  0
LINE
  5
31B
100
AcDbEntity
  8
0
100
AcDbLine
 62
7
  6
CONTINUOUS
 10
147.7077295363
 20
104.2851091364
 11
147.1277251323
 21
103.8677156677
  0
LINE
  5
31C
100
AcDbEntity
  8
0
100
AcDbLine
 62
7
  6
CONTINUOUS
 10
133.5998424283
 20
94.1780303936
 11
133.0363027926
 21
93.8315950333
  0
LINE
  5
31D
100
AcDbEntity
  8
0
100
AcDbLine
 62
7
  6
CONTINUOUS
 10
133.4608700086
 20
93.1409598336
 11
134.1371170556
 21
93.5566819489
  0
LINE
  5
31E
100
AcDbEntity
  8
0
100
AcDbLine
 62
7
  6
CONTINUOUS
 10
144.9773722636
 20
105.5256070937
 11
144.4675545434
 21
105.2203646169
  0
LINE
  5
31F
100
AcDbEntity
  8
0
100
AcDbLine
 62
7
  6
CONTINUOUS
 10
144.9700493384
 20
104.7498163146
 11
145.4096803749
 21
104.9429077994
  0
LINE
  5
320
100
AcDbEntity
  8
0
100
AcDbLine
 62
7
  6
CONTINUOUS
 10
147.3309622585
 20
103.4283778645
 11
147.770593295
 21
103.6214693493
  0
LINE
  5
321
100
AcDbEntity
  8
BEZUGSACHSEN
100
AcDbLine
 62
7
  6
CONTINUOUS
 10
85.188301687
 20
190.9830373881
 11
85.5566131249
 21
191.0689863786
  0
LINE
  5
322
100
AcDbEntity
  8
BEZUGSACHSEN
100
AcDbLine
 62
7
  6
CONTINUOUS
 10
96.7083794298
 20
200.1118597693
 11
96.2285817614
 21
200.1306737845
  0
LINE
  5
323
100
AcDbEntity
  8
BEZUGSACHSEN
100
AcDbLine
 62
7
  6
CONTINUOUS
 10
98.7397636547
 20
200.1067194837
 11
99.219561323
 21
200.0879054685
  0
LINE
  5
324
100
AcDbEntity
  8
BEZUGSACHSEN
100
AcDbLine
 62
7
  6
CONTINUOUS
 10
97.90658375
 20
197.1960300914
 11
98.5701841188
 21
197.1327515821
  0
LINE
  5
325
100
AcDbEntity
  8
BEZUGSACHSEN
100
AcDbLine
 62
7
  6
CONTINUOUS
 10
99.7495094701
 20
200.7377638688
 11
99.0143025203
 21
200.9156242522
  0
LINE
  5
326
100
AcDbEntity
  8
BEZUGSACHSEN
100
AcDbLine
 62
7
  6
CONTINUOUS
 10
97.572580279
 20
202.7232703601
 11
98.1239858624
 21
202.5898751929
  0
LINE
  5
327
100
AcDbEntity
  8
BEZUGSACHSEN
100
AcDbLine
 62
7
  6
CONTINUOUS
 10
172.388024948
 20
157.5151565669
 11
172.388024948
 21
151.6755074445
  0
LINE
  5
328
100
AcDbEntity
  8
BEZUGSACHSEN
100
AcDbLine
 62
7
  6
CONTINUOUS
 10
172.388024948
 20
139.9334738445
 11
172.388024948
 21
138.6237690386
  0
LINE
  5
329
100
AcDbEntity
  8
0
100
AcDbLine
 62
7
  6
CONTINUOUS
 10
148.4987095764
 20
100.200385392
 11
148.8939910109
 21
100.5773073246
  0
LINE
  5
32A
100
AcDbEntity
  8
0
100
AcDbLine
 62
7
  6
CONTINUOUS
 10
137.0383267617
 20
88.8373407732
 11
137.5311051886
 21
89.2988820103
  0
LINE
  5
32B
100
AcDbEntity
  8
0
100
AcDbLine
 62
7
  6
CONTINUOUS
 10
135.1671701158
 20
93.3968747312
 11
135.8434171628
 21
93.8125968465
  0
LINE
  5
32C
100
AcDbEntity
  8
0
100
AcDbLine
 62
7
  6
CONTINUOUS
 10
135.1277740912
 20
91.945199494
 11
134.4515270443
 21
91.5294773787
  0
LINE
  5
32D
100
AcDbEntity
  8
0
100
AcDbLine
 62
7
  6
CONTINUOUS
 10
134.8760942604
 20
90.8388421791
 11
135.5523413073
 21
91.2545642944
  0
LINE
  5
32E
100
AcDbEntity
  8
0
100
AcDbLine
 62
7
  6
CONTINUOUS
 10
134.3151059993
 20
89.2251251572
 11
133.6388589524
 21
88.8094030419
  0
LINE
  5
32F
100
AcDbEntity
  8
0
100
AcDbLine
 62
7
  6
CONTINUOUS
 10
136.6137594961
 20
89.5279760535
 11
135.712096337
 21
88.9736796355
  0
LINE
  5
330
100
AcDbEntity
  8
0
100
AcDbLine
 62
7
  6
CONTINUOUS
 10
136.1366636026
 20
88.2830443552
 11
137.0383267617
 21
88.8373407732
  0
LINE
  5
331
100
AcDbEntity
  8
0
100
AcDbLine
 62
7
  6
CONTINUOUS
 10
147.9260280273
 20
100.5587827463
 11
147.6711199704
 21
100.4061627914
  0
LINE
  5
332
100
AcDbEntity
  8
0
100
AcDbLine
 62
7
  6
CONTINUOUS
 10
147.9888934325
 20
99.895145501
 11
148.4987095764
 21
100.200385392
  0
LINE
  5
333
100
AcDbEntity
  8
0
100
AcDbLine
 62
7
  6
CONTINUOUS
 10
147.5492623559
 20
99.7020540413
 11
147.9888934325
 21
99.895145501
  0
LINE
  5
334
100
AcDbEntity
  8
0
100
AcDbLine
 62
7
  6
CONTINUOUS
 10
130.2786786004
 20
92.2338908317
 11
129.5360032239
 21
91.9535905807
  0
LINE
  5
335
100
AcDbEntity
  8
0
100
AcDbLine
 62
7
  6
CONTINUOUS
 10
126.0701845639
 20
90.6455226539
 11
125.3275091874
 21
90.365222403
  0
LINE
  5
336
100
AcDbEntity
  8
0
100
AcDbLine
 62
7
  6
CONTINUOUS
 10
134.2341419768
 20
94.4093590945
 11
133.5998424283
 21
94.1780303936
  0
LINE
  5
337
100
AcDbEntity
  8
0
100
AcDbLine
 62
7
  6
CONTINUOUS
 10
135.7620749296
 20
92.1765289878
 11
135.1277740912
 21
91.945199494
  0
LINE
  5
338
100
AcDbEntity
  8
0
100
AcDbLine
 62
7
  6
CONTINUOUS
 10
135.5523413073
 20
91.2545642944
 11
136.0739334446
 21
91.4166062403
  0
LINE
  5
339
100
AcDbEntity
  8
0
100
AcDbLine
 62
7
  6
CONTINUOUS
 10
134.354502123
 20
90.6768002332
 11
134.8760942604
 21
90.8388421791
  0
LINE
  5
33A
100
AcDbEntity
  8
0
100
AcDbLine
 62
7
  6
CONTINUOUS
 10
135.712096337
 20
88.9736796355
 11
135.1905041996
 21
88.8116376895
  0
LINE
  5
33B
100
AcDbEntity
  8
BEZUGSACHSEN
100
AcDbLine
 62
7
  6
CONTINUOUS
 10
108.5093881876
 20
201.4061960751
 11
109.2809868175
 21
201.5926645708
  0
LINE
  5
33C
100
AcDbEntity
  8
BEZUGSACHSEN
100
AcDbLine
 62
7
  6
CONTINUOUS
 10
98.6609202841
 20
197.9861208446
 11
98.2527304807
 21
197.8903537881
  0
LINE
  5
33D
100
AcDbEntity
  8
BEZUGSACHSEN
100
AcDbLine
 62
7
  6
CONTINUOUS
 10
98.3315738513
 20
200.0109524272
 11
98.7397636547
 21
200.1067194837
  0
LINE
  5
33E
100
AcDbEntity
  8
BEZUGSACHSEN
100
AcDbLine
 62
7
  6
CONTINUOUS
 10
96.4338405641
 20
199.3029550009
 11
97.0258317839
 21
199.3542567609
  0
LINE
  5
33F
100
AcDbEntity
  8
BEZUGSACHSEN
100
AcDbLine
 62
7
  6
CONTINUOUS
 10
99.0143025203
 20
200.9156242522
 11
98.4223100165
 21
200.8643216897
  0
LINE
  5
340
100
AcDbEntity
  8
BEZUGSACHSEN
100
AcDbLine
 62
7
  6
CONTINUOUS
 10
98.030920536
 20
203.4877098723
 11
97.2551265969
 21
203.4808726363
  0
LINE
  5
341
100
AcDbEntity
  8
BEZUGSACHSEN
100
AcDbLine
 62
7
  6
CONTINUOUS
 10
149.8110707827
 20
196.6491588201
 11
170.9147178792
 21
162.6786890906
  0
LINE
  5
342
100
AcDbEntity
  8
0
100
AcDbLine
 62
7
  6
CONTINUOUS
 10
129.5503791018
 20
85.1712868156
 11
130.5406127011
 21
85.5450203944
  0
LINE
  5
343
100
AcDbEntity
  8
0
100
AcDbLine
 62
7
  6
CONTINUOUS
 10
135.5023640478
 20
88.0517156644
 11
136.1366636026
 21
88.2830443552
  0
LINE
  5
344
100
AcDbEntity
  8
BEZUGSACHSEN
100
AcDbLine
 62
7
  6
CONTINUOUS
 10
107.7892388521
 20
207.7654536102
 11
107.0176402222
 21
207.5789851145
  0
LINE
  5
345
100
AcDbEntity
  8
BEZUGSACHSEN
100
AcDbLine
 62
7
  6
CONTINUOUS
 10
262.4636862929
 20
76.3758906445
 11
267.7850220749
 21
76.9351855724
  0
LINE
  5
346
100
AcDbEntity
  8
AUSFORMSCHRAEGEN
100
AcDbLine
 62
7
  6
CONTINUOUS
 10
262.4636862929
 20
76.3758906445
 11
267.7850220749
 21
76.9351855724
  0
LINE
  5
347
100
AcDbEntity
  8
BEZUGSACHSEN
100
AcDbLine
 62
7
  6
CONTINUOUS
 10
262.4636862929
 20
76.3758906445
 11
257.142350511
 21
76.9351855724
  0
LINE
  5
348
100
AcDbEntity
  8
BEZUGSACHSEN
100
AcDbLine
 62
8
  6
HIDDEN
 10
262.4636862929
 20
99.3058906445
 11
260.7044205775
 21
99.0272503288
  0
LINE
  5
349
100
AcDbEntity
  8
BEZUGSACHSEN
100
AcDbLine
 62
8
  6
HIDDEN
 10
262.4636862929
 20
99.3058906445
 11
264.2229520084
 21
99.0272503288
  0
LINE
  5
34A
100
AcDbEntity
  8
BEZUGSACHSEN
100
AcDbLine
 62
7
  6
CONTINUOUS
 10
250.6521437202
 20
166.4469288826
 11
249.7600735019
 21
165.5548586643
  0
LINE
  5
34B
100
AcDbEntity
  8
BEZUGSACHSEN
100
AcDbLine
 62
7
  6
CONTINUOUS
 10
249.760107149
 20
126.0540889776
 11
250.6521355756
 21
125.1620605509
  0
LINE
  5
34C
100
AcDbEntity
  8
BEZUGSACHSEN
100
AcDbLine
 62
7
  6
CONTINUOUS
 10
249.5588342225
 20
126.2711905329
 11
249.5744033905
 21
126.2531791253
  0
LINE
  5
34D
100
AcDbEntity
  8
RUNDUNGEN
100
AcDbLine
 62
7
  6
CONTINUOUS
 10
248.6136862929
 20
155.8447624157
 11
248.6136862929
 21
153.7296889
  0
LINE
  5
34E
100
AcDbEntity
  8
BEZUGSACHSEN
100
AcDbLine
 62
7
  6
CONTINUOUS
 10
248.6136862929
 20
128.821746356
 11
248.6136862929
 21
162.7872349105
  0
LINE
  5
34F
100
AcDbEntity
  8
BEZUGSACHSEN
100
AcDbLine
 62
7
  6
CONTINUOUS
 10
254.4184590061
 20
187.5826132913
 11
251.7604407348
 21
168.6698305622
  0
LINE
  5
350
100
AcDbEntity
  8
BEZUGSACHSEN
100
AcDbLine
 62
7
  6
CONTINUOUS
 10
251.7604405695
 20
122.9391519034
 11
254.4184586229
 21
104.0263707244
  0
LWPOLYLINE
  5
351
100
AcDbEntity
  8
BEZUGSACHSEN
100
AcDbPolyline
 62
7
  6
CONTINUOUS
 90
3
 70
0
 10
254.5136862929
 20
163.5566274663
 10
254.5198901662
 20
163.4009398838
 10
254.5369165882
 20
163.2560186041
  0
LINE
  5
352
100
AcDbEntity
  8
BEZUGSACHSEN
100
AcDbLine
 62
7
  6
CONTINUOUS
 10
254.5136862929
 20
102.6645521868
 11
254.5136862929
 21
79.8546129503
  0
LINE
  5
353
100
AcDbEntity
  8
BEZUGSACHSEN
100
AcDbLine
 62
7
  6
CONTINUOUS
 10
254.5136862929
 20
163.5563662243
 11
254.5136862929
 21
211.7543683387
  0
LINE
  5
354
100
AcDbEntity
  8
T_STARTBEZUEGE
100
AcDbLine
 62
7
  6
CENTER
 10
262.4636862929
 20
218.2330906445
 11
262.4636862929
 21
73.3758906445
  0
LINE
  5
355
100
AcDbEntity
  8
BEZUGSACHSEN
100
AcDbLine
 62
7
  6
CONTINUOUS
 10
262.4636862929
 20
215.2330906445
 11
262.4636862929
 21
171.6127718004
  0
LINE
  5
356
100
AcDbEntity
  8
T_STARTBEZUEGE
100
AcDbLine
 62
7
  6
CENTER
 10
280.5799072184
 20
145.8044906445
 11
245.5748236201
 21
145.8044906445
  0
LINE
  5
357
100
AcDbEntity
  8
BEZUGSACHSEN
100
AcDbLine
 62
7
  6
CONTINUOUS
 10
270.4136862929
 20
211.7543683387
 11
270.4136862929
 21
163.5563665579
  0
LINE
  5
358
100
AcDbEntity
  8
RUNDUNGEN
100
AcDbLine
 62
7
  6
CONTINUOUS
 10
270.4136862929
 20
102.6645521868
 11
270.4136862929
 21
79.8546129503
  0
LWPOLYLINE
  5
359
100
AcDbEntity
  8
BEZUGSACHSEN
100
AcDbPolyline
 62
7
  6
CONTINUOUS
 90
3
 70
0
 10
270.3904557586
 20
163.2560119425
 10
270.4074823352
 20
163.4009352415
 10
270.4136862929
 20
163.5566255384
  0
LINE
  5
35A
100
AcDbEntity
  8
BEZUGSACHSEN
100
AcDbLine
 62
7
  6
CONTINUOUS
 10
276.3136862929
 20
162.7872349105
 11
276.3136862929
 21
155.8447624157
  0
LINE
  5
35B
100
AcDbEntity
  8
RUNDUNGEN
100
AcDbLine
 62
7
  6
CONTINUOUS
 10
276.3136862929
 20
155.8447624157
 11
276.3136862929
 21
128.821746356
  0
LINE
  5
35C
100
AcDbEntity
  8
RUNDUNGEN
100
AcDbLine
 62
7
  6
CONTINUOUS
 10
273.1669320164
 20
122.9391519034
 11
270.5089139629
 21
104.0263707244
  0
LINE
  5
35D
100
AcDbEntity
  8
BEZUGSACHSEN
100
AcDbLine
 62
7
  6
CONTINUOUS
 10
270.5089135797
 20
187.5826132913
 11
273.166931851
 21
168.6698305622
  0
LINE
  5
35E
100
AcDbEntity
  8
RUNDUNGEN
100
AcDbLine
 62
7
  6
CONTINUOUS
 10
275.3565209652
 20
126.257275822
 11
275.3685407068
 21
126.2711932615
  0
LINE
  5
35F
100
AcDbEntity
  8
RUNDUNGEN
100
AcDbLine
 62
7
  6
CONTINUOUS
 10
275.1672654369
 20
126.0540889776
 11
274.2752370102
 21
125.1620605509
  0
LINE
  5
360
100
AcDbEntity
  8
BEZUGSACHSEN
100
AcDbLine
 62
7
  6
CONTINUOUS
 10
274.2752288656
 20
166.4469288826
 11
275.1672990839
 21
165.5548586643
  0
LINE
  5
361
100
AcDbEntity
  8
BEZUGSACHSEN
100
AcDbLine
 62
7
  6
CONTINUOUS
 10
275.3529691954
 20
165.3558021636
 11
275.3641789514
 21
165.3428217652
  0
LINE
  5
362
100
AcDbEntity
  8
BEZUGSACHSEN
100
AcDbLine
 62
8
  6
HIDDEN
 10
262.4636862929
 20
192.7330906445
 11
264.2229520084
 21
193.0117309602
  0
LINE
  5
363
100
AcDbEntity
  8
BEZUGSACHSEN
100
AcDbLine
 62
8
  6
HIDDEN
 10
262.4636862929
 20
192.7330906445
 11
260.7044205775
 21
193.0117309602
  0
LINE
  5
364
100
AcDbEntity
  8
BEZUGSACHSEN
100
AcDbLine
 62
7
  6
CONTINUOUS
 10
262.4636862929
 20
215.2330906445
 11
257.142350511
 21
214.6737957165
  0
LINE
  5
365
100
AcDbEntity
  8
BEZUGSACHSEN
100
AcDbLine
 62
7
  6
CONTINUOUS
 10
262.4636862929
 20
215.2330906445
 11
267.7850220749
 21
214.6737957165
  0
ARC
  5
366
100
AcDbEntity
  8
BEZUGSACHSEN
100
AcDbCircle
 62
7
  6
CONTINUOUS
 10
94.772996948
 20
131.7123787938
 40
9.785028
100
AcDbArc
 50
324.2528030188
 51
360.0
  0
ARC
  5
367
100
AcDbEntity
  8
BEZUGSACHSEN
100
AcDbCircle
 62
7
  6
CONTINUOUS
 10
70.173052948
 20
133.7089635741
 40
9.785028
100
AcDbArc
 50
180.0
 51
211.85
  0
CIRCLE
  5
368
100
AcDbEntity
  8
BEZUGSACHSEN
100
AcDbCircle
 62
7
  6
CONTINUOUS
 10
69.313414348
 20
145.8044906445
 40
2.447168143
  0
ARC
  5
369
100
AcDbEntity
  8
BEZUGSACHSEN
100
AcDbCircle
 62
7
  6
CONTINUOUS
 10
92.259709348
 20
133.6095962445
 40
1.9570056
100
AcDbArc
 50
270.0
 51
360.0
  0
ARC
  5
36A
100
AcDbEntity
  8
BEZUGSACHSEN
100
AcDbCircle
 62
7
  6
CONTINUOUS
 10
77.843640548
 20
133.6095962445
 40
1.9570056
100
AcDbArc
 50
180.0
 51
270.0
  0
ARC
  5
36B
100
AcDbEntity
  8
RUNDUNGEN
100
AcDbCircle
 62
7
  6
CONTINUOUS
 10
77.506690548
 20
132.2617962445
 40
1.9570056
100
AcDbArc
 50
180.0
 51
270.0003143616
  0
ARC
  5
36C
100
AcDbEntity
  8
RUNDUNGEN
100
AcDbCircle
 62
7
  6
CONTINUOUS
 10
92.461879348
 20
132.2617962445
 40
1.9570056
100
AcDbArc
 50
270.0010222255
 51
360.0
  0
ARC
  5
36D
100
AcDbEntity
  8
BEZUGSACHSEN
100
AcDbCircle
 62
7
  6
CONTINUOUS
 10
92.461879348
 20
132.2617962445
 40
1.9570056
100
AcDbArc
 50
270.0010222255
 51
308.6248123973
  0
ARC
  5
36E
100
AcDbEntity
  8
BEZUGSACHSEN
100
AcDbCircle
 62
7
  6
CONTINUOUS
 10
69.9085720548
 20
161.9780906445
 40
8.3178436932
100
AcDbArc
 50
315.9475377101
 51
68.763761634
  0
ARC
  5
36F
100
AcDbEntity
  8
BEZUGSACHSEN
100
AcDbCircle
 62
7
  6
CONTINUOUS
 10
102.2003042412
 20
161.9780906445
 40
8.3178436932
100
AcDbArc
 50
167.5279813677
 51
196.2980635084
  0
ARC
  5
370
100
AcDbEntity
  8
BEZUGSACHSEN
100
AcDbCircle
 62
7
  6
CONTINUOUS
 10
65.2525606654
 20
152.9855832243
 40
4.8645357316
100
AcDbArc
 50
144.9956305717
 51
180.0043694283
  0
ARC
  5
371
100
AcDbEntity
  8
BEZUGSACHSEN
100
AcDbCircle
 62
7
  6
CONTINUOUS
 10
73.7873319084
 20
171.9549544811
 40
2.3864797876
100
AcDbArc
 50
248.4031419792
 51
248.7179510333
  0
ARC
  5
372
100
AcDbEntity
  8
RUNDUNGEN
100
AcDbCircle
 62
7
  6
CONTINUOUS
 10
73.592679348
 20
161.3688850445
 40
1.9570056
100
AcDbArc
 50
0.0
 51
90.0
  0
ARC
  5
373
100
AcDbEntity
  8
RUNDUNGEN
100
AcDbCircle
 62
7
  6
CONTINUOUS
 10
96.375890548
 20
161.3688850445
 40
1.9570056
100
AcDbArc
 50
90.0
 51
180.0
  0
ARC
  5
374
100
AcDbEntity
  8
RUNDUNGEN
100
AcDbCircle
 62
7
  6
CONTINUOUS
 10
116.388024948
 20
121.5445906445
 40
45.1687
100
AcDbArc
 50
270.0
 51
357.8140273157
  0
ARC
  5
375
100
AcDbEntity
  8
BEZUGSACHSEN
100
AcDbCircle
 62
7
  6
CONTINUOUS
 10
116.388024948
 20
116.1533906445
 40
39.7775
100
AcDbArc
 50
211.85
 51
270.0
  0
ARC
  5
376
100
AcDbEntity
  8
BEZUGSACHSEN
100
AcDbCircle
 62
7
  6
CONTINUOUS
 10
116.388024948
 20
121.5445906445
 40
22.2387
100
AcDbArc
 50
270.0
 51
360.0
  0
ARC
  5
377
100
AcDbEntity
  8
BEZUGSACHSEN
100
AcDbCircle
 62
7
  6
CONTINUOUS
 10
116.388024948
 20
116.1533906445
 40
16.8475
100
AcDbArc
 50
144.2528030188
 51
270.0
  0
ARC
  5
378
100
AcDbEntity
  8
BEZUGSACHSEN
100
AcDbCircle
 62
7
  6
CONTINUOUS
 10
162.8674778412
 20
129.6308906445
 40
8.3178436932
100
AcDbArc
 50
135.9475377101
 51
251.2089475682
  0
ARC
  5
379
100
AcDbEntity
  8
BEZUGSACHSEN
100
AcDbCircle
 62
7
  6
CONTINUOUS
 10
130.5757456548
 20
129.6308906445
 40
8.3178436932
100
AcDbArc
 50
347.5279813677
 51
16.2980635084
  0
ARC
  5
37A
100
AcDbEntity
  8
RUNDUNGEN
100
AcDbCircle
 62
7
  6
CONTINUOUS
 10
130.5757456548
 20
129.6308906445
 40
8.3178436932
100
AcDbArc
 50
347.5279813677
 51
16.2980635084
  0
ARC
  5
37B
100
AcDbEntity
  8
BEZUGSACHSEN
100
AcDbCircle
 62
7
  6
CONTINUOUS
 10
167.5234892306
 20
138.6233980647
 40
4.8645357316
100
AcDbArc
 50
324.9956305717
 51
0.0043694283
  0
CIRCLE
  5
37C
100
AcDbEntity
  8
BEZUGSACHSEN
100
AcDbCircle
 62
7
  6
CONTINUOUS
 10
163.462635548
 20
145.8044906445
 40
2.447168143
  0
ARC
  5
37D
100
AcDbEntity
  8
BEZUGSACHSEN
100
AcDbCircle
 62
7
  6
CONTINUOUS
 10
159.183370548
 20
130.2400962445
 40
1.9570056
100
AcDbArc
 50
180.0
 51
270.0
  0
ARC
  5
37E
100
AcDbEntity
  8
BEZUGSACHSEN
100
AcDbCircle
 62
7
  6
CONTINUOUS
 10
136.400159348
 20
130.2400962445
 40
1.9570056
100
AcDbArc
 50
270.0
 51
360.0
  0
ARC
  5
37F
100
AcDbEntity
  8
BEZUGSACHSEN
100
AcDbCircle
 62
7
  6
CONTINUOUS
 10
116.388024948
 20
170.4943906445
 40
44.7387
100
AcDbArc
 50
90.0
 51
178.5675668759
  0
ARC
  5
380
100
AcDbEntity
  8
BEZUGSACHSEN
100
AcDbCircle
 62
7
  6
CONTINUOUS
 10
116.388024948
 20
175.8855906445
 40
39.3475
100
AcDbArc
 50
31.85
 51
90.0
  0
ARC
  5
381
100
AcDbEntity
  8
BEZUGSACHSEN
100
AcDbCircle
 62
7
  6
CONTINUOUS
 10
116.388024948
 20
170.4943906445
 40
22.2387
100
AcDbArc
 50
90.0
 51
180.0
  0
ARC
  5
382
100
AcDbEntity
  8
BEZUGSACHSEN
100
AcDbCircle
 62
7
  6
CONTINUOUS
 10
116.388024948
 20
175.8855906445
 40
16.8475
100
AcDbArc
 50
324.2528030188
 51
90.0
  0
ARC
  5
383
100
AcDbEntity
  8
BEZUGSACHSEN
100
AcDbCircle
 62
7
  6
CONTINUOUS
 10
162.602996948
 20
157.5151565669
 40
9.785028
100
AcDbArc
 50
0.0
 51
31.85
  0
ARC
  5
384
100
AcDbEntity
  8
BEZUGSACHSEN
100
AcDbCircle
 62
7
  6
CONTINUOUS
 10
138.003052948
 20
160.3266024952
 40
9.785028
100
AcDbArc
 50
144.2528030188
 51
180.0
  0
ARC
  5
385
100
AcDbEntity
  8
RUNDUNGEN
100
AcDbCircle
 62
7
  6
CONTINUOUS
 10
140.516340548
 20
157.9993850445
 40
1.9570056
100
AcDbArc
 50
90.0
 51
180.0
  0
ARC
  5
386
100
AcDbEntity
  8
RUNDUNGEN
100
AcDbCircle
 62
7
  6
CONTINUOUS
 10
154.932409348
 20
157.9993850445
 40
1.9570056
100
AcDbArc
 50
0.0
 51
90.0
  0
ARC
  5
387
100
AcDbEntity
  8
BEZUGSACHSEN
100
AcDbCircle
 62
7
  6
CONTINUOUS
 10
140.314170548
 20
159.3471850445
 40
1.9570056
100
AcDbArc
 50
90.0009870129
 51
180.0
  0
ARC
  5
388
100
AcDbEntity
  8
BEZUGSACHSEN
100
AcDbCircle
 62
7
  6
CONTINUOUS
 10
155.269359348
 20
159.3471850445
 40
1.9570056
100
AcDbArc
 50
0.0
 51
90.0001589031
  0
ARC
  5
389
100
AcDbEntity
  8
BEZUGSACHSEN
100
AcDbCircle
 62
7
  6
CONTINUOUS
 10
244.7286582929
 20
102.6645548317
 40
9.785028
100
AcDbArc
 50
359.9999845129
 51
8.0000189395
  0
ARC
  5
38A
100
AcDbEntity
  8
BEZUGSACHSEN
100
AcDbCircle
 62
8
  6
HIDDEN
 10
261.8524572929
 20
91.7788317778
 40
7.338771
100
AcDbArc
 50
99.0
 51
180.0
  0
ARC
  5
38B
100
AcDbEntity
  8
BEZUGSACHSEN
100
AcDbCircle
 62
7
  6
CONTINUOUS
 10
247.8845200417
 20
122.3944283626
 40
3.9140112
100
AcDbArc
 50
7.9999773075
 51
45.0001723907
  0
ARC
  5
38C
100
AcDbEntity
  8
BEZUGSACHSEN
100
AcDbCircle
 62
7
  6
CONTINUOUS
 10
252.5276974929
 20
128.821746356
 40
3.9140112
100
AcDbArc
 50
180.0
 51
224.9999975948
  0
ARC
  5
38D
100
AcDbEntity
  8
BEZUGSACHSEN
100
AcDbCircle
 62
7
  6
CONTINUOUS
 10
257.4491946929
 20
79.8546129503
 40
2.9355084
100
AcDbArc
 50
180.0
 51
264.0
  0
ARC
  5
38E
100
AcDbEntity
  8
BEZUGSACHSEN
100
AcDbCircle
 62
7
  6
CONTINUOUS
 10
251.4202122045
 20
127.8585336445
 40
2.446257
100
AcDbArc
 50
220.6885598457
 51
221.0144488482
  0
ARC
  5
38F
100
AcDbEntity
  8
BEZUGSACHSEN
100
AcDbCircle
 62
7
  6
CONTINUOUS
 10
244.7286582929
 20
188.9444264573
 40
9.785028
100
AcDbArc
 50
351.9999971836
 51
0.0000154875
  0
ARC
  5
390
100
AcDbEntity
  8
BEZUGSACHSEN
100
AcDbCircle
 62
7
  6
CONTINUOUS
 10
246.3178201997
 20
161.9780906445
 40
8.3178436932
100
AcDbArc
 50
356.4990275492
 51
8.8690729808
  0
ARC
  5
391
100
AcDbEntity
  8
BEZUGSACHSEN
100
AcDbCircle
 62
8
  6
HIDDEN
 10
261.8524572929
 20
200.2601495112
 40
7.338771
100
AcDbArc
 50
180.0
 51
261.0
  0
ARC
  5
392
100
AcDbEntity
  8
BEZUGSACHSEN
100
AcDbCircle
 62
7
  6
CONTINUOUS
 10
252.5276974929
 20
162.787234933
 40
3.9140112
100
AcDbArc
 50
135.0000026882
 51
180.000000329
  0
ARC
  5
393
100
AcDbEntity
  8
BEZUGSACHSEN
100
AcDbCircle
 62
7
  6
CONTINUOUS
 10
247.8845200417
 20
169.2145529264
 40
3.9140112
100
AcDbArc
 50
314.9999962195
 51
352.000040086
  0
ARC
  5
394
100
AcDbEntity
  8
BEZUGSACHSEN
100
AcDbCircle
 62
7
  6
CONTINUOUS
 10
257.4491946929
 20
211.7543683387
 40
2.9355084
100
AcDbArc
 50
96.0
 51
180.0
  0
ARC
  5
395
100
AcDbEntity
  8
BEZUGSACHSEN
100
AcDbCircle
 62
7
  6
CONTINUOUS
 10
251.4202122045
 20
163.7504476445
 40
2.446257
100
AcDbArc
 50
138.9855511518
 51
152.7817076912
  0
ARC
  5
396
100
AcDbEntity
  8
RUNDUNGEN
100
AcDbCircle
 62
7
  6
CONTINUOUS
 10
250.5706918929
 20
155.8447624157
 40
1.9570056
100
AcDbArc
 50
139.8283635656
 51
180.0
  0
ARC
  5
397
100
AcDbEntity
  8
RUNDUNGEN
100
AcDbCircle
 62
7
  6
CONTINUOUS
 10
280.1987142929
 20
102.6645548317
 40
9.785028
100
AcDbArc
 50
171.9999810605
 51
180.0000154871
  0
ARC
  5
398
100
AcDbEntity
  8
RUNDUNGEN
100
AcDbCircle
 62
8
  6
HIDDEN
 10
263.0749152929
 20
91.7788317778
 40
7.338771
100
AcDbArc
 50
0.0
 51
81.0
  0
ARC
  5
399
100
AcDbEntity
  8
RUNDUNGEN
100
AcDbCircle
 62
7
  6
CONTINUOUS
 10
277.0428525442
 20
122.3944283626
 40
3.9140112
100
AcDbArc
 50
134.9998276093
 51
172.0000226925
  0
ARC
  5
39A
100
AcDbEntity
  8
RUNDUNGEN
100
AcDbCircle
 62
7
  6
CONTINUOUS
 10
272.3996750929
 20
128.821746356
 40
3.9140112
100
AcDbArc
 50
315.0000024052
 51
359.9983354172
  0
ARC
  5
39B
100
AcDbEntity
  8
RUNDUNGEN
100
AcDbCircle
 62
7
  6
CONTINUOUS
 10
267.4781778929
 20
79.8546129503
 40
2.9355084
100
AcDbArc
 50
276.0
 51
360.0
  0
ARC
  5
39C
100
AcDbEntity
  8
RUNDUNGEN
100
AcDbCircle
 62
7
  6
CONTINUOUS
 10
273.5071605318
 20
127.858533694
 40
2.4462569725
100
AcDbArc
 50
318.9855479634
 51
319.311336579
  0
ARC
  5
39D
100
AcDbEntity
  8
RUNDUNGEN
100
AcDbCircle
 62
7
  6
CONTINUOUS
 10
262.4636862929
 20
145.8044906445
 40
17.5214
100
AcDbArc
 50
40.1716364344
 51
139.8283635656
  0
CIRCLE
  5
39E
100
AcDbEntity
  8
0
100
AcDbCircle
 62
7
  6
CONTINUOUS
 10
262.4636862929
 20
145.8044906445
 40
5.8710168
  0
ARC
  5
39F
100
AcDbEntity
  8
BEZUGSACHSEN
100
AcDbCircle
 62
8
  6
HIDDEN
 10
263.0749152929
 20
200.2601495112
 40
7.338771
100
AcDbArc
 50
279.0
 51
360.0
  0
ARC
  5
3A0
100
AcDbEntity
  8
BEZUGSACHSEN
100
AcDbCircle
 62
7
  6
CONTINUOUS
 10
267.4781778929
 20
211.7543683387
 40
2.9355084
100
AcDbArc
 50
0.0
 51
84.0
  0
ARC
  5
3A1
100
AcDbEntity
  8
BEZUGSACHSEN
100
AcDbCircle
 62
7
  6
CONTINUOUS
 10
278.6095523861
 20
161.9780906445
 40
8.3178436932
100
AcDbArc
 50
171.1318362513
 51
183.5122388913
  0
ARC
  5
3A2
100
AcDbEntity
  8
BEZUGSACHSEN
100
AcDbCircle
 62
7
  6
CONTINUOUS
 10
272.3996750929
 20
162.787234933
 40
3.9140112
100
AcDbArc
 50
359.999999671
 51
44.9999973118
  0
ARC
  5
3A3
100
AcDbEntity
  8
BEZUGSACHSEN
100
AcDbCircle
 62
7
  6
CONTINUOUS
 10
277.0428525442
 20
169.2145529264
 40
3.9140112
100
AcDbArc
 50
187.999959914
 51
225.0000037805
  0
ARC
  5
3A4
100
AcDbEntity
  8
BEZUGSACHSEN
100
AcDbCircle
 62
7
  6
CONTINUOUS
 10
273.5071603813
 20
163.7504476445
 40
2.446257
100
AcDbArc
 50
27.2182923088
 51
41.0144488482
  0
ARC
  5
3A5
100
AcDbEntity
  8
RUNDUNGEN
100
AcDbCircle
 62
7
  6
CONTINUOUS
 10
274.3566806929
 20
155.8447624157
 40
1.9570056
100
AcDbArc
 50
359.9999182161
 51
40.1716364344
  0
ARC
  5
3A6
100
AcDbEntity
  8
BEZUGSACHSEN
100
AcDbCircle
 62
7
  6
CONTINUOUS
 10
280.1987142929
 20
188.9444264573
 40
9.785028
100
AcDbArc
 50
181.5036679231
 51
188.0000028164
  0
SPLINE
  5
3A7
100
AcDbEntity
  8
BEZUGSACHSEN
100
AcDbSpline
 62
7
  6
CONTINUOUS
 70
0
 71
3
 72
8
 73
4
 74
0
 42
0.0000001
 43
0.0000001
 44
0.0000000001
 40
0.0
 40
0.0
 40
0.0
 40
0.0
 40
1.0
 40
1.0
 40
1.0
 40
1.0
 10
94.0787501632
 20
163.7744350511
 30
0.0
 10
94.126874085
 20
163.9912575598
 30
0.0
 10
94.149325022
 20
164.214884592
 30
0.0
 10
94.149324948
 20
164.4369834712
 30
0.0
  0
SPLINE
  5
3A8
100
AcDbEntity
  8
BEZUGSACHSEN
100
AcDbSpline
 62
7
  6
CONTINUOUS
 70
0
 71
3
 72
11
 73
7
 74
0
 42
0.0000001
 43
0.0000001
 44
0.0000000001
 40
0.0
 40
0.0
 40
0.0
 40
0.0
 40
0.2500104169
 40
0.5000108951
 40
0.75000483
 40
1.0
 40
1.0
 40
1.0
 40
1.0
 10
72.9096800848
 20
169.7357137818
 30
0.0
 10
72.7245281844
 20
169.8090235605
 30
0.0
 10
72.3742502913
 20
170.0132775822
 30
0.0
 10
71.9659682207
 20
170.4615452274
 30
0.0
 10
71.7102372118
 20
171.0113844921
 30
0.0
 10
71.6583280806
 20
171.4137091586
 30
0.0
 10
71.6633058177
 20
171.6127718004
 30
0.0
  0
SPLINE
  5
3A9
100
AcDbEntity
  8
BEZUGSACHSEN
100
AcDbSpline
 62
7
  6
CONTINUOUS
 70
0
 71
3
 72
11
 73
7
 74
0
 42
0.0000001
 43
0.0000001
 44
0.0000000001
 40
0.0
 40
0.0
 40
0.0
 40
0.0
 40
0.2500139657
 40
0.500003507
 40
0.7499908108
 40
1.0
 40
1.0
 40
1.0
 40
1.0
 10
165.1897173592
 20
128.2830910397
 30
0.0
 10
165.3476036625
 20
128.2830910685
 30
0.0
 10
165.6646504501
 20
128.3210846397
 30
0.0
 10
166.1121956968
 20
128.4890044399
 30
0.0
 10
166.5072846039
 20
128.7581125787
 30
0.0
 10
166.7206508934
 20
128.9957670589
 30
0.0
 10
166.8112091082
 20
129.1250974189
 30
0.0
  0
SPLINE
  5
3AA
100
AcDbEntity
  8
BEZUGSACHSEN
100
AcDbSpline
 62
7
  6
CONTINUOUS
 70
0
 71
3
 72
15
 73
11
 74
0
 42
0.0000001
 43
0.0000001
 44
0.0000000001
 40
0.0
 40
0.0
 40
0.0
 40
0.0
 40
0.1250047634
 40
0.2500010335
 40
0.3750036573
 40
0.5000036904
 40
0.6250030325
 40
0.7500039506
 40
0.8749974339
 40
1.0
 40
1.0
 40
1.0
 40
1.0
 10
130.199424869
 20
128.2830932448
 30
0.0
 10
130.0706559474
 20
128.2830930974
 30
0.0
 10
129.8124327799
 20
128.3081037348
 30
0.0
 10
129.4400900114
 20
128.4193541055
 30
0.0
 10
129.0960296276
 20
128.6003452506
 30
0.0
 10
128.7935764304
 20
128.8445875735
 30
0.0
 10
128.544463421
 20
129.1430786062
 30
0.0
 10
128.358701348
 20
129.4846822009
 30
0.0
 10
128.243921996
 20
129.8560788418
 30
0.0
 10
128.2180249671
 20
130.1143407115
 30
0.0
 10
128.218024948
 20
130.2431073697
 30
0.0
  0
SPLINE
  5
3AB
100
AcDbEntity
  8
RUNDUNGEN
100
AcDbSpline
 62
7
  6
CONTINUOUS
 70
0
 71
3
 72
15
 73
11
 74
0
 42
0.0000001
 43
0.0000001
 44
0.0000000001
 40
0.0
 40
0.0
 40
0.0
 40
0.0
 40
0.1250047634
 40
0.2500010335
 40
0.3750036573
 40
0.5000036904
 40
0.6250030324
 40
0.7500039506
 40
0.8749974339
 40
1.0
 40
1.0
 40
1.0
 40
1.0
 10
102.5766250271
 20
163.3258880445
 30
0.0
 10
102.7053939488
 20
163.325888192
 30
0.0
 10
102.9636171172
 20
163.3008775604
 30
0.0
 10
103.3359598857
 20
163.1896271865
 30
0.0
 10
103.6800202699
 20
163.0086360418
 30
0.0
 10
103.982473467
 20
162.7643937179
 30
0.0
 10
104.2315864762
 20
162.4659026845
 30
0.0
 10
104.4173485489
 20
162.1242990892
 30
0.0
 10
104.5321279005
 20
161.7529024476
 30
0.0
 10
104.5580249291
 20
161.4946405777
 30
0.0
 10
104.558024948
 20
161.3658739193
 30
0.0
  0
SPLINE
  5
3AC
100
AcDbEntity
  8
RUNDUNGEN
100
AcDbSpline
 62
7
  6
CONTINUOUS
 70
0
 71
3
 72
11
 73
7
 74
0
 42
0.0000001
 43
0.0000001
 44
0.0000000001
 40
0.0
 40
0.0
 40
0.0
 40
0.0
 40
0.2500139657
 40
0.500003507
 40
0.7499908108
 40
1.0
 40
1.0
 40
1.0
 40
1.0
 10
67.5863325369
 20
163.3258902503
 30
0.0
 10
67.4284462335
 20
163.3258902215
 30
0.0
 10
67.1113994459
 20
163.2878966494
 30
0.0
 10
66.6638541992
 20
163.1199768495
 30
0.0
 10
66.2687652922
 20
162.8508687103
 30
0.0
 10
66.0553990027
 20
162.6132142301
 30
0.0
 10
65.9648407878
 20
162.4838838701
 30
0.0
  0
SPLINE
  5
3AD
100
AcDbEntity
  8
RUNDUNGEN
100
AcDbSpline
 62
7
  6
CONTINUOUS
 70
0
 71
3
 72
11
 73
7
 74
0
 42
0.0000001
 43
0.0000001
 44
0.0000000001
 40
0.0
 40
0.0
 40
0.0
 40
0.0
 40
0.2500129568
 40
0.5000131449
 40
0.7500058437
 40
1.0
 40
1.0
 40
1.0
 40
1.0
 10
160.1881518454
 20
121.7563915549
 30
0.0
 10
160.3860927471
 20
121.68904265
 30
0.0
 10
160.7631348017
 20
121.4896332296
 30
0.0
 10
161.2045328647
 20
121.0295137808
 30
0.0
 10
161.4794991336
 20
120.4541491574
 30
0.0
 10
161.5318295511
 20
120.0306304297
 30
0.0
 10
161.5238549929
 20
119.8217134427
 30
0.0
  0
SPLINE
  5
3AE
100
AcDbEntity
  8
RUNDUNGEN
100
AcDbSpline
 62
7
  6
CONTINUOUS
 70
0
 71
3
 72
8
 73
4
 74
0
 42
0.0000001
 43
0.0000001
 44
0.0000000001
 40
0.0
 40
0.0
 40
0.0
 40
0.0
 40
1.0
 40
1.0
 40
1.0
 40
1.0
 10
138.6972997469
 20
127.8345462346
 30
0.0
 10
138.6491701751
 20
127.6177249806
 30
0.0
 10
138.626724873
 20
127.3940966963
 30
0.0
 10
138.626724948
 20
127.1719978177
 30
0.0
  0
SPLINE
  5
3AF
100
AcDbEntity
  8
BEZUGSACHSEN
100
AcDbSpline
 62
7
  6
CONTINUOUS
 70
0
 71
3
 72
13
 73
9
 74
0
 42
0.0000001
 43
0.0000001
 44
0.0000000001
 40
0.0
 40
0.0
 40
0.0
 40
0.0
 40
0.0698063866
 40
0.160476021
 40
0.2699363088
 40
0.3957094861
 40
0.6843761311
 40
1.0
 40
1.0
 40
1.0
 40
1.0
 10
262.4650943512
 20
169.7357137818
 30
0.0
 10
262.4650935253
 20
169.7793908034
 30
0.0
 10
262.463190492
 20
169.8797893779
 30
0.0
 10
262.4636962376
 20
170.0486897902
 30
0.0
 10
262.4637480857
 20
170.2526018055
 30
0.0
 10
262.4636189777
 20
170.5804005303
 30
0.0
 10
262.4637125127
 20
171.0371922503
 30
0.0
 10
262.4636862927
 20
171.4152897188
 30
0.0
 10
262.4636862929
 20
171.6127718004
 30
0.0
  0
ELLIPSE
  5
3B0
100
AcDbEntity
  8
0
100
AcDbEllipse
 62
7
  6
CONTINUOUS
 10
60.388024948
 20
145.8044906445
 30
0.0
 11
-0.0
 21
5.8710168
 31
0.0
 40
0.1051042353
 41
3.1415926536
 42
6.2831853072
  0
ELLIPSE
  5
3B1
100
AcDbEntity
  8
BEZUGSACHSEN
100
AcDbEllipse
 62
7
  6
CONTINUOUS
 10
172.388024948
 20
145.8044906445
 30
0.0
 11
-0.0
 21
5.8710168
 31
0.0
 40
0.1051042353
 41
0.0
 42
3.1415926536
  0
ELLIPSE
  5
3B2
100
AcDbEntity
  8
BEZUGSACHSEN
100
AcDbEllipse
 62
7
  6
CONTINUOUS
 10
128.218024948
 20
145.8044906445
 30
0.0
 11
0.0
 21
5.5
 31
0.0
 40
0.1583844403
 41
-3.1415926536
 42
-0.0
  0
ELLIPSE
  5
3B3
100
AcDbEntity
  8
0
100
AcDbEllipse
 62
7
  6
CONTINUOUS
 10
104.558024948
 20
145.8044906445
 30
0.0
 11
0.0
 21
5.5
 31
0.0
 40
0.1583844403
 41
-0.0
 42
3.1415926536
  0
ENDSEC
  0
SECTION
  2
OBJECTS
  0
DICTIONARY
  5
C
100
AcDbDictionary
280
0
281
1
  3
ACAD_GROUP
350
D
  3
ACAD_MLINESTYLE
350
17
  3
ACAD_LAYOUT
350
1A
  3
ACAD_PLOTSETTINGS
350
19
  3
ACAD_PLOTSTYLENAME
350
E
  0
DICTIONARY
  5
D
102
{ACAD_REACTORS
330
C
102
}
100
AcDbDictionary
280
0
281
1
  0
ACDBDICTIONARYWDFLT
  5
E
102
{ACAD_REACTORS
330
C
102
}
100
AcDbDictionary
281
1
  3
Normal
350
F
100
AcDbDictionaryWithDefault
340
F
  0
DICTIONARY
  5
17
102
{ACAD_REACTORS
330
C
102
}
100
AcDbDictionary
280
0
281
1
  3
Standard
350
18
  0
DICTIONARY
  5
19
102
{ACAD_REACTORS
330
C
102
}
100
AcDbDictionary
281
1
  0
DICTIONARY
  5
1A
102
{ACAD_REACTORS
330
C
102
}
100
AcDbDictionary
281
1
  3
Model
350
3B4
  3
Layout1
350
3B5
  0
ACDBPLACEHOLDER
  5
F
102
{ACAD_REACTORS
330
E
102
}
  0
MLINESTYLE
  5
18
102
{ACAD_REACTORS
330
17
102
}
100
AcDbMlineStyle
  2
STANDARD
 70
0
  3

 62
256
 51
90.0
 52
90.0
 71
2
 49
0.5
 62
256
  6
BYLAYER
 49
-0.5
 62
256
  6
BYLAYER
  0
LAYOUT
  5
3B4
102
{ACAD_REACTORS
330
1A
102
}
100
AcDbPlotSettings
  1

  2
none_device
  4
ISO_A3_(420.00_x_297.00_MM)
  6

 40
0.0
 41
0.0
 42
0.0
 43
0.0
 44
420.0
 45
297.0
 46
0.0
 47
0.0
 48
0.0
 49
0.0
140
0.0
141
0.0
142
1.0
143
1.0
 70
1024
 72
1
 73
0
 74
0
  7

 75
0
147
1.0
148
0.0
149
0.0
100
AcDbLayout
  1
Model
 70
0
 71
0
 10
0.0
 20
0.0
 11
420.0
 21
297.0
 12
0.0
 22
0.0
 32
0.0
 14
0.0
 24
0.0
 34
0.0
 15
0.0
 25
0.0
 35
0.0
146
0.0
 13
0.0
 23
0.0
 33
0.0
 16
1.0
 26
0.0
 36
0.0
 17
0.0
 27
1.0
 37
0.0
 76
0
330
207
345
0
346
0
  0
LAYOUT
  5
3B5
102
{ACAD_REACTORS
330
1A
102
}
100
AcDbPlotSettings
  1

  2
none_device
  4
ISO_A3_(420.00_x_297.00_MM)
  6

 40
0.0
 41
0.0
 42
0.0
 43
0.0
 44
420.0
 45
297.0
 46
0.0
 47
0.0
 48
0.0
 49
0.0
140
0.0
141
0.0
142
1.0
143
1.0
 70
0
 72
1
 73
0
 74
0
  7

 75
0
147
1.0
148
0.0
149
0.0
100
AcDbLayout
  1
Layout1
 70
0
 71
1
 10
0.0
 20
0.0
 11
420.0
 21
297.0
 12
0.0
 22
0.0
 32
0.0
 14
0.0
 24
0.0
 34
0.0
 15
0.0
 25
0.0
 35
0.0
146
0.0
 13
0.0
 23
0.0
 33
0.0
 16
1.0
 26
0.0
 36
0.0
 17
0.0
 27
1.0
 37
0.0
 76
0
330
208
345
0
346
0
  0
ENDSEC
  0
EOF
