999
DXF file: ivs-10-dxf.dxf
999
Pro/ENGINEER 2010140 by Parametric Technology Corporation
  0
SECTION
  2
HEADER
  9
$ACADVER
  1
AC1021
  9
$DWGCODEPAGE
  3
ANSI_1252
  9
$EXTMAX
 10
420.0
 20
297.0
 30
0.0
  9
$EXTMIN
 10
0.0
 20
0.0
 30
0.0
  9
$LIMMIN
 10
0.0
 20
0.0
  9
$LIMMAX
 10
420.0
 20
297.0
  9
$VIEWCTR
 10
210.0
 20
148.5
  9
$VIEWSIZE
 40
297.0
  9
$CLAYER
  8
0
  9
$LTSCALE
 40
23.1
  9
$CELTYPE
  6
BYLAYER
  9
$DIMSCALE
 40
1.0
  9
$DIMASZ
 40
3.5
  9
$DIMEXO
 40
2.625
  9
$DIMDLI
 40
15.96
  9
$DIMEXE
 40
7.56
  9
$DIMCEN
 40
3.78
  9
$DIMLFAC
 40
1.0
  9
$DIMBLK
  1
_FILLED
  9
$DIMTXT
 40
3.5
  9
$DIMTOL
 70
1
  9
$DIMLIM
 70
0
  9
$DIMTFAC
 40
1.0
  9
$DIMTP
 40
0.005
  9
$DIMTM
 40
0.005
  9
$PDMODE
 70
3
  9
$PDSIZE
 40
0.3125
  9
$HANDSEED
  5
392
  9
$TILEMODE
 70
1
  9
$MEASUREMENT
 70
1
  9
$INSUNITS
 70
4
  0
ENDSEC
  0
SECTION
  2
CLASSES
  0
CLASS
  1
ACDBDICTIONARYWDFLT
  2
AcDbDictionaryWithDefault
  3
AutoCAD 2000
 90
0
 91
1
280
0
281
0
  0
CLASS
  1
ACDBPLACEHOLDER
  2
AcDbPlaceHolder
  3
AutoCAD 2000
 90
0
 91
1
280
0
281
0
  0
CLASS
  1
LAYOUT
  2
AcDbLayout
  3
AutoCAD 2000
 90
0
 91
0
280
0
281
0
  0
ENDSEC
  0
SECTION
  2
TABLES
  0
TABLE
  2
VPORT
  5
8
100
AcDbSymbolTable
 70
2
  0
VPORT
  5
1F4
100
AcDbSymbolTableRecord
100
AcDbViewportTableRecord
  2
*ACTIVE
 70
0
 10
0.0
 20
0.0
 11
1.0
 21
1.0
 12
210.0
 22
148.5
 13
0.0
 23
0.0
 14
1.0
 24
1.0
 15
0.0
 25
0.0
 16
0.0
 26
0.0
 36
1.0
 17
0.0
 27
0.0
 37
0.0
 40
297.0
 41
1.4141414141
 42
50.0
 43
0.0
 44
0.0
 50
0.0
 51
0.0
 71
0
 72
100
 73
1
 74
1
 75
0
 76
0
 77
0
 78
0
  0
ENDTAB
  0
TABLE
  2
LTYPE
  5
5
100
AcDbSymbolTable
 70
6
  0
LTYPE
  5
14
100
AcDbSymbolTableRecord
100
AcDbLinetypeTableRecord
  2
BYBLOCK
 70
0
  3

 72
65
 73
0
 40
0.0
  0
LTYPE
  5
15
100
AcDbSymbolTableRecord
100
AcDbLinetypeTableRecord
  2
BYLAYER
 70
0
  3

 72
65
 73
0
 40
0.0
  0
LTYPE
  5
16
100
AcDbSymbolTableRecord
100
AcDbLinetypeTableRecord
  2
CONTINUOUS
 70
64
  3
Solid line
 72
65
 73
0
 40
0.0
  0
LTYPE
  5
1F5
100
AcDbSymbolTableRecord
100
AcDbLinetypeTableRecord
  2
CENTER
 70
64
  3
____ _ ____ _ ____ _ ____ _ ____ _ ____ _ ____
 72
65
 73
4
 40
0.6
 49
0.375
 74
0
 49
-0.075
 74
0
 49
0.075
 74
0
 49
-0.075
 74
0
  0
LTYPE
  5
1F6
100
AcDbSymbolTableRecord
100
AcDbLinetypeTableRecord
  2
HIDDEN
 70
64
  3
- - - - - - - - - - - - - - - - - - - -
 72
65
 73
2
 40
0.2
 49
0.1
 74
0
 49
-0.1
 74
0
  0
LTYPE
  5
1F7
100
AcDbSymbolTableRecord
100
AcDbLinetypeTableRecord
  2
PHANTOM
 70
64
  3
_____ _ _ _____ _ _ _____ _ _ _____
 72
65
 73
6
 40
0.8
 49
0.45
 74
0
 49
-0.05
 74
0
 49
0.1
 74
0
 49
-0.05
 74
0
 49
0.1
 74
0
 49
-0.05
 74
0
  0
LTYPE
  5
1F8
100
AcDbSymbolTableRecord
100
AcDbLinetypeTableRecord
  2
DOT
 70
64
  3
. . . . . . . . . . . . . . . . . . . .
 72
65
 73
2
 40
0.2
 49
0.1
 74
0
 49
-0.1
 74
0
  0
LTYPE
  5
1F9
100
AcDbSymbolTableRecord
100
AcDbLinetypeTableRecord
  2
DASHED
 70
64
  3
- - - - - - - - - - - - - - - - - - - -
 72
65
 73
2
 40
0.2
 49
0.1
 74
0
 49
-0.1
 74
0
  0
ENDTAB
  0
TABLE
  2
LAYER
  5
2
100
AcDbSymbolTable
 70
36
  0
LAYER
  5
10
100
AcDbSymbolTableRecord
100
AcDbLayerTableRecord
  2
0
 70
0
 62
7
  6
CONTINUOUS
370
-3
390
F
  0
LAYER
  5
1FA
100
AcDbSymbolTableRecord
100
AcDbLayerTableRecord
  2
DEFAULT_1
 70
0
 62
7
  6
CENTER
370
-3
390
F
  0
LAYER
  5
1FB
100
AcDbSymbolTableRecord
100
AcDbLayerTableRecord
  2
DEFAULT_2
 70
0
 62
8
  6
HIDDEN
370
-3
390
F
  0
LAYER
  5
1FC
100
AcDbSymbolTableRecord
100
AcDbLayerTableRecord
  2
DEFAULT_3
 70
0
 62
7
  6
PHANTOM
370
-3
390
F
  0
LAYER
  5
1FD
100
AcDbSymbolTableRecord
100
AcDbLayerTableRecord
  2
AUSFORMSCHRAEGEN
 70
0
 62
7
  6
CONTINUOUS
370
-3
390
F
  0
LAYER
  5
1FE
100
AcDbSymbolTableRecord
100
AcDbLayerTableRecord
  2
BEZUGSACHSEN
 70
0
 62
7
  6
CONTINUOUS
370
-3
390
F
  0
LAYER
  5
1FF
100
AcDbSymbolTableRecord
100
AcDbLayerTableRecord
  2
BEZUGSEBENEN
 70
0
 62
7
  6
CONTINUOUS
370
-3
390
F
  0
LAYER
  5
200
100
AcDbSymbolTableRecord
100
AcDbLayerTableRecord
  2
HILFEN
 70
0
 62
7
  6
CONTINUOUS
370
-3
390
F
  0
LAYER
  5
201
100
AcDbSymbolTableRecord
100
AcDbLayerTableRecord
  2
PLATZIERUNG
 70
0
 62
7
  6
CONTINUOUS
370
-3
390
F
  0
LAYER
  5
202
100
AcDbSymbolTableRecord
100
AcDbLayerTableRecord
  2
RUNDUNGEN
 70
0
 62
7
  6
CONTINUOUS
370
-3
390
F
  0
LAYER
  5
203
100
AcDbSymbolTableRecord
100
AcDbLayerTableRecord
  2
T_STARTBEZUEGE
 70
0
 62
7
  6
CONTINUOUS
370
-3
390
F
  0
LAYER
  5
204
100
AcDbSymbolTableRecord
100
AcDbLayerTableRecord
  2
ZEICHNUNGSBEMASSUNGEN
 70
0
 62
7
  6
CONTINUOUS
370
-3
390
F
  0
ENDTAB
  0
TABLE
  2
STYLE
  5
3
100
AcDbSymbolTable
 70
1
  0
STYLE
  5
11
100
AcDbSymbolTableRecord
100
AcDbTextStyleTableRecord
  2
STANDARD
 70
0
 40
0.0
 41
0.7
 50
0.0
 71
0
 42
0.2
  3
txt
  4

  0
STYLE
  5
205
100
AcDbSymbolTableRecord
100
AcDbTextStyleTableRecord
  2
TEXTSTYLE_1
 70
0
 40
0.0
 41
0.8
 50
0.0
 71
0
 42
0.2
  3
gdt
  4

  0
ENDTAB
  0
TABLE
  2
VIEW
  5
6
100
AcDbSymbolTable
 70
0
  0
ENDTAB
  0
TABLE
  2
UCS
  5
7
100
AcDbSymbolTable
 70
0
  0
ENDTAB
  0
TABLE
  2
APPID
  5
9
100
AcDbSymbolTable
 70
1
  0
APPID
  5
206
100
AcDbSymbolTableRecord
100
AcDbRegAppTableRecord
  2
ACAD
 70
0
  0
ENDTAB
  0
TABLE
  2
BLOCK_RECORD
  5
1
100
AcDbSymbolTable
 70
0
  0
BLOCK_RECORD
  5
207
100
AcDbSymbolTableRecord
100
AcDbBlockTableRecord
  2
*Model_Space
  0
BLOCK_RECORD
  5
208
100
AcDbSymbolTableRecord
100
AcDbBlockTableRecord
  2
*Paper_Space
  0
ENDTAB
  0
TABLE
  2
DIMSTYLE
  5
A
100
AcDbSymbolTable
 70
1
100
AcDbDimStyleTable
 71
0
  0
DIMSTYLE
105
209
100
AcDbSymbolTableRecord
100
AcDbDimStyleTableRecord
  2
STANDARD
 70
0
  3

  4

 40
1.0
 41
3.5
 42
0.0625
 43
0.38
 44
0.18
 45
0.0
 46
0.0
 47
0.005
 48
0.005
140
3.5
141
0.09
142
0.0
143
25.4
144
1.0
145
0.0
146
1.0
147
0.09
 71
1.0
 72
0.0
 73
0
 74
0
 75
0
 76
0
 77
1
 78
8
170
0
171
2
172
0
173
0
174
0
175
0
176
0
177
0
178
5
270
2
271
3
272
3
273
2
274
2
275
0
280
0
281
0
282
0
283
1
284
8
285
0
286
0
287
3
288
0
340
11
  0
ENDTAB
  0
ENDSEC
  0
SECTION
  2
BLOCKS
  0
BLOCK
  5
20
100
AcDbEntity
  8
0
100
AcDbBlockBegin
  2
*Model_Space
 70
0
 10
0.0
 20
0.0
 30
0.0
  3
*Model_Space
  1

  0
ENDBLK
  5
21
100
AcDbEntity
  8
0
100
AcDbBlockEnd
  0
BLOCK
  5
1C
100
AcDbEntity
  8
0
100
AcDbBlockBegin
  2
*Paper_Space
 70
0
 10
0.0
 20
0.0
 30
0.0
  3
*Paper_Space
  1

  0
ENDBLK
  5
1D
100
AcDbEntity
  8
0
100
AcDbBlockEnd
  0
ENDSEC
  0
SECTION
  2
ENTITIES
  0
LINE
  5
20A
100
AcDbEntity
  8
0
100
AcDbLine
 62
7
  6
CONTINUOUS
 10
0.0
 20
0.0
 11
0.0
 21
297.0
  0
LINE
  5
20B
100
AcDbEntity
  8
0
100
AcDbLine
 62
7
  6
CONTINUOUS
 10
0.0
 20
0.0
 11
420.0
 21
0.0
  0
LINE
  5
20C
100
AcDbEntity
  8
0
100
AcDbLine
 62
7
  6
CONTINUOUS
 10
0.0
 20
297.0
 11
420.0
 21
297.0
  0
LINE
  5
20D
100
AcDbEntity
  8
0
100
AcDbLine
 62
7
  6
CONTINUOUS
 10
420.0
 20
0.0
 11
420.0
 21
297.0
  0
LINE
  5
20E
100
AcDbEntity
  8
BEZUGSACHSEN
100
AcDbLine
 62
7
  6
CONTINUOUS
 10
106.2369953518
 20
192.4651962638
 11
105.4758961616
 21
192.1737894267
  0
LINE
  5
20F
100
AcDbEntity
  8
BEZUGSACHSEN
100
AcDbLine
 62
7
  6
CONTINUOUS
 10
101.6558100761
 20
190.2157915843
 11
101.1687147805
 21
190.0341023473
  0
LINE
  5
210
100
AcDbEntity
  8
BEZUGSACHSEN
100
AcDbLine
 62
7
  6
CONTINUOUS
 10
101.4995108955
 20
189.5047175745
 11
101.9002138617
 21
189.6324229368
  0
LINE
  5
211
100
AcDbEntity
  8
0
100
AcDbLine
 62
7
  6
CONTINUOUS
 10
123.0089897896
 20
98.0944557991
 11
123.6031244103
 21
98.2380213303
  0
LINE
  5
212
100
AcDbEntity
  8
0
100
AcDbLine
 62
7
  6
CONTINUOUS
 10
72.388024948
 20
137.9461943494
 11
72.388024948
 21
141.2838077085
  0
LINE
  5
213
100
AcDbEntity
  8
0
100
AcDbLine
 62
7
  6
CONTINUOUS
 10
72.388024948
 20
150.3251735805
 11
72.388024948
 21
151.333646281
  0
LINE
  5
214
100
AcDbEntity
  8
BEZUGSACHSEN
100
AcDbLine
 62
7
  6
CONTINUOUS
 10
93.4567228911
 20
183.2974926013
 11
93.0731262083
 21
182.8216138413
  0
LINE
  5
215
100
AcDbEntity
  8
BEZUGSACHSEN
100
AcDbLine
 62
7
  6
CONTINUOUS
 10
91.6186288236
 20
180.5690700161
 11
91.2124467199
 21
180.100617891
  0
LINE
  5
216
100
AcDbEntity
  8
BEZUGSACHSEN
100
AcDbLine
 62
7
  6
CONTINUOUS
 10
91.6570874093
 20
179.8306145062
 11
92.0103946504
 21
180.2119924981
  0
LINE
  5
217
100
AcDbEntity
  8
BEZUGSACHSEN
100
AcDbLine
 62
7
  6
CONTINUOUS
 10
100.477573218
 20
189.6022294346
 11
100.1007423021
 21
189.2440779941
  0
LINE
  5
218
100
AcDbEntity
  8
BEZUGSACHSEN
100
AcDbLine
 62
7
  6
CONTINUOUS
 10
101.1687147805
 20
190.0341023473
 11
100.477573218
 21
189.6022294346
  0
LINE
  5
219
100
AcDbEntity
  8
BEZUGSACHSEN
100
AcDbLine
 62
7
  6
CONTINUOUS
 10
100.808369333
 20
189.0728446618
 11
101.4995108955
 21
189.5047175745
  0
LINE
  5
21A
100
AcDbEntity
  8
BEZUGSACHSEN
100
AcDbLine
 62
7
  6
CONTINUOUS
 10
102.5765802636
 20
189.3189743114
 11
103.0949361883
 21
189.6428788415
  0
LINE
  5
21B
100
AcDbEntity
  8
BEZUGSACHSEN
100
AcDbLine
 62
7
  6
CONTINUOUS
 10
102.1537155645
 20
188.0732872289
 11
101.6353596398
 21
187.7493826989
  0
LINE
  5
21C
100
AcDbEntity
  8
BEZUGSACHSEN
100
AcDbLine
 62
7
  6
CONTINUOUS
 10
101.9661557162
 20
187.2199979878
 11
102.4845116408
 21
187.5439025179
  0
LINE
  5
21D
100
AcDbEntity
  8
BEZUGSACHSEN
100
AcDbLine
 62
7
  6
CONTINUOUS
 10
101.9439940605
 20
186.1020161441
 11
101.4256381358
 21
185.778111614
  0
LINE
  5
21E
100
AcDbEntity
  8
BEZUGSACHSEN
100
AcDbLine
 62
7
  6
CONTINUOUS
 10
103.2563693068
 20
186.3086712783
 11
102.7380133822
 21
185.9847667483
  0
LINE
  5
21F
100
AcDbEntity
  8
BEZUGSACHSEN
100
AcDbLine
 62
7
  6
CONTINUOUS
 10
92.1497923389
 20
180.8424466551
 11
91.6186288236
 21
180.5690700161
  0
LINE
  5
220
100
AcDbEntity
  8
BEZUGSACHSEN
100
AcDbLine
 62
7
  6
CONTINUOUS
 10
92.0103946504
 20
180.2119924981
 11
92.3468778865
 21
180.3652175589
  0
LINE
  5
221
100
AcDbEntity
  8
BEZUGSACHSEN
100
AcDbLine
 62
7
  6
CONTINUOUS
 10
105.7021386761
 20
187.0243793145
 11
106.2729632048
 21
187.2429344944
  0
LINE
  5
222
100
AcDbEntity
  8
BEZUGSACHSEN
100
AcDbLine
 62
7
  6
CONTINUOUS
 10
108.9368111869
 20
188.2628587367
 11
109.5076357156
 21
188.4814139166
  0
LINE
  5
223
100
AcDbEntity
  8
BEZUGSACHSEN
100
AcDbLine
 62
7
  6
CONTINUOUS
 10
101.4790594366
 20
187.0383081254
 11
101.9661557162
 21
187.2199979878
  0
LINE
  5
224
100
AcDbEntity
  8
BEZUGSACHSEN
100
AcDbLine
 62
7
  6
CONTINUOUS
 10
102.6681064923
 20
185.327676675
 11
103.1552017831
 21
185.5093659197
  0
LINE
  5
225
100
AcDbEntity
  8
BEZUGSACHSEN
100
AcDbLine
 62
7
  6
CONTINUOUS
 10
102.5544185307
 20
188.2009925912
 11
102.1537155645
 21
188.0732872289
  0
LINE
  5
226
100
AcDbEntity
  8
BEZUGSACHSEN
100
AcDbLine
 62
7
  6
CONTINUOUS
 10
101.6353596398
 20
187.7493826989
 11
101.2346566735
 21
187.6216773366
  0
LINE
  5
227
100
AcDbEntity
  8
0
100
AcDbLine
 62
7
  6
CONTINUOUS
 10
122.4546001603
 20
102.9910982957
 11
121.8604655396
 21
102.8475327644
  0
LINE
  5
228
100
AcDbEntity
  8
0
100
AcDbLine
 62
7
  6
CONTINUOUS
 10
130.2915382552
 20
104.0650787711
 11
129.9772276135
 21
103.9913572912
  0
LINE
  5
229
100
AcDbEntity
  8
0
100
AcDbLine
 62
7
  6
CONTINUOUS
 10
130.0380365139
 20
105.6242145407
 11
130.3523471556
 21
105.6979360206
  0
LINE
  5
22A
100
AcDbEntity
  8
0
100
AcDbLine
 62
7
  6
CONTINUOUS
 10
129.7657947309
 20
103.3685135029
 11
130.2216313653
 21
103.4079886978
  0
LINE
  5
22B
100
AcDbEntity
  8
0
100
AcDbLine
 62
7
  6
CONTINUOUS
 10
131.7528261051
 20
104.6101477407
 11
131.2969904594
 21
104.5706731636
  0
LINE
  5
22C
100
AcDbEntity
  8
0
100
AcDbLine
 62
7
  6
CONTINUOUS
 10
130.5228781671
 20
101.3879614357
 11
131.1202398199
 21
101.3931897047
  0
LINE
  5
22D
100
AcDbEntity
  8
0
100
AcDbLine
 62
7
  6
CONTINUOUS
 10
129.9772276135
 20
103.9913572912
 11
129.6077842924
 21
104.0058665965
  0
LINE
  5
22E
100
AcDbEntity
  8
0
100
AcDbLine
 62
7
  6
CONTINUOUS
 10
131.5413932225
 20
103.9873039524
 11
131.9108365437
 21
103.9727946471
  0
LINE
  5
22F
100
AcDbEntity
  8
BEZUGSACHSEN
100
AcDbLine
 62
7
  6
CONTINUOUS
 10
90.9283452223
 20
105.9520977608
 11
73.5224713911
 21
133.9702743061
  0
LINE
  5
230
100
AcDbEntity
  8
RUNDUNGEN
100
AcDbLine
 62
7
  6
CONTINUOUS
 10
76.6821731447
 20
158.6476234282
 11
73.0655896219
 21
153.4826068789
  0
LINE
  5
231
100
AcDbEntity
  8
BEZUGSACHSEN
100
AcDbLine
 62
7
  6
CONTINUOUS
 10
94.9858870175
 20
177.0941339967
 11
95.3920691135
 21
177.5625861265
  0
LINE
  5
232
100
AcDbEntity
  8
BEZUGSACHSEN
100
AcDbLine
 62
7
  6
CONTINUOUS
 10
94.9474284863
 20
177.8325894735
 11
94.5941224555
 21
177.4512134746
  0
LINE
  5
233
100
AcDbEntity
  8
BEZUGSACHSEN
100
AcDbLine
 62
7
  6
CONTINUOUS
 10
100.5179317255
 20
188.7686777292
 11
100.808369333
 21
189.0728446618
  0
LINE
  5
234
100
AcDbEntity
  8
BEZUGSACHSEN
100
AcDbLine
 62
7
  6
CONTINUOUS
 10
103.5871653832
 20
185.7792865673
 11
103.8776029907
 21
186.0834534999
  0
LINE
  5
235
100
AcDbEntity
  8
BEZUGSACHSEN
100
AcDbLine
 62
7
  6
CONTINUOUS
 10
103.1552017831
 20
185.5093659197
 11
103.5871653832
 21
185.7792865673
  0
LINE
  5
236
100
AcDbEntity
  8
BEZUGSACHSEN
100
AcDbLine
 62
7
  6
CONTINUOUS
 10
94.4547247358
 20
176.8207593366
 11
94.9858870175
 21
177.0941339967
  0
LINE
  5
237
100
AcDbEntity
  8
BEZUGSACHSEN
100
AcDbLine
 62
7
  6
CONTINUOUS
 10
94.5941224555
 20
177.4512134746
 11
94.2576392194
 21
177.2979884138
  0
LINE
  5
238
100
AcDbEntity
  8
0
100
AcDbLine
 62
7
  6
CONTINUOUS
 10
140.2008461644
 20
110.6673102614
 11
140.6262575571
 21
110.7665346339
  0
LINE
  5
239
100
AcDbEntity
  8
0
100
AcDbLine
 62
7
  6
CONTINUOUS
 10
130.6189127175
 20
106.2325490237
 11
130.1079434038
 21
106.281304614
  0
LINE
  5
23A
100
AcDbEntity
  8
0
100
AcDbLine
 62
7
  6
CONTINUOUS
 10
130.8758360343
 20
101.9765583522
 11
130.4512599952
 21
102.0792985045
  0
LINE
  5
23B
100
AcDbEntity
  8
0
100
AcDbLine
 62
7
  6
CONTINUOUS
 10
129.1996937265
 20
103.5055004961
 11
129.7657947309
 21
103.3685135029
  0
LINE
  5
23C
100
AcDbEntity
  8
BEZUGSACHSEN
100
AcDbLine
 62
7
  6
CENTER
 10
81.068666086
 20
145.8044906445
 11
81.068666086
 21
140.9201711744
  0
LINE
  5
23D
100
AcDbEntity
  8
BEZUGSACHSEN
100
AcDbLine
 62
7
  6
CENTER
 10
81.068666086
 20
145.8044906445
 11
81.068666086
 21
150.6888101146
  0
LINE
  5
23E
100
AcDbEntity
  8
BEZUGSACHSEN
100
AcDbLine
 62
7
  6
CONTINUOUS
 10
81.388024948
 20
164.7676853387
 11
81.388024948
 21
164.8130126445
  0
LINE
  5
23F
100
AcDbEntity
  8
RUNDUNGEN
100
AcDbLine
 62
7
  6
CONTINUOUS
 10
83.958740948
 20
135.3766159565
 11
83.958740948
 21
157.7890743325
  0
LINE
  5
240
100
AcDbEntity
  8
BEZUGSACHSEN
100
AcDbLine
 62
7
  6
CONTINUOUS
 10
84.273863348
 20
136.4144559528
 11
84.273863348
 21
152.6523614035
  0
LINE
  5
241
100
AcDbEntity
  8
BEZUGSACHSEN
100
AcDbLine
 62
7
  6
CONTINUOUS
 10
91.4816376293
 20
179.3412371685
 11
91.6570874093
 21
179.8306145062
  0
LINE
  5
242
100
AcDbEntity
  8
BEZUGSACHSEN
100
AcDbLine
 62
7
  6
CONTINUOUS
 10
91.2124467199
 20
180.100617891
 11
90.9841208825
 21
179.5241644177
  0
LINE
  5
243
100
AcDbEntity
  8
BEZUGSACHSEN
100
AcDbLine
 62
7
  6
CONTINUOUS
 10
100.1007423021
 20
189.2440779941
 11
99.8654373885
 21
188.8516802531
  0
LINE
  5
244
100
AcDbEntity
  8
BEZUGSACHSEN
100
AcDbLine
 62
7
  6
CONTINUOUS
 10
96.8801562882
 20
179.7528403791
 11
97.263752971
 21
180.228719139
  0
LINE
  5
245
100
AcDbEntity
  8
BEZUGSACHSEN
100
AcDbLine
 62
7
  6
CONTINUOUS
 10
103.4604145898
 20
186.5588543285
 11
103.2563693068
 21
186.3086712783
  0
LINE
  5
246
100
AcDbEntity
  8
0
100
AcDbLine
 62
7
  6
CONTINUOUS
 10
138.7467365218
 20
114.8874463438
 11
138.3213251602
 21
114.7882219524
  0
LINE
  5
247
100
AcDbEntity
  8
0
100
AcDbLine
 62
7
  6
CONTINUOUS
 10
140.4291720095
 20
111.2437637301
 11
139.6841013544
 21
111.2194672468
  0
LINE
  5
248
100
AcDbEntity
  8
0
100
AcDbLine
 62
7
  6
CONTINUOUS
 10
138.5184106767
 20
114.3109928752
 11
139.2634827289
 21
114.335291238
  0
LINE
  5
249
100
AcDbEntity
  8
0
100
AcDbLine
 62
7
  6
CONTINUOUS
 10
139.7393826803
 20
110.7091627081
 11
140.2008461644
 21
110.6673102614
  0
LINE
  5
24A
100
AcDbEntity
  8
0
100
AcDbLine
 62
7
  6
CONTINUOUS
 10
132.3189271096
 20
104.4731607475
 11
131.7528261051
 21
104.6101477407
  0
LINE
  5
24B
100
AcDbEntity
  8
0
100
AcDbLine
 62
7
  6
CONTINUOUS
 10
130.3523471556
 20
105.6979360206
 11
130.6353981522
 21
105.6294428329
  0
LINE
  5
24C
100
AcDbEntity
  8
0
100
AcDbLine
 62
7
  6
CONTINUOUS
 10
129.9880367499
 20
101.6671631892
 11
130.5228781671
 21
101.3879614357
  0
LINE
  5
24D
100
AcDbEntity
  8
BEZUGSACHSEN
100
AcDbLine
 62
7
  6
CONTINUOUS
 10
95.1228794765
 20
178.3219688043
 11
94.9474284863
 21
177.8325894735
  0
LINE
  5
24E
100
AcDbEntity
  8
BEZUGSACHSEN
100
AcDbLine
 62
7
  6
CONTINUOUS
 10
95.3920691135
 20
177.5625861265
 11
95.6203949586
 21
178.1390395951
  0
LINE
  5
24F
100
AcDbEntity
  8
BEZUGSACHSEN
100
AcDbLine
 62
7
  6
CONTINUOUS
 10
100.3690191606
 20
188.430263832
 11
100.5179317255
 21
188.7686777292
  0
LINE
  5
250
100
AcDbEntity
  8
BEZUGSACHSEN
100
AcDbLine
 62
7
  6
CONTINUOUS
 10
103.6093271933
 20
186.8972681639
 11
103.4604145898
 21
186.5588543285
  0
LINE
  5
251
100
AcDbEntity
  8
BEZUGSACHSEN
100
AcDbLine
 62
7
  6
CONTINUOUS
 10
103.8776029907
 20
186.0834534999
 11
104.1129089075
 21
186.4758518355
  0
LINE
  5
252
100
AcDbEntity
  8
0
100
AcDbLine
 62
7
  6
CONTINUOUS
 10
139.2081999437
 20
114.8455939349
 11
138.7467365218
 21
114.8874463438
  0
LINE
  5
253
100
AcDbEntity
  8
0
100
AcDbLine
 62
7
  6
CONTINUOUS
 10
139.4197222388
 20
110.7840885855
 11
139.7393826803
 21
110.7091627081
  0
LINE
  5
254
100
AcDbEntity
  8
0
100
AcDbLine
 62
7
  6
CONTINUOUS
 10
131.0986213975
 20
106.0415781481
 11
130.6189127175
 21
106.2325490237
  0
LINE
  5
255
100
AcDbEntity
  8
0
100
AcDbLine
 62
7
  6
CONTINUOUS
 10
131.9108365437
 20
103.9727946471
 11
132.2490202969
 21
103.8160705506
  0
LINE
  5
256
100
AcDbEntity
  8
BEZUGSACHSEN
100
AcDbLine
 62
7
  6
CONTINUOUS
 10
91.5008668949
 20
178.97200943
 11
91.4816376293
 21
179.3412371685
  0
LINE
  5
257
100
AcDbEntity
  8
BEZUGSACHSEN
100
AcDbLine
 62
7
  6
CONTINUOUS
 10
90.9841208825
 20
179.5241644177
 11
90.9865273768
 21
178.926785727
  0
LINE
  5
258
100
AcDbEntity
  8
BEZUGSACHSEN
100
AcDbLine
 62
7
  6
CONTINUOUS
 10
99.8654373885
 20
188.8516802531
 11
99.7403978385
 21
188.2828209341
  0
LINE
  5
259
100
AcDbEntity
  8
0
100
AcDbLine
 62
7
  6
CONTINUOUS
 10
139.5278606343
 20
114.7706679063
 11
139.2081999437
 21
114.8455939349
  0
LINE
  5
25A
100
AcDbEntity
  8
0
100
AcDbLine
 62
7
  6
CONTINUOUS
 10
138.9222066321
 20
110.9670178703
 11
139.4197222388
 21
110.7840885855
  0
LINE
  5
25B
100
AcDbEntity
  8
0
100
AcDbLine
 62
7
  6
CONTINUOUS
 10
139.6841013544
 20
111.2194672468
 11
139.0976564121
 21
111.456395208
  0
LINE
  5
25C
100
AcDbEntity
  8
0
100
AcDbLine
 62
7
  6
CONTINUOUS
 10
132.7122435422
 20
104.2282058658
 11
132.3189271096
 21
104.4731607475
  0
LINE
  5
25D
100
AcDbEntity
  8
0
100
AcDbLine
 62
7
  6
CONTINUOUS
 10
130.6353981522
 20
105.6294428329
 11
130.8320558355
 21
105.5069651449
  0
LINE
  5
25E
100
AcDbEntity
  8
0
100
AcDbLine
 62
7
  6
CONTINUOUS
 10
130.4512599952
 20
102.0792985045
 11
130.1994696324
 21
102.2900069776
  0
LINE
  5
25F
100
AcDbEntity
  8
0
100
AcDbLine
 62
7
  6
CONTINUOUS
 10
129.6077842924
 20
104.0058665965
 11
129.3559939296
 21
104.2165750696
  0
LINE
  5
260
100
AcDbEntity
  8
BEZUGSACHSEN
100
AcDbLine
 62
7
  6
CONTINUOUS
 10
95.1036502109
 20
178.6911965427
 11
95.1228794765
 21
178.3219688043
  0
LINE
  5
261
100
AcDbEntity
  8
BEZUGSACHSEN
100
AcDbLine
 62
7
  6
CONTINUOUS
 10
95.6203949586
 20
178.1390395951
 11
95.617989698
 21
178.7364202647
  0
LINE
  5
262
100
AcDbEntity
  8
BEZUGSACHSEN
100
AcDbLine
 62
7
  6
CONTINUOUS
 10
98.388024948
 20
136.4144559395
 11
98.388024948
 21
164.8130126445
  0
LINE
  5
263
100
AcDbEntity
  8
BEZUGSACHSEN
100
AcDbLine
 62
7
  6
CONTINUOUS
 10
104.1129089075
 20
186.4758518355
 11
104.2379484768
 21
187.0447111237
  0
LINE
  5
264
100
AcDbEntity
  8
0
100
AcDbLine
 62
7
  6
CONTINUOUS
 10
140.0253773266
 20
114.5877406902
 11
139.5278606343
 21
114.7706679063
  0
LINE
  5
265
100
AcDbEntity
  8
0
100
AcDbLine
 62
7
  6
CONTINUOUS
 10
139.2634827289
 20
114.335291238
 11
139.8499263364
 21
114.0983613594
  0
LINE
  5
266
100
AcDbEntity
  8
0
100
AcDbLine
 62
7
  6
CONTINUOUS
 10
138.1218535032
 20
111.4530238949
 11
138.9222066321
 21
110.9670178703
  0
LINE
  5
267
100
AcDbEntity
  8
0
100
AcDbLine
 62
7
  6
CONTINUOUS
 10
131.3504117602
 20
105.830869675
 11
131.0986213975
 21
106.0415781481
  0
LINE
  5
268
100
AcDbEntity
  8
0
100
AcDbLine
 62
7
  6
CONTINUOUS
 10
129.6811137078
 20
101.9661024475
 11
129.9880367499
 21
101.6671631892
  0
LINE
  5
269
100
AcDbEntity
  8
0
100
AcDbLine
 62
7
  6
CONTINUOUS
 10
128.8927706843
 20
103.8044397544
 11
129.1996937265
 21
103.5055004961
  0
LINE
  5
26A
100
AcDbEntity
  8
0
100
AcDbLine
 62
7
  6
CONTINUOUS
 10
126.696399122
 20
99.872458278
 11
123.8392387091
 21
103.3461225523
  0
LINE
  5
26B
100
AcDbEntity
  8
0
100
AcDbLine
 62
7
  6
CONTINUOUS
 10
123.2684141804
 20
103.1275673724
 11
126.5390545443
 21
99.1437850252
  0
LINE
  5
26C
100
AcDbEntity
  8
RUNDUNGEN
100
AcDbLine
 62
7
  6
CONTINUOUS
 10
98.488024948
 20
135.3766159565
 11
98.488024948
 21
157.7890743325
  0
LINE
  5
26D
100
AcDbEntity
  8
BEZUGSACHSEN
100
AcDbLine
 62
7
  6
CONTINUOUS
 10
100.361631561
 20
188.0576030939
 11
100.3690191606
 21
188.430263832
  0
LINE
  5
26E
100
AcDbEntity
  8
BEZUGSACHSEN
100
AcDbLine
 62
7
  6
CONTINUOUS
 10
127.9137028872
 20
132.3130126445
 11
132.781130636
 21
132.3130126445
  0
LINE
  5
26F
100
AcDbEntity
  8
BEZUGSACHSEN
100
AcDbLine
 62
7
  6
CONTINUOUS
 10
150.32420326
 20
132.3130126445
 11
154.8453281046
 21
132.3130126445
  0
LINE
  5
270
100
AcDbEntity
  8
0
100
AcDbLine
 62
7
  6
CONTINUOUS
 10
139.0976564121
 20
111.456395208
 11
138.475159534
 21
111.8343998938
  0
LINE
  5
271
100
AcDbEntity
  8
0
100
AcDbLine
 62
7
  6
CONTINUOUS
 10
139.8499263364
 20
114.0983613594
 11
140.4724232145
 21
113.7203566736
  0
LINE
  5
272
100
AcDbEntity
  8
0
100
AcDbLine
 62
7
  6
CONTINUOUS
 10
140.8257304555
 20
114.1017346655
 11
140.0253773266
 21
114.5877406902
  0
LINE
  5
273
100
AcDbEntity
  8
0
100
AcDbLine
 62
7
  6
CONTINUOUS
 10
135.6957046547
 20
110.4473320777
 11
136.3437099243
 21
109.924987538
  0
LINE
  5
274
100
AcDbEntity
  8
0
100
AcDbLine
 62
7
  6
CONTINUOUS
 10
136.1603019678
 20
110.8579177931
 11
139.3193270049
 21
108.3114886877
  0
LINE
  5
275
100
AcDbEntity
  8
0
100
AcDbLine
 62
7
  6
CONTINUOUS
 10
139.7029236877
 20
108.7873674477
 11
135.8958936078
 21
111.8561409099
  0
LINE
  5
276
100
AcDbEntity
  8
BEZUGSACHSEN
100
AcDbLine
 62
7
  6
CONTINUOUS
 10
90.9865273768
 20
178.926785727
 11
91.0946847989
 21
178.5035573002
  0
LINE
  5
277
100
AcDbEntity
  8
BEZUGSACHSEN
100
AcDbLine
 62
7
  6
CONTINUOUS
 10
99.7403978385
 20
188.2828209341
 11
99.7881429569
 21
187.821929349
  0
LINE
  5
278
100
AcDbEntity
  8
BEZUGSACHSEN
100
AcDbLine
 62
7
  6
CONTINUOUS
 10
105.4758961616
 20
192.1737894267
 11
105.7021386761
 21
187.0243793145
  0
LINE
  5
279
100
AcDbEntity
  8
0
100
AcDbLine
 62
7
  6
CONTINUOUS
 10
106.388024948
 20
157.7867557661
 11
106.388024948
 21
149.9544906445
  0
LINE
  5
27A
100
AcDbEntity
  8
0
100
AcDbLine
 62
7
  6
CONTINUOUS
 10
106.388024948
 20
141.6544906445
 11
106.388024948
 21
132.4025111884
  0
LINE
  5
27B
100
AcDbEntity
  8
RUNDUNGEN
100
AcDbLine
 62
7
  6
CONTINUOUS
 10
96.9811231186
 20
133.8697216445
 11
85.465615018
 21
133.8697216445
  0
LINE
  5
27C
100
AcDbEntity
  8
RUNDUNGEN
100
AcDbLine
 62
7
  6
CONTINUOUS
 10
134.8098673516
 20
134.3886246445
 11
134.388024948
 21
134.3886246445
  0
LINE
  5
27D
100
AcDbEntity
  8
BEZUGSACHSEN
100
AcDbLine
 62
7
  6
CONTINUOUS
 10
85.78075766
 20
134.9075276445
 11
96.881130636
 21
134.9075276445
  0
LINE
  5
27E
100
AcDbEntity
  8
0
100
AcDbLine
 62
7
  6
CONTINUOUS
 10
138.475159534
 20
111.8343998938
 11
137.9944668466
 21
112.2454800411
  0
LINE
  5
27F
100
AcDbEntity
  8
0
100
AcDbLine
 62
7
  6
CONTINUOUS
 10
140.4724232145
 20
113.7203566736
 11
140.9531172367
 21
113.3092784437
  0
LINE
  5
280
100
AcDbEntity
  8
0
100
AcDbLine
 62
7
  6
CONTINUOUS
 10
137.730087731
 20
111.8101013798
 11
138.1218535032
 21
111.4530238949
  0
LINE
  5
281
100
AcDbEntity
  8
0
100
AcDbLine
 62
7
  6
CONTINUOUS
 10
128.6722398123
 20
104.1573631422
 11
128.8927706843
 21
103.8044397544
  0
LINE
  5
282
100
AcDbEntity
  8
0
100
AcDbLine
 62
7
  6
CONTINUOUS
 10
129.3559939296
 20
104.2165750696
 11
129.2457285708
 21
104.39303664
  0
LINE
  5
283
100
AcDbEntity
  8
0
100
AcDbLine
 62
7
  6
CONTINUOUS
 10
132.2490202969
 20
103.8160705506
 11
132.4144183351
 21
103.5513781951
  0
LINE
  5
284
100
AcDbEntity
  8
BEZUGSACHSEN
100
AcDbLine
 62
7
  6
CONTINUOUS
 10
95.617989698
 20
178.7364202647
 11
95.5098323069
 21
179.1596486725
  0
LINE
  5
285
100
AcDbEntity
  8
BEZUGSACHSEN
100
AcDbLine
 62
7
  6
CONTINUOUS
 10
96.4323399717
 20
181.683993751
 11
96.6157479283
 21
180.7510634959
  0
LINE
  5
286
100
AcDbEntity
  8
BEZUGSACHSEN
100
AcDbLine
 62
7
  6
CONTINUOUS
 10
97.263752971
 20
180.228719139
 11
97.0803452414
 21
181.1616492113
  0
LINE
  5
287
100
AcDbEntity
  8
BEZUGSACHSEN
100
AcDbLine
 62
7
  6
CONTINUOUS
 10
106.2729632048
 20
187.2429344944
 11
106.0796507741
 21
191.736523011
  0
LINE
  5
288
100
AcDbEntity
  8
0
100
AcDbLine
 62
7
  6
CONTINUOUS
 10
83.958740948
 20
141.6544906445
 11
84.273863348
 21
141.6544906445
  0
LINE
  5
289
100
AcDbEntity
  8
0
100
AcDbLine
 62
7
  6
CONTINUOUS
 10
98.388024948
 20
141.6544906445
 11
98.488024948
 21
141.6544906445
  0
LINE
  5
28A
100
AcDbEntity
  8
0
100
AcDbLine
 62
7
  6
CONTINUOUS
 10
106.388024948
 20
141.6544906445
 11
126.388024948
 21
141.6544906445
  0
LINE
  5
28B
100
AcDbEntity
  8
0
100
AcDbLine
 62
7
  6
CONTINUOUS
 10
134.288024948
 20
141.6544906445
 11
134.388024948
 21
141.6544906445
  0
LINE
  5
28C
100
AcDbEntity
  8
0
100
AcDbLine
 62
7
  6
CONTINUOUS
 10
148.502186548
 20
141.6544906445
 11
148.817308948
 21
141.6544906445
  0
LINE
  5
28D
100
AcDbEntity
  8
0
100
AcDbLine
 62
7
  6
CONTINUOUS
 10
141.2174951421
 20
113.744655112
 11
140.8257304555
 21
114.1017346655
  0
LINE
  5
28E
100
AcDbEntity
  8
0
100
AcDbLine
 62
7
  6
CONTINUOUS
 10
137.5161791707
 20
112.0591796702
 11
137.730087731
 21
111.8101013798
  0
LINE
  5
28F
100
AcDbEntity
  8
0
100
AcDbLine
 62
7
  6
CONTINUOUS
 10
132.9879069391
 20
103.78705194
 11
132.7122435422
 21
104.2282058658
  0
LINE
  5
290
100
AcDbEntity
  8
BEZUGSACHSEN
100
AcDbLine
 62
7
  6
CONTINUOUS
 10
91.8229326594
 20
178.2997028453
 11
91.5008668949
 21
178.97200943
  0
LINE
  5
291
100
AcDbEntity
  8
BEZUGSACHSEN
100
AcDbLine
 62
7
  6
CONTINUOUS
 10
94.7815830494
 20
179.3635012478
 11
95.1036502109
 21
178.6911965427
  0
LINE
  5
292
100
AcDbEntity
  8
0
100
AcDbLine
 62
7
  6
CONTINUOUS
 10
121.8604655396
 20
102.8475327644
 11
123.0089897896
 21
98.0944557991
  0
LINE
  5
293
100
AcDbEntity
  8
0
100
AcDbLine
 62
7
  6
CONTINUOUS
 10
123.6031244103
 20
98.2380213303
 11
122.4546001603
 21
102.9910982957
  0
LINE
  5
294
100
AcDbEntity
  8
T_STARTBEZUEGE
100
AcDbLine
 62
7
  6
CENTER
 10
116.388024948
 20
88.7959686445
 11
116.388024948
 21
202.8130126445
  0
LINE
  5
295
100
AcDbEntity
  8
BEZUGSACHSEN
100
AcDbLine
 62
7
  6
CENTER
 10
151.70738381
 20
145.8044906445
 11
146.8230643399
 21
145.8044906445
  0
LINE
  5
296
100
AcDbEntity
  8
BEZUGSACHSEN
100
AcDbLine
 62
7
  6
CENTER
 10
81.068666086
 20
145.8044906445
 11
76.1843466159
 21
145.8044906445
  0
LINE
  5
297
100
AcDbEntity
  8
T_STARTBEZUEGE
100
AcDbLine
 62
7
  6
CENTER
 10
69.3860160654
 20
145.8044906445
 11
163.3900338307
 21
145.8044906445
  0
LINE
  5
298
100
AcDbEntity
  8
BEZUGSACHSEN
100
AcDbLine
 62
7
  6
CENTER
 10
81.068666086
 20
145.8044906445
 11
85.9529855561
 21
145.8044906445
  0
LINE
  5
299
100
AcDbEntity
  8
BEZUGSACHSEN
100
AcDbLine
 62
7
  6
CENTER
 10
151.70738381
 20
145.8044906445
 11
156.5917032801
 21
145.8044906445
  0
LINE
  5
29A
100
AcDbEntity
  8
0
100
AcDbLine
 62
7
  6
CONTINUOUS
 10
141.4314034532
 20
113.4955769729
 11
141.2174951421
 21
113.744655112
  0
LINE
  5
29B
100
AcDbEntity
  8
BEZUGSACHSEN
100
AcDbLine
 62
7
  6
CONTINUOUS
 10
91.0946847989
 20
178.5035573002
 11
91.3446464428
 21
178.1134043161
  0
LINE
  5
29C
100
AcDbEntity
  8
0
100
AcDbLine
 62
7
  6
CONTINUOUS
 10
137.2662175891
 20
112.4493326165
 11
137.5161791707
 21
112.0591796702
  0
LINE
  5
29D
100
AcDbEntity
  8
BEZUGSACHSEN
100
AcDbLine
 62
7
  6
CONTINUOUS
 10
95.5098323069
 20
179.1596486725
 11
95.2598707253
 21
179.5498016188
  0
LINE
  5
29E
100
AcDbEntity
  8
0
100
AcDbLine
 62
7
  6
CONTINUOUS
 10
128.5381014193
 20
104.5642701653
 11
128.6722398123
 21
104.1573631422
  0
LINE
  5
29F
100
AcDbEntity
  8
BEZUGSACHSEN
100
AcDbLine
 62
7
  6
CONTINUOUS
 10
103.5303213252
 20
187.215944649
 11
103.6093271933
 21
186.8972681639
  0
LINE
  5
2A0
100
AcDbEntity
  8
0
100
AcDbLine
 62
7
  6
CONTINUOUS
 10
83.958740948
 20
149.9544906445
 11
84.273863348
 21
149.9544906445
  0
LINE
  5
2A1
100
AcDbEntity
  8
0
100
AcDbLine
 62
7
  6
CONTINUOUS
 10
98.388024948
 20
149.9544906445
 11
98.488024948
 21
149.9544906445
  0
LINE
  5
2A2
100
AcDbEntity
  8
0
100
AcDbLine
 62
7
  6
CONTINUOUS
 10
106.388024948
 20
149.9544906445
 11
126.388024948
 21
149.9544906445
  0
LINE
  5
2A3
100
AcDbEntity
  8
0
100
AcDbLine
 62
7
  6
CONTINUOUS
 10
134.288024948
 20
149.9544906445
 11
134.388024948
 21
149.9544906445
  0
LINE
  5
2A4
100
AcDbEntity
  8
0
100
AcDbLine
 62
7
  6
CONTINUOUS
 10
148.502186548
 20
149.9544906445
 11
148.817308948
 21
149.9544906445
  0
LINE
  5
2A5
100
AcDbEntity
  8
BEZUGSACHSEN
100
AcDbLine
 62
7
  6
CONTINUOUS
 10
91.3446464428
 20
178.1134043161
 11
91.558554754
 21
177.864326177
  0
LINE
  5
2A6
100
AcDbEntity
  8
0
100
AcDbLine
 62
7
  6
CONTINUOUS
 10
141.6813650971
 20
113.1054239887
 11
141.4314034532
 21
113.4955769729
  0
LINE
  5
2A7
100
AcDbEntity
  8
0
100
AcDbLine
 62
7
  6
CONTINUOUS
 10
137.9944668466
 20
112.2454800411
 11
137.6723996851
 21
112.9177847463
  0
LINE
  5
2A8
100
AcDbEntity
  8
BEZUGSACHSEN
100
AcDbLine
 62
7
  6
CONTINUOUS
 10
104.2379484768
 20
187.0447111237
 11
104.1038100838
 21
187.4516181467
  0
LINE
  5
2A9
100
AcDbEntity
  8
0
100
AcDbLine
 62
7
  6
CONTINUOUS
 10
129.2457285708
 20
104.39303664
 11
129.1667227027
 21
104.7117131251
  0
LINE
  5
2AA
100
AcDbEntity
  8
BEZUGSACHSEN
100
AcDbLine
 62
7
  6
CONTINUOUS
 10
109.1729254858
 20
193.3709599587
 11
110.3214497358
 21
188.6178829933
  0
LINE
  5
2AB
100
AcDbEntity
  8
BEZUGSACHSEN
100
AcDbLine
 62
7
  6
CONTINUOUS
 10
110.9155843564
 20
188.7614485246
 11
109.7670601065
 21
193.5145254899
  0
LINE
  5
2AC
100
AcDbEntity
  8
0
100
AcDbLine
 62
7
  6
CONTINUOUS
 10
127.3001537344
 20
99.4351918623
 11
127.07391122
 21
104.5846019745
  0
LINE
  5
2AD
100
AcDbEntity
  8
0
100
AcDbLine
 62
7
  6
CONTINUOUS
 10
126.5030866913
 20
104.3660467946
 11
126.696399122
 21
99.872458278
  0
LINE
  5
2AE
100
AcDbEntity
  8
BEZUGSACHSEN
100
AcDbLine
 62
7
  6
CONTINUOUS
 10
92.3036266816
 20
177.8886246154
 11
91.8229326594
 21
178.2997028453
  0
LINE
  5
2AF
100
AcDbEntity
  8
BEZUGSACHSEN
100
AcDbLine
 62
7
  6
CONTINUOUS
 10
91.558554754
 20
177.864326177
 11
91.9503194405
 21
177.5072466235
  0
LINE
  5
2B0
100
AcDbEntity
  8
BEZUGSACHSEN
100
AcDbLine
 62
7
  6
CONTINUOUS
 10
95.2598707253
 20
179.5498016188
 11
95.0459621651
 21
179.7988799092
  0
LINE
  5
2B1
100
AcDbEntity
  8
BEZUGSACHSEN
100
AcDbLine
 62
7
  6
CONTINUOUS
 10
99.7881429569
 20
187.821929349
 11
100.0638063539
 21
187.3807754231
  0
LINE
  5
2B2
100
AcDbEntity
  8
BEZUGSACHSEN
100
AcDbLine
 62
7
  6
CONTINUOUS
 10
100.5270295992
 20
187.7929107384
 11
100.361631561
 21
188.0576030939
  0
LINE
  5
2B3
100
AcDbEntity
  8
0
100
AcDbLine
 62
7
  6
CONTINUOUS
 10
140.9531172367
 20
113.3092784437
 11
141.2751830011
 21
112.6369718589
  0
LINE
  5
2B4
100
AcDbEntity
  8
0
100
AcDbLine
 62
7
  6
CONTINUOUS
 10
133.0356520576
 20
103.3261603549
 11
132.9879069391
 21
103.78705194
  0
LINE
  5
2B5
100
AcDbEntity
  8
BEZUGSACHSEN
100
AcDbLine
 62
7
  6
CONTINUOUS
 10
126.388024948
 20
133.8222255229
 11
126.388024948
 21
141.6544906445
  0
LINE
  5
2B6
100
AcDbEntity
  8
BEZUGSACHSEN
100
AcDbLine
 62
7
  6
CONTINUOUS
 10
126.388024948
 20
149.9544906445
 11
126.388024948
 21
159.2064701006
  0
LINE
  5
2B7
100
AcDbEntity
  8
0
100
AcDbLine
 62
7
  6
CONTINUOUS
 10
146.995292236
 20
156.7014536445
 11
135.89491926
 21
156.7014536445
  0
LINE
  5
2B8
100
AcDbEntity
  8
BEZUGSACHSEN
100
AcDbLine
 62
7
  6
CONTINUOUS
 10
97.9661825445
 20
157.2203566445
 11
98.388024948
 21
157.2203566445
  0
LINE
  5
2B9
100
AcDbEntity
  8
BEZUGSACHSEN
100
AcDbLine
 62
7
  6
CONTINUOUS
 10
135.7949267775
 20
157.7392596445
 11
147.3104348781
 21
157.7392596445
  0
LINE
  5
2BA
100
AcDbEntity
  8
BEZUGSACHSEN
100
AcDbLine
 62
7
  6
CONTINUOUS
 10
104.8623470089
 20
159.2959686445
 11
99.99491926
 21
159.2959686445
  0
LINE
  5
2BB
100
AcDbEntity
  8
BEZUGSACHSEN
100
AcDbLine
 62
7
  6
CONTINUOUS
 10
82.451846636
 20
159.2959686445
 11
77.9307217914
 21
159.2959686445
  0
LINE
  5
2BC
100
AcDbEntity
  8
BEZUGSACHSEN
100
AcDbLine
 62
7
  6
CONTINUOUS
 10
91.9503194405
 20
177.5072466235
 11
92.7506725694
 21
177.0212405988
  0
LINE
  5
2BD
100
AcDbEntity
  8
BEZUGSACHSEN
100
AcDbLine
 62
7
  6
CONTINUOUS
 10
93.0731262083
 20
182.8216138413
 11
96.8801562882
 21
179.7528403791
  0
LINE
  5
2BE
100
AcDbEntity
  8
BEZUGSACHSEN
100
AcDbLine
 62
7
  6
CONTINUOUS
 10
94.300890362
 20
179.7745813951
 11
94.7815830494
 21
179.3635012478
  0
LINE
  5
2BF
100
AcDbEntity
  8
BEZUGSACHSEN
100
AcDbLine
 62
7
  6
CONTINUOUS
 10
95.0459621651
 20
179.7988799092
 11
94.6541963928
 21
180.1559573941
  0
LINE
  5
2C0
100
AcDbEntity
  8
BEZUGSACHSEN
100
AcDbLine
 62
7
  6
CONTINUOUS
 10
103.4200559664
 20
187.3924062194
 11
103.5303213252
 21
187.215944649
  0
LINE
  5
2C1
100
AcDbEntity
  8
BEZUGSACHSEN
100
AcDbLine
 62
7
  6
CONTINUOUS
 10
104.1038100838
 20
187.4516181467
 11
103.8832792117
 21
187.8045415346
  0
LINE
  5
2C2
100
AcDbEntity
  8
0
100
AcDbLine
 62
7
  6
CONTINUOUS
 10
137.1580601981
 20
112.8725610243
 11
137.2662175891
 21
112.4493326165
  0
LINE
  5
2C3
100
AcDbEntity
  8
0
100
AcDbLine
 62
7
  6
CONTINUOUS
 10
135.5122969251
 20
111.3802621499
 11
135.6957046547
 21
110.4473320777
  0
LINE
  5
2C4
100
AcDbEntity
  8
0
100
AcDbLine
 62
7
  6
CONTINUOUS
 10
136.3437099243
 20
109.924987538
 11
136.1603019678
 21
110.8579177931
  0
LINE
  5
2C5
100
AcDbEntity
  8
BEZUGSACHSEN
100
AcDbLine
 62
7
  6
CONTINUOUS
 10
134.288024948
 20
133.8199069565
 11
134.288024948
 21
156.2323653325
  0
LINE
  5
2C6
100
AcDbEntity
  8
0
100
AcDbLine
 62
7
  6
CONTINUOUS
 10
134.388024948
 20
134.3886246445
 11
134.388024948
 21
126.7959686445
  0
LINE
  5
2C7
100
AcDbEntity
  8
BEZUGSACHSEN
100
AcDbLine
 62
7
  6
CONTINUOUS
 10
134.388024948
 20
134.3886246445
 11
134.388024948
 21
139.9793855185
  0
LINE
  5
2C8
100
AcDbEntity
  8
0
100
AcDbLine
 62
7
  6
CONTINUOUS
 10
134.388024948
 20
139.9793855185
 11
134.388024948
 21
151.3917358967
  0
LINE
  5
2C9
100
AcDbEntity
  8
RUNDUNGEN
100
AcDbLine
 62
7
  6
CONTINUOUS
 10
134.388024948
 20
139.9793855185
 11
134.388024948
 21
155.1945253495
  0
LINE
  5
2CA
100
AcDbEntity
  8
0
100
AcDbLine
 62
7
  6
CONTINUOUS
 10
132.4144183351
 20
103.5513781951
 11
132.4070307355
 21
103.178717457
  0
LINE
  5
2CB
100
AcDbEntity
  8
BEZUGSACHSEN
100
AcDbLine
 62
7
  6
CONTINUOUS
 10
92.9261235596
 20
177.5106199296
 11
92.3036266816
 21
177.8886246154
  0
LINE
  5
2CC
100
AcDbEntity
  8
BEZUGSACHSEN
100
AcDbLine
 62
7
  6
CONTINUOUS
 10
93.678393484
 20
180.152586081
 11
94.300890362
 21
179.7745813951
  0
LINE
  5
2CD
100
AcDbEntity
  8
BEZUGSACHSEN
100
AcDbLine
 62
7
  6
CONTINUOUS
 10
94.6541963928
 20
180.1559573941
 11
93.8538432639
 21
180.6419634187
  0
LINE
  5
2CE
100
AcDbEntity
  8
BEZUGSACHSEN
100
AcDbLine
 62
7
  6
CONTINUOUS
 10
96.6157479283
 20
180.7510634959
 11
93.4567228911
 21
183.2974926013
  0
LINE
  5
2CF
100
AcDbEntity
  8
BEZUGSACHSEN
100
AcDbLine
 62
7
  6
CONTINUOUS
 10
97.0803452414
 20
181.1616492113
 11
96.4323399717
 21
181.683993751
  0
LINE
  5
2D0
100
AcDbEntity
  8
0
100
AcDbLine
 62
7
  6
CONTINUOUS
 10
141.7895225193
 20
112.682195562
 11
141.6813650971
 21
113.1054239887
  0
LINE
  5
2D1
100
AcDbEntity
  8
0
100
AcDbLine
 62
7
  6
CONTINUOUS
 10
137.6723996851
 20
112.9177847463
 11
137.6531704195
 21
113.2870124847
  0
LINE
  5
2D2
100
AcDbEntity
  8
0
100
AcDbLine
 62
7
  6
CONTINUOUS
 10
141.2751830011
 20
112.6369718589
 11
141.2944122667
 21
112.2677441205
  0
LINE
  5
2D3
100
AcDbEntity
  8
0
100
AcDbLine
 62
7
  6
CONTINUOUS
 10
137.1556549374
 20
113.4699416939
 11
137.1580601981
 21
112.8725610243
  0
LINE
  5
2D4
100
AcDbEntity
  8
0
100
AcDbLine
 62
7
  6
CONTINUOUS
 10
128.6631409886
 20
105.1331294535
 11
128.5381014193
 21
104.5642701653
  0
LINE
  5
2D5
100
AcDbEntity
  8
BEZUGSACHSEN
100
AcDbLine
 62
7
  6
CONTINUOUS
 10
92.7506725694
 20
177.0212405988
 11
93.2481892618
 21
176.8383133827
  0
LINE
  5
2D6
100
AcDbEntity
  8
BEZUGSACHSEN
100
AcDbLine
 62
7
  6
CONTINUOUS
 10
93.5125671672
 20
177.273690051
 11
92.9261235596
 21
177.5106199296
  0
LINE
  5
2D7
100
AcDbEntity
  8
BEZUGSACHSEN
100
AcDbLine
 62
7
  6
CONTINUOUS
 10
93.0919485416
 20
180.3895140422
 11
93.678393484
 21
180.152586081
  0
LINE
  5
2D8
100
AcDbEntity
  8
BEZUGSACHSEN
100
AcDbLine
 62
7
  6
CONTINUOUS
 10
101.4256381358
 20
185.778111614
 11
101.6774284986
 21
185.5674031409
  0
LINE
  5
2D9
100
AcDbEntity
  8
BEZUGSACHSEN
100
AcDbLine
 62
7
  6
CONTINUOUS
 10
103.1682656037
 20
187.6031146925
 11
103.4200559664
 21
187.3924062194
  0
LINE
  5
2DA
100
AcDbEntity
  8
BEZUGSACHSEN
100
AcDbLine
 62
7
  6
CONTINUOUS
 10
103.8832792117
 20
187.8045415346
 11
103.5763561696
 21
188.1034807929
  0
LINE
  5
2DB
100
AcDbEntity
  8
BEZUGSACHSEN
100
AcDbLine
 62
7
  6
CONTINUOUS
 10
103.0949361883
 20
189.6428788415
 11
102.7880131462
 21
189.9418180997
  0
LINE
  5
2DC
100
AcDbEntity
  8
BEZUGSACHSEN
100
AcDbLine
 62
7
  6
CONTINUOUS
 10
106.0796507741
 20
191.736523011
 11
108.9368111869
 21
188.2628587367
  0
LINE
  5
2DD
100
AcDbEntity
  8
BEZUGSACHSEN
100
AcDbLine
 62
7
  6
CONTINUOUS
 10
109.5076357156
 20
188.4814139166
 11
106.2369953518
 21
192.4651962638
  0
LINE
  5
2DE
100
AcDbEntity
  8
0
100
AcDbLine
 62
7
  6
CONTINUOUS
 10
141.7919290135
 20
112.0848168713
 11
141.7895225193
 21
112.682195562
  0
LINE
  5
2DF
100
AcDbEntity
  8
0
100
AcDbLine
 62
7
  6
CONTINUOUS
 10
132.9106125076
 20
102.7573010359
 11
133.0356520576
 21
103.3261603549
  0
LINE
  5
2E0
100
AcDbEntity
  8
0
100
AcDbLine
 62
7
  6
CONTINUOUS
 10
129.1667227027
 20
104.7117131251
 11
129.3156353063
 21
105.0501269604
  0
LINE
  5
2E1
100
AcDbEntity
  8
BEZUGSACHSEN
100
AcDbLine
 62
7
  6
CONTINUOUS
 10
93.2481892618
 20
176.8383133827
 11
93.5678499524
 21
176.763387354
  0
LINE
  5
2E2
100
AcDbEntity
  8
BEZUGSACHSEN
100
AcDbLine
 62
7
  6
CONTINUOUS
 10
93.8538432639
 20
180.6419634187
 11
93.3563276573
 21
180.8248927035
  0
LINE
  5
2E3
100
AcDbEntity
  8
BEZUGSACHSEN
100
AcDbLine
 62
7
  6
CONTINUOUS
 10
102.1406517439
 20
185.9795384561
 11
101.9439940605
 21
186.1020161441
  0
LINE
  5
2E4
100
AcDbEntity
  8
BEZUGSACHSEN
100
AcDbLine
 62
7
  6
CONTINUOUS
 10
100.0638063539
 20
187.3807754231
 11
100.4571227865
 21
187.1358205415
  0
LINE
  5
2E5
100
AcDbEntity
  8
BEZUGSACHSEN
100
AcDbLine
 62
7
  6
CONTINUOUS
 10
102.3247899009
 20
189.5296827845
 11
102.5765802636
 21
189.3189743114
  0
LINE
  5
2E6
100
AcDbEntity
  8
BEZUGSACHSEN
100
AcDbLine
 62
7
  6
CONTINUOUS
 10
148.502186548
 20
140.4679722827
 11
148.502186548
 21
138.9566198855
  0
LINE
  5
2E7
100
AcDbEntity
  8
RUNDUNGEN
100
AcDbLine
 62
7
  6
CONTINUOUS
 10
148.502186548
 20
140.4679722827
 11
148.502186548
 21
155.1945253362
  0
LINE
  5
2E8
100
AcDbEntity
  8
BEZUGSACHSEN
100
AcDbLine
 62
7
  6
CONTINUOUS
 10
148.817308948
 20
156.2323653325
 11
148.817308948
 21
133.8199069565
  0
LINE
  5
2E9
100
AcDbEntity
  8
0
100
AcDbLine
 62
7
  6
CONTINUOUS
 10
137.6531704195
 20
113.2870124847
 11
137.8286214097
 21
113.7763918155
  0
LINE
  5
2EA
100
AcDbEntity
  8
0
100
AcDbLine
 62
7
  6
CONTINUOUS
 10
137.3839807825
 20
114.0463951625
 11
137.1556549374
 21
113.4699416939
  0
LINE
  5
2EB
100
AcDbEntity
  8
0
100
AcDbLine
 62
7
  6
CONTINUOUS
 10
132.4070307355
 20
103.178717457
 11
132.2581181705
 21
102.8403035598
  0
LINE
  5
2EC
100
AcDbEntity
  8
0
100
AcDbLine
 62
7
  6
CONTINUOUS
 10
128.8984469053
 20
105.525527789
 11
128.6631409886
 21
105.1331294535
  0
LINE
  5
2ED
100
AcDbEntity
  8
BEZUGSACHSEN
100
AcDbLine
 62
7
  6
CONTINUOUS
 10
94.2576392194
 20
177.2979884138
 11
93.5125671672
 21
177.273690051
  0
LINE
  5
2EE
100
AcDbEntity
  8
BEZUGSACHSEN
100
AcDbLine
 62
7
  6
CONTINUOUS
 10
93.5678499524
 20
176.763387354
 11
94.0293133742
 21
176.7215349452
  0
LINE
  5
2EF
100
AcDbEntity
  8
BEZUGSACHSEN
100
AcDbLine
 62
7
  6
CONTINUOUS
 10
93.0366672158
 20
180.8998185808
 11
92.5752037316
 21
180.9416710275
  0
LINE
  5
2F0
100
AcDbEntity
  8
BEZUGSACHSEN
100
AcDbLine
 62
7
  6
CONTINUOUS
 10
93.3563276573
 20
180.8248927035
 11
93.0366672158
 21
180.8998185808
  0
LINE
  5
2F1
100
AcDbEntity
  8
BEZUGSACHSEN
100
AcDbLine
 62
7
  6
CONTINUOUS
 10
101.6774284986
 20
185.5674031409
 11
102.1571371785
 21
185.3764322652
  0
LINE
  5
2F2
100
AcDbEntity
  8
BEZUGSACHSEN
100
AcDbLine
 62
7
  6
CONTINUOUS
 10
100.8652133524
 20
187.6361866419
 11
100.5270295992
 21
187.7929107384
  0
LINE
  5
2F3
100
AcDbEntity
  8
BEZUGSACHSEN
100
AcDbLine
 62
7
  6
CONTINUOUS
 10
102.7880131462
 20
189.9418180997
 11
102.2531717289
 21
190.2210198532
  0
LINE
  5
2F4
100
AcDbEntity
  8
RUNDUNGEN
100
AcDbLine
 62
7
  6
CONTINUOUS
 10
151.388024948
 20
126.8412959503
 11
151.388024948
 21
126.7959686445
  0
LINE
  5
2F5
100
AcDbEntity
  8
BEZUGSACHSEN
100
AcDbLine
 62
7
  6
CENTER
 10
151.70738381
 20
145.8044906445
 11
151.70738381
 21
140.9201711744
  0
LINE
  5
2F6
100
AcDbEntity
  8
BEZUGSACHSEN
100
AcDbLine
 62
7
  6
CENTER
 10
151.70738381
 20
145.8044906445
 11
151.70738381
 21
150.6888101146
  0
LINE
  5
2F7
100
AcDbEntity
  8
0
100
AcDbLine
 62
7
  6
CONTINUOUS
 10
141.2944122667
 20
112.2677441205
 11
141.1189624867
 21
111.7783667828
  0
LINE
  5
2F8
100
AcDbEntity
  8
0
100
AcDbLine
 62
7
  6
CONTINUOUS
 10
141.5636031762
 20
111.5083633979
 11
141.7919290135
 21
112.0848168713
  0
LINE
  5
2F9
100
AcDbEntity
  8
0
100
AcDbLine
 62
7
  6
CONTINUOUS
 10
132.6753075939
 20
102.3649032949
 11
132.9106125076
 21
102.7573010359
  0
LINE
  5
2FA
100
AcDbEntity
  8
0
100
AcDbLine
 62
7
  6
CONTINUOUS
 10
135.8958936078
 20
111.8561409099
 11
135.5122969251
 21
111.3802621499
  0
LINE
  5
2FB
100
AcDbEntity
  8
0
100
AcDbLine
 62
7
  6
CONTINUOUS
 10
129.3156353063
 20
105.0501269604
 11
129.5196805892
 21
105.3003100106
  0
LINE
  5
2FC
100
AcDbEntity
  8
0
100
AcDbLine
 62
7
  6
CONTINUOUS
 10
137.7901628785
 20
114.5148472923
 11
137.3839807825
 21
114.0463951625
  0
LINE
  5
2FD
100
AcDbEntity
  8
0
100
AcDbLine
 62
7
  6
CONTINUOUS
 10
137.8286214097
 20
113.7763918155
 11
138.1819274405
 21
114.1577678144
  0
LINE
  5
2FE
100
AcDbEntity
  8
0
100
AcDbLine
 62
7
  6
CONTINUOUS
 10
129.1888845128
 20
105.8296947217
 11
128.8984469053
 21
105.525527789
  0
LINE
  5
2FF
100
AcDbEntity
  8
0
100
AcDbLine
 62
7
  6
CONTINUOUS
 10
138.3213251602
 20
114.7882219524
 11
137.7901628785
 21
114.5148472923
  0
LINE
  5
300
100
AcDbEntity
  8
BEZUGSACHSEN
100
AcDbLine
 62
7
  6
CONTINUOUS
 10
94.0293133742
 20
176.7215349452
 11
94.4547247358
 21
176.8207593366
  0
LINE
  5
301
100
AcDbEntity
  8
BEZUGSACHSEN
100
AcDbLine
 62
7
  6
CONTINUOUS
 10
92.3468778865
 20
180.3652175589
 11
93.0919485416
 21
180.3895140422
  0
LINE
  5
302
100
AcDbEntity
  8
BEZUGSACHSEN
100
AcDbLine
 62
7
  6
CONTINUOUS
 10
102.4237027404
 20
185.9110452684
 11
102.1406517439
 21
185.9795384561
  0
LINE
  5
303
100
AcDbEntity
  8
BEZUGSACHSEN
100
AcDbLine
 62
7
  6
CONTINUOUS
 10
100.4571227865
 20
187.1358205415
 11
101.023223791
 21
186.9988335482
  0
LINE
  5
304
100
AcDbEntity
  8
BEZUGSACHSEN
100
AcDbLine
 62
7
  6
CONTINUOUS
 10
156.0938767514
 20
132.9613578608
 11
159.7104602742
 21
138.1263744101
  0
LINE
  5
305
100
AcDbEntity
  8
0
100
AcDbLine
 62
7
  6
CONTINUOUS
 10
139.3193270049
 20
108.3114886877
 11
139.7029236877
 21
108.7873674477
  0
LINE
  5
306
100
AcDbEntity
  8
0
100
AcDbLine
 62
7
  6
CONTINUOUS
 10
141.1574210724
 20
111.0399112729
 11
141.5636031762
 21
111.5083633979
  0
LINE
  5
307
100
AcDbEntity
  8
0
100
AcDbLine
 62
7
  6
CONTINUOUS
 10
141.1189624867
 20
111.7783667828
 11
140.7656552457
 21
111.3969887908
  0
LINE
  5
308
100
AcDbEntity
  8
0
100
AcDbLine
 62
7
  6
CONTINUOUS
 10
132.2581181705
 20
102.8403035598
 11
131.9676805631
 21
102.5361366272
  0
LINE
  5
309
100
AcDbEntity
  8
0
100
AcDbLine
 62
7
  6
CONTINUOUS
 10
129.6208481129
 20
106.0996153693
 11
129.1888845128
 21
105.8296947217
  0
LINE
  5
30A
100
AcDbEntity
  8
0
100
AcDbLine
 62
7
  6
CONTINUOUS
 10
129.5196805892
 20
105.3003100106
 11
130.0380365139
 21
105.6242145407
  0
LINE
  5
30B
100
AcDbEntity
  8
0
100
AcDbLine
 62
7
  6
CONTINUOUS
 10
130.8320558355
 20
105.5069651449
 11
131.3504117602
 21
105.830869675
  0
LINE
  5
30C
100
AcDbEntity
  8
0
100
AcDbLine
 62
7
  6
CONTINUOUS
 10
140.6262575571
 20
110.7665346339
 11
141.1574210724
 21
111.0399112729
  0
LINE
  5
30D
100
AcDbEntity
  8
0
100
AcDbLine
 62
7
  6
CONTINUOUS
 10
138.1819274405
 20
114.1577678144
 11
138.5184106767
 21
114.3109928752
  0
LINE
  5
30E
100
AcDbEntity
  8
0
100
AcDbLine
 62
7
  6
CONTINUOUS
 10
140.7656552457
 20
111.3969887908
 11
140.4291720095
 21
111.2437637301
  0
LINE
  5
30F
100
AcDbEntity
  8
0
100
AcDbLine
 62
7
  6
CONTINUOUS
 10
127.07391122
 20
104.5846019745
 11
126.5030866913
 21
104.3660467946
  0
LINE
  5
310
100
AcDbEntity
  8
0
100
AcDbLine
 62
7
  6
CONTINUOUS
 10
123.8392387091
 20
103.3461225523
 11
123.2684141804
 21
103.1275673724
  0
LINE
  5
311
100
AcDbEntity
  8
0
100
AcDbLine
 62
7
  6
CONTINUOUS
 10
130.1079434038
 20
106.281304614
 11
129.6208481129
 21
106.0996153693
  0
LINE
  5
312
100
AcDbEntity
  8
BEZUGSACHSEN
100
AcDbLine
 62
7
  6
CONTINUOUS
 10
102.7380133822
 20
185.9847667483
 11
102.4237027404
 21
185.9110452684
  0
LINE
  5
313
100
AcDbEntity
  8
BEZUGSACHSEN
100
AcDbLine
 62
7
  6
CONTINUOUS
 10
92.5752037316
 20
180.9416710275
 11
92.1497923389
 21
180.8424466551
  0
LINE
  5
314
100
AcDbEntity
  8
BEZUGSACHSEN
100
AcDbLine
 62
7
  6
CONTINUOUS
 10
101.023223791
 20
186.9988335482
 11
101.4790594366
 21
187.0383081254
  0
LINE
  5
315
100
AcDbEntity
  8
BEZUGSACHSEN
100
AcDbLine
 62
7
  6
CONTINUOUS
 10
101.2346566735
 20
187.6216773366
 11
100.8652133524
 21
187.6361866419
  0
LINE
  5
316
100
AcDbEntity
  8
BEZUGSACHSEN
100
AcDbLine
 62
7
  6
CONTINUOUS
 10
102.7988222826
 20
187.6176239978
 11
103.1682656037
 21
187.6031146925
  0
LINE
  5
317
100
AcDbEntity
  8
BEZUGSACHSEN
100
AcDbLine
 62
7
  6
CONTINUOUS
 10
102.1571371785
 20
185.3764322652
 11
102.6681064923
 21
185.327676675
  0
LINE
  5
318
100
AcDbEntity
  8
BEZUGSACHSEN
100
AcDbLine
 62
7
  6
CONTINUOUS
 10
103.5763561696
 20
188.1034807929
 11
103.0102551651
 21
188.2404677861
  0
LINE
  5
319
100
AcDbEntity
  8
BEZUGSACHSEN
100
AcDbLine
 62
7
  6
CONTINUOUS
 10
101.9002138617
 20
189.6324229368
 11
102.3247899009
 21
189.5296827845
  0
LINE
  5
31A
100
AcDbEntity
  8
BEZUGSACHSEN
100
AcDbLine
 62
7
  6
CONTINUOUS
 10
160.388024948
 20
153.6627869396
 11
160.388024948
 21
150.3251735805
  0
LINE
  5
31B
100
AcDbEntity
  8
BEZUGSACHSEN
100
AcDbLine
 62
7
  6
CONTINUOUS
 10
160.388024948
 20
141.2838077085
 11
160.388024948
 21
140.2753350079
  0
LINE
  5
31C
100
AcDbEntity
  8
0
100
AcDbLine
 62
7
  6
CONTINUOUS
 10
132.298476678
 20
102.0067518544
 11
132.6753075939
 21
102.3649032949
  0
LINE
  5
31D
100
AcDbEntity
  8
0
100
AcDbLine
 62
7
  6
CONTINUOUS
 10
130.8098941799
 20
104.3889833011
 11
130.2915382552
 21
104.0650787711
  0
LINE
  5
31E
100
AcDbEntity
  8
0
100
AcDbLine
 62
7
  6
CONTINUOUS
 10
130.6223343316
 20
103.53569406
 11
131.1406902563
 21
103.8595985901
  0
LINE
  5
31F
100
AcDbEntity
  8
0
100
AcDbLine
 62
7
  6
CONTINUOUS
 10
130.1994696324
 20
102.2900069776
 11
129.6811137078
 21
101.9661024475
  0
LINE
  5
320
100
AcDbEntity
  8
0
100
AcDbLine
 62
7
  6
CONTINUOUS
 10
131.9676805631
 20
102.5361366272
 11
131.2765390006
 21
102.1042637145
  0
LINE
  5
321
100
AcDbEntity
  8
0
100
AcDbLine
 62
7
  6
CONTINUOUS
 10
131.6073351156
 20
101.5748789417
 11
132.298476678
 21
102.0067518544
  0
LINE
  5
322
100
AcDbEntity
  8
0
100
AcDbLine
 62
7
  6
CONTINUOUS
 10
131.2969904594
 20
104.5706731636
 11
130.8098941799
 21
104.3889833011
  0
LINE
  5
323
100
AcDbEntity
  8
0
100
AcDbLine
 62
7
  6
CONTINUOUS
 10
131.1202398199
 20
101.3931897047
 11
131.6073351156
 21
101.5748789417
  0
LINE
  5
324
100
AcDbEntity
  8
0
100
AcDbLine
 62
7
  6
CONTINUOUS
 10
131.1406902563
 20
103.8595985901
 11
131.5413932225
 21
103.9873039524
  0
LINE
  5
325
100
AcDbEntity
  8
0
100
AcDbLine
 62
7
  6
CONTINUOUS
 10
130.2216313653
 20
103.4079886978
 11
130.6223343316
 21
103.53569406
  0
LINE
  5
326
100
AcDbEntity
  8
0
100
AcDbLine
 62
7
  6
CONTINUOUS
 10
131.2765390006
 20
102.1042637145
 11
130.8758360343
 21
101.9765583522
  0
LINE
  5
327
100
AcDbEntity
  8
BEZUGSACHSEN
100
AcDbLine
 62
7
  6
CONTINUOUS
 10
110.3214497358
 20
188.6178829933
 11
110.9155843564
 21
188.7614485246
  0
LINE
  5
328
100
AcDbEntity
  8
BEZUGSACHSEN
100
AcDbLine
 62
7
  6
CONTINUOUS
 10
102.4845116408
 20
187.5439025179
 11
102.7988222826
 21
187.6176239978
  0
LINE
  5
329
100
AcDbEntity
  8
BEZUGSACHSEN
100
AcDbLine
 62
7
  6
CONTINUOUS
 10
103.0102551651
 20
188.2404677861
 11
102.5544185307
 21
188.2009925912
  0
LINE
  5
32A
100
AcDbEntity
  8
BEZUGSACHSEN
100
AcDbLine
 62
7
  6
CONTINUOUS
 10
102.2531717289
 20
190.2210198532
 11
101.6558100761
 21
190.2157915843
  0
LINE
  5
32B
100
AcDbEntity
  8
BEZUGSACHSEN
100
AcDbLine
 62
7
  6
CONTINUOUS
 10
141.8477046738
 20
185.6568835282
 11
159.253578505
 21
157.6387069829
  0
LINE
  5
32C
100
AcDbEntity
  8
0
100
AcDbLine
 62
7
  6
CONTINUOUS
 10
126.5390545443
 20
99.1437850252
 11
127.3001537344
 21
99.4351918623
  0
LINE
  5
32D
100
AcDbEntity
  8
BEZUGSACHSEN
100
AcDbLine
 62
7
  6
CONTINUOUS
 10
109.7670601065
 20
193.5145254899
 11
109.1729254858
 21
193.3709599587
  0
LINE
  5
32E
100
AcDbEntity
  8
BEZUGSACHSEN
100
AcDbLine
 62
7
  6
CONTINUOUS
 10
262.463686398
 20
91.7959686445
 11
266.5611149501
 21
92.226625739
  0
LINE
  5
32F
100
AcDbEntity
  8
AUSFORMSCHRAEGEN
100
AcDbLine
 62
7
  6
CONTINUOUS
 10
262.463686398
 20
91.7959686445
 11
266.5611149501
 21
92.226625739
  0
LINE
  5
330
100
AcDbEntity
  8
BEZUGSACHSEN
100
AcDbLine
 62
7
  6
CONTINUOUS
 10
262.463686398
 20
91.7959686445
 11
258.3662578459
 21
92.226625739
  0
LINE
  5
331
100
AcDbEntity
  8
BEZUGSACHSEN
100
AcDbLine
 62
8
  6
HIDDEN
 10
262.463686398
 20
108.7959686445
 11
261.1090517971
 21
108.5814156014
  0
LINE
  5
332
100
AcDbEntity
  8
BEZUGSACHSEN
100
AcDbLine
 62
8
  6
HIDDEN
 10
262.463686398
 20
108.7959686445
 11
263.8183209989
 21
108.5814156014
  0
LINE
  5
333
100
AcDbEntity
  8
BEZUGSACHSEN
100
AcDbLine
 62
7
  6
CONTINUOUS
 10
253.3687987577
 20
161.6991682285
 11
252.3464046489
 21
160.6767741197
  0
LINE
  5
334
100
AcDbEntity
  8
BEZUGSACHSEN
100
AcDbLine
 62
7
  6
CONTINUOUS
 10
253.3687987577
 20
129.9098130605
 11
252.3464046489
 21
130.9322071692
  0
LINE
  5
335
100
AcDbEntity
  8
BEZUGSACHSEN
100
AcDbLine
 62
7
  6
CONTINUOUS
 10
251.463686398
 20
158.5457037466
 11
251.463686398
 21
153.1196249954
  0
LINE
  5
336
100
AcDbEntity
  8
RUNDUNGEN
100
AcDbLine
 62
7
  6
CONTINUOUS
 10
251.463686398
 20
153.1196249954
 11
251.463686398
 21
151.8957750869
  0
LINE
  5
337
100
AcDbEntity
  8
BEZUGSACHSEN
100
AcDbLine
 62
7
  6
CONTINUOUS
 10
251.463686398
 20
151.8957750869
 11
251.463686398
 21
133.0632775423
  0
LINE
  5
338
100
AcDbEntity
  8
BEZUGSACHSEN
100
AcDbLine
 62
7
  6
CONTINUOUS
 10
256.2688613858
 20
177.9736450723
 11
254.222186586
 21
163.4107971702
  0
LINE
  5
339
100
AcDbEntity
  8
BEZUGSACHSEN
100
AcDbLine
 62
7
  6
CONTINUOUS
 10
254.222187191
 20
128.1981798137
 11
256.2688610921
 21
113.635338306
  0
LWPOLYLINE
  5
33A
100
AcDbEntity
  8
BEZUGSACHSEN
100
AcDbPolyline
 62
7
  6
CONTINUOUS
 90
4
 70
0
 10
256.342186398
 20
158.7887704708
 10
256.346936212
 20
158.6692400491
 10
256.3611560151
 20
158.5504612601
 10
256.365324012
 20
158.5257628035
  0
LINE
  5
33B
100
AcDbEntity
  8
BEZUGSACHSEN
100
AcDbLine
 62
7
  6
CONTINUOUS
 10
256.342186398
 20
112.5867380321
 11
256.342186398
 21
94.47458482
  0
LINE
  5
33C
100
AcDbEntity
  8
BEZUGSACHSEN
100
AcDbLine
 62
7
  6
CONTINUOUS
 10
256.342186398
 20
158.7886900363
 11
256.342186398
 21
197.134396469
  0
LINE
  5
33D
100
AcDbEntity
  8
T_STARTBEZUEGE
100
AcDbLine
 62
7
  6
CENTER
 10
262.463686398
 20
202.8130126445
 11
262.463686398
 21
88.7959686445
  0
LINE
  5
33E
100
AcDbEntity
  8
BEZUGSACHSEN
100
AcDbLine
 62
7
  6
CONTINUOUS
 10
262.463686398
 20
164.7676853387
 11
262.463686398
 21
199.8130126445
  0
LINE
  5
33F
100
AcDbEntity
  8
T_STARTBEZUEGE
100
AcDbLine
 62
7
  6
CENTER
 10
277.2753520355
 20
145.8044906445
 11
247.6520207605
 21
145.8044906445
  0
LWPOLYLINE
  5
340
100
AcDbEntity
  8
BEZUGSACHSEN
100
AcDbPolyline
 62
7
  6
CONTINUOUS
 90
4
 70
0
 10
268.5620485606
 20
158.5257587225
 10
268.5662166133
 20
158.5504575876
 10
268.5804365387
 20
158.669237786
 10
268.585186398
 20
158.7887697027
  0
LINE
  5
341
100
AcDbEntity
  8
BEZUGSACHSEN
100
AcDbLine
 62
7
  6
CONTINUOUS
 10
268.585186398
 20
197.134396469
 11
268.585186398
 21
158.7887164977
  0
LINE
  5
342
100
AcDbEntity
  8
RUNDUNGEN
100
AcDbLine
 62
7
  6
CONTINUOUS
 10
268.585186398
 20
112.5867380321
 11
268.585186398
 21
94.47458482
  0
LINE
  5
343
100
AcDbEntity
  8
BEZUGSACHSEN
100
AcDbLine
 62
7
  6
CONTINUOUS
 10
273.463686398
 20
158.5457037466
 11
273.463686398
 21
153.1196249954
  0
LINE
  5
344
100
AcDbEntity
  8
RUNDUNGEN
100
AcDbLine
 62
7
  6
CONTINUOUS
 10
273.463686398
 20
153.1196249954
 11
273.463686398
 21
133.0632775423
  0
LINE
  5
345
100
AcDbEntity
  8
RUNDUNGEN
100
AcDbLine
 62
7
  6
CONTINUOUS
 10
270.7051856051
 20
128.1981798137
 11
268.6585117039
 21
113.635338306
  0
LINE
  5
346
100
AcDbEntity
  8
BEZUGSACHSEN
100
AcDbLine
 62
7
  6
CONTINUOUS
 10
268.6585114103
 20
177.9736450723
 11
270.7051862101
 21
163.4107971702
  0
LINE
  5
347
100
AcDbEntity
  8
RUNDUNGEN
100
AcDbLine
 62
7
  6
CONTINUOUS
 10
272.5809414766
 20
130.9321804987
 11
271.5585804517
 21
129.9098194738
  0
LINE
  5
348
100
AcDbEntity
  8
BEZUGSACHSEN
100
AcDbLine
 62
7
  6
CONTINUOUS
 10
271.5585740384
 20
161.6991682285
 11
272.5809681471
 21
160.6767741197
  0
LINE
  5
349
100
AcDbEntity
  8
BEZUGSACHSEN
100
AcDbLine
 62
8
  6
HIDDEN
 10
262.463686398
 20
182.8130126445
 11
263.8183209989
 21
183.0275656876
  0
LINE
  5
34A
100
AcDbEntity
  8
BEZUGSACHSEN
100
AcDbLine
 62
8
  6
HIDDEN
 10
262.463686398
 20
182.8130126445
 11
261.1090517971
 21
183.0275656876
  0
LINE
  5
34B
100
AcDbEntity
  8
BEZUGSACHSEN
100
AcDbLine
 62
7
  6
CONTINUOUS
 10
262.463686398
 20
199.8130126445
 11
258.3662578459
 21
199.38235555
  0
LINE
  5
34C
100
AcDbEntity
  8
BEZUGSACHSEN
100
AcDbLine
 62
7
  6
CONTINUOUS
 10
262.463686398
 20
199.8130126445
 11
266.5611149501
 21
199.38235555
  0
ARC
  5
34D
100
AcDbEntity
  8
BEZUGSACHSEN
100
AcDbCircle
 62
7
  6
CONTINUOUS
 10
98.853553388
 20
132.4025111884
 40
7.53447156
100
AcDbArc
 50
328.7648355016
 51
360.0
  0
ARC
  5
34E
100
AcDbEntity
  8
BEZUGSACHSEN
100
AcDbCircle
 62
7
  6
CONTINUOUS
 10
79.922496508
 20
137.9461943494
 40
7.53447156
100
AcDbArc
 50
180.0
 51
211.85
  0
ARC
  5
34F
100
AcDbEntity
  8
BEZUGSACHSEN
100
AcDbCircle
 62
7
  6
CONTINUOUS
 10
96.881130636
 20
136.4144219565
 40
1.506894312
100
AcDbArc
 50
270.0
 51
360.0
  0
ARC
  5
350
100
AcDbEntity
  8
BEZUGSACHSEN
100
AcDbCircle
 62
7
  6
CONTINUOUS
 10
85.78075766
 20
136.4144219565
 40
1.506894312
100
AcDbArc
 50
180.0
 51
270.0
  0
ARC
  5
351
100
AcDbEntity
  8
RUNDUNGEN
100
AcDbCircle
 62
7
  6
CONTINUOUS
 10
85.46563526
 20
135.3766159565
 40
1.506894312
100
AcDbArc
 50
180.0
 51
269.9992303471
  0
ARC
  5
352
100
AcDbEntity
  8
RUNDUNGEN
100
AcDbCircle
 62
7
  6
CONTINUOUS
 10
96.981130636
 20
135.3766159565
 40
1.506894312
100
AcDbArc
 50
269.9997141681
 51
360.0
  0
ARC
  5
353
100
AcDbEntity
  8
BEZUGSACHSEN
100
AcDbCircle
 62
7
  6
CONTINUOUS
 10
79.9832853043
 20
157.4075276445
 40
6.4047396438
100
AcDbArc
 50
311.9880596788
 51
68.3418233597
  0
ARC
  5
354
100
AcDbEntity
  8
BEZUGSACHSEN
100
AcDbCircle
 62
7
  6
CONTINUOUS
 10
76.1337174504
 20
151.333931931
 40
3.7456925133
100
AcDbArc
 50
144.9956305717
 51
180.0043694283
  0
CIRCLE
  5
355
100
AcDbEntity
  8
BEZUGSACHSEN
100
AcDbCircle
 62
7
  6
CONTINUOUS
 10
81.068666086
 20
145.8044906445
 40
1.8843194701
  0
ARC
  5
356
100
AcDbEntity
  8
RUNDUNGEN
100
AcDbCircle
 62
7
  6
CONTINUOUS
 10
82.451846636
 20
157.7890743325
 40
1.506894312
100
AcDbArc
 50
0.0
 51
90.0
  0
ARC
  5
357
100
AcDbEntity
  8
RUNDUNGEN
100
AcDbCircle
 62
7
  6
CONTINUOUS
 10
99.99491926
 20
157.7890743325
 40
1.506894312
100
AcDbArc
 50
90.0
 51
180.0
  0
ARC
  5
358
100
AcDbEntity
  8
BEZUGSACHSEN
100
AcDbCircle
 62
7
  6
CONTINUOUS
 10
116.388024948
 20
126.7959686445
 40
35.0
100
AcDbArc
 50
270.0
 51
360.0
  0
ARC
  5
359
100
AcDbEntity
  8
BEZUGSACHSEN
100
AcDbCircle
 62
7
  6
CONTINUOUS
 10
116.388024948
 20
121.7685436445
 40
29.972575
100
AcDbArc
 50
211.85
 51
270.0
  0
ARC
  5
35A
100
AcDbEntity
  8
BEZUGSACHSEN
100
AcDbCircle
 62
7
  6
CONTINUOUS
 10
116.388024948
 20
126.7959686445
 40
18.0
100
AcDbArc
 50
270.0
 51
360.0
  0
ARC
  5
35B
100
AcDbEntity
  8
BEZUGSACHSEN
100
AcDbCircle
 62
7
  6
CONTINUOUS
 10
116.388024948
 20
121.7685436445
 40
12.972575
100
AcDbArc
 50
148.7648355016
 51
270.0
  0
ARC
  5
35C
100
AcDbEntity
  8
BEZUGSACHSEN
100
AcDbCircle
 62
7
  6
CONTINUOUS
 10
152.7927645918
 20
134.2014536445
 40
6.4047396438
100
AcDbArc
 50
131.9880596788
 51
248.3418233597
  0
ARC
  5
35D
100
AcDbEntity
  8
BEZUGSACHSEN
100
AcDbCircle
 62
7
  6
CONTINUOUS
 10
156.6423324456
 20
140.275049358
 40
3.7456925133
100
AcDbArc
 50
324.9956305717
 51
0.0043694283
  0
ARC
  5
35E
100
AcDbEntity
  8
BEZUGSACHSEN
100
AcDbCircle
 62
7
  6
CONTINUOUS
 10
150.32420326
 20
133.8199069565
 40
1.506894312
100
AcDbArc
 50
180.0
 51
270.0
  0
ARC
  5
35F
100
AcDbEntity
  8
BEZUGSACHSEN
100
AcDbCircle
 62
7
  6
CONTINUOUS
 10
132.781130636
 20
133.8199069565
 40
1.506894312
100
AcDbArc
 50
270.0
 51
360.0
  0
ARC
  5
360
100
AcDbEntity
  8
BEZUGSACHSEN
100
AcDbCircle
 62
7
  6
CONTINUOUS
 10
116.388024948
 20
164.8130126445
 40
35.0
100
AcDbArc
 50
90.0
 51
180.0
  0
ARC
  5
361
100
AcDbEntity
  8
BEZUGSACHSEN
100
AcDbCircle
 62
7
  6
CONTINUOUS
 10
116.388024948
 20
169.8404376445
 40
29.972575
100
AcDbArc
 50
31.85
 51
90.0
  0
ARC
  5
362
100
AcDbEntity
  8
BEZUGSACHSEN
100
AcDbCircle
 62
7
  6
CONTINUOUS
 10
116.388024948
 20
164.8130126445
 40
18.0
100
AcDbArc
 50
90.0
 51
180.0
  0
ARC
  5
363
100
AcDbEntity
  8
BEZUGSACHSEN
100
AcDbCircle
 62
7
  6
CONTINUOUS
 10
116.388024948
 20
169.8404376445
 40
12.972575
100
AcDbArc
 50
328.7648355016
 51
90.0
  0
ARC
  5
364
100
AcDbEntity
  8
BEZUGSACHSEN
100
AcDbCircle
 62
7
  6
CONTINUOUS
 10
152.853553388
 20
153.6627869396
 40
7.53447156
100
AcDbArc
 50
0.0
 51
31.85
  0
ARC
  5
365
100
AcDbEntity
  8
BEZUGSACHSEN
100
AcDbCircle
 62
7
  6
CONTINUOUS
 10
133.922496508
 20
159.2064701006
 40
7.53447156
100
AcDbArc
 50
148.7648355016
 51
180.0
  0
CIRCLE
  5
366
100
AcDbEntity
  8
BEZUGSACHSEN
100
AcDbCircle
 62
7
  6
CONTINUOUS
 10
151.70738381
 20
145.8044906445
 40
1.8843194701
  0
ARC
  5
367
100
AcDbEntity
  8
RUNDUNGEN
100
AcDbCircle
 62
7
  6
CONTINUOUS
 10
135.89491926
 20
155.1945593325
 40
1.506894312
100
AcDbArc
 50
90.0
 51
180.0
  0
ARC
  5
368
100
AcDbEntity
  8
RUNDUNGEN
100
AcDbCircle
 62
7
  6
CONTINUOUS
 10
146.995292236
 20
155.1945593325
 40
1.506894312
100
AcDbArc
 50
0.0
 51
90.0
  0
ARC
  5
369
100
AcDbEntity
  8
BEZUGSACHSEN
100
AcDbCircle
 62
7
  6
CONTINUOUS
 10
135.79491926
 20
156.2323653325
 40
1.506894312
100
AcDbArc
 50
89.9997141681
 51
180.0
  0
ARC
  5
36A
100
AcDbEntity
  8
BEZUGSACHSEN
100
AcDbCircle
 62
7
  6
CONTINUOUS
 10
147.310414636
 20
156.2323653325
 40
1.506894312
100
AcDbArc
 50
0.0
 51
89.9992303471
  0
ARC
  5
36B
100
AcDbEntity
  8
BEZUGSACHSEN
100
AcDbCircle
 62
7
  6
CONTINUOUS
 10
248.807714838
 20
112.5867400686
 40
7.53447156
100
AcDbArc
 50
359.9999845132
 51
8.0000189394
  0
ARC
  5
36C
100
AcDbEntity
  8
BEZUGSACHSEN
100
AcDbCircle
 62
8
  6
HIDDEN
 10
261.993040068
 20
103.0001333171
 40
5.65085367
100
AcDbArc
 50
99.0
 51
180.0
  0
ARC
  5
36D
100
AcDbEntity
  8
BEZUGSACHSEN
100
AcDbCircle
 62
7
  6
CONTINUOUS
 10
251.2377283846
 20
127.7787426874
 40
3.013788624
100
AcDbArc
 50
7.9999773045
 51
45.0001724276
  0
ARC
  5
36E
100
AcDbEntity
  8
BEZUGSACHSEN
100
AcDbCircle
 62
7
  6
CONTINUOUS
 10
254.477475022
 20
133.0632775423
 40
3.013788624
100
AcDbArc
 50
179.9993135547
 51
225.0002909742
  0
ARC
  5
36F
100
AcDbEntity
  8
BEZUGSACHSEN
100
AcDbCircle
 62
7
  6
CONTINUOUS
 10
258.602527866
 20
94.47458482
 40
2.260341468
100
AcDbArc
 50
180.0
 51
264.0
  0
ARC
  5
370
100
AcDbEntity
  8
BEZUGSACHSEN
100
AcDbCircle
 62
7
  6
CONTINUOUS
 10
248.807714838
 20
179.0222412204
 40
7.53447156
100
AcDbArc
 50
351.9999971056
 51
0.0000154868
  0
ARC
  5
371
100
AcDbEntity
  8
BEZUGSACHSEN
100
AcDbCircle
 62
7
  6
CONTINUOUS
 10
250.0589467543
 20
157.4075276445
 40
6.4047396438
100
AcDbArc
 50
4.219192616
 51
10.0736309795
  0
ARC
  5
372
100
AcDbEntity
  8
BEZUGSACHSEN
100
AcDbCircle
 62
8
  6
HIDDEN
 10
261.993040068
 20
188.6088479719
 40
5.65085367
100
AcDbArc
 50
180.0
 51
261.0
  0
ARC
  5
373
100
AcDbEntity
  8
BEZUGSACHSEN
100
AcDbCircle
 62
7
  6
CONTINUOUS
 10
254.477475022
 20
158.5457037466
 40
3.013788624
100
AcDbArc
 50
135.0
 51
180.0
  0
ARC
  5
374
100
AcDbEntity
  8
BEZUGSACHSEN
100
AcDbCircle
 62
7
  6
CONTINUOUS
 10
251.2377283846
 20
163.8302386016
 40
3.013788624
100
AcDbArc
 50
315.0000290573
 51
351.9999400466
  0
ARC
  5
375
100
AcDbEntity
  8
BEZUGSACHSEN
100
AcDbCircle
 62
7
  6
CONTINUOUS
 10
258.602527866
 20
197.134396469
 40
2.260341468
100
AcDbArc
 50
96.0
 51
180.0
  0
ARC
  5
376
100
AcDbEntity
  8
RUNDUNGEN
100
AcDbCircle
 62
7
  6
CONTINUOUS
 10
252.97058071
 20
153.1196249954
 40
1.506894312
100
AcDbArc
 50
142.3831110937
 51
180.0
  0
ARC
  5
377
100
AcDbEntity
  8
RUNDUNGEN
100
AcDbCircle
 62
7
  6
CONTINUOUS
 10
276.119657958
 20
112.5867400686
 40
7.53447156
100
AcDbArc
 50
171.9999810606
 51
180.0000154868
  0
ARC
  5
378
100
AcDbEntity
  8
RUNDUNGEN
100
AcDbCircle
 62
8
  6
HIDDEN
 10
262.934332728
 20
103.0001333171
 40
5.65085367
100
AcDbArc
 50
0.0
 51
81.0
  0
ARC
  5
379
100
AcDbEntity
  8
RUNDUNGEN
100
AcDbCircle
 62
7
  6
CONTINUOUS
 10
273.6896444115
 20
127.7787426874
 40
3.013788624
100
AcDbArc
 50
134.9998275724
 51
172.0000226955
  0
ARC
  5
37A
100
AcDbEntity
  8
RUNDUNGEN
100
AcDbCircle
 62
7
  6
CONTINUOUS
 10
270.449897774
 20
133.0632775423
 40
3.013788624
100
AcDbArc
 50
314.9997090258
 51
0.0006864453
  0
ARC
  5
37B
100
AcDbEntity
  8
RUNDUNGEN
100
AcDbCircle
 62
7
  6
CONTINUOUS
 10
266.32484493
 20
94.47458482
 40
2.260341468
100
AcDbArc
 50
276.0
 51
360.0
  0
ARC
  5
37C
100
AcDbEntity
  8
RUNDUNGEN
100
AcDbCircle
 62
7
  6
CONTINUOUS
 10
262.463686398
 20
145.8044906445
 40
13.491478
100
AcDbArc
 50
37.6168889063
 51
142.3831110937
  0
CIRCLE
  5
37D
100
AcDbEntity
  8
0
100
AcDbCircle
 62
7
  6
CONTINUOUS
 10
262.463686398
 20
145.8044906445
 40
4.520682936
  0
ARC
  5
37E
100
AcDbEntity
  8
BEZUGSACHSEN
100
AcDbCircle
 62
8
  6
HIDDEN
 10
262.934332728
 20
188.6088479719
 40
5.65085367
100
AcDbArc
 50
279.0
 51
360.0
  0
ARC
  5
37F
100
AcDbEntity
  8
BEZUGSACHSEN
100
AcDbCircle
 62
7
  6
CONTINUOUS
 10
266.32484493
 20
197.134396469
 40
2.260341468
100
AcDbArc
 50
0.0
 51
84.0
  0
ARC
  5
380
100
AcDbEntity
  8
BEZUGSACHSEN
100
AcDbCircle
 62
7
  6
CONTINUOUS
 10
274.8684260418
 20
157.4075276445
 40
6.4047396438
100
AcDbArc
 50
169.9260705562
 51
175.7869758778
  0
ARC
  5
381
100
AcDbEntity
  8
BEZUGSACHSEN
100
AcDbCircle
 62
7
  6
CONTINUOUS
 10
270.449897774
 20
158.5457037466
 40
3.013788624
100
AcDbArc
 50
0.0
 51
45.0
  0
ARC
  5
382
100
AcDbEntity
  8
BEZUGSACHSEN
100
AcDbCircle
 62
7
  6
CONTINUOUS
 10
273.6896444115
 20
163.8302386016
 40
3.013788624
100
AcDbArc
 50
188.0000599534
 51
224.9999709427
  0
ARC
  5
383
100
AcDbEntity
  8
RUNDUNGEN
100
AcDbCircle
 62
7
  6
CONTINUOUS
 10
271.9567908071
 20
153.1196268866
 40
1.5068943298
100
AcDbArc
 50
359.9999280903
 51
37.6168022636
  0
ARC
  5
384
100
AcDbEntity
  8
BEZUGSACHSEN
100
AcDbCircle
 62
7
  6
CONTINUOUS
 10
276.119657958
 20
179.0222412204
 40
7.53447156
100
AcDbArc
 50
182.1699795818
 51
188.0000028944
  0
SPLINE
  5
385
100
AcDbEntity
  8
BEZUGSACHSEN
100
AcDbSpline
 62
7
  6
CONTINUOUS
 70
0
 71
3
 72
11
 73
7
 74
0
 42
0.0000001
 43
0.0000001
 44
0.0000000001
 40
0.0
 40
0.0
 40
0.0
 40
0.0
 40
0.2500139668
 40
0.5000035064
 40
0.749990811
 40
1.0
 40
1.0
 40
1.0
 40
1.0
 10
154.8453281046
 20
132.313013055
 30
0.0
 10
154.966900552
 20
132.3130130702
 30
0.0
 10
155.2110265524
 20
132.3422682042
 30
0.0
 10
155.5556363992
 20
132.4715663454
 30
0.0
 10
155.8598548608
 20
132.6787795814
 30
0.0
 10
156.0241469184
 20
132.8617734972
 30
0.0
 10
156.0938767514
 20
132.9613578608
 30
0.0
  0
SPLINE
  5
386
100
AcDbEntity
  8
BEZUGSACHSEN
100
AcDbSpline
 62
7
  6
CONTINUOUS
 70
0
 71
3
 72
15
 73
11
 74
0
 42
0.0000001
 43
0.0000001
 44
0.0000000001
 40
0.0
 40
0.0
 40
0.0
 40
0.0
 40
0.1250047628
 40
0.2500010341
 40
0.3750036571
 40
0.5000036905
 40
0.6250030325
 40
0.7500039507
 40
0.8749974339
 40
1.0
 40
1.0
 40
1.0
 40
1.0
 10
127.9137028872
 20
132.3130147944
 30
0.0
 10
127.8145508273
 20
132.3130147177
 30
0.0
 10
127.6157189935
 20
132.3322727736
 30
0.0
 10
127.3290151263
 20
132.4179357197
 30
0.0
 10
127.064088662
 20
132.5572988768
 30
0.0
 10
126.8311997218
 20
132.7453654504
 30
0.0
 10
126.6393826944
 20
132.9752034969
 30
0.0
 10
126.4963458685
 20
133.2382382168
 30
0.0
 10
126.407965725
 20
133.5242135877
 30
0.0
 10
126.3880249802
 20
133.7230752053
 30
0.0
 10
126.388024948
 20
133.8222255229
 30
0.0
  0
SPLINE
  5
387
100
AcDbEntity
  8
RUNDUNGEN
100
AcDbSpline
 62
7
  6
CONTINUOUS
 70
0
 71
3
 72
15
 73
11
 74
0
 42
0.0000001
 43
0.0000001
 44
0.0000000001
 40
0.0
 40
0.0
 40
0.0
 40
0.0
 40
0.1250047628
 40
0.2500010341
 40
0.3750036571
 40
0.5000036905
 40
0.6250030325
 40
0.7500039507
 40
0.8749974339
 40
1.0
 40
1.0
 40
1.0
 40
1.0
 10
104.8623470089
 20
159.2959664946
 30
0.0
 10
104.9614990688
 20
159.2959665713
 30
0.0
 10
105.1603309026
 20
159.2767085154
 30
0.0
 10
105.4470347698
 20
159.1910455693
 30
0.0
 10
105.711961234
 20
159.0516824122
 30
0.0
 10
105.9448501742
 20
158.8636158386
 30
0.0
 10
106.1366672017
 20
158.6337777921
 30
0.0
 10
106.2797040276
 20
158.3707430722
 30
0.0
 10
106.368084171
 20
158.0847677013
 30
0.0
 10
106.3880249159
 20
157.8859060837
 30
0.0
 10
106.388024948
 20
157.7867557661
 30
0.0
  0
SPLINE
  5
388
100
AcDbEntity
  8
RUNDUNGEN
100
AcDbSpline
 62
7
  6
CONTINUOUS
 70
0
 71
3
 72
11
 73
7
 74
0
 42
0.0000001
 43
0.0000001
 44
0.0000000001
 40
0.0
 40
0.0
 40
0.0
 40
0.0
 40
0.2500139668
 40
0.5000035064
 40
0.749990811
 40
1.0
 40
1.0
 40
1.0
 40
1.0
 10
77.9307217914
 20
159.295968234
 30
0.0
 10
77.809149344
 20
159.2959682188
 30
0.0
 10
77.5650233436
 20
159.2667130848
 30
0.0
 10
77.2204134968
 20
159.1374149436
 30
0.0
 10
76.9161950352
 20
158.9302017075
 30
0.0
 10
76.7519029777
 20
158.7472077918
 30
0.0
 10
76.6821731447
 20
158.6476234282
 30
0.0
  0
LINE
  5
389
100
AcDbEntity
  8
RUNDUNGEN
100
AcDbLine
 62
7
  6
CONTINUOUS
 10
134.8373527267
 20
134.3886246445
 11
134.8093153139
 21
134.3886072814
  0
LINE
  5
38A
100
AcDbEntity
  8
BEZUGSACHSEN
100
AcDbLine
 62
7
  6
CONTINUOUS
 10
97.9386971693
 20
157.2203566445
 11
97.9667345821
 21
157.2203740076
  0
LINE
  5
38B
100
AcDbEntity
  8
BEZUGSACHSEN
100
AcDbLine
 62
7
  6
CONTINUOUS
 10
262.463686398
 20
163.36010893
 11
262.463686398
 21
164.7676853387
  0
ELLIPSE
  5
38C
100
AcDbEntity
  8
0
100
AcDbEllipse
 62
7
  6
CONTINUOUS
 10
72.388024948
 20
145.8044906445
 30
0.0
 11
0.0
 21
4.520682936
 31
0.0
 40
0.1051042353
 41
3.1415926536
 42
6.2831853072
  0
ELLIPSE
  5
38D
100
AcDbEntity
  8
BEZUGSACHSEN
100
AcDbEllipse
 62
7
  6
CONTINUOUS
 10
160.388024948
 20
145.8044906445
 30
0.0
 11
0.0
 21
4.520682936
 31
0.0
 40
0.1051042353
 41
0.0
 42
3.1415926536
  0
ELLIPSE
  5
38E
100
AcDbEntity
  8
BEZUGSACHSEN
100
AcDbEllipse
 62
7
  6
CONTINUOUS
 10
126.388024948
 20
145.8044906445
 30
0.0
 11
0.0
 21
4.15
 31
0.0
 40
0.1583844403
 41
-3.1415926536
 42
0.0
  0
ELLIPSE
  5
38F
100
AcDbEntity
  8
0
100
AcDbEllipse
 62
7
  6
CONTINUOUS
 10
106.388024948
 20
145.8044906445
 30
0.0
 11
0.0
 21
4.15
 31
0.0
 40
0.1583844403
 41
0.0
 42
3.1415926536
  0
ENDSEC
  0
SECTION
  2
OBJECTS
  0
DICTIONARY
  5
C
100
AcDbDictionary
280
0
281
1
  3
ACAD_GROUP
350
D
  3
ACAD_MLINESTYLE
350
17
  3
ACAD_LAYOUT
350
1A
  3
ACAD_PLOTSETTINGS
350
19
  3
ACAD_PLOTSTYLENAME
350
E
  0
DICTIONARY
  5
D
102
{ACAD_REACTORS
330
C
102
}
100
AcDbDictionary
280
0
281
1
  0
ACDBDICTIONARYWDFLT
  5
E
102
{ACAD_REACTORS
330
C
102
}
100
AcDbDictionary
281
1
  3
Normal
350
F
100
AcDbDictionaryWithDefault
340
F
  0
DICTIONARY
  5
17
102
{ACAD_REACTORS
330
C
102
}
100
AcDbDictionary
280
0
281
1
  3
Standard
350
18
  0
DICTIONARY
  5
19
102
{ACAD_REACTORS
330
C
102
}
100
AcDbDictionary
281
1
  0
DICTIONARY
  5
1A
102
{ACAD_REACTORS
330
C
102
}
100
AcDbDictionary
281
1
  3
Model
350
390
  3
Layout1
350
391
  0
ACDBPLACEHOLDER
  5
F
102
{ACAD_REACTORS
330
E
102
}
  0
MLINESTYLE
  5
18
102
{ACAD_REACTORS
330
17
102
}
100
AcDbMlineStyle
  2
STANDARD
 70
0
  3

 62
256
 51
90.0
 52
90.0
 71
2
 49
0.5
 62
256
  6
BYLAYER
 49
-0.5
 62
256
  6
BYLAYER
  0
LAYOUT
  5
390
102
{ACAD_REACTORS
330
1A
102
}
100
AcDbPlotSettings
  1

  2
none_device
  4
ISO_A3_(420.00_x_297.00_MM)
  6

 40
0.0
 41
0.0
 42
0.0
 43
0.0
 44
420.0
 45
297.0
 46
0.0
 47
0.0
 48
0.0
 49
0.0
140
0.0
141
0.0
142
1.0
143
1.0
 70
1024
 72
1
 73
0
 74
0
  7

 75
0
147
1.0
148
0.0
149
0.0
100
AcDbLayout
  1
Model
 70
0
 71
0
 10
0.0
 20
0.0
 11
420.0
 21
297.0
 12
0.0
 22
0.0
 32
0.0
 14
0.0
 24
0.0
 34
0.0
 15
0.0
 25
0.0
 35
0.0
146
0.0
 13
0.0
 23
0.0
 33
0.0
 16
1.0
 26
0.0
 36
0.0
 17
0.0
 27
1.0
 37
0.0
 76
0
330
207
345
0
346
0
  0
LAYOUT
  5
391
102
{ACAD_REACTORS
330
1A
102
}
100
AcDbPlotSettings
  1

  2
none_device
  4
ISO_A3_(420.00_x_297.00_MM)
  6

 40
0.0
 41
0.0
 42
0.0
 43
0.0
 44
420.0
 45
297.0
 46
0.0
 47
0.0
 48
0.0
 49
0.0
140
0.0
141
0.0
142
1.0
143
1.0
 70
0
 72
1
 73
0
 74
0
  7

 75
0
147
1.0
148
0.0
149
0.0
100
AcDbLayout
  1
Layout1
 70
0
 71
1
 10
0.0
 20
0.0
 11
420.0
 21
297.0
 12
0.0
 22
0.0
 32
0.0
 14
0.0
 24
0.0
 34
0.0
 15
0.0
 25
0.0
 35
0.0
146
0.0
 13
0.0
 23
0.0
 33
0.0
 16
1.0
 26
0.0
 36
0.0
 17
0.0
 27
1.0
 37
0.0
 76
0
330
208
345
0
346
0
  0
ENDSEC
  0
EOF
