999
DXF file: irg8-dxf.dxf
999
Pro/ENGINEER 2010140 by Parametric Technology Corporation
  0
SECTION
  2
HEADER
  9
$ACADVER
  1
AC1021
  9
$DWGCODEPAGE
  3
ANSI_1252
  9
$EXTMAX
 10
420.0
 20
297.0
 30
0.0
  9
$EXTMIN
 10
0.0
 20
0.0
 30
0.0
  9
$LIMMIN
 10
0.0
 20
0.0
  9
$LIMMAX
 10
420.0
 20
297.0
  9
$VIEWCTR
 10
210.0
 20
148.5
  9
$VIEWSIZE
 40
297.0
  9
$CLAYER
  8
0
  9
$LTSCALE
 40
23.1
  9
$CELTYPE
  6
BYLAYER
  9
$DIMSCALE
 40
1.0
  9
$DIMASZ
 40
3.5
  9
$DIMEXO
 40
2.625
  9
$DIMDLI
 40
15.96
  9
$DIMEXE
 40
7.56
  9
$DIMCEN
 40
3.78
  9
$DIMLFAC
 40
1.0
  9
$DIMBLK
  1
_FILLED
  9
$DIMTXT
 40
3.5
  9
$DIMTOL
 70
1
  9
$DIMLIM
 70
0
  9
$DIMTFAC
 40
1.0
  9
$DIMTP
 40
0.005
  9
$DIMTM
 40
0.005
  9
$PDMODE
 70
3
  9
$PDSIZE
 40
0.3125
  9
$HANDSEED
  5
368
  9
$TILEMODE
 70
1
  9
$MEASUREMENT
 70
1
  9
$INSUNITS
 70
4
  0
ENDSEC
  0
SECTION
  2
CLASSES
  0
CLASS
  1
ACDBDICTIONARYWDFLT
  2
AcDbDictionaryWithDefault
  3
AutoCAD 2000
 90
0
 91
1
280
0
281
0
  0
CLASS
  1
ACDBPLACEHOLDER
  2
AcDbPlaceHolder
  3
AutoCAD 2000
 90
0
 91
1
280
0
281
0
  0
CLASS
  1
LAYOUT
  2
AcDbLayout
  3
AutoCAD 2000
 90
0
 91
0
280
0
281
0
  0
ENDSEC
  0
SECTION
  2
TABLES
  0
TABLE
  2
VPORT
  5
8
100
AcDbSymbolTable
 70
2
  0
VPORT
  5
1F4
100
AcDbSymbolTableRecord
100
AcDbViewportTableRecord
  2
*ACTIVE
 70
0
 10
0.0
 20
0.0
 11
1.0
 21
1.0
 12
210.0
 22
148.5
 13
0.0
 23
0.0
 14
1.0
 24
1.0
 15
0.0
 25
0.0
 16
0.0
 26
0.0
 36
1.0
 17
0.0
 27
0.0
 37
0.0
 40
297.0
 41
1.4141414141
 42
50.0
 43
0.0
 44
0.0
 50
0.0
 51
0.0
 71
0
 72
100
 73
1
 74
1
 75
0
 76
0
 77
0
 78
0
  0
ENDTAB
  0
TABLE
  2
LTYPE
  5
5
100
AcDbSymbolTable
 70
6
  0
LTYPE
  5
14
100
AcDbSymbolTableRecord
100
AcDbLinetypeTableRecord
  2
BYBLOCK
 70
0
  3

 72
65
 73
0
 40
0.0
  0
LTYPE
  5
15
100
AcDbSymbolTableRecord
100
AcDbLinetypeTableRecord
  2
BYLAYER
 70
0
  3

 72
65
 73
0
 40
0.0
  0
LTYPE
  5
16
100
AcDbSymbolTableRecord
100
AcDbLinetypeTableRecord
  2
CONTINUOUS
 70
64
  3
Solid line
 72
65
 73
0
 40
0.0
  0
LTYPE
  5
1F5
100
AcDbSymbolTableRecord
100
AcDbLinetypeTableRecord
  2
CENTER
 70
64
  3
____ _ ____ _ ____ _ ____ _ ____ _ ____ _ ____
 72
65
 73
4
 40
0.6
 49
0.375
 74
0
 49
-0.075
 74
0
 49
0.075
 74
0
 49
-0.075
 74
0
  0
LTYPE
  5
1F6
100
AcDbSymbolTableRecord
100
AcDbLinetypeTableRecord
  2
HIDDEN
 70
64
  3
- - - - - - - - - - - - - - - - - - - -
 72
65
 73
2
 40
0.2
 49
0.1
 74
0
 49
-0.1
 74
0
  0
LTYPE
  5
1F7
100
AcDbSymbolTableRecord
100
AcDbLinetypeTableRecord
  2
PHANTOM
 70
64
  3
_____ _ _ _____ _ _ _____ _ _ _____
 72
65
 73
6
 40
0.8
 49
0.45
 74
0
 49
-0.05
 74
0
 49
0.1
 74
0
 49
-0.05
 74
0
 49
0.1
 74
0
 49
-0.05
 74
0
  0
LTYPE
  5
1F8
100
AcDbSymbolTableRecord
100
AcDbLinetypeTableRecord
  2
DOT
 70
64
  3
. . . . . . . . . . . . . . . . . . . .
 72
65
 73
2
 40
0.2
 49
0.1
 74
0
 49
-0.1
 74
0
  0
LTYPE
  5
1F9
100
AcDbSymbolTableRecord
100
AcDbLinetypeTableRecord
  2
DASHED
 70
64
  3
- - - - - - - - - - - - - - - - - - - -
 72
65
 73
2
 40
0.2
 49
0.1
 74
0
 49
-0.1
 74
0
  0
ENDTAB
  0
TABLE
  2
LAYER
  5
2
100
AcDbSymbolTable
 70
36
  0
LAYER
  5
10
100
AcDbSymbolTableRecord
100
AcDbLayerTableRecord
  2
0
 70
0
 62
7
  6
CONTINUOUS
370
-3
390
F
  0
LAYER
  5
1FA
100
AcDbSymbolTableRecord
100
AcDbLayerTableRecord
  2
DEFAULT_1
 70
0
 62
7
  6
CENTER
370
-3
390
F
  0
LAYER
  5
1FB
100
AcDbSymbolTableRecord
100
AcDbLayerTableRecord
  2
DEFAULT_2
 70
0
 62
8
  6
HIDDEN
370
-3
390
F
  0
LAYER
  5
1FC
100
AcDbSymbolTableRecord
100
AcDbLayerTableRecord
  2
DEFAULT_3
 70
0
 62
7
  6
PHANTOM
370
-3
390
F
  0
LAYER
  5
1FD
100
AcDbSymbolTableRecord
100
AcDbLayerTableRecord
  2
BEZUGSACHSEN
 70
0
 62
7
  6
CONTINUOUS
370
-3
390
F
  0
LAYER
  5
1FE
100
AcDbSymbolTableRecord
100
AcDbLayerTableRecord
  2
BEZUGSEBENEN
 70
0
 62
7
  6
CONTINUOUS
370
-3
390
F
  0
LAYER
  5
1FF
100
AcDbSymbolTableRecord
100
AcDbLayerTableRecord
  2
FASEN
 70
0
 62
7
  6
CONTINUOUS
370
-3
390
F
  0
LAYER
  5
200
100
AcDbSymbolTableRecord
100
AcDbLayerTableRecord
  2
HILFEN
 70
0
 62
7
  6
CONTINUOUS
370
-3
390
F
  0
LAYER
  5
201
100
AcDbSymbolTableRecord
100
AcDbLayerTableRecord
  2
KONSTRUKTIONSELEMENTE
 70
0
 62
7
  6
CONTINUOUS
370
-3
390
F
  0
LAYER
  5
202
100
AcDbSymbolTableRecord
100
AcDbLayerTableRecord
  2
PLATZIERUNG
 70
0
 62
7
  6
CONTINUOUS
370
-3
390
F
  0
LAYER
  5
203
100
AcDbSymbolTableRecord
100
AcDbLayerTableRecord
  2
RUNDUNGEN
 70
0
 62
7
  6
CONTINUOUS
370
-3
390
F
  0
LAYER
  5
204
100
AcDbSymbolTableRecord
100
AcDbLayerTableRecord
  2
TEIL_STARTBEZUEGE
 70
0
 62
7
  6
CONTINUOUS
370
-3
390
F
  0
LAYER
  5
205
100
AcDbSymbolTableRecord
100
AcDbLayerTableRecord
  2
ZEICHNUNGSBEMASSUNGEN
 70
0
 62
7
  6
CONTINUOUS
370
-3
390
F
  0
ENDTAB
  0
TABLE
  2
STYLE
  5
3
100
AcDbSymbolTable
 70
1
  0
STYLE
  5
11
100
AcDbSymbolTableRecord
100
AcDbTextStyleTableRecord
  2
STANDARD
 70
0
 40
0.0
 41
0.7
 50
0.0
 71
0
 42
0.2
  3
txt
  4

  0
STYLE
  5
206
100
AcDbSymbolTableRecord
100
AcDbTextStyleTableRecord
  2
TEXTSTYLE_1
 70
0
 40
0.0
 41
0.8
 50
0.0
 71
0
 42
0.2
  3
gdt
  4

  0
ENDTAB
  0
TABLE
  2
VIEW
  5
6
100
AcDbSymbolTable
 70
0
  0
ENDTAB
  0
TABLE
  2
UCS
  5
7
100
AcDbSymbolTable
 70
0
  0
ENDTAB
  0
TABLE
  2
APPID
  5
9
100
AcDbSymbolTable
 70
1
  0
APPID
  5
207
100
AcDbSymbolTableRecord
100
AcDbRegAppTableRecord
  2
ACAD
 70
0
  0
ENDTAB
  0
TABLE
  2
BLOCK_RECORD
  5
1
100
AcDbSymbolTable
 70
0
  0
BLOCK_RECORD
  5
208
100
AcDbSymbolTableRecord
100
AcDbBlockTableRecord
  2
*Model_Space
  0
BLOCK_RECORD
  5
209
100
AcDbSymbolTableRecord
100
AcDbBlockTableRecord
  2
*Paper_Space
  0
ENDTAB
  0
TABLE
  2
DIMSTYLE
  5
A
100
AcDbSymbolTable
 70
1
100
AcDbDimStyleTable
 71
0
  0
DIMSTYLE
105
20A
100
AcDbSymbolTableRecord
100
AcDbDimStyleTableRecord
  2
STANDARD
 70
0
  3

  4

 40
1.0
 41
3.5
 42
0.0625
 43
0.38
 44
0.18
 45
0.0
 46
0.0
 47
0.005
 48
0.005
140
3.5
141
0.09
142
0.0
143
25.4
144
1.0
145
0.0
146
1.0
147
0.09
 71
1.0
 72
0.0
 73
0
 74
0
 75
0
 76
0
 77
1
 78
8
170
0
171
2
172
0
173
0
174
0
175
0
176
0
177
0
178
5
270
2
271
3
272
3
273
2
274
2
275
0
280
0
281
0
282
0
283
1
284
8
285
0
286
0
287
3
288
0
340
11
  0
ENDTAB
  0
ENDSEC
  0
SECTION
  2
BLOCKS
  0
BLOCK
  5
20
100
AcDbEntity
  8
0
100
AcDbBlockBegin
  2
*Model_Space
 70
0
 10
0.0
 20
0.0
 30
0.0
  3
*Model_Space
  1

  0
ENDBLK
  5
21
100
AcDbEntity
  8
0
100
AcDbBlockEnd
  0
BLOCK
  5
1C
100
AcDbEntity
  8
0
100
AcDbBlockBegin
  2
*Paper_Space
 70
0
 10
0.0
 20
0.0
 30
0.0
  3
*Paper_Space
  1

  0
ENDBLK
  5
1D
100
AcDbEntity
  8
0
100
AcDbBlockEnd
  0
ENDSEC
  0
SECTION
  2
ENTITIES
  0
MTEXT
  5
20B
100
AcDbEntity
  8
0
100
AcDbMText
 62
5
  6
CONTINUOUS
  7
STANDARD
 71
1
 72
1
 10
277.1020196457
 20
160.7825033623
 30
0.0
 11
0.0
 21
1.0
 31
0.0
 44
0.9
  1
RUD
 40
4.0
 41
10.6666666667
  0
MTEXT
  5
20C
100
AcDbEntity
  8
0
100
AcDbMText
 62
5
  6
CONTINUOUS
  7
STANDARD
 71
1
 72
1
 10
288.6840689456
 20
159.9813651445
 30
0.0
 11
0.0
 21
1.0
 31
0.0
 44
0.9
  1
IRG8
 40
3.5
 41
11.1666666667
  0
LINE
  5
20D
100
AcDbEntity
  8
0
100
AcDbLine
 62
7
  6
CONTINUOUS
 10
0.0
 20
0.0
 11
0.0
 21
297.0
  0
LINE
  5
20E
100
AcDbEntity
  8
0
100
AcDbLine
 62
7
  6
CONTINUOUS
 10
0.0
 20
0.0
 11
420.0
 21
0.0
  0
LINE
  5
20F
100
AcDbEntity
  8
0
100
AcDbLine
 62
7
  6
CONTINUOUS
 10
0.0
 20
297.0
 11
420.0
 21
297.0
  0
LINE
  5
210
100
AcDbEntity
  8
0
100
AcDbLine
 62
7
  6
CONTINUOUS
 10
420.0
 20
0.0
 11
420.0
 21
297.0
  0
LINE
  5
211
100
AcDbEntity
  8
KONSTRUKTIONSELEMENTE
100
AcDbLine
 62
7
  6
CONTINUOUS
 10
165.2922348062
 20
138.8972692809
 11
161.707156307
 21
138.8972692809
  0
LINE
  5
212
100
AcDbEntity
  8
0
100
AcDbLine
 62
7
  6
CONTINUOUS
 10
161.707156307
 20
138.8972692809
 11
161.6721796131
 21
138.8972692809
  0
LINE
  5
213
100
AcDbEntity
  8
0
100
AcDbLine
 62
7
  6
CONTINUOUS
 10
130.2946899994
 20
138.8972692809
 11
130.2597133054
 21
138.8972692809
  0
LINE
  5
214
100
AcDbEntity
  8
KONSTRUKTIONSELEMENTE
100
AcDbLine
 62
7
  6
CONTINUOUS
 10
130.2597133054
 20
138.8972692809
 11
126.6746348062
 21
138.8972692809
  0
LINE
  5
215
100
AcDbEntity
  8
RUNDUNGEN
100
AcDbLine
 62
7
  6
CONTINUOUS
 10
126.6746348062
 20
138.8972692809
 11
122.9834348062
 21
144.8954692809
  0
LINE
  5
216
100
AcDbEntity
  8
0
100
AcDbLine
 62
7
  6
CONTINUOUS
 10
131.7225054211
 20
213.5979235391
 11
121.282780548
 21
203.158198666
  0
LINE
  5
217
100
AcDbEntity
  8
0
100
AcDbLine
 62
7
  6
CONTINUOUS
 10
121.282780548
 20
203.158198666
 11
117.4615760359
 21
188.8972692809
  0
LINE
  5
218
100
AcDbEntity
  8
BEZUGSACHSEN
100
AcDbLine
 62
7
  6
CONTINUOUS
 10
140.9834348062
 20
147.2472692809
 11
150.9834348062
 21
147.2472692809
  0
LINE
  5
219
100
AcDbEntity
  8
BEZUGSACHSEN
100
AcDbLine
 62
7
  6
CONTINUOUS
 10
140.9834348062
 20
150.2662048575
 11
150.9834348062
 21
150.2662048575
  0
LINE
  5
21A
100
AcDbEntity
  8
BEZUGSACHSEN
100
AcDbLine
 62
2
  6
CENTER
 10
131.1834348062
 20
152.6972692809
 11
121.2367983368
 21
152.6972692809
  0
LINE
  5
21B
100
AcDbEntity
  8
BEZUGSACHSEN
100
AcDbLine
 62
2
  6
CENTER
 10
131.1834348062
 20
152.6972692809
 11
170.5764074844
 21
152.6972692809
  0
LINE
  5
21C
100
AcDbEntity
  8
0
100
AcDbLine
 62
7
  6
CONTINUOUS
 10
121.282780548
 20
166.9706242845
 11
122.9834348062
 21
159.6042813944
  0
LINE
  5
21D
100
AcDbEntity
  8
0
100
AcDbLine
 62
7
  6
CONTINUOUS
 10
121.282780548
 20
166.9706242845
 11
121.282780548
 21
174.6363398957
  0
LINE
  5
21E
100
AcDbEntity
  8
RUNDUNGEN
100
AcDbLine
 62
7
  6
CONTINUOUS
 10
122.9834348062
 20
144.8954692809
 11
122.9834348062
 21
170.1472692809
  0
LINE
  5
21F
100
AcDbEntity
  8
BEZUGSACHSEN
100
AcDbLine
 62
7
  6
CONTINUOUS
 10
140.9834348062
 20
155.5283337043
 11
150.9834348062
 21
155.5283337043
  0
LINE
  5
220
100
AcDbEntity
  8
0
100
AcDbLine
 62
7
  6
CONTINUOUS
 10
117.4615760359
 20
188.8972692809
 11
121.282780548
 21
174.6363398957
  0
LINE
  5
221
100
AcDbEntity
  8
BEZUGSACHSEN
100
AcDbLine
 62
7
  6
CONTINUOUS
 10
140.9834348062
 20
158.5472692809
 11
150.9834348062
 21
158.5472692809
  0
LINE
  5
222
100
AcDbEntity
  8
0
100
AcDbLine
 62
7
  6
CONTINUOUS
 10
129.0183946027
 20
171.1845281293
 11
129.0183946027
 21
167.3702881293
  0
LINE
  5
223
100
AcDbEntity
  8
0
100
AcDbLine
 62
7
  6
CONTINUOUS
 10
129.4951746027
 20
167.3702881293
 11
129.4951746027
 21
169.0745230471
  0
LINE
  5
224
100
AcDbEntity
  8
0
100
AcDbLine
 62
7
  6
CONTINUOUS
 10
129.4951746027
 20
169.5614472444
 11
129.4951746027
 21
170.7787579649
  0
LINE
  5
225
100
AcDbEntity
  8
RUNDUNGEN
100
AcDbLine
 62
7
  6
CONTINUOUS
 10
126.5834348062
 20
160.8972692809
 11
136.9729451583
 21
160.8972692809
  0
LINE
  5
226
100
AcDbEntity
  8
RUNDUNGEN
100
AcDbLine
 62
7
  6
CONTINUOUS
 10
154.9939244542
 20
160.8972692809
 11
165.3834348062
 21
160.8972692809
  0
LINE
  5
227
100
AcDbEntity
  8
0
100
AcDbLine
 62
7
  6
CONTINUOUS
 10
132.9120980876
 20
167.9383664163
 11
133.2299511178
 21
167.6137502563
  0
LINE
  5
228
100
AcDbEntity
  8
0
100
AcDbLine
 62
7
  6
CONTINUOUS
 10
131.2433678602
 20
170.697603932
 11
131.4022946027
 21
170.5352958662
  0
LINE
  5
229
100
AcDbEntity
  8
0
100
AcDbLine
 62
7
  6
CONTINUOUS
 10
131.8790746027
 20
170.5352958662
 11
131.6406846027
 21
170.8599119978
  0
LINE
  5
22A
100
AcDbEntity
  8
0
100
AcDbLine
 62
7
  6
CONTINUOUS
 10
133.3888780876
 20
168.1006745389
 11
133.2299511178
 21
168.3441366375
  0
LINE
  5
22B
100
AcDbEntity
  8
0
100
AcDbLine
 62
7
  6
CONTINUOUS
 10
132.7531713451
 20
168.2629826046
 11
132.9120980876
 21
167.9383664163
  0
LINE
  5
22C
100
AcDbEntity
  8
0
100
AcDbLine
 62
7
  6
CONTINUOUS
 10
132.0380013451
 20
167.3702881293
 11
131.3228313451
 21
169.2368311128
  0
LINE
  5
22D
100
AcDbEntity
  8
0
100
AcDbLine
 62
7
  6
CONTINUOUS
 10
130.8460512315
 20
169.0745230471
 11
131.4817578602
 21
167.3702881293
  0
LINE
  5
22E
100
AcDbEntity
  8
0
100
AcDbLine
 62
7
  6
CONTINUOUS
 10
131.4022946027
 20
170.5352958662
 11
131.4817578602
 21
170.2918337676
  0
LINE
  5
22F
100
AcDbEntity
  8
0
100
AcDbLine
 62
7
  6
CONTINUOUS
 10
131.9585378602
 20
170.2918337676
 11
131.8790746027
 21
170.5352958662
  0
LINE
  5
230
100
AcDbEntity
  8
BEZUGSACHSEN
100
AcDbLine
 62
2
  6
CENTER
 10
131.1834348062
 20
152.6972692809
 11
131.1834348062
 21
147.9472692809
  0
LINE
  5
231
100
AcDbEntity
  8
BEZUGSACHSEN
100
AcDbLine
 62
2
  6
CENTER
 10
131.1834348062
 20
152.6972692809
 11
131.1834348062
 21
157.4472692809
  0
LINE
  5
232
100
AcDbEntity
  8
0
100
AcDbLine
 62
7
  6
CONTINUOUS
 10
131.4817578602
 20
170.2918337676
 11
131.4817578602
 21
170.0483714416
  0
LINE
  5
233
100
AcDbEntity
  8
0
100
AcDbLine
 62
7
  6
CONTINUOUS
 10
131.9585378602
 20
169.9672174087
 11
131.9585378602
 21
170.2918337676
  0
LINE
  5
234
100
AcDbEntity
  8
0
100
AcDbLine
 62
7
  6
CONTINUOUS
 10
132.6737078602
 20
171.1845281293
 11
132.6737078602
 21
168.668752769
  0
LINE
  5
235
100
AcDbEntity
  8
0
100
AcDbLine
 62
7
  6
CONTINUOUS
 10
133.1504880876
 20
168.668752769
 11
133.1504880876
 21
171.1845281293
  0
LINE
  5
236
100
AcDbEntity
  8
0
100
AcDbLine
 62
7
  6
CONTINUOUS
 10
162.9382890026
 20
167.3702881293
 11
163.2843368249
 21
167.4514421693
  0
LINE
  5
237
100
AcDbEntity
  8
0
100
AcDbLine
 62
7
  6
CONTINUOUS
 10
156.6402088942
 20
167.3702881293
 11
156.9862571125
 21
167.4514421693
  0
LINE
  5
238
100
AcDbEntity
  8
0
100
AcDbLine
 62
7
  6
CONTINUOUS
 10
133.5478046027
 20
167.4514421693
 11
133.9451211178
 21
167.3702881293
  0
LINE
  5
239
100
AcDbEntity
  8
0
100
AcDbLine
 62
7
  6
CONTINUOUS
 10
133.9451211178
 20
167.8572123834
 11
133.6272680876
 21
167.9383664163
  0
LINE
  5
23A
100
AcDbEntity
  8
0
100
AcDbLine
 62
7
  6
CONTINUOUS
 10
133.2299511178
 20
167.6137502563
 11
133.5478046027
 21
167.4514421693
  0
LINE
  5
23B
100
AcDbEntity
  8
0
100
AcDbLine
 62
7
  6
CONTINUOUS
 10
133.6272680876
 20
167.9383664163
 11
133.3888780876
 21
168.1006745389
  0
LINE
  5
23C
100
AcDbEntity
  8
0
100
AcDbLine
 62
7
  6
CONTINUOUS
 10
131.6406846027
 20
170.8599119978
 11
131.3228313451
 21
171.1033740964
  0
LINE
  5
23D
100
AcDbEntity
  8
0
100
AcDbLine
 62
7
  6
CONTINUOUS
 10
133.2299511178
 20
168.3441366375
 11
133.1504880876
 21
168.668752769
  0
LINE
  5
23E
100
AcDbEntity
  8
0
100
AcDbLine
 62
7
  6
CONTINUOUS
 10
132.6737078602
 20
168.668752769
 11
132.7531713451
 21
168.2629826046
  0
LINE
  5
23F
100
AcDbEntity
  8
KONSTRUKTIONSELEMENTE
100
AcDbLine
 62
7
  6
CONTINUOUS
 10
134.0270527448
 20
152.9472692809
 11
134.0270527448
 21
156.7376692809
  0
LINE
  5
240
100
AcDbEntity
  8
0
100
AcDbLine
 62
7
  6
CONTINUOUS
 10
135.0576080876
 20
171.1845281293
 11
135.0576080876
 21
168.668752769
  0
LINE
  5
241
100
AcDbEntity
  8
0
100
AcDbLine
 62
7
  6
CONTINUOUS
 10
135.5343880876
 20
168.668752769
 11
135.5343880876
 21
171.1845281293
  0
LINE
  5
242
100
AcDbEntity
  8
0
100
AcDbLine
 62
7
  6
CONTINUOUS
 10
136.1700946027
 20
171.1845281293
 11
136.1700946027
 21
167.3702881293
  0
LINE
  5
243
100
AcDbEntity
  8
0
100
AcDbLine
 62
7
  6
CONTINUOUS
 10
136.6468746027
 20
167.8572123834
 11
136.6468746027
 21
170.697603932
  0
LINE
  5
244
100
AcDbEntity
  8
0
100
AcDbLine
 62
7
  6
CONTINUOUS
 10
131.4817578602
 20
170.0483714416
 11
131.4022946027
 21
169.804909343
  0
LINE
  5
245
100
AcDbEntity
  8
0
100
AcDbLine
 62
7
  6
CONTINUOUS
 10
131.8790746027
 20
169.7237553101
 11
131.9585378602
 21
169.9672174087
  0
LINE
  5
246
100
AcDbEntity
  8
0
100
AcDbLine
 62
7
  6
CONTINUOUS
 10
162.5922403882
 20
171.1845281293
 11
162.2461917738
 21
171.1033740964
  0
LINE
  5
247
100
AcDbEntity
  8
0
100
AcDbLine
 62
7
  6
CONTINUOUS
 10
129.0183946027
 20
167.3702881293
 11
129.4951746027
 21
167.3702881293
  0
LINE
  5
248
100
AcDbEntity
  8
0
100
AcDbLine
 62
7
  6
CONTINUOUS
 10
131.4817578602
 20
167.3702881293
 11
132.0380013451
 21
167.3702881293
  0
LINE
  5
249
100
AcDbEntity
  8
0
100
AcDbLine
 62
7
  6
CONTINUOUS
 10
133.9451211178
 20
167.3702881293
 11
134.2629746027
 21
167.3702881293
  0
LINE
  5
24A
100
AcDbEntity
  8
0
100
AcDbLine
 62
7
  6
CONTINUOUS
 10
136.1700946027
 20
167.3702881293
 11
138.0772146027
 21
167.3702881293
  0
LINE
  5
24B
100
AcDbEntity
  8
0
100
AcDbLine
 62
7
  6
CONTINUOUS
 10
150.7573868062
 20
167.3702881293
 11
151.1726448267
 21
167.3702881293
  0
LINE
  5
24C
100
AcDbEntity
  8
0
100
AcDbLine
 62
7
  6
CONTINUOUS
 10
151.7263221542
 20
167.3702881293
 11
152.1415801746
 21
167.3702881293
  0
LINE
  5
24D
100
AcDbEntity
  8
0
100
AcDbLine
 62
7
  6
CONTINUOUS
 10
153.8718219594
 20
167.3702881293
 11
154.3562897819
 21
167.3702881293
  0
LINE
  5
24E
100
AcDbEntity
  8
0
100
AcDbLine
 62
7
  6
CONTINUOUS
 10
156.0173218636
 20
167.3702881293
 11
156.6402088942
 21
167.3702881293
  0
LINE
  5
24F
100
AcDbEntity
  8
0
100
AcDbLine
 62
7
  6
CONTINUOUS
 10
162.5230309821
 20
167.3702881293
 11
162.9382890026
 21
167.3702881293
  0
LINE
  5
250
100
AcDbEntity
  8
0
100
AcDbLine
 62
7
  6
CONTINUOUS
 10
162.8690788045
 20
167.7760583505
 11
162.5922403882
 21
167.7760583505
  0
LINE
  5
251
100
AcDbEntity
  8
0
100
AcDbLine
 62
7
  6
CONTINUOUS
 10
156.6402088942
 20
167.8572123834
 11
156.0173218636
 21
167.8572123834
  0
LINE
  5
252
100
AcDbEntity
  8
0
100
AcDbLine
 62
7
  6
CONTINUOUS
 10
138.0772146027
 20
167.8572123834
 11
136.6468746027
 21
167.8572123834
  0
LINE
  5
253
100
AcDbEntity
  8
0
100
AcDbLine
 62
7
  6
CONTINUOUS
 10
134.2629746027
 20
167.8572123834
 11
133.9451211178
 21
167.8572123834
  0
LINE
  5
254
100
AcDbEntity
  8
0
100
AcDbLine
 62
7
  6
CONTINUOUS
 10
131.3228313451
 20
171.1033740964
 11
130.9255146027
 21
171.1845281293
  0
LINE
  5
255
100
AcDbEntity
  8
0
100
AcDbLine
 62
7
  6
CONTINUOUS
 10
131.0049778602
 20
170.7787579649
 11
131.2433678602
 21
170.697603932
  0
LINE
  5
256
100
AcDbEntity
  8
0
100
AcDbLine
 62
7
  6
CONTINUOUS
 10
138.7923846027
 20
170.9410660306
 11
138.4745315725
 21
171.1033740964
  0
LINE
  5
257
100
AcDbEntity
  8
0
100
AcDbLine
 62
7
  6
CONTINUOUS
 10
138.3950676329
 20
170.6164498991
 11
138.6334576329
 21
170.4541418334
  0
LINE
  5
258
100
AcDbEntity
  8
0
100
AcDbLine
 62
7
  6
CONTINUOUS
 10
139.1102376329
 20
170.6164498991
 11
138.7923846027
 21
170.9410660306
  0
LINE
  5
259
100
AcDbEntity
  8
0
100
AcDbLine
 62
7
  6
CONTINUOUS
 10
138.6334576329
 20
170.4541418334
 11
138.7923846027
 21
170.2106795074
  0
LINE
  5
25A
100
AcDbEntity
  8
0
100
AcDbLine
 62
7
  6
CONTINUOUS
 10
139.2691646027
 20
170.2918337676
 11
139.1102376329
 21
170.6164498991
  0
LINE
  5
25B
100
AcDbEntity
  8
0
100
AcDbLine
 62
7
  6
CONTINUOUS
 10
138.8718476329
 20
169.8860633759
 11
138.8718476329
 21
168.668752769
  0
LINE
  5
25C
100
AcDbEntity
  8
0
100
AcDbLine
 62
7
  6
CONTINUOUS
 10
139.3486276329
 20
168.668752769
 11
139.3486276329
 21
169.8860633759
  0
LINE
  5
25D
100
AcDbEntity
  8
0
100
AcDbLine
 62
7
  6
CONTINUOUS
 10
135.4549246027
 20
168.2629826046
 11
135.5343880876
 21
168.668752769
  0
LINE
  5
25E
100
AcDbEntity
  8
0
100
AcDbLine
 62
7
  6
CONTINUOUS
 10
135.0576080876
 20
168.668752769
 11
134.9781446027
 21
168.3441366375
  0
LINE
  5
25F
100
AcDbEntity
  8
0
100
AcDbLine
 62
7
  6
CONTINUOUS
 10
131.6406846027
 20
169.3991391786
 11
131.8790746027
 21
169.7237553101
  0
LINE
  5
260
100
AcDbEntity
  8
0
100
AcDbLine
 62
7
  6
CONTINUOUS
 10
138.3950676329
 20
167.9383664163
 11
138.0772146027
 21
167.8572123834
  0
LINE
  5
261
100
AcDbEntity
  8
0
100
AcDbLine
 62
7
  6
CONTINUOUS
 10
134.5808280876
 20
167.9383664163
 11
134.2629746027
 21
167.8572123834
  0
LINE
  5
262
100
AcDbEntity
  8
0
100
AcDbLine
 62
7
  6
CONTINUOUS
 10
156.0173218636
 20
171.1845281293
 11
155.6712732492
 21
171.1033740964
  0
LINE
  5
263
100
AcDbEntity
  8
0
100
AcDbLine
 62
7
  6
CONTINUOUS
 10
138.0772146027
 20
167.3702881293
 11
138.4745315725
 21
167.4514421693
  0
LINE
  5
264
100
AcDbEntity
  8
0
100
AcDbLine
 62
7
  6
CONTINUOUS
 10
134.2629746027
 20
167.3702881293
 11
134.6602911178
 21
167.4514421693
  0
LINE
  5
265
100
AcDbEntity
  8
0
100
AcDbLine
 62
7
  6
CONTINUOUS
 10
156.5709990921
 20
168.9933690142
 11
157.1938861227
 21
168.9933690142
  0
LINE
  5
266
100
AcDbEntity
  8
0
100
AcDbLine
 62
7
  6
CONTINUOUS
 10
129.4951746027
 20
169.0745230471
 11
130.8460512315
 21
169.0745230471
  0
LINE
  5
267
100
AcDbEntity
  8
0
100
AcDbLine
 62
7
  6
CONTINUOUS
 10
152.1415801746
 20
169.0745230471
 11
153.3181445328
 21
169.0745230471
  0
LINE
  5
268
100
AcDbEntity
  8
0
100
AcDbLine
 62
7
  6
CONTINUOUS
 10
162.5922403882
 20
169.15567708
 11
162.8690788045
 21
169.15567708
  0
LINE
  5
269
100
AcDbEntity
  8
0
100
AcDbLine
 62
7
  6
CONTINUOUS
 10
162.8690788045
 20
169.4802932115
 11
162.5922403882
 21
169.4802932115
  0
LINE
  5
26A
100
AcDbEntity
  8
0
100
AcDbLine
 62
7
  6
CONTINUOUS
 10
157.6091441432
 20
169.4802932115
 11
156.5709990921
 21
169.4802932115
  0
LINE
  5
26B
100
AcDbEntity
  8
0
100
AcDbLine
 62
7
  6
CONTINUOUS
 10
153.456563939
 20
169.5614472444
 11
152.1415801746
 21
169.5614472444
  0
LINE
  5
26C
100
AcDbEntity
  8
0
100
AcDbLine
 62
7
  6
CONTINUOUS
 10
131.0049778602
 20
169.5614472444
 11
129.4951746027
 21
169.5614472444
  0
LINE
  5
26D
100
AcDbEntity
  8
0
100
AcDbLine
 62
7
  6
CONTINUOUS
 10
157.1938861227
 20
170.2106795074
 11
157.6091441432
 21
170.2106795074
  0
LINE
  5
26E
100
AcDbEntity
  8
0
100
AcDbLine
 62
7
  6
CONTINUOUS
 10
136.6468746027
 20
170.697603932
 11
138.0772146027
 21
170.697603932
  0
LINE
  5
26F
100
AcDbEntity
  8
0
100
AcDbLine
 62
7
  6
CONTINUOUS
 10
156.0173218636
 20
170.697603932
 11
156.6402088942
 21
170.697603932
  0
LINE
  5
270
100
AcDbEntity
  8
0
100
AcDbLine
 62
7
  6
CONTINUOUS
 10
129.4951746027
 20
170.7787579649
 11
131.0049778602
 21
170.7787579649
  0
LINE
  5
271
100
AcDbEntity
  8
0
100
AcDbLine
 62
7
  6
CONTINUOUS
 10
152.1415801746
 20
170.7787579649
 11
153.456563939
 21
170.7787579649
  0
LINE
  5
272
100
AcDbEntity
  8
0
100
AcDbLine
 62
7
  6
CONTINUOUS
 10
162.5922403882
 20
170.7787579649
 11
162.8690788045
 21
170.7787579649
  0
LINE
  5
273
100
AcDbEntity
  8
0
100
AcDbLine
 62
7
  6
CONTINUOUS
 10
162.8690788045
 20
171.1845281293
 11
162.5922403882
 21
171.1845281293
  0
LINE
  5
274
100
AcDbEntity
  8
0
100
AcDbLine
 62
7
  6
CONTINUOUS
 10
156.6402088942
 20
171.1845281293
 11
156.0173218636
 21
171.1845281293
  0
LINE
  5
275
100
AcDbEntity
  8
0
100
AcDbLine
 62
7
  6
CONTINUOUS
 10
153.3873543349
 20
171.1845281293
 11
151.7263221542
 21
171.1845281293
  0
LINE
  5
276
100
AcDbEntity
  8
0
100
AcDbLine
 62
7
  6
CONTINUOUS
 10
151.1726448267
 20
171.1845281293
 11
150.7573868062
 21
171.1845281293
  0
LINE
  5
277
100
AcDbEntity
  8
0
100
AcDbLine
 62
7
  6
CONTINUOUS
 10
138.0772146027
 20
171.1845281293
 11
136.1700946027
 21
171.1845281293
  0
LINE
  5
278
100
AcDbEntity
  8
0
100
AcDbLine
 62
7
  6
CONTINUOUS
 10
135.5343880876
 20
171.1845281293
 11
135.0576080876
 21
171.1845281293
  0
LINE
  5
279
100
AcDbEntity
  8
0
100
AcDbLine
 62
7
  6
CONTINUOUS
 10
133.1504880876
 20
171.1845281293
 11
132.6737078602
 21
171.1845281293
  0
LINE
  5
27A
100
AcDbEntity
  8
0
100
AcDbLine
 62
7
  6
CONTINUOUS
 10
130.9255146027
 20
171.1845281293
 11
129.0183946027
 21
171.1845281293
  0
LINE
  5
27B
100
AcDbEntity
  8
0
100
AcDbLine
 62
7
  6
CONTINUOUS
 10
138.4745315725
 20
171.1033740964
 11
138.0772146027
 21
171.1845281293
  0
LINE
  5
27C
100
AcDbEntity
  8
0
100
AcDbLine
 62
7
  6
CONTINUOUS
 10
155.6712732492
 20
167.4514421693
 11
156.0173218636
 21
167.3702881293
  0
LINE
  5
27D
100
AcDbEntity
  8
0
100
AcDbLine
 62
7
  6
CONTINUOUS
 10
162.1769823678
 20
167.4514421693
 11
162.5230309821
 21
167.3702881293
  0
LINE
  5
27E
100
AcDbEntity
  8
0
100
AcDbLine
 62
7
  6
CONTINUOUS
 10
138.0772146027
 20
170.697603932
 11
138.3950676329
 21
170.6164498991
  0
LINE
  5
27F
100
AcDbEntity
  8
0
100
AcDbLine
 62
7
  6
CONTINUOUS
 10
156.0173218636
 20
167.8572123834
 11
155.7404830513
 21
167.9383664163
  0
LINE
  5
280
100
AcDbEntity
  8
0
100
AcDbLine
 62
7
  6
CONTINUOUS
 10
138.7923846027
 20
170.2106795074
 11
138.8718476329
 21
169.8860633759
  0
LINE
  5
281
100
AcDbEntity
  8
0
100
AcDbLine
 62
7
  6
CONTINUOUS
 10
139.3486276329
 20
169.8860633759
 11
139.2691646027
 21
170.2918337676
  0
LINE
  5
282
100
AcDbEntity
  8
0
100
AcDbLine
 62
7
  6
CONTINUOUS
 10
140.9834348062
 20
152.9472692809
 11
140.9834348062
 21
143.1099595163
  0
LINE
  5
283
100
AcDbEntity
  8
KONSTRUKTIONSELEMENTE
100
AcDbLine
 62
7
  6
CONTINUOUS
 10
140.9834348062
 20
152.9472692809
 11
140.9834348062
 21
163.3372692809
  0
LINE
  5
284
100
AcDbEntity
  8
0
100
AcDbLine
 62
7
  6
CONTINUOUS
 10
139.2691646027
 20
168.2629826046
 11
139.3486276329
 21
168.668752769
  0
LINE
  5
285
100
AcDbEntity
  8
0
100
AcDbLine
 62
7
  6
CONTINUOUS
 10
138.8718476329
 20
168.668752769
 11
138.7923846027
 21
168.3441366375
  0
LINE
  5
286
100
AcDbEntity
  8
0
100
AcDbLine
 62
7
  6
CONTINUOUS
 10
135.2959980876
 20
167.9383664163
 11
135.4549246027
 21
168.2629826046
  0
LINE
  5
287
100
AcDbEntity
  8
0
100
AcDbLine
 62
7
  6
CONTINUOUS
 10
134.9781446027
 20
168.3441366375
 11
134.8192180876
 21
168.1006745389
  0
LINE
  5
288
100
AcDbEntity
  8
0
100
AcDbLine
 62
7
  6
CONTINUOUS
 10
131.4022946027
 20
169.804909343
 11
131.2433678602
 21
169.6426012772
  0
LINE
  5
289
100
AcDbEntity
  8
0
100
AcDbLine
 62
7
  6
CONTINUOUS
 10
153.7334025532
 20
171.1033740964
 11
153.3873543349
 21
171.1845281293
  0
LINE
  5
28A
100
AcDbEntity
  8
0
100
AcDbLine
 62
7
  6
CONTINUOUS
 10
156.9862571125
 20
171.1033740964
 11
156.6402088942
 21
171.1845281293
  0
LINE
  5
28B
100
AcDbEntity
  8
0
100
AcDbLine
 62
7
  6
CONTINUOUS
 10
163.2151274188
 20
171.1033740964
 11
162.8690788045
 21
171.1845281293
  0
LINE
  5
28C
100
AcDbEntity
  8
0
100
AcDbLine
 62
7
  6
CONTINUOUS
 10
162.5922403882
 20
167.7760583505
 11
162.3154019719
 21
167.8572123834
  0
LINE
  5
28D
100
AcDbEntity
  8
0
100
AcDbLine
 62
7
  6
CONTINUOUS
 10
156.6402088942
 20
170.697603932
 11
156.9170473105
 21
170.6164498991
  0
LINE
  5
28E
100
AcDbEntity
  8
0
100
AcDbLine
 62
7
  6
CONTINUOUS
 10
162.8690788045
 20
169.15567708
 11
163.1459180128
 21
169.0745230471
  0
LINE
  5
28F
100
AcDbEntity
  8
0
100
AcDbLine
 62
7
  6
CONTINUOUS
 10
162.5922403882
 20
169.4802932115
 11
162.3154019719
 21
169.5614472444
  0
LINE
  5
290
100
AcDbEntity
  8
0
100
AcDbLine
 62
7
  6
CONTINUOUS
 10
153.456563939
 20
170.7787579649
 11
153.6641929492
 21
170.697603932
  0
LINE
  5
291
100
AcDbEntity
  8
0
100
AcDbLine
 62
7
  6
CONTINUOUS
 10
155.3944348329
 20
167.6137502563
 11
155.6712732492
 21
167.4514421693
  0
LINE
  5
292
100
AcDbEntity
  8
BEZUGSACHSEN
100
AcDbLine
 62
2
  6
CENTER
 10
145.9834348062
 20
188.8972692809
 11
145.9834348062
 21
145.1781580042
  0
LINE
  5
293
100
AcDbEntity
  8
BEZUGSACHSEN
100
AcDbLine
 62
2
  6
CENTER
 10
145.9834348062
 20
188.8972692809
 11
145.9834348062
 21
220.4191280512
  0
LINE
  5
294
100
AcDbEntity
  8
0
100
AcDbLine
 62
7
  6
CONTINUOUS
 10
139.1102376329
 20
167.9383664163
 11
139.2691646027
 21
168.2629826046
  0
LINE
  5
295
100
AcDbEntity
  8
0
100
AcDbLine
 62
7
  6
CONTINUOUS
 10
138.7923846027
 20
168.3441366375
 11
138.6334576329
 21
168.1006745389
  0
LINE
  5
296
100
AcDbEntity
  8
0
100
AcDbLine
 62
7
  6
CONTINUOUS
 10
134.9781446027
 20
167.6137502563
 11
135.2959980876
 21
167.9383664163
  0
LINE
  5
297
100
AcDbEntity
  8
RUNDUNGEN
100
AcDbLine
 62
7
  6
CONTINUOUS
 10
162.5161442285
 20
176.0454831108
 11
159.9774189508
 21
176.0454831108
  0
LINE
  5
298
100
AcDbEntity
  8
RUNDUNGEN
100
AcDbLine
 62
7
  6
CONTINUOUS
 10
131.9894506616
 20
176.0454831108
 11
129.4507250659
 21
176.0454831108
  0
LINE
  5
299
100
AcDbEntity
  8
RUNDUNGEN
100
AcDbLine
 62
7
  6
CONTINUOUS
 10
136.5621453101
 20
176.1472692809
 11
155.4047243024
 21
176.1472692809
  0
LINE
  5
29A
100
AcDbEntity
  8
0
100
AcDbLine
 62
7
  6
CONTINUOUS
 10
162.8690788045
 20
170.7787579649
 11
163.1459180128
 21
170.697603932
  0
LINE
  5
29B
100
AcDbEntity
  8
0
100
AcDbLine
 62
7
  6
CONTINUOUS
 10
162.3154019719
 20
167.8572123834
 11
162.0385627636
 21
168.0195204491
  0
LINE
  5
29C
100
AcDbEntity
  8
0
100
AcDbLine
 62
7
  6
CONTINUOUS
 10
157.2630959248
 20
170.9410660306
 11
156.9862571125
 21
171.1033740964
  0
LINE
  5
29D
100
AcDbEntity
  8
0
100
AcDbLine
 62
7
  6
CONTINUOUS
 10
155.7404830513
 20
167.9383664163
 11
155.5328540411
 21
168.1006745389
  0
LINE
  5
29E
100
AcDbEntity
  8
0
100
AcDbLine
 62
7
  6
CONTINUOUS
 10
154.0102413655
 20
170.8599119978
 11
153.7334025532
 21
171.1033740964
  0
LINE
  5
29F
100
AcDbEntity
  8
0
100
AcDbLine
 62
7
  6
CONTINUOUS
 10
155.1175960206
 20
167.9383664163
 11
155.3944348329
 21
167.6137502563
  0
LINE
  5
2A0
100
AcDbEntity
  8
0
100
AcDbLine
 62
7
  6
CONTINUOUS
 10
138.7923846027
 20
167.6137502563
 11
139.1102376329
 21
167.9383664163
  0
LINE
  5
2A1
100
AcDbEntity
  8
0
100
AcDbLine
 62
7
  6
CONTINUOUS
 10
134.8192180876
 20
168.1006745389
 11
134.5808280876
 21
167.9383664163
  0
LINE
  5
2A2
100
AcDbEntity
  8
0
100
AcDbLine
 62
7
  6
CONTINUOUS
 10
131.3228313451
 20
169.2368311128
 11
131.6406846027
 21
169.3991391786
  0
LINE
  5
2A3
100
AcDbEntity
  8
0
100
AcDbLine
 62
7
  6
CONTINUOUS
 10
131.2433678602
 20
169.6426012772
 11
131.0049778602
 21
169.5614472444
  0
LINE
  5
2A4
100
AcDbEntity
  8
0
100
AcDbLine
 62
7
  6
CONTINUOUS
 10
163.5611760332
 20
169.2368311128
 11
163.422756429
 21
169.3179851457
  0
LINE
  5
2A5
100
AcDbEntity
  8
0
100
AcDbLine
 62
7
  6
CONTINUOUS
 10
161.9001439515
 20
169.3991391786
 11
162.0385627636
 21
169.3179851457
  0
LINE
  5
2A6
100
AcDbEntity
  8
0
100
AcDbLine
 62
7
  6
CONTINUOUS
 10
163.1459180128
 20
169.0745230471
 11
163.422756429
 21
168.9122149813
  0
LINE
  5
2A7
100
AcDbEntity
  8
0
100
AcDbLine
 62
7
  6
CONTINUOUS
 10
161.8309337534
 20
167.6949042892
 11
162.1769823678
 21
167.4514421693
  0
LINE
  5
2A8
100
AcDbEntity
  8
0
100
AcDbLine
 62
7
  6
CONTINUOUS
 10
156.9170473105
 20
170.6164498991
 11
157.1246763207
 21
170.4541418334
  0
LINE
  5
2A9
100
AcDbEntity
  8
0
100
AcDbLine
 62
7
  6
CONTINUOUS
 10
153.6641929492
 20
170.697603932
 11
153.8026123553
 21
170.5352958662
  0
LINE
  5
2AA
100
AcDbEntity
  8
0
100
AcDbLine
 62
7
  6
CONTINUOUS
 10
154.2178701777
 20
170.5352958662
 11
154.0102413655
 21
170.8599119978
  0
LINE
  5
2AB
100
AcDbEntity
  8
0
100
AcDbLine
 62
7
  6
CONTINUOUS
 10
155.5328540411
 20
168.1006745389
 11
155.3944348329
 21
168.3441366375
  0
LINE
  5
2AC
100
AcDbEntity
  8
0
100
AcDbLine
 62
7
  6
CONTINUOUS
 10
150.7573868062
 20
171.1845281293
 11
150.7573868062
 21
167.3702881293
  0
LINE
  5
2AD
100
AcDbEntity
  8
0
100
AcDbLine
 62
7
  6
CONTINUOUS
 10
150.9834348062
 20
143.1099595163
 11
150.9834348062
 21
152.9472692809
  0
LINE
  5
2AE
100
AcDbEntity
  8
KONSTRUKTIONSELEMENTE
100
AcDbLine
 62
7
  6
CONTINUOUS
 10
150.9834348062
 20
152.9472692809
 11
150.9834348062
 21
163.3372695382
  0
LINE
  5
2AF
100
AcDbEntity
  8
0
100
AcDbLine
 62
7
  6
CONTINUOUS
 10
151.1726448267
 20
167.3702881293
 11
151.1726448267
 21
171.1845281293
  0
LINE
  5
2B0
100
AcDbEntity
  8
0
100
AcDbLine
 62
7
  6
CONTINUOUS
 10
151.7263221542
 20
171.1845281293
 11
151.7263221542
 21
167.3702881293
  0
LINE
  5
2B1
100
AcDbEntity
  8
0
100
AcDbLine
 62
7
  6
CONTINUOUS
 10
152.1415801746
 20
167.3702881293
 11
152.1415801746
 21
169.0745230471
  0
LINE
  5
2B2
100
AcDbEntity
  8
0
100
AcDbLine
 62
7
  6
CONTINUOUS
 10
152.1415801746
 20
169.5614472444
 11
152.1415801746
 21
170.7787579649
  0
LINE
  5
2B3
100
AcDbEntity
  8
0
100
AcDbLine
 62
7
  6
CONTINUOUS
 10
138.6334576329
 20
168.1006745389
 11
138.3950676329
 21
167.9383664163
  0
LINE
  5
2B4
100
AcDbEntity
  8
0
100
AcDbLine
 62
7
  6
CONTINUOUS
 10
134.6602911178
 20
167.4514421693
 11
134.9781446027
 21
167.6137502563
  0
LINE
  5
2B5
100
AcDbEntity
  8
0
100
AcDbLine
 62
7
  6
CONTINUOUS
 10
138.4745315725
 20
167.4514421693
 11
138.7923846027
 21
167.6137502563
  0
LINE
  5
2B6
100
AcDbEntity
  8
0
100
AcDbLine
 62
7
  6
CONTINUOUS
 10
163.5611760332
 20
170.8599119978
 11
163.2151274188
 21
171.1033740964
  0
LINE
  5
2B7
100
AcDbEntity
  8
0
100
AcDbLine
 62
7
  6
CONTINUOUS
 10
162.3154019719
 20
169.5614472444
 11
162.0385627636
 21
169.804909343
  0
LINE
  5
2B8
100
AcDbEntity
  8
0
100
AcDbLine
 62
7
  6
CONTINUOUS
 10
163.8380144494
 20
168.9933690142
 11
163.5611760332
 21
169.2368311128
  0
LINE
  5
2B9
100
AcDbEntity
  8
0
100
AcDbLine
 62
7
  6
CONTINUOUS
 10
163.1459180128
 20
170.697603932
 11
163.422756429
 21
170.4541418334
  0
LINE
  5
2BA
100
AcDbEntity
  8
0
100
AcDbLine
 62
7
  6
CONTINUOUS
 10
157.5399347371
 20
170.6164498991
 11
157.2630959248
 21
170.9410660306
  0
LINE
  5
2BB
100
AcDbEntity
  8
0
100
AcDbLine
 62
7
  6
CONTINUOUS
 10
161.6233047432
 20
167.9383664163
 11
161.8309337534
 21
167.6949042892
  0
LINE
  5
2BC
100
AcDbEntity
  8
0
100
AcDbLine
 62
7
  6
CONTINUOUS
 10
161.6925149413
 20
169.6426012772
 11
161.9001439515
 21
169.3991391786
  0
LINE
  5
2BD
100
AcDbEntity
  8
0
100
AcDbLine
 62
7
  6
CONTINUOUS
 10
154.9791768125
 20
168.2629826046
 11
155.1175960206
 21
167.9383664163
  0
LINE
  5
2BE
100
AcDbEntity
  8
0
100
AcDbLine
 62
7
  6
CONTINUOUS
 10
154.3562897819
 20
167.3702881293
 11
153.7334025532
 21
169.2368311128
  0
LINE
  5
2BF
100
AcDbEntity
  8
0
100
AcDbLine
 62
7
  6
CONTINUOUS
 10
153.3181445328
 20
169.0745230471
 11
153.8718219594
 21
167.3702881293
  0
LINE
  5
2C0
100
AcDbEntity
  8
0
100
AcDbLine
 62
7
  6
CONTINUOUS
 10
153.8026123553
 20
170.5352958662
 11
153.8718219594
 21
170.2918337676
  0
LINE
  5
2C1
100
AcDbEntity
  8
0
100
AcDbLine
 62
7
  6
CONTINUOUS
 10
154.2870799798
 20
170.2918337676
 11
154.2178701777
 21
170.5352958662
  0
LINE
  5
2C2
100
AcDbEntity
  8
0
100
AcDbLine
 62
7
  6
CONTINUOUS
 10
153.8718219594
 20
170.2918337676
 11
153.8718219594
 21
170.0483714416
  0
LINE
  5
2C3
100
AcDbEntity
  8
0
100
AcDbLine
 62
7
  6
CONTINUOUS
 10
154.2870799798
 20
169.9672174087
 11
154.2870799798
 21
170.2918337676
  0
LINE
  5
2C4
100
AcDbEntity
  8
0
100
AcDbLine
 62
7
  6
CONTINUOUS
 10
154.9099670104
 20
169.8860633759
 11
154.9099670104
 21
168.668752769
  0
LINE
  5
2C5
100
AcDbEntity
  8
0
100
AcDbLine
 62
7
  6
CONTINUOUS
 10
155.3252250309
 20
168.668752769
 11
155.3252250309
 21
169.8860633759
  0
LINE
  5
2C6
100
AcDbEntity
  8
0
100
AcDbLine
 62
7
  6
CONTINUOUS
 10
153.8718219594
 20
170.0483714416
 11
153.8026123553
 21
169.804909343
  0
LINE
  5
2C7
100
AcDbEntity
  8
0
100
AcDbLine
 62
7
  6
CONTINUOUS
 10
155.7404830513
 20
170.6164498991
 11
156.0173218636
 21
170.697603932
  0
LINE
  5
2C8
100
AcDbEntity
  8
0
100
AcDbLine
 62
7
  6
CONTINUOUS
 10
163.7688050434
 20
170.6164498991
 11
163.5611760332
 21
170.8599119978
  0
LINE
  5
2C9
100
AcDbEntity
  8
0
100
AcDbLine
 62
7
  6
CONTINUOUS
 10
162.0385627636
 20
168.0195204491
 11
161.8309337534
 21
168.3441366375
  0
LINE
  5
2CA
100
AcDbEntity
  8
0
100
AcDbLine
 62
7
  6
CONTINUOUS
 10
163.422756429
 20
168.9122149813
 11
163.6303854392
 21
168.5875987361
  0
LINE
  5
2CB
100
AcDbEntity
  8
0
100
AcDbLine
 62
7
  6
CONTINUOUS
 10
162.0385627636
 20
169.804909343
 11
161.9001439515
 21
170.0483714416
  0
LINE
  5
2CC
100
AcDbEntity
  8
0
100
AcDbLine
 62
7
  6
CONTINUOUS
 10
157.1246763207
 20
170.4541418334
 11
157.1938861227
 21
170.2106795074
  0
LINE
  5
2CD
100
AcDbEntity
  8
0
100
AcDbLine
 62
7
  6
CONTINUOUS
 10
155.3944348329
 20
168.3441366375
 11
155.3252250309
 21
168.668752769
  0
LINE
  5
2CE
100
AcDbEntity
  8
0
100
AcDbLine
 62
7
  6
CONTINUOUS
 10
154.9099670104
 20
168.668752769
 11
154.9791768125
 21
168.2629826046
  0
LINE
  5
2CF
100
AcDbEntity
  8
0
100
AcDbLine
 62
7
  6
CONTINUOUS
 10
157.6091441432
 20
170.2106795074
 11
157.5399347371
 21
170.6164498991
  0
LINE
  5
2D0
100
AcDbEntity
  8
0
100
AcDbLine
 62
7
  6
CONTINUOUS
 10
156.5709990921
 20
169.4802932115
 11
156.5709990921
 21
168.9933690142
  0
LINE
  5
2D1
100
AcDbEntity
  8
0
100
AcDbLine
 62
7
  6
CONTINUOUS
 10
157.1938861227
 20
168.9933690142
 11
157.1938861227
 21
168.3441366375
  0
LINE
  5
2D2
100
AcDbEntity
  8
0
100
AcDbLine
 62
7
  6
CONTINUOUS
 10
157.6091441432
 20
168.2629826046
 11
157.6091441432
 21
169.4802932115
  0
LINE
  5
2D3
100
AcDbEntity
  8
KONSTRUKTIONSELEMENTE
100
AcDbLine
 62
7
  6
CONTINUOUS
 10
157.9398168677
 20
152.9472692809
 11
157.9398168677
 21
156.7376692809
  0
LINE
  5
2D4
100
AcDbEntity
  8
0
100
AcDbLine
 62
7
  6
CONTINUOUS
 10
154.9791768125
 20
170.2918337676
 11
154.9099670104
 21
169.8860633759
  0
LINE
  5
2D5
100
AcDbEntity
  8
0
100
AcDbLine
 62
7
  6
CONTINUOUS
 10
155.3252250309
 20
169.8860633759
 11
155.3944348329
 21
170.2106795074
  0
LINE
  5
2D6
100
AcDbEntity
  8
0
100
AcDbLine
 62
7
  6
CONTINUOUS
 10
154.2178701777
 20
169.7237553101
 11
154.2870799798
 21
169.9672174087
  0
LINE
  5
2D7
100
AcDbEntity
  8
0
100
AcDbLine
 62
7
  6
CONTINUOUS
 10
155.1175960206
 20
170.6164498991
 11
154.9791768125
 21
170.2918337676
  0
LINE
  5
2D8
100
AcDbEntity
  8
0
100
AcDbLine
 62
7
  6
CONTINUOUS
 10
155.3944348329
 20
170.2106795074
 11
155.5328540411
 21
170.4541418334
  0
LINE
  5
2D9
100
AcDbEntity
  8
0
100
AcDbLine
 62
7
  6
CONTINUOUS
 10
154.0102413655
 20
169.3991391786
 11
154.2178701777
 21
169.7237553101
  0
LINE
  5
2DA
100
AcDbEntity
  8
0
100
AcDbLine
 62
7
  6
CONTINUOUS
 10
153.8026123553
 20
169.804909343
 11
153.6641929492
 21
169.6426012772
  0
LINE
  5
2DB
100
AcDbEntity
  8
0
100
AcDbLine
 62
7
  6
CONTINUOUS
 10
155.3944348329
 20
170.9410660306
 11
155.1175960206
 21
170.6164498991
  0
LINE
  5
2DC
100
AcDbEntity
  8
0
100
AcDbLine
 62
7
  6
CONTINUOUS
 10
155.5328540411
 20
170.4541418334
 11
155.7404830513
 21
170.6164498991
  0
LINE
  5
2DD
100
AcDbEntity
  8
0
100
AcDbLine
 62
7
  6
CONTINUOUS
 10
155.6712732492
 20
171.1033740964
 11
155.3944348329
 21
170.9410660306
  0
LINE
  5
2DE
100
AcDbEntity
  8
0
100
AcDbLine
 62
7
  6
CONTINUOUS
 10
153.7334025532
 20
169.2368311128
 11
154.0102413655
 21
169.3991391786
  0
LINE
  5
2DF
100
AcDbEntity
  8
0
100
AcDbLine
 62
7
  6
CONTINUOUS
 10
153.6641929492
 20
169.6426012772
 11
153.456563939
 21
169.5614472444
  0
LINE
  5
2E0
100
AcDbEntity
  8
0
100
AcDbLine
 62
7
  6
CONTINUOUS
 10
162.3154019719
 20
170.697603932
 11
162.5922403882
 21
170.7787579649
  0
LINE
  5
2E1
100
AcDbEntity
  8
0
100
AcDbLine
 62
7
  6
CONTINUOUS
 10
156.9170473105
 20
167.9383664163
 11
156.6402088942
 21
167.8572123834
  0
LINE
  5
2E2
100
AcDbEntity
  8
0
100
AcDbLine
 62
7
  6
CONTINUOUS
 10
163.1459180128
 20
169.5614472444
 11
162.8690788045
 21
169.4802932115
  0
LINE
  5
2E3
100
AcDbEntity
  8
0
100
AcDbLine
 62
7
  6
CONTINUOUS
 10
162.3154019719
 20
169.0745230471
 11
162.5922403882
 21
169.15567708
  0
LINE
  5
2E4
100
AcDbEntity
  8
BEZUGSACHSEN
100
AcDbLine
 62
2
  6
CENTER
 10
145.9834348062
 20
188.8972692809
 11
114.4615760359
 21
188.8972692809
  0
LINE
  5
2E5
100
AcDbEntity
  8
BEZUGSACHSEN
100
AcDbLine
 62
2
  6
CENTER
 10
145.9834348062
 20
188.8972692809
 11
177.5052935765
 21
188.8972692809
  0
LINE
  5
2E6
100
AcDbEntity
  8
0
100
AcDbLine
 62
7
  6
CONTINUOUS
 10
163.422756429
 20
170.4541418334
 11
163.5611760332
 21
170.2106795074
  0
LINE
  5
2E7
100
AcDbEntity
  8
0
100
AcDbLine
 62
7
  6
CONTINUOUS
 10
161.5540953371
 20
169.9672174087
 11
161.6925149413
 21
169.6426012772
  0
LINE
  5
2E8
100
AcDbEntity
  8
0
100
AcDbLine
 62
7
  6
CONTINUOUS
 10
161.4848859311
 20
168.3441366375
 11
161.6233047432
 21
167.9383664163
  0
LINE
  5
2E9
100
AcDbEntity
  8
0
100
AcDbLine
 62
7
  6
CONTINUOUS
 10
161.4848859311
 20
168.5875987361
 11
161.4848859311
 21
168.3441366375
  0
LINE
  5
2EA
100
AcDbEntity
  8
0
100
AcDbLine
 62
7
  6
CONTINUOUS
 10
161.5540953371
 20
170.2106795074
 11
161.5540953371
 21
169.9672174087
  0
LINE
  5
2EB
100
AcDbEntity
  8
0
100
AcDbLine
 62
7
  6
CONTINUOUS
 10
161.8309337534
 20
168.3441366375
 11
161.8309337534
 21
168.5875987361
  0
LINE
  5
2EC
100
AcDbEntity
  8
0
100
AcDbLine
 62
7
  6
CONTINUOUS
 10
161.9001439515
 20
170.0483714416
 11
161.9001439515
 21
170.2106795074
  0
LINE
  5
2ED
100
AcDbEntity
  8
0
100
AcDbLine
 62
7
  6
CONTINUOUS
 10
157.5399347371
 20
167.9383664163
 11
157.6091441432
 21
168.2629826046
  0
LINE
  5
2EE
100
AcDbEntity
  8
0
100
AcDbLine
 62
7
  6
CONTINUOUS
 10
157.1938861227
 20
168.3441366375
 11
157.1246763207
 21
168.1006745389
  0
LINE
  5
2EF
100
AcDbEntity
  8
0
100
AcDbLine
 62
7
  6
CONTINUOUS
 10
157.2630959248
 20
167.6137502563
 11
157.5399347371
 21
167.9383664163
  0
LINE
  5
2F0
100
AcDbEntity
  8
0
100
AcDbLine
 62
7
  6
CONTINUOUS
 10
162.0385627636
 20
170.4541418334
 11
162.3154019719
 21
170.697603932
  0
LINE
  5
2F1
100
AcDbEntity
  8
0
100
AcDbLine
 62
7
  6
CONTINUOUS
 10
157.1246763207
 20
168.1006745389
 11
156.9170473105
 21
167.9383664163
  0
LINE
  5
2F2
100
AcDbEntity
  8
0
100
AcDbLine
 62
7
  6
CONTINUOUS
 10
162.2461917738
 20
171.1033740964
 11
161.9001439515
 21
170.8599119978
  0
LINE
  5
2F3
100
AcDbEntity
  8
0
100
AcDbLine
 62
7
  6
CONTINUOUS
 10
156.9862571125
 20
167.4514421693
 11
157.2630959248
 21
167.6137502563
  0
LINE
  5
2F4
100
AcDbEntity
  8
0
100
AcDbLine
 62
7
  6
CONTINUOUS
 10
162.0385627636
 20
169.3179851457
 11
161.9001439515
 21
169.2368311128
  0
LINE
  5
2F5
100
AcDbEntity
  8
0
100
AcDbLine
 62
7
  6
CONTINUOUS
 10
162.0385627636
 20
168.9122149813
 11
162.3154019719
 21
169.0745230471
  0
LINE
  5
2F6
100
AcDbEntity
  8
0
100
AcDbLine
 62
7
  6
CONTINUOUS
 10
163.422756429
 20
169.3179851457
 11
163.5611760332
 21
169.3991391786
  0
LINE
  5
2F7
100
AcDbEntity
  8
0
100
AcDbLine
 62
7
  6
CONTINUOUS
 10
163.1459180128
 20
167.8572123834
 11
162.8690788045
 21
167.7760583505
  0
LINE
  5
2F8
100
AcDbEntity
  8
0
100
AcDbLine
 62
7
  6
CONTINUOUS
 10
163.9764340536
 20
168.5875987361
 11
163.8380144494
 21
168.9933690142
  0
LINE
  5
2F9
100
AcDbEntity
  8
0
100
AcDbLine
 62
7
  6
CONTINUOUS
 10
163.9072238555
 20
170.2106795074
 11
163.7688050434
 21
170.6164498991
  0
LINE
  5
2FA
100
AcDbEntity
  8
0
100
AcDbLine
 62
7
  6
CONTINUOUS
 10
163.5611760332
 20
170.2106795074
 11
163.5611760332
 21
170.0483714416
  0
LINE
  5
2FB
100
AcDbEntity
  8
0
100
AcDbLine
 62
7
  6
CONTINUOUS
 10
163.6303854392
 20
168.5875987361
 11
163.6303854392
 21
168.3441366375
  0
LINE
  5
2FC
100
AcDbEntity
  8
0
100
AcDbLine
 62
7
  6
CONTINUOUS
 10
163.9072238555
 20
169.9672174087
 11
163.9072238555
 21
170.2106795074
  0
LINE
  5
2FD
100
AcDbEntity
  8
0
100
AcDbLine
 62
7
  6
CONTINUOUS
 10
163.9764340536
 20
168.3441366375
 11
163.9764340536
 21
168.5875987361
  0
LINE
  5
2FE
100
AcDbEntity
  8
0
100
AcDbLine
 62
7
  6
CONTINUOUS
 10
161.6925149413
 20
170.6164498991
 11
161.5540953371
 21
170.2106795074
  0
LINE
  5
2FF
100
AcDbEntity
  8
0
100
AcDbLine
 62
7
  6
CONTINUOUS
 10
161.6233047432
 20
168.9933690142
 11
161.4848859311
 21
168.5875987361
  0
LINE
  5
300
100
AcDbEntity
  8
0
100
AcDbLine
 62
7
  6
CONTINUOUS
 10
163.7688050434
 20
169.6426012772
 11
163.9072238555
 21
169.9672174087
  0
LINE
  5
301
100
AcDbEntity
  8
0
100
AcDbLine
 62
7
  6
CONTINUOUS
 10
161.9001439515
 20
170.2106795074
 11
162.0385627636
 21
170.4541418334
  0
LINE
  5
302
100
AcDbEntity
  8
0
100
AcDbLine
 62
7
  6
CONTINUOUS
 10
163.5611760332
 20
170.0483714416
 11
163.422756429
 21
169.804909343
  0
LINE
  5
303
100
AcDbEntity
  8
0
100
AcDbLine
 62
7
  6
CONTINUOUS
 10
161.8309337534
 20
168.5875987361
 11
162.0385627636
 21
168.9122149813
  0
LINE
  5
304
100
AcDbEntity
  8
0
100
AcDbLine
 62
7
  6
CONTINUOUS
 10
161.9001439515
 20
170.8599119978
 11
161.6925149413
 21
170.6164498991
  0
LINE
  5
305
100
AcDbEntity
  8
0
100
AcDbLine
 62
7
  6
CONTINUOUS
 10
163.5611760332
 20
169.3991391786
 11
163.7688050434
 21
169.6426012772
  0
LINE
  5
306
100
AcDbEntity
  8
0
100
AcDbLine
 62
7
  6
CONTINUOUS
 10
161.9001439515
 20
169.2368311128
 11
161.6233047432
 21
168.9933690142
  0
LINE
  5
307
100
AcDbEntity
  8
0
100
AcDbLine
 62
7
  6
CONTINUOUS
 10
163.422756429
 20
169.804909343
 11
163.1459180128
 21
169.5614472444
  0
LINE
  5
308
100
AcDbEntity
  8
0
100
AcDbLine
 62
7
  6
CONTINUOUS
 10
163.2843368249
 20
167.4514421693
 11
163.6303854392
 21
167.6949042892
  0
LINE
  5
309
100
AcDbEntity
  8
0
100
AcDbLine
 62
7
  6
CONTINUOUS
 10
163.422756429
 20
168.0195204491
 11
163.1459180128
 21
167.8572123834
  0
LINE
  5
30A
100
AcDbEntity
  8
RUNDUNGEN
100
AcDbLine
 62
7
  6
CONTINUOUS
 10
168.9834348062
 20
144.8954692809
 11
168.9834348062
 21
170.1472692809
  0
LINE
  5
30B
100
AcDbEntity
  8
0
100
AcDbLine
 62
7
  6
CONTINUOUS
 10
163.8380144494
 20
167.9383664163
 11
163.9764340536
 21
168.3441366375
  0
LINE
  5
30C
100
AcDbEntity
  8
0
100
AcDbLine
 62
7
  6
CONTINUOUS
 10
163.6303854392
 20
168.3441366375
 11
163.422756429
 21
168.0195204491
  0
LINE
  5
30D
100
AcDbEntity
  8
0
100
AcDbLine
 62
7
  6
CONTINUOUS
 10
163.6303854392
 20
167.6949042892
 11
163.8380144494
 21
167.9383664163
  0
LINE
  5
30E
100
AcDbEntity
  8
0
100
AcDbLine
 62
7
  6
CONTINUOUS
 10
170.6840890645
 20
166.9706242845
 11
170.6840890645
 21
174.6363398957
  0
LINE
  5
30F
100
AcDbEntity
  8
0
100
AcDbLine
 62
7
  6
CONTINUOUS
 10
170.6840890645
 20
174.6363398957
 11
174.5052935765
 21
188.8972692809
  0
LINE
  5
310
100
AcDbEntity
  8
0
100
AcDbLine
 62
7
  6
CONTINUOUS
 10
170.6840890645
 20
166.9706242845
 11
168.9834348062
 21
159.6042813944
  0
LINE
  5
311
100
AcDbEntity
  8
0
100
AcDbLine
 62
7
  6
CONTINUOUS
 10
174.5052935765
 20
188.8972692809
 11
170.6840890645
 21
203.158198666
  0
LINE
  5
312
100
AcDbEntity
  8
0
100
AcDbLine
 62
7
  6
CONTINUOUS
 10
170.6840890645
 20
203.158198666
 11
160.2443641914
 21
213.5979235391
  0
LINE
  5
313
100
AcDbEntity
  8
RUNDUNGEN
100
AcDbLine
 62
7
  6
CONTINUOUS
 10
165.2922348062
 20
138.8972692809
 11
168.9834348062
 21
144.8954692809
  0
LINE
  5
314
100
AcDbEntity
  8
0
100
AcDbLine
 62
7
  6
CONTINUOUS
 10
145.9834348062
 20
217.4191280512
 11
131.7225054211
 21
213.5979235391
  0
LINE
  5
315
100
AcDbEntity
  8
0
100
AcDbLine
 62
7
  6
CONTINUOUS
 10
160.2443641914
 20
213.5979235391
 11
145.9834348062
 21
217.4191280512
  0
LINE
  5
316
100
AcDbEntity
  8
0
100
AcDbLine
 62
7
  6
CONTINUOUS
 10
283.8811823507
 20
138.8972692809
 11
285.4811823507
 21
138.8972692809
  0
LINE
  5
317
100
AcDbEntity
  8
BEZUGSACHSEN
100
AcDbLine
 62
2
  6
CENTER
 10
284.6811823507
 20
152.8972692809
 11
275.9905823507
 21
152.8972692809
  0
LINE
  5
318
100
AcDbEntity
  8
BEZUGSACHSEN
100
AcDbLine
 62
2
  6
CENTER
 10
284.6811823507
 20
152.8972692809
 11
293.3717823507
 21
152.8972692809
  0
LINE
  5
319
100
AcDbEntity
  8
0
100
AcDbLine
 62
7
  6
CONTINUOUS
 10
279.1664764684
 20
210.8384457515
 11
282.6761736949
 21
217.4191280512
  0
LINE
  5
31A
100
AcDbEntity
  8
0
100
AcDbLine
 62
7
  6
CONTINUOUS
 10
272.6811823507
 20
150.0972692809
 11
272.6811823507
 21
160.8972692809
  0
LINE
  5
31B
100
AcDbEntity
  8
0
100
AcDbLine
 62
7
  6
CONTINUOUS
 10
286.4311823507
 20
166.9706242845
 11
282.9311823507
 21
166.9706242845
  0
LINE
  5
31C
100
AcDbEntity
  8
0
100
AcDbLine
 62
7
  6
CONTINUOUS
 10
275.6811823507
 20
172.5472692809
 11
275.6811823507
 21
166.0934217036
  0
LINE
  5
31D
100
AcDbEntity
  8
BEZUGSACHSEN
100
AcDbLine
 62
8
  6
HIDDEN
 10
278.4311823507
 20
184.6231992484
 11
278.4311823507
 21
176.0454831108
  0
LINE
  5
31E
100
AcDbEntity
  8
0
100
AcDbLine
 62
7
  6
CONTINUOUS
 10
278.4311823507
 20
184.6229092846
 11
278.4311823507
 21
176.0454831108
  0
LINE
  5
31F
100
AcDbEntity
  8
BEZUGSACHSEN
100
AcDbLine
 62
7
  6
CONTINUOUS
 10
278.4311823507
 20
184.6231992484
 11
278.4311823507
 21
207.8972692809
  0
LINE
  5
320
100
AcDbEntity
  8
BEZUGSACHSEN
100
AcDbLine
 62
8
  6
HIDDEN
 10
279.6811823507
 20
150.2662048575
 11
279.6811823507
 21
155.5283337043
  0
LINE
  5
321
100
AcDbEntity
  8
0
100
AcDbLine
 62
7
  6
CONTINUOUS
 10
282.166805255
 20
182.6960901429
 11
282.0114965859
 21
174.6363398957
  0
LINE
  5
322
100
AcDbEntity
  8
0
100
AcDbLine
 62
7
  6
CONTINUOUS
 10
282.0114965859
 20
174.6363398957
 11
287.3508681156
 21
174.6363398957
  0
LINE
  5
323
100
AcDbEntity
  8
0
100
AcDbLine
 62
7
  6
CONTINUOUS
 10
282.9311823507
 20
166.9706242845
 11
282.0114965859
 21
174.6363398957
  0
LINE
  5
324
100
AcDbEntity
  8
0
100
AcDbLine
 62
7
  6
CONTINUOUS
 10
282.9311823507
 20
166.9706242845
 11
282.9311823507
 21
159.6042813944
  0
LINE
  5
325
100
AcDbEntity
  8
BEZUGSACHSEN
100
AcDbLine
 62
2
  6
CENTER
 10
284.6811823507
 20
152.8972692809
 11
284.6811823507
 21
144.2066692809
  0
LINE
  5
326
100
AcDbEntity
  8
BEZUGSACHSEN
100
AcDbLine
 62
2
  6
CENTER
 10
284.6811823507
 20
152.8972692809
 11
284.6811823507
 21
161.5878692809
  0
LINE
  5
327
100
AcDbEntity
  8
0
100
AcDbLine
 62
7
  6
CONTINUOUS
 10
272.6811823507
 20
160.8972692809
 11
275.6811823507
 21
166.0934217036
  0
LINE
  5
328
100
AcDbEntity
  8
DEFAULT_2
100
AcDbLine
 62
8
  6
HIDDEN
 10
279.2811823507
 20
176.1472692809
 11
290.0811823507
 21
176.1472692809
  0
LINE
  5
329
100
AcDbEntity
  8
0
100
AcDbLine
 62
7
  6
CONTINUOUS
 10
287.1955594465
 20
182.6960901429
 11
287.3508681156
 21
174.6363398957
  0
LINE
  5
32A
100
AcDbEntity
  8
0
100
AcDbLine
 62
7
  6
CONTINUOUS
 10
286.4311823507
 20
166.9706242845
 11
286.4311823507
 21
159.6042813944
  0
LINE
  5
32B
100
AcDbEntity
  8
0
100
AcDbLine
 62
7
  6
CONTINUOUS
 10
286.4311823507
 20
166.9706242845
 11
287.3508681156
 21
174.6363398957
  0
LINE
  5
32C
100
AcDbEntity
  8
RUNDUNGEN
100
AcDbLine
 62
7
  6
CONTINUOUS
 10
296.6811823507
 20
160.8972692809
 11
293.6811823507
 21
166.0934217036
  0
LINE
  5
32D
100
AcDbEntity
  8
BEZUGSACHSEN
100
AcDbLine
 62
8
  6
HIDDEN
 10
289.6811823507
 20
155.5283337043
 11
289.6811823507
 21
150.2662048575
  0
LINE
  5
32E
100
AcDbEntity
  8
RUNDUNGEN
100
AcDbLine
 62
7
  6
CONTINUOUS
 10
290.9311823507
 20
184.6229092846
 11
290.9311823507
 21
176.0454831108
  0
LINE
  5
32F
100
AcDbEntity
  8
BEZUGSACHSEN
100
AcDbLine
 62
7
  6
CONTINUOUS
 10
290.9311823507
 20
184.6231992484
 11
290.9311823507
 21
207.8972692809
  0
LINE
  5
330
100
AcDbEntity
  8
RUNDUNGEN
100
AcDbLine
 62
7
  6
CONTINUOUS
 10
293.6811823507
 20
172.5472692809
 11
293.6811823507
 21
166.0934217036
  0
LINE
  5
331
100
AcDbEntity
  8
BEZUGSACHSEN
100
AcDbLine
 62
2
  6
CENTER
 10
276.2246569647
 20
188.8972692809
 11
292.492016632
 21
188.8972692809
  0
LINE
  5
332
100
AcDbEntity
  8
0
100
AcDbLine
 62
7
  6
CONTINUOUS
 10
282.6761736949
 20
188.8972692809
 11
286.6861910066
 21
188.8972692809
  0
LINE
  5
333
100
AcDbEntity
  8
RUNDUNGEN
100
AcDbLine
 62
7
  6
CONTINUOUS
 10
296.6811823507
 20
150.0972692809
 11
296.6811823507
 21
160.8972692809
  0
LINE
  5
334
100
AcDbEntity
  8
KONSTRUKTIONSELEMENTE
100
AcDbLine
 62
7
  6
CONTINUOUS
 10
286.6861910066
 20
217.4191280512
 11
290.1958882331
 21
210.8384457515
  0
LINE
  5
335
100
AcDbEntity
  8
0
100
AcDbLine
 62
7
  6
CONTINUOUS
 10
282.6761736949
 20
203.158198666
 11
286.6861910066
 21
203.158198666
  0
LINE
  5
336
100
AcDbEntity
  8
0
100
AcDbLine
 62
7
  6
CONTINUOUS
 10
282.6761736949
 20
213.5979235391
 11
286.6861910066
 21
213.5979235391
  0
LINE
  5
337
100
AcDbEntity
  8
0
100
AcDbLine
 62
7
  6
CONTINUOUS
 10
286.6861910066
 20
217.4191280512
 11
282.6761736949
 21
217.4191280512
  0
ARC
  5
338
100
AcDbEntity
  8
KONSTRUKTIONSELEMENTE
100
AcDbCircle
 62
7
  6
CONTINUOUS
 10
145.9834348062
 20
114.7559092809
 40
28.79136
100
AcDbArc
 50
56.9721560344
 51
79.9991254185
  0
ARC
  5
339
100
AcDbEntity
  8
KONSTRUKTIONSELEMENTE
100
AcDbCircle
 62
7
  6
CONTINUOUS
 10
145.9834348062
 20
114.7559092809
 40
28.79136
100
AcDbArc
 50
100.0008745815
 51
123.0278439656
  0
ARC
  5
33A
100
AcDbEntity
  8
RUNDUNGEN
100
AcDbCircle
 62
7
  6
CONTINUOUS
 10
162.5135226356
 20
203.8021508056
 40
27.7566678186
100
AcDbArc
 50
270.0054115361
 51
270.9708056369
  0
ARC
  5
33B
100
AcDbEntity
  8
RUNDUNGEN
100
AcDbCircle
 62
7
  6
CONTINUOUS
 10
129.4533411164
 20
203.8012214724
 40
27.7557384848
100
AcDbArc
 50
269.029932686
 51
269.9945997237
  0
CIRCLE
  5
33C
100
AcDbEntity
  8
BEZUGSACHSEN
100
AcDbCircle
 62
7
  6
CONTINUOUS
 10
145.9834348062
 20
188.8972692809
 40
12.75
  0
ARC
  5
33D
100
AcDbEntity
  8
RUNDUNGEN
100
AcDbCircle
 62
7
  6
CONTINUOUS
 10
128.9834348062
 20
170.1472692809
 40
6.0
100
AcDbArc
 50
116.2394469635
 51
180.0
  0
ARC
  5
33E
100
AcDbEntity
  8
RUNDUNGEN
100
AcDbCircle
 62
7
  6
CONTINUOUS
 10
162.9834348062
 20
170.1472692809
 40
6.0
100
AcDbArc
 50
0.0
 51
63.7605530365
  0
ARC
  5
33F
100
AcDbEntity
  8
KONSTRUKTIONSELEMENTE
100
AcDbCircle
 62
7
  6
CONTINUOUS
 10
145.9834348062
 20
163.3372692809
 40
5.0
100
AcDbArc
 50
0.0000014742
 51
180.0
  0
ARC
  5
340
100
AcDbEntity
  8
RUNDUNGEN
100
AcDbCircle
 62
7
  6
CONTINUOUS
 10
128.1515277244
 20
171.8354087377
 40
4.118010582
100
AcDbArc
 50
113.1855758856
 51
116.2420010499
  0
ARC
  5
341
100
AcDbEntity
  8
RUNDUNGEN
100
AcDbCircle
 62
7
  6
CONTINUOUS
 10
163.815341888
 20
171.8354087377
 40
4.1180105821
100
AcDbArc
 50
63.7579989501
 51
66.8144241143
  0
CIRCLE
  5
342
100
AcDbEntity
  8
BEZUGSACHSEN
100
AcDbCircle
 62
7
  6
CONTINUOUS
 10
131.1834348062
 20
152.6972692809
 40
1.75
  0
ARC
  5
343
100
AcDbEntity
  8
RUNDUNGEN
100
AcDbCircle
 62
7
  6
CONTINUOUS
 10
285.4811823507
 20
150.0972692809
 40
11.2
100
AcDbArc
 50
270.0
 51
360.0
  0
ARC
  5
344
100
AcDbEntity
  8
0
100
AcDbCircle
 62
7
  6
CONTINUOUS
 10
283.8811823507
 20
150.0972692809
 40
11.2
100
AcDbArc
 50
180.0
 51
270.0
  0
ARC
  5
345
100
AcDbEntity
  8
BEZUGSACHSEN
100
AcDbCircle
 62
8
  6
HIDDEN
 10
284.6811823507
 20
207.8972692809
 40
6.25
100
AcDbArc
 50
180.0
 51
360.0
  0
ARC
  5
346
100
AcDbEntity
  8
BEZUGSACHSEN
100
AcDbCircle
 62
7
  6
CONTINUOUS
 10
284.6811823507
 20
207.8972692809
 40
6.25
100
AcDbArc
 50
0.0
 51
28.0724869359
  0
ARC
  5
347
100
AcDbEntity
  8
BEZUGSACHSEN
100
AcDbCircle
 62
7
  6
CONTINUOUS
 10
284.6811823507
 20
207.8972692809
 40
6.25
100
AcDbArc
 50
151.9275130641
 51
180.0
  0
CIRCLE
  5
348
100
AcDbEntity
  8
BEZUGSACHSEN
100
AcDbCircle
 62
7
  6
CONTINUOUS
 10
284.6811823507
 20
152.8972692809
 40
5.6906
  0
ARC
  5
349
100
AcDbEntity
  8
0
100
AcDbCircle
 62
7
  6
CONTINUOUS
 10
279.2811823507
 20
172.5472692809
 40
3.6
100
AcDbArc
 50
103.3863540691
 51
179.9999506524
  0
ARC
  5
34A
100
AcDbEntity
  8
RUNDUNGEN
100
AcDbCircle
 62
7
  6
CONTINUOUS
 10
290.0811823507
 20
172.5472692809
 40
3.6
100
AcDbArc
 50
0.0000493476
 51
76.6136459309
  0
ARC
  5
34B
100
AcDbEntity
  8
RUNDUNGEN
100
AcDbCircle
 62
7
  6
CONTINUOUS
 10
291.6047395678
 20
173.7434910442
 40
2.3471789212
100
AcDbArc
 50
126.886498031
 51
130.4738884922
  0
ARC
  5
34C
100
AcDbEntity
  8
0
100
AcDbCircle
 62
7
  6
CONTINUOUS
 10
277.7576251336
 20
173.7434910441
 40
2.3471789213
100
AcDbArc
 50
49.5261115079
 51
53.113501969
  0
SPLINE
  5
34D
100
AcDbEntity
  8
KONSTRUKTIONSELEMENTE
100
AcDbSpline
 62
7
  6
CONTINUOUS
 70
0
 71
3
 72
9
 73
5
 74
0
 42
0.0000001
 43
0.0000001
 44
0.0000000001
 40
0.0
 40
0.0
 40
0.0
 40
0.0
 40
0.479507891
 40
1.0
 40
1.0
 40
1.0
 40
1.0
 10
161.707156307
 20
138.8972692809
 30
0.0
 10
161.7193636326
 20
138.8972692809
 30
0.0
 10
161.7453483428
 20
138.9034616002
 30
0.0
 10
161.7646111312
 20
138.9215225565
 30
0.0
 10
161.7728169354
 20
138.9319266857
 30
0.0
  0
SPLINE
  5
34E
100
AcDbEntity
  8
KONSTRUKTIONSELEMENTE
100
AcDbSpline
 62
7
  6
CONTINUOUS
 70
0
 71
3
 72
21
 73
17
 74
0
 42
0.0000001
 43
0.0000001
 44
0.0000000001
 40
0.0
 40
0.0
 40
0.0
 40
0.0
 40
0.0053166595
 40
0.0124270584
 40
0.0215455055
 40
0.0327520286
 40
0.0615127469
 40
0.0986478275
 40
0.1438603301
 40
0.1967097028
 40
0.2566628089
 40
0.3230985835
 40
0.4726242288
 40
0.6393519206
 40
0.8170971932
 40
1.0
 40
1.0
 40
1.0
 40
1.0
 10
161.7728169354
 20
138.9319266857
 30
0.0
 10
161.7856446805
 20
138.948190968
 30
0.0
 10
161.8068579391
 20
138.9927694137
 30
0.0
 10
161.8262011163
 20
139.0745993127
 30
0.0
 10
161.8379270108
 20
139.1810785626
 30
0.0
 10
161.8433974252
 20
139.3723461715
 30
0.0
 10
161.8261521612
 20
139.6726888991
 30
0.0
 10
161.7764264888
 20
140.1027855196
 30
0.0
 10
161.6947748368
 20
140.6232943123
 30
0.0
 10
161.5810889232
 20
141.228411214
 30
0.0
 10
161.4350830025
 20
141.9113759077
 30
0.0
 10
161.1870992551
 20
142.9574420045
 30
0.0
 10
160.7967293995
 20
144.3968984588
 30
0.0
 10
160.2166521633
 20
146.232697956
 30
0.0
 10
159.5069516786
 20
148.161790638
 30
0.0
 10
158.9496396951
 20
149.4528105328
 30
0.0
 10
158.6455335581
 20
150.0972692809
 30
0.0
  0
SPLINE
  5
34F
100
AcDbEntity
  8
KONSTRUKTIONSELEMENTE
100
AcDbSpline
 62
7
  6
CONTINUOUS
 70
0
 71
3
 72
9
 73
5
 74
0
 42
0.0000001
 43
0.0000001
 44
0.0000000001
 40
0.0
 40
0.0
 40
0.0
 40
0.0
 40
0.2510778321
 40
1.0
 40
1.0
 40
1.0
 40
1.0
 10
150.9834348062
 20
161.8796207236
 30
0.0
 10
151.3243319722
 20
161.8219286652
 30
0.0
 10
152.6778448727
 20
161.5681096233
 30
0.0
 10
154.0134898693
 20
161.2171453197
 30
0.0
 10
154.9939244542
 20
160.8972692809
 30
0.0
  0
SPLINE
  5
350
100
AcDbEntity
  8
KONSTRUKTIONSELEMENTE
100
AcDbSpline
 62
7
  6
CONTINUOUS
 70
0
 71
3
 72
9
 73
5
 74
0
 42
0.0000001
 43
0.0000001
 44
0.0000000001
 40
0.0
 40
0.0
 40
0.0
 40
0.0
 40
0.248984136
 40
1.0
 40
1.0
 40
1.0
 40
1.0
 10
136.9729451583
 20
160.8972692809
 30
0.0
 10
137.2989019676
 20
161.003615767
 30
0.0
 10
138.61630466
 20
161.4051335769
 30
0.0
 10
139.963739135
 20
161.7070515499
 30
0.0
 10
140.9834348062
 20
161.8796207236
 30
0.0
  0
SPLINE
  5
351
100
AcDbEntity
  8
KONSTRUKTIONSELEMENTE
100
AcDbSpline
 62
7
  6
CONTINUOUS
 70
0
 71
3
 72
13
 73
9
 74
0
 42
0.0000001
 43
0.0000001
 44
0.0000000001
 40
0.0
 40
0.0
 40
0.0
 40
0.0
 40
0.1249922982
 40
0.250000124
 40
0.3750360511
 40
0.500088215
 40
0.7499603233
 40
1.0
 40
1.0
 40
1.0
 40
1.0
 10
134.0270527448
 20
156.7376692809
 30
0.0
 10
134.0270527448
 20
156.9587296947
 30
0.0
 10
134.0742793612
 20
157.4021761867
 30
0.0
 10
134.2754180302
 20
158.0380599144
 30
0.0
 10
134.5814963066
 20
158.6296952077
 30
0.0
 10
135.0949322141
 20
159.3522939285
 30
0.0
 10
135.8829296244
 20
160.1378870404
 30
0.0
 10
136.6004269158
 20
160.6589687715
 30
0.0
 10
136.9729451583
 20
160.8972692809
 30
0.0
  0
SPLINE
  5
352
100
AcDbEntity
  8
KONSTRUKTIONSELEMENTE
100
AcDbSpline
 62
7
  6
CONTINUOUS
 70
0
 71
3
 72
10
 73
6
 74
0
 42
0.0000001
 43
0.0000001
 44
0.0000000001
 40
0.0
 40
0.0
 40
0.0
 40
0.0
 40
0.4997344889
 40
0.7498860004
 40
1.0
 40
1.0
 40
1.0
 40
1.0
 10
133.3213360543
 20
150.0972692809
 30
0.0
 10
133.5315760752
 20
150.5428078746
 30
0.0
 10
133.7991775882
 20
151.2382489458
 30
0.0
 10
133.9933009742
 20
152.2068761957
 30
0.0
 10
134.0270527448
 20
152.7007002709
 30
0.0
 10
134.0270527448
 20
152.9472692809
 30
0.0
  0
SPLINE
  5
353
100
AcDbEntity
  8
KONSTRUKTIONSELEMENTE
100
AcDbSpline
 62
7
  6
CONTINUOUS
 70
0
 71
3
 72
10
 73
6
 74
0
 42
0.0000001
 43
0.0000001
 44
0.0000000001
 40
0.0
 40
0.0
 40
0.0
 40
0.0
 40
0.2501139996
 40
0.5002655111
 40
1.0
 40
1.0
 40
1.0
 40
1.0
 10
157.9398168677
 20
152.9472692809
 30
0.0
 10
157.9398168677
 20
152.7007002709
 30
0.0
 10
157.9735686383
 20
152.2068761957
 30
0.0
 10
158.1676920243
 20
151.2382489458
 30
0.0
 10
158.4352935373
 20
150.5428078746
 30
0.0
 10
158.6455335581
 20
150.0972692809
 30
0.0
  0
SPLINE
  5
354
100
AcDbEntity
  8
KONSTRUKTIONSELEMENTE
100
AcDbSpline
 62
7
  6
CONTINUOUS
 70
0
 71
3
 72
13
 73
9
 74
0
 42
0.0000001
 43
0.0000001
 44
0.0000000001
 40
0.0
 40
0.0
 40
0.0
 40
0.0
 40
0.2500391972
 40
0.4999110847
 40
0.6249632831
 40
0.7499993906
 40
0.875007397
 40
1.0
 40
1.0
 40
1.0
 40
1.0
 10
154.9939244542
 20
160.8972692809
 30
0.0
 10
155.366441982
 20
160.6589692286
 30
0.0
 10
156.083938306
 20
160.1378883046
 30
0.0
 10
156.8719352221
 20
159.3522964127
 30
0.0
 10
157.3853715732
 20
158.6296980158
 30
0.0
 10
157.6914505137
 20
158.0380622887
 30
0.0
 10
157.8925901456
 20
157.4021776128
 30
0.0
 10
157.9398168677
 20
156.9587302337
 30
0.0
 10
157.9398168677
 20
156.7376692809
 30
0.0
  0
SPLINE
  5
355
100
AcDbEntity
  8
RUNDUNGEN
100
AcDbSpline
 62
7
  6
CONTINUOUS
 70
0
 71
3
 72
9
 73
5
 74
0
 42
0.0000001
 43
0.0000001
 44
0.0000000001
 40
0.0
 40
0.0
 40
0.0
 40
0.0
 40
0.4847438183
 40
1.0
 40
1.0
 40
1.0
 40
1.0
 10
165.4366459195
 20
175.6208260715
 30
0.0
 10
165.0648283061
 20
175.7800548185
 30
0.0
 10
164.2506890832
 20
176.0002940125
 30
0.0
 10
163.4136793076
 20
176.0566845151
 30
0.0
 10
162.9838023069
 20
176.0494672341
 30
0.0
  0
SPLINE
  5
356
100
AcDbEntity
  8
KONSTRUKTIONSELEMENTE
100
AcDbSpline
 62
7
  6
CONTINUOUS
 70
0
 71
3
 72
25
 73
21
 74
0
 42
0.0000001
 43
0.0000001
 44
0.0000000001
 40
0.0
 40
0.0
 40
0.0
 40
0.0
 40
0.1909707776
 40
0.3759533983
 40
0.4641013487
 40
0.5481534307
 40
0.6272170623
 40
0.7004235274
 40
0.7669433979
 40
0.8260210664
 40
0.8769818435
 40
0.9192661429
 40
0.937021355
 40
0.952466139
 40
0.9655806471
 40
0.9763782016
 40
0.9849111964
 40
0.9913276338
 40
0.9960309752
 40
1.0
 40
1.0
 40
1.0
 40
1.0
 10
133.3213360543
 20
150.0972692809
 30
0.0
 10
133.0017480912
 20
149.4200015984
 30
0.0
 10
132.4192460475
 20
148.0643642655
 30
0.0
 10
131.7972228963
 20
146.3531491278
 30
0.0
 10
131.367455748
 20
145.0199210185
 30
0.0
 10
131.0865910602
 20
144.0753892847
 30
0.0
 10
130.8418733015
 20
143.1814822653
 30
0.0
 10
130.6332202406
 20
142.3491930337
 30
0.0
 10
130.4605033714
 20
141.5888955609
 30
0.0
 10
130.323558918
 20
140.9101206996
 30
0.0
 10
130.2222352405
 20
140.321368059
 30
0.0
 10
130.1639969877
 20
139.8898222896
 30
0.0
 10
130.1370024779
 20
139.5949987513
 30
0.0
 10
130.1268652277
 20
139.4136169164
 30
0.0
 10
130.1255237082
 20
139.2591956776
 30
0.0
 10
130.1328617428
 20
139.132082823
 30
0.0
 10
130.1488467849
 20
139.0320226269
 30
0.0
 10
130.1733893621
 20
138.9586693205
 30
0.0
 10
130.2092836461
 20
138.9088206933
 30
0.0
 10
130.244148929
 20
138.8972692809
 30
0.0
 10
130.2597133054
 20
138.8972692809
 30
0.0
  0
SPLINE
  5
357
100
AcDbEntity
  8
RUNDUNGEN
100
AcDbSpline
 62
7
  6
CONTINUOUS
 70
0
 71
3
 72
10
 73
6
 74
0
 42
0.0000001
 43
0.0000001
 44
0.0000000001
 40
0.0
 40
0.0
 40
0.0
 40
0.0
 40
0.4921466003
 40
0.7448860733
 40
1.0
 40
1.0
 40
1.0
 40
1.0
 10
136.5620387133
 20
176.1472692809
 30
0.0
 10
135.8117088162
 20
176.1472692809
 30
0.0
 10
134.6764686445
 20
176.1042707445
 30
0.0
 10
133.1527140463
 20
176.0553364895
 30
0.0
 10
132.3783990081
 20
176.0454831108
 30
0.0
 10
131.9894506616
 20
176.0454831108
 30
0.0
  0
SPLINE
  5
358
100
AcDbEntity
  8
RUNDUNGEN
100
AcDbSpline
 62
7
  6
CONTINUOUS
 70
0
 71
3
 72
10
 73
6
 74
0
 42
0.0000001
 43
0.0000001
 44
0.0000000001
 40
0.0
 40
0.0
 40
0.0
 40
0.0
 40
0.2551138715
 40
0.5078532373
 40
1.0
 40
1.0
 40
1.0
 40
1.0
 10
159.9774189508
 20
176.0454831108
 30
0.0
 10
159.5884695901
 20
176.0454831108
 30
0.0
 10
158.8141526111
 20
176.0553364563
 30
0.0
 10
157.2903937196
 20
176.1042712099
 30
0.0
 10
156.1551502429
 20
176.1472692809
 30
0.0
 10
155.4048179791
 20
176.1472692809
 30
0.0
  0
SPLINE
  5
359
100
AcDbEntity
  8
RUNDUNGEN
100
AcDbSpline
 62
7
  6
CONTINUOUS
 70
0
 71
3
 72
9
 73
5
 74
0
 42
0.0000001
 43
0.0000001
 44
0.0000000001
 40
0.0
 40
0.0
 40
0.0
 40
0.0
 40
0.5152567055
 40
1.0
 40
1.0
 40
1.0
 40
1.0
 10
128.9834348062
 20
176.0494610436
 30
0.0
 10
128.553494907
 20
176.056700594
 30
0.0
 10
127.7163597613
 20
176.0003340626
 30
0.0
 10
126.9020952383
 20
175.7800779146
 30
0.0
 10
126.530223693
 20
175.6208260715
 30
0.0
  0
SPLINE
  5
35A
100
AcDbEntity
  8
0
100
AcDbSpline
 62
7
  6
CONTINUOUS
 70
0
 71
3
 72
11
 73
7
 74
0
 42
0.0000001
 43
0.0000001
 44
0.0000000001
 40
0.0
 40
0.0
 40
0.0
 40
0.0
 40
0.2577328834
 40
0.5000000007
 40
0.7422671179
 40
1.0
 40
1.0
 40
1.0
 40
1.0
 10
282.6761736949
 20
217.4191280512
 30
0.0
 10
282.5148629749
 20
217.1166704513
 30
0.0
 10
282.254145411
 20
216.4979657787
 30
0.0
 10
282.1111901183
 20
215.5085257923
 30
0.0
 10
282.2541454099
 20
214.5190858071
 30
0.0
 10
282.5148629758
 20
213.9003811375
 30
0.0
 10
282.6761736949
 20
213.5979235391
 30
0.0
  0
SPLINE
  5
35B
100
AcDbEntity
  8
0
100
AcDbSpline
 62
7
  6
CONTINUOUS
 70
0
 71
3
 72
9
 73
5
 74
0
 42
0.0000001
 43
0.0000001
 44
0.0000000001
 40
0.0
 40
0.0
 40
0.0
 40
0.0
 40
0.5000869397
 40
1.0
 40
1.0
 40
1.0
 40
1.0
 10
286.6861910066
 20
188.8972692809
 30
0.0
 10
286.8329908897
 20
187.8700231136
 30
0.0
 10
287.0684268115
 20
185.8070613481
 30
0.0
 10
287.175574318
 20
183.73321927
 30
0.0
 10
287.1955594465
 20
182.6960901429
 30
0.0
  0
SPLINE
  5
35C
100
AcDbEntity
  8
0
100
AcDbSpline
 62
7
  6
CONTINUOUS
 70
0
 71
3
 72
11
 73
7
 74
0
 42
0.0000001
 43
0.0000001
 44
0.0000000001
 40
0.0
 40
0.0
 40
0.0
 40
0.0
 40
0.2500457849
 40
0.5000000008
 40
0.7499542166
 40
1.0
 40
1.0
 40
1.0
 40
1.0
 10
286.6861910066
 20
203.158198666
 30
0.0
 10
286.854896008
 20
201.9776693473
 30
0.0
 10
287.1154224569
 20
199.6051273696
 30
0.0
 10
287.2490541392
 20
196.0277339625
 30
0.0
 10
287.1154224583
 20
192.4503405623
 30
0.0
 10
286.854896007
 20
190.0777985928
 30
0.0
 10
286.6861910066
 20
188.8972692809
 30
0.0
  0
SPLINE
  5
35D
100
AcDbEntity
  8
0
100
AcDbSpline
 62
7
  6
CONTINUOUS
 70
0
 71
3
 72
11
 73
7
 74
0
 42
0.0000001
 43
0.0000001
 44
0.0000000001
 40
0.0
 40
0.0
 40
0.0
 40
0.0
 40
0.2506004323
 40
0.5000000008
 40
0.7493995691
 40
1.0
 40
1.0
 40
1.0
 40
1.0
 10
286.6861910066
 20
213.5979235391
 30
0.0
 10
286.8542955102
 20
212.7367922048
 30
0.0
 10
287.1149460914
 20
211.0027597703
 30
0.0
 10
287.2491929192
 20
208.3780610946
 30
0.0
 10
287.1149460928
 20
205.7533624237
 30
0.0
 10
286.8542955093
 20
204.0193299954
 30
0.0
 10
286.6861910066
 20
203.158198666
 30
0.0
  0
SPLINE
  5
35E
100
AcDbEntity
  8
0
100
AcDbSpline
 62
7
  6
CONTINUOUS
 70
0
 71
3
 72
11
 73
7
 74
0
 42
0.0000001
 43
0.0000001
 44
0.0000000001
 40
0.0
 40
0.0
 40
0.0
 40
0.0
 40
0.2577328834
 40
0.5000000007
 40
0.7422671179
 40
1.0
 40
1.0
 40
1.0
 40
1.0
 10
286.6861910066
 20
217.4191280512
 30
0.0
 10
286.8475017265
 20
217.1166704513
 30
0.0
 10
287.1082192904
 20
216.4979657787
 30
0.0
 10
287.2511745832
 20
215.5085257923
 30
0.0
 10
287.1082192916
 20
214.5190858071
 30
0.0
 10
286.8475017257
 20
213.9003811375
 30
0.0
 10
286.6861910066
 20
213.5979235391
 30
0.0
  0
SPLINE
  5
35F
100
AcDbEntity
  8
RUNDUNGEN
100
AcDbSpline
 62
7
  6
CONTINUOUS
 70
0
 71
3
 72
9
 73
5
 74
0
 42
0.0000001
 43
0.0000001
 44
0.0000000001
 40
0.0
 40
0.0
 40
0.0
 40
0.0
 40
0.1992237026
 40
1.0
 40
1.0
 40
1.0
 40
1.0
 10
290.9146407225
 20
176.0494610436
 30
0.0
 10
290.9124689215
 20
176.049977893
 30
0.0
 10
290.9012920117
 20
176.0514063907
 30
0.0
 10
290.8900008524
 20
176.0493895339
 30
0.0
 10
290.8812685827
 20
176.0473236663
 30
0.0
  0
SPLINE
  5
360
100
AcDbEntity
  8
RUNDUNGEN
100
AcDbSpline
 62
7
  6
CONTINUOUS
 70
0
 71
3
 72
12
 73
8
 74
0
 42
0.0000001
 43
0.0000001
 44
0.0000000001
 40
0.0
 40
0.0
 40
0.0
 40
0.0
 40
0.0542729009
 40
0.1283319023
 40
0.3375862636
 40
0.6288814157
 40
1.0
 40
1.0
 40
1.0
 40
1.0
 10
290.8812685827
 20
176.0473236663
 30
0.0
 10
290.8670112591
 20
176.0439506895
 30
0.0
 10
290.8342606056
 20
176.0321813951
 30
0.0
 10
290.7517121915
 20
175.9935388498
 30
0.0
 10
290.6175667544
 20
175.9151221168
 30
0.0
 10
290.4210185627
 20
175.7857480877
 30
0.0
 10
290.2760370247
 20
175.6809324168
 30
0.0
 10
290.1958882331
 20
175.6208260715
 30
0.0
  0
SPLINE
  5
361
100
AcDbEntity
  8
0
100
AcDbSpline
 62
7
  6
CONTINUOUS
 70
0
 71
3
 72
9
 73
5
 74
0
 42
0.0000001
 43
0.0000001
 44
0.0000000001
 40
0.0
 40
0.0
 40
0.0
 40
0.0
 40
0.1992237026
 40
1.0
 40
1.0
 40
1.0
 40
1.0
 10
278.447723979
 20
176.0494610436
 30
0.0
 10
278.44989578
 20
176.049977893
 30
0.0
 10
278.4610726897
 20
176.0514063907
 30
0.0
 10
278.472363849
 20
176.0493895339
 30
0.0
 10
278.4810961188
 20
176.0473236663
 30
0.0
  0
SPLINE
  5
362
100
AcDbEntity
  8
0
100
AcDbSpline
 62
7
  6
CONTINUOUS
 70
0
 71
3
 72
12
 73
8
 74
0
 42
0.0000001
 43
0.0000001
 44
0.0000000001
 40
0.0
 40
0.0
 40
0.0
 40
0.0
 40
0.0542729009
 40
0.1283319023
 40
0.3375862636
 40
0.6288814157
 40
1.0
 40
1.0
 40
1.0
 40
1.0
 10
278.4810961188
 20
176.0473236663
 30
0.0
 10
278.4953534423
 20
176.0439506895
 30
0.0
 10
278.5281040959
 20
176.0321813951
 30
0.0
 10
278.6106525099
 20
175.9935388498
 30
0.0
 10
278.7447979471
 20
175.9151221168
 30
0.0
 10
278.9413461388
 20
175.7857480877
 30
0.0
 10
279.0863276768
 20
175.6809324168
 30
0.0
 10
279.1664764684
 20
175.6208260715
 30
0.0
  0
SPLINE
  5
363
100
AcDbEntity
  8
0
100
AcDbSpline
 62
7
  6
CONTINUOUS
 70
0
 71
3
 72
9
 73
5
 74
0
 42
0.0000001
 43
0.0000001
 44
0.0000000001
 40
0.0
 40
0.0
 40
0.0
 40
0.0
 40
0.5000869397
 40
1.0
 40
1.0
 40
1.0
 40
1.0
 10
282.6761736949
 20
188.8972692809
 30
0.0
 10
282.5293738117
 20
187.8700231136
 30
0.0
 10
282.2939378899
 20
185.8070613481
 30
0.0
 10
282.1867903835
 20
183.73321927
 30
0.0
 10
282.166805255
 20
182.6960901429
 30
0.0
  0
SPLINE
  5
364
100
AcDbEntity
  8
0
100
AcDbSpline
 62
7
  6
CONTINUOUS
 70
0
 71
3
 72
11
 73
7
 74
0
 42
0.0000001
 43
0.0000001
 44
0.0000000001
 40
0.0
 40
0.0
 40
0.0
 40
0.0
 40
0.2500457849
 40
0.5000000008
 40
0.7499542166
 40
1.0
 40
1.0
 40
1.0
 40
1.0
 10
282.6761736949
 20
203.158198666
 30
0.0
 10
282.5074686935
 20
201.9776693473
 30
0.0
 10
282.2469422446
 20
199.6051273696
 30
0.0
 10
282.1133105623
 20
196.0277339625
 30
0.0
 10
282.2469422432
 20
192.4503405623
 30
0.0
 10
282.5074686945
 20
190.0777985928
 30
0.0
 10
282.6761736949
 20
188.8972692809
 30
0.0
  0
SPLINE
  5
365
100
AcDbEntity
  8
0
100
AcDbSpline
 62
7
  6
CONTINUOUS
 70
0
 71
3
 72
11
 73
7
 74
0
 42
0.0000001
 43
0.0000001
 44
0.0000000001
 40
0.0
 40
0.0
 40
0.0
 40
0.0
 40
0.2506004323
 40
0.5000000008
 40
0.7493995691
 40
1.0
 40
1.0
 40
1.0
 40
1.0
 10
282.6761736949
 20
213.5979235391
 30
0.0
 10
282.5080691912
 20
212.7367922048
 30
0.0
 10
282.24741861
 20
211.0027597703
 30
0.0
 10
282.1131717823
 20
208.3780610946
 30
0.0
 10
282.2474186087
 20
205.7533624237
 30
0.0
 10
282.5080691922
 20
204.0193299954
 30
0.0
 10
282.6761736949
 20
203.158198666
 30
0.0
  0
ENDSEC
  0
SECTION
  2
OBJECTS
  0
DICTIONARY
  5
C
100
AcDbDictionary
280
0
281
1
  3
ACAD_GROUP
350
D
  3
ACAD_MLINESTYLE
350
17
  3
ACAD_LAYOUT
350
1A
  3
ACAD_PLOTSETTINGS
350
19
  3
ACAD_PLOTSTYLENAME
350
E
  0
DICTIONARY
  5
D
102
{ACAD_REACTORS
330
C
102
}
100
AcDbDictionary
280
0
281
1
  0
ACDBDICTIONARYWDFLT
  5
E
102
{ACAD_REACTORS
330
C
102
}
100
AcDbDictionary
281
1
  3
Normal
350
F
100
AcDbDictionaryWithDefault
340
F
  0
DICTIONARY
  5
17
102
{ACAD_REACTORS
330
C
102
}
100
AcDbDictionary
280
0
281
1
  3
Standard
350
18
  0
DICTIONARY
  5
19
102
{ACAD_REACTORS
330
C
102
}
100
AcDbDictionary
281
1
  0
DICTIONARY
  5
1A
102
{ACAD_REACTORS
330
C
102
}
100
AcDbDictionary
281
1
  3
Model
350
366
  3
Layout1
350
367
  0
ACDBPLACEHOLDER
  5
F
102
{ACAD_REACTORS
330
E
102
}
  0
MLINESTYLE
  5
18
102
{ACAD_REACTORS
330
17
102
}
100
AcDbMlineStyle
  2
STANDARD
 70
0
  3

 62
256
 51
90.0
 52
90.0
 71
2
 49
0.5
 62
256
  6
BYLAYER
 49
-0.5
 62
256
  6
BYLAYER
  0
LAYOUT
  5
366
102
{ACAD_REACTORS
330
1A
102
}
100
AcDbPlotSettings
  1

  2
none_device
  4
ISO_A3_(420.00_x_297.00_MM)
  6

 40
0.0
 41
0.0
 42
0.0
 43
0.0
 44
420.0
 45
297.0
 46
0.0
 47
0.0
 48
0.0
 49
0.0
140
0.0
141
0.0
142
1.0
143
1.0
 70
1024
 72
1
 73
0
 74
0
  7

 75
0
147
1.0
148
0.0
149
0.0
100
AcDbLayout
  1
Model
 70
0
 71
0
 10
0.0
 20
0.0
 11
420.0
 21
297.0
 12
0.0
 22
0.0
 32
0.0
 14
0.0
 24
0.0
 34
0.0
 15
0.0
 25
0.0
 35
0.0
146
0.0
 13
0.0
 23
0.0
 33
0.0
 16
1.0
 26
0.0
 36
0.0
 17
0.0
 27
1.0
 37
0.0
 76
0
330
208
345
0
346
0
  0
LAYOUT
  5
367
102
{ACAD_REACTORS
330
1A
102
}
100
AcDbPlotSettings
  1

  2
none_device
  4
ISO_A3_(420.00_x_297.00_MM)
  6

 40
0.0
 41
0.0
 42
0.0
 43
0.0
 44
420.0
 45
297.0
 46
0.0
 47
0.0
 48
0.0
 49
0.0
140
0.0
141
0.0
142
1.0
143
1.0
 70
0
 72
1
 73
0
 74
0
  7

 75
0
147
1.0
148
0.0
149
0.0
100
AcDbLayout
  1
Layout1
 70
0
 71
1
 10
0.0
 20
0.0
 11
420.0
 21
297.0
 12
0.0
 22
0.0
 32
0.0
 14
0.0
 24
0.0
 34
0.0
 15
0.0
 25
0.0
 35
0.0
146
0.0
 13
0.0
 23
0.0
 33
0.0
 16
1.0
 26
0.0
 36
0.0
 17
0.0
 27
1.0
 37
0.0
 76
0
330
209
345
0
346
0
  0
ENDSEC
  0
EOF
