999
DXF file: irg6-dxf.dxf
999
Pro/ENGINEER 2010140 by Parametric Technology Corporation
  0
SECTION
  2
HEADER
  9
$ACADVER
  1
AC1021
  9
$DWGCODEPAGE
  3
ANSI_1252
  9
$EXTMAX
 10
420.0
 20
297.0
 30
0.0
  9
$EXTMIN
 10
0.0
 20
0.0
 30
0.0
  9
$LIMMIN
 10
0.0
 20
0.0
  9
$LIMMAX
 10
420.0
 20
297.0
  9
$VIEWCTR
 10
210.0
 20
148.5
  9
$VIEWSIZE
 40
297.0
  9
$CLAYER
  8
0
  9
$LTSCALE
 40
23.1
  9
$CELTYPE
  6
BYLAYER
  9
$DIMSCALE
 40
1.0
  9
$DIMASZ
 40
3.5
  9
$DIMEXO
 40
2.625
  9
$DIMDLI
 40
15.96
  9
$DIMEXE
 40
7.56
  9
$DIMCEN
 40
3.78
  9
$DIMLFAC
 40
1.0
  9
$DIMBLK
  1
_FILLED
  9
$DIMTXT
 40
3.5
  9
$DIMTOL
 70
1
  9
$DIMLIM
 70
0
  9
$DIMTFAC
 40
1.0
  9
$DIMTP
 40
0.005
  9
$DIMTM
 40
0.005
  9
$PDMODE
 70
3
  9
$PDSIZE
 40
0.3125
  9
$HANDSEED
  5
35C
  9
$TILEMODE
 70
1
  9
$MEASUREMENT
 70
1
  9
$INSUNITS
 70
4
  0
ENDSEC
  0
SECTION
  2
CLASSES
  0
CLASS
  1
ACDBDICTIONARYWDFLT
  2
AcDbDictionaryWithDefault
  3
AutoCAD 2000
 90
0
 91
1
280
0
281
0
  0
CLASS
  1
ACDBPLACEHOLDER
  2
AcDbPlaceHolder
  3
AutoCAD 2000
 90
0
 91
1
280
0
281
0
  0
CLASS
  1
LAYOUT
  2
AcDbLayout
  3
AutoCAD 2000
 90
0
 91
0
280
0
281
0
  0
ENDSEC
  0
SECTION
  2
TABLES
  0
TABLE
  2
VPORT
  5
8
100
AcDbSymbolTable
 70
2
  0
VPORT
  5
1F4
100
AcDbSymbolTableRecord
100
AcDbViewportTableRecord
  2
*ACTIVE
 70
0
 10
0.0
 20
0.0
 11
1.0
 21
1.0
 12
210.0
 22
148.5
 13
0.0
 23
0.0
 14
1.0
 24
1.0
 15
0.0
 25
0.0
 16
0.0
 26
0.0
 36
1.0
 17
0.0
 27
0.0
 37
0.0
 40
297.0
 41
1.4141414141
 42
50.0
 43
0.0
 44
0.0
 50
0.0
 51
0.0
 71
0
 72
100
 73
1
 74
1
 75
0
 76
0
 77
0
 78
0
  0
ENDTAB
  0
TABLE
  2
LTYPE
  5
5
100
AcDbSymbolTable
 70
6
  0
LTYPE
  5
14
100
AcDbSymbolTableRecord
100
AcDbLinetypeTableRecord
  2
BYBLOCK
 70
0
  3

 72
65
 73
0
 40
0.0
  0
LTYPE
  5
15
100
AcDbSymbolTableRecord
100
AcDbLinetypeTableRecord
  2
BYLAYER
 70
0
  3

 72
65
 73
0
 40
0.0
  0
LTYPE
  5
16
100
AcDbSymbolTableRecord
100
AcDbLinetypeTableRecord
  2
CONTINUOUS
 70
64
  3
Solid line
 72
65
 73
0
 40
0.0
  0
LTYPE
  5
1F5
100
AcDbSymbolTableRecord
100
AcDbLinetypeTableRecord
  2
CENTER
 70
64
  3
____ _ ____ _ ____ _ ____ _ ____ _ ____ _ ____
 72
65
 73
4
 40
0.6
 49
0.375
 74
0
 49
-0.075
 74
0
 49
0.075
 74
0
 49
-0.075
 74
0
  0
LTYPE
  5
1F6
100
AcDbSymbolTableRecord
100
AcDbLinetypeTableRecord
  2
HIDDEN
 70
64
  3
- - - - - - - - - - - - - - - - - - - -
 72
65
 73
2
 40
0.2
 49
0.1
 74
0
 49
-0.1
 74
0
  0
LTYPE
  5
1F7
100
AcDbSymbolTableRecord
100
AcDbLinetypeTableRecord
  2
PHANTOM
 70
64
  3
_____ _ _ _____ _ _ _____ _ _ _____
 72
65
 73
6
 40
0.8
 49
0.45
 74
0
 49
-0.05
 74
0
 49
0.1
 74
0
 49
-0.05
 74
0
 49
0.1
 74
0
 49
-0.05
 74
0
  0
LTYPE
  5
1F8
100
AcDbSymbolTableRecord
100
AcDbLinetypeTableRecord
  2
DOT
 70
64
  3
. . . . . . . . . . . . . . . . . . . .
 72
65
 73
2
 40
0.2
 49
0.1
 74
0
 49
-0.1
 74
0
  0
LTYPE
  5
1F9
100
AcDbSymbolTableRecord
100
AcDbLinetypeTableRecord
  2
DASHED
 70
64
  3
- - - - - - - - - - - - - - - - - - - -
 72
65
 73
2
 40
0.2
 49
0.1
 74
0
 49
-0.1
 74
0
  0
ENDTAB
  0
TABLE
  2
LAYER
  5
2
100
AcDbSymbolTable
 70
36
  0
LAYER
  5
10
100
AcDbSymbolTableRecord
100
AcDbLayerTableRecord
  2
0
 70
0
 62
7
  6
CONTINUOUS
370
-3
390
F
  0
LAYER
  5
1FA
100
AcDbSymbolTableRecord
100
AcDbLayerTableRecord
  2
DEFAULT_1
 70
0
 62
7
  6
CENTER
370
-3
390
F
  0
LAYER
  5
1FB
100
AcDbSymbolTableRecord
100
AcDbLayerTableRecord
  2
DEFAULT_2
 70
0
 62
8
  6
HIDDEN
370
-3
390
F
  0
LAYER
  5
1FC
100
AcDbSymbolTableRecord
100
AcDbLayerTableRecord
  2
DEFAULT_3
 70
0
 62
7
  6
PHANTOM
370
-3
390
F
  0
LAYER
  5
1FD
100
AcDbSymbolTableRecord
100
AcDbLayerTableRecord
  2
BEZUGSACHSEN
 70
0
 62
7
  6
CONTINUOUS
370
-3
390
F
  0
LAYER
  5
1FE
100
AcDbSymbolTableRecord
100
AcDbLayerTableRecord
  2
BEZUGSEBENEN
 70
0
 62
7
  6
CONTINUOUS
370
-3
390
F
  0
LAYER
  5
1FF
100
AcDbSymbolTableRecord
100
AcDbLayerTableRecord
  2
FASEN
 70
0
 62
7
  6
CONTINUOUS
370
-3
390
F
  0
LAYER
  5
200
100
AcDbSymbolTableRecord
100
AcDbLayerTableRecord
  2
HILFEN
 70
0
 62
7
  6
CONTINUOUS
370
-3
390
F
  0
LAYER
  5
201
100
AcDbSymbolTableRecord
100
AcDbLayerTableRecord
  2
KONSTRUKTIONSELEMENTE
 70
0
 62
7
  6
CONTINUOUS
370
-3
390
F
  0
LAYER
  5
202
100
AcDbSymbolTableRecord
100
AcDbLayerTableRecord
  2
PLATZIERUNG
 70
0
 62
7
  6
CONTINUOUS
370
-3
390
F
  0
LAYER
  5
203
100
AcDbSymbolTableRecord
100
AcDbLayerTableRecord
  2
RUNDUNGEN
 70
0
 62
7
  6
CONTINUOUS
370
-3
390
F
  0
LAYER
  5
204
100
AcDbSymbolTableRecord
100
AcDbLayerTableRecord
  2
TEIL_STARTBEZUEGE
 70
0
 62
7
  6
CONTINUOUS
370
-3
390
F
  0
LAYER
  5
205
100
AcDbSymbolTableRecord
100
AcDbLayerTableRecord
  2
ZEICHNUNGSBEMASSUNGEN
 70
0
 62
7
  6
CONTINUOUS
370
-3
390
F
  0
ENDTAB
  0
TABLE
  2
STYLE
  5
3
100
AcDbSymbolTable
 70
1
  0
STYLE
  5
11
100
AcDbSymbolTableRecord
100
AcDbTextStyleTableRecord
  2
STANDARD
 70
0
 40
0.0
 41
0.7
 50
0.0
 71
0
 42
0.2
  3
txt
  4

  0
STYLE
  5
206
100
AcDbSymbolTableRecord
100
AcDbTextStyleTableRecord
  2
TEXTSTYLE_1
 70
0
 40
0.0
 41
0.8
 50
0.0
 71
0
 42
0.2
  3
gdt
  4

  0
ENDTAB
  0
TABLE
  2
VIEW
  5
6
100
AcDbSymbolTable
 70
0
  0
ENDTAB
  0
TABLE
  2
UCS
  5
7
100
AcDbSymbolTable
 70
0
  0
ENDTAB
  0
TABLE
  2
APPID
  5
9
100
AcDbSymbolTable
 70
1
  0
APPID
  5
207
100
AcDbSymbolTableRecord
100
AcDbRegAppTableRecord
  2
ACAD
 70
0
  0
ENDTAB
  0
TABLE
  2
BLOCK_RECORD
  5
1
100
AcDbSymbolTable
 70
0
  0
BLOCK_RECORD
  5
208
100
AcDbSymbolTableRecord
100
AcDbBlockTableRecord
  2
*Model_Space
  0
BLOCK_RECORD
  5
209
100
AcDbSymbolTableRecord
100
AcDbBlockTableRecord
  2
*Paper_Space
  0
ENDTAB
  0
TABLE
  2
DIMSTYLE
  5
A
100
AcDbSymbolTable
 70
1
100
AcDbDimStyleTable
 71
0
  0
DIMSTYLE
105
20A
100
AcDbSymbolTableRecord
100
AcDbDimStyleTableRecord
  2
STANDARD
 70
0
  3

  4

 40
1.0
 41
3.5
 42
0.0625
 43
0.38
 44
0.18
 45
0.0
 46
0.0
 47
0.005
 48
0.005
140
3.5
141
0.09
142
0.0
143
25.4
144
1.0
145
0.0
146
1.0
147
0.09
 71
1.0
 72
0.0
 73
0
 74
0
 75
0
 76
0
 77
1
 78
8
170
0
171
2
172
0
173
0
174
0
175
0
176
0
177
0
178
5
270
2
271
3
272
3
273
2
274
2
275
0
280
0
281
0
282
0
283
1
284
8
285
0
286
0
287
3
288
0
340
11
  0
ENDTAB
  0
ENDSEC
  0
SECTION
  2
BLOCKS
  0
BLOCK
  5
20
100
AcDbEntity
  8
0
100
AcDbBlockBegin
  2
*Model_Space
 70
0
 10
0.0
 20
0.0
 30
0.0
  3
*Model_Space
  1

  0
ENDBLK
  5
21
100
AcDbEntity
  8
0
100
AcDbBlockEnd
  0
BLOCK
  5
1C
100
AcDbEntity
  8
0
100
AcDbBlockBegin
  2
*Paper_Space
 70
0
 10
0.0
 20
0.0
 30
0.0
  3
*Paper_Space
  1

  0
ENDBLK
  5
1D
100
AcDbEntity
  8
0
100
AcDbBlockEnd
  0
ENDSEC
  0
SECTION
  2
ENTITIES
  0
MTEXT
  5
20B
100
AcDbEntity
  8
0
100
AcDbMText
 62
5
  6
CONTINUOUS
  7
STANDARD
 71
1
 72
1
 10
279.2608214752
 20
162.9241392875
 30
0.0
 11
0.0
 21
1.0
 31
0.0
 44
0.9
  1
RUD
 40
3.0
 41
8.0
  0
MTEXT
  5
20C
100
AcDbEntity
  8
0
100
AcDbMText
 62
5
  6
CONTINUOUS
  7
STANDARD
 71
1
 72
1
 10
287.2527325631
 20
161.1004665167
 30
0.0
 11
0.0
 21
1.0
 31
0.0
 44
0.9
  1
IRG6
 40
3.0
 41
9.5714285714
  0
LINE
  5
20D
100
AcDbEntity
  8
0
100
AcDbLine
 62
7
  6
CONTINUOUS
 10
0.0
 20
0.0
 11
0.0
 21
297.0
  0
LINE
  5
20E
100
AcDbEntity
  8
0
100
AcDbLine
 62
7
  6
CONTINUOUS
 10
0.0
 20
0.0
 11
420.0
 21
0.0
  0
LINE
  5
20F
100
AcDbEntity
  8
0
100
AcDbLine
 62
7
  6
CONTINUOUS
 10
0.0
 20
297.0
 11
420.0
 21
297.0
  0
LINE
  5
210
100
AcDbEntity
  8
0
100
AcDbLine
 62
7
  6
CONTINUOUS
 10
420.0
 20
0.0
 11
420.0
 21
297.0
  0
LINE
  5
211
100
AcDbEntity
  8
RUNDUNGEN
100
AcDbLine
 62
7
  6
CONTINUOUS
 10
160.4708237285
 20
147.0295676802
 11
160.2334348062
 21
147.0201606815
  0
LINE
  5
212
100
AcDbEntity
  8
RUNDUNGEN
100
AcDbLine
 62
7
  6
CONTINUOUS
 10
160.2334348062
 20
147.0201606815
 11
156.874880945
 21
147.0201606815
  0
LINE
  5
213
100
AcDbEntity
  8
0
100
AcDbLine
 62
7
  6
CONTINUOUS
 10
156.874880945
 20
147.0201606815
 11
156.7765864632
 21
147.0201606815
  0
LINE
  5
214
100
AcDbEntity
  8
0
100
AcDbLine
 62
7
  6
CONTINUOUS
 10
135.1902831493
 20
147.0201606815
 11
135.0919886675
 21
147.0201606815
  0
LINE
  5
215
100
AcDbEntity
  8
RUNDUNGEN
100
AcDbLine
 62
7
  6
CONTINUOUS
 10
135.0919886675
 20
147.0201606815
 11
131.7334348062
 21
147.0201606815
  0
LINE
  5
216
100
AcDbEntity
  8
RUNDUNGEN
100
AcDbLine
 62
7
  6
CONTINUOUS
 10
131.7334348062
 20
147.0201606815
 11
131.496045884
 21
147.0295676802
  0
LINE
  5
217
100
AcDbEntity
  8
RUNDUNGEN
100
AcDbLine
 62
7
  6
CONTINUOUS
 10
131.496045884
 20
147.0295676802
 11
128.7334348062
 21
151.5188106815
  0
LINE
  5
218
100
AcDbEntity
  8
0
100
AcDbLine
 62
7
  6
CONTINUOUS
 10
134.5953968217
 20
206.2448210692
 11
126.2587744185
 21
197.908198666
  0
LINE
  5
219
100
AcDbEntity
  8
0
100
AcDbLine
 62
7
  6
CONTINUOUS
 10
126.2587744185
 20
197.908198666
 11
123.2073588372
 21
186.5201606815
  0
LINE
  5
21A
100
AcDbEntity
  8
BEZUGSACHSEN
100
AcDbLine
 62
7
  6
CONTINUOUS
 10
142.2834348062
 20
153.1826606815
 11
149.6834348062
 21
153.1826606815
  0
LINE
  5
21B
100
AcDbEntity
  8
BEZUGSACHSEN
100
AcDbLine
 62
7
  6
CONTINUOUS
 10
142.2834348062
 20
155.446862364
 11
149.6834348062
 21
155.446862364
  0
LINE
  5
21C
100
AcDbEntity
  8
BEZUGSACHSEN
100
AcDbLine
 62
2
  6
CENTER
 10
134.9834348062
 20
157.4201606815
 11
127.7203767302
 21
157.4201606815
  0
LINE
  5
21D
100
AcDbEntity
  8
BEZUGSACHSEN
100
AcDbLine
 62
2
  6
CENTER
 10
134.9834348062
 20
157.4201606815
 11
164.1743509506
 21
157.4201606815
  0
LINE
  5
21E
100
AcDbEntity
  8
0
100
AcDbLine
 62
7
  6
CONTINUOUS
 10
126.2587744185
 20
170.6594826933
 11
128.7334348062
 21
162.5652332843
  0
LINE
  5
21F
100
AcDbEntity
  8
0
100
AcDbLine
 62
7
  6
CONTINUOUS
 10
126.2587744185
 20
170.6594826933
 11
126.2587744185
 21
175.132122697
  0
LINE
  5
220
100
AcDbEntity
  8
BEZUGSACHSEN
100
AcDbLine
 62
7
  6
CONTINUOUS
 10
142.2834348062
 20
159.3934589991
 11
149.6834348062
 21
159.3934589991
  0
LINE
  5
221
100
AcDbEntity
  8
0
100
AcDbLine
 62
7
  6
CONTINUOUS
 10
123.2073588372
 20
186.5201606815
 11
126.2587744185
 21
175.132122697
  0
LINE
  5
222
100
AcDbEntity
  8
RUNDUNGEN
100
AcDbLine
 62
7
  6
CONTINUOUS
 10
128.7334348062
 20
151.5188106815
 11
128.7334348062
 21
171.0201606815
  0
LINE
  5
223
100
AcDbEntity
  8
BEZUGSACHSEN
100
AcDbLine
 62
7
  6
CONTINUOUS
 10
142.2834348062
 20
161.6576606815
 11
149.6834348062
 21
161.6576606815
  0
LINE
  5
224
100
AcDbEntity
  8
0
100
AcDbLine
 62
7
  6
CONTINUOUS
 10
133.2596546536
 20
172.2981048178
 11
133.2596546536
 21
169.4374248178
  0
LINE
  5
225
100
AcDbEntity
  8
0
100
AcDbLine
 62
7
  6
CONTINUOUS
 10
136.1799322672
 20
169.8634835331
 11
136.4183220399
 21
169.6200214131
  0
LINE
  5
226
100
AcDbEntity
  8
0
100
AcDbLine
 62
7
  6
CONTINUOUS
 10
135.5243597104
 20
169.4374248178
 11
134.9879822104
 21
170.8373320555
  0
LINE
  5
227
100
AcDbEntity
  8
0
100
AcDbLine
 62
7
  6
CONTINUOUS
 10
134.6303971252
 20
170.7156010062
 11
135.1071770967
 21
169.4374248178
  0
LINE
  5
228
100
AcDbEntity
  8
0
100
AcDbLine
 62
7
  6
CONTINUOUS
 10
133.6172396536
 20
169.4374248178
 11
133.6172396536
 21
170.7156010062
  0
LINE
  5
229
100
AcDbEntity
  8
0
100
AcDbLine
 62
7
  6
CONTINUOUS
 10
133.6172396536
 20
171.0807941541
 11
133.6172396536
 21
171.9937771945
  0
LINE
  5
22A
100
AcDbEntity
  8
BEZUGSACHSEN
100
AcDbLine
 62
2
  6
CENTER
 10
134.9834348062
 20
157.4201606815
 11
134.9834348062
 21
152.9201606815
  0
LINE
  5
22B
100
AcDbEntity
  8
BEZUGSACHSEN
100
AcDbLine
 62
2
  6
CENTER
 10
134.9834348062
 20
157.4201606815
 11
134.9834348062
 21
161.9201606815
  0
LINE
  5
22C
100
AcDbEntity
  8
0
100
AcDbLine
 62
7
  6
CONTINUOUS
 10
135.1071770967
 20
171.6285840466
 11
135.1071770967
 21
171.4459873021
  0
LINE
  5
22D
100
AcDbEntity
  8
0
100
AcDbLine
 62
7
  6
CONTINUOUS
 10
135.4647620967
 20
171.3851217774
 11
135.4647620967
 21
171.6285840466
  0
LINE
  5
22E
100
AcDbEntity
  8
0
100
AcDbLine
 62
7
  6
CONTINUOUS
 10
136.0011395967
 20
172.2981048178
 11
136.0011395967
 21
170.4112732976
  0
LINE
  5
22F
100
AcDbEntity
  8
0
100
AcDbLine
 62
7
  6
CONTINUOUS
 10
158.6995754535
 20
169.4374248178
 11
158.9591113202
 21
169.4982903478
  0
LINE
  5
230
100
AcDbEntity
  8
0
100
AcDbLine
 62
7
  6
CONTINUOUS
 10
153.9760153722
 20
169.4374248178
 11
154.235551536
 21
169.4982903478
  0
LINE
  5
231
100
AcDbEntity
  8
0
100
AcDbLine
 62
7
  6
CONTINUOUS
 10
136.6567121536
 20
169.4982903478
 11
136.9546995399
 21
169.4374248178
  0
LINE
  5
232
100
AcDbEntity
  8
0
100
AcDbLine
 62
7
  6
CONTINUOUS
 10
136.9546995399
 20
169.8026180084
 11
136.7163097672
 21
169.8634835331
  0
LINE
  5
233
100
AcDbEntity
  8
0
100
AcDbLine
 62
7
  6
CONTINUOUS
 10
136.4183220399
 20
169.6200214131
 11
136.6567121536
 21
169.4982903478
  0
LINE
  5
234
100
AcDbEntity
  8
0
100
AcDbLine
 62
7
  6
CONTINUOUS
 10
136.7163097672
 20
169.8634835331
 11
136.5375172672
 21
169.985214625
  0
LINE
  5
235
100
AcDbEntity
  8
0
100
AcDbLine
 62
7
  6
CONTINUOUS
 10
135.2263721536
 20
172.0546427192
 11
134.9879822104
 21
172.2372392932
  0
LINE
  5
236
100
AcDbEntity
  8
0
100
AcDbLine
 62
7
  6
CONTINUOUS
 10
134.9283845967
 20
171.9329116699
 11
135.0475796536
 21
171.8111806205
  0
LINE
  5
237
100
AcDbEntity
  8
0
100
AcDbLine
 62
7
  6
CONTINUOUS
 10
135.4051646536
 20
171.8111806205
 11
135.2263721536
 21
172.0546427192
  0
LINE
  5
238
100
AcDbEntity
  8
0
100
AcDbLine
 62
7
  6
CONTINUOUS
 10
136.5375172672
 20
169.985214625
 11
136.4183220399
 21
170.167811199
  0
LINE
  5
239
100
AcDbEntity
  8
0
100
AcDbLine
 62
7
  6
CONTINUOUS
 10
136.0607372104
 20
170.1069456743
 11
136.1799322672
 21
169.8634835331
  0
LINE
  5
23A
100
AcDbEntity
  8
0
100
AcDbLine
 62
7
  6
CONTINUOUS
 10
135.0475796536
 20
171.8111806205
 11
135.1071770967
 21
171.6285840466
  0
LINE
  5
23B
100
AcDbEntity
  8
0
100
AcDbLine
 62
7
  6
CONTINUOUS
 10
135.4647620967
 20
171.6285840466
 11
135.4051646536
 21
171.8111806205
  0
LINE
  5
23C
100
AcDbEntity
  8
0
100
AcDbLine
 62
7
  6
CONTINUOUS
 10
136.4183220399
 20
170.167811199
 11
136.3587247672
 21
170.4112732976
  0
LINE
  5
23D
100
AcDbEntity
  8
0
100
AcDbLine
 62
7
  6
CONTINUOUS
 10
136.0011395967
 20
170.4112732976
 11
136.0607372104
 21
170.1069456743
  0
LINE
  5
23E
100
AcDbEntity
  8
0
100
AcDbLine
 62
7
  6
CONTINUOUS
 10
136.3587247672
 20
170.4112732976
 11
136.3587247672
 21
172.2981048178
  0
LINE
  5
23F
100
AcDbEntity
  8
KONSTRUKTIONSELEMENTE
100
AcDbLine
 62
7
  6
CONTINUOUS
 10
137.3522893434
 20
157.6111606815
 11
137.3522893434
 21
158.9701606815
  0
LINE
  5
240
100
AcDbEntity
  8
0
100
AcDbLine
 62
7
  6
CONTINUOUS
 10
137.7890647672
 20
172.2981048178
 11
137.7890647672
 21
170.4112732976
  0
LINE
  5
241
100
AcDbEntity
  8
0
100
AcDbLine
 62
7
  6
CONTINUOUS
 10
138.1466497672
 20
170.4112732976
 11
138.1466497672
 21
172.2981048178
  0
LINE
  5
242
100
AcDbEntity
  8
0
100
AcDbLine
 62
7
  6
CONTINUOUS
 10
135.1071770967
 20
171.4459873021
 11
135.0475796536
 21
171.2633907281
  0
LINE
  5
243
100
AcDbEntity
  8
0
100
AcDbLine
 62
7
  6
CONTINUOUS
 10
135.4051646536
 20
171.2025252034
 11
135.4647620967
 21
171.3851217774
  0
LINE
  5
244
100
AcDbEntity
  8
0
100
AcDbLine
 62
7
  6
CONTINUOUS
 10
158.4400389927
 20
171.2633907281
 11
158.1805025319
 21
171.2025252034
  0
LINE
  5
245
100
AcDbEntity
  8
0
100
AcDbLine
 62
7
  6
CONTINUOUS
 10
158.4400389927
 20
172.2981048178
 11
158.1805025319
 21
172.2372392932
  0
LINE
  5
246
100
AcDbEntity
  8
0
100
AcDbLine
 62
7
  6
CONTINUOUS
 10
153.5088500992
 20
172.2981048178
 11
153.2493136385
 21
172.2372392932
  0
LINE
  5
247
100
AcDbEntity
  8
0
100
AcDbLine
 62
7
  6
CONTINUOUS
 10
133.2596546536
 20
169.4374248178
 11
133.6172396536
 21
169.4374248178
  0
LINE
  5
248
100
AcDbEntity
  8
0
100
AcDbLine
 62
7
  6
CONTINUOUS
 10
135.1071770967
 20
169.4374248178
 11
135.5243597104
 21
169.4374248178
  0
LINE
  5
249
100
AcDbEntity
  8
0
100
AcDbLine
 62
7
  6
CONTINUOUS
 10
136.9546995399
 20
169.4374248178
 11
137.1930896536
 21
169.4374248178
  0
LINE
  5
24A
100
AcDbEntity
  8
0
100
AcDbLine
 62
7
  6
CONTINUOUS
 10
138.6234296536
 20
169.4374248178
 11
140.0537696536
 21
169.4374248178
  0
LINE
  5
24B
100
AcDbEntity
  8
0
100
AcDbLine
 62
7
  6
CONTINUOUS
 10
149.5638988062
 20
169.4374248178
 11
149.8753423216
 21
169.4374248178
  0
LINE
  5
24C
100
AcDbEntity
  8
0
100
AcDbLine
 62
7
  6
CONTINUOUS
 10
150.2906003172
 20
169.4374248178
 11
150.6020438325
 21
169.4374248178
  0
LINE
  5
24D
100
AcDbEntity
  8
0
100
AcDbLine
 62
7
  6
CONTINUOUS
 10
151.8997251711
 20
169.4374248178
 11
152.263076038
 21
169.4374248178
  0
LINE
  5
24E
100
AcDbEntity
  8
0
100
AcDbLine
 62
7
  6
CONTINUOUS
 10
153.5088500992
 20
169.4374248178
 11
153.9760153722
 21
169.4374248178
  0
LINE
  5
24F
100
AcDbEntity
  8
0
100
AcDbLine
 62
7
  6
CONTINUOUS
 10
158.4400389927
 20
169.4374248178
 11
158.6995754535
 21
169.4374248178
  0
LINE
  5
250
100
AcDbEntity
  8
0
100
AcDbLine
 62
7
  6
CONTINUOUS
 10
158.751482508
 20
169.7417524837
 11
158.3881319382
 21
169.7417524837
  0
LINE
  5
251
100
AcDbEntity
  8
0
100
AcDbLine
 62
7
  6
CONTINUOUS
 10
153.9760153722
 20
169.8026180084
 11
153.5088500992
 21
169.8026180084
  0
LINE
  5
252
100
AcDbEntity
  8
0
100
AcDbLine
 62
7
  6
CONTINUOUS
 10
140.0537696536
 20
169.8026180084
 11
138.9810146536
 21
169.8026180084
  0
LINE
  5
253
100
AcDbEntity
  8
0
100
AcDbLine
 62
7
  6
CONTINUOUS
 10
137.1930896536
 20
169.8026180084
 11
136.9546995399
 21
169.8026180084
  0
LINE
  5
254
100
AcDbEntity
  8
0
100
AcDbLine
 62
7
  6
CONTINUOUS
 10
153.9241080206
 20
170.6547354815
 11
154.3912732936
 21
170.6547354815
  0
LINE
  5
255
100
AcDbEntity
  8
0
100
AcDbLine
 62
7
  6
CONTINUOUS
 10
133.6172396536
 20
170.7156010062
 11
134.6303971252
 21
170.7156010062
  0
LINE
  5
256
100
AcDbEntity
  8
0
100
AcDbLine
 62
7
  6
CONTINUOUS
 10
150.6020438325
 20
170.7156010062
 11
151.4844671012
 21
170.7156010062
  0
LINE
  5
257
100
AcDbEntity
  8
0
100
AcDbLine
 62
7
  6
CONTINUOUS
 10
134.9879822104
 20
172.2372392932
 11
134.6899946536
 21
172.2981048178
  0
LINE
  5
258
100
AcDbEntity
  8
0
100
AcDbLine
 62
7
  6
CONTINUOUS
 10
140.0537696536
 20
171.9329116699
 11
140.2921594262
 21
171.8720461452
  0
LINE
  5
259
100
AcDbEntity
  8
0
100
AcDbLine
 62
7
  6
CONTINUOUS
 10
134.7495920967
 20
171.9937771945
 11
134.9283845967
 21
171.9329116699
  0
LINE
  5
25A
100
AcDbEntity
  8
0
100
AcDbLine
 62
7
  6
CONTINUOUS
 10
140.5901471536
 20
172.1155082438
 11
140.3517573809
 21
172.2372392932
  0
LINE
  5
25B
100
AcDbEntity
  8
0
100
AcDbLine
 62
7
  6
CONTINUOUS
 10
140.2921594262
 20
171.8720461452
 11
140.4709519262
 21
171.7503150959
  0
LINE
  5
25C
100
AcDbEntity
  8
0
100
AcDbLine
 62
7
  6
CONTINUOUS
 10
140.8285369262
 20
171.8720461452
 11
140.5901471536
 21
172.1155082438
  0
LINE
  5
25D
100
AcDbEntity
  8
0
100
AcDbLine
 62
7
  6
CONTINUOUS
 10
140.4709519262
 20
171.7503150959
 11
140.5901471536
 21
171.5677183514
  0
LINE
  5
25E
100
AcDbEntity
  8
0
100
AcDbLine
 62
7
  6
CONTINUOUS
 10
140.9477321536
 20
171.6285840466
 11
140.8285369262
 21
171.8720461452
  0
LINE
  5
25F
100
AcDbEntity
  8
0
100
AcDbLine
 62
7
  6
CONTINUOUS
 10
138.6234296536
 20
172.2981048178
 11
138.6234296536
 21
169.4374248178
  0
LINE
  5
260
100
AcDbEntity
  8
0
100
AcDbLine
 62
7
  6
CONTINUOUS
 10
138.9810146536
 20
169.8026180084
 11
138.9810146536
 21
171.9329116699
  0
LINE
  5
261
100
AcDbEntity
  8
0
100
AcDbLine
 62
7
  6
CONTINUOUS
 10
140.6497444262
 20
171.3242562528
 11
140.6497444262
 21
170.4112732976
  0
LINE
  5
262
100
AcDbEntity
  8
0
100
AcDbLine
 62
7
  6
CONTINUOUS
 10
141.0073294262
 20
170.4112732976
 11
141.0073294262
 21
171.3242562528
  0
LINE
  5
263
100
AcDbEntity
  8
0
100
AcDbLine
 62
7
  6
CONTINUOUS
 10
138.0870521536
 20
170.1069456743
 11
138.1466497672
 21
170.4112732976
  0
LINE
  5
264
100
AcDbEntity
  8
0
100
AcDbLine
 62
7
  6
CONTINUOUS
 10
137.7890647672
 20
170.4112732976
 11
137.7294671536
 21
170.167811199
  0
LINE
  5
265
100
AcDbEntity
  8
0
100
AcDbLine
 62
7
  6
CONTINUOUS
 10
140.2921594262
 20
169.8634835331
 11
140.0537696536
 21
169.8026180084
  0
LINE
  5
266
100
AcDbEntity
  8
0
100
AcDbLine
 62
7
  6
CONTINUOUS
 10
137.4314797672
 20
169.8634835331
 11
137.1930896536
 21
169.8026180084
  0
LINE
  5
267
100
AcDbEntity
  8
0
100
AcDbLine
 62
7
  6
CONTINUOUS
 10
140.0537696536
 20
169.4374248178
 11
140.3517573809
 21
169.4982903478
  0
LINE
  5
268
100
AcDbEntity
  8
0
100
AcDbLine
 62
7
  6
CONTINUOUS
 10
137.1930896536
 20
169.4374248178
 11
137.4910770399
 21
169.4982903478
  0
LINE
  5
269
100
AcDbEntity
  8
0
100
AcDbLine
 62
7
  6
CONTINUOUS
 10
158.3881319382
 20
170.9590631048
 11
158.751482508
 21
170.9590631048
  0
LINE
  5
26A
100
AcDbEntity
  8
0
100
AcDbLine
 62
7
  6
CONTINUOUS
 10
154.7027168089
 20
171.0199286295
 11
153.9241080206
 21
171.0199286295
  0
LINE
  5
26B
100
AcDbEntity
  8
0
100
AcDbLine
 62
7
  6
CONTINUOUS
 10
151.5882816558
 20
171.0807941541
 11
150.6020438325
 21
171.0807941541
  0
LINE
  5
26C
100
AcDbEntity
  8
0
100
AcDbLine
 62
7
  6
CONTINUOUS
 10
134.7495920967
 20
171.0807941541
 11
133.6172396536
 21
171.0807941541
  0
LINE
  5
26D
100
AcDbEntity
  8
0
100
AcDbLine
 62
7
  6
CONTINUOUS
 10
158.6995754535
 20
171.2633907281
 11
158.4400389927
 21
171.2633907281
  0
LINE
  5
26E
100
AcDbEntity
  8
0
100
AcDbLine
 62
7
  6
CONTINUOUS
 10
154.3912732936
 20
171.5677183514
 11
154.7027168089
 21
171.5677183514
  0
LINE
  5
26F
100
AcDbEntity
  8
0
100
AcDbLine
 62
7
  6
CONTINUOUS
 10
159.1148330779
 20
171.6285840466
 11
159.3743695386
 21
171.6285840466
  0
LINE
  5
270
100
AcDbEntity
  8
0
100
AcDbLine
 62
7
  6
CONTINUOUS
 10
138.9810146536
 20
171.9329116699
 11
140.0537696536
 21
171.9329116699
  0
LINE
  5
271
100
AcDbEntity
  8
0
100
AcDbLine
 62
7
  6
CONTINUOUS
 10
153.5088500992
 20
171.9329116699
 11
153.9760153722
 21
171.9329116699
  0
LINE
  5
272
100
AcDbEntity
  8
0
100
AcDbLine
 62
7
  6
CONTINUOUS
 10
133.6172396536
 20
171.9937771945
 11
134.7495920967
 21
171.9937771945
  0
LINE
  5
273
100
AcDbEntity
  8
0
100
AcDbLine
 62
7
  6
CONTINUOUS
 10
150.6020438325
 20
171.9937771945
 11
151.5882816558
 21
171.9937771945
  0
LINE
  5
274
100
AcDbEntity
  8
0
100
AcDbLine
 62
7
  6
CONTINUOUS
 10
158.3881319382
 20
171.9937771945
 11
158.6995754535
 21
171.9937771945
  0
LINE
  5
275
100
AcDbEntity
  8
0
100
AcDbLine
 62
7
  6
CONTINUOUS
 10
158.6476678049
 20
172.2981048178
 11
158.4400389927
 21
172.2981048178
  0
LINE
  5
276
100
AcDbEntity
  8
0
100
AcDbLine
 62
7
  6
CONTINUOUS
 10
153.9760153722
 20
172.2981048178
 11
153.5088500992
 21
172.2981048178
  0
LINE
  5
277
100
AcDbEntity
  8
0
100
AcDbLine
 62
7
  6
CONTINUOUS
 10
151.5363744527
 20
172.2981048178
 11
150.2906003172
 21
172.2981048178
  0
LINE
  5
278
100
AcDbEntity
  8
0
100
AcDbLine
 62
7
  6
CONTINUOUS
 10
149.8753423216
 20
172.2981048178
 11
149.5638988062
 21
172.2981048178
  0
LINE
  5
279
100
AcDbEntity
  8
0
100
AcDbLine
 62
7
  6
CONTINUOUS
 10
140.0537696536
 20
172.2981048178
 11
138.6234296536
 21
172.2981048178
  0
LINE
  5
27A
100
AcDbEntity
  8
0
100
AcDbLine
 62
7
  6
CONTINUOUS
 10
138.1466497672
 20
172.2981048178
 11
137.7890647672
 21
172.2981048178
  0
LINE
  5
27B
100
AcDbEntity
  8
0
100
AcDbLine
 62
7
  6
CONTINUOUS
 10
136.3587247672
 20
172.2981048178
 11
136.0011395967
 21
172.2981048178
  0
LINE
  5
27C
100
AcDbEntity
  8
0
100
AcDbLine
 62
7
  6
CONTINUOUS
 10
134.6899946536
 20
172.2981048178
 11
133.2596546536
 21
172.2981048178
  0
LINE
  5
27D
100
AcDbEntity
  8
0
100
AcDbLine
 62
7
  6
CONTINUOUS
 10
140.3517573809
 20
172.2372392932
 11
140.0537696536
 21
172.2981048178
  0
LINE
  5
27E
100
AcDbEntity
  8
0
100
AcDbLine
 62
7
  6
CONTINUOUS
 10
153.2493136385
 20
169.4982903478
 11
153.5088500992
 21
169.4374248178
  0
LINE
  5
27F
100
AcDbEntity
  8
0
100
AcDbLine
 62
7
  6
CONTINUOUS
 10
158.1805025319
 20
169.4982903478
 11
158.4400389927
 21
169.4374248178
  0
LINE
  5
280
100
AcDbEntity
  8
0
100
AcDbLine
 62
7
  6
CONTINUOUS
 10
153.5088500992
 20
169.8026180084
 11
153.30122099
 21
169.8634835331
  0
LINE
  5
281
100
AcDbEntity
  8
0
100
AcDbLine
 62
7
  6
CONTINUOUS
 10
140.5901471536
 20
171.5677183514
 11
140.6497444262
 21
171.3242562528
  0
LINE
  5
282
100
AcDbEntity
  8
0
100
AcDbLine
 62
7
  6
CONTINUOUS
 10
141.0073294262
 20
171.3242562528
 11
140.9477321536
 21
171.6285840466
  0
LINE
  5
283
100
AcDbEntity
  8
0
100
AcDbLine
 62
7
  6
CONTINUOUS
 10
142.2834348062
 20
157.6111606815
 11
142.2834348062
 21
149.5918059058
  0
LINE
  5
284
100
AcDbEntity
  8
KONSTRUKTIONSELEMENTE
100
AcDbLine
 62
7
  6
CONTINUOUS
 10
142.2834348062
 20
157.6111606815
 11
142.2834348062
 21
166.3201606815
  0
LINE
  5
285
100
AcDbEntity
  8
0
100
AcDbLine
 62
7
  6
CONTINUOUS
 10
140.9477321536
 20
170.1069456743
 11
141.0073294262
 21
170.4112732976
  0
LINE
  5
286
100
AcDbEntity
  8
0
100
AcDbLine
 62
7
  6
CONTINUOUS
 10
140.6497444262
 20
170.4112732976
 11
140.5901471536
 21
170.167811199
  0
LINE
  5
287
100
AcDbEntity
  8
0
100
AcDbLine
 62
7
  6
CONTINUOUS
 10
137.9678572672
 20
169.8634835331
 11
138.0870521536
 21
170.1069456743
  0
LINE
  5
288
100
AcDbEntity
  8
0
100
AcDbLine
 62
7
  6
CONTINUOUS
 10
137.7294671536
 20
170.167811199
 11
137.6102722672
 21
169.985214625
  0
LINE
  5
289
100
AcDbEntity
  8
0
100
AcDbLine
 62
7
  6
CONTINUOUS
 10
135.2263721536
 20
170.9590631048
 11
135.4051646536
 21
171.2025252034
  0
LINE
  5
28A
100
AcDbEntity
  8
0
100
AcDbLine
 62
7
  6
CONTINUOUS
 10
135.0475796536
 20
171.2633907281
 11
134.9283845967
 21
171.1416596788
  0
LINE
  5
28B
100
AcDbEntity
  8
RUNDUNGEN
100
AcDbLine
 62
7
  6
CONTINUOUS
 10
134.7421033741
 20
175.8485878063
 11
133.7334348062
 21
175.8485878063
  0
LINE
  5
28C
100
AcDbEntity
  8
RUNDUNGEN
100
AcDbLine
 62
7
  6
CONTINUOUS
 10
157.2247662384
 20
175.8485878063
 11
158.2337644785
 21
175.8485878063
  0
LINE
  5
28D
100
AcDbEntity
  8
0
100
AcDbLine
 62
7
  6
CONTINUOUS
 10
151.7959106165
 20
172.2372392932
 11
151.5363744527
 21
172.2981048178
  0
LINE
  5
28E
100
AcDbEntity
  8
0
100
AcDbLine
 62
7
  6
CONTINUOUS
 10
154.235551536
 20
172.2372392932
 11
153.9760153722
 21
172.2981048178
  0
LINE
  5
28F
100
AcDbEntity
  8
0
100
AcDbLine
 62
7
  6
CONTINUOUS
 10
158.9591113202
 20
171.2025252034
 11
158.6995754535
 21
171.2633907281
  0
LINE
  5
290
100
AcDbEntity
  8
0
100
AcDbLine
 62
7
  6
CONTINUOUS
 10
158.9072042657
 20
172.2372392932
 11
158.6476678049
 21
172.2981048178
  0
LINE
  5
291
100
AcDbEntity
  8
0
100
AcDbLine
 62
7
  6
CONTINUOUS
 10
153.9760153722
 20
171.9329116699
 11
154.1836441844
 21
171.8720461452
  0
LINE
  5
292
100
AcDbEntity
  8
0
100
AcDbLine
 62
7
  6
CONTINUOUS
 10
151.5882816558
 20
171.9937771945
 11
151.7440034134
 21
171.9329116699
  0
LINE
  5
293
100
AcDbEntity
  8
0
100
AcDbLine
 62
7
  6
CONTINUOUS
 10
158.3881319382
 20
169.7417524837
 11
158.2324101805
 21
169.8026180084
  0
LINE
  5
294
100
AcDbEntity
  8
0
100
AcDbLine
 62
7
  6
CONTINUOUS
 10
153.0416848263
 20
169.6200214131
 11
153.2493136385
 21
169.4982903478
  0
LINE
  5
295
100
AcDbEntity
  8
BEZUGSACHSEN
100
AcDbLine
 62
2
  6
CENTER
 10
145.9834348062
 20
186.5201606815
 11
145.9834348062
 21
149.7668837515
  0
LINE
  5
296
100
AcDbEntity
  8
BEZUGSACHSEN
100
AcDbLine
 62
2
  6
CENTER
 10
145.9834348062
 20
186.5201606815
 11
145.9834348062
 21
212.2962366505
  0
LINE
  5
297
100
AcDbEntity
  8
0
100
AcDbLine
 62
7
  6
CONTINUOUS
 10
140.8285369262
 20
169.8634835331
 11
140.9477321536
 21
170.1069456743
  0
LINE
  5
298
100
AcDbEntity
  8
0
100
AcDbLine
 62
7
  6
CONTINUOUS
 10
140.5901471536
 20
170.167811199
 11
140.4709519262
 21
169.985214625
  0
LINE
  5
299
100
AcDbEntity
  8
0
100
AcDbLine
 62
7
  6
CONTINUOUS
 10
137.7294671536
 20
169.6200214131
 11
137.9678572672
 21
169.8634835331
  0
LINE
  5
29A
100
AcDbEntity
  8
RUNDUNGEN
100
AcDbLine
 62
7
  6
CONTINUOUS
 10
139.2011048231
 20
176.0201606815
 11
152.7657647894
 21
176.0201606815
  0
LINE
  5
29B
100
AcDbEntity
  8
0
100
AcDbLine
 62
7
  6
CONTINUOUS
 10
158.751482508
 20
170.9590631048
 11
158.9072042657
 21
170.8981975801
  0
LINE
  5
29C
100
AcDbEntity
  8
0
100
AcDbLine
 62
7
  6
CONTINUOUS
 10
158.6995754535
 20
171.9937771945
 11
158.8552972111
 21
171.9329116699
  0
LINE
  5
29D
100
AcDbEntity
  8
0
100
AcDbLine
 62
7
  6
CONTINUOUS
 10
154.4431806452
 20
172.1155082438
 11
154.235551536
 21
172.2372392932
  0
LINE
  5
29E
100
AcDbEntity
  8
0
100
AcDbLine
 62
7
  6
CONTINUOUS
 10
157.9209666652
 20
169.6808869378
 11
158.1805025319
 21
169.4982903478
  0
LINE
  5
29F
100
AcDbEntity
  8
0
100
AcDbLine
 62
7
  6
CONTINUOUS
 10
153.30122099
 20
169.8634835331
 11
153.1454992324
 21
169.985214625
  0
LINE
  5
2A0
100
AcDbEntity
  8
0
100
AcDbLine
 62
7
  6
CONTINUOUS
 10
154.1836441844
 20
171.8720461452
 11
154.3393659421
 21
171.7503150959
  0
LINE
  5
2A1
100
AcDbEntity
  8
0
100
AcDbLine
 62
7
  6
CONTINUOUS
 10
152.0035397257
 20
172.0546427192
 11
151.7959106165
 21
172.2372392932
  0
LINE
  5
2A2
100
AcDbEntity
  8
0
100
AcDbLine
 62
7
  6
CONTINUOUS
 10
152.834055717
 20
169.8634835331
 11
153.0416848263
 21
169.6200214131
  0
LINE
  5
2A3
100
AcDbEntity
  8
0
100
AcDbLine
 62
7
  6
CONTINUOUS
 10
151.7440034134
 20
171.9329116699
 11
151.8478179681
 21
171.8111806205
  0
LINE
  5
2A4
100
AcDbEntity
  8
0
100
AcDbLine
 62
7
  6
CONTINUOUS
 10
140.5901471536
 20
169.6200214131
 11
140.8285369262
 21
169.8634835331
  0
LINE
  5
2A5
100
AcDbEntity
  8
0
100
AcDbLine
 62
7
  6
CONTINUOUS
 10
137.6102722672
 20
169.985214625
 11
137.4314797672
 21
169.8634835331
  0
LINE
  5
2A6
100
AcDbEntity
  8
0
100
AcDbLine
 62
7
  6
CONTINUOUS
 10
134.9879822104
 20
170.8373320555
 11
135.2263721536
 21
170.9590631048
  0
LINE
  5
2A7
100
AcDbEntity
  8
0
100
AcDbLine
 62
7
  6
CONTINUOUS
 10
159.218647781
 20
171.0199286295
 11
158.9591113202
 21
171.2025252034
  0
LINE
  5
2A8
100
AcDbEntity
  8
0
100
AcDbLine
 62
7
  6
CONTINUOUS
 10
159.1667407264
 20
172.0546427192
 11
158.9072042657
 21
172.2372392932
  0
LINE
  5
2A9
100
AcDbEntity
  8
0
100
AcDbLine
 62
7
  6
CONTINUOUS
 10
158.2324101805
 20
169.8026180084
 11
158.0766884228
 21
169.9243490577
  0
LINE
  5
2AA
100
AcDbEntity
  8
0
100
AcDbLine
 62
7
  6
CONTINUOUS
 10
158.9072042657
 20
170.8981975801
 11
159.0629260233
 21
170.7764665308
  0
LINE
  5
2AB
100
AcDbEntity
  8
0
100
AcDbLine
 62
7
  6
CONTINUOUS
 10
154.6508097544
 20
171.8720461452
 11
154.4431806452
 21
172.1155082438
  0
LINE
  5
2AC
100
AcDbEntity
  8
0
100
AcDbLine
 62
7
  6
CONTINUOUS
 10
152.1592613349
 20
171.8111806205
 11
152.0035397257
 21
172.0546427192
  0
LINE
  5
2AD
100
AcDbEntity
  8
0
100
AcDbLine
 62
7
  6
CONTINUOUS
 10
153.1454992324
 20
169.985214625
 11
153.0416848263
 21
170.167811199
  0
LINE
  5
2AE
100
AcDbEntity
  8
0
100
AcDbLine
 62
7
  6
CONTINUOUS
 10
149.5638988062
 20
172.2981048178
 11
149.5638988062
 21
169.4374248178
  0
LINE
  5
2AF
100
AcDbEntity
  8
0
100
AcDbLine
 62
7
  6
CONTINUOUS
 10
149.6834348062
 20
149.5918059058
 11
149.6834348062
 21
157.6111606815
  0
LINE
  5
2B0
100
AcDbEntity
  8
KONSTRUKTIONSELEMENTE
100
AcDbLine
 62
7
  6
CONTINUOUS
 10
149.6834348062
 20
157.6111606815
 11
149.6834348062
 21
166.3201606815
  0
LINE
  5
2B1
100
AcDbEntity
  8
0
100
AcDbLine
 62
7
  6
CONTINUOUS
 10
149.8753423216
 20
169.4374248178
 11
149.8753423216
 21
172.2981048178
  0
LINE
  5
2B2
100
AcDbEntity
  8
0
100
AcDbLine
 62
7
  6
CONTINUOUS
 10
150.2906003172
 20
172.2981048178
 11
150.2906003172
 21
169.4374248178
  0
LINE
  5
2B3
100
AcDbEntity
  8
0
100
AcDbLine
 62
7
  6
CONTINUOUS
 10
150.6020438325
 20
169.4374248178
 11
150.6020438325
 21
170.7156010062
  0
LINE
  5
2B4
100
AcDbEntity
  8
0
100
AcDbLine
 62
7
  6
CONTINUOUS
 10
150.6020438325
 20
171.0807941541
 11
150.6020438325
 21
171.9937771945
  0
LINE
  5
2B5
100
AcDbEntity
  8
0
100
AcDbLine
 62
7
  6
CONTINUOUS
 10
140.4709519262
 20
169.985214625
 11
140.2921594262
 21
169.8634835331
  0
LINE
  5
2B6
100
AcDbEntity
  8
0
100
AcDbLine
 62
7
  6
CONTINUOUS
 10
137.4910770399
 20
169.4982903478
 11
137.7294671536
 21
169.6200214131
  0
LINE
  5
2B7
100
AcDbEntity
  8
0
100
AcDbLine
 62
7
  6
CONTINUOUS
 10
140.3517573809
 20
169.4982903478
 11
140.5901471536
 21
169.6200214131
  0
LINE
  5
2B8
100
AcDbEntity
  8
0
100
AcDbLine
 62
7
  6
CONTINUOUS
 10
134.9283845967
 20
171.1416596788
 11
134.7495920967
 21
171.0807941541
  0
LINE
  5
2B9
100
AcDbEntity
  8
0
100
AcDbLine
 62
7
  6
CONTINUOUS
 10
158.8552972111
 20
171.9329116699
 11
159.0110189688
 21
171.8111806205
  0
LINE
  5
2BA
100
AcDbEntity
  8
0
100
AcDbLine
 62
7
  6
CONTINUOUS
 10
159.0629260233
 20
170.7764665308
 11
159.1667407264
 21
170.6547354815
  0
LINE
  5
2BB
100
AcDbEntity
  8
0
100
AcDbLine
 62
7
  6
CONTINUOUS
 10
159.3743695386
 20
170.8373320555
 11
159.218647781
 21
171.0199286295
  0
LINE
  5
2BC
100
AcDbEntity
  8
0
100
AcDbLine
 62
7
  6
CONTINUOUS
 10
157.7652449075
 20
169.9243490577
 11
157.9209666652
 21
169.6808869378
  0
LINE
  5
2BD
100
AcDbEntity
  8
0
100
AcDbLine
 62
7
  6
CONTINUOUS
 10
152.7302413109
 20
170.1069456743
 11
152.834055717
 21
169.8634835331
  0
LINE
  5
2BE
100
AcDbEntity
  8
0
100
AcDbLine
 62
7
  6
CONTINUOUS
 10
152.263076038
 20
169.4374248178
 11
151.7959106165
 21
170.8373320555
  0
LINE
  5
2BF
100
AcDbEntity
  8
0
100
AcDbLine
 62
7
  6
CONTINUOUS
 10
151.4844671012
 20
170.7156010062
 11
151.8997251711
 21
169.4374248178
  0
LINE
  5
2C0
100
AcDbEntity
  8
0
100
AcDbLine
 62
7
  6
CONTINUOUS
 10
151.8478179681
 20
171.8111806205
 11
151.8997251711
 21
171.6285840466
  0
LINE
  5
2C1
100
AcDbEntity
  8
0
100
AcDbLine
 62
7
  6
CONTINUOUS
 10
152.2111686864
 20
171.6285840466
 11
152.1592613349
 21
171.8111806205
  0
LINE
  5
2C2
100
AcDbEntity
  8
0
100
AcDbLine
 62
7
  6
CONTINUOUS
 10
153.0416848263
 20
170.167811199
 11
152.9897774747
 21
170.4112732976
  0
LINE
  5
2C3
100
AcDbEntity
  8
0
100
AcDbLine
 62
7
  6
CONTINUOUS
 10
152.6783339594
 20
170.4112732976
 11
152.7302413109
 21
170.1069456743
  0
LINE
  5
2C4
100
AcDbEntity
  8
0
100
AcDbLine
 62
7
  6
CONTINUOUS
 10
151.8997251711
 20
171.6285840466
 11
151.8997251711
 21
171.4459873021
  0
LINE
  5
2C5
100
AcDbEntity
  8
0
100
AcDbLine
 62
7
  6
CONTINUOUS
 10
152.2111686864
 20
171.3851217774
 11
152.2111686864
 21
171.6285840466
  0
LINE
  5
2C6
100
AcDbEntity
  8
0
100
AcDbLine
 62
7
  6
CONTINUOUS
 10
152.6783339594
 20
171.3242562528
 11
152.6783339594
 21
170.4112732976
  0
LINE
  5
2C7
100
AcDbEntity
  8
0
100
AcDbLine
 62
7
  6
CONTINUOUS
 10
152.9897774747
 20
170.4112732976
 11
152.9897774747
 21
171.3242562528
  0
LINE
  5
2C8
100
AcDbEntity
  8
0
100
AcDbLine
 62
7
  6
CONTINUOUS
 10
153.9241080206
 20
171.0199286295
 11
153.9241080206
 21
170.6547354815
  0
LINE
  5
2C9
100
AcDbEntity
  8
0
100
AcDbLine
 62
7
  6
CONTINUOUS
 10
152.7302413109
 20
171.6285840466
 11
152.6783339594
 21
171.3242562528
  0
LINE
  5
2CA
100
AcDbEntity
  8
0
100
AcDbLine
 62
7
  6
CONTINUOUS
 10
151.8997251711
 20
171.4459873021
 11
151.8478179681
 21
171.2633907281
  0
LINE
  5
2CB
100
AcDbEntity
  8
0
100
AcDbLine
 62
7
  6
CONTINUOUS
 10
152.1592613349
 20
171.2025252034
 11
152.2111686864
 21
171.3851217774
  0
LINE
  5
2CC
100
AcDbEntity
  8
0
100
AcDbLine
 62
7
  6
CONTINUOUS
 10
159.3224624841
 20
171.8111806205
 11
159.1667407264
 21
172.0546427192
  0
LINE
  5
2CD
100
AcDbEntity
  8
0
100
AcDbLine
 62
7
  6
CONTINUOUS
 10
158.0766884228
 20
169.9243490577
 11
157.9728737197
 21
170.1069456743
  0
LINE
  5
2CE
100
AcDbEntity
  8
0
100
AcDbLine
 62
7
  6
CONTINUOUS
 10
154.3393659421
 20
171.7503150959
 11
154.3912732936
 21
171.5677183514
  0
LINE
  5
2CF
100
AcDbEntity
  8
0
100
AcDbLine
 62
7
  6
CONTINUOUS
 10
154.7027168089
 20
171.5677183514
 11
154.6508097544
 21
171.8720461452
  0
LINE
  5
2D0
100
AcDbEntity
  8
0
100
AcDbLine
 62
7
  6
CONTINUOUS
 10
154.3912732936
 20
170.6547354815
 11
154.3912732936
 21
170.167811199
  0
LINE
  5
2D1
100
AcDbEntity
  8
KONSTRUKTIONSELEMENTE
100
AcDbLine
 62
7
  6
CONTINUOUS
 10
154.614580269
 20
157.6111606815
 11
154.614580269
 21
158.9701606815
  0
LINE
  5
2D2
100
AcDbEntity
  8
0
100
AcDbLine
 62
7
  6
CONTINUOUS
 10
154.7027168089
 20
170.1069456743
 11
154.7027168089
 21
171.0199286295
  0
LINE
  5
2D3
100
AcDbEntity
  8
0
100
AcDbLine
 62
7
  6
CONTINUOUS
 10
152.9897774747
 20
171.3242562528
 11
153.0416848263
 21
171.5677183514
  0
LINE
  5
2D4
100
AcDbEntity
  8
0
100
AcDbLine
 62
7
  6
CONTINUOUS
 10
154.6508097544
 20
169.8634835331
 11
154.7027168089
 21
170.1069456743
  0
LINE
  5
2D5
100
AcDbEntity
  8
0
100
AcDbLine
 62
7
  6
CONTINUOUS
 10
154.3912732936
 20
170.167811199
 11
154.3393659421
 21
169.985214625
  0
LINE
  5
2D6
100
AcDbEntity
  8
0
100
AcDbLine
 62
7
  6
CONTINUOUS
 10
152.834055717
 20
171.8720461452
 11
152.7302413109
 21
171.6285840466
  0
LINE
  5
2D7
100
AcDbEntity
  8
0
100
AcDbLine
 62
7
  6
CONTINUOUS
 10
153.0416848263
 20
171.5677183514
 11
153.1454992324
 21
171.7503150959
  0
LINE
  5
2D8
100
AcDbEntity
  8
0
100
AcDbLine
 62
7
  6
CONTINUOUS
 10
152.0035397257
 20
170.9590631048
 11
152.1592613349
 21
171.2025252034
  0
LINE
  5
2D9
100
AcDbEntity
  8
0
100
AcDbLine
 62
7
  6
CONTINUOUS
 10
151.8478179681
 20
171.2633907281
 11
151.7440034134
 21
171.1416596788
  0
LINE
  5
2DA
100
AcDbEntity
  8
0
100
AcDbLine
 62
7
  6
CONTINUOUS
 10
153.0416848263
 20
172.1155082438
 11
152.834055717
 21
171.8720461452
  0
LINE
  5
2DB
100
AcDbEntity
  8
0
100
AcDbLine
 62
7
  6
CONTINUOUS
 10
153.1454992324
 20
171.7503150959
 11
153.30122099
 21
171.8720461452
  0
LINE
  5
2DC
100
AcDbEntity
  8
0
100
AcDbLine
 62
7
  6
CONTINUOUS
 10
153.2493136385
 20
172.2372392932
 11
153.0416848263
 21
172.1155082438
  0
LINE
  5
2DD
100
AcDbEntity
  8
0
100
AcDbLine
 62
7
  6
CONTINUOUS
 10
151.7959106165
 20
170.8373320555
 11
152.0035397257
 21
170.9590631048
  0
LINE
  5
2DE
100
AcDbEntity
  8
0
100
AcDbLine
 62
7
  6
CONTINUOUS
 10
151.7440034134
 20
171.1416596788
 11
151.5882816558
 21
171.0807941541
  0
LINE
  5
2DF
100
AcDbEntity
  8
0
100
AcDbLine
 62
7
  6
CONTINUOUS
 10
158.2324101805
 20
171.9329116699
 11
158.3881319382
 21
171.9937771945
  0
LINE
  5
2E0
100
AcDbEntity
  8
0
100
AcDbLine
 62
7
  6
CONTINUOUS
 10
153.30122099
 20
171.8720461452
 11
153.5088500992
 21
171.9329116699
  0
LINE
  5
2E1
100
AcDbEntity
  8
0
100
AcDbLine
 62
7
  6
CONTINUOUS
 10
154.1836441844
 20
169.8634835331
 11
153.9760153722
 21
169.8026180084
  0
LINE
  5
2E2
100
AcDbEntity
  8
BEZUGSACHSEN
100
AcDbLine
 62
2
  6
CENTER
 10
145.9834348062
 20
186.5201606815
 11
120.2073588372
 21
186.5201606815
  0
LINE
  5
2E3
100
AcDbEntity
  8
BEZUGSACHSEN
100
AcDbLine
 62
2
  6
CENTER
 10
145.9834348062
 20
186.5201606815
 11
171.7595107753
 21
186.5201606815
  0
LINE
  5
2E4
100
AcDbEntity
  8
0
100
AcDbLine
 62
7
  6
CONTINUOUS
 10
159.0110189688
 20
171.8111806205
 11
159.1148330779
 21
171.6285840466
  0
LINE
  5
2E5
100
AcDbEntity
  8
0
100
AcDbLine
 62
7
  6
CONTINUOUS
 10
157.6614302044
 20
170.2286767236
 11
157.7652449075
 21
169.9243490577
  0
LINE
  5
2E6
100
AcDbEntity
  8
0
100
AcDbLine
 62
7
  6
CONTINUOUS
 10
159.4781842418
 20
170.5330044322
 11
159.3743695386
 21
170.8373320555
  0
LINE
  5
2E7
100
AcDbEntity
  8
0
100
AcDbLine
 62
7
  6
CONTINUOUS
 10
157.9728737197
 20
170.1069456743
 11
157.9209666652
 21
170.2895422483
  0
LINE
  5
2E8
100
AcDbEntity
  8
0
100
AcDbLine
 62
7
  6
CONTINUOUS
 10
159.1667407264
 20
170.6547354815
 11
159.218647781
 21
170.4721388223
  0
LINE
  5
2E9
100
AcDbEntity
  8
0
100
AcDbLine
 62
7
  6
CONTINUOUS
 10
157.6095231499
 20
171.0807941541
 11
157.6095231499
 21
170.6547354815
  0
LINE
  5
2EA
100
AcDbEntity
  8
0
100
AcDbLine
 62
7
  6
CONTINUOUS
 10
157.8690590166
 20
170.9590631048
 11
157.8690590166
 21
171.0807941541
  0
LINE
  5
2EB
100
AcDbEntity
  8
0
100
AcDbLine
 62
7
  6
CONTINUOUS
 10
157.9209666652
 20
170.2895422483
 11
157.9209666652
 21
170.4721388223
  0
LINE
  5
2EC
100
AcDbEntity
  8
0
100
AcDbLine
 62
7
  6
CONTINUOUS
 10
157.6614302044
 20
171.5068528267
 11
157.6095231499
 21
171.0807941541
  0
LINE
  5
2ED
100
AcDbEntity
  8
0
100
AcDbLine
 62
7
  6
CONTINUOUS
 10
157.8690590166
 20
171.0807941541
 11
157.9209666652
 21
171.4459873021
  0
LINE
  5
2EE
100
AcDbEntity
  8
0
100
AcDbLine
 62
7
  6
CONTINUOUS
 10
157.7652449075
 20
171.8111806205
 11
157.6614302044
 21
171.5068528267
  0
LINE
  5
2EF
100
AcDbEntity
  8
0
100
AcDbLine
 62
7
  6
CONTINUOUS
 10
154.4431806452
 20
169.6200214131
 11
154.6508097544
 21
169.8634835331
  0
LINE
  5
2F0
100
AcDbEntity
  8
0
100
AcDbLine
 62
7
  6
CONTINUOUS
 10
154.3393659421
 20
169.985214625
 11
154.1836441844
 21
169.8634835331
  0
LINE
  5
2F1
100
AcDbEntity
  8
0
100
AcDbLine
 62
7
  6
CONTINUOUS
 10
158.0766884228
 20
171.8111806205
 11
158.2324101805
 21
171.9329116699
  0
LINE
  5
2F2
100
AcDbEntity
  8
0
100
AcDbLine
 62
7
  6
CONTINUOUS
 10
158.1805025319
 20
171.2025252034
 11
157.8690590166
 21
170.9590631048
  0
LINE
  5
2F3
100
AcDbEntity
  8
0
100
AcDbLine
 62
7
  6
CONTINUOUS
 10
158.1805025319
 20
172.2372392932
 11
157.9209666652
 21
172.0546427192
  0
LINE
  5
2F4
100
AcDbEntity
  8
0
100
AcDbLine
 62
7
  6
CONTINUOUS
 10
154.235551536
 20
169.4982903478
 11
154.4431806452
 21
169.6200214131
  0
LINE
  5
2F5
100
AcDbEntity
  8
0
100
AcDbLine
 62
7
  6
CONTINUOUS
 10
158.2324101805
 20
170.8981975801
 11
158.3881319382
 21
170.9590631048
  0
LINE
  5
2F6
100
AcDbEntity
  8
0
100
AcDbLine
 62
7
  6
CONTINUOUS
 10
158.9072042657
 20
169.8026180084
 11
158.751482508
 21
169.7417524837
  0
LINE
  5
2F7
100
AcDbEntity
  8
0
100
AcDbLine
 62
7
  6
CONTINUOUS
 10
159.3743695386
 20
171.6285840466
 11
159.3224624841
 21
171.8111806205
  0
LINE
  5
2F8
100
AcDbEntity
  8
0
100
AcDbLine
 62
7
  6
CONTINUOUS
 10
157.6095231499
 20
170.6547354815
 11
157.6614302044
 21
170.2286767236
  0
LINE
  5
2F9
100
AcDbEntity
  8
0
100
AcDbLine
 62
7
  6
CONTINUOUS
 10
159.218647781
 20
170.4721388223
 11
159.218647781
 21
170.2895422483
  0
LINE
  5
2FA
100
AcDbEntity
  8
0
100
AcDbLine
 62
7
  6
CONTINUOUS
 10
159.4781842418
 20
170.2286767236
 11
159.4781842418
 21
170.5330044322
  0
LINE
  5
2FB
100
AcDbEntity
  8
0
100
AcDbLine
 62
7
  6
CONTINUOUS
 10
157.9209666652
 20
171.4459873021
 11
157.9728737197
 21
171.6285840466
  0
LINE
  5
2FC
100
AcDbEntity
  8
0
100
AcDbLine
 62
7
  6
CONTINUOUS
 10
157.9209666652
 20
170.4721388223
 11
157.9728737197
 21
170.6547354815
  0
LINE
  5
2FD
100
AcDbEntity
  8
0
100
AcDbLine
 62
7
  6
CONTINUOUS
 10
159.218647781
 20
170.2895422483
 11
159.1667407264
 21
170.1069456743
  0
LINE
  5
2FE
100
AcDbEntity
  8
0
100
AcDbLine
 62
7
  6
CONTINUOUS
 10
159.3743695386
 20
169.9243490577
 11
159.4781842418
 21
170.2286767236
  0
LINE
  5
2FF
100
AcDbEntity
  8
0
100
AcDbLine
 62
7
  6
CONTINUOUS
 10
157.9728737197
 20
171.6285840466
 11
158.0766884228
 21
171.8111806205
  0
LINE
  5
300
100
AcDbEntity
  8
0
100
AcDbLine
 62
7
  6
CONTINUOUS
 10
159.1667407264
 20
170.1069456743
 11
159.0629260233
 21
169.9243490577
  0
LINE
  5
301
100
AcDbEntity
  8
0
100
AcDbLine
 62
7
  6
CONTINUOUS
 10
157.9209666652
 20
172.0546427192
 11
157.7652449075
 21
171.8111806205
  0
LINE
  5
302
100
AcDbEntity
  8
0
100
AcDbLine
 62
7
  6
CONTINUOUS
 10
159.218647781
 20
169.6808869378
 11
159.3743695386
 21
169.9243490577
  0
LINE
  5
303
100
AcDbEntity
  8
0
100
AcDbLine
 62
7
  6
CONTINUOUS
 10
157.9728737197
 20
170.6547354815
 11
158.0766884228
 21
170.7764665308
  0
LINE
  5
304
100
AcDbEntity
  8
0
100
AcDbLine
 62
7
  6
CONTINUOUS
 10
158.0766884228
 20
170.7764665308
 11
158.2324101805
 21
170.8981975801
  0
LINE
  5
305
100
AcDbEntity
  8
0
100
AcDbLine
 62
7
  6
CONTINUOUS
 10
159.0629260233
 20
169.9243490577
 11
158.9072042657
 21
169.8026180084
  0
LINE
  5
306
100
AcDbEntity
  8
0
100
AcDbLine
 62
7
  6
CONTINUOUS
 10
158.9591113202
 20
169.4982903478
 11
159.218647781
 21
169.6808869378
  0
LINE
  5
307
100
AcDbEntity
  8
RUNDUNGEN
100
AcDbLine
 62
7
  6
CONTINUOUS
 10
163.2334348062
 20
151.5188106815
 11
163.2334348062
 21
171.0201606815
  0
LINE
  5
308
100
AcDbEntity
  8
0
100
AcDbLine
 62
7
  6
CONTINUOUS
 10
165.7080951939
 20
170.6594826933
 11
165.7080951939
 21
175.132122697
  0
LINE
  5
309
100
AcDbEntity
  8
0
100
AcDbLine
 62
7
  6
CONTINUOUS
 10
165.7080951939
 20
175.132122697
 11
168.7595107753
 21
186.5201606815
  0
LINE
  5
30A
100
AcDbEntity
  8
0
100
AcDbLine
 62
7
  6
CONTINUOUS
 10
165.7080951939
 20
170.6594826933
 11
163.2334348062
 21
162.5652332843
  0
LINE
  5
30B
100
AcDbEntity
  8
0
100
AcDbLine
 62
7
  6
CONTINUOUS
 10
168.7595107753
 20
186.5201606815
 11
165.7080951939
 21
197.908198666
  0
LINE
  5
30C
100
AcDbEntity
  8
0
100
AcDbLine
 62
7
  6
CONTINUOUS
 10
165.7080951939
 20
197.908198666
 11
157.3714727908
 21
206.2448210692
  0
LINE
  5
30D
100
AcDbEntity
  8
RUNDUNGEN
100
AcDbLine
 62
7
  6
CONTINUOUS
 10
163.2334348062
 20
151.5188106815
 11
160.4708237285
 21
147.0295676802
  0
LINE
  5
30E
100
AcDbEntity
  8
0
100
AcDbLine
 62
7
  6
CONTINUOUS
 10
145.9834348062
 20
209.2962366505
 11
134.5953968217
 21
206.2448210692
  0
LINE
  5
30F
100
AcDbEntity
  8
0
100
AcDbLine
 62
7
  6
CONTINUOUS
 10
157.3714727908
 20
206.2448210692
 11
145.9834348062
 21
209.2962366505
  0
LINE
  5
310
100
AcDbEntity
  8
0
100
AcDbLine
 62
7
  6
CONTINUOUS
 10
285.7811823507
 20
147.0201606815
 11
283.5811823507
 21
147.0201606815
  0
LINE
  5
311
100
AcDbEntity
  8
0
100
AcDbLine
 62
7
  6
CONTINUOUS
 10
283.5811823507
 20
147.0295676802
 11
285.7811823507
 21
147.0295676802
  0
LINE
  5
312
100
AcDbEntity
  8
BEZUGSACHSEN
100
AcDbLine
 62
2
  6
CENTER
 10
284.6811823507
 20
157.4201606815
 11
277.4132323507
 21
157.4201606815
  0
LINE
  5
313
100
AcDbEntity
  8
BEZUGSACHSEN
100
AcDbLine
 62
2
  6
CENTER
 10
284.6811823507
 20
157.4201606815
 11
291.9491323507
 21
157.4201606815
  0
LINE
  5
314
100
AcDbEntity
  8
0
100
AcDbLine
 62
7
  6
CONTINUOUS
 10
280.2980709605
 20
204.4260564691
 11
282.9713194682
 21
209.2962366505
  0
LINE
  5
315
100
AcDbEntity
  8
0
100
AcDbLine
 62
7
  6
CONTINUOUS
 10
275.1811823507
 20
155.4201606815
 11
275.1811823507
 21
163.0201606815
  0
LINE
  5
316
100
AcDbEntity
  8
0
100
AcDbLine
 62
7
  6
CONTINUOUS
 10
277.6811823507
 20
173.0201606815
 11
277.6811823507
 21
167.3502877004
  0
LINE
  5
317
100
AcDbEntity
  8
0
100
AcDbLine
 62
7
  6
CONTINUOUS
 10
285.9936823507
 20
170.6594826933
 11
283.3686823507
 21
170.6594826933
  0
LINE
  5
318
100
AcDbEntity
  8
BEZUGSACHSEN
100
AcDbLine
 62
8
  6
HIDDEN
 10
279.6811823507
 20
181.9883992583
 11
279.6811823507
 21
175.8485878063
  0
LINE
  5
319
100
AcDbEntity
  8
0
100
AcDbLine
 62
7
  6
CONTINUOUS
 10
279.6811823507
 20
181.988181878
 11
279.6811823507
 21
175.8003444924
  0
LINE
  5
31A
100
AcDbEntity
  8
BEZUGSACHSEN
100
AcDbLine
 62
7
  6
CONTINUOUS
 10
279.6811823507
 20
181.9883992583
 11
279.6811823507
 21
202.0201606815
  0
LINE
  5
31B
100
AcDbEntity
  8
0
100
AcDbLine
 62
7
  6
CONTINUOUS
 10
282.5526910693
 20
180.0840624805
 11
282.6508986573
 21
175.132122697
  0
LINE
  5
31C
100
AcDbEntity
  8
BEZUGSACHSEN
100
AcDbLine
 62
8
  6
HIDDEN
 10
280.9311823507
 20
155.446862364
 11
280.9311823507
 21
159.3934589991
  0
LINE
  5
31D
100
AcDbEntity
  8
0
100
AcDbLine
 62
7
  6
CONTINUOUS
 10
282.6508986573
 20
175.132122697
 11
286.7114660442
 21
175.132122697
  0
LINE
  5
31E
100
AcDbEntity
  8
DEFAULT_2
100
AcDbLine
 62
8
  6
HIDDEN
 10
280.6811823507
 20
176.0201606815
 11
288.6811823507
 21
176.0201606815
  0
LINE
  5
31F
100
AcDbEntity
  8
0
100
AcDbLine
 62
7
  6
CONTINUOUS
 10
283.3686823507
 20
170.6594826933
 11
282.6508986573
 21
175.132122697
  0
LINE
  5
320
100
AcDbEntity
  8
0
100
AcDbLine
 62
7
  6
CONTINUOUS
 10
283.3686823507
 20
170.6594826933
 11
283.3686823507
 21
162.5652332843
  0
LINE
  5
321
100
AcDbEntity
  8
BEZUGSACHSEN
100
AcDbLine
 62
2
  6
CENTER
 10
284.6811823507
 20
157.4201606815
 11
284.6811823507
 21
150.1522106815
  0
LINE
  5
322
100
AcDbEntity
  8
BEZUGSACHSEN
100
AcDbLine
 62
2
  6
CENTER
 10
284.6811823507
 20
157.4201606815
 11
284.6811823507
 21
164.6881106815
  0
LINE
  5
323
100
AcDbEntity
  8
0
100
AcDbLine
 62
7
  6
CONTINUOUS
 10
275.1811823507
 20
163.0201606815
 11
277.6811823507
 21
167.3502877004
  0
LINE
  5
324
100
AcDbEntity
  8
0
100
AcDbLine
 62
7
  6
CONTINUOUS
 10
285.9936823507
 20
170.6594826933
 11
285.9936823507
 21
162.5652332843
  0
LINE
  5
325
100
AcDbEntity
  8
0
100
AcDbLine
 62
7
  6
CONTINUOUS
 10
286.8096736322
 20
180.0840624805
 11
286.7114660442
 21
175.132122697
  0
LINE
  5
326
100
AcDbEntity
  8
RUNDUNGEN
100
AcDbLine
 62
7
  6
CONTINUOUS
 10
294.1811823507
 20
163.0201606815
 11
291.6811823507
 21
167.3502877004
  0
LINE
  5
327
100
AcDbEntity
  8
BEZUGSACHSEN
100
AcDbLine
 62
8
  6
HIDDEN
 10
288.4311823507
 20
159.3934589991
 11
288.4311823507
 21
155.446862364
  0
LINE
  5
328
100
AcDbEntity
  8
0
100
AcDbLine
 62
7
  6
CONTINUOUS
 10
285.9936823507
 20
170.6594826933
 11
286.7114660442
 21
175.132122697
  0
LINE
  5
329
100
AcDbEntity
  8
RUNDUNGEN
100
AcDbLine
 62
7
  6
CONTINUOUS
 10
289.6811823507
 20
181.988181878
 11
289.6811823507
 21
175.8003444924
  0
LINE
  5
32A
100
AcDbEntity
  8
BEZUGSACHSEN
100
AcDbLine
 62
7
  6
CONTINUOUS
 10
289.6811823507
 20
181.9883992583
 11
289.6811823507
 21
202.0201606815
  0
LINE
  5
32B
100
AcDbEntity
  8
RUNDUNGEN
100
AcDbLine
 62
7
  6
CONTINUOUS
 10
291.6811823507
 20
173.0201606815
 11
291.6811823507
 21
167.3502877004
  0
LINE
  5
32C
100
AcDbEntity
  8
BEZUGSACHSEN
100
AcDbLine
 62
2
  6
CENTER
 10
277.4178070836
 20
186.5201606815
 11
291.242016632
 21
186.5201606815
  0
LINE
  5
32D
100
AcDbEntity
  8
0
100
AcDbLine
 62
7
  6
CONTINUOUS
 10
282.9713194682
 20
186.5201606815
 11
286.3910452333
 21
186.5201606815
  0
LINE
  5
32E
100
AcDbEntity
  8
RUNDUNGEN
100
AcDbLine
 62
7
  6
CONTINUOUS
 10
294.1811823507
 20
155.4201606815
 11
294.1811823507
 21
163.0201606815
  0
LINE
  5
32F
100
AcDbEntity
  8
KONSTRUKTIONSELEMENTE
100
AcDbLine
 62
7
  6
CONTINUOUS
 10
286.3910452333
 20
209.2962366505
 11
289.064293741
 21
204.4260564691
  0
LINE
  5
330
100
AcDbEntity
  8
0
100
AcDbLine
 62
7
  6
CONTINUOUS
 10
282.9713194682
 20
197.908198666
 11
286.3910452333
 21
197.908198666
  0
LINE
  5
331
100
AcDbEntity
  8
0
100
AcDbLine
 62
7
  6
CONTINUOUS
 10
282.9713194682
 20
206.2448210692
 11
286.3910452333
 21
206.2448210692
  0
LINE
  5
332
100
AcDbEntity
  8
0
100
AcDbLine
 62
7
  6
CONTINUOUS
 10
286.3910452333
 20
209.2962366505
 11
282.9713194682
 21
209.2962366505
  0
ARC
  5
333
100
AcDbEntity
  8
KONSTRUKTIONSELEMENTE
100
AcDbCircle
 62
7
  6
CONTINUOUS
 10
145.9834348062
 20
128.3176406815
 40
21.59352
100
AcDbArc
 50
59.9775906644
 51
80.1338135404
  0
ARC
  5
334
100
AcDbEntity
  8
KONSTRUKTIONSELEMENTE
100
AcDbCircle
 62
7
  6
CONTINUOUS
 10
145.9834348062
 20
128.3176406815
 40
21.59352
100
AcDbArc
 50
99.8661864596
 51
120.0224093356
  0
CIRCLE
  5
335
100
AcDbEntity
  8
BEZUGSACHSEN
100
AcDbCircle
 62
7
  6
CONTINUOUS
 10
145.9834348062
 20
186.5201606815
 40
10.5
  0
ARC
  5
336
100
AcDbEntity
  8
RUNDUNGEN
100
AcDbCircle
 62
7
  6
CONTINUOUS
 10
133.7334348062
 20
171.0201606815
 40
5.0
100
AcDbArc
 50
135.1299088003
 51
180.0
  0
ARC
  5
337
100
AcDbEntity
  8
RUNDUNGEN
100
AcDbCircle
 62
7
  6
CONTINUOUS
 10
158.2334348062
 20
171.0201606815
 40
5.0
100
AcDbArc
 50
0.0
 51
44.8700911997
  0
ARC
  5
338
100
AcDbEntity
  8
RUNDUNGEN
100
AcDbCircle
 62
7
  6
CONTINUOUS
 10
133.7334348062
 20
171.0201606815
 40
4.8284271247
100
AcDbArc
 50
90.0
 51
98.1061684603
  0
ARC
  5
339
100
AcDbEntity
  8
RUNDUNGEN
100
AcDbCircle
 62
7
  6
CONTINUOUS
 10
158.2334348062
 20
171.0201606815
 40
4.8284271247
100
AcDbArc
 50
81.8938367256
 51
89.996087995
  0
ARC
  5
33A
100
AcDbEntity
  8
KONSTRUKTIONSELEMENTE
100
AcDbCircle
 62
7
  6
CONTINUOUS
 10
145.9834348062
 20
166.3201606815
 40
3.7
100
AcDbArc
 50
0.0
 51
180.0
  0
ARC
  5
33B
100
AcDbEntity
  8
RUNDUNGEN
100
AcDbCircle
 62
7
  6
CONTINUOUS
 10
160.2334348062
 20
150.0201606815
 40
3.0
100
AcDbArc
 50
270.0
 51
274.5385392233
  0
ARC
  5
33C
100
AcDbEntity
  8
RUNDUNGEN
100
AcDbCircle
 62
7
  6
CONTINUOUS
 10
131.7334348062
 20
150.0201606815
 40
3.0
100
AcDbArc
 50
265.4614607767
 51
270.0
  0
CIRCLE
  5
33D
100
AcDbEntity
  8
BEZUGSACHSEN
100
AcDbCircle
 62
7
  6
CONTINUOUS
 10
134.9834348062
 20
157.4201606815
 40
1.5
  0
ARC
  5
33E
100
AcDbEntity
  8
0
100
AcDbCircle
 62
7
  6
CONTINUOUS
 10
283.5811823507
 20
155.4201606815
 40
8.4
100
AcDbArc
 50
180.0
 51
270.0
  0
ARC
  5
33F
100
AcDbEntity
  8
RUNDUNGEN
100
AcDbCircle
 62
7
  6
CONTINUOUS
 10
285.7811823507
 20
155.4201606815
 40
8.4
100
AcDbArc
 50
270.0
 51
360.0
  0
ARC
  5
340
100
AcDbEntity
  8
BEZUGSACHSEN
100
AcDbCircle
 62
8
  6
HIDDEN
 10
284.6811823507
 20
202.0201606815
 40
5.0
100
AcDbArc
 50
180.0
 51
360.0
  0
ARC
  5
341
100
AcDbEntity
  8
BEZUGSACHSEN
100
AcDbCircle
 62
7
  6
CONTINUOUS
 10
284.6811823507
 20
202.0201606815
 40
5.0
100
AcDbArc
 50
0.0
 51
28.7624430017
  0
ARC
  5
342
100
AcDbEntity
  8
BEZUGSACHSEN
100
AcDbCircle
 62
7
  6
CONTINUOUS
 10
284.6811823507
 20
202.0201606815
 40
5.0
100
AcDbArc
 50
151.2375569983
 51
180.0
  0
CIRCLE
  5
343
100
AcDbEntity
  8
BEZUGSACHSEN
100
AcDbCircle
 62
7
  6
CONTINUOUS
 10
284.6811823507
 20
157.4201606815
 40
4.26795
  0
ARC
  5
344
100
AcDbEntity
  8
0
100
AcDbCircle
 62
7
  6
CONTINUOUS
 10
280.6811823507
 20
173.0201606815
 40
3.0
100
AcDbArc
 50
109.4712206345
 51
179.9999856999
  0
ARC
  5
345
100
AcDbEntity
  8
RUNDUNGEN
100
AcDbCircle
 62
7
  6
CONTINUOUS
 10
288.6811823507
 20
173.0201606815
 40
3.0
100
AcDbArc
 50
0.0000143001
 51
70.5287793655
  0
SPLINE
  5
346
100
AcDbEntity
  8
KONSTRUKTIONSELEMENTE
100
AcDbSpline
 62
7
  6
CONTINUOUS
 70
0
 71
3
 72
17
 73
13
 74
0
 42
0.0000001
 43
0.0000001
 44
0.0000000001
 40
0.0
 40
0.0
 40
0.0
 40
0.0
 40
0.0624824542
 40
0.124970712
 40
0.1874721605
 40
0.2499799163
 40
0.3748831941
 40
0.4998689354
 40
0.6248874345
 40
0.7499192178
 40
0.8749572444
 40
1.0
 40
1.0
 40
1.0
 40
1.0
 10
137.3522893434
 20
158.9701606815
 30
0.0
 10
137.3522893434
 20
159.1107657529
 30
0.0
 10
137.3817860977
 20
159.3927877019
 30
0.0
 10
137.5075612546
 20
159.7978271722
 30
0.0
 10
137.699213048
 20
160.175605112
 30
0.0
 10
138.021054454
 20
160.6384380474
 30
0.0
 10
138.5155088046
 20
161.1445514697
 30
0.0
 10
139.1907636455
 20
161.6536384895
 30
0.0
 10
139.9189185606
 20
162.0832159748
 30
0.0
 10
140.6828564216
 20
162.4444407627
 30
0.0
 10
141.4724887453
 20
162.7448703811
 30
0.0
 10
142.0116169536
 20
162.907935013
 30
0.0
 10
142.2834348062
 20
162.9806863369
 30
0.0
  0
SPLINE
  5
347
100
AcDbEntity
  8
KONSTRUKTIONSELEMENTE
100
AcDbSpline
 62
7
  6
CONTINUOUS
 70
0
 71
3
 72
10
 73
6
 74
0
 42
0.0000001
 43
0.0000001
 44
0.0000000001
 40
0.0
 40
0.0
 40
0.0
 40
0.0
 40
0.4997318856
 40
0.7498850186
 40
1.0
 40
1.0
 40
1.0
 40
1.0
 10
136.8015592238
 20
155.4201606815
 30
0.0
 10
136.9651661028
 20
155.7621804911
 30
0.0
 10
137.1739514765
 20
156.2963533784
 30
0.0
 10
137.3258446607
 20
157.0413446288
 30
0.0
 10
137.3522893434
 20
157.4214033092
 30
0.0
 10
137.3522893434
 20
157.6111606815
 30
0.0
  0
SPLINE
  5
348
100
AcDbEntity
  8
KONSTRUKTIONSELEMENTE
100
AcDbSpline
 62
7
  6
CONTINUOUS
 70
0
 71
3
 72
10
 73
6
 74
0
 42
0.0000001
 43
0.0000001
 44
0.0000000001
 40
0.0
 40
0.0
 40
0.0
 40
0.0
 40
0.2501149814
 40
0.5002681144
 40
1.0
 40
1.0
 40
1.0
 40
1.0
 10
154.614580269
 20
157.6111606815
 30
0.0
 10
154.614580269
 20
157.4214033092
 30
0.0
 10
154.6410249518
 20
157.0413446288
 30
0.0
 10
154.7929181359
 20
156.2963533784
 30
0.0
 10
155.0017035097
 20
155.7621804911
 30
0.0
 10
155.1653103886
 20
155.4201606815
 30
0.0
  0
SPLINE
  5
349
100
AcDbEntity
  8
KONSTRUKTIONSELEMENTE
100
AcDbSpline
 62
7
  6
CONTINUOUS
 70
0
 71
3
 72
17
 73
13
 74
0
 42
0.0000001
 43
0.0000001
 44
0.0000000001
 40
0.0
 40
0.0
 40
0.0
 40
0.0
 40
0.1250242168
 40
0.2500431567
 40
0.375054379
 40
0.5000503235
 40
0.6250176108
 40
0.7499166089
 40
0.8124342488
 40
0.874951449
 40
0.9374761906
 40
1.0
 40
1.0
 40
1.0
 40
1.0
 10
149.6834348062
 20
162.9806863369
 30
0.0
 10
149.9552123293
 20
162.9079458071
 30
0.0
 10
150.494259756
 20
162.7449070018
 30
0.0
 10
151.283772422
 20
162.4445336769
 30
0.0
 10
152.0476009085
 20
162.0834058559
 30
0.0
 10
152.7756521232
 20
161.6539271236
 30
0.0
 10
153.4508747618
 20
161.144971558
 30
0.0
 10
153.9453838747
 20
160.638954269
 30
0.0
 10
154.2673320865
 20
160.1761386727
 30
0.0
 10
154.4591374632
 20
159.7982808624
 30
0.0
 10
154.5850327152
 20
159.3930554188
 30
0.0
 10
154.614580269
 20
159.1108587995
 30
0.0
 10
154.614580269
 20
158.9701606815
 30
0.0
  0
SPLINE
  5
34A
100
AcDbEntity
  8
RUNDUNGEN
100
AcDbSpline
 62
7
  6
CONTINUOUS
 70
0
 71
3
 72
9
 73
5
 74
0
 42
0.0000001
 43
0.0000001
 44
0.0000000001
 40
0.0
 40
0.0
 40
0.0
 40
0.0
 40
0.2519459173
 40
1.0
 40
1.0
 40
1.0
 40
1.0
 10
130.1898937506
 20
174.5476692622
 30
0.0
 10
130.2345264073
 20
174.5925047835
 30
0.0
 10
130.4163221868
 20
174.7657623814
 30
0.0
 10
130.6168735012
 20
174.9194620533
 30
0.0
 10
130.7751543429
 20
175.0206044793
 30
0.0
  0
SPLINE
  5
34B
100
AcDbEntity
  8
RUNDUNGEN
100
AcDbSpline
 62
7
  6
CONTINUOUS
 70
0
 71
3
 72
9
 73
5
 74
0
 42
0.0000001
 43
0.0000001
 44
0.0000000001
 40
0.0
 40
0.0
 40
0.0
 40
0.0
 40
0.2485467635
 40
1.0
 40
1.0
 40
1.0
 40
1.0
 10
161.1917152696
 20
175.0206044793
 30
0.0
 10
161.2443064039
 20
174.9869984228
 30
0.0
 10
161.4520566994
 20
174.8458390408
 30
0.0
 10
161.6438518353
 20
174.6813983646
 30
0.0
 10
161.7769758619
 20
174.5476692622
 30
0.0
  0
SPLINE
  5
34C
100
AcDbEntity
  8
KONSTRUKTIONSELEMENTE
100
AcDbSpline
 62
7
  6
CONTINUOUS
 70
0
 71
3
 72
24
 73
20
 74
0
 42
0.0000001
 43
0.0000001
 44
0.0000000001
 40
0.0
 40
0.0
 40
0.0
 40
0.0
 40
0.1895472297
 40
0.3730731398
 40
0.46043327
 40
0.5436274366
 40
0.6217482281
 40
0.6939232281
 40
0.7593447659
 40
0.8172957912
 40
0.8671917714
 40
0.9086299276
 40
0.9414792261
 40
0.9547861621
 40
0.9661654962
 40
0.9758622321
 40
0.9842866076
 40
0.9920714713
 40
1.0
 40
1.0
 40
1.0
 40
1.0
 10
136.8015592238
 20
155.4201606815
 30
0.0
 10
136.5597679398
 20
154.9146965502
 30
0.0
 10
136.126454494
 20
153.8990812285
 30
0.0
 10
135.6821006266
 20
152.6115480025
 30
0.0
 10
135.3879226196
 20
151.6068999035
 30
0.0
 10
135.202874471
 20
150.8953454912
 30
0.0
 10
135.0495007999
 20
150.2222727722
 30
0.0
 10
134.9276089266
 20
149.5962349217
 30
0.0
 10
134.8369844732
 20
149.025184345
 30
0.0
 10
134.7774107198
 20
148.5163097766
 30
0.0
 10
134.748525316
 20
148.0756475056
 30
0.0
 10
134.750169463
 20
147.7082990808
 30
0.0
 10
134.7777250996
 20
147.4498039219
 30
0.0
 10
134.8195121797
 20
147.2846151815
 30
0.0
 10
134.8566520964
 20
147.189625358
 30
0.0
 10
134.9021342692
 20
147.1145365822
 30
0.0
 10
134.95698726
 20
147.0596715301
 30
0.0
 10
135.0216436924
 20
147.0266047783
 30
0.0
 10
135.0685512229
 20
147.0201606815
 30
0.0
 10
135.0919886675
 20
147.0201606815
 30
0.0
  0
SPLINE
  5
34D
100
AcDbEntity
  8
RUNDUNGEN
100
AcDbSpline
 62
7
  6
CONTINUOUS
 70
0
 71
3
 72
11
 73
7
 74
0
 42
0.0000001
 43
0.0000001
 44
0.0000000001
 40
0.0
 40
0.0
 40
0.0
 40
0.0
 40
0.2573683187
 40
0.5111859331
 40
0.7587974319
 40
1.0
 40
1.0
 40
1.0
 40
1.0
 10
134.7421033741
 20
175.8485878063
 30
0.0
 10
135.1249680464
 20
175.8485878063
 30
0.0
 10
135.8854890716
 20
175.8653896609
 30
0.0
 10
137.0125458517
 20
175.9292326737
 30
0.0
 10
138.1151531226
 20
175.99730897
 30
0.0
 10
138.8422950665
 20
176.0201606815
 30
0.0
 10
139.2011113444
 20
176.0201606815
 30
0.0
  0
SPLINE
  5
34E
100
AcDbEntity
  8
KONSTRUKTIONSELEMENTE
100
AcDbSpline
 62
7
  6
CONTINUOUS
 70
0
 71
3
 72
24
 73
20
 74
0
 42
0.0000001
 43
0.0000001
 44
0.0000000001
 40
0.0
 40
0.0
 40
0.0
 40
0.0
 40
0.0079285287
 40
0.0157133924
 40
0.0241377679
 40
0.0338345038
 40
0.0452138379
 40
0.0585207739
 40
0.0913700724
 40
0.1328082286
 40
0.1827042088
 40
0.2406552341
 40
0.3060767719
 40
0.3782517719
 40
0.4563725634
 40
0.53956673
 40
0.6269268602
 40
0.8104527703
 40
1.0
 40
1.0
 40
1.0
 40
1.0
 10
156.874880945
 20
147.0201606815
 30
0.0
 10
156.8983183896
 20
147.0201606815
 30
0.0
 10
156.94522592
 20
147.0266047783
 30
0.0
 10
157.0098823525
 20
147.0596715301
 30
0.0
 10
157.0647353433
 20
147.1145365822
 30
0.0
 10
157.110217516
 20
147.189625358
 30
0.0
 10
157.1473574328
 20
147.2846151815
 30
0.0
 10
157.1891445129
 20
147.4498039219
 30
0.0
 10
157.2167001494
 20
147.7082990808
 30
0.0
 10
157.2183442965
 20
148.0756475056
 30
0.0
 10
157.1894588926
 20
148.5163097766
 30
0.0
 10
157.1298851393
 20
149.025184345
 30
0.0
 10
157.0392606858
 20
149.5962349217
 30
0.0
 10
156.9173688125
 20
150.2222727722
 30
0.0
 10
156.7639951415
 20
150.8953454912
 30
0.0
 10
156.5789469929
 20
151.6068999035
 30
0.0
 10
156.2847689859
 20
152.6115480025
 30
0.0
 10
155.8404151185
 20
153.8990812285
 30
0.0
 10
155.4071016727
 20
154.9146965502
 30
0.0
 10
155.1653103886
 20
155.4201606815
 30
0.0
  0
SPLINE
  5
34F
100
AcDbEntity
  8
RUNDUNGEN
100
AcDbSpline
 62
7
  6
CONTINUOUS
 70
0
 71
3
 72
10
 73
6
 74
0
 42
0.0000001
 43
0.0000001
 44
0.0000000001
 40
0.0
 40
0.0
 40
0.0
 40
0.0
 40
0.2601847318
 40
0.5162467885
 40
1.0
 40
1.0
 40
1.0
 40
1.0
 10
158.914280342
 20
175.8003445541
 30
0.0
 10
159.1221834585
 20
175.7707327415
 30
0.0
 10
159.5325719585
 20
175.6941164702
 30
0.0
 10
160.3097716509
 20
175.476223461
 30
0.0
 10
160.8627029965
 20
175.2308453342
 30
0.0
 10
161.1917152696
 20
175.0206044793
 30
0.0
  0
SPLINE
  5
350
100
AcDbEntity
  8
RUNDUNGEN
100
AcDbSpline
 62
7
  6
CONTINUOUS
 70
0
 71
3
 72
10
 73
6
 74
0
 42
0.0000001
 43
0.0000001
 44
0.0000000001
 40
0.0
 40
0.0
 40
0.0
 40
0.0
 40
0.2601847325
 40
0.5162467884
 40
1.0
 40
1.0
 40
1.0
 40
1.0
 10
133.0525888378
 20
175.8003444924
 30
0.0
 10
132.84468576
 20
175.7707326726
 30
0.0
 10
132.4342973382
 20
175.6941163937
 30
0.0
 10
131.6570977943
 20
175.4762233921
 30
0.0
 10
131.1041665569
 20
175.2308452964
 30
0.0
 10
130.7751543429
 20
175.0206044793
 30
0.0
  0
SPLINE
  5
351
100
AcDbEntity
  8
RUNDUNGEN
100
AcDbSpline
 62
7
  6
CONTINUOUS
 70
0
 71
3
 72
11
 73
7
 74
0
 42
0.0000001
 43
0.0000001
 44
0.0000000001
 40
0.0
 40
0.0
 40
0.0
 40
0.0
 40
0.2573681869
 40
0.5111855059
 40
0.758797108
 40
1.0
 40
1.0
 40
1.0
 40
1.0
 10
157.2247662384
 20
175.8485878063
 30
0.0
 10
156.8418993531
 20
175.8485878063
 30
0.0
 10
156.0813741719
 20
175.8653897548
 30
0.0
 10
154.9543108203
 20
175.9292337618
 30
0.0
 10
153.8516963639
 20
175.9973098577
 30
0.0
 10
153.1245491894
 20
176.0201606815
 30
0.0
 10
152.7657301718
 20
176.0201606815
 30
0.0
  0
SPLINE
  5
352
100
AcDbEntity
  8
0
100
AcDbSpline
 62
7
  6
CONTINUOUS
 70
0
 71
3
 72
13
 73
9
 74
0
 42
0.0000001
 43
0.0000001
 44
0.0000000001
 40
0.0
 40
0.0
 40
0.0
 40
0.0
 40
0.2578502816
 40
0.3800272365
 40
0.5000000009
 40
0.6199727654
 40
0.7421497198
 40
1.0
 40
1.0
 40
1.0
 40
1.0
 10
286.3910452333
 20
209.2962366505
 30
0.0
 10
286.5232903574
 20
209.0553097107
 30
0.0
 10
286.686140867
 20
208.6792536001
 30
0.0
 10
286.7983881097
 20
208.1568464628
 30
0.0
 10
286.8262726596
 20
207.7705288568
 30
0.0
 10
286.7983881054
 20
207.3842112521
 30
0.0
 10
286.6861408702
 20
206.8618041152
 30
0.0
 10
286.5232903567
 20
206.4857480078
 30
0.0
 10
286.3910452333
 20
206.2448210692
 30
0.0
  0
SPLINE
  5
353
100
AcDbEntity
  8
0
100
AcDbSpline
 62
7
  6
CONTINUOUS
 70
0
 71
3
 72
13
 73
9
 74
0
 42
0.0000001
 43
0.0000001
 44
0.0000000001
 40
0.0
 40
0.0
 40
0.0
 40
0.0
 40
0.2578502816
 40
0.3800272365
 40
0.5000000009
 40
0.6199727654
 40
0.7421497198
 40
1.0
 40
1.0
 40
1.0
 40
1.0
 10
282.9713194682
 20
209.2962366505
 30
0.0
 10
282.8390743441
 20
209.0553097107
 30
0.0
 10
282.6762238344
 20
208.6792536001
 30
0.0
 10
282.5639765917
 20
208.1568464628
 30
0.0
 10
282.5360920419
 20
207.7705288568
 30
0.0
 10
282.563976596
 20
207.3842112521
 30
0.0
 10
282.6762238312
 20
206.8618041152
 30
0.0
 10
282.8390743448
 20
206.4857480078
 30
0.0
 10
282.9713194682
 20
206.2448210692
 30
0.0
  0
SPLINE
  5
354
100
AcDbEntity
  8
0
100
AcDbSpline
 62
7
  6
CONTINUOUS
 70
0
 71
3
 72
9
 73
5
 74
0
 42
0.0000001
 43
0.0000001
 44
0.0000000001
 40
0.0
 40
0.0
 40
0.0
 40
0.0
 40
0.500095873
 40
1.0
 40
1.0
 40
1.0
 40
1.0
 10
286.3910452333
 20
186.5201606815
 30
0.0
 10
286.5476299545
 20
185.4555210548
 30
0.0
 10
286.7802215792
 20
183.313767696
 30
0.0
 10
286.8310024894
 20
181.1595314855
 30
0.0
 10
286.8096736322
 20
180.0840624805
 30
0.0
  0
SPLINE
  5
355
100
AcDbEntity
  8
0
100
AcDbSpline
 62
7
  6
CONTINUOUS
 70
0
 71
3
 72
11
 73
7
 74
0
 42
0.0000001
 43
0.0000001
 44
0.0000000001
 40
0.0
 40
0.0
 40
0.0
 40
0.0
 40
0.2500485047
 40
0.5000000009
 40
0.7499514969
 40
1.0
 40
1.0
 40
1.0
 40
1.0
 10
286.3910452333
 20
197.908198666
 30
0.0
 10
286.529642873
 20
196.9658555162
 30
0.0
 10
286.7437749565
 20
195.0714740549
 30
0.0
 10
286.8536569928
 20
192.2141796643
 30
0.0
 10
286.7437749576
 20
189.3568852796
 30
0.0
 10
286.5296428721
 20
187.4625038255
 30
0.0
 10
286.3910452333
 20
186.5201606815
 30
0.0
  0
SPLINE
  5
356
100
AcDbEntity
  8
0
100
AcDbSpline
 62
7
  6
CONTINUOUS
 70
0
 71
3
 72
11
 73
7
 74
0
 42
0.0000001
 43
0.0000001
 44
0.0000000001
 40
0.0
 40
0.0
 40
0.0
 40
0.0
 40
0.2506353974
 40
0.5000000009
 40
0.7493646041
 40
1.0
 40
1.0
 40
1.0
 40
1.0
 10
286.3910452333
 20
206.2448210692
 30
0.0
 10
286.5291218274
 20
205.5575714096
 30
0.0
 10
286.7433599344
 20
204.1731534278
 30
0.0
 10
286.8537779856
 20
202.0765098607
 30
0.0
 10
286.7433599355
 20
199.9798662977
 30
0.0
 10
286.5291218265
 20
198.5954483214
 30
0.0
 10
286.3910452333
 20
197.908198666
 30
0.0
  0
SPLINE
  5
357
100
AcDbEntity
  8
0
100
AcDbSpline
 62
7
  6
CONTINUOUS
 70
0
 71
3
 72
9
 73
5
 74
0
 42
0.0000001
 43
0.0000001
 44
0.0000000001
 40
0.0
 40
0.0
 40
0.0
 40
0.0
 40
0.500095873
 40
1.0
 40
1.0
 40
1.0
 40
1.0
 10
282.9713194682
 20
186.5201606815
 30
0.0
 10
282.814734747
 20
185.4555210548
 30
0.0
 10
282.5821431223
 20
183.313767696
 30
0.0
 10
282.531362212
 20
181.1595314855
 30
0.0
 10
282.5526910693
 20
180.0840624805
 30
0.0
  0
SPLINE
  5
358
100
AcDbEntity
  8
0
100
AcDbSpline
 62
7
  6
CONTINUOUS
 70
0
 71
3
 72
11
 73
7
 74
0
 42
0.0000001
 43
0.0000001
 44
0.0000000001
 40
0.0
 40
0.0
 40
0.0
 40
0.0
 40
0.2500485047
 40
0.5000000009
 40
0.7499514969
 40
1.0
 40
1.0
 40
1.0
 40
1.0
 10
282.9713194682
 20
197.908198666
 30
0.0
 10
282.8327218285
 20
196.9658555162
 30
0.0
 10
282.618589745
 20
195.0714740549
 30
0.0
 10
282.5087077086
 20
192.2141796643
 30
0.0
 10
282.6185897439
 20
189.3568852796
 30
0.0
 10
282.8327218293
 20
187.4625038255
 30
0.0
 10
282.9713194682
 20
186.5201606815
 30
0.0
  0
SPLINE
  5
359
100
AcDbEntity
  8
0
100
AcDbSpline
 62
7
  6
CONTINUOUS
 70
0
 71
3
 72
11
 73
7
 74
0
 42
0.0000001
 43
0.0000001
 44
0.0000000001
 40
0.0
 40
0.0
 40
0.0
 40
0.0
 40
0.2506353974
 40
0.5000000009
 40
0.7493646041
 40
1.0
 40
1.0
 40
1.0
 40
1.0
 10
282.9713194682
 20
206.2448210692
 30
0.0
 10
282.8332428741
 20
205.5575714096
 30
0.0
 10
282.6190047671
 20
204.1731534278
 30
0.0
 10
282.5085867158
 20
202.0765098607
 30
0.0
 10
282.619004766
 20
199.9798662977
 30
0.0
 10
282.8332428749
 20
198.5954483214
 30
0.0
 10
282.9713194682
 20
197.908198666
 30
0.0
  0
ENDSEC
  0
SECTION
  2
OBJECTS
  0
DICTIONARY
  5
C
100
AcDbDictionary
280
0
281
1
  3
ACAD_GROUP
350
D
  3
ACAD_MLINESTYLE
350
17
  3
ACAD_LAYOUT
350
1A
  3
ACAD_PLOTSETTINGS
350
19
  3
ACAD_PLOTSTYLENAME
350
E
  0
DICTIONARY
  5
D
102
{ACAD_REACTORS
330
C
102
}
100
AcDbDictionary
280
0
281
1
  0
ACDBDICTIONARYWDFLT
  5
E
102
{ACAD_REACTORS
330
C
102
}
100
AcDbDictionary
281
1
  3
Normal
350
F
100
AcDbDictionaryWithDefault
340
F
  0
DICTIONARY
  5
17
102
{ACAD_REACTORS
330
C
102
}
100
AcDbDictionary
280
0
281
1
  3
Standard
350
18
  0
DICTIONARY
  5
19
102
{ACAD_REACTORS
330
C
102
}
100
AcDbDictionary
281
1
  0
DICTIONARY
  5
1A
102
{ACAD_REACTORS
330
C
102
}
100
AcDbDictionary
281
1
  3
Model
350
35A
  3
Layout1
350
35B
  0
ACDBPLACEHOLDER
  5
F
102
{ACAD_REACTORS
330
E
102
}
  0
MLINESTYLE
  5
18
102
{ACAD_REACTORS
330
17
102
}
100
AcDbMlineStyle
  2
STANDARD
 70
0
  3

 62
256
 51
90.0
 52
90.0
 71
2
 49
0.5
 62
256
  6
BYLAYER
 49
-0.5
 62
256
  6
BYLAYER
  0
LAYOUT
  5
35A
102
{ACAD_REACTORS
330
1A
102
}
100
AcDbPlotSettings
  1

  2
none_device
  4
ISO_A3_(420.00_x_297.00_MM)
  6

 40
0.0
 41
0.0
 42
0.0
 43
0.0
 44
420.0
 45
297.0
 46
0.0
 47
0.0
 48
0.0
 49
0.0
140
0.0
141
0.0
142
1.0
143
1.0
 70
1024
 72
1
 73
0
 74
0
  7

 75
0
147
1.0
148
0.0
149
0.0
100
AcDbLayout
  1
Model
 70
0
 71
0
 10
0.0
 20
0.0
 11
420.0
 21
297.0
 12
0.0
 22
0.0
 32
0.0
 14
0.0
 24
0.0
 34
0.0
 15
0.0
 25
0.0
 35
0.0
146
0.0
 13
0.0
 23
0.0
 33
0.0
 16
1.0
 26
0.0
 36
0.0
 17
0.0
 27
1.0
 37
0.0
 76
0
330
208
345
0
346
0
  0
LAYOUT
  5
35B
102
{ACAD_REACTORS
330
1A
102
}
100
AcDbPlotSettings
  1

  2
none_device
  4
ISO_A3_(420.00_x_297.00_MM)
  6

 40
0.0
 41
0.0
 42
0.0
 43
0.0
 44
420.0
 45
297.0
 46
0.0
 47
0.0
 48
0.0
 49
0.0
140
0.0
141
0.0
142
1.0
143
1.0
 70
0
 72
1
 73
0
 74
0
  7

 75
0
147
1.0
148
0.0
149
0.0
100
AcDbLayout
  1
Layout1
 70
0
 71
1
 10
0.0
 20
0.0
 11
420.0
 21
297.0
 12
0.0
 22
0.0
 32
0.0
 14
0.0
 24
0.0
 34
0.0
 15
0.0
 25
0.0
 35
0.0
146
0.0
 13
0.0
 23
0.0
 33
0.0
 16
1.0
 26
0.0
 36
0.0
 17
0.0
 27
1.0
 37
0.0
 76
0
330
209
345
0
346
0
  0
ENDSEC
  0
EOF
