999
DXF file: irg16-dxf.dxf
999
Pro/ENGINEER 2010140 by Parametric Technology Corporation
  0
SECTION
  2
HEADER
  9
$ACADVER
  1
AC1021
  9
$DWGCODEPAGE
  3
ANSI_1252
  9
$EXTMAX
 10
420.0
 20
297.0
 30
0.0
  9
$EXTMIN
 10
0.0
 20
0.0
 30
0.0
  9
$LIMMIN
 10
0.0
 20
0.0
  9
$LIMMAX
 10
420.0
 20
297.0
  9
$VIEWCTR
 10
210.0
 20
148.5
  9
$VIEWSIZE
 40
297.0
  9
$CLAYER
  8
0
  9
$LTSCALE
 40
23.1
  9
$CELTYPE
  6
BYLAYER
  9
$DIMSCALE
 40
1.0
  9
$DIMASZ
 40
3.5
  9
$DIMEXO
 40
2.625
  9
$DIMDLI
 40
15.96
  9
$DIMEXE
 40
7.56
  9
$DIMCEN
 40
3.78
  9
$DIMLFAC
 40
1.0
  9
$DIMBLK
  1
_FILLED
  9
$DIMTXT
 40
3.5
  9
$DIMTOL
 70
1
  9
$DIMLIM
 70
0
  9
$DIMTFAC
 40
1.0
  9
$DIMTP
 40
0.005
  9
$DIMTM
 40
0.005
  9
$PDMODE
 70
3
  9
$PDSIZE
 40
0.3125
  9
$HANDSEED
  5
366
  9
$TILEMODE
 70
1
  9
$MEASUREMENT
 70
1
  9
$INSUNITS
 70
4
  0
ENDSEC
  0
SECTION
  2
CLASSES
  0
CLASS
  1
ACDBDICTIONARYWDFLT
  2
AcDbDictionaryWithDefault
  3
AutoCAD 2000
 90
0
 91
1
280
0
281
0
  0
CLASS
  1
ACDBPLACEHOLDER
  2
AcDbPlaceHolder
  3
AutoCAD 2000
 90
0
 91
1
280
0
281
0
  0
CLASS
  1
LAYOUT
  2
AcDbLayout
  3
AutoCAD 2000
 90
0
 91
0
280
0
281
0
  0
ENDSEC
  0
SECTION
  2
TABLES
  0
TABLE
  2
VPORT
  5
8
100
AcDbSymbolTable
 70
2
  0
VPORT
  5
1F4
100
AcDbSymbolTableRecord
100
AcDbViewportTableRecord
  2
*ACTIVE
 70
0
 10
0.0
 20
0.0
 11
1.0
 21
1.0
 12
210.0
 22
148.5
 13
0.0
 23
0.0
 14
1.0
 24
1.0
 15
0.0
 25
0.0
 16
0.0
 26
0.0
 36
1.0
 17
0.0
 27
0.0
 37
0.0
 40
297.0
 41
1.4141414141
 42
50.0
 43
0.0
 44
0.0
 50
0.0
 51
0.0
 71
0
 72
100
 73
1
 74
1
 75
0
 76
0
 77
0
 78
0
  0
ENDTAB
  0
TABLE
  2
LTYPE
  5
5
100
AcDbSymbolTable
 70
6
  0
LTYPE
  5
14
100
AcDbSymbolTableRecord
100
AcDbLinetypeTableRecord
  2
BYBLOCK
 70
0
  3

 72
65
 73
0
 40
0.0
  0
LTYPE
  5
15
100
AcDbSymbolTableRecord
100
AcDbLinetypeTableRecord
  2
BYLAYER
 70
0
  3

 72
65
 73
0
 40
0.0
  0
LTYPE
  5
16
100
AcDbSymbolTableRecord
100
AcDbLinetypeTableRecord
  2
CONTINUOUS
 70
64
  3
Solid line
 72
65
 73
0
 40
0.0
  0
LTYPE
  5
1F5
100
AcDbSymbolTableRecord
100
AcDbLinetypeTableRecord
  2
CENTER
 70
64
  3
____ _ ____ _ ____ _ ____ _ ____ _ ____ _ ____
 72
65
 73
4
 40
0.6
 49
0.375
 74
0
 49
-0.075
 74
0
 49
0.075
 74
0
 49
-0.075
 74
0
  0
LTYPE
  5
1F6
100
AcDbSymbolTableRecord
100
AcDbLinetypeTableRecord
  2
HIDDEN
 70
64
  3
- - - - - - - - - - - - - - - - - - - -
 72
65
 73
2
 40
0.2
 49
0.1
 74
0
 49
-0.1
 74
0
  0
LTYPE
  5
1F7
100
AcDbSymbolTableRecord
100
AcDbLinetypeTableRecord
  2
PHANTOM
 70
64
  3
_____ _ _ _____ _ _ _____ _ _ _____
 72
65
 73
6
 40
0.8
 49
0.45
 74
0
 49
-0.05
 74
0
 49
0.1
 74
0
 49
-0.05
 74
0
 49
0.1
 74
0
 49
-0.05
 74
0
  0
LTYPE
  5
1F8
100
AcDbSymbolTableRecord
100
AcDbLinetypeTableRecord
  2
DOT
 70
64
  3
. . . . . . . . . . . . . . . . . . . .
 72
65
 73
2
 40
0.2
 49
0.1
 74
0
 49
-0.1
 74
0
  0
LTYPE
  5
1F9
100
AcDbSymbolTableRecord
100
AcDbLinetypeTableRecord
  2
DASHED
 70
64
  3
- - - - - - - - - - - - - - - - - - - -
 72
65
 73
2
 40
0.2
 49
0.1
 74
0
 49
-0.1
 74
0
  0
ENDTAB
  0
TABLE
  2
LAYER
  5
2
100
AcDbSymbolTable
 70
36
  0
LAYER
  5
10
100
AcDbSymbolTableRecord
100
AcDbLayerTableRecord
  2
0
 70
0
 62
7
  6
CONTINUOUS
370
-3
390
F
  0
LAYER
  5
1FA
100
AcDbSymbolTableRecord
100
AcDbLayerTableRecord
  2
DEFAULT_1
 70
0
 62
7
  6
CENTER
370
-3
390
F
  0
LAYER
  5
1FB
100
AcDbSymbolTableRecord
100
AcDbLayerTableRecord
  2
DEFAULT_2
 70
0
 62
8
  6
HIDDEN
370
-3
390
F
  0
LAYER
  5
1FC
100
AcDbSymbolTableRecord
100
AcDbLayerTableRecord
  2
DEFAULT_3
 70
0
 62
7
  6
PHANTOM
370
-3
390
F
  0
LAYER
  5
1FD
100
AcDbSymbolTableRecord
100
AcDbLayerTableRecord
  2
BEZUGSACHSEN
 70
0
 62
7
  6
CONTINUOUS
370
-3
390
F
  0
LAYER
  5
1FE
100
AcDbSymbolTableRecord
100
AcDbLayerTableRecord
  2
BEZUGSEBENEN
 70
0
 62
7
  6
CONTINUOUS
370
-3
390
F
  0
LAYER
  5
1FF
100
AcDbSymbolTableRecord
100
AcDbLayerTableRecord
  2
FASEN
 70
0
 62
7
  6
CONTINUOUS
370
-3
390
F
  0
LAYER
  5
200
100
AcDbSymbolTableRecord
100
AcDbLayerTableRecord
  2
HILFEN
 70
0
 62
7
  6
CONTINUOUS
370
-3
390
F
  0
LAYER
  5
201
100
AcDbSymbolTableRecord
100
AcDbLayerTableRecord
  2
KONSTRUKTIONSELEMENTE
 70
0
 62
7
  6
CONTINUOUS
370
-3
390
F
  0
LAYER
  5
202
100
AcDbSymbolTableRecord
100
AcDbLayerTableRecord
  2
PLATZIERUNG
 70
0
 62
7
  6
CONTINUOUS
370
-3
390
F
  0
LAYER
  5
203
100
AcDbSymbolTableRecord
100
AcDbLayerTableRecord
  2
RUNDUNGEN
 70
0
 62
7
  6
CONTINUOUS
370
-3
390
F
  0
LAYER
  5
204
100
AcDbSymbolTableRecord
100
AcDbLayerTableRecord
  2
TEIL_STARTBEZUEGE
 70
0
 62
7
  6
CONTINUOUS
370
-3
390
F
  0
LAYER
  5
205
100
AcDbSymbolTableRecord
100
AcDbLayerTableRecord
  2
ZEICHNUNGSBEMASSUNGEN
 70
0
 62
7
  6
CONTINUOUS
370
-3
390
F
  0
ENDTAB
  0
TABLE
  2
STYLE
  5
3
100
AcDbSymbolTable
 70
1
  0
STYLE
  5
11
100
AcDbSymbolTableRecord
100
AcDbTextStyleTableRecord
  2
STANDARD
 70
0
 40
0.0
 41
0.7
 50
0.0
 71
0
 42
0.2
  3
txt
  4

  0
STYLE
  5
206
100
AcDbSymbolTableRecord
100
AcDbTextStyleTableRecord
  2
TEXTSTYLE_1
 70
0
 40
0.0
 41
0.8
 50
0.0
 71
0
 42
0.2
  3
gdt
  4

  0
ENDTAB
  0
TABLE
  2
VIEW
  5
6
100
AcDbSymbolTable
 70
0
  0
ENDTAB
  0
TABLE
  2
UCS
  5
7
100
AcDbSymbolTable
 70
0
  0
ENDTAB
  0
TABLE
  2
APPID
  5
9
100
AcDbSymbolTable
 70
1
  0
APPID
  5
207
100
AcDbSymbolTableRecord
100
AcDbRegAppTableRecord
  2
ACAD
 70
0
  0
ENDTAB
  0
TABLE
  2
BLOCK_RECORD
  5
1
100
AcDbSymbolTable
 70
0
  0
BLOCK_RECORD
  5
208
100
AcDbSymbolTableRecord
100
AcDbBlockTableRecord
  2
*Model_Space
  0
BLOCK_RECORD
  5
209
100
AcDbSymbolTableRecord
100
AcDbBlockTableRecord
  2
*Paper_Space
  0
ENDTAB
  0
TABLE
  2
DIMSTYLE
  5
A
100
AcDbSymbolTable
 70
1
100
AcDbDimStyleTable
 71
0
  0
DIMSTYLE
105
20A
100
AcDbSymbolTableRecord
100
AcDbDimStyleTableRecord
  2
STANDARD
 70
0
  3

  4

 40
1.0
 41
3.5
 42
0.0625
 43
0.38
 44
0.18
 45
0.0
 46
0.0
 47
0.005
 48
0.005
140
3.5
141
0.09
142
0.0
143
25.4
144
1.0
145
0.0
146
1.0
147
0.09
 71
1.0
 72
0.0
 73
0
 74
0
 75
0
 76
0
 77
1
 78
8
170
0
171
2
172
0
173
0
174
0
175
0
176
0
177
0
178
5
270
2
271
3
272
3
273
2
274
2
275
0
280
0
281
0
282
0
283
1
284
8
285
0
286
0
287
3
288
0
340
11
  0
ENDTAB
  0
ENDSEC
  0
SECTION
  2
BLOCKS
  0
BLOCK
  5
20
100
AcDbEntity
  8
0
100
AcDbBlockBegin
  2
*Model_Space
 70
0
 10
0.0
 20
0.0
 30
0.0
  3
*Model_Space
  1

  0
ENDBLK
  5
21
100
AcDbEntity
  8
0
100
AcDbBlockEnd
  0
BLOCK
  5
1C
100
AcDbEntity
  8
0
100
AcDbBlockBegin
  2
*Paper_Space
 70
0
 10
0.0
 20
0.0
 30
0.0
  3
*Paper_Space
  1

  0
ENDBLK
  5
1D
100
AcDbEntity
  8
0
100
AcDbBlockEnd
  0
ENDSEC
  0
SECTION
  2
ENTITIES
  0
MTEXT
  5
20B
100
AcDbEntity
  8
0
100
AcDbMText
 62
5
  6
CONTINUOUS
  7
STANDARD
 71
1
 72
1
 10
270.84010876
 20
153.10328846
 30
0.0
 11
0.0
 21
1.0
 31
0.0
 44
0.9
  1
RUD
 40
5.0
 41
13.3333333333
  0
MTEXT
  5
20C
100
AcDbEntity
  8
0
100
AcDbMText
 62
5
  6
CONTINUOUS
  7
STANDARD
 71
1
 72
1
 10
293.2151948999
 20
148.9493376352
 30
0.0
 11
0.0
 21
1.0
 31
0.0
 44
0.9
  1
IRG16
 40
5.0
 41
18.8095238095
  0
LINE
  5
20D
100
AcDbEntity
  8
0
100
AcDbLine
 62
7
  6
CONTINUOUS
 10
0.0
 20
0.0
 11
0.0
 21
297.0
  0
LINE
  5
20E
100
AcDbEntity
  8
0
100
AcDbLine
 62
7
  6
CONTINUOUS
 10
0.0
 20
0.0
 11
420.0
 21
0.0
  0
LINE
  5
20F
100
AcDbEntity
  8
0
100
AcDbLine
 62
7
  6
CONTINUOUS
 10
0.0
 20
297.0
 11
420.0
 21
297.0
  0
LINE
  5
210
100
AcDbEntity
  8
0
100
AcDbLine
 62
7
  6
CONTINUOUS
 10
420.0
 20
0.0
 11
420.0
 21
297.0
  0
LINE
  5
211
100
AcDbEntity
  8
RUNDUNGEN
100
AcDbLine
 62
7
  6
CONTINUOUS
 10
184.0979730534
 20
102.2154354917
 11
183.9834348062
 21
102.2145608401
  0
LINE
  5
212
100
AcDbEntity
  8
RUNDUNGEN
100
AcDbLine
 62
7
  6
CONTINUOUS
 10
183.9834348062
 20
102.2145608401
 11
176.8692316316
 21
102.2145608401
  0
LINE
  5
213
100
AcDbEntity
  8
0
100
AcDbLine
 62
7
  6
CONTINUOUS
 10
176.8692316316
 20
102.2145608401
 11
176.8336162617
 21
102.2145608401
  0
LINE
  5
214
100
AcDbEntity
  8
0
100
AcDbLine
 62
7
  6
CONTINUOUS
 10
115.1332533508
 20
102.2145608401
 11
115.0976379809
 21
102.2145608401
  0
LINE
  5
215
100
AcDbEntity
  8
RUNDUNGEN
100
AcDbLine
 62
7
  6
CONTINUOUS
 10
115.0976379809
 20
102.2145608401
 11
107.9834348062
 21
102.2145608401
  0
LINE
  5
216
100
AcDbEntity
  8
RUNDUNGEN
100
AcDbLine
 62
7
  6
CONTINUOUS
 10
107.9834348062
 20
102.2145608401
 11
107.8688965591
 21
102.2154354917
  0
LINE
  5
217
100
AcDbEntity
  8
RUNDUNGEN
100
AcDbLine
 62
7
  6
CONTINUOUS
 10
107.8688965591
 20
102.2154354917
 11
100.4834348062
 21
114.2168108401
  0
LINE
  5
218
100
AcDbEntity
  8
0
100
AcDbLine
 62
7
  6
CONTINUOUS
 10
118.2897969803
 20
246.6813486011
 11
98.0166470453
 21
226.408198666
  0
LINE
  5
219
100
AcDbEntity
  8
0
100
AcDbLine
 62
7
  6
CONTINUOUS
 10
98.0166470453
 20
226.408198666
 11
90.5961591543
 21
198.7145608401
  0
LINE
  5
21A
100
AcDbEntity
  8
BEZUGSACHSEN
100
AcDbLine
 62
7
  6
CONTINUOUS
 10
136.7334348062
 20
117.3187608401
 11
155.2334348062
 21
117.3187608401
  0
LINE
  5
21B
100
AcDbEntity
  8
BEZUGSACHSEN
100
AcDbLine
 62
7
  6
CONTINUOUS
 10
136.7334348062
 20
123.3566319933
 11
155.2334348062
 21
123.3566319933
  0
LINE
  5
21C
100
AcDbEntity
  8
0
100
AcDbLine
 62
7
  6
CONTINUOUS
 10
98.0166470453
 20
155.0354314897
 11
100.4834348062
 21
143.4301075157
  0
LINE
  5
21D
100
AcDbEntity
  8
0
100
AcDbLine
 62
7
  6
CONTINUOUS
 10
98.0166470453
 20
155.0354314897
 11
98.0166470453
 21
171.0209230141
  0
LINE
  5
21E
100
AcDbEntity
  8
RUNDUNGEN
100
AcDbLine
 62
7
  6
CONTINUOUS
 10
100.4834348062
 20
114.2168108401
 11
100.4834348062
 21
165.7145608401
  0
LINE
  5
21F
100
AcDbEntity
  8
BEZUGSACHSEN
100
AcDbLine
 62
2
  6
CENTER
 10
117.6834348062
 20
129.0145608401
 11
98.9677967152
 21
129.0145608401
  0
LINE
  5
220
100
AcDbEntity
  8
BEZUGSACHSEN
100
AcDbLine
 62
2
  6
CENTER
 10
117.6834348062
 20
129.0145608401
 11
193.2713310187
 21
129.0145608401
  0
LINE
  5
221
100
AcDbEntity
  8
BEZUGSACHSEN
100
AcDbLine
 62
7
  6
CONTINUOUS
 10
136.7334348062
 20
133.8808896868
 11
155.2334348062
 21
133.8808896868
  0
LINE
  5
222
100
AcDbEntity
  8
0
100
AcDbLine
 62
7
  6
CONTINUOUS
 10
90.5961591543
 20
198.7145608401
 11
98.0166470453
 21
171.0209230141
  0
LINE
  5
223
100
AcDbEntity
  8
BEZUGSACHSEN
100
AcDbLine
 62
7
  6
CONTINUOUS
 10
136.7334348062
 20
139.9187608401
 11
155.2334348062
 21
139.9187608401
  0
LINE
  5
224
100
AcDbEntity
  8
0
100
AcDbLine
 62
7
  6
CONTINUOUS
 10
112.0368085211
 20
165.7842384122
 11
112.0368085211
 21
158.1520384122
  0
LINE
  5
225
100
AcDbEntity
  8
0
100
AcDbLine
 62
7
  6
CONTINUOUS
 10
112.9908335211
 20
158.1520384122
 11
112.9908335211
 21
161.5621703755
  0
LINE
  5
226
100
AcDbEntity
  8
0
100
AcDbLine
 62
7
  6
CONTINUOUS
 10
112.9908335211
 20
162.5364936636
 11
112.9908335211
 21
164.9723023388
  0
LINE
  5
227
100
AcDbEntity
  8
0
100
AcDbLine
 62
7
  6
CONTINUOUS
 10
119.8280129911
 20
159.2887490287
 11
120.4640290512
 21
158.6392001131
  0
LINE
  5
228
100
AcDbEntity
  8
0
100
AcDbLine
 62
7
  6
CONTINUOUS
 10
117.7609585211
 20
164.4851406947
 11
117.2839460211
 21
165.1346895534
  0
LINE
  5
229
100
AcDbEntity
  8
0
100
AcDbLine
 62
7
  6
CONTINUOUS
 10
120.7820379911
 20
159.6135235718
 11
120.4640290512
 21
160.1006852159
  0
LINE
  5
22A
100
AcDbEntity
  8
0
100
AcDbLine
 62
7
  6
CONTINUOUS
 10
119.5100045061
 20
159.9382980012
 11
119.8280129911
 21
159.2887490287
  0
LINE
  5
22B
100
AcDbEntity
  8
0
100
AcDbLine
 62
7
  6
CONTINUOUS
 10
118.0789670061
 20
158.1520384122
 11
116.6479295061
 21
161.8869448048
  0
LINE
  5
22C
100
AcDbEntity
  8
0
100
AcDbLine
 62
7
  6
CONTINUOUS
 10
115.6939042787
 20
161.5621703755
 11
116.9659375362
 21
158.1520384122
  0
LINE
  5
22D
100
AcDbEntity
  8
0
100
AcDbLine
 62
7
  6
CONTINUOUS
 10
116.8069335211
 20
164.4851406947
 11
116.9659375362
 21
163.9979790507
  0
LINE
  5
22E
100
AcDbEntity
  8
0
100
AcDbLine
 62
7
  6
CONTINUOUS
 10
117.9199625362
 20
163.9979790507
 11
117.7609585211
 21
164.4851406947
  0
LINE
  5
22F
100
AcDbEntity
  8
0
100
AcDbLine
 62
7
  6
CONTINUOUS
 10
116.9659375362
 20
163.9979790507
 11
116.9659375362
 21
163.5108169517
  0
LINE
  5
230
100
AcDbEntity
  8
BEZUGSACHSEN
100
AcDbLine
 62
2
  6
CENTER
 10
117.6834348062
 20
129.0145608401
 11
117.6834348062
 21
123.0145608401
  0
LINE
  5
231
100
AcDbEntity
  8
BEZUGSACHSEN
100
AcDbLine
 62
2
  6
CENTER
 10
117.6834348062
 20
129.0145608401
 11
117.6834348062
 21
135.0145608401
  0
LINE
  5
232
100
AcDbEntity
  8
0
100
AcDbLine
 62
7
  6
CONTINUOUS
 10
117.9199625362
 20
163.348429737
 11
117.9199625362
 21
163.9979790507
  0
LINE
  5
233
100
AcDbEntity
  8
0
100
AcDbLine
 62
7
  6
CONTINUOUS
 10
119.3510000362
 20
165.7842384122
 11
119.3510000362
 21
160.7502340746
  0
LINE
  5
234
100
AcDbEntity
  8
0
100
AcDbLine
 62
7
  6
CONTINUOUS
 10
120.3050254911
 20
160.7502340746
 11
120.3050254911
 21
165.7842384122
  0
LINE
  5
235
100
AcDbEntity
  8
BEZUGSACHSEN
100
AcDbLine
 62
7
  6
CONTINUOUS
 10
120.5933552902
 20
129.7441927863
 11
120.5933552902
 21
131.8515608401
  0
LINE
  5
236
100
AcDbEntity
  8
0
100
AcDbLine
 62
7
  6
CONTINUOUS
 10
180.1776688931
 20
158.1520384122
 11
181.0101585391
 21
158.3144256411
  0
LINE
  5
237
100
AcDbEntity
  8
0
100
AcDbLine
 62
7
  6
CONTINUOUS
 10
121.1000460211
 20
158.3144256411
 11
121.8950665512
 21
158.1520384122
  0
LINE
  5
238
100
AcDbEntity
  8
0
100
AcDbLine
 62
7
  6
CONTINUOUS
 10
121.8950665512
 20
159.126361814
 11
121.2590504911
 21
159.2887490287
  0
LINE
  5
239
100
AcDbEntity
  8
0
100
AcDbLine
 62
7
  6
CONTINUOUS
 10
120.4640290512
 20
158.6392001131
 11
121.1000460211
 21
158.3144256411
  0
LINE
  5
23A
100
AcDbEntity
  8
0
100
AcDbLine
 62
7
  6
CONTINUOUS
 10
121.2590504911
 20
159.2887490287
 11
120.7820379911
 21
159.6135235718
  0
LINE
  5
23B
100
AcDbEntity
  8
0
100
AcDbLine
 62
7
  6
CONTINUOUS
 10
117.2839460211
 20
165.1346895534
 11
116.6479295061
 21
165.6218511975
  0
LINE
  5
23C
100
AcDbEntity
  8
0
100
AcDbLine
 62
7
  6
CONTINUOUS
 10
116.4889250362
 20
164.8099151241
 11
116.8069335211
 21
164.4851406947
  0
LINE
  5
23D
100
AcDbEntity
  8
0
100
AcDbLine
 62
7
  6
CONTINUOUS
 10
120.4640290512
 20
160.1006852159
 11
120.3050254911
 21
160.7502340746
  0
LINE
  5
23E
100
AcDbEntity
  8
0
100
AcDbLine
 62
7
  6
CONTINUOUS
 10
119.3510000362
 20
160.7502340746
 11
119.5100045061
 21
159.9382980012
  0
LINE
  5
23F
100
AcDbEntity
  8
0
100
AcDbLine
 62
7
  6
CONTINUOUS
 10
124.1211254911
 20
165.7842384122
 11
124.1211254911
 21
160.7502340746
  0
LINE
  5
240
100
AcDbEntity
  8
0
100
AcDbLine
 62
7
  6
CONTINUOUS
 10
125.0751504911
 20
160.7502340746
 11
125.0751504911
 21
165.7842384122
  0
LINE
  5
241
100
AcDbEntity
  8
0
100
AcDbLine
 62
7
  6
CONTINUOUS
 10
126.3471835211
 20
165.7842384122
 11
126.3471835211
 21
158.1520384122
  0
LINE
  5
242
100
AcDbEntity
  8
0
100
AcDbLine
 62
7
  6
CONTINUOUS
 10
127.3012085211
 20
159.126361814
 11
127.3012085211
 21
164.8099151241
  0
LINE
  5
243
100
AcDbEntity
  8
0
100
AcDbLine
 62
7
  6
CONTINUOUS
 10
116.9659375362
 20
163.5108169517
 11
116.8069335211
 21
163.0236553076
  0
LINE
  5
244
100
AcDbEntity
  8
0
100
AcDbLine
 62
7
  6
CONTINUOUS
 10
117.7609585211
 20
162.861268093
 11
117.9199625362
 21
163.348429737
  0
LINE
  5
245
100
AcDbEntity
  8
0
100
AcDbLine
 62
7
  6
CONTINUOUS
 10
170.3542988823
 20
159.2887490287
 11
169.6883083087
 21
159.126361814
  0
LINE
  5
246
100
AcDbEntity
  8
0
100
AcDbLine
 62
7
  6
CONTINUOUS
 10
167.5238365629
 20
164.6475279094
 11
168.1898280892
 21
164.8099151241
  0
LINE
  5
247
100
AcDbEntity
  8
0
100
AcDbLine
 62
7
  6
CONTINUOUS
 10
169.6883083087
 20
158.1520384122
 11
170.5207970021
 21
158.3144256411
  0
LINE
  5
248
100
AcDbEntity
  8
0
100
AcDbLine
 62
7
  6
CONTINUOUS
 10
179.3451811525
 20
163.0236553076
 11
178.5126915065
 21
162.861268093
  0
LINE
  5
249
100
AcDbEntity
  8
0
100
AcDbLine
 62
7
  6
CONTINUOUS
 10
179.3451811525
 20
165.7842384122
 11
178.5126915065
 21
165.6218511975
  0
LINE
  5
24A
100
AcDbEntity
  8
0
100
AcDbLine
 62
7
  6
CONTINUOUS
 10
112.0368085211
 20
158.1520384122
 11
112.9908335211
 21
158.1520384122
  0
LINE
  5
24B
100
AcDbEntity
  8
0
100
AcDbLine
 62
7
  6
CONTINUOUS
 10
116.9659375362
 20
158.1520384122
 11
118.0789670061
 21
158.1520384122
  0
LINE
  5
24C
100
AcDbEntity
  8
0
100
AcDbLine
 62
7
  6
CONTINUOUS
 10
121.8950665512
 20
158.1520384122
 11
122.5310835211
 21
158.1520384122
  0
LINE
  5
24D
100
AcDbEntity
  8
0
100
AcDbLine
 62
7
  6
CONTINUOUS
 10
126.3471835211
 20
158.1520384122
 11
130.1632835211
 21
158.1520384122
  0
LINE
  5
24E
100
AcDbEntity
  8
0
100
AcDbLine
 62
7
  6
CONTINUOUS
 10
155.5359948062
 20
158.1520384122
 11
156.5349816193
 21
158.1520384122
  0
LINE
  5
24F
100
AcDbEntity
  8
0
100
AcDbLine
 62
7
  6
CONTINUOUS
 10
157.8669639573
 20
158.1520384122
 11
158.8659507704
 21
158.1520384122
  0
LINE
  5
250
100
AcDbEntity
  8
0
100
AcDbLine
 62
7
  6
CONTINUOUS
 10
163.0283959041
 20
158.1520384122
 11
164.1938808369
 21
158.1520384122
  0
LINE
  5
251
100
AcDbEntity
  8
0
100
AcDbLine
 62
7
  6
CONTINUOUS
 10
168.1898280892
 20
158.1520384122
 11
169.6883083087
 21
158.1520384122
  0
LINE
  5
252
100
AcDbEntity
  8
0
100
AcDbLine
 62
7
  6
CONTINUOUS
 10
174.3502470872
 20
158.1520384122
 11
175.3492339003
 21
158.1520384122
  0
LINE
  5
253
100
AcDbEntity
  8
0
100
AcDbLine
 62
7
  6
CONTINUOUS
 10
179.3451811525
 20
158.1520384122
 11
180.1776688931
 21
158.1520384122
  0
LINE
  5
254
100
AcDbEntity
  8
0
100
AcDbLine
 62
7
  6
CONTINUOUS
 10
180.3441679656
 20
158.9639745993
 11
179.1786820801
 21
158.9639745993
  0
LINE
  5
255
100
AcDbEntity
  8
0
100
AcDbLine
 62
7
  6
CONTINUOUS
 10
169.6883083087
 20
159.126361814
 11
168.1898280892
 21
159.126361814
  0
LINE
  5
256
100
AcDbEntity
  8
0
100
AcDbLine
 62
7
  6
CONTINUOUS
 10
130.1632835211
 20
159.126361814
 11
127.3012085211
 21
159.126361814
  0
LINE
  5
257
100
AcDbEntity
  8
0
100
AcDbLine
 62
7
  6
CONTINUOUS
 10
122.5310835211
 20
159.126361814
 11
121.8950665512
 21
159.126361814
  0
LINE
  5
258
100
AcDbEntity
  8
0
100
AcDbLine
 62
7
  6
CONTINUOUS
 10
116.6479295061
 20
165.6218511975
 11
115.8529085211
 21
165.7842384122
  0
LINE
  5
259
100
AcDbEntity
  8
0
100
AcDbLine
 62
7
  6
CONTINUOUS
 10
116.0119125362
 20
164.9723023388
 11
116.4889250362
 21
164.8099151241
  0
LINE
  5
25A
100
AcDbEntity
  8
0
100
AcDbLine
 62
7
  6
CONTINUOUS
 10
131.5943210211
 20
165.2970767681
 11
130.958304961
 21
165.6218511975
  0
LINE
  5
25B
100
AcDbEntity
  8
0
100
AcDbLine
 62
7
  6
CONTINUOUS
 10
130.7992995813
 20
164.6475279094
 11
131.2763120813
 21
164.32275348
  0
LINE
  5
25C
100
AcDbEntity
  8
0
100
AcDbLine
 62
7
  6
CONTINUOUS
 10
132.2303370813
 20
164.6475279094
 11
131.5943210211
 21
165.2970767681
  0
LINE
  5
25D
100
AcDbEntity
  8
0
100
AcDbLine
 62
7
  6
CONTINUOUS
 10
131.2763120813
 20
164.32275348
 11
131.5943210211
 21
163.8355913811
  0
LINE
  5
25E
100
AcDbEntity
  8
0
100
AcDbLine
 62
7
  6
CONTINUOUS
 10
132.5483460211
 20
163.9979790507
 11
132.2303370813
 21
164.6475279094
  0
LINE
  5
25F
100
AcDbEntity
  8
0
100
AcDbLine
 62
7
  6
CONTINUOUS
 10
131.7533245813
 20
163.1860425223
 11
131.7533245813
 21
160.7502340746
  0
LINE
  5
260
100
AcDbEntity
  8
0
100
AcDbLine
 62
7
  6
CONTINUOUS
 10
132.7073495813
 20
160.7502340746
 11
132.7073495813
 21
163.1860425223
  0
LINE
  5
261
100
AcDbEntity
  8
0
100
AcDbLine
 62
7
  6
CONTINUOUS
 10
124.9161460211
 20
159.9382980012
 11
125.0751504911
 21
160.7502340746
  0
LINE
  5
262
100
AcDbEntity
  8
0
100
AcDbLine
 62
7
  6
CONTINUOUS
 10
124.1211254911
 20
160.7502340746
 11
123.9621210211
 21
160.1006852159
  0
LINE
  5
263
100
AcDbEntity
  8
0
100
AcDbLine
 62
7
  6
CONTINUOUS
 10
117.2839460211
 20
162.2117192342
 11
117.7609585211
 21
162.861268093
  0
LINE
  5
264
100
AcDbEntity
  8
0
100
AcDbLine
 62
7
  6
CONTINUOUS
 10
130.7992995813
 20
159.2887490287
 11
130.1632835211
 21
159.126361814
  0
LINE
  5
265
100
AcDbEntity
  8
0
100
AcDbLine
 62
7
  6
CONTINUOUS
 10
123.1671004911
 20
159.2887490287
 11
122.5310835211
 21
159.126361814
  0
LINE
  5
266
100
AcDbEntity
  8
0
100
AcDbLine
 62
7
  6
CONTINUOUS
 10
130.1632835211
 20
158.1520384122
 11
130.958304961
 21
158.3144256411
  0
LINE
  5
267
100
AcDbEntity
  8
0
100
AcDbLine
 62
7
  6
CONTINUOUS
 10
122.5310835211
 20
158.1520384122
 11
123.3261040512
 21
158.3144256411
  0
LINE
  5
268
100
AcDbEntity
  8
0
100
AcDbLine
 62
7
  6
CONTINUOUS
 10
168.1898280892
 20
165.7842384122
 11
167.3573384431
 21
165.6218511975
  0
LINE
  5
269
100
AcDbEntity
  8
0
100
AcDbLine
 62
7
  6
CONTINUOUS
 10
169.521810189
 20
161.3997831608
 11
171.0202904086
 21
161.3997831608
  0
LINE
  5
26A
100
AcDbEntity
  8
0
100
AcDbLine
 62
7
  6
CONTINUOUS
 10
112.9908335211
 20
161.5621703755
 11
115.6939042787
 21
161.5621703755
  0
LINE
  5
26B
100
AcDbEntity
  8
0
100
AcDbLine
 62
7
  6
CONTINUOUS
 10
158.8659507704
 20
161.5621703755
 11
161.696413328
 21
161.5621703755
  0
LINE
  5
26C
100
AcDbEntity
  8
0
100
AcDbLine
 62
7
  6
CONTINUOUS
 10
179.1786820801
 20
162.2117192342
 11
180.3441679656
 21
162.2117192342
  0
LINE
  5
26D
100
AcDbEntity
  8
0
100
AcDbLine
 62
7
  6
CONTINUOUS
 10
172.0192772216
 20
162.3741064489
 11
169.521810189
 21
162.3741064489
  0
LINE
  5
26E
100
AcDbEntity
  8
0
100
AcDbLine
 62
7
  6
CONTINUOUS
 10
162.0294090911
 20
162.5364936636
 11
158.8659507704
 21
162.5364936636
  0
LINE
  5
26F
100
AcDbEntity
  8
0
100
AcDbLine
 62
7
  6
CONTINUOUS
 10
116.0119125362
 20
162.5364936636
 11
112.9908335211
 21
162.5364936636
  0
LINE
  5
270
100
AcDbEntity
  8
0
100
AcDbLine
 62
7
  6
CONTINUOUS
 10
180.1776688931
 20
163.0236553076
 11
179.3451811525
 21
163.0236553076
  0
LINE
  5
271
100
AcDbEntity
  8
0
100
AcDbLine
 62
7
  6
CONTINUOUS
 10
171.0202904086
 20
163.8355913811
 11
172.0192772216
 21
163.8355913811
  0
LINE
  5
272
100
AcDbEntity
  8
0
100
AcDbLine
 62
7
  6
CONTINUOUS
 10
181.5096519457
 20
163.9979790507
 11
182.3421415917
 21
163.9979790507
  0
LINE
  5
273
100
AcDbEntity
  8
0
100
AcDbLine
 62
7
  6
CONTINUOUS
 10
127.3012085211
 20
164.8099151241
 11
130.1632835211
 21
164.8099151241
  0
LINE
  5
274
100
AcDbEntity
  8
0
100
AcDbLine
 62
7
  6
CONTINUOUS
 10
168.1898280892
 20
164.8099151241
 11
169.6883083087
 21
164.8099151241
  0
LINE
  5
275
100
AcDbEntity
  8
0
100
AcDbLine
 62
7
  6
CONTINUOUS
 10
112.9908335211
 20
164.9723023388
 11
116.0119125362
 21
164.9723023388
  0
LINE
  5
276
100
AcDbEntity
  8
0
100
AcDbLine
 62
7
  6
CONTINUOUS
 10
158.8659507704
 20
164.9723023388
 11
162.0294090911
 21
164.9723023388
  0
LINE
  5
277
100
AcDbEntity
  8
0
100
AcDbLine
 62
7
  6
CONTINUOUS
 10
179.1786820801
 20
164.9723023388
 11
180.1776688931
 21
164.9723023388
  0
LINE
  5
278
100
AcDbEntity
  8
0
100
AcDbLine
 62
7
  6
CONTINUOUS
 10
180.0111717261
 20
165.7842384122
 11
179.3451811525
 21
165.7842384122
  0
LINE
  5
279
100
AcDbEntity
  8
0
100
AcDbLine
 62
7
  6
CONTINUOUS
 10
175.3492339003
 20
165.7842384122
 11
174.3502470872
 21
165.7842384122
  0
LINE
  5
27A
100
AcDbEntity
  8
0
100
AcDbLine
 62
7
  6
CONTINUOUS
 10
169.6883083087
 20
165.7842384122
 11
168.1898280892
 21
165.7842384122
  0
LINE
  5
27B
100
AcDbEntity
  8
0
100
AcDbLine
 62
7
  6
CONTINUOUS
 10
161.8629114477
 20
165.7842384122
 11
157.8669639573
 21
165.7842384122
  0
LINE
  5
27C
100
AcDbEntity
  8
0
100
AcDbLine
 62
7
  6
CONTINUOUS
 10
156.5349816193
 20
165.7842384122
 11
155.5359948062
 21
165.7842384122
  0
LINE
  5
27D
100
AcDbEntity
  8
0
100
AcDbLine
 62
7
  6
CONTINUOUS
 10
130.1632835211
 20
165.7842384122
 11
126.3471835211
 21
165.7842384122
  0
LINE
  5
27E
100
AcDbEntity
  8
0
100
AcDbLine
 62
7
  6
CONTINUOUS
 10
125.0751504911
 20
165.7842384122
 11
124.1211254911
 21
165.7842384122
  0
LINE
  5
27F
100
AcDbEntity
  8
0
100
AcDbLine
 62
7
  6
CONTINUOUS
 10
120.3050254911
 20
165.7842384122
 11
119.3510000362
 21
165.7842384122
  0
LINE
  5
280
100
AcDbEntity
  8
0
100
AcDbLine
 62
7
  6
CONTINUOUS
 10
115.8529085211
 20
165.7842384122
 11
112.0368085211
 21
165.7842384122
  0
LINE
  5
281
100
AcDbEntity
  8
0
100
AcDbLine
 62
7
  6
CONTINUOUS
 10
167.3573384431
 20
158.3144256411
 11
168.1898280892
 21
158.1520384122
  0
LINE
  5
282
100
AcDbEntity
  8
0
100
AcDbLine
 62
7
  6
CONTINUOUS
 10
178.5126915065
 20
158.3144256411
 11
179.3451811525
 21
158.1520384122
  0
LINE
  5
283
100
AcDbEntity
  8
0
100
AcDbLine
 62
7
  6
CONTINUOUS
 10
130.958304961
 20
165.6218511975
 11
130.1632835211
 21
165.7842384122
  0
LINE
  5
284
100
AcDbEntity
  8
0
100
AcDbLine
 62
7
  6
CONTINUOUS
 10
168.1898280892
 20
159.126361814
 11
167.5238365629
 21
159.2887490287
  0
LINE
  5
285
100
AcDbEntity
  8
0
100
AcDbLine
 62
7
  6
CONTINUOUS
 10
130.1632835211
 20
164.8099151241
 11
130.7992995813
 21
164.6475279094
  0
LINE
  5
286
100
AcDbEntity
  8
0
100
AcDbLine
 62
7
  6
CONTINUOUS
 10
131.5943210211
 20
163.8355913811
 11
131.7533245813
 21
163.1860425223
  0
LINE
  5
287
100
AcDbEntity
  8
0
100
AcDbLine
 62
7
  6
CONTINUOUS
 10
132.7073495813
 20
163.1860425223
 11
132.5483460211
 21
163.9979790507
  0
LINE
  5
288
100
AcDbEntity
  8
0
100
AcDbLine
 62
7
  6
CONTINUOUS
 10
136.7334348062
 20
128.7740608401
 11
136.7334348062
 21
110.4233214217
  0
LINE
  5
289
100
AcDbEntity
  8
KONSTRUKTIONSELEMENTE
100
AcDbLine
 62
7
  6
CONTINUOUS
 10
136.7334348062
 20
128.7740608401
 11
136.7334348062
 21
151.9645608401
  0
LINE
  5
28A
100
AcDbEntity
  8
0
100
AcDbLine
 62
7
  6
CONTINUOUS
 10
132.5483460211
 20
159.9382980012
 11
132.7073495813
 21
160.7502340746
  0
LINE
  5
28B
100
AcDbEntity
  8
0
100
AcDbLine
 62
7
  6
CONTINUOUS
 10
131.7533245813
 20
160.7502340746
 11
131.5943210211
 21
160.1006852159
  0
LINE
  5
28C
100
AcDbEntity
  8
0
100
AcDbLine
 62
7
  6
CONTINUOUS
 10
124.5981379911
 20
159.2887490287
 11
124.9161460211
 21
159.9382980012
  0
LINE
  5
28D
100
AcDbEntity
  8
0
100
AcDbLine
 62
7
  6
CONTINUOUS
 10
123.9621210211
 20
160.1006852159
 11
123.6441129911
 21
159.6135235718
  0
LINE
  5
28E
100
AcDbEntity
  8
0
100
AcDbLine
 62
7
  6
CONTINUOUS
 10
116.8069335211
 20
163.0236553076
 11
116.4889250362
 21
162.6988808783
  0
LINE
  5
28F
100
AcDbEntity
  8
0
100
AcDbLine
 62
7
  6
CONTINUOUS
 10
162.695400141
 20
165.6218511975
 11
161.8629114477
 21
165.7842384122
  0
LINE
  5
290
100
AcDbEntity
  8
0
100
AcDbLine
 62
7
  6
CONTINUOUS
 10
181.0101585391
 20
162.861268093
 11
180.1776688931
 21
163.0236553076
  0
LINE
  5
291
100
AcDbEntity
  8
0
100
AcDbLine
 62
7
  6
CONTINUOUS
 10
170.5207970021
 20
165.6218511975
 11
169.6883083087
 21
165.7842384122
  0
LINE
  5
292
100
AcDbEntity
  8
0
100
AcDbLine
 62
7
  6
CONTINUOUS
 10
180.8436613721
 20
165.6218511975
 11
180.0111717261
 21
165.7842384122
  0
LINE
  5
293
100
AcDbEntity
  8
0
100
AcDbLine
 62
7
  6
CONTINUOUS
 10
169.6883083087
 20
164.8099151241
 11
170.3542988823
 21
164.6475279094
  0
LINE
  5
294
100
AcDbEntity
  8
0
100
AcDbLine
 62
7
  6
CONTINUOUS
 10
179.1786820801
 20
158.9639745993
 11
178.6791886735
 21
159.126361814
  0
LINE
  5
295
100
AcDbEntity
  8
0
100
AcDbLine
 62
7
  6
CONTINUOUS
 10
162.0294090911
 20
164.9723023388
 11
162.5289024976
 21
164.8099151241
  0
LINE
  5
296
100
AcDbEntity
  8
0
100
AcDbLine
 62
7
  6
CONTINUOUS
 10
166.6913478696
 20
158.6392001131
 11
167.3573384431
 21
158.3144256411
  0
LINE
  5
297
100
AcDbEntity
  8
BEZUGSACHSEN
100
AcDbLine
 62
2
  6
CENTER
 10
145.9834348062
 20
198.7145608401
 11
145.9834348062
 21
114.4428444075
  0
LINE
  5
298
100
AcDbEntity
  8
BEZUGSACHSEN
100
AcDbLine
 62
2
  6
CENTER
 10
145.9834348062
 20
198.7145608401
 11
145.9834348062
 21
257.101836492
  0
LINE
  5
299
100
AcDbEntity
  8
0
100
AcDbLine
 62
7
  6
CONTINUOUS
 10
132.2303370813
 20
159.2887490287
 11
132.5483460211
 21
159.9382980012
  0
LINE
  5
29A
100
AcDbEntity
  8
0
100
AcDbLine
 62
7
  6
CONTINUOUS
 10
131.5943210211
 20
160.1006852159
 11
131.2763120813
 21
159.6135235718
  0
LINE
  5
29B
100
AcDbEntity
  8
0
100
AcDbLine
 62
7
  6
CONTINUOUS
 10
123.9621210211
 20
158.6392001131
 11
124.5981379911
 21
159.2887490287
  0
LINE
  5
29C
100
AcDbEntity
  8
RUNDUNGEN
100
AcDbLine
 62
7
  6
CONTINUOUS
 10
176.8443458483
 20
175.5630300684
 11
172.2323704595
 21
175.5630300684
  0
LINE
  5
29D
100
AcDbEntity
  8
RUNDUNGEN
100
AcDbLine
 62
7
  6
CONTINUOUS
 10
119.734499153
 20
175.5630300684
 11
115.1225230303
 21
175.5630300684
  0
LINE
  5
29E
100
AcDbEntity
  8
RUNDUNGEN
100
AcDbLine
 62
7
  6
CONTINUOUS
 10
128.0088208007
 20
175.7145608401
 11
163.9580488118
 21
175.7145608401
  0
LINE
  5
29F
100
AcDbEntity
  8
0
100
AcDbLine
 62
7
  6
CONTINUOUS
 10
180.3441679656
 20
162.2117192342
 11
180.8436613721
 21
162.0493320195
  0
LINE
  5
2A0
100
AcDbEntity
  8
0
100
AcDbLine
 62
7
  6
CONTINUOUS
 10
180.1776688931
 20
164.9723023388
 11
180.6771622996
 21
164.8099151241
  0
LINE
  5
2A1
100
AcDbEntity
  8
0
100
AcDbLine
 62
7
  6
CONTINUOUS
 10
171.1867885283
 20
165.2970767681
 11
170.5207970021
 21
165.6218511975
  0
LINE
  5
2A2
100
AcDbEntity
  8
0
100
AcDbLine
 62
7
  6
CONTINUOUS
 10
177.6802018605
 20
158.8015873278
 11
178.5126915065
 21
158.3144256411
  0
LINE
  5
2A3
100
AcDbEntity
  8
0
100
AcDbLine
 62
7
  6
CONTINUOUS
 10
167.5238365629
 20
159.2887490287
 11
167.0243431564
 21
159.6135235718
  0
LINE
  5
2A4
100
AcDbEntity
  8
0
100
AcDbLine
 62
7
  6
CONTINUOUS
 10
163.3613916673
 20
165.1346895534
 11
162.695400141
 21
165.6218511975
  0
LINE
  5
2A5
100
AcDbEntity
  8
0
100
AcDbLine
 62
7
  6
CONTINUOUS
 10
166.0253563433
 20
159.2887490287
 11
166.6913478696
 21
158.6392001131
  0
LINE
  5
2A6
100
AcDbEntity
  8
0
100
AcDbLine
 62
7
  6
CONTINUOUS
 10
131.5943210211
 20
158.6392001131
 11
132.2303370813
 21
159.2887490287
  0
LINE
  5
2A7
100
AcDbEntity
  8
0
100
AcDbLine
 62
7
  6
CONTINUOUS
 10
123.6441129911
 20
159.6135235718
 11
123.1671004911
 21
159.2887490287
  0
LINE
  5
2A8
100
AcDbEntity
  8
0
100
AcDbLine
 62
7
  6
CONTINUOUS
 10
131.2763120813
 20
159.6135235718
 11
130.7992995813
 21
159.2887490287
  0
LINE
  5
2A9
100
AcDbEntity
  8
0
100
AcDbLine
 62
7
  6
CONTINUOUS
 10
116.6479295061
 20
161.8869448048
 11
117.2839460211
 21
162.2117192342
  0
LINE
  5
2AA
100
AcDbEntity
  8
0
100
AcDbLine
 62
7
  6
CONTINUOUS
 10
116.4889250362
 20
162.6988808783
 11
116.0119125362
 21
162.5364936636
  0
LINE
  5
2AB
100
AcDbEntity
  8
0
100
AcDbLine
 62
7
  6
CONTINUOUS
 10
181.8426481851
 20
162.3741064489
 11
181.0101585391
 21
162.861268093
  0
LINE
  5
2AC
100
AcDbEntity
  8
0
100
AcDbLine
 62
7
  6
CONTINUOUS
 10
181.6761491127
 20
165.1346895534
 11
180.8436613721
 21
165.6218511975
  0
LINE
  5
2AD
100
AcDbEntity
  8
0
100
AcDbLine
 62
7
  6
CONTINUOUS
 10
178.6791886735
 20
159.126361814
 11
178.179695267
 21
159.4511362434
  0
LINE
  5
2AE
100
AcDbEntity
  8
0
100
AcDbLine
 62
7
  6
CONTINUOUS
 10
170.3542988823
 20
164.6475279094
 11
170.8537922888
 21
164.32275348
  0
LINE
  5
2AF
100
AcDbEntity
  8
0
100
AcDbLine
 62
7
  6
CONTINUOUS
 10
180.8436613721
 20
162.0493320195
 11
181.3431547786
 21
161.7245575902
  0
LINE
  5
2B0
100
AcDbEntity
  8
0
100
AcDbLine
 62
7
  6
CONTINUOUS
 10
162.5289024976
 20
164.8099151241
 11
162.8618982608
 21
164.4851406947
  0
LINE
  5
2B1
100
AcDbEntity
  8
0
100
AcDbLine
 62
7
  6
CONTINUOUS
 10
163.8608845975
 20
164.4851406947
 11
163.3613916673
 21
165.1346895534
  0
LINE
  5
2B2
100
AcDbEntity
  8
0
100
AcDbLine
 62
7
  6
CONTINUOUS
 10
167.0243431564
 20
159.6135235718
 11
166.6913478696
 21
160.1006852159
  0
LINE
  5
2B3
100
AcDbEntity
  8
0
100
AcDbLine
 62
7
  6
CONTINUOUS
 10
155.2334348062
 20
110.4233214217
 11
155.2334348062
 21
128.7740608401
  0
LINE
  5
2B4
100
AcDbEntity
  8
KONSTRUKTIONSELEMENTE
100
AcDbLine
 62
7
  6
CONTINUOUS
 10
155.2334348062
 20
128.7740608401
 11
155.2334348062
 21
151.9645608401
  0
LINE
  5
2B5
100
AcDbEntity
  8
0
100
AcDbLine
 62
7
  6
CONTINUOUS
 10
155.5359948062
 20
165.7842384122
 11
155.5359948062
 21
158.1520384122
  0
LINE
  5
2B6
100
AcDbEntity
  8
0
100
AcDbLine
 62
7
  6
CONTINUOUS
 10
156.5349816193
 20
158.1520384122
 11
156.5349816193
 21
165.7842384122
  0
LINE
  5
2B7
100
AcDbEntity
  8
0
100
AcDbLine
 62
7
  6
CONTINUOUS
 10
157.8669639573
 20
165.7842384122
 11
157.8669639573
 21
158.1520384122
  0
LINE
  5
2B8
100
AcDbEntity
  8
0
100
AcDbLine
 62
7
  6
CONTINUOUS
 10
158.8659507704
 20
158.1520384122
 11
158.8659507704
 21
161.5621703755
  0
LINE
  5
2B9
100
AcDbEntity
  8
0
100
AcDbLine
 62
7
  6
CONTINUOUS
 10
158.8659507704
 20
162.5364936636
 11
158.8659507704
 21
164.9723023388
  0
LINE
  5
2BA
100
AcDbEntity
  8
0
100
AcDbLine
 62
7
  6
CONTINUOUS
 10
123.3261040512
 20
158.3144256411
 11
123.9621210211
 21
158.6392001131
  0
LINE
  5
2BB
100
AcDbEntity
  8
0
100
AcDbLine
 62
7
  6
CONTINUOUS
 10
130.958304961
 20
158.3144256411
 11
131.5943210211
 21
158.6392001131
  0
LINE
  5
2BC
100
AcDbEntity
  8
0
100
AcDbLine
 62
7
  6
CONTINUOUS
 10
180.6771622996
 20
164.8099151241
 11
181.1766557062
 21
164.4851406947
  0
LINE
  5
2BD
100
AcDbEntity
  8
0
100
AcDbLine
 62
7
  6
CONTINUOUS
 10
171.8527800546
 20
164.6475279094
 11
171.1867885283
 21
165.2970767681
  0
LINE
  5
2BE
100
AcDbEntity
  8
0
100
AcDbLine
 62
7
  6
CONTINUOUS
 10
181.3431547786
 20
161.7245575902
 11
181.6761491127
 21
161.3997831608
  0
LINE
  5
2BF
100
AcDbEntity
  8
0
100
AcDbLine
 62
7
  6
CONTINUOUS
 10
177.1807084539
 20
159.4511362434
 11
177.6802018605
 21
158.8015873278
  0
LINE
  5
2C0
100
AcDbEntity
  8
0
100
AcDbLine
 62
7
  6
CONTINUOUS
 10
165.6923610565
 20
159.9382980012
 11
166.0253563433
 21
159.2887490287
  0
LINE
  5
2C1
100
AcDbEntity
  8
0
100
AcDbLine
 62
7
  6
CONTINUOUS
 10
164.1938808369
 20
158.1520384122
 11
162.695400141
 21
161.8869448048
  0
LINE
  5
2C2
100
AcDbEntity
  8
0
100
AcDbLine
 62
7
  6
CONTINUOUS
 10
161.696413328
 20
161.5621703755
 11
163.0283959041
 21
158.1520384122
  0
LINE
  5
2C3
100
AcDbEntity
  8
0
100
AcDbLine
 62
7
  6
CONTINUOUS
 10
162.8618982608
 20
164.4851406947
 11
163.0283959041
 21
163.9979790507
  0
LINE
  5
2C4
100
AcDbEntity
  8
0
100
AcDbLine
 62
7
  6
CONTINUOUS
 10
164.0273827172
 20
163.9979790507
 11
163.8608845975
 21
164.4851406947
  0
LINE
  5
2C5
100
AcDbEntity
  8
0
100
AcDbLine
 62
7
  6
CONTINUOUS
 10
163.0283959041
 20
163.9979790507
 11
163.0283959041
 21
163.5108169517
  0
LINE
  5
2C6
100
AcDbEntity
  8
0
100
AcDbLine
 62
7
  6
CONTINUOUS
 10
164.0273827172
 20
163.348429737
 11
164.0273827172
 21
163.9979790507
  0
LINE
  5
2C7
100
AcDbEntity
  8
0
100
AcDbLine
 62
7
  6
CONTINUOUS
 10
165.5258629368
 20
163.1860425223
 11
165.5258629368
 21
160.7502340746
  0
LINE
  5
2C8
100
AcDbEntity
  8
0
100
AcDbLine
 62
7
  6
CONTINUOUS
 10
182.3421415917
 20
161.8869448048
 11
181.8426481851
 21
162.3741064489
  0
LINE
  5
2C9
100
AcDbEntity
  8
0
100
AcDbLine
 62
7
  6
CONTINUOUS
 10
178.179695267
 20
159.4511362434
 11
177.8467009329
 21
159.9382980012
  0
LINE
  5
2CA
100
AcDbEntity
  8
0
100
AcDbLine
 62
7
  6
CONTINUOUS
 10
170.8537922888
 20
164.32275348
 11
171.0202904086
 21
163.8355913811
  0
LINE
  5
2CB
100
AcDbEntity
  8
0
100
AcDbLine
 62
7
  6
CONTINUOUS
 10
166.6913478696
 20
160.1006852159
 11
166.5248497498
 21
160.7502340746
  0
LINE
  5
2CC
100
AcDbEntity
  8
0
100
AcDbLine
 62
7
  6
CONTINUOUS
 10
165.5258629368
 20
160.7502340746
 11
165.6923610565
 21
159.9382980012
  0
LINE
  5
2CD
100
AcDbEntity
  8
0
100
AcDbLine
 62
7
  6
CONTINUOUS
 10
166.5248497498
 20
160.7502340746
 11
166.5248497498
 21
163.1860425223
  0
LINE
  5
2CE
100
AcDbEntity
  8
0
100
AcDbLine
 62
7
  6
CONTINUOUS
 10
169.521810189
 20
162.3741064489
 11
169.521810189
 21
161.3997831608
  0
LINE
  5
2CF
100
AcDbEntity
  8
0
100
AcDbLine
 62
7
  6
CONTINUOUS
 10
171.0202904086
 20
161.3997831608
 11
171.0202904086
 21
160.1006852159
  0
LINE
  5
2D0
100
AcDbEntity
  8
KONSTRUKTIONSELEMENTE
100
AcDbLine
 62
7
  6
CONTINUOUS
 10
171.3735143223
 20
128.7740608401
 11
171.3735143223
 21
131.8515608401
  0
LINE
  5
2D1
100
AcDbEntity
  8
0
100
AcDbLine
 62
7
  6
CONTINUOUS
 10
165.6923610565
 20
163.9979790507
 11
165.5258629368
 21
163.1860425223
  0
LINE
  5
2D2
100
AcDbEntity
  8
0
100
AcDbLine
 62
7
  6
CONTINUOUS
 10
166.5248497498
 20
163.1860425223
 11
166.6913478696
 21
163.8355913811
  0
LINE
  5
2D3
100
AcDbEntity
  8
0
100
AcDbLine
 62
7
  6
CONTINUOUS
 10
163.0283959041
 20
163.5108169517
 11
162.8618982608
 21
163.0236553076
  0
LINE
  5
2D4
100
AcDbEntity
  8
0
100
AcDbLine
 62
7
  6
CONTINUOUS
 10
163.8608845975
 20
162.861268093
 11
164.0273827172
 21
163.348429737
  0
LINE
  5
2D5
100
AcDbEntity
  8
0
100
AcDbLine
 62
7
  6
CONTINUOUS
 10
166.0253563433
 20
164.6475279094
 11
165.6923610565
 21
163.9979790507
  0
LINE
  5
2D6
100
AcDbEntity
  8
0
100
AcDbLine
 62
7
  6
CONTINUOUS
 10
166.6913478696
 20
163.8355913811
 11
167.0243431564
 21
164.32275348
  0
LINE
  5
2D7
100
AcDbEntity
  8
0
100
AcDbLine
 62
7
  6
CONTINUOUS
 10
163.3613916673
 20
162.2117192342
 11
163.8608845975
 21
162.861268093
  0
LINE
  5
2D8
100
AcDbEntity
  8
0
100
AcDbLine
 62
7
  6
CONTINUOUS
 10
162.8618982608
 20
163.0236553076
 11
162.5289024976
 21
162.6988808783
  0
LINE
  5
2D9
100
AcDbEntity
  8
0
100
AcDbLine
 62
7
  6
CONTINUOUS
 10
166.6913478696
 20
165.2970767681
 11
166.0253563433
 21
164.6475279094
  0
LINE
  5
2DA
100
AcDbEntity
  8
0
100
AcDbLine
 62
7
  6
CONTINUOUS
 10
167.0243431564
 20
164.32275348
 11
167.5238365629
 21
164.6475279094
  0
LINE
  5
2DB
100
AcDbEntity
  8
0
100
AcDbLine
 62
7
  6
CONTINUOUS
 10
167.3573384431
 20
165.6218511975
 11
166.6913478696
 21
165.2970767681
  0
LINE
  5
2DC
100
AcDbEntity
  8
0
100
AcDbLine
 62
7
  6
CONTINUOUS
 10
162.695400141
 20
161.8869448048
 11
163.3613916673
 21
162.2117192342
  0
LINE
  5
2DD
100
AcDbEntity
  8
0
100
AcDbLine
 62
7
  6
CONTINUOUS
 10
162.5289024976
 20
162.6988808783
 11
162.0294090911
 21
162.5364936636
  0
LINE
  5
2DE
100
AcDbEntity
  8
0
100
AcDbLine
 62
7
  6
CONTINUOUS
 10
178.6791886735
 20
164.8099151241
 11
179.1786820801
 21
164.9723023388
  0
LINE
  5
2DF
100
AcDbEntity
  8
0
100
AcDbLine
 62
7
  6
CONTINUOUS
 10
178.6791886735
 20
162.0493320195
 11
179.1786820801
 21
162.2117192342
  0
LINE
  5
2E0
100
AcDbEntity
  8
BEZUGSACHSEN
100
AcDbLine
 62
2
  6
CENTER
 10
145.9834348062
 20
198.7145608401
 11
87.5961591543
 21
198.7145608401
  0
LINE
  5
2E1
100
AcDbEntity
  8
BEZUGSACHSEN
100
AcDbLine
 62
2
  6
CENTER
 10
145.9834348062
 20
198.7145608401
 11
204.3707104582
 21
198.7145608401
  0
LINE
  5
2E2
100
AcDbEntity
  8
0
100
AcDbLine
 62
7
  6
CONTINUOUS
 10
182.1756425192
 20
164.4851406947
 11
181.6761491127
 21
165.1346895534
  0
LINE
  5
2E3
100
AcDbEntity
  8
0
100
AcDbLine
 62
7
  6
CONTINUOUS
 10
181.1766557062
 20
164.4851406947
 11
181.5096519457
 21
163.9979790507
  0
LINE
  5
2E4
100
AcDbEntity
  8
0
100
AcDbLine
 62
7
  6
CONTINUOUS
 10
176.8477141199
 20
160.2630724305
 11
177.1807084539
 21
159.4511362434
  0
LINE
  5
2E5
100
AcDbEntity
  8
0
100
AcDbLine
 62
7
  6
CONTINUOUS
 10
177.8467009329
 20
159.9382980012
 11
177.6802018605
 21
160.4254596452
  0
LINE
  5
2E6
100
AcDbEntity
  8
0
100
AcDbLine
 62
7
  6
CONTINUOUS
 10
172.0192772216
 20
163.8355913811
 11
171.8527800546
 21
164.6475279094
  0
LINE
  5
2E7
100
AcDbEntity
  8
0
100
AcDbLine
 62
7
  6
CONTINUOUS
 10
172.0192772216
 20
159.9382980012
 11
172.0192772216
 21
162.3741064489
  0
LINE
  5
2E8
100
AcDbEntity
  8
0
100
AcDbLine
 62
7
  6
CONTINUOUS
 10
173.3512602742
 20
164.6475279094
 11
173.3512602742
 21
163.348429737
  0
LINE
  5
2E9
100
AcDbEntity
  8
0
100
AcDbLine
 62
7
  6
CONTINUOUS
 10
174.3502470872
 20
164.4851406947
 11
174.3502470872
 21
158.1520384122
  0
LINE
  5
2EA
100
AcDbEntity
  8
0
100
AcDbLine
 62
7
  6
CONTINUOUS
 10
175.3492339003
 20
158.1520384122
 11
175.3492339003
 21
165.7842384122
  0
LINE
  5
2EB
100
AcDbEntity
  8
0
100
AcDbLine
 62
7
  6
CONTINUOUS
 10
176.6812150474
 20
162.5364936636
 11
176.6812150474
 21
161.3997831608
  0
LINE
  5
2EC
100
AcDbEntity
  8
0
100
AcDbLine
 62
7
  6
CONTINUOUS
 10
177.5137046934
 20
162.2117192342
 11
177.5137046934
 21
162.5364936636
  0
LINE
  5
2ED
100
AcDbEntity
  8
0
100
AcDbLine
 62
7
  6
CONTINUOUS
 10
177.6802018605
 20
160.4254596452
 11
177.6802018605
 21
160.9126212893
  0
LINE
  5
2EE
100
AcDbEntity
  8
0
100
AcDbLine
 62
7
  6
CONTINUOUS
 10
171.8527800546
 20
159.2887490287
 11
172.0192772216
 21
159.9382980012
  0
LINE
  5
2EF
100
AcDbEntity
  8
0
100
AcDbLine
 62
7
  6
CONTINUOUS
 10
171.0202904086
 20
160.1006852159
 11
170.8537922888
 21
159.6135235718
  0
LINE
  5
2F0
100
AcDbEntity
  8
0
100
AcDbLine
 62
7
  6
CONTINUOUS
 10
174.3502470872
 20
165.7842384122
 11
173.3512602742
 21
164.6475279094
  0
LINE
  5
2F1
100
AcDbEntity
  8
0
100
AcDbLine
 62
7
  6
CONTINUOUS
 10
173.3512602742
 20
163.348429737
 11
174.3502470872
 21
164.4851406947
  0
LINE
  5
2F2
100
AcDbEntity
  8
0
100
AcDbLine
 62
7
  6
CONTINUOUS
 10
171.1867885283
 20
158.6392001131
 11
171.8527800546
 21
159.2887490287
  0
LINE
  5
2F3
100
AcDbEntity
  8
0
100
AcDbLine
 62
7
  6
CONTINUOUS
 10
178.179695267
 20
164.4851406947
 11
178.6791886735
 21
164.8099151241
  0
LINE
  5
2F4
100
AcDbEntity
  8
0
100
AcDbLine
 62
7
  6
CONTINUOUS
 10
170.8537922888
 20
159.6135235718
 11
170.3542988823
 21
159.2887490287
  0
LINE
  5
2F5
100
AcDbEntity
  8
0
100
AcDbLine
 62
7
  6
CONTINUOUS
 10
178.5126915065
 20
162.861268093
 11
177.5137046934
 21
162.2117192342
  0
LINE
  5
2F6
100
AcDbEntity
  8
0
100
AcDbLine
 62
7
  6
CONTINUOUS
 10
178.179695267
 20
161.7245575902
 11
178.6791886735
 21
162.0493320195
  0
LINE
  5
2F7
100
AcDbEntity
  8
0
100
AcDbLine
 62
7
  6
CONTINUOUS
 10
178.5126915065
 20
165.6218511975
 11
177.6802018605
 21
165.1346895534
  0
LINE
  5
2F8
100
AcDbEntity
  8
0
100
AcDbLine
 62
7
  6
CONTINUOUS
 10
170.5207970021
 20
158.3144256411
 11
171.1867885283
 21
158.6392001131
  0
LINE
  5
2F9
100
AcDbEntity
  8
0
100
AcDbLine
 62
7
  6
CONTINUOUS
 10
180.8436613721
 20
159.126361814
 11
180.3441679656
 21
158.9639745993
  0
LINE
  5
2FA
100
AcDbEntity
  8
0
100
AcDbLine
 62
7
  6
CONTINUOUS
 10
182.6751359257
 20
161.0750087314
 11
182.3421415917
 21
161.8869448048
  0
LINE
  5
2FB
100
AcDbEntity
  8
0
100
AcDbLine
 62
7
  6
CONTINUOUS
 10
181.6761491127
 20
161.3997831608
 11
181.8426481851
 21
160.9126212893
  0
LINE
  5
2FC
100
AcDbEntity
  8
0
100
AcDbLine
 62
7
  6
CONTINUOUS
 10
182.3421415917
 20
163.9979790507
 11
182.1756425192
 21
164.4851406947
  0
LINE
  5
2FD
100
AcDbEntity
  8
0
100
AcDbLine
 62
7
  6
CONTINUOUS
 10
176.6812150474
 20
161.3997831608
 11
176.8477141199
 21
160.2630724305
  0
LINE
  5
2FE
100
AcDbEntity
  8
0
100
AcDbLine
 62
7
  6
CONTINUOUS
 10
181.8426481851
 20
160.9126212893
 11
181.8426481851
 21
160.4254596452
  0
LINE
  5
2FF
100
AcDbEntity
  8
0
100
AcDbLine
 62
7
  6
CONTINUOUS
 10
182.6751359257
 20
160.2630724305
 11
182.6751359257
 21
161.0750087314
  0
LINE
  5
300
100
AcDbEntity
  8
0
100
AcDbLine
 62
7
  6
CONTINUOUS
 10
176.8477141199
 20
163.6732041664
 11
176.6812150474
 21
162.5364936636
  0
LINE
  5
301
100
AcDbEntity
  8
0
100
AcDbLine
 62
7
  6
CONTINUOUS
 10
177.5137046934
 20
162.5364936636
 11
177.6802018605
 21
163.5108169517
  0
LINE
  5
302
100
AcDbEntity
  8
0
100
AcDbLine
 62
7
  6
CONTINUOUS
 10
177.6802018605
 20
163.5108169517
 11
177.8467009329
 21
163.9979790507
  0
LINE
  5
303
100
AcDbEntity
  8
0
100
AcDbLine
 62
7
  6
CONTINUOUS
 10
177.6802018605
 20
160.9126212893
 11
177.8467009329
 21
161.3997831608
  0
LINE
  5
304
100
AcDbEntity
  8
0
100
AcDbLine
 62
7
  6
CONTINUOUS
 10
177.1807084539
 20
164.4851406947
 11
176.8477141199
 21
163.6732041664
  0
LINE
  5
305
100
AcDbEntity
  8
0
100
AcDbLine
 62
7
  6
CONTINUOUS
 10
177.8467009329
 20
163.9979790507
 11
178.179695267
 21
164.4851406947
  0
LINE
  5
306
100
AcDbEntity
  8
0
100
AcDbLine
 62
7
  6
CONTINUOUS
 10
177.6802018605
 20
165.1346895534
 11
177.1807084539
 21
164.4851406947
  0
LINE
  5
307
100
AcDbEntity
  8
0
100
AcDbLine
 62
7
  6
CONTINUOUS
 10
177.8467009329
 20
161.3997831608
 11
178.179695267
 21
161.7245575902
  0
LINE
  5
308
100
AcDbEntity
  8
0
100
AcDbLine
 62
7
  6
CONTINUOUS
 10
181.3431547786
 20
159.4511362434
 11
180.8436613721
 21
159.126361814
  0
LINE
  5
309
100
AcDbEntity
  8
0
100
AcDbLine
 62
7
  6
CONTINUOUS
 10
181.0101585391
 20
158.3144256411
 11
181.8426481851
 21
158.8015873278
  0
LINE
  5
30A
100
AcDbEntity
  8
0
100
AcDbLine
 62
7
  6
CONTINUOUS
 10
181.8426481851
 20
160.4254596452
 11
181.6761491127
 21
159.9382980012
  0
LINE
  5
30B
100
AcDbEntity
  8
0
100
AcDbLine
 62
7
  6
CONTINUOUS
 10
182.3421415917
 20
159.4511362434
 11
182.6751359257
 21
160.2630724305
  0
LINE
  5
30C
100
AcDbEntity
  8
0
100
AcDbLine
 62
7
  6
CONTINUOUS
 10
181.6761491127
 20
159.9382980012
 11
181.3431547786
 21
159.4511362434
  0
LINE
  5
30D
100
AcDbEntity
  8
0
100
AcDbLine
 62
7
  6
CONTINUOUS
 10
181.8426481851
 20
158.8015873278
 11
182.3421415917
 21
159.4511362434
  0
LINE
  5
30E
100
AcDbEntity
  8
RUNDUNGEN
100
AcDbLine
 62
7
  6
CONTINUOUS
 10
191.4834348062
 20
114.2168108401
 11
191.4834348062
 21
165.7145608401
  0
LINE
  5
30F
100
AcDbEntity
  8
0
100
AcDbLine
 62
7
  6
CONTINUOUS
 10
193.9502225672
 20
155.0354314897
 11
193.9502225672
 21
171.0209230141
  0
LINE
  5
310
100
AcDbEntity
  8
0
100
AcDbLine
 62
7
  6
CONTINUOUS
 10
193.9502225672
 20
171.0209230141
 11
201.3707104582
 21
198.7145608401
  0
LINE
  5
311
100
AcDbEntity
  8
0
100
AcDbLine
 62
7
  6
CONTINUOUS
 10
193.9502225672
 20
155.0354314897
 11
191.4834348062
 21
143.4301075157
  0
LINE
  5
312
100
AcDbEntity
  8
0
100
AcDbLine
 62
7
  6
CONTINUOUS
 10
201.3707104582
 20
198.7145608401
 11
193.9502225672
 21
226.408198666
  0
LINE
  5
313
100
AcDbEntity
  8
0
100
AcDbLine
 62
7
  6
CONTINUOUS
 10
193.9502225672
 20
226.408198666
 11
173.6770726322
 21
246.6813486011
  0
LINE
  5
314
100
AcDbEntity
  8
RUNDUNGEN
100
AcDbLine
 62
7
  6
CONTINUOUS
 10
191.4834348062
 20
114.2168108401
 11
184.0979730534
 21
102.2154354917
  0
LINE
  5
315
100
AcDbEntity
  8
0
100
AcDbLine
 62
7
  6
CONTINUOUS
 10
145.9834348062
 20
254.101836492
 11
118.2897969803
 21
246.6813486011
  0
LINE
  5
316
100
AcDbEntity
  8
0
100
AcDbLine
 62
7
  6
CONTINUOUS
 10
173.6770726322
 20
246.6813486011
 11
145.9834348062
 21
254.101836492
  0
LINE
  5
317
100
AcDbEntity
  8
0
100
AcDbLine
 62
7
  6
CONTINUOUS
 10
283.5853823507
 20
102.2154354917
 11
285.7769823507
 21
102.2154354917
  0
LINE
  5
318
100
AcDbEntity
  8
BEZUGSACHSEN
100
AcDbLine
 62
2
  6
CENTER
 10
284.6811823507
 20
128.6187608401
 11
270.3061823507
 21
128.6187608401
  0
LINE
  5
319
100
AcDbEntity
  8
BEZUGSACHSEN
100
AcDbLine
 62
2
  6
CENTER
 10
284.6811823507
 20
128.6187608401
 11
299.0561823507
 21
128.6187608401
  0
LINE
  5
31A
100
AcDbEntity
  8
0
100
AcDbLine
 62
7
  6
CONTINUOUS
 10
273.6649465803
 20
238.4729796373
 11
280.4157685294
 21
254.101836492
  0
LINE
  5
31B
100
AcDbEntity
  8
0
100
AcDbLine
 62
7
  6
CONTINUOUS
 10
261.1811823507
 20
124.6187608401
 11
261.1811823507
 21
146.2145608401
  0
LINE
  5
31C
100
AcDbEntity
  8
0
100
AcDbLine
 62
7
  6
CONTINUOUS
 10
288.6819323507
 20
155.0354314897
 11
280.6804323507
 21
155.0354314897
  0
LINE
  5
31D
100
AcDbEntity
  8
0
100
AcDbLine
 62
7
  6
CONTINUOUS
 10
266.6811823507
 20
168.2145608401
 11
266.6811823507
 21
154.0693748771
  0
LINE
  5
31E
100
AcDbEntity
  8
BEZUGSACHSEN
100
AcDbLine
 62
8
  6
HIDDEN
 10
272.6811823507
 20
191.4376516614
 11
272.6811823507
 21
175.5630300684
  0
LINE
  5
31F
100
AcDbEntity
  8
0
100
AcDbLine
 62
7
  6
CONTINUOUS
 10
272.6811823507
 20
191.4373499518
 11
272.6811823507
 21
175.5630300684
  0
LINE
  5
320
100
AcDbEntity
  8
BEZUGSACHSEN
100
AcDbLine
 62
7
  6
CONTINUOUS
 10
272.6811823507
 20
191.4376516614
 11
272.6811823507
 21
233.7145608401
  0
LINE
  5
321
100
AcDbEntity
  8
BEZUGSACHSEN
100
AcDbLine
 62
8
  6
HIDDEN
 10
274.6811823507
 20
123.3566319933
 11
274.6811823507
 21
133.8808896868
  0
LINE
  5
322
100
AcDbEntity
  8
0
100
AcDbLine
 62
7
  6
CONTINUOUS
 10
280.6804323507
 20
155.0354314897
 11
279.2448293907
 21
171.0209230141
  0
LINE
  5
323
100
AcDbEntity
  8
0
100
AcDbLine
 62
7
  6
CONTINUOUS
 10
279.6322810861
 20
187.5760203988
 11
279.2448293907
 21
171.0209230141
  0
LINE
  5
324
100
AcDbEntity
  8
0
100
AcDbLine
 62
7
  6
CONTINUOUS
 10
279.2448293907
 20
171.0209230141
 11
290.1175353108
 21
171.0209230141
  0
LINE
  5
325
100
AcDbEntity
  8
0
100
AcDbLine
 62
7
  6
CONTINUOUS
 10
280.6804323507
 20
155.0354314897
 11
280.6804323507
 21
143.4301075157
  0
LINE
  5
326
100
AcDbEntity
  8
BEZUGSACHSEN
100
AcDbLine
 62
2
  6
CENTER
 10
284.6811823507
 20
128.6187608401
 11
284.6811823507
 21
114.2437608401
  0
LINE
  5
327
100
AcDbEntity
  8
BEZUGSACHSEN
100
AcDbLine
 62
2
  6
CENTER
 10
284.6811823507
 20
128.6187608401
 11
284.6811823507
 21
142.9937608401
  0
LINE
  5
328
100
AcDbEntity
  8
0
100
AcDbLine
 62
7
  6
CONTINUOUS
 10
261.1811823507
 20
146.2145608401
 11
266.6811823507
 21
154.0693748771
  0
LINE
  5
329
100
AcDbEntity
  8
DEFAULT_2
100
AcDbLine
 62
8
  6
HIDDEN
 10
274.1811823507
 20
175.7145608401
 11
295.1811823507
 21
175.7145608401
  0
LINE
  5
32A
100
AcDbEntity
  8
0
100
AcDbLine
 62
7
  6
CONTINUOUS
 10
289.7300836153
 20
187.5760203988
 11
290.1175353108
 21
171.0209230141
  0
LINE
  5
32B
100
AcDbEntity
  8
0
100
AcDbLine
 62
7
  6
CONTINUOUS
 10
288.6819323507
 20
155.0354314897
 11
288.6819323507
 21
143.4301075157
  0
LINE
  5
32C
100
AcDbEntity
  8
RUNDUNGEN
100
AcDbLine
 62
7
  6
CONTINUOUS
 10
308.1811823507
 20
146.2145608401
 11
302.6811823507
 21
154.0693748771
  0
LINE
  5
32D
100
AcDbEntity
  8
BEZUGSACHSEN
100
AcDbLine
 62
8
  6
HIDDEN
 10
294.6811823507
 20
133.8808896868
 11
294.6811823507
 21
123.3566319933
  0
LINE
  5
32E
100
AcDbEntity
  8
0
100
AcDbLine
 62
7
  6
CONTINUOUS
 10
288.6819323507
 20
155.0354314897
 11
290.1175353108
 21
171.0209230141
  0
LINE
  5
32F
100
AcDbEntity
  8
RUNDUNGEN
100
AcDbLine
 62
7
  6
CONTINUOUS
 10
296.6811823507
 20
191.4373499518
 11
296.6811823507
 21
175.5630300684
  0
LINE
  5
330
100
AcDbEntity
  8
BEZUGSACHSEN
100
AcDbLine
 62
7
  6
CONTINUOUS
 10
296.6811823507
 20
191.4376516614
 11
296.6811823507
 21
233.7145608401
  0
LINE
  5
331
100
AcDbEntity
  8
RUNDUNGEN
100
AcDbLine
 62
7
  6
CONTINUOUS
 10
302.6811823507
 20
168.2145608401
 11
302.6811823507
 21
154.0693748771
  0
LINE
  5
332
100
AcDbEntity
  8
BEZUGSACHSEN
100
AcDbLine
 62
2
  6
CENTER
 10
274.565652935
 20
198.7145608401
 11
299.6811823507
 21
198.7145608401
  0
LINE
  5
333
100
AcDbEntity
  8
0
100
AcDbLine
 62
7
  6
CONTINUOUS
 10
280.4157685294
 20
198.7145608401
 11
288.946596172
 21
198.7145608401
  0
LINE
  5
334
100
AcDbEntity
  8
RUNDUNGEN
100
AcDbLine
 62
7
  6
CONTINUOUS
 10
308.1811823507
 20
124.6187608401
 11
308.1811823507
 21
146.2145608401
  0
LINE
  5
335
100
AcDbEntity
  8
KONSTRUKTIONSELEMENTE
100
AcDbLine
 62
7
  6
CONTINUOUS
 10
288.946596172
 20
254.101836492
 11
295.6974181212
 21
238.4729796373
  0
LINE
  5
336
100
AcDbEntity
  8
0
100
AcDbLine
 62
7
  6
CONTINUOUS
 10
280.4157685294
 20
226.408198666
 11
288.946596172
 21
226.408198666
  0
LINE
  5
337
100
AcDbEntity
  8
0
100
AcDbLine
 62
7
  6
CONTINUOUS
 10
280.4157685294
 20
246.6813486011
 11
288.946596172
 21
246.6813486011
  0
LINE
  5
338
100
AcDbEntity
  8
0
100
AcDbLine
 62
7
  6
CONTINUOUS
 10
288.946596172
 20
254.101836492
 11
280.4157685294
 21
254.101836492
  0
ARC
  5
339
100
AcDbEntity
  8
KONSTRUKTIONSELEMENTE
100
AcDbCircle
 62
7
  6
CONTINUOUS
 10
145.9834348062
 20
53.5599608401
 40
57.6108
100
AcDbArc
 50
57.6179865928
 51
80.7605878645
  0
ARC
  5
33A
100
AcDbEntity
  8
KONSTRUKTIONSELEMENTE
100
AcDbCircle
 62
7
  6
CONTINUOUS
 10
145.9834348062
 20
53.5599608401
 40
57.6108
100
AcDbArc
 50
99.2394121355
 51
122.3820134072
  0
CIRCLE
  5
33B
100
AcDbEntity
  8
BEZUGSACHSEN
100
AcDbCircle
 62
7
  6
CONTINUOUS
 10
145.9834348062
 20
198.7145608401
 40
23.0
  0
ARC
  5
33C
100
AcDbEntity
  8
RUNDUNGEN
100
AcDbCircle
 62
7
  6
CONTINUOUS
 10
110.4834348062
 20
165.7145608401
 40
10.0
100
AcDbArc
 50
98.3778284426
 51
180.0
  0
ARC
  5
33D
100
AcDbEntity
  8
RUNDUNGEN
100
AcDbCircle
 62
7
  6
CONTINUOUS
 10
181.4834348062
 20
165.7145608401
 40
10.0
100
AcDbArc
 50
0.0
 51
81.6221715574
  0
ARC
  5
33E
100
AcDbEntity
  8
KONSTRUKTIONSELEMENTE
100
AcDbCircle
 62
7
  6
CONTINUOUS
 10
145.9834348062
 20
151.9645608401
 40
9.25
100
AcDbArc
 50
0.0
 51
180.0
  0
ARC
  5
33F
100
AcDbEntity
  8
RUNDUNGEN
100
AcDbCircle
 62
7
  6
CONTINUOUS
 10
110.1964340947
 20
166.9281400018
 40
8.7654812864
100
AcDbArc
 50
88.1236775843
 51
89.7802372716
  0
ARC
  5
340
100
AcDbEntity
  8
RUNDUNGEN
100
AcDbCircle
 62
7
  6
CONTINUOUS
 10
181.7704087596
 20
166.9295172416
 40
8.7641039541
100
AcDbArc
 50
90.219622331
 51
91.8621277479
  0
ARC
  5
341
100
AcDbEntity
  8
RUNDUNGEN
100
AcDbCircle
 62
7
  6
CONTINUOUS
 10
181.7673767282
 20
167.6284963106
 40
8.0651184057
100
AcDbArc
 50
81.6367431021
 51
90.2171164423
  0
ARC
  5
342
100
AcDbEntity
  8
RUNDUNGEN
100
AcDbCircle
 62
7
  6
CONTINUOUS
 10
110.1994928843
 20
167.6284963106
 40
8.0651184057
100
AcDbArc
 50
89.7828835577
 51
98.3632568979
  0
ARC
  5
343
100
AcDbEntity
  8
RUNDUNGEN
100
AcDbCircle
 62
7
  6
CONTINUOUS
 10
183.9834348062
 20
109.7145608401
 40
7.5
100
AcDbArc
 50
270.0
 51
270.8750417703
  0
ARC
  5
344
100
AcDbEntity
  8
RUNDUNGEN
100
AcDbCircle
 62
7
  6
CONTINUOUS
 10
107.9834348062
 20
109.7145608401
 40
7.5
100
AcDbArc
 50
269.1249582297
 51
270.0
  0
CIRCLE
  5
345
100
AcDbEntity
  8
BEZUGSACHSEN
100
AcDbCircle
 62
7
  6
CONTINUOUS
 10
117.6834348062
 20
129.0145608401
 40
3.0
  0
ARC
  5
346
100
AcDbEntity
  8
0
100
AcDbCircle
 62
7
  6
CONTINUOUS
 10
167.1606516597
 20
184.5512845118
 40
122.6067480896
100
AcDbArc
 50
1.4136431104
 51
6.6334986844
  0
ARC
  5
347
100
AcDbEntity
  8
0
100
AcDbCircle
 62
7
  6
CONTINUOUS
 10
402.2017130418
 20
184.5512845118
 40
122.6067480896
100
AcDbArc
 50
173.3665013156
 51
178.5863568896
  0
ARC
  5
348
100
AcDbEntity
  8
0
100
AcDbCircle
 62
7
  6
CONTINUOUS
 10
283.5853823507
 20
124.6187608401
 40
22.4042
100
AcDbArc
 50
180.0
 51
270.0
  0
ARC
  5
349
100
AcDbEntity
  8
RUNDUNGEN
100
AcDbCircle
 62
7
  6
CONTINUOUS
 10
285.7769823507
 20
124.6187608401
 40
22.4042
100
AcDbArc
 50
274.0706633568
 51
360.0
  0
ARC
  5
34A
100
AcDbEntity
  8
BEZUGSACHSEN
100
AcDbCircle
 62
8
  6
HIDDEN
 10
284.6811823507
 20
233.7145608401
 40
12.0
100
AcDbArc
 50
180.0
 51
360.0
  0
ARC
  5
34B
100
AcDbEntity
  8
BEZUGSACHSEN
100
AcDbCircle
 62
7
  6
CONTINUOUS
 10
284.6811823507
 20
233.7145608401
 40
12.0
100
AcDbArc
 50
0.0
 51
23.361736267
  0
ARC
  5
34C
100
AcDbEntity
  8
BEZUGSACHSEN
100
AcDbCircle
 62
7
  6
CONTINUOUS
 10
284.6811823507
 20
233.7145608401
 40
12.0
100
AcDbArc
 50
156.638263733
 51
180.0
  0
CIRCLE
  5
34D
100
AcDbEntity
  8
BEZUGSACHSEN
100
AcDbCircle
 62
7
  6
CONTINUOUS
 10
284.6811823507
 20
128.6187608401
 40
11.375
  0
ARC
  5
34E
100
AcDbEntity
  8
0
100
AcDbCircle
 62
7
  6
CONTINUOUS
 10
274.1811823507
 20
168.2145608401
 40
7.5
100
AcDbArc
 50
94.7389711817
 51
180.0
  0
ARC
  5
34F
100
AcDbEntity
  8
RUNDUNGEN
100
AcDbCircle
 62
7
  6
CONTINUOUS
 10
295.1811823507
 20
168.2145608401
 40
7.5
100
AcDbArc
 50
0.0
 51
85.2610288183
  0
ARC
  5
350
100
AcDbEntity
  8
0
100
AcDbCircle
 62
7
  6
CONTINUOUS
 10
273.6760222076
 20
174.2912156079
 40
1.4023849396
100
AcDbArc
 50
90.4525100648
 51
94.6816907923
  0
ARC
  5
351
100
AcDbEntity
  8
RUNDUNGEN
100
AcDbCircle
 62
7
  6
CONTINUOUS
 10
295.6863424938
 20
174.2912156079
 40
1.4023849396
100
AcDbArc
 50
85.3183092077
 51
89.5474899352
  0
SPLINE
  5
352
100
AcDbEntity
  8
BEZUGSACHSEN
100
AcDbSpline
 62
7
  6
CONTINUOUS
 70
0
 71
3
 72
9
 73
5
 74
0
 42
0.0000001
 43
0.0000001
 44
0.0000000001
 40
0.0
 40
0.0
 40
0.0
 40
0.0
 40
0.5000519127
 40
1.0
 40
1.0
 40
1.0
 40
1.0
 10
119.8639497514
 20
124.6187608401
 30
0.0
 10
120.0635628138
 20
125.2018939002
 30
0.0
 10
120.3953184934
 20
126.3928972026
 30
0.0
 10
120.5522084314
 20
127.6211936935
 30
0.0
 10
120.5808496406
 20
128.2367515589
 30
0.0
  0
SPLINE
  5
353
100
AcDbEntity
  8
KONSTRUKTIONSELEMENTE
100
AcDbSpline
 62
7
  6
CONTINUOUS
 70
0
 71
3
 72
17
 73
13
 74
0
 42
0.0000001
 43
0.0000001
 44
0.0000000001
 40
0.0
 40
0.0
 40
0.0
 40
0.0
 40
0.0624765206
 40
0.1249606408
 40
0.1874588626
 40
0.2499662178
 40
0.3748703651
 40
0.4998555185
 40
0.6248739153
 40
0.7499073518
 40
0.8749496075
 40
1.0
 40
1.0
 40
1.0
 40
1.0
 10
120.5933552902
 20
131.8515608401
 30
0.0
 10
120.5933552902
 20
132.3088871947
 30
0.0
 10
120.6902156234
 20
133.2262314063
 30
0.0
 10
121.1025948854
 20
134.5427425265
 30
0.0
 10
121.7298855236
 20
135.7696018664
 30
0.0
 10
122.7819248355
 20
137.2715358972
 30
0.0
 10
124.3967453782
 20
138.9117948478
 30
0.0
 10
126.6030346745
 20
140.5553070809
 30
0.0
 10
128.9848751675
 20
141.9307824282
 30
0.0
 10
131.4866857251
 20
143.0706953557
 30
0.0
 10
134.0747714354
 20
143.9965684492
 30
0.0
 10
135.8424257816
 20
144.4801880968
 30
0.0
 10
136.7334348062
 20
144.6899417256
 30
0.0
  0
SPLINE
  5
354
100
AcDbEntity
  8
RUNDUNGEN
100
AcDbSpline
 62
7
  6
CONTINUOUS
 70
0
 71
3
 72
10
 73
6
 74
0
 42
0.0000001
 43
0.0000001
 44
0.0000000001
 40
0.0
 40
0.0
 40
0.0
 40
0.0
 40
0.4924886543
 40
0.7451110255
 40
1.0
 40
1.0
 40
1.0
 40
1.0
 10
128.0088113853
 20
175.7145608401
 30
0.0
 10
126.6502288568
 20
175.7145608401
 30
0.0
 10
124.5952890241
 20
175.6497721488
 30
0.0
 10
121.8377074136
 20
175.5776383838
 30
0.0
 10
120.4376375998
 20
175.5630300684
 30
0.0
 10
119.734499153
 20
175.5630300684
 30
0.0
  0
SPLINE
  5
355
100
AcDbEntity
  8
KONSTRUKTIONSELEMENTE
100
AcDbSpline
 62
7
  6
CONTINUOUS
 70
0
 71
3
 72
26
 73
22
 74
0
 42
0.0000001
 43
0.0000001
 44
0.0000000001
 40
0.0
 40
0.0
 40
0.0
 40
0.0
 40
0.1925266892
 40
0.3784659184
 40
0.5508835463
 40
0.6298416623
 40
0.7028529658
 40
0.7691352094
 40
0.8279789812
 40
0.8787497172
 40
0.9209124761
 40
0.9386333263
 40
0.954057062
 40
0.9671555224
 40
0.9779237723
 40
0.9863795935
 40
0.9926001149
 40
0.9949462065
 40
0.9968633725
 40
0.9984792109
 40
1.0
 40
1.0
 40
1.0
 40
1.0
 10
119.8639497514
 20
124.6187608401
 30
0.0
 10
119.3842481432
 20
123.2174003112
 30
0.0
 10
118.5038399183
 20
120.4409046305
 30
0.0
 10
117.3770501991
 20
116.3544537934
 30
0.0
 10
116.5894402167
 20
113.0828455826
 30
0.0
 10
116.0628453439
 20
110.6433049462
 30
0.0
 10
115.7341384412
 20
108.9966142105
 30
0.0
 10
115.4601322138
 20
107.497016689
 30
0.0
 10
115.2409655748
 20
106.1615381022
 30
0.0
 10
115.0767235598
 20
105.0053707845
 30
0.0
 10
114.9801512496
 20
104.1593535132
 30
0.0
 10
114.9331375214
 20
103.5818456558
 30
0.0
 10
114.913785949
 20
103.226538114
 30
0.0
 10
114.9081123071
 20
102.9242612648
 30
0.0
 10
114.915863898
 20
102.6754716117
 30
0.0
 10
114.9369836545
 20
102.4808027041
 30
0.0
 10
114.967148762
 20
102.3523252018
 30
0.0
 10
115.0016675881
 20
102.2790495527
 30
0.0
 10
115.0290814493
 20
102.2424949386
 30
0.0
 10
115.0614608361
 20
102.2194410384
 30
0.0
 10
115.0859378983
 20
102.2145608401
 30
0.0
 10
115.0976379809
 20
102.2145608401
 30
0.0
  0
SPLINE
  5
356
100
AcDbEntity
  8
KONSTRUKTIONSELEMENTE
100
AcDbSpline
 62
7
  6
CONTINUOUS
 70
0
 71
3
 72
26
 73
22
 74
0
 42
0.0000001
 43
0.0000001
 44
0.0000000001
 40
0.0
 40
0.0
 40
0.0
 40
0.0
 40
0.0015207891
 40
0.0031366275
 40
0.0050537935
 40
0.0073998851
 40
0.0136204065
 40
0.0220762277
 40
0.0328444776
 40
0.045942938
 40
0.0613666737
 40
0.0790875239
 40
0.1212502828
 40
0.1720210188
 40
0.2308647906
 40
0.2971470342
 40
0.3701583377
 40
0.4491164537
 40
0.6215340816
 40
0.8074733108
 40
1.0
 40
1.0
 40
1.0
 40
1.0
 10
176.8692316316
 20
102.2145608401
 30
0.0
 10
176.8809317142
 20
102.2145608401
 30
0.0
 10
176.9054087764
 20
102.2194410384
 30
0.0
 10
176.9377881632
 20
102.2424949386
 30
0.0
 10
176.9652020244
 20
102.2790495527
 30
0.0
 10
176.9997208505
 20
102.3523252018
 30
0.0
 10
177.029885958
 20
102.4808027041
 30
0.0
 10
177.0510057144
 20
102.6754716117
 30
0.0
 10
177.0587573054
 20
102.9242612648
 30
0.0
 10
177.0530836635
 20
103.226538114
 30
0.0
 10
177.033732091
 20
103.5818456558
 30
0.0
 10
176.9867183629
 20
104.1593535132
 30
0.0
 10
176.8901460527
 20
105.0053707845
 30
0.0
 10
176.7259040377
 20
106.1615381022
 30
0.0
 10
176.5067373987
 20
107.497016689
 30
0.0
 10
176.2327311713
 20
108.9966142105
 30
0.0
 10
175.9040242686
 20
110.6433049462
 30
0.0
 10
175.3774293958
 20
113.0828455826
 30
0.0
 10
174.5898194134
 20
116.3544537934
 30
0.0
 10
173.4630296942
 20
120.4409046305
 30
0.0
 10
172.5826214693
 20
123.2174003112
 30
0.0
 10
172.1029198611
 20
124.6187608401
 30
0.0
  0
SPLINE
  5
357
100
AcDbEntity
  8
KONSTRUKTIONSELEMENTE
100
AcDbSpline
 62
7
  6
CONTINUOUS
 70
0
 71
3
 72
9
 73
5
 74
0
 42
0.0000001
 43
0.0000001
 44
0.0000000001
 40
0.0
 40
0.0
 40
0.0
 40
0.0
 40
0.4999249095
 40
1.0
 40
1.0
 40
1.0
 40
1.0
 10
171.3735143223
 20
128.7740608401
 30
0.0
 10
171.3735143223
 20
128.0685840667
 30
0.0
 10
171.5057033876
 20
126.6546647971
 30
0.0
 10
171.8743739504
 20
125.2864159255
 30
0.0
 10
172.1029198611
 20
124.6187608401
 30
0.0
  0
SPLINE
  5
358
100
AcDbEntity
  8
KONSTRUKTIONSELEMENTE
100
AcDbSpline
 62
7
  6
CONTINUOUS
 70
0
 71
3
 72
17
 73
13
 74
0
 42
0.0000001
 43
0.0000001
 44
0.0000000001
 40
0.0
 40
0.0
 40
0.0
 40
0.0
 40
0.1250501132
 40
0.2500925254
 40
0.3751263995
 40
0.5001452291
 40
0.6251307079
 40
0.7500347905
 40
0.8125419213
 40
0.8750398546
 40
0.9375238334
 40
1.0
 40
1.0
 40
1.0
 40
1.0
 10
155.2334348062
 20
144.6899417256
 30
0.0
 10
156.1244418364
 20
144.4801885664
 30
0.0
 10
157.8920954281
 20
143.9965696274
 30
0.0
 10
160.4801833953
 20
143.0706960559
 30
0.0
 10
162.982001027
 20
141.9307803691
 30
0.0
 10
165.363847697
 20
140.5552981015
 30
0.0
 10
167.5701396386
 20
138.911780925
 30
0.0
 10
169.1849582073
 20
137.2715195469
 30
0.0
 10
170.2369927326
 20
135.7695873912
 30
0.0
 10
170.8642796253
 20
134.5427314902
 30
0.0
 10
171.2766542753
 20
133.2262250261
 30
0.0
 10
171.3735143223
 20
132.3088846017
 30
0.0
 10
171.3735143223
 20
131.8515608401
 30
0.0
  0
SPLINE
  5
359
100
AcDbEntity
  8
RUNDUNGEN
100
AcDbSpline
 62
7
  6
CONTINUOUS
 70
0
 71
3
 72
10
 73
6
 74
0
 42
0.0000001
 43
0.0000001
 44
0.0000000001
 40
0.0
 40
0.0
 40
0.0
 40
0.0
 40
0.2548887964
 40
0.507511185
 40
1.0
 40
1.0
 40
1.0
 40
1.0
 10
172.2323704595
 20
175.5630300684
 30
0.0
 10
171.5292300069
 20
175.5630300684
 30
0.0
 10
170.1291556636
 20
175.5776384554
 30
0.0
 10
167.3715642672
 20
175.649772797
 30
0.0
 10
165.316616627
 20
175.7145608401
 30
0.0
 10
163.9580288303
 20
175.7145608401
 30
0.0
  0
SPLINE
  5
35A
100
AcDbEntity
  8
RUNDUNGEN
100
AcDbSpline
 62
7
  6
CONTINUOUS
 70
0
 71
3
 72
9
 73
5
 74
0
 42
0.0000001
 43
0.0000001
 44
0.0000000001
 40
0.0
 40
0.0
 40
0.0
 40
0.0
 40
0.4911624891
 40
1.0
 40
1.0
 40
1.0
 40
1.0
 10
181.4856233282
 20
175.6889929889
 30
0.0
 10
180.7258400283
 20
175.6641909543
 30
0.0
 10
179.1796592055
 20
175.5946904345
 30
0.0
 10
177.6318900545
 20
175.5630300684
 30
0.0
 10
176.8443458483
 20
175.5630300684
 30
0.0
  0
SPLINE
  5
35B
100
AcDbEntity
  8
RUNDUNGEN
100
AcDbSpline
 62
7
  6
CONTINUOUS
 70
0
 71
3
 72
9
 73
5
 74
0
 42
0.0000001
 43
0.0000001
 44
0.0000000001
 40
0.0
 40
0.0
 40
0.0
 40
0.0
 40
0.5088285907
 40
1.0
 40
1.0
 40
1.0
 40
1.0
 10
115.1225230303
 20
175.5630300684
 30
0.0
 10
114.3353641228
 20
175.5630300778
 30
0.0
 10
112.7883249007
 20
175.5946584292
 30
0.0
 10
111.2428728083
 20
175.6641097159
 30
0.0
 10
110.4834348062
 20
175.688921518
 30
0.0
  0
SPLINE
  5
35C
100
AcDbEntity
  8
0
100
AcDbSpline
 62
7
  6
CONTINUOUS
 70
0
 71
3
 72
11
 73
7
 74
0
 42
0.0000001
 43
0.0000001
 44
0.0000000001
 40
0.0
 40
0.0
 40
0.0
 40
0.0
 40
0.2552284564
 40
0.5000000008
 40
0.7447715449
 40
1.0
 40
1.0
 40
1.0
 40
1.0
 10
288.946596172
 20
254.101836492
 30
0.0
 10
289.2042697513
 20
253.5052952832
 30
0.0
 10
289.6146922786
 20
252.2908460103
 30
0.0
 10
289.8337635091
 20
250.3915925412
 30
0.0
 10
289.6146922745
 20
248.4923390762
 30
0.0
 10
289.2042697501
 20
247.277889807
 30
0.0
 10
288.946596172
 20
246.6813486011
 30
0.0
  0
SPLINE
  5
35D
100
AcDbEntity
  8
0
100
AcDbSpline
 62
7
  6
CONTINUOUS
 70
0
 71
3
 72
11
 73
7
 74
0
 42
0.0000001
 43
0.0000001
 44
0.0000000001
 40
0.0
 40
0.0
 40
0.0
 40
0.0
 40
0.2552284564
 40
0.5000000008
 40
0.7447715449
 40
1.0
 40
1.0
 40
1.0
 40
1.0
 10
280.4157685294
 20
254.101836492
 30
0.0
 10
280.1580949502
 20
253.5052952832
 30
0.0
 10
279.7476724228
 20
252.2908460103
 30
0.0
 10
279.5286011924
 20
250.3915925412
 30
0.0
 10
279.747672427
 20
248.4923390762
 30
0.0
 10
280.1580949514
 20
247.277889807
 30
0.0
 10
280.4157685294
 20
246.6813486011
 30
0.0
  0
SPLINE
  5
35E
100
AcDbEntity
  8
0
100
AcDbSpline
 62
7
  6
CONTINUOUS
 70
0
 71
3
 72
11
 73
7
 74
0
 42
0.0000001
 43
0.0000001
 44
0.0000000001
 40
0.0
 40
0.0
 40
0.0
 40
0.0
 40
0.2500298113
 40
0.5000000009
 40
0.7499701899
 40
1.0
 40
1.0
 40
1.0
 40
1.0
 10
288.946596172
 20
226.408198666
 30
0.0
 10
289.2125315394
 20
224.1104939993
 30
0.0
 10
289.6220976593
 20
219.5002948642
 30
0.0
 10
289.8315904186
 20
212.5613797341
 30
0.0
 10
289.6220976551
 20
205.6224646153
 30
0.0
 10
289.2125315382
 20
201.0122654959
 30
0.0
 10
288.946596172
 20
198.7145608401
 30
0.0
  0
SPLINE
  5
35F
100
AcDbEntity
  8
0
100
AcDbSpline
 62
7
  6
CONTINUOUS
 70
0
 71
3
 72
9
 73
5
 74
0
 42
0.0000001
 43
0.0000001
 44
0.0000000001
 40
0.0
 40
0.0
 40
0.0
 40
0.0
 40
0.2443167374
 40
1.0
 40
1.0
 40
1.0
 40
1.0
 10
273.6649465803
 20
175.6935568107
 30
0.0
 10
273.7076773382
 20
175.6939359422
 30
0.0
 10
273.8826187729
 20
175.6877674582
 30
0.0
 10
274.0559674646
 20
175.6501696022
 30
0.0
 10
274.1811823507
 20
175.6078487216
 30
0.0
  0
SPLINE
  5
360
100
AcDbEntity
  8
0
100
AcDbSpline
 62
7
  6
CONTINUOUS
 70
0
 71
3
 72
11
 73
7
 74
0
 42
0.0000001
 43
0.0000001
 44
0.0000000001
 40
0.0
 40
0.0
 40
0.0
 40
0.0
 40
0.2503958304
 40
0.5000000009
 40
0.7496041707
 40
1.0
 40
1.0
 40
1.0
 40
1.0
 10
288.946596172
 20
246.6813486011
 30
0.0
 10
289.2119000632
 20
245.0033061205
 30
0.0
 10
289.6216086137
 20
241.6318995273
 30
0.0
 10
289.8317323123
 20
236.5447736197
 30
0.0
 10
289.6216086095
 20
231.4576477204
 30
0.0
 10
289.2119000619
 20
228.0862411386
 30
0.0
 10
288.946596172
 20
226.408198666
 30
0.0
  0
SPLINE
  5
361
100
AcDbEntity
  8
0
100
AcDbSpline
 62
7
  6
CONTINUOUS
 70
0
 71
3
 72
11
 73
7
 74
0
 42
0.0000001
 43
0.0000001
 44
0.0000000001
 40
0.0
 40
0.0
 40
0.0
 40
0.0
 40
0.2500298113
 40
0.5000000009
 40
0.7499701899
 40
1.0
 40
1.0
 40
1.0
 40
1.0
 10
280.4157685294
 20
226.408198666
 30
0.0
 10
280.149833162
 20
224.1104939993
 30
0.0
 10
279.7402670422
 20
219.5002948642
 30
0.0
 10
279.5307742829
 20
212.5613797341
 30
0.0
 10
279.7402670464
 20
205.6224646153
 30
0.0
 10
280.1498331633
 20
201.0122654959
 30
0.0
 10
280.4157685294
 20
198.7145608401
 30
0.0
  0
SPLINE
  5
362
100
AcDbEntity
  8
0
100
AcDbSpline
 62
7
  6
CONTINUOUS
 70
0
 71
3
 72
11
 73
7
 74
0
 42
0.0000001
 43
0.0000001
 44
0.0000000001
 40
0.0
 40
0.0
 40
0.0
 40
0.0
 40
0.2503958304
 40
0.5000000009
 40
0.7496041707
 40
1.0
 40
1.0
 40
1.0
 40
1.0
 10
280.4157685294
 20
246.6813486011
 30
0.0
 10
280.1504646383
 20
245.0033061205
 30
0.0
 10
279.7407560878
 20
241.6318995273
 30
0.0
 10
279.5306323891
 20
236.5447736197
 30
0.0
 10
279.740756092
 20
231.4576477204
 30
0.0
 10
280.1504646395
 20
228.0862411386
 30
0.0
 10
280.4157685294
 20
226.408198666
 30
0.0
  0
SPLINE
  5
363
100
AcDbEntity
  8
RUNDUNGEN
100
AcDbSpline
 62
7
  6
CONTINUOUS
 70
0
 71
3
 72
9
 73
5
 74
0
 42
0.0000001
 43
0.0000001
 44
0.0000000001
 40
0.0
 40
0.0
 40
0.0
 40
0.0
 40
0.2443167374
 40
1.0
 40
1.0
 40
1.0
 40
1.0
 10
295.6974181212
 20
175.6935568107
 30
0.0
 10
295.6546873633
 20
175.6939359422
 30
0.0
 10
295.4797459286
 20
175.6877674582
 30
0.0
 10
295.3063972368
 20
175.6501696022
 30
0.0
 10
295.1811823507
 20
175.6078487216
 30
0.0
  0
ENDSEC
  0
SECTION
  2
OBJECTS
  0
DICTIONARY
  5
C
100
AcDbDictionary
280
0
281
1
  3
ACAD_GROUP
350
D
  3
ACAD_MLINESTYLE
350
17
  3
ACAD_LAYOUT
350
1A
  3
ACAD_PLOTSETTINGS
350
19
  3
ACAD_PLOTSTYLENAME
350
E
  0
DICTIONARY
  5
D
102
{ACAD_REACTORS
330
C
102
}
100
AcDbDictionary
280
0
281
1
  0
ACDBDICTIONARYWDFLT
  5
E
102
{ACAD_REACTORS
330
C
102
}
100
AcDbDictionary
281
1
  3
Normal
350
F
100
AcDbDictionaryWithDefault
340
F
  0
DICTIONARY
  5
17
102
{ACAD_REACTORS
330
C
102
}
100
AcDbDictionary
280
0
281
1
  3
Standard
350
18
  0
DICTIONARY
  5
19
102
{ACAD_REACTORS
330
C
102
}
100
AcDbDictionary
281
1
  0
DICTIONARY
  5
1A
102
{ACAD_REACTORS
330
C
102
}
100
AcDbDictionary
281
1
  3
Model
350
364
  3
Layout1
350
365
  0
ACDBPLACEHOLDER
  5
F
102
{ACAD_REACTORS
330
E
102
}
  0
MLINESTYLE
  5
18
102
{ACAD_REACTORS
330
17
102
}
100
AcDbMlineStyle
  2
STANDARD
 70
0
  3

 62
256
 51
90.0
 52
90.0
 71
2
 49
0.5
 62
256
  6
BYLAYER
 49
-0.5
 62
256
  6
BYLAYER
  0
LAYOUT
  5
364
102
{ACAD_REACTORS
330
1A
102
}
100
AcDbPlotSettings
  1

  2
none_device
  4
ISO_A3_(420.00_x_297.00_MM)
  6

 40
0.0
 41
0.0
 42
0.0
 43
0.0
 44
420.0
 45
297.0
 46
0.0
 47
0.0
 48
0.0
 49
0.0
140
0.0
141
0.0
142
1.0
143
1.0
 70
1024
 72
1
 73
0
 74
0
  7

 75
0
147
1.0
148
0.0
149
0.0
100
AcDbLayout
  1
Model
 70
0
 71
0
 10
0.0
 20
0.0
 11
420.0
 21
297.0
 12
0.0
 22
0.0
 32
0.0
 14
0.0
 24
0.0
 34
0.0
 15
0.0
 25
0.0
 35
0.0
146
0.0
 13
0.0
 23
0.0
 33
0.0
 16
1.0
 26
0.0
 36
0.0
 17
0.0
 27
1.0
 37
0.0
 76
0
330
208
345
0
346
0
  0
LAYOUT
  5
365
102
{ACAD_REACTORS
330
1A
102
}
100
AcDbPlotSettings
  1

  2
none_device
  4
ISO_A3_(420.00_x_297.00_MM)
  6

 40
0.0
 41
0.0
 42
0.0
 43
0.0
 44
420.0
 45
297.0
 46
0.0
 47
0.0
 48
0.0
 49
0.0
140
0.0
141
0.0
142
1.0
143
1.0
 70
0
 72
1
 73
0
 74
0
  7

 75
0
147
1.0
148
0.0
149
0.0
100
AcDbLayout
  1
Layout1
 70
0
 71
1
 10
0.0
 20
0.0
 11
420.0
 21
297.0
 12
0.0
 22
0.0
 32
0.0
 14
0.0
 24
0.0
 34
0.0
 15
0.0
 25
0.0
 35
0.0
146
0.0
 13
0.0
 23
0.0
 33
0.0
 16
1.0
 26
0.0
 36
0.0
 17
0.0
 27
1.0
 37
0.0
 76
0
330
209
345
0
346
0
  0
ENDSEC
  0
EOF
