999
DXF file: irg13-dxf.dxf
999
Pro/ENGINEER 2010140 by Parametric Technology Corporation
  0
SECTION
  2
HEADER
  9
$ACADVER
  1
AC1021
  9
$DWGCODEPAGE
  3
ANSI_1252
  9
$EXTMAX
 10
420.0
 20
297.0
 30
0.0
  9
$EXTMIN
 10
0.0
 20
0.0
 30
0.0
  9
$LIMMIN
 10
0.0
 20
0.0
  9
$LIMMAX
 10
420.0
 20
297.0
  9
$VIEWCTR
 10
210.0
 20
148.5
  9
$VIEWSIZE
 40
297.0
  9
$CLAYER
  8
0
  9
$LTSCALE
 40
23.1
  9
$CELTYPE
  6
BYLAYER
  9
$DIMSCALE
 40
1.0
  9
$DIMASZ
 40
3.5
  9
$DIMEXO
 40
2.625
  9
$DIMDLI
 40
15.96
  9
$DIMEXE
 40
7.56
  9
$DIMCEN
 40
3.78
  9
$DIMLFAC
 40
1.0
  9
$DIMBLK
  1
_FILLED
  9
$DIMTXT
 40
3.5
  9
$DIMTOL
 70
1
  9
$DIMLIM
 70
0
  9
$DIMTFAC
 40
1.0
  9
$DIMTP
 40
0.005
  9
$DIMTM
 40
0.005
  9
$PDMODE
 70
3
  9
$PDSIZE
 40
0.3125
  9
$HANDSEED
  5
35C
  9
$TILEMODE
 70
1
  9
$MEASUREMENT
 70
1
  9
$INSUNITS
 70
4
  0
ENDSEC
  0
SECTION
  2
CLASSES
  0
CLASS
  1
ACDBDICTIONARYWDFLT
  2
AcDbDictionaryWithDefault
  3
AutoCAD 2000
 90
0
 91
1
280
0
281
0
  0
CLASS
  1
ACDBPLACEHOLDER
  2
AcDbPlaceHolder
  3
AutoCAD 2000
 90
0
 91
1
280
0
281
0
  0
CLASS
  1
LAYOUT
  2
AcDbLayout
  3
AutoCAD 2000
 90
0
 91
0
280
0
281
0
  0
ENDSEC
  0
SECTION
  2
TABLES
  0
TABLE
  2
VPORT
  5
8
100
AcDbSymbolTable
 70
2
  0
VPORT
  5
1F4
100
AcDbSymbolTableRecord
100
AcDbViewportTableRecord
  2
*ACTIVE
 70
0
 10
0.0
 20
0.0
 11
1.0
 21
1.0
 12
210.0
 22
148.5
 13
0.0
 23
0.0
 14
1.0
 24
1.0
 15
0.0
 25
0.0
 16
0.0
 26
0.0
 36
1.0
 17
0.0
 27
0.0
 37
0.0
 40
297.0
 41
1.4141414141
 42
50.0
 43
0.0
 44
0.0
 50
0.0
 51
0.0
 71
0
 72
100
 73
1
 74
1
 75
0
 76
0
 77
0
 78
0
  0
ENDTAB
  0
TABLE
  2
LTYPE
  5
5
100
AcDbSymbolTable
 70
6
  0
LTYPE
  5
14
100
AcDbSymbolTableRecord
100
AcDbLinetypeTableRecord
  2
BYBLOCK
 70
0
  3

 72
65
 73
0
 40
0.0
  0
LTYPE
  5
15
100
AcDbSymbolTableRecord
100
AcDbLinetypeTableRecord
  2
BYLAYER
 70
0
  3

 72
65
 73
0
 40
0.0
  0
LTYPE
  5
16
100
AcDbSymbolTableRecord
100
AcDbLinetypeTableRecord
  2
CONTINUOUS
 70
64
  3
Solid line
 72
65
 73
0
 40
0.0
  0
LTYPE
  5
1F5
100
AcDbSymbolTableRecord
100
AcDbLinetypeTableRecord
  2
CENTER
 70
64
  3
____ _ ____ _ ____ _ ____ _ ____ _ ____ _ ____
 72
65
 73
4
 40
0.6
 49
0.375
 74
0
 49
-0.075
 74
0
 49
0.075
 74
0
 49
-0.075
 74
0
  0
LTYPE
  5
1F6
100
AcDbSymbolTableRecord
100
AcDbLinetypeTableRecord
  2
HIDDEN
 70
64
  3
- - - - - - - - - - - - - - - - - - - -
 72
65
 73
2
 40
0.2
 49
0.1
 74
0
 49
-0.1
 74
0
  0
LTYPE
  5
1F7
100
AcDbSymbolTableRecord
100
AcDbLinetypeTableRecord
  2
PHANTOM
 70
64
  3
_____ _ _ _____ _ _ _____ _ _ _____
 72
65
 73
6
 40
0.8
 49
0.45
 74
0
 49
-0.05
 74
0
 49
0.1
 74
0
 49
-0.05
 74
0
 49
0.1
 74
0
 49
-0.05
 74
0
  0
LTYPE
  5
1F8
100
AcDbSymbolTableRecord
100
AcDbLinetypeTableRecord
  2
DOT
 70
64
  3
. . . . . . . . . . . . . . . . . . . .
 72
65
 73
2
 40
0.2
 49
0.1
 74
0
 49
-0.1
 74
0
  0
LTYPE
  5
1F9
100
AcDbSymbolTableRecord
100
AcDbLinetypeTableRecord
  2
DASHED
 70
64
  3
- - - - - - - - - - - - - - - - - - - -
 72
65
 73
2
 40
0.2
 49
0.1
 74
0
 49
-0.1
 74
0
  0
ENDTAB
  0
TABLE
  2
LAYER
  5
2
100
AcDbSymbolTable
 70
36
  0
LAYER
  5
10
100
AcDbSymbolTableRecord
100
AcDbLayerTableRecord
  2
0
 70
0
 62
7
  6
CONTINUOUS
370
-3
390
F
  0
LAYER
  5
1FA
100
AcDbSymbolTableRecord
100
AcDbLayerTableRecord
  2
DEFAULT_1
 70
0
 62
7
  6
CENTER
370
-3
390
F
  0
LAYER
  5
1FB
100
AcDbSymbolTableRecord
100
AcDbLayerTableRecord
  2
DEFAULT_2
 70
0
 62
8
  6
HIDDEN
370
-3
390
F
  0
LAYER
  5
1FC
100
AcDbSymbolTableRecord
100
AcDbLayerTableRecord
  2
DEFAULT_3
 70
0
 62
7
  6
PHANTOM
370
-3
390
F
  0
LAYER
  5
1FD
100
AcDbSymbolTableRecord
100
AcDbLayerTableRecord
  2
BEZUGSACHSEN
 70
0
 62
7
  6
CONTINUOUS
370
-3
390
F
  0
LAYER
  5
1FE
100
AcDbSymbolTableRecord
100
AcDbLayerTableRecord
  2
BEZUGSEBENEN
 70
0
 62
7
  6
CONTINUOUS
370
-3
390
F
  0
LAYER
  5
1FF
100
AcDbSymbolTableRecord
100
AcDbLayerTableRecord
  2
FASEN
 70
0
 62
7
  6
CONTINUOUS
370
-3
390
F
  0
LAYER
  5
200
100
AcDbSymbolTableRecord
100
AcDbLayerTableRecord
  2
HILFEN
 70
0
 62
7
  6
CONTINUOUS
370
-3
390
F
  0
LAYER
  5
201
100
AcDbSymbolTableRecord
100
AcDbLayerTableRecord
  2
KONSTRUKTIONSELEMENTE
 70
0
 62
7
  6
CONTINUOUS
370
-3
390
F
  0
LAYER
  5
202
100
AcDbSymbolTableRecord
100
AcDbLayerTableRecord
  2
PLATZIERUNG
 70
0
 62
7
  6
CONTINUOUS
370
-3
390
F
  0
LAYER
  5
203
100
AcDbSymbolTableRecord
100
AcDbLayerTableRecord
  2
RUNDUNGEN
 70
0
 62
7
  6
CONTINUOUS
370
-3
390
F
  0
LAYER
  5
204
100
AcDbSymbolTableRecord
100
AcDbLayerTableRecord
  2
TEIL_STARTBEZUEGE
 70
0
 62
7
  6
CONTINUOUS
370
-3
390
F
  0
LAYER
  5
205
100
AcDbSymbolTableRecord
100
AcDbLayerTableRecord
  2
ZEICHNUNGSBEMASSUNGEN
 70
0
 62
7
  6
CONTINUOUS
370
-3
390
F
  0
ENDTAB
  0
TABLE
  2
STYLE
  5
3
100
AcDbSymbolTable
 70
1
  0
STYLE
  5
11
100
AcDbSymbolTableRecord
100
AcDbTextStyleTableRecord
  2
STANDARD
 70
0
 40
0.0
 41
0.7
 50
0.0
 71
0
 42
0.2
  3
txt
  4

  0
STYLE
  5
206
100
AcDbSymbolTableRecord
100
AcDbTextStyleTableRecord
  2
TEXTSTYLE_1
 70
0
 40
0.0
 41
0.8
 50
0.0
 71
0
 42
0.2
  3
gdt
  4

  0
ENDTAB
  0
TABLE
  2
VIEW
  5
6
100
AcDbSymbolTable
 70
0
  0
ENDTAB
  0
TABLE
  2
UCS
  5
7
100
AcDbSymbolTable
 70
0
  0
ENDTAB
  0
TABLE
  2
APPID
  5
9
100
AcDbSymbolTable
 70
1
  0
APPID
  5
207
100
AcDbSymbolTableRecord
100
AcDbRegAppTableRecord
  2
ACAD
 70
0
  0
ENDTAB
  0
TABLE
  2
BLOCK_RECORD
  5
1
100
AcDbSymbolTable
 70
0
  0
BLOCK_RECORD
  5
208
100
AcDbSymbolTableRecord
100
AcDbBlockTableRecord
  2
*Model_Space
  0
BLOCK_RECORD
  5
209
100
AcDbSymbolTableRecord
100
AcDbBlockTableRecord
  2
*Paper_Space
  0
ENDTAB
  0
TABLE
  2
DIMSTYLE
  5
A
100
AcDbSymbolTable
 70
1
100
AcDbDimStyleTable
 71
0
  0
DIMSTYLE
105
20A
100
AcDbSymbolTableRecord
100
AcDbDimStyleTableRecord
  2
STANDARD
 70
0
  3

  4

 40
1.0
 41
3.5
 42
0.0625
 43
0.38
 44
0.18
 45
0.0
 46
0.0
 47
0.005
 48
0.005
140
3.5
141
0.09
142
0.0
143
25.4
144
1.0
145
0.0
146
1.0
147
0.09
 71
1.0
 72
0.0
 73
0
 74
0
 75
0
 76
0
 77
1
 78
8
170
0
171
2
172
0
173
0
174
0
175
0
176
0
177
0
178
5
270
2
271
3
272
3
273
2
274
2
275
0
280
0
281
0
282
0
283
1
284
8
285
0
286
0
287
3
288
0
340
11
  0
ENDTAB
  0
ENDSEC
  0
SECTION
  2
BLOCKS
  0
BLOCK
  5
20
100
AcDbEntity
  8
0
100
AcDbBlockBegin
  2
*Model_Space
 70
0
 10
0.0
 20
0.0
 30
0.0
  3
*Model_Space
  1

  0
ENDBLK
  5
21
100
AcDbEntity
  8
0
100
AcDbBlockEnd
  0
BLOCK
  5
1C
100
AcDbEntity
  8
0
100
AcDbBlockBegin
  2
*Paper_Space
 70
0
 10
0.0
 20
0.0
 30
0.0
  3
*Paper_Space
  1

  0
ENDBLK
  5
1D
100
AcDbEntity
  8
0
100
AcDbBlockEnd
  0
ENDSEC
  0
SECTION
  2
ENTITIES
  0
MTEXT
  5
20B
100
AcDbEntity
  8
0
100
AcDbMText
 62
5
  6
CONTINUOUS
  7
STANDARD
 71
1
 72
1
 10
273.4904206103
 20
151.0099412667
 30
0.0
 11
0.0
 21
1.0
 31
0.0
 44
0.9
  1
RUD
 40
4.0
 41
10.6666666667
  0
MTEXT
  5
20C
100
AcDbEntity
  8
0
100
AcDbMText
 62
5
  6
CONTINUOUS
  7
STANDARD
 71
1
 72
1
 10
292.1218477065
 20
148.9920611279
 30
0.0
 11
0.0
 21
1.0
 31
0.0
 44
0.9
  1
IRG13
 40
3.5
 41
12.9166666667
  0
LINE
  5
20D
100
AcDbEntity
  8
0
100
AcDbLine
 62
7
  6
CONTINUOUS
 10
0.0
 20
0.0
 11
0.0
 21
297.0
  0
LINE
  5
20E
100
AcDbEntity
  8
0
100
AcDbLine
 62
7
  6
CONTINUOUS
 10
0.0
 20
0.0
 11
420.0
 21
0.0
  0
LINE
  5
20F
100
AcDbEntity
  8
0
100
AcDbLine
 62
7
  6
CONTINUOUS
 10
0.0
 20
297.0
 11
420.0
 21
297.0
  0
LINE
  5
210
100
AcDbEntity
  8
0
100
AcDbLine
 62
7
  6
CONTINUOUS
 10
420.0
 20
0.0
 11
420.0
 21
297.0
  0
LINE
  5
211
100
AcDbEntity
  8
RUNDUNGEN
100
AcDbLine
 62
7
  6
CONTINUOUS
 10
176.9834348062
 20
116.5032884053
 11
171.7599648453
 21
116.5032884053
  0
LINE
  5
212
100
AcDbEntity
  8
0
100
AcDbLine
 62
7
  6
CONTINUOUS
 10
171.7599648453
 20
116.5032884053
 11
171.7016926953
 21
116.5032884053
  0
LINE
  5
213
100
AcDbEntity
  8
0
100
AcDbLine
 62
7
  6
CONTINUOUS
 10
120.2651769172
 20
116.5032884053
 11
120.2069047672
 21
116.5032884053
  0
LINE
  5
214
100
AcDbEntity
  8
RUNDUNGEN
100
AcDbLine
 62
7
  6
CONTINUOUS
 10
120.2069047672
 20
116.5032884053
 11
114.9834348062
 21
116.5032884053
  0
LINE
  5
215
100
AcDbEntity
  8
0
100
AcDbLine
 62
7
  6
CONTINUOUS
 10
123.8285245455
 20
233.8767186141
 11
107.6100045975
 21
217.658198666
  0
LINE
  5
216
100
AcDbEntity
  8
RUNDUNGEN
100
AcDbLine
 62
7
  6
CONTINUOUS
 10
114.9834347965
 20
116.503288421
 11
108.9834348062
 21
126.2532884053
  0
LINE
  5
217
100
AcDbEntity
  8
0
100
AcDbLine
 62
7
  6
CONTINUOUS
 10
107.6100045975
 20
217.658198666
 11
101.6736142847
 21
195.5032884053
  0
LINE
  5
218
100
AcDbEntity
  8
BEZUGSACHSEN
100
AcDbLine
 62
7
  6
CONTINUOUS
 10
138.5834348062
 20
128.7282884053
 11
153.3834348062
 21
128.7282884053
  0
LINE
  5
219
100
AcDbEntity
  8
BEZUGSACHSEN
100
AcDbLine
 62
7
  6
CONTINUOUS
 10
138.5834348062
 20
133.5939236029
 11
153.3834348062
 21
133.5939236029
  0
LINE
  5
21A
100
AcDbEntity
  8
BEZUGSACHSEN
100
AcDbLine
 62
2
  6
CENTER
 10
121.3834348062
 20
137.9032884053
 11
107.4065956341
 21
137.9032884053
  0
LINE
  5
21B
100
AcDbEntity
  8
BEZUGSACHSEN
100
AcDbLine
 62
2
  6
CENTER
 10
121.3834348062
 20
137.9032884053
 11
184.9241008316
 21
137.9032884053
  0
LINE
  5
21C
100
AcDbEntity
  8
0
100
AcDbLine
 62
7
  6
CONTINUOUS
 10
107.6100045975
 20
156.8645390049
 11
108.9834348062
 21
149.0754292312
  0
LINE
  5
21D
100
AcDbEntity
  8
0
100
AcDbLine
 62
7
  6
CONTINUOUS
 10
107.6100045975
 20
156.8645390049
 11
107.6100045975
 21
173.3483781445
  0
LINE
  5
21E
100
AcDbEntity
  8
RUNDUNGEN
100
AcDbLine
 62
7
  6
CONTINUOUS
 10
108.9834348062
 20
126.2532884053
 11
108.9834348062
 21
169.0032884053
  0
LINE
  5
21F
100
AcDbEntity
  8
BEZUGSACHSEN
100
AcDbLine
 62
7
  6
CONTINUOUS
 10
138.5834348062
 20
142.2126532076
 11
153.3834348062
 21
142.2126532076
  0
LINE
  5
220
100
AcDbEntity
  8
0
100
AcDbLine
 62
7
  6
CONTINUOUS
 10
101.6736142847
 20
195.5032884053
 11
107.6100045975
 21
173.3483781445
  0
LINE
  5
221
100
AcDbEntity
  8
BEZUGSACHSEN
100
AcDbLine
 62
7
  6
CONTINUOUS
 10
138.5834348062
 20
147.0782884053
 11
153.3834348062
 21
147.0782884053
  0
LINE
  5
222
100
AcDbEntity
  8
0
100
AcDbLine
 62
7
  6
CONTINUOUS
 10
118.4069715365
 20
168.9364139716
 11
118.4069715365
 21
162.7364139716
  0
LINE
  5
223
100
AcDbEntity
  8
0
100
AcDbLine
 62
7
  6
CONTINUOUS
 10
119.1819715365
 20
162.7364139716
 11
119.1819715365
 21
165.5066267768
  0
LINE
  5
224
100
AcDbEntity
  8
0
100
AcDbLine
 62
7
  6
CONTINUOUS
 10
119.1819715365
 20
166.2981160442
 11
119.1819715365
 21
168.2768395821
  0
LINE
  5
225
100
AcDbEntity
  8
0
100
AcDbLine
 62
7
  6
CONTINUOUS
 10
124.7361384495
 20
163.6598182092
 11
125.2528046234
 21
163.1321586514
  0
LINE
  5
226
100
AcDbEntity
  8
0
100
AcDbLine
 62
7
  6
CONTINUOUS
 10
125.5111384495
 20
163.9236480574
 11
125.2528046234
 21
164.319392691
  0
LINE
  5
227
100
AcDbEntity
  8
0
100
AcDbLine
 62
7
  6
CONTINUOUS
 10
124.477804993
 20
164.1874778131
 11
124.7361384495
 21
163.6598182092
  0
LINE
  5
228
100
AcDbEntity
  8
0
100
AcDbLine
 62
7
  6
CONTINUOUS
 10
123.315304993
 20
162.7364139716
 11
122.152804993
 21
165.7704565326
  0
LINE
  5
229
100
AcDbEntity
  8
0
100
AcDbLine
 62
7
  6
CONTINUOUS
 10
121.3778048082
 20
165.5066267768
 11
122.41113808
 21
162.7364139716
  0
LINE
  5
22A
100
AcDbEntity
  8
0
100
AcDbLine
 62
7
  6
CONTINUOUS
 10
122.2819715365
 20
167.8810949484
 11
122.41113808
 21
167.4853503148
  0
LINE
  5
22B
100
AcDbEntity
  8
0
100
AcDbLine
 62
7
  6
CONTINUOUS
 10
123.18613808
 20
167.4853503148
 11
123.0569715365
 21
167.8810949484
  0
LINE
  5
22C
100
AcDbEntity
  8
BEZUGSACHSEN
100
AcDbLine
 62
2
  6
CENTER
 10
121.3834348062
 20
137.9032884053
 11
121.3834348062
 21
131.9032884053
  0
LINE
  5
22D
100
AcDbEntity
  8
BEZUGSACHSEN
100
AcDbLine
 62
2
  6
CENTER
 10
121.3834348062
 20
137.9032884053
 11
121.3834348062
 21
143.9032884053
  0
LINE
  5
22E
100
AcDbEntity
  8
0
100
AcDbLine
 62
7
  6
CONTINUOUS
 10
122.41113808
 20
167.4853503148
 11
122.41113808
 21
167.0896053115
  0
LINE
  5
22F
100
AcDbEntity
  8
0
100
AcDbLine
 62
7
  6
CONTINUOUS
 10
123.18613808
 20
166.9576904336
 11
123.18613808
 21
167.4853503148
  0
LINE
  5
230
100
AcDbEntity
  8
0
100
AcDbLine
 62
7
  6
CONTINUOUS
 10
124.34863808
 20
168.9364139716
 11
124.34863808
 21
164.8470522026
  0
LINE
  5
231
100
AcDbEntity
  8
KONSTRUKTIONSELEMENTE
100
AcDbLine
 62
7
  6
CONTINUOUS
 10
124.543285553
 20
138.5032884053
 11
124.543285553
 21
141.0032884053
  0
LINE
  5
232
100
AcDbEntity
  8
0
100
AcDbLine
 62
7
  6
CONTINUOUS
 10
125.1236384495
 20
164.8470522026
 11
125.1236384495
 21
168.9364139716
  0
LINE
  5
233
100
AcDbEntity
  8
0
100
AcDbLine
 62
7
  6
CONTINUOUS
 10
173.8962968366
 20
162.7364139716
 11
174.4373127371
 21
162.868328861
  0
LINE
  5
234
100
AcDbEntity
  8
0
100
AcDbLine
 62
7
  6
CONTINUOUS
 10
174.4373127371
 20
163.5279033313
 11
173.7610417005
 21
163.3959884534
  0
LINE
  5
235
100
AcDbEntity
  8
0
100
AcDbLine
 62
7
  6
CONTINUOUS
 10
125.2528046234
 20
163.1321586514
 11
125.7694715365
 21
162.868328861
  0
LINE
  5
236
100
AcDbEntity
  8
0
100
AcDbLine
 62
7
  6
CONTINUOUS
 10
125.8986384495
 20
163.6598182092
 11
125.5111384495
 21
163.9236480574
  0
LINE
  5
237
100
AcDbEntity
  8
0
100
AcDbLine
 62
7
  6
CONTINUOUS
 10
122.6694715365
 20
168.40875446
 11
122.152804993
 21
168.8044990937
  0
LINE
  5
238
100
AcDbEntity
  8
0
100
AcDbLine
 62
7
  6
CONTINUOUS
 10
122.02363808
 20
168.1449247042
 11
122.2819715365
 21
167.8810949484
  0
LINE
  5
239
100
AcDbEntity
  8
0
100
AcDbLine
 62
7
  6
CONTINUOUS
 10
123.0569715365
 20
167.8810949484
 11
122.6694715365
 21
168.40875446
  0
LINE
  5
23A
100
AcDbEntity
  8
0
100
AcDbLine
 62
7
  6
CONTINUOUS
 10
125.2528046234
 20
164.319392691
 11
125.1236384495
 21
164.8470522026
  0
LINE
  5
23B
100
AcDbEntity
  8
0
100
AcDbLine
 62
7
  6
CONTINUOUS
 10
124.34863808
 20
164.8470522026
 11
124.477804993
 21
164.1874778131
  0
LINE
  5
23C
100
AcDbEntity
  8
0
100
AcDbLine
 62
7
  6
CONTINUOUS
 10
128.2236384495
 20
168.9364139716
 11
128.2236384495
 21
164.8470522026
  0
LINE
  5
23D
100
AcDbEntity
  8
0
100
AcDbLine
 62
7
  6
CONTINUOUS
 10
128.9986384495
 20
164.8470522026
 11
128.9986384495
 21
168.9364139716
  0
LINE
  5
23E
100
AcDbEntity
  8
0
100
AcDbLine
 62
7
  6
CONTINUOUS
 10
130.0319715365
 20
168.9364139716
 11
130.0319715365
 21
162.7364139716
  0
LINE
  5
23F
100
AcDbEntity
  8
0
100
AcDbLine
 62
7
  6
CONTINUOUS
 10
130.8069715365
 20
163.5279033313
 11
130.8069715365
 21
168.1449247042
  0
LINE
  5
240
100
AcDbEntity
  8
0
100
AcDbLine
 62
7
  6
CONTINUOUS
 10
122.41113808
 20
167.0896053115
 11
122.2819715365
 21
166.6938606779
  0
LINE
  5
241
100
AcDbEntity
  8
0
100
AcDbLine
 62
7
  6
CONTINUOUS
 10
123.0569715365
 20
166.5619458
 11
123.18613808
 21
166.9576904336
  0
LINE
  5
242
100
AcDbEntity
  8
0
100
AcDbLine
 62
7
  6
CONTINUOUS
 10
165.7810498152
 20
163.6598182092
 11
165.2400339147
 21
163.5279033313
  0
LINE
  5
243
100
AcDbEntity
  8
0
100
AcDbLine
 62
7
  6
CONTINUOUS
 10
165.2400339147
 20
162.7364139716
 11
165.9163041773
 21
162.868328861
  0
LINE
  5
244
100
AcDbEntity
  8
0
100
AcDbLine
 62
7
  6
CONTINUOUS
 10
172.4085011753
 20
168.1449247042
 11
173.0847722118
 21
168.2768395821
  0
LINE
  5
245
100
AcDbEntity
  8
0
100
AcDbLine
 62
7
  6
CONTINUOUS
 10
118.4069715365
 20
162.7364139716
 11
119.1819715365
 21
162.7364139716
  0
LINE
  5
246
100
AcDbEntity
  8
0
100
AcDbLine
 62
7
  6
CONTINUOUS
 10
122.41113808
 20
162.7364139716
 11
123.315304993
 21
162.7364139716
  0
LINE
  5
247
100
AcDbEntity
  8
0
100
AcDbLine
 62
7
  6
CONTINUOUS
 10
126.4153046234
 20
162.7364139716
 11
126.9319715365
 21
162.7364139716
  0
LINE
  5
248
100
AcDbEntity
  8
0
100
AcDbLine
 62
7
  6
CONTINUOUS
 10
130.0319715365
 20
162.7364139716
 11
133.1319715365
 21
162.7364139716
  0
LINE
  5
249
100
AcDbEntity
  8
0
100
AcDbLine
 62
7
  6
CONTINUOUS
 10
153.7434348062
 20
162.7364139716
 11
154.554959431
 21
162.7364139716
  0
LINE
  5
24A
100
AcDbEntity
  8
0
100
AcDbLine
 62
7
  6
CONTINUOUS
 10
155.6369921995
 20
162.7364139716
 11
156.4485168242
 21
162.7364139716
  0
LINE
  5
24B
100
AcDbEntity
  8
0
100
AcDbLine
 62
7
  6
CONTINUOUS
 10
159.8298694918
 20
162.7364139716
 11
160.7766484786
 21
162.7364139716
  0
LINE
  5
24C
100
AcDbEntity
  8
0
100
AcDbLine
 62
7
  6
CONTINUOUS
 10
164.0227469776
 20
162.7364139716
 11
165.2400339147
 21
162.7364139716
  0
LINE
  5
24D
100
AcDbEntity
  8
0
100
AcDbLine
 62
7
  6
CONTINUOUS
 10
169.0271490881
 20
162.7364139716
 11
169.8386737129
 21
162.7364139716
  0
LINE
  5
24E
100
AcDbEntity
  8
0
100
AcDbLine
 62
7
  6
CONTINUOUS
 10
172.8142634876
 20
162.7364139716
 11
173.8962968366
 21
162.7364139716
  0
LINE
  5
24F
100
AcDbEntity
  8
0
100
AcDbLine
 62
7
  6
CONTINUOUS
 10
173.7610417005
 20
163.3959884534
 11
172.9495170758
 21
163.3959884534
  0
LINE
  5
250
100
AcDbEntity
  8
0
100
AcDbLine
 62
7
  6
CONTINUOUS
 10
165.2400339147
 20
163.5279033313
 11
164.0227469776
 21
163.5279033313
  0
LINE
  5
251
100
AcDbEntity
  8
0
100
AcDbLine
 62
7
  6
CONTINUOUS
 10
133.1319715365
 20
163.5279033313
 11
130.8069715365
 21
163.5279033313
  0
LINE
  5
252
100
AcDbEntity
  8
0
100
AcDbLine
 62
7
  6
CONTINUOUS
 10
126.9319715365
 20
163.5279033313
 11
126.4153046234
 21
163.5279033313
  0
LINE
  5
253
100
AcDbEntity
  8
0
100
AcDbLine
 62
7
  6
CONTINUOUS
 10
125.7694715365
 20
162.868328861
 11
126.4153046234
 21
162.7364139716
  0
LINE
  5
254
100
AcDbEntity
  8
0
100
AcDbLine
 62
7
  6
CONTINUOUS
 10
126.4153046234
 20
163.5279033313
 11
125.8986384495
 21
163.6598182092
  0
LINE
  5
255
100
AcDbEntity
  8
0
100
AcDbLine
 62
7
  6
CONTINUOUS
 10
121.63613808
 20
168.2768395821
 11
122.02363808
 21
168.1449247042
  0
LINE
  5
256
100
AcDbEntity
  8
0
100
AcDbLine
 62
7
  6
CONTINUOUS
 10
133.6486377104
 20
168.0130098263
 11
134.0361377104
 21
167.7491800705
  0
LINE
  5
257
100
AcDbEntity
  8
0
100
AcDbLine
 62
7
  6
CONTINUOUS
 10
134.8111377104
 20
168.0130098263
 11
134.2944715365
 21
168.5406693379
  0
LINE
  5
258
100
AcDbEntity
  8
0
100
AcDbLine
 62
7
  6
CONTINUOUS
 10
134.0361377104
 20
167.7491800705
 11
134.2944715365
 21
167.3534350673
  0
LINE
  5
259
100
AcDbEntity
  8
0
100
AcDbLine
 62
7
  6
CONTINUOUS
 10
134.4236377104
 20
166.8257755557
 11
134.4236377104
 21
164.8470522026
  0
LINE
  5
25A
100
AcDbEntity
  8
0
100
AcDbLine
 62
7
  6
CONTINUOUS
 10
135.1986377104
 20
164.8470522026
 11
135.1986377104
 21
166.8257755557
  0
LINE
  5
25B
100
AcDbEntity
  8
0
100
AcDbLine
 62
7
  6
CONTINUOUS
 10
128.8694715365
 20
164.1874778131
 11
128.9986384495
 21
164.8470522026
  0
LINE
  5
25C
100
AcDbEntity
  8
0
100
AcDbLine
 62
7
  6
CONTINUOUS
 10
128.2236384495
 20
164.8470522026
 11
128.0944715365
 21
164.319392691
  0
LINE
  5
25D
100
AcDbEntity
  8
0
100
AcDbLine
 62
7
  6
CONTINUOUS
 10
122.6694715365
 20
166.0342862884
 11
123.0569715365
 21
166.5619458
  0
LINE
  5
25E
100
AcDbEntity
  8
0
100
AcDbLine
 62
7
  6
CONTINUOUS
 10
133.6486377104
 20
163.6598182092
 11
133.1319715365
 21
163.5279033313
  0
LINE
  5
25F
100
AcDbEntity
  8
0
100
AcDbLine
 62
7
  6
CONTINUOUS
 10
127.4486384495
 20
163.6598182092
 11
126.9319715365
 21
163.5279033313
  0
LINE
  5
260
100
AcDbEntity
  8
0
100
AcDbLine
 62
7
  6
CONTINUOUS
 10
163.4817303031
 20
168.0130098263
 11
164.0227469776
 21
168.1449247042
  0
LINE
  5
261
100
AcDbEntity
  8
0
100
AcDbLine
 62
7
  6
CONTINUOUS
 10
133.1319715365
 20
162.7364139716
 11
133.7778053625
 21
162.868328861
  0
LINE
  5
262
100
AcDbEntity
  8
0
100
AcDbLine
 62
7
  6
CONTINUOUS
 10
126.9319715365
 20
162.7364139716
 11
127.5778046234
 21
162.868328861
  0
LINE
  5
263
100
AcDbEntity
  8
0
100
AcDbLine
 62
7
  6
CONTINUOUS
 10
164.0227469776
 20
168.9364139716
 11
163.346475941
 21
168.8044990937
  0
LINE
  5
264
100
AcDbEntity
  8
0
100
AcDbLine
 62
7
  6
CONTINUOUS
 10
173.2200258
 20
168.9364139716
 11
172.2732475871
 21
168.8044990937
  0
LINE
  5
265
100
AcDbEntity
  8
0
100
AcDbLine
 62
7
  6
CONTINUOUS
 10
171.5969765505
 20
164.1874778131
 11
170.9207055139
 21
164.1874778131
  0
LINE
  5
266
100
AcDbEntity
  8
0
100
AcDbLine
 62
7
  6
CONTINUOUS
 10
165.1047795526
 20
165.3747118989
 11
166.3220664897
 21
165.3747118989
  0
LINE
  5
267
100
AcDbEntity
  8
0
100
AcDbLine
 62
7
  6
CONTINUOUS
 10
119.1819715365
 20
165.5066267768
 11
121.3778048082
 21
165.5066267768
  0
LINE
  5
268
100
AcDbEntity
  8
0
100
AcDbLine
 62
7
  6
CONTINUOUS
 10
156.4485168242
 20
165.5066267768
 11
158.7478365298
 21
165.5066267768
  0
LINE
  5
269
100
AcDbEntity
  8
0
100
AcDbLine
 62
7
  6
CONTINUOUS
 10
173.0847722118
 20
165.6385416547
 11
173.6257881124
 21
165.6385416547
  0
LINE
  5
26A
100
AcDbEntity
  8
0
100
AcDbLine
 62
7
  6
CONTINUOUS
 10
173.6257881124
 20
166.1662011663
 11
173.0847722118
 21
166.1662011663
  0
LINE
  5
26B
100
AcDbEntity
  8
0
100
AcDbLine
 62
7
  6
CONTINUOUS
 10
167.1335911144
 20
166.1662011663
 11
165.1047795526
 21
166.1662011663
  0
LINE
  5
26C
100
AcDbEntity
  8
0
100
AcDbLine
 62
7
  6
CONTINUOUS
 10
159.018344867
 20
166.2981160442
 11
156.4485168242
 21
166.2981160442
  0
LINE
  5
26D
100
AcDbEntity
  8
0
100
AcDbLine
 62
7
  6
CONTINUOUS
 10
121.63613808
 20
166.2981160442
 11
119.1819715365
 21
166.2981160442
  0
LINE
  5
26E
100
AcDbEntity
  8
0
100
AcDbLine
 62
7
  6
CONTINUOUS
 10
166.3220664897
 20
167.3534350673
 11
167.1335911144
 21
167.3534350673
  0
LINE
  5
26F
100
AcDbEntity
  8
0
100
AcDbLine
 62
7
  6
CONTINUOUS
 10
171.05596065
 20
167.4853503148
 11
171.7322301387
 21
167.4853503148
  0
LINE
  5
270
100
AcDbEntity
  8
0
100
AcDbLine
 62
7
  6
CONTINUOUS
 10
130.8069715365
 20
168.1449247042
 11
133.1319715365
 21
168.1449247042
  0
LINE
  5
271
100
AcDbEntity
  8
0
100
AcDbLine
 62
7
  6
CONTINUOUS
 10
164.0227469776
 20
168.1449247042
 11
165.2400339147
 21
168.1449247042
  0
LINE
  5
272
100
AcDbEntity
  8
0
100
AcDbLine
 62
7
  6
CONTINUOUS
 10
119.1819715365
 20
168.2768395821
 11
121.63613808
 21
168.2768395821
  0
LINE
  5
273
100
AcDbEntity
  8
0
100
AcDbLine
 62
7
  6
CONTINUOUS
 10
156.4485168242
 20
168.2768395821
 11
159.018344867
 21
168.2768395821
  0
LINE
  5
274
100
AcDbEntity
  8
0
100
AcDbLine
 62
7
  6
CONTINUOUS
 10
173.0847722118
 20
168.2768395821
 11
173.6257881124
 21
168.2768395821
  0
LINE
  5
275
100
AcDbEntity
  8
0
100
AcDbLine
 62
7
  6
CONTINUOUS
 10
163.346475941
 20
162.868328861
 11
164.0227469776
 21
162.7364139716
  0
LINE
  5
276
100
AcDbEntity
  8
0
100
AcDbLine
 62
7
  6
CONTINUOUS
 10
122.152804993
 20
168.8044990937
 11
121.5069715365
 21
168.9364139716
  0
LINE
  5
277
100
AcDbEntity
  8
0
100
AcDbLine
 62
7
  6
CONTINUOUS
 10
133.7778053625
 20
168.8044990937
 11
133.1319715365
 21
168.9364139716
  0
LINE
  5
278
100
AcDbEntity
  8
0
100
AcDbLine
 62
7
  6
CONTINUOUS
 10
164.0227469776
 20
163.5279033313
 11
163.4817303031
 21
163.6598182092
  0
LINE
  5
279
100
AcDbEntity
  8
0
100
AcDbLine
 62
7
  6
CONTINUOUS
 10
133.1319715365
 20
168.1449247042
 11
133.6486377104
 21
168.0130098263
  0
LINE
  5
27A
100
AcDbEntity
  8
0
100
AcDbLine
 62
7
  6
CONTINUOUS
 10
134.2944715365
 20
168.5406693379
 11
133.7778053625
 21
168.8044990937
  0
LINE
  5
27B
100
AcDbEntity
  8
0
100
AcDbLine
 62
7
  6
CONTINUOUS
 10
135.0694715365
 20
167.4853503148
 11
134.8111377104
 21
168.0130098263
  0
LINE
  5
27C
100
AcDbEntity
  8
0
100
AcDbLine
 62
7
  6
CONTINUOUS
 10
134.2944715365
 20
167.3534350673
 11
134.4236377104
 21
166.8257755557
  0
LINE
  5
27D
100
AcDbEntity
  8
0
100
AcDbLine
 62
7
  6
CONTINUOUS
 10
135.1986377104
 20
166.8257755557
 11
135.0694715365
 21
167.4853503148
  0
LINE
  5
27E
100
AcDbEntity
  8
0
100
AcDbLine
 62
7
  6
CONTINUOUS
 10
138.5834348062
 20
138.5032884053
 11
138.5834348062
 21
123.6145424458
  0
LINE
  5
27F
100
AcDbEntity
  8
KONSTRUKTIONSELEMENTE
100
AcDbLine
 62
7
  6
CONTINUOUS
 10
138.5834348062
 20
138.5032884053
 11
138.5834348062
 21
155.7032884053
  0
LINE
  5
280
100
AcDbEntity
  8
0
100
AcDbLine
 62
7
  6
CONTINUOUS
 10
135.0694715365
 20
164.1874778131
 11
135.1986377104
 21
164.8470522026
  0
LINE
  5
281
100
AcDbEntity
  8
0
100
AcDbLine
 62
7
  6
CONTINUOUS
 10
134.4236377104
 20
164.8470522026
 11
134.2944715365
 21
164.319392691
  0
LINE
  5
282
100
AcDbEntity
  8
0
100
AcDbLine
 62
7
  6
CONTINUOUS
 10
128.6111384495
 20
163.6598182092
 11
128.8694715365
 21
164.1874778131
  0
LINE
  5
283
100
AcDbEntity
  8
0
100
AcDbLine
 62
7
  6
CONTINUOUS
 10
128.0944715365
 20
164.319392691
 11
127.8361384495
 21
163.9236480574
  0
LINE
  5
284
100
AcDbEntity
  8
0
100
AcDbLine
 62
7
  6
CONTINUOUS
 10
122.2819715365
 20
166.6938606779
 11
122.02363808
 21
166.4300309221
  0
LINE
  5
285
100
AcDbEntity
  8
0
100
AcDbLine
 62
7
  6
CONTINUOUS
 10
173.4905345242
 20
168.9364139716
 11
173.2200258
 21
168.9364139716
  0
LINE
  5
286
100
AcDbEntity
  8
0
100
AcDbLine
 62
7
  6
CONTINUOUS
 10
169.8386737129
 20
168.9364139716
 11
169.0271490881
 21
168.9364139716
  0
LINE
  5
287
100
AcDbEntity
  8
0
100
AcDbLine
 62
7
  6
CONTINUOUS
 10
165.2400339147
 20
168.9364139716
 11
164.0227469776
 21
168.9364139716
  0
LINE
  5
288
100
AcDbEntity
  8
0
100
AcDbLine
 62
7
  6
CONTINUOUS
 10
158.8830908919
 20
168.9364139716
 11
155.6369921995
 21
168.9364139716
  0
LINE
  5
289
100
AcDbEntity
  8
0
100
AcDbLine
 62
7
  6
CONTINUOUS
 10
154.554959431
 20
168.9364139716
 11
153.7434348062
 21
168.9364139716
  0
LINE
  5
28A
100
AcDbEntity
  8
0
100
AcDbLine
 62
7
  6
CONTINUOUS
 10
133.1319715365
 20
168.9364139716
 11
130.0319715365
 21
168.9364139716
  0
LINE
  5
28B
100
AcDbEntity
  8
0
100
AcDbLine
 62
7
  6
CONTINUOUS
 10
128.9986384495
 20
168.9364139716
 11
128.2236384495
 21
168.9364139716
  0
LINE
  5
28C
100
AcDbEntity
  8
0
100
AcDbLine
 62
7
  6
CONTINUOUS
 10
125.1236384495
 20
168.9364139716
 11
124.34863808
 21
168.9364139716
  0
LINE
  5
28D
100
AcDbEntity
  8
0
100
AcDbLine
 62
7
  6
CONTINUOUS
 10
121.5069715365
 20
168.9364139716
 11
118.4069715365
 21
168.9364139716
  0
LINE
  5
28E
100
AcDbEntity
  8
0
100
AcDbLine
 62
7
  6
CONTINUOUS
 10
174.4373127371
 20
168.8044990937
 11
173.4905345242
 21
168.9364139716
  0
LINE
  5
28F
100
AcDbEntity
  8
0
100
AcDbLine
 62
7
  6
CONTINUOUS
 10
173.6257881124
 20
165.6385416547
 11
174.4373127371
 21
165.5066267768
  0
LINE
  5
290
100
AcDbEntity
  8
0
100
AcDbLine
 62
7
  6
CONTINUOUS
 10
172.9495170758
 20
163.3959884534
 11
172.2732475871
 21
163.5279033313
  0
LINE
  5
291
100
AcDbEntity
  8
0
100
AcDbLine
 62
7
  6
CONTINUOUS
 10
159.5593611546
 20
168.8044990937
 11
158.8830908919
 21
168.9364139716
  0
LINE
  5
292
100
AcDbEntity
  8
0
100
AcDbLine
 62
7
  6
CONTINUOUS
 10
165.9163041773
 20
168.8044990937
 11
165.2400339147
 21
168.9364139716
  0
LINE
  5
293
100
AcDbEntity
  8
0
100
AcDbLine
 62
7
  6
CONTINUOUS
 10
173.6257881124
 20
168.2768395821
 11
174.3020591489
 21
168.1449247042
  0
LINE
  5
294
100
AcDbEntity
  8
0
100
AcDbLine
 62
7
  6
CONTINUOUS
 10
172.2732475871
 20
162.868328861
 11
172.8142634876
 21
162.7364139716
  0
LINE
  5
295
100
AcDbEntity
  8
0
100
AcDbLine
 62
7
  6
CONTINUOUS
 10
165.2400339147
 20
168.1449247042
 11
165.7810498152
 21
168.0130098263
  0
LINE
  5
296
100
AcDbEntity
  8
0
100
AcDbLine
 62
7
  6
CONTINUOUS
 10
159.018344867
 20
168.2768395821
 11
159.4241071794
 21
168.1449247042
  0
LINE
  5
297
100
AcDbEntity
  8
0
100
AcDbLine
 62
7
  6
CONTINUOUS
 10
162.8054600405
 20
163.1321586514
 11
163.346475941
 21
162.868328861
  0
LINE
  5
298
100
AcDbEntity
  8
BEZUGSACHSEN
100
AcDbLine
 62
2
  6
CENTER
 10
145.9834348062
 20
195.5032884053
 11
145.9834348062
 21
123.0497159573
  0
LINE
  5
299
100
AcDbEntity
  8
BEZUGSACHSEN
100
AcDbLine
 62
2
  6
CENTER
 10
145.9834348062
 20
195.5032884053
 11
145.9834348062
 21
242.8131089268
  0
LINE
  5
29A
100
AcDbEntity
  8
0
100
AcDbLine
 62
7
  6
CONTINUOUS
 10
134.8111377104
 20
163.6598182092
 11
135.0694715365
 21
164.1874778131
  0
LINE
  5
29B
100
AcDbEntity
  8
0
100
AcDbLine
 62
7
  6
CONTINUOUS
 10
134.2944715365
 20
164.319392691
 11
134.0361377104
 21
163.9236480574
  0
LINE
  5
29C
100
AcDbEntity
  8
0
100
AcDbLine
 62
7
  6
CONTINUOUS
 10
128.0944715365
 20
163.1321586514
 11
128.6111384495
 21
163.6598182092
  0
LINE
  5
29D
100
AcDbEntity
  8
0
100
AcDbLine
 62
7
  6
CONTINUOUS
 10
122.152804993
 20
165.7704565326
 11
122.6694715365
 21
166.0342862884
  0
LINE
  5
29E
100
AcDbEntity
  8
RUNDUNGEN
100
AcDbLine
 62
7
  6
CONTINUOUS
 10
171.1197361013
 20
176.8127634246
 11
166.8320384992
 21
176.8127634246
  0
LINE
  5
29F
100
AcDbEntity
  8
RUNDUNGEN
100
AcDbLine
 62
7
  6
CONTINUOUS
 10
125.1348311133
 20
176.8127634246
 11
120.8471328843
 21
176.8127634246
  0
LINE
  5
2A0
100
AcDbEntity
  8
RUNDUNGEN
100
AcDbLine
 62
7
  6
CONTINUOUS
 10
132.5266380643
 20
177.0032884053
 11
159.4402315482
 21
177.0032884053
  0
LINE
  5
2A1
100
AcDbEntity
  8
0
100
AcDbLine
 62
7
  6
CONTINUOUS
 10
175.38409095
 20
165.6385416547
 11
174.7078214613
 21
165.9023714105
  0
LINE
  5
2A2
100
AcDbEntity
  8
0
100
AcDbLine
 62
7
  6
CONTINUOUS
 10
171.7322301387
 20
163.1321586514
 11
172.2732475871
 21
162.868328861
  0
LINE
  5
2A3
100
AcDbEntity
  8
0
100
AcDbLine
 62
7
  6
CONTINUOUS
 10
172.2732475871
 20
163.5279033313
 11
172.0027388629
 21
163.6598182092
  0
LINE
  5
2A4
100
AcDbEntity
  8
0
100
AcDbLine
 62
7
  6
CONTINUOUS
 10
166.4573208518
 20
168.5406693379
 11
165.9163041773
 21
168.8044990937
  0
LINE
  5
2A5
100
AcDbEntity
  8
0
100
AcDbLine
 62
7
  6
CONTINUOUS
 10
163.4817303031
 20
163.6598182092
 11
163.0759679907
 21
163.9236480574
  0
LINE
  5
2A6
100
AcDbEntity
  8
0
100
AcDbLine
 62
7
  6
CONTINUOUS
 10
160.100377829
 20
168.40875446
 11
159.5593611546
 21
168.8044990937
  0
LINE
  5
2A7
100
AcDbEntity
  8
0
100
AcDbLine
 62
7
  6
CONTINUOUS
 10
134.2944715365
 20
163.1321586514
 11
134.8111377104
 21
163.6598182092
  0
LINE
  5
2A8
100
AcDbEntity
  8
0
100
AcDbLine
 62
7
  6
CONTINUOUS
 10
127.8361384495
 20
163.9236480574
 11
127.4486384495
 21
163.6598182092
  0
LINE
  5
2A9
100
AcDbEntity
  8
0
100
AcDbLine
 62
7
  6
CONTINUOUS
 10
134.0361377104
 20
163.9236480574
 11
133.6486377104
 21
163.6598182092
  0
LINE
  5
2AA
100
AcDbEntity
  8
0
100
AcDbLine
 62
7
  6
CONTINUOUS
 10
127.5778046234
 20
162.868328861
 11
128.0944715365
 21
163.1321586514
  0
LINE
  5
2AB
100
AcDbEntity
  8
0
100
AcDbLine
 62
7
  6
CONTINUOUS
 10
122.02363808
 20
166.4300309221
 11
121.63613808
 21
166.2981160442
  0
LINE
  5
2AC
100
AcDbEntity
  8
0
100
AcDbLine
 62
7
  6
CONTINUOUS
 10
174.9783286376
 20
168.5406693379
 11
174.4373127371
 21
168.8044990937
  0
LINE
  5
2AD
100
AcDbEntity
  8
0
100
AcDbLine
 62
7
  6
CONTINUOUS
 10
171.3264678263
 20
163.3959884534
 11
171.7322301387
 21
163.1321586514
  0
LINE
  5
2AE
100
AcDbEntity
  8
0
100
AcDbLine
 62
7
  6
CONTINUOUS
 10
165.7810498152
 20
168.0130098263
 11
166.1868121276
 21
167.7491800705
  0
LINE
  5
2AF
100
AcDbEntity
  8
0
100
AcDbLine
 62
7
  6
CONTINUOUS
 10
174.4373127371
 20
165.5066267768
 11
174.8430750495
 21
165.2427970211
  0
LINE
  5
2B0
100
AcDbEntity
  8
0
100
AcDbLine
 62
7
  6
CONTINUOUS
 10
162.264443366
 20
163.6598182092
 11
162.8054600405
 21
163.1321586514
  0
LINE
  5
2B1
100
AcDbEntity
  8
0
100
AcDbLine
 62
7
  6
CONTINUOUS
 10
159.4241071794
 20
168.1449247042
 11
159.6946155167
 21
167.8810949484
  0
LINE
  5
2B2
100
AcDbEntity
  8
0
100
AcDbLine
 62
7
  6
CONTINUOUS
 10
160.5061397544
 20
167.8810949484
 11
160.100377829
 21
168.40875446
  0
LINE
  5
2B3
100
AcDbEntity
  8
0
100
AcDbLine
 62
7
  6
CONTINUOUS
 10
153.3834348062
 20
123.6145424458
 11
153.3834348062
 21
138.5032884053
  0
LINE
  5
2B4
100
AcDbEntity
  8
KONSTRUKTIONSELEMENTE
100
AcDbLine
 62
7
  6
CONTINUOUS
 10
153.3834348062
 20
138.5032884053
 11
153.3834348062
 21
155.7032885261
  0
LINE
  5
2B5
100
AcDbEntity
  8
0
100
AcDbLine
 62
7
  6
CONTINUOUS
 10
153.7434348062
 20
168.9364139716
 11
153.7434348062
 21
162.7364139716
  0
LINE
  5
2B6
100
AcDbEntity
  8
0
100
AcDbLine
 62
7
  6
CONTINUOUS
 10
154.554959431
 20
162.7364139716
 11
154.554959431
 21
168.9364139716
  0
LINE
  5
2B7
100
AcDbEntity
  8
0
100
AcDbLine
 62
7
  6
CONTINUOUS
 10
155.6369921995
 20
168.9364139716
 11
155.6369921995
 21
162.7364139716
  0
LINE
  5
2B8
100
AcDbEntity
  8
0
100
AcDbLine
 62
7
  6
CONTINUOUS
 10
156.4485168242
 20
162.7364139716
 11
156.4485168242
 21
165.5066267768
  0
LINE
  5
2B9
100
AcDbEntity
  8
0
100
AcDbLine
 62
7
  6
CONTINUOUS
 10
156.4485168242
 20
166.2981160442
 11
156.4485168242
 21
168.2768395821
  0
LINE
  5
2BA
100
AcDbEntity
  8
0
100
AcDbLine
 62
7
  6
CONTINUOUS
 10
133.7778053625
 20
162.868328861
 11
134.2944715365
 21
163.1321586514
  0
LINE
  5
2BB
100
AcDbEntity
  8
0
100
AcDbLine
 62
7
  6
CONTINUOUS
 10
174.3020591489
 20
168.1449247042
 11
174.7078214613
 21
167.8810949484
  0
LINE
  5
2BC
100
AcDbEntity
  8
0
100
AcDbLine
 62
7
  6
CONTINUOUS
 10
166.9983375263
 20
168.0130098263
 11
166.4573208518
 21
168.5406693379
  0
LINE
  5
2BD
100
AcDbEntity
  8
0
100
AcDbLine
 62
7
  6
CONTINUOUS
 10
172.0027388629
 20
163.6598182092
 11
171.7322301387
 21
163.9236480574
  0
LINE
  5
2BE
100
AcDbEntity
  8
0
100
AcDbLine
 62
7
  6
CONTINUOUS
 10
163.0759679907
 20
163.9236480574
 11
162.8054600405
 21
164.319392691
  0
LINE
  5
2BF
100
AcDbEntity
  8
0
100
AcDbLine
 62
7
  6
CONTINUOUS
 10
161.9939354157
 20
164.1874778131
 11
162.264443366
 21
163.6598182092
  0
LINE
  5
2C0
100
AcDbEntity
  8
0
100
AcDbLine
 62
7
  6
CONTINUOUS
 10
160.7766484786
 20
162.7364139716
 11
159.5593611546
 21
165.7704565326
  0
LINE
  5
2C1
100
AcDbEntity
  8
0
100
AcDbLine
 62
7
  6
CONTINUOUS
 10
158.7478365298
 20
165.5066267768
 11
159.8298694918
 21
162.7364139716
  0
LINE
  5
2C2
100
AcDbEntity
  8
0
100
AcDbLine
 62
7
  6
CONTINUOUS
 10
159.6946155167
 20
167.8810949484
 11
159.8298694918
 21
167.4853503148
  0
LINE
  5
2C3
100
AcDbEntity
  8
0
100
AcDbLine
 62
7
  6
CONTINUOUS
 10
160.6413941165
 20
167.4853503148
 11
160.5061397544
 21
167.8810949484
  0
LINE
  5
2C4
100
AcDbEntity
  8
0
100
AcDbLine
 62
7
  6
CONTINUOUS
 10
159.8298694918
 20
167.4853503148
 11
159.8298694918
 21
167.0896053115
  0
LINE
  5
2C5
100
AcDbEntity
  8
0
100
AcDbLine
 62
7
  6
CONTINUOUS
 10
160.6413941165
 20
166.9576904336
 11
160.6413941165
 21
167.4853503148
  0
LINE
  5
2C6
100
AcDbEntity
  8
0
100
AcDbLine
 62
7
  6
CONTINUOUS
 10
159.4241071794
 20
166.4300309221
 11
159.018344867
 21
166.2981160442
  0
LINE
  5
2C7
100
AcDbEntity
  8
0
100
AcDbLine
 62
7
  6
CONTINUOUS
 10
175.519346086
 20
168.0130098263
 11
174.9783286376
 21
168.5406693379
  0
LINE
  5
2C8
100
AcDbEntity
  8
0
100
AcDbLine
 62
7
  6
CONTINUOUS
 10
171.05596065
 20
163.7917330871
 11
171.3264678263
 21
163.3959884534
  0
LINE
  5
2C9
100
AcDbEntity
  8
0
100
AcDbLine
 62
7
  6
CONTINUOUS
 10
166.1868121276
 20
167.7491800705
 11
166.3220664897
 21
167.3534350673
  0
LINE
  5
2CA
100
AcDbEntity
  8
0
100
AcDbLine
 62
7
  6
CONTINUOUS
 10
162.8054600405
 20
164.319392691
 11
162.6702056784
 21
164.8470522026
  0
LINE
  5
2CB
100
AcDbEntity
  8
0
100
AcDbLine
 62
7
  6
CONTINUOUS
 10
161.8586810536
 20
164.8470522026
 11
161.9939354157
 21
164.1874778131
  0
LINE
  5
2CC
100
AcDbEntity
  8
0
100
AcDbLine
 62
7
  6
CONTINUOUS
 10
161.8586810536
 20
166.8257755557
 11
161.8586810536
 21
164.8470522026
  0
LINE
  5
2CD
100
AcDbEntity
  8
0
100
AcDbLine
 62
7
  6
CONTINUOUS
 10
162.6702056784
 20
164.8470522026
 11
162.6702056784
 21
166.8257755557
  0
LINE
  5
2CE
100
AcDbEntity
  8
0
100
AcDbLine
 62
7
  6
CONTINUOUS
 10
165.1047795526
 20
166.1662011663
 11
165.1047795526
 21
165.3747118989
  0
LINE
  5
2CF
100
AcDbEntity
  8
0
100
AcDbLine
 62
7
  6
CONTINUOUS
 10
166.3220664897
 20
165.3747118989
 11
166.3220664897
 21
164.319392691
  0
LINE
  5
2D0
100
AcDbEntity
  8
0
100
AcDbLine
 62
7
  6
CONTINUOUS
 10
161.9939354157
 20
167.4853503148
 11
161.8586810536
 21
166.8257755557
  0
LINE
  5
2D1
100
AcDbEntity
  8
0
100
AcDbLine
 62
7
  6
CONTINUOUS
 10
162.6702056784
 20
166.8257755557
 11
162.8054600405
 21
167.3534350673
  0
LINE
  5
2D2
100
AcDbEntity
  8
0
100
AcDbLine
 62
7
  6
CONTINUOUS
 10
159.8298694918
 20
167.0896053115
 11
159.6946155167
 21
166.6938606779
  0
LINE
  5
2D3
100
AcDbEntity
  8
0
100
AcDbLine
 62
7
  6
CONTINUOUS
 10
160.5061397544
 20
166.5619458
 11
160.6413941165
 21
166.9576904336
  0
LINE
  5
2D4
100
AcDbEntity
  8
0
100
AcDbLine
 62
7
  6
CONTINUOUS
 10
162.264443366
 20
168.0130098263
 11
161.9939354157
 21
167.4853503148
  0
LINE
  5
2D5
100
AcDbEntity
  8
0
100
AcDbLine
 62
7
  6
CONTINUOUS
 10
162.8054600405
 20
167.3534350673
 11
163.0759679907
 21
167.7491800705
  0
LINE
  5
2D6
100
AcDbEntity
  8
0
100
AcDbLine
 62
7
  6
CONTINUOUS
 10
160.100377829
 20
166.0342862884
 11
160.5061397544
 21
166.5619458
  0
LINE
  5
2D7
100
AcDbEntity
  8
0
100
AcDbLine
 62
7
  6
CONTINUOUS
 10
159.6946155167
 20
166.6938606779
 11
159.4241071794
 21
166.4300309221
  0
LINE
  5
2D8
100
AcDbEntity
  8
0
100
AcDbLine
 62
7
  6
CONTINUOUS
 10
162.8054600405
 20
168.5406693379
 11
162.264443366
 21
168.0130098263
  0
LINE
  5
2D9
100
AcDbEntity
  8
0
100
AcDbLine
 62
7
  6
CONTINUOUS
 10
163.0759679907
 20
167.7491800705
 11
163.4817303031
 21
168.0130098263
  0
LINE
  5
2DA
100
AcDbEntity
  8
0
100
AcDbLine
 62
7
  6
CONTINUOUS
 10
163.346475941
 20
168.8044990937
 11
162.8054600405
 21
168.5406693379
  0
LINE
  5
2DB
100
AcDbEntity
  8
0
100
AcDbLine
 62
7
  6
CONTINUOUS
 10
159.5593611546
 20
165.7704565326
 11
160.100377829
 21
166.0342862884
  0
LINE
  5
2DC
100
AcDbEntity
  8
0
100
AcDbLine
 62
7
  6
CONTINUOUS
 10
172.2732475871
 20
168.8044990937
 11
171.7322301387
 21
168.5406693379
  0
LINE
  5
2DD
100
AcDbEntity
  8
0
100
AcDbLine
 62
7
  6
CONTINUOUS
 10
174.4373127371
 20
166.4300309221
 11
173.6257881124
 21
166.1662011663
  0
LINE
  5
2DE
100
AcDbEntity
  8
BEZUGSACHSEN
100
AcDbLine
 62
2
  6
CENTER
 10
145.9834348062
 20
195.5032884053
 11
98.6736142847
 21
195.5032884053
  0
LINE
  5
2DF
100
AcDbEntity
  8
BEZUGSACHSEN
100
AcDbLine
 62
2
  6
CENTER
 10
145.9834348062
 20
195.5032884053
 11
193.2932553278
 21
195.5032884053
  0
LINE
  5
2E0
100
AcDbEntity
  8
0
100
AcDbLine
 62
7
  6
CONTINUOUS
 10
175.6545996742
 20
165.2427970211
 11
175.38409095
 21
165.6385416547
  0
LINE
  5
2E1
100
AcDbEntity
  8
0
100
AcDbLine
 62
7
  6
CONTINUOUS
 10
174.7078214613
 20
167.8810949484
 11
174.9783286376
 21
167.4853503148
  0
LINE
  5
2E2
100
AcDbEntity
  8
0
100
AcDbLine
 62
7
  6
CONTINUOUS
 10
171.7322301387
 20
163.9236480574
 11
171.5969765505
 21
164.1874778131
  0
LINE
  5
2E3
100
AcDbEntity
  8
0
100
AcDbLine
 62
7
  6
CONTINUOUS
 10
174.8430750495
 20
165.2427970211
 11
175.1135837737
 21
164.7151373247
  0
LINE
  5
2E4
100
AcDbEntity
  8
0
100
AcDbLine
 62
7
  6
CONTINUOUS
 10
170.9207055139
 20
164.1874778131
 11
171.05596065
 21
163.7917330871
  0
LINE
  5
2E5
100
AcDbEntity
  8
0
100
AcDbLine
 62
7
  6
CONTINUOUS
 10
167.1335911144
 20
167.3534350673
 11
166.9983375263
 21
168.0130098263
  0
LINE
  5
2E6
100
AcDbEntity
  8
0
100
AcDbLine
 62
7
  6
CONTINUOUS
 10
167.1335911144
 20
164.1874778131
 11
167.1335911144
 21
166.1662011663
  0
LINE
  5
2E7
100
AcDbEntity
  8
KONSTRUKTIONSELEMENTE
100
AcDbLine
 62
7
  6
CONTINUOUS
 10
167.4235840595
 20
138.5032884053
 11
167.4235840595
 21
141.0032884053
  0
LINE
  5
2E8
100
AcDbEntity
  8
0
100
AcDbLine
 62
7
  6
CONTINUOUS
 10
168.2156244634
 20
168.0130098263
 11
168.2156244634
 21
166.9576904336
  0
LINE
  5
2E9
100
AcDbEntity
  8
0
100
AcDbLine
 62
7
  6
CONTINUOUS
 10
169.0271490881
 20
167.8810949484
 11
169.0271490881
 21
162.7364139716
  0
LINE
  5
2EA
100
AcDbEntity
  8
0
100
AcDbLine
 62
7
  6
CONTINUOUS
 10
169.8386737129
 20
162.7364139716
 11
169.8386737129
 21
168.9364139716
  0
LINE
  5
2EB
100
AcDbEntity
  8
0
100
AcDbLine
 62
7
  6
CONTINUOUS
 10
166.9983375263
 20
163.6598182092
 11
167.1335911144
 21
164.1874778131
  0
LINE
  5
2EC
100
AcDbEntity
  8
0
100
AcDbLine
 62
7
  6
CONTINUOUS
 10
166.3220664897
 20
164.319392691
 11
166.1868121276
 21
163.9236480574
  0
LINE
  5
2ED
100
AcDbEntity
  8
0
100
AcDbLine
 62
7
  6
CONTINUOUS
 10
169.0271490881
 20
168.9364139716
 11
168.2156244634
 21
168.0130098263
  0
LINE
  5
2EE
100
AcDbEntity
  8
0
100
AcDbLine
 62
7
  6
CONTINUOUS
 10
168.2156244634
 20
166.9576904336
 11
169.0271490881
 21
167.8810949484
  0
LINE
  5
2EF
100
AcDbEntity
  8
0
100
AcDbLine
 62
7
  6
CONTINUOUS
 10
171.7322301387
 20
168.5406693379
 11
171.1912142381
 21
168.0130098263
  0
LINE
  5
2F0
100
AcDbEntity
  8
0
100
AcDbLine
 62
7
  6
CONTINUOUS
 10
166.4573208518
 20
163.1321586514
 11
166.9983375263
 21
163.6598182092
  0
LINE
  5
2F1
100
AcDbEntity
  8
0
100
AcDbLine
 62
7
  6
CONTINUOUS
 10
172.0027388629
 20
167.8810949484
 11
172.4085011753
 21
168.1449247042
  0
LINE
  5
2F2
100
AcDbEntity
  8
0
100
AcDbLine
 62
7
  6
CONTINUOUS
 10
166.1868121276
 20
163.9236480574
 11
165.7810498152
 21
163.6598182092
  0
LINE
  5
2F3
100
AcDbEntity
  8
0
100
AcDbLine
 62
7
  6
CONTINUOUS
 10
165.9163041773
 20
162.868328861
 11
166.4573208518
 21
163.1321586514
  0
LINE
  5
2F4
100
AcDbEntity
  8
0
100
AcDbLine
 62
7
  6
CONTINUOUS
 10
174.7078214613
 20
163.6598182092
 11
174.4373127371
 21
163.5279033313
  0
LINE
  5
2F5
100
AcDbEntity
  8
0
100
AcDbLine
 62
7
  6
CONTINUOUS
 10
175.7898532624
 20
164.7151373247
 11
175.6545996742
 21
165.2427970211
  0
LINE
  5
2F6
100
AcDbEntity
  8
0
100
AcDbLine
 62
7
  6
CONTINUOUS
 10
173.0847722118
 20
166.1662011663
 11
173.0847722118
 21
165.6385416547
  0
LINE
  5
2F7
100
AcDbEntity
  8
0
100
AcDbLine
 62
7
  6
CONTINUOUS
 10
174.9783286376
 20
167.4853503148
 11
174.9783286376
 21
167.2215201894
  0
LINE
  5
2F8
100
AcDbEntity
  8
0
100
AcDbLine
 62
7
  6
CONTINUOUS
 10
175.1135837737
 20
164.7151373247
 11
175.1135837737
 21
164.1874778131
  0
LINE
  5
2F9
100
AcDbEntity
  8
0
100
AcDbLine
 62
7
  6
CONTINUOUS
 10
175.6545996742
 20
167.2215201894
 11
175.6545996742
 21
167.4853503148
  0
LINE
  5
2FA
100
AcDbEntity
  8
0
100
AcDbLine
 62
7
  6
CONTINUOUS
 10
175.7898532624
 20
164.1874778131
 11
175.7898532624
 21
164.7151373247
  0
LINE
  5
2FB
100
AcDbEntity
  8
0
100
AcDbLine
 62
7
  6
CONTINUOUS
 10
171.1912142381
 20
168.0130098263
 11
171.05596065
 21
167.4853503148
  0
LINE
  5
2FC
100
AcDbEntity
  8
0
100
AcDbLine
 62
7
  6
CONTINUOUS
 10
174.9783286376
 20
167.2215201894
 11
174.7078214613
 21
166.6938606779
  0
LINE
  5
2FD
100
AcDbEntity
  8
0
100
AcDbLine
 62
7
  6
CONTINUOUS
 10
171.7322301387
 20
167.4853503148
 11
172.0027388629
 21
167.8810949484
  0
LINE
  5
2FE
100
AcDbEntity
  8
0
100
AcDbLine
 62
7
  6
CONTINUOUS
 10
175.2488373618
 20
166.2981160442
 11
175.519346086
 21
166.6938606779
  0
LINE
  5
2FF
100
AcDbEntity
  8
0
100
AcDbLine
 62
7
  6
CONTINUOUS
 10
174.7078214613
 20
166.6938606779
 11
174.4373127371
 21
166.4300309221
  0
LINE
  5
300
100
AcDbEntity
  8
0
100
AcDbLine
 62
7
  6
CONTINUOUS
 10
174.9783286376
 20
163.9236480574
 11
174.7078214613
 21
163.6598182092
  0
LINE
  5
301
100
AcDbEntity
  8
0
100
AcDbLine
 62
7
  6
CONTINUOUS
 10
174.7078214613
 20
165.9023714105
 11
175.2488373618
 21
166.2981160442
  0
LINE
  5
302
100
AcDbEntity
  8
0
100
AcDbLine
 62
7
  6
CONTINUOUS
 10
174.9783286376
 20
163.1321586514
 11
175.38409095
 21
163.3959884534
  0
LINE
  5
303
100
AcDbEntity
  8
0
100
AcDbLine
 62
7
  6
CONTINUOUS
 10
174.4373127371
 20
162.868328861
 11
174.9783286376
 21
163.1321586514
  0
LINE
  5
304
100
AcDbEntity
  8
0
100
AcDbLine
 62
7
  6
CONTINUOUS
 10
175.6545996742
 20
167.4853503148
 11
175.519346086
 21
168.0130098263
  0
LINE
  5
305
100
AcDbEntity
  8
0
100
AcDbLine
 62
7
  6
CONTINUOUS
 10
175.519346086
 20
166.6938606779
 11
175.6545996742
 21
167.2215201894
  0
LINE
  5
306
100
AcDbEntity
  8
0
100
AcDbLine
 62
7
  6
CONTINUOUS
 10
175.6545996742
 20
163.7917330871
 11
175.7898532624
 21
164.1874778131
  0
LINE
  5
307
100
AcDbEntity
  8
0
100
AcDbLine
 62
7
  6
CONTINUOUS
 10
175.1135837737
 20
164.1874778131
 11
174.9783286376
 21
163.9236480574
  0
LINE
  5
308
100
AcDbEntity
  8
0
100
AcDbLine
 62
7
  6
CONTINUOUS
 10
175.38409095
 20
163.3959884534
 11
175.6545996742
 21
163.7917330871
  0
LINE
  5
309
100
AcDbEntity
  8
RUNDUNGEN
100
AcDbLine
 62
7
  6
CONTINUOUS
 10
182.9834348062
 20
126.2532884053
 11
182.9834348062
 21
169.0032884053
  0
LINE
  5
30A
100
AcDbEntity
  8
0
100
AcDbLine
 62
7
  6
CONTINUOUS
 10
184.356865015
 20
156.8645390049
 11
184.356865015
 21
173.3483781445
  0
LINE
  5
30B
100
AcDbEntity
  8
0
100
AcDbLine
 62
7
  6
CONTINUOUS
 10
184.356865015
 20
173.3483781445
 11
190.2932553278
 21
195.5032884053
  0
LINE
  5
30C
100
AcDbEntity
  8
0
100
AcDbLine
 62
7
  6
CONTINUOUS
 10
184.356865015
 20
156.8645390049
 11
182.9834348062
 21
149.0754292312
  0
LINE
  5
30D
100
AcDbEntity
  8
0
100
AcDbLine
 62
7
  6
CONTINUOUS
 10
190.2932553278
 20
195.5032884053
 11
184.356865015
 21
217.658198666
  0
LINE
  5
30E
100
AcDbEntity
  8
0
100
AcDbLine
 62
7
  6
CONTINUOUS
 10
184.356865015
 20
217.658198666
 11
168.138345067
 21
233.8767186141
  0
LINE
  5
30F
100
AcDbEntity
  8
RUNDUNGEN
100
AcDbLine
 62
7
  6
CONTINUOUS
 10
182.9834348062
 20
126.2532884053
 11
176.9834348062
 21
116.5032884053
  0
LINE
  5
310
100
AcDbEntity
  8
0
100
AcDbLine
 62
7
  6
CONTINUOUS
 10
145.9834348062
 20
239.8131089268
 11
123.8285245455
 21
233.8767186141
  0
LINE
  5
311
100
AcDbEntity
  8
0
100
AcDbLine
 62
7
  6
CONTINUOUS
 10
168.138345067
 20
233.8767186141
 11
145.9834348062
 21
239.8131089268
  0
LINE
  5
312
100
AcDbEntity
  8
0
100
AcDbLine
 62
7
  6
CONTINUOUS
 10
283.3811823507
 20
116.5032884053
 11
285.9811823507
 21
116.5032884053
  0
LINE
  5
313
100
AcDbEntity
  8
BEZUGSACHSEN
100
AcDbLine
 62
2
  6
CENTER
 10
284.6811823507
 20
137.9032884053
 11
272.4311823507
 21
137.9032884053
  0
LINE
  5
314
100
AcDbEntity
  8
BEZUGSACHSEN
100
AcDbLine
 62
2
  6
CENTER
 10
284.6811823507
 20
137.9032884053
 11
296.9311823507
 21
137.9032884053
  0
LINE
  5
315
100
AcDbEntity
  8
0
100
AcDbLine
 62
7
  6
CONTINUOUS
 10
275.9528428527
 20
227.253766989
 11
281.3494641658
 21
239.8131089268
  0
LINE
  5
316
100
AcDbEntity
  8
0
100
AcDbLine
 62
7
  6
CONTINUOUS
 10
287.9311823507
 20
156.8645390049
 11
281.4311823507
 21
156.8645390049
  0
LINE
  5
317
100
AcDbEntity
  8
0
100
AcDbLine
 62
7
  6
CONTINUOUS
 10
265.1811823507
 20
134.7032884053
 11
265.1811823507
 21
152.5032884053
  0
LINE
  5
318
100
AcDbEntity
  8
0
100
AcDbLine
 62
7
  6
CONTINUOUS
 10
270.6811823507
 20
171.0032884053
 11
270.6811823507
 21
160.3581024423
  0
LINE
  5
319
100
AcDbEntity
  8
BEZUGSACHSEN
100
AcDbLine
 62
8
  6
HIDDEN
 10
275.1811823507
 20
190.6411394306
 11
275.1811823507
 21
176.8127634246
  0
LINE
  5
31A
100
AcDbEntity
  8
0
100
AcDbLine
 62
7
  6
CONTINUOUS
 10
275.1811823507
 20
190.6411394306
 11
275.1811823507
 21
176.8127634246
  0
LINE
  5
31B
100
AcDbEntity
  8
BEZUGSACHSEN
100
AcDbLine
 62
7
  6
CONTINUOUS
 10
275.1811823507
 20
190.6411394306
 11
275.1811823507
 21
223.5032884053
  0
LINE
  5
31C
100
AcDbEntity
  8
BEZUGSACHSEN
100
AcDbLine
 62
8
  6
HIDDEN
 10
276.5811823507
 20
133.5939236029
 11
276.5811823507
 21
142.2126532076
  0
LINE
  5
31D
100
AcDbEntity
  8
0
100
AcDbLine
 62
7
  6
CONTINUOUS
 10
281.4311823507
 20
156.8645390049
 11
280.201243111
 21
173.3483781445
  0
LINE
  5
31E
100
AcDbEntity
  8
0
100
AcDbLine
 62
7
  6
CONTINUOUS
 10
280.7709592436
 20
188.0427568261
 11
280.201243111
 21
173.3483781445
  0
LINE
  5
31F
100
AcDbEntity
  8
0
100
AcDbLine
 62
7
  6
CONTINUOUS
 10
280.201243111
 20
173.3483781445
 11
289.1611215904
 21
173.3483781445
  0
LINE
  5
320
100
AcDbEntity
  8
0
100
AcDbLine
 62
7
  6
CONTINUOUS
 10
281.4311823507
 20
156.8645390049
 11
281.4311823507
 21
149.0754292312
  0
LINE
  5
321
100
AcDbEntity
  8
BEZUGSACHSEN
100
AcDbLine
 62
2
  6
CENTER
 10
284.6811823507
 20
137.9032884053
 11
284.6811823507
 21
125.6532884053
  0
LINE
  5
322
100
AcDbEntity
  8
BEZUGSACHSEN
100
AcDbLine
 62
2
  6
CENTER
 10
284.6811823507
 20
137.9032884053
 11
284.6811823507
 21
150.1532884053
  0
LINE
  5
323
100
AcDbEntity
  8
0
100
AcDbLine
 62
7
  6
CONTINUOUS
 10
265.1811823507
 20
152.5032884053
 11
270.6811823507
 21
160.3581024423
  0
LINE
  5
324
100
AcDbEntity
  8
0
100
AcDbLine
 62
7
  6
CONTINUOUS
 10
288.5914054579
 20
188.0427568261
 11
289.1611215904
 21
173.3483781445
  0
LINE
  5
325
100
AcDbEntity
  8
0
100
AcDbLine
 62
7
  6
CONTINUOUS
 10
287.9311823507
 20
156.8645390049
 11
287.9311823507
 21
149.0754292312
  0
LINE
  5
326
100
AcDbEntity
  8
0
100
AcDbLine
 62
7
  6
CONTINUOUS
 10
287.9311823507
 20
156.8645390049
 11
289.1611215904
 21
173.3483781445
  0
LINE
  5
327
100
AcDbEntity
  8
RUNDUNGEN
100
AcDbLine
 62
7
  6
CONTINUOUS
 10
304.1811823507
 20
152.5032884053
 11
298.6811823507
 21
160.3581024423
  0
LINE
  5
328
100
AcDbEntity
  8
BEZUGSACHSEN
100
AcDbLine
 62
8
  6
HIDDEN
 10
292.7811823507
 20
142.2126532076
 11
292.7811823507
 21
133.5939236029
  0
LINE
  5
329
100
AcDbEntity
  8
RUNDUNGEN
100
AcDbLine
 62
7
  6
CONTINUOUS
 10
294.1811823507
 20
190.6411394306
 11
294.1811823507
 21
176.8127634246
  0
LINE
  5
32A
100
AcDbEntity
  8
BEZUGSACHSEN
100
AcDbLine
 62
7
  6
CONTINUOUS
 10
294.1811823507
 20
190.6411394306
 11
294.1811823507
 21
223.5032884053
  0
LINE
  5
32B
100
AcDbEntity
  8
RUNDUNGEN
100
AcDbLine
 62
7
  6
CONTINUOUS
 10
298.6811823507
 20
171.0032884053
 11
298.6811823507
 21
160.3581024423
  0
LINE
  5
32C
100
AcDbEntity
  8
BEZUGSACHSEN
100
AcDbLine
 62
2
  6
CENTER
 10
272.065652935
 20
195.5032884053
 11
297.1811823507
 21
195.5032884053
  0
LINE
  5
32D
100
AcDbEntity
  8
0
100
AcDbLine
 62
7
  6
CONTINUOUS
 10
281.3494641658
 20
195.5032884053
 11
288.0129005356
 21
195.5032884053
  0
LINE
  5
32E
100
AcDbEntity
  8
RUNDUNGEN
100
AcDbLine
 62
7
  6
CONTINUOUS
 10
304.1811823507
 20
134.7032884053
 11
304.1811823507
 21
152.5032884053
  0
LINE
  5
32F
100
AcDbEntity
  8
KONSTRUKTIONSELEMENTE
100
AcDbLine
 62
7
  6
CONTINUOUS
 10
288.0129005356
 20
239.8131089268
 11
293.4095218488
 21
227.253766989
  0
LINE
  5
330
100
AcDbEntity
  8
0
100
AcDbLine
 62
7
  6
CONTINUOUS
 10
281.3494641658
 20
217.658198666
 11
288.0129005356
 21
217.658198666
  0
LINE
  5
331
100
AcDbEntity
  8
0
100
AcDbLine
 62
7
  6
CONTINUOUS
 10
281.3494641658
 20
233.8767186141
 11
288.0129005356
 21
233.8767186141
  0
LINE
  5
332
100
AcDbEntity
  8
0
100
AcDbLine
 62
7
  6
CONTINUOUS
 10
288.0129005356
 20
239.8131089268
 11
281.3494641658
 21
239.8131089268
  0
ARC
  5
333
100
AcDbEntity
  8
KONSTRUKTIONSELEMENTE
100
AcDbCircle
 62
7
  6
CONTINUOUS
 10
145.9834348062
 20
77.4032884053
 40
46.8
100
AcDbArc
 50
56.6553646926
 51
80.9022287256
  0
ARC
  5
334
100
AcDbEntity
  8
KONSTRUKTIONSELEMENTE
100
AcDbCircle
 62
7
  6
CONTINUOUS
 10
145.9834348062
 20
77.4032884053
 40
46.8
100
AcDbArc
 50
99.0977712744
 51
123.3446353074
  0
CIRCLE
  5
335
100
AcDbEntity
  8
BEZUGSACHSEN
100
AcDbCircle
 62
7
  6
CONTINUOUS
 10
145.9834348062
 20
195.5032884053
 40
18.5
  0
ARC
  5
336
100
AcDbEntity
  8
RUNDUNGEN
100
AcDbCircle
 62
7
  6
CONTINUOUS
 10
116.9834348062
 20
169.0032884053
 40
8.0
100
AcDbArc
 50
102.037384222
 51
180.0
  0
ARC
  5
337
100
AcDbEntity
  8
RUNDUNGEN
100
AcDbCircle
 62
7
  6
CONTINUOUS
 10
174.9834348062
 20
169.0032884053
 40
8.0
100
AcDbArc
 50
0.0
 51
77.962615778
  0
ARC
  5
338
100
AcDbEntity
  8
KONSTRUKTIONSELEMENTE
100
AcDbCircle
 62
7
  6
CONTINUOUS
 10
145.9834348062
 20
155.7032884053
 40
7.4
100
AcDbArc
 50
0.0000004677
 51
180.0
  0
ARC
  5
339
100
AcDbEntity
  8
RUNDUNGEN
100
AcDbCircle
 62
7
  6
CONTINUOUS
 10
116.657445864
 20
170.5206502775
 40
6.4480177704
100
AcDbArc
 50
87.1020929239
 51
102.0162769368
  0
ARC
  5
33A
100
AcDbEntity
  8
RUNDUNGEN
100
AcDbCircle
 62
7
  6
CONTINUOUS
 10
175.3094247464
 20
170.5206604498
 40
6.4480076132
100
AcDbArc
 50
77.9837129179
 51
92.8957968452
  0
CIRCLE
  5
33B
100
AcDbEntity
  8
BEZUGSACHSEN
100
AcDbCircle
 62
7
  6
CONTINUOUS
 10
121.3834348062
 20
137.9032884053
 40
3.0
  0
ARC
  5
33C
100
AcDbEntity
  8
0
100
AcDbCircle
 62
7
  6
CONTINUOUS
 10
189.9920745395
 20
184.1498574715
 40
98.6761507302
100
AcDbArc
 50
2.2609779608
 51
6.6069414076
  0
ARC
  5
33D
100
AcDbEntity
  8
0
100
AcDbCircle
 62
7
  6
CONTINUOUS
 10
379.3702901619
 20
184.1498574715
 40
98.6761507302
100
AcDbArc
 50
173.3930585924
 51
177.7390220392
  0
ARC
  5
33E
100
AcDbEntity
  8
0
100
AcDbCircle
 62
7
  6
CONTINUOUS
 10
283.3811823507
 20
134.7032884053
 40
18.2
100
AcDbArc
 50
180.0
 51
270.0
  0
ARC
  5
33F
100
AcDbEntity
  8
RUNDUNGEN
100
AcDbCircle
 62
7
  6
CONTINUOUS
 10
285.9811823507
 20
134.7032884053
 40
18.2
100
AcDbArc
 50
270.0
 51
360.0
  0
ARC
  5
340
100
AcDbEntity
  8
BEZUGSACHSEN
100
AcDbCircle
 62
8
  6
HIDDEN
 10
284.6811823507
 20
223.5032884053
 40
9.5
100
AcDbArc
 50
180.0
 51
360.0
  0
ARC
  5
341
100
AcDbEntity
  8
BEZUGSACHSEN
100
AcDbCircle
 62
7
  6
CONTINUOUS
 10
284.6811823507
 20
223.5032884053
 40
9.5
100
AcDbArc
 50
0.0
 51
23.2527041394
  0
ARC
  5
342
100
AcDbEntity
  8
BEZUGSACHSEN
100
AcDbCircle
 62
7
  6
CONTINUOUS
 10
284.6811823507
 20
223.5032884053
 40
9.5
100
AcDbArc
 50
156.7472958606
 51
180.0
  0
CIRCLE
  5
343
100
AcDbEntity
  8
BEZUGSACHSEN
100
AcDbCircle
 62
7
  6
CONTINUOUS
 10
284.6811823507
 20
137.9032884053
 40
9.25
  0
ARC
  5
344
100
AcDbEntity
  8
0
100
AcDbCircle
 62
7
  6
CONTINUOUS
 10
276.6811823507
 20
171.0032884053
 40
6.0
100
AcDbArc
 50
96.8529514418
 51
179.9997541295
  0
ARC
  5
345
100
AcDbEntity
  8
RUNDUNGEN
100
AcDbCircle
 62
7
  6
CONTINUOUS
 10
292.6811823507
 20
171.0032884053
 40
6.0
100
AcDbArc
 50
0.0002458705
 51
83.1470485582
  0
SPLINE
  5
346
100
AcDbEntity
  8
KONSTRUKTIONSELEMENTE
100
AcDbSpline
 62
7
  6
CONTINUOUS
 70
0
 71
3
 72
17
 73
13
 74
0
 42
0.0000001
 43
0.0000001
 44
0.0000000001
 40
0.0
 40
0.0
 40
0.0
 40
0.0
 40
0.0624638097
 40
0.1249406755
 40
0.1874340255
 40
0.2499425023
 40
0.3748543343
 40
0.4998427565
 40
0.6248624935
 40
0.7498984145
 40
0.8749446668
 40
1.0
 40
1.0
 40
1.0
 40
1.0
 10
124.543285553
 20
141.0032884053
 30
0.0
 10
124.543285553
 20
141.3968909477
 30
0.0
 10
124.6308996825
 20
142.1866363432
 30
0.0
 10
125.0013149812
 20
143.3152634874
 30
0.0
 10
125.5597199288
 20
144.3618320641
 30
0.0
 10
126.4888415233
 20
145.6379876414
 30
0.0
 10
127.9024968818
 20
147.0260309379
 30
0.0
 10
129.8214295323
 20
148.4137191042
 30
0.0
 10
131.8861886
 20
149.572387174
 30
0.0
 10
134.0509144805
 20
150.5290136354
 30
0.0
 10
136.2877557609
 20
151.3008815964
 30
0.0
 10
137.8142626145
 20
151.699400023
 30
0.0
 10
138.5834348062
 20
151.870670734
 30
0.0
  0
SPLINE
  5
347
100
AcDbEntity
  8
KONSTRUKTIONSELEMENTE
100
AcDbSpline
 62
7
  6
CONTINUOUS
 70
0
 71
3
 72
9
 73
5
 74
0
 42
0.0000001
 43
0.0000001
 44
0.0000000001
 40
0.0
 40
0.0
 40
0.0
 40
0.0
 40
0.5000902521
 40
1.0
 40
1.0
 40
1.0
 40
1.0
 10
123.8460512044
 20
134.7032884053
 30
0.0
 10
124.0629986507
 20
135.3122337657
 30
0.0
 10
124.4156066339
 20
136.5617151686
 30
0.0
 10
124.543285553
 20
137.857084847
 30
0.0
 10
124.543285553
 20
138.5032884053
 30
0.0
  0
SPLINE
  5
348
100
AcDbEntity
  8
KONSTRUKTIONSELEMENTE
100
AcDbSpline
 62
7
  6
CONTINUOUS
 70
0
 71
3
 72
9
 73
5
 74
0
 42
0.0000001
 43
0.0000001
 44
0.0000000001
 40
0.0
 40
0.0
 40
0.0
 40
0.0
 40
0.4999097479
 40
1.0
 40
1.0
 40
1.0
 40
1.0
 10
167.4235840595
 20
138.5032884053
 30
0.0
 10
167.4235840595
 20
137.857084847
 30
0.0
 10
167.5512629786
 20
136.5617151686
 30
0.0
 10
167.9038709617
 20
135.3122337657
 30
0.0
 10
168.1208184081
 20
134.7032884053
 30
0.0
  0
SPLINE
  5
349
100
AcDbEntity
  8
KONSTRUKTIONSELEMENTE
100
AcDbSpline
 62
7
  6
CONTINUOUS
 70
0
 71
3
 72
17
 73
13
 74
0
 42
0.0000001
 43
0.0000001
 44
0.0000000001
 40
0.0
 40
0.0
 40
0.0
 40
0.0
 40
0.1250568593
 40
0.2501051864
 40
0.3751435224
 40
0.500166049
 40
0.6251563467
 40
0.7500655835
 40
0.8125727468
 40
0.8750648179
 40
0.9375392982
 40
1.0
 40
1.0
 40
1.0
 40
1.0
 10
153.3834348062
 20
151.870670734
 30
0.0
 10
154.1526164182
 20
151.6993979254
 30
0.0
 10
155.679145284
 20
151.3008730445
 30
0.0
 10
157.9160202286
 20
150.5289865236
 30
0.0
 10
160.0807890416
 20
149.5723427288
 30
0.0
 10
162.1455770815
 20
148.4136333483
 30
0.0
 10
164.0645055832
 20
147.0259174245
 30
0.0
 10
165.4781375391
 20
145.6378673018
 30
0.0
 10
166.4072155819
 20
144.3617206582
 30
0.0
 10
166.9655946032
 20
143.3151739665
 30
0.0
 10
167.335979075
 20
142.1865817564
 30
0.0
 10
167.4235840595
 20
141.3968713805
 30
0.0
 10
167.4235840595
 20
141.0032884053
 30
0.0
  0
SPLINE
  5
34A
100
AcDbEntity
  8
RUNDUNGEN
100
AcDbSpline
 62
7
  6
CONTINUOUS
 70
0
 71
3
 72
10
 73
6
 74
0
 42
0.0000001
 43
0.0000001
 44
0.0000000001
 40
0.0
 40
0.0
 40
0.0
 40
0.0
 40
0.4906979984
 40
0.7439106322
 40
1.0
 40
1.0
 40
1.0
 40
1.0
 10
132.5267209873
 20
177.0032884053
 30
0.0
 10
131.3172224856
 20
177.0032884053
 30
0.0
 10
129.4844983652
 20
176.9228606547
 30
0.0
 10
127.0214922747
 20
176.8312662336
 30
0.0
 10
125.7660537955
 20
176.8127634246
 30
0.0
 10
125.1348311133
 20
176.8127634246
 30
0.0
  0
SPLINE
  5
34B
100
AcDbEntity
  8
RUNDUNGEN
100
AcDbSpline
 62
7
  6
CONTINUOUS
 70
0
 71
3
 72
9
 73
5
 74
0
 42
0.0000001
 43
0.0000001
 44
0.0000000001
 40
0.0
 40
0.0
 40
0.0
 40
0.0
 40
0.5098814585
 40
1.0
 40
1.0
 40
1.0
 40
1.0
 10
120.8471328843
 20
176.8127634246
 30
0.0
 10
120.1949460931
 20
176.8127634353
 30
0.0
 10
118.9157583115
 20
176.8475974327
 30
0.0
 10
117.6391119618
 20
176.9268107021
 30
0.0
 10
117.013026541
 20
176.9589178201
 30
0.0
  0
SPLINE
  5
34C
100
AcDbEntity
  8
KONSTRUKTIONSELEMENTE
100
AcDbSpline
 62
7
  6
CONTINUOUS
 70
0
 71
3
 72
25
 73
21
 74
0
 42
0.0000001
 43
0.0000001
 44
0.0000000001
 40
0.0
 40
0.0
 40
0.0
 40
0.0
 40
0.1921936408
 40
0.377843087
 40
0.4660503589
 40
0.5499895789
 40
0.6287949581
 40
0.7016357448
 40
0.7677270622
 40
0.8263624163
 40
0.8769176953
 40
0.9188809473
 40
0.9365221945
 40
0.9518910788
 40
0.9649741681
 40
0.9757902976
 40
0.9843982002
 40
0.9909522621
 40
0.9958486901
 40
1.0
 40
1.0
 40
1.0
 40
1.0
 10
123.8460512044
 20
134.7032884053
 30
0.0
 10
123.4421542118
 20
133.5695981783
 30
0.0
 10
122.7065285021
 20
131.3197098229
 30
0.0
 10
121.9218335146
 20
128.5080110803
 30
0.0
 10
121.3832587917
 20
126.3331226358
 30
0.0
 10
121.0340948151
 20
124.8008839965
 30
0.0
 10
120.732906725
 20
123.3566701192
 30
0.0
 10
120.479833353
 20
122.0168328303
 30
0.0
 10
120.2749045266
 20
120.7966930283
 30
0.0
 10
120.1180343694
 20
119.7102426669
 30
0.0
 10
120.0091516721
 20
118.7698981331
 30
0.0
 10
119.9549210024
 20
118.0819385655
 30
0.0
 10
119.9386330678
 20
117.6126686721
 30
0.0
 10
119.9391806004
 20
117.3239621937
 30
0.0
 10
119.9516176598
 20
117.0782394426
 30
0.0
 10
119.9757868566
 20
116.8759451703
 30
0.0
 10
120.0116666728
 20
116.7167181948
 30
0.0
 10
120.0593778355
 20
116.5998853794
 30
0.0
 10
120.1230755023
 20
116.5215944459
 30
0.0
 10
120.1809098557
 20
116.5032884053
 30
0.0
 10
120.2069047672
 20
116.5032884053
 30
0.0
  0
SPLINE
  5
34D
100
AcDbEntity
  8
KONSTRUKTIONSELEMENTE
100
AcDbSpline
 62
7
  6
CONTINUOUS
 70
0
 71
3
 72
25
 73
21
 74
0
 42
0.0000001
 43
0.0000001
 44
0.0000000001
 40
0.0
 40
0.0
 40
0.0
 40
0.0
 40
0.0041513099
 40
0.0090477379
 40
0.0156017998
 40
0.0242097024
 40
0.0350258319
 40
0.0481089212
 40
0.0634778055
 40
0.0811190527
 40
0.1230823047
 40
0.1736375837
 40
0.2322729378
 40
0.2983642552
 40
0.3712050419
 40
0.4500104211
 40
0.5339496411
 40
0.622156913
 40
0.8078063592
 40
1.0
 40
1.0
 40
1.0
 40
1.0
 10
171.7599648453
 20
116.5032884053
 30
0.0
 10
171.7859597567
 20
116.5032884053
 30
0.0
 10
171.8437941102
 20
116.5215944459
 30
0.0
 10
171.907491777
 20
116.5998853794
 30
0.0
 10
171.9552029397
 20
116.7167181948
 30
0.0
 10
171.9910827559
 20
116.8759451703
 30
0.0
 10
172.0152519527
 20
117.0782394426
 30
0.0
 10
172.0276890121
 20
117.3239621937
 30
0.0
 10
172.0282365447
 20
117.6126686721
 30
0.0
 10
172.0119486101
 20
118.0819385655
 30
0.0
 10
171.9577179404
 20
118.7698981331
 30
0.0
 10
171.8488352431
 20
119.7102426669
 30
0.0
 10
171.6919650859
 20
120.7966930283
 30
0.0
 10
171.4870362595
 20
122.0168328303
 30
0.0
 10
171.2339628875
 20
123.3566701192
 30
0.0
 10
170.9327747974
 20
124.8008839965
 30
0.0
 10
170.5836108208
 20
126.3331226358
 30
0.0
 10
170.0450360979
 20
128.5080110803
 30
0.0
 10
169.2603411104
 20
131.3197098229
 30
0.0
 10
168.5247154007
 20
133.5695981783
 30
0.0
 10
168.1208184081
 20
134.7032884053
 30
0.0
  0
SPLINE
  5
34E
100
AcDbEntity
  8
RUNDUNGEN
100
AcDbSpline
 62
7
  6
CONTINUOUS
 70
0
 71
3
 72
9
 73
5
 74
0
 42
0.0000001
 43
0.0000001
 44
0.0000000001
 40
0.0
 40
0.0
 40
0.0
 40
0.0
 40
0.4901185419
 40
1.0
 40
1.0
 40
1.0
 40
1.0
 10
174.9538429434
 20
176.9589178135
 30
0.0
 10
174.3277574409
 20
176.9268106902
 30
0.0
 10
173.0511109253
 20
176.84759741
 30
0.0
 10
171.7719229768
 20
176.8127634246
 30
0.0
 10
171.1197361013
 20
176.8127634246
 30
0.0
  0
SPLINE
  5
34F
100
AcDbEntity
  8
RUNDUNGEN
100
AcDbSpline
 62
7
  6
CONTINUOUS
 70
0
 71
3
 72
10
 73
6
 74
0
 42
0.0000001
 43
0.0000001
 44
0.0000000001
 40
0.0
 40
0.0
 40
0.0
 40
0.0
 40
0.2560891884
 40
0.5093019317
 40
1.0
 40
1.0
 40
1.0
 40
1.0
 10
166.8320384992
 20
176.8127634246
 30
0.0
 10
166.2008156632
 20
176.8127634246
 30
0.0
 10
164.9453761707
 20
176.8312662544
 30
0.0
 10
162.4823677569
 20
176.9228608461
 30
0.0
 10
160.6496414554
 20
177.0032884053
 30
0.0
 10
159.4401416392
 20
177.0032884053
 30
0.0
  0
SPLINE
  5
350
100
AcDbEntity
  8
0
100
AcDbSpline
 62
7
  6
CONTINUOUS
 70
0
 71
3
 72
11
 73
7
 74
0
 42
0.0000001
 43
0.0000001
 44
0.0000000001
 40
0.0
 40
0.0
 40
0.0
 40
0.0
 40
0.2551771482
 40
0.5000000006
 40
0.7448228526
 40
1.0
 40
1.0
 40
1.0
 40
1.0
 10
288.0129005356
 20
239.8131089268
 30
0.0
 10
288.218030088
 20
239.3357190859
 30
0.0
 10
288.5446542842
 20
238.363958594
 30
0.0
 10
288.7189057971
 20
236.8449137674
 30
0.0
 10
288.5446542818
 20
235.3258689431
 30
0.0
 10
288.2180300873
 20
234.3541084533
 30
0.0
 10
288.0129005356
 20
233.8767186141
 30
0.0
  0
SPLINE
  5
351
100
AcDbEntity
  8
0
100
AcDbSpline
 62
7
  6
CONTINUOUS
 70
0
 71
3
 72
11
 73
7
 74
0
 42
0.0000001
 43
0.0000001
 44
0.0000000001
 40
0.0
 40
0.0
 40
0.0
 40
0.0
 40
0.2500294942
 40
0.5000000006
 40
0.7499705067
 40
1.0
 40
1.0
 40
1.0
 40
1.0
 10
288.0129005356
 20
217.658198666
 30
0.0
 10
288.2245471707
 20
215.819951708
 30
0.0
 10
288.5504855434
 20
212.1317466253
 30
0.0
 10
288.7171948066
 20
206.5807435247
 30
0.0
 10
288.550485541
 20
201.0297404307
 30
0.0
 10
288.2245471699
 20
197.341535357
 30
0.0
 10
288.0129005356
 20
195.5032884053
 30
0.0
  0
SPLINE
  5
352
100
AcDbEntity
  8
0
100
AcDbSpline
 62
7
  6
CONTINUOUS
 70
0
 71
3
 72
11
 73
7
 74
0
 42
0.0000001
 43
0.0000001
 44
0.0000000001
 40
0.0
 40
0.0
 40
0.0
 40
0.0
 40
0.250391743
 40
0.5000000006
 40
0.7496082578
 40
1.0
 40
1.0
 40
1.0
 40
1.0
 10
288.0129005356
 20
233.8767186141
 30
0.0
 10
288.2240496744
 20
232.5341916213
 30
0.0
 10
288.5501004437
 20
229.8370027658
 30
0.0
 10
288.7173065313
 20
225.767458632
 30
0.0
 10
288.5501004413
 20
221.6979145031
 30
0.0
 10
288.2240496737
 20
219.0007256542
 30
0.0
 10
288.0129005356
 20
217.658198666
 30
0.0
  0
SPLINE
  5
353
100
AcDbEntity
  8
0
100
AcDbSpline
 62
7
  6
CONTINUOUS
 70
0
 71
3
 72
9
 73
5
 74
0
 42
0.0000001
 43
0.0000001
 44
0.0000000001
 40
0.0
 40
0.0
 40
0.0
 40
0.0
 40
0.4841561799
 40
1.0
 40
1.0
 40
1.0
 40
1.0
 10
275.9652527897
 20
176.9604223524
 30
0.0
 10
276.0831680578
 20
176.9745934331
 30
0.0
 10
276.332760798
 20
176.9650475675
 30
0.0
 10
276.5673589399
 20
176.8826613985
 30
0.0
 10
276.6811823507
 20
176.8273822835
 30
0.0
  0
SPLINE
  5
354
100
AcDbEntity
  8
0
100
AcDbSpline
 62
7
  6
CONTINUOUS
 70
0
 71
3
 72
11
 73
7
 74
0
 42
0.0000001
 43
0.0000001
 44
0.0000000001
 40
0.0
 40
0.0
 40
0.0
 40
0.0
 40
0.2551771482
 40
0.5000000006
 40
0.7448228526
 40
1.0
 40
1.0
 40
1.0
 40
1.0
 10
281.3494641658
 20
239.8131089268
 30
0.0
 10
281.1443346134
 20
239.3357190859
 30
0.0
 10
280.8177104172
 20
238.363958594
 30
0.0
 10
280.6434589044
 20
236.8449137674
 30
0.0
 10
280.8177104196
 20
235.3258689431
 30
0.0
 10
281.1443346141
 20
234.3541084533
 30
0.0
 10
281.3494641658
 20
233.8767186141
 30
0.0
  0
SPLINE
  5
355
100
AcDbEntity
  8
0
100
AcDbSpline
 62
7
  6
CONTINUOUS
 70
0
 71
3
 72
11
 73
7
 74
0
 42
0.0000001
 43
0.0000001
 44
0.0000000001
 40
0.0
 40
0.0
 40
0.0
 40
0.0
 40
0.2500294942
 40
0.5000000006
 40
0.7499705067
 40
1.0
 40
1.0
 40
1.0
 40
1.0
 10
281.3494641658
 20
217.658198666
 30
0.0
 10
281.1378175308
 20
215.819951708
 30
0.0
 10
280.8118791581
 20
212.1317466253
 30
0.0
 10
280.6451698948
 20
206.5807435247
 30
0.0
 10
280.8118791605
 20
201.0297404307
 30
0.0
 10
281.1378175315
 20
197.341535357
 30
0.0
 10
281.3494641658
 20
195.5032884053
 30
0.0
  0
SPLINE
  5
356
100
AcDbEntity
  8
0
100
AcDbSpline
 62
7
  6
CONTINUOUS
 70
0
 71
3
 72
11
 73
7
 74
0
 42
0.0000001
 43
0.0000001
 44
0.0000000001
 40
0.0
 40
0.0
 40
0.0
 40
0.0
 40
0.250391743
 40
0.5000000006
 40
0.7496082578
 40
1.0
 40
1.0
 40
1.0
 40
1.0
 10
281.3494641658
 20
233.8767186141
 30
0.0
 10
281.1383150271
 20
232.5341916213
 30
0.0
 10
280.8122642578
 20
229.8370027658
 30
0.0
 10
280.6450581702
 20
225.767458632
 30
0.0
 10
280.8122642602
 20
221.6979145031
 30
0.0
 10
281.1383150278
 20
219.0007256542
 30
0.0
 10
281.3494641658
 20
217.658198666
 30
0.0
  0
SPLINE
  5
357
100
AcDbEntity
  8
RUNDUNGEN
100
AcDbSpline
 62
7
  6
CONTINUOUS
 70
0
 71
3
 72
9
 73
5
 74
0
 42
0.0000001
 43
0.0000001
 44
0.0000000001
 40
0.0
 40
0.0
 40
0.0
 40
0.0
 40
0.4841561799
 40
1.0
 40
1.0
 40
1.0
 40
1.0
 10
293.3971119117
 20
176.9604223524
 30
0.0
 10
293.2791966437
 20
176.9745934331
 30
0.0
 10
293.0296039035
 20
176.9650475675
 30
0.0
 10
292.7950057615
 20
176.8826613985
 30
0.0
 10
292.6811823507
 20
176.8273822835
 30
0.0
  0
ELLIPSE
  5
358
100
AcDbEntity
  8
RUNDUNGEN
100
AcDbEllipse
 62
7
  6
CONTINUOUS
 10
116.3419807666
 20
171.0032884053
 30
0.0
 11
14.2165593702
 21
-0.5423133308
 31
0.0
 40
0.4203155586
 41
1.5396153878
 42
1.5416988386
  0
ELLIPSE
  5
359
100
AcDbEntity
  8
RUNDUNGEN
100
AcDbEllipse
 62
7
  6
CONTINUOUS
 10
175.6248888459
 20
171.0032884053
 30
0.0
 11
14.2165593702
 21
0.5423133308
 31
0.0
 40
0.4203155586
 41
1.5998770104
 42
1.6019772748
  0
ENDSEC
  0
SECTION
  2
OBJECTS
  0
DICTIONARY
  5
C
100
AcDbDictionary
280
0
281
1
  3
ACAD_GROUP
350
D
  3
ACAD_MLINESTYLE
350
17
  3
ACAD_LAYOUT
350
1A
  3
ACAD_PLOTSETTINGS
350
19
  3
ACAD_PLOTSTYLENAME
350
E
  0
DICTIONARY
  5
D
102
{ACAD_REACTORS
330
C
102
}
100
AcDbDictionary
280
0
281
1
  0
ACDBDICTIONARYWDFLT
  5
E
102
{ACAD_REACTORS
330
C
102
}
100
AcDbDictionary
281
1
  3
Normal
350
F
100
AcDbDictionaryWithDefault
340
F
  0
DICTIONARY
  5
17
102
{ACAD_REACTORS
330
C
102
}
100
AcDbDictionary
280
0
281
1
  3
Standard
350
18
  0
DICTIONARY
  5
19
102
{ACAD_REACTORS
330
C
102
}
100
AcDbDictionary
281
1
  0
DICTIONARY
  5
1A
102
{ACAD_REACTORS
330
C
102
}
100
AcDbDictionary
281
1
  3
Model
350
35A
  3
Layout1
350
35B
  0
ACDBPLACEHOLDER
  5
F
102
{ACAD_REACTORS
330
E
102
}
  0
MLINESTYLE
  5
18
102
{ACAD_REACTORS
330
17
102
}
100
AcDbMlineStyle
  2
STANDARD
 70
0
  3

 62
256
 51
90.0
 52
90.0
 71
2
 49
0.5
 62
256
  6
BYLAYER
 49
-0.5
 62
256
  6
BYLAYER
  0
LAYOUT
  5
35A
102
{ACAD_REACTORS
330
1A
102
}
100
AcDbPlotSettings
  1

  2
none_device
  4
ISO_A3_(420.00_x_297.00_MM)
  6

 40
0.0
 41
0.0
 42
0.0
 43
0.0
 44
420.0
 45
297.0
 46
0.0
 47
0.0
 48
0.0
 49
0.0
140
0.0
141
0.0
142
1.0
143
1.0
 70
1024
 72
1
 73
0
 74
0
  7

 75
0
147
1.0
148
0.0
149
0.0
100
AcDbLayout
  1
Model
 70
0
 71
0
 10
0.0
 20
0.0
 11
420.0
 21
297.0
 12
0.0
 22
0.0
 32
0.0
 14
0.0
 24
0.0
 34
0.0
 15
0.0
 25
0.0
 35
0.0
146
0.0
 13
0.0
 23
0.0
 33
0.0
 16
1.0
 26
0.0
 36
0.0
 17
0.0
 27
1.0
 37
0.0
 76
0
330
208
345
0
346
0
  0
LAYOUT
  5
35B
102
{ACAD_REACTORS
330
1A
102
}
100
AcDbPlotSettings
  1

  2
none_device
  4
ISO_A3_(420.00_x_297.00_MM)
  6

 40
0.0
 41
0.0
 42
0.0
 43
0.0
 44
420.0
 45
297.0
 46
0.0
 47
0.0
 48
0.0
 49
0.0
140
0.0
141
0.0
142
1.0
143
1.0
 70
0
 72
1
 73
0
 74
0
  7

 75
0
147
1.0
148
0.0
149
0.0
100
AcDbLayout
  1
Layout1
 70
0
 71
1
 10
0.0
 20
0.0
 11
420.0
 21
297.0
 12
0.0
 22
0.0
 32
0.0
 14
0.0
 24
0.0
 34
0.0
 15
0.0
 25
0.0
 35
0.0
146
0.0
 13
0.0
 23
0.0
 33
0.0
 16
1.0
 26
0.0
 36
0.0
 17
0.0
 27
1.0
 37
0.0
 76
0
330
209
345
0
346
0
  0
ENDSEC
  0
EOF
