999
DXF file: irg10-dxf.dxf
999
Pro/ENGINEER 2010140 by Parametric Technology Corporation
  0
SECTION
  2
HEADER
  9
$ACADVER
  1
AC1021
  9
$DWGCODEPAGE
  3
ANSI_1252
  9
$EXTMAX
 10
420.0
 20
297.0
 30
0.0
  9
$EXTMIN
 10
0.0
 20
0.0
 30
0.0
  9
$LIMMIN
 10
0.0
 20
0.0
  9
$LIMMAX
 10
420.0
 20
297.0
  9
$VIEWCTR
 10
210.0
 20
148.5
  9
$VIEWSIZE
 40
297.0
  9
$CLAYER
  8
0
  9
$LTSCALE
 40
23.1
  9
$CELTYPE
  6
BYLAYER
  9
$DIMSCALE
 40
1.0
  9
$DIMASZ
 40
3.5
  9
$DIMEXO
 40
2.625
  9
$DIMDLI
 40
15.96
  9
$DIMEXE
 40
7.56
  9
$DIMCEN
 40
3.78
  9
$DIMLFAC
 40
1.0
  9
$DIMBLK
  1
_FILLED
  9
$DIMTXT
 40
3.5
  9
$DIMTOL
 70
1
  9
$DIMLIM
 70
0
  9
$DIMTFAC
 40
1.0
  9
$DIMTP
 40
0.005
  9
$DIMTM
 40
0.005
  9
$PDMODE
 70
3
  9
$PDSIZE
 40
0.3125
  9
$HANDSEED
  5
357
  9
$TILEMODE
 70
1
  9
$MEASUREMENT
 70
1
  9
$INSUNITS
 70
4
  0
ENDSEC
  0
SECTION
  2
CLASSES
  0
CLASS
  1
ACDBDICTIONARYWDFLT
  2
AcDbDictionaryWithDefault
  3
AutoCAD 2000
 90
0
 91
1
280
0
281
0
  0
CLASS
  1
ACDBPLACEHOLDER
  2
AcDbPlaceHolder
  3
AutoCAD 2000
 90
0
 91
1
280
0
281
0
  0
CLASS
  1
LAYOUT
  2
AcDbLayout
  3
AutoCAD 2000
 90
0
 91
0
280
0
281
0
  0
ENDSEC
  0
SECTION
  2
TABLES
  0
TABLE
  2
VPORT
  5
8
100
AcDbSymbolTable
 70
2
  0
VPORT
  5
1F4
100
AcDbSymbolTableRecord
100
AcDbViewportTableRecord
  2
*ACTIVE
 70
0
 10
0.0
 20
0.0
 11
1.0
 21
1.0
 12
210.0
 22
148.5
 13
0.0
 23
0.0
 14
1.0
 24
1.0
 15
0.0
 25
0.0
 16
0.0
 26
0.0
 36
1.0
 17
0.0
 27
0.0
 37
0.0
 40
297.0
 41
1.4141414141
 42
50.0
 43
0.0
 44
0.0
 50
0.0
 51
0.0
 71
0
 72
100
 73
1
 74
1
 75
0
 76
0
 77
0
 78
0
  0
ENDTAB
  0
TABLE
  2
LTYPE
  5
5
100
AcDbSymbolTable
 70
6
  0
LTYPE
  5
14
100
AcDbSymbolTableRecord
100
AcDbLinetypeTableRecord
  2
BYBLOCK
 70
0
  3

 72
65
 73
0
 40
0.0
  0
LTYPE
  5
15
100
AcDbSymbolTableRecord
100
AcDbLinetypeTableRecord
  2
BYLAYER
 70
0
  3

 72
65
 73
0
 40
0.0
  0
LTYPE
  5
16
100
AcDbSymbolTableRecord
100
AcDbLinetypeTableRecord
  2
CONTINUOUS
 70
64
  3
Solid line
 72
65
 73
0
 40
0.0
  0
LTYPE
  5
1F5
100
AcDbSymbolTableRecord
100
AcDbLinetypeTableRecord
  2
CENTER
 70
64
  3
____ _ ____ _ ____ _ ____ _ ____ _ ____ _ ____
 72
65
 73
4
 40
0.6
 49
0.375
 74
0
 49
-0.075
 74
0
 49
0.075
 74
0
 49
-0.075
 74
0
  0
LTYPE
  5
1F6
100
AcDbSymbolTableRecord
100
AcDbLinetypeTableRecord
  2
HIDDEN
 70
64
  3
- - - - - - - - - - - - - - - - - - - -
 72
65
 73
2
 40
0.2
 49
0.1
 74
0
 49
-0.1
 74
0
  0
LTYPE
  5
1F7
100
AcDbSymbolTableRecord
100
AcDbLinetypeTableRecord
  2
PHANTOM
 70
64
  3
_____ _ _ _____ _ _ _____ _ _ _____
 72
65
 73
6
 40
0.8
 49
0.45
 74
0
 49
-0.05
 74
0
 49
0.1
 74
0
 49
-0.05
 74
0
 49
0.1
 74
0
 49
-0.05
 74
0
  0
LTYPE
  5
1F8
100
AcDbSymbolTableRecord
100
AcDbLinetypeTableRecord
  2
DOT
 70
64
  3
. . . . . . . . . . . . . . . . . . . .
 72
65
 73
2
 40
0.2
 49
0.1
 74
0
 49
-0.1
 74
0
  0
LTYPE
  5
1F9
100
AcDbSymbolTableRecord
100
AcDbLinetypeTableRecord
  2
DASHED
 70
64
  3
- - - - - - - - - - - - - - - - - - - -
 72
65
 73
2
 40
0.2
 49
0.1
 74
0
 49
-0.1
 74
0
  0
ENDTAB
  0
TABLE
  2
LAYER
  5
2
100
AcDbSymbolTable
 70
36
  0
LAYER
  5
10
100
AcDbSymbolTableRecord
100
AcDbLayerTableRecord
  2
0
 70
0
 62
7
  6
CONTINUOUS
370
-3
390
F
  0
LAYER
  5
1FA
100
AcDbSymbolTableRecord
100
AcDbLayerTableRecord
  2
DEFAULT_1
 70
0
 62
7
  6
CENTER
370
-3
390
F
  0
LAYER
  5
1FB
100
AcDbSymbolTableRecord
100
AcDbLayerTableRecord
  2
DEFAULT_2
 70
0
 62
8
  6
HIDDEN
370
-3
390
F
  0
LAYER
  5
1FC
100
AcDbSymbolTableRecord
100
AcDbLayerTableRecord
  2
DEFAULT_3
 70
0
 62
7
  6
PHANTOM
370
-3
390
F
  0
LAYER
  5
1FD
100
AcDbSymbolTableRecord
100
AcDbLayerTableRecord
  2
BEZUGSACHSEN
 70
0
 62
7
  6
CONTINUOUS
370
-3
390
F
  0
LAYER
  5
1FE
100
AcDbSymbolTableRecord
100
AcDbLayerTableRecord
  2
BEZUGSEBENEN
 70
0
 62
7
  6
CONTINUOUS
370
-3
390
F
  0
LAYER
  5
1FF
100
AcDbSymbolTableRecord
100
AcDbLayerTableRecord
  2
FASEN
 70
0
 62
7
  6
CONTINUOUS
370
-3
390
F
  0
LAYER
  5
200
100
AcDbSymbolTableRecord
100
AcDbLayerTableRecord
  2
HILFEN
 70
0
 62
7
  6
CONTINUOUS
370
-3
390
F
  0
LAYER
  5
201
100
AcDbSymbolTableRecord
100
AcDbLayerTableRecord
  2
KONSTRUKTIONSELEMENTE
 70
0
 62
7
  6
CONTINUOUS
370
-3
390
F
  0
LAYER
  5
202
100
AcDbSymbolTableRecord
100
AcDbLayerTableRecord
  2
PLATZIERUNG
 70
0
 62
7
  6
CONTINUOUS
370
-3
390
F
  0
LAYER
  5
203
100
AcDbSymbolTableRecord
100
AcDbLayerTableRecord
  2
RUNDUNGEN
 70
0
 62
7
  6
CONTINUOUS
370
-3
390
F
  0
LAYER
  5
204
100
AcDbSymbolTableRecord
100
AcDbLayerTableRecord
  2
TEIL_STARTBEZUEGE
 70
0
 62
7
  6
CONTINUOUS
370
-3
390
F
  0
LAYER
  5
205
100
AcDbSymbolTableRecord
100
AcDbLayerTableRecord
  2
ZEICHNUNGSBEMASSUNGEN
 70
0
 62
7
  6
CONTINUOUS
370
-3
390
F
  0
ENDTAB
  0
TABLE
  2
STYLE
  5
3
100
AcDbSymbolTable
 70
1
  0
STYLE
  5
11
100
AcDbSymbolTableRecord
100
AcDbTextStyleTableRecord
  2
STANDARD
 70
0
 40
0.0
 41
0.7
 50
0.0
 71
0
 42
0.2
  3
txt
  4

  0
STYLE
  5
206
100
AcDbSymbolTableRecord
100
AcDbTextStyleTableRecord
  2
TEXTSTYLE_1
 70
0
 40
0.0
 41
0.8
 50
0.0
 71
0
 42
0.2
  3
gdt
  4

  0
ENDTAB
  0
TABLE
  2
VIEW
  5
6
100
AcDbSymbolTable
 70
0
  0
ENDTAB
  0
TABLE
  2
UCS
  5
7
100
AcDbSymbolTable
 70
0
  0
ENDTAB
  0
TABLE
  2
APPID
  5
9
100
AcDbSymbolTable
 70
1
  0
APPID
  5
207
100
AcDbSymbolTableRecord
100
AcDbRegAppTableRecord
  2
ACAD
 70
0
  0
ENDTAB
  0
TABLE
  2
BLOCK_RECORD
  5
1
100
AcDbSymbolTable
 70
0
  0
BLOCK_RECORD
  5
208
100
AcDbSymbolTableRecord
100
AcDbBlockTableRecord
  2
*Model_Space
  0
BLOCK_RECORD
  5
209
100
AcDbSymbolTableRecord
100
AcDbBlockTableRecord
  2
*Paper_Space
  0
ENDTAB
  0
TABLE
  2
DIMSTYLE
  5
A
100
AcDbSymbolTable
 70
1
100
AcDbDimStyleTable
 71
0
  0
DIMSTYLE
105
20A
100
AcDbSymbolTableRecord
100
AcDbDimStyleTableRecord
  2
STANDARD
 70
0
  3

  4

 40
1.0
 41
3.5
 42
0.0625
 43
0.38
 44
0.18
 45
0.0
 46
0.0
 47
0.005
 48
0.005
140
3.5
141
0.09
142
0.0
143
25.4
144
1.0
145
0.0
146
1.0
147
0.09
 71
1.0
 72
0.0
 73
0
 74
0
 75
0
 76
0
 77
1
 78
8
170
0
171
2
172
0
173
0
174
0
175
0
176
0
177
0
178
5
270
2
271
3
272
3
273
2
274
2
275
0
280
0
281
0
282
0
283
1
284
8
285
0
286
0
287
3
288
0
340
11
  0
ENDTAB
  0
ENDSEC
  0
SECTION
  2
BLOCKS
  0
BLOCK
  5
20
100
AcDbEntity
  8
0
100
AcDbBlockBegin
  2
*Model_Space
 70
0
 10
0.0
 20
0.0
 30
0.0
  3
*Model_Space
  1

  0
ENDBLK
  5
21
100
AcDbEntity
  8
0
100
AcDbBlockEnd
  0
BLOCK
  5
1C
100
AcDbEntity
  8
0
100
AcDbBlockBegin
  2
*Paper_Space
 70
0
 10
0.0
 20
0.0
 30
0.0
  3
*Paper_Space
  1

  0
ENDBLK
  5
1D
100
AcDbEntity
  8
0
100
AcDbBlockEnd
  0
ENDSEC
  0
SECTION
  2
ENTITIES
  0
MTEXT
  5
20B
100
AcDbEntity
  8
0
100
AcDbMText
 62
5
  6
CONTINUOUS
  7
STANDARD
 71
1
 72
1
 10
275.7114574503
 20
156.610816776
 30
0.0
 11
0.0
 21
1.0
 31
0.0
 44
0.9
  1
RUD
 40
4.0
 41
10.6666666667
  0
MTEXT
  5
20C
100
AcDbEntity
  8
0
100
AcDbMText
 62
5
  6
CONTINUOUS
  7
STANDARD
 71
1
 72
1
 10
290.3836449623
 20
154.4963698181
 30
0.0
 11
0.0
 21
1.0
 31
0.0
 44
0.9
  1
IRG10
 40
3.5
 41
13.1666666667
  0
LINE
  5
20D
100
AcDbEntity
  8
0
100
AcDbLine
 62
7
  6
CONTINUOUS
 10
0.0
 20
0.0
 11
0.0
 21
297.0
  0
LINE
  5
20E
100
AcDbEntity
  8
0
100
AcDbLine
 62
7
  6
CONTINUOUS
 10
0.0
 20
0.0
 11
420.0
 21
0.0
  0
LINE
  5
20F
100
AcDbEntity
  8
0
100
AcDbLine
 62
7
  6
CONTINUOUS
 10
0.0
 20
297.0
 11
420.0
 21
297.0
  0
LINE
  5
210
100
AcDbEntity
  8
0
100
AcDbLine
 62
7
  6
CONTINUOUS
 10
420.0
 20
0.0
 11
420.0
 21
297.0
  0
LINE
  5
211
100
AcDbEntity
  8
KONSTRUKTIONSELEMENTE
100
AcDbLine
 62
7
  6
CONTINUOUS
 10
169.8694348062
 20
129.5629131216
 11
165.1423881559
 21
129.5629131216
  0
LINE
  5
212
100
AcDbEntity
  8
0
100
AcDbLine
 62
7
  6
CONTINUOUS
 10
165.1423881559
 20
129.5629131216
 11
165.1049063675
 21
129.5629131216
  0
LINE
  5
213
100
AcDbEntity
  8
0
100
AcDbLine
 62
7
  6
CONTINUOUS
 10
126.861963245
 20
129.5629131216
 11
126.8244814566
 21
129.5629131216
  0
LINE
  5
214
100
AcDbEntity
  8
KONSTRUKTIONSELEMENTE
100
AcDbLine
 62
7
  6
CONTINUOUS
 10
126.8244814566
 20
129.5629131216
 11
122.0974348062
 21
129.5629131216
  0
LINE
  5
215
100
AcDbEntity
  8
0
100
AcDbLine
 62
7
  6
CONTINUOUS
 10
128.5131492618
 20
222.0723353073
 11
115.7240126206
 21
209.283198666
  0
LINE
  5
216
100
AcDbEntity
  8
RUNDUNGEN
100
AcDbLine
 62
7
  6
CONTINUOUS
 10
122.0974348062
 20
129.5629131216
 11
117.4834348062
 21
137.0606631216
  0
LINE
  5
217
100
AcDbEntity
  8
0
100
AcDbLine
 62
7
  6
CONTINUOUS
 10
115.7240126206
 20
209.283198666
 11
111.0428637174
 21
191.8129131216
  0
LINE
  5
218
100
AcDbEntity
  8
BEZUGSACHSEN
100
AcDbLine
 62
7
  6
CONTINUOUS
 10
139.7334348062
 20
140.0073381216
 11
152.2334348062
 21
140.0073381216
  0
LINE
  5
219
100
AcDbEntity
  8
BEZUGSACHSEN
100
AcDbLine
 62
7
  6
CONTINUOUS
 10
139.7334348062
 20
143.7490115886
 11
152.2334348062
 21
143.7490115886
  0
LINE
  5
21A
100
AcDbEntity
  8
0
100
AcDbLine
 62
7
  6
CONTINUOUS
 10
115.7240126206
 20
163.9574097862
 11
117.4834348062
 21
156.3365150363
  0
LINE
  5
21B
100
AcDbEntity
  8
0
100
AcDbLine
 62
7
  6
CONTINUOUS
 10
115.7240126206
 20
163.9574097862
 11
115.7240126206
 21
174.3426275772
  0
LINE
  5
21C
100
AcDbEntity
  8
RUNDUNGEN
100
AcDbLine
 62
7
  6
CONTINUOUS
 10
117.4834348062
 20
137.0606631216
 11
117.4834348062
 21
170.0629131216
  0
LINE
  5
21D
100
AcDbEntity
  8
BEZUGSACHSEN
100
AcDbLine
 62
2
  6
CENTER
 10
127.8834348062
 20
147.0629131216
 11
113.9065956341
 21
147.0629131216
  0
LINE
  5
21E
100
AcDbEntity
  8
BEZUGSACHSEN
100
AcDbLine
 62
2
  6
CENTER
 10
127.8834348062
 20
147.0629131216
 11
191.4241008316
 21
147.0629131216
  0
LINE
  5
21F
100
AcDbEntity
  8
BEZUGSACHSEN
100
AcDbLine
 62
7
  6
CONTINUOUS
 10
139.7334348062
 20
150.3768146546
 11
152.2334348062
 21
150.3768146546
  0
LINE
  5
220
100
AcDbEntity
  8
0
100
AcDbLine
 62
7
  6
CONTINUOUS
 10
111.0428637174
 20
191.8129131216
 11
115.7240126206
 21
174.3426275772
  0
LINE
  5
221
100
AcDbEntity
  8
BEZUGSACHSEN
100
AcDbLine
 62
7
  6
CONTINUOUS
 10
139.7334348062
 20
154.1184881216
 11
152.2334348062
 21
154.1184881216
  0
LINE
  5
222
100
AcDbEntity
  8
RUNDUNGEN
100
AcDbLine
 62
7
  6
CONTINUOUS
 10
121.9834348062
 20
154.5629131216
 11
132.8693437276
 21
154.5629131216
  0
LINE
  5
223
100
AcDbEntity
  8
RUNDUNGEN
100
AcDbLine
 62
7
  6
CONTINUOUS
 10
159.0975258848
 20
154.5629131216
 11
169.9834348062
 21
154.5629131216
  0
LINE
  5
224
100
AcDbEntity
  8
0
100
AcDbLine
 62
7
  6
CONTINUOUS
 10
124.7771345518
 20
170.3594866821
 11
124.7771345518
 21
165.5916866821
  0
LINE
  5
225
100
AcDbEntity
  8
0
100
AcDbLine
 62
7
  6
CONTINUOUS
 10
125.3731095518
 20
165.5916866821
 11
125.3731095518
 21
167.7219803294
  0
LINE
  5
226
100
AcDbEntity
  8
0
100
AcDbLine
 62
7
  6
CONTINUOUS
 10
125.3731095518
 20
168.3306355759
 11
125.3731095518
 21
169.8522739766
  0
LINE
  5
227
100
AcDbEntity
  8
0
100
AcDbLine
 62
7
  6
CONTINUOUS
 10
129.6442639079
 20
166.3017845408
 11
130.0415801957
 21
165.8960143409
  0
LINE
  5
228
100
AcDbEntity
  8
0
100
AcDbLine
 62
7
  6
CONTINUOUS
 10
130.2402389079
 20
166.5046696941
 11
130.0415801957
 21
166.8089973174
  0
LINE
  5
229
100
AcDbEntity
  8
0
100
AcDbLine
 62
7
  6
CONTINUOUS
 10
129.4456054798
 20
166.7075547763
 11
129.6442639079
 21
166.3017845408
  0
LINE
  5
22A
100
AcDbEntity
  8
0
100
AcDbLine
 62
7
  6
CONTINUOUS
 10
128.5516429798
 20
165.5916866821
 11
127.6576804798
 21
167.9248654116
  0
LINE
  5
22B
100
AcDbEntity
  8
0
100
AcDbLine
 62
7
  6
CONTINUOUS
 10
127.0617053378
 20
167.7219803294
 11
127.8563386237
 21
165.5916866821
  0
LINE
  5
22C
100
AcDbEntity
  8
0
100
AcDbLine
 62
7
  6
CONTINUOUS
 10
127.7570095518
 20
169.5479463533
 11
127.8563386237
 21
169.24361873
  0
LINE
  5
22D
100
AcDbEntity
  8
0
100
AcDbLine
 62
7
  6
CONTINUOUS
 10
128.4523136237
 20
169.24361873
 11
128.3529845518
 21
169.5479463533
  0
LINE
  5
22E
100
AcDbEntity
  8
0
100
AcDbLine
 62
7
  6
CONTINUOUS
 10
127.8563386237
 20
169.24361873
 11
127.8563386237
 21
168.9392908225
  0
LINE
  5
22F
100
AcDbEntity
  8
BEZUGSACHSEN
100
AcDbLine
 62
2
  6
CENTER
 10
127.8834348062
 20
147.0629131216
 11
127.8834348062
 21
141.5629131216
  0
LINE
  5
230
100
AcDbEntity
  8
BEZUGSACHSEN
100
AcDbLine
 62
2
  6
CENTER
 10
127.8834348062
 20
147.0629131216
 11
127.8834348062
 21
152.5629131216
  0
LINE
  5
231
100
AcDbEntity
  8
0
100
AcDbLine
 62
7
  6
CONTINUOUS
 10
128.4523136237
 20
168.8378482814
 11
128.4523136237
 21
169.24361873
  0
LINE
  5
232
100
AcDbEntity
  8
0
100
AcDbLine
 62
7
  6
CONTINUOUS
 10
129.3462761237
 20
170.3594866821
 11
129.3462761237
 21
167.2147674818
  0
LINE
  5
233
100
AcDbEntity
  8
0
100
AcDbLine
 62
7
  6
CONTINUOUS
 10
129.9422514079
 20
167.2147674818
 11
129.9422514079
 21
170.3594866821
  0
LINE
  5
234
100
AcDbEntity
  8
0
100
AcDbLine
 62
7
  6
CONTINUOUS
 10
167.5524357169
 20
166.2003419997
 11
167.0323832897
 21
166.0988994586
  0
LINE
  5
235
100
AcDbEntity
  8
0
100
AcDbLine
 62
7
  6
CONTINUOUS
 10
167.0323832897
 20
165.5916866821
 11
167.6564457262
 21
165.6931292321
  0
LINE
  5
236
100
AcDbEntity
  8
0
100
AcDbLine
 62
7
  6
CONTINUOUS
 10
130.0415801957
 20
165.8960143409
 11
130.4388970518
 21
165.6931292321
  0
LINE
  5
237
100
AcDbEntity
  8
0
100
AcDbLine
 62
7
  6
CONTINUOUS
 10
130.5382264079
 20
166.3017845408
 11
130.2402389079
 21
166.5046696941
  0
LINE
  5
238
100
AcDbEntity
  8
0
100
AcDbLine
 62
7
  6
CONTINUOUS
 10
128.0549970518
 20
169.9537165177
 11
127.6576804798
 21
170.258044141
  0
LINE
  5
239
100
AcDbEntity
  8
0
100
AcDbLine
 62
7
  6
CONTINUOUS
 10
127.5583511237
 20
169.7508314355
 11
127.7570095518
 21
169.5479463533
  0
LINE
  5
23A
100
AcDbEntity
  8
0
100
AcDbLine
 62
7
  6
CONTINUOUS
 10
128.3529845518
 20
169.5479463533
 11
128.0549970518
 21
169.9537165177
  0
LINE
  5
23B
100
AcDbEntity
  8
0
100
AcDbLine
 62
7
  6
CONTINUOUS
 10
130.0415801957
 20
166.8089973174
 11
129.9422514079
 21
167.2147674818
  0
LINE
  5
23C
100
AcDbEntity
  8
0
100
AcDbLine
 62
7
  6
CONTINUOUS
 10
129.3462761237
 20
167.2147674818
 11
129.4456054798
 21
166.7075547763
  0
LINE
  5
23D
100
AcDbEntity
  8
KONSTRUKTIONSELEMENTE
100
AcDbLine
 62
7
  6
CONTINUOUS
 10
131.1479745842
 20
146.7629131216
 11
131.1479745842
 21
150.9259131216
  0
LINE
  5
23E
100
AcDbEntity
  8
0
100
AcDbLine
 62
7
  6
CONTINUOUS
 10
132.3261514079
 20
170.3594866821
 11
132.3261514079
 21
167.2147674818
  0
LINE
  5
23F
100
AcDbEntity
  8
0
100
AcDbLine
 62
7
  6
CONTINUOUS
 10
132.9221264079
 20
167.2147674818
 11
132.9221264079
 21
170.3594866821
  0
LINE
  5
240
100
AcDbEntity
  8
0
100
AcDbLine
 62
7
  6
CONTINUOUS
 10
133.7167595518
 20
170.3594866821
 11
133.7167595518
 21
165.5916866821
  0
LINE
  5
241
100
AcDbEntity
  8
0
100
AcDbLine
 62
7
  6
CONTINUOUS
 10
134.3127345518
 20
166.2003419997
 11
134.3127345518
 21
169.7508314355
  0
LINE
  5
242
100
AcDbEntity
  8
0
100
AcDbLine
 62
7
  6
CONTINUOUS
 10
127.8563386237
 20
168.9392908225
 11
127.7570095518
 21
168.6349631992
  0
LINE
  5
243
100
AcDbEntity
  8
0
100
AcDbLine
 62
7
  6
CONTINUOUS
 10
128.3529845518
 20
168.5335206581
 11
128.4523136237
 21
168.8378482814
  0
LINE
  5
244
100
AcDbEntity
  8
0
100
AcDbLine
 62
7
  6
CONTINUOUS
 10
161.2078007482
 20
166.3017845408
 11
160.7917595206
 21
166.2003419997
  0
LINE
  5
245
100
AcDbEntity
  8
0
100
AcDbLine
 62
7
  6
CONTINUOUS
 10
159.4396240433
 20
169.6493888944
 11
159.855665866
 21
169.7508314355
  0
LINE
  5
246
100
AcDbEntity
  8
0
100
AcDbLine
 62
7
  6
CONTINUOUS
 10
160.7917595206
 20
165.5916866821
 11
161.3118113526
 21
165.6931292321
  0
LINE
  5
247
100
AcDbEntity
  8
0
100
AcDbLine
 62
7
  6
CONTINUOUS
 10
166.5123320529
 20
169.7508314355
 11
167.0323832897
 21
169.8522739766
  0
LINE
  5
248
100
AcDbEntity
  8
0
100
AcDbLine
 62
7
  6
CONTINUOUS
 10
124.7771345518
 20
165.5916866821
 11
125.3731095518
 21
165.5916866821
  0
LINE
  5
249
100
AcDbEntity
  8
0
100
AcDbLine
 62
7
  6
CONTINUOUS
 10
127.8563386237
 20
165.5916866821
 11
128.5516429798
 21
165.5916866821
  0
LINE
  5
24A
100
AcDbEntity
  8
0
100
AcDbLine
 62
7
  6
CONTINUOUS
 10
130.9355426957
 20
165.5916866821
 11
131.3328595518
 21
165.5916866821
  0
LINE
  5
24B
100
AcDbEntity
  8
0
100
AcDbLine
 62
7
  6
CONTINUOUS
 10
133.7167595518
 20
165.5916866821
 11
136.1006595518
 21
165.5916866821
  0
LINE
  5
24C
100
AcDbEntity
  8
0
100
AcDbLine
 62
7
  6
CONTINUOUS
 10
151.9508748062
 20
165.5916866821
 11
152.5749372427
 21
165.5916866821
  0
LINE
  5
24D
100
AcDbEntity
  8
0
100
AcDbLine
 62
7
  6
CONTINUOUS
 10
153.4070204416
 20
165.5916866821
 11
154.0310828781
 21
165.5916866821
  0
LINE
  5
24E
100
AcDbEntity
  8
0
100
AcDbLine
 62
7
  6
CONTINUOUS
 10
156.6313430794
 20
165.5916866821
 11
157.3594161203
 21
165.5916866821
  0
LINE
  5
24F
100
AcDbEntity
  8
0
100
AcDbLine
 62
7
  6
CONTINUOUS
 10
159.855665866
 20
165.5916866821
 11
160.7917595206
 21
165.5916866821
  0
LINE
  5
250
100
AcDbEntity
  8
0
100
AcDbLine
 62
7
  6
CONTINUOUS
 10
163.704051089
 20
165.5916866821
 11
164.3281135254
 21
165.5916866821
  0
LINE
  5
251
100
AcDbEntity
  8
0
100
AcDbLine
 62
7
  6
CONTINUOUS
 10
160.7917595206
 20
166.2003419997
 11
159.855665866
 21
166.2003419997
  0
LINE
  5
252
100
AcDbEntity
  8
0
100
AcDbLine
 62
7
  6
CONTINUOUS
 10
136.1006595518
 20
166.2003419997
 11
134.3127345518
 21
166.2003419997
  0
LINE
  5
253
100
AcDbEntity
  8
0
100
AcDbLine
 62
7
  6
CONTINUOUS
 10
131.3328595518
 20
166.2003419997
 11
130.9355426957
 21
166.2003419997
  0
LINE
  5
254
100
AcDbEntity
  8
0
100
AcDbLine
 62
7
  6
CONTINUOUS
 10
130.4388970518
 20
165.6931292321
 11
130.9355426957
 21
165.5916866821
  0
LINE
  5
255
100
AcDbEntity
  8
0
100
AcDbLine
 62
7
  6
CONTINUOUS
 10
130.9355426957
 20
166.2003419997
 11
130.5382264079
 21
166.3017845408
  0
LINE
  5
256
100
AcDbEntity
  8
0
100
AcDbLine
 62
7
  6
CONTINUOUS
 10
127.2603636237
 20
169.8522739766
 11
127.5583511237
 21
169.7508314355
  0
LINE
  5
257
100
AcDbEntity
  8
0
100
AcDbLine
 62
7
  6
CONTINUOUS
 10
136.4979758395
 20
169.6493888944
 11
136.7959633395
 21
169.4465038122
  0
LINE
  5
258
100
AcDbEntity
  8
0
100
AcDbLine
 62
7
  6
CONTINUOUS
 10
137.3919383395
 20
169.6493888944
 11
136.9946220518
 21
170.0551590588
  0
LINE
  5
259
100
AcDbEntity
  8
0
100
AcDbLine
 62
7
  6
CONTINUOUS
 10
136.7959633395
 20
169.4465038122
 11
136.9946220518
 21
169.1421759047
  0
LINE
  5
25A
100
AcDbEntity
  8
0
100
AcDbLine
 62
7
  6
CONTINUOUS
 10
137.5905970518
 20
169.24361873
 11
137.3919383395
 21
169.6493888944
  0
LINE
  5
25B
100
AcDbEntity
  8
0
100
AcDbLine
 62
7
  6
CONTINUOUS
 10
137.0939508395
 20
168.7364057403
 11
137.0939508395
 21
167.2147674818
  0
LINE
  5
25C
100
AcDbEntity
  8
0
100
AcDbLine
 62
7
  6
CONTINUOUS
 10
137.6899258395
 20
167.2147674818
 11
137.6899258395
 21
168.7364057403
  0
LINE
  5
25D
100
AcDbEntity
  8
0
100
AcDbLine
 62
7
  6
CONTINUOUS
 10
132.8227970518
 20
166.7075547763
 11
132.9221264079
 21
167.2147674818
  0
LINE
  5
25E
100
AcDbEntity
  8
0
100
AcDbLine
 62
7
  6
CONTINUOUS
 10
132.3261514079
 20
167.2147674818
 11
132.2268220518
 21
166.8089973174
  0
LINE
  5
25F
100
AcDbEntity
  8
0
100
AcDbLine
 62
7
  6
CONTINUOUS
 10
128.0549970518
 20
168.1277504938
 11
128.3529845518
 21
168.5335206581
  0
LINE
  5
260
100
AcDbEntity
  8
0
100
AcDbLine
 62
7
  6
CONTINUOUS
 10
136.4979758395
 20
166.3017845408
 11
136.1006595518
 21
166.2003419997
  0
LINE
  5
261
100
AcDbEntity
  8
0
100
AcDbLine
 62
7
  6
CONTINUOUS
 10
131.7301764079
 20
166.3017845408
 11
131.3328595518
 21
166.2003419997
  0
LINE
  5
262
100
AcDbEntity
  8
0
100
AcDbLine
 62
7
  6
CONTINUOUS
 10
136.1006595518
 20
165.5916866821
 11
136.597305764
 21
165.6931292321
  0
LINE
  5
263
100
AcDbEntity
  8
0
100
AcDbLine
 62
7
  6
CONTINUOUS
 10
131.3328595518
 20
165.5916866821
 11
131.8295051957
 21
165.6931292321
  0
LINE
  5
264
100
AcDbEntity
  8
0
100
AcDbLine
 62
7
  6
CONTINUOUS
 10
159.855665866
 20
170.3594866821
 11
159.3356134389
 21
170.258044141
  0
LINE
  5
265
100
AcDbEntity
  8
0
100
AcDbLine
 62
7
  6
CONTINUOUS
 10
167.0323832897
 20
170.3594866821
 11
166.4083208533
 21
170.258044141
  0
LINE
  5
266
100
AcDbEntity
  8
0
100
AcDbLine
 62
7
  6
CONTINUOUS
 10
160.6877489162
 20
167.6205377883
 11
161.6238425708
 21
167.6205377883
  0
LINE
  5
267
100
AcDbEntity
  8
0
100
AcDbLine
 62
7
  6
CONTINUOUS
 10
125.3731095518
 20
167.7219803294
 11
127.0617053378
 21
167.7219803294
  0
LINE
  5
268
100
AcDbEntity
  8
0
100
AcDbLine
 62
7
  6
CONTINUOUS
 10
154.0310828781
 20
167.7219803294
 11
155.7992597317
 21
167.7219803294
  0
LINE
  5
269
100
AcDbEntity
  8
0
100
AcDbLine
 62
7
  6
CONTINUOUS
 10
162.2479050072
 20
168.2291930348
 11
160.6877489162
 21
168.2291930348
  0
LINE
  5
26A
100
AcDbEntity
  8
0
100
AcDbLine
 62
7
  6
CONTINUOUS
 10
156.007280643
 20
168.3306355759
 11
154.0310828781
 21
168.3306355759
  0
LINE
  5
26B
100
AcDbEntity
  8
0
100
AcDbLine
 62
7
  6
CONTINUOUS
 10
127.2603636237
 20
168.3306355759
 11
125.3731095518
 21
168.3306355759
  0
LINE
  5
26C
100
AcDbEntity
  8
0
100
AcDbLine
 62
7
  6
CONTINUOUS
 10
161.6238425708
 20
169.1421759047
 11
162.2479050072
 21
169.1421759047
  0
LINE
  5
26D
100
AcDbEntity
  8
0
100
AcDbLine
 62
7
  6
CONTINUOUS
 10
134.3127345518
 20
169.7508314355
 11
136.1006595518
 21
169.7508314355
  0
LINE
  5
26E
100
AcDbEntity
  8
0
100
AcDbLine
 62
7
  6
CONTINUOUS
 10
159.855665866
 20
169.7508314355
 11
160.7917595206
 21
169.7508314355
  0
LINE
  5
26F
100
AcDbEntity
  8
0
100
AcDbLine
 62
7
  6
CONTINUOUS
 10
125.3731095518
 20
169.8522739766
 11
127.2603636237
 21
169.8522739766
  0
LINE
  5
270
100
AcDbEntity
  8
0
100
AcDbLine
 62
7
  6
CONTINUOUS
 10
154.0310828781
 20
169.8522739766
 11
156.007280643
 21
169.8522739766
  0
LINE
  5
271
100
AcDbEntity
  8
0
100
AcDbLine
 62
7
  6
CONTINUOUS
 10
164.3281135254
 20
170.3594866821
 11
163.704051089
 21
170.3594866821
  0
LINE
  5
272
100
AcDbEntity
  8
0
100
AcDbLine
 62
7
  6
CONTINUOUS
 10
160.7917595206
 20
170.3594866821
 11
159.855665866
 21
170.3594866821
  0
LINE
  5
273
100
AcDbEntity
  8
0
100
AcDbLine
 62
7
  6
CONTINUOUS
 10
155.9032703361
 20
170.3594866821
 11
153.4070204416
 21
170.3594866821
  0
LINE
  5
274
100
AcDbEntity
  8
0
100
AcDbLine
 62
7
  6
CONTINUOUS
 10
152.5749372427
 20
170.3594866821
 11
151.9508748062
 21
170.3594866821
  0
LINE
  5
275
100
AcDbEntity
  8
0
100
AcDbLine
 62
7
  6
CONTINUOUS
 10
136.1006595518
 20
170.3594866821
 11
133.7167595518
 21
170.3594866821
  0
LINE
  5
276
100
AcDbEntity
  8
0
100
AcDbLine
 62
7
  6
CONTINUOUS
 10
132.9221264079
 20
170.3594866821
 11
132.3261514079
 21
170.3594866821
  0
LINE
  5
277
100
AcDbEntity
  8
0
100
AcDbLine
 62
7
  6
CONTINUOUS
 10
129.9422514079
 20
170.3594866821
 11
129.3462761237
 21
170.3594866821
  0
LINE
  5
278
100
AcDbEntity
  8
0
100
AcDbLine
 62
7
  6
CONTINUOUS
 10
127.1610345518
 20
170.3594866821
 11
124.7771345518
 21
170.3594866821
  0
LINE
  5
279
100
AcDbEntity
  8
0
100
AcDbLine
 62
7
  6
CONTINUOUS
 10
166.4083208533
 20
165.6931292321
 11
167.0323832897
 21
165.5916866821
  0
LINE
  5
27A
100
AcDbEntity
  8
0
100
AcDbLine
 62
7
  6
CONTINUOUS
 10
159.3356134389
 20
165.6931292321
 11
159.855665866
 21
165.5916866821
  0
LINE
  5
27B
100
AcDbEntity
  8
0
100
AcDbLine
 62
7
  6
CONTINUOUS
 10
167.0323832897
 20
166.0988994586
 11
166.5123320529
 21
166.2003419997
  0
LINE
  5
27C
100
AcDbEntity
  8
0
100
AcDbLine
 62
7
  6
CONTINUOUS
 10
127.6576804798
 20
170.258044141
 11
127.1610345518
 21
170.3594866821
  0
LINE
  5
27D
100
AcDbEntity
  8
0
100
AcDbLine
 62
7
  6
CONTINUOUS
 10
136.597305764
 20
170.258044141
 11
136.1006595518
 21
170.3594866821
  0
LINE
  5
27E
100
AcDbEntity
  8
0
100
AcDbLine
 62
7
  6
CONTINUOUS
 10
159.855665866
 20
166.2003419997
 11
159.4396240433
 21
166.3017845408
  0
LINE
  5
27F
100
AcDbEntity
  8
0
100
AcDbLine
 62
7
  6
CONTINUOUS
 10
136.1006595518
 20
169.7508314355
 11
136.4979758395
 21
169.6493888944
  0
LINE
  5
280
100
AcDbEntity
  8
0
100
AcDbLine
 62
7
  6
CONTINUOUS
 10
136.9946220518
 20
170.0551590588
 11
136.597305764
 21
170.258044141
  0
LINE
  5
281
100
AcDbEntity
  8
0
100
AcDbLine
 62
7
  6
CONTINUOUS
 10
136.9946220518
 20
169.1421759047
 11
137.0939508395
 21
168.7364057403
  0
LINE
  5
282
100
AcDbEntity
  8
0
100
AcDbLine
 62
7
  6
CONTINUOUS
 10
137.6899258395
 20
168.7364057403
 11
137.5905970518
 21
169.24361873
  0
LINE
  5
283
100
AcDbEntity
  8
0
100
AcDbLine
 62
7
  6
CONTINUOUS
 10
139.7334348062
 20
146.7629131216
 11
139.7334348062
 21
134.5162750417
  0
LINE
  5
284
100
AcDbEntity
  8
KONSTRUKTIONSELEMENTE
100
AcDbLine
 62
7
  6
CONTINUOUS
 10
139.7334348062
 20
146.7629131216
 11
139.7334348062
 21
160.1129131216
  0
LINE
  5
285
100
AcDbEntity
  8
0
100
AcDbLine
 62
7
  6
CONTINUOUS
 10
137.5905970518
 20
166.7075547763
 11
137.6899258395
 21
167.2147674818
  0
LINE
  5
286
100
AcDbEntity
  8
0
100
AcDbLine
 62
7
  6
CONTINUOUS
 10
137.0939508395
 20
167.2147674818
 11
136.9946220518
 21
166.8089973174
  0
LINE
  5
287
100
AcDbEntity
  8
0
100
AcDbLine
 62
7
  6
CONTINUOUS
 10
132.6241389079
 20
166.3017845408
 11
132.8227970518
 21
166.7075547763
  0
LINE
  5
288
100
AcDbEntity
  8
0
100
AcDbLine
 62
7
  6
CONTINUOUS
 10
132.2268220518
 20
166.8089973174
 11
132.0281639079
 21
166.5046696941
  0
LINE
  5
289
100
AcDbEntity
  8
0
100
AcDbLine
 62
7
  6
CONTINUOUS
 10
127.7570095518
 20
168.6349631992
 11
127.5583511237
 21
168.432078117
  0
LINE
  5
28A
100
AcDbEntity
  8
0
100
AcDbLine
 62
7
  6
CONTINUOUS
 10
167.6564457262
 20
170.258044141
 11
167.0323832897
 21
170.3594866821
  0
LINE
  5
28B
100
AcDbEntity
  8
0
100
AcDbLine
 62
7
  6
CONTINUOUS
 10
156.4233221681
 20
170.258044141
 11
155.9032703361
 21
170.3594866821
  0
LINE
  5
28C
100
AcDbEntity
  8
0
100
AcDbLine
 62
7
  6
CONTINUOUS
 10
161.3118113526
 20
170.258044141
 11
160.7917595206
 21
170.3594866821
  0
LINE
  5
28D
100
AcDbEntity
  8
0
100
AcDbLine
 62
7
  6
CONTINUOUS
 10
167.0323832897
 20
169.8522739766
 11
167.5524357169
 21
169.7508314355
  0
LINE
  5
28E
100
AcDbEntity
  8
0
100
AcDbLine
 62
7
  6
CONTINUOUS
 10
160.7917595206
 20
169.7508314355
 11
161.2078007482
 21
169.6493888944
  0
LINE
  5
28F
100
AcDbEntity
  8
0
100
AcDbLine
 62
7
  6
CONTINUOUS
 10
156.007280643
 20
169.8522739766
 11
156.3193118612
 21
169.7508314355
  0
LINE
  5
290
100
AcDbEntity
  8
0
100
AcDbLine
 62
7
  6
CONTINUOUS
 10
158.9195722114
 20
165.8960143409
 11
159.3356134389
 21
165.6931292321
  0
LINE
  5
291
100
AcDbEntity
  8
BEZUGSACHSEN
100
AcDbLine
 62
2
  6
CENTER
 10
145.9834348062
 20
191.8129131216
 11
145.9834348062
 21
119.3593406736
  0
LINE
  5
292
100
AcDbEntity
  8
BEZUGSACHSEN
100
AcDbLine
 62
2
  6
CENTER
 10
145.9834348062
 20
191.8129131216
 11
145.9834348062
 21
229.7534842105
  0
LINE
  5
293
100
AcDbEntity
  8
0
100
AcDbLine
 62
7
  6
CONTINUOUS
 10
137.3919383395
 20
166.3017845408
 11
137.5905970518
 21
166.7075547763
  0
LINE
  5
294
100
AcDbEntity
  8
0
100
AcDbLine
 62
7
  6
CONTINUOUS
 10
136.9946220518
 20
166.8089973174
 11
136.7959633395
 21
166.5046696941
  0
LINE
  5
295
100
AcDbEntity
  8
0
100
AcDbLine
 62
7
  6
CONTINUOUS
 10
132.2268220518
 20
165.8960143409
 11
132.6241389079
 21
166.3017845408
  0
LINE
  5
296
100
AcDbEntity
  8
RUNDUNGEN
100
AcDbLine
 62
7
  6
CONTINUOUS
 10
166.2982886154
 20
176.4503953153
 11
163.4349547014
 21
176.4503953153
  0
LINE
  5
297
100
AcDbEntity
  8
RUNDUNGEN
100
AcDbLine
 62
7
  6
CONTINUOUS
 10
128.5319149111
 20
176.4503953153
 11
125.668580767
 21
176.4503953153
  0
LINE
  5
298
100
AcDbEntity
  8
RUNDUNGEN
100
AcDbLine
 62
7
  6
CONTINUOUS
 10
134.0290935696
 20
176.5629131216
 11
157.9377760429
 21
176.5629131216
  0
LINE
  5
299
100
AcDbEntity
  8
0
100
AcDbLine
 62
7
  6
CONTINUOUS
 10
161.7278531753
 20
170.0551590588
 11
161.3118113526
 21
170.258044141
  0
LINE
  5
29A
100
AcDbEntity
  8
0
100
AcDbLine
 62
7
  6
CONTINUOUS
 10
165.8882696165
 20
165.997456882
 11
166.4083208533
 21
165.6931292321
  0
LINE
  5
29B
100
AcDbEntity
  8
0
100
AcDbLine
 62
7
  6
CONTINUOUS
 10
159.4396240433
 20
166.3017845408
 11
159.1275928251
 21
166.5046696941
  0
LINE
  5
29C
100
AcDbEntity
  8
0
100
AcDbLine
 62
7
  6
CONTINUOUS
 10
156.8393639908
 20
169.9537165177
 11
156.4233221681
 21
170.258044141
  0
LINE
  5
29D
100
AcDbEntity
  8
0
100
AcDbLine
 62
7
  6
CONTINUOUS
 10
158.5035303887
 20
166.3017845408
 11
158.9195722114
 21
165.8960143409
  0
LINE
  5
29E
100
AcDbEntity
  8
0
100
AcDbLine
 62
7
  6
CONTINUOUS
 10
136.9946220518
 20
165.8960143409
 11
137.3919383395
 21
166.3017845408
  0
LINE
  5
29F
100
AcDbEntity
  8
0
100
AcDbLine
 62
7
  6
CONTINUOUS
 10
132.0281639079
 20
166.5046696941
 11
131.7301764079
 21
166.3017845408
  0
LINE
  5
2A0
100
AcDbEntity
  8
0
100
AcDbLine
 62
7
  6
CONTINUOUS
 10
136.7959633395
 20
166.5046696941
 11
136.4979758395
 21
166.3017845408
  0
LINE
  5
2A1
100
AcDbEntity
  8
0
100
AcDbLine
 62
7
  6
CONTINUOUS
 10
127.6576804798
 20
167.9248654116
 11
128.0549970518
 21
168.1277504938
  0
LINE
  5
2A2
100
AcDbEntity
  8
0
100
AcDbLine
 62
7
  6
CONTINUOUS
 10
127.5583511237
 20
168.432078117
 11
127.2603636237
 21
168.3306355759
  0
LINE
  5
2A3
100
AcDbEntity
  8
0
100
AcDbLine
 62
7
  6
CONTINUOUS
 10
168.1764981533
 20
169.9537165177
 11
167.6564457262
 21
170.258044141
  0
LINE
  5
2A4
100
AcDbEntity
  8
0
100
AcDbLine
 62
7
  6
CONTINUOUS
 10
166.5123320529
 20
166.2003419997
 11
166.2003008347
 21
166.4032270819
  0
LINE
  5
2A5
100
AcDbEntity
  8
0
100
AcDbLine
 62
7
  6
CONTINUOUS
 10
161.2078007482
 20
169.6493888944
 11
161.5198319664
 21
169.4465038122
  0
LINE
  5
2A6
100
AcDbEntity
  8
0
100
AcDbLine
 62
7
  6
CONTINUOUS
 10
156.3193118612
 20
169.7508314355
 11
156.5273327725
 21
169.5479463533
  0
LINE
  5
2A7
100
AcDbEntity
  8
0
100
AcDbLine
 62
7
  6
CONTINUOUS
 10
157.1513949114
 20
169.5479463533
 11
156.8393639908
 21
169.9537165177
  0
LINE
  5
2A8
100
AcDbEntity
  8
0
100
AcDbLine
 62
7
  6
CONTINUOUS
 10
159.1275928251
 20
166.5046696941
 11
158.9195722114
 21
166.8089973174
  0
LINE
  5
2A9
100
AcDbEntity
  8
0
100
AcDbLine
 62
7
  6
CONTINUOUS
 10
151.9508748062
 20
170.3594866821
 11
151.9508748062
 21
165.5916866821
  0
LINE
  5
2AA
100
AcDbEntity
  8
0
100
AcDbLine
 62
7
  6
CONTINUOUS
 10
152.2334348062
 20
134.5162750417
 11
152.2334348062
 21
146.7629131216
  0
LINE
  5
2AB
100
AcDbEntity
  8
KONSTRUKTIONSELEMENTE
100
AcDbLine
 62
7
  6
CONTINUOUS
 10
152.2334348062
 20
146.7629131216
 11
152.2334348062
 21
160.1129131216
  0
LINE
  5
2AC
100
AcDbEntity
  8
0
100
AcDbLine
 62
7
  6
CONTINUOUS
 10
152.5749372427
 20
165.5916866821
 11
152.5749372427
 21
170.3594866821
  0
LINE
  5
2AD
100
AcDbEntity
  8
0
100
AcDbLine
 62
7
  6
CONTINUOUS
 10
153.4070204416
 20
170.3594866821
 11
153.4070204416
 21
165.5916866821
  0
LINE
  5
2AE
100
AcDbEntity
  8
0
100
AcDbLine
 62
7
  6
CONTINUOUS
 10
154.0310828781
 20
165.5916866821
 11
154.0310828781
 21
167.7219803294
  0
LINE
  5
2AF
100
AcDbEntity
  8
0
100
AcDbLine
 62
7
  6
CONTINUOUS
 10
154.0310828781
 20
168.3306355759
 11
154.0310828781
 21
169.8522739766
  0
LINE
  5
2B0
100
AcDbEntity
  8
0
100
AcDbLine
 62
7
  6
CONTINUOUS
 10
131.8295051957
 20
165.6931292321
 11
132.2268220518
 21
165.8960143409
  0
LINE
  5
2B1
100
AcDbEntity
  8
0
100
AcDbLine
 62
7
  6
CONTINUOUS
 10
136.597305764
 20
165.6931292321
 11
136.9946220518
 21
165.8960143409
  0
LINE
  5
2B2
100
AcDbEntity
  8
0
100
AcDbLine
 62
7
  6
CONTINUOUS
 10
167.5524357169
 20
169.7508314355
 11
167.8644669351
 21
169.5479463533
  0
LINE
  5
2B3
100
AcDbEntity
  8
0
100
AcDbLine
 62
7
  6
CONTINUOUS
 10
162.1438949979
 20
169.6493888944
 11
161.7278531753
 21
170.0551590588
  0
LINE
  5
2B4
100
AcDbEntity
  8
0
100
AcDbLine
 62
7
  6
CONTINUOUS
 10
165.5762383983
 20
166.3017845408
 11
165.8882696165
 21
165.997456882
  0
LINE
  5
2B5
100
AcDbEntity
  8
0
100
AcDbLine
 62
7
  6
CONTINUOUS
 10
158.2955097749
 20
166.7075547763
 11
158.5035303887
 21
166.3017845408
  0
LINE
  5
2B6
100
AcDbEntity
  8
0
100
AcDbLine
 62
7
  6
CONTINUOUS
 10
157.3594161203
 20
165.5916866821
 11
156.4233221681
 21
167.9248654116
  0
LINE
  5
2B7
100
AcDbEntity
  8
0
100
AcDbLine
 62
7
  6
CONTINUOUS
 10
155.7992597317
 20
167.7219803294
 11
156.6313430794
 21
165.5916866821
  0
LINE
  5
2B8
100
AcDbEntity
  8
0
100
AcDbLine
 62
7
  6
CONTINUOUS
 10
156.5273327725
 20
169.5479463533
 11
156.6313430794
 21
169.24361873
  0
LINE
  5
2B9
100
AcDbEntity
  8
0
100
AcDbLine
 62
7
  6
CONTINUOUS
 10
157.2554055159
 20
169.24361873
 11
157.1513949114
 21
169.5479463533
  0
LINE
  5
2BA
100
AcDbEntity
  8
0
100
AcDbLine
 62
7
  6
CONTINUOUS
 10
156.6313430794
 20
169.24361873
 11
156.6313430794
 21
168.9392908225
  0
LINE
  5
2BB
100
AcDbEntity
  8
0
100
AcDbLine
 62
7
  6
CONTINUOUS
 10
157.2554055159
 20
168.8378482814
 11
157.2554055159
 21
169.24361873
  0
LINE
  5
2BC
100
AcDbEntity
  8
0
100
AcDbLine
 62
7
  6
CONTINUOUS
 10
158.1914991705
 20
168.7364057403
 11
158.1914991705
 21
167.2147674818
  0
LINE
  5
2BD
100
AcDbEntity
  8
0
100
AcDbLine
 62
7
  6
CONTINUOUS
 10
156.3193118612
 20
168.432078117
 11
156.007280643
 21
168.3306355759
  0
LINE
  5
2BE
100
AcDbEntity
  8
0
100
AcDbLine
 62
7
  6
CONTINUOUS
 10
168.4885293715
 20
169.6493888944
 11
168.1764981533
 21
169.9537165177
  0
LINE
  5
2BF
100
AcDbEntity
  8
0
100
AcDbLine
 62
7
  6
CONTINUOUS
 10
166.2003008347
 20
166.4032270819
 11
165.7842584169
 21
167.0118823996
  0
LINE
  5
2C0
100
AcDbEntity
  8
0
100
AcDbLine
 62
7
  6
CONTINUOUS
 10
165.3682171894
 20
166.7075547763
 11
165.5762383983
 21
166.3017845408
  0
LINE
  5
2C1
100
AcDbEntity
  8
0
100
AcDbLine
 62
7
  6
CONTINUOUS
 10
161.5198319664
 20
169.4465038122
 11
161.6238425708
 21
169.1421759047
  0
LINE
  5
2C2
100
AcDbEntity
  8
0
100
AcDbLine
 62
7
  6
CONTINUOUS
 10
158.9195722114
 20
166.8089973174
 11
158.8155616069
 21
167.2147674818
  0
LINE
  5
2C3
100
AcDbEntity
  8
0
100
AcDbLine
 62
7
  6
CONTINUOUS
 10
158.1914991705
 20
167.2147674818
 11
158.2955097749
 21
166.7075547763
  0
LINE
  5
2C4
100
AcDbEntity
  8
0
100
AcDbLine
 62
7
  6
CONTINUOUS
 10
158.8155616069
 20
167.2147674818
 11
158.8155616069
 21
168.7364057403
  0
LINE
  5
2C5
100
AcDbEntity
  8
0
100
AcDbLine
 62
7
  6
CONTINUOUS
 10
160.6877489162
 20
168.2291930348
 11
160.6877489162
 21
167.6205377883
  0
LINE
  5
2C6
100
AcDbEntity
  8
KONSTRUKTIONSELEMENTE
100
AcDbLine
 62
7
  6
CONTINUOUS
 10
160.8188950283
 20
146.7629131216
 11
160.8188950283
 21
150.9259131216
  0
LINE
  5
2C7
100
AcDbEntity
  8
0
100
AcDbLine
 62
7
  6
CONTINUOUS
 10
161.6238425708
 20
167.6205377883
 11
161.6238425708
 21
166.8089973174
  0
LINE
  5
2C8
100
AcDbEntity
  8
0
100
AcDbLine
 62
7
  6
CONTINUOUS
 10
162.2479050072
 20
166.7075547763
 11
162.2479050072
 21
168.2291930348
  0
LINE
  5
2C9
100
AcDbEntity
  8
0
100
AcDbLine
 62
7
  6
CONTINUOUS
 10
158.2955097749
 20
169.24361873
 11
158.1914991705
 21
168.7364057403
  0
LINE
  5
2CA
100
AcDbEntity
  8
0
100
AcDbLine
 62
7
  6
CONTINUOUS
 10
158.8155616069
 20
168.7364057403
 11
158.9195722114
 21
169.1421759047
  0
LINE
  5
2CB
100
AcDbEntity
  8
0
100
AcDbLine
 62
7
  6
CONTINUOUS
 10
156.6313430794
 20
168.9392908225
 11
156.5273327725
 21
168.6349631992
  0
LINE
  5
2CC
100
AcDbEntity
  8
0
100
AcDbLine
 62
7
  6
CONTINUOUS
 10
157.1513949114
 20
168.5335206581
 11
157.2554055159
 21
168.8378482814
  0
LINE
  5
2CD
100
AcDbEntity
  8
0
100
AcDbLine
 62
7
  6
CONTINUOUS
 10
158.5035303887
 20
169.6493888944
 11
158.2955097749
 21
169.24361873
  0
LINE
  5
2CE
100
AcDbEntity
  8
0
100
AcDbLine
 62
7
  6
CONTINUOUS
 10
158.9195722114
 20
169.1421759047
 11
159.1275928251
 21
169.4465038122
  0
LINE
  5
2CF
100
AcDbEntity
  8
0
100
AcDbLine
 62
7
  6
CONTINUOUS
 10
156.8393639908
 20
168.1277504938
 11
157.1513949114
 21
168.5335206581
  0
LINE
  5
2D0
100
AcDbEntity
  8
0
100
AcDbLine
 62
7
  6
CONTINUOUS
 10
156.5273327725
 20
168.6349631992
 11
156.3193118612
 21
168.432078117
  0
LINE
  5
2D1
100
AcDbEntity
  8
0
100
AcDbLine
 62
7
  6
CONTINUOUS
 10
158.9195722114
 20
170.0551590588
 11
158.5035303887
 21
169.6493888944
  0
LINE
  5
2D2
100
AcDbEntity
  8
0
100
AcDbLine
 62
7
  6
CONTINUOUS
 10
159.1275928251
 20
169.4465038122
 11
159.4396240433
 21
169.6493888944
  0
LINE
  5
2D3
100
AcDbEntity
  8
0
100
AcDbLine
 62
7
  6
CONTINUOUS
 10
159.3356134389
 20
170.258044141
 11
158.9195722114
 21
170.0551590588
  0
LINE
  5
2D4
100
AcDbEntity
  8
0
100
AcDbLine
 62
7
  6
CONTINUOUS
 10
156.4233221681
 20
167.9248654116
 11
156.8393639908
 21
168.1277504938
  0
LINE
  5
2D5
100
AcDbEntity
  8
BEZUGSACHSEN
100
AcDbLine
 62
2
  6
CENTER
 10
145.9834348062
 20
191.8129131216
 11
108.0428637174
 21
191.8129131216
  0
LINE
  5
2D6
100
AcDbEntity
  8
BEZUGSACHSEN
100
AcDbLine
 62
2
  6
CENTER
 10
145.9834348062
 20
191.8129131216
 11
183.9240058951
 21
191.8129131216
  0
LINE
  5
2D7
100
AcDbEntity
  8
0
100
AcDbLine
 62
7
  6
CONTINUOUS
 10
167.8644669351
 20
169.5479463533
 11
168.2805081626
 21
168.9392908225
  0
LINE
  5
2D8
100
AcDbEntity
  8
0
100
AcDbLine
 62
7
  6
CONTINUOUS
 10
168.6965505804
 20
169.24361873
 11
168.4885293715
 21
169.6493888944
  0
LINE
  5
2D9
100
AcDbEntity
  8
0
100
AcDbLine
 62
7
  6
CONTINUOUS
 10
165.2642071801
 20
167.0118823996
 11
165.3682171894
 21
166.7075547763
  0
LINE
  5
2DA
100
AcDbEntity
  8
0
100
AcDbLine
 62
7
  6
CONTINUOUS
 10
162.2479050072
 20
169.1421759047
 11
162.1438949979
 21
169.6493888944
  0
LINE
  5
2DB
100
AcDbEntity
  8
0
100
AcDbLine
 62
7
  6
CONTINUOUS
 10
163.0799886526
 20
169.6493888944
 11
163.0799886526
 21
168.8378482814
  0
LINE
  5
2DC
100
AcDbEntity
  8
0
100
AcDbLine
 62
7
  6
CONTINUOUS
 10
163.704051089
 20
169.5479463533
 11
163.704051089
 21
165.5916866821
  0
LINE
  5
2DD
100
AcDbEntity
  8
0
100
AcDbLine
 62
7
  6
CONTINUOUS
 10
164.3281135254
 20
165.5916866821
 11
164.3281135254
 21
170.3594866821
  0
LINE
  5
2DE
100
AcDbEntity
  8
0
100
AcDbLine
 62
7
  6
CONTINUOUS
 10
165.1601959805
 20
168.432078117
 11
165.1601959805
 21
167.5190952472
  0
LINE
  5
2DF
100
AcDbEntity
  8
0
100
AcDbLine
 62
7
  6
CONTINUOUS
 10
165.6802484076
 20
167.6205377883
 11
165.6802484076
 21
168.3306355759
  0
LINE
  5
2E0
100
AcDbEntity
  8
0
100
AcDbLine
 62
7
  6
CONTINUOUS
 10
162.1438949979
 20
166.3017845408
 11
162.2479050072
 21
166.7075547763
  0
LINE
  5
2E1
100
AcDbEntity
  8
0
100
AcDbLine
 62
7
  6
CONTINUOUS
 10
161.6238425708
 20
166.8089973174
 11
161.5198319664
 21
166.5046696941
  0
LINE
  5
2E2
100
AcDbEntity
  8
0
100
AcDbLine
 62
7
  6
CONTINUOUS
 10
163.704051089
 20
170.3594866821
 11
163.0799886526
 21
169.6493888944
  0
LINE
  5
2E3
100
AcDbEntity
  8
0
100
AcDbLine
 62
7
  6
CONTINUOUS
 10
163.0799886526
 20
168.8378482814
 11
163.704051089
 21
169.5479463533
  0
LINE
  5
2E4
100
AcDbEntity
  8
0
100
AcDbLine
 62
7
  6
CONTINUOUS
 10
165.8882696165
 20
169.9537165177
 11
165.5762383983
 21
169.6493888944
  0
LINE
  5
2E5
100
AcDbEntity
  8
0
100
AcDbLine
 62
7
  6
CONTINUOUS
 10
161.7278531753
 20
165.8960143409
 11
162.1438949979
 21
166.3017845408
  0
LINE
  5
2E6
100
AcDbEntity
  8
0
100
AcDbLine
 62
7
  6
CONTINUOUS
 10
166.2003008347
 20
169.5479463533
 11
166.5123320529
 21
169.7508314355
  0
LINE
  5
2E7
100
AcDbEntity
  8
0
100
AcDbLine
 62
7
  6
CONTINUOUS
 10
161.5198319664
 20
166.5046696941
 11
161.2078007482
 21
166.3017845408
  0
LINE
  5
2E8
100
AcDbEntity
  8
0
100
AcDbLine
 62
7
  6
CONTINUOUS
 10
166.4083208533
 20
170.258044141
 11
165.8882696165
 21
169.9537165177
  0
LINE
  5
2E9
100
AcDbEntity
  8
0
100
AcDbLine
 62
7
  6
CONTINUOUS
 10
161.3118113526
 20
165.6931292321
 11
161.7278531753
 21
165.8960143409
  0
LINE
  5
2EA
100
AcDbEntity
  8
0
100
AcDbLine
 62
7
  6
CONTINUOUS
 10
168.8005605897
 20
168.9392908225
 11
168.6965505804
 21
169.24361873
  0
LINE
  5
2EB
100
AcDbEntity
  8
0
100
AcDbLine
 62
7
  6
CONTINUOUS
 10
165.1601959805
 20
167.5190952472
 11
165.2642071801
 21
167.0118823996
  0
LINE
  5
2EC
100
AcDbEntity
  8
0
100
AcDbLine
 62
7
  6
CONTINUOUS
 10
168.2805081626
 20
168.9392908225
 11
168.3845193622
 21
168.3306355759
  0
LINE
  5
2ED
100
AcDbEntity
  8
0
100
AcDbLine
 62
7
  6
CONTINUOUS
 10
165.7842584169
 20
167.0118823996
 11
165.6802484076
 21
167.6205377883
  0
LINE
  5
2EE
100
AcDbEntity
  8
0
100
AcDbLine
 62
7
  6
CONTINUOUS
 10
168.3845193622
 20
168.3306355759
 11
168.3845193622
 21
167.6205377883
  0
LINE
  5
2EF
100
AcDbEntity
  8
0
100
AcDbLine
 62
7
  6
CONTINUOUS
 10
168.904570599
 20
167.5190952472
 11
168.904570599
 21
168.432078117
  0
LINE
  5
2F0
100
AcDbEntity
  8
0
100
AcDbLine
 62
7
  6
CONTINUOUS
 10
165.6802484076
 20
168.3306355759
 11
165.7842584169
 21
168.9392908225
  0
LINE
  5
2F1
100
AcDbEntity
  8
0
100
AcDbLine
 62
7
  6
CONTINUOUS
 10
168.3845193622
 20
167.6205377883
 11
168.2805081626
 21
167.0118823996
  0
LINE
  5
2F2
100
AcDbEntity
  8
0
100
AcDbLine
 62
7
  6
CONTINUOUS
 10
165.2642071801
 20
168.9392908225
 11
165.1601959805
 21
168.432078117
  0
LINE
  5
2F3
100
AcDbEntity
  8
0
100
AcDbLine
 62
7
  6
CONTINUOUS
 10
165.3682171894
 20
169.24361873
 11
165.2642071801
 21
168.9392908225
  0
LINE
  5
2F4
100
AcDbEntity
  8
0
100
AcDbLine
 62
7
  6
CONTINUOUS
 10
165.5762383983
 20
169.6493888944
 11
165.3682171894
 21
169.24361873
  0
LINE
  5
2F5
100
AcDbEntity
  8
0
100
AcDbLine
 62
7
  6
CONTINUOUS
 10
165.7842584169
 20
168.9392908225
 11
166.2003008347
 21
169.5479463533
  0
LINE
  5
2F6
100
AcDbEntity
  8
0
100
AcDbLine
 62
7
  6
CONTINUOUS
 10
168.1764981533
 20
165.997456882
 11
168.4885293715
 21
166.3017845408
  0
LINE
  5
2F7
100
AcDbEntity
  8
0
100
AcDbLine
 62
7
  6
CONTINUOUS
 10
167.8644669351
 20
166.4032270819
 11
167.5524357169
 21
166.2003419997
  0
LINE
  5
2F8
100
AcDbEntity
  8
0
100
AcDbLine
 62
7
  6
CONTINUOUS
 10
167.6564457262
 20
165.6931292321
 11
168.1764981533
 21
165.997456882
  0
LINE
  5
2F9
100
AcDbEntity
  8
0
100
AcDbLine
 62
7
  6
CONTINUOUS
 10
168.904570599
 20
168.432078117
 11
168.8005605897
 21
168.9392908225
  0
LINE
  5
2FA
100
AcDbEntity
  8
0
100
AcDbLine
 62
7
  6
CONTINUOUS
 10
168.8005605897
 20
167.0118823996
 11
168.904570599
 21
167.5190952472
  0
LINE
  5
2FB
100
AcDbEntity
  8
0
100
AcDbLine
 62
7
  6
CONTINUOUS
 10
168.6965505804
 20
166.7075547763
 11
168.8005605897
 21
167.0118823996
  0
LINE
  5
2FC
100
AcDbEntity
  8
0
100
AcDbLine
 62
7
  6
CONTINUOUS
 10
168.4885293715
 20
166.3017845408
 11
168.6965505804
 21
166.7075547763
  0
LINE
  5
2FD
100
AcDbEntity
  8
0
100
AcDbLine
 62
7
  6
CONTINUOUS
 10
168.2805081626
 20
167.0118823996
 11
167.8644669351
 21
166.4032270819
  0
LINE
  5
2FE
100
AcDbEntity
  8
RUNDUNGEN
100
AcDbLine
 62
7
  6
CONTINUOUS
 10
174.4834348062
 20
137.0606631216
 11
174.4834348062
 21
170.0629131216
  0
LINE
  5
2FF
100
AcDbEntity
  8
0
100
AcDbLine
 62
7
  6
CONTINUOUS
 10
176.2428569919
 20
163.9574097862
 11
176.2428569919
 21
174.3426275772
  0
LINE
  5
300
100
AcDbEntity
  8
0
100
AcDbLine
 62
7
  6
CONTINUOUS
 10
176.2428569919
 20
174.3426275772
 11
180.9240058951
 21
191.8129131216
  0
LINE
  5
301
100
AcDbEntity
  8
0
100
AcDbLine
 62
7
  6
CONTINUOUS
 10
176.2428569919
 20
163.9574097862
 11
174.4834348062
 21
156.3365150363
  0
LINE
  5
302
100
AcDbEntity
  8
0
100
AcDbLine
 62
7
  6
CONTINUOUS
 10
180.9240058951
 20
191.8129131216
 11
176.2428569919
 21
209.283198666
  0
LINE
  5
303
100
AcDbEntity
  8
0
100
AcDbLine
 62
7
  6
CONTINUOUS
 10
176.2428569919
 20
209.283198666
 11
163.4537203507
 21
222.0723353073
  0
LINE
  5
304
100
AcDbEntity
  8
RUNDUNGEN
100
AcDbLine
 62
7
  6
CONTINUOUS
 10
169.8694348062
 20
129.5629131216
 11
174.4834348062
 21
137.0606631216
  0
LINE
  5
305
100
AcDbEntity
  8
0
100
AcDbLine
 62
7
  6
CONTINUOUS
 10
145.9834348062
 20
226.7534842105
 11
128.5131492618
 21
222.0723353073
  0
LINE
  5
306
100
AcDbEntity
  8
0
100
AcDbLine
 62
7
  6
CONTINUOUS
 10
163.4537203507
 20
222.0723353073
 11
145.9834348062
 21
226.7534842105
  0
LINE
  5
307
100
AcDbEntity
  8
0
100
AcDbLine
 62
7
  6
CONTINUOUS
 10
283.7811823507
 20
129.5629131216
 11
285.5811823507
 21
129.5629131216
  0
LINE
  5
308
100
AcDbEntity
  8
BEZUGSACHSEN
100
AcDbLine
 62
2
  6
CENTER
 10
284.6811823507
 20
147.0629131216
 11
274.5679323507
 21
147.0629131216
  0
LINE
  5
309
100
AcDbEntity
  8
BEZUGSACHSEN
100
AcDbLine
 62
2
  6
CENTER
 10
284.6811823507
 20
147.0629131216
 11
294.7944323507
 21
147.0629131216
  0
LINE
  5
30A
100
AcDbEntity
  8
0
100
AcDbLine
 62
7
  6
CONTINUOUS
 10
277.5892970395
 20
218.7649615725
 11
281.7594008355
 21
226.7534842105
  0
LINE
  5
30B
100
AcDbEntity
  8
0
100
AcDbLine
 62
7
  6
CONTINUOUS
 10
269.7811823507
 20
143.5629131216
 11
269.7811823507
 21
154.5629131216
  0
LINE
  5
30C
100
AcDbEntity
  8
0
100
AcDbLine
 62
7
  6
CONTINUOUS
 10
287.1804323507
 20
163.9574097862
 11
282.1819323507
 21
163.9574097862
  0
LINE
  5
30D
100
AcDbEntity
  8
0
100
AcDbLine
 62
7
  6
CONTINUOUS
 10
273.1811823507
 20
172.0629131216
 11
273.1811823507
 21
160.4518858673
  0
LINE
  5
30E
100
AcDbEntity
  8
BEZUGSACHSEN
100
AcDbLine
 62
8
  6
HIDDEN
 10
276.6811823507
 20
186.5828011081
 11
276.6811823507
 21
176.4503953153
  0
LINE
  5
30F
100
AcDbEntity
  8
0
100
AcDbLine
 62
7
  6
CONTINUOUS
 10
276.6811823507
 20
186.5824856917
 11
276.6811823507
 21
176.4503953153
  0
LINE
  5
310
100
AcDbEntity
  8
BEZUGSACHSEN
100
AcDbLine
 62
7
  6
CONTINUOUS
 10
276.6811823507
 20
186.5828011081
 11
276.6811823507
 21
215.0629131216
  0
LINE
  5
311
100
AcDbEntity
  8
BEZUGSACHSEN
100
AcDbLine
 62
8
  6
HIDDEN
 10
278.4522823507
 20
143.7490115886
 11
278.4522823507
 21
150.3768146546
  0
LINE
  5
312
100
AcDbEntity
  8
0
100
AcDbLine
 62
7
  6
CONTINUOUS
 10
281.1486474632
 20
184.2161873174
 11
280.962426084
 21
174.3426275772
  0
LINE
  5
313
100
AcDbEntity
  8
0
100
AcDbLine
 62
7
  6
CONTINUOUS
 10
280.962426084
 20
174.3426275772
 11
288.3999386174
 21
174.3426275772
  0
LINE
  5
314
100
AcDbEntity
  8
0
100
AcDbLine
 62
7
  6
CONTINUOUS
 10
282.1819323507
 20
163.9574097862
 11
280.962426084
 21
174.3426275772
  0
LINE
  5
315
100
AcDbEntity
  8
0
100
AcDbLine
 62
7
  6
CONTINUOUS
 10
282.1819323507
 20
163.9574097862
 11
282.1819323507
 21
156.3365150363
  0
LINE
  5
316
100
AcDbEntity
  8
BEZUGSACHSEN
100
AcDbLine
 62
2
  6
CENTER
 10
284.6811823507
 20
147.0629131216
 11
284.6811823507
 21
136.9496631216
  0
LINE
  5
317
100
AcDbEntity
  8
BEZUGSACHSEN
100
AcDbLine
 62
2
  6
CENTER
 10
284.6811823507
 20
147.0629131216
 11
284.6811823507
 21
157.1761631216
  0
LINE
  5
318
100
AcDbEntity
  8
0
100
AcDbLine
 62
7
  6
CONTINUOUS
 10
269.7811823507
 20
154.5629131216
 11
273.1811823507
 21
160.4518858673
  0
LINE
  5
319
100
AcDbEntity
  8
DEFAULT_2
100
AcDbLine
 62
8
  6
HIDDEN
 10
277.6811823507
 20
176.5629131216
 11
291.6811823507
 21
176.5629131216
  0
LINE
  5
31A
100
AcDbEntity
  8
0
100
AcDbLine
 62
7
  6
CONTINUOUS
 10
288.2137172383
 20
184.2161873174
 11
288.3999386174
 21
174.3426275772
  0
LINE
  5
31B
100
AcDbEntity
  8
0
100
AcDbLine
 62
7
  6
CONTINUOUS
 10
287.1804323507
 20
163.9574097862
 11
287.1804323507
 21
156.3365150363
  0
LINE
  5
31C
100
AcDbEntity
  8
RUNDUNGEN
100
AcDbLine
 62
7
  6
CONTINUOUS
 10
299.5811823507
 20
154.5629131216
 11
296.1811823507
 21
160.4518858673
  0
LINE
  5
31D
100
AcDbEntity
  8
BEZUGSACHSEN
100
AcDbLine
 62
8
  6
HIDDEN
 10
290.9100823507
 20
150.3768146546
 11
290.9100823507
 21
143.7490115886
  0
LINE
  5
31E
100
AcDbEntity
  8
0
100
AcDbLine
 62
7
  6
CONTINUOUS
 10
287.1804323507
 20
163.9574097862
 11
288.3999386174
 21
174.3426275772
  0
LINE
  5
31F
100
AcDbEntity
  8
RUNDUNGEN
100
AcDbLine
 62
7
  6
CONTINUOUS
 10
292.6811823507
 20
186.5824856917
 11
292.6811823507
 21
176.4503953153
  0
LINE
  5
320
100
AcDbEntity
  8
BEZUGSACHSEN
100
AcDbLine
 62
7
  6
CONTINUOUS
 10
292.6811823507
 20
186.5828011081
 11
292.6811823507
 21
215.0629131216
  0
LINE
  5
321
100
AcDbEntity
  8
RUNDUNGEN
100
AcDbLine
 62
7
  6
CONTINUOUS
 10
296.1811823507
 20
172.0629131216
 11
296.1811823507
 21
160.4518858673
  0
LINE
  5
322
100
AcDbEntity
  8
BEZUGSACHSEN
100
AcDbLine
 62
2
  6
CENTER
 10
270.565652935
 20
191.8129131216
 11
295.6811823507
 21
191.8129131216
  0
LINE
  5
323
100
AcDbEntity
  8
0
100
AcDbLine
 62
7
  6
CONTINUOUS
 10
281.7594008355
 20
191.8129131216
 11
287.602963866
 21
191.8129131216
  0
LINE
  5
324
100
AcDbEntity
  8
RUNDUNGEN
100
AcDbLine
 62
7
  6
CONTINUOUS
 10
299.5811823507
 20
143.5629131216
 11
299.5811823507
 21
154.5629131216
  0
LINE
  5
325
100
AcDbEntity
  8
KONSTRUKTIONSELEMENTE
100
AcDbLine
 62
7
  6
CONTINUOUS
 10
287.602963866
 20
226.7534842105
 11
291.7730676619
 21
218.7649615725
  0
LINE
  5
326
100
AcDbEntity
  8
0
100
AcDbLine
 62
7
  6
CONTINUOUS
 10
281.7594008355
 20
209.283198666
 11
287.602963866
 21
209.283198666
  0
LINE
  5
327
100
AcDbEntity
  8
0
100
AcDbLine
 62
7
  6
CONTINUOUS
 10
281.7594008355
 20
222.0723353073
 11
287.602963866
 21
222.0723353073
  0
LINE
  5
328
100
AcDbEntity
  8
0
100
AcDbLine
 62
7
  6
CONTINUOUS
 10
287.602963866
 20
226.7534842105
 11
281.7594008355
 21
226.7534842105
  0
ARC
  5
329
100
AcDbEntity
  8
KONSTRUKTIONSELEMENTE
100
AcDbCircle
 62
7
  6
CONTINUOUS
 10
145.9834348062
 20
99.0737131216
 40
35.9892
100
AcDbArc
 50
57.8980709415
 51
79.9991254185
  0
ARC
  5
32A
100
AcDbEntity
  8
KONSTRUKTIONSELEMENTE
100
AcDbCircle
 62
7
  6
CONTINUOUS
 10
145.9834348062
 20
99.0737131216
 40
35.9892
100
AcDbArc
 50
100.0008745815
 51
122.1019290585
  0
CIRCLE
  5
32B
100
AcDbEntity
  8
BEZUGSACHSEN
100
AcDbCircle
 62
7
  6
CONTINUOUS
 10
145.9834348062
 20
191.8129131216
 40
15.25
  0
ARC
  5
32C
100
AcDbEntity
  8
RUNDUNGEN
100
AcDbCircle
 62
7
  6
CONTINUOUS
 10
123.9834348062
 20
170.0629131216
 40
6.5
100
AcDbArc
 50
110.0629909694
 51
180.0
  0
ARC
  5
32D
100
AcDbEntity
  8
RUNDUNGEN
100
AcDbCircle
 62
7
  6
CONTINUOUS
 10
167.9834348062
 20
170.0629131216
 40
6.5
100
AcDbArc
 50
0.0
 51
69.9370090306
  0
ARC
  5
32E
100
AcDbEntity
  8
KONSTRUKTIONSELEMENTE
100
AcDbCircle
 62
7
  6
CONTINUOUS
 10
145.9834348062
 20
160.1129131216
 40
6.25
100
AcDbArc
 50
0.0
 51
180.0
  0
ARC
  5
32F
100
AcDbEntity
  8
RUNDUNGEN
100
AcDbCircle
 62
7
  6
CONTINUOUS
 10
168.6091258167
 20
171.7762586786
 40
4.6759818435
100
AcDbArc
 50
69.936435674
 51
72.1051908959
  0
ARC
  5
330
100
AcDbEntity
  8
RUNDUNGEN
100
AcDbCircle
 62
7
  6
CONTINUOUS
 10
123.3577437958
 20
171.7762586785
 40
4.6759818436
100
AcDbArc
 50
107.8948091041
 51
110.063564326
  0
CIRCLE
  5
331
100
AcDbEntity
  8
BEZUGSACHSEN
100
AcDbCircle
 62
7
  6
CONTINUOUS
 10
127.8834348062
 20
147.0629131216
 40
2.5
  0
ARC
  5
332
100
AcDbEntity
  8
RUNDUNGEN
100
AcDbCircle
 62
7
  6
CONTINUOUS
 10
285.5811823507
 20
143.5629131216
 40
14.0
100
AcDbArc
 50
270.0
 51
360.0
  0
ARC
  5
333
100
AcDbEntity
  8
0
100
AcDbCircle
 62
7
  6
CONTINUOUS
 10
283.7811823507
 20
143.5629131216
 40
14.0
100
AcDbArc
 50
180.0
 51
270.0
  0
ARC
  5
334
100
AcDbEntity
  8
BEZUGSACHSEN
100
AcDbCircle
 62
8
  6
HIDDEN
 10
284.6811823507
 20
215.0629131216
 40
8.0
100
AcDbArc
 50
180.0
 51
360.0
  0
ARC
  5
335
100
AcDbEntity
  8
BEZUGSACHSEN
100
AcDbCircle
 62
7
  6
CONTINUOUS
 10
284.6811823507
 20
215.0629131216
 40
8.0
100
AcDbArc
 50
0.0
 51
27.5650942734
  0
ARC
  5
336
100
AcDbEntity
  8
BEZUGSACHSEN
100
AcDbCircle
 62
7
  6
CONTINUOUS
 10
284.6811823507
 20
215.0629131216
 40
8.0
100
AcDbArc
 50
152.4349057266
 51
180.0
  0
CIRCLE
  5
337
100
AcDbEntity
  8
BEZUGSACHSEN
100
AcDbCircle
 62
7
  6
CONTINUOUS
 10
284.6811823507
 20
147.0629131216
 40
7.11325
  0
ARC
  5
338
100
AcDbEntity
  8
0
100
AcDbCircle
 62
7
  6
CONTINUOUS
 10
277.6811823507
 20
172.0629131216
 40
4.5
100
AcDbArc
 50
100.6460472925
 51
180.0
  0
ARC
  5
339
100
AcDbEntity
  8
RUNDUNGEN
100
AcDbCircle
 62
7
  6
CONTINUOUS
 10
291.6811823507
 20
172.0629131216
 40
4.5
100
AcDbArc
 50
0.0
 51
79.3539527075
  0
ARC
  5
33A
100
AcDbEntity
  8
RUNDUNGEN
100
AcDbCircle
 62
7
  6
CONTINUOUS
 10
292.8488988902
 20
174.4065046603
 40
2.1137820272
100
AcDbArc
 50
120.594603582
 51
123.5338792281
  0
ARC
  5
33B
100
AcDbEntity
  8
0
100
AcDbCircle
 62
7
  6
CONTINUOUS
 10
276.5134658112
 20
174.4065046603
 40
2.1137820272
100
AcDbArc
 50
56.4661207719
 51
59.405396418
  0
SPLINE
  5
33C
100
AcDbEntity
  8
KONSTRUKTIONSELEMENTE
100
AcDbSpline
 62
7
  6
CONTINUOUS
 70
0
 71
3
 72
9
 73
5
 74
0
 42
0.0000001
 43
0.0000001
 44
0.0000000001
 40
0.0
 40
0.0
 40
0.0
 40
0.0
 40
0.5024826949
 40
1.0
 40
1.0
 40
1.0
 40
1.0
 10
152.2334348062
 20
156.5699066655
 30
0.0
 10
153.4148340105
 20
156.3608572459
 30
0.0
 10
155.7461296383
 20
155.823165711
 30
0.0
 10
158.004960658
 20
155.0291747775
 30
0.0
 10
159.0975258848
 20
154.5629131216
 30
0.0
  0
SPLINE
  5
33D
100
AcDbEntity
  8
KONSTRUKTIONSELEMENTE
100
AcDbSpline
 62
7
  6
CONTINUOUS
 70
0
 71
3
 72
9
 73
5
 74
0
 42
0.0000001
 43
0.0000001
 44
0.0000000001
 40
0.0
 40
0.0
 40
0.0
 40
0.0
 40
0.4975177047
 40
1.0
 40
1.0
 40
1.0
 40
1.0
 10
132.8693437276
 20
154.5629131216
 30
0.0
 10
133.9619098298
 20
155.029175151
 30
0.0
 10
136.2207409696
 20
155.8231657495
 30
0.0
 10
138.5520365436
 20
156.3608574126
 30
0.0
 10
139.7334348062
 20
156.5699066655
 30
0.0
  0
SPLINE
  5
33E
100
AcDbEntity
  8
KONSTRUKTIONSELEMENTE
100
AcDbSpline
 62
7
  6
CONTINUOUS
 70
0
 71
3
 72
11
 73
7
 74
0
 42
0.0000001
 43
0.0000001
 44
0.0000000001
 40
0.0
 40
0.0
 40
0.0
 40
0.0
 40
0.2498418809
 40
0.4997992424
 40
0.7498631476
 40
1.0
 40
1.0
 40
1.0
 40
1.0
 10
131.1479745842
 20
150.9259131216
 30
0.0
 10
131.1479745842
 20
151.2691462001
 30
0.0
 10
131.2396869622
 20
151.9586713956
 30
0.0
 10
131.6190443735
 20
152.9247997583
 30
0.0
 10
132.1756041056
 20
153.7979718967
 30
0.0
 10
132.6287320142
 20
154.3175699092
 30
0.0
 10
132.8693437276
 20
154.5629131216
 30
0.0
  0
SPLINE
  5
33F
100
AcDbEntity
  8
KONSTRUKTIONSELEMENTE
100
AcDbSpline
 62
7
  6
CONTINUOUS
 70
0
 71
3
 72
10
 73
6
 74
0
 42
0.0000001
 43
0.0000001
 44
0.0000000001
 40
0.0
 40
0.0
 40
0.0
 40
0.0
 40
0.4997540833
 40
0.7498943252
 40
1.0
 40
1.0
 40
1.0
 40
1.0
 10
130.4188675527
 20
143.5629131216
 30
0.0
 10
130.6395103828
 20
144.0669327171
 30
0.0
 10
130.9161542808
 20
144.8512118632
 30
0.0
 10
131.1138453127
 20
145.9362082629
 30
0.0
 10
131.1479745842
 20
146.4875618778
 30
0.0
 10
131.1479745842
 20
146.7629131216
 30
0.0
  0
SPLINE
  5
340
100
AcDbEntity
  8
KONSTRUKTIONSELEMENTE
100
AcDbSpline
 62
7
  6
CONTINUOUS
 70
0
 71
3
 72
10
 73
6
 74
0
 42
0.0000001
 43
0.0000001
 44
0.0000000001
 40
0.0
 40
0.0
 40
0.0
 40
0.0
 40
0.2501056748
 40
0.5002459167
 40
1.0
 40
1.0
 40
1.0
 40
1.0
 10
160.8188950283
 20
146.7629131216
 30
0.0
 10
160.8188950283
 20
146.4875618778
 30
0.0
 10
160.8530242998
 20
145.9362082629
 30
0.0
 10
161.0507153317
 20
144.8512118632
 30
0.0
 10
161.3273592296
 20
144.0669327171
 30
0.0
 10
161.5480020598
 20
143.5629131216
 30
0.0
  0
SPLINE
  5
341
100
AcDbEntity
  8
KONSTRUKTIONSELEMENTE
100
AcDbSpline
 62
7
  6
CONTINUOUS
 70
0
 71
3
 72
11
 73
7
 74
0
 42
0.0000001
 43
0.0000001
 44
0.0000000001
 40
0.0
 40
0.0
 40
0.0
 40
0.0
 40
0.2501369337
 40
0.5002009564
 40
0.7501583912
 40
1.0
 40
1.0
 40
1.0
 40
1.0
 10
159.0975258848
 20
154.5629131216
 30
0.0
 10
159.3381376765
 20
154.3175698295
 30
0.0
 10
159.791265755
 20
153.7979716045
 30
0.0
 10
160.3478256585
 20
152.9247991131
 30
0.0
 10
160.7271827148
 20
151.9586707255
 30
0.0
 10
160.8188950283
 20
151.2691458262
 30
0.0
 10
160.8188950283
 20
150.9259131216
 30
0.0
  0
SPLINE
  5
342
100
AcDbEntity
  8
KONSTRUKTIONSELEMENTE
100
AcDbSpline
 62
7
  6
CONTINUOUS
 70
0
 71
3
 72
9
 73
5
 74
0
 42
0.0000001
 43
0.0000001
 44
0.0000000001
 40
0.0
 40
0.0
 40
0.0
 40
0.0
 40
0.4749716346
 40
1.0
 40
1.0
 40
1.0
 40
1.0
 10
165.1423881559
 20
129.5629131216
 30
0.0
 10
165.1569599554
 20
129.5629131216
 30
0.0
 10
165.1882787258
 20
129.5708564363
 30
0.0
 10
165.2108831827
 20
129.5932838684
 30
0.0
 10
165.2205765626
 20
129.6061481643
 30
0.0
  0
SPLINE
  5
343
100
AcDbEntity
  8
KONSTRUKTIONSELEMENTE
100
AcDbSpline
 62
7
  6
CONTINUOUS
 70
0
 71
3
 72
21
 73
17
 74
0
 42
0.0000001
 43
0.0000001
 44
0.0000000001
 40
0.0
 40
0.0
 40
0.0
 40
0.0
 40
0.0052705333
 40
0.0123639007
 40
0.0214761374
 40
0.0326784412
 40
0.0614212333
 40
0.098515699
 40
0.1436644464
 40
0.1964328316
 40
0.2562968825
 40
0.3226462015
 40
0.4720544574
 40
0.6388040756
 40
0.8167517918
 40
1.0
 40
1.0
 40
1.0
 40
1.0
 10
165.2205765626
 20
129.6061481643
 30
0.0
 10
165.2359436816
 20
129.6265422028
 30
0.0
 10
165.2611502872
 20
129.6821115259
 30
0.0
 10
165.2842191715
 20
129.7837147585
 30
0.0
 10
165.2983044133
 20
129.9160304251
 30
0.0
 10
165.3051201603
 20
130.153726365
 30
0.0
 10
165.2851476755
 20
130.5269487727
 30
0.0
 10
165.2268256756
 20
131.0615826164
 30
0.0
 10
165.1307697604
 20
131.7087725487
 30
0.0
 10
164.9968873096
 20
132.4614733432
 30
0.0
 10
164.8248814661
 20
133.3114815713
 30
0.0
 10
164.5326878339
 20
134.614579152
 30
0.0
 10
164.0728432506
 20
136.4103711311
 30
0.0
 10
163.3904715382
 20
138.7056506185
 30
0.0
 10
162.5570348493
 20
141.1248235399
 30
0.0
 10
161.9040435734
 20
142.7495991355
 30
0.0
 10
161.5480020598
 20
143.5629131216
 30
0.0
  0
SPLINE
  5
344
100
AcDbEntity
  8
RUNDUNGEN
100
AcDbSpline
 62
7
  6
CONTINUOUS
 70
0
 71
3
 72
10
 73
6
 74
0
 42
0.0000001
 43
0.0000001
 44
0.0000000001
 40
0.0
 40
0.0
 40
0.0
 40
0.0
 40
0.4924296823
 40
0.7450737982
 40
1.0
 40
1.0
 40
1.0
 40
1.0
 10
134.0291597246
 20
176.5629131216
 30
0.0
 10
133.1266187489
 20
176.5629131216
 30
0.0
 10
131.7614607693
 20
176.514861211
 30
0.0
 10
129.9294814071
 20
176.4612178698
 30
0.0
 10
128.9991518612
 20
176.4503953153
 30
0.0
 10
128.5319149111
 20
176.4503953153
 30
0.0
  0
SPLINE
  5
345
100
AcDbEntity
  8
KONSTRUKTIONSELEMENTE
100
AcDbSpline
 62
7
  6
CONTINUOUS
 70
0
 71
3
 72
25
 73
21
 74
0
 42
0.0000001
 43
0.0000001
 44
0.0000000001
 40
0.0
 40
0.0
 40
0.0
 40
0.0
 40
0.1913855877
 40
0.3766190868
 40
0.4648138658
 40
0.5488656458
 40
0.6278907662
 40
0.7010321425
 40
0.7674731663
 40
0.8264711145
 40
0.8773629668
 40
0.9195974645
 40
0.9373360898
 40
0.9527694112
 40
0.9658762713
 40
0.9766665605
 40
0.9851859322
 40
0.991568491
 40
0.9961893976
 40
1.0
 40
1.0
 40
1.0
 40
1.0
 10
130.4188675527
 20
143.5629131216
 30
0.0
 10
130.044670172
 20
142.7081252622
 30
0.0
 10
129.3620913519
 20
141.0021453279
 30
0.0
 10
128.6312914978
 20
138.8561033571
 30
0.0
 10
128.125745407
 20
137.1880110513
 30
0.0
 10
127.7952267592
 20
136.0082625249
 30
0.0
 10
127.5070877402
 20
134.8931217513
 30
0.0
 10
127.2613217275
 20
133.8559398535
 30
0.0
 10
127.0578558158
 20
132.9093015743
 30
0.0
 10
126.896562356
 20
132.0647652573
 30
0.0
 10
126.7773198297
 20
131.3326357141
 30
0.0
 10
126.7089343773
 20
130.7962550575
 30
0.0
 10
126.677405601
 20
130.4299076283
 30
0.0
 10
126.6656947119
 20
130.2045298036
 30
0.0
 10
126.6643816859
 20
130.0126683654
 30
0.0
 10
126.6733397369
 20
129.8547861147
 30
0.0
 10
126.6924663566
 20
129.7305338312
 30
0.0
 10
126.7216995468
 20
129.6397023137
 30
0.0
 10
126.7638747435
 20
129.5777702198
 30
0.0
 10
126.8059027627
 20
129.5629131216
 30
0.0
 10
126.8244814566
 20
129.5629131216
 30
0.0
  0
SPLINE
  5
346
100
AcDbEntity
  8
RUNDUNGEN
100
AcDbSpline
 62
7
  6
CONTINUOUS
 70
0
 71
3
 72
9
 73
5
 74
0
 42
0.0000001
 43
0.0000001
 44
0.0000000001
 40
0.0
 40
0.0
 40
0.0
 40
0.0
 40
0.2404036222
 40
1.0
 40
1.0
 40
1.0
 40
1.0
 10
170.0459166458
 20
176.2260270225
 30
0.0
 10
169.8870374688
 20
176.2773257101
 30
0.0
 10
169.2149768925
 20
176.4557702588
 30
0.0
 10
168.5120325064
 20
176.5053732637
 30
0.0
 10
167.9848820329
 20
176.485510336
 30
0.0
  0
SPLINE
  5
347
100
AcDbEntity
  8
RUNDUNGEN
100
AcDbSpline
 62
7
  6
CONTINUOUS
 70
0
 71
3
 72
9
 73
5
 74
0
 42
0.0000001
 43
0.0000001
 44
0.0000000001
 40
0.0
 40
0.0
 40
0.0
 40
0.0
 40
0.2515165758
 40
1.0
 40
1.0
 40
1.0
 40
1.0
 10
125.668580767
 20
176.4503953153
 30
0.0
 10
125.5272640761
 20
176.4503953162
 30
0.0
 10
124.9654026722
 20
176.4536179085
 30
0.0
 10
124.4036750309
 20
176.4695354072
 30
0.0
 10
123.9834348062
 20
176.4854554959
 30
0.0
  0
SPLINE
  5
348
100
AcDbEntity
  8
RUNDUNGEN
100
AcDbSpline
 62
7
  6
CONTINUOUS
 70
0
 71
3
 72
9
 73
5
 74
0
 42
0.0000001
 43
0.0000001
 44
0.0000000001
 40
0.0
 40
0.0
 40
0.0
 40
0.0
 40
0.2478013891
 40
1.0
 40
1.0
 40
1.0
 40
1.0
 10
167.9848820413
 20
176.4855103362
 30
0.0
 10
167.8456341005
 20
176.4802323979
 30
0.0
 10
167.2836463236
 20
176.4605467062
 30
0.0
 10
166.7212778487
 20
176.4503953153
 30
0.0
 10
166.2982886154
 20
176.4503953153
 30
0.0
  0
SPLINE
  5
349
100
AcDbEntity
  8
RUNDUNGEN
100
AcDbSpline
 62
7
  6
CONTINUOUS
 70
0
 71
3
 72
10
 73
6
 74
0
 42
0.0000001
 43
0.0000001
 44
0.0000000001
 40
0.0
 40
0.0
 40
0.0
 40
0.0
 40
0.2549263925
 40
0.5075710364
 40
1.0
 40
1.0
 40
1.0
 40
1.0
 10
163.4349547014
 20
176.4503953153
 30
0.0
 10
162.9677266486
 20
176.4503953153
 30
0.0
 10
162.0374142001
 20
176.4612175881
 30
0.0
 10
160.2054710545
 20
176.5148583746
 30
0.0
 10
158.8403405282
 20
176.5629131216
 30
0.0
 10
157.9378187316
 20
176.5629131216
 30
0.0
  0
SPLINE
  5
34A
100
AcDbEntity
  8
RUNDUNGEN
100
AcDbSpline
 62
7
  6
CONTINUOUS
 70
0
 71
3
 72
9
 73
5
 74
0
 42
0.0000001
 43
0.0000001
 44
0.0000000001
 40
0.0
 40
0.0
 40
0.0
 40
0.0
 40
0.259310087
 40
1.0
 40
1.0
 40
1.0
 40
1.0
 10
123.9834348062
 20
176.4854554959
 30
0.0
 10
123.8033988802
 20
176.4922758518
 30
0.0
 10
123.1088278216
 20
176.4922785231
 30
0.0
 10
122.4106796745
 20
176.3841493006
 30
0.0
 10
121.9209529666
 20
176.2260270225
 30
0.0
  0
SPLINE
  5
34B
100
AcDbEntity
  8
0
100
AcDbSpline
 62
7
  6
CONTINUOUS
 70
0
 71
3
 72
11
 73
7
 74
0
 42
0.0000001
 43
0.0000001
 44
0.0000000001
 40
0.0
 40
0.0
 40
0.0
 40
0.0
 40
0.161833372
 40
0.3784314992
 40
0.6572361095
 40
1.0
 40
1.0
 40
1.0
 40
1.0
 10
276.8498467099
 20
176.4854554959
 30
0.0
 10
276.8920058
 20
176.4933804294
 30
0.0
 10
276.9943958372
 20
176.4884108277
 30
0.0
 10
277.1623429423
 20
176.4406180154
 30
0.0
 10
277.3665458493
 20
176.351671418
 30
0.0
 10
277.5110706856
 20
176.272240056
 30
0.0
 10
277.5892970395
 20
176.2260270225
 30
0.0
  0
SPLINE
  5
34C
100
AcDbEntity
  8
0
100
AcDbSpline
 62
7
  6
CONTINUOUS
 70
0
 71
3
 72
11
 73
7
 74
0
 42
0.0000001
 43
0.0000001
 44
0.0000000001
 40
0.0
 40
0.0
 40
0.0
 40
0.0
 40
0.2505755997
 40
0.5000000009
 40
0.7494244022
 40
1.0
 40
1.0
 40
1.0
 40
1.0
 10
287.602963866
 20
222.0723353073
 30
0.0
 10
287.8046124388
 20
221.0169682605
 30
0.0
 10
288.1171215936
 20
218.8923850211
 30
0.0
 10
288.2779998334
 20
215.6777669747
 30
0.0
 10
288.117121597
 20
212.463148936
 30
0.0
 10
287.8046124373
 20
210.3385657048
 30
0.0
 10
287.602963866
 20
209.283198666
 30
0.0
  0
SPLINE
  5
34D
100
AcDbEntity
  8
0
100
AcDbSpline
 62
7
  6
CONTINUOUS
 70
0
 71
3
 72
11
 73
7
 74
0
 42
0.0000001
 43
0.0000001
 44
0.0000000001
 40
0.0
 40
0.0
 40
0.0
 40
0.0
 40
0.2574351421
 40
0.5000000008
 40
0.7425648595
 40
1.0
 40
1.0
 40
1.0
 40
1.0
 10
281.7594008355
 20
226.7534842105
 30
0.0
 10
281.5656352233
 20
226.3822941743
 30
0.0
 10
281.2529689662
 20
225.62333561
 30
0.0
 10
281.082089356
 20
224.4129097547
 30
0.0
 10
281.2529689632
 20
223.2024839009
 30
0.0
 10
281.5656352246
 20
222.443525341
 30
0.0
 10
281.7594008355
 20
222.0723353073
 30
0.0
  0
SPLINE
  5
34E
100
AcDbEntity
  8
0
100
AcDbSpline
 62
7
  6
CONTINUOUS
 70
0
 71
3
 72
9
 73
5
 74
0
 42
0.0000001
 43
0.0000001
 44
0.0000000001
 40
0.0
 40
0.0
 40
0.0
 40
0.0
 40
0.5000832977
 40
1.0
 40
1.0
 40
1.0
 40
1.0
 10
281.7594008355
 20
191.8129131216
 30
0.0
 10
281.5833373288
 20
190.5541717681
 30
0.0
 10
281.3010450835
 20
188.0267363148
 30
0.0
 10
281.1726069587
 20
185.4865329249
 30
0.0
 10
281.1486474632
 20
184.2161873174
 30
0.0
  0
SPLINE
  5
34F
100
AcDbEntity
  8
0
100
AcDbSpline
 62
7
  6
CONTINUOUS
 70
0
 71
3
 72
11
 73
7
 74
0
 42
0.0000001
 43
0.0000001
 44
0.0000000001
 40
0.0
 40
0.0
 40
0.0
 40
0.0
 40
0.2500438599
 40
0.5000000009
 40
0.7499561421
 40
1.0
 40
1.0
 40
1.0
 40
1.0
 10
281.7594008355
 20
209.283198666
 30
0.0
 10
281.5570608786
 20
207.836597516
 30
0.0
 10
281.2446962287
 20
204.9299008012
 30
0.0
 10
281.0845241115
 20
200.5480558775
 30
0.0
 10
281.2446962253
 20
196.1662109646
 30
0.0
 10
281.5570608801
 20
193.2595142605
 30
0.0
 10
281.7594008355
 20
191.8129131216
 30
0.0
  0
SPLINE
  5
350
100
AcDbEntity
  8
0
100
AcDbSpline
 62
7
  6
CONTINUOUS
 70
0
 71
3
 72
11
 73
7
 74
0
 42
0.0000001
 43
0.0000001
 44
0.0000000001
 40
0.0
 40
0.0
 40
0.0
 40
0.0
 40
0.2505755997
 40
0.5000000009
 40
0.7494244022
 40
1.0
 40
1.0
 40
1.0
 40
1.0
 10
281.7594008355
 20
222.0723353073
 30
0.0
 10
281.5577522627
 20
221.0169682605
 30
0.0
 10
281.2452431078
 20
218.8923850211
 30
0.0
 10
281.084364868
 20
215.6777669747
 30
0.0
 10
281.2452431044
 20
212.463148936
 30
0.0
 10
281.5577522642
 20
210.3385657048
 30
0.0
 10
281.7594008355
 20
209.283198666
 30
0.0
  0
SPLINE
  5
351
100
AcDbEntity
  8
0
100
AcDbSpline
 62
7
  6
CONTINUOUS
 70
0
 71
3
 72
11
 73
7
 74
0
 42
0.0000001
 43
0.0000001
 44
0.0000000001
 40
0.0
 40
0.0
 40
0.0
 40
0.0
 40
0.2574351421
 40
0.5000000008
 40
0.7425648595
 40
1.0
 40
1.0
 40
1.0
 40
1.0
 10
287.602963866
 20
226.7534842105
 30
0.0
 10
287.7967294781
 20
226.3822941743
 30
0.0
 10
288.1093957353
 20
225.62333561
 30
0.0
 10
288.2802753454
 20
224.4129097547
 30
0.0
 10
288.1093957383
 20
223.2024839009
 30
0.0
 10
287.7967294768
 20
222.443525341
 30
0.0
 10
287.602963866
 20
222.0723353073
 30
0.0
  0
SPLINE
  5
352
100
AcDbEntity
  8
0
100
AcDbSpline
 62
7
  6
CONTINUOUS
 70
0
 71
3
 72
9
 73
5
 74
0
 42
0.0000001
 43
0.0000001
 44
0.0000000001
 40
0.0
 40
0.0
 40
0.0
 40
0.0
 40
0.5000832977
 40
1.0
 40
1.0
 40
1.0
 40
1.0
 10
287.602963866
 20
191.8129131216
 30
0.0
 10
287.7790273727
 20
190.5541717681
 30
0.0
 10
288.061319618
 20
188.0267363148
 30
0.0
 10
288.1897577427
 20
185.4865329249
 30
0.0
 10
288.2137172383
 20
184.2161873174
 30
0.0
  0
SPLINE
  5
353
100
AcDbEntity
  8
0
100
AcDbSpline
 62
7
  6
CONTINUOUS
 70
0
 71
3
 72
11
 73
7
 74
0
 42
0.0000001
 43
0.0000001
 44
0.0000000001
 40
0.0
 40
0.0
 40
0.0
 40
0.0
 40
0.2500438599
 40
0.5000000009
 40
0.7499561421
 40
1.0
 40
1.0
 40
1.0
 40
1.0
 10
287.602963866
 20
209.283198666
 30
0.0
 10
287.8053038229
 20
207.836597516
 30
0.0
 10
288.1176684728
 20
204.9299008012
 30
0.0
 10
288.27784059
 20
200.5480558775
 30
0.0
 10
288.1176684762
 20
196.1662109646
 30
0.0
 10
287.8053038213
 20
193.2595142605
 30
0.0
 10
287.602963866
 20
191.8129131216
 30
0.0
  0
SPLINE
  5
354
100
AcDbEntity
  8
RUNDUNGEN
100
AcDbSpline
 62
7
  6
CONTINUOUS
 70
0
 71
3
 72
11
 73
7
 74
0
 42
0.0000001
 43
0.0000001
 44
0.0000000001
 40
0.0
 40
0.0
 40
0.0
 40
0.0
 40
0.161833372
 40
0.3784314992
 40
0.6572361095
 40
1.0
 40
1.0
 40
1.0
 40
1.0
 10
292.5125179916
 20
176.4854554959
 30
0.0
 10
292.4703589014
 20
176.4933804294
 30
0.0
 10
292.3679688642
 20
176.4884108277
 30
0.0
 10
292.2000217591
 20
176.4406180154
 30
0.0
 10
291.9958188521
 20
176.351671418
 30
0.0
 10
291.8512940159
 20
176.272240056
 30
0.0
 10
291.7730676619
 20
176.2260270225
 30
0.0
  0
ENDSEC
  0
SECTION
  2
OBJECTS
  0
DICTIONARY
  5
C
100
AcDbDictionary
280
0
281
1
  3
ACAD_GROUP
350
D
  3
ACAD_MLINESTYLE
350
17
  3
ACAD_LAYOUT
350
1A
  3
ACAD_PLOTSETTINGS
350
19
  3
ACAD_PLOTSTYLENAME
350
E
  0
DICTIONARY
  5
D
102
{ACAD_REACTORS
330
C
102
}
100
AcDbDictionary
280
0
281
1
  0
ACDBDICTIONARYWDFLT
  5
E
102
{ACAD_REACTORS
330
C
102
}
100
AcDbDictionary
281
1
  3
Normal
350
F
100
AcDbDictionaryWithDefault
340
F
  0
DICTIONARY
  5
17
102
{ACAD_REACTORS
330
C
102
}
100
AcDbDictionary
280
0
281
1
  3
Standard
350
18
  0
DICTIONARY
  5
19
102
{ACAD_REACTORS
330
C
102
}
100
AcDbDictionary
281
1
  0
DICTIONARY
  5
1A
102
{ACAD_REACTORS
330
C
102
}
100
AcDbDictionary
281
1
  3
Model
350
355
  3
Layout1
350
356
  0
ACDBPLACEHOLDER
  5
F
102
{ACAD_REACTORS
330
E
102
}
  0
MLINESTYLE
  5
18
102
{ACAD_REACTORS
330
17
102
}
100
AcDbMlineStyle
  2
STANDARD
 70
0
  3

 62
256
 51
90.0
 52
90.0
 71
2
 49
0.5
 62
256
  6
BYLAYER
 49
-0.5
 62
256
  6
BYLAYER
  0
LAYOUT
  5
355
102
{ACAD_REACTORS
330
1A
102
}
100
AcDbPlotSettings
  1

  2
none_device
  4
ISO_A3_(420.00_x_297.00_MM)
  6

 40
0.0
 41
0.0
 42
0.0
 43
0.0
 44
420.0
 45
297.0
 46
0.0
 47
0.0
 48
0.0
 49
0.0
140
0.0
141
0.0
142
1.0
143
1.0
 70
1024
 72
1
 73
0
 74
0
  7

 75
0
147
1.0
148
0.0
149
0.0
100
AcDbLayout
  1
Model
 70
0
 71
0
 10
0.0
 20
0.0
 11
420.0
 21
297.0
 12
0.0
 22
0.0
 32
0.0
 14
0.0
 24
0.0
 34
0.0
 15
0.0
 25
0.0
 35
0.0
146
0.0
 13
0.0
 23
0.0
 33
0.0
 16
1.0
 26
0.0
 36
0.0
 17
0.0
 27
1.0
 37
0.0
 76
0
330
208
345
0
346
0
  0
LAYOUT
  5
356
102
{ACAD_REACTORS
330
1A
102
}
100
AcDbPlotSettings
  1

  2
none_device
  4
ISO_A3_(420.00_x_297.00_MM)
  6

 40
0.0
 41
0.0
 42
0.0
 43
0.0
 44
420.0
 45
297.0
 46
0.0
 47
0.0
 48
0.0
 49
0.0
140
0.0
141
0.0
142
1.0
143
1.0
 70
0
 72
1
 73
0
 74
0
  7

 75
0
147
1.0
148
0.0
149
0.0
100
AcDbLayout
  1
Layout1
 70
0
 71
1
 10
0.0
 20
0.0
 11
420.0
 21
297.0
 12
0.0
 22
0.0
 32
0.0
 14
0.0
 24
0.0
 34
0.0
 15
0.0
 25
0.0
 35
0.0
146
0.0
 13
0.0
 23
0.0
 33
0.0
 16
1.0
 26
0.0
 36
0.0
 17
0.0
 27
1.0
 37
0.0
 76
0
330
209
345
0
346
0
  0
ENDSEC
  0
EOF
