999
DXF file: imvk-8_7900981_m33735-p-1.dxf
999
Pro/ENGINEER 2010140 by Parametric Technology Corporation
  0
SECTION
  2
HEADER
  9
$ACADVER
  1
AC1015
  9
$DWGCODEPAGE
  3
ANSI_1252
  9
$EXTMAX
 10
420.0
 20
297.0
 30
0.0
  9
$EXTMIN
 10
0.0
 20
0.0
 30
0.0
  9
$LIMMIN
 10
0.0
 20
0.0
  9
$LIMMAX
 10
420.0
 20
297.0
  9
$VIEWCTR
 10
210.0
 20
148.5
  9
$VIEWSIZE
 40
297.0
  9
$CLAYER
  8
0
  9
$LTSCALE
 40
23.1
  9
$CELTYPE
  6
BYLAYER
  9
$DIMSCALE
 40
1.0
  9
$DIMASZ
 40
3.5
  9
$DIMEXO
 40
2.625
  9
$DIMDLI
 40
15.96
  9
$DIMEXE
 40
7.56
  9
$DIMCEN
 40
3.78
  9
$DIMLFAC
 40
1.0
  9
$DIMBLK
  1
_FILLED
  9
$DIMTXT
 40
3.5
  9
$DIMTOL
 70
1
  9
$DIMLIM
 70
0
  9
$DIMTFAC
 40
1.0
  9
$DIMTP
 40
0.005
  9
$DIMTM
 40
0.005
  9
$PDMODE
 70
3
  9
$PDSIZE
 40
0.3125
  9
$HANDSEED
  5
2B6
  9
$TILEMODE
 70
1
  9
$MEASUREMENT
 70
1
  9
$INSUNITS
 70
4
  0
ENDSEC
  0
SECTION
  2
CLASSES
  0
CLASS
  1
ACDBDICTIONARYWDFLT
  2
AcDbDictionaryWithDefault
  3
AutoCAD 2000
 90
0
280
0
281
0
  0
CLASS
  1
ACDBPLACEHOLDER
  2
AcDbPlaceHolder
  3
AutoCAD 2000
 90
0
280
0
281
0
  0
CLASS
  1
LAYOUT
  2
AcDbLayout
  3
AutoCAD 2000
 90
0
280
0
281
0
  0
ENDSEC
  0
SECTION
  2
TABLES
  0
TABLE
  2
VPORT
  5
8
100
AcDbSymbolTable
 70
2
  0
VPORT
  5
1F4
100
AcDbSymbolTableRecord
100
AcDbViewportTableRecord
  2
*ACTIVE
 70
0
 10
0.0
 20
0.0
 11
1.0
 21
1.0
 12
210.0
 22
148.5
 13
0.0
 23
0.0
 14
1.0
 24
1.0
 15
0.0
 25
0.0
 16
0.0
 26
0.0
 36
1.0
 17
0.0
 27
0.0
 37
0.0
 40
297.0
 41
1.4141414141
 42
50.0
 43
0.0
 44
0.0
 50
0.0
 51
0.0
 71
0
 72
100
 73
1
 74
1
 75
0
 76
0
 77
0
 78
0
  0
ENDTAB
  0
TABLE
  2
LTYPE
  5
5
100
AcDbSymbolTable
 70
6
  0
LTYPE
  5
14
100
AcDbSymbolTableRecord
100
AcDbLinetypeTableRecord
  2
BYBLOCK
 70
0
  3

 72
65
 73
0
 40
0.0
  0
LTYPE
  5
15
100
AcDbSymbolTableRecord
100
AcDbLinetypeTableRecord
  2
BYLAYER
 70
0
  3

 72
65
 73
0
 40
0.0
  0
LTYPE
  5
16
100
AcDbSymbolTableRecord
100
AcDbLinetypeTableRecord
  2
CONTINUOUS
 70
64
  3
Solid line
 72
65
 73
0
 40
0.0
  0
LTYPE
  5
1F5
100
AcDbSymbolTableRecord
100
AcDbLinetypeTableRecord
  2
CENTER
 70
64
  3
____ _ ____ _ ____ _ ____ _ ____ _ ____ _ ____
 72
65
 73
4
 40
0.6
 49
0.375
 74
0
 49
-0.075
 74
0
 49
0.075
 74
0
 49
-0.075
 74
0
  0
LTYPE
  5
1F6
100
AcDbSymbolTableRecord
100
AcDbLinetypeTableRecord
  2
HIDDEN
 70
64
  3
- - - - - - - - - - - - - - - - - - - -
 72
65
 73
2
 40
0.2
 49
0.1
 74
0
 49
-0.1
 74
0
  0
LTYPE
  5
1F7
100
AcDbSymbolTableRecord
100
AcDbLinetypeTableRecord
  2
PHANTOM
 70
64
  3
_____ _ _ _____ _ _ _____ _ _ _____
 72
65
 73
6
 40
0.8
 49
0.45
 74
0
 49
-0.05
 74
0
 49
0.1
 74
0
 49
-0.05
 74
0
 49
0.1
 74
0
 49
-0.05
 74
0
  0
LTYPE
  5
1F8
100
AcDbSymbolTableRecord
100
AcDbLinetypeTableRecord
  2
DOT
 70
64
  3
. . . . . . . . . . . . . . . . . . . .
 72
65
 73
2
 40
0.2
 49
0.1
 74
0
 49
-0.1
 74
0
  0
LTYPE
  5
1F9
100
AcDbSymbolTableRecord
100
AcDbLinetypeTableRecord
  2
DASHED
 70
64
  3
- - - - - - - - - - - - - - - - - - - -
 72
65
 73
2
 40
0.2
 49
0.1
 74
0
 49
-0.1
 74
0
  0
ENDTAB
  0
TABLE
  2
LAYER
  5
2
100
AcDbSymbolTable
 70
36
  0
LAYER
  5
10
100
AcDbSymbolTableRecord
100
AcDbLayerTableRecord
  2
0
 70
0
 62
7
  6
CONTINUOUS
370
-3
390
F
  0
LAYER
  5
1FA
100
AcDbSymbolTableRecord
100
AcDbLayerTableRecord
  2
DEFAULT_1
 70
0
 62
7
  6
CENTER
370
-3
390
F
  0
LAYER
  5
1FB
100
AcDbSymbolTableRecord
100
AcDbLayerTableRecord
  2
DEFAULT_2
 70
0
 62
8
  6
HIDDEN
370
-3
390
F
  0
LAYER
  5
1FC
100
AcDbSymbolTableRecord
100
AcDbLayerTableRecord
  2
DEFAULT_3
 70
0
 62
7
  6
PHANTOM
370
-3
390
F
  0
LAYER
  5
1FD
100
AcDbSymbolTableRecord
100
AcDbLayerTableRecord
  2
BEZUGSACHSEN
 70
0
 62
7
  6
CONTINUOUS
370
-3
390
F
  0
LAYER
  5
1FE
100
AcDbSymbolTableRecord
100
AcDbLayerTableRecord
  2
BEZUGSEBENEN
 70
0
 62
7
  6
CONTINUOUS
370
-3
390
F
  0
LAYER
  5
1FF
100
AcDbSymbolTableRecord
100
AcDbLayerTableRecord
  2
FASEN
 70
0
 62
7
  6
CONTINUOUS
370
-3
390
F
  0
LAYER
  5
200
100
AcDbSymbolTableRecord
100
AcDbLayerTableRecord
  2
HILFEN
 70
0
 62
7
  6
CONTINUOUS
370
-3
390
F
  0
LAYER
  5
201
100
AcDbSymbolTableRecord
100
AcDbLayerTableRecord
  2
KONSTRUKTIONSELEMENTE
 70
0
 62
7
  6
CONTINUOUS
370
-3
390
F
  0
LAYER
  5
202
100
AcDbSymbolTableRecord
100
AcDbLayerTableRecord
  2
PLATZIERUNG
 70
0
 62
7
  6
CONTINUOUS
370
-3
390
F
  0
LAYER
  5
203
100
AcDbSymbolTableRecord
100
AcDbLayerTableRecord
  2
RUNDUNGEN
 70
0
 62
7
  6
CONTINUOUS
370
-3
390
F
  0
LAYER
  5
204
100
AcDbSymbolTableRecord
100
AcDbLayerTableRecord
  2
TEIL_STARTBEZUEGE
 70
0
 62
7
  6
CONTINUOUS
370
-3
390
F
  0
LAYER
  5
205
100
AcDbSymbolTableRecord
100
AcDbLayerTableRecord
  2
ZEICHNUNGSBEMASSUNGEN
 70
0
 62
7
  6
CONTINUOUS
370
-3
390
F
  0
ENDTAB
  0
TABLE
  2
STYLE
  5
3
100
AcDbSymbolTable
 70
1
  0
STYLE
  5
11
100
AcDbSymbolTableRecord
100
AcDbTextStyleTableRecord
  2
STANDARD
 70
0
 40
0.0
 41
0.7
 50
0.0
 71
0
 42
0.2
  3
txt
  4

  0
STYLE
  5
206
100
AcDbSymbolTableRecord
100
AcDbTextStyleTableRecord
  2
TEXTSTYLE_1
 70
0
 40
0.0
 41
0.8
 50
0.0
 71
0
 42
0.2
  3
gdt
  4

  0
ENDTAB
  0
TABLE
  2
VIEW
  5
6
100
AcDbSymbolTable
 70
0
  0
ENDTAB
  0
TABLE
  2
UCS
  5
7
100
AcDbSymbolTable
 70
0
  0
ENDTAB
  0
TABLE
  2
APPID
  5
9
100
AcDbSymbolTable
 70
1
  0
APPID
  5
207
100
AcDbSymbolTableRecord
100
AcDbRegAppTableRecord
  2
ACAD
 70
0
  0
ENDTAB
  0
TABLE
  2
BLOCK_RECORD
  5
1
100
AcDbSymbolTable
 70
0
  0
BLOCK_RECORD
  5
208
100
AcDbSymbolTableRecord
100
AcDbBlockTableRecord
  2
*Model_Space
  0
BLOCK_RECORD
  5
209
100
AcDbSymbolTableRecord
100
AcDbBlockTableRecord
  2
*Paper_Space
  0
ENDTAB
  0
TABLE
  2
DIMSTYLE
  5
A
100
AcDbSymbolTable
 70
1
100
AcDbDimStyleTable
 71
0
  0
DIMSTYLE
105
20A
100
AcDbSymbolTableRecord
100
AcDbDimStyleTableRecord
  2
STANDARD
 70
0
  3

  4

 40
1.0
 41
3.5
 42
0.0625
 43
0.38
 44
0.18
 45
0.0
 46
0.0
 47
0.005
 48
0.005
140
3.5
141
0.09
142
0.0
143
25.4
144
1.0
145
0.0
146
1.0
147
0.09
 71
1.0
 72
0.0
 73
0
 74
0
 75
0
 76
0
 77
1
 78
8
170
0
171
2
172
0
173
0
174
0
175
0
176
0
177
0
178
5
270
2
271
3
272
3
273
2
274
2
275
0
280
0
281
0
282
0
283
1
284
8
285
0
286
0
287
3
288
0
340
11
  0
ENDTAB
  0
ENDSEC
  0
SECTION
  2
BLOCKS
  0
BLOCK
  5
20
100
AcDbEntity
  8
0
100
AcDbBlockBegin
  2
*Model_Space
 70
0
 10
0.0
 20
0.0
 30
0.0
  3
*Model_Space
  1

  0
ENDBLK
  5
21
100
AcDbEntity
  8
0
100
AcDbBlockEnd
  0
BLOCK
  5
1C
100
AcDbEntity
  8
0
100
AcDbBlockBegin
  2
*Paper_Space
 70
0
 10
0.0
 20
0.0
 30
0.0
  3
*Paper_Space
  1

  0
ENDBLK
  5
1D
100
AcDbEntity
  8
0
100
AcDbBlockEnd
  0
ENDSEC
  0
SECTION
  2
ENTITIES
  0
MTEXT
  5
20B
100
AcDbEntity
  8
0
100
AcDbMText
 62
5
  6
CONTINUOUS
  7
STANDARD
 71
1
 72
1
 10
161.7675031423
 20
168.5566155507
 30
0.0
 11
-0.0
 21
-1.0
 31
0.0
 44
0.9
  1
RUD\PIMVK 8
 40
4.5
 41
21.1071428571
  0
MTEXT
  5
20C
100
AcDbEntity
  8
0
100
AcDbMText
 62
5
  6
CONTINUOUS
  7
STANDARD
 71
1
 72
1
 10
277.4376603024
 20
173.47674218
 30
0.0
 11
0.0
 21
1.0
 31
0.0
 44
0.9
  1
IMVK 8
 40
4.5
 41
21.9642857143
  0
MTEXT
  5
20D
100
AcDbEntity
  8
0
100
AcDbMText
 62
5
  6
CONTINUOUS
  7
STANDARD
 71
1
 72
1
 10
239.6376704808
 20
180.7505954293
 30
0.0
 11
0.0
 21
1.0
 31
0.0
 44
0.9
  1
RUD
 40
4.5
 41
12.0
  0
LINE
  5
20E
100
AcDbEntity
  8
0
100
AcDbLine
 62
7
  6
CONTINUOUS
 10
0.0
 20
0.0
 11
0.0
 21
297.0
  0
LINE
  5
20F
100
AcDbEntity
  8
0
100
AcDbLine
 62
7
  6
CONTINUOUS
 10
0.0
 20
0.0
 11
420.0
 21
0.0
  0
LINE
  5
210
100
AcDbEntity
  8
0
100
AcDbLine
 62
7
  6
CONTINUOUS
 10
0.0
 20
297.0
 11
420.0
 21
297.0
  0
LINE
  5
211
100
AcDbEntity
  8
0
100
AcDbLine
 62
7
  6
CONTINUOUS
 10
420.0
 20
0.0
 11
420.0
 21
297.0
  0
LINE
  5
212
100
AcDbEntity
  8
0
100
AcDbLine
 62
7
  6
CONTINUOUS
 10
127.9528650559
 20
126.4115729198
 11
135.5423404761
 21
105.5596605773
  0
LINE
  5
213
100
AcDbEntity
  8
KONSTRUKTIONSELEMENTE
100
AcDbLine
 62
7
  6
CONTINUOUS
 10
135.5423404761
 20
105.5596605773
 11
127.9528650559
 21
126.4115729198
  0
LINE
  5
214
100
AcDbEntity
  8
BEZUGSACHSEN
100
AcDbLine
 62
7
  6
CONTINUOUS
 10
167.5979926987
 20
135.1902861825
 11
168.0966026694
 21
135.1902861825
  0
LINE
  5
215
100
AcDbEntity
  8
KONSTRUKTIONSELEMENTE
100
AcDbLine
 62
8
  6
HIDDEN
 10
140.3340109694
 20
111.1070022564
 11
131.7779689116
 21
134.6145346101
  0
LINE
  5
216
100
AcDbEntity
  8
DEFAULT_2
100
AcDbLine
 62
8
  6
HIDDEN
 10
140.3340444823
 20
111.1069101805
 11
131.7779689116
 21
134.6145346101
  0
LINE
  5
217
100
AcDbEntity
  8
DEFAULT_2
100
AcDbLine
 62
8
  6
HIDDEN
 10
130.0668978289
 20
203.5602879842
 11
130.0668978289
 21
191.6725387898
  0
LINE
  5
218
100
AcDbEntity
  8
KONSTRUKTIONSELEMENTE
100
AcDbLine
 62
8
  6
HIDDEN
 10
130.0668978289
 20
191.6725387898
 11
130.0668978289
 21
203.5602879842
  0
LINE
  5
219
100
AcDbEntity
  8
BEZUGSACHSEN
100
AcDbLine
 62
7
  6
CONTINUOUS
 10
166.2614152512
 20
140.1902861825
 11
166.5894992105
 21
140.1902861825
  0
LINE
  5
21A
100
AcDbEntity
  8
BEZUGSACHSEN
100
AcDbLine
 62
7
  6
CONTINUOUS
 10
165.8670835988
 20
142.1902861825
 11
166.1916841147
 21
142.1902861825
  0
LINE
  5
21B
100
AcDbEntity
  8
BEZUGSACHSEN
100
AcDbLine
 62
7
  6
CONTINUOUS
 10
165.3570048085
 20
147.1902861825
 11
165.6772080954
 21
147.1902861825
  0
LINE
  5
21C
100
AcDbEntity
  8
DEFAULT_2
100
AcDbLine
 62
8
  6
HIDDEN
 10
142.4202907076
 20
138.121605067
 11
150.8585683222
 21
114.9376278616
  0
LINE
  5
21D
100
AcDbEntity
  8
KONSTRUKTIONSELEMENTE
100
AcDbLine
 62
8
  6
HIDDEN
 10
150.8586018351
 20
114.9375357857
 11
142.4202907076
 21
138.121605067
  0
LINE
  5
21E
100
AcDbEntity
  8
0
100
AcDbLine
 62
7
  6
CONTINUOUS
 10
146.0668978289
 20
165.4620215233
 11
146.0668978289
 21
163.5700534401
  0
LINE
  5
21F
100
AcDbEntity
  8
KONSTRUKTIONSELEMENTE
100
AcDbLine
 62
7
  6
CONTINUOUS
 10
146.0668978289
 20
153.7907777387
 11
146.0668978289
 21
172.1835926843
  0
LINE
  5
220
100
AcDbEntity
  8
KONSTRUKTIONSELEMENTE
100
AcDbLine
 62
7
  6
CONTINUOUS
 10
139.4040121891
 20
184.328429504
 11
117.9176993955
 21
198.0167203992
  0
LINE
  5
221
100
AcDbEntity
  8
0
100
AcDbLine
 62
7
  6
CONTINUOUS
 10
124.5631145481
 20
193.7831240348
 11
117.9176993955
 21
198.0167203992
  0
LINE
  5
222
100
AcDbEntity
  8
0
100
AcDbLine
 62
7
  6
CONTINUOUS
 10
165.2210837257
 20
120.1465223255
 11
163.4199712886
 21
117.0306728979
  0
LINE
  5
223
100
AcDbEntity
  8
RUNDUNGEN
100
AcDbLine
 62
7
  6
CONTINUOUS
 10
155.7634488687
 20
103.7852083121
 11
165.2208968656
 21
120.1461990655
  0
LINE
  5
224
100
AcDbEntity
  8
KONSTRUKTIONSELEMENTE
100
AcDbLine
 62
8
  6
HIDDEN
 10
127.2534215967
 20
192.0692094217
 11
130.0669171595
 21
191.6737984069
  0
LINE
  5
225
100
AcDbEntity
  8
KONSTRUKTIONSELEMENTE
100
AcDbLine
 62
7
  6
CONTINUOUS
 10
120.8141790391
 20
205.3198625964
 11
140.4187881154
 21
201.5916857009
  0
LWPOLYLINE
  5
226
100
AcDbEntity
  8
0
100
AcDbPolyline
 62
7
  6
CONTINUOUS
 90
7
 70
0
 10
241.8769637261
 20
201.1288726131
 10
241.2992110984
 20
200.7139818873
 10
240.661907703
 20
200.1621825606
 10
240.0147969088
 20
199.4915986807
 10
239.3810325858
 20
198.7168233964
 10
238.7808099239
 20
197.8652445832
 10
238.2372360469
 20
196.9863190041
  0
LINE
  5
227
100
AcDbEntity
  8
0
100
AcDbLine
 62
7
  6
CONTINUOUS
 10
241.8769635339
 20
201.1288729078
 11
245.5858664882
 21
203.545296765
  0
LWPOLYLINE
  5
228
100
AcDbEntity
  8
KONSTRUKTIONSELEMENTE
100
AcDbPolyline
 62
7
  6
CONTINUOUS
 90
13
 70
0
 10
274.4141363208
 20
98.1902884661
 10
274.6210130302
 20
98.1969826497
 10
274.9161177094
 20
98.2299064129
 10
275.2069000093
 20
98.2900423804
 10
275.4908560222
 20
98.3768726743
 10
275.765540645
 20
98.4896495124
 10
276.0285886386
 20
98.6274016495
 10
276.2777349927
 20
98.7889427373
 10
276.5108345209
 20
98.9728816086
 10
276.7258803096
 20
99.1776342903
 10
276.9210206916
 20
99.4014373161
 10
277.094575506
 20
99.6423630812
 10
277.2450509263
 20
99.8983370666
  0
LINE
  5
229
100
AcDbEntity
  8
0
100
AcDbLine
 62
7
  6
CONTINUOUS
 10
246.8666977412
 20
98.1902861825
 11
251.209997357
 21
98.1902861825
  0
LINE
  5
22A
100
AcDbEntity
  8
KONSTRUKTIONSELEMENTE
100
AcDbLine
 62
7
  6
CONTINUOUS
 10
270.0734597091
 20
98.1902861825
 11
274.4167593249
 21
98.1902861825
  0
LWPOLYLINE
  5
22B
100
AcDbEntity
  8
0
100
AcDbPolyline
 62
7
  6
CONTINUOUS
 90
9
 70
0
 10
238.2370448098
 20
196.9859836681
 10
237.9589240127
 20
196.4700803437
 10
237.6688785466
 20
195.8271534375
 10
237.4172524966
 20
195.1349813793
 10
237.2085618316
 20
194.3960140858
 10
237.0454939764
 20
193.6119170347
 10
236.9295776885
 20
192.7825934594
 10
236.86171873
 20
191.9088024185
 10
236.8417301313
 20
191.0722728046
  0
LINE
  5
22C
100
AcDbEntity
  8
0
100
AcDbLine
 62
7
  6
CONTINUOUS
 10
238.2372390421
 20
196.9863172596
 11
238.2370448098
 21
196.9859836681
  0
LWPOLYLINE
  5
22D
100
AcDbEntity
  8
0
100
AcDbPolyline
 62
7
  6
CONTINUOUS
 90
13
 70
0
 10
244.0384108258
 20
99.8983281752
 10
244.1885225813
 20
99.6429136984
 10
244.3616133147
 20
99.4024751991
 10
244.5561998859
 20
99.1790737191
 10
244.770614419
 20
98.9746247874
 10
245.0030189644
 20
98.7908813664
 10
245.2514215657
 20
98.6294186593
 10
245.5136930304
 20
98.4916209301
 10
245.7875851592
 20
98.378669604
 10
246.0707501091
 20
98.2915330713
 10
246.3607605181
 20
98.2309583895
 10
246.655130318
 20
98.197464877
 10
246.8693207453
 20
98.1902884661
  0
LINE
  5
22E
100
AcDbEntity
  8
0
100
AcDbLine
 62
7
  6
CONTINUOUS
 10
260.8417285331
 20
114.6360708858
 11
260.4417285331
 21
114.6360708858
  0
LINE
  5
22F
100
AcDbEntity
  8
BEZUGSACHSEN
100
AcDbLine
 62
7
  6
CONTINUOUS
 10
265.2198070625
 20
124.4902861825
 11
256.0636500029
 21
124.4902861825
  0
LINE
  5
230
100
AcDbEntity
  8
0
100
AcDbLine
 62
7
  6
CONTINUOUS
 10
236.8417285362
 20
191.0722728047
 11
236.8417285331
 21
165.4306002843
  0
LINE
  5
231
100
AcDbEntity
  8
0
100
AcDbLine
 62
7
  6
CONTINUOUS
 10
239.4509826804
 20
145.7459633352
 11
236.9974394332
 21
163.2038306689
  0
LINE
  5
232
100
AcDbEntity
  8
0
100
AcDbLine
 62
7
  6
CONTINUOUS
 10
244.9112690023
 20
168.1902861825
 11
244.9112690023
 21
161.7902861825
  0
LINE
  5
233
100
AcDbEntity
  8
DEFAULT_2
100
AcDbLine
 62
8
  6
HIDDEN
 10
245.4417285331
 20
120.9402137467
 11
245.4417285331
 21
136.9694385507
  0
LINE
  5
234
100
AcDbEntity
  8
BEZUGSACHSEN
100
AcDbLine
 62
7
  6
CONTINUOUS
 10
263.2083145254
 20
134.4902861825
 11
258.0751425595
 21
134.4902861825
  0
LINE
  5
235
100
AcDbEntity
  8
0
100
AcDbLine
 62
7
  6
CONTINUOUS
 10
256.0417285331
 20
134.6145346101
 11
251.0417285331
 21
134.6145346101
  0
LINE
  5
236
100
AcDbEntity
  8
KONSTRUKTIONSELEMENTE
100
AcDbLine
 62
7
  6
CONTINUOUS
 10
265.2417285331
 20
134.6145346101
 11
270.2417285331
 21
134.6145346101
  0
LINE
  5
237
100
AcDbEntity
  8
0
100
AcDbLine
 62
7
  6
CONTINUOUS
 10
246.4417285331
 20
164.3902861825
 11
246.4417285331
 21
163.9902861825
  0
LINE
  5
238
100
AcDbEntity
  8
0
100
AcDbLine
 62
7
  6
CONTINUOUS
 10
251.209997357
 20
126.4115729198
 11
251.209997357
 21
98.1902861825
  0
LINE
  5
239
100
AcDbEntity
  8
0
100
AcDbLine
 62
7
  6
CONTINUOUS
 10
256.0417285331
 20
190.373273033
 11
256.0417285331
 21
171.1902861825
  0
LINE
  5
23A
100
AcDbEntity
  8
0
100
AcDbLine
 62
7
  6
CONTINUOUS
 10
256.0417285331
 20
157.1902861825
 11
256.0417285331
 21
154.1902861825
  0
LINE
  5
23B
100
AcDbEntity
  8
0
100
AcDbLine
 62
7
  6
CONTINUOUS
 10
256.0417285331
 20
100.5903352805
 11
256.0417285331
 21
139.3370763547
  0
LINE
  5
23C
100
AcDbEntity
  8
0
100
AcDbLine
 62
7
  6
CONTINUOUS
 10
260.4417285331
 20
149.7902861825
 11
260.8417285331
 21
149.7902861825
  0
LINE
  5
23D
100
AcDbEntity
  8
KONSTRUKTIONSELEMENTE
100
AcDbLine
 62
7
  6
CONTINUOUS
 10
265.2417285331
 20
190.373273033
 11
265.2417285331
 21
171.1902861825
  0
LINE
  5
23E
100
AcDbEntity
  8
KONSTRUKTIONSELEMENTE
100
AcDbLine
 62
7
  6
CONTINUOUS
 10
265.2417285331
 20
157.1902861825
 11
265.2417285331
 21
154.1902861825
  0
LINE
  5
23F
100
AcDbEntity
  8
KONSTRUKTIONSELEMENTE
100
AcDbLine
 62
7
  6
CONTINUOUS
 10
265.2417285331
 20
100.5903352805
 11
265.2417285331
 21
139.3370763547
  0
LINE
  5
240
100
AcDbEntity
  8
0
100
AcDbLine
 62
7
  6
CONTINUOUS
 10
253.6417285331
 20
159.5902861825
 11
250.8417285331
 21
159.5902861825
  0
LINE
  5
241
100
AcDbEntity
  8
KONSTRUKTIONSELEMENTE
100
AcDbLine
 62
7
  6
CONTINUOUS
 10
267.6417285331
 20
159.5902861825
 11
270.4417285331
 21
159.5902861825
  0
LINE
  5
242
100
AcDbEntity
  8
KONSTRUKTIONSELEMENTE
100
AcDbLine
 62
7
  6
CONTINUOUS
 10
270.0734597091
 20
126.4115729198
 11
270.0734597091
 21
98.1902861825
  0
LINE
  5
243
100
AcDbEntity
  8
KONSTRUKTIONSELEMENTE
100
AcDbLine
 62
7
  6
CONTINUOUS
 10
274.8417285331
 20
164.3902861825
 11
274.8417285331
 21
163.9902861825
  0
LINE
  5
244
100
AcDbEntity
  8
KONSTRUKTIONSELEMENTE
100
AcDbLine
 62
8
  6
HIDDEN
 10
275.8417285331
 20
136.9694385507
 11
275.8417285331
 21
120.9402137467
  0
LINE
  5
245
100
AcDbEntity
  8
KONSTRUKTIONSELEMENTE
100
AcDbLine
 62
7
  6
CONTINUOUS
 10
276.3721880638
 20
168.1902861825
 11
276.3721880638
 21
161.7902861825
  0
LINE
  5
246
100
AcDbEntity
  8
KONSTRUKTIONSELEMENTE
100
AcDbLine
 62
7
  6
CONTINUOUS
 10
270.4417285331
 20
168.7902861825
 11
267.6417285331
 21
168.7902861825
  0
LINE
  5
247
100
AcDbEntity
  8
0
100
AcDbLine
 62
7
  6
CONTINUOUS
 10
250.8417285331
 20
168.7902861825
 11
253.6417285331
 21
168.7902861825
  0
LINE
  5
248
100
AcDbEntity
  8
KONSTRUKTIONSELEMENTE
100
AcDbLine
 62
7
  6
CONTINUOUS
 10
284.4417285331
 20
191.0721668817
 11
284.4417285331
 21
165.4306002843
  0
LINE
  5
249
100
AcDbEntity
  8
RUNDUNGEN
100
AcDbLine
 62
7
  6
CONTINUOUS
 10
281.8324743857
 20
145.7459633352
 11
282.9005089049
 21
153.3454238157
  0
LINE
  5
24A
100
AcDbEntity
  8
KONSTRUKTIONSELEMENTE
100
AcDbLine
 62
7
  6
CONTINUOUS
 10
281.8324743857
 20
145.7459633352
 11
284.2860176329
 21
163.2038306689
  0
LINE
  5
24B
100
AcDbEntity
  8
BEZUGSACHSEN
100
AcDbLine
 62
7
  6
CONTINUOUS
 10
265.2417285331
 20
172.2902861825
 11
256.0417285331
 21
172.2902861825
  0
LWPOLYLINE
  5
24C
100
AcDbEntity
  8
KONSTRUKTIONSELEMENTE
100
AcDbPolyline
 62
7
  6
CONTINUOUS
 90
9
 70
0
 10
284.4417269349
 20
191.0722706221
 10
284.4217789018
 20
191.9079722349
 10
284.3540214081
 20
192.7812770983
 10
284.2382160558
 20
193.6104559361
 10
284.075230235
 20
194.3946433647
 10
283.866563372
 20
195.1338678946
 10
283.6148875954
 20
195.8263935472
 10
283.3247289453
 20
196.4696868012
 10
283.0464121231
 20
196.985983897
  0
LINE
  5
24D
100
AcDbEntity
  8
BEZUGSACHSEN
100
AcDbLine
 62
7
  6
CONTINUOUS
 10
265.2417285331
 20
177.2902861825
 11
256.0417285331
 21
177.2902861825
  0
LWPOLYLINE
  5
24E
100
AcDbEntity
  8
KONSTRUKTIONSELEMENTE
100
AcDbPolyline
 62
7
  6
CONTINUOUS
 90
7
 70
0
 10
283.0462200616
 20
196.9863206485
 10
282.5024969477
 20
197.8654728922
 10
281.9022783428
 20
198.7170163534
 10
281.2687902559
 20
199.4914520064
 10
280.6219455363
 20
200.1618070513
 10
279.9845725949
 20
200.713725061
 10
279.4064881652
 20
201.128875986
  0
LINE
  5
24F
100
AcDbEntity
  8
KONSTRUKTIONSELEMENTE
100
AcDbLine
 62
7
  6
CONTINUOUS
 10
283.0462170664
 20
196.9863189039
 11
283.0464121231
 21
196.985983897
  0
LINE
  5
250
100
AcDbEntity
  8
0
100
AcDbLine
 62
7
  6
CONTINUOUS
 10
253.3920119369
 20
205.3669547395
 11
253.3919428894
 21
205.3669494829
  0
LWPOLYLINE
  5
251
100
AcDbEntity
  8
0
100
AcDbPolyline
 62
7
  6
CONTINUOUS
 90
3
 70
0
 10
254.0230445552
 20
205.3902885674
 10
253.8563429193
 20
205.3887345829
 10
253.3920117181
 20
205.3669575981
  0
LINE
  5
252
100
AcDbEntity
  8
0
100
AcDbLine
 62
7
  6
CONTINUOUS
 10
254.022884823
 20
205.3902861818
 11
254.0228345034
 21
205.3902861825
  0
LINE
  5
253
100
AcDbEntity
  8
KONSTRUKTIONSELEMENTE
100
AcDbLine
 62
7
  6
CONTINUOUS
 10
254.0229016401
 20
205.3902861825
 11
267.260555426
 21
205.3902861825
  0
LWPOLYLINE
  5
254
100
AcDbEntity
  8
KONSTRUKTIONSELEMENTE
100
AcDbPolyline
 62
7
  6
CONTINUOUS
 90
3
 70
0
 10
267.891445348
 20
205.3669575981
 10
267.4271141468
 20
205.3887345829
 10
267.2604125109
 20
205.3902885674
  0
LINE
  5
255
100
AcDbEntity
  8
KONSTRUKTIONSELEMENTE
100
AcDbLine
 62
7
  6
CONTINUOUS
 10
267.8914451292
 20
205.3669547395
 11
267.8915141767
 21
205.3669494829
  0
LINE
  5
256
100
AcDbEntity
  8
KONSTRUKTIONSELEMENTE
100
AcDbLine
 62
7
  6
CONTINUOUS
 10
275.6975905779
 20
203.545296765
 11
279.406021321
 21
201.1291806292
  0
ARC
  5
257
100
AcDbEntity
  8
KONSTRUKTIONSELEMENTE
100
AcDbCircle
 62
7
  6
CONTINUOUS
 10
133.9668978289
 20
128.6005018371
 40
6.4
100
AcDbArc
 50
107.4121070595
 51
200.0
  0
ARC
  5
258
100
AcDbEntity
  8
0
100
AcDbCircle
 62
7
  6
CONTINUOUS
 10
133.9668978289
 20
128.6005018371
 40
6.4
100
AcDbArc
 50
148.6821874535
 51
200.0
  0
ARC
  5
259
100
AcDbEntity
  8
0
100
AcDbCircle
 62
7
  6
CONTINUOUS
 10
133.9668978289
 20
128.6005018371
 40
6.4
100
AcDbArc
 50
110.0
 51
147.0726868298
  0
ARC
  5
25A
100
AcDbEntity
  8
KONSTRUKTIONSELEMENTE
100
AcDbCircle
 62
7
  6
CONTINUOUS
 10
126.0668978289
 20
153.7907777387
 40
20.0
100
AcDbArc
 50
287.4121070595
 51
360.0
  0
ARC
  5
25B
100
AcDbEntity
  8
RUNDUNGEN
100
AcDbCircle
 62
7
  6
CONTINUOUS
 10
146.8668978289
 20
130.7561340087
 40
21.2
100
AcDbArc
 50
329.9689908891
 51
17.480221783
  0
ARC
  5
25C
100
AcDbEntity
  8
0
100
AcDbCircle
 62
7
  6
CONTINUOUS
 10
146.8668978289
 20
130.7561340087
 40
21.2
100
AcDbArc
 50
329.97
 51
333.4050370095
  0
ARC
  5
25D
100
AcDbEntity
  8
KONSTRUKTIONSELEMENTE
100
AcDbCircle
 62
7
  6
CONTINUOUS
 10
146.0668978289
 20
109.3902861825
 40
11.2
100
AcDbArc
 50
200.0
 51
329.97
  0
ARC
  5
25E
100
AcDbEntity
  8
0
100
AcDbCircle
 62
7
  6
CONTINUOUS
 10
146.0668978289
 20
109.3902861825
 40
11.2
100
AcDbArc
 50
316.606711068
 51
320.9885365998
  0
ARC
  5
25F
100
AcDbEntity
  8
0
100
AcDbCircle
 62
7
  6
CONTINUOUS
 10
146.0668978289
 20
109.3902861825
 40
11.2
100
AcDbArc
 50
321.064939249
 51
329.97
  0
ARC
  5
260
100
AcDbEntity
  8
0
100
AcDbCircle
 62
7
  6
CONTINUOUS
 10
146.0668978289
 20
109.3902861825
 40
11.2
100
AcDbArc
 50
200.0
 51
312.3148273405
  0
CIRCLE
  5
261
100
AcDbEntity
  8
RUNDUNGEN
100
AcDbCircle
 62
7
  6
CONTINUOUS
 10
154.0668978289
 20
129.4902861825
 40
5.0
  0
ARC
  5
262
100
AcDbEntity
  8
KONSTRUKTIONSELEMENTE
100
AcDbCircle
 62
7
  6
CONTINUOUS
 10
134.0668978289
 20
168.1902861825
 40
34.0
100
AcDbArc
 50
344.1605622604
 51
79.2327214602
  0
ARC
  5
263
100
AcDbEntity
  8
0
100
AcDbCircle
 62
7
  6
CONTINUOUS
 10
134.0668978289
 20
168.1902861825
 40
34.0
100
AcDbArc
 50
73.4762757584
 51
79.2327214602
  0
ARC
  5
264
100
AcDbEntity
  8
0
100
AcDbCircle
 62
7
  6
CONTINUOUS
 10
134.0668978289
 20
168.1902861825
 40
34.0
100
AcDbArc
 50
352.9041609064
 51
353.582946857
  0
ARC
  5
265
100
AcDbEntity
  8
0
100
AcDbCircle
 62
7
  6
CONTINUOUS
 10
134.0668978289
 20
168.1902861825
 40
34.0
100
AcDbArc
 50
47.9805247066
 51
66.8081755443
  0
ARC
  5
266
100
AcDbEntity
  8
KONSTRUKTIONSELEMENTE
100
AcDbCircle
 62
7
  6
CONTINUOUS
 10
131.6668978289
 20
172.1835926843
 40
14.4
100
AcDbArc
 50
0.0
 51
57.5
  0
ARC
  5
267
100
AcDbEntity
  8
0
100
AcDbCircle
 62
7
  6
CONTINUOUS
 10
131.6668978289
 20
172.1835926843
 40
14.4
100
AcDbArc
 50
28.2667497196
 51
28.3739709247
  0
ARC
  5
268
100
AcDbEntity
  8
KONSTRUKTIONSELEMENTE
100
AcDbCircle
 62
7
  6
CONTINUOUS
 10
120.0668978289
 20
201.3902861825
 40
4.0
100
AcDbArc
 50
79.2327214602
 51
237.5
  0
ARC
  5
269
100
AcDbEntity
  8
0
100
AcDbCircle
 62
7
  6
CONTINUOUS
 10
120.0668978289
 20
201.3902861825
 40
4.0
100
AcDbArc
 50
79.2327214602
 51
169.2327214602
  0
CIRCLE
  5
26A
100
AcDbEntity
  8
BEZUGSACHSEN
100
AcDbCircle
 62
7
  6
CONTINUOUS
 10
160.4668978289
 20
174.7902861825
 40
2.5
  0
ARC
  5
26B
100
AcDbEntity
  8
RUNDUNGEN
100
AcDbCircle
 62
7
  6
CONTINUOUS
 10
203.333083036
 20
148.5384265539
 40
38.0
100
AcDbArc
 50
164.1605622604
 51
197.4802217829
  0
ARC
  5
26C
100
AcDbEntity
  8
0
100
AcDbCircle
 62
7
  6
CONTINUOUS
 10
203.333083036
 20
148.5384265539
 40
38.0
100
AcDbArc
 50
169.2894540411
 51
171.2400840126
  0
ARC
  5
26D
100
AcDbEntity
  8
0
100
AcDbCircle
 62
7
  6
CONTINUOUS
 10
203.333083036
 20
148.5384265539
 40
38.0
100
AcDbArc
 50
178.4789769502
 51
180.8558236356
  0
ARC
  5
26E
100
AcDbEntity
  8
0
100
AcDbCircle
 62
7
  6
CONTINUOUS
 10
203.333083036
 20
148.5384265539
 40
38.0
100
AcDbArc
 50
180.8978781373
 51
182.0331821507
  0
ARC
  5
26F
100
AcDbEntity
  8
BEZUGSACHSEN
100
AcDbCircle
 62
7
  6
CONTINUOUS
 10
203.333083036
 20
148.5384265539
 40
37.68
100
AcDbArc
 50
182.0504045352
 51
189.6991678213
  0
ARC
  5
270
100
AcDbEntity
  8
BEZUGSACHSEN
100
AcDbCircle
 62
7
  6
CONTINUOUS
 10
203.333083036
 20
148.5384265539
 40
37.68
100
AcDbArc
 50
192.8003009232
 51
200.7474862247
  0
ARC
  5
271
100
AcDbEntity
  8
RUNDUNGEN
100
AcDbCircle
 62
7
  6
CONTINUOUS
 10
228.0417285331
 20
125.7902861825
 40
55.6
100
AcDbArc
 50
11.4521761402
 51
13.2437502729
  0
ARC
  5
272
100
AcDbEntity
  8
RUNDUNGEN
100
AcDbCircle
 62
7
  6
CONTINUOUS
 10
228.0417285331
 20
125.7902861825
 40
55.6
100
AcDbArc
 50
6.6347170814
 51
11.4407990005
  0
ARC
  5
273
100
AcDbEntity
  8
RUNDUNGEN
100
AcDbCircle
 62
7
  6
CONTINUOUS
 10
228.0417285331
 20
125.7902861825
 40
55.6
100
AcDbArc
 50
337.0839367275
 51
6.4251749019
  0
ARC
  5
274
100
AcDbEntity
  8
KONSTRUKTIONSELEMENTE
100
AcDbCircle
 62
7
  6
CONTINUOUS
 10
228.0417285331
 20
125.7902861825
 40
55.6
100
AcDbArc
 50
332.2477798524
 51
13.2437498085
  0
ARC
  5
275
100
AcDbEntity
  8
0
100
AcDbCircle
 62
7
  6
CONTINUOUS
 10
220.0417285331
 20
143.0181705564
 40
19.6
100
AcDbArc
 50
346.7562501915
 51
8.0
  0
ARC
  5
276
100
AcDbEntity
  8
0
100
AcDbCircle
 62
7
  6
CONTINUOUS
 10
260.494386641
 20
151.3456536665
 40
16.2550978671
100
AcDbArc
 50
234.4425052387
 51
254.1021103124
  0
ARC
  5
277
100
AcDbEntity
  8
0
100
AcDbCircle
 62
7
  6
CONTINUOUS
 10
252.8417285331
 20
165.4306002843
 40
16.0
100
AcDbArc
 50
180.0
 51
188.0
  0
ARC
  5
278
100
AcDbEntity
  8
0
100
AcDbCircle
 62
7
  6
CONTINUOUS
 10
250.8417285331
 20
164.3902861825
 40
4.4
100
AcDbArc
 50
90.0
 51
180.0
  0
ARC
  5
279
100
AcDbEntity
  8
0
100
AcDbCircle
 62
7
  6
CONTINUOUS
 10
250.8417285331
 20
163.9902861825
 40
4.4
100
AcDbArc
 50
180.0
 51
270.0
  0
ARC
  5
27A
100
AcDbEntity
  8
0
100
AcDbCircle
 62
7
  6
CONTINUOUS
 10
260.4417285331
 20
154.1902861825
 40
4.4
100
AcDbArc
 50
180.0
 51
270.0
  0
ARC
  5
27B
100
AcDbEntity
  8
0
100
AcDbCircle
 62
7
  6
CONTINUOUS
 10
253.6417285331
 20
171.1902861825
 40
2.4
100
AcDbArc
 50
270.0
 51
360.0
  0
ARC
  5
27C
100
AcDbEntity
  8
0
100
AcDbCircle
 62
7
  6
CONTINUOUS
 10
253.6417285331
 20
157.1902861825
 40
2.4
100
AcDbArc
 50
0.0
 51
90.0
  0
ARC
  5
27D
100
AcDbEntity
  8
0
100
AcDbCircle
 62
7
  6
CONTINUOUS
 10
293.2417285331
 20
125.7902861825
 40
55.6
100
AcDbArc
 50
166.7562501915
 51
207.7522201475
  0
ARC
  5
27E
100
AcDbEntity
  8
0
100
AcDbCircle
 62
7
  6
CONTINUOUS
 10
260.6417285331
 20
85.2657959789
 40
16.0
100
AcDbArc
 50
106.7083437157
 51
126.1203429718
  0
ARC
  5
27F
100
AcDbEntity
  8
KONSTRUKTIONSELEMENTE
100
AcDbCircle
 62
7
  6
CONTINUOUS
 10
260.6417285331
 20
85.2657959789
 40
16.0
100
AcDbArc
 50
53.8796570282
 51
73.2916562843
  0
ARC
  5
280
100
AcDbEntity
  8
RUNDUNGEN
100
AcDbCircle
 62
7
  6
CONTINUOUS
 10
301.2417285331
 20
143.0181705564
 40
19.6
100
AcDbArc
 50
189.8844959804
 51
193.243748491
  0
ARC
  5
281
100
AcDbEntity
  8
RUNDUNGEN
100
AcDbCircle
 62
7
  6
CONTINUOUS
 10
301.2417285331
 20
143.0181705564
 40
19.6
100
AcDbArc
 50
178.2112938441
 51
182.4062960992
  0
ARC
  5
282
100
AcDbEntity
  8
KONSTRUKTIONSELEMENTE
100
AcDbCircle
 62
7
  6
CONTINUOUS
 10
301.2417285331
 20
143.0181705564
 40
19.6
100
AcDbArc
 50
172.0
 51
193.2437498085
  0
ARC
  5
283
100
AcDbEntity
  8
KONSTRUKTIONSELEMENTE
100
AcDbCircle
 62
7
  6
CONTINUOUS
 10
260.7890704251
 20
151.3456536665
 40
16.2550978671
100
AcDbArc
 50
285.8978896876
 51
305.5574947613
  0
ARC
  5
284
100
AcDbEntity
  8
KONSTRUKTIONSELEMENTE
100
AcDbCircle
 62
7
  6
CONTINUOUS
 10
268.4417285331
 20
165.4306002843
 40
16.0
100
AcDbArc
 50
352.0
 51
360.0
  0
ARC
  5
285
100
AcDbEntity
  8
0
100
AcDbCircle
 62
7
  6
CONTINUOUS
 10
260.6417285331
 20
156.8634253464
 40
14.7209677072
100
AcDbArc
 50
269.2215519602
 51
270.7784480398
  0
ARC
  5
286
100
AcDbEntity
  8
KONSTRUKTIONSELEMENTE
100
AcDbCircle
 62
7
  6
CONTINUOUS
 10
270.4417285331
 20
164.3902861825
 40
4.4
100
AcDbArc
 50
0.0
 51
90.0
  0
ARC
  5
287
100
AcDbEntity
  8
KONSTRUKTIONSELEMENTE
100
AcDbCircle
 62
7
  6
CONTINUOUS
 10
270.4417285331
 20
163.9902861825
 40
4.4
100
AcDbArc
 50
270.0
 51
360.0
  0
ARC
  5
288
100
AcDbEntity
  8
KONSTRUKTIONSELEMENTE
100
AcDbCircle
 62
7
  6
CONTINUOUS
 10
260.8417285331
 20
154.1902861825
 40
4.4
100
AcDbArc
 50
270.0
 51
360.0
  0
ARC
  5
289
100
AcDbEntity
  8
KONSTRUKTIONSELEMENTE
100
AcDbCircle
 62
7
  6
CONTINUOUS
 10
267.6417285331
 20
171.1902861825
 40
2.4
100
AcDbArc
 50
180.0
 51
270.0
  0
ARC
  5
28A
100
AcDbEntity
  8
KONSTRUKTIONSELEMENTE
100
AcDbCircle
 62
7
  6
CONTINUOUS
 10
267.6417285331
 20
157.1902861825
 40
2.4
100
AcDbArc
 50
90.0
 51
180.0
  0
SPLINE
  5
28B
100
AcDbEntity
  8
KONSTRUKTIONSELEMENTE
100
AcDbSpline
 62
8
  6
HIDDEN
 70
0
 71
3
 72
23
 73
19
 74
0
 42
0.0000001
 43
0.0000001
 44
0.0000000001
 40
0.0
 40
0.0
 40
0.0
 40
0.0
 40
0.062523655
 40
0.1250389249
 40
0.1875463319
 40
0.2500462579
 40
0.312540271
 40
0.3750294729
 40
0.4375154976
 40
0.5000000004
 40
0.5624845
 40
0.6249705216
 40
0.6874597215
 40
0.7499537421
 40
0.8124536766
 40
0.8749610832
 40
0.9374763481
 40
1.0
 40
1.0
 40
1.0
 40
1.0
 10
150.8586018351
 20
114.9375357857
 30
0.0
 10
150.9893619613
 20
114.5782752918
 30
0.0
 10
151.1944352248
 20
113.8374883216
 30
0.0
 10
151.3073034657
 20
112.6903803946
 30
0.0
 10
151.2088382561
 20
111.5410466354
 30
0.0
 10
150.8911203371
 20
110.4316426863
 30
0.0
 10
150.3577441663
 20
109.4077927567
 30
0.0
 10
149.6246739681
 20
108.5155330671
 30
0.0
 10
148.7202074966
 20
107.7972154284
 30
0.0
 10
147.6834881918
 20
107.2877842227
 30
0.0
 10
146.5618590821
 20
107.0116408459
 30
0.0
 10
145.4072719427
 20
106.9805242251
 30
0.0
 10
144.2721740963
 20
107.1928263308
 30
0.0
 10
143.2054661142
 20
107.6342933215
 30
0.0
 10
142.2489688798
 20
108.2799209728
 30
0.0
 10
141.4347626614
 20
109.0970695309
 30
0.0
 10
140.7838780269
 20
110.0483554528
 30
0.0
 10
140.4648046018
 20
110.7476497049
 30
0.0
 10
140.3340444823
 20
111.1069101805
 30
0.0
  0
SPLINE
  5
28C
100
AcDbEntity
  8
KONSTRUKTIONSELEMENTE
100
AcDbSpline
 62
8
  6
HIDDEN
 70
0
 71
3
 72
10
 73
6
 74
0
 42
0.0000001
 43
0.0000001
 44
0.0000000001
 40
0.0
 40
0.0
 40
0.0
 40
0.0
 40
0.2756207239
 40
0.534384677
 40
1.0
 40
1.0
 40
1.0
 40
1.0
 10
140.8320936027
 20
140.3004481
 30
0.0
 10
141.0137531584
 20
140.1295147854
 30
0.0
 10
141.3550588868
 20
139.7856117315
 30
0.0
 10
141.9343435281
 20
139.0909291986
 30
0.0
 10
142.2761699714
 20
138.5175735354
 30
0.0
 10
142.4202907076
 20
138.121605067
 30
0.0
  0
SPLINE
  5
28D
100
AcDbEntity
  8
DEFAULT_2
100
AcDbSpline
 62
8
  6
HIDDEN
 70
0
 71
3
 72
23
 73
19
 74
0
 42
0.0000001
 43
0.0000001
 44
0.0000000001
 40
0.0
 40
0.0
 40
0.0
 40
0.0
 40
0.062523655
 40
0.1250389249
 40
0.1875463319
 40
0.2500462579
 40
0.312540271
 40
0.3750294729
 40
0.4375154976
 40
0.5000000004
 40
0.5624845
 40
0.6249705216
 40
0.6874597215
 40
0.7499537421
 40
0.8124536766
 40
0.8749610832
 40
0.9374763481
 40
1.0
 40
1.0
 40
1.0
 40
1.0
 10
150.8586018351
 20
114.9375357857
 30
0.0
 10
150.9893619613
 20
114.5782752918
 30
0.0
 10
151.1944352248
 20
113.8374883216
 30
0.0
 10
151.3073034657
 20
112.6903803946
 30
0.0
 10
151.2088382561
 20
111.5410466354
 30
0.0
 10
150.8911203371
 20
110.4316426863
 30
0.0
 10
150.3577441663
 20
109.4077927567
 30
0.0
 10
149.6246739681
 20
108.5155330671
 30
0.0
 10
148.7202074966
 20
107.7972154284
 30
0.0
 10
147.6834881918
 20
107.2877842227
 30
0.0
 10
146.5618590821
 20
107.0116408459
 30
0.0
 10
145.4072719427
 20
106.9805242251
 30
0.0
 10
144.2721740963
 20
107.1928263308
 30
0.0
 10
143.2054661142
 20
107.6342933215
 30
0.0
 10
142.2489688798
 20
108.2799209728
 30
0.0
 10
141.4347626614
 20
109.0970695309
 30
0.0
 10
140.7838780269
 20
110.0483554528
 30
0.0
 10
140.4648046018
 20
110.7476497049
 30
0.0
 10
140.3340444823
 20
111.1069101805
 30
0.0
  0
SPLINE
  5
28E
100
AcDbEntity
  8
DEFAULT_2
100
AcDbSpline
 62
8
  6
HIDDEN
 70
0
 71
3
 72
10
 73
6
 74
0
 42
0.0000001
 43
0.0000001
 44
0.0000000001
 40
0.0
 40
0.0
 40
0.0
 40
0.0
 40
0.2756207239
 40
0.534384677
 40
1.0
 40
1.0
 40
1.0
 40
1.0
 10
140.8320936027
 20
140.3004481
 30
0.0
 10
141.0137531584
 20
140.1295147854
 30
0.0
 10
141.3550588868
 20
139.7856117315
 30
0.0
 10
141.9343435281
 20
139.0909291986
 30
0.0
 10
142.2761699714
 20
138.5175735354
 30
0.0
 10
142.4202907076
 20
138.121605067
 30
0.0
  0
SPLINE
  5
28F
100
AcDbEntity
  8
DEFAULT_2
100
AcDbSpline
 62
8
  6
HIDDEN
 70
0
 71
3
 72
15
 73
11
 74
0
 42
0.0000001
 43
0.0000001
 44
0.0000000001
 40
0.0
 40
0.0
 40
0.0
 40
0.0
 40
0.1264066699
 40
0.2524114543
 40
0.377969491
 40
0.5030620598
 40
0.627724434
 40
0.7520306111
 40
0.8760790124
 40
1.0
 40
1.0
 40
1.0
 40
1.0
 10
256.0417288295
 20
107.0042062046
 30
0.0
 10
255.2866089597
 20
107.2346748299
 30
0.0
 10
253.8111371851
 20
107.8101329776
 30
0.0
 10
251.7608725621
 20
108.9982620951
 30
0.0
 10
249.9245772674
 20
110.4842189126
 30
0.0
 10
248.3496889473
 20
112.2337446557
 30
0.0
 10
247.0773483176
 20
114.2052064761
 30
0.0
 10
246.1421535021
 20
116.3504555862
 30
0.0
 10
245.5700937332
 20
118.6144402336
 30
0.0
 10
245.441728533
 20
120.1662314352
 30
0.0
 10
245.4417285331
 20
120.9402137467
 30
0.0
  0
SPLINE
  5
290
100
AcDbEntity
  8
KONSTRUKTIONSELEMENTE
100
AcDbSpline
 62
8
  6
HIDDEN
 70
0
 71
3
 72
15
 73
11
 74
0
 42
0.0000001
 43
0.0000001
 44
0.0000000001
 40
0.0
 40
0.0
 40
0.0
 40
0.0
 40
0.1264066699
 40
0.2524114543
 40
0.377969491
 40
0.5030620598
 40
0.627724434
 40
0.7520306111
 40
0.8760790124
 40
1.0
 40
1.0
 40
1.0
 40
1.0
 10
265.2417282366
 20
107.0042062046
 30
0.0
 10
265.9968481064
 20
107.2346748299
 30
0.0
 10
267.472319881
 20
107.8101329776
 30
0.0
 10
269.5225845041
 20
108.9982620951
 30
0.0
 10
271.3588797988
 20
110.4842189126
 30
0.0
 10
272.9337681188
 20
112.2337446557
 30
0.0
 10
274.2061087485
 20
114.2052064761
 30
0.0
 10
275.141303564
 20
116.3504555862
 30
0.0
 10
275.7133633329
 20
118.6144402336
 30
0.0
 10
275.8417285331
 20
120.1662314352
 30
0.0
 10
275.8417285331
 20
120.9402137467
 30
0.0
  0
SPLINE
  5
291
100
AcDbEntity
  8
KONSTRUKTIONSELEMENTE
100
AcDbSpline
 62
7
  6
CONTINUOUS
 70
0
 71
3
 72
15
 73
11
 74
0
 42
0.0000001
 43
0.0000001
 44
0.0000000001
 40
0.0
 40
0.0
 40
0.0
 40
0.0
 40
0.1680403817
 40
0.3247821592
 40
0.4677027029
 40
0.5955320328
 40
0.7086839325
 40
0.8099631467
 40
0.9047680163
 40
1.0
 40
1.0
 40
1.0
 40
1.0
 10
272.0173931059
 20
134.7072354348
 30
0.0
 10
272.2874474624
 20
134.7342812374
 30
0.0
 10
272.8081831727
 20
134.8005975577
 30
0.0
 10
273.5498469274
 20
134.9479440169
 30
0.0
 10
274.2130770845
 20
135.1445093273
 30
0.0
 10
274.7828635044
 20
135.3945777517
 30
0.0
 10
275.2462870225
 20
135.7026736513
 30
0.0
 10
275.5903349355
 20
136.0730371571
 30
0.0
 10
275.7992423385
 20
136.5028728
 30
0.0
 10
275.8416866347
 20
136.8123319018
 30
0.0
 10
275.8417265782
 20
136.9661429258
 30
0.0
  0
SPLINE
  5
292
100
AcDbEntity
  8
0
100
AcDbSpline
 62
7
  6
CONTINUOUS
 70
0
 71
3
 72
13
 73
9
 74
0
 42
0.0000001
 43
0.0000001
 44
0.0000000001
 40
0.0
 40
0.0
 40
0.0
 40
0.0
 40
0.2979580934
 40
0.4341966659
 40
0.5609632193
 40
0.6784210882
 40
0.788033411
 40
1.0
 40
1.0
 40
1.0
 40
1.0
 10
253.3919428894
 20
205.3669494829
 30
0.0
 10
252.5917170069
 20
205.3059658453
 30
0.0
 10
251.4271653829
 20
205.189614885
 30
0.0
 10
249.9325847228
 20
204.9658254791
 30
0.0
 10
248.9254318103
 20
204.7755472224
 30
0.0
 10
247.9975112998
 20
204.5546144053
 30
0.0
 10
246.8664847187
 20
204.2118947932
 30
0.0
 10
246.0642259889
 20
203.8569574615
 30
0.0
 10
245.5858664882
 20
203.545296765
 30
0.0
  0
SPLINE
  5
293
100
AcDbEntity
  8
KONSTRUKTIONSELEMENTE
100
AcDbSpline
 62
7
  6
CONTINUOUS
 70
0
 71
3
 72
16
 73
12
 74
0
 42
0.0000001
 43
0.0000001
 44
0.0000000001
 40
0.0
 40
0.0
 40
0.0
 40
0.0
 40
0.0150786085
 40
0.0367439552
 40
0.0661185856
 40
0.1033003443
 40
0.1999382842
 40
0.3235047865
 40
0.4701132874
 40
0.6354273765
 40
1.0
 40
1.0
 40
1.0
 40
1.0
 10
265.2417285331
 20
190.373273033
 30
0.0
 10
265.2417285331
 20
190.3969085155
 30
0.0
 10
265.2185991633
 20
190.4530956886
 30
0.0
 10
265.1498736203
 20
190.5308157579
 30
0.0
 10
265.0429312325
 20
190.6193832175
 30
0.0
 10
264.8295353145
 20
190.7608111393
 30
0.0
 10
264.4693206144
 20
190.9450398043
 30
0.0
 10
263.9349266258
 20
191.1586061864
 30
0.0
 10
263.2813904107
 20
191.3587549492
 30
0.0
 10
262.2451961012
 20
191.5874707544
 30
0.0
 10
261.4131448765
 20
191.6653253265
 30
0.0
 10
260.8417285331
 20
191.6725387898
 30
0.0
  0
SPLINE
  5
294
100
AcDbEntity
  8
KONSTRUKTIONSELEMENTE
100
AcDbSpline
 62
7
  6
CONTINUOUS
 70
0
 71
3
 72
13
 73
9
 74
0
 42
0.0000001
 43
0.0000001
 44
0.0000000001
 40
0.0
 40
0.0
 40
0.0
 40
0.0
 40
0.2979580934
 40
0.4341966659
 40
0.5609632193
 40
0.6784210882
 40
0.788033411
 40
1.0
 40
1.0
 40
1.0
 40
1.0
 10
267.8915141767
 20
205.3669494829
 30
0.0
 10
268.6917400592
 20
205.3059658453
 30
0.0
 10
269.8562916832
 20
205.189614885
 30
0.0
 10
271.3508723433
 20
204.9658254791
 30
0.0
 10
272.3580252558
 20
204.7755472224
 30
0.0
 10
273.2859457663
 20
204.5546144053
 30
0.0
 10
274.4169723475
 20
204.2118947932
 30
0.0
 10
275.2192310772
 20
203.8569574615
 30
0.0
 10
275.6975905779
 20
203.545296765
 30
0.0
  0
SPLINE
  5
295
100
AcDbEntity
  8
KONSTRUKTIONSELEMENTE
100
AcDbSpline
 62
7
  6
CONTINUOUS
 70
0
 71
3
 72
9
 73
5
 74
0
 42
0.0000001
 43
0.0000001
 44
0.0000000001
 40
0.0
 40
0.0
 40
0.0
 40
0.0
 40
0.2674093394
 40
1.0
 40
1.0
 40
1.0
 40
1.0
 10
264.5335976039
 20
112.3696698422
 30
0.0
 10
264.6454870868
 20
112.1999324683
 30
0.0
 10
265.0239272417
 20
111.5417542242
 30
0.0
 10
265.2417285331
 20
110.7762585957
 30
0.0
 10
265.2417285331
 20
110.2193067082
 30
0.0
  0
SPLINE
  5
296
100
AcDbEntity
  8
KONSTRUKTIONSELEMENTE
100
AcDbSpline
 62
7
  6
CONTINUOUS
 70
0
 71
3
 72
9
 73
5
 74
0
 42
0.0000001
 43
0.0000001
 44
0.0000000001
 40
0.0
 40
0.0
 40
0.0
 40
0.0
 40
0.2447210426
 40
1.0
 40
1.0
 40
1.0
 40
1.0
 10
272.0173931059
 20
134.7072354348
 30
0.0
 10
271.8730380684
 20
134.6927783547
 30
0.0
 10
271.2826099998
 20
134.6395649659
 30
0.0
 10
270.6894780575
 20
134.6145346101
 30
0.0
 10
270.2417285331
 20
134.6145346101
 30
0.0
  0
SPLINE
  5
297
100
AcDbEntity
  8
0
100
AcDbSpline
 62
7
  6
CONTINUOUS
 70
0
 71
3
 72
15
 73
11
 74
0
 42
0.0000001
 43
0.0000001
 44
0.0000000001
 40
0.0
 40
0.0
 40
0.0
 40
0.0
 40
0.1680403817
 40
0.3247821592
 40
0.4677027029
 40
0.5955320328
 40
0.7086839325
 40
0.8099631467
 40
0.9047680163
 40
1.0
 40
1.0
 40
1.0
 40
1.0
 10
249.2660639602
 20
134.7072354348
 30
0.0
 10
248.9960096037
 20
134.7342812374
 30
0.0
 10
248.4752738934
 20
134.8005975577
 30
0.0
 10
247.7336101387
 20
134.9479440169
 30
0.0
 10
247.0703799816
 20
135.1445093273
 30
0.0
 10
246.5005935617
 20
135.3945777517
 30
0.0
 10
246.0371700436
 20
135.7026736513
 30
0.0
 10
245.6931221306
 20
136.0730371571
 30
0.0
 10
245.4842147276
 20
136.5028728
 30
0.0
 10
245.4417704314
 20
136.8123319018
 30
0.0
 10
245.441730488
 20
136.9661429258
 30
0.0
  0
SPLINE
  5
298
100
AcDbEntity
  8
0
100
AcDbSpline
 62
7
  6
CONTINUOUS
 70
0
 71
3
 72
16
 73
12
 74
0
 42
0.0000001
 43
0.0000001
 44
0.0000000001
 40
0.0
 40
0.0
 40
0.0
 40
0.0
 40
0.0150786085
 40
0.0367439552
 40
0.0661185856
 40
0.1033003443
 40
0.1999382842
 40
0.3235047865
 40
0.4701132874
 40
0.6354273765
 40
1.0
 40
1.0
 40
1.0
 40
1.0
 10
256.0417285331
 20
190.373273033
 30
0.0
 10
256.0417285331
 20
190.3969085155
 30
0.0
 10
256.0648579028
 20
190.4530956886
 30
0.0
 10
256.1335834458
 20
190.5308157579
 30
0.0
 10
256.2405258336
 20
190.6193832175
 30
0.0
 10
256.4539217516
 20
190.7608111393
 30
0.0
 10
256.8141364517
 20
190.9450398043
 30
0.0
 10
257.3485304403
 20
191.1586061864
 30
0.0
 10
258.0020666554
 20
191.3587549492
 30
0.0
 10
259.0382609649
 20
191.5874707544
 30
0.0
 10
259.8703121896
 20
191.6653253265
 30
0.0
 10
260.4417285331
 20
191.6725387898
 30
0.0
  0
SPLINE
  5
299
100
AcDbEntity
  8
0
100
AcDbSpline
 62
7
  6
CONTINUOUS
 70
0
 71
3
 72
9
 73
5
 74
0
 42
0.0000001
 43
0.0000001
 44
0.0000000001
 40
0.0
 40
0.0
 40
0.0
 40
0.0
 40
0.2674093394
 40
1.0
 40
1.0
 40
1.0
 40
1.0
 10
256.7498594622
 20
112.3696698422
 30
0.0
 10
256.6379699793
 20
112.1999324683
 30
0.0
 10
256.2595298244
 20
111.5417542242
 30
0.0
 10
256.0417285331
 20
110.7762585957
 30
0.0
 10
256.0417285331
 20
110.2193067082
 30
0.0
  0
SPLINE
  5
29A
100
AcDbEntity
  8
0
100
AcDbSpline
 62
7
  6
CONTINUOUS
 70
0
 71
3
 72
9
 73
5
 74
0
 42
0.0000001
 43
0.0000001
 44
0.0000000001
 40
0.0
 40
0.0
 40
0.0
 40
0.0
 40
0.2447210426
 40
1.0
 40
1.0
 40
1.0
 40
1.0
 10
249.2660639602
 20
134.7072354348
 30
0.0
 10
249.4104189977
 20
134.6927783547
 30
0.0
 10
250.0008470663
 20
134.6395649659
 30
0.0
 10
250.5939790086
 20
134.6145346101
 30
0.0
 10
251.0417285331
 20
134.6145346101
 30
0.0
  0
SPLINE
  5
29B
100
AcDbEntity
  8
KONSTRUKTIONSELEMENTE
100
AcDbSpline
 62
7
  6
CONTINUOUS
 70
0
 71
3
 72
10
 73
6
 74
0
 42
0.0000001
 43
0.0000001
 44
0.0000000001
 40
0.0
 40
0.0
 40
0.0
 40
0.0
 40
0.2500232158
 40
0.5000470183
 40
1.0
 40
1.0
 40
1.0
 40
1.0
 10
276.3721880638
 20
161.7902861825
 30
0.0
 10
276.3721880638
 20
161.1223362633
 30
0.0
 10
276.3583117478
 20
159.7863274261
 30
0.0
 10
276.2690766978
 20
157.1163484178
 30
0.0
 10
276.1157745909
 20
155.1159679493
 30
0.0
 10
275.9489443932
 20
153.7907777387
 30
0.0
  0
SPLINE
  5
29C
100
AcDbEntity
  8
0
100
AcDbSpline
 62
7
  6
CONTINUOUS
 70
0
 71
3
 72
13
 73
9
 74
0
 42
0.0000001
 43
0.0000001
 44
0.0000000001
 40
0.0
 40
0.0
 40
0.0
 40
0.0
 40
0.0942169007
 40
0.1965828687
 40
0.3084031186
 40
0.4299185242
 40
0.6996564944
 40
1.0
 40
1.0
 40
1.0
 40
1.0
 10
245.441730488
 20
136.9661429258
 30
0.0
 10
245.4416933709
 20
137.1090701722
 30
0.0
 10
245.4791050347
 20
137.4079175129
 30
0.0
 10
245.6303382703
 20
137.8531470725
 30
0.0
 10
245.8718940903
 20
138.3037253788
 30
0.0
 10
246.3230645879
 20
138.9216399353
 30
0.0
 10
247.0927337441
 20
139.6480629172
 30
0.0
 10
247.8362118141
 20
140.1033918309
 30
0.0
 10
248.2470159403
 20
140.3004481
 30
0.0
  0
SPLINE
  5
29D
100
AcDbEntity
  8
0
100
AcDbSpline
 62
7
  6
CONTINUOUS
 70
0
 71
3
 72
15
 73
11
 74
0
 42
0.0000001
 43
0.0000001
 44
0.0000000001
 40
0.0
 40
0.0
 40
0.0
 40
0.0
 40
0.1008944904
 40
0.2034144045
 40
0.3119930153
 40
0.4301164127
 40
0.5593950166
 40
0.6992918265
 40
0.8473959305
 40
1.0
 40
1.0
 40
1.0
 40
1.0
 10
256.0417285331
 20
139.3370763547
 30
0.0
 10
256.0417285331
 20
139.5314450964
 30
0.0
 10
256.0939137303
 20
139.9256459694
 30
0.0
 10
256.3376271065
 20
140.4831517686
 30
0.0
 10
256.7405156645
 20
140.9817762782
 30
0.0
 10
257.2874670011
 20
141.4040003676
 30
0.0
 10
257.9582944568
 20
141.7392773005
 30
0.0
 10
258.7282657762
 20
141.9801810917
 30
0.0
 10
259.5674354128
 20
142.1217087462
 30
0.0
 10
260.1477707264
 20
142.1478105906
 30
0.0
 10
260.4417285331
 20
142.1438163082
 30
0.0
  0
SPLINE
  5
29E
100
AcDbEntity
  8
KONSTRUKTIONSELEMENTE
100
AcDbSpline
 62
7
  6
CONTINUOUS
 70
0
 71
3
 72
9
 73
5
 74
0
 42
0.0000001
 43
0.0000001
 44
0.0000000001
 40
0.0
 40
0.0
 40
0.0
 40
0.0
 40
0.4999967308
 40
1.0
 40
1.0
 40
1.0
 40
1.0
 10
276.238025831
 20
172.1835926843
 30
0.0
 10
276.28605803
 20
171.5192995379
 30
0.0
 10
276.3520551632
 20
170.1884608491
 30
0.0
 10
276.3721880638
 20
168.8563222763
 30
0.0
 10
276.3721880638
 20
168.1902861825
 30
0.0
  0
SPLINE
  5
29F
100
AcDbEntity
  8
KONSTRUKTIONSELEMENTE
100
AcDbSpline
 62
7
  6
CONTINUOUS
 70
0
 71
3
 72
11
 73
7
 74
0
 42
0.0000001
 43
0.0000001
 44
0.0000000001
 40
0.0
 40
0.0
 40
0.0
 40
0.0
 40
0.2715512389
 40
0.5340481273
 40
0.7792531253
 40
1.0
 40
1.0
 40
1.0
 40
1.0
 10
275.9489443932
 20
153.7907777387
 30
0.0
 10
275.7926820129
 20
152.5495313728
 30
0.0
 10
275.4345345382
 20
150.1144919271
 30
0.0
 10
274.7587343285
 20
146.5874170704
 30
0.0
 10
273.9730632646
 20
143.3234101327
 30
0.0
 10
273.3599841789
 20
141.2645963476
 30
0.0
 10
273.0364411258
 20
140.3004481
 30
0.0
  0
SPLINE
  5
2A0
100
AcDbEntity
  8
KONSTRUKTIONSELEMENTE
100
AcDbSpline
 62
7
  6
CONTINUOUS
 70
0
 71
3
 72
13
 73
9
 74
0
 42
0.0000001
 43
0.0000001
 44
0.0000000001
 40
0.0
 40
0.0
 40
0.0
 40
0.0
 40
0.0942169007
 40
0.1965828687
 40
0.3084031186
 40
0.4299185242
 40
0.6996564944
 40
1.0
 40
1.0
 40
1.0
 40
1.0
 10
275.8417265782
 20
136.9661429258
 30
0.0
 10
275.8417636952
 20
137.1090701722
 30
0.0
 10
275.8043520314
 20
137.4079175129
 30
0.0
 10
275.6531187958
 20
137.8531470725
 30
0.0
 10
275.4115629759
 20
138.3037253788
 30
0.0
 10
274.9603924782
 20
138.9216399353
 30
0.0
 10
274.190723322
 20
139.6480629172
 30
0.0
 10
273.447245252
 20
140.1033918309
 30
0.0
 10
273.0364411258
 20
140.3004481
 30
0.0
  0
SPLINE
  5
2A1
100
AcDbEntity
  8
KONSTRUKTIONSELEMENTE
100
AcDbSpline
 62
7
  6
CONTINUOUS
 70
0
 71
3
 72
15
 73
11
 74
0
 42
0.0000001
 43
0.0000001
 44
0.0000000001
 40
0.0
 40
0.0
 40
0.0
 40
0.0
 40
0.1008944904
 40
0.2034144045
 40
0.3119930153
 40
0.4301164127
 40
0.5593950166
 40
0.6992918265
 40
0.8473959305
 40
1.0
 40
1.0
 40
1.0
 40
1.0
 10
265.2417285331
 20
139.3370763547
 30
0.0
 10
265.2417285331
 20
139.5314450964
 30
0.0
 10
265.1895433358
 20
139.9256459694
 30
0.0
 10
264.9458299596
 20
140.4831517686
 30
0.0
 10
264.5429414016
 20
140.9817762782
 30
0.0
 10
263.995990065
 20
141.4040003676
 30
0.0
 10
263.3251626093
 20
141.7392773005
 30
0.0
 10
262.5551912899
 20
141.9801810917
 30
0.0
 10
261.7160216533
 20
142.1217087462
 30
0.0
 10
261.1356863397
 20
142.1478105906
 30
0.0
 10
260.8417285331
 20
142.1438163082
 30
0.0
  0
SPLINE
  5
2A2
100
AcDbEntity
  8
KONSTRUKTIONSELEMENTE
100
AcDbSpline
 62
7
  6
CONTINUOUS
 70
0
 71
3
 72
11
 73
7
 74
0
 42
0.0000001
 43
0.0000001
 44
0.0000000001
 40
0.0
 40
0.0
 40
0.0
 40
0.0
 40
0.2493729093
 40
0.4990055053
 40
0.7520479459
 40
1.0
 40
1.0
 40
1.0
 40
1.0
 10
265.2417285331
 20
131.9271240925
 30
0.0
 10
265.8582480606
 20
131.7245959693
 30
0.0
 10
267.061647316
 20
131.2099186716
 30
0.0
 10
268.6416220089
 20
130.0106158539
 30
0.0
 10
269.7677025507
 20
128.3695605388
 30
0.0
 10
270.0734597091
 20
127.0568084325
 30
0.0
 10
270.0734597091
 20
126.4115729198
 30
0.0
  0
SPLINE
  5
2A3
100
AcDbEntity
  8
0
100
AcDbSpline
 62
7
  6
CONTINUOUS
 70
0
 71
3
 72
9
 73
5
 74
0
 42
0.0000001
 43
0.0000001
 44
0.0000000001
 40
0.0
 40
0.0
 40
0.0
 40
0.0
 40
0.465085372
 40
1.0
 40
1.0
 40
1.0
 40
1.0
 10
248.1722626824
 20
184.3284296863
 30
0.0
 10
247.8969943453
 20
183.8848375802
 30
0.0
 10
247.3197546634
 20
182.9217415185
 30
0.0
 10
246.8022221579
 20
181.9242691199
 30
0.0
 10
246.5468503438
 20
181.3808377048
 30
0.0
  0
SPLINE
  5
2A4
100
AcDbEntity
  8
0
100
AcDbSpline
 62
7
  6
CONTINUOUS
 70
0
 71
3
 72
9
 73
5
 74
0
 42
0.0000001
 43
0.0000001
 44
0.0000000001
 40
0.0
 40
0.0
 40
0.0
 40
0.0
 40
0.2382296495
 40
1.0
 40
1.0
 40
1.0
 40
1.0
 10
246.5468503438
 20
181.3808377048
 30
0.0
 10
246.43583242
 20
181.1445914763
 30
0.0
 10
246.0112258374
 20
180.1337790534
 30
0.0
 10
245.751140828
 20
179.0555562266
 30
0.0
 10
245.6439741368
 20
178.2277833967
 30
0.0
  0
SPLINE
  5
2A5
100
AcDbEntity
  8
0
100
AcDbSpline
 62
7
  6
CONTINUOUS
 70
0
 71
3
 72
9
 73
5
 74
0
 42
0.0000001
 43
0.0000001
 44
0.0000000001
 40
0.0
 40
0.0
 40
0.0
 40
0.0
 40
0.4881933583
 40
1.0
 40
1.0
 40
1.0
 40
1.0
 10
245.6439741368
 20
178.2277833967
 30
0.0
 10
245.5170600656
 20
177.2474786146
 30
0.0
 10
245.2908172021
 20
175.2350151571
 30
0.0
 10
245.120166396
 20
173.21719215
 30
0.0
 10
245.0454312351
 20
172.1835926843
 30
0.0
  0
SPLINE
  5
2A6
100
AcDbEntity
  8
0
100
AcDbSpline
 62
7
  6
CONTINUOUS
 70
0
 71
3
 72
9
 73
5
 74
0
 42
0.0000001
 43
0.0000001
 44
0.0000000001
 40
0.0
 40
0.0
 40
0.0
 40
0.0
 40
0.4999967308
 40
1.0
 40
1.0
 40
1.0
 40
1.0
 10
245.0454312351
 20
172.1835926843
 30
0.0
 10
244.9973990361
 20
171.5192995379
 30
0.0
 10
244.9314019029
 20
170.1884608491
 30
0.0
 10
244.9112690023
 20
168.8563222763
 30
0.0
 10
244.9112690023
 20
168.1902861825
 30
0.0
  0
SPLINE
  5
2A7
100
AcDbEntity
  8
0
100
AcDbSpline
 62
7
  6
CONTINUOUS
 70
0
 71
3
 72
10
 73
6
 74
0
 42
0.0000001
 43
0.0000001
 44
0.0000000001
 40
0.0
 40
0.0
 40
0.0
 40
0.0
 40
0.2500232158
 40
0.5000470183
 40
1.0
 40
1.0
 40
1.0
 40
1.0
 10
244.9112690023
 20
161.7902861825
 30
0.0
 10
244.9112690023
 20
161.1223362633
 30
0.0
 10
244.9251453183
 20
159.7863274261
 30
0.0
 10
245.0143803683
 20
157.1163484178
 30
0.0
 10
245.1676824752
 20
155.1159679493
 30
0.0
 10
245.3345126729
 20
153.7907777387
 30
0.0
  0
SPLINE
  5
2A8
100
AcDbEntity
  8
0
100
AcDbSpline
 62
7
  6
CONTINUOUS
 70
0
 71
3
 72
11
 73
7
 74
0
 42
0.0000001
 43
0.0000001
 44
0.0000000001
 40
0.0
 40
0.0
 40
0.0
 40
0.0
 40
0.2715512389
 40
0.5340481273
 40
0.7792531253
 40
1.0
 40
1.0
 40
1.0
 40
1.0
 10
245.3345126729
 20
153.7907777387
 30
0.0
 10
245.4907750532
 20
152.5495313728
 30
0.0
 10
245.8489225279
 20
150.1144919271
 30
0.0
 10
246.5247227376
 20
146.5874170704
 30
0.0
 10
247.3103938015
 20
143.3234101327
 30
0.0
 10
247.9234728872
 20
141.2645963476
 30
0.0
 10
248.2470159403
 20
140.3004481
 30
0.0
  0
SPLINE
  5
2A9
100
AcDbEntity
  8
0
100
AcDbSpline
 62
7
  6
CONTINUOUS
 70
0
 71
3
 72
11
 73
7
 74
0
 42
0.0000001
 43
0.0000001
 44
0.0000000001
 40
0.0
 40
0.0
 40
0.0
 40
0.0
 40
0.2493729093
 40
0.4990055053
 40
0.7520479459
 40
1.0
 40
1.0
 40
1.0
 40
1.0
 10
256.0417285331
 20
131.9271240925
 30
0.0
 10
255.4252090055
 20
131.7245959693
 30
0.0
 10
254.2218097501
 20
131.2099186716
 30
0.0
 10
252.6418350572
 20
130.0106158539
 30
0.0
 10
251.5157545154
 20
128.3695605388
 30
0.0
 10
251.209997357
 20
127.0568084325
 30
0.0
 10
251.209997357
 20
126.4115729198
 30
0.0
  0
SPLINE
  5
2AA
100
AcDbEntity
  8
BEZUGSACHSEN
100
AcDbSpline
 62
7
  6
CONTINUOUS
 70
0
 71
3
 72
15
 73
11
 74
0
 42
0.0000001
 43
0.0000001
 44
0.0000000001
 40
0.0
 40
0.0
 40
0.0
 40
0.0
 40
0.1574202303
 40
0.3004844847
 40
0.428872989
 40
0.5441147717
 40
0.6508183627
 40
0.7569634531
 40
0.8714153961
 40
1.0
 40
1.0
 40
1.0
 40
1.0
 10
263.2118434623
 20
134.4902826952
 30
0.0
 10
263.3599984476
 20
134.490385693
 30
0.0
 10
263.642906913
 20
134.4850045746
 30
0.0
 10
264.0453467357
 20
134.4471853428
 30
0.0
 10
264.4022337806
 20
134.3695359307
 30
0.0
 10
264.7085988392
 20
134.2405115385
 30
0.0
 10
264.955585936
 20
134.0476346882
 30
0.0
 10
265.1294947091
 20
133.7871467968
 30
0.0
 10
265.2253216267
 20
133.4689722912
 30
0.0
 10
265.2417285331
 20
133.2393748847
 30
0.0
 10
265.2417285331
 20
133.1183583249
 30
0.0
  0
SPLINE
  5
2AB
100
AcDbEntity
  8
KONSTRUKTIONSELEMENTE
100
AcDbSpline
 62
7
  6
CONTINUOUS
 70
0
 71
3
 72
9
 73
5
 74
0
 42
0.0000001
 43
0.0000001
 44
0.0000000001
 40
0.0
 40
0.0
 40
0.0
 40
0.0
 40
0.232508389
 40
1.0
 40
1.0
 40
1.0
 40
1.0
 10
273.0364411258
 20
140.3004481
 30
0.0
 10
272.8299048725
 20
140.119307804
 30
0.0
 10
271.9276123315
 20
139.3561237522
 30
0.0
 10
270.9787510692
 20
138.6499173612
 30
0.0
 10
270.2417285331
 20
138.121605067
 30
0.0
  0
SPLINE
  5
2AC
100
AcDbEntity
  8
KONSTRUKTIONSELEMENTE
100
AcDbSpline
 62
7
  6
CONTINUOUS
 70
0
 71
3
 72
9
 73
5
 74
0
 42
0.0000001
 43
0.0000001
 44
0.0000000001
 40
0.0
 40
0.0
 40
0.0
 40
0.0
 40
0.4881933583
 40
1.0
 40
1.0
 40
1.0
 40
1.0
 10
275.6394829293
 20
178.2277833967
 30
0.0
 10
275.7663970005
 20
177.2474786146
 30
0.0
 10
275.9926398641
 20
175.2350151571
 30
0.0
 10
276.1632906701
 20
173.21719215
 30
0.0
 10
276.238025831
 20
172.1835926843
 30
0.0
  0
SPLINE
  5
2AD
100
AcDbEntity
  8
KONSTRUKTIONSELEMENTE
100
AcDbSpline
 62
7
  6
CONTINUOUS
 70
0
 71
3
 72
9
 73
5
 74
0
 42
0.0000001
 43
0.0000001
 44
0.0000000001
 40
0.0
 40
0.0
 40
0.0
 40
0.0
 40
0.2382296495
 40
1.0
 40
1.0
 40
1.0
 40
1.0
 10
274.7366067223
 20
181.3808377048
 30
0.0
 10
274.8476246461
 20
181.1445914763
 30
0.0
 10
275.2722312287
 20
180.1337790534
 30
0.0
 10
275.5323162381
 20
179.0555562266
 30
0.0
 10
275.6394829293
 20
178.2277833967
 30
0.0
  0
SPLINE
  5
2AE
100
AcDbEntity
  8
0
100
AcDbSpline
 62
7
  6
CONTINUOUS
 70
0
 71
3
 72
9
 73
5
 74
0
 42
0.0000001
 43
0.0000001
 44
0.0000000001
 40
0.0
 40
0.0
 40
0.0
 40
0.0
 40
0.232508389
 40
1.0
 40
1.0
 40
1.0
 40
1.0
 10
248.2470159403
 20
140.3004481
 30
0.0
 10
248.4535521936
 20
140.119307804
 30
0.0
 10
249.3558447346
 20
139.3561237522
 30
0.0
 10
250.3047059969
 20
138.6499173612
 30
0.0
 10
251.0417285331
 20
138.121605067
 30
0.0
  0
SPLINE
  5
2AF
100
AcDbEntity
  8
KONSTRUKTIONSELEMENTE
100
AcDbSpline
 62
7
  6
CONTINUOUS
 70
0
 71
3
 72
9
 73
5
 74
0
 42
0.0000001
 43
0.0000001
 44
0.0000000001
 40
0.0
 40
0.0
 40
0.0
 40
0.0
 40
0.465085372
 40
1.0
 40
1.0
 40
1.0
 40
1.0
 10
273.1111943837
 20
184.3284296863
 30
0.0
 10
273.3864627208
 20
183.8848375802
 30
0.0
 10
273.9637024027
 20
182.9217415185
 30
0.0
 10
274.4812349082
 20
181.9242691199
 30
0.0
 10
274.7366067223
 20
181.3808377048
 30
0.0
  0
ELLIPSE
  5
2B0
100
AcDbEntity
  8
KONSTRUKTIONSELEMENTE
100
AcDbEllipse
 62
7
  6
CONTINUOUS
 10
260.8417285331
 20
109.6654885911
 30
0.0
 11
0.0
 21
4.9705822948
 31
0.0
 40
0.8852081585
 41
-0.9955552139
 42
-0.0
  0
ELLIPSE
  5
2B1
100
AcDbEntity
  8
0
100
AcDbEllipse
 62
7
  6
CONTINUOUS
 10
260.6417285331
 20
175.5165599633
 30
0.0
 11
0.0
 21
-16.1572411603
 31
0.0
 40
0.9902680687
 41
3.129092328
 42
3.1540929791
  0
ELLIPSE
  5
2B2
100
AcDbEntity
  8
0
100
AcDbEllipse
 62
7
  6
CONTINUOUS
 10
260.4417285331
 20
109.6654885911
 30
0.0
 11
0.0
 21
4.9705822948
 31
0.0
 40
0.8852081585
 41
0.0
 42
0.9955552139
  0
ELLIPSE
  5
2B3
100
AcDbEntity
  8
0
100
AcDbEllipse
 62
7
  6
CONTINUOUS
 10
260.6417285331
 20
171.3387203535
 30
0.0
 11
-0.0
 21
20.7304890682
 31
0.0
 40
0.7718100594
 41
-0.8936144032
 42
0.8936144032
  0
ENDSEC
  0
SECTION
  2
OBJECTS
  0
DICTIONARY
  5
C
100
AcDbDictionary
280
0
281
1
  3
ACAD_GROUP
350
D
  3
ACAD_MLINESTYLE
350
17
  3
ACAD_LAYOUT
350
1A
  3
ACAD_PLOTSETTINGS
350
19
  3
ACAD_PLOTSTYLENAME
350
E
  0
DICTIONARY
  5
D
102
{ACAD_REACTORS
330
C
102
}
100
AcDbDictionary
280
0
281
1
  0
ACDBDICTIONARYWDFLT
  5
E
102
{ACAD_REACTORS
330
C
102
}
100
AcDbDictionary
281
1
  3
Normal
350
F
100
AcDbDictionaryWithDefault
340
F
  0
DICTIONARY
  5
17
102
{ACAD_REACTORS
330
C
102
}
100
AcDbDictionary
280
0
281
1
  3
Standard
350
18
  0
DICTIONARY
  5
19
102
{ACAD_REACTORS
330
C
102
}
100
AcDbDictionary
281
1
  0
DICTIONARY
  5
1A
102
{ACAD_REACTORS
330
C
102
}
100
AcDbDictionary
281
1
  3
Model
350
2B4
  3
Layout1
350
2B5
  0
ACDBPLACEHOLDER
  5
F
102
{ACAD_REACTORS
330
E
102
}
  0
MLINESTYLE
  5
18
102
{ACAD_REACTORS
330
17
102
}
100
AcDbMlineStyle
  2
STANDARD
 70
0
  3

 62
256
 51
90.0
 52
90.0
 71
2
 49
0.5
 62
256
  6
BYLAYER
 49
-0.5
 62
256
  6
BYLAYER
  0
LAYOUT
  5
2B4
102
{ACAD_REACTORS
330
1A
102
}
100
AcDbPlotSettings
  1

  2
none_device
  4
ISO_A3_(420.00_x_297.00_MM)
  6

 40
0.0
 41
0.0
 42
0.0
 43
0.0
 44
420.0
 45
297.0
 46
0.0
 47
0.0
 48
0.0
 49
0.0
140
0.0
141
0.0
142
1.0
143
1.0
 70
1024
 72
1
 73
0
 74
0
  7

 75
0
147
1.0
148
0.0
149
0.0
100
AcDbLayout
  1
Model
 70
0
 71
0
 10
0.0
 20
0.0
 11
420.0
 21
297.0
 12
0.0
 22
0.0
 32
0.0
 14
0.0
 24
0.0
 34
0.0
 15
0.0
 25
0.0
 35
0.0
146
0.0
 13
0.0
 23
0.0
 33
0.0
 16
1.0
 26
0.0
 36
0.0
 17
0.0
 27
1.0
 37
0.0
 76
0
330
208
345
0
346
0
  0
LAYOUT
  5
2B5
102
{ACAD_REACTORS
330
1A
102
}
100
AcDbPlotSettings
  1

  2
none_device
  4
ISO_A3_(420.00_x_297.00_MM)
  6

 40
0.0
 41
0.0
 42
0.0
 43
0.0
 44
420.0
 45
297.0
 46
0.0
 47
0.0
 48
0.0
 49
0.0
140
0.0
141
0.0
142
1.0
143
1.0
 70
0
 72
1
 73
0
 74
0
  7

 75
0
147
1.0
148
0.0
149
0.0
100
AcDbLayout
  1
Layout1
 70
0
 71
1
 10
0.0
 20
0.0
 11
420.0
 21
297.0
 12
0.0
 22
0.0
 32
0.0
 14
0.0
 24
0.0
 34
0.0
 15
0.0
 25
0.0
 35
0.0
146
0.0
 13
0.0
 23
0.0
 33
0.0
 16
1.0
 26
0.0
 36
0.0
 17
0.0
 27
1.0
 37
0.0
 76
0
330
209
345
0
346
0
  0
ENDSEC
  0
EOF
