999
DXF file: IMVK-6_7900985_M34235-P-1.dxf
999
Pro/ENGINEER 2010140 by Parametric Technology Corporation
  0
SECTION
  2
HEADER
  9
$ACADVER
  1
AC1015
  9
$DWGCODEPAGE
  3
ANSI_1252
  9
$EXTMAX
 10
297.0
 20
210.0
 30
0.0
  9
$EXTMIN
 10
0.0
 20
0.0
 30
0.0
  9
$LIMMIN
 10
0.0
 20
0.0
  9
$LIMMAX
 10
297.0
 20
210.0
  9
$VIEWCTR
 10
148.5
 20
105.0
  9
$VIEWSIZE
 40
210.0
  9
$CLAYER
  8
0
  9
$LTSCALE
 40
16.335
  9
$CELTYPE
  6
BYLAYER
  9
$DIMSCALE
 40
1.0
  9
$DIMASZ
 40
3.5
  9
$DIMEXO
 40
1.85625
  9
$DIMDLI
 40
11.286
  9
$DIMEXE
 40
5.346
  9
$DIMCEN
 40
2.673
  9
$DIMLFAC
 40
1.0
  9
$DIMBLK
  1
_FILLED
  9
$DIMTXT
 40
3.5
  9
$DIMTOL
 70
1
  9
$DIMLIM
 70
0
  9
$DIMTFAC
 40
1.0
  9
$DIMTP
 40
0.005
  9
$DIMTM
 40
0.005
  9
$PDMODE
 70
3
  9
$PDSIZE
 40
0.3125
  9
$HANDSEED
  5
2AA
  9
$TILEMODE
 70
1
  9
$MEASUREMENT
 70
1
  9
$INSUNITS
 70
4
  0
ENDSEC
  0
SECTION
  2
CLASSES
  0
CLASS
  1
ACDBDICTIONARYWDFLT
  2
AcDbDictionaryWithDefault
  3
AutoCAD 2000
 90
0
280
0
281
0
  0
CLASS
  1
ACDBPLACEHOLDER
  2
AcDbPlaceHolder
  3
AutoCAD 2000
 90
0
280
0
281
0
  0
CLASS
  1
LAYOUT
  2
AcDbLayout
  3
AutoCAD 2000
 90
0
280
0
281
0
  0
ENDSEC
  0
SECTION
  2
TABLES
  0
TABLE
  2
VPORT
  5
8
100
AcDbSymbolTable
 70
2
  0
VPORT
  5
1F4
100
AcDbSymbolTableRecord
100
AcDbViewportTableRecord
  2
*ACTIVE
 70
0
 10
0.0
 20
0.0
 11
1.0
 21
1.0
 12
148.5
 22
105.0
 13
0.0
 23
0.0
 14
1.0
 24
1.0
 15
0.0
 25
0.0
 16
0.0
 26
0.0
 36
1.0
 17
0.0
 27
0.0
 37
0.0
 40
210.0
 41
1.4142857143
 42
50.0
 43
0.0
 44
0.0
 50
0.0
 51
0.0
 71
0
 72
100
 73
1
 74
1
 75
0
 76
0
 77
0
 78
0
  0
ENDTAB
  0
TABLE
  2
LTYPE
  5
5
100
AcDbSymbolTable
 70
6
  0
LTYPE
  5
14
100
AcDbSymbolTableRecord
100
AcDbLinetypeTableRecord
  2
BYBLOCK
 70
0
  3

 72
65
 73
0
 40
0.0
  0
LTYPE
  5
15
100
AcDbSymbolTableRecord
100
AcDbLinetypeTableRecord
  2
BYLAYER
 70
0
  3

 72
65
 73
0
 40
0.0
  0
LTYPE
  5
16
100
AcDbSymbolTableRecord
100
AcDbLinetypeTableRecord
  2
CONTINUOUS
 70
64
  3
Solid line
 72
65
 73
0
 40
0.0
  0
LTYPE
  5
1F5
100
AcDbSymbolTableRecord
100
AcDbLinetypeTableRecord
  2
CENTER
 70
64
  3
____ _ ____ _ ____ _ ____ _ ____ _ ____ _ ____
 72
65
 73
4
 40
0.6
 49
0.375
 74
0
 49
-0.075
 74
0
 49
0.075
 74
0
 49
-0.075
 74
0
  0
LTYPE
  5
1F6
100
AcDbSymbolTableRecord
100
AcDbLinetypeTableRecord
  2
HIDDEN
 70
64
  3
- - - - - - - - - - - - - - - - - - - -
 72
65
 73
2
 40
0.2
 49
0.1
 74
0
 49
-0.1
 74
0
  0
LTYPE
  5
1F7
100
AcDbSymbolTableRecord
100
AcDbLinetypeTableRecord
  2
PHANTOM
 70
64
  3
_____ _ _ _____ _ _ _____ _ _ _____
 72
65
 73
6
 40
0.8
 49
0.45
 74
0
 49
-0.05
 74
0
 49
0.1
 74
0
 49
-0.05
 74
0
 49
0.1
 74
0
 49
-0.05
 74
0
  0
LTYPE
  5
1F8
100
AcDbSymbolTableRecord
100
AcDbLinetypeTableRecord
  2
DOT
 70
64
  3
. . . . . . . . . . . . . . . . . . . .
 72
65
 73
2
 40
0.2
 49
0.1
 74
0
 49
-0.1
 74
0
  0
LTYPE
  5
1F9
100
AcDbSymbolTableRecord
100
AcDbLinetypeTableRecord
  2
DASHED
 70
64
  3
- - - - - - - - - - - - - - - - - - - -
 72
65
 73
2
 40
0.2
 49
0.1
 74
0
 49
-0.1
 74
0
  0
ENDTAB
  0
TABLE
  2
LAYER
  5
2
100
AcDbSymbolTable
 70
36
  0
LAYER
  5
10
100
AcDbSymbolTableRecord
100
AcDbLayerTableRecord
  2
0
 70
0
 62
7
  6
CONTINUOUS
370
-3
390
F
  0
LAYER
  5
1FA
100
AcDbSymbolTableRecord
100
AcDbLayerTableRecord
  2
DEFAULT_1
 70
0
 62
7
  6
CENTER
370
-3
390
F
  0
LAYER
  5
1FB
100
AcDbSymbolTableRecord
100
AcDbLayerTableRecord
  2
DEFAULT_2
 70
0
 62
8
  6
HIDDEN
370
-3
390
F
  0
LAYER
  5
1FC
100
AcDbSymbolTableRecord
100
AcDbLayerTableRecord
  2
DEFAULT_3
 70
0
 62
7
  6
PHANTOM
370
-3
390
F
  0
LAYER
  5
1FD
100
AcDbSymbolTableRecord
100
AcDbLayerTableRecord
  2
AUSFORMSCHRAEGEN
 70
0
 62
7
  6
CONTINUOUS
370
-3
390
F
  0
LAYER
  5
1FE
100
AcDbSymbolTableRecord
100
AcDbLayerTableRecord
  2
BEZUGSACHSEN
 70
0
 62
7
  6
CONTINUOUS
370
-3
390
F
  0
LAYER
  5
1FF
100
AcDbSymbolTableRecord
100
AcDbLayerTableRecord
  2
BEZUGSEBENEN
 70
0
 62
7
  6
CONTINUOUS
370
-3
390
F
  0
LAYER
  5
200
100
AcDbSymbolTableRecord
100
AcDbLayerTableRecord
  2
BOHRUNGEN
 70
0
 62
7
  6
CONTINUOUS
370
-3
390
F
  0
LAYER
  5
201
100
AcDbSymbolTableRecord
100
AcDbLayerTableRecord
  2
FLAECHENVERBUND
 70
0
 62
7
  6
CONTINUOUS
370
-3
390
F
  0
LAYER
  5
202
100
AcDbSymbolTableRecord
100
AcDbLayerTableRecord
  2
HILFEN
 70
0
 62
7
  6
CONTINUOUS
370
-3
390
F
  0
LAYER
  5
203
100
AcDbSymbolTableRecord
100
AcDbLayerTableRecord
  2
KONSTRUKTIONSELEMENTE
 70
0
 62
7
  6
CONTINUOUS
370
-3
390
F
  0
LAYER
  5
204
100
AcDbSymbolTableRecord
100
AcDbLayerTableRecord
  2
KURVEN
 70
0
 62
7
  6
CONTINUOUS
370
-3
390
F
  0
LAYER
  5
205
100
AcDbSymbolTableRecord
100
AcDbLayerTableRecord
  2
MESSBEREICH
 70
0
 62
7
  6
CONTINUOUS
370
-3
390
F
  0
LAYER
  5
206
100
AcDbSymbolTableRecord
100
AcDbLayerTableRecord
  2
PLAZIERUNG
 70
0
 62
7
  6
CONTINUOUS
370
-3
390
F
  0
LAYER
  5
207
100
AcDbSymbolTableRecord
100
AcDbLayerTableRecord
  2
RUNDUNGEN
 70
0
 62
7
  6
CONTINUOUS
370
-3
390
F
  0
LAYER
  5
208
100
AcDbSymbolTableRecord
100
AcDbLayerTableRecord
  2
TEIL_STARTBEZUEGE
 70
0
 62
7
  6
CONTINUOUS
370
-3
390
F
  0
LAYER
  5
209
100
AcDbSymbolTableRecord
100
AcDbLayerTableRecord
  2
ZEICHNUNGSBEMASSUNGEN
 70
0
 62
7
  6
CONTINUOUS
370
-3
390
F
  0
ENDTAB
  0
TABLE
  2
STYLE
  5
3
100
AcDbSymbolTable
 70
1
  0
STYLE
  5
11
100
AcDbSymbolTableRecord
100
AcDbTextStyleTableRecord
  2
STANDARD
 70
0
 40
0.0
 41
0.7
 50
0.0
 71
0
 42
0.2
  3
txt
  4

  0
STYLE
  5
20A
100
AcDbSymbolTableRecord
100
AcDbTextStyleTableRecord
  2
TEXTSTYLE_1
 70
0
 40
0.0
 41
0.8
 50
0.0
 71
0
 42
0.2
  3
gdt
  4

  0
ENDTAB
  0
TABLE
  2
VIEW
  5
6
100
AcDbSymbolTable
 70
0
  0
ENDTAB
  0
TABLE
  2
UCS
  5
7
100
AcDbSymbolTable
 70
0
  0
ENDTAB
  0
TABLE
  2
APPID
  5
9
100
AcDbSymbolTable
 70
1
  0
APPID
  5
20B
100
AcDbSymbolTableRecord
100
AcDbRegAppTableRecord
  2
ACAD
 70
0
  0
ENDTAB
  0
TABLE
  2
BLOCK_RECORD
  5
1
100
AcDbSymbolTable
 70
0
  0
BLOCK_RECORD
  5
20C
100
AcDbSymbolTableRecord
100
AcDbBlockTableRecord
  2
*Model_Space
  0
BLOCK_RECORD
  5
20D
100
AcDbSymbolTableRecord
100
AcDbBlockTableRecord
  2
*Paper_Space
  0
ENDTAB
  0
TABLE
  2
DIMSTYLE
  5
A
100
AcDbSymbolTable
 70
1
100
AcDbDimStyleTable
 71
0
  0
DIMSTYLE
105
20E
100
AcDbSymbolTableRecord
100
AcDbDimStyleTableRecord
  2
STANDARD
 70
0
  3

  4

 40
1.0
 41
3.5
 42
0.0625
 43
0.38
 44
0.18
 45
0.0
 46
0.0
 47
0.005
 48
0.005
140
3.5
141
0.09
142
0.0
143
25.4
144
1.0
145
0.0
146
1.0
147
0.09
 71
1.0
 72
0.0
 73
0
 74
0
 75
0
 76
0
 77
1
 78
8
170
0
171
2
172
0
173
0
174
0
175
0
176
0
177
0
178
5
270
2
271
3
272
3
273
2
274
2
275
0
280
0
281
0
282
0
283
1
284
8
285
0
286
0
287
3
288
0
340
11
  0
ENDTAB
  0
ENDSEC
  0
SECTION
  2
BLOCKS
  0
BLOCK
  5
20
100
AcDbEntity
  8
0
100
AcDbBlockBegin
  2
*Model_Space
 70
0
 10
0.0
 20
0.0
 30
0.0
  3
*Model_Space
  1

  0
ENDBLK
  5
21
100
AcDbEntity
  8
0
100
AcDbBlockEnd
  0
BLOCK
  5
1C
100
AcDbEntity
  8
0
100
AcDbBlockBegin
  2
*Paper_Space
 70
0
 10
0.0
 20
0.0
 30
0.0
  3
*Paper_Space
  1

  0
ENDBLK
  5
1D
100
AcDbEntity
  8
0
100
AcDbBlockEnd
  0
ENDSEC
  0
SECTION
  2
ENTITIES
  0
MTEXT
  5
20F
100
AcDbEntity
  8
0
100
AcDbMText
 62
5
  6
CONTINUOUS
  7
STANDARD
 71
1
 72
1
 10
111.5992196268
 20
132.2637161745
 30
0.0
 11
-0.0
 21
-1.0
 31
0.0
 44
0.9
  1
RUD\PIMVK 6
 40
4.0
 41
18.7619047619
  0
MTEXT
  5
210
100
AcDbEntity
  8
0
100
AcDbMText
 62
5
  6
CONTINUOUS
  7
STANDARD
 71
1
 72
1
 10
169.9111872448
 20
94.93020794
 30
0.0
 11
0.0
 21
1.0
 31
0.0
 44
0.9
  1
RUD
 40
3.5
 41
9.3333333333
  0
MTEXT
  5
211
100
AcDbEntity
  8
0
100
AcDbMText
 62
5
  6
CONTINUOUS
  7
STANDARD
 71
1
 72
1
 10
198.4697150232
 20
89.3987348528
 30
0.0
 11
0.0
 21
1.0
 31
0.0
 44
0.9
  1
IMVK 6
 40
3.5
 41
17.0833333333
  0
LINE
  5
212
100
AcDbEntity
  8
0
100
AcDbLine
 62
7
  6
CONTINUOUS
 10
0.0
 20
0.0
 11
0.0
 21
210.0
  0
LINE
  5
213
100
AcDbEntity
  8
0
100
AcDbLine
 62
7
  6
CONTINUOUS
 10
0.0
 20
0.0
 11
297.0
 21
0.0
  0
LINE
  5
214
100
AcDbEntity
  8
0
100
AcDbLine
 62
7
  6
CONTINUOUS
 10
0.0
 20
210.0
 11
297.0
 21
210.0
  0
LINE
  5
215
100
AcDbEntity
  8
0
100
AcDbLine
 62
7
  6
CONTINUOUS
 10
297.0
 20
0.0
 11
297.0
 21
210.0
  0
LINE
  5
216
100
AcDbEntity
  8
RUNDUNGEN
100
AcDbLine
 62
7
  6
CONTINUOUS
 10
76.5038578126
 20
154.2612761754
 11
77.8455512859
 21
156.6817552742
  0
LINE
  5
217
100
AcDbEntity
  8
RUNDUNGEN
100
AcDbLine
 62
7
  6
CONTINUOUS
 10
110.3794227179
 20
93.1260015743
 11
104.9715780474
 21
94.2754744435
  0
LINE
  5
218
100
AcDbEntity
  8
KONSTRUKTIONSELEMENTE
100
AcDbLine
 62
7
  6
CONTINUOUS
 10
116.9950129934
 20
102.1443600479
 11
117.4821987557
 21
102.1443600479
  0
LINE
  5
219
100
AcDbEntity
  8
0
100
AcDbLine
 62
7
  6
CONTINUOUS
 10
87.1237925754
 20
93.4076250692
 11
91.1973266875
 21
82.2156820788
  0
LINE
  5
21A
100
AcDbEntity
  8
RUNDUNGEN
100
AcDbLine
 62
7
  6
CONTINUOUS
 10
91.1973266875
 20
82.2156820788
 11
85.6177667447
 21
97.5453970322
  0
LINE
  5
21B
100
AcDbEntity
  8
DEFAULT_2
100
AcDbLine
 62
8
  6
HIDDEN
 10
88.3305117897
 20
106.0568180091
 11
95.9765862817
 21
85.0494009949
  0
LINE
  5
21C
100
AcDbEntity
  8
DEFAULT_2
100
AcDbLine
 62
8
  6
HIDDEN
 10
86.0989805
 20
158.6723706715
 11
86.0989805
 21
148.7947002726
  0
LINE
  5
21D
100
AcDbEntity
  8
RUNDUNGEN
100
AcDbLine
 62
8
  6
HIDDEN
 10
86.0989805
 20
148.7947002726
 11
86.0989805
 21
158.6723706715
  0
LINE
  5
21E
100
AcDbEntity
  8
KONSTRUKTIONSELEMENTE
100
AcDbLine
 62
7
  6
CONTINUOUS
 10
115.9586796635
 20
107.1443600479
 11
116.4853738862
 21
107.1443600479
  0
LINE
  5
21F
100
AcDbEntity
  8
KONSTRUKTIONSELEMENTE
100
AcDbLine
 62
7
  6
CONTINUOUS
 10
115.4325238058
 20
109.1443600479
 11
115.9499676134
 21
109.1443600479
  0
LINE
  5
220
100
AcDbEntity
  8
KONSTRUKTIONSELEMENTE
100
AcDbLine
 62
7
  6
CONTINUOUS
 10
114.7363043781
 20
114.1443600479
 11
115.2420207912
 21
114.1443600479
  0
LINE
  5
221
100
AcDbEntity
  8
DEFAULT_2
100
AcDbLine
 62
8
  6
HIDDEN
 10
96.4746269297
 20
107.0714807621
 11
103.4944723025
 21
87.784614112
  0
LINE
  5
222
100
AcDbEntity
  8
RUNDUNGEN
100
AcDbLine
 62
7
  6
CONTINUOUS
 10
97.6709519899
 20
120.0778097095
 11
97.6709519899
 21
135.4943600479
  0
LINE
  5
223
100
AcDbEntity
  8
RUNDUNGEN
100
AcDbLine
 62
7
  6
CONTINUOUS
 10
113.9244206371
 20
116.3350138669
 11
101.9764075052
 21
104.387000735
  0
LINE
  5
224
100
AcDbEntity
  8
RUNDUNGEN
100
AcDbLine
 62
7
  6
CONTINUOUS
 10
92.5190481923
 20
144.2405571193
 11
76.8936678995
 21
152.901846848
  0
LINE
  5
225
100
AcDbEntity
  8
RUNDUNGEN
100
AcDbLine
 62
7
  6
CONTINUOUS
 10
107.8965322036
 20
80.8234602874
 11
114.884963382
 21
93.159423448
  0
LINE
  5
226
100
AcDbEntity
  8
DEFAULT_2
100
AcDbLine
 62
8
  6
HIDDEN
 10
86.0989933607
 20
148.7955383014
 11
83.7050807764
 21
149.1319807742
  0
LINE
  5
227
100
AcDbEntity
  8
0
100
AcDbLine
 62
7
  6
CONTINUOUS
 10
94.7880897183
 20
157.140246278
 11
90.0489805
 21
157.9758790977
  0
LINE
  5
228
100
AcDbEntity
  8
RUNDUNGEN
100
AcDbLine
 62
7
  6
CONTINUOUS
 10
81.8896574013
 20
159.4145879043
 11
94.7880897268
 21
157.1402462765
  0
LWPOLYLINE
  5
229
100
AcDbEntity
  8
RUNDUNGEN
100
AcDbPolyline
 62
7
  6
CONTINUOUS
 90
57
 70
0
 10
198.0262992994
 20
76.144500455
 10
198.1056790833
 20
76.1461811422
 10
198.2758258875
 20
76.1606155889
 10
198.4408168137
 20
76.1886479562
 10
198.5985088964
 20
76.2288823048
 10
198.747425294
 20
76.2796650177
 10
198.8861309258
 20
76.3390087986
 10
199.0135679561
 20
76.404723808
 10
199.1292344061
 20
76.4746255445
 10
199.2326047172
 20
76.5462905028
 10
199.3246359891
 20
76.6182477328
 10
199.4057332385
 20
76.6887495624
 10
199.4778786958
 20
76.757652754
 10
199.5428670837
 20
76.825177688
 10
199.6013927766
 20
76.8907598348
 10
199.6541600331
 20
76.9539878108
 10
199.7026090534
 20
77.0155787302
 10
199.747819599
 20
77.0761364833
 10
199.7907083588
 20
77.136301507
 10
199.832133379
 20
77.1968457334
 10
199.8725408382
 20
77.2581000268
 10
199.9122798828
 20
77.3203396032
 10
199.9518296305
 20
77.3841292656
 10
199.991551699
 20
77.4499317729
 10
200.0318124745
 20
77.5182857929
 10
200.0730017155
 20
77.5898348258
 10
200.1152915338
 20
77.6648962002
 10
200.1589149344
 20
77.7439274655
 10
200.2040073839
 20
77.8272413015
 10
200.2507374331
 20
77.9152364043
 10
200.299196832
 20
78.0081912199
 10
200.3495197054
 20
78.1064859471
 10
200.4016990881
 20
78.2102438661
 10
200.4557610904
 20
78.3196639296
 10
200.5116652633
 20
78.434821342
 10
200.5693739111
 20
78.5558029774
 10
200.6288288793
 20
78.6826552623
 10
200.6899632449
 20
78.8154099399
 10
200.7526957874
 20
78.9540731954
 10
200.8169338392
 20
79.0986307517
 10
200.8825769588
 20
79.2490505986
 10
200.9495171376
 20
79.4052765934
 10
201.0176489058
 20
79.5672601815
 10
201.0868578624
 20
79.7349353407
 10
201.1570102313
 20
79.9081897601
 10
201.2279723864
 20
80.0868948549
 10
201.2996160997
 20
80.2709262992
 10
201.3718063592
 20
80.4601424252
 10
201.4443954717
 20
80.6543668923
 10
201.5172386281
 20
80.8534125978
 10
201.5901999268
 20
81.0570920092
 10
201.6631404082
 20
81.2652036223
 10
201.7359149672
 20
81.4775233677
 10
201.8083782375
 20
81.6938055884
 10
201.8803885572
 20
81.9137708133
 10
201.9517852266
 20
82.1370654087
 10
202.0050382607
 20
82.3071609603
  0
LWPOLYLINE
  5
22A
100
AcDbEntity
  8
RUNDUNGEN
100
AcDbPolyline
 62
7
  6
CONTINUOUS
 90
11
 70
0
 10
177.7935603672
 20
159.3167399414
 10
177.4759276358
 20
159.173835637
 10
177.00199133
 20
158.9383258904
 10
176.5455031984
 20
158.6832977004
 10
176.106680717
 20
158.408140322
 10
175.6862790517
 20
158.1122457921
 10
175.2851007111
 20
157.7946991833
 10
174.9044139145
 20
157.454531078
 10
174.5458063125
 20
157.0905875651
 10
174.2111535367
 20
156.7013889758
 10
173.9166516828
 20
156.305319217
  0
LINE
  5
22B
100
AcDbEntity
  8
0
100
AcDbLine
 62
7
  6
CONTINUOUS
 10
174.0602213551
 20
76.1443600479
 11
176.6614841847
 21
76.1443600479
  0
LINE
  5
22C
100
AcDbEntity
  8
KONSTRUKTIONSELEMENTE
100
AcDbLine
 62
7
  6
CONTINUOUS
 10
195.4250394426
 20
76.1443600479
 11
198.0263022722
 21
76.1443600479
  0
LWPOLYLINE
  5
22D
100
AcDbEntity
  8
RUNDUNGEN
100
AcDbPolyline
 62
7
  6
CONTINUOUS
 90
14
 70
0
 10
173.6398846086
 20
155.870510157
 10
173.3881162637
 20
155.4386110473
 10
173.1281704049
 20
154.9686893513
 10
172.8565965935
 20
154.4591227284
 10
172.5712642404
 20
153.9083562544
 10
172.2730904457
 20
153.3196848028
 10
171.9612969795
 20
152.6926141777
 10
171.6353830721
 20
152.02679326
 10
171.2940642995
 20
151.3199747701
 10
170.935818503
 20
150.569148344
 10
170.5586395947
 20
149.7700541208
 10
170.1602234056
 20
148.9175776538
 10
169.7364744764
 20
148.0025166229
 10
169.3140896532
 20
147.0826946238
  0
LINE
  5
22E
100
AcDbEntity
  8
RUNDUNGEN
100
AcDbLine
 62
7
  6
CONTINUOUS
 10
173.8681460602
 20
156.2334452432
 11
173.6398846086
 21
155.870510157
  0
LWPOLYLINE
  5
22F
100
AcDbEntity
  8
RUNDUNGEN
100
AcDbPolyline
 62
7
  6
CONTINUOUS
 90
5
 70
0
 10
173.9166774469
 20
156.3053565689
 10
173.9043363582
 20
156.2873506224
 10
173.8910940908
 20
156.2678187897
 10
173.8779840194
 20
156.2482640525
 10
173.8675733786
 20
156.232579439
  0
LWPOLYLINE
  5
230
100
AcDbEntity
  8
RUNDUNGEN
100
AcDbPolyline
 62
7
  6
CONTINUOUS
 90
9
 70
0
 10
169.3140803312
 20
147.0826727851
 10
169.0877342572
 20
146.552083596
 10
168.870963019
 20
145.9567051816
 10
168.6891662001
 20
145.3538268378
 10
168.5421436446
 20
144.7454421702
 10
168.4295602872
 20
144.1334703987
 10
168.3509745468
 20
143.519816771
 10
168.3058510323
 20
142.9064453865
 10
168.293263031
 20
142.3671413653
  0
LWPOLYLINE
  5
231
100
AcDbEntity
  8
RUNDUNGEN
100
AcDbPolyline
 62
7
  6
CONTINUOUS
 90
57
 70
0
 10
170.0814853298
 20
82.3071610764
 10
170.1331997739
 20
82.1419366027
 10
170.2046310908
 20
81.9184201671
 10
170.2766793218
 20
81.698233048
 10
170.3491833856
 20
81.4817298396
 10
170.4220013554
 20
81.2691909478
 10
170.4949874663
 20
81.0608635531
 10
170.5679961563
 20
80.8569726265
 10
170.6408881452
 20
80.6577201379
 10
170.7135272713
 20
80.463294021
 10
170.7857684621
 20
80.2738820844
 10
170.8574635865
 20
80.0896613505
 10
170.92847728
 20
79.9107738711
 10
170.9986809833
 20
79.7373443107
 10
171.0679407719
 20
79.5695017495
 10
171.13612254
 20
79.4073588605
 10
171.2031115302
 20
79.2509819676
 10
171.2688019549
 20
79.1004198367
 10
171.3330854938
 20
78.955728868
 10
171.3958614924
 20
78.8169411543
 10
171.4570369256
 20
78.6840712459
 10
171.516530211
 20
78.5571132258
 10
171.5742743396
 20
78.4360350325
 10
171.6302111095
 20
78.320789908
 10
171.6843026154
 20
78.2112909685
 10
171.7365079392
 20
78.1074634864
 10
171.78685402
 20
78.0091064134
 10
171.8353342925
 20
77.9160953411
 10
171.8820834804
 20
77.8280486047
 10
171.9271939492
 20
77.7446863744
 10
171.9708342691
 20
77.6656097096
 10
172.0131400748
 20
77.5905054493
 10
172.0543442873
 20
77.5189159957
 10
172.0946187357
 20
77.4505243167
 10
172.1343535659
 20
77.3846859938
 10
172.1739189186
 20
77.3208561766
 10
172.2136656156
 20
77.2585891027
 10
172.2540627111
 20
77.1973336862
 10
172.2954633579
 20
77.1368059105
 10
172.338312102
 20
77.076674402
 10
172.3834690639
 20
77.0161609607
 10
172.4318505022
 20
76.9546222088
 10
172.484537744
 20
76.8914485845
 10
172.5429676649
 20
76.8259227058
 10
172.6078596026
 20
76.7584369444
 10
172.6799267654
 20
76.6895387537
 10
172.760964142
 20
76.6190117444
 10
172.8529684586
 20
76.5469928459
 10
172.9563312092
 20
76.4752483211
 10
173.0719954818
 20
76.4052624291
 10
173.1994429592
 20
76.3394575798
 10
173.3381718076
 20
76.2800217773
 10
173.4871276191
 20
76.2291471915
 10
173.6448781087
 20
76.1888244714
 10
173.809944558
 20
76.1607118341
 10
173.9801806606
 20
76.1462093754
 10
174.0602243721
 20
76.1445014462
  0
LINE
  5
232
100
AcDbEntity
  8
BEZUGSACHSEN
100
AcDbLine
 62
7
  6
CONTINUOUS
 10
185.9932618136
 20
96.4403992467
 11
186.0932618136
 21
96.4403992467
  0
LWPOLYLINE
  5
233
100
AcDbEntity
  8
RUNDUNGEN
100
AcDbPolyline
 62
7
  6
CONTINUOUS
 90
9
 70
0
 10
168.2932620744
 20
94.0916638291
 10
168.3193868385
 20
92.6523284122
 10
168.4031292456
 20
91.1410895229
 10
168.5443744063
 20
89.6346797434
 10
168.7428494438
 20
88.1350213785
 10
168.9982443122
 20
86.6439843285
 10
169.3101901088
 20
85.1634293115
 10
169.6782682814
 20
83.6952484404
 10
170.0814848401
 20
82.3071621783
  0
LINE
  5
234
100
AcDbEntity
  8
0
100
AcDbLine
 62
7
  6
CONTINUOUS
 10
168.2932618136
 20
142.3671322637
 11
168.2932618136
 21
140.9386256561
  0
LINE
  5
235
100
AcDbEntity
  8
RUNDUNGEN
100
AcDbLine
 62
7
  6
CONTINUOUS
 10
168.2932618136
 20
94.0917446769
 11
168.2932618136
 21
142.3670350331
  0
LINE
  5
236
100
AcDbEntity
  8
BEZUGSACHSEN
100
AcDbLine
 62
7
  6
CONTINUOUS
 10
185.9932618136
 20
102.9010562943
 11
186.0932618136
 21
102.9010562943
  0
LINE
  5
237
100
AcDbEntity
  8
0
100
AcDbLine
 62
7
  6
CONTINUOUS
 10
172.6643957371
 20
122.478997193
 11
172.6643957371
 21
131.7904553553
  0
LINE
  5
238
100
AcDbEntity
  8
0
100
AcDbLine
 62
7
  6
CONTINUOUS
 10
179.0432618136
 20
106.0568180091
 11
182.0432618136
 21
106.0568180091
  0
LINE
  5
239
100
AcDbEntity
  8
0
100
AcDbLine
 62
7
  6
CONTINUOUS
 10
190.0432618136
 20
106.0568180091
 11
193.0432618136
 21
106.0568180091
  0
LINE
  5
23A
100
AcDbEntity
  8
DEFAULT_2
100
AcDbLine
 62
8
  6
HIDDEN
 10
175.0432618136
 20
91.8156046968
 11
175.0432618136
 21
108.1877871131
  0
LINE
  5
23B
100
AcDbEntity
  8
0
100
AcDbLine
 62
7
  6
CONTINUOUS
 10
176.6614841847
 20
97.5453970322
 11
176.6614841847
 21
76.1443600479
  0
LINE
  5
23C
100
AcDbEntity
  8
0
100
AcDbLine
 62
7
  6
CONTINUOUS
 10
181.9432618136
 20
121.5943600479
 11
181.9432618136
 21
122.2443600479
  0
LINE
  5
23D
100
AcDbEntity
  8
0
100
AcDbLine
 62
7
  6
CONTINUOUS
 10
181.9432618136
 20
135.2443600479
 11
181.9432618136
 21
147.5978605737
  0
LINE
  5
23E
100
AcDbEntity
  8
0
100
AcDbLine
 62
7
  6
CONTINUOUS
 10
182.0432618136
 20
78.3786052606
 11
182.0432618136
 21
106.7849406645
  0
LINE
  5
23F
100
AcDbEntity
  8
KONSTRUKTIONSELEMENTE
100
AcDbLine
 62
7
  6
CONTINUOUS
 10
190.0432618136
 20
103.2518288802
 11
190.0432618136
 21
78.3786052606
  0
LINE
  5
240
100
AcDbEntity
  8
0
100
AcDbLine
 62
7
  6
CONTINUOUS
 10
190.0432618136
 20
103.2518288802
 11
190.0432618136
 21
106.7849406645
  0
LINE
  5
241
100
AcDbEntity
  8
0
100
AcDbLine
 62
7
  6
CONTINUOUS
 10
190.1432618136
 20
121.5943600479
 11
190.1432618136
 21
122.2443600479
  0
LINE
  5
242
100
AcDbEntity
  8
0
100
AcDbLine
 62
7
  6
CONTINUOUS
 10
190.1432618136
 20
135.2443600479
 11
190.1432618136
 21
147.5978605737
  0
LINE
  5
243
100
AcDbEntity
  8
KONSTRUKTIONSELEMENTE
100
AcDbLine
 62
7
  6
CONTINUOUS
 10
195.4250394426
 20
97.5453970322
 11
195.4250394426
 21
76.1443600479
  0
LINE
  5
244
100
AcDbEntity
  8
0
100
AcDbLine
 62
7
  6
CONTINUOUS
 10
193.1932616663
 20
124.6443600479
 11
192.5432618136
 21
124.6443600479
  0
LINE
  5
245
100
AcDbEntity
  8
0
100
AcDbLine
 62
7
  6
CONTINUOUS
 10
178.893261961
 20
124.6443600479
 11
179.5432618136
 21
124.6443600479
  0
LINE
  5
246
100
AcDbEntity
  8
DEFAULT_2
100
AcDbLine
 62
8
  6
HIDDEN
 10
197.0432618136
 20
108.1877871131
 11
197.0432618136
 21
91.8156046968
  0
LINE
  5
247
100
AcDbEntity
  8
0
100
AcDbLine
 62
7
  6
CONTINUOUS
 10
199.4221278902
 20
122.478997193
 11
199.4221278902
 21
131.7904553553
  0
LINE
  5
248
100
AcDbEntity
  8
0
100
AcDbLine
 62
7
  6
CONTINUOUS
 10
193.1932618136
 20
132.8443600479
 11
192.5432618136
 21
132.8443600479
  0
LINE
  5
249
100
AcDbEntity
  8
0
100
AcDbLine
 62
7
  6
CONTINUOUS
 10
178.8932618136
 20
132.8443600479
 11
179.5432618136
 21
132.8443600479
  0
LWPOLYLINE
  5
24A
100
AcDbEntity
  8
RUNDUNGEN
100
AcDbPolyline
 62
7
  6
CONTINUOUS
 90
8
 70
0
 10
203.7932605843
 20
142.36714135
 10
203.7803964524
 20
142.912323264
 10
203.7349638828
 20
143.5256192723
 10
203.6560724421
 20
144.1391802016
 10
203.5431883839
 20
144.7510424689
 10
203.3958713045
 20
145.359300192
 10
203.2137873268
 20
145.9620355159
 10
202.9967374181
 20
146.5572554497
  0
LINE
  5
24B
100
AcDbEntity
  8
KONSTRUKTIONSELEMENTE
100
AcDbLine
 62
7
  6
CONTINUOUS
 10
203.7932618136
 20
140.9386256561
 11
203.7932618136
 21
142.3671322637
  0
LINE
  5
24C
100
AcDbEntity
  8
RUNDUNGEN
100
AcDbLine
 62
7
  6
CONTINUOUS
 10
203.7932618136
 20
94.0916653465
 11
203.7932618136
 21
142.3670346056
  0
LINE
  5
24D
100
AcDbEntity
  8
0
100
AcDbLine
 62
7
  6
CONTINUOUS
 10
190.1432618136
 20
135.434269234
 11
181.9432618136
 21
135.434269234
  0
LINE
  5
24E
100
AcDbEntity
  8
0
100
AcDbLine
 62
7
  6
CONTINUOUS
 10
190.1432618136
 20
139.434269234
 11
181.9432618136
 21
139.434269234
  0
LWPOLYLINE
  5
24F
100
AcDbEntity
  8
RUNDUNGEN
100
AcDbPolyline
 62
7
  6
CONTINUOUS
 90
9
 70
0
 10
202.0050387989
 20
82.3071622149
 10
202.4066329726
 20
83.6892628495
 10
202.7749391745
 20
85.1573853784
 10
203.0871157468
 20
86.6378925183
 10
203.3427434842
 20
88.1288921762
 10
203.5414530521
 20
89.6285243914
 10
203.6829337665
 20
91.1349187151
 10
203.7669121182
 20
92.646153025
 10
203.793261553
 20
94.0916638741
  0
LWPOLYLINE
  5
250
100
AcDbEntity
  8
RUNDUNGEN
100
AcDbPolyline
 62
7
  6
CONTINUOUS
 90
14
 70
0
 10
202.7724338734
 20
147.0826948438
 10
202.3480434506
 20
148.0068666897
 10
201.9244006394
 20
148.921660966
 10
201.5261182506
 20
149.773813896
 10
201.1490856457
 20
150.5725612371
 10
200.7909889336
 20
151.3230385061
 10
200.4498133927
 20
152.0295236071
 10
200.1240299441
 20
152.6950406271
 10
199.8123482347
 20
153.3218476422
 10
199.5142644731
 20
153.910299723
 10
199.2289967504
 20
154.4608948616
 10
198.9574652895
 20
154.9703273044
 10
198.6975292741
 20
155.440161971
 10
198.4457231731
 20
155.8720280124
  0
LINE
  5
251
100
AcDbEntity
  8
RUNDUNGEN
100
AcDbLine
 62
7
  6
CONTINUOUS
 10
202.9967374181
 20
146.5572554497
 11
202.7724440794
 21
147.0826710311
  0
LWPOLYLINE
  5
252
100
AcDbEntity
  8
RUNDUNGEN
100
AcDbPolyline
 62
7
  6
CONTINUOUS
 90
10
 70
0
 10
198.1698704065
 20
156.3053214556
 10
197.8741130924
 20
156.7029594402
 10
197.5392730637
 20
157.0921532582
 10
197.1804875691
 20
157.4560736187
 10
196.7996296523
 20
157.7962057989
 10
196.3982850523
 20
158.1137074045
 10
195.9777193292
 20
158.4095505218
 10
195.5387292613
 20
158.6846536849
 10
195.0820663191
 20
158.9396243402
 10
194.6079447874
 20
159.1750768624
  0
LWPOLYLINE
  5
253
100
AcDbEntity
  8
RUNDUNGEN
100
AcDbPolyline
 62
7
  6
CONTINUOUS
 90
5
 70
0
 10
198.2189503378
 20
156.2325793042
 10
198.2072501849
 20
156.2501970228
 10
198.1941323284
 20
156.2697418486
 10
198.1808828559
 20
156.28926272
 10
198.1698462777
 20
156.3053564278
  0
LINE
  5
254
100
AcDbEntity
  8
RUNDUNGEN
100
AcDbLine
 62
7
  6
CONTINUOUS
 10
198.4457231731
 20
155.8720280124
 11
198.2183255266
 21
156.233523892
  0
LINE
  5
255
100
AcDbEntity
  8
RUNDUNGEN
100
AcDbLine
 62
7
  6
CONTINUOUS
 10
178.5050021829
 20
159.4145879043
 11
193.5815214444
 21
159.4145879043
  0
LINE
  5
256
100
AcDbEntity
  8
RUNDUNGEN
100
AcDbLine
 62
7
  6
CONTINUOUS
 10
194.6079447874
 20
159.1750768624
 11
194.2929832128
 21
159.3167310267
  0
ARC
  5
257
100
AcDbEntity
  8
KONSTRUKTIONSELEMENTE
100
AcDbCircle
 62
7
  6
CONTINUOUS
 10
100.5927622308
 20
101.3226857167
 40
16.9094120192
100
AcDbArc
 50
2.7852546459
 51
18.1374430921
  0
ARC
  5
258
100
AcDbEntity
  8
RUNDUNGEN
100
AcDbCircle
 62
7
  6
CONTINUOUS
 10
100.5927622323
 20
101.2560805815
 40
16.42628596
100
AcDbArc
 50
330.468066573
 51
18.2240474803
  0
ARC
  5
259
100
AcDbEntity
  8
RUNDUNGEN
100
AcDbCircle
 62
7
  6
CONTINUOUS
 10
99.8680731442
 20
85.3715756979
 40
9.22721565
100
AcDbArc
 50
199.9995066216
 51
330.4684823982
  0
ARC
  5
25A
100
AcDbEntity
  8
0
100
AcDbCircle
 62
7
  6
CONTINUOUS
 10
99.8680731442
 20
85.3715756979
 40
9.22721565
100
AcDbArc
 50
200.0
 51
312.468066573
  0
ARC
  5
25B
100
AcDbEntity
  8
0
100
AcDbCircle
 62
7
  6
CONTINUOUS
 10
92.4847512812
 20
100.0447750027
 40
7.3076923077
100
AcDbArc
 50
153.9688324709
 51
200.0
  0
ARC
  5
25C
100
AcDbEntity
  8
RUNDUNGEN
100
AcDbCircle
 62
7
  6
CONTINUOUS
 10
92.4847512812
 20
100.0447750027
 40
7.3076923077
100
AcDbArc
 50
116.0993469198
 51
200.0
  0
ARC
  5
25D
100
AcDbEntity
  8
RUNDUNGEN
100
AcDbCircle
 62
7
  6
CONTINUOUS
 10
106.2190481923
 20
100.1443600479
 40
6.0
100
AcDbArc
 50
135.0
 51
258.0002719437
  0
CIRCLE
  5
25E
100
AcDbEntity
  8
RUNDUNGEN
100
AcDbCircle
 62
7
  6
CONTINUOUS
 10
105.4574261164
 20
99.934269234
 40
3.5
  0
ARC
  5
25F
100
AcDbEntity
  8
RUNDUNGEN
100
AcDbCircle
 62
7
  6
CONTINUOUS
 10
109.7556876454
 20
90.1915587721
 40
3.0
100
AcDbArc
 50
330.4662257618
 51
78.002147576
  0
ARC
  5
260
100
AcDbEntity
  8
RUNDUNGEN
100
AcDbCircle
 62
7
  6
CONTINUOUS
 10
82.6709519899
 20
120.0778097095
 40
15.0
100
AcDbArc
 50
296.0993469198
 51
360.0
  0
ARC
  5
261
100
AcDbEntity
  8
RUNDUNGEN
100
AcDbCircle
 62
7
  6
CONTINUOUS
 10
87.6709519899
 20
135.4943600479
 40
10.0
100
AcDbArc
 50
0.0
 51
61.0001296183
  0
ARC
  5
262
100
AcDbEntity
  8
0
100
AcDbCircle
 62
7
  6
CONTINUOUS
 10
87.6709519899
 20
135.4943600479
 40
10.0
100
AcDbArc
 50
40.6643679137
 51
43.5761888336
  0
ARC
  5
263
100
AcDbEntity
  8
0
100
AcDbCircle
 62
7
  6
CONTINUOUS
 10
87.6709519899
 20
135.4943600479
 40
10.0
100
AcDbArc
 50
30.8828421351
 51
31.1947062846
  0
ARC
  5
264
100
AcDbEntity
  8
RUNDUNGEN
100
AcDbCircle
 62
7
  6
CONTINUOUS
 10
90.1690481923
 20
130.9443600479
 40
26.6
100
AcDbArc
 50
344.4260622298
 51
79.9999999812
  0
ARC
  5
265
100
AcDbEntity
  8
0
100
AcDbCircle
 62
7
  6
CONTINUOUS
 10
90.1690481923
 20
130.9443600479
 40
26.6
100
AcDbArc
 50
27.6675391798
 51
28.8183509052
  0
ARC
  5
266
100
AcDbEntity
  8
0
100
AcDbCircle
 62
7
  6
CONTINUOUS
 10
90.1690481923
 20
130.9443600479
 40
26.6
100
AcDbArc
 50
31.2343487064
 51
31.4547220283
  0
ARC
  5
267
100
AcDbEntity
  8
0
100
AcDbCircle
 62
7
  6
CONTINUOUS
 10
90.1690481923
 20
130.9443600479
 40
26.6
100
AcDbArc
 50
33.8353313485
 51
74.2045342097
  0
ARC
  5
268
100
AcDbEntity
  8
0
100
AcDbCircle
 62
7
  6
CONTINUOUS
 10
90.1690481923
 20
130.9443600479
 40
26.6
100
AcDbArc
 50
75.8974701719
 51
79.468289062
  0
ARC
  5
269
100
AcDbEntity
  8
RUNDUNGEN
100
AcDbCircle
 62
7
  6
CONTINUOUS
 10
82.5550420167
 20
154.0712419345
 40
5.3846153846
100
AcDbArc
 50
97.0982650664
 51
151.0
  0
ARC
  5
26A
100
AcDbEntity
  8
RUNDUNGEN
100
AcDbCircle
 62
7
  6
CONTINUOUS
 10
77.3784775197
 20
153.7764665551
 40
1.0
100
AcDbArc
 50
151.0
 51
241.0
  0
CIRCLE
  5
26B
100
AcDbEntity
  8
BEZUGSACHSEN
100
AcDbCircle
 62
7
  6
CONTINUOUS
 10
110.0190481923
 20
137.434269234
 40
2.0
  0
ARC
  5
26C
100
AcDbEntity
  8
RUNDUNGEN
100
AcDbCircle
 62
7
  6
CONTINUOUS
 10
144.6464786233
 20
115.7606967779
 40
29.95381558
100
AcDbArc
 50
164.4260622298
 51
198.2240474803
  0
ARC
  5
26D
100
AcDbEntity
  8
KONSTRUKTIONSELEMENTE
100
AcDbCircle
 62
7
  6
CONTINUOUS
 10
144.668352474
 20
115.7606967787
 40
29.4706895192
100
AcDbArc
 50
196.9998800467
 51
198.1374430921
  0
ARC
  5
26E
100
AcDbEntity
  8
KONSTRUKTIONSELEMENTE
100
AcDbCircle
 62
7
  6
CONTINUOUS
 10
144.668352474
 20
115.7606967787
 40
29.4706895192
100
AcDbArc
 50
183.1439971746
 51
192.9738111631
  0
ARC
  5
26F
100
AcDbEntity
  8
RUNDUNGEN
100
AcDbCircle
 62
7
  6
CONTINUOUS
 10
111.8031002935
 20
118.4563342104
 40
3.0
100
AcDbArc
 50
315.0
 51
355.3079359674
  0
ARC
  5
270
100
AcDbEntity
  8
0
100
AcDbCircle
 62
7
  6
CONTINUOUS
 10
186.0432618136
 20
61.1443600479
 40
17.6923076923
100
AcDbArc
 50
103.0668033413
 51
122.0239959746
  0
ARC
  5
271
100
AcDbEntity
  8
KONSTRUKTIONSELEMENTE
100
AcDbCircle
 62
7
  6
CONTINUOUS
 10
186.0432618136
 20
61.1443600479
 40
17.6923076923
100
AcDbArc
 50
57.9760040254
 51
76.9331966587
  0
ARC
  5
272
100
AcDbEntity
  8
0
100
AcDbCircle
 62
7
  6
CONTINUOUS
 10
186.0432618136
 20
121.3499816539
 40
12.8966540788
100
AcDbArc
 50
269.7778651629
 51
270.2221348371
  0
ARC
  5
273
100
AcDbEntity
  8
0
100
AcDbCircle
 62
7
  6
CONTINUOUS
 10
178.8932618136
 20
128.7443600479
 40
4.1
100
AcDbArc
 50
90.0
 51
270.0000020596
  0
ARC
  5
274
100
AcDbEntity
  8
0
100
AcDbCircle
 62
7
  6
CONTINUOUS
 10
186.0432618136
 20
121.5943600479
 40
4.1
100
AcDbArc
 50
180.0
 51
360.0
  0
ARC
  5
275
100
AcDbEntity
  8
0
100
AcDbCircle
 62
7
  6
CONTINUOUS
 10
193.1932618136
 20
128.7443600479
 40
4.1
100
AcDbArc
 50
269.9999979404
 51
90.0
  0
ARC
  5
276
100
AcDbEntity
  8
0
100
AcDbCircle
 62
7
  6
CONTINUOUS
 10
179.5432618136
 20
122.2443600479
 40
2.4
100
AcDbArc
 50
0.0
 51
90.0
  0
ARC
  5
277
100
AcDbEntity
  8
0
100
AcDbCircle
 62
7
  6
CONTINUOUS
 10
179.5432618136
 20
135.2443600479
 40
2.4
100
AcDbArc
 50
270.0
 51
360.0
  0
ARC
  5
278
100
AcDbEntity
  8
0
100
AcDbCircle
 62
7
  6
CONTINUOUS
 10
192.5432618136
 20
135.2443600479
 40
2.4
100
AcDbArc
 50
180.0
 51
270.0
  0
ARC
  5
279
100
AcDbEntity
  8
0
100
AcDbCircle
 62
7
  6
CONTINUOUS
 10
192.5432618136
 20
122.2443600479
 40
2.4
100
AcDbArc
 50
90.0
 51
180.0
  0
SPLINE
  5
27A
100
AcDbEntity
  8
DEFAULT_2
100
AcDbSpline
 62
8
  6
HIDDEN
 70
0
 71
3
 72
9
 73
5
 74
0
 42
0.0000001
 43
0.0000001
 44
0.0000000001
 40
0.0
 40
0.0
 40
0.0
 40
0.0
 40
0.5000578107
 40
1.0
 40
1.0
 40
1.0
 40
1.0
 10
103.4944723025
 20
87.784614112
 30
0.0
 10
103.593845316
 20
87.5115890015
 30
0.0
 10
103.7528944843
 20
86.9500262877
 30
0.0
 10
103.8153570511
 20
86.368821637
 30
0.0
 10
103.8197725947
 20
86.0783751242
 30
0.0
  0
SPLINE
  5
27B
100
AcDbEntity
  8
DEFAULT_2
100
AcDbSpline
 62
8
  6
HIDDEN
 70
0
 71
3
 72
23
 73
19
 74
0
 42
0.0000001
 43
0.0000001
 44
0.0000000001
 40
0.0
 40
0.0
 40
0.0
 40
0.0
 40
0.0624787318
 40
0.1249506301
 40
0.18742143
 40
0.2499011419
 40
0.3123910907
 40
0.3748872933
 40
0.4373845272
 40
0.499881
 40
0.5623793003
 40
0.6248812221
 40
0.6873854016
 40
0.749893145
 40
0.8124065712
 40
0.8749280361
 40
0.9374615139
 40
1.0
 40
1.0
 40
1.0
 40
1.0
 10
103.8197725947
 20
86.0783751242
 30
0.0
 10
103.8234641592
 20
85.8355506527
 30
0.0
 10
103.7931730958
 20
85.348377194
 30
0.0
 10
103.6279716644
 20
84.6353716549
 30
0.0
 10
103.3411401431
 20
83.9614373189
 30
0.0
 10
102.9365434827
 20
83.3504909742
 30
0.0
 10
102.4243303776
 20
82.8259856218
 30
0.0
 10
101.8208587592
 20
82.4093035921
 30
0.0
 10
101.1478660687
 20
82.1177048619
 30
0.0
 10
100.4309746544
 20
81.9627811575
 30
0.0
 10
99.6977452445
 20
81.9494850984
 30
0.0
 10
98.975548431
 20
82.0759608634
 30
0.0
 10
98.2895431587
 20
82.3340721634
 30
0.0
 10
97.6609908539
 20
82.7105412706
 30
0.0
 10
97.1061166471
 20
83.1885049224
 30
0.0
 10
96.6355326995
 20
83.7492736947
 30
0.0
 10
96.2543952161
 20
84.3737562996
 30
0.0
 10
96.0597261777
 20
84.8209760081
 30
0.0
 10
95.9765862817
 20
85.0494009949
 30
0.0
  0
SPLINE
  5
27C
100
AcDbEntity
  8
DEFAULT_2
100
AcDbSpline
 62
8
  6
HIDDEN
 70
0
 71
3
 72
16
 73
12
 74
0
 42
0.0000001
 43
0.0000001
 44
0.0000000001
 40
0.0
 40
0.0
 40
0.0
 40
0.0
 40
0.0809329829
 40
0.159698004
 40
0.3098008734
 40
0.4500067775
 40
0.5801294711
 40
0.699925856
 40
0.8092922775
 40
0.9087193748
 40
1.0
 40
1.0
 40
1.0
 40
1.0
 10
92.5536120309
 20
108.7936158741
 30
0.0
 10
92.6738322528
 20
108.8240475825
 30
0.0
 10
92.9152826665
 20
108.8685475775
 30
0.0
 10
93.3900116402
 20
108.8972133876
 30
0.0
 10
93.9566404216
 20
108.8405410847
 30
0.0
 10
94.5798510754
 20
108.6683180513
 30
0.0
 10
95.1292320831
 20
108.4279131768
 30
0.0
 10
95.6005284672
 20
108.1400507096
 30
0.0
 10
95.9891304386
 20
107.8166030651
 30
0.0
 10
96.2885681589
 20
107.4642799044
 30
0.0
 10
96.4267894093
 20
107.2029132689
 30
0.0
 10
96.4746269297
 20
107.0714807621
 30
0.0
  0
SPLINE
  5
27D
100
AcDbEntity
  8
DEFAULT_2
100
AcDbSpline
 62
8
  6
HIDDEN
 70
0
 71
3
 72
15
 73
11
 74
0
 42
0.0000001
 43
0.0000001
 44
0.0000000001
 40
0.0
 40
0.0
 40
0.0
 40
0.0
 40
0.1263622639
 40
0.252321491
 40
0.3778366732
 40
0.5029081698
 40
0.6275767835
 40
0.7519148527
 40
0.8760156049
 40
1.0
 40
1.0
 40
1.0
 40
1.0
 10
182.0432638845
 20
81.9613267109
 30
0.0
 10
181.5364664705
 20
82.1514346477
 30
0.0
 10
180.5503543741
 20
82.6047552786
 30
0.0
 10
179.1891578715
 20
83.4905706788
 30
0.0
 10
177.9770272716
 20
84.5638298243
 30
0.0
 10
176.9423683309
 20
85.8019667955
 30
0.0
 10
176.109668989
 20
87.1783112113
 30
0.0
 10
175.4993753074
 20
88.6624241851
 30
0.0
 10
175.1267868226
 20
90.2199494586
 30
0.0
 10
175.0432618136
 20
91.2845098832
 30
0.0
 10
175.0432618136
 20
91.8156046968
 30
0.0
  0
SPLINE
  5
27E
100
AcDbEntity
  8
DEFAULT_2
100
AcDbSpline
 62
8
  6
HIDDEN
 70
0
 71
3
 72
15
 73
11
 74
0
 42
0.0000001
 43
0.0000001
 44
0.0000000001
 40
0.0
 40
0.0
 40
0.0
 40
0.0
 40
0.1239833543
 40
0.2480836656
 40
0.3724217285
 40
0.4970906238
 40
0.6221625315
 40
0.747678188
 40
0.8736377092
 40
1.0
 40
1.0
 40
1.0
 40
1.0
 10
197.0432618136
 20
91.8156046968
 30
0.0
 10
197.0432618136
 20
91.2845143116
 30
0.0
 10
196.9597379312
 20
90.2199602263
 30
0.0
 10
196.5871533796
 20
88.6624405375
 30
0.0
 10
195.976862353
 20
87.178327106
 30
0.0
 10
195.1441630764
 20
85.8019790907
 30
0.0
 10
194.1095031703
 20
84.5638363752
 30
0.0
 10
192.897370194
 20
83.4905717574
 30
0.0
 10
191.5361699807
 20
82.6047559787
 30
0.0
 10
190.5500573701
 20
82.1514324071
 30
0.0
 10
190.0432588298
 20
81.9613270583
 30
0.0
  0
SPLINE
  5
27F
100
AcDbEntity
  8
RUNDUNGEN
100
AcDbSpline
 62
7
  6
CONTINUOUS
 70
0
 71
3
 72
10
 73
6
 74
0
 42
0.0000001
 43
0.0000001
 44
0.0000000001
 40
0.0
 40
0.0
 40
0.0
 40
0.0
 40
0.3999600614
 40
0.6771283161
 40
1.0
 40
1.0
 40
1.0
 40
1.0
 10
194.293002353
 20
159.3167307511
 30
0.0
 10
194.2046477854
 20
159.3548889412
 30
0.0
 10
194.0432853314
 20
159.3913266204
 30
0.0
 10
193.8037499963
 20
159.4116475803
 30
0.0
 10
193.6592139719
 20
159.4145879104
 30
0.0
 10
193.5815214444
 20
159.4145879043
 30
0.0
  0
SPLINE
  5
280
100
AcDbEntity
  8
0
100
AcDbSpline
 62
7
  6
CONTINUOUS
 70
0
 71
3
 72
14
 73
10
 74
0
 42
0.0000001
 43
0.0000001
 44
0.0000000001
 40
0.0
 40
0.0
 40
0.0
 40
0.0
 40
0.1161241177
 40
0.2300210842
 40
0.3441684489
 40
0.4612447346
 40
0.7130408818
 40
0.851798054
 40
1.0
 40
1.0
 40
1.0
 40
1.0
 10
197.0432608122
 20
108.1833945401
 30
0.0
 10
197.0431636305
 20
108.0998056173
 30
0.0
 10
197.0301571612
 20
107.9338705038
 30
0.0
 10
196.9687828671
 20
107.6925905956
 30
0.0
 10
196.8652768377
 20
107.4652770273
 30
0.0
 10
196.6673911243
 20
107.1774884907
 30
0.0
 10
196.3874991633
 20
106.9331792559
 30
0.0
 10
196.0539883528
 20
106.7347684137
 30
0.0
 10
195.8660656477
 20
106.6479159394
 30
0.0
 10
195.767412061
 20
106.6073208549
 30
0.0
  0
SPLINE
  5
281
100
AcDbEntity
  8
0
100
AcDbSpline
 62
7
  6
CONTINUOUS
 70
0
 71
3
 72
10
 73
6
 74
0
 42
0.0000001
 43
0.0000001
 44
0.0000000001
 40
0.0
 40
0.0
 40
0.0
 40
0.0
 40
0.2674961343
 40
0.5281307082
 40
1.0
 40
1.0
 40
1.0
 40
1.0
 10
179.0432618136
 20
106.0568180091
 30
0.0
 10
178.7940873244
 20
106.0568180091
 30
0.0
 10
178.3016338258
 20
106.0839771794
 30
0.0
 10
177.3811755358
 20
106.2344728669
 30
0.0
 10
176.7255924819
 20
106.4400575281
 30
0.0
 10
176.3191115663
 20
106.6073208549
 30
0.0
  0
SPLINE
  5
282
100
AcDbEntity
  8
RUNDUNGEN
100
AcDbSpline
 62
7
  6
CONTINUOUS
 70
0
 71
3
 72
10
 73
6
 74
0
 42
0.0000001
 43
0.0000001
 44
0.0000000001
 40
0.0
 40
0.0
 40
0.0
 40
0.0
 40
0.3228638072
 40
0.5998198973
 40
1.0
 40
1.0
 40
1.0
 40
1.0
 10
178.5050021829
 20
159.4145879043
 30
0.0
 10
178.4273155039
 20
159.4145879082
 30
0.0
 10
178.282837898
 20
159.4116671548
 30
0.0
 10
178.0433219044
 20
159.3913154461
 30
0.0
 10
177.8819447786
 20
159.3549389133
 30
0.0
 10
177.7935556821
 20
159.3167394938
 30
0.0
  0
SPLINE
  5
283
100
AcDbEntity
  8
0
100
AcDbSpline
 62
7
  6
CONTINUOUS
 70
0
 71
3
 72
15
 73
11
 74
0
 42
0.0000001
 43
0.0000001
 44
0.0000000001
 40
0.0
 40
0.0
 40
0.0
 40
0.0
 40
0.1459457753
 40
0.2882751704
 40
0.4246627224
 40
0.5540743831
 40
0.6761745714
 40
0.7909278865
 40
0.8985782743
 40
1.0
 40
1.0
 40
1.0
 40
1.0
 10
185.9932618136
 20
84.2810518687
 30
0.0
 10
185.710832203
 20
84.2801748273
 30
0.0
 10
185.1513038641
 20
84.2172672639
 30
0.0
 10
184.3669075013
 20
83.9544652331
 30
0.0
 10
183.6769980613
 20
83.5603941609
 30
0.0
 10
183.0998465585
 20
83.074439188
 30
0.0
 10
182.641614907
 20
82.5291910987
 30
0.0
 10
182.3052914091
 20
81.9494220419
 30
0.0
 10
182.0950653477
 20
81.3550948676
 30
0.0
 10
182.0432618136
 20
80.9495024601
 30
0.0
 10
182.0432618136
 20
80.7532334242
 30
0.0
  0
SPLINE
  5
284
100
AcDbEntity
  8
0
100
AcDbSpline
 62
7
  6
CONTINUOUS
 70
0
 71
3
 72
19
 73
15
 74
0
 42
0.0000001
 43
0.0000001
 44
0.0000000001
 40
0.0
 40
0.0
 40
0.0
 40
0.0
 40
0.015131677
 40
0.0251260693
 40
0.0369888674
 40
0.0665476946
 40
0.1039207837
 40
0.1488367012
 40
0.200892959
 40
0.2596339901
 40
0.3245813699
 40
0.4710716705
 40
0.6361143321
 40
1.0
 40
1.0
 40
1.0
 40
1.0
 10
181.9432618136
 20
147.5978605737
 30
0.0
 10
181.9432618136
 20
147.6192137516
 30
0.0
 10
181.9574420941
 20
147.6540078466
 30
0.0
 10
181.9875222056
 20
147.696326837
 30
0.0
 10
182.0364709716
 20
147.7502670768
 30
0.0
 10
182.1219328025
 20
147.8218802043
 30
0.0
 10
182.2524600853
 20
147.910899925
 30
0.0
 10
182.416586371
 20
148.0060631754
 30
0.0
 10
182.6127816758
 20
148.1052303644
 30
0.0
 10
182.8394860105
 20
148.2060204494
 30
0.0
 10
183.1946287601
 20
148.3449965862
 30
0.0
 10
183.7018653658
 20
148.5054940379
 30
0.0
 10
184.6318388313
 20
148.7174260785
 30
0.0
 10
185.3797940575
 20
148.7889503782
 30
0.0
 10
185.8932618136
 20
148.7947002726
 30
0.0
  0
SPLINE
  5
285
100
AcDbEntity
  8
0
100
AcDbSpline
 62
7
  6
CONTINUOUS
 70
0
 71
3
 72
14
 73
10
 74
0
 42
0.0000001
 43
0.0000001
 44
0.0000000001
 40
0.0
 40
0.0
 40
0.0
 40
0.0
 40
0.148201946
 40
0.2869591182
 40
0.5387552654
 40
0.6558315511
 40
0.7699789158
 40
0.8838758823
 40
1.0
 40
1.0
 40
1.0
 40
1.0
 10
176.3191115663
 20
106.6073208549
 30
0.0
 10
176.2204579795
 20
106.6479159394
 30
0.0
 10
176.0325352745
 20
106.7347684137
 30
0.0
 10
175.699024464
 20
106.9331792559
 30
0.0
 10
175.419132503
 20
107.1774884907
 30
0.0
 10
175.2212467895
 20
107.4652770273
 30
0.0
 10
175.1177407601
 20
107.6925905956
 30
0.0
 10
175.0563664661
 20
107.9338705038
 30
0.0
 10
175.0433599968
 20
108.0998056173
 30
0.0
 10
175.0432628151
 20
108.1833945401
 30
0.0
  0
SPLINE
  5
286
100
AcDbEntity
  8
0
100
AcDbSpline
 62
7
  6
CONTINUOUS
 70
0
 71
3
 72
10
 73
6
 74
0
 42
0.0000001
 43
0.0000001
 44
0.0000000001
 40
0.0
 40
0.0
 40
0.0
 40
0.0
 40
0.4718692918
 40
0.7325038657
 40
1.0
 40
1.0
 40
1.0
 40
1.0
 10
195.767412061
 20
106.6073208549
 30
0.0
 10
195.3609311454
 20
106.4400575281
 30
0.0
 10
194.7053480915
 20
106.2344728669
 30
0.0
 10
193.7848898015
 20
106.0839771794
 30
0.0
 10
193.2924363028
 20
106.0568180091
 30
0.0
 10
193.0432618136
 20
106.0568180091
 30
0.0
  0
SPLINE
  5
287
100
AcDbEntity
  8
KONSTRUKTIONSELEMENTE
100
AcDbSpline
 62
7
  6
CONTINUOUS
 70
0
 71
3
 72
15
 73
11
 74
0
 42
0.0000001
 43
0.0000001
 44
0.0000000001
 40
0.0
 40
0.0
 40
0.0
 40
0.0
 40
0.1459457753
 40
0.2882751704
 40
0.4246627224
 40
0.5540743831
 40
0.6761745714
 40
0.7909278865
 40
0.8985782743
 40
1.0
 40
1.0
 40
1.0
 40
1.0
 10
186.0932618136
 20
84.2810518687
 30
0.0
 10
186.3756914243
 20
84.2801748273
 30
0.0
 10
186.9352197632
 20
84.2172672639
 30
0.0
 10
187.719616126
 20
83.9544652331
 30
0.0
 10
188.409525566
 20
83.5603941609
 30
0.0
 10
188.9866770688
 20
83.074439188
 30
0.0
 10
189.4449087203
 20
82.5291910987
 30
0.0
 10
189.7812322182
 20
81.9494220419
 30
0.0
 10
189.9914582796
 20
81.3550948676
 30
0.0
 10
190.0432618136
 20
80.9495024601
 30
0.0
 10
190.0432618136
 20
80.7532334242
 30
0.0
  0
SPLINE
  5
288
100
AcDbEntity
  8
0
100
AcDbSpline
 62
7
  6
CONTINUOUS
 70
0
 71
3
 72
19
 73
15
 74
0
 42
0.0000001
 43
0.0000001
 44
0.0000000001
 40
0.0
 40
0.0
 40
0.0
 40
0.0
 40
0.015131677
 40
0.0251260693
 40
0.0369888674
 40
0.0665476946
 40
0.1039207837
 40
0.1488367012
 40
0.200892959
 40
0.2596339901
 40
0.3245813699
 40
0.4710716705
 40
0.6361143321
 40
1.0
 40
1.0
 40
1.0
 40
1.0
 10
190.1432618136
 20
147.5978605737
 30
0.0
 10
190.1432618136
 20
147.6192137516
 30
0.0
 10
190.1290815332
 20
147.6540078466
 30
0.0
 10
190.0990014217
 20
147.696326837
 30
0.0
 10
190.0500526557
 20
147.7502670768
 30
0.0
 10
189.9645908247
 20
147.8218802043
 30
0.0
 10
189.834063542
 20
147.910899925
 30
0.0
 10
189.6699372563
 20
148.0060631754
 30
0.0
 10
189.4737419514
 20
148.1052303644
 30
0.0
 10
189.2470376168
 20
148.2060204494
 30
0.0
 10
188.8918948672
 20
148.3449965862
 30
0.0
 10
188.3846582614
 20
148.5054940379
 30
0.0
 10
187.454684796
 20
148.7174260785
 30
0.0
 10
186.7067295698
 20
148.7889503782
 30
0.0
 10
186.1932618136
 20
148.7947002726
 30
0.0
  0
SPLINE
  5
289
100
AcDbEntity
  8
0
100
AcDbSpline
 62
7
  6
CONTINUOUS
 70
0
 71
3
 72
11
 73
7
 74
0
 42
0.0000001
 43
0.0000001
 44
0.0000000001
 40
0.0
 40
0.0
 40
0.0
 40
0.0
 40
0.223746929
 40
0.4681834904
 40
0.7293234398
 40
1.0
 40
1.0
 40
1.0
 40
1.0
 10
196.6053329298
 20
142.4378414868
 30
0.0
 10
196.9190888267
 20
141.9797907863
 30
0.0
 10
197.4990848193
 20
140.9680062103
 30
0.0
 10
198.2003250241
 20
139.2959679407
 30
0.0
 10
198.7609653471
 20
137.4501522631
 30
0.0
 10
199.0315547445
 20
136.156716938
 30
0.0
 10
199.1429365955
 20
135.4943599047
 30
0.0
  0
SPLINE
  5
28A
100
AcDbEntity
  8
0
100
AcDbSpline
 62
7
  6
CONTINUOUS
 70
0
 71
3
 72
15
 73
11
 74
0
 42
0.0000001
 43
0.0000001
 44
0.0000000001
 40
0.0
 40
0.0
 40
0.0
 40
0.0
 40
0.1216033528
 40
0.24697627
 40
0.3734496796
 40
0.4995258834
 40
0.624890358
 40
0.749837389
 40
0.8747728491
 40
1.0
 40
1.0
 40
1.0
 40
1.0
 10
176.6614841847
 20
97.5453970322
 30
0.0
 10
176.6614841847
 20
97.8858836111
 30
0.0
 10
176.7494422553
 20
98.5794508419
 30
0.0
 10
177.1074744092
 20
99.5695307405
 30
0.0
 10
177.660267287
 20
100.4794281213
 30
0.0
 10
178.3659385858
 20
101.2746868835
 30
0.0
 10
179.1846607513
 20
101.9444352428
 30
0.0
 10
180.0844592072
 20
102.4925102854
 30
0.0
 10
181.0418046573
 20
102.9294410678
 30
0.0
 10
181.7064827141
 20
103.1542408175
 30
0.0
 10
182.0432618136
 20
103.2518288802
 30
0.0
  0
SPLINE
  5
28B
100
AcDbEntity
  8
RUNDUNGEN
100
AcDbSpline
 62
7
  6
CONTINUOUS
 70
0
 71
3
 72
9
 73
5
 74
0
 42
0.0000001
 43
0.0000001
 44
0.0000000001
 40
0.0
 40
0.0
 40
0.0
 40
0.0
 40
0.4779736723
 40
1.0
 40
1.0
 40
1.0
 40
1.0
 10
194.4862191017
 20
159.1891724215
 30
0.0
 10
194.4597724486
 20
159.2151163359
 30
0.0
 10
194.399019195
 20
159.264101637
 30
0.0
 10
194.3301481447
 20
159.3006883866
 30
0.0
 10
194.293002353
 20
159.3167307511
 30
0.0
  0
SPLINE
  5
28C
100
AcDbEntity
  8
0
100
AcDbSpline
 62
7
  6
CONTINUOUS
 70
0
 71
3
 72
11
 73
7
 74
0
 42
0.0000001
 43
0.0000001
 44
0.0000000001
 40
0.0
 40
0.0
 40
0.0
 40
0.0
 40
0.2765835843
 40
0.5419569986
 40
0.7858765631
 40
1.0
 40
1.0
 40
1.0
 40
1.0
 10
185.9932618136
 20
108.4534244999
 30
0.0
 10
185.7138729809
 20
108.4545076955
 30
0.0
 10
185.1661312964
 20
108.4369344403
 30
0.0
 10
184.3760039252
 20
108.3514445964
 30
0.0
 10
183.6582510046
 20
108.2092042172
 30
0.0
 10
183.2155905908
 20
108.0686506469
 30
0.0
 10
183.015781951
 20
107.9858205977
 30
0.0
  0
SPLINE
  5
28D
100
AcDbEntity
  8
0
100
AcDbSpline
 62
7
  6
CONTINUOUS
 70
0
 71
3
 72
14
 73
10
 74
0
 42
0.0000001
 43
0.0000001
 44
0.0000000001
 40
0.0
 40
0.0
 40
0.0
 40
0.0
 40
0.1502363741
 40
0.2898420139
 40
0.5409834747
 40
0.6572471167
 40
0.7706269643
 40
0.8840316382
 40
1.0
 40
1.0
 40
1.0
 40
1.0
 10
183.015781951
 20
107.9858205977
 30
0.0
 10
182.9396160796
 20
107.954246273
 30
0.0
 10
182.79499557
 20
107.8871808716
 30
0.0
 10
182.5396530714
 20
107.7353472153
 30
0.0
 10
182.3263792305
 20
107.5493879604
 30
0.0
 10
182.17664264
 20
107.3306537434
 30
0.0
 10
182.098782223
 20
107.1581131918
 30
0.0
 10
182.0528530818
 20
106.9747487023
 30
0.0
 10
182.0432618136
 20
106.8485851373
 30
0.0
 10
182.0432618136
 20
106.7849406645
 30
0.0
  0
SPLINE
  5
28E
100
AcDbEntity
  8
BEZUGSACHSEN
100
AcDbSpline
 62
7
  6
CONTINUOUS
 70
0
 71
3
 72
36
 73
32
 74
0
 42
0.0000001
 43
0.0000001
 44
0.0000000001
 40
0.0
 40
0.0
 40
0.0
 40
0.0
 40
0.0695436912
 40
0.1369356547
 40
0.1694237623
 40
0.2010819766
 40
0.2321309454
 40
0.2629751974
 40
0.2941201387
 40
0.326011205
 40
0.3588869898
 40
0.3927280802
 40
0.4273020184
 40
0.4622366004
 40
0.4970911658
 40
0.5314034016
 40
0.5647172285
 40
0.596608802
 40
0.6267196695
 40
0.6548193342
 40
0.6809073597
 40
0.7053422089
 40
0.7289124038
 40
0.7526998442
 40
0.7777210722
 40
0.8046107909
 40
0.8335579421
 40
0.8644254609
 40
0.8968992331
 40
0.9305886177
 40
1.0
 40
1.0
 40
1.0
 40
1.0
 10
185.9932618136
 20
102.9010562943
 30
0.0
 10
185.7254399764
 20
102.9010562943
 30
0.0
 10
185.197692209
 20
102.8720919561
 30
0.0
 10
184.5532152154
 20
102.7523337885
 30
0.0
 10
184.0726536955
 20
102.5892386597
 30
0.0
 10
183.740722338
 20
102.4312462263
 30
0.0
 10
183.4388547673
 20
102.232165065
 30
0.0
 10
183.1729227785
 20
101.9897374684
 30
0.0
 10
182.9473436475
 20
101.7052676634
 30
0.0
 10
182.7634915334
 20
101.3834716116
 30
0.0
 10
182.6194604618
 20
101.0311287368
 30
0.0
 10
182.5110648911
 20
100.6557982842
 30
0.0
 10
182.4333088327
 20
100.2650752302
 30
0.0
 10
182.381513911
 20
99.8662649967
 30
0.0
 10
182.3519564387
 20
99.4662715626
 30
0.0
 10
182.3422213304
 20
99.0715740077
 30
0.0
 10
182.3514453742
 20
98.6882655061
 30
0.0
 10
182.3804325444
 20
98.3221130698
 30
0.0
 10
182.4315915846
 20
97.9785523226
 30
0.0
 10
182.5088070519
 20
97.6625965582
 30
0.0
 10
182.6173081584
 20
97.3787859763
 30
0.0
 10
182.7631528786
 20
97.1315583734
 30
0.0
 10
182.95105401
 20
96.9257618855
 30
0.0
 10
183.1809994258
 20
96.7645804571
 30
0.0
 10
183.448834649
 20
96.6458813368
 30
0.0
 10
183.7498508322
 20
96.5630900769
 30
0.0
 10
184.0796603677
 20
96.5084702598
 30
0.0
 10
184.4336431516
 20
96.4747358163
 30
0.0
 10
184.8068924222
 20
96.4554814909
 30
0.0
 10
185.3288677262
 20
96.4422043053
 30
0.0
 10
185.7259495151
 20
96.4403992467
 30
0.0
 10
185.9932618136
 20
96.4403992467
 30
0.0
  0
SPLINE
  5
28F
100
AcDbEntity
  8
0
100
AcDbSpline
 62
7
  6
CONTINUOUS
 70
0
 71
3
 72
10
 73
6
 74
0
 42
0.0000001
 43
0.0000001
 44
0.0000000001
 40
0.0
 40
0.0
 40
0.0
 40
0.0
 40
0.2211709039
 40
0.4635288506
 40
1.0
 40
1.0
 40
1.0
 40
1.0
 10
195.2507860375
 20
144.2405571193
 30
0.0
 10
195.3543059346
 20
144.1104447363
 30
0.0
 10
195.571254745
 20
143.837741552
 30
0.0
 10
196.0324352852
 20
143.2440513045
 30
0.0
 10
196.3774197221
 20
142.7705708649
 30
0.0
 10
196.6053329298
 20
142.4378414868
 30
0.0
  0
SPLINE
  5
290
100
AcDbEntity
  8
0
100
AcDbSpline
 62
7
  6
CONTINUOUS
 70
0
 71
3
 72
9
 73
5
 74
0
 42
0.0000001
 43
0.0000001
 44
0.0000000001
 40
0.0
 40
0.0
 40
0.0
 40
0.0
 40
0.500004025
 40
1.0
 40
1.0
 40
1.0
 40
1.0
 10
199.4221278902
 20
122.478997193
 30
0.0
 10
199.4221278902
 20
122.078530781
 30
0.0
 10
199.4103949236
 20
121.2775606734
 30
0.0
 10
199.3722276199
 20
120.4773255591
 30
0.0
 10
199.3447454612
 20
120.0778097095
 30
0.0
  0
SPLINE
  5
291
100
AcDbEntity
  8
0
100
AcDbSpline
 62
7
  6
CONTINUOUS
 70
0
 71
3
 72
22
 73
18
 74
0
 42
0.0000001
 43
0.0000001
 44
0.0000000001
 40
0.0
 40
0.0
 40
0.0
 40
0.0
 40
0.0142773153
 40
0.0286330251
 40
0.0599301485
 40
0.0970748609
 40
0.1406836726
 40
0.1648219206
 40
0.1904184581
 40
0.2456621294
 40
0.305842273
 40
0.3704288071
 40
0.4389766714
 40
0.5110957944
 40
0.6646730548
 40
0.8285388566
 40
1.0
 40
1.0
 40
1.0
 40
1.0
 10
175.1468584585
 20
108.7936158741
 30
0.0
 10
175.1610891509
 20
108.8087372023
 30
0.0
 10
175.1933859645
 20
108.8357772284
 30
0.0
 10
175.2722961456
 20
108.8745184993
 30
0.0
 10
175.3943926053
 20
108.8904582175
 30
0.0
 10
175.5567473169
 20
108.869825104
 30
0.0
 10
175.7041583579
 20
108.8291780057
 30
0.0
 10
175.8324423853
 20
108.7847394762
 30
0.0
 10
175.9748548831
 20
108.7296095202
 30
0.0
 10
176.1628903751
 20
108.647521029
 30
0.0
 10
176.3990070858
 20
108.5343636684
 30
0.0
 10
176.649690199
 20
108.4070293903
 30
0.0
 10
176.9137357968
 20
108.2677606899
 30
0.0
 10
177.2901537762
 20
108.0641737336
 30
0.0
 10
177.7856502299
 20
107.7894049456
 30
0.0
 10
178.4048615458
 20
107.4398715162
 30
0.0
 10
178.8277419894
 20
107.196923868
 30
0.0
 10
179.0432618136
 20
107.0714807621
 30
0.0
  0
SPLINE
  5
292
100
AcDbEntity
  8
0
100
AcDbSpline
 62
7
  6
CONTINUOUS
 70
0
 71
3
 72
10
 73
6
 74
0
 42
0.0000001
 43
0.0000001
 44
0.0000000001
 40
0.0
 40
0.0
 40
0.0
 40
0.0
 40
0.4999205584
 40
0.7499588751
 40
1.0
 40
1.0
 40
1.0
 40
1.0
 10
199.1429365967
 20
135.4943599047
 30
0.0
 10
199.2456768671
 20
134.8833919493
 30
0.0
 10
199.3497926663
 20
133.9579429647
 30
0.0
 10
199.4122396671
 20
132.7201558088
 30
0.0
 10
199.4221278902
 20
132.1003286109
 30
0.0
 10
199.4221278902
 20
131.7904553553
 30
0.0
  0
SPLINE
  5
293
100
AcDbEntity
  8
0
100
AcDbSpline
 62
7
  6
CONTINUOUS
 70
0
 71
3
 72
9
 73
5
 74
0
 42
0.0000001
 43
0.0000001
 44
0.0000000001
 40
0.0
 40
0.0
 40
0.0
 40
0.0
 40
0.2405835284
 40
1.0
 40
1.0
 40
1.0
 40
1.0
 10
175.0432628151
 20
108.1833945401
 30
0.0
 10
175.0432049645
 20
108.2331536413
 30
0.0
 10
175.0524077518
 20
108.4399796922
 30
0.0
 10
175.0978452108
 20
108.6443913098
 30
0.0
 10
175.1468584585
 20
108.7936158741
 30
0.0
  0
SPLINE
  5
294
100
AcDbEntity
  8
0
100
AcDbSpline
 62
7
  6
CONTINUOUS
 70
0
 71
3
 72
9
 73
5
 74
0
 42
0.0000001
 43
0.0000001
 44
0.0000000001
 40
0.0
 40
0.0
 40
0.0
 40
0.0
 40
0.2608059955
 40
1.0
 40
1.0
 40
1.0
 40
1.0
 10
196.9396651688
 20
108.7936158741
 30
0.0
 10
196.9564947962
 20
108.7423767922
 30
0.0
 10
197.0143320782
 20
108.5438759829
 30
0.0
 10
197.0434385272
 20
108.3362526672
 30
0.0
 10
197.0432608122
 20
108.1833945401
 30
0.0
  0
SPLINE
  5
295
100
AcDbEntity
  8
0
100
AcDbSpline
 62
7
  6
CONTINUOUS
 70
0
 71
3
 72
12
 73
8
 74
0
 42
0.0000001
 43
0.0000001
 44
0.0000000001
 40
0.0
 40
0.0
 40
0.0
 40
0.0
 40
0.2787040022
 40
0.5412988206
 40
0.7833425636
 40
0.8951556015
 40
1.0
 40
1.0
 40
1.0
 40
1.0
 10
198.4986470749
 20
114.6539992553
 30
0.0
 10
198.3521979113
 20
114.1097572975
 30
0.0
 10
198.0518752661
 20
113.0570225629
 30
0.0
 10
197.6036094627
 20
111.5377760854
 30
0.0
 10
197.2708818217
 20
110.3360615804
 30
0.0
 10
197.0591547308
 20
109.4328121948
 30
0.0
 10
196.9750218713
 20
109.0026657125
 30
0.0
 10
196.9396651688
 20
108.7936158741
 30
0.0
  0
SPLINE
  5
296
100
AcDbEntity
  8
0
100
AcDbSpline
 62
7
  6
CONTINUOUS
 70
0
 71
3
 72
9
 73
5
 74
0
 42
0.0000001
 43
0.0000001
 44
0.0000000001
 40
0.0
 40
0.0
 40
0.0
 40
0.0
 40
0.5083315738
 40
1.0
 40
1.0
 40
1.0
 40
1.0
 10
199.3447454612
 20
120.0778097095
 30
0.0
 10
199.2808379362
 20
119.1487680908
 30
0.0
 10
199.0943410426
 20
117.324371646
 30
0.0
 10
198.7326925449
 20
115.5237711386
 30
0.0
 10
198.4986470749
 20
114.6539992553
 30
0.0
  0
SPLINE
  5
297
100
AcDbEntity
  8
0
100
AcDbSpline
 62
7
  6
CONTINUOUS
 70
0
 71
3
 72
12
 73
8
 74
0
 42
0.0000001
 43
0.0000001
 44
0.0000000001
 40
0.0
 40
0.0
 40
0.0
 40
0.0
 40
0.2787040022
 40
0.5412988206
 40
0.7833425636
 40
0.8951556015
 40
1.0
 40
1.0
 40
1.0
 40
1.0
 10
173.5878765524
 20
114.6539992553
 30
0.0
 10
173.734325716
 20
114.1097572975
 30
0.0
 10
174.0346483612
 20
113.0570225629
 30
0.0
 10
174.4829141646
 20
111.5377760854
 30
0.0
 10
174.8156418056
 20
110.3360615804
 30
0.0
 10
175.0273688965
 20
109.4328121948
 30
0.0
 10
175.111501756
 20
109.0026657125
 30
0.0
 10
175.1468584585
 20
108.7936158741
 30
0.0
  0
SPLINE
  5
298
100
AcDbEntity
  8
0
100
AcDbSpline
 62
7
  6
CONTINUOUS
 70
0
 71
3
 72
9
 73
5
 74
0
 42
0.0000001
 43
0.0000001
 44
0.0000000001
 40
0.0
 40
0.0
 40
0.0
 40
0.0
 40
0.5083315738
 40
1.0
 40
1.0
 40
1.0
 40
1.0
 10
172.741778166
 20
120.0778097095
 30
0.0
 10
172.8056856911
 20
119.1487680908
 30
0.0
 10
172.9921825847
 20
117.324371646
 30
0.0
 10
173.3538310823
 20
115.5237711386
 30
0.0
 10
173.5878765524
 20
114.6539992553
 30
0.0
  0
SPLINE
  5
299
100
AcDbEntity
  8
0
100
AcDbSpline
 62
7
  6
CONTINUOUS
 70
0
 71
3
 72
9
 73
5
 74
0
 42
0.0000001
 43
0.0000001
 44
0.0000000001
 40
0.0
 40
0.0
 40
0.0
 40
0.0
 40
0.500004025
 40
1.0
 40
1.0
 40
1.0
 40
1.0
 10
172.6643957371
 20
122.478997193
 30
0.0
 10
172.6643957371
 20
122.078530781
 30
0.0
 10
172.6761287036
 20
121.2775606734
 30
0.0
 10
172.7142960074
 20
120.4773255591
 30
0.0
 10
172.741778166
 20
120.0778097095
 30
0.0
  0
SPLINE
  5
29A
100
AcDbEntity
  8
0
100
AcDbSpline
 62
7
  6
CONTINUOUS
 70
0
 71
3
 72
10
 73
6
 74
0
 42
0.0000001
 43
0.0000001
 44
0.0000000001
 40
0.0
 40
0.0
 40
0.0
 40
0.0
 40
0.4999205584
 40
0.7499588751
 40
1.0
 40
1.0
 40
1.0
 40
1.0
 10
172.9435870306
 20
135.4943599047
 30
0.0
 10
172.8408467602
 20
134.8833919493
 30
0.0
 10
172.736730961
 20
133.9579429647
 30
0.0
 10
172.6742839602
 20
132.7201558088
 30
0.0
 10
172.6643957371
 20
132.1003286109
 30
0.0
 10
172.6643957371
 20
131.7904553553
 30
0.0
  0
SPLINE
  5
29B
100
AcDbEntity
  8
0
100
AcDbSpline
 62
7
  6
CONTINUOUS
 70
0
 71
3
 72
11
 73
7
 74
0
 42
0.0000001
 43
0.0000001
 44
0.0000000001
 40
0.0
 40
0.0
 40
0.0
 40
0.0
 40
0.223746929
 40
0.4681834904
 40
0.7293234398
 40
1.0
 40
1.0
 40
1.0
 40
1.0
 10
175.4811906975
 20
142.4378414868
 30
0.0
 10
175.1674348006
 20
141.9797907863
 30
0.0
 10
174.587438808
 20
140.9680062103
 30
0.0
 10
173.8861986032
 20
139.2959679407
 30
0.0
 10
173.3255582802
 20
137.4501522631
 30
0.0
 10
173.0549688828
 20
136.156716938
 30
0.0
 10
172.9435870318
 20
135.4943599047
 30
0.0
  0
SPLINE
  5
29C
100
AcDbEntity
  8
0
100
AcDbSpline
 62
7
  6
CONTINUOUS
 70
0
 71
3
 72
10
 73
6
 74
0
 42
0.0000001
 43
0.0000001
 44
0.0000000001
 40
0.0
 40
0.0
 40
0.0
 40
0.0
 40
0.2211709039
 40
0.4635288506
 40
1.0
 40
1.0
 40
1.0
 40
1.0
 10
176.8357375898
 20
144.2405571193
 30
0.0
 10
176.7322176927
 20
144.1104447363
 30
0.0
 10
176.5152688823
 20
143.837741552
 30
0.0
 10
176.0540883421
 20
143.2440513045
 30
0.0
 10
175.7091039052
 20
142.7705708649
 30
0.0
 10
175.4811906975
 20
142.4378414868
 30
0.0
  0
SPLINE
  5
29D
100
AcDbEntity
  8
KONSTRUKTIONSELEMENTE
100
AcDbSpline
 62
7
  6
CONTINUOUS
 70
0
 71
3
 72
15
 73
11
 74
0
 42
0.0000001
 43
0.0000001
 44
0.0000000001
 40
0.0
 40
0.0
 40
0.0
 40
0.0
 40
0.1216033528
 40
0.24697627
 40
0.3734496796
 40
0.4995258834
 40
0.624890358
 40
0.749837389
 40
0.8747728491
 40
1.0
 40
1.0
 40
1.0
 40
1.0
 10
195.4250394426
 20
97.5453970322
 30
0.0
 10
195.4250394426
 20
97.8858836111
 30
0.0
 10
195.337081372
 20
98.5794508419
 30
0.0
 10
194.9790492181
 20
99.5695307405
 30
0.0
 10
194.4262563402
 20
100.4794281213
 30
0.0
 10
193.7205850415
 20
101.2746868835
 30
0.0
 10
192.901862876
 20
101.9444352428
 30
0.0
 10
192.0020644201
 20
102.4925102854
 30
0.0
 10
191.04471897
 20
102.9294410678
 30
0.0
 10
190.3800409132
 20
103.1542408175
 30
0.0
 10
190.0432618136
 20
103.2518288802
 30
0.0
  0
SPLINE
  5
29E
100
AcDbEntity
  8
RUNDUNGEN
100
AcDbSpline
 62
7
  6
CONTINUOUS
 70
0
 71
3
 72
14
 73
10
 74
0
 42
0.0000001
 43
0.0000001
 44
0.0000000001
 40
0.0
 40
0.0
 40
0.0
 40
0.0
 40
0.1502363741
 40
0.2898420139
 40
0.5409834747
 40
0.6572471167
 40
0.7706269643
 40
0.8840316382
 40
1.0
 40
1.0
 40
1.0
 40
1.0
 10
189.0707416763
 20
107.9858205977
 30
0.0
 10
189.1469075477
 20
107.954246273
 30
0.0
 10
189.2915280572
 20
107.8871808716
 30
0.0
 10
189.5468705559
 20
107.7353472153
 30
0.0
 10
189.7601443968
 20
107.5493879604
 30
0.0
 10
189.9098809873
 20
107.3306537434
 30
0.0
 10
189.9877414043
 20
107.1581131918
 30
0.0
 10
190.0336705454
 20
106.9747487023
 30
0.0
 10
190.0432618136
 20
106.8485851373
 30
0.0
 10
190.0432618136
 20
106.7849406645
 30
0.0
  0
SPLINE
  5
29F
100
AcDbEntity
  8
RUNDUNGEN
100
AcDbSpline
 62
7
  6
CONTINUOUS
 70
0
 71
3
 72
11
 73
7
 74
0
 42
0.0000001
 43
0.0000001
 44
0.0000000001
 40
0.0
 40
0.0
 40
0.0
 40
0.0
 40
0.2765835843
 40
0.5419569986
 40
0.7858765631
 40
1.0
 40
1.0
 40
1.0
 40
1.0
 10
186.0932618136
 20
108.4534244999
 30
0.0
 10
186.3726506464
 20
108.4545076955
 30
0.0
 10
186.9203923308
 20
108.4369344403
 30
0.0
 10
187.7105197021
 20
108.3514445964
 30
0.0
 10
188.4282726227
 20
108.2092042172
 30
0.0
 10
188.8709330365
 20
108.0686506469
 30
0.0
 10
189.0707416763
 20
107.9858205977
 30
0.0
  0
SPLINE
  5
2A0
100
AcDbEntity
  8
BEZUGSACHSEN
100
AcDbSpline
 62
7
  6
CONTINUOUS
 70
0
 71
3
 72
36
 73
32
 74
0
 42
0.0000001
 43
0.0000001
 44
0.0000000001
 40
0.0
 40
0.0
 40
0.0
 40
0.0
 40
0.0694113823
 40
0.1031007669
 40
0.1355745391
 40
0.1664420579
 40
0.1953892091
 40
0.2222789278
 40
0.2473001558
 40
0.2710875962
 40
0.2946577911
 40
0.3190926403
 40
0.3451806658
 40
0.3732803305
 40
0.403391198
 40
0.4352827715
 40
0.4685965984
 40
0.5029088342
 40
0.5377633996
 40
0.5726979816
 40
0.6072719198
 40
0.6411130102
 40
0.673988795
 40
0.7058798613
 40
0.7370248026
 40
0.7678690546
 40
0.7989180234
 40
0.8305762377
 40
0.8630643453
 40
0.9304563088
 40
1.0
 40
1.0
 40
1.0
 40
1.0
 10
186.0932618136
 20
96.4403992467
 30
0.0
 10
186.3605741121
 20
96.4403992467
 30
0.0
 10
186.7576559011
 20
96.4422043053
 30
0.0
 10
187.2796312051
 20
96.4554814909
 30
0.0
 10
187.6528804757
 20
96.4747358163
 30
0.0
 10
188.0068632596
 20
96.5084702598
 30
0.0
 10
188.3366727951
 20
96.5630900769
 30
0.0
 10
188.6376889783
 20
96.6458813368
 30
0.0
 10
188.9055242015
 20
96.7645804571
 30
0.0
 10
189.1354696173
 20
96.9257618855
 30
0.0
 10
189.3233707487
 20
97.1315583734
 30
0.0
 10
189.4692154689
 20
97.3787859763
 30
0.0
 10
189.5777165754
 20
97.6625965582
 30
0.0
 10
189.6549320426
 20
97.9785523226
 30
0.0
 10
189.7060910829
 20
98.3221130698
 30
0.0
 10
189.735078253
 20
98.6882655061
 30
0.0
 10
189.7443022968
 20
99.0715740077
 30
0.0
 10
189.7345671886
 20
99.4662715626
 30
0.0
 10
189.7050097163
 20
99.8662649967
 30
0.0
 10
189.6532147946
 20
100.2650752302
 30
0.0
 10
189.5754587361
 20
100.6557982842
 30
0.0
 10
189.4670631655
 20
101.0311287368
 30
0.0
 10
189.3230320939
 20
101.3834716116
 30
0.0
 10
189.1391799798
 20
101.7052676634
 30
0.0
 10
188.9136008488
 20
101.9897374684
 30
0.0
 10
188.64766886
 20
102.232165065
 30
0.0
 10
188.3458012892
 20
102.4312462263
 30
0.0
 10
188.0138699318
 20
102.5892386597
 30
0.0
 10
187.5333084119
 20
102.7523337885
 30
0.0
 10
186.8888314183
 20
102.8720919561
 30
0.0
 10
186.3610836509
 20
102.9010562943
 30
0.0
 10
186.0932618136
 20
102.9010562943
 30
0.0
  0
SPLINE
  5
2A1
100
AcDbEntity
  8
RUNDUNGEN
100
AcDbSpline
 62
7
  6
CONTINUOUS
 70
0
 71
3
 72
9
 73
5
 74
0
 42
0.0000001
 43
0.0000001
 44
0.0000000001
 40
0.0
 40
0.0
 40
0.0
 40
0.0
 40
0.5220080958
 40
1.0
 40
1.0
 40
1.0
 40
1.0
 10
177.7935556821
 20
159.3167394938
 30
0.0
 10
177.7564004309
 20
159.3006819813
 30
0.0
 10
177.6874884339
 20
159.2641077206
 30
0.0
 10
177.6267188129
 20
159.2150897952
 30
0.0
 10
177.6002613034
 20
159.1891338718
 30
0.0
  0
SPLINE
  5
2A2
100
AcDbEntity
  8
0
100
AcDbSpline
 62
7
  6
CONTINUOUS
 70
0
 71
3
 72
22
 73
18
 74
0
 42
0.0000001
 43
0.0000001
 44
0.0000000001
 40
0.0
 40
0.0
 40
0.0
 40
0.0
 40
0.1714611453
 40
0.3353269479
 40
0.4889042098
 40
0.5610233352
 40
0.6295711986
 40
0.6941577316
 40
0.7543378773
 40
0.8095815507
 40
0.8351780872
 40
0.8593163355
 40
0.9029251464
 40
0.9400698589
 40
0.9713669789
 40
0.9857226854
 40
1.0
 40
1.0
 40
1.0
 40
1.0
 10
193.0432618136
 20
107.0714807621
 30
0.0
 10
193.2587816404
 20
107.1969238694
 30
0.0
 10
193.6816620881
 20
107.4398715194
 30
0.0
 10
194.3008734091
 20
107.7894049531
 30
0.0
 10
194.796369871
 20
108.0641737409
 30
0.0
 10
195.1727878508
 20
108.2677607062
 30
0.0
 10
195.4368334539
 20
108.4070293983
 30
0.0
 10
195.6875165651
 20
108.5343636812
 30
0.0
 10
195.9236332803
 20
108.6475210432
 30
0.0
 10
196.1116687759
 20
108.7296095387
 30
0.0
 10
196.2540812802
 20
108.7847394837
 30
0.0
 10
196.3823653025
 20
108.8291780207
 30
0.0
 10
196.5297763459
 20
108.869825112
 30
0.0
 10
196.6921310526
 20
108.8904582121
 30
0.0
 10
196.8142275022
 20
108.8745184982
 30
0.0
 10
196.8931376745
 20
108.8357772312
 30
0.0
 10
196.9254344772
 20
108.8087372015
 30
0.0
 10
196.9396651688
 20
108.7936158741
 30
0.0
  0
ELLIPSE
  5
2A3
100
AcDbEntity
  8
0
100
AcDbEllipse
 62
7
  6
CONTINUOUS
 10
186.0432618136
 20
64.8406449928
 30
0.0
 11
-0.0
 21
19.4404845093
 31
0.0
 40
0.9100754502
 41
-0.0028260907
 42
0.0028260907
  0
ELLIPSE
  5
2A4
100
AcDbEntity
  8
0
100
AcDbEllipse
 62
7
  6
CONTINUOUS
 10
186.0432618136
 20
135.1350677152
 30
0.0
 11
0.0
 21
-13.6604723937
 31
0.0
 40
0.9902680687
 41
3.1305039272
 42
3.1526813799
  0
ELLIPSE
  5
2A5
100
AcDbEntity
  8
0
100
AcDbEllipse
 62
7
  6
CONTINUOUS
 10
186.0432618136
 20
118.2130681878
 30
0.0
 11
13.5275296154
 21
0.0
 31
0.0
 40
0.9625079012
 41
-2.1146801464
 42
-1.9366642021
  0
ELLIPSE
  5
2A6
100
AcDbEntity
  8
0
100
AcDbEllipse
 62
7
  6
CONTINUOUS
 10
186.0432618136
 20
130.833538726
 30
0.0
 11
0.0
 21
18.3003990843
 31
0.0
 40
0.7391931484
 41
-0.7486506389
 42
0.7486506389
  0
ELLIPSE
  5
2A7
100
AcDbEntity
  8
0
100
AcDbEllipse
 62
7
  6
CONTINUOUS
 10
186.0432618136
 20
118.2130681878
 30
0.0
 11
13.5275296154
 21
-0.0
 31
0.0
 40
0.9625079012
 41
-1.2049284515
 42
-1.0269125072
  0
ENDSEC
  0
SECTION
  2
OBJECTS
  0
DICTIONARY
  5
C
100
AcDbDictionary
280
0
281
1
  3
ACAD_GROUP
350
D
  3
ACAD_MLINESTYLE
350
17
  3
ACAD_LAYOUT
350
1A
  3
ACAD_PLOTSETTINGS
350
19
  3
ACAD_PLOTSTYLENAME
350
E
  0
DICTIONARY
  5
D
102
{ACAD_REACTORS
330
C
102
}
100
AcDbDictionary
280
0
281
1
  0
ACDBDICTIONARYWDFLT
  5
E
102
{ACAD_REACTORS
330
C
102
}
100
AcDbDictionary
281
1
  3
Normal
350
F
100
AcDbDictionaryWithDefault
340
F
  0
DICTIONARY
  5
17
102
{ACAD_REACTORS
330
C
102
}
100
AcDbDictionary
280
0
281
1
  3
Standard
350
18
  0
DICTIONARY
  5
19
102
{ACAD_REACTORS
330
C
102
}
100
AcDbDictionary
281
1
  0
DICTIONARY
  5
1A
102
{ACAD_REACTORS
330
C
102
}
100
AcDbDictionary
281
1
  3
Model
350
2A8
  3
Layout1
350
2A9
  0
ACDBPLACEHOLDER
  5
F
102
{ACAD_REACTORS
330
E
102
}
  0
MLINESTYLE
  5
18
102
{ACAD_REACTORS
330
17
102
}
100
AcDbMlineStyle
  2
STANDARD
 70
0
  3

 62
256
 51
90.0
 52
90.0
 71
2
 49
0.5
 62
256
  6
BYLAYER
 49
-0.5
 62
256
  6
BYLAYER
  0
LAYOUT
  5
2A8
102
{ACAD_REACTORS
330
1A
102
}
100
AcDbPlotSettings
  1

  2
none_device
  4
ISO_A4_(297.00_x_210.00_MM)
  6

 40
0.0
 41
0.0
 42
0.0
 43
0.0
 44
297.0
 45
210.0
 46
0.0
 47
0.0
 48
0.0
 49
0.0
140
0.0
141
0.0
142
1.0
143
1.0
 70
1024
 72
1
 73
0
 74
0
  7

 75
0
147
1.0
148
0.0
149
0.0
100
AcDbLayout
  1
Model
 70
0
 71
0
 10
0.0
 20
0.0
 11
297.0
 21
210.0
 12
0.0
 22
0.0
 32
0.0
 14
0.0
 24
0.0
 34
0.0
 15
0.0
 25
0.0
 35
0.0
146
0.0
 13
0.0
 23
0.0
 33
0.0
 16
1.0
 26
0.0
 36
0.0
 17
0.0
 27
1.0
 37
0.0
 76
0
330
20C
345
0
346
0
  0
LAYOUT
  5
2A9
102
{ACAD_REACTORS
330
1A
102
}
100
AcDbPlotSettings
  1

  2
none_device
  4
ISO_A4_(297.00_x_210.00_MM)
  6

 40
0.0
 41
0.0
 42
0.0
 43
0.0
 44
297.0
 45
210.0
 46
0.0
 47
0.0
 48
0.0
 49
0.0
140
0.0
141
0.0
142
1.0
143
1.0
 70
0
 72
1
 73
0
 74
0
  7

 75
0
147
1.0
148
0.0
149
0.0
100
AcDbLayout
  1
Layout1
 70
0
 71
1
 10
0.0
 20
0.0
 11
297.0
 21
210.0
 12
0.0
 22
0.0
 32
0.0
 14
0.0
 24
0.0
 34
0.0
 15
0.0
 25
0.0
 35
0.0
146
0.0
 13
0.0
 23
0.0
 33
0.0
 16
1.0
 26
0.0
 36
0.0
 17
0.0
 27
1.0
 37
0.0
 76
0
330
20D
345
0
346
0
  0
ENDSEC
  0
EOF
