999
DXF file: IMVK-13_7900984_M34158-P-1.dxf
999
Pro/ENGINEER 2010140 by Parametric Technology Corporation
  0
SECTION
  2
HEADER
  9
$ACADVER
  1
AC1015
  9
$DWGCODEPAGE
  3
ANSI_1252
  9
$EXTMAX
 10
420.0
 20
297.0
 30
0.0
  9
$EXTMIN
 10
0.0
 20
0.0
 30
0.0
  9
$LIMMIN
 10
0.0
 20
0.0
  9
$LIMMAX
 10
420.0
 20
297.0
  9
$VIEWCTR
 10
210.0
 20
148.5
  9
$VIEWSIZE
 40
297.0
  9
$CLAYER
  8
0
  9
$LTSCALE
 40
23.1
  9
$CELTYPE
  6
BYLAYER
  9
$DIMSCALE
 40
1.0
  9
$DIMASZ
 40
3.5
  9
$DIMEXO
 40
2.625
  9
$DIMDLI
 40
15.96
  9
$DIMEXE
 40
7.56
  9
$DIMCEN
 40
3.78
  9
$DIMLFAC
 40
1.0
  9
$DIMBLK
  1
_FILLED
  9
$DIMTXT
 40
3.5
  9
$DIMTOL
 70
1
  9
$DIMLIM
 70
0
  9
$DIMTFAC
 40
1.0
  9
$DIMTP
 40
0.005
  9
$DIMTM
 40
0.005
  9
$PDMODE
 70
3
  9
$PDSIZE
 40
0.3125
  9
$HANDSEED
  5
2AF
  9
$TILEMODE
 70
1
  9
$MEASUREMENT
 70
1
  9
$INSUNITS
 70
4
  0
ENDSEC
  0
SECTION
  2
CLASSES
  0
CLASS
  1
ACDBDICTIONARYWDFLT
  2
AcDbDictionaryWithDefault
  3
AutoCAD 2000
 90
0
280
0
281
0
  0
CLASS
  1
ACDBPLACEHOLDER
  2
AcDbPlaceHolder
  3
AutoCAD 2000
 90
0
280
0
281
0
  0
CLASS
  1
LAYOUT
  2
AcDbLayout
  3
AutoCAD 2000
 90
0
280
0
281
0
  0
ENDSEC
  0
SECTION
  2
TABLES
  0
TABLE
  2
VPORT
  5
8
100
AcDbSymbolTable
 70
2
  0
VPORT
  5
1F4
100
AcDbSymbolTableRecord
100
AcDbViewportTableRecord
  2
*ACTIVE
 70
0
 10
0.0
 20
0.0
 11
1.0
 21
1.0
 12
210.0
 22
148.5
 13
0.0
 23
0.0
 14
1.0
 24
1.0
 15
0.0
 25
0.0
 16
0.0
 26
0.0
 36
1.0
 17
0.0
 27
0.0
 37
0.0
 40
297.0
 41
1.4141414141
 42
50.0
 43
0.0
 44
0.0
 50
0.0
 51
0.0
 71
0
 72
100
 73
1
 74
1
 75
0
 76
0
 77
0
 78
0
  0
ENDTAB
  0
TABLE
  2
LTYPE
  5
5
100
AcDbSymbolTable
 70
6
  0
LTYPE
  5
14
100
AcDbSymbolTableRecord
100
AcDbLinetypeTableRecord
  2
BYBLOCK
 70
0
  3

 72
65
 73
0
 40
0.0
  0
LTYPE
  5
15
100
AcDbSymbolTableRecord
100
AcDbLinetypeTableRecord
  2
BYLAYER
 70
0
  3

 72
65
 73
0
 40
0.0
  0
LTYPE
  5
16
100
AcDbSymbolTableRecord
100
AcDbLinetypeTableRecord
  2
CONTINUOUS
 70
64
  3
Solid line
 72
65
 73
0
 40
0.0
  0
LTYPE
  5
1F5
100
AcDbSymbolTableRecord
100
AcDbLinetypeTableRecord
  2
CENTER
 70
64
  3
____ _ ____ _ ____ _ ____ _ ____ _ ____ _ ____
 72
65
 73
4
 40
0.6
 49
0.375
 74
0
 49
-0.075
 74
0
 49
0.075
 74
0
 49
-0.075
 74
0
  0
LTYPE
  5
1F6
100
AcDbSymbolTableRecord
100
AcDbLinetypeTableRecord
  2
HIDDEN
 70
64
  3
- - - - - - - - - - - - - - - - - - - -
 72
65
 73
2
 40
0.2
 49
0.1
 74
0
 49
-0.1
 74
0
  0
LTYPE
  5
1F7
100
AcDbSymbolTableRecord
100
AcDbLinetypeTableRecord
  2
PHANTOM
 70
64
  3
_____ _ _ _____ _ _ _____ _ _ _____
 72
65
 73
6
 40
0.8
 49
0.45
 74
0
 49
-0.05
 74
0
 49
0.1
 74
0
 49
-0.05
 74
0
 49
0.1
 74
0
 49
-0.05
 74
0
  0
LTYPE
  5
1F8
100
AcDbSymbolTableRecord
100
AcDbLinetypeTableRecord
  2
DOT
 70
64
  3
. . . . . . . . . . . . . . . . . . . .
 72
65
 73
2
 40
0.2
 49
0.1
 74
0
 49
-0.1
 74
0
  0
LTYPE
  5
1F9
100
AcDbSymbolTableRecord
100
AcDbLinetypeTableRecord
  2
DASHED
 70
64
  3
- - - - - - - - - - - - - - - - - - - -
 72
65
 73
2
 40
0.2
 49
0.1
 74
0
 49
-0.1
 74
0
  0
ENDTAB
  0
TABLE
  2
LAYER
  5
2
100
AcDbSymbolTable
 70
36
  0
LAYER
  5
10
100
AcDbSymbolTableRecord
100
AcDbLayerTableRecord
  2
0
 70
0
 62
7
  6
CONTINUOUS
370
-3
390
F
  0
LAYER
  5
1FA
100
AcDbSymbolTableRecord
100
AcDbLayerTableRecord
  2
DEFAULT_1
 70
0
 62
7
  6
CENTER
370
-3
390
F
  0
LAYER
  5
1FB
100
AcDbSymbolTableRecord
100
AcDbLayerTableRecord
  2
DEFAULT_2
 70
0
 62
8
  6
HIDDEN
370
-3
390
F
  0
LAYER
  5
1FC
100
AcDbSymbolTableRecord
100
AcDbLayerTableRecord
  2
DEFAULT_3
 70
0
 62
7
  6
PHANTOM
370
-3
390
F
  0
LAYER
  5
1FD
100
AcDbSymbolTableRecord
100
AcDbLayerTableRecord
  2
BEZUGSACHSEN
 70
0
 62
7
  6
CONTINUOUS
370
-3
390
F
  0
LAYER
  5
1FE
100
AcDbSymbolTableRecord
100
AcDbLayerTableRecord
  2
BEZUGSEBENEN
 70
0
 62
7
  6
CONTINUOUS
370
-3
390
F
  0
LAYER
  5
1FF
100
AcDbSymbolTableRecord
100
AcDbLayerTableRecord
  2
FASEN
 70
0
 62
7
  6
CONTINUOUS
370
-3
390
F
  0
LAYER
  5
200
100
AcDbSymbolTableRecord
100
AcDbLayerTableRecord
  2
HILFEN
 70
0
 62
7
  6
CONTINUOUS
370
-3
390
F
  0
LAYER
  5
201
100
AcDbSymbolTableRecord
100
AcDbLayerTableRecord
  2
KONSTRUKTIONSELEMENTE
 70
0
 62
7
  6
CONTINUOUS
370
-3
390
F
  0
LAYER
  5
202
100
AcDbSymbolTableRecord
100
AcDbLayerTableRecord
  2
PLATZIERUNG
 70
0
 62
7
  6
CONTINUOUS
370
-3
390
F
  0
LAYER
  5
203
100
AcDbSymbolTableRecord
100
AcDbLayerTableRecord
  2
RUNDUNGEN
 70
0
 62
7
  6
CONTINUOUS
370
-3
390
F
  0
LAYER
  5
204
100
AcDbSymbolTableRecord
100
AcDbLayerTableRecord
  2
TEIL_STARTBEZUEGE
 70
0
 62
7
  6
CONTINUOUS
370
-3
390
F
  0
LAYER
  5
205
100
AcDbSymbolTableRecord
100
AcDbLayerTableRecord
  2
ZEICHNUNGSBEMASSUNGEN
 70
0
 62
7
  6
CONTINUOUS
370
-3
390
F
  0
ENDTAB
  0
TABLE
  2
STYLE
  5
3
100
AcDbSymbolTable
 70
1
  0
STYLE
  5
11
100
AcDbSymbolTableRecord
100
AcDbTextStyleTableRecord
  2
STANDARD
 70
0
 40
0.0
 41
0.7
 50
0.0
 71
0
 42
0.2
  3
txt
  4

  0
STYLE
  5
206
100
AcDbSymbolTableRecord
100
AcDbTextStyleTableRecord
  2
TEXTSTYLE_1
 70
0
 40
0.0
 41
0.8
 50
0.0
 71
0
 42
0.2
  3
gdt
  4

  0
ENDTAB
  0
TABLE
  2
VIEW
  5
6
100
AcDbSymbolTable
 70
0
  0
ENDTAB
  0
TABLE
  2
UCS
  5
7
100
AcDbSymbolTable
 70
0
  0
ENDTAB
  0
TABLE
  2
APPID
  5
9
100
AcDbSymbolTable
 70
1
  0
APPID
  5
207
100
AcDbSymbolTableRecord
100
AcDbRegAppTableRecord
  2
ACAD
 70
0
  0
ENDTAB
  0
TABLE
  2
BLOCK_RECORD
  5
1
100
AcDbSymbolTable
 70
0
  0
BLOCK_RECORD
  5
208
100
AcDbSymbolTableRecord
100
AcDbBlockTableRecord
  2
*Model_Space
  0
BLOCK_RECORD
  5
209
100
AcDbSymbolTableRecord
100
AcDbBlockTableRecord
  2
*Paper_Space
  0
ENDTAB
  0
TABLE
  2
DIMSTYLE
  5
A
100
AcDbSymbolTable
 70
1
100
AcDbDimStyleTable
 71
0
  0
DIMSTYLE
105
20A
100
AcDbSymbolTableRecord
100
AcDbDimStyleTableRecord
  2
STANDARD
 70
0
  3

  4

 40
1.0
 41
3.5
 42
0.0625
 43
0.38
 44
0.18
 45
0.0
 46
0.0
 47
0.005
 48
0.005
140
3.5
141
0.09
142
0.0
143
25.4
144
1.0
145
0.0
146
1.0
147
0.09
 71
1.0
 72
0.0
 73
0
 74
0
 75
0
 76
0
 77
1
 78
8
170
0
171
2
172
0
173
0
174
0
175
0
176
0
177
0
178
5
270
2
271
3
272
3
273
2
274
2
275
0
280
0
281
0
282
0
283
1
284
8
285
0
286
0
287
3
288
0
340
11
  0
ENDTAB
  0
ENDSEC
  0
SECTION
  2
BLOCKS
  0
BLOCK
  5
20
100
AcDbEntity
  8
0
100
AcDbBlockBegin
  2
*Model_Space
 70
0
 10
0.0
 20
0.0
 30
0.0
  3
*Model_Space
  1

  0
ENDBLK
  5
21
100
AcDbEntity
  8
0
100
AcDbBlockEnd
  0
BLOCK
  5
1C
100
AcDbEntity
  8
0
100
AcDbBlockBegin
  2
*Paper_Space
 70
0
 10
0.0
 20
0.0
 30
0.0
  3
*Paper_Space
  1

  0
ENDBLK
  5
1D
100
AcDbEntity
  8
0
100
AcDbBlockEnd
  0
ENDSEC
  0
SECTION
  2
ENTITIES
  0
MTEXT
  5
20B
100
AcDbEntity
  8
0
100
AcDbMText
 62
5
  6
CONTINUOUS
  7
STANDARD
 71
1
 72
1
 10
161.7715154675
 20
181.2960192909
 30
0.0
 11
-0.0
 21
-1.0
 31
0.0
 44
0.9
  1
RUD\PIMVK 13
 40
6.5
 41
33.7380952381
  0
MTEXT
  5
20C
100
AcDbEntity
  8
0
100
AcDbMText
 62
5
  6
CONTINUOUS
  7
STANDARD
 71
1
 72
1
 10
246.1591162461
 20
197.7084310949
 30
0.0
 11
0.0
 21
1.0
 31
0.0
 44
0.9
  1
RUD
 40
6.5
 41
16.0952380952
  0
MTEXT
  5
20D
100
AcDbEntity
  8
0
100
AcDbMText
 62
5
  6
CONTINUOUS
  7
STANDARD
 71
1
 72
1
 10
308.3486754814
 20
184.4739362739
 30
0.0
 11
0.0
 21
1.0
 31
0.0
 44
0.9
  1
IMVK 13
 40
6.5
 41
34.9761904762
  0
LINE
  5
20E
100
AcDbEntity
  8
0
100
AcDbLine
 62
7
  6
CONTINUOUS
 10
0.0
 20
0.0
 11
0.0
 21
297.0
  0
LINE
  5
20F
100
AcDbEntity
  8
0
100
AcDbLine
 62
7
  6
CONTINUOUS
 10
0.0
 20
0.0
 11
420.0
 21
0.0
  0
LINE
  5
210
100
AcDbEntity
  8
0
100
AcDbLine
 62
7
  6
CONTINUOUS
 10
0.0
 20
297.0
 11
420.0
 21
297.0
  0
LINE
  5
211
100
AcDbEntity
  8
0
100
AcDbLine
 62
7
  6
CONTINUOUS
 10
420.0
 20
0.0
 11
420.0
 21
297.0
  0
LINE
  5
212
100
AcDbEntity
  8
0
100
AcDbLine
 62
7
  6
CONTINUOUS
 10
110.1357316627
 20
108.0715914508
 11
120.3561292206
 21
79.9912799427
  0
LINE
  5
213
100
AcDbEntity
  8
KONSTRUKTIONSELEMENTE
100
AcDbLine
 62
7
  6
CONTINUOUS
 10
120.3561292206
 20
79.9912799427
 11
110.1357316627
 21
108.0715914508
  0
LINE
  5
214
100
AcDbEntity
  8
BEZUGSACHSEN
100
AcDbLine
 62
7
  6
CONTINUOUS
 10
172.4730578761
 20
128.0160465512
 11
173.3043134264
 21
128.0160465512
  0
LINE
  5
215
100
AcDbEntity
  8
DEFAULT_2
100
AcDbLine
 62
8
  6
HIDDEN
 10
109.9585349189
 20
239.3718757091
 11
109.9585349189
 21
223.5065918514
  0
LINE
  5
216
100
AcDbEntity
  8
KONSTRUKTIONSELEMENTE
100
AcDbLine
 62
8
  6
HIDDEN
 10
109.9585349189
 20
223.5065918514
 11
109.9585349189
 21
239.3718757091
  0
LINE
  5
217
100
AcDbEntity
  8
BEZUGSACHSEN
100
AcDbLine
 62
7
  6
CONTINUOUS
 10
170.3314686017
 20
136.0160465512
 11
170.8651130721
 21
136.0160465512
  0
LINE
  5
218
100
AcDbEntity
  8
KONSTRUKTIONSELEMENTE
100
AcDbLine
 62
8
  6
HIDDEN
 10
128.1425937722
 20
89.0057101713
 11
116.3514140334
 21
121.4017102524
  0
LINE
  5
219
100
AcDbEntity
  8
DEFAULT_2
100
AcDbLine
 62
8
  6
HIDDEN
 10
128.1426482307
 20
89.0055605479
 11
116.3514140334
 21
121.4017102524
  0
LINE
  5
21A
100
AcDbEntity
  8
BEZUGSACHSEN
100
AcDbLine
 62
7
  6
CONTINUOUS
 10
169.8117466821
 20
138.5160465512
 11
170.3407819967
 21
138.5160465512
  0
LINE
  5
21B
100
AcDbEntity
  8
BEZUGSACHSEN
100
AcDbLine
 62
7
  6
CONTINUOUS
 10
168.8551708113
 20
146.5160465512
 11
169.3759284783
 21
146.5160465512
  0
LINE
  5
21C
100
AcDbEntity
  8
KONSTRUKTIONSELEMENTE
100
AcDbLine
 62
8
  6
HIDDEN
 10
145.245053929
 20
95.2303271564
 11
131.5327983467
 21
132.9044397385
  0
LINE
  5
21D
100
AcDbEntity
  8
DEFAULT_2
100
AcDbLine
 62
8
  6
HIDDEN
 10
145.2449994705
 20
95.2304767798
 11
131.5327983467
 21
132.9044397385
  0
LINE
  5
21E
100
AcDbEntity
  8
0
100
AcDbLine
 62
7
  6
CONTINUOUS
 10
137.4585349189
 20
187.2995642255
 11
137.4585349189
 21
178.4402124442
  0
LINE
  5
21F
100
AcDbEntity
  8
KONSTRUKTIONSELEMENTE
100
AcDbLine
 62
7
  6
CONTINUOUS
 10
137.4585349189
 20
151.8393892947
 11
137.4585349189
 21
187.2995642255
  0
LINE
  5
220
100
AcDbEntity
  8
KONSTRUKTIONSELEMENTE
100
AcDbLine
 62
7
  6
CONTINUOUS
 10
126.6313457542
 20
207.0349240575
 11
90.2160874646
 21
230.2340021534
  0
LINE
  5
221
100
AcDbEntity
  8
0
100
AcDbLine
 62
7
  6
CONTINUOUS
 10
168.5840870011
 20
103.6949302836
 11
164.5593299377
 21
96.7322683562
  0
LINE
  5
222
100
AcDbEntity
  8
RUNDUNGEN
100
AcDbLine
 62
7
  6
CONTINUOUS
 10
153.2154303585
 20
77.1077950119
 11
168.5839041842
 21
103.6946140179
  0
LINE
  5
223
100
AcDbEntity
  8
KONSTRUKTIONSELEMENTE
100
AcDbLine
 62
8
  6
HIDDEN
 10
98.2102412451
 20
225.1597581431
 11
109.958566331
 21
223.5086387291
  0
LINE
  5
224
100
AcDbEntity
  8
KONSTRUKTIONSELEMENTE
100
AcDbLine
 62
7
  6
CONTINUOUS
 10
94.8697268924
 20
242.1114850194
 11
127.8286666943
 21
236.1272735309
  0
LWPOLYLINE
  5
225
100
AcDbEntity
  8
0
100
AcDbPolyline
 62
7
  6
CONTINUOUS
 90
7
 70
0
 10
250.3610772159
 20
235.4242487345
 10
249.449602508
 20
234.7984950892
 10
248.4638512739
 20
233.9844635361
 10
247.4974490471
 20
233.0359329759
 10
246.5474467495
 20
231.9452479444
 10
245.6108225773
 20
230.7026892475
 10
244.7426499438
 20
229.3899181393
  0
LINE
  5
226
100
AcDbEntity
  8
0
100
AcDbLine
 62
7
  6
CONTINUOUS
 10
250.3614138319
 20
235.4244590359
 11
256.6942527838
 21
239.3698738808
  0
LWPOLYLINE
  5
227
100
AcDbEntity
  8
KONSTRUKTIONSELEMENTE
100
AcDbPolyline
 62
7
  6
CONTINUOUS
 90
13
 70
0
 10
301.7103947683
 20
68.016049971
 10
301.9561053735
 20
68.0218583772
 10
302.4343551684
 20
68.0666925931
 10
302.9064272039
 20
68.155466357
 10
303.3682930058
 20
68.2874220186
 10
303.8160112373
 20
68.4614333548
 10
304.2457613412
 20
68.6760151859
 10
304.6538761388
 20
68.9293360416
 10
305.0368732933
 20
69.2192339129
 10
305.3914849844
 20
69.5432347618
 10
305.7146852236
 20
69.8985730537
 10
306.0037162557
 20
70.2822156528
 10
306.2561127683
 20
70.690888826
  0
LINE
  5
228
100
AcDbEntity
  8
0
100
AcDbLine
 62
7
  6
CONTINUOUS
 10
259.477628627
 20
68.0160465512
 11
265.269544934
 21
68.0160465512
  0
LINE
  5
229
100
AcDbEntity
  8
KONSTRUKTIONSELEMENTE
100
AcDbLine
 62
7
  6
CONTINUOUS
 10
295.9226712562
 20
68.0160465512
 11
301.7145875632
 21
68.0160465512
  0
LINE
  5
22A
100
AcDbEntity
  8
0
100
AcDbLine
 62
7
  6
CONTINUOUS
 10
244.7426547281
 20
229.3899151605
 11
244.7420601753
 21
229.3889596677
  0
LWPOLYLINE
  5
22B
100
AcDbEntity
  8
0
100
AcDbPolyline
 62
7
  6
CONTINUOUS
 90
9
 70
0
 10
244.7420601753
 20
229.3889596677
 10
244.2776202667
 20
228.5823917416
 10
243.7912869939
 20
227.5723881918
 10
243.3685754031
 20
226.4824920525
 10
243.0171691057
 20
225.3162684601
 10
242.7418619727
 20
224.076115552
 10
242.5455536617
 20
222.7613693508
 10
242.4302054763
 20
221.3721847499
 10
242.3961107417
 20
220.0384904017
  0
LWPOLYLINE
  5
22C
100
AcDbEntity
  8
0
100
AcDbPolyline
 62
7
  6
CONTINUOUS
 90
11
 70
0
 10
254.9361129978
 20
70.6908715879
 10
255.2269001408
 20
70.2267961534
 10
255.5648845732
 20
69.7958743389
 10
255.9463185202
 20
69.4028863848
 10
256.3669711741
 20
69.0521928094
 10
256.822176479
 20
68.7476847073
 10
257.3068852515
 20
68.492740486
 10
257.8157207983
 20
68.2901887499
 10
258.3430385748
 20
68.1422768457
 10
258.8829889232
 20
68.0506458541
 10
259.4818214221
 20
68.016049971
  0
LINE
  5
22D
100
AcDbEntity
  8
0
100
AcDbLine
 62
7
  6
CONTINUOUS
 10
280.9211080951
 20
94.7404466941
 11
280.2711080951
 21
94.7404466941
  0
LINE
  5
22E
100
AcDbEntity
  8
BEZUGSACHSEN
100
AcDbLine
 62
7
  6
CONTINUOUS
 10
288.0711080951
 20
108.5160465512
 11
273.1211080951
 21
108.5160465512
  0
LINE
  5
22F
100
AcDbEntity
  8
0
100
AcDbLine
 62
7
  6
CONTINUOUS
 10
242.3961080951
 20
173.9064442408
 11
242.3961081051
 21
220.0384904019
  0
LINE
  5
230
100
AcDbEntity
  8
0
100
AcDbLine
 62
7
  6
CONTINUOUS
 10
242.3961080951
 20
173.9064442408
 11
242.6491383078
 21
170.2879436159
  0
LINE
  5
231
100
AcDbEntity
  8
0
100
AcDbLine
 62
7
  6
CONTINUOUS
 10
273.1211080951
 20
121.4017102524
 11
264.9961080951
 21
121.4017102524
  0
LINE
  5
232
100
AcDbEntity
  8
KONSTRUKTIONSELEMENTE
100
AcDbLine
 62
7
  6
CONTINUOUS
 10
288.0711080951
 20
121.4017102524
 11
296.1961080951
 21
121.4017102524
  0
LINE
  5
233
100
AcDbEntity
  8
BEZUGSACHSEN
100
AcDbLine
 62
7
  6
CONTINUOUS
 10
286.0486186258
 20
123.5160465512
 11
275.1435980474
 21
123.5160465512
  0
LINE
  5
234
100
AcDbEntity
  8
0
100
AcDbLine
 62
7
  6
CONTINUOUS
 10
246.1611460845
 20
145.2987098168
 11
242.6491383078
 21
170.2879436159
  0
LINE
  5
235
100
AcDbEntity
  8
0
100
AcDbLine
 62
7
  6
CONTINUOUS
 10
255.0341113576
 20
181.7660465512
 11
255.0341113576
 21
171.3660465512
  0
LINE
  5
236
100
AcDbEntity
  8
DEFAULT_2
100
AcDbLine
 62
8
  6
HIDDEN
 10
255.8961080951
 20
104.984678843
 11
255.8961080951
 21
125.8174229696
  0
LINE
  5
237
100
AcDbEntity
  8
0
100
AcDbLine
 62
7
  6
CONTINUOUS
 10
257.5211080951
 20
175.5910465512
 11
257.5211080951
 21
174.9410465512
  0
LINE
  5
238
100
AcDbEntity
  8
0
100
AcDbLine
 62
7
  6
CONTINUOUS
 10
265.269544934
 20
108.0715914508
 11
265.269544934
 21
68.0160465512
  0
LINE
  5
239
100
AcDbEntity
  8
0
100
AcDbLine
 62
7
  6
CONTINUOUS
 10
273.1211080951
 20
221.3952849966
 11
273.1211080951
 21
186.6410465512
  0
LINE
  5
23A
100
AcDbEntity
  8
0
100
AcDbLine
 62
7
  6
CONTINUOUS
 10
273.1211080951
 20
163.8910465512
 11
273.1211080951
 21
159.0160465512
  0
LINE
  5
23B
100
AcDbEntity
  8
0
100
AcDbLine
 62
7
  6
CONTINUOUS
 10
273.1211080951
 20
71.9161263355
 11
273.1211080951
 21
134.8795805811
  0
LINE
  5
23C
100
AcDbEntity
  8
0
100
AcDbLine
 62
7
  6
CONTINUOUS
 10
280.2711080951
 20
151.8660465512
 11
280.9211080951
 21
151.8660465512
  0
LINE
  5
23D
100
AcDbEntity
  8
KONSTRUKTIONSELEMENTE
100
AcDbLine
 62
7
  6
CONTINUOUS
 10
288.0711080951
 20
221.3952849966
 11
288.0711080951
 21
186.6410465512
  0
LINE
  5
23E
100
AcDbEntity
  8
KONSTRUKTIONSELEMENTE
100
AcDbLine
 62
7
  6
CONTINUOUS
 10
288.0711080951
 20
163.8910465512
 11
288.0711080951
 21
159.0160465512
  0
LINE
  5
23F
100
AcDbEntity
  8
KONSTRUKTIONSELEMENTE
100
AcDbLine
 62
7
  6
CONTINUOUS
 10
288.0711080951
 20
71.9161263355
 11
288.0711080951
 21
134.8795805811
  0
LINE
  5
240
100
AcDbEntity
  8
0
100
AcDbLine
 62
7
  6
CONTINUOUS
 10
269.2211080951
 20
167.7910465512
 11
264.6711080951
 21
167.7910465512
  0
LINE
  5
241
100
AcDbEntity
  8
KONSTRUKTIONSELEMENTE
100
AcDbLine
 62
7
  6
CONTINUOUS
 10
291.9711080951
 20
167.7910465512
 11
296.5211080951
 21
167.7910465512
  0
LINE
  5
242
100
AcDbEntity
  8
KONSTRUKTIONSELEMENTE
100
AcDbLine
 62
7
  6
CONTINUOUS
 10
295.9226712562
 20
108.0715914508
 11
295.9226712562
 21
68.0160465512
  0
LINE
  5
243
100
AcDbEntity
  8
KONSTRUKTIONSELEMENTE
100
AcDbLine
 62
7
  6
CONTINUOUS
 10
303.6711080951
 20
175.5910465512
 11
303.6711080951
 21
174.9410465512
  0
LINE
  5
244
100
AcDbEntity
  8
KONSTRUKTIONSELEMENTE
100
AcDbLine
 62
8
  6
HIDDEN
 10
305.2961080951
 20
125.8174229696
 11
305.2961080951
 21
104.984678843
  0
LINE
  5
245
100
AcDbEntity
  8
KONSTRUKTIONSELEMENTE
100
AcDbLine
 62
7
  6
CONTINUOUS
 10
306.1581048326
 20
181.7660465512
 11
306.1581048326
 21
171.3660465512
  0
LINE
  5
246
100
AcDbEntity
  8
KONSTRUKTIONSELEMENTE
100
AcDbLine
 62
7
  6
CONTINUOUS
 10
296.5211080951
 20
182.7410465512
 11
291.9711080951
 21
182.7410465512
  0
LINE
  5
247
100
AcDbEntity
  8
0
100
AcDbLine
 62
7
  6
CONTINUOUS
 10
264.6711080951
 20
182.7410465512
 11
269.2211080951
 21
182.7410465512
  0
LINE
  5
248
100
AcDbEntity
  8
KONSTRUKTIONSELEMENTE
100
AcDbLine
 62
7
  6
CONTINUOUS
 10
318.7961080951
 20
173.9064442408
 11
318.7961080951
 21
220.0382437966
  0
LINE
  5
249
100
AcDbEntity
  8
RUNDUNGEN
100
AcDbLine
 62
7
  6
CONTINUOUS
 10
315.8485932394
 20
151.1156891697
 11
315.7907432414
 21
150.7040650456
  0
LINE
  5
24A
100
AcDbEntity
  8
KONSTRUKTIONSELEMENTE
100
AcDbLine
 62
7
  6
CONTINUOUS
 10
315.0310701057
 20
145.2987098168
 11
318.5430778824
 21
170.2879436159
  0
LINE
  5
24B
100
AcDbEntity
  8
BEZUGSACHSEN
100
AcDbLine
 62
7
  6
CONTINUOUS
 10
288.0711080951
 20
188.4910465512
 11
273.1211080951
 21
188.4910465512
  0
LWPOLYLINE
  5
24C
100
AcDbEntity
  8
KONSTRUKTIONSELEMENTE
100
AcDbPolyline
 62
7
  6
CONTINUOUS
 90
9
 70
0
 10
318.7961054488
 20
220.0384864896
 10
318.7620777194
 20
221.3709032171
 10
318.6468952989
 20
222.7593511222
 10
318.4507636132
 20
224.0739013254
 10
318.1755812199
 20
225.3142206067
 10
317.8242013217
 20
226.4808616338
 10
317.4013996517
 20
227.5713042322
 10
316.9148885957
 20
228.5818411143
 10
316.4501560218
 20
229.3889596567
  0
LINE
  5
24D
100
AcDbEntity
  8
BEZUGSACHSEN
100
AcDbLine
 62
7
  6
CONTINUOUS
 10
288.0711080951
 20
196.4910465512
 11
273.1211080951
 21
196.4910465512
  0
LINE
  5
24E
100
AcDbEntity
  8
KONSTRUKTIONSELEMENTE
100
AcDbLine
 62
7
  6
CONTINUOUS
 10
316.4495614621
 20
229.3899151605
 11
316.4501560218
 21
229.3889596567
  0
LWPOLYLINE
  5
24F
100
AcDbEntity
  8
KONSTRUKTIONSELEMENTE
100
AcDbPolyline
 62
7
  6
CONTINUOUS
 90
7
 70
0
 10
316.4495662464
 20
229.3899181393
 10
315.5813936129
 20
230.7026892475
 10
314.6447694407
 20
231.9452479444
 10
313.6947671431
 20
233.0359329759
 10
312.7283649163
 20
233.9844635361
 10
311.7426136822
 20
234.7984950892
 10
310.8311389743
 20
235.4242487345
  0
LINE
  5
250
100
AcDbEntity
  8
0
100
AcDbLine
 62
7
  6
CONTINUOUS
 10
269.3075083931
 20
242.1813892877
 11
269.3074044255
 21
242.1813817188
  0
LWPOLYLINE
  5
251
100
AcDbEntity
  8
0
100
AcDbPolyline
 62
7
  6
CONTINUOUS
 90
3
 70
0
 10
270.2864674992
 20
242.2160485367
 10
270.0606306632
 20
242.2142901608
 10
269.3075080494
 20
242.1813939736
  0
LINE
  5
252
100
AcDbEntity
  8
KONSTRUKTIONSELEMENTE
100
AcDbLine
 62
7
  6
CONTINUOUS
 10
270.287632076
 20
242.2160465512
 11
290.9045841142
 21
242.2160465512
  0
LINE
  5
253
100
AcDbEntity
  8
0
100
AcDbLine
 62
7
  6
CONTINUOUS
 10
270.2863256839
 20
242.216046551
 11
270.2860882357
 21
242.2160465396
  0
LWPOLYLINE
  5
254
100
AcDbEntity
  8
KONSTRUKTIONSELEMENTE
100
AcDbPolyline
 62
7
  6
CONTINUOUS
 90
3
 70
0
 10
291.8847081408
 20
242.1813939736
 10
291.131585527
 20
242.2142901608
 10
290.905748691
 20
242.2160485367
  0
LINE
  5
255
100
AcDbEntity
  8
KONSTRUKTIONSELEMENTE
100
AcDbLine
 62
7
  6
CONTINUOUS
 10
291.8847077971
 20
242.1813892877
 11
291.8848117647
 21
242.1813817188
  0
LINE
  5
256
100
AcDbEntity
  8
KONSTRUKTIONSELEMENTE
100
AcDbLine
 62
7
  6
CONTINUOUS
 10
304.4979634064
 20
239.3698738808
 11
310.8308023583
 21
235.4244590359
  0
ARC
  5
257
100
AcDbEntity
  8
RUNDUNGEN
100
AcDbCircle
 62
7
  6
CONTINUOUS
 10
138.7585349189
 20
120.9355492687
 40
34.45
100
AcDbArc
 50
329.9693924446
 51
17.4802217829
  0
ARC
  5
258
100
AcDbEntity
  8
KONSTRUKTIONSELEMENTE
100
AcDbCircle
 62
7
  6
CONTINUOUS
 10
104.9585349189
 20
151.8393892947
 40
32.5
100
AcDbArc
 50
290.3946696523
 51
360.0
  0
ARC
  5
259
100
AcDbEntity
  8
KONSTRUKTIONSELEMENTE
100
AcDbCircle
 62
7
  6
CONTINUOUS
 10
137.4585349189
 20
86.2160465512
 40
18.2
100
AcDbArc
 50
200.0
 51
329.97
  0
ARC
  5
25A
100
AcDbEntity
  8
0
100
AcDbCircle
 62
7
  6
CONTINUOUS
 10
137.4585349189
 20
86.2160465512
 40
18.2
100
AcDbArc
 50
321.0418370978
 51
329.97
  0
ARC
  5
25B
100
AcDbEntity
  8
0
100
AcDbCircle
 62
7
  6
CONTINUOUS
 10
137.4585349189
 20
86.2160465512
 40
18.2
100
AcDbArc
 50
200.0
 51
320.9263828668
  0
ARC
  5
25C
100
AcDbEntity
  8
KONSTRUKTIONSELEMENTE
100
AcDbCircle
 62
7
  6
CONTINUOUS
 10
119.9085349189
 20
111.6286009413
 40
10.4
100
AcDbArc
 50
110.3946696523
 51
200.0
  0
ARC
  5
25D
100
AcDbEntity
  8
0
100
AcDbCircle
 62
7
  6
CONTINUOUS
 10
119.9085349189
 20
111.6286009413
 40
10.4
100
AcDbArc
 50
148.6821874535
 51
200.0
  0
CIRCLE
  5
25E
100
AcDbEntity
  8
RUNDUNGEN
100
AcDbCircle
 62
7
  6
CONTINUOUS
 10
150.6085349189
 20
116.0160465512
 40
7.5
  0
ARC
  5
25F
100
AcDbEntity
  8
KONSTRUKTIONSELEMENTE
100
AcDbCircle
 62
7
  6
CONTINUOUS
 10
117.9585349189
 20
181.7660465512
 40
55.25
100
AcDbArc
 50
344.1605622604
 51
79.7091598832
  0
ARC
  5
260
100
AcDbEntity
  8
0
100
AcDbCircle
 62
7
  6
CONTINUOUS
 10
117.9585349189
 20
181.7660465512
 40
55.25
100
AcDbArc
 50
74.3772367347
 51
79.7091588387
  0
ARC
  5
261
100
AcDbEntity
  8
0
100
AcDbCircle
 62
7
  6
CONTINUOUS
 10
117.9585349189
 20
181.7660465512
 40
55.25
100
AcDbArc
 50
352.9041609064
 51
353.582946857
  0
ARC
  5
262
100
AcDbEntity
  8
0
100
AcDbCircle
 62
7
  6
CONTINUOUS
 10
117.9585349189
 20
181.7660465512
 40
55.25
100
AcDbArc
 50
1.5070866989
 51
49.0880191543
  0
ARC
  5
263
100
AcDbEntity
  8
0
100
AcDbCircle
 62
7
  6
CONTINUOUS
 10
117.9585349189
 20
181.7660465512
 40
55.25
100
AcDbArc
 50
49.8784503925
 51
54.7412713282
  0
ARC
  5
264
100
AcDbEntity
  8
0
100
AcDbCircle
 62
7
  6
CONTINUOUS
 10
117.9585349189
 20
181.7660465512
 40
55.25
100
AcDbArc
 50
55.0189373998
 51
68.1571354319
  0
ARC
  5
265
100
AcDbEntity
  8
KONSTRUKTIONSELEMENTE
100
AcDbCircle
 62
7
  6
CONTINUOUS
 10
114.0585349189
 20
187.2995642255
 40
23.4
100
AcDbArc
 50
0.0
 51
57.5
  0
ARC
  5
266
100
AcDbEntity
  8
0
100
AcDbCircle
 62
7
  6
CONTINUOUS
 10
114.0585349189
 20
187.2995642255
 40
23.4
100
AcDbArc
 50
45.7879546636
 51
50.5988709386
  0
ARC
  5
267
100
AcDbEntity
  8
KONSTRUKTIONSELEMENTE
100
AcDbCircle
 62
7
  6
CONTINUOUS
 10
93.7085349189
 20
235.7160465512
 40
6.5
100
AcDbArc
 50
79.7091598832
 51
237.5
  0
ARC
  5
268
100
AcDbEntity
  8
0
100
AcDbCircle
 62
7
  6
CONTINUOUS
 10
93.7085349189
 20
235.7160465512
 40
6.5
100
AcDbArc
 50
79.7091598832
 51
169.7091598832
  0
CIRCLE
  5
269
100
AcDbEntity
  8
BEZUGSACHSEN
100
AcDbCircle
 62
7
  6
CONTINUOUS
 10
160.8585349189
 20
192.4910465512
 40
4.0
  0
ARC
  5
26A
100
AcDbEntity
  8
RUNDUNGEN
100
AcDbCircle
 62
7
  6
CONTINUOUS
 10
230.5160858803
 20
149.8317746547
 40
61.75
100
AcDbArc
 50
164.1605622604
 51
197.4802217829
  0
ARC
  5
26B
100
AcDbEntity
  8
0
100
AcDbCircle
 62
7
  6
CONTINUOUS
 10
230.5160858803
 20
149.8317746547
 40
61.75
100
AcDbArc
 50
168.8288895668
 51
171.4464822203
  0
ARC
  5
26C
100
AcDbEntity
  8
0
100
AcDbCircle
 62
7
  6
CONTINUOUS
 10
230.5160858803
 20
149.8317746547
 40
61.75
100
AcDbArc
 50
178.1122057467
 51
178.4766175951
  0
ARC
  5
26D
100
AcDbEntity
  8
BEZUGSACHSEN
100
AcDbCircle
 62
7
  6
CONTINUOUS
 10
230.5160858803
 20
149.8317746547
 40
61.23
100
AcDbArc
 50
183.1042005322
 51
190.6498759977
  0
ARC
  5
26E
100
AcDbEntity
  8
BEZUGSACHSEN
100
AcDbCircle
 62
7
  6
CONTINUOUS
 10
230.5160858803
 20
149.8317746547
 40
61.23
100
AcDbArc
 50
193.040314468
 51
200.872617765
  0
ARC
  5
26F
100
AcDbEntity
  8
RUNDUNGEN
100
AcDbCircle
 62
7
  6
CONTINUOUS
 10
227.2461080951
 20
114.5148724787
 40
90.35
100
AcDbArc
 50
10.1431959886
 51
12.4530655607
  0
ARC
  5
270
100
AcDbEntity
  8
RUNDUNGEN
100
AcDbCircle
 62
7
  6
CONTINUOUS
 10
227.2461080951
 20
114.5148724787
 40
90.35
100
AcDbArc
 50
1.4610663074
 51
9.942337499
  0
ARC
  5
271
100
AcDbEntity
  8
RUNDUNGEN
100
AcDbCircle
 62
7
  6
CONTINUOUS
 10
227.2461080951
 20
114.5148724787
 40
90.35
100
AcDbArc
 50
351.9725918747
 51
1.1883717279
  0
ARC
  5
272
100
AcDbEntity
  8
KONSTRUKTIONSELEMENTE
100
AcDbCircle
 62
7
  6
CONTINUOUS
 10
227.2461080951
 20
114.5148724787
 40
90.35
100
AcDbArc
 50
330.9866984486
 51
12.4530611057
  0
ARC
  5
273
100
AcDbEntity
  8
RUNDUNGEN
100
AcDbCircle
 62
7
  6
CONTINUOUS
 10
227.2461080951
 20
114.5148724787
 40
90.35
100
AcDbArc
 50
335.8739166919
 51
349.5495607004
  0
ARC
  5
274
100
AcDbEntity
  8
KONSTRUKTIONSELEMENTE
100
AcDbCircle
 62
7
  6
CONTINUOUS
 10
228.8799170333
 20
226.8169292152
 40
115.5466367264
100
AcDbArc
 50
305.6328407237
 51
305.7571597732
  0
ARC
  5
275
100
AcDbEntity
  8
0
100
AcDbCircle
 62
7
  6
CONTINUOUS
 10
214.6211080951
 20
140.8660465512
 40
31.85
100
AcDbArc
 50
347.5469388943
 51
8.0
  0
ARC
  5
276
100
AcDbEntity
  8
0
100
AcDbCircle
 62
7
  6
CONTINUOUS
 10
280.3566775206
 20
154.3935187127
 40
26.414534034
100
AcDbArc
 50
234.4425052387
 51
254.1021103124
  0
ARC
  5
277
100
AcDbEntity
  8
0
100
AcDbCircle
 62
7
  6
CONTINUOUS
 10
268.3961080951
 20
173.9064442408
 40
26.0
100
AcDbArc
 50
180.0
 51
188.0
  0
ARC
  5
278
100
AcDbEntity
  8
0
100
AcDbCircle
 62
7
  6
CONTINUOUS
 10
264.6711080951
 20
175.5910465512
 40
7.15
100
AcDbArc
 50
90.0
 51
180.0
  0
ARC
  5
279
100
AcDbEntity
  8
0
100
AcDbCircle
 62
7
  6
CONTINUOUS
 10
264.6711080951
 20
174.9410465512
 40
7.15
100
AcDbArc
 50
180.0
 51
270.0
  0
ARC
  5
27A
100
AcDbEntity
  8
0
100
AcDbCircle
 62
7
  6
CONTINUOUS
 10
280.2711080951
 20
159.0160465512
 40
7.15
100
AcDbArc
 50
180.0
 51
270.0
  0
ARC
  5
27B
100
AcDbEntity
  8
0
100
AcDbCircle
 62
7
  6
CONTINUOUS
 10
263.4463432508
 20
205.1175423554
 40
6.197476781
100
AcDbArc
 50
157.3192735783
 51
161.9780681347
  0
ARC
  5
27C
100
AcDbEntity
  8
0
100
AcDbCircle
 62
7
  6
CONTINUOUS
 10
269.2211080951
 20
186.6410465512
 40
3.9
100
AcDbArc
 50
270.0
 51
360.0
  0
ARC
  5
27D
100
AcDbEntity
  8
0
100
AcDbCircle
 62
7
  6
CONTINUOUS
 10
269.2211080951
 20
163.8910465512
 40
3.9
100
AcDbArc
 50
0.0
 51
90.0
  0
ARC
  5
27E
100
AcDbEntity
  8
0
100
AcDbCircle
 62
7
  6
CONTINUOUS
 10
333.9461080951
 20
114.5148724787
 40
90.35
100
AcDbArc
 50
167.5469388943
 51
209.0133015514
  0
ARC
  5
27F
100
AcDbEntity
  8
0
100
AcDbCircle
 62
7
  6
CONTINUOUS
 10
280.5961080951
 20
47.0137499703
 40
26.0
100
AcDbArc
 50
106.7083437157
 51
126.1203429718
  0
ARC
  5
280
100
AcDbEntity
  8
KONSTRUKTIONSELEMENTE
100
AcDbCircle
 62
7
  6
CONTINUOUS
 10
280.5961080951
 20
47.0137499703
 40
26.0
100
AcDbArc
 50
53.8796570282
 51
73.2916562843
  0
ARC
  5
281
100
AcDbEntity
  8
0
100
AcDbCircle
 62
7
  6
CONTINUOUS
 10
332.3122991569
 20
226.8169292152
 40
115.5466367264
100
AcDbArc
 50
234.2428402268
 51
234.3671592763
  0
ARC
  5
282
100
AcDbEntity
  8
RUNDUNGEN
100
AcDbCircle
 62
7
  6
CONTINUOUS
 10
346.5711080951
 20
140.8660465512
 40
31.85
100
AcDbArc
 50
189.8501374807
 51
192.4530484682
  0
ARC
  5
283
100
AcDbEntity
  8
KONSTRUKTIONSELEMENTE
100
AcDbCircle
 62
7
  6
CONTINUOUS
 10
346.5711080951
 20
140.8660465512
 40
31.85
100
AcDbArc
 50
172.0
 51
192.4530611057
  0
ARC
  5
284
100
AcDbEntity
  8
KONSTRUKTIONSELEMENTE
100
AcDbCircle
 62
7
  6
CONTINUOUS
 10
280.8355386696
 20
154.3935187127
 40
26.414534034
100
AcDbArc
 50
285.8978896876
 51
305.5574947613
  0
ARC
  5
285
100
AcDbEntity
  8
KONSTRUKTIONSELEMENTE
100
AcDbCircle
 62
7
  6
CONTINUOUS
 10
292.7961080951
 20
173.9064442408
 40
26.0
100
AcDbArc
 50
352.0
 51
360.0
  0
ARC
  5
286
100
AcDbEntity
  8
0
100
AcDbCircle
 62
7
  6
CONTINUOUS
 10
280.5961080951
 20
163.3598976924
 40
23.9215725241
100
AcDbArc
 50
269.2215519602
 51
270.7784480398
  0
ARC
  5
287
100
AcDbEntity
  8
KONSTRUKTIONSELEMENTE
100
AcDbCircle
 62
7
  6
CONTINUOUS
 10
296.5211080951
 20
175.5910465512
 40
7.15
100
AcDbArc
 50
0.0
 51
90.0
  0
ARC
  5
288
100
AcDbEntity
  8
KONSTRUKTIONSELEMENTE
100
AcDbCircle
 62
7
  6
CONTINUOUS
 10
296.5211080951
 20
174.9410465512
 40
7.15
100
AcDbArc
 50
270.0
 51
360.0
  0
ARC
  5
289
100
AcDbEntity
  8
KONSTRUKTIONSELEMENTE
100
AcDbCircle
 62
7
  6
CONTINUOUS
 10
280.9211080951
 20
159.0160465512
 40
7.15
100
AcDbArc
 50
270.0
 51
360.0
  0
ARC
  5
28A
100
AcDbEntity
  8
KONSTRUKTIONSELEMENTE
100
AcDbCircle
 62
7
  6
CONTINUOUS
 10
297.7458729395
 20
205.1175423555
 40
6.1974767809
100
AcDbArc
 50
18.0219318653
 51
22.6807264217
  0
ARC
  5
28B
100
AcDbEntity
  8
KONSTRUKTIONSELEMENTE
100
AcDbCircle
 62
7
  6
CONTINUOUS
 10
291.9711080951
 20
186.6410465512
 40
3.9
100
AcDbArc
 50
180.0
 51
270.0
  0
ARC
  5
28C
100
AcDbEntity
  8
KONSTRUKTIONSELEMENTE
100
AcDbCircle
 62
7
  6
CONTINUOUS
 10
291.9711080951
 20
163.8910465512
 40
3.9
100
AcDbArc
 50
90.0
 51
180.0
  0
SPLINE
  5
28D
100
AcDbEntity
  8
KONSTRUKTIONSELEMENTE
100
AcDbSpline
 62
8
  6
HIDDEN
 70
0
 71
3
 72
23
 73
19
 74
0
 42
0.0000001
 43
0.0000001
 44
0.0000000001
 40
0.0
 40
0.0
 40
0.0
 40
0.0
 40
0.062523655
 40
0.1250389249
 40
0.1875463319
 40
0.2500462579
 40
0.312540271
 40
0.3750294729
 40
0.4375154976
 40
0.5000000004
 40
0.5624845
 40
0.6249705216
 40
0.6874597215
 40
0.7499537421
 40
0.8124536766
 40
0.8749610832
 40
0.9374763481
 40
1.0
 40
1.0
 40
1.0
 40
1.0
 10
145.245053929
 20
95.2303271564
 30
0.0
 10
145.4575391339
 20
94.6465288538
 30
0.0
 10
145.7907831872
 20
93.4427500272
 30
0.0
 10
145.9741940786
 20
91.5786996458
 30
0.0
 10
145.814188113
 20
89.7110322871
 30
0.0
 10
145.2978964947
 20
87.9082508698
 30
0.0
 10
144.4311602171
 20
86.2444947343
 30
0.0
 10
143.2399211451
 20
84.7945727387
 30
0.0
 10
141.7701631288
 20
83.6273065759
 30
0.0
 10
140.0854942586
 20
82.7994808665
 30
0.0
 10
138.2628469553
 20
82.3507478792
 30
0.0
 10
136.3866428538
 20
82.3001833704
 30
0.0
 10
134.5421088533
 20
82.6451742922
 30
0.0
 10
132.8087083824
 20
83.3625581521
 30
0.0
 10
131.2544003766
 20
84.4117030854
 30
0.0
 10
129.9313152717
 20
85.7395694923
 30
0.0
 10
128.8736277406
 20
87.2854091154
 30
0.0
 10
128.3551334248
 20
88.421762275
 30
0.0
 10
128.1426482307
 20
89.0055605479
 30
0.0
  0
SPLINE
  5
28E
100
AcDbEntity
  8
DEFAULT_2
100
AcDbSpline
 62
8
  6
HIDDEN
 70
0
 71
3
 72
23
 73
19
 74
0
 42
0.0000001
 43
0.0000001
 44
0.0000000001
 40
0.0
 40
0.0
 40
0.0
 40
0.0
 40
0.062523655
 40
0.1250389249
 40
0.1875463319
 40
0.2500462579
 40
0.312540271
 40
0.3750294729
 40
0.4375154976
 40
0.5000000004
 40
0.5624845
 40
0.6249705216
 40
0.6874597215
 40
0.7499537421
 40
0.8124536766
 40
0.8749610832
 40
0.9374763481
 40
1.0
 40
1.0
 40
1.0
 40
1.0
 10
145.245053929
 20
95.2303271564
 30
0.0
 10
145.4575391339
 20
94.6465288538
 30
0.0
 10
145.7907831872
 20
93.4427500272
 30
0.0
 10
145.9741940786
 20
91.5786996458
 30
0.0
 10
145.814188113
 20
89.7110322871
 30
0.0
 10
145.2978964947
 20
87.9082508698
 30
0.0
 10
144.4311602171
 20
86.2444947343
 30
0.0
 10
143.2399211451
 20
84.7945727387
 30
0.0
 10
141.7701631288
 20
83.6273065759
 30
0.0
 10
140.0854942586
 20
82.7994808665
 30
0.0
 10
138.2628469553
 20
82.3507478792
 30
0.0
 10
136.3866428538
 20
82.3001833704
 30
0.0
 10
134.5421088533
 20
82.6451742922
 30
0.0
 10
132.8087083824
 20
83.3625581521
 30
0.0
 10
131.2544003766
 20
84.4117030854
 30
0.0
 10
129.9313152717
 20
85.7395694923
 30
0.0
 10
128.8736277406
 20
87.2854091154
 30
0.0
 10
128.3551334248
 20
88.421762275
 30
0.0
 10
128.1426482307
 20
89.0055605479
 30
0.0
  0
SPLINE
  5
28F
100
AcDbEntity
  8
DEFAULT_2
100
AcDbSpline
 62
8
  6
HIDDEN
 70
0
 71
3
 72
15
 73
11
 74
0
 42
0.0000001
 43
0.0000001
 44
0.0000000001
 40
0.0
 40
0.0
 40
0.0
 40
0.0
 40
0.1264066699
 40
0.2524114543
 40
0.377969491
 40
0.5030620598
 40
0.627724434
 40
0.7520306111
 40
0.8760790124
 40
1.0
 40
1.0
 40
1.0
 40
1.0
 10
273.1211085768
 20
82.3386665871
 30
0.0
 10
271.8940387883
 20
82.7131781033
 30
0.0
 10
269.4963971546
 20
83.6482975933
 30
0.0
 10
266.1647171422
 20
85.5790074091
 30
0.0
 10
263.1807372883
 20
87.9936872376
 30
0.0
 10
260.6215437682
 20
90.8366665702
 30
0.0
 10
258.553990245
 20
94.0402920283
 30
0.0
 10
257.0342986698
 20
97.5263218321
 30
0.0
 10
256.1047015453
 20
101.2052968842
 30
0.0
 10
255.8961080951
 20
103.7269575868
 30
0.0
 10
255.8961080951
 20
104.984678843
 30
0.0
  0
SPLINE
  5
290
100
AcDbEntity
  8
KONSTRUKTIONSELEMENTE
100
AcDbSpline
 62
8
  6
HIDDEN
 70
0
 71
3
 72
15
 73
11
 74
0
 42
0.0000001
 43
0.0000001
 44
0.0000000001
 40
0.0
 40
0.0
 40
0.0
 40
0.0
 40
0.1264066699
 40
0.2524114543
 40
0.377969491
 40
0.5030620598
 40
0.627724434
 40
0.7520306111
 40
0.8760790124
 40
1.0
 40
1.0
 40
1.0
 40
1.0
 10
288.0711076134
 20
82.3386665871
 30
0.0
 10
289.2981774019
 20
82.7131781033
 30
0.0
 10
291.6958190356
 20
83.6482975933
 30
0.0
 10
295.027499048
 20
85.5790074091
 30
0.0
 10
298.0114789019
 20
87.9936872376
 30
0.0
 10
300.570672422
 20
90.8366665702
 30
0.0
 10
302.6382259452
 20
94.0402920283
 30
0.0
 10
304.1579175204
 20
97.5263218321
 30
0.0
 10
305.0875146449
 20
101.2052968842
 30
0.0
 10
305.2961080951
 20
103.7269575868
 30
0.0
 10
305.2961080951
 20
104.984678843
 30
0.0
  0
SPLINE
  5
291
100
AcDbEntity
  8
0
100
AcDbSpline
 62
7
  6
CONTINUOUS
 70
0
 71
3
 72
13
 73
9
 74
0
 42
0.0000001
 43
0.0000001
 44
0.0000000001
 40
0.0
 40
0.0
 40
0.0
 40
0.0
 40
0.2990629673
 40
0.4356627026
 40
0.5626125517
 40
0.6800244341
 40
0.7893167958
 40
1.0
 40
1.0
 40
1.0
 40
1.0
 10
269.3074044255
 20
242.1813817188
 30
0.0
 10
268.0130019624
 20
242.0870545802
 30
0.0
 10
266.129686563
 20
241.9072255207
 30
0.0
 10
263.7123071025
 20
241.5613780781
 30
0.0
 10
262.085069445
 20
241.2676809318
 30
0.0
 10
260.5873395671
 20
240.9271102971
 30
0.0
 10
258.7651957923
 20
240.3997330627
 30
0.0
 10
257.4702677049
 20
239.8533380606
 30
0.0
 10
256.6942527838
 20
239.3698738808
 30
0.0
  0
SPLINE
  5
292
100
AcDbEntity
  8
KONSTRUKTIONSELEMENTE
100
AcDbSpline
 62
7
  6
CONTINUOUS
 70
0
 71
3
 72
16
 73
12
 74
0
 42
0.0000001
 43
0.0000001
 44
0.0000000001
 40
0.0
 40
0.0
 40
0.0
 40
0.0
 40
0.1610723895
 40
0.3166877903
 40
0.4620022663
 40
0.5933760503
 40
0.709298241
 40
0.8114834158
 40
0.8592152621
 40
0.9059053462
 40
1.0
 40
1.0
 40
1.0
 40
1.0
 10
296.1961080951
 20
121.4017102524
 30
0.0
 10
296.7934938648
 20
121.4017102524
 30
0.0
 10
297.9684708856
 20
121.4416318874
 30
0.0
 10
299.6738278963
 20
121.6253123779
 30
0.0
 10
301.2487862735
 20
121.9402321281
 30
0.0
 10
302.6361936711
 20
122.3984709587
 30
0.0
 10
303.7871272758
 20
123.0127509387
 30
0.0
 10
304.5280933845
 20
123.6860428106
 30
0.0
 10
304.9327459495
 20
124.2967695048
 30
0.0
 10
305.2158174322
 20
124.9391313713
 30
0.0
 10
305.2960859276
 20
125.4677058446
 30
0.0
 10
305.2961084004
 20
125.816684383
 30
0.0
  0
SPLINE
  5
293
100
AcDbEntity
  8
0
100
AcDbSpline
 62
7
  6
CONTINUOUS
 70
0
 71
3
 72
16
 73
12
 74
0
 42
0.0000001
 43
0.0000001
 44
0.0000000001
 40
0.0
 40
0.0
 40
0.0
 40
0.0
 40
0.0150786085
 40
0.0367439552
 40
0.0661185856
 40
0.1033003443
 40
0.1999382843
 40
0.3235047865
 40
0.4701132874
 40
0.6354273765
 40
1.0
 40
1.0
 40
1.0
 40
1.0
 10
273.1211080951
 20
221.3952849966
 30
0.0
 10
273.1211080951
 20
221.4336926556
 30
0.0
 10
273.1586933209
 20
221.5249968118
 30
0.0
 10
273.2703723283
 20
221.6512919245
 30
0.0
 10
273.4441537085
 20
221.7952140464
 30
0.0
 10
273.7909220752
 20
222.0250344192
 30
0.0
 10
274.3762709629
 20
222.3244059999
 30
0.0
 10
275.2446611944
 20
222.6714513708
 30
0.0
 10
276.306657544
 20
222.9966931103
 30
0.0
 10
277.9904732969
 20
223.3683562938
 30
0.0
 10
279.3425565369
 20
223.4948699736
 30
0.0
 10
280.2711080951
 20
223.5065918514
 30
0.0
  0
SPLINE
  5
294
100
AcDbEntity
  8
KONSTRUKTIONSELEMENTE
100
AcDbSpline
 62
7
  6
CONTINUOUS
 70
0
 71
3
 72
13
 73
9
 74
0
 42
0.0000001
 43
0.0000001
 44
0.0000000001
 40
0.0
 40
0.0
 40
0.0
 40
0.0
 40
0.2990629673
 40
0.4356627026
 40
0.5626125517
 40
0.6800244341
 40
0.7893167958
 40
1.0
 40
1.0
 40
1.0
 40
1.0
 10
291.8848117647
 20
242.1813817188
 30
0.0
 10
293.1792142278
 20
242.0870545802
 30
0.0
 10
295.0625296272
 20
241.9072255207
 30
0.0
 10
297.4799090877
 20
241.5613780781
 30
0.0
 10
299.1071467452
 20
241.2676809318
 30
0.0
 10
300.6048766231
 20
240.9271102971
 30
0.0
 10
302.4270203979
 20
240.3997330627
 30
0.0
 10
303.7219484853
 20
239.8533380606
 30
0.0
 10
304.4979634064
 20
239.3698738808
 30
0.0
  0
SPLINE
  5
295
100
AcDbEntity
  8
KONSTRUKTIONSELEMENTE
100
AcDbSpline
 62
7
  6
CONTINUOUS
 70
0
 71
3
 72
16
 73
12
 74
0
 42
0.0000001
 43
0.0000001
 44
0.0000000001
 40
0.0
 40
0.0
 40
0.0
 40
0.0
 40
0.0150786085
 40
0.0367439552
 40
0.0661185856
 40
0.1033003443
 40
0.1999382843
 40
0.3235047865
 40
0.4701132874
 40
0.6354273765
 40
1.0
 40
1.0
 40
1.0
 40
1.0
 10
288.0711080951
 20
221.3952849966
 30
0.0
 10
288.0711080951
 20
221.4336926556
 30
0.0
 10
288.0335228693
 20
221.5249968118
 30
0.0
 10
287.9218438619
 20
221.6512919245
 30
0.0
 10
287.7480624817
 20
221.7952140464
 30
0.0
 10
287.401294115
 20
222.0250344192
 30
0.0
 10
286.8159452273
 20
222.3244059999
 30
0.0
 10
285.9475549958
 20
222.6714513708
 30
0.0
 10
284.8855586462
 20
222.9966931103
 30
0.0
 10
283.2017428933
 20
223.3683562938
 30
0.0
 10
281.8496596533
 20
223.4948699736
 30
0.0
 10
280.9211080951
 20
223.5065918514
 30
0.0
  0
SPLINE
  5
296
100
AcDbEntity
  8
KONSTRUKTIONSELEMENTE
100
AcDbSpline
 62
7
  6
CONTINUOUS
 70
0
 71
3
 72
9
 73
5
 74
0
 42
0.0000001
 43
0.0000001
 44
0.0000000001
 40
0.0
 40
0.0
 40
0.0
 40
0.0
 40
0.267409338
 40
1.0
 40
1.0
 40
1.0
 40
1.0
 10
286.9203953353
 20
91.0575449982
 30
0.0
 10
287.102215744
 20
90.781721767
 30
0.0
 10
287.7171809962
 20
89.7121821208
 30
0.0
 10
288.0711080951
 20
88.4682517243
 30
0.0
 10
288.0711080951
 20
87.5632049054
 30
0.0
  0
SPLINE
  5
297
100
AcDbEntity
  8
0
100
AcDbSpline
 62
7
  6
CONTINUOUS
 70
0
 71
3
 72
16
 73
12
 74
0
 42
0.0000001
 43
0.0000001
 44
0.0000000001
 40
0.0
 40
0.0
 40
0.0
 40
0.0
 40
0.1610723895
 40
0.3166877903
 40
0.4620022663
 40
0.5933760503
 40
0.709298241
 40
0.8114834158
 40
0.8592152621
 40
0.9059053462
 40
1.0
 40
1.0
 40
1.0
 40
1.0
 10
264.9961080951
 20
121.4017102524
 30
0.0
 10
264.3987223254
 20
121.4017102524
 30
0.0
 10
263.2237453046
 20
121.4416318874
 30
0.0
 10
261.5183882939
 20
121.6253123779
 30
0.0
 10
259.9434299167
 20
121.9402321281
 30
0.0
 10
258.5560225191
 20
122.3984709587
 30
0.0
 10
257.4050889144
 20
123.0127509387
 30
0.0
 10
256.6641228057
 20
123.6860428106
 30
0.0
 10
256.2594702407
 20
124.2967695048
 30
0.0
 10
255.976398758
 20
124.9391313713
 30
0.0
 10
255.8961302625
 20
125.4677058446
 30
0.0
 10
255.8961077898
 20
125.816684383
 30
0.0
  0
SPLINE
  5
298
100
AcDbEntity
  8
0
100
AcDbSpline
 62
7
  6
CONTINUOUS
 70
0
 71
3
 72
9
 73
5
 74
0
 42
0.0000001
 43
0.0000001
 44
0.0000000001
 40
0.0
 40
0.0
 40
0.0
 40
0.0
 40
0.267409338
 40
1.0
 40
1.0
 40
1.0
 40
1.0
 10
274.2718208549
 20
91.0575449982
 30
0.0
 10
274.0900004461
 20
90.781721767
 30
0.0
 10
273.475035194
 20
89.7121821208
 30
0.0
 10
273.1211080951
 20
88.4682517243
 30
0.0
 10
273.1211080951
 20
87.5632049054
 30
0.0
  0
SPLINE
  5
299
100
AcDbEntity
  8
KONSTRUKTIONSELEMENTE
100
AcDbSpline
 62
7
  6
CONTINUOUS
 70
0
 71
3
 72
12
 73
8
 74
0
 42
0.0000001
 43
0.0000001
 44
0.0000000001
 40
0.0
 40
0.0
 40
0.0
 40
0.0
 40
0.093181193
 40
0.1985483196
 40
0.4401797297
 40
0.7122064972
 40
1.0
 40
1.0
 40
1.0
 40
1.0
 10
303.8554082814
 20
206.2119450557
 30
0.0
 10
303.9749145564
 20
205.6325218459
 30
0.0
 10
304.2080923247
 20
204.3934451897
 30
0.0
 10
304.6545369792
 20
201.6343673392
 30
0.0
 10
305.1553216755
 20
197.7350812975
 30
0.0
 10
305.6451716908
 20
192.6696176717
 30
0.0
 10
305.8946708298
 20
189.1235928394
 30
0.0
 10
306.0029001035
 20
187.2995642255
 30
0.0
  0
SPLINE
  5
29A
100
AcDbEntity
  8
KONSTRUKTIONSELEMENTE
100
AcDbSpline
 62
7
  6
CONTINUOUS
 70
0
 71
3
 72
9
 73
5
 74
0
 42
0.0000001
 43
0.0000001
 44
0.0000000001
 40
0.0
 40
0.0
 40
0.0
 40
0.0
 40
0.2435205365
 40
1.0
 40
1.0
 40
1.0
 40
1.0
 10
303.6392901069
 20
207.0349240449
 30
0.0
 10
303.6606046549
 20
206.9692050298
 30
0.0
 10
303.7441604555
 20
206.6980552091
 30
0.0
 10
303.8120552486
 20
206.4221411596
 30
0.0
 10
303.8554082814
 20
206.2119450557
 30
0.0
  0
SPLINE
  5
29B
100
AcDbEntity
  8
0
100
AcDbSpline
 62
7
  6
CONTINUOUS
 70
0
 71
3
 72
14
 73
10
 74
0
 42
0.0000001
 43
0.0000001
 44
0.0000000001
 40
0.0
 40
0.0
 40
0.0
 40
0.0
 40
0.1953602181
 40
0.2512372795
 40
0.3097455104
 40
0.4340025205
 40
0.7060413463
 40
0.8514475006
 40
1.0
 40
1.0
 40
1.0
 40
1.0
 10
255.8961077898
 20
125.816684383
 30
0.0
 10
255.8960557646
 20
126.6245797043
 30
0.0
 10
256.2498689236
 20
127.6646043371
 30
0.0
 10
256.914500975
 20
128.7554433488
 30
0.0
 10
257.5014650994
 20
129.5516197238
 30
0.0
 10
258.803684589
 20
130.9166544568
 30
0.0
 10
260.7281098165
 20
132.1544166713
 30
0.0
 10
262.9619072066
 20
132.8863132872
 30
0.0
 10
264.1783229622
 20
133.0370827291
 30
0.0
 10
264.79249758
 20
133.0507217959
 30
0.0
  0
SPLINE
  5
29C
100
AcDbEntity
  8
KONSTRUKTIONSELEMENTE
100
AcDbSpline
 62
7
  6
CONTINUOUS
 70
0
 71
3
 72
11
 73
7
 74
0
 42
0.0000001
 43
0.0000001
 44
0.0000000001
 40
0.0
 40
0.0
 40
0.0
 40
0.0
 40
0.2500307292
 40
0.5000505849
 40
0.7500458966
 40
1.0
 40
1.0
 40
1.0
 40
1.0
 10
306.1581048326
 20
171.3660465512
 30
0.0
 10
306.1581048326
 20
169.7270163293
 30
0.0
 10
306.1077598798
 20
166.4487658579
 30
0.0
 10
305.8449990508
 20
161.5372125414
 30
0.0
 10
305.2997264383
 20
156.6477943365
 30
0.0
 10
304.6627072079
 20
153.4263542304
 30
0.0
 10
304.2548885931
 20
151.8393892947
 30
0.0
  0
SPLINE
  5
29D
100
AcDbEntity
  8
KONSTRUKTIONSELEMENTE
100
AcDbSpline
 62
7
  6
CONTINUOUS
 70
0
 71
3
 72
14
 73
10
 74
0
 42
0.0000001
 43
0.0000001
 44
0.0000000001
 40
0.0
 40
0.0
 40
0.0
 40
0.0
 40
0.1953602181
 40
0.2512372795
 40
0.3097455104
 40
0.4340025205
 40
0.7060413463
 40
0.8514475006
 40
1.0
 40
1.0
 40
1.0
 40
1.0
 10
305.2961084004
 20
125.816684383
 30
0.0
 10
305.2961604255
 20
126.6245797043
 30
0.0
 10
304.9423472666
 20
127.6646043371
 30
0.0
 10
304.2777152152
 20
128.7554433488
 30
0.0
 10
303.6907510908
 20
129.5516197238
 30
0.0
 10
302.3885316012
 20
130.9166544568
 30
0.0
 10
300.4641063737
 20
132.1544166713
 30
0.0
 10
298.2303089836
 20
132.8863132872
 30
0.0
 10
297.013893228
 20
133.0370827291
 30
0.0
 10
296.3997186102
 20
133.0507217959
 30
0.0
  0
SPLINE
  5
29E
100
AcDbEntity
  8
KONSTRUKTIONSELEMENTE
100
AcDbSpline
 62
7
  6
CONTINUOUS
 70
0
 71
3
 72
8
 73
4
 74
0
 42
0.0000001
 43
0.0000001
 44
0.0000000001
 40
0.0
 40
0.0
 40
0.0
 40
0.0
 40
1.0
 40
1.0
 40
1.0
 40
1.0
 10
306.0029001035
 20
187.2995642255
 30
0.0
 10
306.1121952165
 20
185.4575726232
 30
0.0
 10
306.1581048326
 20
183.6112778333
 30
0.0
 10
306.1581048326
 20
181.7660465512
 30
0.0
  0
SPLINE
  5
29F
100
AcDbEntity
  8
KONSTRUKTIONSELEMENTE
100
AcDbSpline
 62
7
  6
CONTINUOUS
 70
0
 71
3
 72
11
 73
7
 74
0
 42
0.0000001
 43
0.0000001
 44
0.0000000001
 40
0.0
 40
0.0
 40
0.0
 40
0.0
 40
0.2626635447
 40
0.5195928514
 40
0.7663102185
 40
1.0
 40
1.0
 40
1.0
 40
1.0
 10
304.2548885931
 20
151.8393892947
 30
0.0
 10
303.8093400541
 20
150.1056040214
 30
0.0
 10
302.8144829965
 20
146.7038288735
 30
0.0
 10
301.0047201788
 20
141.8000129214
 30
0.0
 10
298.9057628796
 20
137.228527781
 30
0.0
 10
297.2718736512
 20
134.3833492578
 30
0.0
 10
296.3997186102
 20
133.0507217959
 30
0.0
  0
SPLINE
  5
2A0
100
AcDbEntity
  8
KONSTRUKTIONSELEMENTE
100
AcDbSpline
 62
7
  6
CONTINUOUS
 70
0
 71
3
 72
11
 73
7
 74
0
 42
0.0000001
 43
0.0000001
 44
0.0000000001
 40
0.0
 40
0.0
 40
0.0
 40
0.0
 40
0.2493732723
 40
0.4990053384
 40
0.7520483232
 40
1.0
 40
1.0
 40
1.0
 40
1.0
 10
288.0711080951
 20
117.0343621064
 30
0.0
 10
289.0729537778
 20
116.7052534297
 30
0.0
 10
291.0284766754
 20
115.8689024715
 30
0.0
 10
293.5959368538
 20
113.9200347938
 30
0.0
 10
295.4258159612
 20
111.2533201689
 30
0.0
 10
295.9226712562
 20
109.1200975552
 30
0.0
 10
295.9226712562
 20
108.0715914508
 30
0.0
  0
SPLINE
  5
2A1
100
AcDbEntity
  8
KONSTRUKTIONSELEMENTE
100
AcDbSpline
 62
7
  6
CONTINUOUS
 70
0
 71
3
 72
15
 73
11
 74
0
 42
0.0000001
 43
0.0000001
 44
0.0000000001
 40
0.0
 40
0.0
 40
0.0
 40
0.0
 40
0.1008944237
 40
0.2034142222
 40
0.3119927568
 40
0.4301161155
 40
0.5593947383
 40
0.6992916234
 40
0.8473958207
 40
1.0
 40
1.0
 40
1.0
 40
1.0
 10
288.0711080951
 20
134.8795805811
 30
0.0
 10
288.0711080951
 20
135.1954295769
 30
0.0
 10
287.9863073323
 20
135.8360054291
 30
0.0
 10
287.5902736368
 20
136.7419516657
 30
0.0
 10
286.9355806608
 20
137.5522162901
 30
0.0
 10
286.0467853
 20
138.2383306771
 30
0.0
 10
284.9566907772
 20
138.7831562875
 30
0.0
 10
283.7054868791
 20
139.1746253478
 30
0.0
 10
282.3418354001
 20
139.4046081707
 30
0.0
 10
281.3987898739
 20
139.447023719
 30
0.0
 10
280.9211080951
 20
139.4405330055
 30
0.0
  0
SPLINE
  5
2A2
100
AcDbEntity
  8
0
100
AcDbSpline
 62
7
  6
CONTINUOUS
 70
0
 71
3
 72
9
 73
5
 74
0
 42
0.0000001
 43
0.0000001
 44
0.0000000001
 40
0.0
 40
0.0
 40
0.0
 40
0.0
 40
0.2435205365
 40
1.0
 40
1.0
 40
1.0
 40
1.0
 10
257.5529260833
 20
207.0349240449
 30
0.0
 10
257.5316115353
 20
206.9692050298
 30
0.0
 10
257.4480557347
 20
206.6980552091
 30
0.0
 10
257.3801609416
 20
206.4221411596
 30
0.0
 10
257.3368079088
 20
206.2119450557
 30
0.0
  0
SPLINE
  5
2A3
100
AcDbEntity
  8
0
100
AcDbSpline
 62
7
  6
CONTINUOUS
 70
0
 71
3
 72
12
 73
8
 74
0
 42
0.0000001
 43
0.0000001
 44
0.0000000001
 40
0.0
 40
0.0
 40
0.0
 40
0.0
 40
0.093181193
 40
0.1985483196
 40
0.4401797297
 40
0.7122064972
 40
1.0
 40
1.0
 40
1.0
 40
1.0
 10
257.3368079088
 20
206.2119450557
 30
0.0
 10
257.2173016338
 20
205.6325218459
 30
0.0
 10
256.9841238655
 20
204.3934451897
 30
0.0
 10
256.537679211
 20
201.6343673392
 30
0.0
 10
256.0368945147
 20
197.7350812975
 30
0.0
 10
255.5470444994
 20
192.6696176717
 30
0.0
 10
255.2975453604
 20
189.1235928394
 30
0.0
 10
255.1893160867
 20
187.2995642255
 30
0.0
  0
SPLINE
  5
2A4
100
AcDbEntity
  8
0
100
AcDbSpline
 62
7
  6
CONTINUOUS
 70
0
 71
3
 72
8
 73
4
 74
0
 42
0.0000001
 43
0.0000001
 44
0.0000000001
 40
0.0
 40
0.0
 40
0.0
 40
0.0
 40
1.0
 40
1.0
 40
1.0
 40
1.0
 10
255.1893160867
 20
187.2995642255
 30
0.0
 10
255.0800209737
 20
185.4575726232
 30
0.0
 10
255.0341113576
 20
183.6112778333
 30
0.0
 10
255.0341113576
 20
181.7660465512
 30
0.0
  0
SPLINE
  5
2A5
100
AcDbEntity
  8
0
100
AcDbSpline
 62
7
  6
CONTINUOUS
 70
0
 71
3
 72
11
 73
7
 74
0
 42
0.0000001
 43
0.0000001
 44
0.0000000001
 40
0.0
 40
0.0
 40
0.0
 40
0.0
 40
0.2500307292
 40
0.5000505849
 40
0.7500458966
 40
1.0
 40
1.0
 40
1.0
 40
1.0
 10
255.0341113576
 20
171.3660465512
 30
0.0
 10
255.0341113576
 20
169.7270163293
 30
0.0
 10
255.0844563104
 20
166.4487658579
 30
0.0
 10
255.3472171394
 20
161.5372125414
 30
0.0
 10
255.8924897519
 20
156.6477943365
 30
0.0
 10
256.5295089823
 20
153.4263542304
 30
0.0
 10
256.9373275971
 20
151.8393892947
 30
0.0
  0
SPLINE
  5
2A6
100
AcDbEntity
  8
0
100
AcDbSpline
 62
7
  6
CONTINUOUS
 70
0
 71
3
 72
11
 73
7
 74
0
 42
0.0000001
 43
0.0000001
 44
0.0000000001
 40
0.0
 40
0.0
 40
0.0
 40
0.0
 40
0.2626635447
 40
0.5195928514
 40
0.7663102185
 40
1.0
 40
1.0
 40
1.0
 40
1.0
 10
256.9373275971
 20
151.8393892947
 30
0.0
 10
257.3828761361
 20
150.1056040214
 30
0.0
 10
258.3777331937
 20
146.7038288735
 30
0.0
 10
260.1874960114
 20
141.8000129214
 30
0.0
 10
262.2864533106
 20
137.228527781
 30
0.0
 10
263.920342539
 20
134.3833492578
 30
0.0
 10
264.79249758
 20
133.0507217959
 30
0.0
  0
SPLINE
  5
2A7
100
AcDbEntity
  8
0
100
AcDbSpline
 62
7
  6
CONTINUOUS
 70
0
 71
3
 72
11
 73
7
 74
0
 42
0.0000001
 43
0.0000001
 44
0.0000000001
 40
0.0
 40
0.0
 40
0.0
 40
0.0
 40
0.2493732723
 40
0.4990053384
 40
0.7520483232
 40
1.0
 40
1.0
 40
1.0
 40
1.0
 10
273.1211080951
 20
117.0343621064
 30
0.0
 10
272.1192624124
 20
116.7052534297
 30
0.0
 10
270.1637395148
 20
115.8689024715
 30
0.0
 10
267.5962793364
 20
113.9200347938
 30
0.0
 10
265.766400229
 20
111.2533201689
 30
0.0
 10
265.269544934
 20
109.1200975552
 30
0.0
 10
265.269544934
 20
108.0715914508
 30
0.0
  0
SPLINE
  5
2A8
100
AcDbEntity
  8
0
100
AcDbSpline
 62
7
  6
CONTINUOUS
 70
0
 71
3
 72
15
 73
11
 74
0
 42
0.0000001
 43
0.0000001
 44
0.0000000001
 40
0.0
 40
0.0
 40
0.0
 40
0.0
 40
0.1008944237
 40
0.2034142222
 40
0.3119927568
 40
0.4301161155
 40
0.5593947383
 40
0.6992916234
 40
0.8473958207
 40
1.0
 40
1.0
 40
1.0
 40
1.0
 10
273.1211080951
 20
134.8795805811
 30
0.0
 10
273.1211080951
 20
135.1954295769
 30
0.0
 10
273.2059088579
 20
135.8360054291
 30
0.0
 10
273.6019425534
 20
136.7419516657
 30
0.0
 10
274.2566355294
 20
137.5522162901
 30
0.0
 10
275.1454308902
 20
138.2383306771
 30
0.0
 10
276.235525413
 20
138.7831562875
 30
0.0
 10
277.4867293111
 20
139.1746253478
 30
0.0
 10
278.8503807901
 20
139.4046081707
 30
0.0
 10
279.7934263163
 20
139.447023719
 30
0.0
 10
280.2711080951
 20
139.4405330055
 30
0.0
  0
ELLIPSE
  5
2A9
100
AcDbEntity
  8
KONSTRUKTIONSELEMENTE
100
AcDbEllipse
 62
7
  6
CONTINUOUS
 10
280.9211080951
 20
86.6632504651
 30
0.0
 11
0.0
 21
8.077196229
 31
0.0
 40
0.8852081585
 41
-0.9955552139
 42
-0.0
  0
ELLIPSE
  5
2AA
100
AcDbEntity
  8
0
100
AcDbEllipse
 62
7
  6
CONTINUOUS
 10
280.5961080951
 20
197.2531262583
 30
0.0
 11
0.0
 21
-26.2555168855
 31
0.0
 40
0.9902680687
 41
3.129092328
 42
3.1540929791
  0
ELLIPSE
  5
2AB
100
AcDbEntity
  8
0
100
AcDbEllipse
 62
7
  6
CONTINUOUS
 10
280.2711080951
 20
86.6632504651
 30
0.0
 11
-0.0
 21
8.077196229
 31
0.0
 40
0.8852081585
 41
0.0
 42
0.9955552139
  0
ELLIPSE
  5
2AC
100
AcDbEntity
  8
0
100
AcDbEllipse
 62
7
  6
CONTINUOUS
 10
280.5961080951
 20
191.4779762642
 30
0.0
 11
-0.0
 21
33.6870447359
 31
0.0
 40
0.7718100594
 41
-1.074889535
 42
1.074889535
  0
ENDSEC
  0
SECTION
  2
OBJECTS
  0
DICTIONARY
  5
C
100
AcDbDictionary
280
0
281
1
  3
ACAD_GROUP
350
D
  3
ACAD_MLINESTYLE
350
17
  3
ACAD_LAYOUT
350
1A
  3
ACAD_PLOTSETTINGS
350
19
  3
ACAD_PLOTSTYLENAME
350
E
  0
DICTIONARY
  5
D
102
{ACAD_REACTORS
330
C
102
}
100
AcDbDictionary
280
0
281
1
  0
ACDBDICTIONARYWDFLT
  5
E
102
{ACAD_REACTORS
330
C
102
}
100
AcDbDictionary
281
1
  3
Normal
350
F
100
AcDbDictionaryWithDefault
340
F
  0
DICTIONARY
  5
17
102
{ACAD_REACTORS
330
C
102
}
100
AcDbDictionary
280
0
281
1
  3
Standard
350
18
  0
DICTIONARY
  5
19
102
{ACAD_REACTORS
330
C
102
}
100
AcDbDictionary
281
1
  0
DICTIONARY
  5
1A
102
{ACAD_REACTORS
330
C
102
}
100
AcDbDictionary
281
1
  3
Model
350
2AD
  3
Layout1
350
2AE
  0
ACDBPLACEHOLDER
  5
F
102
{ACAD_REACTORS
330
E
102
}
  0
MLINESTYLE
  5
18
102
{ACAD_REACTORS
330
17
102
}
100
AcDbMlineStyle
  2
STANDARD
 70
0
  3

 62
256
 51
90.0
 52
90.0
 71
2
 49
0.5
 62
256
  6
BYLAYER
 49
-0.5
 62
256
  6
BYLAYER
  0
LAYOUT
  5
2AD
102
{ACAD_REACTORS
330
1A
102
}
100
AcDbPlotSettings
  1

  2
none_device
  4
ISO_A3_(420.00_x_297.00_MM)
  6

 40
0.0
 41
0.0
 42
0.0
 43
0.0
 44
420.0
 45
297.0
 46
0.0
 47
0.0
 48
0.0
 49
0.0
140
0.0
141
0.0
142
1.0
143
1.0
 70
1024
 72
1
 73
0
 74
0
  7

 75
0
147
1.0
148
0.0
149
0.0
100
AcDbLayout
  1
Model
 70
0
 71
0
 10
0.0
 20
0.0
 11
420.0
 21
297.0
 12
0.0
 22
0.0
 32
0.0
 14
0.0
 24
0.0
 34
0.0
 15
0.0
 25
0.0
 35
0.0
146
0.0
 13
0.0
 23
0.0
 33
0.0
 16
1.0
 26
0.0
 36
0.0
 17
0.0
 27
1.0
 37
0.0
 76
0
330
208
345
0
346
0
  0
LAYOUT
  5
2AE
102
{ACAD_REACTORS
330
1A
102
}
100
AcDbPlotSettings
  1

  2
none_device
  4
ISO_A3_(420.00_x_297.00_MM)
  6

 40
0.0
 41
0.0
 42
0.0
 43
0.0
 44
420.0
 45
297.0
 46
0.0
 47
0.0
 48
0.0
 49
0.0
140
0.0
141
0.0
142
1.0
143
1.0
 70
0
 72
1
 73
0
 74
0
  7

 75
0
147
1.0
148
0.0
149
0.0
100
AcDbLayout
  1
Layout1
 70
0
 71
1
 10
0.0
 20
0.0
 11
420.0
 21
297.0
 12
0.0
 22
0.0
 32
0.0
 14
0.0
 24
0.0
 34
0.0
 15
0.0
 25
0.0
 35
0.0
146
0.0
 13
0.0
 23
0.0
 33
0.0
 16
1.0
 26
0.0
 36
0.0
 17
0.0
 27
1.0
 37
0.0
 76
0
330
209
345
0
346
0
  0
ENDSEC
  0
EOF
