999
DXF file: IVH-8_7900133_M33798-P-10.dxf
999
Pro/ENGINEER 2010140 by Parametric Technology Corporation
  0
SECTION
  2
HEADER
  9
$ACADVER
  1
AC1015
  9
$DWGCODEPAGE
  3
ANSI_1252
  9
$EXTMAX
 10
420.0
 20
297.0
 30
0.0
  9
$EXTMIN
 10
0.0
 20
0.0
 30
0.0
  9
$LIMMIN
 10
0.0
 20
0.0
  9
$LIMMAX
 10
420.0
 20
297.0
  9
$VIEWCTR
 10
210.0
 20
148.5
  9
$VIEWSIZE
 40
297.0
  9
$CLAYER
  8
0
  9
$LTSCALE
 40
23.1
  9
$CELTYPE
  6
BYLAYER
  9
$DIMSCALE
 40
1.0
  9
$DIMASZ
 40
3.5
  9
$DIMEXO
 40
2.625
  9
$DIMDLI
 40
15.96
  9
$DIMEXE
 40
7.56
  9
$DIMCEN
 40
3.78
  9
$DIMLFAC
 40
1.0
  9
$DIMBLK
  1
_FILLED
  9
$DIMTXT
 40
3.5
  9
$DIMTOL
 70
1
  9
$DIMLIM
 70
0
  9
$DIMTFAC
 40
1.0
  9
$DIMTP
 40
0.005
  9
$DIMTM
 40
0.005
  9
$PDMODE
 70
3
  9
$PDSIZE
 40
0.3125
  9
$HANDSEED
  5
37F
  9
$TILEMODE
 70
1
  9
$MEASUREMENT
 70
1
  9
$INSUNITS
 70
4
  0
ENDSEC
  0
SECTION
  2
CLASSES
  0
CLASS
  1
ACDBDICTIONARYWDFLT
  2
AcDbDictionaryWithDefault
  3
AutoCAD 2000
 90
0
280
0
281
0
  0
CLASS
  1
ACDBPLACEHOLDER
  2
AcDbPlaceHolder
  3
AutoCAD 2000
 90
0
280
0
281
0
  0
CLASS
  1
LAYOUT
  2
AcDbLayout
  3
AutoCAD 2000
 90
0
280
0
281
0
  0
ENDSEC
  0
SECTION
  2
TABLES
  0
TABLE
  2
VPORT
  5
8
100
AcDbSymbolTable
 70
2
  0
VPORT
  5
1F4
100
AcDbSymbolTableRecord
100
AcDbViewportTableRecord
  2
*ACTIVE
 70
0
 10
0.0
 20
0.0
 11
1.0
 21
1.0
 12
210.0
 22
148.5
 13
0.0
 23
0.0
 14
1.0
 24
1.0
 15
0.0
 25
0.0
 16
0.0
 26
0.0
 36
1.0
 17
0.0
 27
0.0
 37
0.0
 40
297.0
 41
1.4141414141
 42
50.0
 43
0.0
 44
0.0
 50
0.0
 51
0.0
 71
0
 72
100
 73
1
 74
1
 75
0
 76
0
 77
0
 78
0
  0
ENDTAB
  0
TABLE
  2
LTYPE
  5
5
100
AcDbSymbolTable
 70
6
  0
LTYPE
  5
14
100
AcDbSymbolTableRecord
100
AcDbLinetypeTableRecord
  2
BYBLOCK
 70
0
  3

 72
65
 73
0
 40
0.0
  0
LTYPE
  5
15
100
AcDbSymbolTableRecord
100
AcDbLinetypeTableRecord
  2
BYLAYER
 70
0
  3

 72
65
 73
0
 40
0.0
  0
LTYPE
  5
16
100
AcDbSymbolTableRecord
100
AcDbLinetypeTableRecord
  2
CONTINUOUS
 70
64
  3
Solid line
 72
65
 73
0
 40
0.0
  0
LTYPE
  5
1F5
100
AcDbSymbolTableRecord
100
AcDbLinetypeTableRecord
  2
CENTER
 70
64
  3
____ _ ____ _ ____ _ ____ _ ____ _ ____ _ ____
 72
65
 73
4
 40
0.6
 49
0.375
 74
0
 49
-0.075
 74
0
 49
0.075
 74
0
 49
-0.075
 74
0
  0
LTYPE
  5
1F6
100
AcDbSymbolTableRecord
100
AcDbLinetypeTableRecord
  2
HIDDEN
 70
64
  3
- - - - - - - - - - - - - - - - - - - -
 72
65
 73
2
 40
0.2
 49
0.1
 74
0
 49
-0.1
 74
0
  0
LTYPE
  5
1F7
100
AcDbSymbolTableRecord
100
AcDbLinetypeTableRecord
  2
PHANTOM
 70
64
  3
_____ _ _ _____ _ _ _____ _ _ _____
 72
65
 73
6
 40
0.8
 49
0.45
 74
0
 49
-0.05
 74
0
 49
0.1
 74
0
 49
-0.05
 74
0
 49
0.1
 74
0
 49
-0.05
 74
0
  0
LTYPE
  5
1F8
100
AcDbSymbolTableRecord
100
AcDbLinetypeTableRecord
  2
DOT
 70
64
  3
. . . . . . . . . . . . . . . . . . . .
 72
65
 73
2
 40
0.2
 49
0.1
 74
0
 49
-0.1
 74
0
  0
LTYPE
  5
1F9
100
AcDbSymbolTableRecord
100
AcDbLinetypeTableRecord
  2
DASHED
 70
64
  3
- - - - - - - - - - - - - - - - - - - -
 72
65
 73
2
 40
0.2
 49
0.1
 74
0
 49
-0.1
 74
0
  0
ENDTAB
  0
TABLE
  2
LAYER
  5
2
100
AcDbSymbolTable
 70
36
  0
LAYER
  5
10
100
AcDbSymbolTableRecord
100
AcDbLayerTableRecord
  2
0
 70
0
 62
7
  6
CONTINUOUS
370
-3
390
F
  0
LAYER
  5
1FA
100
AcDbSymbolTableRecord
100
AcDbLayerTableRecord
  2
DEFAULT_1
 70
0
 62
7
  6
CENTER
370
-3
390
F
  0
LAYER
  5
1FB
100
AcDbSymbolTableRecord
100
AcDbLayerTableRecord
  2
DEFAULT_2
 70
0
 62
8
  6
HIDDEN
370
-3
390
F
  0
LAYER
  5
1FC
100
AcDbSymbolTableRecord
100
AcDbLayerTableRecord
  2
DEFAULT_3
 70
0
 62
7
  6
PHANTOM
370
-3
390
F
  0
LAYER
  5
1FD
100
AcDbSymbolTableRecord
100
AcDbLayerTableRecord
  2
AUSFORMSCHRAEGEN
 70
0
 62
7
  6
CONTINUOUS
370
-3
390
F
  0
LAYER
  5
1FE
100
AcDbSymbolTableRecord
100
AcDbLayerTableRecord
  2
BEZUGSACHSEN
 70
0
 62
7
  6
CONTINUOUS
370
-3
390
F
  0
LAYER
  5
1FF
100
AcDbSymbolTableRecord
100
AcDbLayerTableRecord
  2
BEZUGSEBENEN
 70
0
 62
7
  6
CONTINUOUS
370
-3
390
F
  0
LAYER
  5
200
100
AcDbSymbolTableRecord
100
AcDbLayerTableRecord
  2
FASEN
 70
0
 62
7
  6
CONTINUOUS
370
-3
390
F
  0
LAYER
  5
201
100
AcDbSymbolTableRecord
100
AcDbLayerTableRecord
  2
HILFEN
 70
0
 62
7
  6
CONTINUOUS
370
-3
390
F
  0
LAYER
  5
202
100
AcDbSymbolTableRecord
100
AcDbLayerTableRecord
  2
KONSTRUKTIONSELEMENTE
 70
0
 62
7
  6
CONTINUOUS
370
-3
390
F
  0
LAYER
  5
203
100
AcDbSymbolTableRecord
100
AcDbLayerTableRecord
  2
PLATZIERUNG
 70
0
 62
7
  6
CONTINUOUS
370
-3
390
F
  0
LAYER
  5
204
100
AcDbSymbolTableRecord
100
AcDbLayerTableRecord
  2
RUNDUNGEN
 70
0
 62
7
  6
CONTINUOUS
370
-3
390
F
  0
LAYER
  5
205
100
AcDbSymbolTableRecord
100
AcDbLayerTableRecord
  2
TEIL_STARTBEZUEGE
 70
0
 62
7
  6
CONTINUOUS
370
-3
390
F
  0
LAYER
  5
206
100
AcDbSymbolTableRecord
100
AcDbLayerTableRecord
  2
ZEICHNUNGSBEMASSUNGEN
 70
0
 62
7
  6
CONTINUOUS
370
-3
390
F
  0
ENDTAB
  0
TABLE
  2
STYLE
  5
3
100
AcDbSymbolTable
 70
1
  0
STYLE
  5
11
100
AcDbSymbolTableRecord
100
AcDbTextStyleTableRecord
  2
STANDARD
 70
0
 40
0.0
 41
0.7
 50
0.0
 71
0
 42
0.2
  3
txt
  4

  0
STYLE
  5
207
100
AcDbSymbolTableRecord
100
AcDbTextStyleTableRecord
  2
TEXTSTYLE_1
 70
0
 40
0.0
 41
0.8
 50
0.0
 71
0
 42
0.2
  3
gdt
  4

  0
ENDTAB
  0
TABLE
  2
VIEW
  5
6
100
AcDbSymbolTable
 70
0
  0
ENDTAB
  0
TABLE
  2
UCS
  5
7
100
AcDbSymbolTable
 70
0
  0
ENDTAB
  0
TABLE
  2
APPID
  5
9
100
AcDbSymbolTable
 70
1
  0
APPID
  5
208
100
AcDbSymbolTableRecord
100
AcDbRegAppTableRecord
  2
ACAD
 70
0
  0
ENDTAB
  0
TABLE
  2
BLOCK_RECORD
  5
1
100
AcDbSymbolTable
 70
0
  0
BLOCK_RECORD
  5
209
100
AcDbSymbolTableRecord
100
AcDbBlockTableRecord
  2
*Model_Space
  0
BLOCK_RECORD
  5
20A
100
AcDbSymbolTableRecord
100
AcDbBlockTableRecord
  2
*Paper_Space
  0
ENDTAB
  0
TABLE
  2
DIMSTYLE
  5
A
100
AcDbSymbolTable
 70
1
100
AcDbDimStyleTable
 71
0
  0
DIMSTYLE
105
20B
100
AcDbSymbolTableRecord
100
AcDbDimStyleTableRecord
  2
STANDARD
 70
0
  3

  4

 40
1.0
 41
3.5
 42
0.0625
 43
0.38
 44
0.18
 45
0.0
 46
0.0
 47
0.005
 48
0.005
140
3.5
141
0.09
142
0.0
143
25.4
144
1.0
145
0.0
146
1.0
147
0.09
 71
1.0
 72
0.0
 73
0
 74
0
 75
0
 76
0
 77
1
 78
8
170
0
171
2
172
0
173
0
174
0
175
0
176
0
177
0
178
5
270
2
271
3
272
3
273
2
274
2
275
0
280
0
281
0
282
0
283
1
284
8
285
0
286
0
287
3
288
0
340
11
  0
ENDTAB
  0
ENDSEC
  0
SECTION
  2
BLOCKS
  0
BLOCK
  5
20
100
AcDbEntity
  8
0
100
AcDbBlockBegin
  2
*Model_Space
 70
0
 10
0.0
 20
0.0
 30
0.0
  3
*Model_Space
  1

  0
ENDBLK
  5
21
100
AcDbEntity
  8
0
100
AcDbBlockEnd
  0
BLOCK
  5
1C
100
AcDbEntity
  8
0
100
AcDbBlockBegin
  2
*Paper_Space
 70
0
 10
0.0
 20
0.0
 30
0.0
  3
*Paper_Space
  1

  0
ENDBLK
  5
1D
100
AcDbEntity
  8
0
100
AcDbBlockEnd
  0
ENDSEC
  0
SECTION
  2
ENTITIES
  0
MTEXT
  5
20C
100
AcDbEntity
  8
0
100
AcDbMText
 62
5
  6
CONTINUOUS
  7
STANDARD
 71
1
 72
1
 10
225.8391264654
 20
116.7977471377
 30
0.0
 11
0.0
 21
1.0
 31
0.0
 44
0.9
  1
RUD
 40
4.0
 41
9.9047619048
  0
MTEXT
  5
20D
100
AcDbEntity
  8
0
100
AcDbMText
 62
5
  6
CONTINUOUS
  7
STANDARD
 71
1
 72
1
 10
235.7229403764
 20
113.1463630114
 30
0.0
 11
0.0
 21
1.0
 31
0.0
 44
0.9
  1
IVH-8
 40
4.0
 41
15.8095238095
  0
LINE
  5
20E
100
AcDbEntity
  8
0
100
AcDbLine
 62
7
  6
CONTINUOUS
 10
0.0
 20
0.0
 11
0.0
 21
297.0
  0
LINE
  5
20F
100
AcDbEntity
  8
0
100
AcDbLine
 62
7
  6
CONTINUOUS
 10
0.0
 20
0.0
 11
420.0
 21
0.0
  0
LINE
  5
210
100
AcDbEntity
  8
0
100
AcDbLine
 62
7
  6
CONTINUOUS
 10
0.0
 20
297.0
 11
420.0
 21
297.0
  0
LINE
  5
211
100
AcDbEntity
  8
0
100
AcDbLine
 62
7
  6
CONTINUOUS
 10
420.0
 20
0.0
 11
420.0
 21
297.0
  0
LINE
  5
212
100
AcDbEntity
  8
0
100
AcDbLine
 62
7
  6
CONTINUOUS
 10
118.5682816396
 20
212.2084715212
 11
123.9385192791
 21
218.6084715212
  0
LINE
  5
213
100
AcDbEntity
  8
KONSTRUKTIONSELEMENTE
100
AcDbLine
 62
7
  6
CONTINUOUS
 10
154.8181968936
 20
113.843518424
 11
159.1612308503
 21
113.843518424
  0
LINE
  5
214
100
AcDbEntity
  8
AUSFORMSCHRAEGEN
100
AcDbLine
 62
7
  6
CONTINUOUS
 10
144.9299359244
 20
130.4929753928
 11
143.2682816396
 21
130.4929753928
  0
LINE
  5
215
100
AcDbEntity
  8
AUSFORMSCHRAEGEN
100
AcDbLine
 62
7
  6
CONTINUOUS
 10
135.2066273548
 20
130.4929753928
 11
136.8682816396
 21
130.4929753928
  0
LINE
  5
216
100
AcDbEntity
  8
KONSTRUKTIONSELEMENTE
100
AcDbLine
 62
7
  6
CONTINUOUS
 10
159.8682816396
 20
139.5751381481
 11
164.8682816396
 21
140.9084715212
  0
LINE
  5
217
100
AcDbEntity
  8
KONSTRUKTIONSELEMENTE
100
AcDbLine
 62
7
  6
CONTINUOUS
 10
136.8682816396
 20
135.1840991939
 11
143.2682816396
 21
135.1840991939
  0
LINE
  5
218
100
AcDbEntity
  8
RUNDUNGEN
100
AcDbLine
 62
7
  6
CONTINUOUS
 10
118.5682816396
 20
201.4111445204
 11
118.5682816396
 21
212.2084715212
  0
LINE
  5
219
100
AcDbEntity
  8
KONSTRUKTIONSELEMENTE
100
AcDbLine
 62
7
  6
CONTINUOUS
 10
119.0682816396
 20
135.5084715212
 11
119.0682816396
 21
152.0509359075
  0
LINE
  5
21A
100
AcDbEntity
  8
KONSTRUKTIONSELEMENTE
100
AcDbLine
 62
7
  6
CONTINUOUS
 10
164.2299837688
 20
141.241804775
 11
159.8682816396
 21
140.0751381481
  0
LINE
  5
21B
100
AcDbEntity
  8
KONSTRUKTIONSELEMENTE
100
AcDbLine
 62
7
  6
CONTINUOUS
 10
159.8682816396
 20
138.4084715212
 11
164.8682816396
 21
138.4084715212
  0
LINE
  5
21C
100
AcDbEntity
  8
KONSTRUKTIONSELEMENTE
100
AcDbLine
 62
7
  6
CONTINUOUS
 10
164.8682816396
 20
138.9084715212
 11
159.8682816396
 21
138.9084715212
  0
LINE
  5
21D
100
AcDbEntity
  8
KONSTRUKTIONSELEMENTE
100
AcDbLine
 62
7
  6
CONTINUOUS
 10
136.8682816396
 20
139.2343205491
 11
143.2682816396
 21
139.2343205491
  0
LINE
  5
21E
100
AcDbEntity
  8
KONSTRUKTIONSELEMENTE
100
AcDbLine
 62
7
  6
CONTINUOUS
 10
119.0682816396
 20
139.8347725384
 11
130.2072472111
 21
139.8347725384
  0
LINE
  5
21F
100
AcDbEntity
  8
AUSFORMSCHRAEGEN
100
AcDbLine
 62
7
  6
CONTINUOUS
 10
135.1597803888
 20
111.5375870316
 11
133.6575836076
 21
115.6648387676
  0
LINE
  5
220
100
AcDbEntity
  8
KONSTRUKTIONSELEMENTE
100
AcDbLine
 62
7
  6
CONTINUOUS
 10
120.7627049941
 20
171.6726492936
 11
119.4404055427
 21
170.5631083117
  0
LINE
  5
221
100
AcDbEntity
  8
KONSTRUKTIONSELEMENTE
100
AcDbLine
 62
7
  6
CONTINUOUS
 10
159.8682816396
 20
143.5751380289
 11
164.8682816396
 21
143.5751380289
  0
LINE
  5
222
100
AcDbEntity
  8
KONSTRUKTIONSELEMENTE
100
AcDbLine
 62
7
  6
CONTINUOUS
 10
164.8682816396
 20
144.0751380289
 11
162.5278560886
 21
144.0751380289
  0
LINE
  5
223
100
AcDbEntity
  8
KONSTRUKTIONSELEMENTE
100
AcDbLine
 62
7
  6
CONTINUOUS
 10
161.8895582924
 20
144.0751380289
 11
159.8682816396
 21
144.0751380289
  0
LINE
  5
224
100
AcDbEntity
  8
AUSFORMSCHRAEGEN
100
AcDbLine
 62
7
  6
CONTINUOUS
 10
135.2541446023
 20
130.401561503
 11
135.2066273548
 21
130.4929753928
  0
LINE
  5
225
100
AcDbEntity
  8
KONSTRUKTIONSELEMENTE
100
AcDbLine
 62
7
  6
CONTINUOUS
 10
159.8682816396
 20
146.4084715212
 11
161.8895582924
 21
146.4084715212
  0
LINE
  5
226
100
AcDbEntity
  8
KONSTRUKTIONSELEMENTE
100
AcDbLine
 62
7
  6
CONTINUOUS
 10
162.5278560886
 20
146.4084715212
 11
164.8682816396
 21
146.4084715212
  0
LINE
  5
227
100
AcDbEntity
  8
KONSTRUKTIONSELEMENTE
100
AcDbLine
 62
7
  6
CONTINUOUS
 10
164.8682816396
 20
146.9084715212
 11
159.8682816396
 21
146.9084715212
  0
LINE
  5
228
100
AcDbEntity
  8
KONSTRUKTIONSELEMENTE
100
AcDbLine
 62
7
  6
CONTINUOUS
 10
162.5278560886
 20
147.5751385057
 11
163.0597710679
 21
147.5751385057
  0
LINE
  5
229
100
AcDbEntity
  8
KONSTRUKTIONSELEMENTE
100
AcDbLine
 62
7
  6
CONTINUOUS
 10
164.8682816396
 20
141.5751382673
 11
159.8682816396
 21
142.9084715212
  0
LINE
  5
22A
100
AcDbEntity
  8
KONSTRUKTIONSELEMENTE
100
AcDbLine
 62
7
  6
CONTINUOUS
 10
159.8682816396
 20
142.4084715212
 11
164.2299837688
 21
141.241804775
  0
LINE
  5
22B
100
AcDbEntity
  8
KONSTRUKTIONSELEMENTE
100
AcDbLine
 62
7
  6
CONTINUOUS
 10
129.1388455096
 20
206.6101383036
 11
129.1388455096
 21
203.4084715212
  0
LINE
  5
22C
100
AcDbEntity
  8
KONSTRUKTIONSELEMENTE
100
AcDbLine
 62
7
  6
CONTINUOUS
 10
130.2072472111
 20
139.8347725384
 11
130.2072472111
 21
149.6084715212
  0
LINE
  5
22D
100
AcDbEntity
  8
KONSTRUKTIONSELEMENTE
100
AcDbLine
 62
7
  6
CONTINUOUS
 10
163.0597710679
 20
148.7418045366
 11
162.5278560886
 21
148.7418045366
  0
LINE
  5
22E
100
AcDbEntity
  8
KONSTRUKTIONSELEMENTE
100
AcDbLine
 62
7
  6
CONTINUOUS
 10
163.2725369999
 20
149.4084715212
 11
163.5916858981
 21
149.4084715212
  0
LINE
  5
22F
100
AcDbEntity
  8
KONSTRUKTIONSELEMENTE
100
AcDbLine
 62
7
  6
CONTINUOUS
 10
161.1448775301
 20
149.4918045366
 11
161.4640264282
 21
149.4918045366
  0
LINE
  5
230
100
AcDbEntity
  8
KONSTRUKTIONSELEMENTE
100
AcDbLine
 62
7
  6
CONTINUOUS
 10
163.5916858981
 20
149.8251385057
 11
163.2725369999
 21
149.8251385057
  0
LINE
  5
231
100
AcDbEntity
  8
KONSTRUKTIONSELEMENTE
100
AcDbLine
 62
7
  6
CONTINUOUS
 10
161.3576434622
 20
149.9084715212
 11
161.1448775301
 21
149.9084715212
  0
LINE
  5
232
100
AcDbEntity
  8
KONSTRUKTIONSELEMENTE
100
AcDbLine
 62
7
  6
CONTINUOUS
 10
161.1448775301
 20
151.9084715212
 11
161.3576434622
 21
151.9084715212
  0
LINE
  5
233
100
AcDbEntity
  8
KONSTRUKTIONSELEMENTE
100
AcDbLine
 62
7
  6
CONTINUOUS
 10
163.2725369999
 20
151.9918045366
 11
163.5916858981
 21
151.9918045366
  0
LINE
  5
234
100
AcDbEntity
  8
KONSTRUKTIONSELEMENTE
100
AcDbLine
 62
7
  6
CONTINUOUS
 10
161.4640264282
 20
152.3251385057
 11
161.1448775301
 21
152.3251385057
  0
LINE
  5
235
100
AcDbEntity
  8
KONSTRUKTIONSELEMENTE
100
AcDbLine
 62
7
  6
CONTINUOUS
 10
163.5916858981
 20
152.4084715212
 11
163.2725369999
 21
152.4084715212
  0
LINE
  5
236
100
AcDbEntity
  8
KONSTRUKTIONSELEMENTE
100
AcDbLine
 62
7
  6
CONTINUOUS
 10
135.2682816396
 20
140.6084715212
 11
135.2682816396
 21
157.8786947642
  0
LINE
  5
237
100
AcDbEntity
  8
0
100
AcDbLine
 62
7
  6
CONTINUOUS
 10
135.3182816396
 20
216.8484715212
 11
135.3182816396
 21
206.8084715212
  0
LINE
  5
238
100
AcDbEntity
  8
KONSTRUKTIONSELEMENTE
100
AcDbLine
 62
7
  6
CONTINUOUS
 10
135.3182816396
 20
206.8084715212
 11
135.3182816396
 21
195.4584715212
  0
LINE
  5
239
100
AcDbEntity
  8
KONSTRUKTIONSELEMENTE
100
AcDbLine
 62
7
  6
CONTINUOUS
 10
160.7193453679
 20
159.5751375521
 11
161.038494266
 21
159.6584715212
  0
LINE
  5
23A
100
AcDbEntity
  8
KONSTRUKTIONSELEMENTE
100
AcDbLine
 62
7
  6
CONTINUOUS
 10
161.038494266
 20
160.1584715212
 11
160.7193453679
 21
160.0751375521
  0
LINE
  5
23B
100
AcDbEntity
  8
KONSTRUKTIONSELEMENTE
100
AcDbLine
 62
7
  6
CONTINUOUS
 10
160.6129624019
 20
149.6584715212
 11
161.1448775301
 21
149.4918045366
  0
LINE
  5
23C
100
AcDbEntity
  8
KONSTRUKTIONSELEMENTE
100
AcDbLine
 62
7
  6
CONTINUOUS
 10
162.7406220207
 20
149.5751385057
 11
163.2725369999
 21
149.4084715212
  0
LINE
  5
23D
100
AcDbEntity
  8
KONSTRUKTIONSELEMENTE
100
AcDbLine
 62
7
  6
CONTINUOUS
 10
133.513614963
 20
162.6996018368
 11
126.3980332053
 21
171.1796219599
  0
LINE
  5
23E
100
AcDbEntity
  8
KONSTRUKTIONSELEMENTE
100
AcDbLine
 62
7
  6
CONTINUOUS
 10
136.8682816396
 20
139.2343205491
 11
136.8682816396
 21
135.1840991939
  0
LINE
  5
23F
100
AcDbEntity
  8
AUSFORMSCHRAEGEN
100
AcDbLine
 62
7
  6
CONTINUOUS
 10
136.8682816396
 20
135.1840991939
 11
136.8682816396
 21
130.4929753928
  0
LINE
  5
240
100
AcDbEntity
  8
AUSFORMSCHRAEGEN
100
AcDbLine
 62
7
  6
CONTINUOUS
 10
136.8682816396
 20
110.9076585265
 11
136.8682816396
 21
121.8823802424
  0
LINE
  5
241
100
AcDbEntity
  8
KONSTRUKTIONSELEMENTE
100
AcDbLine
 62
7
  6
CONTINUOUS
 10
163.5916858981
 20
161.4918054903
 11
163.1661540339
 21
161.4084715212
  0
LINE
  5
242
100
AcDbEntity
  8
KONSTRUKTIONSELEMENTE
100
AcDbLine
 62
7
  6
CONTINUOUS
 10
163.1661540339
 20
160.9084715212
 11
163.6980688641
 21
160.9918054903
  0
LINE
  5
243
100
AcDbEntity
  8
KONSTRUKTIONSELEMENTE
100
AcDbLine
 62
7
  6
CONTINUOUS
 10
159.8682816396
 20
157.0751375521
 11
164.8682816396
 21
157.0751375521
  0
LINE
  5
244
100
AcDbEntity
  8
KONSTRUKTIONSELEMENTE
100
AcDbLine
 62
7
  6
CONTINUOUS
 10
164.8682816396
 20
157.5751375521
 11
162.6342390547
 21
157.5751375521
  0
LINE
  5
245
100
AcDbEntity
  8
KONSTRUKTIONSELEMENTE
100
AcDbLine
 62
7
  6
CONTINUOUS
 10
161.9959412584
 20
157.5751375521
 11
160.4001964698
 21
157.5751375521
  0
LINE
  5
246
100
AcDbEntity
  8
KONSTRUKTIONSELEMENTE
100
AcDbLine
 62
7
  6
CONTINUOUS
 10
161.038494266
 20
159.6584715212
 11
161.3576434622
 21
159.6584715212
  0
LINE
  5
247
100
AcDbEntity
  8
KONSTRUKTIONSELEMENTE
100
AcDbLine
 62
7
  6
CONTINUOUS
 10
161.4640264282
 20
160.1584715212
 11
161.038494266
 21
160.1584715212
  0
LINE
  5
248
100
AcDbEntity
  8
KONSTRUKTIONSELEMENTE
100
AcDbLine
 62
7
  6
CONTINUOUS
 10
164.1236008028
 20
152.2418045366
 11
163.5916858981
 21
152.4084715212
  0
LINE
  5
249
100
AcDbEntity
  8
KONSTRUKTIONSELEMENTE
100
AcDbLine
 62
7
  6
CONTINUOUS
 10
161.8895582924
 20
152.1584715212
 11
161.4640264282
 21
152.3251385057
  0
LINE
  5
24A
100
AcDbEntity
  8
KONSTRUKTIONSELEMENTE
100
AcDbLine
 62
7
  6
CONTINUOUS
 10
161.1448775301
 20
149.9084715212
 11
160.825728334
 21
150.0751385057
  0
LINE
  5
24B
100
AcDbEntity
  8
AUSFORMSCHRAEGEN
100
AcDbLine
 62
7
  6
CONTINUOUS
 10
146.7119913106
 20
118.9583524966
 11
144.9299359244
 21
130.4929753928
  0
LINE
  5
24C
100
AcDbEntity
  8
BEZUGSACHSEN
100
AcDbLine
 62
2
  6
CENTER
 10
140.0682816396
 20
106.6054043479
 11
140.0682816396
 21
221.6084715212
  0
LINE
  5
24D
100
AcDbEntity
  8
KONSTRUKTIONSELEMENTE
100
AcDbLine
 62
7
  6
CONTINUOUS
 10
143.2682816396
 20
139.2343205491
 11
143.2682816396
 21
135.1840991939
  0
LINE
  5
24E
100
AcDbEntity
  8
AUSFORMSCHRAEGEN
100
AcDbLine
 62
7
  6
CONTINUOUS
 10
143.2682816396
 20
135.1840991939
 11
143.2682816396
 21
130.4929753928
  0
LINE
  5
24F
100
AcDbEntity
  8
AUSFORMSCHRAEGEN
100
AcDbLine
 62
7
  6
CONTINUOUS
 10
143.2682816396
 20
109.6643232473
 11
143.2682816396
 21
121.8823802424
  0
LINE
  5
250
100
AcDbEntity
  8
AUSFORMSCHRAEGEN
100
AcDbLine
 62
7
  6
CONTINUOUS
 10
133.4245719685
 20
118.9583524966
 11
135.2066273548
 21
130.4929753928
  0
LINE
  5
251
100
AcDbEntity
  8
KONSTRUKTIONSELEMENTE
100
AcDbLine
 62
7
  6
CONTINUOUS
 10
161.1448775301
 20
167.3251375521
 11
161.5704093943
 21
167.4084715212
  0
LINE
  5
252
100
AcDbEntity
  8
KONSTRUKTIONSELEMENTE
100
AcDbLine
 62
7
  6
CONTINUOUS
 10
159.8682816396
 20
160.9084715212
 11
163.1661540339
 21
160.9084715212
  0
LINE
  5
253
100
AcDbEntity
  8
KONSTRUKTIONSELEMENTE
100
AcDbLine
 62
7
  6
CONTINUOUS
 10
163.1661540339
 20
161.4084715212
 11
159.8682816396
 21
161.4084715212
  0
LINE
  5
254
100
AcDbEntity
  8
KONSTRUKTIONSELEMENTE
100
AcDbLine
 62
7
  6
CONTINUOUS
 10
159.8682816396
 20
163.4084715212
 11
163.1661540339
 21
163.4084715212
  0
LINE
  5
255
100
AcDbEntity
  8
KONSTRUKTIONSELEMENTE
100
AcDbLine
 62
7
  6
CONTINUOUS
 10
163.1661540339
 20
163.9084715212
 11
159.8682816396
 21
163.9084715212
  0
LINE
  5
256
100
AcDbEntity
  8
KONSTRUKTIONSELEMENTE
100
AcDbLine
 62
7
  6
CONTINUOUS
 10
159.8682816396
 20
164.5751375521
 11
164.8682816396
 21
164.5751375521
  0
LINE
  5
257
100
AcDbEntity
  8
KONSTRUKTIONSELEMENTE
100
AcDbLine
 62
7
  6
CONTINUOUS
 10
161.3576434622
 20
159.6584715212
 11
161.6767923603
 21
159.5751375521
  0
LINE
  5
258
100
AcDbEntity
  8
KONSTRUKTIONSELEMENTE
100
AcDbLine
 62
7
  6
CONTINUOUS
 10
161.3576434622
 20
151.9084715212
 11
161.6767923603
 21
151.7418045366
  0
LINE
  5
259
100
AcDbEntity
  8
KONSTRUKTIONSELEMENTE
100
AcDbLine
 62
7
  6
CONTINUOUS
 10
163.2725369999
 20
149.8251385057
 11
162.8470049868
 21
150.0751385057
  0
LINE
  5
25A
100
AcDbEntity
  8
KONSTRUKTIONSELEMENTE
100
AcDbLine
 62
7
  6
CONTINUOUS
 10
163.5916858981
 20
151.9918045366
 11
164.0172178367
 21
151.7418045366
  0
LINE
  5
25B
100
AcDbEntity
  8
KONSTRUKTIONSELEMENTE
100
AcDbLine
 62
7
  6
CONTINUOUS
 10
160.2938135037
 20
149.9084715212
 11
160.6129624019
 21
149.6584715212
  0
LINE
  5
25C
100
AcDbEntity
  8
KONSTRUKTIONSELEMENTE
100
AcDbLine
 62
7
  6
CONTINUOUS
 10
144.8182816396
 20
206.8084715212
 11
144.8182816396
 21
195.4584715212
  0
LINE
  5
25D
100
AcDbEntity
  8
0
100
AcDbLine
 62
7
  6
CONTINUOUS
 10
144.8182816396
 20
206.8084715212
 11
144.8182816396
 21
216.8484715212
  0
LINE
  5
25E
100
AcDbEntity
  8
KONSTRUKTIONSELEMENTE
100
AcDbLine
 62
7
  6
CONTINUOUS
 10
144.8682816396
 20
140.6084715212
 11
144.8682816396
 21
161.1143572722
  0
LINE
  5
25F
100
AcDbEntity
  8
KONSTRUKTIONSELEMENTE
100
AcDbLine
 62
7
  6
CONTINUOUS
 10
161.038494266
 20
167.8251375521
 11
160.6129624019
 21
167.6584715212
  0
LINE
  5
260
100
AcDbEntity
  8
KONSTRUKTIONSELEMENTE
100
AcDbLine
 62
7
  6
CONTINUOUS
 10
161.5704093943
 20
167.9084715212
 11
161.038494266
 21
167.8251375521
  0
LINE
  5
261
100
AcDbEntity
  8
KONSTRUKTIONSELEMENTE
100
AcDbLine
 62
7
  6
CONTINUOUS
 10
164.2299837688
 20
165.0751375521
 11
160.5065794358
 21
165.0751375521
  0
LINE
  5
262
100
AcDbEntity
  8
KONSTRUKTIONSELEMENTE
100
AcDbLine
 62
7
  6
CONTINUOUS
 10
161.5704093943
 20
167.4084715212
 11
163.1661540339
 21
167.4084715212
  0
LINE
  5
263
100
AcDbEntity
  8
KONSTRUKTIONSELEMENTE
100
AcDbLine
 62
7
  6
CONTINUOUS
 10
163.1661540339
 20
167.9084715212
 11
161.5704093943
 21
167.9084715212
  0
LINE
  5
264
100
AcDbEntity
  8
KONSTRUKTIONSELEMENTE
100
AcDbLine
 62
7
  6
CONTINUOUS
 10
163.6980688641
 20
163.8251375521
 11
163.1661540339
 21
163.9084715212
  0
LINE
  5
265
100
AcDbEntity
  8
KONSTRUKTIONSELEMENTE
100
AcDbLine
 62
7
  6
CONTINUOUS
 10
163.1661540339
 20
163.4084715212
 11
163.5916858981
 21
163.3251375521
  0
LINE
  5
266
100
AcDbEntity
  8
KONSTRUKTIONSELEMENTE
100
AcDbLine
 62
7
  6
CONTINUOUS
 10
161.7831753264
 20
160.0751375521
 11
161.4640264282
 21
160.1584715212
  0
LINE
  5
267
100
AcDbEntity
  8
KONSTRUKTIONSELEMENTE
100
AcDbLine
 62
7
  6
CONTINUOUS
 10
162.2087071905
 20
151.9084715212
 11
161.8895582924
 21
152.1584715212
  0
LINE
  5
268
100
AcDbEntity
  8
KONSTRUKTIONSELEMENTE
100
AcDbLine
 62
7
  6
CONTINUOUS
 10
164.4427497382
 20
151.9918045366
 11
164.1236008028
 21
152.2418045366
  0
LINE
  5
269
100
AcDbEntity
  8
KONSTRUKTIONSELEMENTE
100
AcDbLine
 62
7
  6
CONTINUOUS
 10
160.825728334
 20
150.0751385057
 11
160.5065794358
 21
150.4084715212
  0
LINE
  5
26A
100
AcDbEntity
  8
KONSTRUKTIONSELEMENTE
100
AcDbLine
 62
7
  6
CONTINUOUS
 10
162.4214731226
 20
149.9084715212
 11
162.7406220207
 21
149.5751385057
  0
LINE
  5
26B
100
AcDbEntity
  8
KONSTRUKTIONSELEMENTE
100
AcDbLine
 62
7
  6
CONTINUOUS
 10
142.6223082935
 20
167.2851183252
 11
122.0776149928
 21
191.7693303751
  0
LINE
  5
26C
100
AcDbEntity
  8
KONSTRUKTIONSELEMENTE
100
AcDbLine
 62
7
  6
CONTINUOUS
 10
150.9977177696
 20
206.6101383036
 11
150.9977177696
 21
203.4084715212
  0
LINE
  5
26D
100
AcDbEntity
  8
KONSTRUKTIONSELEMENTE
100
AcDbLine
 62
7
  6
CONTINUOUS
 10
160.6129624019
 20
167.6584715212
 11
160.1874305377
 21
167.3251375521
  0
LINE
  5
26E
100
AcDbEntity
  8
KONSTRUKTIONSELEMENTE
100
AcDbLine
 62
7
  6
CONTINUOUS
 10
160.825728334
 20
167.1584715212
 11
161.1448775301
 21
167.3251375521
  0
LINE
  5
26F
100
AcDbEntity
  8
KONSTRUKTIONSELEMENTE
100
AcDbLine
 62
7
  6
CONTINUOUS
 10
163.6980688641
 20
167.8251375521
 11
163.1661540339
 21
167.9084715212
  0
LINE
  5
270
100
AcDbEntity
  8
KONSTRUKTIONSELEMENTE
100
AcDbLine
 62
7
  6
CONTINUOUS
 10
163.1661540339
 20
167.4084715212
 11
163.5916858981
 21
167.3251375521
  0
LINE
  5
271
100
AcDbEntity
  8
KONSTRUKTIONSELEMENTE
100
AcDbLine
 62
7
  6
CONTINUOUS
 10
164.1236008028
 20
163.6584715212
 11
163.6980688641
 21
163.8251375521
  0
LINE
  5
272
100
AcDbEntity
  8
KONSTRUKTIONSELEMENTE
100
AcDbLine
 62
7
  6
CONTINUOUS
 10
163.5916858981
 20
163.3251375521
 11
163.9108347962
 21
163.1584715212
  0
LINE
  5
273
100
AcDbEntity
  8
KONSTRUKTIONSELEMENTE
100
AcDbLine
 62
7
  6
CONTINUOUS
 10
162.2087071905
 20
159.8251375521
 11
161.7831753264
 21
160.0751375521
  0
LINE
  5
274
100
AcDbEntity
  8
KONSTRUKTIONSELEMENTE
100
AcDbLine
 62
7
  6
CONTINUOUS
 10
161.6767923603
 20
159.5751375521
 11
161.8895582924
 21
159.4084715212
  0
LINE
  5
275
100
AcDbEntity
  8
KONSTRUKTIONSELEMENTE
100
AcDbLine
 62
7
  6
CONTINUOUS
 10
161.6767923603
 20
151.7418045366
 11
161.9959412584
 21
151.4084715212
  0
LINE
  5
276
100
AcDbEntity
  8
KONSTRUKTIONSELEMENTE
100
AcDbLine
 62
7
  6
CONTINUOUS
 10
159.9746646056
 20
150.3251385057
 11
160.2938135037
 21
149.9084715212
  0
LINE
  5
277
100
AcDbEntity
  8
KONSTRUKTIONSELEMENTE
100
AcDbLine
 62
7
  6
CONTINUOUS
 10
162.3150901566
 20
150.0751385057
 11
162.4214731226
 21
149.9084715212
  0
LINE
  5
278
100
AcDbEntity
  8
KONSTRUKTIONSELEMENTE
100
AcDbLine
 62
7
  6
CONTINUOUS
 10
154.8181968936
 20
113.843518424
 11
154.8181968936
 21
161.1143572722
  0
LINE
  5
279
100
AcDbEntity
  8
KONSTRUKTIONSELEMENTE
100
AcDbLine
 62
7
  6
CONTINUOUS
 10
160.1874305377
 20
167.3251375521
 11
159.9746646056
 21
166.9918054903
  0
LINE
  5
27A
100
AcDbEntity
  8
KONSTRUKTIONSELEMENTE
100
AcDbLine
 62
7
  6
CONTINUOUS
 10
160.6129624019
 20
166.9084715212
 11
160.825728334
 21
167.1584715212
  0
LINE
  5
27B
100
AcDbEntity
  8
KONSTRUKTIONSELEMENTE
100
AcDbLine
 62
7
  6
CONTINUOUS
 10
160.7193453679
 20
160.0751375521
 11
160.2938135037
 21
159.8251375521
  0
LINE
  5
27C
100
AcDbEntity
  8
KONSTRUKTIONSELEMENTE
100
AcDbLine
 62
7
  6
CONTINUOUS
 10
163.9108347962
 20
161.6584715212
 11
163.5916858981
 21
161.4918054903
  0
LINE
  5
27D
100
AcDbEntity
  8
KONSTRUKTIONSELEMENTE
100
AcDbLine
 62
7
  6
CONTINUOUS
 10
163.6980688641
 20
160.9918054903
 11
164.1236008028
 21
161.1584715212
  0
LINE
  5
27E
100
AcDbEntity
  8
KONSTRUKTIONSELEMENTE
100
AcDbLine
 62
7
  6
CONTINUOUS
 10
164.8682816396
 20
160.2418054903
 11
162.4214731226
 21
159.4918054903
  0
LINE
  5
27F
100
AcDbEntity
  8
KONSTRUKTIONSELEMENTE
100
AcDbLine
 62
7
  6
CONTINUOUS
 10
162.6342390547
 20
158.9918054903
 11
164.8682816396
 21
159.6584715212
  0
LINE
  5
280
100
AcDbEntity
  8
KONSTRUKTIONSELEMENTE
100
AcDbLine
 62
7
  6
CONTINUOUS
 10
164.1236008028
 20
167.6584715212
 11
163.6980688641
 21
167.8251375521
  0
LINE
  5
281
100
AcDbEntity
  8
KONSTRUKTIONSELEMENTE
100
AcDbLine
 62
7
  6
CONTINUOUS
 10
163.5916858981
 20
167.3251375521
 11
163.9108347962
 21
167.1584715212
  0
LINE
  5
282
100
AcDbEntity
  8
KONSTRUKTIONSELEMENTE
100
AcDbLine
 62
7
  6
CONTINUOUS
 10
164.5491327042
 20
163.3251375521
 11
164.1236008028
 21
163.6584715212
  0
LINE
  5
283
100
AcDbEntity
  8
KONSTRUKTIONSELEMENTE
100
AcDbLine
 62
7
  6
CONTINUOUS
 10
150.2443855833
 20
173.6808005679
 11
135.517155557
 21
191.2320298607
  0
LINE
  5
284
100
AcDbEntity
  8
KONSTRUKTIONSELEMENTE
100
AcDbLine
 62
7
  6
CONTINUOUS
 10
164.7618986642
 20
151.5751385057
 11
164.4427497382
 21
151.9918045366
  0
LINE
  5
285
100
AcDbEntity
  8
KONSTRUKTIONSELEMENTE
100
AcDbLine
 62
7
  6
CONTINUOUS
 10
162.8470049868
 20
150.0751385057
 11
162.6342390547
 21
150.4084715212
  0
LINE
  5
286
100
AcDbEntity
  8
KONSTRUKTIONSELEMENTE
100
AcDbLine
 62
7
  6
CONTINUOUS
 10
162.3150901566
 20
151.7418045366
 11
162.2087071905
 21
151.9084715212
  0
LINE
  5
287
100
AcDbEntity
  8
KONSTRUKTIONSELEMENTE
100
AcDbLine
 62
7
  6
CONTINUOUS
 10
164.0172178367
 20
151.7418045366
 11
164.2299837688
 21
151.4084715212
  0
LINE
  5
288
100
AcDbEntity
  8
KONSTRUKTIONSELEMENTE
100
AcDbLine
 62
7
  6
CONTINUOUS
 10
160.5065794358
 20
150.4084715212
 11
160.4001964698
 21
150.7418045366
  0
LINE
  5
289
100
AcDbEntity
  8
KONSTRUKTIONSELEMENTE
100
AcDbLine
 62
7
  6
CONTINUOUS
 10
159.8682816396
 20
150.7418045366
 11
159.9746646056
 21
150.3251385057
  0
LINE
  5
28A
100
AcDbEntity
  8
KONSTRUKTIONSELEMENTE
100
AcDbLine
 62
7
  6
CONTINUOUS
 10
159.8682816396
 20
166.5751375521
 11
159.8682816396
 21
164.5751375521
  0
LINE
  5
28B
100
AcDbEntity
  8
KONSTRUKTIONSELEMENTE
100
AcDbLine
 62
7
  6
CONTINUOUS
 10
159.8682816396
 20
163.9084715212
 11
159.8682816396
 21
163.4084715212
  0
LINE
  5
28C
100
AcDbEntity
  8
KONSTRUKTIONSELEMENTE
100
AcDbLine
 62
7
  6
CONTINUOUS
 10
159.8682816396
 20
161.4084715212
 11
159.8682816396
 21
160.9084715212
  0
LINE
  5
28D
100
AcDbEntity
  8
KONSTRUKTIONSELEMENTE
100
AcDbLine
 62
7
  6
CONTINUOUS
 10
159.8682816396
 20
159.0751375521
 11
159.8682816396
 21
157.0751375521
  0
LINE
  5
28E
100
AcDbEntity
  8
KONSTRUKTIONSELEMENTE
100
AcDbLine
 62
7
  6
CONTINUOUS
 10
159.8682816396
 20
151.0751385057
 11
159.8682816396
 21
150.7418045366
  0
LINE
  5
28F
100
AcDbEntity
  8
KONSTRUKTIONSELEMENTE
100
AcDbLine
 62
7
  6
CONTINUOUS
 10
159.8682816396
 20
146.9084715212
 11
159.8682816396
 21
146.4084715212
  0
LINE
  5
290
100
AcDbEntity
  8
KONSTRUKTIONSELEMENTE
100
AcDbLine
 62
7
  6
CONTINUOUS
 10
159.8682816396
 20
144.0751380289
 11
159.8682816396
 21
143.5751380289
  0
LINE
  5
291
100
AcDbEntity
  8
KONSTRUKTIONSELEMENTE
100
AcDbLine
 62
7
  6
CONTINUOUS
 10
159.8682816396
 20
142.9084715212
 11
159.8682816396
 21
142.4084715212
  0
LINE
  5
292
100
AcDbEntity
  8
KONSTRUKTIONSELEMENTE
100
AcDbLine
 62
7
  6
CONTINUOUS
 10
159.8682816396
 20
140.0751381481
 11
159.8682816396
 21
139.5751381481
  0
LINE
  5
293
100
AcDbEntity
  8
KONSTRUKTIONSELEMENTE
100
AcDbLine
 62
7
  6
CONTINUOUS
 10
159.8682816396
 20
138.9084715212
 11
159.8682816396
 21
138.4084715212
  0
LINE
  5
294
100
AcDbEntity
  8
KONSTRUKTIONSELEMENTE
100
AcDbLine
 62
7
  6
CONTINUOUS
 10
159.9746646056
 20
166.9918054903
 11
159.8682816396
 21
166.5751375521
  0
LINE
  5
295
100
AcDbEntity
  8
KONSTRUKTIONSELEMENTE
100
AcDbLine
 62
7
  6
CONTINUOUS
 10
160.5065794358
 20
166.5751375521
 11
160.6129624019
 21
166.9084715212
  0
LINE
  5
296
100
AcDbEntity
  8
KONSTRUKTIONSELEMENTE
100
AcDbLine
 62
7
  6
CONTINUOUS
 10
160.2938135037
 20
159.8251375521
 11
159.9746646056
 21
159.4918054903
  0
LINE
  5
297
100
AcDbEntity
  8
KONSTRUKTIONSELEMENTE
100
AcDbLine
 62
7
  6
CONTINUOUS
 10
160.5065794358
 20
159.4084715212
 11
160.7193453679
 21
159.5751375521
  0
LINE
  5
298
100
AcDbEntity
  8
KONSTRUKTIONSELEMENTE
100
AcDbLine
 62
7
  6
CONTINUOUS
 10
164.1236008028
 20
161.1584715212
 11
164.5491327042
 21
161.4918054903
  0
LINE
  5
299
100
AcDbEntity
  8
KONSTRUKTIONSELEMENTE
100
AcDbLine
 62
7
  6
CONTINUOUS
 10
161.1448775301
 20
152.3251385057
 11
160.6129624019
 21
152.1584715212
  0
LINE
  5
29A
100
AcDbEntity
  8
KONSTRUKTIONSELEMENTE
100
AcDbLine
 62
7
  6
CONTINUOUS
 10
164.5491327042
 20
167.3251375521
 11
164.1236008028
 21
167.6584715212
  0
LINE
  5
29B
100
AcDbEntity
  8
KONSTRUKTIONSELEMENTE
100
AcDbLine
 62
7
  6
CONTINUOUS
 10
163.9108347962
 20
163.1584715212
 11
164.1236008028
 21
162.9084715212
  0
LINE
  5
29C
100
AcDbEntity
  8
KONSTRUKTIONSELEMENTE
100
AcDbLine
 62
7
  6
CONTINUOUS
 10
162.4214731226
 20
159.4918054903
 11
162.2087071905
 21
159.8251375521
  0
LINE
  5
29D
100
AcDbEntity
  8
KONSTRUKTIONSELEMENTE
100
AcDbLine
 62
7
  6
CONTINUOUS
 10
161.8895582924
 20
159.4084715212
 11
161.9959412584
 21
159.1584715212
  0
LINE
  5
29E
100
AcDbEntity
  8
KONSTRUKTIONSELEMENTE
100
AcDbLine
 62
7
  6
CONTINUOUS
 10
161.9959412584
 20
151.4084715212
 11
162.1023242245
 21
151.0751385057
  0
LINE
  5
29F
100
AcDbEntity
  8
KONSTRUKTIONSELEMENTE
100
AcDbLine
 62
7
  6
CONTINUOUS
 10
162.6342390547
 20
150.4084715212
 11
162.5278560886
 21
150.7418045366
  0
LINE
  5
2A0
100
AcDbEntity
  8
KONSTRUKTIONSELEMENTE
100
AcDbLine
 62
7
  6
CONTINUOUS
 10
164.2299837688
 20
151.4084715212
 11
164.3363667349
 21
151.0751385057
  0
LINE
  5
2A1
100
AcDbEntity
  8
KONSTRUKTIONSELEMENTE
100
AcDbLine
 62
7
  6
CONTINUOUS
 10
160.4001964698
 20
150.7418045366
 11
160.4001964698
 21
151.0751385057
  0
LINE
  5
2A2
100
AcDbEntity
  8
KONSTRUKTIONSELEMENTE
100
AcDbLine
 62
7
  6
CONTINUOUS
 10
160.4001964698
 20
157.5751375521
 11
160.4001964698
 21
159.1584715212
  0
LINE
  5
2A3
100
AcDbEntity
  8
KONSTRUKTIONSELEMENTE
100
AcDbLine
 62
7
  6
CONTINUOUS
 10
160.5065794358
 20
165.0751375521
 11
160.5065794358
 21
166.5751375521
  0
LINE
  5
2A4
100
AcDbEntity
  8
RUNDUNGEN
100
AcDbLine
 62
7
  6
CONTINUOUS
 10
161.5682816396
 20
189.8084715212
 11
161.5682816396
 21
212.2084715212
  0
LINE
  5
2A5
100
AcDbEntity
  8
KONSTRUKTIONSELEMENTE
100
AcDbLine
 62
7
  6
CONTINUOUS
 10
161.8895582924
 20
146.4084715212
 11
161.8895582924
 21
144.0751380289
  0
LINE
  5
2A6
100
AcDbEntity
  8
KONSTRUKTIONSELEMENTE
100
AcDbLine
 62
7
  6
CONTINUOUS
 10
161.9959412584
 20
159.1584715212
 11
161.9959412584
 21
157.5751375521
  0
LINE
  5
2A7
100
AcDbEntity
  8
KONSTRUKTIONSELEMENTE
100
AcDbLine
 62
7
  6
CONTINUOUS
 10
162.1023242245
 20
151.0751385057
 11
162.1023242245
 21
150.7418045366
  0
LINE
  5
2A8
100
AcDbEntity
  8
KONSTRUKTIONSELEMENTE
100
AcDbLine
 62
7
  6
CONTINUOUS
 10
162.5278560886
 20
148.7418045366
 11
162.5278560886
 21
147.5751385057
  0
LINE
  5
2A9
100
AcDbEntity
  8
KONSTRUKTIONSELEMENTE
100
AcDbLine
 62
7
  6
CONTINUOUS
 10
162.5278560886
 20
144.0751380289
 11
162.5278560886
 21
146.4084715212
  0
LINE
  5
2AA
100
AcDbEntity
  8
KONSTRUKTIONSELEMENTE
100
AcDbLine
 62
7
  6
CONTINUOUS
 10
162.5278560886
 20
150.7418045366
 11
162.5278560886
 21
151.0751385057
  0
LINE
  5
2AB
100
AcDbEntity
  8
KONSTRUKTIONSELEMENTE
100
AcDbLine
 62
7
  6
CONTINUOUS
 10
162.6342390547
 20
157.5751375521
 11
162.6342390547
 21
158.9918054903
  0
LINE
  5
2AC
100
AcDbEntity
  8
KONSTRUKTIONSELEMENTE
100
AcDbLine
 62
7
  6
CONTINUOUS
 10
163.0597710679
 20
147.5751385057
 11
163.0597710679
 21
148.7418045366
  0
LINE
  5
2AD
100
AcDbEntity
  8
KONSTRUKTIONSELEMENTE
100
AcDbLine
 62
7
  6
CONTINUOUS
 10
164.2299837688
 20
166.5751375521
 11
164.2299837688
 21
165.0751375521
  0
LINE
  5
2AE
100
AcDbEntity
  8
KONSTRUKTIONSELEMENTE
100
AcDbLine
 62
7
  6
CONTINUOUS
 10
164.2299837688
 20
162.5751375521
 11
164.2299837688
 21
162.2418054903
  0
LINE
  5
2AF
100
AcDbEntity
  8
KONSTRUKTIONSELEMENTE
100
AcDbLine
 62
7
  6
CONTINUOUS
 10
159.9746646056
 20
159.4918054903
 11
159.8682816396
 21
159.0751375521
  0
LINE
  5
2B0
100
AcDbEntity
  8
KONSTRUKTIONSELEMENTE
100
AcDbLine
 62
7
  6
CONTINUOUS
 10
159.9746646056
 20
151.4918045366
 11
159.8682816396
 21
151.0751385057
  0
LINE
  5
2B1
100
AcDbEntity
  8
KONSTRUKTIONSELEMENTE
100
AcDbLine
 62
7
  6
CONTINUOUS
 10
160.4001964698
 20
151.0751385057
 11
160.5065794358
 21
151.4084715212
  0
LINE
  5
2B2
100
AcDbEntity
  8
KONSTRUKTIONSELEMENTE
100
AcDbLine
 62
7
  6
CONTINUOUS
 10
164.2299837688
 20
162.2418054903
 11
164.1236008028
 21
161.9084715212
  0
LINE
  5
2B3
100
AcDbEntity
  8
AUSFORMSCHRAEGEN
100
AcDbLine
 62
7
  6
CONTINUOUS
 10
144.2779909739
 20
109.6176720202
 11
146.4789796716
 21
115.6648387676
  0
LINE
  5
2B4
100
AcDbEntity
  8
KONSTRUKTIONSELEMENTE
100
AcDbLine
 62
7
  6
CONTINUOUS
 10
160.4001964698
 20
159.1584715212
 11
160.5065794358
 21
159.4084715212
  0
LINE
  5
2B5
100
AcDbEntity
  8
AUSFORMSCHRAEGEN
100
AcDbLine
 62
7
  6
CONTINUOUS
 10
144.8824186769
 20
130.401561503
 11
144.9299359244
 21
130.4929753928
  0
LINE
  5
2B6
100
AcDbEntity
  8
KONSTRUKTIONSELEMENTE
100
AcDbLine
 62
7
  6
CONTINUOUS
 10
164.5491327042
 20
161.4918054903
 11
164.7618986642
 21
161.8251375521
  0
LINE
  5
2B7
100
AcDbEntity
  8
KONSTRUKTIONSELEMENTE
100
AcDbLine
 62
7
  6
CONTINUOUS
 10
160.2938135037
 20
151.9084715212
 11
159.9746646056
 21
151.4918045366
  0
LINE
  5
2B8
100
AcDbEntity
  8
KONSTRUKTIONSELEMENTE
100
AcDbLine
 62
7
  6
CONTINUOUS
 10
164.1236008028
 20
161.9084715212
 11
163.9108347962
 21
161.6584715212
  0
LINE
  5
2B9
100
AcDbEntity
  8
KONSTRUKTIONSELEMENTE
100
AcDbLine
 62
7
  6
CONTINUOUS
 10
160.6129624019
 20
152.1584715212
 11
160.2938135037
 21
151.9084715212
  0
LINE
  5
2BA
100
AcDbEntity
  8
KONSTRUKTIONSELEMENTE
100
AcDbLine
 62
7
  6
CONTINUOUS
 10
162.8470049868
 20
151.7418045366
 11
163.2725369999
 21
151.9918045366
  0
LINE
  5
2BB
100
AcDbEntity
  8
KONSTRUKTIONSELEMENTE
100
AcDbLine
 62
7
  6
CONTINUOUS
 10
160.825728334
 20
151.7418045366
 11
161.1448775301
 21
151.9084715212
  0
LINE
  5
2BC
100
AcDbEntity
  8
KONSTRUKTIONSELEMENTE
100
AcDbLine
 62
7
  6
CONTINUOUS
 10
161.4640264282
 20
149.4918045366
 11
161.8895582924
 21
149.6584715212
  0
LINE
  5
2BD
100
AcDbEntity
  8
KONSTRUKTIONSELEMENTE
100
AcDbLine
 62
7
  6
CONTINUOUS
 10
163.2725369999
 20
152.4084715212
 11
162.7406220207
 21
152.2418045366
  0
LINE
  5
2BE
100
AcDbEntity
  8
KONSTRUKTIONSELEMENTE
100
AcDbLine
 62
7
  6
CONTINUOUS
 10
163.5916858981
 20
149.4084715212
 11
164.1236008028
 21
149.5751385057
  0
LINE
  5
2BF
100
AcDbEntity
  8
KONSTRUKTIONSELEMENTE
100
AcDbLine
 62
7
  6
CONTINUOUS
 10
163.9108347962
 20
167.1584715212
 11
164.1236008028
 21
166.9084715212
  0
LINE
  5
2C0
100
AcDbEntity
  8
KONSTRUKTIONSELEMENTE
100
AcDbLine
 62
7
  6
CONTINUOUS
 10
164.7618986642
 20
162.9918054903
 11
164.5491327042
 21
163.3251375521
  0
LINE
  5
2C1
100
AcDbEntity
  8
KONSTRUKTIONSELEMENTE
100
AcDbLine
 62
7
  6
CONTINUOUS
 10
164.7618986642
 20
166.9918054903
 11
164.5491327042
 21
167.3251375521
  0
LINE
  5
2C2
100
AcDbEntity
  8
KONSTRUKTIONSELEMENTE
100
AcDbLine
 62
7
  6
CONTINUOUS
 10
164.1236008028
 20
162.9084715212
 11
164.2299837688
 21
162.5751375521
  0
LINE
  5
2C3
100
AcDbEntity
  8
KONSTRUKTIONSELEMENTE
100
AcDbLine
 62
7
  6
CONTINUOUS
 10
164.1236008028
 20
166.9084715212
 11
164.2299837688
 21
166.5751375521
  0
LINE
  5
2C4
100
AcDbEntity
  8
KONSTRUKTIONSELEMENTE
100
AcDbLine
 62
7
  6
CONTINUOUS
 10
164.8682816396
 20
151.1584715212
 11
164.7618986642
 21
151.5751385057
  0
LINE
  5
2C5
100
AcDbEntity
  8
KONSTRUKTIONSELEMENTE
100
AcDbLine
 62
7
  6
CONTINUOUS
 10
164.8682816396
 20
162.5751375521
 11
164.7618986642
 21
162.9918054903
  0
LINE
  5
2C6
100
AcDbEntity
  8
KONSTRUKTIONSELEMENTE
100
AcDbLine
 62
7
  6
CONTINUOUS
 10
164.3363667349
 20
151.0751385057
 11
164.3363667349
 21
150.7418045366
  0
LINE
  5
2C7
100
AcDbEntity
  8
KONSTRUKTIONSELEMENTE
100
AcDbLine
 62
7
  6
CONTINUOUS
 10
164.8682816396
 20
138.4084715212
 11
164.8682816396
 21
138.9084715212
  0
LINE
  5
2C8
100
AcDbEntity
  8
KONSTRUKTIONSELEMENTE
100
AcDbLine
 62
7
  6
CONTINUOUS
 10
164.8682816396
 20
140.9084715212
 11
164.8682816396
 21
141.5751382673
  0
LINE
  5
2C9
100
AcDbEntity
  8
KONSTRUKTIONSELEMENTE
100
AcDbLine
 62
7
  6
CONTINUOUS
 10
164.8682816396
 20
143.5751380289
 11
164.8682816396
 21
144.0751380289
  0
LINE
  5
2CA
100
AcDbEntity
  8
KONSTRUKTIONSELEMENTE
100
AcDbLine
 62
7
  6
CONTINUOUS
 10
164.8682816396
 20
146.4084715212
 11
164.8682816396
 21
146.9084715212
  0
LINE
  5
2CB
100
AcDbEntity
  8
KONSTRUKTIONSELEMENTE
100
AcDbLine
 62
7
  6
CONTINUOUS
 10
164.8682816396
 20
150.6584715212
 11
164.8682816396
 21
151.1584715212
  0
LINE
  5
2CC
100
AcDbEntity
  8
KONSTRUKTIONSELEMENTE
100
AcDbLine
 62
7
  6
CONTINUOUS
 10
164.8682816396
 20
157.0751375521
 11
164.8682816396
 21
157.5751375521
  0
LINE
  5
2CD
100
AcDbEntity
  8
KONSTRUKTIONSELEMENTE
100
AcDbLine
 62
7
  6
CONTINUOUS
 10
164.8682816396
 20
159.6584715212
 11
164.8682816396
 21
160.2418054903
  0
LINE
  5
2CE
100
AcDbEntity
  8
KONSTRUKTIONSELEMENTE
100
AcDbLine
 62
7
  6
CONTINUOUS
 10
164.8682816396
 20
162.2418054903
 11
164.8682816396
 21
162.5751375521
  0
LINE
  5
2CF
100
AcDbEntity
  8
KONSTRUKTIONSELEMENTE
100
AcDbLine
 62
7
  6
CONTINUOUS
 10
164.8682816396
 20
164.5751375521
 11
164.8682816396
 21
166.5751375521
  0
LINE
  5
2D0
100
AcDbEntity
  8
KONSTRUKTIONSELEMENTE
100
AcDbLine
 62
7
  6
CONTINUOUS
 10
164.7618986642
 20
161.8251375521
 11
164.8682816396
 21
162.2418054903
  0
LINE
  5
2D1
100
AcDbEntity
  8
KONSTRUKTIONSELEMENTE
100
AcDbLine
 62
7
  6
CONTINUOUS
 10
164.7618986642
 20
150.2418045366
 11
164.8682816396
 21
150.6584715212
  0
LINE
  5
2D2
100
AcDbEntity
  8
KONSTRUKTIONSELEMENTE
100
AcDbLine
 62
7
  6
CONTINUOUS
 10
162.1023242245
 20
150.7418045366
 11
161.9959412584
 21
150.4084715212
  0
LINE
  5
2D3
100
AcDbEntity
  8
KONSTRUKTIONSELEMENTE
100
AcDbLine
 62
7
  6
CONTINUOUS
 10
162.5278560886
 20
151.0751385057
 11
162.6342390547
 21
151.4084715212
  0
LINE
  5
2D4
100
AcDbEntity
  8
KONSTRUKTIONSELEMENTE
100
AcDbLine
 62
7
  6
CONTINUOUS
 10
164.3363667349
 20
150.7418045366
 11
164.2299837688
 21
150.4084715212
  0
LINE
  5
2D5
100
AcDbEntity
  8
KONSTRUKTIONSELEMENTE
100
AcDbLine
 62
7
  6
CONTINUOUS
 10
162.4214731226
 20
151.9084715212
 11
162.3150901566
 21
151.7418045366
  0
LINE
  5
2D6
100
AcDbEntity
  8
KONSTRUKTIONSELEMENTE
100
AcDbLine
 62
7
  6
CONTINUOUS
 10
162.6342390547
 20
151.4084715212
 11
162.8470049868
 21
151.7418045366
  0
LINE
  5
2D7
100
AcDbEntity
  8
KONSTRUKTIONSELEMENTE
100
AcDbLine
 62
7
  6
CONTINUOUS
 10
162.2087071905
 20
149.9084715212
 11
162.3150901566
 21
150.0751385057
  0
LINE
  5
2D8
100
AcDbEntity
  8
KONSTRUKTIONSELEMENTE
100
AcDbLine
 62
7
  6
CONTINUOUS
 10
164.2299837688
 20
150.4084715212
 11
164.0172178367
 21
150.0751385057
  0
LINE
  5
2D9
100
AcDbEntity
  8
KONSTRUKTIONSELEMENTE
100
AcDbLine
 62
7
  6
CONTINUOUS
 10
160.5065794358
 20
151.4084715212
 11
160.825728334
 21
151.7418045366
  0
LINE
  5
2DA
100
AcDbEntity
  8
KONSTRUKTIONSELEMENTE
100
AcDbLine
 62
7
  6
CONTINUOUS
 10
162.7406220207
 20
152.2418045366
 11
162.4214731226
 21
151.9084715212
  0
LINE
  5
2DB
100
AcDbEntity
  8
KONSTRUKTIONSELEMENTE
100
AcDbLine
 62
7
  6
CONTINUOUS
 10
161.9959412584
 20
150.4084715212
 11
161.6767923603
 21
150.0751385057
  0
LINE
  5
2DC
100
AcDbEntity
  8
KONSTRUKTIONSELEMENTE
100
AcDbLine
 62
7
  6
CONTINUOUS
 10
161.8895582924
 20
149.6584715212
 11
162.2087071905
 21
149.9084715212
  0
LINE
  5
2DD
100
AcDbEntity
  8
KONSTRUKTIONSELEMENTE
100
AcDbLine
 62
7
  6
CONTINUOUS
 10
164.1236008028
 20
149.5751385057
 11
164.4427497382
 21
149.8251385057
  0
LINE
  5
2DE
100
AcDbEntity
  8
KONSTRUKTIONSELEMENTE
100
AcDbLine
 62
7
  6
CONTINUOUS
 10
164.0172178367
 20
150.0751385057
 11
163.5916858981
 21
149.8251385057
  0
LINE
  5
2DF
100
AcDbEntity
  8
KONSTRUKTIONSELEMENTE
100
AcDbLine
 62
7
  6
CONTINUOUS
 10
161.6767923603
 20
150.0751385057
 11
161.3576434622
 21
149.9084715212
  0
LINE
  5
2E0
100
AcDbEntity
  8
KONSTRUKTIONSELEMENTE
100
AcDbLine
 62
7
  6
CONTINUOUS
 10
164.8682816396
 20
166.5751375521
 11
164.7618986642
 21
166.9918054903
  0
LINE
  5
2E1
100
AcDbEntity
  8
KONSTRUKTIONSELEMENTE
100
AcDbLine
 62
7
  6
CONTINUOUS
 10
170.8682816396
 20
135.5084715212
 11
170.8682816396
 21
165.354637466
  0
LINE
  5
2E2
100
AcDbEntity
  8
KONSTRUKTIONSELEMENTE
100
AcDbLine
 62
7
  6
CONTINUOUS
 10
164.4427497382
 20
149.8251385057
 11
164.7618986642
 21
150.2418045366
  0
LINE
  5
2E3
100
AcDbEntity
  8
KONSTRUKTIONSELEMENTE
100
AcDbLine
 62
7
  6
CONTINUOUS
 10
120.234633836
 20
198.3583867752
 11
118.8822110232
 21
198.3583867752
  0
LINE
  5
2E4
100
AcDbEntity
  8
KONSTRUKTIONSELEMENTE
100
AcDbLine
 62
7
  6
CONTINUOUS
 10
135.3182816396
 20
202.7584715212
 11
144.8182816396
 21
202.7584715212
  0
LINE
  5
2E5
100
AcDbEntity
  8
TEIL_STARTBEZUEGE
100
AcDbLine
 62
2
  6
CENTER
 10
118.3626730428
 20
208.4084715212
 11
160.6366382991
 21
208.4084715212
  0
LINE
  5
2E6
100
AcDbEntity
  8
0
100
AcDbLine
 62
7
  6
CONTINUOUS
 10
156.198044
 20
218.6084715212
 11
161.5682816396
 21
212.2084715212
  0
LINE
  5
2E7
100
AcDbEntity
  8
KONSTRUKTIONSELEMENTE
100
AcDbLine
 62
7
  6
CONTINUOUS
 10
144.8182816396
 20
214.0584715212
 11
135.3182816396
 21
214.0584715212
  0
LINE
  5
2E8
100
AcDbEntity
  8
0
100
AcDbLine
 62
7
  6
CONTINUOUS
 10
123.9385192791
 20
218.6084715212
 11
129.1388455096
 21
218.6084715212
  0
LINE
  5
2E9
100
AcDbEntity
  8
0
100
AcDbLine
 62
7
  6
CONTINUOUS
 10
150.9977177696
 20
218.6084715212
 11
156.198044
 21
218.6084715212
  0
LINE
  5
2EA
100
AcDbEntity
  8
KONSTRUKTIONSELEMENTE
100
AcDbLine
 62
7
  6
CONTINUOUS
 10
240.4079842026
 20
109.6084715212
 11
225.2302043546
 21
109.6084715212
  0
LINE
  5
2EB
100
AcDbEntity
  8
0
100
AcDbLine
 62
7
  6
CONTINUOUS
 10
219.1977739351
 20
115.6648387676
 11
225.2543767692
 21
109.6082359334
  0
LINE
  5
2EC
100
AcDbEntity
  8
0
100
AcDbLine
 62
7
  6
CONTINUOUS
 10
216.7541175462
 20
135.1840991939
 11
223.4537366522
 21
130.4929753928
  0
LINE
  5
2ED
100
AcDbEntity
  8
KONSTRUKTIONSELEMENTE
100
AcDbLine
 62
8
  6
HIDDEN
 10
225.8373733392
 20
136.1084715212
 11
239.800815218
 21
136.1084715212
  0
LINE
  5
2EE
100
AcDbEntity
  8
DEFAULT_2
100
AcDbLine
 62
8
  6
HIDDEN
 10
225.8373733392
 20
136.1084715212
 11
239.800815218
 21
136.1084715212
  0
LINE
  5
2EF
100
AcDbEntity
  8
0
100
AcDbLine
 62
7
  6
CONTINUOUS
 10
225.8373733392
 20
136.1084715212
 11
218.4733345116
 21
139.2343205491
  0
LINE
  5
2F0
100
AcDbEntity
  8
KONSTRUKTIONSELEMENTE
100
AcDbLine
 62
7
  6
CONTINUOUS
 10
244.6190942786
 20
138.4084715212
 11
245.0190942786
 21
138.4084715212
  0
LINE
  5
2F1
100
AcDbEntity
  8
KONSTRUKTIONSELEMENTE
100
AcDbLine
 62
7
  6
CONTINUOUS
 10
244.6190942786
 20
138.9084715212
 11
245.0190942786
 21
138.9084715212
  0
LINE
  5
2F2
100
AcDbEntity
  8
KONSTRUKTIONSELEMENTE
100
AcDbLine
 62
7
  6
CONTINUOUS
 10
244.6190942786
 20
139.5751381481
 11
245.0190942786
 21
139.5751381481
  0
LINE
  5
2F3
100
AcDbEntity
  8
KONSTRUKTIONSELEMENTE
100
AcDbLine
 62
7
  6
CONTINUOUS
 10
244.6190942786
 20
140.0751381481
 11
245.0190942786
 21
140.0751381481
  0
LINE
  5
2F4
100
AcDbEntity
  8
KONSTRUKTIONSELEMENTE
100
AcDbLine
 62
7
  6
CONTINUOUS
 10
244.6190942786
 20
141.241804775
 11
245.0190942786
 21
141.241804775
  0
LINE
  5
2F5
100
AcDbEntity
  8
KONSTRUKTIONSELEMENTE
100
AcDbLine
 62
7
  6
CONTINUOUS
 10
244.6190942786
 20
142.4084715212
 11
245.0190942786
 21
142.4084715212
  0
LINE
  5
2F6
100
AcDbEntity
  8
KONSTRUKTIONSELEMENTE
100
AcDbLine
 62
7
  6
CONTINUOUS
 10
244.6190942786
 20
142.9084715212
 11
245.0190942786
 21
142.9084715212
  0
LINE
  5
2F7
100
AcDbEntity
  8
KONSTRUKTIONSELEMENTE
100
AcDbLine
 62
7
  6
CONTINUOUS
 10
244.6190942786
 20
143.5751380289
 11
245.0190942786
 21
143.5751380289
  0
LINE
  5
2F8
100
AcDbEntity
  8
KONSTRUKTIONSELEMENTE
100
AcDbLine
 62
7
  6
CONTINUOUS
 10
244.6190942786
 20
144.0751380289
 11
245.0190942786
 21
144.0751380289
  0
LINE
  5
2F9
100
AcDbEntity
  8
KONSTRUKTIONSELEMENTE
100
AcDbLine
 62
7
  6
CONTINUOUS
 10
244.6190942786
 20
146.4084715212
 11
245.0190942786
 21
146.4084715212
  0
LINE
  5
2FA
100
AcDbEntity
  8
KONSTRUKTIONSELEMENTE
100
AcDbLine
 62
7
  6
CONTINUOUS
 10
244.6190942786
 20
146.9084715212
 11
245.0190942786
 21
146.9084715212
  0
LINE
  5
2FB
100
AcDbEntity
  8
KONSTRUKTIONSELEMENTE
100
AcDbLine
 62
7
  6
CONTINUOUS
 10
244.6190942786
 20
147.5751385057
 11
245.0190942786
 21
147.5751385057
  0
LINE
  5
2FC
100
AcDbEntity
  8
KONSTRUKTIONSELEMENTE
100
AcDbLine
 62
7
  6
CONTINUOUS
 10
244.6190942786
 20
148.7418045366
 11
245.0190942786
 21
148.7418045366
  0
LINE
  5
2FD
100
AcDbEntity
  8
KONSTRUKTIONSELEMENTE
100
AcDbLine
 62
7
  6
CONTINUOUS
 10
244.6190942786
 20
149.4084715212
 11
245.0190942786
 21
149.4084715212
  0
LINE
  5
2FE
100
AcDbEntity
  8
0
100
AcDbLine
 62
7
  6
CONTINUOUS
 10
221.0190942786
 20
124.7573173971
 11
221.0190942786
 21
132.1977303356
  0
LINE
  5
2FF
100
AcDbEntity
  8
0
100
AcDbLine
 62
7
  6
CONTINUOUS
 10
221.0190942786
 20
138.1537096399
 11
221.0190942786
 21
206.6101383036
  0
LINE
  5
300
100
AcDbEntity
  8
KONSTRUKTIONSELEMENTE
100
AcDbLine
 62
7
  6
CONTINUOUS
 10
244.6190942786
 20
149.4918045366
 11
245.0190942786
 21
149.4918045366
  0
LINE
  5
301
100
AcDbEntity
  8
KONSTRUKTIONSELEMENTE
100
AcDbLine
 62
7
  6
CONTINUOUS
 10
244.6190942786
 20
149.6584715212
 11
245.0190942786
 21
149.6584715212
  0
LINE
  5
302
100
AcDbEntity
  8
KONSTRUKTIONSELEMENTE
100
AcDbLine
 62
7
  6
CONTINUOUS
 10
244.6190942786
 20
149.9084715212
 11
245.0190942786
 21
149.9084715212
  0
LINE
  5
303
100
AcDbEntity
  8
KONSTRUKTIONSELEMENTE
100
AcDbLine
 62
7
  6
CONTINUOUS
 10
244.6190942786
 20
150.3251385057
 11
245.0190942786
 21
150.3251385057
  0
LINE
  5
304
100
AcDbEntity
  8
KONSTRUKTIONSELEMENTE
100
AcDbLine
 62
7
  6
CONTINUOUS
 10
244.6190942786
 20
150.7418045366
 11
245.0190942786
 21
150.7418045366
  0
LINE
  5
305
100
AcDbEntity
  8
KONSTRUKTIONSELEMENTE
100
AcDbLine
 62
7
  6
CONTINUOUS
 10
244.6190942786
 20
151.0751385057
 11
245.0190942786
 21
151.0751385057
  0
LINE
  5
306
100
AcDbEntity
  8
KONSTRUKTIONSELEMENTE
100
AcDbLine
 62
7
  6
CONTINUOUS
 10
244.6190942786
 20
151.4918045366
 11
245.0190942786
 21
151.4918045366
  0
LINE
  5
307
100
AcDbEntity
  8
KONSTRUKTIONSELEMENTE
100
AcDbLine
 62
7
  6
CONTINUOUS
 10
244.6190942786
 20
151.9084715212
 11
245.0190942786
 21
151.9084715212
  0
LINE
  5
308
100
AcDbEntity
  8
KONSTRUKTIONSELEMENTE
100
AcDbLine
 62
7
  6
CONTINUOUS
 10
244.6190942786
 20
152.1584715212
 11
245.0190942786
 21
152.1584715212
  0
LINE
  5
309
100
AcDbEntity
  8
KONSTRUKTIONSELEMENTE
100
AcDbLine
 62
7
  6
CONTINUOUS
 10
244.6190942786
 20
152.3251385057
 11
245.0190942786
 21
152.3251385057
  0
LINE
  5
30A
100
AcDbEntity
  8
KONSTRUKTIONSELEMENTE
100
AcDbLine
 62
7
  6
CONTINUOUS
 10
244.6190942786
 20
152.4084715212
 11
245.0190942786
 21
152.4084715212
  0
LINE
  5
30B
100
AcDbEntity
  8
0
100
AcDbLine
 62
7
  6
CONTINUOUS
 10
226.7783458983
 20
155.2322478798
 11
223.7192117306
 21
168.4828137231
  0
LINE
  5
30C
100
AcDbEntity
  8
0
100
AcDbLine
 62
7
  6
CONTINUOUS
 10
227.4190942786
 20
139.8347725384
 11
227.4190942786
 21
149.6084715212
  0
LINE
  5
30D
100
AcDbEntity
  8
0
100
AcDbLine
 62
7
  6
CONTINUOUS
 10
218.4733345116
 20
139.2343205491
 11
216.7541175462
 21
135.1840991939
  0
LINE
  5
30E
100
AcDbEntity
  8
KONSTRUKTIONSELEMENTE
100
AcDbLine
 62
7
  6
CONTINUOUS
 10
244.6190942786
 20
157.0751375521
 11
245.0190942786
 21
157.0751375521
  0
LINE
  5
30F
100
AcDbEntity
  8
KONSTRUKTIONSELEMENTE
100
AcDbLine
 62
7
  6
CONTINUOUS
 10
244.6190942786
 20
159.0751375521
 11
245.0190942786
 21
159.0751375521
  0
LINE
  5
310
100
AcDbEntity
  8
KONSTRUKTIONSELEMENTE
100
AcDbLine
 62
7
  6
CONTINUOUS
 10
244.6190942786
 20
159.4918054903
 11
245.0190942786
 21
159.4918054903
  0
LINE
  5
311
100
AcDbEntity
  8
KONSTRUKTIONSELEMENTE
100
AcDbLine
 62
7
  6
CONTINUOUS
 10
244.6190942786
 20
159.8251375521
 11
245.0190942786
 21
159.8251375521
  0
LINE
  5
312
100
AcDbEntity
  8
KONSTRUKTIONSELEMENTE
100
AcDbLine
 62
7
  6
CONTINUOUS
 10
244.6190942786
 20
160.0751375521
 11
245.0190942786
 21
160.0751375521
  0
LINE
  5
313
100
AcDbEntity
  8
KONSTRUKTIONSELEMENTE
100
AcDbLine
 62
7
  6
CONTINUOUS
 10
244.6190942786
 20
160.1584715212
 11
245.0190942786
 21
160.1584715212
  0
LINE
  5
314
100
AcDbEntity
  8
KONSTRUKTIONSELEMENTE
100
AcDbLine
 62
7
  6
CONTINUOUS
 10
244.6190942786
 20
160.2418054903
 11
245.0190942786
 21
160.2418054903
  0
LINE
  5
315
100
AcDbEntity
  8
KONSTRUKTIONSELEMENTE
100
AcDbLine
 62
7
  6
CONTINUOUS
 10
247.080608839
 20
118.9583524966
 11
238.2190942786
 21
139.8347725384
  0
LINE
  5
316
100
AcDbEntity
  8
0
100
AcDbLine
 62
7
  6
CONTINUOUS
 10
230.0821215013
 20
172.6084715212
 11
230.0821215013
 21
184.836347618
  0
LINE
  5
317
100
AcDbEntity
  8
TEIL_STARTBEZUEGE
100
AcDbLine
 62
2
  6
CENTER
 10
232.8190942786
 20
208.4084715212
 11
232.8190942786
 21
110.153915462
  0
LINE
  5
318
100
AcDbEntity
  8
TEIL_STARTBEZUEGE
100
AcDbLine
 62
2
  6
CENTER
 10
232.8190942786
 20
208.4084715212
 11
232.8190942786
 21
221.4228941206
  0
LINE
  5
319
100
AcDbEntity
  8
KONSTRUKTIONSELEMENTE
100
AcDbLine
 62
7
  6
CONTINUOUS
 10
244.6190942786
 20
160.9084715212
 11
245.0190942786
 21
160.9084715212
  0
LINE
  5
31A
100
AcDbEntity
  8
KONSTRUKTIONSELEMENTE
100
AcDbLine
 62
7
  6
CONTINUOUS
 10
244.6190942786
 20
161.4084715212
 11
245.0190942786
 21
161.4084715212
  0
LINE
  5
31B
100
AcDbEntity
  8
KONSTRUKTIONSELEMENTE
100
AcDbLine
 62
7
  6
CONTINUOUS
 10
244.6190942786
 20
161.4918054903
 11
245.0190942786
 21
161.4918054903
  0
LINE
  5
31C
100
AcDbEntity
  8
KONSTRUKTIONSELEMENTE
100
AcDbLine
 62
7
  6
CONTINUOUS
 10
244.6190942786
 20
161.6584715212
 11
245.0190942786
 21
161.6584715212
  0
LINE
  5
31D
100
AcDbEntity
  8
KONSTRUKTIONSELEMENTE
100
AcDbLine
 62
7
  6
CONTINUOUS
 10
244.6190942786
 20
161.9084715212
 11
245.0190942786
 21
161.9084715212
  0
LINE
  5
31E
100
AcDbEntity
  8
KONSTRUKTIONSELEMENTE
100
AcDbLine
 62
7
  6
CONTINUOUS
 10
244.6190942786
 20
162.2418054903
 11
245.0190942786
 21
162.2418054903
  0
LINE
  5
31F
100
AcDbEntity
  8
KONSTRUKTIONSELEMENTE
100
AcDbLine
 62
7
  6
CONTINUOUS
 10
244.6190942786
 20
162.5751375521
 11
245.0190942786
 21
162.5751375521
  0
LINE
  5
320
100
AcDbEntity
  8
KONSTRUKTIONSELEMENTE
100
AcDbLine
 62
7
  6
CONTINUOUS
 10
244.6190942786
 20
162.9084715212
 11
245.0190942786
 21
162.9084715212
  0
LINE
  5
321
100
AcDbEntity
  8
KONSTRUKTIONSELEMENTE
100
AcDbLine
 62
7
  6
CONTINUOUS
 10
244.6190942786
 20
163.1584715212
 11
245.0190942786
 21
163.1584715212
  0
LINE
  5
322
100
AcDbEntity
  8
KONSTRUKTIONSELEMENTE
100
AcDbLine
 62
7
  6
CONTINUOUS
 10
244.6190942786
 20
163.3251375521
 11
245.0190942786
 21
163.3251375521
  0
LINE
  5
323
100
AcDbEntity
  8
KONSTRUKTIONSELEMENTE
100
AcDbLine
 62
7
  6
CONTINUOUS
 10
244.6190942786
 20
163.4084715212
 11
245.0190942786
 21
163.4084715212
  0
LINE
  5
324
100
AcDbEntity
  8
KONSTRUKTIONSELEMENTE
100
AcDbLine
 62
7
  6
CONTINUOUS
 10
244.6190942786
 20
163.9084715212
 11
245.0190942786
 21
163.9084715212
  0
LINE
  5
325
100
AcDbEntity
  8
KONSTRUKTIONSELEMENTE
100
AcDbLine
 62
7
  6
CONTINUOUS
 10
244.6190942786
 20
164.5751375521
 11
245.0190942786
 21
164.5751375521
  0
LINE
  5
326
100
AcDbEntity
  8
KONSTRUKTIONSELEMENTE
100
AcDbLine
 62
7
  6
CONTINUOUS
 10
235.556067056
 20
172.6084715212
 11
235.556067056
 21
184.836347618
  0
LINE
  5
327
100
AcDbEntity
  8
KONSTRUKTIONSELEMENTE
100
AcDbLine
 62
7
  6
CONTINUOUS
 10
244.6190942786
 20
166.5751375521
 11
245.0190942786
 21
166.5751375521
  0
LINE
  5
328
100
AcDbEntity
  8
KONSTRUKTIONSELEMENTE
100
AcDbLine
 62
7
  6
CONTINUOUS
 10
244.6190942786
 20
166.9918054903
 11
245.0190942786
 21
166.9918054903
  0
LINE
  5
329
100
AcDbEntity
  8
KONSTRUKTIONSELEMENTE
100
AcDbLine
 62
7
  6
CONTINUOUS
 10
244.6190942786
 20
167.3251375521
 11
245.0190942786
 21
167.3251375521
  0
LINE
  5
32A
100
AcDbEntity
  8
KONSTRUKTIONSELEMENTE
100
AcDbLine
 62
7
  6
CONTINUOUS
 10
244.6190942786
 20
167.6584715212
 11
245.0190942786
 21
167.6584715212
  0
LINE
  5
32B
100
AcDbEntity
  8
KONSTRUKTIONSELEMENTE
100
AcDbLine
 62
7
  6
CONTINUOUS
 10
244.6190942786
 20
167.8251375521
 11
245.0190942786
 21
167.8251375521
  0
LINE
  5
32C
100
AcDbEntity
  8
KONSTRUKTIONSELEMENTE
100
AcDbLine
 62
7
  6
CONTINUOUS
 10
244.6190942786
 20
167.9084715212
 11
245.0190942786
 21
167.9084715212
  0
LINE
  5
32D
100
AcDbEntity
  8
KONSTRUKTIONSELEMENTE
100
AcDbLine
 62
7
  6
CONTINUOUS
 10
247.1648540457
 20
139.2343205491
 11
248.884071011
 21
135.1840991939
  0
LINE
  5
32E
100
AcDbEntity
  8
KONSTRUKTIONSELEMENTE
100
AcDbLine
 62
7
  6
CONTINUOUS
 10
238.2190942786
 20
139.8347725384
 11
238.2190942786
 21
149.6084715212
  0
LINE
  5
32F
100
AcDbEntity
  8
KONSTRUKTIONSELEMENTE
100
AcDbLine
 62
7
  6
CONTINUOUS
 10
238.859842659
 20
155.2322478798
 11
241.9189768266
 21
168.4828137231
  0
LINE
  5
330
100
AcDbEntity
  8
0
100
AcDbLine
 62
7
  6
CONTINUOUS
 10
218.5575797183
 20
118.9583524966
 11
227.4190942786
 21
139.8347725384
  0
LINE
  5
331
100
AcDbEntity
  8
RUNDUNGEN
100
AcDbLine
 62
7
  6
CONTINUOUS
 10
244.6190942786
 20
206.6101383036
 11
244.6190942786
 21
201.4111445204
  0
LINE
  5
332
100
AcDbEntity
  8
KONSTRUKTIONSELEMENTE
100
AcDbLine
 62
7
  6
CONTINUOUS
 10
244.6190942786
 20
124.7573173971
 11
244.6190942786
 21
132.1977303356
  0
LINE
  5
333
100
AcDbEntity
  8
KONSTRUKTIONSELEMENTE
100
AcDbLine
 62
7
  6
CONTINUOUS
 10
244.6190942786
 20
138.1537096399
 11
244.6190942786
 21
201.4111445204
  0
LINE
  5
334
100
AcDbEntity
  8
KONSTRUKTIONSELEMENTE
100
AcDbLine
 62
7
  6
CONTINUOUS
 10
229.5561620821
 20
172.6084715212
 11
236.0820264752
 21
172.6084715212
  0
LINE
  5
335
100
AcDbEntity
  8
KONSTRUKTIONSELEMENTE
100
AcDbLine
 62
7
  6
CONTINUOUS
 10
245.0190942786
 20
167.9084715212
 11
245.0190942786
 21
164.5751375521
  0
LINE
  5
336
100
AcDbEntity
  8
KONSTRUKTIONSELEMENTE
100
AcDbLine
 62
7
  6
CONTINUOUS
 10
245.0190942786
 20
163.9084715212
 11
245.0190942786
 21
160.9084715212
  0
LINE
  5
337
100
AcDbEntity
  8
KONSTRUKTIONSELEMENTE
100
AcDbLine
 62
7
  6
CONTINUOUS
 10
245.0190942786
 20
160.2418054903
 11
245.0190942786
 21
157.0751375521
  0
LINE
  5
338
100
AcDbEntity
  8
KONSTRUKTIONSELEMENTE
100
AcDbLine
 62
7
  6
CONTINUOUS
 10
245.0190942786
 20
152.4084715212
 11
245.0190942786
 21
149.4084715212
  0
LINE
  5
339
100
AcDbEntity
  8
KONSTRUKTIONSELEMENTE
100
AcDbLine
 62
7
  6
CONTINUOUS
 10
245.0190942786
 20
148.7418045366
 11
245.0190942786
 21
147.5751385057
  0
LINE
  5
33A
100
AcDbEntity
  8
KONSTRUKTIONSELEMENTE
100
AcDbLine
 62
7
  6
CONTINUOUS
 10
245.0190942786
 20
146.9084715212
 11
245.0190942786
 21
143.5751380289
  0
LINE
  5
33B
100
AcDbEntity
  8
KONSTRUKTIONSELEMENTE
100
AcDbLine
 62
7
  6
CONTINUOUS
 10
245.0190942786
 20
142.9084715212
 11
245.0190942786
 21
139.5751381481
  0
LINE
  5
33C
100
AcDbEntity
  8
KONSTRUKTIONSELEMENTE
100
AcDbLine
 62
7
  6
CONTINUOUS
 10
245.0190942786
 20
138.9084715212
 11
245.0190942786
 21
138.4084715212
  0
LINE
  5
33D
100
AcDbEntity
  8
KONSTRUKTIONSELEMENTE
100
AcDbLine
 62
7
  6
CONTINUOUS
 10
239.800815218
 20
136.1084715212
 11
247.1648540457
 21
139.2343205491
  0
LINE
  5
33E
100
AcDbEntity
  8
AUSFORMSCHRAEGEN
100
AcDbLine
 62
7
  6
CONTINUOUS
 10
248.884071011
 20
135.1840991939
 11
242.1844519051
 21
130.4929753928
  0
LINE
  5
33F
100
AcDbEntity
  8
AUSFORMSCHRAEGEN
100
AcDbLine
 62
7
  6
CONTINUOUS
 10
240.383811788
 20
109.6082359334
 11
246.4404146222
 21
115.6648387676
  0
LINE
  5
340
100
AcDbEntity
  8
TEIL_STARTBEZUEGE
100
AcDbLine
 62
2
  6
CENTER
 10
232.8190942786
 20
208.4084715212
 11
220.8554693713
 21
208.4084715212
  0
LINE
  5
341
100
AcDbEntity
  8
TEIL_STARTBEZUEGE
100
AcDbLine
 62
2
  6
CENTER
 10
232.8190942786
 20
208.4084715212
 11
244.9098093127
 21
208.4084715212
  0
LINE
  5
342
100
AcDbEntity
  8
KONSTRUKTIONSELEMENTE
100
AcDbLine
 62
7
  6
CONTINUOUS
 10
243.2331729096
 20
212.2084715212
 11
237.0003022381
 21
212.2084715212
  0
LINE
  5
343
100
AcDbEntity
  8
KONSTRUKTIONSELEMENTE
100
AcDbLine
 62
7
  6
CONTINUOUS
 10
228.6378863192
 20
212.2084715212
 11
222.4050156476
 21
212.2084715212
  0
ARC
  5
344
100
AcDbEntity
  8
0
100
AcDbCircle
 62
7
  6
CONTINUOUS
 10
140.0682816396
 20
245.2540607599
 40
28.8
100
AcDbArc
 50
247.6976374184
 51
260.5067996754
  0
ARC
  5
345
100
AcDbEntity
  8
0
100
AcDbCircle
 62
7
  6
CONTINUOUS
 10
140.0682816396
 20
245.2540607599
 40
28.8
100
AcDbArc
 50
279.4932003246
 51
292.3023625816
  0
ARC
  5
346
100
AcDbEntity
  8
KONSTRUKTIONSELEMENTE
100
AcDbCircle
 62
7
  6
CONTINUOUS
 10
144.9682816396
 20
135.5084715212
 40
25.9
100
AcDbArc
 50
303.2292492701
 51
360.0
  0
ARC
  5
347
100
AcDbEntity
  8
KONSTRUKTIONSELEMENTE
100
AcDbCircle
 62
7
  6
CONTINUOUS
 10
144.9682816396
 20
135.5084715212
 40
25.9
100
AcDbArc
 50
180.0
 51
230.0106069465
  0
ARC
  5
348
100
AcDbEntity
  8
AUSFORMSCHRAEGEN
100
AcDbCircle
 62
7
  6
CONTINUOUS
 10
144.9682816396
 20
135.5084715212
 40
25.9
100
AcDbArc
 50
230.0106069465
 51
303.2292492701
  0
ARC
  5
349
100
AcDbEntity
  8
KONSTRUKTIONSELEMENTE
100
AcDbCircle
 62
7
  6
CONTINUOUS
 10
120.234633836
 20
178.4084715212
 40
19.949915254
100
AcDbArc
 50
40.0
 51
90.0
  0
ARC
  5
34A
100
AcDbEntity
  8
KONSTRUKTIONSELEMENTE
100
AcDbCircle
 62
7
  6
CONTINUOUS
 10
135.2682816396
 20
161.1143572722
 40
19.549915254
100
AcDbArc
 50
0.0
 51
40.0
  0
ARC
  5
34B
100
AcDbEntity
  8
KONSTRUKTIONSELEMENTE
100
AcDbCircle
 62
7
  6
CONTINUOUS
 10
179.9682816396
 20
189.8084715212
 40
18.4
100
AcDbArc
 50
180.0
 51
221.6444658327
  0
ARC
  5
34C
100
AcDbEntity
  8
KONSTRUKTIONSELEMENTE
100
AcDbCircle
 62
7
  6
CONTINUOUS
 10
152.4682816396
 20
165.354637466
 40
18.4
100
AcDbArc
 50
0.0
 51
41.6444658327
  0
ARC
  5
34D
100
AcDbEntity
  8
KONSTRUKTIONSELEMENTE
100
AcDbCircle
 62
7
  6
CONTINUOUS
 10
133.5682816396
 20
201.4111445204
 40
15.0
100
AcDbArc
 50
180.0
 51
220.0
  0
ARC
  5
34E
100
AcDbEntity
  8
KONSTRUKTIONSELEMENTE
100
AcDbCircle
 62
7
  6
CONTINUOUS
 10
125.8682816396
 20
162.9026638805
 40
10.0
100
AcDbArc
 50
130.0
 51
212.8598802309
  0
ARC
  5
34F
100
AcDbEntity
  8
KONSTRUKTIONSELEMENTE
100
AcDbCircle
 62
7
  6
CONTINUOUS
 10
109.0682816396
 20
152.0509359075
 40
10.0
100
AcDbArc
 50
0.0
 51
32.8598805269
  0
ARC
  5
350
100
AcDbEntity
  8
KONSTRUKTIONSELEMENTE
100
AcDbCircle
 62
7
  6
CONTINUOUS
 10
135.2682816396
 20
161.1143572722
 40
9.6
100
AcDbArc
 50
0.0
 51
40.0
  0
ARC
  5
351
100
AcDbEntity
  8
KONSTRUKTIONSELEMENTE
100
AcDbCircle
 62
7
  6
CONTINUOUS
 10
127.7682816396
 20
157.8786947642
 40
7.5
100
AcDbArc
 50
0.0
 51
40.0
  0
ARC
  5
352
100
AcDbEntity
  8
KONSTRUKTIONSELEMENTE
100
AcDbCircle
 62
7
  6
CONTINUOUS
 10
134.0627037571
 20
206.6101159236
 40
4.9238582476
100
AcDbArc
 50
177.6912384182
 51
179.9997395788
  0
ARC
  5
353
100
AcDbEntity
  8
KONSTRUKTIONSELEMENTE
100
AcDbCircle
 62
7
  6
CONTINUOUS
 10
146.073859522
 20
206.6101159236
 40
4.9238582476
100
AcDbArc
 50
0.0002604212
 51
2.3087615818
  0
ARC
  5
354
100
AcDbEntity
  8
KONSTRUKTIONSELEMENTE
100
AcDbCircle
 62
7
  6
CONTINUOUS
 10
140.0682816396
 20
195.4584715212
 40
4.75
100
AcDbArc
 50
180.0
 51
360.0
  0
ARC
  5
355
100
AcDbEntity
  8
KONSTRUKTIONSELEMENTE
100
AcDbCircle
 62
7
  6
CONTINUOUS
 10
139.7682816396
 20
140.6084715212
 40
4.5
100
AcDbArc
 50
180.0
 51
229.8445134153
  0
ARC
  5
356
100
AcDbEntity
  8
KONSTRUKTIONSELEMENTE
100
AcDbCircle
 62
7
  6
CONTINUOUS
 10
140.3682816396
 20
140.6084715212
 40
4.5
100
AcDbArc
 50
310.1554865854
 51
360.0
  0
ARC
  5
357
100
AcDbEntity
  8
KONSTRUKTIONSELEMENTE
100
AcDbCircle
 62
7
  6
CONTINUOUS
 10
123.3338554328
 20
168.6084715212
 40
4.0
100
AcDbArc
 50
40.0
 51
130.0
  0
CIRCLE
  5
358
100
AcDbEntity
  8
BEZUGSACHSEN
100
AcDbCircle
 62
7
  6
CONTINUOUS
 10
125.2682816396
 20
208.4084715212
 40
1.75
  0
ARC
  5
359
100
AcDbEntity
  8
0
100
AcDbCircle
 62
7
  6
CONTINUOUS
 10
202.4190942786
 20
149.6084715212
 40
25.0
100
AcDbArc
 50
0.0
 51
13.0
  0
ARC
  5
35A
100
AcDbEntity
  8
KONSTRUKTIONSELEMENTE
100
AcDbCircle
 62
7
  6
CONTINUOUS
 10
263.2190942786
 20
149.6084715212
 40
25.0
100
AcDbArc
 50
167.0
 51
180.0
  0
ARC
  5
35B
100
AcDbEntity
  8
0
100
AcDbCircle
 62
7
  6
CONTINUOUS
 10
214.8190942786
 20
183.6084715212
 40
16.0
100
AcDbArc
 50
43.0953905908
 51
67.2009687281
  0
ARC
  5
35C
100
AcDbEntity
  8
KONSTRUKTIONSELEMENTE
100
AcDbCircle
 62
7
  6
CONTINUOUS
 10
250.8190942786
 20
183.6084715212
 40
16.0
100
AcDbArc
 50
112.7990312719
 51
136.9046094092
  0
ARC
  5
35D
100
AcDbEntity
  8
0
100
AcDbCircle
 62
7
  6
CONTINUOUS
 10
232.6190942786
 20
206.6101383036
 40
12.0
100
AcDbArc
 50
27.8091414661
 51
89.0450261262
  0
ARC
  5
35E
100
AcDbEntity
  8
RUNDUNGEN
100
AcDbCircle
 62
7
  6
CONTINUOUS
 10
232.6190942786
 20
206.6101383036
 40
12.0
100
AcDbArc
 50
0.0
 51
27.8091414661
  0
ARC
  5
35F
100
AcDbEntity
  8
0
100
AcDbCircle
 62
7
  6
CONTINUOUS
 10
233.0190942786
 20
206.6101383036
 40
12.0
100
AcDbArc
 50
90.9549738738
 51
180.0
  0
CIRCLE
  5
360
100
AcDbEntity
  8
KONSTRUKTIONSELEMENTE
100
AcDbCircle
 62
7
  6
CONTINUOUS
 10
232.8190942786
 20
208.4084715212
 40
5.65
  0
ARC
  5
361
100
AcDbEntity
  8
KONSTRUKTIONSELEMENTE
100
AcDbCircle
 62
7
  6
CONTINUOUS
 10
244.3190942786
 20
117.7861591111
 40
3.0
100
AcDbArc
 50
315.0
 51
23.0
  0
ARC
  5
362
100
AcDbEntity
  8
0
100
AcDbCircle
 62
7
  6
CONTINUOUS
 10
221.3190942786
 20
117.7861591111
 40
3.0
100
AcDbArc
 50
157.0
 51
225.0
  0
SPLINE
  5
363
100
AcDbEntity
  8
KONSTRUKTIONSELEMENTE
100
AcDbSpline
 62
7
  6
CONTINUOUS
 70
0
 71
3
 72
9
 73
5
 74
0
 42
0.0000001
 43
0.0000001
 44
0.0000000001
 40
0.0
 40
0.0
 40
0.0
 40
0.0
 40
0.4969741319
 40
1.0
 40
1.0
 40
1.0
 40
1.0
 10
129.4392506067
 20
155.2322478798
 30
0.0
 10
129.6761402846
 20
154.3202964494
 30
0.0
 10
130.0653409869
 20
152.4603560168
 30
0.0
 10
130.2072472111
 20
150.5621616537
 30
0.0
 10
130.2072472111
 20
149.6084715212
 30
0.0
  0
SPLINE
  5
364
100
AcDbEntity
  8
KONSTRUKTIONSELEMENTE
100
AcDbSpline
 62
7
  6
CONTINUOUS
 70
0
 71
3
 72
20
 73
16
 74
0
 42
0.0000001
 43
0.0000001
 44
0.0000000001
 40
0.0
 40
0.0
 40
0.0
 40
0.0
 40
0.2499637732
 40
0.3749669608
 40
0.4999667023
 40
0.562471421
 40
0.6249758232
 40
0.6874795673
 40
0.7499817319
 40
0.8124795494
 40
0.874962807
 40
0.9062254974
 40
0.9374892412
 40
0.9687541151
 40
1.0
 40
1.0
 40
1.0
 40
1.0
 10
135.3182816396
 20
200.4538818712
 30
0.0
 10
134.7365540111
 20
200.564506443
 30
0.0
 10
133.8693974204
 20
200.7625600063
 30
0.0
 10
132.7331381959
 20
201.0977313032
 30
0.0
 10
132.0332488872
 20
201.3401782937
 30
0.0
 10
131.4821891907
 20
201.557421731
 30
0.0
 10
131.074313785
 20
201.7336130201
 30
0.0
 10
130.673463931
 20
201.925299302
 30
0.0
 10
130.2821715369
 20
202.1360600692
 30
0.0
 10
129.9054507065
 20
202.3718783454
 30
0.0
 10
129.6111217802
 20
202.5983931763
 30
0.0
 10
129.4016222014
 20
202.8084360694
 30
0.0
 10
129.2655925363
 20
202.9852204714
 30
0.0
 10
129.1651417788
 20
203.1855328894
 30
0.0
 10
129.1388455096
 20
203.3344514536
 30
0.0
 10
129.1388455096
 20
203.4084715212
 30
0.0
  0
SPLINE
  5
365
100
AcDbEntity
  8
KONSTRUKTIONSELEMENTE
100
AcDbSpline
 62
7
  6
CONTINUOUS
 70
0
 71
3
 72
20
 73
16
 74
0
 42
0.0000001
 43
0.0000001
 44
0.0000000001
 40
0.0
 40
0.0
 40
0.0
 40
0.0
 40
0.0312473195
 40
0.0625141562
 40
0.0937797063
 40
0.1250438023
 40
0.1875274152
 40
0.2500254197
 40
0.3125272334
 40
0.3750304763
 40
0.4375342957
 40
0.5000383637
 40
0.6250368313
 40
0.7500386226
 40
1.0
 40
1.0
 40
1.0
 40
1.0
 10
150.9977177696
 20
203.4084715212
 30
0.0
 10
150.9977177696
 20
203.3344480485
 30
0.0
 10
150.9714151251
 20
203.1855219466
 30
0.0
 10
150.8709583303
 20
202.9851997206
 30
0.0
 10
150.7349246305
 20
202.8084020872
 30
0.0
 10
150.5254054375
 20
202.5983665833
 30
0.0
 10
150.2310775888
 20
202.3718441847
 30
0.0
 10
149.8543467956
 20
202.1360396799
 30
0.0
 10
149.463056297
 20
201.9252795495
 30
0.0
 10
149.062208407
 20
201.7335966229
 30
0.0
 10
148.6543365285
 20
201.5574076182
 30
0.0
 10
148.1032829427
 20
201.3401646317
 30
0.0
 10
147.4033993278
 20
201.0977249596
 30
0.0
 10
146.267152012
 20
200.7625556767
 30
0.0
 10
145.4000037446
 20
200.5645053926
 30
0.0
 10
144.8182816396
 20
200.4538818712
 30
0.0
  0
SPLINE
  5
366
100
AcDbEntity
  8
KONSTRUKTIONSELEMENTE
100
AcDbSpline
 62
7
  6
CONTINUOUS
 70
0
 71
3
 72
9
 73
5
 74
0
 42
0.0000001
 43
0.0000001
 44
0.0000000001
 40
0.0
 40
0.0
 40
0.0
 40
0.0
 40
0.5015474113
 40
1.0
 40
1.0
 40
1.0
 40
1.0
 10
127.4301091997
 20
159.3529131632
 30
0.0
 10
127.8450956035
 20
158.9839747276
 30
0.0
 10
128.5591489422
 20
158.1112797536
 30
0.0
 10
128.979280236
 20
157.0679191669
 30
0.0
 10
129.1109305245
 20
156.5320048974
 30
0.0
  0
SPLINE
  5
367
100
AcDbEntity
  8
0
100
AcDbSpline
 62
7
  6
CONTINUOUS
 70
0
 71
3
 72
23
 73
19
 74
0
 42
0.0000001
 43
0.0000001
 44
0.0000000001
 40
0.0
 40
0.0
 40
0.0
 40
0.0
 40
0.1935777339
 40
0.3794077935
 40
0.5506533263
 40
0.6288047517
 40
0.7009961851
 40
0.7665631252
 40
0.8249023022
 40
0.8754814948
 40
0.9178484743
 40
0.9516333819
 40
0.9652185452
 40
0.9765675905
 40
0.9856714247
 40
0.9925383509
 40
0.9972310566
 40
1.0
 40
1.0
 40
1.0
 40
1.0
 10
129.1428424685
 20
206.8084715212
 30
0.0
 10
129.1735797819
 20
207.5708650971
 30
0.0
 10
129.228392689
 20
209.0653650075
 30
0.0
 10
129.2907629646
 20
211.2349660525
 30
0.0
 10
129.3243846651
 20
212.950178276
 30
0.0
 10
129.3379020587
 20
214.21769838
 30
0.0
 10
129.3411951686
 20
215.0687373049
 30
0.0
 10
129.3379696533
 20
215.8416865591
 30
0.0
 10
129.3282906302
 20
216.5293874686
 30
0.0
 10
129.3123770151
 20
217.1255148377
 30
0.0
 10
129.2904682824
 20
217.6245748653
 30
0.0
 10
129.2663672616
 20
217.9775613374
 30
0.0
 10
129.2429815316
 20
218.2078175797
 30
0.0
 10
129.2254190148
 20
218.3409268405
 30
0.0
 10
129.2069701456
 20
218.4468687376
 30
0.0
 10
129.1871236245
 20
218.5264785526
 30
0.0
 10
129.1677576388
 20
218.5785821746
 30
0.0
 10
129.1489432318
 20
218.6043296571
 30
0.0
 10
129.1388455096
 20
218.6084715212
 30
0.0
  0
SPLINE
  5
368
100
AcDbEntity
  8
0
100
AcDbSpline
 62
7
  6
CONTINUOUS
 70
0
 71
3
 72
23
 73
19
 74
0
 42
0.0000001
 43
0.0000001
 44
0.0000000001
 40
0.0
 40
0.0
 40
0.0
 40
0.0
 40
0.0027689434
 40
0.0074616491
 40
0.0143285753
 40
0.0234324095
 40
0.0347814548
 40
0.0483666181
 40
0.0821515257
 40
0.1245185052
 40
0.1750976978
 40
0.2334368748
 40
0.2990038149
 40
0.3711952483
 40
0.4493466737
 40
0.6205922065
 40
0.8064222661
 40
1.0
 40
1.0
 40
1.0
 40
1.0
 10
150.9977177696
 20
218.6084715212
 30
0.0
 10
150.9876200474
 20
218.6043296571
 30
0.0
 10
150.9688056403
 20
218.5785821746
 30
0.0
 10
150.9494396547
 20
218.5264785526
 30
0.0
 10
150.9295931335
 20
218.4468687376
 30
0.0
 10
150.9111442643
 20
218.3409268405
 30
0.0
 10
150.8935817475
 20
218.2078175797
 30
0.0
 10
150.8701960175
 20
217.9775613374
 30
0.0
 10
150.8460949968
 20
217.6245748653
 30
0.0
 10
150.824186264
 20
217.1255148377
 30
0.0
 10
150.808272649
 20
216.5293874686
 30
0.0
 10
150.7985936259
 20
215.8416865591
 30
0.0
 10
150.7953681105
 20
215.0687373049
 30
0.0
 10
150.7986612205
 20
214.21769838
 30
0.0
 10
150.812178614
 20
212.950178276
 30
0.0
 10
150.8458003145
 20
211.2349660525
 30
0.0
 10
150.9081705901
 20
209.0653650075
 30
0.0
 10
150.9629834973
 20
207.5708650971
 30
0.0
 10
150.9937208107
 20
206.8084715212
 30
0.0
  0
SPLINE
  5
369
100
AcDbEntity
  8
0
100
AcDbSpline
 62
7
  6
CONTINUOUS
 70
0
 71
3
 72
12
 73
8
 74
0
 42
0.0000001
 43
0.0000001
 44
0.0000000001
 40
0.0
 40
0.0
 40
0.0
 40
0.0
 40
0.3325529577
 40
0.6136868026
 40
0.7324473259
 40
0.8359791893
 40
1.0
 40
1.0
 40
1.0
 40
1.0
 10
228.1817287494
 20
171.6726492936
 30
0.0
 10
228.315717385
 20
171.8034303612
 30
0.0
 10
228.567841937
 20
172.0399052679
 30
0.0
 10
228.8871681321
 20
172.3017142815
 30
0.0
 10
229.1239880474
 20
172.4587008139
 30
0.0
 10
229.315154554
 20
172.560876707
 30
0.0
 10
229.4641604721
 20
172.6083939556
 30
0.0
 10
229.5565075471
 20
172.6084713109
 30
0.0
  0
SPLINE
  5
36A
100
AcDbEntity
  8
KONSTRUKTIONSELEMENTE
100
AcDbSpline
 62
7
  6
CONTINUOUS
 70
0
 71
3
 72
12
 73
8
 74
0
 42
0.0000001
 43
0.0000001
 44
0.0000000001
 40
0.0
 40
0.0
 40
0.0
 40
0.0
 40
0.3325529577
 40
0.6136868026
 40
0.7324473259
 40
0.8359791893
 40
1.0
 40
1.0
 40
1.0
 40
1.0
 10
237.4564598078
 20
171.6726492936
 30
0.0
 10
237.3224711722
 20
171.8034303612
 30
0.0
 10
237.0703466202
 20
172.0399052679
 30
0.0
 10
236.7510204252
 20
172.3017142815
 30
0.0
 10
236.5142005099
 20
172.4587008139
 30
0.0
 10
236.3230340033
 20
172.560876707
 30
0.0
 10
236.1740280852
 20
172.6083939556
 30
0.0
 10
236.0816810101
 20
172.6084713109
 30
0.0
  0
SPLINE
  5
36B
100
AcDbEntity
  8
0
100
AcDbSpline
 62
7
  6
CONTINUOUS
 70
0
 71
3
 72
9
 73
5
 74
0
 42
0.0000001
 43
0.0000001
 44
0.0000000001
 40
0.0
 40
0.0
 40
0.0
 40
0.0
 40
0.2443482472
 40
1.0
 40
1.0
 40
1.0
 40
1.0
 10
228.1817287494
 20
171.6726492936
 30
0.0
 10
228.0814985211
 20
171.5748184874
 30
0.0
 10
227.6638798271
 20
171.1820883466
 30
0.0
 10
227.2178759012
 20
170.8198195278
 30
0.0
 10
226.8690067489
 20
170.5631083117
 30
0.0
  0
SPLINE
  5
36C
100
AcDbEntity
  8
KONSTRUKTIONSELEMENTE
100
AcDbSpline
 62
7
  6
CONTINUOUS
 70
0
 71
3
 72
9
 73
5
 74
0
 42
0.0000001
 43
0.0000001
 44
0.0000000001
 40
0.0
 40
0.0
 40
0.0
 40
0.0
 40
0.2443482472
 40
1.0
 40
1.0
 40
1.0
 40
1.0
 10
237.4564598078
 20
171.6726492936
 30
0.0
 10
237.5566900361
 20
171.5748184874
 30
0.0
 10
237.9743087302
 20
171.1820883466
 30
0.0
 10
238.420312656
 20
170.8198195278
 30
0.0
 10
238.7691818083
 20
170.5631083117
 30
0.0
  0
SPLINE
  5
36D
100
AcDbEntity
  8
0
100
AcDbSpline
 62
7
  6
CONTINUOUS
 70
0
 71
3
 72
9
 73
5
 74
0
 42
0.0000001
 43
0.0000001
 44
0.0000000001
 40
0.0
 40
0.0
 40
0.0
 40
0.0
 40
0.2624948119
 40
1.0
 40
1.0
 40
1.0
 40
1.0
 10
223.7192117306
 20
168.4828137231
 30
0.0
 10
224.005246665
 20
168.6481673842
 30
0.0
 10
225.083772736
 20
169.2974331647
 30
0.0
 10
226.1213436127
 20
170.0129492859
 30
0.0
 10
226.8690067489
 20
170.5631083117
 30
0.0
  0
SPLINE
  5
36E
100
AcDbEntity
  8
KONSTRUKTIONSELEMENTE
100
AcDbSpline
 62
7
  6
CONTINUOUS
 70
0
 71
3
 72
9
 73
5
 74
0
 42
0.0000001
 43
0.0000001
 44
0.0000000001
 40
0.0
 40
0.0
 40
0.0
 40
0.0
 40
0.2624948119
 40
1.0
 40
1.0
 40
1.0
 40
1.0
 10
241.9189768266
 20
168.4828137231
 30
0.0
 10
241.6329418922
 20
168.6481673842
 30
0.0
 10
240.5544158212
 20
169.2974331647
 30
0.0
 10
239.5168449445
 20
170.0129492859
 30
0.0
 10
238.7691818083
 20
170.5631083117
 30
0.0
  0
SPLINE
  5
36F
100
AcDbEntity
  8
0
100
AcDbSpline
 62
7
  6
CONTINUOUS
 70
0
 71
3
 72
9
 73
5
 74
0
 42
0.0000001
 43
0.0000001
 44
0.0000000001
 40
0.0
 40
0.0
 40
0.0
 40
0.0
 40
0.2352113712
 40
1.0
 40
1.0
 40
1.0
 40
1.0
 10
228.5055661095
 20
191.7693303751
 30
0.0
 10
228.3797612506
 20
192.0065154155
 30
0.0
 10
227.8083588213
 20
192.9953211775
 30
0.0
 10
227.0989991978
 20
193.9024512647
 30
0.0
 10
226.5025701698
 20
194.5399120072
 30
0.0
  0
SPLINE
  5
370
100
AcDbEntity
  8
KONSTRUKTIONSELEMENTE
100
AcDbSpline
 62
7
  6
CONTINUOUS
 70
0
 71
3
 72
9
 73
5
 74
0
 42
0.0000001
 43
0.0000001
 44
0.0000000001
 40
0.0
 40
0.0
 40
0.0
 40
0.0
 40
0.2352113712
 40
1.0
 40
1.0
 40
1.0
 40
1.0
 10
237.1326224478
 20
191.7693303751
 30
0.0
 10
237.2584273066
 20
192.0065154155
 30
0.0
 10
237.8298297359
 20
192.9953211775
 30
0.0
 10
238.5391893594
 20
193.9024512647
 30
0.0
 10
239.1356183874
 20
194.5399120072
 30
0.0
  0
SPLINE
  5
371
100
AcDbEntity
  8
0
100
AcDbSpline
 62
7
  6
CONTINUOUS
 70
0
 71
3
 72
11
 73
7
 74
0
 42
0.0000001
 43
0.0000001
 44
0.0000000001
 40
0.0
 40
0.0
 40
0.0
 40
0.0
 40
0.2467101687
 40
0.4944639052
 40
0.7448205074
 40
1.0
 40
1.0
 40
1.0
 40
1.0
 10
230.0821215013
 20
184.836347618
 30
0.0
 10
230.0821215013
 20
185.4265546945
 30
0.0
 10
230.0267919147
 20
186.6102939227
 30
0.0
 10
229.7618430617
 20
188.3759623148
 30
0.0
 10
229.2783190685
 20
190.1171462593
 30
0.0
 10
228.791616335
 20
191.2300281977
 30
0.0
 10
228.5055661095
 20
191.7693303751
 30
0.0
  0
SPLINE
  5
372
100
AcDbEntity
  8
KONSTRUKTIONSELEMENTE
100
AcDbSpline
 62
7
  6
CONTINUOUS
 70
0
 71
3
 72
11
 73
7
 74
0
 42
0.0000001
 43
0.0000001
 44
0.0000000001
 40
0.0
 40
0.0
 40
0.0
 40
0.0
 40
0.2467101687
 40
0.4944639052
 40
0.7448205074
 40
1.0
 40
1.0
 40
1.0
 40
1.0
 10
235.556067056
 20
184.836347618
 30
0.0
 10
235.556067056
 20
185.4265546945
 30
0.0
 10
235.6113966425
 20
186.6102939227
 30
0.0
 10
235.8763454956
 20
188.3759623148
 30
0.0
 10
236.3598694887
 20
190.1171462593
 30
0.0
 10
236.8465722222
 20
191.2300281977
 30
0.0
 10
237.1326224478
 20
191.7693303751
 30
0.0
  0
ELLIPSE
  5
373
100
AcDbEntity
  8
KONSTRUKTIONSELEMENTE
100
AcDbEllipse
 62
7
  6
CONTINUOUS
 10
102.5790478108
 20
207.0334577447
 30
0.0
 11
-60.6435252934
 21
68.5055903312
 31
0.0
 40
0.1729269
 41
-4.2744154261
 42
-4.1055679308
  0
ELLIPSE
  5
374
100
AcDbEntity
  8
KONSTRUKTIONSELEMENTE
100
AcDbEllipse
 62
7
  6
CONTINUOUS
 10
140.0682816396
 20
207.0334577447
 30
0.0
 11
-0.0
 21
69.3036139885
 31
0.0
 40
0.2308681911
 41
-3.8959691351
 42
-3.8681689022
  0
ELLIPSE
  5
375
100
AcDbEntity
  8
AUSFORMSCHRAEGEN
100
AcDbEllipse
 62
7
  6
CONTINUOUS
 10
147.0535720759
 20
121.8823802424
 30
0.0
 11
-0.0
 21
10.4
 31
0.0
 40
0.3639702343
 41
0.6108652382
 42
1.5707963268
  0
ELLIPSE
  5
376
100
AcDbEntity
  8
AUSFORMSCHRAEGEN
100
AcDbEllipse
 62
7
  6
CONTINUOUS
 10
145.7068822092
 20
117.7861591111
 30
0.0
 11
0.0
 21
3.0
 31
0.0
 40
0.3639702343
 41
-2.3561944902
 42
-1.1693705988
  0
ELLIPSE
  5
377
100
AcDbEntity
  8
AUSFORMSCHRAEGEN
100
AcDbEllipse
 62
7
  6
CONTINUOUS
 10
134.42968107
 20
117.7861591111
 30
0.0
 11
-0.0
 21
3.0
 31
0.0
 40
0.3639702343
 41
1.1693705988
 42
2.3561944902
  0
ELLIPSE
  5
378
100
AcDbEntity
  8
KONSTRUKTIONSELEMENTE
100
AcDbEllipse
 62
7
  6
CONTINUOUS
 10
140.0682816396
 20
110.151032729
 30
0.0
 11
0.0
 21
37.6936378532
 31
0.0
 40
0.4244748162
 41
0.304692654
 42
0.6640542772
  0
ELLIPSE
  5
379
100
AcDbEntity
  8
AUSFORMSCHRAEGEN
100
AcDbEllipse
 62
7
  6
CONTINUOUS
 10
133.0829912032
 20
121.8823802424
 30
0.0
 11
0.0
 21
10.4
 31
0.0
 40
0.3639702343
 41
-1.5707963268
 42
-0.6108652382
  0
ELLIPSE
  5
37A
100
AcDbEntity
  8
KONSTRUKTIONSELEMENTE
100
AcDbEllipse
 62
7
  6
CONTINUOUS
 10
140.0682816396
 20
110.151032729
 30
0.0
 11
0.0
 21
37.6936378532
 31
0.0
 40
0.4244748162
 41
-1.1728781648
 42
-0.304692654
  0
ELLIPSE
  5
37B
100
AcDbEntity
  8
0
100
AcDbEllipse
 62
7
  6
CONTINUOUS
 10
223.3483826656
 20
135.5084715212
 30
0.0
 11
71.1596651639
 21
-0.0
 31
0.0
 40
0.3639702343
 41
-1.5441410212
 42
-1.5051120397
  0
ELLIPSE
  5
37C
100
AcDbEntity
  8
AUSFORMSCHRAEGEN
100
AcDbEllipse
 62
7
  6
CONTINUOUS
 10
242.2898058917
 20
135.5084715212
 30
0.0
 11
71.1596651639
 21
0.0
 31
0.0
 40
0.3639702343
 41
-1.6364806139
 42
-1.5974516324
  0
ENDSEC
  0
SECTION
  2
OBJECTS
  0
DICTIONARY
  5
C
100
AcDbDictionary
280
0
281
1
  3
ACAD_GROUP
350
D
  3
ACAD_MLINESTYLE
350
17
  3
ACAD_LAYOUT
350
1A
  3
ACAD_PLOTSETTINGS
350
19
  3
ACAD_PLOTSTYLENAME
350
E
  0
DICTIONARY
  5
D
102
{ACAD_REACTORS
330
C
102
}
100
AcDbDictionary
280
0
281
1
  0
ACDBDICTIONARYWDFLT
  5
E
102
{ACAD_REACTORS
330
C
102
}
100
AcDbDictionary
281
1
  3
Normal
350
F
100
AcDbDictionaryWithDefault
340
F
  0
DICTIONARY
  5
17
102
{ACAD_REACTORS
330
C
102
}
100
AcDbDictionary
280
0
281
1
  3
Standard
350
18
  0
DICTIONARY
  5
19
102
{ACAD_REACTORS
330
C
102
}
100
AcDbDictionary
281
1
  0
DICTIONARY
  5
1A
102
{ACAD_REACTORS
330
C
102
}
100
AcDbDictionary
281
1
  3
Model
350
37D
  3
Layout1
350
37E
  0
ACDBPLACEHOLDER
  5
F
102
{ACAD_REACTORS
330
E
102
}
  0
MLINESTYLE
  5
18
102
{ACAD_REACTORS
330
17
102
}
100
AcDbMlineStyle
  2
STANDARD
 70
0
  3

 62
256
 51
90.0
 52
90.0
 71
2
 49
0.5
 62
256
  6
BYLAYER
 49
-0.5
 62
256
  6
BYLAYER
  0
LAYOUT
  5
37D
102
{ACAD_REACTORS
330
1A
102
}
100
AcDbPlotSettings
  1

  2
none_device
  4
ISO_A3_(420.00_x_297.00_MM)
  6

 40
0.0
 41
0.0
 42
0.0
 43
0.0
 44
420.0
 45
297.0
 46
0.0
 47
0.0
 48
0.0
 49
0.0
140
0.0
141
0.0
142
1.0
143
1.0
 70
1024
 72
1
 73
0
 74
0
  7

 75
0
147
1.0
148
0.0
149
0.0
100
AcDbLayout
  1
Model
 70
0
 71
0
 10
0.0
 20
0.0
 11
420.0
 21
297.0
 12
0.0
 22
0.0
 32
0.0
 14
0.0
 24
0.0
 34
0.0
 15
0.0
 25
0.0
 35
0.0
146
0.0
 13
0.0
 23
0.0
 33
0.0
 16
1.0
 26
0.0
 36
0.0
 17
0.0
 27
1.0
 37
0.0
 76
0
330
209
345
0
346
0
  0
LAYOUT
  5
37E
102
{ACAD_REACTORS
330
1A
102
}
100
AcDbPlotSettings
  1

  2
none_device
  4
ISO_A3_(420.00_x_297.00_MM)
  6

 40
0.0
 41
0.0
 42
0.0
 43
0.0
 44
420.0
 45
297.0
 46
0.0
 47
0.0
 48
0.0
 49
0.0
140
0.0
141
0.0
142
1.0
143
1.0
 70
0
 72
1
 73
0
 74
0
  7

 75
0
147
1.0
148
0.0
149
0.0
100
AcDbLayout
  1
Layout1
 70
0
 71
1
 10
0.0
 20
0.0
 11
420.0
 21
297.0
 12
0.0
 22
0.0
 32
0.0
 14
0.0
 24
0.0
 34
0.0
 15
0.0
 25
0.0
 35
0.0
146
0.0
 13
0.0
 23
0.0
 33
0.0
 16
1.0
 26
0.0
 36
0.0
 17
0.0
 27
1.0
 37
0.0
 76
0
330
20A
345
0
346
0
  0
ENDSEC
  0
EOF
