999
DXF file: IVH-6_7900129_M34047-P10.dxf
999
Pro/ENGINEER 2010140 by Parametric Technology Corporation
  0
SECTION
  2
HEADER
  9
$ACADVER
  1
AC1015
  9
$DWGCODEPAGE
  3
ANSI_1252
  9
$EXTMAX
 10
297.0
 20
210.0
 30
0.0
  9
$EXTMIN
 10
0.0
 20
0.0
 30
0.0
  9
$LIMMIN
 10
0.0
 20
0.0
  9
$LIMMAX
 10
297.0
 20
210.0
  9
$VIEWCTR
 10
148.5
 20
105.0
  9
$VIEWSIZE
 40
210.0
  9
$CLAYER
  8
0
  9
$LTSCALE
 40
16.335
  9
$CELTYPE
  6
BYLAYER
  9
$DIMSCALE
 40
1.0
  9
$DIMASZ
 40
3.5
  9
$DIMEXO
 40
1.85625
  9
$DIMDLI
 40
11.286
  9
$DIMEXE
 40
5.346
  9
$DIMCEN
 40
2.673
  9
$DIMLFAC
 40
1.0
  9
$DIMBLK
  1
_FILLED
  9
$DIMTXT
 40
3.5
  9
$DIMTOL
 70
1
  9
$DIMLIM
 70
0
  9
$DIMTFAC
 40
1.0
  9
$DIMTP
 40
0.005
  9
$DIMTM
 40
0.005
  9
$PDMODE
 70
3
  9
$PDSIZE
 40
0.3125
  9
$HANDSEED
  5
37A
  9
$TILEMODE
 70
1
  9
$MEASUREMENT
 70
1
  9
$INSUNITS
 70
4
  0
ENDSEC
  0
SECTION
  2
CLASSES
  0
CLASS
  1
ACDBDICTIONARYWDFLT
  2
AcDbDictionaryWithDefault
  3
AutoCAD 2000
 90
0
280
0
281
0
  0
CLASS
  1
ACDBPLACEHOLDER
  2
AcDbPlaceHolder
  3
AutoCAD 2000
 90
0
280
0
281
0
  0
CLASS
  1
LAYOUT
  2
AcDbLayout
  3
AutoCAD 2000
 90
0
280
0
281
0
  0
ENDSEC
  0
SECTION
  2
TABLES
  0
TABLE
  2
VPORT
  5
8
100
AcDbSymbolTable
 70
2
  0
VPORT
  5
1F4
100
AcDbSymbolTableRecord
100
AcDbViewportTableRecord
  2
*ACTIVE
 70
0
 10
0.0
 20
0.0
 11
1.0
 21
1.0
 12
148.5
 22
105.0
 13
0.0
 23
0.0
 14
1.0
 24
1.0
 15
0.0
 25
0.0
 16
0.0
 26
0.0
 36
1.0
 17
0.0
 27
0.0
 37
0.0
 40
210.0
 41
1.4142857143
 42
50.0
 43
0.0
 44
0.0
 50
0.0
 51
0.0
 71
0
 72
100
 73
1
 74
1
 75
0
 76
0
 77
0
 78
0
  0
ENDTAB
  0
TABLE
  2
LTYPE
  5
5
100
AcDbSymbolTable
 70
6
  0
LTYPE
  5
14
100
AcDbSymbolTableRecord
100
AcDbLinetypeTableRecord
  2
BYBLOCK
 70
0
  3

 72
65
 73
0
 40
0.0
  0
LTYPE
  5
15
100
AcDbSymbolTableRecord
100
AcDbLinetypeTableRecord
  2
BYLAYER
 70
0
  3

 72
65
 73
0
 40
0.0
  0
LTYPE
  5
16
100
AcDbSymbolTableRecord
100
AcDbLinetypeTableRecord
  2
CONTINUOUS
 70
64
  3
Solid line
 72
65
 73
0
 40
0.0
  0
LTYPE
  5
1F5
100
AcDbSymbolTableRecord
100
AcDbLinetypeTableRecord
  2
CENTER
 70
64
  3
____ _ ____ _ ____ _ ____ _ ____ _ ____ _ ____
 72
65
 73
4
 40
0.6
 49
0.375
 74
0
 49
-0.075
 74
0
 49
0.075
 74
0
 49
-0.075
 74
0
  0
LTYPE
  5
1F6
100
AcDbSymbolTableRecord
100
AcDbLinetypeTableRecord
  2
HIDDEN
 70
64
  3
- - - - - - - - - - - - - - - - - - - -
 72
65
 73
2
 40
0.2
 49
0.1
 74
0
 49
-0.1
 74
0
  0
LTYPE
  5
1F7
100
AcDbSymbolTableRecord
100
AcDbLinetypeTableRecord
  2
PHANTOM
 70
64
  3
_____ _ _ _____ _ _ _____ _ _ _____
 72
65
 73
6
 40
0.8
 49
0.45
 74
0
 49
-0.05
 74
0
 49
0.1
 74
0
 49
-0.05
 74
0
 49
0.1
 74
0
 49
-0.05
 74
0
  0
LTYPE
  5
1F8
100
AcDbSymbolTableRecord
100
AcDbLinetypeTableRecord
  2
DOT
 70
64
  3
. . . . . . . . . . . . . . . . . . . .
 72
65
 73
2
 40
0.2
 49
0.1
 74
0
 49
-0.1
 74
0
  0
LTYPE
  5
1F9
100
AcDbSymbolTableRecord
100
AcDbLinetypeTableRecord
  2
DASHED
 70
64
  3
- - - - - - - - - - - - - - - - - - - -
 72
65
 73
2
 40
0.2
 49
0.1
 74
0
 49
-0.1
 74
0
  0
ENDTAB
  0
TABLE
  2
LAYER
  5
2
100
AcDbSymbolTable
 70
36
  0
LAYER
  5
10
100
AcDbSymbolTableRecord
100
AcDbLayerTableRecord
  2
0
 70
0
 62
7
  6
CONTINUOUS
370
-3
390
F
  0
LAYER
  5
1FA
100
AcDbSymbolTableRecord
100
AcDbLayerTableRecord
  2
DEFAULT_1
 70
0
 62
7
  6
CENTER
370
-3
390
F
  0
LAYER
  5
1FB
100
AcDbSymbolTableRecord
100
AcDbLayerTableRecord
  2
DEFAULT_2
 70
0
 62
8
  6
HIDDEN
370
-3
390
F
  0
LAYER
  5
1FC
100
AcDbSymbolTableRecord
100
AcDbLayerTableRecord
  2
DEFAULT_3
 70
0
 62
7
  6
PHANTOM
370
-3
390
F
  0
LAYER
  5
1FD
100
AcDbSymbolTableRecord
100
AcDbLayerTableRecord
  2
AUSFORMSCHRAEGEN
 70
0
 62
7
  6
CONTINUOUS
370
-3
390
F
  0
LAYER
  5
1FE
100
AcDbSymbolTableRecord
100
AcDbLayerTableRecord
  2
BEZUGSACHSEN
 70
0
 62
7
  6
CONTINUOUS
370
-3
390
F
  0
LAYER
  5
1FF
100
AcDbSymbolTableRecord
100
AcDbLayerTableRecord
  2
BEZUGSEBENEN
 70
0
 62
7
  6
CONTINUOUS
370
-3
390
F
  0
LAYER
  5
200
100
AcDbSymbolTableRecord
100
AcDbLayerTableRecord
  2
FASEN
 70
0
 62
7
  6
CONTINUOUS
370
-3
390
F
  0
LAYER
  5
201
100
AcDbSymbolTableRecord
100
AcDbLayerTableRecord
  2
HILFEN
 70
0
 62
7
  6
CONTINUOUS
370
-3
390
F
  0
LAYER
  5
202
100
AcDbSymbolTableRecord
100
AcDbLayerTableRecord
  2
KONSTRUKTIONSELEMENTE
 70
0
 62
7
  6
CONTINUOUS
370
-3
390
F
  0
LAYER
  5
203
100
AcDbSymbolTableRecord
100
AcDbLayerTableRecord
  2
PLATZIERUNG
 70
0
 62
7
  6
CONTINUOUS
370
-3
390
F
  0
LAYER
  5
204
100
AcDbSymbolTableRecord
100
AcDbLayerTableRecord
  2
RUNDUNGEN
 70
0
 62
7
  6
CONTINUOUS
370
-3
390
F
  0
LAYER
  5
205
100
AcDbSymbolTableRecord
100
AcDbLayerTableRecord
  2
TEIL_STARTBEZUEGE
 70
0
 62
7
  6
CONTINUOUS
370
-3
390
F
  0
LAYER
  5
206
100
AcDbSymbolTableRecord
100
AcDbLayerTableRecord
  2
ZEICHNUNGSBEMASSUNGEN
 70
0
 62
7
  6
CONTINUOUS
370
-3
390
F
  0
ENDTAB
  0
TABLE
  2
STYLE
  5
3
100
AcDbSymbolTable
 70
1
  0
STYLE
  5
11
100
AcDbSymbolTableRecord
100
AcDbTextStyleTableRecord
  2
STANDARD
 70
0
 40
0.0
 41
0.7
 50
0.0
 71
0
 42
0.2
  3
txt
  4

  0
STYLE
  5
207
100
AcDbSymbolTableRecord
100
AcDbTextStyleTableRecord
  2
TEXTSTYLE_1
 70
0
 40
0.0
 41
0.8
 50
0.0
 71
0
 42
0.2
  3
gdt
  4

  0
ENDTAB
  0
TABLE
  2
VIEW
  5
6
100
AcDbSymbolTable
 70
0
  0
ENDTAB
  0
TABLE
  2
UCS
  5
7
100
AcDbSymbolTable
 70
0
  0
ENDTAB
  0
TABLE
  2
APPID
  5
9
100
AcDbSymbolTable
 70
1
  0
APPID
  5
208
100
AcDbSymbolTableRecord
100
AcDbRegAppTableRecord
  2
ACAD
 70
0
  0
ENDTAB
  0
TABLE
  2
BLOCK_RECORD
  5
1
100
AcDbSymbolTable
 70
0
  0
BLOCK_RECORD
  5
209
100
AcDbSymbolTableRecord
100
AcDbBlockTableRecord
  2
*Model_Space
  0
BLOCK_RECORD
  5
20A
100
AcDbSymbolTableRecord
100
AcDbBlockTableRecord
  2
*Paper_Space
  0
ENDTAB
  0
TABLE
  2
DIMSTYLE
  5
A
100
AcDbSymbolTable
 70
1
100
AcDbDimStyleTable
 71
0
  0
DIMSTYLE
105
20B
100
AcDbSymbolTableRecord
100
AcDbDimStyleTableRecord
  2
STANDARD
 70
0
  3

  4

 40
1.0
 41
3.5
 42
0.0625
 43
0.38
 44
0.18
 45
0.0
 46
0.0
 47
0.005
 48
0.005
140
3.5
141
0.09
142
0.0
143
25.4
144
1.0
145
0.0
146
1.0
147
0.09
 71
1.0
 72
0.0
 73
0
 74
0
 75
0
 76
0
 77
1
 78
8
170
0
171
2
172
0
173
0
174
0
175
0
176
0
177
0
178
5
270
2
271
3
272
3
273
2
274
2
275
0
280
0
281
0
282
0
283
1
284
8
285
0
286
0
287
3
288
0
340
11
  0
ENDTAB
  0
ENDSEC
  0
SECTION
  2
BLOCKS
  0
BLOCK
  5
20
100
AcDbEntity
  8
0
100
AcDbBlockBegin
  2
*Model_Space
 70
0
 10
0.0
 20
0.0
 30
0.0
  3
*Model_Space
  1

  0
ENDBLK
  5
21
100
AcDbEntity
  8
0
100
AcDbBlockEnd
  0
BLOCK
  5
1C
100
AcDbEntity
  8
0
100
AcDbBlockBegin
  2
*Paper_Space
 70
0
 10
0.0
 20
0.0
 30
0.0
  3
*Paper_Space
  1

  0
ENDBLK
  5
1D
100
AcDbEntity
  8
0
100
AcDbBlockEnd
  0
ENDSEC
  0
SECTION
  2
ENTITIES
  0
MTEXT
  5
20C
100
AcDbEntity
  8
0
100
AcDbMText
 62
5
  6
CONTINUOUS
  7
STANDARD
 71
1
 72
1
 10
163.8475921885
 20
74.2665602563
 30
0.0
 11
0.0
 21
1.0
 31
0.0
 44
0.9
  1
RUD
 40
3.0
 41
8.0
  0
MTEXT
  5
20D
100
AcDbEntity
  8
0
100
AcDbMText
 62
5
  6
CONTINUOUS
  7
STANDARD
 71
1
 72
1
 10
172.2291711191
 20
72.2455338731
 30
0.0
 11
0.0
 21
1.0
 31
0.0
 44
0.9
  1
IVH-6
 40
3.0
 41
11.8571428571
  0
LINE
  5
20E
100
AcDbEntity
  8
0
100
AcDbLine
 62
7
  6
CONTINUOUS
 10
0.0
 20
0.0
 11
0.0
 21
210.0
  0
LINE
  5
20F
100
AcDbEntity
  8
0
100
AcDbLine
 62
7
  6
CONTINUOUS
 10
0.0
 20
0.0
 11
297.0
 21
0.0
  0
LINE
  5
210
100
AcDbEntity
  8
0
100
AcDbLine
 62
7
  6
CONTINUOUS
 10
0.0
 20
210.0
 11
297.0
 21
210.0
  0
LINE
  5
211
100
AcDbEntity
  8
0
100
AcDbLine
 62
7
  6
CONTINUOUS
 10
297.0
 20
0.0
 11
297.0
 21
210.0
  0
LINE
  5
212
100
AcDbEntity
  8
0
100
AcDbLine
 62
7
  6
CONTINUOUS
 10
83.4416137233
 20
151.1346146808
 11
88.0567560531
 21
156.6347271327
  0
LINE
  5
213
100
AcDbEntity
  8
KONSTRUKTIONSELEMENTE
100
AcDbLine
 62
7
  6
CONTINUOUS
 10
111.3659114539
 20
73.3699207999
 11
116.5851716111
 21
73.3699207999
  0
LINE
  5
214
100
AcDbEntity
  8
AUSFORMSCHRAEGEN
100
AcDbLine
 62
7
  6
CONTINUOUS
 10
103.899475956
 20
85.7229925845
 11
102.6416137233
 21
85.7229925845
  0
LINE
  5
215
100
AcDbEntity
  8
AUSFORMSCHRAEGEN
100
AcDbLine
 62
7
  6
CONTINUOUS
 10
96.5837514906
 20
85.7229925845
 11
97.8416137233
 21
85.7229925845
  0
LINE
  5
216
100
AcDbEntity
  8
KONSTRUKTIONSELEMENTE
100
AcDbLine
 62
7
  6
CONTINUOUS
 10
114.9416137233
 20
86.7346146808
 11
118.9416137233
 21
86.7346146808
  0
LINE
  5
217
100
AcDbEntity
  8
KONSTRUKTIONSELEMENTE
100
AcDbLine
 62
7
  6
CONTINUOUS
 10
118.9416137233
 20
87.2346146808
 11
114.9416137233
 21
87.2346146808
  0
LINE
  5
218
100
AcDbEntity
  8
KONSTRUKTIONSELEMENTE
100
AcDbLine
 62
7
  6
CONTINUOUS
 10
91.0798726224
 20
88.7996134614
 11
83.4424587962
 21
88.7996134614
  0
LINE
  5
219
100
AcDbEntity
  8
KONSTRUKTIONSELEMENTE
100
AcDbLine
 62
7
  6
CONTINUOUS
 10
97.8416137233
 20
89.2413354353
 11
102.6416137233
 21
89.2413354353
  0
LINE
  5
21A
100
AcDbEntity
  8
KONSTRUKTIONSELEMENTE
100
AcDbLine
 62
7
  6
CONTINUOUS
 10
114.9416137233
 20
91.9012811885
 11
118.9416137233
 21
91.9012811885
  0
LINE
  5
21B
100
AcDbEntity
  8
KONSTRUKTIONSELEMENTE
100
AcDbLine
 62
7
  6
CONTINUOUS
 10
97.8416137233
 20
92.2790014517
 11
102.6416137233
 21
92.2790014517
  0
LINE
  5
21C
100
AcDbEntity
  8
KONSTRUKTIONSELEMENTE
100
AcDbLine
 62
7
  6
CONTINUOUS
 10
118.9416137233
 20
92.4012811885
 11
117.0692732825
 21
92.4012811885
  0
LINE
  5
21D
100
AcDbEntity
  8
KONSTRUKTIONSELEMENTE
100
AcDbLine
 62
7
  6
CONTINUOUS
 10
116.5586350455
 20
92.4012811885
 11
114.9416137233
 21
92.4012811885
  0
LINE
  5
21E
100
AcDbEntity
  8
AUSFORMSCHRAEGEN
100
AcDbLine
 62
7
  6
CONTINUOUS
 10
97.2234080029
 20
69.7954298425
 11
95.538614167
 21
74.2655384999
  0
LINE
  5
21F
100
AcDbEntity
  8
KONSTRUKTIONSELEMENTE
100
AcDbLine
 62
7
  6
CONTINUOUS
 10
83.4416137233
 20
151.1346146808
 11
83.4416137233
 21
140.460171614
  0
LINE
  5
220
100
AcDbEntity
  8
KONSTRUKTIONSELEMENTE
100
AcDbLine
 62
7
  6
CONTINUOUS
 10
83.4416137233
 20
102.8664129251
 11
83.4416137233
 21
88.9846146808
  0
LINE
  5
221
100
AcDbEntity
  8
KONSTRUKTIONSELEMENTE
100
AcDbLine
 62
7
  6
CONTINUOUS
 10
117.2394860282
 20
97.7346146808
 11
117.8352307573
 21
97.8179476962
  0
LINE
  5
222
100
AcDbEntity
  8
KONSTRUKTIONSELEMENTE
100
AcDbLine
 62
7
  6
CONTINUOUS
 10
114.9416137233
 20
94.7346146808
 11
116.5586350455
 21
94.7346146808
  0
LINE
  5
223
100
AcDbEntity
  8
KONSTRUKTIONSELEMENTE
100
AcDbLine
 62
7
  6
CONTINUOUS
 10
117.0692732825
 20
94.7346146808
 11
118.9416137233
 21
94.7346146808
  0
LINE
  5
224
100
AcDbEntity
  8
KONSTRUKTIONSELEMENTE
100
AcDbLine
 62
7
  6
CONTINUOUS
 10
118.9416137233
 20
95.2346146808
 11
114.9416137233
 21
95.2346146808
  0
LINE
  5
225
100
AcDbEntity
  8
KONSTRUKTIONSELEMENTE
100
AcDbLine
 62
7
  6
CONTINUOUS
 10
117.0692732825
 20
95.9012816653
 11
117.4948052659
 21
95.9012816653
  0
LINE
  5
226
100
AcDbEntity
  8
KONSTRUKTIONSELEMENTE
100
AcDbLine
 62
7
  6
CONTINUOUS
 10
118.9416137233
 20
89.9012814269
 11
114.9416137233
 21
91.2346146808
  0
LINE
  5
227
100
AcDbEntity
  8
KONSTRUKTIONSELEMENTE
100
AcDbLine
 62
7
  6
CONTINUOUS
 10
114.9416137233
 20
90.7346146808
 11
118.4309754267
 21
89.5679479347
  0
LINE
  5
228
100
AcDbEntity
  8
AUSFORMSCHRAEGEN
100
AcDbLine
 62
7
  6
CONTINUOUS
 10
96.6310109453
 20
85.6320746375
 11
96.5837514906
 21
85.7229925845
  0
LINE
  5
229
100
AcDbEntity
  8
KONSTRUKTIONSELEMENTE
100
AcDbLine
 62
7
  6
CONTINUOUS
 10
83.9003220137
 20
117.0327480101
 11
82.0848880652
 21
115.5094180535
  0
LINE
  5
22A
100
AcDbEntity
  8
KONSTRUKTIONSELEMENTE
100
AcDbLine
 62
7
  6
CONTINUOUS
 10
117.4948052659
 20
97.0679476962
 11
117.0692732825
 21
97.0679476962
  0
LINE
  5
22B
100
AcDbEntity
  8
KONSTRUKTIONSELEMENTE
100
AcDbLine
 62
7
  6
CONTINUOUS
 10
116.6437414184
 20
97.7346146808
 11
117.2394860282
 21
97.7346146808
  0
LINE
  5
22C
100
AcDbEntity
  8
KONSTRUKTIONSELEMENTE
100
AcDbLine
 62
7
  6
CONTINUOUS
 10
116.813954164
 20
98.1512816653
 11
116.6437414184
 21
98.1512816653
  0
LINE
  5
22D
100
AcDbEntity
  8
KONSTRUKTIONSELEMENTE
100
AcDbLine
 62
7
  6
CONTINUOUS
 10
117.7501243844
 20
98.2346146808
 11
117.4948052659
 21
98.2346146808
  0
LINE
  5
22E
100
AcDbEntity
  8
KONSTRUKTIONSELEMENTE
100
AcDbLine
 62
7
  6
CONTINUOUS
 10
116.0479968085
 20
97.8179476962
 11
116.6437414184
 21
97.7346146808
  0
LINE
  5
22F
100
AcDbEntity
  8
KONSTRUKTIONSELEMENTE
100
AcDbLine
 62
7
  6
CONTINUOUS
 10
82.3312529803
 20
113.7346146808
 11
81.4044068984
 21
114.8391868287
  0
LINE
  5
230
100
AcDbEntity
  8
KONSTRUKTIONSELEMENTE
100
AcDbLine
 62
7
  6
CONTINUOUS
 10
90.3924506254
 20
105.4659411273
 11
88.126043072
 21
108.1669404714
  0
LINE
  5
231
100
AcDbEntity
  8
KONSTRUKTIONSELEMENTE
100
AcDbLine
 62
7
  6
CONTINUOUS
 10
91.0798726224
 20
88.7996134614
 11
91.0798726224
 21
103.577264713
  0
LINE
  5
232
100
AcDbEntity
  8
KONSTRUKTIONSELEMENTE
100
AcDbLine
 62
7
  6
CONTINUOUS
 10
91.9875989356
 20
147.6346146808
 11
91.9875989356
 21
145.1346146808
  0
LINE
  5
233
100
AcDbEntity
  8
0
100
AcDbLine
 62
7
  6
CONTINUOUS
 10
91.9875989356
 20
149.6102244369
 11
91.9875989356
 21
156.6346146808
  0
LINE
  5
234
100
AcDbEntity
  8
KONSTRUKTIONSELEMENTE
100
AcDbLine
 62
7
  6
CONTINUOUS
 10
117.4948052659
 20
100.3179476962
 11
117.7501243844
 21
100.3179476962
  0
LINE
  5
235
100
AcDbEntity
  8
KONSTRUKTIONSELEMENTE
100
AcDbLine
 62
7
  6
CONTINUOUS
 10
117.8352307573
 20
100.7346146808
 11
117.4096987739
 21
100.7346146808
  0
LINE
  5
236
100
AcDbEntity
  8
KONSTRUKTIONSELEMENTE
100
AcDbLine
 62
7
  6
CONTINUOUS
 10
116.6437414184
 20
98.1512816653
 11
116.1331031814
 21
98.2346146808
  0
LINE
  5
237
100
AcDbEntity
  8
KONSTRUKTIONSELEMENTE
100
AcDbLine
 62
7
  6
CONTINUOUS
 10
117.9203371301
 20
109.8179486499
 11
117.5799116388
 21
109.7346146808
  0
LINE
  5
238
100
AcDbEntity
  8
KONSTRUKTIONSELEMENTE
100
AcDbLine
 62
7
  6
CONTINUOUS
 10
117.5799116388
 20
109.2346146808
 11
118.0054435029
 21
109.3179486499
  0
LINE
  5
239
100
AcDbEntity
  8
KONSTRUKTIONSELEMENTE
100
AcDbLine
 62
7
  6
CONTINUOUS
 10
114.9416137233
 20
105.4012807117
 11
118.9416137233
 21
105.4012807117
  0
LINE
  5
23A
100
AcDbEntity
  8
KONSTRUKTIONSELEMENTE
100
AcDbLine
 62
7
  6
CONTINUOUS
 10
118.9416137233
 20
105.9012807117
 11
117.1543796554
 21
105.9012807117
  0
LINE
  5
23B
100
AcDbEntity
  8
KONSTRUKTIONSELEMENTE
100
AcDbLine
 62
7
  6
CONTINUOUS
 10
116.6437414184
 20
105.9012807117
 11
115.3671455875
 21
105.9012807117
  0
LINE
  5
23C
100
AcDbEntity
  8
KONSTRUKTIONSELEMENTE
100
AcDbLine
 62
7
  6
CONTINUOUS
 10
116.1331031814
 20
98.2346146808
 11
115.8777838245
 21
98.3179476962
  0
LINE
  5
23D
100
AcDbEntity
  8
KONSTRUKTIONSELEMENTE
100
AcDbLine
 62
7
  6
CONTINUOUS
 10
117.4948052659
 20
98.2346146808
 11
117.2394860282
 21
98.3179476962
  0
LINE
  5
23E
100
AcDbEntity
  8
KONSTRUKTIONSELEMENTE
100
AcDbLine
 62
7
  6
CONTINUOUS
 10
117.7501243844
 20
100.3179476962
 11
118.0054435029
 21
100.2346146808
  0
LINE
  5
23F
100
AcDbEntity
  8
KONSTRUKTIONSELEMENTE
100
AcDbLine
 62
7
  6
CONTINUOUS
 10
115.622464706
 20
97.9846146808
 11
116.0479968085
 21
97.8179476962
  0
LINE
  5
240
100
AcDbEntity
  8
KONSTRUKTIONSELEMENTE
100
AcDbLine
 62
7
  6
CONTINUOUS
 10
94.7869469947
 20
108.7257450584
 11
88.1268181721
 21
116.6629775099
  0
LINE
  5
241
100
AcDbEntity
  8
0
100
AcDbLine
 62
7
  6
CONTINUOUS
 10
96.5416137233
 20
155.3145246689
 11
96.5416137233
 21
147.6346146808
  0
LINE
  5
242
100
AcDbEntity
  8
KONSTRUKTIONSELEMENTE
100
AcDbLine
 62
7
  6
CONTINUOUS
 10
96.5416137233
 20
147.6346146808
 11
96.5416137233
 21
136.8346146808
  0
LINE
  5
243
100
AcDbEntity
  8
KONSTRUKTIONSELEMENTE
100
AcDbLine
 62
7
  6
CONTINUOUS
 10
96.5416137233
 20
93.4346146808
 11
96.5416137233
 21
103.9048379238
  0
LINE
  5
244
100
AcDbEntity
  8
KONSTRUKTIONSELEMENTE
100
AcDbLine
 62
7
  6
CONTINUOUS
 10
97.8416137233
 20
92.2790014517
 11
97.8416137233
 21
89.2413354353
  0
LINE
  5
245
100
AcDbEntity
  8
AUSFORMSCHRAEGEN
100
AcDbLine
 62
7
  6
CONTINUOUS
 10
97.8416137233
 20
89.2413354353
 11
97.8416137233
 21
85.7229925845
  0
LINE
  5
246
100
AcDbEntity
  8
AUSFORMSCHRAEGEN
100
AcDbLine
 62
7
  6
CONTINUOUS
 10
97.8416137233
 20
69.5980213751
 11
97.8416137233
 21
79.242688692
  0
LINE
  5
247
100
AcDbEntity
  8
KONSTRUKTIONSELEMENTE
100
AcDbLine
 62
7
  6
CONTINUOUS
 10
115.8777838245
 20
107.9846146808
 11
116.1331031814
 21
107.9846146808
  0
LINE
  5
248
100
AcDbEntity
  8
KONSTRUKTIONSELEMENTE
100
AcDbLine
 62
7
  6
CONTINUOUS
 10
116.2182095542
 20
108.4846146808
 11
115.8777838245
 21
108.4846146808
  0
LINE
  5
249
100
AcDbEntity
  8
KONSTRUKTIONSELEMENTE
100
AcDbLine
 62
7
  6
CONTINUOUS
 10
114.9416137233
 20
109.2346146808
 11
117.5799116388
 21
109.2346146808
  0
LINE
  5
24A
100
AcDbEntity
  8
KONSTRUKTIONSELEMENTE
100
AcDbLine
 62
7
  6
CONTINUOUS
 10
117.5799116388
 20
109.7346146808
 11
114.9416137233
 21
109.7346146808
  0
LINE
  5
24B
100
AcDbEntity
  8
KONSTRUKTIONSELEMENTE
100
AcDbLine
 62
7
  6
CONTINUOUS
 10
118.260762681
 20
100.5679476962
 11
117.8352307573
 21
100.7346146808
  0
LINE
  5
24C
100
AcDbEntity
  8
KONSTRUKTIONSELEMENTE
100
AcDbLine
 62
7
  6
CONTINUOUS
 10
115.8777838245
 20
98.3179476962
 11
115.622464706
 21
98.4846146808
  0
LINE
  5
24D
100
AcDbEntity
  8
KONSTRUKTIONSELEMENTE
100
AcDbLine
 62
7
  6
CONTINUOUS
 10
115.2820392146
 20
98.2346146808
 11
115.622464706
 21
97.9846146808
  0
LINE
  5
24E
100
AcDbEntity
  8
BEZUGSACHSEN
100
AcDbLine
 62
2
  6
CENTER
 10
100.2416137233
 20
65.7335447039
 11
100.2416137233
 21
159.6899998189
  0
LINE
  5
24F
100
AcDbEntity
  8
AUSFORMSCHRAEGEN
100
AcDbLine
 62
7
  6
CONTINUOUS
 10
95.303711017
 20
77.4377371047
 11
96.5837514906
 21
85.7229925845
  0
LINE
  5
250
100
AcDbEntity
  8
KONSTRUKTIONSELEMENTE
100
AcDbLine
 62
7
  6
CONTINUOUS
 10
115.9628904357
 20
115.6512807117
 11
116.303315927
 21
115.7346146808
  0
LINE
  5
251
100
AcDbEntity
  8
KONSTRUKTIONSELEMENTE
100
AcDbLine
 62
7
  6
CONTINUOUS
 10
114.9416137233
 20
111.7346146808
 11
117.5799116388
 21
111.7346146808
  0
LINE
  5
252
100
AcDbEntity
  8
KONSTRUKTIONSELEMENTE
100
AcDbLine
 62
7
  6
CONTINUOUS
 10
117.5799116388
 20
112.2346146808
 11
114.9416137233
 21
112.2346146808
  0
LINE
  5
253
100
AcDbEntity
  8
KONSTRUKTIONSELEMENTE
100
AcDbLine
 62
7
  6
CONTINUOUS
 10
114.9416137233
 20
112.9012807117
 11
118.9416137233
 21
112.9012807117
  0
LINE
  5
254
100
AcDbEntity
  8
KONSTRUKTIONSELEMENTE
100
AcDbLine
 62
7
  6
CONTINUOUS
 10
116.1331031814
 20
107.9846146808
 11
116.3884222999
 21
107.9012807117
  0
LINE
  5
255
100
AcDbEntity
  8
KONSTRUKTIONSELEMENTE
100
AcDbLine
 62
7
  6
CONTINUOUS
 10
116.4735286727
 20
108.4012807117
 11
116.2182095542
 21
108.4846146808
  0
LINE
  5
256
100
AcDbEntity
  8
KONSTRUKTIONSELEMENTE
100
AcDbLine
 62
7
  6
CONTINUOUS
 10
118.0054435029
 20
100.2346146808
 11
118.260762681
 21
100.0679476962
  0
LINE
  5
257
100
AcDbEntity
  8
KONSTRUKTIONSELEMENTE
100
AcDbLine
 62
7
  6
CONTINUOUS
 10
118.6011882022
 20
100.3179476962
 11
118.260762681
 21
100.5679476962
  0
LINE
  5
258
100
AcDbEntity
  8
KONSTRUKTIONSELEMENTE
100
AcDbLine
 62
7
  6
CONTINUOUS
 10
117.2394860282
 20
98.3179476962
 11
117.0692732825
 21
98.4846146808
  0
LINE
  5
259
100
AcDbEntity
  8
AUSFORMSCHRAEGEN
100
AcDbLine
 62
7
  6
CONTINUOUS
 10
105.1795164296
 20
77.4377371047
 11
103.899475956
 21
85.7229925845
  0
LINE
  5
25A
100
AcDbEntity
  8
KONSTRUKTIONSELEMENTE
100
AcDbLine
 62
7
  6
CONTINUOUS
 10
102.6416137233
 20
92.2790014517
 11
102.6416137233
 21
89.2413354353
  0
LINE
  5
25B
100
AcDbEntity
  8
AUSFORMSCHRAEGEN
100
AcDbLine
 62
7
  6
CONTINUOUS
 10
102.6416137233
 20
89.2413354353
 11
102.6416137233
 21
85.7229925845
  0
LINE
  5
25C
100
AcDbEntity
  8
AUSFORMSCHRAEGEN
100
AcDbLine
 62
7
  6
CONTINUOUS
 10
102.6416137233
 20
68.7618552252
 11
102.6416137233
 21
79.242688692
  0
LINE
  5
25D
100
AcDbEntity
  8
KONSTRUKTIONSELEMENTE
100
AcDbLine
 62
7
  6
CONTINUOUS
 10
103.9416137233
 20
147.6346146808
 11
103.9416137233
 21
136.8346146808
  0
LINE
  5
25E
100
AcDbEntity
  8
KONSTRUKTIONSELEMENTE
100
AcDbLine
 62
7
  6
CONTINUOUS
 10
103.9416137233
 20
93.4346146808
 11
103.9416137233
 21
109.0409944679
  0
LINE
  5
25F
100
AcDbEntity
  8
0
100
AcDbLine
 62
7
  6
CONTINUOUS
 10
103.9416137233
 20
147.6346146808
 11
103.9416137233
 21
155.3145246689
  0
LINE
  5
260
100
AcDbEntity
  8
KONSTRUKTIONSELEMENTE
100
AcDbLine
 62
7
  6
CONTINUOUS
 10
115.8777838245
 20
116.1512807117
 11
115.5373583331
 21
115.9846146808
  0
LINE
  5
261
100
AcDbEntity
  8
KONSTRUKTIONSELEMENTE
100
AcDbLine
 62
7
  6
CONTINUOUS
 10
116.303315927
 20
116.2346146808
 11
115.8777838245
 21
116.1512807117
  0
LINE
  5
262
100
AcDbEntity
  8
KONSTRUKTIONSELEMENTE
100
AcDbLine
 62
7
  6
CONTINUOUS
 10
118.4309754267
 20
113.4012807117
 11
115.4522519603
 21
113.4012807117
  0
LINE
  5
263
100
AcDbEntity
  8
KONSTRUKTIONSELEMENTE
100
AcDbLine
 62
7
  6
CONTINUOUS
 10
80.6463946602
 20
113.7346146808
 11
82.3312529803
 21
113.7346146808
  0
LINE
  5
264
100
AcDbEntity
  8
KONSTRUKTIONSELEMENTE
100
AcDbLine
 62
7
  6
CONTINUOUS
 10
116.303315927
 20
115.7346146808
 11
117.5799116388
 21
115.7346146808
  0
LINE
  5
265
100
AcDbEntity
  8
KONSTRUKTIONSELEMENTE
100
AcDbLine
 62
7
  6
CONTINUOUS
 10
117.5799116388
 20
116.2346146808
 11
116.303315927
 21
116.2346146808
  0
LINE
  5
266
100
AcDbEntity
  8
KONSTRUKTIONSELEMENTE
100
AcDbLine
 62
7
  6
CONTINUOUS
 10
118.0054435029
 20
112.1512807117
 11
117.5799116388
 21
112.2346146808
  0
LINE
  5
267
100
AcDbEntity
  8
KONSTRUKTIONSELEMENTE
100
AcDbLine
 62
7
  6
CONTINUOUS
 10
117.5799116388
 20
111.7346146808
 11
117.9203371301
 21
111.6512807117
  0
LINE
  5
268
100
AcDbEntity
  8
KONSTRUKTIONSELEMENTE
100
AcDbLine
 62
7
  6
CONTINUOUS
 10
102.2571337138
 20
113.6690652577
 11
86.2490804059
 21
132.7467202978
  0
LINE
  5
269
100
AcDbEntity
  8
KONSTRUKTIONSELEMENTE
100
AcDbLine
 62
7
  6
CONTINUOUS
 10
115.622464706
 20
98.4846146808
 11
115.4522519603
 21
98.7346146808
  0
LINE
  5
26A
100
AcDbEntity
  8
0
100
AcDbLine
 62
7
  6
CONTINUOUS
 10
108.495628511
 20
156.6346146808
 11
108.495628511
 21
149.6102244369
  0
LINE
  5
26B
100
AcDbEntity
  8
KONSTRUKTIONSELEMENTE
100
AcDbLine
 62
7
  6
CONTINUOUS
 10
108.495628511
 20
147.6346146808
 11
108.495628511
 21
145.1346146808
  0
LINE
  5
26C
100
AcDbEntity
  8
KONSTRUKTIONSELEMENTE
100
AcDbLine
 62
7
  6
CONTINUOUS
 10
115.7075710788
 20
115.4846146808
 11
115.9628904357
 21
115.6512807117
  0
LINE
  5
26D
100
AcDbEntity
  8
KONSTRUKTIONSELEMENTE
100
AcDbLine
 62
7
  6
CONTINUOUS
 10
118.0054435029
 20
116.1512807117
 11
117.5799116388
 21
116.2346146808
  0
LINE
  5
26E
100
AcDbEntity
  8
KONSTRUKTIONSELEMENTE
100
AcDbLine
 62
7
  6
CONTINUOUS
 10
117.5799116388
 20
115.7346146808
 11
117.9203371301
 21
115.6512807117
  0
LINE
  5
26F
100
AcDbEntity
  8
KONSTRUKTIONSELEMENTE
100
AcDbLine
 62
7
  6
CONTINUOUS
 10
118.3458690539
 20
111.9846146808
 11
118.0054435029
 21
112.1512807117
  0
LINE
  5
270
100
AcDbEntity
  8
KONSTRUKTIONSELEMENTE
100
AcDbLine
 62
7
  6
CONTINUOUS
 10
116.813954164
 20
108.1512807117
 11
116.4735286727
 21
108.4012807117
  0
LINE
  5
271
100
AcDbEntity
  8
KONSTRUKTIONSELEMENTE
100
AcDbLine
 62
7
  6
CONTINUOUS
 10
116.3884222999
 20
107.9012807117
 11
116.5586350455
 21
107.7346146808
  0
LINE
  5
272
100
AcDbEntity
  8
KONSTRUKTIONSELEMENTE
100
AcDbLine
 62
7
  6
CONTINUOUS
 10
116.4735286727
 20
98.6512816653
 11
116.813954164
 21
98.1512816653
  0
LINE
  5
273
100
AcDbEntity
  8
KONSTRUKTIONSELEMENTE
100
AcDbLine
 62
7
  6
CONTINUOUS
 10
117.0692732825
 20
98.4846146808
 11
116.8990605369
 21
98.7346146808
  0
LINE
  5
274
100
AcDbEntity
  8
KONSTRUKTIONSELEMENTE
100
AcDbLine
 62
7
  6
CONTINUOUS
 10
118.260762681
 20
100.0679476962
 11
118.4309754267
 21
99.8179476962
  0
LINE
  5
275
100
AcDbEntity
  8
KONSTRUKTIONSELEMENTE
100
AcDbLine
 62
7
  6
CONTINUOUS
 10
115.0267200961
 20
98.6512816653
 11
115.2820392146
 21
98.2346146808
  0
LINE
  5
276
100
AcDbEntity
  8
KONSTRUKTIONSELEMENTE
100
AcDbLine
 62
7
  6
CONTINUOUS
 10
111.3659114539
 20
73.3699207999
 11
111.3659114539
 21
109.0409944679
  0
LINE
  5
277
100
AcDbEntity
  8
KONSTRUKTIONSELEMENTE
100
AcDbLine
 62
7
  6
CONTINUOUS
 10
115.5373583331
 20
115.2346146808
 11
115.7075710788
 21
115.4846146808
  0
LINE
  5
278
100
AcDbEntity
  8
KONSTRUKTIONSELEMENTE
100
AcDbLine
 62
7
  6
CONTINUOUS
 10
115.5373583331
 20
115.9846146808
 11
115.1969328418
 21
115.6512807117
  0
LINE
  5
279
100
AcDbEntity
  8
KONSTRUKTIONSELEMENTE
100
AcDbLine
 62
7
  6
CONTINUOUS
 10
118.0054435029
 20
109.3179486499
 11
118.3458690539
 21
109.4846146808
  0
LINE
  5
27A
100
AcDbEntity
  8
KONSTRUKTIONSELEMENTE
100
AcDbLine
 62
7
  6
CONTINUOUS
 10
118.9416137233
 20
108.5679486499
 11
116.9841669097
 21
107.8179486499
  0
LINE
  5
27B
100
AcDbEntity
  8
KONSTRUKTIONSELEMENTE
100
AcDbLine
 62
7
  6
CONTINUOUS
 10
115.8777838245
 20
108.4846146808
 11
115.622464706
 21
108.4012807117
  0
LINE
  5
27C
100
AcDbEntity
  8
KONSTRUKTIONSELEMENTE
100
AcDbLine
 62
7
  6
CONTINUOUS
 10
115.622464706
 20
107.9012807117
 11
115.8777838245
 21
107.9846146808
  0
LINE
  5
27D
100
AcDbEntity
  8
KONSTRUKTIONSELEMENTE
100
AcDbLine
 62
7
  6
CONTINUOUS
 10
118.3458690539
 20
115.9846146808
 11
118.0054435029
 21
116.1512807117
  0
LINE
  5
27E
100
AcDbEntity
  8
KONSTRUKTIONSELEMENTE
100
AcDbLine
 62
7
  6
CONTINUOUS
 10
117.9203371301
 20
111.6512807117
 11
118.1756562486
 21
111.4846146808
  0
LINE
  5
27F
100
AcDbEntity
  8
KONSTRUKTIONSELEMENTE
100
AcDbLine
 62
7
  6
CONTINUOUS
 10
107.9444757344
 20
118.4413118496
 11
97.4612469884
 21
130.9347373695
  0
LINE
  5
280
100
AcDbEntity
  8
KONSTRUKTIONSELEMENTE
100
AcDbLine
 62
7
  6
CONTINUOUS
 10
118.856507343
 20
99.9012816653
 11
118.6011882022
 21
100.3179476962
  0
LINE
  5
281
100
AcDbEntity
  8
KONSTRUKTIONSELEMENTE
100
AcDbLine
 62
7
  6
CONTINUOUS
 10
115.4522519603
 20
98.7346146808
 11
115.3671455875
 21
98.9846146808
  0
LINE
  5
282
100
AcDbEntity
  8
KONSTRUKTIONSELEMENTE
100
AcDbLine
 62
7
  6
CONTINUOUS
 10
116.8990605369
 20
98.7346146808
 11
116.813954164
 21
98.9846146808
  0
LINE
  5
283
100
AcDbEntity
  8
KONSTRUKTIONSELEMENTE
100
AcDbLine
 62
7
  6
CONTINUOUS
 10
114.9416137233
 20
99.0679476962
 11
115.0267200961
 21
98.6512816653
  0
LINE
  5
284
100
AcDbEntity
  8
KONSTRUKTIONSELEMENTE
100
AcDbLine
 62
7
  6
CONTINUOUS
 10
114.9416137233
 20
114.9012807117
 11
114.9416137233
 21
112.9012807117
  0
LINE
  5
285
100
AcDbEntity
  8
KONSTRUKTIONSELEMENTE
100
AcDbLine
 62
7
  6
CONTINUOUS
 10
114.9416137233
 20
112.2346146808
 11
114.9416137233
 21
111.7346146808
  0
LINE
  5
286
100
AcDbEntity
  8
KONSTRUKTIONSELEMENTE
100
AcDbLine
 62
7
  6
CONTINUOUS
 10
114.9416137233
 20
109.7346146808
 11
114.9416137233
 21
109.2346146808
  0
LINE
  5
287
100
AcDbEntity
  8
KONSTRUKTIONSELEMENTE
100
AcDbLine
 62
7
  6
CONTINUOUS
 10
114.9416137233
 20
107.4012807117
 11
114.9416137233
 21
105.4012807117
  0
LINE
  5
288
100
AcDbEntity
  8
KONSTRUKTIONSELEMENTE
100
AcDbLine
 62
7
  6
CONTINUOUS
 10
114.9416137233
 20
99.4012816653
 11
114.9416137233
 21
99.0679476962
  0
LINE
  5
289
100
AcDbEntity
  8
KONSTRUKTIONSELEMENTE
100
AcDbLine
 62
7
  6
CONTINUOUS
 10
114.9416137233
 20
95.2346146808
 11
114.9416137233
 21
94.7346146808
  0
LINE
  5
28A
100
AcDbEntity
  8
KONSTRUKTIONSELEMENTE
100
AcDbLine
 62
7
  6
CONTINUOUS
 10
114.9416137233
 20
92.4012811885
 11
114.9416137233
 21
91.9012811885
  0
LINE
  5
28B
100
AcDbEntity
  8
KONSTRUKTIONSELEMENTE
100
AcDbLine
 62
7
  6
CONTINUOUS
 10
114.9416137233
 20
91.2346146808
 11
114.9416137233
 21
90.7346146808
  0
LINE
  5
28C
100
AcDbEntity
  8
KONSTRUKTIONSELEMENTE
100
AcDbLine
 62
7
  6
CONTINUOUS
 10
114.9416137233
 20
88.4012813077
 11
114.9416137233
 21
87.9012813077
  0
LINE
  5
28D
100
AcDbEntity
  8
KONSTRUKTIONSELEMENTE
100
AcDbLine
 62
7
  6
CONTINUOUS
 10
114.9416137233
 20
87.2346146808
 11
114.9416137233
 21
86.7346146808
  0
LINE
  5
28E
100
AcDbEntity
  8
KONSTRUKTIONSELEMENTE
100
AcDbLine
 62
7
  6
CONTINUOUS
 10
115.3671455875
 20
98.9846146808
 11
115.3671455875
 21
99.4846146808
  0
LINE
  5
28F
100
AcDbEntity
  8
KONSTRUKTIONSELEMENTE
100
AcDbLine
 62
7
  6
CONTINUOUS
 10
115.3671455875
 20
105.9012807117
 11
115.3671455875
 21
107.4846146808
  0
LINE
  5
290
100
AcDbEntity
  8
KONSTRUKTIONSELEMENTE
100
AcDbLine
 62
7
  6
CONTINUOUS
 10
115.4522519603
 20
113.4012807117
 11
115.4522519603
 21
114.9012807117
  0
LINE
  5
291
100
AcDbEntity
  8
KONSTRUKTIONSELEMENTE
100
AcDbLine
 62
7
  6
CONTINUOUS
 10
115.0267200961
 20
115.3179486499
 11
114.9416137233
 21
114.9012807117
  0
LINE
  5
292
100
AcDbEntity
  8
KONSTRUKTIONSELEMENTE
100
AcDbLine
 62
7
  6
CONTINUOUS
 10
115.4522519603
 20
114.9012807117
 11
115.5373583331
 21
115.2346146808
  0
LINE
  5
293
100
AcDbEntity
  8
KONSTRUKTIONSELEMENTE
100
AcDbLine
 62
7
  6
CONTINUOUS
 10
115.1969328418
 20
115.6512807117
 11
115.0267200961
 21
115.3179486499
  0
LINE
  5
294
100
AcDbEntity
  8
KONSTRUKTIONSELEMENTE
100
AcDbLine
 62
7
  6
CONTINUOUS
 10
115.2820392146
 20
108.1512807117
 11
115.0267200961
 21
107.8179486499
  0
LINE
  5
295
100
AcDbEntity
  8
KONSTRUKTIONSELEMENTE
100
AcDbLine
 62
7
  6
CONTINUOUS
 10
115.4522519603
 20
107.7346146808
 11
115.622464706
 21
107.9012807117
  0
LINE
  5
296
100
AcDbEntity
  8
KONSTRUKTIONSELEMENTE
100
AcDbLine
 62
7
  6
CONTINUOUS
 10
115.622464706
 20
108.4012807117
 11
115.2820392146
 21
108.1512807117
  0
LINE
  5
297
100
AcDbEntity
  8
KONSTRUKTIONSELEMENTE
100
AcDbLine
 62
7
  6
CONTINUOUS
 10
118.1756562486
 20
109.9846146808
 11
117.9203371301
 21
109.8179486499
  0
LINE
  5
298
100
AcDbEntity
  8
KONSTRUKTIONSELEMENTE
100
AcDbLine
 62
7
  6
CONTINUOUS
 10
117.1543796554
 20
107.3179486499
 11
118.9416137233
 21
107.9846146808
  0
LINE
  5
299
100
AcDbEntity
  8
KONSTRUKTIONSELEMENTE
100
AcDbLine
 62
7
  6
CONTINUOUS
 10
117.9203371301
 20
115.6512807117
 11
118.1756562486
 21
115.4846146808
  0
LINE
  5
29A
100
AcDbEntity
  8
KONSTRUKTIONSELEMENTE
100
AcDbLine
 62
7
  6
CONTINUOUS
 10
118.686294575
 20
111.6512807117
 11
118.3458690539
 21
111.9846146808
  0
LINE
  5
29B
100
AcDbEntity
  8
KONSTRUKTIONSELEMENTE
100
AcDbLine
 62
7
  6
CONTINUOUS
 10
118.1756562486
 20
111.4846146808
 11
118.3458690539
 21
111.2346146808
  0
LINE
  5
29C
100
AcDbEntity
  8
KONSTRUKTIONSELEMENTE
100
AcDbLine
 62
7
  6
CONTINUOUS
 10
116.9841669097
 20
107.8179486499
 11
116.813954164
 21
108.1512807117
  0
LINE
  5
29D
100
AcDbEntity
  8
KONSTRUKTIONSELEMENTE
100
AcDbLine
 62
7
  6
CONTINUOUS
 10
118.4309754267
 20
99.8179476962
 11
118.5160817995
 21
99.5679476962
  0
LINE
  5
29E
100
AcDbEntity
  8
KONSTRUKTIONSELEMENTE
100
AcDbLine
 62
7
  6
CONTINUOUS
 10
116.5586350455
 20
107.7346146808
 11
116.6437414184
 21
107.4846146808
  0
LINE
  5
29F
100
AcDbEntity
  8
KONSTRUKTIONSELEMENTE
100
AcDbLine
 62
7
  6
CONTINUOUS
 10
116.3884222999
 20
99.0679476962
 11
116.4735286727
 21
98.6512816653
  0
LINE
  5
2A0
100
AcDbEntity
  8
KONSTRUKTIONSELEMENTE
100
AcDbLine
 62
7
  6
CONTINUOUS
 10
115.8777838245
 20
100.1512816653
 11
115.8777838245
 21
100.5679476962
  0
LINE
  5
2A1
100
AcDbEntity
  8
KONSTRUKTIONSELEMENTE
100
AcDbLine
 62
7
  6
CONTINUOUS
 10
116.3884222999
 20
99.4846146808
 11
116.3884222999
 21
99.0679476962
  0
LINE
  5
2A2
100
AcDbEntity
  8
KONSTRUKTIONSELEMENTE
100
AcDbLine
 62
7
  6
CONTINUOUS
 10
116.5586350455
 20
94.7346146808
 11
116.5586350455
 21
92.4012811885
  0
LINE
  5
2A3
100
AcDbEntity
  8
KONSTRUKTIONSELEMENTE
100
AcDbLine
 62
7
  6
CONTINUOUS
 10
116.6437414184
 20
107.4846146808
 11
116.6437414184
 21
105.9012807117
  0
LINE
  5
2A4
100
AcDbEntity
  8
KONSTRUKTIONSELEMENTE
100
AcDbLine
 62
7
  6
CONTINUOUS
 10
116.813954164
 20
98.9846146808
 11
116.813954164
 21
99.5679476962
  0
LINE
  5
2A5
100
AcDbEntity
  8
KONSTRUKTIONSELEMENTE
100
AcDbLine
 62
7
  6
CONTINUOUS
 10
117.0416137233
 20
134.3346146808
 11
117.0416137233
 21
151.1346146808
  0
LINE
  5
2A6
100
AcDbEntity
  8
KONSTRUKTIONSELEMENTE
100
AcDbLine
 62
7
  6
CONTINUOUS
 10
117.0692732825
 20
97.0679476962
 11
117.0692732825
 21
95.9012816653
  0
LINE
  5
2A7
100
AcDbEntity
  8
KONSTRUKTIONSELEMENTE
100
AcDbLine
 62
7
  6
CONTINUOUS
 10
117.0692732825
 20
92.4012811885
 11
117.0692732825
 21
94.7346146808
  0
LINE
  5
2A8
100
AcDbEntity
  8
KONSTRUKTIONSELEMENTE
100
AcDbLine
 62
7
  6
CONTINUOUS
 10
117.1543796554
 20
105.9012807117
 11
117.1543796554
 21
107.3179486499
  0
LINE
  5
2A9
100
AcDbEntity
  8
KONSTRUKTIONSELEMENTE
100
AcDbLine
 62
7
  6
CONTINUOUS
 10
117.4948052659
 20
95.9012816653
 11
117.4948052659
 21
97.0679476962
  0
LINE
  5
2AA
100
AcDbEntity
  8
KONSTRUKTIONSELEMENTE
100
AcDbLine
 62
7
  6
CONTINUOUS
 10
118.4309754267
 20
114.9012807117
 11
118.4309754267
 21
113.4012807117
  0
LINE
  5
2AB
100
AcDbEntity
  8
KONSTRUKTIONSELEMENTE
100
AcDbLine
 62
7
  6
CONTINUOUS
 10
118.4309754267
 20
110.9012807117
 11
118.4309754267
 21
110.5679486499
  0
LINE
  5
2AC
100
AcDbEntity
  8
KONSTRUKTIONSELEMENTE
100
AcDbLine
 62
7
  6
CONTINUOUS
 10
118.5160817995
 20
99.5679476962
 11
118.5160817995
 21
98.9846146808
  0
LINE
  5
2AD
100
AcDbEntity
  8
KONSTRUKTIONSELEMENTE
100
AcDbLine
 62
7
  6
CONTINUOUS
 10
115.0267200961
 20
107.8179486499
 11
114.9416137233
 21
107.4012807117
  0
LINE
  5
2AE
100
AcDbEntity
  8
KONSTRUKTIONSELEMENTE
100
AcDbLine
 62
7
  6
CONTINUOUS
 10
115.0267200961
 20
99.8179476962
 11
114.9416137233
 21
99.4012816653
  0
LINE
  5
2AF
100
AcDbEntity
  8
KONSTRUKTIONSELEMENTE
100
AcDbLine
 62
7
  6
CONTINUOUS
 10
116.4735286727
 20
99.9012816653
 11
116.3884222999
 21
99.4846146808
  0
LINE
  5
2B0
100
AcDbEntity
  8
KONSTRUKTIONSELEMENTE
100
AcDbLine
 62
7
  6
CONTINUOUS
 10
118.4309754267
 20
110.5679486499
 11
118.3458690539
 21
110.2346146808
  0
LINE
  5
2B1
100
AcDbEntity
  8
KONSTRUKTIONSELEMENTE
100
AcDbLine
 62
7
  6
CONTINUOUS
 10
115.3671455875
 20
107.4846146808
 11
115.4522519603
 21
107.7346146808
  0
LINE
  5
2B2
100
AcDbEntity
  8
AUSFORMSCHRAEGEN
100
AcDbLine
 62
7
  6
CONTINUOUS
 10
102.8663368019
 20
68.7514385089
 11
104.9446132796
 21
74.2655384999
  0
LINE
  5
2B3
100
AcDbEntity
  8
KONSTRUKTIONSELEMENTE
100
AcDbLine
 62
7
  6
CONTINUOUS
 10
118.686294575
 20
109.8179486499
 11
118.856507343
 21
110.1512807117
  0
LINE
  5
2B4
100
AcDbEntity
  8
AUSFORMSCHRAEGEN
100
AcDbLine
 62
7
  6
CONTINUOUS
 10
103.8522165013
 20
85.6320746375
 11
103.899475956
 21
85.7229925845
  0
LINE
  5
2B5
100
AcDbEntity
  8
KONSTRUKTIONSELEMENTE
100
AcDbLine
 62
7
  6
CONTINUOUS
 10
118.3458690539
 20
110.2346146808
 11
118.1756562486
 21
109.9846146808
  0
LINE
  5
2B6
100
AcDbEntity
  8
KONSTRUKTIONSELEMENTE
100
AcDbLine
 62
7
  6
CONTINUOUS
 10
118.3458690539
 20
109.4846146808
 11
118.686294575
 21
109.8179486499
  0
LINE
  5
2B7
100
AcDbEntity
  8
KONSTRUKTIONSELEMENTE
100
AcDbLine
 62
7
  6
CONTINUOUS
 10
117.4096987739
 20
100.7346146808
 11
116.9841669097
 21
100.5679476962
  0
LINE
  5
2B8
100
AcDbEntity
  8
KONSTRUKTIONSELEMENTE
100
AcDbLine
 62
7
  6
CONTINUOUS
 10
115.8777838245
 20
100.5679476962
 11
115.622464706
 21
100.4846146808
  0
LINE
  5
2B9
100
AcDbEntity
  8
KONSTRUKTIONSELEMENTE
100
AcDbLine
 62
7
  6
CONTINUOUS
 10
117.2394860282
 20
100.2346146808
 11
117.4948052659
 21
100.3179476962
  0
LINE
  5
2BA
100
AcDbEntity
  8
KONSTRUKTIONSELEMENTE
100
AcDbLine
 62
7
  6
CONTINUOUS
 10
118.686294575
 20
115.6512807117
 11
118.3458690539
 21
115.9846146808
  0
LINE
  5
2BB
100
AcDbEntity
  8
KONSTRUKTIONSELEMENTE
100
AcDbLine
 62
7
  6
CONTINUOUS
 10
118.1756562486
 20
115.4846146808
 11
118.3458690539
 21
115.2346146808
  0
LINE
  5
2BC
100
AcDbEntity
  8
KONSTRUKTIONSELEMENTE
100
AcDbLine
 62
7
  6
CONTINUOUS
 10
118.856507343
 20
111.3179486499
 11
118.686294575
 21
111.6512807117
  0
LINE
  5
2BD
100
AcDbEntity
  8
KONSTRUKTIONSELEMENTE
100
AcDbLine
 62
7
  6
CONTINUOUS
 10
118.856507343
 20
115.3179486499
 11
118.686294575
 21
115.6512807117
  0
LINE
  5
2BE
100
AcDbEntity
  8
KONSTRUKTIONSELEMENTE
100
AcDbLine
 62
7
  6
CONTINUOUS
 10
118.3458690539
 20
111.2346146808
 11
118.4309754267
 21
110.9012807117
  0
LINE
  5
2BF
100
AcDbEntity
  8
KONSTRUKTIONSELEMENTE
100
AcDbLine
 62
7
  6
CONTINUOUS
 10
118.3458690539
 20
115.2346146808
 11
118.4309754267
 21
114.9012807117
  0
LINE
  5
2C0
100
AcDbEntity
  8
KONSTRUKTIONSELEMENTE
100
AcDbLine
 62
7
  6
CONTINUOUS
 10
118.9416137233
 20
99.4846146808
 11
118.856507343
 21
99.9012816653
  0
LINE
  5
2C1
100
AcDbEntity
  8
KONSTRUKTIONSELEMENTE
100
AcDbLine
 62
7
  6
CONTINUOUS
 10
118.9416137233
 20
110.9012807117
 11
118.856507343
 21
111.3179486499
  0
LINE
  5
2C2
100
AcDbEntity
  8
KONSTRUKTIONSELEMENTE
100
AcDbLine
 62
7
  6
CONTINUOUS
 10
118.9416137233
 20
86.7346146808
 11
118.9416137233
 21
87.2346146808
  0
LINE
  5
2C3
100
AcDbEntity
  8
KONSTRUKTIONSELEMENTE
100
AcDbLine
 62
7
  6
CONTINUOUS
 10
118.9416137233
 20
89.2346146808
 11
118.9416137233
 21
89.9012814269
  0
LINE
  5
2C4
100
AcDbEntity
  8
KONSTRUKTIONSELEMENTE
100
AcDbLine
 62
7
  6
CONTINUOUS
 10
118.9416137233
 20
91.9012811885
 11
118.9416137233
 21
92.4012811885
  0
LINE
  5
2C5
100
AcDbEntity
  8
KONSTRUKTIONSELEMENTE
100
AcDbLine
 62
7
  6
CONTINUOUS
 10
118.9416137233
 20
94.7346146808
 11
118.9416137233
 21
95.2346146808
  0
LINE
  5
2C6
100
AcDbEntity
  8
KONSTRUKTIONSELEMENTE
100
AcDbLine
 62
7
  6
CONTINUOUS
 10
118.9416137233
 20
99.0679476962
 11
118.9416137233
 21
99.4846146808
  0
LINE
  5
2C7
100
AcDbEntity
  8
KONSTRUKTIONSELEMENTE
100
AcDbLine
 62
7
  6
CONTINUOUS
 10
118.9416137233
 20
105.4012807117
 11
118.9416137233
 21
105.9012807117
  0
LINE
  5
2C8
100
AcDbEntity
  8
KONSTRUKTIONSELEMENTE
100
AcDbLine
 62
7
  6
CONTINUOUS
 10
118.9416137233
 20
107.9846146808
 11
118.9416137233
 21
108.5679486499
  0
LINE
  5
2C9
100
AcDbEntity
  8
KONSTRUKTIONSELEMENTE
100
AcDbLine
 62
7
  6
CONTINUOUS
 10
118.9416137233
 20
110.5679486499
 11
118.9416137233
 21
110.9012807117
  0
LINE
  5
2CA
100
AcDbEntity
  8
KONSTRUKTIONSELEMENTE
100
AcDbLine
 62
7
  6
CONTINUOUS
 10
118.9416137233
 20
112.9012807117
 11
118.9416137233
 21
114.9012807117
  0
LINE
  5
2CB
100
AcDbEntity
  8
KONSTRUKTIONSELEMENTE
100
AcDbLine
 62
7
  6
CONTINUOUS
 10
118.856507343
 20
110.1512807117
 11
118.9416137233
 21
110.5679486499
  0
LINE
  5
2CC
100
AcDbEntity
  8
KONSTRUKTIONSELEMENTE
100
AcDbLine
 62
7
  6
CONTINUOUS
 10
118.856507343
 20
98.6512816653
 11
118.9416137233
 21
99.0679476962
  0
LINE
  5
2CD
100
AcDbEntity
  8
KONSTRUKTIONSELEMENTE
100
AcDbLine
 62
7
  6
CONTINUOUS
 10
115.3671455875
 20
99.4846146808
 11
115.4522519603
 21
99.7346146808
  0
LINE
  5
2CE
100
AcDbEntity
  8
KONSTRUKTIONSELEMENTE
100
AcDbLine
 62
7
  6
CONTINUOUS
 10
116.813954164
 20
99.5679476962
 11
116.8990605369
 21
99.8179476962
  0
LINE
  5
2CF
100
AcDbEntity
  8
KONSTRUKTIONSELEMENTE
100
AcDbLine
 62
7
  6
CONTINUOUS
 10
115.2820392146
 20
100.2346146808
 11
115.0267200961
 21
99.8179476962
  0
LINE
  5
2D0
100
AcDbEntity
  8
KONSTRUKTIONSELEMENTE
100
AcDbLine
 62
7
  6
CONTINUOUS
 10
116.7288477912
 20
100.3179476962
 11
116.4735286727
 21
99.9012816653
  0
LINE
  5
2D1
100
AcDbEntity
  8
KONSTRUKTIONSELEMENTE
100
AcDbLine
 62
7
  6
CONTINUOUS
 10
115.4522519603
 20
99.7346146808
 11
115.622464706
 21
99.9846146808
  0
LINE
  5
2D2
100
AcDbEntity
  8
KONSTRUKTIONSELEMENTE
100
AcDbLine
 62
7
  6
CONTINUOUS
 10
116.8990605369
 20
99.8179476962
 11
117.0692732825
 21
100.0679476962
  0
LINE
  5
2D3
100
AcDbEntity
  8
KONSTRUKTIONSELEMENTE
100
AcDbLine
 62
7
  6
CONTINUOUS
 10
116.9841669097
 20
100.5679476962
 11
116.7288477912
 21
100.3179476962
  0
LINE
  5
2D4
100
AcDbEntity
  8
KONSTRUKTIONSELEMENTE
100
AcDbLine
 62
7
  6
CONTINUOUS
 10
117.0692732825
 20
100.0679476962
 11
117.2394860282
 21
100.2346146808
  0
LINE
  5
2D5
100
AcDbEntity
  8
KONSTRUKTIONSELEMENTE
100
AcDbLine
 62
7
  6
CONTINUOUS
 10
115.622464706
 20
100.4846146808
 11
115.2820392146
 21
100.2346146808
  0
LINE
  5
2D6
100
AcDbEntity
  8
KONSTRUKTIONSELEMENTE
100
AcDbLine
 62
7
  6
CONTINUOUS
 10
115.622464706
 20
99.9846146808
 11
115.8777838245
 21
100.1512816653
  0
LINE
  5
2D7
100
AcDbEntity
  8
KONSTRUKTIONSELEMENTE
100
AcDbLine
 62
7
  6
CONTINUOUS
 10
117.8352307573
 20
97.8179476962
 11
118.260762681
 21
97.9846146808
  0
LINE
  5
2D8
100
AcDbEntity
  8
KONSTRUKTIONSELEMENTE
100
AcDbLine
 62
7
  6
CONTINUOUS
 10
118.0054435029
 20
98.3179476962
 11
117.7501243844
 21
98.2346146808
  0
LINE
  5
2D9
100
AcDbEntity
  8
KONSTRUKTIONSELEMENTE
100
AcDbLine
 62
7
  6
CONTINUOUS
 10
118.9416137233
 20
114.9012807117
 11
118.856507343
 21
115.3179486499
  0
LINE
  5
2DA
100
AcDbEntity
  8
KONSTRUKTIONSELEMENTE
100
AcDbLine
 62
7
  6
CONTINUOUS
 10
123.9416137233
 20
88.984614258
 11
123.9416137233
 21
115.9283657419
  0
LINE
  5
2DB
100
AcDbEntity
  8
KONSTRUKTIONSELEMENTE
100
AcDbLine
 62
7
  6
CONTINUOUS
 10
118.5160817995
 20
98.9846146808
 11
118.4309754267
 21
98.7346146808
  0
LINE
  5
2DC
100
AcDbEntity
  8
KONSTRUKTIONSELEMENTE
100
AcDbLine
 62
7
  6
CONTINUOUS
 10
118.6011882022
 20
98.2346146808
 11
118.856507343
 21
98.6512816653
  0
LINE
  5
2DD
100
AcDbEntity
  8
KONSTRUKTIONSELEMENTE
100
AcDbLine
 62
7
  6
CONTINUOUS
 10
118.4309754267
 20
98.7346146808
 11
118.260762681
 21
98.4846146808
  0
LINE
  5
2DE
100
AcDbEntity
  8
KONSTRUKTIONSELEMENTE
100
AcDbLine
 62
7
  6
CONTINUOUS
 10
118.260762681
 20
97.9846146808
 11
118.6011882022
 21
98.2346146808
  0
LINE
  5
2DF
100
AcDbEntity
  8
KONSTRUKTIONSELEMENTE
100
AcDbLine
 62
7
  6
CONTINUOUS
 10
118.260762681
 20
98.4846146808
 11
118.0054435029
 21
98.3179476962
  0
LINE
  5
2E0
100
AcDbEntity
  8
KONSTRUKTIONSELEMENTE
100
AcDbLine
 62
7
  6
CONTINUOUS
 10
84.1134605366
 20
137.1589124114
 11
83.9046432511
 21
137.1589124114
  0
LINE
  5
2E1
100
AcDbEntity
  8
KONSTRUKTIONSELEMENTE
100
AcDbLine
 62
7
  6
CONTINUOUS
 10
118.4309754267
 20
89.5679479347
 11
114.9416137233
 21
88.4012813077
  0
LINE
  5
2E2
100
AcDbEntity
  8
KONSTRUKTIONSELEMENTE
100
AcDbLine
 62
7
  6
CONTINUOUS
 10
114.9416137233
 20
87.9012813077
 11
118.9416137233
 21
89.2346146808
  0
LINE
  5
2E3
100
AcDbEntity
  8
BEZUGSACHSEN
100
AcDbLine
 62
7
  6
CONTINUOUS
 10
96.5416137233
 20
142.4846146808
 11
103.9416137233
 21
142.4846146808
  0
LINE
  5
2E4
100
AcDbEntity
  8
TEIL_STARTBEZUEGE
100
AcDbLine
 62
2
  6
CENTER
 10
81.7768783436
 20
146.7346146808
 11
119.2379002414
 21
146.7346146808
  0
LINE
  5
2E5
100
AcDbEntity
  8
KONSTRUKTIONSELEMENTE
100
AcDbLine
 62
7
  6
CONTINUOUS
 10
83.4416137233
 20
148.6346146808
 11
91.8549129679
 21
148.6346146808
  0
LINE
  5
2E6
100
AcDbEntity
  8
KONSTRUKTIONSELEMENTE
100
AcDbLine
 62
7
  6
CONTINUOUS
 10
108.6283144787
 20
148.6346146808
 11
117.0416137233
 21
148.6346146808
  0
LINE
  5
2E7
100
AcDbEntity
  8
0
100
AcDbLine
 62
7
  6
CONTINUOUS
 10
112.4264713935
 20
156.6347271327
 11
117.0416137233
 21
151.1346146808
  0
LINE
  5
2E8
100
AcDbEntity
  8
BEZUGSACHSEN
100
AcDbLine
 62
7
  6
CONTINUOUS
 10
103.9416137233
 20
150.9846146808
 11
96.5416137233
 21
150.9846146808
  0
LINE
  5
2E9
100
AcDbEntity
  8
KONSTRUKTIONSELEMENTE
100
AcDbLine
 62
7
  6
CONTINUOUS
 10
88.0426223411
 20
156.6346146808
 11
91.9875989356
 21
156.6346146808
  0
LINE
  5
2EA
100
AcDbEntity
  8
KONSTRUKTIONSELEMENTE
100
AcDbLine
 62
7
  6
CONTINUOUS
 10
108.495628511
 20
156.6346146808
 11
112.4406051055
 21
156.6346146808
  0
LINE
  5
2EB
100
AcDbEntity
  8
KONSTRUKTIONSELEMENTE
100
AcDbLine
 62
7
  6
CONTINUOUS
 10
173.8023116874
 20
68.7346146808
 11
165.3879462862
 21
68.7346146808
  0
LINE
  5
2EC
100
AcDbEntity
  8
0
100
AcDbLine
 62
7
  6
CONTINUOUS
 10
159.6676897089
 20
74.2655384999
 11
165.3952970624
 21
68.7344523721
  0
LINE
  5
2ED
100
AcDbEntity
  8
KONSTRUKTIONSELEMENTE
100
AcDbLine
 62
7
  6
CONTINUOUS
 10
178.5951289868
 20
86.7346146808
 11
178.8951289868
 21
86.7346146808
  0
LINE
  5
2EE
100
AcDbEntity
  8
KONSTRUKTIONSELEMENTE
100
AcDbLine
 62
7
  6
CONTINUOUS
 10
178.8098971518
 20
87.2346146808
 11
178.8951289868
 21
87.2346146808
  0
LINE
  5
2EF
100
AcDbEntity
  8
0
100
AcDbLine
 62
7
  6
CONTINUOUS
 10
157.5144665761
 20
89.2413354353
 11
162.5391809056
 21
85.7229925845
  0
LINE
  5
2F0
100
AcDbEntity
  8
KONSTRUKTIONSELEMENTE
100
AcDbLine
 62
8
  6
HIDDEN
 10
164.3269084208
 20
89.9346146808
 11
174.8633495528
 21
89.9346146808
  0
LINE
  5
2F1
100
AcDbEntity
  8
DEFAULT_2
100
AcDbLine
 62
8
  6
HIDDEN
 10
164.3269084208
 20
89.9346146808
 11
174.8633495528
 21
89.9346146808
  0
LINE
  5
2F2
100
AcDbEntity
  8
0
100
AcDbLine
 62
7
  6
CONTINUOUS
 10
163.8451289868
 20
90.1391179175
 11
158.8038793001
 21
92.2790014517
  0
LINE
  5
2F3
100
AcDbEntity
  8
KONSTRUKTIONSELEMENTE
100
AcDbLine
 62
7
  6
CONTINUOUS
 10
178.5951289868
 20
91.9012811885
 11
178.8951289868
 21
91.9012811885
  0
LINE
  5
2F4
100
AcDbEntity
  8
KONSTRUKTIONSELEMENTE
100
AcDbLine
 62
7
  6
CONTINUOUS
 10
178.5951289868
 20
92.4012811885
 11
178.8951289868
 21
92.4012811885
  0
LINE
  5
2F5
100
AcDbEntity
  8
KONSTRUKTIONSELEMENTE
100
AcDbLine
 62
7
  6
CONTINUOUS
 10
178.5951289868
 20
94.7346146808
 11
178.8951289868
 21
94.7346146808
  0
LINE
  5
2F6
100
AcDbEntity
  8
0
100
AcDbLine
 62
7
  6
CONTINUOUS
 10
160.8146411819
 20
149.6102244369
 11
160.5951289868
 21
148.6346146808
  0
LINE
  5
2F7
100
AcDbEntity
  8
KONSTRUKTIONSELEMENTE
100
AcDbLine
 62
7
  6
CONTINUOUS
 10
178.5951289868
 20
95.2346146808
 11
178.8951289868
 21
95.2346146808
  0
LINE
  5
2F8
100
AcDbEntity
  8
KONSTRUKTIONSELEMENTE
100
AcDbLine
 62
7
  6
CONTINUOUS
 10
178.5951289868
 20
95.9012816653
 11
178.8951289868
 21
95.9012816653
  0
LINE
  5
2F9
100
AcDbEntity
  8
KONSTRUKTIONSELEMENTE
100
AcDbLine
 62
7
  6
CONTINUOUS
 10
178.5951289868
 20
97.0679476962
 11
178.8951289868
 21
97.0679476962
  0
LINE
  5
2FA
100
AcDbEntity
  8
KONSTRUKTIONSELEMENTE
100
AcDbLine
 62
7
  6
CONTINUOUS
 10
178.5951289868
 20
97.7346146808
 11
178.8951289868
 21
97.7346146808
  0
LINE
  5
2FB
100
AcDbEntity
  8
KONSTRUKTIONSELEMENTE
100
AcDbLine
 62
7
  6
CONTINUOUS
 10
178.5951289868
 20
97.8179476962
 11
178.8951289868
 21
97.8179476962
  0
LINE
  5
2FC
100
AcDbEntity
  8
KONSTRUKTIONSELEMENTE
100
AcDbLine
 62
7
  6
CONTINUOUS
 10
178.5951289868
 20
97.9846146808
 11
178.8951289868
 21
97.9846146808
  0
LINE
  5
2FD
100
AcDbEntity
  8
KONSTRUKTIONSELEMENTE
100
AcDbLine
 62
7
  6
CONTINUOUS
 10
178.5951289868
 20
98.2346146808
 11
178.8951289868
 21
98.2346146808
  0
LINE
  5
2FE
100
AcDbEntity
  8
KONSTRUKTIONSELEMENTE
100
AcDbLine
 62
7
  6
CONTINUOUS
 10
178.5951289868
 20
98.6512816653
 11
178.8951289868
 21
98.6512816653
  0
LINE
  5
2FF
100
AcDbEntity
  8
KONSTRUKTIONSELEMENTE
100
AcDbLine
 62
7
  6
CONTINUOUS
 10
178.5951289868
 20
99.0679476962
 11
178.8951289868
 21
99.0679476962
  0
LINE
  5
300
100
AcDbEntity
  8
KONSTRUKTIONSELEMENTE
100
AcDbLine
 62
7
  6
CONTINUOUS
 10
178.5951289868
 20
99.4012816653
 11
178.8951289868
 21
99.4012816653
  0
LINE
  5
301
100
AcDbEntity
  8
KONSTRUKTIONSELEMENTE
100
AcDbLine
 62
7
  6
CONTINUOUS
 10
178.5951289868
 20
99.8179476962
 11
178.8951289868
 21
99.8179476962
  0
LINE
  5
302
100
AcDbEntity
  8
KONSTRUKTIONSELEMENTE
100
AcDbLine
 62
7
  6
CONTINUOUS
 10
178.5951289868
 20
100.2346146808
 11
178.8951289868
 21
100.2346146808
  0
LINE
  5
303
100
AcDbEntity
  8
KONSTRUKTIONSELEMENTE
100
AcDbLine
 62
7
  6
CONTINUOUS
 10
178.5951289868
 20
100.4846146808
 11
178.8951289868
 21
100.4846146808
  0
LINE
  5
304
100
AcDbEntity
  8
KONSTRUKTIONSELEMENTE
100
AcDbLine
 62
7
  6
CONTINUOUS
 10
178.5951289868
 20
100.5679476962
 11
178.8951289868
 21
100.5679476962
  0
LINE
  5
305
100
AcDbEntity
  8
KONSTRUKTIONSELEMENTE
100
AcDbLine
 62
7
  6
CONTINUOUS
 10
178.5951289868
 20
100.7346146808
 11
178.8951289868
 21
100.7346146808
  0
LINE
  5
306
100
AcDbEntity
  8
0
100
AcDbLine
 62
7
  6
CONTINUOUS
 10
160.5951289868
 20
81.1430932724
 11
160.5951289868
 21
87.0842323927
  0
LINE
  5
307
100
AcDbEntity
  8
0
100
AcDbLine
 62
7
  6
CONTINUOUS
 10
160.5951289868
 20
91.5186610702
 11
160.5951289868
 21
148.6346146808
  0
LINE
  5
308
100
AcDbEntity
  8
0
100
AcDbLine
 62
7
  6
CONTINUOUS
 10
162.6951289868
 20
114.8391868287
 11
162.6951289868
 21
113.7346146808
  0
LINE
  5
309
100
AcDbEntity
  8
0
100
AcDbLine
 62
7
  6
CONTINUOUS
 10
163.8451289868
 20
88.7996134614
 11
163.8451289868
 21
108.1669404714
  0
LINE
  5
30A
100
AcDbEntity
  8
KONSTRUKTIONSELEMENTE
100
AcDbLine
 62
7
  6
CONTINUOUS
 10
178.5951289868
 20
105.4012807117
 11
178.8951289868
 21
105.4012807117
  0
LINE
  5
30B
100
AcDbEntity
  8
0
100
AcDbLine
 62
7
  6
CONTINUOUS
 10
162.6951289868
 20
113.7346146808
 11
162.8257029508
 21
113.4114327793
  0
LINE
  5
30C
100
AcDbEntity
  8
KONSTRUKTIONSELEMENTE
100
AcDbLine
 62
7
  6
CONTINUOUS
 10
178.5951289868
 20
107.4012807117
 11
178.8951289868
 21
107.4012807117
  0
LINE
  5
30D
100
AcDbEntity
  8
KONSTRUKTIONSELEMENTE
100
AcDbLine
 62
7
  6
CONTINUOUS
 10
178.5951289868
 20
107.8179486499
 11
178.8951289868
 21
107.8179486499
  0
LINE
  5
30E
100
AcDbEntity
  8
KONSTRUKTIONSELEMENTE
100
AcDbLine
 62
7
  6
CONTINUOUS
 10
178.5951289868
 20
108.1512807117
 11
178.8951289868
 21
108.1512807117
  0
LINE
  5
30F
100
AcDbEntity
  8
KONSTRUKTIONSELEMENTE
100
AcDbLine
 62
7
  6
CONTINUOUS
 10
178.5951289868
 20
108.4012807117
 11
178.8951289868
 21
108.4012807117
  0
LINE
  5
310
100
AcDbEntity
  8
KONSTRUKTIONSELEMENTE
100
AcDbLine
 62
7
  6
CONTINUOUS
 10
178.5951289868
 20
108.4846146808
 11
178.8951289868
 21
108.4846146808
  0
LINE
  5
311
100
AcDbEntity
  8
KONSTRUKTIONSELEMENTE
100
AcDbLine
 62
7
  6
CONTINUOUS
 10
178.5951289868
 20
108.5679486499
 11
178.8951289868
 21
108.5679486499
  0
LINE
  5
312
100
AcDbEntity
  8
KONSTRUKTIONSELEMENTE
100
AcDbLine
 62
7
  6
CONTINUOUS
 10
178.5951289868
 20
109.2346146808
 11
178.8951289868
 21
109.2346146808
  0
LINE
  5
313
100
AcDbEntity
  8
KONSTRUKTIONSELEMENTE
100
AcDbLine
 62
7
  6
CONTINUOUS
 10
178.5951289868
 20
109.7346146808
 11
178.8951289868
 21
109.7346146808
  0
LINE
  5
314
100
AcDbEntity
  8
KONSTRUKTIONSELEMENTE
100
AcDbLine
 62
7
  6
CONTINUOUS
 10
178.5951289868
 20
109.8179486499
 11
178.8951289868
 21
109.8179486499
  0
LINE
  5
315
100
AcDbEntity
  8
KONSTRUKTIONSELEMENTE
100
AcDbLine
 62
7
  6
CONTINUOUS
 10
178.5951289868
 20
109.9846146808
 11
178.8951289868
 21
109.9846146808
  0
LINE
  5
316
100
AcDbEntity
  8
KONSTRUKTIONSELEMENTE
100
AcDbLine
 62
7
  6
CONTINUOUS
 10
180.1679593651
 20
77.4377371047
 11
175.3451289868
 21
88.7996134614
  0
LINE
  5
317
100
AcDbEntity
  8
0
100
AcDbLine
 62
7
  6
CONTINUOUS
 10
167.5104695424
 20
117.7346146808
 11
167.5104695424
 21
126.1624907777
  0
LINE
  5
318
100
AcDbEntity
  8
TEIL_STARTBEZUEGE
100
AcDbLine
 62
2
  6
CENTER
 10
169.5951289868
 20
146.7346146808
 11
169.5951289868
 21
68.2188784304
  0
LINE
  5
319
100
AcDbEntity
  8
TEIL_STARTBEZUEGE
100
AcDbLine
 62
2
  6
CENTER
 10
169.5951289868
 20
146.7346146808
 11
169.5951289868
 21
159.0674756859
  0
LINE
  5
31A
100
AcDbEntity
  8
0
100
AcDbLine
 62
7
  6
CONTINUOUS
 10
158.8038793001
 20
92.2790014517
 11
157.5144665761
 21
89.2413354353
  0
LINE
  5
31B
100
AcDbEntity
  8
KONSTRUKTIONSELEMENTE
100
AcDbLine
 62
7
  6
CONTINUOUS
 10
178.5951289868
 20
110.2346146808
 11
178.8951289868
 21
110.2346146808
  0
LINE
  5
31C
100
AcDbEntity
  8
KONSTRUKTIONSELEMENTE
100
AcDbLine
 62
7
  6
CONTINUOUS
 10
178.5951289868
 20
110.5679486499
 11
178.8951289868
 21
110.5679486499
  0
LINE
  5
31D
100
AcDbEntity
  8
KONSTRUKTIONSELEMENTE
100
AcDbLine
 62
7
  6
CONTINUOUS
 10
178.5951289868
 20
110.9012807117
 11
178.8951289868
 21
110.9012807117
  0
LINE
  5
31E
100
AcDbEntity
  8
KONSTRUKTIONSELEMENTE
100
AcDbLine
 62
7
  6
CONTINUOUS
 10
178.5951289868
 20
111.2346146808
 11
178.8951289868
 21
111.2346146808
  0
LINE
  5
31F
100
AcDbEntity
  8
KONSTRUKTIONSELEMENTE
100
AcDbLine
 62
7
  6
CONTINUOUS
 10
178.5951289868
 20
111.4846146808
 11
178.8951289868
 21
111.4846146808
  0
LINE
  5
320
100
AcDbEntity
  8
KONSTRUKTIONSELEMENTE
100
AcDbLine
 62
7
  6
CONTINUOUS
 10
178.5951289868
 20
111.6512807117
 11
178.8951289868
 21
111.6512807117
  0
LINE
  5
321
100
AcDbEntity
  8
KONSTRUKTIONSELEMENTE
100
AcDbLine
 62
7
  6
CONTINUOUS
 10
178.5951289868
 20
111.7346146808
 11
178.8951289868
 21
111.7346146808
  0
LINE
  5
322
100
AcDbEntity
  8
KONSTRUKTIONSELEMENTE
100
AcDbLine
 62
7
  6
CONTINUOUS
 10
178.5951289868
 20
112.2346146808
 11
178.8951289868
 21
112.2346146808
  0
LINE
  5
323
100
AcDbEntity
  8
KONSTRUKTIONSELEMENTE
100
AcDbLine
 62
7
  6
CONTINUOUS
 10
178.5951289868
 20
112.9012807117
 11
178.8951289868
 21
112.9012807117
  0
LINE
  5
324
100
AcDbEntity
  8
KONSTRUKTIONSELEMENTE
100
AcDbLine
 62
7
  6
CONTINUOUS
 10
171.6797884312
 20
117.7346146808
 11
171.6797884312
 21
126.1624907777
  0
LINE
  5
325
100
AcDbEntity
  8
KONSTRUKTIONSELEMENTE
100
AcDbLine
 62
7
  6
CONTINUOUS
 10
178.5951289868
 20
114.9012807117
 11
178.8951289868
 21
114.9012807117
  0
LINE
  5
326
100
AcDbEntity
  8
KONSTRUKTIONSELEMENTE
100
AcDbLine
 62
7
  6
CONTINUOUS
 10
178.5951289868
 20
115.3179486499
 11
178.8951289868
 21
115.3179486499
  0
LINE
  5
327
100
AcDbEntity
  8
KONSTRUKTIONSELEMENTE
100
AcDbLine
 62
7
  6
CONTINUOUS
 10
178.5951289868
 20
115.6512807117
 11
178.8951289868
 21
115.6512807117
  0
LINE
  5
328
100
AcDbEntity
  8
KONSTRUKTIONSELEMENTE
100
AcDbLine
 62
7
  6
CONTINUOUS
 10
178.5951289868
 20
115.9846146808
 11
178.8951289868
 21
115.9846146808
  0
LINE
  5
329
100
AcDbEntity
  8
KONSTRUKTIONSELEMENTE
100
AcDbLine
 62
7
  6
CONTINUOUS
 10
180.3863786735
 20
92.2790014517
 11
181.6757913975
 21
89.2413354353
  0
LINE
  5
32A
100
AcDbEntity
  8
KONSTRUKTIONSELEMENTE
100
AcDbLine
 62
7
  6
CONTINUOUS
 10
175.3451289868
 20
88.7996134614
 11
175.3451289868
 21
108.1669404714
  0
LINE
  5
32B
100
AcDbEntity
  8
KONSTRUKTIONSELEMENTE
100
AcDbLine
 62
7
  6
CONTINUOUS
 10
176.4951289868
 20
113.7346146808
 11
176.3645550229
 21
113.4114327793
  0
LINE
  5
32C
100
AcDbEntity
  8
0
100
AcDbLine
 62
7
  6
CONTINUOUS
 10
159.0222986085
 20
77.4377371047
 11
163.8451289868
 21
88.7996134614
  0
LINE
  5
32D
100
AcDbEntity
  8
KONSTRUKTIONSELEMENTE
100
AcDbLine
 62
7
  6
CONTINUOUS
 10
178.5951289868
 20
116.1512807117
 11
178.8951289868
 21
116.1512807117
  0
LINE
  5
32E
100
AcDbEntity
  8
KONSTRUKTIONSELEMENTE
100
AcDbLine
 62
7
  6
CONTINUOUS
 10
178.5951289868
 20
116.2346146808
 11
178.8951289868
 21
116.2346146808
  0
LINE
  5
32F
100
AcDbEntity
  8
KONSTRUKTIONSELEMENTE
100
AcDbLine
 62
7
  6
CONTINUOUS
 10
167.1053249092
 20
117.7346146808
 11
172.0849330645
 21
117.7346146808
  0
LINE
  5
330
100
AcDbEntity
  8
KONSTRUKTIONSELEMENTE
100
AcDbLine
 62
7
  6
CONTINUOUS
 10
176.4951289868
 20
114.8391868287
 11
176.4951289868
 21
113.7346146808
  0
LINE
  5
331
100
AcDbEntity
  8
KONSTRUKTIONSELEMENTE
100
AcDbLine
 62
7
  6
CONTINUOUS
 10
178.5951289868
 20
81.1430932724
 11
178.5951289868
 21
87.0842323927
  0
LINE
  5
332
100
AcDbEntity
  8
KONSTRUKTIONSELEMENTE
100
AcDbLine
 62
7
  6
CONTINUOUS
 10
178.5951289868
 20
91.5186610702
 11
178.5951289868
 21
148.6346146808
  0
LINE
  5
333
100
AcDbEntity
  8
KONSTRUKTIONSELEMENTE
100
AcDbLine
 62
7
  6
CONTINUOUS
 10
178.8951289868
 20
116.2346146808
 11
178.8951289868
 21
112.9012807117
  0
LINE
  5
334
100
AcDbEntity
  8
KONSTRUKTIONSELEMENTE
100
AcDbLine
 62
7
  6
CONTINUOUS
 10
178.8951289868
 20
112.2346146808
 11
178.8951289868
 21
109.2346146808
  0
LINE
  5
335
100
AcDbEntity
  8
KONSTRUKTIONSELEMENTE
100
AcDbLine
 62
7
  6
CONTINUOUS
 10
178.8951289868
 20
108.5679486499
 11
178.8951289868
 21
105.4012807117
  0
LINE
  5
336
100
AcDbEntity
  8
KONSTRUKTIONSELEMENTE
100
AcDbLine
 62
7
  6
CONTINUOUS
 10
178.8951289868
 20
100.7346146808
 11
178.8951289868
 21
97.7346146808
  0
LINE
  5
337
100
AcDbEntity
  8
KONSTRUKTIONSELEMENTE
100
AcDbLine
 62
7
  6
CONTINUOUS
 10
178.8951289868
 20
97.0679476962
 11
178.8951289868
 21
95.9012816653
  0
LINE
  5
338
100
AcDbEntity
  8
KONSTRUKTIONSELEMENTE
100
AcDbLine
 62
7
  6
CONTINUOUS
 10
178.8951289868
 20
95.2346146808
 11
178.8951289868
 21
91.9012811885
  0
LINE
  5
339
100
AcDbEntity
  8
KONSTRUKTIONSELEMENTE
100
AcDbLine
 62
7
  6
CONTINUOUS
 10
178.8951289868
 20
87.2346146808
 11
178.8951289868
 21
86.7346146808
  0
LINE
  5
33A
100
AcDbEntity
  8
KONSTRUKTIONSELEMENTE
100
AcDbLine
 62
7
  6
CONTINUOUS
 10
178.3756167917
 20
149.6102244369
 11
178.5951289868
 21
148.6346146808
  0
LINE
  5
33B
100
AcDbEntity
  8
KONSTRUKTIONSELEMENTE
100
AcDbLine
 62
7
  6
CONTINUOUS
 10
175.3451289868
 20
90.1391179175
 11
180.3863786735
 21
92.2790014517
  0
LINE
  5
33C
100
AcDbEntity
  8
AUSFORMSCHRAEGEN
100
AcDbLine
 62
7
  6
CONTINUOUS
 10
181.6757913975
 20
89.2413354353
 11
176.6510770681
 21
85.7229925845
  0
LINE
  5
33D
100
AcDbEntity
  8
AUSFORMSCHRAEGEN
100
AcDbLine
 62
7
  6
CONTINUOUS
 10
173.7949609113
 20
68.7344523721
 11
179.5225682647
 21
74.2655384999
  0
LINE
  5
33E
100
AcDbEntity
  8
TEIL_STARTBEZUEGE
100
AcDbLine
 62
2
  6
CENTER
 10
169.5951289868
 20
146.7346146808
 11
160.0434798047
 21
146.7346146808
  0
LINE
  5
33F
100
AcDbEntity
  8
TEIL_STARTBEZUEGE
100
AcDbLine
 62
2
  6
CENTER
 10
169.5951289868
 20
146.7346146808
 11
178.7126448943
 21
146.7346146808
  0
LINE
  5
340
100
AcDbEntity
  8
0
100
AcDbLine
 62
7
  6
CONTINUOUS
 10
177.8866909627
 20
151.1346146808
 11
161.3035670109
 21
151.1346146808
  0
ARC
  5
341
100
AcDbEntity
  8
0
100
AcDbCircle
 62
7
  6
CONTINUOUS
 10
100.2416137233
 20
176.595357149
 40
21.6
100
AcDbArc
 50
247.5342982023
 51
260.1368029891
  0
ARC
  5
342
100
AcDbEntity
  8
0
100
AcDbCircle
 62
7
  6
CONTINUOUS
 10
100.2416137233
 20
176.595357149
 40
21.6
100
AcDbArc
 50
279.8631970109
 51
292.4657017977
  0
ARC
  5
343
100
AcDbEntity
  8
KONSTRUKTIONSELEMENTE
100
AcDbCircle
 62
7
  6
CONTINUOUS
 10
103.6916137233
 20
88.9846146808
 40
20.25
100
AcDbArc
 50
309.5475895675
 51
359.9999988038
  0
ARC
  5
344
100
AcDbEntity
  8
KONSTRUKTIONSELEMENTE
100
AcDbCircle
 62
7
  6
CONTINUOUS
 10
103.6916137233
 20
88.9846146808
 40
20.25
100
AcDbArc
 50
180.0
 51
226.6244626666
  0
ARC
  5
345
100
AcDbEntity
  8
AUSFORMSCHRAEGEN
100
AcDbCircle
 62
7
  6
CONTINUOUS
 10
103.6916137233
 20
88.9846146808
 40
20.25
100
AcDbArc
 50
226.6244626666
 51
309.5475895675
  0
ARC
  5
346
100
AcDbEntity
  8
KONSTRUKTIONSELEMENTE
100
AcDbCircle
 62
7
  6
CONTINUOUS
 10
84.1134605366
 20
119.7346146808
 40
17.4242977306
100
AcDbArc
 50
40.0
 51
90.0
  0
ARC
  5
347
100
AcDbEntity
  8
KONSTRUKTIONSELEMENTE
100
AcDbCircle
 62
7
  6
CONTINUOUS
 10
96.7416137233
 20
109.0409944679
 40
14.6242977306
100
AcDbArc
 50
0.0
 51
40.0
  0
ARC
  5
348
100
AcDbEntity
  8
KONSTRUKTIONSELEMENTE
100
AcDbCircle
 62
7
  6
CONTINUOUS
 10
131.0416137233
 20
134.3346146808
 40
14.0
100
AcDbArc
 50
180.0
 51
221.0992995666
  0
ARC
  5
349
100
AcDbEntity
  8
KONSTRUKTIONSELEMENTE
100
AcDbCircle
 62
7
  6
CONTINUOUS
 10
109.9416137233
 20
115.9283657419
 40
14.0
100
AcDbArc
 50
0.0
 51
41.0992995666
  0
ARC
  5
34A
100
AcDbEntity
  8
KONSTRUKTIONSELEMENTE
100
AcDbCircle
 62
7
  6
CONTINUOUS
 10
95.4416137233
 20
140.460171614
 40
12.0
100
AcDbArc
 50
180.0
 51
220.0
  0
ARC
  5
34B
100
AcDbEntity
  8
KONSTRUKTIONSELEMENTE
100
AcDbCircle
 62
7
  6
CONTINUOUS
 10
89.0416137233
 20
103.9048379238
 40
7.5
100
AcDbArc
 50
0.0
 51
40.0000006183
  0
ARC
  5
34C
100
AcDbEntity
  8
KONSTRUKTIONSELEMENTE
100
AcDbCircle
 62
7
  6
CONTINUOUS
 10
96.7416137233
 20
109.0409944679
 40
7.2
100
AcDbArc
 50
0.0
 51
40.0
  0
ARC
  5
34D
100
AcDbEntity
  8
KONSTRUKTIONSELEMENTE
100
AcDbCircle
 62
7
  6
CONTINUOUS
 10
85.9416137233
 20
110.9131513948
 40
6.0
100
AcDbArc
 50
130.0
 51
227.0141139198
  0
ARC
  5
34E
100
AcDbEntity
  8
KONSTRUKTIONSELEMENTE
100
AcDbCircle
 62
7
  6
CONTINUOUS
 10
78.4416137233
 20
102.8664129251
 40
5.0
100
AcDbArc
 50
0.0
 51
47.0141139198
  0
ARC
  5
34F
100
AcDbEntity
  8
KONSTRUKTIONSELEMENTE
100
AcDbCircle
 62
7
  6
CONTINUOUS
 10
100.2416137233
 20
136.8346146808
 40
3.7
100
AcDbArc
 50
180.0
 51
360.0
  0
ARC
  5
350
100
AcDbEntity
  8
KONSTRUKTIONSELEMENTE
100
AcDbCircle
 62
7
  6
CONTINUOUS
 10
100.0416137233
 20
93.4346146808
 40
3.5
100
AcDbArc
 50
180.0
 51
231.0489787121
  0
ARC
  5
351
100
AcDbEntity
  8
KONSTRUKTIONSELEMENTE
100
AcDbCircle
 62
7
  6
CONTINUOUS
 10
100.4416137233
 20
93.4346146808
 40
3.5
100
AcDbArc
 50
308.9510212883
 51
360.0
  0
ARC
  5
352
100
AcDbEntity
  8
KONSTRUKTIONSELEMENTE
100
AcDbCircle
 62
7
  6
CONTINUOUS
 10
85.8286848428
 20
114.7346146808
 40
3.0
100
AcDbArc
 50
40.0
 51
130.0
  0
ARC
  5
353
100
AcDbEntity
  8
KONSTRUKTIONSELEMENTE
100
AcDbCircle
 62
7
  6
CONTINUOUS
 10
88.1416137233
 20
103.577264713
 40
2.9382588991
100
AcDbArc
 50
0.0
 51
40.0
  0
CIRCLE
  5
354
100
AcDbEntity
  8
BEZUGSACHSEN
100
AcDbCircle
 62
7
  6
CONTINUOUS
 10
89.2416137233
 20
146.7346146808
 40
1.5
  0
ARC
  5
355
100
AcDbEntity
  8
0
100
AcDbCircle
 62
7
  6
CONTINUOUS
 10
149.8451289868
 20
108.1669404714
 40
14.0
100
AcDbArc
 50
0.0
 51
22.0
  0
ARC
  5
356
100
AcDbEntity
  8
KONSTRUKTIONSELEMENTE
100
AcDbCircle
 62
7
  6
CONTINUOUS
 10
189.3451289868
 20
108.1669404714
 40
14.0
100
AcDbArc
 50
158.0
 51
180.0
  0
ARC
  5
357
100
AcDbEntity
  8
0
100
AcDbCircle
 62
7
  6
CONTINUOUS
 10
156.0951289868
 20
126.0346146808
 40
12.0
100
AcDbArc
 50
60.7177477341
 51
67.975687163
  0
ARC
  5
358
100
AcDbEntity
  8
KONSTRUKTIONSELEMENTE
100
AcDbCircle
 62
7
  6
CONTINUOUS
 10
183.0951289868
 20
126.0346146808
 40
12.0
100
AcDbArc
 50
112.024312837
 51
119.2822522659
  0
ARC
  5
359
100
AcDbEntity
  8
0
100
AcDbCircle
 62
7
  6
CONTINUOUS
 10
169.5951289868
 20
147.6346146808
 40
9.0
100
AcDbArc
 50
22.8853804762
 51
167.3196165082
  0
ARC
  5
35A
100
AcDbEntity
  8
KONSTRUKTIONSELEMENTE
100
AcDbCircle
 62
7
  6
CONTINUOUS
 10
169.5951289868
 20
147.6346146808
 40
9.0
100
AcDbArc
 50
12.6803834918
 51
22.8853804762
  0
CIRCLE
  5
35B
100
AcDbEntity
  8
BEZUGSACHSEN
100
AcDbCircle
 62
7
  6
CONTINUOUS
 10
169.5951289868
 20
146.7346146808
 40
4.25
  0
ARC
  5
35C
100
AcDbEntity
  8
KONSTRUKTIONSELEMENTE
100
AcDbCircle
 62
7
  6
CONTINUOUS
 10
177.5374750095
 20
76.3211627413
 40
2.8576539773
100
AcDbArc
 50
314.0
 51
23.0
  0
ARC
  5
35D
100
AcDbEntity
  8
0
100
AcDbCircle
 62
7
  6
CONTINUOUS
 10
161.6527829641
 20
76.3211627413
 40
2.8576539773
100
AcDbArc
 50
157.0
 51
226.0
  0
SPLINE
  5
35E
100
AcDbEntity
  8
KONSTRUKTIONSELEMENTE
100
AcDbSpline
 62
7
  6
CONTINUOUS
 70
0
 71
3
 72
17
 73
13
 74
0
 42
0.0000001
 43
0.0000001
 44
0.0000000001
 40
0.0
 40
0.0
 40
0.0
 40
0.0
 40
0.0624669047
 40
0.1249672446
 40
0.18748806
 40
0.2500130116
 40
0.3749594934
 40
0.4999545044
 40
0.6249589135
 40
0.7499697426
 40
0.8749838031
 40
1.0
 40
1.0
 40
1.0
 40
1.0
 10
108.495628511
 20
145.1346146808
 30
0.0
 10
108.495628511
 20
145.0134210535
 30
0.0
 10
108.4588207055
 20
144.7697672068
 30
0.0
 10
108.3112670725
 20
144.4340230133
 30
0.0
 10
108.1023214448
 20
144.1341128073
 30
0.0
 10
107.7712457989
 20
143.7781834675
 30
0.0
 10
107.2930957106
 20
143.4005415477
 30
0.0
 10
106.669329436
 20
143.0242310131
 30
0.0
 10
106.0140299764
 20
142.7061857473
 30
0.0
 10
105.3376913531
 20
142.4365143268
 30
0.0
 10
104.6460989473
 20
142.2091016934
 30
0.0
 10
104.1773757935
 20
142.0831424463
 30
0.0
 10
103.9416137233
 20
142.0261745575
 30
0.0
  0
SPLINE
  5
35F
100
AcDbEntity
  8
KONSTRUKTIONSELEMENTE
100
AcDbSpline
 62
7
  6
CONTINUOUS
 70
0
 71
3
 72
9
 73
5
 74
0
 42
0.0000001
 43
0.0000001
 44
0.0000000001
 40
0.0
 40
0.0
 40
0.0
 40
0.0
 40
0.4959346552
 40
1.0
 40
1.0
 40
1.0
 40
1.0
 10
82.7162924017
 20
113.4114327793
 30
0.0
 10
83.6728925339
 20
112.6118766682
 30
0.0
 10
85.5649419564
 20
110.9545985767
 30
0.0
 10
87.3115120835
 20
109.1376607032
 30
0.0
 10
88.126043072
 20
108.1669404714
 30
0.0
  0
SPLINE
  5
360
100
AcDbEntity
  8
KONSTRUKTIONSELEMENTE
100
AcDbSpline
 62
7
  6
CONTINUOUS
 70
0
 71
3
 72
9
 73
5
 74
0
 42
0.0000001
 43
0.0000001
 44
0.0000000001
 40
0.0
 40
0.0
 40
0.0
 40
0.0
 40
0.5000254334
 40
1.0
 40
1.0
 40
1.0
 40
1.0
 10
108.6283144787
 20
148.6346146808
 30
0.0
 10
108.5855967253
 20
148.4716338603
 30
0.0
 10
108.5187601323
 20
148.1404208289
 30
0.0
 10
108.495628511
 20
147.8030836066
 30
0.0
 10
108.495628511
 20
147.6346146808
 30
0.0
  0
SPLINE
  5
361
100
AcDbEntity
  8
KONSTRUKTIONSELEMENTE
100
AcDbSpline
 62
7
  6
CONTINUOUS
 70
0
 71
3
 72
9
 73
5
 74
0
 42
0.0000001
 43
0.0000001
 44
0.0000000001
 40
0.0
 40
0.0
 40
0.0
 40
0.0
 40
0.5002378824
 40
1.0
 40
1.0
 40
1.0
 40
1.0
 10
91.8549129679
 20
148.6346146808
 30
0.0
 10
91.8976025069
 20
148.7935153383
 30
0.0
 10
91.9644433022
 20
149.1165406272
 30
0.0
 10
91.9875989356
 20
149.4458457722
 30
0.0
 10
91.9875989356
 20
149.6102244369
 30
0.0
  0
SPLINE
  5
362
100
AcDbEntity
  8
KONSTRUKTIONSELEMENTE
100
AcDbSpline
 62
7
  6
CONTINUOUS
 70
0
 71
3
 72
9
 73
5
 74
0
 42
0.0000001
 43
0.0000001
 44
0.0000000001
 40
0.0
 40
0.0
 40
0.0
 40
0.0
 40
0.4997621176
 40
1.0
 40
1.0
 40
1.0
 40
1.0
 10
108.495628511
 20
149.6102244369
 30
0.0
 10
108.495628511
 20
149.4458457722
 30
0.0
 10
108.5187841444
 20
149.1165406272
 30
0.0
 10
108.5856249397
 20
148.7935153383
 30
0.0
 10
108.6283144787
 20
148.6346146808
 30
0.0
  0
SPLINE
  5
363
100
AcDbEntity
  8
KONSTRUKTIONSELEMENTE
100
AcDbSpline
 62
7
  6
CONTINUOUS
 70
0
 71
3
 72
9
 73
5
 74
0
 42
0.0000001
 43
0.0000001
 44
0.0000000001
 40
0.0
 40
0.0
 40
0.0
 40
0.0
 40
0.4999745666
 40
1.0
 40
1.0
 40
1.0
 40
1.0
 10
91.9875989356
 20
147.6346146808
 30
0.0
 10
91.9875989356
 20
147.8030836066
 30
0.0
 10
91.9644673143
 20
148.1404208289
 30
0.0
 10
91.8976307213
 20
148.4716338603
 30
0.0
 10
91.8549129679
 20
148.6346146808
 30
0.0
  0
SPLINE
  5
364
100
AcDbEntity
  8
KONSTRUKTIONSELEMENTE
100
AcDbSpline
 62
7
  6
CONTINUOUS
 70
0
 71
3
 72
17
 73
13
 74
0
 42
0.0000001
 43
0.0000001
 44
0.0000000001
 40
0.0
 40
0.0
 40
0.0
 40
0.0
 40
0.1250161814
 40
0.2500302738
 40
0.3750410999
 40
0.5000453305
 40
0.6250401081
 40
0.7499872056
 40
0.8125125176
 40
0.8750336251
 40
0.9375335699
 40
1.0
 40
1.0
 40
1.0
 40
1.0
 10
96.5416137233
 20
142.0261745575
 30
0.0
 10
96.3058516807
 20
142.0831424396
 30
0.0
 10
95.83712849
 20
142.2091016847
 30
0.0
 10
95.1455360573
 20
142.4365143433
 30
0.0
 10
94.4691977141
 20
142.7061856828
 30
0.0
 10
93.8138989046
 20
143.0242304712
 30
0.0
 10
93.1901323971
 20
143.4005413798
 30
0.0
 10
92.7119810133
 20
143.7781839868
 30
0.0
 10
92.3809035953
 20
144.1341150781
 30
0.0
 10
92.1719583104
 20
144.4340262248
 30
0.0
 10
92.0244063663
 20
144.7697698744
 30
0.0
 10
91.9875989356
 20
145.0134219733
 30
0.0
 10
91.9875989356
 20
145.1346146808
 30
0.0
  0
SPLINE
  5
365
100
AcDbEntity
  8
0
100
AcDbSpline
 62
7
  6
CONTINUOUS
 70
0
 71
3
 72
13
 73
9
 74
0
 42
0.0000001
 43
0.0000001
 44
0.0000000001
 40
0.0
 40
0.0
 40
0.0
 40
0.0
 40
0.3306250194
 40
0.6110146127
 40
0.7298561556
 40
0.833751483
 40
0.9231588066
 40
1.0
 40
1.0
 40
1.0
 40
1.0
 10
166.0505295312
 20
117.0327480101
 30
0.0
 10
166.153160684
 20
117.1307716081
 30
0.0
 10
166.3464317991
 20
117.3081611992
 30
0.0
 10
166.5913477114
 20
117.504496772
 30
0.0
 10
166.7727400478
 20
117.6220872784
 30
0.0
 10
166.8917597757
 20
117.6842611565
 30
0.0
 10
167.0011773563
 20
117.7239105911
 30
0.0
 10
167.072576178
 20
117.7346057573
 30
0.0
 10
167.1055604791
 20
117.7346146608
 30
0.0
  0
SPLINE
  5
366
100
AcDbEntity
  8
KONSTRUKTIONSELEMENTE
100
AcDbSpline
 62
7
  6
CONTINUOUS
 70
0
 71
3
 72
13
 73
9
 74
0
 42
0.0000001
 43
0.0000001
 44
0.0000000001
 40
0.0
 40
0.0
 40
0.0
 40
0.0
 40
0.3306250194
 40
0.6110146127
 40
0.7298561556
 40
0.833751483
 40
0.9231588066
 40
1.0
 40
1.0
 40
1.0
 40
1.0
 10
173.1397284424
 20
117.0327480101
 30
0.0
 10
173.0370972896
 20
117.1307716081
 30
0.0
 10
172.8438261745
 20
117.3081611992
 30
0.0
 10
172.5989102622
 20
117.504496772
 30
0.0
 10
172.4175179258
 20
117.6220872784
 30
0.0
 10
172.2984981979
 20
117.6842611565
 30
0.0
 10
172.1890806173
 20
117.7239105911
 30
0.0
 10
172.1176817956
 20
117.7346057573
 30
0.0
 10
172.0846974945
 20
117.7346146608
 30
0.0
  0
SPLINE
  5
367
100
AcDbEntity
  8
0
100
AcDbSpline
 62
7
  6
CONTINUOUS
 70
0
 71
3
 72
9
 73
5
 74
0
 42
0.0000001
 43
0.0000001
 44
0.0000000001
 40
0.0
 40
0.0
 40
0.0
 40
0.0
 40
0.2394223024
 40
1.0
 40
1.0
 40
1.0
 40
1.0
 10
166.0505295312
 20
117.0327480101
 30
0.0
 10
165.9006598314
 20
116.8896066072
 30
0.0
 10
165.2531011259
 20
116.3144583268
 30
0.0
 10
164.5276275726
 20
115.8297148433
 30
0.0
 10
163.9524353899
 20
115.5094180535
 30
0.0
  0
SPLINE
  5
368
100
AcDbEntity
  8
KONSTRUKTIONSELEMENTE
100
AcDbSpline
 62
7
  6
CONTINUOUS
 70
0
 71
3
 72
9
 73
5
 74
0
 42
0.0000001
 43
0.0000001
 44
0.0000000001
 40
0.0
 40
0.0
 40
0.0
 40
0.0
 40
0.2394223024
 40
1.0
 40
1.0
 40
1.0
 40
1.0
 10
173.1397284424
 20
117.0327480101
 30
0.0
 10
173.2895981422
 20
116.8896066072
 30
0.0
 10
173.9371568477
 20
116.3144583268
 30
0.0
 10
174.662630401
 20
115.8297148433
 30
0.0
 10
175.2378225837
 20
115.5094180535
 30
0.0
  0
SPLINE
  5
369
100
AcDbEntity
  8
0
100
AcDbSpline
 62
7
  6
CONTINUOUS
 70
0
 71
3
 72
9
 73
5
 74
0
 42
0.0000001
 43
0.0000001
 44
0.0000000001
 40
0.0
 40
0.0
 40
0.0
 40
0.0
 40
0.2565888846
 40
1.0
 40
1.0
 40
1.0
 40
1.0
 10
162.6951289868
 20
114.8391868287
 30
0.0
 10
162.8039386804
 20
114.8940692563
 30
0.0
 10
163.2265598848
 20
115.1108238495
 30
0.0
 10
163.6439541763
 20
115.3376397412
 30
0.0
 10
163.9524353899
 20
115.5094180535
 30
0.0
  0
SPLINE
  5
36A
100
AcDbEntity
  8
KONSTRUKTIONSELEMENTE
100
AcDbSpline
 62
7
  6
CONTINUOUS
 70
0
 71
3
 72
9
 73
5
 74
0
 42
0.0000001
 43
0.0000001
 44
0.0000000001
 40
0.0
 40
0.0
 40
0.0
 40
0.0
 40
0.2565888846
 40
1.0
 40
1.0
 40
1.0
 40
1.0
 10
176.4951289868
 20
114.8391868287
 30
0.0
 10
176.3863192933
 20
114.8940692563
 30
0.0
 10
175.9636980888
 20
115.1108238495
 30
0.0
 10
175.5463037974
 20
115.3376397412
 30
0.0
 10
175.2378225837
 20
115.5094180535
 30
0.0
  0
SPLINE
  5
36B
100
AcDbEntity
  8
0
100
AcDbSpline
 62
7
  6
CONTINUOUS
 70
0
 71
3
 72
10
 73
6
 74
0
 42
0.0000001
 43
0.0000001
 44
0.0000000001
 40
0.0
 40
0.0
 40
0.0
 40
0.0
 40
0.2303418908
 40
0.4777625756
 40
1.0
 40
1.0
 40
1.0
 40
1.0
 10
165.9226568917
 20
132.7467202978
 30
0.0
 10
165.7061177521
 20
133.1099018758
 30
0.0
 10
165.2011919093
 20
133.8312129255
 30
0.0
 10
163.9566314229
 20
135.1853197859
 30
0.0
 10
162.8006439066
 20
136.0323698142
 30
0.0
 10
161.9644765777
 20
136.50126452
 30
0.0
  0
SPLINE
  5
36C
100
AcDbEntity
  8
KONSTRUKTIONSELEMENTE
100
AcDbSpline
 62
7
  6
CONTINUOUS
 70
0
 71
3
 72
10
 73
6
 74
0
 42
0.0000001
 43
0.0000001
 44
0.0000000001
 40
0.0
 40
0.0
 40
0.0
 40
0.0
 40
0.2303418908
 40
0.4777625756
 40
1.0
 40
1.0
 40
1.0
 40
1.0
 10
173.267601082
 20
132.7467202978
 30
0.0
 10
173.4841402216
 20
133.1099018758
 30
0.0
 10
173.9890660643
 20
133.8312129255
 30
0.0
 10
175.2336265508
 20
135.1853197859
 30
0.0
 10
176.3896140671
 20
136.0323698142
 30
0.0
 10
177.2257813959
 20
136.50126452
 30
0.0
  0
SPLINE
  5
36D
100
AcDbEntity
  8
0
100
AcDbSpline
 62
7
  6
CONTINUOUS
 70
0
 71
3
 72
11
 73
7
 74
0
 42
0.0000001
 43
0.0000001
 44
0.0000000001
 40
0.0
 40
0.0
 40
0.0
 40
0.0
 40
0.2462463042
 40
0.4935590194
 40
0.7438032928
 40
1.0
 40
1.0
 40
1.0
 40
1.0
 10
167.5104695424
 20
126.1624907777
 30
0.0
 10
167.5104695424
 20
126.724798436
 30
0.0
 10
167.459083566
 20
127.8526292942
 30
0.0
 10
167.20610191
 20
129.5360098663
 30
0.0
 10
166.7250292458
 20
131.1948587717
 30
0.0
 10
166.2222574
 20
132.2442273741
 30
0.0
 10
165.9226568917
 20
132.7467202978
 30
0.0
  0
SPLINE
  5
36E
100
AcDbEntity
  8
KONSTRUKTIONSELEMENTE
100
AcDbSpline
 62
7
  6
CONTINUOUS
 70
0
 71
3
 72
11
 73
7
 74
0
 42
0.0000001
 43
0.0000001
 44
0.0000000001
 40
0.0
 40
0.0
 40
0.0
 40
0.0
 40
0.2462463042
 40
0.4935590194
 40
0.7438032928
 40
1.0
 40
1.0
 40
1.0
 40
1.0
 10
171.6797884312
 20
126.1624907777
 30
0.0
 10
171.6797884312
 20
126.724798436
 30
0.0
 10
171.7311744076
 20
127.8526292942
 30
0.0
 10
171.9841560636
 20
129.5360098663
 30
0.0
 10
172.4652287278
 20
131.1948587717
 30
0.0
 10
172.9680005737
 20
132.2442273741
 30
0.0
 10
173.267601082
 20
132.7467202978
 30
0.0
  0
ELLIPSE
  5
36F
100
AcDbEntity
  8
KONSTRUKTIONSELEMENTE
100
AcDbEllipse
 62
7
  6
CONTINUOUS
 10
81.706839838
 20
130.0701879133
 30
0.0
 11
-28.2622861515
 21
28.5626427632
 31
0.0
 40
0.288163539
 41
-4.4077871752
 42
-4.3947016558
  0
ELLIPSE
  5
370
100
AcDbEntity
  8
AUSFORMSCHRAEGEN
100
AcDbEllipse
 62
7
  6
CONTINUOUS
 10
105.4805815506
 20
79.242688692
 30
0.0
 11
-0.0
 21
7.8
 31
0.0
 40
0.3639702343
 41
0.6108652382
 42
1.5707963268
  0
ELLIPSE
  5
371
100
AcDbEntity
  8
AUSFORMSCHRAEGEN
100
AcDbEllipse
 62
7
  6
CONTINUOUS
 10
104.2220984224
 20
76.3211627413
 30
0.0
 11
0.0
 21
2.8576539773
 31
0.0
 40
0.3639702343
 41
-2.3736477827
 42
-1.1693705988
  0
ELLIPSE
  5
372
100
AcDbEntity
  8
AUSFORMSCHRAEGEN
100
AcDbEllipse
 62
7
  6
CONTINUOUS
 10
96.2611290241
 20
76.3211627413
 30
0.0
 11
-0.0
 21
2.8576539773
 31
0.0
 40
0.3639702343
 41
1.1693705988
 42
2.3736477827
  0
ELLIPSE
  5
373
100
AcDbEntity
  8
KONSTRUKTIONSELEMENTE
100
AcDbEllipse
 62
7
  6
CONTINUOUS
 10
100.2416137233
 20
70.5417576262
 30
0.0
 11
-0.0
 21
28.2702283899
 31
0.0
 40
0.4244748162
 41
0.3134405055
 42
0.8686820512
  0
ELLIPSE
  5
374
100
AcDbEntity
  8
AUSFORMSCHRAEGEN
100
AcDbEllipse
 62
7
  6
CONTINUOUS
 10
95.002645896
 20
79.242688692
 30
0.0
 11
0.0
 21
7.8
 31
0.0
 40
0.3639702343
 41
-1.5707963268
 42
-0.6108652382
  0
ELLIPSE
  5
375
100
AcDbEntity
  8
KONSTRUKTIONSELEMENTE
100
AcDbEllipse
 62
7
  6
CONTINUOUS
 10
100.2416137233
 20
70.5417576262
 30
0.0
 11
0.0
 21
28.2702283899
 31
0.0
 40
0.4244748162
 41
-1.1863995523
 42
-0.3134405055
  0
ELLIPSE
  5
376
100
AcDbEntity
  8
0
100
AcDbEllipse
 62
7
  6
CONTINUOUS
 10
163.1102776964
 20
88.9846146808
 30
0.0
 11
55.636417744
 21
-0.0
 31
0.0
 40
0.3639702343
 41
-1.5300306208
 42
-1.5189212118
  0
ELLIPSE
  5
377
100
AcDbEntity
  8
AUSFORMSCHRAEGEN
100
AcDbEllipse
 62
7
  6
CONTINUOUS
 10
176.0799802772
 20
88.9846146808
 30
0.0
 11
55.636417744
 21
-0.0
 31
0.0
 40
0.3639702343
 41
-1.6226714417
 42
-1.6115620328
  0
ENDSEC
  0
SECTION
  2
OBJECTS
  0
DICTIONARY
  5
C
100
AcDbDictionary
280
0
281
1
  3
ACAD_GROUP
350
D
  3
ACAD_MLINESTYLE
350
17
  3
ACAD_LAYOUT
350
1A
  3
ACAD_PLOTSETTINGS
350
19
  3
ACAD_PLOTSTYLENAME
350
E
  0
DICTIONARY
  5
D
102
{ACAD_REACTORS
330
C
102
}
100
AcDbDictionary
280
0
281
1
  0
ACDBDICTIONARYWDFLT
  5
E
102
{ACAD_REACTORS
330
C
102
}
100
AcDbDictionary
281
1
  3
Normal
350
F
100
AcDbDictionaryWithDefault
340
F
  0
DICTIONARY
  5
17
102
{ACAD_REACTORS
330
C
102
}
100
AcDbDictionary
280
0
281
1
  3
Standard
350
18
  0
DICTIONARY
  5
19
102
{ACAD_REACTORS
330
C
102
}
100
AcDbDictionary
281
1
  0
DICTIONARY
  5
1A
102
{ACAD_REACTORS
330
C
102
}
100
AcDbDictionary
281
1
  3
Model
350
378
  3
Layout1
350
379
  0
ACDBPLACEHOLDER
  5
F
102
{ACAD_REACTORS
330
E
102
}
  0
MLINESTYLE
  5
18
102
{ACAD_REACTORS
330
17
102
}
100
AcDbMlineStyle
  2
STANDARD
 70
0
  3

 62
256
 51
90.0
 52
90.0
 71
2
 49
0.5
 62
256
  6
BYLAYER
 49
-0.5
 62
256
  6
BYLAYER
  0
LAYOUT
  5
378
102
{ACAD_REACTORS
330
1A
102
}
100
AcDbPlotSettings
  1

  2
none_device
  4
ISO_A4_(297.00_x_210.00_MM)
  6

 40
0.0
 41
0.0
 42
0.0
 43
0.0
 44
297.0
 45
210.0
 46
0.0
 47
0.0
 48
0.0
 49
0.0
140
0.0
141
0.0
142
1.0
143
1.0
 70
1024
 72
1
 73
0
 74
0
  7

 75
0
147
1.0
148
0.0
149
0.0
100
AcDbLayout
  1
Model
 70
0
 71
0
 10
0.0
 20
0.0
 11
297.0
 21
210.0
 12
0.0
 22
0.0
 32
0.0
 14
0.0
 24
0.0
 34
0.0
 15
0.0
 25
0.0
 35
0.0
146
0.0
 13
0.0
 23
0.0
 33
0.0
 16
1.0
 26
0.0
 36
0.0
 17
0.0
 27
1.0
 37
0.0
 76
0
330
209
345
0
346
0
  0
LAYOUT
  5
379
102
{ACAD_REACTORS
330
1A
102
}
100
AcDbPlotSettings
  1

  2
none_device
  4
ISO_A4_(297.00_x_210.00_MM)
  6

 40
0.0
 41
0.0
 42
0.0
 43
0.0
 44
297.0
 45
210.0
 46
0.0
 47
0.0
 48
0.0
 49
0.0
140
0.0
141
0.0
142
1.0
143
1.0
 70
0
 72
1
 73
0
 74
0
  7

 75
0
147
1.0
148
0.0
149
0.0
100
AcDbLayout
  1
Layout1
 70
0
 71
1
 10
0.0
 20
0.0
 11
297.0
 21
210.0
 12
0.0
 22
0.0
 32
0.0
 14
0.0
 24
0.0
 34
0.0
 15
0.0
 25
0.0
 35
0.0
146
0.0
 13
0.0
 23
0.0
 33
0.0
 16
1.0
 26
0.0
 36
0.0
 17
0.0
 27
1.0
 37
0.0
 76
0
330
20A
345
0
346
0
  0
ENDSEC
  0
EOF
