999
DXF file: IVH-13_7900136_M33574-P-10.dxf
999
Pro/ENGINEER 2010140 by Parametric Technology Corporation
  0
SECTION
  2
HEADER
  9
$ACADVER
  1
AC1015
  9
$DWGCODEPAGE
  3
ANSI_1252
  9
$EXTMAX
 10
420.0
 20
297.0
 30
0.0
  9
$EXTMIN
 10
0.0
 20
0.0
 30
0.0
  9
$LIMMIN
 10
0.0
 20
0.0
  9
$LIMMAX
 10
420.0
 20
297.0
  9
$VIEWCTR
 10
210.0
 20
148.5
  9
$VIEWSIZE
 40
297.0
  9
$CLAYER
  8
0
  9
$LTSCALE
 40
23.1
  9
$CELTYPE
  6
BYLAYER
  9
$DIMSCALE
 40
1.0
  9
$DIMASZ
 40
3.5
  9
$DIMEXO
 40
2.625
  9
$DIMDLI
 40
15.96
  9
$DIMEXE
 40
7.56
  9
$DIMCEN
 40
3.78
  9
$DIMLFAC
 40
1.0
  9
$DIMBLK
  1
_FILLED
  9
$DIMTXT
 40
3.5
  9
$DIMTOL
 70
1
  9
$DIMLIM
 70
0
  9
$DIMTFAC
 40
1.0
  9
$DIMTP
 40
0.005
  9
$DIMTM
 40
0.005
  9
$PDMODE
 70
3
  9
$PDSIZE
 40
0.3125
  9
$HANDSEED
  5
389
  9
$TILEMODE
 70
1
  9
$MEASUREMENT
 70
1
  9
$INSUNITS
 70
4
  0
ENDSEC
  0
SECTION
  2
CLASSES
  0
CLASS
  1
ACDBDICTIONARYWDFLT
  2
AcDbDictionaryWithDefault
  3
AutoCAD 2000
 90
0
280
0
281
0
  0
CLASS
  1
ACDBPLACEHOLDER
  2
AcDbPlaceHolder
  3
AutoCAD 2000
 90
0
280
0
281
0
  0
CLASS
  1
LAYOUT
  2
AcDbLayout
  3
AutoCAD 2000
 90
0
280
0
281
0
  0
ENDSEC
  0
SECTION
  2
TABLES
  0
TABLE
  2
VPORT
  5
8
100
AcDbSymbolTable
 70
2
  0
VPORT
  5
1F4
100
AcDbSymbolTableRecord
100
AcDbViewportTableRecord
  2
*ACTIVE
 70
0
 10
0.0
 20
0.0
 11
1.0
 21
1.0
 12
210.0
 22
148.5
 13
0.0
 23
0.0
 14
1.0
 24
1.0
 15
0.0
 25
0.0
 16
0.0
 26
0.0
 36
1.0
 17
0.0
 27
0.0
 37
0.0
 40
297.0
 41
1.4141414141
 42
50.0
 43
0.0
 44
0.0
 50
0.0
 51
0.0
 71
0
 72
100
 73
1
 74
1
 75
0
 76
0
 77
0
 78
0
  0
ENDTAB
  0
TABLE
  2
LTYPE
  5
5
100
AcDbSymbolTable
 70
6
  0
LTYPE
  5
14
100
AcDbSymbolTableRecord
100
AcDbLinetypeTableRecord
  2
BYBLOCK
 70
0
  3

 72
65
 73
0
 40
0.0
  0
LTYPE
  5
15
100
AcDbSymbolTableRecord
100
AcDbLinetypeTableRecord
  2
BYLAYER
 70
0
  3

 72
65
 73
0
 40
0.0
  0
LTYPE
  5
16
100
AcDbSymbolTableRecord
100
AcDbLinetypeTableRecord
  2
CONTINUOUS
 70
64
  3
Solid line
 72
65
 73
0
 40
0.0
  0
LTYPE
  5
1F5
100
AcDbSymbolTableRecord
100
AcDbLinetypeTableRecord
  2
CENTER
 70
64
  3
____ _ ____ _ ____ _ ____ _ ____ _ ____ _ ____
 72
65
 73
4
 40
0.6
 49
0.375
 74
0
 49
-0.075
 74
0
 49
0.075
 74
0
 49
-0.075
 74
0
  0
LTYPE
  5
1F6
100
AcDbSymbolTableRecord
100
AcDbLinetypeTableRecord
  2
HIDDEN
 70
64
  3
- - - - - - - - - - - - - - - - - - - -
 72
65
 73
2
 40
0.2
 49
0.1
 74
0
 49
-0.1
 74
0
  0
LTYPE
  5
1F7
100
AcDbSymbolTableRecord
100
AcDbLinetypeTableRecord
  2
PHANTOM
 70
64
  3
_____ _ _ _____ _ _ _____ _ _ _____
 72
65
 73
6
 40
0.8
 49
0.45
 74
0
 49
-0.05
 74
0
 49
0.1
 74
0
 49
-0.05
 74
0
 49
0.1
 74
0
 49
-0.05
 74
0
  0
LTYPE
  5
1F8
100
AcDbSymbolTableRecord
100
AcDbLinetypeTableRecord
  2
DOT
 70
64
  3
. . . . . . . . . . . . . . . . . . . .
 72
65
 73
2
 40
0.2
 49
0.1
 74
0
 49
-0.1
 74
0
  0
LTYPE
  5
1F9
100
AcDbSymbolTableRecord
100
AcDbLinetypeTableRecord
  2
DASHED
 70
64
  3
- - - - - - - - - - - - - - - - - - - -
 72
65
 73
2
 40
0.2
 49
0.1
 74
0
 49
-0.1
 74
0
  0
ENDTAB
  0
TABLE
  2
LAYER
  5
2
100
AcDbSymbolTable
 70
36
  0
LAYER
  5
10
100
AcDbSymbolTableRecord
100
AcDbLayerTableRecord
  2
0
 70
0
 62
7
  6
CONTINUOUS
370
-3
390
F
  0
LAYER
  5
1FA
100
AcDbSymbolTableRecord
100
AcDbLayerTableRecord
  2
DEFAULT_1
 70
0
 62
7
  6
CENTER
370
-3
390
F
  0
LAYER
  5
1FB
100
AcDbSymbolTableRecord
100
AcDbLayerTableRecord
  2
DEFAULT_2
 70
0
 62
8
  6
HIDDEN
370
-3
390
F
  0
LAYER
  5
1FC
100
AcDbSymbolTableRecord
100
AcDbLayerTableRecord
  2
DEFAULT_3
 70
0
 62
7
  6
PHANTOM
370
-3
390
F
  0
LAYER
  5
1FD
100
AcDbSymbolTableRecord
100
AcDbLayerTableRecord
  2
AUSFORMSCHRAEGEN
 70
0
 62
7
  6
CONTINUOUS
370
-3
390
F
  0
LAYER
  5
1FE
100
AcDbSymbolTableRecord
100
AcDbLayerTableRecord
  2
BEZUGSACHSEN
 70
0
 62
7
  6
CONTINUOUS
370
-3
390
F
  0
LAYER
  5
1FF
100
AcDbSymbolTableRecord
100
AcDbLayerTableRecord
  2
BEZUGSEBENEN
 70
0
 62
7
  6
CONTINUOUS
370
-3
390
F
  0
LAYER
  5
200
100
AcDbSymbolTableRecord
100
AcDbLayerTableRecord
  2
FASEN
 70
0
 62
7
  6
CONTINUOUS
370
-3
390
F
  0
LAYER
  5
201
100
AcDbSymbolTableRecord
100
AcDbLayerTableRecord
  2
HILFEN
 70
0
 62
7
  6
CONTINUOUS
370
-3
390
F
  0
LAYER
  5
202
100
AcDbSymbolTableRecord
100
AcDbLayerTableRecord
  2
KONSTRUKTIONSELEMENTE
 70
0
 62
7
  6
CONTINUOUS
370
-3
390
F
  0
LAYER
  5
203
100
AcDbSymbolTableRecord
100
AcDbLayerTableRecord
  2
PLATZIERUNG
 70
0
 62
7
  6
CONTINUOUS
370
-3
390
F
  0
LAYER
  5
204
100
AcDbSymbolTableRecord
100
AcDbLayerTableRecord
  2
RUNDUNGEN
 70
0
 62
7
  6
CONTINUOUS
370
-3
390
F
  0
LAYER
  5
205
100
AcDbSymbolTableRecord
100
AcDbLayerTableRecord
  2
TEIL_STARTBEZUEGE
 70
0
 62
7
  6
CONTINUOUS
370
-3
390
F
  0
LAYER
  5
206
100
AcDbSymbolTableRecord
100
AcDbLayerTableRecord
  2
ZEICHNUNGSBEMASSUNGEN
 70
0
 62
7
  6
CONTINUOUS
370
-3
390
F
  0
ENDTAB
  0
TABLE
  2
STYLE
  5
3
100
AcDbSymbolTable
 70
1
  0
STYLE
  5
11
100
AcDbSymbolTableRecord
100
AcDbTextStyleTableRecord
  2
STANDARD
 70
0
 40
0.0
 41
0.7
 50
0.0
 71
0
 42
0.2
  3
txt
  4

  0
STYLE
  5
207
100
AcDbSymbolTableRecord
100
AcDbTextStyleTableRecord
  2
TEXTSTYLE_1
 70
0
 40
0.0
 41
0.8
 50
0.0
 71
0
 42
0.2
  3
gdt
  4

  0
ENDTAB
  0
TABLE
  2
VIEW
  5
6
100
AcDbSymbolTable
 70
0
  0
ENDTAB
  0
TABLE
  2
UCS
  5
7
100
AcDbSymbolTable
 70
0
  0
ENDTAB
  0
TABLE
  2
APPID
  5
9
100
AcDbSymbolTable
 70
1
  0
APPID
  5
208
100
AcDbSymbolTableRecord
100
AcDbRegAppTableRecord
  2
ACAD
 70
0
  0
ENDTAB
  0
TABLE
  2
BLOCK_RECORD
  5
1
100
AcDbSymbolTable
 70
0
  0
BLOCK_RECORD
  5
209
100
AcDbSymbolTableRecord
100
AcDbBlockTableRecord
  2
*Model_Space
  0
BLOCK_RECORD
  5
20A
100
AcDbSymbolTableRecord
100
AcDbBlockTableRecord
  2
*Paper_Space
  0
ENDTAB
  0
TABLE
  2
DIMSTYLE
  5
A
100
AcDbSymbolTable
 70
1
100
AcDbDimStyleTable
 71
0
  0
DIMSTYLE
105
20B
100
AcDbSymbolTableRecord
100
AcDbDimStyleTableRecord
  2
STANDARD
 70
0
  3

  4

 40
1.0
 41
3.5
 42
0.0625
 43
0.38
 44
0.18
 45
0.0
 46
0.0
 47
0.005
 48
0.005
140
3.5
141
0.09
142
0.0
143
25.4
144
1.0
145
0.0
146
1.0
147
0.09
 71
1.0
 72
0.0
 73
0
 74
0
 75
0
 76
0
 77
1
 78
8
170
0
171
2
172
0
173
0
174
0
175
0
176
0
177
0
178
5
270
2
271
3
272
3
273
2
274
2
275
0
280
0
281
0
282
0
283
1
284
8
285
0
286
0
287
3
288
0
340
11
  0
ENDTAB
  0
ENDSEC
  0
SECTION
  2
BLOCKS
  0
BLOCK
  5
20
100
AcDbEntity
  8
0
100
AcDbBlockBegin
  2
*Model_Space
 70
0
 10
0.0
 20
0.0
 30
0.0
  3
*Model_Space
  1

  0
ENDBLK
  5
21
100
AcDbEntity
  8
0
100
AcDbBlockEnd
  0
BLOCK
  5
1C
100
AcDbEntity
  8
0
100
AcDbBlockBegin
  2
*Paper_Space
 70
0
 10
0.0
 20
0.0
 30
0.0
  3
*Paper_Space
  1

  0
ENDBLK
  5
1D
100
AcDbEntity
  8
0
100
AcDbBlockEnd
  0
ENDSEC
  0
SECTION
  2
ENTITIES
  0
MTEXT
  5
20C
100
AcDbEntity
  8
0
100
AcDbMText
 62
5
  6
CONTINUOUS
  7
STANDARD
 71
1
 72
1
 10
248.2092110479
 20
83.2492210091
 30
0.0
 11
0.0
 21
1.0
 31
0.0
 44
0.9
  1
RUD
 40
6.0
 41
14.8571428571
  0
MTEXT
  5
20D
100
AcDbEntity
  8
0
100
AcDbMText
 62
5
  6
CONTINUOUS
  7
STANDARD
 71
1
 72
1
 10
265.439973918
 20
77.9134649015
 30
0.0
 11
0.0
 21
1.0
 31
0.0
 44
0.9
  1
IVH-13
 40
6.0
 41
26.7142857143
  0
LINE
  5
20E
100
AcDbEntity
  8
0
100
AcDbLine
 62
7
  6
CONTINUOUS
 10
0.0
 20
0.0
 11
0.0
 21
297.0
  0
LINE
  5
20F
100
AcDbEntity
  8
0
100
AcDbLine
 62
7
  6
CONTINUOUS
 10
0.0
 20
0.0
 11
420.0
 21
0.0
  0
LINE
  5
210
100
AcDbEntity
  8
0
100
AcDbLine
 62
7
  6
CONTINUOUS
 10
0.0
 20
297.0
 11
420.0
 21
297.0
  0
LINE
  5
211
100
AcDbEntity
  8
0
100
AcDbLine
 62
7
  6
CONTINUOUS
 10
420.0
 20
0.0
 11
420.0
 21
297.0
  0
LINE
  5
212
100
AcDbEntity
  8
0
100
AcDbLine
 62
7
  6
CONTINUOUS
 10
88.6830085383
 20
244.4885544318
 11
97.07400485
 21
254.4885544318
  0
LINE
  5
213
100
AcDbEntity
  8
KONSTRUKTIONSELEMENTE
100
AcDbLine
 62
7
  6
CONTINUOUS
 10
147.0967789256
 20
79.0483907813
 11
150.9658261069
 21
79.0483907813
  0
LINE
  5
214
100
AcDbEntity
  8
AUSFORMSCHRAEGEN
100
AcDbLine
 62
7
  6
CONTINUOUS
 10
131.3558647428
 20
108.8371286594
 11
128.7270085383
 21
108.8371286594
  0
LINE
  5
215
100
AcDbEntity
  8
AUSFORMSCHRAEGEN
100
AcDbLine
 62
7
  6
CONTINUOUS
 10
116.0101523337
 20
108.8371286594
 11
118.6390085383
 21
108.8371286594
  0
LINE
  5
216
100
AcDbEntity
  8
KONSTRUKTIONSELEMENTE
100
AcDbLine
 62
7
  6
CONTINUOUS
 10
156.3330085383
 20
123.6552210349
 11
164.3330085383
 21
125.7885544318
  0
LINE
  5
217
100
AcDbEntity
  8
KONSTRUKTIONSELEMENTE
100
AcDbLine
 62
7
  6
CONTINUOUS
 10
118.6390085383
 20
116.2315125509
 11
128.7270085383
 21
116.2315125509
  0
LINE
  5
218
100
AcDbEntity
  8
KONSTRUKTIONSELEMENTE
100
AcDbLine
 62
7
  6
CONTINUOUS
 10
88.6830085383
 20
244.4885544318
 11
88.6830085383
 21
223.1848455968
  0
LINE
  5
219
100
AcDbEntity
  8
KONSTRUKTIONSELEMENTE
100
AcDbLine
 62
7
  6
CONTINUOUS
 10
89.2830085383
 20
117.0135544318
 11
89.2830085383
 21
141.6013025968
  0
LINE
  5
21A
100
AcDbEntity
  8
KONSTRUKTIONSELEMENTE
100
AcDbLine
 62
7
  6
CONTINUOUS
 10
163.3117319451
 20
126.3218876379
 11
156.3330085383
 21
124.4552210349
  0
LINE
  5
21B
100
AcDbEntity
  8
KONSTRUKTIONSELEMENTE
100
AcDbLine
 62
7
  6
CONTINUOUS
 10
156.3330085383
 20
121.7885544318
 11
164.3330085383
 21
121.7885544318
  0
LINE
  5
21C
100
AcDbEntity
  8
KONSTRUKTIONSELEMENTE
100
AcDbLine
 62
7
  6
CONTINUOUS
 10
164.3330085383
 20
122.5885544318
 11
156.3330085383
 21
122.5885544318
  0
LINE
  5
21D
100
AcDbEntity
  8
KONSTRUKTIONSELEMENTE
100
AcDbLine
 62
7
  6
CONTINUOUS
 10
118.6390085383
 20
122.615673962
 11
128.7270085383
 21
122.615673962
  0
LINE
  5
21E
100
AcDbEntity
  8
KONSTRUKTIONSELEMENTE
100
AcDbLine
 62
7
  6
CONTINUOUS
 10
89.2830085383
 20
123.1812612874
 11
107.9019710645
 21
123.1812612874
  0
LINE
  5
21F
100
AcDbEntity
  8
AUSFORMSCHRAEGEN
100
AcDbLine
 62
7
  6
CONTINUOUS
 10
114.853678717
 20
78.0144989905
 11
113.1905437757
 21
82.5839246872
  0
LINE
  5
220
100
AcDbEntity
  8
KONSTRUKTIONSELEMENTE
100
AcDbLine
 62
7
  6
CONTINUOUS
 10
156.3330085383
 20
130.0552208441
 11
164.3330085383
 21
130.0552208441
  0
LINE
  5
221
100
AcDbEntity
  8
KONSTRUKTIONSELEMENTE
100
AcDbLine
 62
7
  6
CONTINUOUS
 10
164.3330085383
 20
130.8552208441
 11
160.5883276568
 21
130.8552208441
  0
LINE
  5
222
100
AcDbEntity
  8
KONSTRUKTIONSELEMENTE
100
AcDbLine
 62
7
  6
CONTINUOUS
 10
159.5670511828
 20
130.8552208441
 11
156.3330085383
 21
130.8552208441
  0
LINE
  5
223
100
AcDbEntity
  8
AUSFORMSCHRAEGEN
100
AcDbLine
 62
7
  6
CONTINUOUS
 10
116.0947251737
 20
108.6744270747
 11
116.0101523337
 21
108.8371286594
  0
LINE
  5
224
100
AcDbEntity
  8
KONSTRUKTIONSELEMENTE
100
AcDbLine
 62
7
  6
CONTINUOUS
 10
92.7642642339
 20
176.0848210905
 11
89.641194393
 21
173.4642543388
  0
LINE
  5
225
100
AcDbEntity
  8
KONSTRUKTIONSELEMENTE
100
AcDbLine
 62
7
  6
CONTINUOUS
 10
162.4606680975
 20
142.0552216071
 11
162.9713064537
 21
142.1885544318
  0
LINE
  5
226
100
AcDbEntity
  8
KONSTRUKTIONSELEMENTE
100
AcDbLine
 62
7
  6
CONTINUOUS
 10
156.3330085383
 20
134.5885544318
 11
159.5670511828
 21
134.5885544318
  0
LINE
  5
227
100
AcDbEntity
  8
KONSTRUKTIONSELEMENTE
100
AcDbLine
 62
7
  6
CONTINUOUS
 10
160.5883276568
 20
134.5885544318
 11
164.3330085383
 21
134.5885544318
  0
LINE
  5
228
100
AcDbEntity
  8
KONSTRUKTIONSELEMENTE
100
AcDbLine
 62
7
  6
CONTINUOUS
 10
164.3330085383
 20
135.3885544318
 11
156.3330085383
 21
135.3885544318
  0
LINE
  5
229
100
AcDbEntity
  8
KONSTRUKTIONSELEMENTE
100
AcDbLine
 62
7
  6
CONTINUOUS
 10
160.5883276568
 20
136.4552216071
 11
161.4393916235
 21
136.4552216071
  0
LINE
  5
22A
100
AcDbEntity
  8
KONSTRUKTIONSELEMENTE
100
AcDbLine
 62
7
  6
CONTINUOUS
 10
161.4393916235
 20
138.3218872565
 11
160.5883276568
 21
138.3218872565
  0
LINE
  5
22B
100
AcDbEntity
  8
KONSTRUKTIONSELEMENTE
100
AcDbLine
 62
7
  6
CONTINUOUS
 10
164.3330085383
 20
126.8552212256
 11
156.3330085383
 21
128.9885544318
  0
LINE
  5
22C
100
AcDbEntity
  8
KONSTRUKTIONSELEMENTE
100
AcDbLine
 62
7
  6
CONTINUOUS
 10
156.3330085383
 20
128.1885544318
 11
163.3117319451
 21
126.3218876379
  0
LINE
  5
22D
100
AcDbEntity
  8
KONSTRUKTIONSELEMENTE
100
AcDbLine
 62
7
  6
CONTINUOUS
 10
87.5017702804
 20
170.8256026832
 11
87.327772256
 21
171.032965454
  0
LINE
  5
22E
100
AcDbEntity
  8
0
100
AcDbLine
 62
7
  6
CONTINUOUS
 10
106.5109911387
 20
237.4661902145
 11
106.5109911387
 21
254.4885544318
  0
LINE
  5
22F
100
AcDbEntity
  8
KONSTRUKTIONSELEMENTE
100
AcDbLine
 62
7
  6
CONTINUOUS
 10
107.9019710645
 20
123.1812612874
 11
107.9019710645
 21
142.2849743633
  0
LINE
  5
230
100
AcDbEntity
  8
KONSTRUKTIONSELEMENTE
100
AcDbLine
 62
7
  6
CONTINUOUS
 10
161.7798171149
 20
146.8552216071
 11
161.0989658938
 21
146.7218872565
  0
LINE
  5
231
100
AcDbEntity
  8
KONSTRUKTIONSELEMENTE
100
AcDbLine
 62
7
  6
CONTINUOUS
 10
158.2053487406
 20
146.7218872565
 11
157.5244977579
 21
146.5885544318
  0
LINE
  5
232
100
AcDbEntity
  8
KONSTRUKTIONSELEMENTE
100
AcDbLine
 62
7
  6
CONTINUOUS
 10
157.5244977579
 20
139.3885544318
 11
158.8862002001
 21
139.3885544318
  0
LINE
  5
233
100
AcDbEntity
  8
KONSTRUKTIONSELEMENTE
100
AcDbLine
 62
7
  6
CONTINUOUS
 10
157.6947105036
 20
140.1885544318
 11
164.3330085383
 21
140.1885544318
  0
LINE
  5
234
100
AcDbEntity
  8
KONSTRUKTIONSELEMENTE
100
AcDbLine
 62
7
  6
CONTINUOUS
 10
164.3330085383
 20
140.9885544318
 11
156.3330085383
 21
140.9885544318
  0
LINE
  5
235
100
AcDbEntity
  8
KONSTRUKTIONSELEMENTE
100
AcDbLine
 62
7
  6
CONTINUOUS
 10
159.9074766741
 20
144.1885544318
 11
160.5883276568
 21
144.1885544318
  0
LINE
  5
236
100
AcDbEntity
  8
KONSTRUKTIONSELEMENTE
100
AcDbLine
 62
7
  6
CONTINUOUS
 10
116.0330085383
 20
124.6885544318
 11
116.0330085383
 21
153.3209116206
  0
LINE
  5
237
100
AcDbEntity
  8
0
100
AcDbLine
 62
7
  6
CONTINUOUS
 10
116.3330085383
 20
251.7141251453
 11
116.3330085383
 21
237.0855307866
  0
LINE
  5
238
100
AcDbEntity
  8
KONSTRUKTIONSELEMENTE
100
AcDbLine
 62
7
  6
CONTINUOUS
 10
116.3330085383
 20
237.0855307866
 11
116.3330085383
 21
214.8385544318
  0
LINE
  5
239
100
AcDbEntity
  8
KONSTRUKTIONSELEMENTE
100
AcDbLine
 62
7
  6
CONTINUOUS
 10
157.6947105036
 20
158.3218887824
 11
158.2053487406
 21
158.4552200812
  0
LINE
  5
23A
100
AcDbEntity
  8
KONSTRUKTIONSELEMENTE
100
AcDbLine
 62
7
  6
CONTINUOUS
 10
158.2053487406
 20
146.0552216071
 11
158.5457747088
 21
146.0552216071
  0
LINE
  5
23B
100
AcDbEntity
  8
KONSTRUKTIONSELEMENTE
100
AcDbLine
 62
7
  6
CONTINUOUS
 10
161.7798171149
 20
146.1885544318
 11
162.4606680975
 21
146.1885544318
  0
LINE
  5
23C
100
AcDbEntity
  8
KONSTRUKTIONSELEMENTE
100
AcDbLine
 62
7
  6
CONTINUOUS
 10
158.5457747088
 20
146.7218872565
 11
158.2053487406
 21
146.7218872565
  0
LINE
  5
23D
100
AcDbEntity
  8
KONSTRUKTIONSELEMENTE
100
AcDbLine
 62
7
  6
CONTINUOUS
 10
162.4606680975
 20
146.8552216071
 11
161.7798171149
 21
146.8552216071
  0
LINE
  5
23E
100
AcDbEntity
  8
KONSTRUKTIONSELEMENTE
100
AcDbLine
 62
7
  6
CONTINUOUS
 10
157.5244977579
 20
142.3218872565
 11
158.2053487406
 21
142.1885544318
  0
LINE
  5
23F
100
AcDbEntity
  8
KONSTRUKTIONSELEMENTE
100
AcDbLine
 62
7
  6
CONTINUOUS
 10
113.2255418557
 20
161.0343629368
 11
101.2172565507
 21
175.3452800899
  0
LINE
  5
240
100
AcDbEntity
  8
KONSTRUKTIONSELEMENTE
100
AcDbLine
 62
7
  6
CONTINUOUS
 10
118.6390085383
 20
122.615673962
 11
118.6390085383
 21
116.2315125509
  0
LINE
  5
241
100
AcDbEntity
  8
AUSFORMSCHRAEGEN
100
AcDbLine
 62
7
  6
CONTINUOUS
 10
118.6390085383
 20
116.2315125509
 11
118.6390085383
 21
108.8371286594
  0
LINE
  5
242
100
AcDbEntity
  8
AUSFORMSCHRAEGEN
100
AcDbLine
 62
7
  6
CONTINUOUS
 10
118.6390085383
 20
76.579001584
 11
118.6390085383
 21
95.246067866
  0
LINE
  5
243
100
AcDbEntity
  8
KONSTRUKTIONSELEMENTE
100
AcDbLine
 62
7
  6
CONTINUOUS
 10
158.2053487406
 20
159.2552200812
 11
157.6947105036
 21
159.1218887824
  0
LINE
  5
244
100
AcDbEntity
  8
KONSTRUKTIONSELEMENTE
100
AcDbLine
 62
7
  6
CONTINUOUS
 10
162.2904553519
 20
161.3885544318
 11
161.6096043692
 21
161.2552200812
  0
LINE
  5
245
100
AcDbEntity
  8
KONSTRUKTIONSELEMENTE
100
AcDbLine
 62
7
  6
CONTINUOUS
 10
161.6096043692
 20
160.4552200812
 11
162.4606680975
 21
160.5885544318
  0
LINE
  5
246
100
AcDbEntity
  8
KONSTRUKTIONSELEMENTE
100
AcDbLine
 62
7
  6
CONTINUOUS
 10
156.3330085383
 20
154.3218887824
 11
164.3330085383
 21
154.3218887824
  0
LINE
  5
247
100
AcDbEntity
  8
KONSTRUKTIONSELEMENTE
100
AcDbLine
 62
7
  6
CONTINUOUS
 10
164.3330085383
 20
155.1218887824
 11
160.7585404024
 21
155.1218887824
  0
LINE
  5
248
100
AcDbEntity
  8
KONSTRUKTIONSELEMENTE
100
AcDbLine
 62
7
  6
CONTINUOUS
 10
159.7372639284
 20
155.1218887824
 11
157.1840722666
 21
155.1218887824
  0
LINE
  5
249
100
AcDbEntity
  8
KONSTRUKTIONSELEMENTE
100
AcDbLine
 62
7
  6
CONTINUOUS
 10
158.2053487406
 20
158.4552200812
 11
158.7159874544
 21
158.4552200812
  0
LINE
  5
24A
100
AcDbEntity
  8
KONSTRUKTIONSELEMENTE
100
AcDbLine
 62
7
  6
CONTINUOUS
 10
159.2266256914
 20
146.5885544318
 11
158.5457747088
 21
146.7218872565
  0
LINE
  5
24B
100
AcDbEntity
  8
KONSTRUKTIONSELEMENTE
100
AcDbLine
 62
7
  6
CONTINUOUS
 10
162.9713064537
 20
146.7218872565
 11
162.4606680975
 21
146.8552216071
  0
LINE
  5
24C
100
AcDbEntity
  8
KONSTRUKTIONSELEMENTE
100
AcDbLine
 62
7
  6
CONTINUOUS
 10
158.5457747088
 20
146.0552216071
 11
159.2266256914
 21
145.7885544318
  0
LINE
  5
24D
100
AcDbEntity
  8
KONSTRUKTIONSELEMENTE
100
AcDbLine
 62
7
  6
CONTINUOUS
 10
158.2053487406
 20
142.8552216071
 11
157.6947105036
 21
143.1218872565
  0
LINE
  5
24E
100
AcDbEntity
  8
AUSFORMSCHRAEGEN
100
AcDbLine
 62
7
  6
CONTINUOUS
 10
134.5638260326
 20
88.0731142356
 11
131.3558647428
 21
108.8371286594
  0
LINE
  5
24F
100
AcDbEntity
  8
BEZUGSACHSEN
100
AcDbLine
 62
2
  6
CENTER
 10
123.6830085383
 20
71.4874404751
 11
123.6830085383
 21
257.4895063427
  0
LINE
  5
250
100
AcDbEntity
  8
KONSTRUKTIONSELEMENTE
100
AcDbLine
 62
7
  6
CONTINUOUS
 10
128.7270085383
 20
122.615673962
 11
128.7270085383
 21
116.2315125509
  0
LINE
  5
251
100
AcDbEntity
  8
AUSFORMSCHRAEGEN
100
AcDbLine
 62
7
  6
CONTINUOUS
 10
128.7270085383
 20
116.2315125509
 11
128.7270085383
 21
108.8371286594
  0
LINE
  5
252
100
AcDbEntity
  8
AUSFORMSCHRAEGEN
100
AcDbLine
 62
7
  6
CONTINUOUS
 10
128.7270085383
 20
74.6003128202
 11
128.7270085383
 21
95.246067866
  0
LINE
  5
253
100
AcDbEntity
  8
AUSFORMSCHRAEGEN
100
AcDbLine
 62
7
  6
CONTINUOUS
 10
112.8021910439
 20
88.0731142356
 11
116.0101523337
 21
108.8371286594
  0
LINE
  5
254
100
AcDbEntity
  8
KONSTRUKTIONSELEMENTE
100
AcDbLine
 62
7
  6
CONTINUOUS
 10
158.3755619631
 20
170.7218887824
 11
159.0564129458
 21
170.8552200812
  0
LINE
  5
255
100
AcDbEntity
  8
KONSTRUKTIONSELEMENTE
100
AcDbLine
 62
7
  6
CONTINUOUS
 10
158.8862002001
 20
159.2552200812
 11
158.2053487406
 21
159.2552200812
  0
LINE
  5
256
100
AcDbEntity
  8
KONSTRUKTIONSELEMENTE
100
AcDbLine
 62
7
  6
CONTINUOUS
 10
156.3330085383
 20
160.4552200812
 11
161.6096043692
 21
160.4552200812
  0
LINE
  5
257
100
AcDbEntity
  8
KONSTRUKTIONSELEMENTE
100
AcDbLine
 62
7
  6
CONTINUOUS
 10
161.6096043692
 20
161.2552200812
 11
156.3330085383
 21
161.2552200812
  0
LINE
  5
258
100
AcDbEntity
  8
KONSTRUKTIONSELEMENTE
100
AcDbLine
 62
7
  6
CONTINUOUS
 10
156.3330085383
 20
164.4552200812
 11
161.6096043692
 21
164.4552200812
  0
LINE
  5
259
100
AcDbEntity
  8
KONSTRUKTIONSELEMENTE
100
AcDbLine
 62
7
  6
CONTINUOUS
 10
161.6096043692
 20
165.2552200812
 11
156.3330085383
 21
165.2552200812
  0
LINE
  5
25A
100
AcDbEntity
  8
KONSTRUKTIONSELEMENTE
100
AcDbLine
 62
7
  6
CONTINUOUS
 10
162.4606680975
 20
146.1885544318
 11
162.8010935889
 21
146.0552216071
  0
LINE
  5
25B
100
AcDbEntity
  8
KONSTRUKTIONSELEMENTE
100
AcDbLine
 62
7
  6
CONTINUOUS
 10
159.7372639284
 20
146.3218872565
 11
159.2266256914
 21
146.5885544318
  0
LINE
  5
25C
100
AcDbEntity
  8
KONSTRUKTIONSELEMENTE
100
AcDbLine
 62
7
  6
CONTINUOUS
 10
163.4819446907
 20
146.4552216071
 11
162.9713064537
 21
146.7218872565
  0
LINE
  5
25D
100
AcDbEntity
  8
KONSTRUKTIONSELEMENTE
100
AcDbLine
 62
7
  6
CONTINUOUS
 10
156.3330085383
 20
140.1885544318
 11
157.5244977579
 21
139.3885544318
  0
LINE
  5
25E
100
AcDbEntity
  8
KONSTRUKTIONSELEMENTE
100
AcDbLine
 62
7
  6
CONTINUOUS
 10
158.8862002001
 20
139.3885544318
 11
157.6947105036
 21
140.1885544318
  0
LINE
  5
25F
100
AcDbEntity
  8
KONSTRUKTIONSELEMENTE
100
AcDbLine
 62
7
  6
CONTINUOUS
 10
156.8436467753
 20
142.8552216071
 11
157.5244977579
 21
142.3218872565
  0
LINE
  5
260
100
AcDbEntity
  8
KONSTRUKTIONSELEMENTE
100
AcDbLine
 62
7
  6
CONTINUOUS
 10
127.8236751851
 20
167.4395596473
 11
94.5318974603
 21
207.1151553547
  0
LINE
  5
261
100
AcDbEntity
  8
KONSTRUKTIONSELEMENTE
100
AcDbLine
 62
7
  6
CONTINUOUS
 10
131.0330085383
 20
237.0855307866
 11
131.0330085383
 21
214.8385544318
  0
LINE
  5
262
100
AcDbEntity
  8
0
100
AcDbLine
 62
7
  6
CONTINUOUS
 10
131.0330085383
 20
237.0855307866
 11
131.0330085383
 21
251.7141251453
  0
LINE
  5
263
100
AcDbEntity
  8
KONSTRUKTIONSELEMENTE
100
AcDbLine
 62
7
  6
CONTINUOUS
 10
131.3330085383
 20
124.6885544318
 11
131.3330085383
 21
157.7977455021
  0
LINE
  5
264
100
AcDbEntity
  8
KONSTRUKTIONSELEMENTE
100
AcDbLine
 62
7
  6
CONTINUOUS
 10
158.2053487406
 20
171.5218887824
 11
157.5244977579
 21
171.2552200812
  0
LINE
  5
265
100
AcDbEntity
  8
KONSTRUKTIONSELEMENTE
100
AcDbLine
 62
7
  6
CONTINUOUS
 10
159.0564129458
 20
171.6552200812
 11
158.2053487406
 21
171.5218887824
  0
LINE
  5
266
100
AcDbEntity
  8
KONSTRUKTIONSELEMENTE
100
AcDbLine
 62
7
  6
CONTINUOUS
 10
156.3330085383
 20
166.3218887824
 11
164.3330085383
 21
166.3218887824
  0
LINE
  5
267
100
AcDbEntity
  8
KONSTRUKTIONSELEMENTE
100
AcDbLine
 62
7
  6
CONTINUOUS
 10
163.3117319451
 20
167.1218887824
 11
157.3542850123
 21
167.1218887824
  0
LINE
  5
268
100
AcDbEntity
  8
KONSTRUKTIONSELEMENTE
100
AcDbLine
 62
7
  6
CONTINUOUS
 10
87.1734325508
 20
170.8256026832
 11
87.5017702804
 21
170.8256026832
  0
LINE
  5
269
100
AcDbEntity
  8
KONSTRUKTIONSELEMENTE
100
AcDbLine
 62
7
  6
CONTINUOUS
 10
159.0564129458
 20
170.8552200812
 11
161.6096043692
 21
170.8552200812
  0
LINE
  5
26A
100
AcDbEntity
  8
KONSTRUKTIONSELEMENTE
100
AcDbLine
 62
7
  6
CONTINUOUS
 10
161.6096043692
 20
171.6552200812
 11
159.0564129458
 21
171.6552200812
  0
LINE
  5
26B
100
AcDbEntity
  8
KONSTRUKTIONSELEMENTE
100
AcDbLine
 62
7
  6
CONTINUOUS
 10
162.4606680975
 20
165.1218887824
 11
161.6096043692
 21
165.2552200812
  0
LINE
  5
26C
100
AcDbEntity
  8
KONSTRUKTIONSELEMENTE
100
AcDbLine
 62
7
  6
CONTINUOUS
 10
161.6096043692
 20
164.4552200812
 11
162.2904553519
 21
164.3218887824
  0
LINE
  5
26D
100
AcDbEntity
  8
KONSTRUKTIONSELEMENTE
100
AcDbLine
 62
7
  6
CONTINUOUS
 10
158.7159874544
 20
158.4552200812
 11
159.2266256914
 21
158.3218887824
  0
LINE
  5
26E
100
AcDbEntity
  8
KONSTRUKTIONSELEMENTE
100
AcDbLine
 62
7
  6
CONTINUOUS
 10
159.3968384371
 20
159.1218887824
 11
158.8862002001
 21
159.2552200812
  0
LINE
  5
26F
100
AcDbEntity
  8
KONSTRUKTIONSELEMENTE
100
AcDbLine
 62
7
  6
CONTINUOUS
 10
159.2266256914
 20
145.7885544318
 11
159.5670511828
 21
145.5218872565
  0
LINE
  5
270
100
AcDbEntity
  8
KONSTRUKTIONSELEMENTE
100
AcDbLine
 62
7
  6
CONTINUOUS
 10
162.8010935889
 20
146.0552216071
 11
163.1415191994
 21
145.7885544318
  0
LINE
  5
271
100
AcDbEntity
  8
0
100
AcDbLine
 62
7
  6
CONTINUOUS
 10
140.8550259378
 20
254.4885544318
 11
140.8550259378
 21
237.4661902145
  0
LINE
  5
272
100
AcDbEntity
  8
KONSTRUKTIONSELEMENTE
100
AcDbLine
 62
7
  6
CONTINUOUS
 10
157.5244977579
 20
171.2552200812
 11
156.8436467753
 21
170.7218887824
  0
LINE
  5
273
100
AcDbEntity
  8
KONSTRUKTIONSELEMENTE
100
AcDbLine
 62
7
  6
CONTINUOUS
 10
157.8649232493
 20
170.4552200812
 11
158.3755619631
 21
170.7218887824
  0
LINE
  5
274
100
AcDbEntity
  8
KONSTRUKTIONSELEMENTE
100
AcDbLine
 62
7
  6
CONTINUOUS
 10
162.4606680975
 20
171.5218887824
 11
161.6096043692
 21
171.6552200812
  0
LINE
  5
275
100
AcDbEntity
  8
KONSTRUKTIONSELEMENTE
100
AcDbLine
 62
7
  6
CONTINUOUS
 10
161.6096043692
 20
170.8552200812
 11
162.2904553519
 21
170.7218887824
  0
LINE
  5
276
100
AcDbEntity
  8
KONSTRUKTIONSELEMENTE
100
AcDbLine
 62
7
  6
CONTINUOUS
 10
163.1415191994
 20
164.8552200812
 11
162.4606680975
 21
165.1218887824
  0
LINE
  5
277
100
AcDbEntity
  8
KONSTRUKTIONSELEMENTE
100
AcDbLine
 62
7
  6
CONTINUOUS
 10
160.0776894198
 20
158.7218887824
 11
159.3968384371
 21
159.1218887824
  0
LINE
  5
278
100
AcDbEntity
  8
KONSTRUKTIONSELEMENTE
100
AcDbLine
 62
7
  6
CONTINUOUS
 10
159.2266256914
 20
158.3218887824
 11
159.5670511828
 21
158.0552200812
  0
LINE
  5
279
100
AcDbEntity
  8
KONSTRUKTIONSELEMENTE
100
AcDbLine
 62
7
  6
CONTINUOUS
 10
160.2479021654
 20
145.7885544318
 11
159.7372639284
 21
146.3218872565
  0
LINE
  5
27A
100
AcDbEntity
  8
KONSTRUKTIONSELEMENTE
100
AcDbLine
 62
7
  6
CONTINUOUS
 10
157.6947105036
 20
143.1218872565
 11
157.3542850123
 21
143.5218872565
  0
LINE
  5
27B
100
AcDbEntity
  8
KONSTRUKTIONSELEMENTE
100
AcDbLine
 62
7
  6
CONTINUOUS
 10
156.5032212839
 20
143.3885544318
 11
156.8436467753
 21
142.8552216071
  0
LINE
  5
27C
100
AcDbEntity
  8
KONSTRUKTIONSELEMENTE
100
AcDbLine
 62
7
  6
CONTINUOUS
 10
147.0967789256
 20
79.0483907813
 11
147.0967789256
 21
157.7977455021
  0
LINE
  5
27D
100
AcDbEntity
  8
KONSTRUKTIONSELEMENTE
100
AcDbLine
 62
7
  6
CONTINUOUS
 10
156.8436467753
 20
170.7218887824
 11
156.5032212839
 21
170.1885544318
  0
LINE
  5
27E
100
AcDbEntity
  8
KONSTRUKTIONSELEMENTE
100
AcDbLine
 62
7
  6
CONTINUOUS
 10
157.5244977579
 20
170.0552200812
 11
157.8649232493
 21
170.4552200812
  0
LINE
  5
27F
100
AcDbEntity
  8
KONSTRUKTIONSELEMENTE
100
AcDbLine
 62
7
  6
CONTINUOUS
 10
157.6947105036
 20
159.1218887824
 11
157.0138595209
 21
158.7218887824
  0
LINE
  5
280
100
AcDbEntity
  8
KONSTRUKTIONSELEMENTE
100
AcDbLine
 62
7
  6
CONTINUOUS
 10
162.8010935889
 20
161.6552200812
 11
162.2904553519
 21
161.3885544318
  0
LINE
  5
281
100
AcDbEntity
  8
KONSTRUKTIONSELEMENTE
100
AcDbLine
 62
7
  6
CONTINUOUS
 10
162.4606680975
 20
160.5885544318
 11
163.1415191994
 21
160.8552200812
  0
LINE
  5
282
100
AcDbEntity
  8
KONSTRUKTIONSELEMENTE
100
AcDbLine
 62
7
  6
CONTINUOUS
 10
164.3330085383
 20
159.3885544318
 11
160.4181149111
 21
158.1885544318
  0
LINE
  5
283
100
AcDbEntity
  8
KONSTRUKTIONSELEMENTE
100
AcDbLine
 62
7
  6
CONTINUOUS
 10
160.7585404024
 20
157.3885544318
 11
164.3330085383
 21
158.4552200812
  0
LINE
  5
284
100
AcDbEntity
  8
KONSTRUKTIONSELEMENTE
100
AcDbLine
 62
7
  6
CONTINUOUS
 10
163.1415191994
 20
171.2552200812
 11
162.4606680975
 21
171.5218887824
  0
LINE
  5
285
100
AcDbEntity
  8
KONSTRUKTIONSELEMENTE
100
AcDbLine
 62
7
  6
CONTINUOUS
 10
162.2904553519
 20
164.3218887824
 11
162.8010935889
 21
164.0552200812
  0
LINE
  5
286
100
AcDbEntity
  8
KONSTRUKTIONSELEMENTE
100
AcDbLine
 62
7
  6
CONTINUOUS
 10
162.2904553519
 20
170.7218887824
 11
162.8010935889
 21
170.4552200812
  0
LINE
  5
287
100
AcDbEntity
  8
KONSTRUKTIONSELEMENTE
100
AcDbLine
 62
7
  6
CONTINUOUS
 10
163.8223702417
 20
146.0552216071
 11
163.4819446907
 21
146.4552216071
  0
LINE
  5
288
100
AcDbEntity
  8
KONSTRUKTIONSELEMENTE
100
AcDbLine
 62
7
  6
CONTINUOUS
 10
139.8994238929
 20
177.5723159343
 11
109.8790647317
 21
213.3491868155
  0
LINE
  5
289
100
AcDbEntity
  8
KONSTRUKTIONSELEMENTE
100
AcDbLine
 62
7
  6
CONTINUOUS
 10
163.1415191994
 20
145.7885544318
 11
163.3117319451
 21
145.5218872565
  0
LINE
  5
28A
100
AcDbEntity
  8
KONSTRUKTIONSELEMENTE
100
AcDbLine
 62
7
  6
CONTINUOUS
 10
164.1627957777
 20
145.5218872565
 11
163.8223702417
 21
146.0552216071
  0
LINE
  5
28B
100
AcDbEntity
  8
KONSTRUKTIONSELEMENTE
100
AcDbLine
 62
7
  6
CONTINUOUS
 10
159.5670511828
 20
145.5218872565
 11
159.9074766741
 21
144.7218872565
  0
LINE
  5
28C
100
AcDbEntity
  8
KONSTRUKTIONSELEMENTE
100
AcDbLine
 62
7
  6
CONTINUOUS
 10
156.3330085383
 20
169.5218887824
 11
156.3330085383
 21
166.3218887824
  0
LINE
  5
28D
100
AcDbEntity
  8
KONSTRUKTIONSELEMENTE
100
AcDbLine
 62
7
  6
CONTINUOUS
 10
156.3330085383
 20
165.2552200812
 11
156.3330085383
 21
164.4552200812
  0
LINE
  5
28E
100
AcDbEntity
  8
KONSTRUKTIONSELEMENTE
100
AcDbLine
 62
7
  6
CONTINUOUS
 10
156.3330085383
 20
161.2552200812
 11
156.3330085383
 21
160.4552200812
  0
LINE
  5
28F
100
AcDbEntity
  8
KONSTRUKTIONSELEMENTE
100
AcDbLine
 62
7
  6
CONTINUOUS
 10
156.3330085383
 20
157.5218887824
 11
156.3330085383
 21
154.3218887824
  0
LINE
  5
290
100
AcDbEntity
  8
KONSTRUKTIONSELEMENTE
100
AcDbLine
 62
7
  6
CONTINUOUS
 10
156.3330085383
 20
144.5885544318
 11
156.3330085383
 21
144.3218872565
  0
LINE
  5
291
100
AcDbEntity
  8
KONSTRUKTIONSELEMENTE
100
AcDbLine
 62
7
  6
CONTINUOUS
 10
156.3330085383
 20
140.9885544318
 11
156.3330085383
 21
140.1885544318
  0
LINE
  5
292
100
AcDbEntity
  8
KONSTRUKTIONSELEMENTE
100
AcDbLine
 62
7
  6
CONTINUOUS
 10
156.3330085383
 20
135.3885544318
 11
156.3330085383
 21
134.5885544318
  0
LINE
  5
293
100
AcDbEntity
  8
KONSTRUKTIONSELEMENTE
100
AcDbLine
 62
7
  6
CONTINUOUS
 10
156.3330085383
 20
130.8552208441
 11
156.3330085383
 21
130.0552208441
  0
LINE
  5
294
100
AcDbEntity
  8
KONSTRUKTIONSELEMENTE
100
AcDbLine
 62
7
  6
CONTINUOUS
 10
156.3330085383
 20
128.9885544318
 11
156.3330085383
 21
128.1885544318
  0
LINE
  5
295
100
AcDbEntity
  8
KONSTRUKTIONSELEMENTE
100
AcDbLine
 62
7
  6
CONTINUOUS
 10
156.3330085383
 20
124.4552210349
 11
156.3330085383
 21
123.6552210349
  0
LINE
  5
296
100
AcDbEntity
  8
KONSTRUKTIONSELEMENTE
100
AcDbLine
 62
7
  6
CONTINUOUS
 10
156.3330085383
 20
122.5885544318
 11
156.3330085383
 21
121.7885544318
  0
LINE
  5
297
100
AcDbEntity
  8
KONSTRUKTIONSELEMENTE
100
AcDbLine
 62
7
  6
CONTINUOUS
 10
156.5032212839
 20
170.1885544318
 11
156.3330085383
 21
169.5218887824
  0
LINE
  5
298
100
AcDbEntity
  8
KONSTRUKTIONSELEMENTE
100
AcDbLine
 62
7
  6
CONTINUOUS
 10
157.3542850123
 20
169.5218887824
 11
157.5244977579
 21
170.0552200812
  0
LINE
  5
299
100
AcDbEntity
  8
AUSFORMSCHRAEGEN
100
AcDbLine
 62
7
  6
CONTINUOUS
 10
131.2712917657
 20
108.6744270747
 11
131.3558647428
 21
108.8371286594
  0
LINE
  5
29A
100
AcDbEntity
  8
KONSTRUKTIONSELEMENTE
100
AcDbLine
 62
7
  6
CONTINUOUS
 10
163.1415191994
 20
162.0552200812
 11
162.8010935889
 21
161.6552200812
  0
LINE
  5
29B
100
AcDbEntity
  8
KONSTRUKTIONSELEMENTE
100
AcDbLine
 62
7
  6
CONTINUOUS
 10
157.0138595209
 20
158.7218887824
 11
156.5032212839
 21
158.1885544318
  0
LINE
  5
29C
100
AcDbEntity
  8
KONSTRUKTIONSELEMENTE
100
AcDbLine
 62
7
  6
CONTINUOUS
 10
157.3542850123
 20
158.0552200812
 11
157.6947105036
 21
158.3218887824
  0
LINE
  5
29D
100
AcDbEntity
  8
KONSTRUKTIONSELEMENTE
100
AcDbLine
 62
7
  6
CONTINUOUS
 10
163.1415191994
 20
160.8552200812
 11
163.8223702417
 21
161.3885544318
  0
LINE
  5
29E
100
AcDbEntity
  8
KONSTRUKTIONSELEMENTE
100
AcDbLine
 62
7
  6
CONTINUOUS
 10
163.8223702417
 20
164.3218887824
 11
163.1415191994
 21
164.8552200812
  0
LINE
  5
29F
100
AcDbEntity
  8
KONSTRUKTIONSELEMENTE
100
AcDbLine
 62
7
  6
CONTINUOUS
 10
163.8223702417
 20
170.7218887824
 11
163.1415191994
 21
171.2552200812
  0
LINE
  5
2A0
100
AcDbEntity
  8
KONSTRUKTIONSELEMENTE
100
AcDbLine
 62
7
  6
CONTINUOUS
 10
162.8010935889
 20
164.0552200812
 11
163.1415191994
 21
163.6552200812
  0
LINE
  5
2A1
100
AcDbEntity
  8
KONSTRUKTIONSELEMENTE
100
AcDbLine
 62
7
  6
CONTINUOUS
 10
160.4181149111
 20
158.1885544318
 11
160.0776894198
 21
158.7218887824
  0
LINE
  5
2A2
100
AcDbEntity
  8
KONSTRUKTIONSELEMENTE
100
AcDbLine
 62
7
  6
CONTINUOUS
 10
159.5670511828
 20
158.0552200812
 11
159.7372639284
 21
157.6552200812
  0
LINE
  5
2A3
100
AcDbEntity
  8
KONSTRUKTIONSELEMENTE
100
AcDbLine
 62
7
  6
CONTINUOUS
 10
164.3330085383
 20
144.9885544318
 11
164.1627957777
 21
145.5218872565
  0
LINE
  5
2A4
100
AcDbEntity
  8
KONSTRUKTIONSELEMENTE
100
AcDbLine
 62
7
  6
CONTINUOUS
 10
157.3542850123
 20
143.5218872565
 11
157.1840722666
 21
144.1885544318
  0
LINE
  5
2A5
100
AcDbEntity
  8
KONSTRUKTIONSELEMENTE
100
AcDbLine
 62
7
  6
CONTINUOUS
 10
156.3330085383
 20
144.3218872565
 11
156.5032212839
 21
143.3885544318
  0
LINE
  5
2A6
100
AcDbEntity
  8
KONSTRUKTIONSELEMENTE
100
AcDbLine
 62
7
  6
CONTINUOUS
 10
157.1840722666
 20
144.1885544318
 11
157.1840722666
 21
144.7218872565
  0
LINE
  5
2A7
100
AcDbEntity
  8
KONSTRUKTIONSELEMENTE
100
AcDbLine
 62
7
  6
CONTINUOUS
 10
157.1840722666
 20
155.1218887824
 11
157.1840722666
 21
157.6552200812
  0
LINE
  5
2A8
100
AcDbEntity
  8
KONSTRUKTIONSELEMENTE
100
AcDbLine
 62
7
  6
CONTINUOUS
 10
157.3542850123
 20
167.1218887824
 11
157.3542850123
 21
169.5218887824
  0
LINE
  5
2A9
100
AcDbEntity
  8
KONSTRUKTIONSELEMENTE
100
AcDbLine
 62
7
  6
CONTINUOUS
 10
158.2053487406
 20
142.1885544318
 11
158.2053487406
 21
142.8552216071
  0
LINE
  5
2AA
100
AcDbEntity
  8
KONSTRUKTIONSELEMENTE
100
AcDbLine
 62
7
  6
CONTINUOUS
 10
158.6830085383
 20
207.4885544318
 11
158.6830085383
 21
244.4885544318
  0
LINE
  5
2AB
100
AcDbEntity
  8
KONSTRUKTIONSELEMENTE
100
AcDbLine
 62
7
  6
CONTINUOUS
 10
159.5670511828
 20
134.5885544318
 11
159.5670511828
 21
130.8552208441
  0
LINE
  5
2AC
100
AcDbEntity
  8
KONSTRUKTIONSELEMENTE
100
AcDbLine
 62
7
  6
CONTINUOUS
 10
159.7372639284
 20
157.6552200812
 11
159.7372639284
 21
155.1218887824
  0
LINE
  5
2AD
100
AcDbEntity
  8
KONSTRUKTIONSELEMENTE
100
AcDbLine
 62
7
  6
CONTINUOUS
 10
159.9074766741
 20
144.7218872565
 11
159.9074766741
 21
144.1885544318
  0
LINE
  5
2AE
100
AcDbEntity
  8
KONSTRUKTIONSELEMENTE
100
AcDbLine
 62
7
  6
CONTINUOUS
 10
160.5883276568
 20
138.3218872565
 11
160.5883276568
 21
136.4552216071
  0
LINE
  5
2AF
100
AcDbEntity
  8
KONSTRUKTIONSELEMENTE
100
AcDbLine
 62
7
  6
CONTINUOUS
 10
160.5883276568
 20
130.8552208441
 11
160.5883276568
 21
134.5885544318
  0
LINE
  5
2B0
100
AcDbEntity
  8
KONSTRUKTIONSELEMENTE
100
AcDbLine
 62
7
  6
CONTINUOUS
 10
160.5883276568
 20
144.1885544318
 11
160.5883276568
 21
144.7218872565
  0
LINE
  5
2B1
100
AcDbEntity
  8
KONSTRUKTIONSELEMENTE
100
AcDbLine
 62
7
  6
CONTINUOUS
 10
160.7585404024
 20
155.1218887824
 11
160.7585404024
 21
157.3885544318
  0
LINE
  5
2B2
100
AcDbEntity
  8
KONSTRUKTIONSELEMENTE
100
AcDbLine
 62
7
  6
CONTINUOUS
 10
161.4393916235
 20
136.4552216071
 11
161.4393916235
 21
138.3218872565
  0
LINE
  5
2B3
100
AcDbEntity
  8
KONSTRUKTIONSELEMENTE
100
AcDbLine
 62
7
  6
CONTINUOUS
 10
162.4606680975
 20
142.7218872565
 11
162.4606680975
 21
142.0552216071
  0
LINE
  5
2B4
100
AcDbEntity
  8
KONSTRUKTIONSELEMENTE
100
AcDbLine
 62
7
  6
CONTINUOUS
 10
163.3117319451
 20
169.5218887824
 11
163.3117319451
 21
167.1218887824
  0
LINE
  5
2B5
100
AcDbEntity
  8
KONSTRUKTIONSELEMENTE
100
AcDbLine
 62
7
  6
CONTINUOUS
 10
163.3117319451
 20
163.1218887824
 11
163.3117319451
 21
162.5885544318
  0
LINE
  5
2B6
100
AcDbEntity
  8
KONSTRUKTIONSELEMENTE
100
AcDbLine
 62
7
  6
CONTINUOUS
 10
163.4819446907
 20
144.8552216071
 11
163.4819446907
 21
144.0552216071
  0
LINE
  5
2B7
100
AcDbEntity
  8
KONSTRUKTIONSELEMENTE
100
AcDbLine
 62
7
  6
CONTINUOUS
 10
156.5032212839
 20
145.5218872565
 11
156.3330085383
 21
144.5885544318
  0
LINE
  5
2B8
100
AcDbEntity
  8
KONSTRUKTIONSELEMENTE
100
AcDbLine
 62
7
  6
CONTINUOUS
 10
156.5032212839
 20
158.1885544318
 11
156.3330085383
 21
157.5218887824
  0
LINE
  5
2B9
100
AcDbEntity
  8
KONSTRUKTIONSELEMENTE
100
AcDbLine
 62
7
  6
CONTINUOUS
 10
157.1840722666
 20
144.7218872565
 11
157.3542850123
 21
145.3885544318
  0
LINE
  5
2BA
100
AcDbEntity
  8
KONSTRUKTIONSELEMENTE
100
AcDbLine
 62
7
  6
CONTINUOUS
 10
164.1627957777
 20
161.9218887824
 11
164.3330085383
 21
162.5885544318
  0
LINE
  5
2BB
100
AcDbEntity
  8
KONSTRUKTIONSELEMENTE
100
AcDbLine
 62
7
  6
CONTINUOUS
 10
163.3117319451
 20
162.5885544318
 11
163.1415191994
 21
162.0552200812
  0
LINE
  5
2BC
100
AcDbEntity
  8
AUSFORMSCHRAEGEN
100
AcDbLine
 62
7
  6
CONTINUOUS
 10
131.2304271956
 20
74.4924770137
 11
134.1754733009
 21
82.5839246872
  0
LINE
  5
2BD
100
AcDbEntity
  8
KONSTRUKTIONSELEMENTE
100
AcDbLine
 62
7
  6
CONTINUOUS
 10
157.1840722666
 20
157.6552200812
 11
157.3542850123
 21
158.0552200812
  0
LINE
  5
2BE
100
AcDbEntity
  8
KONSTRUKTIONSELEMENTE
100
AcDbLine
 62
7
  6
CONTINUOUS
 10
163.8223702417
 20
161.3885544318
 11
164.1627957777
 21
161.9218887824
  0
LINE
  5
2BF
100
AcDbEntity
  8
KONSTRUKTIONSELEMENTE
100
AcDbLine
 62
7
  6
CONTINUOUS
 10
156.8436467753
 20
146.0552216071
 11
156.5032212839
 21
145.5218872565
  0
LINE
  5
2C0
100
AcDbEntity
  8
KONSTRUKTIONSELEMENTE
100
AcDbLine
 62
7
  6
CONTINUOUS
 10
157.3542850123
 20
145.3885544318
 11
157.6947105036
 21
145.7885544318
  0
LINE
  5
2C1
100
AcDbEntity
  8
KONSTRUKTIONSELEMENTE
100
AcDbLine
 62
7
  6
CONTINUOUS
 10
157.5244977579
 20
146.5885544318
 11
156.8436467753
 21
146.0552216071
  0
LINE
  5
2C2
100
AcDbEntity
  8
KONSTRUKTIONSELEMENTE
100
AcDbLine
 62
7
  6
CONTINUOUS
 10
157.6947105036
 20
145.7885544318
 11
158.2053487406
 21
146.0552216071
  0
LINE
  5
2C3
100
AcDbEntity
  8
KONSTRUKTIONSELEMENTE
100
AcDbLine
 62
7
  6
CONTINUOUS
 10
161.0989658938
 20
146.7218872565
 11
160.5883276568
 21
146.4552216071
  0
LINE
  5
2C4
100
AcDbEntity
  8
KONSTRUKTIONSELEMENTE
100
AcDbLine
 62
7
  6
CONTINUOUS
 10
161.0989658938
 20
145.9218872565
 11
161.7798171149
 21
146.1885544318
  0
LINE
  5
2C5
100
AcDbEntity
  8
KONSTRUKTIONSELEMENTE
100
AcDbLine
 62
7
  6
CONTINUOUS
 10
162.8010935889
 20
142.8552216071
 11
162.4606680975
 21
142.7218872565
  0
LINE
  5
2C6
100
AcDbEntity
  8
KONSTRUKTIONSELEMENTE
100
AcDbLine
 62
7
  6
CONTINUOUS
 10
162.8010935889
 20
170.4552200812
 11
163.1415191994
 21
170.0552200812
  0
LINE
  5
2C7
100
AcDbEntity
  8
KONSTRUKTIONSELEMENTE
100
AcDbLine
 62
7
  6
CONTINUOUS
 10
164.1627957777
 20
163.7885544318
 11
163.8223702417
 21
164.3218887824
  0
LINE
  5
2C8
100
AcDbEntity
  8
KONSTRUKTIONSELEMENTE
100
AcDbLine
 62
7
  6
CONTINUOUS
 10
164.1627957777
 20
170.1885544318
 11
163.8223702417
 21
170.7218887824
  0
LINE
  5
2C9
100
AcDbEntity
  8
KONSTRUKTIONSELEMENTE
100
AcDbLine
 62
7
  6
CONTINUOUS
 10
163.1415191994
 20
163.6552200812
 11
163.3117319451
 21
163.1218887824
  0
LINE
  5
2CA
100
AcDbEntity
  8
KONSTRUKTIONSELEMENTE
100
AcDbLine
 62
7
  6
CONTINUOUS
 10
163.1415191994
 20
170.0552200812
 11
163.3117319451
 21
169.5218887824
  0
LINE
  5
2CB
100
AcDbEntity
  8
KONSTRUKTIONSELEMENTE
100
AcDbLine
 62
7
  6
CONTINUOUS
 10
163.3117319451
 20
145.5218872565
 11
163.4819446907
 21
144.8552216071
  0
LINE
  5
2CC
100
AcDbEntity
  8
KONSTRUKTIONSELEMENTE
100
AcDbLine
 62
7
  6
CONTINUOUS
 10
164.3330085383
 20
163.1218887824
 11
164.1627957777
 21
163.7885544318
  0
LINE
  5
2CD
100
AcDbEntity
  8
KONSTRUKTIONSELEMENTE
100
AcDbLine
 62
7
  6
CONTINUOUS
 10
164.3330085383
 20
121.7885544318
 11
164.3330085383
 21
122.5885544318
  0
LINE
  5
2CE
100
AcDbEntity
  8
KONSTRUKTIONSELEMENTE
100
AcDbLine
 62
7
  6
CONTINUOUS
 10
164.3330085383
 20
125.7885544318
 11
164.3330085383
 21
126.8552212256
  0
LINE
  5
2CF
100
AcDbEntity
  8
KONSTRUKTIONSELEMENTE
100
AcDbLine
 62
7
  6
CONTINUOUS
 10
164.3330085383
 20
130.0552208441
 11
164.3330085383
 21
130.8552208441
  0
LINE
  5
2D0
100
AcDbEntity
  8
KONSTRUKTIONSELEMENTE
100
AcDbLine
 62
7
  6
CONTINUOUS
 10
164.3330085383
 20
134.5885544318
 11
164.3330085383
 21
135.3885544318
  0
LINE
  5
2D1
100
AcDbEntity
  8
KONSTRUKTIONSELEMENTE
100
AcDbLine
 62
7
  6
CONTINUOUS
 10
164.3330085383
 20
140.1885544318
 11
164.3330085383
 21
140.9885544318
  0
LINE
  5
2D2
100
AcDbEntity
  8
KONSTRUKTIONSELEMENTE
100
AcDbLine
 62
7
  6
CONTINUOUS
 10
164.3330085383
 20
143.9218872565
 11
164.3330085383
 21
144.9885544318
  0
LINE
  5
2D3
100
AcDbEntity
  8
KONSTRUKTIONSELEMENTE
100
AcDbLine
 62
7
  6
CONTINUOUS
 10
164.3330085383
 20
154.3218887824
 11
164.3330085383
 21
155.1218887824
  0
LINE
  5
2D4
100
AcDbEntity
  8
KONSTRUKTIONSELEMENTE
100
AcDbLine
 62
7
  6
CONTINUOUS
 10
164.3330085383
 20
158.4552200812
 11
164.3330085383
 21
159.3885544318
  0
LINE
  5
2D5
100
AcDbEntity
  8
KONSTRUKTIONSELEMENTE
100
AcDbLine
 62
7
  6
CONTINUOUS
 10
164.3330085383
 20
162.5885544318
 11
164.3330085383
 21
163.1218887824
  0
LINE
  5
2D6
100
AcDbEntity
  8
KONSTRUKTIONSELEMENTE
100
AcDbLine
 62
7
  6
CONTINUOUS
 10
164.3330085383
 20
166.3218887824
 11
164.3330085383
 21
169.5218887824
  0
LINE
  5
2D7
100
AcDbEntity
  8
KONSTRUKTIONSELEMENTE
100
AcDbLine
 62
7
  6
CONTINUOUS
 10
160.5883276568
 20
144.7218872565
 11
160.7585404024
 21
145.5218872565
  0
LINE
  5
2D8
100
AcDbEntity
  8
KONSTRUKTIONSELEMENTE
100
AcDbLine
 62
7
  6
CONTINUOUS
 10
163.4819446907
 20
144.0552216071
 11
163.3117319451
 21
143.3885544318
  0
LINE
  5
2D9
100
AcDbEntity
  8
KONSTRUKTIONSELEMENTE
100
AcDbLine
 62
7
  6
CONTINUOUS
 10
164.1627957777
 20
143.3885544318
 11
164.3330085383
 21
143.9218872565
  0
LINE
  5
2DA
100
AcDbEntity
  8
KONSTRUKTIONSELEMENTE
100
AcDbLine
 62
7
  6
CONTINUOUS
 10
160.5883276568
 20
146.4552216071
 11
160.2479021654
 21
145.7885544318
  0
LINE
  5
2DB
100
AcDbEntity
  8
KONSTRUKTIONSELEMENTE
100
AcDbLine
 62
7
  6
CONTINUOUS
 10
163.3117319451
 20
143.3885544318
 11
163.1415191994
 21
143.1218872565
  0
LINE
  5
2DC
100
AcDbEntity
  8
KONSTRUKTIONSELEMENTE
100
AcDbLine
 62
7
  6
CONTINUOUS
 10
163.8223702417
 20
142.8552216071
 11
164.1627957777
 21
143.3885544318
  0
LINE
  5
2DD
100
AcDbEntity
  8
KONSTRUKTIONSELEMENTE
100
AcDbLine
 62
7
  6
CONTINUOUS
 10
160.7585404024
 20
145.5218872565
 11
161.0989658938
 21
145.9218872565
  0
LINE
  5
2DE
100
AcDbEntity
  8
KONSTRUKTIONSELEMENTE
100
AcDbLine
 62
7
  6
CONTINUOUS
 10
163.4819446907
 20
142.4552216071
 11
163.8223702417
 21
142.8552216071
  0
LINE
  5
2DF
100
AcDbEntity
  8
KONSTRUKTIONSELEMENTE
100
AcDbLine
 62
7
  6
CONTINUOUS
 10
163.1415191994
 20
143.1218872565
 11
162.8010935889
 21
142.8552216071
  0
LINE
  5
2E0
100
AcDbEntity
  8
KONSTRUKTIONSELEMENTE
100
AcDbLine
 62
7
  6
CONTINUOUS
 10
162.9713064537
 20
142.1885544318
 11
163.4819446907
 21
142.4552216071
  0
LINE
  5
2E1
100
AcDbEntity
  8
KONSTRUKTIONSELEMENTE
100
AcDbLine
 62
7
  6
CONTINUOUS
 10
164.3330085383
 20
169.5218887824
 11
164.1627957777
 21
170.1885544318
  0
LINE
  5
2E2
100
AcDbEntity
  8
KONSTRUKTIONSELEMENTE
100
AcDbLine
 62
7
  6
CONTINUOUS
 10
174.3330085383
 20
117.0135544318
 11
174.3330085383
 21
167.8593038711
  0
LINE
  5
2E3
100
AcDbEntity
  8
KONSTRUKTIONSELEMENTE
100
AcDbLine
 62
7
  6
CONTINUOUS
 10
90.1428715927
 20
222.5523248191
 11
88.6910114699
 21
222.5523248191
  0
LINE
  5
2E4
100
AcDbEntity
  8
BEZUGSACHSEN
100
AcDbLine
 62
7
  6
CONTINUOUS
 10
116.3330085383
 20
222.5885544318
 11
131.0330085383
 21
222.5885544318
  0
LINE
  5
2E5
100
AcDbEntity
  8
BEZUGSACHSEN
100
AcDbLine
 62
7
  6
CONTINUOUS
 10
88.6830085383
 20
230.4885544318
 11
96.3793073714
 21
230.4885544318
  0
LINE
  5
2E6
100
AcDbEntity
  8
KONSTRUKTIONSELEMENTE
100
AcDbLine
 62
7
  6
CONTINUOUS
 10
101.7867097052
 20
230.4885544318
 11
106.3405402465
 21
230.4885544318
  0
LINE
  5
2E7
100
AcDbEntity
  8
KONSTRUKTIONSELEMENTE
100
AcDbLine
 62
7
  6
CONTINUOUS
 10
141.0254768301
 20
230.4885544318
 11
158.6830085383
 21
230.4885544318
  0
LINE
  5
2E8
100
AcDbEntity
  8
TEIL_STARTBEZUEGE
100
AcDbLine
 62
2
  6
CENTER
 10
94.2202930277
 20
231.7885544318
 11
159.3040886481
 21
231.7885544318
  0
LINE
  5
2E9
100
AcDbEntity
  8
0
100
AcDbLine
 62
7
  6
CONTINUOUS
 10
150.2920122265
 20
254.4885544318
 11
158.6830085383
 21
244.4885544318
  0
LINE
  5
2EA
100
AcDbEntity
  8
BEZUGSACHSEN
100
AcDbLine
 62
7
  6
CONTINUOUS
 10
131.0330085383
 20
240.9885544318
 11
116.3330085383
 21
240.9885544318
  0
LINE
  5
2EB
100
AcDbEntity
  8
KONSTRUKTIONSELEMENTE
100
AcDbLine
 62
7
  6
CONTINUOUS
 10
97.07400485
 20
254.4885544318
 11
106.5109911387
 21
254.4885544318
  0
LINE
  5
2EC
100
AcDbEntity
  8
KONSTRUKTIONSELEMENTE
100
AcDbLine
 62
7
  6
CONTINUOUS
 10
140.8550259378
 20
254.4885544318
 11
150.2920122265
 21
254.4885544318
  0
LINE
  5
2ED
100
AcDbEntity
  8
KONSTRUKTIONSELEMENTE
100
AcDbLine
 62
7
  6
CONTINUOUS
 10
274.3934326287
 20
74.4885544318
 11
245.4858273572
 21
74.4885544318
  0
LINE
  5
2EE
100
AcDbEntity
  8
0
100
AcDbLine
 62
7
  6
CONTINUOUS
 10
237.404096087
 20
82.5839246872
 11
245.4955437605
 21
74.4924770137
  0
LINE
  5
2EF
100
AcDbEntity
  8
0
100
AcDbLine
 62
7
  6
CONTINUOUS
 10
234.5906323162
 20
116.2315125509
 11
245.150906932
 21
108.8371286594
  0
LINE
  5
2F0
100
AcDbEntity
  8
KONSTRUKTIONSELEMENTE
100
AcDbLine
 62
8
  6
HIDDEN
 10
248.9081142599
 20
117.6885544318
 11
270.9711457259
 21
117.6885544318
  0
LINE
  5
2F1
100
AcDbEntity
  8
DEFAULT_2
100
AcDbLine
 62
8
  6
HIDDEN
 10
248.9081142599
 20
117.6885544318
 11
270.9711457259
 21
117.6885544318
  0
LINE
  5
2F2
100
AcDbEntity
  8
0
100
AcDbLine
 62
7
  6
CONTINUOUS
 10
248.9081142599
 20
117.6885544318
 11
237.3005480578
 21
122.615673962
  0
LINE
  5
2F3
100
AcDbEntity
  8
KONSTRUKTIONSELEMENTE
100
AcDbLine
 62
7
  6
CONTINUOUS
 10
278.9396299929
 20
121.7885544318
 11
279.5701299929
 21
121.7885544318
  0
LINE
  5
2F4
100
AcDbEntity
  8
KONSTRUKTIONSELEMENTE
100
AcDbLine
 62
7
  6
CONTINUOUS
 10
278.9396299929
 20
122.5885544318
 11
279.5701299929
 21
122.5885544318
  0
LINE
  5
2F5
100
AcDbEntity
  8
KONSTRUKTIONSELEMENTE
100
AcDbLine
 62
7
  6
CONTINUOUS
 10
278.9396299929
 20
123.6552210349
 11
279.5701299929
 21
123.6552210349
  0
LINE
  5
2F6
100
AcDbEntity
  8
KONSTRUKTIONSELEMENTE
100
AcDbLine
 62
7
  6
CONTINUOUS
 10
278.9396299929
 20
124.4552210349
 11
279.5701299929
 21
124.4552210349
  0
LINE
  5
2F7
100
AcDbEntity
  8
KONSTRUKTIONSELEMENTE
100
AcDbLine
 62
7
  6
CONTINUOUS
 10
278.9396299929
 20
126.3218876379
 11
279.5701299929
 21
126.3218876379
  0
LINE
  5
2F8
100
AcDbEntity
  8
KONSTRUKTIONSELEMENTE
100
AcDbLine
 62
7
  6
CONTINUOUS
 10
278.9396299929
 20
128.1885544318
 11
279.5701299929
 21
128.1885544318
  0
LINE
  5
2F9
100
AcDbEntity
  8
KONSTRUKTIONSELEMENTE
100
AcDbLine
 62
7
  6
CONTINUOUS
 10
278.9396299929
 20
128.9885544318
 11
279.5701299929
 21
128.9885544318
  0
LINE
  5
2FA
100
AcDbEntity
  8
KONSTRUKTIONSELEMENTE
100
AcDbLine
 62
7
  6
CONTINUOUS
 10
278.9396299929
 20
130.0552208441
 11
279.5701299929
 21
130.0552208441
  0
LINE
  5
2FB
100
AcDbEntity
  8
KONSTRUKTIONSELEMENTE
100
AcDbLine
 62
7
  6
CONTINUOUS
 10
278.9396299929
 20
130.8552208441
 11
279.5701299929
 21
130.8552208441
  0
LINE
  5
2FC
100
AcDbEntity
  8
0
100
AcDbLine
 62
7
  6
CONTINUOUS
 10
241.4987354242
 20
237.4661902145
 11
240.9396299929
 21
230.4885544318
  0
LINE
  5
2FD
100
AcDbEntity
  8
KONSTRUKTIONSELEMENTE
100
AcDbLine
 62
7
  6
CONTINUOUS
 10
278.9396299929
 20
134.5885544318
 11
279.5701299929
 21
134.5885544318
  0
LINE
  5
2FE
100
AcDbEntity
  8
KONSTRUKTIONSELEMENTE
100
AcDbLine
 62
7
  6
CONTINUOUS
 10
278.9396299929
 20
135.3885544318
 11
279.5701299929
 21
135.3885544318
  0
LINE
  5
2FF
100
AcDbEntity
  8
KONSTRUKTIONSELEMENTE
100
AcDbLine
 62
7
  6
CONTINUOUS
 10
278.9396299929
 20
136.4552216071
 11
279.5701299929
 21
136.4552216071
  0
LINE
  5
300
100
AcDbEntity
  8
KONSTRUKTIONSELEMENTE
100
AcDbLine
 62
7
  6
CONTINUOUS
 10
278.9396299929
 20
138.3218872565
 11
279.5701299929
 21
138.3218872565
  0
LINE
  5
301
100
AcDbEntity
  8
KONSTRUKTIONSELEMENTE
100
AcDbLine
 62
7
  6
CONTINUOUS
 10
278.9396299929
 20
139.3885544318
 11
279.5701299929
 21
139.3885544318
  0
LINE
  5
302
100
AcDbEntity
  8
KONSTRUKTIONSELEMENTE
100
AcDbLine
 62
7
  6
CONTINUOUS
 10
278.9396299929
 20
140.1885544318
 11
279.5701299929
 21
140.1885544318
  0
LINE
  5
303
100
AcDbEntity
  8
0
100
AcDbLine
 62
7
  6
CONTINUOUS
 10
240.9396299929
 20
98.9159819194
 11
240.9396299929
 21
111.7858965176
  0
LINE
  5
304
100
AcDbEntity
  8
0
100
AcDbLine
 62
7
  6
CONTINUOUS
 10
240.9396299929
 20
121.0709753265
 11
240.9396299929
 21
230.4885544318
  0
LINE
  5
305
100
AcDbEntity
  8
KONSTRUKTIONSELEMENTE
100
AcDbLine
 62
7
  6
CONTINUOUS
 10
278.9396299929
 20
140.9885544318
 11
279.5701299929
 21
140.9885544318
  0
LINE
  5
306
100
AcDbEntity
  8
KONSTRUKTIONSELEMENTE
100
AcDbLine
 62
7
  6
CONTINUOUS
 10
278.9396299929
 20
142.0552216071
 11
279.5701299929
 21
142.0552216071
  0
LINE
  5
307
100
AcDbEntity
  8
KONSTRUKTIONSELEMENTE
100
AcDbLine
 62
7
  6
CONTINUOUS
 10
278.9396299929
 20
142.1885544318
 11
279.5701299929
 21
142.1885544318
  0
LINE
  5
308
100
AcDbEntity
  8
KONSTRUKTIONSELEMENTE
100
AcDbLine
 62
7
  6
CONTINUOUS
 10
278.9396299929
 20
142.3218872565
 11
279.5701299929
 21
142.3218872565
  0
LINE
  5
309
100
AcDbEntity
  8
KONSTRUKTIONSELEMENTE
100
AcDbLine
 62
7
  6
CONTINUOUS
 10
278.9396299929
 20
142.8552216071
 11
279.5701299929
 21
142.8552216071
  0
LINE
  5
30A
100
AcDbEntity
  8
KONSTRUKTIONSELEMENTE
100
AcDbLine
 62
7
  6
CONTINUOUS
 10
278.9396299929
 20
143.3885544318
 11
279.5701299929
 21
143.3885544318
  0
LINE
  5
30B
100
AcDbEntity
  8
KONSTRUKTIONSELEMENTE
100
AcDbLine
 62
7
  6
CONTINUOUS
 10
278.9396299929
 20
144.3218872565
 11
279.5701299929
 21
144.3218872565
  0
LINE
  5
30C
100
AcDbEntity
  8
KONSTRUKTIONSELEMENTE
100
AcDbLine
 62
7
  6
CONTINUOUS
 10
278.9396299929
 20
144.5885544318
 11
279.5701299929
 21
144.5885544318
  0
LINE
  5
30D
100
AcDbEntity
  8
KONSTRUKTIONSELEMENTE
100
AcDbLine
 62
7
  6
CONTINUOUS
 10
278.9396299929
 20
145.5218872565
 11
279.5701299929
 21
145.5218872565
  0
LINE
  5
30E
100
AcDbEntity
  8
KONSTRUKTIONSELEMENTE
100
AcDbLine
 62
7
  6
CONTINUOUS
 10
278.9396299929
 20
146.0552216071
 11
279.5701299929
 21
146.0552216071
  0
LINE
  5
30F
100
AcDbEntity
  8
KONSTRUKTIONSELEMENTE
100
AcDbLine
 62
7
  6
CONTINUOUS
 10
278.9396299929
 20
146.5885544318
 11
279.5701299929
 21
146.5885544318
  0
LINE
  5
310
100
AcDbEntity
  8
0
100
AcDbLine
 62
7
  6
CONTINUOUS
 10
245.4396299929
 20
171.032965454
 11
245.4396299929
 21
170.8256026832
  0
LINE
  5
311
100
AcDbEntity
  8
KONSTRUKTIONSELEMENTE
100
AcDbLine
 62
7
  6
CONTINUOUS
 10
278.9396299929
 20
146.7218872565
 11
279.5701299929
 21
146.7218872565
  0
LINE
  5
312
100
AcDbEntity
  8
KONSTRUKTIONSELEMENTE
100
AcDbLine
 62
7
  6
CONTINUOUS
 10
278.9396299929
 20
146.8552216071
 11
279.5701299929
 21
146.8552216071
  0
LINE
  5
313
100
AcDbEntity
  8
0
100
AcDbLine
 62
7
  6
CONTINUOUS
 10
250.4707319365
 20
149.0335059936
 11
245.4396299929
 21
170.8256026832
  0
LINE
  5
314
100
AcDbEntity
  8
0
100
AcDbLine
 62
7
  6
CONTINUOUS
 10
251.2396299929
 20
123.1812612874
 11
251.2396299929
 21
142.2849743633
  0
LINE
  5
315
100
AcDbEntity
  8
KONSTRUKTIONSELEMENTE
100
AcDbLine
 62
7
  6
CONTINUOUS
 10
278.9396299929
 20
154.3218887824
 11
279.5701299929
 21
154.3218887824
  0
LINE
  5
316
100
AcDbEntity
  8
KONSTRUKTIONSELEMENTE
100
AcDbLine
 62
7
  6
CONTINUOUS
 10
278.9396299929
 20
157.5218887824
 11
279.5701299929
 21
157.5218887824
  0
LINE
  5
317
100
AcDbEntity
  8
KONSTRUKTIONSELEMENTE
100
AcDbLine
 62
7
  6
CONTINUOUS
 10
278.9396299929
 20
158.1885544318
 11
279.5701299929
 21
158.1885544318
  0
LINE
  5
318
100
AcDbEntity
  8
KONSTRUKTIONSELEMENTE
100
AcDbLine
 62
7
  6
CONTINUOUS
 10
278.9396299929
 20
158.7218887824
 11
279.5701299929
 21
158.7218887824
  0
LINE
  5
319
100
AcDbEntity
  8
KONSTRUKTIONSELEMENTE
100
AcDbLine
 62
7
  6
CONTINUOUS
 10
283.5421542602
 20
88.0731142356
 11
268.6396299929
 21
123.1812612874
  0
LINE
  5
31A
100
AcDbEntity
  8
0
100
AcDbLine
 62
7
  6
CONTINUOUS
 10
255.5988985504
 20
177.4885544318
 11
255.5988985504
 21
203.2164305286
  0
LINE
  5
31B
100
AcDbEntity
  8
TEIL_STARTBEZUEGE
100
AcDbLine
 62
2
  6
CENTER
 10
259.9396299929
 20
231.7885544318
 11
259.9396299929
 21
74.6060779042
  0
LINE
  5
31C
100
AcDbEntity
  8
TEIL_STARTBEZUEGE
100
AcDbLine
 62
2
  6
CENTER
 10
259.9396299929
 20
231.7885544318
 11
259.9396299929
 21
251.9166385923
  0
LINE
  5
31D
100
AcDbEntity
  8
0
100
AcDbLine
 62
7
  6
CONTINUOUS
 10
237.3005480578
 20
122.615673962
 11
234.5906323162
 21
116.2315125509
  0
LINE
  5
31E
100
AcDbEntity
  8
KONSTRUKTIONSELEMENTE
100
AcDbLine
 62
7
  6
CONTINUOUS
 10
278.9396299929
 20
159.1218887824
 11
279.5701299929
 21
159.1218887824
  0
LINE
  5
31F
100
AcDbEntity
  8
KONSTRUKTIONSELEMENTE
100
AcDbLine
 62
7
  6
CONTINUOUS
 10
278.9396299929
 20
159.2552200812
 11
279.5701299929
 21
159.2552200812
  0
LINE
  5
320
100
AcDbEntity
  8
KONSTRUKTIONSELEMENTE
100
AcDbLine
 62
7
  6
CONTINUOUS
 10
278.9396299929
 20
159.3885544318
 11
279.5701299929
 21
159.3885544318
  0
LINE
  5
321
100
AcDbEntity
  8
KONSTRUKTIONSELEMENTE
100
AcDbLine
 62
7
  6
CONTINUOUS
 10
278.9396299929
 20
160.4552200812
 11
279.5701299929
 21
160.4552200812
  0
LINE
  5
322
100
AcDbEntity
  8
KONSTRUKTIONSELEMENTE
100
AcDbLine
 62
7
  6
CONTINUOUS
 10
278.9396299929
 20
161.2552200812
 11
279.5701299929
 21
161.2552200812
  0
LINE
  5
323
100
AcDbEntity
  8
KONSTRUKTIONSELEMENTE
100
AcDbLine
 62
7
  6
CONTINUOUS
 10
278.9396299929
 20
161.3885544318
 11
279.5701299929
 21
161.3885544318
  0
LINE
  5
324
100
AcDbEntity
  8
KONSTRUKTIONSELEMENTE
100
AcDbLine
 62
7
  6
CONTINUOUS
 10
278.9396299929
 20
161.6552200812
 11
279.5701299929
 21
161.6552200812
  0
LINE
  5
325
100
AcDbEntity
  8
KONSTRUKTIONSELEMENTE
100
AcDbLine
 62
7
  6
CONTINUOUS
 10
278.9396299929
 20
162.0552200812
 11
279.5701299929
 21
162.0552200812
  0
LINE
  5
326
100
AcDbEntity
  8
KONSTRUKTIONSELEMENTE
100
AcDbLine
 62
7
  6
CONTINUOUS
 10
278.9396299929
 20
162.5885544318
 11
279.5701299929
 21
162.5885544318
  0
LINE
  5
327
100
AcDbEntity
  8
KONSTRUKTIONSELEMENTE
100
AcDbLine
 62
7
  6
CONTINUOUS
 10
278.9396299929
 20
163.1218887824
 11
279.5701299929
 21
163.1218887824
  0
LINE
  5
328
100
AcDbEntity
  8
KONSTRUKTIONSELEMENTE
100
AcDbLine
 62
7
  6
CONTINUOUS
 10
278.9396299929
 20
163.6552200812
 11
279.5701299929
 21
163.6552200812
  0
LINE
  5
329
100
AcDbEntity
  8
KONSTRUKTIONSELEMENTE
100
AcDbLine
 62
7
  6
CONTINUOUS
 10
278.9396299929
 20
164.0552200812
 11
279.5701299929
 21
164.0552200812
  0
LINE
  5
32A
100
AcDbEntity
  8
KONSTRUKTIONSELEMENTE
100
AcDbLine
 62
7
  6
CONTINUOUS
 10
278.9396299929
 20
164.3218887824
 11
279.5701299929
 21
164.3218887824
  0
LINE
  5
32B
100
AcDbEntity
  8
KONSTRUKTIONSELEMENTE
100
AcDbLine
 62
7
  6
CONTINUOUS
 10
278.9396299929
 20
164.4552200812
 11
279.5701299929
 21
164.4552200812
  0
LINE
  5
32C
100
AcDbEntity
  8
KONSTRUKTIONSELEMENTE
100
AcDbLine
 62
7
  6
CONTINUOUS
 10
278.9396299929
 20
165.2552200812
 11
279.5701299929
 21
165.2552200812
  0
LINE
  5
32D
100
AcDbEntity
  8
KONSTRUKTIONSELEMENTE
100
AcDbLine
 62
7
  6
CONTINUOUS
 10
264.2803614354
 20
177.4885544318
 11
264.2803614354
 21
203.2164305286
  0
LINE
  5
32E
100
AcDbEntity
  8
KONSTRUKTIONSELEMENTE
100
AcDbLine
 62
7
  6
CONTINUOUS
 10
278.9396299929
 20
166.3218887824
 11
279.5701299929
 21
166.3218887824
  0
LINE
  5
32F
100
AcDbEntity
  8
KONSTRUKTIONSELEMENTE
100
AcDbLine
 62
7
  6
CONTINUOUS
 10
278.9396299929
 20
169.5218887824
 11
279.5701299929
 21
169.5218887824
  0
LINE
  5
330
100
AcDbEntity
  8
KONSTRUKTIONSELEMENTE
100
AcDbLine
 62
7
  6
CONTINUOUS
 10
278.9396299929
 20
170.1885544318
 11
279.5701299929
 21
170.1885544318
  0
LINE
  5
331
100
AcDbEntity
  8
KONSTRUKTIONSELEMENTE
100
AcDbLine
 62
7
  6
CONTINUOUS
 10
278.9396299929
 20
170.7218887824
 11
279.5701299929
 21
170.7218887824
  0
LINE
  5
332
100
AcDbEntity
  8
KONSTRUKTIONSELEMENTE
100
AcDbLine
 62
7
  6
CONTINUOUS
 10
278.9396299929
 20
171.2552200812
 11
279.5701299929
 21
171.2552200812
  0
LINE
  5
333
100
AcDbEntity
  8
KONSTRUKTIONSELEMENTE
100
AcDbLine
 62
7
  6
CONTINUOUS
 10
278.9396299929
 20
171.5218887824
 11
279.5701299929
 21
171.5218887824
  0
LINE
  5
334
100
AcDbEntity
  8
KONSTRUKTIONSELEMENTE
100
AcDbLine
 62
7
  6
CONTINUOUS
 10
282.578711928
 20
122.615673962
 11
285.2886276696
 21
116.2315125509
  0
LINE
  5
335
100
AcDbEntity
  8
KONSTRUKTIONSELEMENTE
100
AcDbLine
 62
7
  6
CONTINUOUS
 10
268.6396299929
 20
123.1812612874
 11
268.6396299929
 21
142.2849743633
  0
LINE
  5
336
100
AcDbEntity
  8
KONSTRUKTIONSELEMENTE
100
AcDbLine
 62
7
  6
CONTINUOUS
 10
269.4085280494
 20
149.0335059936
 11
274.4396299929
 21
170.8256026832
  0
LINE
  5
337
100
AcDbEntity
  8
0
100
AcDbLine
 62
7
  6
CONTINUOUS
 10
236.3371057256
 20
88.0731142356
 11
251.2396299929
 21
123.1812612874
  0
LINE
  5
338
100
AcDbEntity
  8
KONSTRUKTIONSELEMENTE
100
AcDbLine
 62
7
  6
CONTINUOUS
 10
278.9396299929
 20
171.6552200812
 11
279.5701299929
 21
171.6552200812
  0
LINE
  5
339
100
AcDbEntity
  8
KONSTRUKTIONSELEMENTE
100
AcDbLine
 62
7
  6
CONTINUOUS
 10
254.8019687996
 20
177.4885544318
 11
265.0772911862
 21
177.4885544318
  0
LINE
  5
33A
100
AcDbEntity
  8
KONSTRUKTIONSELEMENTE
100
AcDbLine
 62
7
  6
CONTINUOUS
 10
274.4396299929
 20
171.032965454
 11
274.4396299929
 21
170.8256026832
  0
LINE
  5
33B
100
AcDbEntity
  8
KONSTRUKTIONSELEMENTE
100
AcDbLine
 62
7
  6
CONTINUOUS
 10
278.9396299929
 20
98.9159819194
 11
278.9396299929
 21
111.7858965176
  0
LINE
  5
33C
100
AcDbEntity
  8
KONSTRUKTIONSELEMENTE
100
AcDbLine
 62
7
  6
CONTINUOUS
 10
278.9396299929
 20
121.0709753265
 11
278.9396299929
 21
230.4885544318
  0
LINE
  5
33D
100
AcDbEntity
  8
KONSTRUKTIONSELEMENTE
100
AcDbLine
 62
7
  6
CONTINUOUS
 10
278.3805245616
 20
237.4661902145
 11
278.9396299929
 21
230.4885544318
  0
LINE
  5
33E
100
AcDbEntity
  8
KONSTRUKTIONSELEMENTE
100
AcDbLine
 62
7
  6
CONTINUOUS
 10
279.5701299929
 20
171.6552200812
 11
279.5701299929
 21
166.3218887824
  0
LINE
  5
33F
100
AcDbEntity
  8
KONSTRUKTIONSELEMENTE
100
AcDbLine
 62
7
  6
CONTINUOUS
 10
279.5701299929
 20
165.2552200812
 11
279.5701299929
 21
160.4552200812
  0
LINE
  5
340
100
AcDbEntity
  8
KONSTRUKTIONSELEMENTE
100
AcDbLine
 62
7
  6
CONTINUOUS
 10
279.5701299929
 20
159.3885544318
 11
279.5701299929
 21
154.3218887824
  0
LINE
  5
341
100
AcDbEntity
  8
KONSTRUKTIONSELEMENTE
100
AcDbLine
 62
7
  6
CONTINUOUS
 10
279.5701299929
 20
146.8552216071
 11
279.5701299929
 21
142.0552216071
  0
LINE
  5
342
100
AcDbEntity
  8
KONSTRUKTIONSELEMENTE
100
AcDbLine
 62
7
  6
CONTINUOUS
 10
279.5701299929
 20
140.9885544318
 11
279.5701299929
 21
139.3885544318
  0
LINE
  5
343
100
AcDbEntity
  8
KONSTRUKTIONSELEMENTE
100
AcDbLine
 62
7
  6
CONTINUOUS
 10
279.5701299929
 20
138.3218872565
 11
279.5701299929
 21
136.4552216071
  0
LINE
  5
344
100
AcDbEntity
  8
KONSTRUKTIONSELEMENTE
100
AcDbLine
 62
7
  6
CONTINUOUS
 10
279.5701299929
 20
135.3885544318
 11
279.5701299929
 21
130.0552208441
  0
LINE
  5
345
100
AcDbEntity
  8
KONSTRUKTIONSELEMENTE
100
AcDbLine
 62
7
  6
CONTINUOUS
 10
279.5701299929
 20
128.9885544318
 11
279.5701299929
 21
123.6552210349
  0
LINE
  5
346
100
AcDbEntity
  8
KONSTRUKTIONSELEMENTE
100
AcDbLine
 62
7
  6
CONTINUOUS
 10
279.5701299929
 20
122.5885544318
 11
279.5701299929
 21
121.7885544318
  0
LINE
  5
347
100
AcDbEntity
  8
KONSTRUKTIONSELEMENTE
100
AcDbLine
 62
7
  6
CONTINUOUS
 10
270.9711457259
 20
117.6885544318
 11
282.578711928
 21
122.615673962
  0
LINE
  5
348
100
AcDbEntity
  8
AUSFORMSCHRAEGEN
100
AcDbLine
 62
7
  6
CONTINUOUS
 10
285.2886276696
 20
116.2315125509
 11
274.7283530539
 21
108.8371286594
  0
LINE
  5
349
100
AcDbEntity
  8
TEIL_STARTBEZUEGE
100
AcDbLine
 62
2
  6
CENTER
 10
259.9396299929
 20
231.7885544318
 11
239.7140518248
 21
231.7885544318
  0
LINE
  5
34A
100
AcDbEntity
  8
TEIL_STARTBEZUEGE
100
AcDbLine
 62
2
  6
CENTER
 10
259.9396299929
 20
231.7885544318
 11
280.6411642336
 21
231.7885544318
  0
LINE
  5
34B
100
AcDbEntity
  8
AUSFORMSCHRAEGEN
100
AcDbLine
 62
7
  6
CONTINUOUS
 10
274.3837162253
 20
74.4924770137
 11
282.4751638988
 21
82.5839246872
  0
LINE
  5
34C
100
AcDbEntity
  8
0
100
AcDbLine
 62
7
  6
CONTINUOUS
 10
276.3713067181
 20
244.4885544318
 11
243.5079532678
 21
244.4885544318
  0
ARC
  5
34D
100
AcDbEntity
  8
0
100
AcDbCircle
 62
7
  6
CONTINUOUS
 10
123.6830085383
 20
296.5113891104
 40
45.396
100
AcDbArc
 50
247.7733376047
 51
260.6823080063
  0
ARC
  5
34E
100
AcDbEntity
  8
0
100
AcDbCircle
 62
7
  6
CONTINUOUS
 10
123.6830085383
 20
296.5113891104
 40
45.396
100
AcDbArc
 50
279.3176919937
 51
292.2266623953
  0
ARC
  5
34F
100
AcDbEntity
  8
KONSTRUKTIONSELEMENTE
100
AcDbCircle
 62
7
  6
CONTINUOUS
 10
131.8080085383
 20
117.0135544318
 40
42.525
100
AcDbArc
 50
296.7762283552
 51
360.0
  0
ARC
  5
350
100
AcDbEntity
  8
KONSTRUKTIONSELEMENTE
100
AcDbCircle
 62
7
  6
CONTINUOUS
 10
131.8080085383
 20
117.0135544318
 40
42.525
100
AcDbArc
 50
180.0
 51
234.0600588347
  0
ARC
  5
351
100
AcDbEntity
  8
AUSFORMSCHRAEGEN
100
AcDbCircle
 62
7
  6
CONTINUOUS
 10
131.8080085383
 20
117.0135544318
 40
42.525
100
AcDbArc
 50
234.0600588347
 51
296.7762283552
  0
ARC
  5
352
100
AcDbEntity
  8
KONSTRUKTIONSELEMENTE
100
AcDbCircle
 62
7
  6
CONTINUOUS
 10
116.3330085383
 20
157.7977455021
 40
30.7637703873
100
AcDbArc
 50
0.0
 51
40.0
  0
ARC
  5
353
100
AcDbEntity
  8
KONSTRUKTIONSELEMENTE
100
AcDbCircle
 62
7
  6
CONTINUOUS
 10
60.2800085383
 20
141.6013025968
 40
29.003
100
AcDbArc
 50
0.0
 51
27.5792404334
  0
ARC
  5
354
100
AcDbEntity
  8
KONSTRUKTIONSELEMENTE
100
AcDbCircle
 62
7
  6
CONTINUOUS
 10
187.6830085383
 20
207.4885544318
 40
29.0
100
AcDbArc
 50
180.0
 51
223.0991499428
  0
ARC
  5
355
100
AcDbEntity
  8
KONSTRUKTIONSELEMENTE
100
AcDbCircle
 62
7
  6
CONTINUOUS
 10
145.3330085383
 20
167.8593038711
 40
29.0
100
AcDbArc
 50
0.0
 51
43.0991499428
  0
ARC
  5
356
100
AcDbEntity
  8
KONSTRUKTIONSELEMENTE
100
AcDbCircle
 62
7
  6
CONTINUOUS
 10
90.1428715927
 20
196.7885544318
 40
25.7637703873
100
AcDbArc
 50
40.0
 51
90.0
  0
ARC
  5
357
100
AcDbEntity
  8
KONSTRUKTIONSELEMENTE
100
AcDbCircle
 62
7
  6
CONTINUOUS
 10
113.6830085383
 20
223.1848455968
 40
25.0
100
AcDbArc
 50
180.0
 51
220.0
  0
ARC
  5
358
100
AcDbEntity
  8
KONSTRUKTIONSELEMENTE
100
AcDbCircle
 62
7
  6
CONTINUOUS
 10
99.2830085383
 20
161.973587692
 40
15.0
100
AcDbArc
 50
130.0
 51
207.5792404334
  0
ARC
  5
359
100
AcDbEntity
  8
KONSTRUKTIONSELEMENTE
100
AcDbCircle
 62
7
  6
CONTINUOUS
 10
116.3330085383
 20
157.7977455021
 40
15.0
100
AcDbArc
 50
0.0
 51
40.0
  0
ARC
  5
35A
100
AcDbEntity
  8
KONSTRUKTIONSELEMENTE
100
AcDbCircle
 62
7
  6
CONTINUOUS
 10
104.0330085383
 20
153.3209116206
 40
12.0
100
AcDbArc
 50
0.0
 51
40.0
  0
ARC
  5
35B
100
AcDbEntity
  8
KONSTRUKTIONSELEMENTE
100
AcDbCircle
 62
7
  6
CONTINUOUS
 10
98.9952686829
 20
237.4662181461
 40
7.5157224559
100
AcDbArc
 50
358.5734845822
 51
359.9997870651
  0
ARC
  5
35C
100
AcDbEntity
  8
KONSTRUKTIONSELEMENTE
100
AcDbCircle
 62
7
  6
CONTINUOUS
 10
148.3707483937
 20
237.4662181461
 40
7.5157224559
100
AcDbArc
 50
180.0002129349
 51
181.4265154178
  0
ARC
  5
35D
100
AcDbEntity
  8
KONSTRUKTIONSELEMENTE
100
AcDbCircle
 62
7
  6
CONTINUOUS
 10
123.6830085383
 20
214.8385544318
 40
7.35
100
AcDbArc
 50
180.0
 51
360.0
  0
ARC
  5
35E
100
AcDbEntity
  8
KONSTRUKTIONSELEMENTE
100
AcDbCircle
 62
7
  6
CONTINUOUS
 10
123.0330085383
 20
124.6885544318
 40
7.0
100
AcDbArc
 50
180.0
 51
231.1138955458
  0
ARC
  5
35F
100
AcDbEntity
  8
KONSTRUKTIONSELEMENTE
100
AcDbCircle
 62
7
  6
CONTINUOUS
 10
124.3330085383
 20
124.6885544318
 40
7.0
100
AcDbArc
 50
308.8861044546
 51
360.0
  0
ARC
  5
360
100
AcDbEntity
  8
KONSTRUKTIONSELEMENTE
100
AcDbCircle
 62
7
  6
CONTINUOUS
 10
96.620989892
 20
171.4885544318
 40
6.0
100
AcDbArc
 50
40.0
 51
130.0
  0
CIRCLE
  5
361
100
AcDbEntity
  8
BEZUGSACHSEN
100
AcDbCircle
 62
7
  6
CONTINUOUS
 10
99.0830085383
 20
231.7885544318
 40
3.0
  0
ARC
  5
362
100
AcDbEntity
  8
0
100
AcDbCircle
 62
7
  6
CONTINUOUS
 10
221.2396299929
 20
142.2849743633
 40
30.0
100
AcDbArc
 50
0.0
 51
13.0
  0
ARC
  5
363
100
AcDbEntity
  8
KONSTRUKTIONSELEMENTE
100
AcDbCircle
 62
7
  6
CONTINUOUS
 10
298.6396299929
 20
142.2849743633
 40
30.0
100
AcDbArc
 50
167.0
 51
180.0
  0
ARC
  5
364
100
AcDbEntity
  8
KONSTRUKTIONSELEMENTE
100
AcDbCircle
 62
7
  6
CONTINUOUS
 10
288.3121299929
 20
199.1385544318
 40
25.22
100
AcDbArc
 50
111.8161577318
 51
141.7072084818
  0
ARC
  5
365
100
AcDbEntity
  8
0
100
AcDbCircle
 62
7
  6
CONTINUOUS
 10
231.5671299929
 20
199.1385544318
 40
25.22
100
AcDbArc
 50
38.2927915182
 51
68.1838422682
  0
ARC
  5
366
100
AcDbEntity
  8
0
100
AcDbCircle
 62
7
  6
CONTINUOUS
 10
259.9396299929
 20
235.9885544318
 40
18.5
100
AcDbArc
 50
27.3522329091
 51
175.4187799147
  0
ARC
  5
367
100
AcDbEntity
  8
KONSTRUKTIONSELEMENTE
100
AcDbCircle
 62
7
  6
CONTINUOUS
 10
259.9396299929
 20
235.9885544318
 40
18.5
100
AcDbArc
 50
4.5812200853
 51
27.3522329091
  0
CIRCLE
  5
368
100
AcDbEntity
  8
BEZUGSACHSEN
100
AcDbCircle
 62
7
  6
CONTINUOUS
 10
259.9396299929
 20
231.7885544318
 40
9.2
  0
ARC
  5
369
100
AcDbEntity
  8
KONSTRUKTIONSELEMENTE
100
AcDbCircle
 62
7
  6
CONTINUOUS
 10
278.9396299929
 20
86.1194585932
 40
5.0
100
AcDbArc
 50
315.0
 51
23.0
  0
ARC
  5
36A
100
AcDbEntity
  8
0
100
AcDbCircle
 62
7
  6
CONTINUOUS
 10
240.9396299929
 20
86.1194585932
 40
5.0
100
AcDbArc
 50
157.0
 51
225.0
  0
SPLINE
  5
36B
100
AcDbEntity
  8
KONSTRUKTIONSELEMENTE
100
AcDbSpline
 62
7
  6
CONTINUOUS
 70
0
 71
3
 72
17
 73
13
 74
0
 42
0.0000001
 43
0.0000001
 44
0.0000000001
 40
0.0
 40
0.0
 40
0.0
 40
0.0
 40
0.2500072484
 40
0.3750400236
 40
0.5000684841
 40
0.6250880486
 40
0.6876113629
 40
0.7501349115
 40
0.8126564128
 40
0.8751702656
 40
0.9376443482
 40
1.0
 40
1.0
 40
1.0
 40
1.0
 10
116.3330085383
 20
223.3646216135
 30
0.0
 10
115.407507984
 20
223.5542740682
 30
0.0
 10
114.029644081
 20
223.8965129109
 30
0.0
 10
112.233073759
 20
224.4845359549
 30
0.0
 10
110.912032857
 20
225.0003729798
 30
0.0
 10
109.8422215228
 20
225.5043109822
 30
0.0
 10
109.0172040031
 20
225.9658636364
 30
0.0
 10
108.4194859979
 20
226.347759928
 30
0.0
 10
107.8522656857
 20
226.7741963492
 30
0.0
 10
107.3335103659
 20
227.2598630869
 30
0.0
 10
106.8986529355
 20
227.8236841971
 30
0.0
 10
106.7192498292
 20
228.272567753
 30
0.0
 10
106.6791557535
 20
228.5047623566
 30
0.0
  0
SPLINE
  5
36C
100
AcDbEntity
  8
KONSTRUKTIONSELEMENTE
100
AcDbSpline
 62
7
  6
CONTINUOUS
 70
0
 71
3
 72
17
 73
13
 74
0
 42
0.0000001
 43
0.0000001
 44
0.0000000001
 40
0.0
 40
0.0
 40
0.0
 40
0.0
 40
0.0623556451
 40
0.1248298691
 40
0.1873437328
 40
0.2498652293
 40
0.312388799
 40
0.3749121972
 40
0.4999318128
 40
0.6249601964
 40
0.7499928621
 40
1.0
 40
1.0
 40
1.0
 40
1.0
 10
140.6868613231
 20
228.5047623566
 30
0.0
 10
140.6467672511
 20
228.2725677745
 30
0.0
 10
140.4673641679
 20
227.8236836536
 30
0.0
 10
140.0325062151
 20
227.2598621881
 30
0.0
 10
139.5137504761
 20
226.7741950667
 30
0.0
 10
138.946529735
 20
226.3477590369
 30
0.0
 10
138.3488116672
 20
225.9658621363
 30
0.0
 10
137.5237933176
 20
225.5043096836
 30
0.0
 10
136.4539814856
 20
225.0003722548
 30
0.0
 10
135.1329411978
 20
224.484535018
 30
0.0
 10
133.3363717641
 20
223.896512753
 30
0.0
 10
131.9585086963
 20
223.554273987
 30
0.0
 10
131.0330085383
 20
223.3646216135
 30
0.0
  0
SPLINE
  5
36D
100
AcDbEntity
  8
AUSFORMSCHRAEGEN
100
AcDbSpline
 62
7
  6
CONTINUOUS
 70
0
 71
3
 72
13
 73
9
 74
0
 42
0.0000001
 43
0.0000001
 44
0.0000000001
 40
0.0
 40
0.0
 40
0.0
 40
0.0
 40
0.287371159
 40
0.5582014806
 40
0.682996391
 40
0.7988251915
 40
0.9047126104
 40
1.0
 40
1.0
 40
1.0
 40
1.0
 10
128.7270085383
 20
95.246067866
 30
0.0
 10
128.7270085383
 20
96.5657695301
 30
0.0
 10
128.8385164229
 20
99.1305137294
 30
0.0
 10
129.2586719553
 20
102.2443356695
 30
0.0
 10
129.7614516205
 20
104.5398227684
 30
0.0
 10
130.1948080382
 20
106.0721572427
 30
0.0
 10
130.6868811723
 20
107.4435318721
 30
0.0
 10
131.0694683768
 20
108.2861580649
 30
0.0
 10
131.2712919029
 20
108.6744270747
 30
0.0
  0
SPLINE
  5
36E
100
AcDbEntity
  8
AUSFORMSCHRAEGEN
100
AcDbSpline
 62
7
  6
CONTINUOUS
 70
0
 71
3
 72
13
 73
9
 74
0
 42
0.0000001
 43
0.0000001
 44
0.0000000001
 40
0.0
 40
0.0
 40
0.0
 40
0.0
 40
0.287371159
 40
0.5582014806
 40
0.682996391
 40
0.7988251915
 40
0.9047126104
 40
1.0
 40
1.0
 40
1.0
 40
1.0
 10
118.6390085383
 20
95.246067866
 30
0.0
 10
118.6390085383
 20
96.5657695301
 30
0.0
 10
118.5275006536
 20
99.1305137294
 30
0.0
 10
118.1073451213
 20
102.2443356695
 30
0.0
 10
117.6045654561
 20
104.5398227684
 30
0.0
 10
117.1712090384
 20
106.0721572427
 30
0.0
 10
116.6791359043
 20
107.4435318721
 30
0.0
 10
116.2965486998
 20
108.2861580649
 30
0.0
 10
116.0947251737
 20
108.6744270747
 30
0.0
  0
SPLINE
  5
36F
100
AcDbEntity
  8
KONSTRUKTIONSELEMENTE
100
AcDbSpline
 62
7
  6
CONTINUOUS
 70
0
 71
3
 72
9
 73
5
 74
0
 42
0.0000001
 43
0.0000001
 44
0.0000000001
 40
0.0
 40
0.0
 40
0.0
 40
0.0
 40
0.4969612291
 40
1.0
 40
1.0
 40
1.0
 40
1.0
 10
106.9886312345
 20
149.0335059936
 30
0.0
 10
107.2745486171
 20
147.9397961517
 30
0.0
 10
107.7366925523
 20
145.706746134
 30
0.0
 10
107.9019710645
 20
143.4292637671
 30
0.0
 10
107.9019710645
 20
142.2849743633
 30
0.0
  0
SPLINE
  5
370
100
AcDbEntity
  8
KONSTRUKTIONSELEMENTE
100
AcDbSpline
 62
7
  6
CONTINUOUS
 70
0
 71
3
 72
9
 73
5
 74
0
 42
0.0000001
 43
0.0000001
 44
0.0000000001
 40
0.0
 40
0.0
 40
0.0
 40
0.0
 40
0.5015461341
 40
1.0
 40
1.0
 40
1.0
 40
1.0
 10
103.741565194
 20
155.762743228
 30
0.0
 10
104.4035427945
 20
155.1742007426
 30
0.0
 10
105.5425987872
 20
153.7820873467
 30
0.0
 10
106.2130331815
 20
152.1178573358
 30
0.0
 10
106.4232983353
 20
151.263023916
 30
0.0
  0
SPLINE
  5
371
100
AcDbEntity
  8
0
100
AcDbSpline
 62
7
  6
CONTINUOUS
 70
0
 71
3
 72
12
 73
8
 74
0
 42
0.0000001
 43
0.0000001
 44
0.0000000001
 40
0.0
 40
0.0
 40
0.0
 40
0.0
 40
0.3327125209
 40
0.6136733942
 40
0.7323321077
 40
0.8358061611
 40
1.0
 40
1.0
 40
1.0
 40
1.0
 10
252.7738718454
 20
176.0848210905
 30
0.0
 10
252.9709238221
 20
176.2816050029
 30
0.0
 10
253.3421321351
 20
176.6369851312
 30
0.0
 10
253.8139071231
 20
177.0297312546
 30
0.0
 10
254.1645904867
 20
177.2647167336
 30
0.0
 10
254.4482921471
 20
177.4176053165
 30
0.0
 10
254.6699503901
 20
177.488402822
 30
0.0
 10
254.8073823911
 20
177.4885455428
 30
0.0
  0
SPLINE
  5
372
100
AcDbEntity
  8
KONSTRUKTIONSELEMENTE
100
AcDbSpline
 62
7
  6
CONTINUOUS
 70
0
 71
3
 72
12
 73
8
 74
0
 42
0.0000001
 43
0.0000001
 44
0.0000000001
 40
0.0
 40
0.0
 40
0.0
 40
0.0
 40
0.3327125209
 40
0.6136733942
 40
0.7323321077
 40
0.8358061611
 40
1.0
 40
1.0
 40
1.0
 40
1.0
 10
267.1053881404
 20
176.0848210905
 30
0.0
 10
266.9083361637
 20
176.2816050029
 30
0.0
 10
266.5371278507
 20
176.6369851312
 30
0.0
 10
266.0653528627
 20
177.0297312546
 30
0.0
 10
265.7146694991
 20
177.2647167336
 30
0.0
 10
265.4309678387
 20
177.4176053165
 30
0.0
 10
265.2093095958
 20
177.488402822
 30
0.0
 10
265.0718775947
 20
177.4885455428
 30
0.0
  0
SPLINE
  5
373
100
AcDbEntity
  8
0
100
AcDbSpline
 62
7
  6
CONTINUOUS
 70
0
 71
3
 72
9
 73
5
 74
0
 42
0.0000001
 43
0.0000001
 44
0.0000000001
 40
0.0
 40
0.0
 40
0.0
 40
0.0
 40
0.241483125
 40
1.0
 40
1.0
 40
1.0
 40
1.0
 10
252.7738718454
 20
176.0848210905
 30
0.0
 10
252.5350458845
 20
175.846320022
 30
0.0
 10
251.5176381643
 20
174.8872636606
 30
0.0
 10
250.3947944306
 20
174.0423384979
 30
0.0
 10
249.5060873642
 20
173.4642543388
 30
0.0
  0
SPLINE
  5
374
100
AcDbEntity
  8
KONSTRUKTIONSELEMENTE
100
AcDbSpline
 62
7
  6
CONTINUOUS
 70
0
 71
3
 72
9
 73
5
 74
0
 42
0.0000001
 43
0.0000001
 44
0.0000000001
 40
0.0
 40
0.0
 40
0.0
 40
0.0
 40
0.241483125
 40
1.0
 40
1.0
 40
1.0
 40
1.0
 10
267.1053881404
 20
176.0848210905
 30
0.0
 10
267.3442141013
 20
175.846320022
 30
0.0
 10
268.3616218215
 20
174.8872636606
 30
0.0
 10
269.4844655552
 20
174.0423384979
 30
0.0
 10
270.3731726216
 20
173.4642543388
 30
0.0
  0
SPLINE
  5
375
100
AcDbEntity
  8
0
100
AcDbSpline
 62
7
  6
CONTINUOUS
 70
0
 71
3
 72
9
 73
5
 74
0
 42
0.0000001
 43
0.0000001
 44
0.0000000001
 40
0.0
 40
0.0
 40
0.0
 40
0.0
 40
0.2599439375
 40
1.0
 40
1.0
 40
1.0
 40
1.0
 10
245.4396299929
 20
171.032965454
 30
0.0
 10
245.8011547307
 20
171.2276229709
 30
0.0
 10
247.1819947339
 20
171.9949676092
 30
0.0
 10
248.5261867129
 20
172.8268507831
 30
0.0
 10
249.5060873642
 20
173.4642543388
 30
0.0
  0
SPLINE
  5
376
100
AcDbEntity
  8
KONSTRUKTIONSELEMENTE
100
AcDbSpline
 62
7
  6
CONTINUOUS
 70
0
 71
3
 72
9
 73
5
 74
0
 42
0.0000001
 43
0.0000001
 44
0.0000000001
 40
0.0
 40
0.0
 40
0.0
 40
0.0
 40
0.2599439375
 40
1.0
 40
1.0
 40
1.0
 40
1.0
 10
274.4396299929
 20
171.032965454
 30
0.0
 10
274.0781052551
 20
171.2276229709
 30
0.0
 10
272.6972652519
 20
171.9949676092
 30
0.0
 10
271.3530732729
 20
172.8268507831
 30
0.0
 10
270.3731726216
 20
173.4642543388
 30
0.0
  0
SPLINE
  5
377
100
AcDbEntity
  8
KONSTRUKTIONSELEMENTE
100
AcDbSpline
 62
7
  6
CONTINUOUS
 70
0
 71
3
 72
9
 73
5
 74
0
 42
0.0000001
 43
0.0000001
 44
0.0000000001
 40
0.0
 40
0.0
 40
0.0
 40
0.0
 40
0.4729779517
 40
1.0
 40
1.0
 40
1.0
 40
1.0
 10
264.7036450167
 20
207.1151553547
 30
0.0
 10
264.9981756829
 20
208.4390301156
 30
0.0
 10
266.0135140908
 20
211.1547619716
 30
0.0
 10
267.5816358442
 20
213.5808108743
 30
0.0
 10
268.5181035431
 20
214.7668914164
 30
0.0
  0
SPLINE
  5
378
100
AcDbEntity
  8
0
100
AcDbSpline
 62
7
  6
CONTINUOUS
 70
0
 71
3
 72
9
 73
5
 74
0
 42
0.0000001
 43
0.0000001
 44
0.0000000001
 40
0.0
 40
0.0
 40
0.0
 40
0.0
 40
0.4729779517
 40
1.0
 40
1.0
 40
1.0
 40
1.0
 10
255.1756149691
 20
207.1151553547
 30
0.0
 10
254.8810843029
 20
208.4390301156
 30
0.0
 10
253.865745895
 20
211.1547619716
 30
0.0
 10
252.2976241416
 20
213.5808108743
 30
0.0
 10
251.3611564427
 20
214.7668914164
 30
0.0
  0
SPLINE
  5
379
100
AcDbEntity
  8
0
100
AcDbSpline
 62
7
  6
CONTINUOUS
 70
0
 71
3
 72
9
 73
5
 74
0
 42
0.0000001
 43
0.0000001
 44
0.0000000001
 40
0.0
 40
0.0
 40
0.0
 40
0.0
 40
0.2494353647
 40
1.0
 40
1.0
 40
1.0
 40
1.0
 10
255.5988985504
 20
203.2164305286
 30
0.0
 10
255.5988985504
 20
203.5428558051
 30
0.0
 10
255.5642497868
 20
204.85122001
 30
0.0
 10
255.3889229683
 20
206.1563652906
 30
0.0
 10
255.1756149691
 20
207.1151553547
 30
0.0
  0
SPLINE
  5
37A
100
AcDbEntity
  8
KONSTRUKTIONSELEMENTE
100
AcDbSpline
 62
7
  6
CONTINUOUS
 70
0
 71
3
 72
9
 73
5
 74
0
 42
0.0000001
 43
0.0000001
 44
0.0000000001
 40
0.0
 40
0.0
 40
0.0
 40
0.0
 40
0.2494353647
 40
1.0
 40
1.0
 40
1.0
 40
1.0
 10
264.2803614354
 20
203.2164305286
 30
0.0
 10
264.2803614354
 20
203.5428558051
 30
0.0
 10
264.315010199
 20
204.85122001
 30
0.0
 10
264.4903370176
 20
206.1563652906
 30
0.0
 10
264.7036450167
 20
207.1151553547
 30
0.0
  0
ELLIPSE
  5
37B
100
AcDbEntity
  8
KONSTRUKTIONSELEMENTE
100
AcDbEllipse
 62
7
  6
CONTINUOUS
 10
123.6830085383
 20
831.9062591625
 30
0.0
 11
0.0
 21
-650.7783086415
 31
0.0
 40
0.0697564737
 41
-0.3919879681
 42
-0.3839299528
  0
ELLIPSE
  5
37C
100
AcDbEntity
  8
KONSTRUKTIONSELEMENTE
100
AcDbEllipse
 62
7
  6
CONTINUOUS
 10
64.5759284648
 20
230.9140017492
 30
0.0
 11
-95.5893567438
 21
107.9819367596
 31
0.0
 40
0.1729269
 41
-4.2818551995
 42
-4.10563352
  0
ELLIPSE
  5
37D
100
AcDbEntity
  8
KONSTRUKTIONSELEMENTE
100
AcDbEllipse
 62
7
  6
CONTINUOUS
 10
123.6830085383
 20
-3892.0094197963
 30
0.0
 11
0.0
 21
4460.8468256639
 31
0.0
 40
0.0101765431
 41
0.3879838706
 42
0.3919879681
  0
ELLIPSE
  5
37E
100
AcDbEntity
  8
KONSTRUKTIONSELEMENTE
100
AcDbEllipse
 62
7
  6
CONTINUOUS
 10
123.6830085383
 20
230.9140017492
 30
0.0
 11
-0.0
 21
109.2398215494
 31
0.0
 40
0.2308681911
 41
-3.8953264609
 42
-3.8650099138
  0
ELLIPSE
  5
37F
100
AcDbEntity
  8
KONSTRUKTIONSELEMENTE
100
AcDbEllipse
 62
7
  6
CONTINUOUS
 10
123.6830085383
 20
-3892.0094197963
 30
0.0
 11
0.0
 21
4460.8468256639
 31
0.0
 40
0.0101765431
 41
-0.3919879681
 42
-0.3879838706
  0
ELLIPSE
  5
380
100
AcDbEntity
  8
KONSTRUKTIONSELEMENTE
100
AcDbEllipse
 62
7
  6
CONTINUOUS
 10
123.6830085383
 20
831.9062591625
 30
0.0
 11
-0.0
 21
650.7783086415
 31
0.0
 40
0.0697564737
 41
-2.7576627008
 42
-2.7496046855
  0
ELLIPSE
  5
381
100
AcDbEntity
  8
KONSTRUKTIONSELEMENTE
100
AcDbEllipse
 62
7
  6
CONTINUOUS
 10
123.6830085383
 20
76.8357556207
 30
0.0
 11
-0.0
 21
59.4145966661
 31
0.0
 40
0.4244748162
 41
0.3081860919
 42
0.6760734811
  0
ELLIPSE
  5
382
100
AcDbEntity
  8
AUSFORMSCHRAEGEN
100
AcDbEllipse
 62
7
  6
CONTINUOUS
 10
132.8886441969
 20
86.1194585932
 30
0.0
 11
0.0
 21
5.0
 31
0.0
 40
0.3639702343
 41
-2.3561944902
 42
-1.1693705988
  0
ELLIPSE
  5
383
100
AcDbEntity
  8
KONSTRUKTIONSELEMENTE
100
AcDbEllipse
 62
7
  6
CONTINUOUS
 10
123.6830085383
 20
76.8357556207
 30
0.0
 11
-0.0
 21
59.4145966661
 31
0.0
 40
0.4244748162
 41
-1.1900325442
 42
-0.3081860919
  0
ELLIPSE
  5
384
100
AcDbEntity
  8
AUSFORMSCHRAEGEN
100
AcDbEllipse
 62
7
  6
CONTINUOUS
 10
114.4773728797
 20
86.1194585932
 30
0.0
 11
0.0
 21
5.0
 31
0.0
 40
0.3639702343
 41
1.1693705988
 42
2.3561944902
  0
ELLIPSE
  5
385
100
AcDbEntity
  8
AUSFORMSCHRAEGEN
100
AcDbEllipse
 62
7
  6
CONTINUOUS
 10
275.9706079222
 20
117.0135544318
 30
0.0
 11
116.8364772623
 21
0.0
 31
0.0
 40
0.3639702343
 41
-1.6433113617
 42
-1.5843789042
  0
ELLIPSE
  5
386
100
AcDbEntity
  8
0
100
AcDbEllipse
 62
7
  6
CONTINUOUS
 10
243.9086520636
 20
117.0135544318
 30
0.0
 11
116.8364772623
 21
-0.0
 31
0.0
 40
0.3639702343
 41
-1.5572137494
 42
-1.4982812918
  0
ENDSEC
  0
SECTION
  2
OBJECTS
  0
DICTIONARY
  5
C
100
AcDbDictionary
280
0
281
1
  3
ACAD_GROUP
350
D
  3
ACAD_MLINESTYLE
350
17
  3
ACAD_LAYOUT
350
1A
  3
ACAD_PLOTSETTINGS
350
19
  3
ACAD_PLOTSTYLENAME
350
E
  0
DICTIONARY
  5
D
102
{ACAD_REACTORS
330
C
102
}
100
AcDbDictionary
280
0
281
1
  0
ACDBDICTIONARYWDFLT
  5
E
102
{ACAD_REACTORS
330
C
102
}
100
AcDbDictionary
281
1
  3
Normal
350
F
100
AcDbDictionaryWithDefault
340
F
  0
DICTIONARY
  5
17
102
{ACAD_REACTORS
330
C
102
}
100
AcDbDictionary
280
0
281
1
  3
Standard
350
18
  0
DICTIONARY
  5
19
102
{ACAD_REACTORS
330
C
102
}
100
AcDbDictionary
281
1
  0
DICTIONARY
  5
1A
102
{ACAD_REACTORS
330
C
102
}
100
AcDbDictionary
281
1
  3
Model
350
387
  3
Layout1
350
388
  0
ACDBPLACEHOLDER
  5
F
102
{ACAD_REACTORS
330
E
102
}
  0
MLINESTYLE
  5
18
102
{ACAD_REACTORS
330
17
102
}
100
AcDbMlineStyle
  2
STANDARD
 70
0
  3

 62
256
 51
90.0
 52
90.0
 71
2
 49
0.5
 62
256
  6
BYLAYER
 49
-0.5
 62
256
  6
BYLAYER
  0
LAYOUT
  5
387
102
{ACAD_REACTORS
330
1A
102
}
100
AcDbPlotSettings
  1

  2
none_device
  4
ISO_A3_(420.00_x_297.00_MM)
  6

 40
0.0
 41
0.0
 42
0.0
 43
0.0
 44
420.0
 45
297.0
 46
0.0
 47
0.0
 48
0.0
 49
0.0
140
0.0
141
0.0
142
1.0
143
1.0
 70
1024
 72
1
 73
0
 74
0
  7

 75
0
147
1.0
148
0.0
149
0.0
100
AcDbLayout
  1
Model
 70
0
 71
0
 10
0.0
 20
0.0
 11
420.0
 21
297.0
 12
0.0
 22
0.0
 32
0.0
 14
0.0
 24
0.0
 34
0.0
 15
0.0
 25
0.0
 35
0.0
146
0.0
 13
0.0
 23
0.0
 33
0.0
 16
1.0
 26
0.0
 36
0.0
 17
0.0
 27
1.0
 37
0.0
 76
0
330
209
345
0
346
0
  0
LAYOUT
  5
388
102
{ACAD_REACTORS
330
1A
102
}
100
AcDbPlotSettings
  1

  2
none_device
  4
ISO_A3_(420.00_x_297.00_MM)
  6

 40
0.0
 41
0.0
 42
0.0
 43
0.0
 44
420.0
 45
297.0
 46
0.0
 47
0.0
 48
0.0
 49
0.0
140
0.0
141
0.0
142
1.0
143
1.0
 70
0
 72
1
 73
0
 74
0
  7

 75
0
147
1.0
148
0.0
149
0.0
100
AcDbLayout
  1
Layout1
 70
0
 71
1
 10
0.0
 20
0.0
 11
420.0
 21
297.0
 12
0.0
 22
0.0
 32
0.0
 14
0.0
 24
0.0
 34
0.0
 15
0.0
 25
0.0
 35
0.0
146
0.0
 13
0.0
 23
0.0
 33
0.0
 16
1.0
 26
0.0
 36
0.0
 17
0.0
 27
1.0
 37
0.0
 76
0
330
20A
345
0
346
0
  0
ENDSEC
  0
EOF
