999
DXF file: IVH-10_7900134_M33795-P-10.dxf
999
Pro/ENGINEER 2010140 by Parametric Technology Corporation
  0
SECTION
  2
HEADER
  9
$ACADVER
  1
AC1015
  9
$DWGCODEPAGE
  3
ANSI_1252
  9
$EXTMAX
 10
420.0
 20
297.0
 30
0.0
  9
$EXTMIN
 10
0.0
 20
0.0
 30
0.0
  9
$LIMMIN
 10
0.0
 20
0.0
  9
$LIMMAX
 10
420.0
 20
297.0
  9
$VIEWCTR
 10
210.0
 20
148.5
  9
$VIEWSIZE
 40
297.0
  9
$CLAYER
  8
0
  9
$LTSCALE
 40
23.1
  9
$CELTYPE
  6
BYLAYER
  9
$DIMSCALE
 40
1.0
  9
$DIMASZ
 40
3.5
  9
$DIMEXO
 40
2.625
  9
$DIMDLI
 40
15.96
  9
$DIMEXE
 40
7.56
  9
$DIMCEN
 40
3.78
  9
$DIMLFAC
 40
1.0
  9
$DIMBLK
  1
_FILLED
  9
$DIMTXT
 40
3.5
  9
$DIMTOL
 70
1
  9
$DIMLIM
 70
0
  9
$DIMTFAC
 40
1.0
  9
$DIMTP
 40
0.005
  9
$DIMTM
 40
0.005
  9
$PDMODE
 70
3
  9
$PDSIZE
 40
0.3125
  9
$HANDSEED
  5
379
  9
$TILEMODE
 70
1
  9
$MEASUREMENT
 70
1
  9
$INSUNITS
 70
4
  0
ENDSEC
  0
SECTION
  2
CLASSES
  0
CLASS
  1
ACDBDICTIONARYWDFLT
  2
AcDbDictionaryWithDefault
  3
AutoCAD 2000
 90
0
280
0
281
0
  0
CLASS
  1
ACDBPLACEHOLDER
  2
AcDbPlaceHolder
  3
AutoCAD 2000
 90
0
280
0
281
0
  0
CLASS
  1
LAYOUT
  2
AcDbLayout
  3
AutoCAD 2000
 90
0
280
0
281
0
  0
ENDSEC
  0
SECTION
  2
TABLES
  0
TABLE
  2
VPORT
  5
8
100
AcDbSymbolTable
 70
2
  0
VPORT
  5
1F4
100
AcDbSymbolTableRecord
100
AcDbViewportTableRecord
  2
*ACTIVE
 70
0
 10
0.0
 20
0.0
 11
1.0
 21
1.0
 12
210.0
 22
148.5
 13
0.0
 23
0.0
 14
1.0
 24
1.0
 15
0.0
 25
0.0
 16
0.0
 26
0.0
 36
1.0
 17
0.0
 27
0.0
 37
0.0
 40
297.0
 41
1.4141414141
 42
50.0
 43
0.0
 44
0.0
 50
0.0
 51
0.0
 71
0
 72
100
 73
1
 74
1
 75
0
 76
0
 77
0
 78
0
  0
ENDTAB
  0
TABLE
  2
LTYPE
  5
5
100
AcDbSymbolTable
 70
6
  0
LTYPE
  5
14
100
AcDbSymbolTableRecord
100
AcDbLinetypeTableRecord
  2
BYBLOCK
 70
0
  3

 72
65
 73
0
 40
0.0
  0
LTYPE
  5
15
100
AcDbSymbolTableRecord
100
AcDbLinetypeTableRecord
  2
BYLAYER
 70
0
  3

 72
65
 73
0
 40
0.0
  0
LTYPE
  5
16
100
AcDbSymbolTableRecord
100
AcDbLinetypeTableRecord
  2
CONTINUOUS
 70
64
  3
Solid line
 72
65
 73
0
 40
0.0
  0
LTYPE
  5
1F5
100
AcDbSymbolTableRecord
100
AcDbLinetypeTableRecord
  2
CENTER
 70
64
  3
____ _ ____ _ ____ _ ____ _ ____ _ ____ _ ____
 72
65
 73
4
 40
0.6
 49
0.375
 74
0
 49
-0.075
 74
0
 49
0.075
 74
0
 49
-0.075
 74
0
  0
LTYPE
  5
1F6
100
AcDbSymbolTableRecord
100
AcDbLinetypeTableRecord
  2
HIDDEN
 70
64
  3
- - - - - - - - - - - - - - - - - - - -
 72
65
 73
2
 40
0.2
 49
0.1
 74
0
 49
-0.1
 74
0
  0
LTYPE
  5
1F7
100
AcDbSymbolTableRecord
100
AcDbLinetypeTableRecord
  2
PHANTOM
 70
64
  3
_____ _ _ _____ _ _ _____ _ _ _____
 72
65
 73
6
 40
0.8
 49
0.45
 74
0
 49
-0.05
 74
0
 49
0.1
 74
0
 49
-0.05
 74
0
 49
0.1
 74
0
 49
-0.05
 74
0
  0
LTYPE
  5
1F8
100
AcDbSymbolTableRecord
100
AcDbLinetypeTableRecord
  2
DOT
 70
64
  3
. . . . . . . . . . . . . . . . . . . .
 72
65
 73
2
 40
0.2
 49
0.1
 74
0
 49
-0.1
 74
0
  0
LTYPE
  5
1F9
100
AcDbSymbolTableRecord
100
AcDbLinetypeTableRecord
  2
DASHED
 70
64
  3
- - - - - - - - - - - - - - - - - - - -
 72
65
 73
2
 40
0.2
 49
0.1
 74
0
 49
-0.1
 74
0
  0
ENDTAB
  0
TABLE
  2
LAYER
  5
2
100
AcDbSymbolTable
 70
36
  0
LAYER
  5
10
100
AcDbSymbolTableRecord
100
AcDbLayerTableRecord
  2
0
 70
0
 62
7
  6
CONTINUOUS
370
-3
390
F
  0
LAYER
  5
1FA
100
AcDbSymbolTableRecord
100
AcDbLayerTableRecord
  2
DEFAULT_1
 70
0
 62
7
  6
CENTER
370
-3
390
F
  0
LAYER
  5
1FB
100
AcDbSymbolTableRecord
100
AcDbLayerTableRecord
  2
DEFAULT_2
 70
0
 62
8
  6
HIDDEN
370
-3
390
F
  0
LAYER
  5
1FC
100
AcDbSymbolTableRecord
100
AcDbLayerTableRecord
  2
DEFAULT_3
 70
0
 62
7
  6
PHANTOM
370
-3
390
F
  0
LAYER
  5
1FD
100
AcDbSymbolTableRecord
100
AcDbLayerTableRecord
  2
AUSFORMSCHRAEGEN
 70
0
 62
7
  6
CONTINUOUS
370
-3
390
F
  0
LAYER
  5
1FE
100
AcDbSymbolTableRecord
100
AcDbLayerTableRecord
  2
BEZUGSACHSEN
 70
0
 62
7
  6
CONTINUOUS
370
-3
390
F
  0
LAYER
  5
1FF
100
AcDbSymbolTableRecord
100
AcDbLayerTableRecord
  2
BEZUGSEBENEN
 70
0
 62
7
  6
CONTINUOUS
370
-3
390
F
  0
LAYER
  5
200
100
AcDbSymbolTableRecord
100
AcDbLayerTableRecord
  2
FASEN
 70
0
 62
7
  6
CONTINUOUS
370
-3
390
F
  0
LAYER
  5
201
100
AcDbSymbolTableRecord
100
AcDbLayerTableRecord
  2
HILFEN
 70
0
 62
7
  6
CONTINUOUS
370
-3
390
F
  0
LAYER
  5
202
100
AcDbSymbolTableRecord
100
AcDbLayerTableRecord
  2
KONSTRUKTIONSELEMENTE
 70
0
 62
7
  6
CONTINUOUS
370
-3
390
F
  0
LAYER
  5
203
100
AcDbSymbolTableRecord
100
AcDbLayerTableRecord
  2
PLATZIERUNG
 70
0
 62
7
  6
CONTINUOUS
370
-3
390
F
  0
LAYER
  5
204
100
AcDbSymbolTableRecord
100
AcDbLayerTableRecord
  2
RUNDUNGEN
 70
0
 62
7
  6
CONTINUOUS
370
-3
390
F
  0
LAYER
  5
205
100
AcDbSymbolTableRecord
100
AcDbLayerTableRecord
  2
TEIL_STARTBEZUEGE
 70
0
 62
7
  6
CONTINUOUS
370
-3
390
F
  0
LAYER
  5
206
100
AcDbSymbolTableRecord
100
AcDbLayerTableRecord
  2
ZEICHNUNGSBEMASSUNGEN
 70
0
 62
7
  6
CONTINUOUS
370
-3
390
F
  0
ENDTAB
  0
TABLE
  2
STYLE
  5
3
100
AcDbSymbolTable
 70
1
  0
STYLE
  5
11
100
AcDbSymbolTableRecord
100
AcDbTextStyleTableRecord
  2
STANDARD
 70
0
 40
0.0
 41
0.7
 50
0.0
 71
0
 42
0.2
  3
txt
  4

  0
STYLE
  5
207
100
AcDbSymbolTableRecord
100
AcDbTextStyleTableRecord
  2
TEXTSTYLE_1
 70
0
 40
0.0
 41
0.8
 50
0.0
 71
0
 42
0.2
  3
gdt
  4

  0
ENDTAB
  0
TABLE
  2
VIEW
  5
6
100
AcDbSymbolTable
 70
0
  0
ENDTAB
  0
TABLE
  2
UCS
  5
7
100
AcDbSymbolTable
 70
0
  0
ENDTAB
  0
TABLE
  2
APPID
  5
9
100
AcDbSymbolTable
 70
1
  0
APPID
  5
208
100
AcDbSymbolTableRecord
100
AcDbRegAppTableRecord
  2
ACAD
 70
0
  0
ENDTAB
  0
TABLE
  2
BLOCK_RECORD
  5
1
100
AcDbSymbolTable
 70
0
  0
BLOCK_RECORD
  5
209
100
AcDbSymbolTableRecord
100
AcDbBlockTableRecord
  2
*Model_Space
  0
BLOCK_RECORD
  5
20A
100
AcDbSymbolTableRecord
100
AcDbBlockTableRecord
  2
*Paper_Space
  0
ENDTAB
  0
TABLE
  2
DIMSTYLE
  5
A
100
AcDbSymbolTable
 70
1
100
AcDbDimStyleTable
 71
0
  0
DIMSTYLE
105
20B
100
AcDbSymbolTableRecord
100
AcDbDimStyleTableRecord
  2
STANDARD
 70
0
  3

  4

 40
1.0
 41
3.5
 42
0.0625
 43
0.38
 44
0.18
 45
0.0
 46
0.0
 47
0.005
 48
0.005
140
3.5
141
0.09
142
0.0
143
25.4
144
1.0
145
0.0
146
1.0
147
0.09
 71
1.0
 72
0.0
 73
0
 74
0
 75
0
 76
0
 77
1
 78
8
170
0
171
2
172
0
173
0
174
0
175
0
176
0
177
0
178
5
270
2
271
3
272
3
273
2
274
2
275
0
280
0
281
0
282
0
283
1
284
8
285
0
286
0
287
3
288
0
340
11
  0
ENDTAB
  0
ENDSEC
  0
SECTION
  2
BLOCKS
  0
BLOCK
  5
20
100
AcDbEntity
  8
0
100
AcDbBlockBegin
  2
*Model_Space
 70
0
 10
0.0
 20
0.0
 30
0.0
  3
*Model_Space
  1

  0
ENDBLK
  5
21
100
AcDbEntity
  8
0
100
AcDbBlockEnd
  0
BLOCK
  5
1C
100
AcDbEntity
  8
0
100
AcDbBlockBegin
  2
*Paper_Space
 70
0
 10
0.0
 20
0.0
 30
0.0
  3
*Paper_Space
  1

  0
ENDBLK
  5
1D
100
AcDbEntity
  8
0
100
AcDbBlockEnd
  0
ENDSEC
  0
SECTION
  2
ENTITIES
  0
MTEXT
  5
20C
100
AcDbEntity
  8
0
100
AcDbMText
 62
5
  6
CONTINUOUS
  7
STANDARD
 71
1
 72
1
 10
230.995093282
 20
100.1610600854
 30
0.0
 11
0.0
 21
1.0
 31
0.0
 44
0.9
  1
RUD
 40
5.0
 41
13.3333333333
  0
MTEXT
  5
20D
100
AcDbEntity
  8
0
100
AcDbMText
 62
5
  6
CONTINUOUS
  7
STANDARD
 71
1
 72
1
 10
244.8320159064
 20
96.6609023407
 30
0.0
 11
0.0
 21
1.0
 31
0.0
 44
0.9
  1
IVH-10
 40
5.0
 41
22.619047619
  0
LINE
  5
20E
100
AcDbEntity
  8
0
100
AcDbLine
 62
7
  6
CONTINUOUS
 10
0.0
 20
0.0
 11
0.0
 21
297.0
  0
LINE
  5
20F
100
AcDbEntity
  8
0
100
AcDbLine
 62
7
  6
CONTINUOUS
 10
0.0
 20
0.0
 11
420.0
 21
0.0
  0
LINE
  5
210
100
AcDbEntity
  8
0
100
AcDbLine
 62
7
  6
CONTINUOUS
 10
0.0
 20
297.0
 11
420.0
 21
297.0
  0
LINE
  5
211
100
AcDbEntity
  8
0
100
AcDbLine
 62
7
  6
CONTINUOUS
 10
420.0
 20
0.0
 11
420.0
 21
297.0
  0
LINE
  5
212
100
AcDbEntity
  8
0
100
AcDbLine
 62
7
  6
CONTINUOUS
 10
99.9635285201
 20
226.8369193839
 11
106.6763255695
 21
234.8369193839
  0
LINE
  5
213
100
AcDbEntity
  8
KONSTRUKTIONSELEMENTE
100
AcDbLine
 62
7
  6
CONTINUOUS
 10
146.2540247378
 20
98.1826065886
 11
150.1726468467
 21
98.1826065886
  0
LINE
  5
214
100
AcDbEntity
  8
AUSFORMSCHRAEGEN
100
AcDbLine
 62
7
  6
CONTINUOUS
 10
133.7905963761
 20
121.2175492234
 11
131.7135285201
 21
121.2175492234
  0
LINE
  5
215
100
AcDbEntity
  8
AUSFORMSCHRAEGEN
100
AcDbLine
 62
7
  6
CONTINUOUS
 10
121.6364606641
 20
121.2175492234
 11
123.7135285201
 21
121.2175492234
  0
LINE
  5
216
100
AcDbEntity
  8
KONSTRUKTIONSELEMENTE
100
AcDbLine
 62
7
  6
CONTINUOUS
 10
123.7135285201
 20
127.0814539748
 11
131.7135285201
 21
127.0814539748
  0
LINE
  5
217
100
AcDbEntity
  8
KONSTRUKTIONSELEMENTE
100
AcDbLine
 62
7
  6
CONTINUOUS
 10
99.9635285201
 20
226.8369193839
 11
99.9635285201
 21
211.5236655133
  0
LINE
  5
218
100
AcDbEntity
  8
KONSTRUKTIONSELEMENTE
100
AcDbLine
 62
7
  6
CONTINUOUS
 10
100.7135285201
 20
148.0094172876
 11
100.7135285201
 21
127.6369193839
  0
LINE
  5
219
100
AcDbEntity
  8
KONSTRUKTIONSELEMENTE
100
AcDbLine
 62
7
  6
CONTINUOUS
 10
158.819911501
 20
135.2035859393
 11
152.7135285201
 21
133.5702526616
  0
LINE
  5
21A
100
AcDbEntity
  8
KONSTRUKTIONSELEMENTE
100
AcDbLine
 62
7
  6
CONTINUOUS
 10
152.7135285201
 20
132.8702526616
 11
159.7135285201
 21
134.7369193839
  0
LINE
  5
21B
100
AcDbEntity
  8
KONSTRUKTIONSELEMENTE
100
AcDbLine
 62
7
  6
CONTINUOUS
 10
152.7135285201
 20
131.2369193839
 11
159.7135285201
 21
131.2369193839
  0
LINE
  5
21C
100
AcDbEntity
  8
KONSTRUKTIONSELEMENTE
100
AcDbLine
 62
7
  6
CONTINUOUS
 10
159.7135285201
 20
131.9369193839
 11
152.7135285201
 21
131.9369193839
  0
LINE
  5
21D
100
AcDbEntity
  8
KONSTRUKTIONSELEMENTE
100
AcDbLine
 62
7
  6
CONTINUOUS
 10
123.7135285201
 20
132.1442306687
 11
131.7135285201
 21
132.1442306687
  0
LINE
  5
21E
100
AcDbEntity
  8
KONSTRUKTIONSELEMENTE
100
AcDbLine
 62
7
  6
CONTINUOUS
 10
115.0743038603
 20
132.3058325639
 11
100.7135285201
 21
132.3058325639
  0
LINE
  5
21F
100
AcDbEntity
  8
AUSFORMSCHRAEGEN
100
AcDbLine
 62
7
  6
CONTINUOUS
 10
120.9071914917
 20
96.8929542055
 11
119.301728715
 21
101.3039269322
  0
LINE
  5
220
100
AcDbEntity
  8
KONSTRUKTIONSELEMENTE
100
AcDbLine
 62
7
  6
CONTINUOUS
 10
102.9941879714
 20
174.3671415995
 11
101.0000772038
 21
172.6938839899
  0
LINE
  5
221
100
AcDbEntity
  8
KONSTRUKTIONSELEMENTE
100
AcDbLine
 62
7
  6
CONTINUOUS
 10
152.7135285201
 20
138.4702524947
 11
159.7135285201
 21
138.4702524947
  0
LINE
  5
222
100
AcDbEntity
  8
AUSFORMSCHRAEGEN
100
AcDbLine
 62
7
  6
CONTINUOUS
 10
121.6958572234
 20
121.1032818611
 11
121.6364606641
 21
121.2175492234
  0
LINE
  5
223
100
AcDbEntity
  8
KONSTRUKTIONSELEMENTE
100
AcDbLine
 62
7
  6
CONTINUOUS
 10
157.628422177
 20
149.0869193839
 11
158.0752306344
 21
149.2035856055
  0
LINE
  5
224
100
AcDbEntity
  8
KONSTRUKTIONSELEMENTE
100
AcDbLine
 62
7
  6
CONTINUOUS
 10
159.7135285201
 20
139.1702524947
 11
156.4369327488
 21
139.1702524947
  0
LINE
  5
225
100
AcDbEntity
  8
KONSTRUKTIONSELEMENTE
100
AcDbLine
 62
7
  6
CONTINUOUS
 10
155.543315834
 20
139.1702524947
 11
152.7135285201
 21
139.1702524947
  0
LINE
  5
226
100
AcDbEntity
  8
KONSTRUKTIONSELEMENTE
100
AcDbLine
 62
7
  6
CONTINUOUS
 10
152.7135285201
 20
142.4369193839
 11
155.543315834
 21
142.4369193839
  0
LINE
  5
227
100
AcDbEntity
  8
KONSTRUKTIONSELEMENTE
100
AcDbLine
 62
7
  6
CONTINUOUS
 10
156.4369327488
 20
142.4369193839
 11
159.7135285201
 21
142.4369193839
  0
LINE
  5
228
100
AcDbEntity
  8
KONSTRUKTIONSELEMENTE
100
AcDbLine
 62
7
  6
CONTINUOUS
 10
159.7135285201
 20
143.1369193839
 11
152.7135285201
 21
143.1369193839
  0
LINE
  5
229
100
AcDbEntity
  8
KONSTRUKTIONSELEMENTE
100
AcDbLine
 62
7
  6
CONTINUOUS
 10
156.4369327488
 20
144.0702531622
 11
157.1816137197
 21
144.0702531622
  0
LINE
  5
22A
100
AcDbEntity
  8
KONSTRUKTIONSELEMENTE
100
AcDbLine
 62
7
  6
CONTINUOUS
 10
159.7135285201
 20
135.6702528285
 11
152.7135285201
 21
137.5369193839
  0
LINE
  5
22B
100
AcDbEntity
  8
KONSTRUKTIONSELEMENTE
100
AcDbLine
 62
7
  6
CONTINUOUS
 10
152.7135285201
 20
136.8369193839
 11
158.819911501
 21
135.2035859393
  0
LINE
  5
22C
100
AcDbEntity
  8
KONSTRUKTIONSELEMENTE
100
AcDbLine
 62
7
  6
CONTINUOUS
 10
114.1271765226
 20
216.8369193839
 11
114.1271765226
 21
215.2369193839
  0
LINE
  5
22D
100
AcDbEntity
  8
KONSTRUKTIONSELEMENTE
100
AcDbLine
 62
7
  6
CONTINUOUS
 10
115.0743038603
 20
132.3058325639
 11
115.0743038603
 21
148.703614035
  0
LINE
  5
22E
100
AcDbEntity
  8
KONSTRUKTIONSELEMENTE
100
AcDbLine
 62
7
  6
CONTINUOUS
 10
154.7986350717
 20
153.0535856055
 11
154.3518261971
 21
152.9369193839
  0
LINE
  5
22F
100
AcDbEntity
  8
KONSTRUKTIONSELEMENTE
100
AcDbLine
 62
7
  6
CONTINUOUS
 10
156.8837412061
 20
148.9702531622
 11
157.628422177
 21
149.0869193839
  0
LINE
  5
230
100
AcDbEntity
  8
KONSTRUKTIONSELEMENTE
100
AcDbLine
 62
7
  6
CONTINUOUS
 10
157.628422177
 20
149.6702531622
 11
156.7348050537
 21
149.5535856055
  0
LINE
  5
231
100
AcDbEntity
  8
KONSTRUKTIONSELEMENTE
100
AcDbLine
 62
7
  6
CONTINUOUS
 10
157.1816137197
 20
145.7035856055
 11
156.4369327488
 21
145.7035856055
  0
LINE
  5
232
100
AcDbEntity
  8
KONSTRUKTIONSELEMENTE
100
AcDbLine
 62
7
  6
CONTINUOUS
 10
153.7560815873
 20
146.6369193839
 11
154.9475712242
 21
146.6369193839
  0
LINE
  5
233
100
AcDbEntity
  8
KONSTRUKTIONSELEMENTE
100
AcDbLine
 62
7
  6
CONTINUOUS
 10
153.9050177397
 20
147.3369193839
 11
159.7135285201
 21
147.3369193839
  0
LINE
  5
234
100
AcDbEntity
  8
KONSTRUKTIONSELEMENTE
100
AcDbLine
 62
7
  6
CONTINUOUS
 10
159.7135285201
 20
148.0369193839
 11
152.7135285201
 21
148.0369193839
  0
LINE
  5
235
100
AcDbEntity
  8
KONSTRUKTIONSELEMENTE
100
AcDbLine
 62
7
  6
CONTINUOUS
 10
155.543315834
 20
148.9702531622
 11
156.8837412061
 21
148.9702531622
  0
LINE
  5
236
100
AcDbEntity
  8
KONSTRUKTIONSELEMENTE
100
AcDbLine
 62
7
  6
CONTINUOUS
 10
121.7135285201
 20
133.7369193839
 11
121.7135285201
 21
156.3792021583
  0
LINE
  5
237
100
AcDbEntity
  8
0
100
AcDbLine
 62
7
  6
CONTINUOUS
 10
121.9635285201
 20
232.6369193839
 11
121.9635285201
 21
219.8369193839
  0
LINE
  5
238
100
AcDbEntity
  8
KONSTRUKTIONSELEMENTE
100
AcDbLine
 62
7
  6
CONTINUOUS
 10
121.9635285201
 20
219.8369193839
 11
121.9635285201
 21
205.2869193839
  0
LINE
  5
239
100
AcDbEntity
  8
KONSTRUKTIONSELEMENTE
100
AcDbLine
 62
7
  6
CONTINUOUS
 10
155.543315834
 20
153.1702531622
 11
154.7986350717
 21
153.0535856055
  0
LINE
  5
23A
100
AcDbEntity
  8
KONSTRUKTIONSELEMENTE
100
AcDbLine
 62
7
  6
CONTINUOUS
 10
154.7986350717
 20
152.4702531622
 11
155.6922519865
 21
152.5869193839
  0
LINE
  5
23B
100
AcDbEntity
  8
KONSTRUKTIONSELEMENTE
100
AcDbLine
 62
7
  6
CONTINUOUS
 10
156.7348050537
 20
149.5535856055
 11
155.6922519865
 21
149.5535856055
  0
LINE
  5
23C
100
AcDbEntity
  8
KONSTRUKTIONSELEMENTE
100
AcDbLine
 62
7
  6
CONTINUOUS
 10
155.6922519865
 20
152.5869193839
 11
156.7348050537
 21
152.5869193839
  0
LINE
  5
23D
100
AcDbEntity
  8
KONSTRUKTIONSELEMENTE
100
AcDbLine
 62
7
  6
CONTINUOUS
 10
156.8837412061
 20
153.1702531622
 11
155.543315834
 21
153.1702531622
  0
LINE
  5
23E
100
AcDbEntity
  8
KONSTRUKTIONSELEMENTE
100
AcDbLine
 62
7
  6
CONTINUOUS
 10
155.6922519865
 20
149.5535856055
 11
154.7986350717
 21
149.6702531622
  0
LINE
  5
23F
100
AcDbEntity
  8
KONSTRUKTIONSELEMENTE
100
AcDbLine
 62
7
  6
CONTINUOUS
 10
154.7986350717
 20
149.0869193839
 11
155.543315834
 21
148.9702531622
  0
LINE
  5
240
100
AcDbEntity
  8
KONSTRUKTIONSELEMENTE
100
AcDbLine
 62
7
  6
CONTINUOUS
 10
119.4909507297
 20
162.4856844503
 11
110.0383482354
 21
173.7508574323
  0
LINE
  5
241
100
AcDbEntity
  8
KONSTRUKTIONSELEMENTE
100
AcDbLine
 62
7
  6
CONTINUOUS
 10
123.7135285201
 20
132.1442306687
 11
123.7135285201
 21
127.0814539748
  0
LINE
  5
242
100
AcDbEntity
  8
AUSFORMSCHRAEGEN
100
AcDbLine
 62
7
  6
CONTINUOUS
 10
123.7135285201
 20
127.0814539748
 11
123.7135285201
 21
121.2175492234
  0
LINE
  5
243
100
AcDbEntity
  8
AUSFORMSCHRAEGEN
100
AcDbLine
 62
7
  6
CONTINUOUS
 10
123.7135285201
 20
95.8249719427
 11
123.7135285201
 21
110.4543052854
  0
LINE
  5
244
100
AcDbEntity
  8
KONSTRUKTIONSELEMENTE
100
AcDbLine
 62
7
  6
CONTINUOUS
 10
153.9050177397
 20
163.2035869406
 11
154.3518261971
 21
163.3202518271
  0
LINE
  5
245
100
AcDbEntity
  8
KONSTRUKTIONSELEMENTE
100
AcDbLine
 62
7
  6
CONTINUOUS
 10
154.3518261971
 20
164.0202518271
 11
153.9050177397
 21
163.9035869406
  0
LINE
  5
246
100
AcDbEntity
  8
KONSTRUKTIONSELEMENTE
100
AcDbLine
 62
7
  6
CONTINUOUS
 10
152.7135285201
 20
159.7035869406
 11
159.7135285201
 21
159.7035869406
  0
LINE
  5
247
100
AcDbEntity
  8
KONSTRUKTIONSELEMENTE
100
AcDbLine
 62
7
  6
CONTINUOUS
 10
156.7348050537
 20
152.5869193839
 11
157.628422177
 21
152.4702531622
  0
LINE
  5
248
100
AcDbEntity
  8
KONSTRUKTIONSELEMENTE
100
AcDbLine
 62
7
  6
CONTINUOUS
 10
157.628422177
 20
153.0535856055
 11
156.8837412061
 21
153.1702531622
  0
LINE
  5
249
100
AcDbEntity
  8
KONSTRUKTIONSELEMENTE
100
AcDbLine
 62
7
  6
CONTINUOUS
 10
154.3518261971
 20
149.2035856055
 11
154.7986350717
 21
149.0869193839
  0
LINE
  5
24A
100
AcDbEntity
  8
KONSTRUKTIONSELEMENTE
100
AcDbLine
 62
7
  6
CONTINUOUS
 10
158.0752306344
 20
152.9369193839
 11
157.628422177
 21
153.0535856055
  0
LINE
  5
24B
100
AcDbEntity
  8
KONSTRUKTIONSELEMENTE
100
AcDbLine
 62
7
  6
CONTINUOUS
 10
153.7560815873
 20
149.4369193839
 11
154.3518261971
 21
149.2035856055
  0
LINE
  5
24C
100
AcDbEntity
  8
AUSFORMSCHRAEGEN
100
AcDbLine
 62
7
  6
CONTINUOUS
 10
136.3583397172
 20
104.5974408086
 11
133.7905963761
 21
121.2175492234
  0
LINE
  5
24D
100
AcDbEntity
  8
BEZUGSACHSEN
100
AcDbLine
 62
2
  6
CENTER
 10
127.7135285201
 20
91.1345406215
 11
127.7135285201
 21
237.8369193839
  0
LINE
  5
24E
100
AcDbEntity
  8
KONSTRUKTIONSELEMENTE
100
AcDbLine
 62
7
  6
CONTINUOUS
 10
131.7135285201
 20
132.1442306687
 11
131.7135285201
 21
127.0814539748
  0
LINE
  5
24F
100
AcDbEntity
  8
AUSFORMSCHRAEGEN
100
AcDbLine
 62
7
  6
CONTINUOUS
 10
131.7135285201
 20
127.0814539748
 11
131.7135285201
 21
121.2175492234
  0
LINE
  5
250
100
AcDbEntity
  8
AUSFORMSCHRAEGEN
100
AcDbLine
 62
7
  6
CONTINUOUS
 10
131.7135285201
 20
94.2303332069
 11
131.7135285201
 21
110.4543052854
  0
LINE
  5
251
100
AcDbEntity
  8
AUSFORMSCHRAEGEN
100
AcDbLine
 62
7
  6
CONTINUOUS
 10
119.0687173229
 20
104.5974408086
 11
121.6364606641
 21
121.2175492234
  0
LINE
  5
252
100
AcDbEntity
  8
KONSTRUKTIONSELEMENTE
100
AcDbLine
 62
7
  6
CONTINUOUS
 10
154.3518261971
 20
174.7535869406
 11
153.7560815873
 21
174.5202518271
  0
LINE
  5
253
100
AcDbEntity
  8
KONSTRUKTIONSELEMENTE
100
AcDbLine
 62
7
  6
CONTINUOUS
 10
157.926294482
 20
165.8869193839
 11
157.3305498721
 21
165.7702518271
  0
LINE
  5
254
100
AcDbEntity
  8
KONSTRUKTIONSELEMENTE
100
AcDbLine
 62
7
  6
CONTINUOUS
 10
157.3305498721
 20
165.0702518271
 11
158.0752306344
 21
165.1869193839
  0
LINE
  5
255
100
AcDbEntity
  8
KONSTRUKTIONSELEMENTE
100
AcDbLine
 62
7
  6
CONTINUOUS
 10
159.7135285201
 20
160.4035869406
 11
156.5858689012
 21
160.4035869406
  0
LINE
  5
256
100
AcDbEntity
  8
KONSTRUKTIONSELEMENTE
100
AcDbLine
 62
7
  6
CONTINUOUS
 10
155.6922519865
 20
160.4035869406
 11
153.4582092824
 21
160.4035869406
  0
LINE
  5
257
100
AcDbEntity
  8
KONSTRUKTIONSELEMENTE
100
AcDbLine
 62
7
  6
CONTINUOUS
 10
154.3518261971
 20
163.3202518271
 11
154.7986350717
 21
163.3202518271
  0
LINE
  5
258
100
AcDbEntity
  8
KONSTRUKTIONSELEMENTE
100
AcDbLine
 62
7
  6
CONTINUOUS
 10
154.9475712242
 20
164.0202518271
 11
154.3518261971
 21
164.0202518271
  0
LINE
  5
259
100
AcDbEntity
  8
KONSTRUKTIONSELEMENTE
100
AcDbLine
 62
7
  6
CONTINUOUS
 10
152.7135285201
 20
165.0702518271
 11
157.3305498721
 21
165.0702518271
  0
LINE
  5
25A
100
AcDbEntity
  8
KONSTRUKTIONSELEMENTE
100
AcDbLine
 62
7
  6
CONTINUOUS
 10
158.6709753486
 20
152.7035856055
 11
158.0752306344
 21
152.9369193839
  0
LINE
  5
25B
100
AcDbEntity
  8
KONSTRUKTIONSELEMENTE
100
AcDbLine
 62
7
  6
CONTINUOUS
 10
154.7986350717
 20
149.6702531622
 11
153.9050177397
 21
150.1369193839
  0
LINE
  5
25C
100
AcDbEntity
  8
KONSTRUKTIONSELEMENTE
100
AcDbLine
 62
7
  6
CONTINUOUS
 10
152.7135285201
 20
147.3369193839
 11
153.7560815873
 21
146.6369193839
  0
LINE
  5
25D
100
AcDbEntity
  8
KONSTRUKTIONSELEMENTE
100
AcDbLine
 62
7
  6
CONTINUOUS
 10
154.9475712242
 20
146.6369193839
 11
153.9050177397
 21
147.3369193839
  0
LINE
  5
25E
100
AcDbEntity
  8
KONSTRUKTIONSELEMENTE
100
AcDbLine
 62
7
  6
CONTINUOUS
 10
133.4635285201
 20
219.8369193839
 11
133.4635285201
 21
205.2869193839
  0
LINE
  5
25F
100
AcDbEntity
  8
0
100
AcDbLine
 62
7
  6
CONTINUOUS
 10
133.4635285201
 20
219.8369193839
 11
133.4635285201
 21
232.6369193839
  0
LINE
  5
260
100
AcDbEntity
  8
KONSTRUKTIONSELEMENTE
100
AcDbLine
 62
7
  6
CONTINUOUS
 10
133.7135285201
 20
133.7369193839
 11
133.7135285201
 21
159.8369193839
  0
LINE
  5
261
100
AcDbEntity
  8
KONSTRUKTIONSELEMENTE
100
AcDbLine
 62
7
  6
CONTINUOUS
 10
153.7560815873
 20
174.5202518271
 11
153.1603369774
 21
174.0535869406
  0
LINE
  5
262
100
AcDbEntity
  8
KONSTRUKTIONSELEMENTE
100
AcDbLine
 62
7
  6
CONTINUOUS
 10
154.0539538922
 20
173.8202518271
 11
154.5007627668
 21
174.0535869406
  0
LINE
  5
263
100
AcDbEntity
  8
KONSTRUKTIONSELEMENTE
100
AcDbLine
 62
7
  6
CONTINUOUS
 10
154.5007627668
 20
174.0535869406
 11
155.0965073766
 21
174.1702518271
  0
LINE
  5
264
100
AcDbEntity
  8
KONSTRUKTIONSELEMENTE
100
AcDbLine
 62
7
  6
CONTINUOUS
 10
157.3305498721
 20
165.7702518271
 11
152.7135285201
 21
165.7702518271
  0
LINE
  5
265
100
AcDbEntity
  8
KONSTRUKTIONSELEMENTE
100
AcDbLine
 62
7
  6
CONTINUOUS
 10
152.7135285201
 20
168.5702518271
 11
157.3305498721
 21
168.5702518271
  0
LINE
  5
266
100
AcDbEntity
  8
KONSTRUKTIONSELEMENTE
100
AcDbLine
 62
7
  6
CONTINUOUS
 10
157.3305498721
 20
169.2702518271
 11
152.7135285201
 21
169.2702518271
  0
LINE
  5
267
100
AcDbEntity
  8
KONSTRUKTIONSELEMENTE
100
AcDbLine
 62
7
  6
CONTINUOUS
 10
152.7135285201
 20
170.2035869406
 11
159.7135285201
 21
170.2035869406
  0
LINE
  5
268
100
AcDbEntity
  8
KONSTRUKTIONSELEMENTE
100
AcDbLine
 62
7
  6
CONTINUOUS
 10
154.7986350717
 20
163.3202518271
 11
155.2454435291
 21
163.2035869406
  0
LINE
  5
269
100
AcDbEntity
  8
KONSTRUKTIONSELEMENTE
100
AcDbLine
 62
7
  6
CONTINUOUS
 10
155.3943796815
 20
163.9035869406
 11
154.9475712242
 21
164.0202518271
  0
LINE
  5
26A
100
AcDbEntity
  8
KONSTRUKTIONSELEMENTE
100
AcDbLine
 62
7
  6
CONTINUOUS
 10
157.628422177
 20
152.4702531622
 11
158.5220391961
 21
152.0035856055
  0
LINE
  5
26B
100
AcDbEntity
  8
KONSTRUKTIONSELEMENTE
100
AcDbLine
 62
7
  6
CONTINUOUS
 10
153.3092731299
 20
149.7869193839
 11
153.7560815873
 21
149.4369193839
  0
LINE
  5
26C
100
AcDbEntity
  8
KONSTRUKTIONSELEMENTE
100
AcDbLine
 62
7
  6
CONTINUOUS
 10
130.9060618375
 20
167.5503707001
 11
104.5256618792
 21
198.9893071244
  0
LINE
  5
26D
100
AcDbEntity
  8
KONSTRUKTIONSELEMENTE
100
AcDbLine
 62
7
  6
CONTINUOUS
 10
141.2998805175
 20
216.8369193839
 11
141.2998805175
 21
215.2369193839
  0
LINE
  5
26E
100
AcDbEntity
  8
KONSTRUKTIONSELEMENTE
100
AcDbLine
 62
7
  6
CONTINUOUS
 10
153.7560815873
 20
173.4702518271
 11
154.0539538922
 21
173.8202518271
  0
LINE
  5
26F
100
AcDbEntity
  8
KONSTRUKTIONSELEMENTE
100
AcDbLine
 62
7
  6
CONTINUOUS
 10
158.3731029393
 20
166.1202518271
 11
157.926294482
 21
165.8869193839
  0
LINE
  5
270
100
AcDbEntity
  8
KONSTRUKTIONSELEMENTE
100
AcDbLine
 62
7
  6
CONTINUOUS
 10
158.0752306344
 20
165.1869193839
 11
158.6709753486
 21
165.4202518271
  0
LINE
  5
271
100
AcDbEntity
  8
KONSTRUKTIONSELEMENTE
100
AcDbLine
 62
7
  6
CONTINUOUS
 10
159.7135285201
 20
164.1369193839
 11
156.2879965963
 21
163.0869193839
  0
LINE
  5
272
100
AcDbEntity
  8
KONSTRUKTIONSELEMENTE
100
AcDbLine
 62
7
  6
CONTINUOUS
 10
156.5858689012
 20
162.3869193839
 11
159.7135285201
 21
163.3202518271
  0
LINE
  5
273
100
AcDbEntity
  8
KONSTRUKTIONSELEMENTE
100
AcDbLine
 62
7
  6
CONTINUOUS
 10
155.0965073766
 20
174.8702518271
 11
154.3518261971
 21
174.7535869406
  0
LINE
  5
274
100
AcDbEntity
  8
KONSTRUKTIONSELEMENTE
100
AcDbLine
 62
7
  6
CONTINUOUS
 10
158.819911501
 20
170.9035869406
 11
153.6071454348
 21
170.9035869406
  0
LINE
  5
275
100
AcDbEntity
  8
KONSTRUKTIONSELEMENTE
100
AcDbLine
 62
7
  6
CONTINUOUS
 10
155.0965073766
 20
174.1702518271
 11
157.3305498721
 21
174.1702518271
  0
LINE
  5
276
100
AcDbEntity
  8
KONSTRUKTIONSELEMENTE
100
AcDbLine
 62
7
  6
CONTINUOUS
 10
157.3305498721
 20
174.8702518271
 11
155.0965073766
 21
174.8702518271
  0
LINE
  5
277
100
AcDbEntity
  8
KONSTRUKTIONSELEMENTE
100
AcDbLine
 62
7
  6
CONTINUOUS
 10
158.0752306344
 20
169.1535869406
 11
157.3305498721
 21
169.2702518271
  0
LINE
  5
278
100
AcDbEntity
  8
KONSTRUKTIONSELEMENTE
100
AcDbLine
 62
7
  6
CONTINUOUS
 10
157.3305498721
 20
168.5702518271
 11
157.926294482
 21
168.4535869406
  0
LINE
  5
279
100
AcDbEntity
  8
KONSTRUKTIONSELEMENTE
100
AcDbLine
 62
7
  6
CONTINUOUS
 10
159.1177838581
 20
152.3535856055
 11
158.6709753486
 21
152.7035856055
  0
LINE
  5
27A
100
AcDbEntity
  8
KONSTRUKTIONSELEMENTE
100
AcDbLine
 62
7
  6
CONTINUOUS
 10
153.9050177397
 20
150.1369193839
 11
153.6071454348
 21
150.4869193839
  0
LINE
  5
27B
100
AcDbEntity
  8
KONSTRUKTIONSELEMENTE
100
AcDbLine
 62
7
  6
CONTINUOUS
 10
152.8624646725
 20
150.3702531622
 11
153.3092731299
 21
149.7869193839
  0
LINE
  5
27C
100
AcDbEntity
  8
KONSTRUKTIONSELEMENTE
100
AcDbLine
 62
7
  6
CONTINUOUS
 10
146.2540247378
 20
98.1826065886
 11
146.2540247378
 21
159.8369193839
  0
LINE
  5
27D
100
AcDbEntity
  8
KONSTRUKTIONSELEMENTE
100
AcDbLine
 62
7
  6
CONTINUOUS
 10
153.1603369774
 20
174.0535869406
 11
152.8624646725
 21
173.5869193839
  0
LINE
  5
27E
100
AcDbEntity
  8
KONSTRUKTIONSELEMENTE
100
AcDbLine
 62
7
  6
CONTINUOUS
 10
153.3092731299
 20
163.5535869406
 11
152.8624646725
 21
163.0869193839
  0
LINE
  5
27F
100
AcDbEntity
  8
KONSTRUKTIONSELEMENTE
100
AcDbLine
 62
7
  6
CONTINUOUS
 10
153.6071454348
 20
162.9702518271
 11
153.9050177397
 21
163.2035869406
  0
LINE
  5
280
100
AcDbEntity
  8
KONSTRUKTIONSELEMENTE
100
AcDbLine
 62
7
  6
CONTINUOUS
 10
158.6709753486
 20
165.4202518271
 11
159.2667200105
 21
165.8869193839
  0
LINE
  5
281
100
AcDbEntity
  8
KONSTRUKTIONSELEMENTE
100
AcDbLine
 62
7
  6
CONTINUOUS
 10
153.9050177397
 20
163.9035869406
 11
153.3092731299
 21
163.5535869406
  0
LINE
  5
282
100
AcDbEntity
  8
KONSTRUKTIONSELEMENTE
100
AcDbLine
 62
7
  6
CONTINUOUS
 10
158.0752306344
 20
174.7535869406
 11
157.3305498721
 21
174.8702518271
  0
LINE
  5
283
100
AcDbEntity
  8
KONSTRUKTIONSELEMENTE
100
AcDbLine
 62
7
  6
CONTINUOUS
 10
157.3305498721
 20
174.1702518271
 11
157.926294482
 21
174.0535869406
  0
LINE
  5
284
100
AcDbEntity
  8
KONSTRUKTIONSELEMENTE
100
AcDbLine
 62
7
  6
CONTINUOUS
 10
158.6709753486
 20
168.9202518271
 11
158.0752306344
 21
169.1535869406
  0
LINE
  5
285
100
AcDbEntity
  8
KONSTRUKTIONSELEMENTE
100
AcDbLine
 62
7
  6
CONTINUOUS
 10
157.926294482
 20
168.4535869406
 11
158.3731029393
 21
168.2202518271
  0
LINE
  5
286
100
AcDbEntity
  8
KONSTRUKTIONSELEMENTE
100
AcDbLine
 62
7
  6
CONTINUOUS
 10
155.9901242914
 20
163.5535869406
 11
155.3943796815
 21
163.9035869406
  0
LINE
  5
287
100
AcDbEntity
  8
KONSTRUKTIONSELEMENTE
100
AcDbLine
 62
7
  6
CONTINUOUS
 10
155.2454435291
 20
163.2035869406
 11
155.543315834
 21
162.9702518271
  0
LINE
  5
288
100
AcDbEntity
  8
KONSTRUKTIONSELEMENTE
100
AcDbLine
 62
7
  6
CONTINUOUS
 10
158.5220391961
 20
152.0035856055
 11
158.819911501
 21
151.6535856055
  0
LINE
  5
289
100
AcDbEntity
  8
KONSTRUKTIONSELEMENTE
100
AcDbLine
 62
7
  6
CONTINUOUS
 10
140.512639279
 20
175.6112462882
 11
117.760935446
 21
202.7256710688
  0
LINE
  5
28A
100
AcDbEntity
  8
KONSTRUKTIONSELEMENTE
100
AcDbLine
 62
7
  6
CONTINUOUS
 10
159.5645923546
 20
151.7702531622
 11
159.1177838581
 21
152.3535856055
  0
LINE
  5
28B
100
AcDbEntity
  8
KONSTRUKTIONSELEMENTE
100
AcDbLine
 62
7
  6
CONTINUOUS
 10
152.7135285201
 20
173.0035869406
 11
152.7135285201
 21
170.2035869406
  0
LINE
  5
28C
100
AcDbEntity
  8
KONSTRUKTIONSELEMENTE
100
AcDbLine
 62
7
  6
CONTINUOUS
 10
152.7135285201
 20
169.2702518271
 11
152.7135285201
 21
168.5702518271
  0
LINE
  5
28D
100
AcDbEntity
  8
KONSTRUKTIONSELEMENTE
100
AcDbLine
 62
7
  6
CONTINUOUS
 10
152.7135285201
 20
165.7702518271
 11
152.7135285201
 21
165.0702518271
  0
LINE
  5
28E
100
AcDbEntity
  8
KONSTRUKTIONSELEMENTE
100
AcDbLine
 62
7
  6
CONTINUOUS
 10
152.7135285201
 20
162.5035869406
 11
152.7135285201
 21
159.7035869406
  0
LINE
  5
28F
100
AcDbEntity
  8
KONSTRUKTIONSELEMENTE
100
AcDbLine
 62
7
  6
CONTINUOUS
 10
152.7135285201
 20
148.0369193839
 11
152.7135285201
 21
147.3369193839
  0
LINE
  5
290
100
AcDbEntity
  8
KONSTRUKTIONSELEMENTE
100
AcDbLine
 62
7
  6
CONTINUOUS
 10
152.7135285201
 20
143.1369193839
 11
152.7135285201
 21
142.4369193839
  0
LINE
  5
291
100
AcDbEntity
  8
KONSTRUKTIONSELEMENTE
100
AcDbLine
 62
7
  6
CONTINUOUS
 10
152.7135285201
 20
139.1702524947
 11
152.7135285201
 21
138.4702524947
  0
LINE
  5
292
100
AcDbEntity
  8
KONSTRUKTIONSELEMENTE
100
AcDbLine
 62
7
  6
CONTINUOUS
 10
152.7135285201
 20
137.5369193839
 11
152.7135285201
 21
136.8369193839
  0
LINE
  5
293
100
AcDbEntity
  8
KONSTRUKTIONSELEMENTE
100
AcDbLine
 62
7
  6
CONTINUOUS
 10
152.7135285201
 20
133.5702526616
 11
152.7135285201
 21
132.8702526616
  0
LINE
  5
294
100
AcDbEntity
  8
KONSTRUKTIONSELEMENTE
100
AcDbLine
 62
7
  6
CONTINUOUS
 10
152.7135285201
 20
131.9369193839
 11
152.7135285201
 21
131.2369193839
  0
LINE
  5
295
100
AcDbEntity
  8
KONSTRUKTIONSELEMENTE
100
AcDbLine
 62
7
  6
CONTINUOUS
 10
153.4582092824
 20
160.4035869406
 11
153.4582092824
 21
162.6202518271
  0
LINE
  5
296
100
AcDbEntity
  8
KONSTRUKTIONSELEMENTE
100
AcDbLine
 62
7
  6
CONTINUOUS
 10
153.6071454348
 20
170.9035869406
 11
153.6071454348
 21
173.0035869406
  0
LINE
  5
297
100
AcDbEntity
  8
KONSTRUKTIONSELEMENTE
100
AcDbLine
 62
7
  6
CONTINUOUS
 10
152.8624646725
 20
173.5869193839
 11
152.7135285201
 21
173.0035869406
  0
LINE
  5
298
100
AcDbEntity
  8
KONSTRUKTIONSELEMENTE
100
AcDbLine
 62
7
  6
CONTINUOUS
 10
152.8624646725
 20
163.0869193839
 11
152.7135285201
 21
162.5035869406
  0
LINE
  5
299
100
AcDbEntity
  8
KONSTRUKTIONSELEMENTE
100
AcDbLine
 62
7
  6
CONTINUOUS
 10
153.6071454348
 20
173.0035869406
 11
153.7560815873
 21
173.4702518271
  0
LINE
  5
29A
100
AcDbEntity
  8
KONSTRUKTIONSELEMENTE
100
AcDbLine
 62
7
  6
CONTINUOUS
 10
153.4582092824
 20
162.6202518271
 11
153.6071454348
 21
162.9702518271
  0
LINE
  5
29B
100
AcDbEntity
  8
AUSFORMSCHRAEGEN
100
AcDbLine
 62
7
  6
CONTINUOUS
 10
133.7311998167
 20
121.1032818611
 11
133.7905963761
 21
121.2175492234
  0
LINE
  5
29C
100
AcDbEntity
  8
KONSTRUKTIONSELEMENTE
100
AcDbLine
 62
7
  6
CONTINUOUS
 10
158.6709753486
 20
166.4702518271
 11
158.3731029393
 21
166.1202518271
  0
LINE
  5
29D
100
AcDbEntity
  8
KONSTRUKTIONSELEMENTE
100
AcDbLine
 62
7
  6
CONTINUOUS
 10
153.9050177397
 20
152.0035856055
 11
154.7986350717
 21
152.4702531622
  0
LINE
  5
29E
100
AcDbEntity
  8
KONSTRUKTIONSELEMENTE
100
AcDbLine
 62
7
  6
CONTINUOUS
 10
154.3518261971
 20
152.9369193839
 11
153.7560815873
 21
152.7035856055
  0
LINE
  5
29F
100
AcDbEntity
  8
KONSTRUKTIONSELEMENTE
100
AcDbLine
 62
7
  6
CONTINUOUS
 10
158.6709753486
 20
174.5202518271
 11
158.0752306344
 21
174.7535869406
  0
LINE
  5
2A0
100
AcDbEntity
  8
KONSTRUKTIONSELEMENTE
100
AcDbLine
 62
7
  6
CONTINUOUS
 10
157.926294482
 20
174.0535869406
 11
158.3731029393
 21
173.8202518271
  0
LINE
  5
2A1
100
AcDbEntity
  8
KONSTRUKTIONSELEMENTE
100
AcDbLine
 62
7
  6
CONTINUOUS
 10
159.2667200105
 20
168.4535869406
 11
158.6709753486
 21
168.9202518271
  0
LINE
  5
2A2
100
AcDbEntity
  8
KONSTRUKTIONSELEMENTE
100
AcDbLine
 62
7
  6
CONTINUOUS
 10
156.2879965963
 20
163.0869193839
 11
155.9901242914
 21
163.5535869406
  0
LINE
  5
2A3
100
AcDbEntity
  8
KONSTRUKTIONSELEMENTE
100
AcDbLine
 62
7
  6
CONTINUOUS
 10
155.543315834
 20
162.9702518271
 11
155.6922519865
 21
162.6202518271
  0
LINE
  5
2A4
100
AcDbEntity
  8
KONSTRUKTIONSELEMENTE
100
AcDbLine
 62
7
  6
CONTINUOUS
 10
153.6071454348
 20
150.4869193839
 11
153.4582092824
 21
151.0702531622
  0
LINE
  5
2A5
100
AcDbEntity
  8
KONSTRUKTIONSELEMENTE
100
AcDbLine
 62
7
  6
CONTINUOUS
 10
152.7135285201
 20
151.0702531622
 11
152.8624646725
 21
150.3702531622
  0
LINE
  5
2A6
100
AcDbEntity
  8
KONSTRUKTIONSELEMENTE
100
AcDbLine
 62
7
  6
CONTINUOUS
 10
155.4635285201
 20
197.8369193839
 11
155.4635285201
 21
226.8369193839
  0
LINE
  5
2A7
100
AcDbEntity
  8
KONSTRUKTIONSELEMENTE
100
AcDbLine
 62
7
  6
CONTINUOUS
 10
155.543315834
 20
142.4369193839
 11
155.543315834
 21
139.1702524947
  0
LINE
  5
2A8
100
AcDbEntity
  8
KONSTRUKTIONSELEMENTE
100
AcDbLine
 62
7
  6
CONTINUOUS
 10
155.6922519865
 20
162.6202518271
 11
155.6922519865
 21
160.4035869406
  0
LINE
  5
2A9
100
AcDbEntity
  8
KONSTRUKTIONSELEMENTE
100
AcDbLine
 62
7
  6
CONTINUOUS
 10
156.4369327488
 20
145.7035856055
 11
156.4369327488
 21
144.0702531622
  0
LINE
  5
2AA
100
AcDbEntity
  8
KONSTRUKTIONSELEMENTE
100
AcDbLine
 62
7
  6
CONTINUOUS
 10
156.4369327488
 20
139.1702524947
 11
156.4369327488
 21
142.4369193839
  0
LINE
  5
2AB
100
AcDbEntity
  8
KONSTRUKTIONSELEMENTE
100
AcDbLine
 62
7
  6
CONTINUOUS
 10
156.5858689012
 20
160.4035869406
 11
156.5858689012
 21
162.3869193839
  0
LINE
  5
2AC
100
AcDbEntity
  8
KONSTRUKTIONSELEMENTE
100
AcDbLine
 62
7
  6
CONTINUOUS
 10
157.1816137197
 20
144.0702531622
 11
157.1816137197
 21
145.7035856055
  0
LINE
  5
2AD
100
AcDbEntity
  8
KONSTRUKTIONSELEMENTE
100
AcDbLine
 62
7
  6
CONTINUOUS
 10
158.819911501
 20
173.0035869406
 11
158.819911501
 21
170.9035869406
  0
LINE
  5
2AE
100
AcDbEntity
  8
KONSTRUKTIONSELEMENTE
100
AcDbLine
 62
7
  6
CONTINUOUS
 10
158.819911501
 20
167.4035869406
 11
158.819911501
 21
166.9369193839
  0
LINE
  5
2AF
100
AcDbEntity
  8
KONSTRUKTIONSELEMENTE
100
AcDbLine
 62
7
  6
CONTINUOUS
 10
152.8624646725
 20
151.7702531622
 11
152.7135285201
 21
151.0702531622
  0
LINE
  5
2B0
100
AcDbEntity
  8
KONSTRUKTIONSELEMENTE
100
AcDbLine
 62
7
  6
CONTINUOUS
 10
153.4582092824
 20
151.0702531622
 11
153.6071454348
 21
151.6535856055
  0
LINE
  5
2B1
100
AcDbEntity
  8
KONSTRUKTIONSELEMENTE
100
AcDbLine
 62
7
  6
CONTINUOUS
 10
159.5645923546
 20
166.3535869406
 11
159.7135285201
 21
166.9369193839
  0
LINE
  5
2B2
100
AcDbEntity
  8
KONSTRUKTIONSELEMENTE
100
AcDbLine
 62
7
  6
CONTINUOUS
 10
158.819911501
 20
166.9369193839
 11
158.6709753486
 21
166.4702518271
  0
LINE
  5
2B3
100
AcDbEntity
  8
AUSFORMSCHRAEGEN
100
AcDbLine
 62
7
  6
CONTINUOUS
 10
133.5193688294
 20
94.1441120616
 11
136.1253283251
 21
101.3039269322
  0
LINE
  5
2B4
100
AcDbEntity
  8
KONSTRUKTIONSELEMENTE
100
AcDbLine
 62
7
  6
CONTINUOUS
 10
159.2667200105
 20
165.8869193839
 11
159.5645923546
 21
166.3535869406
  0
LINE
  5
2B5
100
AcDbEntity
  8
KONSTRUKTIONSELEMENTE
100
AcDbLine
 62
7
  6
CONTINUOUS
 10
153.3092731299
 20
152.3535856055
 11
152.8624646725
 21
151.7702531622
  0
LINE
  5
2B6
100
AcDbEntity
  8
KONSTRUKTIONSELEMENTE
100
AcDbLine
 62
7
  6
CONTINUOUS
 10
153.6071454348
 20
151.6535856055
 11
153.9050177397
 21
152.0035856055
  0
LINE
  5
2B7
100
AcDbEntity
  8
KONSTRUKTIONSELEMENTE
100
AcDbLine
 62
7
  6
CONTINUOUS
 10
153.7560815873
 20
152.7035856055
 11
153.3092731299
 21
152.3535856055
  0
LINE
  5
2B8
100
AcDbEntity
  8
KONSTRUKTIONSELEMENTE
100
AcDbLine
 62
7
  6
CONTINUOUS
 10
158.5220391961
 20
150.1369193839
 11
157.628422177
 21
149.6702531622
  0
LINE
  5
2B9
100
AcDbEntity
  8
KONSTRUKTIONSELEMENTE
100
AcDbLine
 62
7
  6
CONTINUOUS
 10
158.0752306344
 20
149.2035856055
 11
158.6709753486
 21
149.4369193839
  0
LINE
  5
2BA
100
AcDbEntity
  8
KONSTRUKTIONSELEMENTE
100
AcDbLine
 62
7
  6
CONTINUOUS
 10
159.2667200105
 20
174.0535869406
 11
158.6709753486
 21
174.5202518271
  0
LINE
  5
2BB
100
AcDbEntity
  8
KONSTRUKTIONSELEMENTE
100
AcDbLine
 62
7
  6
CONTINUOUS
 10
158.3731029393
 20
168.2202518271
 11
158.6709753486
 21
167.8702518271
  0
LINE
  5
2BC
100
AcDbEntity
  8
KONSTRUKTIONSELEMENTE
100
AcDbLine
 62
7
  6
CONTINUOUS
 10
158.3731029393
 20
173.8202518271
 11
158.6709753486
 21
173.4702518271
  0
LINE
  5
2BD
100
AcDbEntity
  8
KONSTRUKTIONSELEMENTE
100
AcDbLine
 62
7
  6
CONTINUOUS
 10
159.5645923546
 20
167.9869193839
 11
159.2667200105
 21
168.4535869406
  0
LINE
  5
2BE
100
AcDbEntity
  8
KONSTRUKTIONSELEMENTE
100
AcDbLine
 62
7
  6
CONTINUOUS
 10
158.6709753486
 20
167.8702518271
 11
158.819911501
 21
167.4035869406
  0
LINE
  5
2BF
100
AcDbEntity
  8
KONSTRUKTIONSELEMENTE
100
AcDbLine
 62
7
  6
CONTINUOUS
 10
158.819911501
 20
151.6535856055
 11
158.9688476535
 21
151.0702531622
  0
LINE
  5
2C0
100
AcDbEntity
  8
KONSTRUKTIONSELEMENTE
100
AcDbLine
 62
7
  6
CONTINUOUS
 10
159.7135285201
 20
151.0702531622
 11
159.5645923546
 21
151.7702531622
  0
LINE
  5
2C1
100
AcDbEntity
  8
KONSTRUKTIONSELEMENTE
100
AcDbLine
 62
7
  6
CONTINUOUS
 10
159.7135285201
 20
131.2369193839
 11
159.7135285201
 21
131.9369193839
  0
LINE
  5
2C2
100
AcDbEntity
  8
KONSTRUKTIONSELEMENTE
100
AcDbLine
 62
7
  6
CONTINUOUS
 10
159.7135285201
 20
134.7369193839
 11
159.7135285201
 21
135.6702528285
  0
LINE
  5
2C3
100
AcDbEntity
  8
KONSTRUKTIONSELEMENTE
100
AcDbLine
 62
7
  6
CONTINUOUS
 10
159.7135285201
 20
138.4702524947
 11
159.7135285201
 21
139.1702524947
  0
LINE
  5
2C4
100
AcDbEntity
  8
KONSTRUKTIONSELEMENTE
100
AcDbLine
 62
7
  6
CONTINUOUS
 10
159.7135285201
 20
142.4369193839
 11
159.7135285201
 21
143.1369193839
  0
LINE
  5
2C5
100
AcDbEntity
  8
KONSTRUKTIONSELEMENTE
100
AcDbLine
 62
7
  6
CONTINUOUS
 10
159.7135285201
 20
147.3369193839
 11
159.7135285201
 21
148.0369193839
  0
LINE
  5
2C6
100
AcDbEntity
  8
KONSTRUKTIONSELEMENTE
100
AcDbLine
 62
7
  6
CONTINUOUS
 10
159.7135285201
 20
159.7035869406
 11
159.7135285201
 21
160.4035869406
  0
LINE
  5
2C7
100
AcDbEntity
  8
KONSTRUKTIONSELEMENTE
100
AcDbLine
 62
7
  6
CONTINUOUS
 10
159.7135285201
 20
163.3202518271
 11
159.7135285201
 21
164.1369193839
  0
LINE
  5
2C8
100
AcDbEntity
  8
KONSTRUKTIONSELEMENTE
100
AcDbLine
 62
7
  6
CONTINUOUS
 10
159.7135285201
 20
166.9369193839
 11
159.7135285201
 21
167.4035869406
  0
LINE
  5
2C9
100
AcDbEntity
  8
KONSTRUKTIONSELEMENTE
100
AcDbLine
 62
7
  6
CONTINUOUS
 10
159.7135285201
 20
170.2035869406
 11
159.7135285201
 21
173.0035869406
  0
LINE
  5
2CA
100
AcDbEntity
  8
KONSTRUKTIONSELEMENTE
100
AcDbLine
 62
7
  6
CONTINUOUS
 10
159.5645923546
 20
150.3702531622
 11
159.7135285201
 21
151.0702531622
  0
LINE
  5
2CB
100
AcDbEntity
  8
KONSTRUKTIONSELEMENTE
100
AcDbLine
 62
7
  6
CONTINUOUS
 10
158.9688476535
 20
151.0702531622
 11
158.819911501
 21
150.4869193839
  0
LINE
  5
2CC
100
AcDbEntity
  8
KONSTRUKTIONSELEMENTE
100
AcDbLine
 62
7
  6
CONTINUOUS
 10
159.1177838581
 20
149.7869193839
 11
159.5645923546
 21
150.3702531622
  0
LINE
  5
2CD
100
AcDbEntity
  8
KONSTRUKTIONSELEMENTE
100
AcDbLine
 62
7
  6
CONTINUOUS
 10
158.819911501
 20
150.4869193839
 11
158.5220391961
 21
150.1369193839
  0
LINE
  5
2CE
100
AcDbEntity
  8
KONSTRUKTIONSELEMENTE
100
AcDbLine
 62
7
  6
CONTINUOUS
 10
158.6709753486
 20
149.4369193839
 11
159.1177838581
 21
149.7869193839
  0
LINE
  5
2CF
100
AcDbEntity
  8
KONSTRUKTIONSELEMENTE
100
AcDbLine
 62
7
  6
CONTINUOUS
 10
159.5645923546
 20
173.5869193839
 11
159.2667200105
 21
174.0535869406
  0
LINE
  5
2D0
100
AcDbEntity
  8
KONSTRUKTIONSELEMENTE
100
AcDbLine
 62
7
  6
CONTINUOUS
 10
158.6709753486
 20
173.4702518271
 11
158.819911501
 21
173.0035869406
  0
LINE
  5
2D1
100
AcDbEntity
  8
KONSTRUKTIONSELEMENTE
100
AcDbLine
 62
7
  6
CONTINUOUS
 10
159.7135285201
 20
167.4035869406
 11
159.5645923546
 21
167.9869193839
  0
LINE
  5
2D2
100
AcDbEntity
  8
KONSTRUKTIONSELEMENTE
100
AcDbLine
 62
7
  6
CONTINUOUS
 10
159.7135285201
 20
173.0035869406
 11
159.5645923546
 21
173.5869193839
  0
LINE
  5
2D3
100
AcDbEntity
  8
KONSTRUKTIONSELEMENTE
100
AcDbLine
 62
7
  6
CONTINUOUS
 10
167.7135285201
 20
127.6369193839
 11
167.7135285201
 21
166.5809199597
  0
LINE
  5
2D4
100
AcDbEntity
  8
KONSTRUKTIONSELEMENTE
100
AcDbLine
 62
7
  6
CONTINUOUS
 10
100.4939135733
 20
210.7774156016
 11
99.9778129553
 21
210.7774156016
  0
LINE
  5
2D5
100
AcDbEntity
  8
BEZUGSACHSEN
100
AcDbLine
 62
7
  6
CONTINUOUS
 10
121.9635285201
 20
214.1869193839
 11
133.4635285201
 21
214.1869193839
  0
LINE
  5
2D6
100
AcDbEntity
  8
KONSTRUKTIONSELEMENTE
100
AcDbLine
 62
7
  6
CONTINUOUS
 10
99.9635285201
 20
216.8369193839
 11
114.1271765226
 21
216.8369193839
  0
LINE
  5
2D7
100
AcDbEntity
  8
KONSTRUKTIONSELEMENTE
100
AcDbLine
 62
7
  6
CONTINUOUS
 10
141.2998805175
 20
216.8369193839
 11
155.4635285201
 21
216.8369193839
  0
LINE
  5
2D8
100
AcDbEntity
  8
TEIL_STARTBEZUEGE
100
AcDbLine
 62
2
  6
CENTER
 10
103.52004542
 20
221.2369193839
 11
157.4818851796
 21
221.2369193839
  0
LINE
  5
2D9
100
AcDbEntity
  8
0
100
AcDbLine
 62
7
  6
CONTINUOUS
 10
148.7507314706
 20
234.8369193839
 11
155.4635285201
 21
226.8369193839
  0
LINE
  5
2DA
100
AcDbEntity
  8
BEZUGSACHSEN
100
AcDbLine
 62
7
  6
CONTINUOUS
 10
133.4635285201
 20
228.2869193839
 11
121.9635285201
 21
228.2869193839
  0
LINE
  5
2DB
100
AcDbEntity
  8
KONSTRUKTIONSELEMENTE
100
AcDbLine
 62
7
  6
CONTINUOUS
 10
106.6763255695
 20
234.8369193839
 11
114.1278321766
 21
234.8369193839
  0
LINE
  5
2DC
100
AcDbEntity
  8
KONSTRUKTIONSELEMENTE
100
AcDbLine
 62
7
  6
CONTINUOUS
 10
141.2992248635
 20
234.8369193839
 11
148.7507314706
 21
234.8369193839
  0
LINE
  5
2DD
100
AcDbEntity
  8
KONSTRUKTIONSELEMENTE
100
AcDbLine
 62
7
  6
CONTINUOUS
 10
251.7385963627
 20
94.1369193839
 11
229.8012319673
 21
94.1369193839
  0
LINE
  5
2DE
100
AcDbEntity
  8
0
100
AcDbLine
 62
7
  6
CONTINUOUS
 10
222.6557705461
 20
101.3039269322
 11
229.8155854167
 21
94.1441120616
  0
LINE
  5
2DF
100
AcDbEntity
  8
0
100
AcDbLine
 62
7
  6
CONTINUOUS
 10
220.6958699742
 20
127.0814539748
 11
229.0703938566
 21
121.2175492234
  0
LINE
  5
2E0
100
AcDbEntity
  8
KONSTRUKTIONSELEMENTE
100
AcDbLine
 62
8
  6
HIDDEN
 10
232.0499397154
 20
128.2369193839
 11
249.504242064
 21
128.2369193839
  0
LINE
  5
2E1
100
AcDbEntity
  8
DEFAULT_2
100
AcDbLine
 62
8
  6
HIDDEN
 10
232.0499397154
 20
128.2369193839
 11
249.504242064
 21
128.2369193839
  0
LINE
  5
2E2
100
AcDbEntity
  8
0
100
AcDbLine
 62
7
  6
CONTINUOUS
 10
232.0499397154
 20
128.2369193839
 11
222.8448911809
 21
132.1442306687
  0
LINE
  5
2E3
100
AcDbEntity
  8
KONSTRUKTIONSELEMENTE
100
AcDbLine
 62
7
  6
CONTINUOUS
 10
255.7770908897
 20
131.2369193839
 11
256.2770908897
 21
131.2369193839
  0
LINE
  5
2E4
100
AcDbEntity
  8
KONSTRUKTIONSELEMENTE
100
AcDbLine
 62
7
  6
CONTINUOUS
 10
255.7770908897
 20
131.9369193839
 11
256.2770908897
 21
131.9369193839
  0
LINE
  5
2E5
100
AcDbEntity
  8
KONSTRUKTIONSELEMENTE
100
AcDbLine
 62
7
  6
CONTINUOUS
 10
255.7770908897
 20
132.8702526616
 11
256.2770908897
 21
132.8702526616
  0
LINE
  5
2E6
100
AcDbEntity
  8
KONSTRUKTIONSELEMENTE
100
AcDbLine
 62
7
  6
CONTINUOUS
 10
255.7770908897
 20
133.5702526616
 11
256.2770908897
 21
133.5702526616
  0
LINE
  5
2E7
100
AcDbEntity
  8
KONSTRUKTIONSELEMENTE
100
AcDbLine
 62
7
  6
CONTINUOUS
 10
255.7770908897
 20
135.2035859393
 11
256.2770908897
 21
135.2035859393
  0
LINE
  5
2E8
100
AcDbEntity
  8
KONSTRUKTIONSELEMENTE
100
AcDbLine
 62
7
  6
CONTINUOUS
 10
255.7770908897
 20
136.8369193839
 11
256.2770908897
 21
136.8369193839
  0
LINE
  5
2E9
100
AcDbEntity
  8
KONSTRUKTIONSELEMENTE
100
AcDbLine
 62
7
  6
CONTINUOUS
 10
255.7770908897
 20
137.5369193839
 11
256.2770908897
 21
137.5369193839
  0
LINE
  5
2EA
100
AcDbEntity
  8
KONSTRUKTIONSELEMENTE
100
AcDbLine
 62
7
  6
CONTINUOUS
 10
255.7770908897
 20
138.4702524947
 11
256.2770908897
 21
138.4702524947
  0
LINE
  5
2EB
100
AcDbEntity
  8
KONSTRUKTIONSELEMENTE
100
AcDbLine
 62
7
  6
CONTINUOUS
 10
255.7770908897
 20
139.1702524947
 11
256.2770908897
 21
139.1702524947
  0
LINE
  5
2EC
100
AcDbEntity
  8
KONSTRUKTIONSELEMENTE
100
AcDbLine
 62
7
  6
CONTINUOUS
 10
255.7770908897
 20
142.4369193839
 11
256.2770908897
 21
142.4369193839
  0
LINE
  5
2ED
100
AcDbEntity
  8
KONSTRUKTIONSELEMENTE
100
AcDbLine
 62
7
  6
CONTINUOUS
 10
255.7770908897
 20
143.1369193839
 11
256.2770908897
 21
143.1369193839
  0
LINE
  5
2EE
100
AcDbEntity
  8
KONSTRUKTIONSELEMENTE
100
AcDbLine
 62
7
  6
CONTINUOUS
 10
255.7770908897
 20
144.0702531622
 11
256.2770908897
 21
144.0702531622
  0
LINE
  5
2EF
100
AcDbEntity
  8
0
100
AcDbLine
 62
7
  6
CONTINUOUS
 10
225.7770908897
 20
113.4590136373
 11
225.7770908897
 21
123.5235447864
  0
LINE
  5
2F0
100
AcDbEntity
  8
0
100
AcDbLine
 62
7
  6
CONTINUOUS
 10
225.7770908897
 20
130.8995857363
 11
225.7770908897
 21
216.8369193839
  0
LINE
  5
2F1
100
AcDbEntity
  8
0
100
AcDbLine
 62
7
  6
CONTINUOUS
 10
225.8838287307
 20
220.3849620884
 11
225.7770908897
 21
216.8369193839
  0
LINE
  5
2F2
100
AcDbEntity
  8
KONSTRUKTIONSELEMENTE
100
AcDbLine
 62
7
  6
CONTINUOUS
 10
255.7770908897
 20
145.7035856055
 11
256.2770908897
 21
145.7035856055
  0
LINE
  5
2F3
100
AcDbEntity
  8
KONSTRUKTIONSELEMENTE
100
AcDbLine
 62
7
  6
CONTINUOUS
 10
255.7770908897
 20
146.6369193839
 11
256.2770908897
 21
146.6369193839
  0
LINE
  5
2F4
100
AcDbEntity
  8
KONSTRUKTIONSELEMENTE
100
AcDbLine
 62
7
  6
CONTINUOUS
 10
255.7770908897
 20
147.3369193839
 11
256.2770908897
 21
147.3369193839
  0
LINE
  5
2F5
100
AcDbEntity
  8
KONSTRUKTIONSELEMENTE
100
AcDbLine
 62
7
  6
CONTINUOUS
 10
255.7770908897
 20
148.0369193839
 11
256.2770908897
 21
148.0369193839
  0
LINE
  5
2F6
100
AcDbEntity
  8
KONSTRUKTIONSELEMENTE
100
AcDbLine
 62
7
  6
CONTINUOUS
 10
255.7770908897
 20
148.9702531622
 11
256.2770908897
 21
148.9702531622
  0
LINE
  5
2F7
100
AcDbEntity
  8
KONSTRUKTIONSELEMENTE
100
AcDbLine
 62
7
  6
CONTINUOUS
 10
255.7770908897
 20
149.0869193839
 11
256.2770908897
 21
149.0869193839
  0
LINE
  5
2F8
100
AcDbEntity
  8
KONSTRUKTIONSELEMENTE
100
AcDbLine
 62
7
  6
CONTINUOUS
 10
255.7770908897
 20
149.2035856055
 11
256.2770908897
 21
149.2035856055
  0
LINE
  5
2F9
100
AcDbEntity
  8
KONSTRUKTIONSELEMENTE
100
AcDbLine
 62
7
  6
CONTINUOUS
 10
255.7770908897
 20
149.4369193839
 11
256.2770908897
 21
149.4369193839
  0
LINE
  5
2FA
100
AcDbEntity
  8
KONSTRUKTIONSELEMENTE
100
AcDbLine
 62
7
  6
CONTINUOUS
 10
255.7770908897
 20
149.7869193839
 11
256.2770908897
 21
149.7869193839
  0
LINE
  5
2FB
100
AcDbEntity
  8
KONSTRUKTIONSELEMENTE
100
AcDbLine
 62
7
  6
CONTINUOUS
 10
255.7770908897
 20
150.3702531622
 11
256.2770908897
 21
150.3702531622
  0
LINE
  5
2FC
100
AcDbEntity
  8
KONSTRUKTIONSELEMENTE
100
AcDbLine
 62
7
  6
CONTINUOUS
 10
255.7770908897
 20
151.0702531622
 11
256.2770908897
 21
151.0702531622
  0
LINE
  5
2FD
100
AcDbEntity
  8
KONSTRUKTIONSELEMENTE
100
AcDbLine
 62
7
  6
CONTINUOUS
 10
255.7770908897
 20
151.7702531622
 11
256.2770908897
 21
151.7702531622
  0
LINE
  5
2FE
100
AcDbEntity
  8
KONSTRUKTIONSELEMENTE
100
AcDbLine
 62
7
  6
CONTINUOUS
 10
255.7770908897
 20
152.3535856055
 11
256.2770908897
 21
152.3535856055
  0
LINE
  5
2FF
100
AcDbEntity
  8
KONSTRUKTIONSELEMENTE
100
AcDbLine
 62
7
  6
CONTINUOUS
 10
255.7770908897
 20
152.7035856055
 11
256.2770908897
 21
152.7035856055
  0
LINE
  5
300
100
AcDbEntity
  8
KONSTRUKTIONSELEMENTE
100
AcDbLine
 62
7
  6
CONTINUOUS
 10
255.7770908897
 20
152.9369193839
 11
256.2770908897
 21
152.9369193839
  0
LINE
  5
301
100
AcDbEntity
  8
KONSTRUKTIONSELEMENTE
100
AcDbLine
 62
7
  6
CONTINUOUS
 10
255.7770908897
 20
153.0535856055
 11
256.2770908897
 21
153.0535856055
  0
LINE
  5
302
100
AcDbEntity
  8
KONSTRUKTIONSELEMENTE
100
AcDbLine
 62
7
  6
CONTINUOUS
 10
255.7770908897
 20
153.1702531622
 11
256.2770908897
 21
153.1702531622
  0
LINE
  5
303
100
AcDbEntity
  8
0
100
AcDbLine
 62
7
  6
CONTINUOUS
 10
233.2644921854
 20
153.2026351219
 11
229.2944524413
 21
170.3987664934
  0
LINE
  5
304
100
AcDbEntity
  8
0
100
AcDbLine
 62
7
  6
CONTINUOUS
 10
233.7770908897
 20
132.3058325639
 11
233.7770908897
 21
148.703614035
  0
LINE
  5
305
100
AcDbEntity
  8
KONSTRUKTIONSELEMENTE
100
AcDbLine
 62
7
  6
CONTINUOUS
 10
255.7770908897
 20
159.7035869406
 11
256.2770908897
 21
159.7035869406
  0
LINE
  5
306
100
AcDbEntity
  8
KONSTRUKTIONSELEMENTE
100
AcDbLine
 62
7
  6
CONTINUOUS
 10
259.53860545
 20
104.5974406612
 11
247.7770908897
 21
132.3058325639
  0
LINE
  5
307
100
AcDbEntity
  8
0
100
AcDbLine
 62
7
  6
CONTINUOUS
 10
237.355874918
 20
175.5369193839
 11
237.355874918
 21
194.6647954807
  0
LINE
  5
308
100
AcDbEntity
  8
TEIL_STARTBEZUEGE
100
AcDbLine
 62
2
  6
CENTER
 10
240.7770908897
 20
221.2369193839
 11
240.7770908897
 21
97.6973263466
  0
LINE
  5
309
100
AcDbEntity
  8
TEIL_STARTBEZUEGE
100
AcDbLine
 62
2
  6
CENTER
 10
240.7770908897
 20
221.2369193839
 11
240.7770908897
 21
241.3650035444
  0
LINE
  5
30A
100
AcDbEntity
  8
0
100
AcDbLine
 62
7
  6
CONTINUOUS
 10
222.8448911809
 20
132.1442306687
 11
220.6958699742
 21
127.0814539748
  0
LINE
  5
30B
100
AcDbEntity
  8
KONSTRUKTIONSELEMENTE
100
AcDbLine
 62
7
  6
CONTINUOUS
 10
255.7770908897
 20
162.5035869406
 11
256.2770908897
 21
162.5035869406
  0
LINE
  5
30C
100
AcDbEntity
  8
KONSTRUKTIONSELEMENTE
100
AcDbLine
 62
7
  6
CONTINUOUS
 10
255.7770908897
 20
163.0869193839
 11
256.2770908897
 21
163.0869193839
  0
LINE
  5
30D
100
AcDbEntity
  8
KONSTRUKTIONSELEMENTE
100
AcDbLine
 62
7
  6
CONTINUOUS
 10
255.7770908897
 20
163.5535869406
 11
256.2770908897
 21
163.5535869406
  0
LINE
  5
30E
100
AcDbEntity
  8
KONSTRUKTIONSELEMENTE
100
AcDbLine
 62
7
  6
CONTINUOUS
 10
255.7770908897
 20
163.9035869406
 11
256.2770908897
 21
163.9035869406
  0
LINE
  5
30F
100
AcDbEntity
  8
KONSTRUKTIONSELEMENTE
100
AcDbLine
 62
7
  6
CONTINUOUS
 10
255.7770908897
 20
164.0202518271
 11
256.2770908897
 21
164.0202518271
  0
LINE
  5
310
100
AcDbEntity
  8
KONSTRUKTIONSELEMENTE
100
AcDbLine
 62
7
  6
CONTINUOUS
 10
255.7770908897
 20
164.1369193839
 11
256.2770908897
 21
164.1369193839
  0
LINE
  5
311
100
AcDbEntity
  8
KONSTRUKTIONSELEMENTE
100
AcDbLine
 62
7
  6
CONTINUOUS
 10
255.7770908897
 20
165.0702518271
 11
256.2770908897
 21
165.0702518271
  0
LINE
  5
312
100
AcDbEntity
  8
KONSTRUKTIONSELEMENTE
100
AcDbLine
 62
7
  6
CONTINUOUS
 10
244.1983068613
 20
175.5369193839
 11
244.1983068613
 21
194.6647954807
  0
LINE
  5
313
100
AcDbEntity
  8
KONSTRUKTIONSELEMENTE
100
AcDbLine
 62
7
  6
CONTINUOUS
 10
255.7770908897
 20
165.7702518271
 11
256.2770908897
 21
165.7702518271
  0
LINE
  5
314
100
AcDbEntity
  8
KONSTRUKTIONSELEMENTE
100
AcDbLine
 62
7
  6
CONTINUOUS
 10
255.7770908897
 20
165.8869193839
 11
256.2770908897
 21
165.8869193839
  0
LINE
  5
315
100
AcDbEntity
  8
KONSTRUKTIONSELEMENTE
100
AcDbLine
 62
7
  6
CONTINUOUS
 10
255.7770908897
 20
166.1202518271
 11
256.2770908897
 21
166.1202518271
  0
LINE
  5
316
100
AcDbEntity
  8
KONSTRUKTIONSELEMENTE
100
AcDbLine
 62
7
  6
CONTINUOUS
 10
255.7770908897
 20
166.4702518271
 11
256.2770908897
 21
166.4702518271
  0
LINE
  5
317
100
AcDbEntity
  8
KONSTRUKTIONSELEMENTE
100
AcDbLine
 62
7
  6
CONTINUOUS
 10
255.7770908897
 20
166.9369193839
 11
256.2770908897
 21
166.9369193839
  0
LINE
  5
318
100
AcDbEntity
  8
KONSTRUKTIONSELEMENTE
100
AcDbLine
 62
7
  6
CONTINUOUS
 10
255.7770908897
 20
167.4035869406
 11
256.2770908897
 21
167.4035869406
  0
LINE
  5
319
100
AcDbEntity
  8
KONSTRUKTIONSELEMENTE
100
AcDbLine
 62
7
  6
CONTINUOUS
 10
255.7770908897
 20
167.8702518271
 11
256.2770908897
 21
167.8702518271
  0
LINE
  5
31A
100
AcDbEntity
  8
KONSTRUKTIONSELEMENTE
100
AcDbLine
 62
7
  6
CONTINUOUS
 10
255.7770908897
 20
168.2202518271
 11
256.2770908897
 21
168.2202518271
  0
LINE
  5
31B
100
AcDbEntity
  8
KONSTRUKTIONSELEMENTE
100
AcDbLine
 62
7
  6
CONTINUOUS
 10
255.7770908897
 20
168.4535869406
 11
256.2770908897
 21
168.4535869406
  0
LINE
  5
31C
100
AcDbEntity
  8
KONSTRUKTIONSELEMENTE
100
AcDbLine
 62
7
  6
CONTINUOUS
 10
255.7770908897
 20
168.5702518271
 11
256.2770908897
 21
168.5702518271
  0
LINE
  5
31D
100
AcDbEntity
  8
KONSTRUKTIONSELEMENTE
100
AcDbLine
 62
7
  6
CONTINUOUS
 10
255.7770908897
 20
169.2702518271
 11
256.2770908897
 21
169.2702518271
  0
LINE
  5
31E
100
AcDbEntity
  8
KONSTRUKTIONSELEMENTE
100
AcDbLine
 62
7
  6
CONTINUOUS
 10
258.7092905985
 20
132.1442306687
 11
260.8583118052
 21
127.0814539748
  0
LINE
  5
31F
100
AcDbEntity
  8
KONSTRUKTIONSELEMENTE
100
AcDbLine
 62
7
  6
CONTINUOUS
 10
247.7770908897
 20
132.3058325639
 11
247.7770908897
 21
148.703614035
  0
LINE
  5
320
100
AcDbEntity
  8
KONSTRUKTIONSELEMENTE
100
AcDbLine
 62
7
  6
CONTINUOUS
 10
248.289689594
 20
153.2026351219
 11
252.2597293381
 21
170.3987664934
  0
LINE
  5
321
100
AcDbEntity
  8
0
100
AcDbLine
 62
7
  6
CONTINUOUS
 10
222.0155763293
 20
104.5974406612
 11
233.7770908897
 21
132.3058325639
  0
LINE
  5
322
100
AcDbEntity
  8
KONSTRUKTIONSELEMENTE
100
AcDbLine
 62
7
  6
CONTINUOUS
 10
255.7770908897
 20
170.2035869406
 11
256.2770908897
 21
170.2035869406
  0
LINE
  5
323
100
AcDbEntity
  8
KONSTRUKTIONSELEMENTE
100
AcDbLine
 62
7
  6
CONTINUOUS
 10
255.7770908897
 20
173.0035869406
 11
256.2770908897
 21
173.0035869406
  0
LINE
  5
324
100
AcDbEntity
  8
KONSTRUKTIONSELEMENTE
100
AcDbLine
 62
7
  6
CONTINUOUS
 10
255.7770908897
 20
173.5869193839
 11
256.2770908897
 21
173.5869193839
  0
LINE
  5
325
100
AcDbEntity
  8
KONSTRUKTIONSELEMENTE
100
AcDbLine
 62
7
  6
CONTINUOUS
 10
255.7770908897
 20
174.0535869406
 11
256.2770908897
 21
174.0535869406
  0
LINE
  5
326
100
AcDbEntity
  8
KONSTRUKTIONSELEMENTE
100
AcDbLine
 62
7
  6
CONTINUOUS
 10
255.7770908897
 20
174.5202518271
 11
256.2770908897
 21
174.5202518271
  0
LINE
  5
327
100
AcDbEntity
  8
KONSTRUKTIONSELEMENTE
100
AcDbLine
 62
7
  6
CONTINUOUS
 10
255.7770908897
 20
174.7535869406
 11
256.2770908897
 21
174.7535869406
  0
LINE
  5
328
100
AcDbEntity
  8
KONSTRUKTIONSELEMENTE
100
AcDbLine
 62
7
  6
CONTINUOUS
 10
255.7770908897
 20
174.8702518271
 11
256.2770908897
 21
174.8702518271
  0
LINE
  5
329
100
AcDbEntity
  8
KONSTRUKTIONSELEMENTE
100
AcDbLine
 62
7
  6
CONTINUOUS
 10
255.7770908897
 20
113.4590136373
 11
255.7770908897
 21
123.5235447864
  0
LINE
  5
32A
100
AcDbEntity
  8
KONSTRUKTIONSELEMENTE
100
AcDbLine
 62
7
  6
CONTINUOUS
 10
255.7770908897
 20
130.8995857363
 11
255.7770908897
 21
216.8369193839
  0
LINE
  5
32B
100
AcDbEntity
  8
KONSTRUKTIONSELEMENTE
100
AcDbLine
 62
7
  6
CONTINUOUS
 10
236.698432255
 20
175.5369193839
 11
244.8557495243
 21
175.5369193839
  0
LINE
  5
32C
100
AcDbEntity
  8
KONSTRUKTIONSELEMENTE
100
AcDbLine
 62
7
  6
CONTINUOUS
 10
255.6703530486
 20
220.3849620884
 11
255.7770908897
 21
216.8369193839
  0
LINE
  5
32D
100
AcDbEntity
  8
KONSTRUKTIONSELEMENTE
100
AcDbLine
 62
7
  6
CONTINUOUS
 10
256.2770908897
 20
174.8702518271
 11
256.2770908897
 21
170.2035869406
  0
LINE
  5
32E
100
AcDbEntity
  8
KONSTRUKTIONSELEMENTE
100
AcDbLine
 62
7
  6
CONTINUOUS
 10
256.2770908897
 20
169.2702518271
 11
256.2770908897
 21
165.0702518271
  0
LINE
  5
32F
100
AcDbEntity
  8
KONSTRUKTIONSELEMENTE
100
AcDbLine
 62
7
  6
CONTINUOUS
 10
256.2770908897
 20
164.1369193839
 11
256.2770908897
 21
159.7035869406
  0
LINE
  5
330
100
AcDbEntity
  8
KONSTRUKTIONSELEMENTE
100
AcDbLine
 62
7
  6
CONTINUOUS
 10
256.2770908897
 20
153.1702531622
 11
256.2770908897
 21
148.9702531622
  0
LINE
  5
331
100
AcDbEntity
  8
KONSTRUKTIONSELEMENTE
100
AcDbLine
 62
7
  6
CONTINUOUS
 10
256.2770908897
 20
148.0369193839
 11
256.2770908897
 21
146.6369193839
  0
LINE
  5
332
100
AcDbEntity
  8
KONSTRUKTIONSELEMENTE
100
AcDbLine
 62
7
  6
CONTINUOUS
 10
256.2770908897
 20
145.7035856055
 11
256.2770908897
 21
144.0702531622
  0
LINE
  5
333
100
AcDbEntity
  8
KONSTRUKTIONSELEMENTE
100
AcDbLine
 62
7
  6
CONTINUOUS
 10
256.2770908897
 20
143.1369193839
 11
256.2770908897
 21
138.4702524947
  0
LINE
  5
334
100
AcDbEntity
  8
KONSTRUKTIONSELEMENTE
100
AcDbLine
 62
7
  6
CONTINUOUS
 10
256.2770908897
 20
137.5369193839
 11
256.2770908897
 21
132.8702526616
  0
LINE
  5
335
100
AcDbEntity
  8
KONSTRUKTIONSELEMENTE
100
AcDbLine
 62
7
  6
CONTINUOUS
 10
256.2770908897
 20
131.9369193839
 11
256.2770908897
 21
131.2369193839
  0
LINE
  5
336
100
AcDbEntity
  8
KONSTRUKTIONSELEMENTE
100
AcDbLine
 62
7
  6
CONTINUOUS
 10
249.504242064
 20
128.2369193839
 11
258.7092905985
 21
132.1442306687
  0
LINE
  5
337
100
AcDbEntity
  8
AUSFORMSCHRAEGEN
100
AcDbLine
 62
7
  6
CONTINUOUS
 10
260.8583118052
 20
127.0814539748
 11
252.4837879227
 21
121.2175492234
  0
LINE
  5
338
100
AcDbEntity
  8
AUSFORMSCHRAEGEN
100
AcDbLine
 62
7
  6
CONTINUOUS
 10
251.7385963627
 20
94.1441120616
 11
258.8984112332
 21
101.3039269322
  0
LINE
  5
339
100
AcDbEntity
  8
TEIL_STARTBEZUEGE
100
AcDbLine
 62
2
  6
CENTER
 10
240.7770908897
 20
221.2369193839
 11
224.2841008092
 21
221.2369193839
  0
LINE
  5
33A
100
AcDbEntity
  8
TEIL_STARTBEZUEGE
100
AcDbLine
 62
2
  6
CENTER
 10
240.7770908897
 20
221.2369193839
 11
256.2102512976
 21
221.2369193839
  0
LINE
  5
33B
100
AcDbEntity
  8
BEZUGSACHSEN
100
AcDbLine
 62
7
  6
CONTINUOUS
 10
253.9831501051
 20
226.8369193839
 11
245.0599053848
 21
226.8369193839
  0
LINE
  5
33C
100
AcDbEntity
  8
BEZUGSACHSEN
100
AcDbLine
 62
7
  6
CONTINUOUS
 10
236.4942763945
 20
226.8369193839
 11
227.5710316743
 21
226.8369193839
  0
ARC
  5
33D
100
AcDbEntity
  8
0
100
AcDbCircle
 62
7
  6
CONTINUOUS
 10
127.7135285201
 20
268.174751338
 40
36.0
100
AcDbArc
 50
247.8284839532
 51
260.8092266206
  0
ARC
  5
33E
100
AcDbEntity
  8
0
100
AcDbCircle
 62
7
  6
CONTINUOUS
 10
127.7135285201
 20
268.174751338
 40
36.0
100
AcDbArc
 50
279.1907733794
 51
292.1715160468
  0
ARC
  5
33F
100
AcDbEntity
  8
KONSTRUKTIONSELEMENTE
100
AcDbCircle
 62
7
  6
CONTINUOUS
 10
134.2135285201
 20
127.6369193839
 40
33.5
100
AcDbArc
 50
298.4499951632
 51
360.0
  0
ARC
  5
340
100
AcDbEntity
  8
KONSTRUKTIONSELEMENTE
100
AcDbCircle
 62
7
  6
CONTINUOUS
 10
134.2135285201
 20
127.6369193839
 40
33.5
100
AcDbArc
 50
180.0
 51
231.8187733022
  0
ARC
  5
341
100
AcDbEntity
  8
AUSFORMSCHRAEGEN
100
AcDbCircle
 62
7
  6
CONTINUOUS
 10
134.2135285201
 20
127.6369193839
 40
33.5
100
AcDbArc
 50
231.8187733022
 51
298.4499951632
  0
ARC
  5
342
100
AcDbEntity
  8
KONSTRUKTIONSELEMENTE
100
AcDbCircle
 62
7
  6
CONTINUOUS
 10
121.7135285201
 20
159.8369193839
 40
24.5404962177
100
AcDbArc
 50
0.0
 51
40.0
  0
ARC
  5
343
100
AcDbEntity
  8
KONSTRUKTIONSELEMENTE
100
AcDbCircle
 62
7
  6
CONTINUOUS
 10
178.4635285201
 20
197.8369193839
 40
23.0
100
AcDbArc
 50
180.0
 51
222.8028849715
  0
ARC
  5
344
100
AcDbEntity
  8
KONSTRUKTIONSELEMENTE
100
AcDbCircle
 62
7
  6
CONTINUOUS
 10
144.7135285201
 20
166.5809199597
 40
23.0
100
AcDbArc
 50
0.0
 51
42.8028849715
  0
ARC
  5
345
100
AcDbEntity
  8
KONSTRUKTIONSELEMENTE
100
AcDbCircle
 62
7
  6
CONTINUOUS
 10
100.4939135733
 20
188.2369193839
 40
22.5404962177
100
AcDbArc
 50
40.0
 51
90.0
  0
ARC
  5
346
100
AcDbEntity
  8
KONSTRUKTIONSELEMENTE
100
AcDbCircle
 62
7
  6
CONTINUOUS
 10
80.7135285201
 20
148.0094172876
 40
20.0
100
AcDbArc
 50
0.0
 51
28.9550243719
  0
ARC
  5
347
100
AcDbEntity
  8
KONSTRUKTIONSELEMENTE
100
AcDbCircle
 62
7
  6
CONTINUOUS
 10
119.4635285201
 20
211.5236655133
 40
19.5
100
AcDbArc
 50
180.0
 51
220.0
  0
ARC
  5
348
100
AcDbEntity
  8
KONSTRUKTIONSELEMENTE
100
AcDbCircle
 62
7
  6
CONTINUOUS
 10
108.7135285201
 20
163.5013506724
 40
12.0
100
AcDbArc
 50
130.0
 51
208.9550243719
  0
ARC
  5
349
100
AcDbEntity
  8
KONSTRUKTIONSELEMENTE
100
AcDbCircle
 62
7
  6
CONTINUOUS
 10
121.7135285201
 20
159.8369193839
 40
12.0
100
AcDbArc
 50
0.0
 51
40.0
  0
ARC
  5
34A
100
AcDbEntity
  8
KONSTRUKTIONSELEMENTE
100
AcDbCircle
 62
7
  6
CONTINUOUS
 10
112.2135285201
 20
156.3792021583
 40
9.5
100
AcDbArc
 50
0.0
 51
40.0
  0
ARC
  5
34B
100
AcDbEntity
  8
KONSTRUKTIONSELEMENTE
100
AcDbCircle
 62
7
  6
CONTINUOUS
 10
108.3978159247
 20
220.2853939509
 40
5.96982449
100
AcDbArc
 50
355.6916772494
 51
0.955655997
  0
ARC
  5
34C
100
AcDbEntity
  8
KONSTRUKTIONSELEMENTE
100
AcDbCircle
 62
7
  6
CONTINUOUS
 10
147.0292411154
 20
220.2853939509
 40
5.96982449
100
AcDbArc
 50
179.044344003
 51
184.3083227506
  0
ARC
  5
34D
100
AcDbEntity
  8
KONSTRUKTIONSELEMENTE
100
AcDbCircle
 62
7
  6
CONTINUOUS
 10
127.7135285201
 20
205.2869193839
 40
5.75
100
AcDbArc
 50
180.0
 51
360.0
  0
ARC
  5
34E
100
AcDbEntity
  8
KONSTRUKTIONSELEMENTE
100
AcDbCircle
 62
7
  6
CONTINUOUS
 10
127.2135285201
 20
133.7369193839
 40
5.5
100
AcDbArc
 50
180.0
 51
230.4582267154
  0
ARC
  5
34F
100
AcDbEntity
  8
KONSTRUKTIONSELEMENTE
100
AcDbCircle
 62
7
  6
CONTINUOUS
 10
128.2135285201
 20
133.7369193839
 40
5.5
100
AcDbArc
 50
309.5417732857
 51
360.0
  0
ARC
  5
350
100
AcDbEntity
  8
KONSTRUKTIONSELEMENTE
100
AcDbCircle
 62
7
  6
CONTINUOUS
 10
106.2081260198
 20
170.5369193839
 40
5.0
100
AcDbArc
 50
40.0
 51
130.0
  0
CIRCLE
  5
351
100
AcDbEntity
  8
BEZUGSACHSEN
100
AcDbCircle
 62
7
  6
CONTINUOUS
 10
109.6135285201
 20
221.2369193839
 40
2.5
  0
ARC
  5
352
100
AcDbEntity
  8
0
100
AcDbCircle
 62
7
  6
CONTINUOUS
 10
213.7770908897
 20
148.703614035
 40
20.0
100
AcDbArc
 50
0.0
 51
13.0
  0
ARC
  5
353
100
AcDbEntity
  8
KONSTRUKTIONSELEMENTE
100
AcDbCircle
 62
7
  6
CONTINUOUS
 10
267.7770908897
 20
148.703614035
 40
20.0
100
AcDbArc
 50
167.0
 51
180.0
  0
ARC
  5
354
100
AcDbEntity
  8
0
100
AcDbCircle
 62
7
  6
CONTINUOUS
 10
218.2770908897
 20
192.2369193839
 40
20.0
100
AcDbArc
 50
47.6025188034
 51
67.975687163
  0
ARC
  5
355
100
AcDbEntity
  8
KONSTRUKTIONSELEMENTE
100
AcDbCircle
 62
7
  6
CONTINUOUS
 10
263.2770908897
 20
192.2369193839
 40
20.0
100
AcDbArc
 50
112.024312837
 51
132.3974811966
  0
ARC
  5
356
100
AcDbEntity
  8
KONSTRUKTIONSELEMENTE
100
AcDbCircle
 62
7
  6
CONTINUOUS
 10
240.7770908897
 20
219.9369193839
 40
14.9
100
AcDbArc
 50
1.7231426991
 51
27.5865021242
  0
ARC
  5
357
100
AcDbEntity
  8
0
100
AcDbCircle
 62
7
  6
CONTINUOUS
 10
240.7770908897
 20
219.9369193839
 40
14.9
100
AcDbArc
 50
27.5865021242
 51
178.2768573009
  0
CIRCLE
  5
358
100
AcDbEntity
  8
BEZUGSACHSEN
100
AcDbCircle
 62
7
  6
CONTINUOUS
 10
240.7770908897
 20
221.2369193839
 40
7.05
  0
ARC
  5
359
100
AcDbEntity
  8
KONSTRUKTIONSELEMENTE
100
AcDbCircle
 62
7
  6
CONTINUOUS
 10
256.7770908897
 20
103.4252472758
 40
3.0
100
AcDbArc
 50
315.0
 51
23.0
  0
ARC
  5
35A
100
AcDbEntity
  8
0
100
AcDbCircle
 62
7
  6
CONTINUOUS
 10
224.7770908897
 20
103.4252472758
 40
3.0
100
AcDbArc
 50
157.0
 51
225.0
  0
SPLINE
  5
35B
100
AcDbEntity
  8
KONSTRUKTIONSELEMENTE
100
AcDbSpline
 62
7
  6
CONTINUOUS
 70
0
 71
3
 72
17
 73
13
 74
0
 42
0.0000001
 43
0.0000001
 44
0.0000000001
 40
0.0
 40
0.0
 40
0.0
 40
0.0
 40
0.0625113237
 40
0.1250480341
 40
0.1875810354
 40
0.2501240787
 40
0.3750435843
 40
0.5000172384
 40
0.6250078765
 40
0.7500049866
 40
0.8750028311
 40
1.0
 40
1.0
 40
1.0
 40
1.0
 10
141.2998805175
 20
215.2369193839
 30
0.0
 10
141.2998805175
 20
215.0138006668
 30
0.0
 10
141.2532879257
 20
214.5662091982
 30
0.0
 10
141.0542731014
 20
213.9232173919
 30
0.0
 10
140.7505706687
 20
213.3233916213
 30
0.0
 10
140.2397824341
 20
212.5890916226
 30
0.0
 10
139.4538463682
 20
211.7875476046
 30
0.0
 10
138.3797310953
 20
210.9841775042
 30
0.0
 10
137.2215126585
 20
210.3088498551
 30
0.0
 10
136.0067488856
 20
209.7432642127
 30
0.0
 10
134.7517057907
 20
209.274837329
 30
0.0
 10
133.8952334864
 20
209.0217970555
 30
0.0
 10
133.4635285201
 20
208.909202576
 30
0.0
  0
SPLINE
  5
35C
100
AcDbEntity
  8
KONSTRUKTIONSELEMENTE
100
AcDbSpline
 62
7
  6
CONTINUOUS
 70
0
 71
3
 72
9
 73
5
 74
0
 42
0.0000001
 43
0.0000001
 44
0.0000000001
 40
0.0
 40
0.0
 40
0.0
 40
0.0
 40
0.501545497
 40
1.0
 40
1.0
 40
1.0
 40
1.0
 10
111.952974977
 20
158.2986540625
 30
0.0
 10
112.4771035057
 20
157.833519711
 30
0.0
 10
113.3793232389
 20
156.7331317709
 30
0.0
 10
113.9115355326
 20
155.4173352911
 30
0.0
 10
114.0790218801
 20
154.7413361041
 30
0.0
  0
LINE
  5
35D
100
AcDbEntity
  8
0
100
AcDbLine
 62
7
  6
CONTINUOUS
 10
141.2998802463
 20
234.8369012821
 11
141.0602470102
 21
220.3849620884
  0
LINE
  5
35E
100
AcDbEntity
  8
0
100
AcDbLine
 62
7
  6
CONTINUOUS
 10
114.3668100299
 20
220.3849620884
 11
114.1271767938
 21
234.8369012821
  0
SPLINE
  5
35F
100
AcDbEntity
  8
KONSTRUKTIONSELEMENTE
100
AcDbSpline
 62
7
  6
CONTINUOUS
 70
0
 71
3
 72
9
 73
5
 74
0
 42
0.0000001
 43
0.0000001
 44
0.0000000001
 40
0.0
 40
0.0
 40
0.0
 40
0.0
 40
0.4969528869
 40
1.0
 40
1.0
 40
1.0
 40
1.0
 10
114.4705000748
 20
153.2026351219
 30
0.0
 10
114.6609819061
 20
152.4735966727
 30
0.0
 10
114.9662178178
 20
150.9844245411
 30
0.0
 10
115.0743038603
 20
149.46636653
 30
0.0
 10
115.0743038603
 20
148.703614035
 30
0.0
  0
SPLINE
  5
360
100
AcDbEntity
  8
AUSFORMSCHRAEGEN
100
AcDbSpline
 62
7
  6
CONTINUOUS
 70
0
 71
3
 72
11
 73
7
 74
0
 42
0.0000001
 43
0.0000001
 44
0.0000000001
 40
0.0
 40
0.0
 40
0.0
 40
0.0
 40
0.2601970049
 40
0.5285282106
 40
0.7816520347
 40
1.0
 40
1.0
 40
1.0
 40
1.0
 10
119.0687171122
 20
104.5974408086
 30
0.0
 10
119.0246222576
 20
104.3120302379
 30
0.0
 10
118.9718333305
 20
103.7262832893
 30
0.0
 10
118.9859017423
 20
102.8572301631
 30
0.0
 10
119.0882163732
 20
102.0409844364
 30
0.0
 10
119.2188408775
 20
101.531659394
 30
0.0
 10
119.301728715
 20
101.3039269322
 30
0.0
  0
SPLINE
  5
361
100
AcDbEntity
  8
AUSFORMSCHRAEGEN
100
AcDbSpline
 62
7
  6
CONTINUOUS
 70
0
 71
3
 72
11
 73
7
 74
0
 42
0.0000001
 43
0.0000001
 44
0.0000000001
 40
0.0
 40
0.0
 40
0.0
 40
0.0
 40
0.2601970049
 40
0.5285282106
 40
0.7816520347
 40
1.0
 40
1.0
 40
1.0
 40
1.0
 10
136.3583399279
 20
104.5974408086
 30
0.0
 10
136.4024347826
 20
104.3120302379
 30
0.0
 10
136.4552237097
 20
103.7262832893
 30
0.0
 10
136.4411552978
 20
102.8572301631
 30
0.0
 10
136.338840667
 20
102.0409844364
 30
0.0
 10
136.2082161626
 20
101.531659394
 30
0.0
 10
136.1253283251
 20
101.3039269322
 30
0.0
  0
SPLINE
  5
362
100
AcDbEntity
  8
KONSTRUKTIONSELEMENTE
100
AcDbSpline
 62
7
  6
CONTINUOUS
 70
0
 71
3
 72
17
 73
13
 74
0
 42
0.0000001
 43
0.0000001
 44
0.0000000001
 40
0.0
 40
0.0
 40
0.0
 40
0.0
 40
0.1250096199
 40
0.2500185676
 40
0.3750259381
 40
0.5000241848
 40
0.6249985472
 40
0.7499191117
 40
0.8124474082
 40
0.8749719713
 40
0.9374942373
 40
1.0
 40
1.0
 40
1.0
 40
1.0
 10
121.9635285201
 20
208.909202576
 30
0.0
 10
121.5317805967
 20
209.0218082593
 30
0.0
 10
120.6752280599
 20
209.274873747
 30
0.0
 10
119.4200749756
 20
209.7433525406
 30
0.0
 10
118.205226854
 20
210.3089998963
 30
0.0
 10
117.0469628637
 20
210.9843905999
 30
0.0
 10
115.972909576
 20
211.7878907117
 30
0.0
 10
115.1869996558
 20
212.5894037985
 30
0.0
 10
114.6763543545
 20
213.3237021419
 30
0.0
 10
114.372666265
 20
213.9233839802
 30
0.0
 10
114.1737498068
 20
214.5663032946
 30
0.0
 10
114.1271765226
 20
215.0138205389
 30
0.0
 10
114.1271765226
 20
215.2369193839
 30
0.0
  0
SPLINE
  5
363
100
AcDbEntity
  8
0
100
AcDbSpline
 62
7
  6
CONTINUOUS
 70
0
 71
3
 72
12
 73
8
 74
0
 42
0.0000001
 43
0.0000001
 44
0.0000000001
 40
0.0
 40
0.0
 40
0.0
 40
0.0
 40
0.3325532719
 40
0.6136872151
 40
0.7324476975
 40
0.8359794634
 40
1.0
 40
1.0
 40
1.0
 40
1.0
 10
234.9803839782
 20
174.3671415995
 30
0.0
 10
235.1478701762
 20
174.5306183277
 30
0.0
 10
235.4630265548
 20
174.8262125786
 30
0.0
 10
235.862185178
 20
175.1534743852
 30
0.0
 10
236.1582106682
 20
175.3497075688
 30
0.0
 10
236.397169075
 20
175.4774271055
 30
0.0
 10
236.5834267994
 20
175.5368231489
 30
0.0
 10
236.69886062
 20
175.5369191259
 30
0.0
  0
SPLINE
  5
364
100
AcDbEntity
  8
KONSTRUKTIONSELEMENTE
100
AcDbSpline
 62
7
  6
CONTINUOUS
 70
0
 71
3
 72
12
 73
8
 74
0
 42
0.0000001
 43
0.0000001
 44
0.0000000001
 40
0.0
 40
0.0
 40
0.0
 40
0.0
 40
0.3325532719
 40
0.6136872151
 40
0.7324476975
 40
0.8359794634
 40
1.0
 40
1.0
 40
1.0
 40
1.0
 10
246.5737978012
 20
174.3671415995
 30
0.0
 10
246.4063116031
 20
174.5306183277
 30
0.0
 10
246.0911552246
 20
174.8262125786
 30
0.0
 10
245.6919966013
 20
175.1534743852
 30
0.0
 10
245.3959711111
 20
175.3497075688
 30
0.0
 10
245.1570127043
 20
175.4774271055
 30
0.0
 10
244.9707549799
 20
175.5368231489
 30
0.0
 10
244.8553211593
 20
175.5369191259
 30
0.0
  0
SPLINE
  5
365
100
AcDbEntity
  8
0
100
AcDbSpline
 62
7
  6
CONTINUOUS
 70
0
 71
3
 72
9
 73
5
 74
0
 42
0.0000001
 43
0.0000001
 44
0.0000000001
 40
0.0
 40
0.0
 40
0.0
 40
0.0
 40
0.2431512196
 40
1.0
 40
1.0
 40
1.0
 40
1.0
 10
234.9803839782
 20
174.3671415995
 30
0.0
 10
234.8271608447
 20
174.2175864908
 30
0.0
 10
234.1830564941
 20
173.6168806501
 30
0.0
 10
233.4862669849
 20
173.0734188694
 30
0.0
 10
232.938432681
 20
172.6938839899
 30
0.0
  0
SPLINE
  5
366
100
AcDbEntity
  8
KONSTRUKTIONSELEMENTE
100
AcDbSpline
 62
7
  6
CONTINUOUS
 70
0
 71
3
 72
9
 73
5
 74
0
 42
0.0000001
 43
0.0000001
 44
0.0000000001
 40
0.0
 40
0.0
 40
0.0
 40
0.0
 40
0.2431512196
 40
1.0
 40
1.0
 40
1.0
 40
1.0
 10
246.5737978012
 20
174.3671415995
 30
0.0
 10
246.7270209346
 20
174.2175864908
 30
0.0
 10
247.3711252853
 20
173.6168806501
 30
0.0
 10
248.0679147944
 20
173.0734188694
 30
0.0
 10
248.6157490984
 20
172.6938839899
 30
0.0
  0
SPLINE
  5
367
100
AcDbEntity
  8
0
100
AcDbSpline
 62
7
  6
CONTINUOUS
 70
0
 71
3
 72
9
 73
5
 74
0
 42
0.0000001
 43
0.0000001
 44
0.0000000001
 40
0.0
 40
0.0
 40
0.0
 40
0.0
 40
0.2613567313
 40
1.0
 40
1.0
 40
1.0
 40
1.0
 10
229.2944524413
 20
170.3987664934
 30
0.0
 10
229.6220255152
 20
170.5818635932
 30
0.0
 10
230.8644341096
 20
171.3020680117
 30
0.0
 10
232.0666231428
 20
172.089901863
 30
0.0
 10
232.938432681
 20
172.6938839899
 30
0.0
  0
SPLINE
  5
368
100
AcDbEntity
  8
KONSTRUKTIONSELEMENTE
100
AcDbSpline
 62
7
  6
CONTINUOUS
 70
0
 71
3
 72
9
 73
5
 74
0
 42
0.0000001
 43
0.0000001
 44
0.0000000001
 40
0.0
 40
0.0
 40
0.0
 40
0.0
 40
0.2613567313
 40
1.0
 40
1.0
 40
1.0
 40
1.0
 10
252.2597293381
 20
170.3987664934
 30
0.0
 10
251.9321562642
 20
170.5818635932
 30
0.0
 10
250.6897476698
 20
171.3020680117
 30
0.0
 10
249.4875586365
 20
172.089901863
 30
0.0
 10
248.6157490984
 20
172.6938839899
 30
0.0
  0
SPLINE
  5
369
100
AcDbEntity
  8
0
100
AcDbSpline
 62
7
  6
CONTINUOUS
 70
0
 71
3
 72
10
 73
6
 74
0
 42
0.0000001
 43
0.0000001
 44
0.0000000001
 40
0.0
 40
0.0
 40
0.0
 40
0.0
 40
0.22553182
 40
0.4719008464
 40
1.0
 40
1.0
 40
1.0
 40
1.0
 10
236.8242871524
 20
198.9893071244
 30
0.0
 10
236.6435609737
 20
199.687284606
 30
0.0
 10
236.140214861
 20
201.1176117627
 30
0.0
 10
234.6371898055
 20
203.9480009349
 30
0.0
 10
233.0092465194
 20
205.8682738205
 30
0.0
 10
231.7624893575
 20
207.0066190478
 30
0.0
  0
SPLINE
  5
36A
100
AcDbEntity
  8
KONSTRUKTIONSELEMENTE
100
AcDbSpline
 62
7
  6
CONTINUOUS
 70
0
 71
3
 72
10
 73
6
 74
0
 42
0.0000001
 43
0.0000001
 44
0.0000000001
 40
0.0
 40
0.0
 40
0.0
 40
0.0
 40
0.22553182
 40
0.4719008464
 40
1.0
 40
1.0
 40
1.0
 40
1.0
 10
244.7298946269
 20
198.9893071244
 30
0.0
 10
244.9106208057
 20
199.687284606
 30
0.0
 10
245.4139669184
 20
201.1176117627
 30
0.0
 10
246.9169919739
 20
203.9480009349
 30
0.0
 10
248.5449352599
 20
205.8682738205
 30
0.0
 10
249.7916924218
 20
207.0066190478
 30
0.0
  0
SPLINE
  5
36B
100
AcDbEntity
  8
0
100
AcDbSpline
 62
7
  6
CONTINUOUS
 70
0
 71
3
 72
9
 73
5
 74
0
 42
0.0000001
 43
0.0000001
 44
0.0000000001
 40
0.0
 40
0.0
 40
0.0
 40
0.0
 40
0.2492870959
 40
1.0
 40
1.0
 40
1.0
 40
1.0
 10
237.355874918
 20
194.6647954807
 30
0.0
 10
237.355874918
 20
195.0273693386
 30
0.0
 10
237.3137166873
 20
196.4812269104
 30
0.0
 10
237.0979772473
 20
197.9322963225
 30
0.0
 10
236.8242871524
 20
198.9893071244
 30
0.0
  0
SPLINE
  5
36C
100
AcDbEntity
  8
KONSTRUKTIONSELEMENTE
100
AcDbSpline
 62
7
  6
CONTINUOUS
 70
0
 71
3
 72
9
 73
5
 74
0
 42
0.0000001
 43
0.0000001
 44
0.0000000001
 40
0.0
 40
0.0
 40
0.0
 40
0.0
 40
0.2492870959
 40
1.0
 40
1.0
 40
1.0
 40
1.0
 10
244.1983068613
 20
194.6647954807
 30
0.0
 10
244.1983068613
 20
195.0273693386
 30
0.0
 10
244.240465092
 20
196.4812269104
 30
0.0
 10
244.4562045321
 20
197.9322963225
 30
0.0
 10
244.7298946269
 20
198.9893071244
 30
0.0
  0
ELLIPSE
  5
36D
100
AcDbEntity
  8
KONSTRUKTIONSELEMENTE
100
AcDbEllipse
 62
7
  6
CONTINUOUS
 10
127.7135285201
 20
-891.3366231495
 30
0.0
 11
-0.0
 21
1196.6659255494
 31
0.0
 40
0.0300835841
 41
0.3802877818
 42
0.3869856221
  0
ELLIPSE
  5
36E
100
AcDbEntity
  8
KONSTRUKTIONSELEMENTE
100
AcDbEllipse
 62
7
  6
CONTINUOUS
 10
127.7135285201
 20
-891.3366231495
 30
0.0
 11
0.0
 21
1196.6659255494
 31
0.0
 40
0.0300835841
 41
-0.3869856221
 42
-0.3802877818
  0
ELLIPSE
  5
36F
100
AcDbEntity
  8
KONSTRUKTIONSELEMENTE
100
AcDbEllipse
 62
7
  6
CONTINUOUS
 10
127.7135285201
 20
95.7901208937
 30
0.0
 11
-0.0
 21
47.1170473165
 31
0.0
 40
0.4244748162
 41
0.304692654
 42
0.6840812318
  0
ELLIPSE
  5
370
100
AcDbEntity
  8
AUSFORMSCHRAEGEN
100
AcDbEllipse
 62
7
  6
CONTINUOUS
 10
136.4451415655
 20
110.4543052854
 30
0.0
 11
-0.0
 21
13.0
 31
0.0
 40
0.3639702343
 41
0.6108652382
 42
1.5707963268
  0
ELLIPSE
  5
371
100
AcDbEntity
  8
KONSTRUKTIONSELEMENTE
100
AcDbEllipse
 62
7
  6
CONTINUOUS
 10
127.7135285201
 20
95.7901208937
 30
0.0
 11
-0.0
 21
47.1170473165
 31
0.0
 40
0.4244748162
 41
-1.1863995523
 42
-0.304692654
  0
ELLIPSE
  5
372
100
AcDbEntity
  8
AUSFORMSCHRAEGEN
100
AcDbEllipse
 62
7
  6
CONTINUOUS
 10
118.9819154746
 20
110.4543052854
 30
0.0
 11
-0.0
 21
13.0
 31
0.0
 40
0.3639702343
 41
-1.5707963268
 42
-0.6108652382
  0
ELLIPSE
  5
373
100
AcDbEntity
  8
KONSTRUKTIONSELEMENTE
100
AcDbEllipse
 62
7
  6
CONTINUOUS
 10
80.6404910973
 20
218.1202022524
 30
0.0
 11
-75.8044066168
 21
85.631987914
 31
0.0
 40
0.1729269
 41
-4.2808866515
 42
-4.1020488806
  0
ELLIPSE
  5
374
100
AcDbEntity
  8
KONSTRUKTIONSELEMENTE
100
AcDbEllipse
 62
7
  6
CONTINUOUS
 10
127.7135285201
 20
218.1202022524
 30
0.0
 11
-0.0
 21
86.6295174857
 31
0.0
 40
0.2308681911
 41
-3.8917109781
 42
-3.8652787604
  0
ELLIPSE
  5
375
100
AcDbEntity
  8
AUSFORMSCHRAEGEN
100
AcDbEllipse
 62
7
  6
CONTINUOUS
 10
253.6457844383
 20
127.6369193839
 30
0.0
 11
92.0404935517
 21
-0.0
 31
0.0
 40
0.3639702343
 41
-1.6454926349
 42
-1.5915189947
  0
ELLIPSE
  5
376
100
AcDbEntity
  8
0
100
AcDbEllipse
 62
7
  6
CONTINUOUS
 10
227.908397341
 20
127.6369193839
 30
0.0
 11
92.0404935517
 21
0.0
 31
0.0
 40
0.3639702343
 41
-1.5500736589
 42
-1.4961000187
  0
ENDSEC
  0
SECTION
  2
OBJECTS
  0
DICTIONARY
  5
C
100
AcDbDictionary
280
0
281
1
  3
ACAD_GROUP
350
D
  3
ACAD_MLINESTYLE
350
17
  3
ACAD_LAYOUT
350
1A
  3
ACAD_PLOTSETTINGS
350
19
  3
ACAD_PLOTSTYLENAME
350
E
  0
DICTIONARY
  5
D
102
{ACAD_REACTORS
330
C
102
}
100
AcDbDictionary
280
0
281
1
  0
ACDBDICTIONARYWDFLT
  5
E
102
{ACAD_REACTORS
330
C
102
}
100
AcDbDictionary
281
1
  3
Normal
350
F
100
AcDbDictionaryWithDefault
340
F
  0
DICTIONARY
  5
17
102
{ACAD_REACTORS
330
C
102
}
100
AcDbDictionary
280
0
281
1
  3
Standard
350
18
  0
DICTIONARY
  5
19
102
{ACAD_REACTORS
330
C
102
}
100
AcDbDictionary
281
1
  0
DICTIONARY
  5
1A
102
{ACAD_REACTORS
330
C
102
}
100
AcDbDictionary
281
1
  3
Model
350
377
  3
Layout1
350
378
  0
ACDBPLACEHOLDER
  5
F
102
{ACAD_REACTORS
330
E
102
}
  0
MLINESTYLE
  5
18
102
{ACAD_REACTORS
330
17
102
}
100
AcDbMlineStyle
  2
STANDARD
 70
0
  3

 62
256
 51
90.0
 52
90.0
 71
2
 49
0.5
 62
256
  6
BYLAYER
 49
-0.5
 62
256
  6
BYLAYER
  0
LAYOUT
  5
377
102
{ACAD_REACTORS
330
1A
102
}
100
AcDbPlotSettings
  1

  2
none_device
  4
ISO_A3_(420.00_x_297.00_MM)
  6

 40
0.0
 41
0.0
 42
0.0
 43
0.0
 44
420.0
 45
297.0
 46
0.0
 47
0.0
 48
0.0
 49
0.0
140
0.0
141
0.0
142
1.0
143
1.0
 70
1024
 72
1
 73
0
 74
0
  7

 75
0
147
1.0
148
0.0
149
0.0
100
AcDbLayout
  1
Model
 70
0
 71
0
 10
0.0
 20
0.0
 11
420.0
 21
297.0
 12
0.0
 22
0.0
 32
0.0
 14
0.0
 24
0.0
 34
0.0
 15
0.0
 25
0.0
 35
0.0
146
0.0
 13
0.0
 23
0.0
 33
0.0
 16
1.0
 26
0.0
 36
0.0
 17
0.0
 27
1.0
 37
0.0
 76
0
330
209
345
0
346
0
  0
LAYOUT
  5
378
102
{ACAD_REACTORS
330
1A
102
}
100
AcDbPlotSettings
  1

  2
none_device
  4
ISO_A3_(420.00_x_297.00_MM)
  6

 40
0.0
 41
0.0
 42
0.0
 43
0.0
 44
420.0
 45
297.0
 46
0.0
 47
0.0
 48
0.0
 49
0.0
140
0.0
141
0.0
142
1.0
143
1.0
 70
0
 72
1
 73
0
 74
0
  7

 75
0
147
1.0
148
0.0
149
0.0
100
AcDbLayout
  1
Layout1
 70
0
 71
1
 10
0.0
 20
0.0
 11
420.0
 21
297.0
 12
0.0
 22
0.0
 32
0.0
 14
0.0
 24
0.0
 34
0.0
 15
0.0
 25
0.0
 35
0.0
146
0.0
 13
0.0
 23
0.0
 33
0.0
 16
1.0
 26
0.0
 36
0.0
 17
0.0
 27
1.0
 37
0.0
 76
0
330
20A
345
0
346
0
  0
ENDSEC
  0
EOF
