999
DXF file: IWH-8_7904361_M34844-P-4.dxf
999
Pro/ENGINEER 2010140 by Parametric Technology Corporation
  0
SECTION
  2
HEADER
  9
$ACADVER
  1
AC1015
  9
$DWGCODEPAGE
  3
ANSI_1252
  9
$EXTMAX
 10
420.0
 20
297.0
 30
0.0
  9
$EXTMIN
 10
0.0
 20
0.0
 30
0.0
  9
$LIMMIN
 10
0.0
 20
0.0
  9
$LIMMAX
 10
420.0
 20
297.0
  9
$VIEWCTR
 10
210.0
 20
148.5
  9
$VIEWSIZE
 40
297.0
  9
$CLAYER
  8
0
  9
$LTSCALE
 40
23.1
  9
$CELTYPE
  6
BYLAYER
  9
$DIMSCALE
 40
1.0
  9
$DIMASZ
 40
3.5
  9
$DIMEXO
 40
2.625
  9
$DIMDLI
 40
15.96
  9
$DIMEXE
 40
7.56
  9
$DIMCEN
 40
3.78
  9
$DIMLFAC
 40
1.0
  9
$DIMBLK
  1
_FILLED
  9
$DIMTXT
 40
3.5
  9
$DIMTOL
 70
1
  9
$DIMLIM
 70
0
  9
$DIMTFAC
 40
1.0
  9
$DIMTP
 40
0.005
  9
$DIMTM
 40
0.005
  9
$PDMODE
 70
3
  9
$PDSIZE
 40
0.3125
  9
$HANDSEED
  5
408
  9
$TILEMODE
 70
1
  9
$MEASUREMENT
 70
1
  9
$INSUNITS
 70
4
  0
ENDSEC
  0
SECTION
  2
CLASSES
  0
CLASS
  1
ACDBDICTIONARYWDFLT
  2
AcDbDictionaryWithDefault
  3
AutoCAD 2000
 90
0
280
0
281
0
  0
CLASS
  1
ACDBPLACEHOLDER
  2
AcDbPlaceHolder
  3
AutoCAD 2000
 90
0
280
0
281
0
  0
CLASS
  1
LAYOUT
  2
AcDbLayout
  3
AutoCAD 2000
 90
0
280
0
281
0
  0
ENDSEC
  0
SECTION
  2
TABLES
  0
TABLE
  2
VPORT
  5
8
100
AcDbSymbolTable
 70
2
  0
VPORT
  5
1F4
100
AcDbSymbolTableRecord
100
AcDbViewportTableRecord
  2
*ACTIVE
 70
0
 10
0.0
 20
0.0
 11
1.0
 21
1.0
 12
210.0
 22
148.5
 13
0.0
 23
0.0
 14
1.0
 24
1.0
 15
0.0
 25
0.0
 16
0.0
 26
0.0
 36
1.0
 17
0.0
 27
0.0
 37
0.0
 40
297.0
 41
1.4141414141
 42
50.0
 43
0.0
 44
0.0
 50
0.0
 51
0.0
 71
0
 72
100
 73
1
 74
1
 75
0
 76
0
 77
0
 78
0
  0
ENDTAB
  0
TABLE
  2
LTYPE
  5
5
100
AcDbSymbolTable
 70
6
  0
LTYPE
  5
14
100
AcDbSymbolTableRecord
100
AcDbLinetypeTableRecord
  2
BYBLOCK
 70
0
  3

 72
65
 73
0
 40
0.0
  0
LTYPE
  5
15
100
AcDbSymbolTableRecord
100
AcDbLinetypeTableRecord
  2
BYLAYER
 70
0
  3

 72
65
 73
0
 40
0.0
  0
LTYPE
  5
16
100
AcDbSymbolTableRecord
100
AcDbLinetypeTableRecord
  2
CONTINUOUS
 70
64
  3
Solid line
 72
65
 73
0
 40
0.0
  0
LTYPE
  5
1F5
100
AcDbSymbolTableRecord
100
AcDbLinetypeTableRecord
  2
CENTER
 70
64
  3
____ _ ____ _ ____ _ ____ _ ____ _ ____ _ ____
 72
65
 73
4
 40
0.6
 49
0.375
 74
0
 49
-0.075
 74
0
 49
0.075
 74
0
 49
-0.075
 74
0
  0
LTYPE
  5
1F6
100
AcDbSymbolTableRecord
100
AcDbLinetypeTableRecord
  2
HIDDEN
 70
64
  3
- - - - - - - - - - - - - - - - - - - -
 72
65
 73
2
 40
0.2
 49
0.1
 74
0
 49
-0.1
 74
0
  0
LTYPE
  5
1F7
100
AcDbSymbolTableRecord
100
AcDbLinetypeTableRecord
  2
PHANTOM
 70
64
  3
_____ _ _ _____ _ _ _____ _ _ _____
 72
65
 73
6
 40
0.8
 49
0.45
 74
0
 49
-0.05
 74
0
 49
0.1
 74
0
 49
-0.05
 74
0
 49
0.1
 74
0
 49
-0.05
 74
0
  0
LTYPE
  5
1F8
100
AcDbSymbolTableRecord
100
AcDbLinetypeTableRecord
  2
DOT
 70
64
  3
. . . . . . . . . . . . . . . . . . . .
 72
65
 73
2
 40
0.2
 49
0.1
 74
0
 49
-0.1
 74
0
  0
LTYPE
  5
1F9
100
AcDbSymbolTableRecord
100
AcDbLinetypeTableRecord
  2
DASHED
 70
64
  3
- - - - - - - - - - - - - - - - - - - -
 72
65
 73
2
 40
0.2
 49
0.1
 74
0
 49
-0.1
 74
0
  0
ENDTAB
  0
TABLE
  2
LAYER
  5
2
100
AcDbSymbolTable
 70
36
  0
LAYER
  5
10
100
AcDbSymbolTableRecord
100
AcDbLayerTableRecord
  2
0
 70
0
 62
7
  6
CONTINUOUS
370
-3
390
F
  0
LAYER
  5
1FA
100
AcDbSymbolTableRecord
100
AcDbLayerTableRecord
  2
DEFAULT_1
 70
0
 62
7
  6
CENTER
370
-3
390
F
  0
LAYER
  5
1FB
100
AcDbSymbolTableRecord
100
AcDbLayerTableRecord
  2
DEFAULT_2
 70
0
 62
8
  6
HIDDEN
370
-3
390
F
  0
LAYER
  5
1FC
100
AcDbSymbolTableRecord
100
AcDbLayerTableRecord
  2
DEFAULT_3
 70
0
 62
7
  6
PHANTOM
370
-3
390
F
  0
LAYER
  5
1FD
100
AcDbSymbolTableRecord
100
AcDbLayerTableRecord
  2
BEZUGSACHSEN
 70
0
 62
7
  6
CONTINUOUS
370
-3
390
F
  0
LAYER
  5
1FE
100
AcDbSymbolTableRecord
100
AcDbLayerTableRecord
  2
BEZUGSEBENEN
 70
0
 62
7
  6
CONTINUOUS
370
-3
390
F
  0
LAYER
  5
1FF
100
AcDbSymbolTableRecord
100
AcDbLayerTableRecord
  2
FASEN
 70
0
 62
7
  6
CONTINUOUS
370
-3
390
F
  0
LAYER
  5
200
100
AcDbSymbolTableRecord
100
AcDbLayerTableRecord
  2
FLAECHEN
 70
0
 62
7
  6
CONTINUOUS
370
-3
390
F
  0
LAYER
  5
201
100
AcDbSymbolTableRecord
100
AcDbLayerTableRecord
  2
HILFEN
 70
0
 62
7
  6
CONTINUOUS
370
-3
390
F
  0
LAYER
  5
202
100
AcDbSymbolTableRecord
100
AcDbLayerTableRecord
  2
KURVEN
 70
0
 62
7
  6
CONTINUOUS
370
-3
390
F
  0
LAYER
  5
203
100
AcDbSymbolTableRecord
100
AcDbLayerTableRecord
  2
PLATZIERUNG
 70
0
 62
7
  6
CONTINUOUS
370
-3
390
F
  0
LAYER
  5
204
100
AcDbSymbolTableRecord
100
AcDbLayerTableRecord
  2
RUNDUNGEN
 70
0
 62
7
  6
CONTINUOUS
370
-3
390
F
  0
LAYER
  5
205
100
AcDbSymbolTableRecord
100
AcDbLayerTableRecord
  2
T_STARTBEZUEGE
 70
0
 62
7
  6
CONTINUOUS
370
-3
390
F
  0
LAYER
  5
206
100
AcDbSymbolTableRecord
100
AcDbLayerTableRecord
  2
ZEICHNUNGSBEMASSUNGEN
 70
0
 62
7
  6
CONTINUOUS
370
-3
390
F
  0
ENDTAB
  0
TABLE
  2
STYLE
  5
3
100
AcDbSymbolTable
 70
1
  0
STYLE
  5
11
100
AcDbSymbolTableRecord
100
AcDbTextStyleTableRecord
  2
STANDARD
 70
0
 40
0.0
 41
0.7
 50
0.0
 71
0
 42
0.2
  3
txt
  4

  0
STYLE
  5
207
100
AcDbSymbolTableRecord
100
AcDbTextStyleTableRecord
  2
TEXTSTYLE_1
 70
0
 40
0.0
 41
0.8
 50
0.0
 71
0
 42
0.2
  3
gdt
  4

  0
ENDTAB
  0
TABLE
  2
VIEW
  5
6
100
AcDbSymbolTable
 70
0
  0
ENDTAB
  0
TABLE
  2
UCS
  5
7
100
AcDbSymbolTable
 70
0
  0
ENDTAB
  0
TABLE
  2
APPID
  5
9
100
AcDbSymbolTable
 70
1
  0
APPID
  5
208
100
AcDbSymbolTableRecord
100
AcDbRegAppTableRecord
  2
ACAD
 70
0
  0
ENDTAB
  0
TABLE
  2
BLOCK_RECORD
  5
1
100
AcDbSymbolTable
 70
0
  0
BLOCK_RECORD
  5
209
100
AcDbSymbolTableRecord
100
AcDbBlockTableRecord
  2
*Model_Space
  0
BLOCK_RECORD
  5
20A
100
AcDbSymbolTableRecord
100
AcDbBlockTableRecord
  2
*Paper_Space
  0
ENDTAB
  0
TABLE
  2
DIMSTYLE
  5
A
100
AcDbSymbolTable
 70
1
100
AcDbDimStyleTable
 71
0
  0
DIMSTYLE
105
20B
100
AcDbSymbolTableRecord
100
AcDbDimStyleTableRecord
  2
STANDARD
 70
0
  3

  4

 40
1.0
 41
3.5
 42
0.0625
 43
0.38
 44
0.18
 45
0.0
 46
0.0
 47
0.005
 48
0.005
140
3.5
141
0.09
142
0.0
143
25.4
144
1.0
145
0.0
146
1.0
147
0.09
 71
1.0
 72
0.0
 73
0
 74
0
 75
0
 76
0
 77
1
 78
8
170
0
171
2
172
0
173
0
174
0
175
0
176
0
177
0
178
5
270
2
271
3
272
3
273
2
274
2
275
0
280
0
281
0
282
0
283
1
284
8
285
0
286
0
287
3
288
0
340
11
  0
ENDTAB
  0
ENDSEC
  0
SECTION
  2
BLOCKS
  0
BLOCK
  5
20
100
AcDbEntity
  8
0
100
AcDbBlockBegin
  2
*Model_Space
 70
0
 10
0.0
 20
0.0
 30
0.0
  3
*Model_Space
  1

  0
ENDBLK
  5
21
100
AcDbEntity
  8
0
100
AcDbBlockEnd
  0
BLOCK
  5
1C
100
AcDbEntity
  8
0
100
AcDbBlockBegin
  2
*Paper_Space
 70
0
 10
0.0
 20
0.0
 30
0.0
  3
*Paper_Space
  1

  0
ENDBLK
  5
1D
100
AcDbEntity
  8
0
100
AcDbBlockEnd
  0
ENDSEC
  0
SECTION
  2
ENTITIES
  0
MTEXT
  5
20C
100
AcDbEntity
  8
0
100
AcDbMText
 62
5
  6
CONTINUOUS
  7
STANDARD
 71
1
 72
1
 10
316.7021559336
 20
149.7287719936
 30
0.0
 11
0.0
 21
1.0
 31
0.0
 44
0.9
  1
RUD IWH 8
 40
5.0
 41
39.0476190476
  0
LINE
  5
20D
100
AcDbEntity
  8
0
100
AcDbLine
 62
7
  6
CONTINUOUS
 10
0.0
 20
0.0
 11
0.0
 21
297.0
  0
LINE
  5
20E
100
AcDbEntity
  8
0
100
AcDbLine
 62
7
  6
CONTINUOUS
 10
0.0
 20
0.0
 11
420.0
 21
0.0
  0
LINE
  5
20F
100
AcDbEntity
  8
0
100
AcDbLine
 62
7
  6
CONTINUOUS
 10
0.0
 20
297.0
 11
420.0
 21
297.0
  0
LINE
  5
210
100
AcDbEntity
  8
0
100
AcDbLine
 62
7
  6
CONTINUOUS
 10
420.0
 20
0.0
 11
420.0
 21
297.0
  0
LINE
  5
211
100
AcDbEntity
  8
0
100
AcDbLine
 62
7
  6
CONTINUOUS
 10
157.4641376333
 20
70.4892236827
 11
158.1899262041
 21
70.6782500049
  0
LINE
  5
212
100
AcDbEntity
  8
0
100
AcDbLine
 62
7
  6
CONTINUOUS
 10
161.2140434034
 20
71.4658592
 11
162.0608004276
 21
71.6863908706
  0
LINE
  5
213
100
AcDbEntity
  8
0
100
AcDbLine
 62
7
  6
CONTINUOUS
 10
157.5142576386
 20
73.2725581246
 11
159.570660435
 21
73.8081331848
  0
LINE
  5
214
100
AcDbEntity
  8
0
100
AcDbLine
 62
7
  6
CONTINUOUS
 10
159.6195381313
 20
74.6123717899
 11
157.3212095028
 21
74.013788917
  0
LINE
  5
215
100
AcDbEntity
  8
0
100
AcDbLine
 62
7
  6
CONTINUOUS
 10
164.8890933454
 20
72.8154055002
 11
165.5183686739
 21
72.9199851874
  0
LINE
  5
216
100
AcDbEntity
  8
0
100
AcDbLine
 62
7
  6
CONTINUOUS
 10
165.2441246535
 20
73.6351642032
 11
164.7315607904
 21
73.5753389234
  0
LINE
  5
217
100
AcDbEntity
  8
0
100
AcDbLine
 62
7
  6
CONTINUOUS
 10
128.857036113
 20
72.7003067226
 11
128.3424727806
 21
72.7393258672
  0
LINE
  5
218
100
AcDbEntity
  8
0
100
AcDbLine
 62
7
  6
CONTINUOUS
 10
128.0974147079
 20
72.0136280317
 11
128.7304060922
 21
71.9346173919
  0
LINE
  5
219
100
AcDbEntity
  8
0
100
AcDbLine
 62
7
  6
CONTINUOUS
 10
131.3774846872
 20
71.0169031166
 11
135.7757525803
 21
70.0654623456
  0
LINE
  5
21A
100
AcDbEntity
  8
0
100
AcDbLine
 62
7
  6
CONTINUOUS
 10
135.9376999452
 20
70.8141036873
 11
132.2724767009
 21
71.6069709964
  0
LINE
  5
21B
100
AcDbEntity
  8
0
100
AcDbLine
 62
7
  6
CONTINUOUS
 10
132.7043363469
 20
73.6033479366
 11
135.8808622265
 21
72.9161964703
  0
LINE
  5
21C
100
AcDbEntity
  8
0
100
AcDbLine
 62
7
  6
CONTINUOUS
 10
136.0428095724
 20
73.6648377246
 11
132.8662836929
 21
74.3519891909
  0
LINE
  5
21D
100
AcDbEntity
  8
0
100
AcDbLine
 62
7
  6
CONTINUOUS
 10
127.0315460094
 20
72.3735570769
 11
128.0974147079
 21
72.0136280317
  0
LINE
  5
21E
100
AcDbEntity
  8
0
100
AcDbLine
 62
7
  6
CONTINUOUS
 10
128.3424727806
 20
72.7393258672
 11
127.2766040821
 21
73.0992549124
  0
LINE
  5
21F
100
AcDbEntity
  8
0
100
AcDbLine
 62
7
  6
CONTINUOUS
 10
130.2455479252
 20
72.9051343819
 11
129.5349687928
 21
73.1450870787
  0
LINE
  5
220
100
AcDbEntity
  8
0
100
AcDbLine
 62
7
  6
CONTINUOUS
 10
115.0556195388
 20
79.0882324177
 11
114.5694270633
 21
79.2611872182
  0
LINE
  5
221
100
AcDbEntity
  8
0
100
AcDbLine
 62
7
  6
CONTINUOUS
 10
114.3171194906
 20
78.6616958001
 11
114.9070583461
 21
78.4190134797
  0
LINE
  5
222
100
AcDbEntity
  8
0
100
AcDbLine
 62
7
  6
CONTINUOUS
 10
123.1148764596
 20
73.8958773786
 11
123.8053335476
 21
73.6030139128
  0
LINE
  5
223
100
AcDbEntity
  8
0
100
AcDbLine
 62
7
  6
CONTINUOUS
 10
126.4802406469
 20
72.6944669882
 11
127.0315460094
 21
72.3735570769
  0
LINE
  5
224
100
AcDbEntity
  8
0
100
AcDbLine
 62
7
  6
CONTINUOUS
 10
113.6946459965
 20
79.0800577835
 11
114.3171194906
 21
78.6616958001
  0
LINE
  5
225
100
AcDbEntity
  8
0
100
AcDbLine
 62
7
  6
CONTINUOUS
 10
114.5694270633
 20
79.2611872182
 11
114.1544451297
 21
79.5400949411
  0
LINE
  5
226
100
AcDbEntity
  8
BEZUGSACHSEN
100
AcDbLine
 62
7
  6
CONTINUOUS
 10
83.9609693264
 20
100.1990474094
 11
72.9134853994
 21
130.8846144836
  0
LINE
  5
227
100
AcDbEntity
  8
RUNDUNGEN
100
AcDbLine
 62
7
  6
CONTINUOUS
 10
83.9609693264
 20
100.1990474094
 11
72.9134853994
 21
130.8846144836
  0
LINE
  5
228
100
AcDbEntity
  8
0
100
AcDbLine
 62
7
  6
CONTINUOUS
 10
129.2940117225
 20
72.8222297092
 11
128.857036113
 21
72.7003067226
  0
LINE
  5
229
100
AcDbEntity
  8
0
100
AcDbLine
 62
7
  6
CONTINUOUS
 10
127.7545706263
 20
77.2495886274
 11
128.1915462072
 21
77.3715115293
  0
LINE
  5
22A
100
AcDbEntity
  8
0
100
AcDbLine
 62
7
  6
CONTINUOUS
 10
156.8385890731
 20
75.8668662443
 11
159.1369177016
 21
76.4654491172
  0
LINE
  5
22B
100
AcDbEntity
  8
0
100
AcDbLine
 62
7
  6
CONTINUOUS
 10
158.855081339
 20
77.0516375379
 11
155.9519270558
 21
76.2955322491
  0
LINE
  5
22C
100
AcDbEntity
  8
0
100
AcDbLine
 62
7
  6
CONTINUOUS
 10
169.6409000696
 20
80.5228529679
 11
170.1433428174
 21
80.640523444
  0
LINE
  5
22D
100
AcDbEntity
  8
0
100
AcDbLine
 62
7
  6
CONTINUOUS
 10
128.7304060922
 20
71.9346173919
 11
129.2858124427
 21
72.0165479042
  0
LINE
  5
22E
100
AcDbEntity
  8
0
100
AcDbLine
 62
7
  6
CONTINUOUS
 10
128.318176203
 20
78.1372007859
 11
127.7627698632
 21
78.0552703053
  0
LINE
  5
22F
100
AcDbEntity
  8
0
100
AcDbLine
 62
7
  6
CONTINUOUS
 10
117.1796546273
 20
81.3521950579
 11
116.5510410681
 21
81.3132440134
  0
LINE
  5
230
100
AcDbEntity
  8
0
100
AcDbLine
 62
7
  6
CONTINUOUS
 10
114.3987784184
 20
82.1445182736
 11
113.7701648591
 21
82.1055672291
  0
LINE
  5
231
100
AcDbEntity
  8
0
100
AcDbLine
 62
7
  6
CONTINUOUS
 10
159.4920816831
 20
77.0856214884
 11
158.855081339
 21
77.0516375379
  0
LINE
  5
232
100
AcDbEntity
  8
0
100
AcDbLine
 62
7
  6
CONTINUOUS
 10
170.4618918721
 20
81.3820794385
 11
169.900495184
 21
81.3776405657
  0
LINE
  5
233
100
AcDbEntity
  8
0
100
AcDbLine
 62
7
  6
CONTINUOUS
 10
114.9070583461
 20
78.4190134797
 11
115.6394171107
 21
78.3882378208
  0
LINE
  5
234
100
AcDbEntity
  8
0
100
AcDbLine
 62
7
  6
CONTINUOUS
 10
116.5553493887
 20
84.2328005364
 11
115.8229894556
 21
84.263577021
  0
LINE
  5
235
100
AcDbEntity
  8
0
100
AcDbLine
 62
7
  6
CONTINUOUS
 10
159.1369177016
 20
76.4654491172
 11
159.5319866763
 21
76.4364238129
  0
LINE
  5
236
100
AcDbEntity
  8
0
100
AcDbLine
 62
7
  6
CONTINUOUS
 10
128.1915462072
 20
77.3715115293
 11
128.7061095396
 21
77.3324923848
  0
LINE
  5
237
100
AcDbEntity
  8
0
100
AcDbLine
 62
7
  6
CONTINUOUS
 10
164.3308274816
 20
72.8747787892
 11
164.8890933454
 21
72.8154055002
  0
LINE
  5
238
100
AcDbEntity
  8
0
100
AcDbLine
 62
7
  6
CONTINUOUS
 10
170.1433428174
 20
80.640523444
 11
170.5938685724
 21
80.5872374576
  0
LINE
  5
239
100
AcDbEntity
  8
0
100
AcDbLine
 62
7
  6
CONTINUOUS
 10
115.6130225562
 20
79.0212305398
 11
115.0556195388
 21
79.0882324177
  0
LINE
  5
23A
100
AcDbEntity
  8
0
100
AcDbLine
 62
7
  6
CONTINUOUS
 10
116.752391376
 20
80.7164775228
 11
117.0310946656
 21
80.6829753869
  0
LINE
  5
23B
100
AcDbEntity
  8
0
100
AcDbLine
 62
7
  6
CONTINUOUS
 10
114.3214278112
 20
81.5812523231
 11
114.8788308286
 21
81.5142504451
  0
LINE
  5
23C
100
AcDbEntity
  8
0
100
AcDbLine
 62
7
  6
CONTINUOUS
 10
114.6774805207
 20
82.1110169357
 11
114.3987784184
 21
82.1445182736
  0
LINE
  5
23D
100
AcDbEntity
  8
0
100
AcDbLine
 62
7
  6
CONTINUOUS
 10
128.9511675837
 20
78.0581901355
 11
128.318176203
 21
78.1372007859
  0
LINE
  5
23E
100
AcDbEntity
  8
0
100
AcDbLine
 62
7
  6
CONTINUOUS
 10
133.2171696848
 20
75.9740455913
 11
136.882392929
 21
75.1811782822
  0
LINE
  5
23F
100
AcDbEntity
  8
0
100
AcDbLine
 62
7
  6
CONTINUOUS
 10
137.044340275
 20
75.9298195364
 11
132.6460723819
 21
76.8812603074
  0
LINE
  5
240
100
AcDbEntity
  8
0
100
AcDbLine
 62
7
  6
CONTINUOUS
 10
164.7315607904
 20
73.5753389234
 11
164.2900063683
 21
73.6794666822
  0
LINE
  5
241
100
AcDbEntity
  8
0
100
AcDbLine
 62
7
  6
CONTINUOUS
 10
130.4743580192
 20
75.926928626
 11
131.1849371515
 21
75.6869759292
  0
LINE
  5
242
100
AcDbEntity
  8
0
100
AcDbLine
 62
7
  6
CONTINUOUS
 10
128.7061095396
 20
77.3324923848
 11
129.7719782381
 21
76.9725633396
  0
LINE
  5
243
100
AcDbEntity
  8
0
100
AcDbLine
 62
7
  6
CONTINUOUS
 10
130.0170362822
 20
77.6982610903
 11
128.9511675837
 21
78.0581901355
  0
LINE
  5
244
100
AcDbEntity
  8
0
100
AcDbLine
 62
7
  6
CONTINUOUS
 10
114.8788308286
 20
81.5142504451
 11
115.3650244914
 21
81.3412948467
  0
LINE
  5
245
100
AcDbEntity
  8
0
100
AcDbLine
 62
7
  6
CONTINUOUS
 10
116.5510410681
 20
81.3132440134
 11
116.0648485926
 21
81.4861988138
  0
LINE
  5
246
100
AcDbEntity
  8
0
100
AcDbLine
 62
7
  6
CONTINUOUS
 10
116.3030418659
 20
83.6333091925
 11
116.7892355287
 21
83.460353594
  0
LINE
  5
247
100
AcDbEntity
  8
0
100
AcDbLine
 62
7
  6
CONTINUOUS
 10
117.1452882381
 20
83.9901182067
 11
116.5553493887
 21
84.2328005364
  0
LINE
  5
248
100
AcDbEntity
  8
0
100
AcDbLine
 62
7
  6
CONTINUOUS
 10
126.1482412738
 20
79.1266706171
 11
125.4577841857
 21
79.4195340829
  0
LINE
  5
249
100
AcDbEntity
  8
0
100
AcDbLine
 62
7
  6
CONTINUOUS
 10
130.5683416483
 20
77.3773511896
 11
130.0170362822
 21
77.6982610903
  0
LINE
  5
24A
100
AcDbEntity
  8
0
100
AcDbLine
 62
7
  6
CONTINUOUS
 10
127.2766040821
 20
73.0992549124
 11
126.8437267643
 21
73.3801733071
  0
LINE
  5
24B
100
AcDbEntity
  8
0
100
AcDbLine
 62
7
  6
CONTINUOUS
 10
129.7719782381
 20
76.9725633396
 11
130.2048555559
 21
76.6916449448
  0
LINE
  5
24C
100
AcDbEntity
  8
0
100
AcDbLine
 62
7
  6
CONTINUOUS
 10
115.3650244914
 20
81.3412948467
 11
115.780006425
 21
81.0623871237
  0
LINE
  5
24D
100
AcDbEntity
  8
0
100
AcDbLine
 62
7
  6
CONTINUOUS
 10
116.0648485926
 20
81.4861988138
 11
115.649866659
 21
81.7651065368
  0
LINE
  5
24E
100
AcDbEntity
  8
0
100
AcDbLine
 62
7
  6
CONTINUOUS
 10
116.7892355287
 20
83.460353594
 11
117.2042174623
 21
83.1814458711
  0
LINE
  5
24F
100
AcDbEntity
  8
0
100
AcDbLine
 62
7
  6
CONTINUOUS
 10
117.5602701717
 20
83.7112104837
 11
117.1452882381
 21
83.9901182067
  0
LINE
  5
250
100
AcDbEntity
  8
0
100
AcDbLine
 62
7
  6
CONTINUOUS
 10
113.2471294244
 20
79.5346451696
 11
113.6946459965
 21
79.0800577835
  0
LINE
  5
251
100
AcDbEntity
  8
0
100
AcDbLine
 62
7
  6
CONTINUOUS
 10
118.0077879373
 20
83.2566223089
 11
117.5602701717
 21
83.7112104837
  0
LINE
  5
252
100
AcDbEntity
  8
0
100
AcDbLine
 62
7
  6
CONTINUOUS
 10
126.0882063472
 20
73.0963350398
 11
126.4802406469
 21
72.6944669882
  0
LINE
  5
253
100
AcDbEntity
  8
0
100
AcDbLine
 62
7
  6
CONTINUOUS
 10
102.3451299982
 20
89.2369591087
 11
102.8543642651
 21
88.6863408549
  0
LINE
  5
254
100
AcDbEntity
  8
0
100
AcDbLine
 62
7
  6
CONTINUOUS
 10
105.2307910056
 20
86.1167888285
 11
105.7400252724
 21
85.5661705747
  0
LINE
  5
255
100
AcDbEntity
  8
0
100
AcDbLine
 62
7
  6
CONTINUOUS
 10
104.9162539133
 20
90.5932606781
 11
107.2926806538
 21
88.0237086518
  0
LINE
  5
256
100
AcDbEntity
  8
0
100
AcDbLine
 62
7
  6
CONTINUOUS
 10
107.8550141226
 20
88.5437776283
 11
105.4785873821
 21
91.1133296546
  0
LINE
  5
257
100
AcDbEntity
  8
0
100
AcDbLine
 62
7
  6
CONTINUOUS
 10
110.1449713032
 20
89.6400447095
 11
109.6357370364
 21
90.1906629633
  0
LINE
  5
258
100
AcDbEntity
  8
0
100
AcDbLine
 62
7
  6
CONTINUOUS
 10
107.2593102959
 20
92.7602149896
 11
106.750076029
 21
93.3108332435
  0
LINE
  5
259
100
AcDbEntity
  8
0
100
AcDbLine
 62
7
  6
CONTINUOUS
 10
114.1544451297
 20
79.5400949411
 11
113.8106725507
 21
79.9249563846
  0
LINE
  5
25A
100
AcDbEntity
  8
0
100
AcDbLine
 62
7
  6
CONTINUOUS
 10
115.780006425
 20
81.0623871237
 11
116.1237778167
 21
80.6775264782
  0
LINE
  5
25B
100
AcDbEntity
  8
0
100
AcDbLine
 62
7
  6
CONTINUOUS
 10
115.649866659
 20
81.7651065368
 11
115.30609408
 21
82.1499679803
  0
LINE
  5
25C
100
AcDbEntity
  8
0
100
AcDbLine
 62
7
  6
CONTINUOUS
 10
117.2042174623
 20
83.1814458711
 11
117.547988854
 21
82.7965852255
  0
LINE
  5
25D
100
AcDbEntity
  8
0
100
AcDbLine
 62
7
  6
CONTINUOUS
 10
98.3033458978
 20
94.6736432252
 11
98.8824734744
 21
93.8584063695
  0
LINE
  5
25E
100
AcDbEntity
  8
0
100
AcDbLine
 62
7
  6
CONTINUOUS
 10
100.0407286274
 20
92.2279326581
 11
100.6198563075
 21
91.4126956566
  0
LINE
  5
25F
100
AcDbEntity
  8
0
100
AcDbLine
 62
7
  6
CONTINUOUS
 10
106.0904052062
 20
94.072224613
 11
105.656059498
 21
94.6836522912
  0
LINE
  5
260
100
AcDbEntity
  8
0
100
AcDbLine
 62
7
  6
CONTINUOUS
 10
104.6425863167
 20
96.1103166794
 11
104.0634586366
 21
96.9255536808
  0
LINE
  5
261
100
AcDbEntity
  8
0
100
AcDbLine
 62
7
  6
CONTINUOUS
 10
103.0499853518
 20
98.3522182148
 11
102.6156396435
 21
98.963645893
  0
LINE
  5
262
100
AcDbEntity
  8
0
100
AcDbLine
 62
7
  6
CONTINUOUS
 10
96.6132687351
 20
97.4746752644
 11
96.993081513
 21
96.8279587471
  0
LINE
  5
263
100
AcDbEntity
  8
0
100
AcDbLine
 62
7
  6
CONTINUOUS
 10
115.6394171107
 20
78.3882378208
 11
116.1642855083
 21
78.4969156338
  0
LINE
  5
264
100
AcDbEntity
  8
0
100
AcDbLine
 62
7
  6
CONTINUOUS
 10
117.0310946656
 20
80.6829753869
 11
117.5559630383
 21
80.7916531627
  0
LINE
  5
265
100
AcDbEntity
  8
0
100
AcDbLine
 62
7
  6
CONTINUOUS
 10
115.8229894556
 20
84.263577021
 11
115.2981210829
 21
84.1548992451
  0
LINE
  5
266
100
AcDbEntity
  8
0
100
AcDbLine
 62
7
  6
CONTINUOUS
 10
115.6744283066
 20
83.5943581479
 11
116.3030418659
 21
83.6333091925
  0
LINE
  5
267
100
AcDbEntity
  8
0
100
AcDbLine
 62
7
  6
CONTINUOUS
 10
171.1411964407
 20
81.1600551047
 11
170.4618918721
 21
81.3820794385
  0
LINE
  5
268
100
AcDbEntity
  8
0
100
AcDbLine
 62
7
  6
CONTINUOUS
 10
160.0724629524
 20
76.8410231596
 11
159.4920816831
 21
77.0856214884
  0
LINE
  5
269
100
AcDbEntity
  8
0
100
AcDbLine
 62
7
  6
CONTINUOUS
 10
163.6811416084
 20
73.1725430173
 11
164.3308274816
 21
72.8747787892
  0
LINE
  5
26A
100
AcDbEntity
  8
0
100
AcDbLine
 62
7
  6
CONTINUOUS
 10
159.5319866763
 20
76.4364238129
 11
159.8382674242
 21
76.2523561368
  0
LINE
  5
26B
100
AcDbEntity
  8
0
100
AcDbLine
 62
7
  6
CONTINUOUS
 10
130.9603759587
 20
76.9754831697
 11
130.5683416483
 21
77.3773511896
  0
LINE
  5
26C
100
AcDbEntity
  8
0
100
AcDbLine
 62
7
  6
CONTINUOUS
 10
126.8437267643
 20
73.3801733071
 11
126.5701232415
 21
73.7420489905
  0
LINE
  5
26D
100
AcDbEntity
  8
0
100
AcDbLine
 62
7
  6
CONTINUOUS
 10
130.2048555559
 20
76.6916449448
 11
130.4784591073
 21
76.3297693461
  0
LINE
  5
26E
100
AcDbEntity
  8
0
100
AcDbLine
 62
7
  6
CONTINUOUS
 10
102.1668136512
 20
99.8664609707
 11
101.7870008732
 21
100.5131774879
  0
LINE
  5
26F
100
AcDbEntity
  8
0
100
AcDbLine
 62
7
  6
CONTINUOUS
 10
113.8106725507
 20
79.9249563846
 11
113.5381117009
 21
80.4157699527
  0
LINE
  5
270
100
AcDbEntity
  8
0
100
AcDbLine
 62
7
  6
CONTINUOUS
 10
114.5411995021
 20
82.3564241187
 11
114.6774805207
 21
82.1110169357
  0
LINE
  5
271
100
AcDbEntity
  8
0
100
AcDbLine
 62
7
  6
CONTINUOUS
 10
116.1237778167
 20
80.6775264782
 11
116.3963386666
 21
80.1867129102
  0
LINE
  5
272
100
AcDbEntity
  8
0
100
AcDbLine
 62
7
  6
CONTINUOUS
 10
116.8886735818
 20
80.4710695418
 11
116.752391376
 21
80.7164775228
  0
LINE
  5
273
100
AcDbEntity
  8
0
100
AcDbLine
 62
7
  6
CONTINUOUS
 10
112.9420327613
 20
80.2011392172
 11
113.2471294244
 21
79.5346451696
  0
LINE
  5
274
100
AcDbEntity
  8
RUNDUNGEN
100
AcDbLine
 62
7
  6
CONTINUOUS
 10
205.2261341566
 20
105.8430544586
 11
191.5708239631
 21
104.6483696197
  0
LINE
  5
275
100
AcDbEntity
  8
0
100
AcDbLine
 62
7
  6
CONTINUOUS
 10
170.5938685724
 20
80.5872374576
 11
170.9924774998
 21
80.3629946914
  0
LINE
  5
276
100
AcDbEntity
  8
0
100
AcDbLine
 62
7
  6
CONTINUOUS
 10
164.2900063683
 20
73.6794666822
 11
163.9194614509
 21
73.9475473129
  0
LINE
  5
277
100
AcDbEntity
  8
0
100
AcDbLine
 62
7
  6
CONTINUOUS
 10
160.5640559951
 20
76.441382459
 11
160.0724629524
 21
76.8410231596
  0
LINE
  5
278
100
AcDbEntity
  8
BEZUGSACHSEN
100
AcDbLine
 62
7
  6
CONTINUOUS
 10
87.2475241121
 20
139.4294015939
 11
117.1943981037
 21
105.9356457414
  0
LINE
  5
279
100
AcDbEntity
  8
RUNDUNGEN
100
AcDbLine
 62
7
  6
CONTINUOUS
 10
87.2475241121
 20
139.4294015939
 11
117.1943981037
 21
105.9356457414
  0
LINE
  5
27A
100
AcDbEntity
  8
0
100
AcDbLine
 62
7
  6
CONTINUOUS
 10
125.7778580658
 20
73.7401023523
 11
126.0882063472
 21
73.0963350398
  0
LINE
  5
27B
100
AcDbEntity
  8
0
100
AcDbLine
 62
7
  6
CONTINUOUS
 10
131.2707242544
 20
76.3317158996
 11
130.9603759587
 21
76.9754831697
  0
LINE
  5
27C
100
AcDbEntity
  8
0
100
AcDbLine
 62
7
  6
CONTINUOUS
 10
118.3128846191
 20
82.5901282892
 11
118.0077879373
 21
83.2566223089
  0
LINE
  5
27D
100
AcDbEntity
  8
0
100
AcDbLine
 62
7
  6
CONTINUOUS
 10
115.30609408
 20
82.1499679803
 11
115.104743772
 21
82.7467344709
  0
LINE
  5
27E
100
AcDbEntity
  8
0
100
AcDbLine
 62
7
  6
CONTINUOUS
 10
117.0900227025
 20
79.8743038492
 11
116.8886735818
 21
80.4710695418
  0
LINE
  5
27F
100
AcDbEntity
  8
0
100
AcDbLine
 62
7
  6
CONTINUOUS
 10
117.547988854
 20
82.7965852255
 11
117.7493391619
 21
82.199818735
  0
LINE
  5
280
100
AcDbEntity
  8
0
100
AcDbLine
 62
7
  6
CONTINUOUS
 10
112.8444276649
 20
80.7281790136
 11
112.9420327613
 21
80.2011392172
  0
LINE
  5
281
100
AcDbEntity
  8
0
100
AcDbLine
 62
7
  6
CONTINUOUS
 10
114.4435943808
 20
82.883463878
 11
114.5411995021
 21
82.3564241187
  0
LINE
  5
282
100
AcDbEntity
  8
0
100
AcDbLine
 62
7
  6
CONTINUOUS
 10
113.5381117009
 20
80.4157699527
 11
113.5117171713
 21
81.0487627087
  0
LINE
  5
283
100
AcDbEntity
  8
0
100
AcDbLine
 62
7
  6
CONTINUOUS
 10
116.3963386666
 20
80.1867129102
 11
116.4227331463
 21
79.5537200799
  0
LINE
  5
284
100
AcDbEntity
  8
RUNDUNGEN
100
AcDbLine
 62
7
  6
CONTINUOUS
 10
190.9482741465
 20
110.6168225935
 11
202.4818433872
 21
111.6258791521
  0
LINE
  5
285
100
AcDbEntity
  8
0
100
AcDbLine
 62
7
  6
CONTINUOUS
 10
171.5987591432
 20
80.8225810524
 11
171.1411964407
 21
81.1600551047
  0
LINE
  5
286
100
AcDbEntity
  8
0
100
AcDbLine
 62
7
  6
CONTINUOUS
 10
163.2648893276
 20
73.5598202201
 11
163.6811416084
 21
73.1725430173
  0
LINE
  5
287
100
AcDbEntity
  8
0
100
AcDbLine
 62
7
  6
CONTINUOUS
 10
126.5701232415
 20
73.7420489905
 11
126.4557934563
 21
74.184881793
  0
LINE
  5
288
100
AcDbEntity
  8
0
100
AcDbLine
 62
7
  6
CONTINUOUS
 10
118.4104897404
 20
82.0630885298
 11
118.3128846191
 21
82.5901282892
  0
LINE
  5
289
100
AcDbEntity
  8
BEZUGSACHSEN
100
AcDbLine
 62
7
  6
CONTINUOUS
 10
120.5224860917
 20
220.0549627716
 11
120.5224860917
 21
222.2577356886
  0
LINE
  5
28A
100
AcDbEntity
  8
RUNDUNGEN
100
AcDbLine
 62
7
  6
CONTINUOUS
 10
120.5224860917
 20
220.0549627716
 11
120.5224860917
 21
241.2638796109
  0
LINE
  5
28B
100
AcDbEntity
  8
BEZUGSACHSEN
100
AcDbLine
 62
7
  6
CONTINUOUS
 10
120.5224860917
 20
226.0250747664
 11
120.5224860917
 21
251.7783134326
  0
LINE
  5
28C
100
AcDbEntity
  8
0
100
AcDbLine
 62
7
  6
CONTINUOUS
 10
115.104743772
 20
82.7467344709
 11
115.1108838372
 21
83.2040474989
  0
LINE
  5
28D
100
AcDbEntity
  8
0
100
AcDbLine
 62
7
  6
CONTINUOUS
 10
117.7493391619
 20
82.199818735
 11
117.7432000845
 21
81.7425046121
  0
LINE
  5
28E
100
AcDbEntity
  8
0
100
AcDbLine
 62
7
  6
CONTINUOUS
 10
114.5209461752
 20
83.4467290306
 11
114.4435943808
 21
82.883463878
  0
LINE
  5
28F
100
AcDbEntity
  8
RUNDUNGEN
100
AcDbLine
 62
7
  6
CONTINUOUS
 10
211.7829535483
 20
116.2638796109
 11
211.5224860917
 21
116.2638796109
  0
LINE
  5
290
100
AcDbEntity
  8
0
100
AcDbLine
 62
7
  6
CONTINUOUS
 10
170.9924774998
 20
80.3629946914
 11
171.3391641939
 21
79.9677931373
  0
LINE
  5
291
100
AcDbEntity
  8
0
100
AcDbLine
 62
7
  6
CONTINUOUS
 10
162.0608004276
 20
71.6863908706
 11
160.2320996272
 21
74.2442364379
  0
LINE
  5
292
100
AcDbEntity
  8
0
100
AcDbLine
 62
7
  6
CONTINUOUS
 10
159.570660435
 20
73.8081331848
 11
161.2140434034
 21
71.4658592
  0
LINE
  5
293
100
AcDbEntity
  8
0
100
AcDbLine
 62
7
  6
CONTINUOUS
 10
163.9194614509
 20
73.9475473129
 11
163.619915321
 21
74.3795768013
  0
LINE
  5
294
100
AcDbEntity
  8
0
100
AcDbLine
 62
7
  6
CONTINUOUS
 10
159.8382674242
 20
76.2523561368
 11
160.0557544082
 21
75.9132446469
  0
LINE
  5
295
100
AcDbEntity
  8
0
100
AcDbLine
 62
7
  6
CONTINUOUS
 10
160.781542979
 20
76.1022709691
 11
160.5640559951
 21
76.441382459
  0
LINE
  5
296
100
AcDbEntity
  8
0
100
AcDbLine
 62
7
  6
CONTINUOUS
 10
162.9196358663
 20
74.1110461972
 11
163.2648893276
 21
73.5598202201
  0
LINE
  5
297
100
AcDbEntity
  8
0
100
AcDbLine
 62
7
  6
CONTINUOUS
 10
125.7043713166
 20
74.3038848647
 11
125.7778580658
 21
73.7401023523
  0
LINE
  5
298
100
AcDbEntity
  8
0
100
AcDbLine
 62
7
  6
CONTINUOUS
 10
130.4784591073
 20
76.3297693461
 11
130.4743580192
 21
75.926928626
  0
LINE
  5
299
100
AcDbEntity
  8
0
100
AcDbLine
 62
7
  6
CONTINUOUS
 10
126.4557934563
 20
74.184881793
 11
126.5007347268
 21
74.7086727148
  0
LINE
  5
29A
100
AcDbEntity
  8
0
100
AcDbLine
 62
7
  6
CONTINUOUS
 10
112.9929888638
 20
81.3973979609
 11
112.8444276649
 21
80.7281790136
  0
LINE
  5
29B
100
AcDbEntity
  8
0
100
AcDbLine
 62
7
  6
CONTINUOUS
 10
116.941462641
 20
79.2050840297
 11
117.0900227025
 21
79.8743038492
  0
LINE
  5
29C
100
AcDbEntity
  8
0
100
AcDbLine
 62
7
  6
CONTINUOUS
 10
118.2619272047
 20
81.3938701579
 11
118.4104897404
 21
82.0630885298
  0
LINE
  5
29D
100
AcDbEntity
  8
0
100
AcDbLine
 62
7
  6
CONTINUOUS
 10
172.0043999428
 20
80.3141475777
 11
171.5987591432
 21
80.8225810524
  0
LINE
  5
29E
100
AcDbEntity
  8
0
100
AcDbLine
 62
7
  6
CONTINUOUS
 10
166.6262334324
 20
79.816824826
 11
169.3970689561
 21
74.494938835
  0
LINE
  5
29F
100
AcDbEntity
  8
BEZUGSACHSEN
100
AcDbLine
 62
7
  6
CONTINUOUS
 10
140.4724860917
 20
251.7637939949
 11
140.4724860917
 21
241.2638796109
  0
LINE
  5
2A0
100
AcDbEntity
  8
RUNDUNGEN
100
AcDbLine
 62
7
  6
CONTINUOUS
 10
140.4724860917
 20
241.2638796109
 11
140.4724860917
 21
222.8137361891
  0
LINE
  5
2A1
100
AcDbEntity
  8
RUNDUNGEN
100
AcDbLine
 62
7
  6
CONTINUOUS
 10
141.5224860917
 20
78.5686958391
 11
141.5224860917
 21
67.6084955566
  0
LINE
  5
2A2
100
AcDbEntity
  8
0
100
AcDbLine
 62
7
  6
CONTINUOUS
 10
125.7901555945
 20
74.9486254116
 11
125.7043713166
 21
74.3038848647
  0
LINE
  5
2A3
100
AcDbEntity
  8
0
100
AcDbLine
 62
7
  6
CONTINUOUS
 10
131.1849371515
 20
75.6869759292
 11
131.2707242544
 21
76.3317158996
  0
LINE
  5
2A4
100
AcDbEntity
  8
RUNDUNGEN
100
AcDbLine
 62
7
  6
CONTINUOUS
 10
182.9976938479
 20
93.7886718547
 11
190.7552176033
 21
86.0311480993
  0
LINE
  5
2A5
100
AcDbEntity
  8
0
100
AcDbLine
 62
7
  6
CONTINUOUS
 10
169.708581022
 20
75.5206829748
 11
167.645192823
 21
79.4837896465
  0
LINE
  5
2A6
100
AcDbEntity
  8
0
100
AcDbLine
 62
7
  6
CONTINUOUS
 10
171.3391641939
 20
79.9677931373
 11
172.2234733808
 21
78.2693189287
  0
LINE
  5
2A7
100
AcDbEntity
  8
0
100
AcDbLine
 62
7
  6
CONTINUOUS
 10
172.8887091297
 20
78.6156733692
 11
172.0043999428
 21
80.3141475777
  0
LINE
  5
2A8
100
AcDbEntity
  8
0
100
AcDbLine
 62
7
  6
CONTINUOUS
 10
161.5027084005
 20
77.8061378484
 11
162.9196358663
 21
74.1110461972
  0
LINE
  5
2A9
100
AcDbEntity
  8
0
100
AcDbLine
 62
7
  6
CONTINUOUS
 10
163.619915321
 20
74.3795768013
 11
162.2029878552
 21
78.0746684524
  0
LINE
  5
2AA
100
AcDbEntity
  8
0
100
AcDbLine
 62
7
  6
CONTINUOUS
 10
165.004105674
 20
79.1487908687
 11
166.4210331399
 21
75.4536992175
  0
LINE
  5
2AB
100
AcDbEntity
  8
0
100
AcDbLine
 62
7
  6
CONTINUOUS
 10
167.1213125946
 20
75.7222298215
 11
165.7043851287
 21
79.4173214727
  0
LINE
  5
2AC
100
AcDbEntity
  8
0
100
AcDbLine
 62
7
  6
CONTINUOUS
 10
155.9519270558
 20
76.2955322491
 11
157.4641376333
 21
70.4892236827
  0
LINE
  5
2AD
100
AcDbEntity
  8
0
100
AcDbLine
 62
7
  6
CONTINUOUS
 10
158.1899262041
 20
70.6782500049
 11
157.5142576386
 21
73.2725581246
  0
LINE
  5
2AE
100
AcDbEntity
  8
0
100
AcDbLine
 62
7
  6
CONTINUOUS
 10
157.3212095028
 20
74.013788917
 11
156.8385890731
 21
75.8668662443
  0
LINE
  5
2AF
100
AcDbEntity
  8
0
100
AcDbLine
 62
7
  6
CONTINUOUS
 10
160.0557544082
 20
75.9132446469
 11
160.1522785662
 21
75.5426289046
  0
LINE
  5
2B0
100
AcDbEntity
  8
0
100
AcDbLine
 62
7
  6
CONTINUOUS
 10
160.9102418263
 20
75.6081167614
 11
160.781542979
 21
76.1022709691
  0
LINE
  5
2B1
100
AcDbEntity
  8
RUNDUNGEN
100
AcDbLine
 62
7
  6
CONTINUOUS
 10
149.5224860917
 20
67.5457503226
 11
149.5224860917
 21
78.5686958391
  0
LINE
  5
2B2
100
AcDbEntity
  8
RUNDUNGEN
100
AcDbLine
 62
7
  6
CONTINUOUS
 10
150.5724860917
 20
222.8137250987
 11
150.5724860917
 21
241.2638796109
  0
LINE
  5
2B3
100
AcDbEntity
  8
BEZUGSACHSEN
100
AcDbLine
 62
7
  6
CONTINUOUS
 10
150.5724860917
 20
241.2638796109
 11
150.5724860917
 21
251.7637935295
  0
LINE
  5
2B4
100
AcDbEntity
  8
0
100
AcDbLine
 62
7
  6
CONTINUOUS
 10
132.6460723819
 20
76.8812603074
 11
131.3774846872
 21
71.0169031166
  0
LINE
  5
2B5
100
AcDbEntity
  8
0
100
AcDbLine
 62
7
  6
CONTINUOUS
 10
132.2724767009
 20
71.6069709964
 11
132.7043363469
 21
73.6033479366
  0
LINE
  5
2B6
100
AcDbEntity
  8
0
100
AcDbLine
 62
7
  6
CONTINUOUS
 10
132.8662836929
 20
74.3519891909
 11
133.2171696848
 21
75.9740455913
  0
LINE
  5
2B7
100
AcDbEntity
  8
0
100
AcDbLine
 62
7
  6
CONTINUOUS
 10
135.8808622265
 20
72.9161964703
 11
136.0428095724
 21
73.6648377246
  0
LINE
  5
2B8
100
AcDbEntity
  8
0
100
AcDbLine
 62
7
  6
CONTINUOUS
 10
135.7757525803
 20
70.0654623456
 11
135.9376999452
 21
70.8141036873
  0
LINE
  5
2B9
100
AcDbEntity
  8
0
100
AcDbLine
 62
7
  6
CONTINUOUS
 10
136.882392929
 20
75.1811782822
 11
137.044340275
 21
75.9298195364
  0
LINE
  5
2BA
100
AcDbEntity
  8
0
100
AcDbLine
 62
7
  6
CONTINUOUS
 10
126.4028007619
 20
76.7628699579
 11
125.7901555945
 21
74.9486254116
  0
LINE
  5
2BB
100
AcDbEntity
  8
0
100
AcDbLine
 62
7
  6
CONTINUOUS
 10
126.5007347268
 20
74.7086727148
 11
127.1133798943
 21
76.5229172611
  0
LINE
  5
2BC
100
AcDbEntity
  8
0
100
AcDbLine
 62
7
  6
CONTINUOUS
 10
125.4577841857
 20
79.4195340829
 11
123.1148764596
 21
73.8958773786
  0
LINE
  5
2BD
100
AcDbEntity
  8
0
100
AcDbLine
 62
7
  6
CONTINUOUS
 10
123.8053335476
 20
73.6030139128
 11
126.1482412738
 21
79.1266706171
  0
LINE
  5
2BE
100
AcDbEntity
  8
0
100
AcDbLine
 62
7
  6
CONTINUOUS
 10
113.2066204895
 20
81.7152567285
 11
112.9929888638
 21
81.3973979609
  0
LINE
  5
2BF
100
AcDbEntity
  8
0
100
AcDbLine
 62
7
  6
CONTINUOUS
 10
114.7345778008
 20
83.7645877982
 11
114.5209461752
 21
83.4467290306
  0
LINE
  5
2C0
100
AcDbEntity
  8
0
100
AcDbLine
 62
7
  6
CONTINUOUS
 10
113.5117171713
 20
81.0487627087
 11
113.7253487969
 21
81.3666214763
  0
LINE
  5
2C1
100
AcDbEntity
  8
0
100
AcDbLine
 62
7
  6
CONTINUOUS
 10
115.1108838372
 20
83.2040474989
 11
115.253304921
 21
83.415953344
  0
LINE
  5
2C2
100
AcDbEntity
  8
0
100
AcDbLine
 62
7
  6
CONTINUOUS
 10
101.4750931324
 20
92.633557338
 11
104.6425863167
 21
96.1103166794
  0
LINE
  5
2C3
100
AcDbEntity
  8
0
100
AcDbLine
 62
7
  6
CONTINUOUS
 10
103.4163675252
 20
95.8525544541
 11
100.0407286274
 21
92.2279326581
  0
LINE
  5
2C4
100
AcDbEntity
  8
0
100
AcDbLine
 62
7
  6
CONTINUOUS
 10
102.6156396435
 20
98.963645893
 11
98.3033458978
 21
94.6736432252
  0
LINE
  5
2C5
100
AcDbEntity
  8
0
100
AcDbLine
 62
7
  6
CONTINUOUS
 10
99.7377105064
 20
95.0792677594
 11
103.0499853518
 21
98.3522182148
  0
LINE
  5
2C6
100
AcDbEntity
  8
RUNDUNGEN
100
AcDbLine
 62
7
  6
CONTINUOUS
 10
191.3271606619
 20
179.9718619583
 11
180.4344611462
 21
170.2326645609
  0
LINE
  5
2C7
100
AcDbEntity
  8
RUNDUNGEN
100
AcDbLine
 62
7
  6
CONTINUOUS
 10
211.5224860917
 20
146.2638796109
 11
211.7829535483
 21
146.2638796109
  0
LINE
  5
2C8
100
AcDbEntity
  8
0
100
AcDbLine
 62
7
  6
CONTINUOUS
 10
173.0726078981
 20
77.9917904933
 11
172.8887091297
 21
78.6156733692
  0
LINE
  5
2C9
100
AcDbEntity
  8
0
100
AcDbLine
 62
7
  6
CONTINUOUS
 10
167.2331377901
 20
75.0814929602
 11
167.1213125946
 21
75.7222298215
  0
LINE
  5
2CA
100
AcDbEntity
  8
0
100
AcDbLine
 62
7
  6
CONTINUOUS
 10
160.1522785662
 20
75.5426289046
 11
160.1278397181
 21
75.140509602
  0
LINE
  5
2CB
100
AcDbEntity
  8
0
100
AcDbLine
 62
7
  6
CONTINUOUS
 10
160.8858029782
 20
75.2059974588
 11
160.9102418263
 21
75.6081167614
  0
LINE
  5
2CC
100
AcDbEntity
  8
0
100
AcDbLine
 62
7
  6
CONTINUOUS
 10
126.7254466721
 20
77.3276260011
 11
126.4028007619
 21
76.7628699579
  0
LINE
  5
2CD
100
AcDbEntity
  8
0
100
AcDbLine
 62
7
  6
CONTINUOUS
 10
117.7432000845
 20
81.7425046121
 11
117.6007790007
 21
81.5305987671
  0
LINE
  5
2CE
100
AcDbEntity
  8
0
100
AcDbLine
 62
7
  6
CONTINUOUS
 10
116.4227331463
 20
79.5537200799
 11
116.2091015206
 21
79.2358613123
  0
LINE
  5
2CF
100
AcDbEntity
  8
0
100
AcDbLine
 62
7
  6
CONTINUOUS
 10
118.048295579
 20
81.0760113903
 11
118.2619272047
 21
81.3938701579
  0
LINE
  5
2D0
100
AcDbEntity
  8
0
100
AcDbLine
 62
7
  6
CONTINUOUS
 10
116.7278310153
 20
78.8872252622
 11
116.941462641
 21
79.2050840297
  0
LINE
  5
2D1
100
AcDbEntity
  8
RUNDUNGEN
100
AcDbLine
 62
7
  6
CONTINUOUS
 10
191.9298163373
 20
166.1396422096
 11
200.0386943021
 21
173.6485455364
  0
LINE
  5
2D2
100
AcDbEntity
  8
0
100
AcDbLine
 62
7
  6
CONTINUOUS
 10
106.750076029
 20
93.3108332435
 11
102.3451299982
 21
89.2369591087
  0
LINE
  5
2D3
100
AcDbEntity
  8
0
100
AcDbLine
 62
7
  6
CONTINUOUS
 10
102.8543642651
 20
88.6863408549
 11
104.9162539133
 21
90.5932606781
  0
LINE
  5
2D4
100
AcDbEntity
  8
0
100
AcDbLine
 62
7
  6
CONTINUOUS
 10
105.4785873821
 20
91.1133296546
 11
107.2593102959
 21
92.7602149896
  0
LINE
  5
2D5
100
AcDbEntity
  8
0
100
AcDbLine
 62
7
  6
CONTINUOUS
 10
109.6357370364
 20
90.1906629633
 11
107.8550141226
 21
88.5437776283
  0
LINE
  5
2D6
100
AcDbEntity
  8
0
100
AcDbLine
 62
7
  6
CONTINUOUS
 10
107.2926806538
 20
88.0237086518
 11
105.2307910056
 21
86.1167888285
  0
LINE
  5
2D7
100
AcDbEntity
  8
0
100
AcDbLine
 62
7
  6
CONTINUOUS
 10
105.7400252724
 20
85.5661705747
 11
110.1449713032
 21
89.6400447095
  0
LINE
  5
2D8
100
AcDbEntity
  8
0
100
AcDbLine
 62
7
  6
CONTINUOUS
 10
101.7870008732
 20
100.5131774879
 11
96.6132687351
 21
97.4746752644
  0
LINE
  5
2D9
100
AcDbEntity
  8
0
100
AcDbLine
 62
7
  6
CONTINUOUS
 10
96.993081513
 20
96.8279587471
 11
102.1668136512
 21
99.8664609707
  0
LINE
  5
2DA
100
AcDbEntity
  8
RUNDUNGEN
100
AcDbLine
 62
7
  6
CONTINUOUS
 10
91.7712231048
 20
111.7000198295
 11
95.7207063211
 21
113.1375141609
  0
LINE
  5
2DB
100
AcDbEntity
  8
RUNDUNGEN
100
AcDbLine
 62
7
  6
CONTINUOUS
 10
203.5250547597
 20
115.2049752288
 11
195.0903224971
 21
121.6771729303
  0
LINE
  5
2DC
100
AcDbEntity
  8
RUNDUNGEN
100
AcDbLine
 62
7
  6
CONTINUOUS
 10
203.0339915892
 20
124.7327717343
 11
196.5903224971
 21
129.6771729303
  0
LINE
  5
2DD
100
AcDbEntity
  8
RUNDUNGEN
100
AcDbLine
 62
7
  6
CONTINUOUS
 10
190.10683136
 20
101.5088273508
 11
195.8624216257
 21
93.2889925852
  0
LINE
  5
2DE
100
AcDbEntity
  8
0
100
AcDbLine
 62
7
  6
CONTINUOUS
 10
172.2234733808
 20
78.2693189287
 11
172.3484182089
 21
77.7586676561
  0
LINE
  5
2DF
100
AcDbEntity
  8
0
100
AcDbLine
 62
7
  6
CONTINUOUS
 10
166.4210331399
 20
75.4536992175
 11
166.487151004
 21
74.9321588448
  0
LINE
  5
2E0
100
AcDbEntity
  8
0
100
AcDbLine
 62
7
  6
CONTINUOUS
 10
173.0866767591
 20
77.4234116397
 11
173.0726078981
 21
77.9917904933
  0
LINE
  5
2E1
100
AcDbEntity
  8
BEZUGSACHSEN
100
AcDbLine
 62
7
  6
CONTINUOUS
 10
170.5224860917
 20
251.7637939949
 11
170.5224860917
 21
241.2638796109
  0
LINE
  5
2E2
100
AcDbEntity
  8
RUNDUNGEN
100
AcDbLine
 62
7
  6
CONTINUOUS
 10
170.5224860917
 20
241.2638796109
 11
170.5224860917
 21
204.6284062612
  0
LINE
  5
2E3
100
AcDbEntity
  8
0
100
AcDbLine
 62
7
  6
CONTINUOUS
 10
167.1825388819
 20
74.5151960375
 11
167.2331377901
 21
75.0814929602
  0
LINE
  5
2E4
100
AcDbEntity
  8
0
100
AcDbLine
 62
7
  6
CONTINUOUS
 10
129.9229048115
 20
72.3403776775
 11
130.2455479252
 21
72.9051343819
  0
LINE
  5
2E5
100
AcDbEntity
  8
0
100
AcDbLine
 62
7
  6
CONTINUOUS
 10
127.1133798943
 20
76.5229172611
 11
127.3951826826
 21
76.9667233404
  0
LINE
  5
2E6
100
AcDbEntity
  8
0
100
AcDbLine
 62
7
  6
CONTINUOUS
 10
129.5349687928
 20
73.1450870787
 11
129.2940117225
 21
72.8222297092
  0
LINE
  5
2E7
100
AcDbEntity
  8
RUNDUNGEN
100
AcDbLine
 62
7
  6
CONTINUOUS
 10
203.1461055339
 20
149.7664098639
 11
195.5326126101
 21
143.9243712706
  0
LINE
  5
2E8
100
AcDbEntity
  8
0
100
AcDbLine
 62
7
  6
CONTINUOUS
 10
105.656059498
 20
94.6836522912
 11
101.4750931324
 21
92.633557338
  0
LINE
  5
2E9
100
AcDbEntity
  8
0
100
AcDbLine
 62
7
  6
CONTINUOUS
 10
100.6198563075
 20
91.4126956566
 11
106.0904052062
 21
94.072224613
  0
LINE
  5
2EA
100
AcDbEntity
  8
0
100
AcDbLine
 62
7
  6
CONTINUOUS
 10
98.8824734744
 20
93.8584063695
 11
103.4163675252
 21
95.8525544541
  0
LINE
  5
2EB
100
AcDbEntity
  8
0
100
AcDbLine
 62
7
  6
CONTINUOUS
 10
104.0634586366
 20
96.9255536808
 11
99.7377105064
 21
95.0792677594
  0
LINE
  5
2EC
100
AcDbEntity
  8
RUNDUNGEN
100
AcDbLine
 62
7
  6
CONTINUOUS
 10
191.779487274
 20
155.5936405059
 11
202.3512322688
 21
153.3079483331
  0
LINE
  5
2ED
100
AcDbEntity
  8
RUNDUNGEN
100
AcDbLine
 62
7
  6
CONTINUOUS
 10
206.4865721328
 20
159.7724894299
 11
192.8660493529
 21
162.717350692
  0
LINE
  5
2EE
100
AcDbEntity
  8
BEZUGSACHSEN
100
AcDbLine
 62
7
  6
CONTINUOUS
 10
139.9021216743
 20
194.5613912338
 11
123.0677273185
 21
213.3896367005
  0
LINE
  5
2EF
100
AcDbEntity
  8
RUNDUNGEN
100
AcDbLine
 62
7
  6
CONTINUOUS
 10
173.8505740788
 20
156.5921134814
 11
123.0677273185
 21
213.3896367005
  0
LINE
  5
2F0
100
AcDbEntity
  8
0
100
AcDbLine
 62
7
  6
CONTINUOUS
 10
172.3484182089
 20
77.7586676561
 11
172.3035330884
 21
77.3035204852
  0
LINE
  5
2F1
100
AcDbEntity
  8
0
100
AcDbLine
 62
7
  6
CONTINUOUS
 10
166.487151004
 20
74.9321588448
 11
166.3908447324
 21
74.4850584944
  0
LINE
  5
2F2
100
AcDbEntity
  8
0
100
AcDbLine
 62
7
  6
CONTINUOUS
 10
160.65160745
 20
74.6173304361
 11
160.8858029782
 21
75.2059974588
  0
LINE
  5
2F3
100
AcDbEntity
  8
0
100
AcDbLine
 62
7
  6
CONTINUOUS
 10
127.1256775087
 20
77.7314405745
 11
126.7254466721
 21
77.3276260011
  0
LINE
  5
2F4
100
AcDbEntity
  8
RUNDUNGEN
100
AcDbLine
 62
7
  6
CONTINUOUS
 10
196.5903224971
 20
132.8505862915
 11
203.0339915892
 21
137.7949874875
  0
LINE
  5
2F5
100
AcDbEntity
  8
0
100
AcDbLine
 62
7
  6
CONTINUOUS
 10
115.2981210829
 20
84.1548992451
 11
114.7345778008
 21
83.7645877982
  0
LINE
  5
2F6
100
AcDbEntity
  8
0
100
AcDbLine
 62
7
  6
CONTINUOUS
 10
113.7701648591
 20
82.1055672291
 11
113.2066204895
 21
81.7152567285
  0
LINE
  5
2F7
100
AcDbEntity
  8
0
100
AcDbLine
 62
7
  6
CONTINUOUS
 10
116.1642855083
 20
78.4969156338
 11
116.7278310153
 21
78.8872252622
  0
LINE
  5
2F8
100
AcDbEntity
  8
0
100
AcDbLine
 62
7
  6
CONTINUOUS
 10
117.5559630383
 20
80.7916531627
 11
118.048295579
 21
81.0760113903
  0
LINE
  5
2F9
100
AcDbEntity
  8
0
100
AcDbLine
 62
7
  6
CONTINUOUS
 10
172.8790037334
 20
76.7395831072
 11
173.0866767591
 21
77.4234116397
  0
LINE
  5
2FA
100
AcDbEntity
  8
0
100
AcDbLine
 62
7
  6
CONTINUOUS
 10
166.8985170347
 20
73.8593903211
 11
167.1825388819
 21
74.5151960375
  0
LINE
  5
2FB
100
AcDbEntity
  8
0
100
AcDbLine
 62
7
  6
CONTINUOUS
 10
160.1278397181
 20
75.140509602
 11
159.9502577274
 21
74.8304234164
  0
LINE
  5
2FC
100
AcDbEntity
  8
0
100
AcDbLine
 62
7
  6
CONTINUOUS
 10
127.3951826826
 20
76.9667233404
 11
127.7545706263
 21
77.2495886274
  0
LINE
  5
2FD
100
AcDbEntity
  8
0
100
AcDbLine
 62
7
  6
CONTINUOUS
 10
127.7627698632
 20
78.0552703053
 11
127.1256775087
 21
77.7314405745
  0
LINE
  5
2FE
100
AcDbEntity
  8
0
100
AcDbLine
 62
7
  6
CONTINUOUS
 10
115.253304921
 20
83.415953344
 11
115.6744283066
 21
83.5943581479
  0
LINE
  5
2FF
100
AcDbEntity
  8
0
100
AcDbLine
 62
7
  6
CONTINUOUS
 10
117.6007790007
 20
81.5305987671
 11
117.1796546273
 21
81.3521950579
  0
LINE
  5
300
100
AcDbEntity
  8
0
100
AcDbLine
 62
7
  6
CONTINUOUS
 10
113.7253487969
 20
81.3666214763
 11
114.3214278112
 21
81.5812523231
  0
LINE
  5
301
100
AcDbEntity
  8
0
100
AcDbLine
 62
7
  6
CONTINUOUS
 10
116.2091015206
 20
79.2358613123
 11
115.6130225562
 21
79.0212305398
  0
LINE
  5
302
100
AcDbEntity
  8
RUNDUNGEN
100
AcDbLine
 62
7
  6
CONTINUOUS
 10
163.4185910383
 20
191.2638796109
 11
175.4451697624
 21
191.2638796109
  0
LINE
  5
303
100
AcDbEntity
  8
RUNDUNGEN
100
AcDbLine
 62
7
  6
CONTINUOUS
 10
177.6104442063
 20
170.3905516198
 11
161.927639039
 21
187.9308146704
  0
LINE
  5
304
100
AcDbEntity
  8
RUNDUNGEN
100
AcDbLine
 62
7
  6
CONTINUOUS
 10
192.4357045105
 20
144.8270376646
 11
189.4774524395
 21
152.9547684307
  0
LINE
  5
305
100
AcDbEntity
  8
RUNDUNGEN
100
AcDbLine
 62
7
  6
CONTINUOUS
 10
192.025040574
 20
120.8558331145
 11
188.926203596
 21
113.3745788544
  0
LINE
  5
306
100
AcDbEntity
  8
0
100
AcDbLine
 62
7
  6
CONTINUOUS
 10
172.3035330884
 20
77.3035204852
 11
172.0888231358
 21
76.903879979
  0
LINE
  5
307
100
AcDbEntity
  8
0
100
AcDbLine
 62
7
  6
CONTINUOUS
 10
166.3908447324
 20
74.4850584944
 11
166.1321196999
 21
74.1124001315
  0
LINE
  5
308
100
AcDbEntity
  8
0
100
AcDbLine
 62
7
  6
CONTINUOUS
 10
129.2858124427
 20
72.0165479042
 11
129.9229048115
 21
72.3403776775
  0
LINE
  5
309
100
AcDbEntity
  8
RUNDUNGEN
100
AcDbLine
 62
7
  6
CONTINUOUS
 10
176.3902712921
 20
191.0264865151
 11
190.9391972512
 21
183.2254208618
  0
LINE
  5
30A
100
AcDbEntity
  8
RUNDUNGEN
100
AcDbLine
 62
7
  6
CONTINUOUS
 10
206.2515144473
 20
136.2082808069
 11
206.2515144473
 21
126.3194784149
  0
LINE
  5
30B
100
AcDbEntity
  8
RUNDUNGEN
100
AcDbLine
 62
7
  6
CONTINUOUS
 10
210.5224860917
 20
117.2638796109
 11
210.5224860917
 21
145.2638796109
  0
LINE
  5
30C
100
AcDbEntity
  8
0
100
AcDbLine
 62
7
  6
CONTINUOUS
 10
172.553422822
 20
76.2822177913
 11
172.8790037334
 21
76.7395831072
  0
LINE
  5
30D
100
AcDbEntity
  8
0
100
AcDbLine
 62
7
  6
CONTINUOUS
 10
166.5230805206
 20
73.4419775926
 11
166.8985170347
 21
73.8593903211
  0
LINE
  5
30E
100
AcDbEntity
  8
0
100
AcDbLine
 62
7
  6
CONTINUOUS
 10
172.0888231358
 20
76.903879979
 11
171.7042882686
 21
76.5597462962
  0
LINE
  5
30F
100
AcDbEntity
  8
0
100
AcDbLine
 62
7
  6
CONTINUOUS
 10
160.2320996272
 20
74.2442364379
 11
160.65160745
 21
74.6173304361
  0
LINE
  5
310
100
AcDbEntity
  8
0
100
AcDbLine
 62
7
  6
CONTINUOUS
 10
172.0580119516
 20
75.8803565969
 11
172.553422822
 21
76.2822177913
  0
LINE
  5
311
100
AcDbEntity
  8
0
100
AcDbLine
 62
7
  6
CONTINUOUS
 10
166.1321196999
 20
74.1124001315
 11
165.7109758424
 21
73.8141839229
  0
LINE
  5
312
100
AcDbEntity
  8
0
100
AcDbLine
 62
7
  6
CONTINUOUS
 10
159.9502577274
 20
74.8304234164
 11
159.6195381313
 21
74.6123717899
  0
LINE
  5
313
100
AcDbEntity
  8
0
100
AcDbLine
 62
7
  6
CONTINUOUS
 10
165.9852198628
 20
73.0990049071
 11
166.5230805206
 21
73.4419775926
  0
LINE
  5
314
100
AcDbEntity
  8
0
100
AcDbLine
 62
7
  6
CONTINUOUS
 10
169.2871764279
 20
81.2022425878
 11
166.6262334324
 21
79.816824826
  0
LINE
  5
315
100
AcDbEntity
  8
0
100
AcDbLine
 62
7
  6
CONTINUOUS
 10
167.645192823
 20
79.4837896465
 11
169.6409000696
 21
80.5228529679
  0
LINE
  5
316
100
AcDbEntity
  8
0
100
AcDbLine
 62
7
  6
CONTINUOUS
 10
165.7043851287
 20
79.4173214727
 11
165.004105674
 21
79.1487908687
  0
LINE
  5
317
100
AcDbEntity
  8
0
100
AcDbLine
 62
7
  6
CONTINUOUS
 10
162.2029878552
 20
78.0746684524
 11
161.5027084005
 21
77.8061378484
  0
LINE
  5
318
100
AcDbEntity
  8
0
100
AcDbLine
 62
7
  6
CONTINUOUS
 10
169.900495184
 20
81.3776405657
 11
169.2871764279
 21
81.2022425878
  0
LINE
  5
319
100
AcDbEntity
  8
RUNDUNGEN
100
AcDbLine
 62
7
  6
CONTINUOUS
 10
203.1667388611
 20
173.1138590881
 11
208.6783836762
 21
162.6600944991
  0
LINE
  5
31A
100
AcDbEntity
  8
RUNDUNGEN
100
AcDbLine
 62
7
  6
CONTINUOUS
 10
199.0328146005
 20
93.1505702385
 11
206.9325345284
 21
102.565089843
  0
LINE
  5
31B
100
AcDbEntity
  8
0
100
AcDbLine
 62
7
  6
CONTINUOUS
 10
171.7042882686
 20
76.5597462962
 11
169.708581022
 21
75.5206829748
  0
LINE
  5
31C
100
AcDbEntity
  8
0
100
AcDbLine
 62
7
  6
CONTINUOUS
 10
169.3970689561
 20
74.494938835
 11
172.0580119516
 21
75.8803565969
  0
LINE
  5
31D
100
AcDbEntity
  8
0
100
AcDbLine
 62
7
  6
CONTINUOUS
 10
165.7109758424
 20
73.8141839229
 11
165.2441246535
 21
73.6351642032
  0
LINE
  5
31E
100
AcDbEntity
  8
0
100
AcDbLine
 62
7
  6
CONTINUOUS
 10
165.5183686739
 20
72.9199851874
 11
165.9852198628
 21
73.0990049071
  0
LINE
  5
31F
100
AcDbEntity
  8
BEZUGSACHSEN
100
AcDbLine
 62
7
  6
CONTINUOUS
 10
140.4724860917
 20
236.1138796109
 11
150.5724860917
 21
236.1138796109
  0
LINE
  5
320
100
AcDbEntity
  8
BEZUGSACHSEN
100
AcDbLine
 62
7
  6
CONTINUOUS
 10
140.4724860917
 20
247.4138796109
 11
150.5724860917
 21
247.4138796109
  0
LINE
  5
321
100
AcDbEntity
  8
RUNDUNGEN
100
AcDbLine
 62
7
  6
CONTINUOUS
 10
124.5224860195
 20
255.7638796109
 11
136.4724860917
 21
255.7638796109
  0
LINE
  5
322
100
AcDbEntity
  8
RUNDUNGEN
100
AcDbLine
 62
7
  6
CONTINUOUS
 10
154.5724860917
 20
255.7638796109
 11
166.5224860917
 21
255.7638796109
  0
LWPOLYLINE
  5
323
100
AcDbEntity
  8
BEZUGSACHSEN
100
AcDbPolyline
 62
7
  6
CONTINUOUS
 90
20
 70
0
 10
124.398947767
 20
255.7619854119
 10
124.0744907883
 20
255.7388848504
 10
123.7531029127
 20
255.6896669027
 10
123.436931568
 20
255.6146655824
 10
123.1280789982
 20
255.514398841
 10
122.8285695464
 20
255.3895523421
 10
122.5403875056
 20
255.240990885
 10
122.2653876957
 20
255.0697139359
 10
122.0053575465
 20
254.8768793219
 10
121.7619668975
 20
254.6637716733
 10
121.5367841699
 20
254.4318106644
 10
121.3312542747
 20
254.182532009
 10
121.1466980222
 20
253.917586285
 10
120.9842938353
 20
253.6387147043
 10
120.8450815825
 20
253.3477530236
 10
120.7299462872
 20
253.0466005453
 10
120.6396228912
 20
252.7372258211
 10
120.5746879645
 20
252.4216460373
 10
120.5355572086
 20
252.1019100689
 10
120.5224860917
 20
251.7801363021
  0
LWPOLYLINE
  5
324
100
AcDbEntity
  8
RUNDUNGEN
100
AcDbPolyline
 62
7
  6
CONTINUOUS
 90
19
 70
0
 10
124.5224982217
 20
255.7638796045
 10
124.3478923267
 20
255.7600950187
 10
123.9888195555
 20
255.7283597562
 10
123.6342111224
 20
255.6646291217
 10
123.2869740855
 20
255.5694363739
 10
122.9499448696
 20
255.4435907115
 10
122.6258248408
 20
255.2881450431
 10
122.3172413481
 20
255.1044150214
 10
122.0266252116
 20
254.8939101142
 10
121.7562855209
 20
254.6583644648
 10
121.5083550234
 20
254.3996995982
 10
121.2847938509
 20
254.1200249814
 10
121.0873597592
 20
253.8216055786
 10
120.9176086853
 20
253.5068614757
 10
120.7768666169
 20
253.1783198157
 10
120.6662375231
 20
252.8386227759
 10
120.5865876671
 20
252.4904914142
 10
120.5385424809
 20
252.1367030445
 10
120.5224860917
 20
251.7801363021
  0
LINE
  5
325
100
AcDbEntity
  8
BEZUGSACHSEN
100
AcDbLine
 62
7
  6
CONTINUOUS
 10
124.5224959973
 20
255.7638796056
 11
124.398947767
 21
255.7619854119
  0
LWPOLYLINE
  5
326
100
AcDbEntity
  8
RUNDUNGEN
100
AcDbPolyline
 62
7
  6
CONTINUOUS
 90
16
 70
0
 10
321.7537338957
 20
56.2638798029
 10
322.0292391761
 20
56.269615159
 10
322.4905135395
 20
56.3050063699
 10
322.9468127147
 20
56.3722687778
 10
323.3944590229
 20
56.4703961583
 10
323.8304451952
 20
56.5979850581
 10
324.2520454613
 20
56.7532687941
 10
324.6568484479
 20
56.9341723101
 10
325.0424700847
 20
57.1381905803
 10
325.4071939691
 20
57.3627196055
 10
325.7487164859
 20
57.6042888079
 10
326.0654240387
 20
57.8592255324
 10
326.3564324644
 20
58.1238529183
 10
326.6213505142
 20
58.3944443786
 10
326.8599247857
 20
58.6669045661
 10
327.0808219089
 20
58.9484766761
  0
LINE
  5
327
100
AcDbEntity
  8
0
100
AcDbLine
 62
7
  6
CONTINUOUS
 10
316.8035395864
 20
56.2638796109
 11
321.7539990576
 21
56.2638796109
  0
LINE
  5
328
100
AcDbEntity
  8
BEZUGSACHSEN
100
AcDbLine
 62
7
  6
CONTINUOUS
 10
302.0021614146
 20
220.7984725626
 11
304.0552361521
 21
223.7305671566
  0
LWPOLYLINE
  5
329
100
AcDbEntity
  8
BEZUGSACHSEN
100
AcDbPolyline
 62
7
  6
CONTINUOUS
 90
16
 70
0
 10
311.4767061521
 20
58.9484909363
 10
311.6964949115
 20
58.6682550861
 10
311.9343135346
 20
58.3964722028
 10
312.1983564003
 20
58.1265077024
 10
312.4883931112
 20
57.862416069
 10
312.8040378579
 20
57.6079077333
 10
313.1444224861
 20
57.3666390493
 10
313.5079496658
 20
57.1422679884
 10
313.892331739
 20
56.938255583
 10
314.295888011
 20
56.7571900484
 10
314.716271801
 20
56.6015694298
 10
315.151099649
 20
56.4734721487
 10
315.597676508
 20
56.3746729093
 10
316.0530253905
 20
56.3065891961
 10
316.5135031631
 20
56.270248047
 10
316.8038047032
 20
56.2638798028
  0
LINE
  5
32A
100
AcDbEntity
  8
BEZUGSACHSEN
100
AcDbLine
 62
7
  6
CONTINUOUS
 10
311.476706119
 20
58.9484909113
 11
311.4687211041
 21
58.9592732993
  0
LINE
  5
32B
100
AcDbEntity
  8
RUNDUNGEN
100
AcDbLine
 62
7
  6
CONTINUOUS
 10
331.5831837699
 20
201.0682940588
 11
336.1071965943
 21
205.5923068833
  0
LWPOLYLINE
  5
32C
100
AcDbEntity
  8
BEZUGSACHSEN
100
AcDbPolyline
 62
7
  6
CONTINUOUS
 90
17
 70
0
 10
310.2230579415
 20
61.8644483457
 10
310.245486664
 20
61.7550768961
 10
310.2703207922
 20
61.6407166913
 10
310.2983415101
 20
61.5193603357
 10
310.3303882325
 20
61.3894149662
 10
310.3676015931
 20
61.2488211898
 10
310.4114793912
 20
61.0951716266
 10
310.4631971268
 20
60.9281532542
 10
310.5245972133
 20
60.7461229324
 10
310.596552001
 20
60.5510038321
 10
310.6802297232
 20
60.3439367757
 10
310.7768137096
 20
60.1261513763
 10
310.8867655107
 20
59.9003737243
 10
311.0131535152
 20
59.6642276962
 10
311.158528062
 20
59.4175219956
 10
311.3267580931
 20
59.1589285428
 10
311.4687211041
 20
58.9592732993
  0
LINE
  5
32D
100
AcDbEntity
  8
BEZUGSACHSEN
100
AcDbLine
 62
7
  6
CONTINUOUS
 10
309.4862839205
 20
65.6075681707
 11
310.2230579415
 21
61.8644483457
  0
LINE
  5
32E
100
AcDbEntity
  8
BEZUGSACHSEN
100
AcDbLine
 62
7
  6
CONTINUOUS
 10
305.625729572
 20
85.5318720061
 11
305.6451272301
 21
85.3503656451
  0
LINE
  5
32F
100
AcDbEntity
  8
BEZUGSACHSEN
100
AcDbLine
 62
7
  6
CONTINUOUS
 10
305.6056681129
 20
85.7309200529
 11
305.625729572
 21
85.5318720061
  0
LINE
  5
330
100
AcDbEntity
  8
BEZUGSACHSEN
100
AcDbLine
 62
7
  6
CONTINUOUS
 10
305.5846209929
 20
85.9516775101
 11
305.6056681129
 21
85.7309200529
  0
LINE
  5
331
100
AcDbEntity
  8
BEZUGSACHSEN
100
AcDbLine
 62
7
  6
CONTINUOUS
 10
305.5623661575
 20
86.1980859521
 11
305.5846209929
 21
85.9516775101
  0
LINE
  5
332
100
AcDbEntity
  8
BEZUGSACHSEN
100
AcDbLine
 62
7
  6
CONTINUOUS
 10
305.5387460466
 20
86.474120197
 11
305.5623661575
 21
86.1980859521
  0
LINE
  5
333
100
AcDbEntity
  8
BEZUGSACHSEN
100
AcDbLine
 62
7
  6
CONTINUOUS
 10
305.5136651925
 20
86.7837746411
 11
305.5387460466
 21
86.474120197
  0
LINE
  5
334
100
AcDbEntity
  8
BEZUGSACHSEN
100
AcDbLine
 62
7
  6
CONTINUOUS
 10
305.4871305266
 20
87.1305073426
 11
305.5136651925
 21
86.7837746411
  0
LINE
  5
335
100
AcDbEntity
  8
BEZUGSACHSEN
100
AcDbLine
 62
7
  6
CONTINUOUS
 10
305.4592292309
 20
87.5173952826
 11
305.4871305266
 21
87.1305073426
  0
LINE
  5
336
100
AcDbEntity
  8
BEZUGSACHSEN
100
AcDbLine
 62
7
  6
CONTINUOUS
 10
305.4301017373
 20
87.9474438781
 11
305.4592292309
 21
87.5173952826
  0
LINE
  5
337
100
AcDbEntity
  8
BEZUGSACHSEN
100
AcDbLine
 62
7
  6
CONTINUOUS
 10
305.3999679118
 20
88.423171201
 11
305.4301017373
 21
87.9474438781
  0
LINE
  5
338
100
AcDbEntity
  8
BEZUGSACHSEN
100
AcDbLine
 62
7
  6
CONTINUOUS
 10
305.0042849637
 20
95.5643720349
 11
305.2284958772
 21
92.0243692185
  0
LINE
  5
339
100
AcDbEntity
  8
BEZUGSACHSEN
100
AcDbLine
 62
7
  6
CONTINUOUS
 10
305.3691203455
 20
88.9465830793
 11
305.3999679118
 21
88.423171201
  0
LINE
  5
33A
100
AcDbEntity
  8
BEZUGSACHSEN
100
AcDbLine
 62
7
  6
CONTINUOUS
 10
304.7742217245
 20
99.4801055356
 11
305.0042849637
 21
95.5643720349
  0
LINE
  5
33B
100
AcDbEntity
  8
BEZUGSACHSEN
100
AcDbLine
 62
7
  6
CONTINUOUS
 10
305.3379038582
 20
89.5193997645
 11
305.3691203455
 21
88.9465830793
  0
LINE
  5
33C
100
AcDbEntity
  8
BEZUGSACHSEN
100
AcDbLine
 62
7
  6
CONTINUOUS
 10
304.5623827033
 20
103.3987012762
 11
304.7742217245
 21
99.4801055356
  0
LINE
  5
33D
100
AcDbEntity
  8
BEZUGSACHSEN
100
AcDbLine
 62
7
  6
CONTINUOUS
 10
305.3067112776
 20
90.1430666262
 11
305.3379038582
 21
89.5193997645
  0
LINE
  5
33E
100
AcDbEntity
  8
BEZUGSACHSEN
100
AcDbLine
 62
7
  6
CONTINUOUS
 10
304.3624182668
 20
107.4553167652
 11
304.5623827033
 21
103.3987012762
  0
LINE
  5
33F
100
AcDbEntity
  8
BEZUGSACHSEN
100
AcDbLine
 62
7
  6
CONTINUOUS
 10
305.2759816567
 20
90.8187128128
 11
305.3067112776
 21
90.1430666262
  0
LINE
  5
340
100
AcDbEntity
  8
BEZUGSACHSEN
100
AcDbLine
 62
7
  6
CONTINUOUS
 10
304.2054611411
 20
110.9696182865
 11
304.3624182668
 21
107.4553167652
  0
LINE
  5
341
100
AcDbEntity
  8
BEZUGSACHSEN
100
AcDbLine
 62
7
  6
CONTINUOUS
 10
304.0519307144
 20
114.8126503525
 11
304.2054611411
 21
110.9696182865
  0
LWPOLYLINE
  5
342
100
AcDbEntity
  8
BEZUGSACHSEN
100
AcDbPolyline
 62
7
  6
CONTINUOUS
 90
3
 70
0
 10
305.2365160565
 20
91.803115415
 10
305.246172995
 20
91.5477376068
 10
305.2759816567
 20
90.8187128128
  0
LINE
  5
343
100
AcDbEntity
  8
BEZUGSACHSEN
100
AcDbLine
 62
7
  6
CONTINUOUS
 10
303.9276506744
 20
118.3747481968
 11
304.0519307144
 21
114.8126503525
  0
LINE
  5
344
100
AcDbEntity
  8
BEZUGSACHSEN
100
AcDbLine
 62
7
  6
CONTINUOUS
 10
303.8331228411
 20
121.5339645061
 11
303.9276506744
 21
118.3747481968
  0
LWPOLYLINE
  5
345
100
AcDbEntity
  8
BEZUGSACHSEN
100
AcDbPolyline
 62
7
  6
CONTINUOUS
 90
3
 70
0
 10
303.7508913608
 20
124.8655512123
 10
303.7661355597
 20
124.1856140488
 10
303.8331228411
 20
121.5339645061
  0
LINE
  5
346
100
AcDbEntity
  8
BEZUGSACHSEN
100
AcDbLine
 62
7
  6
CONTINUOUS
 10
301.278769322
 20
208.4207335213
 11
301.278769322
 21
218.5041664318
  0
LWPOLYLINE
  5
347
100
AcDbEntity
  8
BEZUGSACHSEN
100
AcDbPolyline
 62
7
  6
CONTINUOUS
 90
12
 70
0
 10
304.651768013
 20
159.4830755425
 10
304.5701287223
 20
158.6801633711
 10
304.4930655297
 20
157.8713569632
 10
304.4203830642
 20
157.0572710297
 10
304.3519082564
 20
156.2386087141
 10
304.2874807338
 20
155.4160808193
 10
304.2269454373
 20
154.5903409905
 10
304.1701563394
 20
153.7620396361
 10
304.1169728033
 20
152.931778197
 10
304.0672612471
 20
152.1001469488
 10
304.020892823
 20
151.267696231
 10
303.9376955504
 20
149.6024099902
  0
LINE
  5
348
100
AcDbEntity
  8
BEZUGSACHSEN
100
AcDbLine
 62
7
  6
CONTINUOUS
 10
305.4795890922
 20
167.1339534745
 11
304.651768013
 21
159.4830755425
  0
LWPOLYLINE
  5
349
100
AcDbEntity
  8
BEZUGSACHSEN
100
AcDbPolyline
 62
7
  6
CONTINUOUS
 90
9
 70
0
 10
305.7052577162
 20
84.8616858188
 10
305.713262976
 20
84.8053380464
 10
305.7219709086
 20
84.7462725417
 10
305.7316493439
 20
84.6832306886
 10
305.7425530105
 20
84.6152978975
 10
305.7551355399
 20
84.5406544543
 10
305.7698887367
 20
84.4577473213
 10
305.787439519
 20
84.3648318738
 10
306.5410976487
 20
80.552294263
  0
LINE
  5
34A
100
AcDbEntity
  8
BEZUGSACHSEN
100
AcDbLine
 62
7
  6
CONTINUOUS
 10
305.6906936308
 20
84.9694099618
 11
305.7052577162
 21
84.8616858188
  0
LINE
  5
34B
100
AcDbEntity
  8
BEZUGSACHSEN
100
AcDbLine
 62
7
  6
CONTINUOUS
 10
305.6772309002
 20
85.0750786594
 11
305.6906936308
 21
84.9694099618
  0
LINE
  5
34C
100
AcDbEntity
  8
BEZUGSACHSEN
100
AcDbLine
 62
7
  6
CONTINUOUS
 10
305.6642832347
 20
85.1822124553
 11
305.6772309002
 21
85.0750786594
  0
LWPOLYLINE
  5
34D
100
AcDbEntity
  8
BEZUGSACHSEN
100
AcDbPolyline
 62
7
  6
CONTINUOUS
 90
3
 70
0
 10
305.6451272301
 20
85.3503656451
 10
305.6515140986
 20
85.2930480455
 10
305.6642832347
 20
85.1822124553
  0
LINE
  5
34E
100
AcDbEntity
  8
BEZUGSACHSEN
100
AcDbLine
 62
7
  6
CONTINUOUS
 10
305.2086266029
 20
92.6081784062
 11
305.2365160565
 21
91.803115415
  0
LINE
  5
34F
100
AcDbEntity
  8
BEZUGSACHSEN
100
AcDbLine
 62
7
  6
CONTINUOUS
 10
305.182774951
 20
93.474513758
 11
305.2086266029
 21
92.6081784062
  0
LINE
  5
350
100
AcDbEntity
  8
BEZUGSACHSEN
100
AcDbLine
 62
7
  6
CONTINUOUS
 10
305.1595688631
 20
94.4059887927
 11
305.182774951
 21
93.474513758
  0
LINE
  5
351
100
AcDbEntity
  8
BEZUGSACHSEN
100
AcDbLine
 62
7
  6
CONTINUOUS
 10
305.1397151707
 20
95.4066545569
 11
305.1595688631
 21
94.4059887927
  0
LINE
  5
352
100
AcDbEntity
  8
BEZUGSACHSEN
100
AcDbLine
 62
7
  6
CONTINUOUS
 10
303.6972171344
 20
127.6518662708
 11
303.7508913608
 21
124.8655512123
  0
LINE
  5
353
100
AcDbEntity
  8
BEZUGSACHSEN
100
AcDbLine
 62
7
  6
CONTINUOUS
 10
303.6660186571
 20
129.8095865566
 11
303.6972171344
 21
127.6518662708
  0
LINE
  5
354
100
AcDbEntity
  8
BEZUGSACHSEN
100
AcDbLine
 62
7
  6
CONTINUOUS
 10
305.1240333957
 20
96.4807337119
 11
305.1397151707
 21
95.4066545569
  0
LINE
  5
355
100
AcDbEntity
  8
BEZUGSACHSEN
100
AcDbLine
 62
7
  6
CONTINUOUS
 10
303.6442670611
 20
132.0235915209
 11
303.6660186571
 21
129.8095865566
  0
LINE
  5
356
100
AcDbEntity
  8
BEZUGSACHSEN
100
AcDbLine
 62
7
  6
CONTINUOUS
 10
305.1134709575
 20
97.6325823154
 11
305.1240333957
 21
96.4807337119
  0
LINE
  5
357
100
AcDbEntity
  8
BEZUGSACHSEN
100
AcDbLine
 62
7
  6
CONTINUOUS
 10
303.6335755424
 20
134.2911708857
 11
303.6442670611
 21
132.0235915209
  0
LINE
  5
358
100
AcDbEntity
  8
BEZUGSACHSEN
100
AcDbLine
 62
7
  6
CONTINUOUS
 10
305.109119223
 20
98.8666700993
 11
305.1134709575
 21
97.6325823154
  0
LINE
  5
359
100
AcDbEntity
  8
BEZUGSACHSEN
100
AcDbLine
 62
7
  6
CONTINUOUS
 10
304.778769322
 20
226.0250761039
 11
304.778769322
 21
241.2638817667
  0
LINE
  5
35A
100
AcDbEntity
  8
BEZUGSACHSEN
100
AcDbLine
 62
7
  6
CONTINUOUS
 10
303.6355106612
 20
136.6089170395
 11
303.6335755424
 21
134.2911708857
  0
LINE
  5
35B
100
AcDbEntity
  8
BEZUGSACHSEN
100
AcDbLine
 62
7
  6
CONTINUOUS
 10
303.6446494232
 20
138.1798825292
 11
303.6355106612
 21
136.6089170395
  0
LINE
  5
35C
100
AcDbEntity
  8
BEZUGSACHSEN
100
AcDbLine
 62
7
  6
CONTINUOUS
 10
305.1178847519
 20
100.9807295895
 11
305.109119223
 21
98.8666700993
  0
LINE
  5
35D
100
AcDbEntity
  8
BEZUGSACHSEN
100
AcDbLine
 62
7
  6
CONTINUOUS
 10
305.118218534
 20
101.0183658333
 11
305.1178852714
 21
100.980786176
  0
LINE
  5
35E
100
AcDbEntity
  8
BEZUGSACHSEN
100
AcDbLine
 62
7
  6
CONTINUOUS
 10
303.6606988084
 20
139.7697015463
 11
303.6446494232
 21
138.1798825292
  0
LINE
  5
35F
100
AcDbEntity
  8
BEZUGSACHSEN
100
AcDbLine
 62
7
  6
CONTINUOUS
 10
303.684240312
 20
141.3766934339
 11
303.6606988084
 21
139.7697015463
  0
LINE
  5
360
100
AcDbEntity
  8
BEZUGSACHSEN
100
AcDbLine
 62
7
  6
CONTINUOUS
 10
303.7158967705
 20
142.9992010512
 11
303.684240312
 21
141.3766934339
  0
LINE
  5
361
100
AcDbEntity
  8
BEZUGSACHSEN
100
AcDbLine
 62
7
  6
CONTINUOUS
 10
303.7563334667
 20
144.6353951525
 11
303.7158967705
 21
142.9992010512
  0
LINE
  5
362
100
AcDbEntity
  8
BEZUGSACHSEN
100
AcDbLine
 62
7
  6
CONTINUOUS
 10
303.8062616038
 20
146.2830950197
 11
303.7563334667
 21
144.6353951525
  0
LINE
  5
363
100
AcDbEntity
  8
BEZUGSACHSEN
100
AcDbLine
 62
7
  6
CONTINUOUS
 10
303.8664433876
 20
147.9397511774
 11
303.8062616038
 21
146.2830950197
  0
LINE
  5
364
100
AcDbEntity
  8
BEZUGSACHSEN
100
AcDbLine
 62
7
  6
CONTINUOUS
 10
303.9376955504
 20
149.6024099902
 11
303.8664433876
 21
147.9397511774
  0
LWPOLYLINE
  5
365
100
AcDbEntity
  8
BEZUGSACHSEN
100
AcDbPolyline
 62
7
  6
CONTINUOUS
 90
6
 70
0
 10
308.4989529989
 20
196.8512400875
 10
307.9772616977
 20
191.5023791282
 10
307.4113510357
 20
185.8012274786
 10
306.8087356387
 20
179.8483260987
 10
306.166112842
 20
173.6315415979
 10
305.4795890922
 20
167.1339534745
  0
LWPOLYLINE
  5
366
100
AcDbEntity
  8
BEZUGSACHSEN
100
AcDbPolyline
 62
7
  6
CONTINUOUS
 90
9
 70
0
 10
309.2829663643
 20
136.1103987721
 10
308.3590465807
 20
131.7000337307
 10
307.5303209502
 20
127.2069120416
 10
306.8231319083
 20
122.7504954505
 10
306.2373560485
 20
118.3274075623
 10
305.7733794203
 20
113.9343251485
 10
305.4317841408
 20
109.5680595424
 10
305.2130446082
 20
105.2255278657
 10
305.1182160856
 20
101.0180889793
  0
LINE
  5
367
100
AcDbEntity
  8
BEZUGSACHSEN
100
AcDbLine
 62
7
  6
CONTINUOUS
 10
309.2829885306
 20
136.1104987257
 11
309.2829663643
 21
136.1103987721
  0
LWPOLYLINE
  5
368
100
AcDbEntity
  8
BEZUGSACHSEN
100
AcDbPolyline
 62
7
  6
CONTINUOUS
 90
26
 70
0
 10
316.6841156043
 20
142.2638796059
 10
316.2142182822
 20
142.2489926878
 10
315.6651643581
 20
142.1936220097
 10
315.1253991247
 20
142.0984255262
 10
314.6038990052
 20
141.9665653778
 10
314.1080130674
 20
141.8028114755
 10
313.6474255637
 20
141.6148502159
 10
313.2183359649
 20
141.406053418
 10
312.8211763973
 20
141.1810471506
 10
312.4507496987
 20
140.9407056118
 10
312.1022133363
 20
140.6844755935
 10
311.7764756844
 20
140.4151211448
 10
311.4728116868
 20
140.1341970439
 10
311.1908179846
 20
139.8434072716
 10
310.9298817433
 20
139.5441661123
 10
310.6894674506
 20
139.2378872586
 10
310.4688771166
 20
138.9257059727
 10
310.2675877646
 20
138.6089435147
 10
310.0848955005
 20
138.2886324389
 10
309.9201077617
 20
137.9657872171
 10
309.7722028148
 20
137.6406634316
 10
309.6409118497
 20
137.3151720346
 10
309.5255444701
 20
136.9906208548
 10
309.4249640823
 20
136.6671026995
 10
309.3380819724
 20
136.3444695274
 10
309.2829885302
 20
136.110498724
  0
LINE
  5
369
100
AcDbEntity
  8
0
100
AcDbLine
 62
7
  6
CONTINUOUS
 10
316.6841131756
 20
142.2638796109
 11
321.8734254683
 21
142.2638796109
  0
LWPOLYLINE
  5
36A
100
AcDbEntity
  8
RUNDUNGEN
100
AcDbPolyline
 62
7
  6
CONTINUOUS
 90
11
 70
0
 10
330.058585645
 20
196.8512400875
 10
330.0360732094
 20
197.2642246222
 10
330.0531423443
 20
197.7512862133
 10
330.1150714896
 20
198.2298380445
 10
330.2193396811
 20
198.6971760023
 10
330.3638192299
 20
199.1506349742
 10
330.5468582893
 20
199.5879859159
 10
330.7670867074
 20
200.0067893109
 10
331.0238469018
 20
200.4051166699
 10
331.31718885
 20
200.7809542906
 10
331.5831479357
 20
201.0682582286
  0
LWPOLYLINE
  5
36B
100
AcDbEntity
  8
RUNDUNGEN
100
AcDbPolyline
 62
7
  6
CONTINUOUS
 90
9
 70
0
 10
333.4393225584
 20
101.0180889793
 10
333.3444940357
 20
105.2255278657
 10
333.1257545031
 20
109.5680595424
 10
332.7841592237
 20
113.9343251485
 10
332.3201825955
 20
118.3274075623
 10
331.7344067357
 20
122.7504954505
 10
331.0272176937
 20
127.2069120416
 10
330.1984920632
 20
131.7000337307
 10
329.2745722796
 20
136.1103987721
  0
LINE
  5
36C
100
AcDbEntity
  8
RUNDUNGEN
100
AcDbLine
 62
7
  6
CONTINUOUS
 10
333.4465780804
 20
99.9197302657
 11
333.4393244382
 21
101.0178752672
  0
LINE
  5
36D
100
AcDbEntity
  8
RUNDUNGEN
100
AcDbLine
 62
7
  6
CONTINUOUS
 10
333.778769322
 20
226.0250761039
 11
333.778769322
 21
241.2638817667
  0
LINE
  5
36E
100
AcDbEntity
  8
RUNDUNGEN
100
AcDbLine
 62
7
  6
CONTINUOUS
 10
333.4483532553
 20
98.7880370302
 11
333.4465780804
 21
99.9197302657
  0
LINE
  5
36F
100
AcDbEntity
  8
RUNDUNGEN
100
AcDbLine
 62
7
  6
CONTINUOUS
 10
333.4446140612
 20
97.7205625426
 11
333.4483532553
 21
98.7880370302
  0
LINE
  5
370
100
AcDbEntity
  8
RUNDUNGEN
100
AcDbLine
 62
7
  6
CONTINUOUS
 10
333.4361646968
 20
96.7143996259
 11
333.4446140612
 21
97.7205625426
  0
LWPOLYLINE
  5
371
100
AcDbEntity
  8
RUNDUNGEN
100
AcDbPolyline
 62
7
  6
CONTINUOUS
 90
26
 70
0
 10
329.2745493377
 20
136.110502223
 10
329.2193106418
 20
136.3450549886
 10
329.1322483004
 20
136.6682289487
 10
329.0314563189
 20
136.9922372082
 10
328.9158402196
 20
137.3172475964
 10
328.7842570046
 20
137.643179881
 10
328.6360133658
 20
137.9687264559
 10
328.4708339551
 20
138.2919831354
 10
328.287700466
 20
138.6126791141
 10
328.0859306436
 20
138.9297789729
 10
327.8648032374
 20
139.2422728791
 10
327.6237758204
 20
139.5488550308
 10
327.3621484584
 20
139.8483773644
 10
327.079379931
 20
140.1394178967
 10
326.7748491577
 20
140.4205546481
 10
326.4481463306
 20
140.6900723707
 10
326.0985362895
 20
140.946404924
 10
325.7268664515
 20
141.1868074859
 10
325.3284440172
 20
141.4117101037
 10
324.8982007396
 20
141.6201697321
 10
324.436673099
 20
141.807548625
 10
323.9402683448
 20
141.970452438
 10
323.4185404196
 20
142.1013315932
 10
322.878777279
 20
142.1954930379
 10
322.3298589345
 20
142.2498341948
 10
321.8734227107
 20
142.2638796058
  0
LINE
  5
372
100
AcDbEntity
  8
RUNDUNGEN
100
AcDbLine
 62
7
  6
CONTINUOUS
 10
329.2745493374
 20
136.1105022247
 11
329.2745722796
 21
136.1103987721
  0
LWPOLYLINE
  5
373
100
AcDbEntity
  8
RUNDUNGEN
100
AcDbPolyline
 62
7
  6
CONTINUOUS
 90
7
 70
0
 10
333.8071742544
 20
160.390415729
 10
333.0779495518
 20
167.1339534745
 10
332.391425802
 20
173.6315415979
 10
331.7488030052
 20
179.8483260987
 10
331.1461876083
 20
185.8012274786
 10
330.5802769463
 20
191.5023791282
 10
330.0585955394
 20
196.8511382534
  0
LWPOLYLINE
  5
374
100
AcDbEntity
  8
RUNDUNGEN
100
AcDbPolyline
 62
7
  6
CONTINUOUS
 90
10
 70
0
 10
334.4344875261
 20
153.0296050691
 10
334.3816105034
 20
153.8488252449
 10
334.3252076486
 20
154.6660745338
 10
334.2651432164
 20
155.4807721141
 10
334.2012762772
 20
156.2922902719
 10
334.1334572915
 20
157.0999986564
 10
334.0615316365
 20
157.903212359
 10
333.985332545
 20
158.7012541596
 10
333.9046718159
 20
159.4935331644
 10
333.8334696527
 20
160.1527901722
  0
LINE
  5
375
100
AcDbEntity
  8
RUNDUNGEN
100
AcDbLine
 62
7
  6
CONTINUOUS
 10
334.530175643
 20
151.3874963099
 11
334.4344875261
 21
153.0296050691
  0
LINE
  5
376
100
AcDbEntity
  8
RUNDUNGEN
100
AcDbLine
 62
7
  6
CONTINUOUS
 10
334.6132476429
 20
149.7439277224
 11
334.530175643
 21
151.3874963099
  0
LINE
  5
377
100
AcDbEntity
  8
RUNDUNGEN
100
AcDbLine
 62
7
  6
CONTINUOUS
 10
334.6846098157
 20
148.102620154
 11
334.6132476429
 21
149.7439277224
  0
LINE
  5
378
100
AcDbEntity
  8
RUNDUNGEN
100
AcDbLine
 62
7
  6
CONTINUOUS
 10
334.7451082239
 20
146.4668572665
 11
334.6846098157
 21
148.102620154
  0
LINE
  5
379
100
AcDbEntity
  8
RUNDUNGEN
100
AcDbLine
 62
7
  6
CONTINUOUS
 10
334.7955336483
 20
144.8395220456
 11
334.7451082239
 21
146.4668572665
  0
LINE
  5
37A
100
AcDbEntity
  8
RUNDUNGEN
100
AcDbLine
 62
7
  6
CONTINUOUS
 10
334.8366248165
 20
143.2231108591
 11
334.7955336483
 21
144.8395220456
  0
LINE
  5
37B
100
AcDbEntity
  8
RUNDUNGEN
100
AcDbLine
 62
7
  6
CONTINUOUS
 10
334.8690715163
 20
141.619766479
 11
334.8366248165
 21
143.2231108591
  0
LINE
  5
37C
100
AcDbEntity
  8
RUNDUNGEN
100
AcDbLine
 62
7
  6
CONTINUOUS
 10
334.8935193829
 20
140.0312946156
 11
334.8690715163
 21
141.619766479
  0
LINE
  5
37D
100
AcDbEntity
  8
RUNDUNGEN
100
AcDbLine
 62
7
  6
CONTINUOUS
 10
334.9105737057
 20
138.4592932445
 11
334.8935193829
 21
140.0312946156
  0
LINE
  5
37E
100
AcDbEntity
  8
RUNDUNGEN
100
AcDbLine
 62
7
  6
CONTINUOUS
 10
334.9235196198
 20
136.1356824607
 11
334.9105737057
 21
138.4592932445
  0
LINE
  5
37F
100
AcDbEntity
  8
RUNDUNGEN
100
AcDbLine
 62
7
  6
CONTINUOUS
 10
337.278769322
 20
208.4207335213
 11
337.278769322
 21
218.5041664318
  0
LINE
  5
380
100
AcDbEntity
  8
RUNDUNGEN
100
AcDbLine
 62
7
  6
CONTINUOUS
 10
334.9228581451
 20
133.8576897649
 11
334.9235196198
 21
136.1356824607
  0
LINE
  5
381
100
AcDbEntity
  8
RUNDUNGEN
100
AcDbLine
 62
7
  6
CONTINUOUS
 10
334.9101951304
 20
131.6292051546
 11
334.9228581451
 21
133.8576897649
  0
LINE
  5
382
100
AcDbEntity
  8
RUNDUNGEN
100
AcDbLine
 62
7
  6
CONTINUOUS
 10
334.8870283004
 20
129.4534030162
 11
334.9101951304
 21
131.6292051546
  0
LINE
  5
383
100
AcDbEntity
  8
RUNDUNGEN
100
AcDbLine
 62
7
  6
CONTINUOUS
 10
333.4237189428
 20
95.7666791585
 11
333.4361646968
 21
96.7143996259
  0
LINE
  5
384
100
AcDbEntity
  8
RUNDUNGEN
100
AcDbLine
 62
7
  6
CONTINUOUS
 10
334.8424775449
 20
126.6382669295
 11
334.8870283004
 21
129.4534030162
  0
LINE
  5
385
100
AcDbEntity
  8
RUNDUNGEN
100
AcDbLine
 62
7
  6
CONTINUOUS
 10
333.407909192
 20
94.8745968295
 11
333.4237189428
 21
95.7666791585
  0
LINE
  5
386
100
AcDbEntity
  8
RUNDUNGEN
100
AcDbLine
 62
7
  6
CONTINUOUS
 10
334.7853489672
 20
123.9251320388
 11
334.8424775449
 21
126.6382669295
  0
LINE
  5
387
100
AcDbEntity
  8
RUNDUNGEN
100
AcDbLine
 62
7
  6
CONTINUOUS
 10
333.389294104
 20
94.0354169781
 11
333.407909192
 21
94.8745968295
  0
LINE
  5
388
100
AcDbEntity
  8
RUNDUNGEN
100
AcDbLine
 62
7
  6
CONTINUOUS
 10
334.7004680524
 20
120.6826547638
 11
334.7853489672
 21
123.9251320388
  0
LINE
  5
389
100
AcDbEntity
  8
RUNDUNGEN
100
AcDbLine
 62
7
  6
CONTINUOUS
 10
333.3609529375
 20
92.994246824
 11
333.389294104
 21
94.0354169781
  0
LINE
  5
38A
100
AcDbEntity
  8
RUNDUNGEN
100
AcDbLine
 62
7
  6
CONTINUOUS
 10
334.6047067613
 20
117.6090718537
 11
334.7004680524
 21
120.6826547638
  0
LINE
  5
38B
100
AcDbEntity
  8
RUNDUNGEN
100
AcDbLine
 62
7
  6
CONTINUOUS
 10
333.3295002877
 20
92.0364428144
 11
333.3609529375
 21
92.994246824
  0
LINE
  5
38C
100
AcDbEntity
  8
RUNDUNGEN
100
AcDbLine
 62
7
  6
CONTINUOUS
 10
334.4803183061
 20
114.1443616547
 11
334.6047067613
 21
117.6090718537
  0
LINE
  5
38D
100
AcDbEntity
  8
RUNDUNGEN
100
AcDbLine
 62
7
  6
CONTINUOUS
 10
333.2957827279
 20
91.1563668313
 11
333.3295002877
 21
92.0364428144
  0
LINE
  5
38E
100
AcDbEntity
  8
RUNDUNGEN
100
AcDbLine
 62
7
  6
CONTINUOUS
 10
334.3279461515
 20
110.4059788193
 11
334.4803183061
 21
114.1443616547
  0
LINE
  5
38F
100
AcDbEntity
  8
RUNDUNGEN
100
AcDbLine
 62
7
  6
CONTINUOUS
 10
333.2605112442
 20
90.3487793787
 11
333.2957827279
 21
91.1563668313
  0
LINE
  5
390
100
AcDbEntity
  8
RUNDUNGEN
100
AcDbLine
 62
7
  6
CONTINUOUS
 10
334.1507870563
 20
106.5201956671
 11
334.3279461515
 21
110.4059788193
  0
LINE
  5
391
100
AcDbEntity
  8
RUNDUNGEN
100
AcDbLine
 62
7
  6
CONTINUOUS
 10
333.2243635996
 20
89.6104163331
 11
333.2605112442
 21
90.3487793787
  0
LINE
  5
392
100
AcDbEntity
  8
RUNDUNGEN
100
AcDbLine
 62
7
  6
CONTINUOUS
 10
333.9543797592
 20
102.6174379444
 11
334.1507870563
 21
106.5201956671
  0
LINE
  5
393
100
AcDbEntity
  8
RUNDUNGEN
100
AcDbLine
 62
7
  6
CONTINUOUS
 10
333.1880727573
 20
88.9404975183
 11
333.2243635996
 21
89.6104163331
  0
LINE
  5
394
100
AcDbEntity
  8
RUNDUNGEN
100
AcDbLine
 62
7
  6
CONTINUOUS
 10
333.747870087
 20
98.8556948328
 11
333.9543797592
 21
102.6174379444
  0
LINE
  5
395
100
AcDbEntity
  8
RUNDUNGEN
100
AcDbLine
 62
7
  6
CONTINUOUS
 10
333.1523120451
 20
88.337744339
 11
333.1880727573
 21
88.9404975183
  0
LINE
  5
396
100
AcDbEntity
  8
RUNDUNGEN
100
AcDbLine
 62
7
  6
CONTINUOUS
 10
333.5261539393
 20
95.1230518112
 11
333.747870087
 21
98.8556948328
  0
LINE
  5
397
100
AcDbEntity
  8
RUNDUNGEN
100
AcDbLine
 62
7
  6
CONTINUOUS
 10
333.3290899872
 20
92.0251444884
 11
333.5261539393
 21
95.1230518112
  0
LINE
  5
398
100
AcDbEntity
  8
RUNDUNGEN
100
AcDbLine
 62
7
  6
CONTINUOUS
 10
333.1176679674
 20
87.80009499
 11
333.1523120451
 21
88.337744339
  0
LINE
  5
399
100
AcDbEntity
  8
RUNDUNGEN
100
AcDbLine
 62
7
  6
CONTINUOUS
 10
333.0846088727
 20
87.3244747436
 11
333.1176679674
 21
87.80009499
  0
LINE
  5
39A
100
AcDbEntity
  8
RUNDUNGEN
100
AcDbLine
 62
7
  6
CONTINUOUS
 10
333.0533348267
 20
86.9051100778
 11
333.0846088727
 21
87.3244747436
  0
LINE
  5
39B
100
AcDbEntity
  8
RUNDUNGEN
100
AcDbLine
 62
7
  6
CONTINUOUS
 10
333.0238689802
 20
86.5354067589
 11
333.0533348267
 21
86.9051100778
  0
LINE
  5
39C
100
AcDbEntity
  8
RUNDUNGEN
100
AcDbLine
 62
7
  6
CONTINUOUS
 10
332.9961665781
 20
86.2094018006
 11
333.0238689802
 21
86.5354067589
  0
LINE
  5
39D
100
AcDbEntity
  8
RUNDUNGEN
100
AcDbLine
 62
7
  6
CONTINUOUS
 10
332.970137768
 20
85.9218317873
 11
332.9961665781
 21
86.2094018006
  0
LINE
  5
39E
100
AcDbEntity
  8
RUNDUNGEN
100
AcDbLine
 62
7
  6
CONTINUOUS
 10
332.9516096207
 20
85.7282593143
 11
332.970137768
 21
85.9218317873
  0
LINE
  5
39F
100
AcDbEntity
  8
RUNDUNGEN
100
AcDbLine
 62
7
  6
CONTINUOUS
 10
332.933795513
 20
85.551075325
 11
332.9516096207
 21
85.7282593143
  0
LINE
  5
3A0
100
AcDbEntity
  8
RUNDUNGEN
100
AcDbLine
 62
7
  6
CONTINUOUS
 10
332.9165028286
 20
85.3877283414
 11
332.933795513
 21
85.551075325
  0
LINE
  5
3A1
100
AcDbEntity
  8
RUNDUNGEN
100
AcDbLine
 62
7
  6
CONTINUOUS
 10
332.8994096673
 20
85.23499855
 11
332.9165028286
 21
85.3877283414
  0
LINE
  5
3A2
100
AcDbEntity
  8
RUNDUNGEN
100
AcDbLine
 62
7
  6
CONTINUOUS
 10
332.8878602704
 20
85.1369200824
 11
332.8994096673
 21
85.23499855
  0
LINE
  5
3A3
100
AcDbEntity
  8
RUNDUNGEN
100
AcDbLine
 62
7
  6
CONTINUOUS
 10
332.8759483037
 20
85.0402191463
 11
332.8878602704
 21
85.1369200824
  0
LINE
  5
3A4
100
AcDbEntity
  8
RUNDUNGEN
100
AcDbLine
 62
7
  6
CONTINUOUS
 10
332.8633906151
 20
84.9432425295
 11
332.8759483037
 21
85.0402191463
  0
LINE
  5
3A5
100
AcDbEntity
  8
RUNDUNGEN
100
AcDbLine
 62
7
  6
CONTINUOUS
 10
333.8333450937
 20
160.153906657
 11
333.8071742544
 21
160.390415729
  0
LWPOLYLINE
  5
3A6
100
AcDbEntity
  8
RUNDUNGEN
100
AcDbPolyline
 62
7
  6
CONTINUOUS
 90
10
 70
0
 10
332.7655721697
 20
84.341772103
 10
332.7718045517
 20
84.3736112332
 10
332.7885291767
 20
84.4625590518
 10
332.80252065
 20
84.5413343149
 10
332.8144292125
 20
84.6119146828
 10
332.8247280936
 20
84.6758442026
 10
332.8338755039
 20
84.7350559464
 10
332.8421014854
 20
84.7903763996
 10
332.8496705748
 20
84.843092214
 10
332.8633906151
 20
84.9432425295
  0
LINE
  5
3A7
100
AcDbEntity
  8
0
100
AcDbLine
 62
7
  6
CONTINUOUS
 10
328.3396420054
 20
61.8904916347
 11
329.0712547235
 21
65.6075681707
  0
LINE
  5
3A8
100
AcDbEntity
  8
0
100
AcDbLine
 62
7
  6
CONTINUOUS
 10
332.0164409952
 20
80.552294263
 11
332.7655571813
 21
84.3416822921
  0
LINE
  5
3A9
100
AcDbEntity
  8
BEZUGSACHSEN
100
AcDbLine
 62
7
  6
CONTINUOUS
 10
306.9743548741
 20
201.0682940588
 11
302.4503420496
 21
205.5923068833
  0
LWPOLYLINE
  5
3AA
100
AcDbEntity
  8
BEZUGSACHSEN
100
AcDbPolyline
 62
7
  6
CONTINUOUS
 90
11
 70
0
 10
306.9743907083
 20
201.0682582286
 10
307.240349794
 20
200.7809542906
 10
307.5336917421
 20
200.4051166699
 10
307.7904519365
 20
200.0067893109
 10
308.0106803546
 20
199.5879859159
 10
308.193719414
 20
199.1506349742
 10
308.3381989629
 20
198.6971760023
 10
308.4424671544
 20
198.2298380445
 10
308.5043962996
 20
197.7512862133
 10
308.5214654346
 20
197.2642246222
 10
308.4989529989
 20
196.8512400875
  0
LWPOLYLINE
  5
3AB
100
AcDbEntity
  8
RUNDUNGEN
100
AcDbPolyline
 62
7
  6
CONTINUOUS
 90
18
 70
0
 10
327.0888757027
 20
58.959352006
 10
327.2357575029
 20
59.1662169732
 10
327.4056387893
 20
59.4282644186
 10
327.5520940882
 20
59.6780074778
 10
327.6790532536
 20
59.9166622593
 10
327.7889451811
 20
60.1439179982
 10
327.8847734438
 20
60.3616545019
 10
327.967106886
 20
60.5669331013
 10
328.0369690364
 20
60.7575887626
 10
328.0962388152
 20
60.9340422152
 10
328.1462190079
 20
61.095709793
 10
328.1886780737
 20
61.2442395488
 10
328.2248817679
 20
61.3805426763
 10
328.2561663974
 20
61.5066849263
 10
328.2835860394
 20
61.6245465425
 10
328.3079750468
 20
61.7358337525
 10
328.3301082938
 20
61.8426475444
 10
328.3397092239
 20
61.8908329865
  0
LINE
  5
3AC
100
AcDbEntity
  8
RUNDUNGEN
100
AcDbLine
 62
7
  6
CONTINUOUS
 10
327.080821942
 20
58.9484766511
 11
327.0888757027
 21
58.959352006
  0
LINE
  5
3AD
100
AcDbEntity
  8
RUNDUNGEN
100
AcDbLine
 62
7
  6
CONTINUOUS
 10
336.5553772293
 20
220.7984725626
 11
334.5023024918
 21
223.7305671566
  0
ARC
  5
3AE
100
AcDbEntity
  8
RUNDUNGEN
100
AcDbCircle
 62
7
  6
CONTINUOUS
 10
145.5224860917
 20
131.2638796109
 40
66.0
100
AcDbArc
 50
275.3793789911
 51
313.2092153407
  0
ARC
  5
3AF
100
AcDbEntity
  8
RUNDUNGEN
100
AcDbCircle
 62
7
  6
CONTINUOUS
 10
145.5224860917
 20
131.2638796109
 40
51.0356709465
100
AcDbArc
 50
276.4958590924
 51
312.8388368792
  0
ARC
  5
3B0
100
AcDbEntity
  8
RUNDUNGEN
100
AcDbCircle
 62
7
  6
CONTINUOUS
 10
145.5224860917
 20
131.2638796109
 40
51.0356709465
100
AcDbArc
 50
202.1611631208
 51
263.5041409076
  0
ARC
  5
3B1
100
AcDbEntity
  8
BEZUGSACHSEN
100
AcDbCircle
 62
7
  6
CONTINUOUS
 10
145.5224860917
 20
131.2638796109
 40
38.0
100
AcDbArc
 50
221.8
 51
41.2322489409
  0
ARC
  5
3B2
100
AcDbEntity
  8
RUNDUNGEN
100
AcDbCircle
 62
7
  6
CONTINUOUS
 10
145.5224860917
 20
131.2638796109
 40
38.0
100
AcDbArc
 50
221.8
 51
41.800000002
  0
ARC
  5
3B3
100
AcDbEntity
  8
BEZUGSACHSEN
100
AcDbCircle
 62
7
  6
CONTINUOUS
 10
80.9109745258
 20
133.7638796109
 40
8.5
100
AcDbArc
 50
41.7999637039
 51
199.7999484553
  0
ARC
  5
3B4
100
AcDbEntity
  8
RUNDUNGEN
100
AcDbCircle
 62
7
  6
CONTINUOUS
 10
80.9109745258
 20
133.7638796109
 40
8.5
100
AcDbArc
 50
41.7999637039
 51
199.7999484553
  0
ARC
  5
3B5
100
AcDbEntity
  8
RUNDUNGEN
100
AcDbCircle
 62
7
  6
CONTINUOUS
 10
96.4047466077
 20
111.2581289194
 40
2.0
100
AcDbArc
 50
22.1611631208
 51
110.0
  0
ARC
  5
3B6
100
AcDbEntity
  8
RUNDUNGEN
100
AcDbCircle
 62
7
  6
CONTINUOUS
 10
92.4552633915
 20
109.8206345879
 40
2.0
100
AcDbArc
 50
110.0
 51
193.415319493
  0
ARC
  5
3B7
100
AcDbEntity
  8
RUNDUNGEN
100
AcDbCircle
 62
7
  6
CONTINUOUS
 10
139.5224860917
 20
78.5686958391
 40
2.0
100
AcDbArc
 50
0.0
 51
83.5041409076
  0
ARC
  5
3B8
100
AcDbEntity
  8
RUNDUNGEN
100
AcDbCircle
 62
7
  6
CONTINUOUS
 10
139.5224860917
 20
67.6084955566
 40
2.0
100
AcDbArc
 50
262.8101299211
 51
360.0
  0
ARC
  5
3B9
100
AcDbEntity
  8
RUNDUNGEN
100
AcDbCircle
 62
7
  6
CONTINUOUS
 10
130.5224860917
 20
220.0549627716
 40
10.0
100
AcDbArc
 50
180.0
 51
221.8000105189
  0
ARC
  5
3BA
100
AcDbEntity
  8
BEZUGSACHSEN
100
AcDbCircle
 62
7
  6
CONTINUOUS
 10
145.5224860917
 20
222.8138796109
 40
5.05
100
AcDbArc
 50
188.7544819466
 51
208.4382535674
  0
ARC
  5
3BB
100
AcDbEntity
  8
BEZUGSACHSEN
100
AcDbCircle
 62
7
  6
CONTINUOUS
 10
145.5224860917
 20
222.8138796109
 40
5.05
100
AcDbArc
 50
331.5617464326
 51
359.9982469387
  0
ARC
  5
3BC
100
AcDbEntity
  8
RUNDUNGEN
100
AcDbCircle
 62
7
  6
CONTINUOUS
 10
145.5224860917
 20
222.8138796109
 40
5.05
100
AcDbArc
 50
180.0016272311
 51
359.9982469387
  0
ARC
  5
3BD
100
AcDbEntity
  8
BEZUGSACHSEN
100
AcDbCircle
 62
7
  6
CONTINUOUS
 10
136.4724860917
 20
251.7638796109
 40
4.0
100
AcDbArc
 50
0.0
 51
90.0
  0
CIRCLE
  5
3BE
100
AcDbEntity
  8
BEZUGSACHSEN
100
AcDbCircle
 62
7
  6
CONTINUOUS
 10
130.7224860917
 20
242.2638796109
 40
1.75
  0
ARC
  5
3BF
100
AcDbEntity
  8
BEZUGSACHSEN
100
AcDbCircle
 62
7
  6
CONTINUOUS
 10
146.6224860917
 20
133.1638796109
 40
76.9
100
AcDbArc
 50
269.1804175504
 51
41.0848535747
  0
ARC
  5
3C0
100
AcDbEntity
  8
RUNDUNGEN
100
AcDbCircle
 62
7
  6
CONTINUOUS
 10
146.6224860917
 20
133.1638796109
 40
76.9
100
AcDbArc
 50
269.1804175504
 51
69.8261268839
  0
ARC
  5
3C1
100
AcDbEntity
  8
BEZUGSACHSEN
100
AcDbCircle
 62
7
  6
CONTINUOUS
 10
146.4728597018
 20
122.7047049192
 40
66.4397551037
100
AcDbArc
 50
215.2527634326
 51
269.1804208601
  0
ARC
  5
3C2
100
AcDbEntity
  8
RUNDUNGEN
100
AcDbCircle
 62
7
  6
CONTINUOUS
 10
146.4728597018
 20
122.7047049192
 40
66.4397551037
100
AcDbArc
 50
199.7999936247
 51
269.1804208601
  0
ARC
  5
3C3
100
AcDbEntity
  8
RUNDUNGEN
100
AcDbCircle
 62
7
  6
CONTINUOUS
 10
146.4728597018
 20
122.7047049192
 40
57.5328729623
100
AcDbArc
 50
193.415319493
 51
262.8101299211
  0
ARC
  5
3C4
100
AcDbEntity
  8
RUNDUNGEN
100
AcDbCircle
 62
7
  6
CONTINUOUS
 10
164.8255260208
 20
131.2638796109
 40
50.0
100
AcDbArc
 50
343.398450401
 51
16.601549599
  0
ARC
  5
3C5
100
AcDbEntity
  8
RUNDUNGEN
100
AcDbCircle
 62
7
  6
CONTINUOUS
 10
151.5224860917
 20
78.5686958391
 40
2.0
100
AcDbArc
 50
96.4958590924
 51
180.0
  0
ARC
  5
3C6
100
AcDbEntity
  8
RUNDUNGEN
100
AcDbCircle
 62
7
  6
CONTINUOUS
 10
181.5834802856
 20
92.3744582923
 40
2.0
100
AcDbArc
 50
45.0
 51
132.8388368792
  0
ARC
  5
3C7
100
AcDbEntity
  8
RUNDUNGEN
100
AcDbCircle
 62
7
  6
CONTINUOUS
 10
189.3410040409
 20
84.616934537
 40
2.0
100
AcDbArc
 50
313.2092153407
 51
45.0
  0
ARC
  5
3C8
100
AcDbEntity
  8
RUNDUNGEN
100
AcDbCircle
 62
7
  6
CONTINUOUS
 10
151.5224860917
 20
67.5457503226
 40
2.0
100
AcDbArc
 50
180.0
 51
275.3793789911
  0
ARC
  5
3C9
100
AcDbEntity
  8
RUNDUNGEN
100
AcDbCircle
 62
7
  6
CONTINUOUS
 10
197.5007257143
 20
94.4361454579
 40
2.0
100
AcDbArc
 50
215.0
 51
320.0
  0
ARC
  5
3CA
100
AcDbEntity
  8
RUNDUNGEN
100
AcDbCircle
 62
7
  6
CONTINUOUS
 10
191.7451354485
 20
102.6559802235
 40
2.0
100
AcDbArc
 50
95.0
 51
215.0
  0
ARC
  5
3CB
100
AcDbEntity
  8
RUNDUNGEN
100
AcDbCircle
 62
7
  6
CONTINUOUS
 10
205.4004456421
 20
103.8506650624
 40
2.0
100
AcDbArc
 50
320.0
 51
95.0
  0
ARC
  5
3CC
100
AcDbEntity
  8
RUNDUNGEN
100
AcDbCircle
 62
7
  6
CONTINUOUS
 10
193.8727996391
 20
120.0904662498
 40
2.0
100
AcDbArc
 50
52.5
 51
157.5
  0
ARC
  5
3CD
100
AcDbEntity
  8
RUNDUNGEN
100
AcDbCircle
 62
7
  6
CONTINUOUS
 10
202.3075319017
 20
113.6182685483
 40
2.0
100
AcDbArc
 50
275.0
 51
52.5
  0
ARC
  5
3CE
100
AcDbEntity
  8
RUNDUNGEN
100
AcDbCircle
 62
7
  6
CONTINUOUS
 10
190.773962661
 20
112.6092119897
 40
2.0
100
AcDbArc
 50
157.5
 51
275.0
  0
ARC
  5
3CF
100
AcDbEntity
  8
RUNDUNGEN
100
AcDbCircle
 62
7
  6
CONTINUOUS
 10
204.2515144473
 20
136.2082808069
 40
2.0
100
AcDbArc
 50
0.0
 51
127.5
  0
ARC
  5
3D0
100
AcDbEntity
  8
RUNDUNGEN
100
AcDbCircle
 62
7
  6
CONTINUOUS
 10
204.2515144473
 20
126.3194784149
 40
2.0
100
AcDbArc
 50
232.5
 51
360.0
  0
ARC
  5
3D1
100
AcDbEntity
  8
RUNDUNGEN
100
AcDbCircle
 62
7
  6
CONTINUOUS
 10
197.8078453551
 20
131.2638796109
 40
2.0
100
AcDbArc
 50
127.5
 51
232.5
  0
ARC
  5
3D2
100
AcDbEntity
  8
RUNDUNGEN
100
AcDbCircle
 62
7
  6
CONTINUOUS
 10
201.9285826759
 20
151.3531165445
 40
2.0
100
AcDbArc
 50
307.5
 51
77.8
  0
ARC
  5
3D3
100
AcDbEntity
  8
RUNDUNGEN
100
AcDbCircle
 62
7
  6
CONTINUOUS
 10
194.3150897521
 20
145.5110779512
 40
2.0
100
AcDbArc
 50
200.0
 51
307.5
  0
ARC
  5
3D4
100
AcDbEntity
  8
RUNDUNGEN
100
AcDbCircle
 62
7
  6
CONTINUOUS
 10
191.3568376811
 20
153.6388087174
 40
2.0
100
AcDbArc
 50
77.8
 51
200.0
  0
ARC
  5
3D5
100
AcDbEntity
  8
RUNDUNGEN
100
AcDbCircle
 62
7
  6
CONTINUOUS
 10
211.7829535483
 20
145.2638796109
 40
1.0
100
AcDbArc
 50
16.601549599
 51
90.0
  0
ARC
  5
3D6
100
AcDbEntity
  8
RUNDUNGEN
100
AcDbCircle
 62
7
  6
CONTINUOUS
 10
211.7829535483
 20
117.2638796109
 40
1.0
100
AcDbArc
 50
270.0
 51
343.398450401
  0
ARC
  5
3D7
100
AcDbEntity
  8
RUNDUNGEN
100
AcDbCircle
 62
7
  6
CONTINUOUS
 10
211.5224860917
 20
117.2638796109
 40
1.0
100
AcDbArc
 50
180.0
 51
270.0
  0
ARC
  5
3D8
100
AcDbEntity
  8
RUNDUNGEN
100
AcDbCircle
 62
7
  6
CONTINUOUS
 10
211.5224860917
 20
145.2638796109
 40
1.0
100
AcDbArc
 50
90.0
 51
180.0
  0
ARC
  5
3D9
100
AcDbEntity
  8
BEZUGSACHSEN
100
AcDbCircle
 62
7
  6
CONTINUOUS
 10
154.5724860917
 20
251.7638796109
 40
4.0
100
AcDbArc
 50
90.0
 51
180.0
  0
ARC
  5
3DA
100
AcDbEntity
  8
BEZUGSACHSEN
100
AcDbCircle
 62
7
  6
CONTINUOUS
 10
166.5224860917
 20
251.7638796109
 40
4.0
100
AcDbArc
 50
0.0
 51
90.0
  0
ARC
  5
3DB
100
AcDbEntity
  8
BEZUGSACHSEN
100
AcDbCircle
 62
7
  6
CONTINUOUS
 10
174.5224860917
 20
209.1006954515
 40
4.0
100
AcDbArc
 50
189.9751610077
 51
249.8261269101
  0
ARC
  5
3DC
100
AcDbEntity
  8
BEZUGSACHSEN
100
AcDbCircle
 62
7
  6
CONTINUOUS
 10
174.5224860917
 20
209.1006954515
 40
4.0
100
AcDbArc
 50
180.000000024
 51
189.6787552435
  0
ARC
  5
3DD
100
AcDbEntity
  8
RUNDUNGEN
100
AcDbCircle
 62
7
  6
CONTINUOUS
 10
174.5224860917
 20
209.1006954515
 40
4.0
100
AcDbArc
 50
180.000000024
 51
249.8261269101
  0
ARC
  5
3DE
100
AcDbEntity
  8
RUNDUNGEN
100
AcDbCircle
 62
7
  6
CONTINUOUS
 10
193.2886989458
 20
164.6721824806
 40
2.0
100
AcDbArc
 50
132.8
 51
257.8
  0
ARC
  5
3DF
100
AcDbEntity
  8
RUNDUNGEN
100
AcDbCircle
 62
7
  6
CONTINUOUS
 10
201.3975769107
 20
172.1810858074
 40
2.0
100
AcDbArc
 50
27.8
 51
132.8
  0
ARC
  5
3E0
100
AcDbEntity
  8
RUNDUNGEN
100
AcDbCircle
 62
7
  6
CONTINUOUS
 10
206.9092217257
 20
161.7273212185
 40
2.0
100
AcDbArc
 50
257.8
 51
27.8
  0
ARC
  5
3E1
100
AcDbEntity
  8
RUNDUNGEN
100
AcDbCircle
 62
7
  6
CONTINUOUS
 10
175.4451697624
 20
189.2638796109
 40
2.0
100
AcDbArc
 50
61.8
 51
90.0
  0
ARC
  5
3E2
100
AcDbEntity
  8
RUNDUNGEN
100
AcDbCircle
 62
7
  6
CONTINUOUS
 10
189.9940957214
 20
181.4628139577
 40
2.0
100
AcDbArc
 50
311.8
 51
61.8
  0
ARC
  5
3E3
100
AcDbEntity
  8
RUNDUNGEN
100
AcDbCircle
 62
7
  6
CONTINUOUS
 10
179.1013962057
 20
171.7236165603
 40
2.0
100
AcDbArc
 50
221.8
 51
311.8
  0
ARC
  5
3E4
100
AcDbEntity
  8
RUNDUNGEN
100
AcDbCircle
 62
7
  6
CONTINUOUS
 10
163.4185910383
 20
189.2638796109
 40
2.0
100
AcDbArc
 50
90.0
 51
221.8
  0
ARC
  5
3E5
100
AcDbEntity
  8
RUNDUNGEN
100
AcDbCircle
 62
7
  6
CONTINUOUS
 10
780.6707705455
 20
104.4355568776
 40
448.3395741362
100
AcDbArc
 50
179.0316476265
 51
180.9187117658
  0
ARC
  5
3E6
100
AcDbEntity
  8
BEZUGSACHSEN
100
AcDbCircle
 62
7
  6
CONTINUOUS
 10
-142.1132319015
 20
104.4355568776
 40
448.3395741362
100
AcDbArc
 50
359.0812882342
 51
0.9683523735
  0
ARC
  5
3E7
100
AcDbEntity
  8
RUNDUNGEN
100
AcDbCircle
 62
7
  6
CONTINUOUS
 10
166.4782610504
 20
233.0196163164
 40
204.3293778611
100
AcDbArc
 50
323.576764952
 51
324.076109791
  0
ARC
  5
3E8
100
AcDbEntity
  8
BEZUGSACHSEN
100
AcDbCircle
 62
7
  6
CONTINUOUS
 10
472.0792775935
 20
233.0196163164
 40
204.3293778611
100
AcDbArc
 50
215.923890209
 51
216.423235048
  0
ARC
  5
3E9
100
AcDbEntity
  8
BEZUGSACHSEN
100
AcDbCircle
 62
7
  6
CONTINUOUS
 10
319.278769322
 20
241.2638796109
 40
14.5
100
AcDbArc
 50
0.0000085184
 51
179.9999914816
  0
ARC
  5
3EA
100
AcDbEntity
  8
RUNDUNGEN
100
AcDbCircle
 62
7
  6
CONTINUOUS
 10
337.778769322
 20
226.0250747664
 40
4.0
100
AcDbArc
 50
179.999980842
 51
215.0035298647
  0
ARC
  5
3EB
100
AcDbEntity
  8
RUNDUNGEN
100
AcDbCircle
 62
7
  6
CONTINUOUS
 10
333.278769322
 20
218.5041664318
 40
4.0
100
AcDbArc
 50
0.0000086193
 51
35.0000067386
  0
ARC
  5
3EC
100
AcDbEntity
  8
RUNDUNGEN
100
AcDbCircle
 62
7
  6
CONTINUOUS
 10
333.278769322
 20
208.4207338604
 40
4.0
100
AcDbArc
 50
315.0000029903
 51
359.9999951429
  0
ARC
  5
3ED
100
AcDbEntity
  8
BEZUGSACHSEN
100
AcDbCircle
 62
7
  6
CONTINUOUS
 10
300.778769322
 20
226.0250747664
 40
4.0
100
AcDbArc
 50
324.9964701353
 51
0.000019158
  0
ARC
  5
3EE
100
AcDbEntity
  8
BEZUGSACHSEN
100
AcDbCircle
 62
7
  6
CONTINUOUS
 10
305.278769322
 20
218.5041664318
 40
4.0
100
AcDbArc
 50
144.9999932614
 51
179.9999913807
  0
ARC
  5
3EF
100
AcDbEntity
  8
BEZUGSACHSEN
100
AcDbCircle
 62
7
  6
CONTINUOUS
 10
305.278769322
 20
208.4207338604
 40
4.0
100
AcDbArc
 50
180.0000048571
 51
224.9999970097
  0
SPLINE
  5
3F0
100
AcDbEntity
  8
BEZUGSACHSEN
100
AcDbSpline
 62
7
  6
CONTINUOUS
 70
0
 71
3
 72
11
 73
7
 74
0
 42
0.0000001
 43
0.0000001
 44
0.0000000001
 40
0.0
 40
0.0
 40
0.0
 40
0.0
 40
0.063323793
 40
0.2504325886
 40
0.5626594106
 40
1.0
 40
1.0
 40
1.0
 40
1.0
 10
309.4909826056
 20
65.6085090671
 30
0.0
 10
309.491316526
 20
65.6085278998
 30
0.0
 10
309.4908132769
 20
65.6105968694
 30
0.0
 10
309.4909586459
 20
65.6128387227
 30
0.0
 10
309.4900438821
 20
65.6181595489
 30
0.0
 10
309.4895490582
 20
65.6219383437
 30
0.0
 10
309.4892012517
 20
65.624221867
 30
0.0
  0
SPLINE
  5
3F1
100
AcDbEntity
  8
RUNDUNGEN
100
AcDbSpline
 62
7
  6
CONTINUOUS
 70
0
 71
3
 72
9
 73
5
 74
0
 42
0.0000001
 43
0.0000001
 44
0.0000000001
 40
0.0
 40
0.0
 40
0.0
 40
0.0
 40
0.4790549604
 40
1.0
 40
1.0
 40
1.0
 40
1.0
 10
329.9358852336
 20
89.8718324681
 30
0.0
 10
329.9241463773
 20
92.9842380694
 30
0.0
 10
329.9863118166
 20
99.4817801609
 30
0.0
 10
330.2132481007
 20
105.9755110925
 30
0.0
 10
330.3667069966
 20
109.3566186044
 30
0.0
  0
SPLINE
  5
3F2
100
AcDbEntity
  8
RUNDUNGEN
100
AcDbSpline
 62
7
  6
CONTINUOUS
 70
0
 71
3
 72
16
 73
12
 74
0
 42
0.0000001
 43
0.0000001
 44
0.0000000001
 40
0.0
 40
0.0
 40
0.0
 40
0.0
 40
0.0189198677
 40
0.0442215233
 40
0.1136740926
 40
0.2076030872
 40
0.324982116
 40
0.4645355778
 40
0.6247507334
 40
0.8038857629
 40
1.0
 40
1.0
 40
1.0
 40
1.0
 10
329.0683373923
 20
65.624221867
 30
0.0
 10
329.0913891794
 20
65.7755683427
 30
0.0
 10
329.1374189223
 20
66.1304872624
 30
0.0
 10
329.2364744565
 20
67.0449661884
 30
0.0
 10
329.3646404319
 20
68.5665182045
 30
0.0
 10
329.5145296864
 20
70.8334309824
 30
0.0
 10
329.6584740945
 20
73.6689207879
 30
0.0
 10
329.7845553922
 20
77.0420425284
 30
0.0
 10
329.8809147997
 20
80.916038388
 30
0.0
 10
329.937184343
 20
85.2485283641
 30
0.0
 10
329.9418703121
 20
88.2849664789
 30
0.0
 10
329.9358852336
 20
89.8718324681
 30
0.0
  0
SPLINE
  5
3F3
100
AcDbEntity
  8
RUNDUNGEN
100
AcDbSpline
 62
7
  6
CONTINUOUS
 70
0
 71
3
 72
11
 73
7
 74
0
 42
0.0000001
 43
0.0000001
 44
0.0000000001
 40
0.0
 40
0.0
 40
0.0
 40
0.0
 40
0.063323793
 40
0.2504325886
 40
0.5626594106
 40
1.0
 40
1.0
 40
1.0
 40
1.0
 10
329.0665560383
 20
65.6085090671
 30
0.0
 10
329.0662221179
 20
65.6085278998
 30
0.0
 10
329.066725367
 20
65.6105968694
 30
0.0
 10
329.0665799981
 20
65.6128387227
 30
0.0
 10
329.0674947619
 20
65.6181595489
 30
0.0
 10
329.0679895857
 20
65.6219383437
 30
0.0
 10
329.0683373923
 20
65.624221867
 30
0.0
  0
SPLINE
  5
3F4
100
AcDbEntity
  8
RUNDUNGEN
100
AcDbSpline
 62
7
  6
CONTINUOUS
 70
0
 71
3
 72
13
 73
9
 74
0
 42
0.0000001
 43
0.0000001
 44
0.0000000001
 40
0.0
 40
0.0
 40
0.0
 40
0.0
 40
0.3037464731
 40
0.5931603505
 40
0.7212182172
 40
0.8333137019
 40
0.9267906464
 40
1.0
 40
1.0
 40
1.0
 40
1.0
 10
330.3667069966
 20
109.3566186044
 30
0.0
 10
330.3778287518
 20
109.6016604431
 30
0.0
 10
330.4206029009
 20
110.0793486648
 30
0.0
 10
330.5185028275
 20
110.6543640133
 30
0.0
 10
330.6228104663
 20
111.0692984009
 30
0.0
 10
330.7048255267
 20
111.3262397627
 30
0.0
 10
330.7909527721
 20
111.5344481376
 30
0.0
 10
330.8574328825
 20
111.6524398773
 30
0.0
 10
330.8925249249
 20
111.7000198295
 30
0.0
  0
SPLINE
  5
3F5
100
AcDbEntity
  8
RUNDUNGEN
100
AcDbSpline
 62
7
  6
CONTINUOUS
 70
0
 71
3
 72
9
 73
5
 74
0
 42
0.0000001
 43
0.0000001
 44
0.0000000001
 40
0.0
 40
0.0
 40
0.0
 40
0.0
 40
0.5873931665
 40
1.0
 40
1.0
 40
1.0
 40
1.0
 10
331.9435934917
 20
113.1375141609
 30
0.0
 10
331.9678485538
 20
113.1710324506
 30
0.0
 10
332.0128578783
 20
113.2259017177
 30
0.0
 10
332.0815245104
 20
113.2581472872
 30
0.0
 10
332.1105869388
 20
113.2581297891
 30
0.0
  0
SPLINE
  5
3F6
100
AcDbEntity
  8
BEZUGSACHSEN
100
AcDbSpline
 62
7
  6
CONTINUOUS
 70
0
 71
3
 72
9
 73
5
 74
0
 42
0.0000001
 43
0.0000001
 44
0.0000000001
 40
0.0
 40
0.0
 40
0.0
 40
0.0
 40
0.4790549604
 40
1.0
 40
1.0
 40
1.0
 40
1.0
 10
308.6216534103
 20
89.8718324681
 30
0.0
 10
308.6333922666
 20
92.9842380694
 30
0.0
 10
308.5712268273
 20
99.4817801609
 30
0.0
 10
308.3442905432
 20
105.9755110925
 30
0.0
 10
308.1908316473
 20
109.3566186044
 30
0.0
  0
SPLINE
  5
3F7
100
AcDbEntity
  8
BEZUGSACHSEN
100
AcDbSpline
 62
7
  6
CONTINUOUS
 70
0
 71
3
 72
16
 73
12
 74
0
 42
0.0000001
 43
0.0000001
 44
0.0000000001
 40
0.0
 40
0.0
 40
0.0
 40
0.0
 40
0.0189198677
 40
0.0442215233
 40
0.1136740926
 40
0.2076030872
 40
0.324982116
 40
0.4645355778
 40
0.6247507334
 40
0.8038857629
 40
1.0
 40
1.0
 40
1.0
 40
1.0
 10
309.4892012517
 20
65.624221867
 30
0.0
 10
309.4661494646
 20
65.7755683427
 30
0.0
 10
309.4201197216
 20
66.1304872624
 30
0.0
 10
309.3210641875
 20
67.0449661884
 30
0.0
 10
309.1928982121
 20
68.5665182045
 30
0.0
 10
309.0430089576
 20
70.8334309824
 30
0.0
 10
308.8990645494
 20
73.6689207879
 30
0.0
 10
308.7729832518
 20
77.0420425284
 30
0.0
 10
308.6766238443
 20
80.916038388
 30
0.0
 10
308.6203543009
 20
85.2485283641
 30
0.0
 10
308.6156683318
 20
88.2849664789
 30
0.0
 10
308.6216534103
 20
89.8718324681
 30
0.0
  0
SPLINE
  5
3F8
100
AcDbEntity
  8
BEZUGSACHSEN
100
AcDbSpline
 62
7
  6
CONTINUOUS
 70
0
 71
3
 72
9
 73
5
 74
0
 42
0.0000001
 43
0.0000001
 44
0.0000000001
 40
0.0
 40
0.0
 40
0.0
 40
0.0
 40
0.5873931665
 40
1.0
 40
1.0
 40
1.0
 40
1.0
 10
306.6139451522
 20
113.1375141609
 30
0.0
 10
306.5896900901
 20
113.1710324506
 30
0.0
 10
306.5446807657
 20
113.2259017177
 30
0.0
 10
306.4760141335
 20
113.2581472872
 30
0.0
 10
306.4469517051
 20
113.2581297891
 30
0.0
  0
SPLINE
  5
3F9
100
AcDbEntity
  8
BEZUGSACHSEN
100
AcDbSpline
 62
7
  6
CONTINUOUS
 70
0
 71
3
 72
13
 73
9
 74
0
 42
0.0000001
 43
0.0000001
 44
0.0000000001
 40
0.0
 40
0.0
 40
0.0
 40
0.0
 40
0.3037464731
 40
0.5931603505
 40
0.7212182172
 40
0.8333137019
 40
0.9267906464
 40
1.0
 40
1.0
 40
1.0
 40
1.0
 10
308.1908316473
 20
109.3566186044
 30
0.0
 10
308.1797098922
 20
109.6016604431
 30
0.0
 10
308.136935743
 20
110.0793486648
 30
0.0
 10
308.0390358164
 20
110.6543640133
 30
0.0
 10
307.9347281777
 20
111.0692984009
 30
0.0
 10
307.8527131173
 20
111.3262397627
 30
0.0
 10
307.7665858719
 20
111.5344481376
 30
0.0
 10
307.7001057615
 20
111.6524398773
 30
0.0
 10
307.6650137191
 20
111.7000198295
 30
0.0
  0
SPLINE
  5
3FA
100
AcDbEntity
  8
BEZUGSACHSEN
100
AcDbSpline
 62
7
  6
CONTINUOUS
 70
0
 71
3
 72
15
 73
11
 74
0
 42
0.0000001
 43
0.0000001
 44
0.0000000001
 40
0.0
 40
0.0
 40
0.0
 40
0.0
 40
0.050100082
 40
0.1145281024
 40
0.2021183046
 40
0.3154532561
 40
0.4542684561
 40
0.6166979532
 40
0.7999059191
 40
1.0
 40
1.0
 40
1.0
 40
1.0
 10
306.4469517051
 20
113.2581297891
 30
0.0
 10
306.4246442165
 20
113.2581163581
 30
0.0
 10
306.3735247408
 20
113.2384028754
 30
0.0
 10
306.3164954208
 20
113.1661123956
 30
0.0
 10
306.2676988094
 20
113.0580584135
 30
0.0
 10
306.2270522069
 20
112.9118661889
 30
0.0
 10
306.1951464624
 20
112.7298894154
 30
0.0
 10
306.1730326441
 20
112.5151663225
 30
0.0
 10
306.1614010234
 20
112.2723641255
 30
0.0
 10
306.1608978453
 20
112.1016375463
 30
0.0
 10
306.1623115244
 20
112.0125551512
 30
0.0
  0
SPLINE
  5
3FB
100
AcDbEntity
  8
RUNDUNGEN
100
AcDbSpline
 62
7
  6
CONTINUOUS
 70
0
 71
3
 72
8
 73
4
 74
0
 42
0.0000001
 43
0.0000001
 44
0.0000000001
 40
0.0
 40
0.0
 40
0.0
 40
0.0
 40
1.0
 40
1.0
 40
1.0
 40
1.0
 10
331.6203817862
 20
78.5686958391
 30
0.0
 10
330.9011187132
 20
74.9154484843
 30
0.0
 10
330.1835238098
 20
71.26187289
 30
0.0
 10
329.4649212331
 20
67.6084955566
 30
0.0
  0
SPLINE
  5
3FC
100
AcDbEntity
  8
RUNDUNGEN
100
AcDbSpline
 62
7
  6
CONTINUOUS
 70
0
 71
3
 72
14
 73
10
 74
0
 42
0.0000001
 43
0.0000001
 44
0.0000000001
 40
0.0
 40
0.0
 40
0.0
 40
0.0
 40
0.3786253445
 40
0.5387222104
 40
0.6775387292
 40
0.7939407386
 40
0.8869701927
 40
0.9558513744
 40
1.0
 40
1.0
 40
1.0
 40
1.0
 10
332.388830715
 20
97.2469437651
 30
0.0
 10
332.4233449944
 20
95.1392801623
 30
0.0
 10
332.4375771968
 20
92.1396109865
 30
0.0
 10
332.3813094407
 20
88.3678547988
 30
0.0
 10
332.3179274535
 20
86.0564418481
 30
0.0
 10
332.2400764962
 20
84.1191362714
 30
0.0
 10
332.1574475805
 20
82.5718014898
 30
0.0
 10
332.0787817827
 20
81.4272875908
 30
0.0
 10
332.0250262356
 20
80.8002023955
 30
0.0
 10
331.9984123009
 20
80.5558559082
 30
0.0
  0
SPLINE
  5
3FD
100
AcDbEntity
  8
RUNDUNGEN
100
AcDbSpline
 62
7
  6
CONTINUOUS
 70
0
 71
3
 72
9
 73
5
 74
0
 42
0.0000001
 43
0.0000001
 44
0.0000000001
 40
0.0
 40
0.0
 40
0.0
 40
0.0
 40
0.590142997
 40
1.0
 40
1.0
 40
1.0
 40
1.0
 10
329.4649212331
 20
67.6084955566
 30
0.0
 10
329.3948316188
 20
67.2521597785
 30
0.0
 10
329.2758069185
 20
66.6483996751
 30
0.0
 10
329.1569737492
 20
66.0445957314
 30
0.0
 10
329.1069129401
 20
65.7973950075
 30
0.0
  0
SPLINE
  5
3FE
100
AcDbEntity
  8
RUNDUNGEN
100
AcDbSpline
 62
7
  6
CONTINUOUS
 70
0
 71
3
 72
16
 73
12
 74
0
 42
0.0000001
 43
0.0000001
 44
0.0000000001
 40
0.0
 40
0.0
 40
0.0
 40
0.0
 40
0.4321106072
 40
0.6039274773
 40
0.7453848529
 40
0.8560108593
 40
0.9354816869
 40
0.9634371942
 40
0.9834919272
 40
0.9956394429
 40
1.0
 40
1.0
 40
1.0
 40
1.0
 10
329.1069129401
 20
65.7973950075
 30
0.0
 10
329.1013894018
 20
65.7701197258
 30
0.0
 10
329.0936346087
 20
65.7320016205
 30
0.0
 10
329.0838934954
 20
65.6850057954
 30
0.0
 10
329.0782769658
 20
65.658268615
 30
0.0
 10
329.0737546951
 20
65.6374542204
 30
0.0
 10
329.0707217282
 20
65.6236293386
 30
0.0
 10
329.0687559996
 20
65.6158091408
 30
0.0
 10
329.0678703648
 20
65.6117866298
 30
0.0
 10
329.0670612067
 20
65.6100122711
 30
0.0
 10
329.066836423
 20
65.6084932538
 30
0.0
 10
329.0665560383
 20
65.6085090671
 30
0.0
  0
SPLINE
  5
3FF
100
AcDbEntity
  8
RUNDUNGEN
100
AcDbSpline
 62
7
  6
CONTINUOUS
 70
0
 71
3
 72
13
 73
9
 74
0
 42
0.0000001
 43
0.0000001
 44
0.0000000001
 40
0.0
 40
0.0
 40
0.0
 40
0.0
 40
0.0374378346
 40
0.1072440654
 40
0.2068009954
 40
0.3324649671
 40
0.643773127
 40
1.0
 40
1.0
 40
1.0
 40
1.0
 10
331.9984123009
 20
80.5558559082
 30
0.0
 10
331.9956789072
 20
80.5307602149
 30
0.0
 10
331.9834159875
 20
80.4594313733
 30
0.0
 10
331.959366414
 20
80.3221177323
 30
0.0
 10
331.9227946581
 20
80.1265505255
 30
0.0
 10
331.8553247899
 20
79.77112987
 30
0.0
 10
331.753387117
 20
79.2460757321
 30
0.0
 10
331.6667826998
 20
78.8043731889
 30
0.0
 10
331.6203817862
 20
78.5686958391
 30
0.0
  0
SPLINE
  5
400
100
AcDbEntity
  8
BEZUGSACHSEN
100
AcDbSpline
 62
7
  6
CONTINUOUS
 70
0
 71
3
 72
14
 73
10
 74
0
 42
0.0000001
 43
0.0000001
 44
0.0000000001
 40
0.0
 40
0.0
 40
0.0
 40
0.0
 40
0.3786253445
 40
0.5387222104
 40
0.6775387292
 40
0.7939407386
 40
0.8869701927
 40
0.9558513744
 40
1.0
 40
1.0
 40
1.0
 40
1.0
 10
306.168707929
 20
97.2469437651
 30
0.0
 10
306.1341936495
 20
95.1392801623
 30
0.0
 10
306.1199614472
 20
92.1396109865
 30
0.0
 10
306.1762292032
 20
88.3678547988
 30
0.0
 10
306.2396111905
 20
86.0564418481
 30
0.0
 10
306.3174621478
 20
84.1191362714
 30
0.0
 10
306.4000910634
 20
82.5718014898
 30
0.0
 10
306.4787568613
 20
81.4272875908
 30
0.0
 10
306.5325124084
 20
80.8002023955
 30
0.0
 10
306.559126343
 20
80.5558559082
 30
0.0
  0
SPLINE
  5
401
100
AcDbEntity
  8
BEZUGSACHSEN
100
AcDbSpline
 62
7
  6
CONTINUOUS
 70
0
 71
3
 72
8
 73
4
 74
0
 42
0.0000001
 43
0.0000001
 44
0.0000000001
 40
0.0
 40
0.0
 40
0.0
 40
0.0
 40
1.0
 40
1.0
 40
1.0
 40
1.0
 10
306.9371568578
 20
78.5686958391
 30
0.0
 10
307.6564199307
 20
74.9154484843
 30
0.0
 10
308.3740148341
 20
71.26187289
 30
0.0
 10
309.0926174108
 20
67.6084955566
 30
0.0
  0
SPLINE
  5
402
100
AcDbEntity
  8
RUNDUNGEN
100
AcDbSpline
 62
7
  6
CONTINUOUS
 70
0
 71
3
 72
15
 73
11
 74
0
 42
0.0000001
 43
0.0000001
 44
0.0000000001
 40
0.0
 40
0.0
 40
0.0
 40
0.0
 40
0.050100082
 40
0.1145281024
 40
0.2021183046
 40
0.3154532561
 40
0.4542684561
 40
0.6166979532
 40
0.7999059191
 40
1.0
 40
1.0
 40
1.0
 40
1.0
 10
332.1105869388
 20
113.2581297891
 30
0.0
 10
332.1328944275
 20
113.2581163581
 30
0.0
 10
332.1840139031
 20
113.2384028754
 30
0.0
 10
332.2410432232
 20
113.1661123956
 30
0.0
 10
332.2898398345
 20
113.0580584135
 30
0.0
 10
332.330486437
 20
112.9118661889
 30
0.0
 10
332.3623921815
 20
112.7298894154
 30
0.0
 10
332.3845059998
 20
112.5151663225
 30
0.0
 10
332.3961376205
 20
112.2723641255
 30
0.0
 10
332.3966407987
 20
112.1016375463
 30
0.0
 10
332.3952271195
 20
112.0125551512
 30
0.0
  0
SPLINE
  5
403
100
AcDbEntity
  8
BEZUGSACHSEN
100
AcDbSpline
 62
7
  6
CONTINUOUS
 70
0
 71
3
 72
13
 73
9
 74
0
 42
0.0000001
 43
0.0000001
 44
0.0000000001
 40
0.0
 40
0.0
 40
0.0
 40
0.0
 40
0.0374378346
 40
0.1072440654
 40
0.2068009954
 40
0.3324649671
 40
0.643773127
 40
1.0
 40
1.0
 40
1.0
 40
1.0
 10
306.559126343
 20
80.5558559082
 30
0.0
 10
306.5618597367
 20
80.5307602149
 30
0.0
 10
306.5741226565
 20
80.4594313733
 30
0.0
 10
306.5981722299
 20
80.3221177323
 30
0.0
 10
306.6347439859
 20
80.1265505255
 30
0.0
 10
306.702213854
 20
79.77112987
 30
0.0
 10
306.804151527
 20
79.2460757321
 30
0.0
 10
306.8907559442
 20
78.8043731889
 30
0.0
 10
306.9371568578
 20
78.5686958391
 30
0.0
  0
SPLINE
  5
404
100
AcDbEntity
  8
BEZUGSACHSEN
100
AcDbSpline
 62
7
  6
CONTINUOUS
 70
0
 71
3
 72
9
 73
5
 74
0
 42
0.0000001
 43
0.0000001
 44
0.0000000001
 40
0.0
 40
0.0
 40
0.0
 40
0.0
 40
0.590142997
 40
1.0
 40
1.0
 40
1.0
 40
1.0
 10
309.0926174108
 20
67.6084955566
 30
0.0
 10
309.1627070251
 20
67.2521597785
 30
0.0
 10
309.2817317254
 20
66.6483996751
 30
0.0
 10
309.4005648948
 20
66.0445957314
 30
0.0
 10
309.4506257039
 20
65.7973950075
 30
0.0
  0
SPLINE
  5
405
100
AcDbEntity
  8
BEZUGSACHSEN
100
AcDbSpline
 62
7
  6
CONTINUOUS
 70
0
 71
3
 72
16
 73
12
 74
0
 42
0.0000001
 43
0.0000001
 44
0.0000000001
 40
0.0
 40
0.0
 40
0.0
 40
0.0
 40
0.4321106072
 40
0.6039274773
 40
0.7453848529
 40
0.8560108593
 40
0.9354816869
 40
0.9634371942
 40
0.9834919272
 40
0.9956394429
 40
1.0
 40
1.0
 40
1.0
 40
1.0
 10
309.4506257039
 20
65.7973950075
 30
0.0
 10
309.4561492422
 20
65.7701197258
 30
0.0
 10
309.4639040352
 20
65.7320016205
 30
0.0
 10
309.4736451485
 20
65.6850057954
 30
0.0
 10
309.4792616781
 20
65.658268615
 30
0.0
 10
309.4837839489
 20
65.6374542204
 30
0.0
 10
309.4868169157
 20
65.6236293386
 30
0.0
 10
309.4887826444
 20
65.6158091408
 30
0.0
 10
309.4896682791
 20
65.6117866298
 30
0.0
 10
309.4904774372
 20
65.6100122711
 30
0.0
 10
309.4907022209
 20
65.6084932538
 30
0.0
 10
309.4909826056
 20
65.6085090671
 30
0.0
  0
ENDSEC
  0
SECTION
  2
OBJECTS
  0
DICTIONARY
  5
C
100
AcDbDictionary
280
0
281
1
  3
ACAD_GROUP
350
D
  3
ACAD_MLINESTYLE
350
17
  3
ACAD_LAYOUT
350
1A
  3
ACAD_PLOTSETTINGS
350
19
  3
ACAD_PLOTSTYLENAME
350
E
  0
DICTIONARY
  5
D
102
{ACAD_REACTORS
330
C
102
}
100
AcDbDictionary
280
0
281
1
  0
ACDBDICTIONARYWDFLT
  5
E
102
{ACAD_REACTORS
330
C
102
}
100
AcDbDictionary
281
1
  3
Normal
350
F
100
AcDbDictionaryWithDefault
340
F
  0
DICTIONARY
  5
17
102
{ACAD_REACTORS
330
C
102
}
100
AcDbDictionary
280
0
281
1
  3
Standard
350
18
  0
DICTIONARY
  5
19
102
{ACAD_REACTORS
330
C
102
}
100
AcDbDictionary
281
1
  0
DICTIONARY
  5
1A
102
{ACAD_REACTORS
330
C
102
}
100
AcDbDictionary
281
1
  3
Model
350
406
  3
Layout1
350
407
  0
ACDBPLACEHOLDER
  5
F
102
{ACAD_REACTORS
330
E
102
}
  0
MLINESTYLE
  5
18
102
{ACAD_REACTORS
330
17
102
}
100
AcDbMlineStyle
  2
STANDARD
 70
0
  3

 62
256
 51
90.0
 52
90.0
 71
2
 49
0.5
 62
256
  6
BYLAYER
 49
-0.5
 62
256
  6
BYLAYER
  0
LAYOUT
  5
406
102
{ACAD_REACTORS
330
1A
102
}
100
AcDbPlotSettings
  1

  2
none_device
  4
ISO_A3_(420.00_x_297.00_MM)
  6

 40
0.0
 41
0.0
 42
0.0
 43
0.0
 44
420.0
 45
297.0
 46
0.0
 47
0.0
 48
0.0
 49
0.0
140
0.0
141
0.0
142
1.0
143
1.0
 70
1024
 72
1
 73
0
 74
0
  7

 75
0
147
1.0
148
0.0
149
0.0
100
AcDbLayout
  1
Model
 70
0
 71
0
 10
0.0
 20
0.0
 11
420.0
 21
297.0
 12
0.0
 22
0.0
 32
0.0
 14
0.0
 24
0.0
 34
0.0
 15
0.0
 25
0.0
 35
0.0
146
0.0
 13
0.0
 23
0.0
 33
0.0
 16
1.0
 26
0.0
 36
0.0
 17
0.0
 27
1.0
 37
0.0
 76
0
330
209
345
0
346
0
  0
LAYOUT
  5
407
102
{ACAD_REACTORS
330
1A
102
}
100
AcDbPlotSettings
  1

  2
none_device
  4
ISO_A3_(420.00_x_297.00_MM)
  6

 40
0.0
 41
0.0
 42
0.0
 43
0.0
 44
420.0
 45
297.0
 46
0.0
 47
0.0
 48
0.0
 49
0.0
140
0.0
141
0.0
142
1.0
143
1.0
 70
0
 72
1
 73
0
 74
0
  7

 75
0
147
1.0
148
0.0
149
0.0
100
AcDbLayout
  1
Layout1
 70
0
 71
1
 10
0.0
 20
0.0
 11
420.0
 21
297.0
 12
0.0
 22
0.0
 32
0.0
 14
0.0
 24
0.0
 34
0.0
 15
0.0
 25
0.0
 35
0.0
146
0.0
 13
0.0
 23
0.0
 33
0.0
 16
1.0
 26
0.0
 36
0.0
 17
0.0
 27
1.0
 37
0.0
 76
0
330
20A
345
0
346
0
  0
ENDSEC
  0
EOF
