999
DXF file: IWH-6_7904360_M34845-P-4.dxf
999
Pro/ENGINEER 2010140 by Parametric Technology Corporation
  0
SECTION
  2
HEADER
  9
$ACADVER
  1
AC1015
  9
$DWGCODEPAGE
  3
ANSI_1252
  9
$EXTMAX
 10
420.0
 20
297.0
 30
0.0
  9
$EXTMIN
 10
0.0
 20
0.0
 30
0.0
  9
$LIMMIN
 10
0.0
 20
0.0
  9
$LIMMAX
 10
420.0
 20
297.0
  9
$VIEWCTR
 10
210.0
 20
148.5
  9
$VIEWSIZE
 40
297.0
  9
$CLAYER
  8
0
  9
$LTSCALE
 40
23.1
  9
$CELTYPE
  6
BYLAYER
  9
$DIMSCALE
 40
1.0
  9
$DIMASZ
 40
3.5
  9
$DIMEXO
 40
2.625
  9
$DIMDLI
 40
15.96
  9
$DIMEXE
 40
7.56
  9
$DIMCEN
 40
3.78
  9
$DIMLFAC
 40
1.0
  9
$DIMBLK
  1
_FILLED
  9
$DIMTXT
 40
3.5
  9
$DIMTOL
 70
1
  9
$DIMLIM
 70
0
  9
$DIMTFAC
 40
1.0
  9
$DIMTP
 40
0.005
  9
$DIMTM
 40
0.005
  9
$PDMODE
 70
3
  9
$PDSIZE
 40
0.3125
  9
$HANDSEED
  5
3CB
  9
$TILEMODE
 70
1
  9
$MEASUREMENT
 70
1
  9
$INSUNITS
 70
4
  0
ENDSEC
  0
SECTION
  2
CLASSES
  0
CLASS
  1
ACDBDICTIONARYWDFLT
  2
AcDbDictionaryWithDefault
  3
AutoCAD 2000
 90
0
280
0
281
0
  0
CLASS
  1
ACDBPLACEHOLDER
  2
AcDbPlaceHolder
  3
AutoCAD 2000
 90
0
280
0
281
0
  0
CLASS
  1
LAYOUT
  2
AcDbLayout
  3
AutoCAD 2000
 90
0
280
0
281
0
  0
ENDSEC
  0
SECTION
  2
TABLES
  0
TABLE
  2
VPORT
  5
8
100
AcDbSymbolTable
 70
2
  0
VPORT
  5
1F4
100
AcDbSymbolTableRecord
100
AcDbViewportTableRecord
  2
*ACTIVE
 70
0
 10
0.0
 20
0.0
 11
1.0
 21
1.0
 12
210.0
 22
148.5
 13
0.0
 23
0.0
 14
1.0
 24
1.0
 15
0.0
 25
0.0
 16
0.0
 26
0.0
 36
1.0
 17
0.0
 27
0.0
 37
0.0
 40
297.0
 41
1.4141414141
 42
50.0
 43
0.0
 44
0.0
 50
0.0
 51
0.0
 71
0
 72
100
 73
1
 74
1
 75
0
 76
0
 77
0
 78
0
  0
ENDTAB
  0
TABLE
  2
LTYPE
  5
5
100
AcDbSymbolTable
 70
6
  0
LTYPE
  5
14
100
AcDbSymbolTableRecord
100
AcDbLinetypeTableRecord
  2
BYBLOCK
 70
0
  3

 72
65
 73
0
 40
0.0
  0
LTYPE
  5
15
100
AcDbSymbolTableRecord
100
AcDbLinetypeTableRecord
  2
BYLAYER
 70
0
  3

 72
65
 73
0
 40
0.0
  0
LTYPE
  5
16
100
AcDbSymbolTableRecord
100
AcDbLinetypeTableRecord
  2
CONTINUOUS
 70
64
  3
Solid line
 72
65
 73
0
 40
0.0
  0
LTYPE
  5
1F5
100
AcDbSymbolTableRecord
100
AcDbLinetypeTableRecord
  2
CENTER
 70
64
  3
____ _ ____ _ ____ _ ____ _ ____ _ ____ _ ____
 72
65
 73
4
 40
0.6
 49
0.375
 74
0
 49
-0.075
 74
0
 49
0.075
 74
0
 49
-0.075
 74
0
  0
LTYPE
  5
1F6
100
AcDbSymbolTableRecord
100
AcDbLinetypeTableRecord
  2
HIDDEN
 70
64
  3
- - - - - - - - - - - - - - - - - - - -
 72
65
 73
2
 40
0.2
 49
0.1
 74
0
 49
-0.1
 74
0
  0
LTYPE
  5
1F7
100
AcDbSymbolTableRecord
100
AcDbLinetypeTableRecord
  2
PHANTOM
 70
64
  3
_____ _ _ _____ _ _ _____ _ _ _____
 72
65
 73
6
 40
0.8
 49
0.45
 74
0
 49
-0.05
 74
0
 49
0.1
 74
0
 49
-0.05
 74
0
 49
0.1
 74
0
 49
-0.05
 74
0
  0
LTYPE
  5
1F8
100
AcDbSymbolTableRecord
100
AcDbLinetypeTableRecord
  2
DOT
 70
64
  3
. . . . . . . . . . . . . . . . . . . .
 72
65
 73
2
 40
0.2
 49
0.1
 74
0
 49
-0.1
 74
0
  0
LTYPE
  5
1F9
100
AcDbSymbolTableRecord
100
AcDbLinetypeTableRecord
  2
DASHED
 70
64
  3
- - - - - - - - - - - - - - - - - - - -
 72
65
 73
2
 40
0.2
 49
0.1
 74
0
 49
-0.1
 74
0
  0
ENDTAB
  0
TABLE
  2
LAYER
  5
2
100
AcDbSymbolTable
 70
36
  0
LAYER
  5
10
100
AcDbSymbolTableRecord
100
AcDbLayerTableRecord
  2
0
 70
0
 62
7
  6
CONTINUOUS
370
-3
390
F
  0
LAYER
  5
1FA
100
AcDbSymbolTableRecord
100
AcDbLayerTableRecord
  2
DEFAULT_1
 70
0
 62
7
  6
CENTER
370
-3
390
F
  0
LAYER
  5
1FB
100
AcDbSymbolTableRecord
100
AcDbLayerTableRecord
  2
DEFAULT_2
 70
0
 62
8
  6
HIDDEN
370
-3
390
F
  0
LAYER
  5
1FC
100
AcDbSymbolTableRecord
100
AcDbLayerTableRecord
  2
DEFAULT_3
 70
0
 62
7
  6
PHANTOM
370
-3
390
F
  0
LAYER
  5
1FD
100
AcDbSymbolTableRecord
100
AcDbLayerTableRecord
  2
BEZUGSACHSEN
 70
0
 62
7
  6
CONTINUOUS
370
-3
390
F
  0
LAYER
  5
1FE
100
AcDbSymbolTableRecord
100
AcDbLayerTableRecord
  2
BEZUGSEBENEN
 70
0
 62
7
  6
CONTINUOUS
370
-3
390
F
  0
LAYER
  5
1FF
100
AcDbSymbolTableRecord
100
AcDbLayerTableRecord
  2
FASEN
 70
0
 62
7
  6
CONTINUOUS
370
-3
390
F
  0
LAYER
  5
200
100
AcDbSymbolTableRecord
100
AcDbLayerTableRecord
  2
FLAECHEN
 70
0
 62
7
  6
CONTINUOUS
370
-3
390
F
  0
LAYER
  5
201
100
AcDbSymbolTableRecord
100
AcDbLayerTableRecord
  2
HILFEN
 70
0
 62
7
  6
CONTINUOUS
370
-3
390
F
  0
LAYER
  5
202
100
AcDbSymbolTableRecord
100
AcDbLayerTableRecord
  2
KURVEN
 70
0
 62
7
  6
CONTINUOUS
370
-3
390
F
  0
LAYER
  5
203
100
AcDbSymbolTableRecord
100
AcDbLayerTableRecord
  2
PLATZIERUNG
 70
0
 62
7
  6
CONTINUOUS
370
-3
390
F
  0
LAYER
  5
204
100
AcDbSymbolTableRecord
100
AcDbLayerTableRecord
  2
RUNDUNGEN
 70
0
 62
7
  6
CONTINUOUS
370
-3
390
F
  0
LAYER
  5
205
100
AcDbSymbolTableRecord
100
AcDbLayerTableRecord
  2
T_STARTBEZUEGE
 70
0
 62
7
  6
CONTINUOUS
370
-3
390
F
  0
LAYER
  5
206
100
AcDbSymbolTableRecord
100
AcDbLayerTableRecord
  2
ZEICHNUNGSBEMASSUNGEN
 70
0
 62
7
  6
CONTINUOUS
370
-3
390
F
  0
ENDTAB
  0
TABLE
  2
STYLE
  5
3
100
AcDbSymbolTable
 70
1
  0
STYLE
  5
11
100
AcDbSymbolTableRecord
100
AcDbTextStyleTableRecord
  2
STANDARD
 70
0
 40
0.0
 41
0.7
 50
0.0
 71
0
 42
0.2
  3
txt
  4

  0
STYLE
  5
207
100
AcDbSymbolTableRecord
100
AcDbTextStyleTableRecord
  2
TEXTSTYLE_1
 70
0
 40
0.0
 41
0.8
 50
0.0
 71
0
 42
0.2
  3
gdt
  4

  0
ENDTAB
  0
TABLE
  2
VIEW
  5
6
100
AcDbSymbolTable
 70
0
  0
ENDTAB
  0
TABLE
  2
UCS
  5
7
100
AcDbSymbolTable
 70
0
  0
ENDTAB
  0
TABLE
  2
APPID
  5
9
100
AcDbSymbolTable
 70
1
  0
APPID
  5
208
100
AcDbSymbolTableRecord
100
AcDbRegAppTableRecord
  2
ACAD
 70
0
  0
ENDTAB
  0
TABLE
  2
BLOCK_RECORD
  5
1
100
AcDbSymbolTable
 70
0
  0
BLOCK_RECORD
  5
209
100
AcDbSymbolTableRecord
100
AcDbBlockTableRecord
  2
*Model_Space
  0
BLOCK_RECORD
  5
20A
100
AcDbSymbolTableRecord
100
AcDbBlockTableRecord
  2
*Paper_Space
  0
ENDTAB
  0
TABLE
  2
DIMSTYLE
  5
A
100
AcDbSymbolTable
 70
1
100
AcDbDimStyleTable
 71
0
  0
DIMSTYLE
105
20B
100
AcDbSymbolTableRecord
100
AcDbDimStyleTableRecord
  2
STANDARD
 70
0
  3

  4

 40
1.0
 41
3.5
 42
0.0625
 43
0.38
 44
0.18
 45
0.0
 46
0.0
 47
0.005
 48
0.005
140
3.5
141
0.09
142
0.0
143
25.4
144
1.0
145
0.0
146
1.0
147
0.09
 71
1.0
 72
0.0
 73
0
 74
0
 75
0
 76
0
 77
1
 78
8
170
0
171
2
172
0
173
0
174
0
175
0
176
0
177
0
178
5
270
2
271
3
272
3
273
2
274
2
275
0
280
0
281
0
282
0
283
1
284
8
285
0
286
0
287
3
288
0
340
11
  0
ENDTAB
  0
ENDSEC
  0
SECTION
  2
BLOCKS
  0
BLOCK
  5
20
100
AcDbEntity
  8
0
100
AcDbBlockBegin
  2
*Model_Space
 70
0
 10
0.0
 20
0.0
 30
0.0
  3
*Model_Space
  1

  0
ENDBLK
  5
21
100
AcDbEntity
  8
0
100
AcDbBlockEnd
  0
BLOCK
  5
1C
100
AcDbEntity
  8
0
100
AcDbBlockBegin
  2
*Paper_Space
 70
0
 10
0.0
 20
0.0
 30
0.0
  3
*Paper_Space
  1

  0
ENDBLK
  5
1D
100
AcDbEntity
  8
0
100
AcDbBlockEnd
  0
ENDSEC
  0
SECTION
  2
ENTITIES
  0
MTEXT
  5
20C
100
AcDbEntity
  8
0
100
AcDbMText
 62
5
  6
CONTINUOUS
  7
STANDARD
 71
1
 72
1
 10
294.8765938252
 20
136.800967881
 30
0.0
 11
0.0
 21
1.0
 31
0.0
 44
0.9
  1
RUD IWH 6
 40
4.5
 41
35.1428571429
  0
LINE
  5
20D
100
AcDbEntity
  8
0
100
AcDbLine
 62
7
  6
CONTINUOUS
 10
0.0
 20
0.0
 11
0.0
 21
297.0
  0
LINE
  5
20E
100
AcDbEntity
  8
0
100
AcDbLine
 62
7
  6
CONTINUOUS
 10
0.0
 20
0.0
 11
420.0
 21
0.0
  0
LINE
  5
20F
100
AcDbEntity
  8
0
100
AcDbLine
 62
7
  6
CONTINUOUS
 10
0.0
 20
297.0
 11
420.0
 21
297.0
  0
LINE
  5
210
100
AcDbEntity
  8
0
100
AcDbLine
 62
7
  6
CONTINUOUS
 10
420.0
 20
0.0
 11
420.0
 21
297.0
  0
LINE
  5
211
100
AcDbEntity
  8
0
100
AcDbLine
 62
7
  6
CONTINUOUS
 10
155.6251565193
 20
68.8507369561
 11
156.2269964097
 21
69.0193007314
  0
LINE
  5
212
100
AcDbEntity
  8
0
100
AcDbLine
 62
7
  6
CONTINUOUS
 10
158.7346610891
 20
69.7216493666
 11
159.4368106889
 21
69.9183079619
  0
LINE
  5
213
100
AcDbEntity
  8
0
100
AcDbLine
 62
7
  6
CONTINUOUS
 10
155.6244705659
 20
71.1705582425
 11
157.3296851192
 21
71.6481560346
  0
LINE
  5
214
100
AcDbEntity
  8
0
100
AcDbLine
 62
7
  6
CONTINUOUS
 10
157.3581451368
 20
72.3189880235
 11
155.4523203478
 21
71.7852031636
  0
LINE
  5
215
100
AcDbEntity
  8
0
100
AcDbLine
 62
7
  6
CONTINUOUS
 10
155.0219447222
 20
73.3218157535
 11
156.9277695111
 21
73.8556006133
  0
LINE
  5
216
100
AcDbEntity
  8
0
100
AcDbLine
 62
7
  6
CONTINUOUS
 10
156.6840058782
 20
74.3397111804
 11
154.2766463167
 21
73.6654560791
  0
LINE
  5
217
100
AcDbEntity
  8
0
100
AcDbLine
 62
7
  6
CONTINUOUS
 10
165.6127193111
 20
77.4121715482
 11
166.0292202578
 21
77.5191953
  0
LINE
  5
218
100
AcDbEntity
  8
0
100
AcDbLine
 62
7
  6
CONTINUOUS
 10
161.7823881281
 20
70.9073970012
 11
162.3049494993
 21
71.0049468224
  0
LINE
  5
219
100
AcDbEntity
  8
0
100
AcDbLine
 62
7
  6
CONTINUOUS
 10
131.6331151042
 20
69.7186164668
 11
132.0952374846
 21
69.7915824358
  0
LINE
  5
21A
100
AcDbEntity
  8
0
100
AcDbLine
 62
7
  6
CONTINUOUS
 10
162.0646185495
 20
71.5962717808
 11
161.6385566577
 21
71.5379420284
  0
LINE
  5
21B
100
AcDbEntity
  8
0
100
AcDbLine
 62
7
  6
CONTINUOUS
 10
157.2142323538
 20
74.3777406017
 11
156.6840058782
 21
74.3397111804
  0
LINE
  5
21C
100
AcDbEntity
  8
0
100
AcDbLine
 62
7
  6
CONTINUOUS
 10
120.6374473945
 20
75.5366581347
 11
120.2594224793
 21
75.531966622
  0
LINE
  5
21D
100
AcDbEntity
  8
0
100
AcDbLine
 62
7
  6
CONTINUOUS
 10
120.0523686698
 20
75.0310546661
 11
120.6628193173
 21
75.0093158221
  0
LINE
  5
21E
100
AcDbEntity
  8
0
100
AcDbLine
 62
7
  6
CONTINUOUS
 10
156.9277695111
 20
73.8556006133
 11
157.2573811593
 21
73.8374416808
  0
LINE
  5
21F
100
AcDbEntity
  8
0
100
AcDbLine
 62
7
  6
CONTINUOUS
 10
131.7321634205
 20
70.3577283149
 11
131.3030529239
 21
70.3858937303
  0
LINE
  5
220
100
AcDbEntity
  8
0
100
AcDbLine
 62
7
  6
CONTINUOUS
 10
131.138138025
 20
74.2445743544
 11
131.5672485215
 21
74.2164089389
  0
LINE
  5
221
100
AcDbEntity
  8
0
100
AcDbLine
 62
7
  6
CONTINUOUS
 10
161.3162754896
 20
70.9476232183
 11
161.7823881281
 21
70.9073970012
  0
LINE
  5
222
100
AcDbEntity
  8
0
100
AcDbLine
 62
7
  6
CONTINUOUS
 10
131.1049816493
 20
69.7791055119
 11
131.6331151042
 21
69.7186164668
  0
LINE
  5
223
100
AcDbEntity
  8
0
100
AcDbLine
 62
7
  6
CONTINUOUS
 10
131.765319773
 20
74.8231970865
 11
131.237186321
 21
74.8836861405
  0
LINE
  5
224
100
AcDbEntity
  8
0
100
AcDbLine
 62
7
  6
CONTINUOUS
 10
133.854706101
 20
68.9754119564
 11
137.5289736538
 21
68.2255733401
  0
LINE
  5
225
100
AcDbEntity
  8
0
100
AcDbLine
 62
7
  6
CONTINUOUS
 10
137.6566057584
 20
68.8509805816
 11
134.594716131
 21
69.4758460952
  0
LINE
  5
226
100
AcDbEntity
  8
0
100
AcDbLine
 62
7
  6
CONTINUOUS
 10
134.9350684149
 20
71.1435987635
 11
137.5887053132
 21
70.6020488106
  0
LINE
  5
227
100
AcDbEntity
  8
0
100
AcDbLine
 62
7
  6
CONTINUOUS
 10
137.7163374029
 20
71.2274559791
 11
135.0627005046
 21
71.7690059319
  0
LINE
  5
228
100
AcDbEntity
  8
0
100
AcDbLine
 62
7
  6
CONTINUOUS
 10
135.3392367585
 20
73.124055089
 11
138.4011263858
 21
72.4991895754
  0
LINE
  5
229
100
AcDbEntity
  8
0
100
AcDbLine
 62
7
  6
CONTINUOUS
 10
138.5287584755
 20
73.1245967438
 11
134.8544909227
 21
73.8744353602
  0
LINE
  5
22A
100
AcDbEntity
  8
0
100
AcDbLine
 62
7
  6
CONTINUOUS
 10
120.2594224793
 20
75.531966622
 11
119.9401722314
 21
75.6159479573
  0
LINE
  5
22B
100
AcDbEntity
  8
0
100
AcDbLine
 62
7
  6
CONTINUOUS
 10
120.1886606266
 20
77.876231927
 11
120.5079108745
 21
77.7922505917
  0
LINE
  5
22C
100
AcDbEntity
  8
0
100
AcDbLine
 62
7
  6
CONTINUOUS
 10
121.1878470268
 20
79.3836593928
 11
121.5070972747
 21
79.2996780575
  0
LINE
  5
22D
100
AcDbEntity
  8
0
100
AcDbLine
 62
7
  6
CONTINUOUS
 10
130.2137614514
 20
70.0700226973
 11
131.1049816493
 21
69.7791055119
  0
LINE
  5
22E
100
AcDbEntity
  8
0
100
AcDbLine
 62
7
  6
CONTINUOUS
 10
131.3030529239
 20
70.3858937303
 11
130.411832726
 21
70.6768109157
  0
LINE
  5
22F
100
AcDbEntity
  8
0
100
AcDbLine
 62
7
  6
CONTINUOUS
 10
132.8874659733
 20
70.5401443515
 11
132.2933191746
 21
70.7340891418
  0
LINE
  5
230
100
AcDbEntity
  8
0
100
AcDbLine
 62
7
  6
CONTINUOUS
 10
133.0525923516
 20
73.0601105158
 11
133.6467391502
 21
72.8661657255
  0
LINE
  5
231
100
AcDbEntity
  8
0
100
AcDbLine
 62
7
  6
CONTINUOUS
 10
131.5672485215
 20
74.2164089389
 11
132.4584687195
 21
73.9254917536
  0
LINE
  5
232
100
AcDbEntity
  8
0
100
AcDbLine
 62
7
  6
CONTINUOUS
 10
132.656539971
 20
74.5322799012
 11
131.765319773
 21
74.8231970865
  0
LINE
  5
233
100
AcDbEntity
  8
0
100
AcDbLine
 62
7
  6
CONTINUOUS
 10
119.5594683609
 20
75.2301385628
 11
120.0523686698
 21
75.0310546661
  0
LINE
  5
234
100
AcDbEntity
  8
0
100
AcDbLine
 62
7
  6
CONTINUOUS
 10
120.8886147038
 20
78.1780599241
 11
120.3957144
 21
78.3771438286
  0
LINE
  5
235
100
AcDbEntity
  8
0
100
AcDbLine
 62
7
  6
CONTINUOUS
 10
121.887801104
 20
79.6854873899
 11
121.3949008002
 21
79.8845712944
  0
LINE
  5
236
100
AcDbEntity
  8
0
100
AcDbLine
 62
7
  6
CONTINUOUS
 10
126.9329977734
 20
71.3093607452
 11
127.5105711406
 21
71.0705428116
  0
LINE
  5
237
100
AcDbEntity
  8
0
100
AcDbLine
 62
7
  6
CONTINUOUS
 10
129.4211146097
 20
75.6911297497
 11
128.8435412425
 21
75.9299476833
  0
LINE
  5
238
100
AcDbEntity
  8
0
100
AcDbLine
 62
7
  6
CONTINUOUS
 10
129.7516517528
 20
70.3327744759
 11
130.2137614514
 21
70.0700226973
  0
LINE
  5
239
100
AcDbEntity
  8
0
100
AcDbLine
 62
7
  6
CONTINUOUS
 10
130.411832726
 20
70.6768109157
 11
130.0487459799
 21
70.907239047
  0
LINE
  5
23A
100
AcDbEntity
  8
0
100
AcDbLine
 62
7
  6
CONTINUOUS
 10
119.1253447117
 20
75.517893998
 11
119.5594683609
 21
75.2301385628
  0
LINE
  5
23B
100
AcDbEntity
  8
0
100
AcDbLine
 62
7
  6
CONTINUOUS
 10
119.9401722314
 20
75.6159479573
 11
119.3323975327
 21
76.0188066203
  0
LINE
  5
23C
100
AcDbEntity
  8
0
100
AcDbLine
 62
7
  6
CONTINUOUS
 10
120.5079108745
 20
77.7922505917
 11
121.1156855732
 21
77.3893919288
  0
LINE
  5
23D
100
AcDbEntity
  8
0
100
AcDbLine
 62
7
  6
CONTINUOUS
 10
121.322738353
 20
77.890304489
 11
120.8886147038
 21
78.1780599241
  0
LINE
  5
23E
100
AcDbEntity
  8
0
100
AcDbLine
 62
7
  6
CONTINUOUS
 10
122.3699917131
 20
77.9619282547
 11
122.8041153623
 21
77.6741728195
  0
LINE
  5
23F
100
AcDbEntity
  8
0
100
AcDbLine
 62
7
  6
CONTINUOUS
 10
121.5070972747
 20
79.2996780575
 11
122.0280464487
 21
78.9543710085
  0
LINE
  5
240
100
AcDbEntity
  8
0
100
AcDbLine
 62
7
  6
CONTINUOUS
 10
118.7499957349
 20
75.8943222887
 11
119.1253447117
 21
75.517893998
  0
LINE
  5
241
100
AcDbEntity
  8
0
100
AcDbLine
 62
7
  6
CONTINUOUS
 10
109.5312162918
 20
84.0072004192
 11
109.9570129075
 21
83.5496829419
  0
LINE
  5
242
100
AcDbEntity
  8
0
100
AcDbLine
 62
7
  6
CONTINUOUS
 10
111.9440639165
 20
81.414601236
 11
112.3698605323
 21
80.9570837587
  0
LINE
  5
243
100
AcDbEntity
  8
0
100
AcDbLine
 62
7
  6
CONTINUOUS
 10
106.1499515962
 20
88.5393310462
 11
106.6334556888
 21
87.8606056569
  0
LINE
  5
244
100
AcDbEntity
  8
0
100
AcDbLine
 62
7
  6
CONTINUOUS
 10
107.6004638739
 20
86.5031548782
 11
108.083968053
 21
85.8244293675
  0
LINE
  5
245
100
AcDbEntity
  8
BEZUGSACHSEN
100
AcDbLine
 62
7
  6
CONTINUOUS
 10
93.0933016302
 20
93.8267069617
 11
84.0222569465
 21
119.0225028475
  0
LINE
  5
246
100
AcDbEntity
  8
RUNDUNGEN
100
AcDbLine
 62
7
  6
CONTINUOUS
 10
93.0933016302
 20
93.8267069617
 11
84.0222569465
 21
119.0225028475
  0
LINE
  5
247
100
AcDbEntity
  8
0
100
AcDbLine
 62
7
  6
CONTINUOUS
 10
119.5194343337
 20
77.8092986051
 11
119.8106347177
 21
77.871541073
  0
LINE
  5
248
100
AcDbEntity
  8
0
100
AcDbLine
 62
7
  6
CONTINUOUS
 10
131.237186321
 20
74.8836861405
 11
130.7750639493
 21
74.810720198
  0
LINE
  5
249
100
AcDbEntity
  8
0
100
AcDbLine
 62
7
  6
CONTINUOUS
 10
166.2813518052
 20
78.1427143992
 11
165.8137084258
 21
78.128974017
  0
LINE
  5
24A
100
AcDbEntity
  8
0
100
AcDbLine
 62
7
  6
CONTINUOUS
 10
119.8106347177
 20
77.871541073
 11
120.1886606266
 21
77.876231927
  0
LINE
  5
24B
100
AcDbEntity
  8
0
100
AcDbLine
 62
7
  6
CONTINUOUS
 10
120.3957144
 20
78.3771438286
 11
119.6396625824
 21
78.3677621206
  0
LINE
  5
24C
100
AcDbEntity
  8
0
100
AcDbLine
 62
7
  6
CONTINUOUS
 10
120.809821118
 20
79.3789685388
 11
121.1878470268
 21
79.3836593928
  0
LINE
  5
24D
100
AcDbEntity
  8
0
100
AcDbLine
 62
7
  6
CONTINUOUS
 10
121.3949008002
 20
79.8845712944
 11
120.7844491746
 21
79.9063108203
  0
LINE
  5
24E
100
AcDbEntity
  8
0
100
AcDbLine
 62
7
  6
CONTINUOUS
 10
166.0292202578
 20
77.5191953
 11
166.405525054
 21
77.482859475
  0
LINE
  5
24F
100
AcDbEntity
  8
0
100
AcDbLine
 62
7
  6
CONTINUOUS
 10
161.6385566577
 20
71.5379420284
 11
161.2689434775
 21
71.6173883661
  0
LINE
  5
250
100
AcDbEntity
  8
0
100
AcDbLine
 62
7
  6
CONTINUOUS
 10
157.7015325258
 20
74.1827935626
 11
157.2142323538
 21
74.3777406017
  0
LINE
  5
251
100
AcDbEntity
  8
0
100
AcDbLine
 62
7
  6
CONTINUOUS
 10
160.7700481229
 20
71.1849559451
 11
161.3162754896
 21
70.9476232183
  0
LINE
  5
252
100
AcDbEntity
  8
0
100
AcDbLine
 62
7
  6
CONTINUOUS
 10
133.1186496724
 20
74.2695281314
 11
132.656539971
 21
74.5322799012
  0
LINE
  5
253
100
AcDbEntity
  8
0
100
AcDbLine
 62
7
  6
CONTINUOUS
 10
132.4584687195
 20
73.9254917536
 11
132.8215554655
 21
73.6950636223
  0
LINE
  5
254
100
AcDbEntity
  8
0
100
AcDbLine
 62
7
  6
CONTINUOUS
 10
122.2351002221
 20
79.4552829101
 11
121.887801104
 21
79.6854873899
  0
LINE
  5
255
100
AcDbEntity
  8
0
100
AcDbLine
 62
7
  6
CONTINUOUS
 10
121.698087335
 20
77.513876206
 11
121.322738353
 21
77.890304489
  0
LINE
  5
256
100
AcDbEntity
  8
0
100
AcDbLine
 62
7
  6
CONTINUOUS
 10
122.6104492041
 20
79.0788546271
 11
122.2351002221
 21
79.4552829101
  0
LINE
  5
257
100
AcDbEntity
  8
0
100
AcDbLine
 62
7
  6
CONTINUOUS
 10
129.4215768907
 20
70.6643339918
 11
129.7516517528
 21
70.3327744759
  0
LINE
  5
258
100
AcDbEntity
  8
0
100
AcDbLine
 62
7
  6
CONTINUOUS
 10
133.4487245432
 20
73.9379686421
 11
133.1186496724
 21
74.2695281314
  0
LINE
  5
259
100
AcDbEntity
  8
0
100
AcDbLine
 62
7
  6
CONTINUOUS
 10
111.6702698576
 20
85.1441553884
 11
113.6573208665
 21
83.0090736825
  0
LINE
  5
25A
100
AcDbEntity
  8
0
100
AcDbLine
 62
7
  6
CONTINUOUS
 10
114.1245727025
 20
83.4439297489
 11
112.1375216935
 21
85.5790114548
  0
LINE
  5
25B
100
AcDbEntity
  8
0
100
AcDbLine
 62
7
  6
CONTINUOUS
 10
116.0300003503
 20
84.3634566849
 11
115.6042037345
 21
84.8209741622
  0
LINE
  5
25C
100
AcDbEntity
  8
0
100
AcDbLine
 62
7
  6
CONTINUOUS
 10
113.6171527256
 20
86.9560558682
 11
113.1913561098
 21
87.4135733454
  0
LINE
  5
25D
100
AcDbEntity
  8
0
100
AcDbLine
 62
7
  6
CONTINUOUS
 10
130.0487459799
 20
70.907239047
 11
129.8176963542
 21
71.2064742288
  0
LINE
  5
25E
100
AcDbEntity
  8
0
100
AcDbLine
 62
7
  6
CONTINUOUS
 10
119.3323975327
 20
76.0188066203
 11
119.1306986066
 21
76.2801323341
  0
LINE
  5
25F
100
AcDbEntity
  8
0
100
AcDbLine
 62
7
  6
CONTINUOUS
 10
121.1156855732
 20
77.3893919288
 11
121.3173844993
 21
77.128066215
  0
LINE
  5
260
100
AcDbEntity
  8
0
100
AcDbLine
 62
7
  6
CONTINUOUS
 10
122.0280464487
 20
78.9543710085
 11
122.2297453748
 21
78.6930452947
  0
LINE
  5
261
100
AcDbEntity
  8
0
100
AcDbLine
 62
7
  6
CONTINUOUS
 10
112.6398246378
 20
88.046728828
 11
112.2771965467
 21
88.5557729004
  0
LINE
  5
262
100
AcDbEntity
  8
0
100
AcDbLine
 62
7
  6
CONTINUOUS
 10
111.4310644495
 20
89.7435422406
 11
110.9475602705
 21
90.4222677513
  0
LINE
  5
263
100
AcDbEntity
  8
0
100
AcDbLine
 62
7
  6
CONTINUOUS
 10
110.1014280868
 20
91.610037213
 11
109.7387999958
 21
92.1190812853
  0
LINE
  5
264
100
AcDbEntity
  8
0
100
AcDbLine
 62
7
  6
CONTINUOUS
 10
104.7375893497
 20
90.8782817134
 11
105.0541562487
 21
90.339384322
  0
LINE
  5
265
100
AcDbEntity
  8
0
100
AcDbLine
 62
7
  6
CONTINUOUS
 10
109.3653353799
 20
92.871919514
 11
109.0487684809
 21
93.4108169054
  0
LINE
  5
266
100
AcDbEntity
  8
0
100
AcDbLine
 62
7
  6
CONTINUOUS
 10
166.8512800501
 20
77.9698880423
 11
166.2813518052
 21
78.1427143992
  0
LINE
  5
267
100
AcDbEntity
  8
0
100
AcDbLine
 62
7
  6
CONTINUOUS
 10
157.2573811593
 20
73.8374416808
 11
157.5153793927
 21
73.6887483942
  0
LINE
  5
268
100
AcDbEntity
  8
0
100
AcDbLine
 62
7
  6
CONTINUOUS
 10
161.2689434775
 20
71.6173883661
 11
160.955779065
 21
71.8346106559
  0
LINE
  5
269
100
AcDbEntity
  8
0
100
AcDbLine
 62
7
  6
CONTINUOUS
 10
132.8215554655
 20
73.6950636223
 11
133.0526051143
 21
73.3958285113
  0
LINE
  5
26A
100
AcDbEntity
  8
0
100
AcDbLine
 62
7
  6
CONTINUOUS
 10
129.157525782
 20
71.1981562323
 11
129.4215768907
 21
70.6643339918
  0
LINE
  5
26B
100
AcDbEntity
  8
0
100
AcDbLine
 62
7
  6
CONTINUOUS
 10
118.4921980902
 20
76.4480949735
 11
118.7499957349
 21
75.8943222887
  0
LINE
  5
26C
100
AcDbEntity
  8
0
100
AcDbLine
 62
7
  6
CONTINUOUS
 10
121.9558840015
 20
76.9601042031
 11
121.698087335
 21
77.513876206
  0
LINE
  5
26D
100
AcDbEntity
  8
0
100
AcDbLine
 62
7
  6
CONTINUOUS
 10
122.8682468642
 20
78.5250819655
 11
122.6104492041
 21
79.0788546271
  0
LINE
  5
26E
100
AcDbEntity
  8
0
100
AcDbLine
 62
7
  6
CONTINUOUS
 10
119.1306986066
 20
76.2801323341
 11
118.9877753414
 21
76.6301302371
  0
LINE
  5
26F
100
AcDbEntity
  8
0
100
AcDbLine
 62
7
  6
CONTINUOUS
 10
121.3173844993
 20
77.128066215
 11
121.4603067708
 21
76.7780689706
  0
LINE
  5
270
100
AcDbEntity
  8
0
100
AcDbLine
 62
7
  6
CONTINUOUS
 10
122.2297453748
 20
78.6930452947
 11
122.3726696336
 21
78.343046733
  0
LINE
  5
271
100
AcDbEntity
  8
RUNDUNGEN
100
AcDbLine
 62
7
  6
CONTINUOUS
 10
192.9288527724
 20
98.0405851505
 11
182.2621266731
 21
97.1073675399
  0
LINE
  5
272
100
AcDbEntity
  8
RUNDUNGEN
100
AcDbLine
 62
7
  6
CONTINUOUS
 10
184.0636770715
 20
102.785991883
 11
191.3243149876
 21
103.4212153907
  0
LINE
  5
273
100
AcDbEntity
  8
0
100
AcDbLine
 62
7
  6
CONTINUOUS
 10
166.405525054
 20
77.482859475
 11
166.7416338431
 21
77.3031638118
  0
LINE
  5
274
100
AcDbEntity
  8
0
100
AcDbLine
 62
7
  6
CONTINUOUS
 10
158.1172192831
 20
73.8573121695
 11
157.7015325258
 21
74.1827935626
  0
LINE
  5
275
100
AcDbEntity
  8
0
100
AcDbLine
 62
7
  6
CONTINUOUS
 10
160.4168285288
 20
71.5007324521
 11
160.7700481229
 21
71.1849559451
  0
LINE
  5
276
100
AcDbEntity
  8
BEZUGSACHSEN
100
AcDbLine
 62
7
  6
CONTINUOUS
 10
96.1640297286
 20
126.2604418043
 11
121.1346067298
 21
98.3323712549
  0
LINE
  5
277
100
AcDbEntity
  8
RUNDUNGEN
100
AcDbLine
 62
7
  6
CONTINUOUS
 10
96.1640297286
 20
126.2604418043
 11
121.1346067298
 21
98.3323712549
  0
LINE
  5
278
100
AcDbEntity
  8
0
100
AcDbLine
 62
7
  6
CONTINUOUS
 10
133.7127756635
 20
73.404146437
 11
133.4487245432
 21
73.9379686421
  0
LINE
  5
279
100
AcDbEntity
  8
0
100
AcDbLine
 62
7
  6
CONTINUOUS
 10
121.4603067708
 20
76.7780689706
 11
121.5164064985
 21
76.4856213642
  0
LINE
  5
27A
100
AcDbEntity
  8
0
100
AcDbLine
 62
7
  6
CONTINUOUS
 10
122.0400316057
 20
76.5214341108
 11
121.9558840015
 21
76.9601042031
  0
LINE
  5
27B
100
AcDbEntity
  8
0
100
AcDbLine
 62
7
  6
CONTINUOUS
 10
118.4668261674
 20
76.9754372861
 11
118.4921980902
 21
76.4480949735
  0
LINE
  5
27C
100
AcDbEntity
  8
0
100
AcDbLine
 62
7
  6
CONTINUOUS
 10
122.8936188076
 20
77.997739684
 11
122.8682468642
 21
78.5250819655
  0
LINE
  5
27D
100
AcDbEntity
  8
0
100
AcDbLine
 62
7
  6
CONTINUOUS
 10
118.9877753414
 20
76.6301302371
 11
118.9904533031
 21
77.0112487776
  0
LINE
  5
27E
100
AcDbEntity
  8
BEZUGSACHSEN
100
AcDbLine
 62
7
  6
CONTINUOUS
 10
124.0021689614
 20
222.4421993994
 11
123.9898387196
 21
222.1713959684
  0
LINE
  5
27F
100
AcDbEntity
  8
RUNDUNGEN
100
AcDbLine
 62
7
  6
CONTINUOUS
 10
201.2256153355
 20
106.1614103029
 11
200.9898387196
 21
106.1614103029
  0
LINE
  5
280
100
AcDbEntity
  8
0
100
AcDbLine
 62
7
  6
CONTINUOUS
 10
167.2385311286
 20
77.6969092708
 11
166.8512800501
 21
77.9698880423
  0
LINE
  5
281
100
AcDbEntity
  8
0
100
AcDbLine
 62
7
  6
CONTINUOUS
 10
159.4368106889
 20
69.9183079619
 11
157.8741416036
 21
72.0216014503
  0
LINE
  5
282
100
AcDbEntity
  8
0
100
AcDbLine
 62
7
  6
CONTINUOUS
 10
157.3296851192
 20
71.6481560346
 11
158.7346610891
 21
69.7216493666
  0
LINE
  5
283
100
AcDbEntity
  8
0
100
AcDbLine
 62
7
  6
CONTINUOUS
 10
129.8176963542
 20
71.2064742288
 11
129.7186838026
 21
71.5745163194
  0
LINE
  5
284
100
AcDbEntity
  8
BEZUGSACHSEN
100
AcDbLine
 62
7
  6
CONTINUOUS
 10
123.9898387196
 20
194.976924906
 11
123.9898387196
 21
196.9807187895
  0
LINE
  5
285
100
AcDbEntity
  8
RUNDUNGEN
100
AcDbLine
 62
7
  6
CONTINUOUS
 10
123.9898387196
 20
194.976924906
 11
123.9898387196
 21
213.6614103029
  0
LINE
  5
286
100
AcDbEntity
  8
BEZUGSACHSEN
100
AcDbLine
 62
7
  6
CONTINUOUS
 10
123.9898387196
 20
199.4652578802
 11
123.9898387196
 21
222.1713935788
  0
LINE
  5
287
100
AcDbEntity
  8
0
100
AcDbLine
 62
7
  6
CONTINUOUS
 10
122.3726696336
 20
78.343046733
 11
122.3699917131
 21
77.9619282547
  0
LINE
  5
288
100
AcDbEntity
  8
0
100
AcDbLine
 62
7
  6
CONTINUOUS
 10
166.7416338431
 20
77.3031638118
 11
167.0375421573
 21
76.9801065408
  0
LINE
  5
289
100
AcDbEntity
  8
0
100
AcDbLine
 62
7
  6
CONTINUOUS
 10
167.5855820188
 20
77.2805683689
 11
167.2385311286
 21
77.6969092708
  0
LINE
  5
28A
100
AcDbEntity
  8
0
100
AcDbLine
 62
7
  6
CONTINUOUS
 10
160.955779065
 20
71.8346106559
 11
160.6990545573
 21
72.189605376
  0
LINE
  5
28B
100
AcDbEntity
  8
0
100
AcDbLine
 62
7
  6
CONTINUOUS
 10
157.5153793927
 20
73.6887483942
 11
157.7017596196
 21
73.4095194675
  0
LINE
  5
28C
100
AcDbEntity
  8
0
100
AcDbLine
 62
7
  6
CONTINUOUS
 10
158.30359951
 20
73.5780832428
 11
158.1172192831
 21
73.8573121695
  0
LINE
  5
28D
100
AcDbEntity
  8
0
100
AcDbLine
 62
7
  6
CONTINUOUS
 10
160.1200488674
 20
71.9542813204
 11
160.4168285288
 21
71.5007324521
  0
LINE
  5
28E
100
AcDbEntity
  8
0
100
AcDbLine
 62
7
  6
CONTINUOUS
 10
129.0915251287
 20
71.6673297516
 11
129.157525782
 21
71.1981562323
  0
LINE
  5
28F
100
AcDbEntity
  8
0
100
AcDbLine
 62
7
  6
CONTINUOUS
 10
133.0526051143
 20
73.3958285113
 11
133.0525923516
 21
73.0601105158
  0
LINE
  5
290
100
AcDbEntity
  8
0
100
AcDbLine
 62
7
  6
CONTINUOUS
 10
129.7186838026
 20
71.5745163194
 11
129.7517060816
 21
72.0113661294
  0
LINE
  5
291
100
AcDbEntity
  8
0
100
AcDbLine
 62
7
  6
CONTINUOUS
 10
129.157559283
 20
72.2053109196
 11
129.0915251287
 21
71.6673297516
  0
LINE
  5
292
100
AcDbEntity
  8
0
100
AcDbLine
 62
7
  6
CONTINUOUS
 10
118.5870554509
 20
77.5339002051
 11
118.4668261674
 21
76.9754372861
  0
LINE
  5
293
100
AcDbEntity
  8
0
100
AcDbLine
 62
7
  6
CONTINUOUS
 10
121.9198043507
 20
75.9629699367
 11
122.0400316057
 21
76.5214341108
  0
LINE
  5
294
100
AcDbEntity
  8
0
100
AcDbLine
 62
7
  6
CONTINUOUS
 10
118.9904533031
 20
77.0112487776
 11
119.0799547611
 21
77.3348169593
  0
LINE
  5
295
100
AcDbEntity
  8
RUNDUNGEN
100
AcDbLine
 62
7
  6
CONTINUOUS
 10
176.0893467727
 20
88.5619022498
 11
183.1474067763
 21
81.5038422462
  0
LINE
  5
296
100
AcDbEntity
  8
0
100
AcDbLine
 62
7
  6
CONTINUOUS
 10
163.1137052686
 20
76.7700244529
 11
165.517399894
 21
72.3857055608
  0
LINE
  5
297
100
AcDbEntity
  8
0
100
AcDbLine
 62
7
  6
CONTINUOUS
 10
165.7585851232
 20
73.2458676717
 11
163.9685997266
 21
76.5107860637
  0
LINE
  5
298
100
AcDbEntity
  8
0
100
AcDbLine
 62
7
  6
CONTINUOUS
 10
158.8783389371
 20
75.0094603296
 11
160.1200488674
 21
71.9542813204
  0
LINE
  5
299
100
AcDbEntity
  8
0
100
AcDbLine
 62
7
  6
CONTINUOUS
 10
160.6990545573
 20
72.189605376
 11
159.457344627
 21
75.2447843852
  0
LINE
  5
29A
100
AcDbEntity
  8
BEZUGSACHSEN
100
AcDbLine
 62
7
  6
CONTINUOUS
 10
141.2898387196
 20
222.1613105619
 11
141.2898387196
 21
213.6614103029
  0
LINE
  5
29B
100
AcDbEntity
  8
RUNDUNGEN
100
AcDbLine
 62
7
  6
CONTINUOUS
 10
141.2898387196
 20
213.6614103029
 11
141.2898387196
 21
196.8614574583
  0
LINE
  5
29C
100
AcDbEntity
  8
RUNDUNGEN
100
AcDbLine
 62
7
  6
CONTINUOUS
 10
141.9898387196
 20
75.9194533018
 11
141.9898387196
 21
65.9606601014
  0
LINE
  5
29D
100
AcDbEntity
  8
0
100
AcDbLine
 62
7
  6
CONTINUOUS
 10
133.6467391502
 20
72.8661657255
 11
133.7127756635
 21
73.404146437
  0
LINE
  5
29E
100
AcDbEntity
  8
0
100
AcDbLine
 62
7
  6
CONTINUOUS
 10
121.5164064985
 20
76.4856213642
 11
121.4269029709
 21
76.1620543756
  0
LINE
  5
29F
100
AcDbEntity
  8
0
100
AcDbLine
 62
7
  6
CONTINUOUS
 10
122.8041153623
 20
77.6741728195
 11
122.8936188076
 21
77.997739684
  0
LINE
  5
2A0
100
AcDbEntity
  8
0
100
AcDbLine
 62
7
  6
CONTINUOUS
 10
118.9116596349
 20
78.2121572681
 11
118.5870554509
 21
77.5339002051
  0
LINE
  5
2A1
100
AcDbEntity
  8
RUNDUNGEN
100
AcDbLine
 62
7
  6
CONTINUOUS
 10
200.9898387196
 20
133.1614103029
 11
201.2256153355
 21
133.1614103029
  0
LINE
  5
2A2
100
AcDbEntity
  8
0
100
AcDbLine
 62
7
  6
CONTINUOUS
 10
167.0375421573
 20
76.9801065408
 11
167.80467872
 21
75.5808558667
  0
LINE
  5
2A3
100
AcDbEntity
  8
0
100
AcDbLine
 62
7
  6
CONTINUOUS
 10
168.3527185815
 20
75.8813176948
 11
167.5855820188
 21
77.2805683689
  0
LINE
  5
2A4
100
AcDbEntity
  8
0
100
AcDbLine
 62
7
  6
CONTINUOUS
 10
161.7733673864
 20
76.1860806073
 11
163.0150773167
 21
73.1309015981
  0
LINE
  5
2A5
100
AcDbEntity
  8
0
100
AcDbLine
 62
7
  6
CONTINUOUS
 10
163.5940830066
 20
73.3662256536
 11
162.3523730763
 21
76.4214046628
  0
LINE
  5
2A6
100
AcDbEntity
  8
0
100
AcDbLine
 62
7
  6
CONTINUOUS
 10
154.2766463167
 20
73.6654560791
 11
155.6251565193
 21
68.8507369561
  0
LINE
  5
2A7
100
AcDbEntity
  8
0
100
AcDbLine
 62
7
  6
CONTINUOUS
 10
156.2269964097
 20
69.0193007314
 11
155.6244705659
 21
71.1705582425
  0
LINE
  5
2A8
100
AcDbEntity
  8
0
100
AcDbLine
 62
7
  6
CONTINUOUS
 10
155.4523203478
 20
71.7852031636
 11
155.0219447222
 21
73.3218157535
  0
LINE
  5
2A9
100
AcDbEntity
  8
0
100
AcDbLine
 62
7
  6
CONTINUOUS
 10
157.7017596196
 20
73.4095194675
 11
157.7878348091
 21
73.10219672
  0
LINE
  5
2AA
100
AcDbEntity
  8
0
100
AcDbLine
 62
7
  6
CONTINUOUS
 10
158.4183664024
 20
73.1683196751
 11
158.30359951
 21
73.5780832428
  0
LINE
  5
2AB
100
AcDbEntity
  8
RUNDUNGEN
100
AcDbLine
 62
7
  6
CONTINUOUS
 10
147.9898387196
 20
65.8933900678
 11
147.9898387196
 21
75.9194533018
  0
LINE
  5
2AC
100
AcDbEntity
  8
RUNDUNGEN
100
AcDbLine
 62
7
  6
CONTINUOUS
 10
148.6898387196
 20
196.86145316
 11
148.6898387196
 21
213.6614103029
  0
LINE
  5
2AD
100
AcDbEntity
  8
BEZUGSACHSEN
100
AcDbLine
 62
7
  6
CONTINUOUS
 10
148.6898387196
 20
213.6614103029
 11
148.6898387196
 21
222.1614103029
  0
LINE
  5
2AE
100
AcDbEntity
  8
0
100
AcDbLine
 62
7
  6
CONTINUOUS
 10
134.8544909227
 20
73.8744353602
 11
133.854706101
 21
68.9754119564
  0
LINE
  5
2AF
100
AcDbEntity
  8
0
100
AcDbLine
 62
7
  6
CONTINUOUS
 10
134.594716131
 20
69.4758460952
 11
134.9350684149
 21
71.1435987635
  0
LINE
  5
2B0
100
AcDbEntity
  8
0
100
AcDbLine
 62
7
  6
CONTINUOUS
 10
135.0627005046
 20
71.7690059319
 11
135.3392367585
 21
73.124055089
  0
LINE
  5
2B1
100
AcDbEntity
  8
0
100
AcDbLine
 62
7
  6
CONTINUOUS
 10
137.5887053132
 20
70.6020488106
 11
137.7163374029
 21
71.2274559791
  0
LINE
  5
2B2
100
AcDbEntity
  8
0
100
AcDbLine
 62
7
  6
CONTINUOUS
 10
137.5289736538
 20
68.2255733401
 11
137.6566057584
 21
68.8509805816
  0
LINE
  5
2B3
100
AcDbEntity
  8
0
100
AcDbLine
 62
7
  6
CONTINUOUS
 10
138.4011263858
 20
72.4991895754
 11
138.5287584755
 21
73.1245967438
  0
LINE
  5
2B4
100
AcDbEntity
  8
0
100
AcDbLine
 62
7
  6
CONTINUOUS
 10
129.652737458
 20
73.7222814302
 11
129.157559283
 21
72.2053109196
  0
LINE
  5
2B5
100
AcDbEntity
  8
0
100
AcDbLine
 62
7
  6
CONTINUOUS
 10
129.7517060816
 20
72.0113661294
 11
130.2468842566
 21
73.52833664
  0
LINE
  5
2B6
100
AcDbEntity
  8
0
100
AcDbLine
 62
7
  6
CONTINUOUS
 10
128.8435412425
 20
75.9299476833
 11
126.9329977734
 21
71.3093607452
  0
LINE
  5
2B7
100
AcDbEntity
  8
0
100
AcDbLine
 62
7
  6
CONTINUOUS
 10
127.5105711406
 20
71.0705428116
 11
129.4211146097
 21
75.6911297497
  0
LINE
  5
2B8
100
AcDbEntity
  8
0
100
AcDbLine
 62
7
  6
CONTINUOUS
 10
119.3230892613
 20
78.8328625929
 11
118.9116596349
 21
78.2121572681
  0
LINE
  5
2B9
100
AcDbEntity
  8
0
100
AcDbLine
 62
7
  6
CONTINUOUS
 10
108.7953196798
 20
86.8427554841
 11
111.4310644495
 21
89.7435422406
  0
LINE
  5
2BA
100
AcDbEntity
  8
0
100
AcDbLine
 62
7
  6
CONTINUOUS
 10
110.4095003435
 20
89.5273895673
 11
107.6004638739
 21
86.5031548782
  0
LINE
  5
2BB
100
AcDbEntity
  8
0
100
AcDbLine
 62
7
  6
CONTINUOUS
 10
109.7387999958
 20
92.1190812853
 11
106.1499515962
 21
88.5393310462
  0
LINE
  5
2BC
100
AcDbEntity
  8
0
100
AcDbLine
 62
7
  6
CONTINUOUS
 10
107.3448074885
 20
88.8789315307
 11
110.1014280868
 21
91.610037213
  0
LINE
  5
2BD
100
AcDbEntity
  8
RUNDUNGEN
100
AcDbLine
 62
7
  6
CONTINUOUS
 10
182.6271984779
 20
160.7162917141
 11
174.1122523974
 21
153.103051251
  0
LINE
  5
2BE
100
AcDbEntity
  8
RUNDUNGEN
100
AcDbLine
 62
7
  6
CONTINUOUS
 10
192.3675263602
 20
107.0003114674
 11
187.057675125
 21
111.0747036223
  0
LINE
  5
2BF
100
AcDbEntity
  8
RUNDUNGEN
100
AcDbLine
 62
7
  6
CONTINUOUS
 10
180.79813407
 20
93.967825271
 11
185.2940630554
 21
87.546973252
  0
LINE
  5
2C0
100
AcDbEntity
  8
0
100
AcDbLine
 62
7
  6
CONTINUOUS
 10
168.5170921621
 20
75.3648246398
 11
168.3527185815
 21
75.8813176948
  0
LINE
  5
2C1
100
AcDbEntity
  8
0
100
AcDbLine
 62
7
  6
CONTINUOUS
 10
167.80467872
 20
75.5808558667
 11
167.9179098678
 21
75.1576461812
  0
LINE
  5
2C2
100
AcDbEntity
  8
0
100
AcDbLine
 62
7
  6
CONTINUOUS
 10
163.6978592988
 20
72.834234835
 11
163.5940830066
 21
73.3662256536
  0
LINE
  5
2C3
100
AcDbEntity
  8
0
100
AcDbLine
 62
7
  6
CONTINUOUS
 10
157.7878348091
 20
73.10219672
 11
157.7736048003
 21
72.7667807255
  0
LINE
  5
2C4
100
AcDbEntity
  8
0
100
AcDbLine
 62
7
  6
CONTINUOUS
 10
158.4041363937
 20
72.8329036806
 11
158.4183664024
 21
73.1683196751
  0
LINE
  5
2C5
100
AcDbEntity
  8
0
100
AcDbLine
 62
7
  6
CONTINUOUS
 10
129.9168221486
 20
74.1956141248
 11
129.652737458
 21
73.7222814302
  0
LINE
  5
2C6
100
AcDbEntity
  8
0
100
AcDbLine
 62
7
  6
CONTINUOUS
 10
119.6396625824
 20
78.3677621206
 11
119.7572139042
 21
78.5451064991
  0
LINE
  5
2C7
100
AcDbEntity
  8
0
100
AcDbLine
 62
7
  6
CONTINUOUS
 10
119.0799547611
 20
77.3348169593
 11
119.2562817438
 21
77.600833527
  0
LINE
  5
2C8
100
AcDbEntity
  8
0
100
AcDbLine
 62
7
  6
CONTINUOUS
 10
121.4269029709
 20
76.1620543756
 11
121.2505759882
 21
75.8960378078
  0
LINE
  5
2C9
100
AcDbEntity
  8
0
100
AcDbLine
 62
7
  6
CONTINUOUS
 10
121.6259259638
 20
75.5196088662
 11
121.9198043507
 21
75.9629699367
  0
LINE
  5
2CA
100
AcDbEntity
  8
0
100
AcDbLine
 62
7
  6
CONTINUOUS
 10
119.8213444125
 20
79.3960163037
 11
119.3230892613
 21
78.8328625929
  0
LINE
  5
2CB
100
AcDbEntity
  8
0
100
AcDbLine
 62
7
  6
CONTINUOUS
 10
113.1913561098
 20
87.4135733454
 11
109.5312162918
 21
84.0072004192
  0
LINE
  5
2CC
100
AcDbEntity
  8
0
100
AcDbLine
 62
7
  6
CONTINUOUS
 10
109.9570129075
 20
83.5496829419
 11
111.6702698576
 21
85.1441553884
  0
LINE
  5
2CD
100
AcDbEntity
  8
0
100
AcDbLine
 62
7
  6
CONTINUOUS
 10
112.1375216935
 20
85.5790114548
 11
113.6171527256
 21
86.9560558682
  0
LINE
  5
2CE
100
AcDbEntity
  8
0
100
AcDbLine
 62
7
  6
CONTINUOUS
 10
115.6042037345
 20
84.8209741622
 11
114.1245727025
 21
83.4439297489
  0
LINE
  5
2CF
100
AcDbEntity
  8
0
100
AcDbLine
 62
7
  6
CONTINUOUS
 10
113.6573208665
 20
83.0090736825
 11
111.9440639165
 21
81.414601236
  0
LINE
  5
2D0
100
AcDbEntity
  8
0
100
AcDbLine
 62
7
  6
CONTINUOUS
 10
112.3698605323
 20
80.9570837587
 11
116.0300003503
 21
84.3634566849
  0
LINE
  5
2D1
100
AcDbEntity
  8
RUNDUNGEN
100
AcDbLine
 62
7
  6
CONTINUOUS
 10
183.5696709685
 20
147.5385819639
 11
189.8442242721
 21
153.3488820301
  0
LINE
  5
2D2
100
AcDbEntity
  8
0
100
AcDbLine
 62
7
  6
CONTINUOUS
 10
109.0487684809
 20
93.4108169054
 11
104.7375893497
 21
90.8782817134
  0
LINE
  5
2D3
100
AcDbEntity
  8
0
100
AcDbLine
 62
7
  6
CONTINUOUS
 10
105.0541562487
 20
90.339384322
 11
109.3653353799
 21
92.871919514
  0
LINE
  5
2D4
100
AcDbEntity
  8
RUNDUNGEN
100
AcDbLine
 62
7
  6
CONTINUOUS
 10
99.4631960038
 20
103.0910674883
 11
103.6608923637
 21
104.6189040158
  0
LINE
  5
2D5
100
AcDbEntity
  8
RUNDUNGEN
100
AcDbLine
 62
7
  6
CONTINUOUS
 10
183.8817912953
 20
139.1117859563
 11
192.0090186144
 21
137.3546172127
  0
LINE
  5
2D6
100
AcDbEntity
  8
RUNDUNGEN
100
AcDbLine
 62
7
  6
CONTINUOUS
 10
191.5465061579
 20
114.6303024263
 11
187.057675125
 21
118.0747036223
  0
LINE
  5
2D7
100
AcDbEntity
  8
0
100
AcDbLine
 62
7
  6
CONTINUOUS
 10
163.0150773167
 20
73.1309015981
 11
163.0787984553
 21
72.6974649277
  0
LINE
  5
2D8
100
AcDbEntity
  8
0
100
AcDbLine
 62
7
  6
CONTINUOUS
 10
168.5389805813
 20
74.8915363893
 11
168.5170921621
 21
75.3648246398
  0
LINE
  5
2D9
100
AcDbEntity
  8
BEZUGSACHSEN
100
AcDbLine
 62
7
  6
CONTINUOUS
 10
165.9898387196
 20
222.1613105619
 11
165.9898387196
 21
213.6614103029
  0
LINE
  5
2DA
100
AcDbEntity
  8
RUNDUNGEN
100
AcDbLine
 62
7
  6
CONTINUOUS
 10
165.9898387196
 20
213.6614103029
 11
165.9898387196
 21
180.2947182859
  0
LINE
  5
2DB
100
AcDbEntity
  8
0
100
AcDbLine
 62
7
  6
CONTINUOUS
 10
163.6650765722
 20
72.3615762228
 11
163.6978592988
 21
72.834234835
  0
LINE
  5
2DC
100
AcDbEntity
  8
0
100
AcDbLine
 62
7
  6
CONTINUOUS
 10
132.6233836184
 20
70.0668111296
 11
132.8874659733
 21
70.5401443515
  0
LINE
  5
2DD
100
AcDbEntity
  8
0
100
AcDbLine
 62
7
  6
CONTINUOUS
 10
130.2468842566
 20
73.52833664
 11
130.4779569795
 21
73.9005376934
  0
LINE
  5
2DE
100
AcDbEntity
  8
0
100
AcDbLine
 62
7
  6
CONTINUOUS
 10
119.7572139042
 20
78.5451064991
 11
120.1966924008
 21
79.0195886794
  0
LINE
  5
2DF
100
AcDbEntity
  8
0
100
AcDbLine
 62
7
  6
CONTINUOUS
 10
112.2771965467
 20
88.5557729004
 11
108.7953196798
 21
86.8427554841
  0
LINE
  5
2E0
100
AcDbEntity
  8
0
100
AcDbLine
 62
7
  6
CONTINUOUS
 10
106.6334556888
 20
87.8606056569
 11
110.4095003435
 21
89.5273895673
  0
LINE
  5
2E1
100
AcDbEntity
  8
0
100
AcDbLine
 62
7
  6
CONTINUOUS
 10
110.9475602705
 20
90.4222677513
 11
107.3448074885
 21
88.8789315307
  0
LINE
  5
2E2
100
AcDbEntity
  8
RUNDUNGEN
100
AcDbLine
 62
7
  6
CONTINUOUS
 10
195.0453024775
 20
141.8375918347
 11
184.5059039841
 21
144.1162904464
  0
LINE
  5
2E3
100
AcDbEntity
  8
BEZUGSACHSEN
100
AcDbLine
 62
7
  6
CONTINUOUS
 10
138.9205440649
 20
174.4592110558
 11
126.5350802722
 21
188.3115984706
  0
LINE
  5
2E4
100
AcDbEntity
  8
RUNDUNGEN
100
AcDbLine
 62
7
  6
CONTINUOUS
 10
168.8450707088
 20
140.9904493516
 11
126.5350802722
 21
188.3115984706
  0
LINE
  5
2E5
100
AcDbEntity
  8
0
100
AcDbLine
 62
7
  6
CONTINUOUS
 10
167.9179098678
 20
75.1576461812
 11
167.8886558184
 21
74.7776413656
  0
LINE
  5
2E6
100
AcDbEntity
  8
0
100
AcDbLine
 62
7
  6
CONTINUOUS
 10
163.0787984553
 20
72.6974649277
 11
163.0059605471
 21
72.3233605327
  0
LINE
  5
2E7
100
AcDbEntity
  8
0
100
AcDbLine
 62
7
  6
CONTINUOUS
 10
132.2933191746
 20
70.7340891418
 11
132.0952605934
 21
70.4630187064
  0
LINE
  5
2E8
100
AcDbEntity
  8
0
100
AcDbLine
 62
7
  6
CONTINUOUS
 10
130.246917827
 20
74.5354915397
 11
129.9168221486
 21
74.1956141248
  0
LINE
  5
2E9
100
AcDbEntity
  8
0
100
AcDbLine
 62
7
  6
CONTINUOUS
 10
120.1966924008
 20
79.0195886794
 11
120.459845073
 21
79.2280538816
  0
LINE
  5
2EA
100
AcDbEntity
  8
0
100
AcDbLine
 62
7
  6
CONTINUOUS
 10
119.2562817438
 20
77.600833527
 11
119.5194343337
 21
77.8092986051
  0
LINE
  5
2EB
100
AcDbEntity
  8
0
100
AcDbLine
 62
7
  6
CONTINUOUS
 10
121.2505759882
 20
75.8960378078
 11
120.9874254679
 21
75.6875715367
  0
LINE
  5
2EC
100
AcDbEntity
  8
RUNDUNGEN
100
AcDbLine
 62
7
  6
CONTINUOUS
 10
192.8038918796
 20
133.8130787435
 11
186.9508763447
 21
129.3219019626
  0
LINE
  5
2ED
100
AcDbEntity
  8
0
100
AcDbLine
 62
7
  6
CONTINUOUS
 10
120.288871944
 20
79.7242755878
 11
119.8213444125
 21
79.3960163037
  0
LINE
  5
2EE
100
AcDbEntity
  8
0
100
AcDbLine
 62
7
  6
CONTINUOUS
 10
121.1583965685
 20
75.1913510856
 11
121.6259259638
 21
75.5196088662
  0
LINE
  5
2EF
100
AcDbEntity
  8
0
100
AcDbLine
 62
7
  6
CONTINUOUS
 10
108.083968053
 20
85.8244293675
 11
112.6398246378
 21
88.046728828
  0
LINE
  5
2F0
100
AcDbEntity
  8
0
100
AcDbLine
 62
7
  6
CONTINUOUS
 10
168.3781918162
 20
74.3180957571
 11
168.5389805813
 21
74.8915363893
  0
LINE
  5
2F1
100
AcDbEntity
  8
0
100
AcDbLine
 62
7
  6
CONTINUOUS
 10
158.2179832606
 20
72.3388585122
 11
158.4041363937
 21
72.8329036806
  0
LINE
  5
2F2
100
AcDbEntity
  8
0
100
AcDbLine
 62
7
  6
CONTINUOUS
 10
163.4392948799
 20
71.8104774901
 11
163.6650765722
 21
72.3615762228
  0
LINE
  5
2F3
100
AcDbEntity
  8
0
100
AcDbLine
 62
7
  6
CONTINUOUS
 10
157.7736048003
 20
72.7667807255
 11
157.630373379
 21
72.5057107313
  0
LINE
  5
2F4
100
AcDbEntity
  8
0
100
AcDbLine
 62
7
  6
CONTINUOUS
 10
130.4779569795
 20
73.9005376934
 11
130.7750408752
 21
74.1392840337
  0
LINE
  5
2F5
100
AcDbEntity
  8
RUNDUNGEN
100
AcDbLine
 62
7
  6
CONTINUOUS
 10
187.057675125
 20
121.2481169835
 11
191.5465061579
 21
124.6925181795
  0
LINE
  5
2F6
100
AcDbEntity
  8
0
100
AcDbLine
 62
7
  6
CONTINUOUS
 10
120.459845073
 20
79.2280538816
 11
120.809821118
 21
79.3789685388
  0
LINE
  5
2F7
100
AcDbEntity
  8
0
100
AcDbLine
 62
7
  6
CONTINUOUS
 10
120.7844491746
 20
79.9063108203
 11
120.288871944
 21
79.7242755878
  0
LINE
  5
2F8
100
AcDbEntity
  8
RUNDUNGEN
100
AcDbLine
 62
7
  6
CONTINUOUS
 10
161.0955771111
 20
169.6614103029
 11
171.1221558351
 21
169.6614103029
  0
LINE
  5
2F9
100
AcDbEntity
  8
RUNDUNGEN
100
AcDbLine
 62
7
  6
CONTINUOUS
 10
171.2882354576
 20
153.2609383099
 11
159.6046251117
 21
166.3283453624
  0
LINE
  5
2FA
100
AcDbEntity
  8
RUNDUNGEN
100
AcDbLine
 62
7
  6
CONTINUOUS
 10
183.8539682451
 20
130.2245683565
 11
181.5797564608
 21
136.4729138811
  0
LINE
  5
2FB
100
AcDbEntity
  8
RUNDUNGEN
100
AcDbLine
 62
7
  6
CONTINUOUS
 10
183.992393202
 20
110.2533638065
 11
182.041606521
 21
105.5437481439
  0
LINE
  5
2FC
100
AcDbEntity
  8
0
100
AcDbLine
 62
7
  6
CONTINUOUS
 10
167.8886558184
 20
74.7776413656
 11
167.716920789
 21
74.4408436471
  0
LINE
  5
2FD
100
AcDbEntity
  8
0
100
AcDbLine
 62
7
  6
CONTINUOUS
 10
163.0059605471
 20
72.3233605327
 11
162.7965680374
 21
72.0085901395
  0
LINE
  5
2FE
100
AcDbEntity
  8
0
100
AcDbLine
 62
7
  6
CONTINUOUS
 10
130.7750639493
 20
74.810720198
 11
130.246917827
 21
74.5354915397
  0
LINE
  5
2FF
100
AcDbEntity
  8
0
100
AcDbLine
 62
7
  6
CONTINUOUS
 10
132.0952374846
 20
69.7915824358
 11
132.6233836184
 21
70.0668111296
  0
LINE
  5
300
100
AcDbEntity
  8
0
100
AcDbLine
 62
7
  6
CONTINUOUS
 10
120.9874254679
 20
75.6875715367
 11
120.6374473945
 21
75.5366581347
  0
LINE
  5
301
100
AcDbEntity
  8
0
100
AcDbLine
 62
7
  6
CONTINUOUS
 10
120.6628193173
 20
75.0093158221
 11
121.1583965685
 21
75.1913510856
  0
LINE
  5
302
100
AcDbEntity
  8
RUNDUNGEN
100
AcDbLine
 62
7
  6
CONTINUOUS
 10
172.0672573649
 20
169.424017207
 11
182.2392350671
 21
163.9698506176
  0
LINE
  5
303
100
AcDbEntity
  8
RUNDUNGEN
100
AcDbLine
 62
7
  6
CONTINUOUS
 10
194.7640290159
 20
123.1058114989
 11
194.7640290159
 21
116.2170091069
  0
LINE
  5
304
100
AcDbEntity
  8
RUNDUNGEN
100
AcDbLine
 62
7
  6
CONTINUOUS
 10
199.9898387196
 20
107.1614103029
 11
199.9898387196
 21
132.1614103029
  0
LINE
  5
305
100
AcDbEntity
  8
0
100
AcDbLine
 62
7
  6
CONTINUOUS
 10
168.1151181812
 20
73.9312218721
 11
168.3781918162
 21
74.3180957571
  0
LINE
  5
306
100
AcDbEntity
  8
0
100
AcDbLine
 62
7
  6
CONTINUOUS
 10
163.1334028769
 20
71.4564870626
 11
163.4392948799
 21
71.8104774901
  0
LINE
  5
307
100
AcDbEntity
  8
0
100
AcDbLine
 62
7
  6
CONTINUOUS
 10
167.716920789
 20
74.4408436471
 11
167.4027047078
 21
74.1472531562
  0
LINE
  5
308
100
AcDbEntity
  8
0
100
AcDbLine
 62
7
  6
CONTINUOUS
 10
157.8741416036
 20
72.0216014503
 11
158.2179832606
 21
72.3388585122
  0
LINE
  5
309
100
AcDbEntity
  8
0
100
AcDbLine
 62
7
  6
CONTINUOUS
 10
157.630373379
 20
72.5057107313
 11
157.3581451368
 21
72.3189880235
  0
LINE
  5
30A
100
AcDbEntity
  8
0
100
AcDbLine
 62
7
  6
CONTINUOUS
 10
165.3058647147
 20
77.9718717656
 11
163.1137052686
 21
76.7700244529
  0
LINE
  5
30B
100
AcDbEntity
  8
0
100
AcDbLine
 62
7
  6
CONTINUOUS
 10
165.8137084258
 20
78.128974017
 11
165.3058647147
 21
77.9718717656
  0
LINE
  5
30C
100
AcDbEntity
  8
0
100
AcDbLine
 62
7
  6
CONTINUOUS
 10
130.7750408752
 20
74.1392840337
 11
131.138138025
 21
74.2445743544
  0
LINE
  5
30D
100
AcDbEntity
  8
0
100
AcDbLine
 62
7
  6
CONTINUOUS
 10
132.0952605934
 20
70.4630187064
 11
131.7321634205
 21
70.3577283149
  0
LINE
  5
30E
100
AcDbEntity
  8
RUNDUNGEN
100
AcDbLine
 62
7
  6
CONTINUOUS
 10
192.9722688311
 20
152.8141955818
 11
197.2371140208
 21
144.7251969039
  0
LINE
  5
30F
100
AcDbEntity
  8
RUNDUNGEN
100
AcDbLine
 62
7
  6
CONTINUOUS
 10
188.4644560302
 20
87.4085509053
 11
194.6352531441
 21
94.762620535
  0
LINE
  5
310
100
AcDbEntity
  8
0
100
AcDbLine
 62
7
  6
CONTINUOUS
 10
167.70955934
 20
73.5875528735
 11
168.1151181812
 21
73.9312218721
  0
LINE
  5
311
100
AcDbEntity
  8
0
100
AcDbLine
 62
7
  6
CONTINUOUS
 10
162.7965680374
 20
72.0085901395
 11
162.4506208703
 21
71.753153886
  0
LINE
  5
312
100
AcDbEntity
  8
0
100
AcDbLine
 62
7
  6
CONTINUOUS
 10
162.69095182
 20
71.1618289276
 11
163.1334028769
 21
71.4564870626
  0
LINE
  5
313
100
AcDbEntity
  8
0
100
AcDbLine
 62
7
  6
CONTINUOUS
 10
163.9685997266
 20
76.5107860637
 11
165.6127193111
 21
77.4121715482
  0
LINE
  5
314
100
AcDbEntity
  8
0
100
AcDbLine
 62
7
  6
CONTINUOUS
 10
167.4027047078
 20
74.1472531562
 11
165.7585851232
 21
73.2458676717
  0
LINE
  5
315
100
AcDbEntity
  8
0
100
AcDbLine
 62
7
  6
CONTINUOUS
 10
165.517399894
 20
72.3857055608
 11
167.70955934
 21
73.5875528735
  0
LINE
  5
316
100
AcDbEntity
  8
0
100
AcDbLine
 62
7
  6
CONTINUOUS
 10
162.3523730763
 20
76.4214046628
 11
161.7733673864
 21
76.1860806073
  0
LINE
  5
317
100
AcDbEntity
  8
0
100
AcDbLine
 62
7
  6
CONTINUOUS
 10
159.457344627
 20
75.2447843852
 11
158.8783389371
 21
75.0094603296
  0
LINE
  5
318
100
AcDbEntity
  8
0
100
AcDbLine
 62
7
  6
CONTINUOUS
 10
162.4506208703
 20
71.753153886
 11
162.0646185495
 21
71.5962717808
  0
LINE
  5
319
100
AcDbEntity
  8
0
100
AcDbLine
 62
7
  6
CONTINUOUS
 10
162.3049494993
 20
71.0049468224
 11
162.69095182
 21
71.1618289276
  0
LINE
  5
31A
100
AcDbEntity
  8
BEZUGSACHSEN
100
AcDbLine
 62
7
  6
CONTINUOUS
 10
141.2898387196
 20
208.9114103029
 11
148.6898387196
 21
208.9114103029
  0
LINE
  5
31B
100
AcDbEntity
  8
BEZUGSACHSEN
100
AcDbLine
 62
7
  6
CONTINUOUS
 10
141.2898387196
 20
217.4114103029
 11
148.6898387196
 21
217.4114103029
  0
LWPOLYLINE
  5
31C
100
AcDbEntity
  8
RUNDUNGEN
100
AcDbPolyline
 62
7
  6
CONTINUOUS
 90
19
 70
0
 10
126.989847717
 20
225.1614102986
 10
126.8968104826
 20
225.1599763111
 10
126.6251883337
 20
225.1392906916
 10
126.35663647
 20
225.0941770576
 10
126.0933950638
 20
225.0250133164
 10
125.8376521562
 20
224.9323913265
 10
125.5914971928
 20
224.817094189
 10
125.356962634
 20
224.6801088268
 10
125.1359331102
 20
224.5225758194
 10
124.9301992417
 20
224.3458107076
 10
124.7414172032
 20
224.1512769694
 10
124.5711095931
 20
223.940584876
 10
124.4206434853
 20
223.7154679625
 10
124.291229121
 20
223.4777806735
 10
124.1838994757
 20
223.2294640166
 10
124.0995144568
 20
222.9725488081
 10
124.0387489922
 20
222.7091279514
 10
124.0020906581
 20
222.4413398631
 10
123.9898387196
 20
222.1713959684
  0
LWPOLYLINE
  5
31D
100
AcDbEntity
  8
BEZUGSACHSEN
100
AcDbPolyline
 62
7
  6
CONTINUOUS
 90
18
 70
0
 10
126.9898480823
 20
225.1614102984
 10
126.9115549797
 20
225.1603949469
 10
126.638964468
 20
225.1409365436
 10
126.3693493011
 20
225.0968802967
 10
126.1049736485
 20
225.0285973556
 10
125.8480498075
 20
224.9366761241
 10
125.6006901854
 20
224.8218990068
 10
125.3649505597
 20
224.6852552459
 10
125.1427371032
 20
224.5278900323
 10
124.9358614489
 20
224.3511260578
 10
124.7459995747
 20
224.156436272
 10
124.5746925768
 20
223.9454426624
 10
124.4233242078
 20
223.719892241
 10
124.2931197208
 20
223.4816548309
 10
124.1851249764
 20
223.23268809
 10
124.1002107769
 20
222.9750408587
 10
124.039060774
 20
222.7108252039
 10
124.0021689614
 20
222.4421993994
  0
LINE
  5
31E
100
AcDbEntity
  8
RUNDUNGEN
100
AcDbLine
 62
7
  6
CONTINUOUS
 10
126.9898386831
 20
225.1614103029
 11
138.2898387196
 21
225.1614103029
  0
LINE
  5
31F
100
AcDbEntity
  8
RUNDUNGEN
100
AcDbLine
 62
7
  6
CONTINUOUS
 10
151.6898387196
 20
225.1614103029
 11
162.9898387196
 21
225.1614103029
  0
LWPOLYLINE
  5
320
100
AcDbEntity
  8
RUNDUNGEN
100
AcDbPolyline
 62
7
  6
CONTINUOUS
 90
15
 70
0
 10
299.4424594003
 20
56.661410518
 10
299.6782111233
 20
56.6667308262
 10
300.0991636886
 20
56.7028335355
 10
300.5115496849
 20
56.7719167503
 10
300.9114765649
 20
56.8720783137
 10
301.2958303746
 20
57.0009763227
 10
301.6620632411
 20
57.1559545146
 10
302.0083690853
 20
57.3342689779
 10
302.3318628227
 20
57.5320989445
 10
302.6307771883
 20
57.7455135758
 10
302.9034976615
 20
57.969983086
 10
303.1491436104
 20
58.2008029124
 10
303.3677096626
 20
58.4334373604
 10
303.5590955097
 20
58.6626241131
 10
303.5816030569
 20
58.6913793398
  0
LINE
  5
321
100
AcDbEntity
  8
0
100
AcDbLine
 62
7
  6
CONTINUOUS
 10
295.3293844592
 20
56.6614103029
 11
299.4428584258
 21
56.6614103029
  0
LWPOLYLINE
  5
322
100
AcDbEntity
  8
BEZUGSACHSEN
100
AcDbPolyline
 62
7
  6
CONTINUOUS
 90
14
 70
0
 10
291.2126981947
 20
58.6631940063
 10
291.4035524331
 20
58.4345469759
 10
291.6214985692
 20
58.2024072032
 10
291.866432075
 20
57.9720223445
 10
292.1383564052
 20
57.7479038975
 10
292.4363629474
 20
57.5347624662
 10
292.7588074328
 20
57.3371244801
 10
293.1039336163
 20
57.1588871344
 10
293.4688662425
 20
57.0038434451
 10
293.8517985105
 20
56.8747126468
 10
294.250190334
 20
56.7741224528
 10
294.6609367334
 20
56.7043858331
 10
295.0801540484
 20
56.6673759901
 10
295.3297833961
 20
56.6614105179
  0
LINE
  5
323
100
AcDbEntity
  8
BEZUGSACHSEN
100
AcDbLine
 62
7
  6
CONTINUOUS
 10
291.1948757556
 20
58.6859364061
 11
291.2126981947
 21
58.6631940063
  0
LINE
  5
324
100
AcDbEntity
  8
BEZUGSACHSEN
100
AcDbLine
 62
7
  6
CONTINUOUS
 10
291.1948756931
 20
58.6859363572
 11
291.18990891
 21
58.6923200523
  0
LINE
  5
325
100
AcDbEntity
  8
BEZUGSACHSEN
100
AcDbLine
 62
7
  6
CONTINUOUS
 10
283.2880446895
 20
194.1614093647
 11
285.4840792247
 21
197.9650527549
  0
LINE
  5
326
100
AcDbEntity
  8
RUNDUNGEN
100
AcDbLine
 62
7
  6
CONTINUOUS
 10
307.5382918288
 20
179.3135806892
 11
311.0074419334
 21
182.7827307938
  0
LWPOLYLINE
  5
327
100
AcDbEntity
  8
BEZUGSACHSEN
100
AcDbPolyline
 62
7
  6
CONTINUOUS
 90
19
 70
0
 10
290.0750092026
 20
61.2785553997
 10
290.0943368333
 20
61.1842174392
 10
290.1146693471
 20
61.089332644
 10
290.1363172112
 20
60.9930127779
 10
290.1595893465
 20
60.8945864668
 10
290.184966611
 20
60.7929040051
 10
290.2129762587
 20
60.6869662138
 10
290.244285132
 20
60.575622261
 10
290.279657251
 20
60.4578173619
 10
290.3200682063
 20
60.3322983614
 10
290.3665549127
 20
60.19818844
 10
290.4207294276
 20
60.0536409684
 10
290.4843111307
 20
59.897434392
 10
290.5596315344
 20
59.7278446929
 10
290.6495728418
 20
59.5431997829
 10
290.7565295021
 20
59.3440286656
 10
290.8834048446
 20
59.1307986353
 10
291.0333850099
 20
58.9044993281
 10
291.18990891
 20
58.6923200523
  0
LINE
  5
328
100
AcDbEntity
  8
BEZUGSACHSEN
100
AcDbLine
 62
7
  6
CONTINUOUS
 10
286.2082366282
 20
80.8280314338
 11
286.792060837
 21
77.9000696469
  0
LINE
  5
329
100
AcDbEntity
  8
BEZUGSACHSEN
100
AcDbLine
 62
7
  6
CONTINUOUS
 10
289.5432150084
 20
63.9767347669
 11
290.0750092026
 21
61.2785553997
  0
LINE
  5
32A
100
AcDbEntity
  8
BEZUGSACHSEN
100
AcDbLine
 62
7
  6
CONTINUOUS
 10
285.2044529325
 20
94.2971974456
 11
285.364103084
 21
92.0764662071
  0
LINE
  5
32B
100
AcDbEntity
  8
BEZUGSACHSEN
100
AcDbLine
 62
7
  6
CONTINUOUS
 10
285.0548541767
 20
96.5145275097
 11
285.2044529325
 21
94.2971974456
  0
LINE
  5
32C
100
AcDbEntity
  8
BEZUGSACHSEN
100
AcDbLine
 62
7
  6
CONTINUOUS
 10
284.9018911034
 20
98.9529882643
 11
285.0548541767
 21
96.5145275097
  0
LINE
  5
32D
100
AcDbEntity
  8
BEZUGSACHSEN
100
AcDbLine
 62
7
  6
CONTINUOUS
 10
284.7794118291
 20
101.0661873792
 11
284.9018911034
 21
98.9529882643
  0
LINE
  5
32E
100
AcDbEntity
  8
BEZUGSACHSEN
100
AcDbLine
 62
7
  6
CONTINUOUS
 10
284.6590172543
 20
103.3290749275
 11
284.7794118291
 21
101.0661873792
  0
LINE
  5
32F
100
AcDbEntity
  8
BEZUGSACHSEN
100
AcDbLine
 62
7
  6
CONTINUOUS
 10
284.5432739002
 20
105.7458965974
 11
284.6590172543
 21
103.3290749275
  0
LINE
  5
330
100
AcDbEntity
  8
BEZUGSACHSEN
100
AcDbLine
 62
7
  6
CONTINUOUS
 10
284.4614543368
 20
107.6612366197
 11
284.5432739002
 21
105.7458965974
  0
LINE
  5
331
100
AcDbEntity
  8
BEZUGSACHSEN
100
AcDbLine
 62
7
  6
CONTINUOUS
 10
284.3857490755
 20
109.6653498065
 11
284.4614543368
 21
107.6612366197
  0
LINE
  5
332
100
AcDbEntity
  8
BEZUGSACHSEN
100
AcDbLine
 62
7
  6
CONTINUOUS
 10
284.3181384419
 20
111.7584766926
 11
284.3857490755
 21
109.6653498065
  0
LINE
  5
333
100
AcDbEntity
  8
BEZUGSACHSEN
100
AcDbLine
 62
7
  6
CONTINUOUS
 10
284.26098844
 20
113.9399465828
 11
284.3181384419
 21
111.7584766926
  0
LINE
  5
334
100
AcDbEntity
  8
BEZUGSACHSEN
100
AcDbLine
 62
7
  6
CONTINUOUS
 10
284.2300726084
 20
115.4424833881
 11
284.26098844
 21
113.9399465828
  0
LINE
  5
335
100
AcDbEntity
  8
BEZUGSACHSEN
100
AcDbLine
 62
7
  6
CONTINUOUS
 10
284.2060132686
 20
116.9826077159
 11
284.2300726084
 21
115.4424833881
  0
LINE
  5
336
100
AcDbEntity
  8
BEZUGSACHSEN
100
AcDbLine
 62
7
  6
CONTINUOUS
 10
284.1898889458
 20
118.5594426302
 11
284.2060132686
 21
116.9826077159
  0
LINE
  5
337
100
AcDbEntity
  8
BEZUGSACHSEN
100
AcDbLine
 62
7
  6
CONTINUOUS
 10
284.1829169131
 20
120.1722125879
 11
284.1898889458
 21
118.5594426302
  0
LINE
  5
338
100
AcDbEntity
  8
BEZUGSACHSEN
100
AcDbLine
 62
7
  6
CONTINUOUS
 10
282.8861214425
 20
184.9040506347
 11
282.8861214425
 21
192.6614101594
  0
LINE
  5
339
100
AcDbEntity
  8
BEZUGSACHSEN
100
AcDbLine
 62
7
  6
CONTINUOUS
 10
285.8861214425
 20
199.4652592667
 11
285.8861214425
 21
213.6614116332
  0
LWPOLYLINE
  5
33A
100
AcDbEntity
  8
BEZUGSACHSEN
100
AcDbPolyline
 62
7
  6
CONTINUOUS
 90
21
 70
0
 10
285.3568725656
 20
94.3625572986
 10
285.3549844329
 20
93.2584445475
 10
285.363931915
 20
92.0864040517
 10
285.3829113059
 20
90.9844863072
 10
285.4103444301
 20
89.9507171683
 10
285.4447982078
 20
88.9832761275
 10
285.4849828718
 20
88.0800833344
 10
285.5297334957
 20
87.2390909834
 10
285.5780124063
 20
86.4580519108
 10
285.628886902
 20
85.734798388
 10
285.6815418373
 20
85.0669465821
 10
285.7352465468
 20
84.4522779008
 10
285.7893961635
 20
83.888195349
 10
285.8434208346
 20
83.3726603368
 10
285.8970177738
 20
82.9019915776
 10
285.9499343111
 20
82.4731472567
 10
286.0019955994
 20
82.0833344153
 10
286.0530031717
 20
81.7306407659
 10
286.1035889463
 20
81.4085214171
 10
286.1535750456
 20
81.1168842581
 10
286.2082402634
 20
80.8280125103
  0
LINE
  5
33B
100
AcDbEntity
  8
BEZUGSACHSEN
100
AcDbLine
 62
7
  6
CONTINUOUS
 10
284.1861542671
 20
121.8188959611
 11
284.1829169131
 21
120.1722125879
  0
LINE
  5
33C
100
AcDbEntity
  8
BEZUGSACHSEN
100
AcDbLine
 62
7
  6
CONTINUOUS
 10
285.3570053993
 20
94.3840344108
 11
285.3568730465
 21
94.3626342086
  0
LINE
  5
33D
100
AcDbEntity
  8
BEZUGSACHSEN
100
AcDbLine
 62
7
  6
CONTINUOUS
 10
284.2002387648
 20
123.4975793698
 11
284.1861542671
 21
121.8188959611
  0
LINE
  5
33E
100
AcDbEntity
  8
BEZUGSACHSEN
100
AcDbLine
 62
7
  6
CONTINUOUS
 10
284.2257874506
 20
125.20636867
 11
284.2002387648
 21
123.4975793698
  0
LINE
  5
33F
100
AcDbEntity
  8
BEZUGSACHSEN
100
AcDbLine
 62
7
  6
CONTINUOUS
 10
284.2634416259
 20
126.9427533253
 11
284.2257874506
 21
125.20636867
  0
LINE
  5
340
100
AcDbEntity
  8
BEZUGSACHSEN
100
AcDbLine
 62
7
  6
CONTINUOUS
 10
284.3138612697
 20
128.7035926666
 11
284.2634416259
 21
126.9427533253
  0
LWPOLYLINE
  5
341
100
AcDbEntity
  8
BEZUGSACHSEN
100
AcDbPolyline
 62
7
  6
CONTINUOUS
 90
6
 70
0
 10
288.3959666404
 20
176.1880013999
 10
288.0168582145
 20
171.4763327257
 10
287.5879675772
 20
166.4411487306
 10
287.1132112637
 20
161.1846381653
 10
286.5874911471
 20
155.6970884729
 10
286.0047120002
 20
149.9646139099
  0
LWPOLYLINE
  5
342
100
AcDbEntity
  8
BEZUGSACHSEN
100
AcDbPolyline
 62
7
  6
CONTINUOUS
 90
16
 70
0
 10
285.2609799711
 20
143.0985404349
 10
285.1698347122
 20
142.220958401
 10
285.0833305287
 20
141.334959162
 10
285.0013778303
 20
140.4418354676
 10
284.9239024257
 20
139.5429598535
 10
284.8508304897
 20
138.6396538582
 10
284.7820829048
 20
137.7331264502
 10
284.717580049
 20
136.8245260538
 10
284.6572388512
 20
135.9149053435
 10
284.6009749373
 20
135.0052492225
 10
284.5487013502
 20
134.0964563635
 10
284.5003301815
 20
133.1893615748
 10
284.4557718822
 20
132.2847217526
 10
284.4149363622
 20
131.3832308892
 10
284.3777329416
 20
130.4855133407
 10
284.3138612697
 20
128.7035926666
  0
LINE
  5
343
100
AcDbEntity
  8
BEZUGSACHSEN
100
AcDbLine
 62
7
  6
CONTINUOUS
 10
286.0047120002
 20
149.9646139099
 11
285.3564366064
 21
143.9632515174
  0
LINE
  5
344
100
AcDbEntity
  8
BEZUGSACHSEN
100
AcDbLine
 62
7
  6
CONTINUOUS
 10
285.3564366064
 20
143.9632515174
 11
285.2609799711
 21
143.0985404349
  0
LWPOLYLINE
  5
345
100
AcDbEntity
  8
BEZUGSACHSEN
100
AcDbPolyline
 62
7
  6
CONTINUOUS
 90
9
 70
0
 10
289.593869988
 20
123.9112356384
 10
288.6424594237
 20
120.2726738532
 10
287.7864132791
 20
116.5235647034
 10
287.0592211109
 20
112.7860282928
 10
286.4607629431
 20
109.060049453
 10
285.9911391145
 20
105.3454886504
 10
285.65053238
 20
101.6422758451
 10
285.4390116632
 20
97.9502674579
 10
285.3570040552
 20
94.3838175562
  0
LINE
  5
346
100
AcDbEntity
  8
BEZUGSACHSEN
100
AcDbLine
 62
7
  6
CONTINUOUS
 10
289.593869988
 20
123.9112356384
 11
289.5938518067
 21
123.9111701825
  0
LWPOLYLINE
  5
347
100
AcDbEntity
  8
BEZUGSACHSEN
100
AcDbPolyline
 62
7
  6
CONTINUOUS
 90
22
 70
0
 10
295.5390417023
 20
128.6614102987
 10
295.0720217908
 20
128.6430919959
 10
294.5921862009
 20
128.5857638459
 10
294.1246744156
 20
128.4913083963
 10
293.6735495903
 20
128.3623037154
 10
293.2424775631
 20
128.2019360832
 10
292.8347069082
 20
128.0139648675
 10
292.4522856944
 20
127.8022410011
 10
292.0973977177
 20
127.571264624
 10
291.7693773331
 20
127.3240509141
 10
291.4680374329
 20
127.0638452579
 10
291.1921553538
 20
126.7929196783
 10
290.940501855
 20
126.5132316096
 10
290.7120333558
 20
126.2267074319
 10
290.5054707105
 20
125.9347907919
 10
290.3195677186
 20
125.6387304757
 10
290.1526641389
 20
125.3387680972
 10
290.00419222
 20
125.0368793704
 10
289.8730355126
 20
124.734166228
 10
289.7577528287
 20
124.4308030247
 10
289.6569589852
 20
124.1266058338
 10
289.5938518066
 20
123.911170182
  0
LINE
  5
348
100
AcDbEntity
  8
0
100
AcDbLine
 62
7
  6
CONTINUOUS
 10
295.5390372289
 20
128.6614103029
 11
299.2332056561
 21
128.6614103029
  0
LWPOLYLINE
  5
349
100
AcDbEntity
  8
RUNDUNGEN
100
AcDbPolyline
 62
7
  6
CONTINUOUS
 90
22
 70
0
 10
305.1783903714
 20
123.9111727275
 10
305.1151108994
 20
124.12716673
 10
305.0141070243
 20
124.4318817895
 10
304.8985791345
 20
124.7357137279
 10
304.7671291137
 20
125.0388749307
 10
304.618295525
 20
125.3412201309
 10
304.4509695998
 20
125.6416145859
 10
304.2645986773
 20
125.9380504403
 10
304.057506019
 20
126.2303057504
 10
303.828432204
 20
126.517137571
 10
303.5760916931
 20
126.7970942306
 10
303.2994320599
 20
127.0682417502
 10
302.9972159333
 20
127.3286105823
 10
302.6682052957
 20
127.5759182913
 10
302.3122294553
 20
127.8068854708
 10
301.9286211988
 20
128.0184763133
 10
301.5196318653
 20
128.2061444192
 10
301.0873736123
 20
128.3660142514
 10
300.6351550057
 20
128.4943227142
 10
300.1667065461
 20
128.587894697
 10
299.6861556347
 20
128.6441802674
 10
299.2332002389
 20
128.6614102986
  0
LINE
  5
34A
100
AcDbEntity
  8
RUNDUNGEN
100
AcDbLine
 62
7
  6
CONTINUOUS
 10
305.178372897
 20
123.9112356384
 11
305.1783903712
 21
123.911172728
  0
LWPOLYLINE
  5
34B
100
AcDbEntity
  8
RUNDUNGEN
100
AcDbPolyline
 62
7
  6
CONTINUOUS
 90
7
 70
0
 10
309.4022261298
 20
144.0847491341
 10
308.7675308848
 20
149.9646139099
 10
308.1847517379
 20
155.6970884729
 10
307.6590316213
 20
161.1846381653
 10
307.1842753078
 20
166.4411487306
 10
306.7553846706
 20
171.4763327257
 10
306.3762836127
 20
176.1879014986
  0
LWPOLYLINE
  5
34C
100
AcDbEntity
  8
RUNDUNGEN
100
AcDbPolyline
 62
7
  6
CONTINUOUS
 90
15
 70
0
 10
310.3506167023
 20
131.5363829676
 10
310.3096802964
 20
132.4274715428
 10
310.265097121
 20
133.321530853
 10
310.2167804357
 20
134.2178819768
 10
310.1646440509
 20
135.1157859984
 10
310.1086033715
 20
136.0144291724
 10
310.0485747745
 20
136.9129369185
 10
309.9844771325
 20
137.8103521511
 10
309.9162305514
 20
138.7056531721
 10
309.8437584713
 20
139.5977266621
 10
309.7669847631
 20
140.4854018406
 10
309.6858384419
 20
141.3674002961
 10
309.6002480864
 20
142.2423951314
 10
309.5101273618
 20
143.1091384319
 10
309.402225502
 20
144.0847547786
  0
LWPOLYLINE
  5
34D
100
AcDbEntity
  8
RUNDUNGEN
100
AcDbPolyline
 62
7
  6
CONTINUOUS
 90
11
 70
0
 10
306.3762762446
 20
176.1880013999
 10
306.3648965622
 20
176.4788322528
 10
306.3820709983
 20
176.8443250418
 10
306.4325456229
 20
177.2032075038
 10
306.5144474529
 20
177.553500702
 10
306.6261950113
 20
177.8932368169
 10
306.7665704452
 20
178.2207804212
 10
306.934558396
 20
178.5343140688
 10
307.1297017183
 20
178.8324323638
 10
307.3520855155
 20
179.1136544786
 10
307.5382590971
 20
179.31354796
  0
LINE
  5
34E
100
AcDbEntity
  8
RUNDUNGEN
100
AcDbLine
 62
7
  6
CONTINUOUS
 10
310.4218984726
 20
129.7655088549
 11
310.3506167023
 21
131.5363829676
  0
LINE
  5
34F
100
AcDbEntity
  8
RUNDUNGEN
100
AcDbLine
 62
7
  6
CONTINUOUS
 10
310.4796377711
 20
128.0131147253
 11
310.4218984726
 21
129.7655088549
  0
LINE
  5
350
100
AcDbEntity
  8
RUNDUNGEN
100
AcDbLine
 62
7
  6
CONTINUOUS
 10
310.5245168646
 20
126.2825627367
 11
310.4796377711
 21
128.0131147253
  0
LWPOLYLINE
  5
351
100
AcDbEntity
  8
RUNDUNGEN
100
AcDbPolyline
 62
7
  6
CONTINUOUS
 90
9
 70
0
 10
309.4152388298
 20
94.3838175562
 10
309.3332312218
 20
97.9502674579
 10
309.121710505
 20
101.6422758451
 10
308.7811037705
 20
105.3454886504
 10
308.3114799419
 20
109.060049453
 10
307.7130217741
 20
112.7860282928
 10
306.9858296059
 20
116.5235647034
 10
306.1297834613
 20
120.2726738532
 10
305.178372897
 20
123.9112356384
  0
LINE
  5
352
100
AcDbEntity
  8
RUNDUNGEN
100
AcDbLine
 62
7
  6
CONTINUOUS
 10
310.5571842242
 20
124.5770883318
 11
310.5245168646
 21
126.2825627367
  0
LINE
  5
353
100
AcDbEntity
  8
RUNDUNGEN
100
AcDbLine
 62
7
  6
CONTINUOUS
 10
310.578270671
 20
122.8995313561
 11
310.5571842242
 21
124.5770883318
  0
LINE
  5
354
100
AcDbEntity
  8
RUNDUNGEN
100
AcDbLine
 62
7
  6
CONTINUOUS
 10
309.4153698385
 20
94.3626342086
 11
309.4152374857
 21
94.3840344108
  0
LINE
  5
355
100
AcDbEntity
  8
RUNDUNGEN
100
AcDbLine
 62
7
  6
CONTINUOUS
 10
310.5883881534
 20
121.2520716699
 11
310.578270671
 21
122.8995313561
  0
LINE
  5
356
100
AcDbEntity
  8
RUNDUNGEN
100
AcDbLine
 62
7
  6
CONTINUOUS
 10
309.4172652233
 20
93.2608839743
 11
309.4153703186
 21
94.3625574223
  0
LINE
  5
357
100
AcDbEntity
  8
RUNDUNGEN
100
AcDbLine
 62
7
  6
CONTINUOUS
 10
308.8861214425
 20
199.4652592667
 11
308.8861214425
 21
213.6614116332
  0
LINE
  5
358
100
AcDbEntity
  8
RUNDUNGEN
100
AcDbLine
 62
7
  6
CONTINUOUS
 10
311.8861214425
 20
184.9040506347
 11
311.8861214425
 21
192.6614101594
  0
LINE
  5
359
100
AcDbEntity
  8
RUNDUNGEN
100
AcDbLine
 62
7
  6
CONTINUOUS
 10
310.5881154284
 20
119.6363793598
 11
310.5883881534
 21
121.2520716699
  0
LINE
  5
35A
100
AcDbEntity
  8
RUNDUNGEN
100
AcDbLine
 62
7
  6
CONTINUOUS
 10
310.5781616457
 20
118.0545778598
 11
310.5881154284
 21
119.6363793598
  0
LINE
  5
35B
100
AcDbEntity
  8
RUNDUNGEN
100
AcDbLine
 62
7
  6
CONTINUOUS
 10
310.5596690724
 20
116.5081504817
 11
310.5781616457
 21
118.0545778598
  0
LINE
  5
35C
100
AcDbEntity
  8
RUNDUNGEN
100
AcDbLine
 62
7
  6
CONTINUOUS
 10
310.5337659763
 20
114.9977418446
 11
310.5596690724
 21
116.5081504817
  0
LINE
  5
35D
100
AcDbEntity
  8
RUNDUNGEN
100
AcDbLine
 62
7
  6
CONTINUOUS
 10
310.5014598697
 20
113.5243073248
 11
310.5337659763
 21
114.9977418446
  0
LINE
  5
35E
100
AcDbEntity
  8
RUNDUNGEN
100
AcDbLine
 62
7
  6
CONTINUOUS
 10
310.4429344755
 20
111.3850837335
 11
310.5014598697
 21
113.5243073248
  0
LINE
  5
35F
100
AcDbEntity
  8
RUNDUNGEN
100
AcDbLine
 62
7
  6
CONTINUOUS
 10
310.3746369795
 20
109.3322609218
 11
310.4429344755
 21
111.3850837335
  0
LINE
  5
360
100
AcDbEntity
  8
RUNDUNGEN
100
AcDbLine
 62
7
  6
CONTINUOUS
 10
310.298780225
 20
107.3663138386
 11
310.3746369795
 21
109.3322609218
  0
LINE
  5
361
100
AcDbEntity
  8
RUNDUNGEN
100
AcDbLine
 62
7
  6
CONTINUOUS
 10
310.2172218869
 20
105.4869225768
 11
310.298780225
 21
107.3663138386
  0
LINE
  5
362
100
AcDbEntity
  8
RUNDUNGEN
100
AcDbLine
 62
7
  6
CONTINUOUS
 10
310.1023012346
 20
103.1145400441
 11
310.2172218869
 21
105.4869225768
  0
LINE
  5
363
100
AcDbEntity
  8
RUNDUNGEN
100
AcDbLine
 62
7
  6
CONTINUOUS
 10
309.9830997564
 20
100.8920475196
 11
310.1023012346
 21
103.1145400441
  0
LINE
  5
364
100
AcDbEntity
  8
RUNDUNGEN
100
AcDbLine
 62
7
  6
CONTINUOUS
 10
309.8317172026
 20
98.3182150487
 11
309.9830997564
 21
100.8920475196
  0
LINE
  5
365
100
AcDbEntity
  8
RUNDUNGEN
100
AcDbLine
 62
7
  6
CONTINUOUS
 10
309.6811231446
 20
95.9633083161
 11
309.8317172026
 21
98.3182150487
  0
LINE
  5
366
100
AcDbEntity
  8
RUNDUNGEN
100
AcDbLine
 62
7
  6
CONTINUOUS
 10
309.505967039
 20
93.4209479903
 11
309.6811231446
 21
95.9633083161
  0
LWPOLYLINE
  5
367
100
AcDbEntity
  8
RUNDUNGEN
100
AcDbPolyline
 62
7
  6
CONTINUOUS
 90
3
 70
0
 10
309.4081126389
 20
92.0761009363
 10
309.4219907352
 20
92.2635289902
 10
309.505967039
 20
93.4209479903
  0
LWPOLYLINE
  5
368
100
AcDbEntity
  8
RUNDUNGEN
100
AcDbPolyline
 62
7
  6
CONTINUOUS
 90
20
 70
0
 10
308.5641437766
 20
80.828718589
 10
308.620676976
 20
81.1280973462
 10
308.6705390221
 20
81.4200369658
 10
308.7210070093
 20
81.7423888322
 10
308.77191842
 20
82.0953721034
 10
308.823881175
 20
82.4854068035
 10
308.8766994924
 20
82.9144348901
 10
308.9302011025
 20
83.3852858519
 10
308.984125486
 20
83.9009420923
 10
309.0381635024
 20
84.4650156431
 10
309.0917476002
 20
85.0795446108
 10
309.1442735835
 20
85.7471031006
 10
309.1950130594
 20
86.4698959848
 10
309.2431535153
 20
87.2502888347
 10
309.2877658602
 20
88.0904331698
 10
309.3278167765
 20
88.9925579506
 10
309.3621467098
 20
89.9586930998
 10
309.3894723081
 20
90.9908992284
 10
309.4083681954
 20
92.0909789071
 10
309.4172652233
 20
93.2608839743
  0
LINE
  5
369
100
AcDbEntity
  8
0
100
AcDbLine
 62
7
  6
CONTINUOUS
 10
304.7047235958
 20
61.3162297061
 11
305.2268716272
 21
63.9657081448
  0
LINE
  5
36A
100
AcDbEntity
  8
RUNDUNGEN
100
AcDbLine
 62
7
  6
CONTINUOUS
 10
305.2268515492
 20
63.9657081648
 11
305.2290278766
 21
63.9767347669
  0
LINE
  5
36B
100
AcDbEntity
  8
RUNDUNGEN
100
AcDbLine
 62
7
  6
CONTINUOUS
 10
307.9814598855
 20
77.906513936
 11
307.9801768146
 21
77.900069667
  0
LINE
  5
36C
100
AcDbEntity
  8
RUNDUNGEN
100
AcDbLine
 62
7
  6
CONTINUOUS
 10
308.5641474515
 20
80.828737697
 11
308.5639531038
 21
80.8277656662
  0
LINE
  5
36D
100
AcDbEntity
  8
0
100
AcDbLine
 62
7
  6
CONTINUOUS
 10
307.980182048
 20
77.9000696469
 11
308.563953365
 21
80.8277669717
  0
LWPOLYLINE
  5
36E
100
AcDbEntity
  8
BEZUGSACHSEN
100
AcDbPolyline
 62
7
  6
CONTINUOUS
 90
11
 70
0
 10
287.233983788
 20
179.31354796
 10
287.4201573695
 20
179.1136544786
 10
287.6425411667
 20
178.8324323638
 10
287.837684489
 20
178.5343140688
 10
288.0056724399
 20
178.2207804212
 10
288.1460478737
 20
177.8932368169
 10
288.2577954321
 20
177.553500702
 10
288.3396972622
 20
177.2032075038
 10
288.3901718867
 20
176.8443250418
 10
288.4073463228
 20
176.4788322528
 10
288.3959666404
 20
176.1880013999
  0
LINE
  5
36F
100
AcDbEntity
  8
BEZUGSACHSEN
100
AcDbLine
 62
7
  6
CONTINUOUS
 10
287.2339510562
 20
179.3135806892
 11
283.7648009516
 21
182.7827307938
  0
LINE
  5
370
100
AcDbEntity
  8
RUNDUNGEN
100
AcDbLine
 62
7
  6
CONTINUOUS
 10
311.4841981955
 20
194.1614093647
 11
309.2881636603
 21
197.9650527549
  0
LWPOLYLINE
  5
371
100
AcDbEntity
  8
RUNDUNGEN
100
AcDbPolyline
 62
7
  6
CONTINUOUS
 90
20
 70
0
 10
303.5816030569
 20
58.6913793398
 10
303.7388380358
 20
58.9044709885
 10
303.8857497562
 20
59.1258772359
 10
304.0093356912
 20
59.3327565938
 10
304.1138420465
 20
59.5259825479
 10
304.2025037304
 20
59.7061946542
 10
304.2785887453
 20
59.8755507505
 10
304.3435641272
 20
60.0333695593
 10
304.3990456125
 20
60.1798271844
 10
304.4466478928
 20
60.3158101722
 10
304.4876604359
 20
60.4420280412
 10
304.5233837595
 20
60.5599331292
 10
304.5549046221
 20
60.6710235828
 10
304.5829874202
 20
60.7762691361
 10
304.6083228133
 20
60.8768289814
 10
304.6314421345
 20
60.9736474816
 10
304.6528131372
 20
61.067743835
 10
304.6728017135
 20
61.1599837956
 10
304.6917669204
 20
61.2514540398
 10
304.704829378
 20
61.31676636
  0
ARC
  5
372
100
AcDbEntity
  8
BEZUGSACHSEN
100
AcDbCircle
 62
7
  6
CONTINUOUS
 10
145.9727039274
 20
112.8644542198
 40
56.2020196075
100
AcDbArc
 50
215.4810605111
 51
268.9979957192
  0
ARC
  5
373
100
AcDbEntity
  8
RUNDUNGEN
100
AcDbCircle
 62
7
  6
CONTINUOUS
 10
145.9727039274
 20
112.8644542198
 40
56.2020196075
100
AcDbArc
 50
199.7999913564
 51
268.9979957192
  0
ARC
  5
374
100
AcDbEntity
  8
RUNDUNGEN
100
AcDbCircle
 62
7
  6
CONTINUOUS
 10
144.9898387196
 20
119.6614103029
 40
56.0
100
AcDbArc
 50
275.3127747053
 51
312.8774486379
  0
ARC
  5
375
100
AcDbEntity
  8
RUNDUNGEN
100
AcDbCircle
 62
7
  6
CONTINUOUS
 10
145.9727039274
 20
112.8644542198
 40
49.2838299929
100
AcDbArc
 50
194.2671304102
 51
262.7308285125
  0
ARC
  5
376
100
AcDbEntity
  8
RUNDUNGEN
100
AcDbCircle
 62
7
  6
CONTINUOUS
 10
144.9898387196
 20
119.6614103029
 40
42.0267964118
100
AcDbArc
 50
276.5209902475
 51
312.3963354844
  0
ARC
  5
377
100
AcDbEntity
  8
RUNDUNGEN
100
AcDbCircle
 62
7
  6
CONTINUOUS
 10
144.9898387196
 20
119.6614103029
 40
42.0267964118
100
AcDbArc
 50
202.6036645156
 51
263.4790097525
  0
ARC
  5
378
100
AcDbEntity
  8
BEZUGSACHSEN
100
AcDbCircle
 62
7
  6
CONTINUOUS
 10
144.9898387196
 20
119.6614103029
 40
32.0
100
AcDbArc
 50
221.8
 51
41.248119221
  0
ARC
  5
379
100
AcDbEntity
  8
RUNDUNGEN
100
AcDbCircle
 62
7
  6
CONTINUOUS
 10
144.9898387196
 20
119.6614103029
 40
32.0
100
AcDbArc
 50
221.8
 51
41.8000000018
  0
ARC
  5
37A
100
AcDbEntity
  8
BEZUGSACHSEN
100
AcDbCircle
 62
7
  6
CONTINUOUS
 10
90.7966004884
 20
121.4614103029
 40
7.2
100
AcDbArc
 50
41.7999756152
 51
199.7999528869
  0
ARC
  5
37B
100
AcDbEntity
  8
RUNDUNGEN
100
AcDbCircle
 62
7
  6
CONTINUOUS
 10
90.7966004884
 20
121.4614103029
 40
7.2
100
AcDbArc
 50
41.7999756152
 51
199.7999528869
  0
ARC
  5
37C
100
AcDbEntity
  8
RUNDUNGEN
100
AcDbCircle
 62
7
  6
CONTINUOUS
 10
104.3449326504
 20
102.7395187742
 40
2.0
100
AcDbArc
 50
22.6036645156
 51
110.0
  0
ARC
  5
37D
100
AcDbEntity
  8
RUNDUNGEN
100
AcDbCircle
 62
7
  6
CONTINUOUS
 10
100.1472362905
 20
101.2116822467
 40
2.0
100
AcDbArc
 50
110.0
 51
194.2671304102
  0
ARC
  5
37E
100
AcDbEntity
  8
RUNDUNGEN
100
AcDbCircle
 62
7
  6
CONTINUOUS
 10
139.9898387196
 20
75.9194533018
 40
2.0
100
AcDbArc
 50
0.0
 51
83.4790097525
  0
ARC
  5
37F
100
AcDbEntity
  8
RUNDUNGEN
100
AcDbCircle
 62
7
  6
CONTINUOUS
 10
139.9898387196
 20
65.9606601014
 40
2.0
100
AcDbArc
 50
262.7308285125
 51
360.0
  0
ARC
  5
380
100
AcDbEntity
  8
RUNDUNGEN
100
AcDbCircle
 62
7
  6
CONTINUOUS
 10
133.9898387196
 20
194.976924906
 40
10.0
100
AcDbArc
 50
180.0
 51
221.8000133189
  0
ARC
  5
381
100
AcDbEntity
  8
BEZUGSACHSEN
100
AcDbCircle
 62
7
  6
CONTINUOUS
 10
144.9898387196
 20
196.8614103029
 40
3.7
100
AcDbArc
 50
179.9992697842
 51
218.8192541835
  0
ARC
  5
382
100
AcDbEntity
  8
BEZUGSACHSEN
100
AcDbCircle
 62
7
  6
CONTINUOUS
 10
144.9898387196
 20
196.8614103029
 40
3.7
100
AcDbArc
 50
321.1807458165
 51
0.0006636561
  0
ARC
  5
383
100
AcDbEntity
  8
RUNDUNGEN
100
AcDbCircle
 62
7
  6
CONTINUOUS
 10
144.9898387196
 20
196.8614103029
 40
3.7
100
AcDbArc
 50
179.9992697842
 51
0.0006636561
  0
ARC
  5
384
100
AcDbEntity
  8
BEZUGSACHSEN
100
AcDbCircle
 62
7
  6
CONTINUOUS
 10
138.2898387196
 20
222.1614103029
 40
3.0
100
AcDbArc
 50
0.0
 51
90.0
  0
CIRCLE
  5
385
100
AcDbEntity
  8
BEZUGSACHSEN
100
AcDbCircle
 62
7
  6
CONTINUOUS
 10
133.9898387196
 20
213.1614103029
 40
1.5
  0
ARC
  5
386
100
AcDbEntity
  8
BEZUGSACHSEN
100
AcDbCircle
 62
7
  6
CONTINUOUS
 10
146.0898387196
 20
119.5614103029
 40
62.9
100
AcDbArc
 50
268.9979914849
 51
42.3837426024
  0
ARC
  5
387
100
AcDbEntity
  8
RUNDUNGEN
100
AcDbCircle
 62
7
  6
CONTINUOUS
 10
146.0898387196
 20
119.5614103029
 40
62.9
100
AcDbArc
 50
268.9979914849
 51
69.6657518525
  0
ARC
  5
388
100
AcDbEntity
  8
RUNDUNGEN
100
AcDbCircle
 62
7
  6
CONTINUOUS
 10
153.8468226113
 20
119.6614103029
 40
50.0
100
AcDbArc
 50
345.2203683694
 51
14.7796316306
  0
ARC
  5
389
100
AcDbEntity
  8
RUNDUNGEN
100
AcDbCircle
 62
7
  6
CONTINUOUS
 10
149.9898387196
 20
75.9194533018
 40
2.0
100
AcDbArc
 50
96.5209902475
 51
180.0
  0
ARC
  5
38A
100
AcDbEntity
  8
RUNDUNGEN
100
AcDbCircle
 62
7
  6
CONTINUOUS
 10
174.6751332103
 20
87.1476886874
 40
2.0
100
AcDbArc
 50
45.0
 51
132.3963354844
  0
ARC
  5
38B
100
AcDbEntity
  8
RUNDUNGEN
100
AcDbCircle
 62
7
  6
CONTINUOUS
 10
181.7331932139
 20
80.0896286838
 40
2.0
100
AcDbArc
 50
312.8774486379
 51
45.0
  0
ARC
  5
38C
100
AcDbEntity
  8
RUNDUNGEN
100
AcDbCircle
 62
7
  6
CONTINUOUS
 10
149.9898387196
 20
65.8933900678
 40
2.0
100
AcDbArc
 50
180.0
 51
275.3127747053
  0
ARC
  5
38D
100
AcDbEntity
  8
RUNDUNGEN
100
AcDbCircle
 62
7
  6
CONTINUOUS
 10
186.932367144
 20
88.6941261247
 40
2.0
100
AcDbArc
 50
215.0
 51
320.0
  0
ARC
  5
38E
100
AcDbEntity
  8
RUNDUNGEN
100
AcDbCircle
 62
7
  6
CONTINUOUS
 10
182.4364381586
 20
95.1149781437
 40
2.0
100
AcDbArc
 50
95.0
 51
215.0
  0
ARC
  5
38F
100
AcDbEntity
  8
RUNDUNGEN
100
AcDbCircle
 62
7
  6
CONTINUOUS
 10
193.1031642579
 20
96.0481957543
 40
2.0
100
AcDbArc
 50
320.0
 51
95.0
  0
ARC
  5
390
100
AcDbEntity
  8
RUNDUNGEN
100
AcDbCircle
 62
7
  6
CONTINUOUS
 10
185.840152267
 20
109.4879969417
 40
2.0
100
AcDbArc
 50
52.5
 51
157.5
  0
ARC
  5
391
100
AcDbEntity
  8
RUNDUNGEN
100
AcDbCircle
 62
7
  6
CONTINUOUS
 10
191.1500035021
 20
105.4136047868
 40
2.0
100
AcDbArc
 50
275.0
 51
52.5
  0
ARC
  5
392
100
AcDbEntity
  8
RUNDUNGEN
100
AcDbCircle
 62
7
  6
CONTINUOUS
 10
183.889365586
 20
104.7783812792
 40
2.0
100
AcDbArc
 50
157.5
 51
275.0
  0
ARC
  5
393
100
AcDbEntity
  8
RUNDUNGEN
100
AcDbCircle
 62
7
  6
CONTINUOUS
 10
192.7640290159
 20
123.1058114989
 40
2.0
100
AcDbArc
 50
0.0
 51
127.5
  0
ARC
  5
394
100
AcDbEntity
  8
RUNDUNGEN
100
AcDbCircle
 62
7
  6
CONTINUOUS
 10
192.7640290159
 20
116.2170091069
 40
2.0
100
AcDbArc
 50
232.5
 51
360.0
  0
ARC
  5
395
100
AcDbEntity
  8
RUNDUNGEN
100
AcDbCircle
 62
7
  6
CONTINUOUS
 10
188.275197983
 20
119.6614103029
 40
2.0
100
AcDbArc
 50
127.5
 51
232.5
  0
ARC
  5
396
100
AcDbEntity
  8
RUNDUNGEN
100
AcDbCircle
 62
7
  6
CONTINUOUS
 10
191.5863690215
 20
135.3997854241
 40
2.0
100
AcDbArc
 50
307.5
 51
77.8
  0
ARC
  5
397
100
AcDbEntity
  8
RUNDUNGEN
100
AcDbCircle
 62
7
  6
CONTINUOUS
 10
185.7333534867
 20
130.9086086432
 40
2.0
100
AcDbArc
 50
200.0
 51
307.5
  0
ARC
  5
398
100
AcDbEntity
  8
RUNDUNGEN
100
AcDbCircle
 62
7
  6
CONTINUOUS
 10
183.4591417024
 20
137.1569541678
 40
2.0
100
AcDbArc
 50
77.8
 51
200.0
  0
ARC
  5
399
100
AcDbEntity
  8
RUNDUNGEN
100
AcDbCircle
 62
7
  6
CONTINUOUS
 10
195.4679520704
 20
143.7924236232
 40
2.0
100
AcDbArc
 50
257.8
 51
27.8
  0
ARC
  5
39A
100
AcDbEntity
  8
RUNDUNGEN
100
AcDbCircle
 62
7
  6
CONTINUOUS
 10
201.2256153355
 20
132.1614103029
 40
1.0
100
AcDbArc
 50
14.7796316306
 51
90.0
  0
ARC
  5
39B
100
AcDbEntity
  8
RUNDUNGEN
100
AcDbCircle
 62
7
  6
CONTINUOUS
 10
201.2256153355
 20
107.1614103029
 40
1.0
100
AcDbArc
 50
270.0
 51
345.2203683694
  0
ARC
  5
39C
100
AcDbEntity
  8
RUNDUNGEN
100
AcDbCircle
 62
7
  6
CONTINUOUS
 10
200.9898387196
 20
107.1614103029
 40
1.0
100
AcDbArc
 50
180.0
 51
270.0
  0
ARC
  5
39D
100
AcDbEntity
  8
RUNDUNGEN
100
AcDbCircle
 62
7
  6
CONTINUOUS
 10
200.9898387196
 20
132.1614103029
 40
1.0
100
AcDbArc
 50
90.0
 51
180.0
  0
ARC
  5
39E
100
AcDbEntity
  8
BEZUGSACHSEN
100
AcDbCircle
 62
7
  6
CONTINUOUS
 10
151.6898387196
 20
222.1614103029
 40
3.0
100
AcDbArc
 50
90.0
 51
180.0
  0
ARC
  5
39F
100
AcDbEntity
  8
BEZUGSACHSEN
100
AcDbCircle
 62
7
  6
CONTINUOUS
 10
162.9898387196
 20
222.1614103029
 40
3.0
100
AcDbArc
 50
0.0
 51
90.0
  0
ARC
  5
3A0
100
AcDbEntity
  8
RUNDUNGEN
100
AcDbCircle
 62
7
  6
CONTINUOUS
 10
168.9898387196
 20
181.3545940588
 40
2.9999906278
100
AcDbArc
 50
179.9996227647
 51
249.6656203127
  0
ARC
  5
3A1
100
AcDbEntity
  8
BEZUGSACHSEN
100
AcDbCircle
 62
7
  6
CONTINUOUS
 10
168.9898387196
 20
181.3545940588
 40
2.9999906278
100
AcDbArc
 50
197.4161750698
 51
249.6656203127
  0
ARC
  5
3A2
100
AcDbEntity
  8
RUNDUNGEN
100
AcDbCircle
 62
7
  6
CONTINUOUS
 10
184.9285535771
 20
146.0711222349
 40
2.0
100
AcDbArc
 50
132.8
 51
257.8
  0
ARC
  5
3A3
100
AcDbEntity
  8
RUNDUNGEN
100
AcDbCircle
 62
7
  6
CONTINUOUS
 10
191.2031068807
 20
151.8814223011
 40
2.0
100
AcDbArc
 50
27.8
 51
132.8
  0
ARC
  5
3A4
100
AcDbEntity
  8
RUNDUNGEN
100
AcDbCircle
 62
7
  6
CONTINUOUS
 10
171.1221558351
 20
167.6614103029
 40
2.0
100
AcDbArc
 50
61.8
 51
90.0
  0
ARC
  5
3A5
100
AcDbEntity
  8
RUNDUNGEN
100
AcDbCircle
 62
7
  6
CONTINUOUS
 10
181.2941335374
 20
162.2072437134
 40
2.0
100
AcDbArc
 50
311.8
 51
61.8
  0
ARC
  5
3A6
100
AcDbEntity
  8
RUNDUNGEN
100
AcDbCircle
 62
7
  6
CONTINUOUS
 10
172.7791874569
 20
154.5940032504
 40
2.0
100
AcDbArc
 50
221.8
 51
311.8
  0
ARC
  5
3A7
100
AcDbEntity
  8
RUNDUNGEN
100
AcDbCircle
 62
7
  6
CONTINUOUS
 10
161.0955771111
 20
167.6614103029
 40
2.0
100
AcDbArc
 50
90.0
 51
221.8
  0
ARC
  5
3A8
100
AcDbEntity
  8
RUNDUNGEN
100
AcDbCircle
 62
7
  6
CONTINUOUS
 10
1253.7923233589
 20
102.018287287
 40
945.1859676937
100
AcDbArc
 50
179.9096819834
 51
180.6285848123
  0
ARC
  5
3A9
100
AcDbEntity
  8
BEZUGSACHSEN
100
AcDbCircle
 62
7
  6
CONTINUOUS
 10
-659.0200804715
 20
102.018287287
 40
945.1859676912
100
AcDbArc
 50
359.3714151877
 51
0.0903180166
  0
ARC
  5
3AA
100
AcDbEntity
  8
RUNDUNGEN
100
AcDbCircle
 62
7
  6
CONTINUOUS
 10
668.758790397
 20
-5.7727412605
 40
370.160963903
100
AcDbArc
 50
168.8259670606
 51
169.1118380072
  0
ARC
  5
3AB
100
AcDbEntity
  8
BEZUGSACHSEN
100
AcDbCircle
 62
7
  6
CONTINUOUS
 10
-73.9865474946
 20
-5.7727412571
 40
370.1609638853
100
AcDbArc
 50
10.8881619928
 51
11.1740329394
  0
ARC
  5
3AC
100
AcDbEntity
  8
RUNDUNGEN
100
AcDbCircle
 62
7
  6
CONTINUOUS
 10
100.1743327946
 20
253.2052608401
 40
255.5893039342
100
AcDbArc
 50
324.0325321197
 51
324.4545830588
  0
ARC
  5
3AD
100
AcDbEntity
  8
BEZUGSACHSEN
100
AcDbCircle
 62
7
  6
CONTINUOUS
 10
494.5979100904
 20
253.2052608401
 40
255.5893039342
100
AcDbArc
 50
215.5454169412
 51
215.9674678803
  0
ARC
  5
3AE
100
AcDbEntity
  8
BEZUGSACHSEN
100
AcDbCircle
 62
7
  6
CONTINUOUS
 10
297.3861214425
 20
213.6614103029
 40
11.5
100
AcDbArc
 50
0.000006628
 51
179.999993372
  0
ARC
  5
3AF
100
AcDbEntity
  8
RUNDUNGEN
100
AcDbCircle
 62
7
  6
CONTINUOUS
 10
311.8861214425
 20
199.4652578802
 40
3.0
100
AcDbArc
 50
179.9999735201
 51
210.0045236609
  0
ARC
  5
3B0
100
AcDbEntity
  8
RUNDUNGEN
100
AcDbCircle
 62
7
  6
CONTINUOUS
 10
308.8861214425
 20
192.6614103029
 40
3.0
100
AcDbArc
 50
359.9999972596
 51
29.9999793089
  0
ARC
  5
3B1
100
AcDbEntity
  8
RUNDUNGEN
100
AcDbCircle
 62
7
  6
CONTINUOUS
 10
308.8861214425
 20
184.90405099
 40
3.0
100
AcDbArc
 50
315.0000039795
 51
359.9999932144
  0
ARC
  5
3B2
100
AcDbEntity
  8
BEZUGSACHSEN
100
AcDbCircle
 62
7
  6
CONTINUOUS
 10
282.8861214425
 20
199.4652578802
 40
3.0
100
AcDbArc
 50
329.9954763391
 51
0.0000264799
  0
ARC
  5
3B3
100
AcDbEntity
  8
BEZUGSACHSEN
100
AcDbCircle
 62
7
  6
CONTINUOUS
 10
285.8861214425
 20
192.6614103029
 40
3.0
100
AcDbArc
 50
150.0000206911
 51
180.0000027404
  0
ARC
  5
3B4
100
AcDbEntity
  8
BEZUGSACHSEN
100
AcDbCircle
 62
7
  6
CONTINUOUS
 10
285.8861214425
 20
184.90405099
 40
3.0
100
AcDbArc
 50
180.0000067856
 51
224.9999960205
  0
LINE
  5
3B5
100
AcDbEntity
  8
BEZUGSACHSEN
100
AcDbLine
 62
7
  6
CONTINUOUS
 10
289.5463896318
 20
63.9606732617
 11
289.5453693867
 21
63.9657182673
  0
SPLINE
  5
3B6
100
AcDbEntity
  8
RUNDUNGEN
100
AcDbSpline
 62
7
  6
CONTINUOUS
 70
0
 71
3
 72
9
 73
5
 74
0
 42
0.0000001
 43
0.0000001
 44
0.0000000001
 40
0.0
 40
0.0
 40
0.0
 40
0.0
 40
0.3224404288
 40
1.0
 40
1.0
 40
1.0
 40
1.0
 10
308.1358360861
 20
104.6189040158
 30
0.0
 10
308.1488910481
 20
104.6371971307
 30
0.0
 10
308.1908816869
 20
104.690839236
 30
0.0
 10
308.2552252413
 20
104.7395506408
 30
0.0
 10
308.3024504331
 20
104.7395206131
 30
0.0
  0
SPLINE
  5
3B7
100
AcDbEntity
  8
RUNDUNGEN
100
AcDbSpline
 62
7
  6
CONTINUOUS
 70
0
 71
3
 72
9
 73
5
 74
0
 42
0.0000001
 43
0.0000001
 44
0.0000000001
 40
0.0
 40
0.0
 40
0.0
 40
0.0
 40
0.4789998102
 40
1.0
 40
1.0
 40
1.0
 40
1.0
 10
306.2863530881
 20
84.5028190509
 30
0.0
 10
306.2912467344
 20
87.092348293
 30
0.0
 10
306.3413733258
 20
92.4984620718
 30
0.0
 10
306.4668583272
 20
97.9032690969
 30
0.0
 10
306.5443513696
 20
100.7187961173
 30
0.0
  0
SPLINE
  5
3B8
100
AcDbEntity
  8
RUNDUNGEN
100
AcDbSpline
 62
7
  6
CONTINUOUS
 70
0
 71
3
 72
15
 73
11
 74
0
 42
0.0000001
 43
0.0000001
 44
0.0000000001
 40
0.0
 40
0.0
 40
0.0
 40
0.0
 40
0.0192167286
 40
0.0447666481
 40
0.1145725518
 40
0.2086725331
 40
0.3260538014
 40
0.4654643622
 40
0.6254260838
 40
1.0
 40
1.0
 40
1.0
 40
1.0
 10
305.2290278766
 20
63.9767347669
 30
0.0
 10
305.2542091335
 20
64.1060560364
 30
0.0
 10
305.3047748737
 20
64.40887093
 30
0.0
 10
305.4140698365
 20
65.1867720924
 30
0.0
 10
305.5571366525
 20
66.4780253459
 30
0.0
 10
305.7273447036
 20
68.3990842912
 30
0.0
 10
305.8951754311
 20
70.7990783142
 30
0.0
 10
306.0483551458
 20
73.6523521093
 30
0.0
 10
306.2255482211
 20
78.2696666266
 30
0.0
 10
306.2814999798
 20
81.9347409715
 30
0.0
 10
306.2863530881
 20
84.5028190509
 30
0.0
  0
SPLINE
  5
3B9
100
AcDbEntity
  8
RUNDUNGEN
100
AcDbSpline
 62
7
  6
CONTINUOUS
 70
0
 71
3
 72
8
 73
4
 74
0
 42
0.0000001
 43
0.0000001
 44
0.0000000001
 40
0.0
 40
0.0
 40
0.0
 40
0.0
 40
1.0
 40
1.0
 40
1.0
 40
1.0
 10
307.5835378797
 20
75.9194533018
 30
0.0
 10
306.9258665067
 20
72.6001466962
 30
0.0
 10
306.2704327427
 20
69.2803970169
 30
0.0
 10
305.6149369082
 20
65.9606601014
 30
0.0
  0
SPLINE
  5
3BA
100
AcDbEntity
  8
BEZUGSACHSEN
100
AcDbSpline
 62
7
  6
CONTINUOUS
 70
0
 71
3
 72
9
 73
5
 74
0
 42
0.0000001
 43
0.0000001
 44
0.0000000001
 40
0.0
 40
0.0
 40
0.0
 40
0.0
 40
0.3406446941
 40
1.0
 40
1.0
 40
1.0
 40
1.0
 10
286.7920614289
 20
77.9000668434
 30
0.0
 10
286.8367917344
 20
77.6751101541
 30
0.0
 10
286.9712002738
 20
77.0153455172
 30
0.0
 10
287.1024197117
 20
76.3549403196
 30
0.0
 10
287.1887050053
 20
75.9194533018
 30
0.0
  0
LINE
  5
3BB
100
AcDbEntity
  8
RUNDUNGEN
100
AcDbLine
 62
7
  6
CONTINUOUS
 10
305.2258532533
 20
63.9606732617
 11
305.2268734983
 21
63.9657182673
  0
SPLINE
  5
3BC
100
AcDbEntity
  8
RUNDUNGEN
100
AcDbSpline
 62
7
  6
CONTINUOUS
 70
0
 71
3
 72
9
 73
5
 74
0
 42
0.0000001
 43
0.0000001
 44
0.0000000001
 40
0.0
 40
0.0
 40
0.0
 40
0.0
 40
0.3406446941
 40
1.0
 40
1.0
 40
1.0
 40
1.0
 10
307.9801814561
 20
77.9000668434
 30
0.0
 10
307.9354511506
 20
77.6751101541
 30
0.0
 10
307.8010426112
 20
77.0153455172
 30
0.0
 10
307.6698231733
 20
76.3549403196
 30
0.0
 10
307.5835378797
 20
75.9194533018
 30
0.0
  0
LINE
  5
3BD
100
AcDbEntity
  8
RUNDUNGEN
100
AcDbLine
 62
7
  6
CONTINUOUS
 10
305.2264955424
 20
63.9642511293
 11
305.2258529873
 21
63.9606731917
  0
SPLINE
  5
3BE
100
AcDbEntity
  8
RUNDUNGEN
100
AcDbSpline
 62
7
  6
CONTINUOUS
 70
0
 71
3
 72
13
 73
9
 74
0
 42
0.0000001
 43
0.0000001
 44
0.0000000001
 40
0.0
 40
0.0
 40
0.0
 40
0.0
 40
0.3032423053
 40
0.5931561572
 40
0.7214801064
 40
0.8336968517
 40
0.9270815787
 40
1.0
 40
1.0
 40
1.0
 40
1.0
 10
306.5443513696
 20
100.7187961173
 30
0.0
 10
306.5511492324
 20
100.9657804353
 30
0.0
 10
306.5858201418
 20
101.448424016
 30
0.0
 10
306.6744489872
 20
102.0304476237
 30
0.0
 10
306.772789478
 20
102.4515151116
 30
0.0
 10
306.8514628503
 20
102.7122841635
 30
0.0
 10
306.9352472939
 20
102.9233908515
 30
0.0
 10
307.0008067211
 20
103.0429734616
 30
0.0
 10
307.0356903264
 20
103.0910674883
 30
0.0
  0
SPLINE
  5
3BF
100
AcDbEntity
  8
BEZUGSACHSEN
100
AcDbSpline
 62
7
  6
CONTINUOUS
 70
0
 71
3
 72
9
 73
5
 74
0
 42
0.0000001
 43
0.0000001
 44
0.0000000001
 40
0.0
 40
0.0
 40
0.0
 40
0.0
 40
0.4789998102
 40
1.0
 40
1.0
 40
1.0
 40
1.0
 10
288.4858897969
 20
84.5028190509
 30
0.0
 10
288.4809961506
 20
87.092348293
 30
0.0
 10
288.4308695592
 20
92.4984620718
 30
0.0
 10
288.3053845578
 20
97.9032690969
 30
0.0
 10
288.2278915154
 20
100.7187961173
 30
0.0
  0
SPLINE
  5
3C0
100
AcDbEntity
  8
BEZUGSACHSEN
100
AcDbSpline
 62
7
  6
CONTINUOUS
 70
0
 71
3
 72
9
 73
5
 74
0
 42
0.0000001
 43
0.0000001
 44
0.0000000001
 40
0.0
 40
0.0
 40
0.0
 40
0.0
 40
0.3224404288
 40
1.0
 40
1.0
 40
1.0
 40
1.0
 10
286.6364067989
 20
104.6189040158
 30
0.0
 10
286.6233518369
 20
104.6371971307
 30
0.0
 10
286.5813611981
 20
104.690839236
 30
0.0
 10
286.5170176438
 20
104.7395506408
 30
0.0
 10
286.4697924519
 20
104.7395206131
 30
0.0
  0
SPLINE
  5
3C1
100
AcDbEntity
  8
BEZUGSACHSEN
100
AcDbSpline
 62
7
  6
CONTINUOUS
 70
0
 71
3
 72
15
 73
11
 74
0
 42
0.0000001
 43
0.0000001
 44
0.0000000001
 40
0.0
 40
0.0
 40
0.0
 40
0.0
 40
0.0192167286
 40
0.0447666481
 40
0.1145725518
 40
0.2086725331
 40
0.3260538014
 40
0.4654643622
 40
0.6254260838
 40
1.0
 40
1.0
 40
1.0
 40
1.0
 10
289.5432150084
 20
63.9767347669
 30
0.0
 10
289.5180337515
 20
64.1060560364
 30
0.0
 10
289.4674680113
 20
64.40887093
 30
0.0
 10
289.3581730485
 20
65.1867720924
 30
0.0
 10
289.2151062325
 20
66.4780253459
 30
0.0
 10
289.0448981814
 20
68.3990842912
 30
0.0
 10
288.8770674539
 20
70.7990783142
 30
0.0
 10
288.7238877392
 20
73.6523521093
 30
0.0
 10
288.5466946639
 20
78.2696666266
 30
0.0
 10
288.4907429052
 20
81.9347409715
 30
0.0
 10
288.4858897969
 20
84.5028190509
 30
0.0
  0
SPLINE
  5
3C2
100
AcDbEntity
  8
BEZUGSACHSEN
100
AcDbSpline
 62
7
  6
CONTINUOUS
 70
0
 71
3
 72
8
 73
4
 74
0
 42
0.0000001
 43
0.0000001
 44
0.0000000001
 40
0.0
 40
0.0
 40
0.0
 40
0.0
 40
1.0
 40
1.0
 40
1.0
 40
1.0
 10
287.1887050053
 20
75.9194533018
 30
0.0
 10
287.8463763783
 20
72.6001466962
 30
0.0
 10
288.5018101424
 20
69.2803970169
 30
0.0
 10
289.1573059768
 20
65.9606601014
 30
0.0
  0
SPLINE
  5
3C3
100
AcDbEntity
  8
BEZUGSACHSEN
100
AcDbSpline
 62
7
  6
CONTINUOUS
 70
0
 71
3
 72
13
 73
9
 74
0
 42
0.0000001
 43
0.0000001
 44
0.0000000001
 40
0.0
 40
0.0
 40
0.0
 40
0.0
 40
0.3032423053
 40
0.5931561572
 40
0.7214801064
 40
0.8336968517
 40
0.9270815787
 40
1.0
 40
1.0
 40
1.0
 40
1.0
 10
288.2278915154
 20
100.7187961173
 30
0.0
 10
288.2210936526
 20
100.9657804353
 30
0.0
 10
288.1864227432
 20
101.448424016
 30
0.0
 10
288.0977938979
 20
102.0304476237
 30
0.0
 10
287.9994534071
 20
102.4515151116
 30
0.0
 10
287.9207800347
 20
102.7122841635
 30
0.0
 10
287.8369955911
 20
102.9233908515
 30
0.0
 10
287.7714361639
 20
103.0429734616
 30
0.0
 10
287.7365525586
 20
103.0910674883
 30
0.0
  0
LINE
  5
3C4
100
AcDbEntity
  8
BEZUGSACHSEN
100
AcDbLine
 62
7
  6
CONTINUOUS
 10
289.5457473426
 20
63.9642511293
 11
289.5463898977
 21
63.9606731917
  0
SPLINE
  5
3C5
100
AcDbEntity
  8
RUNDUNGEN
100
AcDbSpline
 62
7
  6
CONTINUOUS
 70
0
 71
3
 72
14
 73
10
 74
0
 42
0.0000001
 43
0.0000001
 44
0.0000000001
 40
0.0
 40
0.0
 40
0.0
 40
0.0
 40
0.3779756536
 40
0.5378696441
 40
0.6765964413
 40
0.793038142
 40
0.8862432053
 40
0.9554301853
 40
1.0
 40
1.0
 40
1.0
 40
1.0
 10
308.6632364286
 20
91.6489785704
 30
0.0
 10
308.6819352871
 20
89.9138509507
 30
0.0
 10
308.6663869406
 20
87.443835068
 30
0.0
 10
308.5562887803
 20
84.3395094395
 30
0.0
 10
308.452921787
 20
82.4366926143
 30
0.0
 10
308.3347972973
 20
80.841649753
 30
0.0
 10
308.2135651818
 20
79.567145753
 30
0.0
 10
308.0993587137
 20
78.6239217358
 30
0.0
 10
308.0211289804
 20
78.1072449089
 30
0.0
 10
307.9814598855
 20
77.906513936
 30
0.0
  0
SPLINE
  5
3C6
100
AcDbEntity
  8
RUNDUNGEN
100
AcDbSpline
 62
7
  6
CONTINUOUS
 70
0
 71
3
 72
15
 73
11
 74
0
 42
0.0000001
 43
0.0000001
 44
0.0000000001
 40
0.0
 40
0.0
 40
0.0
 40
0.0
 40
0.0508122629
 40
0.1158780512
 40
0.2037909283
 40
0.3171115982
 40
0.4556331453
 40
0.6176128146
 40
0.8003704505
 40
1.0
 40
1.0
 40
1.0
 40
1.0
 10
308.3024504331
 20
104.7395206131
 30
0.0
 10
308.324915946
 20
104.7395063286
 30
0.0
 10
308.3762674227
 20
104.7201280749
 30
0.0
 10
308.4347555727
 20
104.6489866752
 30
0.0
 10
308.485538691
 20
104.5422674527
 30
0.0
 10
308.5287212412
 20
104.3979201023
 30
0.0
 10
308.5636501001
 20
104.218151983
 30
0.0
 10
308.5891917727
 20
104.0058667868
 30
0.0
 10
308.6045663649
 20
103.765585959
 30
0.0
 10
308.6076293909
 20
103.5964892421
 30
0.0
 10
308.6075299967
 20
103.508227511
 30
0.0
  0
SPLINE
  5
3C7
100
AcDbEntity
  8
BEZUGSACHSEN
100
AcDbSpline
 62
7
  6
CONTINUOUS
 70
0
 71
3
 72
14
 73
10
 74
0
 42
0.0000001
 43
0.0000001
 44
0.0000000001
 40
0.0
 40
0.0
 40
0.0
 40
0.0
 40
0.3779756536
 40
0.5378696441
 40
0.6765964413
 40
0.793038142
 40
0.8862432053
 40
0.9554301853
 40
1.0
 40
1.0
 40
1.0
 40
1.0
 10
286.1090064564
 20
91.6489785704
 30
0.0
 10
286.0903075979
 20
89.9138509507
 30
0.0
 10
286.1058559444
 20
87.443835068
 30
0.0
 10
286.2159541047
 20
84.3395094395
 30
0.0
 10
286.3193210981
 20
82.4366926143
 30
0.0
 10
286.4374455877
 20
80.841649753
 30
0.0
 10
286.5586777032
 20
79.567145753
 30
0.0
 10
286.6728841713
 20
78.6239217358
 30
0.0
 10
286.7511139047
 20
78.1072449089
 30
0.0
 10
286.7907829996
 20
77.906513936
 30
0.0
  0
SPLINE
  5
3C8
100
AcDbEntity
  8
BEZUGSACHSEN
100
AcDbSpline
 62
7
  6
CONTINUOUS
 70
0
 71
3
 72
15
 73
11
 74
0
 42
0.0000001
 43
0.0000001
 44
0.0000000001
 40
0.0
 40
0.0
 40
0.0
 40
0.0
 40
0.0508122629
 40
0.1158780512
 40
0.2037909283
 40
0.3171115982
 40
0.4556331453
 40
0.6176128146
 40
0.8003704505
 40
1.0
 40
1.0
 40
1.0
 40
1.0
 10
286.4697924519
 20
104.7395206131
 30
0.0
 10
286.447326939
 20
104.7395063286
 30
0.0
 10
286.3959754623
 20
104.7201280749
 30
0.0
 10
286.3374873123
 20
104.6489866752
 30
0.0
 10
286.286704194
 20
104.5422674527
 30
0.0
 10
286.2435216439
 20
104.3979201023
 30
0.0
 10
286.2085927849
 20
104.218151983
 30
0.0
 10
286.1830511123
 20
104.0058667868
 30
0.0
 10
286.1676765201
 20
103.765585959
 30
0.0
 10
286.1646134941
 20
103.5964892421
 30
0.0
 10
286.1647128883
 20
103.508227511
 30
0.0
  0
ENDSEC
  0
SECTION
  2
OBJECTS
  0
DICTIONARY
  5
C
100
AcDbDictionary
280
0
281
1
  3
ACAD_GROUP
350
D
  3
ACAD_MLINESTYLE
350
17
  3
ACAD_LAYOUT
350
1A
  3
ACAD_PLOTSETTINGS
350
19
  3
ACAD_PLOTSTYLENAME
350
E
  0
DICTIONARY
  5
D
102
{ACAD_REACTORS
330
C
102
}
100
AcDbDictionary
280
0
281
1
  0
ACDBDICTIONARYWDFLT
  5
E
102
{ACAD_REACTORS
330
C
102
}
100
AcDbDictionary
281
1
  3
Normal
350
F
100
AcDbDictionaryWithDefault
340
F
  0
DICTIONARY
  5
17
102
{ACAD_REACTORS
330
C
102
}
100
AcDbDictionary
280
0
281
1
  3
Standard
350
18
  0
DICTIONARY
  5
19
102
{ACAD_REACTORS
330
C
102
}
100
AcDbDictionary
281
1
  0
DICTIONARY
  5
1A
102
{ACAD_REACTORS
330
C
102
}
100
AcDbDictionary
281
1
  3
Model
350
3C9
  3
Layout1
350
3CA
  0
ACDBPLACEHOLDER
  5
F
102
{ACAD_REACTORS
330
E
102
}
  0
MLINESTYLE
  5
18
102
{ACAD_REACTORS
330
17
102
}
100
AcDbMlineStyle
  2
STANDARD
 70
0
  3

 62
256
 51
90.0
 52
90.0
 71
2
 49
0.5
 62
256
  6
BYLAYER
 49
-0.5
 62
256
  6
BYLAYER
  0
LAYOUT
  5
3C9
102
{ACAD_REACTORS
330
1A
102
}
100
AcDbPlotSettings
  1

  2
none_device
  4
ISO_A3_(420.00_x_297.00_MM)
  6

 40
0.0
 41
0.0
 42
0.0
 43
0.0
 44
420.0
 45
297.0
 46
0.0
 47
0.0
 48
0.0
 49
0.0
140
0.0
141
0.0
142
1.0
143
1.0
 70
1024
 72
1
 73
0
 74
0
  7

 75
0
147
1.0
148
0.0
149
0.0
100
AcDbLayout
  1
Model
 70
0
 71
0
 10
0.0
 20
0.0
 11
420.0
 21
297.0
 12
0.0
 22
0.0
 32
0.0
 14
0.0
 24
0.0
 34
0.0
 15
0.0
 25
0.0
 35
0.0
146
0.0
 13
0.0
 23
0.0
 33
0.0
 16
1.0
 26
0.0
 36
0.0
 17
0.0
 27
1.0
 37
0.0
 76
0
330
209
345
0
346
0
  0
LAYOUT
  5
3CA
102
{ACAD_REACTORS
330
1A
102
}
100
AcDbPlotSettings
  1

  2
none_device
  4
ISO_A3_(420.00_x_297.00_MM)
  6

 40
0.0
 41
0.0
 42
0.0
 43
0.0
 44
420.0
 45
297.0
 46
0.0
 47
0.0
 48
0.0
 49
0.0
140
0.0
141
0.0
142
1.0
143
1.0
 70
0
 72
1
 73
0
 74
0
  7

 75
0
147
1.0
148
0.0
149
0.0
100
AcDbLayout
  1
Layout1
 70
0
 71
1
 10
0.0
 20
0.0
 11
420.0
 21
297.0
 12
0.0
 22
0.0
 32
0.0
 14
0.0
 24
0.0
 34
0.0
 15
0.0
 25
0.0
 35
0.0
146
0.0
 13
0.0
 23
0.0
 33
0.0
 16
1.0
 26
0.0
 36
0.0
 17
0.0
 27
1.0
 37
0.0
 76
0
330
20A
345
0
346
0
  0
ENDSEC
  0
EOF
