999
DXF file: IWH-16_7904363_M34400-P-2.dxf
999
Pro/ENGINEER 2010140 by Parametric Technology Corporation
  0
SECTION
  2
HEADER
  9
$ACADVER
  1
AC1015
  9
$DWGCODEPAGE
  3
ANSI_1252
  9
$EXTMAX
 10
594.0
 20
420.0
 30
0.0
  9
$EXTMIN
 10
0.0
 20
0.0
 30
0.0
  9
$LIMMIN
 10
0.0
 20
0.0
  9
$LIMMAX
 10
594.0
 20
420.0
  9
$VIEWCTR
 10
297.0
 20
210.0
  9
$VIEWSIZE
 40
420.0
  9
$CLAYER
  8
0
  9
$LTSCALE
 40
32.67
  9
$CELTYPE
  6
BYLAYER
  9
$DIMSCALE
 40
1.0
  9
$DIMASZ
 40
3.5
  9
$DIMEXO
 40
3.7125
  9
$DIMDLI
 40
22.572
  9
$DIMEXE
 40
10.692
  9
$DIMCEN
 40
5.346
  9
$DIMLFAC
 40
1.0
  9
$DIMBLK
  1
_FILLED
  9
$DIMTXT
 40
3.5
  9
$DIMTOL
 70
1
  9
$DIMLIM
 70
0
  9
$DIMTFAC
 40
1.0
  9
$DIMTP
 40
0.005
  9
$DIMTM
 40
0.005
  9
$PDMODE
 70
3
  9
$PDSIZE
 40
0.3125
  9
$HANDSEED
  5
3B5
  9
$TILEMODE
 70
1
  9
$MEASUREMENT
 70
1
  9
$INSUNITS
 70
4
  0
ENDSEC
  0
SECTION
  2
CLASSES
  0
CLASS
  1
ACDBDICTIONARYWDFLT
  2
AcDbDictionaryWithDefault
  3
AutoCAD 2000
 90
0
280
0
281
0
  0
CLASS
  1
ACDBPLACEHOLDER
  2
AcDbPlaceHolder
  3
AutoCAD 2000
 90
0
280
0
281
0
  0
CLASS
  1
LAYOUT
  2
AcDbLayout
  3
AutoCAD 2000
 90
0
280
0
281
0
  0
ENDSEC
  0
SECTION
  2
TABLES
  0
TABLE
  2
VPORT
  5
8
100
AcDbSymbolTable
 70
2
  0
VPORT
  5
1F4
100
AcDbSymbolTableRecord
100
AcDbViewportTableRecord
  2
*ACTIVE
 70
0
 10
0.0
 20
0.0
 11
1.0
 21
1.0
 12
297.0
 22
210.0
 13
0.0
 23
0.0
 14
1.0
 24
1.0
 15
0.0
 25
0.0
 16
0.0
 26
0.0
 36
1.0
 17
0.0
 27
0.0
 37
0.0
 40
420.0
 41
1.4142857143
 42
50.0
 43
0.0
 44
0.0
 50
0.0
 51
0.0
 71
0
 72
100
 73
1
 74
1
 75
0
 76
0
 77
0
 78
0
  0
ENDTAB
  0
TABLE
  2
LTYPE
  5
5
100
AcDbSymbolTable
 70
6
  0
LTYPE
  5
14
100
AcDbSymbolTableRecord
100
AcDbLinetypeTableRecord
  2
BYBLOCK
 70
0
  3

 72
65
 73
0
 40
0.0
  0
LTYPE
  5
15
100
AcDbSymbolTableRecord
100
AcDbLinetypeTableRecord
  2
BYLAYER
 70
0
  3

 72
65
 73
0
 40
0.0
  0
LTYPE
  5
16
100
AcDbSymbolTableRecord
100
AcDbLinetypeTableRecord
  2
CONTINUOUS
 70
64
  3
Solid line
 72
65
 73
0
 40
0.0
  0
LTYPE
  5
1F5
100
AcDbSymbolTableRecord
100
AcDbLinetypeTableRecord
  2
CENTER
 70
64
  3
____ _ ____ _ ____ _ ____ _ ____ _ ____ _ ____
 72
65
 73
4
 40
0.6
 49
0.375
 74
0
 49
-0.075
 74
0
 49
0.075
 74
0
 49
-0.075
 74
0
  0
LTYPE
  5
1F6
100
AcDbSymbolTableRecord
100
AcDbLinetypeTableRecord
  2
HIDDEN
 70
64
  3
- - - - - - - - - - - - - - - - - - - -
 72
65
 73
2
 40
0.2
 49
0.1
 74
0
 49
-0.1
 74
0
  0
LTYPE
  5
1F7
100
AcDbSymbolTableRecord
100
AcDbLinetypeTableRecord
  2
PHANTOM
 70
64
  3
_____ _ _ _____ _ _ _____ _ _ _____
 72
65
 73
6
 40
0.8
 49
0.45
 74
0
 49
-0.05
 74
0
 49
0.1
 74
0
 49
-0.05
 74
0
 49
0.1
 74
0
 49
-0.05
 74
0
  0
LTYPE
  5
1F8
100
AcDbSymbolTableRecord
100
AcDbLinetypeTableRecord
  2
DOT
 70
64
  3
. . . . . . . . . . . . . . . . . . . .
 72
65
 73
2
 40
0.2
 49
0.1
 74
0
 49
-0.1
 74
0
  0
LTYPE
  5
1F9
100
AcDbSymbolTableRecord
100
AcDbLinetypeTableRecord
  2
DASHED
 70
64
  3
- - - - - - - - - - - - - - - - - - - -
 72
65
 73
2
 40
0.2
 49
0.1
 74
0
 49
-0.1
 74
0
  0
ENDTAB
  0
TABLE
  2
LAYER
  5
2
100
AcDbSymbolTable
 70
36
  0
LAYER
  5
10
100
AcDbSymbolTableRecord
100
AcDbLayerTableRecord
  2
0
 70
0
 62
7
  6
CONTINUOUS
370
-3
390
F
  0
LAYER
  5
1FA
100
AcDbSymbolTableRecord
100
AcDbLayerTableRecord
  2
DEFAULT_1
 70
0
 62
7
  6
CENTER
370
-3
390
F
  0
LAYER
  5
1FB
100
AcDbSymbolTableRecord
100
AcDbLayerTableRecord
  2
DEFAULT_2
 70
0
 62
8
  6
HIDDEN
370
-3
390
F
  0
LAYER
  5
1FC
100
AcDbSymbolTableRecord
100
AcDbLayerTableRecord
  2
DEFAULT_3
 70
0
 62
7
  6
PHANTOM
370
-3
390
F
  0
LAYER
  5
1FD
100
AcDbSymbolTableRecord
100
AcDbLayerTableRecord
  2
BEZUGSACHSEN
 70
0
 62
7
  6
CONTINUOUS
370
-3
390
F
  0
LAYER
  5
1FE
100
AcDbSymbolTableRecord
100
AcDbLayerTableRecord
  2
BEZUGSEBENEN
 70
0
 62
7
  6
CONTINUOUS
370
-3
390
F
  0
LAYER
  5
1FF
100
AcDbSymbolTableRecord
100
AcDbLayerTableRecord
  2
FASEN
 70
0
 62
7
  6
CONTINUOUS
370
-3
390
F
  0
LAYER
  5
200
100
AcDbSymbolTableRecord
100
AcDbLayerTableRecord
  2
FLAECHEN
 70
0
 62
7
  6
CONTINUOUS
370
-3
390
F
  0
LAYER
  5
201
100
AcDbSymbolTableRecord
100
AcDbLayerTableRecord
  2
HILFEN
 70
0
 62
7
  6
CONTINUOUS
370
-3
390
F
  0
LAYER
  5
202
100
AcDbSymbolTableRecord
100
AcDbLayerTableRecord
  2
KURVEN
 70
0
 62
7
  6
CONTINUOUS
370
-3
390
F
  0
LAYER
  5
203
100
AcDbSymbolTableRecord
100
AcDbLayerTableRecord
  2
PLATZIERUNG
 70
0
 62
7
  6
CONTINUOUS
370
-3
390
F
  0
LAYER
  5
204
100
AcDbSymbolTableRecord
100
AcDbLayerTableRecord
  2
RUNDUNGEN
 70
0
 62
7
  6
CONTINUOUS
370
-3
390
F
  0
LAYER
  5
205
100
AcDbSymbolTableRecord
100
AcDbLayerTableRecord
  2
T_STARTBEZUEGE
 70
0
 62
7
  6
CONTINUOUS
370
-3
390
F
  0
LAYER
  5
206
100
AcDbSymbolTableRecord
100
AcDbLayerTableRecord
  2
ZEICHNUNGSBEMASSUNGEN
 70
0
 62
7
  6
CONTINUOUS
370
-3
390
F
  0
ENDTAB
  0
TABLE
  2
STYLE
  5
3
100
AcDbSymbolTable
 70
1
  0
STYLE
  5
11
100
AcDbSymbolTableRecord
100
AcDbTextStyleTableRecord
  2
STANDARD
 70
0
 40
0.0
 41
0.7
 50
0.0
 71
0
 42
0.2
  3
txt
  4

  0
STYLE
  5
207
100
AcDbSymbolTableRecord
100
AcDbTextStyleTableRecord
  2
TEXTSTYLE_1
 70
0
 40
0.0
 41
0.8
 50
0.0
 71
0
 42
0.2
  3
gdt
  4

  0
ENDTAB
  0
TABLE
  2
VIEW
  5
6
100
AcDbSymbolTable
 70
0
  0
ENDTAB
  0
TABLE
  2
UCS
  5
7
100
AcDbSymbolTable
 70
0
  0
ENDTAB
  0
TABLE
  2
APPID
  5
9
100
AcDbSymbolTable
 70
1
  0
APPID
  5
208
100
AcDbSymbolTableRecord
100
AcDbRegAppTableRecord
  2
ACAD
 70
0
  0
ENDTAB
  0
TABLE
  2
BLOCK_RECORD
  5
1
100
AcDbSymbolTable
 70
0
  0
BLOCK_RECORD
  5
209
100
AcDbSymbolTableRecord
100
AcDbBlockTableRecord
  2
*Model_Space
  0
BLOCK_RECORD
  5
20A
100
AcDbSymbolTableRecord
100
AcDbBlockTableRecord
  2
*Paper_Space
  0
ENDTAB
  0
TABLE
  2
DIMSTYLE
  5
A
100
AcDbSymbolTable
 70
1
100
AcDbDimStyleTable
 71
0
  0
DIMSTYLE
105
20B
100
AcDbSymbolTableRecord
100
AcDbDimStyleTableRecord
  2
STANDARD
 70
0
  3

  4

 40
1.0
 41
3.5
 42
0.0625
 43
0.38
 44
0.18
 45
0.0
 46
0.0
 47
0.005
 48
0.005
140
3.5
141
0.09
142
0.0
143
25.4
144
1.0
145
0.0
146
1.0
147
0.09
 71
1.0
 72
0.0
 73
0
 74
0
 75
0
 76
0
 77
1
 78
8
170
0
171
2
172
0
173
0
174
0
175
0
176
0
177
0
178
5
270
2
271
3
272
3
273
2
274
2
275
0
280
0
281
0
282
0
283
1
284
8
285
0
286
0
287
3
288
0
340
11
  0
ENDTAB
  0
ENDSEC
  0
SECTION
  2
BLOCKS
  0
BLOCK
  5
20
100
AcDbEntity
  8
0
100
AcDbBlockBegin
  2
*Model_Space
 70
0
 10
0.0
 20
0.0
 30
0.0
  3
*Model_Space
  1

  0
ENDBLK
  5
21
100
AcDbEntity
  8
0
100
AcDbBlockEnd
  0
BLOCK
  5
1C
100
AcDbEntity
  8
0
100
AcDbBlockBegin
  2
*Paper_Space
 70
0
 10
0.0
 20
0.0
 30
0.0
  3
*Paper_Space
  1

  0
ENDBLK
  5
1D
100
AcDbEntity
  8
0
100
AcDbBlockEnd
  0
ENDSEC
  0
SECTION
  2
ENTITIES
  0
MTEXT
  5
20C
100
AcDbEntity
  8
0
100
AcDbMText
 62
5
  6
CONTINUOUS
  7
STANDARD
 71
1
 72
1
 10
439.6110869001
 20
207.4838320287
 30
0.0
 11
0.0
 21
1.0
 31
0.0
 44
0.9
  1
RUD IWH 16
 40
7.0
 41
58.6666666667
  0
LINE
  5
20D
100
AcDbEntity
  8
0
100
AcDbLine
 62
7
  6
CONTINUOUS
 10
0.0
 20
0.0
 11
0.0
 21
420.0
  0
LINE
  5
20E
100
AcDbEntity
  8
0
100
AcDbLine
 62
7
  6
CONTINUOUS
 10
0.0
 20
0.0
 11
594.0
 21
0.0
  0
LINE
  5
20F
100
AcDbEntity
  8
0
100
AcDbLine
 62
7
  6
CONTINUOUS
 10
0.0
 20
420.0
 11
594.0
 21
420.0
  0
LINE
  5
210
100
AcDbEntity
  8
0
100
AcDbLine
 62
7
  6
CONTINUOUS
 10
594.0
 20
0.0
 11
594.0
 21
420.0
  0
LINE
  5
211
100
AcDbEntity
  8
0
100
AcDbLine
 62
7
  6
CONTINUOUS
 10
198.3187193137
 20
87.1927813859
 11
199.2968707757
 21
87.4006749104
  0
LINE
  5
212
100
AcDbEntity
  8
0
100
AcDbLine
 62
7
  6
CONTINUOUS
 10
203.3724993795
 20
88.2668974004
 11
204.5136735975
 21
88.5094393169
  0
LINE
  5
213
100
AcDbEntity
  8
0
100
AcDbLine
 62
7
  6
CONTINUOUS
 10
198.5537619967
 20
90.8970461431
 11
201.3251861637
 21
91.4860767384
  0
LINE
  5
214
100
AcDbEntity
  8
0
100
AcDbLine
 62
7
  6
CONTINUOUS
 10
201.4389223729
 20
92.5543381847
 11
198.3414452311
 21
91.8960092191
  0
LINE
  5
215
100
AcDbEntity
  8
0
100
AcDbLine
 62
7
  6
CONTINUOUS
 10
197.8106532178
 20
94.3934173757
 11
200.9081303597
 21
95.0517463413
  0
LINE
  5
216
100
AcDbEntity
  8
0
100
AcDbLine
 62
7
  6
CONTINUOUS
 10
208.2376019561
 20
89.7616013326
 11
209.0836395746
 21
89.8489437581
  0
LINE
  5
217
100
AcDbEntity
  8
0
100
AcDbLine
 62
7
  6
CONTINUOUS
 10
208.7775829897
 20
90.8232821217
 11
208.0905495577
 21
90.7858856542
  0
LINE
  5
218
100
AcDbEntity
  8
0
100
AcDbLine
 62
7
  6
CONTINUOUS
 10
160.6979879958
 20
90.164878649
 11
160.0103631335
 21
90.1891802409
  0
LINE
  5
219
100
AcDbEntity
  8
0
100
AcDbLine
 62
7
  6
CONTINUOUS
 10
159.7229249099
 20
89.2091878187
 11
160.5704803159
 21
89.1379775619
  0
LINE
  5
21A
100
AcDbEntity
  8
0
100
AcDbLine
 62
7
  6
CONTINUOUS
 10
142.2162694232
 20
97.4293793899
 11
141.697004763
 21
97.5260054291
  0
LINE
  5
21B
100
AcDbEntity
  8
0
100
AcDbLine
 62
7
  6
CONTINUOUS
 10
164.0110117014
 20
88.0692085989
 11
169.903813928
 21
86.9401019085
  0
LINE
  5
21C
100
AcDbEntity
  8
0
100
AcDbLine
 62
7
  6
CONTINUOUS
 10
170.0960023004
 20
87.9431320722
 11
165.1853337782
 21
88.8840543142
  0
LINE
  5
21D
100
AcDbEntity
  8
0
100
AcDbLine
 62
7
  6
CONTINUOUS
 10
165.697836112
 20
91.5588014565
 11
169.9537475823
 21
90.7433357528
  0
LINE
  5
21E
100
AcDbEntity
  8
0
100
AcDbLine
 62
7
  6
CONTINUOUS
 10
170.1459359322
 20
91.7463657994
 11
165.8900244619
 21
92.5618315032
  0
LINE
  5
21F
100
AcDbEntity
  8
0
100
AcDbLine
 62
7
  6
CONTINUOUS
 10
158.2835610363
 20
89.6313627106
 11
159.7229249099
 21
89.2091878187
  0
LINE
  5
220
100
AcDbEntity
  8
0
100
AcDbLine
 62
7
  6
CONTINUOUS
 10
160.0103631335
 20
90.1891802409
 11
158.5709992599
 21
90.6113551328
  0
LINE
  5
221
100
AcDbEntity
  8
0
100
AcDbLine
 62
7
  6
CONTINUOUS
 10
162.5368142675
 20
90.5124554487
 11
161.5772383517
 21
90.7939053766
  0
LINE
  5
222
100
AcDbEntity
  8
0
100
AcDbLine
 62
7
  6
CONTINUOUS
 10
162.6790848139
 20
94.5505427852
 11
163.6386607296
 21
94.2690928572
  0
LINE
  5
223
100
AcDbEntity
  8
0
100
AcDbLine
 62
7
  6
CONTINUOUS
 10
141.1346898197
 20
96.8657859362
 11
141.944526168
 21
96.605824789
  0
LINE
  5
224
100
AcDbEntity
  8
0
100
AcDbLine
 62
7
  6
CONTINUOUS
 10
153.0561440671
 20
91.3857342516
 11
153.9956364598
 21
91.0431644866
  0
LINE
  5
225
100
AcDbEntity
  8
0
100
AcDbLine
 62
7
  6
CONTINUOUS
 10
157.5318220293
 20
90.0292360249
 11
158.2835610363
 21
89.6313627106
  0
LINE
  5
226
100
AcDbEntity
  8
0
100
AcDbLine
 62
7
  6
CONTINUOUS
 10
140.4082589551
 20
97.2741246732
 11
141.1346898197
 21
96.8657859362
  0
LINE
  5
227
100
AcDbEntity
  8
0
100
AcDbLine
 62
7
  6
CONTINUOUS
 10
141.697004763
 20
97.5260054291
 11
140.6799988922
 21
98.0976811562
  0
LINE
  5
228
100
AcDbEntity
  8
0
100
AcDbLine
 62
7
  6
CONTINUOUS
 10
135.6798636112
 20
100.1593816468
 11
136.5165406905
 21
99.6116851386
  0
LINE
  5
229
100
AcDbEntity
  8
0
100
AcDbLine
 62
7
  6
CONTINUOUS
 10
200.5681769655
 20
95.8495671793
 11
196.6555711178
 21
95.0179930813
  0
LINE
  5
22A
100
AcDbEntity
  8
0
100
AcDbLine
 62
7
  6
CONTINUOUS
 10
215.6429149652
 20
100.6591180118
 11
214.8093211938
 21
100.4902104323
  0
LINE
  5
22B
100
AcDbEntity
  8
0
100
AcDbLine
 62
7
  6
CONTINUOUS
 10
160.5704803159
 20
89.1379775619
 11
161.3060078953
 21
89.2770091379
  0
LINE
  5
22C
100
AcDbEntity
  8
0
100
AcDbLine
 62
7
  6
CONTINUOUS
 10
159.6876087186
 20
97.379179234
 11
158.9520774913
 21
97.2401487745
  0
LINE
  5
22D
100
AcDbEntity
  8
0
100
AcDbLine
 62
7
  6
CONTINUOUS
 10
215.2083453486
 20
99.5501118417
 11
215.8885225755
 21
99.6539018817
  0
LINE
  5
22E
100
AcDbEntity
  8
0
100
AcDbLine
 62
7
  6
CONTINUOUS
 10
142.8189395597
 20
97.4811309275
 11
142.2162694232
 21
97.4293793899
  0
LINE
  5
22F
100
AcDbEntity
  8
0
100
AcDbLine
 62
7
  6
CONTINUOUS
 10
141.226173798
 20
101.1101075058
 11
141.8288439346
 21
101.1618590434
  0
LINE
  5
230
100
AcDbEntity
  8
0
100
AcDbLine
 62
7
  6
CONTINUOUS
 10
142.1005838134
 20
101.9854154225
 11
140.8952452029
 21
101.8819114127
  0
LINE
  5
231
100
AcDbEntity
  8
0
100
AcDbLine
 62
7
  6
CONTINUOUS
 10
142.6440671299
 20
103.6325267272
 11
143.2467372665
 21
103.6842782648
  0
LINE
  5
232
100
AcDbEntity
  8
0
100
AcDbLine
 62
7
  6
CONTINUOUS
 10
141.944526168
 20
96.605824789
 11
142.9211768089
 21
96.6426169522
  0
LINE
  5
233
100
AcDbEntity
  8
0
100
AcDbLine
 62
7
  6
CONTINUOUS
 10
143.5184771452
 20
104.5078346439
 11
142.5418298515
 21
104.4710406505
  0
LINE
  5
234
100
AcDbEntity
  8
0
100
AcDbLine
 62
7
  6
CONTINUOUS
 10
201.4186843363
 20
95.8563168796
 11
200.5681769655
 21
95.8495671793
  0
LINE
  5
235
100
AcDbEntity
  8
0
100
AcDbLine
 62
7
  6
CONTINUOUS
 10
159.560101068
 20
96.352278247
 11
160.2477222699
 21
96.3279777288
  0
LINE
  5
236
100
AcDbEntity
  8
0
100
AcDbLine
 62
7
  6
CONTINUOUS
 10
216.3896032409
 20
100.6062279343
 11
215.6429149652
 21
100.6591180118
  0
LINE
  5
237
100
AcDbEntity
  8
0
100
AcDbLine
 62
7
  6
CONTINUOUS
 10
160.5351604599
 20
97.3079700365
 11
159.6876087186
 21
97.379179234
  0
LINE
  5
238
100
AcDbEntity
  8
0
100
AcDbLine
 62
7
  6
CONTINUOUS
 10
200.9081303597
 20
95.0517463413
 11
201.4325922183
 21
94.9891992575
  0
LINE
  5
239
100
AcDbEntity
  8
0
100
AcDbLine
 62
7
  6
CONTINUOUS
 10
207.4995518072
 20
89.8865923297
 11
208.2376019561
 21
89.7616013326
  0
LINE
  5
23A
100
AcDbEntity
  8
0
100
AcDbLine
 62
7
  6
CONTINUOUS
 10
141.8288439346
 20
101.1618590434
 11
142.3481085948
 21
101.0652330042
  0
LINE
  5
23B
100
AcDbEntity
  8
0
100
AcDbLine
 62
7
  6
CONTINUOUS
 10
143.2467372665
 20
103.6842782648
 11
143.7660019267
 21
103.5876522256
  0
LINE
  5
23C
100
AcDbEntity
  8
0
100
AcDbLine
 62
7
  6
CONTINUOUS
 10
166.3064326431
 20
94.7350637393
 11
171.2171011653
 21
93.7941414973
  0
LINE
  5
23D
100
AcDbEntity
  8
0
100
AcDbLine
 62
7
  6
CONTINUOUS
 10
171.4092895152
 20
94.797171544
 11
165.5164872886
 21
95.9262782343
  0
LINE
  5
23E
100
AcDbEntity
  8
0
100
AcDbLine
 62
7
  6
CONTINUOUS
 10
160.2477222699
 20
96.3279777288
 11
161.6870861435
 21
95.9058028368
  0
LINE
  5
23F
100
AcDbEntity
  8
0
100
AcDbLine
 62
7
  6
CONTINUOUS
 10
161.9745243335
 20
96.8857951446
 11
160.5351604599
 21
97.3079700365
  0
LINE
  5
240
100
AcDbEntity
  8
0
100
AcDbLine
 62
7
  6
CONTINUOUS
 10
208.0905495577
 20
90.7858856542
 11
207.5115108473
 21
90.9608249812
  0
LINE
  5
241
100
AcDbEntity
  8
0
100
AcDbLine
 62
7
  6
CONTINUOUS
 10
142.9104234797
 20
101.7254523931
 11
142.1005838134
 21
101.9854154225
  0
LINE
  5
242
100
AcDbEntity
  8
0
100
AcDbLine
 62
7
  6
CONTINUOUS
 10
144.3283168116
 20
104.2478716145
 11
143.5184771452
 21
104.5078346439
  0
LINE
  5
243
100
AcDbEntity
  8
0
100
AcDbLine
 62
7
  6
CONTINUOUS
 10
156.7361945804
 20
98.5591036287
 11
155.7967021877
 21
98.9016733937
  0
LINE
  5
244
100
AcDbEntity
  8
0
100
AcDbLine
 62
7
  6
CONTINUOUS
 10
162.7262670052
 20
96.4879207709
 11
161.9745243335
 21
96.8857951446
  0
LINE
  5
245
100
AcDbEntity
  8
0
100
AcDbLine
 62
7
  6
CONTINUOUS
 10
142.3481085948
 20
101.0652330042
 11
143.3651144655
 21
100.493557277
  0
LINE
  5
246
100
AcDbEntity
  8
0
100
AcDbLine
 62
7
  6
CONTINUOUS
 10
143.6368543443
 20
101.3171136561
 11
142.9104234797
 21
101.7254523931
  0
LINE
  5
247
100
AcDbEntity
  8
0
100
AcDbLine
 62
7
  6
CONTINUOUS
 10
145.2995774846
 20
101.5540371797
 11
146.0260116745
 21
101.1456965735
  0
LINE
  5
248
100
AcDbEntity
  8
0
100
AcDbLine
 62
7
  6
CONTINUOUS
 10
143.7660019267
 20
103.5876522256
 11
144.6377202943
 21
103.0976449935
  0
LINE
  5
249
100
AcDbEntity
  8
0
100
AcDbLine
 62
7
  6
CONTINUOUS
 10
144.9094601731
 20
103.9212013726
 11
144.3283168116
 21
104.2478716145
  0
LINE
  5
24A
100
AcDbEntity
  8
0
100
AcDbLine
 62
7
  6
CONTINUOUS
 10
158.5709992599
 20
90.6113551328
 11
157.9791907881
 21
90.9623197536
  0
LINE
  5
24B
100
AcDbEntity
  8
0
100
AcDbLine
 62
7
  6
CONTINUOUS
 10
161.6870861435
 20
95.9058028368
 11
162.2788982758
 21
95.5548371424
  0
LINE
  5
24C
100
AcDbEntity
  8
0
100
AcDbLine
 62
7
  6
CONTINUOUS
 10
140.8981127561
 20
106.3051017724
 11
140.0614356769
 21
106.8527982806
  0
LINE
  5
24D
100
AcDbEntity
  8
0
100
AcDbLine
 62
7
  6
CONTINUOUS
 10
139.7652302488
 20
97.8308428692
 11
140.4082589551
 21
97.2741246732
  0
LINE
  5
24E
100
AcDbEntity
  8
0
100
AcDbLine
 62
7
  6
CONTINUOUS
 10
144.2798797325
 20
100.7603973424
 11
143.6368543443
 21
101.3171136561
  0
LINE
  5
24F
100
AcDbEntity
  8
0
100
AcDbLine
 62
7
  6
CONTINUOUS
 10
145.5524888867
 20
103.3644831896
 11
144.9094601731
 21
103.9212013726
  0
LINE
  5
250
100
AcDbEntity
  8
0
100
AcDbLine
 62
7
  6
CONTINUOUS
 10
121.4282653801
 20
111.7264911979
 11
122.1581765284
 21
111.0429491615
  0
LINE
  5
251
100
AcDbEntity
  8
0
100
AcDbLine
 62
7
  6
CONTINUOUS
 10
125.564428786
 20
107.8530861076
 11
126.2943399343
 21
107.1695440712
  0
LINE
  5
252
100
AcDbEntity
  8
0
100
AcDbLine
 62
7
  6
CONTINUOUS
 10
124.7178233239
 20
113.7762334839
 11
128.1240755814
 21
110.58637043
  0
LINE
  5
253
100
AcDbEntity
  8
0
100
AcDbLine
 62
7
  6
CONTINUOUS
 10
128.8221609822
 20
111.3318115139
 11
125.4159087246
 21
114.5216745678
  0
LINE
  5
254
100
AcDbEntity
  8
0
100
AcDbLine
 62
7
  6
CONTINUOUS
 10
131.7626762256
 20
113.0088332579
 11
131.0327650773
 21
113.6923752943
  0
LINE
  5
255
100
AcDbEntity
  8
0
100
AcDbLine
 62
7
  6
CONTINUOUS
 10
127.6265128197
 20
116.8822383482
 11
126.8966016714
 21
117.5657803846
  0
LINE
  5
256
100
AcDbEntity
  8
0
100
AcDbLine
 62
7
  6
CONTINUOUS
 10
156.9879162745
 20
90.5435338136
 11
157.5318220293
 21
90.0292360249
  0
LINE
  5
257
100
AcDbEntity
  8
0
100
AcDbLine
 62
7
  6
CONTINUOUS
 10
140.6799988922
 20
98.0976811562
 11
140.3275451848
 21
98.4910623491
  0
LINE
  5
258
100
AcDbEntity
  8
0
100
AcDbLine
 62
7
  6
CONTINUOUS
 10
143.3651144655
 20
100.493557277
 11
143.717568173
 21
100.1001760842
  0
LINE
  5
259
100
AcDbEntity
  8
0
100
AcDbLine
 62
7
  6
CONTINUOUS
 10
115.5311057748
 20
118.3655433547
 11
116.3986868633
 21
117.3530807032
  0
LINE
  5
25A
100
AcDbEntity
  8
0
100
AcDbLine
 62
7
  6
CONTINUOUS
 10
118.1338490402
 20
115.3281554001
 11
119.0014302838
 21
114.3156925675
  0
LINE
  5
25B
100
AcDbEntity
  8
0
100
AcDbLine
 62
7
  6
CONTINUOUS
 10
125.9437874885
 20
118.5087169381
 11
125.2931016334
 21
119.268063972
  0
LINE
  5
25C
100
AcDbEntity
  8
0
100
AcDbLine
 62
7
  6
CONTINUOUS
 10
123.7748348449
 20
121.0398734764
 11
122.9072536013
 21
122.052336309
  0
LINE
  5
25D
100
AcDbEntity
  8
0
100
AcDbLine
 62
7
  6
CONTINUOUS
 10
121.3889866577
 20
123.8241459945
 11
120.7383008025
 21
124.5834930284
  0
LINE
  5
25E
100
AcDbEntity
  8
0
100
AcDbLine
 62
7
  6
CONTINUOUS
 10
112.9735958702
 20
121.7711667266
 11
113.5664896764
 21
120.9658860709
  0
LINE
  5
25F
100
AcDbEntity
  8
BEZUGSACHSEN
100
AcDbLine
 62
7
  6
CONTINUOUS
 10
88.0039789803
 20
136.8570900798
 11
73.1748057366
 21
178.0467033194
  0
LINE
  5
260
100
AcDbEntity
  8
RUNDUNGEN
100
AcDbLine
 62
7
  6
CONTINUOUS
 10
88.0039789803
 20
136.8570900798
 11
73.1748057366
 21
178.0467033194
  0
LINE
  5
261
100
AcDbEntity
  8
0
100
AcDbLine
 62
7
  6
CONTINUOUS
 10
215.8885225755
 20
99.6539018817
 11
216.4817872837
 21
99.5358912839
  0
LINE
  5
262
100
AcDbEntity
  8
0
100
AcDbLine
 62
7
  6
CONTINUOUS
 10
217.2692925452
 20
100.239968679
 11
216.3896032409
 21
100.6062279343
  0
LINE
  5
263
100
AcDbEntity
  8
0
100
AcDbLine
 62
7
  6
CONTINUOUS
 10
202.1769486689
 20
95.495432082
 11
201.4186843363
 21
95.8563168796
  0
LINE
  5
264
100
AcDbEntity
  8
0
100
AcDbLine
 62
7
  6
CONTINUOUS
 10
206.6594900827
 20
90.336365044
 11
207.4995518072
 21
89.8865923297
  0
LINE
  5
265
100
AcDbEntity
  8
0
100
AcDbLine
 62
7
  6
CONTINUOUS
 10
163.2701691121
 20
95.9736240988
 11
162.7262670052
 21
96.4879207709
  0
LINE
  5
266
100
AcDbEntity
  8
0
100
AcDbLine
 62
7
  6
CONTINUOUS
 10
144.6377202943
 20
103.0976449935
 11
144.9901740018
 21
102.7042638007
  0
LINE
  5
267
100
AcDbEntity
  8
0
100
AcDbLine
 62
7
  6
CONTINUOUS
 10
157.9791907881
 20
90.9623197536
 11
157.5952155938
 21
91.4297089345
  0
LINE
  5
268
100
AcDbEntity
  8
0
100
AcDbLine
 62
7
  6
CONTINUOUS
 10
162.2788982758
 20
95.5548371424
 11
162.6628735036
 21
95.0874480758
  0
LINE
  5
269
100
AcDbEntity
  8
0
100
AcDbLine
 62
7
  6
CONTINUOUS
 10
120.0087349225
 20
125.7090365206
 11
119.4158411163
 21
126.5143171764
  0
LINE
  5
26A
100
AcDbEntity
  8
0
100
AcDbLine
 62
7
  6
CONTINUOUS
 10
139.2890158352
 20
98.6843143756
 11
139.7652302488
 21
97.8308428692
  0
LINE
  5
26B
100
AcDbEntity
  8
0
100
AcDbLine
 62
7
  6
CONTINUOUS
 10
140.3275451848
 20
98.4910623491
 11
140.0584969537
 21
99.0328211187
  0
LINE
  5
26C
100
AcDbEntity
  8
RUNDUNGEN
100
AcDbLine
 62
7
  6
CONTINUOUS
 10
271.949846599
 20
138.847374177
 11
252.6284950744
 21
136.3036699921
  0
LINE
  5
26D
100
AcDbEntity
  8
0
100
AcDbLine
 62
7
  6
CONTINUOUS
 10
201.4325922183
 20
94.9891992575
 11
201.8294174483
 21
94.7255099357
  0
LINE
  5
26E
100
AcDbEntity
  8
0
100
AcDbLine
 62
7
  6
CONTINUOUS
 10
207.5115108473
 20
90.9608249812
 11
207.0404669298
 21
91.348099875
  0
LINE
  5
26F
100
AcDbEntity
  8
BEZUGSACHSEN
100
AcDbLine
 62
7
  6
CONTINUOUS
 10
95.0974468766
 20
191.1152096525
 11
140.8373278432
 21
139.9579367351
  0
LINE
  5
270
100
AcDbEntity
  8
RUNDUNGEN
100
AcDbLine
 62
7
  6
CONTINUOUS
 10
95.0974468766
 20
191.1152096525
 11
140.8373278432
 21
139.9579367351
  0
LINE
  5
271
100
AcDbEntity
  8
0
100
AcDbLine
 62
7
  6
CONTINUOUS
 10
144.7560974934
 20
99.9069240057
 11
144.2798797325
 21
100.7603973424
  0
LINE
  5
272
100
AcDbEntity
  8
0
100
AcDbLine
 62
7
  6
CONTINUOUS
 10
146.0287033222
 20
102.5110117222
 11
145.5524888867
 21
103.3644831896
  0
LINE
  5
273
100
AcDbEntity
  8
0
100
AcDbLine
 62
7
  6
CONTINUOUS
 10
156.5398269145
 20
91.3844946455
 11
156.9879162745
 21
90.5435338136
  0
LINE
  5
274
100
AcDbEntity
  8
0
100
AcDbLine
 62
7
  6
CONTINUOUS
 10
143.717568173
 20
100.1001760842
 11
143.9866164041
 21
99.5584173145
  0
LINE
  5
275
100
AcDbEntity
  8
0
100
AcDbLine
 62
7
  6
CONTINUOUS
 10
144.9901740018
 20
102.7042638007
 11
145.2592222329
 21
102.162505031
  0
LINE
  5
276
100
AcDbEntity
  8
RUNDUNGEN
100
AcDbLine
 62
7
  6
CONTINUOUS
 10
256.0495540804
 20
147.848979521
 11
268.3407080816
 21
149.4671406435
  0
LINE
  5
277
100
AcDbEntity
  8
0
100
AcDbLine
 62
7
  6
CONTINUOUS
 10
216.4817872837
 20
99.5358912839
 11
216.9881396594
 21
99.1960796093
  0
LINE
  5
278
100
AcDbEntity
  8
0
100
AcDbLine
 62
7
  6
CONTINUOUS
 10
217.8421487604
 20
99.7434743449
 11
217.2692925452
 21
100.239968679
  0
LINE
  5
279
100
AcDbEntity
  8
0
100
AcDbLine
 62
7
  6
CONTINUOUS
 10
202.8075689103
 20
94.9334034602
 11
202.1769486689
 21
95.495432082
  0
LINE
  5
27A
100
AcDbEntity
  8
0
100
AcDbLine
 62
7
  6
CONTINUOUS
 10
206.1374367046
 20
90.8860297599
 11
206.6594900827
 21
90.336365044
  0
LINE
  5
27B
100
AcDbEntity
  8
0
100
AcDbLine
 62
7
  6
CONTINUOUS
 10
163.7182621494
 20
95.1326622505
 11
163.2701691121
 21
95.9736240988
  0
LINE
  5
27C
100
AcDbEntity
  8
0
100
AcDbLine
 62
7
  6
CONTINUOUS
 10
157.5952155938
 20
91.4297089345
 11
157.4190736099
 21
92.0135224468
  0
LINE
  5
27D
100
AcDbEntity
  8
0
100
AcDbLine
 62
7
  6
CONTINUOUS
 10
143.9866164041
 20
99.5584173145
 11
144.1103771321
 21
99.09832704
  0
LINE
  5
27E
100
AcDbEntity
  8
0
100
AcDbLine
 62
7
  6
CONTINUOUS
 10
144.9417402481
 20
99.2167876593
 11
144.7560974934
 21
99.9069240057
  0
LINE
  5
27F
100
AcDbEntity
  8
0
100
AcDbLine
 62
7
  6
CONTINUOUS
 10
140.0584969537
 20
99.0328211187
 11
140.0181417604
 21
99.641289074
  0
LINE
  5
280
100
AcDbEntity
  8
0
100
AcDbLine
 62
7
  6
CONTINUOUS
 10
145.2592222329
 20
102.162505031
 11
145.2995774846
 21
101.5540371797
  0
LINE
  5
281
100
AcDbEntity
  8
RUNDUNGEN
100
AcDbLine
 62
7
  6
CONTINUOUS
 10
138.3294598251
 20
317.6158821328
 11
138.3294598251
 21
344.4502875393
  0
LINE
  5
282
100
AcDbEntity
  8
BEZUGSACHSEN
100
AcDbLine
 62
7
  6
CONTINUOUS
 10
138.3294598251
 20
324.5579826939
 11
138.3294598251
 21
361.9609632111
  0
LINE
  5
283
100
AcDbEntity
  8
BEZUGSACHSEN
100
AcDbLine
 62
7
  6
CONTINUOUS
 10
138.3453300167
 20
362.397074967
 11
138.3294598251
 21
361.9618084883
  0
LINE
  5
284
100
AcDbEntity
  8
RUNDUNGEN
100
AcDbLine
 62
7
  6
CONTINUOUS
 10
285.3128670173
 20
158.9502875393
 11
284.8294598251
 21
158.9502875393
  0
LINE
  5
285
100
AcDbEntity
  8
0
100
AcDbLine
 62
7
  6
CONTINUOUS
 10
204.5136735975
 20
88.5094393169
 11
202.2325653704
 21
92.0269579549
  0
LINE
  5
286
100
AcDbEntity
  8
0
100
AcDbLine
 62
7
  6
CONTINUOUS
 10
201.3251861637
 20
91.4860767384
 11
203.3724993795
 21
88.2668974004
  0
LINE
  5
287
100
AcDbEntity
  8
0
100
AcDbLine
 62
7
  6
CONTINUOUS
 10
156.4115913291
 20
92.1316403235
 11
156.5398269145
 21
91.3844946455
  0
LINE
  5
288
100
AcDbEntity
  8
0
100
AcDbLine
 62
7
  6
CONTINUOUS
 10
139.186778586
 20
99.5228283508
 11
139.2890158352
 21
98.6843143756
  0
LINE
  5
289
100
AcDbEntity
  8
0
100
AcDbLine
 62
7
  6
CONTINUOUS
 10
146.1309406006
 20
101.672497799
 11
146.0287033222
 21
102.5110117222
  0
LINE
  5
28A
100
AcDbEntity
  8
0
100
AcDbLine
 62
7
  6
CONTINUOUS
 10
139.3132326828
 20
100.4280523943
 11
139.186778586
 21
99.5228283508
  0
LINE
  5
28B
100
AcDbEntity
  8
0
100
AcDbLine
 62
7
  6
CONTINUOUS
 10
216.9881396594
 20
99.1960796093
 11
217.4075723072
 21
98.6344647549
  0
LINE
  5
28C
100
AcDbEntity
  8
0
100
AcDbLine
 62
7
  6
CONTINUOUS
 10
218.3280856203
 20
99.0251759531
 11
217.8421487604
 21
99.7434743449
  0
LINE
  5
28D
100
AcDbEntity
  8
0
100
AcDbLine
 62
7
  6
CONTINUOUS
 10
207.0404669298
 20
91.348099875
 11
206.6774250482
 21
91.9477127359
  0
LINE
  5
28E
100
AcDbEntity
  8
0
100
AcDbLine
 62
7
  6
CONTINUOUS
 10
201.8294174483
 20
94.7255099357
 11
202.0985985873
 21
94.2606767897
  0
LINE
  5
28F
100
AcDbEntity
  8
0
100
AcDbLine
 62
7
  6
CONTINUOUS
 10
203.0767500492
 20
94.4685703142
 11
202.8075689103
 21
94.9334034602
  0
LINE
  5
290
100
AcDbEntity
  8
0
100
AcDbLine
 62
7
  6
CONTINUOUS
 10
205.7233853982
 20
91.6480323291
 11
206.1374367046
 21
90.8860297599
  0
LINE
  5
291
100
AcDbEntity
  8
0
100
AcDbLine
 62
7
  6
CONTINUOUS
 10
162.6628735036
 20
95.0874480758
 11
162.6790848139
 21
94.5505427852
  0
LINE
  5
292
100
AcDbEntity
  8
0
100
AcDbLine
 62
7
  6
CONTINUOUS
 10
157.4190736099
 20
92.0135224468
 11
157.4507721909
 21
92.7137582576
  0
LINE
  5
293
100
AcDbEntity
  8
0
100
AcDbLine
 62
7
  6
CONTINUOUS
 10
156.4911962752
 20
92.9952081855
 11
156.4115913291
 21
92.1316403235
  0
LINE
  5
294
100
AcDbEntity
  8
0
100
AcDbLine
 62
7
  6
CONTINUOUS
 10
144.8152845471
 20
98.3115646543
 11
144.9417402481
 21
99.2167876593
  0
LINE
  5
295
100
AcDbEntity
  8
0
100
AcDbLine
 62
7
  6
CONTINUOUS
 10
140.0181417604
 20
99.641289074
 11
140.1230706865
 21
100.1680902995
  0
LINE
  5
296
100
AcDbEntity
  8
0
100
AcDbLine
 62
7
  6
CONTINUOUS
 10
144.1103771321
 20
99.09832704
 11
144.0054480893
 21
98.5715256066
  0
LINE
  5
297
100
AcDbEntity
  8
0
100
AcDbLine
 62
7
  6
CONTINUOUS
 10
146.0260116745
 20
101.1456965735
 11
146.1309406006
 21
101.672497799
  0
LINE
  5
298
100
AcDbEntity
  8
RUNDUNGEN
100
AcDbLine
 62
7
  6
CONTINUOUS
 10
240.5886220437
 20
120.6911253207
 11
251.52036831
 21
109.7593790544
  0
LINE
  5
299
100
AcDbEntity
  8
0
100
AcDbLine
 62
7
  6
CONTINUOUS
 10
211.1272679414
 20
98.9273656396
 11
214.2529575268
 21
91.5632591347
  0
LINE
  5
29A
100
AcDbEntity
  8
0
100
AcDbLine
 62
7
  6
CONTINUOUS
 10
214.7744466385
 20
92.8940690333
 11
212.4468054093
 21
98.3779782471
  0
LINE
  5
29B
100
AcDbEntity
  8
BEZUGSACHSEN
100
AcDbLine
 62
7
  6
CONTINUOUS
 10
173.8294598251
 20
361.9502875393
 11
173.8294598251
 21
344.4502875393
  0
LINE
  5
29C
100
AcDbEntity
  8
RUNDUNGEN
100
AcDbLine
 62
7
  6
CONTINUOUS
 10
173.8294598251
 20
344.4502875393
 11
173.8294598251
 21
318.4502911129
  0
LINE
  5
29D
100
AcDbEntity
  8
RUNDUNGEN
100
AcDbLine
 62
7
  6
CONTINUOUS
 10
177.3294598251
 20
97.4566647115
 11
177.3294598251
 21
82.225527334
  0
LINE
  5
29E
100
AcDbEntity
  8
0
100
AcDbLine
 62
7
  6
CONTINUOUS
 10
163.6386607296
 20
94.2690928572
 11
163.7182621494
 21
95.1326622505
  0
LINE
  5
29F
100
AcDbEntity
  8
0
100
AcDbLine
 62
7
  6
CONTINUOUS
 10
139.7517852938
 20
101.5483632003
 11
139.3132326828
 21
100.4280523943
  0
LINE
  5
2A0
100
AcDbEntity
  8
RUNDUNGEN
100
AcDbLine
 62
7
  6
CONTINUOUS
 10
284.8294598251
 20
196.9502875393
 11
285.3128670173
 21
196.9502875393
  0
LINE
  5
2A1
100
AcDbEntity
  8
0
100
AcDbLine
 62
7
  6
CONTINUOUS
 10
217.4075723072
 20
98.6344647549
 11
218.4051327874
 21
96.2842180587
  0
LINE
  5
2A2
100
AcDbEntity
  8
0
100
AcDbLine
 62
7
  6
CONTINUOUS
 10
219.3256461005
 20
96.6749292569
 11
218.3280856203
 21
99.0251759531
  0
LINE
  5
2A3
100
AcDbEntity
  8
0
100
AcDbLine
 62
7
  6
CONTINUOUS
 10
204.142093013
 20
96.6821139688
 11
205.7233853982
 21
91.6480323291
  0
LINE
  5
2A4
100
AcDbEntity
  8
0
100
AcDbLine
 62
7
  6
CONTINUOUS
 10
206.6774250482
 20
91.9477127359
 11
205.0961326631
 21
96.9817943756
  0
LINE
  5
2A5
100
AcDbEntity
  8
0
100
AcDbLine
 62
7
  6
CONTINUOUS
 10
208.9122912631
 20
98.1805160028
 11
210.4935836482
 21
93.1464343631
  0
LINE
  5
2A6
100
AcDbEntity
  8
0
100
AcDbLine
 62
7
  6
CONTINUOUS
 10
211.4476232982
 20
93.4461147699
 11
209.8663309131
 21
98.4801964096
  0
LINE
  5
2A7
100
AcDbEntity
  8
0
100
AcDbLine
 62
7
  6
CONTINUOUS
 10
196.6555711178
 20
95.0179930813
 11
198.3187193137
 21
87.1927813859
  0
LINE
  5
2A8
100
AcDbEntity
  8
0
100
AcDbLine
 62
7
  6
CONTINUOUS
 10
199.2968707757
 20
87.4006749104
 11
198.5537619967
 21
90.8970461431
  0
LINE
  5
2A9
100
AcDbEntity
  8
0
100
AcDbLine
 62
7
  6
CONTINUOUS
 10
198.3414452311
 20
91.8960092191
 11
197.8106532178
 21
94.3934173757
  0
LINE
  5
2AA
100
AcDbEntity
  8
0
100
AcDbLine
 62
7
  6
CONTINUOUS
 10
202.0985985873
 20
94.2606767897
 11
202.2047570692
 21
93.7611947852
  0
LINE
  5
2AB
100
AcDbEntity
  8
0
100
AcDbLine
 62
7
  6
CONTINUOUS
 10
203.2182946588
 20
93.8025944637
 11
203.0767500492
 21
94.4685703142
  0
LINE
  5
2AC
100
AcDbEntity
  8
RUNDUNGEN
100
AcDbLine
 62
7
  6
CONTINUOUS
 10
189.3294598251
 20
81.9190426239
 11
189.3294598251
 21
97.4566647115
  0
LINE
  5
2AD
100
AcDbEntity
  8
RUNDUNGEN
100
AcDbLine
 62
7
  6
CONTINUOUS
 10
192.8294598251
 20
318.4502909387
 11
192.8294598251
 21
344.4502875393
  0
LINE
  5
2AE
100
AcDbEntity
  8
BEZUGSACHSEN
100
AcDbLine
 62
7
  6
CONTINUOUS
 10
192.8294598251
 20
344.4502875393
 11
192.8294598251
 21
361.9502875393
  0
LINE
  5
2AF
100
AcDbEntity
  8
0
100
AcDbLine
 62
7
  6
CONTINUOUS
 10
165.5164872886
 20
95.9262782343
 11
164.0110117014
 21
88.0692085989
  0
LINE
  5
2B0
100
AcDbEntity
  8
0
100
AcDbLine
 62
7
  6
CONTINUOUS
 10
165.1853337782
 20
88.8840543142
 11
165.697836112
 21
91.5588014565
  0
LINE
  5
2B1
100
AcDbEntity
  8
0
100
AcDbLine
 62
7
  6
CONTINUOUS
 10
165.8900244619
 20
92.5618315032
 11
166.3064326431
 21
94.7350637393
  0
LINE
  5
2B2
100
AcDbEntity
  8
0
100
AcDbLine
 62
7
  6
CONTINUOUS
 10
169.9537475823
 20
90.7433357528
 11
170.1459359322
 21
91.7463657994
  0
LINE
  5
2B3
100
AcDbEntity
  8
0
100
AcDbLine
 62
7
  6
CONTINUOUS
 10
169.903813928
 20
86.9401019085
 11
170.0960023004
 21
87.9431320722
  0
LINE
  5
2B4
100
AcDbEntity
  8
0
100
AcDbLine
 62
7
  6
CONTINUOUS
 10
171.2171011653
 20
93.7941414973
 11
171.4092895152
 21
94.797171544
  0
LINE
  5
2B5
100
AcDbEntity
  8
0
100
AcDbLine
 62
7
  6
CONTINUOUS
 10
157.2097918173
 20
95.4451891837
 11
156.4911962752
 21
92.9952081855
  0
LINE
  5
2B6
100
AcDbEntity
  8
0
100
AcDbLine
 62
7
  6
CONTINUOUS
 10
157.4507721909
 20
92.7137582576
 11
158.1693677331
 21
95.1637392557
  0
LINE
  5
2B7
100
AcDbEntity
  8
0
100
AcDbLine
 62
7
  6
CONTINUOUS
 10
155.7967021877
 20
98.9016733937
 11
153.0561440671
 21
91.3857342516
  0
LINE
  5
2B8
100
AcDbEntity
  8
0
100
AcDbLine
 62
7
  6
CONTINUOUS
 10
153.9956364598
 20
91.0431644866
 11
156.7361945804
 21
98.5591036287
  0
LINE
  5
2B9
100
AcDbEntity
  8
0
100
AcDbLine
 62
7
  6
CONTINUOUS
 10
140.3356236284
 20
102.5870062379
 11
139.7517852938
 21
101.5483632003
  0
LINE
  5
2BA
100
AcDbEntity
  8
0
100
AcDbLine
 62
7
  6
CONTINUOUS
 10
140.8952452029
 20
101.8819114127
 11
141.0620561556
 21
102.1786665663
  0
LINE
  5
2BB
100
AcDbEntity
  8
0
100
AcDbLine
 62
7
  6
CONTINUOUS
 10
140.1230706865
 20
100.1680902995
 11
140.3732871155
 21
100.6132230299
  0
LINE
  5
2BC
100
AcDbEntity
  8
0
100
AcDbLine
 62
7
  6
CONTINUOUS
 10
119.9893956671
 20
116.0402296056
 11
123.7748348449
 21
121.0398734764
  0
LINE
  5
2BD
100
AcDbEntity
  8
0
100
AcDbLine
 62
7
  6
CONTINUOUS
 10
122.1777894862
 20
120.549309478
 11
118.1338490402
 21
115.3281554001
  0
LINE
  5
2BE
100
AcDbEntity
  8
0
100
AcDbLine
 62
7
  6
CONTINUOUS
 10
120.7383008025
 20
124.5834930284
 11
115.5311057748
 21
118.3655433547
  0
LINE
  5
2BF
100
AcDbEntity
  8
0
100
AcDbLine
 62
7
  6
CONTINUOUS
 10
117.3866525568
 20
119.0776173792
 11
121.3889866577
 21
123.8241459945
  0
LINE
  5
2C0
100
AcDbEntity
  8
RUNDUNGEN
100
AcDbLine
 62
7
  6
CONTINUOUS
 10
269.891383936
 20
155.8042298133
 11
260.5658488743
 21
162.3340397614
  0
LINE
  5
2C1
100
AcDbEntity
  8
RUNDUNGEN
100
AcDbLine
 62
7
  6
CONTINUOUS
 10
250.3086000562
 20
130.7029479757
 11
258.9933493832
 21
119.384762296
  0
LINE
  5
2C2
100
AcDbEntity
  8
0
100
AcDbLine
 62
7
  6
CONTINUOUS
 10
219.504749685
 20
95.8263962253
 11
219.3256461005
 21
96.6749292569
  0
LINE
  5
2C3
100
AcDbEntity
  8
0
100
AcDbLine
 62
7
  6
CONTINUOUS
 10
210.4935836482
 20
93.1464343631
 11
210.5386171656
 21
92.4469295576
  0
LINE
  5
2C4
100
AcDbEntity
  8
0
100
AcDbLine
 62
7
  6
CONTINUOUS
 10
157.6092506555
 20
96.2149422921
 11
157.2097918173
 21
95.4451891837
  0
LINE
  5
2C5
100
AcDbEntity
  8
0
100
AcDbLine
 62
7
  6
CONTINUOUS
 10
144.0054480893
 20
98.5715256066
 11
143.7552316602
 21
98.1263928762
  0
LINE
  5
2C6
100
AcDbEntity
  8
0
100
AcDbLine
 62
7
  6
CONTINUOUS
 10
144.3982570484
 20
97.5696765624
 11
144.8152845471
 21
98.3115646543
  0
LINE
  5
2C7
100
AcDbEntity
  8
0
100
AcDbLine
 62
7
  6
CONTINUOUS
 10
138.5721841125
 20
106.4036030685
 11
137.8263844397
 21
105.2642978464
  0
LINE
  5
2C8
100
AcDbEntity
  8
0
100
AcDbLine
 62
7
  6
CONTINUOUS
 10
139.3156362652
 20
105.7134934574
 11
135.6798636112
 21
100.1593816468
  0
LINE
  5
2C9
100
AcDbEntity
  8
0
100
AcDbLine
 62
7
  6
CONTINUOUS
 10
136.5165406905
 20
99.6116851386
 11
140.8981127561
 21
106.3051017724
  0
LINE
  5
2CA
100
AcDbEntity
  8
0
100
AcDbLine
 62
7
  6
CONTINUOUS
 10
141.0647478033
 20
103.5439817151
 11
140.3356236284
 21
102.5870062379
  0
LINE
  5
2CB
100
AcDbEntity
  8
0
100
AcDbLine
 62
7
  6
CONTINUOUS
 10
126.8966016714
 20
117.5657803846
 11
121.4282653801
 21
111.7264911979
  0
LINE
  5
2CC
100
AcDbEntity
  8
0
100
AcDbLine
 62
7
  6
CONTINUOUS
 10
122.1581765284
 20
111.0429491615
 11
124.7178233239
 21
113.7762334839
  0
LINE
  5
2CD
100
AcDbEntity
  8
0
100
AcDbLine
 62
7
  6
CONTINUOUS
 10
125.4159087246
 20
114.5216745678
 11
127.6265128197
 21
116.8822383482
  0
LINE
  5
2CE
100
AcDbEntity
  8
0
100
AcDbLine
 62
7
  6
CONTINUOUS
 10
131.0327650773
 20
113.6923752943
 11
128.8221609822
 21
111.3318115139
  0
LINE
  5
2CF
100
AcDbEntity
  8
0
100
AcDbLine
 62
7
  6
CONTINUOUS
 10
128.1240755814
 20
110.58637043
 11
125.564428786
 21
107.8530861076
  0
LINE
  5
2D0
100
AcDbEntity
  8
0
100
AcDbLine
 62
7
  6
CONTINUOUS
 10
126.2943399343
 20
107.1695440712
 11
131.7626762256
 21
113.0088332579
  0
LINE
  5
2D1
100
AcDbEntity
  8
RUNDUNGEN
100
AcDbLine
 62
7
  6
CONTINUOUS
 10
248.996960997
 20
230.1140888564
 11
259.7939968122
 21
240.1122536462
  0
LINE
  5
2D2
100
AcDbEntity
  8
RUNDUNGEN
100
AcDbLine
 62
7
  6
CONTINUOUS
 10
252.8861095171
 20
245.8831053881
 11
238.9962203935
 21
233.4641111979
  0
LINE
  5
2D3
100
AcDbEntity
  8
0
100
AcDbLine
 62
7
  6
CONTINUOUS
 10
119.4158411163
 20
126.5143171764
 11
112.9735958702
 21
121.7711667266
  0
LINE
  5
2D4
100
AcDbEntity
  8
0
100
AcDbLine
 62
7
  6
CONTINUOUS
 10
113.5664896764
 20
120.9658860709
 11
120.0087349225
 21
125.7090365206
  0
LINE
  5
2D5
100
AcDbEntity
  8
RUNDUNGEN
100
AcDbLine
 62
7
  6
CONTINUOUS
 10
100.8310905829
 20
147.9233367597
 11
107.2362676216
 21
150.2546305469
  0
LINE
  5
2D6
100
AcDbEntity
  8
RUNDUNGEN
100
AcDbLine
 62
7
  6
CONTINUOUS
 10
258.4659813968
 20
212.2836754672
 11
272.7467037228
 21
209.1960740108
  0
LINE
  5
2D7
100
AcDbEntity
  8
RUNDUNGEN
100
AcDbLine
 62
7
  6
CONTINUOUS
 10
270.6737923821
 20
169.3066928287
 11
262.4240060825
 21
175.0832553843
  0
LINE
  5
2D8
100
AcDbEntity
  8
0
100
AcDbLine
 62
7
  6
CONTINUOUS
 10
218.4051327874
 20
96.2842180587
 11
218.5177323461
 21
95.5923681256
  0
LINE
  5
2D9
100
AcDbEntity
  8
0
100
AcDbLine
 62
7
  6
CONTINUOUS
 10
211.5436662405
 20
92.5842202561
 11
211.4476232982
 21
93.4461147699
  0
LINE
  5
2DA
100
AcDbEntity
  8
0
100
AcDbLine
 62
7
  6
CONTINUOUS
 10
219.4639257228
 20
95.0694256621
 11
219.504749685
 21
95.8263962253
  0
LINE
  5
2DB
100
AcDbEntity
  8
0
100
AcDbLine
 62
7
  6
CONTINUOUS
 10
202.2047570692
 20
93.7611947852
 11
202.147892696
 21
93.2270648551
  0
LINE
  5
2DC
100
AcDbEntity
  8
0
100
AcDbLine
 62
7
  6
CONTINUOUS
 10
203.1614302855
 20
93.2684645336
 11
203.2182946588
 21
93.8025944637
  0
LINE
  5
2DD
100
AcDbEntity
  8
0
100
AcDbLine
 62
7
  6
CONTINUOUS
 10
162.1373518694
 20
89.7427037571
 11
162.5368142675
 21
90.5124554487
  0
LINE
  5
2DE
100
AcDbEntity
  8
0
100
AcDbLine
 62
7
  6
CONTINUOUS
 10
158.1693677331
 20
95.1637392557
 11
158.520920072
 21
95.7701598553
  0
LINE
  5
2DF
100
AcDbEntity
  8
0
100
AcDbLine
 62
7
  6
CONTINUOUS
 10
141.0620561556
 20
102.1786665663
 11
141.7077748542
 21
102.9872644667
  0
LINE
  5
2E0
100
AcDbEntity
  8
RUNDUNGEN
100
AcDbLine
 62
7
  6
CONTINUOUS
 10
268.771203709
 20
220.2039723952
 11
250.6353687743
 21
224.1250787007
  0
LINE
  5
2E1
100
AcDbEntity
  8
BEZUGSACHSEN
100
AcDbLine
 62
7
  6
CONTINUOUS
 10
158.3625191193
 20
291.3915052693
 11
140.8747002739
 21
310.9505662572
  0
LINE
  5
2E2
100
AcDbEntity
  8
RUNDUNGEN
100
AcDbLine
 62
7
  6
CONTINUOUS
 10
225.8215918055
 20
215.9426383452
 11
140.8747002739
 21
310.9505662572
  0
LINE
  5
2E3
100
AcDbEntity
  8
BEZUGSACHSEN
100
AcDbLine
 62
7
  6
CONTINUOUS
 10
228.3294598251
 20
361.9502875393
 11
228.3294598251
 21
344.4502875393
  0
LINE
  5
2E4
100
AcDbEntity
  8
RUNDUNGEN
100
AcDbLine
 62
7
  6
CONTINUOUS
 10
228.3294598251
 20
344.4502875393
 11
228.3294598251
 21
286.5102256314
  0
LINE
  5
2E5
100
AcDbEntity
  8
0
100
AcDbLine
 62
7
  6
CONTINUOUS
 10
211.4296883328
 20
91.8347670781
 11
211.5436662405
 21
92.5842202561
  0
LINE
  5
2E6
100
AcDbEntity
  8
0
100
AcDbLine
 62
7
  6
CONTINUOUS
 10
218.5177323461
 20
95.5923681256
 11
218.4104043115
 21
94.9920807705
  0
LINE
  5
2E7
100
AcDbEntity
  8
0
100
AcDbLine
 62
7
  6
CONTINUOUS
 10
161.5772383517
 20
90.7939053766
 11
161.2735887173
 21
90.350817902
  0
LINE
  5
2E8
100
AcDbEntity
  8
0
100
AcDbLine
 62
7
  6
CONTINUOUS
 10
158.1207371944
 20
96.7744531389
 11
157.6092506555
 21
96.2149422921
  0
LINE
  5
2E9
100
AcDbEntity
  8
0
100
AcDbLine
 62
7
  6
CONTINUOUS
 10
141.7077748542
 20
102.9872644667
 11
142.10327902
 21
103.3507291177
  0
LINE
  5
2EA
100
AcDbEntity
  8
0
100
AcDbLine
 62
7
  6
CONTINUOUS
 10
140.3732871155
 20
100.6132230299
 11
140.7687911645
 21
100.9766874731
  0
LINE
  5
2EB
100
AcDbEntity
  8
0
100
AcDbLine
 62
7
  6
CONTINUOUS
 10
143.7552316602
 20
98.1263928762
 11
143.359727728
 21
97.7629286409
  0
LINE
  5
2EC
100
AcDbEntity
  8
0
100
AcDbLine
 62
7
  6
CONTINUOUS
 10
141.7723487622
 20
104.1225339593
 11
141.0647478033
 21
103.5439817151
  0
LINE
  5
2ED
100
AcDbEntity
  8
RUNDUNGEN
100
AcDbLine
 62
7
  6
CONTINUOUS
 10
274.0145844624
 20
202.9080862258
 11
263.5297631659
 21
195.5665353172
  0
LINE
  5
2EE
100
AcDbEntity
  8
0
100
AcDbLine
 62
7
  6
CONTINUOUS
 10
125.2931016334
 20
119.268063972
 11
119.9893956671
 21
116.0402296056
  0
LINE
  5
2EF
100
AcDbEntity
  8
0
100
AcDbLine
 62
7
  6
CONTINUOUS
 10
119.0014302838
 20
114.3156925675
 11
125.9437874885
 21
118.5087169381
  0
LINE
  5
2F0
100
AcDbEntity
  8
0
100
AcDbLine
 62
7
  6
CONTINUOUS
 10
116.3986868633
 20
117.3530807032
 11
122.1777894862
 21
120.549309478
  0
LINE
  5
2F1
100
AcDbEntity
  8
0
100
AcDbLine
 62
7
  6
CONTINUOUS
 10
122.9072536013
 20
122.052336309
 11
117.3866525568
 21
119.0776173792
  0
LINE
  5
2F2
100
AcDbEntity
  8
RUNDUNGEN
100
AcDbLine
 62
7
  6
CONTINUOUS
 10
217.5501035829
 20
260.9502875393
 11
233.84661635
 21
260.9502875393
  0
LINE
  5
2F3
100
AcDbEntity
  8
RUNDUNGEN
100
AcDbLine
 62
7
  6
CONTINUOUS
 10
234.0541907488
 20
233.7404135509
 11
214.940937584
 21
255.1174238934
  0
LINE
  5
2F4
100
AcDbEntity
  8
0
100
AcDbLine
 62
7
  6
CONTINUOUS
 10
210.5386171656
 20
92.4469295576
 11
210.3736297973
 21
91.8598662016
  0
LINE
  5
2F5
100
AcDbEntity
  8
0
100
AcDbLine
 62
7
  6
CONTINUOUS
 10
202.813899065
 20
92.4985423873
 11
203.1614302855
 21
93.2684645336
  0
LINE
  5
2F6
100
AcDbEntity
  8
0
100
AcDbLine
 62
7
  6
CONTINUOUS
 10
158.520920072
 20
95.7701598553
 11
158.9845003801
 21
96.1663391084
  0
LINE
  5
2F7
100
AcDbEntity
  8
0
100
AcDbLine
 62
7
  6
CONTINUOUS
 10
143.6906579274
 20
96.9911236954
 11
144.3982570484
 21
97.5696765624
  0
LINE
  5
2F8
100
AcDbEntity
  8
RUNDUNGEN
100
AcDbLine
 62
7
  6
CONTINUOUS
 10
262.4240060825
 20
180.8173196943
 11
270.6737923821
 21
186.5938822499
  0
LINE
  5
2F9
100
AcDbEntity
  8
0
100
AcDbLine
 62
7
  6
CONTINUOUS
 10
142.10327902
 20
103.3507291177
 11
142.6440671299
 21
103.6325267272
  0
LINE
  5
2FA
100
AcDbEntity
  8
RUNDUNGEN
100
AcDbLine
 62
7
  6
CONTINUOUS
 10
258.233321466
 20
197.2364969706
 11
254.4374204365
 21
207.6656493356
  0
LINE
  5
2FB
100
AcDbEntity
  8
RUNDUNGEN
100
AcDbLine
 62
7
  6
CONTINUOUS
 10
255.2694071743
 20
160.664078108
 11
252.3037882349
 21
152.5161070374
  0
LINE
  5
2FC
100
AcDbEntity
  8
0
100
AcDbLine
 62
7
  6
CONTINUOUS
 10
219.1162686482
 20
94.1822200749
 11
219.4639257228
 21
95.0694256621
  0
LINE
  5
2FD
100
AcDbEntity
  8
0
100
AcDbLine
 62
7
  6
CONTINUOUS
 10
210.997702043
 20
90.9854220122
 11
211.4296883328
 21
91.8347670781
  0
LINE
  5
2FE
100
AcDbEntity
  8
0
100
AcDbLine
 62
7
  6
CONTINUOUS
 10
202.147892696
 20
93.2270648551
 11
201.8926119763
 21
92.8247787929
  0
LINE
  5
2FF
100
AcDbEntity
  8
0
100
AcDbLine
 62
7
  6
CONTINUOUS
 10
158.9520774913
 20
97.2401487745
 11
158.1207371944
 21
96.7744531389
  0
LINE
  5
300
100
AcDbEntity
  8
0
100
AcDbLine
 62
7
  6
CONTINUOUS
 10
143.359727728
 20
97.7629286409
 11
142.8189395597
 21
97.4811309275
  0
LINE
  5
301
100
AcDbEntity
  8
0
100
AcDbLine
 62
7
  6
CONTINUOUS
 10
142.5418298515
 20
104.4710406505
 11
141.7723487622
 21
104.1225339593
  0
LINE
  5
302
100
AcDbEntity
  8
0
100
AcDbLine
 62
7
  6
CONTINUOUS
 10
142.9211768089
 20
96.6426169522
 11
143.6906579274
 21
96.9911236954
  0
LINE
  5
303
100
AcDbEntity
  8
0
100
AcDbLine
 62
7
  6
CONTINUOUS
 10
140.0614356769
 20
106.8527982806
 11
138.5721841125
 21
106.4036030685
  0
LINE
  5
304
100
AcDbEntity
  8
0
100
AcDbLine
 62
7
  6
CONTINUOUS
 10
137.8263844397
 20
105.2642978464
 11
139.3156362652
 21
105.7134934574
  0
LINE
  5
305
100
AcDbEntity
  8
RUNDUNGEN
100
AcDbLine
 62
7
  6
CONTINUOUS
 10
235.500544027
 20
260.5348496215
 11
252.2071735483
 21
251.5768334692
  0
LINE
  5
306
100
AcDbEntity
  8
RUNDUNGEN
100
AcDbLine
 62
7
  6
CONTINUOUS
 10
276.1813099094
 20
183.7268500949
 11
276.1813099094
 21
172.1737249837
  0
LINE
  5
307
100
AcDbEntity
  8
0
100
AcDbLine
 62
7
  6
CONTINUOUS
 10
218.4104043115
 20
94.9920807705
 11
218.0831557531
 21
94.4833588648
  0
LINE
  5
308
100
AcDbEntity
  8
0
100
AcDbLine
 62
7
  6
CONTINUOUS
 10
210.3736297973
 20
91.8598662016
 11
209.9986288577
 21
91.3852464678
  0
LINE
  5
309
100
AcDbEntity
  8
0
100
AcDbLine
 62
7
  6
CONTINUOUS
 10
218.6355964932
 20
93.6083777175
 11
219.1162686482
 21
94.1822200749
  0
LINE
  5
30A
100
AcDbEntity
  8
0
100
AcDbLine
 62
7
  6
CONTINUOUS
 10
161.3060078953
 20
89.2770091379
 11
162.1373518694
 21
89.7427037571
  0
LINE
  5
30B
100
AcDbEntity
  8
0
100
AcDbLine
 62
7
  6
CONTINUOUS
 10
158.9845003801
 20
96.1663391084
 11
159.560101068
 21
96.352278247
  0
LINE
  5
30C
100
AcDbEntity
  8
0
100
AcDbLine
 62
7
  6
CONTINUOUS
 10
140.7687911645
 20
100.9766874731
 11
141.226173798
 21
101.1101075058
  0
LINE
  5
30D
100
AcDbEntity
  8
RUNDUNGEN
100
AcDbLine
 62
7
  6
CONTINUOUS
 10
265.2680747904
 20
239.1765523616
 11
272.6068739099
 21
225.2572812664
  0
LINE
  5
30E
100
AcDbEntity
  8
RUNDUNGEN
100
AcDbLine
 62
7
  6
CONTINUOUS
 10
283.3294598251
 20
160.4502875393
 11
283.3294598251
 21
195.4502875393
  0
LINE
  5
30F
100
AcDbEntity
  8
0
100
AcDbLine
 62
7
  6
CONTINUOUS
 10
210.4636896203
 20
90.4608540909
 11
210.997702043
 21
90.9854220122
  0
LINE
  5
310
100
AcDbEntity
  8
0
100
AcDbLine
 62
7
  6
CONTINUOUS
 10
202.2325653704
 20
92.0269579549
 11
202.813899065
 21
92.4985423873
  0
LINE
  5
311
100
AcDbEntity
  8
0
100
AcDbLine
 62
7
  6
CONTINUOUS
 10
218.0831557531
 20
94.4833588648
 11
217.5359865778
 21
94.0662026279
  0
LINE
  5
312
100
AcDbEntity
  8
0
100
AcDbLine
 62
7
  6
CONTINUOUS
 10
217.9350107792
 20
93.1261039274
 11
218.6355964932
 21
93.6083777175
  0
LINE
  5
313
100
AcDbEntity
  8
0
100
AcDbLine
 62
7
  6
CONTINUOUS
 10
209.9986288577
 20
91.3852464678
 11
209.4136142755
 21
91.0230705838
  0
LINE
  5
314
100
AcDbEntity
  8
0
100
AcDbLine
 62
7
  6
CONTINUOUS
 10
201.8926119763
 20
92.8247787929
 11
201.4389223729
 21
92.5543381847
  0
LINE
  5
315
100
AcDbEntity
  8
0
100
AcDbLine
 62
7
  6
CONTINUOUS
 10
209.7196708604
 20
90.0487322203
 11
210.4636896203
 21
90.4608540909
  0
LINE
  5
316
100
AcDbEntity
  8
0
100
AcDbLine
 62
7
  6
CONTINUOUS
 10
214.8093211938
 20
100.4902104323
 11
211.1272679414
 21
98.9273656396
  0
LINE
  5
317
100
AcDbEntity
  8
0
100
AcDbLine
 62
7
  6
CONTINUOUS
 10
212.4468054093
 20
98.3779782471
 11
215.2083453486
 21
99.5501118417
  0
LINE
  5
318
100
AcDbEntity
  8
0
100
AcDbLine
 62
7
  6
CONTINUOUS
 10
161.2735887173
 20
90.350817902
 11
160.6979879958
 21
90.164878649
  0
LINE
  5
319
100
AcDbEntity
  8
0
100
AcDbLine
 62
7
  6
CONTINUOUS
 10
209.8663309131
 20
98.4801964096
 11
208.9122912631
 21
98.1805160028
  0
LINE
  5
31A
100
AcDbEntity
  8
0
100
AcDbLine
 62
7
  6
CONTINUOUS
 10
205.0961326631
 20
96.9817943756
 11
204.142093013
 21
96.6821139688
  0
LINE
  5
31B
100
AcDbEntity
  8
RUNDUNGEN
100
AcDbLine
 62
7
  6
CONTINUOUS
 10
264.5468227652
 20
119.384762296
 11
275.1834249628
 21
133.2466521607
  0
LINE
  5
31C
100
AcDbEntity
  8
0
100
AcDbLine
 62
7
  6
CONTINUOUS
 10
217.5359865778
 20
94.0662026279
 11
214.7744466385
 21
92.8940690333
  0
LINE
  5
31D
100
AcDbEntity
  8
0
100
AcDbLine
 62
7
  6
CONTINUOUS
 10
214.2529575268
 20
91.5632591347
 11
217.9350107792
 21
93.1261039274
  0
LINE
  5
31E
100
AcDbEntity
  8
0
100
AcDbLine
 62
7
  6
CONTINUOUS
 10
209.4136142755
 20
91.0230705838
 11
208.7775829897
 21
90.8232821217
  0
LINE
  5
31F
100
AcDbEntity
  8
0
100
AcDbLine
 62
7
  6
CONTINUOUS
 10
209.0836395746
 20
89.8489437581
 11
209.7196708604
 21
90.0487322203
  0
LINE
  5
320
100
AcDbEntity
  8
BEZUGSACHSEN
100
AcDbLine
 62
7
  6
CONTINUOUS
 10
173.8294598251
 20
328.7002875393
 11
192.8294598251
 21
328.7002875393
  0
LINE
  5
321
100
AcDbEntity
  8
BEZUGSACHSEN
100
AcDbLine
 62
7
  6
CONTINUOUS
 10
173.8294598251
 20
351.2002875393
 11
192.8294598251
 21
351.2002875393
  0
LWPOLYLINE
  5
322
100
AcDbEntity
  8
RUNDUNGEN
100
AcDbPolyline
 62
7
  6
CONTINUOUS
 90
23
 70
0
 10
144.3294640503
 20
367.9502874617
 10
144.0659514618
 20
367.9445186237
 10
143.630537281
 20
367.9095752844
 10
143.1988612764
 20
367.843137371
 10
142.7732317952
 20
367.7455568816
 10
142.3559168219
 20
367.6173585005
 10
141.9491263011
 20
367.4592312924
 10
141.555025804
 20
367.2720327607
 10
141.1756848369
 20
367.0567654849
 10
140.8131068161
 20
366.814588178
 10
140.4691866534
 20
366.5467898389
 10
140.1457270936
 20
366.2547972031
 10
139.8444208145
 20
365.940161722
 10
139.5668453429
 20
365.6045547095
 10
139.3144510891
 20
365.2497544285
 10
139.0885581363
 20
364.8776421494
 10
138.8903429731
 20
364.4901817364
 10
138.7208397477
 20
364.0894198599
 10
138.5809312407
 20
363.6774679671
 10
138.4713474052
 20
363.2564977553
 10
138.3926600124
 20
362.8287251732
 10
138.3452805739
 20
362.3963972869
 10
138.3294598251
 20
361.9618084883
  0
LWPOLYLINE
  5
323
100
AcDbEntity
  8
BEZUGSACHSEN
100
AcDbPolyline
 62
7
  6
CONTINUOUS
 90
22
 70
0
 10
144.3294643295
 20
367.9502874617
 10
144.0802531
 20
367.9451281294
 10
143.6440764248
 20
367.9111427113
 10
143.2115774012
 20
367.8455560193
 10
142.7850762465
 20
367.7487164575
 10
142.3668528983
 20
367.6211463577
 10
141.9591291248
 20
367.4635336059
 10
141.564082476
 20
367.2767357601
 10
141.1837937798
 20
367.0617564205
 10
140.8202777029
 20
366.8197564223
 10
140.4754400008
 20
366.5520279086
 10
140.1510938784
 20
366.2600017512
 10
139.8489419442
 20
365.9452344555
 10
139.5705710976
 20
365.6094032925
 10
139.3174404221
 20
365.2542932577
 10
139.0908779919
 20
364.8817931553
 10
138.8920674255
 20
364.4938749407
 10
138.7220492052
 20
364.0925939917
 10
138.5817116068
 20
363.6800710654
 10
138.4717891469
 20
363.258487574
 10
138.3928572374
 20
362.8300696905
 10
138.3453300167
 20
362.397074967
  0
LINE
  5
324
100
AcDbEntity
  8
RUNDUNGEN
100
AcDbLine
 62
7
  6
CONTINUOUS
 10
144.3294592183
 20
367.9502875393
 11
167.8294598251
 21
367.9502875393
  0
LINE
  5
325
100
AcDbEntity
  8
RUNDUNGEN
100
AcDbLine
 62
7
  6
CONTINUOUS
 10
198.8294598251
 20
367.9502875393
 11
222.3294598251
 21
367.9502875393
  0
LWPOLYLINE
  5
326
100
AcDbEntity
  8
RUNDUNGEN
100
AcDbPolyline
 62
7
  6
CONTINUOUS
 90
25
 70
0
 10
447.5808084843
 20
64.9502875427
 10
447.9065724523
 20
64.9569827439
 10
448.4391472001
 20
64.9968770823
 10
448.9654996025
 20
65.072088484
 10
449.4811340434
 20
65.1812364327
 10
449.9826088658
 20
65.3224710456
 10
450.4665624497
 20
65.4933994186
 10
450.9302775292
 20
65.6912950486
 10
451.3705590155
 20
65.9126342328
 10
451.7851337711
 20
66.1536636928
 10
452.1715547509
 20
66.4098618807
 10
452.5277303098
 20
66.6761399273
 10
452.853923381
 20
66.948598785
 10
453.1495833274
 20
67.2223765493
 10
453.4175456862
 20
67.4956677899
 10
453.6598015427
 20
67.7663592585
 10
453.8786108914
 20
68.0330377241
 10
454.0761438978
 20
68.294649716
 10
454.2543590776
 20
68.550303014
 10
454.4151039929
 20
68.7993465622
 10
454.5604155803
 20
69.0418655245
 10
454.6922101872
 20
69.2782726734
 10
454.8119643887
 20
69.5086585807
 10
454.9213115526
 20
69.7338264832
 10
454.9988130902
 20
69.9030473118
  0
LINE
  5
327
100
AcDbEntity
  8
0
100
AcDbLine
 62
7
  6
CONTINUOUS
 10
438.0625772181
 20
64.9502875393
 11
447.580845804
 21
64.9502875393
  0
LINE
  5
328
100
AcDbEntity
  8
BEZUGSACHSEN
100
AcDbLine
 62
7
  6
CONTINUOUS
 10
414.625558305
 20
314.8163115863
 11
418.5178658491
 21
321.5579860114
  0
LWPOLYLINE
  5
329
100
AcDbEntity
  8
BEZUGSACHSEN
100
AcDbPolyline
 62
7
  6
CONTINUOUS
 90
25
 70
0
 10
430.6446090507
 20
69.9030492846
 10
430.7218770619
 20
69.7343257361
 10
430.830956449
 20
69.5096589017
 10
430.9504015352
 20
69.2797811843
 10
431.0818472596
 20
69.043874976
 10
431.2267711676
 20
68.801838486
 10
431.3870895507
 20
68.553250361
 10
431.5648446035
 20
68.2980102114
 10
431.7618764167
 20
68.036773418
 10
431.98013896
 20
67.7704304071
 10
432.221800416
 20
67.5000285119
 10
432.4891286052
 20
67.2269647659
 10
432.7840844048
 20
66.9533732857
 10
433.1094722928
 20
66.6810686794
 10
433.4647368443
 20
66.4148980954
 10
433.8501127115
 20
66.1587577364
 10
434.2635505914
 20
65.9176898248
 10
434.7026313085
 20
65.6961897234
 10
435.1651316216
 20
65.4979828033
 10
435.6479079293
 20
65.3265786488
 10
436.1482959315
 20
65.1847004159
 10
436.6629893318
 20
65.0747501429
 10
437.1885999569
 20
64.9985993157
 10
437.7207015684
 20
64.9576632806
 10
438.0626141662
 20
64.9502875426
  0
LINE
  5
32A
100
AcDbEntity
  8
BEZUGSACHSEN
100
AcDbLine
 62
7
  6
CONTINUOUS
 10
430.6454881491
 20
69.9010816645
 11
430.6446090029
 21
69.9030492631
  0
LINE
  5
32B
100
AcDbEntity
  8
RUNDUNGEN
100
AcDbLine
 62
7
  6
CONTINUOUS
 10
462.7713664615
 20
283.8999424898
 11
470.0643525521
 21
291.1929285803
  0
LWPOLYLINE
  5
32C
100
AcDbEntity
  8
BEZUGSACHSEN
100
AcDbPolyline
 62
7
  6
CONTINUOUS
 90
12
 70
0
 10
429.5848692231
 20
73.5103191144
 10
429.6616557952
 20
73.1450186412
 10
429.7385775982
 20
72.7971784225
 10
429.816377472
 20
72.4636426778
 10
429.8957261207
 20
72.1421456003
 10
429.9779007548
 20
71.8286635101
 10
430.0640901384
 20
71.5204693948
 10
430.1566858574
 20
71.2117822065
 10
430.2577084875
 20
70.8997599549
 10
430.3725811088
 20
70.5735631922
 10
430.5090883717
 20
70.2208795012
 10
430.6454881491
 20
69.9010816645
  0
LINE
  5
32D
100
AcDbEntity
  8
BEZUGSACHSEN
100
AcDbLine
 62
7
  6
CONTINUOUS
 10
422.3004688228
 20
109.7927314946
 11
422.9437121254
 21
106.6709684885
  0
LINE
  5
32E
100
AcDbEntity
  8
BEZUGSACHSEN
100
AcDbLine
 62
7
  6
CONTINUOUS
 10
422.9437121254
 20
106.6709684885
 11
423.917536101
 21
101.8996147596
  0
LINE
  5
32F
100
AcDbEntity
  8
BEZUGSACHSEN
100
AcDbLine
 62
7
  6
CONTINUOUS
 10
428.3905556477
 20
79.5417618742
 11
429.5848692231
 21
73.5103191144
  0
LINE
  5
330
100
AcDbEntity
  8
BEZUGSACHSEN
100
AcDbLine
 62
7
  6
CONTINUOUS
 10
420.2913232745
 20
139.8467271391
 11
420.566912312
 21
136.3470488087
  0
LINE
  5
331
100
AcDbEntity
  8
BEZUGSACHSEN
100
AcDbLine
 62
7
  6
CONTINUOUS
 10
420.0379814966
 20
143.2165460564
 11
420.2913232745
 21
139.8467271391
  0
LINE
  5
332
100
AcDbEntity
  8
BEZUGSACHSEN
100
AcDbLine
 62
7
  6
CONTINUOUS
 10
419.8645557089
 20
145.6231586398
 11
420.0379814966
 21
143.2165460564
  0
LINE
  5
333
100
AcDbEntity
  8
BEZUGSACHSEN
100
AcDbLine
 62
7
  6
CONTINUOUS
 10
419.6885452272
 20
148.1637817683
 11
419.8645557089
 21
145.6231586398
  0
LINE
  5
334
100
AcDbEntity
  8
BEZUGSACHSEN
100
AcDbLine
 62
7
  6
CONTINUOUS
 10
419.5113585323
 20
150.8391901761
 11
419.6885452272
 21
148.1637817683
  0
LINE
  5
335
100
AcDbEntity
  8
BEZUGSACHSEN
100
AcDbLine
 62
7
  6
CONTINUOUS
 10
419.3346602068
 20
153.6491258124
 11
419.5113585323
 21
150.8391901761
  0
LINE
  5
336
100
AcDbEntity
  8
BEZUGSACHSEN
100
AcDbLine
 62
7
  6
CONTINUOUS
 10
419.1603784015
 20
156.5924258666
 11
419.3346602068
 21
153.6491258124
  0
LWPOLYLINE
  5
337
100
AcDbEntity
  8
BEZUGSACHSEN
100
AcDbPolyline
 62
7
  6
CONTINUOUS
 90
16
 70
0
 10
420.4983910787
 20
132.709433581
 10
420.505576516
 20
130.7032820984
 10
420.5373040138
 20
128.6575911242
 10
420.5907940111
 20
126.717954572
 10
420.6636778243
 20
124.8705888407
 10
420.75402194
 20
123.1079299434
 10
420.8603198352
 20
121.4230971782
 10
420.9813492859
 20
119.8110919716
 10
421.1161764153
 20
118.2676379016
 10
421.2639605267
 20
116.790820476
 10
421.4241212699
 20
115.3787505504
 10
421.5958901978
 20
114.0333256897
 10
421.7792453721
 20
112.7527379748
 10
421.9731687725
 20
111.5443911811
 10
422.1806294875
 20
110.3952770613
 10
422.3004674136
 20
109.7927383751
  0
LINE
  5
338
100
AcDbEntity
  8
BEZUGSACHSEN
100
AcDbLine
 62
7
  6
CONTINUOUS
 10
413.8217115111
 20
295.4355682268
 11
413.8217115111
 21
311.8163146457
  0
LINE
  5
339
100
AcDbEntity
  8
BEZUGSACHSEN
100
AcDbLine
 62
7
  6
CONTINUOUS
 10
419.3217115111
 20
324.557983706
 11
419.3217115111
 21
344.4502884655
  0
LINE
  5
33A
100
AcDbEntity
  8
BEZUGSACHSEN
100
AcDbLine
 62
7
  6
CONTINUOUS
 10
420.4984366652
 20
132.7295521885
 11
420.4983914129
 21
132.7095834856
  0
LWPOLYLINE
  5
33B
100
AcDbEntity
  8
BEZUGSACHSEN
100
AcDbPolyline
 62
7
  6
CONTINUOUS
 90
6
 70
0
 10
425.2170469328
 20
277.5111685478
 10
424.489814862
 20
269.354887315
 10
423.6933528951
 20
260.7081555412
 10
422.8314270116
 20
251.6691356856
 10
421.8973067117
 20
242.2216542689
 10
420.8824464886
 20
232.3433220851
  0
LWPOLYLINE
  5
33C
100
AcDbEntity
  8
BEZUGSACHSEN
100
AcDbPolyline
 62
7
  6
CONTINUOUS
 90
34
 70
0
 10
419.7358888536
 20
221.6507698155
 10
419.5334417662
 20
219.7382374252
 10
419.3369255474
 20
217.675031722
 10
419.1591245816
 20
215.5900819261
 10
418.9990898663
 20
213.4886203626
 10
418.8559410437
 20
211.376184279
 10
418.7288460133
 20
209.2579130598
 10
418.6170369368
 20
207.1392726527
 10
418.5196465238
 20
205.0228676072
 10
418.4358924771
 20
202.9113259929
 10
418.3650703361
 20
200.8076496812
 10
418.306504311
 20
198.7142479963
 10
418.2595643982
 20
196.6335171297
 10
418.2236513917
 20
194.5674702967
 10
418.198199927
 20
192.5179220428
 10
418.1826750497
 20
190.4863003527
 10
418.1765748822
 20
188.4742551698
 10
418.1794219055
 20
186.483105549
 10
418.190764246
 20
184.5139859128
 10
418.210175163
 20
182.5678392791
 10
418.2372534468
 20
180.6454478855
 10
418.2716192741
 20
178.7474096984
 10
418.3129102963
 20
176.8744120207
 10
418.3606106775
 20
175.0274380087
 10
418.4141218956
 20
173.2069799482
 10
418.4729044893
 20
171.4129052749
 10
418.5364166532
 20
169.6463665577
 10
418.6041656462
 20
167.9079669884
 10
418.6756718776
 20
166.1986901764
 10
418.7504877701
 20
164.5193218893
 10
418.8281932672
 20
162.870547886
 10
418.9083934293
 20
161.2529838909
 10
418.9907185138
 20
159.6671515739
 10
419.1603784015
 20
156.5924258666
  0
LINE
  5
33D
100
AcDbEntity
  8
BEZUGSACHSEN
100
AcDbLine
 62
7
  6
CONTINUOUS
 10
420.8824464886
 20
232.3433220851
 11
419.7357898536
 21
221.6498841397
  0
LINE
  5
33E
100
AcDbEntity
  8
BEZUGSACHSEN
100
AcDbLine
 62
7
  6
CONTINUOUS
 10
419.7357898536
 20
221.6498841397
 11
419.735888847
 21
221.650769815
  0
LWPOLYLINE
  5
33F
100
AcDbEntity
  8
BEZUGSACHSEN
100
AcDbPolyline
 62
7
  6
CONTINUOUS
 90
25
 70
0
 10
440.4821168238
 20
195.4502875336
 10
440.1431564743
 20
195.4448313796
 10
439.4770412028
 20
195.4022356094
 10
438.8146337717
 20
195.317538766
 10
438.1587518592
 20
195.1911125506
 10
437.512596212
 20
195.0236746472
 10
436.8776160429
 20
194.8156675194
 10
436.2563116509
 20
194.5678821369
 10
435.6487557415
 20
194.2800699338
 10
435.05239526
 20
193.9498597475
 10
434.4787491851
 20
193.5829154416
 10
433.9338173477
 20
193.1840819371
 10
433.4255265177
 20
192.7618459269
 10
432.9615036752
 20
192.327641302
 10
432.5385657092
 20
191.8847278935
 10
432.1564579745
 20
191.4392019286
 10
431.8105334705
 20
190.9919444979
 10
431.4973783754
 20
190.5442016989
 10
431.2137095462
 20
190.0964771004
 10
430.9562524669
 20
189.6482588977
 10
430.7228640458
 20
189.2000762327
 10
430.5114003123
 20
188.751849213
 10
430.3194520554
 20
188.3020692727
 10
430.1447821271
 20
187.8483810472
 10
430.0180205901
 20
187.4861052012
  0
LINE
  5
340
100
AcDbEntity
  8
0
100
AcDbLine
 62
7
  6
CONTINUOUS
 10
440.4821170152
 20
195.4502875393
 11
445.1613060069
 21
195.4502875393
  0
LWPOLYLINE
  5
341
100
AcDbEntity
  8
BEZUGSACHSEN
100
AcDbPolyline
 62
7
  6
CONTINUOUS
 90
11
 70
0
 10
430.0180402198
 20
187.4861637983
 10
428.2401408839
 20
181.9275916198
 10
426.6126262355
 20
176.290969632
 10
425.1769225119
 20
170.6969555526
 10
423.9334533654
 20
165.1439201296
 10
422.8825184288
 20
159.6303144727
 10
422.024165168
 20
154.1548974826
 10
421.357952531
 20
148.7163285419
 10
420.882869602
 20
143.3135666338
 10
420.5971604869
 20
137.9455210204
 10
420.4984337044
 20
132.7282800198
  0
LINE
  5
342
100
AcDbEntity
  8
BEZUGSACHSEN
100
AcDbLine
 62
7
  6
CONTINUOUS
 10
430.0180402198
 20
187.4861637983
 11
430.0180205902
 21
187.4861052015
  0
LWPOLYLINE
  5
343
100
AcDbEntity
  8
RUNDUNGEN
100
AcDbPolyline
 62
7
  6
CONTINUOUS
 90
25
 70
0
 10
455.6254008187
 20
187.4861100174
 10
455.4983739771
 20
187.8491120733
 10
455.3234420217
 20
188.303373761
 10
455.1312568305
 20
188.7535558353
 10
454.9195706729
 20
189.2020701863
 10
454.6859635674
 20
189.6504660323
 10
454.4282889361
 20
190.0988389195
 10
454.1443965169
 20
190.54667842
 10
453.8309987396
 20
190.9945165914
 10
453.4847993525
 20
191.4418627304
 10
453.1023547113
 20
191.8874957692
 10
452.6789784772
 20
192.3305551171
 10
452.2143958413
 20
192.7649358275
 10
451.705355642
 20
193.1873985751
 10
451.1595761847
 20
193.586405616
 10
450.5850742905
 20
193.9534052609
 10
449.9878773227
 20
194.2835490641
 10
449.3795905448
 20
194.5711555325
 10
448.7576013651
 20
194.8186407428
 10
448.1219373805
 20
195.0262754517
 10
447.4751091192
 20
195.193266419
 10
446.818553377
 20
195.3191729706
 10
446.1554897337
 20
195.4032735043
 10
445.4887473604
 20
195.4451959715
 10
445.1613060304
 20
195.4502875336
  0
LWPOLYLINE
  5
344
100
AcDbEntity
  8
RUNDUNGEN
100
AcDbPolyline
 62
7
  6
CONTINUOUS
 90
13
 70
0
 10
460.4263760893
 20
277.5111685478
 10
460.3986007421
 20
278.0481725165
 10
460.4127008525
 20
278.6554166545
 10
460.4730572281
 20
279.2552156154
 10
460.5774832261
 20
279.8452405394
 10
460.7241298887
 20
280.4233107498
 10
460.9113177776
 20
280.9870268869
 10
461.1374408563
 20
281.5338737661
 10
461.4016239329
 20
282.0625838802
 10
461.703273503
 20
282.5715308272
 10
462.0420091385
 20
283.0587266715
 10
462.4180344379
 20
283.5222796325
 10
462.7713366272
 20
283.899912676
  0
LWPOLYLINE
  5
345
100
AcDbEntity
  8
RUNDUNGEN
100
AcDbPolyline
 62
7
  6
CONTINUOUS
 90
11
 70
0
 10
465.1449893177
 20
132.7282800198
 10
465.0462625352
 20
137.9455210204
 10
464.7605534201
 20
143.3135666338
 10
464.2854704911
 20
148.7163285419
 10
463.6192578541
 20
154.1548974826
 10
462.7609045933
 20
159.6303144727
 10
461.7099696567
 20
165.1439201296
 10
460.4665005102
 20
170.6969555526
 10
459.0307967866
 20
176.290969632
 10
457.4032821382
 20
181.9275916198
 10
455.6253828023
 20
187.4861637983
  0
LINE
  5
346
100
AcDbEntity
  8
RUNDUNGEN
100
AcDbLine
 62
7
  6
CONTINUOUS
 10
465.145031828
 20
132.7094866279
 11
465.1449863569
 21
132.7295521885
  0
LINE
  5
347
100
AcDbEntity
  8
RUNDUNGEN
100
AcDbLine
 62
7
  6
CONTINUOUS
 10
466.3217115111
 20
324.557983706
 11
466.3217115111
 21
344.4502884655
  0
LWPOLYLINE
  5
348
100
AcDbEntity
  8
RUNDUNGEN
100
AcDbPolyline
 62
7
  6
CONTINUOUS
 90
7
 70
0
 10
465.8684598875
 20
222.0033207716
 10
464.7609765335
 20
232.3433220851
 10
463.7461163105
 20
242.2216542689
 10
462.8119960106
 20
251.6691356856
 10
461.950070127
 20
260.7081555412
 10
461.1536081601
 20
269.354887315
 10
460.4263821809
 20
277.511089686
  0
LINE
  5
349
100
AcDbEntity
  8
RUNDUNGEN
100
AcDbLine
 62
7
  6
CONTINUOUS
 10
471.8217115111
 20
295.4355682268
 11
471.8217115111
 21
311.8163146457
  0
LWPOLYLINE
  5
34A
100
AcDbEntity
  8
RUNDUNGEN
100
AcDbPolyline
 62
7
  6
CONTINUOUS
 90
33
 70
0
 10
467.0583198868
 20
168.3841015862
 10
467.1141274129
 20
169.8371302759
 10
467.1669702383
 20
171.3100091555
 10
467.2165608274
 20
172.802412122
 10
467.2626002609
 20
174.314212776
 10
467.3047665887
 20
175.8451141744
 10
467.3427172203
 20
177.395030291
 10
467.3760973405
 20
178.9635017523
 10
467.4046185624
 20
180.5497956024
 10
467.4280721416
 20
182.1534427377
 10
467.4462326601
 20
183.7740176145
 10
467.4588679812
 20
185.4109905841
 10
467.4657337127
 20
187.0637777741
 10
467.4665749955
 20
188.7317090818
 10
467.4611257077
 20
190.4139984012
 10
467.4491095563
 20
192.1096915128
 10
467.4302363123
 20
193.8180477927
 10
467.4042031544
 20
195.5380794589
 10
467.3706894851
 20
197.2689077876
 10
467.3293592776
 20
199.0094660475
 10
467.2798598957
 20
200.7585614424
 10
467.2218222633
 20
202.5148451172
 10
467.1548584713
 20
204.2768596797
 10
467.0785720053
 20
206.0427728142
 10
466.9925096477
 20
207.811408654
 10
466.8961804084
 20
209.5814782813
 10
466.7891322417
 20
211.3502942003
 10
466.6708673306
 20
213.1154934283
 10
466.5409136481
 20
214.8737669616
 10
466.3987985023
 20
216.6218004089
 10
466.2439960798
 20
218.3565466541
 10
466.0758586222
 20
220.0746462686
 10
465.9075382205
 20
221.6507336015
  0
LINE
  5
34B
100
AcDbEntity
  8
RUNDUNGEN
100
AcDbLine
 62
7
  6
CONTINUOUS
 10
466.9388683336
 20
165.5384549897
 11
467.0583198868
 21
168.3841015862
  0
LINE
  5
34C
100
AcDbEntity
  8
RUNDUNGEN
100
AcDbLine
 62
7
  6
CONTINUOUS
 10
466.8105728135
 20
162.7744325192
 11
466.9388683336
 21
165.5384549897
  0
LINE
  5
34D
100
AcDbEntity
  8
RUNDUNGEN
100
AcDbLine
 62
7
  6
CONTINUOUS
 10
466.6751553697
 20
160.0928166426
 11
466.8105728135
 21
162.7744325192
  0
LINE
  5
34E
100
AcDbEntity
  8
RUNDUNGEN
100
AcDbLine
 62
7
  6
CONTINUOUS
 10
466.5341282848
 20
157.4938799244
 11
466.6751553697
 21
160.0928166426
  0
LINE
  5
34F
100
AcDbEntity
  8
RUNDUNGEN
100
AcDbLine
 62
7
  6
CONTINUOUS
 10
466.3888169932
 20
154.9774524346
 11
466.5341282848
 21
157.4938799244
  0
LINE
  5
350
100
AcDbEntity
  8
RUNDUNGEN
100
AcDbLine
 62
7
  6
CONTINUOUS
 10
466.2403883246
 20
152.5431052246
 11
466.3888169932
 21
154.9774524346
  0
LINE
  5
351
100
AcDbEntity
  8
RUNDUNGEN
100
AcDbLine
 62
7
  6
CONTINUOUS
 10
466.0141362558
 20
149.0443452242
 11
466.2403883246
 21
152.5431052246
  0
LINE
  5
352
100
AcDbEntity
  8
RUNDUNGEN
100
AcDbLine
 62
7
  6
CONTINUOUS
 10
465.7861624102
 20
145.7263902542
 11
466.0141362558
 21
149.0443452242
  0
LINE
  5
353
100
AcDbEntity
  8
RUNDUNGEN
100
AcDbLine
 62
7
  6
CONTINUOUS
 10
465.5589102852
 20
142.5853935094
 11
465.7861624102
 21
145.7263902542
  0
LINE
  5
354
100
AcDbEntity
  8
RUNDUNGEN
100
AcDbLine
 62
7
  6
CONTINUOUS
 10
465.2604137611
 20
138.6644571025
 11
465.5589102852
 21
142.5853935094
  0
LINE
  5
355
100
AcDbEntity
  8
RUNDUNGEN
100
AcDbLine
 62
7
  6
CONTINUOUS
 10
465.0765135156
 20
136.346900555
 11
465.2604137611
 21
138.6644571025
  0
LINE
  5
356
100
AcDbEntity
  8
RUNDUNGEN
100
AcDbLine
 62
7
  6
CONTINUOUS
 10
465.9076331685
 20
221.6498841397
 11
465.8684598875
 21
222.0033207716
  0
LINE
  5
357
100
AcDbEntity
  8
0
100
AcDbLine
 62
7
  6
CONTINUOUS
 10
456.1181804342
 20
73.806504923
 11
457.2528673745
 21
79.5417618742
  0
LWPOLYLINE
  5
358
100
AcDbEntity
  8
RUNDUNGEN
100
AcDbPolyline
 62
7
  6
CONTINUOUS
 90
16
 70
0
 10
463.3430720476
 20
109.7933041372
 10
463.4682464747
 20
110.4237267477
 10
463.6750613185
 20
111.572704581
 10
463.8684288924
 20
112.7808227889
 10
464.051227639
 20
114.0606794027
 10
464.222458946
 20
115.4049961133
 10
464.3820967785
 20
116.8155425934
 10
464.5293847248
 20
118.2904872807
 10
464.6637494076
 20
119.8317483466
 10
464.7843591214
 20
121.4412917679
 10
464.890287116
 20
123.1234339775
 10
464.980317997
 20
124.8832161389
 10
465.0529511843
 20
126.7275561597
 10
465.1062587858
 20
128.6640561958
 10
465.1378771962
 20
130.7065373442
 10
465.1450319435
 20
132.7094335171
  0
LWPOLYLINE
  5
359
100
AcDbEntity
  8
0
100
AcDbPolyline
 62
7
  6
CONTINUOUS
 90
3
 70
0
 10
461.7258869211
 20
101.8996147596
 10
462.6997108967
 20
106.6709684885
 10
463.3368694824
 20
109.763247224
  0
LINE
  5
35A
100
AcDbEntity
  8
RUNDUNGEN
100
AcDbLine
 62
7
  6
CONTINUOUS
 10
463.3430706324
 20
109.7932972288
 11
463.3368690267
 21
109.7632450216
  0
LINE
  5
35B
100
AcDbEntity
  8
BEZUGSACHSEN
100
AcDbLine
 62
7
  6
CONTINUOUS
 10
422.8720565606
 20
283.8999424898
 11
415.57907047
 21
291.1929285803
  0
LWPOLYLINE
  5
35C
100
AcDbEntity
  8
BEZUGSACHSEN
100
AcDbPolyline
 62
7
  6
CONTINUOUS
 90
13
 70
0
 10
422.8720863949
 20
283.899912676
 10
423.2253885842
 20
283.5222796325
 10
423.6014138836
 20
283.0587266715
 10
423.9401495191
 20
282.5715308272
 10
424.2417990893
 20
282.0625838802
 10
424.5059821658
 20
281.5338737661
 10
424.7321052445
 20
280.9870268869
 10
424.9192931334
 20
280.4233107498
 10
425.065939796
 20
279.8452405394
 10
425.170365794
 20
279.2552156154
 10
425.2307221696
 20
278.6554166545
 10
425.24482228
 20
278.0481725165
 10
425.2170469328
 20
277.5111685478
  0
LWPOLYLINE
  5
35D
100
AcDbEntity
  8
RUNDUNGEN
100
AcDbPolyline
 62
7
  6
CONTINUOUS
 90
13
 70
0
 10
454.9979670169
 20
69.90115358
 10
455.1321193086
 20
70.2154393584
 10
455.2670031983
 20
70.5631497722
 10
455.3807394165
 20
70.8850238634
 10
455.4808546905
 20
71.1929239257
 10
455.5726045638
 20
71.4972721846
 10
455.657978007
 20
71.8008562095
 10
455.7393168766
 20
72.1092789751
 10
455.8177993101
 20
72.4252147841
 10
455.8946872353
 20
72.7525902353
 10
455.9706487846
 20
73.0936237437
 10
456.0464223683
 20
73.451400115
 10
456.1185653058
 20
73.8084523184
  0
LINE
  5
35E
100
AcDbEntity
  8
RUNDUNGEN
100
AcDbLine
 62
7
  6
CONTINUOUS
 10
454.9979670169
 20
69.90115358
 11
454.998813138
 21
69.9030472903
  0
LINE
  5
35F
100
AcDbEntity
  8
RUNDUNGEN
100
AcDbLine
 62
7
  6
CONTINUOUS
 10
471.0178647171
 20
314.8163115863
 11
467.125557173
 21
321.5579860114
  0
ARC
  5
360
100
AcDbEntity
  8
RUNDUNGEN
100
AcDbCircle
 62
7
  6
CONTINUOUS
 10
183.3294598251
 20
177.9502875393
 40
100.0
100
AcDbArc
 50
275.6496679977
 51
312.9214588524
  0
ARC
  5
361
100
AcDbEntity
  8
RUNDUNGEN
100
AcDbCircle
 62
7
  6
CONTINUOUS
 10
183.3294598251
 20
177.9502875393
 40
77.552287543
100
AcDbArc
 50
202.4749159986
 51
263.2689877298
  0
ARC
  5
362
100
AcDbEntity
  8
RUNDUNGEN
100
AcDbCircle
 62
7
  6
CONTINUOUS
 10
183.3294598251
 20
177.9502875393
 40
77.552287543
100
AcDbArc
 50
276.7310122702
 51
312.5250840014
  0
ARC
  5
363
100
AcDbEntity
  8
BEZUGSACHSEN
100
AcDbCircle
 62
7
  6
CONTINUOUS
 10
183.3294598251
 20
177.9502875393
 40
57.0
100
AcDbArc
 50
221.8
 51
41.2045849936
  0
ARC
  5
364
100
AcDbEntity
  8
RUNDUNGEN
100
AcDbCircle
 62
7
  6
CONTINUOUS
 10
183.3294598251
 20
177.9502875393
 40
57.0
100
AcDbArc
 50
221.8
 51
41.8000000023
  0
ARC
  5
365
100
AcDbEntity
  8
BEZUGSACHSEN
100
AcDbCircle
 62
7
  6
CONTINUOUS
 10
85.4062588808
 20
182.4502875393
 40
13.0
100
AcDbArc
 50
41.8
 51
199.7999590438
  0
ARC
  5
366
100
AcDbEntity
  8
RUNDUNGEN
100
AcDbCircle
 62
7
  6
CONTINUOUS
 10
85.4062588808
 20
182.4502875393
 40
13.0
100
AcDbArc
 50
41.8
 51
199.7999590438
  0
ARC
  5
367
100
AcDbEntity
  8
RUNDUNGEN
100
AcDbCircle
 62
7
  6
CONTINUOUS
 10
108.4333381233
 20
146.9657063742
 40
3.5
100
AcDbArc
 50
22.4749159986
 51
110.0
  0
ARC
  5
368
100
AcDbEntity
  8
RUNDUNGEN
100
AcDbCircle
 62
7
  6
CONTINUOUS
 10
102.0281610846
 20
144.6344125869
 40
3.5
100
AcDbArc
 50
110.0
 51
198.2171716761
  0
ARC
  5
369
100
AcDbEntity
  8
RUNDUNGEN
100
AcDbCircle
 62
7
  6
CONTINUOUS
 10
173.8294598251
 20
97.4566647115
 40
3.5
100
AcDbArc
 50
0.0
 51
83.2689877298
  0
ARC
  5
36A
100
AcDbEntity
  8
RUNDUNGEN
100
AcDbCircle
 62
7
  6
CONTINUOUS
 10
173.8294598251
 20
82.225527334
 40
3.5
100
AcDbArc
 50
259.7892205055
 51
360.0
  0
ARC
  5
36B
100
AcDbEntity
  8
RUNDUNGEN
100
AcDbCircle
 62
7
  6
CONTINUOUS
 10
148.3294598251
 20
317.6158914581
 40
10.0
100
AcDbArc
 50
180.0000534302
 51
221.800003831
  0
ARC
  5
36C
100
AcDbEntity
  8
RUNDUNGEN
100
AcDbCircle
 62
7
  6
CONTINUOUS
 10
183.3294598251
 20
318.4502875393
 40
9.5
100
AcDbArc
 50
179.999978447
 51
0.000020502
  0
ARC
  5
36D
100
AcDbEntity
  8
BEZUGSACHSEN
100
AcDbCircle
 62
7
  6
CONTINUOUS
 10
167.8294598251
 20
361.9502875393
 40
6.0
100
AcDbArc
 50
0.0
 51
90.0
  0
CIRCLE
  5
36E
100
AcDbEntity
  8
BEZUGSACHSEN
100
AcDbCircle
 62
7
  6
CONTINUOUS
 10
154.8294598251
 20
339.9502875393
 40
3.0
  0
ARC
  5
36F
100
AcDbEntity
  8
BEZUGSACHSEN
100
AcDbCircle
 62
7
  6
CONTINUOUS
 10
190.5930052751
 20
178.1867420893
 40
113.23645455
100
AcDbArc
 50
266.3222407134
 51
68.4813300034
  0
ARC
  5
370
100
AcDbEntity
  8
RUNDUNGEN
100
AcDbCircle
 62
7
  6
CONTINUOUS
 10
190.5930052751
 20
178.1867420893
 40
113.23645455
100
AcDbArc
 50
266.3222407134
 51
68.4813300034
  0
ARC
  5
371
100
AcDbEntity
  8
BEZUGSACHSEN
100
AcDbCircle
 62
7
  6
CONTINUOUS
 10
190.3037921076
 20
173.687282504
 40
108.7277096231
100
AcDbArc
 50
199.7999967479
 51
266.3222407134
  0
ARC
  5
372
100
AcDbEntity
  8
RUNDUNGEN
100
AcDbCircle
 62
7
  6
CONTINUOUS
 10
190.3037921076
 20
173.687282504
 40
108.7277096231
100
AcDbArc
 50
199.7999967479
 51
266.3222407134
  0
ARC
  5
373
100
AcDbEntity
  8
RUNDUNGEN
100
AcDbCircle
 62
7
  6
CONTINUOUS
 10
190.3037921076
 20
173.687282504
 40
96.4336122343
100
AcDbArc
 50
198.2171716761
 51
259.7892205055
  0
ARC
  5
374
100
AcDbEntity
  8
RUNDUNGEN
100
AcDbCircle
 62
7
  6
CONTINUOUS
 10
240.0801355057
 20
177.9502875393
 40
50.0
100
AcDbArc
 50
338.849145095
 51
21.150854905
  0
ARC
  5
375
100
AcDbEntity
  8
RUNDUNGEN
100
AcDbCircle
 62
7
  6
CONTINUOUS
 10
272.6813099094
 20
183.7268500949
 40
3.5
100
AcDbArc
 50
0.0
 51
125.0
  0
ARC
  5
376
100
AcDbEntity
  8
RUNDUNGEN
100
AcDbCircle
 62
7
  6
CONTINUOUS
 10
272.6813099094
 20
172.1737249837
 40
3.5
100
AcDbArc
 50
235.0
 51
360.0
  0
ARC
  5
377
100
AcDbEntity
  8
RUNDUNGEN
100
AcDbCircle
 62
7
  6
CONTINUOUS
 10
264.4315236098
 20
177.9502875393
 40
3.5
100
AcDbArc
 50
125.0
 51
235.0
  0
ARC
  5
378
100
AcDbEntity
  8
RUNDUNGEN
100
AcDbCircle
 62
7
  6
CONTINUOUS
 10
272.0070669352
 20
205.7751183808
 40
3.5
100
AcDbArc
 50
305.0
 51
77.8
  0
ARC
  5
379
100
AcDbEntity
  8
RUNDUNGEN
100
AcDbCircle
 62
7
  6
CONTINUOUS
 10
261.5222456387
 20
198.4335674722
 40
3.5
100
AcDbArc
 50
200.0
 51
305.0
  0
ARC
  5
37A
100
AcDbEntity
  8
RUNDUNGEN
100
AcDbCircle
 62
7
  6
CONTINUOUS
 10
257.7263446092
 20
208.8627198372
 40
3.5
100
AcDbArc
 50
77.8
 51
200.0
  0
ARC
  5
37B
100
AcDbEntity
  8
RUNDUNGEN
100
AcDbCircle
 62
7
  6
CONTINUOUS
 10
255.5927124077
 20
151.3190365358
 40
3.5
100
AcDbArc
 50
160.0
 51
277.5
  0
ARC
  5
37C
100
AcDbEntity
  8
RUNDUNGEN
100
AcDbCircle
 62
7
  6
CONTINUOUS
 10
192.8294598251
 20
97.4566647115
 40
3.5
100
AcDbArc
 50
96.7310122702
 51
180.0
  0
ARC
  5
37D
100
AcDbEntity
  8
RUNDUNGEN
100
AcDbCircle
 62
7
  6
CONTINUOUS
 10
238.1137483095
 20
118.2162515865
 40
3.5
100
AcDbArc
 50
45.0
 51
132.5250840014
  0
ARC
  5
37E
100
AcDbEntity
  8
RUNDUNGEN
100
AcDbCircle
 62
7
  6
CONTINUOUS
 10
192.8294598251
 20
81.9190426239
 40
3.5
100
AcDbArc
 50
180.0
 51
275.6496679977
  0
ARC
  5
37F
100
AcDbEntity
  8
RUNDUNGEN
100
AcDbCircle
 62
7
  6
CONTINUOUS
 10
249.0454945759
 20
107.2845053202
 40
3.5
100
AcDbArc
 50
312.9214588524
 51
45.0
  0
ARC
  5
380
100
AcDbEntity
  8
RUNDUNGEN
100
AcDbCircle
 62
7
  6
CONTINUOUS
 10
261.7700860742
 20
121.5154272976
 40
3.5
100
AcDbArc
 50
217.5
 51
322.5
  0
ARC
  5
381
100
AcDbEntity
  8
RUNDUNGEN
100
AcDbCircle
 62
7
  6
CONTINUOUS
 10
253.0853367472
 20
132.8336129773
 40
3.5
100
AcDbArc
 50
97.5
 51
217.5
  0
ARC
  5
382
100
AcDbEntity
  8
RUNDUNGEN
100
AcDbCircle
 62
7
  6
CONTINUOUS
 10
272.4066882717
 20
135.3773171622
 40
3.5
100
AcDbArc
 50
322.5
 51
97.5
  0
ARC
  5
383
100
AcDbEntity
  8
RUNDUNGEN
100
AcDbCircle
 62
7
  6
CONTINUOUS
 10
258.558331347
 20
159.4670076064
 40
3.5
100
AcDbArc
 50
55.0
 51
160.0
  0
ARC
  5
384
100
AcDbEntity
  8
RUNDUNGEN
100
AcDbCircle
 62
7
  6
CONTINUOUS
 10
267.8838664088
 20
152.9371976583
 40
3.5
100
AcDbArc
 50
277.5
 51
55.0
  0
ARC
  5
385
100
AcDbEntity
  8
RUNDUNGEN
100
AcDbCircle
 62
7
  6
CONTINUOUS
 10
285.3128670173
 20
195.4502875393
 40
1.5
100
AcDbArc
 50
21.150854905
 51
90.0
  0
ARC
  5
386
100
AcDbEntity
  8
RUNDUNGEN
100
AcDbCircle
 62
7
  6
CONTINUOUS
 10
285.3128670173
 20
160.4502875393
 40
1.5
100
AcDbArc
 50
270.0
 51
338.849145095
  0
ARC
  5
387
100
AcDbEntity
  8
RUNDUNGEN
100
AcDbCircle
 62
7
  6
CONTINUOUS
 10
284.8294598251
 20
160.4502875393
 40
1.5
100
AcDbArc
 50
180.0
 51
270.0
  0
ARC
  5
388
100
AcDbEntity
  8
RUNDUNGEN
100
AcDbCircle
 62
7
  6
CONTINUOUS
 10
284.8294598251
 20
195.4502875393
 40
1.5
100
AcDbArc
 50
90.0
 51
180.0
  0
ARC
  5
389
100
AcDbEntity
  8
BEZUGSACHSEN
100
AcDbCircle
 62
7
  6
CONTINUOUS
 10
222.3294598251
 20
361.9502875393
 40
6.0
100
AcDbArc
 50
0.0
 51
90.0
  0
ARC
  5
38A
100
AcDbEntity
  8
BEZUGSACHSEN
100
AcDbCircle
 62
7
  6
CONTINUOUS
 10
198.8294598251
 20
361.9502875393
 40
6.0
100
AcDbArc
 50
90.0
 51
180.0
  0
ARC
  5
38B
100
AcDbEntity
  8
RUNDUNGEN
100
AcDbCircle
 62
7
  6
CONTINUOUS
 10
234.3294598251
 20
289.1121788625
 40
5.9999955247
100
AcDbArc
 50
179.9999090381
 51
248.4812967719
  0
ARC
  5
38C
100
AcDbEntity
  8
BEZUGSACHSEN
100
AcDbCircle
 62
7
  6
CONTINUOUS
 10
234.3294598251
 20
289.1121788625
 40
5.9999955247
100
AcDbArc
 50
179.9999090381
 51
248.4812967719
  0
ARC
  5
38D
100
AcDbEntity
  8
RUNDUNGEN
100
AcDbCircle
 62
7
  6
CONTINUOUS
 10
251.3750055619
 20
227.5460343307
 40
3.5
100
AcDbArc
 50
132.8
 51
257.8
  0
ARC
  5
38E
100
AcDbEntity
  8
RUNDUNGEN
100
AcDbCircle
 62
7
  6
CONTINUOUS
 10
262.1720413771
 20
237.5441991204
 40
3.5
100
AcDbArc
 50
27.8
 51
132.8
  0
ARC
  5
38F
100
AcDbEntity
  8
RUNDUNGEN
100
AcDbCircle
 62
7
  6
CONTINUOUS
 10
269.5108404966
 20
223.6249280252
 40
3.5
100
AcDbArc
 50
257.8
 51
27.8
  0
ARC
  5
390
100
AcDbEntity
  8
RUNDUNGEN
100
AcDbCircle
 62
7
  6
CONTINUOUS
 10
233.84661635
 20
257.4502875393
 40
3.5
100
AcDbArc
 50
61.8
 51
90.0
  0
ARC
  5
391
100
AcDbEntity
  8
RUNDUNGEN
100
AcDbCircle
 62
7
  6
CONTINUOUS
 10
250.5532458713
 20
248.492271387
 40
3.5
100
AcDbArc
 50
311.8
 51
61.8
  0
ARC
  5
392
100
AcDbEntity
  8
RUNDUNGEN
100
AcDbCircle
 62
7
  6
CONTINUOUS
 10
236.6633567477
 20
236.0732771968
 40
3.5
100
AcDbArc
 50
221.8
 51
311.8
  0
ARC
  5
393
100
AcDbEntity
  8
RUNDUNGEN
100
AcDbCircle
 62
7
  6
CONTINUOUS
 10
217.5501035829
 20
257.4502875393
 40
3.5
100
AcDbArc
 50
90.0
 51
221.8
  0
ARC
  5
394
100
AcDbEntity
  8
RUNDUNGEN
100
AcDbCircle
 62
7
  6
CONTINUOUS
 10
190.1506330199
 20
349.0849956974
 40
336.8566544272
100
AcDbArc
 50
323.3323126125
 51
323.8250962955
  0
ARC
  5
395
100
AcDbEntity
  8
BEZUGSACHSEN
100
AcDbCircle
 62
7
  6
CONTINUOUS
 10
695.4927899897
 20
349.0849956881
 40
336.8566544115
100
AcDbArc
 50
216.1749037045
 51
216.6676873875
  0
ARC
  5
396
100
AcDbEntity
  8
RUNDUNGEN
100
AcDbCircle
 62
7
  6
CONTINUOUS
 10
783.5949376217
 20
17.6311013698
 40
332.1951322529
100
AcDbArc
 50
168.7875654053
 51
168.9290619411
  0
ARC
  5
397
100
AcDbEntity
  8
BEZUGSACHSEN
100
AcDbCircle
 62
7
  6
CONTINUOUS
 10
102.0484854005
 20
17.6311013698
 40
332.1951322529
100
AcDbArc
 50
11.0709380589
 51
11.2124345947
  0
ARC
  5
398
100
AcDbEntity
  8
BEZUGSACHSEN
100
AcDbCircle
 62
7
  6
CONTINUOUS
 10
442.8217115111
 20
344.4502875393
 40
23.5
100
AcDbArc
 50
0.0000022583
 51
179.9999977417
  0
ARC
  5
399
100
AcDbEntity
  8
RUNDUNGEN
100
AcDbCircle
 62
7
  6
CONTINUOUS
 10
472.3217115111
 20
324.5579826939
 40
6.0
100
AcDbArc
 50
179.9999903347
 51
209.999963419
  0
ARC
  5
39A
100
AcDbEntity
  8
RUNDUNGEN
100
AcDbCircle
 62
7
  6
CONTINUOUS
 10
465.8217115111
 20
295.4355689135
 40
6.0
100
AcDbArc
 50
315.0
 51
360.0
  0
ARC
  5
39B
100
AcDbEntity
  8
RUNDUNGEN
100
AcDbCircle
 62
7
  6
CONTINUOUS
 10
465.8217115111
 20
311.8163129431
 40
6.0
100
AcDbArc
 50
0.0000000002
 51
30.0000000001
  0
ARC
  5
39C
100
AcDbEntity
  8
BEZUGSACHSEN
100
AcDbCircle
 62
7
  6
CONTINUOUS
 10
413.3217115111
 20
324.5579826939
 40
6.0
100
AcDbArc
 50
330.000036581
 51
0.0000096653
  0
ARC
  5
39D
100
AcDbEntity
  8
BEZUGSACHSEN
100
AcDbCircle
 62
7
  6
CONTINUOUS
 10
419.8217115111
 20
311.8163129431
 40
6.0
100
AcDbArc
 50
150.0000149609
 51
180.0
  0
ARC
  5
39E
100
AcDbEntity
  8
BEZUGSACHSEN
100
AcDbCircle
 62
7
  6
CONTINUOUS
 10
419.8217115111
 20
295.4355689135
 40
6.0
100
AcDbArc
 50
180.0000065582
 51
224.9999952208
  0
SPLINE
  5
39F
100
AcDbEntity
  8
RUNDUNGEN
100
AcDbSpline
 62
7
  6
CONTINUOUS
 70
0
 71
3
 72
9
 73
5
 74
0
 42
0.0000001
 43
0.0000001
 44
0.0000000001
 40
0.0
 40
0.0
 40
0.0
 40
0.0
 40
0.4782871095
 40
1.0
 40
1.0
 40
1.0
 40
1.0
 10
459.6727214685
 20
115.457559657
 30
0.0
 10
459.6820811165
 20
119.9348205904
 30
0.0
 10
459.6511380253
 20
129.2959283917
 30
0.0
 10
459.5775302413
 20
138.6567010413
 30
0.0
 10
459.5292317167
 20
143.5402439404
 30
0.0
  0
SPLINE
  5
3A0
100
AcDbEntity
  8
RUNDUNGEN
100
AcDbSpline
 62
7
  6
CONTINUOUS
 70
0
 71
3
 72
8
 73
4
 74
0
 42
0.0000001
 43
0.0000001
 44
0.0000000001
 40
0.0
 40
0.0
 40
0.0
 40
0.0
 40
1.0
 40
1.0
 40
1.0
 40
1.0
 10
460.7670610218
 20
97.4566647115
 30
0.0
 10
459.7551674574
 20
92.3802186823
 30
0.0
 10
458.7469342394
 20
87.3030428581
 30
0.0
 10
457.740420963
 20
82.225527334
 30
0.0
  0
SPLINE
  5
3A1
100
AcDbEntity
  8
BEZUGSACHSEN
100
AcDbSpline
 62
7
  6
CONTINUOUS
 70
0
 71
3
 72
14
 73
10
 74
0
 42
0.0000001
 43
0.0000001
 44
0.0000000001
 40
0.0
 40
0.0
 40
0.0
 40
0.0
 40
0.0619500962
 40
0.1434911802
 40
0.244003714
 40
0.3627259704
 40
0.4987660935
 40
0.6511074978
 40
1.0
 40
1.0
 40
1.0
 40
1.0
 10
428.3905546104
 20
79.5417732963
 30
0.0
 10
428.2459521915
 20
80.2717224939
 30
0.0
 10
427.9607177641
 20
81.9721827974
 30
0.0
 10
427.5672359928
 20
84.876830601
 30
0.0
 10
427.1729989822
 20
88.4685012553
 30
0.0
 10
426.7994296928
 20
92.7199040594
 30
0.0
 10
426.468654735
 20
97.5991023555
 30
0.0
 10
426.0967473477
 20
105.2452164457
 30
0.0
 10
425.9794624203
 20
111.2667304621
 30
0.0
 10
425.9707015537
 20
115.457559657
 30
0.0
  0
SPLINE
  5
3A2
100
AcDbEntity
  8
BEZUGSACHSEN
100
AcDbSpline
 62
7
  6
CONTINUOUS
 70
0
 71
3
 72
9
 73
5
 74
0
 42
0.0000001
 43
0.0000001
 44
0.0000000001
 40
0.0
 40
0.0
 40
0.0
 40
0.0
 40
0.560542989
 40
1.0
 40
1.0
 40
1.0
 40
1.0
 10
423.9175363253
 20
101.8996132464
 30
0.0
 10
423.9544830604
 20
101.7176547598
 30
0.0
 10
424.0242278707
 20
101.3938087833
 30
0.0
 10
424.1052383645
 20
101.0724837414
 30
0.0
 10
424.145296556
 20
100.9325404509
 30
0.0
  0
SPLINE
  5
3A3
100
AcDbEntity
  8
RUNDUNGEN
100
AcDbSpline
 62
7
  6
CONTINUOUS
 70
0
 71
3
 72
9
 73
5
 74
0
 42
0.0000001
 43
0.0000001
 44
0.0000000001
 40
0.0
 40
0.0
 40
0.0
 40
0.0
 40
0.560542989
 40
1.0
 40
1.0
 40
1.0
 40
1.0
 10
461.7258866968
 20
101.8996132464
 30
0.0
 10
461.6889399617
 20
101.7176547598
 30
0.0
 10
461.6191951514
 20
101.3938087833
 30
0.0
 10
461.5381846577
 20
101.0724837414
 30
0.0
 10
461.4981264661
 20
100.9325404509
 30
0.0
  0
SPLINE
  5
3A4
100
AcDbEntity
  8
RUNDUNGEN
100
AcDbSpline
 62
7
  6
CONTINUOUS
 70
0
 71
3
 72
14
 73
10
 74
0
 42
0.0000001
 43
0.0000001
 44
0.0000000001
 40
0.0
 40
0.0
 40
0.0
 40
0.0
 40
0.0619500962
 40
0.1434911802
 40
0.244003714
 40
0.3627259704
 40
0.4987660935
 40
0.6511074978
 40
1.0
 40
1.0
 40
1.0
 40
1.0
 10
457.2528684118
 20
79.5417732963
 30
0.0
 10
457.3974708307
 20
80.2717224939
 30
0.0
 10
457.682705258
 20
81.9721827974
 30
0.0
 10
458.0761870293
 20
84.876830601
 30
0.0
 10
458.4704240399
 20
88.4685012553
 30
0.0
 10
458.8439933293
 20
92.7199040594
 30
0.0
 10
459.1747682871
 20
97.5991023555
 30
0.0
 10
459.5466756744
 20
105.2452164457
 30
0.0
 10
459.6639606018
 20
111.2667304621
 30
0.0
 10
459.6727214685
 20
115.457559657
 30
0.0
  0
SPLINE
  5
3A5
100
AcDbEntity
  8
RUNDUNGEN
100
AcDbSpline
 62
7
  6
CONTINUOUS
 70
0
 71
3
 72
13
 73
9
 74
0
 42
0.0000001
 43
0.0000001
 44
0.0000000001
 40
0.0
 40
0.0
 40
0.0
 40
0.0
 40
0.0386610259
 40
0.1093239733
 40
0.20931359
 40
0.3349920751
 40
0.6453622494
 40
1.0
 40
1.0
 40
1.0
 40
1.0
 10
461.4981264661
 20
100.9325404509
 30
0.0
 10
461.4855291625
 20
100.888531771
 30
0.0
 10
461.4561090484
 20
100.7624013457
 30
0.0
 10
461.401005991
 20
100.5208167668
 30
0.0
 10
461.3265869074
 20
100.1779050315
 30
0.0
 10
461.1943927944
 20
99.5571457661
 30
0.0
 10
461.004832859
 20
98.6403184299
 30
0.0
 10
460.8491462536
 20
97.86846815
 30
0.0
 10
460.7670610218
 20
97.4566647115
 30
0.0
  0
SPLINE
  5
3A6
100
AcDbEntity
  8
RUNDUNGEN
100
AcDbSpline
 62
7
  6
CONTINUOUS
 70
0
 71
3
 72
13
 73
9
 74
0
 42
0.0000001
 43
0.0000001
 44
0.0000000001
 40
0.0
 40
0.0
 40
0.0
 40
0.0
 40
0.2991033393
 40
0.5901457119
 40
0.7196634797
 40
0.8329090084
 40
0.9269142974
 40
1.0
 40
1.0
 40
1.0
 40
1.0
 10
459.5292317167
 20
143.5402439404
 30
0.0
 10
459.5247893531
 20
143.9894185952
 30
0.0
 10
459.5610974392
 20
144.8763341477
 30
0.0
 10
459.6988901084
 20
145.9502036344
 30
0.0
 10
459.8674705132
 20
146.7343718295
 30
0.0
 10
460.0073925073
 20
147.2210636179
 30
0.0
 10
460.1600517043
 20
147.6138510842
 30
0.0
 10
460.2820436583
 20
147.8352921767
 30
0.0
 10
460.3475845298
 20
147.9233367597
 30
0.0
  0
SPLINE
  5
3A7
100
AcDbEntity
  8
RUNDUNGEN
100
AcDbSpline
 62
7
  6
CONTINUOUS
 70
0
 71
3
 72
9
 73
5
 74
0
 42
0.0000001
 43
0.0000001
 44
0.0000000001
 40
0.0
 40
0.0
 40
0.0
 40
0.0
 40
0.3184127237
 40
1.0
 40
1.0
 40
1.0
 40
1.0
 10
462.0677003878
 20
150.2546305469
 30
0.0
 10
462.0911910881
 20
150.2867678531
 30
0.0
 10
462.1678854237
 20
150.3823253288
 30
0.0
 10
462.2850004876
 20
150.4657531099
 30
0.0
 10
462.3702110582
 20
150.4657020278
 30
0.0
  0
SPLINE
  5
3A8
100
AcDbEntity
  8
BEZUGSACHSEN
100
AcDbSpline
 62
7
  6
CONTINUOUS
 70
0
 71
3
 72
9
 73
5
 74
0
 42
0.0000001
 43
0.0000001
 44
0.0000000001
 40
0.0
 40
0.0
 40
0.0
 40
0.0
 40
0.4782871095
 40
1.0
 40
1.0
 40
1.0
 40
1.0
 10
425.9707015537
 20
115.457559657
 30
0.0
 10
425.9613419057
 20
119.9348205904
 30
0.0
 10
425.9922849968
 20
129.2959283917
 30
0.0
 10
426.0658927808
 20
138.6567010413
 30
0.0
 10
426.1141913054
 20
143.5402439404
 30
0.0
  0
SPLINE
  5
3A9
100
AcDbEntity
  8
BEZUGSACHSEN
100
AcDbSpline
 62
7
  6
CONTINUOUS
 70
0
 71
3
 72
8
 73
4
 74
0
 42
0.0000001
 43
0.0000001
 44
0.0000000001
 40
0.0
 40
0.0
 40
0.0
 40
0.0
 40
1.0
 40
1.0
 40
1.0
 40
1.0
 10
424.8763620004
 20
97.4566647115
 30
0.0
 10
425.8882555648
 20
92.3802186823
 30
0.0
 10
426.8964887827
 20
87.3030428581
 30
0.0
 10
427.9030020591
 20
82.225527334
 30
0.0
  0
SPLINE
  5
3AA
100
AcDbEntity
  8
BEZUGSACHSEN
100
AcDbSpline
 62
7
  6
CONTINUOUS
 70
0
 71
3
 72
9
 73
5
 74
0
 42
0.0000001
 43
0.0000001
 44
0.0000000001
 40
0.0
 40
0.0
 40
0.0
 40
0.0
 40
0.3184127237
 40
1.0
 40
1.0
 40
1.0
 40
1.0
 10
423.5757226343
 20
150.2546305469
 30
0.0
 10
423.552231934
 20
150.2867678531
 30
0.0
 10
423.4755375984
 20
150.3823253288
 30
0.0
 10
423.3584225346
 20
150.4657531099
 30
0.0
 10
423.2732119639
 20
150.4657020278
 30
0.0
  0
SPLINE
  5
3AB
100
AcDbEntity
  8
BEZUGSACHSEN
100
AcDbSpline
 62
7
  6
CONTINUOUS
 70
0
 71
3
 72
13
 73
9
 74
0
 42
0.0000001
 43
0.0000001
 44
0.0000000001
 40
0.0
 40
0.0
 40
0.0
 40
0.0
 40
0.2991033393
 40
0.5901457119
 40
0.7196634797
 40
0.8329090084
 40
0.9269142974
 40
1.0
 40
1.0
 40
1.0
 40
1.0
 10
426.1141913054
 20
143.5402439404
 30
0.0
 10
426.118633669
 20
143.9894185952
 30
0.0
 10
426.0823255829
 20
144.8763341477
 30
0.0
 10
425.9445329137
 20
145.9502036344
 30
0.0
 10
425.7759525089
 20
146.7343718295
 30
0.0
 10
425.6360305148
 20
147.2210636179
 30
0.0
 10
425.4833713178
 20
147.6138510842
 30
0.0
 10
425.3613793639
 20
147.8352921767
 30
0.0
 10
425.2958384923
 20
147.9233367597
 30
0.0
  0
SPLINE
  5
3AC
100
AcDbEntity
  8
BEZUGSACHSEN
100
AcDbSpline
 62
7
  6
CONTINUOUS
 70
0
 71
3
 72
13
 73
9
 74
0
 42
0.0000001
 43
0.0000001
 44
0.0000000001
 40
0.0
 40
0.0
 40
0.0
 40
0.0
 40
0.0386610259
 40
0.1093239733
 40
0.20931359
 40
0.3349920751
 40
0.6453622494
 40
1.0
 40
1.0
 40
1.0
 40
1.0
 10
424.145296556
 20
100.9325404509
 30
0.0
 10
424.1578938597
 20
100.888531771
 30
0.0
 10
424.1873139737
 20
100.7624013457
 30
0.0
 10
424.2424170311
 20
100.5208167668
 30
0.0
 10
424.3168361147
 20
100.1779050315
 30
0.0
 10
424.4490302278
 20
99.5571457661
 30
0.0
 10
424.6385901631
 20
98.6403184299
 30
0.0
 10
424.7942767685
 20
97.86846815
 30
0.0
 10
424.8763620004
 20
97.4566647115
 30
0.0
  0
SPLINE
  5
3AD
100
AcDbEntity
  8
RUNDUNGEN
100
AcDbSpline
 62
7
  6
CONTINUOUS
 70
0
 71
3
 72
15
 73
11
 74
0
 42
0.0000001
 43
0.0000001
 44
0.0000000001
 40
0.0
 40
0.0
 40
0.0
 40
0.0
 40
0.0528798187
 40
0.1194350757
 40
0.2080334803
 40
0.3213545124
 40
0.4593375658
 40
0.6203794922
 40
0.8017862642
 40
1.0
 40
1.0
 40
1.0
 40
1.0
 10
462.3702110582
 20
150.4657020278
 30
0.0
 10
462.4116413678
 20
150.4656771911
 30
0.0
 10
462.5056136188
 20
150.4324638088
 30
0.0
 10
462.6163201029
 20
150.308099668
 30
0.0
 10
462.7136067196
 20
150.1205543761
 30
0.0
 10
462.7979852209
 20
149.8671108178
 30
0.0
 10
462.8681129311
 20
149.5513986038
 30
0.0
 10
462.9219018078
 20
149.1785601358
 30
0.0
 10
462.9577945844
 20
148.7563022584
 30
0.0
 10
462.9686685931
 20
148.4589584104
 30
0.0
 10
462.9712119625
 20
148.3036826037
 30
0.0
  0
SPLINE
  5
3AE
100
AcDbEntity
  8
RUNDUNGEN
100
AcDbSpline
 62
7
  6
CONTINUOUS
 70
0
 71
3
 72
14
 73
10
 74
0
 42
0.0000001
 43
0.0000001
 44
0.0000000001
 40
0.0
 40
0.0
 40
0.0
 40
0.0
 40
0.3521326051
 40
0.5048328499
 40
0.6406569915
 40
0.758768
 40
0.858430939
 40
0.9390154809
 40
1.0
 40
1.0
 40
1.0
 40
1.0
 10
463.2653813082
 20
126.2588721364
 30
0.0
 10
463.2870716344
 20
123.3904113056
 30
0.0
 10
463.2415888243
 20
119.2766431773
 30
0.0
 10
463.0171213206
 20
114.0622787482
 30
0.0
 10
462.805001238
 20
110.7562679799
 30
0.0
 10
462.5571308122
 20
107.886235566
 30
0.0
 10
462.2901581461
 20
105.4701583561
 30
0.0
 10
462.0207770008
 20
103.5233782336
 30
0.0
 10
461.8247431976
 20
102.3864703183
 30
0.0
 10
461.7258866968
 20
101.8996132464
 30
0.0
  0
SPLINE
  5
3AF
100
AcDbEntity
  8
BEZUGSACHSEN
100
AcDbSpline
 62
7
  6
CONTINUOUS
 70
0
 71
3
 72
15
 73
11
 74
0
 42
0.0000001
 43
0.0000001
 44
0.0000000001
 40
0.0
 40
0.0
 40
0.0
 40
0.0
 40
0.0528798187
 40
0.1194350757
 40
0.2080334803
 40
0.3213545124
 40
0.4593375658
 40
0.6203794922
 40
0.8017862642
 40
1.0
 40
1.0
 40
1.0
 40
1.0
 10
423.2732119639
 20
150.4657020278
 30
0.0
 10
423.2317816543
 20
150.4656771911
 30
0.0
 10
423.1378094034
 20
150.4324638088
 30
0.0
 10
423.0271029192
 20
150.308099668
 30
0.0
 10
422.9298163025
 20
150.1205543761
 30
0.0
 10
422.8454378012
 20
149.8671108178
 30
0.0
 10
422.775310091
 20
149.5513986038
 30
0.0
 10
422.7215212143
 20
149.1785601358
 30
0.0
 10
422.6856284377
 20
148.7563022584
 30
0.0
 10
422.674754429
 20
148.4589584104
 30
0.0
 10
422.6722110596
 20
148.3036826037
 30
0.0
  0
SPLINE
  5
3B0
100
AcDbEntity
  8
BEZUGSACHSEN
100
AcDbSpline
 62
7
  6
CONTINUOUS
 70
0
 71
3
 72
9
 73
5
 74
0
 42
0.0000001
 43
0.0000001
 44
0.0000000001
 40
0.0
 40
0.0
 40
0.0
 40
0.0
 40
0.5265568459
 40
1.0
 40
1.0
 40
1.0
 40
1.0
 10
422.6722110596
 20
148.3036826037
 30
0.0
 10
422.6088361471
 20
144.4345669017
 30
0.0
 10
422.4933679902
 20
137.0865384305
 30
0.0
 10
422.4043502868
 20
129.7380780296
 30
0.0
 10
422.3780417139
 20
126.2588721364
 30
0.0
  0
SPLINE
  5
3B1
100
AcDbEntity
  8
BEZUGSACHSEN
100
AcDbSpline
 62
7
  6
CONTINUOUS
 70
0
 71
3
 72
14
 73
10
 74
0
 42
0.0000001
 43
0.0000001
 44
0.0000000001
 40
0.0
 40
0.0
 40
0.0
 40
0.0
 40
0.3521326051
 40
0.5048328499
 40
0.6406569915
 40
0.758768
 40
0.858430939
 40
0.9390154809
 40
1.0
 40
1.0
 40
1.0
 40
1.0
 10
422.3780417139
 20
126.2588721364
 30
0.0
 10
422.3563513878
 20
123.3904113056
 30
0.0
 10
422.4018341978
 20
119.2766431773
 30
0.0
 10
422.6263017016
 20
114.0622787482
 30
0.0
 10
422.8384217841
 20
110.7562679799
 30
0.0
 10
423.0862922099
 20
107.886235566
 30
0.0
 10
423.353264876
 20
105.4701583561
 30
0.0
 10
423.6226460214
 20
103.5233782336
 30
0.0
 10
423.8186798245
 20
102.3864703183
 30
0.0
 10
423.9175363253
 20
101.8996132464
 30
0.0
  0
SPLINE
  5
3B2
100
AcDbEntity
  8
RUNDUNGEN
100
AcDbSpline
 62
7
  6
CONTINUOUS
 70
0
 71
3
 72
9
 73
5
 74
0
 42
0.0000001
 43
0.0000001
 44
0.0000000001
 40
0.0
 40
0.0
 40
0.0
 40
0.0
 40
0.5265568459
 40
1.0
 40
1.0
 40
1.0
 40
1.0
 10
462.9712119625
 20
148.3036826037
 30
0.0
 10
463.034586875
 20
144.4345669017
 30
0.0
 10
463.1500550319
 20
137.0865384305
 30
0.0
 10
463.2390727354
 20
129.7380780296
 30
0.0
 10
463.2653813082
 20
126.2588721364
 30
0.0
  0
ENDSEC
  0
SECTION
  2
OBJECTS
  0
DICTIONARY
  5
C
100
AcDbDictionary
280
0
281
1
  3
ACAD_GROUP
350
D
  3
ACAD_MLINESTYLE
350
17
  3
ACAD_LAYOUT
350
1A
  3
ACAD_PLOTSETTINGS
350
19
  3
ACAD_PLOTSTYLENAME
350
E
  0
DICTIONARY
  5
D
102
{ACAD_REACTORS
330
C
102
}
100
AcDbDictionary
280
0
281
1
  0
ACDBDICTIONARYWDFLT
  5
E
102
{ACAD_REACTORS
330
C
102
}
100
AcDbDictionary
281
1
  3
Normal
350
F
100
AcDbDictionaryWithDefault
340
F
  0
DICTIONARY
  5
17
102
{ACAD_REACTORS
330
C
102
}
100
AcDbDictionary
280
0
281
1
  3
Standard
350
18
  0
DICTIONARY
  5
19
102
{ACAD_REACTORS
330
C
102
}
100
AcDbDictionary
281
1
  0
DICTIONARY
  5
1A
102
{ACAD_REACTORS
330
C
102
}
100
AcDbDictionary
281
1
  3
Model
350
3B3
  3
Layout1
350
3B4
  0
ACDBPLACEHOLDER
  5
F
102
{ACAD_REACTORS
330
E
102
}
  0
MLINESTYLE
  5
18
102
{ACAD_REACTORS
330
17
102
}
100
AcDbMlineStyle
  2
STANDARD
 70
0
  3

 62
256
 51
90.0
 52
90.0
 71
2
 49
0.5
 62
256
  6
BYLAYER
 49
-0.5
 62
256
  6
BYLAYER
  0
LAYOUT
  5
3B3
102
{ACAD_REACTORS
330
1A
102
}
100
AcDbPlotSettings
  1

  2
none_device
  4
ISO_A2_(594.00_x_420.00_MM)
  6

 40
0.0
 41
0.0
 42
0.0
 43
0.0
 44
594.0
 45
420.0
 46
0.0
 47
0.0
 48
0.0
 49
0.0
140
0.0
141
0.0
142
1.0
143
1.0
 70
1024
 72
1
 73
0
 74
0
  7

 75
0
147
1.0
148
0.0
149
0.0
100
AcDbLayout
  1
Model
 70
0
 71
0
 10
0.0
 20
0.0
 11
594.0
 21
420.0
 12
0.0
 22
0.0
 32
0.0
 14
0.0
 24
0.0
 34
0.0
 15
0.0
 25
0.0
 35
0.0
146
0.0
 13
0.0
 23
0.0
 33
0.0
 16
1.0
 26
0.0
 36
0.0
 17
0.0
 27
1.0
 37
0.0
 76
0
330
209
345
0
346
0
  0
LAYOUT
  5
3B4
102
{ACAD_REACTORS
330
1A
102
}
100
AcDbPlotSettings
  1

  2
none_device
  4
ISO_A2_(594.00_x_420.00_MM)
  6

 40
0.0
 41
0.0
 42
0.0
 43
0.0
 44
594.0
 45
420.0
 46
0.0
 47
0.0
 48
0.0
 49
0.0
140
0.0
141
0.0
142
1.0
143
1.0
 70
0
 72
1
 73
0
 74
0
  7

 75
0
147
1.0
148
0.0
149
0.0
100
AcDbLayout
  1
Layout1
 70
0
 71
1
 10
0.0
 20
0.0
 11
594.0
 21
420.0
 12
0.0
 22
0.0
 32
0.0
 14
0.0
 24
0.0
 34
0.0
 15
0.0
 25
0.0
 35
0.0
146
0.0
 13
0.0
 23
0.0
 33
0.0
 16
1.0
 26
0.0
 36
0.0
 17
0.0
 27
1.0
 37
0.0
 76
0
330
20A
345
0
346
0
  0
ENDSEC
  0
EOF
