999
DXF file: IWH-13_7904362_M34915-P-1.dxf
999
Pro/ENGINEER 2010140 by Parametric Technology Corporation
  0
SECTION
  2
HEADER
  9
$ACADVER
  1
AC1015
  9
$DWGCODEPAGE
  3
ANSI_1252
  9
$EXTMAX
 10
420.0
 20
297.0
 30
0.0
  9
$EXTMIN
 10
0.0
 20
0.0
 30
0.0
  9
$LIMMIN
 10
0.0
 20
0.0
  9
$LIMMAX
 10
420.0
 20
297.0
  9
$VIEWCTR
 10
210.0
 20
148.5
  9
$VIEWSIZE
 40
297.0
  9
$CLAYER
  8
0
  9
$LTSCALE
 40
23.1
  9
$CELTYPE
  6
BYLAYER
  9
$DIMSCALE
 40
1.0
  9
$DIMASZ
 40
3.5
  9
$DIMEXO
 40
2.625
  9
$DIMDLI
 40
15.96
  9
$DIMEXE
 40
7.56
  9
$DIMCEN
 40
3.78
  9
$DIMLFAC
 40
1.0
  9
$DIMBLK
  1
_FILLED
  9
$DIMTXT
 40
3.5
  9
$DIMTOL
 70
1
  9
$DIMLIM
 70
0
  9
$DIMTFAC
 40
1.0
  9
$DIMTP
 40
0.005
  9
$DIMTM
 40
0.005
  9
$PDMODE
 70
3
  9
$PDSIZE
 40
0.3125
  9
$HANDSEED
  5
3F0
  9
$TILEMODE
 70
1
  9
$MEASUREMENT
 70
1
  9
$INSUNITS
 70
4
  0
ENDSEC
  0
SECTION
  2
CLASSES
  0
CLASS
  1
ACDBDICTIONARYWDFLT
  2
AcDbDictionaryWithDefault
  3
AutoCAD 2000
 90
0
280
0
281
0
  0
CLASS
  1
ACDBPLACEHOLDER
  2
AcDbPlaceHolder
  3
AutoCAD 2000
 90
0
280
0
281
0
  0
CLASS
  1
LAYOUT
  2
AcDbLayout
  3
AutoCAD 2000
 90
0
280
0
281
0
  0
ENDSEC
  0
SECTION
  2
TABLES
  0
TABLE
  2
VPORT
  5
8
100
AcDbSymbolTable
 70
2
  0
VPORT
  5
1F4
100
AcDbSymbolTableRecord
100
AcDbViewportTableRecord
  2
*ACTIVE
 70
0
 10
0.0
 20
0.0
 11
1.0
 21
1.0
 12
210.0
 22
148.5
 13
0.0
 23
0.0
 14
1.0
 24
1.0
 15
0.0
 25
0.0
 16
0.0
 26
0.0
 36
1.0
 17
0.0
 27
0.0
 37
0.0
 40
297.0
 41
1.4141414141
 42
50.0
 43
0.0
 44
0.0
 50
0.0
 51
0.0
 71
0
 72
100
 73
1
 74
1
 75
0
 76
0
 77
0
 78
0
  0
ENDTAB
  0
TABLE
  2
LTYPE
  5
5
100
AcDbSymbolTable
 70
6
  0
LTYPE
  5
14
100
AcDbSymbolTableRecord
100
AcDbLinetypeTableRecord
  2
BYBLOCK
 70
0
  3

 72
65
 73
0
 40
0.0
  0
LTYPE
  5
15
100
AcDbSymbolTableRecord
100
AcDbLinetypeTableRecord
  2
BYLAYER
 70
0
  3

 72
65
 73
0
 40
0.0
  0
LTYPE
  5
16
100
AcDbSymbolTableRecord
100
AcDbLinetypeTableRecord
  2
CONTINUOUS
 70
64
  3
Solid line
 72
65
 73
0
 40
0.0
  0
LTYPE
  5
1F5
100
AcDbSymbolTableRecord
100
AcDbLinetypeTableRecord
  2
CENTER
 70
64
  3
____ _ ____ _ ____ _ ____ _ ____ _ ____ _ ____
 72
65
 73
4
 40
0.6
 49
0.375
 74
0
 49
-0.075
 74
0
 49
0.075
 74
0
 49
-0.075
 74
0
  0
LTYPE
  5
1F6
100
AcDbSymbolTableRecord
100
AcDbLinetypeTableRecord
  2
HIDDEN
 70
64
  3
- - - - - - - - - - - - - - - - - - - -
 72
65
 73
2
 40
0.2
 49
0.1
 74
0
 49
-0.1
 74
0
  0
LTYPE
  5
1F7
100
AcDbSymbolTableRecord
100
AcDbLinetypeTableRecord
  2
PHANTOM
 70
64
  3
_____ _ _ _____ _ _ _____ _ _ _____
 72
65
 73
6
 40
0.8
 49
0.45
 74
0
 49
-0.05
 74
0
 49
0.1
 74
0
 49
-0.05
 74
0
 49
0.1
 74
0
 49
-0.05
 74
0
  0
LTYPE
  5
1F8
100
AcDbSymbolTableRecord
100
AcDbLinetypeTableRecord
  2
DOT
 70
64
  3
. . . . . . . . . . . . . . . . . . . .
 72
65
 73
2
 40
0.2
 49
0.1
 74
0
 49
-0.1
 74
0
  0
LTYPE
  5
1F9
100
AcDbSymbolTableRecord
100
AcDbLinetypeTableRecord
  2
DASHED
 70
64
  3
- - - - - - - - - - - - - - - - - - - -
 72
65
 73
2
 40
0.2
 49
0.1
 74
0
 49
-0.1
 74
0
  0
ENDTAB
  0
TABLE
  2
LAYER
  5
2
100
AcDbSymbolTable
 70
36
  0
LAYER
  5
10
100
AcDbSymbolTableRecord
100
AcDbLayerTableRecord
  2
0
 70
0
 62
7
  6
CONTINUOUS
370
-3
390
F
  0
LAYER
  5
1FA
100
AcDbSymbolTableRecord
100
AcDbLayerTableRecord
  2
DEFAULT_1
 70
0
 62
7
  6
CENTER
370
-3
390
F
  0
LAYER
  5
1FB
100
AcDbSymbolTableRecord
100
AcDbLayerTableRecord
  2
DEFAULT_2
 70
0
 62
8
  6
HIDDEN
370
-3
390
F
  0
LAYER
  5
1FC
100
AcDbSymbolTableRecord
100
AcDbLayerTableRecord
  2
DEFAULT_3
 70
0
 62
7
  6
PHANTOM
370
-3
390
F
  0
LAYER
  5
1FD
100
AcDbSymbolTableRecord
100
AcDbLayerTableRecord
  2
BEZUGSACHSEN
 70
0
 62
7
  6
CONTINUOUS
370
-3
390
F
  0
LAYER
  5
1FE
100
AcDbSymbolTableRecord
100
AcDbLayerTableRecord
  2
BEZUGSEBENEN
 70
0
 62
7
  6
CONTINUOUS
370
-3
390
F
  0
LAYER
  5
1FF
100
AcDbSymbolTableRecord
100
AcDbLayerTableRecord
  2
FASEN
 70
0
 62
7
  6
CONTINUOUS
370
-3
390
F
  0
LAYER
  5
200
100
AcDbSymbolTableRecord
100
AcDbLayerTableRecord
  2
FLAECHEN
 70
0
 62
7
  6
CONTINUOUS
370
-3
390
F
  0
LAYER
  5
201
100
AcDbSymbolTableRecord
100
AcDbLayerTableRecord
  2
HILFEN
 70
0
 62
7
  6
CONTINUOUS
370
-3
390
F
  0
LAYER
  5
202
100
AcDbSymbolTableRecord
100
AcDbLayerTableRecord
  2
KURVEN
 70
0
 62
7
  6
CONTINUOUS
370
-3
390
F
  0
LAYER
  5
203
100
AcDbSymbolTableRecord
100
AcDbLayerTableRecord
  2
PLATZIERUNG
 70
0
 62
7
  6
CONTINUOUS
370
-3
390
F
  0
LAYER
  5
204
100
AcDbSymbolTableRecord
100
AcDbLayerTableRecord
  2
RUNDUNGEN
 70
0
 62
7
  6
CONTINUOUS
370
-3
390
F
  0
LAYER
  5
205
100
AcDbSymbolTableRecord
100
AcDbLayerTableRecord
  2
T_STARTBEZUEGE
 70
0
 62
7
  6
CONTINUOUS
370
-3
390
F
  0
LAYER
  5
206
100
AcDbSymbolTableRecord
100
AcDbLayerTableRecord
  2
ZEICHNUNGSBEMASSUNGEN
 70
0
 62
7
  6
CONTINUOUS
370
-3
390
F
  0
ENDTAB
  0
TABLE
  2
STYLE
  5
3
100
AcDbSymbolTable
 70
1
  0
STYLE
  5
11
100
AcDbSymbolTableRecord
100
AcDbTextStyleTableRecord
  2
STANDARD
 70
0
 40
0.0
 41
0.7
 50
0.0
 71
0
 42
0.2
  3
txt
  4

  0
STYLE
  5
207
100
AcDbSymbolTableRecord
100
AcDbTextStyleTableRecord
  2
TEXTSTYLE_1
 70
0
 40
0.0
 41
0.8
 50
0.0
 71
0
 42
0.2
  3
gdt
  4

  0
ENDTAB
  0
TABLE
  2
VIEW
  5
6
100
AcDbSymbolTable
 70
0
  0
ENDTAB
  0
TABLE
  2
UCS
  5
7
100
AcDbSymbolTable
 70
0
  0
ENDTAB
  0
TABLE
  2
APPID
  5
9
100
AcDbSymbolTable
 70
1
  0
APPID
  5
208
100
AcDbSymbolTableRecord
100
AcDbRegAppTableRecord
  2
ACAD
 70
0
  0
ENDTAB
  0
TABLE
  2
BLOCK_RECORD
  5
1
100
AcDbSymbolTable
 70
0
  0
BLOCK_RECORD
  5
209
100
AcDbSymbolTableRecord
100
AcDbBlockTableRecord
  2
*Model_Space
  0
BLOCK_RECORD
  5
20A
100
AcDbSymbolTableRecord
100
AcDbBlockTableRecord
  2
*Paper_Space
  0
ENDTAB
  0
TABLE
  2
DIMSTYLE
  5
A
100
AcDbSymbolTable
 70
1
100
AcDbDimStyleTable
 71
0
  0
DIMSTYLE
105
20B
100
AcDbSymbolTableRecord
100
AcDbDimStyleTableRecord
  2
STANDARD
 70
0
  3

  4

 40
1.0
 41
3.5
 42
0.0625
 43
0.38
 44
0.18
 45
0.0
 46
0.0
 47
0.005
 48
0.005
140
3.5
141
0.09
142
0.0
143
25.4
144
1.0
145
0.0
146
1.0
147
0.09
 71
1.0
 72
0.0
 73
0
 74
0
 75
0
 76
0
 77
1
 78
8
170
0
171
2
172
0
173
0
174
0
175
0
176
0
177
0
178
5
270
2
271
3
272
3
273
2
274
2
275
0
280
0
281
0
282
0
283
1
284
8
285
0
286
0
287
3
288
0
340
11
  0
ENDTAB
  0
ENDSEC
  0
SECTION
  2
BLOCKS
  0
BLOCK
  5
20
100
AcDbEntity
  8
0
100
AcDbBlockBegin
  2
*Model_Space
 70
0
 10
0.0
 20
0.0
 30
0.0
  3
*Model_Space
  1

  0
ENDBLK
  5
21
100
AcDbEntity
  8
0
100
AcDbBlockEnd
  0
BLOCK
  5
1C
100
AcDbEntity
  8
0
100
AcDbBlockBegin
  2
*Paper_Space
 70
0
 10
0.0
 20
0.0
 30
0.0
  3
*Paper_Space
  1

  0
ENDBLK
  5
1D
100
AcDbEntity
  8
0
100
AcDbBlockEnd
  0
ENDSEC
  0
SECTION
  2
ENTITIES
  0
MTEXT
  5
20C
100
AcDbEntity
  8
0
100
AcDbMText
 62
5
  6
CONTINUOUS
  7
STANDARD
 71
1
 72
1
 10
313.9686015476
 20
141.96518187
 30
0.0
 11
0.0
 21
1.0
 31
0.0
 44
0.9
  1
RUD IWH 13
 40
6.0
 41
49.8571428571
  0
LINE
  5
20D
100
AcDbEntity
  8
0
100
AcDbLine
 62
7
  6
CONTINUOUS
 10
0.0
 20
0.0
 11
0.0
 21
297.0
  0
LINE
  5
20E
100
AcDbEntity
  8
0
100
AcDbLine
 62
7
  6
CONTINUOUS
 10
0.0
 20
0.0
 11
420.0
 21
0.0
  0
LINE
  5
20F
100
AcDbEntity
  8
0
100
AcDbLine
 62
7
  6
CONTINUOUS
 10
0.0
 20
297.0
 11
420.0
 21
297.0
  0
LINE
  5
210
100
AcDbEntity
  8
0
100
AcDbLine
 62
7
  6
CONTINUOUS
 10
420.0
 20
0.0
 11
420.0
 21
297.0
  0
LINE
  5
211
100
AcDbEntity
  8
0
100
AcDbLine
 62
7
  6
CONTINUOUS
 10
143.4033622002
 20
29.1162689004
 11
144.3738423522
 21
29.3574499003
  0
LINE
  5
212
100
AcDbEntity
  8
0
100
AcDbLine
 62
7
  6
CONTINUOUS
 10
148.4175071839
 20
30.3623701198
 11
149.5497315597
 21
30.6437473396
  0
LINE
  5
213
100
AcDbEntity
  8
0
100
AcDbLine
 62
7
  6
CONTINUOUS
 10
143.5117485532
 20
32.8264002799
 11
146.2614373808
 21
33.5097452195
  0
LINE
  5
214
100
AcDbEntity
  8
0
100
AcDbLine
 62
7
  6
CONTINUOUS
 10
146.3386207517
 20
34.5812680471
 11
143.265436072
 21
33.8175288275
  0
LINE
  5
215
100
AcDbEntity
  8
0
100
AcDbLine
 62
7
  6
CONTINUOUS
 10
142.6496547541
 20
36.2953506594
 11
145.7228394339
 21
37.059089879
  0
LINE
  5
216
100
AcDbEntity
  8
0
100
AcDbLine
 62
7
  6
CONTINUOUS
 10
145.355834809
 20
37.8448341154
 11
141.4739142012
 21
36.8801101159
  0
LINE
  5
217
100
AcDbEntity
  8
0
100
AcDbLine
 62
7
  6
CONTINUOUS
 10
105.2558297041
 20
30.9503659211
 11
105.9946614113
 21
31.0706086242
  0
LINE
  5
218
100
AcDbEntity
  8
0
100
AcDbLine
 62
7
  6
CONTINUOUS
 10
153.3044710251
 20
32.0809017423
 11
154.1456467564
 21
32.2067259864
  0
LINE
  5
219
100
AcDbEntity
  8
0
100
AcDbLine
 62
7
  6
CONTINUOUS
 10
153.7954862833
 20
33.1660974071
 11
153.1108722546
 21
33.0974165211
  0
LINE
  5
21A
100
AcDbEntity
  8
0
100
AcDbLine
 62
7
  6
CONTINUOUS
 10
105.4094648764
 20
31.9736841927
 11
104.7226826094
 21
32.0155008917
  0
LINE
  5
21B
100
AcDbEntity
  8
0
100
AcDbLine
 62
7
  6
CONTINUOUS
 10
86.7357600799
 20
39.1894311868
 11
87.4810944304
 21
39.120059784
  0
LINE
  5
21C
100
AcDbEntity
  8
0
100
AcDbLine
 62
7
  6
CONTINUOUS
 10
104.4103642224
 20
31.0431516207
 11
105.2558297041
 21
30.9503659211
  0
LINE
  5
21D
100
AcDbEntity
  8
0
100
AcDbLine
 62
7
  6
CONTINUOUS
 10
152.5614897421
 20
32.1721135006
 11
153.3044710251
 21
32.0809017423
  0
LINE
  5
21E
100
AcDbEntity
  8
0
100
AcDbLine
 62
7
  6
CONTINUOUS
 10
108.7619288517
 20
29.7836736103
 11
114.6384523799
 21
28.5726941626
  0
LINE
  5
21F
100
AcDbEntity
  8
0
100
AcDbLine
 62
7
  6
CONTINUOUS
 10
114.8445765407
 20
29.5729534841
 11
109.9474736006
 21
30.5821030238
  0
LINE
  5
220
100
AcDbEntity
  8
0
100
AcDbLine
 62
7
  6
CONTINUOUS
 10
110.4971380374
 20
33.2494612533
 11
114.7412926734
 21
32.3748652421
  0
LINE
  5
221
100
AcDbEntity
  8
0
100
AcDbLine
 62
7
  6
CONTINUOUS
 10
114.9474168102
 20
33.3751244469
 11
110.7032621741
 21
34.249720458
  0
LINE
  5
222
100
AcDbEntity
  8
0
100
AcDbLine
 62
7
  6
CONTINUOUS
 10
111.1498645666
 20
36.4169492019
 11
116.0469675068
 21
35.4077996621
  0
LINE
  5
223
100
AcDbEntity
  8
0
100
AcDbLine
 62
7
  6
CONTINUOUS
 10
116.2530916435
 20
36.4080588668
 11
110.3765681153
 21
37.6190383145
  0
LINE
  5
224
100
AcDbEntity
  8
0
100
AcDbLine
 62
7
  6
CONTINUOUS
 10
89.196115132
 20
43.0711217205
 11
88.1692395053
 21
43.3189441617
  0
LINE
  5
225
100
AcDbEntity
  8
0
100
AcDbLine
 62
7
  6
CONTINUOUS
 10
102.9822262269
 20
31.5018692527
 11
104.4103642224
 21
31.0431516207
  0
LINE
  5
226
100
AcDbEntity
  8
0
100
AcDbLine
 62
7
  6
CONTINUOUS
 10
104.7226826094
 20
32.0155008917
 11
103.2945446139
 21
32.4742185238
  0
LINE
  5
227
100
AcDbEntity
  8
0
100
AcDbLine
 62
7
  6
CONTINUOUS
 10
107.2565514106
 20
32.2742886242
 11
106.3044594136
 21
32.5801003789
  0
LINE
  5
228
100
AcDbEntity
  8
0
100
AcDbLine
 62
7
  6
CONTINUOUS
 10
107.5016798303
 20
36.3074390433
 11
108.4537718272
 21
36.0016272886
  0
LINE
  5
229
100
AcDbEntity
  8
0
100
AcDbLine
 62
7
  6
CONTINUOUS
 10
105.1164019139
 20
38.1462560709
 11
106.5445399094
 21
37.6875384388
  0
LINE
  5
22A
100
AcDbEntity
  8
0
100
AcDbLine
 62
7
  6
CONTINUOUS
 10
106.8568582599
 20
38.6598875964
 11
105.4287202644
 21
39.1186052284
  0
LINE
  5
22B
100
AcDbEntity
  8
0
100
AcDbLine
 62
7
  6
CONTINUOUS
 10
86.0815532195
 20
39.4025668741
 11
86.7357600799
 21
39.1894311868
  0
LINE
  5
22C
100
AcDbEntity
  8
0
100
AcDbLine
 62
7
  6
CONTINUOUS
 10
87.1913813959
 20
39.9082627829
 11
86.3964022823
 21
40.2106250043
  0
LINE
  5
22D
100
AcDbEntity
  8
0
100
AcDbLine
 62
7
  6
CONTINUOUS
 10
97.7518666517
 20
33.4339287508
 11
98.6794535942
 21
33.0603213844
  0
LINE
  5
22E
100
AcDbEntity
  8
0
100
AcDbLine
 62
7
  6
CONTINUOUS
 10
102.2408705031
 20
31.9187701999
 11
102.9822262269
 21
31.5018692527
  0
LINE
  5
22F
100
AcDbEntity
  8
0
100
AcDbLine
 62
7
  6
CONTINUOUS
 10
103.2945446139
 20
32.4742185238
 11
102.7118720957
 21
32.8401504421
  0
LINE
  5
230
100
AcDbEntity
  8
0
100
AcDbLine
 62
7
  6
CONTINUOUS
 10
84.9553815746
 20
40.1163749615
 11
86.0815532195
 21
39.4025668741
  0
LINE
  5
231
100
AcDbEntity
  8
0
100
AcDbLine
 62
7
  6
CONTINUOUS
 10
86.3964022823
 20
40.2106250043
 11
85.5517751597
 21
40.7459800488
  0
LINE
  5
232
100
AcDbEntity
  8
0
100
AcDbLine
 62
7
  6
CONTINUOUS
 10
84.6908094016
 20
42.5008360263
 11
83.986952929
 21
42.9469655704
  0
LINE
  5
233
100
AcDbEntity
  8
0
100
AcDbLine
 62
7
  6
CONTINUOUS
 10
87.2416598967
 20
43.1007809568
 11
87.8047424972
 21
42.7438789553
  0
LINE
  5
234
100
AcDbEntity
  8
0
100
AcDbLine
 62
7
  6
CONTINUOUS
 10
88.1692395053
 20
43.3189441617
 11
87.6061569049
 21
43.6758461632
  0
LINE
  5
235
100
AcDbEntity
  8
0
100
AcDbLine
 62
7
  6
CONTINUOUS
 10
86.4058302628
 20
46.4518982145
 11
87.1096867353
 21
46.0057686703
  0
LINE
  5
236
100
AcDbEntity
  8
0
100
AcDbLine
 62
7
  6
CONTINUOUS
 10
80.6275995788
 20
43.1252983222
 11
81.4293499192
 21
42.5276392291
  0
LINE
  5
237
100
AcDbEntity
  8
0
100
AcDbLine
 62
7
  6
CONTINUOUS
 10
85.5517751597
 20
40.7459800488
 11
84.9390445502
 21
41.3358748734
  0
LINE
  5
238
100
AcDbEntity
  8
0
100
AcDbLine
 62
7
  6
CONTINUOUS
 10
84.4834232342
 20
40.6170432773
 11
84.9553815746
 21
40.1163749615
  0
LINE
  5
239
100
AcDbEntity
  8
0
100
AcDbLine
 62
7
  6
CONTINUOUS
 10
67.1433566198
 20
55.8118999124
 11
67.8149555566
 21
55.0709850266
  0
LINE
  5
23A
100
AcDbEntity
  8
0
100
AcDbLine
 62
7
  6
CONTINUOUS
 10
70.9490841418
 20
51.6133819903
 11
71.6206830786
 21
50.8724671045
  0
LINE
  5
23B
100
AcDbEntity
  8
0
100
AcDbLine
 62
7
  6
CONTINUOUS
 10
61.821101582
 20
63.0524341078
 11
62.5886724243
 21
61.9621990103
  0
LINE
  5
23C
100
AcDbEntity
  8
0
100
AcDbLine
 62
7
  6
CONTINUOUS
 10
64.123814109
 20
59.7817288153
 11
64.8913850886
 21
58.6914935228
  0
LINE
  5
23D
100
AcDbEntity
  8
0
100
AcDbLine
 62
7
  6
CONTINUOUS
 10
59.587855695
 20
66.7627710901
 11
60.0939850929
 21
65.900313536
  0
LINE
  5
23E
100
AcDbEntity
  8
RUNDUNGEN
100
AcDbLine
 62
7
  6
CONTINUOUS
 10
43.4523373331
 20
71.8804896583
 11
29.3082420277
 21
111.167225721
  0
LINE
  5
23F
100
AcDbEntity
  8
0
100
AcDbLine
 62
7
  6
CONTINUOUS
 10
160.181129525
 20
43.3623317432
 11
159.3585788045
 21
43.1459555469
  0
LINE
  5
240
100
AcDbEntity
  8
0
100
AcDbLine
 62
7
  6
CONTINUOUS
 10
159.810794094
 20
42.2302552857
 11
160.4839098815
 21
42.3728335764
  0
LINE
  5
241
100
AcDbEntity
  8
0
100
AcDbLine
 62
7
  6
CONTINUOUS
 10
104.5832584192
 20
39.2113897756
 11
103.8444230937
 21
39.0911482817
  0
LINE
  5
242
100
AcDbEntity
  8
0
100
AcDbLine
 62
7
  6
CONTINUOUS
 10
89.1131626461
 20
42.317603471
 11
89.9496180027
 21
42.3920003744
  0
LINE
  5
243
100
AcDbEntity
  8
0
100
AcDbLine
 62
7
  6
CONTINUOUS
 10
146.205615413
 20
37.880628964
 11
145.355834809
 21
37.8448341154
  0
LINE
  5
244
100
AcDbEntity
  8
0
100
AcDbLine
 62
7
  6
CONTINUOUS
 10
87.4810944304
 20
39.120059784
 11
88.0856565277
 21
39.1399149153
  0
LINE
  5
245
100
AcDbEntity
  8
0
100
AcDbLine
 62
7
  6
CONTINUOUS
 10
87.6646007916
 20
46.2586165744
 11
88.269162857
 21
46.2784716554
  0
LINE
  5
246
100
AcDbEntity
  8
0
100
AcDbLine
 62
7
  6
CONTINUOUS
 10
160.9296213682
 20
43.3522967019
 11
160.181129525
 21
43.3623317432
  0
LINE
  5
247
100
AcDbEntity
  8
0
100
AcDbLine
 62
7
  6
CONTINUOUS
 10
104.4296232788
 20
38.1880716033
 11
105.1164019139
 21
38.1462560709
  0
LINE
  5
248
100
AcDbEntity
  8
0
100
AcDbLine
 62
7
  6
CONTINUOUS
 10
145.7228394339
 20
37.059089879
 11
146.24913159
 21
37.0144922877
  0
LINE
  5
249
100
AcDbEntity
  8
0
100
AcDbLine
 62
7
  6
CONTINUOUS
 10
87.5640501702
 20
39.8735760416
 11
87.1913813959
 21
39.9082627829
  0
LINE
  5
24A
100
AcDbEntity
  8
0
100
AcDbLine
 62
7
  6
CONTINUOUS
 10
88.5840150781
 20
47.0865276427
 11
87.8386807516
 21
47.1558990833
  0
LINE
  5
24B
100
AcDbEntity
  8
0
100
AcDbLine
 62
7
  6
CONTINUOUS
 10
105.4287202644
 20
39.1186052284
 11
104.5832584192
 21
39.2113897756
  0
LINE
  5
24C
100
AcDbEntity
  8
0
100
AcDbLine
 62
7
  6
CONTINUOUS
 10
160.4839098815
 20
42.3728335764
 11
161.082959951
 21
42.2889972512
  0
LINE
  5
24D
100
AcDbEntity
  8
0
100
AcDbLine
 62
7
  6
CONTINUOUS
 10
153.1108722546
 20
33.0974165211
 11
152.5244598105
 21
33.2457743374
  0
LINE
  5
24E
100
AcDbEntity
  8
0
100
AcDbLine
 62
7
  6
CONTINUOUS
 10
88.269162857
 20
46.2784716554
 11
89.0641451926
 21
45.9761073918
  0
LINE
  5
24F
100
AcDbEntity
  8
0
100
AcDbLine
 62
7
  6
CONTINUOUS
 10
101.6683125258
 20
40.4810169237
 11
100.7407255834
 21
40.8546242901
  0
LINE
  5
250
100
AcDbEntity
  8
0
100
AcDbLine
 62
7
  6
CONTINUOUS
 10
89.6605354919
 20
46.6057144206
 11
88.5840150781
 21
47.0865276427
  0
LINE
  5
251
100
AcDbEntity
  8
0
100
AcDbLine
 62
7
  6
CONTINUOUS
 10
107.5982176202
 20
38.2429854969
 11
106.8568582599
 21
38.6598875964
  0
LINE
  5
252
100
AcDbEntity
  8
0
100
AcDbLine
 62
7
  6
CONTINUOUS
 10
106.5445399094
 20
37.6875384388
 11
107.1272160596
 21
37.3216053539
  0
LINE
  5
253
100
AcDbEntity
  8
0
100
AcDbLine
 62
7
  6
CONTINUOUS
 10
89.0641451926
 20
45.9761073918
 11
89.6272277931
 21
45.6192053903
  0
LINE
  5
254
100
AcDbEntity
  8
0
100
AcDbLine
 62
7
  6
CONTINUOUS
 10
89.9420800141
 20
46.4272613776
 11
89.6605354919
 21
46.6057144206
  0
LINE
  5
255
100
AcDbEntity
  8
0
100
AcDbLine
 62
7
  6
CONTINUOUS
 10
86.2106226643
 20
48.9416419526
 11
85.4088723238
 21
49.5393010458
  0
LINE
  5
256
100
AcDbEntity
  8
0
100
AcDbLine
 62
7
  6
CONTINUOUS
 10
90.8363519238
 20
45.6589155522
 11
89.9420800141
 21
46.4272613776
  0
LINE
  5
257
100
AcDbEntity
  8
0
100
AcDbLine
 62
7
  6
CONTINUOUS
 10
87.8047424972
 20
42.7438789553
 11
88.5582453678
 21
42.0647576092
  0
LINE
  5
258
100
AcDbEntity
  8
0
100
AcDbLine
 62
7
  6
CONTINUOUS
 10
89.6272277931
 20
45.6192053903
 11
90.2399616246
 21
45.0293085235
  0
LINE
  5
259
100
AcDbEntity
  8
0
100
AcDbLine
 62
7
  6
CONTINUOUS
 10
101.710247425
 20
32.4467615203
 11
102.2408705031
 21
31.9187701999
  0
LINE
  5
25A
100
AcDbEntity
  8
0
100
AcDbLine
 62
7
  6
CONTINUOUS
 10
108.1288370801
 20
37.7149953856
 11
107.5982176202
 21
38.2429854969
  0
LINE
  5
25B
100
AcDbEntity
  8
0
100
AcDbLine
 62
7
  6
CONTINUOUS
 10
70.5894453645
 20
57.5859087252
 11
73.7235739497
 21
54.128305689
  0
LINE
  5
25C
100
AcDbEntity
  8
0
100
AcDbLine
 62
7
  6
CONTINUOUS
 10
74.4802528919
 20
54.8141938831
 11
71.3461243067
 21
58.2717969193
  0
LINE
  5
25D
100
AcDbEntity
  8
0
100
AcDbLine
 62
7
  6
CONTINUOUS
 10
77.5480021655
 20
56.2452585988
 11
76.8764032287
 21
56.9861734847
  0
LINE
  5
25E
100
AcDbEntity
  8
0
100
AcDbLine
 62
7
  6
CONTINUOUS
 10
73.7422746435
 20
60.4437765209
 11
73.0706757067
 21
61.1846914068
  0
LINE
  5
25F
100
AcDbEntity
  8
0
100
AcDbLine
 62
7
  6
CONTINUOUS
 10
102.7118720957
 20
32.8401504421
 11
102.3399322505
 21
33.3171728188
  0
LINE
  5
260
100
AcDbEntity
  8
0
100
AcDbLine
 62
7
  6
CONTINUOUS
 10
89.6347690036
 20
41.5839423448
 11
89.1131626461
 21
42.317603471
  0
LINE
  5
261
100
AcDbEntity
  8
0
100
AcDbLine
 62
7
  6
CONTINUOUS
 10
72.2003667687
 20
62.2066839488
 11
71.6246886026
 21
63.0243603207
  0
LINE
  5
262
100
AcDbEntity
  8
0
100
AcDbLine
 62
7
  6
CONTINUOUS
 10
70.2814397314
 20
64.9322715951
 11
69.5138687518
 21
66.0225068876
  0
LINE
  5
263
100
AcDbEntity
  8
0
100
AcDbLine
 62
7
  6
CONTINUOUS
 10
68.1706197434
 20
67.930418357
 11
67.5949415773
 21
68.7480947288
  0
LINE
  5
264
100
AcDbEntity
  8
0
100
AcDbLine
 62
7
  6
CONTINUOUS
 10
84.1025859397
 20
41.261479962
 11
84.4834232342
 21
40.6170432773
  0
LINE
  5
265
100
AcDbEntity
  8
0
100
AcDbLine
 62
7
  6
CONTINUOUS
 10
84.9390445502
 20
41.3358748734
 11
84.74862428
 21
41.658094218
  0
LINE
  5
266
100
AcDbEntity
  8
0
100
AcDbLine
 62
7
  6
CONTINUOUS
 10
66.9936455255
 20
69.949348719
 11
66.4875161277
 21
70.8118062731
  0
LINE
  5
267
100
AcDbEntity
  8
0
100
AcDbLine
 62
7
  6
CONTINUOUS
 10
83.8625209144
 20
41.8166901378
 11
84.1025859397
 21
41.261479962
  0
LINE
  5
268
100
AcDbEntity
  8
0
100
AcDbLine
 62
7
  6
CONTINUOUS
 10
83.0811837702
 20
48.0899378548
 11
84.5950387621
 21
48.4475560315
  0
LINE
  5
269
100
AcDbEntity
  8
0
100
AcDbLine
 62
7
  6
CONTINUOUS
 10
85.4088723238
 20
49.5393010458
 11
83.8950176169
 21
49.1816832514
  0
LINE
  5
26A
100
AcDbEntity
  8
0
100
AcDbLine
 62
7
  6
CONTINUOUS
 10
88.0278400383
 20
39.9826577447
 11
87.5640501702
 21
39.8735760416
  0
LINE
  5
26B
100
AcDbEntity
  8
0
100
AcDbLine
 62
7
  6
CONTINUOUS
 10
89.6599081583
 20
43.1802012807
 11
89.196115132
 21
43.0711217205
  0
LINE
  5
26C
100
AcDbEntity
  8
0
100
AcDbLine
 62
7
  6
CONTINUOUS
 10
87.8386807516
 20
47.1558990833
 11
86.911099532
 21
46.9377368994
  0
LINE
  5
26D
100
AcDbEntity
  8
RUNDUNGEN
100
AcDbLine
 62
7
  6
CONTINUOUS
 10
208.7299180532
 20
75.1173457363
 11
188.3446151383
 21
72.4335696935
  0
LINE
  5
26E
100
AcDbEntity
  8
0
100
AcDbLine
 62
7
  6
CONTINUOUS
 10
161.8288448005
 20
43.0370248619
 11
160.9296213682
 21
43.3522967019
  0
LINE
  5
26F
100
AcDbEntity
  8
0
100
AcDbLine
 62
7
  6
CONTINUOUS
 10
146.9757633576
 20
37.5458532501
 11
146.205615413
 21
37.880628964
  0
LINE
  5
270
100
AcDbEntity
  8
0
100
AcDbLine
 62
7
  6
CONTINUOUS
 10
151.7017954769
 20
32.5831183251
 11
152.5614897421
 21
32.1721135006
  0
LINE
  5
271
100
AcDbEntity
  8
0
100
AcDbLine
 62
7
  6
CONTINUOUS
 10
146.24913159
 20
37.0144922877
 11
146.6547316024
 21
36.7645103851
  0
LINE
  5
272
100
AcDbEntity
  8
BEZUGSACHSEN
100
AcDbLine
 62
7
  6
CONTINUOUS
 10
48.7013490998
 20
122.7278234547
 11
89.5245624058
 21
77.0695440641
  0
LINE
  5
273
100
AcDbEntity
  8
RUNDUNGEN
100
AcDbLine
 62
7
  6
CONTINUOUS
 10
48.7013490998
 20
122.7278234547
 11
89.5245624058
 21
77.0695440641
  0
LINE
  5
274
100
AcDbEntity
  8
0
100
AcDbLine
 62
7
  6
CONTINUOUS
 10
107.1272160596
 20
37.3216053539
 11
107.4991559412
 21
36.8445830907
  0
LINE
  5
275
100
AcDbEntity
  8
0
100
AcDbLine
 62
7
  6
CONTINUOUS
 10
91.2171892422
 20
45.0144789053
 11
90.8363519238
 21
45.6589155522
  0
LINE
  5
276
100
AcDbEntity
  8
0
100
AcDbLine
 62
7
  6
CONTINUOUS
 10
101.2837341002
 20
33.2988680741
 11
101.710247425
 21
32.4467615203
  0
LINE
  5
277
100
AcDbEntity
  8
0
100
AcDbLine
 62
7
  6
CONTINUOUS
 10
88.5582453678
 20
42.0647576092
 11
88.7983104251
 21
41.5095474837
  0
LINE
  5
278
100
AcDbEntity
  8
0
100
AcDbLine
 62
7
  6
CONTINUOUS
 10
90.2399616246
 20
45.0293085235
 11
90.4800266818
 21
44.474098398
  0
LINE
  5
279
100
AcDbEntity
  8
0
100
AcDbLine
 62
7
  6
CONTINUOUS
 10
84.74862428
 20
41.658094218
 11
84.6493315476
 21
42.1240779227
  0
LINE
  5
27A
100
AcDbEntity
  8
0
100
AcDbLine
 62
7
  6
CONTINUOUS
 10
83.8543507592
 20
42.4264410645
 11
83.8625209144
 21
41.8166901378
  0
LINE
  5
27B
100
AcDbEntity
  8
BEZUGSACHSEN
100
AcDbLine
 62
7
  6
CONTINUOUS
 10
90.0570567353
 20
279.4806154464
 11
90.0438383896
 21
279.1204850011
  0
LINE
  5
27C
100
AcDbEntity
  8
RUNDUNGEN
100
AcDbLine
 62
7
  6
CONTINUOUS
 10
190.9470073623
 20
81.8538417747
 11
205.3298347618
 21
83.7473769243
  0
LINE
  5
27D
100
AcDbEntity
  8
0
100
AcDbLine
 62
7
  6
CONTINUOUS
 10
161.082959951
 20
42.2889972512
 11
161.6079445135
 21
41.9787458826
  0
LINE
  5
27E
100
AcDbEntity
  8
0
100
AcDbLine
 62
7
  6
CONTINUOUS
 10
152.5244598105
 20
33.2457743374
 11
152.0362490326
 21
33.6111706318
  0
LINE
  5
27F
100
AcDbEntity
  8
0
100
AcDbLine
 62
7
  6
CONTINUOUS
 10
147.6252117544
 20
37.005691385
 11
146.9757633576
 21
37.5458532501
  0
LINE
  5
280
100
AcDbEntity
  8
0
100
AcDbLine
 62
7
  6
CONTINUOUS
 10
151.1552245861
 20
33.1084099496
 11
151.7017954769
 21
32.5831183251
  0
LINE
  5
281
100
AcDbEntity
  8
0
100
AcDbLine
 62
7
  6
CONTINUOUS
 10
108.555354055
 20
36.8628877219
 11
108.1288370801
 21
37.7149953856
  0
LINE
  5
282
100
AcDbEntity
  8
0
100
AcDbLine
 62
7
  6
CONTINUOUS
 10
102.3399322505
 20
33.3171728188
 11
102.1787250055
 21
33.9052854269
  0
LINE
  5
283
100
AcDbEntity
  8
0
100
AcDbLine
 62
7
  6
CONTINUOUS
 10
91.4157780565
 20
44.0825096551
 11
91.2171892422
 21
45.0144789053
  0
LINE
  5
284
100
AcDbEntity
  8
0
100
AcDbLine
 62
7
  6
CONTINUOUS
 10
89.6429375478
 20
40.9741924392
 11
89.6347690036
 21
41.5839423448
  0
LINE
  5
285
100
AcDbEntity
  8
0
100
AcDbLine
 62
7
  6
CONTINUOUS
 10
90.4800266818
 20
44.474098398
 11
90.488195226
 21
43.8643484924
  0
LINE
  5
286
100
AcDbEntity
  8
BEZUGSACHSEN
100
AcDbLine
 62
7
  6
CONTINUOUS
 10
90.0438383896
 20
241.402446009
 11
90.0438383896
 21
279.1202383226
  0
LINE
  5
287
100
AcDbEntity
  8
RUNDUNGEN
100
AcDbLine
 62
7
  6
CONTINUOUS
 10
90.0438383896
 20
233.338198436
 11
90.0438383896
 21
279.1204860794
  0
LINE
  5
288
100
AcDbEntity
  8
0
100
AcDbLine
 62
7
  6
CONTINUOUS
 10
84.6493315476
 20
42.1240779227
 11
84.6908094016
 21
42.5008360263
  0
LINE
  5
289
100
AcDbEntity
  8
0
100
AcDbLine
 62
7
  6
CONTINUOUS
 10
88.7983104251
 20
41.5095474837
 11
88.7153578116
 21
40.7560290329
  0
LINE
  5
28A
100
AcDbEntity
  8
RUNDUNGEN
100
AcDbLine
 62
7
  6
CONTINUOUS
 10
217.4911762144
 20
93.5627000468
 11
217.0438383896
 21
93.5627000468
  0
LINE
  5
28B
100
AcDbEntity
  8
0
100
AcDbLine
 62
7
  6
CONTINUOUS
 10
162.4291983668
 20
42.5741572107
 11
161.8288448005
 21
43.0370248619
  0
LINE
  5
28C
100
AcDbEntity
  8
0
100
AcDbLine
 62
7
  6
CONTINUOUS
 10
149.5497315597
 20
30.6437473396
 11
147.1498133724
 21
34.0813024019
  0
LINE
  5
28D
100
AcDbEntity
  8
0
100
AcDbLine
 62
7
  6
CONTINUOUS
 10
146.2614373808
 20
33.5097452195
 11
148.4175071839
 21
30.3623701198
  0
LINE
  5
28E
100
AcDbEntity
  8
0
100
AcDbLine
 62
7
  6
CONTINUOUS
 10
152.0362490326
 20
33.6111706318
 11
151.646247047
 21
34.1936081322
  0
LINE
  5
28F
100
AcDbEntity
  8
0
100
AcDbLine
 62
7
  6
CONTINUOUS
 10
146.6547316024
 20
36.7645103851
 11
146.9396320669
 21
36.3091423312
  0
LINE
  5
290
100
AcDbEntity
  8
0
100
AcDbLine
 62
7
  6
CONTINUOUS
 10
147.9101122189
 20
36.5503233311
 11
147.6252117544
 21
37.005691385
  0
LINE
  5
291
100
AcDbEntity
  8
0
100
AcDbLine
 62
7
  6
CONTINUOUS
 10
101.1745799501
 20
34.0490389887
 11
101.2837341002
 21
33.2988680741
  0
LINE
  5
292
100
AcDbEntity
  8
0
100
AcDbLine
 62
7
  6
CONTINUOUS
 10
107.4991559412
 20
36.8445830907
 11
107.5016798303
 21
36.3074390433
  0
LINE
  5
293
100
AcDbEntity
  8
0
100
AcDbLine
 62
7
  6
CONTINUOUS
 10
102.1787250055
 20
33.9052854269
 11
102.228257661
 21
34.6044860467
  0
LINE
  5
294
100
AcDbEntity
  8
0
100
AcDbLine
 62
7
  6
CONTINUOUS
 10
101.276165664
 20
34.9102978014
 11
101.1745799501
 21
34.0490389887
  0
LINE
  5
295
100
AcDbEntity
  8
0
100
AcDbLine
 62
7
  6
CONTINUOUS
 10
83.986952929
 20
42.9469655704
 11
83.8543507592
 21
42.4264410645
  0
LINE
  5
296
100
AcDbEntity
  8
0
100
AcDbLine
 62
7
  6
CONTINUOUS
 10
161.6079445135
 20
41.9787458826
 11
162.0588563061
 21
41.4420769474
  0
LINE
  5
297
100
AcDbEntity
  8
0
100
AcDbLine
 62
7
  6
CONTINUOUS
 10
162.9554795854
 20
41.8848711378
 11
162.4291983668
 21
42.5741572107
  0
LINE
  5
298
100
AcDbEntity
  8
0
100
AcDbLine
 62
7
  6
CONTINUOUS
 10
150.7068625285
 20
33.8507426682
 11
151.1552245861
 21
33.1084099496
  0
LINE
  5
299
100
AcDbEntity
  8
RUNDUNGEN
100
AcDbLine
 62
7
  6
CONTINUOUS
 10
119.7938383896
 20
237.3126912761
 11
119.7938383896
 21
279.0627000468
  0
LINE
  5
29A
100
AcDbEntity
  8
RUNDUNGEN
100
AcDbLine
 62
7
  6
CONTINUOUS
 10
121.5438383896
 20
38.5619965502
 11
121.5438383896
 21
24.7161992651
  0
LINE
  5
29B
100
AcDbEntity
  8
0
100
AcDbLine
 62
7
  6
CONTINUOUS
 10
108.4537718272
 20
36.0016272886
 11
108.555354055
 21
36.8628877219
  0
LINE
  5
29C
100
AcDbEntity
  8
0
100
AcDbLine
 62
7
  6
CONTINUOUS
 10
110.3765681153
 20
37.6190383145
 11
108.7619288517
 21
29.7836736103
  0
LINE
  5
29D
100
AcDbEntity
  8
0
100
AcDbLine
 62
7
  6
CONTINUOUS
 10
109.9474736006
 20
30.5821030238
 11
110.4971380374
 21
33.2494612533
  0
LINE
  5
29E
100
AcDbEntity
  8
0
100
AcDbLine
 62
7
  6
CONTINUOUS
 10
110.7032621741
 20
34.249720458
 11
111.1498645666
 21
36.4169492019
  0
LINE
  5
29F
100
AcDbEntity
  8
0
100
AcDbLine
 62
7
  6
CONTINUOUS
 10
102.0569616132
 20
37.3411709223
 11
101.276165664
 21
34.9102978014
  0
LINE
  5
2A0
100
AcDbEntity
  8
0
100
AcDbLine
 62
7
  6
CONTINUOUS
 10
89.4192126731
 20
40.3099005099
 11
89.6429375478
 21
40.9741924392
  0
LINE
  5
2A1
100
AcDbEntity
  8
0
100
AcDbLine
 62
7
  6
CONTINUOUS
 10
91.1920500875
 20
43.4182199694
 11
91.4157780565
 21
44.0825096551
  0
LINE
  5
2A2
100
AcDbEntity
  8
0
100
AcDbLine
 62
7
  6
CONTINUOUS
 10
66.0385680001
 20
60.3144768752
 11
70.2814397314
 21
64.9322715951
  0
LINE
  5
2A3
100
AcDbEntity
  8
0
100
AcDbLine
 62
7
  6
CONTINUOUS
 10
68.645043916
 20
64.595499195
 11
64.123814109
 21
59.7817288153
  0
LINE
  5
2A4
100
AcDbEntity
  8
0
100
AcDbLine
 62
7
  6
CONTINUOUS
 10
67.5949415773
 20
68.7480947288
 11
61.821101582
 21
63.0524341078
  0
LINE
  5
2A5
100
AcDbEntity
  8
0
100
AcDbLine
 62
7
  6
CONTINUOUS
 10
63.7358556103
 20
63.5851819728
 11
68.1706197434
 21
67.930418357
  0
LINE
  5
2A6
100
AcDbEntity
  8
RUNDUNGEN
100
AcDbLine
 62
7
  6
CONTINUOUS
 10
189.0053915643
 20
175.4801054661
 11
175.0244326321
 21
162.9796854693
  0
LINE
  5
2A7
100
AcDbEntity
  8
RUNDUNGEN
100
AcDbLine
 62
7
  6
CONTINUOUS
 10
179.1594949654
 20
59.447043471
 11
189.0255429854
 21
49.5809954511
  0
LINE
  5
2A8
100
AcDbEntity
  8
0
100
AcDbLine
 62
7
  6
CONTINUOUS
 10
155.7720856874
 20
41.3747787854
 11
159.3144392104
 21
34.2017925511
  0
LINE
  5
2A9
100
AcDbEntity
  8
0
100
AcDbLine
 62
7
  6
CONTINUOUS
 10
159.7588471475
 20
35.5602871095
 11
157.1209242561
 21
40.9018727146
  0
LINE
  5
2AA
100
AcDbEntity
  8
0
100
AcDbLine
 62
7
  6
CONTINUOUS
 10
162.0588563061
 20
41.4420769474
 11
163.1893946354
 21
39.1528260807
  0
LINE
  5
2AB
100
AcDbEntity
  8
0
100
AcDbLine
 62
7
  6
CONTINUOUS
 10
164.0860179147
 20
39.5956202711
 11
162.9554795854
 21
41.8848711378
  0
LINE
  5
2AC
100
AcDbEntity
  8
0
100
AcDbLine
 62
7
  6
CONTINUOUS
 10
148.8977000503
 20
38.807495102
 11
150.7068625285
 21
33.8507426682
  0
LINE
  5
2AD
100
AcDbEntity
  8
0
100
AcDbLine
 62
7
  6
CONTINUOUS
 10
151.646247047
 20
34.1936081322
 11
149.8370845688
 21
39.150360566
  0
LINE
  5
2AE
100
AcDbEntity
  8
0
100
AcDbLine
 62
7
  6
CONTINUOUS
 10
153.5946226427
 20
40.5218224223
 11
155.4037851209
 21
35.5650699884
  0
LINE
  5
2AF
100
AcDbEntity
  8
0
100
AcDbLine
 62
7
  6
CONTINUOUS
 10
156.3431696394
 20
35.9079354525
 11
154.5340071612
 21
40.8646878863
  0
LINE
  5
2B0
100
AcDbEntity
  8
0
100
AcDbLine
 62
7
  6
CONTINUOUS
 10
141.4739142012
 20
36.8801101159
 11
143.4033622002
 21
29.1162689004
  0
LINE
  5
2B1
100
AcDbEntity
  8
0
100
AcDbLine
 62
7
  6
CONTINUOUS
 10
144.3738423522
 20
29.3574499003
 11
143.5117485532
 21
32.8264002799
  0
LINE
  5
2B2
100
AcDbEntity
  8
0
100
AcDbLine
 62
7
  6
CONTINUOUS
 10
143.265436072
 20
33.8175288275
 11
142.6496547541
 21
36.2953506594
  0
LINE
  5
2B3
100
AcDbEntity
  8
0
100
AcDbLine
 62
7
  6
CONTINUOUS
 10
146.9396320669
 20
36.3091423312
 11
147.0627884225
 21
35.8135775946
  0
LINE
  5
2B4
100
AcDbEntity
  8
0
100
AcDbLine
 62
7
  6
CONTINUOUS
 10
148.0743206546
 20
35.8895705032
 11
147.9101122189
 21
36.5503233311
  0
LINE
  5
2B5
100
AcDbEntity
  8
RUNDUNGEN
100
AcDbLine
 62
7
  6
CONTINUOUS
 10
133.5438383896
 20
24.5294694357
 11
133.5438383896
 21
38.5619965502
  0
LINE
  5
2B6
100
AcDbEntity
  8
RUNDUNGEN
100
AcDbLine
 62
7
  6
CONTINUOUS
 10
135.2938383896
 20
279.0627000468
 11
135.2938383896
 21
237.3127383297
  0
LINE
  5
2B7
100
AcDbEntity
  8
0
100
AcDbLine
 62
7
  6
CONTINUOUS
 10
114.7412926734
 20
32.3748652421
 11
114.9474168102
 21
33.3751244469
  0
LINE
  5
2B8
100
AcDbEntity
  8
0
100
AcDbLine
 62
7
  6
CONTINUOUS
 10
114.6384523799
 20
28.5726941626
 11
114.8445765407
 21
29.5729534841
  0
LINE
  5
2B9
100
AcDbEntity
  8
0
100
AcDbLine
 62
7
  6
CONTINUOUS
 10
116.0469675068
 20
35.4077996621
 11
116.2530916435
 21
36.4080588668
  0
LINE
  5
2BA
100
AcDbEntity
  8
0
100
AcDbLine
 62
7
  6
CONTINUOUS
 10
102.228257661
 20
34.6044860467
 11
103.0090536102
 21
37.0353591676
  0
LINE
  5
2BB
100
AcDbEntity
  8
0
100
AcDbLine
 62
7
  6
CONTINUOUS
 10
100.7407255834
 20
40.8546242901
 11
97.7518666517
 21
33.4339287508
  0
LINE
  5
2BC
100
AcDbEntity
  8
0
100
AcDbLine
 62
7
  6
CONTINUOUS
 10
98.6794535942
 20
33.0603213844
 11
101.6683125258
 21
40.4810169237
  0
LINE
  5
2BD
100
AcDbEntity
  8
0
100
AcDbLine
 62
7
  6
CONTINUOUS
 10
87.6061569049
 20
43.6758461632
 11
87.2416598967
 21
43.1007809568
  0
LINE
  5
2BE
100
AcDbEntity
  8
0
100
AcDbLine
 62
7
  6
CONTINUOUS
 10
90.488195226
 20
43.8643484924
 11
90.3059464666
 21
43.5768154864
  0
LINE
  5
2BF
100
AcDbEntity
  8
0
100
AcDbLine
 62
7
  6
CONTINUOUS
 10
88.7153578116
 20
40.7560290329
 11
88.3508608034
 21
40.1809638265
  0
LINE
  5
2C0
100
AcDbEntity
  8
0
100
AcDbLine
 62
7
  6
CONTINUOUS
 10
91.0098013282
 20
43.1306869634
 11
91.1920500875
 21
43.4182199694
  0
LINE
  5
2C1
100
AcDbEntity
  8
0
100
AcDbLine
 62
7
  6
CONTINUOUS
 10
89.054715665
 20
39.7348353034
 11
89.4192126731
 21
40.3099005099
  0
LINE
  5
2C2
100
AcDbEntity
  8
0
100
AcDbLine
 62
7
  6
CONTINUOUS
 10
83.8950176169
 20
49.1816832514
 11
83.0811837702
 21
48.0899378548
  0
LINE
  5
2C3
100
AcDbEntity
  8
0
100
AcDbLine
 62
7
  6
CONTINUOUS
 10
84.5950387621
 20
48.4475560315
 11
80.6275995788
 21
43.1252983222
  0
LINE
  5
2C4
100
AcDbEntity
  8
0
100
AcDbLine
 62
7
  6
CONTINUOUS
 10
81.4293499192
 20
42.5276392291
 11
86.2106226643
 21
48.9416419526
  0
LINE
  5
2C5
100
AcDbEntity
  8
RUNDUNGEN
100
AcDbLine
 62
7
  6
CONTINUOUS
 10
189.8974325847
 20
160.2410404172
 11
199.6761274724
 21
169.2962111686
  0
LINE
  5
2C6
100
AcDbEntity
  8
0
100
AcDbLine
 62
7
  6
CONTINUOUS
 10
73.0706757067
 20
61.1846914068
 11
67.1433566198
 21
55.8118999124
  0
LINE
  5
2C7
100
AcDbEntity
  8
0
100
AcDbLine
 62
7
  6
CONTINUOUS
 10
67.8149555566
 20
55.0709850266
 11
70.5894453645
 21
57.5859087252
  0
LINE
  5
2C8
100
AcDbEntity
  8
0
100
AcDbLine
 62
7
  6
CONTINUOUS
 10
71.3461243067
 20
58.2717969193
 11
73.7422746435
 21
60.4437765209
  0
LINE
  5
2C9
100
AcDbEntity
  8
0
100
AcDbLine
 62
7
  6
CONTINUOUS
 10
76.8764032287
 20
56.9861734847
 11
74.4802528919
 21
54.8141938831
  0
LINE
  5
2CA
100
AcDbEntity
  8
0
100
AcDbLine
 62
7
  6
CONTINUOUS
 10
73.7235739497
 20
54.128305689
 11
70.9490841418
 21
51.6133819903
  0
LINE
  5
2CB
100
AcDbEntity
  8
0
100
AcDbLine
 62
7
  6
CONTINUOUS
 10
71.6206830786
 20
50.8724671045
 11
77.5480021655
 21
56.2452585988
  0
LINE
  5
2CC
100
AcDbEntity
  8
0
100
AcDbLine
 62
7
  6
CONTINUOUS
 10
66.4875161277
 20
70.8118062731
 11
59.587855695
 21
66.7627710901
  0
LINE
  5
2CD
100
AcDbEntity
  8
0
100
AcDbLine
 62
7
  6
CONTINUOUS
 10
60.0939850929
 20
65.900313536
 11
66.9936455255
 21
69.949348719
  0
LINE
  5
2CE
100
AcDbEntity
  8
RUNDUNGEN
100
AcDbLine
 62
7
  6
CONTINUOUS
 10
53.6509056425
 20
84.1678720043
 11
58.9504478413
 21
86.0967476199
  0
LINE
  5
2CF
100
AcDbEntity
  8
RUNDUNGEN
100
AcDbLine
 62
7
  6
CONTINUOUS
 10
217.0438383896
 20
128.5627000468
 11
217.4911762144
 21
128.5627000468
  0
LINE
  5
2D0
100
AcDbEntity
  8
RUNDUNGEN
100
AcDbLine
 62
7
  6
CONTINUOUS
 10
186.3561336941
 20
67.6329508224
 11
195.5191182578
 21
55.6915168479
  0
LINE
  5
2D1
100
AcDbEntity
  8
0
100
AcDbLine
 62
7
  6
CONTINUOUS
 10
164.3134290562
 20
38.7587388145
 11
164.0860179147
 21
39.5956202711
  0
LINE
  5
2D2
100
AcDbEntity
  8
0
100
AcDbLine
 62
7
  6
CONTINUOUS
 10
156.4784083021
 20
35.0513159898
 11
156.3431696394
 21
35.9079354525
  0
LINE
  5
2D3
100
AcDbEntity
  8
0
100
AcDbLine
 62
7
  6
CONTINUOUS
 10
147.0627884225
 20
35.8135775946
 11
147.0242004392
 21
35.2778171008
  0
LINE
  5
2D4
100
AcDbEntity
  8
0
100
AcDbLine
 62
7
  6
CONTINUOUS
 10
148.0357326713
 20
35.3538100094
 11
148.0743206546
 21
35.8895705032
  0
LINE
  5
2D5
100
AcDbEntity
  8
0
100
AcDbLine
 62
7
  6
CONTINUOUS
 10
102.4759066294
 20
38.1004944929
 11
102.0569616132
 21
37.3411709223
  0
LINE
  5
2D6
100
AcDbEntity
  8
0
100
AcDbLine
 62
7
  6
CONTINUOUS
 10
106.8376028719
 20
31.5149665606
 11
107.2565514106
 21
32.2742886242
  0
LINE
  5
2D7
100
AcDbEntity
  8
0
100
AcDbLine
 62
7
  6
CONTINUOUS
 10
103.0090536102
 20
37.0353591676
 11
103.3759454221
 21
37.6326240913
  0
LINE
  5
2D8
100
AcDbEntity
  8
0
100
AcDbLine
 62
7
  6
CONTINUOUS
 10
86.911099532
 20
46.9377368994
 11
86.4058302628
 21
46.4518982145
  0
LINE
  5
2D9
100
AcDbEntity
  8
0
100
AcDbLine
 62
7
  6
CONTINUOUS
 10
71.6246886026
 20
63.0243603207
 11
66.0385680001
 21
60.3144768752
  0
LINE
  5
2DA
100
AcDbEntity
  8
0
100
AcDbLine
 62
7
  6
CONTINUOUS
 10
64.8913850886
 20
58.6914935228
 11
72.2003667687
 21
62.2066839488
  0
LINE
  5
2DB
100
AcDbEntity
  8
0
100
AcDbLine
 62
7
  6
CONTINUOUS
 10
62.5886724243
 20
61.9621990103
 11
68.645043916
 21
64.595499195
  0
LINE
  5
2DC
100
AcDbEntity
  8
0
100
AcDbLine
 62
7
  6
CONTINUOUS
 10
69.5138687518
 20
66.0225068876
 11
63.7358556103
 21
63.5851819728
  0
LINE
  5
2DD
100
AcDbEntity
  8
RUNDUNGEN
100
AcDbLine
 62
7
  6
CONTINUOUS
 10
206.6589854942
 20
89.1791676412
 11
195.7464575746
 21
96.8202019515
  0
LINE
  5
2DE
100
AcDbEntity
  8
RUNDUNGEN
100
AcDbLine
 62
7
  6
CONTINUOUS
 10
203.104589148
 20
104.3681902949
 11
197.0534494674
 21
108.605243914
  0
LINE
  5
2DF
100
AcDbEntity
  8
0
100
AcDbLine
 62
7
  6
CONTINUOUS
 10
163.1893946354
 20
39.1528260807
 11
163.341436562
 21
38.4685613343
  0
LINE
  5
2E0
100
AcDbEntity
  8
0
100
AcDbLine
 62
7
  6
CONTINUOUS
 10
155.4037851209
 20
35.5650699884
 11
155.4806637116
 21
34.8683457439
  0
LINE
  5
2E1
100
AcDbEntity
  8
0
100
AcDbLine
 62
7
  6
CONTINUOUS
 10
164.316029262
 20
38.0006726773
 11
164.3134290562
 21
38.7587388145
  0
LINE
  5
2E2
100
AcDbEntity
  8
RUNDUNGEN
100
AcDbLine
 62
7
  6
CONTINUOUS
 10
165.0438383896
 20
208.3298382515
 11
165.0438383896
 21
279.0627000468
  0
LINE
  5
2E3
100
AcDbEntity
  8
0
100
AcDbLine
 62
7
  6
CONTINUOUS
 10
156.3987180693
 20
34.2974456454
 11
156.4784083021
 21
35.0513159898
  0
LINE
  5
2E4
100
AcDbEntity
  8
0
100
AcDbLine
 62
7
  6
CONTINUOUS
 10
163.341436562
 20
38.4685613343
 11
163.2686675001
 21
37.8631120142
  0
LINE
  5
2E5
100
AcDbEntity
  8
0
100
AcDbLine
 62
7
  6
CONTINUOUS
 10
106.3044594136
 20
32.5801003789
 11
105.9896170282
 21
32.1448948147
  0
LINE
  5
2E6
100
AcDbEntity
  8
0
100
AcDbLine
 62
7
  6
CONTINUOUS
 10
103.0014852833
 20
38.6467892354
 11
102.4759066294
 21
38.1004944929
  0
LINE
  5
2E7
100
AcDbEntity
  8
0
100
AcDbLine
 62
7
  6
CONTINUOUS
 10
90.504535281
 20
42.6448462362
 11
91.0098013282
 21
43.1306869634
  0
LINE
  5
2E8
100
AcDbEntity
  8
0
100
AcDbLine
 62
7
  6
CONTINUOUS
 10
88.640570584
 20
39.3927628194
 11
89.054715665
 21
39.7348353034
  0
LINE
  5
2E9
100
AcDbEntity
  8
RUNDUNGEN
100
AcDbLine
 62
7
  6
CONTINUOUS
 10
210.1225827818
 20
134.3539469602
 11
200.0559262074
 21
127.3051981422
  0
LINE
  5
2EA
100
AcDbEntity
  8
RUNDUNGEN
100
AcDbLine
 62
7
  6
CONTINUOUS
 10
195.32466167
 20
142.7081098374
 11
209.0358278621
 21
139.7436507759
  0
LINE
  5
2EB
100
AcDbEntity
  8
RUNDUNGEN
100
AcDbLine
 62
7
  6
CONTINUOUS
 10
207.7271047055
 20
151.5563226932
 11
191.3017821082
 21
155.1076031408
  0
LINE
  5
2EC
100
AcDbEntity
  8
BEZUGSACHSEN
100
AcDbLine
 62
7
  6
CONTINUOUS
 10
165.5631143728
 20
145.0558560302
 11
92.5890634152
 21
226.6728904834
  0
LINE
  5
2ED
100
AcDbEntity
  8
RUNDUNGEN
100
AcDbLine
 62
7
  6
CONTINUOUS
 10
165.5631143728
 20
145.0558560302
 11
92.5890634152
 21
226.6728904834
  0
LINE
  5
2EE
100
AcDbEntity
  8
0
100
AcDbLine
 62
7
  6
CONTINUOUS
 10
155.4806637116
 20
34.8683457439
 11
155.3426133659
 21
34.2743707295
  0
LINE
  5
2EF
100
AcDbEntity
  8
0
100
AcDbLine
 62
7
  6
CONTINUOUS
 10
147.7147009161
 20
34.5724671444
 11
148.0357326713
 21
35.3538100094
  0
LINE
  5
2F0
100
AcDbEntity
  8
0
100
AcDbLine
 62
7
  6
CONTINUOUS
 10
103.3759454221
 20
37.6326240913
 11
103.8494711635
 21
38.0168610948
  0
LINE
  5
2F1
100
AcDbEntity
  8
RUNDUNGEN
100
AcDbLine
 62
7
  6
CONTINUOUS
 10
197.0534494674
 20
113.5201561797
 11
203.104589148
 21
117.7572097988
  0
LINE
  5
2F2
100
AcDbEntity
  8
0
100
AcDbLine
 62
7
  6
CONTINUOUS
 10
90.3059464666
 20
43.5768154864
 11
89.6599081583
 21
43.1802012807
  0
LINE
  5
2F3
100
AcDbEntity
  8
0
100
AcDbLine
 62
7
  6
CONTINUOUS
 10
88.3508608034
 20
40.1809638265
 11
88.0278400383
 21
39.9826577447
  0
LINE
  5
2F4
100
AcDbEntity
  8
0
100
AcDbLine
 62
7
  6
CONTINUOUS
 10
87.1096867353
 20
46.0057686703
 11
87.6646007916
 21
46.2586165744
  0
LINE
  5
2F5
100
AcDbEntity
  8
0
100
AcDbLine
 62
7
  6
CONTINUOUS
 10
89.9496180027
 20
42.3920003744
 11
90.504535281
 21
42.6448462362
  0
LINE
  5
2F6
100
AcDbEntity
  8
0
100
AcDbLine
 62
7
  6
CONTINUOUS
 10
88.0856565277
 20
39.1399149153
 11
88.640570584
 21
39.3927628194
  0
LINE
  5
2F7
100
AcDbEntity
  8
RUNDUNGEN
100
AcDbLine
 62
7
  6
CONTINUOUS
 10
170.7884072223
 20
163.2165160576
 11
152.5964592333
 21
183.5631026361
  0
LINE
  5
2F8
100
AcDbEntity
  8
0
100
AcDbLine
 62
7
  6
CONTINUOUS
 10
164.0197595754
 20
37.0950107822
 11
164.316029262
 21
38.0006726773
  0
LINE
  5
2F9
100
AcDbEntity
  8
RUNDUNGEN
100
AcDbLine
 62
7
  6
CONTINUOUS
 10
191.2066504032
 20
95.3888062486
 11
187.7363509233
 21
85.8542367888
  0
LINE
  5
2FA
100
AcDbEntity
  8
0
100
AcDbLine
 62
7
  6
CONTINUOUS
 10
156.0059044212
 20
33.4292886128
 11
156.3987180693
 21
34.2974456454
  0
LINE
  5
2FB
100
AcDbEntity
  8
0
100
AcDbLine
 62
7
  6
CONTINUOUS
 10
163.2686675001
 20
37.8631120142
 11
162.9710943431
 21
37.3364813917
  0
LINE
  5
2FC
100
AcDbEntity
  8
0
100
AcDbLine
 62
7
  6
CONTINUOUS
 10
147.0242004392
 20
35.2778171008
 11
146.7828087475
 21
34.8670466383
  0
LINE
  5
2FD
100
AcDbEntity
  8
0
100
AcDbLine
 62
7
  6
CONTINUOUS
 10
155.3426133659
 20
34.2743707295
 11
154.9896412916
 21
33.7831474493
  0
LINE
  5
2FE
100
AcDbEntity
  8
0
100
AcDbLine
 62
7
  6
CONTINUOUS
 10
103.8444230937
 20
39.0911482817
 11
103.0014852833
 21
38.6467892354
  0
LINE
  5
2FF
100
AcDbEntity
  8
0
100
AcDbLine
 62
7
  6
CONTINUOUS
 10
105.9946614113
 20
31.0706086242
 11
106.8376028719
 21
31.5149665606
  0
LINE
  5
300
100
AcDbEntity
  8
0
100
AcDbLine
 62
7
  6
CONTINUOUS
 10
103.8494711635
 20
38.0168610948
 11
104.4296232788
 21
38.1880716033
  0
LINE
  5
301
100
AcDbEntity
  8
RUNDUNGEN
100
AcDbLine
 62
7
  6
CONTINUOUS
 10
154.8328872323
 20
188.5627000468
 11
172.3727553184
 21
188.5627000468
  0
LINE
  5
302
100
AcDbEntity
  8
RUNDUNGEN
100
AcDbLine
 62
7
  6
CONTINUOUS
 10
195.516119036
 20
128.7365938451
 11
191.8716094183
 21
138.7498017246
  0
LINE
  5
303
100
AcDbEntity
  8
RUNDUNGEN
100
AcDbLine
 62
7
  6
CONTINUOUS
 10
207.825318457
 20
115.2997536659
 11
207.825318457
 21
106.8256464278
  0
LINE
  5
304
100
AcDbEntity
  8
RUNDUNGEN
100
AcDbLine
 62
7
  6
CONTINUOUS
 10
215.5438383896
 20
95.0627000468
 11
215.5438383896
 21
127.0627000468
  0
LINE
  5
305
100
AcDbEntity
  8
0
100
AcDbLine
 62
7
  6
CONTINUOUS
 10
163.5727446117
 20
36.4945789426
 11
164.0197595754
 21
37.0950107822
  0
LINE
  5
306
100
AcDbEntity
  8
0
100
AcDbLine
 62
7
  6
CONTINUOUS
 10
155.496363457
 20
32.8809194146
 11
156.0059044212
 21
33.4292886128
  0
LINE
  5
307
100
AcDbEntity
  8
0
100
AcDbLine
 62
7
  6
CONTINUOUS
 10
147.1498133724
 20
34.0813024019
 11
147.7147009161
 21
34.5724671444
  0
LINE
  5
308
100
AcDbEntity
  8
0
100
AcDbLine
 62
7
  6
CONTINUOUS
 10
162.9710943431
 20
37.3364813917
 11
162.4487169853
 21
36.8886696807
  0
LINE
  5
309
100
AcDbEntity
  8
0
100
AcDbLine
 62
7
  6
CONTINUOUS
 10
162.9009323276
 20
35.9729693126
 11
163.5727446117
 21
36.4945789426
  0
LINE
  5
30A
100
AcDbEntity
  8
0
100
AcDbLine
 62
7
  6
CONTINUOUS
 10
154.9896412916
 20
33.7831474493
 11
154.4217474069
 21
33.3946761271
  0
LINE
  5
30B
100
AcDbEntity
  8
0
100
AcDbLine
 62
7
  6
CONTINUOUS
 10
146.7828087475
 20
34.8670466383
 11
146.3386207517
 21
34.5812680471
  0
LINE
  5
30C
100
AcDbEntity
  8
0
100
AcDbLine
 62
7
  6
CONTINUOUS
 10
159.3585788045
 20
43.1459555469
 11
155.7720856874
 21
41.3747787854
  0
LINE
  5
30D
100
AcDbEntity
  8
0
100
AcDbLine
 62
7
  6
CONTINUOUS
 10
157.1209242561
 20
40.9018727146
 11
159.810794094
 21
42.2302552857
  0
LINE
  5
30E
100
AcDbEntity
  8
0
100
AcDbLine
 62
7
  6
CONTINUOUS
 10
154.5340071612
 20
40.8646878863
 11
153.5946226427
 21
40.5218224223
  0
LINE
  5
30F
100
AcDbEntity
  8
0
100
AcDbLine
 62
7
  6
CONTINUOUS
 10
149.8370845688
 20
39.150360566
 11
148.8977000503
 21
38.807495102
  0
LINE
  5
310
100
AcDbEntity
  8
0
100
AcDbLine
 62
7
  6
CONTINUOUS
 10
105.9896170282
 20
32.1448948147
 11
105.4094648764
 21
31.9736841927
  0
LINE
  5
311
100
AcDbEntity
  8
RUNDUNGEN
100
AcDbLine
 62
7
  6
CONTINUOUS
 10
173.790407613
 20
188.206610403
 11
188.4234464482
 21
180.3604438213
  0
LINE
  5
312
100
AcDbEntity
  8
RUNDUNGEN
100
AcDbLine
 62
7
  6
CONTINUOUS
 10
204.3681943108
 20
168.4941814961
 11
211.0148220205
 21
155.8877302971
  0
LINE
  5
313
100
AcDbEntity
  8
RUNDUNGEN
100
AcDbLine
 62
7
  6
CONTINUOUS
 10
200.2792382996
 20
55.6915168479
 11
211.5015566507
 21
70.3167268652
  0
LINE
  5
314
100
AcDbEntity
  8
0
100
AcDbLine
 62
7
  6
CONTINUOUS
 10
154.77190788
 20
32.4353047063
 11
155.496363457
 21
32.8809194146
  0
LINE
  5
315
100
AcDbEntity
  8
0
100
AcDbLine
 62
7
  6
CONTINUOUS
 10
162.4487169853
 20
36.8886696807
 11
159.7588471475
 21
35.5602871095
  0
LINE
  5
316
100
AcDbEntity
  8
0
100
AcDbLine
 62
7
  6
CONTINUOUS
 10
159.3144392104
 20
34.2017925511
 11
162.9009323276
 21
35.9729693126
  0
LINE
  5
317
100
AcDbEntity
  8
0
100
AcDbLine
 62
7
  6
CONTINUOUS
 10
154.4217474069
 20
33.3946761271
 11
153.7954862833
 21
33.1660974071
  0
LINE
  5
318
100
AcDbEntity
  8
0
100
AcDbLine
 62
7
  6
CONTINUOUS
 10
154.1456467564
 20
32.2067259864
 11
154.77190788
 21
32.4353047063
  0
LINE
  5
319
100
AcDbEntity
  8
BEZUGSACHSEN
100
AcDbLine
 62
7
  6
CONTINUOUS
 10
119.7938383896
 20
253.3627000468
 11
135.2938383896
 21
253.3627000468
  0
LWPOLYLINE
  5
31A
100
AcDbEntity
  8
RUNDUNGEN
100
AcDbPolyline
 62
7
  6
CONTINUOUS
 90
23
 70
0
 10
95.0173642357
 20
284.0627000439
 10
94.8286411023
 20
284.0591622556
 10
94.4652076331
 20
284.0323055481
 10
94.1047001045
 20
283.9791465244
 10
93.7491550325
 20
283.8999470408
 10
93.4005508491
 20
283.7951401835
 10
93.0607727081
 20
283.6653056515
 10
92.7316999078
 20
283.5111943743
 10
92.4150563309
 20
283.3336608558
 10
92.1125404639
 20
283.1337134812
 10
91.8257055838
 20
282.9124410612
 10
91.5560438164
 20
282.6710565296
 10
91.3049463288
 20
282.4108690283
 10
91.0737121603
 20
282.1332905041
 10
90.8635270513
 20
281.8398122501
 10
90.6754731553
 20
281.532015747
 10
90.5105038807
 20
281.2115325323
 10
90.3694614861
 20
280.8800678356
 10
90.2530600683
 20
280.5393650815
 10
90.1618948157
 20
280.1912247007
 10
90.0964296688
 20
279.8374612126
 10
90.0570044673
 20
279.4799036022
 10
90.0438383896
 20
279.1204850003
  0
LWPOLYLINE
  5
31B
100
AcDbEntity
  8
BEZUGSACHSEN
100
AcDbPolyline
 62
7
  6
CONTINUOUS
 90
22
 70
0
 10
95.0173651831
 20
284.0627000436
 10
94.843777357
 20
284.0597073063
 10
94.4795411889
 20
284.033868597
 10
94.1181629375
 20
283.981615901
 10
93.7616932858
 20
283.9032061839
 10
93.4121246612
 20
283.7990695186
 10
93.0713553763
 20
283.6697841332
 10
92.741278742
 20
283.5161012887
 10
92.4236302887
 20
283.3388765387
 10
92.1201206267
 20
283.1391206856
 10
91.8323143597
 20
282.9179260054
 10
91.561714668
 20
282.6765099975
 10
91.3097230749
 20
282.4161872567
 10
91.0776484596
 20
282.1383761922
 10
90.866685515
 20
281.8445752126
 10
90.6779247623
 20
281.5363738907
 10
90.5123267926
 20
281.2154119414
 10
90.3707403697
 20
280.8834033895
 10
90.253885442
 20
280.5421014155
 10
90.1623620171
 20
280.1933162414
 10
90.0966382061
 20
279.8388739638
 10
90.0570567353
 20
279.4806154464
  0
LINE
  5
31C
100
AcDbEntity
  8
RUNDUNGEN
100
AcDbLine
 62
7
  6
CONTINUOUS
 10
95.0104663609
 20
284.0627470437
 11
95.0023283916
 21
284.0626883846
  0
LINE
  5
31D
100
AcDbEntity
  8
BEZUGSACHSEN
100
AcDbLine
 62
7
  6
CONTINUOUS
 10
119.7938383896
 20
271.7627000468
 11
135.2938383896
 21
271.7627000468
  0
LINE
  5
31E
100
AcDbEntity
  8
RUNDUNGEN
100
AcDbLine
 62
7
  6
CONTINUOUS
 10
95.0173458644
 20
284.0627000468
 11
114.7938383896
 21
284.0627000468
  0
LINE
  5
31F
100
AcDbEntity
  8
RUNDUNGEN
100
AcDbLine
 62
7
  6
CONTINUOUS
 10
140.2938383896
 20
284.0627000468
 11
160.0438383896
 21
284.0627000468
  0
LWPOLYLINE
  5
320
100
AcDbEntity
  8
RUNDUNGEN
100
AcDbPolyline
 62
7
  6
CONTINUOUS
 90
31
 70
0
 10
321.3278381246
 20
10.0627000431
 10
321.5504626168
 20
10.0662731849
 10
321.9804662901
 20
10.0934674945
 10
322.4035951822
 20
10.1466188786
 10
322.8178107
 20
10.2246005363
 10
323.2213977164
 20
10.3261343031
 10
323.6128057345
 20
10.4498066452
 10
323.9905821389
 20
10.5940592071
 10
324.3536824012
 20
10.7573322573
 10
324.7014135027
 20
10.9381331982
 10
325.0322394277
 20
11.1343712727
 10
325.3451838211
 20
11.3439839406
 10
325.6392580968
 20
11.5646348326
 10
325.91374794
 20
11.7938881271
 10
326.1684125543
 20
12.0294410429
 10
326.4032358102
 20
12.2689999753
 10
326.618223953
 20
12.510083418
 10
326.8135658962
 20
12.7501668038
 10
326.9900368813
 20
12.9872757664
 10
327.1482848875
 20
13.219187466
 10
327.2897036446
 20
13.444765269
 10
327.4154606581
 20
13.6626928529
 10
327.5269862798
 20
13.8722897278
 10
327.6255403251
 20
14.0728240451
 10
327.7125219957
 20
14.264132628
 10
327.7891515061
 20
14.4460134123
 10
327.8567017388
 20
14.6187501934
 10
327.9162586815
 20
14.7825548189
 10
327.9689636064
 20
14.9382029122
 10
328.0159288511
 20
15.0868974766
 10
328.0430267316
 20
15.1776337243
  0
LINE
  5
321
100
AcDbEntity
  8
0
100
AcDbLine
 62
7
  6
CONTINUOUS
 10
312.5922729737
 20
10.0627000468
 11
321.3279601762
 21
10.0627000468
  0
LINE
  5
322
100
AcDbEntity
  8
BEZUGSACHSEN
100
AcDbLine
 62
7
  6
CONTINUOUS
 10
289.629989491
 20
231.6966745304
 11
293.7902435939
 21
238.902446009
  0
LINE
  5
323
100
AcDbEntity
  8
RUNDUNGEN
100
AcDbLine
 62
7
  6
CONTINUOUS
 10
335.3383171695
 20
205.4409006413
 11
343.4956506655
 21
213.5982341373
  0
LWPOLYLINE
  5
324
100
AcDbEntity
  8
BEZUGSACHSEN
100
AcDbPolyline
 62
7
  6
CONTINUOUS
 90
31
 70
0
 10
305.877207472
 20
15.1776301195
 10
305.9042210935
 20
15.0871702429
 10
305.9510724741
 20
14.9388060153
 10
306.0036272299
 20
14.7835454462
 10
306.0629923637
 20
14.6201813892
 10
306.1303011025
 20
14.4479387391
 10
306.2066379133
 20
14.2665880647
 10
306.2932705649
 20
14.0758371041
 10
306.3914247355
 20
13.8758583932
 10
306.5025065411
 20
13.6667886425
 10
306.6277803606
 20
13.4493436759
 10
306.7686861196
 20
13.2241837345
 10
306.9263986243
 20
12.9926145433
 10
307.1023326663
 20
12.7557473324
 10
307.2971191537
 20
12.5158353309
 10
307.5115165968
 20
12.2748737594
 10
307.7457215952
 20
12.0353780149
 10
307.9997435969
 20
11.7998269516
 10
308.2735652171
 20
11.5705151956
 10
308.5669469569
 20
11.3497436936
 10
308.8791693567
 20
11.1399508252
 10
309.2092350301
 20
10.9434754139
 10
309.5561768359
 20
10.7623700892
 10
309.9184645993
 20
10.5987199053
 10
310.2954117907
 20
10.4540102838
 10
310.6859820938
 20
10.3297944812
 10
311.0887292254
 20
10.2276263703
 10
311.5021103684
 20
10.1489151022
 10
311.9244189902
 20
10.09493505
 10
312.3536255246
 20
10.0668103956
 10
312.5923950224
 20
10.0627000431
  0
LINE
  5
325
100
AcDbEntity
  8
BEZUGSACHSEN
100
AcDbLine
 62
7
  6
CONTINUOUS
 10
305.8773731205
 20
15.1770633014
 11
305.8772074249
 21
15.1776301024
  0
LWPOLYLINE
  5
326
100
AcDbEntity
  8
BEZUGSACHSEN
100
AcDbPolyline
 62
7
  6
CONTINUOUS
 90
7
 70
0
 10
305.6792560693
 20
15.9977658237
 10
305.7029056678
 20
15.8810701033
 10
305.732143997
 20
15.7450997667
 10
305.7646992433
 20
15.6034565379
 10
305.8016939086
 20
15.453507596
 10
305.8447123536
 20
15.2918748976
 10
305.8773731205
 20
15.1770633014
  0
LINE
  5
327
100
AcDbEntity
  8
BEZUGSACHSEN
100
AcDbLine
 62
7
  6
CONTINUOUS
 10
301.6225703987
 20
36.5088734396
 11
303.5505649414
 21
26.7762295162
  0
LINE
  5
328
100
AcDbEntity
  8
BEZUGSACHSEN
100
AcDbLine
 62
7
  6
CONTINUOUS
 10
303.5505649414
 20
26.7762295162
 11
305.6790689106
 21
15.9987142148
  0
LINE
  5
329
100
AcDbEntity
  8
BEZUGSACHSEN
100
AcDbLine
 62
7
  6
CONTINUOUS
 10
299.0211510415
 20
50.2250563805
 11
299.0582972269
 21
49.8808230783
  0
LINE
  5
32A
100
AcDbEntity
  8
BEZUGSACHSEN
100
AcDbLine
 62
7
  6
CONTINUOUS
 10
298.9807367199
 20
50.6173541281
 11
299.0211510415
 21
50.2250563805
  0
LINE
  5
32B
100
AcDbEntity
  8
BEZUGSACHSEN
100
AcDbLine
 62
7
  6
CONTINUOUS
 10
298.9212479173
 20
51.223104522
 11
298.9807367199
 21
50.6173541281
  0
LINE
  5
32C
100
AcDbEntity
  8
BEZUGSACHSEN
100
AcDbLine
 62
7
  6
CONTINUOUS
 10
298.8371789363
 20
52.1262519742
 11
298.9212479173
 21
51.223104522
  0
LINE
  5
32D
100
AcDbEntity
  8
BEZUGSACHSEN
100
AcDbLine
 62
7
  6
CONTINUOUS
 10
298.721955389
 20
53.4365198606
 11
298.8371789363
 21
52.1262519742
  0
LINE
  5
32E
100
AcDbEntity
  8
BEZUGSACHSEN
100
AcDbLine
 62
7
  6
CONTINUOUS
 10
298.5669444054
 20
55.3067932587
 11
298.721955389
 21
53.4365198606
  0
LINE
  5
32F
100
AcDbEntity
  8
BEZUGSACHSEN
100
AcDbLine
 62
7
  6
CONTINUOUS
 10
298.3876973764
 20
57.599029157
 11
298.5669444054
 21
55.3067932587
  0
LINE
  5
330
100
AcDbEntity
  8
BEZUGSACHSEN
100
AcDbLine
 62
7
  6
CONTINUOUS
 10
298.1506360446
 20
60.8179888284
 11
298.3876973764
 21
57.599029157
  0
LINE
  5
331
100
AcDbEntity
  8
BEZUGSACHSEN
100
AcDbLine
 62
7
  6
CONTINUOUS
 10
297.8766252467
 20
64.7849874375
 11
298.1506360446
 21
60.8179888284
  0
LINE
  5
332
100
AcDbEntity
  8
BEZUGSACHSEN
100
AcDbLine
 62
7
  6
CONTINUOUS
 10
297.5648248509
 20
69.6150755082
 11
297.8766252467
 21
64.7849874375
  0
LINE
  5
333
100
AcDbEntity
  8
BEZUGSACHSEN
100
AcDbLine
 62
7
  6
CONTINUOUS
 10
297.2209194596
 20
75.3544235553
 11
297.5648248509
 21
69.6150755082
  0
LINE
  5
334
100
AcDbEntity
  8
BEZUGSACHSEN
100
AcDbLine
 62
7
  6
CONTINUOUS
 10
296.9015205855
 20
81.1251014695
 11
297.2209194596
 21
75.3544235553
  0
LINE
  5
335
100
AcDbEntity
  8
BEZUGSACHSEN
100
AcDbLine
 62
7
  6
CONTINUOUS
 10
296.6667973584
 20
85.6909272979
 11
296.9015205855
 21
81.1251014695
  0
LINE
  5
336
100
AcDbEntity
  8
BEZUGSACHSEN
100
AcDbLine
 62
7
  6
CONTINUOUS
 10
296.4300909389
 20
90.6452451987
 11
296.6667973584
 21
85.6909272979
  0
LINE
  5
337
100
AcDbEntity
  8
BEZUGSACHSEN
100
AcDbLine
 62
7
  6
CONTINUOUS
 10
296.2423599553
 20
94.8954652079
 11
296.4300909389
 21
90.6452451987
  0
LINE
  5
338
100
AcDbEntity
  8
BEZUGSACHSEN
100
AcDbLine
 62
7
  6
CONTINUOUS
 10
296.0595354378
 20
99.4023798306
 11
296.2423599553
 21
94.8954652079
  0
LINE
  5
339
100
AcDbEntity
  8
BEZUGSACHSEN
100
AcDbLine
 62
7
  6
CONTINUOUS
 10
295.9281455865
 20
102.9491658992
 11
296.0595354378
 21
99.4023798306
  0
LINE
  5
33A
100
AcDbEntity
  8
BEZUGSACHSEN
100
AcDbLine
 62
7
  6
CONTINUOUS
 10
295.8041233938
 20
106.6347366014
 11
295.9281455865
 21
102.9491658992
  0
LINE
  5
33B
100
AcDbEntity
  8
BEZUGSACHSEN
100
AcDbLine
 62
7
  6
CONTINUOUS
 10
295.7268494891
 20
109.1661435497
 11
295.8041233938
 21
106.6347366014
  0
LINE
  5
33C
100
AcDbEntity
  8
BEZUGSACHSEN
100
AcDbLine
 62
7
  6
CONTINUOUS
 10
295.6549624199
 20
111.7549921089
 11
295.7268494891
 21
109.1661435497
  0
LINE
  5
33D
100
AcDbEntity
  8
BEZUGSACHSEN
100
AcDbLine
 62
7
  6
CONTINUOUS
 10
299.0119209907
 20
55.1068421365
 11
299.1422604741
 21
50.6688865266
  0
LINE
  5
33E
100
AcDbEntity
  8
BEZUGSACHSEN
100
AcDbLine
 62
7
  6
CONTINUOUS
 10
295.5895578537
 20
114.3993784286
 11
295.6549624199
 21
111.7549921089
  0
LINE
  5
33F
100
AcDbEntity
  8
BEZUGSACHSEN
100
AcDbLine
 62
7
  6
CONTINUOUS
 10
299.1422604741
 20
50.6688865266
 11
299.1477292994
 21
50.4473802465
  0
LINE
  5
340
100
AcDbEntity
  8
BEZUGSACHSEN
100
AcDbLine
 62
7
  6
CONTINUOUS
 10
298.9685779403
 20
56.9502326584
 11
299.0119209907
 21
55.1068421365
  0
LINE
  5
341
100
AcDbEntity
  8
BEZUGSACHSEN
100
AcDbLine
 62
7
  6
CONTINUOUS
 10
295.531988374
 20
117.0965384149
 11
295.5895578537
 21
114.3993784286
  0
LINE
  5
342
100
AcDbEntity
  8
BEZUGSACHSEN
100
AcDbLine
 62
7
  6
CONTINUOUS
 10
295.4837889515
 20
119.8427917026
 11
295.531988374
 21
117.0965384149
  0
LINE
  5
343
100
AcDbEntity
  8
BEZUGSACHSEN
100
AcDbLine
 62
7
  6
CONTINUOUS
 10
288.960116575
 20
217.1337674446
 11
288.960116575
 21
229.1966746431
  0
LINE
  5
344
100
AcDbEntity
  8
BEZUGSACHSEN
100
AcDbLine
 62
7
  6
CONTINUOUS
 10
294.460116575
 20
241.4024470575
 11
294.460116575
 21
262.0627006799
  0
LWPOLYLINE
  5
345
100
AcDbEntity
  8
BEZUGSACHSEN
100
AcDbPolyline
 62
7
  6
CONTINUOUS
 90
21
 70
0
 10
296.1267812936
 20
149.9541351003
 10
296.0266464262
 20
148.6741553037
 10
295.9275738326
 20
147.250831756
 10
295.8395142166
 20
145.8160353886
 10
295.7616920519
 20
144.3714681663
 10
295.6934129384
 20
142.9190437202
 10
295.6340382988
 20
141.460710441
 10
295.5829695546
 20
139.9982150399
 10
295.5396515584
 20
138.5332820581
 10
295.5035639035
 20
137.0674818593
 10
295.4742196063
 20
135.6022916505
 10
295.45116162
 20
134.1390575681
 10
295.4339613981
 20
132.6790412565
 10
295.4222163855
 20
131.2233810341
 10
295.4155487898
 20
129.7731394384
 10
295.4136036315
 20
128.329268679
 10
295.4160475492
 20
126.8926419106
 10
295.4225674619
 20
125.4640364523
 10
295.4328693583
 20
124.0441538335
 10
295.44667769
 20
122.6335712743
 10
295.4837889515
 20
119.8427917026
  0
LINE
  5
346
100
AcDbEntity
  8
BEZUGSACHSEN
100
AcDbLine
 62
7
  6
CONTINUOUS
 10
296.1324001096
 20
150.0218274099
 11
296.126926661
 21
149.9558811067
  0
LWPOLYLINE
  5
347
100
AcDbEntity
  8
BEZUGSACHSEN
100
AcDbPolyline
 62
7
  6
CONTINUOUS
 90
7
 70
0
 10
300.5354703761
 20
200.0608541395
 10
299.846911363
 20
192.7409647257
 10
299.133484325
 20
184.9715763536
 10
298.4061528209
 20
176.8488289473
 10
297.665640974
 20
168.3556024616
 10
296.9120335696
 20
159.4686160862
 10
296.1324001096
 20
150.0218274099
  0
LWPOLYLINE
  5
348
100
AcDbEntity
  8
BEZUGSACHSEN
100
AcDbPolyline
 62
7
  6
CONTINUOUS
 90
9
 70
0
 10
299.1717634062
 20
48.958780328
 10
299.184389837
 20
48.8707486045
 10
299.1978187648
 20
48.7805454377
 10
299.2122840124
 20
48.6871914094
 10
299.2279128894
 20
48.5905395034
 10
299.245330514
 20
48.4876757224
 10
299.2651879637
 20
48.3761684878
 10
299.288097674
 20
48.2544223215
 10
301.6225703987
 20
36.5088734396
  0
LINE
  5
349
100
AcDbEntity
  8
BEZUGSACHSEN
100
AcDbLine
 62
7
  6
CONTINUOUS
 10
299.1484351546
 20
49.1296699783
 11
299.1717634062
 21
48.958780328
  0
LINE
  5
34A
100
AcDbEntity
  8
BEZUGSACHSEN
100
AcDbLine
 62
7
  6
CONTINUOUS
 10
299.1262393212
 20
49.3018391536
 11
299.1484351546
 21
49.1296699783
  0
LINE
  5
34B
100
AcDbEntity
  8
BEZUGSACHSEN
100
AcDbLine
 62
7
  6
CONTINUOUS
 10
299.1041776759
 20
49.4817945764
 11
299.1262393212
 21
49.3018391536
  0
LINE
  5
34C
100
AcDbEntity
  8
BEZUGSACHSEN
100
AcDbLine
 62
7
  6
CONTINUOUS
 10
299.0817063409
 20
49.673271655
 11
299.1041776759
 21
49.4817945764
  0
LINE
  5
34D
100
AcDbEntity
  8
BEZUGSACHSEN
100
AcDbLine
 62
7
  6
CONTINUOUS
 10
299.0582972269
 20
49.8808230783
 11
299.0817063409
 21
49.673271655
  0
LINE
  5
34E
100
AcDbEntity
  8
BEZUGSACHSEN
100
AcDbLine
 62
7
  6
CONTINUOUS
 10
299.1477292994
 20
50.4473802465
 11
299.1495034951
 21
50.357751273
  0
LINE
  5
34F
100
AcDbEntity
  8
BEZUGSACHSEN
100
AcDbLine
 62
7
  6
CONTINUOUS
 10
298.9324570794
 20
58.8435543815
 11
298.9685779403
 21
56.9502326584
  0
LWPOLYLINE
  5
350
100
AcDbEntity
  8
BEZUGSACHSEN
100
AcDbPolyline
 62
7
  6
CONTINUOUS
 90
3
 70
0
 10
299.1495034951
 20
50.357751273
 10
299.1502724678
 20
50.3052917743
 10
299.1503388971
 20
50.2986631195
  0
LINE
  5
351
100
AcDbEntity
  8
BEZUGSACHSEN
100
AcDbLine
 62
7
  6
CONTINUOUS
 10
298.9012842717
 20
61.025903075
 11
298.9324570794
 21
58.8435543815
  0
LINE
  5
352
100
AcDbEntity
  8
BEZUGSACHSEN
100
AcDbLine
 62
7
  6
CONTINUOUS
 10
298.8814828337
 20
63.15078379
 11
298.9012842717
 21
61.025903075
  0
LINE
  5
353
100
AcDbEntity
  8
BEZUGSACHSEN
100
AcDbLine
 62
7
  6
CONTINUOUS
 10
298.8722344937
 20
65.1177278515
 11
298.8814828337
 21
63.15078379
  0
LINE
  5
354
100
AcDbEntity
  8
BEZUGSACHSEN
100
AcDbLine
 62
7
  6
CONTINUOUS
 10
298.871944592
 20
67.2775326596
 11
298.8722344937
 21
65.1177278515
  0
LINE
  5
355
100
AcDbEntity
  8
BEZUGSACHSEN
100
AcDbLine
 62
7
  6
CONTINUOUS
 10
298.8832856153
 20
69.6442766769
 11
298.871944592
 21
67.2775326596
  0
LINE
  5
356
100
AcDbEntity
  8
BEZUGSACHSEN
100
AcDbLine
 62
7
  6
CONTINUOUS
 10
298.8910348626
 20
70.5743261991
 11
298.8832856153
 21
69.6442766769
  0
LWPOLYLINE
  5
357
100
AcDbEntity
  8
BEZUGSACHSEN
100
AcDbPolyline
 62
7
  6
CONTINUOUS
 90
9
 70
0
 10
304.1433038382
 20
118.2473715886
 10
303.0073166915
 20
112.1177974784
 10
301.9819571561
 20
105.9669755299
 10
301.0946156505
 20
99.9042986124
 10
300.3498582746
 20
93.9160836194
 10
299.7527491847
 20
87.9896204849
 10
299.3080334403
 20
82.1123334698
 10
299.0196201176
 20
76.2727103751
 10
298.8910352302
 20
70.5743664751
  0
LINE
  5
358
100
AcDbEntity
  8
BEZUGSACHSEN
100
AcDbLine
 62
7
  6
CONTINUOUS
 10
304.1433038382
 20
118.2473715886
 11
304.1432507974
 21
118.2470982246
  0
LWPOLYLINE
  5
359
100
AcDbEntity
  8
BEZUGSACHSEN
100
AcDbPolyline
 62
7
  6
CONTINUOUS
 90
28
 70
0
 10
313.7072744432
 20
126.5627000187
 10
313.3347851445
 20
126.5553475878
 10
312.714650212
 20
126.5103709197
 10
312.0986321527
 20
126.424665435
 10
311.4905125289
 20
126.2988662275
 10
310.8939643333
 20
126.1340811095
 10
310.3121690053
 20
125.931749035
 10
309.7493438089
 20
125.6942211513
 10
309.2083693972
 20
125.4239641112
 10
308.6942575226
 20
125.1253065614
 10
308.211637636
 20
124.8037155127
 10
307.7603816242
 20
124.4623737447
 10
307.3415328439
 20
124.1055074358
 10
306.9536714741
 20
123.7354296284
 10
306.5958247702
 20
123.3546001442
 10
306.2667505931
 20
122.9650200795
 10
305.9650708574
 20
122.5682836266
 10
305.6897565537
 20
122.1662395751
 10
305.4394545807
 20
121.7601291208
 10
305.213217255
 20
121.3517158628
 10
305.0096669261
 20
120.9419390838
 10
304.8279779423
 20
120.5328058652
 10
304.6668950447
 20
120.1255392596
 10
304.5252216367
 20
119.7215213012
 10
304.401512172
 20
119.3213801215
 10
304.2945904677
 20
118.9264836707
 10
304.2032827812
 20
118.5383527337
 10
304.1432507974
 20
118.2470982246
  0
LINE
  5
35A
100
AcDbEntity
  8
0
100
AcDbLine
 62
7
  6
CONTINUOUS
 10
313.7072892216
 20
126.5627000468
 11
320.2129439284
 21
126.5627000468
  0
LWPOLYLINE
  5
35B
100
AcDbEntity
  8
RUNDUNGEN
100
AcDbPolyline
 62
7
  6
CONTINUOUS
 90
28
 70
0
 10
329.7769836854
 20
118.2470913537
 10
329.7170035804
 20
118.5381090253
 10
329.6257239273
 20
118.92616187
 10
329.5187841209
 20
119.3211619439
 10
329.3950039051
 20
119.7215444018
 10
329.2531986531
 20
120.1259136347
 10
329.0919174483
 20
120.5336116144
 10
328.909962059
 20
120.9432251875
 10
328.7060786233
 20
121.353502235
 10
328.479455281
 20
121.762393437
 10
328.2287053417
 20
122.1689655733
 10
327.9528826804
 20
122.5714424396
 10
327.6506212617
 20
122.9685901508
 10
327.3208818252
 20
123.3585587713
 10
326.9622721999
 20
123.7397527577
 10
326.5735355738
 20
124.1101653975
 10
326.1536835762
 20
124.4673275818
 10
325.7012493668
 20
124.8089336607
 10
325.2173542147
 20
125.1306746493
 10
324.7018990607
 20
125.4293367172
 10
324.1596803868
 20
125.6993735228
 10
323.595934428
 20
125.936404734
 10
323.0134878968
 20
126.1380555083
 10
322.4165923003
 20
126.3020247791
 10
321.8083402051
 20
126.42694772
 10
321.1923331532
 20
126.5117621668
 10
320.572275341
 20
126.5558585847
 10
320.2129585307
 20
126.5627000187
  0
LINE
  5
35C
100
AcDbEntity
  8
RUNDUNGEN
100
AcDbLine
 62
7
  6
CONTINUOUS
 10
329.7769293117
 20
118.2473715886
 11
329.7769836854
 21
118.2470913536
  0
LWPOLYLINE
  5
35D
100
AcDbEntity
  8
RUNDUNGEN
100
AcDbPolyline
 62
7
  6
CONTINUOUS
 90
6
 70
0
 10
337.0081995803
 20
159.4686160862
 10
336.2545921759
 20
168.3556024616
 10
335.5140803291
 20
176.8488289473
 10
334.786748825
 20
184.9715763536
 10
334.0733217869
 20
192.7409647257
 10
333.3847627739
 20
200.0608541395
  0
LINE
  5
35E
100
AcDbEntity
  8
RUNDUNGEN
100
AcDbLine
 62
7
  6
CONTINUOUS
 10
337.7934512038
 20
149.9541353607
 11
337.0081995803
 21
159.4686160862
  0
LWPOLYLINE
  5
35F
100
AcDbEntity
  8
RUNDUNGEN
100
AcDbPolyline
 62
7
  6
CONTINUOUS
 90
13
 70
0
 10
333.3847551385
 20
200.0609344003
 10
333.3584945103
 20
200.501669341
 10
333.3664069082
 20
201.014290122
 10
333.4139384308
 20
201.5210274377
 10
333.4992307042
 20
202.0198254415
 10
333.6207163258
 20
202.5087697787
 10
333.7769729598
 20
202.9857560794
 10
333.9666449803
 20
203.4485907716
 10
334.1889940822
 20
203.8961340771
 10
334.4435274696
 20
204.3269423556
 10
334.7299442865
 20
204.7392661322
 10
335.048444583
 20
205.1314233226
 10
335.3382886265
 20
205.4408721012
  0
LWPOLYLINE
  5
360
100
AcDbEntity
  8
RUNDUNGEN
100
AcDbPolyline
 62
7
  6
CONTINUOUS
 90
9
 70
0
 10
335.0291979198
 20
70.5743664751
 10
334.9006130323
 20
76.2727103751
 10
334.6121997097
 20
82.1123334698
 10
334.1674839652
 20
87.9896204849
 10
333.5703748753
 20
93.9160836194
 10
332.8256174994
 20
99.9042986124
 10
331.9382759938
 20
105.9669755299
 10
330.9129164585
 20
112.1177974784
 10
329.7769293117
 20
118.2473715886
  0
LINE
  5
361
100
AcDbEntity
  8
RUNDUNGEN
100
AcDbLine
 62
7
  6
CONTINUOUS
 10
335.0448294444
 20
68.3099590632
 11
335.0291982873
 21
70.5743261991
  0
LINE
  5
362
100
AcDbEntity
  8
RUNDUNGEN
100
AcDbLine
 62
7
  6
CONTINUOUS
 10
335.0494179278
 20
66.1648031949
 11
335.0448294444
 21
68.3099590632
  0
LINE
  5
363
100
AcDbEntity
  8
RUNDUNGEN
100
AcDbLine
 62
7
  6
CONTINUOUS
 10
339.460116575
 20
241.4024470575
 11
339.460116575
 21
262.0627006799
  0
LINE
  5
364
100
AcDbEntity
  8
RUNDUNGEN
100
AcDbLine
 62
7
  6
CONTINUOUS
 10
334.7698672552
 20
50.2961601801
 11
334.7698608883
 21
50.2943806081
  0
LINE
  5
365
100
AcDbEntity
  8
RUNDUNGEN
100
AcDbLine
 62
7
  6
CONTINUOUS
 10
335.0424338222
 20
63.7409357773
 11
335.0494179278
 21
66.1648031949
  0
LWPOLYLINE
  5
366
100
AcDbEntity
  8
RUNDUNGEN
100
AcDbPolyline
 62
7
  6
CONTINUOUS
 90
20
 70
0
 10
338.4736533818
 20
122.6424732015
 10
338.4874363218
 20
124.052645467
 10
338.497713559
 20
125.4721080767
 10
338.5042097173
 20
126.9002837546
 10
338.5066309797
 20
128.3364712906
 10
338.5046644779
 20
129.7798937281
 10
338.4979770842
 20
131.2296783811
 10
338.486214075
 20
132.6848736109
 10
338.468997938
 20
134.1444175649
 10
338.4459264237
 20
135.6071727233
 10
338.4165713188
 20
137.0718783863
 10
338.3804759411
 20
138.5371894219
 10
338.3371537048
 20
140.0016297845
 10
338.2860846357
 20
141.4636304523
 10
338.2267140572
 20
142.9214683847
 10
338.1584439097
 20
144.3733984641
 10
338.080636181
 20
145.8174741133
 10
337.9925971023
 20
147.2517835155
 10
337.8935518631
 20
148.6746263916
 10
337.7934518596
 20
149.9541350609
  0
LINE
  5
367
100
AcDbEntity
  8
RUNDUNGEN
100
AcDbLine
 62
7
  6
CONTINUOUS
 10
335.0251124438
 20
61.5806002324
 11
335.0424338222
 21
63.7409357773
  0
LINE
  5
368
100
AcDbEntity
  8
RUNDUNGEN
100
AcDbLine
 62
7
  6
CONTINUOUS
 10
334.769893228
 20
50.2985483785
 11
334.7702340112
 21
50.3266022148
  0
LINE
  5
369
100
AcDbEntity
  8
RUNDUNGEN
100
AcDbLine
 62
7
  6
CONTINUOUS
 10
335.0007491463
 20
59.6606547051
 11
335.0251124438
 21
61.5806002324
  0
LINE
  5
36A
100
AcDbEntity
  8
RUNDUNGEN
100
AcDbLine
 62
7
  6
CONTINUOUS
 10
338.4365944284
 20
119.8524812481
 11
338.4736533818
 21
122.6424732015
  0
LINE
  5
36B
100
AcDbEntity
  8
RUNDUNGEN
100
AcDbLine
 62
7
  6
CONTINUOUS
 10
338.3884483497
 20
117.1069685553
 11
338.4365944284
 21
119.8524812481
  0
LINE
  5
36C
100
AcDbEntity
  8
RUNDUNGEN
100
AcDbLine
 62
7
  6
CONTINUOUS
 10
334.9658763824
 20
57.6438968817
 11
335.0007491463
 21
59.6606547051
  0
LINE
  5
36D
100
AcDbEntity
  8
RUNDUNGEN
100
AcDbLine
 62
7
  6
CONTINUOUS
 10
334.7702340112
 20
50.3266022148
 11
334.7717626835
 21
50.4122916344
  0
LINE
  5
36E
100
AcDbEntity
  8
RUNDUNGEN
100
AcDbLine
 62
7
  6
CONTINUOUS
 10
338.3309322416
 20
114.4105012148
 11
338.3884483497
 21
117.1069685553
  0
LINE
  5
36F
100
AcDbEntity
  8
RUNDUNGEN
100
AcDbLine
 62
7
  6
CONTINUOUS
 10
334.9218405922
 20
55.6468737103
 11
334.9658763824
 21
57.6438968817
  0
LINE
  5
370
100
AcDbEntity
  8
RUNDUNGEN
100
AcDbLine
 62
7
  6
CONTINUOUS
 10
334.7717626835
 20
50.4122916344
 11
334.7761076057
 21
50.5978402517
  0
LINE
  5
371
100
AcDbEntity
  8
RUNDUNGEN
100
AcDbLine
 62
7
  6
CONTINUOUS
 10
338.2655802702
 20
111.7667602381
 11
338.3309322416
 21
114.4105012148
  0
LINE
  5
372
100
AcDbEntity
  8
RUNDUNGEN
100
AcDbLine
 62
7
  6
CONTINUOUS
 10
338.1937446477
 20
109.1785124192
 11
338.2655802702
 21
111.7667602381
  0
LINE
  5
373
100
AcDbEntity
  8
RUNDUNGEN
100
AcDbLine
 62
7
  6
CONTINUOUS
 10
334.8671749246
 20
53.6041104774
 11
334.9218405922
 21
55.6468737103
  0
LINE
  5
374
100
AcDbEntity
  8
RUNDUNGEN
100
AcDbLine
 62
7
  6
CONTINUOUS
 10
334.7761076057
 20
50.5978402517
 11
334.7932350665
 21
51.1925353201
  0
LINE
  5
375
100
AcDbEntity
  8
RUNDUNGEN
100
AcDbLine
 62
7
  6
CONTINUOUS
 10
334.7932350665
 20
51.1925353201
 11
334.8671749246
 21
53.6041104774
  0
LINE
  5
376
100
AcDbEntity
  8
RUNDUNGEN
100
AcDbLine
 62
7
  6
CONTINUOUS
 10
338.0761813528
 20
105.4043208561
 11
338.1937446477
 21
109.1785124192
  0
LINE
  5
377
100
AcDbEntity
  8
RUNDUNGEN
100
AcDbLine
 62
7
  6
CONTINUOUS
 10
337.9494974092
 20
101.7651511168
 11
338.0761813528
 21
105.4043208561
  0
LINE
  5
378
100
AcDbEntity
  8
RUNDUNGEN
100
AcDbLine
 62
7
  6
CONTINUOUS
 10
337.8162389222
 20
98.2661799412
 11
337.9494974092
 21
101.7651511168
  0
LINE
  5
379
100
AcDbEntity
  8
RUNDUNGEN
100
AcDbLine
 62
7
  6
CONTINUOUS
 10
337.631913983
 20
93.8239545044
 11
337.8162389222
 21
98.2661799412
  0
LINE
  5
37A
100
AcDbEntity
  8
RUNDUNGEN
100
AcDbLine
 62
7
  6
CONTINUOUS
 10
337.3962218744
 20
88.6316987086
 11
337.631913983
 21
93.8239545044
  0
LINE
  5
37B
100
AcDbEntity
  8
RUNDUNGEN
100
AcDbLine
 62
7
  6
CONTINUOUS
 10
337.1129533854
 20
82.9216054457
 11
337.3962218744
 21
88.6316987086
  0
LINE
  5
37C
100
AcDbEntity
  8
RUNDUNGEN
100
AcDbLine
 62
7
  6
CONTINUOUS
 10
336.790070492
 20
76.9477054061
 11
337.1129533854
 21
82.9216054457
  0
LINE
  5
37D
100
AcDbEntity
  8
RUNDUNGEN
100
AcDbLine
 62
7
  6
CONTINUOUS
 10
336.439695514
 20
70.9801932613
 11
336.790070492
 21
76.9477054061
  0
LINE
  5
37E
100
AcDbEntity
  8
RUNDUNGEN
100
AcDbLine
 62
7
  6
CONTINUOUS
 10
336.1191062049
 20
65.9234205641
 11
336.439695514
 21
70.9801932613
  0
LINE
  5
37F
100
AcDbEntity
  8
RUNDUNGEN
100
AcDbLine
 62
7
  6
CONTINUOUS
 10
335.8353821805
 20
61.7467391498
 11
336.1191062049
 21
65.9234205641
  0
LINE
  5
380
100
AcDbEntity
  8
RUNDUNGEN
100
AcDbLine
 62
7
  6
CONTINUOUS
 10
335.5891956489
 20
58.3497207597
 11
335.8353821805
 21
61.7467391498
  0
LINE
  5
381
100
AcDbEntity
  8
RUNDUNGEN
100
AcDbLine
 62
7
  6
CONTINUOUS
 10
335.3780071782
 20
55.6150791955
 11
335.5891956489
 21
58.3497207597
  0
LINE
  5
382
100
AcDbEntity
  8
RUNDUNGEN
100
AcDbLine
 62
7
  6
CONTINUOUS
 10
335.2196402993
 20
53.6874148283
 11
335.3780071782
 21
55.6150791955
  0
LINE
  5
383
100
AcDbEntity
  8
RUNDUNGEN
100
AcDbLine
 62
7
  6
CONTINUOUS
 10
335.1017842308
 20
52.3339542083
 11
335.2196402993
 21
53.6874148283
  0
LINE
  5
384
100
AcDbEntity
  8
RUNDUNGEN
100
AcDbLine
 62
7
  6
CONTINUOUS
 10
344.960116575
 20
217.1337674446
 11
344.960116575
 21
229.1966746431
  0
LINE
  5
385
100
AcDbEntity
  8
RUNDUNGEN
100
AcDbLine
 62
7
  6
CONTINUOUS
 10
335.0155269261
 20
51.3967700856
 11
335.1017842308
 21
52.3339542083
  0
LINE
  5
386
100
AcDbEntity
  8
RUNDUNGEN
100
AcDbLine
 62
7
  6
CONTINUOUS
 10
334.9543309193
 20
50.765474352
 11
335.0155269261
 21
51.3967700856
  0
LINE
  5
387
100
AcDbEntity
  8
RUNDUNGEN
100
AcDbLine
 62
7
  6
CONTINUOUS
 10
334.8996487711
 20
50.2304345509
 11
334.9543309193
 21
50.765474352
  0
LINE
  5
388
100
AcDbEntity
  8
RUNDUNGEN
100
AcDbLine
 62
7
  6
CONTINUOUS
 10
334.8624800779
 20
49.8857401909
 11
334.8996487711
 21
50.2304345509
  0
LINE
  5
389
100
AcDbEntity
  8
RUNDUNGEN
100
AcDbLine
 62
7
  6
CONTINUOUS
 10
334.8390586985
 20
49.6778980454
 11
334.8624800779
 21
49.8857401909
  0
LINE
  5
38A
100
AcDbEntity
  8
RUNDUNGEN
100
AcDbLine
 62
7
  6
CONTINUOUS
 10
334.8165821992
 20
49.4861919011
 11
334.8390586985
 21
49.6778980454
  0
LINE
  5
38B
100
AcDbEntity
  8
RUNDUNGEN
100
AcDbLine
 62
7
  6
CONTINUOUS
 10
334.7945329154
 20
49.3061335223
 11
334.8165821992
 21
49.4861919011
  0
LINE
  5
38C
100
AcDbEntity
  8
RUNDUNGEN
100
AcDbLine
 62
7
  6
CONTINUOUS
 10
334.7723691031
 20
49.1339849746
 11
334.7945329154
 21
49.3061335223
  0
LWPOLYLINE
  5
38D
100
AcDbEntity
  8
RUNDUNGEN
100
AcDbPolyline
 62
7
  6
CONTINUOUS
 90
10
 70
0
 10
334.6206967979
 20
48.1961487713
 10
334.6337345099
 20
48.2626967832
 10
334.6563770672
 20
48.3834663909
 10
334.6760283259
 20
48.4941761064
 10
334.6932885514
 20
48.5964049977
 10
334.7088005724
 20
48.6925803117
 10
334.7231868792
 20
48.7856404685
 10
334.7365554967
 20
48.8756302301
 10
334.7491207682
 20
48.9634048641
 10
334.7723691031
 20
49.1339849746
  0
LINE
  5
38E
100
AcDbEntity
  8
0
100
AcDbLine
 62
7
  6
CONTINUOUS
 10
328.2411642393
 20
15.9987142148
 11
330.3696682085
 21
26.7762295162
  0
LINE
  5
38F
100
AcDbEntity
  8
0
100
AcDbLine
 62
7
  6
CONTINUOUS
 10
330.3696682085
 20
26.7762295162
 11
332.2976627513
 21
36.5088734396
  0
LINE
  5
390
100
AcDbEntity
  8
0
100
AcDbLine
 62
7
  6
CONTINUOUS
 10
332.2976627513
 20
36.5088734396
 11
334.6209068735
 21
48.1972068455
  0
LWPOLYLINE
  5
391
100
AcDbEntity
  8
RUNDUNGEN
100
AcDbPolyline
 62
7
  6
CONTINUOUS
 90
6
 70
0
 10
328.0426530545
 20
15.176355545
 10
328.0885762034
 20
15.339603597
 10
328.141195268
 20
15.5440314899
 10
328.1849674493
 20
15.731090088
 10
328.2227963032
 20
15.9075000953
 10
328.2408099952
 20
15.996919216
  0
LINE
  5
392
100
AcDbEntity
  8
RUNDUNGEN
100
AcDbLine
 62
7
  6
CONTINUOUS
 10
328.0426530545
 20
15.176355545
 11
328.0430267787
 21
15.1776337072
  0
LINE
  5
393
100
AcDbEntity
  8
BEZUGSACHSEN
100
AcDbLine
 62
7
  6
CONTINUOUS
 10
298.5819159805
 20
205.4409006413
 11
290.4245824845
 21
213.5982341373
  0
LWPOLYLINE
  5
394
100
AcDbEntity
  8
BEZUGSACHSEN
100
AcDbPolyline
 62
7
  6
CONTINUOUS
 90
13
 70
0
 10
298.5819445234
 20
205.4408721012
 10
298.871788567
 20
205.1314233226
 10
299.1902888634
 20
204.7392661322
 10
299.4767056804
 20
204.3269423556
 10
299.7312390677
 20
203.8961340771
 10
299.9535881696
 20
203.4485907716
 10
300.1432601902
 20
202.9857560794
 10
300.2995168242
 20
202.5087697787
 10
300.4210024457
 20
202.0198254415
 10
300.5062947191
 20
201.5210274377
 10
300.5538262418
 20
201.014290122
 10
300.5617386396
 20
200.501669341
 10
300.5354780115
 20
200.0609344003
  0
LINE
  5
395
100
AcDbEntity
  8
RUNDUNGEN
100
AcDbLine
 62
7
  6
CONTINUOUS
 10
344.2902436866
 20
231.6966744825
 11
340.1299900797
 21
238.9024451021
  0
LINE
  5
396
100
AcDbEntity
  8
BEZUGSACHSEN
100
AcDbLine
 62
7
  6
CONTINUOUS
 10
317.460116575
 20
284.0627000468
 11
316.460116575
 21
284.0627000468
  0
ARC
  5
397
100
AcDbEntity
  8
RUNDUNGEN
100
AcDbCircle
 62
7
  6
CONTINUOUS
 10
127.5438383896
 20
111.0627000468
 40
90.0
100
AcDbArc
 50
275.9377724516
 51
313.0238917143
  0
ARC
  5
398
100
AcDbEntity
  8
RUNDUNGEN
100
AcDbCircle
 62
7
  6
CONTINUOUS
 10
127.5438383896
 20
111.0627000468
 40
70.0571831342
100
AcDbArc
 50
277.0763102095
 51
312.6465602043
  0
ARC
  5
399
100
AcDbEntity
  8
RUNDUNGEN
100
AcDbCircle
 62
7
  6
CONTINUOUS
 10
127.5438383896
 20
111.0627000468
 40
70.0571831342
100
AcDbArc
 50
202.3534397957
 51
262.9236897905
  0
ARC
  5
39A
100
AcDbEntity
  8
BEZUGSACHSEN
100
AcDbCircle
 62
7
  6
CONTINUOUS
 10
127.5438383896
 20
111.0627000468
 40
51.0
100
AcDbArc
 50
221.8751376274
 51
41.3487901454
  0
ARC
  5
39B
100
AcDbEntity
  8
RUNDUNGEN
100
AcDbCircle
 62
7
  6
CONTINUOUS
 10
127.5438383896
 20
111.0627000468
 40
51.0
100
AcDbArc
 50
221.8
 51
41.800000001
  0
ARC
  5
39C
100
AcDbEntity
  8
BEZUGSACHSEN
100
AcDbCircle
 62
7
  6
CONTINUOUS
 10
40.1283751034
 20
115.0627000468
 40
11.5
100
AcDbArc
 50
41.8
 51
199.7999377431
  0
ARC
  5
39D
100
AcDbEntity
  8
RUNDUNGEN
100
AcDbCircle
 62
7
  6
CONTINUOUS
 10
40.1283751034
 20
115.0627000468
 40
11.5
100
AcDbArc
 50
41.8
 51
199.7999377431
  0
ARC
  5
39E
100
AcDbEntity
  8
RUNDUNGEN
100
AcDbCircle
 62
7
  6
CONTINUOUS
 10
59.9765082712
 20
83.2776697575
 40
3.0
100
AcDbArc
 50
22.3534397957
 51
110.0
  0
ARC
  5
39F
100
AcDbEntity
  8
RUNDUNGEN
100
AcDbCircle
 62
7
  6
CONTINUOUS
 10
54.6769660725
 20
81.3487941419
 40
3.0
100
AcDbArc
 50
110.0
 51
196.1343463195
  0
ARC
  5
3A0
100
AcDbEntity
  8
RUNDUNGEN
100
AcDbCircle
 62
7
  6
CONTINUOUS
 10
118.5438383896
 20
38.5619965502
 40
3.0
100
AcDbArc
 50
0.0
 51
82.9236897905
  0
ARC
  5
3A1
100
AcDbEntity
  8
RUNDUNGEN
100
AcDbCircle
 62
7
  6
CONTINUOUS
 10
118.5438383896
 20
24.7161992651
 40
3.0
100
AcDbArc
 50
260.7369978211
 51
360.0
  0
ARC
  5
3A2
100
AcDbEntity
  8
RUNDUNGEN
100
AcDbCircle
 62
7
  6
CONTINUOUS
 10
100.0438383896
 20
233.3381984345
 40
10.0
100
AcDbArc
 50
179.9999999909
 51
221.7998712515
  0
ARC
  5
3A3
100
AcDbEntity
  8
BEZUGSACHSEN
100
AcDbCircle
 62
7
  6
CONTINUOUS
 10
127.5438383896
 20
237.3127000468
 40
7.75
100
AcDbArc
 50
355.9060297913
 51
0.0002830251
  0
ARC
  5
3A4
100
AcDbEntity
  8
RUNDUNGEN
100
AcDbCircle
 62
7
  6
CONTINUOUS
 10
127.5438383896
 20
237.3127000468
 40
7.75
100
AcDbArc
 50
180.0000648425
 51
0.0002830251
  0
ARC
  5
3A5
100
AcDbEntity
  8
RUNDUNGEN
100
AcDbCircle
 62
7
  6
CONTINUOUS
 10
114.7938383896
 20
279.0627000468
 40
5.0
100
AcDbArc
 50
0.0
 51
90.0
  0
CIRCLE
  5
3A6
100
AcDbEntity
  8
BEZUGSACHSEN
100
AcDbCircle
 62
7
  6
CONTINUOUS
 10
103.0438383896
 20
262.5627000468
 40
3.0
  0
ARC
  5
3A7
100
AcDbEntity
  8
BEZUGSACHSEN
100
AcDbCircle
 62
7
  6
CONTINUOUS
 10
131.7435651653
 20
111.8629732711
 40
101.8002732243
100
AcDbArc
 50
267.6356165648
 51
68.9847836349
  0
ARC
  5
3A8
100
AcDbEntity
  8
RUNDUNGEN
100
AcDbCircle
 62
7
  6
CONTINUOUS
 10
131.7435651653
 20
111.8629732711
 40
101.8002732243
100
AcDbArc
 50
267.6356165648
 51
68.9847836349
  0
ARC
  5
3A9
100
AcDbEntity
  8
BEZUGSACHSEN
100
AcDbCircle
 62
7
  6
CONTINUOUS
 10
131.4000609509
 20
103.5436099732
 40
93.4738213492
100
AcDbArc
 50
216.5246243653
 51
267.6356166062
  0
ARC
  5
3AA
100
AcDbEntity
  8
RUNDUNGEN
100
AcDbCircle
 62
7
  6
CONTINUOUS
 10
131.4000609509
 20
103.5436099732
 40
93.4738213492
100
AcDbArc
 50
199.7999950968
 51
267.6356166062
  0
ARC
  5
3AB
100
AcDbEntity
  8
RUNDUNGEN
100
AcDbCircle
 62
7
  6
CONTINUOUS
 10
131.4000609509
 20
103.5436099732
 40
82.8689122093
100
AcDbArc
 50
196.1343463195
 51
260.7369978211
  0
ARC
  5
3AC
100
AcDbEntity
  8
RUNDUNGEN
100
AcDbCircle
 62
7
  6
CONTINUOUS
 10
171.7063534016
 20
111.0627000468
 40
50.0
100
AcDbArc
 50
340.7374816992
 51
19.2625183008
  0
ARC
  5
3AD
100
AcDbEntity
  8
RUNDUNGEN
100
AcDbCircle
 62
7
  6
CONTINUOUS
 10
136.5438383896
 20
38.5619965502
 40
3.0
100
AcDbArc
 50
97.0763102095
 51
180.0
  0
ARC
  5
3AE
100
AcDbEntity
  8
RUNDUNGEN
100
AcDbCircle
 62
7
  6
CONTINUOUS
 10
177.0381746218
 20
57.3257231275
 40
3.0
100
AcDbArc
 50
45.0
 51
132.6465602043
  0
ARC
  5
3AF
100
AcDbEntity
  8
RUNDUNGEN
100
AcDbCircle
 62
7
  6
CONTINUOUS
 10
186.9042226418
 20
47.4596751075
 40
3.0
100
AcDbArc
 50
313.0238917143
 51
45.0
  0
ARC
  5
3B0
100
AcDbEntity
  8
RUNDUNGEN
100
AcDbCircle
 62
7
  6
CONTINUOUS
 10
136.5438383896
 20
24.5294694357
 40
3.0
100
AcDbArc
 50
180.0
 51
275.9377724516
  0
ARC
  5
3B1
100
AcDbEntity
  8
RUNDUNGEN
100
AcDbCircle
 62
7
  6
CONTINUOUS
 10
197.8991782787
 20
57.5178011349
 40
3.0
100
AcDbArc
 50
217.5
 51
322.5
  0
ARC
  5
3B2
100
AcDbEntity
  8
RUNDUNGEN
100
AcDbCircle
 62
7
  6
CONTINUOUS
 10
188.7361937149
 20
69.4592351094
 40
3.0
100
AcDbArc
 50
97.5
 51
217.5
  0
ARC
  5
3B3
100
AcDbEntity
  8
RUNDUNGEN
100
AcDbCircle
 62
7
  6
CONTINUOUS
 10
209.1214966298
 20
72.1430111522
 40
3.0
100
AcDbArc
 50
322.5
 51
97.5
  0
ARC
  5
3B4
100
AcDbEntity
  8
RUNDUNGEN
100
AcDbCircle
 62
7
  6
CONTINUOUS
 10
194.0257282655
 20
94.3627458186
 40
3.0
100
AcDbArc
 50
55.0
 51
160.0
  0
ARC
  5
3B5
100
AcDbEntity
  8
RUNDUNGEN
100
AcDbCircle
 62
7
  6
CONTINUOUS
 10
204.9382561852
 20
86.7217115084
 40
3.0
100
AcDbArc
 50
277.5
 51
55.0
  0
ARC
  5
3B6
100
AcDbEntity
  8
RUNDUNGEN
100
AcDbCircle
 62
7
  6
CONTINUOUS
 10
190.5554287856
 20
84.8281763589
 40
3.0
100
AcDbArc
 50
160.0
 51
277.5
  0
ARC
  5
3B7
100
AcDbEntity
  8
RUNDUNGEN
100
AcDbCircle
 62
7
  6
CONTINUOUS
 10
204.825318457
 20
115.2997536659
 40
3.0
100
AcDbArc
 50
0.0
 51
125.0
  0
ARC
  5
3B8
100
AcDbEntity
  8
RUNDUNGEN
100
AcDbCircle
 62
7
  6
CONTINUOUS
 10
204.825318457
 20
106.8256464278
 40
3.0
100
AcDbArc
 50
235.0
 51
360.0
  0
ARC
  5
3B9
100
AcDbEntity
  8
RUNDUNGEN
100
AcDbCircle
 62
7
  6
CONTINUOUS
 10
198.7741787765
 20
111.0627000468
 40
3.0
100
AcDbArc
 50
125.0
 51
235.0
  0
ARC
  5
3BA
100
AcDbEntity
  8
RUNDUNGEN
100
AcDbCircle
 62
7
  6
CONTINUOUS
 10
208.4018534727
 20
136.811403093
 40
3.0
100
AcDbArc
 50
305.0
 51
77.8
  0
ARC
  5
3BB
100
AcDbEntity
  8
RUNDUNGEN
100
AcDbCircle
 62
7
  6
CONTINUOUS
 10
198.3351968983
 20
129.7626542751
 40
3.0
100
AcDbArc
 50
200.0
 51
305.0
  0
ARC
  5
3BC
100
AcDbEntity
  8
RUNDUNGEN
100
AcDbCircle
 62
7
  6
CONTINUOUS
 10
194.6906872807
 20
139.7758621546
 40
3.0
100
AcDbArc
 50
77.8
 51
200.0
  0
ARC
  5
3BD
100
AcDbEntity
  8
RUNDUNGEN
100
AcDbCircle
 62
7
  6
CONTINUOUS
 10
217.4911762144
 20
127.0627000468
 40
1.5
100
AcDbArc
 50
19.2625183008
 51
90.0
  0
ARC
  5
3BE
100
AcDbEntity
  8
RUNDUNGEN
100
AcDbCircle
 62
7
  6
CONTINUOUS
 10
217.4911762144
 20
95.0627000468
 40
1.5
100
AcDbArc
 50
270.0
 51
340.7374816992
  0
ARC
  5
3BF
100
AcDbEntity
  8
RUNDUNGEN
100
AcDbCircle
 62
7
  6
CONTINUOUS
 10
217.0438383896
 20
95.0627000468
 40
1.5
100
AcDbArc
 50
180.0
 51
270.0
  0
ARC
  5
3C0
100
AcDbEntity
  8
RUNDUNGEN
100
AcDbCircle
 62
7
  6
CONTINUOUS
 10
217.0438383896
 20
127.0627000468
 40
1.5
100
AcDbArc
 50
90.0
 51
180.0
  0
ARC
  5
3C1
100
AcDbEntity
  8
RUNDUNGEN
100
AcDbCircle
 62
7
  6
CONTINUOUS
 10
140.2938383896
 20
279.0627000468
 40
5.0
100
AcDbArc
 50
90.0
 51
180.0
  0
ARC
  5
3C2
100
AcDbEntity
  8
RUNDUNGEN
100
AcDbCircle
 62
7
  6
CONTINUOUS
 10
160.0438383896
 20
279.0627000468
 40
5.0
100
AcDbArc
 50
0.0
 51
90.0
  0
ARC
  5
3C3
100
AcDbEntity
  8
RUNDUNGEN
100
AcDbCircle
 62
7
  6
CONTINUOUS
 10
170.0438383896
 20
211.5594440381
 40
4.9999972887
100
AcDbArc
 50
179.9999340183
 51
248.9847601026
  0
ARC
  5
3C4
100
AcDbEntity
  8
BEZUGSACHSEN
100
AcDbCircle
 62
7
  6
CONTINUOUS
 10
170.0438383896
 20
211.5594440381
 40
4.9999972887
100
AcDbArc
 50
179.9999340183
 51
248.9847601026
  0
ARC
  5
3C5
100
AcDbEntity
  8
RUNDUNGEN
100
AcDbCircle
 62
7
  6
CONTINUOUS
 10
191.9357564975
 20
158.0398508237
 40
3.0
100
AcDbArc
 50
132.8
 51
257.8
  0
ARC
  5
3C6
100
AcDbEntity
  8
RUNDUNGEN
100
AcDbCircle
 62
7
  6
CONTINUOUS
 10
201.7144513852
 20
167.0950215751
 40
3.0
100
AcDbArc
 50
27.8
 51
132.8
  0
ARC
  5
3C7
100
AcDbEntity
  8
RUNDUNGEN
100
AcDbCircle
 62
7
  6
CONTINUOUS
 10
208.3610790949
 20
154.488570376
 40
3.0
100
AcDbArc
 50
257.8
 51
27.8
  0
ARC
  5
3C8
100
AcDbEntity
  8
RUNDUNGEN
100
AcDbCircle
 62
7
  6
CONTINUOUS
 10
172.3727553184
 20
185.5627000468
 40
3.0
100
AcDbArc
 50
61.8
 51
90.0
  0
ARC
  5
3C9
100
AcDbEntity
  8
RUNDUNGEN
100
AcDbCircle
 62
7
  6
CONTINUOUS
 10
187.0057941535
 20
177.7165334652
 40
3.0
100
AcDbArc
 50
311.8
 51
61.8
  0
ARC
  5
3CA
100
AcDbEntity
  8
RUNDUNGEN
100
AcDbCircle
 62
7
  6
CONTINUOUS
 10
173.0248352213
 20
165.2161134684
 40
3.0
100
AcDbArc
 50
221.8
 51
311.8
  0
ARC
  5
3CB
100
AcDbEntity
  8
RUNDUNGEN
100
AcDbCircle
 62
7
  6
CONTINUOUS
 10
154.8328872323
 20
185.5627000468
 40
3.0
100
AcDbArc
 50
90.0
 51
221.8
  0
ARC
  5
3CC
100
AcDbEntity
  8
BEZUGSACHSEN
100
AcDbCircle
 62
7
  6
CONTINUOUS
 10
-178.4265842474
 20
63.4170745446
 40
482.4152563978
100
AcDbArc
 50
358.961422657
 51
2.031136433
  0
ARC
  5
3CD
100
AcDbEntity
  8
BEZUGSACHSEN
100
AcDbCircle
 62
7
  6
CONTINUOUS
 10
-170.7754209371
 20
74.9196892745
 40
471.5784918647
100
AcDbArc
 50
358.7177274532
 51
1.15417865
  0
ARC
  5
3CE
100
AcDbEntity
  8
RUNDUNGEN
100
AcDbCircle
 62
7
  6
CONTINUOUS
 10
110.2922843522
 20
253.1853348944
 40
278.037925347
100
AcDbArc
 50
322.5626513654
 51
323.0615960014
  0
ARC
  5
3CF
100
AcDbEntity
  8
BEZUGSACHSEN
100
AcDbCircle
 62
7
  6
CONTINUOUS
 10
316.460116575
 20
262.0627000468
 40
22.0
100
AcDbArc
 50
89.9999765938
 51
179.9999983514
  0
ARC
  5
3D0
100
AcDbEntity
  8
BEZUGSACHSEN
100
AcDbCircle
 62
7
  6
CONTINUOUS
 10
289.460116575
 20
241.402446009
 40
5.0
100
AcDbArc
 50
329.9999879996
 51
0.0000120154
  0
ARC
  5
3D1
100
AcDbEntity
  8
BEZUGSACHSEN
100
AcDbCircle
 62
7
  6
CONTINUOUS
 10
293.960116575
 20
229.1966746431
 40
5.0
100
AcDbArc
 50
150.0000432876
 51
180.0
  0
ARC
  5
3D2
100
AcDbEntity
  8
BEZUGSACHSEN
100
AcDbCircle
 62
7
  6
CONTINUOUS
 10
293.960116575
 20
217.1337678587
 40
5.0
100
AcDbArc
 50
180.0000047456
 51
224.9999970092
  0
ARC
  5
3D3
100
AcDbEntity
  8
RUNDUNGEN
100
AcDbCircle
 62
7
  6
CONTINUOUS
 10
812.3468173973
 20
63.4170745446
 40
482.4152563977
100
AcDbArc
 50
177.968863567
 51
181.038577343
  0
ARC
  5
3D4
100
AcDbEntity
  8
RUNDUNGEN
100
AcDbCircle
 62
7
  6
CONTINUOUS
 10
804.695654087
 20
74.9196892745
 40
471.5784918647
100
AcDbArc
 50
178.84582135
 51
181.2822725468
  0
ARC
  5
3D5
100
AcDbEntity
  8
BEZUGSACHSEN
100
AcDbCircle
 62
7
  6
CONTINUOUS
 10
523.6279487941
 20
253.1853348916
 40
278.0379253423
100
AcDbArc
 50
216.9384039986
 51
217.4373486346
  0
ARC
  5
3D6
100
AcDbEntity
  8
RUNDUNGEN
100
AcDbCircle
 62
7
  6
CONTINUOUS
 10
317.460116575
 20
262.0627000468
 40
22.0
100
AcDbArc
 50
0.0000016486
 51
90.0000234062
  0
ARC
  5
3D7
100
AcDbEntity
  8
RUNDUNGEN
100
AcDbCircle
 62
7
  6
CONTINUOUS
 10
344.460116575
 20
241.402446009
 40
5.0
100
AcDbArc
 50
179.9999879846
 51
210.0000120004
  0
ARC
  5
3D8
100
AcDbEntity
  8
RUNDUNGEN
100
AcDbCircle
 62
7
  6
CONTINUOUS
 10
339.960116575
 20
217.1337678587
 40
5.0
100
AcDbArc
 50
315.0000029908
 51
359.9999952544
  0
ARC
  5
3D9
100
AcDbEntity
  8
RUNDUNGEN
100
AcDbCircle
 62
7
  6
CONTINUOUS
 10
339.960116575
 20
229.1966746431
 40
5.0
100
AcDbArc
 50
0.0
 51
29.9999567124
  0
SPLINE
  5
3DA
100
AcDbEntity
  8
BEZUGSACHSEN
100
AcDbSpline
 62
7
  6
CONTINUOUS
 70
0
 71
3
 72
11
 73
7
 74
0
 42
0.0000001
 43
0.0000001
 44
0.0000000001
 40
0.0
 40
0.0
 40
0.0
 40
0.0
 40
0.0684838436
 40
0.2549144728
 40
0.5652905538
 40
1.0
 40
1.0
 40
1.0
 40
1.0
 10
304.5980129558
 20
21.7161985904
 30
0.0
 10
304.5989139573
 20
21.7162011033
 30
0.0
 10
304.5993854883
 20
21.7210607322
 30
0.0
 10
304.5993938049
 20
21.727110422
 30
0.0
 10
304.5985218128
 20
21.7401446543
 30
0.0
 10
304.5975493132
 20
21.749634024
 30
0.0
 10
304.5969303908
 20
21.755319674
 30
0.0
  0
SPLINE
  5
3DB
100
AcDbEntity
  8
RUNDUNGEN
100
AcDbSpline
 62
7
  6
CONTINUOUS
 70
0
 71
3
 72
15
 73
11
 74
0
 42
0.0000001
 43
0.0000001
 44
0.0000000001
 40
0.0
 40
0.0
 40
0.0
 40
0.0
 40
0.022740213
 40
0.0512920832
 40
0.1255405893
 40
0.2220468021
 40
0.3399036302
 40
0.4780076173
 40
0.6350682352
 40
1.0
 40
1.0
 40
1.0
 40
1.0
 10
329.3233027592
 20
21.755319674
 30
0.0
 10
329.3503220741
 20
22.003529059
 30
0.0
 10
329.4046843729
 20
22.5640957928
 30
0.0
 10
329.5182985962
 20
23.9378018493
 30
0.0
 10
329.660484323
 20
26.1216168523
 30
0.0
 10
329.8169284584
 20
29.2866479579
 30
0.0
 10
329.954182585
 20
33.1542386415
 30
0.0
 10
330.0569136144
 20
37.6879568101
 30
0.0
 10
330.1318213144
 20
44.9352237452
 30
0.0
 10
330.0842325438
 20
50.6669201721
 30
0.0
 10
330.010813244
 20
54.6730078322
 30
0.0
  0
SPLINE
  5
3DC
100
AcDbEntity
  8
RUNDUNGEN
100
AcDbSpline
 62
7
  6
CONTINUOUS
 70
0
 71
3
 72
11
 73
7
 74
0
 42
0.0000001
 43
0.0000001
 44
0.0000000001
 40
0.0
 40
0.0
 40
0.0
 40
0.0
 40
0.0684838436
 40
0.2549144728
 40
0.5652905538
 40
1.0
 40
1.0
 40
1.0
 40
1.0
 10
329.3222201942
 20
21.7161985904
 30
0.0
 10
329.3213191927
 20
21.7162011033
 30
0.0
 10
329.3208476616
 20
21.7210607322
 30
0.0
 10
329.320839345
 20
21.727110422
 30
0.0
 10
329.3217113371
 20
21.7401446543
 30
0.0
 10
329.3226838367
 20
21.749634024
 30
0.0
 10
329.3233027592
 20
21.755319674
 30
0.0
  0
SPLINE
  5
3DD
100
AcDbEntity
  8
RUNDUNGEN
100
AcDbSpline
 62
7
  6
CONTINUOUS
 70
0
 71
3
 72
13
 73
9
 74
0
 42
0.0000001
 43
0.0000001
 44
0.0000000001
 40
0.0
 40
0.0
 40
0.0
 40
0.0
 40
0.3007176779
 40
0.5906181034
 40
0.7194339551
 40
0.8323039442
 40
0.9264021089
 40
1.0
 40
1.0
 40
1.0
 40
1.0
 10
330.2346557985
 20
80.5151224961
 30
0.0
 10
330.2478697865
 20
80.8938676847
 30
0.0
 10
330.310006019
 20
81.6366726745
 30
0.0
 10
330.4618268224
 20
82.5320292964
 30
0.0
 10
330.6271773084
 20
83.1815561399
 30
0.0
 10
330.7582676553
 20
83.5844175711
 30
0.0
 10
330.8963685526
 20
83.9102494561
 30
0.0
 10
331.0031847385
 20
84.0942121469
 30
0.0
 10
331.0595490664
 20
84.1678720043
 30
0.0
  0
SPLINE
  5
3DE
100
AcDbEntity
  8
RUNDUNGEN
100
AcDbSpline
 62
7
  6
CONTINUOUS
 70
0
 71
3
 72
10
 73
6
 74
0
 42
0.0000001
 43
0.0000001
 44
0.0000000001
 40
0.0
 40
0.0
 40
0.0
 40
0.0
 40
0.3177756875
 40
0.5854148157
 40
1.0
 40
1.0
 40
1.0
 40
1.0
 10
332.523002152
 20
86.0967476199
 30
0.0
 10
332.543631914
 20
86.1242276232
 30
0.0
 10
332.584478261
 20
86.1731084137
 30
0.0
 10
332.664467854
 20
86.2451306514
 30
0.0
 10
332.7371734917
 20
86.2776938042
 30
0.0
 10
332.7820035945
 20
86.277665971
 30
0.0
  0
SPLINE
  5
3DF
100
AcDbEntity
  8
BEZUGSACHSEN
100
AcDbSpline
 62
7
  6
CONTINUOUS
 70
0
 71
3
 72
15
 73
11
 74
0
 42
0.0000001
 43
0.0000001
 44
0.0000000001
 40
0.0
 40
0.0
 40
0.0
 40
0.0
 40
0.022740213
 40
0.0512920832
 40
0.1255405893
 40
0.2220468021
 40
0.3399036302
 40
0.4780076173
 40
0.6350682352
 40
1.0
 40
1.0
 40
1.0
 40
1.0
 10
304.5969303908
 20
21.755319674
 30
0.0
 10
304.5699110758
 20
22.003529059
 30
0.0
 10
304.515548777
 20
22.5640957928
 30
0.0
 10
304.4019345537
 20
23.9378018493
 30
0.0
 10
304.2597488269
 20
26.1216168523
 30
0.0
 10
304.1033046915
 20
29.2866479579
 30
0.0
 10
303.9660505649
 20
33.1542386415
 30
0.0
 10
303.8633195356
 20
37.6879568101
 30
0.0
 10
303.7884118355
 20
44.9352237452
 30
0.0
 10
303.8360006061
 20
50.6669201721
 30
0.0
 10
303.9094199059
 20
54.6730078322
 30
0.0
  0
SPLINE
  5
3E0
100
AcDbEntity
  8
BEZUGSACHSEN
100
AcDbSpline
 62
7
  6
CONTINUOUS
 70
0
 71
3
 72
10
 73
6
 74
0
 42
0.0000001
 43
0.0000001
 44
0.0000000001
 40
0.0
 40
0.0
 40
0.0
 40
0.0
 40
0.3177756875
 40
0.5854148157
 40
1.0
 40
1.0
 40
1.0
 40
1.0
 10
301.3972309979
 20
86.0967476199
 30
0.0
 10
301.376601236
 20
86.1242276232
 30
0.0
 10
301.3357548889
 20
86.1731084137
 30
0.0
 10
301.2557652959
 20
86.2451306514
 30
0.0
 10
301.1830596583
 20
86.2776938042
 30
0.0
 10
301.1382295554
 20
86.277665971
 30
0.0
  0
SPLINE
  5
3E1
100
AcDbEntity
  8
BEZUGSACHSEN
100
AcDbSpline
 62
7
  6
CONTINUOUS
 70
0
 71
3
 72
13
 73
9
 74
0
 42
0.0000001
 43
0.0000001
 44
0.0000000001
 40
0.0
 40
0.0
 40
0.0
 40
0.0
 40
0.3007176779
 40
0.5906181034
 40
0.7194339551
 40
0.8323039442
 40
0.9264021089
 40
1.0
 40
1.0
 40
1.0
 40
1.0
 10
303.6855773515
 20
80.5151224961
 30
0.0
 10
303.6723633634
 20
80.8938676847
 30
0.0
 10
303.6102271309
 20
81.6366726745
 30
0.0
 10
303.4584063275
 20
82.5320292964
 30
0.0
 10
303.2930558415
 20
83.1815561399
 30
0.0
 10
303.1619654947
 20
83.5844175711
 30
0.0
 10
303.0238645973
 20
83.9102494561
 30
0.0
 10
302.9170484114
 20
84.0942121469
 30
0.0
 10
302.8606840835
 20
84.1678720043
 30
0.0
  0
SPLINE
  5
3E2
100
AcDbEntity
  8
RUNDUNGEN
100
AcDbSpline
 62
7
  6
CONTINUOUS
 70
0
 71
3
 72
17
 73
13
 74
0
 42
0.0000001
 43
0.0000001
 44
0.0000000001
 40
0.0
 40
0.0
 40
0.0
 40
0.0
 40
0.0251730616
 40
0.0518423296
 40
0.0820053179
 40
0.1170423298
 40
0.2045927646
 40
0.3175907053
 40
0.4559088946
 40
0.6178039256
 40
0.8004071096
 40
1.0
 40
1.0
 40
1.0
 40
1.0
 10
332.7820035945
 20
86.277665971
 30
0.0
 10
332.7987931259
 20
86.2776555471
 30
0.0
 10
332.8336190339
 20
86.2720276084
 30
0.0
 10
332.8828609157
 20
86.2465959302
 30
0.0
 10
332.9288146314
 20
86.2053077212
 30
0.0
 10
332.9905030966
 20
86.123674222
 30
0.0
 10
333.056451967
 20
85.9794623121
 30
0.0
 10
333.1182394989
 20
85.7617308347
 30
0.0
 10
333.1662103638
 20
85.4899248689
 30
0.0
 10
333.1989839212
 20
85.1693902131
 30
0.0
 10
333.2155485418
 20
84.806720845
 30
0.0
 10
333.2154463774
 20
84.5517223917
 30
0.0
 10
333.2128397877
 20
84.4186265709
 30
0.0
  0
SPLINE
  5
3E3
100
AcDbEntity
  8
BEZUGSACHSEN
100
AcDbSpline
 62
7
  6
CONTINUOUS
 70
0
 71
3
 72
17
 73
13
 74
0
 42
0.0000001
 43
0.0000001
 44
0.0000000001
 40
0.0
 40
0.0
 40
0.0
 40
0.0
 40
0.0251730616
 40
0.0518423296
 40
0.0820053179
 40
0.1170423298
 40
0.2045927646
 40
0.3175907053
 40
0.4559088946
 40
0.6178039256
 40
0.8004071096
 40
1.0
 40
1.0
 40
1.0
 40
1.0
 10
301.1382295554
 20
86.277665971
 30
0.0
 10
301.121440024
 20
86.2776555471
 30
0.0
 10
301.086614116
 20
86.2720276084
 30
0.0
 10
301.0373722342
 20
86.2465959302
 30
0.0
 10
300.9914185185
 20
86.2053077212
 30
0.0
 10
300.9297300534
 20
86.123674222
 30
0.0
 10
300.8637811829
 20
85.9794623121
 30
0.0
 10
300.801993651
 20
85.7617308347
 30
0.0
 10
300.7540227861
 20
85.4899248689
 30
0.0
 10
300.7212492288
 20
85.1693902131
 30
0.0
 10
300.7046846082
 20
84.806720845
 30
0.0
 10
300.7047867726
 20
84.5517223917
 30
0.0
 10
300.7073933622
 20
84.4186265709
 30
0.0
  0
SPLINE
  5
3E4
100
AcDbEntity
  8
RUNDUNGEN
100
AcDbSpline
 62
7
  6
CONTINUOUS
 70
0
 71
3
 72
8
 73
4
 74
0
 42
0.0000001
 43
0.0000001
 44
0.0000000001
 40
0.0
 40
0.0
 40
0.0
 40
0.0
 40
1.0
 40
1.0
 40
1.0
 40
1.0
 10
332.6498491031
 20
38.5619965502
 30
0.0
 10
331.7472160309
 20
33.9466720218
 30
0.0
 10
330.8449692852
 20
29.3312717822
 30
0.0
 10
329.9410485879
 20
24.7161992651
 30
0.0
  0
SPLINE
  5
3E5
100
AcDbEntity
  8
RUNDUNGEN
100
AcDbSpline
 62
7
  6
CONTINUOUS
 70
0
 71
3
 72
13
 73
9
 74
0
 42
0.0000001
 43
0.0000001
 44
0.0000000001
 40
0.0
 40
0.0
 40
0.0
 40
0.0
 40
0.3754553447
 40
0.6731625607
 40
0.7897813441
 40
0.8836026149
 40
0.9538667816
 40
1.0
 40
1.0
 40
1.0
 40
1.0
 10
333.2352544433
 20
64.3667012077
 30
0.0
 10
333.2990452556
 20
61.5102041639
 30
0.0
 10
333.3708914049
 20
56.387637449
 30
0.0
 10
333.354665824
 20
50.3771785306
 30
0.0
 10
333.2990015986
 20
46.510559698
 30
0.0
 10
333.254686093
 20
44.374851717
 30
0.0
 10
333.2144277586
 20
42.7755993895
 30
0.0
 10
333.190164326
 20
41.8901420236
 30
0.0
 10
333.1828375022
 20
41.539145424
 30
0.0
  0
SPLINE
  5
3E6
100
AcDbEntity
  8
RUNDUNGEN
100
AcDbSpline
 62
7
  6
CONTINUOUS
 70
0
 71
3
 72
10
 73
6
 74
0
 42
0.0000001
 43
0.0000001
 44
0.0000000001
 40
0.0
 40
0.0
 40
0.0
 40
0.0
 40
0.6002827809
 40
0.8363502284
 40
1.0
 40
1.0
 40
1.0
 40
1.0
 10
329.9410485879
 20
24.7161992651
 30
0.0
 10
329.8319149949
 20
24.1590049815
 30
0.0
 10
329.6784854615
 20
23.3829480759
 30
0.0
 10
329.4897213021
 20
22.4561263731
 30
0.0
 10
329.4121490163
 20
22.086077626
 30
0.0
 10
329.37849648
 20
21.9349909031
 30
0.0
  0
SPLINE
  5
3E7
100
AcDbEntity
  8
RUNDUNGEN
100
AcDbSpline
 62
7
  6
CONTINUOUS
 70
0
 71
3
 72
14
 73
10
 74
0
 42
0.0000001
 43
0.0000001
 44
0.0000000001
 40
0.0
 40
0.0
 40
0.0
 40
0.0
 40
0.430197909
 40
0.6010720172
 40
0.7418977352
 40
0.8523070242
 40
0.9320148109
 40
0.9809950397
 40
1.0
 40
1.0
 40
1.0
 40
1.0
 10
329.37849648
 20
21.9349909031
 30
0.0
 10
329.371440044
 20
21.9033102656
 30
0.0
 10
329.3614475975
 20
21.8590419015
 30
0.0
 10
329.348504164
 20
21.8046571864
 30
0.0
 10
329.3408576489
 20
21.7735903759
 30
0.0
 10
329.3344373223
 20
21.7498527296
 30
0.0
 10
329.3295156278
 20
21.7315946301
 30
0.0
 10
329.3256744432
 20
21.7227543112
 30
0.0
 10
329.323654049
 20
21.7161945913
 30
0.0
 10
329.3222201942
 20
21.7161985904
 30
0.0
  0
SPLINE
  5
3E8
100
AcDbEntity
  8
RUNDUNGEN
100
AcDbSpline
 62
7
  6
CONTINUOUS
 70
0
 71
3
 72
15
 73
11
 74
0
 42
0.0000001
 43
0.0000001
 44
0.0000000001
 40
0.0
 40
0.0
 40
0.0
 40
0.0
 40
0.0152699738
 40
0.0387219331
 40
0.1093003561
 40
0.2092126332
 40
0.3348733647
 40
0.4818954505
 40
0.6453307236
 40
1.0
 40
1.0
 40
1.0
 40
1.0
 10
333.1828375022
 20
41.539145424
 30
0.0
 10
333.1825161529
 20
41.523750964
 30
0.0
 10
333.1790721359
 20
41.4848069436
 30
0.0
 10
333.1658346631
 20
41.375411276
 30
0.0
 10
333.1360309887
 20
41.18207032
 30
0.0
 10
333.086637717
 20
40.8875710575
 30
0.0
 10
333.0209182541
 20
40.517635992
 30
0.0
 10
332.9415208078
 20
40.0850950801
 30
0.0
 10
332.8175721549
 20
39.4259500258
 30
0.0
 10
332.7184931077
 20
38.9129856377
 30
0.0
 10
332.6498491031
 20
38.5619965502
 30
0.0
  0
SPLINE
  5
3E9
100
AcDbEntity
  8
BEZUGSACHSEN
100
AcDbSpline
 62
7
  6
CONTINUOUS
 70
0
 71
3
 72
13
 73
9
 74
0
 42
0.0000001
 43
0.0000001
 44
0.0000000001
 40
0.0
 40
0.0
 40
0.0
 40
0.0
 40
0.3754553447
 40
0.6731625607
 40
0.7897813441
 40
0.8836026149
 40
0.9538667816
 40
1.0
 40
1.0
 40
1.0
 40
1.0
 10
300.6849787067
 20
64.3667012077
 30
0.0
 10
300.6211878944
 20
61.5102041639
 30
0.0
 10
300.549341745
 20
56.387637449
 30
0.0
 10
300.565567326
 20
50.3771785306
 30
0.0
 10
300.6212315513
 20
46.510559698
 30
0.0
 10
300.6655470569
 20
44.374851717
 30
0.0
 10
300.7058053913
 20
42.7755993895
 30
0.0
 10
300.7300688239
 20
41.8901420236
 30
0.0
 10
300.7373956478
 20
41.539145424
 30
0.0
  0
SPLINE
  5
3EA
100
AcDbEntity
  8
BEZUGSACHSEN
100
AcDbSpline
 62
7
  6
CONTINUOUS
 70
0
 71
3
 72
8
 73
4
 74
0
 42
0.0000001
 43
0.0000001
 44
0.0000000001
 40
0.0
 40
0.0
 40
0.0
 40
0.0
 40
1.0
 40
1.0
 40
1.0
 40
1.0
 10
301.2703840468
 20
38.5619965502
 30
0.0
 10
302.1730171191
 20
33.9466720218
 30
0.0
 10
303.0752638647
 20
29.3312717822
 30
0.0
 10
303.9791845621
 20
24.7161992651
 30
0.0
  0
SPLINE
  5
3EB
100
AcDbEntity
  8
BEZUGSACHSEN
100
AcDbSpline
 62
7
  6
CONTINUOUS
 70
0
 71
3
 72
15
 73
11
 74
0
 42
0.0000001
 43
0.0000001
 44
0.0000000001
 40
0.0
 40
0.0
 40
0.0
 40
0.0
 40
0.0152699738
 40
0.0387219331
 40
0.1093003561
 40
0.2092126332
 40
0.3348733647
 40
0.4818954505
 40
0.6453307236
 40
1.0
 40
1.0
 40
1.0
 40
1.0
 10
300.7373956478
 20
41.539145424
 30
0.0
 10
300.737716997
 20
41.523750964
 30
0.0
 10
300.7411610141
 20
41.4848069436
 30
0.0
 10
300.7543984868
 20
41.375411276
 30
0.0
 10
300.7842021612
 20
41.18207032
 30
0.0
 10
300.833595433
 20
40.8875710575
 30
0.0
 10
300.8993148958
 20
40.517635992
 30
0.0
 10
300.9787123422
 20
40.0850950801
 30
0.0
 10
301.1026609951
 20
39.4259500258
 30
0.0
 10
301.2017400422
 20
38.9129856377
 30
0.0
 10
301.2703840468
 20
38.5619965502
 30
0.0
  0
SPLINE
  5
3EC
100
AcDbEntity
  8
BEZUGSACHSEN
100
AcDbSpline
 62
7
  6
CONTINUOUS
 70
0
 71
3
 72
10
 73
6
 74
0
 42
0.0000001
 43
0.0000001
 44
0.0000000001
 40
0.0
 40
0.0
 40
0.0
 40
0.0
 40
0.6002827809
 40
0.8363502284
 40
1.0
 40
1.0
 40
1.0
 40
1.0
 10
303.9791845621
 20
24.7161992651
 30
0.0
 10
304.088318155
 20
24.1590049815
 30
0.0
 10
304.2417476884
 20
23.3829480759
 30
0.0
 10
304.4305118479
 20
22.4561263731
 30
0.0
 10
304.5080841337
 20
22.086077626
 30
0.0
 10
304.5417366699
 20
21.9349909031
 30
0.0
  0
SPLINE
  5
3ED
100
AcDbEntity
  8
BEZUGSACHSEN
100
AcDbSpline
 62
7
  6
CONTINUOUS
 70
0
 71
3
 72
14
 73
10
 74
0
 42
0.0000001
 43
0.0000001
 44
0.0000000001
 40
0.0
 40
0.0
 40
0.0
 40
0.0
 40
0.430197909
 40
0.6010720172
 40
0.7418977352
 40
0.8523070242
 40
0.9320148109
 40
0.9809950397
 40
1.0
 40
1.0
 40
1.0
 40
1.0
 10
304.5417366699
 20
21.9349909031
 30
0.0
 10
304.548793106
 20
21.9033102656
 30
0.0
 10
304.5587855524
 20
21.8590419015
 30
0.0
 10
304.5717289859
 20
21.8046571864
 30
0.0
 10
304.5793755011
 20
21.7735903759
 30
0.0
 10
304.5857958276
 20
21.7498527296
 30
0.0
 10
304.5907175222
 20
21.7315946301
 30
0.0
 10
304.5945587067
 20
21.7227543112
 30
0.0
 10
304.5965791009
 20
21.7161945913
 30
0.0
 10
304.5980129558
 20
21.7161985904
 30
0.0
  0
ENDSEC
  0
SECTION
  2
OBJECTS
  0
DICTIONARY
  5
C
100
AcDbDictionary
280
0
281
1
  3
ACAD_GROUP
350
D
  3
ACAD_MLINESTYLE
350
17
  3
ACAD_LAYOUT
350
1A
  3
ACAD_PLOTSETTINGS
350
19
  3
ACAD_PLOTSTYLENAME
350
E
  0
DICTIONARY
  5
D
102
{ACAD_REACTORS
330
C
102
}
100
AcDbDictionary
280
0
281
1
  0
ACDBDICTIONARYWDFLT
  5
E
102
{ACAD_REACTORS
330
C
102
}
100
AcDbDictionary
281
1
  3
Normal
350
F
100
AcDbDictionaryWithDefault
340
F
  0
DICTIONARY
  5
17
102
{ACAD_REACTORS
330
C
102
}
100
AcDbDictionary
280
0
281
1
  3
Standard
350
18
  0
DICTIONARY
  5
19
102
{ACAD_REACTORS
330
C
102
}
100
AcDbDictionary
281
1
  0
DICTIONARY
  5
1A
102
{ACAD_REACTORS
330
C
102
}
100
AcDbDictionary
281
1
  3
Model
350
3EE
  3
Layout1
350
3EF
  0
ACDBPLACEHOLDER
  5
F
102
{ACAD_REACTORS
330
E
102
}
  0
MLINESTYLE
  5
18
102
{ACAD_REACTORS
330
17
102
}
100
AcDbMlineStyle
  2
STANDARD
 70
0
  3

 62
256
 51
90.0
 52
90.0
 71
2
 49
0.5
 62
256
  6
BYLAYER
 49
-0.5
 62
256
  6
BYLAYER
  0
LAYOUT
  5
3EE
102
{ACAD_REACTORS
330
1A
102
}
100
AcDbPlotSettings
  1

  2
none_device
  4
ISO_A3_(420.00_x_297.00_MM)
  6

 40
0.0
 41
0.0
 42
0.0
 43
0.0
 44
420.0
 45
297.0
 46
0.0
 47
0.0
 48
0.0
 49
0.0
140
0.0
141
0.0
142
1.0
143
1.0
 70
1024
 72
1
 73
0
 74
0
  7

 75
0
147
1.0
148
0.0
149
0.0
100
AcDbLayout
  1
Model
 70
0
 71
0
 10
0.0
 20
0.0
 11
420.0
 21
297.0
 12
0.0
 22
0.0
 32
0.0
 14
0.0
 24
0.0
 34
0.0
 15
0.0
 25
0.0
 35
0.0
146
0.0
 13
0.0
 23
0.0
 33
0.0
 16
1.0
 26
0.0
 36
0.0
 17
0.0
 27
1.0
 37
0.0
 76
0
330
209
345
0
346
0
  0
LAYOUT
  5
3EF
102
{ACAD_REACTORS
330
1A
102
}
100
AcDbPlotSettings
  1

  2
none_device
  4
ISO_A3_(420.00_x_297.00_MM)
  6

 40
0.0
 41
0.0
 42
0.0
 43
0.0
 44
420.0
 45
297.0
 46
0.0
 47
0.0
 48
0.0
 49
0.0
140
0.0
141
0.0
142
1.0
143
1.0
 70
0
 72
1
 73
0
 74
0
  7

 75
0
147
1.0
148
0.0
149
0.0
100
AcDbLayout
  1
Layout1
 70
0
 71
1
 10
0.0
 20
0.0
 11
420.0
 21
297.0
 12
0.0
 22
0.0
 32
0.0
 14
0.0
 24
0.0
 34
0.0
 15
0.0
 25
0.0
 35
0.0
146
0.0
 13
0.0
 23
0.0
 33
0.0
 16
1.0
 26
0.0
 36
0.0
 17
0.0
 27
1.0
 37
0.0
 76
0
330
20A
345
0
346
0
  0
ENDSEC
  0
EOF
