999
DXF file: IWH-10_7903847_M34720-P-4.dxf
999
Pro/ENGINEER 2010140 by Parametric Technology Corporation
  0
SECTION
  2
HEADER
  9
$ACADVER
  1
AC1015
  9
$DWGCODEPAGE
  3
ANSI_1252
  9
$EXTMAX
 10
420.0
 20
297.0
 30
0.0
  9
$EXTMIN
 10
0.0
 20
0.0
 30
0.0
  9
$LIMMIN
 10
0.0
 20
0.0
  9
$LIMMAX
 10
420.0
 20
297.0
  9
$VIEWCTR
 10
210.0
 20
148.5
  9
$VIEWSIZE
 40
297.0
  9
$CLAYER
  8
0
  9
$LTSCALE
 40
23.1
  9
$CELTYPE
  6
BYLAYER
  9
$DIMSCALE
 40
1.0
  9
$DIMASZ
 40
3.5
  9
$DIMEXO
 40
2.625
  9
$DIMDLI
 40
15.96
  9
$DIMEXE
 40
7.56
  9
$DIMCEN
 40
3.78
  9
$DIMLFAC
 40
1.0
  9
$DIMBLK
  1
_FILLED
  9
$DIMTXT
 40
3.5
  9
$DIMTOL
 70
1
  9
$DIMLIM
 70
0
  9
$DIMTFAC
 40
1.0
  9
$DIMTP
 40
0.005
  9
$DIMTM
 40
0.005
  9
$PDMODE
 70
3
  9
$PDSIZE
 40
0.3125
  9
$HANDSEED
  5
415
  9
$TILEMODE
 70
1
  9
$MEASUREMENT
 70
1
  9
$INSUNITS
 70
4
  0
ENDSEC
  0
SECTION
  2
CLASSES
  0
CLASS
  1
ACDBDICTIONARYWDFLT
  2
AcDbDictionaryWithDefault
  3
AutoCAD 2000
 90
0
280
0
281
0
  0
CLASS
  1
ACDBPLACEHOLDER
  2
AcDbPlaceHolder
  3
AutoCAD 2000
 90
0
280
0
281
0
  0
CLASS
  1
LAYOUT
  2
AcDbLayout
  3
AutoCAD 2000
 90
0
280
0
281
0
  0
ENDSEC
  0
SECTION
  2
TABLES
  0
TABLE
  2
VPORT
  5
8
100
AcDbSymbolTable
 70
2
  0
VPORT
  5
1F4
100
AcDbSymbolTableRecord
100
AcDbViewportTableRecord
  2
*ACTIVE
 70
0
 10
0.0
 20
0.0
 11
1.0
 21
1.0
 12
210.0
 22
148.5
 13
0.0
 23
0.0
 14
1.0
 24
1.0
 15
0.0
 25
0.0
 16
0.0
 26
0.0
 36
1.0
 17
0.0
 27
0.0
 37
0.0
 40
297.0
 41
1.4141414141
 42
50.0
 43
0.0
 44
0.0
 50
0.0
 51
0.0
 71
0
 72
100
 73
1
 74
1
 75
0
 76
0
 77
0
 78
0
  0
ENDTAB
  0
TABLE
  2
LTYPE
  5
5
100
AcDbSymbolTable
 70
6
  0
LTYPE
  5
14
100
AcDbSymbolTableRecord
100
AcDbLinetypeTableRecord
  2
BYBLOCK
 70
0
  3

 72
65
 73
0
 40
0.0
  0
LTYPE
  5
15
100
AcDbSymbolTableRecord
100
AcDbLinetypeTableRecord
  2
BYLAYER
 70
0
  3

 72
65
 73
0
 40
0.0
  0
LTYPE
  5
16
100
AcDbSymbolTableRecord
100
AcDbLinetypeTableRecord
  2
CONTINUOUS
 70
64
  3
Solid line
 72
65
 73
0
 40
0.0
  0
LTYPE
  5
1F5
100
AcDbSymbolTableRecord
100
AcDbLinetypeTableRecord
  2
CENTER
 70
64
  3
____ _ ____ _ ____ _ ____ _ ____ _ ____ _ ____
 72
65
 73
4
 40
0.6
 49
0.375
 74
0
 49
-0.075
 74
0
 49
0.075
 74
0
 49
-0.075
 74
0
  0
LTYPE
  5
1F6
100
AcDbSymbolTableRecord
100
AcDbLinetypeTableRecord
  2
HIDDEN
 70
64
  3
- - - - - - - - - - - - - - - - - - - -
 72
65
 73
2
 40
0.2
 49
0.1
 74
0
 49
-0.1
 74
0
  0
LTYPE
  5
1F7
100
AcDbSymbolTableRecord
100
AcDbLinetypeTableRecord
  2
PHANTOM
 70
64
  3
_____ _ _ _____ _ _ _____ _ _ _____
 72
65
 73
6
 40
0.8
 49
0.45
 74
0
 49
-0.05
 74
0
 49
0.1
 74
0
 49
-0.05
 74
0
 49
0.1
 74
0
 49
-0.05
 74
0
  0
LTYPE
  5
1F8
100
AcDbSymbolTableRecord
100
AcDbLinetypeTableRecord
  2
DOT
 70
64
  3
. . . . . . . . . . . . . . . . . . . .
 72
65
 73
2
 40
0.2
 49
0.1
 74
0
 49
-0.1
 74
0
  0
LTYPE
  5
1F9
100
AcDbSymbolTableRecord
100
AcDbLinetypeTableRecord
  2
DASHED
 70
64
  3
- - - - - - - - - - - - - - - - - - - -
 72
65
 73
2
 40
0.2
 49
0.1
 74
0
 49
-0.1
 74
0
  0
ENDTAB
  0
TABLE
  2
LAYER
  5
2
100
AcDbSymbolTable
 70
36
  0
LAYER
  5
10
100
AcDbSymbolTableRecord
100
AcDbLayerTableRecord
  2
0
 70
0
 62
7
  6
CONTINUOUS
370
-3
390
F
  0
LAYER
  5
1FA
100
AcDbSymbolTableRecord
100
AcDbLayerTableRecord
  2
DEFAULT_1
 70
0
 62
7
  6
CENTER
370
-3
390
F
  0
LAYER
  5
1FB
100
AcDbSymbolTableRecord
100
AcDbLayerTableRecord
  2
DEFAULT_2
 70
0
 62
8
  6
HIDDEN
370
-3
390
F
  0
LAYER
  5
1FC
100
AcDbSymbolTableRecord
100
AcDbLayerTableRecord
  2
DEFAULT_3
 70
0
 62
7
  6
PHANTOM
370
-3
390
F
  0
LAYER
  5
1FD
100
AcDbSymbolTableRecord
100
AcDbLayerTableRecord
  2
BEZUGSACHSEN
 70
0
 62
7
  6
CONTINUOUS
370
-3
390
F
  0
LAYER
  5
1FE
100
AcDbSymbolTableRecord
100
AcDbLayerTableRecord
  2
BEZUGSEBENEN
 70
0
 62
7
  6
CONTINUOUS
370
-3
390
F
  0
LAYER
  5
1FF
100
AcDbSymbolTableRecord
100
AcDbLayerTableRecord
  2
FASEN
 70
0
 62
7
  6
CONTINUOUS
370
-3
390
F
  0
LAYER
  5
200
100
AcDbSymbolTableRecord
100
AcDbLayerTableRecord
  2
FLAECHEN
 70
0
 62
7
  6
CONTINUOUS
370
-3
390
F
  0
LAYER
  5
201
100
AcDbSymbolTableRecord
100
AcDbLayerTableRecord
  2
HILFEN
 70
0
 62
7
  6
CONTINUOUS
370
-3
390
F
  0
LAYER
  5
202
100
AcDbSymbolTableRecord
100
AcDbLayerTableRecord
  2
KURVEN
 70
0
 62
7
  6
CONTINUOUS
370
-3
390
F
  0
LAYER
  5
203
100
AcDbSymbolTableRecord
100
AcDbLayerTableRecord
  2
PLATZIERUNG
 70
0
 62
7
  6
CONTINUOUS
370
-3
390
F
  0
LAYER
  5
204
100
AcDbSymbolTableRecord
100
AcDbLayerTableRecord
  2
RUNDUNGEN
 70
0
 62
7
  6
CONTINUOUS
370
-3
390
F
  0
LAYER
  5
205
100
AcDbSymbolTableRecord
100
AcDbLayerTableRecord
  2
T_STARTBEZUEGE
 70
0
 62
7
  6
CONTINUOUS
370
-3
390
F
  0
LAYER
  5
206
100
AcDbSymbolTableRecord
100
AcDbLayerTableRecord
  2
ZEICHNUNGSBEMASSUNGEN
 70
0
 62
7
  6
CONTINUOUS
370
-3
390
F
  0
ENDTAB
  0
TABLE
  2
STYLE
  5
3
100
AcDbSymbolTable
 70
1
  0
STYLE
  5
11
100
AcDbSymbolTableRecord
100
AcDbTextStyleTableRecord
  2
STANDARD
 70
0
 40
0.0
 41
0.7
 50
0.0
 71
0
 42
0.2
  3
txt
  4

  0
STYLE
  5
207
100
AcDbSymbolTableRecord
100
AcDbTextStyleTableRecord
  2
TEXTSTYLE_1
 70
0
 40
0.0
 41
0.8
 50
0.0
 71
0
 42
0.2
  3
gdt
  4

  0
ENDTAB
  0
TABLE
  2
VIEW
  5
6
100
AcDbSymbolTable
 70
0
  0
ENDTAB
  0
TABLE
  2
UCS
  5
7
100
AcDbSymbolTable
 70
0
  0
ENDTAB
  0
TABLE
  2
APPID
  5
9
100
AcDbSymbolTable
 70
1
  0
APPID
  5
208
100
AcDbSymbolTableRecord
100
AcDbRegAppTableRecord
  2
ACAD
 70
0
  0
ENDTAB
  0
TABLE
  2
BLOCK_RECORD
  5
1
100
AcDbSymbolTable
 70
0
  0
BLOCK_RECORD
  5
209
100
AcDbSymbolTableRecord
100
AcDbBlockTableRecord
  2
*Model_Space
  0
BLOCK_RECORD
  5
20A
100
AcDbSymbolTableRecord
100
AcDbBlockTableRecord
  2
*Paper_Space
  0
ENDTAB
  0
TABLE
  2
DIMSTYLE
  5
A
100
AcDbSymbolTable
 70
1
100
AcDbDimStyleTable
 71
0
  0
DIMSTYLE
105
20B
100
AcDbSymbolTableRecord
100
AcDbDimStyleTableRecord
  2
STANDARD
 70
0
  3

  4

 40
1.0
 41
3.5
 42
0.0625
 43
0.38
 44
0.18
 45
0.0
 46
0.0
 47
0.005
 48
0.005
140
3.5
141
0.09
142
0.0
143
25.4
144
1.0
145
0.0
146
1.0
147
0.09
 71
1.0
 72
0.0
 73
0
 74
0
 75
0
 76
0
 77
1
 78
8
170
0
171
2
172
0
173
0
174
0
175
0
176
0
177
0
178
5
270
2
271
3
272
3
273
2
274
2
275
0
280
0
281
0
282
0
283
1
284
8
285
0
286
0
287
3
288
0
340
11
  0
ENDTAB
  0
ENDSEC
  0
SECTION
  2
BLOCKS
  0
BLOCK
  5
20
100
AcDbEntity
  8
0
100
AcDbBlockBegin
  2
*Model_Space
 70
0
 10
0.0
 20
0.0
 30
0.0
  3
*Model_Space
  1

  0
ENDBLK
  5
21
100
AcDbEntity
  8
0
100
AcDbBlockEnd
  0
BLOCK
  5
1C
100
AcDbEntity
  8
0
100
AcDbBlockBegin
  2
*Paper_Space
 70
0
 10
0.0
 20
0.0
 30
0.0
  3
*Paper_Space
  1

  0
ENDBLK
  5
1D
100
AcDbEntity
  8
0
100
AcDbBlockEnd
  0
ENDSEC
  0
SECTION
  2
ENTITIES
  0
MTEXT
  5
20C
100
AcDbEntity
  8
0
100
AcDbMText
 62
5
  6
CONTINUOUS
  7
STANDARD
 71
1
 72
1
 10
308.039318779
 20
142.4471215312
 30
0.0
 11
0.0
 21
1.0
 31
0.0
 44
0.9
  1
RUD IWH 10
 40
5.5
 41
46.0952380952
  0
LINE
  5
20D
100
AcDbEntity
  8
0
100
AcDbLine
 62
7
  6
CONTINUOUS
 10
0.0
 20
0.0
 11
0.0
 21
297.0
  0
LINE
  5
20E
100
AcDbEntity
  8
0
100
AcDbLine
 62
7
  6
CONTINUOUS
 10
0.0
 20
0.0
 11
420.0
 21
0.0
  0
LINE
  5
20F
100
AcDbEntity
  8
0
100
AcDbLine
 62
7
  6
CONTINUOUS
 10
0.0
 20
297.0
 11
420.0
 21
297.0
  0
LINE
  5
210
100
AcDbEntity
  8
0
100
AcDbLine
 62
7
  6
CONTINUOUS
 10
420.0
 20
0.0
 11
420.0
 21
297.0
  0
LINE
  5
211
100
AcDbEntity
  8
0
100
AcDbLine
 62
7
  6
CONTINUOUS
 10
152.2432131818
 20
45.7716509662
 11
153.0937383058
 21
45.9771552569
  0
LINE
  5
212
100
AcDbEntity
  8
0
100
AcDbLine
 62
7
  6
CONTINUOUS
 10
156.6375908261
 20
46.833422612
 11
157.6298679744
 21
47.0731770952
  0
LINE
  5
213
100
AcDbEntity
  8
0
100
AcDbLine
 62
7
  6
CONTINUOUS
 10
152.3591697671
 20
49.0173302113
 11
154.7689866257
 21
49.5995913229
  0
LINE
  5
214
100
AcDbEntity
  8
0
100
AcDbLine
 62
7
  6
CONTINUOUS
 10
154.842620466
 20
50.5367145754
 11
152.1492930697
 21
49.8859515109
  0
LINE
  5
215
100
AcDbEntity
  8
0
100
AcDbLine
 62
7
  6
CONTINUOUS
 10
160.9202660846
 20
48.3068892338
 11
161.657051907
 21
48.4117995332
  0
LINE
  5
216
100
AcDbEntity
  8
0
100
AcDbLine
 62
7
  6
CONTINUOUS
 10
161.3565805765
 20
49.2533863418
 11
160.7571349549
 21
49.1975105339
  0
LINE
  5
217
100
AcDbEntity
  8
0
100
AcDbLine
 62
7
  6
CONTINUOUS
 10
119.0263232291
 20
48.4396679353
 11
118.4255286953
 21
48.4784877945
  0
LINE
  5
218
100
AcDbEntity
  8
0
100
AcDbLine
 62
7
  6
CONTINUOUS
 10
118.1490940383
 20
47.6287023762
 11
118.8885698937
 21
47.5447695848
  0
LINE
  5
219
100
AcDbEntity
  8
0
100
AcDbLine
 62
7
  6
CONTINUOUS
 10
121.9487426045
 20
46.5129620574
 11
127.086146731
 21
45.4314913734
  0
LINE
  5
21A
100
AcDbEntity
  8
0
100
AcDbLine
 62
7
  6
CONTINUOUS
 10
127.270226847
 20
46.3059431374
 11
122.9890567415
 21
47.2071687074
  0
LINE
  5
21B
100
AcDbEntity
  8
0
100
AcDbLine
 62
7
  6
CONTINUOUS
 10
123.4799370579
 20
49.5390401122
 11
127.1902833939
 21
48.7579781808
  0
LINE
  5
21C
100
AcDbEntity
  8
0
100
AcDbLine
 62
7
  6
CONTINUOUS
 10
127.3743634884
 20
49.6324298427
 11
123.6640171524
 21
50.4134917742
  0
LINE
  5
21D
100
AcDbEntity
  8
0
100
AcDbLine
 62
7
  6
CONTINUOUS
 10
116.9009717021
 20
48.0347157798
 11
118.1490940383
 21
47.6287023762
  0
LINE
  5
21E
100
AcDbEntity
  8
0
100
AcDbLine
 62
7
  6
CONTINUOUS
 10
118.4255286953
 20
48.4784877945
 11
117.1774063591
 21
48.8845011981
  0
LINE
  5
21F
100
AcDbEntity
  8
0
100
AcDbLine
 62
7
  6
CONTINUOUS
 10
120.6434891026
 20
48.6966961189
 11
119.8114075451
 21
48.9673717213
  0
LINE
  5
220
100
AcDbEntity
  8
0
100
AcDbLine
 62
7
  6
CONTINUOUS
 10
120.8710736714
 20
52.2248823095
 11
121.7031552288
 21
51.9542067071
  0
LINE
  5
221
100
AcDbEntity
  8
0
100
AcDbLine
 62
7
  6
CONTINUOUS
 10
102.7451636353
 20
55.6648378502
 11
102.050202073
 21
55.9310948872
  0
LINE
  5
222
100
AcDbEntity
  8
0
100
AcDbLine
 62
7
  6
CONTINUOUS
 10
112.3327233972
 20
49.7403814322
 11
113.1432628435
 21
49.4107592153
  0
LINE
  5
223
100
AcDbEntity
  8
0
100
AcDbLine
 62
7
  6
CONTINUOUS
 10
101.6500056789
 20
55.3030881682
 11
102.467952833
 21
54.958458752
  0
LINE
  5
224
100
AcDbEntity
  8
0
100
AcDbLine
 62
7
  6
CONTINUOUS
 10
116.2536439037
 20
48.4019093365
 11
116.9009717021
 21
48.0347157798
  0
LINE
  5
225
100
AcDbEntity
  8
0
100
AcDbLine
 62
7
  6
CONTINUOUS
 10
117.1774063591
 20
48.8845011981
 11
116.6687598744
 21
49.2065817978
  0
LINE
  5
226
100
AcDbEntity
  8
0
100
AcDbLine
 62
7
  6
CONTINUOUS
 10
97.3792891062
 20
58.2562558351
 11
98.0797473957
 21
57.7318674441
  0
LINE
  5
227
100
AcDbEntity
  8
0
100
AcDbLine
 62
7
  6
CONTINUOUS
 10
100.992137074
 20
55.8989202587
 11
101.6500056789
 21
55.3030881682
  0
LINE
  5
228
100
AcDbEntity
  8
0
100
AcDbLine
 62
7
  6
CONTINUOUS
 10
102.050202073
 20
55.9310948872
 11
101.5153190461
 21
56.4485545766
  0
LINE
  5
229
100
AcDbEntity
  8
0
100
AcDbLine
 62
7
  6
CONTINUOUS
 10
85.6017541445
 20
69.370021418
 11
86.1887076331
 21
68.7210910656
  0
LINE
  5
22A
100
AcDbEntity
  8
0
100
AcDbLine
 62
7
  6
CONTINUOUS
 10
88.9278240995
 20
65.6927492146
 11
89.514777588
 21
65.0438188622
  0
LINE
  5
22B
100
AcDbEntity
  8
0
100
AcDbLine
 62
7
  6
CONTINUOUS
 10
88.6187447172
 20
70.9190445724
 11
91.3578611836
 21
67.8907027215
  0
LINE
  5
22C
100
AcDbEntity
  8
0
100
AcDbLine
 62
7
  6
CONTINUOUS
 10
80.951024787
 20
75.7046717441
 11
81.6222172589
 21
74.7504120234
  0
LINE
  5
22D
100
AcDbEntity
  8
0
100
AcDbLine
 62
7
  6
CONTINUOUS
 10
82.9646022028
 20
72.841892582
 11
83.6357947947
 21
71.8876326907
  0
LINE
  5
22E
100
AcDbEntity
  8
0
100
AcDbLine
 62
7
  6
CONTINUOUS
 10
78.9988216659
 20
78.9489271863
 11
79.4416579123
 21
78.1942609959
  0
LINE
  5
22F
100
AcDbEntity
  8
RUNDUNGEN
100
AcDbLine
 62
7
  6
CONTINUOUS
 10
66.4834208882
 20
80.7688908915
 11
52.8615627815
 21
118.6050573318
  0
LINE
  5
230
100
AcDbEntity
  8
0
100
AcDbLine
 62
7
  6
CONTINUOUS
 10
167.007689143
 20
58.1331582366
 11
166.2865409488
 21
57.9492974277
  0
LINE
  5
231
100
AcDbEntity
  8
0
100
AcDbLine
 62
7
  6
CONTINUOUS
 10
151.6246012283
 20
52.0575051657
 11
154.3179286246
 21
52.7082682301
  0
LINE
  5
232
100
AcDbEntity
  8
0
100
AcDbLine
 62
7
  6
CONTINUOUS
 10
154.0012793525
 20
53.3978691207
 11
150.5991788565
 21
52.5758519581
  0
LINE
  5
233
100
AcDbEntity
  8
0
100
AcDbLine
 62
7
  6
CONTINUOUS
 10
166.6761363741
 20
57.1450794256
 11
167.2660426452
 21
57.2653613881
  0
LINE
  5
234
100
AcDbEntity
  8
0
100
AcDbLine
 62
7
  6
CONTINUOUS
 10
118.8885698937
 20
47.5447695848
 11
119.535433703
 21
47.6475816818
  0
LINE
  5
235
100
AcDbEntity
  8
0
100
AcDbLine
 62
7
  6
CONTINUOUS
 10
118.3269038438
 20
54.7753000108
 11
117.6800368725
 21
54.6724889836
  0
LINE
  5
236
100
AcDbEntity
  8
0
100
AcDbLine
 62
7
  6
CONTINUOUS
 10
154.7450254127
 20
53.4243514344
 11
154.0012793525
 21
53.3978691207
  0
LINE
  5
237
100
AcDbEntity
  8
0
100
AcDbLine
 62
7
  6
CONTINUOUS
 10
103.2741961103
 20
55.680925126
 11
102.7451636353
 21
55.6648378502
  0
LINE
  5
238
100
AcDbEntity
  8
0
100
AcDbLine
 62
7
  6
CONTINUOUS
 10
103.7876613303
 20
60.8285143342
 11
104.3166938053
 21
60.8446016099
  0
LINE
  5
239
100
AcDbEntity
  8
0
100
AcDbLine
 62
7
  6
CONTINUOUS
 10
102.467952833
 20
54.958458752
 11
103.3229929515
 21
54.9434044005
  0
LINE
  5
23A
100
AcDbEntity
  8
0
100
AcDbLine
 62
7
  6
CONTINUOUS
 10
104.5939045586
 20
61.5509806312
 11
103.7388644611
 21
61.5660350157
  0
LINE
  5
23B
100
AcDbEntity
  8
0
100
AcDbLine
 62
7
  6
CONTINUOUS
 10
167.6625339929
 20
58.1194067758
 11
167.007689143
 21
58.1331582366
  0
LINE
  5
23C
100
AcDbEntity
  8
0
100
AcDbLine
 62
7
  6
CONTINUOUS
 10
118.1891505366
 20
53.8804017472
 11
118.7899418963
 21
53.8415829204
  0
LINE
  5
23D
100
AcDbEntity
  8
0
100
AcDbLine
 62
7
  6
CONTINUOUS
 10
154.3179286246
 20
52.7082682301
 11
154.7781706361
 21
52.6662501588
  0
LINE
  5
23E
100
AcDbEntity
  8
0
100
AcDbLine
 62
7
  6
CONTINUOUS
 10
119.0663765211
 20
54.6913682395
 11
118.3269038438
 21
54.7753000108
  0
LINE
  5
23F
100
AcDbEntity
  8
0
100
AcDbLine
 62
7
  6
CONTINUOUS
 10
160.2707356136
 20
48.3912756698
 11
160.9202660846
 21
48.3068892338
  0
LINE
  5
240
100
AcDbEntity
  8
0
100
AcDbLine
 62
7
  6
CONTINUOUS
 10
167.2660426452
 20
57.2653613881
 11
167.7896395641
 21
57.1880281704
  0
LINE
  5
241
100
AcDbEntity
  8
0
100
AcDbLine
 62
7
  6
CONTINUOUS
 10
124.0628574431
 20
52.3081374501
 11
128.3440275485
 21
51.4069118801
  0
LINE
  5
242
100
AcDbEntity
  8
0
100
AcDbLine
 62
7
  6
CONTINUOUS
 10
128.528107643
 20
52.2813635421
 11
123.3907035165
 21
53.3628342261
  0
LINE
  5
243
100
AcDbEntity
  8
0
100
AcDbLine
 62
7
  6
CONTINUOUS
 10
160.7571349549
 20
49.1975105339
 11
160.2449509453
 21
49.3309337796
  0
LINE
  5
244
100
AcDbEntity
  8
0
100
AcDbLine
 62
7
  6
CONTINUOUS
 10
118.7899418963
 20
53.8415829204
 11
120.0380642325
 21
53.4355695169
  0
LINE
  5
245
100
AcDbEntity
  8
0
100
AcDbLine
 62
7
  6
CONTINUOUS
 10
120.3144988573
 20
54.285354836
 11
119.0663765211
 21
54.6913682395
  0
LINE
  5
246
100
AcDbEntity
  8
0
100
AcDbLine
 62
7
  6
CONTINUOUS
 10
104.3166938053
 20
60.8446016099
 11
105.0116553675
 21
60.5783445729
  0
LINE
  5
247
100
AcDbEntity
  8
0
100
AcDbLine
 62
7
  6
CONTINUOUS
 10
115.7802405792
 20
55.8950747861
 11
114.9697011328
 21
56.224697003
  0
LINE
  5
248
100
AcDbEntity
  8
0
100
AcDbLine
 62
7
  6
CONTINUOUS
 10
105.4118517057
 20
61.206351204
 11
104.5939045586
 21
61.5509806312
  0
LINE
  5
249
100
AcDbEntity
  8
0
100
AcDbLine
 62
7
  6
CONTINUOUS
 10
120.9618298338
 20
53.9181602591
 11
120.3144988573
 21
54.285354836
  0
LINE
  5
24A
100
AcDbEntity
  8
0
100
AcDbLine
 62
7
  6
CONTINUOUS
 10
120.0380642325
 20
53.4355695169
 11
120.5467138914
 21
53.1134878846
  0
LINE
  5
24B
100
AcDbEntity
  8
0
100
AcDbLine
 62
7
  6
CONTINUOUS
 10
102.2748545241
 20
63.3355337601
 11
101.5743962346
 21
63.8599221511
  0
LINE
  5
24C
100
AcDbEntity
  8
0
100
AcDbLine
 62
7
  6
CONTINUOUS
 10
106.0697203175
 20
60.6105191245
 11
105.4118517057
 21
61.206351204
  0
LINE
  5
24D
100
AcDbEntity
  8
0
100
AcDbLine
 62
7
  6
CONTINUOUS
 10
105.0116553675
 20
60.5783445729
 11
105.5465383945
 21
60.0608848835
  0
LINE
  5
24E
100
AcDbEntity
  8
0
100
AcDbLine
 62
7
  6
CONTINUOUS
 10
115.7910666944
 20
48.8656218925
 11
116.2536439037
 21
48.4019093365
  0
LINE
  5
24F
100
AcDbEntity
  8
0
100
AcDbLine
 62
7
  6
CONTINUOUS
 10
121.4244038811
 20
53.4544487728
 11
120.9618298338
 21
53.9181602591
  0
LINE
  5
250
100
AcDbEntity
  8
0
100
AcDbLine
 62
7
  6
CONTINUOUS
 10
92.0205984858
 20
68.4901445106
 11
89.2814820194
 21
71.5184863616
  0
LINE
  5
251
100
AcDbEntity
  8
0
100
AcDbLine
 62
7
  6
CONTINUOUS
 10
94.7062204074
 20
69.7394467705
 11
94.1192669189
 21
70.3883771229
  0
LINE
  5
252
100
AcDbEntity
  8
0
100
AcDbLine
 62
7
  6
CONTINUOUS
 10
91.3801504525
 20
73.4167189738
 11
90.7931969639
 21
74.0656493263
  0
LINE
  5
253
100
AcDbEntity
  8
0
100
AcDbLine
 62
7
  6
CONTINUOUS
 10
116.6687598744
 20
49.2065817978
 11
116.3448640028
 21
49.6251814712
  0
LINE
  5
254
100
AcDbEntity
  8
0
100
AcDbLine
 62
7
  6
CONTINUOUS
 10
120.5467138914
 20
53.1134878846
 11
120.8706097952
 21
52.6948883104
  0
LINE
  5
255
100
AcDbEntity
  8
0
100
AcDbLine
 62
7
  6
CONTINUOUS
 10
90.0325458119
 20
74.9605282122
 11
89.529151428
 21
75.6762230454
  0
LINE
  5
256
100
AcDbEntity
  8
0
100
AcDbLine
 62
7
  6
CONTINUOUS
 10
88.3545646921
 20
77.3461774286
 11
87.6833721002
 21
78.3004373199
  0
LINE
  5
257
100
AcDbEntity
  8
0
100
AcDbLine
 62
7
  6
CONTINUOUS
 10
86.5087852443
 20
79.9703918737
 11
86.0053908604
 21
80.6860867069
  0
LINE
  5
258
100
AcDbEntity
  8
0
100
AcDbLine
 62
7
  6
CONTINUOUS
 10
85.4789874351
 20
81.7369509671
 11
85.0361511887
 21
82.4916171575
  0
LINE
  5
259
100
AcDbEntity
  8
0
100
AcDbLine
 62
7
  6
CONTINUOUS
 10
100.6173326033
 20
56.6675826336
 11
100.992137074
 21
55.8989202587
  0
LINE
  5
25A
100
AcDbEntity
  8
0
100
AcDbLine
 62
7
  6
CONTINUOUS
 10
106.4445248093
 20
59.8418567826
 11
106.0697203175
 21
60.6105191245
  0
LINE
  5
25B
100
AcDbEntity
  8
0
100
AcDbLine
 62
7
  6
CONTINUOUS
 10
101.5153190461
 20
56.4485545766
 11
101.3064436416
 21
56.9348726057
  0
LINE
  5
25C
100
AcDbEntity
  8
0
100
AcDbLine
 62
7
  6
CONTINUOUS
 10
99.5350738775
 20
62.595906278
 11
100.8603355319
 21
62.9061067217
  0
LINE
  5
25D
100
AcDbEntity
  8
0
100
AcDbLine
 62
7
  6
CONTINUOUS
 10
101.5743962346
 20
63.8599221511
 11
100.2491348302
 21
63.5497220414
  0
LINE
  5
25E
100
AcDbEntity
  8
0
100
AcDbLine
 62
7
  6
CONTINUOUS
 10
103.3229929515
 20
54.9434044005
 11
103.9320647221
 21
55.0850930464
  0
LINE
  5
25F
100
AcDbEntity
  8
0
100
AcDbLine
 62
7
  6
CONTINUOUS
 10
103.7388644611
 20
61.5660350157
 11
103.129791311
 21
61.4243473106
  0
LINE
  5
260
100
AcDbEntity
  8
RUNDUNGEN
100
AcDbLine
 62
7
  6
CONTINUOUS
 10
205.5217855907
 20
86.0470409254
 11
190.5894294133
 21
84.0811589398
  0
LINE
  5
261
100
AcDbEntity
  8
0
100
AcDbLine
 62
7
  6
CONTINUOUS
 10
168.4472379766
 20
57.8375797372
 11
167.6625339929
 21
58.1194067758
  0
LINE
  5
262
100
AcDbEntity
  8
0
100
AcDbLine
 62
7
  6
CONTINUOUS
 10
155.4169848367
 20
53.1270446902
 11
154.7450254127
 21
53.4243514344
  0
LINE
  5
263
100
AcDbEntity
  8
0
100
AcDbLine
 62
7
  6
CONTINUOUS
 10
159.5210543268
 20
48.7561932662
 11
160.2707356136
 21
48.3912756698
  0
LINE
  5
264
100
AcDbEntity
  8
0
100
AcDbLine
 62
7
  6
CONTINUOUS
 10
154.7781706361
 20
52.6662501588
 11
155.1316400729
 21
52.4452116785
  0
LINE
  5
265
100
AcDbEntity
  8
0
100
AcDbLine
 62
7
  6
CONTINUOUS
 10
160.2449509453
 20
49.3309337796
 11
159.8200286179
 21
49.6536558827
  0
LINE
  5
266
100
AcDbEntity
  8
RUNDUNGEN
100
AcDbLine
 62
7
  6
CONTINUOUS
 10
69.7251453361
 20
128.6577199384
 11
105.184639386
 21
88.9984340747
  0
LINE
  5
267
100
AcDbEntity
  8
0
100
AcDbLine
 62
7
  6
CONTINUOUS
 10
115.4206375382
 20
49.6125952014
 11
115.7910666944
 21
48.8656218925
  0
LINE
  5
268
100
AcDbEntity
  8
0
100
AcDbLine
 62
7
  6
CONTINUOUS
 10
121.7948362276
 20
52.707474481
 11
121.4244038811
 21
53.4544487728
  0
LINE
  5
269
100
AcDbEntity
  8
0
100
AcDbLine
 62
7
  6
CONTINUOUS
 10
105.5465383945
 20
60.0608848835
 11
105.755413799
 21
59.5745668544
  0
LINE
  5
26A
100
AcDbEntity
  8
0
100
AcDbLine
 62
7
  6
CONTINUOUS
 10
100.488495087
 20
57.2795029298
 11
100.6173326033
 21
56.6675826336
  0
LINE
  5
26B
100
AcDbEntity
  8
0
100
AcDbLine
 62
7
  6
CONTINUOUS
 10
106.5733609461
 20
59.2299374273
 11
106.4445248093
 21
59.8418567826
  0
LINE
  5
26C
100
AcDbEntity
  8
0
100
AcDbLine
 62
7
  6
CONTINUOUS
 10
101.3064436416
 20
56.9348726057
 11
101.2947397788
 21
58.0019684178
  0
LINE
  5
26D
100
AcDbEntity
  8
0
100
AcDbLine
 62
7
  6
CONTINUOUS
 10
105.755413799
 20
59.5745668544
 11
105.7671174937
 21
58.5074707784
  0
LINE
  5
26E
100
AcDbEntity
  8
RUNDUNGEN
100
AcDbLine
 62
7
  6
CONTINUOUS
 10
106.7310593717
 20
226.114663687
 11
106.7310593717
 21
248.2423952359
  0
LINE
  5
26F
100
AcDbEntity
  8
BEZUGSACHSEN
100
AcDbLine
 62
7
  6
CONTINUOUS
 10
106.7310593717
 20
229.8321411981
 11
106.7310593717
 21
261.506076987
  0
LINE
  5
270
100
AcDbEntity
  8
BEZUGSACHSEN
100
AcDbLine
 62
7
  6
CONTINUOUS
 10
106.7443921248
 20
261.870132688
 11
106.7310593717
 21
261.5062585217
  0
LINE
  5
271
100
AcDbEntity
  8
0
100
AcDbLine
 62
7
  6
CONTINUOUS
 10
100.5626838587
 20
57.9386513091
 11
100.488495087
 21
57.2795029298
  0
LINE
  5
272
100
AcDbEntity
  8
RUNDUNGEN
100
AcDbLine
 62
7
  6
CONTINUOUS
 10
193.5023089177
 20
93.542307447
 11
202.2150588878
 21
94.6893627414
  0
LINE
  5
273
100
AcDbEntity
  8
0
100
AcDbLine
 62
7
  6
CONTINUOUS
 10
167.7896395641
 20
57.1880281704
 11
168.2469273127
 21
56.9130793972
  0
LINE
  5
274
100
AcDbEntity
  8
0
100
AcDbLine
 62
7
  6
CONTINUOUS
 10
168.9694581142
 20
57.4285950057
 11
168.4472379766
 21
57.8375797372
  0
LINE
  5
275
100
AcDbEntity
  8
0
100
AcDbLine
 62
7
  6
CONTINUOUS
 10
155.9821651969
 20
52.6507159691
 11
155.4169848367
 21
53.1270446902
  0
LINE
  5
276
100
AcDbEntity
  8
0
100
AcDbLine
 62
7
  6
CONTINUOUS
 10
159.0460534151
 20
49.2191799192
 11
159.5210543268
 21
48.7561932662
  0
LINE
  5
277
100
AcDbEntity
  8
0
100
AcDbLine
 62
7
  6
CONTINUOUS
 10
116.3448640028
 20
49.6251814712
 11
116.20571868
 21
50.1403000199
  0
LINE
  5
278
100
AcDbEntity
  8
0
100
AcDbLine
 62
7
  6
CONTINUOUS
 10
115.3275646851
 20
50.2693447358
 11
115.4206375382
 21
49.6125952014
  0
LINE
  5
279
100
AcDbEntity
  8
0
100
AcDbLine
 62
7
  6
CONTINUOUS
 10
120.8706097952
 20
52.6948883104
 11
120.8710736714
 21
52.2248823095
  0
LINE
  5
27A
100
AcDbEntity
  8
0
100
AcDbLine
 62
7
  6
CONTINUOUS
 10
116.20571868
 20
50.1403000199
 11
116.2513302864
 21
50.751935478
  0
LINE
  5
27B
100
AcDbEntity
  8
0
100
AcDbLine
 62
7
  6
CONTINUOUS
 10
106.4991750454
 20
58.5707873421
 11
106.5733609461
 21
59.2299374273
  0
LINE
  5
27C
100
AcDbEntity
  8
0
100
AcDbLine
 62
7
  6
CONTINUOUS
 10
115.4192487289
 20
51.0226110804
 11
115.3275646851
 21
50.2693447358
  0
LINE
  5
27D
100
AcDbEntity
  8
0
100
AcDbLine
 62
7
  6
CONTINUOUS
 10
100.6798160767
 20
58.3938276779
 11
100.5626838587
 21
57.9386513091
  0
LINE
  5
27E
100
AcDbEntity
  8
0
100
AcDbLine
 62
7
  6
CONTINUOUS
 10
106.3820397883
 20
58.1156124152
 11
106.4991750454
 21
58.5707873421
  0
LINE
  5
27F
100
AcDbEntity
  8
0
100
AcDbLine
 62
7
  6
CONTINUOUS
 10
100.9570283495
 20
59.1002059782
 11
100.6798160767
 21
58.3938276779
  0
LINE
  5
280
100
AcDbEntity
  8
RUNDUNGEN
100
AcDbLine
 62
7
  6
CONTINUOUS
 10
217.5118433021
 20
102.7423952359
 11
217.2310593717
 21
102.7423952359
  0
LINE
  5
281
100
AcDbEntity
  8
0
100
AcDbLine
 62
7
  6
CONTINUOUS
 10
168.2469273127
 20
56.9130793972
 11
168.6378995194
 21
56.4405129088
  0
LINE
  5
282
100
AcDbEntity
  8
0
100
AcDbLine
 62
7
  6
CONTINUOUS
 10
169.4253630736
 20
56.8219918083
 11
168.9694581142
 21
57.4285950057
  0
LINE
  5
283
100
AcDbEntity
  8
0
100
AcDbLine
 62
7
  6
CONTINUOUS
 10
157.6298679744
 20
47.0731770952
 11
155.5495528505
 21
50.0946360468
  0
LINE
  5
284
100
AcDbEntity
  8
0
100
AcDbLine
 62
7
  6
CONTINUOUS
 10
154.7689866257
 20
49.5995913229
 11
156.6375908261
 21
46.833422612
  0
LINE
  5
285
100
AcDbEntity
  8
0
100
AcDbLine
 62
7
  6
CONTINUOUS
 10
159.8200286179
 20
49.6536558827
 11
159.4823742247
 21
50.1656791858
  0
LINE
  5
286
100
AcDbEntity
  8
0
100
AcDbLine
 62
7
  6
CONTINUOUS
 10
155.1316400729
 20
52.4452116785
 11
155.3783304459
 21
52.0451512211
  0
LINE
  5
287
100
AcDbEntity
  8
0
100
AcDbLine
 62
7
  6
CONTINUOUS
 10
156.2288555699
 20
52.2506555118
 11
155.9821651969
 21
52.6507159691
  0
LINE
  5
288
100
AcDbEntity
  8
0
100
AcDbLine
 62
7
  6
CONTINUOUS
 10
158.6583204726
 20
49.871467674
 11
159.0460534151
 21
49.2191799192
  0
LINE
  5
289
100
AcDbEntity
  8
BEZUGSACHSEN
100
AcDbLine
 62
7
  6
CONTINUOUS
 10
132.6810593717
 20
261.4923952359
 11
132.6810593717
 21
248.2423952359
  0
LINE
  5
28A
100
AcDbEntity
  8
RUNDUNGEN
100
AcDbLine
 62
7
  6
CONTINUOUS
 10
132.6810593717
 20
248.2423952359
 11
132.6810593717
 21
226.5422149349
  0
LINE
  5
28B
100
AcDbEntity
  8
RUNDUNGEN
100
AcDbLine
 62
7
  6
CONTINUOUS
 10
133.7310593717
 20
53.9386730834
 11
133.7310593717
 21
42.4598275969
  0
LINE
  5
28C
100
AcDbEntity
  8
0
100
AcDbLine
 62
7
  6
CONTINUOUS
 10
121.7031552288
 20
51.9542067071
 11
121.7948362276
 21
52.707474481
  0
LINE
  5
28D
100
AcDbEntity
  8
0
100
AcDbLine
 62
7
  6
CONTINUOUS
 10
123.3907035165
 20
53.3628342261
 11
121.9487426045
 21
46.5129620574
  0
LINE
  5
28E
100
AcDbEntity
  8
0
100
AcDbLine
 62
7
  6
CONTINUOUS
 10
122.9890567415
 20
47.2071687074
 11
123.4799370579
 21
49.5390401122
  0
LINE
  5
28F
100
AcDbEntity
  8
0
100
AcDbLine
 62
7
  6
CONTINUOUS
 10
123.6640171524
 20
50.4134917742
 11
124.0628574431
 21
52.3081374501
  0
LINE
  5
290
100
AcDbEntity
  8
0
100
AcDbLine
 62
7
  6
CONTINUOUS
 10
116.1103353554
 20
53.1470745765
 11
115.4192487289
 21
51.0226110804
  0
LINE
  5
291
100
AcDbEntity
  8
0
100
AcDbLine
 62
7
  6
CONTINUOUS
 10
116.2513302864
 20
50.751935478
 11
116.9424169129
 21
52.8763989741
  0
LINE
  5
292
100
AcDbEntity
  8
0
100
AcDbLine
 62
7
  6
CONTINUOUS
 10
106.104829035
 20
57.409233394
 11
106.3820397883
 21
58.1156124152
  0
LINE
  5
293
100
AcDbEntity
  8
0
100
AcDbLine
 62
7
  6
CONTINUOUS
 10
114.9697011328
 20
56.224697003
 11
112.3327233972
 21
49.7403814322
  0
LINE
  5
294
100
AcDbEntity
  8
0
100
AcDbLine
 62
7
  6
CONTINUOUS
 10
101.2947397788
 20
58.0019684178
 11
101.6519913192
 21
58.8339480443
  0
LINE
  5
295
100
AcDbEntity
  8
0
100
AcDbLine
 62
7
  6
CONTINUOUS
 10
105.7671174937
 20
58.5074707784
 11
105.4098674728
 21
57.675490431
  0
LINE
  5
296
100
AcDbEntity
  8
0
100
AcDbLine
 62
7
  6
CONTINUOUS
 10
101.6773817581
 20
60.2306179141
 11
100.9570283495
 21
59.1002059782
  0
LINE
  5
297
100
AcDbEntity
  8
0
100
AcDbLine
 62
7
  6
CONTINUOUS
 10
101.6519913192
 20
58.8339480443
 11
102.2122661926
 21
59.7131573278
  0
LINE
  5
298
100
AcDbEntity
  8
0
100
AcDbLine
 62
7
  6
CONTINUOUS
 10
84.6402227581
 20
73.3072884697
 11
88.3545646921
 21
77.3461774286
  0
LINE
  5
299
100
AcDbEntity
  8
0
100
AcDbLine
 62
7
  6
CONTINUOUS
 10
86.9225850727
 20
77.0521499414
 11
82.9646022028
 21
72.841892582
  0
LINE
  5
29A
100
AcDbEntity
  8
0
100
AcDbLine
 62
7
  6
CONTINUOUS
 10
86.0053908604
 20
80.6860867069
 11
80.951024787
 21
75.7046717441
  0
LINE
  5
29B
100
AcDbEntity
  8
0
100
AcDbLine
 62
7
  6
CONTINUOUS
 10
82.6266454624
 20
76.1700674611
 11
86.5087852443
 21
79.9703918737
  0
LINE
  5
29C
100
AcDbEntity
  8
0
100
AcDbLine
 62
7
  6
CONTINUOUS
 10
90.7931969639
 20
74.0656493263
 11
85.6017541445
 21
69.370021418
  0
LINE
  5
29D
100
AcDbEntity
  8
RUNDUNGEN
100
AcDbLine
 62
7
  6
CONTINUOUS
 10
193.2239659774
 20
176.2453900909
 11
182.2027488169
 21
166.3912846571
  0
LINE
  5
29E
100
AcDbEntity
  8
RUNDUNGEN
100
AcDbLine
 62
7
  6
CONTINUOUS
 10
74.422452159
 20
95.5859764034
 11
77.2046050792
 21
96.5985972535
  0
LINE
  5
29F
100
AcDbEntity
  8
RUNDUNGEN
100
AcDbLine
 62
7
  6
CONTINUOUS
 10
185.0289360287
 20
72.6945185789
 11
193.1369414067
 21
64.586513201
  0
LINE
  5
2A0
100
AcDbEntity
  8
0
100
AcDbLine
 62
7
  6
CONTINUOUS
 10
163.1366867318
 20
56.4233818301
 11
166.1885179271
 21
50.1236733959
  0
LINE
  5
2A1
100
AcDbEntity
  8
0
100
AcDbLine
 62
7
  6
CONTINUOUS
 10
166.5863860106
 20
51.3093703913
 11
164.3137457113
 21
56.0006427274
  0
LINE
  5
2A2
100
AcDbEntity
  8
0
100
AcDbLine
 62
7
  6
CONTINUOUS
 10
168.6378995194
 20
56.4405129088
 11
169.6118881736
 21
54.4299677158
  0
LINE
  5
2A3
100
AcDbEntity
  8
0
100
AcDbLine
 62
7
  6
CONTINUOUS
 10
170.3993517278
 20
54.8114466152
 11
169.4253630736
 21
56.8219918083
  0
LINE
  5
2A4
100
AcDbEntity
  8
0
100
AcDbLine
 62
7
  6
CONTINUOUS
 10
157.1058852361
 20
54.2196662667
 11
158.6583204726
 21
49.871467674
  0
LINE
  5
2A5
100
AcDbEntity
  8
0
100
AcDbLine
 62
7
  6
CONTINUOUS
 10
159.4823742247
 20
50.1656791858
 11
157.9299389882
 21
54.5138777785
  0
LINE
  5
2A6
100
AcDbEntity
  8
0
100
AcDbLine
 62
7
  6
CONTINUOUS
 10
161.2261539966
 20
55.6907238257
 11
162.7785892331
 21
51.3425252329
  0
LINE
  5
2A7
100
AcDbEntity
  8
0
100
AcDbLine
 62
7
  6
CONTINUOUS
 10
163.6026429851
 20
51.6367367447
 11
162.0502077487
 21
55.9849353374
  0
LINE
  5
2A8
100
AcDbEntity
  8
0
100
AcDbLine
 62
7
  6
CONTINUOUS
 10
150.5991788565
 20
52.5758519581
 11
152.2432131818
 21
45.7716509662
  0
LINE
  5
2A9
100
AcDbEntity
  8
0
100
AcDbLine
 62
7
  6
CONTINUOUS
 10
153.0937383058
 20
45.9771552569
 11
152.3591697671
 21
49.0173302113
  0
LINE
  5
2AA
100
AcDbEntity
  8
0
100
AcDbLine
 62
7
  6
CONTINUOUS
 10
152.1492930697
 20
49.8859515109
 11
151.6246012283
 21
52.0575051657
  0
LINE
  5
2AB
100
AcDbEntity
  8
0
100
AcDbLine
 62
7
  6
CONTINUOUS
 10
155.3783304459
 20
52.0451512211
 11
155.4832688926
 21
51.6108401657
  0
LINE
  5
2AC
100
AcDbEntity
  8
0
100
AcDbLine
 62
7
  6
CONTINUOUS
 10
156.3687734661
 20
51.6715742398
 11
156.2288555699
 21
52.2506555118
  0
LINE
  5
2AD
100
AcDbEntity
  8
RUNDUNGEN
100
AcDbLine
 62
7
  6
CONTINUOUS
 10
143.7310593717
 20
42.4091072417
 11
143.7310593717
 21
53.9386730834
  0
LINE
  5
2AE
100
AcDbEntity
  8
RUNDUNGEN
100
AcDbLine
 62
7
  6
CONTINUOUS
 10
144.7810593717
 20
226.5422053752
 11
144.7810593717
 21
248.2423952359
  0
LINE
  5
2AF
100
AcDbEntity
  8
BEZUGSACHSEN
100
AcDbLine
 62
7
  6
CONTINUOUS
 10
144.7810593717
 20
248.2423952359
 11
144.7810593717
 21
261.4923952359
  0
LINE
  5
2B0
100
AcDbEntity
  8
0
100
AcDbLine
 62
7
  6
CONTINUOUS
 10
127.1902833939
 20
48.7579781808
 11
127.3743634884
 21
49.6324298427
  0
LINE
  5
2B1
100
AcDbEntity
  8
0
100
AcDbLine
 62
7
  6
CONTINUOUS
 10
127.086146731
 20
45.4314913734
 11
127.270226847
 21
46.3059431374
  0
LINE
  5
2B2
100
AcDbEntity
  8
0
100
AcDbLine
 62
7
  6
CONTINUOUS
 10
128.3440275485
 20
51.4069118801
 11
128.528107643
 21
52.2813635421
  0
LINE
  5
2B3
100
AcDbEntity
  8
0
100
AcDbLine
 62
7
  6
CONTINUOUS
 10
113.1432628435
 20
49.4107592153
 11
115.7802405792
 21
55.8950747861
  0
LINE
  5
2B4
100
AcDbEntity
  8
0
100
AcDbLine
 62
7
  6
CONTINUOUS
 10
116.4793758153
 20
53.8101174938
 11
116.1103353554
 21
53.1470745765
  0
LINE
  5
2B5
100
AcDbEntity
  8
0
100
AcDbLine
 62
7
  6
CONTINUOUS
 10
105.4098674728
 20
57.675490431
 11
104.8495925994
 21
56.7962811475
  0
LINE
  5
2B6
100
AcDbEntity
  8
0
100
AcDbLine
 62
7
  6
CONTINUOUS
 10
105.3844756264
 20
56.2788214581
 11
106.104829035
 21
57.409233394
  0
LINE
  5
2B7
100
AcDbEntity
  8
0
100
AcDbLine
 62
7
  6
CONTINUOUS
 10
100.2491348302
 20
63.5497220414
 11
99.5350738775
 21
62.595906278
  0
LINE
  5
2B8
100
AcDbEntity
  8
0
100
AcDbLine
 62
7
  6
CONTINUOUS
 10
100.8603355319
 20
62.9061067217
 11
97.3792891062
 21
58.2562558351
  0
LINE
  5
2B9
100
AcDbEntity
  8
0
100
AcDbLine
 62
7
  6
CONTINUOUS
 10
98.0797473957
 20
57.7318674441
 11
102.2748545241
 21
63.3355337601
  0
LINE
  5
2BA
100
AcDbEntity
  8
0
100
AcDbLine
 62
7
  6
CONTINUOUS
 10
102.2122661926
 20
59.7131573278
 11
102.8154859757
 21
60.3883937918
  0
LINE
  5
2BB
100
AcDbEntity
  8
0
100
AcDbLine
 62
7
  6
CONTINUOUS
 10
102.2005622737
 20
60.7802530519
 11
101.6773817581
 21
60.2306179141
  0
LINE
  5
2BC
100
AcDbEntity
  8
RUNDUNGEN
100
AcDbLine
 62
7
  6
CONTINUOUS
 10
192.8844175704
 20
160.8388784335
 11
202.2962475258
 21
169.5543285328
  0
LINE
  5
2BD
100
AcDbEntity
  8
0
100
AcDbLine
 62
7
  6
CONTINUOUS
 10
86.1887076331
 20
68.7210910656
 11
88.6187447172
 21
70.9190445724
  0
LINE
  5
2BE
100
AcDbEntity
  8
0
100
AcDbLine
 62
7
  6
CONTINUOUS
 10
89.2814820194
 20
71.5184863616
 11
91.3801504525
 21
73.4167189738
  0
LINE
  5
2BF
100
AcDbEntity
  8
0
100
AcDbLine
 62
7
  6
CONTINUOUS
 10
94.1192669189
 20
70.3883771229
 11
92.0205984858
 21
68.4901445106
  0
LINE
  5
2C0
100
AcDbEntity
  8
0
100
AcDbLine
 62
7
  6
CONTINUOUS
 10
91.3578611836
 20
67.8907027215
 11
88.9278240995
 21
65.6927492146
  0
LINE
  5
2C1
100
AcDbEntity
  8
0
100
AcDbLine
 62
7
  6
CONTINUOUS
 10
89.514777588
 20
65.0438188622
 11
94.7062204074
 21
69.7394467705
  0
LINE
  5
2C2
100
AcDbEntity
  8
0
100
AcDbLine
 62
7
  6
CONTINUOUS
 10
85.0361511887
 20
82.4916171575
 11
78.9988216659
 21
78.9489271863
  0
LINE
  5
2C3
100
AcDbEntity
  8
0
100
AcDbLine
 62
7
  6
CONTINUOUS
 10
79.4416579123
 20
78.1942609959
 11
85.4789874351
 21
81.7369509671
  0
LINE
  5
2C4
100
AcDbEntity
  8
RUNDUNGEN
100
AcDbLine
 62
7
  6
CONTINUOUS
 10
188.6009479691
 20
79.2805400687
 11
195.3128889064
 21
70.5333683381
  0
LINE
  5
2C5
100
AcDbEntity
  8
0
100
AcDbLine
 62
7
  6
CONTINUOUS
 10
170.5927726592
 20
54.0776861004
 11
170.3993517278
 21
54.8114466152
  0
LINE
  5
2C6
100
AcDbEntity
  8
0
100
AcDbLine
 62
7
  6
CONTINUOUS
 10
163.7156955349
 20
50.8863799824
 11
163.6026429851
 21
51.6367367447
  0
LINE
  5
2C7
100
AcDbEntity
  8
0
100
AcDbLine
 62
7
  6
CONTINUOUS
 10
162.7785892331
 20
51.3425252329
 11
162.8415632336
 21
50.7324329223
  0
LINE
  5
2C8
100
AcDbEntity
  8
0
100
AcDbLine
 62
7
  6
CONTINUOUS
 10
155.4832688926
 20
51.6108401657
 11
155.4464552169
 21
51.1422793234
  0
LINE
  5
2C9
100
AcDbEntity
  8
0
100
AcDbLine
 62
7
  6
CONTINUOUS
 10
156.3319597905
 20
51.2030133975
 11
156.3687734661
 21
51.6715742398
  0
LINE
  5
2CA
100
AcDbEntity
  8
0
100
AcDbLine
 62
7
  6
CONTINUOUS
 10
120.2744455653
 20
48.0336545317
 11
120.6434891026
 21
48.6966961189
  0
LINE
  5
2CB
100
AcDbEntity
  8
0
100
AcDbLine
 62
7
  6
CONTINUOUS
 10
116.9424169129
 20
52.8763989741
 11
117.2653848063
 21
53.3978106082
  0
LINE
  5
2CC
100
AcDbEntity
  8
0
100
AcDbLine
 62
7
  6
CONTINUOUS
 10
119.8114075451
 20
48.9673717213
 11
119.5345089151
 21
48.5875920063
  0
LINE
  5
2CD
100
AcDbEntity
  8
0
100
AcDbLine
 62
7
  6
CONTINUOUS
 10
104.8495925994
 20
56.7962811475
 11
104.2463712967
 21
56.1210454044
  0
LINE
  5
2CE
100
AcDbEntity
  8
0
100
AcDbLine
 62
7
  6
CONTINUOUS
 10
104.8612935913
 20
55.7291870412
 11
105.3844756264
 21
56.2788214581
  0
LINE
  5
2CF
100
AcDbEntity
  8
0
100
AcDbLine
 62
7
  6
CONTINUOUS
 10
116.9410282004
 20
54.2864151507
 11
116.4793758153
 21
53.8101174938
  0
LINE
  5
2D0
100
AcDbEntity
  8
0
100
AcDbLine
 62
7
  6
CONTINUOUS
 10
102.5636658857
 20
61.0786849923
 11
102.2005622737
 21
60.7802530519
  0
LINE
  5
2D1
100
AcDbEntity
  8
0
100
AcDbLine
 62
7
  6
CONTINUOUS
 10
104.4981930184
 20
55.4307536589
 11
104.8612935913
 21
55.7291870412
  0
LINE
  5
2D2
100
AcDbEntity
  8
RUNDUNGEN
100
AcDbLine
 62
7
  6
CONTINUOUS
 10
206.8752091632
 20
140.6299120635
 11
199.1703239144
 21
135.2348933313
  0
LINE
  5
2D3
100
AcDbEntity
  8
0
100
AcDbLine
 62
7
  6
CONTINUOUS
 10
89.529151428
 20
75.6762230454
 11
84.6402227581
 21
73.3072884697
  0
LINE
  5
2D4
100
AcDbEntity
  8
0
100
AcDbLine
 62
7
  6
CONTINUOUS
 10
83.6357947947
 20
71.8876326907
 11
90.0325458119
 21
74.9605282122
  0
LINE
  5
2D5
100
AcDbEntity
  8
0
100
AcDbLine
 62
7
  6
CONTINUOUS
 10
81.6222172589
 20
74.7504120234
 11
86.9225850727
 21
77.0521499414
  0
LINE
  5
2D6
100
AcDbEntity
  8
0
100
AcDbLine
 62
7
  6
CONTINUOUS
 10
87.6833721002
 20
78.3004373199
 11
82.6266454624
 21
76.1700674611
  0
LINE
  5
2D7
100
AcDbEntity
  8
RUNDUNGEN
100
AcDbLine
 62
7
  6
CONTINUOUS
 10
217.2310593717
 20
135.2423952359
 11
217.5118433021
 21
135.2423952359
  0
LINE
  5
2D8
100
AcDbEntity
  8
RUNDUNGEN
100
AcDbLine
 62
7
  6
CONTINUOUS
 10
203.5442096202
 20
100.1211534584
 11
196.9336785567
 21
104.7498971406
  0
LINE
  5
2D9
100
AcDbEntity
  8
0
100
AcDbLine
 62
7
  6
CONTINUOUS
 10
169.6118881736
 20
54.4299677158
 11
169.740376534
 21
53.8302435347
  0
LINE
  5
2DA
100
AcDbEntity
  8
BEZUGSACHSEN
100
AcDbLine
 62
7
  6
CONTINUOUS
 10
170.7310593717
 20
261.4923952359
 11
170.7310593717
 21
248.2423952359
  0
LINE
  5
2DB
100
AcDbEntity
  8
RUNDUNGEN
100
AcDbLine
 62
7
  6
CONTINUOUS
 10
170.7310593717
 20
248.2423952359
 11
170.7310593717
 21
205.1657022733
  0
LINE
  5
2DC
100
AcDbEntity
  8
0
100
AcDbLine
 62
7
  6
CONTINUOUS
 10
170.5900131341
 20
53.4143800685
 11
170.5927726592
 21
54.0776861004
  0
LINE
  5
2DD
100
AcDbEntity
  8
0
100
AcDbLine
 62
7
  6
CONTINUOUS
 10
163.6413230872
 20
50.2272508251
 11
163.7156955349
 21
50.8863799824
  0
LINE
  5
2DE
100
AcDbEntity
  8
0
100
AcDbLine
 62
7
  6
CONTINUOUS
 10
169.740376534
 20
53.8302435347
 11
169.6726843926
 21
53.3009739303
  0
LINE
  5
2DF
100
AcDbEntity
  8
0
100
AcDbLine
 62
7
  6
CONTINUOUS
 10
162.8415632336
 20
50.7324329223
 11
162.7171122016
 21
50.213568315
  0
LINE
  5
2E0
100
AcDbEntity
  8
0
100
AcDbLine
 62
7
  6
CONTINUOUS
 10
156.0466150267
 20
50.5211803857
 11
156.3319597905
 21
51.2030133975
  0
LINE
  5
2E1
100
AcDbEntity
  8
0
100
AcDbLine
 62
7
  6
CONTINUOUS
 10
117.2653848063
 20
53.3978106082
 11
117.680964883
 21
53.7324777753
  0
LINE
  5
2E2
100
AcDbEntity
  8
RUNDUNGEN
100
AcDbLine
 62
7
  6
CONTINUOUS
 10
199.7406704496
 20
121.4498513688
 11
205.7918101301
 21
125.6869049879
  0
LINE
  5
2E3
100
AcDbEntity
  8
0
100
AcDbLine
 62
7
  6
CONTINUOUS
 10
103.129791311
 20
61.4243473106
 11
102.5636658857
 21
61.0786849923
  0
LINE
  5
2E4
100
AcDbEntity
  8
0
100
AcDbLine
 62
7
  6
CONTINUOUS
 10
103.9320647221
 20
55.0850930464
 11
104.4981930184
 21
55.4307536589
  0
LINE
  5
2E5
100
AcDbEntity
  8
0
100
AcDbLine
 62
7
  6
CONTINUOUS
 10
102.8154859757
 20
60.3883937918
 11
103.7876613303
 21
60.8285143342
  0
LINE
  5
2E6
100
AcDbEntity
  8
0
100
AcDbLine
 62
7
  6
CONTINUOUS
 10
104.2463712967
 20
56.1210454044
 11
103.2741961103
 21
55.680925126
  0
LINE
  5
2E7
100
AcDbEntity
  8
RUNDUNGEN
100
AcDbLine
 62
7
  6
CONTINUOUS
 10
195.2941097354
 20
148.2885734745
 11
205.7884542435
 21
146.0196158792
  0
LINE
  5
2E8
100
AcDbEntity
  8
RUNDUNGEN
100
AcDbLine
 62
7
  6
CONTINUOUS
 10
205.7918101301
 20
112.297885484
 11
199.7406704496
 21
116.5349391031
  0
LINE
  5
2E9
100
AcDbEntity
  8
0
100
AcDbLine
 62
7
  6
CONTINUOUS
 10
170.3247697402
 20
52.6239163907
 11
170.5900131341
 21
53.4143800685
  0
LINE
  5
2EA
100
AcDbEntity
  8
RUNDUNGEN
100
AcDbLine
 62
7
  6
CONTINUOUS
 10
190.2916524787
 20
97.5427024611
 11
192.3938713853
 21
103.3185014377
  0
LINE
  5
2EB
100
AcDbEntity
  8
0
100
AcDbLine
 62
7
  6
CONTINUOUS
 10
163.2922702293
 20
49.4700527095
 11
163.6413230872
 21
50.2272508251
  0
LINE
  5
2EC
100
AcDbEntity
  8
0
100
AcDbLine
 62
7
  6
CONTINUOUS
 10
155.4464552169
 20
51.1422793234
 11
155.2329035784
 21
50.7842369373
  0
LINE
  5
2ED
100
AcDbEntity
  8
0
100
AcDbLine
 62
7
  6
CONTINUOUS
 10
117.6800368725
 20
54.6724889836
 11
116.9410282004
 21
54.2864151507
  0
LINE
  5
2EE
100
AcDbEntity
  8
0
100
AcDbLine
 62
7
  6
CONTINUOUS
 10
119.535433703
 20
47.6475816818
 11
120.2744455653
 21
48.0336545317
  0
LINE
  5
2EF
100
AcDbEntity
  8
0
100
AcDbLine
 62
7
  6
CONTINUOUS
 10
117.680964883
 20
53.7324777753
 11
118.1891505366
 21
53.8804017472
  0
LINE
  5
2F0
100
AcDbEntity
  8
RUNDUNGEN
100
AcDbLine
 62
7
  6
CONTINUOUS
 10
210.0978648338
 20
152.2873932396
 11
194.2887670938
 21
155.7054411572
  0
LINE
  5
2F1
100
AcDbEntity
  8
BEZUGSACHSEN
100
AcDbLine
 62
7
  6
CONTINUOUS
 10
126.1151333968
 20
200.6161306973
 11
109.2763006361
 21
219.4493402499
  0
LINE
  5
2F2
100
AcDbEntity
  8
RUNDUNGEN
100
AcDbLine
 62
7
  6
CONTINUOUS
 10
172.277479356
 20
148.9863563988
 11
109.2763006361
 21
219.4493402499
  0
LINE
  5
2F3
100
AcDbEntity
  8
RUNDUNGEN
100
AcDbLine
 62
7
  6
CONTINUOUS
 10
210.5125394392
 20
123.229448855
 11
210.5125394392
 21
114.7553416168
  0
LINE
  5
2F4
100
AcDbEntity
  8
0
100
AcDbLine
 62
7
  6
CONTINUOUS
 10
169.6726843926
 20
53.3009739303
 11
169.4088178027
 21
52.8421617194
  0
LINE
  5
2F5
100
AcDbEntity
  8
0
100
AcDbLine
 62
7
  6
CONTINUOUS
 10
162.7171122016
 20
50.213568315
 11
162.4052424591
 21
49.7859335574
  0
LINE
  5
2F6
100
AcDbEntity
  8
0
100
AcDbLine
 62
7
  6
CONTINUOUS
 10
169.9296551909
 20
52.1015224816
 11
170.3247697402
 21
52.6239163907
  0
LINE
  5
2F7
100
AcDbEntity
  8
0
100
AcDbLine
 62
7
  6
CONTINUOUS
 10
162.8430539815
 20
48.9933812649
 11
163.2922702293
 21
49.4700527095
  0
LINE
  5
2F8
100
AcDbEntity
  8
0
100
AcDbLine
 62
7
  6
CONTINUOUS
 10
155.5495528505
 20
50.0946360468
 11
156.0466150267
 21
50.5211803857
  0
LINE
  5
2F9
100
AcDbEntity
  8
0
100
AcDbLine
 62
7
  6
CONTINUOUS
 10
169.4088178027
 20
52.8421617194
 11
168.9487766734
 21
52.4538070896
  0
LINE
  5
2FA
100
AcDbEntity
  8
0
100
AcDbLine
 62
7
  6
CONTINUOUS
 10
169.3383721442
 20
51.6495889936
 11
169.9296551909
 21
52.1015224816
  0
LINE
  5
2FB
100
AcDbEntity
  8
0
100
AcDbLine
 62
7
  6
CONTINUOUS
 10
162.4052424591
 20
49.7859335574
 11
161.9059539359
 21
49.4495288461
  0
LINE
  5
2FC
100
AcDbEntity
  8
0
100
AcDbLine
 62
7
  6
CONTINUOUS
 10
155.2329035784
 20
50.7842369373
 11
154.842620466
 21
50.5367145754
  0
LINE
  5
2FD
100
AcDbEntity
  8
0
100
AcDbLine
 62
7
  6
CONTINUOUS
 10
162.2064252664
 20
48.6079420375
 11
162.8430539815
 21
48.9933812649
  0
LINE
  5
2FE
100
AcDbEntity
  8
0
100
AcDbLine
 62
7
  6
CONTINUOUS
 10
166.2865409488
 20
57.9492974277
 11
163.1366867318
 21
56.4233818301
  0
LINE
  5
2FF
100
AcDbEntity
  8
0
100
AcDbLine
 62
7
  6
CONTINUOUS
 10
164.3137457113
 20
56.0006427274
 11
166.6761363741
 21
57.1450794256
  0
LINE
  5
300
100
AcDbEntity
  8
0
100
AcDbLine
 62
7
  6
CONTINUOUS
 10
162.0502077487
 20
55.9849353374
 11
161.2261539966
 21
55.6907238257
  0
LINE
  5
301
100
AcDbEntity
  8
0
100
AcDbLine
 62
7
  6
CONTINUOUS
 10
157.9299389882
 20
54.5138777785
 11
157.1058852361
 21
54.2196662667
  0
LINE
  5
302
100
AcDbEntity
  8
0
100
AcDbLine
 62
7
  6
CONTINUOUS
 10
119.5345089151
 20
48.5875920063
 11
119.0263232291
 21
48.4396679353
  0
LINE
  5
303
100
AcDbEntity
  8
RUNDUNGEN
100
AcDbLine
 62
7
  6
CONTINUOUS
 10
164.6773332981
 20
188.9923952359
 11
177.2172013841
 21
188.9923952359
  0
LINE
  5
304
100
AcDbEntity
  8
RUNDUNGEN
100
AcDbLine
 62
7
  6
CONTINUOUS
 10
177.9667234071
 20
166.6281152454
 11
162.440905299
 21
183.9927978252
  0
LINE
  5
305
100
AcDbEntity
  8
RUNDUNGEN
100
AcDbLine
 62
7
  6
CONTINUOUS
 10
194.630516743
 20
136.6662890342
 11
191.8410574837
 21
144.3302653617
  0
LINE
  5
306
100
AcDbEntity
  8
RUNDUNGEN
100
AcDbLine
 62
7
  6
CONTINUOUS
 10
216.2310593717
 20
103.7423952359
 11
216.2310593717
 21
134.2423952359
  0
LINE
  5
307
100
AcDbEntity
  8
RUNDUNGEN
100
AcDbLine
 62
7
  6
CONTINUOUS
 10
200.0730089482
 20
70.5333683381
 11
208.2934241882
 21
81.2464220543
  0
LINE
  5
308
100
AcDbEntity
  8
0
100
AcDbLine
 62
7
  6
CONTINUOUS
 10
168.9487766734
 20
52.4538070896
 11
166.5863860106
 21
51.3093703913
  0
LINE
  5
309
100
AcDbEntity
  8
0
100
AcDbLine
 62
7
  6
CONTINUOUS
 10
166.1885179271
 20
50.1236733959
 11
169.3383721442
 21
51.6495889936
  0
LINE
  5
30A
100
AcDbEntity
  8
0
100
AcDbLine
 62
7
  6
CONTINUOUS
 10
161.9059539359
 20
49.4495288461
 11
161.3565805765
 21
49.2533863418
  0
LINE
  5
30B
100
AcDbEntity
  8
0
100
AcDbLine
 62
7
  6
CONTINUOUS
 10
161.657051907
 20
48.4117995332
 11
162.2064252664
 21
48.6079420375
  0
LINE
  5
30C
100
AcDbEntity
  8
RUNDUNGEN
100
AcDbLine
 62
7
  6
CONTINUOUS
 10
178.6348536787
 20
188.6363055921
 11
192.6420208613
 21
181.1257284461
  0
LINE
  5
30D
100
AcDbEntity
  8
RUNDUNGEN
100
AcDbLine
 62
7
  6
CONTINUOUS
 10
206.9883143642
 20
168.7522988603
 11
213.3855821488
 21
156.6188008435
  0
LINE
  5
30E
100
AcDbEntity
  8
BEZUGSACHSEN
100
AcDbLine
 62
7
  6
CONTINUOUS
 10
132.6810593717
 20
242.4423952359
 11
144.7810593717
 21
242.4423952359
  0
LINE
  5
30F
100
AcDbEntity
  8
BEZUGSACHSEN
100
AcDbLine
 62
7
  6
CONTINUOUS
 10
132.6810593717
 20
256.5423952359
 11
144.7810593717
 21
256.5423952359
  0
LWPOLYLINE
  5
310
100
AcDbEntity
  8
RUNDUNGEN
100
AcDbPolyline
 62
7
  6
CONTINUOUS
 90
23
 70
0
 10
111.7310652559
 20
266.4923952341
 10
111.5436476655
 20
266.4888993771
 10
111.1787831557
 20
266.4619452933
 10
110.816939027
 20
266.4084988399
 10
110.4600700423
 20
266.3288490251
 10
110.1100959225
 20
266.2234330974
 10
109.7688839336
 20
266.0928280507
 10
109.4382669252
 20
265.9377558126
 10
109.1199905349
 20
265.7590596322
 10
108.8157475773
 20
265.5577169119
 10
108.5271338668
 20
265.3348123307
 10
108.2556692336
 20
265.0915479071
 10
108.0027797486
 20
264.8292302304
 10
107.7697948256
 20
264.5492675071
 10
107.5579359905
 20
264.2531574642
 10
107.3683153697
 20
263.9424854531
 10
107.201922827
 20
263.6189045539
 10
107.0596289663
 20
263.2841385344
 10
106.9421762963
 20
262.9399640951
 10
106.8501791691
 20
262.5882093713
 10
106.7841187772
 20
262.2307391684
 10
106.7443415684
 20
261.8694430318
 10
106.7310593717
 20
261.5062585217
  0
LWPOLYLINE
  5
311
100
AcDbEntity
  8
BEZUGSACHSEN
100
AcDbPolyline
 62
7
  6
CONTINUOUS
 90
22
 70
0
 10
111.7310655772
 20
266.492395234
 10
111.5582278529
 20
266.4894223534
 10
111.1925899286
 20
266.4634534633
 10
110.8299096341
 20
266.4108832203
 10
110.4721540064
 20
266.3319968372
 10
110.1212551188
 20
266.2272290839
 10
109.7790924047
 20
266.0971557039
 10
109.4475110996
 20
265.9424986785
 10
109.1282684215
 20
265.7641022794
 10
108.82306874
 20
265.5629460777
 10
108.533518976
 20
265.3401179678
 10
108.2611496876
 20
265.096824206
 10
108.0073971173
 20
264.8343765526
 10
107.7736002862
 20
264.5541893159
 10
107.5609896018
 20
264.2577671103
 10
107.3706853851
 20
263.9467030088
 10
107.2036847849
 20
263.6226583403
 10
107.0608648925
 20
263.287365759
 10
106.9429738541
 20
262.9426114737
 10
106.8506307156
 20
262.5902335539
 10
106.7843204154
 20
262.232107221
 10
106.7443921248
 20
261.870132688
  0
LINE
  5
312
100
AcDbEntity
  8
RUNDUNGEN
100
AcDbLine
 62
7
  6
CONTINUOUS
 10
111.73105934
 20
266.4923952359
 11
127.6810593717
 21
266.4923952359
  0
LINE
  5
313
100
AcDbEntity
  8
RUNDUNGEN
100
AcDbLine
 62
7
  6
CONTINUOUS
 10
149.7810593717
 20
266.4923952359
 11
165.7310593717
 21
266.4923952359
  0
LWPOLYLINE
  5
314
100
AcDbEntity
  8
RUNDUNGEN
100
AcDbPolyline
 62
7
  6
CONTINUOUS
 90
9
 70
0
 10
312.3124580795
 20
29.9923952359
 10
312.6773336474
 20
30.000014004
 10
313.2292760343
 20
30.0406096514
 10
313.7765662835
 20
30.1158878154
 10
314.3170020027
 20
30.2253527413
 10
314.8484460672
 20
30.3683699269
 10
315.3688205076
 20
30.5441704792
 10
315.876130067
 20
30.7518633829
 10
315.9763875125
 20
30.7973886117
  0
LINE
  5
315
100
AcDbEntity
  8
BEZUGSACHSEN
100
AcDbLine
 62
7
  6
CONTINUOUS
 10
312.3124581305
 20
29.9923952359
 11
309.0966430134
 21
29.9923952359
  0
LINE
  5
316
100
AcDbEntity
  8
0
100
AcDbLine
 62
7
  6
CONTINUOUS
 10
309.0966430356
 20
29.9923952359
 11
312.3124581083
 21
29.9923952359
  0
LWPOLYLINE
  5
317
100
AcDbEntity
  8
BEZUGSACHSEN
100
AcDbPolyline
 62
7
  6
CONTINUOUS
 90
9
 70
0
 10
305.4327905578
 20
30.797353095
 10
305.5270014569
 20
30.7545315431
 10
306.0329298623
 20
30.5469178001
 10
306.5518952462
 20
30.3710307326
 10
307.0819176241
 20
30.2277580896
 10
307.6209348369
 20
30.1178667422
 10
308.1668257935
 20
30.0419905244
 10
308.7174043134
 20
30.0006259206
 10
309.096643064
 20
29.9923952359
  0
LINE
  5
318
100
AcDbEntity
  8
BEZUGSACHSEN
100
AcDbLine
 62
7
  6
CONTINUOUS
 10
305.4327905604
 20
30.797353099
 11
305.2492860259
 21
30.8846775271
  0
LINE
  5
319
100
AcDbEntity
  8
BEZUGSACHSEN
100
AcDbLine
 62
7
  6
CONTINUOUS
 10
288.3744202838
 20
221.4254022753
 11
291.7846775909
 21
227.3321411981
  0
LINE
  5
31A
100
AcDbEntity
  8
RUNDUNGEN
100
AcDbLine
 62
7
  6
CONTINUOUS
 10
325.6559323637
 20
200.4437770277
 11
332.2400851526
 21
207.0279298166
  0
LWPOLYLINE
  5
31B
100
AcDbEntity
  8
BEZUGSACHSEN
100
AcDbPolyline
 62
7
  6
CONTINUOUS
 90
32
 70
0
 10
300.5016099789
 20
37.0832274099
 10
300.5232539894
 20
36.9805728879
 10
300.547201206
 20
36.8726496785
 10
300.5741145026
 20
36.7576452933
 10
300.6046682611
 20
36.634159796
 10
300.6397334329
 20
36.5004910764
 10
300.6803527465
 20
36.3548908246
 10
300.7274945265
 20
36.1964882717
 10
300.7824367004
 20
36.0239581592
 10
300.8461976571
 20
35.8373652822
 10
300.920177797
 20
35.636108289
 10
301.0052491842
 20
35.4214157847
 10
301.1027043699
 20
35.1936247262
 10
301.2128855566
 20
34.9553534464
 10
301.3362037742
 20
34.7087268277
 10
301.4729727643
 20
34.4557788763
 10
301.6233742459
 20
34.198496144
 10
301.7871959789
 20
33.9391927042
 10
301.9639102222
 20
33.6802382419
 10
302.153314377
 20
33.4231418502
 10
302.3545280851
 20
33.1700150168
 10
302.568007303
 20
32.9210596007
 10
302.7938101339
 20
32.6770023245
 10
303.0320187724
 20
32.4385241335
 10
303.2826557866
 20
32.2063546174
 10
303.5457350081
 20
31.9812180486
 10
303.8212281876
 20
31.7638651887
 10
304.109046834
 20
31.5550813761
 10
304.4090705667
 20
31.3556594596
 10
304.7210939156
 20
31.1664309408
 10
305.0448383685
 20
30.988245558
 10
305.2492860259
 20
30.8846775271
  0
LINE
  5
31C
100
AcDbEntity
  8
BEZUGSACHSEN
100
AcDbLine
 62
7
  6
CONTINUOUS
 10
300.0287634008
 20
39.478214696
 11
300.5016099789
 21
37.0832274099
  0
LINE
  5
31D
100
AcDbEntity
  8
BEZUGSACHSEN
100
AcDbLine
 62
7
  6
CONTINUOUS
 10
295.3546041594
 20
63.5930989725
 11
295.3790317917
 21
63.3653304976
  0
LINE
  5
31E
100
AcDbEntity
  8
BEZUGSACHSEN
100
AcDbLine
 62
7
  6
CONTINUOUS
 10
295.3280239329
 20
63.8527088112
 11
295.3546041594
 21
63.5930989725
  0
LINE
  5
31F
100
AcDbEntity
  8
BEZUGSACHSEN
100
AcDbLine
 62
7
  6
CONTINUOUS
 10
295.299030894
 20
64.1492351087
 11
295.3280239329
 21
63.8527088112
  0
LINE
  5
320
100
AcDbEntity
  8
BEZUGSACHSEN
100
AcDbLine
 62
7
  6
CONTINUOUS
 10
295.2674422825
 20
64.487837397
 11
295.299030894
 21
64.1492351087
  0
LINE
  5
321
100
AcDbEntity
  8
BEZUGSACHSEN
100
AcDbLine
 62
7
  6
CONTINUOUS
 10
294.9364607036
 20
68.3005758724
 11
295.1283272529
 21
66.1794183252
  0
LINE
  5
322
100
AcDbEntity
  8
BEZUGSACHSEN
100
AcDbLine
 62
7
  6
CONTINUOUS
 10
295.2331349202
 20
64.8739828507
 11
295.2674422825
 21
64.487837397
  0
LINE
  5
323
100
AcDbEntity
  8
BEZUGSACHSEN
100
AcDbLine
 62
7
  6
CONTINUOUS
 10
294.7325934928
 20
70.6705684317
 11
294.9364607036
 21
68.3005758724
  0
LINE
  5
324
100
AcDbEntity
  8
BEZUGSACHSEN
100
AcDbLine
 62
7
  6
CONTINUOUS
 10
295.1960394432
 20
65.3136220949
 11
295.2331349202
 21
64.8739828507
  0
LINE
  5
325
100
AcDbEntity
  8
BEZUGSACHSEN
100
AcDbLine
 62
7
  6
CONTINUOUS
 10
294.5072154297
 20
73.434841381
 11
294.7325934928
 21
70.6705684317
  0
LINE
  5
326
100
AcDbEntity
  8
BEZUGSACHSEN
100
AcDbLine
 62
7
  6
CONTINUOUS
 10
295.1561472531
 20
65.8132930779
 11
295.1960394432
 21
65.3136220949
  0
LINE
  5
327
100
AcDbEntity
  8
BEZUGSACHSEN
100
AcDbLine
 62
7
  6
CONTINUOUS
 10
294.2693013078
 20
76.5285593536
 11
294.5072154297
 21
73.434841381
  0
LINE
  5
328
100
AcDbEntity
  8
BEZUGSACHSEN
100
AcDbLine
 62
7
  6
CONTINUOUS
 10
295.1135273398
 20
66.3801588262
 11
295.1561472531
 21
65.8132930779
  0
LINE
  5
329
100
AcDbEntity
  8
BEZUGSACHSEN
100
AcDbLine
 62
7
  6
CONTINUOUS
 10
294.0290438967
 20
79.8561250525
 11
294.2693013078
 21
76.5285593536
  0
LINE
  5
32A
100
AcDbEntity
  8
BEZUGSACHSEN
100
AcDbLine
 62
7
  6
CONTINUOUS
 10
295.0684806712
 20
67.0200762203
 11
295.1135273398
 21
66.3801588262
  0
LINE
  5
32B
100
AcDbEntity
  8
BEZUGSACHSEN
100
AcDbLine
 62
7
  6
CONTINUOUS
 10
293.7958643173
 20
83.3112419015
 11
294.0290438967
 21
79.8561250525
  0
LINE
  5
32C
100
AcDbEntity
  8
BEZUGSACHSEN
100
AcDbLine
 62
7
  6
CONTINUOUS
 10
295.0216322469
 20
67.7357748672
 11
295.0684806712
 21
67.0200762203
  0
LINE
  5
32D
100
AcDbEntity
  8
BEZUGSACHSEN
100
AcDbLine
 62
7
  6
CONTINUOUS
 10
293.577820269
 20
86.7828307076
 11
293.7958643173
 21
83.3112419015
  0
LINE
  5
32E
100
AcDbEntity
  8
BEZUGSACHSEN
100
AcDbLine
 62
7
  6
CONTINUOUS
 10
294.9737444082
 20
68.5288474839
 11
295.0216322469
 21
67.7357748672
  0
LINE
  5
32F
100
AcDbEntity
  8
BEZUGSACHSEN
100
AcDbLine
 62
7
  6
CONTINUOUS
 10
293.3811229706
 20
90.1616632342
 11
293.577820269
 21
86.7828307076
  0
LINE
  5
330
100
AcDbEntity
  8
BEZUGSACHSEN
100
AcDbLine
 62
7
  6
CONTINUOUS
 10
294.925684609
 20
69.3998894583
 11
294.9737444082
 21
68.5288474839
  0
LINE
  5
331
100
AcDbEntity
  8
BEZUGSACHSEN
100
AcDbLine
 62
7
  6
CONTINUOUS
 10
293.2096298661
 20
93.3510830979
 11
293.3811229706
 21
90.1616632342
  0
LINE
  5
332
100
AcDbEntity
  8
BEZUGSACHSEN
100
AcDbLine
 62
7
  6
CONTINUOUS
 10
294.8783744602
 20
70.3490954589
 11
294.925684609
 21
69.3998894583
  0
LINE
  5
333
100
AcDbEntity
  8
BEZUGSACHSEN
100
AcDbLine
 62
7
  6
CONTINUOUS
 10
293.0416494884
 20
96.7656971985
 11
293.2096298661
 21
93.3510830979
  0
LINE
  5
334
100
AcDbEntity
  8
BEZUGSACHSEN
100
AcDbLine
 62
7
  6
CONTINUOUS
 10
294.8416084907
 20
71.167111132
 11
294.8783744602
 21
70.3490954589
  0
LINE
  5
335
100
AcDbEntity
  8
BEZUGSACHSEN
100
AcDbLine
 62
7
  6
CONTINUOUS
 10
292.9031919332
 20
99.8760090838
 11
293.0416494884
 21
96.7656971985
  0
LINE
  5
336
100
AcDbEntity
  8
BEZUGSACHSEN
100
AcDbLine
 62
7
  6
CONTINUOUS
 10
294.8062653665
 20
72.0402845349
 11
294.8416084907
 21
71.167111132
  0
LINE
  5
337
100
AcDbEntity
  8
BEZUGSACHSEN
100
AcDbLine
 62
7
  6
CONTINUOUS
 10
292.7728410152
 20
103.1579394599
 11
292.9031919332
 21
99.8760090838
  0
LINE
  5
338
100
AcDbEntity
  8
BEZUGSACHSEN
100
AcDbLine
 62
7
  6
CONTINUOUS
 10
294.772834187
 20
72.9715883186
 11
294.8062653665
 21
72.0402845349
  0
LINE
  5
339
100
AcDbEntity
  8
BEZUGSACHSEN
100
AcDbLine
 62
7
  6
CONTINUOUS
 10
292.6729159702
 20
106.0248434044
 11
292.7728410152
 21
103.1579394599
  0
LINE
  5
33A
100
AcDbEntity
  8
BEZUGSACHSEN
100
AcDbLine
 62
7
  6
CONTINUOUS
 10
294.7418732661
 20
73.9641540979
 11
294.772834187
 21
72.9715883186
  0
LINE
  5
33B
100
AcDbEntity
  8
BEZUGSACHSEN
100
AcDbLine
 62
7
  6
CONTINUOUS
 10
292.583496887
 20
109.0115159229
 11
292.6729159702
 21
106.0248434044
  0
LINE
  5
33C
100
AcDbEntity
  8
BEZUGSACHSEN
100
AcDbLine
 62
7
  6
CONTINUOUS
 10
294.7140197056
 20
75.0212605728
 11
294.7418732661
 21
73.9641540979
  0
LINE
  5
33D
100
AcDbEntity
  8
BEZUGSACHSEN
100
AcDbLine
 62
7
  6
CONTINUOUS
 10
292.5214771591
 20
111.4860902543
 11
292.583496887
 21
109.0115159229
  0
LINE
  5
33E
100
AcDbEntity
  8
BEZUGSACHSEN
100
AcDbLine
 62
7
  6
CONTINUOUS
 10
294.6899997652
 20
76.1463202074
 11
294.7140197056
 21
75.0212605728
  0
LINE
  5
33F
100
AcDbEntity
  8
BEZUGSACHSEN
100
AcDbLine
 62
7
  6
CONTINUOUS
 10
292.4698005195
 20
114.034837182
 11
292.5214771591
 21
111.4860902543
  0
LINE
  5
340
100
AcDbEntity
  8
BEZUGSACHSEN
100
AcDbLine
 62
7
  6
CONTINUOUS
 10
294.6706401569
 20
77.3428606659
 11
294.6899997652
 21
76.1463202074
  0
LINE
  5
341
100
AcDbEntity
  8
BEZUGSACHSEN
100
AcDbLine
 62
7
  6
CONTINUOUS
 10
292.4304810361
 20
116.6556474752
 11
292.4698005195
 21
114.034837182
  0
LINE
  5
342
100
AcDbEntity
  8
BEZUGSACHSEN
100
AcDbLine
 62
7
  6
CONTINUOUS
 10
294.6568803102
 20
78.6144952157
 11
294.6706401569
 21
77.3428606659
  0
LINE
  5
343
100
AcDbEntity
  8
BEZUGSACHSEN
100
AcDbLine
 62
7
  6
CONTINUOUS
 10
292.4104749766
 20
118.6675099267
 11
292.4304810361
 21
116.6556474752
  0
LINE
  5
344
100
AcDbEntity
  8
BEZUGSACHSEN
100
AcDbLine
 62
7
  6
CONTINUOUS
 10
292.3997593133
 20
120.7176552806
 11
292.4104749766
 21
118.6675099267
  0
LINE
  5
345
100
AcDbEntity
  8
BEZUGSACHSEN
100
AcDbLine
 62
7
  6
CONTINUOUS
 10
294.6497852276
 20
79.964915006
 11
294.6568803102
 21
78.6144952157
  0
LINE
  5
346
100
AcDbEntity
  8
BEZUGSACHSEN
100
AcDbLine
 62
7
  6
CONTINUOUS
 10
287.704550572
 20
210.563460721
 11
287.704550572
 21
218.9254108093
  0
LINE
  5
347
100
AcDbEntity
  8
BEZUGSACHSEN
100
AcDbLine
 62
7
  6
CONTINUOUS
 10
292.454550572
 20
229.8321422465
 11
292.454550572
 21
248.2423967413
  0
LINE
  5
348
100
AcDbEntity
  8
BEZUGSACHSEN
100
AcDbLine
 62
7
  6
CONTINUOUS
 10
294.6495571208
 20
81.0316759892
 11
294.6497852276
 21
79.964915006
  0
LINE
  5
349
100
AcDbEntity
  8
BEZUGSACHSEN
100
AcDbLine
 62
7
  6
CONTINUOUS
 10
292.3991180342
 20
122.8039892368
 11
292.3997593133
 21
120.7176552806
  0
LINE
  5
34A
100
AcDbEntity
  8
BEZUGSACHSEN
100
AcDbLine
 62
7
  6
CONTINUOUS
 10
292.4092305403
 20
124.9249143887
 11
292.3991180342
 21
122.8039892368
  0
LINE
  5
34B
100
AcDbEntity
  8
BEZUGSACHSEN
100
AcDbLine
 62
7
  6
CONTINUOUS
 10
294.6560224793
 20
82.3886695929
 11
294.6495571208
 21
81.0316759892
  0
LINE
  5
34C
100
AcDbEntity
  8
BEZUGSACHSEN
100
AcDbLine
 62
7
  6
CONTINUOUS
 10
294.6563301215
 20
82.4297744366
 11
294.6560232632
 21
82.3887736257
  0
LINE
  5
34D
100
AcDbEntity
  8
BEZUGSACHSEN
100
AcDbLine
 62
7
  6
CONTINUOUS
 10
292.43081485
 20
127.0784266562
 11
292.4092305403
 21
124.9249143887
  0
LINE
  5
34E
100
AcDbEntity
  8
BEZUGSACHSEN
100
AcDbLine
 62
7
  6
CONTINUOUS
 10
292.4646209371
 20
129.2620611639
 11
292.43081485
 21
127.0784266562
  0
LINE
  5
34F
100
AcDbEntity
  8
BEZUGSACHSEN
100
AcDbLine
 62
7
  6
CONTINUOUS
 10
292.5114245318
 20
131.4727979662
 11
292.4646209371
 21
129.2620611639
  0
LINE
  5
350
100
AcDbEntity
  8
BEZUGSACHSEN
100
AcDbLine
 62
7
  6
CONTINUOUS
 10
292.5720404906
 20
133.7076351744
 11
292.5114245318
 21
131.4727979662
  0
LINE
  5
351
100
AcDbEntity
  8
BEZUGSACHSEN
100
AcDbLine
 62
7
  6
CONTINUOUS
 10
292.6473250948
 20
135.9632468273
 11
292.5720404906
 21
133.7076351744
  0
LINE
  5
352
100
AcDbEntity
  8
BEZUGSACHSEN
100
AcDbLine
 62
7
  6
CONTINUOUS
 10
292.7061016178
 20
137.4765511234
 11
292.6473250948
 21
135.9632468273
  0
LINE
  5
353
100
AcDbEntity
  8
BEZUGSACHSEN
100
AcDbLine
 62
7
  6
CONTINUOUS
 10
292.7720622964
 20
138.9958954061
 11
292.7061016178
 21
137.4765511234
  0
LINE
  5
354
100
AcDbEntity
  8
BEZUGSACHSEN
100
AcDbLine
 62
7
  6
CONTINUOUS
 10
292.845482873
 20
140.5197139963
 11
292.7720622964
 21
138.9958954061
  0
LINE
  5
355
100
AcDbEntity
  8
BEZUGSACHSEN
100
AcDbLine
 62
7
  6
CONTINUOUS
 10
292.9266441769
 20
142.0462687202
 11
292.845482873
 21
140.5197139963
  0
LINE
  5
356
100
AcDbEntity
  8
BEZUGSACHSEN
100
AcDbLine
 62
7
  6
CONTINUOUS
 10
293.0158590795
 20
143.574083371
 11
292.9266441769
 21
142.0462687202
  0
LINE
  5
357
100
AcDbEntity
  8
BEZUGSACHSEN
100
AcDbLine
 62
7
  6
CONTINUOUS
 10
293.1134793168
 20
145.1018296771
 11
293.0158590795
 21
143.574083371
  0
LINE
  5
358
100
AcDbEntity
  8
BEZUGSACHSEN
100
AcDbLine
 62
7
  6
CONTINUOUS
 10
293.2197749793
 20
146.626567033
 11
293.1134793168
 21
145.1018296771
  0
LINE
  5
359
100
AcDbEntity
  8
BEZUGSACHSEN
100
AcDbLine
 62
7
  6
CONTINUOUS
 10
293.335012552
 20
148.1450434663
 11
293.2197749793
 21
146.626567033
  0
LWPOLYLINE
  5
35A
100
AcDbEntity
  8
BEZUGSACHSEN
100
AcDbPolyline
 62
7
  6
CONTINUOUS
 90
6
 70
0
 10
297.7270547718
 20
195.0915174198
 10
297.2298293846
 20
189.1030863878
 10
296.6791189394
 20
182.7346329076
 10
296.0785433538
 20
176.0840815762
 10
295.4219481499
 20
169.1357832723
 10
294.7018080799
 20
161.8681761298
  0
LINE
  5
35B
100
AcDbEntity
  8
BEZUGSACHSEN
100
AcDbLine
 62
7
  6
CONTINUOUS
 10
293.4594678511
 20
149.6540726259
 11
293.335012552
 21
148.1450434663
  0
LINE
  5
35C
100
AcDbEntity
  8
BEZUGSACHSEN
100
AcDbLine
 62
7
  6
CONTINUOUS
 10
293.5933056797
 20
151.1497414794
 11
293.4594678511
 21
149.6540726259
  0
LINE
  5
35D
100
AcDbEntity
  8
BEZUGSACHSEN
100
AcDbLine
 62
7
  6
CONTINUOUS
 10
293.736905989
 20
152.6281291338
 11
293.5933056797
 21
151.1497414794
  0
LINE
  5
35E
100
AcDbEntity
  8
BEZUGSACHSEN
100
AcDbLine
 62
7
  6
CONTINUOUS
 10
293.8773462932
 20
153.9661383187
 11
293.736905989
 21
152.6281291338
  0
LWPOLYLINE
  5
35F
100
AcDbEntity
  8
BEZUGSACHSEN
100
AcDbPolyline
 62
7
  6
CONTINUOUS
 90
3
 70
0
 10
294.7018080799
 20
161.8681761298
 10
293.8876662669
 20
154.0608217645
 10
293.8772543985
 20
153.965298485
  0
LWPOLYLINE
  5
360
100
AcDbEntity
  8
BEZUGSACHSEN
100
AcDbPolyline
 62
7
  6
CONTINUOUS
 90
7
 70
0
 10
295.4939483088
 20
62.4688111489
 10
295.5028085707
 20
62.413450367
 10
295.5131154636
 20
62.3512168158
 10
295.5252349995
 20
62.2807813425
 10
295.539618
 20
62.2006738267
 10
295.5569658841
 20
62.1085282411
 10
295.566355572
 20
62.0604885516
  0
LINE
  5
361
100
AcDbEntity
  8
BEZUGSACHSEN
100
AcDbLine
 62
7
  6
CONTINUOUS
 10
295.4793098875
 20
62.5643736285
 11
295.4939483088
 21
62.4688111489
  0
LINE
  5
362
100
AcDbEntity
  8
BEZUGSACHSEN
100
AcDbLine
 62
7
  6
CONTINUOUS
 10
295.4674863769
 20
62.6455639461
 11
295.4793098875
 21
62.5643736285
  0
LINE
  5
363
100
AcDbEntity
  8
BEZUGSACHSEN
100
AcDbLine
 62
7
  6
CONTINUOUS
 10
295.4572956975
 20
62.7185548103
 11
295.4674863769
 21
62.6455639461
  0
LINE
  5
364
100
AcDbEntity
  8
BEZUGSACHSEN
100
AcDbLine
 62
7
  6
CONTINUOUS
 10
295.4436884028
 20
62.8204084275
 11
295.4572956975
 21
62.7185548103
  0
LINE
  5
365
100
AcDbEntity
  8
BEZUGSACHSEN
100
AcDbLine
 62
7
  6
CONTINUOUS
 10
295.4310248116
 20
62.9195793186
 11
295.4436884028
 21
62.8204084275
  0
LINE
  5
366
100
AcDbEntity
  8
BEZUGSACHSEN
100
AcDbLine
 62
7
  6
CONTINUOUS
 10
295.4143905053
 20
63.0558254551
 11
295.4310248116
 21
62.9195793186
  0
LINE
  5
367
100
AcDbEntity
  8
BEZUGSACHSEN
100
AcDbLine
 62
7
  6
CONTINUOUS
 10
295.3972112227
 20
63.2030291026
 11
295.4143905053
 21
63.0558254551
  0
LINE
  5
368
100
AcDbEntity
  8
BEZUGSACHSEN
100
AcDbLine
 62
7
  6
CONTINUOUS
 10
295.3790317917
 20
63.3653304976
 11
295.3972112227
 21
63.2030291026
  0
LWPOLYLINE
  5
369
100
AcDbEntity
  8
BEZUGSACHSEN
100
AcDbPolyline
 62
7
  6
CONTINUOUS
 90
7
 70
0
 10
298.2743797835
 20
123.0060162586
 10
298.0334700936
 20
120.4596650206
 10
297.7632865231
 20
117.7856358523
 10
297.4774058822
 20
115.1171834654
 10
297.1776228061
 20
112.4465724138
 10
296.8665499513
 20
109.7622269669
 10
296.2270805875
 20
104.2992758071
  0
LWPOLYLINE
  5
36A
100
AcDbEntity
  8
BEZUGSACHSEN
100
AcDbPolyline
 62
7
  6
CONTINUOUS
 90
8
 70
0
 10
296.2270805875
 20
104.2992758071
 10
295.9100794542
 20
101.488581431
 10
295.6051065331
 20
98.6025519809
 10
295.3217010336
 20
95.6212465016
 10
295.0714096687
 20
92.5266853722
 10
294.8669770776
 20
89.2932745867
 10
294.7229359097
 20
85.8927878204
 10
294.6563251257
 20
82.4290994387
  0
LWPOLYLINE
  5
36B
100
AcDbEntity
  8
RUNDUNGEN
100
AcDbPolyline
 62
7
  6
CONTINUOUS
 90
38
 70
0
 10
323.1347211603
 20
123.0060184463
 10
323.1138453902
 20
123.2114623288
 10
323.0794098899
 20
123.4856741364
 10
323.0368796924
 20
123.7627021463
 10
322.9857417986
 20
124.0432323043
 10
322.9254727273
 20
124.3274976522
 10
322.8555717204
 20
124.6153799603
 10
322.775659255
 20
124.9062369851
 10
322.6850009895
 20
125.2006213614
 10
322.5828565349
 20
125.4987265106
 10
322.4685367474
 20
125.8003601887
 10
322.341356473
 20
126.1051846117
 10
322.2003546011
 20
126.4133355963
 10
322.0444131748
 20
126.7249683296
 10
321.8728381192
 20
127.039175006
 10
321.6846126881
 20
127.3555544917
 10
321.4795808069
 20
127.6722363345
 10
321.2575725261
 20
127.9876094614
 10
321.0183603838
 20
128.3003017451
 10
320.7619585201
 20
128.6087566202
 10
320.4881304255
 20
128.911833613
 10
320.1968500875
 20
129.2082079169
 10
319.8879594908
 20
129.4967431015
 10
319.5614228842
 20
129.7762061451
 10
319.2172306507
 20
130.0453666991
 10
318.855435045
 20
130.302962915
 10
318.4762327646
 20
130.5476531689
 10
318.0798904886
 20
130.7780840933
 10
317.6667579375
 20
130.992885211
 10
317.2375798259
 20
131.1905385983
 10
316.7920032059
 20
131.3700303815
 10
316.3301921819
 20
131.5300052245
 10
315.8516929713
 20
131.6691949419
 10
315.3562892817
 20
131.7860494689
 10
314.8439176157
 20
131.8787903327
 10
314.3146586064
 20
131.9454203217
 10
313.768763996
 20
131.9837203452
 10
313.3566949011
 20
131.9923952232
  0
LWPOLYLINE
  5
36C
100
AcDbEntity
  8
RUNDUNGEN
100
AcDbPolyline
 62
7
  6
CONTINUOUS
 90
6
 70
0
 10
324.5425511926
 20
109.7622269669
 10
324.2314783378
 20
112.4465724138
 10
323.9316952617
 20
115.1171834654
 10
323.6458146208
 20
117.7856358523
 10
323.3756310504
 20
120.4596650206
 10
323.1347333424
 20
123.0058852439
  0
LWPOLYLINE
  5
36D
100
AcDbEntity
  8
RUNDUNGEN
100
AcDbPolyline
 62
7
  6
CONTINUOUS
 90
7
 70
0
 10
327.488108901
 20
154.370041628
 10
326.707293064
 20
161.8681761298
 10
325.987152994
 20
169.1357832723
 10
325.3305577901
 20
176.0840815762
 10
324.7299822045
 20
182.7346329076
 10
324.1792717594
 20
189.1030863878
 10
323.6820529192
 20
195.0914373217
  0
LWPOLYLINE
  5
36E
100
AcDbEntity
  8
RUNDUNGEN
100
AcDbPolyline
 62
7
  6
CONTINUOUS
 90
10
 70
0
 10
328.236953508
 20
145.9595197649
 10
328.1707731909
 20
146.8798182786
 10
328.1013109509
 20
147.7976002429
 10
328.0285301023
 20
148.7121543459
 10
327.9523366991
 20
149.6225940181
 10
327.8727195947
 20
150.5282423959
 10
327.7896019708
 20
151.4285230892
 10
327.7028611572
 20
152.322066923
 10
327.6125842886
 20
153.2086645991
 10
327.4881070335
 20
154.3700591115
  0
LINE
  5
36F
100
AcDbEntity
  8
RUNDUNGEN
100
AcDbLine
 62
7
  6
CONTINUOUS
 10
328.3597050467
 20
144.1143473787
 11
328.236953508
 21
145.9595197649
  0
LINE
  5
370
100
AcDbEntity
  8
RUNDUNGEN
100
AcDbLine
 62
7
  6
CONTINUOUS
 10
328.4700425334
 20
142.2674961537
 11
328.3597050467
 21
144.1143473787
  0
LINE
  5
371
100
AcDbEntity
  8
RUNDUNGEN
100
AcDbLine
 62
7
  6
CONTINUOUS
 10
328.568532541
 20
140.4223561427
 11
328.4700425334
 21
142.2674961537
  0
LWPOLYLINE
  5
372
100
AcDbEntity
  8
RUNDUNGEN
100
AcDbPolyline
 62
7
  6
CONTINUOUS
 90
13
 70
0
 10
323.6820463722
 20
195.0915174198
 10
323.6614746754
 20
195.5302695829
 10
323.6747765797
 20
196.0401354639
 10
323.7265099133
 20
196.5441698409
 10
323.8149943463
 20
197.0402989926
 10
323.9387929613
 20
197.5265952372
 10
324.0965884276
 20
198.000975903
 10
324.287101682
 20
198.4612497693
 10
324.5096772613
 20
198.9063257008
 10
324.7638921703
 20
199.334798787
 10
325.0495116604
 20
199.7449624152
 10
325.3668035591
 20
200.1351820625
 10
325.6559054421
 20
200.4437501074
  0
LINE
  5
373
100
AcDbEntity
  8
RUNDUNGEN
100
AcDbLine
 62
7
  6
CONTINUOUS
 10
328.655739247
 20
138.5813983639
 11
328.568532541
 21
140.4223561427
  0
LINE
  5
374
100
AcDbEntity
  8
RUNDUNGEN
100
AcDbLine
 62
7
  6
CONTINUOUS
 10
328.7321567879
 20
136.7476591825
 11
328.655739247
 21
138.5813983639
  0
LINE
  5
375
100
AcDbEntity
  8
RUNDUNGEN
100
AcDbLine
 62
7
  6
CONTINUOUS
 10
328.7982672854
 20
134.9238466315
 11
328.7321567879
 21
136.7476591825
  0
LINE
  5
376
100
AcDbEntity
  8
RUNDUNGEN
100
AcDbLine
 62
7
  6
CONTINUOUS
 10
328.8545428511
 20
133.1123121762
 11
328.7982672854
 21
134.9238466315
  0
LINE
  5
377
100
AcDbEntity
  8
RUNDUNGEN
100
AcDbLine
 62
7
  6
CONTINUOUS
 10
328.9014434862
 20
131.3150841444
 11
328.8545428511
 21
133.1123121762
  0
LINE
  5
378
100
AcDbEntity
  8
RUNDUNGEN
100
AcDbLine
 62
7
  6
CONTINUOUS
 10
328.9394158649
 20
129.5338753782
 11
328.9014434862
 21
131.3150841444
  0
LWPOLYLINE
  5
379
100
AcDbEntity
  8
RUNDUNGEN
100
AcDbPolyline
 62
7
  6
CONTINUOUS
 90
9
 70
0
 10
326.7527760182
 20
82.4290994387
 10
326.6861652343
 20
85.8927878204
 10
326.5421240663
 20
89.2932745867
 10
326.3376914753
 20
92.5266853722
 10
326.0874001104
 20
95.6212465016
 10
325.8039946108
 20
98.6025519809
 10
325.4990216897
 20
101.488581431
 10
325.1820205565
 20
104.2992758071
 10
324.5425511926
 20
109.7622269669
  0
LINE
  5
37A
100
AcDbEntity
  8
RUNDUNGEN
100
AcDbLine
 62
7
  6
CONTINUOUS
 10
328.9688891691
 20
127.7702785944
 11
328.9394158649
 21
129.5338753782
  0
LINE
  5
37B
100
AcDbEntity
  8
RUNDUNGEN
100
AcDbLine
 62
7
  6
CONTINUOUS
 10
328.9902766285
 20
126.025823198
 11
328.9688891691
 21
127.7702785944
  0
LINE
  5
37C
100
AcDbEntity
  8
RUNDUNGEN
100
AcDbLine
 62
7
  6
CONTINUOUS
 10
329.0039788689
 20
124.3017786804
 11
328.9902766285
 21
126.025823198
  0
LINE
  5
37D
100
AcDbEntity
  8
RUNDUNGEN
100
AcDbLine
 62
7
  6
CONTINUOUS
 10
326.7585047328
 20
81.408146539
 11
326.7527710225
 21
82.4297744366
  0
LINE
  5
37E
100
AcDbEntity
  8
RUNDUNGEN
100
AcDbLine
 62
7
  6
CONTINUOUS
 10
329.0103820256
 20
122.5991637712
 11
329.0039788689
 21
124.3017786804
  0
LINE
  5
37F
100
AcDbEntity
  8
RUNDUNGEN
100
AcDbLine
 62
7
  6
CONTINUOUS
 10
328.954550572
 20
229.8321422465
 11
328.954550572
 21
248.2423967413
  0
LINE
  5
380
100
AcDbEntity
  8
RUNDUNGEN
100
AcDbLine
 62
7
  6
CONTINUOUS
 10
333.704550572
 20
210.563460721
 11
333.704550572
 21
218.9254108093
  0
LINE
  5
381
100
AcDbEntity
  8
RUNDUNGEN
100
AcDbLine
 62
7
  6
CONTINUOUS
 10
326.7599265837
 20
80.3326834459
 11
326.7585047328
 21
81.408146539
  0
LINE
  5
382
100
AcDbEntity
  8
RUNDUNGEN
100
AcDbLine
 62
7
  6
CONTINUOUS
 10
329.0071050706
 20
120.0872078093
 11
329.0103820256
 21
122.5991637712
  0
LINE
  5
383
100
AcDbEntity
  8
RUNDUNGEN
100
AcDbLine
 62
7
  6
CONTINUOUS
 10
326.7548133639
 20
78.9670058854
 11
326.7599265837
 21
80.3326834459
  0
LINE
  5
384
100
AcDbEntity
  8
RUNDUNGEN
100
AcDbLine
 62
7
  6
CONTINUOUS
 10
328.9894312105
 20
117.6277551858
 11
329.0071050706
 21
120.0872078093
  0
LINE
  5
385
100
AcDbEntity
  8
RUNDUNGEN
100
AcDbLine
 62
7
  6
CONTINUOUS
 10
326.74274416
 20
77.6765107034
 11
326.7548133639
 21
78.9670058854
  0
LINE
  5
386
100
AcDbEntity
  8
RUNDUNGEN
100
AcDbLine
 62
7
  6
CONTINUOUS
 10
328.9589328637
 20
115.2236108328
 11
328.9894312105
 21
117.6277551858
  0
LINE
  5
387
100
AcDbEntity
  8
RUNDUNGEN
100
AcDbLine
 62
7
  6
CONTINUOUS
 10
326.7247537006
 20
76.4581139692
 11
326.74274416
 21
77.6765107034
  0
LINE
  5
388
100
AcDbEntity
  8
RUNDUNGEN
100
AcDbLine
 62
7
  6
CONTINUOUS
 10
328.9173883994
 20
112.87584981
 11
328.9589328637
 21
115.2236108328
  0
LINE
  5
389
100
AcDbEntity
  8
RUNDUNGEN
100
AcDbLine
 62
7
  6
CONTINUOUS
 10
326.7017645628
 20
75.3087628447
 11
326.7247537006
 21
76.4581139692
  0
LINE
  5
38A
100
AcDbEntity
  8
RUNDUNGEN
100
AcDbLine
 62
7
  6
CONTINUOUS
 10
328.8475683653
 20
109.8378922117
 11
328.9173883994
 21
112.87584981
  0
LINE
  5
38B
100
AcDbEntity
  8
RUNDUNGEN
100
AcDbLine
 62
7
  6
CONTINUOUS
 10
326.6745983338
 20
74.2254727428
 11
326.7017645628
 21
75.3087628447
  0
LINE
  5
38C
100
AcDbEntity
  8
RUNDUNGEN
100
AcDbLine
 62
7
  6
CONTINUOUS
 10
328.7643523604
 20
106.9120194472
 11
328.8475683653
 21
109.8378922117
  0
LINE
  5
38D
100
AcDbEntity
  8
RUNDUNGEN
100
AcDbLine
 62
7
  6
CONTINUOUS
 10
326.6439861412
 20
73.2053473001
 11
326.6745983338
 21
74.2254727428
  0
LINE
  5
38E
100
AcDbEntity
  8
RUNDUNGEN
100
AcDbLine
 62
7
  6
CONTINUOUS
 10
328.6707042066
 20
104.1038415791
 11
328.7643523604
 21
106.9120194472
  0
LINE
  5
38F
100
AcDbEntity
  8
RUNDUNGEN
100
AcDbLine
 62
7
  6
CONTINUOUS
 10
326.6105783107
 20
72.2455939506
 11
326.6439861412
 21
73.2053473001
  0
LINE
  5
390
100
AcDbEntity
  8
RUNDUNGEN
100
AcDbLine
 62
7
  6
CONTINUOUS
 10
328.542860726
 20
100.7653049391
 11
328.6707042066
 21
104.1038415791
  0
LINE
  5
391
100
AcDbEntity
  8
RUNDUNGEN
100
AcDbLine
 62
7
  6
CONTINUOUS
 10
326.5749532722
 20
71.3435366123
 11
326.6105783107
 21
72.2455939506
  0
LINE
  5
392
100
AcDbEntity
  8
RUNDUNGEN
100
AcDbLine
 62
7
  6
CONTINUOUS
 10
328.4070004729
 20
97.6224604295
 11
328.542860726
 21
100.7653049391
  0
LINE
  5
393
100
AcDbEntity
  8
RUNDUNGEN
100
AcDbLine
 62
7
  6
CONTINUOUS
 10
326.5376259194
 20
70.496628478
 11
326.5749532722
 21
71.3435366123
  0
LINE
  5
394
100
AcDbEntity
  8
RUNDUNGEN
100
AcDbLine
 62
7
  6
CONTINUOUS
 10
328.2384347863
 20
94.1142747186
 11
328.4070004729
 21
97.6224604295
  0
LINE
  5
395
100
AcDbEntity
  8
RUNDUNGEN
100
AcDbLine
 62
7
  6
CONTINUOUS
 10
326.4990553322
 20
69.7024614902
 11
326.5376259194
 21
70.496628478
  0
LINE
  5
396
100
AcDbEntity
  8
RUNDUNGEN
100
AcDbLine
 62
7
  6
CONTINUOUS
 10
328.0686107335
 20
90.8945223273
 11
328.2384347863
 21
94.1142747186
  0
LINE
  5
397
100
AcDbEntity
  8
RUNDUNGEN
100
AcDbLine
 62
7
  6
CONTINUOUS
 10
326.4497149319
 20
68.7804883403
 11
326.4990553322
 21
69.7024614902
  0
LINE
  5
398
100
AcDbEntity
  8
RUNDUNGEN
100
AcDbLine
 62
7
  6
CONTINUOUS
 10
327.8734223462
 20
87.4850561351
 11
328.0686107335
 21
90.8945223273
  0
LINE
  5
399
100
AcDbEntity
  8
RUNDUNGEN
100
AcDbLine
 62
7
  6
CONTINUOUS
 10
326.3997817588
 20
67.9333311853
 11
326.4497149319
 21
68.7804883403
  0
LINE
  5
39A
100
AcDbEntity
  8
RUNDUNGEN
100
AcDbLine
 62
7
  6
CONTINUOUS
 10
327.657229306
 20
83.9913760968
 11
327.8734223462
 21
87.4850561351
  0
LINE
  5
39B
100
AcDbEntity
  8
RUNDUNGEN
100
AcDbLine
 62
7
  6
CONTINUOUS
 10
326.350208457
 20
67.1621596515
 11
326.3997817588
 21
67.9333311853
  0
LINE
  5
39C
100
AcDbEntity
  8
RUNDUNGEN
100
AcDbLine
 62
7
  6
CONTINUOUS
 10
327.4256161146
 20
80.5125550184
 11
327.657229306
 21
83.9913760968
  0
LINE
  5
39D
100
AcDbEntity
  8
RUNDUNGEN
100
AcDbLine
 62
7
  6
CONTINUOUS
 10
326.3026885473
 20
66.4783277876
 11
326.350208457
 21
67.1621596515
  0
LINE
  5
39E
100
AcDbEntity
  8
RUNDUNGEN
100
AcDbLine
 62
7
  6
CONTINUOUS
 10
327.1894591963
 20
77.1987313564
 11
327.4256161146
 21
80.5125550184
  0
LINE
  5
39F
100
AcDbEntity
  8
RUNDUNGEN
100
AcDbLine
 62
7
  6
CONTINUOUS
 10
326.2588424215
 20
65.8895200763
 11
326.3026885473
 21
66.4783277876
  0
LINE
  5
3A0
100
AcDbEntity
  8
RUNDUNGEN
100
AcDbLine
 62
7
  6
CONTINUOUS
 10
326.9606729973
 20
74.1818938951
 11
327.1894591963
 21
77.1987313564
  0
LINE
  5
3A1
100
AcDbEntity
  8
RUNDUNGEN
100
AcDbLine
 62
7
  6
CONTINUOUS
 10
326.2191269324
 20
65.3877567238
 11
326.2588424215
 21
65.8895200763
  0
LINE
  5
3A2
100
AcDbEntity
  8
RUNDUNGEN
100
AcDbLine
 62
7
  6
CONTINUOUS
 10
326.7401306303
 20
71.4352423493
 11
326.9606729973
 21
74.1818938951
  0
LINE
  5
3A3
100
AcDbEntity
  8
RUNDUNGEN
100
AcDbLine
 62
7
  6
CONTINUOUS
 10
326.1761794303
 20
64.8764432775
 11
326.2191269324
 21
65.3877567238
  0
LINE
  5
3A4
100
AcDbEntity
  8
RUNDUNGEN
100
AcDbLine
 62
7
  6
CONTINUOUS
 10
326.5175724228
 20
68.8125445344
 11
326.7401306303
 21
71.4352423493
  0
LINE
  5
3A5
100
AcDbEntity
  8
RUNDUNGEN
100
AcDbLine
 62
7
  6
CONTINUOUS
 10
326.1377326552
 20
64.4448723571
 11
326.1761794303
 21
64.8764432775
  0
LINE
  5
3A6
100
AcDbEntity
  8
RUNDUNGEN
100
AcDbLine
 62
7
  6
CONTINUOUS
 10
326.3216564442
 20
66.6225881649
 11
326.5175724228
 21
68.8125445344
  0
LINE
  5
3A7
100
AcDbEntity
  8
RUNDUNGEN
100
AcDbLine
 62
7
  6
CONTINUOUS
 10
326.2807622068
 20
66.1792946459
 11
326.3216564442
 21
66.6225881649
  0
LINE
  5
3A8
100
AcDbEntity
  8
RUNDUNGEN
100
AcDbLine
 62
7
  6
CONTINUOUS
 10
326.1031527207
 20
64.0772412203
 11
326.1377326552
 21
64.4448723571
  0
LINE
  5
3A9
100
AcDbEntity
  8
RUNDUNGEN
100
AcDbLine
 62
7
  6
CONTINUOUS
 10
326.0720364349
 20
63.7630715451
 11
326.1031527207
 21
64.0772412203
  0
LINE
  5
3AA
100
AcDbEntity
  8
RUNDUNGEN
100
AcDbLine
 62
7
  6
CONTINUOUS
 10
326.0441080028
 20
63.4949240632
 11
326.0720364349
 21
63.7630715451
  0
LINE
  5
3AB
100
AcDbEntity
  8
RUNDUNGEN
100
AcDbLine
 62
7
  6
CONTINUOUS
 10
326.0229719063
 20
63.3012041736
 11
326.0441080028
 21
63.4949240632
  0
LINE
  5
3AC
100
AcDbEntity
  8
RUNDUNGEN
100
AcDbLine
 62
7
  6
CONTINUOUS
 10
326.0034069714
 20
63.1295573366
 11
326.0229719063
 21
63.3012041736
  0
LINE
  5
3AD
100
AcDbEntity
  8
RUNDUNGEN
100
AcDbLine
 62
7
  6
CONTINUOUS
 10
325.9885244745
 20
63.0043996096
 11
326.0034069714
 21
63.1295573366
  0
LINE
  5
3AE
100
AcDbEntity
  8
RUNDUNGEN
100
AcDbLine
 62
7
  6
CONTINUOUS
 10
325.973775219
 20
62.8854374495
 11
325.9885244745
 21
63.0043996096
  0
LINE
  5
3AF
100
AcDbEntity
  8
RUNDUNGEN
100
AcDbLine
 62
7
  6
CONTINUOUS
 10
325.96226187
 20
62.7963811345
 11
325.973775219
 21
62.8854374495
  0
LINE
  5
3B0
100
AcDbEntity
  8
RUNDUNGEN
100
AcDbLine
 62
7
  6
CONTINUOUS
 10
325.9495701057
 20
62.7023022996
 11
325.96226187
 21
62.7963811345
  0
LINE
  5
3B1
100
AcDbEntity
  8
RUNDUNGEN
100
AcDbLine
 62
7
  6
CONTINUOUS
 10
325.9399232929
 20
62.6337209928
 11
325.9495701057
 21
62.7023022996
  0
LINE
  5
3B2
100
AcDbEntity
  8
RUNDUNGEN
100
AcDbLine
 62
7
  6
CONTINUOUS
 10
325.9286761291
 20
62.5569051992
 11
325.9399232929
 21
62.6337209928
  0
LWPOLYLINE
  5
3B3
100
AcDbEntity
  8
BEZUGSACHSEN
100
AcDbPolyline
 62
7
  6
CONTINUOUS
 90
38
 70
0
 10
308.0524062462
 20
131.9923952232
 10
307.6289775119
 20
131.9832352422
 10
307.083568784
 20
131.944345224
 10
306.5548035047
 20
131.8771895587
 10
306.0429329452
 20
131.7839833917
 10
305.5480379552
 20
131.6667210394
 10
305.0700557275
 20
131.527179109
 10
304.6087707458
 20
131.3669066871
 10
304.1637325553
 20
131.1871728011
 10
303.7350988195
 20
130.9893309917
 10
303.3225144102
 20
130.7743943759
 10
302.9267160516
 20
130.5438778513
 10
302.5480473087
 20
130.2991483576
 10
302.1867702878
 20
130.0415557918
 10
301.8430772968
 20
129.7724376392
 10
301.5170171258
 20
129.4930514522
 10
301.2085771015
 20
129.2046228866
 10
300.9177191784
 20
128.9083802825
 10
300.6442835596
 20
128.6054551683
 10
300.3882428949
 20
128.2971674456
 10
300.1493610637
 20
127.9846540963
 10
299.9276484752
 20
127.6694622221
 10
299.7228760281
 20
127.352955206
 10
299.5348742577
 20
127.0367373026
 10
299.3634840763
 20
126.7226643693
 10
299.2077025555
 20
126.4111531255
 10
299.0668445786
 20
126.1031241782
 10
298.9397932846
 20
125.7984209134
 10
298.8255897166
 20
125.4969093032
 10
298.7235511084
 20
125.1989314917
 10
298.632989688
 20
124.9046830432
 10
298.5531662578
 20
124.6139749542
 10
298.4833468344
 20
124.3262579051
 10
298.4231519588
 20
124.0421790214
 10
298.3720802149
 20
123.7618598636
 10
298.32960757
 20
123.4850736997
 10
298.2952202852
 20
123.2111451182
 10
298.2743797835
 20
123.0060162585
  0
LINE
  5
3B4
100
AcDbEntity
  8
0
100
AcDbLine
 62
7
  6
CONTINUOUS
 10
308.0524092228
 20
131.9923952359
 11
313.3566919212
 21
131.9923952359
  0
LWPOLYLINE
  5
3B5
100
AcDbEntity
  8
RUNDUNGEN
100
AcDbPolyline
 62
7
  6
CONTINUOUS
 90
8
 70
0
 10
325.8427450414
 20
62.0604858712
 10
325.8538663636
 20
62.1175201222
 10
325.8708032801
 20
62.2078793343
 10
325.8847934489
 20
62.2860718192
 10
325.8965135227
 20
62.3543500818
 10
325.9063809038
 20
62.4139935499
 10
325.9148065591
 20
62.4666136365
 10
325.9286761291
 20
62.5569051992
  0
LINE
  5
3B6
100
AcDbEntity
  8
0
100
AcDbLine
 62
7
  6
CONTINUOUS
 10
320.9244464715
 20
37.1674097799
 11
321.3803377431
 21
39.478214696
  0
LINE
  5
3B7
100
AcDbEntity
  8
BEZUGSACHSEN
100
AcDbLine
 62
7
  6
CONTINUOUS
 10
295.7531687802
 20
200.4437770277
 11
289.1690159913
 21
207.0279298166
  0
LWPOLYLINE
  5
3B8
100
AcDbEntity
  8
BEZUGSACHSEN
100
AcDbPolyline
 62
7
  6
CONTINUOUS
 90
13
 70
0
 10
295.7531957018
 20
200.4437501074
 10
296.0422975849
 20
200.1351820625
 10
296.3595894836
 20
199.7449624152
 10
296.6452089736
 20
199.334798787
 10
296.8994238826
 20
198.9063257008
 10
297.1219994619
 20
198.4612497693
 10
297.3125127163
 20
198.000975903
 10
297.4703081826
 20
197.5265952372
 10
297.5941067976
 20
197.0402989926
 10
297.6825912306
 20
196.5441698409
 10
297.7343245642
 20
196.0401354639
 10
297.7476264685
 20
195.5302695829
 10
297.7270547718
 20
195.0915174198
  0
LINE
  5
3B9
100
AcDbEntity
  8
RUNDUNGEN
100
AcDbLine
 62
7
  6
CONTINUOUS
 10
333.0346808601
 20
221.4254022753
 11
329.624423553
 21
227.3321411981
  0
LWPOLYLINE
  5
3BA
100
AcDbEntity
  8
RUNDUNGEN
100
AcDbPolyline
 62
7
  6
CONTINUOUS
 90
32
 70
0
 10
316.1598624817
 20
30.8847007454
 10
316.4420434282
 20
31.029437324
 10
316.7702781516
 20
31.2146053796
 10
317.08618076
 20
31.4111084649
 10
317.3895022796
 20
31.6180642688
 10
317.6800594422
 20
31.8346099596
 10
317.9577560067
 20
32.0599286382
 10
318.2225286959
 20
32.293217263
 10
318.4743676656
 20
32.5337072856
 10
318.7133093232
 20
32.7806658711
 10
318.9393857699
 20
33.0333451153
 10
319.1528226791
 20
33.2912169846
 10
319.3532995019
 20
33.5530525467
 10
319.5411909872
 20
33.8184419731
 10
319.7151717037
 20
34.0843477728
 10
319.8746956496
 20
34.3482556999
 10
320.0194633623
 20
34.6075342189
 10
320.1493494384
 20
34.8593339754
 10
320.2648246949
 20
35.1015212115
 10
320.3659376073
 20
35.330684861
 10
320.4547847478
 20
35.5479839456
 10
320.5326441286
 20
35.7532328572
 10
320.6012555209
 20
35.9479862136
 10
320.6623027779
 20
36.1344983623
 10
320.7161346379
 20
36.3114673214
 10
320.7635164794
 20
36.4789401259
 10
320.8048048612
 20
36.6356218232
 10
320.8402996983
 20
36.7798599053
 10
320.8709788428
 20
36.912908556
 10
320.8974273962
 20
37.0348560385
 10
320.9205230515
 20
37.1476184567
 10
320.9244542925
 20
37.1674493774
  0
LINE
  5
3BB
100
AcDbEntity
  8
RUNDUNGEN
100
AcDbLine
 62
7
  6
CONTINUOUS
 10
315.97638751
 20
30.7973886157
 11
316.1598624817
 21
30.8847007454
  0
ARC
  5
3BC
100
AcDbEntity
  8
BEZUGSACHSEN
100
AcDbCircle
 62
7
  6
CONTINUOUS
 10
138.7310593717
 20
121.9923952359
 40
92.0
100
AcDbArc
 50
270.0000102024
 51
40.1105107614
  0
ARC
  5
3BD
100
AcDbEntity
  8
RUNDUNGEN
100
AcDbCircle
 62
7
  6
CONTINUOUS
 10
138.7310593717
 20
121.9923952359
 40
92.0
100
AcDbArc
 50
270.0000102024
 51
67.5768873859
  0
ARC
  5
3BE
100
AcDbEntity
  8
RUNDUNGEN
100
AcDbCircle
 62
7
  6
CONTINUOUS
 10
138.7310593717
 20
118.9923952359
 40
80.0
100
AcDbArc
 50
275.9635701183
 51
312.7671317572
  0
ARC
  5
3BF
100
AcDbEntity
  8
RUNDUNGEN
100
AcDbCircle
 62
7
  6
CONTINUOUS
 10
138.7310593717
 20
106.779633867
 40
76.7872386311
100
AcDbArc
 50
199.7999948137
 51
270.0000122237
  0
ARC
  5
3C0
100
AcDbEntity
  8
RUNDUNGEN
100
AcDbCircle
 62
7
  6
CONTINUOUS
 10
138.7310593717
 20
106.779633867
 40
67.8154108112
100
AcDbArc
 50
192.4856154187
 51
262.9100487185
  0
ARC
  5
3C1
100
AcDbEntity
  8
RUNDUNGEN
100
AcDbCircle
 62
7
  6
CONTINUOUS
 10
138.7310593717
 20
118.9923952359
 40
62.5437774765
100
AcDbArc
 50
202.6233979567
 51
262.9892348812
  0
ARC
  5
3C2
100
AcDbEntity
  8
RUNDUNGEN
100
AcDbCircle
 62
7
  6
CONTINUOUS
 10
138.7310593717
 20
118.9923952359
 40
62.5437774765
100
AcDbArc
 50
277.0107651188
 51
312.3766020433
  0
ARC
  5
3C3
100
AcDbEntity
  8
BEZUGSACHSEN
100
AcDbCircle
 62
7
  6
CONTINUOUS
 10
138.7310593717
 20
118.9923952359
 40
45.0
100
AcDbArc
 50
221.8
 51
41.1542282628
  0
ARC
  5
3C4
100
AcDbEntity
  8
RUNDUNGEN
100
AcDbCircle
 62
7
  6
CONTINUOUS
 10
138.7310593717
 20
118.9923952359
 40
45.0
100
AcDbArc
 50
221.8
 51
41.8000000028
  0
ARC
  5
3C5
100
AcDbEntity
  8
BEZUGSACHSEN
100
AcDbCircle
 62
7
  6
CONTINUOUS
 10
62.2703853393
 20
121.9923952359
 40
10.0
100
AcDbArc
 50
41.8
 51
199.7997485095
  0
ARC
  5
3C6
100
AcDbEntity
  8
RUNDUNGEN
100
AcDbCircle
 62
7
  6
CONTINUOUS
 10
62.2703853393
 20
121.9923952359
 40
10.0
100
AcDbArc
 50
41.8
 51
199.7997485095
  0
ARC
  5
3C7
100
AcDbEntity
  8
RUNDUNGEN
100
AcDbCircle
 62
7
  6
CONTINUOUS
 10
78.2306655092
 20
93.7795193911
 40
3.0
100
AcDbArc
 50
22.6233979567
 51
110.0
  0
ARC
  5
3C8
100
AcDbEntity
  8
RUNDUNGEN
100
AcDbCircle
 62
7
  6
CONTINUOUS
 10
75.448512589
 20
92.766898541
 40
3.0
100
AcDbArc
 50
110.0
 51
192.4856154187
  0
ARC
  5
3C9
100
AcDbEntity
  8
RUNDUNGEN
100
AcDbCircle
 62
7
  6
CONTINUOUS
 10
130.7310593717
 20
53.9386730834
 40
3.0
100
AcDbArc
 50
0.0
 51
82.9892348812
  0
ARC
  5
3CA
100
AcDbEntity
  8
RUNDUNGEN
100
AcDbCircle
 62
7
  6
CONTINUOUS
 10
130.7310593717
 20
42.4598275969
 40
3.0
100
AcDbArc
 50
262.9100487185
 51
360.0
  0
ARC
  5
3CB
100
AcDbEntity
  8
RUNDUNGEN
100
AcDbCircle
 62
7
  6
CONTINUOUS
 10
116.7310593717
 20
226.1146663629
 40
10.0
100
AcDbArc
 50
180.0000153319
 51
221.8000108413
  0
ARC
  5
3CC
100
AcDbEntity
  8
BEZUGSACHSEN
100
AcDbCircle
 62
7
  6
CONTINUOUS
 10
138.7310593717
 20
226.5423952359
 40
6.05
100
AcDbArc
 50
351.0963037447
 51
359.9982019368
  0
ARC
  5
3CD
100
AcDbEntity
  8
RUNDUNGEN
100
AcDbCircle
 62
7
  6
CONTINUOUS
 10
138.7310593717
 20
226.5423952359
 40
6.05
100
AcDbArc
 50
180.0017075281
 51
359.9982019368
  0
ARC
  5
3CE
100
AcDbEntity
  8
BEZUGSACHSEN
100
AcDbCircle
 62
7
  6
CONTINUOUS
 10
127.6810593717
 20
261.4923952359
 40
5.0
100
AcDbArc
 50
0.0
 51
90.0
  0
CIRCLE
  5
3CF
100
AcDbEntity
  8
BEZUGSACHSEN
100
AcDbCircle
 62
7
  6
CONTINUOUS
 10
120.7310593717
 20
249.7423952359
 40
2.5
  0
ARC
  5
3D0
100
AcDbEntity
  8
RUNDUNGEN
100
AcDbCircle
 62
7
  6
CONTINUOUS
 10
170.9453585733
 20
118.9923952359
 40
50.0
100
AcDbArc
 50
341.8669605725
 51
18.1330394275
  0
ARC
  5
3D1
100
AcDbEntity
  8
RUNDUNGEN
100
AcDbCircle
 62
7
  6
CONTINUOUS
 10
207.5125394392
 20
123.229448855
 40
3.0
100
AcDbArc
 50
0.0
 51
125.0
  0
ARC
  5
3D2
100
AcDbEntity
  8
RUNDUNGEN
100
AcDbCircle
 62
7
  6
CONTINUOUS
 10
207.5125394392
 20
114.7553416168
 40
3.0
100
AcDbArc
 50
235.0
 51
360.0
  0
ARC
  5
3D3
100
AcDbEntity
  8
RUNDUNGEN
100
AcDbCircle
 62
7
  6
CONTINUOUS
 10
201.4613997586
 20
118.9923952359
 40
3.0
100
AcDbArc
 50
125.0
 51
235.0
  0
ARC
  5
3D4
100
AcDbEntity
  8
RUNDUNGEN
100
AcDbCircle
 62
7
  6
CONTINUOUS
 10
205.1544798541
 20
143.0873681964
 40
3.0
100
AcDbArc
 50
305.0
 51
77.8
  0
ARC
  5
3D5
100
AcDbEntity
  8
RUNDUNGEN
100
AcDbCircle
 62
7
  6
CONTINUOUS
 10
197.4495946054
 20
137.6923494641
 40
3.0
100
AcDbArc
 50
200.0
 51
305.0
  0
ARC
  5
3D6
100
AcDbEntity
  8
RUNDUNGEN
100
AcDbCircle
 62
7
  6
CONTINUOUS
 10
194.660135346
 20
145.3563257917
 40
3.0
100
AcDbArc
 50
77.8
 51
200.0
  0
ARC
  5
3D7
100
AcDbEntity
  8
RUNDUNGEN
100
AcDbCircle
 62
7
  6
CONTINUOUS
 10
193.1107303411
 20
96.5166420311
 40
3.0
100
AcDbArc
 50
160.0
 51
277.5
  0
ARC
  5
3D8
100
AcDbEntity
  8
RUNDUNGEN
100
AcDbCircle
 62
7
  6
CONTINUOUS
 10
146.7310593717
 20
53.9386730834
 40
3.0
100
AcDbArc
 50
97.0107651188
 51
180.0
  0
ARC
  5
3D9
100
AcDbEntity
  8
RUNDUNGEN
100
AcDbCircle
 62
7
  6
CONTINUOUS
 10
182.9076156852
 20
70.5731982354
 40
3.0
100
AcDbArc
 50
45.0
 51
132.3766020433
  0
ARC
  5
3DA
100
AcDbEntity
  8
RUNDUNGEN
100
AcDbCircle
 62
7
  6
CONTINUOUS
 10
146.7310593717
 20
42.4091072417
 40
3.0
100
AcDbArc
 50
180.0
 51
275.9635701183
  0
ARC
  5
3DB
100
AcDbEntity
  8
RUNDUNGEN
100
AcDbCircle
 62
7
  6
CONTINUOUS
 10
191.0156210631
 20
62.4651928574
 40
3.0
100
AcDbArc
 50
312.7671317572
 51
45.0
  0
ARC
  5
3DC
100
AcDbEntity
  8
RUNDUNGEN
100
AcDbCircle
 62
7
  6
CONTINUOUS
 10
197.6929489273
 20
72.3596526252
 40
3.0
100
AcDbArc
 50
217.5
 51
322.5
  0
ARC
  5
3DD
100
AcDbEntity
  8
RUNDUNGEN
100
AcDbCircle
 62
7
  6
CONTINUOUS
 10
190.98100799
 20
81.1068243557
 40
3.0
100
AcDbArc
 50
97.5
 51
217.5
  0
ARC
  5
3DE
100
AcDbEntity
  8
RUNDUNGEN
100
AcDbCircle
 62
7
  6
CONTINUOUS
 10
205.9133641673
 20
83.0727063413
 40
3.0
100
AcDbArc
 50
322.5
 51
97.5
  0
ARC
  5
3DF
100
AcDbEntity
  8
RUNDUNGEN
100
AcDbCircle
 62
7
  6
CONTINUOUS
 10
195.2129492477
 20
102.2924410077
 40
3.0
100
AcDbArc
 50
55.0
 51
160.0
  0
ARC
  5
3E0
100
AcDbEntity
  8
RUNDUNGEN
100
AcDbCircle
 62
7
  6
CONTINUOUS
 10
201.8234803112
 20
97.6636973255
 40
3.0
100
AcDbArc
 50
277.5
 51
55.0
  0
ARC
  5
3E1
100
AcDbEntity
  8
RUNDUNGEN
100
AcDbCircle
 62
7
  6
CONTINUOUS
 10
217.5118433021
 20
134.2423952359
 40
1.0
100
AcDbArc
 50
18.1330394275
 51
90.0
  0
ARC
  5
3E2
100
AcDbEntity
  8
RUNDUNGEN
100
AcDbCircle
 62
7
  6
CONTINUOUS
 10
217.5118433021
 20
103.7423952359
 40
1.0
100
AcDbArc
 50
270.0
 51
341.8669605725
  0
ARC
  5
3E3
100
AcDbEntity
  8
RUNDUNGEN
100
AcDbCircle
 62
7
  6
CONTINUOUS
 10
217.2310593717
 20
103.7423952359
 40
1.0
100
AcDbArc
 50
180.0
 51
270.0
  0
ARC
  5
3E4
100
AcDbEntity
  8
RUNDUNGEN
100
AcDbCircle
 62
7
  6
CONTINUOUS
 10
217.2310593717
 20
134.2423952359
 40
1.0
100
AcDbArc
 50
90.0
 51
180.0
  0
ARC
  5
3E5
100
AcDbEntity
  8
BEZUGSACHSEN
100
AcDbCircle
 62
7
  6
CONTINUOUS
 10
149.7810593717
 20
261.4923952359
 40
5.0
100
AcDbArc
 50
90.0
 51
180.0
  0
ARC
  5
3E6
100
AcDbEntity
  8
BEZUGSACHSEN
100
AcDbCircle
 62
7
  6
CONTINUOUS
 10
165.7310593717
 20
261.4923952359
 40
5.0
100
AcDbArc
 50
0.0
 51
90.0
  0
ARC
  5
3E7
100
AcDbEntity
  8
RUNDUNGEN
100
AcDbCircle
 62
7
  6
CONTINUOUS
 10
175.7310593717
 20
211.6584365159
 40
4.9999972763
100
AcDbArc
 50
179.9999334921
 51
247.5768621464
  0
ARC
  5
3E8
100
AcDbEntity
  8
BEZUGSACHSEN
100
AcDbCircle
 62
7
  6
CONTINUOUS
 10
175.7310593717
 20
211.6584365159
 40
4.9999972763
100
AcDbArc
 50
179.9999334921
 51
247.5768621464
  0
ARC
  5
3E9
100
AcDbEntity
  8
RUNDUNGEN
100
AcDbCircle
 62
7
  6
CONTINUOUS
 10
194.9227414832
 20
158.63768884
 40
3.0
100
AcDbArc
 50
132.8
 51
257.8
  0
ARC
  5
3EA
100
AcDbEntity
  8
RUNDUNGEN
100
AcDbCircle
 62
7
  6
CONTINUOUS
 10
204.3345714386
 20
167.3531389393
 40
3.0
100
AcDbArc
 50
27.8
 51
132.8
  0
ARC
  5
3EB
100
AcDbEntity
  8
RUNDUNGEN
100
AcDbCircle
 62
7
  6
CONTINUOUS
 10
210.7318392232
 20
155.2196409225
 40
3.0
100
AcDbArc
 50
257.8
 51
27.8
  0
ARC
  5
3EC
100
AcDbEntity
  8
RUNDUNGEN
100
AcDbCircle
 62
7
  6
CONTINUOUS
 10
177.2172013841
 20
185.9923952359
 40
3.0
100
AcDbArc
 50
61.8
 51
90.0
  0
ARC
  5
3ED
100
AcDbEntity
  8
RUNDUNGEN
100
AcDbCircle
 62
7
  6
CONTINUOUS
 10
191.2243685667
 20
178.4818180899
 40
3.0
100
AcDbArc
 50
311.8
 51
61.8
  0
ARC
  5
3EE
100
AcDbEntity
  8
RUNDUNGEN
100
AcDbCircle
 62
7
  6
CONTINUOUS
 10
180.2031514061
 20
168.6277126562
 40
3.0
100
AcDbArc
 50
221.8
 51
311.8
  0
ARC
  5
3EF
100
AcDbEntity
  8
RUNDUNGEN
100
AcDbCircle
 62
7
  6
CONTINUOUS
 10
164.6773332981
 20
185.9923952359
 40
3.0
100
AcDbArc
 50
90.0
 51
221.8
  0
ARC
  5
3F0
100
AcDbEntity
  8
RUNDUNGEN
100
AcDbCircle
 62
7
  6
CONTINUOUS
 10
737.8369633188
 20
82.7198486038
 40
412.5573114061
100
AcDbArc
 50
178.3035205048
 51
180.7521119992
  0
ARC
  5
3F1
100
AcDbEntity
  8
BEZUGSACHSEN
100
AcDbCircle
 62
7
  6
CONTINUOUS
 10
-116.4278621749
 20
82.7198486038
 40
412.5573114061
100
AcDbArc
 50
359.2478880008
 51
1.6964794952
  0
ARC
  5
3F2
100
AcDbEntity
  8
RUNDUNGEN
100
AcDbCircle
 62
7
  6
CONTINUOUS
 10
727.8253404
 20
66.1260254884
 40
405.3560363177
100
AcDbArc
 50
176.3235506701
 51
179.625612983
  0
ARC
  5
3F3
100
AcDbEntity
  8
BEZUGSACHSEN
100
AcDbCircle
 62
7
  6
CONTINUOUS
 10
-106.4162392561
 20
66.1260254884
 40
405.3560363177
100
AcDbArc
 50
0.374387017
 51
3.6764493299
  0
ARC
  5
3F4
100
AcDbEntity
  8
RUNDUNGEN
100
AcDbCircle
 62
7
  6
CONTINUOUS
 10
128.1124928362
 20
236.7255494225
 40
241.5279924098
100
AcDbArc
 50
324.2421296959
 51
324.5375995321
  0
ARC
  5
3F5
100
AcDbEntity
  8
BEZUGSACHSEN
100
AcDbCircle
 62
7
  6
CONTINUOUS
 10
493.2966083078
 20
236.7255494225
 40
241.5279924098
100
AcDbArc
 50
215.4624004679
 51
215.7578703041
  0
ARC
  5
3F6
100
AcDbEntity
  8
BEZUGSACHSEN
100
AcDbCircle
 62
7
  6
CONTINUOUS
 10
310.704550572
 20
248.2423952359
 40
18.25
100
AcDbArc
 50
0.0000047263
 51
179.9999952737
  0
ARC
  5
3F7
100
AcDbEntity
  8
BEZUGSACHSEN
100
AcDbCircle
 62
7
  6
CONTINUOUS
 10
309.0966447654
 20
38.7330788378
 40
8.7406836136
100
AcDbArc
 50
245.217648569
 51
269.9999886614
  0
ARC
  5
3F8
100
AcDbEntity
  8
RUNDUNGEN
100
AcDbCircle
 62
7
  6
CONTINUOUS
 10
312.3124563816
 20
38.7330788102
 40
8.740683586
100
AcDbArc
 50
270.0000113188
 51
294.7829068971
  0
ARC
  5
3F9
100
AcDbEntity
  8
RUNDUNGEN
100
AcDbCircle
 62
7
  6
CONTINUOUS
 10
333.954550572
 20
229.8321411981
 40
5.0
100
AcDbArc
 50
179.9999879863
 51
209.9999921865
  0
ARC
  5
3FA
100
AcDbEntity
  8
RUNDUNGEN
100
AcDbCircle
 62
7
  6
CONTINUOUS
 10
328.704550572
 20
218.9254079378
 40
5.0
100
AcDbArc
 50
0.0000329049
 51
29.9999250745
  0
ARC
  5
3FB
100
AcDbEntity
  8
RUNDUNGEN
100
AcDbCircle
 62
7
  6
CONTINUOUS
 10
328.704550572
 20
210.5634630478
 40
5.0
100
AcDbArc
 50
315.0000109344
 51
359.999973337
  0
ARC
  5
3FC
100
AcDbEntity
  8
BEZUGSACHSEN
100
AcDbCircle
 62
7
  6
CONTINUOUS
 10
287.454550572
 20
229.8321411981
 40
5.0
100
AcDbArc
 50
330.0000078135
 51
0.0000120137
  0
ARC
  5
3FD
100
AcDbEntity
  8
BEZUGSACHSEN
100
AcDbCircle
 62
7
  6
CONTINUOUS
 10
292.704550572
 20
218.9254079378
 40
5.0
100
AcDbArc
 50
150.0000749255
 51
179.9999670951
  0
ARC
  5
3FE
100
AcDbEntity
  8
BEZUGSACHSEN
100
AcDbCircle
 62
7
  6
CONTINUOUS
 10
292.704550572
 20
210.5634630478
 40
5.0
100
AcDbArc
 50
180.000026663
 51
224.9999890656
  0
SPLINE
  5
3FF
100
AcDbEntity
  8
BEZUGSACHSEN
100
AcDbSpline
 62
7
  6
CONTINUOUS
 70
0
 71
3
 72
11
 73
7
 74
0
 42
0.0000001
 43
0.0000001
 44
0.0000000001
 40
0.0
 40
0.0
 40
0.0
 40
0.0
 40
0.067044619
 40
0.2535266906
 40
0.5643498251
 40
1.0
 40
1.0
 40
1.0
 40
1.0
 10
300.0529225162
 20
39.4598328465
 30
0.0
 10
300.0534389136
 20
39.459844438
 30
0.0
 10
300.0535002909
 20
39.4627416744
 30
0.0
 10
300.0535306133
 20
39.4662133557
 30
0.0
 10
300.0528431973
 20
39.4738855367
 30
0.0
 10
300.0522333595
 20
39.4794339403
 30
0.0
 10
300.0518369187
 20
39.4827667962
 30
0.0
  0
SPLINE
  5
400
100
AcDbEntity
  8
RUNDUNGEN
100
AcDbSpline
 62
7
  6
CONTINUOUS
 70
0
 71
3
 72
10
 73
6
 74
0
 42
0.0000001
 43
0.0000001
 44
0.0000000001
 40
0.0
 40
0.0
 40
0.0
 40
0.0
 40
0.3231458735
 40
0.5925696629
 40
1.0
 40
1.0
 40
1.0
 40
1.0
 10
324.8361782259
 20
96.5985972535
 30
0.0
 10
324.8556640514
 20
96.62595899
 30
0.0
 10
324.8941412253
 20
96.6745912412
 30
0.0
 10
324.9687432555
 20
96.7460224124
 30
0.0
 10
325.0375483054
 20
96.779528633
 30
0.0
 10
325.0799007972
 20
96.7795188576
 30
0.0
  0
SPLINE
  5
401
100
AcDbEntity
  8
RUNDUNGEN
100
AcDbSpline
 62
7
  6
CONTINUOUS
 70
0
 71
3
 72
15
 73
11
 74
0
 42
0.0000001
 43
0.0000001
 44
0.0000000001
 40
0.0
 40
0.0
 40
0.0
 40
0.0
 40
0.0185599076
 40
0.04357769
 40
0.1126711759
 40
0.2064822449
 40
0.3239378054
 40
0.4637075974
 40
0.6242152461
 40
1.0
 40
1.0
 40
1.0
 40
1.0
 10
321.3572642252
 20
39.4827667962
 30
0.0
 10
321.3786908367
 20
39.6628991422
 30
0.0
 10
321.4233722168
 20
40.0865019287
 30
0.0
 10
321.5244814777
 20
41.1830973759
 30
0.0
 10
321.6642413081
 20
43.0146074514
 30
0.0
 10
321.8367892011
 20
45.7494245394
 30
0.0
 10
322.012548167
 20
49.1759844196
 30
0.0
 10
322.1780172366
 20
53.2555757962
 30
0.0
 10
322.3780308299
 20
59.8603820571
 30
0.0
 10
322.4553876228
 20
65.101915238
 30
0.0
 10
322.4779577736
 20
68.7747189632
 30
0.0
  0
SPLINE
  5
402
100
AcDbEntity
  8
RUNDUNGEN
100
AcDbSpline
 62
7
  6
CONTINUOUS
 70
0
 71
3
 72
11
 73
7
 74
0
 42
0.0000001
 43
0.0000001
 44
0.0000000001
 40
0.0
 40
0.0
 40
0.0
 40
0.0
 40
0.067044619
 40
0.2535266906
 40
0.5643498251
 40
1.0
 40
1.0
 40
1.0
 40
1.0
 10
321.3561786277
 20
39.4598328465
 30
0.0
 10
321.3556622303
 20
39.459844438
 30
0.0
 10
321.3556008531
 20
39.4627416744
 30
0.0
 10
321.3555705307
 20
39.4662133557
 30
0.0
 10
321.3562579467
 20
39.4738855367
 30
0.0
 10
321.3568677844
 20
39.4794339403
 30
0.0
 10
321.3572642252
 20
39.4827667962
 30
0.0
  0
SPLINE
  5
403
100
AcDbEntity
  8
RUNDUNGEN
100
AcDbSpline
 62
7
  6
CONTINUOUS
 70
0
 71
3
 72
13
 73
9
 74
0
 42
0.0000001
 43
0.0000001
 44
0.0000000001
 40
0.0
 40
0.0
 40
0.0
 40
0.0
 40
0.3046244523
 40
0.5938508377
 40
0.7217183686
 40
0.8336556771
 40
0.9269915818
 40
1.0
 40
1.0
 40
1.0
 40
1.0
 10
323.30350284
 20
92.1183150413
 30
0.0
 10
323.3263851016
 20
92.4819804527
 30
0.0
 10
323.4002179346
 20
93.1892585302
 30
0.0
 10
323.5543643597
 20
94.0398621627
 30
0.0
 10
323.7128906848
 20
94.6527543408
 30
0.0
 10
323.8355958045
 20
95.0322920613
 30
0.0
 10
323.9628140318
 20
95.3401575517
 30
0.0
 10
324.059916042
 20
95.5151028973
 30
0.0
 10
324.1109419256
 20
95.5859764034
 30
0.0
  0
SPLINE
  5
404
100
AcDbEntity
  8
BEZUGSACHSEN
100
AcDbSpline
 62
7
  6
CONTINUOUS
 70
0
 71
3
 72
10
 73
6
 74
0
 42
0.0000001
 43
0.0000001
 44
0.0000000001
 40
0.0
 40
0.0
 40
0.0
 40
0.0
 40
0.3231458735
 40
0.5925696629
 40
1.0
 40
1.0
 40
1.0
 40
1.0
 10
296.572922918
 20
96.5985972535
 30
0.0
 10
296.5534370925
 20
96.62595899
 30
0.0
 10
296.5149599187
 20
96.6745912412
 30
0.0
 10
296.4403578885
 20
96.7460224124
 30
0.0
 10
296.3715528385
 20
96.779528633
 30
0.0
 10
296.3292003467
 20
96.7795188576
 30
0.0
  0
SPLINE
  5
405
100
AcDbEntity
  8
BEZUGSACHSEN
100
AcDbSpline
 62
7
  6
CONTINUOUS
 70
0
 71
3
 72
15
 73
11
 74
0
 42
0.0000001
 43
0.0000001
 44
0.0000000001
 40
0.0
 40
0.0
 40
0.0
 40
0.0
 40
0.0185599076
 40
0.04357769
 40
0.1126711759
 40
0.2064822449
 40
0.3239378054
 40
0.4637075974
 40
0.6242152461
 40
1.0
 40
1.0
 40
1.0
 40
1.0
 10
300.0518369187
 20
39.4827667962
 30
0.0
 10
300.0304103072
 20
39.6628991422
 30
0.0
 10
299.9857289271
 20
40.0865019287
 30
0.0
 10
299.8846196662
 20
41.1830973759
 30
0.0
 10
299.7448598358
 20
43.0146074514
 30
0.0
 10
299.5723119429
 20
45.7494245394
 30
0.0
 10
299.3965529769
 20
49.1759844196
 30
0.0
 10
299.2310839073
 20
53.2555757962
 30
0.0
 10
299.0310703141
 20
59.8603820571
 30
0.0
 10
298.9537135212
 20
65.101915238
 30
0.0
 10
298.9311433703
 20
68.7747189632
 30
0.0
  0
SPLINE
  5
406
100
AcDbEntity
  8
BEZUGSACHSEN
100
AcDbSpline
 62
7
  6
CONTINUOUS
 70
0
 71
3
 72
13
 73
9
 74
0
 42
0.0000001
 43
0.0000001
 44
0.0000000001
 40
0.0
 40
0.0
 40
0.0
 40
0.0
 40
0.3046244523
 40
0.5938508377
 40
0.7217183686
 40
0.8336556771
 40
0.9269915818
 40
1.0
 40
1.0
 40
1.0
 40
1.0
 10
298.105598304
 20
92.1183150413
 30
0.0
 10
298.0827160424
 20
92.4819804527
 30
0.0
 10
298.0088832094
 20
93.1892585302
 30
0.0
 10
297.8547367842
 20
94.0398621627
 30
0.0
 10
297.6962104591
 20
94.6527543408
 30
0.0
 10
297.5735053395
 20
95.0322920613
 30
0.0
 10
297.4462871121
 20
95.3401575517
 30
0.0
 10
297.3491851019
 20
95.5151028973
 30
0.0
 10
297.2981592183
 20
95.5859764034
 30
0.0
  0
SPLINE
  5
407
100
AcDbEntity
  8
BEZUGSACHSEN
100
AcDbSpline
 62
7
  6
CONTINUOUS
 70
0
 71
3
 72
17
 73
13
 74
0
 42
0.0000001
 43
0.0000001
 44
0.0000000001
 40
0.0
 40
0.0
 40
0.0
 40
0.0
 40
0.0238004293
 40
0.0492487197
 40
0.0784603305
 40
0.1128310497
 40
0.1997925022
 40
0.3129417284
 40
0.4519437287
 40
0.6148886739
 40
0.798848343
 40
1.0
 40
1.0
 40
1.0
 40
1.0
 10
296.3292003467
 20
96.7795188576
 30
0.0
 10
296.3135713858
 20
96.7795152503
 30
0.0
 10
296.2809697923
 20
96.7738500996
 30
0.0
 10
296.2353152375
 20
96.7483858393
 30
0.0
 10
296.1930774925
 20
96.7072539991
 30
0.0
 10
296.1364420316
 20
96.6257225701
 30
0.0
 10
296.0768807589
 20
96.4822857742
 30
0.0
 10
296.0219198646
 20
96.2662293659
 30
0.0
 10
295.9803662054
 20
95.9964609869
 30
0.0
 10
295.9534059962
 20
95.6783663948
 30
0.0
 10
295.9419469865
 20
95.3185193499
 30
0.0
 10
295.9447753
 20
95.0655701031
 30
0.0
 10
295.9486175466
 20
94.9335363008
 30
0.0
  0
SPLINE
  5
408
100
AcDbEntity
  8
RUNDUNGEN
100
AcDbSpline
 62
7
  6
CONTINUOUS
 70
0
 71
3
 72
8
 73
4
 74
0
 42
0.0000001
 43
0.0000001
 44
0.0000000001
 40
0.0
 40
0.0
 40
0.0
 40
0.0
 40
1.0
 40
1.0
 40
1.0
 40
1.0
 10
324.2252960486
 20
53.9386730834
 30
0.0
 10
323.471060082
 20
50.112533125
 30
0.0
 10
322.7180457931
 20
46.2861524324
 30
0.0
 10
321.9647482901
 20
42.4598275969
 30
0.0
  0
SPLINE
  5
409
100
AcDbEntity
  8
RUNDUNGEN
100
AcDbSpline
 62
7
  6
CONTINUOUS
 70
0
 71
3
 72
10
 73
6
 74
0
 42
0.0000001
 43
0.0000001
 44
0.0000000001
 40
0.0
 40
0.0
 40
0.0
 40
0.0
 40
0.6102406925
 40
0.8447819673
 40
1.0
 40
1.0
 40
1.0
 40
1.0
 10
321.9647482901
 20
42.4598275969
 30
0.0
 10
321.8512774622
 20
41.8834600329
 30
0.0
 10
321.6937612488
 20
41.0856495088
 30
0.0
 10
321.5039786646
 20
40.1419284097
 30
0.0
 10
321.4286929288
 20
39.7743564166
 30
0.0
 10
321.3970990184
 20
39.6283185935
 30
0.0
  0
SPLINE
  5
40A
100
AcDbEntity
  8
RUNDUNGEN
100
AcDbSpline
 62
7
  6
CONTINUOUS
 70
0
 71
3
 72
14
 73
10
 74
0
 42
0.0000001
 43
0.0000001
 44
0.0000000001
 40
0.0
 40
0.0
 40
0.0
 40
0.0
 40
0.4322015074
 40
0.6034547791
 40
0.7443035851
 40
0.8544563448
 40
0.9337603469
 40
0.9821339999
 40
1.0
 40
1.0
 40
1.0
 40
1.0
 10
321.3970990184
 20
39.6283185935
 30
0.0
 10
321.3918110137
 20
39.6038756331
 30
0.0
 10
321.384354222
 20
39.5697330647
 30
0.0
 10
321.3747765106
 20
39.5278095429
 30
0.0
 10
321.369206323
 20
39.5038832755
 30
0.0
 10
321.3645108341
 20
39.485709067
 30
0.0
 10
321.3611544372
 20
39.471555651
 30
0.0
 10
321.3582706304
 20
39.4650614492
 30
0.0
 10
321.3572121456
 20
39.4598096472
 30
0.0
 10
321.3561786277
 20
39.4598328465
 30
0.0
  0
SPLINE
  5
40B
100
AcDbEntity
  8
RUNDUNGEN
100
AcDbSpline
 62
7
  6
CONTINUOUS
 70
0
 71
3
 72
14
 73
10
 74
0
 42
0.0000001
 43
0.0000001
 44
0.0000000001
 40
0.0
 40
0.0
 40
0.0
 40
0.0
 40
0.0387171407
 40
0.1093654885
 40
0.2093383373
 40
0.3350221523
 40
0.4820287031
 40
0.6454243444
 40
1.0
 40
1.0
 40
1.0
 40
1.0
 10
324.7877268168
 20
56.9162427929
 30
0.0
 10
324.7839124569
 20
56.8773197427
 30
0.0
 10
324.7658495388
 20
56.7682210927
 30
0.0
 10
324.7301108528
 20
56.5598755314
 30
0.0
 10
324.6757380203
 20
56.2655080587
 30
0.0
 10
324.6060821263
 20
55.8955829514
 30
0.0
 10
324.5230947958
 20
55.4629596608
 30
0.0
 10
324.3952776228
 20
54.8035176466
 30
0.0
 10
324.2945677715
 20
54.2900794321
 30
0.0
 10
324.2252960486
 20
53.9386730834
 30
0.0
  0
SPLINE
  5
40C
100
AcDbEntity
  8
RUNDUNGEN
100
AcDbSpline
 62
7
  6
CONTINUOUS
 70
0
 71
3
 72
13
 73
9
 74
0
 42
0.0000001
 43
0.0000001
 44
0.0000000001
 40
0.0
 40
0.0
 40
0.0
 40
0.0
 40
0.3756164798
 40
0.6733683108
 40
0.7899794404
 40
0.8837710298
 40
0.9539747792
 40
1.0
 40
1.0
 40
1.0
 40
1.0
 10
325.3151960376
 20
77.3044341388
 30
0.0
 10
325.35227658
 20
74.7502152089
 30
0.0
 10
325.3627236813
 20
70.1701974693
 30
0.0
 10
325.239630792
 20
64.798507519
 30
0.0
 10
325.0904175897
 20
61.3457953888
 30
0.0
 10
324.9836073491
 20
59.4403782291
 30
0.0
 10
324.8843645751
 20
58.0154956174
 30
0.0
 10
324.8182545464
 20
57.2277583195
 30
0.0
 10
324.7877268168
 20
56.9162427929
 30
0.0
  0
SPLINE
  5
40D
100
AcDbEntity
  8
BEZUGSACHSEN
100
AcDbSpline
 62
7
  6
CONTINUOUS
 70
0
 71
3
 72
13
 73
9
 74
0
 42
0.0000001
 43
0.0000001
 44
0.0000000001
 40
0.0
 40
0.0
 40
0.0
 40
0.0
 40
0.3756164798
 40
0.6733683108
 40
0.7899794404
 40
0.8837710298
 40
0.9539747792
 40
1.0
 40
1.0
 40
1.0
 40
1.0
 10
296.0939051063
 20
77.3044341388
 30
0.0
 10
296.0568245639
 20
74.7502152089
 30
0.0
 10
296.0463774626
 20
70.1701974693
 30
0.0
 10
296.1694703519
 20
64.798507519
 30
0.0
 10
296.3186835543
 20
61.3457953888
 30
0.0
 10
296.4254937948
 20
59.4403782291
 30
0.0
 10
296.5247365689
 20
58.0154956174
 30
0.0
 10
296.5908465975
 20
57.2277583195
 30
0.0
 10
296.6213743271
 20
56.9162427929
 30
0.0
  0
SPLINE
  5
40E
100
AcDbEntity
  8
BEZUGSACHSEN
100
AcDbSpline
 62
7
  6
CONTINUOUS
 70
0
 71
3
 72
8
 73
4
 74
0
 42
0.0000001
 43
0.0000001
 44
0.0000000001
 40
0.0
 40
0.0
 40
0.0
 40
0.0
 40
1.0
 40
1.0
 40
1.0
 40
1.0
 10
297.1838050953
 20
53.9386730834
 30
0.0
 10
297.9380410619
 20
50.112533125
 30
0.0
 10
298.6910553508
 20
46.2861524324
 30
0.0
 10
299.4443528538
 20
42.4598275969
 30
0.0
  0
SPLINE
  5
40F
100
AcDbEntity
  8
RUNDUNGEN
100
AcDbSpline
 62
7
  6
CONTINUOUS
 70
0
 71
3
 72
17
 73
13
 74
0
 42
0.0000001
 43
0.0000001
 44
0.0000000001
 40
0.0
 40
0.0
 40
0.0
 40
0.0
 40
0.0238004293
 40
0.0492487197
 40
0.0784603305
 40
0.1128310497
 40
0.1997925022
 40
0.3129417284
 40
0.4519437287
 40
0.6148886739
 40
0.798848343
 40
1.0
 40
1.0
 40
1.0
 40
1.0
 10
325.0799007972
 20
96.7795188576
 30
0.0
 10
325.0955297582
 20
96.7795152503
 30
0.0
 10
325.1281313516
 20
96.7738500996
 30
0.0
 10
325.1737859064
 20
96.7483858393
 30
0.0
 10
325.2160236514
 20
96.7072539991
 30
0.0
 10
325.2726591123
 20
96.6257225701
 30
0.0
 10
325.3322203851
 20
96.4822857742
 30
0.0
 10
325.3871812794
 20
96.2662293659
 30
0.0
 10
325.4287349386
 20
95.9964609869
 30
0.0
 10
325.4556951477
 20
95.6783663948
 30
0.0
 10
325.4671541574
 20
95.3185193499
 30
0.0
 10
325.464325844
 20
95.0655701031
 30
0.0
 10
325.4604835974
 20
94.9335363008
 30
0.0
  0
SPLINE
  5
410
100
AcDbEntity
  8
BEZUGSACHSEN
100
AcDbSpline
 62
7
  6
CONTINUOUS
 70
0
 71
3
 72
14
 73
10
 74
0
 42
0.0000001
 43
0.0000001
 44
0.0000000001
 40
0.0
 40
0.0
 40
0.0
 40
0.0
 40
0.0387171407
 40
0.1093654885
 40
0.2093383373
 40
0.3350221523
 40
0.4820287031
 40
0.6454243444
 40
1.0
 40
1.0
 40
1.0
 40
1.0
 10
296.6213743271
 20
56.9162427929
 30
0.0
 10
296.6251886871
 20
56.8773197427
 30
0.0
 10
296.6432516051
 20
56.7682210927
 30
0.0
 10
296.6789902912
 20
56.5598755314
 30
0.0
 10
296.7333631236
 20
56.2655080587
 30
0.0
 10
296.8030190176
 20
55.8955829514
 30
0.0
 10
296.8860063481
 20
55.4629596608
 30
0.0
 10
297.0138235211
 20
54.8035176466
 30
0.0
 10
297.1145333724
 20
54.2900794321
 30
0.0
 10
297.1838050953
 20
53.9386730834
 30
0.0
  0
SPLINE
  5
411
100
AcDbEntity
  8
BEZUGSACHSEN
100
AcDbSpline
 62
7
  6
CONTINUOUS
 70
0
 71
3
 72
10
 73
6
 74
0
 42
0.0000001
 43
0.0000001
 44
0.0000000001
 40
0.0
 40
0.0
 40
0.0
 40
0.0
 40
0.6102406925
 40
0.8447819673
 40
1.0
 40
1.0
 40
1.0
 40
1.0
 10
299.4443528538
 20
42.4598275969
 30
0.0
 10
299.5578236817
 20
41.8834600329
 30
0.0
 10
299.7153398951
 20
41.0856495088
 30
0.0
 10
299.9051224793
 20
40.1419284097
 30
0.0
 10
299.9804082151
 20
39.7743564166
 30
0.0
 10
300.0120021256
 20
39.6283185935
 30
0.0
  0
SPLINE
  5
412
100
AcDbEntity
  8
BEZUGSACHSEN
100
AcDbSpline
 62
7
  6
CONTINUOUS
 70
0
 71
3
 72
14
 73
10
 74
0
 42
0.0000001
 43
0.0000001
 44
0.0000000001
 40
0.0
 40
0.0
 40
0.0
 40
0.0
 40
0.4322015074
 40
0.6034547791
 40
0.7443035851
 40
0.8544563448
 40
0.9337603469
 40
0.9821339999
 40
1.0
 40
1.0
 40
1.0
 40
1.0
 10
300.0120021256
 20
39.6283185935
 30
0.0
 10
300.0172901303
 20
39.6038756331
 30
0.0
 10
300.0247469219
 20
39.5697330647
 30
0.0
 10
300.0343246334
 20
39.5278095429
 30
0.0
 10
300.0398948209
 20
39.5038832755
 30
0.0
 10
300.0445903099
 20
39.485709067
 30
0.0
 10
300.0479467067
 20
39.471555651
 30
0.0
 10
300.0508305136
 20
39.4650614492
 30
0.0
 10
300.0518889983
 20
39.4598096472
 30
0.0
 10
300.0529225162
 20
39.4598328465
 30
0.0
  0
ENDSEC
  0
SECTION
  2
OBJECTS
  0
DICTIONARY
  5
C
100
AcDbDictionary
280
0
281
1
  3
ACAD_GROUP
350
D
  3
ACAD_MLINESTYLE
350
17
  3
ACAD_LAYOUT
350
1A
  3
ACAD_PLOTSETTINGS
350
19
  3
ACAD_PLOTSTYLENAME
350
E
  0
DICTIONARY
  5
D
102
{ACAD_REACTORS
330
C
102
}
100
AcDbDictionary
280
0
281
1
  0
ACDBDICTIONARYWDFLT
  5
E
102
{ACAD_REACTORS
330
C
102
}
100
AcDbDictionary
281
1
  3
Normal
350
F
100
AcDbDictionaryWithDefault
340
F
  0
DICTIONARY
  5
17
102
{ACAD_REACTORS
330
C
102
}
100
AcDbDictionary
280
0
281
1
  3
Standard
350
18
  0
DICTIONARY
  5
19
102
{ACAD_REACTORS
330
C
102
}
100
AcDbDictionary
281
1
  0
DICTIONARY
  5
1A
102
{ACAD_REACTORS
330
C
102
}
100
AcDbDictionary
281
1
  3
Model
350
413
  3
Layout1
350
414
  0
ACDBPLACEHOLDER
  5
F
102
{ACAD_REACTORS
330
E
102
}
  0
MLINESTYLE
  5
18
102
{ACAD_REACTORS
330
17
102
}
100
AcDbMlineStyle
  2
STANDARD
 70
0
  3

 62
256
 51
90.0
 52
90.0
 71
2
 49
0.5
 62
256
  6
BYLAYER
 49
-0.5
 62
256
  6
BYLAYER
  0
LAYOUT
  5
413
102
{ACAD_REACTORS
330
1A
102
}
100
AcDbPlotSettings
  1

  2
none_device
  4
ISO_A3_(420.00_x_297.00_MM)
  6

 40
0.0
 41
0.0
 42
0.0
 43
0.0
 44
420.0
 45
297.0
 46
0.0
 47
0.0
 48
0.0
 49
0.0
140
0.0
141
0.0
142
1.0
143
1.0
 70
1024
 72
1
 73
0
 74
0
  7

 75
0
147
1.0
148
0.0
149
0.0
100
AcDbLayout
  1
Model
 70
0
 71
0
 10
0.0
 20
0.0
 11
420.0
 21
297.0
 12
0.0
 22
0.0
 32
0.0
 14
0.0
 24
0.0
 34
0.0
 15
0.0
 25
0.0
 35
0.0
146
0.0
 13
0.0
 23
0.0
 33
0.0
 16
1.0
 26
0.0
 36
0.0
 17
0.0
 27
1.0
 37
0.0
 76
0
330
209
345
0
346
0
  0
LAYOUT
  5
414
102
{ACAD_REACTORS
330
1A
102
}
100
AcDbPlotSettings
  1

  2
none_device
  4
ISO_A3_(420.00_x_297.00_MM)
  6

 40
0.0
 41
0.0
 42
0.0
 43
0.0
 44
420.0
 45
297.0
 46
0.0
 47
0.0
 48
0.0
 49
0.0
140
0.0
141
0.0
142
1.0
143
1.0
 70
0
 72
1
 73
0
 74
0
  7

 75
0
147
1.0
148
0.0
149
0.0
100
AcDbLayout
  1
Layout1
 70
0
 71
1
 10
0.0
 20
0.0
 11
420.0
 21
297.0
 12
0.0
 22
0.0
 32
0.0
 14
0.0
 24
0.0
 34
0.0
 15
0.0
 25
0.0
 35
0.0
146
0.0
 13
0.0
 23
0.0
 33
0.0
 16
1.0
 26
0.0
 36
0.0
 17
0.0
 27
1.0
 37
0.0
 76
0
330
20A
345
0
346
0
  0
ENDSEC
  0
EOF
