999
DXF file: 001-m33114-p1.dxf
999
Pro/ENGINEER 2011490 by Parametric Technology Corporation
  0
SECTION
  2
HEADER
  9
$ACADVER
  1
AC1015
  9
$DWGCODEPAGE
  3
ANSI_1252
  9
$EXTMAX
 10
420.0
 20
297.0
 30
0.0
  9
$EXTMIN
 10
0.0
 20
0.0
 30
0.0
  9
$LIMMIN
 10
0.0
 20
0.0
  9
$LIMMAX
 10
420.0
 20
297.0
  9
$VIEWCTR
 10
210.0
 20
148.5
  9
$VIEWSIZE
 40
297.0
  9
$CLAYER
  8
0
  9
$LTSCALE
 40
23.1
  9
$CELTYPE
  6
BYLAYER
  9
$DIMSCALE
 40
1.0
  9
$DIMASZ
 40
3.5
  9
$DIMEXO
 40
2.625
  9
$DIMDLI
 40
15.96
  9
$DIMEXE
 40
7.56
  9
$DIMCEN
 40
3.78
  9
$DIMLFAC
 40
1.0
  9
$DIMBLK
  1
_FILLED
  9
$DIMTXT
 40
3.5
  9
$DIMTOL
 70
1
  9
$DIMLIM
 70
0
  9
$DIMTFAC
 40
1.0
  9
$DIMTP
 40
0.005
  9
$DIMTM
 40
0.005
  9
$PDMODE
 70
3
  9
$PDSIZE
 40
0.3125
  9
$HANDSEED
  5
4B8
  9
$TILEMODE
 70
1
  9
$MEASUREMENT
 70
1
  9
$INSUNITS
 70
4
  0
ENDSEC
  0
SECTION
  2
CLASSES
  0
CLASS
  1
ACDBDICTIONARYWDFLT
  2
AcDbDictionaryWithDefault
  3
AutoCAD 2000
 90
0
280
0
281
0
  0
CLASS
  1
ACDBPLACEHOLDER
  2
AcDbPlaceHolder
  3
AutoCAD 2000
 90
0
280
0
281
0
  0
CLASS
  1
LAYOUT
  2
AcDbLayout
  3
AutoCAD 2000
 90
0
280
0
281
0
  0
ENDSEC
  0
SECTION
  2
TABLES
  0
TABLE
  2
VPORT
  5
8
100
AcDbSymbolTable
 70
2
  0
VPORT
  5
1F4
100
AcDbSymbolTableRecord
100
AcDbViewportTableRecord
  2
*ACTIVE
 70
0
 10
0.0
 20
0.0
 11
1.0
 21
1.0
 12
210.0
 22
148.5
 13
0.0
 23
0.0
 14
1.0
 24
1.0
 15
0.0
 25
0.0
 16
0.0
 26
0.0
 36
1.0
 17
0.0
 27
0.0
 37
0.0
 40
297.0
 41
1.4141414141
 42
50.0
 43
0.0
 44
0.0
 50
0.0
 51
0.0
 71
0
 72
100
 73
1
 74
1
 75
0
 76
0
 77
0
 78
0
  0
ENDTAB
  0
TABLE
  2
LTYPE
  5
5
100
AcDbSymbolTable
 70
6
  0
LTYPE
  5
14
100
AcDbSymbolTableRecord
100
AcDbLinetypeTableRecord
  2
BYBLOCK
 70
0
  3

 72
65
 73
0
 40
0.0
  0
LTYPE
  5
15
100
AcDbSymbolTableRecord
100
AcDbLinetypeTableRecord
  2
BYLAYER
 70
0
  3

 72
65
 73
0
 40
0.0
  0
LTYPE
  5
16
100
AcDbSymbolTableRecord
100
AcDbLinetypeTableRecord
  2
CONTINUOUS
 70
64
  3
Solid line
 72
65
 73
0
 40
0.0
  0
LTYPE
  5
1F5
100
AcDbSymbolTableRecord
100
AcDbLinetypeTableRecord
  2
CENTER
 70
64
  3
____ _ ____ _ ____ _ ____ _ ____ _ ____ _ ____
 72
65
 73
4
 40
0.6
 49
0.375
 74
0
 49
-0.075
 74
0
 49
0.075
 74
0
 49
-0.075
 74
0
  0
LTYPE
  5
1F6
100
AcDbSymbolTableRecord
100
AcDbLinetypeTableRecord
  2
HIDDEN
 70
64
  3
- - - - - - - - - - - - - - - - - - - -
 72
65
 73
2
 40
0.2
 49
0.1
 74
0
 49
-0.1
 74
0
  0
LTYPE
  5
1F7
100
AcDbSymbolTableRecord
100
AcDbLinetypeTableRecord
  2
PHANTOM
 70
64
  3
_____ _ _ _____ _ _ _____ _ _ _____
 72
65
 73
6
 40
0.8
 49
0.45
 74
0
 49
-0.05
 74
0
 49
0.1
 74
0
 49
-0.05
 74
0
 49
0.1
 74
0
 49
-0.05
 74
0
  0
LTYPE
  5
1F8
100
AcDbSymbolTableRecord
100
AcDbLinetypeTableRecord
  2
DOT
 70
64
  3
. . . . . . . . . . . . . . . . . . . .
 72
65
 73
2
 40
0.2
 49
0.1
 74
0
 49
-0.1
 74
0
  0
LTYPE
  5
1F9
100
AcDbSymbolTableRecord
100
AcDbLinetypeTableRecord
  2
DASHED
 70
64
  3
- - - - - - - - - - - - - - - - - - - -
 72
65
 73
2
 40
0.2
 49
0.1
 74
0
 49
-0.1
 74
0
  0
ENDTAB
  0
TABLE
  2
LAYER
  5
2
100
AcDbSymbolTable
 70
36
  0
LAYER
  5
10
100
AcDbSymbolTableRecord
100
AcDbLayerTableRecord
  2
0
 70
0
 62
7
  6
CONTINUOUS
370
-3
390
F
  0
LAYER
  5
1FA
100
AcDbSymbolTableRecord
100
AcDbLayerTableRecord
  2
DEFAULT_1
 70
0
 62
7
  6
CENTER
370
-3
390
F
  0
LAYER
  5
1FB
100
AcDbSymbolTableRecord
100
AcDbLayerTableRecord
  2
DEFAULT_2
 70
0
 62
8
  6
HIDDEN
370
-3
390
F
  0
LAYER
  5
1FC
100
AcDbSymbolTableRecord
100
AcDbLayerTableRecord
  2
DEFAULT_3
 70
0
 62
7
  6
PHANTOM
370
-3
390
F
  0
LAYER
  5
1FD
100
AcDbSymbolTableRecord
100
AcDbLayerTableRecord
  2
AUSFORMSCHRAEGEN
 70
0
 62
7
  6
CONTINUOUS
370
-3
390
F
  0
LAYER
  5
1FE
100
AcDbSymbolTableRecord
100
AcDbLayerTableRecord
  2
BEZUGSACHSEN
 70
0
 62
7
  6
CONTINUOUS
370
-3
390
F
  0
LAYER
  5
1FF
100
AcDbSymbolTableRecord
100
AcDbLayerTableRecord
  2
BEZUGSEBENEN
 70
0
 62
7
  6
CONTINUOUS
370
-3
390
F
  0
LAYER
  5
200
100
AcDbSymbolTableRecord
100
AcDbLayerTableRecord
  2
BEZUGSPUNKTE
 70
0
 62
7
  6
CONTINUOUS
370
-3
390
F
  0
LAYER
  5
201
100
AcDbSymbolTableRecord
100
AcDbLayerTableRecord
  2
BG_STARTBEZUEGE
 70
0
 62
7
  6
CONTINUOUS
370
-3
390
F
  0
LAYER
  5
202
100
AcDbSymbolTableRecord
100
AcDbLayerTableRecord
  2
FASEN
 70
0
 62
7
  6
CONTINUOUS
370
-3
390
F
  0
LAYER
  5
203
100
AcDbSymbolTableRecord
100
AcDbLayerTableRecord
  2
FLAECHEN
 70
0
 62
7
  6
CONTINUOUS
370
-3
390
F
  0
LAYER
  5
204
100
AcDbSymbolTableRecord
100
AcDbLayerTableRecord
  2
FLAECHENVERBUND
 70
0
 62
7
  6
CONTINUOUS
370
-3
390
F
  0
LAYER
  5
205
100
AcDbSymbolTableRecord
100
AcDbLayerTableRecord
  2
HILFEN
 70
0
 62
7
  6
CONTINUOUS
370
-3
390
F
  0
LAYER
  5
206
100
AcDbSymbolTableRecord
100
AcDbLayerTableRecord
  2
KONSTRUKTIONSELEMENTE
 70
0
 62
7
  6
CONTINUOUS
370
-3
390
F
  0
LAYER
  5
207
100
AcDbSymbolTableRecord
100
AcDbLayerTableRecord
  2
KURVEN
 70
0
 62
7
  6
CONTINUOUS
370
-3
390
F
  0
LAYER
  5
208
100
AcDbSymbolTableRecord
100
AcDbLayerTableRecord
  2
PLATZIERUNG
 70
0
 62
7
  6
CONTINUOUS
370
-3
390
F
  0
LAYER
  5
209
100
AcDbSymbolTableRecord
100
AcDbLayerTableRecord
  2
RUNDUNGEN
 70
0
 62
7
  6
CONTINUOUS
370
-3
390
F
  0
LAYER
  5
20A
100
AcDbSymbolTableRecord
100
AcDbLayerTableRecord
  2
TEIL_STARTBEZUEGE
 70
0
 62
7
  6
CONTINUOUS
370
-3
390
F
  0
LAYER
  5
20B
100
AcDbSymbolTableRecord
100
AcDbLayerTableRecord
  2
XSEC_DATUMS
 70
0
 62
7
  6
CONTINUOUS
370
-3
390
F
  0
LAYER
  5
20C
100
AcDbSymbolTableRecord
100
AcDbLayerTableRecord
  2
ZEICHNUNGSBEMASSUNGEN
 70
0
 62
7
  6
CONTINUOUS
370
-3
390
F
  0
ENDTAB
  0
TABLE
  2
STYLE
  5
3
100
AcDbSymbolTable
 70
1
  0
STYLE
  5
11
100
AcDbSymbolTableRecord
100
AcDbTextStyleTableRecord
  2
STANDARD
 70
0
 40
0.0
 41
0.7
 50
0.0
 71
0
 42
0.2
  3
txt
  4

  0
STYLE
  5
20D
100
AcDbSymbolTableRecord
100
AcDbTextStyleTableRecord
  2
TEXTSTYLE_1
 70
0
 40
0.0
 41
0.8
 50
0.0
 71
0
 42
0.2
  3
gdt
  4

  0
ENDTAB
  0
TABLE
  2
VIEW
  5
6
100
AcDbSymbolTable
 70
0
  0
ENDTAB
  0
TABLE
  2
UCS
  5
7
100
AcDbSymbolTable
 70
0
  0
ENDTAB
  0
TABLE
  2
APPID
  5
9
100
AcDbSymbolTable
 70
1
  0
APPID
  5
20E
100
AcDbSymbolTableRecord
100
AcDbRegAppTableRecord
  2
ACAD
 70
0
  0
ENDTAB
  0
TABLE
  2
BLOCK_RECORD
  5
1
100
AcDbSymbolTable
 70
0
  0
BLOCK_RECORD
  5
20F
100
AcDbSymbolTableRecord
100
AcDbBlockTableRecord
  2
*Model_Space
  0
BLOCK_RECORD
  5
210
100
AcDbSymbolTableRecord
100
AcDbBlockTableRecord
  2
*Paper_Space
  0
ENDTAB
  0
TABLE
  2
DIMSTYLE
  5
A
100
AcDbSymbolTable
 70
1
100
AcDbDimStyleTable
 71
0
  0
DIMSTYLE
105
211
100
AcDbSymbolTableRecord
100
AcDbDimStyleTableRecord
  2
STANDARD
 70
0
  3

  4

 40
1.0
 41
3.5
 42
0.0625
 43
0.38
 44
0.18
 45
0.0
 46
0.0
 47
0.005
 48
0.005
140
3.5
141
0.09
142
0.0
143
25.4
144
1.0
145
0.0
146
1.0
147
0.09
 71
1.0
 72
0.0
 73
0
 74
0
 75
0
 76
0
 77
1
 78
8
170
0
171
2
172
0
173
0
174
0
175
0
176
0
177
0
178
5
270
2
271
3
272
3
273
2
274
2
275
0
280
0
281
0
282
0
283
1
284
8
285
0
286
0
287
3
288
0
340
11
  0
ENDTAB
  0
ENDSEC
  0
SECTION
  2
BLOCKS
  0
BLOCK
  5
20
100
AcDbEntity
  8
0
100
AcDbBlockBegin
  2
*Model_Space
 70
0
 10
0.0
 20
0.0
 30
0.0
  3
*Model_Space
  1

  0
ENDBLK
  5
21
100
AcDbEntity
  8
0
100
AcDbBlockEnd
  0
BLOCK
  5
1C
100
AcDbEntity
  8
0
100
AcDbBlockBegin
  2
*Paper_Space
 70
0
 10
0.0
 20
0.0
 30
0.0
  3
*Paper_Space
  1

  0
ENDBLK
  5
1D
100
AcDbEntity
  8
0
100
AcDbBlockEnd
  0
ENDSEC
  0
SECTION
  2
ENTITIES
  0
LINE
  5
212
100
AcDbEntity
  8
0
100
AcDbLine
 62
7
  6
CONTINUOUS
 10
0.0
 20
0.0
 11
0.0
 21
297.0
  0
LINE
  5
213
100
AcDbEntity
  8
0
100
AcDbLine
 62
7
  6
CONTINUOUS
 10
0.0
 20
0.0
 11
420.0
 21
0.0
  0
LINE
  5
214
100
AcDbEntity
  8
0
100
AcDbLine
 62
7
  6
CONTINUOUS
 10
0.0
 20
297.0
 11
420.0
 21
297.0
  0
LINE
  5
215
100
AcDbEntity
  8
0
100
AcDbLine
 62
7
  6
CONTINUOUS
 10
420.0
 20
0.0
 11
420.0
 21
297.0
  0
LINE
  5
216
100
AcDbEntity
  8
0
100
AcDbLine
 62
7
  6
CONTINUOUS
 10
184.7701404883
 20
84.3252333917
 11
184.4791217459
 21
84.2428897802
  0
LINE
  5
217
100
AcDbEntity
  8
0
100
AcDbLine
 62
7
  6
CONTINUOUS
 10
183.0218304746
 20
86.8768311439
 11
183.312849217
 21
86.9591747554
  0
LINE
  5
218
100
AcDbEntity
  8
0
100
AcDbLine
 62
7
  6
CONTINUOUS
 10
176.1237957519
 20
75.6424934487
 11
176.4898062393
 21
75.7207223926
  0
LINE
  5
219
100
AcDbEntity
  8
0
100
AcDbLine
 62
7
  6
CONTINUOUS
 10
175.6681534913
 20
79.7693003784
 11
175.302143018
 21
79.6910714172
  0
LINE
  5
21A
100
AcDbEntity
  8
0
100
AcDbLine
 62
7
  6
CONTINUOUS
 10
176.232311072
 20
76.1694897846
 11
175.9309570491
 21
76.1438341508
  0
LINE
  5
21B
100
AcDbEntity
  8
0
100
AcDbLine
 62
7
  6
CONTINUOUS
 10
175.5596381524
 20
79.2423040656
 11
175.8609920452
 21
79.2679596704
  0
LINE
  5
21C
100
AcDbEntity
  8
0
100
AcDbLine
 62
7
  6
CONTINUOUS
 10
184.2232889703
 20
83.8049483622
 11
184.5795486774
 21
83.8326411155
  0
LINE
  5
21D
100
AcDbEntity
  8
0
100
AcDbLine
 62
7
  6
CONTINUOUS
 10
175.6504012008
 20
75.6963290502
 11
176.1237957519
 21
75.6424934487
  0
LINE
  5
21E
100
AcDbEntity
  8
0
100
AcDbLine
 62
7
  6
CONTINUOUS
 10
176.1415481161
 20
79.7154648752
 11
175.6681534913
 21
79.7693003784
  0
LINE
  5
21F
100
AcDbEntity
  8
0
100
AcDbLine
 62
7
  6
CONTINUOUS
 10
98.5654165135
 20
102.42178681
 11
99.0327799571
 21
102.1684954283
  0
LINE
  5
220
100
AcDbEntity
  8
0
100
AcDbLine
 62
7
  6
CONTINUOUS
 10
94.7351942979
 20
105.6357248584
 11
95.2025572849
 21
105.3824338599
  0
LINE
  5
221
100
AcDbEntity
  8
0
100
AcDbLine
 62
7
  6
CONTINUOUS
 10
89.4686387514
 20
110.054889675
 11
89.9474165284
 21
109.653147419
  0
LINE
  5
222
100
AcDbEntity
  8
0
100
AcDbLine
 62
7
  6
CONTINUOUS
 10
91.9423238562
 20
107.9792214159
 11
92.5008980815
 21
107.5105219895
  0
LINE
  5
223
100
AcDbEntity
  8
0
100
AcDbLine
 62
7
  6
CONTINUOUS
 10
94.416008961
 20
105.9035531569
 11
94.7351942979
 21
105.6357248584
  0
LINE
  5
224
100
AcDbEntity
  8
0
100
AcDbLine
 62
7
  6
CONTINUOUS
 10
96.6503054057
 20
104.0287558342
 11
98.5654165135
 21
102.42178681
  0
LINE
  5
225
100
AcDbEntity
  8
0
100
AcDbLine
 62
7
  6
CONTINUOUS
 10
98.9757064761
 20
102.910751347
 11
97.5393731452
 21
104.1159781151
  0
LINE
  5
226
100
AcDbEntity
  8
0
100
AcDbLine
 62
7
  6
CONTINUOUS
 10
95.1454842605
 20
106.1246893954
 11
94.8262989237
 21
106.3925176938
  0
LINE
  5
227
100
AcDbEntity
  8
0
100
AcDbLine
 62
7
  6
CONTINUOUS
 10
91.3834314215
 20
111.3645233268
 11
92.7399684181
 21
110.2262536333
  0
LINE
  5
228
100
AcDbEntity
  8
0
100
AcDbLine
 62
7
  6
CONTINUOUS
 10
93.3098508871
 20
110.5813040597
 11
91.7937213362
 21
111.8534878067
  0
LINE
  5
229
100
AcDbEntity
  8
0
100
AcDbLine
 62
7
  6
CONTINUOUS
 10
99.9327313163
 20
106.9682713139
 11
101.3690646472
 21
105.7630445457
  0
LINE
  5
22A
100
AcDbEntity
  8
0
100
AcDbLine
 62
7
  6
CONTINUOUS
 10
92.8194463145
 20
113.0758992347
 11
94.3355758655
 21
111.8037154877
  0
LINE
  5
22B
100
AcDbEntity
  8
0
100
AcDbLine
 62
7
  6
CONTINUOUS
 10
101.7793545619
 20
106.2520090256
 11
99.8642434541
 21
107.8589780498
  0
LINE
  5
22C
100
AcDbEntity
  8
0
100
AcDbLine
 62
7
  6
CONTINUOUS
 10
99.225873237
 20
108.3946342635
 11
98.7470954601
 21
108.7963765196
  0
LINE
  5
22D
100
AcDbEntity
  8
0
100
AcDbLine
 62
7
  6
CONTINUOUS
 10
96.8319843523
 20
110.4033455438
 11
96.353206347
 21
110.8050879914
  0
LINE
  5
22E
100
AcDbEntity
  8
0
100
AcDbLine
 62
7
  6
CONTINUOUS
 10
94.5976879077
 20
112.2781428664
 11
92.6825767999
 21
113.8851118906
  0
LINE
  5
22F
100
AcDbEntity
  8
0
100
AcDbLine
 62
7
  6
CONTINUOUS
 10
94.0854092909
 20
106.3198323296
 11
94.416008961
 21
105.9035531569
  0
LINE
  5
230
100
AcDbEntity
  8
0
100
AcDbLine
 62
7
  6
CONTINUOUS
 10
94.9282878121
 20
111.8618635092
 11
94.5976879077
 21
112.2781428664
  0
LINE
  5
231
100
AcDbEntity
  8
0
100
AcDbLine
 62
7
  6
CONTINUOUS
 10
102.1099546946
 20
105.8357294768
 11
101.7793545619
 21
106.2520090256
  0
LINE
  5
232
100
AcDbEntity
  8
0
100
AcDbLine
 62
7
  6
CONTINUOUS
 10
94.8262989237
 20
106.3925176938
 11
94.5754956959
 21
106.7418396891
  0
LINE
  5
233
100
AcDbEntity
  8
0
100
AcDbLine
 62
7
  6
CONTINUOUS
 10
101.3690646472
 20
105.7630445457
 11
101.619867875
 21
105.4137225505
  0
LINE
  5
234
100
AcDbEntity
  8
0
100
AcDbLine
 62
7
  6
CONTINUOUS
 10
94.3355758655
 20
111.8037154877
 11
94.5065831015
 21
111.5213502797
  0
LINE
  5
235
100
AcDbEntity
  8
0
100
AcDbLine
 62
7
  6
CONTINUOUS
 10
93.9029872769
 20
106.7506488094
 11
94.0854092909
 21
106.3198323296
  0
LINE
  5
236
100
AcDbEntity
  8
0
100
AcDbLine
 62
7
  6
CONTINUOUS
 10
94.5754956959
 20
106.7418396891
 11
94.4728701602
 21
107.1056990341
  0
LINE
  5
237
100
AcDbEntity
  8
0
100
AcDbLine
 62
7
  6
CONTINUOUS
 10
93.8573290305
 20
107.3444530731
 11
93.9029872769
 21
106.7506488094
  0
LINE
  5
238
100
AcDbEntity
  8
0
100
AcDbLine
 62
7
  6
CONTINUOUS
 10
94.5065831015
 20
111.5213502797
 11
94.529412465
 21
111.2244479705
  0
LINE
  5
239
100
AcDbEntity
  8
0
100
AcDbLine
 62
7
  6
CONTINUOUS
 10
102.3380345404
 20
104.8111091664
 11
102.29237627
 21
105.4049134016
  0
LINE
  5
23A
100
AcDbEntity
  8
0
100
AcDbLine
 62
7
  6
CONTINUOUS
 10
95.0081902419
 20
110.8227057145
 11
95.0423279633
 21
111.3495531624
  0
LINE
  5
23B
100
AcDbEntity
  8
0
100
AcDbLine
 62
7
  6
CONTINUOUS
 10
90.1872059798
 20
164.2660355469
 11
98.3261539372
 21
173.9656560151
  0
LINE
  5
23C
100
AcDbEntity
  8
RUNDUNGEN
100
AcDbLine
 62
7
  6
CONTINUOUS
 10
90.1872059798
 20
164.2660355469
 11
139.5560623522
 21
223.101547491
  0
LINE
  5
23D
100
AcDbEntity
  8
0
100
AcDbLine
 62
7
  6
CONTINUOUS
 10
183.5686819926
 20
87.3971161734
 11
183.2124223083
 21
87.3694234009
  0
LINE
  5
23E
100
AcDbEntity
  8
0
100
AcDbLine
 62
7
  6
CONTINUOUS
 10
184.4791217459
 20
84.2428897802
 11
183.8736271083
 21
84.3152680435
  0
LINE
  5
23F
100
AcDbEntity
  8
0
100
AcDbLine
 62
7
  6
CONTINUOUS
 10
183.312849217
 20
86.9591747554
 11
183.9183439916
 21
86.8867963773
  0
LINE
  5
240
100
AcDbEntity
  8
0
100
AcDbLine
 62
7
  6
CONTINUOUS
 10
99.0327799571
 20
102.1684954283
 11
99.4887281602
 21
102.0636556944
  0
LINE
  5
241
100
AcDbEntity
  8
0
100
AcDbLine
 62
7
  6
CONTINUOUS
 10
95.2025572849
 20
105.3824338599
 11
95.6585059446
 21
105.2775937428
  0
LINE
  5
242
100
AcDbEntity
  8
0
100
AcDbLine
 62
7
  6
CONTINUOUS
 10
183.8553009931
 20
83.8957887175
 11
184.2232889703
 21
83.8049483622
  0
LINE
  5
243
100
AcDbEntity
  8
0
100
AcDbLine
 62
7
  6
CONTINUOUS
 10
175.9309570491
 20
76.1438341508
 11
175.6405678459
 21
76.2367842851
  0
LINE
  5
244
100
AcDbEntity
  8
0
100
AcDbLine
 62
7
  6
CONTINUOUS
 10
93.617621428
 20
110.4619270117
 11
93.3098508871
 21
110.5813040597
  0
LINE
  5
245
100
AcDbEntity
  8
0
100
AcDbLine
 62
7
  6
CONTINUOUS
 10
175.3063199767
 20
75.8553115382
 11
175.6504012008
 21
75.6963290502
  0
LINE
  5
246
100
AcDbEntity
  8
0
100
AcDbLine
 62
7
  6
CONTINUOUS
 10
99.3632730088
 20
102.7244175117
 11
98.9757064761
 21
102.910751347
  0
LINE
  5
247
100
AcDbEntity
  8
0
100
AcDbLine
 62
7
  6
CONTINUOUS
 10
95.5330512498
 20
105.938355177
 11
95.1454842605
 21
106.1246893954
  0
LINE
  5
248
100
AcDbEntity
  8
0
100
AcDbLine
 62
7
  6
CONTINUOUS
 10
102.29237627
 20
105.4049134016
 11
102.1099546946
 21
105.8357294768
  0
LINE
  5
249
100
AcDbEntity
  8
0
100
AcDbLine
 62
7
  6
CONTINUOUS
 10
101.619867875
 20
105.4137225505
 11
101.7224934585
 21
105.0498632625
  0
LINE
  5
24A
100
AcDbEntity
  8
0
100
AcDbLine
 62
7
  6
CONTINUOUS
 10
95.0423279633
 20
111.3495531624
 11
94.9282878121
 21
111.8618635092
  0
LINE
  5
24B
100
AcDbEntity
  8
0
100
AcDbLine
 62
7
  6
CONTINUOUS
 10
94.4728701602
 20
107.1056990341
 11
94.5184222208
 21
107.4840956148
  0
LINE
  5
24C
100
AcDbEntity
  8
0
100
AcDbLine
 62
7
  6
CONTINUOUS
 10
101.7224934585
 20
105.0498632625
 11
101.6769412063
 21
104.6714664535
  0
LINE
  5
24D
100
AcDbEntity
  8
0
100
AcDbLine
 62
7
  6
CONTINUOUS
 10
93.9712630197
 20
107.8043435993
 11
93.8573290305
 21
107.3444530731
  0
LINE
  5
24E
100
AcDbEntity
  8
0
100
AcDbLine
 62
7
  6
CONTINUOUS
 10
92.5008980815
 20
107.5105219895
 11
93.3555096141
 21
109.9874994414
  0
LINE
  5
24F
100
AcDbEntity
  8
0
100
AcDbLine
 62
7
  6
CONTINUOUS
 10
92.7399684181
 20
110.2262536333
 11
91.9423238562
 21
107.9792214159
  0
LINE
  5
250
100
AcDbEntity
  8
0
100
AcDbLine
 62
7
  6
CONTINUOUS
 10
99.73942525
 20
102.6865346007
 11
99.3632730088
 21
102.7244175117
  0
LINE
  5
251
100
AcDbEntity
  8
0
100
AcDbLine
 62
7
  6
CONTINUOUS
 10
95.909203491
 20
105.900472266
 11
95.5330512498
 21
105.938355177
  0
LINE
  5
252
100
AcDbEntity
  8
0
100
AcDbLine
 62
7
  6
CONTINUOUS
 10
93.3555096141
 20
109.9874994414
 11
93.8114580276
 21
109.8826594945
  0
LINE
  5
253
100
AcDbEntity
  8
0
100
AcDbLine
 62
7
  6
CONTINUOUS
 10
183.9366699241
 20
87.3062758564
 11
183.5686819926
 21
87.3971161734
  0
LINE
  5
254
100
AcDbEntity
  8
0
100
AcDbLine
 62
7
  6
CONTINUOUS
 10
183.606065473
 20
83.9958589839
 11
183.8553009931
 21
83.8957887175
  0
LINE
  5
255
100
AcDbEntity
  8
0
100
AcDbLine
 62
7
  6
CONTINUOUS
 10
184.185905627
 20
87.2062054368
 11
183.9366699241
 21
87.3062758564
  0
LINE
  5
256
100
AcDbEntity
  8
0
100
AcDbLine
 62
7
  6
CONTINUOUS
 10
175.8609920452
 20
79.2679596704
 11
176.0867249109
 21
79.1224360699
  0
LINE
  5
257
100
AcDbEntity
  8
0
100
AcDbLine
 62
7
  6
CONTINUOUS
 10
175.6405678459
 20
76.2367842851
 11
175.3611432398
 21
76.4483400832
  0
LINE
  5
258
100
AcDbEntity
  8
0
100
AcDbLine
 62
7
  6
CONTINUOUS
 10
102.2241008273
 20
104.3512185057
 11
102.3380345404
 21
104.8111091664
  0
LINE
  5
259
100
AcDbEntity
  8
0
100
AcDbLine
 62
7
  6
CONTINUOUS
 10
94.529412465
 20
111.2244479705
 11
94.4040637277
 21
110.9130087518
  0
LINE
  5
25A
100
AcDbEntity
  8
0
100
AcDbLine
 62
7
  6
CONTINUOUS
 10
94.8828415046
 20
110.5112664957
 11
95.0081902419
 21
110.8227057145
  0
LINE
  5
25B
100
AcDbEntity
  8
0
100
AcDbLine
 62
7
  6
CONTINUOUS
 10
94.5184222208
 20
107.4840956148
 11
94.7121528389
 21
107.877028722
  0
LINE
  5
25C
100
AcDbEntity
  8
0
100
AcDbLine
 62
7
  6
CONTINUOUS
 10
94.2333748336
 20
108.2787711696
 11
93.9712630197
 21
107.8043435993
  0
LINE
  5
25D
100
AcDbEntity
  8
0
100
AcDbLine
 62
7
  6
CONTINUOUS
 10
99.4887281602
 20
102.0636556944
 11
100.0814396742
 21
102.1218041276
  0
LINE
  5
25E
100
AcDbEntity
  8
0
100
AcDbLine
 62
7
  6
CONTINUOUS
 10
95.6585059446
 20
105.2775937428
 11
96.2512179152
 21
105.3357417929
  0
LINE
  5
25F
100
AcDbEntity
  8
0
100
AcDbLine
 62
7
  6
CONTINUOUS
 10
183.2263485903
 20
84.205231736
 11
183.606065473
 21
83.9958589839
  0
LINE
  5
260
100
AcDbEntity
  8
0
100
AcDbLine
 62
7
  6
CONTINUOUS
 10
184.5656224183
 20
86.9968327613
 11
184.185905627
 21
87.2062054368
  0
LINE
  5
261
100
AcDbEntity
  8
0
100
AcDbLine
 62
7
  6
CONTINUOUS
 10
183.8736271083
 20
84.3152680435
 11
183.4286692838
 21
84.5792916346
  0
LINE
  5
262
100
AcDbEntity
  8
0
100
AcDbLine
 62
7
  6
CONTINUOUS
 10
183.9183439916
 20
86.8867963773
 11
184.3633017248
 21
86.6227728627
  0
LINE
  5
263
100
AcDbEntity
  8
0
100
AcDbLine
 62
7
  6
CONTINUOUS
 10
174.9732033873
 20
76.1328996438
 11
175.3063199767
 21
75.8553115382
  0
LINE
  5
264
100
AcDbEntity
  8
0
100
AcDbLine
 62
7
  6
CONTINUOUS
 10
176.4746645784
 20
79.437876359
 11
176.1415481161
 21
79.7154648752
  0
LINE
  5
265
100
AcDbEntity
  8
0
100
AcDbLine
 62
7
  6
CONTINUOUS
 10
125.2289956577
 20
255.5585208187
 11
125.2289956577
 21
270.3159765484
  0
LINE
  5
266
100
AcDbEntity
  8
0
100
AcDbLine
 62
7
  6
CONTINUOUS
 10
101.6769412063
 20
104.6714664535
 11
101.4832105883
 21
104.2785333463
  0
LINE
  5
267
100
AcDbEntity
  8
0
100
AcDbLine
 62
7
  6
CONTINUOUS
 10
101.9619883652
 20
103.8767910903
 11
102.2241008273
 21
104.3512185057
  0
LINE
  5
268
100
AcDbEntity
  8
0
100
AcDbLine
 62
7
  6
CONTINUOUS
 10
92.6825767999
 20
113.8851118906
 11
89.4686387514
 21
110.054889675
  0
LINE
  5
269
100
AcDbEntity
  8
0
100
AcDbLine
 62
7
  6
CONTINUOUS
 10
89.9474165284
 20
109.653147419
 11
91.3834314215
 21
111.3645233268
  0
LINE
  5
26A
100
AcDbEntity
  8
0
100
AcDbLine
 62
7
  6
CONTINUOUS
 10
91.7937213362
 20
111.8534878067
 11
92.8194463145
 21
113.0758992347
  0
LINE
  5
26B
100
AcDbEntity
  8
0
100
AcDbLine
 62
7
  6
CONTINUOUS
 10
94.4040637277
 20
110.9130087518
 11
94.1989185788
 21
110.6685262835
  0
LINE
  5
26C
100
AcDbEntity
  8
0
100
AcDbLine
 62
7
  6
CONTINUOUS
 10
94.6093147033
 20
110.1852899475
 11
94.8828415046
 21
110.5112664957
  0
LINE
  5
26D
100
AcDbEntity
  8
0
100
AcDbLine
 62
7
  6
CONTINUOUS
 10
184.292935248
 20
181.5590510584
 11
183.7579176646
 21
181.3666777875
  0
LINE
  5
26E
100
AcDbEntity
  8
0
100
AcDbLine
 62
7
  6
CONTINUOUS
 10
93.8114580276
 20
109.8826594945
 11
94.3243735258
 21
110.0077646864
  0
LINE
  5
26F
100
AcDbEntity
  8
0
100
AcDbLine
 62
7
  6
CONTINUOUS
 10
93.9139774013
 20
110.4910010224
 11
93.617621428
 21
110.4619270117
  0
LINE
  5
270
100
AcDbEntity
  8
0
100
AcDbLine
 62
7
  6
CONTINUOUS
 10
182.6391801137
 20
84.6970892871
 11
183.2263485903
 21
84.205231736
  0
LINE
  5
271
100
AcDbEntity
  8
0
100
AcDbLine
 62
7
  6
CONTINUOUS
 10
183.4286692838
 20
84.5792916346
 11
182.9719826909
 21
84.9618475076
  0
LINE
  5
272
100
AcDbEntity
  8
0
100
AcDbLine
 62
7
  6
CONTINUOUS
 10
184.3633017248
 20
86.6227728627
 11
184.8199883177
 21
86.2402169897
  0
LINE
  5
273
100
AcDbEntity
  8
0
100
AcDbLine
 62
7
  6
CONTINUOUS
 10
185.1527908949
 20
86.5049752102
 11
184.5656224183
 21
86.9968327613
  0
LINE
  5
274
100
AcDbEntity
  8
0
100
AcDbLine
 62
7
  6
CONTINUOUS
 10
180.7035123842
 20
84.1102781877
 11
181.2045838674
 21
83.6493164171
  0
LINE
  5
275
100
AcDbEntity
  8
0
100
AcDbLine
 62
7
  6
CONTINUOUS
 10
181.1046650197
 20
84.420632272
 11
183.5473879959
 21
82.1734441044
  0
LINE
  5
276
100
AcDbEntity
  8
0
100
AcDbLine
 62
7
  6
CONTINUOUS
 10
183.885906718
 20
82.5414183899
 11
180.9421124341
 21
85.2495681667
  0
LINE
  5
277
100
AcDbEntity
  8
0
100
AcDbLine
 62
7
  6
CONTINUOUS
 10
180.516511189
 20
81.7094081924
 11
180.8213347382
 21
81.412490573
  0
LINE
  5
278
100
AcDbEntity
  8
0
100
AcDbLine
 62
7
  6
CONTINUOUS
 10
181.635383969
 20
82.2482152302
 11
181.3305604198
 21
82.5451328496
  0
LINE
  5
279
100
AcDbEntity
  8
0
100
AcDbLine
 62
7
  6
CONTINUOUS
 10
176.3315087544
 20
80.6714732561
 11
179.0542872486
 21
77.7412041094
  0
LINE
  5
27A
100
AcDbEntity
  8
0
100
AcDbLine
 62
7
  6
CONTINUOUS
 10
179.0729821488
 20
78.4556283326
 11
178.1460788205
 21
79.4531667776
  0
LINE
  5
27B
100
AcDbEntity
  8
0
100
AcDbLine
 62
7
  6
CONTINUOUS
 10
177.798490118
 20
79.8272436453
 11
177.0453811003
 21
80.6377437001
  0
LINE
  5
27C
100
AcDbEntity
  8
0
100
AcDbLine
 62
7
  6
CONTINUOUS
 10
179.7333078251
 20
80.9280050204
 11
179.3857191227
 21
81.3020818881
  0
LINE
  5
27D
100
AcDbEntity
  8
0
100
AcDbLine
 62
7
  6
CONTINUOUS
 10
181.2519887593
 20
79.7832876554
 11
180.9044000162
 21
80.1573645668
  0
LINE
  5
27E
100
AcDbEntity
  8
0
100
AcDbLine
 62
7
  6
CONTINUOUS
 10
178.8767989676
 20
82.3394799344
 11
178.5292102651
 21
82.7135568021
  0
LINE
  5
27F
100
AcDbEntity
  8
0
100
AcDbLine
 62
7
  6
CONTINUOUS
 10
174.1678235627
 20
77.123384348
 11
174.9732033873
 21
76.1328996438
  0
LINE
  5
280
100
AcDbEntity
  8
0
100
AcDbLine
 62
7
  6
CONTINUOUS
 10
175.3611432398
 20
76.4483400832
 11
174.5557634153
 21
77.4388247875
  0
LINE
  5
281
100
AcDbEntity
  8
0
100
AcDbLine
 62
7
  6
CONTINUOUS
 10
172.3619376032
 20
77.4967639654
 11
174.7456832574
 21
74.2846374647
  0
LINE
  5
282
100
AcDbEntity
  8
0
100
AcDbLine
 62
7
  6
CONTINUOUS
 10
175.14719907
 20
74.5826056715
 11
172.7634534158
 21
77.7947321722
  0
LINE
  5
283
100
AcDbEntity
  8
0
100
AcDbLine
 62
7
  6
CONTINUOUS
 10
128.7626006092
 20
210.2384006823
 11
127.8306684057
 21
220.1262233977
  0
LINE
  5
284
100
AcDbEntity
  8
0
100
AcDbLine
 62
7
  6
CONTINUOUS
 10
96.353206347
 20
110.8050879914
 11
94.2333748336
 21
108.2787711696
  0
LINE
  5
285
100
AcDbEntity
  8
0
100
AcDbLine
 62
7
  6
CONTINUOUS
 10
94.7121528389
 20
107.877028722
 11
96.8319843523
 21
110.4033455438
  0
LINE
  5
286
100
AcDbEntity
  8
RUNDUNGEN
100
AcDbLine
 62
7
  6
CONTINUOUS
 10
171.7299289632
 20
196.1044678842
 11
142.2133165495
 21
160.927938999
  0
LINE
  5
287
100
AcDbEntity
  8
0
100
AcDbLine
 62
7
  6
CONTINUOUS
 10
98.7470954601
 20
108.7963765196
 11
96.6272639467
 21
106.2700596978
  0
LINE
  5
288
100
AcDbEntity
  8
0
100
AcDbLine
 62
7
  6
CONTINUOUS
 10
97.1060417236
 20
105.8683174417
 11
99.225873237
 21
108.3946342635
  0
LINE
  5
289
100
AcDbEntity
  8
0
100
AcDbLine
 62
7
  6
CONTINUOUS
 10
99.8642434541
 20
107.8589780498
 11
96.6503054057
 21
104.0287558342
  0
LINE
  5
28A
100
AcDbEntity
  8
0
100
AcDbLine
 62
7
  6
CONTINUOUS
 10
97.5393731452
 20
104.1159781151
 11
99.9327313163
 21
106.9682713139
  0
LINE
  5
28B
100
AcDbEntity
  8
0
100
AcDbLine
 62
7
  6
CONTINUOUS
 10
101.4832105883
 20
104.2785333463
 11
100.4574857057
 21
103.0561220325
  0
LINE
  5
28C
100
AcDbEntity
  8
0
100
AcDbLine
 62
7
  6
CONTINUOUS
 10
100.9362634826
 20
102.6543797764
 11
101.9619883652
 21
103.8767910903
  0
LINE
  5
28D
100
AcDbEntity
  8
0
100
AcDbLine
 62
7
  6
CONTINUOUS
 10
183.7579176646
 20
181.3666777875
 11
183.2237079809
 21
180.9956392361
  0
LINE
  5
28E
100
AcDbEntity
  8
0
100
AcDbLine
 62
7
  6
CONTINUOUS
 10
184.2072690049
 20
180.7527719092
 11
183.7619596989
 21
180.4733509172
  0
LINE
  5
28F
100
AcDbEntity
  8
0
100
AcDbLine
 62
7
  6
CONTINUOUS
 10
178.3348459448
 20
182.7533161614
 11
181.4447470917
 21
184.6173520063
  0
LINE
  5
290
100
AcDbEntity
  8
0
100
AcDbLine
 62
7
  6
CONTINUOUS
 10
176.5233946333
 20
181.6213743134
 11
177.9055729267
 21
182.4498346048
  0
LINE
  5
291
100
AcDbEntity
  8
0
100
AcDbLine
 62
7
  6
CONTINUOUS
 10
181.4022262555
 20
185.3307546054
 11
175.9572417922
 21
182.113279752
  0
LINE
  5
292
100
AcDbEntity
  8
0
100
AcDbLine
 62
7
  6
CONTINUOUS
 10
184.4949898587
 20
176.3823246011
 11
184.1385811949
 21
176.1945204138
  0
LINE
  5
293
100
AcDbEntity
  8
0
100
AcDbLine
 62
7
  6
CONTINUOUS
 10
182.9719826909
 20
84.9618475076
 11
182.6340491219
 21
85.3536340611
  0
LINE
  5
294
100
AcDbEntity
  8
0
100
AcDbLine
 62
7
  6
CONTINUOUS
 10
184.8199883177
 20
86.2402169897
 11
185.1579219781
 21
85.8484303596
  0
LINE
  5
295
100
AcDbEntity
  8
0
100
AcDbLine
 62
7
  6
CONTINUOUS
 10
182.3664874866
 20
85.0342250016
 11
182.6391801137
 21
84.6970892871
  0
LINE
  5
296
100
AcDbEntity
  8
0
100
AcDbLine
 62
7
  6
CONTINUOUS
 10
185.4254836134
 20
86.1678394192
 11
185.1527908949
 21
86.5049752102
  0
LINE
  5
297
100
AcDbEntity
  8
0
100
AcDbLine
 62
7
  6
CONTINUOUS
 10
173.9640201688
 20
77.5061195019
 11
174.1678235627
 21
77.123384348
  0
LINE
  5
298
100
AcDbEntity
  8
0
100
AcDbLine
 62
7
  6
CONTINUOUS
 10
177.9133838279
 20
77.5363984056
 11
177.7095802693
 21
77.9191331951
  0
LINE
  5
299
100
AcDbEntity
  8
0
100
AcDbLine
 62
7
  6
CONTINUOUS
 10
174.5557634153
 20
77.4388247875
 11
174.405652155
 21
77.7555274489
  0
LINE
  5
29A
100
AcDbEntity
  8
0
100
AcDbLine
 62
7
  6
CONTINUOUS
 10
126.6289312117
 20
244.6552315041
 11
125.6343983204
 21
250.6432580138
  0
LINE
  5
29B
100
AcDbEntity
  8
0
100
AcDbLine
 62
7
  6
CONTINUOUS
 10
147.3337420662
 20
242.2614355
 11
147.2789956577
 21
243.0530076876
  0
LINE
  5
29C
100
AcDbEntity
  8
0
100
AcDbLine
 62
7
  6
CONTINUOUS
 10
147.2789956577
 20
243.0530076876
 11
147.2789956577
 21
265.9870807376
  0
LINE
  5
29D
100
AcDbEntity
  8
0
100
AcDbLine
 62
7
  6
CONTINUOUS
 10
158.7789956577
 20
243.0530076876
 11
158.7242492491
 21
242.2614354994
  0
LINE
  5
29E
100
AcDbEntity
  8
0
100
AcDbLine
 62
7
  6
CONTINUOUS
 10
178.3527325184
 20
187.8652425676
 11
174.5825868091
 21
183.1976948892
  0
LINE
  5
29F
100
AcDbEntity
  8
0
100
AcDbLine
 62
7
  6
CONTINUOUS
 10
175.1660302689
 20
182.7264266755
 11
178.9361759782
 21
187.393974354
  0
LINE
  5
2A0
100
AcDbEntity
  8
0
100
AcDbLine
 62
7
  6
CONTINUOUS
 10
181.8902059246
 20
179.621379566
 11
183.2237079809
 21
180.9956392361
  0
LINE
  5
2A1
100
AcDbEntity
  8
0
100
AcDbLine
 62
7
  6
CONTINUOUS
 10
182.4284576427
 20
179.0990912471
 11
183.7619596989
 21
180.4733509172
  0
LINE
  5
2A2
100
AcDbEntity
  8
0
100
AcDbLine
 62
7
  6
CONTINUOUS
 10
184.3988134364
 20
177.89869563
 11
184.9322142091
 21
178.4483994467
  0
LINE
  5
2A3
100
AcDbEntity
  8
0
100
AcDbLine
 62
7
  6
CONTINUOUS
 10
96.684337013
 20
105.5278042122
 11
97.1060417236
 21
105.8683174417
  0
LINE
  5
2A4
100
AcDbEntity
  8
0
100
AcDbLine
 62
7
  6
CONTINUOUS
 10
96.6272639467
 20
106.2700596978
 11
96.2739408885
 21
106.0110405483
  0
LINE
  5
2A5
100
AcDbEntity
  8
0
100
AcDbLine
 62
7
  6
CONTINUOUS
 10
184.9443419613
 20
175.7684184813
 11
184.4990320798
 21
175.4889979233
  0
LINE
  5
2A6
100
AcDbEntity
  8
0
100
AcDbLine
 62
7
  6
CONTINUOUS
 10
94.1989185788
 20
110.6685262835
 11
93.9139774013
 21
110.4910010224
  0
LINE
  5
2A7
100
AcDbEntity
  8
0
100
AcDbLine
 62
7
  6
CONTINUOUS
 10
94.3243735258
 20
110.0077646864
 11
94.6093147033
 21
110.1852899475
  0
LINE
  5
2A8
100
AcDbEntity
  8
0
100
AcDbLine
 62
7
  6
CONTINUOUS
 10
194.9087510313
 20
167.7043855927
 11
195.4943790193
 21
167.9873846379
  0
LINE
  5
2A9
100
AcDbEntity
  8
0
100
AcDbLine
 62
7
  6
CONTINUOUS
 10
195.4943790193
 20
167.9873846379
 11
195.875758644
 21
168.1171835664
  0
LINE
  5
2AA
100
AcDbEntity
  8
0
100
AcDbLine
 62
7
  6
CONTINUOUS
 10
196.1041103578
 20
163.1320844066
 11
195.7227310192
 21
163.0022856927
  0
LINE
  5
2AB
100
AcDbEntity
  8
0
100
AcDbLine
 62
7
  6
CONTINUOUS
 10
182.2242771728
 20
85.2620599223
 11
182.3664874866
 21
85.0342250016
  0
LINE
  5
2AC
100
AcDbEntity
  8
0
100
AcDbLine
 62
7
  6
CONTINUOUS
 10
185.5676937444
 20
85.9400046516
 11
185.4254836134
 21
86.1678394192
  0
LINE
  5
2AD
100
AcDbEntity
  8
0
100
AcDbLine
 62
7
  6
CONTINUOUS
 10
182.0703375696
 20
85.6084263173
 11
182.2242771728
 21
85.2620599223
  0
LINE
  5
2AE
100
AcDbEntity
  8
0
100
AcDbLine
 62
7
  6
CONTINUOUS
 10
177.3216406018
 20
77.6036929061
 11
177.4180597862
 21
77.3530224769
  0
LINE
  5
2AF
100
AcDbEntity
  8
0
100
AcDbLine
 62
7
  6
CONTINUOUS
 10
131.1632709995
 20
227.6508359226
 11
127.8901718161
 21
239.065489291
  0
LINE
  5
2B0
100
AcDbEntity
  8
RUNDUNGEN
100
AcDbLine
 62
7
  6
CONTINUOUS
 10
127.2500959649
 20
241.5335539238
 11
126.6289312117
 21
244.6552315041
  0
LINE
  5
2B1
100
AcDbEntity
  8
0
100
AcDbLine
 62
7
  6
CONTINUOUS
 10
158.7789956577
 20
243.0530076876
 11
158.7789956577
 21
265.9872515446
  0
LINE
  5
2B2
100
AcDbEntity
  8
0
100
AcDbLine
 62
7
  6
CONTINUOUS
 10
179.7927491536
 20
180.8101497313
 11
179.16544127
 21
179.3258155608
  0
LINE
  5
2B3
100
AcDbEntity
  8
0
100
AcDbLine
 62
7
  6
CONTINUOUS
 10
181.4447470917
 20
184.6173520063
 11
180.0333044681
 21
181.2775998456
  0
LINE
  5
2B4
100
AcDbEntity
  8
0
100
AcDbLine
 62
7
  6
CONTINUOUS
 10
182.1625659183
 20
178.6455738168
 11
182.4284576427
 21
179.0990912471
  0
LINE
  5
2B5
100
AcDbEntity
  8
0
100
AcDbLine
 62
7
  6
CONTINUOUS
 10
181.5354140715
 20
179.0762448329
 11
181.8902059246
 21
179.621379566
  0
LINE
  5
2B6
100
AcDbEntity
  8
0
100
AcDbLine
 62
7
  6
CONTINUOUS
 10
187.0779451766
 20
177.9672338765
 11
187.4327367655
 21
178.5123693644
  0
LINE
  5
2B7
100
AcDbEntity
  8
0
100
AcDbLine
 62
7
  6
CONTINUOUS
 10
184.4949898587
 20
176.3823246011
 11
185.2061910135
 21
177.1152631517
  0
LINE
  5
2B8
100
AcDbEntity
  8
0
100
AcDbLine
 62
7
  6
CONTINUOUS
 10
184.9443419613
 20
175.7684184813
 11
186.2778440176
 21
177.1426781514
  0
LINE
  5
2B9
100
AcDbEntity
  8
0
100
AcDbLine
 62
7
  6
CONTINUOUS
 10
184.6666981631
 20
174.045170788
 11
189.0754281491
 21
178.1149496408
  0
LINE
  5
2BA
100
AcDbEntity
  8
0
100
AcDbLine
 62
7
  6
CONTINUOUS
 10
185.1754205197
 20
173.4940795397
 11
187.239081381
 21
175.3990824225
  0
LINE
  5
2BB
100
AcDbEntity
  8
0
100
AcDbLine
 62
7
  6
CONTINUOUS
 10
187.8018979078
 20
175.9186285971
 11
189.5841505057
 21
177.5638583926
  0
LINE
  5
2BC
100
AcDbEntity
  8
0
100
AcDbLine
 62
7
  6
CONTINUOUS
 10
187.5494588308
 20
170.9223196805
 11
189.613119692
 21
172.8273225633
  0
LINE
  5
2BD
100
AcDbEntity
  8
0
100
AcDbLine
 62
7
  6
CONTINUOUS
 10
190.1759362189
 20
173.3468687379
 11
191.9581888167
 21
174.9920985334
  0
LINE
  5
2BE
100
AcDbEntity
  8
0
100
AcDbLine
 62
7
  6
CONTINUOUS
 10
188.0581811874
 20
170.3712284323
 11
192.4669111733
 21
174.4410072851
  0
LINE
  5
2BF
100
AcDbEntity
  8
0
100
AcDbLine
 62
7
  6
CONTINUOUS
 10
190.8389066073
 20
171.4188973556
 11
190.352295601
 21
171.00581863
  0
LINE
  5
2C0
100
AcDbEntity
  8
0
100
AcDbLine
 62
7
  6
CONTINUOUS
 10
191.4848198999
 20
169.6716933056
 11
191.9714309062
 21
170.0847720311
  0
LINE
  5
2C1
100
AcDbEntity
  8
0
100
AcDbLine
 62
7
  6
CONTINUOUS
 10
193.6434750519
 20
170.0678447032
 11
194.4372124496
 21
170.7104855907
  0
LINE
  5
2C2
100
AcDbEntity
  8
0
100
AcDbLine
 62
7
  6
CONTINUOUS
 10
190.9404655877
 20
166.9143810614
 11
194.8099346024
 21
170.047254741
  0
LINE
  5
2C3
100
AcDbEntity
  8
0
100
AcDbLine
 62
7
  6
CONTINUOUS
 10
196.075611015
 20
170.1069946367
 11
191.4124048805
 21
166.3314802946
  0
LINE
  5
2C4
100
AcDbEntity
  8
0
100
AcDbLine
 62
7
  6
CONTINUOUS
 10
100.5145592286
 20
102.3138661638
 11
100.9362634826
 21
102.6543797764
  0
LINE
  5
2C5
100
AcDbEntity
  8
0
100
AcDbLine
 62
7
  6
CONTINUOUS
 10
193.989624384
 20
167.0149944013
 11
194.9087510313
 21
167.7043855927
  0
LINE
  5
2C6
100
AcDbEntity
  8
0
100
AcDbLine
 62
7
  6
CONTINUOUS
 10
195.1816413624
 20
167.1277993995
 11
194.4667650811
 21
166.5916062506
  0
LINE
  5
2C7
100
AcDbEntity
  8
0
100
AcDbLine
 62
7
  6
CONTINUOUS
 10
100.4574857057
 20
103.0561220325
 11
100.1041631041
 21
102.7971024998
  0
LINE
  5
2C8
100
AcDbEntity
  8
0
100
AcDbLine
 62
7
  6
CONTINUOUS
 10
195.8693962501
 20
167.4873951772
 11
195.1816413624
 21
167.1277993995
  0
LINE
  5
2C9
100
AcDbEntity
  8
0
100
AcDbLine
 62
7
  6
CONTINUOUS
 10
195.7290948437
 20
163.6320715785
 11
196.4168481577
 21
163.9916697523
  0
LINE
  5
2CA
100
AcDbEntity
  8
0
100
AcDbLine
 62
7
  6
CONTINUOUS
 10
196.6897402055
 20
163.4150812703
 11
196.1041103578
 21
163.1320844066
  0
LINE
  5
2CB
100
AcDbEntity
  8
0
100
AcDbLine
 62
7
  6
CONTINUOUS
 10
195.7227310192
 20
163.0022856927
 11
195.1642243532
 21
162.895883965
  0
LINE
  5
2CC
100
AcDbEntity
  8
0
100
AcDbLine
 62
7
  6
CONTINUOUS
 10
195.875758644
 20
168.1171835664
 11
196.4342652384
 21
168.2235852404
  0
LINE
  5
2CD
100
AcDbEntity
  8
0
100
AcDbLine
 62
7
  6
CONTINUOUS
 10
185.7216333933
 20
85.5936382183
 11
185.5676937444
 21
85.9400046516
  0
LINE
  5
2CE
100
AcDbEntity
  8
0
100
AcDbLine
 62
7
  6
CONTINUOUS
 10
182.6340491219
 20
85.3536340611
 11
182.4566522289
 21
85.9370660573
  0
LINE
  5
2CF
100
AcDbEntity
  8
0
100
AcDbLine
 62
7
  6
CONTINUOUS
 10
173.878565489
 20
77.8753955198
 11
173.9640201688
 21
77.5061195019
  0
LINE
  5
2D0
100
AcDbEntity
  8
0
100
AcDbLine
 62
7
  6
CONTINUOUS
 10
174.405652155
 20
77.7555274489
 11
174.3738893081
 21
78.0587713443
  0
LINE
  5
2D1
100
AcDbEntity
  8
0
100
AcDbLine
 62
7
  6
CONTINUOUS
 10
182.0351516028
 20
85.9640241238
 11
182.0703375696
 21
85.6084263173
  0
LINE
  5
2D2
100
AcDbEntity
  8
0
100
AcDbLine
 62
7
  6
CONTINUOUS
 10
182.0752826002
 20
178.1966259682
 11
182.1625659183
 21
178.6455738168
  0
LINE
  5
2D3
100
AcDbEntity
  8
0
100
AcDbLine
 62
7
  6
CONTINUOUS
 10
181.3592305623
 20
178.5356796173
 11
181.5354140715
 21
179.0762448329
  0
LINE
  5
2D4
100
AcDbEntity
  8
0
100
AcDbLine
 62
7
  6
CONTINUOUS
 10
179.7315941111
 20
178.8339101222
 11
182.1570968003
 21
184.674880609
  0
LINE
  5
2D5
100
AcDbEntity
  8
0
100
AcDbLine
 62
7
  6
CONTINUOUS
 10
186.5396929453
 20
178.4895226935
 11
186.7166853032
 21
178.8514225796
  0
LINE
  5
2D6
100
AcDbEntity
  8
0
100
AcDbLine
 62
7
  6
CONTINUOUS
 10
193.5540003986
 20
166.5320031266
 11
193.322628639
 21
166.2022077129
  0
LINE
  5
2D7
100
AcDbEntity
  8
0
100
AcDbLine
 62
7
  6
CONTINUOUS
 10
193.989624384
 20
167.0149944013
 11
193.5540003986
 21
166.5320031266
  0
LINE
  5
2D8
100
AcDbEntity
  8
0
100
AcDbLine
 62
7
  6
CONTINUOUS
 10
198.0444889784
 20
164.5874659179
 11
197.6088668528
 21
164.1044724617
  0
LINE
  5
2D9
100
AcDbEntity
  8
0
100
AcDbLine
 62
7
  6
CONTINUOUS
 10
193.9290176294
 20
166.0320136659
 11
194.4667650811
 21
166.5916062506
  0
LINE
  5
2DA
100
AcDbEntity
  8
0
100
AcDbLine
 62
7
  6
CONTINUOUS
 10
197.131724439
 20
164.5278629011
 11
197.6694734643
 21
165.0874530898
  0
LINE
  5
2DB
100
AcDbEntity
  8
0
100
AcDbLine
 62
7
  6
CONTINUOUS
 10
196.4168481577
 20
163.9916697523
 11
197.131724439
 21
164.5278629011
  0
LINE
  5
2DC
100
AcDbEntity
  8
0
100
AcDbLine
 62
7
  6
CONTINUOUS
 10
197.6088668528
 20
164.1044724617
 11
196.6897402055
 21
163.4150812703
  0
LINE
  5
2DD
100
AcDbEntity
  8
0
100
AcDbLine
 62
7
  6
CONTINUOUS
 10
96.2512179152
 20
105.3357417929
 11
96.684337013
 21
105.5278042122
  0
LINE
  5
2DE
100
AcDbEntity
  8
0
100
AcDbLine
 62
7
  6
CONTINUOUS
 10
100.0814396742
 20
102.1218041276
 11
100.5145592286
 21
102.3138661638
  0
LINE
  5
2DF
100
AcDbEntity
  8
0
100
AcDbLine
 62
7
  6
CONTINUOUS
 10
96.2739408885
 20
106.0110405483
 11
95.909203491
 21
105.900472266
  0
LINE
  5
2E0
100
AcDbEntity
  8
0
100
AcDbLine
 62
7
  6
CONTINUOUS
 10
195.7290948437
 20
163.6320715785
 11
194.8163302327
 21
163.5724685081
  0
LINE
  5
2E1
100
AcDbEntity
  8
0
100
AcDbLine
 62
7
  6
CONTINUOUS
 10
196.7821593589
 20
167.5470006973
 11
195.8693962501
 21
167.4873951772
  0
LINE
  5
2E2
100
AcDbEntity
  8
0
100
AcDbLine
 62
7
  6
CONTINUOUS
 10
194.8099346024
 20
170.047254741
 11
193.6434750519
 21
170.0678447032
  0
LINE
  5
2E3
100
AcDbEntity
  8
0
100
AcDbLine
 62
7
  6
CONTINUOUS
 10
194.6328391166
 20
162.9660796353
 11
195.1642243532
 21
162.895883965
  0
LINE
  5
2E4
100
AcDbEntity
  8
0
100
AcDbLine
 62
7
  6
CONTINUOUS
 10
185.1579219781
 20
85.8484303596
 11
185.335318734
 21
85.2649984783
  0
LINE
  5
2E5
100
AcDbEntity
  8
0
100
AcDbLine
 62
7
  6
CONTINUOUS
 10
180.603593712
 20
84.8815938812
 11
180.7035123842
 21
84.1102781877
  0
LINE
  5
2E6
100
AcDbEntity
  8
0
100
AcDbLine
 62
7
  6
CONTINUOUS
 10
181.2045838674
 20
83.6493164171
 11
181.1046650197
 21
84.420632272
  0
LINE
  5
2E7
100
AcDbEntity
  8
0
100
AcDbLine
 62
7
  6
CONTINUOUS
 10
185.756819383
 20
85.2380403927
 11
185.7216333933
 21
85.5936382183
  0
LWPOLYLINE
  5
2E8
100
AcDbEntity
  8
0
100
AcDbPolyline
 62
7
  6
CONTINUOUS
 90
16
 70
0
 10
180.5289956066
 20
270.3660319983
 10
180.5130766511
 20
270.6680113228
 10
180.4656037849
 20
270.9669861908
 10
180.387117484
 20
271.2596018364
 10
180.2783702854
 20
271.5429579252
 10
180.140349359
 20
271.8141771068
 10
179.9743422318
 20
272.070363378
 10
179.7818346899
 20
272.3088229228
 10
179.5646865583
 20
272.5268480554
 10
179.3249331859
 20
272.7220039562
 10
179.0649927421
 20
272.8919518808
 10
178.7872996594
 20
273.0347342278
 10
178.4950812851
 20
273.148400292
 10
178.1913832084
 20
273.2315825048
 10
177.8801336814
 20
273.2831835498
 10
177.5676438899
 20
273.3026587217
  0
LINE
  5
2E9
100
AcDbEntity
  8
RUNDUNGEN
100
AcDbLine
 62
7
  6
CONTINUOUS
 10
180.5289956025
 20
270.3660531861
 11
180.5132232133
 21
270.6666186297
  0
LINE
  5
2EA
100
AcDbEntity
  8
0
100
AcDbLine
 62
7
  6
CONTINUOUS
 10
181.3624646659
 20
177.8210179954
 11
181.3592305623
 21
178.5356796173
  0
LINE
  5
2EB
100
AcDbEntity
  8
0
100
AcDbLine
 62
7
  6
CONTINUOUS
 10
180.5289956577
 20
238.327334009
 11
180.5289956577
 21
270.365485135
  0
LINE
  5
2EC
100
AcDbEntity
  8
0
100
AcDbLine
 62
7
  6
CONTINUOUS
 10
173.922424155
 20
78.349818401
 11
173.878565489
 21
77.8753955198
  0
LINE
  5
2ED
100
AcDbEntity
  8
0
100
AcDbLine
 62
7
  6
CONTINUOUS
 10
177.8695250882
 20
77.0619754261
 11
177.9133838279
 21
77.5363984056
  0
LINE
  5
2EE
100
AcDbEntity
  8
0
100
AcDbLine
 62
7
  6
CONTINUOUS
 10
193.6162781843
 20
165.1724306626
 11
193.9290176294
 21
166.0320136659
  0
LINE
  5
2EF
100
AcDbEntity
  8
0
100
AcDbLine
 62
7
  6
CONTINUOUS
 10
193.322628639
 20
166.2022077129
 11
193.0641336977
 21
165.6958171632
  0
LINE
  5
2F0
100
AcDbEntity
  8
0
100
AcDbLine
 62
7
  6
CONTINUOUS
 10
198.534355894
 20
165.4236520422
 11
198.2758610241
 21
164.9172615462
  0
LINE
  5
2F1
100
AcDbEntity
  8
0
100
AcDbLine
 62
7
  6
CONTINUOUS
 10
198.2758610241
 20
164.9172615462
 11
198.0444889784
 21
164.5874659179
  0
LINE
  5
2F2
100
AcDbEntity
  8
0
100
AcDbLine
 62
7
  6
CONTINUOUS
 10
100.1041631041
 20
102.7971024998
 11
99.73942525
 21
102.6865346007
  0
LINE
  5
2F3
100
AcDbEntity
  8
0
100
AcDbLine
 62
7
  6
CONTINUOUS
 10
184.6533867085
 20
180.853528134
 11
184.2072690049
 21
180.7527719092
  0
LINE
  5
2F4
100
AcDbEntity
  8
0
100
AcDbLine
 62
7
  6
CONTINUOUS
 10
184.4990320798
 20
175.4889979233
 11
183.784597397
 21
175.4707205605
  0
LINE
  5
2F5
100
AcDbEntity
  8
0
100
AcDbLine
 62
7
  6
CONTINUOUS
 10
185.007370413
 20
181.577327891
 11
184.292935248
 21
181.5590510584
  0
LINE
  5
2F6
100
AcDbEntity
  8
0
100
AcDbLine
 62
7
  6
CONTINUOUS
 10
194.4372124496
 20
170.7104855907
 11
195.6036717222
 21
170.6898954035
  0
LINE
  5
2F7
100
AcDbEntity
  8
0
100
AcDbLine
 62
7
  6
CONTINUOUS
 10
196.4342652384
 20
168.2235852404
 11
196.9656504393
 21
168.1533895433
  0
LINE
  5
2F8
100
AcDbEntity
  8
0
100
AcDbLine
 62
7
  6
CONTINUOUS
 10
184.1385811949
 20
176.1945204138
 11
183.691655016
 21
176.2724299035
  0
LINE
  5
2F9
100
AcDbEntity
  8
0
100
AcDbLine
 62
7
  6
CONTINUOUS
 10
194.8163302327
 20
163.5724685081
 11
194.3870702148
 21
163.7192632265
  0
LINE
  5
2FA
100
AcDbEntity
  8
0
100
AcDbLine
 62
7
  6
CONTINUOUS
 10
197.2114193768
 20
167.4002059789
 11
196.7821593589
 21
167.5470006973
  0
LINE
  5
2FB
100
AcDbEntity
  8
0
100
AcDbLine
 62
7
  6
CONTINUOUS
 10
193.9514480266
 20
163.2362697234
 11
194.6328391166
 21
162.9660796353
  0
LINE
  5
2FC
100
AcDbEntity
  8
0
100
AcDbLine
 62
7
  6
CONTINUOUS
 10
199.9878838499
 20
134.1501606671
 11
202.0711389439
 21
131.6674339245
  0
LINE
  5
2FD
100
AcDbEntity
  8
0
100
AcDbLine
 62
7
  6
CONTINUOUS
 10
199.9903920439
 20
134.1562619352
 11
199.8025152125
 21
134.380164824
  0
LINE
  5
2FE
100
AcDbEntity
  8
0
100
AcDbLine
 62
7
  6
CONTINUOUS
 10
202.0400878833
 20
131.7135295549
 11
209.8600482503
 21
122.3940636936
  0
LINE
  5
2FF
100
AcDbEntity
  8
0
100
AcDbLine
 62
7
  6
CONTINUOUS
 10
192.9827677646
 20
165.1660273116
 11
193.0514094195
 21
164.436240767
  0
LINE
  5
300
100
AcDbEntity
  8
0
100
AcDbLine
 62
7
  6
CONTINUOUS
 10
193.63703747
 20
164.7192398592
 11
193.6162781843
 21
165.1724306626
  0
LINE
  5
301
100
AcDbEntity
  8
0
100
AcDbLine
 62
7
  6
CONTINUOUS
 10
187.4327367655
 20
178.5123693644
 11
187.4295031441
 21
179.2270304561
  0
LINE
  5
302
100
AcDbEntity
  8
0
100
AcDbLine
 62
7
  6
CONTINUOUS
 10
182.4566522289
 20
85.9370660573
 11
182.4867072039
 21
86.2380130248
  0
LINE
  5
303
100
AcDbEntity
  8
0
100
AcDbLine
 62
7
  6
CONTINUOUS
 10
185.335318734
 20
85.2649984783
 11
185.305263759
 21
84.9640515108
  0
LINE
  5
304
100
AcDbEntity
  8
0
100
AcDbLine
 62
7
  6
CONTINUOUS
 10
182.1069904126
 20
86.4473857004
 11
182.0351516028
 21
85.9640241238
  0
LINE
  5
305
100
AcDbEntity
  8
0
100
AcDbLine
 62
7
  6
CONTINUOUS
 10
185.6849805903
 20
84.7546788018
 11
185.756819383
 21
85.2380403927
  0
LINE
  5
306
100
AcDbEntity
  8
0
100
AcDbLine
 62
7
  6
CONTINUOUS
 10
193.0641336977
 20
165.6958171632
 11
192.9827677646
 21
165.1660273116
  0
LINE
  5
307
100
AcDbEntity
  8
0
100
AcDbLine
 62
7
  6
CONTINUOUS
 10
198.6157217913
 20
165.953441867
 11
198.534355894
 21
165.4236520422
  0
LINE
  5
308
100
AcDbEntity
  8
0
100
AcDbLine
 62
7
  6
CONTINUOUS
 10
174.3738893081
 20
78.0587713443
 11
174.4604753602
 21
78.3485562542
  0
LINE
  5
309
100
AcDbEntity
  8
0
100
AcDbLine
 62
7
  6
CONTINUOUS
 10
177.4180597862
 20
77.3530224769
 11
177.3314738642
 21
77.063237596
  0
LINE
  5
30A
100
AcDbEntity
  8
0
100
AcDbLine
 62
7
  6
CONTINUOUS
 10
197.6694734643
 20
165.0874530898
 11
197.9822114074
 21
165.9470385428
  0
LINE
  5
30B
100
AcDbEntity
  8
0
100
AcDbLine
 62
7
  6
CONTINUOUS
 10
185.1003128251
 20
180.7756185801
 11
184.6533867085
 21
180.853528134
  0
LINE
  5
30C
100
AcDbEntity
  8
0
100
AcDbLine
 62
7
  6
CONTINUOUS
 10
183.784597397
 20
175.4707205605
 11
183.2479624663
 21
175.6356783095
  0
LINE
  5
30D
100
AcDbEntity
  8
0
100
AcDbLine
 62
7
  6
CONTINUOUS
 10
185.5440053203
 20
181.4123701179
 11
185.007370413
 21
181.577327891
  0
LINE
  5
30E
100
AcDbEntity
  8
0
100
AcDbLine
 62
7
  6
CONTINUOUS
 10
196.9656504393
 20
168.1533895433
 11
197.6470432191
 21
167.8831971464
  0
LINE
  5
30F
100
AcDbEntity
  8
0
100
AcDbLine
 62
7
  6
CONTINUOUS
 10
183.691655016
 20
176.2724299035
 11
183.2439202375
 21
176.5290049793
  0
LINE
  5
310
100
AcDbEntity
  8
0
100
AcDbLine
 62
7
  6
CONTINUOUS
 10
185.5480476037
 20
180.5190435043
 11
185.1003128251
 21
180.7756185801
  0
LINE
  5
311
100
AcDbEntity
  8
0
100
AcDbLine
 62
7
  6
CONTINUOUS
 10
183.2479624663
 20
175.6356783095
 11
182.7105194025
 21
175.9793010984
  0
LINE
  5
312
100
AcDbEntity
  8
0
100
AcDbLine
 62
7
  6
CONTINUOUS
 10
174.5825868091
 20
183.1976948892
 11
175.1660302689
 21
182.7264266755
  0
LINE
  5
313
100
AcDbEntity
  8
0
100
AcDbLine
 62
7
  6
CONTINUOUS
 10
175.9572417922
 20
182.113279752
 11
176.5233946333
 21
181.6213743134
  0
LINE
  5
314
100
AcDbEntity
  8
0
100
AcDbLine
 62
7
  6
CONTINUOUS
 10
179.7315941111
 20
178.8339101222
 11
179.16544127
 21
179.3258155608
  0
LINE
  5
315
100
AcDbEntity
  8
0
100
AcDbLine
 62
7
  6
CONTINUOUS
 10
177.9055729267
 20
182.4498346048
 11
179.7927491536
 21
180.8101497313
  0
LINE
  5
316
100
AcDbEntity
  8
0
100
AcDbLine
 62
7
  6
CONTINUOUS
 10
180.0333044681
 20
181.2775998456
 11
178.3348459448
 21
182.7533161614
  0
LINE
  5
317
100
AcDbEntity
  8
0
100
AcDbLine
 62
7
  6
CONTINUOUS
 10
194.3870702148
 20
163.7192632265
 11
193.9099295177
 21
164.1426513772
  0
LINE
  5
318
100
AcDbEntity
  8
0
100
AcDbLine
 62
7
  6
CONTINUOUS
 10
197.6885617906
 20
166.9768155395
 11
197.2114193768
 21
167.4002059789
  0
LINE
  5
319
100
AcDbEntity
  8
0
100
AcDbLine
 62
7
  6
CONTINUOUS
 10
193.3993035311
 20
163.7596562172
 11
193.9514480266
 21
163.2362697234
  0
LINE
  5
31A
100
AcDbEntity
  8
0
100
AcDbLine
 62
7
  6
CONTINUOUS
 10
182.7105194025
 20
175.9793010984
 11
181.9031418254
 21
176.7627335767
  0
LINE
  5
31B
100
AcDbEntity
  8
0
100
AcDbLine
 62
7
  6
CONTINUOUS
 10
183.2439202375
 20
176.5290049793
 11
182.4365426604
 21
177.3124374576
  0
LINE
  5
31C
100
AcDbEntity
  8
0
100
AcDbLine
 62
7
  6
CONTINUOUS
 10
185.2061910135
 20
177.1152631517
 11
184.3988134364
 21
177.89869563
  0
LINE
  5
31D
100
AcDbEntity
  8
0
100
AcDbLine
 62
7
  6
CONTINUOUS
 10
186.2778440176
 20
177.1426781514
 11
184.9322142091
 21
178.4483994467
  0
LINE
  5
31E
100
AcDbEntity
  8
0
100
AcDbLine
 62
7
  6
CONTINUOUS
 10
188.0581811874
 20
170.3712284323
 11
187.5494588308
 21
170.9223196805
  0
LINE
  5
31F
100
AcDbEntity
  8
0
100
AcDbLine
 62
7
  6
CONTINUOUS
 10
185.1754205197
 20
173.4940795397
 11
184.6666981631
 21
174.045170788
  0
LINE
  5
320
100
AcDbEntity
  8
0
100
AcDbLine
 62
7
  6
CONTINUOUS
 10
189.613119692
 20
172.8273225633
 11
187.239081381
 21
175.3990824225
  0
LINE
  5
321
100
AcDbEntity
  8
0
100
AcDbLine
 62
7
  6
CONTINUOUS
 10
190.1759362189
 20
173.3468687379
 11
187.8018979078
 21
175.9186285971
  0
LINE
  5
322
100
AcDbEntity
  8
0
100
AcDbLine
 62
7
  6
CONTINUOUS
 10
190.352295601
 20
171.00581863
 11
191.4848198999
 21
169.6716933056
  0
LINE
  5
323
100
AcDbEntity
  8
0
100
AcDbLine
 62
7
  6
CONTINUOUS
 10
191.9714309062
 20
170.0847720311
 11
190.8389066073
 21
171.4188973556
  0
LINE
  5
324
100
AcDbEntity
  8
0
100
AcDbLine
 62
7
  6
CONTINUOUS
 10
190.9404655877
 20
166.9143810614
 11
191.4124048805
 21
166.3314802946
  0
LINE
  5
325
100
AcDbEntity
  8
0
100
AcDbLine
 62
7
  6
CONTINUOUS
 10
181.9031418254
 20
176.7627335767
 11
181.5434990347
 21
177.2895909872
  0
LINE
  5
326
100
AcDbEntity
  8
0
100
AcDbLine
 62
7
  6
CONTINUOUS
 10
182.4365426604
 20
177.3124374576
 11
182.1666081394
 21
177.752247139
  0
LINE
  5
327
100
AcDbEntity
  8
0
100
AcDbLine
 62
7
  6
CONTINUOUS
 10
186.6253597017
 20
179.2958013446
 11
186.3554251807
 21
179.735611026
  0
LINE
  5
328
100
AcDbEntity
  8
0
100
AcDbLine
 62
7
  6
CONTINUOUS
 10
193.0514094195
 20
164.436240767
 11
193.3993035311
 21
163.7596562172
  0
LINE
  5
329
100
AcDbEntity
  8
0
100
AcDbLine
 62
7
  6
CONTINUOUS
 10
193.9099295177
 20
164.1426513772
 11
193.63703747
 21
164.7192398592
  0
LINE
  5
32A
100
AcDbEntity
  8
0
100
AcDbLine
 62
7
  6
CONTINUOUS
 10
181.5434990347
 20
177.2895909872
 11
181.3624646659
 21
177.8210179954
  0
LINE
  5
32B
100
AcDbEntity
  8
0
100
AcDbLine
 62
7
  6
CONTINUOUS
 10
187.4295031441
 20
179.2270304561
 11
187.2484687519
 21
179.7584574402
  0
LINE
  5
32C
100
AcDbEntity
  8
0
100
AcDbLine
 62
7
  6
CONTINUOUS
 10
182.1666081394
 20
177.752247139
 11
182.0752826002
 21
178.1966259682
  0
LINE
  5
32D
100
AcDbEntity
  8
0
100
AcDbLine
 62
7
  6
CONTINUOUS
 10
186.7166853032
 20
178.8514225796
 11
186.6253597017
 21
179.2958013446
  0
LINE
  5
32E
100
AcDbEntity
  8
0
100
AcDbLine
 62
7
  6
CONTINUOUS
 10
198.5470818263
 20
166.6832261027
 11
198.6157217913
 21
165.953441867
  0
LINE
  5
32F
100
AcDbEntity
  8
0
100
AcDbLine
 62
7
  6
CONTINUOUS
 10
197.9822114074
 20
165.9470385428
 11
197.9614521216
 21
166.4002293463
  0
LINE
  5
330
100
AcDbEntity
  8
0
100
AcDbLine
 62
7
  6
CONTINUOUS
 10
174.0736666951
 20
78.692176592
 11
173.922424155
 21
78.349818401
  0
LINE
  5
331
100
AcDbEntity
  8
0
100
AcDbLine
 62
7
  6
CONTINUOUS
 10
177.7182825622
 20
76.7196172177
 11
177.8695250882
 21
77.0619754261
  0
LINE
  5
332
100
AcDbEntity
  8
0
100
AcDbLine
 62
7
  6
CONTINUOUS
 10
182.4867072039
 20
86.2380130248
 11
182.6890278974
 21
86.6120729234
  0
LINE
  5
333
100
AcDbEntity
  8
0
100
AcDbLine
 62
7
  6
CONTINUOUS
 10
182.3628231882
 20
86.8853271184
 11
182.1069904126
 21
86.4473857004
  0
LINE
  5
334
100
AcDbEntity
  8
0
100
AcDbLine
 62
7
  6
CONTINUOUS
 10
199.8025152125
 20
134.380164824
 11
195.4721149266
 21
128.1957122873
  0
LINE
  5
335
100
AcDbEntity
  8
RUNDUNGEN
100
AcDbLine
 62
7
  6
CONTINUOUS
 10
191.4303071895
 20
122.4234126239
 11
195.4721149266
 21
128.1957122873
  0
LINE
  5
336
100
AcDbEntity
  8
0
100
AcDbLine
 62
7
  6
CONTINUOUS
 10
106.5905526436
 20
197.127248547
 11
118.720327707
 21
198.2704858732
  0
LINE
  5
337
100
AcDbEntity
  8
0
100
AcDbLine
 62
7
  6
CONTINUOUS
 10
186.0814483764
 20
181.068747321
 11
185.5440053203
 21
181.4123701179
  0
LINE
  5
338
100
AcDbEntity
  8
0
100
AcDbLine
 62
7
  6
CONTINUOUS
 10
178.9361759782
 20
187.393974354
 11
178.3527325184
 21
187.8652425676
  0
LINE
  5
339
100
AcDbEntity
  8
0
100
AcDbLine
 62
7
  6
CONTINUOUS
 10
182.1570968003
 20
184.674880609
 11
181.4022262555
 21
185.3307546054
  0
LINE
  5
33A
100
AcDbEntity
  8
0
100
AcDbLine
 62
7
  6
CONTINUOUS
 10
197.6470432191
 20
167.8831971464
 11
198.1991877057
 21
167.3598106458
  0
LINE
  5
33B
100
AcDbEntity
  8
0
100
AcDbLine
 62
7
  6
CONTINUOUS
 10
187.0779451766
 20
177.9672338765
 11
186.5396929453
 21
178.4895226935
  0
LINE
  5
33C
100
AcDbEntity
  8
0
100
AcDbLine
 62
7
  6
CONTINUOUS
 10
186.3554251807
 20
179.735611026
 11
185.5480476037
 21
180.5190435043
  0
LINE
  5
33D
100
AcDbEntity
  8
0
100
AcDbLine
 62
7
  6
CONTINUOUS
 10
186.8888259534
 20
180.2853148427
 11
186.0814483764
 21
181.068747321
  0
LINE
  5
33E
100
AcDbEntity
  8
0
100
AcDbLine
 62
7
  6
CONTINUOUS
 10
192.4669111733
 20
174.4410072851
 11
191.9581888167
 21
174.9920985334
  0
LINE
  5
33F
100
AcDbEntity
  8
0
100
AcDbLine
 62
7
  6
CONTINUOUS
 10
189.5841505057
 20
177.5638583926
 11
189.0754281491
 21
178.1149496408
  0
LINE
  5
340
100
AcDbEntity
  8
0
100
AcDbLine
 62
7
  6
CONTINUOUS
 10
195.6036717222
 20
170.6898954035
 11
196.075611015
 21
170.1069946367
  0
LINE
  5
341
100
AcDbEntity
  8
0
100
AcDbLine
 62
7
  6
CONTINUOUS
 10
187.2484687519
 20
179.7584574402
 11
186.8888259534
 21
180.2853148427
  0
LINE
  5
342
100
AcDbEntity
  8
0
100
AcDbLine
 62
7
  6
CONTINUOUS
 10
200.8628120709
 20
173.751481594
 11
184.782761405
 21
197.9905992968
  0
LINE
  5
343
100
AcDbEntity
  8
0
100
AcDbLine
 62
7
  6
CONTINUOUS
 10
198.1991877057
 20
167.3598106458
 11
198.5470818263
 21
166.6832261027
  0
LINE
  5
344
100
AcDbEntity
  8
0
100
AcDbLine
 62
7
  6
CONTINUOUS
 10
197.9614521216
 20
166.4002293463
 11
197.6885617906
 21
166.9768155395
  0
LWPOLYLINE
  5
345
100
AcDbEntity
  8
RUNDUNGEN
100
AcDbPolyline
 62
7
  6
CONTINUOUS
 90
15
 70
0
 10
180.5132232133
 20
270.6666186297
 10
180.4661881661
 20
270.9642351471
 10
180.3884167316
 20
271.2555946546
 10
180.2806450337
 20
271.5378313726
 10
180.1438405815
 20
271.8081025756
 10
179.9792676846
 20
272.0635451894
 10
179.7883876118
 20
272.3014943262
 10
179.5730273206
 20
272.5192740752
 10
179.3351882863
 20
272.7144749703
 10
179.0772465916
 20
272.8847821554
 10
178.8015976249
 20
273.0282538801
 10
178.5114106785
 20
273.1429532684
 10
178.2096845632
 20
273.2275136195
 10
177.9002725449
 20
273.2808300161
 10
177.5872195738
 20
273.3024662507
  0
LINE
  5
346
100
AcDbEntity
  8
0
100
AcDbLine
 62
7
  6
CONTINUOUS
 10
209.7103171497
 20
122.5634158533
 11
210.3583552919
 21
124.9819271253
  0
LINE
  5
347
100
AcDbEntity
  8
RUNDUNGEN
100
AcDbLine
 62
7
  6
CONTINUOUS
 10
204.0964996233
 20
101.2099093388
 11
209.8600482503
 21
122.3940636936
  0
LINE
  5
348
100
AcDbEntity
  8
0
100
AcDbLine
 62
7
  6
CONTINUOUS
 10
208.8543899645
 20
118.6977262922
 11
209.8600482503
 21
122.3940636936
  0
LINE
  5
349
100
AcDbEntity
  8
0
100
AcDbLine
 62
7
  6
CONTINUOUS
 10
185.305263759
 20
84.9640515108
 11
185.1029430655
 21
84.5899916122
  0
LINE
  5
34A
100
AcDbEntity
  8
0
100
AcDbLine
 62
7
  6
CONTINUOUS
 10
185.4291478204
 20
84.3167373789
 11
185.6849805903
 21
84.7546788018
  0
LINE
  5
34B
100
AcDbEntity
  8
0
100
AcDbLine
 62
7
  6
CONTINUOUS
 10
174.4604753602
 20
78.3485562542
 11
174.6654098836
 21
78.6248821378
  0
LINE
  5
34C
100
AcDbEntity
  8
0
100
AcDbLine
 62
7
  6
CONTINUOUS
 10
177.3314738642
 20
77.063237596
 11
177.1265393408
 21
76.7869117124
  0
LINE
  5
34D
100
AcDbEntity
  8
0
100
AcDbLine
 62
7
  6
CONTINUOUS
 10
174.3432579839
 20
79.0210759825
 11
174.0736666951
 21
78.692176592
  0
LINE
  5
34E
100
AcDbEntity
  8
0
100
AcDbLine
 62
7
  6
CONTINUOUS
 10
177.4486912781
 20
76.3907178215
 11
177.7182825622
 21
76.7196172177
  0
LINE
  5
34F
100
AcDbEntity
  8
0
100
AcDbLine
 62
7
  6
CONTINUOUS
 10
180.9421124341
 20
85.2495681667
 11
180.603593712
 21
84.8815938812
  0
LINE
  5
350
100
AcDbEntity
  8
0
100
AcDbLine
 62
7
  6
CONTINUOUS
 10
183.5473879959
 20
82.1734441044
 11
183.885906718
 21
82.5414183899
  0
LINE
  5
351
100
AcDbEntity
  8
0
100
AcDbLine
 62
7
  6
CONTINUOUS
 10
181.3305604198
 20
82.5451328496
 11
180.516511189
 21
81.7094081924
  0
LINE
  5
352
100
AcDbEntity
  8
0
100
AcDbLine
 62
7
  6
CONTINUOUS
 10
180.8213347382
 20
81.412490573
 11
181.635383969
 21
82.2482152302
  0
LINE
  5
353
100
AcDbEntity
  8
0
100
AcDbLine
 62
7
  6
CONTINUOUS
 10
178.5292102651
 20
82.7135568021
 11
176.3315087544
 21
80.6714732561
  0
LINE
  5
354
100
AcDbEntity
  8
0
100
AcDbLine
 62
7
  6
CONTINUOUS
 10
177.0453811003
 20
80.6377437001
 11
178.8767989676
 21
82.3394799344
  0
LINE
  5
355
100
AcDbEntity
  8
0
100
AcDbLine
 62
7
  6
CONTINUOUS
 10
179.3857191227
 20
81.3020818881
 11
177.798490118
 21
79.8272436453
  0
LINE
  5
356
100
AcDbEntity
  8
0
100
AcDbLine
 62
7
  6
CONTINUOUS
 10
178.1460788205
 20
79.4531667776
 11
179.7333078251
 21
80.9280050204
  0
LINE
  5
357
100
AcDbEntity
  8
0
100
AcDbLine
 62
7
  6
CONTINUOUS
 10
182.7491378474
 20
87.2139668584
 11
182.3628231882
 21
86.8853271184
  0
LINE
  5
358
100
AcDbEntity
  8
0
100
AcDbLine
 62
7
  6
CONTINUOUS
 10
174.9251677626
 20
79.4942366416
 11
174.3432579839
 21
79.0210759825
  0
LINE
  5
359
100
AcDbEntity
  8
0
100
AcDbLine
 62
7
  6
CONTINUOUS
 10
174.6654098836
 20
78.6248821378
 11
175.2473196624
 21
79.0980427969
  0
LINE
  5
35A
100
AcDbEntity
  8
0
100
AcDbLine
 62
7
  6
CONTINUOUS
 10
182.6890278974
 20
86.6120729234
 11
183.0218304746
 21
86.8768311439
  0
LINE
  5
35B
100
AcDbEntity
  8
0
100
AcDbLine
 62
7
  6
CONTINUOUS
 10
183.2124223083
 20
87.3694234009
 11
182.7491378474
 21
87.2139668584
  0
LINE
  5
35C
100
AcDbEntity
  8
0
100
AcDbLine
 62
7
  6
CONTINUOUS
 10
180.9044000162
 20
80.1573645668
 11
179.0729821488
 21
78.4556283326
  0
LINE
  5
35D
100
AcDbEntity
  8
0
100
AcDbLine
 62
7
  6
CONTINUOUS
 10
179.0542872486
 20
77.7412041094
 11
181.2519887593
 21
79.7832876554
  0
LINE
  5
35E
100
AcDbEntity
  8
0
100
AcDbLine
 62
7
  6
CONTINUOUS
 10
185.0428331554
 20
83.9880976437
 11
185.4291478204
 21
84.3167373789
  0
LINE
  5
35F
100
AcDbEntity
  8
0
100
AcDbLine
 62
7
  6
CONTINUOUS
 10
176.0867249109
 20
79.1224360699
 11
176.4746645784
 21
79.437876359
  0
LINE
  5
360
100
AcDbEntity
  8
0
100
AcDbLine
 62
7
  6
CONTINUOUS
 10
177.7095802693
 20
77.9191331951
 11
177.3216406018
 21
77.6036929061
  0
LINE
  5
361
100
AcDbEntity
  8
0
100
AcDbLine
 62
7
  6
CONTINUOUS
 10
177.1265393408
 20
76.7869117124
 11
176.544629562
 21
76.3137510533
  0
LINE
  5
362
100
AcDbEntity
  8
0
100
AcDbLine
 62
7
  6
CONTINUOUS
 10
176.8667814994
 20
75.9175571623
 11
177.4486912781
 21
76.3907178215
  0
LINE
  5
363
100
AcDbEntity
  8
0
100
AcDbLine
 62
7
  6
CONTINUOUS
 10
185.1029430655
 20
84.5899916122
 11
184.7701404883
 21
84.3252333917
  0
LINE
  5
364
100
AcDbEntity
  8
0
100
AcDbLine
 62
7
  6
CONTINUOUS
 10
172.7634534158
 20
77.7947321722
 11
172.3619376032
 21
77.4967639654
  0
LINE
  5
365
100
AcDbEntity
  8
0
100
AcDbLine
 62
7
  6
CONTINUOUS
 10
174.7456832574
 20
74.2846374647
 11
175.14719907
 21
74.5826056715
  0
LINE
  5
366
100
AcDbEntity
  8
0
100
AcDbLine
 62
7
  6
CONTINUOUS
 10
175.302143018
 20
79.6910714172
 11
174.9251677626
 21
79.4942366416
  0
LINE
  5
367
100
AcDbEntity
  8
0
100
AcDbLine
 62
7
  6
CONTINUOUS
 10
176.4898062393
 20
75.7207223926
 11
176.8667814994
 21
75.9175571623
  0
LINE
  5
368
100
AcDbEntity
  8
0
100
AcDbLine
 62
7
  6
CONTINUOUS
 10
175.2473196624
 20
79.0980427969
 11
175.5596381524
 21
79.2423040656
  0
LINE
  5
369
100
AcDbEntity
  8
0
100
AcDbLine
 62
7
  6
CONTINUOUS
 10
176.544629562
 20
76.3137510533
 11
176.232311072
 21
76.1694897846
  0
LINE
  5
36A
100
AcDbEntity
  8
0
100
AcDbLine
 62
7
  6
CONTINUOUS
 10
184.5795486774
 20
83.8326411155
 11
185.0428331554
 21
83.9880976437
  0
LINE
  5
36B
100
AcDbEntity
  8
RUNDUNGEN
100
AcDbLine
 62
7
  6
CONTINUOUS
 10
181.7075374748
 20
68.064692578
 11
186.4425020386
 21
72.0378977346
  0
LINE
  5
36C
100
AcDbEntity
  8
BEZUGSACHSEN
100
AcDbLine
 62
7
  6
CONTINUOUS
 10
158.7789956577
 20
249.8030076876
 11
147.2789956577
 21
249.8030076876
  0
LINE
  5
36D
100
AcDbEntity
  8
BEZUGSACHSEN
100
AcDbLine
 62
7
  6
CONTINUOUS
 10
158.7789956577
 20
262.8030076876
 11
147.2789956577
 21
262.8030076876
  0
LWPOLYLINE
  5
36E
100
AcDbEntity
  8
0
100
AcDbPolyline
 62
7
  6
CONTINUOUS
 90
17
 70
0
 10
128.2290160973
 20
273.3030076735
 10
128.1558518366
 20
273.3021238029
 10
127.8464158738
 20
273.2787125553
 10
127.5411018712
 20
273.2236772845
 10
127.2432790227
 20
273.1376092892
 10
126.9562176791
 20
273.0214886361
 10
126.6829314142
 20
272.8765965857
 10
126.4263462875
 20
272.7045644008
 10
126.1891027304
 20
272.5072544441
 10
125.9736705401
 20
272.2868123274
 10
125.7822674589
 20
272.0456023627
 10
125.6168715291
 20
271.7862155935
 10
125.4791701721
 20
271.5113975662
 10
125.3705766779
 20
271.2240650033
 10
125.2921972637
 20
270.9272334635
 10
125.2448365213
 20
270.6240018416
 10
125.2289956577
 20
270.3176241037
  0
LWPOLYLINE
  5
36F
100
AcDbEntity
  8
RUNDUNGEN
100
AcDbPolyline
 62
7
  6
CONTINUOUS
 90
17
 70
0
 10
128.2290166925
 20
273.3030076729
 10
128.175476078
 20
273.3025345152
 10
127.8645823452
 20
273.2809743504
 10
127.5576461622
 20
273.2274987582
 10
127.2580861269
 20
273.1426853654
 10
126.9692225716
 20
273.0275091545
 10
126.6941129903
 20
272.8832522393
 10
126.4357285834
 20
272.711553586
 10
126.1967505249
 20
272.514288203
 10
125.9796878043
 20
272.2936199292
 10
125.7867936345
 20
272.0519356369
 10
125.6200783803
 20
271.7918536668
 10
125.4812569527
 20
271.516149511
 10
125.3717662443
 20
271.2277734005
 10
125.2927313053
 20
270.9297765311
 10
125.2449708735
 20
270.6252950474
 10
125.2289956577
 20
270.3176241037
  0
LINE
  5
370
100
AcDbEntity
  8
KONSTRUKTIONSELEMENTE
100
AcDbLine
 62
7
  6
CONTINUOUS
 10
177.5289956577
 20
273.3030076876
 11
172.9439282363
 21
273.3030076876
  0
LINE
  5
371
100
AcDbEntity
  8
0
100
AcDbLine
 62
7
  6
CONTINUOUS
 10
133.1140051328
 20
273.3030076876
 11
128.2289956136
 21
273.3030076876
  0
LINE
  5
372
100
AcDbEntity
  8
0
100
AcDbLine
 62
7
  6
CONTINUOUS
 10
177.5323624954
 20
273.3030056135
 11
177.5289956607
 21
273.3030074885
  0
LINE
  5
373
100
AcDbEntity
  8
0
100
AcDbLine
 62
7
  6
CONTINUOUS
 10
177.5654520441
 20
273.3027953232
 11
177.5324265483
 21
273.3030055415
  0
LINE
  5
374
100
AcDbEntity
  8
RUNDUNGEN
100
AcDbLine
 62
7
  6
CONTINUOUS
 10
177.5872195738
 20
273.3024662507
 11
177.5323624954
 21
273.3030056135
  0
LINE
  5
375
100
AcDbEntity
  8
0
100
AcDbLine
 62
7
  6
CONTINUOUS
 10
295.4260235296
 20
54.510639665
 11
305.4260235296
 21
54.510639665
  0
LINE
  5
376
100
AcDbEntity
  8
RUNDUNGEN
100
AcDbLine
 62
7
  6
CONTINUOUS
 10
282.0118099673
 20
249.6689098074
 11
284.2098803312
 21
251.8669801713
  0
LWPOLYLINE
  5
377
100
AcDbEntity
  8
RUNDUNGEN
100
AcDbPolyline
 62
7
  6
CONTINUOUS
 90
31
 70
0
 10
310.7299512397
 20
76.8953851094
 10
310.8182448758
 20
76.919916625
 10
311.1064663669
 20
77.0382168731
 10
311.3508807226
 20
77.1920699258
 10
311.5498938617
 20
77.3640374973
 10
311.7048056058
 20
77.5361965306
 10
311.8294023889
 20
77.7065374815
 10
311.9323311778
 20
77.8744650602
 10
312.0203052612
 20
78.0417976828
 10
312.0987899516
 20
78.212775699
 10
312.1703894481
 20
78.3889242616
 10
312.2376370823
 20
78.5735925654
 10
312.3016671246
 20
78.7679661949
 10
312.3635937116
 20
78.9740611778
 10
312.4240499446
 20
79.1930979498
 10
312.4836448831
 20
79.4267462399
 10
312.5426846155
 20
79.6759338248
 10
312.6014878078
 20
79.9418942123
 10
312.6602256501
 20
80.2254187633
 10
312.7190754873
 20
80.5274804064
 10
312.7781362699
 20
80.8487860511
 10
312.8375111818
 20
81.1901549168
 10
312.8972582953
 20
81.5522197276
 10
312.957438177
 20
81.9356556935
 10
313.0180888734
 20
82.341034699
 10
313.0792480442
 20
82.7689566316
 10
313.140941954
 20
83.2199683876
 10
313.2031950933
 20
83.6946071866
 10
313.2660290802
 20
84.193388571
 10
313.3294649255
 20
84.7168369601
 10
313.4581921417
 20
85.8395729568
  0
LINE
  5
378
100
AcDbEntity
  8
AUSFORMSCHRAEGEN
100
AcDbLine
 62
7
  6
CONTINUOUS
 10
310.4260235296
 20
76.8195846069
 11
310.7307524126
 21
76.8955620507
  0
LINE
  5
379
100
AcDbEntity
  8
RUNDUNGEN
100
AcDbLine
 62
7
  6
CONTINUOUS
 10
310.7298935798
 20
76.8953498709
 11
310.7306940165
 21
76.8955474909
  0
LINE
  5
37A
100
AcDbEntity
  8
0
100
AcDbLine
 62
7
  6
CONTINUOUS
 10
290.1213530428
 20
76.8955474909
 11
290.4260235296
 21
76.8195846069
  0
LINE
  5
37B
100
AcDbEntity
  8
0
100
AcDbLine
 62
7
  6
CONTINUOUS
 10
308.6317177842
 20
232.3455835878
 11
317.720329275
 21
238.7094978655
  0
LWPOLYLINE
  5
37C
100
AcDbEntity
  8
0
100
AcDbPolyline
 62
7
  6
CONTINUOUS
 90
5
 70
0
 10
289.9522428467
 20
73.7537525992
 10
290.0676667556
 20
73.3739173132
 10
290.1739913726
 20
72.9650455173
 10
290.2617132411
 20
72.5438961306
 10
290.3300950556
 20
72.1121521297
  0
LINE
  5
37D
100
AcDbEntity
  8
0
100
AcDbLine
 62
7
  6
CONTINUOUS
 10
287.2621763096
 20
87.0701843843
 11
287.3933280601
 21
85.8443326957
  0
LINE
  5
37E
100
AcDbEntity
  8
0
100
AcDbLine
 62
7
  6
CONTINUOUS
 10
287.1284342832
 20
88.4027311034
 11
287.2621763096
 21
87.0701843843
  0
LINE
  5
37F
100
AcDbEntity
  8
0
100
AcDbLine
 62
7
  6
CONTINUOUS
 10
286.9920558557
 20
89.8445896606
 11
287.1284342832
 21
88.4027311034
  0
LINE
  5
380
100
AcDbEntity
  8
RUNDUNGEN
100
AcDbLine
 62
7
  6
CONTINUOUS
 10
281.4260235296
 20
241.9861060427
 11
281.4260235296
 21
248.254696245
  0
LINE
  5
381
100
AcDbEntity
  8
0
100
AcDbLine
 62
7
  6
CONTINUOUS
 10
282.4260235296
 20
152.1456508535
 11
282.4260235296
 21
225.6029829753
  0
LWPOLYLINE
  5
382
100
AcDbEntity
  8
0
100
AcDbPolyline
 62
7
  6
CONTINUOUS
 90
29
 70
0
 10
287.5853386614
 20
84.1988885514
 10
287.6481274885
 20
83.7002456586
 10
287.7103372916
 20
83.2257032799
 10
287.7719890537
 20
82.7747522442
 10
287.8331066538
 20
82.3468610561
 10
287.8937157463
 20
81.9414875569
 10
287.9538532071
 20
81.5580368584
 10
288.0135563303
 20
81.1959409699
 10
288.0728847049
 20
80.8545291342
 10
288.1318954768
 20
80.5331718171
 10
288.1906903819
 20
80.2310540466
 10
288.2493669891
 20
79.9474713112
 10
288.308100318
 20
79.6814553589
 10
288.3670594758
 20
79.4322162458
 10
288.4265584243
 20
79.1985294365
 10
288.4868990656
 20
78.979469306
 10
288.5486804011
 20
78.7733811314
 10
288.612524334
 20
78.5790529315
 10
288.679527205
 20
78.3944809178
 10
288.7508050167
 20
78.2184779199
 10
288.8288391234
 20
78.0477384073
 10
288.9161799973
 20
77.8807394501
 10
289.0181697128
 20
77.7132838389
 10
289.1413409131
 20
77.5435588683
 10
289.2942248209
 20
77.3719443549
 10
289.4903360359
 20
77.2002348745
 10
289.7313481181
 20
77.0457102557
 10
290.0163312698
 20
76.9253881748
 10
290.1220484681
 20
76.8953966737
  0
LWPOLYLINE
  5
383
100
AcDbEntity
  8
0
100
AcDbPolyline
 62
7
  6
CONTINUOUS
 90
3
 70
0
 10
287.3933280601
 20
85.8443326957
 10
287.4579509983
 20
85.2704828547
 10
287.5853386614
 20
84.1988885514
  0
LWPOLYLINE
  5
384
100
AcDbEntity
  8
0
100
AcDbPolyline
 62
7
  6
CONTINUOUS
 90
4
 70
0
 10
290.3300950556
 20
72.1121521297
 10
290.3790745752
 20
71.6703683877
 10
290.4099937194
 20
71.2220082808
 10
290.4245478612
 20
70.7712243337
  0
LWPOLYLINE
  5
385
100
AcDbEntity
  8
0
100
AcDbPolyline
 62
7
  6
CONTINUOUS
 90
7
 70
0
 10
282.4480859029
 20
151.7044312642
 10
282.584080751
 20
150.3202636183
 10
282.7391623975
 20
148.6785969997
 10
282.8949405211
 20
146.966414731
 10
283.0512921249
 20
145.1894349331
 10
283.2081622152
 20
143.3533176465
 10
283.3654724917
 20
141.4639774755
  0
LINE
  5
386
100
AcDbEntity
  8
0
100
AcDbLine
 62
7
  6
CONTINUOUS
 10
283.2895821122
 20
152.021739689
 11
283.2916353831
 21
152.0008028402
  0
LINE
  5
387
100
AcDbEntity
  8
0
100
AcDbLine
 62
7
  6
CONTINUOUS
 10
282.4439741379
 20
151.7475833345
 11
282.448109518
 21
151.7041957215
  0
LINE
  5
388
100
AcDbEntity
  8
0
100
AcDbLine
 62
7
  6
CONTINUOUS
 10
283.2916353831
 20
152.0008028402
 11
283.2944222838
 21
151.9701604354
  0
LINE
  5
389
100
AcDbEntity
  8
0
100
AcDbLine
 62
7
  6
CONTINUOUS
 10
283.2944222838
 20
151.9701604354
 11
283.2994929735
 21
151.9103008731
  0
LINE
  5
38A
100
AcDbEntity
  8
0
100
AcDbLine
 62
7
  6
CONTINUOUS
 10
283.3654724917
 20
141.4639774755
 11
283.6812284523
 21
137.5502121264
  0
LINE
  5
38B
100
AcDbEntity
  8
0
100
AcDbLine
 62
7
  6
CONTINUOUS
 10
283.2994929735
 20
151.9103008731
 11
283.3053300055
 21
151.8369042402
  0
LINE
  5
38C
100
AcDbEntity
  8
0
100
AcDbLine
 62
7
  6
CONTINUOUS
 10
283.6812284523
 20
137.5502121264
 11
283.9981667558
 21
133.4991580158
  0
LINE
  5
38D
100
AcDbEntity
  8
0
100
AcDbLine
 62
7
  6
CONTINUOUS
 10
283.9981667558
 20
133.4991580158
 11
284.4260235296
 21
127.923877928
  0
LWPOLYLINE
  5
38E
100
AcDbEntity
  8
0
100
AcDbPolyline
 62
7
  6
CONTINUOUS
 90
6
 70
0
 10
289.4538330774
 20
77.2321958413
 10
289.4571761258
 20
77.1878377737
 10
289.4656161093
 20
77.0656212768
 10
289.4738469619
 20
76.9355717084
 10
289.4818273854
 20
76.7979669863
 10
289.4895177488
 20
76.6531541601
  0
LWPOLYLINE
  5
38F
100
AcDbEntity
  8
0
100
AcDbPolyline
 62
7
  6
CONTINUOUS
 90
3
 70
0
 10
283.7830043996
 20
142.8724760497
 10
283.7907749782
 20
142.7664940861
 10
283.8017281764
 20
142.6605109664
  0
LINE
  5
390
100
AcDbEntity
  8
0
100
AcDbLine
 62
7
  6
CONTINUOUS
 10
283.3053300055
 20
151.8369042402
 11
283.3186081724
 21
151.6581130516
  0
LINE
  5
391
100
AcDbEntity
  8
0
100
AcDbLine
 62
7
  6
CONTINUOUS
 10
282.4319968837
 20
151.9159605254
 11
282.4439741379
 21
151.7475833345
  0
LINE
  5
392
100
AcDbEntity
  8
0
100
AcDbLine
 62
7
  6
CONTINUOUS
 10
283.3186081724
 20
151.6581130516
 11
283.3446387038
 21
151.2775093747
  0
LWPOLYLINE
  5
393
100
AcDbEntity
  8
0
100
AcDbPolyline
 62
7
  6
CONTINUOUS
 90
9
 70
0
 10
285.7266485766
 20
106.6838651395
 10
285.8789727065
 20
104.3808691904
 10
286.0313463322
 20
102.1397992959
 10
286.1837738884
 20
99.9671021944
 10
286.336272863
 20
97.8688037225
 10
286.4888580658
 20
95.8508777373
 10
286.6415695734
 20
93.9187526558
 10
286.7944521655
 20
92.077710251
 10
286.9920558557
 20
89.8445896606
  0
LINE
  5
394
100
AcDbEntity
  8
0
100
AcDbLine
 62
7
  6
CONTINUOUS
 10
285.4221218895
 20
111.4494142765
 11
285.7266485766
 21
106.6838651395
  0
LINE
  5
395
100
AcDbEntity
  8
0
100
AcDbLine
 62
7
  6
CONTINUOUS
 10
285.1177059657
 20
116.3827990997
 11
285.4221218895
 21
111.4494142765
  0
LINE
  5
396
100
AcDbEntity
  8
0
100
AcDbLine
 62
7
  6
CONTINUOUS
 10
283.3446387038
 20
151.2775093747
 11
283.3989605963
 21
150.4067870008
  0
LINE
  5
397
100
AcDbEntity
  8
0
100
AcDbLine
 62
7
  6
CONTINUOUS
 10
284.4260235271
 20
127.9238779698
 11
285.1177059657
 21
116.3827990997
  0
LINE
  5
398
100
AcDbEntity
  8
0
100
AcDbLine
 62
7
  6
CONTINUOUS
 10
283.3989605963
 20
150.4067870008
 11
283.4933329455
 21
148.7399012214
  0
LWPOLYLINE
  5
399
100
AcDbEntity
  8
0
100
AcDbPolyline
 62
7
  6
CONTINUOUS
 90
8
 70
0
 10
289.5102163338
 20
76.3543495793
 10
289.5200070057
 20
76.1683048649
 10
289.550468241
 20
75.79157953
 10
289.5962681319
 20
75.4021295032
 10
289.6587061227
 20
75.0004116079
 10
289.7388834172
 20
74.5898904752
 10
289.8364518555
 20
74.174237969
 10
289.9522428467
 20
73.7537525992
  0
LINE
  5
39A
100
AcDbEntity
  8
0
100
AcDbLine
 62
7
  6
CONTINUOUS
 10
283.7807862449
 20
142.9148791148
 11
283.7830043996
 21
142.8724760497
  0
LINE
  5
39B
100
AcDbEntity
  8
0
100
AcDbLine
 62
7
  6
CONTINUOUS
 10
283.4933329455
 20
148.7399012214
 11
283.6004452975
 21
146.6791919999
  0
LINE
  5
39C
100
AcDbEntity
  8
0
100
AcDbLine
 62
7
  6
CONTINUOUS
 10
283.6004452975
 20
146.6791919999
 11
283.7328173654
 21
143.943465348
  0
LINE
  5
39D
100
AcDbEntity
  8
0
100
AcDbLine
 62
7
  6
CONTINUOUS
 10
283.7328173654
 20
143.943465348
 11
283.7807872499
 21
142.9148764996
  0
LINE
  5
39E
100
AcDbEntity
  8
0
100
AcDbLine
 62
7
  6
CONTINUOUS
 10
289.4895177488
 20
76.6531541601
 11
289.5033487519
 21
76.3565044465
  0
LINE
  5
39F
100
AcDbEntity
  8
0
100
AcDbLine
 62
7
  6
CONTINUOUS
 10
289.5033844216
 20
76.3556799219
 11
289.5033487519
 21
76.3565044465
  0
LINE
  5
3A0
100
AcDbEntity
  8
0
100
AcDbLine
 62
7
  6
CONTINUOUS
 10
290.4065082787
 20
93.7225575101
 11
290.4260221186
 21
91.8796640392
  0
LINE
  5
3A1
100
AcDbEntity
  8
0
100
AcDbLine
 62
7
  6
CONTINUOUS
 10
290.4245478612
 20
70.7712243337
 11
290.4260060068
 21
70.5962392182
  0
LWPOLYLINE
  5
3A2
100
AcDbEntity
  8
0
100
AcDbPolyline
 62
7
  6
CONTINUOUS
 90
3
 70
0
 10
282.4260377142
 20
152.1453968416
 10
282.4264559284
 20
152.084605867
 10
282.4319968837
 20
151.9159605254
  0
LINE
  5
3A3
100
AcDbEntity
  8
RUNDUNGEN
100
AcDbLine
 62
7
  6
CONTINUOUS
 10
285.4260235296
 20
254.8030011654
 11
285.4260235296
 21
258.3030057741
  0
LINE
  5
3A4
100
AcDbEntity
  8
0
100
AcDbLine
 62
7
  6
CONTINUOUS
 10
290.4260235296
 20
59.5107792713
 11
290.4260235296
 21
91.8796694596
  0
LWPOLYLINE
  5
3A5
100
AcDbEntity
  8
0
100
AcDbPolyline
 62
7
  6
CONTINUOUS
 90
8
 70
0
 10
288.8949252079
 20
108.5420488122
 10
289.237827171
 20
106.5251178871
 10
289.5620308243
 20
104.3358855646
 10
289.8340091672
 20
102.1621647579
 10
290.0538355703
 20
100.0090993624
 10
290.2219015682
 20
97.8816489328
 10
290.3390829395
 20
95.7845145829
 10
290.4065082787
 20
93.7225575101
  0
LINE
  5
3A6
100
AcDbEntity
  8
0
100
AcDbLine
 62
7
  6
CONTINUOUS
 10
284.8029684397
 20
136.0340613543
 11
285.8399995994
 21
129.4316434072
  0
LINE
  5
3A7
100
AcDbEntity
  8
0
100
AcDbLine
 62
7
  6
CONTINUOUS
 10
285.8399995994
 20
129.4316434072
 11
286.291364369
 21
126.4920430535
  0
LINE
  5
3A8
100
AcDbEntity
  8
0
100
AcDbLine
 62
7
  6
CONTINUOUS
 10
286.291364369
 20
126.4920430535
 11
286.4237477788
 21
125.6024070735
  0
LWPOLYLINE
  5
3A9
100
AcDbEntity
  8
0
100
AcDbPolyline
 62
7
  6
CONTINUOUS
 90
4
 70
0
 10
283.813252148
 20
142.5724850955
 10
284.105320662
 20
140.5783906658
 10
284.4464278452
 20
138.3291126459
 10
284.8029684397
 20
136.0340613543
  0
LWPOLYLINE
  5
3AA
100
AcDbEntity
  8
0
100
AcDbPolyline
 62
7
  6
CONTINUOUS
 90
5
 70
0
 10
286.385293767
 20
125.88706256
 10
286.7549742916
 20
123.2670276515
 10
286.9968347978
 20
121.4950944792
 10
287.2294547444
 20
119.7340425352
 10
287.6179653016
 20
116.7055207841
  0
LWPOLYLINE
  5
3AB
100
AcDbEntity
  8
0
100
AcDbPolyline
 62
7
  6
CONTINUOUS
 90
6
 70
0
 10
287.6179653016
 20
116.7055207841
 10
287.8493958364
 20
115.0270724871
 10
288.0964451783
 20
113.3497300216
 10
288.3591911445
 20
111.6747604264
 10
288.6377168616
 20
110.0033842743
 10
288.8949440895
 20
108.5420437102
  0
LINE
  5
3AC
100
AcDbEntity
  8
0
100
AcDbLine
 62
7
  6
CONTINUOUS
 10
283.8017281764
 20
142.6605109664
 11
283.8132551108
 21
142.5724638918
  0
LWPOLYLINE
  5
3AD
100
AcDbEntity
  8
0
100
AcDbPolyline
 62
7
  6
CONTINUOUS
 90
3
 70
0
 10
283.2888493938
 20
152.0285951621
 10
283.288999549
 20
152.0272427903
 10
283.2895821122
 20
152.021739689
  0
LINE
  5
3AE
100
AcDbEntity
  8
0
100
AcDbLine
 62
7
  6
CONTINUOUS
 10
293.4260235296
 20
230.6028531136
 11
293.4260235296
 21
172.3271642456
  0
LINE
  5
3AF
100
AcDbEntity
  8
KONSTRUKTIONSELEMENTE
100
AcDbLine
 62
7
  6
CONTINUOUS
 10
293.6260235296
 20
195.0694474441
 11
293.6260235296
 21
224.1365679311
  0
LINE
  5
3B0
100
AcDbEntity
  8
RUNDUNGEN
100
AcDbLine
 62
7
  6
CONTINUOUS
 10
293.9260235296
 20
172.3271642456
 11
293.9260235296
 21
229.0689742623
  0
LWPOLYLINE
  5
3B1
100
AcDbEntity
  8
RUNDUNGEN
100
AcDbPolyline
 62
7
  6
CONTINUOUS
 90
5
 70
0
 10
293.9248877998
 20
186.945041491
 10
293.9195689906
 20
186.3963267577
 10
293.9098994051
 20
185.8475825585
 10
293.895878712
 20
185.2988326967
 10
293.8775067224
 20
184.7500996046
  0
LWPOLYLINE
  5
3B2
100
AcDbEntity
  8
RUNDUNGEN
100
AcDbPolyline
 62
7
  6
CONTINUOUS
 90
6
 70
0
 10
293.8775067224
 20
184.7500996046
 10
293.7950936482
 20
182.7404134028
 10
293.6998578172
 20
180.875141962
 10
293.5789751153
 20
179.0155544566
 10
293.4325573635
 20
177.1620051694
 10
293.4260235296
 20
177.0917798188
  0
LINE
  5
3B3
100
AcDbEntity
  8
0
100
AcDbLine
 62
7
  6
CONTINUOUS
 10
306.9561683473
 20
185.2988326967
 11
306.9553336007
 21
185.3315034848
  0
LINE
  5
3B4
100
AcDbEntity
  8
0
100
AcDbLine
 62
7
  6
CONTINUOUS
 10
307.0438809737
 20
178.8365128347
 11
307.043551318
 21
178.8514225796
  0
LINE
  5
3B5
100
AcDbEntity
  8
0
100
AcDbLine
 62
7
  6
CONTINUOUS
 10
307.0818510685
 20
178.490115394
 11
307.0814154177
 21
178.5123693644
  0
LINE
  5
3B6
100
AcDbEntity
  8
0
100
AcDbLine
 62
7
  6
CONTINUOUS
 10
307.1023810972
 20
176.7637654125
 11
307.1020798408
 21
176.7990900759
  0
LINE
  5
3B7
100
AcDbEntity
  8
0
100
AcDbLine
 62
7
  6
CONTINUOUS
 10
307.0993922449
 20
177.1155825129
 11
307.0991631169
 21
177.1426781514
  0
LINE
  5
3B8
100
AcDbEntity
  8
0
100
AcDbLine
 62
7
  6
CONTINUOUS
 10
306.9438080789
 20
179.0763128426
 11
306.9436399178
 21
179.0990912471
  0
LINE
  5
3B9
100
AcDbEntity
  8
0
100
AcDbLine
 62
7
  6
CONTINUOUS
 10
307.2426759732
 20
173.9703012389
 11
307.2422546313
 21
174.0454758443
  0
LINE
  5
3BA
100
AcDbEntity
  8
0
100
AcDbLine
 62
7
  6
CONTINUOUS
 10
307.1808793003
 20
175.398812231
 11
307.1804242246
 21
175.4893686137
  0
LINE
  5
3BB
100
AcDbEntity
  8
0
100
AcDbLine
 62
7
  6
CONTINUOUS
 10
307.1724113856
 20
177.0973865289
 11
307.1721857844
 21
177.1430372591
  0
LINE
  5
3BC
100
AcDbEntity
  8
0
100
AcDbLine
 62
7
  6
CONTINUOUS
 10
307.1774666091
 20
176.0799023495
 11
307.1768917423
 21
176.1950873811
  0
LINE
  5
3BD
100
AcDbEntity
  8
0
100
AcDbLine
 62
7
  6
CONTINUOUS
 10
306.9427267768
 20
179.442649301
 11
306.9425810801
 21
179.4983270372
  0
LINE
  5
3BE
100
AcDbEntity
  8
0
100
AcDbLine
 62
7
  6
CONTINUOUS
 10
306.9260235296
 20
172.3271642456
 11
306.9260235296
 21
229.0689742623
  0
LINE
  5
3BF
100
AcDbEntity
  8
0
100
AcDbLine
 62
7
  6
CONTINUOUS
 10
307.2260235296
 20
195.0694474441
 11
307.2260235296
 21
224.1367046475
  0
LINE
  5
3C0
100
AcDbEntity
  8
0
100
AcDbLine
 62
7
  6
CONTINUOUS
 10
307.4260235296
 20
230.6028531136
 11
307.4260235296
 21
172.3271642456
  0
LWPOLYLINE
  5
3C1
100
AcDbEntity
  8
0
100
AcDbPolyline
 62
7
  6
CONTINUOUS
 90
5
 70
0
 10
307.4260235296
 20
177.0917798188
 10
307.4194896958
 20
177.1620051694
 10
307.2730719439
 20
179.0155544566
 10
307.1521892421
 20
180.875141962
 10
307.0569534111
 20
182.7404134029
  0
LINE
  5
3C2
100
AcDbEntity
  8
0
100
AcDbLine
 62
7
  6
CONTINUOUS
 10
307.0569534111
 20
182.7404134029
 11
306.9745403369
 21
184.7500996046
  0
LINE
  5
3C3
100
AcDbEntity
  8
0
100
AcDbLine
 62
7
  6
CONTINUOUS
 10
306.9745403369
 20
184.7500996046
 11
306.9561683473
 21
185.2988326967
  0
LINE
  5
3C4
100
AcDbEntity
  8
RUNDUNGEN
100
AcDbLine
 62
7
  6
CONTINUOUS
 10
310.4260235296
 20
59.5107792713
 11
310.4260235296
 21
91.8796694596
  0
LINE
  5
3C5
100
AcDbEntity
  8
0
100
AcDbLine
 62
7
  6
CONTINUOUS
 10
315.4260235296
 20
254.8030011654
 11
315.4260235296
 21
258.3030057741
  0
LINE
  5
3C6
100
AcDbEntity
  8
RUNDUNGEN
100
AcDbLine
 62
7
  6
CONTINUOUS
 10
310.4260410525
 20
70.5962392182
 11
310.427499198
 21
70.7712243337
  0
LWPOLYLINE
  5
3C7
100
AcDbEntity
  8
RUNDUNGEN
100
AcDbPolyline
 62
7
  6
CONTINUOUS
 90
9
 70
0
 10
310.4260249407
 20
91.8796640392
 10
310.4455387805
 20
93.7225575101
 10
310.5129641198
 20
95.7845145829
 10
310.6301454911
 20
97.8816489328
 10
310.798211489
 20
100.0090993624
 10
311.018037892
 20
102.1621647579
 10
311.2900162349
 20
104.3358855646
 10
311.6142198883
 20
106.5251178871
 10
311.9571218513
 20
108.5420488122
  0
LWPOLYLINE
  5
3C8
100
AcDbEntity
  8
RUNDUNGEN
100
AcDbPolyline
 62
7
  6
CONTINUOUS
 90
3
 70
0
 10
310.427499198
 20
70.7712243337
 10
310.4420533399
 20
71.2220082808
 10
310.4729724841
 20
71.6703683877
  0
LINE
  5
3C9
100
AcDbEntity
  8
RUNDUNGEN
100
AcDbLine
 62
7
  6
CONTINUOUS
 10
311.3486626377
 20
76.3556799219
 11
311.358611603
 21
76.5742128223
  0
LWPOLYLINE
  5
3CA
100
AcDbEntity
  8
RUNDUNGEN
100
AcDbPolyline
 62
7
  6
CONTINUOUS
 90
6
 70
0
 10
311.358611603
 20
76.5742128223
 10
311.3713164576
 20
76.8176054158
 10
311.3780120858
 20
76.9324658706
 10
311.3849104628
 20
77.0424407819
 10
311.3919876118
 20
77.1472786686
 10
311.3982154823
 20
77.2329719673
  0
LINE
  5
3CB
100
AcDbEntity
  8
RUNDUNGEN
100
AcDbLine
 62
7
  6
CONTINUOUS
 10
318.4260235296
 20
152.1456508535
 11
318.4260235296
 21
225.6029829753
  0
LINE
  5
3CC
100
AcDbEntity
  8
0
100
AcDbLine
 62
7
  6
CONTINUOUS
 10
319.4260235296
 20
241.9861060427
 11
319.4260235296
 21
248.254696245
  0
LINE
  5
3CD
100
AcDbEntity
  8
RUNDUNGEN
100
AcDbLine
 62
7
  6
CONTINUOUS
 10
318.4254604202
 20
152.0757502856
 11
318.426009345
 21
152.145390901
  0
LINE
  5
3CE
100
AcDbEntity
  8
RUNDUNGEN
100
AcDbLine
 62
7
  6
CONTINUOUS
 10
318.4193407796
 20
151.9026959208
 11
318.4254604202
 21
152.0757502856
  0
LINE
  5
3CF
100
AcDbEntity
  8
RUNDUNGEN
100
AcDbLine
 62
7
  6
CONTINUOUS
 10
317.0712598094
 20
142.9148764996
 11
317.2136487319
 21
145.9139933638
  0
LINE
  5
3D0
100
AcDbEntity
  8
RUNDUNGEN
100
AcDbLine
 62
7
  6
CONTINUOUS
 10
317.2136487319
 20
145.9139933638
 11
317.3246902792
 21
148.1024873654
  0
LINE
  5
3D1
100
AcDbEntity
  8
RUNDUNGEN
100
AcDbLine
 62
7
  6
CONTINUOUS
 10
317.0690426597
 20
142.8724760497
 11
317.0712608143
 21
142.9148791148
  0
LINE
  5
3D2
100
AcDbEntity
  8
RUNDUNGEN
100
AcDbLine
 62
7
  6
CONTINUOUS
 10
317.3246902792
 20
148.1024873654
 11
317.4234069261
 21
149.9005246558
  0
LINE
  5
3D3
100
AcDbEntity
  8
RUNDUNGEN
100
AcDbLine
 62
7
  6
CONTINUOUS
 10
315.7222684883
 20
116.1846138856
 11
316.4260235321
 21
127.9238779698
  0
LINE
  5
3D4
100
AcDbEntity
  8
RUNDUNGEN
100
AcDbLine
 62
7
  6
CONTINUOUS
 10
317.4234069261
 20
149.9005246558
 11
317.4813521274
 21
150.8702310673
  0
LINE
  5
3D5
100
AcDbEntity
  8
RUNDUNGEN
100
AcDbLine
 62
7
  6
CONTINUOUS
 10
315.4198658275
 20
111.2889811719
 11
315.7222684883
 21
116.1846138856
  0
LINE
  5
3D6
100
AcDbEntity
  8
RUNDUNGEN
100
AcDbLine
 62
7
  6
CONTINUOUS
 10
317.4813521274
 20
150.8702310673
 11
317.5241144894
 21
151.5255451361
  0
LINE
  5
3D7
100
AcDbEntity
  8
RUNDUNGEN
100
AcDbLine
 62
7
  6
CONTINUOUS
 10
317.5241853903
 20
151.5265637312
 11
317.5399248665
 21
151.7471622489
  0
LINE
  5
3D8
100
AcDbEntity
  8
RUNDUNGEN
100
AcDbLine
 62
7
  6
CONTINUOUS
 10
318.4064440754
 20
151.7299478561
 11
318.4193407796
 21
151.9026959208
  0
LINE
  5
3D9
100
AcDbEntity
  8
RUNDUNGEN
100
AcDbLine
 62
7
  6
CONTINUOUS
 10
316.4260235296
 20
127.923877928
 11
316.8661406738
 21
133.6575545012
  0
LINE
  5
3DA
100
AcDbEntity
  8
RUNDUNGEN
100
AcDbLine
 62
7
  6
CONTINUOUS
 10
317.5399248665
 20
151.7471622489
 11
317.5493057845
 21
151.8699474715
  0
LINE
  5
3DB
100
AcDbEntity
  8
RUNDUNGEN
100
AcDbLine
 62
7
  6
CONTINUOUS
 10
316.8661406738
 20
133.6575545012
 11
317.1805997626
 21
137.6735343418
  0
LWPOLYLINE
  5
3DC
100
AcDbEntity
  8
RUNDUNGEN
100
AcDbPolyline
 62
7
  6
CONTINUOUS
 90
8
 70
0
 10
317.1805997626
 20
137.6735343418
 10
317.493878345
 20
141.5526776219
 10
317.6499539677
 20
143.42528153
 10
317.8055937934
 20
145.2452531586
 10
317.960721485
 20
147.0068272097
 10
318.1152837499
 20
148.7044840449
 10
318.2691603316
 20
150.3326463096
 10
318.4064440754
 20
151.7299478561
  0
LWPOLYLINE
  5
3DD
100
AcDbEntity
  8
RUNDUNGEN
100
AcDbPolyline
 62
7
  6
CONTINUOUS
 90
9
 70
0
 10
314.0565781101
 20
92.0657899804
 10
314.2084479812
 20
93.8936899841
 10
314.3601513299
 20
95.8115729779
 10
314.5117309898
 20
97.8142541441
 10
314.6632260676
 20
99.8964163769
 10
314.814651079
 20
102.0522075265
 10
314.9660228544
 20
104.275724461
 10
315.117345131
 20
106.5606430391
 10
315.4198658275
 20
111.2889811719
  0
LINE
  5
3DE
100
AcDbEntity
  8
RUNDUNGEN
100
AcDbLine
 62
7
  6
CONTINUOUS
 10
317.5493057845
 20
151.8699474715
 11
317.5553867699
 21
151.9442873016
  0
LINE
  5
3DF
100
AcDbEntity
  8
RUNDUNGEN
100
AcDbLine
 62
7
  6
CONTINUOUS
 10
317.5553867699
 20
151.9442873016
 11
317.55879346
 21
151.9832551796
  0
LINE
  5
3E0
100
AcDbEntity
  8
RUNDUNGEN
100
AcDbLine
 62
7
  6
CONTINUOUS
 10
313.859896601
 20
89.8435610887
 11
314.0565781101
 21
92.0657899804
  0
LWPOLYLINE
  5
3E1
100
AcDbEntity
  8
RUNDUNGEN
100
AcDbPolyline
 62
7
  6
CONTINUOUS
 90
3
 70
0
 10
317.55879346
 20
151.9832551796
 10
317.5614717164
 20
152.0118414602
 10
317.5622497835
 20
152.0196406084
  0
LINE
  5
3E2
100
AcDbEntity
  8
RUNDUNGEN
100
AcDbLine
 62
7
  6
CONTINUOUS
 10
313.7233499438
 20
88.400032367
 11
313.859896601
 21
89.8435610887
  0
LINE
  5
3E3
100
AcDbEntity
  8
RUNDUNGEN
100
AcDbLine
 62
7
  6
CONTINUOUS
 10
313.5894653795
 20
87.0662707928
 11
313.7233499438
 21
88.400032367
  0
LWPOLYLINE
  5
3E4
100
AcDbEntity
  8
RUNDUNGEN
100
AcDbPolyline
 62
7
  6
CONTINUOUS
 90
3
 70
0
 10
317.0503188828
 20
142.6605109664
 10
317.0612720811
 20
142.7664940861
 10
317.0690426597
 20
142.8724760497
  0
LINE
  5
3E5
100
AcDbEntity
  8
RUNDUNGEN
100
AcDbLine
 62
7
  6
CONTINUOUS
 10
313.4581921417
 20
85.8395729568
 11
313.5894653795
 21
87.0662707928
  0
LINE
  5
3E6
100
AcDbEntity
  8
RUNDUNGEN
100
AcDbLine
 62
7
  6
CONTINUOUS
 10
310.4729724841
 20
71.6703683877
 11
310.5219520037
 21
72.1121521297
  0
LINE
  5
3E7
100
AcDbEntity
  8
RUNDUNGEN
100
AcDbLine
 62
7
  6
CONTINUOUS
 10
317.0387919485
 20
142.5724638918
 11
317.0503188828
 21
142.6605109664
  0
LWPOLYLINE
  5
3E8
100
AcDbEntity
  8
RUNDUNGEN
100
AcDbPolyline
 62
7
  6
CONTINUOUS
 90
3
 70
0
 10
313.6177970311
 20
119.6970555878
 10
313.8452140969
 20
121.4206431011
 10
314.0815309586
 20
123.1547212425
  0
LINE
  5
3E9
100
AcDbEntity
  8
RUNDUNGEN
100
AcDbLine
 62
7
  6
CONTINUOUS
 10
314.0815309586
 20
123.1547212425
 11
314.4668437273
 21
125.8876492188
  0
LINE
  5
3EA
100
AcDbEntity
  8
RUNDUNGEN
100
AcDbLine
 62
7
  6
CONTINUOUS
 10
314.375169691
 20
125.2448329749
 11
314.6655242548
 21
127.1780920537
  0
LWPOLYLINE
  5
3EB
100
AcDbEntity
  8
RUNDUNGEN
100
AcDbPolyline
 62
7
  6
CONTINUOUS
 90
4
 70
0
 10
316.0561736743
 20
136.0793696429
 10
316.4101959131
 20
138.3588766891
 10
316.7489080986
 20
140.5930151127
 10
317.0387948723
 20
142.5724848235
  0
LINE
  5
3EC
100
AcDbEntity
  8
RUNDUNGEN
100
AcDbLine
 62
7
  6
CONTINUOUS
 10
314.6655242548
 20
127.1780920537
 11
315.0207292261
 21
129.4877323757
  0
LINE
  5
3ED
100
AcDbEntity
  8
RUNDUNGEN
100
AcDbLine
 62
7
  6
CONTINUOUS
 10
315.0207292261
 20
129.4877323757
 11
316.0561736743
 21
136.0793696429
  0
LWPOLYLINE
  5
3EE
100
AcDbEntity
  8
RUNDUNGEN
100
AcDbPolyline
 62
7
  6
CONTINUOUS
 90
4
 70
0
 10
310.5219520037
 20
72.1121521297
 10
310.5903338182
 20
72.5438961306
 10
310.6780556866
 20
72.9650455173
 10
310.7843803037
 20
73.3739173132
  0
LWPOLYLINE
  5
3EF
100
AcDbEntity
  8
RUNDUNGEN
100
AcDbPolyline
 62
7
  6
CONTINUOUS
 90
7
 70
0
 10
311.9571029698
 20
108.5420437102
 10
312.2143301977
 20
110.0033842743
 10
312.4928559147
 20
111.6747604264
 10
312.755601881
 20
113.3497300216
 10
313.0026512228
 20
115.0270724871
 10
313.2340817577
 20
116.7055207841
 10
313.6177970311
 20
119.6970555878
  0
LINE
  5
3F0
100
AcDbEntity
  8
0
100
AcDbLine
 62
7
  6
CONTINUOUS
 10
307.4260235296
 20
172.3271642456
 11
293.4260235296
 21
172.3271642456
  0
LWPOLYLINE
  5
3F1
100
AcDbEntity
  8
RUNDUNGEN
100
AcDbPolyline
 62
7
  6
CONTINUOUS
 90
8
 70
0
 10
310.8998042125
 20
73.7537525992
 10
311.0155952038
 20
74.174237969
 10
311.1131636421
 20
74.5898904752
 10
311.1933409366
 20
75.0004116079
 10
311.2557789273
 20
75.4021295032
 10
311.3015788183
 20
75.79157953
 10
311.3320400535
 20
76.1683048649
 10
311.3418307255
 20
76.3543495793
  0
LINE
  5
3F2
100
AcDbEntity
  8
RUNDUNGEN
100
AcDbLine
 62
7
  6
CONTINUOUS
 10
310.7843803037
 20
73.3739173132
 11
310.8998042125
 21
73.7537525992
  0
LINE
  5
3F3
100
AcDbEntity
  8
0
100
AcDbLine
 62
7
  6
CONTINUOUS
 10
307.2347161057
 20
175.3990824225
 11
307.1808836445
 21
175.3990824225
  0
LINE
  5
3F4
100
AcDbEntity
  8
0
100
AcDbLine
 62
7
  6
CONTINUOUS
 10
307.1109757858
 20
175.7684184813
 11
307.043512878
 21
175.7684184813
  0
LINE
  5
3F5
100
AcDbEntity
  8
0
100
AcDbLine
 62
7
  6
CONTINUOUS
 10
307.2318469068
 20
175.9186285971
 11
307.1782760421
 21
175.9186285971
  0
LINE
  5
3F6
100
AcDbEntity
  8
0
100
AcDbLine
 62
7
  6
CONTINUOUS
 10
307.0627773995
 20
176.1945204138
 11
307.0125809454
 21
176.1945204138
  0
LINE
  5
3F7
100
AcDbEntity
  8
0
100
AcDbLine
 62
7
  6
CONTINUOUS
 10
307.0450810481
 20
176.2724299035
 11
307.0080382142
 21
176.2724299035
  0
LINE
  5
3F8
100
AcDbEntity
  8
0
100
AcDbLine
 62
7
  6
CONTINUOUS
 10
307.0224305395
 20
176.5290049793
 11
306.9937211781
 21
176.5290049793
  0
LINE
  5
3F9
100
AcDbEntity
  8
0
100
AcDbLine
 62
7
  6
CONTINUOUS
 10
307.0991631169
 20
177.1426781514
 11
307.0617721494
 21
177.1426781514
  0
LINE
  5
3FA
100
AcDbEntity
  8
0
100
AcDbLine
 62
7
  6
CONTINUOUS
 10
306.9792366636
 20
177.3124374576
 11
306.9625032169
 21
177.3124374576
  0
LINE
  5
3FB
100
AcDbEntity
  8
0
100
AcDbLine
 62
7
  6
CONTINUOUS
 10
307.2228498944
 20
177.5638583926
 11
307.1701174118
 21
177.5638583926
  0
LINE
  5
3FC
100
AcDbEntity
  8
0
100
AcDbLine
 62
7
  6
CONTINUOUS
 10
306.9637699241
 20
177.752247139
 11
306.949639785
 21
177.752247139
  0
LINE
  5
3FD
100
AcDbEntity
  8
0
100
AcDbLine
 62
7
  6
CONTINUOUS
 10
307.0814154177
 20
178.5123693644
 11
307.0516836008
 21
178.5123693644
  0
LINE
  5
3FE
100
AcDbEntity
  8
0
100
AcDbLine
 62
7
  6
CONTINUOUS
 10
307.0520376956
 20
179.2270304561
 11
307.0248400271
 21
179.2270304561
  0
LINE
  5
3FF
100
AcDbEntity
  8
0
100
AcDbLine
 62
7
  6
CONTINUOUS
 10
307.026918851
 20
179.7584574402
 11
307.0032762253
 21
179.7584574402
  0
LINE
  5
400
100
AcDbEntity
  8
0
100
AcDbLine
 62
7
  6
CONTINUOUS
 10
307.0002056624
 20
180.2853148427
 11
306.9753453444
 21
180.2853148427
  0
LINE
  5
401
100
AcDbEntity
  8
0
100
AcDbLine
 62
7
  6
CONTINUOUS
 10
306.9631031084
 20
181.068747321
 11
306.9260235296
 21
181.068747321
  0
LINE
  5
402
100
AcDbEntity
  8
0
100
AcDbLine
 62
7
  6
CONTINUOUS
 10
306.9482732901
 20
181.4123701179
 11
306.9260235296
 21
181.4123701179
  0
LINE
  5
403
100
AcDbEntity
  8
0
100
AcDbLine
 62
7
  6
CONTINUOUS
 10
307.4260235296
 20
201.1030076876
 11
307.2260235296
 21
201.1030076876
  0
LINE
  5
404
100
AcDbEntity
  8
0
100
AcDbLine
 62
7
  6
CONTINUOUS
 10
293.6260235296
 20
201.1030076876
 11
293.4260235296
 21
201.1030076876
  0
LINE
  5
405
100
AcDbEntity
  8
RUNDUNGEN
100
AcDbLine
 62
7
  6
CONTINUOUS
 10
292.2203344134
 20
232.3455799899
 11
283.1317177842
 21
238.7094978655
  0
LINE
  5
406
100
AcDbEntity
  8
0
100
AcDbLine
 62
7
  6
CONTINUOUS
 10
307.4260235296
 20
218.1030076876
 11
307.2260235296
 21
218.1030076876
  0
LINE
  5
407
100
AcDbEntity
  8
0
100
AcDbLine
 62
7
  6
CONTINUOUS
 10
293.6260235296
 20
218.1030076876
 11
293.4260235296
 21
218.1030076876
  0
LINE
  5
408
100
AcDbEntity
  8
KONSTRUKTIONSELEMENTE
100
AcDbLine
 62
7
  6
CONTINUOUS
 10
287.4260235296
 20
230.6030076876
 11
293.4260235296
 21
230.6030076876
  0
LINE
  5
409
100
AcDbEntity
  8
KONSTRUKTIONSELEMENTE
100
AcDbLine
 62
7
  6
CONTINUOUS
 10
307.4260235296
 20
230.6030076876
 11
313.4260235296
 21
230.6030076876
  0
LINE
  5
40A
100
AcDbEntity
  8
0
100
AcDbLine
 62
7
  6
CONTINUOUS
 10
318.840237092
 20
249.6689098074
 11
316.6421667281
 21
251.8669801713
  0
ARC
  5
40B
100
AcDbEntity
  8
0
100
AcDbCircle
 62
7
  6
CONTINUOUS
 10
96.1166098572
 20
88.7228060439
 40
115.0
100
AcDbArc
 50
25.5167406497
 51
43.209717775
  0
ARC
  5
40C
100
AcDbEntity
  8
0
100
AcDbCircle
 62
7
  6
CONTINUOUS
 10
107.0493872284
 20
98.9928780472
 40
100.0
100
AcDbArc
 50
43.2097091377
 51
56.1053375597
  0
ARC
  5
40D
100
AcDbEntity
  8
RUNDUNGEN
100
AcDbCircle
 62
7
  6
CONTINUOUS
 10
123.0622054715
 20
176.9976292411
 40
25.0
100
AcDbArc
 50
301.4103634974
 51
320.0
  0
ARC
  5
40E
100
AcDbEntity
  8
RUNDUNGEN
100
AcDbCircle
 62
7
  6
CONTINUOUS
 10
106.7782219325
 20
195.1360729551
 40
2.0
100
AcDbArc
 50
95.3842502323
 51
177.9885741652
  0
ARC
  5
40F
100
AcDbEntity
  8
0
100
AcDbCircle
 62
7
  6
CONTINUOUS
 10
106.7782219325
 20
195.1360729551
 40
2.0
100
AcDbArc
 50
95.3842502323
 51
177.9885741652
  0
ARC
  5
410
100
AcDbEntity
  8
0
100
AcDbCircle
 62
7
  6
CONTINUOUS
 10
141.3666371442
 20
121.3209362411
 40
66.8102965761
100
AcDbArc
 50
191.0915355981
 51
304.2405549133
  0
ARC
  5
411
100
AcDbEntity
  8
RUNDUNGEN
100
AcDbCircle
 62
7
  6
CONTINUOUS
 10
141.3666371442
 20
121.3209362411
 40
66.8102965761
100
AcDbArc
 50
139.9996994501
 51
307.1434473554
  0
ARC
  5
412
100
AcDbEntity
  8
0
100
AcDbCircle
 62
7
  6
CONTINUOUS
 10
144.2711549309
 20
117.4865223906
 40
62.0
100
AcDbArc
 50
312.8580770543
 51
340.1939154078
  0
ARC
  5
413
100
AcDbEntity
  8
RUNDUNGEN
100
AcDbCircle
 62
7
  6
CONTINUOUS
 10
144.2711549309
 20
117.4865223906
 40
62.0
100
AcDbArc
 50
307.1434473554
 51
344.78
  0
ARC
  5
414
100
AcDbEntity
  8
RUNDUNGEN
100
AcDbCircle
 62
7
  6
CONTINUOUS
 10
153.1655284753
 20
127.7149458484
 40
50.9715353809
100
AcDbArc
 50
207.1575230519
 51
219.384716104
  0
ARC
  5
415
100
AcDbEntity
  8
RUNDUNGEN
100
AcDbCircle
 62
7
  6
CONTINUOUS
 10
153.1113121972
 20
127.6883832686
 40
50.9111029147
100
AcDbArc
 50
192.9627158515
 51
203.289977436
  0
ARC
  5
416
100
AcDbEntity
  8
AUSFORMSCHRAEGEN
100
AcDbCircle
 62
7
  6
CONTINUOUS
 10
153.0907817014
 20
122.9337381269
 40
50.7820994609
100
AcDbArc
 50
165.3822722414
 51
169.9903405356
  0
ARC
  5
417
100
AcDbEntity
  8
AUSFORMSCHRAEGEN
100
AcDbCircle
 62
7
  6
CONTINUOUS
 10
141.5403520316
 20
125.0412696207
 40
39.0412250786
100
AcDbArc
 50
170.0898755161
 51
192.9860609409
  0
ARC
  5
418
100
AcDbEntity
  8
RUNDUNGEN
100
AcDbCircle
 62
7
  6
CONTINUOUS
 10
137.8411280252
 20
126.9178425924
 40
35.0205969205
100
AcDbArc
 50
159.8352629823
 51
165.3930821461
  0
ARC
  5
419
100
AcDbEntity
  8
RUNDUNGEN
100
AcDbCircle
 62
7
  6
CONTINUOUS
 10
153.9933175274
 20
129.0729445927
 40
34.0
100
AcDbArc
 50
230.0
 51
301.15
  0
ARC
  5
41A
100
AcDbEntity
  8
RUNDUNGEN
100
AcDbCircle
 62
7
  6
CONTINUOUS
 10
153.0291361128
 20
127.923877928
 40
32.5
100
AcDbArc
 50
121.4103634974
 51
230.0
  0
ARC
  5
41B
100
AcDbEntity
  8
0
100
AcDbCircle
 62
7
  6
CONTINUOUS
 10
145.71683167
 20
142.7660005647
 40
50.0
100
AcDbArc
 50
321.0354080096
 51
335.5899451185
  0
ARC
  5
41C
100
AcDbEntity
  8
RUNDUNGEN
100
AcDbCircle
 62
7
  6
CONTINUOUS
 10
145.71683167
 20
142.7660005647
 40
50.0
100
AcDbArc
 50
301.15
 51
335.5899451185
  0
ARC
  5
41D
100
AcDbEntity
  8
RUNDUNGEN
100
AcDbCircle
 62
7
  6
CONTINUOUS
 10
130.2637423498
 20
194.3112513204
 40
25.5
100
AcDbArc
 50
177.9885741652
 51
203.4671663716
  0
ARC
  5
41E
100
AcDbEntity
  8
0
100
AcDbCircle
 62
7
  6
CONTINUOUS
 10
130.2637423498
 20
194.3112513204
 40
25.5
100
AcDbArc
 50
177.9885741652
 51
203.4671663712
  0
ARC
  5
41F
100
AcDbEntity
  8
0
100
AcDbCircle
 62
7
  6
CONTINUOUS
 10
127.2324578057
 20
226.523693377
 40
4.0892227479
100
AcDbArc
 50
300.3774004284
 51
16.0
  0
ARC
  5
420
100
AcDbEntity
  8
RUNDUNGEN
100
AcDbCircle
 62
7
  6
CONTINUOUS
 10
130.8174317936
 20
220.407727331
 40
3.0
100
AcDbArc
 50
120.3774004284
 51
144.1131463886
  0
ARC
  5
421
100
AcDbEntity
  8
0
100
AcDbCircle
 62
7
  6
CONTINUOUS
 10
130.8174317936
 20
220.407727331
 40
3.0
100
AcDbArc
 50
120.3774004284
 51
185.3842502323
  0
ARC
  5
422
100
AcDbEntity
  8
0
100
AcDbCircle
 62
7
  6
CONTINUOUS
 10
133.1161941956
 20
269.3109401648
 40
3.9920677132
100
AcDbArc
 50
60.1092750454
 51
90.0313452008
  0
ARC
  5
423
100
AcDbEntity
  8
0
100
AcDbCircle
 62
7
  6
CONTINUOUS
 10
155.2289956577
 20
255.558520819
 40
30.0
100
AcDbArc
 50
180.0000000005
 51
189.4299759371
  0
ARC
  5
424
100
AcDbEntity
  8
0
100
AcDbCircle
 62
7
  6
CONTINUOUS
 10
150.5289956577
 20
238.3273155195
 40
30.0
100
AcDbArc
 50
344.908290351
 51
0.0000353123
  0
ARC
  5
425
100
AcDbEntity
  8
RUNDUNGEN
100
AcDbCircle
 62
7
  6
CONTINUOUS
 10
155.6429956577
 20
209.6030076876
 40
21.0
100
AcDbArc
 50
320.0
 51
140.0
  0
ARC
  5
426
100
AcDbEntity
  8
0
100
AcDbCircle
 62
7
  6
CONTINUOUS
 10
153.0289956577
 20
243.0530076876
 40
5.75
100
AcDbArc
 50
180.0
 51
360.0
  0
ARC
  5
427
100
AcDbEntity
  8
RUNDUNGEN
100
AcDbCircle
 62
7
  6
CONTINUOUS
 10
153.0289956577
 20
243.0530076876
 40
5.75
100
AcDbArc
 50
200.4297581916
 51
339.5702418084
  0
ARC
  5
428
100
AcDbEntity
  8
0
100
AcDbCircle
 62
7
  6
CONTINUOUS
 10
153.0289956577
 20
303.9930076876
 40
36.0
100
AcDbArc
 50
240.1407501767
 51
257.0348135769
  0
ARC
  5
429
100
AcDbEntity
  8
KONSTRUKTIONSELEMENTE
100
AcDbCircle
 62
7
  6
CONTINUOUS
 10
153.0289956577
 20
303.9930076876
 40
36.0
100
AcDbArc
 50
282.9651864231
 51
299.8593405296
  0
ARC
  5
42A
100
AcDbEntity
  8
0
100
AcDbCircle
 62
7
  6
CONTINUOUS
 10
144.2789956577
 20
265.9872515446
 40
3.0
100
AcDbArc
 50
0.0
 51
77.0348135769
  0
ARC
  5
42B
100
AcDbEntity
  8
0
100
AcDbCircle
 62
7
  6
CONTINUOUS
 10
158.5260437356
 20
139.0957439775
 40
53.728627055
100
AcDbArc
 50
3.4344372979
 51
7.8215547809
  0
ARC
  5
42C
100
AcDbEntity
  8
0
100
AcDbCircle
 62
7
  6
CONTINUOUS
 10
159.2544915478
 20
139.143046939
 40
52.9986539068
100
AcDbArc
 50
356.6619006847
 51
3.4305677274
  0
ARC
  5
42D
100
AcDbEntity
  8
0
100
AcDbCircle
 62
7
  6
CONTINUOUS
 10
195.3871512228
 20
136.1080317687
 40
5.0
100
AcDbArc
 50
336.947512572
 51
25.5167629842
  0
ARC
  5
42E
100
AcDbEntity
  8
0
100
AcDbCircle
 62
7
  6
CONTINUOUS
 10
161.1431623038
 20
179.5091093182
 40
3.0
100
AcDbArc
 50
56.1053375597
 51
108.6039189583
  0
ARC
  5
42F
100
AcDbEntity
  8
0
100
AcDbCircle
 62
7
  6
CONTINUOUS
 10
193.0686115096
 20
121.2762600819
 40
2.0
100
AcDbArc
 50
145.0000115643
 51
155.5899451185
  0
ARC
  5
430
100
AcDbEntity
  8
RUNDUNGEN
100
AcDbCircle
 62
7
  6
CONTINUOUS
 10
193.0686115096
 20
121.2762600819
 40
2.0
100
AcDbArc
 50
145.0000115643
 51
155.5899451185
  0
ARC
  5
431
100
AcDbEntity
  8
0
100
AcDbCircle
 62
7
  6
CONTINUOUS
 10
175.9532566667
 20
252.8473568944
 40
50.0
100
AcDbArc
 50
189.43
 51
195.9999997765
  0
ARC
  5
432
100
AcDbEntity
  8
RUNDUNGEN
100
AcDbCircle
 62
7
  6
CONTINUOUS
 10
218.1150489827
 20
220.1030076876
 40
40.0
100
AcDbArc
 50
167.6739009773
 51
213.5600195311
  0
ARC
  5
433
100
AcDbEntity
  8
0
100
AcDbCircle
 62
7
  6
CONTINUOUS
 10
218.1150489827
 20
220.1030076876
 40
40.0
100
AcDbArc
 50
164.9101132314
 51
213.5600195311
  0
ARC
  5
434
100
AcDbEntity
  8
0
100
AcDbCircle
 62
7
  6
CONTINUOUS
 10
172.9435253337
 20
269.3044578529
 40
3.9985493351
100
AcDbArc
 50
89.9942955676
 51
119.8651029269
  0
ARC
  5
435
100
AcDbEntity
  8
0
100
AcDbCircle
 62
7
  6
CONTINUOUS
 10
161.7789956577
 20
265.9872515446
 40
3.0
100
AcDbArc
 50
102.9651864231
 51
180.0
  0
ARC
  5
436
100
AcDbEntity
  8
0
100
AcDbCircle
 62
7
  6
CONTINUOUS
 10
-353.7327865406
 20
29.7906599246
 40
647.2883266473
100
AcDbArc
 50
8.6462446936
 51
8.7749650901
  0
ARC
  5
437
100
AcDbEntity
  8
0
100
AcDbCircle
 62
7
  6
CONTINUOUS
 10
280.8969290922
 20
70.8812344592
 40
9.5158134899
100
AcDbArc
 50
7.0000584527
 51
7.6166621409
  0
ARC
  5
438
100
AcDbEntity
  8
0
100
AcDbCircle
 62
7
  6
CONTINUOUS
 10
282.6223627938
 20
71.2842566376
 40
7.7416025115
100
AcDbArc
 50
17.2026877588
 51
17.574288714
  0
ARC
  5
439
100
AcDbEntity
  8
0
100
AcDbCircle
 62
7
  6
CONTINUOUS
 10
295.4260235296
 20
59.510639665
 40
5.0
100
AcDbArc
 50
180.0
 51
270.0
  0
ARC
  5
43A
100
AcDbEntity
  8
RUNDUNGEN
100
AcDbCircle
 62
7
  6
CONTINUOUS
 10
-504.4922039014
 20
170.1760582346
 40
822.2695571541
100
AcDbArc
 50
358.0549950495
 51
358.7002805512
  0
ARC
  5
43B
100
AcDbEntity
  8
KONSTRUKTIONSELEMENTE
100
AcDbCircle
 62
7
  6
CONTINUOUS
 10
295.6260235296
 20
195.0693107277
 40
2.0
100
AcDbArc
 50
179.9999926172
 51
202.3316411938
  0
ARC
  5
43C
100
AcDbEntity
  8
KONSTRUKTIONSELEMENTE
100
AcDbCircle
 62
7
  6
CONTINUOUS
 10
291.9260235296
 20
193.5494423123
 40
2.0
100
AcDbArc
 50
0.0
 51
22.3316488246
  0
ARC
  5
43D
100
AcDbEntity
  8
0
100
AcDbCircle
 62
7
  6
CONTINUOUS
 10
287.4260235296
 20
225.6030076876
 40
5.0
100
AcDbArc
 50
90.0
 51
180.0
  0
ARC
  5
43E
100
AcDbEntity
  8
RUNDUNGEN
100
AcDbCircle
 62
7
  6
CONTINUOUS
 10
289.9260235296
 20
229.0689754106
 40
4.0
100
AcDbArc
 50
359.9999835517
 51
54.9999101497
  0
ARC
  5
43F
100
AcDbEntity
  8
RUNDUNGEN
100
AcDbCircle
 62
7
  6
CONTINUOUS
 10
281.2738554838
 20
254.8030076876
 40
4.1521680459
100
AcDbArc
 50
314.9999739593
 51
359.9999100006
  0
ARC
  5
440
100
AcDbEntity
  8
RUNDUNGEN
100
AcDbCircle
 62
7
  6
CONTINUOUS
 10
283.4260235296
 20
248.254696245
 40
2.0
100
AcDbArc
 50
135.0
 51
180.0
  0
ARC
  5
441
100
AcDbEntity
  8
RUNDUNGEN
100
AcDbCircle
 62
7
  6
CONTINUOUS
 10
285.4260235296
 20
241.9861060427
 40
4.0
100
AcDbArc
 50
180.0
 51
235.0007399208
  0
ARC
  5
442
100
AcDbEntity
  8
KONSTRUKTIONSELEMENTE
100
AcDbCircle
 62
7
  6
CONTINUOUS
 10
295.6260235296
 20
224.1367046475
 40
2.0
100
AcDbArc
 50
157.6683588062
 51
180.0000073828
  0
ARC
  5
443
100
AcDbEntity
  8
KONSTRUKTIONSELEMENTE
100
AcDbCircle
 62
7
  6
CONTINUOUS
 10
291.9260235296
 20
225.6565730629
 40
2.0
100
AcDbArc
 50
337.6683511754
 51
360.0
  0
ARC
  5
444
100
AcDbEntity
  8
0
100
AcDbCircle
 62
7
  6
CONTINUOUS
 10
300.4260235296
 20
258.3030076876
 40
15.0
100
AcDbArc
 50
359.999992691
 51
180.000007309
  0
ARC
  5
445
100
AcDbEntity
  8
RUNDUNGEN
100
AcDbCircle
 62
7
  6
CONTINUOUS
 10
962.7377106622
 20
28.540693156
 40
655.5364654268
100
AcDbArc
 50
171.2203426199
 51
171.3458484448
  0
ARC
  5
446
100
AcDbEntity
  8
RUNDUNGEN
100
AcDbCircle
 62
7
  6
CONTINUOUS
 10
319.955117967
 20
70.8812344592
 40
9.5158134898
100
AcDbArc
 50
172.3833378591
 51
172.9999415473
  0
ARC
  5
447
100
AcDbEntity
  8
RUNDUNGEN
100
AcDbCircle
 62
7
  6
CONTINUOUS
 10
318.2296842654
 20
71.2842566376
 40
7.7416025115
100
AcDbArc
 50
162.425711286
 51
162.7973122412
  0
ARC
  5
448
100
AcDbEntity
  8
RUNDUNGEN
100
AcDbCircle
 62
7
  6
CONTINUOUS
 10
305.4260235296
 20
59.510639665
 40
5.0
100
AcDbArc
 50
270.0
 51
360.0
  0
ARC
  5
449
100
AcDbEntity
  8
0
100
AcDbCircle
 62
7
  6
CONTINUOUS
 10
305.2260235296
 20
195.0693107277
 40
2.0
100
AcDbArc
 50
337.6683588062
 51
0.0000073828
  0
ARC
  5
44A
100
AcDbEntity
  8
0
100
AcDbCircle
 62
7
  6
CONTINUOUS
 10
308.9260235296
 20
193.5494423123
 40
2.0
100
AcDbArc
 50
157.6683511754
 51
180.0
  0
ARC
  5
44B
100
AcDbEntity
  8
0
100
AcDbCircle
 62
7
  6
CONTINUOUS
 10
310.9260235296
 20
229.0689754106
 40
4.0
100
AcDbArc
 50
125.0000898503
 51
180.0000164483
  0
ARC
  5
44C
100
AcDbEntity
  8
0
100
AcDbCircle
 62
7
  6
CONTINUOUS
 10
305.2260235296
 20
224.1367046475
 40
2.0
100
AcDbArc
 50
359.9999926172
 51
22.3316411938
  0
ARC
  5
44D
100
AcDbEntity
  8
0
100
AcDbCircle
 62
7
  6
CONTINUOUS
 10
308.9260235296
 20
225.6565730629
 40
2.0
100
AcDbArc
 50
180.0
 51
202.3316488246
  0
ARC
  5
44E
100
AcDbEntity
  8
RUNDUNGEN
100
AcDbCircle
 62
7
  6
CONTINUOUS
 10
313.4260235296
 20
225.6030076876
 40
5.0
100
AcDbArc
 50
0.0
 51
90.0
  0
ARC
  5
44F
100
AcDbEntity
  8
0
100
AcDbCircle
 62
7
  6
CONTINUOUS
 10
319.5781915755
 20
254.8030076876
 40
4.1521680459
100
AcDbArc
 50
180.0000899994
 51
225.0000260407
  0
ARC
  5
450
100
AcDbEntity
  8
0
100
AcDbCircle
 62
7
  6
CONTINUOUS
 10
315.4260235296
 20
241.9861060427
 40
4.0
100
AcDbArc
 50
304.9992600792
 51
360.0
  0
ARC
  5
451
100
AcDbEntity
  8
0
100
AcDbCircle
 62
7
  6
CONTINUOUS
 10
317.4260235296
 20
248.254696245
 40
2.0
100
AcDbArc
 50
0.0000669097
 51
44.9993497068
  0
ARC
  5
452
100
AcDbEntity
  8
0
100
AcDbCircle
 62
7
  6
CONTINUOUS
 10
1105.3443389568
 20
170.1760607977
 40
822.2696451865
100
AcDbArc
 50
181.2997192941
 51
181.9450049209
  0
SPLINE
  5
453
100
AcDbEntity
  8
RUNDUNGEN
100
AcDbSpline
 62
7
  6
CONTINUOUS
 70
0
 71
3
 72
8
 73
4
 74
0
 42
0.0000001
 43
0.0000001
 44
0.0000000001
 40
0.0
 40
0.0
 40
0.0
 40
0.0
 40
1.0
 40
1.0
 40
1.0
 40
1.0
 10
208.7036652232
 20
158.5141227514
 30
0.0
 10
206.8287717675
 20
163.6178794748
 30
0.0
 10
204.2123029073
 20
168.7021007014
 30
0.0
 10
200.8627567572
 20
173.7514449009
 30
0.0
  0
SPLINE
  5
454
100
AcDbEntity
  8
0
100
AcDbSpline
 62
7
  6
CONTINUOUS
 70
0
 71
3
 72
8
 73
4
 74
0
 42
0.0000001
 43
0.0000001
 44
0.0000000001
 40
0.0
 40
0.0
 40
0.0
 40
0.0
 40
1.0
 40
1.0
 40
1.0
 40
1.0
 10
210.358250945
 20
124.9819550822
 30
0.0
 10
211.3458699616
 20
128.6681743799
 30
0.0
 10
211.9478820194
 20
132.3618044744
 30
0.0
 10
212.1632236037
 20
136.0570482062
 30
0.0
  0
SPLINE
  5
455
100
AcDbEntity
  8
0
100
AcDbSpline
 62
7
  6
CONTINUOUS
 70
0
 71
3
 72
8
 73
4
 74
0
 42
0.0000001
 43
0.0000001
 44
0.0000000001
 40
0.0
 40
0.0
 40
0.0
 40
0.0
 40
1.0
 40
1.0
 40
1.0
 40
1.0
 10
211.7548180018
 20
146.4075806371
 30
0.0
 10
211.2001153518
 20
150.4501812249
 30
0.0
 10
210.1825994874
 20
154.4882296153
 30
0.0
 10
208.7036652232
 20
158.5141227514
 30
0.0
  0
SPLINE
  5
456
100
AcDbEntity
  8
0
100
AcDbSpline
 62
7
  6
CONTINUOUS
 70
0
 71
3
 72
8
 73
4
 74
0
 42
0.0000001
 43
0.0000001
 44
0.0000000001
 40
0.0
 40
0.0
 40
0.0
 40
0.0
 40
1.0
 40
1.0
 40
1.0
 40
1.0
 10
208.7036652232
 20
158.5141227514
 30
0.0
 10
206.8287717675
 20
163.6178794748
 30
0.0
 10
204.2123029073
 20
168.7021007014
 30
0.0
 10
200.8627567572
 20
173.7514449009
 30
0.0
  0
SPLINE
  5
457
100
AcDbEntity
  8
RUNDUNGEN
100
AcDbSpline
 62
7
  6
CONTINUOUS
 70
0
 71
3
 72
8
 73
4
 74
0
 42
0.0000001
 43
0.0000001
 44
0.0000000001
 40
0.0
 40
0.0
 40
0.0
 40
0.0
 40
1.0
 40
1.0
 40
1.0
 40
1.0
 10
96.6385265779
 20
151.7338906485
 30
0.0
 10
100.2499633354
 20
148.5004397113
 30
0.0
 10
103.9170001191
 20
145.3258551521
 30
0.0
 10
107.6783157503
 20
142.2680479085
 30
0.0
  0
SPLINE
  5
458
100
AcDbEntity
  8
RUNDUNGEN
100
AcDbSpline
 62
7
  6
CONTINUOUS
 70
0
 71
3
 72
9
 73
5
 74
0
 42
0.0000001
 43
0.0000001
 44
0.0000000001
 40
0.0
 40
0.0
 40
0.0
 40
0.0
 40
0.5022620947
 40
1.0
 40
1.0
 40
1.0
 40
1.0
 10
96.6385265779
 20
151.7338906485
 30
0.0
 10
96.5927758672
 20
151.7748072864
 30
0.0
 10
96.4920450049
 20
151.846687669
 30
0.0
 10
96.3680978857
 20
151.877492944
 30
0.0
 10
96.3073248121
 20
151.8749692288
 30
0.0
  0
SPLINE
  5
459
100
AcDbEntity
  8
RUNDUNGEN
100
AcDbSpline
 62
7
  6
CONTINUOUS
 70
0
 71
3
 72
9
 73
5
 74
0
 42
0.0000001
 43
0.0000001
 44
0.0000000001
 40
0.0
 40
0.0
 40
0.0
 40
0.0
 40
0.5085216686
 40
1.0
 40
1.0
 40
1.0
 40
1.0
 10
113.7694828428
 20
95.3722649514
 30
0.0
 10
113.9363009554
 20
95.1690609337
 30
0.0
 10
114.2532028539
 20
94.7603883759
 30
0.0
 10
114.562057193
 20
94.3457607424
 30
0.0
 10
114.7111093606
 20
94.1399742972
 30
0.0
  0
SPLINE
  5
45A
100
AcDbEntity
  8
RUNDUNGEN
100
AcDbSpline
 62
7
  6
CONTINUOUS
 70
0
 71
3
 72
11
 73
7
 74
0
 42
0.0000001
 43
0.0000001
 44
0.0000000001
 40
0.0
 40
0.0
 40
0.0
 40
0.0
 40
0.2513088263
 40
0.4998661897
 40
0.7482286437
 40
1.0
 40
1.0
 40
1.0
 40
1.0
 10
106.9074633865
 20
106.1584169403
 30
0.0
 10
106.9786196776
 20
106.0128379919
 30
0.0
 10
107.1216090369
 20
105.7239211537
 30
0.0
 10
107.352481452
 20
105.3002237189
 30
0.0
 10
107.5900746799
 20
104.8799804024
 30
0.0
 10
107.7392552727
 20
104.5940196456
 30
0.0
 10
107.813349801
 20
104.4495786993
 30
0.0
  0
SPLINE
  5
45B
100
AcDbEntity
  8
RUNDUNGEN
100
AcDbSpline
 62
7
  6
CONTINUOUS
 70
0
 71
3
 72
9
 73
5
 74
0
 42
0.0000001
 43
0.0000001
 44
0.0000000001
 40
0.0
 40
0.0
 40
0.0
 40
0.0
 40
0.2450356294
 40
1.0
 40
1.0
 40
1.0
 40
1.0
 10
106.9074633865
 20
106.1584169403
 30
0.0
 10
106.8637901852
 20
106.2735770982
 30
0.0
 10
106.6845703065
 20
106.7431559391
 30
0.0
 10
106.4987076004
 20
107.2103544204
 30
0.0
 10
106.3486720556
 20
107.5589052085
 30
0.0
  0
SPLINE
  5
45C
100
AcDbEntity
  8
RUNDUNGEN
100
AcDbSpline
 62
7
  6
CONTINUOUS
 70
0
 71
3
 72
21
 73
17
 74
0
 42
0.0000001
 43
0.0000001
 44
0.0000000001
 40
0.0
 40
0.0
 40
0.0
 40
0.0
 40
0.1234289795
 40
0.2471172115
 40
0.3711094525
 40
0.4954486556
 40
0.5577744835
 40
0.6202090339
 40
0.6827634381
 40
0.7454548847
 40
0.8083146914
 40
0.871412301
 40
0.9031635101
 40
0.9351388507
 40
0.9674317978
 40
1.0
 40
1.0
 40
1.0
 40
1.0
 10
104.9671044013
 20
138.9901616098
 30
0.0
 10
105.0314296701
 20
139.1657566181
 30
0.0
 10
105.169414585
 20
139.5140264672
 30
0.0
 10
105.4043559542
 20
140.0251549164
 30
0.0
 10
105.6685229
 20
140.5234131964
 30
0.0
 10
105.9145999844
 20
140.9251001608
 30
0.0
 10
106.1291175836
 20
141.2357159049
 30
0.0
 10
106.2999702977
 20
141.4624464399
 30
0.0
 10
106.4819461988
 20
141.6811015418
 30
0.0
 10
106.6771300635
 20
141.8891183353
 30
0.0
 10
106.8888807654
 20
142.0814943919
 30
0.0
 10
107.0843169361
 20
142.2211530352
 30
0.0
 10
107.2574800336
 20
142.3057492445
 30
0.0
 10
107.3982274151
 20
142.3465736687
 30
0.0
 10
107.5484990266
 20
142.3452382223
 30
0.0
 10
107.640027977
 20
142.2991744195
 30
0.0
 10
107.6783157505
 20
142.2680479089
 30
0.0
  0
LINE
  5
45D
100
AcDbEntity
  8
RUNDUNGEN
100
AcDbLine
 62
7
  6
CONTINUOUS
 10
317.0412360084
 20
142.5995103328
 11
317.0374309041
 21
142.5729519331
  0
SPLINE
  5
45E
100
AcDbEntity
  8
RUNDUNGEN
100
AcDbSpline
 62
7
  6
CONTINUOUS
 70
0
 71
3
 72
9
 73
5
 74
0
 42
0.0000001
 43
0.0000001
 44
0.0000000001
 40
0.0
 40
0.0
 40
0.0
 40
0.0
 40
0.2425217638
 40
1.0
 40
1.0
 40
1.0
 40
1.0
 10
317.0374309041
 20
142.5729519331
 30
0.0
 10
316.9107403687
 20
141.6889645103
 30
0.0
 10
316.3726728794
 20
138.0462212106
 30
0.0
 10
315.7926139017
 20
134.4098988597
 30
0.0
 10
315.3593133818
 20
131.6545554117
 30
0.0
  0
LINE
  5
45F
100
AcDbEntity
  8
RUNDUNGEN
100
AcDbLine
 62
7
  6
CONTINUOUS
 10
315.3593133818
 20
131.6545554117
 11
315.2770749978
 21
131.1311304944
  0
SPLINE
  5
460
100
AcDbEntity
  8
RUNDUNGEN
100
AcDbSpline
 62
7
  6
CONTINUOUS
 70
0
 71
3
 72
9
 73
5
 74
0
 42
0.0000001
 43
0.0000001
 44
0.0000000001
 40
0.0
 40
0.0
 40
0.0
 40
0.0
 40
0.249493786
 40
1.0
 40
1.0
 40
1.0
 40
1.0
 10
315.2770749978
 20
131.1311304944
 30
0.0
 10
315.2556415496
 20
130.9945770832
 30
0.0
 10
315.169804509
 20
130.4472441033
 30
0.0
 10
315.0843029977
 20
129.899858437
 30
0.0
 10
315.0204106211
 20
129.4889990395
 30
0.0
  0
SPLINE
  5
461
100
AcDbEntity
  8
RUNDUNGEN
100
AcDbSpline
 62
7
  6
CONTINUOUS
 70
0
 71
3
 72
8
 73
4
 74
0
 42
0.0000001
 43
0.0000001
 44
0.0000000001
 40
0.0
 40
0.0
 40
0.0
 40
0.0
 40
1.0
 40
1.0
 40
1.0
 40
1.0
 10
315.0204106211
 20
129.4889990395
 30
0.0
 10
314.97425288
 20
129.1921820684
 30
0.0
 10
314.9282397912
 20
128.8953425487
 30
0.0
 10
314.8824045365
 20
128.5984756074
 30
0.0
  0
SPLINE
  5
462
100
AcDbEntity
  8
RUNDUNGEN
100
AcDbSpline
 62
7
  6
CONTINUOUS
 70
0
 71
3
 72
8
 73
4
 74
0
 42
0.0000001
 43
0.0000001
 44
0.0000000001
 40
0.0
 40
0.0
 40
0.0
 40
0.0
 40
1.0
 40
1.0
 40
1.0
 40
1.0
 10
314.6647834363
 20
127.1791162031
 30
0.0
 10
314.614999372
 20
126.8519224159
 30
0.0
 10
314.565494871
 20
126.5246859292
 30
0.0
 10
314.516313991
 20
126.1974009333
 30
0.0
  0
LINE
  5
463
100
AcDbEntity
  8
RUNDUNGEN
100
AcDbLine
 62
7
  6
CONTINUOUS
 10
314.516313991
 20
126.1974009333
 11
314.4698279304
 21
125.887381205
  0
LINE
  5
464
100
AcDbEntity
  8
RUNDUNGEN
100
AcDbLine
 62
7
  6
CONTINUOUS
 10
314.4698279304
 20
125.887381205
 11
314.4498142738
 21
125.7534860203
  0
LINE
  5
465
100
AcDbEntity
  8
RUNDUNGEN
100
AcDbLine
 62
7
  6
CONTINUOUS
 10
314.4498142738
 20
125.7534860203
 11
314.427305664
 21
125.6025847788
  0
LINE
  5
466
100
AcDbEntity
  8
RUNDUNGEN
100
AcDbLine
 62
7
  6
CONTINUOUS
 10
314.427305664
 20
125.6025847788
 11
314.3982640436
 21
125.4073800593
  0
SPLINE
  5
467
100
AcDbEntity
  8
0
100
AcDbSpline
 62
7
  6
CONTINUOUS
 70
0
 71
3
 72
9
 73
5
 74
0
 42
0.0000001
 43
0.0000001
 44
0.0000000001
 40
0.0
 40
0.0
 40
0.0
 40
0.0
 40
0.2476722627
 40
1.0
 40
1.0
 40
1.0
 40
1.0
 10
290.4260025328
 20
70.5960210414
 30
0.0
 10
290.4257952642
 20
70.7155482301
 30
0.0
 10
290.4186694459
 20
71.1980781815
 30
0.0
 10
290.3860717949
 20
71.6805622289
 30
0.0
 10
290.3418119682
 20
72.0409300367
 30
0.0
  0
SPLINE
  5
468
100
AcDbEntity
  8
0
100
AcDbSpline
 62
7
  6
CONTINUOUS
 70
0
 71
3
 72
9
 73
5
 74
0
 42
0.0000001
 43
0.0000001
 44
0.0000000001
 40
0.0
 40
0.0
 40
0.0
 40
0.0
 40
0.2536250454
 40
1.0
 40
1.0
 40
1.0
 40
1.0
 10
290.3287849114
 20
72.1425045256
 30
0.0
 10
290.3123568351
 20
72.2653243407
 30
0.0
 10
290.237923788
 20
72.7482040307
 30
0.0
 10
290.1254912287
 20
73.2255149847
 30
0.0
 10
290.0176407636
 20
73.5738577373
 30
0.0
  0
SPLINE
  5
469
100
AcDbEntity
  8
RUNDUNGEN
100
AcDbSpline
 62
7
  6
CONTINUOUS
 70
0
 71
3
 72
11
 73
7
 74
0
 42
0.0000001
 43
0.0000001
 44
0.0000000001
 40
0.0
 40
0.0
 40
0.0
 40
0.0
 40
0.2067804111
 40
0.4501769914
 40
0.7188189764
 40
1.0
 40
1.0
 40
1.0
 40
1.0
 10
313.920843866
 20
90.5538024781
 30
0.0
 10
314.1523896208
 20
93.1232766318
 30
0.0
 10
314.5922236153
 20
98.7229465279
 30
0.0
 10
315.1984239234
 20
107.6707750048
 30
0.0
 10
315.8092026702
 20
117.5485182778
 30
0.0
 10
316.215860361
 20
124.3962897135
 30
0.0
 10
316.4244948534
 20
127.8982217885
 30
0.0
  0
SPLINE
  5
46A
100
AcDbEntity
  8
0
100
AcDbSpline
 62
7
  6
CONTINUOUS
 70
0
 71
3
 72
9
 73
5
 74
0
 42
0.0000001
 43
0.0000001
 44
0.0000000001
 40
0.0
 40
0.0
 40
0.0
 40
0.0
 40
0.251172307
 40
1.0
 40
1.0
 40
1.0
 40
1.0
 10
284.4260236735
 20
127.9238780186
 30
0.0
 10
284.3887818804
 20
128.5489720592
 30
0.0
 10
284.2404230547
 20
131.0376728789
 30
0.0
 10
284.0912821348
 20
133.5263274877
 30
0.0
 10
283.9783631141
 20
135.3898260004
 30
0.0
  0
SPLINE
  5
46B
100
AcDbEntity
  8
RUNDUNGEN
100
AcDbSpline
 62
7
  6
CONTINUOUS
 70
0
 71
3
 72
9
 73
5
 74
0
 42
0.0000001
 43
0.0000001
 44
0.0000000001
 40
0.0
 40
0.0
 40
0.0
 40
0.0
 40
0.2476722627
 40
1.0
 40
1.0
 40
1.0
 40
1.0
 10
310.4260445265
 20
70.5960210414
 30
0.0
 10
310.4262517951
 20
70.7155482301
 30
0.0
 10
310.4333776134
 20
71.1980781815
 30
0.0
 10
310.4659752644
 20
71.6805622289
 30
0.0
 10
310.510235091
 20
72.0409300367
 30
0.0
  0
SPLINE
  5
46C
100
AcDbEntity
  8
RUNDUNGEN
100
AcDbSpline
 62
7
  6
CONTINUOUS
 70
0
 71
3
 72
9
 73
5
 74
0
 42
0.0000001
 43
0.0000001
 44
0.0000000001
 40
0.0
 40
0.0
 40
0.0
 40
0.0
 40
0.2536250454
 40
1.0
 40
1.0
 40
1.0
 40
1.0
 10
310.5232621479
 20
72.1425045256
 30
0.0
 10
310.5396902242
 20
72.2653243407
 30
0.0
 10
310.6141232713
 20
72.7482040307
 30
0.0
 10
310.7265558306
 20
73.2255149847
 30
0.0
 10
310.8344062957
 20
73.5738577373
 30
0.0
  0
SPLINE
  5
46D
100
AcDbEntity
  8
RUNDUNGEN
100
AcDbSpline
 62
7
  6
CONTINUOUS
 70
0
 71
3
 72
9
 73
5
 74
0
 42
0.0000001
 43
0.0000001
 44
0.0000000001
 40
0.0
 40
0.0
 40
0.0
 40
0.0
 40
0.251172307
 40
1.0
 40
1.0
 40
1.0
 40
1.0
 10
316.4260233857
 20
127.9238780186
 30
0.0
 10
316.4632651789
 20
128.5489720592
 30
0.0
 10
316.6116240045
 20
131.0376728789
 30
0.0
 10
316.7607649244
 20
133.5263274877
 30
0.0
 10
316.8736839451
 20
135.3898260004
 30
0.0
  0
LINE
  5
46E
100
AcDbEntity
  8
0
100
AcDbLine
 62
7
  6
CONTINUOUS
 10
283.8108110509
 20
142.5995103328
 11
283.8146161552
 21
142.5729519331
  0
SPLINE
  5
46F
100
AcDbEntity
  8
0
100
AcDbSpline
 62
7
  6
CONTINUOUS
 70
0
 71
3
 72
9
 73
5
 74
0
 42
0.0000001
 43
0.0000001
 44
0.0000000001
 40
0.0
 40
0.0
 40
0.0
 40
0.0
 40
0.2425050625
 40
1.0
 40
1.0
 40
1.0
 40
1.0
 10
283.8146161552
 20
142.5729519331
 30
0.0
 10
283.9417529468
 20
141.6858507424
 30
0.0
 10
284.4818079963
 20
138.0300323233
 30
0.0
 10
285.0640830805
 20
134.3806712265
 30
0.0
 10
285.498896684
 20
131.6153626356
 30
0.0
  0
LINE
  5
470
100
AcDbEntity
  8
0
100
AcDbLine
 62
7
  6
CONTINUOUS
 10
285.498896684
 20
131.6153626356
 11
285.5871134872
 21
131.0537644926
  0
SPLINE
  5
471
100
AcDbEntity
  8
0
100
AcDbSpline
 62
7
  6
CONTINUOUS
 70
0
 71
3
 72
9
 73
5
 74
0
 42
0.0000001
 43
0.0000001
 44
0.0000000001
 40
0.0
 40
0.0
 40
0.0
 40
0.0
 40
0.2495051229
 40
1.0
 40
1.0
 40
1.0
 40
1.0
 10
285.5871134872
 20
131.0537644926
 30
0.0
 10
285.6082622762
 20
130.9189809872
 30
0.0
 10
285.6929539343
 20
130.3787664535
 30
0.0
 10
285.7773098554
 20
129.838499221
 30
0.0
 10
285.8403447578
 20
129.4329889014
 30
0.0
  0
SPLINE
  5
472
100
AcDbEntity
  8
0
100
AcDbSpline
 62
7
  6
CONTINUOUS
 70
0
 71
3
 72
8
 73
4
 74
0
 42
0.0000001
 43
0.0000001
 44
0.0000000001
 40
0.0
 40
0.0
 40
0.0
 40
0.0
 40
1.0
 40
1.0
 40
1.0
 40
1.0
 10
285.8403447578
 20
129.4329889014
 30
0.0
 10
285.8867617192
 20
129.1343835873
 30
0.0
 10
285.9330301638
 20
128.8357551306
 30
0.0
 10
285.9791163236
 20
128.5370985824
 30
0.0
  0
SPLINE
  5
473
100
AcDbEntity
  8
0
100
AcDbSpline
 62
7
  6
CONTINUOUS
 70
0
 71
3
 72
8
 73
4
 74
0
 42
0.0000001
 43
0.0000001
 44
0.0000000001
 40
0.0
 40
0.0
 40
0.0
 40
0.0
 40
1.0
 40
1.0
 40
1.0
 40
1.0
 10
286.1993449935
 20
127.0996772043
 30
0.0
 10
286.2487659609
 20
126.7745655018
 30
0.0
 10
286.2979074093
 20
126.4494111461
 30
0.0
 10
286.3467261128
 20
126.1242084627
 30
0.0
  0
LINE
  5
474
100
AcDbEntity
  8
0
100
AcDbLine
 62
7
  6
CONTINUOUS
 10
286.3467261128
 20
126.1242084627
 11
286.3823131139
 21
125.886753032
  0
LINE
  5
475
100
AcDbEntity
  8
0
100
AcDbLine
 62
7
  6
CONTINUOUS
 10
286.3823131139
 20
125.886753032
 11
286.4022327854
 21
125.7534860203
  0
LINE
  5
476
100
AcDbEntity
  8
0
100
AcDbLine
 62
7
  6
CONTINUOUS
 10
286.4022327854
 20
125.7534860203
 11
286.4247413953
 21
125.6025847788
  0
LINE
  5
477
100
AcDbEntity
  8
0
100
AcDbLine
 62
7
  6
CONTINUOUS
 10
286.4247413953
 20
125.6025847788
 11
286.4553398631
 21
125.3968992344
  0
SPLINE
  5
478
100
AcDbEntity
  8
0
100
AcDbSpline
 62
7
  6
CONTINUOUS
 70
0
 71
3
 72
11
 73
7
 74
0
 42
0.0000001
 43
0.0000001
 44
0.0000000001
 40
0.0
 40
0.0
 40
0.0
 40
0.0
 40
0.2067802564
 40
0.4501771302
 40
0.7188193537
 40
1.0
 40
1.0
 40
1.0
 40
1.0
 10
286.9312031932
 20
90.5538024781
 30
0.0
 10
286.6996520057
 20
93.12333692
 30
0.0
 10
286.2598085579
 20
98.7231442344
 30
0.0
 10
285.6535958465
 20
107.6711942201
 30
0.0
 10
285.0428045056
 20
117.5491787179
 30
0.0
 10
284.6361376893
 20
124.3971142549
 30
0.0
 10
284.4274983112
 20
127.8991264115
 30
0.0
  0
SPLINE
  5
479
100
AcDbEntity
  8
RUNDUNGEN
100
AcDbSpline
 62
7
  6
CONTINUOUS
 70
0
 71
3
 72
13
 73
9
 74
0
 42
0.0000001
 43
0.0000001
 44
0.0000000001
 40
0.0
 40
0.0
 40
0.0
 40
0.0
 40
0.0972475247
 40
0.2001304638
 40
0.311863947
 40
0.4338184654
 40
0.7052198893
 40
1.0
 40
1.0
 40
1.0
 40
1.0
 10
318.4250994667
 20
170.7310566422
 30
0.0
 10
318.4188218264
 20
170.9410169356
 30
0.0
 10
318.3382362863
 20
171.3733783561
 30
0.0
 10
318.0299685542
 20
171.9806874089
 30
0.0
 10
317.5509235696
 20
172.5355962799
 30
0.0
 10
316.6814278498
 20
173.2043600658
 30
0.0
 10
315.2876512164
 20
173.7871028926
 30
0.0
 10
314.0626603733
 20
173.9551560937
 30
0.0
 10
313.4260235296
 20
173.9656560151
 30
0.0
  0
SPLINE
  5
47A
100
AcDbEntity
  8
RUNDUNGEN
100
AcDbSpline
 62
7
  6
CONTINUOUS
 70
0
 71
3
 72
20
 73
16
 74
0
 42
0.0000001
 43
0.0000001
 44
0.0000000001
 40
0.0
 40
0.0
 40
0.0
 40
0.0
 40
0.1667990818
 40
0.3282381124
 40
0.4827972322
 40
0.6279429318
 40
0.7589650632
 40
0.8163928159
 40
0.8656859651
 40
0.9031979773
 40
0.9245967795
 40
0.9334538098
 40
0.9478733501
 40
0.9702297382
 40
1.0
 40
1.0
 40
1.0
 40
1.0
 10
316.8739375749
 20
141.45504329
 30
0.0
 10
316.8957286123
 20
141.5102413622
 30
0.0
 10
316.9388329816
 20
141.6187789492
 30
0.0
 10
317.0031716918
 20
141.7780331915
 30
0.0
 10
317.0660013653
 20
141.9296363877
 30
0.0
 10
317.1266084245
 20
142.0702545619
 30
0.0
 10
317.1764801422
 20
142.1783663868
 30
0.0
 10
317.214655816
 20
142.2531988286
 30
0.0
 10
317.2413280272
 20
142.2986883855
 30
0.0
 10
317.2611368408
 20
142.3277318572
 30
0.0
 10
317.2841168642
 20
142.3482135891
 30
0.0
 10
317.2980912164
 20
142.3369162836
 30
0.0
 10
317.301771846
 20
142.3206925481
 30
0.0
 10
317.3042420237
 20
142.2972639757
 30
0.0
 10
317.3039861178
 20
142.2786330493
 30
0.0
 10
317.303614761
 20
142.2680479089
 30
0.0
  0
LINE
  5
47B
100
AcDbEntity
  8
0
100
AcDbLine
 62
7
  6
CONTINUOUS
 10
283.2814674954
 20
151.7338906485
 11
283.2862469252
 21
151.5249825323
  0
SPLINE
  5
47C
100
AcDbEntity
  8
0
100
AcDbSpline
 62
7
  6
CONTINUOUS
 70
0
 71
3
 72
12
 73
8
 74
0
 42
0.0000001
 43
0.0000001
 44
0.0000000001
 40
0.0
 40
0.0
 40
0.0
 40
0.0
 40
0.3899317093
 40
0.7021568999
 40
0.8212570847
 40
0.9111098097
 40
1.0
 40
1.0
 40
1.0
 40
1.0
 10
283.2814674954
 20
151.7338906485
 30
0.0
 10
283.2810368665
 20
151.7529214656
 30
0.0
 10
283.2809201423
 20
151.7873146168
 30
0.0
 10
283.2821195688
 20
151.8270731143
 30
0.0
 10
283.2862029117
 20
151.8528307893
 30
0.0
 10
283.2882336574
 20
151.8659463331
 30
0.0
 10
283.2956513078
 20
151.8762809404
 30
0.0
 10
283.2997877517
 20
151.8749692288
 30
0.0
  0
LINE
  5
47D
100
AcDbEntity
  8
RUNDUNGEN
100
AcDbLine
 62
7
  6
CONTINUOUS
 10
317.5705795639
 20
151.7338906485
 11
317.5658000701
 21
151.5249797463
  0
SPLINE
  5
47E
100
AcDbEntity
  8
RUNDUNGEN
100
AcDbSpline
 62
7
  6
CONTINUOUS
 70
0
 71
3
 72
12
 73
8
 74
0
 42
0.0000001
 43
0.0000001
 44
0.0000000001
 40
0.0
 40
0.0
 40
0.0
 40
0.0
 40
0.3899317093
 40
0.7021568999
 40
0.8212570847
 40
0.9111098097
 40
1.0
 40
1.0
 40
1.0
 40
1.0
 10
317.5705795639
 20
151.7338906485
 30
0.0
 10
317.5710101928
 20
151.7529214656
 30
0.0
 10
317.5711269169
 20
151.7873146168
 30
0.0
 10
317.5699274905
 20
151.8270731143
 30
0.0
 10
317.5658441475
 20
151.8528307893
 30
0.0
 10
317.5638134019
 20
151.8659463331
 30
0.0
 10
317.5563957515
 20
151.8762809404
 30
0.0
 10
317.5522593076
 20
151.8749692288
 30
0.0
  0
SPLINE
  5
47F
100
AcDbEntity
  8
0
100
AcDbSpline
 62
7
  6
CONTINUOUS
 70
0
 71
3
 72
13
 73
9
 74
0
 42
0.0000001
 43
0.0000001
 44
0.0000000001
 40
0.0
 40
0.0
 40
0.0
 40
0.0
 40
0.0972475247
 40
0.2001304638
 40
0.311863947
 40
0.4338184654
 40
0.7052198893
 40
1.0
 40
1.0
 40
1.0
 40
1.0
 10
282.4269475925
 20
170.7310566422
 30
0.0
 10
282.4332252328
 20
170.9410169356
 30
0.0
 10
282.513810773
 20
171.3733783561
 30
0.0
 10
282.8220785051
 20
171.9806874089
 30
0.0
 10
283.3011234896
 20
172.5355962799
 30
0.0
 10
284.1706192094
 20
173.2043600658
 30
0.0
 10
285.5643958429
 20
173.7871028926
 30
0.0
 10
286.789386686
 20
173.9551560937
 30
0.0
 10
287.4260235296
 20
173.9656560151
 30
0.0
  0
SPLINE
  5
480
100
AcDbEntity
  8
0
100
AcDbSpline
 62
7
  6
CONTINUOUS
 70
0
 71
3
 72
20
 73
16
 74
0
 42
0.0000001
 43
0.0000001
 44
0.0000000001
 40
0.0
 40
0.0
 40
0.0
 40
0.0
 40
0.1668822032
 40
0.3283868967
 40
0.4829870078
 40
0.6281370168
 40
0.7591048279
 40
0.8164700516
 40
0.8656699473
 40
0.9030552319
 40
0.9243395791
 40
0.9332470995
 40
0.9477511976
 40
0.9701790781
 40
1.0
 40
1.0
 40
1.0
 40
1.0
 10
283.9762092142
 20
141.4598559534
 30
0.0
 10
283.9545065417
 20
141.5148109504
 30
0.0
 10
283.9115772406
 20
141.622864968
 30
0.0
 10
283.8474987906
 20
141.7813980133
 30
0.0
 10
283.7849244135
 20
141.9322871951
 30
0.0
 10
283.7245725096
 20
142.0722040487
 30
0.0
 10
283.674903566
 20
142.1797262188
 30
0.0
 10
283.6369052371
 20
142.2541141853
 30
0.0
 10
283.6103322749
 20
142.299236438
 30
0.0
 10
283.590698648
 20
142.3280840462
 30
0.0
 10
283.5676805362
 20
142.3481985307
 30
0.0
 10
283.5539095228
 20
142.3367693264
 30
0.0
 10
283.5502564382
 20
142.3205846705
 30
0.0
 10
283.5478067228
 20
142.2971772136
 30
0.0
 10
283.5480621146
 20
142.2785996092
 30
0.0
 10
283.5484322983
 20
142.2680479089
 30
0.0
  0
ELLIPSE
  5
481
100
AcDbEntity
  8
0
100
AcDbEllipse
 62
7
  6
CONTINUOUS
 10
405.3360235296
 20
276.9134329765
 30
0.0
 11
0.0
 21
1411.4559788011
 31
0.0
 40
0.0697223303
 41
-4.6404049121
 42
-4.6394433494
  0
ELLIPSE
  5
482
100
AcDbEntity
  8
0
100
AcDbEllipse
 62
7
  6
CONTINUOUS
 10
405.3360235296
 20
276.9134329765
 30
0.0
 11
0.0
 21
1411.4559788011
 31
0.0
 40
0.0697223303
 41
-4.6408887009
 42
-4.6404692366
  0
ELLIPSE
  5
483
100
AcDbEntity
  8
0
100
AcDbEllipse
 62
7
  6
CONTINUOUS
 10
405.3360235296
 20
276.9134329765
 30
0.0
 11
0.0
 21
1411.4559788011
 31
0.0
 40
0.0697223303
 41
-4.6416114045
 42
-4.640970517
  0
ELLIPSE
  5
484
100
AcDbEntity
  8
0
100
AcDbEllipse
 62
7
  6
CONTINUOUS
 10
405.3360235296
 20
276.9134329765
 30
0.0
 11
0.0
 21
1411.4559788011
 31
0.0
 40
0.0697223303
 41
-4.6423341271
 42
-4.6416438286
  0
ELLIPSE
  5
485
100
AcDbEntity
  8
0
100
AcDbEllipse
 62
7
  6
CONTINUOUS
 10
405.3360235296
 20
179.3211339843
 30
0.0
 11
98.41
 21
-0.0
 31
0.0
 40
0.7356114155
 41
-3.0686470226
 42
-3.0610118705
  0
ELLIPSE
  5
486
100
AcDbEntity
  8
0
100
AcDbEllipse
 62
7
  6
CONTINUOUS
 10
405.3360235296
 20
181.1284320465
 30
0.0
 11
98.41
 21
0.0
 31
0.0
 40
0.7356114155
 41
-3.0623658628
 42
-3.0408406942
  0
ELLIPSE
  5
487
100
AcDbEntity
  8
0
100
AcDbEllipse
 62
7
  6
CONTINUOUS
 10
405.3360235296
 20
179.0541201846
 30
0.0
 11
98.41
 21
-0.0
 31
0.0
 40
0.664075284
 41
3.1415926536
 42
3.1449622775
  0
ELLIPSE
  5
488
100
AcDbEntity
  8
0
100
AcDbEllipse
 62
7
  6
CONTINUOUS
 10
405.3360235296
 20
206.3418884111
 30
0.0
 11
0.0
 21
691.4672817847
 31
0.0
 40
0.1423205444
 41
-4.6720384673
 42
-4.6712428251
  0
ELLIPSE
  5
489
100
AcDbEntity
  8
0
100
AcDbEllipse
 62
7
  6
CONTINUOUS
 10
405.3360235296
 20
180.7325155791
 30
0.0
 11
98.41
 21
0.0
 31
0.0
 40
0.7000455705
 41
-3.1004464984
 42
-3.0890619729
  0
ELLIPSE
  5
48A
100
AcDbEntity
  8
0
100
AcDbEllipse
 62
7
  6
CONTINUOUS
 10
405.3360235296
 20
213.4218069614
 30
0.0
 11
0.0
 21
691.4672817847
 31
0.0
 40
0.1423205444
 41
-4.6598582997
 42
-4.6587968299
  0
ELLIPSE
  5
48B
100
AcDbEntity
  8
0
100
AcDbEllipse
 62
7
  6
CONTINUOUS
 10
405.3360235296
 20
164.7664526733
 30
0.0
 11
0.0
 21
216.8495582447
 31
0.0
 40
0.4538169263
 41
1.5172041763
 42
1.518071459
  0
ELLIPSE
  5
48C
100
AcDbEntity
  8
0
100
AcDbEllipse
 62
7
  6
CONTINUOUS
 10
405.3360235296
 20
181.9914208267
 30
0.0
 11
98.41
 21
-0.0
 31
0.0
 40
0.5297347928
 41
-3.11826857
 42
-3.1133452102
  0
ELLIPSE
  5
48D
100
AcDbEntity
  8
0
100
AcDbEllipse
 62
7
  6
CONTINUOUS
 10
405.3360235296
 20
182.4647930317
 30
0.0
 11
98.41
 21
0.0
 31
0.0
 40
0.7000455705
 41
-3.1133452102
 42
-3.1019666187
  0
ELLIPSE
  5
48E
100
AcDbEntity
  8
0
100
AcDbEllipse
 62
7
  6
CONTINUOUS
 10
405.3360235296
 20
183.0948399933
 30
0.0
 11
98.41
 21
-0.0
 31
0.0
 40
0.8616550138
 41
-3.1019666187
 42
-3.0967752743
  0
ELLIPSE
  5
48F
100
AcDbEntity
  8
0
100
AcDbEllipse
 62
7
  6
CONTINUOUS
 10
405.3360235296
 20
184.2048069519
 30
0.0
 11
0.0
 21
109.5702033476
 31
0.0
 40
0.8981456363
 41
-4.6675716011
 42
-4.6635114904
  0
ELLIPSE
  5
490
100
AcDbEntity
  8
0
100
AcDbEllipse
 62
7
  6
CONTINUOUS
 10
405.3360235296
 20
189.4963923515
 30
0.0
 11
0.0
 21
217.8755384272
 31
0.0
 40
0.4516798935
 41
-4.6634429761
 42
-4.6618483964
  0
ELLIPSE
  5
491
100
AcDbEntity
  8
0
100
AcDbEllipse
 62
7
  6
CONTINUOUS
 10
405.3360235296
 20
181.9698564516
 30
0.0
 11
98.41
 21
-0.0
 31
0.0
 40
0.7000455705
 41
-3.0910520696
 42
-3.0834595194
  0
ELLIPSE
  5
492
100
AcDbEntity
  8
0
100
AcDbEllipse
 62
7
  6
CONTINUOUS
 10
405.3360235296
 20
181.4218593713
 30
0.0
 11
0.0
 21
176.8233514505
 31
0.0
 40
0.5565441396
 41
-4.6975945728
 42
-4.6960658652
  0
ELLIPSE
  5
493
100
AcDbEntity
  8
0
100
AcDbEllipse
 62
7
  6
CONTINUOUS
 10
405.3360235296
 20
180.6246054956
 30
0.0
 11
-0.0
 21
127.9791649236
 31
0.0
 40
0.7689532906
 41
-4.6960658652
 42
-4.6904806347
  0
ELLIPSE
  5
494
100
AcDbEntity
  8
0
100
AcDbEllipse
 62
7
  6
CONTINUOUS
 10
405.3360235296
 20
180.0096432798
 30
0.0
 11
0.0
 21
99.9071497526
 31
0.0
 40
0.9850145885
 41
-4.6904806347
 42
-4.6851598136
  0
ELLIPSE
  5
495
100
AcDbEntity
  8
0
100
AcDbEllipse
 62
7
  6
CONTINUOUS
 10
405.3360235296
 20
179.5133951181
 30
0.0
 11
98.41
 21
-0.0
 31
0.0
 40
0.8299971797
 41
-3.1143634868
 42
-3.1079102226
  0
ELLIPSE
  5
496
100
AcDbEntity
  8
0
100
AcDbEllipse
 62
7
  6
CONTINUOUS
 10
405.3360235296
 20
179.0827275179
 30
0.0
 11
98.41
 21
-0.0
 31
0.0
 40
0.7000455705
 41
-3.1079102226
 42
-3.0965293625
  0
ELLIPSE
  5
497
100
AcDbEntity
  8
0
100
AcDbEllipse
 62
7
  6
CONTINUOUS
 10
405.3360235296
 20
178.481947285
 30
0.0
 11
98.41
 21
-0.0
 31
0.0
 40
0.5645264751
 41
-3.0965293625
 42
-3.0903369064
  0
ELLIPSE
  5
498
100
AcDbEntity
  8
0
100
AcDbEllipse
 62
7
  6
CONTINUOUS
 10
405.3360235296
 20
177.40033499
 30
0.0
 11
98.41
 21
-0.0
 31
0.0
 40
0.3500004477
 41
-3.0903369064
 42
-3.0855407789
  0
ELLIPSE
  5
499
100
AcDbEntity
  8
0
100
AcDbEllipse
 62
7
  6
CONTINUOUS
 10
405.3360235296
 20
181.6213314553
 30
0.0
 11
98.41
 21
0.0
 31
0.0
 40
0.7356114155
 41
-3.0627351081
 42
-3.0408428739
  0
ELLIPSE
  5
49A
100
AcDbEntity
  8
0
100
AcDbEllipse
 62
7
  6
CONTINUOUS
 10
405.3360235296
 20
287.1072610737
 30
0.0
 11
0.0
 21
1411.4559788011
 31
0.0
 40
0.0697223303
 41
-4.6347006408
 42
-4.6335314348
  0
ELLIPSE
  5
49B
100
AcDbEntity
  8
0
100
AcDbEllipse
 62
7
  6
CONTINUOUS
 10
405.3360235296
 20
183.1821798131
 30
0.0
 11
98.41
 21
0.0
 31
0.0
 40
0.7356114155
 41
-3.0715378003
 42
-3.063904314
  0
ELLIPSE
  5
49C
100
AcDbEntity
  8
0
100
AcDbEllipse
 62
7
  6
CONTINUOUS
 10
405.3360235296
 20
287.1072610737
 30
0.0
 11
0.0
 21
1411.4559788012
 31
0.0
 40
0.0697223303
 41
-4.6321466885
 42
-4.6318081973
  0
ELLIPSE
  5
49D
100
AcDbEntity
  8
0
100
AcDbEllipse
 62
7
  6
CONTINUOUS
 10
405.3360235296
 20
287.1072610737
 30
0.0
 11
0.0
 21
1411.4559788012
 31
0.0
 40
0.0697223303
 41
-4.6331621896
 42
-4.6322001206
  0
ELLIPSE
  5
49E
100
AcDbEntity
  8
0
100
AcDbEllipse
 62
7
  6
CONTINUOUS
 10
405.3360235296
 20
179.4982841984
 30
0.0
 11
0.0
 21
197.1660185204
 31
0.0
 40
0.4991225199
 41
1.5707963268
 42
1.5741659507
  0
ELLIPSE
  5
49F
100
AcDbEntity
  8
0
100
AcDbEllipse
 62
7
  6
CONTINUOUS
 10
405.3360235296
 20
218.1417571628
 30
0.0
 11
0.0
 21
691.4672817847
 31
0.0
 40
0.1423205444
 41
-4.6525123557
 42
-4.6510702379
  0
ELLIPSE
  5
4A0
100
AcDbEntity
  8
0
100
AcDbEllipse
 62
7
  6
CONTINUOUS
 10
405.3360235296
 20
218.1417571628
 30
0.0
 11
0.0
 21
691.4672817847
 31
0.0
 40
0.1423205444
 41
-4.6530220593
 42
-4.6525635339
  0
ELLIPSE
  5
4A1
100
AcDbEntity
  8
0
100
AcDbEllipse
 62
7
  6
CONTINUOUS
 10
405.3360235296
 20
181.2274519281
 30
0.0
 11
98.41
 21
0.0
 31
0.0
 40
0.7000455705
 41
-3.1012421405
 42
-3.0822649873
  0
ELLIPSE
  5
4A2
100
AcDbEntity
  8
0
100
AcDbEllipse
 62
7
  6
CONTINUOUS
 10
405.3360235296
 20
177.3590848358
 30
0.0
 11
98.41
 21
-0.0
 31
0.0
 40
0.2245484295
 41
-3.092398036
 42
-3.0888677858
  0
ELLIPSE
  5
4A3
100
AcDbEntity
  8
0
100
AcDbEllipse
 62
7
  6
CONTINUOUS
 10
405.3360235296
 20
178.8359701008
 30
0.0
 11
98.41
 21
0.0
 31
0.0
 40
0.5297347928
 41
-3.0973251379
 42
-3.092398036
  0
ELLIPSE
  5
4A4
100
AcDbEntity
  8
0
100
AcDbEllipse
 62
7
  6
CONTINUOUS
 10
405.3360235296
 20
179.5776639247
 30
0.0
 11
98.41
 21
0.0
 31
0.0
 40
0.7000455705
 41
-3.108705645
 42
-3.0973251379
  0
ELLIPSE
  5
4A5
100
AcDbEntity
  8
0
100
AcDbEllipse
 62
7
  6
CONTINUOUS
 10
405.3360235296
 20
180.10060415
 30
0.0
 11
98.41
 21
-0.0
 31
0.0
 40
0.8616550138
 41
-3.1138947435
 42
-3.108705645
  0
ELLIPSE
  5
4A6
100
AcDbEntity
  8
0
100
AcDbEllipse
 62
7
  6
CONTINUOUS
 10
405.3360235296
 20
180.7867251219
 30
0.0
 11
-0.0
 21
109.5702166617
 31
0.0
 40
0.8981455271
 41
-4.6887480631
 42
-4.6846910703
  0
ELLIPSE
  5
4A7
100
AcDbEntity
  8
0
100
AcDbEllipse
 62
7
  6
CONTINUOUS
 10
405.3360235296
 20
181.825351065
 30
0.0
 11
0.0
 21
153.5077120473
 31
0.0
 40
0.6410752834
 41
-4.6916733783
 42
-4.6887480631
  0
ELLIPSE
  5
4A8
100
AcDbEntity
  8
0
100
AcDbEllipse
 62
7
  6
CONTINUOUS
 10
405.3360235296
 20
183.8833700994
 30
0.0
 11
0.0
 21
252.8611474183
 31
0.0
 40
0.3891859268
 41
-4.6933771753
 42
-4.6916733783
  0
ELLIPSE
  5
4A9
100
AcDbEntity
  8
0
100
AcDbEllipse
 62
7
  6
CONTINUOUS
 10
405.3360235296
 20
192.1820513107
 30
0.0
 11
0.0
 21
691.4672817848
 31
0.0
 40
0.1423205444
 41
-4.6939642145
 42
-4.6934672741
  0
ELLIPSE
  5
4AA
100
AcDbEntity
  8
0
100
AcDbEllipse
 62
7
  6
CONTINUOUS
 10
405.3360235296
 20
192.1820513107
 30
0.0
 11
0.0
 21
691.4672817848
 31
0.0
 40
0.1423205444
 41
-4.6954550483
 42
-4.6940447492
  0
ELLIPSE
  5
4AB
100
AcDbEntity
  8
0
100
AcDbEllipse
 62
7
  6
CONTINUOUS
 10
405.3360235296
 20
174.0234085402
 30
0.0
 11
0.0
 21
380.9068447634
 31
0.0
 40
0.2583571321
 41
1.5531287171
 42
1.5538623947
  0
ELLIPSE
  5
4AC
100
AcDbEntity
  8
0
100
AcDbEllipse
 62
7
  6
CONTINUOUS
 10
405.3360235296
 20
179.9169255397
 30
0.0
 11
98.41
 21
0.0
 31
0.0
 40
0.480764095
 41
3.1217950571
 42
3.1239250439
  0
ELLIPSE
  5
4AD
100
AcDbEntity
  8
0
100
AcDbEllipse
 62
7
  6
CONTINUOUS
 10
405.3360235296
 20
194.4115746545
 30
0.0
 11
0.0
 21
283.0331933855
 31
0.0
 40
0.347697734
 41
-4.6561062949
 42
-4.6542558462
  0
ELLIPSE
  5
4AE
100
AcDbEntity
  8
0
100
AcDbEllipse
 62
7
  6
CONTINUOUS
 10
405.3360235296
 20
185.7015196317
 30
0.0
 11
0.0
 21
127.9792367452
 31
0.0
 40
0.7689528591
 41
-4.6617772227
 42
-4.6561850461
  0
ELLIPSE
  5
4AF
100
AcDbEntity
  8
0
100
AcDbEllipse
 62
7
  6
CONTINUOUS
 10
405.3360235296
 20
184.2813482582
 30
0.0
 11
-0.0
 21
99.9071458826
 31
0.0
 40
0.9850146266
 41
-4.6671025585
 42
-4.6617772227
  0
ELLIPSE
  5
4B0
100
AcDbEntity
  8
0
100
AcDbEllipse
 62
7
  6
CONTINUOUS
 10
405.3360235296
 20
183.4561891223
 30
0.0
 11
98.41
 21
0.0
 31
0.0
 40
0.8299971685
 41
-3.1027622124
 42
-3.0963062317
  0
ELLIPSE
  5
4B1
100
AcDbEntity
  8
0
100
AcDbEllipse
 62
7
  6
CONTINUOUS
 10
405.3360235296
 20
182.9597293808
 30
0.0
 11
98.41
 21
0.0
 31
0.0
 40
0.7000455705
 41
-3.1141405003
 42
-3.1027622124
  0
ELLIPSE
  5
4B2
100
AcDbEntity
  8
0
100
AcDbEllipse
 62
7
  6
CONTINUOUS
 10
405.3360235296
 20
182.5936615618
 30
0.0
 11
98.41
 21
0.0
 31
0.0
 40
0.5645264872
 41
-3.1203276121
 42
-3.1141405003
  0
ELLIPSE
  5
4B3
100
AcDbEntity
  8
0
100
AcDbEllipse
 62
7
  6
CONTINUOUS
 10
405.3360235296
 20
182.144758413
 30
0.0
 11
98.41
 21
-0.0
 31
0.0
 40
0.3500004962
 41
-3.1251176906
 42
-3.1203276121
  0
ELLIPSE
  5
4B4
100
AcDbEntity
  8
0
100
AcDbEllipse
 62
7
  6
CONTINUOUS
 10
405.3360235296
 20
175.2443955642
 30
0.0
 11
98.41
 21
0.0
 31
0.0
 40
0.0410516468
 41
3.0810088508
 42
3.0855407789
  0
ELLIPSE
  5
4B5
100
AcDbEntity
  8
0
100
AcDbEllipse
 62
7
  6
CONTINUOUS
 10
405.3360235296
 20
152.4265871863
 30
0.0
 11
0.0
 21
380.9025472061
 31
0.0
 40
0.258360047
 41
7.7926628915
 42
7.7933978312
  0
ENDSEC
  0
SECTION
  2
OBJECTS
  0
DICTIONARY
  5
C
100
AcDbDictionary
280
0
281
1
  3
ACAD_GROUP
350
D
  3
ACAD_MLINESTYLE
350
17
  3
ACAD_LAYOUT
350
1A
  3
ACAD_PLOTSETTINGS
350
19
  3
ACAD_PLOTSTYLENAME
350
E
  0
DICTIONARY
  5
D
102
{ACAD_REACTORS
330
C
102
}
100
AcDbDictionary
280
0
281
1
  0
ACDBDICTIONARYWDFLT
  5
E
102
{ACAD_REACTORS
330
C
102
}
100
AcDbDictionary
281
1
  3
Normal
350
F
100
AcDbDictionaryWithDefault
340
F
  0
DICTIONARY
  5
17
102
{ACAD_REACTORS
330
C
102
}
100
AcDbDictionary
280
0
281
1
  3
Standard
350
18
  0
DICTIONARY
  5
19
102
{ACAD_REACTORS
330
C
102
}
100
AcDbDictionary
281
1
  0
DICTIONARY
  5
1A
102
{ACAD_REACTORS
330
C
102
}
100
AcDbDictionary
281
1
  3
Model
350
4B6
  3
Layout1
350
4B7
  0
ACDBPLACEHOLDER
  5
F
102
{ACAD_REACTORS
330
E
102
}
  0
MLINESTYLE
  5
18
102
{ACAD_REACTORS
330
17
102
}
100
AcDbMlineStyle
  2
STANDARD
 70
0
  3

 62
256
 51
90.0
 52
90.0
 71
2
 49
0.5
 62
256
  6
BYLAYER
 49
-0.5
 62
256
  6
BYLAYER
  0
LAYOUT
  5
4B6
102
{ACAD_REACTORS
330
1A
102
}
100
AcDbPlotSettings
  1

  2
none_device
  4
ISO_A3_(420.00_x_297.00_MM)
  6

 40
0.0
 41
0.0
 42
0.0
 43
0.0
 44
420.0
 45
297.0
 46
0.0
 47
0.0
 48
0.0
 49
0.0
140
0.0
141
0.0
142
1.0
143
1.0
 70
1024
 72
1
 73
0
 74
0
  7

 75
0
147
1.0
148
0.0
149
0.0
100
AcDbLayout
  1
Model
 70
0
 71
0
 10
0.0
 20
0.0
 11
420.0
 21
297.0
 12
0.0
 22
0.0
 32
0.0
 14
0.0
 24
0.0
 34
0.0
 15
0.0
 25
0.0
 35
0.0
146
0.0
 13
0.0
 23
0.0
 33
0.0
 16
1.0
 26
0.0
 36
0.0
 17
0.0
 27
1.0
 37
0.0
 76
0
330
20F
345
0
346
0
  0
LAYOUT
  5
4B7
102
{ACAD_REACTORS
330
1A
102
}
100
AcDbPlotSettings
  1

  2
none_device
  4
ISO_A3_(420.00_x_297.00_MM)
  6

 40
0.0
 41
0.0
 42
0.0
 43
0.0
 44
420.0
 45
297.0
 46
0.0
 47
0.0
 48
0.0
 49
0.0
140
0.0
141
0.0
142
1.0
143
1.0
 70
0
 72
1
 73
0
 74
0
  7

 75
0
147
1.0
148
0.0
149
0.0
100
AcDbLayout
  1
Layout1
 70
0
 71
1
 10
0.0
 20
0.0
 11
420.0
 21
297.0
 12
0.0
 22
0.0
 32
0.0
 14
0.0
 24
0.0
 34
0.0
 15
0.0
 25
0.0
 35
0.0
146
0.0
 13
0.0
 23
0.0
 33
0.0
 16
1.0
 26
0.0
 36
0.0
 17
0.0
 27
1.0
 37
0.0
 76
0
330
210
345
0
346
0
  0
ENDSEC
  0
EOF
