999
DXF file: ish-6-dxf.dxf
999
Pro/ENGINEER 2010140 by Parametric Technology Corporation
  0
SECTION
  2
HEADER
  9
$ACADVER
  1
AC1021
  9
$DWGCODEPAGE
  3
ANSI_1252
  9
$EXTMAX
 10
420.0
 20
297.0
 30
0.0
  9
$EXTMIN
 10
0.0
 20
0.0
 30
0.0
  9
$LIMMIN
 10
0.0
 20
0.0
  9
$LIMMAX
 10
420.0
 20
297.0
  9
$VIEWCTR
 10
210.0
 20
148.5
  9
$VIEWSIZE
 40
297.0
  9
$CLAYER
  8
0
  9
$LTSCALE
 40
23.1
  9
$CELTYPE
  6
BYLAYER
  9
$DIMSCALE
 40
1.0
  9
$DIMASZ
 40
3.5
  9
$DIMEXO
 40
2.625
  9
$DIMDLI
 40
15.96
  9
$DIMEXE
 40
7.56
  9
$DIMCEN
 40
3.78
  9
$DIMLFAC
 40
1.0
  9
$DIMBLK
  1
_FILLED
  9
$DIMTXT
 40
3.5
  9
$DIMTOL
 70
1
  9
$DIMLIM
 70
0
  9
$DIMTFAC
 40
1.0
  9
$DIMTP
 40
0.005
  9
$DIMTM
 40
0.005
  9
$PDMODE
 70
3
  9
$PDSIZE
 40
0.3125
  9
$HANDSEED
  5
852
  9
$TILEMODE
 70
1
  9
$MEASUREMENT
 70
1
  9
$INSUNITS
 70
4
  0
ENDSEC
  0
SECTION
  2
CLASSES
  0
CLASS
  1
ACDBDICTIONARYWDFLT
  2
AcDbDictionaryWithDefault
  3
AutoCAD 2000
 90
0
 91
1
280
0
281
0
  0
CLASS
  1
ACDBPLACEHOLDER
  2
AcDbPlaceHolder
  3
AutoCAD 2000
 90
0
 91
1
280
0
281
0
  0
CLASS
  1
LAYOUT
  2
AcDbLayout
  3
AutoCAD 2000
 90
0
 91
0
280
0
281
0
  0
ENDSEC
  0
SECTION
  2
TABLES
  0
TABLE
  2
VPORT
  5
8
100
AcDbSymbolTable
 70
2
  0
VPORT
  5
1F4
100
AcDbSymbolTableRecord
100
AcDbViewportTableRecord
  2
*ACTIVE
 70
0
 10
0.0
 20
0.0
 11
1.0
 21
1.0
 12
210.0
 22
148.5
 13
0.0
 23
0.0
 14
1.0
 24
1.0
 15
0.0
 25
0.0
 16
0.0
 26
0.0
 36
1.0
 17
0.0
 27
0.0
 37
0.0
 40
297.0
 41
1.4141414141
 42
50.0
 43
0.0
 44
0.0
 50
0.0
 51
0.0
 71
0
 72
100
 73
1
 74
1
 75
0
 76
0
 77
0
 78
0
  0
ENDTAB
  0
TABLE
  2
LTYPE
  5
5
100
AcDbSymbolTable
 70
6
  0
LTYPE
  5
14
100
AcDbSymbolTableRecord
100
AcDbLinetypeTableRecord
  2
BYBLOCK
 70
0
  3

 72
65
 73
0
 40
0.0
  0
LTYPE
  5
15
100
AcDbSymbolTableRecord
100
AcDbLinetypeTableRecord
  2
BYLAYER
 70
0
  3

 72
65
 73
0
 40
0.0
  0
LTYPE
  5
16
100
AcDbSymbolTableRecord
100
AcDbLinetypeTableRecord
  2
CONTINUOUS
 70
64
  3
Solid line
 72
65
 73
0
 40
0.0
  0
LTYPE
  5
1F5
100
AcDbSymbolTableRecord
100
AcDbLinetypeTableRecord
  2
CENTER
 70
64
  3
____ _ ____ _ ____ _ ____ _ ____ _ ____ _ ____
 72
65
 73
4
 40
0.6
 49
0.375
 74
0
 49
-0.075
 74
0
 49
0.075
 74
0
 49
-0.075
 74
0
  0
LTYPE
  5
1F6
100
AcDbSymbolTableRecord
100
AcDbLinetypeTableRecord
  2
HIDDEN
 70
64
  3
- - - - - - - - - - - - - - - - - - - -
 72
65
 73
2
 40
0.2
 49
0.1
 74
0
 49
-0.1
 74
0
  0
LTYPE
  5
1F7
100
AcDbSymbolTableRecord
100
AcDbLinetypeTableRecord
  2
PHANTOM
 70
64
  3
_____ _ _ _____ _ _ _____ _ _ _____
 72
65
 73
6
 40
0.8
 49
0.45
 74
0
 49
-0.05
 74
0
 49
0.1
 74
0
 49
-0.05
 74
0
 49
0.1
 74
0
 49
-0.05
 74
0
  0
LTYPE
  5
1F8
100
AcDbSymbolTableRecord
100
AcDbLinetypeTableRecord
  2
DOT
 70
64
  3
. . . . . . . . . . . . . . . . . . . .
 72
65
 73
2
 40
0.2
 49
0.1
 74
0
 49
-0.1
 74
0
  0
LTYPE
  5
1F9
100
AcDbSymbolTableRecord
100
AcDbLinetypeTableRecord
  2
DASHED
 70
64
  3
- - - - - - - - - - - - - - - - - - - -
 72
65
 73
2
 40
0.2
 49
0.1
 74
0
 49
-0.1
 74
0
  0
ENDTAB
  0
TABLE
  2
LAYER
  5
2
100
AcDbSymbolTable
 70
36
  0
LAYER
  5
10
100
AcDbSymbolTableRecord
100
AcDbLayerTableRecord
  2
0
 70
0
 62
7
  6
CONTINUOUS
370
-3
390
F
  0
LAYER
  5
1FA
100
AcDbSymbolTableRecord
100
AcDbLayerTableRecord
  2
DEFAULT_1
 70
0
 62
7
  6
CENTER
370
-3
390
F
  0
LAYER
  5
1FB
100
AcDbSymbolTableRecord
100
AcDbLayerTableRecord
  2
DEFAULT_2
 70
0
 62
8
  6
HIDDEN
370
-3
390
F
  0
LAYER
  5
1FC
100
AcDbSymbolTableRecord
100
AcDbLayerTableRecord
  2
DEFAULT_3
 70
0
 62
7
  6
PHANTOM
370
-3
390
F
  0
LAYER
  5
1FD
100
AcDbSymbolTableRecord
100
AcDbLayerTableRecord
  2
AUSFORMSCHRAEGEN
 70
0
 62
7
  6
CONTINUOUS
370
-3
390
F
  0
LAYER
  5
1FE
100
AcDbSymbolTableRecord
100
AcDbLayerTableRecord
  2
BEZUGSACHSEN
 70
0
 62
7
  6
CONTINUOUS
370
-3
390
F
  0
LAYER
  5
1FF
100
AcDbSymbolTableRecord
100
AcDbLayerTableRecord
  2
BEZUGSEBENEN
 70
0
 62
7
  6
CONTINUOUS
370
-3
390
F
  0
LAYER
  5
200
100
AcDbSymbolTableRecord
100
AcDbLayerTableRecord
  2
BEZUGSPUNKTE
 70
0
 62
7
  6
CONTINUOUS
370
-3
390
F
  0
LAYER
  5
201
100
AcDbSymbolTableRecord
100
AcDbLayerTableRecord
  2
BG_STARTBEZUEGE
 70
0
 62
7
  6
CONTINUOUS
370
-3
390
F
  0
LAYER
  5
202
100
AcDbSymbolTableRecord
100
AcDbLayerTableRecord
  2
BOHRUNGEN
 70
0
 62
7
  6
CONTINUOUS
370
-3
390
F
  0
LAYER
  5
203
100
AcDbSymbolTableRecord
100
AcDbLayerTableRecord
  2
FASEN
 70
0
 62
7
  6
CONTINUOUS
370
-3
390
F
  0
LAYER
  5
204
100
AcDbSymbolTableRecord
100
AcDbLayerTableRecord
  2
FLAECHEN
 70
0
 62
7
  6
CONTINUOUS
370
-3
390
F
  0
LAYER
  5
205
100
AcDbSymbolTableRecord
100
AcDbLayerTableRecord
  2
FLAECHENVERBUND
 70
0
 62
7
  6
CONTINUOUS
370
-3
390
F
  0
LAYER
  5
206
100
AcDbSymbolTableRecord
100
AcDbLayerTableRecord
  2
HILFEN
 70
0
 62
7
  6
CONTINUOUS
370
-3
390
F
  0
LAYER
  5
207
100
AcDbSymbolTableRecord
100
AcDbLayerTableRecord
  2
KONSTRUKTIONSELEMENTE
 70
0
 62
7
  6
CONTINUOUS
370
-3
390
F
  0
LAYER
  5
208
100
AcDbSymbolTableRecord
100
AcDbLayerTableRecord
  2
KURVEN
 70
0
 62
7
  6
CONTINUOUS
370
-3
390
F
  0
LAYER
  5
209
100
AcDbSymbolTableRecord
100
AcDbLayerTableRecord
  2
PLATZIERUNG
 70
0
 62
7
  6
CONTINUOUS
370
-3
390
F
  0
LAYER
  5
20A
100
AcDbSymbolTableRecord
100
AcDbLayerTableRecord
  2
PLAZIERUNG
 70
0
 62
7
  6
CONTINUOUS
370
-3
390
F
  0
LAYER
  5
20B
100
AcDbSymbolTableRecord
100
AcDbLayerTableRecord
  2
RUNDUNGEN
 70
0
 62
7
  6
CONTINUOUS
370
-3
390
F
  0
LAYER
  5
20C
100
AcDbSymbolTableRecord
100
AcDbLayerTableRecord
  2
TEIL_STARTBEZUEGE
 70
0
 62
7
  6
CONTINUOUS
370
-3
390
F
  0
LAYER
  5
20D
100
AcDbSymbolTableRecord
100
AcDbLayerTableRecord
  2
XSEC_DATUMS
 70
0
 62
7
  6
CONTINUOUS
370
-3
390
F
  0
LAYER
  5
20E
100
AcDbSymbolTableRecord
100
AcDbLayerTableRecord
  2
ZEICHNUNGSBEMASSUNGEN
 70
0
 62
7
  6
CONTINUOUS
370
-3
390
F
  0
ENDTAB
  0
TABLE
  2
STYLE
  5
3
100
AcDbSymbolTable
 70
1
  0
STYLE
  5
11
100
AcDbSymbolTableRecord
100
AcDbTextStyleTableRecord
  2
STANDARD
 70
0
 40
0.0
 41
0.7
 50
0.0
 71
0
 42
0.2
  3
txt
  4

  0
STYLE
  5
20F
100
AcDbSymbolTableRecord
100
AcDbTextStyleTableRecord
  2
TEXTSTYLE_1
 70
0
 40
0.0
 41
0.8
 50
0.0
 71
0
 42
0.2
  3
gdt
  4

  0
ENDTAB
  0
TABLE
  2
VIEW
  5
6
100
AcDbSymbolTable
 70
0
  0
ENDTAB
  0
TABLE
  2
UCS
  5
7
100
AcDbSymbolTable
 70
0
  0
ENDTAB
  0
TABLE
  2
APPID
  5
9
100
AcDbSymbolTable
 70
1
  0
APPID
  5
210
100
AcDbSymbolTableRecord
100
AcDbRegAppTableRecord
  2
ACAD
 70
0
  0
ENDTAB
  0
TABLE
  2
BLOCK_RECORD
  5
1
100
AcDbSymbolTable
 70
0
  0
BLOCK_RECORD
  5
211
100
AcDbSymbolTableRecord
100
AcDbBlockTableRecord
  2
*Model_Space
  0
BLOCK_RECORD
  5
212
100
AcDbSymbolTableRecord
100
AcDbBlockTableRecord
  2
*Paper_Space
  0
ENDTAB
  0
TABLE
  2
DIMSTYLE
  5
A
100
AcDbSymbolTable
 70
1
100
AcDbDimStyleTable
 71
0
  0
DIMSTYLE
105
213
100
AcDbSymbolTableRecord
100
AcDbDimStyleTableRecord
  2
STANDARD
 70
0
  3

  4

 40
1.0
 41
3.5
 42
0.0625
 43
0.38
 44
0.18
 45
0.0
 46
0.0
 47
0.005
 48
0.005
140
3.5
141
0.09
142
0.0
143
25.4
144
1.0
145
0.0
146
1.0
147
0.09
 71
1.0
 72
0.0
 73
0
 74
0
 75
0
 76
0
 77
1
 78
8
170
0
171
2
172
0
173
0
174
0
175
0
176
0
177
0
178
5
270
2
271
3
272
3
273
2
274
2
275
0
280
0
281
0
282
0
283
1
284
8
285
0
286
0
287
3
288
0
340
11
  0
ENDTAB
  0
ENDSEC
  0
SECTION
  2
BLOCKS
  0
BLOCK
  5
20
100
AcDbEntity
  8
0
100
AcDbBlockBegin
  2
*Model_Space
 70
0
 10
0.0
 20
0.0
 30
0.0
  3
*Model_Space
  1

  0
ENDBLK
  5
21
100
AcDbEntity
  8
0
100
AcDbBlockEnd
  0
BLOCK
  5
1C
100
AcDbEntity
  8
0
100
AcDbBlockBegin
  2
*Paper_Space
 70
0
 10
0.0
 20
0.0
 30
0.0
  3
*Paper_Space
  1

  0
ENDBLK
  5
1D
100
AcDbEntity
  8
0
100
AcDbBlockEnd
  0
ENDSEC
  0
SECTION
  2
ENTITIES
  0
LINE
  5
214
100
AcDbEntity
  8
0
100
AcDbLine
 62
7
  6
CONTINUOUS
 10
0.0
 20
0.0
 11
0.0
 21
297.0
  0
LINE
  5
215
100
AcDbEntity
  8
0
100
AcDbLine
 62
7
  6
CONTINUOUS
 10
0.0
 20
0.0
 11
420.0
 21
0.0
  0
LINE
  5
216
100
AcDbEntity
  8
0
100
AcDbLine
 62
7
  6
CONTINUOUS
 10
0.0
 20
297.0
 11
420.0
 21
297.0
  0
LINE
  5
217
100
AcDbEntity
  8
0
100
AcDbLine
 62
7
  6
CONTINUOUS
 10
420.0
 20
0.0
 11
420.0
 21
297.0
  0
LINE
  5
218
100
AcDbEntity
  8
0
100
AcDbLine
 62
7
  6
CONTINUOUS
 10
92.1896382318
 20
83.4516389199
 11
91.9500084669
 21
83.5203996802
  0
LINE
  5
219
100
AcDbEntity
  8
0
100
AcDbLine
 62
7
  6
CONTINUOUS
 10
91.9818323884
 20
83.1225689516
 11
91.6073064994
 21
83.2516326203
  0
LINE
  5
21A
100
AcDbEntity
  8
0
100
AcDbLine
 62
7
  6
CONTINUOUS
 10
92.4736782019
 20
83.4781081347
 11
92.1896382318
 21
83.4516389199
  0
LINE
  5
21B
100
AcDbEntity
  8
0
100
AcDbLine
 62
7
  6
CONTINUOUS
 10
92.3706073735
 20
83.1405779374
 11
91.9818323884
 21
83.1225689516
  0
LINE
  5
21C
100
AcDbEntity
  8
0
100
AcDbLine
 62
7
  6
CONTINUOUS
 10
92.660584878
 20
85.0440551543
 11
92.4511175571
 21
85.0609708354
  0
LINE
  5
21D
100
AcDbEntity
  8
0
100
AcDbLine
 62
7
  6
CONTINUOUS
 10
92.9002146429
 20
84.975294394
 11
92.660584878
 21
85.0440551543
  0
LINE
  5
21E
100
AcDbEntity
  8
0
100
AcDbLine
 62
7
  6
CONTINUOUS
 10
93.2429165647
 20
85.2440614274
 11
92.7636570349
 21
85.381582948
  0
LINE
  5
21F
100
AcDbEntity
  8
0
100
AcDbLine
 62
7
  6
CONTINUOUS
 10
94.1679490015
 20
85.7128372286
 11
93.9283192366
 21
85.7815979889
  0
LINE
  5
220
100
AcDbEntity
  8
0
100
AcDbLine
 62
7
  6
CONTINUOUS
 10
88.0415971152
 20
90.7531141982
 11
87.8019672981
 21
90.8218749281
  0
LINE
  5
221
100
AcDbEntity
  8
0
100
AcDbLine
 62
7
  6
CONTINUOUS
 10
94.5106509233
 20
85.981604262
 11
94.1361250539
 21
86.110667942
  0
LINE
  5
222
100
AcDbEntity
  8
0
100
AcDbLine
 62
7
  6
CONTINUOUS
 10
87.6544842717
 20
90.3891183612
 11
87.3846934239
 21
90.5097218161
  0
LINE
  5
223
100
AcDbEntity
  8
0
100
AcDbLine
 62
7
  6
CONTINUOUS
 10
91.9500084669
 20
83.5203996802
 11
91.784951299
 21
83.632545306
  0
LINE
  5
224
100
AcDbEntity
  8
0
100
AcDbLine
 62
7
  6
CONTINUOUS
 10
93.0652718108
 20
84.8631487683
 11
92.9002146429
 21
84.975294394
  0
LINE
  5
225
100
AcDbEntity
  8
0
100
AcDbLine
 62
7
  6
CONTINUOUS
 10
94.3330061694
 20
85.6006916028
 11
94.1679490015
 21
85.7128372286
  0
LINE
  5
226
100
AcDbEntity
  8
0
100
AcDbLine
 62
7
  6
CONTINUOUS
 10
91.6073064994
 20
83.2516326203
 11
91.3819258175
 21
83.4674660275
  0
LINE
  5
227
100
AcDbEntity
  8
0
100
AcDbLine
 62
7
  6
CONTINUOUS
 10
92.8037925377
 20
83.2538168831
 11
92.3706073735
 21
83.1405779374
  0
LINE
  5
228
100
AcDbEntity
  8
0
100
AcDbLine
 62
7
  6
CONTINUOUS
 10
93.9283192366
 20
85.7815979889
 11
93.6442793187
 21
85.7551288045
  0
LINE
  5
229
100
AcDbEntity
  8
0
100
AcDbLine
 62
7
  6
CONTINUOUS
 10
94.1361250539
 20
86.110667942
 11
93.7473500949
 21
86.0926589714
  0
LINE
  5
22A
100
AcDbEntity
  8
0
100
AcDbLine
 62
7
  6
CONTINUOUS
 10
134.2615669765
 20
87.3457673409
 11
120.6681395506
 21
87.3457673409
  0
LINE
  5
22B
100
AcDbEntity
  8
0
100
AcDbLine
 62
7
  6
CONTINUOUS
 10
144.2866797437
 20
91.8613073409
 11
135.3864176736
 21
91.8613073409
  0
LINE
  5
22C
100
AcDbEntity
  8
0
100
AcDbLine
 62
7
  6
CONTINUOUS
 10
88.0734210106
 20
90.3552834544
 11
87.6544842717
 21
90.3891183612
  0
LINE
  5
22D
100
AcDbEntity
  8
0
100
AcDbLine
 62
7
  6
CONTINUOUS
 10
90.0182463292
 20
93.3602981107
 11
89.5993096164
 21
93.3941330327
  0
LINE
  5
22E
100
AcDbEntity
  8
0
100
AcDbLine
 62
7
  6
CONTINUOUS
 10
89.8707633289
 20
92.9275415589
 11
89.631133564
 21
92.9963023192
  0
LINE
  5
22F
100
AcDbEntity
  8
0
100
AcDbLine
 62
7
  6
CONTINUOUS
 10
84.723829748
 20
96.4558984816
 11
84.4841999309
 21
96.5246592115
  0
LINE
  5
230
100
AcDbEntity
  8
0
100
AcDbLine
 62
7
  6
CONTINUOUS
 10
90.2880378478
 20
93.2396934578
 11
90.0182463292
 21
93.3602981107
  0
LINE
  5
231
100
AcDbEntity
  8
0
100
AcDbLine
 62
7
  6
CONTINUOUS
 10
84.3367169046
 20
96.0919026446
 11
84.0669253663
 21
96.2125072861
  0
LINE
  5
232
100
AcDbEntity
  8
0
100
AcDbLine
 62
7
  6
CONTINUOUS
 10
86.8496241561
 20
99.149852125
 11
86.5798326374
 21
99.270456778
  0
LINE
  5
233
100
AcDbEntity
  8
0
100
AcDbLine
 62
7
  6
CONTINUOUS
 10
90.0358204968
 20
92.8153959332
 11
89.8707633289
 21
92.9275415589
  0
LINE
  5
234
100
AcDbEntity
  8
0
100
AcDbLine
 62
7
  6
CONTINUOUS
 10
87.8019672981
 20
90.8218749281
 11
87.6067483765
 21
90.9858644465
  0
LINE
  5
235
100
AcDbEntity
  8
0
100
AcDbLine
 62
7
  6
CONTINUOUS
 10
84.4841999309
 20
96.5246592115
 11
84.2889810093
 21
96.6886487299
  0
LINE
  5
236
100
AcDbEntity
  8
0
100
AcDbLine
 62
7
  6
CONTINUOUS
 10
90.4832560791
 20
93.075705126
 11
90.2880378478
 21
93.2396934578
  0
LINE
  5
237
100
AcDbEntity
  8
0
100
AcDbLine
 62
7
  6
CONTINUOUS
 10
81.1362704648
 20
102.2792879808
 11
80.9410518884
 21
102.4432769059
  0
LINE
  5
238
100
AcDbEntity
  8
0
100
AcDbLine
 62
7
  6
CONTINUOUS
 10
86.6275685588
 20
98.6737107078
 11
86.4323496372
 21
98.8377002262
  0
LINE
  5
239
100
AcDbEntity
  8
0
100
AcDbLine
 62
7
  6
CONTINUOUS
 10
79.6885175041
 20
104.7677755441
 11
79.4932987551
 21
104.9317647658
  0
LINE
  5
23A
100
AcDbEntity
  8
0
100
AcDbLine
 62
7
  6
CONTINUOUS
 10
87.3846934239
 20
90.5097218161
 11
87.159312742
 21
90.7255552233
  0
LINE
  5
23B
100
AcDbEntity
  8
0
100
AcDbLine
 62
7
  6
CONTINUOUS
 10
93.46829724
 20
85.0282280164
 11
93.2429165647
 21
85.2440614274
  0
LINE
  5
23C
100
AcDbEntity
  8
0
100
AcDbLine
 62
7
  6
CONTINUOUS
 10
94.7360315986
 20
85.765770851
 11
94.5106509233
 21
85.981604262
  0
LINE
  5
23D
100
AcDbEntity
  8
0
100
AcDbLine
 62
7
  6
CONTINUOUS
 10
84.0669253663
 20
96.2125072861
 11
83.8415453748
 21
96.4283395067
  0
LINE
  5
23E
100
AcDbEntity
  8
0
100
AcDbLine
 62
7
  6
CONTINUOUS
 10
80.4936162539
 20
102.1829676827
 11
80.7189965906
 21
101.9671348688
  0
LINE
  5
23F
100
AcDbEntity
  8
0
100
AcDbLine
 62
7
  6
CONTINUOUS
 10
79.0458631206
 20
104.6714555426
 11
79.2712432847
 21
104.4556230253
  0
LINE
  5
240
100
AcDbEntity
  8
0
100
AcDbLine
 62
7
  6
CONTINUOUS
 10
73.9637986625
 20
99.5419635367
 11
64.1257110296
 21
129.8204838817
  0
LINE
  5
241
100
AcDbEntity
  8
0
100
AcDbLine
 62
7
  6
CONTINUOUS
 10
93.7473500949
 20
86.0926589714
 11
93.314164774
 21
85.9794199345
  0
LINE
  5
242
100
AcDbEntity
  8
0
100
AcDbLine
 62
7
  6
CONTINUOUS
 10
88.4320342681
 20
90.425136348
 11
88.0734210106
 21
90.3552834544
  0
LINE
  5
243
100
AcDbEntity
  8
0
100
AcDbLine
 62
7
  6
CONTINUOUS
 10
88.3256377234
 20
90.779582196
 11
88.0415971152
 21
90.7531141982
  0
LINE
  5
244
100
AcDbEntity
  8
0
100
AcDbLine
 62
7
  6
CONTINUOUS
 10
84.7556536434
 20
96.0580677378
 11
84.3367169046
 21
96.0919026446
  0
LINE
  5
245
100
AcDbEntity
  8
0
100
AcDbLine
 62
7
  6
CONTINUOUS
 10
86.5798326374
 20
99.270456778
 11
86.1608959247
 21
99.3042916999
  0
LINE
  5
246
100
AcDbEntity
  8
0
100
AcDbLine
 62
7
  6
CONTINUOUS
 10
86.4323496372
 20
98.8377002262
 11
86.1927198723
 21
98.9064609865
  0
LINE
  5
247
100
AcDbEntity
  8
0
100
AcDbLine
 62
7
  6
CONTINUOUS
 10
81.375900282
 20
102.2105272509
 11
81.1362704648
 21
102.2792879808
  0
LINE
  5
248
100
AcDbEntity
  8
0
100
AcDbLine
 62
7
  6
CONTINUOUS
 10
79.9281473212
 20
104.6990148141
 11
79.6885175041
 21
104.7677755441
  0
LINE
  5
249
100
AcDbEntity
  8
0
100
AcDbLine
 62
7
  6
CONTINUOUS
 10
80.7189965906
 20
101.9671348688
 11
80.9887877837
 21
101.8465308206
  0
LINE
  5
24A
100
AcDbEntity
  8
0
100
AcDbLine
 62
7
  6
CONTINUOUS
 10
79.2712432847
 20
104.4556230253
 11
79.5410346503
 21
104.3350186805
  0
LINE
  5
24B
100
AcDbEntity
  8
0
100
AcDbLine
 62
7
  6
CONTINUOUS
 10
79.6450567166
 20
107.5875169125
 11
79.9148479763
 21
107.4669127046
  0
LINE
  5
24C
100
AcDbEntity
  8
0
100
AcDbLine
 62
7
  6
CONTINUOUS
 10
79.9877581206
 20
107.8562848358
 11
79.8227009527
 21
107.9684304616
  0
LINE
  5
24D
100
AcDbEntity
  8
0
100
AcDbLine
 62
7
  6
CONTINUOUS
 10
87.0750041411
 20
98.9340199006
 11
86.8496241561
 21
99.149852125
  0
LINE
  5
24E
100
AcDbEntity
  8
0
100
AcDbLine
 62
7
  6
CONTINUOUS
 10
77.0552025622
 20
108.0931263499
 11
77.2361717039
 21
107.7820653675
  0
LINE
  5
24F
100
AcDbEntity
  8
0
100
AcDbLine
 62
7
  6
CONTINUOUS
 10
77.9902097654
 20
106.4859779899
 11
78.2013404882
 21
106.1230734114
  0
LINE
  5
250
100
AcDbEntity
  8
0
100
AcDbLine
 62
7
  6
CONTINUOUS
 10
78.9252169686
 20
104.8788296298
 11
79.0458631206
 21
104.6714555426
  0
LINE
  5
251
100
AcDbEntity
  8
0
100
AcDbLine
 62
7
  6
CONTINUOUS
 10
79.7697396873
 20
103.4272116126
 11
80.4936162539
 21
102.1829676827
  0
LINE
  5
252
100
AcDbEntity
  8
0
100
AcDbLine
 62
7
  6
CONTINUOUS
 10
91.3819258175
 20
83.4674660275
 11
91.2311191199
 21
83.7266819307
  0
LINE
  5
253
100
AcDbEntity
  8
0
100
AcDbLine
 62
7
  6
CONTINUOUS
 10
89.0594894199
 20
87.4594137206
 11
88.8785202782
 21
87.7704747031
  0
LINE
  5
254
100
AcDbEntity
  8
0
100
AcDbLine
 62
7
  6
CONTINUOUS
 10
88.033997387
 20
89.2220930169
 11
87.8530282453
 21
89.5331539994
  0
LINE
  5
255
100
AcDbEntity
  8
0
100
AcDbLine
 62
7
  6
CONTINUOUS
 10
87.159312742
 20
90.7255552233
 11
86.9180207832
 21
91.1403028044
  0
LINE
  5
256
100
AcDbEntity
  8
0
100
AcDbLine
 62
7
  6
CONTINUOUS
 10
85.5909139744
 20
93.4214162804
 11
84.5050991244
 21
95.2877821754
  0
LINE
  5
257
100
AcDbEntity
  8
0
100
AcDbLine
 62
7
  6
CONTINUOUS
 10
83.8415453748
 20
96.4283395067
 11
83.5700916623
 21
96.8949309804
  0
LINE
  5
258
100
AcDbEntity
  8
0
100
AcDbLine
 62
7
  6
CONTINUOUS
 10
82.8462150956
 20
98.1391749104
 11
82.665245954
 21
98.4502358928
  0
LINE
  5
259
100
AcDbEntity
  8
0
100
AcDbLine
 62
7
  6
CONTINUOUS
 10
91.784951299
 20
83.632545306
 11
91.5738197133
 21
83.9954513677
  0
LINE
  5
25A
100
AcDbEntity
  8
0
100
AcDbLine
 62
7
  6
CONTINUOUS
 10
87.6067483765
 20
90.9858644465
 11
87.3654564177
 21
91.4006120276
  0
LINE
  5
25B
100
AcDbEntity
  8
0
100
AcDbLine
 62
7
  6
CONTINUOUS
 10
86.0383496089
 20
93.6817255037
 11
85.1335039005
 21
95.2370304161
  0
LINE
  5
25C
100
AcDbEntity
  8
0
100
AcDbLine
 62
7
  6
CONTINUOUS
 10
84.2889810093
 20
96.6886487299
 11
84.0175272968
 21
97.1552402036
  0
LINE
  5
25D
100
AcDbEntity
  8
0
100
AcDbLine
 62
7
  6
CONTINUOUS
 10
80.9410518884
 20
102.4432769059
 11
80.3981444634
 21
103.3764598534
  0
LINE
  5
25E
100
AcDbEntity
  8
0
100
AcDbLine
 62
7
  6
CONTINUOUS
 10
79.4932987551
 20
104.9317647658
 11
79.3726526031
 21
105.139138853
  0
LINE
  5
25F
100
AcDbEntity
  8
0
100
AcDbLine
 62
7
  6
CONTINUOUS
 10
85.1586777442
 20
96.2231493895
 11
84.9777086026
 21
96.534210372
  0
LINE
  5
260
100
AcDbEntity
  8
0
100
AcDbLine
 62
7
  6
CONTINUOUS
 10
87.6461726904
 20
92.1190536974
 11
87.4652035487
 21
92.4301146799
  0
LINE
  5
261
100
AcDbEntity
  8
0
100
AcDbLine
 62
7
  6
CONTINUOUS
 10
87.5222012878
 20
93.0184029095
 11
87.0999401873
 21
93.7442114731
  0
LINE
  5
262
100
AcDbEntity
  8
0
100
AcDbLine
 62
7
  6
CONTINUOUS
 10
78.8021964506
 20
108.6931476639
 11
79.3149423377
 21
107.8118082382
  0
LINE
  5
263
100
AcDbEntity
  8
0
100
AcDbLine
 62
7
  6
CONTINUOUS
 10
88.7253374888
 20
91.6366375197
 11
88.5443683471
 21
91.9476985022
  0
LINE
  5
264
100
AcDbEntity
  8
0
100
AcDbLine
 62
7
  6
CONTINUOUS
 10
90.519117622
 20
88.724941865
 11
89.6745947308
 21
90.1765601788
  0
LINE
  5
265
100
AcDbEntity
  8
0
100
AcDbLine
 62
7
  6
CONTINUOUS
 10
87.8950643774
 20
93.2353272976
 11
87.472803277
 21
93.9611358612
  0
LINE
  5
266
100
AcDbEntity
  8
0
100
AcDbLine
 62
7
  6
CONTINUOUS
 10
87.1108649937
 20
94.5832578262
 11
86.3266656099
 21
95.9311883548
  0
LINE
  5
267
100
AcDbEntity
  8
0
100
AcDbLine
 62
7
  6
CONTINUOUS
 10
93.2764033965
 20
84.5002427066
 11
93.0652718108
 21
84.8631487683
  0
LINE
  5
268
100
AcDbEntity
  8
0
100
AcDbLine
 62
7
  6
CONTINUOUS
 10
89.172773071
 20
91.8969467126
 11
88.9918039293
 21
92.208007695
  0
LINE
  5
269
100
AcDbEntity
  8
0
100
AcDbLine
 62
7
  6
CONTINUOUS
 10
79.8227009527
 20
107.9684304616
 11
79.2496320329
 21
108.9534568567
  0
LINE
  5
26A
100
AcDbEntity
  8
0
100
AcDbLine
 62
7
  6
CONTINUOUS
 10
90.9665532042
 20
88.9852510578
 11
90.122030313
 21
90.4368693716
  0
LINE
  5
26B
100
AcDbEntity
  8
0
100
AcDbLine
 62
7
  6
CONTINUOUS
 10
87.5583005759
 20
94.843567019
 11
86.7741011921
 21
96.1914975476
  0
LINE
  5
26C
100
AcDbEntity
  8
0
100
AcDbLine
 62
7
  6
CONTINUOUS
 10
93.6191039376
 20
84.7690121131
 11
93.46829724
 21
85.0282280164
  0
LINE
  5
26D
100
AcDbEntity
  8
0
100
AcDbLine
 62
7
  6
CONTINUOUS
 10
86.8738475806
 20
97.2210013561
 11
86.6928784389
 21
97.5320623386
  0
LINE
  5
26E
100
AcDbEntity
  8
0
100
AcDbLine
 62
7
  6
CONTINUOUS
 10
94.4586404562
 20
84.3553543833
 11
94.3078323779
 21
84.6145726598
  0
LINE
  5
26F
100
AcDbEntity
  8
0
100
AcDbLine
 62
7
  6
CONTINUOUS
 10
90.2058649366
 20
91.6652886584
 11
90.0248957949
 21
91.9763496408
  0
LINE
  5
270
100
AcDbEntity
  8
0
100
AcDbLine
 62
7
  6
CONTINUOUS
 10
83.0081857254
 20
104.8949303575
 11
83.5510931504
 21
103.9617474101
  0
LINE
  5
271
100
AcDbEntity
  8
0
100
AcDbLine
 62
7
  6
CONTINUOUS
 10
90.2167896385
 20
92.5043349507
 11
90.0358204968
 21
92.8153959332
  0
LINE
  5
272
100
AcDbEntity
  8
0
100
AcDbLine
 62
7
  6
CONTINUOUS
 10
88.6483908709
 20
95.2001960078
 11
87.7435451626
 21
96.7555009203
  0
LINE
  5
273
100
AcDbEntity
  8
0
100
AcDbLine
 62
7
  6
CONTINUOUS
 10
86.8990222713
 20
98.2071192341
 11
86.6275685588
 21
98.6737107078
  0
LINE
  5
274
100
AcDbEntity
  8
0
100
AcDbLine
 62
7
  6
CONTINUOUS
 10
80.3682211974
 20
109.6042299603
 11
80.9412901173
 21
108.6192035652
  0
LINE
  5
275
100
AcDbEntity
  8
0
100
AcDbLine
 62
7
  6
CONTINUOUS
 10
94.513975311
 20
85.2896306203
 11
94.3330061694
 21
85.6006916028
  0
LINE
  5
276
100
AcDbEntity
  8
0
100
AcDbLine
 62
7
  6
CONTINUOUS
 10
94.8566772329
 20
85.5583976537
 11
94.7360315986
 21
85.765770851
  0
LINE
  5
277
100
AcDbEntity
  8
0
100
AcDbLine
 62
7
  6
CONTINUOUS
 10
92.5644018986
 20
89.4985026408
 11
92.3834327569
 21
89.8095636233
  0
LINE
  5
278
100
AcDbEntity
  8
0
100
AcDbLine
 62
7
  6
CONTINUOUS
 10
91.5389098657
 20
91.2611819371
 11
91.357940724
 21
91.5722429196
  0
LINE
  5
279
100
AcDbEntity
  8
0
100
AcDbLine
 62
7
  6
CONTINUOUS
 10
90.6340641573
 20
92.8164868495
 11
90.4832560791
 21
93.075705126
  0
LINE
  5
27A
100
AcDbEntity
  8
0
100
AcDbLine
 62
7
  6
CONTINUOUS
 10
89.0958264531
 20
95.4605052007
 11
88.0100116031
 21
97.3268710956
  0
LINE
  5
27B
100
AcDbEntity
  8
0
100
AcDbLine
 62
7
  6
CONTINUOUS
 10
87.3464578536
 20
98.4674284269
 11
87.0750041411
 21
98.9340199006
  0
LINE
  5
27C
100
AcDbEntity
  8
0
100
AcDbLine
 62
7
  6
CONTINUOUS
 10
86.3511275744
 20
100.1782638306
 11
86.1701584327
 21
100.4893248131
  0
LINE
  5
27D
100
AcDbEntity
  8
0
100
AcDbLine
 62
7
  6
CONTINUOUS
 10
83.9985287327
 20
104.2220566029
 11
83.274652166
 21
105.4663005329
  0
LINE
  5
27E
100
AcDbEntity
  8
0
100
AcDbLine
 62
7
  6
CONTINUOUS
 10
83.0333600346
 20
105.8810484106
 11
82.852390893
 21
106.1921093931
  0
LINE
  5
27F
100
AcDbEntity
  8
0
100
AcDbLine
 62
7
  6
CONTINUOUS
 10
82.1285143263
 20
107.4363533231
 11
81.9475450983
 21
107.7474144539
  0
LINE
  5
280
100
AcDbEntity
  8
0
100
AcDbLine
 62
7
  6
CONTINUOUS
 10
81.2839916076
 20
108.8879713402
 11
80.5601150409
 21
110.1322152702
  0
LINE
  5
281
100
AcDbEntity
  8
0
100
AcDbLine
 62
7
  6
CONTINUOUS
 10
78.7126585481
 20
97.5832203499
 11
75.3273507814
 21
106.5094388294
  0
LINE
  5
282
100
AcDbEntity
  8
0
100
AcDbLine
 62
7
  6
CONTINUOUS
 10
71.5664663611
 20
146.2138056982
 11
73.27533034
 21
151.4731482333
  0
LINE
  5
283
100
AcDbEntity
  8
0
100
AcDbLine
 62
7
  6
CONTINUOUS
 10
73.5379947852
 20
152.2815462722
 11
75.1201617964
 21
157.1509556356
  0
LINE
  5
284
100
AcDbEntity
  8
0
100
AcDbLine
 62
7
  6
CONTINUOUS
 10
75.5157035492
 20
158.3683079765
 11
77.1256820899
 21
163.3233124264
  0
LINE
  5
285
100
AcDbEntity
  8
0
100
AcDbLine
 62
7
  6
CONTINUOUS
 10
68.9069013124
 20
136.410472143
 11
77.9633845601
 21
164.2834615392
  0
LINE
  5
286
100
AcDbEntity
  8
0
100
AcDbLine
 62
7
  6
CONTINUOUS
 10
86.1927198723
 20
98.9064609865
 11
85.9086790551
 21
98.8799928672
  0
LINE
  5
287
100
AcDbEntity
  8
0
100
AcDbLine
 62
7
  6
CONTINUOUS
 10
80.9887877837
 20
101.8465308206
 11
81.4077241773
 21
101.8126965071
  0
LINE
  5
288
100
AcDbEntity
  8
0
100
AcDbLine
 62
7
  6
CONTINUOUS
 10
79.5410346503
 20
104.3350186805
 11
79.9599712166
 21
104.3011840703
  0
LINE
  5
289
100
AcDbEntity
  8
0
100
AcDbLine
 62
7
  6
CONTINUOUS
 10
80.2611253519
 20
121.0936674539
 11
83.1830303363
 21
117.353799619
  0
LINE
  5
28A
100
AcDbEntity
  8
0
100
AcDbLine
 62
7
  6
CONTINUOUS
 10
98.0848312156
 20
83.6018314766
 11
81.6333872685
 21
109.6561863554
  0
LINE
  5
28B
100
AcDbEntity
  8
0
100
AcDbLine
 62
7
  6
CONTINUOUS
 10
106.9055721934
 20
77.4265973785
 11
102.5931805823
 21
84.2561852112
  0
LINE
  5
28C
100
AcDbEntity
  8
0
100
AcDbLine
 62
7
  6
CONTINUOUS
 10
76.4767695095
 20
119.4593739533
 11
78.7653514295
 21
115.4954337906
  0
LINE
  5
28D
100
AcDbEntity
  8
0
100
AcDbLine
 62
7
  6
CONTINUOUS
 10
78.8489820116
 20
105.1814318856
 11
78.9252169686
 21
104.8788296298
  0
LINE
  5
28E
100
AcDbEntity
  8
0
100
AcDbLine
 62
7
  6
CONTINUOUS
 10
83.5700916623
 20
96.8949309804
 11
83.493856878
 21
97.1975329396
  0
LINE
  5
28F
100
AcDbEntity
  8
0
100
AcDbLine
 62
7
  6
CONTINUOUS
 10
81.3602266574
 20
108.5853689399
 11
81.2839916076
 21
108.8879713402
  0
LINE
  5
290
100
AcDbEntity
  8
0
100
AcDbLine
 62
7
  6
CONTINUOUS
 10
79.3726526031
 20
105.139138853
 11
79.3265792207
 21
105.389897509
  0
LINE
  5
291
100
AcDbEntity
  8
0
100
AcDbLine
 62
7
  6
CONTINUOUS
 10
80.9412901173
 20
108.6192035652
 11
80.9572020911
 21
108.4202882085
  0
LINE
  5
292
100
AcDbEntity
  8
BEZUGSACHSEN
100
AcDbLine
 62
7
  6
CONTINUOUS
 10
78.7409125622
 20
193.7495680048
 11
78.7409125622
 21
195.8588203499
  0
LINE
  5
293
100
AcDbEntity
  8
RUNDUNGEN
100
AcDbLine
 62
7
  6
CONTINUOUS
 10
70.0741667919
 20
131.2948600306
 11
71.0929386566
 21
135.0969683912
  0
LINE
  5
294
100
AcDbEntity
  8
0
100
AcDbLine
 62
7
  6
CONTINUOUS
 10
70.6189932946
 20
131.9715455183
 11
71.5460442777
 21
134.8247150672
  0
LINE
  5
295
100
AcDbEntity
  8
0
100
AcDbLine
 62
7
  6
CONTINUOUS
 10
73.4721628435
 20
131.0444945352
 11
74.0901968322
 21
132.9466075678
  0
LINE
  5
296
100
AcDbEntity
  8
0
100
AcDbLine
 62
7
  6
CONTINUOUS
 10
86.1608959247
 20
99.3042916999
 11
85.8022827194
 21
99.2344388367
  0
LINE
  5
297
100
AcDbEntity
  8
0
100
AcDbLine
 62
7
  6
CONTINUOUS
 10
81.76633778
 20
101.8825488074
 11
81.4077241773
 21
101.8126965071
  0
LINE
  5
298
100
AcDbEntity
  8
0
100
AcDbLine
 62
7
  6
CONTINUOUS
 10
81.6599412354
 20
102.2369946554
 11
81.375900282
 21
102.2105272509
  0
LINE
  5
299
100
AcDbEntity
  8
0
100
AcDbLine
 62
7
  6
CONTINUOUS
 10
80.212188102
 20
104.7254825153
 11
79.9281473212
 21
104.6990148141
  0
LINE
  5
29A
100
AcDbEntity
  8
0
100
AcDbLine
 62
7
  6
CONTINUOUS
 10
79.9148479763
 20
107.4669127046
 11
80.3036229353
 21
107.4849216752
  0
LINE
  5
29B
100
AcDbEntity
  8
0
100
AcDbLine
 62
7
  6
CONTINUOUS
 10
80.1972263907
 20
107.8393675232
 11
79.9877581206
 21
107.8562848358
  0
LINE
  5
29C
100
AcDbEntity
  8
0
100
AcDbLine
 62
7
  6
CONTINUOUS
 10
83.7841727241
 20
117.8234635261
 11
80.5106745656
 21
122.0133501021
  0
LINE
  5
29D
100
AcDbEntity
  8
0
100
AcDbLine
 62
7
  6
CONTINUOUS
 10
86.9180207832
 20
91.1403028044
 11
86.8417859988
 21
91.4429047635
  0
LINE
  5
29E
100
AcDbEntity
  8
0
100
AcDbLine
 62
7
  6
CONTINUOUS
 10
84.0747638687
 20
103.9194540543
 11
83.9985287327
 21
104.2220566029
  0
LINE
  5
29F
100
AcDbEntity
  8
0
100
AcDbLine
 62
7
  6
CONTINUOUS
 10
87.4226926445
 20
98.1648264716
 11
87.3464578536
 21
98.4674284269
  0
LINE
  5
2A0
100
AcDbEntity
  8
0
100
AcDbLine
 62
7
  6
CONTINUOUS
 10
91.2311191199
 20
83.7266819307
 11
91.1548836452
 21
84.0292850765
  0
LINE
  5
2A1
100
AcDbEntity
  8
0
100
AcDbLine
 62
7
  6
CONTINUOUS
 10
89.2490085522
 20
91.5943435706
 11
89.172773071
 21
91.8969467126
  0
LINE
  5
2A2
100
AcDbEntity
  8
0
100
AcDbLine
 62
7
  6
CONTINUOUS
 10
90.7102989482
 20
92.5138848942
 11
90.6340641573
 21
92.8164868495
  0
LINE
  5
2A3
100
AcDbEntity
  8
0
100
AcDbLine
 62
7
  6
CONTINUOUS
 10
93.6953394189
 20
84.4664089712
 11
93.6191039376
 21
84.7690121131
  0
LINE
  5
2A4
100
AcDbEntity
  8
0
100
AcDbLine
 62
7
  6
CONTINUOUS
 10
84.0175272968
 20
97.1552402036
 11
83.9714535693
 21
97.405999453
  0
LINE
  5
2A5
100
AcDbEntity
  8
0
100
AcDbLine
 62
7
  6
CONTINUOUS
 10
83.5510931504
 20
103.9617474101
 11
83.5971665328
 21
103.7109887541
  0
LINE
  5
2A6
100
AcDbEntity
  8
0
100
AcDbLine
 62
7
  6
CONTINUOUS
 10
87.3654564177
 20
91.4006120276
 11
87.3193826902
 21
91.6513712769
  0
LINE
  5
2A7
100
AcDbEntity
  8
0
100
AcDbLine
 62
7
  6
CONTINUOUS
 10
86.9450959988
 20
97.9563599847
 11
86.8990222713
 21
98.2071192341
  0
LINE
  5
2A8
100
AcDbEntity
  8
0
100
AcDbLine
 62
7
  6
CONTINUOUS
 10
88.5443683471
 20
91.9476985022
 11
88.4982953099
 21
92.1984565649
  0
LINE
  5
2A9
100
AcDbEntity
  8
0
100
AcDbLine
 62
7
  6
CONTINUOUS
 10
88.7714112163
 20
91.3858782704
 11
88.7253374888
 21
91.6366375197
  0
LINE
  5
2AA
100
AcDbEntity
  8
0
100
AcDbLine
 62
7
  6
CONTINUOUS
 10
88.9918039293
 20
92.208007695
 11
88.9758919555
 21
92.4069230518
  0
LINE
  5
2AB
100
AcDbEntity
  8
0
100
AcDbLine
 62
7
  6
CONTINUOUS
 10
78.8774810733
 20
105.4755757151
 11
78.8489820116
 21
105.1814318856
  0
LINE
  5
2AC
100
AcDbEntity
  8
0
100
AcDbLine
 62
7
  6
CONTINUOUS
 10
74.0901968322
 20
132.9466075678
 11
97.5830843742
 21
173.5918068649
  0
LINE
  5
2AD
100
AcDbEntity
  8
0
100
AcDbLine
 62
7
  6
CONTINUOUS
 10
79.9599712166
 20
104.3011840703
 11
80.3185846467
 21
104.3710366673
  0
LINE
  5
2AE
100
AcDbEntity
  8
0
100
AcDbLine
 62
7
  6
CONTINUOUS
 10
68.9069013124
 20
136.410472143
 11
71.5460442777
 21
134.8247150672
  0
LINE
  5
2AF
100
AcDbEntity
  8
0
100
AcDbLine
 62
7
  6
CONTINUOUS
 10
94.9329127141
 20
85.2557945118
 11
94.8566772329
 21
85.5583976537
  0
LINE
  5
2B0
100
AcDbEntity
  8
0
100
AcDbLine
 62
7
  6
CONTINUOUS
 10
90.2327016123
 20
92.305419594
 11
90.2167896385
 21
92.5043349507
  0
LINE
  5
2B1
100
AcDbEntity
  8
0
100
AcDbLine
 62
7
  6
CONTINUOUS
 10
91.5738197133
 20
83.9954513677
 11
91.5579077395
 21
84.1943667244
  0
LINE
  5
2B2
100
AcDbEntity
  8
0
100
AcDbLine
 62
7
  6
CONTINUOUS
 10
93.2923153703
 20
84.3013273498
 11
93.2764033965
 21
84.5002427066
  0
LINE
  5
2B3
100
AcDbEntity
  8
0
100
AcDbLine
 62
7
  6
CONTINUOUS
 10
94.5298872848
 20
85.0907152636
 11
94.513975311
 21
85.2896306203
  0
LINE
  5
2B4
100
AcDbEntity
  8
0
100
AcDbLine
 62
7
  6
CONTINUOUS
 10
84.046264654
 20
103.6253105328
 11
84.0747638687
 21
103.9194540543
  0
LINE
  5
2B5
100
AcDbEntity
  8
0
100
AcDbLine
 62
7
  6
CONTINUOUS
 10
83.493856878
 20
97.1975329396
 11
83.5223557671
 21
97.4916770657
  0
LINE
  5
2B6
100
AcDbEntity
  8
0
100
AcDbLine
 62
7
  6
CONTINUOUS
 10
79.3265792207
 20
105.389897509
 11
79.3852398962
 21
105.6321977616
  0
LINE
  5
2B7
100
AcDbEntity
  8
0
100
AcDbLine
 62
7
  6
CONTINUOUS
 10
80.2849595468
 20
121.170970184
 11
80.5106745656
 21
122.0133501021
  0
LINE
  5
2B8
100
AcDbEntity
  8
0
100
AcDbLine
 62
7
  6
CONTINUOUS
 10
156.9093218966
 20
117.1094777899
 11
145.8478426166
 21
117.1094777899
  0
LINE
  5
2B9
100
AcDbEntity
  8
0
100
AcDbLine
 62
7
  6
CONTINUOUS
 10
76.4767695095
 20
119.4593739533
 11
81.0539333495
 21
119.4593739533
  0
LINE
  5
2BA
100
AcDbEntity
  8
BEZUGSACHSEN
100
AcDbLine
 62
2
  6
CENTER
 10
110.1726125622
 20
120.1609203499
 11
110.0387818816
 21
120.1609203499
  0
LINE
  5
2BB
100
AcDbEntity
  8
AUSFORMSCHRAEGEN
100
AcDbLine
 62
7
  6
CONTINUOUS
 10
82.7333367269
 20
127.9028456696
 11
70.0741667919
 21
131.2948600306
  0
LINE
  5
2BC
100
AcDbEntity
  8
0
100
AcDbLine
 62
7
  6
CONTINUOUS
 10
73.4721628435
 20
131.0444945352
 11
70.6189932946
 21
131.9715455183
  0
LINE
  5
2BD
100
AcDbEntity
  8
BEZUGSACHSEN
100
AcDbLine
 62
2
  6
CENTER
 10
96.4166125622
 20
200.4359203499
 11
96.4166125622
 21
195.5359203499
  0
LINE
  5
2BE
100
AcDbEntity
  8
BEZUGSACHSEN
100
AcDbLine
 62
2
  6
CENTER
 10
96.4166125622
 20
200.4359203499
 11
96.4166125622
 21
205.3359203499
  0
LINE
  5
2BF
100
AcDbEntity
  8
0
100
AcDbLine
 62
7
  6
CONTINUOUS
 10
87.3941937749
 20
97.8706823568
 11
87.4226926445
 21
98.1648264716
  0
LINE
  5
2C0
100
AcDbEntity
  8
0
100
AcDbLine
 62
7
  6
CONTINUOUS
 10
88.4982953099
 20
92.1984565649
 11
88.5267941794
 21
92.4926006797
  0
LINE
  5
2C1
100
AcDbEntity
  8
0
100
AcDbLine
 62
7
  6
CONTINUOUS
 10
89.2205089924
 20
91.3002006424
 11
89.2490085522
 21
91.5943435706
  0
LINE
  5
2C2
100
AcDbEntity
  8
0
100
AcDbLine
 62
7
  6
CONTINUOUS
 10
86.8417859988
 20
91.4429047635
 11
86.9146957313
 21
91.8322776478
  0
LINE
  5
2C3
100
AcDbEntity
  8
0
100
AcDbLine
 62
7
  6
CONTINUOUS
 10
83.5971665328
 20
103.7109887541
 11
83.5385059095
 21
103.4686885319
  0
LINE
  5
2C4
100
AcDbEntity
  8
0
100
AcDbLine
 62
7
  6
CONTINUOUS
 10
83.9714535693
 20
97.405999453
 11
84.0301142447
 21
97.6482997055
  0
LINE
  5
2C5
100
AcDbEntity
  8
0
100
AcDbLine
 62
7
  6
CONTINUOUS
 10
81.257154932
 20
108.2478404046
 11
81.3602266574
 21
108.5853689399
  0
LINE
  5
2C6
100
AcDbEntity
  8
0
100
AcDbLine
 62
7
  6
CONTINUOUS
 10
78.7653514295
 20
115.4954337906
 11
81.0539333495
 21
119.4593739533
  0
LINE
  5
2C7
100
AcDbEntity
  8
0
100
AcDbLine
 62
7
  6
CONTINUOUS
 10
68.1193654249
 20
140.224309275
 11
68.424005109
 21
140.4001930787
  0
LINE
  5
2C8
100
AcDbEntity
  8
0
100
AcDbLine
 62
7
  6
CONTINUOUS
 10
146.385696284
 20
123.2123629099
 11
155.6948940611
 21
123.2123629099
  0
LINE
  5
2C9
100
AcDbEntity
  8
0
100
AcDbLine
 62
7
  6
CONTINUOUS
 10
91.1548836452
 20
84.0292850765
 11
91.2277933776
 21
84.4186579608
  0
LINE
  5
2CA
100
AcDbEntity
  8
0
100
AcDbLine
 62
7
  6
CONTINUOUS
 10
86.8864353756
 20
97.7140597626
 11
86.9450959988
 21
97.9563599847
  0
LINE
  5
2CB
100
AcDbEntity
  8
0
100
AcDbLine
 62
7
  6
CONTINUOUS
 10
88.9758919555
 20
92.4069230518
 11
89.0345525788
 21
92.6492232739
  0
LINE
  5
2CC
100
AcDbEntity
  8
0
100
AcDbLine
 62
7
  6
CONTINUOUS
 10
88.712750593
 20
91.1435780482
 11
88.7714112163
 21
91.3858782704
  0
LINE
  5
2CD
100
AcDbEntity
  8
0
100
AcDbLine
 62
7
  6
CONTINUOUS
 10
80.9572020911
 20
108.4202882085
 11
80.868379973
 21
108.229831434
  0
LINE
  5
2CE
100
AcDbEntity
  8
0
100
AcDbLine
 62
7
  6
CONTINUOUS
 10
79.0551255082
 20
105.8564889828
 11
78.8774810733
 21
105.4755757151
  0
LINE
  5
2CF
100
AcDbEntity
  8
0
100
AcDbLine
 62
7
  6
CONTINUOUS
 10
106.4726125622
 20
191.5940203499
 11
106.4726125622
 21
195.9158203499
  0
LINE
  5
2D0
100
AcDbEntity
  8
0
100
AcDbLine
 62
7
  6
CONTINUOUS
 10
106.4726125622
 20
206.6318203499
 11
106.4726125622
 21
209.856184779
  0
LINE
  5
2D1
100
AcDbEntity
  8
0
100
AcDbLine
 62
7
  6
CONTINUOUS
 10
93.622429706
 20
84.0770360983
 11
93.6953394189
 21
84.4664089712
  0
LINE
  5
2D2
100
AcDbEntity
  8
0
100
AcDbLine
 62
7
  6
CONTINUOUS
 10
94.8600016206
 20
84.8664240121
 11
94.9329127141
 21
85.2557945118
  0
LINE
  5
2D3
100
AcDbEntity
  8
0
100
AcDbLine
 62
7
  6
CONTINUOUS
 10
91.5579077395
 20
84.1943667244
 11
91.6165683627
 21
84.4366669466
  0
LINE
  5
2D4
100
AcDbEntity
  8
0
100
AcDbLine
 62
7
  6
CONTINUOUS
 10
93.233654747
 20
84.0590271277
 11
93.2923153703
 21
84.3013273498
  0
LINE
  5
2D5
100
AcDbEntity
  8
0
100
AcDbLine
 62
7
  6
CONTINUOUS
 10
94.4712266616
 20
84.8484150414
 11
94.5298872848
 21
85.0907152636
  0
LINE
  5
2D6
100
AcDbEntity
  8
0
100
AcDbLine
 62
7
  6
CONTINUOUS
 10
90.6072274817
 20
92.1763559139
 11
90.7102989482
 21
92.5138848942
  0
LINE
  5
2D7
100
AcDbEntity
  8
0
100
AcDbLine
 62
7
  6
CONTINUOUS
 10
83.5223557671
 20
97.4916770657
 11
83.6999998568
 21
97.8725909267
  0
LINE
  5
2D8
100
AcDbEntity
  8
0
100
AcDbLine
 62
7
  6
CONTINUOUS
 10
87.2165497113
 20
97.489768511
 11
87.3941937749
 21
97.8706823568
  0
LINE
  5
2D9
100
AcDbEntity
  8
0
100
AcDbLine
 62
7
  6
CONTINUOUS
 10
83.8686202453
 20
103.2443972803
 11
84.046264654
 21
103.6253105328
  0
LINE
  5
2DA
100
AcDbEntity
  8
0
100
AcDbLine
 62
7
  6
CONTINUOUS
 10
81.0493491146
 20
107.9187704515
 11
81.257154932
 21
108.2478404046
  0
LINE
  5
2DB
100
AcDbEntity
  8
0
100
AcDbLine
 62
7
  6
CONTINUOUS
 10
79.3852398962
 20
105.6321977616
 11
79.548634525
 21
105.8660395499
  0
LINE
  5
2DC
100
AcDbEntity
  8
0
100
AcDbLine
 62
7
  6
CONTINUOUS
 10
72.0419946192
 20
146.059297201
 11
71.5664663611
 21
146.2138056982
  0
LINE
  5
2DD
100
AcDbEntity
  8
0
100
AcDbLine
 62
7
  6
CONTINUOUS
 10
72.3695526333
 20
147.0674171083
 11
71.8940243751
 21
147.2219256055
  0
LINE
  5
2DE
100
AcDbEntity
  8
0
100
AcDbLine
 62
7
  6
CONTINUOUS
 10
73.372627183
 20
150.1545631365
 11
72.8970989248
 21
150.3090716337
  0
LINE
  5
2DF
100
AcDbEntity
  8
BEZUGSACHSEN
100
AcDbLine
 62
2
  6
CENTER
 10
110.1726125622
 20
120.1609203499
 11
110.1726125622
 21
71.7107435317
  0
LINE
  5
2E0
100
AcDbEntity
  8
BEZUGSACHSEN
100
AcDbLine
 62
2
  6
CENTER
 10
110.1726125622
 20
120.1609203499
 11
110.1726125622
 21
211.2799743009
  0
LINE
  5
2E1
100
AcDbEntity
  8
0
100
AcDbLine
 62
7
  6
CONTINUOUS
 10
113.8726125622
 20
209.856184779
 11
113.8726125622
 21
206.6318203499
  0
LINE
  5
2E2
100
AcDbEntity
  8
0
100
AcDbLine
 62
7
  6
CONTINUOUS
 10
113.8726125622
 20
195.9158203499
 11
113.8726125622
 21
191.5940203499
  0
LINE
  5
2E3
100
AcDbEntity
  8
0
100
AcDbLine
 62
7
  6
CONTINUOUS
 10
117.6000805301
 20
170.0347127176
 11
120.9661072852
 21
181.5158795482
  0
LINE
  5
2E4
100
AcDbEntity
  8
0
100
AcDbLine
 62
7
  6
CONTINUOUS
 10
87.3193826902
 20
91.6513712769
 11
87.4526159627
 21
91.937056395
  0
LINE
  5
2E5
100
AcDbEntity
  8
0
100
AcDbLine
 62
7
  6
CONTINUOUS
 10
88.5267941794
 20
92.4926006797
 11
88.704438243
 21
92.8735145255
  0
LINE
  5
2E6
100
AcDbEntity
  8
0
100
AcDbLine
 62
7
  6
CONTINUOUS
 10
89.0428649288
 20
90.9192867967
 11
89.2205089924
 21
91.3002006424
  0
LINE
  5
2E7
100
AcDbEntity
  8
0
100
AcDbLine
 62
7
  6
CONTINUOUS
 10
90.1438799256
 20
92.1149620778
 11
90.2327016123
 21
92.305419594
  0
LINE
  5
2E8
100
AcDbEntity
  8
0
100
AcDbLine
 62
7
  6
CONTINUOUS
 10
83.5385059095
 20
103.4686885319
 11
83.3751110718
 21
103.234846622
  0
LINE
  5
2E9
100
AcDbEntity
  8
0
100
AcDbLine
 62
7
  6
CONTINUOUS
 10
79.2930928726
 20
106.1337155186
 11
79.0551255082
 21
105.8564889828
  0
LINE
  5
2EA
100
AcDbEntity
  8
0
100
AcDbLine
 62
7
  6
CONTINUOUS
 10
78.2013404882
 20
106.1230734114
 11
79.6450567166
 21
107.5875169125
  0
LINE
  5
2EB
100
AcDbEntity
  8
0
100
AcDbLine
 62
7
  6
CONTINUOUS
 10
79.3149423377
 20
107.8118082382
 11
77.9902097654
 21
106.4859779899
  0
LINE
  5
2EC
100
AcDbEntity
  8
0
100
AcDbLine
 62
7
  6
CONTINUOUS
 10
120.8056085688
 20
147.8980610485
 11
120.2044661809
 21
147.4283971414
  0
LINE
  5
2ED
100
AcDbEntity
  8
0
100
AcDbLine
 62
7
  6
CONTINUOUS
 10
73.7508585981
 20
151.3186397361
 11
73.27533034
 21
151.4731482333
  0
LINE
  5
2EE
100
AcDbEntity
  8
0
100
AcDbLine
 62
7
  6
CONTINUOUS
 10
74.0135230433
 20
152.127037775
 11
73.5379947852
 21
152.2815462722
  0
LINE
  5
2EF
100
AcDbEntity
  8
0
100
AcDbLine
 62
7
  6
CONTINUOUS
 10
130.0941125622
 20
190.9929203499
 11
127.0036598857
 21
179.4591939428
  0
LINE
  5
2F0
100
AcDbEntity
  8
0
100
AcDbLine
 62
7
  6
CONTINUOUS
 10
93.4891964858
 20
83.7913510106
 11
93.622429706
 21
84.0770360983
  0
LINE
  5
2F1
100
AcDbEntity
  8
0
100
AcDbLine
 62
7
  6
CONTINUOUS
 10
93.1448316797
 20
83.8685719847
 11
93.233654747
 21
84.0590271277
  0
LINE
  5
2F2
100
AcDbEntity
  8
0
100
AcDbLine
 62
7
  6
CONTINUOUS
 10
84.0301142447
 20
97.6482997055
 11
84.1935092188
 21
97.8821409006
  0
LINE
  5
2F3
100
AcDbEntity
  8
0
100
AcDbLine
 62
7
  6
CONTINUOUS
 10
83.6306530194
 20
102.9671706265
 11
83.8686202453
 21
103.2443972803
  0
LINE
  5
2F4
100
AcDbEntity
  8
0
100
AcDbLine
 62
7
  6
CONTINUOUS
 10
83.6999998568
 20
97.8725909267
 11
83.9379674801
 21
98.1498170176
  0
LINE
  5
2F5
100
AcDbEntity
  8
0
100
AcDbLine
 62
7
  6
CONTINUOUS
 10
80.868379973
 20
108.229831434
 11
80.6748236767
 21
108.0478333899
  0
LINE
  5
2F6
100
AcDbEntity
  8
0
100
AcDbLine
 62
7
  6
CONTINUOUS
 10
80.8557928184
 20
107.7367724074
 11
81.0493491146
 21
107.9187704515
  0
LINE
  5
2F7
100
AcDbEntity
  8
0
100
AcDbLine
 62
7
  6
CONTINUOUS
 10
79.548634525
 20
105.8660395499
 11
79.8167635046
 21
106.0914223111
  0
LINE
  5
2F8
100
AcDbEntity
  8
0
100
AcDbLine
 62
7
  6
CONTINUOUS
 10
83.1830303363
 20
117.353799619
 11
83.7841727241
 21
117.8234635261
  0
LINE
  5
2F9
100
AcDbEntity
  8
0
100
AcDbLine
 62
7
  6
CONTINUOUS
 10
123.9617774377
 20
142.6192580388
 11
124.5629198255
 21
143.0889219459
  0
LINE
  5
2FA
100
AcDbEntity
  8
0
100
AcDbLine
 62
7
  6
CONTINUOUS
 10
122.984835391
 20
145.7283234507
 11
127.5174545872
 21
146.365341536
  0
LINE
  5
2FB
100
AcDbEntity
  8
0
100
AcDbLine
 62
7
  6
CONTINUOUS
 10
75.5956900545
 20
156.9964471384
 11
75.1201617964
 21
157.1509556356
  0
LINE
  5
2FC
100
AcDbEntity
  8
0
100
AcDbLine
 62
7
  6
CONTINUOUS
 10
75.9912318073
 20
158.2137994793
 11
75.5157035492
 21
158.3683079765
  0
LINE
  5
2FD
100
AcDbEntity
  8
0
100
AcDbLine
 62
7
  6
CONTINUOUS
 10
126.9175258721
 20
133.243480436
 11
97.8564649431
 21
170.4399421947
  0
LINE
  5
2FE
100
AcDbEntity
  8
0
100
AcDbLine
 62
7
  6
CONTINUOUS
 10
98.8731346542
 20
183.6671607814
 11
117.8194456756
 21
146.4829317301
  0
LINE
  5
2FF
100
AcDbEntity
  8
0
100
AcDbLine
 62
7
  6
CONTINUOUS
 10
124.6994711446
 20
149.9721958629
 11
122.984835391
 21
145.7283234507
  0
LINE
  5
300
100
AcDbEntity
  8
0
100
AcDbLine
 62
7
  6
CONTINUOUS
 10
90.3994216644
 20
91.8472859608
 11
90.6072274817
 21
92.1763559139
  0
LINE
  5
301
100
AcDbEntity
  8
0
100
AcDbLine
 62
7
  6
CONTINUOUS
 10
91.2277933776
 20
84.4186579608
 11
91.4355992211
 21
84.7477279291
  0
LINE
  5
302
100
AcDbEntity
  8
0
100
AcDbLine
 62
7
  6
CONTINUOUS
 10
88.5493555146
 20
90.9097367924
 11
88.712750593
 21
91.1435780482
  0
LINE
  5
303
100
AcDbEntity
  8
0
100
AcDbLine
 62
7
  6
CONTINUOUS
 10
86.9146957313
 20
91.8322776478
 11
87.197074224
 21
92.204732512
  0
LINE
  5
304
100
AcDbEntity
  8
0
100
AcDbLine
 62
7
  6
CONTINUOUS
 10
83.3751110718
 20
103.234846622
 11
83.1069820922
 21
103.0094638608
  0
LINE
  5
305
100
AcDbEntity
  8
0
100
AcDbLine
 62
7
  6
CONTINUOUS
 10
79.6357942767
 20
106.402483442
 11
79.2930928726
 21
106.1337155186
  0
LINE
  5
306
100
AcDbEntity
  8
0
100
AcDbLine
 62
7
  6
CONTINUOUS
 10
80.5601150409
 20
110.1322152702
 11
77.0552025622
 21
108.0931263499
  0
LINE
  5
307
100
AcDbEntity
  8
0
100
AcDbLine
 62
7
  6
CONTINUOUS
 10
77.2361717039
 20
107.7820653675
 11
78.8021964506
 21
108.6931476639
  0
LINE
  5
308
100
AcDbEntity
  8
0
100
AcDbLine
 62
7
  6
CONTINUOUS
 10
79.2496320329
 20
108.9534568567
 11
80.3682211974
 21
109.6042299603
  0
LINE
  5
309
100
AcDbEntity
  8
0
100
AcDbLine
 62
7
  6
CONTINUOUS
 10
77.601210348
 20
163.1688039292
 11
77.1256820899
 21
163.3233124264
  0
LINE
  5
30A
100
AcDbEntity
  8
0
100
AcDbLine
 62
7
  6
CONTINUOUS
 10
120.2044661809
 20
147.4283971414
 11
123.9617774377
 21
142.6192580388
  0
LINE
  5
30B
100
AcDbEntity
  8
0
100
AcDbLine
 62
7
  6
CONTINUOUS
 10
124.5629198255
 20
143.0889219459
 11
120.8056085688
 21
147.8980610485
  0
LINE
  5
30C
100
AcDbEntity
  8
0
100
AcDbLine
 62
7
  6
CONTINUOUS
 10
107.9830010327
 20
178.8032711874
 11
112.6844750327
 21
169.5761089236
  0
LINE
  5
30D
100
AcDbEntity
  8
0
100
AcDbLine
 62
7
  6
CONTINUOUS
 10
130.0941125622
 20
207.3728203499
 11
130.0941125622
 21
190.9929203499
  0
LINE
  5
30E
100
AcDbEntity
  8
0
100
AcDbLine
 62
7
  6
CONTINUOUS
 10
94.8600016206
 20
84.8664240121
 11
94.6521958033
 21
84.5373540589
  0
LINE
  5
30F
100
AcDbEntity
  8
0
100
AcDbLine
 62
7
  6
CONTINUOUS
 10
91.7799640793
 20
84.6705069854
 11
91.6165683627
 21
84.4366669466
  0
LINE
  5
310
100
AcDbEntity
  8
0
100
AcDbLine
 62
7
  6
CONTINUOUS
 10
94.4712266616
 20
84.8484150414
 11
94.3078323779
 21
84.6145726598
  0
LINE
  5
311
100
AcDbEntity
  8
0
100
AcDbLine
 62
7
  6
CONTINUOUS
 10
88.8048972533
 20
90.6420606754
 11
89.0428649288
 21
90.9192867967
  0
LINE
  5
312
100
AcDbEntity
  8
0
100
AcDbLine
 62
7
  6
CONTINUOUS
 10
90.0248957949
 20
91.9763496408
 11
90.1438799256
 21
92.1149620778
  0
LINE
  5
313
100
AcDbEntity
  8
0
100
AcDbLine
 62
7
  6
CONTINUOUS
 10
86.6928784389
 20
97.5320623386
 11
86.8864353756
 21
97.7140597626
  0
LINE
  5
314
100
AcDbEntity
  8
0
100
AcDbLine
 62
7
  6
CONTINUOUS
 10
84.1935092188
 20
97.8821409006
 11
84.4616378532
 21
98.1075242551
  0
LINE
  5
315
100
AcDbEntity
  8
0
100
AcDbLine
 62
7
  6
CONTINUOUS
 10
83.2879512338
 20
102.6984028783
 11
83.6306530194
 21
102.9671706265
  0
LINE
  5
316
100
AcDbEntity
  8
0
100
AcDbLine
 62
7
  6
CONTINUOUS
 10
83.9379674801
 20
98.1498170176
 11
84.2806687115
 21
98.4185852376
  0
LINE
  5
317
100
AcDbEntity
  8
0
100
AcDbLine
 62
7
  6
CONTINUOUS
 10
80.6748236767
 20
108.0478333899
 11
80.4511056767
 21
107.917678672
  0
LINE
  5
318
100
AcDbEntity
  8
0
100
AcDbLine
 62
7
  6
CONTINUOUS
 10
80.5575022213
 20
107.563232824
 11
80.8557928184
 21
107.7367724074
  0
LINE
  5
319
100
AcDbEntity
  8
0
100
AcDbLine
 62
7
  6
CONTINUOUS
 10
81.9475450983
 20
107.7474144539
 11
79.6357942767
 21
106.402483442
  0
LINE
  5
31A
100
AcDbEntity
  8
0
100
AcDbLine
 62
7
  6
CONTINUOUS
 10
79.8167635046
 20
106.0914223111
 11
82.1285143263
 21
107.4363533231
  0
LINE
  5
31B
100
AcDbEntity
  8
0
100
AcDbLine
 62
7
  6
CONTINUOUS
 10
82.852390893
 20
106.1921093931
 11
80.5406400713
 21
104.8471783812
  0
LINE
  5
31C
100
AcDbEntity
  8
0
100
AcDbLine
 62
7
  6
CONTINUOUS
 10
80.721609213
 20
104.5361173987
 11
83.0333600346
 21
105.8810484106
  0
LINE
  5
31D
100
AcDbEntity
  8
0
100
AcDbLine
 62
7
  6
CONTINUOUS
 10
83.274652166
 20
105.4663005329
 11
79.7697396873
 21
103.4272116126
  0
LINE
  5
31E
100
AcDbEntity
  8
0
100
AcDbLine
 62
7
  6
CONTINUOUS
 10
80.3981444634
 20
103.3764598534
 11
83.0081857254
 21
104.8949303575
  0
LINE
  5
31F
100
AcDbEntity
  8
0
100
AcDbLine
 62
7
  6
CONTINUOUS
 10
127.5174545872
 20
146.365341536
 11
124.6994711446
 21
149.9721958629
  0
LINE
  5
320
100
AcDbEntity
  8
0
100
AcDbLine
 62
7
  6
CONTINUOUS
 10
143.3687213333
 20
102.4903697654
 11
146.3478161341
 21
94.881838338
  0
LINE
  5
321
100
AcDbEntity
  8
0
100
AcDbLine
 62
7
  6
CONTINUOUS
 10
143.7167924798
 20
113.9864903814
 11
149.1649996497
 21
100.0719095282
  0
LINE
  5
322
100
AcDbEntity
  8
0
100
AcDbLine
 62
7
  6
CONTINUOUS
 10
113.0583361783
 20
83.89890117
 11
110.8571992072
 21
77.8513270447
  0
LINE
  5
323
100
AcDbEntity
  8
0
100
AcDbLine
 62
7
  6
CONTINUOUS
 10
87.4526159627
 20
91.937056395
 11
87.6461726904
 21
92.1190536974
  0
LINE
  5
324
100
AcDbEntity
  8
0
100
AcDbLine
 62
7
  6
CONTINUOUS
 10
89.0345525788
 20
92.6492232739
 11
89.2281093065
 21
92.8312205764
  0
LINE
  5
325
100
AcDbEntity
  8
0
100
AcDbLine
 62
7
  6
CONTINUOUS
 10
90.2058649366
 20
91.6652886584
 11
90.3994216644
 21
91.8472859608
  0
LINE
  5
326
100
AcDbEntity
  8
0
100
AcDbLine
 62
7
  6
CONTINUOUS
 10
87.197074224
 20
92.204732512
 11
87.4652035487
 21
92.4301146799
  0
LINE
  5
327
100
AcDbEntity
  8
0
100
AcDbLine
 62
7
  6
CONTINUOUS
 10
88.704438243
 20
92.8735145255
 11
88.9725675678
 21
93.0988966934
  0
LINE
  5
328
100
AcDbEntity
  8
0
100
AcDbLine
 62
7
  6
CONTINUOUS
 10
86.8738475806
 20
97.2210013561
 11
87.2165497113
 21
97.489768511
  0
LINE
  5
329
100
AcDbEntity
  8
0
100
AcDbLine
 62
7
  6
CONTINUOUS
 10
83.1069820922
 20
103.0094638608
 11
81.9883930321
 21
102.358690818
  0
LINE
  5
32A
100
AcDbEntity
  8
0
100
AcDbLine
 62
7
  6
CONTINUOUS
 10
82.1693621738
 20
102.0476298355
 11
83.2879512338
 21
102.6984028783
  0
LINE
  5
32B
100
AcDbEntity
  8
0
100
AcDbLine
 62
7
  6
CONTINUOUS
 10
82.665245954
 20
98.4502358928
 11
86.1701584327
 21
100.4893248131
  0
LINE
  5
32C
100
AcDbEntity
  8
0
100
AcDbLine
 62
7
  6
CONTINUOUS
 10
82.8462150956
 20
98.1391749104
 11
86.3511275744
 21
100.1782638306
  0
LINE
  5
32D
100
AcDbEntity
  8
0
100
AcDbLine
 62
7
  6
CONTINUOUS
 10
84.2806687115
 20
98.4185852376
 11
85.3992577716
 21
99.0693582804
  0
LINE
  5
32E
100
AcDbEntity
  8
0
100
AcDbLine
 62
7
  6
CONTINUOUS
 10
80.3185846467
 20
104.3710366673
 11
80.721609213
 21
104.5361173987
  0
LINE
  5
32F
100
AcDbEntity
  8
0
100
AcDbLine
 62
7
  6
CONTINUOUS
 10
80.4511056767
 20
107.917678672
 11
80.1972263907
 21
107.8393675232
  0
LINE
  5
330
100
AcDbEntity
  8
0
100
AcDbLine
 62
7
  6
CONTINUOUS
 10
116.4840699861
 20
80.1084717308
 11
118.5881299345
 21
85.8893289282
  0
LINE
  5
331
100
AcDbEntity
  8
0
100
AcDbLine
 62
7
  6
CONTINUOUS
 10
91.7481401317
 20
85.0683376988
 11
91.4355992211
 21
84.7477279291
  0
LINE
  5
332
100
AcDbEntity
  8
0
100
AcDbLine
 62
7
  6
CONTINUOUS
 10
93.4891964858
 20
83.7913510106
 11
93.1766556273
 21
83.4707412713
  0
LINE
  5
333
100
AcDbEntity
  8
0
100
AcDbLine
 62
7
  6
CONTINUOUS
 10
91.9735194264
 20
84.852506661
 11
91.7799640793
 21
84.6705069854
  0
LINE
  5
334
100
AcDbEntity
  8
0
100
AcDbLine
 62
7
  6
CONTINUOUS
 10
93.1448316797
 20
83.8685719847
 11
92.9512762282
 21
83.6865722483
  0
LINE
  5
335
100
AcDbEntity
  8
0
100
AcDbLine
 62
7
  6
CONTINUOUS
 10
94.6521958033
 20
84.5373540589
 11
94.4586404562
 21
84.3553543833
  0
LINE
  5
336
100
AcDbEntity
  8
0
100
AcDbLine
 62
7
  6
CONTINUOUS
 10
84.4616378532
 20
98.1075242551
 11
85.5802269133
 21
98.7582972979
  0
LINE
  5
337
100
AcDbEntity
  8
0
100
AcDbLine
 62
7
  6
CONTINUOUS
 10
88.0100116031
 20
97.3268710956
 11
84.5050991244
 21
95.2877821754
  0
LINE
  5
338
100
AcDbEntity
  8
0
100
AcDbLine
 62
7
  6
CONTINUOUS
 10
87.7435451626
 20
96.7555009203
 11
86.7741011921
 21
96.1914975476
  0
LINE
  5
339
100
AcDbEntity
  8
0
100
AcDbLine
 62
7
  6
CONTINUOUS
 10
86.3266656099
 20
95.9311883548
 11
85.1335039005
 21
95.2370304161
  0
LINE
  5
33A
100
AcDbEntity
  8
0
100
AcDbLine
 62
7
  6
CONTINUOUS
 10
87.5583005759
 20
94.843567019
 11
87.1108649937
 21
94.5832578262
  0
LINE
  5
33B
100
AcDbEntity
  8
0
100
AcDbLine
 62
7
  6
CONTINUOUS
 10
89.0958264531
 20
95.4605052007
 11
88.6483908709
 21
95.2001960078
  0
LINE
  5
33C
100
AcDbEntity
  8
0
100
AcDbLine
 62
7
  6
CONTINUOUS
 10
86.0383496089
 20
93.6817255037
 11
85.5909139744
 21
93.4214162804
  0
LINE
  5
33D
100
AcDbEntity
  8
0
100
AcDbLine
 62
7
  6
CONTINUOUS
 10
87.472803277
 20
93.9611358612
 11
87.0999401873
 21
93.7442114731
  0
LINE
  5
33E
100
AcDbEntity
  8
0
100
AcDbLine
 62
7
  6
CONTINUOUS
 10
82.1693621738
 20
102.0476298355
 11
81.76633778
 21
101.8825488074
  0
LINE
  5
33F
100
AcDbEntity
  8
0
100
AcDbLine
 62
7
  6
CONTINUOUS
 10
80.5406400713
 20
104.8471783812
 11
80.212188102
 21
104.7254825153
  0
LINE
  5
340
100
AcDbEntity
  8
0
100
AcDbLine
 62
7
  6
CONTINUOUS
 10
81.9883930321
 20
102.358690818
 11
81.6599412354
 21
102.2369946554
  0
LINE
  5
341
100
AcDbEntity
  8
0
100
AcDbLine
 62
7
  6
CONTINUOUS
 10
80.3036229353
 20
107.4849216752
 11
80.5575022213
 21
107.563232824
  0
LINE
  5
342
100
AcDbEntity
  8
0
100
AcDbLine
 62
7
  6
CONTINUOUS
 10
147.8625234446
 20
151.3606848471
 11
131.5188134424
 21
165.0746858819
  0
LINE
  5
343
100
AcDbEntity
  8
0
100
AcDbLine
 62
7
  6
CONTINUOUS
 10
147.5020554351
 20
140.5101159058
 11
144.1557705703
 21
126.0157637458
  0
LINE
  5
344
100
AcDbEntity
  8
0
100
AcDbLine
 62
7
  6
CONTINUOUS
 10
92.2399859714
 20
85.4238768971
 11
91.7481401317
 21
85.0683376988
  0
LINE
  5
345
100
AcDbEntity
  8
0
100
AcDbLine
 62
7
  6
CONTINUOUS
 10
87.8950643774
 20
93.2353272976
 11
87.5222012878
 21
93.0184029095
  0
LINE
  5
346
100
AcDbEntity
  8
0
100
AcDbLine
 62
7
  6
CONTINUOUS
 10
89.2708581649
 20
93.2724362768
 11
88.9725675678
 21
93.0988966934
  0
LINE
  5
347
100
AcDbEntity
  8
0
100
AcDbLine
 62
7
  6
CONTINUOUS
 10
89.3772545006
 20
92.9179903073
 11
89.2281093065
 21
92.8312205764
  0
LINE
  5
348
100
AcDbEntity
  8
0
100
AcDbLine
 62
7
  6
CONTINUOUS
 10
88.5493555146
 20
90.9097367924
 11
88.3256377234
 21
90.779582196
  0
LINE
  5
349
100
AcDbEntity
  8
0
100
AcDbLine
 62
7
  6
CONTINUOUS
 10
88.8048972533
 20
90.6420606754
 11
88.4320342681
 21
90.425136348
  0
LINE
  5
34A
100
AcDbEntity
  8
0
100
AcDbLine
 62
7
  6
CONTINUOUS
 10
91.357940724
 20
91.5722429196
 11
87.8530282453
 21
89.5331539994
  0
LINE
  5
34B
100
AcDbEntity
  8
0
100
AcDbLine
 62
7
  6
CONTINUOUS
 10
91.5389098657
 20
91.2611819371
 11
90.122030313
 21
90.4368693716
  0
LINE
  5
34C
100
AcDbEntity
  8
0
100
AcDbLine
 62
7
  6
CONTINUOUS
 10
89.6745947308
 20
90.1765601788
 11
88.033997387
 21
89.2220930169
  0
LINE
  5
34D
100
AcDbEntity
  8
0
100
AcDbLine
 62
7
  6
CONTINUOUS
 10
92.3834327569
 20
89.8095636233
 11
90.9665532042
 21
88.9852510578
  0
LINE
  5
34E
100
AcDbEntity
  8
0
100
AcDbLine
 62
7
  6
CONTINUOUS
 10
90.519117622
 20
88.724941865
 11
88.8785202782
 21
87.7704747031
  0
LINE
  5
34F
100
AcDbEntity
  8
0
100
AcDbLine
 62
7
  6
CONTINUOUS
 10
85.8022827194
 20
99.2344388367
 11
85.3992577716
 21
99.0693582804
  0
LINE
  5
350
100
AcDbEntity
  8
0
100
AcDbLine
 62
7
  6
CONTINUOUS
 10
85.1586777442
 20
96.2231493895
 11
84.7556536434
 21
96.0580677378
  0
LINE
  5
351
100
AcDbEntity
  8
0
100
AcDbLine
 62
7
  6
CONTINUOUS
 10
85.9086790551
 20
98.8799928672
 11
85.5802269133
 21
98.7582972979
  0
LINE
  5
352
100
AcDbEntity
  8
0
100
AcDbLine
 62
7
  6
CONTINUOUS
 10
92.5644018986
 20
89.4985026408
 11
89.0594894199
 21
87.4594137206
  0
LINE
  5
353
100
AcDbEntity
  8
0
100
AcDbLine
 62
7
  6
CONTINUOUS
 10
92.7619941507
 20
85.7275709554
 11
92.2399859714
 21
85.4238768971
  0
LINE
  5
354
100
AcDbEntity
  8
0
100
AcDbLine
 62
7
  6
CONTINUOUS
 10
92.912802229
 20
85.468352679
 11
92.7636570349
 21
85.381582948
  0
LINE
  5
355
100
AcDbEntity
  8
0
100
AcDbLine
 62
7
  6
CONTINUOUS
 10
92.1972372175
 20
84.9826612575
 11
91.9735194264
 21
84.852506661
  0
LINE
  5
356
100
AcDbEntity
  8
0
100
AcDbLine
 62
7
  6
CONTINUOUS
 10
92.9512762282
 20
83.6865722483
 11
92.7275584371
 21
83.5564176519
  0
LINE
  5
357
100
AcDbEntity
  8
0
100
AcDbLine
 62
7
  6
CONTINUOUS
 10
93.1766556273
 20
83.4707412713
 11
92.8037925377
 21
83.2538168831
  0
LINE
  5
358
100
AcDbEntity
  8
0
100
AcDbLine
 62
7
  6
CONTINUOUS
 10
89.5993096164
 20
93.3941330327
 11
89.2708581649
 21
93.2724362768
  0
LINE
  5
359
100
AcDbEntity
  8
0
100
AcDbLine
 62
7
  6
CONTINUOUS
 10
84.9777086026
 20
96.534210372
 11
84.723829748
 21
96.4558984816
  0
LINE
  5
35A
100
AcDbEntity
  8
0
100
AcDbLine
 62
7
  6
CONTINUOUS
 10
89.631133564
 20
92.9963023192
 11
89.3772545006
 21
92.9179903073
  0
LINE
  5
35B
100
AcDbEntity
  8
0
100
AcDbLine
 62
7
  6
CONTINUOUS
 10
117.702441984
 20
184.8213930209
 11
109.6349412288
 21
182.567388454
  0
LINE
  5
35C
100
AcDbEntity
  8
0
100
AcDbLine
 62
7
  6
CONTINUOUS
 10
91.7295796829
 20
189.4061774885
 11
86.6262362806
 21
190.8695376611
  0
LINE
  5
35D
100
AcDbEntity
  8
0
100
AcDbLine
 62
7
  6
CONTINUOUS
 10
81.3912643196
 20
191.5618898649
 11
92.0139859853
 21
188.1103583681
  0
LINE
  5
35E
100
AcDbEntity
  8
0
100
AcDbLine
 62
7
  6
CONTINUOUS
 10
127.6827505238
 20
202.9458203499
 11
127.7805529931
 21
202.7426103908
  0
LINE
  5
35F
100
AcDbEntity
  8
0
100
AcDbLine
 62
7
  6
CONTINUOUS
 10
93.314164774
 20
85.9794199345
 11
92.7619941507
 21
85.7275709554
  0
LINE
  5
360
100
AcDbEntity
  8
0
100
AcDbLine
 62
7
  6
CONTINUOUS
 10
93.3903988746
 20
85.6768191658
 11
92.912802229
 21
85.468352679
  0
LINE
  5
361
100
AcDbEntity
  8
0
100
AcDbLine
 62
7
  6
CONTINUOUS
 10
93.6442793187
 20
85.7551288045
 11
93.3903988746
 21
85.6768191658
  0
LINE
  5
362
100
AcDbEntity
  8
0
100
AcDbLine
 62
7
  6
CONTINUOUS
 10
92.4511175571
 20
85.0609708354
 11
92.1972372175
 21
84.9826612575
  0
LINE
  5
363
100
AcDbEntity
  8
0
100
AcDbLine
 62
7
  6
CONTINUOUS
 10
92.7275584371
 20
83.5564176519
 11
92.4736782019
 21
83.4781081347
  0
LINE
  5
364
100
AcDbEntity
  8
0
100
AcDbLine
 62
7
  6
CONTINUOUS
 10
106.4726125622
 20
195.9158203499
 11
113.8726125622
 21
195.9158203499
  0
LINE
  5
365
100
AcDbEntity
  8
BEZUGSACHSEN
100
AcDbLine
 62
2
  6
CENTER
 10
96.4166125622
 20
200.4359203499
 11
78.0368915177
 21
200.4359203499
  0
LINE
  5
366
100
AcDbEntity
  8
BEZUGSACHSEN
100
AcDbLine
 62
2
  6
CENTER
 10
96.4166125622
 20
200.4359203499
 11
131.9030703119
 21
200.4359203499
  0
LINE
  5
367
100
AcDbEntity
  8
0
100
AcDbLine
 62
7
  6
CONTINUOUS
 10
125.2650102748
 20
213.1279203499
 11
130.0941125622
 21
207.3728203499
  0
LINE
  5
368
100
AcDbEntity
  8
0
100
AcDbLine
 62
7
  6
CONTINUOUS
 10
113.8726125622
 20
206.6318203499
 11
106.4726125622
 21
206.6318203499
  0
LINE
  5
369
100
AcDbEntity
  8
0
100
AcDbLine
 62
7
  6
CONTINUOUS
 10
96.7616556321
 20
213.1279203499
 11
97.2170589023
 21
213.1279203499
  0
LINE
  5
36A
100
AcDbEntity
  8
0
100
AcDbLine
 62
7
  6
CONTINUOUS
 10
123.1281662222
 20
213.1279203499
 11
125.2650102748
 21
213.1279203499
  0
LWPOLYLINE
  5
36B
100
AcDbEntity
  8
RUNDUNGEN
100
AcDbPolyline
 62
7
  6
CONTINUOUS
 90
19
 70
0
 10
296.6805687034
 20
73.3190853699
 10
296.8253037951
 20
73.3450973527
 10
297.144152336
 20
73.4247967239
 10
297.4521421304
 20
73.5328314492
 10
297.7452265031
 20
73.6668476262
 10
298.0204199353
 20
73.8240626589
 10
298.2752388653
 20
74.0012158698
 10
298.5079824038
 20
74.1948564616
 10
298.716863581
 20
74.4006435259
 10
298.9013697708
 20
74.6145333856
 10
299.0604946599
 20
74.8308458532
 10
299.1944057547
 20
75.0439016858
 10
299.3046910967
 20
75.2491038592
 10
299.3930365083
 20
75.4412311979
 10
299.4627429043
 20
75.6182895053
 10
299.5164247547
 20
75.777330613
 10
299.5575494673
 20
75.9190921208
 10
299.5886074665
 20
76.0432025847
 10
299.6111178722
 20
76.1465858689
  0
LINE
  5
36C
100
AcDbEntity
  8
AUSFORMSCHRAEGEN
100
AcDbLine
 62
7
  6
CONTINUOUS
 10
296.6805715059
 20
73.3190857935
 11
295.3771299929
 21
73.112640939
  0
LINE
  5
36D
100
AcDbEntity
  8
0
100
AcDbLine
 62
7
  6
CONTINUOUS
 10
295.3771299929
 20
73.112640939
 11
294.07368848
 21
73.3190857935
  0
LINE
  5
36E
100
AcDbEntity
  8
0
100
AcDbLine
 62
7
  6
CONTINUOUS
 10
299.6375675276
 20
83.4781081347
 11
299.6739569742
 21
83.4781081347
  0
LINE
  5
36F
100
AcDbEntity
  8
0
100
AcDbLine
 62
7
  6
CONTINUOUS
 10
299.6368165412
 20
83.5564176519
 11
299.7150281068
 21
83.5564176519
  0
LINE
  5
370
100
AcDbEntity
  8
0
100
AcDbLine
 62
7
  6
CONTINUOUS
 10
299.6355683617
 20
83.6865722483
 11
299.7616256063
 21
83.6865722483
  0
LINE
  5
371
100
AcDbEntity
  8
0
100
AcDbLine
 62
7
  6
CONTINUOUS
 10
299.6482668939
 20
83.8685719847
 11
299.8138670803
 21
83.8685719847
  0
LINE
  5
372
100
AcDbEntity
  8
0
100
AcDbLine
 62
7
  6
CONTINUOUS
 10
299.6612106269
 20
84.0590271277
 11
299.8563179189
 21
84.0590271277
  0
LINE
  5
373
100
AcDbEntity
  8
0
100
AcDbLine
 62
7
  6
CONTINUOUS
 10
299.7137071642
 20
84.3013273498
 11
299.9044655079
 21
84.3013273498
  0
LINE
  5
374
100
AcDbEntity
  8
0
100
AcDbLine
 62
7
  6
CONTINUOUS
 10
299.954723537
 20
84.3553543833
 11
300.0365521783
 21
84.3553543833
  0
LINE
  5
375
100
AcDbEntity
  8
0
100
AcDbLine
 62
7
  6
CONTINUOUS
 10
299.6304506878
 20
84.4186579608
 11
299.6919024151
 21
84.4186579608
  0
LINE
  5
376
100
AcDbEntity
  8
0
100
AcDbLine
 62
7
  6
CONTINUOUS
 10
299.7559399808
 20
84.5002427066
 11
299.9370214726
 21
84.5002427066
  0
LINE
  5
377
100
AcDbEntity
  8
0
100
AcDbLine
 62
7
  6
CONTINUOUS
 10
299.997875451
 20
84.6145726598
 11
300.0664352462
 21
84.6145726598
  0
LINE
  5
378
100
AcDbEntity
  8
0
100
AcDbLine
 62
7
  6
CONTINUOUS
 10
299.628327855
 20
84.7477279291
 11
299.770982103
 21
84.7477279291
  0
LINE
  5
379
100
AcDbEntity
  8
0
100
AcDbLine
 62
7
  6
CONTINUOUS
 10
300.0203888107
 20
84.8484150414
 11
300.1243157736
 21
84.8484150414
  0
LINE
  5
37A
100
AcDbEntity
  8
0
100
AcDbLine
 62
7
  6
CONTINUOUS
 10
299.8510345604
 20
84.8631487683
 11
299.9761316621
 21
84.8631487683
  0
LINE
  5
37B
100
AcDbEntity
  8
0
100
AcDbLine
 62
7
  6
CONTINUOUS
 10
299.8986092133
 20
84.975294394
 11
299.9769195118
 21
84.975294394
  0
LINE
  5
37C
100
AcDbEntity
  8
0
100
AcDbLine
 62
7
  6
CONTINUOUS
 10
299.6267501392
 20
85.0683376988
 11
299.8609219438
 21
85.0683376988
  0
LINE
  5
37D
100
AcDbEntity
  8
0
100
AcDbLine
 62
7
  6
CONTINUOUS
 10
300.0486673363
 20
85.0907152636
 11
300.1727823497
 21
85.0907152636
  0
LINE
  5
37E
100
AcDbEntity
  8
0
100
AcDbLine
 62
7
  6
CONTINUOUS
 10
300.0608207413
 20
85.2896306203
 11
300.2058321205
 21
85.2896306203
  0
LINE
  5
37F
100
AcDbEntity
  8
0
100
AcDbLine
 62
7
  6
CONTINUOUS
 10
299.6254110148
 20
85.4238768971
 11
299.9774984764
 21
85.4238768971
  0
LINE
  5
380
100
AcDbEntity
  8
0
100
AcDbLine
 62
7
  6
CONTINUOUS
 10
300.118524217
 20
85.6006916028
 11
300.2407337648
 21
85.6006916028
  0
LINE
  5
381
100
AcDbEntity
  8
0
100
AcDbLine
 62
7
  6
CONTINUOUS
 10
300.1700836631
 20
85.7128372286
 11
300.2424083392
 21
85.7128372286
  0
LINE
  5
382
100
AcDbEntity
  8
0
100
AcDbLine
 62
7
  6
CONTINUOUS
 10
299.6242671631
 20
85.7275709554
 11
300.0885545438
 21
85.7275709554
  0
LINE
  5
383
100
AcDbEntity
  8
0
100
AcDbLine
 62
7
  6
CONTINUOUS
 10
299.6233185838
 20
85.9794199345
 11
300.1937930342
 21
85.9794199345
  0
LWPOLYLINE
  5
384
100
AcDbEntity
  8
0
100
AcDbPolyline
 62
7
  6
CONTINUOUS
 90
24
 70
0
 10
280.6553023493
 20
195.9174325856
 10
280.5881454095
 20
195.8755340832
 10
280.5164345592
 20
195.8233403274
 10
280.4527849296
 20
195.7696553327
 10
280.3966896833
 20
195.7157112305
 10
280.3472740112
 20
195.6622232486
 10
280.3038826036
 20
195.6099170038
 10
280.2656199537
 20
195.5590062174
 10
280.2320389123
 20
195.5100668327
 10
280.2016874352
 20
195.4619067349
 10
280.1732736052
 20
195.4129546216
 10
280.1466071658
 20
195.3631146755
 10
280.1210964727
 20
195.3113720722
 10
280.0967958231
 20
195.2578141238
 10
280.0736073537
 20
195.2021871651
 10
280.0513159758
 20
195.1438261256
 10
280.0295306721
 20
195.0812859861
 10
280.0082034741
 20
195.0136821126
 10
279.9867492495
 20
194.9377192683
 10
279.9668292769
 20
194.8580625666
 10
279.9498585602
 20
194.7809353262
 10
279.9360736811
 20
194.7097800809
 10
279.9252885945
 20
194.6468348778
 10
279.9194518303
 20
194.6092459465
  0
LINE
  5
385
100
AcDbEntity
  8
0
100
AcDbLine
 62
7
  6
CONTINUOUS
 10
280.6554322349
 20
195.9175072111
 11
285.4043650074
 21
198.6593048256
  0
LINE
  5
386
100
AcDbEntity
  8
0
100
AcDbLine
 62
7
  6
CONTINUOUS
 10
299.6387144259
 20
86.0926589714
 11
300.2615056558
 21
86.0926589714
  0
LINE
  5
387
100
AcDbEntity
  8
0
100
AcDbLine
 62
7
  6
CONTINUOUS
 10
299.684618012
 20
86.110667942
 11
300.3074092419
 21
86.110667942
  0
LINE
  5
388
100
AcDbEntity
  8
0
100
AcDbLine
 62
7
  6
CONTINUOUS
 10
299.6214900645
 20
87.4594137206
 11
299.9037594555
 21
87.4594137206
  0
LINE
  5
389
100
AcDbEntity
  8
0
100
AcDbLine
 62
7
  6
CONTINUOUS
 10
299.6216961164
 20
87.7704747031
 11
299.926363062
 21
87.7704747031
  0
LINE
  5
38A
100
AcDbEntity
  8
0
100
AcDbLine
 62
7
  6
CONTINUOUS
 10
299.6703786958
 20
88.724941865
 11
300.2931699257
 21
88.724941865
  0
LINE
  5
38B
100
AcDbEntity
  8
0
100
AcDbLine
 62
7
  6
CONTINUOUS
 10
299.6238934624
 20
89.2220930169
 11
300.0217593196
 21
89.2220930169
  0
LINE
  5
38C
100
AcDbEntity
  8
0
100
AcDbLine
 62
7
  6
CONTINUOUS
 10
299.6246830089
 20
89.5331539994
 11
300.0399933772
 21
89.5331539994
  0
LINE
  5
38D
100
AcDbEntity
  8
0
100
AcDbLine
 62
7
  6
CONTINUOUS
 10
300.4533283086
 20
89.8095636233
 11
300.7068790252
 21
89.8095636233
  0
LINE
  5
38E
100
AcDbEntity
  8
0
100
AcDbLine
 62
7
  6
CONTINUOUS
 10
299.6274973389
 20
90.3552834544
 11
300.1882593023
 21
90.3552834544
  0
LINE
  5
38F
100
AcDbEntity
  8
0
100
AcDbLine
 62
7
  6
CONTINUOUS
 10
299.6276408511
 20
90.3891183612
 11
300.1308177733
 21
90.3891183612
  0
LINE
  5
390
100
AcDbEntity
  8
0
100
AcDbLine
 62
7
  6
CONTINUOUS
 10
299.6281523957
 20
90.5097218161
 11
300.1070581047
 21
90.5097218161
  0
LINE
  5
391
100
AcDbEntity
  8
0
100
AcDbLine
 62
7
  6
CONTINUOUS
 10
299.6290678621
 20
90.7255552233
 11
300.1024705053
 21
90.7255552233
  0
LINE
  5
392
100
AcDbEntity
  8
0
100
AcDbLine
 62
7
  6
CONTINUOUS
 10
300.2055934238
 20
90.9097367924
 11
300.3361206378
 21
90.9097367924
  0
LINE
  5
393
100
AcDbEntity
  8
0
100
AcDbLine
 62
7
  6
CONTINUOUS
 10
299.6308270313
 20
91.1403028044
 11
300.1213986415
 21
91.1403028044
  0
LINE
  5
394
100
AcDbEntity
  8
0
100
AcDbLine
 62
7
  6
CONTINUOUS
 10
300.2130750318
 20
91.1435780482
 11
300.3929365435
 21
91.1435780482
  0
LINE
  5
395
100
AcDbEntity
  8
0
100
AcDbLine
 62
7
  6
CONTINUOUS
 10
300.2248384731
 20
91.3858782704
 11
300.4353252667
 21
91.3858782704
  0
LINE
  5
396
100
AcDbEntity
  8
0
100
AcDbLine
 62
7
  6
CONTINUOUS
 10
299.6322492339
 20
91.4429047635
 11
300.1497586135
 21
91.4429047635
  0
LINE
  5
397
100
AcDbEntity
  8
0
100
AcDbLine
 62
7
  6
CONTINUOUS
 10
300.5352409957
 20
91.5722429196
 11
300.8364741308
 21
91.5722429196
  0
LINE
  5
398
100
AcDbEntity
  8
0
100
AcDbLine
 62
7
  6
CONTINUOUS
 10
300.2511617079
 20
91.6366375197
 11
300.4630628303
 21
91.6366375197
  0
LINE
  5
399
100
AcDbEntity
  8
0
100
AcDbLine
 62
7
  6
CONTINUOUS
 10
300.5352409957
 20
91.6652886584
 11
300.6855066012
 21
91.6652886584
  0
LINE
  5
39A
100
AcDbEntity
  8
0
100
AcDbLine
 62
7
  6
CONTINUOUS
 10
299.6345148113
 20
91.8322776478
 11
300.2122000151
 21
91.8322776478
  0
LINE
  5
39B
100
AcDbEntity
  8
0
100
AcDbLine
 62
7
  6
CONTINUOUS
 10
300.3095560579
 20
91.9476985022
 11
300.4782712689
 21
91.9476985022
  0
LINE
  5
39C
100
AcDbEntity
  8
0
100
AcDbLine
 62
7
  6
CONTINUOUS
 10
300.5659046538
 20
91.9763496408
 11
300.7031973937
 21
91.9763496408
  0
LINE
  5
39D
100
AcDbEntity
  8
0
100
AcDbLine
 62
7
  6
CONTINUOUS
 10
300.5813826372
 20
92.1149620778
 11
300.7401883664
 21
92.1149620778
  0
LINE
  5
39E
100
AcDbEntity
  8
0
100
AcDbLine
 62
7
  6
CONTINUOUS
 10
300.3635452379
 20
92.1984565649
 11
300.5051457247
 21
92.1984565649
  0
LINE
  5
39F
100
AcDbEntity
  8
0
100
AcDbLine
 62
7
  6
CONTINUOUS
 10
299.6820678746
 20
92.204732512
 11
300.3048591045
 21
92.204732512
  0
LINE
  5
3A0
100
AcDbEntity
  8
0
100
AcDbLine
 62
7
  6
CONTINUOUS
 10
300.5934553898
 20
92.305419594
 11
300.7800237811
 21
92.305419594
  0
LINE
  5
3A1
100
AcDbEntity
  8
0
100
AcDbLine
 62
7
  6
CONTINUOUS
 10
299.7533304655
 20
92.4301146799
 11
300.3761216954
 21
92.4301146799
  0
LINE
  5
3A2
100
AcDbEntity
  8
0
100
AcDbLine
 62
7
  6
CONTINUOUS
 10
299.926135046
 20
92.4926006797
 11
300.5489262759
 21
92.4926006797
  0
LINE
  5
3A3
100
AcDbEntity
  8
0
100
AcDbLine
 62
7
  6
CONTINUOUS
 10
300.6227477951
 20
92.5043349507
 11
300.8055098047
 21
92.5043349507
  0
LINE
  5
3A4
100
AcDbEntity
  8
0
100
AcDbLine
 62
7
  6
CONTINUOUS
 10
300.701659236
 20
92.8153959332
 11
300.821654499
 21
92.8153959332
  0
LINE
  5
3A5
100
AcDbEntity
  8
0
100
AcDbLine
 62
7
  6
CONTINUOUS
 10
300.0041479658
 20
92.8735145255
 11
300.6269391957
 21
92.8735145255
  0
LINE
  5
3A6
100
AcDbEntity
  8
0
100
AcDbLine
 62
7
  6
CONTINUOUS
 10
300.7360889393
 20
92.9275415589
 11
300.8122122514
 21
92.9275415589
  0
LINE
  5
3A7
100
AcDbEntity
  8
0
100
AcDbLine
 62
7
  6
CONTINUOUS
 10
299.838155892
 20
93.0184029095
 11
300.4609471219
 21
93.0184029095
  0
LINE
  5
3A8
100
AcDbEntity
  8
0
100
AcDbLine
 62
7
  6
CONTINUOUS
 10
300.4931340836
 20
93.0988966934
 11
300.6981988625
 21
93.0988966934
  0
LINE
  5
3A9
100
AcDbEntity
  8
0
100
AcDbLine
 62
7
  6
CONTINUOUS
 10
300.5476794648
 20
93.2724362768
 11
300.7672269436
 21
93.2724362768
  0
LINE
  5
3AA
100
AcDbEntity
  8
0
100
AcDbLine
 62
7
  6
CONTINUOUS
 10
300.5533029996
 20
93.3941330327
 11
300.8339400726
 21
93.3941330327
  0
LINE
  5
3AB
100
AcDbEntity
  8
0
100
AcDbLine
 62
7
  6
CONTINUOUS
 10
299.6446146452
 20
93.4214162804
 11
300.1989387227
 21
93.4214162804
  0
LINE
  5
3AC
100
AcDbEntity
  8
0
100
AcDbLine
 62
7
  6
CONTINUOUS
 10
300.3036975756
 20
93.7442114731
 11
300.4844546539
 21
93.7442114731
  0
LINE
  5
3AD
100
AcDbEntity
  8
0
100
AcDbLine
 62
7
  6
CONTINUOUS
 10
300.3100279903
 20
93.9611358612
 11
300.5715377693
 21
93.9611358612
  0
LINE
  5
3AE
100
AcDbEntity
  8
0
100
AcDbLine
 62
7
  6
CONTINUOUS
 10
300.3218706156
 20
94.5832578262
 11
300.5880565448
 21
94.5832578262
  0
LINE
  5
3AF
100
AcDbEntity
  8
0
100
AcDbLine
 62
7
  6
CONTINUOUS
 10
300.7007677496
 20
95.2001960078
 11
300.9143638531
 21
95.2001960078
  0
LINE
  5
3B0
100
AcDbEntity
  8
0
100
AcDbLine
 62
7
  6
CONTINUOUS
 10
299.6594642231
 20
95.2877821754
 11
300.2281777056
 21
95.2877821754
  0
LINE
  5
3B1
100
AcDbEntity
  8
0
100
AcDbLine
 62
7
  6
CONTINUOUS
 10
288.6812401894
 20
87.4303019096
 11
288.883758154
 21
87.3188103072
  0
LINE
  5
3B2
100
AcDbEntity
  8
DEFAULT_2
100
AcDbLine
 62
8
  6
HIDDEN
 10
291.0176091074
 20
98.2208400744
 11
295.3771299929
 21
98.9113203499
  0
LINE
  5
3B3
100
AcDbEntity
  8
0
100
AcDbLine
 62
7
  6
CONTINUOUS
 10
299.7306740296
 20
96.0580677378
 11
300.3534652595
 21
96.0580677378
  0
LINE
  5
3B4
100
AcDbEntity
  8
0
100
AcDbLine
 62
7
  6
CONTINUOUS
 10
299.6609236676
 20
96.0919026446
 11
300.2837148975
 21
96.0919026446
  0
LINE
  5
3B5
100
AcDbEntity
  8
0
100
AcDbLine
 62
7
  6
CONTINUOUS
 10
299.6678114148
 20
96.2125072861
 11
300.2486733742
 21
96.2125072861
  0
LINE
  5
3B6
100
AcDbEntity
  8
0
100
AcDbLine
 62
7
  6
CONTINUOUS
 10
299.6699687706
 20
96.4283395067
 11
300.2306553361
 21
96.4283395067
  0
LINE
  5
3B7
100
AcDbEntity
  8
0
100
AcDbLine
 62
7
  6
CONTINUOUS
 10
300.3539441095
 20
96.534210372
 11
300.4417416441
 21
96.534210372
  0
LINE
  5
3B8
100
AcDbEntity
  8
0
100
AcDbLine
 62
7
  6
CONTINUOUS
 10
299.674632596
 20
96.8949309804
 11
300.2282936278
 21
96.8949309804
  0
LINE
  5
3B9
100
AcDbEntity
  8
0
100
AcDbLine
 62
7
  6
CONTINUOUS
 10
299.6776572606
 20
97.1975329396
 11
300.2436739844
 21
97.1975329396
  0
LINE
  5
3BA
100
AcDbEntity
  8
0
100
AcDbLine
 62
7
  6
CONTINUOUS
 10
300.3335607296
 20
97.2210013561
 11
300.8447022863
 21
97.2210013561
  0
LINE
  5
3BB
100
AcDbEntity
  8
0
100
AcDbLine
 62
7
  6
CONTINUOUS
 10
300.8793476368
 20
97.3268710956
 11
301.052699647
 21
97.3268710956
  0
LINE
  5
3BC
100
AcDbEntity
  8
0
100
AcDbLine
 62
7
  6
CONTINUOUS
 10
299.6815124077
 20
97.4916770657
 11
300.2765709574
 21
97.4916770657
  0
LINE
  5
3BD
100
AcDbEntity
  8
0
100
AcDbLine
 62
7
  6
CONTINUOUS
 10
300.3668652755
 20
97.5320623386
 11
300.8454531108
 21
97.5320623386
  0
LINE
  5
3BE
100
AcDbEntity
  8
0
100
AcDbLine
 62
7
  6
CONTINUOUS
 10
300.3973953918
 20
97.7140597626
 11
300.8981424873
 21
97.7140597626
  0
LINE
  5
3BF
100
AcDbEntity
  8
0
100
AcDbLine
 62
7
  6
CONTINUOUS
 10
299.7213080372
 20
97.8725909267
 11
300.3440992671
 21
97.8725909267
  0
LINE
  5
3C0
100
AcDbEntity
  8
0
100
AcDbLine
 62
7
  6
CONTINUOUS
 10
300.457242616
 20
97.9563599847
 11
300.9331787209
 21
97.9563599847
  0
LINE
  5
3C1
100
AcDbEntity
  8
0
100
AcDbLine
 62
7
  6
CONTINUOUS
 10
299.6863143843
 20
98.1391749104
 11
300.2124377305
 21
98.1391749104
  0
LINE
  5
3C2
100
AcDbEntity
  8
0
100
AcDbLine
 62
7
  6
CONTINUOUS
 10
300.2124377305
 20
98.1498170176
 11
300.4127299924
 21
98.1498170176
  0
LINE
  5
3C3
100
AcDbEntity
  8
0
100
AcDbLine
 62
7
  6
CONTINUOUS
 10
300.5440853065
 20
98.2071192341
 11
300.9502548871
 21
98.2071192341
  0
LINE
  5
3C4
100
AcDbEntity
  8
0
100
AcDbLine
 62
7
  6
CONTINUOUS
 10
300.3251286683
 20
98.4185852376
 11
300.4995418121
 21
98.4185852376
  0
LINE
  5
3C5
100
AcDbEntity
  8
0
100
AcDbLine
 62
7
  6
CONTINUOUS
 10
299.6879763564
 20
98.4502358928
 11
300.2063102936
 21
98.4502358928
  0
LINE
  5
3C6
100
AcDbEntity
  8
0
100
AcDbLine
 62
7
  6
CONTINUOUS
 10
300.7325864469
 20
98.6737107078
 11
300.9475805508
 21
98.6737107078
  0
LINE
  5
3C7
100
AcDbEntity
  8
0
100
AcDbLine
 62
7
  6
CONTINUOUS
 10
300.812934386
 20
98.8377002262
 11
300.9281441038
 21
98.8377002262
  0
LINE
  5
3C8
100
AcDbEntity
  8
0
100
AcDbLine
 62
7
  6
CONTINUOUS
 10
300.5875559269
 20
99.0693582804
 11
300.7622506264
 21
99.0693582804
  0
LINE
  5
3C9
100
AcDbEntity
  8
0
100
AcDbLine
 62
7
  6
CONTINUOUS
 10
300.6541130395
 20
99.2344388367
 11
300.8506380121
 21
99.2344388367
  0
LINE
  5
3CA
100
AcDbEntity
  8
0
100
AcDbLine
 62
7
  6
CONTINUOUS
 10
300.6822719175
 20
99.3042916999
 11
300.9222896697
 21
99.3042916999
  0
LINE
  5
3CB
100
AcDbEntity
  8
AUSFORMSCHRAEGEN
100
AcDbLine
 62
8
  6
HIDDEN
 10
295.3771299929
 20
98.9113203499
 11
299.7366508784
 21
98.2208400744
  0
LINE
  5
3CC
100
AcDbEntity
  8
0
100
AcDbLine
 62
7
  6
CONTINUOUS
 10
300.4046738461
 20
100.4893248131
 11
301.027465076
 21
100.4893248131
  0
LINE
  5
3CD
100
AcDbEntity
  8
0
100
AcDbLine
 62
7
  6
CONTINUOUS
 10
299.669995794
 20
101.8126965071
 11
300.2210370565
 21
101.8126965071
  0
LINE
  5
3CE
100
AcDbEntity
  8
0
100
AcDbLine
 62
7
  6
CONTINUOUS
 10
299.6696400777
 20
101.8465308206
 11
300.1421687688
 21
101.8465308206
  0
LINE
  5
3CF
100
AcDbEntity
  8
0
100
AcDbLine
 62
7
  6
CONTINUOUS
 10
299.6683721099
 20
101.9671348688
 11
300.0975480231
 21
101.9671348688
  0
LINE
  5
3D0
100
AcDbEntity
  8
0
100
AcDbLine
 62
7
  6
CONTINUOUS
 10
299.6661029566
 20
102.1829676827
 11
300.0675075932
 21
102.1829676827
  0
LINE
  5
3D1
100
AcDbEntity
  8
0
100
AcDbLine
 62
7
  6
CONTINUOUS
 10
300.2237738724
 20
102.2369946554
 11
300.2965819075
 21
102.2369946554
  0
LINE
  5
3D2
100
AcDbEntity
  8
0
100
AcDbLine
 62
7
  6
CONTINUOUS
 10
300.184615577
 20
102.358690818
 11
300.3677866323
 21
102.358690818
  0
LINE
  5
3D3
100
AcDbEntity
  8
0
100
AcDbLine
 62
7
  6
CONTINUOUS
 10
300.1423095471
 20
103.0094638608
 11
300.6251418574
 21
103.0094638608
  0
LINE
  5
3D4
100
AcDbEntity
  8
0
100
AcDbLine
 62
7
  6
CONTINUOUS
 10
300.1311077663
 20
103.234846622
 11
300.6911932399
 21
103.234846622
  0
LINE
  5
3D5
100
AcDbEntity
  8
0
100
AcDbLine
 62
7
  6
CONTINUOUS
 10
299.6530216273
 20
103.4272116126
 11
300.0056672482
 21
103.4272116126
  0
LINE
  5
3D6
100
AcDbEntity
  8
0
100
AcDbLine
 62
7
  6
CONTINUOUS
 10
300.1605422535
 20
103.4686885319
 11
300.7375109562
 21
103.4686885319
  0
LINE
  5
3D7
100
AcDbEntity
  8
0
100
AcDbLine
 62
7
  6
CONTINUOUS
 10
300.2563624921
 20
103.7109887541
 11
300.7640949399
 21
103.7109887541
  0
LINE
  5
3D8
100
AcDbEntity
  8
0
100
AcDbLine
 62
7
  6
CONTINUOUS
 10
300.3555277097
 20
103.9617474101
 11
300.770945239
 21
103.9617474101
  0
LINE
  5
3D9
100
AcDbEntity
  8
0
100
AcDbLine
 62
7
  6
CONTINUOUS
 10
299.6438331383
 20
104.3011840703
 11
300.0974228676
 21
104.3011840703
  0
LINE
  5
3DA
100
AcDbEntity
  8
0
100
AcDbLine
 62
7
  6
CONTINUOUS
 10
299.6434774189
 20
104.3350186805
 11
300.0184880789
 21
104.3350186805
  0
LINE
  5
3DB
100
AcDbEntity
  8
0
100
AcDbLine
 62
7
  6
CONTINUOUS
 10
299.642209448
 20
104.4556230253
 11
299.9738673185
 21
104.4556230253
  0
LINE
  5
3DC
100
AcDbEntity
  8
0
100
AcDbLine
 62
7
  6
CONTINUOUS
 10
299.6399402979
 20
104.6714555426
 11
299.9438269033
 21
104.6714555426
  0
LINE
  5
3DD
100
AcDbEntity
  8
0
100
AcDbLine
 62
7
  6
CONTINUOUS
 10
300.1000930159
 20
104.7254825153
 11
300.1729012176
 21
104.7254825153
  0
LINE
  5
3DE
100
AcDbEntity
  8
0
100
AcDbLine
 62
7
  6
CONTINUOUS
 10
300.0609349187
 20
104.8471783812
 11
300.2441059572
 21
104.8471783812
  0
LINE
  5
3DF
100
AcDbEntity
  8
0
100
AcDbLine
 62
7
  6
CONTINUOUS
 10
299.6377600753
 20
104.8788296298
 11
299.9335201742
 21
104.8788296298
  0
LINE
  5
3E0
100
AcDbEntity
  8
0
100
AcDbLine
 62
7
  6
CONTINUOUS
 10
299.6345786735
 20
105.1814318856
 11
299.9377937889
 21
105.1814318856
  0
LINE
  5
3E1
100
AcDbEntity
  8
0
100
AcDbLine
 62
7
  6
CONTINUOUS
 10
300.2877218123
 20
107.4669127046
 11
300.364079909
 21
107.4849216752
  0
LINE
  5
3E2
100
AcDbEntity
  8
0
100
AcDbLine
 62
7
  6
CONTINUOUS
 10
300.6274170055
 20
105.4663005329
 11
300.8120469745
 21
105.4663005329
  0
LINE
  5
3E3
100
AcDbEntity
  8
0
100
AcDbLine
 62
7
  6
CONTINUOUS
 10
299.6314861993
 20
105.4755757151
 11
299.9618010911
 21
105.4755757151
  0
LINE
  5
3E4
100
AcDbEntity
  8
0
100
AcDbLine
 62
7
  6
CONTINUOUS
 10
299.6274814766
 20
105.8564889828
 11
300.0201224364
 21
105.8564889828
  0
LINE
  5
3E5
100
AcDbEntity
  8
0
100
AcDbLine
 62
7
  6
CONTINUOUS
 10
299.6246787474
 20
106.1230734114
 11
299.8716798367
 21
106.1230734114
  0
LINE
  5
3E6
100
AcDbEntity
  8
0
100
AcDbLine
 62
7
  6
CONTINUOUS
 10
299.8716798367
 20
106.1337155186
 11
300.0835971375
 21
106.1337155186
  0
LINE
  5
3E7
100
AcDbEntity
  8
0
100
AcDbLine
 62
7
  6
CONTINUOUS
 10
300.2220834057
 20
106.1921093931
 11
300.7759734449
 21
106.1921093931
  0
LINE
  5
3E8
100
AcDbEntity
  8
0
100
AcDbLine
 62
7
  6
CONTINUOUS
 10
299.9425455384
 20
106.402483442
 11
300.1668055186
 21
106.402483442
  0
LINE
  5
3E9
100
AcDbEntity
  8
0
100
AcDbLine
 62
7
  6
CONTINUOUS
 10
299.6206167037
 20
106.4859779899
 11
299.8536430645
 21
106.4859779899
  0
LINE
  5
3EA
100
AcDbEntity
  8
0
100
AcDbLine
 62
7
  6
CONTINUOUS
 10
300.2125126779
 20
107.4669127046
 11
300.2877218123
 21
107.4669127046
  0
LINE
  5
3EB
100
AcDbEntity
  8
0
100
AcDbLine
 62
7
  6
CONTINUOUS
 10
300.4867557295
 20
107.7474144539
 11
300.6986730063
 21
107.7474144539
  0
LINE
  5
3EC
100
AcDbEntity
  8
0
100
AcDbLine
 62
7
  6
CONTINUOUS
 10
299.657003825
 20
107.7820653675
 11
299.789226041
 21
107.7820653675
  0
LINE
  5
3ED
100
AcDbEntity
  8
0
100
AcDbLine
 62
7
  6
CONTINUOUS
 10
299.8009881803
 20
107.8118082382
 11
300.193326947
 21
107.8118082382
  0
LINE
  5
3EE
100
AcDbEntity
  8
0
100
AcDbLine
 62
7
  6
CONTINUOUS
 10
300.3014223883
 20
107.917678672
 11
300.419824555
 21
107.917678672
  0
LINE
  5
3EF
100
AcDbEntity
  8
0
100
AcDbLine
 62
7
  6
CONTINUOUS
 10
300.3014223883
 20
108.0478333899
 11
300.4712956433
 21
108.0478333899
  0
LINE
  5
3F0
100
AcDbEntity
  8
0
100
AcDbLine
 62
7
  6
CONTINUOUS
 10
299.6788865581
 20
108.0931263499
 11
299.7737659547
 21
108.0931263499
  0
LINE
  5
3F1
100
AcDbEntity
  8
0
100
AcDbLine
 62
7
  6
CONTINUOUS
 10
300.2884304613
 20
108.229831434
 11
300.5201900049
 21
108.229831434
  0
LINE
  5
3F2
100
AcDbEntity
  8
0
100
AcDbLine
 62
7
  6
CONTINUOUS
 10
300.278964542
 20
108.4202882085
 11
300.5493506672
 21
108.4202882085
  0
LINE
  5
3F3
100
AcDbEntity
  8
0
100
AcDbLine
 62
7
  6
CONTINUOUS
 10
300.2690782215
 20
108.6192035652
 11
300.5587776375
 21
108.6192035652
  0
LINE
  5
3F4
100
AcDbEntity
  8
0
100
AcDbLine
 62
7
  6
CONTINUOUS
 10
300.1421687688
 20
101.8465308206
 11
300.1523910141
 21
101.8421491946
  0
LINE
  5
3F5
100
AcDbEntity
  8
0
100
AcDbLine
 62
7
  6
CONTINUOUS
 10
300.0184880789
 20
104.3350186805
 11
300.0974228676
 21
104.3011840703
  0
LINE
  5
3F6
100
AcDbEntity
  8
0
100
AcDbLine
 62
7
  6
CONTINUOUS
 10
299.9805081195
 20
110.1322152702
 11
300.580145681
 21
110.1322152702
  0
LINE
  5
3F7
100
AcDbEntity
  8
0
100
AcDbLine
 62
7
  6
CONTINUOUS
 10
300.3657768362
 20
107.8393675232
 11
300.3263094448
 21
107.8562848358
  0
LINE
  5
3F8
100
AcDbEntity
  8
AUSFORMSCHRAEGEN
100
AcDbLine
 62
7
  6
CONTINUOUS
 10
283.3543250445
 20
191.5618898649
 11
282.3771299929
 21
188.1103583681
  0
LINE
  5
3F9
100
AcDbEntity
  8
0
100
AcDbLine
 62
7
  6
CONTINUOUS
 10
301.3088657892
 20
115.4954337906
 11
302.2428757529
 21
115.4954337906
  0
LINE
  5
3FA
100
AcDbEntity
  8
0
100
AcDbLine
 62
7
  6
CONTINUOUS
 10
303.0296896279
 20
117.353799619
 11
303.9211691609
 21
117.353799619
  0
LINE
  5
3FB
100
AcDbEntity
  8
0
100
AcDbLine
 62
7
  6
CONTINUOUS
 10
303.0592865559
 20
119.4593739533
 11
303.9211691609
 21
119.4593739533
  0
LINE
  5
3FC
100
AcDbEntity
  8
0
100
AcDbLine
 62
7
  6
CONTINUOUS
 10
279.600922129
 20
192.1522673938
 11
279.5862601995
 21
191.9444175749
  0
LWPOLYLINE
  5
3FD
100
AcDbEntity
  8
0
100
AcDbPolyline
 62
7
  6
CONTINUOUS
 90
4
 70
0
 10
279.6255000122
 20
192.5842402537
 10
279.6222648134
 20
192.5406344016
 10
279.6195988326
 20
192.4980075977
 10
279.6174605839
 20
192.4559622788
  0
LINE
  5
3FE
100
AcDbEntity
  8
0
100
AcDbLine
 62
7
  6
CONTINUOUS
 10
279.526308545
 20
191.2594194508
 11
279.4899217525
 21
190.8032710263
  0
LWPOLYLINE
  5
3FF
100
AcDbEntity
  8
0
100
AcDbPolyline
 62
7
  6
CONTINUOUS
 90
4
 70
0
 10
279.5862601995
 20
191.9444175749
 10
279.5676138153
 20
191.7130581254
 10
279.5449930404
 20
191.4582447111
 10
279.5262535871
 20
191.258860396
  0
LWPOLYLINE
  5
400
100
AcDbEntity
  8
0
100
AcDbPolyline
 62
7
  6
CONTINUOUS
 90
6
 70
0
 10
279.6526744169
 20
192.8235499453
 10
279.6459436063
 20
192.7760872703
 10
279.6394247106
 20
192.7245855555
 10
279.6339648384
 20
192.6758056171
 10
279.6293661349
 20
192.6291455404
 10
279.6255000122
 20
192.5842402537
  0
LINE
  5
401
100
AcDbEntity
  8
0
100
AcDbLine
 62
7
  6
CONTINUOUS
 10
279.9194520335
 20
194.6092459166
 11
279.6526717633
 21
192.8235293291
  0
LWPOLYLINE
  5
402
100
AcDbEntity
  8
0
100
AcDbPolyline
 62
7
  6
CONTINUOUS
 90
13
 70
0
 10
286.588370841
 20
90.2246391659
 10
286.6366650936
 20
90.0538449299
 10
286.6991920894
 20
89.8608061438
 10
286.7788583288
 20
89.6476035037
 10
286.8802575166
 20
89.4135067162
 10
287.0052776606
 20
89.1651562378
 10
287.1555280827
 20
88.9083586624
 10
287.3330722207
 20
88.6472396858
 10
287.5381377549
 20
88.3878502913
 10
287.7736677853
 20
88.1322902098
 10
288.0414908975
 20
87.8845543155
 10
288.3434772277
 20
87.6489157455
 10
288.6812401894
 20
87.4303019096
  0
LWPOLYLINE
  5
403
100
AcDbEntity
  8
0
100
AcDbPolyline
 62
7
  6
CONTINUOUS
 90
3
 70
0
 10
286.5194642846
 20
90.5168713868
 10
286.5502019242
 20
90.3779144756
 10
286.588370841
 20
90.2246391659
  0
LINE
  5
404
100
AcDbEntity
  8
0
100
AcDbLine
 62
7
  6
CONTINUOUS
 10
286.326535667
 20
92.0188355889
 11
286.3923285382
 21
91.3452440981
  0
LINE
  5
405
100
AcDbEntity
  8
0
100
AcDbLine
 62
7
  6
CONTINUOUS
 10
279.4399299929
 20
162.6501280981
 11
279.4399299929
 21
189.0361695329
  0
LWPOLYLINE
  5
406
100
AcDbEntity
  8
0
100
AcDbPolyline
 62
7
  6
CONTINUOUS
 90
3
 70
0
 10
279.6174605839
 20
192.4559622788
 10
279.6118118722
 20
192.3373584855
 10
279.600922129
 20
192.1522673938
  0
LWPOLYLINE
  5
407
100
AcDbEntity
  8
0
100
AcDbPolyline
 62
7
  6
CONTINUOUS
 90
4
 70
0
 10
279.4899217525
 20
190.8032710263
 10
279.4603449524
 20
190.2211437128
 10
279.4441064321
 20
189.5965581979
 10
279.4399300133
 20
189.0351107898
  0
LINE
  5
408
100
AcDbEntity
  8
0
100
AcDbLine
 62
7
  6
CONTINUOUS
 10
300.2399574953
 20
102.2105272509
 11
300.1979134134
 21
102.2792879808
  0
LINE
  5
409
100
AcDbEntity
  8
0
100
AcDbLine
 62
7
  6
CONTINUOUS
 10
300.1162768202
 20
104.6990148141
 11
300.0742327382
 21
104.7677755441
  0
LINE
  5
40A
100
AcDbEntity
  8
0
100
AcDbLine
 62
7
  6
CONTINUOUS
 10
285.6113973671
 20
123.7428345274
 11
288.2997394912
 21
116.5057468305
  0
LINE
  5
40B
100
AcDbEntity
  8
0
100
AcDbLine
 62
7
  6
CONTINUOUS
 10
288.2997709441
 20
116.5056603215
 11
288.2996302372
 21
116.5060462795
  0
LWPOLYLINE
  5
40C
100
AcDbEntity
  8
0
100
AcDbPolyline
 62
7
  6
CONTINUOUS
 90
9
 70
0
 10
285.4764294951
 20
124.1760786694
 10
285.4889720224
 20
124.1291267393
 10
285.5030879877
 20
124.0778978071
 10
285.5181471232
 20
124.0253168788
 10
285.5343778299
 20
123.9710371908
 10
285.5517010295
 20
123.9157071552
 10
285.5702853465
 20
123.8591133294
 10
285.5902604756
 20
123.8011874887
 10
285.6110644573
 20
123.7437418739
  0
LINE
  5
40D
100
AcDbEntity
  8
0
100
AcDbLine
 62
7
  6
CONTINUOUS
 10
285.4561025294
 20
124.253762066
 11
285.4764294951
 21
124.1760786694
  0
LWPOLYLINE
  5
40E
100
AcDbEntity
  8
0
100
AcDbPolyline
 62
7
  6
CONTINUOUS
 90
19
 70
0
 10
291.143139387
 20
76.1465992732
 10
291.1604667867
 20
76.0658440746
 10
291.190259749
 20
75.9434443808
 10
291.2298512285
 20
75.8032553878
 10
291.2816815565
 20
75.6456884085
 10
291.3491716163
 20
75.4699634504
 10
291.4349213442
 20
75.278976578
 10
291.5420893975
 20
75.0748712131
 10
291.6727293189
 20
74.8621840128
 10
291.8289481102
 20
74.6449678113
 10
292.0110649671
 20
74.4291309435
 10
292.2184167522
 20
74.220395455
 10
292.4505051567
 20
74.0231804163
 10
292.7055404519
 20
73.8421410154
 10
292.9818513848
 20
73.6809525164
 10
293.2769074973
 20
73.5431134028
 10
293.58764452
 20
73.431613308
 10
293.9098463867
 20
73.3489973321
 10
294.0736912626
 20
73.319085373
  0
LINE
  5
40F
100
AcDbEntity
  8
0
100
AcDbLine
 62
7
  6
CONTINUOUS
 10
291.1431483506
 20
76.1465551575
 11
290.8867597599
 21
77.4067453418
  0
LWPOLYLINE
  5
410
100
AcDbEntity
  8
0
100
AcDbPolyline
 62
7
  6
CONTINUOUS
 90
6
 70
0
 10
286.4175670173
 20
91.1362023661
 10
286.4342955248
 20
91.0121512582
 10
286.4522349526
 20
90.8905012261
 10
286.4718155708
 20
90.7695687826
 10
286.4939306031
 20
90.6457545138
 10
286.5194642846
 20
90.5168713868
  0
LINE
  5
411
100
AcDbEntity
  8
0
100
AcDbLine
 62
7
  6
CONTINUOUS
 10
286.4015476435
 20
91.2656491008
 11
286.4175670173
 21
91.1362023661
  0
LINE
  5
412
100
AcDbEntity
  8
0
100
AcDbLine
 62
7
  6
CONTINUOUS
 10
286.3919707365
 20
91.3484045704
 11
286.4015476435
 21
91.2656491008
  0
LWPOLYLINE
  5
413
100
AcDbEntity
  8
0
100
AcDbPolyline
 62
7
  6
CONTINUOUS
 90
3
 70
0
 10
286.2301733898
 20
93.3617538028
 10
286.2627919734
 20
92.8580605501
 10
286.326535667
 20
92.0188355889
  0
LINE
  5
414
100
AcDbEntity
  8
0
100
AcDbLine
 62
7
  6
CONTINUOUS
 10
286.1488317768
 20
94.8362087298
 11
286.1704421215
 21
94.4225097808
  0
LWPOLYLINE
  5
415
100
AcDbEntity
  8
0
100
AcDbPolyline
 62
7
  6
CONTINUOUS
 90
3
 70
0
 10
286.0430419839
 20
97.2046208969
 10
286.0951466188
 20
95.9763318462
 10
286.1488317768
 20
94.8362087298
  0
LINE
  5
416
100
AcDbEntity
  8
0
100
AcDbLine
 62
7
  6
CONTINUOUS
 10
285.9921839888
 20
98.5137999095
 11
286.0430419839
 21
97.2046208969
  0
LINE
  5
417
100
AcDbEntity
  8
0
100
AcDbLine
 62
7
  6
CONTINUOUS
 10
285.8932105253
 20
101.3507101755
 11
285.9921839888
 21
98.5137999095
  0
LINE
  5
418
100
AcDbEntity
  8
0
100
AcDbLine
 62
7
  6
CONTINUOUS
 10
285.7964508284
 20
104.4521319595
 11
285.8932105253
 21
101.3507101755
  0
LINE
  5
419
100
AcDbEntity
  8
0
100
AcDbLine
 62
7
  6
CONTINUOUS
 10
285.0663535474
 20
131.5485146331
 11
285.1872393992
 21
127.2799237665
  0
LINE
  5
41A
100
AcDbEntity
  8
0
100
AcDbLine
 62
7
  6
CONTINUOUS
 10
285.6521901459
 20
109.5597650542
 11
285.7964508284
 21
104.4521319595
  0
LINE
  5
41B
100
AcDbEntity
  8
0
100
AcDbLine
 62
7
  6
CONTINUOUS
 10
285.1872393992
 20
127.2799237665
 11
285.3788390329
 21
120.1609203507
  0
LINE
  5
41C
100
AcDbEntity
  8
0
100
AcDbLine
 62
7
  6
CONTINUOUS
 10
285.3787803448
 20
120.1632454546
 11
285.6521901459
 21
109.5597650542
  0
LINE
  5
41D
100
AcDbEntity
  8
KONSTRUKTIONSELEMENTE
100
AcDbLine
 62
7
  6
CONTINUOUS
 10
282.2039810373
 20
141.1691289408
 11
281.5212278324
 21
173.5918068649
  0
LINE
  5
41E
100
AcDbEntity
  8
KONSTRUKTIONSELEMENTE
100
AcDbLine
 62
7
  6
CONTINUOUS
 10
282.9020619741
 20
143.7222129328
 11
282.9020619741
 21
144.3258463799
  0
LINE
  5
41F
100
AcDbEntity
  8
AUSFORMSCHRAEGEN
100
AcDbLine
 62
7
  6
CONTINUOUS
 10
282.9020619741
 20
161.4157203073
 11
282.9020619741
 21
164.2834615392
  0
LINE
  5
420
100
AcDbEntity
  8
BEZUGSACHSEN
100
AcDbLine
 62
7
  6
CONTINUOUS
 10
285.1950299929
 20
202.1289111966
 11
285.1950299929
 21
200.009120377
  0
LINE
  5
421
100
AcDbEntity
  8
BEZUGSACHSEN
100
AcDbLine
 62
7
  6
CONTINUOUS
 10
285.1950299929
 20
202.3357742887
 11
285.1950299929
 21
202.9458203499
  0
LINE
  5
422
100
AcDbEntity
  8
0
100
AcDbLine
 62
7
  6
CONTINUOUS
 10
285.3114996219
 20
125.3759935707
 11
285.3114996219
 21
126.9309600207
  0
LINE
  5
423
100
AcDbEntity
  8
BEZUGSACHSEN
100
AcDbLine
 62
7
  6
CONTINUOUS
 10
284.3867746046
 20
146.7762818679
 11
284.3820681141
 21
146.6697873078
  0
LINE
  5
424
100
AcDbEntity
  8
AUSFORMSCHRAEGEN
100
AcDbLine
 62
7
  6
CONTINUOUS
 10
284.6106410802
 20
136.410472143
 11
284.5244991281
 21
134.8247150672
  0
LINE
  5
425
100
AcDbEntity
  8
KONSTRUKTIONSELEMENTE
100
AcDbLine
 62
7
  6
CONTINUOUS
 10
286.5825461123
 20
131.0444945352
 11
286.2135442794
 21
131.0444945352
  0
LINE
  5
426
100
AcDbEntity
  8
0
100
AcDbLine
 62
7
  6
CONTINUOUS
 10
304.1717138735
 20
131.0444945352
 11
304.5407157064
 21
131.0444945352
  0
LINE
  5
427
100
AcDbEntity
  8
0
100
AcDbLine
 62
7
  6
CONTINUOUS
 10
304.2689909182
 20
131.9715455183
 11
303.7978496328
 21
131.9715455183
  0
LINE
  5
428
100
AcDbEntity
  8
KONSTRUKTIONSELEMENTE
100
AcDbLine
 62
7
  6
CONTINUOUS
 10
286.4852690676
 20
131.9715455183
 11
286.9564103531
 21
131.9715455183
  0
LINE
  5
429
100
AcDbEntity
  8
0
100
AcDbLine
 62
7
  6
CONTINUOUS
 10
300.0975480231
 20
101.9671348688
 11
300.1421687688
 21
101.8465308206
  0
LINE
  5
42A
100
AcDbEntity
  8
0
100
AcDbLine
 62
7
  6
CONTINUOUS
 10
299.9738673185
 20
104.4556230253
 11
300.0184880789
 21
104.3350186805
  0
LINE
  5
42B
100
AcDbEntity
  8
KONSTRUKTIONSELEMENTE
100
AcDbLine
 62
7
  6
CONTINUOUS
 10
284.5207235324
 20
132.9466075678
 11
282.5913707798
 21
138.8923277439
  0
LINE
  5
42C
100
AcDbEntity
  8
KONSTRUKTIONSELEMENTE
100
AcDbLine
 62
7
  6
CONTINUOUS
 10
284.5207235324
 20
132.9466075678
 11
284.7583278112
 21
132.1032570219
  0
LINE
  5
42D
100
AcDbEntity
  8
KONSTRUKTIONSELEMENTE
100
AcDbLine
 62
7
  6
CONTINUOUS
 10
285.0300525994
 20
133.0303080051
 11
284.5244991281
 21
134.8247150672
  0
LINE
  5
42E
100
AcDbEntity
  8
KONSTRUKTIONSELEMENTE
100
AcDbLine
 62
7
  6
CONTINUOUS
 10
283.241507086
 20
141.2700643482
 11
284.6106410802
 21
136.410472143
  0
LINE
  5
42F
100
AcDbEntity
  8
0
100
AcDbLine
 62
7
  6
CONTINUOUS
 10
281.9485785693
 20
153.2977164046
 11
279.4400038221
 21
162.6598448157
  0
LINE
  5
430
100
AcDbEntity
  8
0
100
AcDbLine
 62
7
  6
CONTINUOUS
 10
288.3801964775
 20
116.1031034197
 11
288.3801964775
 21
113.0840356269
  0
LINE
  5
431
100
AcDbEntity
  8
KONSTRUKTIONSELEMENTE
100
AcDbLine
 62
7
  6
CONTINUOUS
 10
290.8771299929
 20
165.6144104976
 11
290.8771299929
 21
183.2018551079
  0
LINE
  5
432
100
AcDbEntity
  8
0
100
AcDbLine
 62
7
  6
CONTINUOUS
 10
288.3799962521
 20
113.3934270414
 11
288.3789547979
 21
113.2743276284
  0
LWPOLYLINE
  5
433
100
AcDbEntity
  8
0
100
AcDbPolyline
 62
7
  6
CONTINUOUS
 90
3
 70
0
 10
288.3789547979
 20
113.2743276284
 10
288.3769249177
 20
113.1499966483
 10
288.3744236273
 20
113.0434424451
  0
LWPOLYLINE
  5
434
100
AcDbEntity
  8
0
100
AcDbPolyline
 62
7
  6
CONTINUOUS
 90
4
 70
0
 10
288.3744236301
 20
113.0434425499
 10
288.3704663313
 20
112.914872451
 10
288.3646013876
 20
112.7662825256
 10
288.3572524492
 20
112.6159774093
  0
LINE
  5
435
100
AcDbEntity
  8
0
100
AcDbLine
 62
7
  6
CONTINUOUS
 10
288.3572524492
 20
112.6159774093
 11
288.3226001413
 21
112.0481442051
  0
LINE
  5
436
100
AcDbEntity
  8
0
100
AcDbLine
 62
7
  6
CONTINUOUS
 10
288.3226001413
 20
112.0481442051
 11
288.1002332325
 21
108.5250594425
  0
LINE
  5
437
100
AcDbEntity
  8
0
100
AcDbLine
 62
7
  6
CONTINUOUS
 10
288.1002332325
 20
108.5250594425
 11
287.9240199376
 21
105.8355142146
  0
LINE
  5
438
100
AcDbEntity
  8
0
100
AcDbLine
 62
7
  6
CONTINUOUS
 10
287.9240199376
 20
105.8355142146
 11
287.7892500991
 21
103.8619620508
  0
LINE
  5
439
100
AcDbEntity
  8
0
100
AcDbLine
 62
7
  6
CONTINUOUS
 10
287.7892500991
 20
103.8619620508
 11
287.6600807592
 21
102.0583409911
  0
LINE
  5
43A
100
AcDbEntity
  8
0
100
AcDbLine
 62
7
  6
CONTINUOUS
 10
287.6600807592
 20
102.0583409911
 11
287.5365472889
 21
100.4333307751
  0
LWPOLYLINE
  5
43B
100
AcDbEntity
  8
0
100
AcDbPolyline
 62
7
  6
CONTINUOUS
 90
3
 70
0
 10
287.5365472889
 20
100.4333307751
 10
287.4476102144
 20
99.3356625532
 10
287.4186842931
 20
98.9933321113
  0
LINE
  5
43C
100
AcDbEntity
  8
AUSFORMSCHRAEGEN
100
AcDbLine
 62
7
  6
CONTINUOUS
 10
286.2710025324
 20
137.1283926033
 11
286.7178781395
 21
138.0398165329
  0
LINE
  5
43D
100
AcDbEntity
  8
AUSFORMSCHRAEGEN
100
AcDbLine
 62
7
  6
CONTINUOUS
 10
286.8987154506
 20
135.9229603963
 11
287.3455910577
 21
136.8343843259
  0
LINE
  5
43E
100
AcDbEntity
  8
0
100
AcDbLine
 62
7
  6
CONTINUOUS
 10
298.4226388297
 20
151.4731482333
 11
295.6370933224
 21
149.9436254303
  0
LINE
  5
43F
100
AcDbEntity
  8
0
100
AcDbLine
 62
7
  6
CONTINUOUS
 10
296.2926388297
 20
149.1395041066
 11
298.4226388297
 21
150.3090716337
  0
LINE
  5
440
100
AcDbEntity
  8
0
100
AcDbLine
 62
7
  6
CONTINUOUS
 10
296.2926388297
 20
148.9849956094
 11
298.4226388297
 21
150.1545631365
  0
LINE
  5
441
100
AcDbEntity
  8
0
100
AcDbLine
 62
7
  6
CONTINUOUS
 10
306.2297608577
 20
134.8247150672
 11
305.6681601093
 21
134.8247150672
  0
LINE
  5
442
100
AcDbEntity
  8
AUSFORMSCHRAEGEN
100
AcDbLine
 62
7
  6
CONTINUOUS
 10
284.5244991281
 20
134.8247150672
 11
285.0860998765
 21
134.8247150672
  0
LINE
  5
443
100
AcDbEntity
  8
0
100
AcDbLine
 62
7
  6
CONTINUOUS
 10
306.1436189056
 20
136.410472143
 11
305.6681601093
 21
136.410472143
  0
LINE
  5
444
100
AcDbEntity
  8
AUSFORMSCHRAEGEN
100
AcDbLine
 62
7
  6
CONTINUOUS
 10
284.6106410802
 20
136.410472143
 11
285.0860998765
 21
136.410472143
  0
LINE
  5
445
100
AcDbEntity
  8
0
100
AcDbLine
 62
7
  6
CONTINUOUS
 10
300.2431010637
 20
107.5875169125
 11
300.2877218123
 21
107.4669127046
  0
LINE
  5
446
100
AcDbEntity
  8
BEZUGSACHSEN
100
AcDbLine
 62
7
  6
CONTINUOUS
 10
286.2614123824
 20
158.0328644549
 11
286.2396482752
 21
158.208164154
  0
LINE
  5
447
100
AcDbEntity
  8
0
100
AcDbLine
 62
7
  6
CONTINUOUS
 10
292.0426388297
 20
146.059297201
 11
292.0426388297
 21
149.3047393762
  0
LINE
  5
448
100
AcDbEntity
  8
0
100
AcDbLine
 62
7
  6
CONTINUOUS
 10
292.0426388297
 20
152.127037775
 11
292.0426388297
 21
153.498898613
  0
LINE
  5
449
100
AcDbEntity
  8
0
100
AcDbLine
 62
7
  6
CONTINUOUS
 10
292.0426388297
 20
155.7790947976
 11
292.0426388297
 21
157.1509556356
  0
LINE
  5
44A
100
AcDbEntity
  8
0
100
AcDbLine
 62
7
  6
CONTINUOUS
 10
292.0426388297
 20
158.2137994793
 11
292.0426388297
 21
161.0978401782
  0
LINE
  5
44B
100
AcDbEntity
  8
0
100
AcDbLine
 62
7
  6
CONTINUOUS
 10
293.1026388297
 20
146.059297201
 11
293.1026388297
 21
148.886274509
  0
LINE
  5
44C
100
AcDbEntity
  8
0
100
AcDbLine
 62
7
  6
CONTINUOUS
 10
293.1026388297
 20
158.2137994793
 11
293.1026388297
 21
160.8441761359
  0
LINE
  5
44D
100
AcDbEntity
  8
0
100
AcDbLine
 62
7
  6
CONTINUOUS
 10
293.7426388297
 20
146.059297201
 11
293.7426388297
 21
147.2219256055
  0
LINE
  5
44E
100
AcDbEntity
  8
0
100
AcDbLine
 62
7
  6
CONTINUOUS
 10
293.7426388297
 20
158.2137994793
 11
293.7426388297
 21
159.5856603173
  0
LINE
  5
44F
100
AcDbEntity
  8
0
100
AcDbLine
 62
7
  6
CONTINUOUS
 10
294.4358355797
 20
161.9545691516
 11
294.4358355797
 21
162.1090776488
  0
LINE
  5
450
100
AcDbEntity
  8
0
100
AcDbLine
 62
7
  6
CONTINUOUS
 10
294.7026388297
 20
148.886274509
 11
294.7026388297
 21
147.2219256055
  0
LINE
  5
451
100
AcDbEntity
  8
BEZUGSACHSEN
100
AcDbLine
 62
2
  6
CENTER
 10
295.3771299929
 20
201.2738203499
 11
295.3771299929
 21
195.8588203499
  0
LINE
  5
452
100
AcDbEntity
  8
BEZUGSACHSEN
100
AcDbLine
 62
2
  6
CENTER
 10
295.3771299929
 20
193.7495680048
 11
295.3771299929
 21
192.8588203499
  0
LINE
  5
453
100
AcDbEntity
  8
BG_STARTBEZUEGE
100
AcDbLine
 62
2
  6
CENTER
 10
295.3771299929
 20
120.1609203499
 11
295.3771299929
 21
70.8879451949
  0
LINE
  5
454
100
AcDbEntity
  8
0
100
AcDbLine
 62
7
  6
CONTINUOUS
 10
295.3771299929
 20
73.112640939
 11
295.3771299929
 21
140.4001930787
  0
LINE
  5
455
100
AcDbEntity
  8
0
100
AcDbLine
 62
7
  6
CONTINUOUS
 10
295.3771299929
 20
166.0347346989
 11
295.3771299929
 21
183.2018551079
  0
LINE
  5
456
100
AcDbEntity
  8
BEZUGSACHSEN
100
AcDbLine
 62
7
  6
CONTINUOUS
 10
295.3771299929
 20
193.7495680048
 11
295.3771299929
 21
195.8588203499
  0
LINE
  5
457
100
AcDbEntity
  8
BEZUGSACHSEN
100
AcDbLine
 62
2
  6
CENTER
 10
295.3771299929
 20
201.2738203499
 11
295.3771299929
 21
209.6888203499
  0
LINE
  5
458
100
AcDbEntity
  8
BG_STARTBEZUEGE
100
AcDbLine
 62
2
  6
CENTER
 10
295.3771299929
 20
120.1609203499
 11
295.3771299929
 21
216.8226645296
  0
LINE
  5
459
100
AcDbEntity
  8
0
100
AcDbLine
 62
7
  6
CONTINUOUS
 10
295.7626388297
 20
147.2219256055
 11
295.7626388297
 21
148.2664466569
  0
LINE
  5
45A
100
AcDbEntity
  8
0
100
AcDbLine
 62
7
  6
CONTINUOUS
 10
291.1336432822
 20
106.5094388294
 11
291.0725742092
 21
100.7007919391
  0
LINE
  5
45B
100
AcDbEntity
  8
0
100
AcDbLine
 62
7
  6
CONTINUOUS
 10
289.3405227848
 20
103.331548357
 11
289.7156223499
 21
109.6561863554
  0
LINE
  5
45C
100
AcDbEntity
  8
0
100
AcDbLine
 62
7
  6
CONTINUOUS
 10
290.6191611583
 20
109.6561863554
 11
290.2440615914
 21
103.3315483259
  0
LINE
  5
45D
100
AcDbEntity
  8
0
100
AcDbLine
 62
7
  6
CONTINUOUS
 10
287.4186842931
 20
98.9933321113
 11
287.334141624
 21
98.038262686
  0
LINE
  5
45E
100
AcDbEntity
  8
0
100
AcDbLine
 62
7
  6
CONTINUOUS
 10
287.334141624
 20
98.038262686
 11
287.287312811
 21
97.5406755745
  0
LWPOLYLINE
  5
45F
100
AcDbEntity
  8
0
100
AcDbPolyline
 62
7
  6
CONTINUOUS
 90
7
 70
0
 10
287.0711949777
 20
95.5878421947
 10
287.0597794735
 20
95.502854281
 10
287.038932877
 20
95.3531752208
 10
287.0192113426
 20
95.2184785027
 10
287.0007917763
 20
95.0991910473
 10
286.9839473549
 20
94.9961030195
 10
286.968923205
 20
94.9095153441
  0
LWPOLYLINE
  5
460
100
AcDbEntity
  8
0
100
AcDbPolyline
 62
7
  6
CONTINUOUS
 90
3
 70
0
 10
286.968923205
 20
94.9095153441
 10
286.9562980307
 20
94.8412475846
 10
286.9508318838
 20
94.8132159464
  0
LWPOLYLINE
  5
461
100
AcDbEntity
  8
0
100
AcDbPolyline
 62
7
  6
CONTINUOUS
 90
7
 70
0
 10
285.6700620403
 20
128.7808406446
 10
285.6091289053
 20
128.6217965538
 10
285.4951770192
 20
128.2670372371
 10
285.4082094174
 20
127.9045209331
 10
285.3487204062
 20
127.5364882573
 10
285.3170602289
 20
127.1652142547
 10
285.31150051
 20
126.9280236981
  0
LWPOLYLINE
  5
462
100
AcDbEntity
  8
0
100
AcDbPolyline
 62
7
  6
CONTINUOUS
 90
13
 70
0
 10
289.7803678078
 20
137.9340376991
 10
289.5854515489
 20
137.5813606759
 10
289.3306860718
 20
137.1056779421
 10
289.0723304228
 20
136.6077065949
 10
288.8121847179
 20
136.091478003
 10
288.5521391698
 20
135.5611889708
 10
288.2940703994
 20
135.0210225786
 10
288.0398513995
 20
134.4751810147
 10
287.7913577462
 20
133.9279132597
 10
287.5504018998
 20
133.3833813081
 10
287.3187986764
 20
132.8458136433
 10
287.0983456688
 20
132.3194811697
 10
285.6700342513
 20
128.7807718367
  0
LINE
  5
463
100
AcDbEntity
  8
0
100
AcDbLine
 62
7
  6
CONTINUOUS
 10
289.7809467001
 20
137.9350671219
 11
289.7803680445
 21
137.9340375664
  0
LWPOLYLINE
  5
464
100
AcDbEntity
  8
0
100
AcDbPolyline
 62
7
  6
CONTINUOUS
 90
7
 70
0
 10
293.6431280877
 20
140.4247620507
 10
293.562747869
 20
140.4091157242
 10
293.3233175807
 20
140.3573427007
 10
293.0863084237
 20
140.2982259641
 10
292.8516234443
 20
140.2315941757
 10
292.6191517915
 20
140.1571824665
 10
292.5605335747
 20
140.1370328121
  0
LINE
  5
465
100
AcDbEntity
  8
0
100
AcDbLine
 62
7
  6
CONTINUOUS
 10
295.3771299929
 20
140.7528762559
 11
293.6431228369
 21
140.4247863594
  0
LINE
  5
466
100
AcDbEntity
  8
0
100
AcDbLine
 62
7
  6
CONTINUOUS
 10
291.8771299929
 20
141.1657547245
 11
298.8771299929
 21
141.1657547245
  0
LINE
  5
467
100
AcDbEntity
  8
RUNDUNGEN
100
AcDbLine
 62
7
  6
CONTINUOUS
 10
297.111137149
 20
140.4247863594
 11
295.3771299929
 21
140.7528762559
  0
LWPOLYLINE
  5
468
100
AcDbEntity
  8
RUNDUNGEN
100
AcDbPolyline
 62
7
  6
CONTINUOUS
 90
7
 70
0
 10
298.1937263141
 20
140.1370328459
 10
298.1351646188
 20
140.1571633456
 10
297.9027116073
 20
140.2315715263
 10
297.6679914418
 20
140.2982153377
 10
297.4309377548
 20
140.3573437827
 10
297.1914991096
 20
140.4091183258
 10
297.1111318964
 20
140.4247620511
  0
LWPOLYLINE
  5
469
100
AcDbEntity
  8
RUNDUNGEN
100
AcDbPolyline
 62
7
  6
CONTINUOUS
 90
6
 70
0
 10
303.8121723167
 20
94.7696174863
 10
303.8144116958
 20
94.7607356537
 10
303.8142438123
 20
94.7615894903
 10
303.8084657266
 20
94.78839896
 10
303.7985824581
 20
94.8380140171
 10
303.7852689425
 20
94.9098939529
  0
LINE
  5
46A
100
AcDbEntity
  8
0
100
AcDbLine
 62
7
  6
CONTINUOUS
 10
300.3263094448
 20
107.8562848358
 11
300.3014223883
 21
107.9684304616
  0
LINE
  5
46B
100
AcDbEntity
  8
BEZUGSACHSEN
100
AcDbLine
 62
7
  6
CONTINUOUS
 10
304.122116014
 20
90.2904557182
 11
304.1215956403
 21
90.2929584464
  0
LWPOLYLINE
  5
46C
100
AcDbEntity
  8
RUNDUNGEN
100
AcDbPolyline
 62
7
  6
CONTINUOUS
 90
5
 70
0
 10
303.7852689425
 20
94.9098939529
 10
303.7692428326
 20
95.0024686228
 10
303.7510031619
 20
95.1147710381
 10
303.7310296088
 20
95.2453607835
 10
303.7095603239
 20
95.3938498462
  0
LINE
  5
46D
100
AcDbEntity
  8
0
100
AcDbLine
 62
7
  6
CONTINUOUS
 10
300.1979134134
 20
102.2792879808
 11
300.1704496856
 21
102.4432769059
  0
LINE
  5
46E
100
AcDbEntity
  8
0
100
AcDbLine
 62
7
  6
CONTINUOUS
 10
300.0742327382
 20
104.7677755441
 11
300.0467689958
 21
104.9317647658
  0
LINE
  5
46F
100
AcDbEntity
  8
0
100
AcDbLine
 62
7
  6
CONTINUOUS
 10
300.0675075932
 20
102.1829676827
 11
300.0975480231
 21
101.9671348688
  0
LINE
  5
470
100
AcDbEntity
  8
0
100
AcDbLine
 62
7
  6
CONTINUOUS
 10
299.9438269033
 20
104.6714555426
 11
299.9738673185
 21
104.4556230253
  0
LINE
  5
471
100
AcDbEntity
  8
RUNDUNGEN
100
AcDbLine
 62
7
  6
CONTINUOUS
 10
303.4669470225
 20
97.5406771544
 11
303.4180412143
 21
98.0608727783
  0
LINE
  5
472
100
AcDbEntity
  8
RUNDUNGEN
100
AcDbLine
 62
7
  6
CONTINUOUS
 10
303.4180412143
 20
98.0608727783
 11
303.3581644582
 21
98.7313543514
  0
LINE
  5
473
100
AcDbEntity
  8
RUNDUNGEN
100
AcDbLine
 62
7
  6
CONTINUOUS
 10
303.3581644582
 20
98.7313543514
 11
303.2652873406
 21
99.8379775243
  0
LINE
  5
474
100
AcDbEntity
  8
RUNDUNGEN
100
AcDbLine
 62
7
  6
CONTINUOUS
 10
303.2652873406
 20
99.8379775243
 11
303.1688426604
 21
101.0631994391
  0
LINE
  5
475
100
AcDbEntity
  8
RUNDUNGEN
100
AcDbLine
 62
7
  6
CONTINUOUS
 10
303.1688426604
 20
101.0631994391
 11
303.0347214397
 21
102.8765865853
  0
LINE
  5
476
100
AcDbEntity
  8
RUNDUNGEN
100
AcDbLine
 62
7
  6
CONTINUOUS
 10
303.0347214397
 20
102.8765865853
 11
302.8942018713
 21
104.888501931
  0
LINE
  5
477
100
AcDbEntity
  8
RUNDUNGEN
100
AcDbLine
 62
7
  6
CONTINUOUS
 10
302.8942018713
 20
104.888501931
 11
302.7095213966
 21
107.666666125
  0
LINE
  5
478
100
AcDbEntity
  8
RUNDUNGEN
100
AcDbLine
 62
7
  6
CONTINUOUS
 10
302.7095213966
 20
107.666666125
 11
302.5148884974
 21
110.7154407388
  0
LINE
  5
479
100
AcDbEntity
  8
RUNDUNGEN
100
AcDbLine
 62
7
  6
CONTINUOUS
 10
302.5148884974
 20
110.7154407388
 11
302.4044935637
 21
112.486378344
  0
LINE
  5
47A
100
AcDbEntity
  8
0
100
AcDbLine
 62
7
  6
CONTINUOUS
 10
300.3250962305
 20
106.4525974769
 11
300.3398884522
 21
106.2031825057
  0
LINE
  5
47B
100
AcDbEntity
  8
0
100
AcDbLine
 62
7
  6
CONTINUOUS
 10
301.413737201
 20
103.331548357
 11
301.0386376359
 21
109.6561863554
  0
LINE
  5
47C
100
AcDbEntity
  8
RUNDUNGEN
100
AcDbLine
 62
7
  6
CONTINUOUS
 10
302.4044931171
 20
112.4863851078
 11
302.3970075366
 21
112.6159774093
  0
LINE
  5
47D
100
AcDbEntity
  8
0
100
AcDbLine
 62
7
  6
CONTINUOUS
 10
299.7737659547
 20
108.0931263499
 11
299.789226041
 21
107.7820653675
  0
LINE
  5
47E
100
AcDbEntity
  8
0
100
AcDbLine
 62
7
  6
CONTINUOUS
 10
299.8536430645
 20
106.4859779899
 11
299.8716798367
 21
106.1230734114
  0
LINE
  5
47F
100
AcDbEntity
  8
0
100
AcDbLine
 62
7
  6
CONTINUOUS
 10
299.9335201742
 20
104.8788296298
 11
299.9438269033
 21
104.6714555426
  0
LINE
  5
480
100
AcDbEntity
  8
0
100
AcDbLine
 62
7
  6
CONTINUOUS
 10
300.0056672482
 20
103.4272116126
 11
300.0675075932
 21
102.1829676827
  0
LINE
  5
481
100
AcDbEntity
  8
0
100
AcDbLine
 62
7
  6
CONTINUOUS
 10
300.1704496856
 20
102.4432769059
 11
300.1240694269
 21
103.3764598534
  0
LINE
  5
482
100
AcDbEntity
  8
0
100
AcDbLine
 62
7
  6
CONTINUOUS
 10
300.0467689958
 20
104.9317647658
 11
300.0364622667
 21
105.139138853
  0
LINE
  5
483
100
AcDbEntity
  8
0
100
AcDbLine
 62
7
  6
CONTINUOUS
 10
300.1495233706
 20
108.6931476639
 11
300.193326947
 21
107.8118082382
  0
LINE
  5
484
100
AcDbEntity
  8
0
100
AcDbLine
 62
7
  6
CONTINUOUS
 10
300.3014223883
 20
107.9684304616
 11
300.252465451
 21
108.9534568567
  0
LINE
  5
485
100
AcDbEntity
  8
0
100
AcDbLine
 62
7
  6
CONTINUOUS
 10
300.7245649803
 20
104.8949303575
 11
300.770945239
 21
103.9617474101
  0
LINE
  5
486
100
AcDbEntity
  8
0
100
AcDbLine
 62
7
  6
CONTINUOUS
 10
300.5098207002
 20
109.6042299603
 11
300.5587776375
 21
108.6192035652
  0
LINE
  5
487
100
AcDbEntity
  8
0
100
AcDbLine
 62
7
  6
CONTINUOUS
 10
300.8738873195
 20
104.2220566029
 11
300.8120469745
 21
105.4663005329
  0
LINE
  5
488
100
AcDbEntity
  8
0
100
AcDbLine
 62
7
  6
CONTINUOUS
 10
300.7914335311
 20
105.8810484106
 11
300.7759734449
 21
106.1921093931
  0
LINE
  5
489
100
AcDbEntity
  8
0
100
AcDbLine
 62
7
  6
CONTINUOUS
 10
300.7141330999
 20
107.4363533231
 11
300.6986730063
 21
107.7474144539
  0
LINE
  5
48A
100
AcDbEntity
  8
0
100
AcDbLine
 62
7
  6
CONTINUOUS
 10
300.6419860259
 20
108.8879713402
 11
300.580145681
 21
110.1322152702
  0
LINE
  5
48B
100
AcDbEntity
  8
0
100
AcDbLine
 62
7
  6
CONTINUOUS
 10
299.6206167037
 20
106.5094388294
 11
299.6816857766
 21
100.7007919391
  0
LINE
  5
48C
100
AcDbEntity
  8
0
100
AcDbLine
 62
7
  6
CONTINUOUS
 10
297.3626388297
 20
160.8441724821
 11
297.3626388297
 21
159.5856603173
  0
LINE
  5
48D
100
AcDbEntity
  8
0
100
AcDbLine
 62
7
  6
CONTINUOUS
 10
298.4226388297
 20
146.059297201
 11
298.4226388297
 21
147.2219256055
  0
LINE
  5
48E
100
AcDbEntity
  8
0
100
AcDbLine
 62
7
  6
CONTINUOUS
 10
298.4226388297
 20
150.1545631365
 11
298.4226388297
 21
151.4731482333
  0
LINE
  5
48F
100
AcDbEntity
  8
0
100
AcDbLine
 62
7
  6
CONTINUOUS
 10
298.4226388297
 20
158.2137994793
 11
298.4226388297
 21
161.0978401782
  0
LINE
  5
490
100
AcDbEntity
  8
0
100
AcDbLine
 62
7
  6
CONTINUOUS
 10
299.8771299929
 20
165.6144104976
 11
299.8771299929
 21
183.2018551079
  0
LINE
  5
491
100
AcDbEntity
  8
0
100
AcDbLine
 62
7
  6
CONTINUOUS
 10
299.9377937889
 20
105.1814318856
 11
299.9335201742
 21
104.8788296298
  0
LINE
  5
492
100
AcDbEntity
  8
0
100
AcDbLine
 62
7
  6
CONTINUOUS
 10
286.6321439718
 20
90.2904557182
 11
286.6326643456
 21
90.2929584464
  0
LWPOLYLINE
  5
493
100
AcDbEntity
  8
0
100
AcDbPolyline
 62
7
  6
CONTINUOUS
 90
9
 70
0
 10
292.5607632881
 20
140.1371127362
 10
292.2076216723
 20
140.002534895
 10
291.728603914
 20
139.7786053037
 10
291.283998075
 20
139.5182655541
 10
290.8764213736
 20
139.222188725
 10
290.5093736317
 20
138.8926450321
 10
290.1861073997
 20
138.5332491767
 10
289.9085143677
 20
138.1476686814
 10
289.7809467001
 20
137.9350671219
  0
LINE
  5
494
100
AcDbEntity
  8
0
100
AcDbLine
 62
7
  6
CONTINUOUS
 10
292.0426388297
 20
146.059297201
 11
293.1026388297
 21
146.059297201
  0
LINE
  5
495
100
AcDbEntity
  8
0
100
AcDbLine
 62
7
  6
CONTINUOUS
 10
293.7426388297
 20
146.059297201
 11
298.4226388297
 21
146.059297201
  0
LINE
  5
496
100
AcDbEntity
  8
0
100
AcDbLine
 62
7
  6
CONTINUOUS
 10
292.0426388297
 20
146.2138056982
 11
293.1026388297
 21
146.2138056982
  0
LINE
  5
497
100
AcDbEntity
  8
0
100
AcDbLine
 62
7
  6
CONTINUOUS
 10
293.7426388297
 20
146.2138056982
 11
298.4226388297
 21
146.2138056982
  0
LINE
  5
498
100
AcDbEntity
  8
0
100
AcDbLine
 62
7
  6
CONTINUOUS
 10
298.4226388297
 20
147.2219256055
 11
295.7626388297
 21
147.2219256055
  0
LINE
  5
499
100
AcDbEntity
  8
0
100
AcDbLine
 62
7
  6
CONTINUOUS
 10
294.7026388297
 20
147.2219256055
 11
293.7426388297
 21
147.2219256055
  0
LWPOLYLINE
  5
49A
100
AcDbEntity
  8
RUNDUNGEN
100
AcDbPolyline
 62
7
  6
CONTINUOUS
 90
9
 70
0
 10
300.9733132857
 20
137.9350671219
 10
300.8457456181
 20
138.1476686814
 10
300.5681525861
 20
138.5332491767
 10
300.2448863542
 20
138.8926450321
 10
299.8778386122
 20
139.222188725
 10
299.4702619108
 20
139.5182655541
 10
299.0256560718
 20
139.7786053037
 10
298.5466383135
 20
140.002534895
 10
298.1934966977
 20
140.1371127362
  0
LINE
  5
49B
100
AcDbEntity
  8
RUNDUNGEN
100
AcDbLine
 62
7
  6
CONTINUOUS
 10
300.9733132857
 20
137.9350671219
 11
300.9738919413
 21
137.9340375664
  0
LINE
  5
49C
100
AcDbEntity
  8
0
100
AcDbLine
 62
7
  6
CONTINUOUS
 10
303.8555445353
 20
135.9229603963
 11
303.4086689281
 21
136.8343843259
  0
LWPOLYLINE
  5
49D
100
AcDbEntity
  8
RUNDUNGEN
100
AcDbPolyline
 62
7
  6
CONTINUOUS
 90
12
 70
0
 10
303.655914317
 20
132.3194811697
 10
303.4354613095
 20
132.8458136433
 10
303.203858086
 20
133.3833813081
 10
302.9629022396
 20
133.9279132597
 10
302.7144085863
 20
134.4751810147
 10
302.4601895864
 20
135.0210225786
 10
302.202120816
 20
135.5611889708
 10
301.9420752679
 20
136.091478003
 10
301.681929563
 20
136.6077065949
 10
301.423573914
 20
137.1056779421
 10
301.168808437
 20
137.5813606759
 10
300.973892178
 20
137.9340376991
  0
LINE
  5
49E
100
AcDbEntity
  8
RUNDUNGEN
100
AcDbLine
 62
7
  6
CONTINUOUS
 10
305.0842257345
 20
128.7807718368
 11
303.655914317
 21
132.3194811697
  0
LINE
  5
49F
100
AcDbEntity
  8
RUNDUNGEN
100
AcDbLine
 62
7
  6
CONTINUOUS
 10
303.7095603239
 20
95.3938498462
 11
303.6830588362
 21
95.5878887106
  0
LWPOLYLINE
  5
4A0
100
AcDbEntity
  8
RUNDUNGEN
100
AcDbPolyline
 62
7
  6
CONTINUOUS
 90
4
 70
0
 10
302.3970075366
 20
112.6159774093
 10
302.3896585983
 20
112.7662825256
 10
302.3837936545
 20
112.914872451
 10
302.3798363557
 20
113.0434425499
  0
LWPOLYLINE
  5
4A1
100
AcDbEntity
  8
RUNDUNGEN
100
AcDbPolyline
 62
7
  6
CONTINUOUS
 90
7
 70
0
 10
305.4427596737
 20
126.9283795866
 10
305.4367339011
 20
127.1748298982
 10
305.4045878484
 20
127.5441586114
 10
305.3449040557
 20
127.9102229536
 10
305.2580320063
 20
128.2707838211
 10
305.1444622791
 20
128.62363579
 10
305.0841983238
 20
128.7808397069
  0
LWPOLYLINE
  5
4A2
100
AcDbEntity
  8
RUNDUNGEN
100
AcDbPolyline
 62
7
  6
CONTINUOUS
 90
3
 70
0
 10
302.3798363585
 20
113.0434424451
 10
302.3773350681
 20
113.1499966483
 10
302.375305188
 20
113.2743276284
  0
LINE
  5
4A3
100
AcDbEntity
  8
RUNDUNGEN
100
AcDbLine
 62
7
  6
CONTINUOUS
 10
302.375305188
 20
113.2743276284
 11
302.3742637337
 21
113.3934270414
  0
LINE
  5
4A4
100
AcDbEntity
  8
RUNDUNGEN
100
AcDbLine
 62
7
  6
CONTINUOUS
 10
302.3740635083
 20
115.8052845056
 11
302.3740635083
 21
113.0840356269
  0
LINE
  5
4A5
100
AcDbEntity
  8
0
100
AcDbLine
 62
7
  6
CONTINUOUS
 10
303.9211691609
 20
120.454225862
 11
303.9211691609
 21
117.353799619
  0
LINE
  5
4A6
100
AcDbEntity
  8
RUNDUNGEN
100
AcDbLine
 62
7
  6
CONTINUOUS
 10
305.442760364
 20
126.9309600207
 11
305.442760364
 21
125.3759935707
  0
LINE
  5
4A7
100
AcDbEntity
  8
BEZUGSACHSEN
100
AcDbLine
 62
7
  6
CONTINUOUS
 10
305.5592299929
 20
200.009120377
 11
305.5592299929
 21
202.1289111966
  0
LINE
  5
4A8
100
AcDbEntity
  8
BEZUGSACHSEN
100
AcDbLine
 62
7
  6
CONTINUOUS
 10
305.5592299929
 20
202.3358194345
 11
305.5592299929
 21
202.9458203499
  0
LINE
  5
4A9
100
AcDbEntity
  8
0
100
AcDbLine
 62
7
  6
CONTINUOUS
 10
300.6377124202
 20
108.5853689399
 11
300.6419860259
 21
108.8879713402
  0
LINE
  5
4AA
100
AcDbEntity
  8
0
100
AcDbLine
 62
7
  6
CONTINUOUS
 10
300.8696137211
 20
103.9194540543
 11
300.8738873195
 21
104.2220566029
  0
LINE
  5
4AB
100
AcDbEntity
  8
0
100
AcDbLine
 62
7
  6
CONTINUOUS
 10
300.0364622667
 20
105.139138853
 11
300.0433125658
 21
105.389897509
  0
LINE
  5
4AC
100
AcDbEntity
  8
0
100
AcDbLine
 62
7
  6
CONTINUOUS
 10
300.770945239
 20
103.9617474101
 11
300.7640949399
 21
103.7109887541
  0
LINE
  5
4AD
100
AcDbEntity
  8
0
100
AcDbLine
 62
7
  6
CONTINUOUS
 10
300.5587776375
 20
108.6192035652
 11
300.5493506672
 21
108.4202882085
  0
LINE
  5
4AE
100
AcDbEntity
  8
0
100
AcDbLine
 62
7
  6
CONTINUOUS
 10
299.9618010911
 20
105.4755757151
 11
299.9377937889
 21
105.1814318856
  0
LINE
  5
4AF
100
AcDbEntity
  8
0
100
AcDbLine
 62
7
  6
CONTINUOUS
 10
300.8456064086
 20
103.6253105328
 11
300.8696137211
 21
103.9194540543
  0
LINE
  5
4B0
100
AcDbEntity
  8
0
100
AcDbLine
 62
7
  6
CONTINUOUS
 10
300.0433125658
 20
105.389897509
 11
300.0698965615
 21
105.6321977616
  0
LINE
  5
4B1
100
AcDbEntity
  8
0
100
AcDbLine
 62
7
  6
CONTINUOUS
 10
300.7640949399
 20
103.7109887541
 11
300.7375109562
 21
103.4686885319
  0
LINE
  5
4B2
100
AcDbEntity
  8
0
100
AcDbLine
 62
7
  6
CONTINUOUS
 10
300.5965481017
 20
108.2478404046
 11
300.6377124202
 21
108.5853689399
  0
LINE
  5
4B3
100
AcDbEntity
  8
0
100
AcDbLine
 62
7
  6
CONTINUOUS
 10
304.4928476034
 20
158.0328644549
 11
304.5146117106
 21
158.208164154
  0
LINE
  5
4B4
100
AcDbEntity
  8
0
100
AcDbLine
 62
7
  6
CONTINUOUS
 10
300.0201224364
 20
105.8564889828
 11
299.9618010911
 21
105.4755757151
  0
LINE
  5
4B5
100
AcDbEntity
  8
0
100
AcDbLine
 62
7
  6
CONTINUOUS
 10
292.0426388297
 20
152.127037775
 11
295.8626388297
 21
152.127037775
  0
LINE
  5
4B6
100
AcDbEntity
  8
0
100
AcDbLine
 62
7
  6
CONTINUOUS
 10
292.0426388297
 20
152.2815462722
 11
295.8626388297
 21
152.2815462722
  0
LINE
  5
4B7
100
AcDbEntity
  8
0
100
AcDbLine
 62
7
  6
CONTINUOUS
 10
304.4832574535
 20
137.1283926033
 11
304.0363818463
 21
138.0398165329
  0
LINE
  5
4B8
100
AcDbEntity
  8
0
100
AcDbLine
 62
7
  6
CONTINUOUS
 10
306.1436189056
 20
136.410472143
 11
306.2297608577
 21
134.8247150672
  0
LINE
  5
4B9
100
AcDbEntity
  8
0
100
AcDbLine
 62
7
  6
CONTINUOUS
 10
306.3674853812
 20
146.7762818679
 11
306.3721918717
 21
146.6697873078
  0
LINE
  5
4BA
100
AcDbEntity
  8
0
100
AcDbLine
 62
7
  6
CONTINUOUS
 10
307.8521980118
 20
143.7222129328
 11
307.8521980118
 21
144.3258463799
  0
LINE
  5
4BB
100
AcDbEntity
  8
0
100
AcDbLine
 62
7
  6
CONTINUOUS
 10
307.8521980118
 20
161.4157203073
 11
307.8521980118
 21
164.2834615392
  0
LINE
  5
4BC
100
AcDbEntity
  8
0
100
AcDbLine
 62
7
  6
CONTINUOUS
 10
308.5502789485
 20
141.1691289408
 11
309.2330321534
 21
173.5918068649
  0
LINE
  5
4BD
100
AcDbEntity
  8
BEZUGSACHSEN
100
AcDbLine
 62
7
  6
CONTINUOUS
 10
305.3761390528
 20
120.1879008482
 11
305.3754209529
 21
120.1609203507
  0
LINE
  5
4BE
100
AcDbEntity
  8
RUNDUNGEN
100
AcDbLine
 62
7
  6
CONTINUOUS
 10
305.0878697711
 20
109.035847699
 11
305.3754159346
 21
120.1607215373
  0
LINE
  5
4BF
100
AcDbEntity
  8
RUNDUNGEN
100
AcDbLine
 62
7
  6
CONTINUOUS
 10
305.3761390603
 20
120.1879012917
 11
305.5592568485
 21
126.9976333661
  0
LINE
  5
4C0
100
AcDbEntity
  8
RUNDUNGEN
100
AcDbLine
 62
7
  6
CONTINUOUS
 10
305.5592568485
 20
126.9976333661
 11
305.6878721181
 21
131.5484769346
  0
LINE
  5
4C1
100
AcDbEntity
  8
RUNDUNGEN
100
AcDbLine
 62
7
  6
CONTINUOUS
 10
304.946681651
 20
104.0806528047
 11
305.0878697711
 21
109.035847699
  0
LINE
  5
4C2
100
AcDbEntity
  8
RUNDUNGEN
100
AcDbLine
 62
7
  6
CONTINUOUS
 10
304.8518043889
 20
101.0705307465
 11
304.946681651
 21
104.0806528047
  0
LINE
  5
4C3
100
AcDbEntity
  8
RUNDUNGEN
100
AcDbLine
 62
7
  6
CONTINUOUS
 10
304.7546592136
 20
98.3163171985
 11
304.8518043889
 21
101.0705307465
  0
LINE
  5
4C4
100
AcDbEntity
  8
RUNDUNGEN
100
AcDbLine
 62
7
  6
CONTINUOUS
 10
304.6535524391
 20
95.8522311479
 11
304.7546592136
 21
98.3163171985
  0
LINE
  5
4C5
100
AcDbEntity
  8
RUNDUNGEN
100
AcDbLine
 62
7
  6
CONTINUOUS
 10
304.6008319785
 20
94.7446801875
 11
304.6535524391
 21
95.8522311479
  0
LINE
  5
4C6
100
AcDbEntity
  8
RUNDUNGEN
100
AcDbLine
 62
7
  6
CONTINUOUS
 10
304.5839078075
 20
94.4225037376
 11
304.6008319785
 21
94.7446801875
  0
LINE
  5
4C7
100
AcDbEntity
  8
RUNDUNGEN
100
AcDbLine
 62
7
  6
CONTINUOUS
 10
304.4889399618
 20
92.8211309051
 11
304.5240853414
 21
93.3617322441
  0
LINE
  5
4C8
100
AcDbEntity
  8
RUNDUNGEN
100
AcDbLine
 62
7
  6
CONTINUOUS
 10
304.4263753791
 20
92.0030955419
 11
304.4889399618
 21
92.8211309051
  0
LINE
  5
4C9
100
AcDbEntity
  8
RUNDUNGEN
100
AcDbLine
 62
7
  6
CONTINUOUS
 10
304.3619383521
 20
91.3453048896
 11
304.4263753791
 21
92.0030955419
  0
LINE
  5
4CA
100
AcDbEntity
  8
0
100
AcDbLine
 62
7
  6
CONTINUOUS
 10
304.3619383843
 20
91.3453048859
 11
304.3622895427
 21
91.348407171
  0
LINE
  5
4CB
100
AcDbEntity
  8
RUNDUNGEN
100
AcDbLine
 62
7
  6
CONTINUOUS
 10
304.35268507
 20
91.2654193253
 11
304.3622895427
 21
91.348407171
  0
LINE
  5
4CC
100
AcDbEntity
  8
0
100
AcDbLine
 62
7
  6
CONTINUOUS
 10
300.5493506672
 20
108.4202882085
 11
300.5201900049
 21
108.229831434
  0
LINE
  5
4CD
100
AcDbEntity
  8
0
100
AcDbLine
 62
7
  6
CONTINUOUS
 10
300.7872850693
 20
103.2443972803
 11
300.8456064086
 21
103.6253105328
  0
LINE
  5
4CE
100
AcDbEntity
  8
0
100
AcDbLine
 62
7
  6
CONTINUOUS
 10
300.5356500911
 20
107.9187704515
 11
300.5965481017
 21
108.2478404046
  0
LINE
  5
4CF
100
AcDbEntity
  8
0
100
AcDbLine
 62
7
  6
CONTINUOUS
 10
300.0698965615
 20
105.6321977616
 11
300.1162142298
 21
105.8660395499
  0
LINE
  5
4D0
100
AcDbEntity
  8
0
100
AcDbLine
 62
7
  6
CONTINUOUS
 10
300.7375109562
 20
103.4686885319
 11
300.6911932399
 21
103.234846622
  0
LINE
  5
4D1
100
AcDbEntity
  8
0
100
AcDbLine
 62
7
  6
CONTINUOUS
 10
300.0835971375
 20
106.1337155186
 11
300.0201224364
 21
105.8564889828
  0
LINE
  5
4D2
100
AcDbEntity
  8
0
100
AcDbLine
 62
7
  6
CONTINUOUS
 10
300.7238103876
 20
102.9671706265
 11
300.7872850693
 21
103.2443972803
  0
LINE
  5
4D3
100
AcDbEntity
  8
0
100
AcDbLine
 62
7
  6
CONTINUOUS
 10
299.8870237797
 20
106.1835716706
 11
300.2431010637
 21
107.5875169125
  0
LINE
  5
4D4
100
AcDbEntity
  8
0
100
AcDbLine
 62
7
  6
CONTINUOUS
 10
300.193326947
 20
107.8118082382
 11
299.8536430645
 21
106.4859779899
  0
LINE
  5
4D5
100
AcDbEntity
  8
RUNDUNGEN
100
AcDbLine
 62
7
  6
CONTINUOUS
 10
309.0101011742
 20
154.0606213263
 11
308.8056814165
 21
153.2977164046
  0
LINE
  5
4D6
100
AcDbEntity
  8
0
100
AcDbLine
 62
7
  6
CONTINUOUS
 10
308.8056814165
 20
153.2977164046
 11
311.3142561637
 21
162.6598448157
  0
LINE
  5
4D7
100
AcDbEntity
  8
0
100
AcDbLine
 62
7
  6
CONTINUOUS
 10
300.5201900049
 20
108.229831434
 11
300.4712956433
 21
108.0478333899
  0
LINE
  5
4D8
100
AcDbEntity
  8
0
100
AcDbLine
 62
7
  6
CONTINUOUS
 10
300.4867557295
 20
107.7367724074
 11
300.5356500911
 21
107.9187704515
  0
LINE
  5
4D9
100
AcDbEntity
  8
0
100
AcDbLine
 62
7
  6
CONTINUOUS
 10
307.5127528998
 20
141.2700643482
 11
306.1436189056
 21
136.410472143
  0
LINE
  5
4DA
100
AcDbEntity
  8
0
100
AcDbLine
 62
7
  6
CONTINUOUS
 10
305.7242073864
 20
133.0303080051
 11
306.2297608577
 21
134.8247150672
  0
LINE
  5
4DB
100
AcDbEntity
  8
0
100
AcDbLine
 62
7
  6
CONTINUOUS
 10
306.2335364535
 20
132.9466075678
 11
305.9959321746
 21
132.1032570219
  0
LINE
  5
4DC
100
AcDbEntity
  8
0
100
AcDbLine
 62
7
  6
CONTINUOUS
 10
300.1162142298
 20
105.8660395499
 11
300.1822656122
 21
106.0914223111
  0
LINE
  5
4DD
100
AcDbEntity
  8
0
100
AcDbLine
 62
7
  6
CONTINUOUS
 10
306.2335364535
 20
132.9466075678
 11
308.162889206
 21
138.8923277439
  0
LINE
  5
4DE
100
AcDbEntity
  8
0
100
AcDbLine
 62
7
  6
CONTINUOUS
 10
295.8626388297
 20
153.498898613
 11
292.0426388297
 21
153.498898613
  0
LINE
  5
4DF
100
AcDbEntity
  8
0
100
AcDbLine
 62
7
  6
CONTINUOUS
 10
292.0426388297
 20
155.7790947976
 11
295.8626388297
 21
155.7790947976
  0
LINE
  5
4E0
100
AcDbEntity
  8
0
100
AcDbLine
 62
7
  6
CONTINUOUS
 10
292.0426388297
 20
155.9336032948
 11
295.8626388297
 21
155.9336032948
  0
LINE
  5
4E1
100
AcDbEntity
  8
0
100
AcDbLine
 62
7
  6
CONTINUOUS
 10
295.8626388297
 20
157.1509556356
 11
292.0426388297
 21
157.1509556356
  0
LINE
  5
4E2
100
AcDbEntity
  8
RUNDUNGEN
100
AcDbLine
 62
7
  6
CONTINUOUS
 10
311.2638180614
 20
190.811183349
 11
311.2279546805
 21
191.2593857128
  0
LINE
  5
4E3
100
AcDbEntity
  8
RUNDUNGEN
100
AcDbLine
 62
7
  6
CONTINUOUS
 10
311.1679997863
 20
191.9444175749
 11
311.1533378569
 21
192.1522673938
  0
LINE
  5
4E4
100
AcDbEntity
  8
RUNDUNGEN
100
AcDbLine
 62
7
  6
CONTINUOUS
 10
311.1533378569
 20
192.1522673938
 11
311.1424481136
 21
192.3373584855
  0
LWPOLYLINE
  5
4E5
100
AcDbEntity
  8
RUNDUNGEN
100
AcDbPolyline
 62
7
  6
CONTINUOUS
 90
5
 70
0
 10
311.1424481136
 20
192.3373584855
 10
311.1367994019
 20
192.4559622788
 10
311.1346611532
 20
192.4980075977
 10
311.1319951724
 20
192.5406344016
 10
311.1287599736
 20
192.5842402537
  0
LINE
  5
4E6
100
AcDbEntity
  8
RUNDUNGEN
100
AcDbLine
 62
7
  6
CONTINUOUS
 10
311.137076781
 20
192.4496531368
 11
311.1370739617
 21
192.4497186194
  0
LWPOLYLINE
  5
4E7
100
AcDbEntity
  8
RUNDUNGEN
100
AcDbPolyline
 62
7
  6
CONTINUOUS
 90
4
 70
0
 10
311.3143299719
 20
189.0350785866
 10
311.3100299347
 20
189.6044976508
 10
311.2934700355
 20
190.2329046335
 10
311.2638180614
 20
190.811183349
  0
LINE
  5
4E8
100
AcDbEntity
  8
RUNDUNGEN
100
AcDbLine
 62
7
  6
CONTINUOUS
 10
311.3143299821
 20
189.0351166236
 11
311.3143299862
 21
189.0352725949
  0
LINE
  5
4E9
100
AcDbEntity
  8
0
100
AcDbLine
 62
7
  6
CONTINUOUS
 10
311.3143299929
 20
189.0361695329
 11
311.3143299929
 21
162.6501280981
  0
LINE
  5
4EA
100
AcDbEntity
  8
RUNDUNGEN
100
AcDbLine
 62
7
  6
CONTINUOUS
 10
304.3366333389
 20
91.1357406124
 11
304.35268507
 21
91.2654193253
  0
LWPOLYLINE
  5
4EB
100
AcDbEntity
  8
RUNDUNGEN
100
AcDbPolyline
 62
7
  6
CONTINUOUS
 90
6
 70
0
 10
304.2343861353
 20
90.5149116721
 10
304.260037735
 20
90.6442024592
 10
304.2822371166
 20
90.7683485865
 10
304.3018792761
 20
90.889557362
 10
304.3198667081
 20
91.0114576491
 10
304.3366333389
 20
91.1357406124
  0
LINE
  5
4EC
100
AcDbEntity
  8
0
100
AcDbLine
 62
7
  6
CONTINUOUS
 10
299.8675002259
 20
77.4067453418
 11
299.6111116352
 21
76.1465551575
  0
LINE
  5
4ED
100
AcDbEntity
  8
0
100
AcDbLine
 62
7
  6
CONTINUOUS
 10
300.6911932399
 20
103.234846622
 11
300.6251418574
 21
103.0094638608
  0
LINE
  5
4EE
100
AcDbEntity
  8
0
100
AcDbLine
 62
7
  6
CONTINUOUS
 10
300.1668055186
 20
106.402483442
 11
300.0835971375
 21
106.1337155186
  0
LINE
  5
4EF
100
AcDbEntity
  8
0
100
AcDbLine
 62
7
  6
CONTINUOUS
 10
300.6406019437
 20
102.6984028783
 11
300.7238103876
 21
102.9671706265
  0
LWPOLYLINE
  5
4F0
100
AcDbEntity
  8
RUNDUNGEN
100
AcDbPolyline
 62
7
  6
CONTINUOUS
 90
8
 70
0
 10
305.1516842872
 20
123.766846029
 10
305.1795470613
 20
123.8460246356
 10
305.2055185166
 20
123.9249776812
 10
305.2289637291
 20
124.0011077893
 10
305.2493839052
 20
124.0715412703
 10
305.2661123826
 20
124.1321742457
 10
305.2796616028
 20
124.1830273031
 10
305.2975146545
 20
124.2513513368
  0
LINE
  5
4F1
100
AcDbEntity
  8
RUNDUNGEN
100
AcDbLine
 62
7
  6
CONTINUOUS
 10
303.5515722288
 20
119.4593739533
 11
305.1516842872
 21
123.766846029
  0
LINE
  5
4F2
100
AcDbEntity
  8
0
100
AcDbLine
 62
7
  6
CONTINUOUS
 10
300.580145681
 20
110.1322152702
 11
299.7737659547
 21
108.0931263499
  0
LINE
  5
4F3
100
AcDbEntity
  8
0
100
AcDbLine
 62
7
  6
CONTINUOUS
 10
299.789226041
 20
107.7820653675
 11
300.1495233706
 21
108.6931476639
  0
LINE
  5
4F4
100
AcDbEntity
  8
0
100
AcDbLine
 62
7
  6
CONTINUOUS
 10
300.252465451
 20
108.9534568567
 11
300.5098207002
 21
109.6042299603
  0
LINE
  5
4F5
100
AcDbEntity
  8
0
100
AcDbLine
 62
7
  6
CONTINUOUS
 10
300.4712956433
 20
108.0478333899
 11
300.419824555
 21
107.917678672
  0
LINE
  5
4F6
100
AcDbEntity
  8
0
100
AcDbLine
 62
7
  6
CONTINUOUS
 10
300.4181276278
 20
107.563232824
 11
300.4867557295
 21
107.7367724074
  0
LINE
  5
4F7
100
AcDbEntity
  8
0
100
AcDbLine
 62
7
  6
CONTINUOUS
 10
300.6986730063
 20
107.7474144539
 11
300.1668055186
 21
106.402483442
  0
LINE
  5
4F8
100
AcDbEntity
  8
0
100
AcDbLine
 62
7
  6
CONTINUOUS
 10
300.1822656122
 20
106.0914223111
 11
300.7141330999
 21
107.4363533231
  0
LINE
  5
4F9
100
AcDbEntity
  8
0
100
AcDbLine
 62
7
  6
CONTINUOUS
 10
299.7284978616
 20
104.3011840703
 11
299.6460256925
 21
104.0926370535
  0
LINE
  5
4FA
100
AcDbEntity
  8
0
100
AcDbLine
 62
7
  6
CONTINUOUS
 10
300.7759734449
 20
106.1921093931
 11
300.2441059572
 21
104.8471783812
  0
LINE
  5
4FB
100
AcDbEntity
  8
0
100
AcDbLine
 62
7
  6
CONTINUOUS
 10
300.2595660434
 20
104.5361173987
 11
300.7914335311
 21
105.8810484106
  0
LINE
  5
4FC
100
AcDbEntity
  8
0
100
AcDbLine
 62
7
  6
CONTINUOUS
 10
300.8120469745
 20
105.4663005329
 11
300.0056672482
 21
103.4272116126
  0
LINE
  5
4FD
100
AcDbEntity
  8
0
100
AcDbLine
 62
7
  6
CONTINUOUS
 10
300.1240694269
 20
103.3764598534
 11
300.7245649803
 21
104.8949303575
  0
LINE
  5
4FE
100
AcDbEntity
  8
0
100
AcDbLine
 62
7
  6
CONTINUOUS
 10
300.6251418574
 20
103.0094638608
 11
300.3677866323
 21
102.358690818
  0
LINE
  5
4FF
100
AcDbEntity
  8
0
100
AcDbLine
 62
7
  6
CONTINUOUS
 10
300.526992474
 20
102.4111191047
 11
300.6406019437
 21
102.6984028783
  0
LINE
  5
500
100
AcDbEntity
  8
0
100
AcDbLine
 62
7
  6
CONTINUOUS
 10
303.9211691609
 20
119.4593739533
 11
302.2428757529
 21
115.4954337906
  0
LINE
  5
501
100
AcDbEntity
  8
0
100
AcDbLine
 62
7
  6
CONTINUOUS
 10
303.0592865559
 20
119.4593739533
 11
301.9037764088
 21
117.0081667711
  0
LINE
  5
502
100
AcDbEntity
  8
0
100
AcDbLine
 62
7
  6
CONTINUOUS
 10
292.0426388297
 20
158.2137994793
 11
293.1026388297
 21
158.2137994793
  0
LINE
  5
503
100
AcDbEntity
  8
0
100
AcDbLine
 62
7
  6
CONTINUOUS
 10
293.7426388297
 20
158.2137994793
 11
298.4226388297
 21
158.2137994793
  0
LINE
  5
504
100
AcDbEntity
  8
0
100
AcDbLine
 62
7
  6
CONTINUOUS
 10
292.0426388297
 20
158.3683079765
 11
293.1026388297
 21
158.3683079765
  0
LINE
  5
505
100
AcDbEntity
  8
0
100
AcDbLine
 62
7
  6
CONTINUOUS
 10
293.7426388297
 20
158.3683079765
 11
298.4226388297
 21
158.3683079765
  0
LINE
  5
506
100
AcDbEntity
  8
0
100
AcDbLine
 62
7
  6
CONTINUOUS
 10
297.3626388297
 20
159.5856603173
 11
293.7426388297
 21
159.5856603173
  0
LINE
  5
507
100
AcDbEntity
  8
0
100
AcDbLine
 62
7
  6
CONTINUOUS
 10
294.4358355797
 20
161.9545691516
 11
296.0326388297
 21
161.9545691516
  0
LINE
  5
508
100
AcDbEntity
  8
0
100
AcDbLine
 62
7
  6
CONTINUOUS
 10
294.4358355797
 20
162.1090776488
 11
296.0326388297
 21
162.1090776488
  0
LWPOLYLINE
  5
509
100
AcDbEntity
  8
RUNDUNGEN
100
AcDbPolyline
 62
7
  6
CONTINUOUS
 90
4
 70
0
 10
311.2280063987
 20
191.258860396
 10
311.2092669454
 20
191.4582447111
 10
311.1866461705
 20
191.7130581254
 10
311.1679997863
 20
191.9444175749
  0
LWPOLYLINE
  5
50A
100
AcDbEntity
  8
RUNDUNGEN
100
AcDbPolyline
 62
7
  6
CONTINUOUS
 90
5
 70
0
 10
311.1287599736
 20
192.5842402537
 10
311.1248938509
 20
192.6291455404
 10
311.1202951474
 20
192.6758056171
 10
311.1148352752
 20
192.7245855555
 10
311.1083163795
 20
192.7760872703
  0
LWPOLYLINE
  5
50B
100
AcDbEntity
  8
RUNDUNGEN
100
AcDbPolyline
 62
7
  6
CONTINUOUS
 90
3
 70
0
 10
304.1650585398
 20
90.221502774
 10
304.203478727
 20
90.3754411289
 10
304.2343861353
 20
90.5149116721
  0
LINE
  5
50C
100
AcDbEntity
  8
0
100
AcDbLine
 62
7
  6
CONTINUOUS
 10
300.1712042904
 20
104.3710366673
 11
300.2595660434
 21
104.5361173987
  0
LINE
  5
50D
100
AcDbEntity
  8
0
100
AcDbLine
 62
7
  6
CONTINUOUS
 10
300.2441059572
 20
104.8471783812
 11
300.1729012176
 21
104.7254825153
  0
LINE
  5
50E
100
AcDbEntity
  8
0
100
AcDbLine
 62
7
  6
CONTINUOUS
 10
300.419824555
 20
107.917678672
 11
300.3657768362
 21
107.8393675232
  0
LINE
  5
50F
100
AcDbEntity
  8
0
100
AcDbLine
 62
7
  6
CONTINUOUS
 10
300.364079909
 20
107.4849216752
 11
300.4181276278
 21
107.563232824
  0
LINE
  5
510
100
AcDbEntity
  8
0
100
AcDbLine
 62
7
  6
CONTINUOUS
 10
296.0826388297
 20
163.3233124264
 11
294.3826388297
 21
163.3233124264
  0
LINE
  5
511
100
AcDbEntity
  8
0
100
AcDbLine
 62
7
  6
CONTINUOUS
 10
299.8771299929
 20
165.6144104976
 11
290.8771299929
 21
165.6144104976
  0
LINE
  5
512
100
AcDbEntity
  8
0
100
AcDbLine
 62
7
  6
CONTINUOUS
 10
299.8771299929
 20
166.0347346989
 11
290.8771299929
 21
166.0347346989
  0
LWPOLYLINE
  5
513
100
AcDbEntity
  8
RUNDUNGEN
100
AcDbPolyline
 62
7
  6
CONTINUOUS
 90
24
 70
0
 10
310.8348081702
 20
194.6092458485
 10
310.8289219465
 20
194.6471415263
 10
310.8180978388
 20
194.7102668539
 10
310.8042569793
 20
194.7816358368
 10
310.7872132146
 20
194.8589893078
 10
310.7672280037
 20
194.9387800946
 10
310.7457283065
 20
195.0147771367
 10
310.7243702804
 20
195.0823663692
 10
310.7025374056
 20
195.1449384869
 10
310.6801522706
 20
195.2034390979
 10
310.6568553475
 20
195.259212005
 10
310.6324372096
 20
195.3129055268
 10
310.6068369991
 20
195.3647008019
 10
310.5801442595
 20
195.4144643632
 10
310.5517928176
 20
195.463194995
 10
310.5216505435
 20
195.5109347076
 10
310.4883869144
 20
195.5593592541
 10
310.4506062691
 20
195.6096264671
 10
310.4076469564
 20
195.661465924
 10
310.3583182719
 20
195.7149454937
 10
310.3021195687
 20
195.7690726636
 10
310.2381919827
 20
195.8230519873
 10
310.1661800171
 20
195.8754901023
 10
310.0989445618
 20
195.917440136
  0
LINE
  5
514
100
AcDbEntity
  8
RUNDUNGEN
100
AcDbLine
 62
7
  6
CONTINUOUS
 10
311.1015882225
 20
192.8235293291
 11
310.8348156643
 21
194.6091943099
  0
LINE
  5
515
100
AcDbEntity
  8
RUNDUNGEN
100
AcDbLine
 62
7
  6
CONTINUOUS
 10
311.1083163795
 20
192.7760872703
 11
311.1015855689
 21
192.8235499453
  0
LINE
  5
516
100
AcDbEntity
  8
0
100
AcDbLine
 62
7
  6
CONTINUOUS
 10
300.3677866323
 20
102.358690818
 11
300.2965819075
 21
102.2369946554
  0
LINE
  5
517
100
AcDbEntity
  8
AUSFORMSCHRAEGEN
100
AcDbLine
 62
7
  6
CONTINUOUS
 10
295.3771299929
 20
168.4152203499
 11
299.8771299929
 21
169.1279503314
  0
LINE
  5
518
100
AcDbEntity
  8
0
100
AcDbLine
 62
7
  6
CONTINUOUS
 10
290.8771299929
 20
169.1279503314
 11
295.3771299929
 21
168.4152203499
  0
LINE
  5
519
100
AcDbEntity
  8
0
100
AcDbLine
 62
7
  6
CONTINUOUS
 10
307.3999349413
 20
191.5618898649
 11
308.3771299929
 21
188.1103583681
  0
LINE
  5
51A
100
AcDbEntity
  8
0
100
AcDbLine
 62
7
  6
CONTINUOUS
 10
300.0974228676
 20
104.3011840703
 11
300.1712042904
 21
104.3710366673
  0
LINE
  5
51B
100
AcDbEntity
  8
0
100
AcDbLine
 62
7
  6
CONTINUOUS
 10
300.1729012176
 20
104.7254825153
 11
300.1162768202
 21
104.6990148141
  0
LINE
  5
51C
100
AcDbEntity
  8
0
100
AcDbLine
 62
7
  6
CONTINUOUS
 10
300.2965819075
 20
102.2369946554
 11
300.2399574953
 21
102.2105272509
  0
LINE
  5
51D
100
AcDbEntity
  8
0
100
AcDbLine
 62
7
  6
CONTINUOUS
 10
290.8771299929
 20
183.2018551079
 11
299.8771299929
 21
183.2018551079
  0
LINE
  5
51E
100
AcDbEntity
  8
0
100
AcDbLine
 62
7
  6
CONTINUOUS
 10
307.74342893
 20
190.3486414769
 11
308.3267582943
 21
190.437766388
  0
LINE
  5
51F
100
AcDbEntity
  8
0
100
AcDbLine
 62
7
  6
CONTINUOUS
 10
283.0108310558
 20
190.3486414769
 11
282.4275016915
 21
190.437766388
  0
LWPOLYLINE
  5
520
100
AcDbEntity
  8
RUNDUNGEN
100
AcDbPolyline
 62
7
  6
CONTINUOUS
 90
14
 70
0
 10
301.870501389
 20
87.3188100791
 10
302.060410449
 20
87.4229546714
 10
302.3994936386
 20
87.6408892231
 10
302.702780194
 20
87.8760703887
 10
302.9718815251
 20
88.1235702809
 10
303.2086606186
 20
88.3791180757
 10
303.4149231358
 20
88.638707573
 10
303.5935990382
 20
88.9002301271
 10
303.7448922591
 20
89.1576271537
 10
303.8708672186
 20
89.4067942853
 10
303.9730762818
 20
89.6418181608
 10
304.0533887596
 20
89.8559738406
 10
304.1164111012
 20
90.0499247257
 10
304.1650585398
 20
90.221502774
  0
LINE
  5
521
100
AcDbEntity
  8
KONSTRUKTIONSELEMENTE
100
AcDbLine
 62
7
  6
CONTINUOUS
 10
307.2924962884
 20
191.7576637998
 11
283.4617636974
 21
191.7576637998
  0
LINE
  5
522
100
AcDbEntity
  8
RUNDUNGEN
100
AcDbLine
 62
7
  6
CONTINUOUS
 10
310.0988951248
 20
195.9174683093
 11
305.3498949784
 21
198.6593048256
  0
LINE
  5
523
100
AcDbEntity
  8
BEZUGSACHSEN
100
AcDbLine
 62
2
  6
CENTER
 10
295.3771299929
 20
201.2738203499
 11
286.9621299929
 21
201.2738203499
  0
LINE
  5
524
100
AcDbEntity
  8
BEZUGSACHSEN
100
AcDbLine
 62
2
  6
CENTER
 10
295.3771299929
 20
201.2738203499
 11
303.7921299929
 21
201.2738203499
  0
ARC
  5
525
100
AcDbEntity
  8
0
100
AcDbCircle
 62
7
  6
CONTINUOUS
 10
40.7309679943
 20
98.9707205506
 40
51.3532
100
AcDbArc
 50
16.9696303399
 51
46.5928651325
  0
ARC
  5
526
100
AcDbEntity
  8
0
100
AcDbCircle
 62
7
  6
CONTINUOUS
 10
78.6387994321
 20
107.7653203499
 40
3.5416
100
AcDbArc
 50
32.2694531481
 51
200.7694531481
  0
ARC
  5
527
100
AcDbEntity
  8
0
100
AcDbCircle
 62
7
  6
CONTINUOUS
 10
96.2132138178
 20
82.4200402232
 40
2.2135
100
AcDbArc
 50
247.3419561096
 51
32.2694531481
  0
ARC
  5
528
100
AcDbEntity
  8
0
100
AcDbCircle
 62
7
  6
CONTINUOUS
 10
62.8838000095
 20
156.56867788
 40
14.9551616551
100
AcDbArc
 50
341.988671918
 51
18.9114835016
  0
ARC
  5
529
100
AcDbEntity
  8
0
100
AcDbCircle
 62
7
  6
CONTINUOUS
 10
62.8819726161
 20
156.5630536878
 40
14.9551616551
100
AcDbArc
 50
305.0885163085
 51
342.0113278921
  0
ARC
  5
52A
100
AcDbEntity
  8
0
100
AcDbCircle
 62
7
  6
CONTINUOUS
 10
72.5463654249
 20
132.5565203499
 40
8.854
100
AcDbArc
 50
120.0
 51
198.0
  0
ARC
  5
52B
100
AcDbEntity
  8
0
100
AcDbCircle
 62
7
  6
CONTINUOUS
 10
69.7362933327
 20
138.1340914845
 40
2.618647897
100
AcDbArc
 50
77.6162519883
 51
120.0749195346
  0
ARC
  5
52C
100
AcDbEntity
  8
0
100
AcDbCircle
 62
7
  6
CONTINUOUS
 10
79.2536169994
 20
121.4466309377
 40
1.0675468614
100
AcDbArc
 50
340.6929551779
 51
345.0355970751
  0
ARC
  5
52D
100
AcDbEntity
  8
0
100
AcDbCircle
 62
7
  6
CONTINUOUS
 10
74.017874739
 20
146.6391153554
 40
1.0
100
AcDbArc
 50
65.3694644244
 51
211.9897545993
  0
ARC
  5
52E
100
AcDbEntity
  8
0
100
AcDbCircle
 62
7
  6
CONTINUOUS
 10
73.9701691664
 20
148.7575402841
 40
1.0
100
AcDbArc
 50
76.6023344065
 51
213.4819254619
  0
ARC
  5
52F
100
AcDbEntity
  8
0
100
AcDbCircle
 62
7
  6
CONTINUOUS
 10
76.3001048844
 20
150.1034227268
 40
1.0
100
AcDbArc
 50
79.9883551886
 51
228.77453068
  0
ARC
  5
530
100
AcDbEntity
  8
0
100
AcDbCircle
 62
7
  6
CONTINUOUS
 10
76.4423051214
 20
156.3659924144
 40
1.0
100
AcDbArc
 50
110.5130394636
 51
247.3982222845
  0
ARC
  5
531
100
AcDbEntity
  8
0
100
AcDbCircle
 62
7
  6
CONTINUOUS
 10
77.5361728619
 20
153.907648792
 40
1.0
100
AcDbArc
 50
95.300744962
 51
244.0110769957
  0
ARC
  5
532
100
AcDbEntity
  8
0
100
AcDbCircle
 62
7
  6
CONTINUOUS
 10
75.681765402
 20
152.4072578521
 40
1.0
100
AcDbArc
 50
87.561922794
 51
236.4579604719
  0
ARC
  5
533
100
AcDbEntity
  8
0
100
AcDbCircle
 62
7
  6
CONTINUOUS
 10
110.1726125622
 20
111.3069203499
 40
38.0722
100
AcDbArc
 50
198.0
 51
262.2254244651
  0
ARC
  5
534
100
AcDbEntity
  8
0
100
AcDbCircle
 62
7
  6
CONTINUOUS
 10
107.0255445119
 20
108.3210073502
 40
30.28068
100
AcDbArc
 50
200.7694531481
 51
247.3419561096
  0
ARC
  5
535
100
AcDbEntity
  8
0
100
AcDbCircle
 62
7
  6
CONTINUOUS
 10
111.4340880164
 20
115.9692441533
 40
29.103098
100
AcDbArc
 50
257.1415596449
 51
269.1661249516
  0
ARC
  5
536
100
AcDbEntity
  8
0
100
AcDbCircle
 62
7
  6
CONTINUOUS
 10
111.5754446086
 20
114.3540084626
 40
27.0473211695
100
AcDbArc
 50
253.2441118954
 51
266.9196125172
  0
ARC
  5
537
100
AcDbEntity
  8
0
100
AcDbCircle
 62
7
  6
CONTINUOUS
 10
111.3409151202
 20
114.2656229128
 40
26.9474372062
100
AcDbArc
 50
267.4074571456
 51
282.8606990661
  0
ARC
  5
538
100
AcDbEntity
  8
0
100
AcDbCircle
 62
7
  6
CONTINUOUS
 10
145.8478426166
 20
114.8208958699
 40
2.28858192
100
AcDbArc
 50
90.0
 51
201.3826594578
  0
ARC
  5
539
100
AcDbEntity
  8
0
100
AcDbCircle
 62
7
  6
CONTINUOUS
 10
151.2960497864
 20
100.9063150167
 40
2.28858192
100
AcDbArc
 50
201.3826594578
 51
329.2756471293
  0
ARC
  5
53A
100
AcDbEntity
  8
0
100
AcDbCircle
 62
7
  6
CONTINUOUS
 10
156.9093218966
 20
114.8208958699
 40
2.28858192
100
AcDbArc
 50
346.7851342345
 51
90.0
  0
ARC
  5
53B
100
AcDbEntity
  8
0
100
AcDbCircle
 62
7
  6
CONTINUOUS
 10
118.5640796022
 20
79.3514101436
 40
2.2135
100
AcDbArc
 50
160.0
 51
279.1472523994
  0
ARC
  5
53C
100
AcDbEntity
  8
0
100
AcDbCircle
 62
7
  6
CONTINUOUS
 10
134.2615669765
 20
85.1322673409
 40
2.2135
100
AcDbArc
 50
301.2868619874
 51
90.0
  0
ARC
  5
53D
100
AcDbEntity
  8
0
100
AcDbCircle
 62
7
  6
CONTINUOUS
 10
120.6681395506
 20
85.1322673409
 40
2.2135
100
AcDbArc
 50
90.0
 51
160.0
  0
ARC
  5
53E
100
AcDbEntity
  8
0
100
AcDbCircle
 62
7
  6
CONTINUOUS
 10
144.2866797437
 20
94.0748073409
 40
2.2135
100
AcDbArc
 50
270.0
 51
21.3826594578
  0
ARC
  5
53F
100
AcDbEntity
  8
0
100
AcDbCircle
 62
7
  6
CONTINUOUS
 10
141.3075849429
 20
101.6833387683
 40
2.2135
100
AcDbArc
 50
21.3826594578
 51
149.6782061615
  0
ARC
  5
540
100
AcDbEntity
  8
0
100
AcDbCircle
 62
7
  6
CONTINUOUS
 10
135.3864176736
 20
94.0748073409
 40
2.2135
100
AcDbArc
 50
134.5397341818
 51
270.0
  0
ARC
  5
541
100
AcDbEntity
  8
0
100
AcDbCircle
 62
7
  6
CONTINUOUS
 10
110.9783265622
 20
84.6559627572
 40
2.2135
100
AcDbArc
 50
340.0
 51
89.1661249516
  0
ARC
  5
542
100
AcDbEntity
  8
0
100
AcDbCircle
 62
7
  6
CONTINUOUS
 10
108.7771895911
 20
78.6083886319
 40
2.2135
100
AcDbArc
 50
212.2694531481
 51
340.0
  0
ARC
  5
543
100
AcDbEntity
  8
0
100
AcDbCircle
 62
7
  6
CONTINUOUS
 10
104.46479798
 20
85.4379764646
 40
2.2135
100
AcDbArc
 50
77.1415596449
 51
212.2694531481
  0
ARC
  5
544
100
AcDbEntity
  8
0
100
AcDbCircle
 62
7
  6
CONTINUOUS
 10
108.9253209836
 20
126.0885771361
 40
51.5777793646
100
AcDbArc
 50
329.2756471293
 51
346.7851342345
  0
ARC
  5
545
100
AcDbEntity
  8
0
100
AcDbCircle
 62
7
  6
CONTINUOUS
 10
111.9692121091
 20
124.465840939
 40
51.3532
100
AcDbArc
 50
262.2254244651
 51
336.0978042519
  0
ARC
  5
546
100
AcDbEntity
  8
0
100
AcDbCircle
 62
7
  6
CONTINUOUS
 10
111.6389772516
 20
122.3591178464
 40
45.77518
100
AcDbArc
 50
279.1472523994
 51
301.2868619875
  0
ARC
  5
547
100
AcDbEntity
  8
0
100
AcDbCircle
 62
7
  6
CONTINUOUS
 10
121.6828125622
 20
120.1609203499
 40
40.7284
100
AcDbArc
 50
336.0978042519
 51
50.0
  0
ARC
  5
548
100
AcDbEntity
  8
0
100
AcDbCircle
 62
7
  6
CONTINUOUS
 10
121.8045422138
 20
120.0323368998
 40
36.61731072
100
AcDbArc
 50
9.1663381115
 51
35.5577640165
  0
ARC
  5
549
100
AcDbEntity
  8
0
100
AcDbCircle
 62
7
  6
CONTINUOUS
 10
109.7181069815
 20
120.1588616922
 40
34.3821290448
100
AcDbArc
 50
314.5397341818
 51
329.6782061615
  0
ARC
  5
54A
100
AcDbEntity
  8
RUNDUNGEN
100
AcDbCircle
 62
7
  6
CONTINUOUS
 10
112.0039156455
 20
122.0314224372
 40
30.480493776
100
AcDbArc
 50
42.0264222922
 51
42.3117902498
  0
ARC
  5
54B
100
AcDbEntity
  8
0
100
AcDbCircle
 62
7
  6
CONTINUOUS
 10
110.1726125622
 20
120.1609203499
 40
21.2496
100
AcDbArc
 50
196.9696303399
 51
38.0
  0
ARC
  5
54C
100
AcDbEntity
  8
0
100
AcDbCircle
 62
7
  6
CONTINUOUS
 10
149.7319811487
 20
139.9952969899
 40
2.28858192
100
AcDbArc
 50
35.5577640165
 51
167.0
  0
ARC
  5
54D
100
AcDbEntity
  8
0
100
AcDbCircle
 62
7
  6
CONTINUOUS
 10
146.385696284
 20
125.5009448299
 40
2.28858192
100
AcDbArc
 50
167.0
 51
270.0
  0
ARC
  5
54E
100
AcDbEntity
  8
0
100
AcDbCircle
 62
7
  6
CONTINUOUS
 10
155.6948940611
 20
125.5009448299
 40
2.28858192
100
AcDbArc
 50
270.0
 51
9.1663381115
  0
ARC
  5
54F
100
AcDbEntity
  8
RUNDUNGEN
100
AcDbCircle
 62
7
  6
CONTINUOUS
 10
77.6013976884
 20
189.6050869155
 40
37.3788202919
100
AcDbArc
 50
3.0501585706
 51
3.3118585477
  0
ARC
  5
550
100
AcDbEntity
  8
0
100
AcDbCircle
 62
7
  6
CONTINUOUS
 10
96.7616556321
 20
177.7119203499
 40
35.416
100
AcDbArc
 50
90.0
 51
117.9225395885
  0
ARC
  5
551
100
AcDbEntity
  8
0
100
AcDbCircle
 62
7
  6
CONTINUOUS
 10
110.1726125622
 20
235.0858403499
 40
25.49952
100
AcDbArc
 50
239.4646085907
 51
261.6568853713
  0
ARC
  5
552
100
AcDbEntity
  8
0
100
AcDbCircle
 62
7
  6
CONTINUOUS
 10
110.1726125622
 20
235.0858403499
 40
25.49952
100
AcDbArc
 50
278.3431146287
 51
300.5353914093
  0
ARC
  5
553
100
AcDbEntity
  8
0
100
AcDbCircle
 62
7
  6
CONTINUOUS
 10
58.9422542342
 20
170.4638014267
 40
20.0
100
AcDbArc
 50
342.0
 51
36.7816955669
  0
ARC
  5
554
100
AcDbEntity
  8
0
100
AcDbCircle
 62
7
  6
CONTINUOUS
 10
89.8050640197
 20
179.0467480153
 40
17.0
100
AcDbArc
 50
137.9274979894
 51
153.5644573944
  0
ARC
  5
555
100
AcDbEntity
  8
0
100
AcDbCircle
 62
7
  6
CONTINUOUS
 10
88.9230125622
 20
178.5973203499
 40
11.1672830915
100
AcDbArc
 50
27.0
 51
75.444333931
  0
ARC
  5
556
100
AcDbEntity
  8
0
100
AcDbCircle
 62
7
  6
CONTINUOUS
 10
88.9230125622
 20
178.5973203499
 40
10.0026001139
100
AcDbArc
 50
329.9721275148
 51
72.0
  0
ARC
  5
557
100
AcDbEntity
  8
RUNDUNGEN
100
AcDbCircle
 62
7
  6
CONTINUOUS
 10
110.0715987418
 20
191.5446290804
 40
4.8991467334
100
AcDbArc
 50
230.2627141132
 51
331.544399817
  0
ARC
  5
558
100
AcDbEntity
  8
0
100
AcDbCircle
 62
7
  6
CONTINUOUS
 10
80.1551963421
 20
187.7576637998
 40
4.0
100
AcDbArc
 50
72.0
 51
137.9274979894
  0
ARC
  5
559
100
AcDbEntity
  8
0
100
AcDbCircle
 62
7
  6
CONTINUOUS
 10
78.1643990756
 20
184.8342275754
 40
4.0
100
AcDbArc
 50
153.5644573944
 51
216.7816955669
  0
CIRCLE
  5
55A
100
AcDbEntity
  8
0
100
AcDbCircle
 62
7
  6
CONTINUOUS
 10
88.9230125622
 20
178.5973203499
 40
4.0
  0
ARC
  5
55B
100
AcDbEntity
  8
0
100
AcDbCircle
 62
7
  6
CONTINUOUS
 10
110.1726125622
 20
191.5940203499
 40
3.7
100
AcDbArc
 50
180.0
 51
360.0
  0
ARC
  5
55C
100
AcDbEntity
  8
0
100
AcDbCircle
 62
7
  6
CONTINUOUS
 10
110.3496925622
 20
180.0091607528
 40
2.6562
100
AcDbArc
 50
105.61
 51
207.0
  0
ARC
  5
55D
100
AcDbEntity
  8
0
100
AcDbCircle
 62
7
  6
CONTINUOUS
 10
115.0511665622
 20
170.781998489
 40
2.6562
100
AcDbArc
 50
207.0
 51
343.6600179874
  0
ARC
  5
55E
100
AcDbEntity
  8
0
100
AcDbCircle
 62
7
  6
CONTINUOUS
 10
118.4171933173
 20
182.2631653196
 40
2.6562
100
AcDbArc
 50
343.6600179874
 51
105.61
  0
ARC
  5
55F
100
AcDbEntity
  8
0
100
AcDbCircle
 62
7
  6
CONTINUOUS
 10
80.913425553
 20
193.746691572
 40
2.1724471866
100
AcDbArc
 50
179.9387516376
 51
246.5985622229
  0
CIRCLE
  5
560
100
AcDbEntity
  8
BEZUGSACHSEN
100
AcDbCircle
 62
7
  6
CONTINUOUS
 10
96.4166125622
 20
200.4359203499
 40
1.9
  0
ARC
  5
561
100
AcDbEntity
  8
0
100
AcDbCircle
 62
7
  6
CONTINUOUS
 10
77.7260786715
 20
158.051793551
 40
1.0
100
AcDbArc
 50
112.0083802759
 51
258.6305355756
  0
ARC
  5
562
100
AcDbEntity
  8
RUNDUNGEN
100
AcDbCircle
 62
7
  6
CONTINUOUS
 10
339.4498727903
 20
164.1563874977
 40
235.8214171228
100
AcDbArc
 50
173.0210896014
 51
173.2726413098
  0
ARC
  5
563
100
AcDbEntity
  8
BEZUGSACHSEN
100
AcDbCircle
 62
7
  6
CONTINUOUS
 10
-133.8755660509
 20
96.5722113452
 40
438.1791035797
100
AcDbArc
 50
359.3388916762
 51
359.5393702763
  0
ARC
  5
564
100
AcDbEntity
  8
0
100
AcDbCircle
 62
7
  6
CONTINUOUS
 10
-40.855690078
 20
139.75602402
 40
346.2813402832
100
AcDbArc
 50
349.630444501
 51
350.7754305186
  0
ARC
  5
565
100
AcDbEntity
  8
BEZUGSACHSEN
100
AcDbCircle
 62
7
  6
CONTINUOUS
 10
-1.0258732593
 20
99.5627980277
 40
305.6488342429
100
AcDbArc
 50
359.1188828997
 51
359.4191571773
  0
ARC
  5
566
100
AcDbEntity
  8
0
100
AcDbCircle
 62
7
  6
CONTINUOUS
 10
70.9669570449
 20
100.7657473145
 40
216.3291862056
100
AcDbArc
 50
358.5717360685
 51
359.0434518756
  0
ARC
  5
567
100
AcDbEntity
  8
0
100
AcDbCircle
 62
7
  6
CONTINUOUS
 10
-149.6297668412
 20
261.0850297851
 40
481.8076887481
100
AcDbArc
 50
338.9171652749
 51
339.0387621449
  0
ARC
  5
568
100
AcDbEntity
  8
0
100
AcDbCircle
 62
7
  6
CONTINUOUS
 10
113.9828894467
 20
95.6340202243
 40
172.6641231665
100
AcDbArc
 50
358.5800450086
 51
359.1460074603
  0
ARC
  5
569
100
AcDbEntity
  8
0
100
AcDbCircle
 62
7
  6
CONTINUOUS
 10
151.4847461634
 20
104.6068144536
 40
148.9433317037
100
AcDbArc
 50
357.0320521405
 51
357.1486078709
  0
ARC
  5
56A
100
AcDbEntity
  8
0
100
AcDbCircle
 62
7
  6
CONTINUOUS
 10
152.1902680559
 20
99.1502081729
 40
147.4995681732
100
AcDbArc
 50
359.3912966741
 51
0.6023308618
  0
ARC
  5
56B
100
AcDbEntity
  8
0
100
AcDbCircle
 62
7
  6
CONTINUOUS
 10
170.0165880217
 20
105.6839810525
 40
131.2375364841
100
AcDbArc
 50
356.7154833528
 51
356.8478022545
  0
ARC
  5
56C
100
AcDbEntity
  8
0
100
AcDbCircle
 62
7
  6
CONTINUOUS
 10
170.1745458313
 20
97.0426889874
 40
130.0826968985
100
AcDbArc
 50
355.7751558512
 51
355.9125259924
  0
ARC
  5
56D
100
AcDbEntity
  8
0
100
AcDbCircle
 62
7
  6
CONTINUOUS
 10
171.1759924222
 20
101.254973068
 40
129.6403945924
100
AcDbArc
 50
353.2915038567
 51
353.8815383085
  0
ARC
  5
56E
100
AcDbEntity
  8
0
100
AcDbCircle
 62
7
  6
CONTINUOUS
 10
175.1042084726
 20
103.7697748456
 40
127.4975536015
100
AcDbArc
 50
348.1541596795
 51
348.2708276358
  0
ARC
  5
56F
100
AcDbEntity
  8
0
100
AcDbCircle
 62
7
  6
CONTINUOUS
 10
177.3602900345
 20
96.5684402945
 40
122.8812632809
100
AcDbArc
 50
356.5725789155
 51
356.7178661637
  0
ARC
  5
570
100
AcDbEntity
  8
0
100
AcDbCircle
 62
7
  6
CONTINUOUS
 10
177.5024828838
 20
97.9814731049
 40
122.5180726984
100
AcDbArc
 50
355.6670389492
 51
355.9001605521
  0
ARC
  5
571
100
AcDbEntity
  8
0
100
AcDbCircle
 62
7
  6
CONTINUOUS
 10
178.5938094171
 20
100.4532486747
 40
122.1793808758
100
AcDbArc
 50
353.8846021726
 51
354.1907380415
  0
ARC
  5
572
100
AcDbEntity
  8
0
100
AcDbCircle
 62
7
  6
CONTINUOUS
 10
181.1416003116
 20
98.1740468244
 40
119.6046790379
100
AcDbArc
 50
355.5938303854
 51
356.116682266
  0
ARC
  5
573
100
AcDbEntity
  8
0
100
AcDbCircle
 62
7
  6
CONTINUOUS
 10
181.0532113093
 20
97.7720493271
 40
119.5826580724
100
AcDbArc
 50
355.8353924384
 51
356.3583129036
  0
ARC
  5
574
100
AcDbEntity
  8
0
100
AcDbCircle
 62
7
  6
CONTINUOUS
 10
182.7671335745
 20
99.3965108219
 40
118.3287501564
100
AcDbArc
 50
355.2016941012
 51
355.3528256215
  0
ARC
  5
575
100
AcDbEntity
  8
0
100
AcDbCircle
 62
7
  6
CONTINUOUS
 10
182.0996933712
 20
96.3188427549
 40
118.1352626306
100
AcDbArc
 50
357.2862326123
 51
357.4372420094
  0
ARC
  5
576
100
AcDbEntity
  8
0
100
AcDbCircle
 62
7
  6
CONTINUOUS
 10
187.9329838904
 20
96.0830281384
 40
112.2982791238
100
AcDbArc
 50
1.0491266336
 51
1.2078641032
  0
ARC
  5
577
100
AcDbEntity
  8
0
100
AcDbCircle
 62
7
  6
CONTINUOUS
 10
188.3364112284
 20
96.8041898119
 40
112.1250607794
100
AcDbArc
 50
357.6052035107
 51
357.7642852353
  0
ARC
  5
578
100
AcDbEntity
  8
0
100
AcDbCircle
 62
7
  6
CONTINUOUS
 10
188.6609515487
 20
97.2587848386
 40
111.9433813474
100
AcDbArc
 50
357.1212153614
 51
357.2806153733
  0
ARC
  5
579
100
AcDbEntity
  8
0
100
AcDbCircle
 62
7
  6
CONTINUOUS
 10
188.5286497268
 20
96.1050023941
 40
111.7025179589
100
AcDbArc
 50
358.8625896031
 51
359.5552819514
  0
ARC
  5
57A
100
AcDbEntity
  8
0
100
AcDbCircle
 62
7
  6
CONTINUOUS
 10
189.1092531285
 20
96.099172502
 40
111.1218897404
100
AcDbArc
 50
0.1697227049
 51
0.3501635079
  0
ARC
  5
57B
100
AcDbEntity
  8
0
100
AcDbCircle
 62
7
  6
CONTINUOUS
 10
190.5242493008
 20
97.5283896481
 40
110.1856572443
100
AcDbArc
 50
357.0704122918
 51
357.2323620209
  0
ARC
  5
57C
100
AcDbEntity
  8
0
100
AcDbCircle
 62
7
  6
CONTINUOUS
 10
190.184097618
 20
96.3706550142
 40
110.1524245613
100
AcDbArc
 50
358.6012144704
 51
359.4103347985
  0
ARC
  5
57D
100
AcDbEntity
  8
0
100
AcDbCircle
 62
7
  6
CONTINUOUS
 10
191.1739904523
 20
98.7640306184
 40
109.8980533806
100
AcDbArc
 50
356.0853154897
 51
356.2478520545
  0
ARC
  5
57E
100
AcDbEntity
  8
0
100
AcDbCircle
 62
7
  6
CONTINUOUS
 10
191.14773969
 20
98.0510805946
 40
109.7237472863
100
AcDbArc
 50
356.6635683143
 51
356.7855815684
  0
ARC
  5
57F
100
AcDbEntity
  8
0
100
AcDbCircle
 62
7
  6
CONTINUOUS
 10
191.2625978808
 20
96.9189930267
 40
109.2679920208
100
AcDbArc
 50
357.95425138
 51
358.1445888278
  0
ARC
  5
580
100
AcDbEntity
  8
0
100
AcDbCircle
 62
7
  6
CONTINUOUS
 10
190.6794120673
 20
96.9176244339
 40
109.2283629919
100
AcDbArc
 50
357.9542272023
 51
358.1657490505
  0
ARC
  5
581
100
AcDbEntity
  8
0
100
AcDbCircle
 62
7
  6
CONTINUOUS
 10
191.9472800712
 20
96.8967952308
 40
108.5829500923
100
AcDbArc
 50
358.1445982975
 51
358.3362477184
  0
ARC
  5
582
100
AcDbEntity
  8
0
100
AcDbCircle
 62
7
  6
CONTINUOUS
 10
192.8791026514
 20
97.1384346442
 40
107.7392996079
100
AcDbArc
 50
357.9238724951
 51
358.1169125521
  0
ARC
  5
583
100
AcDbEntity
  8
0
100
AcDbCircle
 62
7
  6
CONTINUOUS
 10
193.1676114812
 20
96.6200255029
 40
107.2741644963
100
AcDbArc
 50
359.7880255859
 51
359.9126299023
  0
ARC
  5
584
100
AcDbEntity
  8
0
100
AcDbCircle
 62
7
  6
CONTINUOUS
 10
193.5744052068
 20
97.1155561191
 40
107.0436207523
100
AcDbArc
 50
358.1169224099
 51
358.3113320086
  0
ARC
  5
585
100
AcDbEntity
  8
0
100
AcDbCircle
 62
7
  6
CONTINUOUS
 10
195.7813631125
 20
97.0614334875
 40
104.8359821873
100
AcDbArc
 50
358.8295875407
 51
359.3822776386
  0
ARC
  5
586
100
AcDbEntity
  8
0
100
AcDbCircle
 62
7
  6
CONTINUOUS
 10
196.7758273333
 20
98.4268207911
 40
104.2860302842
100
AcDbArc
 50
356.9161381181
 51
357.058752334
  0
ARC
  5
587
100
AcDbEntity
  8
0
100
AcDbCircle
 62
7
  6
CONTINUOUS
 10
197.4342503929
 20
97.3279905566
 40
103.2884651216
100
AcDbArc
 50
358.6217172203
 51
359.1824967347
  0
ARC
  5
588
100
AcDbEntity
  8
0
100
AcDbCircle
 62
7
  6
CONTINUOUS
 10
200.8613335134
 20
97.6178679218
 40
99.9841564162
100
AcDbArc
 50
359.7725755783
 51
359.9508292258
  0
ARC
  5
589
100
AcDbEntity
  8
0
100
AcDbCircle
 62
7
  6
CONTINUOUS
 10
202.0042596861
 20
97.8879929188
 40
98.9466058228
100
AcDbArc
 50
358.668465993
 51
359.3442076352
  0
ARC
  5
58A
100
AcDbEntity
  8
0
100
AcDbCircle
 62
7
  6
CONTINUOUS
 10
202.8095265191
 20
97.8778962846
 40
98.1412805722
100
AcDbArc
 50
0.1922037372
 51
0.3965122197
  0
ARC
  5
58B
100
AcDbEntity
  8
0
100
AcDbCircle
 62
7
  6
CONTINUOUS
 10
203.4550163565
 20
98.116664599
 40
97.6012923357
100
AcDbArc
 50
1.2103294696
 51
1.3929816539
  0
ARC
  5
58C
100
AcDbEntity
  8
0
100
AcDbCircle
 62
7
  6
CONTINUOUS
 10
203.6250597262
 20
98.1556740514
 40
97.4311897535
100
AcDbArc
 50
358.4148659031
 51
359.1756426384
  0
ARC
  5
58D
100
AcDbEntity
  8
0
100
AcDbCircle
 62
7
  6
CONTINUOUS
 10
132.7872935238
 20
151.8288090556
 40
175.3272073887
100
AcDbArc
 50
0.0377884464
 51
3.1345029211
  0
ARC
  5
58E
100
AcDbEntity
  8
0
100
AcDbCircle
 62
7
  6
CONTINUOUS
 10
205.1721500651
 20
97.4562907199
 40
96.7739285852
100
AcDbArc
 50
348.0144337868
 51
348.1581309084
  0
ARC
  5
58F
100
AcDbEntity
  8
0
100
AcDbCircle
 62
7
  6
CONTINUOUS
 10
204.5626964985
 20
98.1408373432
 40
96.4934362983
100
AcDbArc
 50
359.2393604361
 51
359.5166781747
  0
ARC
  5
590
100
AcDbEntity
  8
0
100
AcDbCircle
 62
7
  6
CONTINUOUS
 10
207.1584136646
 20
98.1300107308
 40
93.5169156406
100
AcDbArc
 50
357.0971703616
 51
357.4447047816
  0
ARC
  5
591
100
AcDbEntity
  8
0
100
AcDbCircle
 62
7
  6
CONTINUOUS
 10
208.4333308439
 20
98.0731765573
 40
92.2407322943
100
AcDbArc
 50
357.4446658664
 51
357.8311865785
  0
ARC
  5
592
100
AcDbEntity
  8
0
100
AcDbCircle
 62
7
  6
CONTINUOUS
 10
209.3103818928
 20
97.8680495473
 40
91.362955892
100
AcDbArc
 50
1.6478805904
 51
2.6268506781
  0
ARC
  5
593
100
AcDbEntity
  8
0
100
AcDbCircle
 62
7
  6
CONTINUOUS
 10
222.4741111666
 20
89.8284237472
 40
78.0361393792
100
AcDbArc
 50
4.6925731325
 51
4.8515929925
  0
ARC
  5
594
100
AcDbEntity
  8
0
100
AcDbCircle
 62
7
  6
CONTINUOUS
 10
227.1242461159
 20
89.06641722
 40
72.997081955
100
AcDbArc
 50
1.1329309162
 51
1.302377977
  0
ARC
  5
595
100
AcDbEntity
  8
0
100
AcDbCircle
 62
7
  6
CONTINUOUS
 10
230.920017929
 20
88.9945847386
 40
69.8410490071
100
AcDbArc
 50
6.1895086508
 51
6.3248476727
  0
ARC
  5
596
100
AcDbEntity
  8
0
100
AcDbCircle
 62
7
  6
CONTINUOUS
 10
231.9079739639
 20
92.6273939993
 40
69.4318740226
100
AcDbArc
 50
5.2114648839
 51
5.390336554
  0
ARC
  5
597
100
AcDbEntity
  8
0
100
AcDbCircle
 62
7
  6
CONTINUOUS
 10
236.7263612834
 20
91.1451981111
 40
64.6609890592
100
AcDbArc
 50
6.6861421442
 51
6.8324695471
  0
ARC
  5
598
100
AcDbEntity
  8
0
100
AcDbCircle
 62
7
  6
CONTINUOUS
 10
237.2436913194
 20
88.2261460805
 40
63.022354463
100
AcDbArc
 50
2.3605336639
 51
2.5097569454
  0
ARC
  5
599
100
AcDbEntity
  8
0
100
AcDbCircle
 62
7
  6
CONTINUOUS
 10
245.2979843216
 20
90.8792264393
 40
55.6698432244
100
AcDbArc
 50
2.2612176779
 51
2.4301371807
  0
ARC
  5
59A
100
AcDbEntity
  8
0
100
AcDbCircle
 62
7
  6
CONTINUOUS
 10
251.0668106989
 20
85.262823958
 40
48.9109539606
100
AcDbArc
 50
359.5318031127
 51
359.6631771811
  0
ARC
  5
59B
100
AcDbEntity
  8
0
100
AcDbCircle
 62
7
  6
CONTINUOUS
 10
259.8417003678
 20
84.4069203264
 40
42.0962629101
100
AcDbArc
 50
16.1156851796
 51
16.2866244093
  0
ARC
  5
59C
100
AcDbEntity
  8
0
100
AcDbCircle
 62
7
  6
CONTINUOUS
 10
262.1747987785
 20
87.1213238155
 40
40.677147985
100
AcDbArc
 50
17.1999531075
 51
17.3778693611
  0
ARC
  5
59D
100
AcDbEntity
  8
0
100
AcDbCircle
 62
7
  6
CONTINUOUS
 10
285.4233455894
 20
65.3685700155
 40
34.1284887419
100
AcDbArc
 50
64.0575629778
 51
64.1877116656
  0
ARC
  5
59E
100
AcDbEntity
  8
0
100
AcDbCircle
 62
7
  6
CONTINUOUS
 10
284.8295796376
 20
65.4283425045
 40
34.0620416585
100
AcDbArc
 50
64.0574821858
 51
64.1773129148
  0
ARC
  5
59F
100
AcDbEntity
  8
0
100
AcDbCircle
 62
7
  6
CONTINUOUS
 10
271.3670679723
 20
103.2935654973
 40
33.6267707989
100
AcDbArc
 50
329.0097829046
 51
329.2345916318
  0
ARC
  5
5A0
100
AcDbEntity
  8
0
100
AcDbCircle
 62
7
  6
CONTINUOUS
 10
269.0867879158
 20
84.3358837862
 40
31.6286806335
100
AcDbArc
 50
11.0335844772
 51
11.2562587121
  0
ARC
  5
5A1
100
AcDbEntity
  8
0
100
AcDbCircle
 62
7
  6
CONTINUOUS
 10
273.6441755156
 20
84.2922903895
 40
30.9189891368
100
AcDbArc
 50
28.0626109113
 51
28.2071043955
  0
ARC
  5
5A2
100
AcDbEntity
  8
0
100
AcDbCircle
 62
7
  6
CONTINUOUS
 10
273.5242811839
 20
82.7590593795
 40
30.1549755669
100
AcDbArc
 50
27.0144306519
 51
27.161175585
  0
ARC
  5
5A3
100
AcDbEntity
  8
0
100
AcDbCircle
 62
7
  6
CONTINUOUS
 10
273.436292519
 20
87.7424929544
 40
28.0258873887
100
AcDbArc
 50
11.311750042
 51
11.5633084833
  0
ARC
  5
5A4
100
AcDbEntity
  8
0
100
AcDbCircle
 62
7
  6
CONTINUOUS
 10
268.1314350586
 20
87.8211583398
 40
20.8960166783
100
AcDbArc
 50
358.8090240693
 51
359.3825286389
  0
ARC
  5
5A5
100
AcDbEntity
  8
0
100
AcDbCircle
 62
7
  6
CONTINUOUS
 10
282.4440400413
 20
83.9717895335
 40
19.0432201614
100
AcDbArc
 50
20.8609852643
 51
21.0825441443
  0
ARC
  5
5A6
100
AcDbEntity
  8
0
100
AcDbCircle
 62
7
  6
CONTINUOUS
 10
284.3188624155
 20
86.5100897394
 40
17.6978608866
100
AcDbArc
 50
21.3203476994
 51
21.4398779509
  0
ARC
  5
5A7
100
AcDbEntity
  8
0
100
AcDbCircle
 62
7
  6
CONTINUOUS
 10
283.5881368646
 20
83.6801344595
 40
16.8950158874
100
AcDbArc
 50
7.8292777114
 51
8.2713264243
  0
ARC
  5
5A8
100
AcDbEntity
  8
0
100
AcDbCircle
 62
7
  6
CONTINUOUS
 10
286.3953146187
 20
82.0039883027
 40
13.9028288978
100
AcDbArc
 50
12.34041593
 51
12.5580702123
  0
ARC
  5
5A9
100
AcDbEntity
  8
0
100
AcDbCircle
 62
7
  6
CONTINUOUS
 10
294.0383306952
 20
81.3905090731
 40
13.7937411522
100
AcDbArc
 50
60.200476356
 51
60.484506153
  0
ARC
  5
5AA
100
AcDbEntity
  8
0
100
AcDbCircle
 62
7
  6
CONTINUOUS
 10
286.6231234043
 20
82.3464283868
 40
13.7465627325
100
AcDbArc
 50
12.1686313019
 51
12.7556555635
  0
ARC
  5
5AB
100
AcDbEntity
  8
0
100
AcDbCircle
 62
7
  6
CONTINUOUS
 10
293.2660955073
 20
78.6692010959
 40
13.5823735957
100
AcDbArc
 50
59.3599362897
 51
59.6411591066
  0
ARC
  5
5AC
100
AcDbEntity
  8
0
100
AcDbCircle
 62
7
  6
CONTINUOUS
 10
287.4720301626
 20
83.1150162807
 40
13.0319312633
100
AcDbArc
 50
11.4985271767
 51
11.7300095117
  0
ARC
  5
5AD
100
AcDbEntity
  8
0
100
AcDbCircle
 62
7
  6
CONTINUOUS
 10
293.3310030539
 20
91.9988052258
 40
10.6223981922
100
AcDbArc
 50
306.4850311884
 51
306.6646330434
  0
ARC
  5
5AE
100
AcDbEntity
  8
0
100
AcDbCircle
 62
7
  6
CONTINUOUS
 10
294.3714316882
 20
93.6522793559
 40
9.8106924004
100
AcDbArc
 50
306.3942414343
 51
306.6539758246
  0
ARC
  5
5AF
100
AcDbEntity
  8
0
100
AcDbCircle
 62
7
  6
CONTINUOUS
 10
292.7786792511
 20
91.205186327
 40
6.1865108782
100
AcDbArc
 50
178.6092082061
 51
181.6740272489
  0
ARC
  5
5B0
100
AcDbEntity
  8
0
100
AcDbCircle
 62
7
  6
CONTINUOUS
 10
291.9805681157
 20
93.0778211942
 40
5.3419077407
100
AcDbArc
 50
159.5917259321
 51
161.9876413584
  0
ARC
  5
5B1
100
AcDbEntity
  8
0
100
AcDbCircle
 62
7
  6
CONTINUOUS
 10
243.1711850639
 20
119.9981983837
 40
49.3824021323
100
AcDbArc
 50
333.0234068421
 51
333.1481050223
  0
ARC
  5
5B2
100
AcDbEntity
  8
0
100
AcDbCircle
 62
7
  6
CONTINUOUS
 10
266.4745084439
 20
120.6293375586
 40
45.3115365977
100
AcDbArc
 50
318.0770020046
 51
318.1956053175
  0
ARC
  5
5B3
100
AcDbEntity
  8
0
100
AcDbCircle
 62
7
  6
CONTINUOUS
 10
276.2940937062
 20
162.8332595771
 40
33.8717629675
100
AcDbArc
 50
343.718445892
 51
344.989525857
  0
ARC
  5
5B4
100
AcDbEntity
  8
0
100
AcDbCircle
 62
7
  6
CONTINUOUS
 10
283.7305184073
 20
115.7922715755
 40
4.6726964058
100
AcDbArc
 50
9.8236693806
 51
11.1520199829
  0
ARC
  5
5B5
100
AcDbEntity
  8
0
100
AcDbCircle
 62
7
  6
CONTINUOUS
 10
289.7567378785
 20
125.3783012563
 40
4.4452388556
100
AcDbArc
 50
180.02974433
 51
194.6874767582
  0
ARC
  5
5B6
100
AcDbEntity
  8
0
100
AcDbCircle
 62
7
  6
CONTINUOUS
 10
285.0063990237
 20
116.0462683101
 40
3.3717854737
100
AcDbArc
 50
11.1107513862
 51
18.5896599061
  0
ARC
  5
5B7
100
AcDbEntity
  8
0
100
AcDbCircle
 62
7
  6
CONTINUOUS
 10
287.0520964775
 20
116.0505161299
 40
1.3281001775
100
AcDbArc
 50
2.2674755953
 51
20.0275051668
  0
ARC
  5
5B8
100
AcDbEntity
  8
BEZUGSACHSEN
100
AcDbCircle
 62
7
  6
CONTINUOUS
 10
289.3801405347
 20
148.7579333574
 40
1.0034181992
100
AcDbArc
 50
180.0224447228
 51
193.3730057661
  0
ARC
  5
5B9
100
AcDbEntity
  8
BEZUGSACHSEN
100
AcDbCircle
 62
7
  6
CONTINUOUS
 10
289.3771586762
 20
152.4071924909
 40
1.000038289
100
AcDbArc
 50
85.6293540495
 51
212.790380806
  0
ARC
  5
5BA
100
AcDbEntity
  8
BEZUGSACHSEN
100
AcDbCircle
 62
7
  6
CONTINUOUS
 10
289.376717357
 20
148.7575203003
 40
0.9999957587
100
AcDbArc
 50
70.2613368927
 51
179.9988550107
  0
ARC
  5
5BB
100
AcDbEntity
  8
BEZUGSACHSEN
100
AcDbCircle
 62
7
  6
CONTINUOUS
 10
285.3771353757
 20
146.6391322523
 40
0.99996672
100
AcDbArc
 50
41.5418076633
 51
172.1171992014
  0
ARC
  5
5BC
100
AcDbEntity
  8
BEZUGSACHSEN
100
AcDbCircle
 62
7
  6
CONTINUOUS
 10
285.377122203
 20
150.1034483961
 40
0.9999641044
100
AcDbArc
 50
59.1300619182
 51
170.6534932804
  0
ARC
  5
5BD
100
AcDbEntity
  8
BEZUGSACHSEN
100
AcDbCircle
 62
7
  6
CONTINUOUS
 10
289.3763220785
 20
156.3661014296
 40
0.9995996719
100
AcDbArc
 50
133.7988262055
 51
222.7740776874
  0
ARC
  5
5BE
100
AcDbEntity
  8
BEZUGSACHSEN
100
AcDbCircle
 62
7
  6
CONTINUOUS
 10
285.1983002531
 20
150.1325532664
 40
0.8187946743
100
AcDbArc
 50
170.6306848987
 51
180.5375869766
  0
ARC
  5
5BF
100
AcDbEntity
  8
0
100
AcDbCircle
 62
7
  6
CONTINUOUS
 10
293.9751186996
 20
148.7310962029
 40
0.7275204384
100
AcDbArc
 50
0.0527507214
 51
11.9485929233
  0
ARC
  5
5C0
100
AcDbEntity
  8
BEZUGSACHSEN
100
AcDbCircle
 62
7
  6
CONTINUOUS
 10
282.0967395687
 20
200.3277072743
 40
3.0986915954
100
AcDbArc
 50
299.99939855
 51
324.6839603614
  0
ARC
  5
5C1
100
AcDbEntity
  8
BEZUGSACHSEN
100
AcDbCircle
 62
7
  6
CONTINUOUS
 10
284.8837089127
 20
198.3486843894
 40
0.3205744252
100
AcDbArc
 50
136.7182062146
 51
138.0244438408
  0
ARC
  5
5C2
100
AcDbEntity
  8
0
100
AcDbCircle
 62
7
  6
CONTINUOUS
 10
-1813.9407315649
 20
517.0876899939
 40
2159.0318175328
100
AcDbArc
 50
348.2617272278
 51
348.4255955518
  0
ARC
  5
5C3
100
AcDbEntity
  8
0
100
AcDbCircle
 62
7
  6
CONTINUOUS
 10
925.9680255619
 20
87.5149597337
 40
626.3466815929
100
AcDbArc
 50
179.904101462
 51
180.128658344
  0
ARC
  5
5C4
100
AcDbEntity
  8
0
100
AcDbCircle
 62
7
  6
CONTINUOUS
 10
724.629826016
 20
96.572211345
 40
438.1791035589
100
AcDbArc
 50
180.4606297237
 51
180.6611083238
  0
ARC
  5
5C5
100
AcDbEntity
  8
0
100
AcDbCircle
 62
7
  6
CONTINUOUS
 10
631.6099500639
 20
139.75602402
 40
346.2813402832
100
AcDbArc
 50
189.2245694814
 51
190.369555499
  0
ARC
  5
5C6
100
AcDbEntity
  8
0
100
AcDbCircle
 62
7
  6
CONTINUOUS
 10
591.7801332405
 20
99.5627980276
 40
305.6488342383
100
AcDbArc
 50
180.5808428227
 51
180.8811171003
  0
ARC
  5
5C7
100
AcDbEntity
  8
BEZUGSACHSEN
100
AcDbCircle
 62
7
  6
CONTINUOUS
 10
519.7873029484
 20
100.7657473146
 40
216.329186213
100
AcDbArc
 50
180.9565481244
 51
181.4282639315
  0
ARC
  5
5C8
100
AcDbEntity
  8
AUSFORMSCHRAEGEN
100
AcDbCircle
 62
7
  6
CONTINUOUS
 10
457.966966462
 20
151.8288090556
 40
175.3272073887
100
AcDbArc
 50
176.8654970789
 51
179.9622115536
  0
ARC
  5
5C9
100
AcDbEntity
  8
BEZUGSACHSEN
100
AcDbCircle
 62
7
  6
CONTINUOUS
 10
476.7713705444
 20
95.6340202244
 40
172.6641231718
100
AcDbArc
 50
180.8539925397
 51
181.4199549914
  0
ARC
  5
5CA
100
AcDbEntity
  8
0
100
AcDbCircle
 62
7
  6
CONTINUOUS
 10
438.5639919299
 20
99.1502081729
 40
147.4995681732
100
AcDbArc
 50
179.3976691382
 51
180.6087033259
  0
ARC
  5
5CB
100
AcDbEntity
  8
0
100
AcDbCircle
 62
7
  6
CONTINUOUS
 10
415.6500515148
 20
103.7697748459
 40
127.4975536031
100
AcDbArc
 50
191.7291723642
 51
191.8458403205
  0
ARC
  5
5CC
100
AcDbEntity
  8
0
100
AcDbCircle
 62
7
  6
CONTINUOUS
 10
385.5821099197
 20
97.4562907197
 40
96.7739285842
100
AcDbArc
 50
191.8418690916
 51
191.9855662132
  0
ARC
  5
5CD
100
AcDbEntity
  8
BEZUGSACHSEN
100
AcDbCircle
 62
7
  6
CONTINUOUS
 10
347.582723561
 20
119.9980201824
 40
49.3820081652
100
AcDbArc
 50
206.85189465
 51
206.9765921143
  0
ARC
  5
5CE
100
AcDbEntity
  8
0
100
AcDbCircle
 62
7
  6
CONTINUOUS
 10
314.4601662798
 20
162.8332595772
 40
33.8717629676
100
AcDbArc
 50
195.010474143
 51
196.281554108
  0
ARC
  5
5CF
100
AcDbEntity
  8
0
100
AcDbCircle
 62
7
  6
CONTINUOUS
 10
322.6228249272
 20
87.8211583398
 40
20.8960166783
100
AcDbArc
 50
180.6174713611
 51
181.1909759307
  0
ARC
  5
5D0
100
AcDbEntity
  8
0
100
AcDbCircle
 62
7
  6
CONTINUOUS
 10
295.3771299929
 20
202.9458203499
 40
10.1821
100
AcDbArc
 50
26.2691937362
 51
180.0
  0
ARC
  5
5D1
100
AcDbEntity
  8
RUNDUNGEN
100
AcDbCircle
 62
7
  6
CONTINUOUS
 10
295.3771299929
 20
202.9458203499
 40
10.1821
100
AcDbArc
 50
0.0
 51
26.2691937362
  0
ARC
  5
5D2
100
AcDbEntity
  8
0
100
AcDbCircle
 62
7
  6
CONTINUOUS
 10
296.0992821924
 20
95.1819271155
 40
9.7540953415
100
AcDbArc
 50
291.2763284222
 51
291.5659759745
  0
ARC
  5
5D3
100
AcDbEntity
  8
0
100
AcDbCircle
 62
7
  6
CONTINUOUS
 10
296.7220734243
 20
95.1819271104
 40
9.7540953361
100
AcDbArc
 50
291.2763284222
 51
291.5659759746
  0
ARC
  5
5D4
100
AcDbEntity
  8
BEZUGSACHSEN
100
AcDbCircle
 62
7
  6
CONTINUOUS
 10
297.9755807348
 20
91.205186327
 40
6.1865108782
100
AcDbArc
 50
358.3259727511
 51
1.3907917939
  0
CIRCLE
  5
5D5
100
AcDbEntity
  8
BEZUGSACHSEN
100
AcDbCircle
 62
7
  6
CONTINUOUS
 10
295.3771299929
 20
201.2738203499
 40
5.415
  0
ARC
  5
5D6
100
AcDbEntity
  8
BEZUGSACHSEN
100
AcDbCircle
 62
7
  6
CONTINUOUS
 10
298.7737030294
 20
93.0778249387
 40
5.3418959704
100
AcDbArc
 50
18.0123574588
 51
20.4076565516
  0
ARC
  5
5D7
100
AcDbEntity
  8
0
100
AcDbCircle
 62
7
  6
CONTINUOUS
 10
296.6240657849
 20
80.9440385603
 40
5.2867662803
100
AcDbArc
 50
50.8526066521
 51
51.070870266
  0
ARC
  5
5D8
100
AcDbEntity
  8
RUNDUNGEN
100
AcDbCircle
 62
7
  6
CONTINUOUS
 10
300.9975221074
 20
125.3783012563
 40
4.4452388556
100
AcDbArc
 50
345.3125232418
 51
359.97025567
  0
ARC
  5
5D9
100
AcDbEntity
  8
BEZUGSACHSEN
100
AcDbCircle
 62
7
  6
CONTINUOUS
 10
308.6575203981
 20
200.3277072482
 40
3.0986915633
100
AcDbArc
 50
215.3169750683
 51
240.0006015132
  0
ARC
  5
5DA
100
AcDbEntity
  8
0
100
AcDbCircle
 62
7
  6
CONTINUOUS
 10
301.3741194511
 20
148.7579333574
 40
1.0034181992
100
AcDbArc
 50
346.6269942339
 51
359.9775552773
  0
ARC
  5
5DB
100
AcDbEntity
  8
0
100
AcDbCircle
 62
7
  6
CONTINUOUS
 10
301.3770897473
 20
152.4072664479
 40
1.0000402457
100
AcDbArc
 50
327.209619194
 51
94.3691237897
  0
ARC
  5
5DC
100
AcDbEntity
  8
0
100
AcDbCircle
 62
7
  6
CONTINUOUS
 10
301.3775426348
 20
148.757520296
 40
0.9999957587
100
AcDbArc
 50
0.00114524
 51
109.7386633499
  0
ARC
  5
5DD
100
AcDbEntity
  8
0
100
AcDbCircle
 62
7
  6
CONTINUOUS
 10
305.3771247129
 20
146.6391323553
 40
0.9999665485
100
AcDbArc
 50
7.8827957587
 51
138.4582006582
  0
ARC
  5
5DE
100
AcDbEntity
  8
0
100
AcDbCircle
 62
7
  6
CONTINUOUS
 10
305.3771375141
 20
150.1034485211
 40
0.9999641044
100
AcDbArc
 50
9.3464971523
 51
120.8699285391
  0
ARC
  5
5DF
100
AcDbEntity
  8
0
100
AcDbCircle
 62
7
  6
CONTINUOUS
 10
301.3779379073
 20
156.3661014296
 40
0.9995996719
100
AcDbArc
 50
317.2259223126
 51
46.2011737945
  0
ARC
  5
5E0
100
AcDbEntity
  8
0
100
AcDbCircle
 62
7
  6
CONTINUOUS
 10
305.5559597327
 20
150.1325532664
 40
0.8187946743
100
AcDbArc
 50
359.4624130234
 51
9.3693151013
  0
ARC
  5
5E1
100
AcDbEntity
  8
0
100
AcDbCircle
 62
7
  6
CONTINUOUS
 10
2404.6949915508
 20
517.0876899939
 40
2159.0318175328
100
AcDbArc
 50
191.5744044482
 51
191.7382727722
  0
SPLINE
  5
5E2
100
AcDbEntity
  8
0
100
AcDbSpline
 62
7
  6
CONTINUOUS
 70
0
 71
3
 72
17
 73
13
 74
0
 42
0.0000001
 43
0.0000001
 44
0.0000000001
 40
0.0
 40
0.0
 40
0.0
 40
0.0
 40
0.0186516065
 40
0.0393770941
 40
0.0657236429
 40
0.0993797304
 40
0.1902579113
 40
0.3116749488
 40
0.4595589844
 40
0.6282603522
 40
0.8111672873
 40
1.0
 40
1.0
 40
1.0
 40
1.0
 10
74.4368029572
 20
147.5471279582
 30
0.0
 10
74.4427629101
 20
147.5443737903
 30
0.0
 10
74.4540508906
 20
147.5350054553
 30
0.0
 10
74.4618628457
 20
147.5124297333
 30
0.0
 10
74.4620168138
 20
147.4837646163
 30
0.0
 10
74.4519465357
 20
147.4314019975
 30
0.0
 10
74.4194299513
 20
147.3505672824
 30
0.0
 10
74.3592252237
 20
147.2389352283
 30
0.0
 10
74.2757649196
 20
147.109115979
 30
0.0
 10
74.1725459229
 20
146.9667038808
 30
0.0
 10
74.0538383913
 20
146.8179642758
 30
0.0
 10
73.9680571353
 20
146.7190917999
 30
0.0
 10
73.9234761761
 20
146.6697873078
 30
0.0
  0
SPLINE
  5
5E3
100
AcDbEntity
  8
0
100
AcDbSpline
 62
7
  6
CONTINUOUS
 70
0
 71
3
 72
14
 73
10
 74
0
 42
0.0000001
 43
0.0000001
 44
0.0000000001
 40
0.0
 40
0.0
 40
0.0
 40
0.0
 40
0.0786944998
 40
0.1604256961
 40
0.2569933377
 40
0.3736909913
 40
0.5105255993
 40
0.66417675
 40
1.0
 40
1.0
 40
1.0
 40
1.0
 10
76.0907110717
 20
157.302138725
 30
0.0
 10
76.1211399261
 20
157.3134256243
 30
0.0
 10
76.1898987434
 20
157.3227436385
 30
0.0
 10
76.2916172858
 20
157.2816590085
 30
0.0
 10
76.3802607592
 20
157.1955008574
 30
0.0
 10
76.455947506
 20
157.0713779015
 30
0.0
 10
76.5167233831
 20
156.9140833214
 30
0.0
 10
76.5761573747
 20
156.6621958015
 30
0.0
 10
76.5882444957
 20
156.4586326226
 30
0.0
 10
76.5831536553
 20
156.3202279516
 30
0.0
  0
SPLINE
  5
5E4
100
AcDbEntity
  8
0
100
AcDbSpline
 62
7
  6
CONTINUOUS
 70
0
 71
3
 72
17
 73
13
 74
0
 42
0.0000001
 43
0.0000001
 44
0.0000000001
 40
0.0
 40
0.0
 40
0.0
 40
0.0
 40
0.0188004956
 40
0.0398760043
 40
0.0665615488
 40
0.1004218217
 40
0.1912760535
 40
0.3121994727
 40
0.4594773242
 40
0.6276395975
 40
0.8102809025
 40
1.0
 40
1.0
 40
1.0
 40
1.0
 10
76.4759041223
 20
151.0878245583
 30
0.0
 10
76.4822401098
 20
151.0865782849
 30
0.0
 10
76.4952405162
 20
151.0802748279
 30
0.0
 10
76.5084479088
 20
151.060783342
 30
0.0
 10
76.5162842298
 20
151.0336277171
 30
0.0
 10
76.5210127745
 20
150.9816419512
 30
0.0
 10
76.5126063177
 20
150.8971624846
 30
0.0
 10
76.4867469288
 20
150.7765296619
 30
0.0
 10
76.4441021168
 20
150.6326944742
 30
0.0
 10
76.3864240593
 20
150.4715759374
 30
0.0
 10
76.3158583241
 20
150.2997924125
 30
0.0
 10
76.2624599208
 20
150.1835357269
 30
0.0
 10
76.23409418
 20
150.1248709048
 30
0.0
  0
SPLINE
  5
5E5
100
AcDbEntity
  8
0
100
AcDbSpline
 62
7
  6
CONTINUOUS
 70
0
 71
3
 72
17
 73
13
 74
0
 42
0.0000001
 43
0.0000001
 44
0.0000000001
 40
0.0
 40
0.0
 40
0.0
 40
0.0
 40
0.1920807258
 40
0.3759414317
 40
0.544019587
 40
0.6903795227
 40
0.8101439256
 40
0.8998444112
 40
0.9332875515
 40
0.9597574467
 40
0.9808566532
 40
1.0
 40
1.0
 40
1.0
 40
1.0
 10
73.9234761761
 20
146.6697873078
 30
0.0
 10
73.8815798178
 20
146.6234518608
 30
0.0
 10
73.7978201205
 20
146.5343381081
 30
0.0
 10
73.6715498354
 20
146.4103286784
 30
0.0
 10
73.5507613928
 20
146.3022108057
 30
0.0
 10
73.4402853736
 20
146.2140257693
 30
0.0
 10
73.3444264589
 20
146.1491272921
 30
0.0
 10
73.2738570105
 20
146.1124342766
 30
0.0
 10
73.2269456965
 20
146.0988294258
 30
0.0
 10
73.2004584467
 20
146.0964880197
 30
0.0
 10
73.1787385374
 20
146.1017922976
 30
0.0
 10
73.1687346868
 20
146.111252162
 30
0.0
 10
73.1653759014
 20
146.1164941843
 30
0.0
  0
SPLINE
  5
5E6
100
AcDbEntity
  8
0
100
AcDbSpline
 62
7
  6
CONTINUOUS
 70
0
 71
3
 72
14
 73
10
 74
0
 42
0.0000001
 43
0.0000001
 44
0.0000000001
 40
0.0
 40
0.0
 40
0.0
 40
0.0
 40
0.3358406197
 40
0.4894918189
 40
0.6263222945
 40
0.7430147377
 40
0.8395770843
 40
0.921304976
 40
1.0
 40
1.0
 40
1.0
 40
1.0
 10
74.1110177003
 20
148.7117758212
 30
0.0
 10
74.0337782746
 20
148.5968031692
 30
0.0
 10
73.9043394568
 20
148.4392130165
 30
0.0
 10
73.7081886268
 20
148.2703622287
 30
0.0
 10
73.5665608089
 20
148.1788368017
 30
0.0
 10
73.4323712579
 20
148.1229137381
 30
0.0
 10
73.3100156859
 20
148.105322942
 30
0.0
 10
73.2035783875
 20
148.1318861887
 30
0.0
 10
73.1534344313
 20
148.1798472901
 30
0.0
 10
73.1354544929
 20
148.2068675371
 30
0.0
  0
SPLINE
  5
5E7
100
AcDbEntity
  8
0
100
AcDbSpline
 62
7
  6
CONTINUOUS
 70
0
 71
3
 72
17
 73
13
 74
0
 42
0.0000001
 43
0.0000001
 44
0.0000000001
 40
0.0
 40
0.0
 40
0.0
 40
0.0
 40
0.1905558072
 40
0.3734306381
 40
0.5414468446
 40
0.6883578728
 40
0.8088770441
 40
0.8994433055
 40
0.9332342069
 40
0.9599329788
 40
0.9810823626
 40
1.0
 40
1.0
 40
1.0
 40
1.0
 10
76.23409418
 20
150.1248709048
 30
0.0
 10
76.2061202745
 20
150.06701646
 30
0.0
 10
76.1490793614
 20
149.9546979723
 30
0.0
 10
76.0598321717
 20
149.7953316587
 30
0.0
 10
75.9711341636
 20
149.652735416
 30
0.0
 10
75.8866641438
 20
149.5324344373
 30
0.0
 10
75.80981371
 20
149.4392647792
 30
0.0
 10
75.7500611935
 20
149.3814975901
 30
0.0
 10
75.7072039351
 20
149.3536070929
 30
0.0
 10
75.6814948699
 20
149.3431237681
 30
0.0
 10
75.6583766026
 20
149.3414815144
 30
0.0
 10
75.6455309829
 20
149.3476088855
 30
0.0
 10
75.6406465921
 20
149.3517130002
 30
0.0
  0
SPLINE
  5
5E8
100
AcDbEntity
  8
0
100
AcDbSpline
 62
7
  6
CONTINUOUS
 70
0
 71
3
 72
17
 73
13
 74
0
 42
0.0000001
 43
0.0000001
 44
0.0000000001
 40
0.0
 40
0.0
 40
0.0
 40
0.0
 40
0.1888327127
 40
0.3717396478
 40
0.5404410156
 40
0.6883250512
 40
0.8097420887
 40
0.9006202696
 40
0.9342763571
 40
0.9606229059
 40
0.9813483935
 40
1.0
 40
1.0
 40
1.0
 40
1.0
 10
77.6316801086
 20
158.0824655033
 30
0.0
 10
77.6387664089
 20
158.016373301
 30
0.0
 10
77.6500491196
 20
157.8859628306
 30
0.0
 10
77.6586585838
 20
157.6958554259
 30
0.0
 10
77.6584567752
 20
157.5199710142
 30
0.0
 10
77.6496717394
 20
157.3658882994
 30
0.0
 10
77.632762712
 20
157.2401886196
 30
0.0
 10
77.611555728
 20
157.1556791926
 30
0.0
 10
77.588924779
 20
157.1073977832
 30
0.0
 10
77.5719512832
 20
157.0842977165
 30
0.0
 10
77.5523616023
 20
157.0706253257
 30
0.0
 10
77.5377228651
 20
157.0696810921
 30
0.0
 10
77.5312823027
 20
157.0709560958
 30
0.0
  0
SPLINE
  5
5E9
100
AcDbEntity
  8
0
100
AcDbSpline
 62
7
  6
CONTINUOUS
 70
0
 71
3
 72
13
 73
9
 74
0
 42
0.0000001
 43
0.0000001
 44
0.0000000001
 40
0.0
 40
0.0
 40
0.0
 40
0.0
 40
0.3379506192
 40
0.6249003553
 40
0.7403095939
 40
0.8365699056
 40
0.9193470794
 40
1.0
 40
1.0
 40
1.0
 40
1.0
 10
76.5831536553
 20
156.3202279516
 30
0.0
 10
76.5783881174
 20
156.1906672766
 30
0.0
 10
76.5475223484
 20
155.9516407063
 30
0.0
 10
76.451392963
 20
155.6796431635
 30
0.0
 10
76.33967236
 20
155.5227067771
 30
0.0
 10
76.2513697509
 20
155.4492622851
 30
0.0
 10
76.1533449206
 20
155.4180170722
 30
0.0
 10
76.0890092679
 20
155.4299719894
 30
0.0
 10
76.0604178546
 20
155.4417988005
 30
0.0
  0
SPLINE
  5
5EA
100
AcDbEntity
  8
0
100
AcDbSpline
 62
7
  6
CONTINUOUS
 70
0
 71
3
 72
17
 73
13
 74
0
 42
0.0000001
 43
0.0000001
 44
0.0000000001
 40
0.0
 40
0.0
 40
0.0
 40
0.0
 40
0.189713085
 40
0.3723492623
 40
0.5405102877
 40
0.6877886787
 40
0.8087141488
 40
0.8995721276
 40
0.9334347364
 40
0.960123313
 40
0.9812003967
 40
1.0
 40
1.0
 40
1.0
 40
1.0
 10
77.4701621575
 20
153.92909697
 30
0.0
 10
77.4586287417
 20
153.864966143
 30
0.0
 10
77.4334963251
 20
153.7395312724
 30
0.0
 10
77.3896154307
 20
153.5590846762
 30
0.0
 10
77.3415770134
 20
153.3948388285
 30
0.0
 10
77.2915350872
 20
153.2534088953
 30
0.0
 10
77.2415510749
 20
153.1406141525
 30
0.0
 10
77.1986982923
 20
153.0673246856
 30
0.0
 10
77.16431745
 20
153.0280428773
 30
0.0
 10
77.1420175835
 20
153.0106745734
 30
0.0
 10
77.1198771756
 20
153.002663324
 30
0.0
 10
77.1056538544
 20
153.0051990774
 30
0.0
 10
77.0997945573
 20
153.0079122654
 30
0.0
  0
SPLINE
  5
5EB
100
AcDbEntity
  8
0
100
AcDbSpline
 62
7
  6
CONTINUOUS
 70
0
 71
3
 72
14
 73
10
 74
0
 42
0.0000001
 43
0.0000001
 44
0.0000000001
 40
0.0
 40
0.0
 40
0.0
 40
0.0
 40
0.3331023954
 40
0.4853819774
 40
0.621731618
 40
0.7392556575
 40
0.837779936
 40
0.9214525648
 40
1.0
 40
1.0
 40
1.0
 40
1.0
 10
75.9056685168
 20
152.33450732
 30
0.0
 10
75.8643010486
 20
152.2071913444
 30
0.0
 10
75.786684306
 20
152.0262412366
 30
0.0
 10
75.6511860619
 20
151.8157542123
 30
0.0
 10
75.5451484994
 20
151.6908572554
 30
0.0
 10
75.435912089
 20
151.5993359669
 30
0.0
 10
75.3267146012
 20
151.5448585127
 30
0.0
 10
75.2196824838
 20
151.5323409693
 30
0.0
 10
75.1559788375
 20
151.5562260483
 30
0.0
 10
75.1295946118
 20
151.5735562744
 30
0.0
  0
SPLINE
  5
5EC
100
AcDbEntity
  8
0
100
AcDbSpline
 62
7
  6
CONTINUOUS
 70
0
 71
3
 72
17
 73
13
 74
0
 42
0.0000001
 43
0.0000001
 44
0.0000000001
 40
0.0
 40
0.0
 40
0.0
 40
0.0
 40
0.0189627096
 40
0.0400041555
 40
0.0665043297
 40
0.1001399292
 40
0.1905420397
 40
0.3110537234
 40
0.4580477895
 40
0.6261983225
 40
0.8093287957
 40
1.0
 40
1.0
 40
1.0
 40
1.0
 10
77.4436095557
 20
154.9033549109
 30
0.0
 10
77.4499828294
 20
154.9039429679
 30
0.0
 10
77.4640293459
 20
154.901647734
 30
0.0
 10
77.4819674776
 20
154.8870597662
 30
0.0
 10
77.4967890882
 20
154.8637231935
 30
0.0
 10
77.5152276503
 20
154.8161614258
 30
0.0
 10
77.5297697202
 20
154.7343649246
 30
0.0
 10
77.5372913531
 20
154.6137513959
 30
0.0
 10
77.5349921125
 20
154.4665777308
 30
0.0
 10
77.5229476974
 20
154.2987754969
 30
0.0
 10
77.5014515764
 20
154.1170627371
 30
0.0
 10
77.4815532987
 20
153.9924366887
 30
0.0
 10
77.4701621575
 20
153.92909697
 30
0.0
  0
SPLINE
  5
5ED
100
AcDbEntity
  8
0
100
AcDbSpline
 62
7
  6
CONTINUOUS
 70
0
 71
3
 72
17
 73
13
 74
0
 42
0.0000001
 43
0.0000001
 44
0.0000000001
 40
0.0
 40
0.0
 40
0.0
 40
0.0
 40
0.0191435868
 40
0.0402432781
 40
0.0667146851
 40
0.1001604121
 40
0.1898641044
 40
0.309633857
 40
0.4559962253
 40
0.6240727183
 40
0.8079237847
 40
1.0
 40
1.0
 40
1.0
 40
1.0
 10
77.3435845864
 20
158.9756898739
 30
0.0
 10
77.3493833935
 20
158.9779558804
 30
0.0
 10
77.3630372316
 20
158.9797272614
 30
0.0
 10
77.3837273557
 20
158.971251963
 30
0.0
 10
77.4037797727
 20
158.9537864166
 30
0.0
 10
77.433734376
 20
158.9152029914
 30
0.0
 10
77.4692605666
 20
158.8440353208
 30
0.0
 10
77.5086640522
 20
158.7351827934
 30
0.0
 10
77.5462076609
 20
158.5989020859
 30
0.0
 10
77.5803751553
 20
158.4404381955
 30
0.0
 10
77.6096388538
 20
158.2658984588
 30
0.0
 10
77.6250207138
 20
158.1445760627
 30
0.0
 10
77.6316801086
 20
158.0824655033
 30
0.0
  0
SPLINE
  5
5EE
100
AcDbEntity
  8
0
100
AcDbSpline
 62
7
  6
CONTINUOUS
 70
0
 71
3
 72
13
 73
9
 74
0
 42
0.0000001
 43
0.0000001
 44
0.0000000001
 40
0.0
 40
0.0
 40
0.0
 40
0.0
 40
0.0806529749
 40
0.1634309561
 40
0.259694689
 40
0.3750976362
 40
0.6620303475
 40
1.0
 40
1.0
 40
1.0
 40
1.0
 10
74.2044424915
 20
149.7296962277
 30
0.0
 10
74.2345251232
 20
149.7224587739
 30
0.0
 10
74.293601836
 20
149.6943163755
 30
0.0
 10
74.3545406143
 20
149.6114182415
 30
0.0
 10
74.3828057586
 20
149.5000976146
 30
0.0
 10
74.3809523989
 20
149.3074735166
 30
0.0
 10
74.298843533
 20
149.030920574
 30
0.0
 10
74.1833202931
 20
148.8193998843
 30
0.0
 10
74.1110177003
 20
148.7117758212
 30
0.0
  0
SPLINE
  5
5EF
100
AcDbEntity
  8
0
100
AcDbSpline
 62
7
  6
CONTINUOUS
 70
0
 71
3
 72
14
 73
10
 74
0
 42
0.0000001
 43
0.0000001
 44
0.0000000001
 40
0.0
 40
0.0
 40
0.0
 40
0.0
 40
0.0785389667
 40
0.1622356929
 40
0.2608069121
 40
0.3783749715
 40
0.5147603862
 40
0.6670546914
 40
1.0
 40
1.0
 40
1.0
 40
1.0
 10
75.7256996991
 20
153.4062800737
 30
0.0
 10
75.7572081828
 20
153.4047033906
 30
0.0
 10
75.8226945782
 20
153.3863805515
 30
0.0
 10
75.9017498162
 20
153.3132151456
 30
0.0
 10
75.9579252715
 20
153.2049023657
 30
0.0
 10
75.992403905
 20
153.0666510136
 30
0.0
 10
76.0046931027
 20
152.9033174064
 30
0.0
 10
75.9905472664
 20
152.6535564238
 30
0.0
 10
75.9469961602
 20
152.4617007279
 30
0.0
 10
75.9056685168
 20
152.33450732
 30
0.0
  0
SPLINE
  5
5F0
100
AcDbEntity
  8
0
100
AcDbSpline
 62
7
  6
CONTINUOUS
 70
0
 71
3
 72
15
 73
11
 74
0
 42
0.0000001
 43
0.0000001
 44
0.0000000001
 40
0.0
 40
0.0
 40
0.0
 40
0.0
 40
0.1249941107
 40
0.2500030518
 40
0.3749978069
 40
0.4999980553
 40
0.6249986392
 40
0.7499939874
 40
0.87500475
 40
1.0
 40
1.0
 40
1.0
 40
1.0
 10
131.5188134424
 20
165.0746858819
 30
0.0
 10
131.0111444537
 20
165.5006707432
 30
0.0
 10
130.0547528612
 20
166.4260093451
 30
0.0
 10
128.8321895425
 20
168.0020537354
 30
0.0
 10
127.8456168059
 20
169.7361351714
 30
0.0
 10
127.1154104499
 20
171.5926357861
 30
0.0
 10
126.6562042672
 20
173.533984877
 30
0.0
 10
126.4763214428
 20
175.5208813215
 30
0.0
 10
126.5783624041
 20
177.5128149863
 30
0.0
 10
126.832135111
 20
178.8190547689
 30
0.0
 10
127.0036598857
 20
179.4591939428
 30
0.0
  0
SPLINE
  5
5F1
100
AcDbEntity
  8
0
100
AcDbSpline
 62
7
  6
CONTINUOUS
 70
0
 71
3
 72
11
 73
7
 74
0
 42
0.0000001
 43
0.0000001
 44
0.0000000001
 40
0.0
 40
0.0
 40
0.0
 40
0.0
 40
0.2500260461
 40
0.5000067215
 40
0.7500032689
 40
1.0
 40
1.0
 40
1.0
 40
1.0
 10
97.8564591909
 20
170.4399495726
 30
0.0
 10
97.7572035282
 20
170.5669906353
 30
0.0
 10
97.522963513
 20
170.7953672054
 30
0.0
 10
97.0922984087
 20
171.0284247656
 30
0.0
 10
96.6139961809
 20
171.1338454373
 30
0.0
 10
96.2872962463
 20
171.1125235746
 30
0.0
 10
96.1294450895
 20
171.0798427538
 30
0.0
  0
SPLINE
  5
5F2
100
AcDbEntity
  8
BEZUGSACHSEN
100
AcDbSpline
 62
7
  6
CONTINUOUS
 70
0
 71
3
 72
11
 73
7
 74
0
 42
0.0000001
 43
0.0000001
 44
0.0000000001
 40
0.0
 40
0.0
 40
0.0
 40
0.0
 40
0.2500099747
 40
0.500011147
 40
0.7500061072
 40
1.0
 40
1.0
 40
1.0
 40
1.0
 10
78.7420500914
 20
206.6888207151
 30
0.0
 10
78.748938765
 20
206.9259476277
 30
0.0
 10
78.8254434884
 20
207.4007000464
 30
0.0
 10
79.1206905658
 20
208.0569482695
 30
0.0
 10
79.5761157795
 20
208.6141593686
 30
0.0
 10
79.967541641
 20
208.8937595859
 30
0.0
 10
80.1771375023
 20
209.0048404648
 30
0.0
  0
SPLINE
  5
5F3
100
AcDbEntity
  8
BEZUGSACHSEN
100
AcDbSpline
 62
7
  6
CONTINUOUS
 70
0
 71
3
 72
9
 73
5
 74
0
 42
0.0000001
 43
0.0000001
 44
0.0000000001
 40
0.0
 40
0.0
 40
0.0
 40
0.0
 40
0.2394697529
 40
1.0
 40
1.0
 40
1.0
 40
1.0
 10
78.7420498521
 20
206.6888203499
 30
0.0
 10
78.7473693809
 20
206.6888203499
 30
0.0
 10
78.7695876925
 20
206.687435383
 30
0.0
 10
78.7912319438
 20
206.6803500043
 30
0.0
 10
78.806439857
 20
206.672992345
 30
0.0
  0
SPLINE
  5
5F4
100
AcDbEntity
  8
0
100
AcDbSpline
 62
7
  6
CONTINUOUS
 70
0
 71
3
 72
23
 73
19
 74
0
 42
0.0000001
 43
0.0000001
 44
0.0000000001
 40
0.0
 40
0.0
 40
0.0
 40
0.0
 40
0.1945085635
 40
0.381355906
 40
0.5532566386
 40
0.6314929875
 40
0.7035706786
 40
0.7688132714
 40
0.8266182518
 40
0.8764689305
 40
0.9179504466
 40
0.9507689515
 40
0.9638905687
 40
0.9748342944
 40
0.9836586344
 40
0.9905018881
 40
0.9956976665
 40
1.0
 40
1.0
 40
1.0
 40
1.0
 10
114.6497303572
 20
201.0999384299
 30
0.0
 10
114.6497303572
 20
201.6755227526
 30
0.0
 10
114.640081353
 20
202.8040485973
 30
0.0
 10
114.5969688503
 20
204.4407448459
 30
0.0
 10
114.537277373
 20
205.7326013485
 30
0.0
 10
114.4751019495
 20
206.6840876139
 30
0.0
 10
114.4242972721
 20
207.3199561814
 30
0.0
 10
114.3684245883
 20
207.8946923722
 30
0.0
 10
114.3080781267
 20
208.4027994542
 30
0.0
 10
114.2440168116
 20
208.8395391525
 30
0.0
 10
114.176917928
 20
209.2008190508
 30
0.0
 10
114.1158280013
 20
209.4524990134
 30
0.0
 10
114.0637187449
 20
209.6126618312
 30
0.0
 10
114.0272874837
 20
209.7030094263
 30
0.0
 10
113.9906310761
 20
209.7729642705
 30
0.0
 10
113.9535428823
 20
209.8226930521
 30
0.0
 10
113.9146211131
 20
209.8532922312
 30
0.0
 10
113.8852091702
 20
209.858032107
 30
0.0
 10
113.8726125622
 20
209.856184779
 30
0.0
  0
SPLINE
  5
5F5
100
AcDbEntity
  8
0
100
AcDbSpline
 62
7
  6
CONTINUOUS
 70
0
 71
3
 72
9
 73
5
 74
0
 42
0.0000001
 43
0.0000001
 44
0.0000000001
 40
0.0
 40
0.0
 40
0.0
 40
0.0
 40
0.4792781885
 40
1.0
 40
1.0
 40
1.0
 40
1.0
 10
114.76982149
 20
196.3840990069
 30
0.0
 10
114.7279357308
 20
197.136647198
 30
0.0
 10
114.6686441616
 20
198.7084015586
 30
0.0
 10
114.6497303572
 20
200.2810512425
 30
0.0
 10
114.6497303572
 20
201.0999384299
 30
0.0
  0
SPLINE
  5
5F6
100
AcDbEntity
  8
RUNDUNGEN
100
AcDbSpline
 62
7
  6
CONTINUOUS
 70
0
 71
3
 72
9
 73
5
 74
0
 42
0.0000001
 43
0.0000001
 44
0.0000000001
 40
0.0
 40
0.0
 40
0.0
 40
0.0
 40
0.5214351783
 40
1.0
 40
1.0
 40
1.0
 40
1.0
 10
114.76982149
 20
196.3840990069
 30
0.0
 10
114.7781059383
 20
195.5807325459
 30
0.0
 10
114.8093940776
 20
194.0401666764
 30
0.0
 10
114.8751731096
 20
192.5006091576
 30
0.0
 10
114.9177909085
 20
191.7644857809
 30
0.0
  0
SPLINE
  5
5F7
100
AcDbEntity
  8
0
100
AcDbSpline
 62
7
  6
CONTINUOUS
 70
0
 71
3
 72
9
 73
5
 74
0
 42
0.0000001
 43
0.0000001
 44
0.0000000001
 40
0.0
 40
0.0
 40
0.0
 40
0.0
 40
0.2502527246
 40
1.0
 40
1.0
 40
1.0
 40
1.0
 10
117.0420547973
 20
197.6278195709
 30
0.0
 10
116.8628308869
 20
197.5067937237
 30
0.0
 10
116.1360605173
 20
197.0391642044
 30
0.0
 10
115.3657325561
 20
196.6384087121
 30
0.0
 10
114.76982149
 20
196.3840990069
 30
0.0
  0
SPLINE
  5
5F8
100
AcDbEntity
  8
0
100
AcDbSpline
 62
7
  6
CONTINUOUS
 70
0
 71
3
 72
11
 73
7
 74
0
 42
0.0000001
 43
0.0000001
 44
0.0000000001
 40
0.0
 40
0.0
 40
0.0
 40
0.0
 40
0.3751736664
 40
0.6996942201
 40
0.9212231641
 40
1.0
 40
1.0
 40
1.0
 40
1.0
 10
100.6081906802
 20
202.9458203499
 30
0.0
 10
100.0661563841
 20
204.1753328975
 30
0.0
 10
99.1636244133
 20
206.516567858
 30
0.0
 10
98.1601429517
 20
209.660515915
 30
0.0
 10
97.5539129392
 20
211.8149402512
 30
0.0
 10
97.2792139763
 20
212.8548371926
 30
0.0
 10
97.20822816
 20
213.1278960835
 30
0.0
  0
SPLINE
  5
5F9
100
AcDbEntity
  8
BEZUGSACHSEN
100
AcDbSpline
 62
7
  6
CONTINUOUS
 70
0
 71
3
 72
9
 73
5
 74
0
 42
0.0000001
 43
0.0000001
 44
0.0000000001
 40
0.0
 40
0.0
 40
0.0
 40
0.0
 40
0.5000756303
 40
1.0
 40
1.0
 40
1.0
 40
1.0
 10
112.344995511
 20
93.0495060628
 30
0.0
 10
112.2755841005
 20
92.7414987192
 30
0.0
 10
112.1150907099
 20
92.1302884741
 30
0.0
 10
111.892616232
 20
91.5369298817
 30
0.0
 10
111.7572700256
 20
91.2517850488
 30
0.0
  0
SPLINE
  5
5FA
100
AcDbEntity
  8
RUNDUNGEN
100
AcDbSpline
 62
7
  6
CONTINUOUS
 70
0
 71
3
 72
9
 73
5
 74
0
 42
0.0000001
 43
0.0000001
 44
0.0000000001
 40
0.0
 40
0.0
 40
0.0
 40
0.0
 40
0.5211727298
 40
1.0
 40
1.0
 40
1.0
 40
1.0
 10
105.6954947673
 20
201.0999384299
 30
0.0
 10
105.6954947673
 20
200.2727081598
 30
0.0
 10
105.6762149656
 20
198.6854098627
 30
0.0
 10
105.6157353133
 20
197.0990314495
 30
0.0
 10
105.5729453269
 20
196.3402194395
 30
0.0
  0
SPLINE
  5
5FB
100
AcDbEntity
  8
RUNDUNGEN
100
AcDbSpline
 62
7
  6
CONTINUOUS
 70
0
 71
3
 72
14
 73
10
 74
0
 42
0.0000001
 43
0.0000001
 44
0.0000000001
 40
0.0
 40
0.0
 40
0.0
 40
0.0
 40
0.1252131032
 40
0.2501718638
 40
0.4993641818
 40
0.6246161496
 40
0.7498688856
 40
0.8750314364
 40
1.0
 40
1.0
 40
1.0
 40
1.0
 10
101.7847036124
 20
199.0268840341
 30
0.0
 10
101.9048915748
 20
198.8672388283
 30
0.0
 10
102.1453934472
 20
198.5483344372
 30
0.0
 10
102.6394905777
 20
197.9241298469
 30
0.0
 10
103.195370634
 20
197.3410714628
 30
0.0
 10
103.8706938676
 20
196.9096558725
 30
0.0
 10
104.4204855749
 20
196.6664609888
 30
0.0
 10
104.991372087
 20
196.4827271547
 30
0.0
 10
105.3786460989
 20
196.3852053031
 30
0.0
 10
105.5729453269
 20
196.3402194395
 30
0.0
  0
SPLINE
  5
5FC
100
AcDbEntity
  8
RUNDUNGEN
100
AcDbSpline
 62
7
  6
CONTINUOUS
 70
0
 71
3
 72
10
 73
6
 74
0
 42
0.0000001
 43
0.0000001
 44
0.0000000001
 40
0.0
 40
0.0
 40
0.0
 40
0.0
 40
0.5597611313
 40
0.7994222358
 40
1.0
 40
1.0
 40
1.0
 40
1.0
 10
105.5729453269
 20
196.3402194395
 30
0.0
 10
105.5616102159
 20
195.6803130157
 30
0.0
 10
105.5309500006
 20
194.7378916533
 30
0.0
 10
105.4533504027
 20
193.5613122404
 30
0.0
 10
105.4043829922
 20
193.044379957
 30
0.0
 10
105.3756701223
 20
192.8096319755
 30
0.0
  0
SPLINE
  5
5FD
100
AcDbEntity
  8
RUNDUNGEN
100
AcDbSpline
 62
7
  6
CONTINUOUS
 70
0
 71
3
 72
9
 73
5
 74
0
 42
0.0000001
 43
0.0000001
 44
0.0000000001
 40
0.0
 40
0.0
 40
0.0
 40
0.0
 40
0.4999586535
 40
1.0
 40
1.0
 40
1.0
 40
1.0
 10
83.8876234514
 20
111.1457028408
 30
0.0
 10
83.8732676492
 20
111.2674160344
 30
0.0
 10
83.8417062389
 20
111.5104466372
 30
0.0
 10
83.7958138592
 20
111.7518771315
 30
0.0
 10
83.763317463
 20
111.8700682643
 30
0.0
  0
SPLINE
  5
5FE
100
AcDbEntity
  8
BEZUGSACHSEN
100
AcDbSpline
 62
7
  6
CONTINUOUS
 70
0
 71
3
 72
9
 73
5
 74
0
 42
0.0000001
 43
0.0000001
 44
0.0000000001
 40
0.0
 40
0.0
 40
0.0
 40
0.0
 40
0.5000984782
 40
1.0
 40
1.0
 40
1.0
 40
1.0
 10
100.8475940568
 20
95.0805670471
 30
0.0
 10
100.6690104621
 20
94.8712493531
 30
0.0
 10
100.2961853075
 20
94.4658839029
 30
0.0
 10
99.8802361884
 20
94.1022518899
 30
0.0
 10
99.6577664916
 20
93.9405311068
 30
0.0
  0
SPLINE
  5
5FF
100
AcDbEntity
  8
BEZUGSACHSEN
100
AcDbSpline
 62
7
  6
CONTINUOUS
 70
0
 71
3
 72
9
 73
5
 74
0
 42
0.0000001
 43
0.0000001
 44
0.0000000001
 40
0.0
 40
0.0
 40
0.0
 40
0.0
 40
0.4999207311
 40
1.0
 40
1.0
 40
1.0
 40
1.0
 10
108.770511074
 20
91.3553423018
 30
0.0
 10
108.6469625306
 20
91.6274809675
 30
0.0
 10
108.4403214143
 20
92.1903557657
 30
0.0
 10
108.2881013228
 20
92.7690251311
 30
0.0
 10
108.2218607168
 20
93.060559933
 30
0.0
  0
SPLINE
  5
600
100
AcDbEntity
  8
BEZUGSACHSEN
100
AcDbSpline
 62
7
  6
CONTINUOUS
 70
0
 71
3
 72
9
 73
5
 74
0
 42
0.0000001
 43
0.0000001
 44
0.0000000001
 40
0.0
 40
0.0
 40
0.0
 40
0.0
 40
0.4998993487
 40
1.0
 40
1.0
 40
1.0
 40
1.0
 10
97.1279973618
 20
95.3736717018
 30
0.0
 10
97.1208271178
 20
95.6722256914
 30
0.0
 10
97.1552763428
 20
96.270725928
 30
0.0
 10
97.249757127
 20
96.8611772918
 30
0.0
 10
97.3074315404
 20
97.154317875
 30
0.0
  0
SPLINE
  5
601
100
AcDbEntity
  8
BEZUGSACHSEN
100
AcDbSpline
 62
7
  6
CONTINUOUS
 70
0
 71
3
 72
21
 73
17
 74
0
 42
0.0000001
 43
0.0000001
 44
0.0000000001
 40
0.0
 40
0.0
 40
0.0
 40
0.0
 40
0.1296379566
 40
0.1931138858
 40
0.2550006295
 40
0.3156540991
 40
0.3763877954
 40
0.4386200209
 40
0.5027390128
 40
0.5680096216
 40
0.6331859677
 40
0.6970547038
 40
0.7589015861
 40
0.8189667059
 40
0.8784302556
 40
1.0
 40
1.0
 40
1.0
 40
1.0
 10
97.3074315404
 20
97.154317875
 30
0.0
 10
97.3655128403
 20
97.4495265323
 30
0.0
 10
97.517870766
 20
97.8811208796
 30
0.0
 10
97.8469433318
 20
98.3759545368
 30
0.0
 10
98.1548392483
 20
98.6837540349
 30
0.0
 10
98.5237016123
 20
98.9052993446
 30
0.0
 10
98.9397828154
 20
99.0192438828
 30
0.0
 10
99.3778826853
 20
99.024363822
 30
0.0
 10
99.816556088
 20
98.9371577673
 30
0.0
 10
100.2400859196
 20
98.7752768586
 30
0.0
 10
100.6335140981
 20
98.5512690587
 30
0.0
 10
100.9804256742
 20
98.2722763259
 30
0.0
 10
101.2625189736
 20
97.9422786736
 30
0.0
 10
101.4609672592
 20
97.5665466114
 30
0.0
 10
101.5988350728
 20
97.019470716
 30
0.0
 10
101.5586014342
 20
96.5871522711
 30
0.0
 10
101.4892184177
 20
96.3136733554
 30
0.0
  0
SPLINE
  5
602
100
AcDbEntity
  8
BEZUGSACHSEN
100
AcDbSpline
 62
7
  6
CONTINUOUS
 70
0
 71
3
 72
12
 73
8
 74
0
 42
0.0000001
 43
0.0000001
 44
0.0000000001
 40
0.0
 40
0.0
 40
0.0
 40
0.0
 40
0.2580227464
 40
0.5105638872
 40
0.7551995517
 40
0.8769403368
 40
1.0
 40
1.0
 40
1.0
 40
1.0
 10
108.2218607168
 20
93.060559933
 30
0.0
 10
108.1629159298
 20
93.3199848058
 30
0.0
 10
108.1083120383
 20
93.8493088425
 30
0.0
 10
108.2113900234
 20
94.6288711774
 30
0.0
 10
108.4849646942
 20
95.2215939258
 30
0.0
 10
108.8233838926
 20
95.6001860532
 30
0.0
 10
109.0276681238
 20
95.7518017057
 30
0.0
 10
109.136343268
 20
95.81729027
 30
0.0
  0
SPLINE
  5
603
100
AcDbEntity
  8
BEZUGSACHSEN
100
AcDbSpline
 62
7
  6
CONTINUOUS
 70
0
 71
3
 72
11
 73
7
 74
0
 42
0.0000001
 43
0.0000001
 44
0.0000000001
 40
0.0
 40
0.0
 40
0.0
 40
0.0
 40
0.2472771879
 40
0.5005289809
 40
0.7536690202
 40
1.0
 40
1.0
 40
1.0
 40
1.0
 10
109.136343268
 20
95.81729027
 30
0.0
 10
109.2924318646
 20
95.9114393112
 30
0.0
 10
109.6366603997
 20
96.0575610196
 30
0.0
 10
110.1894454744
 20
96.1470837863
 30
0.0
 10
110.747644827
 20
96.1165383683
 30
0.0
 10
111.1053334795
 20
96.0112023577
 30
0.0
 10
111.2707207986
 20
95.9362295551
 30
0.0
  0
SPLINE
  5
604
100
AcDbEntity
  8
BEZUGSACHSEN
100
AcDbSpline
 62
7
  6
CONTINUOUS
 70
0
 71
3
 72
22
 73
18
 74
0
 42
0.0000001
 43
0.0000001
 44
0.0000000001
 40
0.0
 40
0.0
 40
0.0
 40
0.0
 40
0.1313280824
 40
0.1956958166
 40
0.2583784751
 40
0.3192217544
 40
0.3788733516
 40
0.4388975226
 40
0.500935208
 40
0.5654510457
 40
0.6314687222
 40
0.6972570847
 40
0.7611162253
 40
0.8221843109
 40
0.8811213614
 40
0.9398211175
 40
1.0
 40
1.0
 40
1.0
 40
1.0
 10
119.807109965
 20
94.6914581008
 30
0.0
 10
119.5701599099
 20
94.9353898122
 30
0.0
 10
119.2708188318
 20
95.3557063984
 30
0.0
 10
119.0015876808
 20
95.9696984515
 30
0.0
 10
118.8750275947
 20
96.4419266502
 30
0.0
 10
118.8374530161
 20
96.9180383642
 30
0.0
 10
118.9078657001
 20
97.3850979718
 30
0.0
 10
119.0986808213
 20
97.8212168728
 30
0.0
 10
119.3995589357
 20
98.2048334203
 30
0.0
 10
119.7844893473
 20
98.5264109424
 30
0.0
 10
120.226394626
 20
98.7821161023
 30
0.0
 10
120.7013894912
 20
98.9646342534
 30
0.0
 10
121.1888121267
 20
99.0606898413
 30
0.0
 10
121.6693415208
 20
99.0519865581
 30
0.0
 10
122.1199599847
 20
98.9239823078
 30
0.0
 10
122.5178125564
 20
98.6827606164
 30
0.0
 10
122.7394701744
 20
98.4655999107
 30
0.0
 10
122.8406556151
 20
98.3470883017
 30
0.0
  0
SPLINE
  5
605
100
AcDbEntity
  8
BEZUGSACHSEN
100
AcDbSpline
 62
7
  6
CONTINUOUS
 70
0
 71
3
 72
14
 73
10
 74
0
 42
0.0000001
 43
0.0000001
 44
0.0000000001
 40
0.0
 40
0.0
 40
0.0
 40
0.0
 40
0.1225989251
 40
0.2429751054
 40
0.3635015386
 40
0.4861562423
 40
0.6116883525
 40
0.7398070929
 40
1.0
 40
1.0
 40
1.0
 40
1.0
 10
111.2707207986
 20
95.9362295551
 30
0.0
 10
111.3946893637
 20
95.8800323304
 30
0.0
 10
111.6299795218
 20
95.7429829822
 30
0.0
 10
111.9260175241
 20
95.4635977352
 30
0.0
 10
112.1516604227
 20
95.1251406498
 30
0.0
 10
112.3079025403
 20
94.7444033916
 30
0.0
 10
112.4014170953
 20
94.3355250719
 30
0.0
 10
112.4508999206
 20
93.7661284619
 30
0.0
 10
112.4085017353
 20
93.3313096351
 30
0.0
 10
112.344995511
 20
93.0495060628
 30
0.0
  0
LINE
  5
606
100
AcDbEntity
  8
0
100
AcDbLine
 62
7
  6
CONTINUOUS
 10
123.1369969644
 20
213.1278960835
 11
123.1016537498
 21
212.9922900069
  0
SPLINE
  5
607
100
AcDbEntity
  8
0
100
AcDbSpline
 62
7
  6
CONTINUOUS
 70
0
 71
3
 72
10
 73
6
 74
0
 42
0.0000001
 43
0.0000001
 44
0.0000000001
 40
0.0
 40
0.0
 40
0.0
 40
0.0
 40
0.3506973899
 40
0.6568379097
 40
1.0
 40
1.0
 40
1.0
 40
1.0
 10
123.1016537498
 20
212.9922900069
 30
0.0
 10
122.7882136607
 20
211.7929124095
 30
0.0
 10
122.1618902852
 20
209.5563230204
 30
0.0
 10
121.0623634904
 20
206.1959455789
 30
0.0
 10
120.2263582136
 20
204.055768039
 30
0.0
 10
119.7370344442
 20
202.9458203499
 30
0.0
  0
SPLINE
  5
608
100
AcDbEntity
  8
BEZUGSACHSEN
100
AcDbSpline
 62
7
  6
CONTINUOUS
 70
0
 71
3
 72
10
 73
6
 74
0
 42
0.0000001
 43
0.0000001
 44
0.0000000001
 40
0.0
 40
0.0
 40
0.0
 40
0.0
 40
0.4998929047
 40
0.749966313
 40
1.0
 40
1.0
 40
1.0
 40
1.0
 10
123.624729031
 20
96.4642994599
 30
0.0
 10
123.6613211165
 20
96.123466746
 30
0.0
 10
123.6887031105
 20
95.6073813451
 30
0.0
 10
123.6308048407
 20
94.9231358864
 30
0.0
 10
123.5580423379
 20
94.5862156001
 30
0.0
 10
123.5063309454
 20
94.4227441318
 30
0.0
  0
SPLINE
  5
609
100
AcDbEntity
  8
BEZUGSACHSEN
100
AcDbSpline
 62
7
  6
CONTINUOUS
 70
0
 71
3
 72
15
 73
11
 74
0
 42
0.0000001
 43
0.0000001
 44
0.0000000001
 40
0.0
 40
0.0
 40
0.0
 40
0.0
 40
0.1249867951
 40
0.2493532265
 40
0.3737821277
 40
0.4987306356
 40
0.6240210255
 40
0.7493288301
 40
0.8746270483
 40
1.0
 40
1.0
 40
1.0
 40
1.0
 10
99.6577664916
 20
93.9405311068
 30
0.0
 10
99.5369987833
 20
93.8527409554
 30
0.0
 10
99.2710067184
 20
93.7086299327
 30
0.0
 10
98.8265220929
 20
93.6193164518
 30
0.0
 10
98.3758072794
 20
93.6695007225
 30
0.0
 10
97.959137054
 20
93.8489262525
 30
0.0
 10
97.6066861864
 20
94.1350671589
 30
0.0
 10
97.34010709
 20
94.50256199
 30
0.0
 10
97.1731571683
 20
94.9241755624
 30
0.0
 10
97.1315931955
 20
95.2239486965
 30
0.0
 10
97.1279973618
 20
95.3736717018
 30
0.0
  0
SPLINE
  5
60A
100
AcDbEntity
  8
BEZUGSACHSEN
100
AcDbSpline
 62
7
  6
CONTINUOUS
 70
0
 71
3
 72
11
 73
7
 74
0
 42
0.0000001
 43
0.0000001
 44
0.0000000001
 40
0.0
 40
0.0
 40
0.0
 40
0.0
 40
0.2500176156
 40
0.4998926844
 40
0.7498109429
 40
1.0
 40
1.0
 40
1.0
 40
1.0
 10
110.1422366438
 20
90.2929584464
 30
0.0
 10
109.9930232723
 20
90.3132400718
 30
0.0
 10
109.698800054
 20
90.3954336357
 30
0.0
 10
109.3072836032
 20
90.6304169111
 30
0.0
 10
108.9881534131
 20
90.9564876654
 30
0.0
 10
108.8328034604
 20
91.2181317249
 30
0.0
 10
108.770511074
 20
91.3553423018
 30
0.0
  0
SPLINE
  5
60B
100
AcDbEntity
  8
0
100
AcDbSpline
 62
7
  6
CONTINUOUS
 70
0
 71
3
 72
11
 73
7
 74
0
 42
0.0000001
 43
0.0000001
 44
0.0000000001
 40
0.0
 40
0.0
 40
0.0
 40
0.0
 40
0.2500282621
 40
0.5000499704
 40
0.7500446616
 40
1.0
 40
1.0
 40
1.0
 40
1.0
 10
103.7778459974
 20
88.4550695413
 30
0.0
 10
101.8779945618
 20
89.027562055
 30
0.0
 10
98.1872500717
 20
90.5755271223
 30
0.0
 10
93.2547957476
 20
93.9794502146
 30
0.0
 10
89.1190027631
 20
98.3155839426
 30
0.0
 10
87.0081051063
 20
101.71439805
 30
0.0
 10
86.1414840417
 20
103.4987339962
 30
0.0
  0
SPLINE
  5
60C
100
AcDbEntity
  8
RUNDUNGEN
100
AcDbSpline
 62
7
  6
CONTINUOUS
 70
0
 71
3
 72
9
 73
5
 74
0
 42
0.0000001
 43
0.0000001
 44
0.0000000001
 40
0.0
 40
0.0
 40
0.0
 40
0.0
 40
0.2504412486
 40
1.0
 40
1.0
 40
1.0
 40
1.0
 10
86.1414840228
 20
103.49873399
 30
0.0
 10
85.8499791262
 20
104.0989301911
 30
0.0
 10
84.7854571821
 20
106.5422212426
 30
0.0
 10
84.121573613
 20
109.1624331007
 30
0.0
 10
83.8876234514
 20
111.1457028408
 30
0.0
  0
SPLINE
  5
60D
100
AcDbEntity
  8
0
100
AcDbSpline
 62
7
  6
CONTINUOUS
 70
0
 71
3
 72
12
 73
8
 74
0
 42
0.0000001
 43
0.0000001
 44
0.0000000001
 40
0.0
 40
0.0
 40
0.0
 40
0.0
 40
0.1251452117
 40
0.2503265066
 40
0.5000190405
 40
0.7499473194
 40
1.0
 40
1.0
 40
1.0
 40
1.0
 10
119.3161640814
 20
201.0999384299
 30
0.0
 10
119.3161640814
 20
200.9200432846
 30
0.0
 10
119.2825002199
 20
200.5593506796
 30
0.0
 10
119.0892750857
 20
199.8637988297
 30
0.0
 10
118.6439150574
 20
199.0688328728
 30
0.0
 10
117.9104517958
 20
198.2710997308
 30
0.0
 10
117.3399449232
 20
197.8289780257
 30
0.0
 10
117.0420547973
 20
197.6278195709
 30
0.0
  0
SPLINE
  5
60E
100
AcDbEntity
  8
0
100
AcDbSpline
 62
7
  6
CONTINUOUS
 70
0
 71
3
 72
9
 73
5
 74
0
 42
0.0000001
 43
0.0000001
 44
0.0000000001
 40
0.0
 40
0.0
 40
0.0
 40
0.0
 40
0.5001683289
 40
1.0
 40
1.0
 40
1.0
 40
1.0
 10
119.7370344442
 20
202.9458203499
 30
0.0
 10
119.6089986353
 20
202.6553929088
 30
0.0
 10
119.3959842758
 20
202.0536567335
 30
0.0
 10
119.3161640814
 20
201.417122441
 30
0.0
 10
119.3161640814
 20
201.0999384299
 30
0.0
  0
SPLINE
  5
60F
100
AcDbEntity
  8
0
100
AcDbSpline
 62
7
  6
CONTINUOUS
 70
0
 71
3
 72
9
 73
5
 74
0
 42
0.0000001
 43
0.0000001
 44
0.0000000001
 40
0.0
 40
0.0
 40
0.0
 40
0.0
 40
0.4998655883
 40
1.0
 40
1.0
 40
1.0
 40
1.0
 10
101.029061043
 20
201.0999384299
 30
0.0
 10
101.029061043
 20
201.4171435416
 30
0.0
 10
100.9492126764
 20
202.0536733726
 30
0.0
 10
100.7362176362
 20
202.6554129902
 30
0.0
 10
100.6081906802
 20
202.9458203499
 30
0.0
  0
SPLINE
  5
610
100
AcDbEntity
  8
RUNDUNGEN
100
AcDbSpline
 62
7
  6
CONTINUOUS
 70
0
 71
3
 72
10
 73
6
 74
0
 42
0.0000001
 43
0.0000001
 44
0.0000000001
 40
0.0
 40
0.0
 40
0.0
 40
0.0
 40
0.4993367308
 40
0.7497069935
 40
1.0
 40
1.0
 40
1.0
 40
1.0
 10
101.7847047899
 20
199.0268821461
 30
0.0
 10
101.5603880927
 20
199.3248409339
 30
0.0
 10
101.2734816574
 20
199.8174270455
 30
0.0
 10
101.0655580107
 20
200.5380562235
 30
0.0
 10
101.029061043
 20
200.9129930491
 30
0.0
 10
101.029061043
 20
201.0999384299
 30
0.0
  0
SPLINE
  5
611
100
AcDbEntity
  8
BEZUGSACHSEN
100
AcDbSpline
 62
7
  6
CONTINUOUS
 70
0
 71
3
 72
11
 73
7
 74
0
 42
0.0000001
 43
0.0000001
 44
0.0000000001
 40
0.0
 40
0.0
 40
0.0
 40
0.0
 40
0.2499759754
 40
0.4997909125
 40
0.7498177659
 40
1.0
 40
1.0
 40
1.0
 40
1.0
 10
123.5063309454
 20
94.4227441318
 30
0.0
 10
123.4434349435
 20
94.2239155701
 30
0.0
 10
123.2384609289
 20
93.8456727253
 30
0.0
 10
122.7277372186
 20
93.4532921809
 30
0.0
 10
122.1008608308
 20
93.3049183799
 30
0.0
 10
121.6776372901
 20
93.3849646866
 30
0.0
 10
121.4837851416
 20
93.4623070708
 30
0.0
  0
SPLINE
  5
612
100
AcDbEntity
  8
0
100
AcDbSpline
 62
7
  6
CONTINUOUS
 70
0
 71
3
 72
23
 73
19
 74
0
 42
0.0000001
 43
0.0000001
 44
0.0000000001
 40
0.0
 40
0.0
 40
0.0
 40
0.0
 40
0.0043023347
 40
0.0094981204
 40
0.0163413883
 40
0.0251657593
 40
0.0361095276
 40
0.0492311818
 40
0.0820498161
 40
0.123531423
 40
0.1733821371
 40
0.2311870872
 40
0.296429566
 40
0.3685071259
 40
0.446743355
 40
0.6186439957
 40
0.805491418
 40
1.0
 40
1.0
 40
1.0
 40
1.0
 10
106.4726125622
 20
209.856184779
 30
0.0
 10
106.4600159506
 20
209.8580321075
 30
0.0
 10
106.430603981
 20
209.8532922017
 30
0.0
 10
106.3916821927
 20
209.822692943
 30
0.0
 10
106.354593898
 20
209.7729640448
 30
0.0
 10
106.3179374204
 20
209.7030089386
 30
0.0
 10
106.2815061004
 20
209.612661017
 30
0.0
 10
106.2293966672
 20
209.4524976056
 30
0.0
 10
106.1683068047
 20
209.200816841
 30
0.0
 10
106.1012078
 20
208.8395362025
 30
0.0
 10
106.0371465534
 20
208.4027962053
 30
0.0
 10
105.9768002488
 20
207.8946894321
 30
0.0
 10
105.9209276578
 20
207.3199540532
 30
0.0
 10
105.870123102
 20
206.6840865613
 30
0.0
 10
105.8079477546
 20
205.7326013102
 30
0.0
 10
105.7482562899
 20
204.4407452013
 30
0.0
 10
105.7051437764
 20
202.8040489384
 30
0.0
 10
105.6954947673
 20
201.6755228059
 30
0.0
 10
105.6954947673
 20
201.0999384299
 30
0.0
  0
SPLINE
  5
613
100
AcDbEntity
  8
RUNDUNGEN
100
AcDbSpline
 62
7
  6
CONTINUOUS
 70
0
 71
3
 72
9
 73
5
 74
0
 42
0.0000001
 43
0.0000001
 44
0.0000000001
 40
0.0
 40
0.0
 40
0.0
 40
0.0
 40
0.5001897785
 40
1.0
 40
1.0
 40
1.0
 40
1.0
 10
134.6459289895
 20
142.4372973893
 30
0.0
 10
135.3434410695
 20
141.663350612
 30
0.0
 10
136.6594998604
 20
140.0437186058
 30
0.0
 10
137.8062863885
 20
138.2998458866
 30
0.0
 10
138.3310704938
 20
137.4006954279
 30
0.0
  0
SPLINE
  5
614
100
AcDbEntity
  8
0
100
AcDbSpline
 62
7
  6
CONTINUOUS
 70
0
 71
3
 72
11
 73
7
 74
0
 42
0.0000001
 43
0.0000001
 44
0.0000000001
 40
0.0
 40
0.0
 40
0.0
 40
0.0
 40
0.2497910898
 40
0.499788517
 40
0.7499171222
 40
1.0
 40
1.0
 40
1.0
 40
1.0
 10
138.3310704664
 20
137.4006953995
 30
0.0
 10
139.5006784928
 20
135.3967216134
 30
0.0
 10
141.4077633526
 20
131.1171904897
 30
0.0
 10
142.8487615864
 20
124.2526449956
 30
0.0
 10
142.879612201
 20
117.239506911
 30
0.0
 10
141.9827627273
 20
112.6441303574
 30
0.0
 10
141.3137772293
 20
110.4195095405
 30
0.0
  0
SPLINE
  5
615
100
AcDbEntity
  8
0
100
AcDbSpline
 62
7
  6
CONTINUOUS
 70
0
 71
3
 72
15
 73
11
 74
0
 42
0.0000001
 43
0.0000001
 44
0.0000000001
 40
0.0
 40
0.0
 40
0.0
 40
0.0
 40
0.124991727
 40
0.249981569
 40
0.3749716438
 40
0.4999635131
 40
0.6249606501
 40
0.7499658741
 40
0.8749788656
 40
1.0
 40
1.0
 40
1.0
 40
1.0
 10
141.3137772293
 20
110.4195095405
 30
0.0
 10
140.9013281386
 20
109.0479658584
 30
0.0
 10
139.8951646009
 20
106.3556836291
 30
0.0
 10
137.8706982127
 20
102.5525067159
 30
0.0
 10
135.3641236552
 20
99.0473115327
 30
0.0
 10
132.4185933466
 20
95.9020750614
 30
0.0
 10
129.0848982197
 20
93.1713737231
 30
0.0
 10
125.4205329873
 20
90.9028087707
 30
0.0
 10
121.4900461005
 20
89.1361275937
 30
0.0
 10
118.7355444343
 20
88.3129917814
 30
0.0
 10
117.3389146305
 20
87.9941864493
 30
0.0
  0
SPLINE
  5
616
100
AcDbEntity
  8
BEZUGSACHSEN
100
AcDbSpline
 62
7
  6
CONTINUOUS
 70
0
 71
3
 72
11
 73
7
 74
0
 42
0.0000001
 43
0.0000001
 44
0.0000000001
 40
0.0
 40
0.0
 40
0.0
 40
0.0
 40
0.2505217923
 40
0.4999702941
 40
0.7495405672
 40
1.0
 40
1.0
 40
1.0
 40
1.0
 10
111.7572700256
 20
91.2517850488
 30
0.0
 10
111.6858177297
 20
91.1012507004
 30
0.0
 10
111.5030093335
 20
90.8175053216
 30
0.0
 10
111.1164489056
 20
90.4903165629
 30
0.0
 10
110.6464632861
 20
90.3004502188
 30
0.0
 10
110.3081870515
 20
90.2783755257
 30
0.0
 10
110.1422366438
 20
90.2929584464
 30
0.0
  0
SPLINE
  5
617
100
AcDbEntity
  8
RUNDUNGEN
100
AcDbSpline
 62
7
  6
CONTINUOUS
 70
0
 71
3
 72
9
 73
5
 74
0
 42
0.0000001
 43
0.0000001
 44
0.0000000001
 40
0.0
 40
0.0
 40
0.0
 40
0.0
 40
0.5158786229
 40
1.0
 40
1.0
 40
1.0
 40
1.0
 10
114.3789116456
 20
189.2102970809
 30
0.0
 10
114.5812343
 20
189.5835956117
 30
0.0
 10
114.876516829
 20
190.3646841401
 30
0.0
 10
114.9484780654
 20
191.1961222926
 30
0.0
 10
114.9272647333
 20
191.5940202428
 30
0.0
  0
SPLINE
  5
618
100
AcDbEntity
  8
0
100
AcDbSpline
 62
7
  6
CONTINUOUS
 70
0
 71
3
 72
12
 73
8
 74
0
 42
0.0000001
 43
0.0000001
 44
0.0000000001
 40
0.0
 40
0.0
 40
0.0
 40
0.0
 40
0.104226228
 40
0.2242371014
 40
0.4804069824
 40
0.7408974513
 40
1.0
 40
1.0
 40
1.0
 40
1.0
 10
105.2330944566
 20
191.5940204167
 30
0.0
 10
105.2199013148
 20
191.4441296861
 30
0.0
 10
105.2150486632
 20
191.1193441571
 30
0.0
 10
105.2898829463
 20
190.4284300737
 30
0.0
 10
105.5596181284
 20
189.5391685108
 30
0.0
 10
106.1297469516
 20
188.5644305463
 30
0.0
 10
106.6539057446
 20
188.015992195
 30
0.0
 10
106.9434889608
 20
187.779211687
 30
0.0
  0
SPLINE
  5
619
100
AcDbEntity
  8
0
100
AcDbSpline
 62
7
  6
CONTINUOUS
 70
0
 71
3
 72
9
 73
5
 74
0
 42
0.0000001
 43
0.0000001
 44
0.0000000001
 40
0.0
 40
0.0
 40
0.0
 40
0.0
 40
0.2342352866
 40
1.0
 40
1.0
 40
1.0
 40
1.0
 10
105.2521271267
 20
191.7816784439
 30
0.0
 10
105.2504023441
 20
191.7670522652
 30
0.0
 10
105.2433365451
 20
191.7045749215
 30
0.0
 10
105.2373159921
 20
191.641982383
 30
0.0
 10
105.2330944574
 20
191.5940204167
 30
0.0
  0
SPLINE
  5
61A
100
AcDbEntity
  8
BEZUGSACHSEN
100
AcDbSpline
 62
7
  6
CONTINUOUS
 70
0
 71
3
 72
10
 73
6
 74
0
 42
0.0000001
 43
0.0000001
 44
0.0000000001
 40
0.0
 40
0.0
 40
0.0
 40
0.0
 40
0.2500336722
 40
0.5001090738
 40
1.0
 40
1.0
 40
1.0
 40
1.0
 10
121.4837851416
 20
93.4623070708
 30
0.0
 10
121.3218598891
 20
93.5269113848
 30
0.0
 10
121.0101785908
 20
93.6873607772
 30
0.0
 10
120.4362165665
 20
94.0850196761
 30
0.0
 10
120.0499693444
 20
94.4414429486
 30
0.0
 10
119.807109965
 20
94.6914581008
 30
0.0
  0
SPLINE
  5
61B
100
AcDbEntity
  8
BEZUGSACHSEN
100
AcDbSpline
 62
7
  6
CONTINUOUS
 70
0
 71
3
 72
9
 73
5
 74
0
 42
0.0000001
 43
0.0000001
 44
0.0000000001
 40
0.0
 40
0.0
 40
0.0
 40
0.0
 40
0.4946422041
 40
1.0
 40
1.0
 40
1.0
 40
1.0
 10
101.4892184177
 20
96.3136733554
 30
0.0
 10
101.432502478
 20
96.0901227741
 30
0.0
 10
101.2611133356
 20
95.6516940271
 30
0.0
 10
101.0005285978
 20
95.259821505
 30
0.0
 10
100.8475940568
 20
95.0805670471
 30
0.0
  0
SPLINE
  5
61C
100
AcDbEntity
  8
BEZUGSACHSEN
100
AcDbSpline
 62
7
  6
CONTINUOUS
 70
0
 71
3
 72
9
 73
5
 74
0
 42
0.0000001
 43
0.0000001
 44
0.0000000001
 40
0.0
 40
0.0
 40
0.0
 40
0.0
 40
0.490033315
 40
1.0
 40
1.0
 40
1.0
 40
1.0
 10
122.8406556151
 20
98.3470883017
 30
0.0
 10
123.0592129949
 20
98.0911069415
 30
0.0
 10
123.4081759215
 20
97.4854298818
 30
0.0
 10
123.5873372172
 20
96.8125811489
 30
0.0
 10
123.624729031
 20
96.4642994599
 30
0.0
  0
SPLINE
  5
61D
100
AcDbEntity
  8
0
100
AcDbSpline
 62
7
  6
CONTINUOUS
 70
0
 71
3
 72
11
 73
7
 74
0
 42
0.0000001
 43
0.0000001
 44
0.0000000001
 40
0.0
 40
0.0
 40
0.0
 40
0.0
 40
0.2442098155
 40
0.4918096333
 40
0.7442030875
 40
1.0
 40
1.0
 40
1.0
 40
1.0
 10
298.4226388297
 20
161.0978401782
 30
0.0
 10
298.4226388297
 20
161.3879003827
 30
0.0
 10
298.2986787809
 20
161.9789003446
 30
0.0
 10
297.7733124304
 20
162.7183194858
 30
0.0
 10
296.9962583884
 20
163.2094800381
 30
0.0
 10
296.3864616083
 20
163.3233124264
 30
0.0
 10
296.0826388297
 20
163.3233124264
 30
0.0
  0
SPLINE
  5
61E
100
AcDbEntity
  8
0
100
AcDbSpline
 62
7
  6
CONTINUOUS
 70
0
 71
3
 72
11
 73
7
 74
0
 42
0.0000001
 43
0.0000001
 44
0.0000000001
 40
0.0
 40
0.0
 40
0.0
 40
0.0
 40
0.2441756556
 40
0.4918124058
 40
0.7442030258
 40
1.0
 40
1.0
 40
1.0
 40
1.0
 10
297.1425841781
 20
154.7162509539
 30
0.0
 10
297.1425841781
 20
154.5576096532
 30
0.0
 10
297.0747776105
 20
154.2343423541
 30
0.0
 10
296.7874848905
 20
153.8298097344
 30
0.0
 10
296.362382494
 20
153.5611661635
 30
0.0
 10
296.0288305191
 20
153.498898613
 30
0.0
 10
295.8626388297
 20
153.498898613
 30
0.0
  0
SPLINE
  5
61F
100
AcDbEntity
  8
0
100
AcDbSpline
 62
7
  6
CONTINUOUS
 70
0
 71
3
 72
11
 73
7
 74
0
 42
0.0000001
 43
0.0000001
 44
0.0000000001
 40
0.0
 40
0.0
 40
0.0
 40
0.0
 40
0.2441786363
 40
0.4918133253
 40
0.7442020537
 40
1.0
 40
1.0
 40
1.0
 40
1.0
 10
298.4226388297
 20
154.7162509539
 30
0.0
 10
298.4226388297
 20
155.0335402664
 30
0.0
 10
298.2869451479
 20
155.6800703728
 30
0.0
 10
297.7123420435
 20
156.4891167982
 30
0.0
 10
296.8621314675
 20
157.0263999786
 30
0.0
 10
296.1950264446
 20
157.1509556356
 30
0.0
 10
295.8626388297
 20
157.1509556356
 30
0.0
  0
SPLINE
  5
620
100
AcDbEntity
  8
0
100
AcDbSpline
 62
7
  6
CONTINUOUS
 70
0
 71
3
 72
11
 73
7
 74
0
 42
0.0000001
 43
0.0000001
 44
0.0000000001
 40
0.0
 40
0.0
 40
0.0
 40
0.0
 40
0.2557969125
 40
0.5081903667
 40
0.7557901845
 40
1.0
 40
1.0
 40
1.0
 40
1.0
 10
294.3826388297
 20
163.3233124264
 30
0.0
 10
294.078816051
 20
163.3233124264
 30
0.0
 10
293.4690192709
 20
163.2094800381
 30
0.0
 10
292.691965229
 20
162.7183194858
 30
0.0
 10
292.1665988785
 20
161.9789003446
 30
0.0
 10
292.0426388297
 20
161.3879003827
 30
0.0
 10
292.0426388297
 20
161.0978401782
 30
0.0
  0
SPLINE
  5
621
100
AcDbEntity
  8
0
100
AcDbSpline
 62
7
  6
CONTINUOUS
 70
0
 71
3
 72
17
 73
13
 74
0
 42
0.0000001
 43
0.0000001
 44
0.0000000001
 40
0.0
 40
0.0
 40
0.0
 40
0.0
 40
0.1230512183
 40
0.2482093114
 40
0.3751483318
 40
0.4391705203
 40
0.5031792534
 40
0.6300282413
 40
0.7550458066
 40
0.8169642459
 40
0.8784556643
 40
1.0
 40
1.0
 40
1.0
 40
1.0
 10
295.6370933224
 20
149.9436254303
 30
0.0
 10
295.5593437948
 20
150.1345447647
 30
0.0
 10
295.3302244066
 20
150.4939587433
 30
0.0
 10
294.8221450039
 20
150.88322525
 30
0.0
 10
294.3088878391
 20
151.0520834125
 30
0.0
 10
293.8811719477
 20
151.0822863899
 30
0.0
 10
293.4543375576
 20
151.0427142534
 30
0.0
 10
292.9454897034
 20
150.8631155199
 30
0.0
 10
292.5273097925
 20
150.5265797976
 30
0.0
 10
292.2808687219
 20
150.1887090702
 30
0.0
 10
292.1001234412
 20
149.8185572337
 30
0.0
 10
292.0426388297
 20
149.50835854
 30
0.0
 10
292.0426388297
 20
149.3047393762
 30
0.0
  0
SPLINE
  5
622
100
AcDbEntity
  8
BEZUGSACHSEN
100
AcDbSpline
 62
7
  6
CONTINUOUS
 70
0
 71
3
 72
15
 73
11
 74
0
 42
0.0000001
 43
0.0000001
 44
0.0000000001
 40
0.0
 40
0.0
 40
0.0
 40
0.0
 40
0.1150245976
 40
0.228983408
 40
0.3463905482
 40
0.4700696546
 40
0.6001557248
 40
0.7343177734
 40
0.8688901789
 40
1.0
 40
1.0
 40
1.0
 40
1.0
 10
288.5364802248
 20
151.8656765533
 30
0.0
 10
288.5845465192
 20
151.7910572408
 30
0.0
 10
288.7083687875
 20
151.6581585336
 30
0.0
 10
288.957004561
 20
151.5435300571
 30
0.0
 10
289.2366602664
 20
151.5283643523
 30
0.0
 10
289.5160126534
 20
151.6113512411
 30
0.0
 10
289.7676811954
 20
151.7811072276
 30
0.0
 10
289.9679899427
 20
152.0198390221
 30
0.0
 10
290.0979026077
 20
152.3036465372
 30
0.0
 10
290.1295628913
 20
152.509624931
 30
0.0
 10
290.1295628913
 20
152.610797739
 30
0.0
  0
SPLINE
  5
623
100
AcDbEntity
  8
0
100
AcDbSpline
 62
7
  6
CONTINUOUS
 70
0
 71
3
 72
9
 73
5
 74
0
 42
0.0000001
 43
0.0000001
 44
0.0000000001
 40
0.0
 40
0.0
 40
0.0
 40
0.0
 40
0.5050270713
 40
1.0
 40
1.0
 40
1.0
 40
1.0
 10
296.2926388297
 20
148.9849956094
 30
0.0
 10
296.1583801256
 20
148.9112751303
 30
0.0
 10
295.9204937025
 20
148.705153202
 30
0.0
 10
295.7991442197
 20
148.4135475589
 30
0.0
 10
295.7750869266
 20
148.2653700987
 30
0.0
  0
SPLINE
  5
624
100
AcDbEntity
  8
0
100
AcDbSpline
 62
7
  6
CONTINUOUS
 70
0
 71
3
 72
13
 73
9
 74
0
 42
0.0000001
 43
0.0000001
 44
0.0000000001
 40
0.0
 40
0.0
 40
0.0
 40
0.0
 40
0.2551446157
 40
0.5069053203
 40
0.6315989217
 40
0.7551463049
 40
0.8778149156
 40
1.0
 40
1.0
 40
1.0
 40
1.0
 10
295.8626388297
 20
152.127037775
 30
0.0
 10
296.1950203091
 20
152.127037775
 30
0.0
 10
296.8618243331
 20
152.251222217
 30
0.0
 10
297.575245496
 20
152.7027674636
 30
0.0
 10
298.003500534
 20
153.1984843397
 30
0.0
 10
298.242364753
 20
153.6224386216
 30
0.0
 10
298.389461723
 20
154.0826200631
 30
0.0
 10
298.4225946395
 20
154.4025697499
 30
0.0
 10
298.4225946395
 20
154.5617424567
 30
0.0
  0
SPLINE
  5
625
100
AcDbEntity
  8
0
100
AcDbSpline
 62
7
  6
CONTINUOUS
 70
0
 71
3
 72
15
 73
11
 74
0
 42
0.0000001
 43
0.0000001
 44
0.0000000001
 40
0.0
 40
0.0
 40
0.0
 40
0.0
 40
0.1223536289
 40
0.2464772966
 40
0.372687647
 40
0.5001844511
 40
0.6276372519
 40
0.7537353102
 40
0.8777249316
 40
1.0
 40
1.0
 40
1.0
 40
1.0
 10
294.6868764984
 20
148.8817176628
 30
0.0
 10
294.6687064985
 20
148.9677316383
 30
0.0
 10
294.5996892892
 20
149.1357495415
 30
0.0
 10
294.4143610337
 20
149.3361964118
 30
0.0
 10
294.1695836493
 20
149.4651206637
 30
0.0
 10
293.894029811
 20
149.5077041152
 30
0.0
 10
293.6194607862
 20
149.4595966443
 30
0.0
 10
293.3775644363
 20
149.3257483484
 30
0.0
 10
293.1966877892
 20
149.1215516945
 30
0.0
 10
293.1314887053
 20
148.9521734258
 30
0.0
 10
293.115228451
 20
148.865835511
 30
0.0
  0
SPLINE
  5
626
100
AcDbEntity
  8
0
100
AcDbSpline
 62
7
  6
CONTINUOUS
 70
0
 71
3
 72
15
 73
11
 74
0
 42
0.0000001
 43
0.0000001
 44
0.0000000001
 40
0.0
 40
0.0
 40
0.0
 40
0.0
 40
0.1150245976
 40
0.228983408
 40
0.3463905482
 40
0.4700696546
 40
0.6001557248
 40
0.7343177734
 40
0.8688901789
 40
1.0
 40
1.0
 40
1.0
 40
1.0
 10
302.2177797611
 20
151.8656765533
 30
0.0
 10
302.1697134666
 20
151.7910572408
 30
0.0
 10
302.0458911983
 20
151.6581585336
 30
0.0
 10
301.7972554249
 20
151.5435300571
 30
0.0
 10
301.5175997195
 20
151.5283643523
 30
0.0
 10
301.2382473324
 20
151.6113512411
 30
0.0
 10
300.9865787904
 20
151.7811072276
 30
0.0
 10
300.7862700431
 20
152.0198390221
 30
0.0
 10
300.6563573781
 20
152.3036465372
 30
0.0
 10
300.6246970945
 20
152.509624931
 30
0.0
 10
300.6246970945
 20
152.610797739
 30
0.0
  0
SPLINE
  5
627
100
AcDbEntity
  8
0
100
AcDbSpline
 62
7
  6
CONTINUOUS
 70
0
 71
3
 72
11
 73
7
 74
0
 42
0.0000001
 43
0.0000001
 44
0.0000000001
 40
0.0
 40
0.0
 40
0.0
 40
0.0
 40
0.2445056791
 40
0.4925741488
 40
0.7448841457
 40
1.0
 40
1.0
 40
1.0
 40
1.0
 10
297.3457868016
 20
160.8899185904
 30
0.0
 10
297.3210105077
 20
161.0368060366
 30
0.0
 10
297.2146607825
 20
161.3260110528
 30
0.0
 10
296.9100726797
 20
161.6749385035
 30
0.0
 10
296.4997592541
 20
161.902284813
 30
0.0
 10
296.1880653274
 20
161.9545691516
 30
0.0
 10
296.0326388297
 20
161.9545691516
 30
0.0
  0
SPLINE
  5
628
100
AcDbEntity
  8
0
100
AcDbSpline
 62
7
  6
CONTINUOUS
 70
0
 71
3
 72
11
 73
7
 74
0
 42
0.0000001
 43
0.0000001
 44
0.0000000001
 40
0.0
 40
0.0
 40
0.0
 40
0.0
 40
0.2551137525
 40
0.5074298176
 40
0.755500443
 40
1.0
 40
1.0
 40
1.0
 40
1.0
 10
294.4358355797
 20
161.9545691516
 30
0.0
 10
294.2801693325
 20
161.9549249951
 30
0.0
 10
293.9678630682
 20
161.9031897284
 30
0.0
 10
293.5565341586
 20
161.6761158281
 30
0.0
 10
293.2510763249
 20
161.3269554771
 30
0.0
 10
293.1443964436
 20
161.0373386918
 30
0.0
 10
293.1195438171
 20
160.8902332484
 30
0.0
  0
SPLINE
  5
629
100
AcDbEntity
  8
AUSFORMSCHRAEGEN
100
AcDbSpline
 62
7
  6
CONTINUOUS
 70
0
 71
3
 72
23
 73
19
 74
0
 42
0.0000001
 43
0.0000001
 44
0.0000000001
 40
0.0
 40
0.0
 40
0.0
 40
0.0
 40
0.0640433387
 40
0.1278264427
 40
0.1911519962
 40
0.2539275123
 40
0.3161118223
 40
0.3777566852
 40
0.4389897141
 40
0.5
 40
0.5610102859
 40
0.6222433148
 40
0.6838881777
 40
0.7460724877
 40
0.8088480038
 40
0.8721735573
 40
0.9359566613
 40
1.0
 40
1.0
 40
1.0
 40
1.0
 10
282.9020619741
 20
161.4157203073
 30
0.0
 10
283.4668346164
 20
161.3843383179
 30
0.0
 10
284.5910791818
 20
161.2199034859
 30
0.0
 10
286.198936185
 20
160.6765978636
 30
0.0
 10
287.6721087268
 20
159.8551613482
 30
0.0
 10
288.9575490294
 20
158.7848197881
 30
0.0
 10
290.0092825356
 20
157.5028197747
 30
0.0
 10
290.7893026181
 20
156.0546743099
 30
0.0
 10
291.2691059305
 20
154.491953653
 30
0.0
 10
291.4310436073
 20
152.8707833436
 30
0.0
 10
291.2691059305
 20
151.2496130343
 30
0.0
 10
290.7893026181
 20
149.6868923773
 30
0.0
 10
290.0092825356
 20
148.2387469125
 30
0.0
 10
288.9575490294
 20
146.9567468992
 30
0.0
 10
287.6721087268
 20
145.886405339
 30
0.0
 10
286.198936185
 20
145.0649688237
 30
0.0
 10
284.5910791818
 20
144.5216632014
 30
0.0
 10
283.4668346164
 20
144.3572283694
 30
0.0
 10
282.9020619741
 20
144.3258463799
 30
0.0
  0
SPLINE
  5
62A
100
AcDbEntity
  8
BEZUGSACHSEN
100
AcDbSpline
 62
7
  6
CONTINUOUS
 70
0
 71
3
 72
11
 73
7
 74
0
 42
0.0000001
 43
0.0000001
 44
0.0000000001
 40
0.0
 40
0.0
 40
0.0
 40
0.0
 40
0.2644500201
 40
0.5147150597
 40
0.7564878368
 40
1.0
 40
1.0
 40
1.0
 40
1.0
 10
290.1295628913
 20
152.610797739
 30
0.0
 10
290.1295628913
 20
152.7117138789
 30
0.0
 10
290.0992009285
 20
152.9100605002
 30
0.0
 10
289.9560554647
 20
153.1684198475
 30
0.0
 10
289.7303894445
 20
153.3477341242
 30
0.0
 10
289.5460237854
 20
153.3972464243
 30
0.0
 10
289.4533692402
 20
153.404345315
 30
0.0
  0
SPLINE
  5
62B
100
AcDbEntity
  8
BEZUGSACHSEN
100
AcDbSpline
 62
7
  6
CONTINUOUS
 70
0
 71
3
 72
17
 73
13
 74
0
 42
0.0000001
 43
0.0000001
 44
0.0000000001
 40
0.0
 40
0.0
 40
0.0
 40
0.0
 40
0.1240439521
 40
0.2467367319
 40
0.369302636
 40
0.4313032426
 40
0.4937400068
 40
0.6194298706
 40
0.7464887073
 40
0.8104009635
 40
0.8741648214
 40
1.0
 40
1.0
 40
1.0
 40
1.0
 10
284.3795416196
 20
153.92909697
 30
0.0
 10
284.3783394126
 20
153.8038648934
 30
0.0
 10
284.4264234932
 20
153.5511552458
 30
0.0
 10
284.6430335286
 20
153.2350439799
 30
0.0
 10
284.9156540849
 20
153.0673639315
 30
0.0
 10
285.1592207544
 20
153.0072757773
 30
0.0
 10
285.4131009399
 20
152.9971013057
 30
0.0
 10
285.7291722872
 20
153.0817915398
 30
0.0
 10
285.9895297919
 20
153.281777496
 30
0.0
 10
286.1411991458
 20
153.4912896066
 30
0.0
 10
286.2493340226
 20
153.7245543195
 30
0.0
 10
286.2769172492
 20
153.9206505796
 30
0.0
 10
286.2689474488
 20
154.0474466681
 30
0.0
  0
SPLINE
  5
62C
100
AcDbEntity
  8
BEZUGSACHSEN
100
AcDbSpline
 62
7
  6
CONTINUOUS
 70
0
 71
3
 72
16
 73
12
 74
0
 42
0.0000001
 43
0.0000001
 44
0.0000000001
 40
0.0
 40
0.0
 40
0.0
 40
0.0
 40
0.1240657181
 40
0.2469621035
 40
0.3698684989
 40
0.4939698012
 40
0.6197596747
 40
0.7467170558
 40
0.8105397356
 40
0.8741926553
 40
1.0
 40
1.0
 40
1.0
 40
1.0
 10
286.2689474488
 20
154.0474466681
 30
0.0
 10
286.2614452061
 20
154.1668041161
 30
0.0
 10
286.2001250657
 20
154.4042318203
 30
0.0
 10
285.9789409928
 20
154.6954992253
 30
0.0
 10
285.6616321237
 20
154.878264915
 30
0.0
 10
285.2960168448
 20
154.924946797
 30
0.0
 10
284.9362694831
 20
154.8307298462
 30
0.0
 10
284.6836321765
 20
154.6463582119
 30
0.0
 10
284.5316961336
 20
154.4522346169
 30
0.0
 10
284.418361212
 20
154.2348523826
 30
0.0
 10
284.3807057552
 20
154.0503632145
 30
0.0
 10
284.3795416196
 20
153.92909697
 30
0.0
  0
SPLINE
  5
62D
100
AcDbEntity
  8
BEZUGSACHSEN
100
AcDbSpline
 62
7
  6
CONTINUOUS
 70
0
 71
3
 72
14
 73
10
 74
0
 42
0.0000001
 43
0.0000001
 44
0.0000000001
 40
0.0
 40
0.0
 40
0.0
 40
0.0
 40
0.2615604034
 40
0.3879018032
 40
0.5108137318
 40
0.631593562
 40
0.7521384887
 40
0.8744332143
 40
1.0
 40
1.0
 40
1.0
 40
1.0
 10
290.0447878534
 20
156.59593274
 30
0.0
 10
290.0127060071
 20
156.7472555677
 30
0.0
 10
289.9116621067
 20
156.9661782959
 30
0.0
 10
289.6899782296
 20
157.1753718465
 30
0.0
 10
289.4943093737
 20
157.2796959624
 30
0.0
 10
289.2806036294
 20
157.3245075211
 30
0.0
 10
289.0632784431
 20
157.3066586588
 30
0.0
 10
288.8573105574
 20
157.2276276183
 30
0.0
 10
288.7380227682
 20
157.1390281232
 30
0.0
 10
288.6844369053
 20
157.0876171031
 30
0.0
  0
SPLINE
  5
62E
100
AcDbEntity
  8
BEZUGSACHSEN
100
AcDbSpline
 62
7
  6
CONTINUOUS
 70
0
 71
3
 72
15
 73
11
 74
0
 42
0.0000001
 43
0.0000001
 44
0.0000000001
 40
0.0
 40
0.0
 40
0.0
 40
0.0
 40
0.1262259516
 40
0.25263535
 40
0.3783852718
 40
0.502957091
 40
0.6265775624
 40
0.7500718075
 40
0.8743568278
 40
1.0
 40
1.0
 40
1.0
 40
1.0
 10
284.3820681141
 20
158.0824655033
 30
0.0
 10
284.3768610161
 20
157.9554496588
 30
0.0
 10
284.4177193462
 20
157.6964179592
 30
0.0
 10
284.6214676795
 20
157.3633095315
 30
0.0
 10
284.935875292
 20
157.1334557618
 30
0.0
 10
285.3124807547
 20
157.0445767549
 30
0.0
 10
285.6915533561
 20
157.1119155693
 30
0.0
 10
286.011526101
 20
157.3257389471
 30
0.0
 10
286.220775441
 20
157.6503563582
 30
0.0
 10
286.2640241966
 20
157.9063750387
 30
0.0
 10
286.2604909578
 20
158.032861315
 30
0.0
  0
SPLINE
  5
62F
100
AcDbEntity
  8
BEZUGSACHSEN
100
AcDbSpline
 62
7
  6
CONTINUOUS
 70
0
 71
3
 72
16
 73
12
 74
0
 42
0.0000001
 43
0.0000001
 44
0.0000000001
 40
0.0
 40
0.0
 40
0.0
 40
0.0
 40
0.1265603491
 40
0.1900863495
 40
0.2534119686
 40
0.3788734857
 40
0.503288894
 40
0.6269428569
 40
0.7505095096
 40
0.8747392896
 40
1.0
 40
1.0
 40
1.0
 40
1.0
 10
286.2396482752
 20
158.208164154
 30
0.0
 10
286.2158043887
 20
158.3203184085
 30
0.0
 10
286.1492099265
 20
158.4842066741
 30
0.0
 10
286.0095803897
 20
158.6675489583
 30
0.0
 10
285.8407910709
 20
158.8232677053
 30
0.0
 10
285.5830950761
 20
158.9570666285
 30
0.0
 10
285.239554223
 20
158.9972707549
 30
0.0
 10
284.9058800821
 20
158.9116614204
 30
0.0
 10
284.626121519
 20
158.7108808949
 30
0.0
 10
284.4366896486
 20
158.4221896365
 30
0.0
 10
284.3867165359
 20
158.195853655
 30
0.0
 10
284.3820681141
 20
158.0824655033
 30
0.0
  0
SPLINE
  5
630
100
AcDbEntity
  8
BEZUGSACHSEN
100
AcDbSpline
 62
7
  6
CONTINUOUS
 70
0
 71
3
 72
9
 73
5
 74
0
 42
0.0000001
 43
0.0000001
 44
0.0000000001
 40
0.0
 40
0.0
 40
0.0
 40
0.0
 40
0.4985889983
 40
1.0
 40
1.0
 40
1.0
 40
1.0
 10
286.2689474488
 20
150.2432206029
 30
0.0
 10
286.2784845514
 20
150.3833323181
 30
0.0
 10
286.2207187732
 20
150.6765710131
 30
0.0
 10
286.0113762168
 20
150.8892230707
 30
0.0
 10
285.8901898427
 20
150.9617489188
 30
0.0
  0
SPLINE
  5
631
100
AcDbEntity
  8
BEZUGSACHSEN
100
AcDbSpline
 62
7
  6
CONTINUOUS
 70
0
 71
3
 72
16
 73
12
 74
0
 42
0.0000001
 43
0.0000001
 44
0.0000000001
 40
0.0
 40
0.0
 40
0.0
 40
0.0
 40
0.1174266359
 40
0.2348973804
 40
0.3565691439
 40
0.4840491268
 40
0.5498260837
 40
0.6162490416
 40
0.7484253944
 40
0.877065083
 40
1.0
 40
1.0
 40
1.0
 40
1.0
 10
284.3795416196
 20
150.1248709048
 30
0.0
 10
284.3806825282
 20
150.0161587836
 30
0.0
 10
284.4293443509
 20
149.7959320533
 30
0.0
 10
284.6381214264
 20
149.5271759981
 30
0.0
 10
284.9456312409
 20
149.3629764056
 30
0.0
 10
285.242327178
 20
149.3305081682
 30
0.0
 10
285.4810116769
 20
149.3665358758
 30
0.0
 10
285.7143252279
 20
149.4438619096
 30
0.0
 10
285.974381014
 20
149.6113670834
 30
0.0
 10
286.1951874061
 20
149.8987403252
 30
0.0
 10
286.261217996
 20
150.1296654756
 30
0.0
 10
286.2689474488
 20
150.2432206029
 30
0.0
  0
SPLINE
  5
632
100
AcDbEntity
  8
BEZUGSACHSEN
100
AcDbSpline
 62
7
  6
CONTINUOUS
 70
0
 71
3
 72
11
 73
7
 74
0
 42
0.0000001
 43
0.0000001
 44
0.0000000001
 40
0.0
 40
0.0
 40
0.0
 40
0.0
 40
0.2728561507
 40
0.5221736361
 40
0.7586975419
 40
1.0
 40
1.0
 40
1.0
 40
1.0
 10
290.0447878534
 20
148.9874806096
 30
0.0
 10
290.0630693102
 20
149.0635661116
 30
0.0
 10
290.0791253594
 20
149.2151073085
 30
0.0
 10
290.0284544101
 20
149.4317779807
 30
0.0
 10
289.9020340583
 20
149.6049919215
 30
0.0
 10
289.7795780132
 20
149.6753972785
 30
0.0
 10
289.7144364147
 20
149.6987525658
 30
0.0
  0
SPLINE
  5
633
100
AcDbEntity
  8
0
100
AcDbSpline
 62
7
  6
CONTINUOUS
 70
0
 71
3
 72
14
 73
10
 74
0
 42
0.0000001
 43
0.0000001
 44
0.0000000001
 40
0.0
 40
0.0
 40
0.0
 40
0.0
 40
0.1061115392
 40
0.2109878899
 40
0.3240957588
 40
0.4499418331
 40
0.5870275323
 40
0.729658243
 40
1.0
 40
1.0
 40
1.0
 40
1.0
 10
302.3502827581
 20
148.5258558484
 30
0.0
 10
302.3320963067
 20
148.4492598157
 30
0.0
 10
302.2630942782
 20
148.3015259607
 30
0.0
 10
302.0645157733
 20
148.1510119782
 30
0.0
 10
301.8082826786
 20
148.0969941004
 30
0.0
 10
301.5277281903
 20
148.1366220445
 30
0.0
 10
301.2498053863
 20
148.2616197475
 30
0.0
 10
300.9281263331
 20
148.5154876526
 30
0.0
 10
300.756330462
 20
148.7924611663
 30
0.0
 10
300.7094721324
 20
148.9874806096
 30
0.0
  0
SPLINE
  5
634
100
AcDbEntity
  8
BEZUGSACHSEN
100
AcDbSpline
 62
7
  6
CONTINUOUS
 70
0
 71
3
 72
9
 73
5
 74
0
 42
0.0000001
 43
0.0000001
 44
0.0000000001
 40
0.0
 40
0.0
 40
0.0
 40
0.0
 40
0.5040195385
 40
1.0
 40
1.0
 40
1.0
 40
1.0
 10
286.2396482752
 20
146.7954859585
 30
0.0
 10
286.2634792137
 20
146.8824749542
 30
0.0
 10
286.2730765619
 20
147.0698460431
 30
0.0
 10
286.184485399
 20
147.235884753
 30
0.0
 10
286.1255927196
 20
147.3022866771
 30
0.0
  0
SPLINE
  5
635
100
AcDbEntity
  8
BEZUGSACHSEN
100
AcDbSpline
 62
7
  6
CONTINUOUS
 70
0
 71
3
 72
15
 73
11
 74
0
 42
0.0000001
 43
0.0000001
 44
0.0000000001
 40
0.0
 40
0.0
 40
0.0
 40
0.0
 40
0.1038383552
 40
0.2132693169
 40
0.3353200465
 40
0.4698700546
 40
0.6112397855
 40
0.7512341834
 40
0.8822443858
 40
1.0
 40
1.0
 40
1.0
 40
1.0
 10
284.3820681141
 20
146.6697873078
 30
0.0
 10
284.3866751051
 20
146.585954159
 30
0.0
 10
284.4400770653
 20
146.4130666182
 30
0.0
 10
284.640519819
 20
146.2173533482
 30
0.0
 10
284.9214267023
 20
146.1063222672
 30
0.0
 10
285.2469517522
 20
146.0856580463
 30
0.0
 10
285.5799222048
 20
146.1549418946
 30
0.0
 10
285.8817001882
 20
146.3059064739
 30
0.0
 10
286.1168585312
 20
146.5210598786
 30
0.0
 10
286.2144913949
 20
146.7036569372
 30
0.0
 10
286.2396482752
 20
146.7954859585
 30
0.0
  0
SPLINE
  5
636
100
AcDbEntity
  8
0
100
AcDbSpline
 62
7
  6
CONTINUOUS
 70
0
 71
3
 72
11
 73
7
 74
0
 42
0.0000001
 43
0.0000001
 44
0.0000000001
 40
0.0
 40
0.0
 40
0.0
 40
0.0
 40
0.2443758971
 40
0.4924978705
 40
0.7448403523
 40
1.0
 40
1.0
 40
1.0
 40
1.0
 10
297.1268460869
 20
154.7521732259
 30
0.0
 10
297.103276633
 20
154.8936972621
 30
0.0
 10
297.0012015961
 20
155.1725071671
 30
0.0
 10
296.7082153393
 20
155.5092096764
 30
0.0
 10
296.3128563395
 20
155.7286182044
 30
0.0
 10
296.0124432213
 20
155.7790947976
 30
0.0
 10
295.8626388297
 20
155.7790947976
 30
0.0
  0
SPLINE
  5
637
100
AcDbEntity
  8
BEZUGSACHSEN
100
AcDbSpline
 62
7
  6
CONTINUOUS
 70
0
 71
3
 72
14
 73
10
 74
0
 42
0.0000001
 43
0.0000001
 44
0.0000000001
 40
0.0
 40
0.0
 40
0.0
 40
0.0
 40
0.1061115392
 40
0.2109878899
 40
0.3240957588
 40
0.4499418331
 40
0.5870275323
 40
0.729658243
 40
1.0
 40
1.0
 40
1.0
 40
1.0
 10
288.4039772277
 20
148.5258558484
 30
0.0
 10
288.4221636792
 20
148.4492598157
 30
0.0
 10
288.4911657076
 20
148.3015259607
 30
0.0
 10
288.6897442125
 20
148.1510119782
 30
0.0
 10
288.9459773072
 20
148.0969941004
 30
0.0
 10
289.2265317955
 20
148.1366220445
 30
0.0
 10
289.5044545995
 20
148.2616197475
 30
0.0
 10
289.8261336527
 20
148.5154876526
 30
0.0
 10
289.9979295238
 20
148.7924611663
 30
0.0
 10
290.0447878534
 20
148.9874806096
 30
0.0
  0
SPLINE
  5
638
100
AcDbEntity
  8
0
100
AcDbSpline
 62
7
  6
CONTINUOUS
 70
0
 71
3
 72
10
 73
6
 74
0
 42
0.0000001
 43
0.0000001
 44
0.0000000001
 40
0.0
 40
0.0
 40
0.0
 40
0.0
 40
0.5597866581
 40
0.7979851467
 40
1.0
 40
1.0
 40
1.0
 40
1.0
 10
308.1144627803
 20
151.9444430929
 30
0.0
 10
308.1144627803
 20
150.5216309453
 30
0.0
 10
308.0885410118
 20
148.4929823085
 30
0.0
 10
307.9772737966
 20
145.9535720432
 30
0.0
 10
307.8989746778
 20
144.8371732692
 30
0.0
 10
307.8521980118
 20
144.3258463799
 30
0.0
  0
SPLINE
  5
639
100
AcDbEntity
  8
AUSFORMSCHRAEGEN
100
AcDbSpline
 62
7
  6
CONTINUOUS
 70
0
 71
3
 72
10
 73
6
 74
0
 42
0.0000001
 43
0.0000001
 44
0.0000000001
 40
0.0
 40
0.0
 40
0.0
 40
0.0
 40
0.5597866581
 40
0.7979851467
 40
1.0
 40
1.0
 40
1.0
 40
1.0
 10
282.6397972055
 20
151.9444430929
 30
0.0
 10
282.6397972055
 20
150.5216309453
 30
0.0
 10
282.665718974
 20
148.4929823085
 30
0.0
 10
282.7769861892
 20
145.9535720432
 30
0.0
 10
282.855285308
 20
144.8371732692
 30
0.0
 10
282.9020619741
 20
144.3258463799
 30
0.0
  0
SPLINE
  5
63A
100
AcDbEntity
  8
0
100
AcDbSpline
 62
7
  6
CONTINUOUS
 70
0
 71
3
 72
15
 73
11
 74
0
 42
0.0000001
 43
0.0000001
 44
0.0000000001
 40
0.0
 40
0.0
 40
0.0
 40
0.0
 40
0.1227355074
 40
0.2418936904
 40
0.3601707083
 40
0.4806403052
 40
0.6054078461
 40
0.7347083155
 40
0.8671493556
 40
1.0
 40
1.0
 40
1.0
 40
1.0
 10
302.1116249017
 20
155.6869911081
 30
0.0
 10
302.04835755
 20
155.6186361771
 30
0.0
 10
301.9008976436
 20
155.5026018278
 30
0.0
 10
301.6357027321
 20
155.4157804155
 30
0.0
 10
301.3582882134
 20
155.4290784188
 30
0.0
 10
301.0999268184
 20
155.5409960045
 30
0.0
 10
300.8876520891
 20
155.7374751598
 30
0.0
 10
300.7417391932
 20
155.9970913578
 30
0.0
 10
300.6754741162
 20
156.2931490957
 30
0.0
 10
300.688562826
 20
156.4973082612
 30
0.0
 10
300.7094721324
 20
156.59593274
 30
0.0
  0
SPLINE
  5
63B
100
AcDbEntity
  8
BEZUGSACHSEN
100
AcDbSpline
 62
7
  6
CONTINUOUS
 70
0
 71
3
 72
15
 73
11
 74
0
 42
0.0000001
 43
0.0000001
 44
0.0000000001
 40
0.0
 40
0.0
 40
0.0
 40
0.0
 40
0.1227355074
 40
0.2418936904
 40
0.3601707083
 40
0.4806403052
 40
0.6054078461
 40
0.7347083155
 40
0.8671493556
 40
1.0
 40
1.0
 40
1.0
 40
1.0
 10
288.6426350841
 20
155.6869911081
 30
0.0
 10
288.7059024358
 20
155.6186361771
 30
0.0
 10
288.8533623422
 20
155.5026018278
 30
0.0
 10
289.1185572537
 20
155.4157804155
 30
0.0
 10
289.3959717724
 20
155.4290784188
 30
0.0
 10
289.6543331674
 20
155.5409960045
 30
0.0
 10
289.8666078967
 20
155.7374751598
 30
0.0
 10
290.0125207926
 20
155.9970913578
 30
0.0
 10
290.0787858696
 20
156.2931490957
 30
0.0
 10
290.0656971598
 20
156.4973082612
 30
0.0
 10
290.0447878534
 20
156.59593274
 30
0.0
  0
SPLINE
  5
63C
100
AcDbEntity
  8
0
100
AcDbSpline
 62
7
  6
CONTINUOUS
 70
0
 71
3
 72
11
 73
7
 74
0
 42
0.0000001
 43
0.0000001
 44
0.0000000001
 40
0.0
 40
0.0
 40
0.0
 40
0.0
 40
0.2441712909
 40
0.4918010237
 40
0.7442351317
 40
1.0
 40
1.0
 40
1.0
 40
1.0
 10
293.1026388297
 20
160.8441761359
 30
0.0
 10
293.1026388297
 20
161.0092701402
 30
0.0
 10
293.1733479563
 20
161.3456832752
 30
0.0
 10
293.4727185156
 20
161.7664844634
 30
0.0
 10
293.9156322548
 20
162.0453284319
 30
0.0
 10
294.2629031444
 20
162.1094729618
 30
0.0
 10
294.4358355797
 20
162.1090776488
 30
0.0
  0
SPLINE
  5
63D
100
AcDbEntity
  8
0
100
AcDbSpline
 62
7
  6
CONTINUOUS
 70
0
 71
3
 72
11
 73
7
 74
0
 42
0.0000001
 43
0.0000001
 44
0.0000000001
 40
0.0
 40
0.0
 40
0.0
 40
0.0
 40
0.2557650446
 40
0.5081917888
 40
0.7558206489
 40
1.0
 40
1.0
 40
1.0
 40
1.0
 10
296.0326388297
 20
162.1090776488
 30
0.0
 10
296.2053042872
 20
162.1090776488
 30
0.0
 10
296.5518768287
 20
162.0443444723
 30
0.0
 10
296.9936609193
 20
161.7653013794
 30
0.0
 10
297.2921520379
 20
161.3449029334
 30
0.0
 10
297.3626388297
 20
161.0090165069
 30
0.0
 10
297.3626388297
 20
160.8441724821
 30
0.0
  0
SPLINE
  5
63E
100
AcDbEntity
  8
0
100
AcDbSpline
 62
7
  6
CONTINUOUS
 70
0
 71
3
 72
11
 73
7
 74
0
 42
0.0000001
 43
0.0000001
 44
0.0000000001
 40
0.0
 40
0.0
 40
0.0
 40
0.0
 40
0.2557979463
 40
0.5081866747
 40
0.7558213637
 40
1.0
 40
1.0
 40
1.0
 40
1.0
 10
295.8626388297
 20
152.2815462722
 30
0.0
 10
296.1950264446
 20
152.2815462722
 30
0.0
 10
296.8621314675
 20
152.4061019292
 30
0.0
 10
297.7123420435
 20
152.9433851096
 30
0.0
 10
298.2869451479
 20
153.752431535
 30
0.0
 10
298.4226388297
 20
154.3989616414
 30
0.0
 10
298.4226388297
 20
154.7162509539
 30
0.0
  0
SPLINE
  5
63F
100
AcDbEntity
  8
0
100
AcDbSpline
 62
7
  6
CONTINUOUS
 70
0
 71
3
 72
11
 73
7
 74
0
 42
0.0000001
 43
0.0000001
 44
0.0000000001
 40
0.0
 40
0.0
 40
0.0
 40
0.0
 40
0.2557969742
 40
0.5081875942
 40
0.7558243444
 40
1.0
 40
1.0
 40
1.0
 40
1.0
 10
295.8626388297
 20
155.9336032948
 30
0.0
 10
296.0288305191
 20
155.9336032948
 30
0.0
 10
296.362382494
 20
155.8713357443
 30
0.0
 10
296.7874848905
 20
155.6026921734
 30
0.0
 10
297.0747776105
 20
155.1981595537
 30
0.0
 10
297.1425841781
 20
154.8748922546
 30
0.0
 10
297.1425841781
 20
154.7162509539
 30
0.0
  0
SPLINE
  5
640
100
AcDbEntity
  8
AUSFORMSCHRAEGEN
100
AcDbSpline
 62
7
  6
CONTINUOUS
 70
0
 71
3
 72
11
 73
7
 74
0
 42
0.0000001
 43
0.0000001
 44
0.0000000001
 40
0.0
 40
0.0
 40
0.0
 40
0.0
 40
0.2537992865
 40
0.5057665374
 40
0.754612981
 40
1.0
 40
1.0
 40
1.0
 40
1.0
 10
285.0860998765
 20
134.8247150672
 30
0.0
 10
285.2743643305
 20
134.8247150672
 30
0.0
 10
285.6515048637
 20
134.8755867321
 30
0.0
 10
286.1720600138
 20
135.0992224683
 30
0.0
 10
286.6072659103
 20
135.4525417887
 30
0.0
 10
286.8185817763
 20
135.7595239789
 30
0.0
 10
286.8987154506
 20
135.9229603963
 30
0.0
  0
SPLINE
  5
641
100
AcDbEntity
  8
0
100
AcDbSpline
 62
7
  6
CONTINUOUS
 70
0
 71
3
 72
11
 73
7
 74
0
 42
0.0000001
 43
0.0000001
 44
0.0000000001
 40
0.0
 40
0.0
 40
0.0
 40
0.0
 40
0.2537992865
 40
0.5057665374
 40
0.754612981
 40
1.0
 40
1.0
 40
1.0
 40
1.0
 10
305.6681601093
 20
134.8247150672
 30
0.0
 10
305.4798956553
 20
134.8247150672
 30
0.0
 10
305.1027551221
 20
134.8755867321
 30
0.0
 10
304.5821999721
 20
135.0992224683
 30
0.0
 10
304.1469940755
 20
135.4525417887
 30
0.0
 10
303.9356782095
 20
135.7595239789
 30
0.0
 10
303.8555445353
 20
135.9229603963
 30
0.0
  0
SPLINE
  5
642
100
AcDbEntity
  8
0
100
AcDbSpline
 62
7
  6
CONTINUOUS
 70
0
 71
3
 72
11
 73
7
 74
0
 42
0.0000001
 43
0.0000001
 44
0.0000000001
 40
0.0
 40
0.0
 40
0.0
 40
0.0
 40
0.2456592297
 40
0.4944341581
 40
0.7461788774
 40
1.0
 40
1.0
 40
1.0
 40
1.0
 10
303.4086689281
 20
136.8343843259
 30
0.0
 10
303.2274741638
 20
137.2039396147
 30
0.0
 10
302.761187044
 20
137.9021859748
 30
0.0
 10
301.8137097526
 20
138.7377704605
 30
0.0
 10
300.6764240872
 20
139.3175436593
 30
0.0
 10
299.840880593
 20
139.5083523682
 30
0.0
 10
299.4178764339
 20
139.5520988332
 30
0.0
  0
SPLINE
  5
643
100
AcDbEntity
  8
0
100
AcDbSpline
 62
7
  6
CONTINUOUS
 70
0
 71
3
 72
23
 73
19
 74
0
 42
0.0000001
 43
0.0000001
 44
0.0000000001
 40
0.0
 40
0.0
 40
0.0
 40
0.0
 40
0.0640433387
 40
0.1278264427
 40
0.1911519962
 40
0.2539275123
 40
0.3161118223
 40
0.3777566852
 40
0.4389897141
 40
0.5
 40
0.5610102859
 40
0.6222433148
 40
0.6838881777
 40
0.7460724877
 40
0.8088480038
 40
0.8721735573
 40
0.9359566613
 40
1.0
 40
1.0
 40
1.0
 40
1.0
 10
307.8521980118
 20
161.4157203073
 30
0.0
 10
307.2874253694
 20
161.3843383179
 30
0.0
 10
306.163180804
 20
161.2199034859
 30
0.0
 10
304.5553238009
 20
160.6765978636
 30
0.0
 10
303.0821512591
 20
159.8551613482
 30
0.0
 10
301.7967109564
 20
158.7848197881
 30
0.0
 10
300.7449774502
 20
157.5028197747
 30
0.0
 10
299.9649573677
 20
156.0546743099
 30
0.0
 10
299.4851540553
 20
154.491953653
 30
0.0
 10
299.3232163786
 20
152.8707833436
 30
0.0
 10
299.4851540553
 20
151.2496130343
 30
0.0
 10
299.9649573677
 20
149.6868923773
 30
0.0
 10
300.7449774502
 20
148.2387469125
 30
0.0
 10
301.7967109564
 20
146.9567468992
 30
0.0
 10
303.0821512591
 20
145.886405339
 30
0.0
 10
304.5553238009
 20
145.0649688237
 30
0.0
 10
306.163180804
 20
144.5216632014
 30
0.0
 10
307.2874253694
 20
144.3572283694
 30
0.0
 10
307.8521980118
 20
144.3258463799
 30
0.0
  0
SPLINE
  5
644
100
AcDbEntity
  8
0
100
AcDbSpline
 62
7
  6
CONTINUOUS
 70
0
 71
3
 72
11
 73
7
 74
0
 42
0.0000001
 43
0.0000001
 44
0.0000000001
 40
0.0
 40
0.0
 40
0.0
 40
0.0
 40
0.2644500201
 40
0.5147150597
 40
0.7564878368
 40
1.0
 40
1.0
 40
1.0
 40
1.0
 10
300.6246970945
 20
152.610797739
 30
0.0
 10
300.6246970945
 20
152.7117138789
 30
0.0
 10
300.6550590573
 20
152.9100605002
 30
0.0
 10
300.7982045211
 20
153.1684198475
 30
0.0
 10
301.0238705413
 20
153.3477341242
 30
0.0
 10
301.2082362004
 20
153.3972464243
 30
0.0
 10
301.3008907456
 20
153.404345315
 30
0.0
  0
SPLINE
  5
645
100
AcDbEntity
  8
0
100
AcDbSpline
 62
7
  6
CONTINUOUS
 70
0
 71
3
 72
17
 73
13
 74
0
 42
0.0000001
 43
0.0000001
 44
0.0000000001
 40
0.0
 40
0.0
 40
0.0
 40
0.0
 40
0.1240439521
 40
0.2467367319
 40
0.369302636
 40
0.4313032426
 40
0.4937400068
 40
0.6194298706
 40
0.7464887073
 40
0.8104009635
 40
0.8741648214
 40
1.0
 40
1.0
 40
1.0
 40
1.0
 10
306.3747183662
 20
153.92909697
 30
0.0
 10
306.3759205732
 20
153.8038648934
 30
0.0
 10
306.3278364926
 20
153.5511552458
 30
0.0
 10
306.1112264573
 20
153.2350439799
 30
0.0
 10
305.8386059009
 20
153.0673639315
 30
0.0
 10
305.5950392314
 20
153.0072757773
 30
0.0
 10
305.3411590459
 20
152.9971013057
 30
0.0
 10
305.0250876986
 20
153.0817915398
 30
0.0
 10
304.7647301939
 20
153.281777496
 30
0.0
 10
304.6130608401
 20
153.4912896066
 30
0.0
 10
304.5049259633
 20
153.7245543195
 30
0.0
 10
304.4773427367
 20
153.9206505796
 30
0.0
 10
304.485312537
 20
154.0474466681
 30
0.0
  0
SPLINE
  5
646
100
AcDbEntity
  8
0
100
AcDbSpline
 62
7
  6
CONTINUOUS
 70
0
 71
3
 72
16
 73
12
 74
0
 42
0.0000001
 43
0.0000001
 44
0.0000000001
 40
0.0
 40
0.0
 40
0.0
 40
0.0
 40
0.1240657181
 40
0.2469621035
 40
0.3698684989
 40
0.4939698012
 40
0.6197596747
 40
0.7467170558
 40
0.8105397356
 40
0.8741926553
 40
1.0
 40
1.0
 40
1.0
 40
1.0
 10
304.485312537
 20
154.0474466681
 30
0.0
 10
304.4928147797
 20
154.1668041161
 30
0.0
 10
304.5541349201
 20
154.4042318203
 30
0.0
 10
304.775318993
 20
154.6954992253
 30
0.0
 10
305.0926278622
 20
154.878264915
 30
0.0
 10
305.4582431411
 20
154.924946797
 30
0.0
 10
305.8179905027
 20
154.8307298462
 30
0.0
 10
306.0706278094
 20
154.6463582119
 30
0.0
 10
306.2225638523
 20
154.4522346169
 30
0.0
 10
306.3358987738
 20
154.2348523826
 30
0.0
 10
306.3735542306
 20
154.0503632145
 30
0.0
 10
306.3747183662
 20
153.92909697
 30
0.0
  0
SPLINE
  5
647
100
AcDbEntity
  8
0
100
AcDbSpline
 62
7
  6
CONTINUOUS
 70
0
 71
3
 72
14
 73
10
 74
0
 42
0.0000001
 43
0.0000001
 44
0.0000000001
 40
0.0
 40
0.0
 40
0.0
 40
0.0
 40
0.2615604034
 40
0.3879018032
 40
0.5108137318
 40
0.631593562
 40
0.7521384887
 40
0.8744332143
 40
1.0
 40
1.0
 40
1.0
 40
1.0
 10
300.7094721324
 20
156.59593274
 30
0.0
 10
300.7415539787
 20
156.7472555677
 30
0.0
 10
300.8425978791
 20
156.9661782959
 30
0.0
 10
301.0642817562
 20
157.1753718465
 30
0.0
 10
301.2599506121
 20
157.2796959624
 30
0.0
 10
301.4736563564
 20
157.3245075211
 30
0.0
 10
301.6909815427
 20
157.3066586588
 30
0.0
 10
301.8969494284
 20
157.2276276183
 30
0.0
 10
302.0162372176
 20
157.1390281232
 30
0.0
 10
302.0698230806
 20
157.0876171031
 30
0.0
  0
SPLINE
  5
648
100
AcDbEntity
  8
0
100
AcDbSpline
 62
7
  6
CONTINUOUS
 70
0
 71
3
 72
15
 73
11
 74
0
 42
0.0000001
 43
0.0000001
 44
0.0000000001
 40
0.0
 40
0.0
 40
0.0
 40
0.0
 40
0.1262259516
 40
0.25263535
 40
0.3783852718
 40
0.502957091
 40
0.6265775624
 40
0.7500718075
 40
0.8743568278
 40
1.0
 40
1.0
 40
1.0
 40
1.0
 10
306.3721918717
 20
158.0824655033
 30
0.0
 10
306.3773989697
 20
157.9554496588
 30
0.0
 10
306.3365406396
 20
157.6964179592
 30
0.0
 10
306.1327923063
 20
157.3633095315
 30
0.0
 10
305.8183846939
 20
157.1334557618
 30
0.0
 10
305.4417792312
 20
157.0445767549
 30
0.0
 10
305.0627066297
 20
157.1119155693
 30
0.0
 10
304.7427338848
 20
157.3257389471
 30
0.0
 10
304.5334845448
 20
157.6503563582
 30
0.0
 10
304.4902357892
 20
157.9063750387
 30
0.0
 10
304.4937690281
 20
158.032861315
 30
0.0
  0
SPLINE
  5
649
100
AcDbEntity
  8
0
100
AcDbSpline
 62
7
  6
CONTINUOUS
 70
0
 71
3
 72
16
 73
12
 74
0
 42
0.0000001
 43
0.0000001
 44
0.0000000001
 40
0.0
 40
0.0
 40
0.0
 40
0.0
 40
0.1265603491
 40
0.1900863495
 40
0.2534119686
 40
0.3788734857
 40
0.503288894
 40
0.6269428569
 40
0.7505095096
 40
0.8747392896
 40
1.0
 40
1.0
 40
1.0
 40
1.0
 10
304.5146117106
 20
158.208164154
 30
0.0
 10
304.5384555972
 20
158.3203184085
 30
0.0
 10
304.6050500593
 20
158.4842066741
 30
0.0
 10
304.7446795961
 20
158.6675489583
 30
0.0
 10
304.9134689149
 20
158.8232677053
 30
0.0
 10
305.1711649097
 20
158.9570666285
 30
0.0
 10
305.5147057629
 20
158.9972707549
 30
0.0
 10
305.8483799037
 20
158.9116614204
 30
0.0
 10
306.1281384668
 20
158.7108808949
 30
0.0
 10
306.3175703372
 20
158.4221896365
 30
0.0
 10
306.36754345
 20
158.195853655
 30
0.0
 10
306.3721918717
 20
158.0824655033
 30
0.0
  0
SPLINE
  5
64A
100
AcDbEntity
  8
0
100
AcDbSpline
 62
7
  6
CONTINUOUS
 70
0
 71
3
 72
9
 73
5
 74
0
 42
0.0000001
 43
0.0000001
 44
0.0000000001
 40
0.0
 40
0.0
 40
0.0
 40
0.0
 40
0.4985889983
 40
1.0
 40
1.0
 40
1.0
 40
1.0
 10
304.485312537
 20
150.2432206029
 30
0.0
 10
304.4757754344
 20
150.3833323181
 30
0.0
 10
304.5335412126
 20
150.6765710131
 30
0.0
 10
304.7428837691
 20
150.8892230707
 30
0.0
 10
304.8640701431
 20
150.9617489188
 30
0.0
  0
SPLINE
  5
64B
100
AcDbEntity
  8
0
100
AcDbSpline
 62
7
  6
CONTINUOUS
 70
0
 71
3
 72
16
 73
12
 74
0
 42
0.0000001
 43
0.0000001
 44
0.0000000001
 40
0.0
 40
0.0
 40
0.0
 40
0.0
 40
0.1174266359
 40
0.2348973804
 40
0.3565691439
 40
0.4840491268
 40
0.5498260837
 40
0.6162490416
 40
0.7484253944
 40
0.877065083
 40
1.0
 40
1.0
 40
1.0
 40
1.0
 10
306.3747183662
 20
150.1248709048
 30
0.0
 10
306.3735774576
 20
150.0161587836
 30
0.0
 10
306.324915635
 20
149.7959320533
 30
0.0
 10
306.1161385594
 20
149.5271759981
 30
0.0
 10
305.8086287449
 20
149.3629764056
 30
0.0
 10
305.5119328078
 20
149.3305081682
 30
0.0
 10
305.2732483089
 20
149.3665358758
 30
0.0
 10
305.0399347579
 20
149.4438619096
 30
0.0
 10
304.7798789718
 20
149.6113670834
 30
0.0
 10
304.5590725797
 20
149.8987403252
 30
0.0
 10
304.4930419899
 20
150.1296654756
 30
0.0
 10
304.485312537
 20
150.2432206029
 30
0.0
  0
SPLINE
  5
64C
100
AcDbEntity
  8
0
100
AcDbSpline
 62
7
  6
CONTINUOUS
 70
0
 71
3
 72
11
 73
7
 74
0
 42
0.0000001
 43
0.0000001
 44
0.0000000001
 40
0.0
 40
0.0
 40
0.0
 40
0.0
 40
0.2728561507
 40
0.5221736361
 40
0.7586975419
 40
1.0
 40
1.0
 40
1.0
 40
1.0
 10
300.7094721324
 20
148.9874806096
 30
0.0
 10
300.6911906756
 20
149.0635661116
 30
0.0
 10
300.6751346264
 20
149.2151073085
 30
0.0
 10
300.7258055757
 20
149.4317779807
 30
0.0
 10
300.8522259275
 20
149.6049919215
 30
0.0
 10
300.9746819726
 20
149.6753972785
 30
0.0
 10
301.0398235712
 20
149.6987525658
 30
0.0
  0
SPLINE
  5
64D
100
AcDbEntity
  8
AUSFORMSCHRAEGEN
100
AcDbSpline
 62
7
  6
CONTINUOUS
 70
0
 71
3
 72
11
 73
7
 74
0
 42
0.0000001
 43
0.0000001
 44
0.0000000001
 40
0.0
 40
0.0
 40
0.0
 40
0.0
 40
0.2456592297
 40
0.4944341581
 40
0.7461788774
 40
1.0
 40
1.0
 40
1.0
 40
1.0
 10
287.3455910577
 20
136.8343843259
 30
0.0
 10
287.526785822
 20
137.2039396147
 30
0.0
 10
287.9930729418
 20
137.9021859748
 30
0.0
 10
288.9405502332
 20
138.7377704605
 30
0.0
 10
290.0778358987
 20
139.3175436593
 30
0.0
 10
290.9133793928
 20
139.5083523682
 30
0.0
 10
291.3363835519
 20
139.5520988332
 30
0.0
  0
SPLINE
  5
64E
100
AcDbEntity
  8
0
100
AcDbSpline
 62
7
  6
CONTINUOUS
 70
0
 71
3
 72
9
 73
5
 74
0
 42
0.0000001
 43
0.0000001
 44
0.0000000001
 40
0.0
 40
0.0
 40
0.0
 40
0.0
 40
0.5040195385
 40
1.0
 40
1.0
 40
1.0
 40
1.0
 10
304.5146117106
 20
146.7954859585
 30
0.0
 10
304.4907807721
 20
146.8824749542
 30
0.0
 10
304.4811834239
 20
147.0698460431
 30
0.0
 10
304.5697745868
 20
147.235884753
 30
0.0
 10
304.6286672662
 20
147.3022866771
 30
0.0
  0
SPLINE
  5
64F
100
AcDbEntity
  8
0
100
AcDbSpline
 62
7
  6
CONTINUOUS
 70
0
 71
3
 72
15
 73
11
 74
0
 42
0.0000001
 43
0.0000001
 44
0.0000000001
 40
0.0
 40
0.0
 40
0.0
 40
0.0
 40
0.1038383552
 40
0.2132693169
 40
0.3353200465
 40
0.4698700546
 40
0.6112397855
 40
0.7512341834
 40
0.8822443858
 40
1.0
 40
1.0
 40
1.0
 40
1.0
 10
306.3721918717
 20
146.6697873078
 30
0.0
 10
306.3675848807
 20
146.585954159
 30
0.0
 10
306.3141829205
 20
146.4130666182
 30
0.0
 10
306.1137401668
 20
146.2173533482
 30
0.0
 10
305.8328332836
 20
146.1063222672
 30
0.0
 10
305.5073082336
 20
146.0856580463
 30
0.0
 10
305.174337781
 20
146.1549418946
 30
0.0
 10
304.8725597976
 20
146.3059064739
 30
0.0
 10
304.6374014546
 20
146.5210598786
 30
0.0
 10
304.539768591
 20
146.7036569372
 30
0.0
 10
304.5146117106
 20
146.7954859585
 30
0.0
  0
SPLINE
  5
650
100
AcDbEntity
  8
0
100
AcDbSpline
 62
7
  6
CONTINUOUS
 70
0
 71
3
 72
11
 73
7
 74
0
 42
0.0000001
 43
0.0000001
 44
0.0000000001
 40
0.0
 40
0.0
 40
0.0
 40
0.0
 40
0.2538003878
 40
0.5057665382
 40
0.7546119048
 40
1.0
 40
1.0
 40
1.0
 40
1.0
 10
305.6681601093
 20
136.410472143
 30
0.0
 10
305.5450915348
 20
136.410472143
 30
0.0
 10
305.2985556423
 20
136.4437270865
 30
0.0
 10
304.9582704906
 20
136.5899170948
 30
0.0
 10
304.6737778142
 20
136.8208806998
 30
0.0
 10
304.5356408817
 20
137.0215541247
 30
0.0
 10
304.4832574535
 20
137.1283926033
 30
0.0
  0
SPLINE
  5
651
100
AcDbEntity
  8
0
100
AcDbSpline
 62
7
  6
CONTINUOUS
 70
0
 71
3
 72
9
 73
5
 74
0
 42
0.0000001
 43
0.0000001
 44
0.0000000001
 40
0.0
 40
0.0
 40
0.0
 40
0.0
 40
0.4944499123
 40
1.0
 40
1.0
 40
1.0
 40
1.0
 10
295.7626388297
 20
148.2664466569
 30
0.0
 10
295.7626388297
 20
148.4410103132
 30
0.0
 10
295.8639655304
 20
148.8005478784
 30
0.0
 10
296.136189698
 20
149.0535990249
 30
0.0
 10
296.2926388297
 20
149.1395041066
 30
0.0
  0
SPLINE
  5
652
100
AcDbEntity
  8
0
100
AcDbSpline
 62
7
  6
CONTINUOUS
 70
0
 71
3
 72
11
 73
7
 74
0
 42
0.0000001
 43
0.0000001
 44
0.0000000001
 40
0.0
 40
0.0
 40
0.0
 40
0.0
 40
0.245387019
 40
0.4942334626
 40
0.7462007135
 40
1.0
 40
1.0
 40
1.0
 40
1.0
 10
304.0363818463
 20
138.0398165329
 30
0.0
 10
303.808297186
 20
138.5050059816
 30
0.0
 10
303.2068283535
 20
139.3787700915
 30
0.0
 10
301.9681008149
 20
140.384423681
 30
0.0
 10
300.4864435009
 20
141.0209585885
 30
0.0
 10
299.4129875388
 20
141.1657547245
 30
0.0
 10
298.8771299929
 20
141.1657547245
 30
0.0
  0
SPLINE
  5
653
100
AcDbEntity
  8
AUSFORMSCHRAEGEN
100
AcDbSpline
 62
7
  6
CONTINUOUS
 70
0
 71
3
 72
11
 73
7
 74
0
 42
0.0000001
 43
0.0000001
 44
0.0000000001
 40
0.0
 40
0.0
 40
0.0
 40
0.0
 40
0.245387019
 40
0.4942334626
 40
0.7462007135
 40
1.0
 40
1.0
 40
1.0
 40
1.0
 10
286.7178781395
 20
138.0398165329
 30
0.0
 10
286.9459627998
 20
138.5050059816
 30
0.0
 10
287.5474316323
 20
139.3787700915
 30
0.0
 10
288.7861591709
 20
140.384423681
 30
0.0
 10
290.2678164849
 20
141.0209585885
 30
0.0
 10
291.341272447
 20
141.1657547245
 30
0.0
 10
291.8771299929
 20
141.1657547245
 30
0.0
  0
SPLINE
  5
654
100
AcDbEntity
  8
AUSFORMSCHRAEGEN
100
AcDbSpline
 62
7
  6
CONTINUOUS
 70
0
 71
3
 72
11
 73
7
 74
0
 42
0.0000001
 43
0.0000001
 44
0.0000000001
 40
0.0
 40
0.0
 40
0.0
 40
0.0
 40
0.2538003878
 40
0.5057665382
 40
0.7546119048
 40
1.0
 40
1.0
 40
1.0
 40
1.0
 10
285.0860998765
 20
136.410472143
 30
0.0
 10
285.209168451
 20
136.410472143
 30
0.0
 10
285.4557043435
 20
136.4437270865
 30
0.0
 10
285.7959894952
 20
136.5899170948
 30
0.0
 10
286.0804821716
 20
136.8208806998
 30
0.0
 10
286.2186191041
 20
137.0215541247
 30
0.0
 10
286.2710025324
 20
137.1283926033
 30
0.0
  0
SPLINE
  5
655
100
AcDbEntity
  8
0
100
AcDbSpline
 62
7
  6
CONTINUOUS
 70
0
 71
3
 72
15
 73
11
 74
0
 42
0.0000001
 43
0.0000001
 44
0.0000000001
 40
0.0
 40
0.0
 40
0.0
 40
0.0
 40
0.1220896755
 40
0.2459041056
 40
0.3721174777
 40
0.5
 40
0.6278825223
 40
0.7540958944
 40
0.8779103245
 40
1.0
 40
1.0
 40
1.0
 40
1.0
 10
293.1026388297
 20
148.886274509
 30
0.0
 10
293.1026388297
 20
148.9854288097
 30
0.0
 10
293.1450573709
 20
149.1874657579
 30
0.0
 10
293.3245070916
 20
149.4403370036
 30
0.0
 10
293.5905949139
 20
149.608182473
 30
0.0
 10
293.9026388297
 20
149.6667162355
 30
0.0
 10
294.2146827455
 20
149.608182473
 30
0.0
 10
294.4807705678
 20
149.4403370036
 30
0.0
 10
294.6602202884
 20
149.1874657579
 30
0.0
 10
294.7026388297
 20
148.9854288097
 30
0.0
 10
294.7026388297
 20
148.886274509
 30
0.0
  0
SPLINE
  5
656
100
AcDbEntity
  8
BEZUGSACHSEN
100
AcDbSpline
 62
7
  6
CONTINUOUS
 70
0
 71
3
 72
9
 73
5
 74
0
 42
0.0000001
 43
0.0000001
 44
0.0000000001
 40
0.0
 40
0.0
 40
0.0
 40
0.0
 40
0.4311372032
 40
1.0
 40
1.0
 40
1.0
 40
1.0
 10
304.5230576842
 20
93.4623070708
 30
0.0
 10
304.5145542772
 20
93.6387974304
 30
0.0
 10
304.5053828685
 20
94.0485996487
 30
0.0
 10
304.4980364084
 20
94.4583439184
 30
0.0
 10
304.4945769074
 20
94.6914581008
 30
0.0
  0
SPLINE
  5
657
100
AcDbEntity
  8
BEZUGSACHSEN
100
AcDbSpline
 62
7
  6
CONTINUOUS
 70
0
 71
3
 72
22
 73
18
 74
0
 42
0.0000001
 43
0.0000001
 44
0.0000000001
 40
0.0
 40
0.0
 40
0.0
 40
0.0
 40
0.0012545583
 40
0.0048759681
 40
0.0108882326
 40
0.0192855735
 40
0.0300442161
 40
0.0431354268
 40
0.0761971973
 40
0.1181591051
 40
0.1686096348
 40
0.2270694678
 40
0.2929649198
 40
0.4444837898
 40
0.6173483247
 40
0.804928308
 40
1.0
 40
1.0
 40
1.0
 40
1.0
 10
285.1968509318
 20
202.3359214404
 30
0.0
 10
285.19764462
 20
202.3359660663
 30
0.0
 10
285.1975416011
 20
202.3311941245
 30
0.0
 10
285.1990438186
 20
202.3259857676
 30
0.0
 10
285.1996811096
 20
202.3136758434
 30
0.0
 10
285.2010216104
 20
202.2981803124
 30
0.0
 10
285.2022639769
 20
202.2776309385
 30
0.0
 10
285.2043651244
 20
202.2417032458
 30
0.0
 10
285.2071341097
 20
202.1858905291
 30
0.0
 10
285.2106474883
 20
202.1064825465
 30
0.0
 10
285.2144045924
 20
202.0109497247
 30
0.0
 10
285.218313601
 20
201.9002564284
 30
0.0
 10
285.2238171776
 20
201.7255360955
 30
0.0
 10
285.230201234
 20
201.478319362
 30
0.0
 10
285.23625539
 20
201.1539709733
 30
0.0
 10
285.2402344109
 20
200.8019915846
 30
0.0
 10
285.2411533062
 20
200.5595261032
 30
0.0
 10
285.2411533062
 20
200.4359203499
 30
0.0
  0
SPLINE
  5
658
100
AcDbEntity
  8
BEZUGSACHSEN
100
AcDbSpline
 62
7
  6
CONTINUOUS
 70
0
 71
3
 72
14
 73
10
 74
0
 42
0.0000001
 43
0.0000001
 44
0.0000000001
 40
0.0
 40
0.0
 40
0.0
 40
0.0
 40
0.0174478883
 40
0.067255764
 40
0.1491064689
 40
0.261924084
 40
0.4045885352
 40
0.5759858539
 40
1.0
 40
1.0
 40
1.0
 40
1.0
 10
306.1285773705
 20
198.5359564059
 30
0.0
 10
306.127667464
 20
198.5358729793
 30
0.0
 10
306.1259425512
 20
198.5402279412
 30
0.0
 10
306.1206568742
 20
198.5448521778
 30
0.0
 10
306.1131942753
 20
198.5559126967
 30
0.0
 10
306.1025682733
 20
198.5697421902
 30
0.0
 10
306.0894957488
 20
198.5879857068
 30
0.0
 10
306.0671001226
 20
198.6194375384
 30
0.0
 10
306.0494621511
 20
198.645177721
 30
0.0
 10
306.0370992249
 20
198.6636228558
 30
0.0
  0
SPLINE
  5
659
100
AcDbEntity
  8
BEZUGSACHSEN
100
AcDbSpline
 62
7
  6
CONTINUOUS
 70
0
 71
3
 72
9
 73
5
 74
0
 42
0.0000001
 43
0.0000001
 44
0.0000000001
 40
0.0
 40
0.0
 40
0.0
 40
0.0
 40
0.4095958846
 40
1.0
 40
1.0
 40
1.0
 40
1.0
 10
306.0370992249
 20
198.6636228558
 30
0.0
 10
305.9010546443
 20
198.8665975064
 30
0.0
 10
305.6257605778
 20
199.4016277113
 30
0.0
 10
305.5137526026
 20
200.0033228192
 30
0.0
 10
305.5131728326
 20
200.3555357001
 30
0.0
  0
SPLINE
  5
65A
100
AcDbEntity
  8
0
100
AcDbSpline
 62
7
  6
CONTINUOUS
 70
0
 71
3
 72
9
 73
5
 74
0
 42
0.0000001
 43
0.0000001
 44
0.0000000001
 40
0.0
 40
0.0
 40
0.0
 40
0.0
 40
0.2597360218
 40
1.0
 40
1.0
 40
1.0
 40
1.0
 10
287.2499252614
 20
96.3683624072
 30
0.0
 10
287.2289493111
 20
96.3022355695
 30
0.0
 10
287.1529096978
 20
96.0462102068
 30
0.0
 10
287.0972038558
 20
95.7838390211
 30
0.0
 10
287.0711931561
 20
95.5878371798
 30
0.0
  0
SPLINE
  5
65B
100
AcDbEntity
  8
0
100
AcDbSpline
 62
7
  6
CONTINUOUS
 70
0
 71
3
 72
12
 73
8
 74
0
 42
0.0000001
 43
0.0000001
 44
0.0000000001
 40
0.0
 40
0.0
 40
0.0
 40
0.0
 40
0.0636069332
 40
0.1509769855
 40
0.3859132137
 40
0.6784198744
 40
1.0
 40
1.0
 40
1.0
 40
1.0
 10
287.2204321405
 20
93.7110713833
 30
0.0
 10
287.2305780412
 20
93.7448905084
 30
0.0
 10
287.2442409993
 20
93.8280586267
 30
0.0
 10
287.2583974517
 20
94.0418076343
 30
0.0
 10
287.2501086725
 20
94.38350656
 30
0.0
 10
287.2293454602
 20
94.8541001479
 30
0.0
 10
287.2244130818
 20
95.1952196012
 30
0.0
 10
287.2289331871
 20
95.3736717018
 30
0.0
  0
SPLINE
  5
65C
100
AcDbEntity
  8
0
100
AcDbSpline
 62
7
  6
CONTINUOUS
 70
0
 71
3
 72
12
 73
8
 74
0
 42
0.0000001
 43
0.0000001
 44
0.0000000001
 40
0.0
 40
0.0
 40
0.0
 40
0.0
 40
0.0320659268
 40
0.0876690042
 40
0.2813027927
 40
0.5869095748
 40
1.0
 40
1.0
 40
1.0
 40
1.0
 10
289.0393883156
 20
87.6514757087
 30
0.0
 10
289.0420466392
 20
87.651486813
 30
0.0
 10
289.0485863733
 20
87.6467438716
 30
0.0
 10
289.061632472
 20
87.6278967814
 30
0.0
 10
289.0808896268
 20
87.5854010919
 30
0.0
 10
289.1068503768
 20
87.5146753972
 30
0.0
 10
289.1250539283
 20
87.4578203481
 30
0.0
 10
289.1351238866
 20
87.425088081
 30
0.0
  0
SPLINE
  5
65D
100
AcDbEntity
  8
BEZUGSACHSEN
100
AcDbSpline
 62
7
  6
CONTINUOUS
 70
0
 71
3
 72
12
 73
8
 74
0
 42
0.0000001
 43
0.0000001
 44
0.0000000001
 40
0.0
 40
0.0
 40
0.0
 40
0.0
 40
0.0460043477
 40
0.1173020368
 40
0.3317747491
 40
0.6312891067
 40
1.0
 40
1.0
 40
1.0
 40
1.0
 10
304.1215956403
 20
90.2929584464
 30
0.0
 10
304.1194292246
 20
90.3039861131
 30
0.0
 10
304.1183752554
 20
90.3328153284
 30
0.0
 10
304.1206276885
 20
90.4137268413
 30
0.0
 10
304.1323853055
 20
90.5563733189
 30
0.0
 10
304.1486625456
 20
90.7713227897
 30
0.0
 10
304.1568472403
 20
90.934423847
 30
0.0
 10
304.1594512436
 20
91.024458977
 30
0.0
  0
SPLINE
  5
65E
100
AcDbEntity
  8
0
100
AcDbSpline
 62
7
  6
CONTINUOUS
 70
0
 71
3
 72
18
 73
14
 74
0
 42
0.0000001
 43
0.0000001
 44
0.0000000001
 40
0.0
 40
0.0
 40
0.0
 40
0.0
 40
0.2143292487
 40
0.4087248848
 40
0.5795403296
 40
0.724074286
 40
0.8399889035
 40
0.886624548
 40
0.9254255779
 40
0.9562034503
 40
0.978876095
 40
0.993419521
 40
1.0
 40
1.0
 40
1.0
 40
1.0
 10
299.7699243477
 20
77.4265973785
 30
0.0
 10
299.7565107554
 20
77.3531597763
 30
0.0
 10
299.7312219747
 20
77.213060926
 30
0.0
 10
299.6963225637
 20
77.014242473
 30
0.0
 10
299.6666351623
 20
76.8391891731
 30
0.0
 10
299.6426267031
 20
76.6909155223
 30
0.0
 10
299.6265769869
 20
76.5851410321
 30
0.0
 10
299.6170256202
 20
76.5156947493
 30
0.0
 10
299.6119277213
 20
76.4754649466
 30
0.0
 10
299.6086277303
 20
76.4436896533
 30
0.0
 10
299.6064308855
 20
76.4196622786
 30
0.0
 10
299.6066940222
 20
76.4052001404
 30
0.0
 10
299.6066250763
 20
76.3968370055
 30
0.0
 10
299.6082567945
 20
76.3952273751
 30
0.0
  0
SPLINE
  5
65F
100
AcDbEntity
  8
0
100
AcDbSpline
 62
7
  6
CONTINUOUS
 70
0
 71
3
 72
12
 73
8
 74
0
 42
0.0000001
 43
0.0000001
 44
0.0000000001
 40
0.0
 40
0.0
 40
0.0
 40
0.0
 40
0.0795528809
 40
0.1825559717
 40
0.4397250075
 40
0.728241361
 40
1.0
 40
1.0
 40
1.0
 40
1.0
 10
301.6191360992
 20
87.425088081
 30
0.0
 10
301.5938681328
 20
87.3429548881
 30
0.0
 10
301.5408488225
 20
87.1529656949
 30
0.0
 10
301.424510868
 20
86.6924309763
 30
0.0
 10
301.2721117145
 20
86.0083583302
 30
0.0
 10
301.1005497702
 20
85.1421442979
 30
0.0
 10
300.9958480418
 20
84.5459924471
 30
0.0
 10
300.9491174577
 20
84.2561852112
 30
0.0
  0
LINE
  5
660
100
AcDbEntity
  8
0
100
AcDbLine
 62
7
  6
CONTINUOUS
 10
300.9474063619
 20
84.2455755221
 11
300.9491174577
 21
84.2561852112
  0
LINE
  5
661
100
AcDbEntity
  8
0
100
AcDbLine
 62
7
  6
CONTINUOUS
 10
299.6815124077
 20
97.5832203499
 11
299.6805299572
 21
97.4904367365
  0
LINE
  5
662
100
AcDbEntity
  8
0
100
AcDbLine
 62
7
  6
CONTINUOUS
 10
299.6805299572
 20
97.4904367365
 11
299.6774313967
 21
97.1935708859
  0
LINE
  5
663
100
AcDbEntity
  8
0
100
AcDbLine
 62
7
  6
CONTINUOUS
 10
299.6774313967
 20
97.1935708859
 11
299.6743294413
 21
96.8895417666
  0
LINE
  5
664
100
AcDbEntity
  8
0
100
AcDbLine
 62
7
  6
CONTINUOUS
 10
299.6743294413
 20
96.8895417666
 11
299.669999621
 21
96.4526163796
  0
LINE
  5
665
100
AcDbEntity
  8
0
100
AcDbLine
 62
7
  6
CONTINUOUS
 10
299.669999621
 20
96.4526163796
 11
299.6697175891
 21
96.4236117032
  0
LINE
  5
666
100
AcDbEntity
  8
0
100
AcDbLine
 62
7
  6
CONTINUOUS
 10
299.6697175891
 20
96.4236117032
 11
299.6676557709
 21
96.2094116378
  0
LINE
  5
667
100
AcDbEntity
  8
0
100
AcDbLine
 62
7
  6
CONTINUOUS
 10
299.6676557709
 20
96.2094116378
 11
299.6665253657
 21
96.0903049153
  0
LINE
  5
668
100
AcDbEntity
  8
0
100
AcDbLine
 62
7
  6
CONTINUOUS
 10
299.6665253657
 20
96.0903049153
 11
299.6662163082
 21
96.0575271376
  0
LINE
  5
669
100
AcDbEntity
  8
0
100
AcDbLine
 62
7
  6
CONTINUOUS
 10
299.6662163082
 20
96.0575271376
 11
299.6652866065
 21
95.9583587102
  0
LINE
  5
66A
100
AcDbEntity
  8
0
100
AcDbLine
 62
7
  6
CONTINUOUS
 10
299.6652866065
 20
95.9583587102
 11
299.659162252
 21
95.2819607399
  0
SPLINE
  5
66B
100
AcDbEntity
  8
0
100
AcDbSpline
 62
7
  6
CONTINUOUS
 70
0
 71
3
 72
9
 73
5
 74
0
 42
0.0000001
 43
0.0000001
 44
0.0000000001
 40
0.0
 40
0.0
 40
0.0
 40
0.0
 40
0.2533741769
 40
1.0
 40
1.0
 40
1.0
 40
1.0
 10
299.659162252
 20
95.2819607399
 30
0.0
 10
299.6577791908
 20
95.1242824311
 30
0.0
 10
299.652445091
 20
94.5019673033
 30
0.0
 10
299.6476137306
 20
93.8796478498
 30
0.0
 10
299.6443093269
 20
93.4150059904
 30
0.0
  0
SPLINE
  5
66C
100
AcDbEntity
  8
0
100
AcDbSpline
 62
7
  6
CONTINUOUS
 70
0
 71
3
 72
9
 73
5
 74
0
 42
0.0000001
 43
0.0000001
 44
0.0000000001
 40
0.0
 40
0.0
 40
0.0
 40
0.0
 40
0.2520980509
 40
1.0
 40
1.0
 40
1.0
 40
1.0
 10
299.6443093269
 20
93.4150059904
 30
0.0
 10
299.6437179503
 20
93.3318508052
 30
0.0
 10
299.641410666
 20
93.0019979812
 30
0.0
 10
299.6392585039
 20
92.6721440703
 30
0.0
 10
299.6377399669
 20
92.4254451393
 30
0.0
  0
LINE
  5
66D
100
AcDbEntity
  8
0
100
AcDbLine
 62
7
  6
CONTINUOUS
 10
299.6377399669
 20
92.4254451393
 11
299.6363679669
 21
92.1983483233
  0
LINE
  5
66E
100
AcDbEntity
  8
0
100
AcDbLine
 62
7
  6
CONTINUOUS
 10
299.6363679669
 20
92.1983483233
 11
299.6342317596
 21
91.8259513978
  0
LINE
  5
66F
100
AcDbEntity
  8
0
100
AcDbLine
 62
7
  6
CONTINUOUS
 10
299.6342317596
 20
91.8259513978
 11
299.6321740658
 21
91.4407163305
  0
LINE
  5
670
100
AcDbEntity
  8
0
100
AcDbLine
 62
7
  6
CONTINUOUS
 10
299.6321740658
 20
91.4407163305
 11
299.6317374659
 21
91.3549498891
  0
LINE
  5
671
100
AcDbEntity
  8
0
100
AcDbLine
 62
7
  6
CONTINUOUS
 10
299.6317374659
 20
91.3549498891
 11
299.6306808214
 21
91.1405260272
  0
LINE
  5
672
100
AcDbEntity
  8
0
100
AcDbLine
 62
7
  6
CONTINUOUS
 10
299.6306808214
 20
91.1405260272
 11
299.6295729852
 21
90.9037978197
  0
LINE
  5
673
100
AcDbEntity
  8
0
100
AcDbLine
 62
7
  6
CONTINUOUS
 10
299.6295729852
 20
90.9037978197
 11
299.6289860178
 21
90.7726118658
  0
LINE
  5
674
100
AcDbEntity
  8
0
100
AcDbLine
 62
7
  6
CONTINUOUS
 10
299.6289860178
 20
90.7726118658
 11
299.628868629
 21
90.7458422467
  0
LINE
  5
675
100
AcDbEntity
  8
0
100
AcDbLine
 62
7
  6
CONTINUOUS
 10
299.628868629
 20
90.7458422467
 11
299.6273546009
 21
90.3820144233
  0
LINE
  5
676
100
AcDbEntity
  8
0
100
AcDbLine
 62
7
  6
CONTINUOUS
 10
299.6273546009
 20
90.3820144233
 11
299.6272235659
 21
90.3486813987
  0
LINE
  5
677
100
AcDbEntity
  8
0
100
AcDbLine
 62
7
  6
CONTINUOUS
 10
299.6272235659
 20
90.3486813987
 11
299.6265537883
 21
90.1727811175
  0
SPLINE
  5
678
100
AcDbEntity
  8
0
100
AcDbSpline
 62
7
  6
CONTINUOUS
 70
0
 71
3
 72
9
 73
5
 74
0
 42
0.0000001
 43
0.0000001
 44
0.0000000001
 40
0.0
 40
0.0
 40
0.0
 40
0.0
 40
0.2545529854
 40
1.0
 40
1.0
 40
1.0
 40
1.0
 10
299.6265537883
 20
90.1727811175
 30
0.0
 10
299.626097786
 20
90.0496484873
 30
0.0
 10
299.624413049
 20
89.5659270795
 30
0.0
 10
299.6231608117
 20
89.0822041419
 30
0.0
 10
299.6224958414
 20
88.7216138908
 30
0.0
  0
LINE
  5
679
100
AcDbEntity
  8
0
100
AcDbLine
 62
7
  6
CONTINUOUS
 10
299.6224958414
 20
88.7216138908
 11
299.6222212997
 21
88.5633040182
  0
LINE
  5
67A
100
AcDbEntity
  8
0
100
AcDbLine
 62
7
  6
CONTINUOUS
 10
299.6229230893
 20
86.1084921058
 11
299.6229655427
 21
86.0910373025
  0
LINE
  5
67B
100
AcDbEntity
  8
0
100
AcDbLine
 62
7
  6
CONTINUOUS
 10
299.6229655427
 20
86.0910373025
 11
299.6230987344
 21
86.0377902242
  0
LINE
  5
67C
100
AcDbEntity
  8
0
100
AcDbLine
 62
7
  6
CONTINUOUS
 10
299.6230987344
 20
86.0377902242
 11
299.6232554559
 21
85.9778124138
  0
LINE
  5
67D
100
AcDbEntity
  8
0
100
AcDbLine
 62
7
  6
CONTINUOUS
 10
299.6232554559
 20
85.9778124138
 11
299.6238385156
 21
85.7751024705
  0
LINE
  5
67E
100
AcDbEntity
  8
0
100
AcDbLine
 62
7
  6
CONTINUOUS
 10
299.6238385156
 20
85.7751024705
 11
299.6240592165
 21
85.7051415716
  0
LINE
  5
67F
100
AcDbEntity
  8
0
100
AcDbLine
 62
7
  6
CONTINUOUS
 10
299.6240592165
 20
85.7051415716
 11
299.6244387589
 21
85.591704546
  0
LINE
  5
680
100
AcDbEntity
  8
0
100
AcDbLine
 62
7
  6
CONTINUOUS
 10
299.6244387589
 20
85.591704546
 11
299.6256198082
 21
85.2809613124
  0
LINE
  5
681
100
AcDbEntity
  8
0
100
AcDbLine
 62
7
  6
CONTINUOUS
 10
299.6256198082
 20
85.2809613124
 11
299.6264737242
 21
85.085283237
  0
LINE
  5
682
100
AcDbEntity
  8
0
100
AcDbLine
 62
7
  6
CONTINUOUS
 10
299.6264737242
 20
85.085283237
 11
299.6274366081
 21
84.8856270878
  0
LINE
  5
683
100
AcDbEntity
  8
0
100
AcDbLine
 62
7
  6
CONTINUOUS
 10
299.6274366081
 20
84.8856270878
 11
299.6281865858
 21
84.7423497642
  0
LINE
  5
684
100
AcDbEntity
  8
0
100
AcDbLine
 62
7
  6
CONTINUOUS
 10
299.6281865858
 20
84.7423497642
 11
299.6286236419
 21
84.663016552
  0
LINE
  5
685
100
AcDbEntity
  8
0
100
AcDbLine
 62
7
  6
CONTINUOUS
 10
299.6286236419
 20
84.663016552
 11
299.630023757
 21
84.4261675351
  0
LINE
  5
686
100
AcDbEntity
  8
0
100
AcDbLine
 62
7
  6
CONTINUOUS
 10
299.630023757
 20
84.4261675351
 11
299.630134889
 21
84.4083662199
  0
LINE
  5
687
100
AcDbEntity
  8
0
100
AcDbLine
 62
7
  6
CONTINUOUS
 10
299.630134889
 20
84.4083662199
 11
299.6316041897
 21
84.1846607205
  0
LINE
  5
688
100
AcDbEntity
  8
0
100
AcDbLine
 62
7
  6
CONTINUOUS
 10
299.6316041897
 20
84.1846607205
 11
299.6327539691
 21
84.0227770021
  0
LINE
  5
689
100
AcDbEntity
  8
0
100
AcDbLine
 62
7
  6
CONTINUOUS
 10
299.6327539691
 20
84.0227770021
 11
299.6329997725
 21
83.9894772806
  0
LINE
  5
68A
100
AcDbEntity
  8
0
100
AcDbLine
 62
7
  6
CONTINUOUS
 10
299.6329997725
 20
83.9894772806
 11
299.634361633
 21
83.8124045381
  0
LINE
  5
68B
100
AcDbEntity
  8
0
100
AcDbLine
 62
7
  6
CONTINUOUS
 10
299.634361633
 20
83.8124045381
 11
299.6350770107
 21
83.7239844696
  0
LINE
  5
68C
100
AcDbEntity
  8
0
100
AcDbLine
 62
7
  6
CONTINUOUS
 10
299.6350770107
 20
83.7239844696
 11
299.6354358388
 21
83.6807197666
  0
LINE
  5
68D
100
AcDbEntity
  8
0
100
AcDbLine
 62
7
  6
CONTINUOUS
 10
299.6354358388
 20
83.6807197666
 11
299.6358939773
 21
83.6264792004
  0
LINE
  5
68E
100
AcDbEntity
  8
0
100
AcDbLine
 62
7
  6
CONTINUOUS
 10
299.6358939773
 20
83.6264792004
 11
299.6361632563
 21
83.5951014299
  0
LINE
  5
68F
100
AcDbEntity
  8
0
100
AcDbLine
 62
7
  6
CONTINUOUS
 10
299.6361632563
 20
83.5951014299
 11
299.6365764619
 21
83.5476495145
  0
LINE
  5
690
100
AcDbEntity
  8
0
100
AcDbLine
 62
7
  6
CONTINUOUS
 10
299.6365764619
 20
83.5476495145
 11
299.6368930968
 21
83.5118402398
  0
LINE
  5
691
100
AcDbEntity
  8
0
100
AcDbLine
 62
7
  6
CONTINUOUS
 10
299.6368930968
 20
83.5118402398
 11
299.637282934
 21
83.4683875629
  0
LINE
  5
692
100
AcDbEntity
  8
0
100
AcDbLine
 62
7
  6
CONTINUOUS
 10
299.637282934
 20
83.4683875629
 11
299.6373571107
 21
83.4601970152
  0
LINE
  5
693
100
AcDbEntity
  8
0
100
AcDbLine
 62
7
  6
CONTINUOUS
 10
299.6373571107
 20
83.4601970152
 11
299.6375233997
 21
83.4419237067
  0
LINE
  5
694
100
AcDbEntity
  8
0
100
AcDbLine
 62
7
  6
CONTINUOUS
 10
299.6375233997
 20
83.4419237067
 11
299.6394052011
 21
83.2431231343
  0
LINE
  5
695
100
AcDbEntity
  8
0
100
AcDbLine
 62
7
  6
CONTINUOUS
 10
299.6394052011
 20
83.2431231343
 11
299.640520302
 21
83.131652379
  0
LINE
  5
696
100
AcDbEntity
  8
0
100
AcDbLine
 62
7
  6
CONTINUOUS
 10
299.640520302
 20
83.131652379
 11
299.6406972786
 21
83.1143580342
  0
SPLINE
  5
697
100
AcDbEntity
  8
0
100
AcDbSpline
 62
7
  6
CONTINUOUS
 70
0
 71
3
 72
9
 73
5
 74
0
 42
0.0000001
 43
0.0000001
 44
0.0000000001
 40
0.0
 40
0.0
 40
0.0
 40
0.0
 40
0.2833157226
 40
1.0
 40
1.0
 40
1.0
 40
1.0
 10
299.6406972786
 20
83.1143580342
 30
0.0
 10
299.6433506536
 20
82.855855771
 30
0.0
 10
299.6540579041
 20
81.9434564513
 30
0.0
 10
299.6698845478
 20
81.0310885964
 30
0.0
 10
299.6875419305
 20
80.3773772005
 30
0.0
  0
SPLINE
  5
698
100
AcDbEntity
  8
0
100
AcDbSpline
 62
7
  6
CONTINUOUS
 70
0
 71
3
 72
12
 73
8
 74
0
 42
0.0000001
 43
0.0000001
 44
0.0000000001
 40
0.0
 40
0.0
 40
0.0
 40
0.0
 40
0.4062150131
 40
0.7029384934
 40
0.8107739936
 40
0.8931191848
 40
1.0
 40
1.0
 40
1.0
 40
1.0
 10
299.6875419305
 20
80.3773772005
 30
0.0
 10
299.6882102291
 20
80.3526354602
 30
0.0
 10
299.6904613918
 20
80.3098342202
 30
0.0
 10
299.6967381734
 20
80.2607578301
 30
0.0
 10
299.7051785395
 20
80.2320572969
 30
0.0
 10
299.7121642151
 20
80.2157543907
 30
0.0
 10
299.7224780061
 20
80.2065498976
 30
0.0
 10
299.7289902726
 20
80.2065430126
 30
0.0
  0
SPLINE
  5
699
100
AcDbEntity
  8
BEZUGSACHSEN
100
AcDbSpline
 62
7
  6
CONTINUOUS
 70
0
 71
3
 72
9
 73
5
 74
0
 42
0.0000001
 43
0.0000001
 44
0.0000000001
 40
0.0
 40
0.0
 40
0.0
 40
0.0
 40
0.2528875937
 40
1.0
 40
1.0
 40
1.0
 40
1.0
 10
303.488263688
 20
97.154317875
 30
0.0
 10
303.4876933587
 20
97.1869353542
 30
0.0
 10
303.4842951999
 20
97.3158904282
 30
0.0
 10
303.4761605719
 20
97.444740899
 30
0.0
 10
303.4669243005
 20
97.5406747002
 30
0.0
  0
SPLINE
  5
69A
100
AcDbEntity
  8
BEZUGSACHSEN
100
AcDbSpline
 62
7
  6
CONTINUOUS
 70
0
 71
3
 72
9
 73
5
 74
0
 42
0.0000001
 43
0.0000001
 44
0.0000000001
 40
0.0
 40
0.0
 40
0.0
 40
0.0
 40
0.7538542727
 40
1.0
 40
1.0
 40
1.0
 40
1.0
 10
304.1264264168
 20
93.060559933
 30
0.0
 10
304.1196123108
 20
93.4863811963
 30
0.0
 10
304.0505640145
 20
94.0535043896
 30
0.0
 10
303.8967842689
 20
94.5974148683
 30
0.0
 10
303.8537918551
 20
94.7296572793
 30
0.0
  0
SPLINE
  5
69B
100
AcDbEntity
  8
BEZUGSACHSEN
100
AcDbSpline
 62
7
  6
CONTINUOUS
 70
0
 71
3
 72
11
 73
7
 74
0
 42
0.0000001
 43
0.0000001
 44
0.0000000001
 40
0.0
 40
0.0
 40
0.0
 40
0.0
 40
0.2163760272
 40
0.4654293883
 40
0.7337405381
 40
1.0
 40
1.0
 40
1.0
 40
1.0
 10
304.4945769074
 20
94.6914581008
 30
0.0
 10
304.4912864373
 20
94.9131823477
 30
0.0
 10
304.4397240307
 20
95.3898714564
 30
0.0
 10
304.2479963832
 20
96.1193420257
 30
0.0
 10
303.9459551444
 20
96.8653217876
 30
0.0
 10
303.6976054818
 20
97.3538284319
 30
0.0
 10
303.5738766327
 20
97.5970353275
 30
0.0
  0
SPLINE
  5
69C
100
AcDbEntity
  8
BEZUGSACHSEN
100
AcDbSpline
 62
7
  6
CONTINUOUS
 70
0
 71
3
 72
9
 73
5
 74
0
 42
0.0000001
 43
0.0000001
 44
0.0000000001
 40
0.0
 40
0.0
 40
0.0
 40
0.0
 40
0.2550803306
 40
1.0
 40
1.0
 40
1.0
 40
1.0
 10
303.5252278131
 20
97.6928683369
 30
0.0
 10
303.517448678
 20
97.7082420479
 30
0.0
 10
303.4870031473
 20
97.7685379045
 30
0.0
 10
303.4568310214
 20
97.8289729887
 30
0.0
 10
303.4346621588
 20
97.8741428643
 30
0.0
  0
SPLINE
  5
69D
100
AcDbEntity
  8
0
100
AcDbSpline
 62
7
  6
CONTINUOUS
 70
0
 71
3
 72
9
 73
5
 74
0
 42
0.0000001
 43
0.0000001
 44
0.0000000001
 40
0.0
 40
0.0
 40
0.0
 40
0.0
 40
0.1905895516
 40
1.0
 40
1.0
 40
1.0
 40
1.0
 10
286.2301755593
 20
93.3617571547
 30
0.0
 10
286.2300467571
 20
93.3640067387
 30
0.0
 10
286.2295137856
 20
93.3758180776
 30
0.0
 10
286.2294024932
 20
93.3876449773
 30
0.0
 10
286.2294239982
 20
93.3972143072
 30
0.0
  0
SPLINE
  5
69E
100
AcDbEntity
  8
0
100
AcDbSpline
 62
7
  6
CONTINUOUS
 70
0
 71
3
 72
9
 73
5
 74
0
 42
0.0000001
 43
0.0000001
 44
0.0000000001
 40
0.0
 40
0.0
 40
0.0
 40
0.0
 40
0.2122583456
 40
1.0
 40
1.0
 40
1.0
 40
1.0
 10
286.2294239982
 20
93.3972143072
 30
0.0
 10
286.2294343523
 20
93.4018217263
 30
0.0
 10
286.229629848
 20
93.4235279758
 30
0.0
 10
286.230379403
 20
93.445227602
 30
0.0
 10
286.2312023016
 20
93.4623070708
 30
0.0
  0
SPLINE
  5
69F
100
AcDbEntity
  8
0
100
AcDbSpline
 62
7
  6
CONTINUOUS
 70
0
 71
3
 72
9
 73
5
 74
0
 42
0.0000001
 43
0.0000001
 44
0.0000000001
 40
0.0
 40
0.0
 40
0.0
 40
0.0
 40
0.2898708429
 40
1.0
 40
1.0
 40
1.0
 40
1.0
 10
286.1867301124
 20
94.1108500078
 30
0.0
 10
286.1894590517
 20
94.0607617302
 30
0.0
 10
286.1999838479
 20
93.8880249644
 30
0.0
 10
286.2136660164
 20
93.7155076175
 30
0.0
 10
286.2221838328
 20
93.5929143087
 30
0.0
  0
SPLINE
  5
6A0
100
AcDbEntity
  8
0
100
AcDbSpline
 62
7
  6
CONTINUOUS
 70
0
 71
3
 72
9
 73
5
 74
0
 42
0.0000001
 43
0.0000001
 44
0.0000000001
 40
0.0
 40
0.0
 40
0.0
 40
0.0
 40
0.2730869957
 40
1.0
 40
1.0
 40
1.0
 40
1.0
 10
286.2221838328
 20
93.5929143087
 30
0.0
 10
286.2228214194
 20
93.5837377967
 30
0.0
 10
286.2251250481
 20
93.5501328352
 30
0.0
 10
286.2272933018
 20
93.5165179959
 30
0.0
 10
286.2286947782
 20
93.4920728721
 30
0.0
  0
SPLINE
  5
6A1
100
AcDbEntity
  8
0
100
AcDbSpline
 62
7
  6
CONTINUOUS
 70
0
 71
3
 72
9
 73
5
 74
0
 42
0.0000001
 43
0.0000001
 44
0.0000000001
 40
0.0
 40
0.0
 40
0.0
 40
0.0
 40
0.3723320765
 40
1.0
 40
1.0
 40
1.0
 40
1.0
 10
286.23294339
 20
93.3577490908
 30
0.0
 10
286.2328973984
 20
93.3567352797
 30
0.0
 10
286.2326914679
 20
93.3540352525
 30
0.0
 10
286.2326923819
 20
93.3512245029
 30
0.0
 10
286.2320931612
 20
93.3496220606
 30
0.0
  0
SPLINE
  5
6A2
100
AcDbEntity
  8
BEZUGSACHSEN
100
AcDbSpline
 62
7
  6
CONTINUOUS
 70
0
 71
3
 72
9
 73
5
 74
0
 42
0.0000001
 43
0.0000001
 44
0.0000000001
 40
0.0
 40
0.0
 40
0.0
 40
0.0
 40
0.2597352054
 40
1.0
 40
1.0
 40
1.0
 40
1.0
 10
303.5043347244
 20
96.3683624072
 30
0.0
 10
303.525309383
 20
96.3022396415
 30
0.0
 10
303.6013448493
 20
96.0462293224
 30
0.0
 10
303.657049012
 20
95.7838739704
 30
0.0
 10
303.6830606573
 20
95.5878836898
 30
0.0
  0
SPLINE
  5
6A3
100
AcDbEntity
  8
BEZUGSACHSEN
100
AcDbSpline
 62
7
  6
CONTINUOUS
 70
0
 71
3
 72
12
 73
8
 74
0
 42
0.0000001
 43
0.0000001
 44
0.0000000001
 40
0.0
 40
0.0
 40
0.0
 40
0.0
 40
0.0636069332
 40
0.1509769855
 40
0.3859132137
 40
0.6784198744
 40
1.0
 40
1.0
 40
1.0
 40
1.0
 10
303.5338278453
 20
93.7110713833
 30
0.0
 10
303.5236819446
 20
93.7448905084
 30
0.0
 10
303.5100189866
 20
93.8280586267
 30
0.0
 10
303.4958625341
 20
94.0418076343
 30
0.0
 10
303.5041513133
 20
94.38350656
 30
0.0
 10
303.5249145256
 20
94.8541001479
 30
0.0
 10
303.529846904
 20
95.1952196012
 30
0.0
 10
303.5253267987
 20
95.3736717018
 30
0.0
  0
SPLINE
  5
6A4
100
AcDbEntity
  8
0
100
AcDbSpline
 62
7
  6
CONTINUOUS
 70
0
 71
3
 72
12
 73
8
 74
0
 42
0.0000001
 43
0.0000001
 44
0.0000000001
 40
0.0
 40
0.0
 40
0.0
 40
0.0
 40
0.0320659268
 40
0.0876690042
 40
0.2813027927
 40
0.5869095748
 40
1.0
 40
1.0
 40
1.0
 40
1.0
 10
301.7148716702
 20
87.6514757087
 30
0.0
 10
301.7122133466
 20
87.651486813
 30
0.0
 10
301.7056736125
 20
87.6467438716
 30
0.0
 10
301.6926275139
 20
87.6278967814
 30
0.0
 10
301.673370359
 20
87.5854010919
 30
0.0
 10
301.647409609
 20
87.5146753972
 30
0.0
 10
301.6292060575
 20
87.4578203481
 30
0.0
 10
301.6191360992
 20
87.425088081
 30
0.0
  0
SPLINE
  5
6A5
100
AcDbEntity
  8
BEZUGSACHSEN
100
AcDbSpline
 62
7
  6
CONTINUOUS
 70
0
 71
3
 72
9
 73
5
 74
0
 42
0.0000001
 43
0.0000001
 44
0.0000000001
 40
0.0
 40
0.0
 40
0.0
 40
0.0
 40
0.2898522533
 40
1.0
 40
1.0
 40
1.0
 40
1.0
 10
304.5674946608
 20
94.1102040428
 30
0.0
 10
304.5647664076
 20
94.0601815452
 30
0.0
 10
304.5542475787
 20
93.8876604909
 30
0.0
 10
304.5405835782
 20
93.7153580607
 30
0.0
 10
304.532076153
 20
93.5929143087
 30
0.0
  0
SPLINE
  5
6A6
100
AcDbEntity
  8
BEZUGSACHSEN
100
AcDbSpline
 62
7
  6
CONTINUOUS
 70
0
 71
3
 72
9
 73
5
 74
0
 42
0.0000001
 43
0.0000001
 44
0.0000000001
 40
0.0
 40
0.0
 40
0.0
 40
0.0
 40
0.2730869957
 40
1.0
 40
1.0
 40
1.0
 40
1.0
 10
304.532076153
 20
93.5929143087
 30
0.0
 10
304.5314385665
 20
93.5837377967
 30
0.0
 10
304.5291349377
 20
93.5501328352
 30
0.0
 10
304.526966684
 20
93.5165179959
 30
0.0
 10
304.5255652076
 20
93.4920728721
 30
0.0
  0
SPLINE
  5
6A7
100
AcDbEntity
  8
BEZUGSACHSEN
100
AcDbSpline
 62
7
  6
CONTINUOUS
 70
0
 71
3
 72
9
 73
5
 74
0
 42
0.0000001
 43
0.0000001
 44
0.0000000001
 40
0.0
 40
0.0
 40
0.0
 40
0.0
 40
0.3722492551
 40
1.0
 40
1.0
 40
1.0
 40
1.0
 10
304.5213177409
 20
93.3577238906
 30
0.0
 10
304.5213637309
 20
93.356713435
 30
0.0
 10
304.5215693212
 20
93.3540217207
 30
0.0
 10
304.5215693715
 20
93.3512197762
 30
0.0
 10
304.5221668246
 20
93.3496220606
 30
0.0
  0
SPLINE
  5
6A8
100
AcDbEntity
  8
BEZUGSACHSEN
100
AcDbSpline
 62
7
  6
CONTINUOUS
 70
0
 71
3
 72
9
 73
5
 74
0
 42
0.0000001
 43
0.0000001
 44
0.0000000001
 40
0.0
 40
0.0
 40
0.0
 40
0.0
 40
0.1905175048
 40
1.0
 40
1.0
 40
1.0
 40
1.0
 10
304.5240831891
 20
93.3617355582
 30
0.0
 10
304.5242121987
 20
93.3639856528
 30
0.0
 10
304.5247461214
 20
93.375804168
 30
0.0
 10
304.5248575076
 20
93.3876382901
 30
0.0
 10
304.5248359876
 20
93.3972143072
 30
0.0
  0
SPLINE
  5
6A9
100
AcDbEntity
  8
BEZUGSACHSEN
100
AcDbSpline
 62
7
  6
CONTINUOUS
 70
0
 71
3
 72
9
 73
5
 74
0
 42
0.0000001
 43
0.0000001
 44
0.0000000001
 40
0.0
 40
0.0
 40
0.0
 40
0.0
 40
0.2122583456
 40
1.0
 40
1.0
 40
1.0
 40
1.0
 10
304.5248359876
 20
93.3972143072
 30
0.0
 10
304.5248256335
 20
93.4018217263
 30
0.0
 10
304.5246301379
 20
93.4235279758
 30
0.0
 10
304.5238805828
 20
93.445227602
 30
0.0
 10
304.5230576842
 20
93.4623070708
 30
0.0
  0
LINE
  5
6AA
100
AcDbEntity
  8
0
100
AcDbLine
 62
7
  6
CONTINUOUS
 10
299.9408062659
 20
85.0609708354
 11
299.9092110729
 21
85.0023055248
  0
LINE
  5
6AB
100
AcDbEntity
  8
0
100
AcDbLine
 62
7
  6
CONTINUOUS
 10
299.9092110729
 20
85.0023055248
 11
299.8986092133
 21
84.9826612575
  0
LINE
  5
6AC
100
AcDbEntity
  8
0
100
AcDbLine
 62
7
  6
CONTINUOUS
 10
299.8986092133
 20
84.9826612575
 11
299.8867567523
 21
84.9502152522
  0
LINE
  5
6AD
100
AcDbEntity
  8
0
100
AcDbLine
 62
7
  6
CONTINUOUS
 10
299.8867567523
 20
84.9502152522
 11
299.8629694268
 21
84.8851379539
  0
LINE
  5
6AE
100
AcDbEntity
  8
0
100
AcDbLine
 62
7
  6
CONTINUOUS
 10
299.8629694268
 20
84.8851379539
 11
299.8510345604
 21
84.852506661
  0
LINE
  5
6AF
100
AcDbEntity
  8
0
100
AcDbLine
 62
7
  6
CONTINUOUS
 10
299.8510345604
 20
84.852506661
 11
299.811434025
 21
84.7160909694
  0
LINE
  5
6B0
100
AcDbEntity
  8
0
100
AcDbLine
 62
7
  6
CONTINUOUS
 10
299.811434025
 20
84.7160909694
 11
299.7981988276
 21
84.6705069854
  0
LINE
  5
6B1
100
AcDbEntity
  8
0
100
AcDbLine
 62
7
  6
CONTINUOUS
 10
299.7981988276
 20
84.6705069854
 11
299.7836939373
 21
84.6120656167
  0
LINE
  5
6B2
100
AcDbEntity
  8
0
100
AcDbLine
 62
7
  6
CONTINUOUS
 10
299.7836939373
 20
84.6120656167
 11
299.7691859617
 21
84.5536118207
  0
LINE
  5
6B3
100
AcDbEntity
  8
0
100
AcDbLine
 62
7
  6
CONTINUOUS
 10
299.7691859617
 20
84.5536118207
 11
299.7401607541
 21
84.4366669466
  0
LINE
  5
6B4
100
AcDbEntity
  8
0
100
AcDbLine
 62
7
  6
CONTINUOUS
 10
299.6927901759
 20
84.1943667244
 11
299.7349958739
 21
84.4102363312
  0
LINE
  5
6B5
100
AcDbEntity
  8
0
100
AcDbLine
 62
7
  6
CONTINUOUS
 10
299.7349958739
 20
84.4102363312
 11
299.7401607541
 21
84.4366669466
  0
LINE
  5
6B6
100
AcDbEntity
  8
0
100
AcDbLine
 62
7
  6
CONTINUOUS
 10
299.6612106269
 20
83.9954513677
 11
299.6927901759
 21
84.1943667244
  0
LINE
  5
6B7
100
AcDbEntity
  8
0
100
AcDbLine
 62
7
  6
CONTINUOUS
 10
299.6350595144
 20
83.7400503631
 11
299.6426833984
 21
83.8140710534
  0
LINE
  5
6B8
100
AcDbEntity
  8
0
100
AcDbLine
 62
7
  6
CONTINUOUS
 10
299.6426833984
 20
83.8140710534
 11
299.6612106269
 21
83.9954513677
  0
SPLINE
  5
6B9
100
AcDbEntity
  8
BEZUGSACHSEN
100
AcDbSpline
 62
7
  6
CONTINUOUS
 70
0
 71
3
 72
22
 73
18
 74
0
 42
0.0000001
 43
0.0000001
 44
0.0000000001
 40
0.0
 40
0.0
 40
0.0
 40
0.0
 40
0.1950582348
 40
0.3826243988
 40
0.5554802988
 40
0.7069949332
 40
0.7728902444
 40
0.8313515817
 40
0.8818047747
 40
0.9237709633
 40
0.9568382605
 40
0.9699330133
 40
0.9806955754
 40
0.989097058
 40
0.995113894
 40
0.9987403626
 40
1.0
 40
1.0
 40
1.0
 40
1.0
 10
305.5131066796
 20
200.4359203499
 30
0.0
 10
305.5131066796
 20
200.5595175616
 30
0.0
 10
305.5140254457
 20
200.8019657303
 30
0.0
 10
305.5180039164
 20
201.1539223274
 30
0.0
 10
305.5240573261
 20
201.4782537731
 30
0.0
 10
305.5304407248
 20
201.7254622555
 30
0.0
 10
305.5359438743
 20
201.9001807449
 30
0.0
 10
305.5398526817
 20
202.0108766256
 30
0.0
 10
305.5436096536
 20
202.1064146868
 30
0.0
 10
305.5471231485
 20
202.1858308802
 30
0.0
 10
305.5498920098
 20
202.2416513337
 30
0.0
 10
305.5519935666
 20
202.2775883646
 30
0.0
 10
305.5532354949
 20
202.2981427795
 30
0.0
 10
305.5545777987
 20
202.3136522371
 30
0.0
 10
305.5552115279
 20
202.32595782
 30
0.0
 10
305.5567215662
 20
202.3311972105
 30
0.0
 10
305.5566099965
 20
202.3359554138
 30
0.0
 10
305.557407451
 20
202.3359218626
 30
0.0
  0
LINE
  5
6BA
100
AcDbEntity
  8
BEZUGSACHSEN
100
AcDbLine
 62
7
  6
CONTINUOUS
 10
305.5131728305
 20
200.3555374108
 11
305.5131066796
 21
200.4359203499
  0
LINE
  5
6BB
100
AcDbEntity
  8
0
100
AcDbLine
 62
7
  6
CONTINUOUS
 10
299.8371101206
 20
83.7913510106
 11
299.8149936632
 21
83.711457793
  0
LINE
  5
6BC
100
AcDbEntity
  8
0
100
AcDbLine
 62
7
  6
CONTINUOUS
 10
299.8149936632
 20
83.711457793
 11
299.7928253879
 21
83.6313917652
  0
LINE
  5
6BD
100
AcDbEntity
  8
0
100
AcDbLine
 62
7
  6
CONTINUOUS
 10
299.7928253879
 20
83.6313917652
 11
299.7706053085
 21
83.5511529253
  0
LINE
  5
6BE
100
AcDbEntity
  8
0
100
AcDbLine
 62
7
  6
CONTINUOUS
 10
299.7706053085
 20
83.5511529253
 11
299.7483334387
 21
83.4707412713
  0
LINE
  5
6BF
100
AcDbEntity
  8
0
100
AcDbLine
 62
7
  6
CONTINUOUS
 10
299.7483334387
 20
83.4707412713
 11
299.7291202714
 21
83.4167764044
  0
LINE
  5
6C0
100
AcDbEntity
  8
0
100
AcDbLine
 62
7
  6
CONTINUOUS
 10
299.7291202714
 20
83.4167764044
 11
299.7098277191
 21
83.3626340497
  0
LINE
  5
6C1
100
AcDbEntity
  8
0
100
AcDbLine
 62
7
  6
CONTINUOUS
 10
299.7098277191
 20
83.3626340497
 11
299.6710043887
 21
83.2538168831
  0
LINE
  5
6C2
100
AcDbEntity
  8
0
100
AcDbLine
 62
7
  6
CONTINUOUS
 10
299.6710043887
 20
83.2538168831
 11
299.6402260194
 21
83.2011036807
  0
SPLINE
  5
6C3
100
AcDbEntity
  8
BEZUGSACHSEN
100
AcDbSpline
 62
7
  6
CONTINUOUS
 70
0
 71
3
 72
9
 73
5
 74
0
 42
0.0000001
 43
0.0000001
 44
0.0000000001
 40
0.0
 40
0.0
 40
0.0
 40
0.0
 40
0.2985695351
 40
1.0
 40
1.0
 40
1.0
 40
1.0
 10
306.1039262558
 20
198.5684660679
 30
0.0
 10
306.1055748689
 20
198.5667127209
 30
0.0
 10
306.1110297601
 20
198.5607853189
 30
0.0
 10
306.1163117557
 20
198.5546484326
 30
0.0
 10
306.1194964733
 20
198.5499766269
 30
0.0
  0
LINE
  5
6C4
100
AcDbEntity
  8
0
100
AcDbLine
 62
7
  6
CONTINUOUS
 10
300.3121172023
 20
85.765770851
 11
300.3155625239
 21
85.8197182401
  0
LINE
  5
6C5
100
AcDbEntity
  8
0
100
AcDbLine
 62
7
  6
CONTINUOUS
 10
300.3155625239
 20
85.8197182401
 11
300.3189687393
 21
85.8736729366
  0
LINE
  5
6C6
100
AcDbEntity
  8
0
100
AcDbLine
 62
7
  6
CONTINUOUS
 10
300.3189687393
 20
85.8736729366
 11
300.3256635213
 21
85.981604262
  0
LINE
  5
6C7
100
AcDbEntity
  8
0
100
AcDbLine
 62
7
  6
CONTINUOUS
 10
300.2885548208
 20
85.5583976537
 11
300.3062584768
 21
85.7139600624
  0
LINE
  5
6C8
100
AcDbEntity
  8
0
100
AcDbLine
 62
7
  6
CONTINUOUS
 10
300.3062584768
 20
85.7139600624
 11
300.3094209408
 21
85.7419061648
  0
LINE
  5
6C9
100
AcDbEntity
  8
0
100
AcDbLine
 62
7
  6
CONTINUOUS
 10
300.3094209408
 20
85.7419061648
 11
300.3121172023
 21
85.765770851
  0
LINE
  5
6CA
100
AcDbEntity
  8
0
100
AcDbLine
 62
7
  6
CONTINUOUS
 10
300.2434084134
 20
85.2557945118
 11
300.2885548208
 21
85.5583976537
  0
LINE
  5
6CB
100
AcDbEntity
  8
0
100
AcDbLine
 62
7
  6
CONTINUOUS
 10
300.1674809921
 20
84.8664240121
 11
300.2434084134
 21
85.2557945118
  0
LINE
  5
6CC
100
AcDbEntity
  8
0
100
AcDbLine
 62
7
  6
CONTINUOUS
 10
300.1674809921
 20
84.8664240121
 11
300.1477231171
 21
84.7842527315
  0
LINE
  5
6CD
100
AcDbEntity
  8
0
100
AcDbLine
 62
7
  6
CONTINUOUS
 10
300.1477231171
 20
84.7842527315
 11
300.1279497286
 21
84.7020173125
  0
LINE
  5
6CE
100
AcDbEntity
  8
0
100
AcDbLine
 62
7
  6
CONTINUOUS
 10
300.1279497286
 20
84.7020173125
 11
300.1081608273
 21
84.6197177551
  0
LINE
  5
6CF
100
AcDbEntity
  8
0
100
AcDbLine
 62
7
  6
CONTINUOUS
 10
300.1081608273
 20
84.6197177551
 11
300.1047107343
 21
84.6053692897
  0
LINE
  5
6D0
100
AcDbEntity
  8
0
100
AcDbLine
 62
7
  6
CONTINUOUS
 10
300.1047107343
 20
84.6053692897
 11
300.0883564138
 21
84.5373540589
  0
LINE
  5
6D1
100
AcDbEntity
  8
0
100
AcDbLine
 62
7
  6
CONTINUOUS
 10
300.0883564138
 20
84.5373540589
 11
300.0495369385
 21
84.4009603004
  0
LINE
  5
6D2
100
AcDbEntity
  8
0
100
AcDbLine
 62
7
  6
CONTINUOUS
 10
300.1924881682
 20
85.7551288045
 11
300.1582530652
 21
85.6905456999
  0
LINE
  5
6D3
100
AcDbEntity
  8
0
100
AcDbLine
 62
7
  6
CONTINUOUS
 10
300.1582530652
 20
85.6905456999
 11
300.1509598603
 21
85.6768191658
  0
LINE
  5
6D4
100
AcDbEntity
  8
0
100
AcDbLine
 62
7
  6
CONTINUOUS
 10
300.1509598603
 20
85.6768191658
 11
300.128912529
 21
85.6250485264
  0
LINE
  5
6D5
100
AcDbEntity
  8
0
100
AcDbLine
 62
7
  6
CONTINUOUS
 10
300.128912529
 20
85.6250485264
 11
300.0844234253
 21
85.5208152772
  0
LINE
  5
6D6
100
AcDbEntity
  8
0
100
AcDbLine
 62
7
  6
CONTINUOUS
 10
300.0844234253
 20
85.5208152772
 11
300.0619814826
 21
85.468352679
  0
LINE
  5
6D7
100
AcDbEntity
  8
0
100
AcDbLine
 62
7
  6
CONTINUOUS
 10
300.0619814826
 20
85.468352679
 11
300.0378299774
 21
85.401928059
  0
LINE
  5
6D8
100
AcDbEntity
  8
0
100
AcDbLine
 62
7
  6
CONTINUOUS
 10
300.0378299774
 20
85.401928059
 11
300.0304282695
 21
85.381582948
  0
LINE
  5
6D9
100
AcDbEntity
  8
0
100
AcDbLine
 62
7
  6
CONTINUOUS
 10
300.0486673363
 20
85.0282280164
 11
300.0517625597
 21
85.0821755007
  0
LINE
  5
6DA
100
AcDbEntity
  8
0
100
AcDbLine
 62
7
  6
CONTINUOUS
 10
300.0517625597
 20
85.0821755007
 11
300.0548199154
 21
85.1361302293
  0
LINE
  5
6DB
100
AcDbEntity
  8
0
100
AcDbLine
 62
7
  6
CONTINUOUS
 10
300.0548199154
 20
85.1361302293
 11
300.0608207413
 21
85.2440614274
  0
LINE
  5
6DC
100
AcDbEntity
  8
0
100
AcDbLine
 62
7
  6
CONTINUOUS
 10
300.0203888107
 20
84.7690121131
 11
300.0416452807
 21
84.9634642462
  0
LINE
  5
6DD
100
AcDbEntity
  8
0
100
AcDbLine
 62
7
  6
CONTINUOUS
 10
300.0416452807
 20
84.9634642462
 11
300.0486673363
 21
85.0282280164
  0
LINE
  5
6DE
100
AcDbEntity
  8
0
100
AcDbLine
 62
7
  6
CONTINUOUS
 10
299.9761981398
 20
84.4664089712
 11
300.0203888107
 21
84.7690121131
  0
LINE
  5
6DF
100
AcDbEntity
  8
0
100
AcDbLine
 62
7
  6
CONTINUOUS
 10
299.9008613474
 20
84.0770360983
 11
299.9761981398
 21
84.4664089712
  0
LINE
  5
6E0
100
AcDbEntity
  8
0
100
AcDbLine
 62
7
  6
CONTINUOUS
 10
299.8371101206
 20
83.7913510106
 11
299.8949207135
 21
84.0504132158
  0
LINE
  5
6E1
100
AcDbEntity
  8
0
100
AcDbLine
 62
7
  6
CONTINUOUS
 10
299.8949207135
 20
84.0504132158
 11
299.9008613474
 21
84.0770360983
  0
SPLINE
  5
6E2
100
AcDbEntity
  8
0
100
AcDbSpline
 62
7
  6
CONTINUOUS
 70
0
 71
3
 72
8
 73
4
 74
0
 42
0.0000001
 43
0.0000001
 44
0.0000000001
 40
0.0
 40
0.0
 40
0.0
 40
0.0
 40
1.0
 40
1.0
 40
1.0
 40
1.0
 10
300.8156312578
 20
91.2611819371
 30
0.0
 10
300.7092302539
 20
90.9863214019
 30
0.0
 10
300.6025850944
 20
90.7115552939
 30
0.0
 10
300.4957341163
 20
90.4368693716
 30
0.0
  0
LINE
  5
6E3
100
AcDbEntity
  8
0
100
AcDbLine
 62
7
  6
CONTINUOUS
 10
300.4716717799
 20
90.0738436704
 11
300.4782234319
 21
90.1710046513
  0
LINE
  5
6E4
100
AcDbEntity
  8
0
100
AcDbLine
 62
7
  6
CONTINUOUS
 10
300.4782234319
 20
90.1710046513
 11
300.4957341163
 21
90.4368693716
  0
LINE
  5
6E5
100
AcDbEntity
  8
0
100
AcDbLine
 62
7
  6
CONTINUOUS
 10
300.6811808616
 20
89.4985026408
 11
300.4960450004
 21
89.0098181013
  0
LINE
  5
6E6
100
AcDbEntity
  8
0
100
AcDbLine
 62
7
  6
CONTINUOUS
 10
300.4960450004
 20
89.0098181013
 11
300.4748602123
 21
88.9540356697
  0
LINE
  5
6E7
100
AcDbEntity
  8
0
100
AcDbLine
 62
7
  6
CONTINUOUS
 10
300.4748602123
 20
88.9540356697
 11
300.3757934193
 21
88.6935312263
  0
LINE
  5
6E8
100
AcDbEntity
  8
0
100
AcDbLine
 62
7
  6
CONTINUOUS
 10
300.3757934193
 20
88.6935312263
 11
300.3047558858
 21
88.5070757665
  0
LINE
  5
6E9
100
AcDbEntity
  8
0
100
AcDbLine
 62
7
  6
CONTINUOUS
 10
300.3047558858
 20
88.5070757665
 11
300.1073243391
 21
87.990274601
  0
LINE
  5
6EA
100
AcDbEntity
  8
0
100
AcDbLine
 62
7
  6
CONTINUOUS
 10
300.1073243391
 20
87.990274601
 11
300.0107342323
 21
87.7381454377
  0
LINE
  5
6EB
100
AcDbEntity
  8
0
100
AcDbLine
 62
7
  6
CONTINUOUS
 10
300.0107342323
 20
87.7381454377
 11
299.9037594555
 21
87.4594137206
  0
LINE
  5
6EC
100
AcDbEntity
  8
0
100
AcDbLine
 62
7
  6
CONTINUOUS
 10
300.3944056064
 20
90.1765601788
 11
300.210307674
 21
89.7044943071
  0
LINE
  5
6ED
100
AcDbEntity
  8
0
100
AcDbLine
 62
7
  6
CONTINUOUS
 10
300.210307674
 20
89.7044943071
 11
300.1165891725
 21
89.4645856513
  0
LINE
  5
6EE
100
AcDbEntity
  8
0
100
AcDbLine
 62
7
  6
CONTINUOUS
 10
300.1165891725
 20
89.4645856513
 11
300.0217593196
 21
89.2220930169
  0
LINE
  5
6EF
100
AcDbEntity
  8
0
100
AcDbLine
 62
7
  6
CONTINUOUS
 10
300.7852928007
 20
92.9963023192
 11
300.7360889393
 21
92.9179903073
  0
LINE
  5
6F0
100
AcDbEntity
  8
0
100
AcDbLine
 62
7
  6
CONTINUOUS
 10
300.7360889393
 20
92.9179903073
 11
300.701659236
 21
92.8312205764
  0
LINE
  5
6F1
100
AcDbEntity
  8
0
100
AcDbLine
 62
7
  6
CONTINUOUS
 10
300.6476325379
 20
92.6492232739
 11
300.701659236
 21
92.8312205764
  0
LINE
  5
6F2
100
AcDbEntity
  8
0
100
AcDbLine
 62
7
  6
CONTINUOUS
 10
300.605989754
 20
92.4069230518
 11
300.6476325379
 21
92.6492232739
  0
LINE
  5
6F3
100
AcDbEntity
  8
0
100
AcDbLine
 62
7
  6
CONTINUOUS
 10
300.5813826372
 20
92.208007695
 11
300.605989754
 21
92.4069230518
  0
LINE
  5
6F4
100
AcDbEntity
  8
0
100
AcDbLine
 62
7
  6
CONTINUOUS
 10
300.5352409957
 20
91.5943435706
 11
300.5659046538
 21
91.8969467126
  0
LINE
  5
6F5
100
AcDbEntity
  8
0
100
AcDbLine
 62
7
  6
CONTINUOUS
 10
300.4898509293
 20
91.3002006424
 11
300.5352409957
 21
91.5943435706
  0
LINE
  5
6F6
100
AcDbEntity
  8
0
100
AcDbLine
 62
7
  6
CONTINUOUS
 10
300.4101106729
 20
90.9192867967
 11
300.4898509293
 21
91.3002006424
  0
LINE
  5
6F7
100
AcDbEntity
  8
0
100
AcDbLine
 62
7
  6
CONTINUOUS
 10
300.3361023618
 20
90.6420606754
 11
300.3546368534
 21
90.7114858246
  0
LINE
  5
6F8
100
AcDbEntity
  8
0
100
AcDbLine
 62
7
  6
CONTINUOUS
 10
300.3546368534
 20
90.7114858246
 11
300.4028090267
 21
90.8919343823
  0
LINE
  5
6F9
100
AcDbEntity
  8
0
100
AcDbLine
 62
7
  6
CONTINUOUS
 10
300.4028090267
 20
90.8919343823
 11
300.4101106729
 21
90.9192867967
  0
LINE
  5
6FA
100
AcDbEntity
  8
0
100
AcDbLine
 62
7
  6
CONTINUOUS
 10
300.3361023618
 20
90.6420606754
 11
300.2508548727
 21
90.425136348
  0
LINE
  5
6FB
100
AcDbEntity
  8
0
100
AcDbLine
 62
7
  6
CONTINUOUS
 10
300.3095560579
 20
91.937056395
 11
300.3635452379
 21
92.1190536974
  0
LINE
  5
6FC
100
AcDbEntity
  8
0
100
AcDbLine
 62
7
  6
CONTINUOUS
 10
300.2511617079
 20
91.6513712769
 11
300.2950195495
 21
91.8658859828
  0
LINE
  5
6FD
100
AcDbEntity
  8
0
100
AcDbLine
 62
7
  6
CONTINUOUS
 10
300.2950195495
 20
91.8658859828
 11
300.3095560579
 21
91.937056395
  0
LINE
  5
6FE
100
AcDbEntity
  8
0
100
AcDbLine
 62
7
  6
CONTINUOUS
 10
300.2248384731
 20
91.4006120276
 11
300.2511617079
 21
91.6513712769
  0
LINE
  5
6FF
100
AcDbEntity
  8
0
100
AcDbLine
 62
7
  6
CONTINUOUS
 10
300.2055934238
 20
90.9858644465
 11
300.2153995479
 21
91.1931947999
  0
LINE
  5
700
100
AcDbEntity
  8
0
100
AcDbLine
 62
7
  6
CONTINUOUS
 10
300.2153995479
 20
91.1931947999
 11
300.2248384731
 21
91.4006120276
  0
LINE
  5
701
100
AcDbEntity
  8
0
100
AcDbLine
 62
7
  6
CONTINUOUS
 10
300.8795066899
 20
92.5138848942
 11
300.9108371307
 21
92.8164868495
  0
LINE
  5
702
100
AcDbEntity
  8
0
100
AcDbLine
 62
7
  6
CONTINUOUS
 10
300.816611543
 20
92.1763559139
 11
300.8795066899
 21
92.5138848942
  0
LINE
  5
703
100
AcDbEntity
  8
0
100
AcDbLine
 62
7
  6
CONTINUOUS
 10
300.739546441
 20
91.8472859608
 11
300.7781676852
 21
92.0121681666
  0
LINE
  5
704
100
AcDbEntity
  8
0
100
AcDbLine
 62
7
  6
CONTINUOUS
 10
300.7781676852
 20
92.0121681666
 11
300.7990135497
 21
92.1011897481
  0
LINE
  5
705
100
AcDbEntity
  8
0
100
AcDbLine
 62
7
  6
CONTINUOUS
 10
300.7990135497
 20
92.1011897481
 11
300.816611543
 21
92.1763559139
  0
LINE
  5
706
100
AcDbEntity
  8
0
100
AcDbLine
 62
7
  6
CONTINUOUS
 10
300.6855066012
 20
91.6652886584
 11
300.739546441
 21
91.8472859608
  0
LINE
  5
707
100
AcDbEntity
  8
0
100
AcDbLine
 62
7
  6
CONTINUOUS
 10
300.5476794648
 20
93.2353272976
 11
300.4609471219
 21
93.0184029095
  0
LINE
  5
708
100
AcDbEntity
  8
0
100
AcDbLine
 62
7
  6
CONTINUOUS
 10
300.3036975756
 20
93.6817255037
 11
300.1989387227
 21
93.4214162804
  0
LINE
  5
709
100
AcDbEntity
  8
0
100
AcDbLine
 62
7
  6
CONTINUOUS
 10
301.0461651673
 20
96.7539067981
 11
301.047629762
 21
96.8598604544
  0
LINE
  5
70A
100
AcDbEntity
  8
0
100
AcDbLine
 62
7
  6
CONTINUOUS
 10
301.0189650882
 20
95.4605052007
 11
300.9143638531
 21
95.2001960078
  0
LINE
  5
70B
100
AcDbEntity
  8
0
100
AcDbLine
 62
7
  6
CONTINUOUS
 10
300.944384336
 20
96.7555009203
 11
300.7164567204
 21
96.1914975476
  0
LINE
  5
70C
100
AcDbEntity
  8
0
100
AcDbLine
 62
7
  6
CONTINUOUS
 10
300.7122019934
 20
95.8543079702
 11
300.7132521601
 21
95.9299008566
  0
LINE
  5
70D
100
AcDbEntity
  8
0
100
AcDbLine
 62
7
  6
CONTINUOUS
 10
300.7132521601
 20
95.9299008566
 11
300.7164567204
 21
96.1914975476
  0
LINE
  5
70E
100
AcDbEntity
  8
0
100
AcDbLine
 62
7
  6
CONTINUOUS
 10
300.6928319581
 20
94.843567019
 11
300.5880565448
 21
94.5832578262
  0
LINE
  5
70F
100
AcDbEntity
  8
0
100
AcDbLine
 62
7
  6
CONTINUOUS
 10
300.6112524911
 20
95.9311883548
 11
300.4011599239
 21
95.4113808824
  0
LINE
  5
710
100
AcDbEntity
  8
0
100
AcDbLine
 62
7
  6
CONTINUOUS
 10
300.4011599239
 20
95.4113808824
 11
300.3339259665
 21
95.2450394876
  0
LINE
  5
711
100
AcDbEntity
  8
0
100
AcDbLine
 62
7
  6
CONTINUOUS
 10
300.3339259665
 20
95.2450394876
 11
300.3306887228
 21
95.2370304161
  0
LINE
  5
712
100
AcDbEntity
  8
0
100
AcDbLine
 62
7
  6
CONTINUOUS
 10
300.4410418249
 20
96.2231493895
 11
300.3534652595
 21
96.0580677378
  0
SPLINE
  5
713
100
AcDbEntity
  8
0
100
AcDbSpline
 62
7
  6
CONTINUOUS
 70
0
 71
3
 72
9
 73
5
 74
0
 42
0.0000001
 43
0.0000001
 44
0.0000000001
 40
0.0
 40
0.0
 40
0.0
 40
0.0
 40
0.4311372032
 40
1.0
 40
1.0
 40
1.0
 40
1.0
 10
286.2312023016
 20
93.4623070708
 30
0.0
 10
286.2397057086
 20
93.6387974304
 30
0.0
 10
286.2488771173
 20
94.0485996487
 30
0.0
 10
286.2562235774
 20
94.4583439184
 30
0.0
 10
286.2596830784
 20
94.6914581008
 30
0.0
  0
LINE
  5
714
100
AcDbEntity
  8
0
100
AcDbLine
 62
7
  6
CONTINUOUS
 10
300.9952693637
 20
99.270456778
 11
300.9222896697
 21
99.3042916999
  0
LINE
  5
715
100
AcDbEntity
  8
0
100
AcDbLine
 62
7
  6
CONTINUOUS
 10
301.055560662
 20
98.4674284269
 11
301.0544797282
 21
98.7007369482
  0
LINE
  5
716
100
AcDbEntity
  8
0
100
AcDbLine
 62
7
  6
CONTINUOUS
 10
301.0544797282
 20
98.7007369482
 11
301.0528334983
 21
98.9340199006
  0
LINE
  5
717
100
AcDbEntity
  8
0
100
AcDbLine
 62
7
  6
CONTINUOUS
 10
301.0033674701
 20
97.8706823568
 11
301.0385453297
 21
98.1648264716
  0
LINE
  5
718
100
AcDbEntity
  8
0
100
AcDbLine
 62
7
  6
CONTINUOUS
 10
300.932648989
 20
97.489768511
 11
301.0033674701
 21
97.8706823568
  0
LINE
  5
719
100
AcDbEntity
  8
0
100
AcDbLine
 62
7
  6
CONTINUOUS
 10
300.8447022863
 20
97.2210013561
 11
300.932648989
 21
97.489768511
  0
SPLINE
  5
71A
100
AcDbEntity
  8
0
100
AcDbSpline
 62
7
  6
CONTINUOUS
 70
0
 71
3
 72
12
 73
8
 74
0
 42
0.0000001
 43
0.0000001
 44
0.0000000001
 40
0.0
 40
0.0
 40
0.0
 40
0.0
 40
0.0460043477
 40
0.1173020368
 40
0.3317747491
 40
0.6312891067
 40
1.0
 40
1.0
 40
1.0
 40
1.0
 10
286.6326643456
 20
90.2929584464
 30
0.0
 10
286.6348307613
 20
90.3039861131
 30
0.0
 10
286.6358847304
 20
90.3328153284
 30
0.0
 10
286.6336322974
 20
90.4137268413
 30
0.0
 10
286.6218746803
 20
90.5563733189
 30
0.0
 10
286.6055974402
 20
90.7713227897
 30
0.0
 10
286.5974127455
 20
90.934423847
 30
0.0
 10
286.5948087422
 20
91.024458977
 30
0.0
  0
LINE
  5
71B
100
AcDbEntity
  8
0
100
AcDbLine
 62
7
  6
CONTINUOUS
 10
300.8913755002
 20
98.9064609865
 11
300.8375277229
 21
98.8799928672
  0
LINE
  5
71C
100
AcDbEntity
  8
0
100
AcDbLine
 62
7
  6
CONTINUOUS
 10
300.8375277229
 20
98.8799928672
 11
300.7667574412
 21
98.7582972979
  0
LINE
  5
71D
100
AcDbEntity
  8
0
100
AcDbLine
 62
7
  6
CONTINUOUS
 10
300.5038472667
 20
98.1075242551
 11
300.5698907035
 21
98.2709913966
  0
LINE
  5
71E
100
AcDbEntity
  8
0
100
AcDbLine
 62
7
  6
CONTINUOUS
 10
300.5698907035
 20
98.2709913966
 11
300.6112814164
 21
98.3734421255
  0
LINE
  5
71F
100
AcDbEntity
  8
0
100
AcDbLine
 62
7
  6
CONTINUOUS
 10
300.6112814164
 20
98.3734421255
 11
300.7013458427
 21
98.5963779127
  0
LINE
  5
720
100
AcDbEntity
  8
0
100
AcDbLine
 62
7
  6
CONTINUOUS
 10
300.7013458427
 20
98.5963779127
 11
300.7667574412
 21
98.7582972979
  0
LINE
  5
721
100
AcDbEntity
  8
0
100
AcDbLine
 62
7
  6
CONTINUOUS
 10
300.4343540195
 20
97.8821409006
 11
300.5038472667
 21
98.1075242551
  0
LINE
  5
722
100
AcDbEntity
  8
0
100
AcDbLine
 62
7
  6
CONTINUOUS
 10
300.3829192799
 20
97.6482997055
 11
300.4281948729
 21
97.8541100465
  0
LINE
  5
723
100
AcDbEntity
  8
0
100
AcDbLine
 62
7
  6
CONTINUOUS
 10
300.4281948729
 20
97.8541100465
 11
300.4343540195
 21
97.8821409006
  0
LINE
  5
724
100
AcDbEntity
  8
0
100
AcDbLine
 62
7
  6
CONTINUOUS
 10
300.3493927345
 20
97.405999453
 11
300.3829192799
 21
97.6482997055
  0
LINE
  5
725
100
AcDbEntity
  8
0
100
AcDbLine
 62
7
  6
CONTINUOUS
 10
300.3335607296
 20
97.1552402036
 11
300.3493927345
 21
97.405999453
  0
LINE
  5
726
100
AcDbEntity
  8
0
100
AcDbLine
 62
7
  6
CONTINUOUS
 10
300.3359635446
 20
96.6886487299
 11
300.3350112162
 21
96.9219544928
  0
LINE
  5
727
100
AcDbEntity
  8
0
100
AcDbLine
 62
7
  6
CONTINUOUS
 10
300.3350112162
 20
96.9219544928
 11
300.3335607296
 21
97.1552402036
  0
LINE
  5
728
100
AcDbEntity
  8
0
100
AcDbLine
 62
7
  6
CONTINUOUS
 10
300.4416512548
 20
96.4564436357
 11
300.4417416441
 21
96.534210372
  0
LINE
  5
729
100
AcDbEntity
  8
0
100
AcDbLine
 62
7
  6
CONTINUOUS
 10
300.2124377305
 20
98.1391749104
 11
300.2422309848
 21
98.2130392751
  0
LINE
  5
72A
100
AcDbEntity
  8
0
100
AcDbLine
 62
7
  6
CONTINUOUS
 10
300.2422309848
 20
98.2130392751
 11
300.3194891076
 21
98.4045903461
  0
LINE
  5
72B
100
AcDbEntity
  8
0
100
AcDbLine
 62
7
  6
CONTINUOUS
 10
300.3194891076
 20
98.4045903461
 11
300.3495341362
 21
98.4790870584
  0
LINE
  5
72C
100
AcDbEntity
  8
0
100
AcDbLine
 62
7
  6
CONTINUOUS
 10
300.3495341362
 20
98.4790870584
 11
300.4135809819
 21
98.6378992958
  0
LINE
  5
72D
100
AcDbEntity
  8
0
100
AcDbLine
 62
7
  6
CONTINUOUS
 10
300.4135809819
 20
98.6378992958
 11
300.4218747515
 21
98.6584655496
  0
LINE
  5
72E
100
AcDbEntity
  8
0
100
AcDbLine
 62
7
  6
CONTINUOUS
 10
300.4218747515
 20
98.6584655496
 11
300.4677474677
 21
98.772220595
  0
LINE
  5
72F
100
AcDbEntity
  8
0
100
AcDbLine
 62
7
  6
CONTINUOUS
 10
300.4677474677
 20
98.772220595
 11
300.504736559
 21
98.8639503103
  0
LINE
  5
730
100
AcDbEntity
  8
0
100
AcDbLine
 62
7
  6
CONTINUOUS
 10
300.504736559
 20
98.8639503103
 11
300.61198825
 21
99.1299473108
  0
LINE
  5
731
100
AcDbEntity
  8
0
100
AcDbLine
 62
7
  6
CONTINUOUS
 10
300.61198825
 20
99.1299473108
 11
300.6287051868
 21
99.1714103572
  0
LINE
  5
732
100
AcDbEntity
  8
0
100
AcDbLine
 62
7
  6
CONTINUOUS
 10
300.6287051868
 20
99.1714103572
 11
300.6815901263
 21
99.3025865335
  0
LINE
  5
733
100
AcDbEntity
  8
0
100
AcDbLine
 62
7
  6
CONTINUOUS
 10
300.6815901263
 20
99.3025865335
 11
300.7158304391
 21
99.3875210561
  0
LINE
  5
734
100
AcDbEntity
  8
0
100
AcDbLine
 62
7
  6
CONTINUOUS
 10
300.7158304391
 20
99.3875210561
 11
301.03453303
 21
100.1782638306
  0
SPLINE
  5
735
100
AcDbEntity
  8
0
100
AcDbSpline
 62
7
  6
CONTINUOUS
 70
0
 71
3
 72
18
 73
14
 74
0
 42
0.0000001
 43
0.0000001
 44
0.0000000001
 40
0.0
 40
0.0
 40
0.0
 40
0.0
 40
0.2143292487
 40
0.4087248848
 40
0.5795403296
 40
0.724074286
 40
0.8399889035
 40
0.886624548
 40
0.9254255779
 40
0.9562034503
 40
0.978876095
 40
0.993419521
 40
1.0
 40
1.0
 40
1.0
 40
1.0
 10
290.9843356381
 20
77.4265973785
 30
0.0
 10
290.9977492304
 20
77.3531597763
 30
0.0
 10
291.0230380111
 20
77.213060926
 30
0.0
 10
291.0579374222
 20
77.014242473
 30
0.0
 10
291.0876248235
 20
76.8391891731
 30
0.0
 10
291.1116332827
 20
76.6909155223
 30
0.0
 10
291.1276829989
 20
76.5851410321
 30
0.0
 10
291.1372343656
 20
76.5156947493
 30
0.0
 10
291.1423322646
 20
76.4754649466
 30
0.0
 10
291.1456322555
 20
76.4436896533
 30
0.0
 10
291.1478291003
 20
76.4196622786
 30
0.0
 10
291.1475659636
 20
76.4052001404
 30
0.0
 10
291.1476349095
 20
76.3968370055
 30
0.0
 10
291.1460031914
 20
76.3952273751
 30
0.0
  0
SPLINE
  5
736
100
AcDbEntity
  8
0
100
AcDbSpline
 62
7
  6
CONTINUOUS
 70
0
 71
3
 72
12
 73
8
 74
0
 42
0.0000001
 43
0.0000001
 44
0.0000000001
 40
0.0
 40
0.0
 40
0.0
 40
0.0
 40
0.4062150131
 40
0.7029384934
 40
0.8107739936
 40
0.8931191848
 40
1.0
 40
1.0
 40
1.0
 40
1.0
 10
291.0667180553
 20
80.3773772005
 30
0.0
 10
291.0660497567
 20
80.3526354602
 30
0.0
 10
291.063798594
 20
80.3098342202
 30
0.0
 10
291.0575218124
 20
80.2607578301
 30
0.0
 10
291.0490814463
 20
80.2320572969
 30
0.0
 10
291.0420957707
 20
80.2157543907
 30
0.0
 10
291.0317819797
 20
80.2065498976
 30
0.0
 10
291.0252697132
 20
80.2065430126
 30
0.0
  0
SPLINE
  5
737
100
AcDbEntity
  8
0
100
AcDbSpline
 62
7
  6
CONTINUOUS
 70
0
 71
3
 72
9
 73
5
 74
0
 42
0.0000001
 43
0.0000001
 44
0.0000000001
 40
0.0
 40
0.0
 40
0.0
 40
0.0
 40
0.555885167
 40
1.0
 40
1.0
 40
1.0
 40
1.0
 10
291.0727475781
 20
97.5832203499
 30
0.0
 10
291.0998564493
 20
95.031661409
 30
0.0
 10
291.1353285371
 20
90.4414394533
 30
0.0
 10
291.1361166393
 20
85.8509789284
 30
0.0
 10
291.1198983528
 20
83.8124045381
 30
0.0
  0
LINE
  5
738
100
AcDbEntity
  8
0
100
AcDbLine
 62
7
  6
CONTINUOUS
 10
291.1198983528
 20
83.8124045381
 11
291.1180967295
 21
83.5951014299
  0
SPLINE
  5
739
100
AcDbEntity
  8
0
100
AcDbSpline
 62
7
  6
CONTINUOUS
 70
0
 71
3
 72
9
 73
5
 74
0
 42
0.0000001
 43
0.0000001
 44
0.0000000001
 40
0.0
 40
0.0
 40
0.0
 40
0.0
 40
0.2868767125
 40
1.0
 40
1.0
 40
1.0
 40
1.0
 10
291.1180967295
 20
83.5951014299
 30
0.0
 10
291.115440491
 20
83.2873749183
 30
0.0
 10
291.1044963994
 20
82.214718014
 30
0.0
 10
291.0873733939
 20
81.1420788807
 30
0.0
 10
291.0667180553
 20
80.3773772005
 30
0.0
  0
LINE
  5
73A
100
AcDbEntity
  8
0
100
AcDbLine
 62
7
  6
CONTINUOUS
 10
289.8068536239
 20
84.2455755221
 11
289.8051425281
 21
84.2561852112
  0
SPLINE
  5
73B
100
AcDbEntity
  8
0
100
AcDbSpline
 62
7
  6
CONTINUOUS
 70
0
 71
3
 72
12
 73
8
 74
0
 42
0.0000001
 43
0.0000001
 44
0.0000000001
 40
0.0
 40
0.0
 40
0.0
 40
0.0
 40
0.0795528809
 40
0.1825559717
 40
0.4397250075
 40
0.728241361
 40
1.0
 40
1.0
 40
1.0
 40
1.0
 10
289.1351238866
 20
87.425088081
 30
0.0
 10
289.160391853
 20
87.3429548881
 30
0.0
 10
289.2134111634
 20
87.1529656949
 30
0.0
 10
289.3297491178
 20
86.6924309763
 30
0.0
 10
289.4821482714
 20
86.0083583302
 30
0.0
 10
289.6537102156
 20
85.1421442979
 30
0.0
 10
289.758411944
 20
84.5459924471
 30
0.0
 10
289.8051425281
 20
84.2561852112
 30
0.0
  0
LINE
  5
73C
100
AcDbEntity
  8
0
100
AcDbLine
 62
7
  6
CONTINUOUS
 10
300.526992474
 20
102.4111191047
 11
300.4875201275
 21
102.3113211384
  0
LINE
  5
73D
100
AcDbEntity
  8
0
100
AcDbLine
 62
7
  6
CONTINUOUS
 10
300.4875201275
 20
102.3113211384
 11
300.4193256704
 21
102.1389771006
  0
LINE
  5
73E
100
AcDbEntity
  8
0
100
AcDbLine
 62
7
  6
CONTINUOUS
 10
300.4193256704
 20
102.1389771006
 11
300.383166372
 21
102.0476298355
  0
LINE
  5
73F
100
AcDbEntity
  8
0
100
AcDbLine
 62
7
  6
CONTINUOUS
 10
300.383166372
 20
102.0476298355
 11
300.2947685395
 21
101.8825488074
  0
LINE
  5
740
100
AcDbEntity
  8
0
100
AcDbLine
 62
7
  6
CONTINUOUS
 10
300.2947685395
 20
101.8825488074
 11
300.2210370565
 21
101.8126965071
  0
SPLINE
  5
741
100
AcDbEntity
  8
0
100
AcDbSpline
 62
7
  6
CONTINUOUS
 70
0
 71
3
 72
9
 73
5
 74
0
 42
0.0000001
 43
0.0000001
 44
0.0000000001
 40
0.0
 40
0.0
 40
0.0
 40
0.0
 40
0.2528875778
 40
1.0
 40
1.0
 40
1.0
 40
1.0
 10
287.2659962979
 20
97.154317875
 30
0.0
 10
287.2665666247
 20
97.1869352184
 30
0.0
 10
287.2699647648
 20
97.3158897639
 30
0.0
 10
287.2780993344
 20
97.444739707
 30
0.0
 10
287.2873355332
 20
97.5406731202
 30
0.0
  0
SPLINE
  5
742
100
AcDbEntity
  8
0
100
AcDbSpline
 62
7
  6
CONTINUOUS
 70
0
 71
3
 72
9
 73
5
 74
0
 42
0.0000001
 43
0.0000001
 44
0.0000000001
 40
0.0
 40
0.0
 40
0.0
 40
0.0
 40
0.7538542727
 40
1.0
 40
1.0
 40
1.0
 40
1.0
 10
286.627833569
 20
93.060559933
 30
0.0
 10
286.634647675
 20
93.4863811963
 30
0.0
 10
286.7036959714
 20
94.0535043896
 30
0.0
 10
286.8574757169
 20
94.5974148683
 30
0.0
 10
286.9004681307
 20
94.7296572793
 30
0.0
  0
SPLINE
  5
743
100
AcDbEntity
  8
0
100
AcDbSpline
 62
7
  6
CONTINUOUS
 70
0
 71
3
 72
11
 73
7
 74
0
 42
0.0000001
 43
0.0000001
 44
0.0000000001
 40
0.0
 40
0.0
 40
0.0
 40
0.0
 40
0.2163760201
 40
0.4654293651
 40
0.7337405048
 40
1.0
 40
1.0
 40
1.0
 40
1.0
 10
286.2596830784
 20
94.6914581008
 30
0.0
 10
286.2629735468
 20
94.9131822343
 30
0.0
 10
286.3145359041
 20
95.389871091
 30
0.0
 10
286.5062633734
 20
96.1193412965
 30
0.0
 10
286.8083043687
 20
96.8653207489
 30
0.0
 10
287.0566538762
 20
97.3538272054
 30
0.0
 10
287.1803826846
 20
97.5970340133
 30
0.0
  0
SPLINE
  5
744
100
AcDbEntity
  8
0
100
AcDbSpline
 62
7
  6
CONTINUOUS
 70
0
 71
3
 72
9
 73
5
 74
0
 42
0.0000001
 43
0.0000001
 44
0.0000000001
 40
0.0
 40
0.0
 40
0.0
 40
0.0
 40
0.2550811617
 40
1.0
 40
1.0
 40
1.0
 40
1.0
 10
287.2290321728
 20
97.6928683369
 30
0.0
 10
287.2368124335
 20
97.7082442724
 30
0.0
 10
287.2672622628
 20
97.7685486611
 30
0.0
 10
287.2974385998
 20
97.8289923223
 30
0.0
 10
287.319610455
 20
97.8741685943
 30
0.0
  0
LINE
  5
745
100
AcDbEntity
  8
BEZUGSACHSEN
100
AcDbLine
 62
7
  6
CONTINUOUS
 10
285.2411533062
 20
200.4359203499
 11
285.2410871553
 21
200.3555374108
  0
SPLINE
  5
746
100
AcDbEntity
  8
BEZUGSACHSEN
100
AcDbSpline
 62
7
  6
CONTINUOUS
 70
0
 71
3
 72
9
 73
5
 74
0
 42
0.0000001
 43
0.0000001
 44
0.0000000001
 40
0.0
 40
0.0
 40
0.0
 40
0.0
 40
0.2106594455
 40
1.0
 40
1.0
 40
1.0
 40
1.0
 10
284.6347635117
 20
198.549976626
 30
0.0
 10
284.6354312071
 20
198.5509560985
 30
0.0
 10
284.6387355153
 20
198.5555137418
 30
0.0
 10
284.6424161275
 20
198.5597844504
 30
0.0
 10
284.6453841953
 20
198.563088893
 30
0.0
  0
SPLINE
  5
747
100
AcDbEntity
  8
BEZUGSACHSEN
100
AcDbSpline
 62
7
  6
CONTINUOUS
 70
0
 71
3
 72
12
 73
8
 74
0
 42
0.0000001
 43
0.0000001
 44
0.0000000001
 40
0.0
 40
0.0
 40
0.0
 40
0.0
 40
0.3524027271
 40
0.6581832379
 40
0.8875587338
 40
0.9617150626
 40
1.0
 40
1.0
 40
1.0
 40
1.0
 10
285.2410871532
 20
200.3555356763
 30
0.0
 10
285.2407113745
 20
200.1272485282
 30
0.0
 10
285.1894433813
 20
199.6992715011
 30
0.0
 10
285.0009345291
 20
199.1526413668
 30
0.0
 10
284.8121413698
 20
198.8043265088
 30
0.0
 10
284.6884565495
 20
198.6206310027
 30
0.0
 10
284.6459079442
 20
198.5614700849
 30
0.0
 10
284.6306564908
 20
198.5419128068
 30
0.0
  0
SPLINE
  5
748
100
AcDbEntity
  8
BEZUGSACHSEN
100
AcDbSpline
 62
7
  6
CONTINUOUS
 70
0
 71
3
 72
9
 73
5
 74
0
 42
0.0000001
 43
0.0000001
 44
0.0000000001
 40
0.0
 40
0.0
 40
0.0
 40
0.0
 40
0.7377152124
 40
1.0
 40
1.0
 40
1.0
 40
1.0
 10
284.6306564908
 20
198.5419128068
 30
0.0
 10
284.6294836851
 20
198.5404088919
 30
0.0
 10
284.6276756578
 20
198.5390386537
 30
0.0
 10
284.6263685521
 20
198.5359279895
 30
0.0
 10
284.6256913294
 20
198.5359617322
 30
0.0
  0
SPLINE
  5
749
100
AcDbEntity
  8
BEZUGSACHSEN
100
AcDbSpline
 62
7
  6
CONTINUOUS
 70
0
 71
3
 72
9
 73
5
 74
0
 42
0.0000001
 43
0.0000001
 44
0.0000000001
 40
0.0
 40
0.0
 40
0.0
 40
0.0
 40
0.3785984785
 40
1.0
 40
1.0
 40
1.0
 40
1.0
 10
306.1194964733
 20
198.5499766269
 30
0.0
 10
306.1206436832
 20
198.5482937097
 30
0.0
 10
306.1236217099
 20
198.5438186402
 30
0.0
 10
306.1267903478
 20
198.5394441497
 30
0.0
 10
306.1283784735
 20
198.5365025338
 30
0.0
  0
LINE
  5
74A
100
AcDbEntity
  8
0
100
AcDbLine
 62
7
  6
CONTINUOUS
 10
299.6324857462
 20
84.1033355641
 11
299.6919024151
 21
84.4186579608
  0
LINE
  5
74B
100
AcDbEntity
  8
0
100
AcDbLine
 62
7
  6
CONTINUOUS
 10
299.6919024151
 20
84.4186579608
 11
299.7116979672
 21
84.5010311588
  0
LINE
  5
74C
100
AcDbEntity
  8
0
100
AcDbLine
 62
7
  6
CONTINUOUS
 10
299.7116979672
 20
84.5010311588
 11
299.7314764332
 21
84.5833338861
  0
LINE
  5
74D
100
AcDbEntity
  8
0
100
AcDbLine
 62
7
  6
CONTINUOUS
 10
299.7314764332
 20
84.5833338861
 11
299.770982103
 21
84.7477279291
  0
LINE
  5
74E
100
AcDbEntity
  8
0
100
AcDbLine
 62
7
  6
CONTINUOUS
 10
299.8609219438
 20
85.0683376988
 11
299.7935292302
 21
84.8280913647
  0
LINE
  5
74F
100
AcDbEntity
  8
0
100
AcDbLine
 62
7
  6
CONTINUOUS
 10
299.7935292302
 20
84.8280913647
 11
299.770982103
 21
84.7477279291
  0
LINE
  5
750
100
AcDbEntity
  8
0
100
AcDbLine
 62
7
  6
CONTINUOUS
 10
299.9774984764
 20
85.4238768971
 11
299.8902575686
 21
85.157733333
  0
LINE
  5
751
100
AcDbEntity
  8
0
100
AcDbLine
 62
7
  6
CONTINUOUS
 10
299.8902575686
 20
85.157733333
 11
299.8665067726
 21
85.0853528525
  0
LINE
  5
752
100
AcDbEntity
  8
0
100
AcDbLine
 62
7
  6
CONTINUOUS
 10
299.8665067726
 20
85.0853528525
 11
299.8609219438
 21
85.0683376988
  0
SPLINE
  5
753
100
AcDbEntity
  8
0
100
AcDbSpline
 62
7
  6
CONTINUOUS
 70
0
 71
3
 72
11
 73
7
 74
0
 42
0.0000001
 43
0.0000001
 44
0.0000000001
 40
0.0
 40
0.0
 40
0.0
 40
0.0
 40
0.2503069339
 40
0.5003210225
 40
0.750150688
 40
1.0
 40
1.0
 40
1.0
 40
1.0
 10
300.5148039008
 20
83.6018314766
 30
0.0
 10
300.7357790913
 20
85.2374327137
 30
0.0
 10
301.1270356614
 20
88.5139609763
 30
0.0
 10
301.5053223917
 20
93.4476780999
 30
0.0
 10
301.6216003658
 20
98.3921371434
 30
0.0
 10
301.5112719008
 20
101.6869940327
 30
0.0
 10
301.4137372323
 20
103.3315478287
 30
0.0
  0
LINE
  5
754
100
AcDbEntity
  8
0
100
AcDbLine
 62
7
  6
CONTINUOUS
 10
300.0885545438
 20
85.7275709554
 11
300.0610191914
 21
85.6521612054
  0
LINE
  5
755
100
AcDbEntity
  8
0
100
AcDbLine
 62
7
  6
CONTINUOUS
 10
300.0610191914
 20
85.6521612054
 11
300.0333314034
 21
85.576408945
  0
LINE
  5
756
100
AcDbEntity
  8
0
100
AcDbLine
 62
7
  6
CONTINUOUS
 10
300.0333314034
 20
85.576408945
 11
300.0054911687
 21
85.5003141753
  0
LINE
  5
757
100
AcDbEntity
  8
0
100
AcDbLine
 62
7
  6
CONTINUOUS
 10
300.0054911687
 20
85.5003141753
 11
300.0018522406
 21
85.4903734802
  0
LINE
  5
758
100
AcDbEntity
  8
0
100
AcDbLine
 62
7
  6
CONTINUOUS
 10
300.0018522406
 20
85.4903734802
 11
299.9774984764
 21
85.4238768971
  0
LINE
  5
759
100
AcDbEntity
  8
0
100
AcDbLine
 62
7
  6
CONTINUOUS
 10
300.1937930342
 20
85.9794199345
 11
300.141524932
 21
85.8541359166
  0
LINE
  5
75A
100
AcDbEntity
  8
0
100
AcDbLine
 62
7
  6
CONTINUOUS
 10
300.141524932
 20
85.8541359166
 11
300.1138876446
 21
85.7880510224
  0
LINE
  5
75B
100
AcDbEntity
  8
0
100
AcDbLine
 62
7
  6
CONTINUOUS
 10
300.1138876446
 20
85.7880510224
 11
300.0885545438
 21
85.7275709554
  0
SPLINE
  5
75C
100
AcDbEntity
  8
0
100
AcDbSpline
 62
7
  6
CONTINUOUS
 70
0
 71
3
 72
11
 73
7
 74
0
 42
0.0000001
 43
0.0000001
 44
0.0000000001
 40
0.0
 40
0.0
 40
0.0
 40
0.0
 40
0.1219856871
 40
0.3295411633
 40
0.6224572906
 40
1.0
 40
1.0
 40
1.0
 40
1.0
 10
301.8532396708
 20
87.3457673409
 30
0.0
 10
301.8457671568
 20
87.3902774037
 30
0.0
 10
301.8389942414
 20
87.5123846108
 30
0.0
 10
301.8327559598
 20
87.7424019547
 30
0.0
 10
301.8323585716
 20
88.0673796084
 30
0.0
 10
301.8347858725
 20
88.3153977609
 30
0.0
 10
301.8367383228
 20
88.4550695218
 30
0.0
  0
SPLINE
  5
75D
100
AcDbEntity
  8
0
100
AcDbSpline
 62
7
  6
CONTINUOUS
 70
0
 71
3
 72
12
 73
8
 74
0
 42
0.0000001
 43
0.0000001
 44
0.0000000001
 40
0.0
 40
0.0
 40
0.0
 40
0.0
 40
0.0669611379
 40
0.1529056371
 40
0.3774969953
 40
0.6638654424
 40
1.0
 40
1.0
 40
1.0
 40
1.0
 10
301.836738327
 20
88.4550695413
 30
0.0
 10
301.841432935
 20
88.790906331
 30
0.0
 10
301.844171767
 20
89.5578930899
 30
0.0
 10
301.8311959115
 20
91.4513442475
 30
0.0
 10
301.7771059403
 20
94.4449383258
 30
0.0
 10
301.6696221277
 20
98.692515422
 30
0.0
 10
301.5762308976
 20
101.8135356677
 30
0.0
 10
301.5238098036
 20
103.4987339962
 30
0.0
  0
SPLINE
  5
75E
100
AcDbEntity
  8
RUNDUNGEN
100
AcDbSpline
 62
7
  6
CONTINUOUS
 70
0
 71
3
 72
9
 73
5
 74
0
 42
0.0000001
 43
0.0000001
 44
0.0000000001
 40
0.0
 40
0.0
 40
0.0
 40
0.0
 40
0.4877346625
 40
1.0
 40
1.0
 40
1.0
 40
1.0
 10
301.5238097996
 20
103.49873399
 30
0.0
 10
301.485149004
 20
104.7415756816
 30
0.0
 10
301.4572076115
 20
107.2914921313
 30
0.0
 10
301.5162100001
 20
109.8407667686
 30
0.0
 10
301.5684664699
 20
111.1457028408
 30
0.0
  0
SPLINE
  5
75F
100
AcDbEntity
  8
RUNDUNGEN
100
AcDbSpline
 62
7
  6
CONTINUOUS
 70
0
 71
3
 72
9
 73
5
 74
0
 42
0.0000001
 43
0.0000001
 44
0.0000000001
 40
0.0
 40
0.0
 40
0.0
 40
0.0
 40
0.2518841102
 40
1.0
 40
1.0
 40
1.0
 40
1.0
 10
301.5684664699
 20
111.1457028408
 30
0.0
 10
301.5709012873
 20
111.206500389
 30
0.0
 10
301.5802066744
 20
111.4478796221
 30
0.0
 10
301.5882076046
 20
111.689358399
 30
0.0
 10
301.5899549402
 20
111.8700682643
 30
0.0
  0
LINE
  5
760
100
AcDbEntity
  8
0
100
AcDbLine
 62
7
  6
CONTINUOUS
 10
300.0365521783
 20
84.3553543833
 11
300.0590123932
 21
84.5498200713
  0
LINE
  5
761
100
AcDbEntity
  8
0
100
AcDbLine
 62
7
  6
CONTINUOUS
 10
300.0590123932
 20
84.5498200713
 11
300.0664352462
 21
84.6145726598
  0
LINE
  5
762
100
AcDbEntity
  8
0
100
AcDbLine
 62
7
  6
CONTINUOUS
 10
300.1243157736
 20
84.8484150414
 11
300.0953987206
 21
84.7315861469
  0
LINE
  5
763
100
AcDbEntity
  8
0
100
AcDbLine
 62
7
  6
CONTINUOUS
 10
300.0953987206
 20
84.7315861469
 11
300.0809227857
 21
84.6731024775
  0
LINE
  5
764
100
AcDbEntity
  8
0
100
AcDbLine
 62
7
  6
CONTINUOUS
 10
300.0809227857
 20
84.6731024775
 11
300.0664352462
 21
84.6145726598
  0
LINE
  5
765
100
AcDbEntity
  8
0
100
AcDbLine
 62
7
  6
CONTINUOUS
 10
300.1243157736
 20
84.8484150414
 11
300.1485892853
 21
84.9697438364
  0
LINE
  5
766
100
AcDbEntity
  8
0
100
AcDbLine
 62
7
  6
CONTINUOUS
 10
300.1485892853
 20
84.9697438364
 11
300.1606958749
 21
85.0302742207
  0
LINE
  5
767
100
AcDbEntity
  8
0
100
AcDbLine
 62
7
  6
CONTINUOUS
 10
300.1606958749
 20
85.0302742207
 11
300.1727823497
 21
85.0907152636
  0
LINE
  5
768
100
AcDbEntity
  8
0
100
AcDbLine
 62
7
  6
CONTINUOUS
 10
300.1727823497
 20
85.0907152636
 11
300.1810748509
 21
85.1405743491
  0
LINE
  5
769
100
AcDbEntity
  8
0
100
AcDbLine
 62
7
  6
CONTINUOUS
 10
300.1810748509
 20
85.1405743491
 11
300.2058321205
 21
85.2896306203
  0
LINE
  5
76A
100
AcDbEntity
  8
0
100
AcDbLine
 62
7
  6
CONTINUOUS
 10
300.2058321205
 20
85.2896306203
 11
300.2320791169
 21
85.522994709
  0
LINE
  5
76B
100
AcDbEntity
  8
0
100
AcDbLine
 62
7
  6
CONTINUOUS
 10
300.2320791169
 20
85.522994709
 11
300.2366716768
 21
85.5641770935
  0
LINE
  5
76C
100
AcDbEntity
  8
0
100
AcDbLine
 62
7
  6
CONTINUOUS
 10
300.2366716768
 20
85.5641770935
 11
300.2407337648
 21
85.6006916028
  0
LINE
  5
76D
100
AcDbEntity
  8
0
100
AcDbLine
 62
7
  6
CONTINUOUS
 10
300.2407337648
 20
85.6006916028
 11
300.2420147948
 21
85.6847995951
  0
LINE
  5
76E
100
AcDbEntity
  8
0
100
AcDbLine
 62
7
  6
CONTINUOUS
 10
300.2420147948
 20
85.6847995951
 11
300.2424083392
 21
85.7128372286
  0
LINE
  5
76F
100
AcDbEntity
  8
0
100
AcDbLine
 62
7
  6
CONTINUOUS
 10
300.2318086133
 20
85.7644098606
 11
300.2282277572
 21
85.7815979889
  0
SPLINE
  5
770
100
AcDbEntity
  8
BEZUGSACHSEN
100
AcDbSpline
 62
7
  6
CONTINUOUS
 70
0
 71
3
 72
9
 73
5
 74
0
 42
0.0000001
 43
0.0000001
 44
0.0000000001
 40
0.0
 40
0.0
 40
0.0
 40
0.0
 40
0.2578404064
 40
1.0
 40
1.0
 40
1.0
 40
1.0
 10
304.579331552
 20
94.4227441318
 30
0.0
 10
304.5788311231
 20
94.3958668241
 30
0.0
 10
304.5763034284
 20
94.291637597
 30
0.0
 10
304.5717085361
 20
94.1874654074
 30
0.0
 10
304.5674946608
 20
94.1102040428
 30
0.0
  0
LINE
  5
771
100
AcDbEntity
  8
0
100
AcDbLine
 62
7
  6
CONTINUOUS
 10
300.8364741308
 20
91.5722429196
 11
300.7286759925
 21
91.2950372482
  0
LINE
  5
772
100
AcDbEntity
  8
0
100
AcDbLine
 62
7
  6
CONTINUOUS
 10
300.7286759925
 20
91.2950372482
 11
300.6453279374
 21
91.0809993302
  0
LINE
  5
773
100
AcDbEntity
  8
0
100
AcDbLine
 62
7
  6
CONTINUOUS
 10
300.6453279374
 20
91.0809993302
 11
300.5595600677
 21
90.8610014942
  0
LINE
  5
774
100
AcDbEntity
  8
0
100
AcDbLine
 62
7
  6
CONTINUOUS
 10
300.5595600677
 20
90.8610014942
 11
300.4558631049
 21
90.5953416496
  0
LINE
  5
775
100
AcDbEntity
  8
0
100
AcDbLine
 62
7
  6
CONTINUOUS
 10
300.4558631049
 20
90.5953416496
 11
300.4488566101
 21
90.5774042139
  0
LINE
  5
776
100
AcDbEntity
  8
0
100
AcDbLine
 62
7
  6
CONTINUOUS
 10
300.4488566101
 20
90.5774042139
 11
300.4074419466
 21
90.4714090466
  0
LINE
  5
777
100
AcDbEntity
  8
0
100
AcDbLine
 62
7
  6
CONTINUOUS
 10
300.4074419466
 20
90.4714090466
 11
300.3709935866
 21
90.3781679376
  0
LINE
  5
778
100
AcDbEntity
  8
0
100
AcDbLine
 62
7
  6
CONTINUOUS
 10
300.3709935866
 20
90.3781679376
 11
300.3389972199
 21
90.2963487419
  0
LINE
  5
779
100
AcDbEntity
  8
0
100
AcDbLine
 62
7
  6
CONTINUOUS
 10
300.3389972199
 20
90.2963487419
 11
300.3057095077
 21
90.2112595515
  0
LINE
  5
77A
100
AcDbEntity
  8
0
100
AcDbLine
 62
7
  6
CONTINUOUS
 10
300.3057095077
 20
90.2112595515
 11
300.2470744219
 21
90.0614561676
  0
LINE
  5
77B
100
AcDbEntity
  8
0
100
AcDbLine
 62
7
  6
CONTINUOUS
 10
300.2470744219
 20
90.0614561676
 11
300.0399933772
 21
89.5331539994
  0
LINE
  5
77C
100
AcDbEntity
  8
0
100
AcDbLine
 62
7
  6
CONTINUOUS
 10
300.6079877065
 20
94.5824278635
 11
300.6099898123
 21
94.6357157344
  0
LINE
  5
77D
100
AcDbEntity
  8
0
100
AcDbLine
 62
7
  6
CONTINUOUS
 10
300.5773337292
 20
102.0553173707
 11
300.5746569951
 21
102.1133373853
  0
LINE
  5
77E
100
AcDbEntity
  8
0
100
AcDbLine
 62
7
  6
CONTINUOUS
 10
300.5746569951
 20
102.1133373853
 11
300.5602648882
 21
102.4128651254
  0
LINE
  5
77F
100
AcDbEntity
  8
0
100
AcDbLine
 62
7
  6
CONTINUOUS
 10
300.5602648882
 20
102.4128651254
 11
300.5567686103
 21
102.4827627408
  0
SPLINE
  5
780
100
AcDbEntity
  8
RUNDUNGEN
100
AcDbSpline
 62
7
  6
CONTINUOUS
 70
0
 71
3
 72
10
 73
6
 74
0
 42
0.0000001
 43
0.0000001
 44
0.0000000001
 40
0.0
 40
0.0
 40
0.0
 40
0.0
 40
0.545191261
 40
0.7921584096
 40
1.0
 40
1.0
 40
1.0
 40
1.0
 10
301.5899549402
 20
111.8700682643
 30
0.0
 10
301.594087821
 20
112.2967623933
 30
0.0
 10
301.5964935214
 20
112.9171032405
 30
0.0
 10
301.5576489046
 20
113.6989815325
 30
0.0
 10
301.5169086541
 20
114.0532349955
 30
0.0
 10
301.4881883447
 20
114.2133545581
 30
0.0
  0
LINE
  5
781
100
AcDbEntity
  8
0
100
AcDbLine
 62
7
  6
CONTINUOUS
 10
300.7068790252
 20
89.8095636233
 11
300.6299026809
 21
89.6070139352
  0
LINE
  5
782
100
AcDbEntity
  8
0
100
AcDbLine
 62
7
  6
CONTINUOUS
 10
300.6299026809
 20
89.6070139352
 11
300.5518945141
 21
89.4021119971
  0
LINE
  5
783
100
AcDbEntity
  8
0
100
AcDbLine
 62
7
  6
CONTINUOUS
 10
300.5518945141
 20
89.4021119971
 11
300.3927859666
 21
88.9852510578
  0
LINE
  5
784
100
AcDbEntity
  8
0
100
AcDbLine
 62
7
  6
CONTINUOUS
 10
299.6890653902
 20
98.7121839584
 11
300.4046738461
 21
100.4893248131
  0
LINE
  5
785
100
AcDbEntity
  8
0
100
AcDbLine
 62
7
  6
CONTINUOUS
 10
300.2931699257
 20
88.724941865
 11
300.3130506279
 21
88.9911771078
  0
LINE
  5
786
100
AcDbEntity
  8
0
100
AcDbLine
 62
7
  6
CONTINUOUS
 10
300.3130506279
 20
88.9911771078
 11
300.3201146317
 21
89.0877022858
  0
LINE
  5
787
100
AcDbEntity
  8
0
100
AcDbLine
 62
7
  6
CONTINUOUS
 10
300.7031973937
 20
91.9763496408
 11
300.7401883664
 21
92.1149620778
  0
LINE
  5
788
100
AcDbEntity
  8
0
100
AcDbLine
 62
7
  6
CONTINUOUS
 10
300.7401883664
 20
92.1149620778
 11
300.770091895
 21
92.2579149217
  0
LINE
  5
789
100
AcDbEntity
  8
0
100
AcDbLine
 62
7
  6
CONTINUOUS
 10
300.770091895
 20
92.2579149217
 11
300.7800237811
 21
92.305419594
  0
LINE
  5
78A
100
AcDbEntity
  8
0
100
AcDbLine
 62
7
  6
CONTINUOUS
 10
300.7800237811
 20
92.305419594
 11
300.8055098047
 21
92.5043349507
  0
LINE
  5
78B
100
AcDbEntity
  8
0
100
AcDbLine
 62
7
  6
CONTINUOUS
 10
300.8055098047
 20
92.5043349507
 11
300.8136952727
 21
92.6598398364
  0
LINE
  5
78C
100
AcDbEntity
  8
0
100
AcDbLine
 62
7
  6
CONTINUOUS
 10
300.8136952727
 20
92.6598398364
 11
300.817703242
 21
92.7376114805
  0
LINE
  5
78D
100
AcDbEntity
  8
0
100
AcDbLine
 62
7
  6
CONTINUOUS
 10
300.817703242
 20
92.7376114805
 11
300.821654499
 21
92.8153959332
  0
LINE
  5
78E
100
AcDbEntity
  8
0
100
AcDbLine
 62
7
  6
CONTINUOUS
 10
300.821654499
 20
92.8153959332
 11
300.8145987131
 21
92.8995092276
  0
LINE
  5
78F
100
AcDbEntity
  8
0
100
AcDbLine
 62
7
  6
CONTINUOUS
 10
300.8145987131
 20
92.8995092276
 11
300.8122122514
 21
92.9275415589
  0
LINE
  5
790
100
AcDbEntity
  8
0
100
AcDbLine
 62
7
  6
CONTINUOUS
 10
299.7213080372
 20
97.8725909267
 11
299.7873066774
 21
98.1391748338
  0
LINE
  5
791
100
AcDbEntity
  8
0
100
AcDbLine
 62
7
  6
CONTINUOUS
 10
299.6821185286
 20
97.6512198423
 11
299.6877288795
 21
97.682858024
  0
LINE
  5
792
100
AcDbEntity
  8
0
100
AcDbLine
 62
7
  6
CONTINUOUS
 10
299.6877288795
 20
97.682858024
 11
299.7045646652
 21
97.7779054884
  0
LINE
  5
793
100
AcDbEntity
  8
0
100
AcDbLine
 62
7
  6
CONTINUOUS
 10
299.7045646652
 20
97.7779054884
 11
299.7213080372
 21
97.8725909267
  0
LINE
  5
794
100
AcDbEntity
  8
0
100
AcDbLine
 62
7
  6
CONTINUOUS
 10
300.8122122514
 20
92.9275415589
 11
300.8055200338
 21
92.9447148672
  0
LINE
  5
795
100
AcDbEntity
  8
0
100
AcDbLine
 62
7
  6
CONTINUOUS
 10
300.7920602747
 20
92.9790952464
 11
300.7852928007
 21
92.9963023192
  0
SPLINE
  5
796
100
AcDbEntity
  8
BEZUGSACHSEN
100
AcDbSpline
 62
7
  6
CONTINUOUS
 70
0
 71
3
 72
15
 73
11
 74
0
 42
0.0000001
 43
0.0000001
 44
0.0000000001
 40
0.0
 40
0.0
 40
0.0
 40
0.0
 40
0.2204961717
 40
0.4225787408
 40
0.601153932
 40
0.7514964283
 40
0.8692052258
 40
0.914733614
 40
0.9509042767
 40
1.0
 40
1.0
 40
1.0
 40
1.0
 10
304.2710216893
 20
91.2517850488
 30
0.0
 10
304.2700646382
 20
91.1798380176
 30
0.0
 10
304.2647001304
 20
91.0420105409
 30
0.0
 10
304.247228461
 20
90.8463838242
 30
0.0
 10
304.2239359686
 20
90.6751148005
 30
0.0
 10
304.1972863035
 20
90.5303234786
 30
0.0
 10
304.1757947555
 20
90.4336556797
 30
0.0
 10
304.1570556363
 20
90.3660678771
 30
0.0
 10
304.1488574491
 20
90.3366961358
 30
0.0
 10
304.1261537815
 20
90.2750879647
 30
0.0
 10
304.1220840887
 20
90.2905836128
 30
0.0
  0
LINE
  5
797
100
AcDbEntity
  8
0
100
AcDbLine
 62
7
  6
CONTINUOUS
 10
300.3871025724
 20
97.2210012709
 11
300.3638913129
 21
97.1635943237
  0
LINE
  5
798
100
AcDbEntity
  8
0
100
AcDbLine
 62
7
  6
CONTINUOUS
 10
300.3638913129
 20
97.1635943237
 11
300.3567264153
 21
97.1458738963
  0
LINE
  5
799
100
AcDbEntity
  8
0
100
AcDbLine
 62
7
  6
CONTINUOUS
 10
300.3567264153
 20
97.1458738963
 11
300.3340046744
 21
97.0896780371
  0
LINE
  5
79A
100
AcDbEntity
  8
0
100
AcDbLine
 62
7
  6
CONTINUOUS
 10
299.9168728036
 20
96.0580676577
 11
299.8907057199
 21
95.993356558
  0
LINE
  5
79B
100
AcDbEntity
  8
0
100
AcDbLine
 62
7
  6
CONTINUOUS
 10
299.8907057199
 20
95.993356558
 11
299.6606481696
 21
95.4244378441
  0
SPLINE
  5
79C
100
AcDbEntity
  8
0
100
AcDbSpline
 62
7
  6
CONTINUOUS
 70
0
 71
3
 72
9
 73
5
 74
0
 42
0.0000001
 43
0.0000001
 44
0.0000000001
 40
0.0
 40
0.0
 40
0.0
 40
0.0
 40
0.2629638323
 40
1.0
 40
1.0
 40
1.0
 40
1.0
 10
287.0711931561
 20
95.5878371798
 30
0.0
 10
287.0653306115
 20
95.5436603776
 30
0.0
 10
287.0460545349
 20
95.375295375
 30
0.0
 10
287.0386911743
 20
95.2054338327
 30
0.0
 10
287.0417587844
 20
95.0805670471
 30
0.0
  0
LINE
  5
79D
100
AcDbEntity
  8
0
100
AcDbLine
 62
7
  6
CONTINUOUS
 10
300.0041479658
 20
92.8735145255
 11
300.0499577147
 21
93.0184029094
  0
LINE
  5
79E
100
AcDbEntity
  8
0
100
AcDbLine
 62
7
  6
CONTINUOUS
 10
299.926135046
 20
92.4926006797
 11
300.0041479658
 21
92.8735145255
  0
LINE
  5
79F
100
AcDbEntity
  8
0
100
AcDbLine
 62
7
  6
CONTINUOUS
 10
299.9168588836
 20
92.4301145177
 11
299.926135046
 21
92.4926006797
  0
LINE
  5
7A0
100
AcDbEntity
  8
0
100
AcDbLine
 62
7
  6
CONTINUOUS
 10
300.1168023697
 20
91.0365837289
 11
300.1213986415
 21
91.1403028044
  0
LINE
  5
7A1
100
AcDbEntity
  8
0
100
AcDbLine
 62
7
  6
CONTINUOUS
 10
300.1213986415
 20
91.1403028044
 11
300.1497586135
 21
91.4429047635
  0
LINE
  5
7A2
100
AcDbEntity
  8
0
100
AcDbLine
 62
7
  6
CONTINUOUS
 10
300.1497586135
 20
91.4429047635
 11
300.2122000151
 21
91.8322776478
  0
LINE
  5
7A3
100
AcDbEntity
  8
0
100
AcDbLine
 62
7
  6
CONTINUOUS
 10
299.6820678746
 20
92.204732512
 11
299.7533304655
 21
92.4301146799
  0
LINE
  5
7A4
100
AcDbEntity
  8
0
100
AcDbLine
 62
7
  6
CONTINUOUS
 10
299.6355948316
 20
92.0178907862
 11
299.6820678746
 21
92.204732512
  0
LINE
  5
7A5
100
AcDbEntity
  8
0
100
AcDbLine
 62
7
  6
CONTINUOUS
 10
300.2122000151
 20
91.8322776478
 11
300.2586470307
 21
92.0189397827
  0
LINE
  5
7A6
100
AcDbEntity
  8
0
100
AcDbLine
 62
7
  6
CONTINUOUS
 10
300.2586470307
 20
92.0189397827
 11
300.3048591045
 21
92.204732512
  0
LINE
  5
7A7
100
AcDbEntity
  8
0
100
AcDbLine
 62
7
  6
CONTINUOUS
 10
300.3048591045
 20
92.204732512
 11
300.3761216954
 21
92.4301146799
  0
SPLINE
  5
7A8
100
AcDbEntity
  8
BEZUGSACHSEN
100
AcDbSpline
 62
7
  6
CONTINUOUS
 70
0
 71
3
 72
9
 73
5
 74
0
 42
0.0000001
 43
0.0000001
 44
0.0000000001
 40
0.0
 40
0.0
 40
0.0
 40
0.0
 40
0.2706379214
 40
1.0
 40
1.0
 40
1.0
 40
1.0
 10
303.7125012014
 20
95.0805670471
 30
0.0
 10
303.7099739961
 20
94.9776973922
 30
0.0
 10
303.7000541268
 20
94.5976160761
 30
0.0
 10
303.6883942346
 20
94.21754447
 30
0.0
 10
303.6754706917
 20
93.9405311068
 30
0.0
  0
LINE
  5
7A9
100
AcDbEntity
  8
0
100
AcDbLine
 62
7
  6
CONTINUOUS
 10
300.2848290066
 20
90.779582196
 11
300.2504632762
 21
90.7597566986
  0
LINE
  5
7AA
100
AcDbEntity
  8
0
100
AcDbLine
 62
7
  6
CONTINUOUS
 10
300.2504632762
 20
90.7597566986
 11
300.2389232921
 21
90.7531141982
  0
LINE
  5
7AB
100
AcDbEntity
  8
0
100
AcDbLine
 62
7
  6
CONTINUOUS
 10
299.6703786958
 20
88.724941865
 11
299.6223315817
 21
88.5995661534
  0
LINE
  5
7AC
100
AcDbEntity
  8
0
100
AcDbLine
 62
7
  6
CONTINUOUS
 10
300.3361206378
 20
90.9097367924
 11
300.3233256121
 21
90.8772633259
  0
LINE
  5
7AD
100
AcDbEntity
  8
0
100
AcDbLine
 62
7
  6
CONTINUOUS
 10
300.3233256121
 20
90.8772633259
 11
300.2976797932
 21
90.8121860281
  0
LINE
  5
7AE
100
AcDbEntity
  8
0
100
AcDbLine
 62
7
  6
CONTINUOUS
 10
300.2976797932
 20
90.8121860281
 11
300.2895407453
 21
90.7915359571
  0
LINE
  5
7AF
100
AcDbEntity
  8
0
100
AcDbLine
 62
7
  6
CONTINUOUS
 10
300.2895407453
 20
90.7915359571
 11
300.2848290066
 21
90.779582196
  0
LINE
  5
7B0
100
AcDbEntity
  8
0
100
AcDbLine
 62
7
  6
CONTINUOUS
 10
300.3361206378
 20
90.9097367924
 11
300.364569886
 21
91.026815375
  0
LINE
  5
7B1
100
AcDbEntity
  8
0
100
AcDbLine
 62
7
  6
CONTINUOUS
 10
300.364569886
 20
91.026815375
 11
300.3929365435
 21
91.1435780482
  0
LINE
  5
7B2
100
AcDbEntity
  8
0
100
AcDbLine
 62
7
  6
CONTINUOUS
 10
300.3929365435
 20
91.1435780482
 11
300.4353252667
 21
91.3858782704
  0
LINE
  5
7B3
100
AcDbEntity
  8
0
100
AcDbLine
 62
7
  6
CONTINUOUS
 10
299.739252252
 20
90.3552781842
 11
299.71620599
 21
90.2963487419
  0
LINE
  5
7B4
100
AcDbEntity
  8
0
100
AcDbLine
 62
7
  6
CONTINUOUS
 10
299.71620599
 20
90.2963487419
 11
299.6262685237
 21
90.0665267717
  0
LINE
  5
7B5
100
AcDbEntity
  8
0
100
AcDbLine
 62
7
  6
CONTINUOUS
 10
300.4353252667
 20
91.3858782704
 11
300.4630628303
 21
91.6366375197
  0
LINE
  5
7B6
100
AcDbEntity
  8
0
100
AcDbLine
 62
7
  6
CONTINUOUS
 10
300.4782712689
 20
91.9476985022
 11
300.5051457247
 21
92.1984565649
  0
LINE
  5
7B7
100
AcDbEntity
  8
0
100
AcDbLine
 62
7
  6
CONTINUOUS
 10
300.5051457247
 20
92.1984565649
 11
300.5489262759
 21
92.4926006797
  0
LINE
  5
7B8
100
AcDbEntity
  8
0
100
AcDbLine
 62
7
  6
CONTINUOUS
 10
300.5489262759
 20
92.4926006797
 11
300.6269391957
 21
92.8735145255
  0
LINE
  5
7B9
100
AcDbEntity
  8
0
100
AcDbLine
 62
7
  6
CONTINUOUS
 10
300.6269391957
 20
92.8735145255
 11
300.6447645275
 21
92.9298929795
  0
LINE
  5
7BA
100
AcDbEntity
  8
0
100
AcDbLine
 62
7
  6
CONTINUOUS
 10
300.6447645275
 20
92.9298929795
 11
300.6981988625
 21
93.0988966934
  0
LINE
  5
7BB
100
AcDbEntity
  8
0
100
AcDbLine
 62
7
  6
CONTINUOUS
 10
300.7672269436
 20
93.2724362768
 11
300.6981988625
 21
93.0988966934
  0
LINE
  5
7BC
100
AcDbEntity
  8
0
100
AcDbLine
 62
7
  6
CONTINUOUS
 10
300.8339400726
 20
93.3941330327
 11
300.7672269436
 21
93.2724362768
  0
LINE
  5
7BD
100
AcDbEntity
  8
0
100
AcDbLine
 62
7
  6
CONTINUOUS
 10
299.6387144259
 20
86.0926589714
 11
299.6230593622
 21
86.0663881379
  0
SPLINE
  5
7BE
100
AcDbEntity
  8
RUNDUNGEN
100
AcDbSpline
 62
7
  6
CONTINUOUS
 70
0
 71
3
 72
12
 73
8
 74
0
 42
0.0000001
 43
0.0000001
 44
0.0000000001
 40
0.0
 40
0.0
 40
0.0
 40
0.0
 40
0.2476194616
 40
0.3719800555
 40
0.4968649953
 40
0.7478335301
 40
1.0
 40
1.0
 40
1.0
 40
1.0
 10
310.7487211243
 20
191.959710563
 30
0.0
 10
310.609602624
 20
191.7609027851
 30
0.0
 10
310.3793166115
 20
191.4743705302
 30
0.0
 10
310.0099691902
 20
191.1555681286
 30
0.0
 10
309.6082408149
 20
190.8735475748
 30
0.0
 10
309.0522941453
 20
190.5991357925
 30
0.0
 10
308.5710287281
 20
190.4750847017
 30
0.0
 10
308.3267582943
 20
190.437766388
 30
0.0
  0
LINE
  5
7BF
100
AcDbEntity
  8
0
100
AcDbLine
 62
7
  6
CONTINUOUS
 10
300.6988569738
 20
91.8985672524
 11
300.7031973937
 21
91.9763496408
  0
LINE
  5
7C0
100
AcDbEntity
  8
0
100
AcDbLine
 62
7
  6
CONTINUOUS
 10
300.5715377693
 20
93.9611358612
 11
300.4844546539
 21
93.7442114731
  0
SPLINE
  5
7C1
100
AcDbEntity
  8
BEZUGSACHSEN
100
AcDbSpline
 62
7
  6
CONTINUOUS
 70
0
 71
3
 72
11
 73
7
 74
0
 42
0.0000001
 43
0.0000001
 44
0.0000000001
 40
0.0
 40
0.0
 40
0.0
 40
0.0
 40
0.0647322271
 40
0.2533938687
 40
0.565615969
 40
1.0
 40
1.0
 40
1.0
 40
1.0
 10
305.557407451
 20
202.3359218626
 30
0.0
 10
305.5586951154
 20
202.3358676869
 30
0.0
 10
305.5574752589
 20
202.3280688243
 30
0.0
 10
305.5595430914
 20
202.319450687
 30
0.0
 10
305.5588767565
 20
202.2993101477
 30
0.0
 10
305.5592299929
 20
202.2849433353
 30
0.0
 10
305.5592299929
 20
202.2762948501
 30
0.0
  0
LINE
  5
7C2
100
AcDbEntity
  8
0
100
AcDbLine
 62
7
  6
CONTINUOUS
 10
300.1989387227
 20
93.4214162804
 11
300.204929412
 21
93.6838927475
  0
LINE
  5
7C3
100
AcDbEntity
  8
0
100
AcDbLine
 62
7
  6
CONTINUOUS
 10
300.204929412
 20
93.6838927475
 11
300.2091583048
 21
93.887679204
  0
LINE
  5
7C4
100
AcDbEntity
  8
0
100
AcDbLine
 62
7
  6
CONTINUOUS
 10
300.2278029184
 20
95.2379991446
 11
300.2281777056
 21
95.2877821754
  0
LINE
  5
7C5
100
AcDbEntity
  8
0
100
AcDbLine
 62
7
  6
CONTINUOUS
 10
301.052699647
 20
97.3268710956
 11
300.9866825428
 21
97.1635943237
  0
LINE
  5
7C6
100
AcDbEntity
  8
0
100
AcDbLine
 62
7
  6
CONTINUOUS
 10
300.9866825428
 20
97.1635943237
 11
300.8491497156
 21
96.8234492645
  0
LINE
  5
7C7
100
AcDbEntity
  8
0
100
AcDbLine
 62
7
  6
CONTINUOUS
 10
300.8491497156
 20
96.8234492645
 11
300.8389185903
 21
96.7981461426
  0
LINE
  5
7C8
100
AcDbEntity
  8
0
100
AcDbLine
 62
7
  6
CONTINUOUS
 10
300.8389185903
 20
96.7981461426
 11
300.6438789552
 21
96.3157938811
  0
LINE
  5
7C9
100
AcDbEntity
  8
0
100
AcDbLine
 62
7
  6
CONTINUOUS
 10
300.6438789552
 20
96.3157938811
 11
300.6108811375
 21
96.2341888692
  0
LINE
  5
7CA
100
AcDbEntity
  8
0
100
AcDbLine
 62
7
  6
CONTINUOUS
 10
300.6108811375
 20
96.2341888692
 11
300.5831767254
 21
96.1656750694
  0
LINE
  5
7CB
100
AcDbEntity
  8
0
100
AcDbLine
 62
7
  6
CONTINUOUS
 10
300.5831767254
 20
96.1656750694
 11
300.5134969498
 21
95.9933565581
  0
LINE
  5
7CC
100
AcDbEntity
  8
0
100
AcDbLine
 62
7
  6
CONTINUOUS
 10
300.5134969498
 20
95.9933565581
 11
300.5056289617
 21
95.9738991129
  0
LINE
  5
7CD
100
AcDbEntity
  8
0
100
AcDbLine
 62
7
  6
CONTINUOUS
 10
300.5056289617
 20
95.9738991129
 11
300.4368880861
 21
95.8039048717
  0
LINE
  5
7CE
100
AcDbEntity
  8
0
100
AcDbLine
 62
7
  6
CONTINUOUS
 10
300.4368880861
 20
95.8039048717
 11
300.2281777056
 21
95.2877821754
  0
LINE
  5
7CF
100
AcDbEntity
  8
0
100
AcDbLine
 62
7
  6
CONTINUOUS
 10
300.9143638531
 20
95.2001960078
 11
300.9211463752
 21
95.4629706279
  0
LINE
  5
7D0
100
AcDbEntity
  8
0
100
AcDbLine
 62
7
  6
CONTINUOUS
 10
300.9211463752
 20
95.4629706279
 11
300.9241470983
 21
95.5887151602
  0
SPLINE
  5
7D1
100
AcDbEntity
  8
0
100
AcDbSpline
 62
7
  6
CONTINUOUS
 70
0
 71
3
 72
10
 73
6
 74
0
 42
0.0000001
 43
0.0000001
 44
0.0000000001
 40
0.0
 40
0.0
 40
0.0
 40
0.0
 40
0.1246739688
 40
0.3250831117
 40
1.0
 40
1.0
 40
1.0
 40
1.0
 10
291.0252697132
 20
80.2065430126
 30
0.0
 10
291.0194075602
 20
80.206536815
 30
0.0
 10
291.0051028491
 20
80.2151842608
 30
0.0
 10
290.9770513052
 20
80.2525354768
 30
0.0
 10
290.9595792665
 20
80.2905275443
 30
0.0
 10
290.9470968887
 20
80.319704074
 30
0.0
  0
SPLINE
  5
7D2
100
AcDbEntity
  8
0
100
AcDbSpline
 62
7
  6
CONTINUOUS
 70
0
 71
3
 72
13
 73
9
 74
0
 42
0.0000001
 43
0.0000001
 44
0.0000000001
 40
0.0
 40
0.0
 40
0.0
 40
0.0
 40
0.0669131154
 40
0.162166216
 40
0.2809287068
 40
0.4173052289
 40
0.7158829021
 40
1.0
 40
1.0
 40
1.0
 40
1.0
 10
290.9470968887
 20
80.319704074
 30
0.0
 10
290.9176016179
 20
80.3886468389
 30
0.0
 10
290.8598000646
 20
80.5613331759
 30
0.0
 10
290.774188218
 20
80.8642236138
 30
0.0
 10
290.6797200194
 20
81.2454661292
 30
0.0
 10
290.5435284413
 20
81.8508810186
 30
0.0
 10
290.3878922334
 20
82.641687162
 30
0.0
 10
290.2820856937
 20
83.2862981333
 30
0.0
 10
290.239456085
 20
83.6018314766
 30
0.0
  0
LINE
  5
7D3
100
AcDbEntity
  8
0
100
AcDbLine
 62
7
  6
CONTINUOUS
 10
300.5880565448
 20
94.5832578262
 11
300.5939292844
 21
94.8457462168
  0
LINE
  5
7D4
100
AcDbEntity
  8
0
100
AcDbLine
 62
7
  6
CONTINUOUS
 10
300.5939292844
 20
94.8457462168
 11
300.5954728274
 21
94.9200400482
  0
LINE
  5
7D5
100
AcDbEntity
  8
0
100
AcDbLine
 62
7
  6
CONTINUOUS
 10
300.2290676459
 20
96.778290385
 11
300.2282936278
 21
96.8949309804
  0
LINE
  5
7D6
100
AcDbEntity
  8
0
100
AcDbLine
 62
7
  6
CONTINUOUS
 10
300.2436739844
 20
97.1975329396
 11
300.2765709574
 21
97.4916770657
  0
LINE
  5
7D7
100
AcDbEntity
  8
0
100
AcDbLine
 62
7
  6
CONTINUOUS
 10
300.2765709574
 20
97.4916770657
 11
300.3440992671
 21
97.8725909267
  0
LINE
  5
7D8
100
AcDbEntity
  8
0
100
AcDbLine
 62
7
  6
CONTINUOUS
 10
300.3440992671
 20
97.8725909267
 11
300.3613373411
 21
97.9421708016
  0
LINE
  5
7D9
100
AcDbEntity
  8
0
100
AcDbLine
 62
7
  6
CONTINUOUS
 10
300.3613373411
 20
97.9421708016
 11
300.4127299924
 21
98.1498170176
  0
LINE
  5
7DA
100
AcDbEntity
  8
0
100
AcDbLine
 62
7
  6
CONTINUOUS
 10
300.4127299924
 20
98.1498170176
 11
300.4345050182
 21
98.2172167978
  0
LINE
  5
7DB
100
AcDbEntity
  8
0
100
AcDbLine
 62
7
  6
CONTINUOUS
 10
300.4345050182
 20
98.2172167978
 11
300.456232007
 21
98.2844780933
  0
LINE
  5
7DC
100
AcDbEntity
  8
0
100
AcDbLine
 62
7
  6
CONTINUOUS
 10
300.456232007
 20
98.2844780933
 11
300.4995418121
 21
98.4185852376
  0
LINE
  5
7DD
100
AcDbEntity
  8
0
100
AcDbLine
 62
7
  6
CONTINUOUS
 10
300.4995418121
 20
98.4185852376
 11
300.5655703904
 21
98.5821366298
  0
LINE
  5
7DE
100
AcDbEntity
  8
0
100
AcDbLine
 62
7
  6
CONTINUOUS
 10
300.5655703904
 20
98.5821366298
 11
300.6969248735
 21
98.9075231434
  0
LINE
  5
7DF
100
AcDbEntity
  8
0
100
AcDbLine
 62
7
  6
CONTINUOUS
 10
300.6969248735
 20
98.9075231434
 11
300.7070690873
 21
98.9326534093
  0
LINE
  5
7E0
100
AcDbEntity
  8
0
100
AcDbLine
 62
7
  6
CONTINUOUS
 10
300.7070690873
 20
98.9326534093
 11
300.7622506264
 21
99.0693582804
  0
LINE
  5
7E1
100
AcDbEntity
  8
0
100
AcDbLine
 62
7
  6
CONTINUOUS
 10
295.3771299931
 20
191.755590147
 11
295.3771299104
 21
193.7490139581
  0
SPLINE
  5
7E2
100
AcDbEntity
  8
RUNDUNGEN
100
AcDbSpline
 62
7
  6
CONTINUOUS
 70
0
 71
3
 72
9
 73
5
 74
0
 42
0.0000001
 43
0.0000001
 44
0.0000000001
 40
0.0
 40
0.0
 40
0.0
 40
0.0
 40
0.533569537
 40
1.0
 40
1.0
 40
1.0
 40
1.0
 10
301.6238415391
 20
115.494826302
 30
0.0
 10
301.5563932039
 20
115.274221408
 30
0.0
 10
301.4588577503
 20
114.8514007619
 30
0.0
 10
301.4525855024
 20
114.4118451617
 30
0.0
 10
301.4881883447
 20
114.2133545581
 30
0.0
  0
LINE
  5
7E3
100
AcDbEntity
  8
0
100
AcDbLine
 62
7
  6
CONTINUOUS
 10
286.4798911409
 20
91.5163865139
 11
286.4819724382
 21
91.3487759927
  0
LINE
  5
7E4
100
AcDbEntity
  8
0
100
AcDbLine
 62
7
  6
CONTINUOUS
 10
286.4819724382
 20
91.3487759927
 11
286.4832382966
 21
91.2517850488
  0
LINE
  5
7E5
100
AcDbEntity
  8
0
100
AcDbLine
 62
7
  6
CONTINUOUS
 10
286.1674405031
 20
94.8625949451
 11
286.1711393108
 21
94.6358205252
  0
LINE
  5
7E6
100
AcDbEntity
  8
0
100
AcDbLine
 62
7
  6
CONTINUOUS
 10
286.1711393108
 20
94.6358205252
 11
286.1749284339
 21
94.4227441318
  0
LINE
  5
7E7
100
AcDbEntity
  8
0
100
AcDbLine
 62
7
  6
CONTINUOUS
 10
300.8506380121
 20
99.2344388367
 11
300.7622506264
 21
99.0693582804
  0
LINE
  5
7E8
100
AcDbEntity
  8
0
100
AcDbLine
 62
7
  6
CONTINUOUS
 10
300.9222896697
 20
99.3042916999
 11
300.8506380121
 21
99.2344388367
  0
LINE
  5
7E9
100
AcDbEntity
  8
0
100
AcDbLine
 62
7
  6
CONTINUOUS
 10
300.8454531108
 20
97.5320623386
 11
300.8586561949
 21
97.5776593275
  0
LINE
  5
7EA
100
AcDbEntity
  8
0
100
AcDbLine
 62
7
  6
CONTINUOUS
 10
300.8586561949
 20
97.5776593275
 11
300.8981424873
 21
97.7140597626
  0
LINE
  5
7EB
100
AcDbEntity
  8
0
100
AcDbLine
 62
7
  6
CONTINUOUS
 10
300.8981424873
 20
97.7140597626
 11
300.9331787209
 21
97.9563599847
  0
LINE
  5
7EC
100
AcDbEntity
  8
0
100
AcDbLine
 62
7
  6
CONTINUOUS
 10
300.9331787209
 20
97.9563599847
 11
300.9502548871
 21
98.2071192341
  0
LINE
  5
7ED
100
AcDbEntity
  8
0
100
AcDbLine
 62
7
  6
CONTINUOUS
 10
300.948456983
 20
98.5570720758
 11
300.9475805508
 21
98.6737107078
  0
SPLINE
  5
7EE
100
AcDbEntity
  8
0
100
AcDbSpline
 62
7
  6
CONTINUOUS
 70
0
 71
3
 72
16
 73
12
 74
0
 42
0.0000001
 43
0.0000001
 44
0.0000000001
 40
0.0
 40
0.0
 40
0.0
 40
0.0
 40
0.2330113708
 40
0.4273370707
 40
0.579699704
 40
0.6893787539
 40
0.7601097988
 40
0.7868313198
 40
0.8139954136
 40
0.8873045563
 40
1.0
 40
1.0
 40
1.0
 40
1.0
 10
287.0787892941
 20
93.9405311068
 30
0.0
 10
287.0802955145
 20
93.9082455978
 30
0.0
 10
287.0850143955
 20
93.8490701921
 30
0.0
 10
287.097880662
 20
93.7696741458
 30
0.0
 10
287.1150110329
 20
93.7083051141
 30
0.0
 10
287.1341074345
 20
93.6665857388
 30
0.0
 10
287.1543912315
 20
93.6436614457
 30
0.0
 10
287.1720782357
 20
93.6401701373
 30
0.0
 10
287.1893030235
 20
93.6464869167
 30
0.0
 10
287.207241084
 20
93.6720508439
 30
0.0
 10
287.2159403096
 20
93.6960988542
 30
0.0
 10
287.2204321405
 20
93.7110713833
 30
0.0
  0
SPLINE
  5
7EF
100
AcDbEntity
  8
0
100
AcDbSpline
 62
7
  6
CONTINUOUS
 70
0
 71
3
 72
9
 73
5
 74
0
 42
0.0000001
 43
0.0000001
 44
0.0000000001
 40
0.0
 40
0.0
 40
0.0
 40
0.0
 40
0.4877346625
 40
1.0
 40
1.0
 40
1.0
 40
1.0
 10
289.2304501862
 20
103.49873399
 30
0.0
 10
289.2691109818
 20
104.7415756816
 30
0.0
 10
289.2970523744
 20
107.2914921313
 30
0.0
 10
289.2380499857
 20
109.8407667686
 30
0.0
 10
289.1857935159
 20
111.1457028408
 30
0.0
  0
SPLINE
  5
7F0
100
AcDbEntity
  8
0
100
AcDbSpline
 62
7
  6
CONTINUOUS
 70
0
 71
3
 72
12
 73
8
 74
0
 42
0.0000001
 43
0.0000001
 44
0.0000000001
 40
0.0
 40
0.0
 40
0.0
 40
0.0
 40
0.0669611379
 40
0.1529056371
 40
0.3774969953
 40
0.6638654424
 40
1.0
 40
1.0
 40
1.0
 40
1.0
 10
288.9175216589
 20
88.4550695413
 30
0.0
 10
288.9128270508
 20
88.790906331
 30
0.0
 10
288.9100882188
 20
89.5578930899
 30
0.0
 10
288.9230640743
 20
91.4513442475
 30
0.0
 10
288.9771540455
 20
94.4449383258
 30
0.0
 10
289.0846378581
 20
98.692515422
 30
0.0
 10
289.1780290882
 20
101.8135356677
 30
0.0
 10
289.2304501822
 20
103.4987339962
 30
0.0
  0
SPLINE
  5
7F1
100
AcDbEntity
  8
0
100
AcDbSpline
 62
7
  6
CONTINUOUS
 70
0
 71
3
 72
11
 73
7
 74
0
 42
0.0000001
 43
0.0000001
 44
0.0000000001
 40
0.0
 40
0.0
 40
0.0
 40
0.0
 40
0.1219856871
 40
0.3295411633
 40
0.6224572906
 40
1.0
 40
1.0
 40
1.0
 40
1.0
 10
288.901020315
 20
87.3457673409
 30
0.0
 10
288.908492829
 20
87.3902774037
 30
0.0
 10
288.9152657444
 20
87.5123846108
 30
0.0
 10
288.921504026
 20
87.7424019547
 30
0.0
 10
288.9219014142
 20
88.0673796084
 30
0.0
 10
288.9194741134
 20
88.3153977609
 30
0.0
 10
288.917521663
 20
88.4550695218
 30
0.0
  0
SPLINE
  5
7F2
100
AcDbEntity
  8
0
100
AcDbSpline
 62
7
  6
CONTINUOUS
 70
0
 71
3
 72
9
 73
5
 74
0
 42
0.0000001
 43
0.0000001
 44
0.0000000001
 40
0.0
 40
0.0
 40
0.0
 40
0.0
 40
0.2578175309
 40
1.0
 40
1.0
 40
1.0
 40
1.0
 10
286.1749284339
 20
94.4227441318
 30
0.0
 10
286.1754277834
 20
94.3959247923
 30
0.0
 10
286.1779489919
 20
94.2919111143
 30
0.0
 10
286.1825292762
 20
94.1879541969
 30
0.0
 10
286.1867301124
 20
94.1108500078
 30
0.0
  0
SPLINE
  5
7F3
100
AcDbEntity
  8
0
100
AcDbSpline
 62
7
  6
CONTINUOUS
 70
0
 71
3
 72
18
 73
14
 74
0
 42
0.0000001
 43
0.0000001
 44
0.0000000001
 40
0.0
 40
0.0
 40
0.0
 40
0.0
 40
0.0055700853
 40
0.0191077872
 40
0.0408993828
 40
0.0709372251
 40
0.1091301824
 40
0.1552943402
 40
0.2707415988
 40
0.415470386
 40
0.587049726
 40
0.7828543045
 40
1.0
 40
1.0
 40
1.0
 40
1.0
 10
291.1452506318
 20
76.3948907215
 30
0.0
 10
291.1434081919
 20
76.3948994706
 30
0.0
 10
291.1401614109
 20
76.40233619
 30
0.0
 10
291.135296069
 20
76.4133183131
 30
0.0
 10
291.1286421851
 20
76.4347875526
 30
0.0
 10
291.1204337838
 20
76.4630299886
 30
0.0
 10
291.1106723088
 20
76.4997362521
 30
0.0
 10
291.0944379432
 20
76.5637351607
 30
0.0
 10
291.0708945265
 20
76.6623402499
 30
0.0
 10
291.0390501148
 20
76.8015421357
 30
0.0
 10
291.0023472006
 20
76.9669211191
 30
0.0
 10
290.9613142579
 20
77.1558646201
 30
0.0
 10
290.9327765512
 20
77.2894458655
 30
0.0
 10
290.9178581845
 20
77.3597065069
 30
0.0
  0
SPLINE
  5
7F4
100
AcDbEntity
  8
BEZUGSACHSEN
100
AcDbSpline
 62
7
  6
CONTINUOUS
 70
0
 71
3
 72
9
 73
5
 74
0
 42
0.0000001
 43
0.0000001
 44
0.0000000001
 40
0.0
 40
0.0
 40
0.0
 40
0.0
 40
0.2629646031
 40
1.0
 40
1.0
 40
1.0
 40
1.0
 10
303.6830606573
 20
95.5878836898
 30
0.0
 10
303.6889243087
 20
95.5437027592
 30
0.0
 10
303.7082040474
 20
95.3753224561
 30
0.0
 10
303.7155690911
 20
95.2054452112
 30
0.0
 10
303.7125012014
 20
95.0805670471
 30
0.0
  0
SPLINE
  5
7F5
100
AcDbEntity
  8
0
100
AcDbSpline
 62
7
  6
CONTINUOUS
 70
0
 71
3
 72
10
 73
6
 74
0
 42
0.0000001
 43
0.0000001
 44
0.0000000001
 40
0.0
 40
0.0
 40
0.0
 40
0.0
 40
0.1343525926
 40
0.438446524
 40
1.0
 40
1.0
 40
1.0
 40
1.0
 10
288.8837480129
 20
87.318869982
 30
0.0
 10
288.8851421619
 20
87.3181553779
 30
0.0
 10
288.891053686
 20
87.3182395304
 30
0.0
 10
288.8967556659
 20
87.3303659025
 30
0.0
 10
288.8994944819
 20
87.3393995816
 30
0.0
 10
288.901020315
 20
87.3457673409
 30
0.0
  0
SPLINE
  5
7F6
100
AcDbEntity
  8
0
100
AcDbSpline
 62
7
  6
CONTINUOUS
 70
0
 71
3
 72
15
 73
11
 74
0
 42
0.0000001
 43
0.0000001
 44
0.0000000001
 40
0.0
 40
0.0
 40
0.0
 40
0.0
 40
0.2204961717
 40
0.4225787408
 40
0.601153932
 40
0.7514964283
 40
0.8692052258
 40
0.914733614
 40
0.9509042767
 40
1.0
 40
1.0
 40
1.0
 40
1.0
 10
286.4832382966
 20
91.2517850488
 30
0.0
 10
286.4841953476
 20
91.1798380176
 30
0.0
 10
286.4895598554
 20
91.0420105409
 30
0.0
 10
286.5070315248
 20
90.8463838242
 30
0.0
 10
286.5303240172
 20
90.6751148005
 30
0.0
 10
286.5569736823
 20
90.5303234786
 30
0.0
 10
286.5784652303
 20
90.4336556797
 30
0.0
 10
286.5972043495
 20
90.3660678771
 30
0.0
 10
286.6054025367
 20
90.3366961358
 30
0.0
 10
286.6281062043
 20
90.2750879647
 30
0.0
 10
286.6321758971
 20
90.2905836128
 30
0.0
  0
LINE
  5
7F7
100
AcDbEntity
  8
0
100
AcDbLine
 62
7
  6
CONTINUOUS
 10
300.4417416441
 20
96.534210372
 11
300.40229958
 21
96.4755174794
  0
LINE
  5
7F8
100
AcDbEntity
  8
0
100
AcDbLine
 62
7
  6
CONTINUOUS
 10
300.40229958
 20
96.4755174794
 11
300.3891122842
 21
96.4558984816
  0
LINE
  5
7F9
100
AcDbEntity
  8
0
100
AcDbLine
 62
7
  6
CONTINUOUS
 10
300.2063102936
 20
98.4502358928
 11
300.5153586396
 21
99.2173510142
  0
LINE
  5
7FA
100
AcDbEntity
  8
0
100
AcDbLine
 62
7
  6
CONTINUOUS
 10
300.5153586396
 20
99.2173510142
 11
300.8263786443
 21
99.9897272222
  0
LINE
  5
7FB
100
AcDbEntity
  8
0
100
AcDbLine
 62
7
  6
CONTINUOUS
 10
300.8263786443
 20
99.9897272222
 11
300.9207141652
 21
100.224079244
  0
LINE
  5
7FC
100
AcDbEntity
  8
0
100
AcDbLine
 62
7
  6
CONTINUOUS
 10
300.9207141652
 20
100.224079244
 11
301.027465076
 21
100.4893248131
  0
SPLINE
  5
7FD
100
AcDbEntity
  8
0
100
AcDbSpline
 62
7
  6
CONTINUOUS
 70
0
 71
3
 72
9
 73
5
 74
0
 42
0.0000001
 43
0.0000001
 44
0.0000000001
 40
0.0
 40
0.0
 40
0.0
 40
0.0
 40
0.2512262046
 40
1.0
 40
1.0
 40
1.0
 40
1.0
 10
301.9037764088
 20
117.0081667711
 30
0.0
 10
301.8457077059
 20
116.8849844503
 30
0.0
 10
301.6215367381
 20
116.3914770351
 30
0.0
 10
301.4282248097
 20
115.8833780354
 30
0.0
 10
301.3088657892
 20
115.4954337906
 30
0.0
  0
SPLINE
  5
7FE
100
AcDbEntity
  8
0
100
AcDbSpline
 62
7
  6
CONTINUOUS
 70
0
 71
3
 72
10
 73
6
 74
0
 42
0.0000001
 43
0.0000001
 44
0.0000000001
 40
0.0
 40
0.0
 40
0.0
 40
0.0
 40
0.1343503031
 40
0.438448892
 40
1.0
 40
1.0
 40
1.0
 40
1.0
 10
301.8705115303
 20
87.3188697551
 30
0.0
 10
301.8691173752
 20
87.3181552666
 30
0.0
 10
301.863205953
 20
87.3182399828
 30
0.0
 10
301.857504353
 20
87.3303660097
 30
0.0
 10
301.8547654776
 20
87.3393996918
 30
0.0
 10
301.8532396708
 20
87.3457673409
 30
0.0
  0
SPLINE
  5
7FF
100
AcDbEntity
  8
0
100
AcDbSpline
 62
7
  6
CONTINUOUS
 70
0
 71
3
 72
23
 73
19
 74
0
 42
0.0000001
 43
0.0000001
 44
0.0000000001
 40
0.0
 40
0.0
 40
0.0
 40
0.0
 40
0.1712576169
 40
0.3470032775
 40
0.5178321804
 40
0.5984968169
 40
0.6744844694
 40
0.7447024506
 40
0.8081287465
 40
0.8637884108
 40
0.9108307979
 40
0.9484840627
 40
0.963602384
 40
0.9761610364
 40
0.986100359
 40
0.9933902547
 40
0.9980159068
 40
1.0
 40
1.0
 40
1.0
 40
1.0
 10
289.5671319743
 20
83.89890117
 30
0.0
 10
289.5324676762
 20
84.068243954
 30
0.0
 10
289.4624297573
 20
84.4114081388
 30
0.0
 10
289.3582438865
 20
84.9235787386
 30
0.0
 10
289.2725712103
 20
85.3462050036
 30
0.0
 10
289.2072181933
 20
85.6702141865
 30
0.0
 10
289.1621572659
 20
85.8947220794
 30
0.0
 10
289.1208013087
 20
86.1022278304
 30
0.0
 10
289.0838240078
 20
86.2896835222
 30
0.0
 10
289.0518412288
 20
86.45428584
 30
0.0
 10
289.0254278068
 20
86.5934566783
 30
0.0
 10
289.0072629383
 20
86.6925734487
 30
0.0
 10
288.9960378154
 20
86.7575173405
 30
0.0
 10
288.9898026436
 20
86.79504126
 30
0.0
 10
288.985511742
 20
86.824613931
 30
0.0
 10
288.9822099157
 20
86.8468617409
 30
0.0
 10
288.9818655844
 20
86.8601396402
 30
0.0
 10
288.9808261715
 20
86.86768249
 30
0.0
 10
288.9820992516
 20
86.8692283351
 30
0.0
  0
SPLINE
  5
800
100
AcDbEntity
  8
BEZUGSACHSEN
100
AcDbSpline
 62
7
  6
CONTINUOUS
 70
0
 71
3
 72
9
 73
5
 74
0
 42
0.0000001
 43
0.0000001
 44
0.0000000001
 40
0.0
 40
0.0
 40
0.0
 40
0.0
 40
0.2353057585
 40
1.0
 40
1.0
 40
1.0
 40
1.0
 10
303.7049746331
 20
95.4350785578
 30
0.0
 10
303.7294362042
 20
95.391201291
 30
0.0
 10
303.829976019
 20
95.2028464753
 30
0.0
 10
303.9164975672
 20
95.0070196824
 30
0.0
 10
303.97439376
 20
94.8543765446
 30
0.0
  0
SPLINE
  5
801
100
AcDbEntity
  8
BEZUGSACHSEN
100
AcDbSpline
 62
7
  6
CONTINUOUS
 70
0
 71
3
 72
9
 73
5
 74
0
 42
0.0000001
 43
0.0000001
 44
0.0000000001
 40
0.0
 40
0.0
 40
0.0
 40
0.0
 40
0.4965752719
 40
1.0
 40
1.0
 40
1.0
 40
1.0
 10
303.97439376
 20
94.8543765446
 30
0.0
 10
304.0824049709
 20
94.5696053127
 30
0.0
 10
304.2431942888
 20
93.9733191159
 30
0.0
 10
304.2918952577
 20
93.3582638363
 30
0.0
 10
304.2893770486
 20
93.0495060628
 30
0.0
  0
LINE
  5
802
100
AcDbEntity
  8
0
100
AcDbLine
 62
7
  6
CONTINUOUS
 10
295.377130003
 20
140.4001930864
 11
295.3771299928
 21
140.7528733832
  0
SPLINE
  5
803
100
AcDbEntity
  8
0
100
AcDbSpline
 62
7
  6
CONTINUOUS
 70
0
 71
3
 72
9
 73
5
 74
0
 42
0.0000001
 43
0.0000001
 44
0.0000000001
 40
0.0
 40
0.0
 40
0.0
 40
0.0
 40
0.7113387869
 40
1.0
 40
1.0
 40
1.0
 40
1.0
 10
289.0262382987
 20
87.5959682435
 30
0.0
 10
289.0263908135
 20
87.60986455
 30
0.0
 10
289.0257458779
 20
87.6259236388
 30
0.0
 10
289.0337489053
 20
87.6514521518
 30
0.0
 10
289.0393883156
 20
87.6514757087
 30
0.0
  0
SPLINE
  5
804
100
AcDbEntity
  8
0
100
AcDbSpline
 62
7
  6
CONTINUOUS
 70
0
 71
3
 72
13
 73
9
 74
0
 42
0.0000001
 43
0.0000001
 44
0.0000000001
 40
0.0
 40
0.0
 40
0.0
 40
0.0
 40
0.4076247414
 40
0.7098579131
 40
0.8214078928
 40
0.9066532341
 40
0.9658611531
 40
1.0
 40
1.0
 40
1.0
 40
1.0
 10
289.02293756
 20
87.386835585
 30
0.0
 10
289.021418621
 20
87.3160702367
 30
0.0
 10
289.0179405129
 20
87.1928791441
 30
0.0
 10
289.0107559026
 20
87.0503236387
 30
0.0
 10
289.0029673816
 20
86.9640981298
 30
0.0
 10
288.9973226123
 20
86.9198225695
 30
0.0
 10
288.9910623681
 20
86.8897554605
 30
0.0
 10
288.985867786
 20
86.8738043006
 30
0.0
 10
288.9820992516
 20
86.8692283351
 30
0.0
  0
SPLINE
  5
805
100
AcDbEntity
  8
0
100
AcDbSpline
 62
7
  6
CONTINUOUS
 70
0
 71
3
 72
11
 73
7
 74
0
 42
0.0000001
 43
0.0000001
 44
0.0000000001
 40
0.0
 40
0.0
 40
0.0
 40
0.0
 40
0.2503069339
 40
0.5003210225
 40
0.750150688
 40
1.0
 40
1.0
 40
1.0
 40
1.0
 10
290.239456085
 20
83.6018314766
 30
0.0
 10
290.0184808945
 20
85.2374327137
 30
0.0
 10
289.6272243244
 20
88.5139609763
 30
0.0
 10
289.2489375941
 20
93.4476780999
 30
0.0
 10
289.13265962
 20
98.3921371434
 30
0.0
 10
289.242988085
 20
101.6869940327
 30
0.0
 10
289.3405227535
 20
103.3315478287
 30
0.0
  0
SPLINE
  5
806
100
AcDbEntity
  8
0
100
AcDbSpline
 62
7
  6
CONTINUOUS
 70
0
 71
3
 72
9
 73
5
 74
0
 42
0.0000001
 43
0.0000001
 44
0.0000000001
 40
0.0
 40
0.0
 40
0.0
 40
0.0
 40
0.2518841102
 40
1.0
 40
1.0
 40
1.0
 40
1.0
 10
289.1857935159
 20
111.1457028408
 30
0.0
 10
289.1833586985
 20
111.206500389
 30
0.0
 10
289.1740533114
 20
111.4478796221
 30
0.0
 10
289.1660523812
 20
111.689358399
 30
0.0
 10
289.1643050457
 20
111.8700682643
 30
0.0
  0
SPLINE
  5
807
100
AcDbEntity
  8
0
100
AcDbSpline
 62
7
  6
CONTINUOUS
 70
0
 71
3
 72
10
 73
6
 74
0
 42
0.0000001
 43
0.0000001
 44
0.0000000001
 40
0.0
 40
0.0
 40
0.0
 40
0.0
 40
0.545191261
 40
0.7921584096
 40
1.0
 40
1.0
 40
1.0
 40
1.0
 10
289.1643050457
 20
111.8700682643
 30
0.0
 10
289.1601721648
 20
112.2967623933
 30
0.0
 10
289.1577664645
 20
112.9171032405
 30
0.0
 10
289.1966110812
 20
113.6989815325
 30
0.0
 10
289.2373513317
 20
114.0532349955
 30
0.0
 10
289.2660716411
 20
114.2133545581
 30
0.0
  0
SPLINE
  5
808
100
AcDbEntity
  8
0
100
AcDbSpline
 62
7
  6
CONTINUOUS
 70
0
 71
3
 72
9
 73
5
 74
0
 42
0.0000001
 43
0.0000001
 44
0.0000000001
 40
0.0
 40
0.0
 40
0.0
 40
0.0
 40
0.2706379214
 40
1.0
 40
1.0
 40
1.0
 40
1.0
 10
287.0417587844
 20
95.0805670471
 30
0.0
 10
287.0442859897
 20
94.9776973922
 30
0.0
 10
287.054205859
 20
94.5976160761
 30
0.0
 10
287.0658657512
 20
94.21754447
 30
0.0
 10
287.0787892941
 20
93.9405311068
 30
0.0
  0
LINE
  5
809
100
AcDbEntity
  8
0
100
AcDbLine
 62
7
  6
CONTINUOUS
 10
300.2210370565
 20
101.8126965071
 11
300.1523910141
 21
101.8421491946
  0
SPLINE
  5
80A
100
AcDbEntity
  8
0
100
AcDbSpline
 62
7
  6
CONTINUOUS
 70
0
 71
3
 72
10
 73
6
 74
0
 42
0.0000001
 43
0.0000001
 44
0.0000000001
 40
0.0
 40
0.0
 40
0.0
 40
0.0
 40
0.5417456823
 40
0.7839100886
 40
1.0
 40
1.0
 40
1.0
 40
1.0
 10
288.8171529713
 20
116.2908230445
 30
0.0
 10
288.9839915943
 20
115.9397853606
 30
0.0
 10
289.1876673115
 20
115.408635196
 30
0.0
 10
289.3023647272
 20
114.6983824304
 30
0.0
 10
289.2934423464
 20
114.3659498976
 30
0.0
 10
289.2660716411
 20
114.2133545581
 30
0.0
  0
LINE
  5
80B
100
AcDbEntity
  8
0
100
AcDbLine
 62
7
  6
CONTINUOUS
 10
299.8138670803
 20
83.8685719847
 11
299.8563179189
 21
84.0590271277
  0
SPLINE
  5
80C
100
AcDbEntity
  8
0
100
AcDbSpline
 62
7
  6
CONTINUOUS
 70
0
 71
3
 72
9
 73
5
 74
0
 42
0.0000001
 43
0.0000001
 44
0.0000000001
 40
0.0
 40
0.0
 40
0.0
 40
0.0
 40
0.2356746068
 40
1.0
 40
1.0
 40
1.0
 40
1.0
 10
287.0492853527
 20
95.4350785578
 30
0.0
 10
287.0258119097
 20
95.3929737184
 30
0.0
 10
286.9293551813
 20
95.2125812929
 30
0.0
 10
286.8457613163
 20
95.0253181994
 30
0.0
 10
286.7894663511
 20
94.879466584
 30
0.0
  0
SPLINE
  5
80D
100
AcDbEntity
  8
0
100
AcDbSpline
 62
7
  6
CONTINUOUS
 70
0
 71
3
 72
9
 73
5
 74
0
 42
0.0000001
 43
0.0000001
 44
0.0000000001
 40
0.0
 40
0.0
 40
0.0
 40
0.0
 40
0.4961979735
 40
1.0
 40
1.0
 40
1.0
 40
1.0
 10
286.7894663511
 20
94.879466584
 30
0.0
 10
286.678287601
 20
94.591419505
 30
0.0
 10
286.5125647191
 20
93.9870331072
 30
0.0
 10
286.4623262162
 20
93.3629857858
 30
0.0
 10
286.4648829372
 20
93.0495060628
 30
0.0
  0
SPLINE
  5
80E
100
AcDbEntity
  8
0
100
AcDbSpline
 62
7
  6
CONTINUOUS
 70
0
 71
3
 72
9
 73
5
 74
0
 42
0.0000001
 43
0.0000001
 44
0.0000000001
 40
0.0
 40
0.0
 40
0.0
 40
0.0
 40
0.2417645404
 40
1.0
 40
1.0
 40
1.0
 40
1.0
 10
288.3801937812
 20
116.1026512884
 30
0.0
 10
288.3801826323
 20
116.1420860402
 30
0.0
 10
288.3758568664
 20
116.3052001583
 30
0.0
 10
288.3557434716
 20
116.4676366677
 30
0.0
 10
288.3347013992
 20
116.5895109861
 30
0.0
  0
SPLINE
  5
80F
100
AcDbEntity
  8
BEZUGSACHSEN
100
AcDbSpline
 62
7
  6
CONTINUOUS
 70
0
 71
3
 72
14
 73
10
 74
0
 42
0.0000001
 43
0.0000001
 44
0.0000000001
 40
0.0
 40
0.0
 40
0.0
 40
0.0
 40
0.0664839649
 40
0.1525074933
 40
0.2592925418
 40
0.3842033593
 40
0.5235753906
 40
0.6742284812
 40
1.0
 40
1.0
 40
1.0
 40
1.0
 10
303.3297300176
 20
99.0436577722
 30
0.0
 10
303.3842856214
 20
99.0575329488
 30
0.0
 10
303.5192209583
 20
99.0474946255
 30
0.0
 10
303.7184672796
 20
98.9490388548
 30
0.0
 10
303.9242205108
 20
98.7721684078
 30
0.0
 10
304.1186766132
 20
98.5233834258
 30
0.0
 10
304.2891558452
 20
98.2147161798
 30
0.0
 10
304.4776472495
 20
97.7273235453
 30
0.0
 10
304.5540501285
 20
97.3271175406
 30
0.0
 10
304.5819227453
 20
97.0526965601
 30
0.0
  0
LINE
  5
810
100
AcDbEntity
  8
0
100
AcDbLine
 62
7
  6
CONTINUOUS
 10
299.8563179189
 20
84.0590271277
 11
299.8804324823
 21
84.1803577996
  0
LINE
  5
811
100
AcDbEntity
  8
0
100
AcDbLine
 62
7
  6
CONTINUOUS
 10
299.8804324823
 20
84.1803577996
 11
299.9044655079
 21
84.3013273498
  0
SPLINE
  5
812
100
AcDbEntity
  8
0
100
AcDbSpline
 62
7
  6
CONTINUOUS
 70
0
 71
3
 72
10
 73
6
 74
0
 42
0.0000001
 43
0.0000001
 44
0.0000000001
 40
0.0
 40
0.0
 40
0.0
 40
0.0
 40
0.1246739688
 40
0.3250831117
 40
1.0
 40
1.0
 40
1.0
 40
1.0
 10
299.7289902726
 20
80.2065430126
 30
0.0
 10
299.7348524257
 20
80.206536815
 30
0.0
 10
299.7491571367
 20
80.2151842608
 30
0.0
 10
299.7772086806
 20
80.2525354768
 30
0.0
 10
299.7946807193
 20
80.2905275443
 30
0.0
 10
299.8071630972
 20
80.319704074
 30
0.0
  0
SPLINE
  5
813
100
AcDbEntity
  8
0
100
AcDbSpline
 62
7
  6
CONTINUOUS
 70
0
 71
3
 72
13
 73
9
 74
0
 42
0.0000001
 43
0.0000001
 44
0.0000000001
 40
0.0
 40
0.0
 40
0.0
 40
0.0
 40
0.0669131154
 40
0.162166216
 40
0.2809287068
 40
0.4173052289
 40
0.7158829021
 40
1.0
 40
1.0
 40
1.0
 40
1.0
 10
299.8071630972
 20
80.319704074
 30
0.0
 10
299.8366583679
 20
80.3886468389
 30
0.0
 10
299.8944599212
 20
80.5613331759
 30
0.0
 10
299.9800717678
 20
80.8642236138
 30
0.0
 10
300.0745399664
 20
81.2454661292
 30
0.0
 10
300.2107315445
 20
81.8508810186
 30
0.0
 10
300.3663677524
 20
82.641687162
 30
0.0
 10
300.4721742921
 20
83.2862981333
 30
0.0
 10
300.5148039008
 20
83.6018314766
 30
0.0
  0
LINE
  5
814
100
AcDbEntity
  8
0
100
AcDbLine
 62
7
  6
CONTINUOUS
 10
299.9044655079
 20
84.3013273498
 11
299.9370214726
 21
84.5002427066
  0
LINE
  5
815
100
AcDbEntity
  8
0
100
AcDbLine
 62
7
  6
CONTINUOUS
 10
299.9370214726
 20
84.5002427066
 11
299.956699291
 21
84.6817937581
  0
LINE
  5
816
100
AcDbEntity
  8
0
100
AcDbLine
 62
7
  6
CONTINUOUS
 10
299.956699291
 20
84.6817937581
 11
299.9666877277
 21
84.774749639
  0
LINE
  5
817
100
AcDbEntity
  8
0
100
AcDbLine
 62
7
  6
CONTINUOUS
 10
299.9666877277
 20
84.774749639
 11
299.9736010206
 21
84.8394116208
  0
LINE
  5
818
100
AcDbEntity
  8
0
100
AcDbLine
 62
7
  6
CONTINUOUS
 10
299.9736010206
 20
84.8394116208
 11
299.9761316621
 21
84.8631487683
  0
LINE
  5
819
100
AcDbEntity
  8
0
100
AcDbLine
 62
7
  6
CONTINUOUS
 10
299.965534193
 20
85.0268664123
 11
299.9616939294
 21
85.0440551543
  0
LINE
  5
81A
100
AcDbEntity
  8
0
100
AcDbLine
 62
7
  6
CONTINUOUS
 10
299.9460510701
 20
85.0567397977
 11
299.9408062659
 21
85.0609708354
  0
SPLINE
  5
81B
100
AcDbEntity
  8
0
100
AcDbSpline
 62
7
  6
CONTINUOUS
 70
0
 71
3
 72
12
 73
8
 74
0
 42
0.0000001
 43
0.0000001
 44
0.0000000001
 40
0.0
 40
0.0
 40
0.0
 40
0.0
 40
0.2476194616
 40
0.3719800555
 40
0.4968649953
 40
0.7478335301
 40
1.0
 40
1.0
 40
1.0
 40
1.0
 10
280.0055388616
 20
191.959710563
 30
0.0
 10
280.1446573618
 20
191.7609027851
 30
0.0
 10
280.3749433743
 20
191.4743705302
 30
0.0
 10
280.7442907956
 20
191.1555681286
 30
0.0
 10
281.1460191709
 20
190.8735475748
 30
0.0
 10
281.7019658405
 20
190.5991357925
 30
0.0
 10
282.1832312577
 20
190.4750847017
 30
0.0
 10
282.4275016915
 20
190.437766388
 30
0.0
  0
SPLINE
  5
81C
100
AcDbEntity
  8
0
100
AcDbSpline
 62
7
  6
CONTINUOUS
 70
0
 71
3
 72
18
 73
14
 74
0
 42
0.0000001
 43
0.0000001
 44
0.0000000001
 40
0.0
 40
0.0
 40
0.0
 40
0.0
 40
0.0055700853
 40
0.0191077872
 40
0.0408993828
 40
0.0709372251
 40
0.1091301824
 40
0.1552943402
 40
0.2707415988
 40
0.415470386
 40
0.587049726
 40
0.7828543045
 40
1.0
 40
1.0
 40
1.0
 40
1.0
 10
299.609009354
 20
76.3948907215
 30
0.0
 10
299.610851794
 20
76.3948994706
 30
0.0
 10
299.614098575
 20
76.40233619
 30
0.0
 10
299.6189639168
 20
76.4133183131
 30
0.0
 10
299.6256178007
 20
76.4347875526
 30
0.0
 10
299.6338262021
 20
76.4630299886
 30
0.0
 10
299.643587677
 20
76.4997362521
 30
0.0
 10
299.6598220426
 20
76.5637351607
 30
0.0
 10
299.6833654593
 20
76.6623402499
 30
0.0
 10
299.715209871
 20
76.8015421357
 30
0.0
 10
299.7519127852
 20
76.9669211191
 30
0.0
 10
299.7929457279
 20
77.1558646201
 30
0.0
 10
299.8214834346
 20
77.2894458655
 30
0.0
 10
299.8364018014
 20
77.3597065069
 30
0.0
  0
LINE
  5
81D
100
AcDbEntity
  8
0
100
AcDbLine
 62
7
  6
CONTINUOUS
 10
299.6472165055
 20
83.4582671287
 11
299.6382445169
 21
83.4516389199
  0
LINE
  5
81E
100
AcDbEntity
  8
BEZUGSACHSEN
100
AcDbLine
 62
7
  6
CONTINUOUS
 10
304.2743688449
 20
91.5163865139
 11
304.2723447649
 21
91.3532472904
  0
LINE
  5
81F
100
AcDbEntity
  8
BEZUGSACHSEN
100
AcDbLine
 62
7
  6
CONTINUOUS
 10
304.2723447649
 20
91.3532472904
 11
304.2710216893
 21
91.2517850488
  0
SPLINE
  5
820
100
AcDbEntity
  8
0
100
AcDbSpline
 62
7
  6
CONTINUOUS
 70
0
 71
3
 72
23
 73
19
 74
0
 42
0.0000001
 43
0.0000001
 44
0.0000000001
 40
0.0
 40
0.0
 40
0.0
 40
0.0
 40
0.1712576169
 40
0.3470032775
 40
0.5178321804
 40
0.5984968169
 40
0.6744844694
 40
0.7447024506
 40
0.8081287465
 40
0.8637884108
 40
0.9108307979
 40
0.9484840627
 40
0.963602384
 40
0.9761610364
 40
0.986100359
 40
0.9933902547
 40
0.9980159068
 40
1.0
 40
1.0
 40
1.0
 40
1.0
 10
301.1871280115
 20
83.89890117
 30
0.0
 10
301.2217923096
 20
84.068243954
 30
0.0
 10
301.2918302285
 20
84.4114081388
 30
0.0
 10
301.3960160994
 20
84.9235787386
 30
0.0
 10
301.4816887755
 20
85.3462050036
 30
0.0
 10
301.5470417925
 20
85.6702141865
 30
0.0
 10
301.5921027199
 20
85.8947220794
 30
0.0
 10
301.6334586771
 20
86.1022278304
 30
0.0
 10
301.670435978
 20
86.2896835222
 30
0.0
 10
301.702418757
 20
86.45428584
 30
0.0
 10
301.728832179
 20
86.5934566783
 30
0.0
 10
301.7469970475
 20
86.6925734487
 30
0.0
 10
301.7582221704
 20
86.7575173405
 30
0.0
 10
301.7644573422
 20
86.79504126
 30
0.0
 10
301.7687482438
 20
86.824613931
 30
0.0
 10
301.7720500701
 20
86.8468617409
 30
0.0
 10
301.7723944014
 20
86.8601396402
 30
0.0
 10
301.7734338143
 20
86.86768249
 30
0.0
 10
301.7721607342
 20
86.8692283351
 30
0.0
  0
SPLINE
  5
821
100
AcDbEntity
  8
0
100
AcDbSpline
 62
7
  6
CONTINUOUS
 70
0
 71
3
 72
13
 73
9
 74
0
 42
0.0000001
 43
0.0000001
 44
0.0000000001
 40
0.0
 40
0.0
 40
0.0
 40
0.0
 40
0.4076247414
 40
0.7098579131
 40
0.8214078928
 40
0.9066532341
 40
0.9658611531
 40
1.0
 40
1.0
 40
1.0
 40
1.0
 10
301.7313224258
 20
87.386835585
 30
0.0
 10
301.7328413648
 20
87.3160702367
 30
0.0
 10
301.7363194729
 20
87.1928791441
 30
0.0
 10
301.7435040832
 20
87.0503236387
 30
0.0
 10
301.7512926042
 20
86.9640981298
 30
0.0
 10
301.7569373736
 20
86.9198225695
 30
0.0
 10
301.7631976177
 20
86.8897554605
 30
0.0
 10
301.7683921998
 20
86.8738043006
 30
0.0
 10
301.7721607342
 20
86.8692283351
 30
0.0
  0
SPLINE
  5
822
100
AcDbEntity
  8
0
100
AcDbSpline
 62
7
  6
CONTINUOUS
 70
0
 71
3
 72
9
 73
5
 74
0
 42
0.0000001
 43
0.0000001
 44
0.0000000001
 40
0.0
 40
0.0
 40
0.0
 40
0.0
 40
0.7113387869
 40
1.0
 40
1.0
 40
1.0
 40
1.0
 10
301.7280216872
 20
87.5959682435
 30
0.0
 10
301.7278691723
 20
87.60986455
 30
0.0
 10
301.7285141079
 20
87.6259236388
 30
0.0
 10
301.7205110805
 20
87.6514521518
 30
0.0
 10
301.7148716702
 20
87.6514757087
 30
0.0
  0
LINE
  5
823
100
AcDbEntity
  8
0
100
AcDbLine
 62
7
  6
CONTINUOUS
 10
299.7150281068
 20
83.5564176519
 11
299.7048094891
 21
83.5369010322
  0
LINE
  5
824
100
AcDbEntity
  8
0
100
AcDbLine
 62
7
  6
CONTINUOUS
 10
299.7048094891
 20
83.5369010322
 11
299.6842739409
 21
83.4977462728
  0
LINE
  5
825
100
AcDbEntity
  8
0
100
AcDbLine
 62
7
  6
CONTINUOUS
 10
299.6842739409
 20
83.4977462728
 11
299.6804309804
 21
83.490428709
  0
LINE
  5
826
100
AcDbEntity
  8
0
100
AcDbLine
 62
7
  6
CONTINUOUS
 10
299.6804309804
 20
83.490428709
 11
299.6739569742
 21
83.4781081347
  0
SPLINE
  5
827
100
AcDbEntity
  8
0
100
AcDbSpline
 62
7
  6
CONTINUOUS
 70
0
 71
3
 72
14
 73
10
 74
0
 42
0.0000001
 43
0.0000001
 44
0.0000000001
 40
0.0
 40
0.0
 40
0.0
 40
0.0
 40
0.0664837314
 40
0.1525070229
 40
0.2592919368
 40
0.3842027357
 40
0.5235748421
 40
0.6742280753
 40
1.0
 40
1.0
 40
1.0
 40
1.0
 10
287.4245329996
 20
99.0436570012
 30
0.0
 10
287.3699776905
 20
99.0575328087
 30
0.0
 10
287.2350423927
 20
99.0474957171
 30
0.0
 10
287.0357957784
 20
98.9490409771
 30
0.0
 10
286.830041993
 20
98.7721711528
 30
0.0
 10
286.6355852009
 20
98.5233862905
 30
0.0
 10
286.4651052809
 20
98.2147187376
 30
0.0
 10
286.2766130705
 20
97.7273251654
 30
0.0
 10
286.2002099255
 20
97.3271182119
 30
0.0
 10
286.1723372405
 20
97.0526965601
 30
0.0
  0
LINE
  5
828
100
AcDbEntity
  8
BEZUGSACHSEN
100
AcDbLine
 62
7
  6
CONTINUOUS
 10
295.3771311501
 20
206.6888207151
 11
295.3771299919
 21
209.0048404648
  0
LINE
  5
829
100
AcDbEntity
  8
BEZUGSACHSEN
100
AcDbLine
 62
7
  6
CONTINUOUS
 10
304.5868194827
 20
94.8625949451
 11
304.583120675
 21
94.6358205252
  0
LINE
  5
82A
100
AcDbEntity
  8
BEZUGSACHSEN
100
AcDbLine
 62
7
  6
CONTINUOUS
 10
304.583120675
 20
94.6358205252
 11
304.579331552
 21
94.4227441318
  0
SPLINE
  5
82B
100
AcDbEntity
  8
0
100
AcDbSpline
 62
7
  6
CONTINUOUS
 70
0
 71
3
 72
11
 73
7
 74
0
 42
0.0000001
 43
0.0000001
 44
0.0000000001
 40
0.0
 40
0.0
 40
0.0
 40
0.0
 40
0.2503011339
 40
0.5003134264
 40
0.7501459797
 40
1.0
 40
1.0
 40
1.0
 40
1.0
 10
291.1189460027
 20
83.7805995593
 30
0.0
 10
290.9018335468
 20
85.4015003084
 30
0.0
 10
290.5180210014
 20
88.6485715386
 30
0.0
 10
290.1486894812
 20
93.5376831724
 30
0.0
 10
290.0373045667
 20
98.4371511805
 30
0.0
 10
290.1474142727
 20
101.7019563198
 30
0.0
 10
290.2440615914
 20
103.3315483259
 30
0.0
  0
SPLINE
  5
82C
100
AcDbEntity
  8
BEZUGSACHSEN
100
AcDbSpline
 62
7
  6
CONTINUOUS
 70
0
 71
3
 72
11
 73
7
 74
0
 42
0.0000001
 43
0.0000001
 44
0.0000000001
 40
0.0
 40
0.0
 40
0.0
 40
0.0
 40
0.4342345646
 40
0.7464090314
 40
0.9351189615
 40
1.0
 40
1.0
 40
1.0
 40
1.0
 10
285.1950299929
 20
202.2762948501
 30
0.0
 10
285.1950299929
 20
202.2849402444
 30
0.0
 10
285.1953834647
 20
202.2993110001
 30
0.0
 10
285.1947158324
 20
202.3194240288
 30
0.0
 10
285.1967862325
 20
202.3280855616
 30
0.0
 10
285.1955612197
 20
202.335848925
 30
0.0
 10
285.1968509318
 20
202.3359214404
 30
0.0
  0
LINE
  5
82D
100
AcDbEntity
  8
0
100
AcDbLine
 62
7
  6
CONTINUOUS
 10
299.7616256063
 20
83.6865722483
 11
299.7267201196
 21
83.5890516868
  0
LINE
  5
82E
100
AcDbEntity
  8
0
100
AcDbLine
 62
7
  6
CONTINUOUS
 10
299.7267201196
 20
83.5890516868
 11
299.7150281068
 21
83.5564176519
  0
LINE
  5
82F
100
AcDbEntity
  8
0
100
AcDbLine
 62
7
  6
CONTINUOUS
 10
299.8138670803
 20
83.8685719847
 11
299.7747161457
 21
83.7321677585
  0
LINE
  5
830
100
AcDbEntity
  8
0
100
AcDbLine
 62
7
  6
CONTINUOUS
 10
299.7747161457
 20
83.7321677585
 11
299.7616256063
 21
83.6865722483
  0
SPLINE
  5
831
100
AcDbEntity
  8
BEZUGSACHSEN
100
AcDbSpline
 62
7
  6
CONTINUOUS
 70
0
 71
3
 72
16
 73
12
 74
0
 42
0.0000001
 43
0.0000001
 44
0.0000000001
 40
0.0
 40
0.0
 40
0.0
 40
0.0
 40
0.2330113708
 40
0.4273370707
 40
0.579699704
 40
0.6893787539
 40
0.7601097988
 40
0.7868313198
 40
0.8139954136
 40
0.8873045563
 40
1.0
 40
1.0
 40
1.0
 40
1.0
 10
303.6754706917
 20
93.9405311068
 30
0.0
 10
303.6739644713
 20
93.9082455978
 30
0.0
 10
303.6692455903
 20
93.8490701921
 30
0.0
 10
303.6563793239
 20
93.7696741458
 30
0.0
 10
303.6392489529
 20
93.7083051141
 30
0.0
 10
303.6201525513
 20
93.6665857388
 30
0.0
 10
303.5998687543
 20
93.6436614457
 30
0.0
 10
303.5821817502
 20
93.6401701373
 30
0.0
 10
303.5649569623
 20
93.6464869167
 30
0.0
 10
303.5470189018
 20
93.6720508439
 30
0.0
 10
303.5383196763
 20
93.6960988542
 30
0.0
 10
303.5338278453
 20
93.7110713833
 30
0.0
  0
SPLINE
  5
832
100
AcDbEntity
  8
BEZUGSACHSEN
100
AcDbSpline
 62
7
  6
CONTINUOUS
 70
0
 71
3
 72
11
 73
7
 74
0
 42
0.0000001
 43
0.0000001
 44
0.0000000001
 40
0.0
 40
0.0
 40
0.0
 40
0.0
 40
0.0579512171
 40
0.2438477432
 40
0.5579806615
 40
1.0
 40
1.0
 40
1.0
 40
1.0
 10
284.6256913294
 20
198.5359617322
 30
0.0
 10
284.6253689432
 20
198.5359777951
 30
0.0
 10
284.627025062
 20
198.5379501947
 30
0.0
 10
284.6277122355
 20
198.5397726076
 30
0.0
 10
284.6312061707
 20
198.5446141283
 30
0.0
 10
284.6333767515
 20
198.5479422968
 30
0.0
 10
284.6347635117
 20
198.549976626
 30
0.0
  0
SPLINE
  5
833
100
AcDbEntity
  8
0
100
AcDbSpline
 62
7
  6
CONTINUOUS
 70
0
 71
3
 72
9
 73
5
 74
0
 42
0.0000001
 43
0.0000001
 44
0.0000000001
 40
0.0
 40
0.0
 40
0.0
 40
0.0
 40
0.2469863537
 40
1.0
 40
1.0
 40
1.0
 40
1.0
 10
286.1723372405
 20
97.0526965601
 30
0.0
 10
286.1674362139
 20
97.0044433035
 30
0.0
 10
286.1506596585
 20
96.808768721
 30
0.0
 10
286.1454223761
 20
96.6121627314
 30
0.0
 10
286.1470048368
 20
96.4642994599
 30
0.0
  0
SPLINE
  5
834
100
AcDbEntity
  8
BEZUGSACHSEN
100
AcDbSpline
 62
7
  6
CONTINUOUS
 70
0
 71
3
 72
9
 73
5
 74
0
 42
0.0000001
 43
0.0000001
 44
0.0000000001
 40
0.0
 40
0.0
 40
0.0
 40
0.0
 40
0.2469863537
 40
1.0
 40
1.0
 40
1.0
 40
1.0
 10
304.5819227453
 20
97.0526965601
 30
0.0
 10
304.5868237719
 20
97.0044433035
 30
0.0
 10
304.6036003274
 20
96.808768721
 30
0.0
 10
304.6088376097
 20
96.6121627314
 30
0.0
 10
304.6072551491
 20
96.4642994599
 30
0.0
  0
ELLIPSE
  5
835
100
AcDbEntity
  8
BEZUGSACHSEN
100
AcDbEllipse
 62
7
  6
CONTINUOUS
 10
78.7409125622
 20
201.2738203499
 30
0.0
 11
0.0
 21
5.415
 31
0.0
 40
0.1583844403
 41
-3.1415926536
 42
-0.0764776789
  0
ELLIPSE
  5
836
100
AcDbEntity
  8
0
100
AcDbEllipse
 62
7
  6
CONTINUOUS
 10
113.8726125622
 20
201.2738203499
 30
0.0
 11
0.0
 21
5.358
 31
0.0
 40
0.0775608719
 41
-3.1415926536
 42
0.0
  0
ELLIPSE
  5
837
100
AcDbEntity
  8
0
100
AcDbEllipse
 62
7
  6
CONTINUOUS
 10
106.4726125622
 20
201.2738203499
 30
0.0
 11
0.0
 21
5.358
 31
0.0
 40
0.0775608719
 41
6.2831853072
 42
9.4247779608
  0
ELLIPSE
  5
838
100
AcDbEntity
  8
AUSFORMSCHRAEGEN
100
AcDbEllipse
 62
7
  6
CONTINUOUS
 10
282.3771299929
 20
178.5973203499
 30
0.0
 11
0.2723083401
 21
10.0025744893
 31
0.0
 40
0.0831454677
 41
0.3164227992
 42
2.0971451028
  0
ELLIPSE
  5
839
100
AcDbEntity
  8
KONSTRUKTIONSELEMENTE
100
AcDbEllipse
 62
7
  6
CONTINUOUS
 10
292.2419927419
 20
141.1779935898
 30
0.0
 11
10.0219764349
 21
-0.6793696803
 31
0.0
 40
0.878559456
 41
-3.0635833058
 42
-2.80278584
  0
ELLIPSE
  5
83A
100
AcDbEntity
  8
KONSTRUKTIONSELEMENTE
100
AcDbEllipse
 62
7
  6
CONTINUOUS
 10
286.2135442794
 20
132.4710793096
 30
0.0
 11
1.5061402956
 21
0.0
 31
0.0
 40
0.9471792094
 41
-2.8808127543
 42
-1.5707963268
  0
ELLIPSE
  5
83B
100
AcDbEntity
  8
0
100
AcDbEllipse
 62
7
  6
CONTINUOUS
 10
308.3771299929
 20
178.5973203499
 30
0.0
 11
-0.2723083401
 21
10.0025744893
 31
0.0
 40
0.0831454677
 41
-2.0971451028
 42
-0.3164227992
  0
ELLIPSE
  5
83C
100
AcDbEntity
  8
0
100
AcDbEllipse
 62
7
  6
CONTINUOUS
 10
298.5122672439
 20
141.1779935898
 30
0.0
 11
10.0219764349
 21
0.6793696803
 31
0.0
 40
0.878559456
 41
-0.3388068136
 42
-0.0780093478
  0
ELLIPSE
  5
83D
100
AcDbEntity
  8
0
100
AcDbEllipse
 62
7
  6
CONTINUOUS
 10
304.5407157064
 20
132.4710793096
 30
0.0
 11
1.5061402956
 21
0.0
 31
0.0
 40
0.9471792094
 41
-1.5707963268
 42
-0.2607798993
  0
ELLIPSE
  5
83E
100
AcDbEntity
  8
0
100
AcDbEllipse
 62
7
  6
CONTINUOUS
 10
307.3133238557
 20
184.8342275754
 30
0.0
 11
-0.1088950221
 21
3.9999897528
 31
0.0
 40
0.0831454677
 41
1.107145535
 42
2.2104944851
  0
ELLIPSE
  5
83F
100
AcDbEntity
  8
AUSFORMSCHRAEGEN
100
AcDbEllipse
 62
7
  6
CONTINUOUS
 10
283.4409361301
 20
184.8342275754
 30
0.0
 11
0.1088950221
 21
3.9999897528
 31
0.0
 40
0.0831454677
 41
-2.2104944851
 42
-1.107145535
  0
ELLIPSE
  5
840
100
AcDbEntity
  8
AUSFORMSCHRAEGEN
100
AcDbEllipse
 62
7
  6
CONTINUOUS
 10
282.3771299929
 20
178.5973203499
 30
0.0
 11
0.1088950221
 21
3.9999897528
 31
0.0
 40
0.0831454677
 41
0.0
 42
6.2831853072
  0
ELLIPSE
  5
841
100
AcDbEntity
  8
AUSFORMSCHRAEGEN
100
AcDbEllipse
 62
7
  6
CONTINUOUS
 10
282.3158879284
 20
179.0467480153
 30
0.0
 11
0.4628038439
 21
16.9999564495
 31
0.0
 40
0.0831454677
 41
-1.107145535
 42
-0.8342291083
  0
ELLIPSE
  5
842
100
AcDbEntity
  8
AUSFORMSCHRAEGEN
100
AcDbEllipse
 62
7
  6
CONTINUOUS
 10
284.6518352446
 20
170.4638014267
 30
0.0
 11
0.5444751104
 21
19.9999487642
 31
0.0
 40
0.0831454677
 41
0.9310981685
 42
1.887219126
  0
ELLIPSE
  5
843
100
AcDbEntity
  8
KONSTRUKTIONSELEMENTE
100
AcDbEllipse
 62
7
  6
CONTINUOUS
 10
292.9402603495
 20
143.7317602911
 30
0.0
 11
10.0378085572
 21
0.0933672251
 31
0.0
 40
0.9474914441
 41
3.1327797383
 42
3.3935772041
  0
ELLIPSE
  5
844
100
AcDbEntity
  8
KONSTRUKTIONSELEMENTE
100
AcDbEllipse
 62
7
  6
CONTINUOUS
 10
286.4852690676
 20
133.3981302927
 30
0.0
 11
1.5061402956
 21
0.0
 31
0.0
 40
0.9471792094
 41
-2.8808127543
 42
-1.5707963268
  0
ELLIPSE
  5
845
100
AcDbEntity
  8
0
100
AcDbEllipse
 62
7
  6
CONTINUOUS
 10
308.3771299929
 20
178.5973203499
 30
0.0
 11
-0.1088950221
 21
3.9999897528
 31
0.0
 40
0.0831454677
 41
0.0
 42
6.2831853072
  0
ELLIPSE
  5
846
100
AcDbEntity
  8
0
100
AcDbEllipse
 62
7
  6
CONTINUOUS
 10
306.1024247412
 20
170.4638014267
 30
0.0
 11
-0.5444751104
 21
19.9999487642
 31
0.0
 40
0.0831454677
 41
-1.887219126
 42
-0.9310981685
  0
ELLIPSE
  5
847
100
AcDbEntity
  8
0
100
AcDbEllipse
 62
7
  6
CONTINUOUS
 10
308.4383720574
 20
179.0467480153
 30
0.0
 11
-0.4628038439
 21
16.9999564495
 31
0.0
 40
0.0831454677
 41
0.8342291083
 42
1.107145535
  0
ELLIPSE
  5
848
100
AcDbEntity
  8
0
100
AcDbEllipse
 62
7
  6
CONTINUOUS
 10
307.3999349413
 20
187.7576637998
 30
0.0
 11
-0.1088950221
 21
3.9999897528
 31
0.0
 40
0.0831454677
 41
5.966762508
 42
7.1174144155
  0
ELLIPSE
  5
849
100
AcDbEntity
  8
0
100
AcDbEllipse
 62
7
  6
CONTINUOUS
 10
297.8139996363
 20
143.7317602911
 30
0.0
 11
10.0378085572
 21
-0.0933672251
 31
0.0
 40
0.9474914441
 41
-0.2519845505
 42
0.0088129153
  0
ELLIPSE
  5
84A
100
AcDbEntity
  8
0
100
AcDbEllipse
 62
7
  6
CONTINUOUS
 10
304.2689909182
 20
133.3981302927
 30
0.0
 11
1.5061402956
 21
0.0
 31
0.0
 40
0.9471792094
 41
-1.5707963268
 42
-0.2607798993
  0
ELLIPSE
  5
84B
100
AcDbEntity
  8
AUSFORMSCHRAEGEN
100
AcDbEllipse
 62
7
  6
CONTINUOUS
 10
283.3543250445
 20
187.7576637998
 30
0.0
 11
0.1088950221
 21
3.9999897528
 31
0.0
 40
0.0831454677
 41
-0.8342291083
 42
0.3164227992
  0
ELLIPSE
  5
84C
100
AcDbEntity
  8
0
100
AcDbEllipse
 62
7
  6
CONTINUOUS
 10
300.3403217971
 20
107.7653203499
 30
0.0
 11
0.231266799
 21
3.5413195902
 31
0.0
 40
0.1927034418
 41
-0.9950042373
 42
1.9458755523
  0
ELLIPSE
  5
84D
100
AcDbEntity
  8
0
100
AcDbEllipse
 62
7
  6
CONTINUOUS
 10
299.4367829886
 20
107.7653203499
 30
0.0
 11
0.231266799
 21
3.5413195902
 31
0.0
 40
0.1927034418
 41
5.4583373339
 42
5.5749656903
  0
ELLIPSE
  5
84E
100
AcDbEntity
  8
0
100
AcDbEllipse
 62
7
  6
CONTINUOUS
 10
290.4139381887
 20
107.7653203499
 30
0.0
 11
-0.231266799
 21
3.5413195902
 31
0.0
 40
0.1927034418
 41
4.3373097549
 42
7.2781895445
  0
ELLIPSE
  5
84F
100
AcDbEntity
  8
0
100
AcDbEllipse
 62
7
  6
CONTINUOUS
 10
291.3174769972
 20
107.7653203499
 30
0.0
 11
-0.231266799
 21
3.5413195902
 31
0.0
 40
0.1927034418
 41
0.7082196169
 42
0.9950042373
  0
ENDSEC
  0
SECTION
  2
OBJECTS
  0
DICTIONARY
  5
C
100
AcDbDictionary
280
0
281
1
  3
ACAD_GROUP
350
D
  3
ACAD_MLINESTYLE
350
17
  3
ACAD_LAYOUT
350
1A
  3
ACAD_PLOTSETTINGS
350
19
  3
ACAD_PLOTSTYLENAME
350
E
  0
DICTIONARY
  5
D
102
{ACAD_REACTORS
330
C
102
}
100
AcDbDictionary
280
0
281
1
  0
ACDBDICTIONARYWDFLT
  5
E
102
{ACAD_REACTORS
330
C
102
}
100
AcDbDictionary
281
1
  3
Normal
350
F
100
AcDbDictionaryWithDefault
340
F
  0
DICTIONARY
  5
17
102
{ACAD_REACTORS
330
C
102
}
100
AcDbDictionary
280
0
281
1
  3
Standard
350
18
  0
DICTIONARY
  5
19
102
{ACAD_REACTORS
330
C
102
}
100
AcDbDictionary
281
1
  0
DICTIONARY
  5
1A
102
{ACAD_REACTORS
330
C
102
}
100
AcDbDictionary
281
1
  3
Model
350
850
  3
Layout1
350
851
  0
ACDBPLACEHOLDER
  5
F
102
{ACAD_REACTORS
330
E
102
}
  0
MLINESTYLE
  5
18
102
{ACAD_REACTORS
330
17
102
}
100
AcDbMlineStyle
  2
STANDARD
 70
0
  3

 62
256
 51
90.0
 52
90.0
 71
2
 49
0.5
 62
256
  6
BYLAYER
 49
-0.5
 62
256
  6
BYLAYER
  0
LAYOUT
  5
850
102
{ACAD_REACTORS
330
1A
102
}
100
AcDbPlotSettings
  1

  2
none_device
  4
ISO_A3_(420.00_x_297.00_MM)
  6

 40
0.0
 41
0.0
 42
0.0
 43
0.0
 44
420.0
 45
297.0
 46
0.0
 47
0.0
 48
0.0
 49
0.0
140
0.0
141
0.0
142
1.0
143
1.0
 70
1024
 72
1
 73
0
 74
0
  7

 75
0
147
1.0
148
0.0
149
0.0
100
AcDbLayout
  1
Model
 70
0
 71
0
 10
0.0
 20
0.0
 11
420.0
 21
297.0
 12
0.0
 22
0.0
 32
0.0
 14
0.0
 24
0.0
 34
0.0
 15
0.0
 25
0.0
 35
0.0
146
0.0
 13
0.0
 23
0.0
 33
0.0
 16
1.0
 26
0.0
 36
0.0
 17
0.0
 27
1.0
 37
0.0
 76
0
330
211
345
0
346
0
  0
LAYOUT
  5
851
102
{ACAD_REACTORS
330
1A
102
}
100
AcDbPlotSettings
  1

  2
none_device
  4
ISO_A3_(420.00_x_297.00_MM)
  6

 40
0.0
 41
0.0
 42
0.0
 43
0.0
 44
420.0
 45
297.0
 46
0.0
 47
0.0
 48
0.0
 49
0.0
140
0.0
141
0.0
142
1.0
143
1.0
 70
0
 72
1
 73
0
 74
0
  7

 75
0
147
1.0
148
0.0
149
0.0
100
AcDbLayout
  1
Layout1
 70
0
 71
1
 10
0.0
 20
0.0
 11
420.0
 21
297.0
 12
0.0
 22
0.0
 32
0.0
 14
0.0
 24
0.0
 34
0.0
 15
0.0
 25
0.0
 35
0.0
146
0.0
 13
0.0
 23
0.0
 33
0.0
 16
1.0
 26
0.0
 36
0.0
 17
0.0
 27
1.0
 37
0.0
 76
0
330
212
345
0
346
0
  0
ENDSEC
  0
EOF
