999
DXF file: ISH-16_7995257_M33744-P-3.dxf
999
Pro/ENGINEER 2010140 by Parametric Technology Corporation
  0
SECTION
  2
HEADER
  9
$ACADVER
  1
AC1015
  9
$DWGCODEPAGE
  3
ANSI_1252
  9
$EXTMAX
 10
420.0
 20
297.0
 30
0.0
  9
$EXTMIN
 10
0.0
 20
0.0
 30
0.0
  9
$LIMMIN
 10
0.0
 20
0.0
  9
$LIMMAX
 10
420.0
 20
297.0
  9
$VIEWCTR
 10
210.0
 20
148.5
  9
$VIEWSIZE
 40
297.0
  9
$CLAYER
  8
0
  9
$LTSCALE
 40
23.1
  9
$CELTYPE
  6
BYLAYER
  9
$DIMSCALE
 40
1.0
  9
$DIMASZ
 40
3.5
  9
$DIMEXO
 40
2.625
  9
$DIMDLI
 40
15.96
  9
$DIMEXE
 40
7.56
  9
$DIMCEN
 40
3.78
  9
$DIMLFAC
 40
1.0
  9
$DIMBLK
  1
_FILLED
  9
$DIMTXT
 40
3.5
  9
$DIMTOL
 70
1
  9
$DIMLIM
 70
0
  9
$DIMTFAC
 40
1.0
  9
$DIMTP
 40
0.005
  9
$DIMTM
 40
0.005
  9
$PDMODE
 70
3
  9
$PDSIZE
 40
0.3125
  9
$HANDSEED
  5
86C
  9
$TILEMODE
 70
1
  9
$MEASUREMENT
 70
1
  9
$INSUNITS
 70
4
  0
ENDSEC
  0
SECTION
  2
CLASSES
  0
CLASS
  1
ACDBDICTIONARYWDFLT
  2
AcDbDictionaryWithDefault
  3
AutoCAD 2000
 90
0
280
0
281
0
  0
CLASS
  1
ACDBPLACEHOLDER
  2
AcDbPlaceHolder
  3
AutoCAD 2000
 90
0
280
0
281
0
  0
CLASS
  1
LAYOUT
  2
AcDbLayout
  3
AutoCAD 2000
 90
0
280
0
281
0
  0
ENDSEC
  0
SECTION
  2
TABLES
  0
TABLE
  2
VPORT
  5
8
100
AcDbSymbolTable
 70
2
  0
VPORT
  5
1F4
100
AcDbSymbolTableRecord
100
AcDbViewportTableRecord
  2
*ACTIVE
 70
0
 10
0.0
 20
0.0
 11
1.0
 21
1.0
 12
210.0
 22
148.5
 13
0.0
 23
0.0
 14
1.0
 24
1.0
 15
0.0
 25
0.0
 16
0.0
 26
0.0
 36
1.0
 17
0.0
 27
0.0
 37
0.0
 40
297.0
 41
1.4141414141
 42
50.0
 43
0.0
 44
0.0
 50
0.0
 51
0.0
 71
0
 72
100
 73
1
 74
1
 75
0
 76
0
 77
0
 78
0
  0
ENDTAB
  0
TABLE
  2
LTYPE
  5
5
100
AcDbSymbolTable
 70
6
  0
LTYPE
  5
14
100
AcDbSymbolTableRecord
100
AcDbLinetypeTableRecord
  2
BYBLOCK
 70
0
  3

 72
65
 73
0
 40
0.0
  0
LTYPE
  5
15
100
AcDbSymbolTableRecord
100
AcDbLinetypeTableRecord
  2
BYLAYER
 70
0
  3

 72
65
 73
0
 40
0.0
  0
LTYPE
  5
16
100
AcDbSymbolTableRecord
100
AcDbLinetypeTableRecord
  2
CONTINUOUS
 70
64
  3
Solid line
 72
65
 73
0
 40
0.0
  0
LTYPE
  5
1F5
100
AcDbSymbolTableRecord
100
AcDbLinetypeTableRecord
  2
CENTER
 70
64
  3
____ _ ____ _ ____ _ ____ _ ____ _ ____ _ ____
 72
65
 73
4
 40
0.6
 49
0.375
 74
0
 49
-0.075
 74
0
 49
0.075
 74
0
 49
-0.075
 74
0
  0
LTYPE
  5
1F6
100
AcDbSymbolTableRecord
100
AcDbLinetypeTableRecord
  2
HIDDEN
 70
64
  3
- - - - - - - - - - - - - - - - - - - -
 72
65
 73
2
 40
0.2
 49
0.1
 74
0
 49
-0.1
 74
0
  0
LTYPE
  5
1F7
100
AcDbSymbolTableRecord
100
AcDbLinetypeTableRecord
  2
PHANTOM
 70
64
  3
_____ _ _ _____ _ _ _____ _ _ _____
 72
65
 73
6
 40
0.8
 49
0.45
 74
0
 49
-0.05
 74
0
 49
0.1
 74
0
 49
-0.05
 74
0
 49
0.1
 74
0
 49
-0.05
 74
0
  0
LTYPE
  5
1F8
100
AcDbSymbolTableRecord
100
AcDbLinetypeTableRecord
  2
DOT
 70
64
  3
. . . . . . . . . . . . . . . . . . . .
 72
65
 73
2
 40
0.2
 49
0.1
 74
0
 49
-0.1
 74
0
  0
LTYPE
  5
1F9
100
AcDbSymbolTableRecord
100
AcDbLinetypeTableRecord
  2
DASHED
 70
64
  3
- - - - - - - - - - - - - - - - - - - -
 72
65
 73
2
 40
0.2
 49
0.1
 74
0
 49
-0.1
 74
0
  0
ENDTAB
  0
TABLE
  2
LAYER
  5
2
100
AcDbSymbolTable
 70
36
  0
LAYER
  5
10
100
AcDbSymbolTableRecord
100
AcDbLayerTableRecord
  2
0
 70
0
 62
7
  6
CONTINUOUS
370
-3
390
F
  0
LAYER
  5
1FA
100
AcDbSymbolTableRecord
100
AcDbLayerTableRecord
  2
DEFAULT_1
 70
0
 62
7
  6
CENTER
370
-3
390
F
  0
LAYER
  5
1FB
100
AcDbSymbolTableRecord
100
AcDbLayerTableRecord
  2
DEFAULT_2
 70
0
 62
8
  6
HIDDEN
370
-3
390
F
  0
LAYER
  5
1FC
100
AcDbSymbolTableRecord
100
AcDbLayerTableRecord
  2
DEFAULT_3
 70
0
 62
7
  6
PHANTOM
370
-3
390
F
  0
LAYER
  5
1FD
100
AcDbSymbolTableRecord
100
AcDbLayerTableRecord
  2
AUSFORMSCHRAEGEN
 70
0
 62
7
  6
CONTINUOUS
370
-3
390
F
  0
LAYER
  5
1FE
100
AcDbSymbolTableRecord
100
AcDbLayerTableRecord
  2
BEZUGSACHSEN
 70
0
 62
7
  6
CONTINUOUS
370
-3
390
F
  0
LAYER
  5
1FF
100
AcDbSymbolTableRecord
100
AcDbLayerTableRecord
  2
BEZUGSEBENEN
 70
0
 62
7
  6
CONTINUOUS
370
-3
390
F
  0
LAYER
  5
200
100
AcDbSymbolTableRecord
100
AcDbLayerTableRecord
  2
BEZUGSPUNKTE
 70
0
 62
7
  6
CONTINUOUS
370
-3
390
F
  0
LAYER
  5
201
100
AcDbSymbolTableRecord
100
AcDbLayerTableRecord
  2
BG_STARTBEZUEGE
 70
0
 62
7
  6
CONTINUOUS
370
-3
390
F
  0
LAYER
  5
202
100
AcDbSymbolTableRecord
100
AcDbLayerTableRecord
  2
BOHRUNGEN
 70
0
 62
7
  6
CONTINUOUS
370
-3
390
F
  0
LAYER
  5
203
100
AcDbSymbolTableRecord
100
AcDbLayerTableRecord
  2
FASEN
 70
0
 62
7
  6
CONTINUOUS
370
-3
390
F
  0
LAYER
  5
204
100
AcDbSymbolTableRecord
100
AcDbLayerTableRecord
  2
FLAECHEN
 70
0
 62
7
  6
CONTINUOUS
370
-3
390
F
  0
LAYER
  5
205
100
AcDbSymbolTableRecord
100
AcDbLayerTableRecord
  2
FLAECHENVERBUND
 70
0
 62
7
  6
CONTINUOUS
370
-3
390
F
  0
LAYER
  5
206
100
AcDbSymbolTableRecord
100
AcDbLayerTableRecord
  2
HILFEN
 70
0
 62
7
  6
CONTINUOUS
370
-3
390
F
  0
LAYER
  5
207
100
AcDbSymbolTableRecord
100
AcDbLayerTableRecord
  2
KONSTRUKTIONSELEMENTE
 70
0
 62
7
  6
CONTINUOUS
370
-3
390
F
  0
LAYER
  5
208
100
AcDbSymbolTableRecord
100
AcDbLayerTableRecord
  2
KURVEN
 70
0
 62
7
  6
CONTINUOUS
370
-3
390
F
  0
LAYER
  5
209
100
AcDbSymbolTableRecord
100
AcDbLayerTableRecord
  2
NORM
 70
0
 62
7
  6
CONTINUOUS
370
-3
390
F
  0
LAYER
  5
20A
100
AcDbSymbolTableRecord
100
AcDbLayerTableRecord
  2
PLATZIERUNG
 70
0
 62
7
  6
CONTINUOUS
370
-3
390
F
  0
LAYER
  5
20B
100
AcDbSymbolTableRecord
100
AcDbLayerTableRecord
  2
RUNDUNGEN
 70
0
 62
7
  6
CONTINUOUS
370
-3
390
F
  0
LAYER
  5
20C
100
AcDbSymbolTableRecord
100
AcDbLayerTableRecord
  2
TEIL_STARTBEZUEGE
 70
0
 62
7
  6
CONTINUOUS
370
-3
390
F
  0
LAYER
  5
20D
100
AcDbSymbolTableRecord
100
AcDbLayerTableRecord
  2
T_STARTBEZUEGE
 70
0
 62
7
  6
CONTINUOUS
370
-3
390
F
  0
LAYER
  5
20E
100
AcDbSymbolTableRecord
100
AcDbLayerTableRecord
  2
XSEC_DATUMS
 70
0
 62
7
  6
CONTINUOUS
370
-3
390
F
  0
ENDTAB
  0
TABLE
  2
STYLE
  5
3
100
AcDbSymbolTable
 70
1
  0
STYLE
  5
11
100
AcDbSymbolTableRecord
100
AcDbTextStyleTableRecord
  2
STANDARD
 70
0
 40
0.0
 41
0.7
 50
0.0
 71
0
 42
0.2
  3
txt
  4

  0
STYLE
  5
20F
100
AcDbSymbolTableRecord
100
AcDbTextStyleTableRecord
  2
TEXTSTYLE_1
 70
0
 40
0.0
 41
0.8
 50
0.0
 71
0
 42
0.2
  3
gdt
  4

  0
ENDTAB
  0
TABLE
  2
VIEW
  5
6
100
AcDbSymbolTable
 70
0
  0
ENDTAB
  0
TABLE
  2
UCS
  5
7
100
AcDbSymbolTable
 70
0
  0
ENDTAB
  0
TABLE
  2
APPID
  5
9
100
AcDbSymbolTable
 70
1
  0
APPID
  5
210
100
AcDbSymbolTableRecord
100
AcDbRegAppTableRecord
  2
ACAD
 70
0
  0
ENDTAB
  0
TABLE
  2
BLOCK_RECORD
  5
1
100
AcDbSymbolTable
 70
0
  0
BLOCK_RECORD
  5
211
100
AcDbSymbolTableRecord
100
AcDbBlockTableRecord
  2
*Model_Space
  0
BLOCK_RECORD
  5
212
100
AcDbSymbolTableRecord
100
AcDbBlockTableRecord
  2
*Paper_Space
  0
ENDTAB
  0
TABLE
  2
DIMSTYLE
  5
A
100
AcDbSymbolTable
 70
1
100
AcDbDimStyleTable
 71
0
  0
DIMSTYLE
105
213
100
AcDbSymbolTableRecord
100
AcDbDimStyleTableRecord
  2
STANDARD
 70
0
  3

  4

 40
1.0
 41
3.5
 42
0.0625
 43
0.38
 44
0.18
 45
0.0
 46
0.0
 47
0.005
 48
0.005
140
3.5
141
0.09
142
0.0
143
25.4
144
1.0
145
0.0
146
1.0
147
0.09
 71
1.0
 72
0.0
 73
0
 74
0
 75
0
 76
0
 77
1
 78
8
170
0
171
2
172
0
173
0
174
0
175
0
176
0
177
0
178
5
270
2
271
3
272
3
273
2
274
2
275
0
280
0
281
0
282
0
283
1
284
8
285
0
286
0
287
3
288
0
340
11
  0
ENDTAB
  0
ENDSEC
  0
SECTION
  2
BLOCKS
  0
BLOCK
  5
20
100
AcDbEntity
  8
0
100
AcDbBlockBegin
  2
*Model_Space
 70
0
 10
0.0
 20
0.0
 30
0.0
  3
*Model_Space
  1

  0
ENDBLK
  5
21
100
AcDbEntity
  8
0
100
AcDbBlockEnd
  0
BLOCK
  5
1C
100
AcDbEntity
  8
0
100
AcDbBlockBegin
  2
*Paper_Space
 70
0
 10
0.0
 20
0.0
 30
0.0
  3
*Paper_Space
  1

  0
ENDBLK
  5
1D
100
AcDbEntity
  8
0
100
AcDbBlockEnd
  0
ENDSEC
  0
SECTION
  2
ENTITIES
  0
LINE
  5
214
100
AcDbEntity
  8
0
100
AcDbLine
 62
7
  6
CONTINUOUS
 10
0.0
 20
0.0
 11
0.0
 21
297.0
  0
LINE
  5
215
100
AcDbEntity
  8
0
100
AcDbLine
 62
7
  6
CONTINUOUS
 10
0.0
 20
0.0
 11
420.0
 21
0.0
  0
LINE
  5
216
100
AcDbEntity
  8
0
100
AcDbLine
 62
7
  6
CONTINUOUS
 10
0.0
 20
297.0
 11
420.0
 21
297.0
  0
LINE
  5
217
100
AcDbEntity
  8
0
100
AcDbLine
 62
7
  6
CONTINUOUS
 10
420.0
 20
0.0
 11
420.0
 21
297.0
  0
LINE
  5
218
100
AcDbEntity
  8
0
100
AcDbLine
 62
7
  6
CONTINUOUS
 10
73.0026085568
 20
291.2336646209
 11
60.5099255458
 21
278.7409816099
  0
LINE
  5
219
100
AcDbEntity
  8
0
100
AcDbLine
 62
7
  6
CONTINUOUS
 10
78.9361993714
 20
30.0083225027
 11
78.4310187722
 21
29.9932113511
  0
LINE
  5
21A
100
AcDbEntity
  8
0
100
AcDbLine
 62
7
  6
CONTINUOUS
 10
78.1226055249
 20
29.3018696306
 11
78.936527572
 21
29.2860902207
  0
LINE
  5
21B
100
AcDbEntity
  8
0
100
AcDbLine
 62
7
  6
CONTINUOUS
 10
78.4310187722
 20
29.9932113511
 11
78.0099802346
 21
30.1009907645
  0
LINE
  5
21C
100
AcDbEntity
  8
0
100
AcDbLine
 62
7
  6
CONTINUOUS
 10
78.4856904697
 20
33.2048122749
 11
78.9067290074
 21
33.0970328615
  0
LINE
  5
21D
100
AcDbEntity
  8
0
100
AcDbLine
 62
7
  6
CONTINUOUS
 10
79.9161057513
 20
35.293952226
 11
80.3371442889
 21
35.1861728126
  0
LINE
  5
21E
100
AcDbEntity
  8
0
100
AcDbLine
 62
7
  6
CONTINUOUS
 10
77.4769701859
 20
29.5634284324
 11
78.1226055249
 21
29.3018696306
  0
LINE
  5
21F
100
AcDbEntity
  8
0
100
AcDbLine
 62
7
  6
CONTINUOUS
 10
79.4397389971
 20
33.6345951075
 11
78.7941010952
 21
33.89615568
  0
LINE
  5
220
100
AcDbEntity
  8
0
100
AcDbLine
 62
7
  6
CONTINUOUS
 10
80.8701542787
 20
35.7237350586
 11
80.2245163767
 21
35.985295631
  0
LINE
  5
221
100
AcDbEntity
  8
0
100
AcDbLine
 62
7
  6
CONTINUOUS
 10
60.6623177407
 20
45.8182547064
 11
61.2220570439
 21
45.5503171554
  0
LINE
  5
222
100
AcDbEntity
  8
0
100
AcDbLine
 62
7
  6
CONTINUOUS
 10
76.9154769158
 20
29.9478778101
 11
77.4769701859
 21
29.5634284324
  0
LINE
  5
223
100
AcDbEntity
  8
0
100
AcDbLine
 62
7
  6
CONTINUOUS
 10
78.0099802346
 20
30.1009907645
 11
77.2238876002
 21
30.6392213012
  0
LINE
  5
224
100
AcDbEntity
  8
0
100
AcDbLine
 62
7
  6
CONTINUOUS
 10
78.9067290074
 20
33.0970328615
 11
79.6928216418
 21
32.5588023249
  0
LINE
  5
225
100
AcDbEntity
  8
0
100
AcDbLine
 62
7
  6
CONTINUOUS
 10
80.0012322672
 20
33.2501457299
 11
79.4397389971
 21
33.6345951075
  0
LINE
  5
226
100
AcDbEntity
  8
0
100
AcDbLine
 62
7
  6
CONTINUOUS
 10
81.4044746183
 20
33.3723701085
 11
81.9659704587
 21
32.987918971
  0
LINE
  5
227
100
AcDbEntity
  8
0
100
AcDbLine
 62
7
  6
CONTINUOUS
 10
80.3371442889
 20
35.1861728126
 11
81.0109372412
 21
34.7248328554
  0
LINE
  5
228
100
AcDbEntity
  8
0
100
AcDbLine
 62
7
  6
CONTINUOUS
 10
73.2448653946
 20
32.6637448295
 11
73.8851819735
 21
32.1569646234
  0
LINE
  5
229
100
AcDbEntity
  8
0
100
AcDbLine
 62
7
  6
CONTINUOUS
 10
61.3082065617
 20
46.4506327106
 11
60.8693640629
 21
46.8055527417
  0
LINE
  5
22A
100
AcDbEntity
  8
0
100
AcDbLine
 62
7
  6
CONTINUOUS
 10
60.1439887998
 20
46.2836503519
 11
60.6623177407
 21
45.8182547064
  0
LINE
  5
22B
100
AcDbEntity
  8
0
100
AcDbLine
 62
7
  6
CONTINUOUS
 10
77.9805098706
 20
33.1897011233
 11
78.4856904697
 21
33.2048122749
  0
LINE
  5
22C
100
AcDbEntity
  8
0
100
AcDbLine
 62
7
  6
CONTINUOUS
 10
78.7941010952
 20
33.89615568
 11
77.7837398968
 21
33.8659333767
  0
LINE
  5
22D
100
AcDbEntity
  8
0
100
AcDbLine
 62
7
  6
CONTINUOUS
 10
79.4109251521
 20
35.2788410744
 11
79.9161057513
 21
35.293952226
  0
LINE
  5
22E
100
AcDbEntity
  8
0
100
AcDbLine
 62
7
  6
CONTINUOUS
 10
167.039264247
 20
39.2409816099
 11
140.5657530781
 21
39.2409816099
  0
LINE
  5
22F
100
AcDbEntity
  8
0
100
AcDbLine
 62
7
  6
CONTINUOUS
 10
80.2245163767
 20
35.985295631
 11
79.4105969221
 21
36.0010733134
  0
LINE
  5
230
100
AcDbEntity
  8
0
100
AcDbLine
 62
7
  6
CONTINUOUS
 10
61.2220570439
 20
45.5503171554
 11
62.0235871742
 21
45.4563483193
  0
LINE
  5
231
100
AcDbEntity
  8
0
100
AcDbLine
 62
7
  6
CONTINUOUS
 10
61.7884585766
 20
46.2931720841
 11
61.3082065617
 21
46.4506327106
  0
LINE
  5
232
100
AcDbEntity
  8
0
100
AcDbLine
 62
7
  6
CONTINUOUS
 10
63.7841914569
 20
50.9147447774
 11
64.2644433872
 21
50.7572840899
  0
LINE
  5
233
100
AcDbEntity
  8
0
100
AcDbLine
 62
7
  6
CONTINUOUS
 10
52.8752637138
 20
59.8105959266
 11
53.6309317025
 21
59.5273161522
  0
LINE
  5
234
100
AcDbEntity
  8
0
100
AcDbLine
 62
7
  6
CONTINUOUS
 10
64.9103312244
 20
51.3896633052
 11
64.3505928626
 21
51.6575996147
  0
LINE
  5
235
100
AcDbEntity
  8
0
100
AcDbLine
 62
7
  6
CONTINUOUS
 10
53.6031556944
 20
60.3961018565
 11
53.1746204405
 21
60.6640447292
  0
LINE
  5
236
100
AcDbEntity
  8
0
100
AcDbLine
 62
7
  6
CONTINUOUS
 10
56.4452839345
 20
64.9100882943
 11
56.8738191641
 21
64.6421452021
  0
LINE
  5
237
100
AcDbEntity
  8
0
100
AcDbLine
 62
7
  6
CONTINUOUS
 10
64.2644433872
 20
50.7572840899
 11
64.6237994544
 21
50.512839681
  0
LINE
  5
238
100
AcDbEntity
  8
0
100
AcDbLine
 62
7
  6
CONTINUOUS
 10
81.3193478666
 20
35.4161762604
 11
80.8701542787
 21
35.7237350586
  0
LINE
  5
239
100
AcDbEntity
  8
0
100
AcDbLine
 62
7
  6
CONTINUOUS
 10
78.2293801679
 20
37.6458572301
 11
77.589063589
 21
38.1526374362
  0
LINE
  5
23A
100
AcDbEntity
  8
0
100
AcDbLine
 62
7
  6
CONTINUOUS
 10
65.3491746328
 20
51.0347420099
 11
64.9103312244
 21
51.3896633052
  0
LINE
  5
23B
100
AcDbEntity
  8
0
100
AcDbLine
 62
7
  6
CONTINUOUS
 10
52.3960273336
 20
60.2048418382
 11
52.8752637138
 21
59.8105959266
  0
LINE
  5
23C
100
AcDbEntity
  8
0
100
AcDbLine
 62
7
  6
CONTINUOUS
 10
57.6524121864
 20
65.1013480591
 11
57.1731758425
 21
65.4955939853
  0
LINE
  5
23D
100
AcDbEntity
  8
0
100
AcDbLine
 62
7
  6
CONTINUOUS
 10
76.4381231443
 20
30.4552195235
 11
76.9154769158
 21
29.9478778101
  0
LINE
  5
23E
100
AcDbEntity
  8
0
100
AcDbLine
 62
7
  6
CONTINUOUS
 10
80.4785834758
 20
32.7428057871
 11
80.0012322672
 21
33.2501457299
  0
LINE
  5
23F
100
AcDbEntity
  8
0
100
AcDbLine
 62
7
  6
CONTINUOUS
 10
81.7967016455
 20
34.9088345578
 11
81.3193478666
 21
35.4161762604
  0
LINE
  5
240
100
AcDbEntity
  8
0
100
AcDbLine
 62
7
  6
CONTINUOUS
 10
62.4488445949
 20
43.2170385468
 11
62.9898356258
 21
42.6053521868
  0
LINE
  5
241
100
AcDbEntity
  8
0
100
AcDbLine
 62
7
  6
CONTINUOUS
 10
65.5144600929
 20
39.750816229
 11
66.0554511238
 21
39.139129869
  0
LINE
  5
242
100
AcDbEntity
  8
0
100
AcDbLine
 62
7
  6
CONTINUOUS
 10
65.4442258342
 20
44.7760775388
 11
67.9688503012
 21
41.921541581
  0
LINE
  5
243
100
AcDbEntity
  8
0
100
AcDbLine
 62
7
  6
CONTINUOUS
 10
68.6382293637
 20
42.5135575107
 11
66.1136048967
 21
45.3680934685
  0
LINE
  5
244
100
AcDbEntity
  8
0
100
AcDbLine
 62
7
  6
CONTINUOUS
 10
71.2989210718
 20
43.7765885379
 11
70.7579300408
 21
44.3882748979
  0
LINE
  5
245
100
AcDbEntity
  8
0
100
AcDbLine
 62
7
  6
CONTINUOUS
 10
68.2333055738
 20
47.2428108556
 11
67.6923145428
 21
47.8544972156
  0
LINE
  5
246
100
AcDbEntity
  8
0
100
AcDbLine
 62
7
  6
CONTINUOUS
 10
53.1746204405
 20
60.6640447292
 11
52.8335998223
 21
61.1137739022
  0
LINE
  5
247
100
AcDbEntity
  8
0
100
AcDbLine
 62
7
  6
CONTINUOUS
 10
59.5080946188
 20
47.1674591212
 11
60.1439887998
 21
46.2836503519
  0
LINE
  5
248
100
AcDbEntity
  8
0
100
AcDbLine
 62
7
  6
CONTINUOUS
 10
60.8693640629
 20
46.8055527417
 11
60.2334698818
 21
47.689361511
  0
LINE
  5
249
100
AcDbEntity
  8
0
100
AcDbLine
 62
7
  6
CONTINUOUS
 10
60.4438468269
 20
49.1820563916
 11
59.9669264185
 21
49.8449126525
  0
LINE
  5
24A
100
AcDbEntity
  8
0
100
AcDbLine
 62
7
  6
CONTINUOUS
 10
62.2058818545
 20
48.7731650076
 11
62.6828022629
 21
48.1103087467
  0
LINE
  5
24B
100
AcDbEntity
  8
0
100
AcDbLine
 62
7
  6
CONTINUOUS
 10
63.4081774412
 20
48.6322110756
 11
62.9312570329
 21
49.2950673365
  0
LINE
  5
24C
100
AcDbEntity
  8
0
100
AcDbLine
 62
7
  6
CONTINUOUS
 10
77.2238876002
 20
30.6392213012
 11
76.9711331856
 21
30.9927818448
  0
LINE
  5
24D
100
AcDbEntity
  8
0
100
AcDbLine
 62
7
  6
CONTINUOUS
 10
52.0043053713
 20
60.7808743824
 11
52.3960273336
 21
60.2048418382
  0
LINE
  5
24E
100
AcDbEntity
  8
BEZUGSACHSEN
100
AcDbLine
 62
7
  6
CONTINUOUS
 10
57.0888535936
 20
225.8877906725
 11
56.5290240958
 21
225.3220677421
  0
LINE
  5
24F
100
AcDbEntity
  8
0
100
AcDbLine
 62
7
  6
CONTINUOUS
 10
75.5623006841
 20
36.9076432877
 11
76.8496256866
 21
37.2183579549
  0
LINE
  5
250
100
AcDbEntity
  8
0
100
AcDbLine
 62
7
  6
CONTINUOUS
 10
77.589063589
 20
38.1526374362
 11
76.3017388454
 21
37.8419230961
  0
LINE
  5
251
100
AcDbEntity
  8
0
100
AcDbLine
 62
7
  6
CONTINUOUS
 10
77.5876289535
 20
33.0976993922
 11
77.9805098706
 21
33.1897011233
  0
LINE
  5
252
100
AcDbEntity
  8
0
100
AcDbLine
 62
7
  6
CONTINUOUS
 10
62.3101199385
 20
46.3331707401
 11
61.7884585766
 21
46.2931720841
  0
LINE
  5
253
100
AcDbEntity
  8
0
100
AcDbLine
 62
7
  6
CONTINUOUS
 10
178.499888023
 20
47.2409816099
 11
162.7706157368
 21
47.2409816099
  0
LINE
  5
254
100
AcDbEntity
  8
0
100
AcDbLine
 62
7
  6
CONTINUOUS
 10
64.3505928626
 20
51.6575996147
 11
63.5490627746
 21
51.7515684813
  0
LINE
  5
255
100
AcDbEntity
  8
0
100
AcDbLine
 62
7
  6
CONTINUOUS
 10
55.929233924
 20
64.9962446083
 11
56.4452839345
 21
64.9100882943
  0
LINE
  5
256
100
AcDbEntity
  8
0
100
AcDbLine
 62
7
  6
CONTINUOUS
 10
57.1731758425
 20
65.4955939853
 11
56.4175079746
 21
65.7788735984
  0
LINE
  5
257
100
AcDbEntity
  8
0
100
AcDbLine
 62
7
  6
CONTINUOUS
 10
46.1012617675
 20
78.894468809
 11
46.81747337
 21
78.5145170029
  0
LINE
  5
258
100
AcDbEntity
  8
0
100
AcDbLine
 62
7
  6
CONTINUOUS
 10
46.8213008345
 20
79.4299774294
 11
46.4189100664
 21
79.7581331445
  0
LINE
  5
259
100
AcDbEntity
  8
0
100
AcDbLine
 62
7
  6
CONTINUOUS
 10
44.6956301353
 20
86.0625960606
 11
44.2932393673
 21
86.3907517758
  0
LINE
  5
25A
100
AcDbEntity
  8
0
100
AcDbLine
 62
7
  6
CONTINUOUS
 10
45.6545864159
 20
79.3608035873
 11
46.1012617675
 21
78.894468809
  0
LINE
  5
25B
100
AcDbEntity
  8
0
100
AcDbLine
 62
7
  6
CONTINUOUS
 10
43.52891521
 20
85.9934237999
 11
43.975590815
 21
85.5270882309
  0
LINE
  5
25C
100
AcDbEntity
  8
0
100
AcDbLine
 62
7
  6
CONTINUOUS
 10
44.633852249
 20
92.7471781686
 11
45.0805276919
 21
92.2808429837
  0
LINE
  5
25D
100
AcDbEntity
  8
0
100
AcDbLine
 62
7
  6
CONTINUOUS
 10
56.8738191641
 20
64.6421452021
 11
57.2148397823
 21
64.1924160291
  0
LINE
  5
25E
100
AcDbEntity
  8
0
100
AcDbLine
 62
7
  6
CONTINUOUS
 10
45.2634079508
 20
93.1013154245
 11
44.9957853967
 21
93.4726626542
  0
LINE
  5
25F
100
AcDbEntity
  8
0
100
AcDbLine
 62
7
  6
CONTINUOUS
 10
64.9731609559
 20
48.7522085517
 11
65.4500813642
 21
48.0893522908
  0
LINE
  5
260
100
AcDbEntity
  8
0
100
AcDbLine
 62
7
  6
CONTINUOUS
 10
64.6237994544
 20
50.512839681
 11
65.1007198628
 21
49.84998342
  0
LINE
  5
261
100
AcDbEntity
  8
0
100
AcDbLine
 62
7
  6
CONTINUOUS
 10
65.7466077
 20
50.4823626353
 11
65.3491746328
 21
51.0347420099
  0
LINE
  5
262
100
AcDbEntity
  8
0
100
AcDbLine
 62
7
  6
CONTINUOUS
 10
79.6928216418
 20
32.5588023249
 11
79.9455760564
 21
32.2052417812
  0
LINE
  5
263
100
AcDbEntity
  8
0
100
AcDbLine
 62
7
  6
CONTINUOUS
 10
81.0109372412
 20
34.7248328554
 11
81.2636916558
 21
34.3712723117
  0
LINE
  5
264
100
AcDbEntity
  8
0
100
AcDbLine
 62
7
  6
CONTINUOUS
 10
58.0441341365
 20
64.5253155101
 11
57.6524121864
 21
65.1013480591
  0
LINE
  5
265
100
AcDbEntity
  8
0
100
AcDbLine
 62
7
  6
CONTINUOUS
 10
58.7209654359
 20
53.009245456
 11
59.7244070985
 21
51.3894819375
  0
LINE
  5
266
100
AcDbEntity
  8
0
100
AcDbLine
 62
7
  6
CONTINUOUS
 10
60.3574554948
 20
51.781654701
 11
59.3540138321
 21
53.4014182195
  0
LINE
  5
267
100
AcDbEntity
  8
0
100
AcDbLine
 62
7
  6
CONTINUOUS
 10
46.4189100664
 20
79.7581331445
 11
46.1070028698
 21
80.2676594184
  0
LINE
  5
268
100
AcDbEntity
  8
0
100
AcDbLine
 62
7
  6
CONTINUOUS
 10
44.2932393673
 20
86.3907517758
 11
43.9813319172
 21
86.9002788403
  0
LINE
  5
269
100
AcDbEntity
  8
0
100
AcDbLine
 62
7
  6
CONTINUOUS
 10
45.2983940581
 20
80.0085104829
 11
45.6545864159
 21
79.3608035873
  0
LINE
  5
26A
100
AcDbEntity
  8
0
100
AcDbLine
 62
7
  6
CONTINUOUS
 10
43.1727231056
 20
86.6411299048
 11
43.52891521
 21
85.9934237999
  0
LINE
  5
26B
100
AcDbEntity
  8
0
100
AcDbLine
 62
7
  6
CONTINUOUS
 10
53.4667949215
 20
57.3992887651
 11
55.7294441767
 21
53.0534465378
  0
LINE
  5
26C
100
AcDbEntity
  8
0
100
AcDbLine
 62
7
  6
CONTINUOUS
 10
56.5220662317
 20
53.4661227484
 11
54.6365252455
 21
57.0876578227
  0
LINE
  5
26D
100
AcDbEntity
  8
0
100
AcDbLine
 62
7
  6
CONTINUOUS
 10
56.7501840895
 20
58.1881277337
 11
58.3843198026
 21
55.0494636342
  0
LINE
  5
26E
100
AcDbEntity
  8
0
100
AcDbLine
 62
7
  6
CONTINUOUS
 10
59.176941765
 20
55.4621397967
 11
57.5428060519
 21
58.6008038961
  0
LINE
  5
26F
100
AcDbEntity
  8
0
100
AcDbLine
 62
7
  6
CONTINUOUS
 10
59.2601540072
 20
59.4949357741
 11
61.1456949933
 21
55.8734006998
  0
LINE
  5
270
100
AcDbEntity
  8
0
100
AcDbLine
 62
7
  6
CONTINUOUS
 10
61.9383169557
 20
56.2860768623
 11
59.6756677004
 21
60.6319190896
  0
LINE
  5
271
100
AcDbEntity
  8
0
100
AcDbLine
 62
7
  6
CONTINUOUS
 10
59.2315565156
 20
47.8068234891
 11
59.5080946188
 21
47.1674591212
  0
LINE
  5
272
100
AcDbEntity
  8
0
100
AcDbLine
 62
7
  6
CONTINUOUS
 10
63.6847146454
 20
47.9928479795
 11
63.4081774412
 21
48.6322110756
  0
LINE
  5
273
100
AcDbEntity
  8
0
100
AcDbLine
 62
7
  6
CONTINUOUS
 10
51.5479942544
 20
61.917602598
 11
52.0043053713
 21
60.7808743824
  0
LINE
  5
274
100
AcDbEntity
  8
0
100
AcDbLine
 62
7
  6
CONTINUOUS
 10
52.8335998223
 20
61.1137739022
 11
52.3772887054
 21
62.2505021179
  0
LINE
  5
275
100
AcDbEntity
  8
0
100
AcDbLine
 62
7
  6
CONTINUOUS
 10
54.3727114696
 20
59.6784297719
 11
54.0685042034
 21
60.436248221
  0
LINE
  5
276
100
AcDbEntity
  8
0
100
AcDbLine
 62
7
  6
CONTINUOUS
 10
50.0226189259
 20
66.1974055499
 11
50.2762700643
 21
65.4212015828
  0
LINE
  5
277
100
AcDbEntity
  8
0
100
AcDbLine
 62
7
  6
CONTINUOUS
 10
40.2499255458
 20
95.7609816099
 11
40.5156344149
 21
94.9319041822
  0
LINE
  5
278
100
AcDbEntity
  8
0
100
AcDbLine
 62
7
  6
CONTINUOUS
 10
41.6227546604
 20
91.4774150317
 11
41.9327484255
 21
90.5101577691
  0
LINE
  5
279
100
AcDbEntity
  8
0
100
AcDbLine
 62
7
  6
CONTINUOUS
 10
42.9955837751
 20
87.1938484535
 11
43.1727231056
 21
86.6411299048
  0
LINE
  5
27A
100
AcDbEntity
  8
0
100
AcDbLine
 62
7
  6
CONTINUOUS
 10
44.2355585818
 20
83.3248201938
 11
45.2983940581
 21
80.0085104829
  0
LINE
  5
27B
100
AcDbEntity
  8
0
100
AcDbLine
 62
7
  6
CONTINUOUS
 10
43.8041925867
 20
87.452997389
 11
43.7618216292
 21
88.0489066313
  0
LINE
  5
27C
100
AcDbEntity
  8
0
100
AcDbLine
 62
7
  6
CONTINUOUS
 10
62.0235871742
 20
45.4563483193
 11
62.6661444838
 21
45.5833307577
  0
LINE
  5
27D
100
AcDbEntity
  8
0
100
AcDbLine
 62
7
  6
CONTINUOUS
 10
54.0685042034
 20
60.436248221
 11
53.6031556944
 21
60.3961018565
  0
LINE
  5
27E
100
AcDbEntity
  8
0
100
AcDbLine
 62
7
  6
CONTINUOUS
 10
56.4175079746
 20
65.7788735984
 11
55.7632426256
 21
65.809546821
  0
LINE
  5
27F
100
AcDbEntity
  8
0
100
AcDbLine
 62
7
  6
CONTINUOUS
 10
46.81747337
 20
78.5145170029
 11
47.4451157346
 21
78.4109233003
  0
LINE
  5
280
100
AcDbEntity
  8
0
100
AcDbLine
 62
7
  6
CONTINUOUS
 10
47.3141749851
 20
79.2831922123
 11
46.8213008345
 21
79.4299774294
  0
LINE
  5
281
100
AcDbEntity
  8
0
100
AcDbLine
 62
7
  6
CONTINUOUS
 10
45.1885040325
 20
85.9158116342
 11
44.6956301353
 21
86.0625960606
  0
LINE
  5
282
100
AcDbEntity
  8
0
100
AcDbLine
 62
7
  6
CONTINUOUS
 10
43.975590815
 20
85.5270882309
 11
44.6918026709
 21
85.1471356342
  0
LINE
  5
283
100
AcDbEntity
  8
0
100
AcDbLine
 62
7
  6
CONTINUOUS
 10
45.6215138551
 20
92.9113391186
 11
45.2634079508
 21
93.1013154245
  0
LINE
  5
284
100
AcDbEntity
  8
0
100
AcDbLine
 62
7
  6
CONTINUOUS
 10
53.7263199047
 20
102.3798291872
 11
50.7263199047
 21
107.5759816099
  0
LINE
  5
285
100
AcDbEntity
  8
0
100
AcDbLine
 62
7
  6
CONTINUOUS
 10
85.3768607972
 20
33.1019981122
 11
77.230003957
 21
47.7993169072
  0
LINE
  5
286
100
AcDbEntity
  8
0
100
AcDbLine
 62
7
  6
CONTINUOUS
 10
66.0231458138
 20
49.8429982749
 11
65.7466077
 21
50.4823626353
  0
LINE
  5
287
100
AcDbEntity
  8
0
100
AcDbLine
 62
7
  6
CONTINUOUS
 10
76.1290560808
 20
31.2083406287
 11
76.4381231443
 21
30.4552195235
  0
LINE
  5
288
100
AcDbEntity
  8
0
100
AcDbLine
 62
7
  6
CONTINUOUS
 10
80.7876531317
 20
31.9896829542
 11
80.4785834758
 21
32.7428057871
  0
LINE
  5
289
100
AcDbEntity
  8
0
100
AcDbLine
 62
7
  6
CONTINUOUS
 10
57.247466088
 20
61.7123629759
 11
57.5516733542
 21
60.9545445268
  0
LINE
  5
28A
100
AcDbEntity
  8
0
100
AcDbLine
 62
7
  6
CONTINUOUS
 10
57.2148397823
 20
64.1924160291
 11
57.6711508993
 21
63.0556878134
  0
LINE
  5
28B
100
AcDbEntity
  8
0
100
AcDbLine
 62
7
  6
CONTINUOUS
 10
58.5004452535
 20
63.3885872944
 11
58.0441341365
 21
64.5253155101
  0
LINE
  5
28C
100
AcDbEntity
  8
0
100
AcDbLine
 62
7
  6
CONTINUOUS
 10
60.2334698818
 20
47.689361511
 11
60.0364191092
 21
48.218248985
  0
LINE
  5
28D
100
AcDbEntity
  8
0
100
AcDbLine
 62
7
  6
CONTINUOUS
 10
62.0088301722
 20
49.3020537459
 11
62.2058818545
 21
48.7731650076
  0
LINE
  5
28E
100
AcDbEntity
  8
0
100
AcDbLine
 62
7
  6
CONTINUOUS
 10
62.6828022629
 20
48.1103087467
 11
62.8798530355
 21
47.5814212727
  0
LINE
  5
28F
100
AcDbEntity
  8
0
100
AcDbLine
 62
7
  6
CONTINUOUS
 10
76.9711331856
 20
30.9927818448
 11
76.8025208325
 21
31.4692329536
  0
LINE
  5
290
100
AcDbEntity
  8
0
100
AcDbLine
 62
7
  6
CONTINUOUS
 10
56.9300103487
 20
67.5955383158
 11
56.6763592103
 21
68.3717422829
  0
LINE
  5
291
100
AcDbEntity
  8
0
100
AcDbLine
 62
7
  6
CONTINUOUS
 10
46.1070028698
 20
80.2676594184
 11
45.3098762626
 21
82.7548917016
  0
LINE
  5
292
100
AcDbEntity
  8
0
100
AcDbLine
 62
7
  6
CONTINUOUS
 10
43.9813319172
 20
86.9002788403
 11
43.8041925867
 21
87.452997389
  0
LINE
  5
293
100
AcDbEntity
  8
0
100
AcDbLine
 62
7
  6
CONTINUOUS
 10
43.3457653029
 20
95.8389254716
 11
44.0986070775
 21
93.4898728256
  0
LINE
  5
294
100
AcDbEntity
  8
0
100
AcDbLine
 62
7
  6
CONTINUOUS
 10
44.9957853967
 20
93.4726626542
 11
44.1543740202
 21
96.0980743769
  0
LINE
  5
295
100
AcDbEntity
  8
0
100
AcDbLine
 62
7
  6
CONTINUOUS
 10
50.0267611074
 20
84.2665938608
 11
50.8238877147
 21
81.7793615776
  0
LINE
  5
296
100
AcDbEntity
  8
0
100
AcDbLine
 62
7
  6
CONTINUOUS
 10
46.175896191
 20
96.7459467611
 11
47.0173075675
 21
94.1205350384
  0
LINE
  5
297
100
AcDbEntity
  8
0
100
AcDbLine
 62
7
  6
CONTINUOUS
 10
51.6324964319
 20
82.0385104829
 11
50.5696609557
 21
85.3548201938
  0
LINE
  5
298
100
AcDbEntity
  8
0
100
AcDbLine
 62
7
  6
CONTINUOUS
 10
50.215382548
 20
86.4602565006
 11
49.949673679
 21
87.2893339283
  0
LINE
  5
299
100
AcDbEntity
  8
0
100
AcDbLine
 62
7
  6
CONTINUOUS
 10
48.8868382027
 20
90.6056436393
 11
48.6211292069
 21
91.4347214624
  0
LINE
  5
29A
100
AcDbEntity
  8
0
100
AcDbLine
 62
7
  6
CONTINUOUS
 10
47.6468633959
 20
94.474671899
 11
46.5840279196
 21
97.7909816099
  0
LINE
  5
29B
100
AcDbEntity
  8
0
100
AcDbLine
 62
7
  6
CONTINUOUS
 10
62.9312570329
 20
49.2950673365
 11
62.8136926917
 21
49.7134791884
  0
LINE
  5
29C
100
AcDbEntity
  8
0
100
AcDbLine
 62
7
  6
CONTINUOUS
 10
65.1007198628
 20
49.84998342
 11
65.2182842039
 21
49.4315715681
  0
LINE
  5
29D
100
AcDbEntity
  8
0
100
AcDbLine
 62
7
  6
CONTINUOUS
 10
51.4327037677
 20
62.6046016455
 11
51.5479942544
 21
61.917602598
  0
LINE
  5
29E
100
AcDbEntity
  8
0
100
AcDbLine
 62
7
  6
CONTINUOUS
 10
42.9089279333
 20
87.9279375344
 11
42.9955837751
 21
87.1938484535
  0
LINE
  5
29F
100
AcDbEntity
  8
0
100
AcDbLine
 62
7
  6
CONTINUOUS
 10
50.8238877147
 20
81.7793615776
 11
50.8662586722
 21
81.1834523353
  0
LINE
  5
2A0
100
AcDbEntity
  8
0
100
AcDbLine
 62
7
  6
CONTINUOUS
 10
47.0173075675
 20
94.1205350384
 11
47.0153938824
 21
93.6628048403
  0
LINE
  5
2A1
100
AcDbEntity
  8
0
100
AcDbLine
 62
7
  6
CONTINUOUS
 10
43.0013248773
 20
88.5670390629
 11
42.9089279333
 21
87.9279375344
  0
LINE
  5
2A2
100
AcDbEntity
  8
RUNDUNGEN
100
AcDbLine
 62
7
  6
CONTINUOUS
 10
34.5806812876
 20
127.83844037
 11
35.4525066126
 21
131.0921367782
  0
LINE
  5
2A3
100
AcDbEntity
  8
RUNDUNGEN
100
AcDbLine
 62
7
  6
CONTINUOUS
 10
33.3010080058
 20
127.0689801519
 11
34.6525028765
 21
131.4266918715
  0
LINE
  5
2A4
100
AcDbEntity
  8
0
100
AcDbLine
 62
7
  6
CONTINUOUS
 10
51.5398185193
 20
178.0332903493
 11
55.25176424
 21
186.7780864571
  0
LINE
  5
2A5
100
AcDbEntity
  8
BEZUGSACHSEN
100
AcDbLine
 62
7
  6
CONTINUOUS
 10
48.6468264913
 20
169.9381759033
 11
48.1400041203
 21
168.7441772214
  0
LINE
  5
2A6
100
AcDbEntity
  8
BEZUGSACHSEN
100
AcDbLine
 62
7
  6
CONTINUOUS
 10
47.3884636189
 20
166.9736587533
 11
43.7175514488
 21
158.3255316326
  0
LINE
  5
2A7
100
AcDbEntity
  8
BEZUGSACHSEN
100
AcDbLine
 62
7
  6
CONTINUOUS
 10
42.9660105316
 20
156.5550121847
 11
42.4591881638
 21
155.3610135104
  0
LINE
  5
2A8
100
AcDbEntity
  8
BEZUGSACHSEN
100
AcDbLine
 62
7
  6
CONTINUOUS
 10
32.6588800858
 20
132.2729345392
 11
41.9799296637
 21
154.2319512391
  0
LINE
  5
2A9
100
AcDbEntity
  8
BEZUGSACHSEN
100
AcDbLine
 62
7
  6
CONTINUOUS
 10
49.1260849882
 20
171.067238167
 11
54.7351888455
 21
184.2814587592
  0
LINE
  5
2AA
100
AcDbEntity
  8
0
100
AcDbLine
 62
7
  6
CONTINUOUS
 10
53.6309317025
 20
59.5273161522
 11
54.3727114696
 21
59.6784297719
  0
LINE
  5
2AB
100
AcDbEntity
  8
0
100
AcDbLine
 62
7
  6
CONTINUOUS
 10
55.3256697618
 20
64.9006148163
 11
55.929233924
 21
64.9962446083
  0
LINE
  5
2AC
100
AcDbEntity
  8
0
100
AcDbLine
 62
7
  6
CONTINUOUS
 10
44.6918026709
 20
85.1471356342
 11
45.319444782
 21
85.0435427223
  0
LINE
  5
2AD
100
AcDbEntity
  8
0
100
AcDbLine
 62
7
  6
CONTINUOUS
 10
45.0805276919
 20
92.2808429837
 11
45.7524546047
 21
92.0390702066
  0
LINE
  5
2AE
100
AcDbEntity
  8
0
100
AcDbLine
 62
7
  6
CONTINUOUS
 10
42.7261155811
 20
102.2513353424
 11
42.6278358283
 21
102.2883741874
  0
LINE
  5
2AF
100
AcDbEntity
  8
0
100
AcDbLine
 62
7
  6
CONTINUOUS
 10
60.8840114736
 20
103.307448207
 11
54.7963971835
 21
111.2409816099
  0
LINE
  5
2B0
100
AcDbEntity
  8
0
100
AcDbLine
 62
7
  6
CONTINUOUS
 10
62.0740414841
 20
104.2205903505
 11
55.986427194
 21
112.1541237534
  0
LINE
  5
2B1
100
AcDbEntity
  8
0
100
AcDbLine
 62
7
  6
CONTINUOUS
 10
103.262207303
 20
19.4205936062
 11
95.812207303
 21
32.860749383
  0
LINE
  5
2B2
100
AcDbEntity
  8
0
100
AcDbLine
 62
7
  6
CONTINUOUS
 10
82.1057687311
 20
34.1557134848
 11
81.7967016455
 21
34.9088345578
  0
LINE
  5
2B3
100
AcDbEntity
  8
0
100
AcDbLine
 62
7
  6
CONTINUOUS
 10
79.9455760564
 20
32.2052417812
 11
80.1141884094
 21
31.7287906724
  0
LINE
  5
2B4
100
AcDbEntity
  8
0
100
AcDbLine
 62
7
  6
CONTINUOUS
 10
81.2636916558
 20
34.3712723117
 11
81.4323040089
 21
33.8948212029
  0
LINE
  5
2B5
100
AcDbEntity
  8
0
100
AcDbLine
 62
7
  6
CONTINUOUS
 10
58.6157357522
 20
62.7015882517
 11
58.5004452535
 21
63.3885872944
  0
LINE
  5
2B6
100
AcDbEntity
  8
0
100
AcDbLine
 62
7
  6
CONTINUOUS
 10
61.9326752626
 20
49.9179249414
 11
62.0088301722
 21
49.3020537459
  0
LINE
  5
2B7
100
AcDbEntity
  8
0
100
AcDbLine
 62
7
  6
CONTINUOUS
 10
63.7608704646
 20
47.3769755198
 11
63.6847146454
 21
47.9928479795
  0
LINE
  5
2B8
100
AcDbEntity
  8
0
100
AcDbLine
 62
7
  6
CONTINUOUS
 10
47.7335193762
 20
93.7405824265
 11
47.6468633959
 21
94.474671899
  0
LINE
  5
2B9
100
AcDbEntity
  8
0
100
AcDbLine
 62
7
  6
CONTINUOUS
 10
51.7191525389
 20
81.3044206151
 11
51.6324964319
 21
82.0385104829
  0
LINE
  5
2BA
100
AcDbEntity
  8
0
100
AcDbLine
 62
7
  6
CONTINUOUS
 10
52.3772887054
 20
62.2505021179
 11
52.3126995385
 21
62.8111977846
  0
LINE
  5
2BB
100
AcDbEntity
  8
0
100
AcDbLine
 62
7
  6
CONTINUOUS
 10
57.6711508993
 20
63.0556878134
 11
57.7357400661
 21
62.4949921467
  0
LINE
  5
2BC
100
AcDbEntity
  8
0
100
AcDbLine
 62
7
  6
CONTINUOUS
 10
59.1968110693
 20
48.620154051
 11
59.2315565156
 21
47.8068234891
  0
LINE
  5
2BD
100
AcDbEntity
  8
0
100
AcDbLine
 62
7
  6
CONTINUOUS
 10
60.5099255458
 20
231.3104585617
 11
60.5099255458
 21
251.3409816099
  0
LINE
  5
2BE
100
AcDbEntity
  8
0
100
AcDbLine
 62
7
  6
CONTINUOUS
 10
60.5099255458
 20
273.9409816099
 11
60.5099255458
 21
278.7409816099
  0
LINE
  5
2BF
100
AcDbEntity
  8
0
100
AcDbLine
 62
7
  6
CONTINUOUS
 10
62.8136926917
 20
49.7134791884
 11
62.8170242137
 21
50.2188747619
  0
LINE
  5
2C0
100
AcDbEntity
  8
0
100
AcDbLine
 62
7
  6
CONTINUOUS
 10
62.8798530355
 20
47.5814212727
 11
62.8765215136
 21
47.0760256993
  0
LINE
  5
2C1
100
AcDbEntity
  8
0
100
AcDbLine
 62
7
  6
CONTINUOUS
 10
51.5063303629
 20
63.2207805736
 11
51.4327037677
 21
62.6046016455
  0
LINE
  5
2C2
100
AcDbEntity
  8
0
100
AcDbLine
 62
7
  6
CONTINUOUS
 10
51.6267553769
 20
80.6653198886
 11
51.7191525389
 21
81.3044206151
  0
LINE
  5
2C3
100
AcDbEntity
  8
0
100
AcDbLine
 62
7
  6
CONTINUOUS
 10
43.7618216292
 20
88.0489066313
 11
43.8985035281
 21
88.5498283438
  0
LINE
  5
2C4
100
AcDbEntity
  8
BEZUGSACHSEN
100
AcDbLine
 62
7
  6
CONTINUOUS
 10
39.10241406
 20
129.5378166397
 11
84.3273466741
 21
200.7344139604
  0
LINE
  5
2C5
100
AcDbEntity
  8
0
100
AcDbLine
 62
7
  6
CONTINUOUS
 10
55.7632426256
 20
65.809546821
 11
55.0214623505
 21
65.6584336267
  0
LINE
  5
2C6
100
AcDbEntity
  8
0
100
AcDbLine
 62
7
  6
CONTINUOUS
 10
47.4451157346
 20
78.4109233003
 11
48.1632409749
 21
78.4887016772
  0
LINE
  5
2C7
100
AcDbEntity
  8
0
100
AcDbLine
 62
7
  6
CONTINUOUS
 10
47.8975321058
 20
79.317779105
 11
47.3141749851
 21
79.2831922123
  0
LINE
  5
2C8
100
AcDbEntity
  8
0
100
AcDbLine
 62
7
  6
CONTINUOUS
 10
45.7718614067
 20
85.9503977362
 11
45.1885040325
 21
85.9158116342
  0
LINE
  5
2C9
100
AcDbEntity
  8
0
100
AcDbLine
 62
7
  6
CONTINUOUS
 10
45.7524546047
 20
92.0390702066
 11
46.2010437326
 21
92.0304652198
  0
LINE
  5
2CA
100
AcDbEntity
  8
0
100
AcDbLine
 62
7
  6
CONTINUOUS
 10
61.9359010438
 20
271.5158604778
 11
61.7346197883
 21
273.8999310417
  0
LINE
  5
2CB
100
AcDbEntity
  8
0
100
AcDbLine
 62
7
  6
CONTINUOUS
 10
65.9784048603
 20
49.140143358
 11
66.0231458138
 21
49.8429982749
  0
LINE
  5
2CC
100
AcDbEntity
  8
0
100
AcDbLine
 62
7
  6
CONTINUOUS
 10
58.5421091933
 20
62.0854093382
 11
58.6157357522
 21
62.7015882517
  0
LINE
  5
2CD
100
AcDbEntity
  8
0
100
AcDbLine
 62
7
  6
CONTINUOUS
 10
52.3126995385
 20
62.8111977846
 11
52.4370273085
 21
63.301073903
  0
LINE
  5
2CE
100
AcDbEntity
  8
0
100
AcDbLine
 62
7
  6
CONTINUOUS
 10
50.8662586722
 20
81.1834523353
 11
50.7295768677
 21
80.682530653
  0
LINE
  5
2CF
100
AcDbEntity
  8
0
100
AcDbLine
 62
7
  6
CONTINUOUS
 10
47.5063542213
 20
93.0582898205
 11
47.7335193762
 21
93.7405824265
  0
LINE
  5
2D0
100
AcDbEntity
  8
0
100
AcDbLine
 62
7
  6
CONTINUOUS
 10
45.319444782
 20
85.0435427223
 11
46.0375702757
 21
85.1213203085
  0
LINE
  5
2D1
100
AcDbEntity
  8
0
100
AcDbLine
 62
7
  6
CONTINUOUS
 10
201.973121183
 20
100.7409816099
 11
183.0102594313
 21
100.7409816099
  0
LINE
  5
2D2
100
AcDbEntity
  8
0
100
AcDbLine
 62
7
  6
CONTINUOUS
 10
46.0701029831
 20
92.9027341317
 11
45.6215138551
 21
92.9113391186
  0
LINE
  5
2D3
100
AcDbEntity
  8
BEZUGSACHSEN
100
AcDbLine
 62
7
  6
CONTINUOUS
 10
32.6588800858
 20
132.2729345392
 11
39.10241406
 21
129.5378166397
  0
LINE
  5
2D4
100
AcDbEntity
  8
0
100
AcDbLine
 62
7
  6
CONTINUOUS
 10
80.1141884094
 20
31.7287906724
 11
80.1705010804
 21
31.3292301431
  0
LINE
  5
2D5
100
AcDbEntity
  8
0
100
AcDbLine
 62
7
  6
CONTINUOUS
 10
80.8721234232
 20
31.3903412803
 11
80.7876531317
 21
31.9896829542
  0
LINE
  5
2D6
100
AcDbEntity
  8
0
100
AcDbLine
 62
7
  6
CONTINUOUS
 10
76.1287278802
 20
31.9305729108
 11
76.1290560808
 21
31.2083406287
  0
LINE
  5
2D7
100
AcDbEntity
  8
0
100
AcDbLine
 62
7
  6
CONTINUOUS
 10
82.1060969611
 20
33.4334812458
 11
82.1057687311
 21
34.1557134848
  0
LINE
  5
2D8
100
AcDbEntity
  8
BEZUGSACHSEN
100
AcDbLine
 62
7
  6
CENTER
 10
80.2099255458
 20
262.6409816099
 11
80.2099255458
 21
256.6409816099
  0
LINE
  5
2D9
100
AcDbEntity
  8
BEZUGSACHSEN
100
AcDbLine
 62
7
  6
CENTER
 10
80.2099255458
 20
262.6409816099
 11
80.2099255458
 21
268.6409816099
  0
LINE
  5
2DA
100
AcDbEntity
  8
0
100
AcDbLine
 62
7
  6
CONTINUOUS
 10
76.8025208325
 20
31.4692329536
 11
76.830350282
 21
31.9916841341
  0
LINE
  5
2DB
100
AcDbEntity
  8
0
100
AcDbLine
 62
7
  6
CONTINUOUS
 10
81.4323040089
 20
33.8948212029
 11
81.4044746183
 21
33.3723701085
  0
LINE
  5
2DC
100
AcDbEntity
  8
0
100
AcDbLine
 62
7
  6
CONTINUOUS
 10
60.0364191092
 20
48.218248985
 11
60.1606465789
 21
48.8106283408
  0
LINE
  5
2DD
100
AcDbEntity
  8
0
100
AcDbLine
 62
7
  6
CONTINUOUS
 10
62.0983120792
 20
50.7077635798
 11
61.9326752626
 21
49.9179249414
  0
LINE
  5
2DE
100
AcDbEntity
  8
0
100
AcDbLine
 62
7
  6
CONTINUOUS
 10
63.5952336481
 20
46.5871368813
 11
63.7608704646
 21
47.3769755198
  0
LINE
  5
2DF
100
AcDbEntity
  8
0
100
AcDbLine
 62
7
  6
CONTINUOUS
 10
65.2182842039
 20
49.4315715681
 11
65.1354653408
 21
49.036652881
  0
LINE
  5
2E0
100
AcDbEntity
  8
0
100
AcDbLine
 62
7
  6
CONTINUOUS
 10
57.7357400661
 20
62.4949921467
 11
57.6114123204
 21
62.0051162478
  0
LINE
  5
2E1
100
AcDbEntity
  8
0
100
AcDbLine
 62
7
  6
CONTINUOUS
 10
43.3632583256
 20
89.2925227729
 11
43.0013248773
 21
88.5670390629
  0
LINE
  5
2E2
100
AcDbEntity
  8
0
100
AcDbLine
 62
7
  6
CONTINUOUS
 10
47.0153938824
 20
93.6628048403
 11
46.8344273086
 21
93.3000625975
  0
LINE
  5
2E3
100
AcDbEntity
  8
0
100
AcDbLine
 62
7
  6
CONTINUOUS
 10
56.7263199047
 20
107.5759816099
 11
53.7263199047
 21
102.3798291872
  0
LINE
  5
2E4
100
AcDbEntity
  8
0
100
AcDbLine
 62
7
  6
CONTINUOUS
 10
28.6015446801
 20
140.4401276276
 11
31.3232869772
 21
142.0115262755
  0
LINE
  5
2E5
100
AcDbEntity
  8
0
100
AcDbLine
 62
7
  6
CONTINUOUS
 10
50.7263199047
 20
107.5759816099
 11
56.7263199047
 21
107.5759816099
  0
LINE
  5
2E6
100
AcDbEntity
  8
0
100
AcDbLine
 62
7
  6
CONTINUOUS
 10
182.6755845137
 20
112.2409816099
 11
202.1257895394
 21
112.2409816099
  0
LINE
  5
2E7
100
AcDbEntity
  8
0
100
AcDbLine
 62
7
  6
CONTINUOUS
 10
99.0599255458
 20
241.6909816099
 11
99.0599255458
 21
251.3409816099
  0
LINE
  5
2E8
100
AcDbEntity
  8
0
100
AcDbLine
 62
7
  6
CONTINUOUS
 10
99.0599255458
 20
273.9409816099
 11
99.0599255458
 21
283.0440840522
  0
LINE
  5
2E9
100
AcDbEntity
  8
0
100
AcDbLine
 62
7
  6
CONTINUOUS
 10
51.8563883491
 20
63.9479261809
 11
51.5063303629
 21
63.2207805736
  0
LINE
  5
2EA
100
AcDbEntity
  8
0
100
AcDbLine
 62
7
  6
CONTINUOUS
 10
51.2648219758
 20
79.9398361937
 11
51.6267553769
 21
80.6653198886
  0
LINE
  5
2EB
100
AcDbEntity
  8
0
100
AcDbLine
 62
7
  6
CONTINUOUS
 10
47.1001361777
 20
92.4709851698
 11
47.5063542213
 21
93.0582898205
  0
LINE
  5
2EC
100
AcDbEntity
  8
0
100
AcDbLine
 62
7
  6
CONTINUOUS
 10
43.8985035281
 20
88.5498283438
 11
44.2142380948
 21
88.9557624662
  0
LINE
  5
2ED
100
AcDbEntity
  8
BG_STARTBEZUEGE
100
AcDbLine
 62
7
  6
CENTER
 10
108.5099255458
 20
2.9838438829
 11
108.5099255458
 21
285.686137218
  0
LINE
  5
2EE
100
AcDbEntity
  8
0
100
AcDbLine
 62
7
  6
CONTINUOUS
 10
76.3248414528
 20
32.6988052215
 11
76.1287278802
 21
31.9305729108
  0
LINE
  5
2EF
100
AcDbEntity
  8
0
100
AcDbLine
 62
7
  6
CONTINUOUS
 10
80.6760099096
 20
30.6221090557
 11
80.8721234232
 21
31.3903412803
  0
LINE
  5
2F0
100
AcDbEntity
  8
0
100
AcDbLine
 62
7
  6
CONTINUOUS
 10
65.7332816123
 20
48.4607803416
 11
65.9784048603
 21
49.140143358
  0
LINE
  5
2F1
100
AcDbEntity
  8
0
100
AcDbLine
 62
7
  6
CONTINUOUS
 10
62.8765215136
 20
47.0760256993
 11
62.6728075277
 21
46.5941219046
  0
LINE
  5
2F2
100
AcDbEntity
  8
0
100
AcDbLine
 62
7
  6
CONTINUOUS
 10
154.5099255458
 20
249.2409816099
 11
147.4789977435
 21
234.1631082803
  0
LINE
  5
2F3
100
AcDbEntity
  8
0
100
AcDbLine
 62
7
  6
CONTINUOUS
 10
59.5628303074
 20
49.3865008803
 11
59.1968110693
 21
48.620154051
  0
LINE
  5
2F4
100
AcDbEntity
  8
0
100
AcDbLine
 62
7
  6
CONTINUOUS
 10
58.1920513281
 20
61.3582635697
 11
58.5421091933
 21
62.0854093382
  0
LINE
  5
2F5
100
AcDbEntity
  8
0
100
AcDbLine
 62
7
  6
CONTINUOUS
 10
50.7295768677
 20
80.682530653
 11
50.4138419234
 21
80.2765964097
  0
LINE
  5
2F6
100
AcDbEntity
  8
0
100
AcDbLine
 62
7
  6
CONTINUOUS
 10
43.8137612329
 20
89.7416480143
 11
43.3632583256
 21
89.2925227729
  0
LINE
  5
2F7
100
AcDbEntity
  8
0
100
AcDbLine
 62
7
  6
CONTINUOUS
 10
54.7963971835
 20
111.2409816099
 11
55.986427194
 21
112.1541237534
  0
LINE
  5
2F8
100
AcDbEntity
  8
0
100
AcDbLine
 62
7
  6
CONTINUOUS
 10
127.2036359089
 20
165.5405375949
 11
128.3936659193
 21
166.4536797384
  0
LINE
  5
2F9
100
AcDbEntity
  8
0
100
AcDbLine
 62
7
  6
CONTINUOUS
 10
117.9599255458
 20
283.0440840522
 11
117.9599255458
 21
273.9409816099
  0
LINE
  5
2FA
100
AcDbEntity
  8
0
100
AcDbLine
 62
7
  6
CONTINUOUS
 10
117.9599255458
 20
251.3409816099
 11
117.9599255458
 21
241.6909816099
  0
LINE
  5
2FB
100
AcDbEntity
  8
0
100
AcDbLine
 62
7
  6
CONTINUOUS
 10
76.830350282
 20
31.9916841341
 11
76.9704767844
 21
32.4372464089
  0
LINE
  5
2FC
100
AcDbEntity
  8
0
100
AcDbLine
 62
7
  6
CONTINUOUS
 10
80.1705010804
 20
31.3292301431
 11
80.0303744601
 21
30.8836676961
  0
LINE
  5
2FD
100
AcDbEntity
  8
0
100
AcDbLine
 62
7
  6
CONTINUOUS
 10
81.9659704587
 20
32.987918971
 11
82.1060969611
 21
33.4334812458
  0
LINE
  5
2FE
100
AcDbEntity
  8
0
100
AcDbLine
 62
7
  6
CONTINUOUS
 10
63.2706237991
 20
46.0182493651
 11
63.5952336481
 21
46.5871368813
  0
LINE
  5
2FF
100
AcDbEntity
  8
0
100
AcDbLine
 62
7
  6
CONTINUOUS
 10
65.1354653408
 20
49.036652881
 11
64.9731609559
 21
48.7522085517
  0
LINE
  5
300
100
AcDbEntity
  8
0
100
AcDbLine
 62
7
  6
CONTINUOUS
 10
52.4370273085
 20
63.301073903
 11
52.7502720394
 21
63.7201298534
  0
LINE
  5
301
100
AcDbEntity
  8
0
100
AcDbLine
 62
7
  6
CONTINUOUS
 10
50.8143192896
 20
79.4907105872
 11
51.2648219758
 21
79.9398361937
  0
LINE
  5
302
100
AcDbEntity
  8
0
100
AcDbLine
 62
7
  6
CONTINUOUS
 10
41.9327484255
 20
90.5101577691
 11
44.633852249
 21
92.7471781686
  0
LINE
  5
303
100
AcDbEntity
  8
0
100
AcDbLine
 62
7
  6
CONTINUOUS
 10
44.0986070775
 20
93.4898728256
 11
41.6227546604
 21
91.4774150317
  0
LINE
  5
304
100
AcDbEntity
  8
0
100
AcDbLine
 62
7
  6
CONTINUOUS
 10
62.0740414841
 20
104.2205903505
 11
60.8840114736
 21
103.307448207
  0
LINE
  5
305
100
AcDbEntity
  8
0
100
AcDbLine
 62
7
  6
CONTINUOUS
 10
134.4812802094
 20
158.5201463355
 11
133.291250199
 21
157.607004192
  0
LINE
  5
306
100
AcDbEntity
  8
0
100
AcDbLine
 62
7
  6
CONTINUOUS
 10
46.8344273086
 20
93.3000625975
 11
46.4744077192
 21
93.0323087054
  0
LINE
  5
307
100
AcDbEntity
  8
0
100
AcDbLine
 62
7
  6
CONTINUOUS
 10
46.7401165883
 20
92.2032312776
 11
47.1001361777
 21
92.4709851698
  0
LINE
  5
308
100
AcDbEntity
  8
RUNDUNGEN
100
AcDbLine
 62
7
  6
CONTINUOUS
 10
20.5561175047
 20
116.69469267
 11
21.891971708
 21
117.2547737046
  0
LINE
  5
309
100
AcDbEntity
  8
0
100
AcDbLine
 62
7
  6
CONTINUOUS
 10
52.000070946
 20
177.837924785
 11
51.5398185193
 21
178.0332903493
  0
LINE
  5
30A
100
AcDbEntity
  8
0
100
AcDbLine
 62
7
  6
CONTINUOUS
 10
52.0790485121
 20
178.0239842708
 11
51.6187960853
 21
178.2193498351
  0
LINE
  5
30B
100
AcDbEntity
  8
0
100
AcDbLine
 62
7
  6
CONTINUOUS
 10
52.237003651
 20
178.3961032586
 11
51.7767512243
 21
178.5914688229
  0
LINE
  5
30C
100
AcDbEntity
  8
0
100
AcDbLine
 62
7
  6
CONTINUOUS
 10
150.8670834184
 20
263.1273337489
 11
152.5148101458
 21
274.5612599139
  0
LINE
  5
30D
100
AcDbEntity
  8
0
100
AcDbLine
 62
7
  6
CONTINUOUS
 10
131.8341497345
 20
162.7912937515
 11
134.1302503287
 21
168.3345709465
  0
LINE
  5
30E
100
AcDbEntity
  8
0
100
AcDbLine
 62
7
  6
CONTINUOUS
 10
76.8015363191
 20
33.6359299288
 11
76.3248414528
 21
32.6988052215
  0
LINE
  5
30F
100
AcDbEntity
  8
0
100
AcDbLine
 62
7
  6
CONTINUOUS
 10
60.1606465789
 20
48.8106283408
 11
60.4438468269
 21
49.1820563916
  0
LINE
  5
310
100
AcDbEntity
  8
0
100
AcDbLine
 62
7
  6
CONTINUOUS
 10
62.8170242137
 20
50.2188747619
 11
63.1002244617
 21
50.5903028127
  0
LINE
  5
311
100
AcDbEntity
  8
0
100
AcDbLine
 62
7
  6
CONTINUOUS
 10
52.3078489024
 20
64.422465417
 11
51.8563883491
 21
63.9479261809
  0
LINE
  5
312
100
AcDbEntity
  8
0
100
AcDbLine
 62
7
  6
CONTINUOUS
 10
44.2142380948
 20
88.9557624662
 11
44.7090259304
 21
89.2667074472
  0
LINE
  5
313
100
AcDbEntity
  8
0
100
AcDbLine
 62
7
  6
CONTINUOUS
 10
44.4433169346
 20
90.0957852703
 11
43.8137612329
 21
89.7416480143
  0
LINE
  5
314
100
AcDbEntity
  8
0
100
AcDbLine
 62
7
  6
CONTINUOUS
 10
52.5529139151
 20
179.1403412017
 11
52.0926614884
 21
179.3357067659
  0
LINE
  5
315
100
AcDbEntity
  8
0
100
AcDbLine
 62
7
  6
CONTINUOUS
 10
52.8688242069
 20
179.8845792099
 11
52.4085717801
 21
180.0799447741
  0
LINE
  5
316
100
AcDbEntity
  8
0
100
AcDbLine
 62
7
  6
CONTINUOUS
 10
53.2637120024
 20
180.8148765573
 11
52.8034595757
 21
181.0102421215
  0
LINE
  5
317
100
AcDbEntity
  8
0
100
AcDbLine
 62
7
  6
CONTINUOUS
 10
54.4483754997
 20
183.60576886
 11
53.988123073
 21
183.8011344243
  0
LINE
  5
318
100
AcDbEntity
  8
0
100
AcDbLine
 62
7
  6
CONTINUOUS
 10
54.8425592756
 20
184.5363656611
 11
54.3830110898
 21
184.7314322929
  0
LINE
  5
319
100
AcDbEntity
  8
0
100
AcDbLine
 62
7
  6
CONTINUOUS
 10
55.1483339347
 20
185.2849058364
 11
54.6989213262
 21
185.4756701708
  0
LINE
  5
31A
100
AcDbEntity
  8
0
100
AcDbLine
 62
7
  6
CONTINUOUS
 10
55.4420648138
 20
186.0385582929
 11
55.0148315626
 21
186.2199080487
  0
LINE
  5
31B
100
AcDbEntity
  8
0
100
AcDbLine
 62
7
  6
CONTINUOUS
 10
55.5844087586
 20
186.4173037818
 11
55.1727866808
 21
186.5920269876
  0
LINE
  5
31C
100
AcDbEntity
  8
0
100
AcDbLine
 62
7
  6
CONTINUOUS
 10
55.6544491111
 20
186.6071568704
 11
55.25176424
 21
186.7780864571
  0
LINE
  5
31D
100
AcDbEntity
  8
0
100
AcDbLine
 62
7
  6
CONTINUOUS
 10
139.4507058172
 20
129.9826773413
 11
90.1920988461
 21
194.1777437767
  0
LINE
  5
31E
100
AcDbEntity
  8
RUNDUNGEN
100
AcDbLine
 62
7
  6
CONTINUOUS
 10
124.2302304298
 20
152.940727569
 11
90.5142091552
 21
196.8800601783
  0
LINE
  5
31F
100
AcDbEntity
  8
RUNDUNGEN
100
AcDbLine
 62
7
  6
CONTINUOUS
 10
87.5192273208
 20
217.8267910219
 11
124.0598092426
 21
153.2415311252
  0
LINE
  5
320
100
AcDbEntity
  8
0
100
AcDbLine
 62
7
  6
CONTINUOUS
 10
65.4500813642
 20
48.0893522908
 11
65.7332816123
 21
48.4607803416
  0
LINE
  5
321
100
AcDbEntity
  8
0
100
AcDbLine
 62
7
  6
CONTINUOUS
 10
59.9669264185
 20
49.8449126525
 11
59.5628303074
 21
49.3865008803
  0
LINE
  5
322
100
AcDbEntity
  8
0
100
AcDbLine
 62
7
  6
CONTINUOUS
 10
62.5024081903
 20
51.1661753521
 11
62.0983120792
 21
50.7077635798
  0
LINE
  5
323
100
AcDbEntity
  8
0
100
AcDbLine
 62
7
  6
CONTINUOUS
 10
50.4138419234
 20
80.2765964097
 11
49.9190540878
 21
79.9656514287
  0
LINE
  5
324
100
AcDbEntity
  8
0
100
AcDbLine
 62
7
  6
CONTINUOUS
 10
46.5840279196
 20
97.7909816099
 11
40.2499255458
 21
95.7609816099
  0
LINE
  5
325
100
AcDbEntity
  8
0
100
AcDbLine
 62
7
  6
CONTINUOUS
 10
137.7828189028
 20
163.5744509048
 11
131.8341497345
 21
162.7912937515
  0
LINE
  5
326
100
AcDbEntity
  8
0
100
AcDbLine
 62
7
  6
CONTINUOUS
 10
133.291250199
 20
157.607004192
 11
127.2036359089
 21
165.5405375949
  0
LINE
  5
327
100
AcDbEntity
  8
0
100
AcDbLine
 62
7
  6
CONTINUOUS
 10
128.3936659193
 20
166.4536797384
 11
134.4812802094
 21
158.5201463355
  0
LINE
  5
328
100
AcDbEntity
  8
0
100
AcDbLine
 62
7
  6
CONTINUOUS
 10
134.1302503287
 20
168.3345709465
 11
137.7828189028
 21
163.5744509048
  0
LINE
  5
329
100
AcDbEntity
  8
0
100
AcDbLine
 62
7
  6
CONTINUOUS
 10
103.6581470661
 20
213.7169813151
 11
108.5099255458
 21
205.1414918841
  0
LINE
  5
32A
100
AcDbEntity
  8
0
100
AcDbLine
 62
7
  6
CONTINUOUS
 10
178.2946682654
 20
68.4534727455
 11
183.9811607688
 21
55.6814014684
  0
LINE
  5
32B
100
AcDbEntity
  8
RUNDUNGEN
100
AcDbLine
 62
7
  6
CONTINUOUS
 10
150.8670834184
 20
263.1273337489
 11
150.8670834184
 21
260.1532156168
  0
LINE
  5
32C
100
AcDbEntity
  8
0
100
AcDbLine
 62
7
  6
CONTINUOUS
 10
154.5099255458
 20
278.7409816099
 11
154.5099255458
 21
249.2409816099
  0
LINE
  5
32D
100
AcDbEntity
  8
0
100
AcDbLine
 62
7
  6
CONTINUOUS
 10
77.3905307498
 20
34.4961638846
 11
76.8015363191
 21
33.6359299288
  0
LINE
  5
32E
100
AcDbEntity
  8
0
100
AcDbLine
 62
7
  6
CONTINUOUS
 10
77.7837398968
 20
33.8659333767
 11
77.9520240199
 21
34.1117145069
  0
LINE
  5
32F
100
AcDbEntity
  8
0
100
AcDbLine
 62
7
  6
CONTINUOUS
 10
76.9704767844
 20
32.4372464089
 11
77.222902969
 21
32.8059181042
  0
LINE
  5
330
100
AcDbEntity
  8
0
100
AcDbLine
 62
7
  6
CONTINUOUS
 10
80.0303744601
 20
30.8836676961
 11
79.7779482756
 21
30.5149960008
  0
LINE
  5
331
100
AcDbEntity
  8
0
100
AcDbLine
 62
7
  6
CONTINUOUS
 10
80.2552994841
 20
30.0076560581
 11
80.6760099096
 21
30.6221090557
  0
LINE
  5
332
100
AcDbEntity
  8
0
100
AcDbLine
 62
7
  6
CONTINUOUS
 10
76.3017388454
 20
37.8419230961
 11
75.5623006841
 21
36.9076432877
  0
LINE
  5
333
100
AcDbEntity
  8
0
100
AcDbLine
 62
7
  6
CONTINUOUS
 10
76.8496256866
 20
37.2183579549
 11
73.2448653946
 21
32.6637448295
  0
LINE
  5
334
100
AcDbEntity
  8
0
100
AcDbLine
 62
7
  6
CONTINUOUS
 10
73.8851819735
 20
32.1569646234
 11
78.2293801679
 21
37.6458572301
  0
LINE
  5
335
100
AcDbEntity
  8
0
100
AcDbLine
 62
7
  6
CONTINUOUS
 10
57.6114123204
 20
62.0051162478
 11
57.247466088
 21
61.7123629759
  0
LINE
  5
336
100
AcDbEntity
  8
0
100
AcDbLine
 62
7
  6
CONTINUOUS
 10
52.7502720394
 20
63.7201298534
 11
53.2524336828
 21
64.0683660361
  0
LINE
  5
337
100
AcDbEntity
  8
0
100
AcDbLine
 62
7
  6
CONTINUOUS
 10
52.9482262715
 20
64.8261848465
 11
52.3078489024
 21
64.422465417
  0
LINE
  5
338
100
AcDbEntity
  8
0
100
AcDbLine
 62
7
  6
CONTINUOUS
 10
50.1847629569
 20
79.1365740009
 11
50.8143192896
 21
79.4907105872
  0
LINE
  5
339
100
AcDbEntity
  8
0
100
AcDbLine
 62
7
  6
CONTINUOUS
 10
40.5156344149
 20
94.9319041822
 11
43.3457653029
 21
95.8389254716
  0
LINE
  5
33A
100
AcDbEntity
  8
0
100
AcDbLine
 62
7
  6
CONTINUOUS
 10
44.1543740202
 20
96.0980743769
 11
46.175896191
 21
96.7459467611
  0
LINE
  5
33B
100
AcDbEntity
  8
0
100
AcDbLine
 62
7
  6
CONTINUOUS
 10
46.4744077192
 20
93.0323087054
 11
46.0701029831
 21
92.9027341317
  0
LINE
  5
33C
100
AcDbEntity
  8
0
100
AcDbLine
 62
7
  6
CONTINUOUS
 10
46.2010437326
 20
92.0304652198
 11
46.7401165883
 21
92.2032312776
  0
LINE
  5
33D
100
AcDbEntity
  8
0
100
AcDbLine
 62
7
  6
CONTINUOUS
 10
48.6211292069
 20
91.4347214624
 11
44.4433169346
 21
90.0957852703
  0
LINE
  5
33E
100
AcDbEntity
  8
0
100
AcDbLine
 62
7
  6
CONTINUOUS
 10
44.7090259304
 20
89.2667074472
 11
48.8868382027
 21
90.6056436393
  0
LINE
  5
33F
100
AcDbEntity
  8
0
100
AcDbLine
 62
7
  6
CONTINUOUS
 10
49.949673679
 20
87.2893339283
 11
45.7718614067
 21
85.9503977362
  0
LINE
  5
340
100
AcDbEntity
  8
0
100
AcDbLine
 62
7
  6
CONTINUOUS
 10
177.5289866854
 20
92.3005617515
 11
188.6107286628
 21
67.4105617515
  0
LINE
  5
341
100
AcDbEntity
  8
0
100
AcDbLine
 62
7
  6
CONTINUOUS
 10
78.0918248626
 20
35.2795072608
 11
77.3905307498
 21
34.4961638846
  0
LINE
  5
342
100
AcDbEntity
  8
0
100
AcDbLine
 62
7
  6
CONTINUOUS
 10
77.9520240199
 20
34.1117145069
 11
78.5691760711
 21
34.7721673181
  0
LINE
  5
343
100
AcDbEntity
  8
0
100
AcDbLine
 62
7
  6
CONTINUOUS
 10
67.6923145428
 20
47.8544972156
 11
62.4488445949
 21
43.2170385468
  0
LINE
  5
344
100
AcDbEntity
  8
0
100
AcDbLine
 62
7
  6
CONTINUOUS
 10
62.9898356258
 20
42.6053521868
 11
65.4442258342
 21
44.7760775388
  0
LINE
  5
345
100
AcDbEntity
  8
0
100
AcDbLine
 62
7
  6
CONTINUOUS
 10
66.1136048967
 20
45.3680934685
 11
68.2333055738
 21
47.2428108556
  0
LINE
  5
346
100
AcDbEntity
  8
0
100
AcDbLine
 62
7
  6
CONTINUOUS
 10
70.7579300408
 20
44.3882748979
 11
68.6382293637
 21
42.5135575107
  0
LINE
  5
347
100
AcDbEntity
  8
0
100
AcDbLine
 62
7
  6
CONTINUOUS
 10
67.9688503012
 20
41.921541581
 11
65.5144600929
 21
39.750816229
  0
LINE
  5
348
100
AcDbEntity
  8
0
100
AcDbLine
 62
7
  6
CONTINUOUS
 10
66.0554511238
 20
39.139129869
 11
71.2989210718
 21
43.7765885379
  0
LINE
  5
349
100
AcDbEntity
  8
0
100
AcDbLine
 62
7
  6
CONTINUOUS
 10
62.9859919812
 20
51.5141104817
 11
62.5024081903
 21
51.1661753521
  0
LINE
  5
34A
100
AcDbEntity
  8
0
100
AcDbLine
 62
7
  6
CONTINUOUS
 10
63.1002244617
 20
50.5903028127
 11
63.3420161878
 21
50.7642702556
  0
LINE
  5
34B
100
AcDbEntity
  8
0
100
AcDbLine
 62
7
  6
CONTINUOUS
 10
62.6728075277
 20
46.5941219046
 11
62.3101199385
 21
46.3331707401
  0
LINE
  5
34C
100
AcDbEntity
  8
0
100
AcDbLine
 62
7
  6
CONTINUOUS
 10
57.5516733542
 20
60.9545445268
 11
58.1920513281
 21
61.3582635697
  0
LINE
  5
34D
100
AcDbEntity
  8
0
100
AcDbLine
 62
7
  6
CONTINUOUS
 10
59.3540138321
 20
53.4014182195
 11
58.7209654359
 21
53.009245456
  0
LINE
  5
34E
100
AcDbEntity
  8
0
100
AcDbLine
 62
7
  6
CONTINUOUS
 10
46.0375702757
 20
85.1213203085
 11
50.215382548
 21
86.4602565006
  0
LINE
  5
34F
100
AcDbEntity
  8
0
100
AcDbLine
 62
7
  6
CONTINUOUS
 10
50.5696609557
 20
85.3548201938
 11
44.2355585818
 21
83.3248201938
  0
LINE
  5
350
100
AcDbEntity
  8
0
100
AcDbLine
 62
7
  6
CONTINUOUS
 10
45.3098762626
 20
82.7548917016
 11
50.0267611074
 21
84.2665938608
  0
LINE
  5
351
100
AcDbEntity
  8
0
100
AcDbLine
 62
7
  6
CONTINUOUS
 10
49.9190540878
 20
79.9656514287
 11
47.8975321058
 21
79.317779105
  0
LINE
  5
352
100
AcDbEntity
  8
0
100
AcDbLine
 62
7
  6
CONTINUOUS
 10
48.1632409749
 20
78.4887016772
 11
50.1847629569
 21
79.1365740009
  0
LINE
  5
353
100
AcDbEntity
  8
0
100
AcDbLine
 62
7
  6
CONTINUOUS
 10
182.7439723151
 20
151.5343947629
 11
176.7760550683
 21
119.3343947629
  0
LINE
  5
354
100
AcDbEntity
  8
0
100
AcDbLine
 62
7
  6
CONTINUOUS
 10
62.6661444838
 20
45.5833307577
 11
63.2706237991
 21
46.0182493651
  0
LINE
  5
355
100
AcDbEntity
  8
0
100
AcDbLine
 62
7
  6
CONTINUOUS
 10
59.7244070985
 20
51.3894819375
 11
60.3574554948
 21
51.781654701
  0
LINE
  5
356
100
AcDbEntity
  8
0
100
AcDbLine
 62
7
  6
CONTINUOUS
 10
59.6756677004
 20
60.6319190896
 11
53.4667949215
 21
57.3992887651
  0
LINE
  5
357
100
AcDbEntity
  8
0
100
AcDbLine
 62
7
  6
CONTINUOUS
 10
54.6365252455
 20
57.0876578227
 11
56.7501840895
 21
58.1881277337
  0
LINE
  5
358
100
AcDbEntity
  8
0
100
AcDbLine
 62
7
  6
CONTINUOUS
 10
57.5428060519
 20
58.6008038961
 11
59.2601540072
 21
59.4949357741
  0
LINE
  5
359
100
AcDbEntity
  8
0
100
AcDbLine
 62
7
  6
CONTINUOUS
 10
58.3843198026
 20
55.0494636342
 11
59.176941765
 21
55.4621397967
  0
LINE
  5
35A
100
AcDbEntity
  8
0
100
AcDbLine
 62
7
  6
CONTINUOUS
 10
55.7294441767
 20
53.0534465378
 11
56.5220662317
 21
53.4661227484
  0
LINE
  5
35B
100
AcDbEntity
  8
0
100
AcDbLine
 62
7
  6
CONTINUOUS
 10
61.1456949933
 20
55.8734006998
 11
61.9383169557
 21
56.2860768623
  0
LINE
  5
35C
100
AcDbEntity
  8
0
100
AcDbLine
 62
7
  6
CONTINUOUS
 10
55.0214623505
 20
65.6584336267
 11
52.9482262715
 21
64.8261848465
  0
LINE
  5
35D
100
AcDbEntity
  8
0
100
AcDbLine
 62
7
  6
CONTINUOUS
 10
53.2524336828
 20
64.0683660361
 11
55.3256697618
 21
64.9006148163
  0
LINE
  5
35E
100
AcDbEntity
  8
0
100
AcDbLine
 62
7
  6
CONTINUOUS
 10
56.6763592103
 20
68.3717422829
 11
50.0226189259
 21
66.1974055499
  0
LINE
  5
35F
100
AcDbEntity
  8
0
100
AcDbLine
 62
7
  6
CONTINUOUS
 10
50.2762700643
 20
65.4212015828
 11
56.9300103487
 21
67.5955383158
  0
LINE
  5
360
100
AcDbEntity
  8
BEZUGSACHSEN
100
AcDbLine
 62
7
  6
CONTINUOUS
 10
63.6980372078
 20
227.1904515763
 11
77.9801613447
 21
221.1280495582
  0
LINE
  5
361
100
AcDbEntity
  8
0
100
AcDbLine
 62
7
  6
CONTINUOUS
 10
121.9603721732
 20
31.0779990946
 11
113.4248378115
 21
18.8879927096
  0
LINE
  5
362
100
AcDbEntity
  8
0
100
AcDbLine
 62
7
  6
CONTINUOUS
 10
78.5691760711
 20
34.7721673181
 11
78.9339021736
 21
35.0639487782
  0
LINE
  5
363
100
AcDbEntity
  8
0
100
AcDbLine
 62
7
  6
CONTINUOUS
 10
77.222902969
 20
32.8059181042
 11
77.5876289535
 21
33.0976993922
  0
LINE
  5
364
100
AcDbEntity
  8
0
100
AcDbLine
 62
7
  6
CONTINUOUS
 10
79.7779482756
 20
30.5149960008
 11
79.4132224088
 21
30.223214885
  0
LINE
  5
365
100
AcDbEntity
  8
0
100
AcDbLine
 62
7
  6
CONTINUOUS
 10
78.7371321999
 20
35.7401810315
 11
78.0918248626
 21
35.2795072608
  0
LINE
  5
366
100
AcDbEntity
  8
0
100
AcDbLine
 62
7
  6
CONTINUOUS
 10
63.5490627746
 20
51.7515684813
 11
62.9859919812
 21
51.5141104817
  0
LINE
  5
367
100
AcDbEntity
  8
0
100
AcDbLine
 62
7
  6
CONTINUOUS
 10
63.6820458776
 20
227.4171263446
 11
63.3685739454
 21
227.5070129747
  0
LINE
  5
368
100
AcDbEntity
  8
0
100
AcDbLine
 62
7
  6
CONTINUOUS
 10
69.5268356388
 20
227.7183667769
 11
76.9201232389
 21
225.598375672
  0
LINE
  5
369
100
AcDbEntity
  8
0
100
AcDbLine
 62
7
  6
CONTINUOUS
 10
187.4074015224
 20
177.738410064
 11
154.35899976
 21
204.5004781337
  0
LINE
  5
36A
100
AcDbEntity
  8
0
100
AcDbLine
 62
7
  6
CONTINUOUS
 10
135.6508408123
 20
36.682440228
 11
126.7094583847
 21
23.9128227365
  0
LINE
  5
36B
100
AcDbEntity
  8
0
100
AcDbLine
 62
7
  6
CONTINUOUS
 10
79.6099923236
 20
29.5469825455
 11
80.2552994841
 21
30.0076560581
  0
LINE
  5
36C
100
AcDbEntity
  8
0
100
AcDbLine
 62
7
  6
CONTINUOUS
 10
63.3420161878
 20
50.7642702556
 11
63.7841914569
 21
50.9147447774
  0
LINE
  5
36D
100
AcDbEntity
  8
0
100
AcDbLine
 62
7
  6
CONTINUOUS
 10
148.4059472111
 20
268.2409816099
 11
150.8670834184
 21
263.1273337489
  0
LINE
  5
36E
100
AcDbEntity
  8
0
100
AcDbLine
 62
7
  6
CONTINUOUS
 10
78.9339021736
 20
35.0639487782
 11
79.4109251521
 21
35.2788410744
  0
LINE
  5
36F
100
AcDbEntity
  8
0
100
AcDbLine
 62
7
  6
CONTINUOUS
 10
79.4132224088
 20
30.223214885
 11
78.9361993714
 21
30.0083225027
  0
LINE
  5
370
100
AcDbEntity
  8
0
100
AcDbLine
 62
7
  6
CONTINUOUS
 10
79.4105969221
 20
36.0010733134
 11
78.7371321999
 21
35.7401810315
  0
LINE
  5
371
100
AcDbEntity
  8
0
100
AcDbLine
 62
7
  6
CONTINUOUS
 10
78.936527572
 20
29.2860902207
 11
79.6099923236
 21
29.5469825455
  0
LINE
  5
372
100
AcDbEntity
  8
0
100
AcDbLine
 62
7
  6
CONTINUOUS
 10
99.0599255458
 20
251.3409816099
 11
117.9599255458
 21
251.3409816099
  0
LINE
  5
373
100
AcDbEntity
  8
0
100
AcDbLine
 62
7
  6
CONTINUOUS
 10
154.5099255458
 20
249.2409816099
 11
151.535121694
 21
249.9004797463
  0
LINE
  5
374
100
AcDbEntity
  8
BEZUGSACHSEN
100
AcDbLine
 62
7
  6
CENTER
 10
161.3980968045
 20
262.6409816099
 11
54.8191494361
 21
262.6409816099
  0
LINE
  5
375
100
AcDbEntity
  8
0
100
AcDbLine
 62
7
  6
CONTINUOUS
 10
144.027325513
 20
291.2336578588
 11
154.5099255458
 21
278.7409816099
  0
LINE
  5
376
100
AcDbEntity
  8
0
100
AcDbLine
 62
7
  6
CONTINUOUS
 10
117.9599255458
 20
273.9409816099
 11
99.0599255458
 21
273.9409816099
  0
LINE
  5
377
100
AcDbEntity
  8
0
100
AcDbLine
 62
7
  6
CONTINUOUS
 10
73.0026085568
 20
291.2409816099
 11
78.0632508505
 21
291.2409816099
  0
LINE
  5
378
100
AcDbEntity
  8
0
100
AcDbLine
 62
7
  6
CONTINUOUS
 10
138.9428196401
 20
291.2409816099
 11
144.027325513
 21
291.2409816099
  0
LWPOLYLINE
  5
379
100
AcDbEntity
  8
RUNDUNGEN
100
AcDbPolyline
 62
7
  6
CONTINUOUS
 90
15
 70
0
 10
338.3064172329
 20
6.7906368775
 10
338.5838985781
 20
6.8470078172
 10
338.8744776309
 20
6.9456070187
 10
339.1428573779
 20
7.0776645556
 10
339.3851707356
 20
7.2377688902
 10
339.5980297979
 20
7.4193760017
 10
339.7806512523
 20
7.616726832
 10
339.9301572723
 20
7.8197099626
 10
340.0473867398
 20
8.0192795197
 10
340.1341109223
 20
8.2046062626
 10
340.1932774728
 20
8.3628419791
 10
340.2329400402
 20
8.4945263601
 10
340.257930553
 20
8.5960545814
 10
340.2740886457
 20
8.6746788764
 10
340.2798457616
 20
8.7064103712
  0
LINE
  5
37A
100
AcDbEntity
  8
AUSFORMSCHRAEGEN
100
AcDbLine
 62
7
  6
CONTINUOUS
 10
338.3065162285
 20
6.7906504128
 11
332.5657894737
 21
5.9838438829
  0
LINE
  5
37B
100
AcDbEntity
  8
0
100
AcDbLine
 62
7
  6
CONTINUOUS
 10
332.5657894737
 20
5.9838438829
 11
326.8250627189
 21
6.7906504128
  0
LINE
  5
37C
100
AcDbEntity
  8
0
100
AcDbLine
 62
7
  6
CONTINUOUS
 10
341.5984800198
 20
31.3292301431
 11
341.6896963292
 21
31.3292301431
  0
LINE
  5
37D
100
AcDbEntity
  8
0
100
AcDbLine
 62
7
  6
CONTINUOUS
 10
341.6045624177
 20
31.7287906724
 11
341.7464740093
 21
31.7287906724
  0
LINE
  5
37E
100
AcDbEntity
  8
0
100
AcDbLine
 62
7
  6
CONTINUOUS
 10
341.6118152993
 20
32.2052417812
 11
341.8054443207
 21
32.2052417812
  0
LINE
  5
37F
100
AcDbEntity
  8
0
100
AcDbLine
 62
7
  6
CONTINUOUS
 10
341.6171974523
 20
32.5588023249
 11
341.8380994346
 21
32.5588023249
  0
LINE
  5
380
100
AcDbEntity
  8
0
100
AcDbLine
 62
7
  6
CONTINUOUS
 10
341.9506359178
 20
32.987918971
 11
342.0920710781
 21
32.987918971
  0
LINE
  5
381
100
AcDbEntity
  8
0
100
AcDbLine
 62
7
  6
CONTINUOUS
 10
341.7348162076
 20
33.0970328615
 11
341.8520082002
 21
33.0970328615
  0
LINE
  5
382
100
AcDbEntity
  8
0
100
AcDbLine
 62
7
  6
CONTINUOUS
 10
341.9697556337
 20
33.3723701085
 11
342.105901363
 21
33.3723701085
  0
LINE
  5
383
100
AcDbEntity
  8
0
100
AcDbLine
 62
7
  6
CONTINUOUS
 10
341.6319406293
 20
33.6359299288
 11
341.7428986611
 21
33.6359299288
  0
LINE
  5
384
100
AcDbEntity
  8
0
100
AcDbLine
 62
7
  6
CONTINUOUS
 10
341.9625535058
 20
33.8948212029
 11
342.1886232448
 21
33.8948212029
  0
LINE
  5
385
100
AcDbEntity
  8
0
100
AcDbLine
 62
7
  6
CONTINUOUS
 10
341.8672501254
 20
33.89615568
 11
341.9191907045
 21
33.89615568
  0
LINE
  5
386
100
AcDbEntity
  8
0
100
AcDbLine
 62
7
  6
CONTINUOUS
 10
341.9799258671
 20
34.3712723117
 11
342.2477330054
 21
34.3712723117
  0
LINE
  5
387
100
AcDbEntity
  8
0
100
AcDbLine
 62
7
  6
CONTINUOUS
 10
341.7687339216
 20
34.4961638846
 11
341.9247914918
 21
34.4961638846
  0
LINE
  5
388
100
AcDbEntity
  8
0
100
AcDbLine
 62
7
  6
CONTINUOUS
 10
342.0737030708
 20
34.7248328554
 11
342.2805145929
 21
34.7248328554
  0
LINE
  5
389
100
AcDbEntity
  8
0
100
AcDbLine
 62
7
  6
CONTINUOUS
 10
342.1928893702
 20
35.1861728126
 11
342.2927976029
 21
35.1861728126
  0
LINE
  5
38A
100
AcDbEntity
  8
0
100
AcDbLine
 62
7
  6
CONTINUOUS
 10
341.9425045173
 20
35.2795072608
 11
342.1056503569
 21
35.2795072608
  0
LINE
  5
38B
100
AcDbEntity
  8
0
100
AcDbLine
 62
7
  6
CONTINUOUS
 10
342.0446880425
 20
35.7401810315
 11
342.2332990105
 21
35.7401810315
  0
LINE
  5
38C
100
AcDbEntity
  8
0
100
AcDbLine
 62
7
  6
CONTINUOUS
 10
342.1025515949
 20
36.0010733134
 11
342.3333484852
 21
36.0010733134
  0
LINE
  5
38D
100
AcDbEntity
  8
0
100
AcDbLine
 62
7
  6
CONTINUOUS
 10
341.6714831441
 20
36.9076432877
 11
342.1003441941
 21
36.9076432877
  0
LINE
  5
38E
100
AcDbEntity
  8
0
100
AcDbLine
 62
7
  6
CONTINUOUS
 10
341.6812690431
 20
37.8419230961
 11
342.307996048
 21
37.8419230961
  0
LINE
  5
38F
100
AcDbEntity
  8
0
100
AcDbLine
 62
7
  6
CONTINUOUS
 10
341.684523549
 20
38.1526374362
 11
342.4795281566
 21
38.1526374362
  0
LINE
  5
390
100
AcDbEntity
  8
0
100
AcDbLine
 62
7
  6
CONTINUOUS
 10
319.3358781775
 20
40.4209816099
 11
319.8336944892
 21
40.4209816099
  0
LINE
  5
391
100
AcDbEntity
  8
0
100
AcDbLine
 62
7
  6
CONTINUOUS
 10
345.2978844582
 20
40.4209816099
 11
345.7957007698
 21
40.4209816099
  0
LINE
  5
392
100
AcDbEntity
  8
0
100
AcDbLine
 62
7
  6
CONTINUOUS
 10
341.7184785929
 20
41.921541581
 11
341.9373720907
 21
41.921541581
  0
LINE
  5
393
100
AcDbEntity
  8
0
100
AcDbLine
 62
7
  6
CONTINUOUS
 10
342.1200603319
 20
44.3882748979
 11
342.5851624525
 21
44.3882748979
  0
LINE
  5
394
100
AcDbEntity
  8
0
100
AcDbLine
 62
7
  6
CONTINUOUS
 10
341.7495945695
 20
46.5941219046
 11
341.8132614602
 21
46.5941219046
  0
LINE
  5
395
100
AcDbEntity
  8
0
100
AcDbLine
 62
7
  6
CONTINUOUS
 10
341.7519636608
 20
47.0760256993
 11
341.8940700306
 21
47.0760256993
  0
LINE
  5
396
100
AcDbEntity
  8
0
100
AcDbLine
 62
7
  6
CONTINUOUS
 10
341.7544482401
 20
47.5814212727
 11
341.9500234664
 21
47.5814212727
  0
LINE
  5
397
100
AcDbEntity
  8
0
100
AcDbLine
 62
7
  6
CONTINUOUS
 10
342.104529701
 20
47.8544972156
 11
342.6224480055
 21
47.8544972156
  0
LINE
  5
398
100
AcDbEntity
  8
0
100
AcDbLine
 62
7
  6
CONTINUOUS
 10
342.104529701
 20
48.0893522908
 11
342.3531573533
 21
48.0893522908
  0
LINE
  5
399
100
AcDbEntity
  8
0
100
AcDbLine
 62
7
  6
CONTINUOUS
 10
341.7570483082
 20
48.1103087467
 11
341.9806117706
 21
48.1103087467
  0
LINE
  5
39A
100
AcDbEntity
  8
0
100
AcDbLine
 62
7
  6
CONTINUOUS
 10
342.1364980372
 20
48.7522085517
 11
342.3627705738
 21
48.7522085517
  0
LINE
  5
39B
100
AcDbEntity
  8
0
100
AcDbLine
 62
7
  6
CONTINUOUS
 10
341.7603069813
 20
48.7731650076
 11
341.9858797914
 21
48.7731650076
  0
LINE
  5
39C
100
AcDbEntity
  8
0
100
AcDbLine
 62
7
  6
CONTINUOUS
 10
342.1399967176
 20
49.036652881
 11
342.4160978944
 21
49.036652881
  0
LINE
  5
39D
100
AcDbEntity
  8
0
100
AcDbLine
 62
7
  6
CONTINUOUS
 10
341.7629070556
 20
49.3020537459
 11
342.0142849329
 21
49.3020537459
  0
LINE
  5
39E
100
AcDbEntity
  8
0
100
AcDbLine
 62
7
  6
CONTINUOUS
 10
342.141847943
 20
49.4315715681
 11
342.4706817454
 21
49.4315715681
  0
LINE
  5
39F
100
AcDbEntity
  8
0
100
AcDbLine
 62
7
  6
CONTINUOUS
 10
342.1697629862
 20
49.84998342
 11
342.5002135407
 21
49.84998342
  0
LINE
  5
3A0
100
AcDbEntity
  8
0
100
AcDbLine
 62
7
  6
CONTINUOUS
 10
341.7656049103
 20
49.9179249414
 11
342.0678156277
 21
49.9179249414
  0
LINE
  5
3A1
100
AcDbEntity
  8
0
100
AcDbLine
 62
7
  6
CONTINUOUS
 10
342.3015535653
 20
50.512839681
 11
342.5057647755
 21
50.512839681
  0
LINE
  5
3A2
100
AcDbEntity
  8
0
100
AcDbLine
 62
7
  6
CONTINUOUS
 10
341.7682322031
 20
50.7077635798
 11
342.1724760742
 21
50.7077635798
  0
LINE
  5
3A3
100
AcDbEntity
  8
0
100
AcDbLine
 62
7
  6
CONTINUOUS
 10
342.3535614865
 20
50.7572840899
 11
342.4817535551
 21
50.7572840899
  0
LINE
  5
3A4
100
AcDbEntity
  8
0
100
AcDbLine
 62
7
  6
CONTINUOUS
 10
341.7697570486
 20
51.1661753521
 11
342.2765212947
 21
51.1661753521
  0
LINE
  5
3A5
100
AcDbEntity
  8
0
100
AcDbLine
 62
7
  6
CONTINUOUS
 10
341.7704998481
 20
51.3894819375
 11
341.9005900865
 21
51.3894819375
  0
LINE
  5
3A6
100
AcDbEntity
  8
0
100
AcDbLine
 62
7
  6
CONTINUOUS
 10
341.9418832174
 20
51.5141104817
 11
342.3805475337
 21
51.5141104817
  0
LINE
  5
3A7
100
AcDbEntity
  8
0
100
AcDbLine
 62
7
  6
CONTINUOUS
 10
342.030527732
 20
51.7515684813
 11
342.4845540316
 21
51.7515684813
  0
LINE
  5
3A8
100
AcDbEntity
  8
0
100
AcDbLine
 62
7
  6
CONTINUOUS
 10
318.4938270876
 20
43.9042877216
 11
318.4937671029
 21
43.9043124733
  0
LWPOLYLINE
  5
3A9
100
AcDbEntity
  8
0
100
AcDbPolyline
 62
7
  6
CONTINUOUS
 90
8
 70
0
 10
318.4937664262
 20
43.9043129378
 10
318.5682777079
 20
43.8659930881
 10
318.6465146593
 20
43.8047154115
 10
318.6927031756
 20
43.7529637535
 10
318.7203479071
 20
43.7125083086
 10
318.7367197587
 20
43.6827612219
 10
318.7458304769
 20
43.6629705044
 10
318.7510284203
 20
43.6498328241
  0
LINE
  5
3AA
100
AcDbEntity
  8
0
100
AcDbLine
 62
7
  6
CONTINUOUS
 10
318.9985388832
 20
271.5158604778
 11
320.9136021056
 21
273.8999310417
  0
LINE
  5
3AB
100
AcDbEntity
  8
0
100
AcDbLine
 62
7
  6
CONTINUOUS
 10
341.7758877751
 20
53.009245456
 11
341.907845531
 21
53.009245456
  0
LINE
  5
3AC
100
AcDbEntity
  8
0
100
AcDbLine
 62
7
  6
CONTINUOUS
 10
341.7771922854
 20
53.4014182195
 11
342.0378762162
 21
53.4014182195
  0
LINE
  5
3AD
100
AcDbEntity
  8
0
100
AcDbLine
 62
7
  6
CONTINUOUS
 10
341.7803752309
 20
55.0494636342
 11
342.0418809938
 21
55.0494636342
  0
LINE
  5
3AE
100
AcDbEntity
  8
0
100
AcDbLine
 62
7
  6
CONTINUOUS
 10
342.2012162259
 20
55.8734006998
 11
342.5302288737
 21
55.8734006998
  0
LINE
  5
3AF
100
AcDbEntity
  8
0
100
AcDbLine
 62
7
  6
CONTINUOUS
 10
341.7861058974
 20
60.6319190896
 11
342.6992063832
 21
60.6319190896
  0
LINE
  5
3B0
100
AcDbEntity
  8
0
100
AcDbLine
 62
7
  6
CONTINUOUS
 10
341.7862446399
 20
60.9545445268
 11
342.3875185376
 21
60.9545445268
  0
LINE
  5
3B1
100
AcDbEntity
  8
0
100
AcDbLine
 62
7
  6
CONTINUOUS
 10
305.8187283835
 20
232.4939205197
 11
306.6943630677
 21
233.3695552039
  0
LINE
  5
3B2
100
AcDbEntity
  8
0
100
AcDbLine
 62
7
  6
CONTINUOUS
 10
341.786174208
 20
61.7123629759
 11
342.3931662916
 21
61.7123629759
  0
LINE
  5
3B3
100
AcDbEntity
  8
0
100
AcDbLine
 62
7
  6
CONTINUOUS
 10
341.7859081233
 20
62.0051162478
 11
342.4718902554
 21
62.0051162478
  0
LINE
  5
3B4
100
AcDbEntity
  8
0
100
AcDbLine
 62
7
  6
CONTINUOUS
 10
341.7854628732
 20
62.4949921467
 11
342.5257767329
 21
62.4949921467
  0
LINE
  5
3B5
100
AcDbEntity
  8
0
100
AcDbLine
 62
7
  6
CONTINUOUS
 10
341.7849532546
 20
63.0556878134
 11
342.5534911788
 21
63.0556878134
  0
LINE
  5
3B6
100
AcDbEntity
  8
0
100
AcDbLine
 62
7
  6
CONTINUOUS
 10
341.9571077835
 20
64.1924160291
 11
342.5539142427
 21
64.1924160291
  0
LINE
  5
3B7
100
AcDbEntity
  8
0
100
AcDbLine
 62
7
  6
CONTINUOUS
 10
342.1677989856
 20
64.6421452021
 11
342.5265735728
 21
64.6421452021
  0
LINE
  5
3B8
100
AcDbEntity
  8
0
100
AcDbLine
 62
7
  6
CONTINUOUS
 10
341.7833440428
 20
64.8261848465
 11
341.8934836987
 21
64.8261848465
  0
LINE
  5
3B9
100
AcDbEntity
  8
0
100
AcDbLine
 62
7
  6
CONTINUOUS
 10
342.2888859451
 20
64.9100882943
 11
342.4729623572
 21
64.9100882943
  0
LINE
  5
3BA
100
AcDbEntity
  8
0
100
AcDbLine
 62
7
  6
CONTINUOUS
 10
341.7827164112
 20
65.6584336267
 11
342.2831609574
 21
65.6584336267
  0
LINE
  5
3BB
100
AcDbEntity
  8
0
100
AcDbLine
 62
7
  6
CONTINUOUS
 10
341.7821297479
 20
65.809546821
 11
342.4141573142
 21
65.809546821
  0
LINE
  5
3BC
100
AcDbEntity
  8
0
100
AcDbLine
 62
7
  6
CONTINUOUS
 10
341.7731893685
 20
68.3717422829
 11
342.7050368943
 21
68.3717422829
  0
LINE
  5
3BD
100
AcDbEntity
  8
0
100
AcDbLine
 62
7
  6
CONTINUOUS
 10
341.7354822224
 20
79.317779105
 11
341.7598466211
 21
79.317779105
  0
LINE
  5
3BE
100
AcDbEntity
  8
0
100
AcDbLine
 62
7
  6
CONTINUOUS
 10
341.7333389563
 20
79.9656514287
 11
342.1303437043
 21
79.9656514287
  0
LINE
  5
3BF
100
AcDbEntity
  8
0
100
AcDbLine
 62
7
  6
CONTINUOUS
 10
341.7323103002
 20
80.2765964097
 11
342.2283603217
 21
80.2765964097
  0
LINE
  5
3C0
100
AcDbEntity
  8
0
100
AcDbLine
 62
7
  6
CONTINUOUS
 10
341.7309674043
 20
80.682530653
 11
342.3008946008
 21
80.682530653
  0
LINE
  5
3C1
100
AcDbEntity
  8
0
100
AcDbLine
 62
7
  6
CONTINUOUS
 10
341.7293102746
 20
81.1834523353
 11
342.3479464119
 21
81.1834523353
  0
LINE
  5
3C2
100
AcDbEntity
  8
0
100
AcDbLine
 62
7
  6
CONTINUOUS
 10
341.7273952436
 20
81.7793615776
 11
342.3695158243
 21
81.7793615776
  0
LINE
  5
3C3
100
AcDbEntity
  8
0
100
AcDbLine
 62
7
  6
CONTINUOUS
 10
341.8605084708
 20
85.3548201938
 11
342.4989322808
 21
85.3548201938
  0
LINE
  5
3C4
100
AcDbEntity
  8
0
100
AcDbLine
 62
7
  6
CONTINUOUS
 10
341.7100458218
 20
87.2893339283
 11
342.487975904
 21
87.2893339283
  0
LINE
  5
3C5
100
AcDbEntity
  8
0
100
AcDbLine
 62
7
  6
CONTINUOUS
 10
341.697473064
 20
91.4347214624
 11
342.4644979482
 21
91.4347214624
  0
LINE
  5
3C6
100
AcDbEntity
  8
0
100
AcDbLine
 62
7
  6
CONTINUOUS
 10
341.6957440917
 20
92.0304652198
 11
342.0120754369
 21
92.0304652198
  0
LINE
  5
3C7
100
AcDbEntity
  8
0
100
AcDbLine
 62
7
  6
CONTINUOUS
 10
341.6957191765
 20
92.0390702066
 11
342.0120754369
 21
92.0390702066
  0
LINE
  5
3C8
100
AcDbEntity
  8
0
100
AcDbLine
 62
7
  6
CONTINUOUS
 10
341.7414400134
 20
92.2808429837
 11
341.9109284286
 21
92.2808429837
  0
LINE
  5
3C9
100
AcDbEntity
  8
0
100
AcDbLine
 62
7
  6
CONTINUOUS
 10
341.9811148453
 20
93.0323087054
 11
342.1810611358
 21
93.0323087054
  0
LINE
  5
3CA
100
AcDbEntity
  8
0
100
AcDbLine
 62
7
  6
CONTINUOUS
 10
341.9811148453
 20
93.3000625975
 11
342.2543779478
 21
93.3000625975
  0
LINE
  5
3CB
100
AcDbEntity
  8
0
100
AcDbLine
 62
7
  6
CONTINUOUS
 10
341.6915184638
 20
93.4898728256
 11
341.8043032308
 21
93.4898728256
  0
LINE
  5
3CC
100
AcDbEntity
  8
0
100
AcDbLine
 62
7
  6
CONTINUOUS
 10
341.9540672467
 20
93.6628048403
 11
342.3022123566
 21
93.6628048403
  0
LINE
  5
3CD
100
AcDbEntity
  8
0
100
AcDbLine
 62
7
  6
CONTINUOUS
 10
341.950397935
 20
94.1205350384
 11
342.3245643645
 21
94.1205350384
  0
LINE
  5
3CE
100
AcDbEntity
  8
0
100
AcDbLine
 62
7
  6
CONTINUOUS
 10
341.7114737196
 20
97.7909816099
 11
342.4284984201
 21
97.7909816099
  0
LINE
  5
3CF
100
AcDbEntity
  8
0
100
AcDbLine
 62
7
  6
CONTINUOUS
 10
342.0120754369
 20
92.0390702066
 11
342.0869574443
 21
92.0304652198
  0
LINE
  5
3D0
100
AcDbEntity
  8
0
100
AcDbLine
 62
7
  6
CONTINUOUS
 10
342.1069616569
 20
92.9027341317
 11
342.0320796495
 21
92.9113391186
  0
LINE
  5
3D1
100
AcDbEntity
  8
0
100
AcDbLine
 62
7
  6
CONTINUOUS
 10
318.7510284203
 20
43.6498328241
 11
318.7521086143
 21
43.6468150684
  0
LWPOLYLINE
  5
3D2
100
AcDbEntity
  8
0
100
AcDbPolyline
 62
7
  6
CONTINUOUS
 90
14
 70
0
 10
313.018798271
 20
50.0471625468
 10
313.1555531362
 20
49.6271316308
 10
313.3272274723
 20
49.1678314914
 10
313.5387060521
 20
48.677537641
 10
313.7966359627
 20
48.1606659703
 10
314.105645563
 20
47.6261197023
 10
314.469242436
 20
47.0835243053
 10
314.8907499409
 20
46.5415531253
 10
315.3692278878
 20
46.0126543946
 10
315.912014322
 20
45.4994397796
 10
316.5222875616
 20
45.0105524122
 10
317.2096647111
 20
44.5514049607
 10
317.9853064348
 20
44.1308734266
 10
318.4938267106
 20
43.9042878762
  0
LWPOLYLINE
  5
3D3
100
AcDbEntity
  8
0
100
AcDbPolyline
 62
7
  6
CONTINUOUS
 90
3
 70
0
 10
303.6435458756
 20
228.4448352566
 10
303.6195837686
 20
228.2705588668
 10
303.6162727738
 20
228.2392076289
  0
LWPOLYLINE
  5
3D4
100
AcDbEntity
  8
0
100
AcDbPolyline
 62
7
  6
CONTINUOUS
 90
3
 70
0
 10
303.6878178888
 20
228.6675676711
 10
303.6774351013
 20
228.6216063474
 10
303.6435458756
 20
228.4448352566
  0
LINE
  5
3D5
100
AcDbEntity
  8
0
100
AcDbLine
 62
7
  6
CONTINUOUS
 10
345.5375492511
 20
102.3798291872
 11
347.3215048112
 21
102.3798291872
  0
LINE
  5
3D6
100
AcDbEntity
  8
0
100
AcDbLine
 62
7
  6
CONTINUOUS
 10
347.7254923501
 20
103.307448207
 11
348.9578302216
 21
103.307448207
  0
LINE
  5
3D7
100
AcDbEntity
  8
0
100
AcDbLine
 62
7
  6
CONTINUOUS
 10
344.9428501451
 20
107.5759816099
 11
348.8629731248
 21
107.5759816099
  0
LINE
  5
3D8
100
AcDbEntity
  8
0
100
AcDbLine
 62
7
  6
CONTINUOUS
 10
312.907711298
 20
50.436062801
 11
313.018798271
 21
50.0471625468
  0
LINE
  5
3D9
100
AcDbEntity
  8
0
100
AcDbLine
 62
7
  6
CONTINUOUS
 10
319.2980610962
 20
40.5194576983
 11
319.3007589688
 21
40.5094871319
  0
LWPOLYLINE
  5
3DA
100
AcDbEntity
  8
0
100
AcDbPolyline
 62
7
  6
CONTINUOUS
 90
6
 70
0
 10
312.2687718599
 20
54.4545594586
 10
312.2860418805
 20
54.283991963
 10
312.3288810155
 20
53.8792743017
 10
312.3722571862
 20
53.4956132829
 10
312.4165476842
 20
53.1301016423
 10
312.4621389906
 20
52.7803826205
  0
LINE
  5
3DB
100
AcDbEntity
  8
0
100
AcDbLine
 62
7
  6
CONTINUOUS
 10
303.5657894737
 20
186.3609877513
 11
303.5657894737
 21
227.0112356609
  0
LWPOLYLINE
  5
3DC
100
AcDbEntity
  8
0
100
AcDbPolyline
 62
7
  6
CONTINUOUS
 90
3
 70
0
 10
303.5720305352
 20
227.4139934287
 10
303.5662656558
 20
227.1149402341
 10
303.5657953047
 20
227.0143033984
  0
LINE
  5
3DD
100
AcDbEntity
  8
0
100
AcDbLine
 62
7
  6
CONTINUOUS
 10
303.5839707113
 20
227.7304066842
 11
303.5720305352
 21
227.4139934287
  0
LINE
  5
3DE
100
AcDbEntity
  8
0
100
AcDbLine
 62
7
  6
CONTINUOUS
 10
303.5992195323
 20
228.0196850358
 11
303.5839707113
 21
227.7304066842
  0
LINE
  5
3DF
100
AcDbEntity
  8
0
100
AcDbLine
 62
7
  6
CONTINUOUS
 10
303.5992195323
 20
228.0196850358
 11
303.5991964033
 21
228.0192819924
  0
LINE
  5
3E0
100
AcDbEntity
  8
0
100
AcDbLine
 62
7
  6
CONTINUOUS
 10
303.6035669652
 20
228.0877351905
 11
303.5992235313
 21
228.0197380004
  0
LWPOLYLINE
  5
3E1
100
AcDbEntity
  8
0
100
AcDbPolyline
 62
7
  6
CONTINUOUS
 90
3
 70
0
 10
303.6162260488
 20
228.2392301642
 10
303.6095473504
 20
228.166361388
 10
303.6035669652
 20
228.0877351905
  0
LINE
  5
3E2
100
AcDbEntity
  8
0
100
AcDbLine
 62
7
  6
CONTINUOUS
 10
325.6387074119
 20
183.6150749548
 11
325.2428738898
 21
183.2429560158
  0
LINE
  5
3E3
100
AcDbEntity
  8
0
100
AcDbLine
 62
7
  6
CONTINUOUS
 10
325.440790934
 20
182.3126586685
 11
326.2324574119
 21
182.6847776074
  0
LINE
  5
3E4
100
AcDbEntity
  8
0
100
AcDbLine
 62
7
  6
CONTINUOUS
 10
325.5160038392
 20
182.1526465608
 11
326.2324574119
 21
182.4894120432
  0
LINE
  5
3E5
100
AcDbEntity
  8
0
100
AcDbLine
 62
7
  6
CONTINUOUS
 10
325.2428738898
 20
183.2429560158
 11
324.6491238898
 21
183.0568965464
  0
LINE
  5
3E6
100
AcDbEntity
  8
RUNDUNGEN
100
AcDbLine
 62
7
  6
CONTINUOUS
 10
332.5657894737
 20
116.69469267
 11
342.8724265086
 21
117.2547737046
  0
LINE
  5
3E7
100
AcDbEntity
  8
0
100
AcDbLine
 62
7
  6
CONTINUOUS
 10
347.0133590879
 20
111.2409816099
 11
348.5761275084
 21
111.2409816099
  0
LINE
  5
3E8
100
AcDbEntity
  8
0
100
AcDbLine
 62
7
  6
CONTINUOUS
 10
347.3986657154
 20
112.1541237534
 11
348.9134596569
 21
112.1541237534
  0
LINE
  5
3E9
100
AcDbEntity
  8
RUNDUNGEN
100
AcDbLine
 62
7
  6
CONTINUOUS
 10
332.5657894737
 20
116.69469267
 11
322.259151259
 21
117.2547765374
  0
LWPOLYLINE
  5
3EA
100
AcDbEntity
  8
0
100
AcDbPolyline
 62
7
  6
CONTINUOUS
 90
14
 70
0
 10
324.8517150432
 20
8.7065141962
 10
324.8612085038
 20
8.6553594238
 10
324.8807943172
 20
8.5649845216
 10
324.9129567009
 20
8.443696523
 10
324.9630691127
 20
8.2923123193
 10
325.0406362253
 20
8.1070793676
 10
325.150100135
 20
7.9015636629
 10
325.2958655354
 20
7.6862404262
 10
325.47923786
 20
7.4734120871
 10
325.6971328492
 20
7.2759830988
 10
325.949052455
 20
7.1009813227
 10
326.2310079907
 20
6.9566117229
 10
326.5386594538
 20
6.8494388178
 10
326.8251625507
 20
6.7906367622
  0
LINE
  5
3EB
100
AcDbEntity
  8
0
100
AcDbLine
 62
7
  6
CONTINUOUS
 10
324.8517196709
 20
8.7064876328
 11
322.9869832117
 21
19.3855951083
  0
LINE
  5
3EC
100
AcDbEntity
  8
0
100
AcDbLine
 62
7
  6
CONTINUOUS
 10
319.29849569
 20
40.5090919286
 11
318.7506455662
 21
43.6465595977
  0
LWPOLYLINE
  5
3ED
100
AcDbEntity
  8
0
100
AcDbPolyline
 62
7
  6
CONTINUOUS
 90
8
 70
0
 10
312.4621389906
 20
52.7803826205
 10
312.50966724
 20
52.4429370413
 10
312.5597841325
 20
52.1151164055
 10
312.6137168948
 20
51.7917878033
 10
312.6727051255
 20
51.4695343149
 10
312.7392273059
 20
51.1405359185
 10
312.8162765731
 20
50.7981667192
 10
312.907711298
 20
50.436062801
  0
LINE
  5
3EE
100
AcDbEntity
  8
0
100
AcDbLine
 62
7
  6
CONTINUOUS
 10
311.8986874984
 20
59.1776567638
 11
311.9868078645
 21
57.865804012
  0
LINE
  5
3EF
100
AcDbEntity
  8
0
100
AcDbLine
 62
7
  6
CONTINUOUS
 10
311.8087405889
 20
60.6362130679
 11
311.8986874984
 21
59.1776567638
  0
LINE
  5
3F0
100
AcDbEntity
  8
0
100
AcDbLine
 62
7
  6
CONTINUOUS
 10
311.7168221881
 20
62.2490136323
 11
311.8087405889
 21
60.6362130679
  0
LWPOLYLINE
  5
3F1
100
AcDbEntity
  8
0
100
AcDbPolyline
 62
7
  6
CONTINUOUS
 90
4
 70
0
 10
303.5654714951
 20
186.3648356648
 10
303.5950233068
 20
185.8238376963
 10
303.686304683
 20
185.2737463637
 10
303.8382097229
 20
184.7371831257
  0
LINE
  5
3F2
100
AcDbEntity
  8
0
100
AcDbLine
 62
7
  6
CONTINUOUS
 10
311.6228430704
 20
64.0222139
 11
311.7168221881
 21
62.2490136323
  0
LINE
  5
3F3
100
AcDbEntity
  8
0
100
AcDbLine
 62
7
  6
CONTINUOUS
 10
311.4778899204
 20
66.9929172773
 11
311.6228430704
 21
64.0222139
  0
LWPOLYLINE
  5
3F4
100
AcDbEntity
  8
0
100
AcDbPolyline
 62
7
  6
CONTINUOUS
 90
5
 70
0
 10
308.6305847946
 20
142.2810428993
 10
308.9745232395
 20
134.5311754827
 10
309.100376421
 20
131.567164494
 10
309.2259117974
 20
128.5041371278
 10
309.3506683982
 20
125.3547648516
  0
LINE
  5
3F5
100
AcDbEntity
  8
0
100
AcDbLine
 62
7
  6
CONTINUOUS
 10
311.3280787395
 20
70.3447088394
 11
311.4778899204
 21
66.9929172773
  0
LINE
  5
3F6
100
AcDbEntity
  8
0
100
AcDbLine
 62
7
  6
CONTINUOUS
 10
308.3384269283
 20
149.1512565111
 11
308.6305847946
 21
142.2810428993
  0
LINE
  5
3F7
100
AcDbEntity
  8
0
100
AcDbLine
 62
7
  6
CONTINUOUS
 10
311.1268433445
 20
75.2539367714
 11
311.3280787395
 21
70.3447088394
  0
LINE
  5
3F8
100
AcDbEntity
  8
0
100
AcDbLine
 62
7
  6
CONTINUOUS
 10
309.3506683982
 20
125.3547648516
 11
309.5972304454
 21
118.8482557702
  0
LWPOLYLINE
  5
3F9
100
AcDbEntity
  8
0
100
AcDbPolyline
 62
7
  6
CONTINUOUS
 90
4
 70
0
 10
310.750276613
 20
85.3756260861
 10
310.8810037167
 20
81.7459386413
 10
311.0119652902
 20
78.2279184505
 10
311.1268433445
 20
75.2539367714
  0
LINE
  5
3FA
100
AcDbEntity
  8
0
100
AcDbLine
 62
7
  6
CONTINUOUS
 10
309.5972304454
 20
118.8482557702
 11
309.8387984339
 21
112.1642047869
  0
LINE
  5
3FB
100
AcDbEntity
  8
0
100
AcDbLine
 62
7
  6
CONTINUOUS
 10
309.8387984339
 20
112.1642047869
 11
310.0464125433
 21
106.2390356799
  0
LINE
  5
3FC
100
AcDbEntity
  8
0
100
AcDbLine
 62
7
  6
CONTINUOUS
 10
310.4894727498
 20
92.9042394369
 11
310.750276613
 21
85.3756260861
  0
LINE
  5
3FD
100
AcDbEntity
  8
0
100
AcDbLine
 62
7
  6
CONTINUOUS
 10
310.0464769986
 20
106.236961946
 11
310.4894727498
 21
92.9042394369
  0
LINE
  5
3FE
100
AcDbEntity
  8
RUNDUNGEN
100
AcDbLine
 62
7
  6
CONTINUOUS
 10
306.8657894737
 20
155.7816071303
 11
306.8657894737
 21
161.4774013176
  0
LINE
  5
3FF
100
AcDbEntity
  8
BEZUGSACHSEN
100
AcDbLine
 62
7
  6
CONTINUOUS
 10
306.8657894737
 20
161.4774013176
 11
306.8657894737
 21
184.2814587592
  0
LINE
  5
400
100
AcDbEntity
  8
0
100
AcDbLine
 62
7
  6
CONTINUOUS
 10
306.8657894737
 20
184.2814587592
 11
306.8657894737
 21
227.6670842804
  0
LINE
  5
401
100
AcDbEntity
  8
0
100
AcDbLine
 62
7
  6
CONTINUOUS
 10
309.5657894737
 20
240.3831172336
 11
309.5657894737
 21
259.6414603062
  0
LINE
  5
402
100
AcDbEntity
  8
0
100
AcDbLine
 62
7
  6
CONTINUOUS
 10
325.8366238898
 20
184.1732533632
 11
325.6387074119
 21
183.6150749548
  0
LINE
  5
403
100
AcDbEntity
  8
0
100
AcDbLine
 62
7
  6
CONTINUOUS
 10
326.2324574119
 20
182.6847776074
 11
326.8262074119
 21
183.4290154853
  0
LINE
  5
404
100
AcDbEntity
  8
0
100
AcDbLine
 62
7
  6
CONTINUOUS
 10
326.2324574119
 20
182.4894120432
 11
326.8262074119
 21
183.2336499211
  0
LINE
  5
405
100
AcDbEntity
  8
0
100
AcDbLine
 62
7
  6
CONTINUOUS
 10
334.5449574119
 20
178.5914688229
 11
335.3366244561
 21
179.3357067659
  0
LINE
  5
406
100
AcDbEntity
  8
0
100
AcDbLine
 62
7
  6
CONTINUOUS
 10
334.5449574119
 20
178.3961032586
 11
335.3366244561
 21
179.1403412017
  0
LINE
  5
407
100
AcDbEntity
  8
0
100
AcDbLine
 62
7
  6
CONTINUOUS
 10
334.1491244561
 20
179.7078258352
 11
333.5553744561
 21
179.3357067659
  0
LINE
  5
408
100
AcDbEntity
  8
0
100
AcDbLine
 62
7
  6
CONTINUOUS
 10
343.6491233236
 20
179.7078258352
 11
343.0553733236
 21
179.3357067659
  0
LINE
  5
409
100
AcDbEntity
  8
0
100
AcDbLine
 62
7
  6
CONTINUOUS
 10
333.7532903678
 20
178.2193498351
 11
334.5449574119
 21
178.5914688229
  0
LINE
  5
40A
100
AcDbEntity
  8
0
100
AcDbLine
 62
7
  6
CONTINUOUS
 10
333.7532903678
 20
178.0239842708
 11
334.5449574119
 21
178.3961032586
  0
LINE
  5
40B
100
AcDbEntity
  8
0
100
AcDbLine
 62
7
  6
CONTINUOUS
 10
343.2532915002
 20
178.2193498351
 11
344.0449574119
 21
178.5914688229
  0
LINE
  5
40C
100
AcDbEntity
  8
0
100
AcDbLine
 62
7
  6
CONTINUOUS
 10
343.2532915002
 20
178.0239842708
 11
344.0449574119
 21
178.3961032586
  0
LINE
  5
40D
100
AcDbEntity
  8
RUNDUNGEN
100
AcDbLine
 62
7
  6
CONTINUOUS
 10
317.9308978776
 20
129.5378166397
 11
316.6656349781
 21
129.5378166397
  0
LINE
  5
40E
100
AcDbEntity
  8
BEZUGSACHSEN
100
AcDbLine
 62
7
  6
CONTINUOUS
 10
347.2006718324
 20
129.5378166397
 11
348.4659439693
 21
129.5378166397
  0
LINE
  5
40F
100
AcDbEntity
  8
RUNDUNGEN
100
AcDbLine
 62
7
  6
CONTINUOUS
 10
315.235059552
 20
130.4353434198
 11
307.7914504587
 21
150.6356278886
  0
LINE
  5
410
100
AcDbEntity
  8
RUNDUNGEN
100
AcDbLine
 62
7
  6
CONTINUOUS
 10
315.235059552
 20
133.2384900975
 11
310.1921472266
 21
147.9611133195
  0
LINE
  5
411
100
AcDbEntity
  8
0
100
AcDbLine
 62
7
  6
CONTINUOUS
 10
317.0356601839
 20
120.743353155
 11
317.0622475722
 21
120.6588786472
  0
LWPOLYLINE
  5
412
100
AcDbEntity
  8
0
100
AcDbPolyline
 62
7
  6
CONTINUOUS
 90
8
 70
0
 10
317.0622475722
 20
120.6588786472
 10
317.2090664798
 20
120.182692291
 10
317.3340654631
 20
119.7605354541
 10
317.4383648301
 20
119.3913127026
 10
317.5226228717
 20
119.0758617955
 10
317.5880915702
 20
118.8136404295
 10
317.6353805301
 20
118.6078450761
 10
317.6547913401
 20
118.5162167405
  0
LWPOLYLINE
  5
413
100
AcDbEntity
  8
0
100
AcDbPolyline
 62
7
  6
CONTINUOUS
 90
3
 70
0
 10
316.9248072956
 20
121.1981517084
 10
316.9799416652
 20
120.9398820786
 10
317.0356475915
 20
120.7433491245
  0
LWPOLYLINE
  5
414
100
AcDbEntity
  8
0
100
AcDbPolyline
 62
7
  6
CONTINUOUS
 90
4
 70
0
 10
317.6547913401
 20
118.5162167405
 10
317.6661341959
 20
118.4593185645
 10
317.6819492923
 20
118.3720822106
 10
317.6852954353
 20
118.3511929736
  0
LINE
  5
415
100
AcDbEntity
  8
0
100
AcDbLine
 62
7
  6
CONTINUOUS
 10
317.6845453559
 20
118.357501259
 11
317.6849742783
 21
118.3539253465
  0
LWPOLYLINE
  5
416
100
AcDbEntity
  8
0
100
AcDbPolyline
 62
7
  6
CONTINUOUS
 90
4
 70
0
 10
316.862601313
 20
121.9213846215
 10
316.8696780245
 20
121.6848985741
 10
316.8894416223
 20
121.4452406699
 10
316.9248072956
 20
121.1981517084
  0
LINE
  5
417
100
AcDbEntity
  8
RUNDUNGEN
100
AcDbLine
 62
7
  6
CONTINUOUS
 10
316.8625079007
 20
126.5358696674
 11
316.8625075486
 21
126.5372824553
  0
LINE
  5
418
100
AcDbEntity
  8
0
100
AcDbLine
 62
7
  6
CONTINUOUS
 10
316.862601313
 20
121.9213846215
 11
316.8625075486
 21
126.5373022602
  0
LINE
  5
419
100
AcDbEntity
  8
0
100
AcDbLine
 62
7
  6
CONTINUOUS
 10
317.6694525302
 20
118.4410145733
 11
317.6694525302
 21
92.9712098878
  0
LINE
  5
41A
100
AcDbEntity
  8
0
100
AcDbLine
 62
7
  6
CONTINUOUS
 10
319.0657894737
 20
192.1837902239
 11
319.0657894737
 21
217.1066825798
  0
LINE
  5
41B
100
AcDbEntity
  8
0
100
AcDbLine
 62
7
  6
CONTINUOUS
 10
319.7012074119
 20
177.837924785
 11
319.7012074119
 21
186.7780864571
  0
LINE
  5
41C
100
AcDbEntity
  8
0
100
AcDbLine
 62
7
  6
CONTINUOUS
 10
320.5657894737
 20
227.7183667769
 11
320.5657894737
 21
227.6674224556
  0
LINE
  5
41D
100
AcDbEntity
  8
0
100
AcDbLine
 62
7
  6
CONTINUOUS
 10
320.5657894737
 20
217.1066825798
 11
320.5657041121
 21
192.8440876332
  0
LINE
  5
41E
100
AcDbEntity
  8
0
100
AcDbLine
 62
7
  6
CONTINUOUS
 10
320.8887074119
 20
177.837924785
 11
320.8887074119
 21
181.9405397295
  0
LINE
  5
41F
100
AcDbEntity
  8
0
100
AcDbLine
 62
7
  6
CONTINUOUS
 10
320.8887074119
 20
183.0568965464
 11
320.8887074119
 21
185.8477891097
  0
LINE
  5
420
100
AcDbEntity
  8
0
100
AcDbLine
 62
7
  6
CONTINUOUS
 10
317.6689537386
 20
93.6650004387
 11
317.6662627154
 21
93.4027068359
  0
LWPOLYLINE
  5
421
100
AcDbEntity
  8
0
100
AcDbPolyline
 62
7
  6
CONTINUOUS
 90
3
 70
0
 10
317.6662627154
 20
93.4027068359
 10
317.6609418009
 20
93.1277264359
 10
317.6540071316
 20
92.8818564572
  0
LWPOLYLINE
  5
422
100
AcDbEntity
  8
0
100
AcDbPolyline
 62
7
  6
CONTINUOUS
 90
4
 70
0
 10
317.6540073005
 20
92.881861685
 10
317.6437226107
 20
92.6059147371
 10
317.6267062796
 20
92.25458255
 10
317.6042552117
 20
91.8885419379
  0
LINE
  5
423
100
AcDbEntity
  8
0
100
AcDbLine
 62
7
  6
CONTINUOUS
 10
317.6042552117
 20
91.8885419379
 11
317.5767206852
 21
91.5192732527
  0
LINE
  5
424
100
AcDbEntity
  8
0
100
AcDbLine
 62
7
  6
CONTINUOUS
 10
317.5767304204
 20
91.5193934214
 11
317.2355227124
 21
87.3524593578
  0
LINE
  5
425
100
AcDbEntity
  8
0
100
AcDbLine
 62
7
  6
CONTINUOUS
 10
317.2355227124
 20
87.3524593578
 11
316.9940419705
 21
84.4623282734
  0
LINE
  5
426
100
AcDbEntity
  8
0
100
AcDbLine
 62
7
  6
CONTINUOUS
 10
316.9940419705
 20
84.4623282734
 11
316.7584579834
 21
81.7060675108
  0
LINE
  5
427
100
AcDbEntity
  8
0
100
AcDbLine
 62
7
  6
CONTINUOUS
 10
316.7584579834
 20
81.7060675108
 11
316.5287102035
 21
79.0915980523
  0
LINE
  5
428
100
AcDbEntity
  8
0
100
AcDbLine
 62
7
  6
CONTINUOUS
 10
316.5287102035
 20
79.0915980523
 11
316.3047707613
 21
76.6253578479
  0
LINE
  5
429
100
AcDbEntity
  8
0
100
AcDbLine
 62
7
  6
CONTINUOUS
 10
316.3047707613
 20
76.6253578479
 11
316.0866603261
 21
74.3125114972
  0
LINE
  5
42A
100
AcDbEntity
  8
0
100
AcDbLine
 62
7
  6
CONTINUOUS
 10
316.0866603261
 20
74.3125114972
 11
315.874460859
 21
72.157141225
  0
LWPOLYLINE
  5
42B
100
AcDbEntity
  8
0
100
AcDbPolyline
 62
7
  6
CONTINUOUS
 90
3
 70
0
 10
315.874460859
 20
72.157141225
 10
315.668287322
 20
70.1619343768
 10
315.5675078037
 20
69.2249034866
  0
LINE
  5
42C
100
AcDbEntity
  8
0
100
AcDbLine
 62
7
  6
CONTINUOUS
 10
326.8262074119
 20
183.4290154853
 11
327.0241238898
 21
183.9871938937
  0
LINE
  5
42D
100
AcDbEntity
  8
0
100
AcDbLine
 62
7
  6
CONTINUOUS
 10
326.8262074119
 20
183.2336499211
 11
327.0241238898
 21
183.7918283295
  0
LINE
  5
42E
100
AcDbEntity
  8
0
100
AcDbLine
 62
7
  6
CONTINUOUS
 10
335.3366244561
 20
179.3357067659
 11
335.7324574119
 21
180.0799447741
  0
LINE
  5
42F
100
AcDbEntity
  8
0
100
AcDbLine
 62
7
  6
CONTINUOUS
 10
335.3366244561
 20
179.1403412017
 11
335.7324574119
 21
179.8845792099
  0
LINE
  5
430
100
AcDbEntity
  8
0
100
AcDbLine
 62
7
  6
CONTINUOUS
 10
334.5449574119
 20
180.2660042436
 11
334.1491244561
 21
179.7078258352
  0
LINE
  5
431
100
AcDbEntity
  8
0
100
AcDbLine
 62
7
  6
CONTINUOUS
 10
344.0449574119
 20
180.2660042436
 11
343.6491233236
 21
179.7078258352
  0
LINE
  5
432
100
AcDbEntity
  8
0
100
AcDbLine
 62
7
  6
CONTINUOUS
 10
344.0449574119
 20
178.5914688229
 11
344.8366233236
 21
179.3357067659
  0
LINE
  5
433
100
AcDbEntity
  8
0
100
AcDbLine
 62
7
  6
CONTINUOUS
 10
344.0449574119
 20
178.3961032586
 11
344.8366233236
 21
179.1403412017
  0
LINE
  5
434
100
AcDbEntity
  8
RUNDUNGEN
100
AcDbLine
 62
7
  6
CONTINUOUS
 10
318.6597625993
 20
131.1007411537
 11
317.1101840825
 21
131.1007411537
  0
LINE
  5
435
100
AcDbEntity
  8
BEZUGSACHSEN
100
AcDbLine
 62
7
  6
CONTINUOUS
 10
346.4717527097
 20
131.1007411537
 11
348.0213948649
 21
131.1007411537
  0
LINE
  5
436
100
AcDbEntity
  8
BEZUGSACHSEN
100
AcDbLine
 62
7
  6
CONTINUOUS
 10
348.4659439693
 20
132.2729345392
 11
348.0213948649
 21
132.2729345392
  0
LINE
  5
437
100
AcDbEntity
  8
RUNDUNGEN
100
AcDbLine
 62
7
  6
CONTINUOUS
 10
316.6656349781
 20
132.2729345392
 11
317.1101840825
 21
132.2729345392
  0
LINE
  5
438
100
AcDbEntity
  8
0
100
AcDbLine
 62
7
  6
CONTINUOUS
 10
341.9109284286
 20
92.2808429837
 11
342.0120754369
 21
92.0390702066
  0
LINE
  5
439
100
AcDbEntity
  8
0
100
AcDbLine
 62
7
  6
CONTINUOUS
 10
303.8381786344
 20
184.7372734133
 11
306.8657894737
 21
175.9444530806
  0
LWPOLYLINE
  5
43A
100
AcDbEntity
  8
RUNDUNGEN
100
AcDbPolyline
 62
7
  6
CONTINUOUS
 90
7
 70
0
 10
351.0026187734
 20
59.3790717385
 10
351.0033670941
 20
59.3766599838
 10
350.993370472
 20
59.4115137435
 10
350.9684795094
 20
59.5048497303
 10
350.9318754025
 20
59.6526478784
 10
350.8856930893
 20
59.8527068144
 10
350.8303141228
 20
60.1093109038
  0
LINE
  5
43B
100
AcDbEntity
  8
0
100
AcDbLine
 62
7
  6
CONTINUOUS
 10
324.2532906509
 20
181.7451741653
 11
324.2532906509
 21
181.9405397295
  0
LINE
  5
43C
100
AcDbEntity
  8
0
100
AcDbLine
 62
7
  6
CONTINUOUS
 10
324.6491238898
 20
185.6610926615
 11
324.6491238898
 21
185.8477891097
  0
LINE
  5
43D
100
AcDbEntity
  8
0
100
AcDbLine
 62
7
  6
CONTINUOUS
 10
325.2428738898
 20
185.4728394539
 11
325.2428738898
 21
185.6617296402
  0
LINE
  5
43E
100
AcDbEntity
  8
0
100
AcDbLine
 62
7
  6
CONTINUOUS
 10
325.6387074119
 20
185.0972915693
 11
325.6387074119
 21
185.2896107013
  0
LINE
  5
43F
100
AcDbEntity
  8
0
100
AcDbLine
 62
7
  6
CONTINUOUS
 10
325.8366238898
 20
184.7314322929
 11
325.8366238898
 21
184.1732533632
  0
LINE
  5
440
100
AcDbEntity
  8
0
100
AcDbLine
 62
7
  6
CONTINUOUS
 10
325.8366238898
 20
177.837924785
 11
325.8366238898
 21
178.0332903493
  0
LINE
  5
441
100
AcDbEntity
  8
0
100
AcDbLine
 62
7
  6
CONTINUOUS
 10
326.2324574119
 20
182.4894120432
 11
326.2324574119
 21
182.6847776074
  0
LINE
  5
442
100
AcDbEntity
  8
0
100
AcDbLine
 62
7
  6
CONTINUOUS
 10
326.8262074119
 20
183.2336499211
 11
326.8262074119
 21
183.4290154853
  0
LINE
  5
443
100
AcDbEntity
  8
0
100
AcDbLine
 62
7
  6
CONTINUOUS
 10
327.0241238898
 20
183.7918283295
 11
327.0241238898
 21
184.7314322929
  0
LINE
  5
444
100
AcDbEntity
  8
0
100
AcDbLine
 62
7
  6
CONTINUOUS
 10
327.222040934
 20
177.837924785
 11
327.222040934
 21
178.0332903493
  0
LINE
  5
445
100
AcDbEntity
  8
0
100
AcDbLine
 62
7
  6
CONTINUOUS
 10
328.8053738898
 20
180.8148765573
 11
328.8053738898
 21
186.7780864571
  0
LINE
  5
446
100
AcDbEntity
  8
0
100
AcDbLine
 62
7
  6
CONTINUOUS
 10
329.003290934
 20
179.8845792099
 11
329.003290934
 21
180.0799447741
  0
LINE
  5
447
100
AcDbEntity
  8
0
100
AcDbLine
 62
7
  6
CONTINUOUS
 10
329.3991244561
 20
179.1403412017
 11
329.3991244561
 21
179.3357067659
  0
LINE
  5
448
100
AcDbEntity
  8
0
100
AcDbLine
 62
7
  6
CONTINUOUS
 10
329.9928744561
 20
181.0102421215
 11
329.9928744561
 21
186.7780864571
  0
LINE
  5
449
100
AcDbEntity
  8
0
100
AcDbLine
 62
7
  6
CONTINUOUS
 10
330.1907903678
 20
178.3961032586
 11
330.1907903678
 21
178.5914688229
  0
LINE
  5
44A
100
AcDbEntity
  8
0
100
AcDbLine
 62
7
  6
CONTINUOUS
 10
330.9824574119
 20
178.0239842708
 11
330.9824574119
 21
178.2193498351
  0
LINE
  5
44B
100
AcDbEntity
  8
0
100
AcDbLine
 62
7
  6
CONTINUOUS
 10
331.9720403678
 20
177.837924785
 11
331.9720403678
 21
178.0332903493
  0
LINE
  5
44C
100
AcDbEntity
  8
0
100
AcDbLine
 62
7
  6
CONTINUOUS
 10
332.5657894737
 20
217.1066825798
 11
332.5657894737
 21
192.8440876332
  0
LINE
  5
44D
100
AcDbEntity
  8
0
100
AcDbLine
 62
7
  6
CONTINUOUS
 10
332.5657894737
 20
5.9838438829
 11
332.5657894737
 21
142.0115262755
  0
LINE
  5
44E
100
AcDbEntity
  8
0
100
AcDbLine
 62
7
  6
CONTINUOUS
 10
332.5657894737
 20
231.3104585617
 11
332.5657894737
 21
251.3409816099
  0
LINE
  5
44F
100
AcDbEntity
  8
0
100
AcDbLine
 62
7
  6
CONTINUOUS
 10
332.5657894737
 20
273.9409816099
 11
332.5657894737
 21
278.7409816099
  0
LINE
  5
450
100
AcDbEntity
  8
BG_STARTBEZUEGE
100
AcDbLine
 62
7
  6
CENTER
 10
332.5657894737
 20
2.9838438829
 11
332.5657894737
 21
294.2436472252
  0
LINE
  5
451
100
AcDbEntity
  8
0
100
AcDbLine
 62
7
  6
CONTINUOUS
 10
332.7637074119
 20
177.837924785
 11
332.7637074119
 21
178.0332903493
  0
LINE
  5
452
100
AcDbEntity
  8
0
100
AcDbLine
 62
7
  6
CONTINUOUS
 10
333.7532903678
 20
178.0239842708
 11
333.7532903678
 21
178.2193498351
  0
LINE
  5
453
100
AcDbEntity
  8
0
100
AcDbLine
 62
7
  6
CONTINUOUS
 10
315.5675078037
 20
69.2249034866
 11
315.37072119
 21
67.4726836349
  0
LWPOLYLINE
  5
454
100
AcDbEntity
  8
0
100
AcDbPolyline
 62
7
  6
CONTINUOUS
 90
5
 70
0
 10
315.37072119
 20
67.4726836349
 10
315.1806314627
 20
65.8836942748
 10
315.0882677806
 20
65.1506323526
 10
314.9978270203
 20
64.4587326447
 10
314.9094197771
 20
63.8080315206
  0
LINE
  5
455
100
AcDbEntity
  8
0
100
AcDbLine
 62
7
  6
CONTINUOUS
 10
314.9094197771
 20
63.8080315206
 11
314.7980560308
 21
63.0258624435
  0
LINE
  5
456
100
AcDbEntity
  8
0
100
AcDbLine
 62
7
  6
CONTINUOUS
 10
335.7324574119
 20
180.0799447741
 11
335.9303744561
 21
181.0102421215
  0
LINE
  5
457
100
AcDbEntity
  8
0
100
AcDbLine
 62
7
  6
CONTINUOUS
 10
335.7324574119
 20
179.8845792099
 11
335.9303744561
 21
180.8148765573
  0
LWPOLYLINE
  5
458
100
AcDbEntity
  8
0
100
AcDbPolyline
 62
7
  6
CONTINUOUS
 90
5
 70
0
 10
314.3012508364
 20
60.1092439731
 10
314.2512096274
 20
59.8766226819
 10
314.2038033242
 20
59.6698381165
 10
314.165928387
 20
59.5158729148
 10
314.1535462988
 20
59.4681986383
  0
LINE
  5
459
100
AcDbEntity
  8
0
100
AcDbLine
 62
7
  6
CONTINUOUS
 10
334.7428744561
 20
181.0102421215
 11
334.5449574119
 21
180.2660042436
  0
LWPOLYLINE
  5
45A
100
AcDbEntity
  8
RUNDUNGEN
100
AcDbPolyline
 62
7
  6
CONTINUOUS
 90
5
 70
0
 10
317.1222846615
 20
127.7557380496
 10
317.0261971119
 20
127.5122683598
 10
316.9314833214
 20
127.1751400629
 10
316.876881699
 20
126.8294926865
 10
316.862507986
 20
126.535832153
  0
LINE
  5
45B
100
AcDbEntity
  8
RUNDUNGEN
100
AcDbLine
 62
7
  6
CONTINUOUS
 10
323.4810628858
 20
142.9628414524
 11
318.469645763
 21
133.0701585777
  0
LINE
  5
45C
100
AcDbEntity
  8
RUNDUNGEN
100
AcDbLine
 62
7
  6
CONTINUOUS
 10
323.4810628858
 20
141.7906480669
 11
318.469645763
 21
131.8979651922
  0
LINE
  5
45D
100
AcDbEntity
  8
0
100
AcDbLine
 62
7
  6
CONTINUOUS
 10
344.8366233236
 20
179.3357067659
 11
345.2324574119
 21
180.0799447741
  0
LINE
  5
45E
100
AcDbEntity
  8
0
100
AcDbLine
 62
7
  6
CONTINUOUS
 10
344.8366233236
 20
179.1403412017
 11
345.2324574119
 21
179.8845792099
  0
LWPOLYLINE
  5
45F
100
AcDbEntity
  8
RUNDUNGEN
100
AcDbPolyline
 62
7
  6
CONTINUOUS
 90
11
 70
0
 10
322.6559370774
 20
138.7346224406
 10
322.273352241
 20
138.0934525428
 10
321.7524127401
 20
137.1808633597
 10
321.2063457986
 20
136.1829568901
 10
320.6381476907
 20
135.1061523183
 10
320.0512718652
 20
133.9575902397
 10
319.4496105832
 20
132.7452641538
 10
318.8371710028
 20
131.4774744964
 10
318.2176683608
 20
130.1619375963
 10
317.5948640493
 20
128.8064800248
 10
317.1222247993
 20
127.7557982303
  0
LINE
  5
460
100
AcDbEntity
  8
RUNDUNGEN
100
AcDbLine
 62
7
  6
CONTINUOUS
 10
322.6556022998
 20
138.7340749719
 11
323.0453252445
 21
139.3730761501
  0
LWPOLYLINE
  5
461
100
AcDbEntity
  8
RUNDUNGEN
100
AcDbPolyline
 62
7
  6
CONTINUOUS
 90
5
 70
0
 10
323.728637339
 20
140.2805987217
 10
323.5254156192
 20
140.0456486397
 10
323.3420893965
 20
139.8117840149
 10
323.1741523618
 20
139.5743730967
 10
323.0453929189
 20
139.3731654108
  0
LINE
  5
462
100
AcDbEntity
  8
RUNDUNGEN
100
AcDbLine
 62
7
  6
CONTINUOUS
 10
323.7286957328
 20
140.2805455899
 11
323.7302922945
 21
140.2823014792
  0
LWPOLYLINE
  5
463
100
AcDbEntity
  8
RUNDUNGEN
100
AcDbPolyline
 62
7
  6
CONTINUOUS
 90
7
 70
0
 10
326.7063603224
 20
141.9017586639
 10
326.3423517552
 20
141.8247302135
 10
325.661366019
 20
141.6097113733
 10
325.0333408107
 20
141.3152615362
 10
324.4626879521
 20
140.9473157617
 10
323.9523595161
 20
140.5121481082
 10
323.7302922945
 20
140.2823014792
  0
LINE
  5
464
100
AcDbEntity
  8
RUNDUNGEN
100
AcDbLine
 62
7
  6
CONTINUOUS
 10
326.7064802826
 20
141.9017499955
 11
326.7071351803
 21
141.9018667825
  0
LINE
  5
465
100
AcDbEntity
  8
0
100
AcDbLine
 62
7
  6
CONTINUOUS
 10
332.5657894737
 20
142.9449403987
 11
326.7070021481
 21
141.9018430791
  0
LINE
  5
466
100
AcDbEntity
  8
BEZUGSACHSEN
100
AcDbLine
 62
7
  6
CONTINUOUS
 10
329.9657894737
 20
143.0673042486
 11
335.1657894737
 21
143.0673042486
  0
LINE
  5
467
100
AcDbEntity
  8
BEZUGSACHSEN
100
AcDbLine
 62
7
  6
CONTINUOUS
 10
337.1189771264
 20
144.4480615287
 11
328.012601821
 21
144.4480615287
  0
LINE
  5
468
100
AcDbEntity
  8
BEZUGSACHSEN
100
AcDbLine
 62
7
  6
CONTINUOUS
 10
328.012601821
 20
145.6202549142
 11
337.1189771264
 21
145.6202549142
  0
LINE
  5
469
100
AcDbEntity
  8
RUNDUNGEN
100
AcDbLine
 62
7
  6
CONTINUOUS
 10
338.4245661924
 20
141.9018449691
 11
332.5657894737
 21
142.9449403987
  0
LWPOLYLINE
  5
46A
100
AcDbEntity
  8
RUNDUNGEN
100
AcDbPolyline
 62
7
  6
CONTINUOUS
 90
7
 70
0
 10
341.4014121727
 20
140.2822075968
 10
341.1607746842
 20
140.530024904
 10
340.6495751654
 20
140.9615960852
 10
340.0777603133
 20
141.3265399941
 10
339.4484657972
 20
141.6181449711
 10
338.7662222471
 20
141.8303296032
 10
338.4250381321
 20
141.901787439
  0
LINE
  5
46B
100
AcDbEntity
  8
0
100
AcDbLine
 62
7
  6
CONTINUOUS
 10
343.0107536179
 20
102.2513353424
 11
342.9960399541
 21
102.2883741874
  0
LINE
  5
46C
100
AcDbEntity
  8
0
100
AcDbLine
 62
7
  6
CONTINUOUS
 10
342.0320796495
 20
92.9113391186
 11
341.9811148453
 21
93.1013154245
  0
LINE
  5
46D
100
AcDbEntity
  8
RUNDUNGEN
100
AcDbLine
 62
7
  6
CONTINUOUS
 10
349.5757327593
 20
69.118168418
 11
349.371312794
 21
71.0394041043
  0
LINE
  5
46E
100
AcDbEntity
  8
RUNDUNGEN
100
AcDbLine
 62
7
  6
CONTINUOUS
 10
349.371312794
 20
71.0394041043
 11
349.1605991701
 21
73.1252797845
  0
LINE
  5
46F
100
AcDbEntity
  8
RUNDUNGEN
100
AcDbLine
 62
7
  6
CONTINUOUS
 10
349.1605991701
 20
73.1252797845
 11
348.9438005551
 21
75.3731274909
  0
LINE
  5
470
100
AcDbEntity
  8
RUNDUNGEN
100
AcDbLine
 62
7
  6
CONTINUOUS
 10
348.9438005551
 20
75.3731274909
 11
348.7211140683
 21
77.7785014878
  0
LINE
  5
471
100
AcDbEntity
  8
RUNDUNGEN
100
AcDbLine
 62
7
  6
CONTINUOUS
 10
348.7211140683
 20
77.7785014878
 11
348.4926798662
 21
80.3356404273
  0
LINE
  5
472
100
AcDbEntity
  8
RUNDUNGEN
100
AcDbLine
 62
7
  6
CONTINUOUS
 10
348.4926798662
 20
80.3356404273
 11
348.2585784088
 21
83.0374865436
  0
LINE
  5
473
100
AcDbEntity
  8
RUNDUNGEN
100
AcDbLine
 62
7
  6
CONTINUOUS
 10
348.2585784088
 20
83.0374865436
 11
348.0188551503
 21
85.8754625242
  0
LINE
  5
474
100
AcDbEntity
  8
RUNDUNGEN
100
AcDbLine
 62
7
  6
CONTINUOUS
 10
348.0188551503
 20
85.8754625242
 11
347.6487530687
 21
90.3648896449
  0
LINE
  5
475
100
AcDbEntity
  8
RUNDUNGEN
100
AcDbLine
 62
7
  6
CONTINUOUS
 10
347.6487530687
 20
90.3648896449
 11
347.5548490791
 21
91.5193934932
  0
LINE
  5
476
100
AcDbEntity
  8
RUNDUNGEN
100
AcDbLine
 62
7
  6
CONTINUOUS
 10
347.5548582622
 20
91.5192732527
 11
347.5273237357
 21
91.8885419379
  0
LINE
  5
477
100
AcDbEntity
  8
0
100
AcDbLine
 62
7
  6
CONTINUOUS
 10
341.9811148453
 20
93.1013154245
 11
341.9540672467
 21
93.4726626542
  0
LINE
  5
478
100
AcDbEntity
  8
0
100
AcDbLine
 62
7
  6
CONTINUOUS
 10
341.7909990575
 20
95.8389254716
 11
341.8043032308
 21
93.4898728256
  0
LINE
  5
479
100
AcDbEntity
  8
0
100
AcDbLine
 62
7
  6
CONTINUOUS
 10
341.9540672467
 20
93.4726626542
 11
341.9391978769
 21
96.0980743769
  0
LINE
  5
47A
100
AcDbEntity
  8
0
100
AcDbLine
 62
7
  6
CONTINUOUS
 10
342.3554290521
 20
84.2665938608
 11
342.3695158243
 21
81.7793615776
  0
LINE
  5
47B
100
AcDbEntity
  8
0
100
AcDbLine
 62
7
  6
CONTINUOUS
 10
342.3096949946
 20
96.7459467611
 11
342.3245643645
 21
94.1205350384
  0
LINE
  5
47C
100
AcDbEntity
  8
0
100
AcDbLine
 62
7
  6
CONTINUOUS
 10
342.5177146437
 20
82.0385104829
 11
342.4989322808
 21
85.3548201938
  0
LINE
  5
47D
100
AcDbEntity
  8
0
100
AcDbLine
 62
7
  6
CONTINUOUS
 10
342.4926714947
 20
86.4602565006
 11
342.487975904
 21
87.2893339283
  0
LINE
  5
47E
100
AcDbEntity
  8
0
100
AcDbLine
 62
7
  6
CONTINUOUS
 10
342.4691935411
 20
90.6056436393
 11
342.4644979482
 21
91.4347214624
  0
LINE
  5
47F
100
AcDbEntity
  8
0
100
AcDbLine
 62
7
  6
CONTINUOUS
 10
342.447280783
 20
94.474671899
 11
342.4284984201
 21
97.7909816099
  0
LINE
  5
480
100
AcDbEntity
  8
0
100
AcDbLine
 62
7
  6
CONTINUOUS
 10
341.7166504798
 20
85.1477064072
 11
341.7169765399
 21
85.0437906453
  0
LINE
  5
481
100
AcDbEntity
  8
0
100
AcDbLine
 62
7
  6
CONTINUOUS
 10
341.7141419985
 20
85.9503235135
 11
341.7142487563
 21
85.9160503049
  0
LINE
  5
482
100
AcDbEntity
  8
0
100
AcDbLine
 62
7
  6
CONTINUOUS
 10
341.7126931416
 20
86.4164811701
 11
341.7127708258
 21
86.3914384595
  0
LINE
  5
483
100
AcDbEntity
  8
0
100
AcDbLine
 62
7
  6
CONTINUOUS
 10
341.7038835224
 20
89.293063949
 11
341.7039636407
 21
89.2665671165
  0
LINE
  5
484
100
AcDbEntity
  8
0
100
AcDbLine
 62
7
  6
CONTINUOUS
 10
334.5449574119
 20
178.3961032586
 11
334.5449574119
 21
178.5914688229
  0
LINE
  5
485
100
AcDbEntity
  8
0
100
AcDbLine
 62
7
  6
CONTINUOUS
 10
334.7428744561
 20
186.7780864571
 11
334.7428744561
 21
181.0102421215
  0
LINE
  5
486
100
AcDbEntity
  8
0
100
AcDbLine
 62
7
  6
CONTINUOUS
 10
335.3366244561
 20
179.1403412017
 11
335.3366244561
 21
179.3357067659
  0
LINE
  5
487
100
AcDbEntity
  8
0
100
AcDbLine
 62
7
  6
CONTINUOUS
 10
335.7324574119
 20
179.8845792099
 11
335.7324574119
 21
180.0799447741
  0
LINE
  5
488
100
AcDbEntity
  8
0
100
AcDbLine
 62
7
  6
CONTINUOUS
 10
335.9303744561
 20
180.8148765573
 11
335.9303744561
 21
186.7780864571
  0
LINE
  5
489
100
AcDbEntity
  8
0
100
AcDbLine
 62
7
  6
CONTINUOUS
 10
337.5137074119
 20
177.837924785
 11
337.5137074119
 21
186.7780864571
  0
LINE
  5
48A
100
AcDbEntity
  8
0
100
AcDbLine
 62
7
  6
CONTINUOUS
 10
338.7012074119
 20
179.1496472965
 11
338.7012074119
 21
185.6617296402
  0
LINE
  5
48B
100
AcDbEntity
  8
0
100
AcDbLine
 62
7
  6
CONTINUOUS
 10
342.2637074119
 20
177.837924785
 11
342.2637074119
 21
178.0332903493
  0
LINE
  5
48C
100
AcDbEntity
  8
0
100
AcDbLine
 62
7
  6
CONTINUOUS
 10
342.2637074119
 20
185.4728394539
 11
342.2637074119
 21
185.6617296402
  0
LINE
  5
48D
100
AcDbEntity
  8
0
100
AcDbLine
 62
7
  6
CONTINUOUS
 10
343.0553733236
 20
185.2849058364
 11
343.0553733236
 21
185.4756701708
  0
LINE
  5
48E
100
AcDbEntity
  8
0
100
AcDbLine
 62
7
  6
CONTINUOUS
 10
343.2532915002
 20
178.0239842708
 11
343.2532915002
 21
178.2193498351
  0
LINE
  5
48F
100
AcDbEntity
  8
0
100
AcDbLine
 62
7
  6
CONTINUOUS
 10
345.2324574119
 20
180.0799447741
 11
345.4303733236
 21
181.0102421215
  0
LINE
  5
490
100
AcDbEntity
  8
0
100
AcDbLine
 62
7
  6
CONTINUOUS
 10
345.2324574119
 20
179.8845792099
 11
345.4303733236
 21
180.8148765573
  0
LINE
  5
491
100
AcDbEntity
  8
0
100
AcDbLine
 62
7
  6
CONTINUOUS
 10
344.2428733236
 20
181.0102421215
 11
344.0449574119
 21
180.2660042436
  0
LINE
  5
492
100
AcDbEntity
  8
0
100
AcDbLine
 62
7
  6
CONTINUOUS
 10
322.1208253295
 20
102.2513353424
 11
322.1355389932
 21
102.2883741874
  0
LINE
  5
493
100
AcDbEntity
  8
0
100
AcDbLine
 62
7
  6
CONTINUOUS
 10
358.2657894737
 20
157.607004192
 11
358.6186316902
 21
157.607004192
  0
LINE
  5
494
100
AcDbEntity
  8
RUNDUNGEN
100
AcDbLine
 62
7
  6
CONTINUOUS
 10
341.4029313055
 20
140.2806101606
 11
341.4014487048
 21
140.2822409399
  0
LWPOLYLINE
  5
495
100
AcDbEntity
  8
RUNDUNGEN
100
AcDbPolyline
 62
7
  6
CONTINUOUS
 90
5
 70
0
 10
342.0861835986
 20
139.3731665952
 10
341.9421746371
 20
139.597008516
 10
341.7730418754
 20
139.8337528898
 10
341.5886034981
 20
140.0668778614
 10
341.4029313055
 20
140.2806101606
  0
LINE
  5
496
100
AcDbEntity
  8
RUNDUNGEN
100
AcDbLine
 62
7
  6
CONTINUOUS
 10
342.0861944782
 20
139.3731732469
 11
342.4759766423
 21
138.7340749806
  0
LINE
  5
497
100
AcDbEntity
  8
BEZUGSACHSEN
100
AcDbLine
 62
7
  6
CONTINUOUS
 10
341.6505160616
 20
141.7906480669
 11
346.6619331843
 21
131.8979651922
  0
LINE
  5
498
100
AcDbEntity
  8
BEZUGSACHSEN
100
AcDbLine
 62
7
  6
CONTINUOUS
 10
341.6505160616
 20
142.9628414524
 11
346.6619331843
 21
133.0701585777
  0
LWPOLYLINE
  5
499
100
AcDbEntity
  8
RUNDUNGEN
100
AcDbPolyline
 62
7
  6
CONTINUOUS
 90
11
 70
0
 10
348.0093539042
 20
127.7557989037
 10
347.5242772954
 20
128.8338709489
 10
346.9014219663
 20
130.1887810945
 10
346.2819622683
 20
131.5035656508
 10
345.6696504108
 20
132.7704202592
 10
345.0682044665
 20
133.981624597
 10
344.4816310994
 20
135.1288806905
 10
343.9138218369
 20
136.2041987855
 10
343.3682194014
 20
137.2004592677
 10
342.847801099
 20
138.1112736257
 10
342.4756146922
 20
138.7346669675
  0
LINE
  5
49A
100
AcDbEntity
  8
0
100
AcDbLine
 62
7
  6
CONTINUOUS
 10
327.222040934
 20
178.0332903493
 11
325.440790934
 21
182.3126586685
  0
LINE
  5
49B
100
AcDbEntity
  8
0
100
AcDbLine
 62
7
  6
CONTINUOUS
 10
324.2532906509
 20
181.7451741653
 11
325.8366238898
 21
177.837924785
  0
LINE
  5
49C
100
AcDbEntity
  8
0
100
AcDbLine
 62
7
  6
CONTINUOUS
 10
324.2532906509
 20
181.9405397295
 11
325.8366238898
 21
178.0332903493
  0
LINE
  5
49D
100
AcDbEntity
  8
0
100
AcDbLine
 62
7
  6
CONTINUOUS
 10
325.6387074119
 20
185.2896107013
 11
325.8366238898
 21
184.7314322929
  0
LINE
  5
49E
100
AcDbEntity
  8
0
100
AcDbLine
 62
7
  6
CONTINUOUS
 10
327.0241238898
 20
184.7314322929
 11
326.8262074119
 21
185.2896107013
  0
LINE
  5
49F
100
AcDbEntity
  8
0
100
AcDbLine
 62
7
  6
CONTINUOUS
 10
330.1907903678
 20
180.2660042436
 11
329.9928744561
 21
181.0102421215
  0
LINE
  5
4A0
100
AcDbEntity
  8
0
100
AcDbLine
 62
7
  6
CONTINUOUS
 10
328.8053738898
 20
180.8148765573
 11
329.003290934
 21
179.8845792099
  0
LINE
  5
4A1
100
AcDbEntity
  8
0
100
AcDbLine
 62
7
  6
CONTINUOUS
 10
328.8053738898
 20
181.0102421215
 11
329.003290934
 21
180.0799447741
  0
LWPOLYLINE
  5
4A2
100
AcDbEntity
  8
RUNDUNGEN
100
AcDbPolyline
 62
7
  6
CONTINUOUS
 90
4
 70
0
 10
350.3335269022
 20
63.02583522
 10
350.235505451
 20
63.7120577337
 10
350.1472289945
 20
64.3578788595
 10
350.0567748485
 20
65.0459849184
  0
LINE
  5
4A3
100
AcDbEntity
  8
RUNDUNGEN
100
AcDbLine
 62
7
  6
CONTINUOUS
 10
350.0567748485
 20
65.0459849184
 11
349.8698273844
 21
66.5488554822
  0
LWPOLYLINE
  5
4A4
100
AcDbEntity
  8
RUNDUNGEN
100
AcDbPolyline
 62
7
  6
CONTINUOUS
 90
3
 70
0
 10
349.8698273844
 20
66.5488554822
 10
349.6754892669
 20
68.219882176
 10
349.5757327593
 20
69.118168418
  0
LINE
  5
4A5
100
AcDbEntity
  8
0
100
AcDbLine
 62
7
  6
CONTINUOUS
 10
341.8583984291
 20
92.7471781686
 11
341.9109284286
 21
92.2808429837
  0
LWPOLYLINE
  5
4A6
100
AcDbEntity
  8
RUNDUNGEN
100
AcDbPolyline
 62
7
  6
CONTINUOUS
 90
4
 70
0
 10
347.5273237357
 20
91.8885419379
 10
347.5048726678
 20
92.25458255
 10
347.4878563367
 20
92.6059147371
 10
347.4775716469
 20
92.881861685
  0
LWPOLYLINE
  5
4A7
100
AcDbEntity
  8
RUNDUNGEN
100
AcDbPolyline
 62
7
  6
CONTINUOUS
 90
5
 70
0
 10
348.2690709819
 20
126.5358723417
 10
348.2526159555
 20
126.8499072326
 10
348.1945685629
 20
127.199922025
 10
348.0953860197
 20
127.5407538214
 10
348.0092927751
 20
127.7557413809
  0
LWPOLYLINE
  5
4A8
100
AcDbEntity
  8
RUNDUNGEN
100
AcDbPolyline
 62
7
  6
CONTINUOUS
 90
3
 70
0
 10
347.4775718158
 20
92.8818564572
 10
347.4706371464
 20
93.1277264359
 10
347.465316232
 20
93.4027068359
  0
LINE
  5
4A9
100
AcDbEntity
  8
RUNDUNGEN
100
AcDbLine
 62
7
  6
CONTINUOUS
 10
347.465316232
 20
93.4027068359
 11
347.4626252088
 21
93.6650004387
  0
LINE
  5
4AA
100
AcDbEntity
  8
0
100
AcDbLine
 62
7
  6
CONTINUOUS
 10
343.6491233236
 20
184.9099969663
 11
343.6491233236
 21
185.1035512318
  0
LINE
  5
4AB
100
AcDbEntity
  8
0
100
AcDbLine
 62
7
  6
CONTINUOUS
 10
344.0449574119
 20
178.3961032586
 11
344.0449574119
 21
178.5914688229
  0
LINE
  5
4AC
100
AcDbEntity
  8
0
100
AcDbLine
 62
7
  6
CONTINUOUS
 10
344.0449574119
 20
184.3500284057
 11
344.0449574119
 21
184.5453723022
  0
LINE
  5
4AD
100
AcDbEntity
  8
0
100
AcDbLine
 62
7
  6
CONTINUOUS
 10
344.2428733236
 20
183.8011344243
 11
344.2428733236
 21
181.0102421215
  0
LINE
  5
4AE
100
AcDbEntity
  8
RUNDUNGEN
100
AcDbLine
 62
7
  6
CONTINUOUS
 10
344.5657894737
 20
227.7183667769
 11
344.5657894737
 21
227.6674224556
  0
LINE
  5
4AF
100
AcDbEntity
  8
RUNDUNGEN
100
AcDbLine
 62
7
  6
CONTINUOUS
 10
344.5658748353
 20
192.8440876332
 11
344.5657894737
 21
217.1066825798
  0
LINE
  5
4B0
100
AcDbEntity
  8
0
100
AcDbLine
 62
7
  6
CONTINUOUS
 10
344.8366233236
 20
179.1403412017
 11
344.8366233236
 21
179.3357067659
  0
LINE
  5
4B1
100
AcDbEntity
  8
0
100
AcDbLine
 62
7
  6
CONTINUOUS
 10
345.2324574119
 20
179.8845792099
 11
345.2324574119
 21
180.0799447741
  0
LINE
  5
4B2
100
AcDbEntity
  8
0
100
AcDbLine
 62
7
  6
CONTINUOUS
 10
345.4303733236
 20
180.8148765573
 11
345.4303733236
 21
183.8011344243
  0
LINE
  5
4B3
100
AcDbEntity
  8
BEZUGSACHSEN
100
AcDbLine
 62
7
  6
CONTINUOUS
 10
346.0657894737
 20
192.1837902239
 11
346.0657894737
 21
217.1066825798
  0
LINE
  5
4B4
100
AcDbEntity
  8
0
100
AcDbLine
 62
7
  6
CONTINUOUS
 10
347.4621264172
 20
118.4409900178
 11
347.4621264172
 21
112.1541237534
  0
LINE
  5
4B5
100
AcDbEntity
  8
RUNDUNGEN
100
AcDbLine
 62
7
  6
CONTINUOUS
 10
347.4621264172
 20
102.6937253481
 11
347.4621264172
 21
92.9712098878
  0
LINE
  5
4B6
100
AcDbEntity
  8
0
100
AcDbLine
 62
7
  6
CONTINUOUS
 10
348.9621264172
 20
109.9651884572
 11
348.9617116237
 21
108.3490970424
  0
LINE
  5
4B7
100
AcDbEntity
  8
0
100
AcDbLine
 62
7
  6
CONTINUOUS
 10
348.9621264172
 20
107.5759816099
 11
348.962126417
 21
103.7363949187
  0
LINE
  5
4B8
100
AcDbEntity
  8
0
100
AcDbLine
 62
7
  6
CONTINUOUS
 10
342.4264939727
 20
93.7405824265
 11
342.447280783
 21
94.474671899
  0
LINE
  5
4B9
100
AcDbEntity
  8
0
100
AcDbLine
 62
7
  6
CONTINUOUS
 10
342.4969278357
 20
81.3044206151
 11
342.5177146437
 21
82.0385104829
  0
LINE
  5
4BA
100
AcDbEntity
  8
0
100
AcDbLine
 62
7
  6
CONTINUOUS
 10
342.3695158243
 20
81.7793615776
 11
342.3479464119
 21
81.1834523353
  0
LINE
  5
4BB
100
AcDbEntity
  8
0
100
AcDbLine
 62
7
  6
CONTINUOUS
 10
342.3245643645
 20
94.1205350384
 11
342.3022123566
 21
93.6628048403
  0
LINE
  5
4BC
100
AcDbEntity
  8
0
100
AcDbLine
 62
7
  6
CONTINUOUS
 10
342.4506586201
 20
80.6653198886
 11
342.4969278357
 21
81.3044206151
  0
LINE
  5
4BD
100
AcDbEntity
  8
0
100
AcDbLine
 62
7
  6
CONTINUOUS
 10
342.3479464119
 20
81.1834523353
 11
342.3008946008
 21
80.682530653
  0
LINE
  5
4BE
100
AcDbEntity
  8
0
100
AcDbLine
 62
7
  6
CONTINUOUS
 10
342.3555249561
 20
93.0582898205
 11
342.4264939727
 21
93.7405824265
  0
LINE
  5
4BF
100
AcDbEntity
  8
RUNDUNGEN
100
AcDbLine
 62
7
  6
CONTINUOUS
 10
347.4470250489
 20
118.3574294694
 11
347.4462749738
 21
118.3511283817
  0
LINE
  5
4C0
100
AcDbEntity
  8
0
100
AcDbLine
 62
7
  6
CONTINUOUS
 10
342.3022123566
 20
93.6628048403
 11
342.2543779478
 21
93.3000625975
  0
LINE
  5
4C1
100
AcDbEntity
  8
0
100
AcDbLine
 62
7
  6
CONTINUOUS
 10
342.3549897979
 20
79.9398361937
 11
342.4506586201
 21
80.6653198886
  0
LWPOLYLINE
  5
4C2
100
AcDbEntity
  8
RUNDUNGEN
100
AcDbPolyline
 62
7
  6
CONTINUOUS
 90
5
 70
0
 10
348.209761065
 20
121.2153459189
 10
348.2431409286
 20
121.4543600597
 10
348.2620242938
 20
121.6871568473
 10
348.2689742795
 20
121.9208268439
 10
348.2690713987
 20
126.5373022657
  0
LWPOLYLINE
  5
4C3
100
AcDbEntity
  8
RUNDUNGEN
100
AcDbPolyline
 62
7
  6
CONTINUOUS
 90
10
 70
0
 10
347.4462749738
 20
118.3511283817
 10
347.4496359302
 20
118.3721202316
 10
347.4655366049
 20
118.4597930396
 10
347.4964760835
 20
118.6091163409
 10
347.5440542427
 20
118.8160037435
 10
347.6098891562
 20
119.079469838
 10
347.6945567975
 20
119.3961949278
 10
347.7992105435
 20
119.7663975947
 10
347.9243870923
 20
120.1888907202
 10
348.0710830076
 20
120.6644589471
  0
LINE
  5
4C4
100
AcDbEntity
  8
0
100
AcDbLine
 62
7
  6
CONTINUOUS
 10
342.2590735385
 20
92.4709851698
 11
342.3555249561
 21
93.0582898205
  0
LINE
  5
4C5
100
AcDbEntity
  8
RUNDUNGEN
100
AcDbLine
 62
7
  6
CONTINUOUS
 10
348.1580208031
 20
120.9656085285
 11
348.209761065
 21
121.2153459189
  0
LWPOLYLINE
  5
4C6
100
AcDbEntity
  8
RUNDUNGEN
100
AcDbPolyline
 62
7
  6
CONTINUOUS
 90
4
 70
0
 10
361.2933692244
 20
184.7371831256
 10
361.4446765026
 20
185.271078704
 10
361.5359629004
 20
185.8184342156
 10
361.5661074527
 20
186.3648366764
  0
LINE
  5
4C7
100
AcDbEntity
  8
RUNDUNGEN
100
AcDbLine
 62
7
  6
CONTINUOUS
 10
361.2934003126
 20
184.7372734122
 11
358.2657894737
 21
175.9444530806
  0
LINE
  5
4C8
100
AcDbEntity
  8
0
100
AcDbLine
 62
7
  6
CONTINUOUS
 10
358.2657894737
 20
165.5405375949
 11
358.8777625773
 21
165.5405375949
  0
LINE
  5
4C9
100
AcDbEntity
  8
0
100
AcDbLine
 62
7
  6
CONTINUOUS
 10
358.2657894737
 20
166.4536797384
 11
358.8770925676
 21
166.4536797384
  0
LINE
  5
4CA
100
AcDbEntity
  8
0
100
AcDbLine
 62
7
  6
CONTINUOUS
 10
358.2657894737
 20
168.3345709465
 11
358.7445608653
 21
168.3345709465
  0
LINE
  5
4CB
100
AcDbEntity
  8
0
100
AcDbLine
 62
7
  6
CONTINUOUS
 10
329.3991244561
 20
179.1403412017
 11
330.1907903678
 21
178.3961032586
  0
LINE
  5
4CC
100
AcDbEntity
  8
0
100
AcDbLine
 62
7
  6
CONTINUOUS
 10
329.3991244561
 20
179.3357067659
 11
330.1907903678
 21
178.5914688229
  0
LINE
  5
4CD
100
AcDbEntity
  8
0
100
AcDbLine
 62
7
  6
CONTINUOUS
 10
326.8262074119
 20
185.2896107013
 11
326.2324574119
 21
186.0338485792
  0
LINE
  5
4CE
100
AcDbEntity
  8
0
100
AcDbLine
 62
7
  6
CONTINUOUS
 10
330.5866244561
 20
179.7078258352
 11
330.1907903678
 21
180.2660042436
  0
LINE
  5
4CF
100
AcDbEntity
  8
0
100
AcDbLine
 62
7
  6
CONTINUOUS
 10
329.003290934
 20
179.8845792099
 11
329.3991244561
 21
179.1403412017
  0
LINE
  5
4D0
100
AcDbEntity
  8
0
100
AcDbLine
 62
7
  6
CONTINUOUS
 10
329.003290934
 20
180.0799447741
 11
329.3991244561
 21
179.3357067659
  0
LINE
  5
4D1
100
AcDbEntity
  8
0
100
AcDbLine
 62
7
  6
CONTINUOUS
 10
344.0631864434
 20
184.2814587592
 11
344.2428733236
 21
183.60576886
  0
LINE
  5
4D2
100
AcDbEntity
  8
0
100
AcDbLine
 62
7
  6
CONTINUOUS
 10
344.0449574119
 20
184.5453723022
 11
344.2428733236
 21
183.8011344243
  0
LINE
  5
4D3
100
AcDbEntity
  8
0
100
AcDbLine
 62
7
  6
CONTINUOUS
 10
345.4303733236
 20
183.8011344243
 11
345.2324574119
 21
184.7314322929
  0
LINE
  5
4D4
100
AcDbEntity
  8
RUNDUNGEN
100
AcDbLine
 62
7
  6
CONTINUOUS
 10
361.5653758496
 20
227.1074491992
 11
361.5597190961
 21
227.4080548224
  0
LINE
  5
4D5
100
AcDbEntity
  8
RUNDUNGEN
100
AcDbLine
 62
7
  6
CONTINUOUS
 10
361.5653758496
 20
227.1074491992
 11
361.5657893861
 21
227.0067990265
  0
LINE
  5
4D6
100
AcDbEntity
  8
RUNDUNGEN
100
AcDbLine
 62
7
  6
CONTINUOUS
 10
355.5657894737
 20
240.3831172336
 11
355.5657894737
 21
259.6414621705
  0
LINE
  5
4D7
100
AcDbEntity
  8
BEZUGSACHSEN
100
AcDbLine
 62
7
  6
CONTINUOUS
 10
358.2657894737
 20
155.7816071303
 11
358.2657894737
 21
227.6670842804
  0
LINE
  5
4D8
100
AcDbEntity
  8
0
100
AcDbLine
 62
7
  6
CONTINUOUS
 10
361.5657894737
 20
227.0112356609
 11
361.5657894737
 21
186.3609877513
  0
LINE
  5
4D9
100
AcDbEntity
  8
RUNDUNGEN
100
AcDbLine
 62
7
  6
CONTINUOUS
 10
361.5657891813
 20
186.3664867895
 11
361.5657868924
 21
186.3650472713
  0
LINE
  5
4DA
100
AcDbEntity
  8
RUNDUNGEN
100
AcDbLine
 62
7
  6
CONTINUOUS
 10
354.7103846707
 20
94.9254675786
 11
355.0852773371
 21
106.2423041365
  0
LINE
  5
4DB
100
AcDbEntity
  8
RUNDUNGEN
100
AcDbLine
 62
7
  6
CONTINUOUS
 10
354.4704777277
 20
87.9109632581
 11
354.7103846707
 21
94.9254675786
  0
LINE
  5
4DC
100
AcDbEntity
  8
BEZUGSACHSEN
100
AcDbLine
 62
7
  6
CONTINUOUS
 10
355.0852339137
 20
106.2409814821
 11
355.0849792216
 21
106.2336389526
  0
LINE
  5
4DD
100
AcDbEntity
  8
RUNDUNGEN
100
AcDbLine
 62
7
  6
CONTINUOUS
 10
355.0849791394
 20
106.2336370126
 11
355.2662799876
 21
111.4157155334
  0
LWPOLYLINE
  5
4DE
100
AcDbEntity
  8
RUNDUNGEN
100
AcDbPolyline
 62
7
  6
CONTINUOUS
 90
7
 70
0
 10
355.2662799876
 20
111.4157155334
 10
355.5139994493
 20
118.2960031052
 10
355.6398457725
 20
121.6754638178
 10
355.7668648292
 20
124.9938514677
 10
355.8949188955
 20
128.2366905332
 10
356.023864089
 20
131.3912637613
 10
356.1532983096
 20
134.4448993946
  0
LWPOLYLINE
  5
4DF
100
AcDbEntity
  8
RUNDUNGEN
100
AcDbPolyline
 62
7
  6
CONTINUOUS
 90
3
 70
0
 10
354.1092304655
 20
77.9545239177
 10
354.2298417745
 20
81.180685451
 10
354.4704777277
 20
87.9109632581
  0
LINE
  5
4E0
100
AcDbEntity
  8
RUNDUNGEN
100
AcDbLine
 62
7
  6
CONTINUOUS
 10
353.906142679
 20
72.7932505848
 11
354.1092304655
 21
77.9545239177
  0
LINE
  5
4E1
100
AcDbEntity
  8
RUNDUNGEN
100
AcDbLine
 62
7
  6
CONTINUOUS
 10
353.7531629181
 20
69.1880688267
 11
353.906142679
 21
72.7932505848
  0
LWPOLYLINE
  5
4E2
100
AcDbEntity
  8
RUNDUNGEN
100
AcDbPolyline
 62
7
  6
CONTINUOUS
 90
3
 70
0
 10
356.1532983096
 20
134.4448993946
 10
356.5009941528
 20
142.2810428993
 10
356.7931520191
 20
149.1512565111
  0
LINE
  5
4E3
100
AcDbEntity
  8
RUNDUNGEN
100
AcDbLine
 62
7
  6
CONTINUOUS
 10
353.6050565955
 20
65.96527535
 11
353.7531629181
 21
69.1880688267
  0
LINE
  5
4E4
100
AcDbEntity
  8
RUNDUNGEN
100
AcDbLine
 62
7
  6
CONTINUOUS
 10
353.4617831415
 20
63.1208646499
 11
353.6050565955
 21
65.96527535
  0
LINE
  5
4E5
100
AcDbEntity
  8
RUNDUNGEN
100
AcDbLine
 62
7
  6
CONTINUOUS
 10
353.3232080348
 20
60.642453837
 11
353.4617831415
 21
63.1208646499
  0
LWPOLYLINE
  5
4E6
100
AcDbEntity
  8
RUNDUNGEN
100
AcDbPolyline
 62
7
  6
CONTINUOUS
 90
3
 70
0
 10
353.1452278686
 20
57.8723026795
 10
353.189051904
 20
58.510422987
 10
353.3232080348
 20
60.642453837
  0
LINE
  5
4E7
100
AcDbEntity
  8
0
100
AcDbLine
 62
7
  6
CONTINUOUS
 10
342.3008946008
 20
80.682530653
 11
342.2283603217
 21
80.2765964097
  0
LINE
  5
4E8
100
AcDbEntity
  8
0
100
AcDbLine
 62
7
  6
CONTINUOUS
 10
342.2577557849
 20
79.4907105872
 11
342.3549897979
 21
79.9398361937
  0
LINE
  5
4E9
100
AcDbEntity
  8
0
100
AcDbLine
 62
7
  6
CONTINUOUS
 10
341.6955489349
 20
92.0978666286
 11
341.8583984291
 21
92.7471781686
  0
LINE
  5
4EA
100
AcDbEntity
  8
0
100
AcDbLine
 62
7
  6
CONTINUOUS
 10
341.8043032308
 20
93.4898728256
 11
341.6927865315
 21
93.0519195534
  0
LINE
  5
4EB
100
AcDbEntity
  8
0
100
AcDbLine
 62
7
  6
CONTINUOUS
 10
342.2543779478
 20
93.3000625975
 11
342.1810611358
 21
93.0323087054
  0
LINE
  5
4EC
100
AcDbEntity
  8
0
100
AcDbLine
 62
7
  6
CONTINUOUS
 10
342.1857567265
 20
92.2032312776
 11
342.2590735385
 21
92.4709851698
  0
LINE
  5
4ED
100
AcDbEntity
  8
RUNDUNGEN
100
AcDbLine
 62
7
  6
CONTINUOUS
 10
348.0959481477
 20
120.7434022299
 11
348.1580208031
 21
120.9656085285
  0
LINE
  5
4EE
100
AcDbEntity
  8
RUNDUNGEN
100
AcDbLine
 62
7
  6
CONTINUOUS
 10
348.0710830076
 20
120.6644589471
 11
348.0959638097
 21
120.7434958644
  0
LINE
  5
4EF
100
AcDbEntity
  8
0
100
AcDbLine
 62
7
  6
CONTINUOUS
 10
342.2283603217
 20
80.2765964097
 11
342.1303437043
 21
79.9656514287
  0
LINE
  5
4F0
100
AcDbEntity
  8
BEZUGSACHSEN
100
AcDbLine
 62
7
  6
CONTINUOUS
 10
349.8965193954
 20
133.2384900975
 11
354.9394317208
 21
147.9611133195
  0
LINE
  5
4F1
100
AcDbEntity
  8
BEZUGSACHSEN
100
AcDbLine
 62
7
  6
CONTINUOUS
 10
349.8965193954
 20
130.4353434198
 11
357.3401284886
 21
150.6356278886
  0
LINE
  5
4F2
100
AcDbEntity
  8
0
100
AcDbLine
 62
7
  6
CONTINUOUS
 10
343.0553733236
 20
179.3357067659
 11
342.2637074119
 21
179.1496472965
  0
LINE
  5
4F3
100
AcDbEntity
  8
0
100
AcDbLine
 62
7
  6
CONTINUOUS
 10
333.5553744561
 20
179.3357067659
 11
332.7637074119
 21
179.1496472965
  0
LINE
  5
4F4
100
AcDbEntity
  8
0
100
AcDbLine
 62
7
  6
CONTINUOUS
 10
342.2637074119
 20
177.837924785
 11
343.2532915002
 21
178.0239842708
  0
LINE
  5
4F5
100
AcDbEntity
  8
0
100
AcDbLine
 62
7
  6
CONTINUOUS
 10
342.2637074119
 20
178.0332903493
 11
343.2532915002
 21
178.2193498351
  0
LINE
  5
4F6
100
AcDbEntity
  8
0
100
AcDbLine
 62
7
  6
CONTINUOUS
 10
332.7637074119
 20
177.837924785
 11
333.7532903678
 21
178.0239842708
  0
LINE
  5
4F7
100
AcDbEntity
  8
0
100
AcDbLine
 62
7
  6
CONTINUOUS
 10
332.7637074119
 20
178.0332903493
 11
333.7532903678
 21
178.2193498351
  0
LINE
  5
4F8
100
AcDbEntity
  8
0
100
AcDbLine
 62
7
  6
CONTINUOUS
 10
319.7012074119
 20
177.837924785
 11
320.8887074119
 21
177.837924785
  0
LINE
  5
4F9
100
AcDbEntity
  8
0
100
AcDbLine
 62
7
  6
CONTINUOUS
 10
325.8366238898
 20
177.837924785
 11
327.222040934
 21
177.837924785
  0
LINE
  5
4FA
100
AcDbEntity
  8
0
100
AcDbLine
 62
7
  6
CONTINUOUS
 10
331.9720403678
 20
177.837924785
 11
332.7637074119
 21
177.837924785
  0
LINE
  5
4FB
100
AcDbEntity
  8
0
100
AcDbLine
 62
7
  6
CONTINUOUS
 10
337.5137074119
 20
177.837924785
 11
342.2637074119
 21
177.837924785
  0
LINE
  5
4FC
100
AcDbEntity
  8
0
100
AcDbLine
 62
7
  6
CONTINUOUS
 10
319.7012074119
 20
178.0332903493
 11
320.8887074119
 21
178.0332903493
  0
LINE
  5
4FD
100
AcDbEntity
  8
0
100
AcDbLine
 62
7
  6
CONTINUOUS
 10
325.8366238898
 20
178.0332903493
 11
327.222040934
 21
178.0332903493
  0
LINE
  5
4FE
100
AcDbEntity
  8
0
100
AcDbLine
 62
7
  6
CONTINUOUS
 10
331.9720403678
 20
178.0332903493
 11
332.7637074119
 21
178.0332903493
  0
LINE
  5
4FF
100
AcDbEntity
  8
0
100
AcDbLine
 62
7
  6
CONTINUOUS
 10
337.5137074119
 20
178.0332903493
 11
342.2637074119
 21
178.0332903493
  0
LINE
  5
500
100
AcDbEntity
  8
0
100
AcDbLine
 62
7
  6
CONTINUOUS
 10
330.9824574119
 20
178.0239842708
 11
331.9720403678
 21
177.837924785
  0
LINE
  5
501
100
AcDbEntity
  8
0
100
AcDbLine
 62
7
  6
CONTINUOUS
 10
330.9824574119
 20
178.2193498351
 11
331.9720403678
 21
178.0332903493
  0
LINE
  5
502
100
AcDbEntity
  8
0
100
AcDbLine
 62
7
  6
CONTINUOUS
 10
331.9720403678
 20
179.1496472965
 11
331.1803744561
 21
179.3357067659
  0
LINE
  5
503
100
AcDbEntity
  8
0
100
AcDbLine
 62
7
  6
CONTINUOUS
 10
330.1907903678
 20
178.3961032586
 11
330.9824574119
 21
178.0239842708
  0
LINE
  5
504
100
AcDbEntity
  8
0
100
AcDbLine
 62
7
  6
CONTINUOUS
 10
330.1907903678
 20
178.5914688229
 11
330.9824574119
 21
178.2193498351
  0
LINE
  5
505
100
AcDbEntity
  8
0
100
AcDbLine
 62
7
  6
CONTINUOUS
 10
331.1803744561
 20
179.3357067659
 11
330.5866244561
 21
179.7078258352
  0
LINE
  5
506
100
AcDbEntity
  8
0
100
AcDbLine
 62
7
  6
CONTINUOUS
 10
326.2324574119
 20
186.0338485792
 11
325.440790934
 21
186.5920269876
  0
LINE
  5
507
100
AcDbEntity
  8
0
100
AcDbLine
 62
7
  6
CONTINUOUS
 10
325.2428738898
 20
185.6617296402
 11
325.6387074119
 21
185.2896107013
  0
LINE
  5
508
100
AcDbEntity
  8
0
100
AcDbLine
 62
7
  6
CONTINUOUS
 10
343.6491233236
 20
185.1035512318
 11
344.0449574119
 21
184.5453723022
  0
LINE
  5
509
100
AcDbEntity
  8
0
100
AcDbLine
 62
7
  6
CONTINUOUS
 10
345.2324574119
 20
184.7314322929
 11
344.8366233236
 21
185.4756701708
  0
LWPOLYLINE
  5
50A
100
AcDbEntity
  8
RUNDUNGEN
100
AcDbPolyline
 62
7
  6
CONTINUOUS
 90
3
 70
0
 10
361.5153061691
 20
228.2392076735
 10
361.5120363931
 20
228.270185614
 10
361.4880746898
 20
228.4445821542
  0
LINE
  5
50B
100
AcDbEntity
  8
RUNDUNGEN
100
AcDbLine
 62
7
  6
CONTINUOUS
 10
361.522031597
 20
228.166361388
 11
361.5153528985
 21
228.2392301642
  0
LWPOLYLINE
  5
50C
100
AcDbEntity
  8
RUNDUNGEN
100
AcDbPolyline
 62
7
  6
CONTINUOUS
 90
3
 70
0
 10
361.5323554161
 20
228.0197380004
 10
361.5280119822
 20
228.0877351905
 10
361.522031597
 20
228.166361388
  0
LINE
  5
50D
100
AcDbEntity
  8
RUNDUNGEN
100
AcDbLine
 62
7
  6
CONTINUOUS
 10
361.5323596191
 20
228.0196815492
 11
361.5323825441
 21
228.0192819924
  0
LINE
  5
50E
100
AcDbEntity
  8
RUNDUNGEN
100
AcDbLine
 62
7
  6
CONTINUOUS
 10
361.5477991032
 20
227.7262545644
 11
361.5323596191
 21
228.0196815492
  0
LINE
  5
50F
100
AcDbEntity
  8
RUNDUNGEN
100
AcDbLine
 62
7
  6
CONTINUOUS
 10
361.5597190961
 20
227.4080548224
 11
361.5477991032
 21
227.7262545644
  0
LWPOLYLINE
  5
510
100
AcDbEntity
  8
RUNDUNGEN
100
AcDbPolyline
 62
7
  6
CONTINUOUS
 90
6
 70
0
 10
352.6702217527
 20
52.786160283
 10
352.7157566226
 20
53.135879802
 10
352.7600018674
 20
53.5014300511
 10
352.8033413571
 20
53.8851613983
 10
352.8461494855
 20
54.2899671097
 10
352.8628073642
 20
54.4545622262
  0
LINE
  5
511
100
AcDbEntity
  8
0
100
AcDbLine
 62
7
  6
CONTINUOUS
 10
346.3801339909
 20
43.6419815917
 11
345.8330832574
 21
40.5090919286
  0
LINE
  5
512
100
AcDbEntity
  8
0
100
AcDbLine
 62
7
  6
CONTINUOUS
 10
342.1445957357
 20
19.3855951083
 11
340.2798592765
 21
8.7064876328
  0
LINE
  5
513
100
AcDbEntity
  8
RUNDUNGEN
100
AcDbLine
 62
7
  6
CONTINUOUS
 10
340.2798578141
 20
8.7064792579
 11
340.2798458423
 21
8.7064108011
  0
LINE
  5
514
100
AcDbEntity
  8
0
100
AcDbLine
 62
7
  6
CONTINUOUS
 10
341.8672501254
 20
33.8659333767
 11
341.9191907045
 21
34.1117145069
  0
LINE
  5
515
100
AcDbEntity
  8
0
100
AcDbLine
 62
7
  6
CONTINUOUS
 10
342.3805475337
 20
51.5141104817
 11
342.2765212947
 21
51.1661753521
  0
LINE
  5
516
100
AcDbEntity
  8
0
100
AcDbLine
 62
7
  6
CONTINUOUS
 10
342.3015535653
 20
50.5903028127
 11
342.3535614865
 21
50.7642702556
  0
LINE
  5
517
100
AcDbEntity
  8
0
100
AcDbLine
 62
7
  6
CONTINUOUS
 10
342.0378762162
 20
53.4014182195
 11
341.907845531
 21
53.009245456
  0
LINE
  5
518
100
AcDbEntity
  8
0
100
AcDbLine
 62
7
  6
CONTINUOUS
 10
342.135039295
 20
79.1365740009
 11
342.2577557849
 21
79.4907105872
  0
LINE
  5
519
100
AcDbEntity
  8
0
100
AcDbLine
 62
7
  6
CONTINUOUS
 10
342.4284984201
 20
97.7909816099
 11
341.6938849718
 21
96.5063946498
  0
LINE
  5
51A
100
AcDbEntity
  8
0
100
AcDbLine
 62
7
  6
CONTINUOUS
 10
341.6852523313
 20
95.6540107171
 11
341.7909990575
 21
95.8389254716
  0
LINE
  5
51B
100
AcDbEntity
  8
0
100
AcDbLine
 62
7
  6
CONTINUOUS
 10
341.9391978769
 20
96.0980743769
 11
342.3096949946
 21
96.7459467611
  0
LINE
  5
51C
100
AcDbEntity
  8
0
100
AcDbLine
 62
7
  6
CONTINUOUS
 10
342.1810611358
 20
93.0323087054
 11
342.1069616569
 21
92.9027341317
  0
LINE
  5
51D
100
AcDbEntity
  8
0
100
AcDbLine
 62
7
  6
CONTINUOUS
 10
342.0869574443
 20
92.0304652198
 11
342.1857567265
 21
92.2032312776
  0
LINE
  5
51E
100
AcDbEntity
  8
0
100
AcDbLine
 62
7
  6
CONTINUOUS
 10
342.4644979482
 20
91.4347214624
 11
341.698803944
 21
90.0957852703
  0
LINE
  5
51F
100
AcDbEntity
  8
0
100
AcDbLine
 62
7
  6
CONTINUOUS
 10
341.703499537
 20
89.2667074472
 11
342.4691935411
 21
90.6056436393
  0
LINE
  5
520
100
AcDbEntity
  8
0
100
AcDbLine
 62
7
  6
CONTINUOUS
 10
342.487975904
 20
87.2893339283
 11
341.7222818999
 21
85.9503977362
  0
LINE
  5
521
100
AcDbEntity
  8
0
100
AcDbLine
 62
7
  6
CONTINUOUS
 10
341.7269774906
 20
85.1213203085
 11
342.4926714947
 21
86.4602565006
  0
LINE
  5
522
100
AcDbEntity
  8
0
100
AcDbLine
 62
7
  6
CONTINUOUS
 10
342.4989322808
 20
85.3548201938
 11
341.7203756068
 21
83.9933916037
  0
LINE
  5
523
100
AcDbEntity
  8
0
100
AcDbLine
 62
7
  6
CONTINUOUS
 10
341.7230156137
 20
83.160719665
 11
342.3554290521
 21
84.2665938608
  0
LINE
  5
524
100
AcDbEntity
  8
0
100
AcDbLine
 62
7
  6
CONTINUOUS
 10
342.2637074119
 20
179.1496472965
 11
338.7012074119
 21
179.1496472965
  0
LINE
  5
525
100
AcDbEntity
  8
0
100
AcDbLine
 62
7
  6
CONTINUOUS
 10
332.7637074119
 20
179.1496472965
 11
331.9720403678
 21
179.1496472965
  0
LINE
  5
526
100
AcDbEntity
  8
0
100
AcDbLine
 62
7
  6
CONTINUOUS
 10
320.8887074119
 20
181.7451741653
 11
324.2532906509
 21
181.7451741653
  0
LINE
  5
527
100
AcDbEntity
  8
0
100
AcDbLine
 62
7
  6
CONTINUOUS
 10
320.8887074119
 20
181.9405397295
 11
324.2532906509
 21
181.9405397295
  0
LINE
  5
528
100
AcDbEntity
  8
0
100
AcDbLine
 62
7
  6
CONTINUOUS
 10
324.6491238898
 20
183.0568965464
 11
320.8887074119
 21
183.0568965464
  0
LINE
  5
529
100
AcDbEntity
  8
0
100
AcDbLine
 62
7
  6
CONTINUOUS
 10
338.7012074119
 20
185.4728394539
 11
342.2637074119
 21
185.4728394539
  0
LINE
  5
52A
100
AcDbEntity
  8
0
100
AcDbLine
 62
7
  6
CONTINUOUS
 10
320.8887074119
 20
185.6610926615
 11
324.6491238898
 21
185.6610926615
  0
LINE
  5
52B
100
AcDbEntity
  8
0
100
AcDbLine
 62
7
  6
CONTINUOUS
 10
338.7012074119
 20
185.6617296402
 11
342.2637074119
 21
185.6617296402
  0
LINE
  5
52C
100
AcDbEntity
  8
0
100
AcDbLine
 62
7
  6
CONTINUOUS
 10
320.8887074119
 20
185.8477891097
 11
324.6491238898
 21
185.8477891097
  0
LINE
  5
52D
100
AcDbEntity
  8
0
100
AcDbLine
 62
7
  6
CONTINUOUS
 10
342.2637074119
 20
186.7780864571
 11
337.5137074119
 21
186.7780864571
  0
LINE
  5
52E
100
AcDbEntity
  8
0
100
AcDbLine
 62
7
  6
CONTINUOUS
 10
335.9303744561
 20
186.7780864571
 11
334.7428744561
 21
186.7780864571
  0
LINE
  5
52F
100
AcDbEntity
  8
0
100
AcDbLine
 62
7
  6
CONTINUOUS
 10
329.9928744561
 20
186.7780864571
 11
328.8053738898
 21
186.7780864571
  0
LINE
  5
530
100
AcDbEntity
  8
0
100
AcDbLine
 62
7
  6
CONTINUOUS
 10
324.4512074119
 20
186.7780864571
 11
319.7012074119
 21
186.7780864571
  0
LINE
  5
531
100
AcDbEntity
  8
0
100
AcDbLine
 62
7
  6
CONTINUOUS
 10
325.440790934
 20
186.5920269876
 11
324.4512074119
 21
186.7780864571
  0
LINE
  5
532
100
AcDbEntity
  8
0
100
AcDbLine
 62
7
  6
CONTINUOUS
 10
343.2532915002
 20
186.5920269876
 11
342.2637074119
 21
186.7780864571
  0
LINE
  5
533
100
AcDbEntity
  8
0
100
AcDbLine
 62
7
  6
CONTINUOUS
 10
342.2637074119
 20
185.6617296402
 11
343.0553733236
 21
185.4756701708
  0
LINE
  5
534
100
AcDbEntity
  8
0
100
AcDbLine
 62
7
  6
CONTINUOUS
 10
324.6491238898
 20
185.8477891097
 11
325.2428738898
 21
185.6617296402
  0
LINE
  5
535
100
AcDbEntity
  8
0
100
AcDbLine
 62
7
  6
CONTINUOUS
 10
344.0449574119
 20
186.2199080487
 11
343.2532915002
 21
186.5920269876
  0
LINE
  5
536
100
AcDbEntity
  8
0
100
AcDbLine
 62
7
  6
CONTINUOUS
 10
343.0553733236
 20
185.4756701708
 11
343.6491233236
 21
185.1035512318
  0
LINE
  5
537
100
AcDbEntity
  8
0
100
AcDbLine
 62
7
  6
CONTINUOUS
 10
344.8366233236
 20
185.4756701708
 11
344.0449574119
 21
186.2199080487
  0
LWPOLYLINE
  5
538
100
AcDbEntity
  8
RUNDUNGEN
100
AcDbPolyline
 62
7
  6
CONTINUOUS
 90
8
 70
0
 10
352.2264195758
 20
50.4456056783
 10
352.3172569565
 20
50.8063971896
 10
352.3938943085
 20
51.1477917408
 10
352.4601441906
 20
51.4761560622
 10
352.5189480527
 20
51.7980165437
 10
352.5727468223
 20
52.1210896302
 10
352.6227673134
 20
52.4487771378
 10
352.6702217527
 20
52.786160283
  0
LINE
  5
539
100
AcDbEntity
  8
0
100
AcDbLine
 62
7
  6
CONTINUOUS
 10
345.8335178512
 20
40.5194576983
 11
345.8308199785
 21
40.5094871319
  0
LWPOLYLINE
  5
53A
100
AcDbEntity
  8
RUNDUNGEN
100
AcDbPolyline
 62
7
  6
CONTINUOUS
 90
10
 70
0
 10
346.3779533897
 20
43.6423623582
 10
346.3777440214
 20
43.6416086612
 10
346.3779393143
 20
43.6422290517
 10
346.3797005144
 20
43.6474701492
 10
346.3840640997
 20
43.6589111769
 10
346.3919131493
 20
43.6766955045
 10
346.4062517494
 20
43.7040549079
 10
346.4304571898
 20
43.7416197461
 10
346.4717097891
 20
43.7912828147
 10
346.5429859636
 20
43.852496155
  0
LINE
  5
53B
100
AcDbEntity
  8
0
100
AcDbLine
 62
7
  6
CONTINUOUS
 10
342.1303437043
 20
79.9656514287
 11
341.7598466211
 21
79.317779105
  0
LINE
  5
53C
100
AcDbEntity
  8
0
100
AcDbLine
 62
7
  6
CONTINUOUS
 10
341.7645422118
 20
78.4887016772
 11
342.135039295
 21
79.1365740009
  0
LINE
  5
53D
100
AcDbEntity
  8
AUSFORMSCHRAEGEN
100
AcDbLine
 62
7
  6
CONTINUOUS
 10
336.373651042
 20
192.8440876332
 11
344.5657894737
 21
194.1415948938
  0
LINE
  5
53E
100
AcDbEntity
  8
BEZUGSACHSEN
100
AcDbLine
 62
7
  6
CONTINUOUS
 10
346.0657894737
 20
192.1837902239
 11
319.0657894737
 21
192.1837902239
  0
LINE
  5
53F
100
AcDbEntity
  8
BEZUGSACHSEN
100
AcDbLine
 62
7
  6
CONTINUOUS
 10
346.0657894737
 20
192.8440876332
 11
319.0657894737
 21
192.8440876332
  0
LINE
  5
540
100
AcDbEntity
  8
0
100
AcDbLine
 62
7
  6
CONTINUOUS
 10
320.5657894737
 20
194.1415948938
 11
328.7579279054
 21
192.8440876332
  0
LINE
  5
541
100
AcDbEntity
  8
RUNDUNGEN
100
AcDbLine
 62
7
  6
CONTINUOUS
 10
361.4437608624
 20
228.6675684922
 11
361.4438045453
 21
228.66738095
  0
LINE
  5
542
100
AcDbEntity
  8
RUNDUNGEN
100
AcDbLine
 62
7
  6
CONTINUOUS
 10
361.4541617058
 20
228.6215247436
 11
361.4438045453
 21
228.66738095
  0
LINE
  5
543
100
AcDbEntity
  8
RUNDUNGEN
100
AcDbLine
 62
7
  6
CONTINUOUS
 10
361.4880746898
 20
228.4445821542
 11
361.4541617058
 21
228.6215247436
  0
LINE
  5
544
100
AcDbEntity
  8
0
100
AcDbLine
 62
7
  6
CONTINUOUS
 10
341.7168196359
 20
85.1149633472
 11
341.7269774906
 21
85.1213203085
  0
LINE
  5
545
100
AcDbEntity
  8
0
100
AcDbLine
 62
7
  6
CONTINUOUS
 10
319.0657894737
 20
202.2409816099
 11
320.5657894737
 21
202.2409816099
  0
LINE
  5
546
100
AcDbEntity
  8
0
100
AcDbLine
 62
7
  6
CONTINUOUS
 10
344.5657894737
 20
202.2409816099
 11
346.0657894737
 21
202.2409816099
  0
LINE
  5
547
100
AcDbEntity
  8
0
100
AcDbLine
 62
7
  6
CONTINUOUS
 10
341.7382793169
 20
78.4722657354
 11
341.7645422118
 21
78.4887016772
  0
LINE
  5
548
100
AcDbEntity
  8
0
100
AcDbLine
 62
7
  6
CONTINUOUS
 10
341.7222818999
 20
85.9503977362
 11
341.7141797924
 21
85.9475837654
  0
LINE
  5
549
100
AcDbEntity
  8
0
100
AcDbLine
 62
7
  6
CONTINUOUS
 10
341.7598466211
 20
79.317779105
 11
341.7355101848
 21
79.30932654
  0
LINE
  5
54A
100
AcDbEntity
  8
0
100
AcDbLine
 62
7
  6
CONTINUOUS
 10
319.0657894737
 20
214.2409816099
 11
320.5657894737
 21
214.2409816099
  0
LINE
  5
54B
100
AcDbEntity
  8
0
100
AcDbLine
 62
7
  6
CONTINUOUS
 10
344.5657894737
 20
214.2409816099
 11
346.0657894737
 21
214.2409816099
  0
LINE
  5
54C
100
AcDbEntity
  8
BEZUGSACHSEN
100
AcDbLine
 62
7
  6
CONTINUOUS
 10
319.0657894737
 20
217.1066825798
 11
346.0657894737
 21
217.1066825798
  0
LINE
  5
54D
100
AcDbEntity
  8
RUNDUNGEN
100
AcDbLine
 62
7
  6
CONTINUOUS
 10
359.3128505639
 20
232.4939205197
 11
358.4372158797
 21
233.3695552039
  0
LINE
  5
54E
100
AcDbEntity
  8
0
100
AcDbLine
 62
7
  6
CONTINUOUS
 10
306.8657894737
 20
227.6674224556
 11
358.2657894737
 21
227.6674224556
  0
LINE
  5
54F
100
AcDbEntity
  8
0
100
AcDbLine
 62
7
  6
CONTINUOUS
 10
346.1330400641
 20
271.5158604778
 11
344.2179768418
 21
273.8999310417
  0
LINE
  5
550
100
AcDbEntity
  8
RUNDUNGEN
100
AcDbLine
 62
7
  6
CONTINUOUS
 10
346.5429859636
 20
43.852496155
 11
346.6377705762
 21
43.9042955893
  0
LWPOLYLINE
  5
551
100
AcDbEntity
  8
RUNDUNGEN
100
AcDbPolyline
 62
7
  6
CONTINUOUS
 90
15
 70
0
 10
346.6377524141
 20
43.9042879488
 10
347.1733271955
 20
44.1439703219
 10
347.9470797395
 20
44.5666949764
 10
348.6325810466
 20
45.0277103676
 10
349.2409167344
 20
45.5181258246
 10
349.7816741794
 20
46.0325043288
 10
350.2580329839
 20
46.5621454942
 10
350.6773393818
 20
47.104391154
 10
351.0386827857
 20
47.6466867029
 10
351.3453786318
 20
48.1801768605
 10
351.6011288861
 20
48.6954121004
 10
351.8106063224
 20
49.1834802943
 10
351.9806353865
 20
49.6404132688
 10
352.1162003682
 20
50.0584272307
 10
352.2264195758
 20
50.4456056783
  0
LINE
  5
552
100
AcDbEntity
  8
BEZUGSACHSEN
100
AcDbLine
 62
7
  6
CENTER
 10
358.5650190067
 20
262.6409816099
 11
306.5665607382
 21
262.6409816099
  0
ARC
  5
553
100
AcDbEntity
  8
0
100
AcDbCircle
 62
7
  6
CONTINUOUS
 10
-263.6600744542
 20
-3.8424162567
 40
308.72
100
AcDbArc
 50
12.1470902399
 51
22.9819754307
  0
ARC
  5
554
100
AcDbEntity
  8
AUSFORMSCHRAEGEN
100
AcDbCircle
 62
7
  6
CONTINUOUS
 10
-180.8862274403
 20
484.7281448415
 40
416.8887740327
100
AcDbArc
 50
300.9156423129
 51
301.1208621459
  0
ARC
  5
555
100
AcDbEntity
  8
0
100
AcDbCircle
 62
7
  6
CONTINUOUS
 10
-15.1957237198
 20
69.6634975554
 40
90.0
100
AcDbArc
 50
16.4719787852
 51
48.7980163043
  0
ARC
  5
556
100
AcDbEntity
  8
RUNDUNGEN
100
AcDbCircle
 62
7
  6
CONTINUOUS
 10
-15.1957237198
 20
69.6634975554
 40
89.5644427891
100
AcDbArc
 50
34.5348780561
 51
48.7555897141
  0
ARC
  5
557
100
AcDbEntity
  8
0
100
AcDbCircle
 62
7
  6
CONTINUOUS
 10
90.1699255458
 20
73.8809816099
 40
26.97
100
AcDbArc
 50
223.5011870653
 51
229.6158176269
  0
ARC
  5
558
100
AcDbEntity
  8
0
100
AcDbCircle
 62
7
  6
CONTINUOUS
 10
59.7376098142
 20
38.1031245023
 40
20.0
100
AcDbArc
 50
29.0
 51
49.6158176269
  0
ARC
  5
559
100
AcDbEntity
  8
0
100
AcDbCircle
 62
7
  6
CONTINUOUS
 10
38.6775973744
 20
91.5089007799
 40
11.48
100
AcDbArc
 50
12.8146302275
 51
69.35
  0
ARC
  5
55A
100
AcDbEntity
  8
0
100
AcDbCircle
 62
7
  6
CONTINUOUS
 10
80.1291425544
 20
30.1931403907
 40
6.0
100
AcDbArc
 50
237.820610007
 51
29.0
  0
ARC
  5
55B
100
AcDbEntity
  8
0
100
AcDbCircle
 62
7
  6
CONTINUOUS
 10
40.9668148568
 20
97.8809816099
 40
4.71
100
AcDbArc
 50
69.35
 51
196.8875534931
  0
ARC
  5
55C
100
AcDbEntity
  8
BEZUGSACHSEN
100
AcDbCircle
 62
7
  6
CONTINUOUS
 10
33.3890884172
 20
165.755339174
 40
15.2016277169
100
AcDbArc
 50
333.3942861449
 51
335.6351826748
  0
ARC
  5
55D
100
AcDbEntity
  8
RUNDUNGEN
100
AcDbCircle
 62
7
  6
CONTINUOUS
 10
-3.1153452744
 20
217.1655896935
 40
114.7309981429
100
AcDbArc
 50
301.7055072559
 51
302.5332890072
  0
ARC
  5
55E
100
AcDbEntity
  8
BEZUGSACHSEN
100
AcDbCircle
 62
7
  6
CONTINUOUS
 10
8.7099461728
 20
203.8180151837
 40
50.0
100
AcDbArc
 50
337.0
 51
20.2501726542
  0
ARC
  5
55F
100
AcDbEntity
  8
BEZUGSACHSEN
100
AcDbCircle
 62
7
  6
CONTINUOUS
 10
6.1722755205
 20
179.3657235984
 40
45.7816666667
100
AcDbArc
 50
334.0842086576
 51
357.8570569549
  0
ARC
  5
560
100
AcDbEntity
  8
BEZUGSACHSEN
100
AcDbCircle
 62
7
  6
CONTINUOUS
 10
9.4099375742
 20
177.5487198207
 40
42.0704842909
100
AcDbArc
 50
315.3087158413
 51
326.127592252
  0
ARC
  5
561
100
AcDbEntity
  8
RUNDUNGEN
100
AcDbCircle
 62
7
  6
CONTINUOUS
 10
60.1236354127
 20
170.7931956348
 40
50.7728220771
100
AcDbArc
 50
251.2653739522
 51
252.0668894675
  0
ARC
  5
562
100
AcDbEntity
  8
0
100
AcDbCircle
 62
7
  6
CONTINUOUS
 10
38.1015446801
 20
123.9856449557
 40
19.0
100
AcDbArc
 50
120.0
 51
202.5651884244
  0
ARC
  5
563
100
AcDbEntity
  8
BEZUGSACHSEN
100
AcDbCircle
 62
7
  6
CONTINUOUS
 10
46.9247867141
 20
158.9711818238
 40
2.0
100
AcDbArc
 50
68.8539379148
 51
237.9929533647
  0
ARC
  5
564
100
AcDbEntity
  8
BEZUGSACHSEN
100
AcDbCircle
 62
7
  6
CONTINUOUS
 10
49.1519541465
 20
164.2180594885
 40
2.0
100
AcDbArc
 50
75.9952401487
 51
245.1459403202
  0
ARC
  5
565
100
AcDbEntity
  8
BEZUGSACHSEN
100
AcDbCircle
 62
7
  6
CONTINUOUS
 10
47.3940170329
 20
161.8681324461
 40
2.0
100
AcDbArc
 50
95.8888129775
 51
218.1111871094
  0
ARC
  5
566
100
AcDbEntity
  8
BEZUGSACHSEN
100
AcDbCircle
 62
7
  6
CONTINUOUS
 10
43.9690300215
 20
154.055299159
 40
2.0
100
AcDbArc
 50
59.3269656953
 51
233.1639815508
  0
ARC
  5
567
100
AcDbEntity
  8
BEZUGSACHSEN
100
AcDbCircle
 62
7
  6
CONTINUOUS
 10
44.9523526323
 20
156.7557577577
 40
2.0
100
AcDbArc
 50
90.378767929
 51
205.9412400265
  0
ARC
  5
568
100
AcDbEntity
  8
BEZUGSACHSEN
100
AcDbCircle
 62
7
  6
CONTINUOUS
 10
50.6349030735
 20
169.7591119589
 40
2.0
100
AcDbArc
 50
80.8364771292
 51
254.6730658369
  0
ARC
  5
569
100
AcDbEntity
  8
BEZUGSACHSEN
100
AcDbCircle
 62
7
  6
CONTINUOUS
 10
49.3754290068
 20
167.1758726988
 40
2.0
100
AcDbArc
 50
108.0587607518
 51
223.6212290206
  0
ARC
  5
56A
100
AcDbEntity
  8
RUNDUNGEN
100
AcDbCircle
 62
7
  6
CONTINUOUS
 10
72.5099255458
 20
208.2409816099
 40
90.1765538845
100
AcDbArc
 50
255.275039214
 51
258.8057331539
  0
ARC
  5
56B
100
AcDbEntity
  8
AUSFORMSCHRAEGEN
100
AcDbCircle
 62
7
  6
CONTINUOUS
 10
72.5099255458
 20
208.2409816099
 40
88.8999224287
100
AcDbArc
 50
244.7447863818
 51
260.9888223592
  0
ARC
  5
56C
100
AcDbEntity
  8
RUNDUNGEN
100
AcDbCircle
 62
7
  6
CONTINUOUS
 10
71.4188260603
 20
204.1674949422
 40
86.006680183
100
AcDbArc
 50
243.6920219274
 51
251.2804111517
  0
ARC
  5
56D
100
AcDbEntity
  8
0
100
AcDbCircle
 62
7
  6
CONTINUOUS
 10
72.5099255458
 20
208.2409816099
 40
16.0
100
AcDbArc
 50
158.6188346985
 51
209.3475929419
  0
ARC
  5
56E
100
AcDbEntity
  8
0
100
AcDbCircle
 62
7
  6
CONTINUOUS
 10
72.5099255458
 20
208.2409816099
 40
16.0
100
AcDbArc
 50
298.7259065687
 51
306.300150194
  0
ARC
  5
56F
100
AcDbEntity
  8
0
100
AcDbCircle
 62
7
  6
CONTINUOUS
 10
73.5935361858
 20
209.9480140602
 40
16.0
100
AcDbArc
 50
29.5
 51
78.0
  0
ARC
  5
570
100
AcDbEntity
  8
RUNDUNGEN
100
AcDbCircle
 62
7
  6
CONTINUOUS
 10
72.5099255458
 20
208.2409816099
 40
14.0993867161
100
AcDbArc
 50
176.9710069323
 51
190.9350904907
  0
ARC
  5
571
100
AcDbEntity
  8
BEZUGSACHSEN
100
AcDbCircle
 62
7
  6
CONTINUOUS
 10
72.5099255458
 20
208.2409816099
 40
14.0
100
AcDbArc
 50
327.5757974311
 51
67.0
  0
CIRCLE
  5
572
100
AcDbEntity
  8
BEZUGSACHSEN
100
AcDbCircle
 62
7
  6
CONTINUOUS
 10
72.5099255458
 20
208.2409816099
 40
6.0
  0
ARC
  5
573
100
AcDbEntity
  8
BEZUGSACHSEN
100
AcDbCircle
 62
7
  6
CONTINUOUS
 10
61.3536504368
 20
221.6674224556
 40
6.0
100
AcDbArc
 50
67.0
 51
135.3
  0
ARC
  5
574
100
AcDbEntity
  8
BEZUGSACHSEN
100
AcDbCircle
 62
7
  6
CONTINUOUS
 10
59.3722219913
 20
222.5084889309
 40
4.0
100
AcDbArc
 50
135.3
 51
200.2501726542
  0
ARC
  5
575
100
AcDbEntity
  8
0
100
AcDbCircle
 62
7
  6
CONTINUOUS
 10
62.7635486999
 20
224.2113258506
 40
3.3347853054
100
AcDbArc
 50
72.4901679458
 51
73.9980466872
  0
ARC
  5
576
100
AcDbEntity
  8
0
100
AcDbCircle
 62
7
  6
CONTINUOUS
 10
62.767361817
 20
224.2229587605
 40
3.3225441548
100
AcDbArc
 50
68.1085674588
 51
72.4925209699
  0
ARC
  5
577
100
AcDbEntity
  8
0
100
AcDbCircle
 62
7
  6
CONTINUOUS
 10
119.6629752008
 20
107.9838438829
 40
102.0
100
AcDbArc
 50
240.9930831496
 51
349.9628763668
  0
ARC
  5
578
100
AcDbEntity
  8
0
100
AcDbCircle
 62
7
  6
CONTINUOUS
 10
119.6629752008
 20
107.9838438829
 40
92.65
100
AcDbArc
 50
277.3033152378
 51
302.7188200092
  0
ARC
  5
579
100
AcDbEntity
  8
0
100
AcDbCircle
 62
7
  6
CONTINUOUS
 10
129.5099255458
 20
106.2409816099
 40
92.0
100
AcDbArc
 50
349.9628763668
 51
51.0
  0
ARC
  5
57A
100
AcDbEntity
  8
0
100
AcDbCircle
 62
7
  6
CONTINUOUS
 10
122.4099255458
 20
106.2409816099
 40
86.39
100
AcDbArc
 50
333.0849950865
 51
351.7754731439
  0
ARC
  5
57B
100
AcDbEntity
  8
0
100
AcDbCircle
 62
7
  6
CONTINUOUS
 10
130.8336132782
 20
112.4709816099
 40
83.03
100
AcDbArc
 50
192.8146302275
 51
223.5011870653
  0
ARC
  5
57C
100
AcDbEntity
  8
0
100
AcDbCircle
 62
7
  6
CONTINUOUS
 10
127.6199255458
 20
105.9675823023
 40
81.51
100
AcDbArc
 50
9.3543607736
 51
36.0842081302
  0
ARC
  5
57D
100
AcDbEntity
  8
0
100
AcDbCircle
 62
7
  6
CONTINUOUS
 10
108.5099255458
 20
87.8689368885
 40
79.0
100
AcDbArc
 50
236.1540391786
 51
240.9930831496
  0
ARC
  5
57E
100
AcDbEntity
  8
0
100
AcDbCircle
 62
7
  6
CONTINUOUS
 10
115.9499255458
 20
87.1209816099
 40
73.26
100
AcDbArc
 50
197.1514477796
 51
237.820610007
  0
ARC
  5
57F
100
AcDbEntity
  8
0
100
AcDbCircle
 62
7
  6
CONTINUOUS
 10
108.5099255458
 20
106.2409816099
 40
69.85
100
AcDbArc
 50
315.6733958283
 51
327.9701088474
  0
ARC
  5
580
100
AcDbEntity
  8
0
100
AcDbCircle
 62
7
  6
CONTINUOUS
 10
99.4147356724
 20
74.306252008
 40
62.67
100
AcDbArc
 50
192.1470902399
 51
236.1540391786
  0
ARC
  5
581
100
AcDbEntity
  8
0
100
AcDbCircle
 62
7
  6
CONTINUOUS
 10
113.6305382155
 20
93.6809816099
 40
53.26
100
AcDbArc
 50
257.7530039249
 51
273.3035614741
  0
ARC
  5
582
100
AcDbEntity
  8
0
100
AcDbCircle
 62
7
  6
CONTINUOUS
 10
108.5099255458
 20
106.2409816099
 40
39.0
100
AcDbArc
 50
196.4719787852
 51
37.5
  0
ARC
  5
583
100
AcDbEntity
  8
0
100
AcDbCircle
 62
7
  6
CONTINUOUS
 10
182.6755845137
 20
118.2409816099
 40
6.0
100
AcDbArc
 50
169.5
 51
270.0
  0
ARC
  5
584
100
AcDbEntity
  8
0
100
AcDbCircle
 62
7
  6
CONTINUOUS
 10
202.1257895394
 20
118.2409816099
 40
6.0
100
AcDbArc
 50
270.0
 51
9.3543607736
  0
ARC
  5
585
100
AcDbEntity
  8
0
100
AcDbCircle
 62
7
  6
CONTINUOUS
 10
201.973121183
 20
94.7409816099
 40
6.0
100
AcDbArc
 50
351.7754731439
 51
90.0
  0
ARC
  5
586
100
AcDbEntity
  8
0
100
AcDbCircle
 62
7
  6
CONTINUOUS
 10
183.0102594313
 20
94.7409816099
 40
6.0
100
AcDbArc
 50
90.0
 51
204.0
  0
ARC
  5
587
100
AcDbEntity
  8
0
100
AcDbCircle
 62
7
  6
CONTINUOUS
 10
172.8133955196
 20
66.013052887
 40
6.0
100
AcDbArc
 50
24.0
 51
147.9701088474
  0
ARC
  5
588
100
AcDbEntity
  8
0
100
AcDbCircle
 62
7
  6
CONTINUOUS
 10
162.7706157368
 20
53.2409816099
 40
6.0
100
AcDbArc
 50
135.6733958283
 51
270.0
  0
ARC
  5
589
100
AcDbEntity
  8
0
100
AcDbCircle
 62
7
  6
CONTINUOUS
 10
178.499888023
 20
53.2409816099
 40
6.0
100
AcDbArc
 50
270.0
 51
24.0
  0
ARC
  5
58A
100
AcDbEntity
  8
0
100
AcDbCircle
 62
7
  6
CONTINUOUS
 10
101.0599255458
 20
35.7696071045
 40
6.0
100
AcDbArc
 50
77.7530039249
 51
209.0
  0
ARC
  5
58B
100
AcDbEntity
  8
0
100
AcDbCircle
 62
7
  6
CONTINUOUS
 10
108.5099255458
 20
22.3294513277
 40
6.0
100
AcDbArc
 50
209.0
 51
325.0
  0
ARC
  5
58C
100
AcDbEntity
  8
0
100
AcDbCircle
 62
7
  6
CONTINUOUS
 10
117.0454599074
 20
34.5194577127
 40
6.0
100
AcDbArc
 50
325.0
 51
93.3035614741
  0
ARC
  5
58D
100
AcDbEntity
  8
0
100
AcDbCircle
 62
7
  6
CONTINUOUS
 10
140.5657530781
 20
33.2409816099
 40
6.0
100
AcDbArc
 50
90.0
 51
145.0
  0
ARC
  5
58E
100
AcDbEntity
  8
0
100
AcDbCircle
 62
7
  6
CONTINUOUS
 10
194.0920014086
 20
69.8509816099
 40
6.0
100
AcDbArc
 50
204.0
 51
333.0849950865
  0
ARC
  5
58F
100
AcDbEntity
  8
0
100
AcDbCircle
 62
7
  6
CONTINUOUS
 10
167.039264247
 20
34.2409816099
 40
5.0
100
AcDbArc
 50
302.7188200092
 51
90.0
  0
ARC
  5
590
100
AcDbEntity
  8
0
100
AcDbCircle
 62
7
  6
CONTINUOUS
 10
130.8052186061
 20
21.0449405547
 40
5.0
100
AcDbArc
 50
145.0
 51
277.3033152378
  0
ARC
  5
591
100
AcDbEntity
  8
0
100
AcDbCircle
 62
7
  6
CONTINUOUS
 10
161.322038579
 20
192.7210347066
 40
45.34
100
AcDbArc
 50
148.5971720484
 51
162.7549759483
  0
ARC
  5
592
100
AcDbEntity
  8
0
100
AcDbCircle
 62
7
  6
CONTINUOUS
 10
188.6435017605
 20
150.4409816099
 40
6.0
100
AcDbArc
 50
36.0842081302
 51
169.5
  0
ARC
  5
593
100
AcDbEntity
  8
0
100
AcDbCircle
 62
7
  6
CONTINUOUS
 10
113.0444787217
 20
207.7070186323
 40
5.21
100
AcDbArc
 50
209.5
 51
342.7549759483
  0
ARC
  5
594
100
AcDbEntity
  8
0
100
AcDbCircle
 62
7
  6
CONTINUOUS
 10
108.0099255458
 20
216.1790991156
 40
5.0
100
AcDbArc
 50
88.8540080016
 51
209.5
  0
ARC
  5
595
100
AcDbEntity
  8
0
100
AcDbCircle
 62
7
  6
CONTINUOUS
 10
118.6799255458
 20
218.7527806347
 40
4.62
100
AcDbArc
 50
328.5971720484
 51
114.3983873635
  0
ARC
  5
596
100
AcDbEntity
  8
RUNDUNGEN
100
AcDbCircle
 62
7
  6
CONTINUOUS
 10
86.6231633843
 20
261.9335353335
 40
145.692982126
100
AcDbArc
 50
254.2940332233
 51
255.2741810488
  0
ARC
  5
597
100
AcDbEntity
  8
RUNDUNGEN
100
AcDbCircle
 62
7
  6
CONTINUOUS
 10
-9.4802961416
 20
265.2343929148
 40
105.6289033303
100
AcDbArc
 50
358.0134236871
 51
0.0035738743
  0
ARC
  5
598
100
AcDbEntity
  8
RUNDUNGEN
100
AcDbCircle
 62
7
  6
CONTINUOUS
 10
225.2663374607
 20
265.2130397535
 40
104.3950970916
100
AcDbArc
 50
179.9846645053
 51
181.9983379333
  0
ARC
  5
599
100
AcDbEntity
  8
0
100
AcDbCircle
 62
7
  6
CONTINUOUS
 10
108.5099255458
 20
338.2409816099
 40
56.0
100
AcDbArc
 50
237.0647695028
 51
260.2848506279
  0
ARC
  5
59A
100
AcDbEntity
  8
0
100
AcDbCircle
 62
7
  6
CONTINUOUS
 10
108.5099255458
 20
338.2409816099
 40
56.0
100
AcDbArc
 50
279.7151493721
 51
302.9184327244
  0
ARC
  5
59B
100
AcDbEntity
  8
0
100
AcDbCircle
 62
7
  6
CONTINUOUS
 10
108.5099255458
 20
241.1740986155
 40
20.0
100
AcDbArc
 50
268.8540080016
 51
294.3983873635
  0
ARC
  5
59C
100
AcDbEntity
  8
0
100
AcDbCircle
 62
7
  6
CONTINUOUS
 10
108.5099255458
 20
241.6909816099
 40
9.45
100
AcDbArc
 50
180.0
 51
360.0
  0
CIRCLE
  5
59D
100
AcDbEntity
  8
BEZUGSACHSEN
100
AcDbCircle
 62
7
  6
CONTINUOUS
 10
80.2099255458
 20
262.6409816099
 40
3.0
  0
ARC
  5
59E
100
AcDbEntity
  8
0
100
AcDbCircle
 62
7
  6
CONTINUOUS
 10
6770.9390832174
 20
2141.0060781217
 40
7037.98
100
AcDbArc
 50
196.8875534931
 51
197.1514477796
  0
ARC
  5
59F
100
AcDbEntity
  8
0
100
AcDbCircle
 62
7
  6
CONTINUOUS
 10
-1132.1976636233
 20
53.0495428428
 40
1473.9582086699
100
AcDbArc
 50
359.2780173115
 51
359.459084466
  0
ARC
  5
5A0
100
AcDbEntity
  8
0
100
AcDbCircle
 62
7
  6
CONTINUOUS
 10
-445.0616197708
 20
43.1163264103
 40
786.7489925739
100
AcDbArc
 50
358.6889087839
 51
359.0516060793
  0
ARC
  5
5A1
100
AcDbEntity
  8
0
100
AcDbCircle
 62
7
  6
CONTINUOUS
 10
-460.4295122624
 20
63.0378030311
 40
772.7069320532
100
AcDbArc
 50
359.4178082491
 51
359.554256699
  0
ARC
  5
5A2
100
AcDbEntity
  8
BEZUGSACHSEN
100
AcDbCircle
 62
7
  6
CONTINUOUS
 10
-370.7531267648
 20
62.8615168416
 40
723.1525371665
100
AcDbArc
 50
359.2293895385
 51
359.356150713
  0
ARC
  5
5A3
100
AcDbEntity
  8
0
100
AcDbCircle
 62
7
  6
CONTINUOUS
 10
-358.3475779718
 20
-83.3864623287
 40
688.8854230342
100
AcDbArc
 50
9.5645653966
 51
9.7076216355
  0
ARC
  5
5A4
100
AcDbEntity
  8
0
100
AcDbCircle
 62
7
  6
CONTINUOUS
 10
-81.2197937703
 20
71.2439101779
 40
396.0239088032
100
AcDbArc
 50
358.4091873792
 51
358.6177043687
  0
ARC
  5
5A5
100
AcDbEntity
  8
0
100
AcDbCircle
 62
7
  6
CONTINUOUS
 10
-3.0069333953
 20
64.9784238949
 40
344.7900700107
100
AcDbArc
 50
0.0894521003
 51
0.2092797028
  0
ARC
  5
5A6
100
AcDbEntity
  8
0
100
AcDbCircle
 62
7
  6
CONTINUOUS
 10
22.5724618488
 20
76.2441397575
 40
320.3950673836
100
AcDbArc
 50
357.5774836832
 51
357.7004431202
  0
ARC
  5
5A7
100
AcDbEntity
  8
0
100
AcDbCircle
 62
7
  6
CONTINUOUS
 10
43.1027309672
 20
63.2635035151
 40
299.3914971514
100
AcDbArc
 50
357.0763233494
 51
357.1988337656
  0
ARC
  5
5A8
100
AcDbEntity
  8
0
100
AcDbCircle
 62
7
  6
CONTINUOUS
 10
59.0726030546
 20
64.3548441686
 40
283.923674798
100
AcDbArc
 50
357.070233849
 51
357.1994190548
  0
ARC
  5
5A9
100
AcDbEntity
  8
0
100
AcDbCircle
 62
7
  6
CONTINUOUS
 10
62.2013937577
 20
67.4056754348
 40
280.50530672
100
AcDbArc
 50
0.0387812364
 51
0.1973283971
  0
ARC
  5
5AA
100
AcDbEntity
  8
0
100
AcDbCircle
 62
7
  6
CONTINUOUS
 10
65.6906401214
 20
63.395599164
 40
276.7076458521
100
AcDbArc
 50
359.4945425451
 51
359.6514627415
  0
ARC
  5
5AB
100
AcDbEntity
  8
0
100
AcDbCircle
 62
7
  6
CONTINUOUS
 10
70.9141851924
 20
63.7251584115
 40
271.6401309594
100
AcDbArc
 50
359.8587915619
 51
0.0186346688
  0
ARC
  5
5AC
100
AcDbEntity
  8
0
100
AcDbCircle
 62
7
  6
CONTINUOUS
 10
75.4898573815
 20
64.0580477073
 40
267.2204980314
100
AcDbArc
 50
359.9377008977
 51
0.1001887462
  0
ARC
  5
5AD
100
AcDbEntity
  8
0
100
AcDbCircle
 62
7
  6
CONTINUOUS
 10
80.8510478825
 20
57.4835431609
 40
261.2021727886
100
AcDbArc
 50
359.5807884346
 51
0.1545537346
  0
ARC
  5
5AE
100
AcDbEntity
  8
0
100
AcDbCircle
 62
7
  6
CONTINUOUS
 10
84.8896749362
 20
57.8967125463
 40
257.3195852273
100
AcDbArc
 50
359.457900476
 51
0.0402808572
  0
ARC
  5
5AF
100
AcDbEntity
  8
0
100
AcDbCircle
 62
7
  6
CONTINUOUS
 10
94.0104993816
 20
58.7904954578
 40
248.5368448807
100
AcDbArc
 50
359.4665989207
 51
0.1623964894
  0
ARC
  5
5B0
100
AcDbEntity
  8
0
100
AcDbCircle
 62
7
  6
CONTINUOUS
 10
97.9509529941
 20
59.2043679127
 40
244.7524321867
100
AcDbArc
 50
359.3168209965
 51
359.9950201491
  0
ARC
  5
5B1
100
AcDbEntity
  8
0
100
AcDbCircle
 62
7
  6
CONTINUOUS
 10
98.3114777911
 20
59.2027771413
 40
244.3919072579
100
AcDbArc
 50
359.9953857468
 51
0.3350531103
  0
ARC
  5
5B2
100
AcDbEntity
  8
0
100
AcDbCircle
 62
7
  6
CONTINUOUS
 10
98.3230280681
 20
53.2906940494
 40
243.5849817339
100
AcDbArc
 50
359.5527945309
 51
359.7432821934
  0
ARC
  5
5B3
100
AcDbEntity
  8
0
100
AcDbCircle
 62
7
  6
CONTINUOUS
 10
98.5920056852
 20
53.2894337561
 40
243.3160011699
100
AcDbArc
 50
359.743295171
 51
359.9340215582
  0
ARC
  5
5B4
100
AcDbEntity
  8
0
100
AcDbCircle
 62
7
  6
CONTINUOUS
 10
101.530499151
 20
53.682902852
 40
240.5075435241
100
AcDbArc
 50
359.5470635646
 51
359.739988347
  0
ARC
  5
5B5
100
AcDbEntity
  8
0
100
AcDbCircle
 62
7
  6
CONTINUOUS
 10
101.8029299499
 20
53.6816100067
 40
240.2351096635
100
AcDbArc
 50
359.7400018291
 51
359.9331745867
  0
ARC
  5
5B6
100
AcDbEntity
  8
0
100
AcDbCircle
 62
7
  6
CONTINUOUS
 10
153.7894341588
 20
45.5512653728
 40
188.1829311197
100
AcDbArc
 50
359.18438983
 51
359.7639790359
  0
ARC
  5
5B7
100
AcDbEntity
  8
0
100
AcDbCircle
 62
7
  6
CONTINUOUS
 10
156.1494849406
 20
46.1513379154
 40
185.9789659035
100
AcDbArc
 50
358.8792132695
 51
359.4654171508
  0
ARC
  5
5B8
100
AcDbEntity
  8
0
100
AcDbCircle
 62
7
  6
CONTINUOUS
 10
164.3403088033
 20
48.0533910544
 40
178.2825311937
100
AcDbArc
 50
358.625405188
 51
358.822035562
  0
ARC
  5
5B9
100
AcDbEntity
  8
0
100
AcDbCircle
 62
7
  6
CONTINUOUS
 10
166.8717242931
 20
48.0152312858
 40
175.7507972126
100
AcDbArc
 50
359.7481856479
 51
359.9475997533
  0
ARC
  5
5BA
100
AcDbEntity
  8
0
100
AcDbCircle
 62
7
  6
CONTINUOUS
 10
-1083.731561437
 20
208.6725889118
 40
1443.2538856782
100
AcDbArc
 50
357.9785365619
 51
358.1781889029
  0
ARC
  5
5BB
100
AcDbEntity
  8
0
100
AcDbCircle
 62
7
  6
CONTINUOUS
 10
-808.1829475946
 20
226.6990002483
 40
1168.8421493688
100
AcDbArc
 50
349.7837031052
 51
350.0888776348
  0
ARC
  5
5BC
100
AcDbEntity
  8
0
100
AcDbCircle
 62
7
  6
CONTINUOUS
 10
-602.9493698042
 20
265.7131197915
 40
958.5146614804
100
AcDbArc
 50
359.9956791061
 51
0.1804883616
  0
ARC
  5
5BD
100
AcDbEntity
  8
0
100
AcDbCircle
 62
7
  6
CONTINUOUS
 10
-593.9206254343
 20
189.2657273933
 40
951.3344653859
100
AcDbArc
 50
350.0886195585
 51
350.428409835
  0
ARC
  5
5BE
100
AcDbEntity
  8
0
100
AcDbCircle
 62
7
  6
CONTINUOUS
 10
-552.203593842
 20
160.303763208
 40
905.1785901081
100
AcDbArc
 50
351.0460087517
 51
351.9062505933
  0
ARC
  5
5BF
100
AcDbEntity
  8
0
100
AcDbCircle
 62
7
  6
CONTINUOUS
 10
170.7394507469
 20
41.5182936237
 40
173.5523949325
100
AcDbArc
 50
7.8097606819
 51
7.9411544989
  0
ARC
  5
5C0
100
AcDbEntity
  8
BEZUGSACHSEN
100
AcDbCircle
 62
7
  6
CONTINUOUS
 10
206.6624048088
 20
62.855774112
 40
144.4095237122
100
AcDbArc
 50
357.741932277
 51
358.1984610029
  0
ARC
  5
5C1
100
AcDbEntity
  8
0
100
AcDbCircle
 62
7
  6
CONTINUOUS
 10
188.6539684775
 20
58.6836537394
 40
131.6604338001
100
AcDbArc
 50
357.6728157756
 51
358.5341590301
  0
ARC
  5
5C2
100
AcDbEntity
  8
0
100
AcDbCircle
 62
7
  6
CONTINUOUS
 10
191.1917954692
 20
58.6836537393
 40
131.6604337979
100
AcDbArc
 50
357.6728157756
 51
358.5341590301
  0
ARC
  5
5C3
100
AcDbEntity
  8
0
100
AcDbCircle
 62
7
  6
CONTINUOUS
 10
219.0013291515
 20
40.8799572696
 40
123.5083151169
100
AcDbArc
 50
358.4995223607
 51
358.7346874743
  0
ARC
  5
5C4
100
AcDbEntity
  8
0
100
AcDbCircle
 62
7
  6
CONTINUOUS
 10
236.7018641707
 20
25.4917900357
 40
113.2279021731
100
AcDbArc
 50
20.6895000777
 51
20.8428051833
  0
ARC
  5
5C5
100
AcDbEntity
  8
0
100
AcDbCircle
 62
7
  6
CONTINUOUS
 10
239.4981310545
 20
38.3465778148
 40
102.9557714708
100
AcDbArc
 50
358.4260542444
 51
358.5402073352
  0
ARC
  5
5C6
100
AcDbEntity
  8
0
100
AcDbCircle
 62
7
  6
CONTINUOUS
 10
265.4194021253
 20
37.0063874218
 40
78.5470355355
100
AcDbArc
 50
10.5513531096
 51
10.7502243081
  0
ARC
  5
5C7
100
AcDbEntity
  8
0
100
AcDbCircle
 62
7
  6
CONTINUOUS
 10
289.6915888136
 20
66.0815339395
 40
59.9816099842
100
AcDbArc
 50
330.8970356545
 51
331.2361672046
  0
ARC
  5
5C8
100
AcDbEntity
  8
0
100
AcDbCircle
 62
7
  6
CONTINUOUS
 10
291.18963667
 20
66.2648896724
 40
58.4889023191
100
AcDbArc
 50
330.9249485385
 51
331.2726268856
  0
ARC
  5
5C9
100
AcDbEntity
  8
0
100
AcDbCircle
 62
7
  6
CONTINUOUS
 10
291.6124132998
 20
34.5140999663
 40
53.3997268247
100
AcDbArc
 50
17.7384172082
 51
17.8863408178
  0
ARC
  5
5CA
100
AcDbEntity
  8
0
100
AcDbCircle
 62
7
  6
CONTINUOUS
 10
297.3785563823
 20
56.8389647644
 40
50.3102918613
100
AcDbArc
 50
331.8425079394
 51
331.9612824237
  0
ARC
  5
5CB
100
AcDbEntity
  8
0
100
AcDbCircle
 62
7
  6
CONTINUOUS
 10
293.6448268587
 20
30.5757583541
 40
48.4316811584
100
AcDbArc
 50
3.6210834822
 51
3.9031969548
  0
ARC
  5
5CC
100
AcDbEntity
  8
0
100
AcDbCircle
 62
7
  6
CONTINUOUS
 10
296.2140848421
 20
32.8757381106
 40
46.2940901898
100
AcDbArc
 50
3.5270443693
 51
3.8514369048
  0
ARC
  5
5CD
100
AcDbEntity
  8
0
100
AcDbCircle
 62
7
  6
CONTINUOUS
 10
322.04805761
 20
29.169491781
 40
30.4565358189
100
AcDbArc
 50
47.5925133054
 51
47.8552995241
  0
ARC
  5
5CE
100
AcDbEntity
  8
0
100
AcDbCircle
 62
7
  6
CONTINUOUS
 10
318.460336241
 20
28.6386271476
 40
23.8127634256
100
AcDbArc
 50
10.8350405006
 51
11.0551449454
  0
ARC
  5
5CF
100
AcDbEntity
  8
0
100
AcDbCircle
 62
7
  6
CONTINUOUS
 10
319.9576366079
 20
30.9803803835
 40
22.7276947829
100
AcDbArc
 50
10.7102216191
 51
10.9407413107
  0
ARC
  5
5D0
100
AcDbEntity
  8
0
100
AcDbCircle
 62
7
  6
CONTINUOUS
 10
337.3053044898
 20
48.4174874096
 40
15.249886675
100
AcDbArc
 50
287.4696096295
 51
287.7819685865
  0
ARC
  5
5D1
100
AcDbEntity
  8
0
100
AcDbCircle
 62
7
  6
CONTINUOUS
 10
339.0387620121
 20
21.1624359257
 40
15.1999822221
100
AcDbArc
 50
77.2103292489
 51
77.4818211161
  0
ARC
  5
5D2
100
AcDbEntity
  8
0
100
AcDbCircle
 62
7
  6
CONTINUOUS
 10
337.1949556458
 20
47.6268158164
 40
15.1488952497
100
AcDbArc
 50
287.6333779723
 51
287.7899639349
  0
ARC
  5
5D3
100
AcDbEntity
  8
0
100
AcDbCircle
 62
7
  6
CONTINUOUS
 10
337.8842013855
 20
48.8774300785
 40
14.2746521817
100
AcDbArc
 50
287.7042543135
 51
287.8697500051
  0
ARC
  5
5D4
100
AcDbEntity
  8
0
100
AcDbCircle
 62
7
  6
CONTINUOUS
 10
324.543521327
 20
58.2700286177
 40
12.5540758531
100
AcDbArc
 50
185.7932447339
 51
187.7936513621
  0
ARC
  5
5D5
100
AcDbEntity
  8
BEZUGSACHSEN
100
AcDbCircle
 62
7
  6
CONTINUOUS
 10
340.5880576204
 20
58.2700286177
 40
12.5540758531
100
AcDbArc
 50
352.2063486379
 51
354.2067552661
  0
ARC
  5
5D6
100
AcDbEntity
  8
0
100
AcDbCircle
 62
7
  6
CONTINUOUS
 10
323.2137282393
 20
58.1317682114
 40
11.2171191548
100
AcDbArc
 50
184.2026907415
 51
185.7762544961
  0
ARC
  5
5D7
100
AcDbEntity
  8
BEZUGSACHSEN
100
AcDbCircle
 62
7
  6
CONTINUOUS
 10
341.9178523595
 20
58.1317680597
 40
11.2171174964
100
AcDbArc
 50
354.2237454258
 51
355.7973165157
  0
ARC
  5
5D8
100
AcDbEntity
  8
BEZUGSACHSEN
100
AcDbCircle
 62
7
  6
CONTINUOUS
 10
341.2312560927
 20
55.0207274132
 40
10.7875225168
100
AcDbArc
 50
22.8458240354
 51
26.3885499203
  0
ARC
  5
5D9
100
AcDbEntity
  8
0
100
AcDbCircle
 62
7
  6
CONTINUOUS
 10
321.890684739
 20
58.0460845815
 40
9.8913606344
100
AcDbArc
 50
180.5360781882
 51
184.2693396771
  0
ARC
  5
5DA
100
AcDbEntity
  8
BEZUGSACHSEN
100
AcDbCircle
 62
7
  6
CONTINUOUS
 10
343.2408956567
 20
58.0460845487
 40
9.8913591858
100
AcDbArc
 50
355.7306679421
 51
359.463921923
  0
ARC
  5
5DB
100
AcDbEntity
  8
BEZUGSACHSEN
100
AcDbCircle
 62
7
  6
CONTINUOUS
 10
341.6109042715
 20
58.1790398906
 40
9.4192984022
100
AcDbArc
 50
11.824930866
 51
14.6418569217
  0
ARC
  5
5DC
100
AcDbEntity
  8
0
100
AcDbCircle
 62
7
  6
CONTINUOUS
 10
323.5206392347
 20
58.1790487818
 40
9.4192618645
100
AcDbArc
 50
165.3581409116
 51
168.1754938591
  0
ARC
  5
5DD
100
AcDbEntity
  8
BEZUGSACHSEN
100
AcDbCircle
 62
7
  6
CONTINUOUS
 10
342.89343425
 20
55.3469046811
 40
9.362826759
100
AcDbArc
 50
27.337194894
 51
32.9216722727
  0
ARC
  5
5DE
100
AcDbEntity
  8
0
100
AcDbCircle
 62
7
  6
CONTINUOUS
 10
322.2381446974
 20
55.3469046811
 40
9.362826759
100
AcDbArc
 50
147.0783277273
 51
152.662805106
  0
ARC
  5
5DF
100
AcDbEntity
  8
BEZUGSACHSEN
100
AcDbCircle
 62
7
  6
CONTINUOUS
 10
343.863495272
 20
52.5394612192
 40
8.4610861262
100
AcDbArc
 50
354.2814147493
 51
359.1321842897
  0
ARC
  5
5E0
100
AcDbEntity
  8
0
100
AcDbCircle
 62
7
  6
CONTINUOUS
 10
321.2680836753
 20
52.5394612192
 40
8.4610861262
100
AcDbArc
 50
180.8678157103
 51
185.7185852508
  0
ARC
  5
5E1
100
AcDbEntity
  8
0
100
AcDbCircle
 62
7
  6
CONTINUOUS
 10
211.3273367032
 20
86.0908851728
 40
140.2553541764
100
AcDbArc
 50
338.9616283842
 51
339.0757737704
  0
ARC
  5
5E2
100
AcDbEntity
  8
0
100
AcDbCircle
 62
7
  6
CONTINUOUS
 10
367.8616619529
 20
107.5669294079
 40
22.9188135955
100
AcDbArc
 50
179.97736999
 51
193.080804479
  0
ARC
  5
5E3
100
AcDbEntity
  8
0
100
AcDbCircle
 62
7
  6
CONTINUOUS
 10
327.4197262405
 20
103.7376619544
 40
21.5424002137
100
AcDbArc
 50
358.8556952557
 51
359.996630097
  0
ARC
  5
5E4
100
AcDbEntity
  8
0
100
AcDbCircle
 62
7
  6
CONTINUOUS
 10
367.4334825255
 20
107.860255803
 40
20.8453045905
100
AcDbArc
 50
180.7813853865
 51
195.2427662001
  0
ARC
  5
5E5
100
AcDbEntity
  8
0
100
AcDbCircle
 62
7
  6
CONTINUOUS
 10
368.9227632002
 20
112.4017314847
 40
20.3797184535
100
AcDbArc
 50
183.2651127768
 51
186.4537708598
  0
ARC
  5
5E6
100
AcDbEntity
  8
0
100
AcDbCircle
 62
7
  6
CONTINUOUS
 10
332.8988356444
 20
109.3035789373
 40
16.0573434297
100
AcDbArc
 50
353.3168988891
 51
353.8236357933
  0
ARC
  5
5E7
100
AcDbEntity
  8
0
100
AcDbCircle
 62
7
  6
CONTINUOUS
 10
333.1270850362
 20
109.3032313265
 40
15.8308699209
100
AcDbArc
 50
351.6377465144
 51
352.1729385328
  0
ARC
  5
5E8
100
AcDbEntity
  8
0
100
AcDbCircle
 62
7
  6
CONTINUOUS
 10
334.29455806
 20
109.1400112138
 40
14.6520692711
100
AcDbArc
 50
352.7540869646
 51
353.3169973244
  0
ARC
  5
5E9
100
AcDbEntity
  8
0
100
AcDbCircle
 62
7
  6
CONTINUOUS
 10
334.3615115694
 20
109.1335188574
 40
14.5848317242
100
AcDbArc
 50
352.1730282596
 51
352.7462134942
  0
ARC
  5
5EA
100
AcDbEntity
  8
0
100
AcDbCircle
 62
7
  6
CONTINUOUS
 10
336.914241518
 20
116.6040481501
 40
12.8359677301
100
AcDbArc
 50
335.3032511977
 51
337.4286809866
  0
ARC
  5
5EB
100
AcDbEntity
  8
0
100
AcDbCircle
 62
7
  6
CONTINUOUS
 10
336.7000066865
 20
106.9575862974
 40
12.2887707649
100
AcDbArc
 50
8.118431022
 51
8.4979182571
  0
ARC
  5
5EC
100
AcDbEntity
  8
0
100
AcDbCircle
 62
7
  6
CONTINUOUS
 10
336.0218129318
 20
116.6162077771
 40
12.2354870459
100
AcDbArc
 50
333.939851962
 51
337.3288204855
  0
ARC
  5
5ED
100
AcDbEntity
  8
0
100
AcDbCircle
 62
7
  6
CONTINUOUS
 10
340.4621446593
 20
107.3866850091
 40
8.4998873743
100
AcDbArc
 50
0.094669517
 51
2.6735910556
  0
ARC
  5
5EE
100
AcDbEntity
  8
0
100
AcDbCircle
 62
7
  6
CONTINUOUS
 10
345.4648543973
 20
112.6730086617
 40
2.0022157132
100
AcDbArc
 50
337.2936821131
 51
344.9800506539
  0
ARC
  5
5EF
100
AcDbEntity
  8
0
100
AcDbCircle
 62
7
  6
CONTINUOUS
 10
586.7246816386
 20
66.2350170279
 40
264.498382855
100
AcDbArc
 50
183.9967917575
 51
185.4405773335
  0
ARC
  5
5F0
100
AcDbEntity
  8
0
100
AcDbCircle
 62
7
  6
CONTINUOUS
 10
458.4691741385
 20
62.855774112
 40
144.4095237122
100
AcDbArc
 50
181.8015389971
 51
182.258067723
  0
ARC
  5
5F1
100
AcDbEntity
  8
0
100
AcDbCircle
 62
7
  6
CONTINUOUS
 10
476.4776104698
 20
58.6836537394
 40
131.6604338002
100
AcDbArc
 50
181.4658409699
 51
182.3271842244
  0
ARC
  5
5F2
100
AcDbEntity
  8
0
100
AcDbCircle
 62
7
  6
CONTINUOUS
 10
473.9397834782
 20
58.6836537393
 40
131.6604337979
100
AcDbArc
 50
181.4658409699
 51
182.3271842244
  0
ARC
  5
5F3
100
AcDbEntity
  8
0
100
AcDbCircle
 62
7
  6
CONTINUOUS
 10
428.4264064095
 20
113.6010524514
 40
79.5261108312
100
AcDbArc
 50
181.0425190096
 51
181.6515222545
  0
ARC
  5
5F4
100
AcDbEntity
  8
0
100
AcDbCircle
 62
7
  6
CONTINUOUS
 10
1023.4791568169
 20
-83.3864623113
 40
688.8854229304
100
AcDbArc
 50
170.2923783645
 51
170.4354346034
  0
ARC
  5
5F5
100
AcDbEntity
  8
0
100
AcDbCircle
 62
7
  6
CONTINUOUS
 10
1109.0928865988
 20
29.7707842779
 40
786.7246007293
100
AcDbArc
 50
177.1221703826
 51
177.3433489992
  0
ARC
  5
5F6
100
AcDbEntity
  8
BEZUGSACHSEN
100
AcDbCircle
 62
7
  6
CONTINUOUS
 10
1125.5610912098
 20
63.0378030311
 40
772.7069320532
100
AcDbArc
 50
180.445743301
 51
180.5821917509
  0
ARC
  5
5F7
100
AcDbEntity
  8
0
100
AcDbCircle
 62
7
  6
CONTINUOUS
 10
1035.8847058156
 20
62.8615168429
 40
723.15253727
100
AcDbArc
 50
180.643849287
 51
180.7706104615
  0
ARC
  5
5F8
100
AcDbEntity
  8
0
100
AcDbCircle
 62
7
  6
CONTINUOUS
 10
873.8673276427
 20
40.3421026334
 40
551.2615795783
100
AcDbArc
 50
177.3823490519
 51
178.4435215075
  0
ARC
  5
5F9
100
AcDbEntity
  8
BEZUGSACHSEN
100
AcDbCircle
 62
7
  6
CONTINUOUS
 10
746.3513727177
 20
71.2439101779
 40
396.0239088032
100
AcDbArc
 50
181.3822956313
 51
181.5908126208
  0
ARC
  5
5FA
100
AcDbEntity
  8
0
100
AcDbCircle
 62
7
  6
CONTINUOUS
 10
668.1385123426
 20
64.9784238949
 40
344.7900700107
100
AcDbArc
 50
179.7907202972
 51
179.9105478997
  0
ARC
  5
5FB
100
AcDbEntity
  8
BEZUGSACHSEN
100
AcDbCircle
 62
7
  6
CONTINUOUS
 10
312.5776942242
 20
169.7610129713
 40
2.0119056486
100
AcDbArc
 50
180.0541377289
 51
198.0406189014
  0
ARC
  5
5FC
100
AcDbEntity
  8
BEZUGSACHSEN
100
AcDbCircle
 62
7
  6
CONTINUOUS
 10
317.4227531345
 20
161.8689555086
 40
2.0069638296
100
AcDbArc
 50
180.0234971901
 51
193.4453554814
  0
ARC
  5
5FD
100
AcDbEntity
  8
BEZUGSACHSEN
100
AcDbCircle
 62
7
  6
CONTINUOUS
 10
317.4158283817
 20
167.1758202633
 40
2.0000415842
100
AcDbArc
 50
73.163058944
 51
188.5822949407
  0
ARC
  5
5FE
100
AcDbEntity
  8
BEZUGSACHSEN
100
AcDbCircle
 62
7
  6
CONTINUOUS
 10
317.4158014639
 20
156.7557279472
 40
2.0000119905
100
AcDbArc
 50
45.2028499056
 51
184.8221408397
  0
ARC
  5
5FF
100
AcDbEntity
  8
BEZUGSACHSEN
100
AcDbCircle
 62
7
  6
CONTINUOUS
 10
312.5657984565
 20
169.7590898455
 40
2.0000087958
100
AcDbArc
 50
43.2491143135
 51
179.9993664996
  0
ARC
  5
600
100
AcDbEntity
  8
BEZUGSACHSEN
100
AcDbCircle
 62
7
  6
CONTINUOUS
 10
312.5657967814
 20
154.0552750619
 40
2.0000073078
100
AcDbArc
 50
18.0876248861
 51
187.3018853634
  0
ARC
  5
601
100
AcDbEntity
  8
BEZUGSACHSEN
100
AcDbCircle
 62
7
  6
CONTINUOUS
 10
312.5657929961
 20
158.9711683726
 40
2.0000035225
100
AcDbArc
 50
27.3417382525
 51
183.8754115906
  0
ARC
  5
602
100
AcDbEntity
  8
BEZUGSACHSEN
100
AcDbCircle
 62
7
  6
CONTINUOUS
 10
317.4157890265
 20
161.8681132334
 40
1.9999995529
100
AcDbArc
 50
48.7215023923
 51
179.9994495975
  0
ARC
  5
603
100
AcDbEntity
  8
BEZUGSACHSEN
100
AcDbCircle
 62
7
  6
CONTINUOUS
 10
312.5657852759
 20
164.2180551032
 40
1.999987603
100
AcDbArc
 50
36.0621921598
 51
185.1816085891
  0
ARC
  5
604
100
AcDbEntity
  8
BEZUGSACHSEN
100
AcDbCircle
 62
7
  6
CONTINUOUS
 10
312.7690636202
 20
164.3649545299
 40
1.7491879546
100
AcDbArc
 50
0.7446531683
 51
36.0920826739
  0
ARC
  5
605
100
AcDbEntity
  8
BEZUGSACHSEN
100
AcDbCircle
 62
7
  6
CONTINUOUS
 10
312.9436389782
 20
159.1664488959
 40
1.5746736121
100
AcDbArc
 50
359.067059723
 51
27.3446147428
  0
ARC
  5
606
100
AcDbEntity
  8
BEZUGSACHSEN
100
AcDbCircle
 62
7
  6
CONTINUOUS
 10
313.1641368501
 20
154.2520428573
 40
1.3701383095
100
AcDbArc
 50
357.653845959
 51
18.0342321514
  0
ARC
  5
607
100
AcDbEntity
  8
0
100
AcDbCircle
 62
7
  6
CONTINUOUS
 10
299.5657894737
 20
240.3831172336
 40
10.0
100
AcDbArc
 50
315.4655862301
 51
360.0
  0
ARC
  5
608
100
AcDbEntity
  8
0
100
AcDbCircle
 62
7
  6
CONTINUOUS
 10
311.475582633
 20
226.8370662702
 40
8.0
100
AcDbArc
 50
135.0
 51
166.7700037361
  0
ARC
  5
609
100
AcDbEntity
  8
0
100
AcDbCircle
 62
7
  6
CONTINUOUS
 10
308.3085364471
 20
228.4408932392
 40
0.8085634655
100
AcDbArc
 50
245.6512891737
 51
249.3408725225
  0
ARC
  5
60A
100
AcDbEntity
  8
0
100
AcDbCircle
 62
7
  6
CONTINUOUS
 10
354.5798261123
 20
165.8757571084
 40
4.3109894432
100
AcDbArc
 50
355.540218322
 51
358.261378042
  0
ARC
  5
60B
100
AcDbEntity
  8
0
100
AcDbCircle
 62
7
  6
CONTINUOUS
 10
354.7339506869
 20
165.8767544035
 40
4.1569532371
100
AcDbArc
 50
358.4424149708
 51
1.5053080136
  0
ARC
  5
60C
100
AcDbEntity
  8
BEZUGSACHSEN
100
AcDbCircle
 62
7
  6
CONTINUOUS
 10
352.5538847232
 20
169.7610129713
 40
2.0119056486
100
AcDbArc
 50
341.9593810986
 51
359.9458622711
  0
ARC
  5
60D
100
AcDbEntity
  8
BEZUGSACHSEN
100
AcDbCircle
 62
7
  6
CONTINUOUS
 10
347.7088258129
 20
161.8689555086
 40
2.0069638296
100
AcDbArc
 50
346.5546445186
 51
359.9765028098
  0
ARC
  5
60E
100
AcDbEntity
  8
BEZUGSACHSEN
100
AcDbCircle
 62
7
  6
CONTINUOUS
 10
347.7157505657
 20
167.1758202633
 40
2.0000415842
100
AcDbArc
 50
351.4177050593
 51
106.836941056
  0
ARC
  5
60F
100
AcDbEntity
  8
BEZUGSACHSEN
100
AcDbCircle
 62
7
  6
CONTINUOUS
 10
347.7157774834
 20
156.7557279472
 40
2.0000119905
100
AcDbArc
 50
355.1778591602
 51
134.7971500944
  0
ARC
  5
610
100
AcDbEntity
  8
BEZUGSACHSEN
100
AcDbCircle
 62
7
  6
CONTINUOUS
 10
352.5657804921
 20
169.7590898449
 40
2.0000087964
100
AcDbArc
 50
0.0006335154
 51
136.7508857004
  0
ARC
  5
611
100
AcDbEntity
  8
BEZUGSACHSEN
100
AcDbCircle
 62
7
  6
CONTINUOUS
 10
352.565782166
 20
154.0552750619
 40
2.0000073078
100
AcDbArc
 50
352.6981146366
 51
161.9123751139
  0
ARC
  5
612
100
AcDbEntity
  8
BEZUGSACHSEN
100
AcDbCircle
 62
7
  6
CONTINUOUS
 10
352.5657859513
 20
158.9711683726
 40
2.0000035225
100
AcDbArc
 50
356.1245884094
 51
152.6582617475
  0
ARC
  5
613
100
AcDbEntity
  8
BEZUGSACHSEN
100
AcDbCircle
 62
7
  6
CONTINUOUS
 10
347.7157899209
 20
161.8681132334
 40
1.9999995529
100
AcDbArc
 50
0.0005504025
 51
131.2784976077
  0
ARC
  5
614
100
AcDbEntity
  8
BEZUGSACHSEN
100
AcDbCircle
 62
7
  6
CONTINUOUS
 10
352.5657935771
 20
164.2180551339
 40
1.999987603
100
AcDbArc
 50
354.8183914109
 51
143.9378069605
  0
ARC
  5
615
100
AcDbEntity
  8
BEZUGSACHSEN
100
AcDbCircle
 62
7
  6
CONTINUOUS
 10
352.3625153272
 20
164.3649545299
 40
1.7491879546
100
AcDbArc
 50
143.907917326
 51
179.2553468317
  0
ARC
  5
616
100
AcDbEntity
  8
BEZUGSACHSEN
100
AcDbCircle
 62
7
  6
CONTINUOUS
 10
352.1879399691
 20
159.1664488959
 40
1.5746736121
100
AcDbArc
 50
152.6553852572
 51
180.932940277
  0
ARC
  5
617
100
AcDbEntity
  8
BEZUGSACHSEN
100
AcDbCircle
 62
7
  6
CONTINUOUS
 10
351.9674420973
 20
154.2520428573
 40
1.3701383095
100
AcDbArc
 50
161.9657678486
 51
182.346154041
  0
ARC
  5
618
100
AcDbEntity
  8
RUNDUNGEN
100
AcDbCircle
 62
7
  6
CONTINUOUS
 10
365.5657894737
 20
240.3831172336
 40
10.0
100
AcDbArc
 50
180.0
 51
224.5344137699
  0
ARC
  5
619
100
AcDbEntity
  8
RUNDUNGEN
100
AcDbCircle
 62
7
  6
CONTINUOUS
 10
353.6559963144
 20
226.8370662702
 40
8.0
100
AcDbArc
 50
13.2299962639
 51
45.0
  0
ARC
  5
61A
100
AcDbEntity
  8
RUNDUNGEN
100
AcDbCircle
 62
7
  6
CONTINUOUS
 10
356.8230425003
 20
228.4408932392
 40
0.8085634655
100
AcDbArc
 50
290.6591274775
 51
294.3487108263
  0
ARC
  5
61B
100
AcDbEntity
  8
0
100
AcDbCircle
 62
7
  6
CONTINUOUS
 10
575.3357700933
 20
348.2662179133
 40
283.4853738969
100
AcDbArc
 50
215.1866671066
 51
215.3252648671
  0
ARC
  5
61C
100
AcDbEntity
  8
BEZUGSACHSEN
100
AcDbCircle
 62
7
  6
CONTINUOUS
 10
531.400978102
 20
262.8901081855
 40
221.8341759406
100
AcDbArc
 50
179.743086082
 51
179.9535249553
  0
ARC
  5
61D
100
AcDbEntity
  8
BEZUGSACHSEN
100
AcDbCircle
 62
7
  6
CONTINUOUS
 10
176.2635123032
 20
263.0026391962
 40
179.3012030412
100
AcDbArc
 50
0.0222806051
 51
0.2835254059
  0
ARC
  5
61E
100
AcDbEntity
  8
0
100
AcDbCircle
 62
7
  6
CONTINUOUS
 10
332.5657894737
 20
268.2409816099
 40
23.0
100
AcDbArc
 50
1.2246428657
 51
178.7753571343
  0
CIRCLE
  5
61F
100
AcDbEntity
  8
0
100
AcDbCircle
 62
7
  6
CONTINUOUS
 10
332.5657894737
 20
262.6409816099
 40
11.3
  0
ARC
  5
620
100
AcDbEntity
  8
0
100
AcDbCircle
 62
7
  6
CONTINUOUS
 10
1473.3145265554
 20
226.6990002507
 40
1168.8421493824
100
AcDbArc
 50
189.9111223652
 51
190.2162968948
  0
ARC
  5
621
100
AcDbEntity
  8
0
100
AcDbCircle
 62
7
  6
CONTINUOUS
 10
1259.0522043711
 20
189.2657273915
 40
951.3344653752
100
AcDbArc
 50
189.571590165
 51
189.9113804415
  0
ARC
  5
622
100
AcDbEntity
  8
0
100
AcDbCircle
 62
7
  6
CONTINUOUS
 10
1217.3351727893
 20
160.303763208
 40
905.1785901081
100
AcDbArc
 50
188.0937494067
 51
188.9539912483
  0
ARC
  5
623
100
AcDbEntity
  8
0
100
AcDbCircle
 62
7
  6
CONTINUOUS
 10
1268.0821658414
 20
265.7131176464
 40
958.515878571
100
AcDbArc
 50
179.8195117394
 51
180.0043210122
  0
SPLINE
  5
624
100
AcDbEntity
  8
BEZUGSACHSEN
100
AcDbSpline
 62
7
  6
CONTINUOUS
 70
0
 71
3
 72
9
 73
5
 74
0
 42
0.0000001
 43
0.0000001
 44
0.0000000001
 40
0.0
 40
0.0
 40
0.0
 40
0.0
 40
0.2383566274
 40
1.0
 40
1.0
 40
1.0
 40
1.0
 10
49.6527955553
 20
168.0218300212
 30
0.0
 10
49.6414250305
 20
167.9510708213
 30
0.0
 10
49.5885604484
 20
167.6550493144
 30
0.0
 10
49.5176222811
 20
167.362350547
 30
0.0
 10
49.4551560138
 20
167.1420305921
 30
0.0
  0
SPLINE
  5
625
100
AcDbEntity
  8
BEZUGSACHSEN
100
AcDbSpline
 62
7
  6
CONTINUOUS
 70
0
 71
3
 72
16
 73
12
 74
0
 42
0.0000001
 43
0.0000001
 44
0.0000000001
 40
0.0
 40
0.0
 40
0.0
 40
0.0
 40
0.0313475935
 40
0.0561027333
 40
0.0882918661
 40
0.128166467
 40
0.1756931471
 40
0.2929585459
 40
0.4377390423
 40
0.6066599848
 40
1.0
 40
1.0
 40
1.0
 40
1.0
 10
47.6471429366
 20
160.8361637341
 30
0.0
 10
47.6610971243
 20
160.8305610036
 30
0.0
 10
47.6744752374
 20
160.801227314
 30
0.0
 10
47.677119273
 20
160.7601171623
 30
0.0
 10
47.6749019163
 20
160.71322152
 30
0.0
 10
47.6666445079
 20
160.6565467814
 30
0.0
 10
47.6468683241
 20
160.5602791612
 30
0.0
 10
47.6068629682
 20
160.4171604681
 30
0.0
 10
47.5411195337
 20
160.2211039789
 30
0.0
 10
47.4211645367
 20
159.9038090355
 30
0.0
 10
47.3146006505
 20
159.6558806926
 30
0.0
 10
47.2368159563
 20
159.4839814865
 30
0.0
  0
SPLINE
  5
626
100
AcDbEntity
  8
BEZUGSACHSEN
100
AcDbSpline
 62
7
  6
CONTINUOUS
 70
0
 71
3
 72
15
 73
11
 74
0
 42
0.0000001
 43
0.0000001
 44
0.0000000001
 40
0.0
 40
0.0
 40
0.0
 40
0.0
 40
0.0292427225
 40
0.0546778518
 40
0.0884394654
 40
0.1305273407
 40
0.1807201689
 40
0.3037351869
 40
0.6233913638
 40
1.0
 40
1.0
 40
1.0
 40
1.0
 10
49.6354873018
 20
166.1587247755
 30
0.0
 10
49.6547819817
 20
166.1539021156
 30
0.0
 10
49.6729838671
 20
166.1107914383
 30
0.0
 10
49.6782440303
 20
166.0537737485
 30
0.0
 10
49.6781764874
 20
165.9837449852
 30
0.0
 10
49.6708497104
 20
165.8986563351
 30
0.0
 10
49.6511710589
 20
165.7533485451
 30
0.0
 10
49.5862028768
 20
165.4244064784
 30
0.0
 10
49.4403929758
 20
164.8860234788
 30
0.0
 10
49.2933731195
 20
164.4357452072
 30
0.0
 10
49.2081768131
 20
164.1941943824
 30
0.0
  0
SPLINE
  5
627
100
AcDbEntity
  8
BEZUGSACHSEN
100
AcDbSpline
 62
7
  6
CONTINUOUS
 70
0
 71
3
 72
9
 73
5
 74
0
 42
0.0000001
 43
0.0000001
 44
0.0000000001
 40
0.0
 40
0.0
 40
0.0
 40
0.0
 40
0.2352642439
 40
1.0
 40
1.0
 40
1.0
 40
1.0
 10
45.4735473855
 20
157.6015047656
 30
0.0
 10
45.4438630921
 20
157.5302283957
 30
0.0
 10
45.3114929088
 20
157.2298622082
 30
0.0
 10
45.158214435
 20
156.9388927003
 30
0.0
 10
45.0320796393
 20
156.721915651
 30
0.0
  0
SPLINE
  5
628
100
AcDbEntity
  8
BEZUGSACHSEN
100
AcDbSpline
 62
7
  6
CONTINUOUS
 70
0
 71
3
 72
16
 73
12
 74
0
 42
0.0000001
 43
0.0000001
 44
0.0000000001
 40
0.0
 40
0.0
 40
0.0
 40
0.0
 40
0.374859017
 40
0.5448863977
 40
0.6944019669
 40
0.8177386173
 40
0.8681705598
 40
0.9105291341
 40
0.9445825922
 40
0.9703479319
 40
1.0
 40
1.0
 40
1.0
 40
1.0
 10
44.102922516
 20
153.998465167
 30
0.0
 10
43.9594354132
 20
153.7834028578
 30
0.0
 10
43.7436128358
 20
153.4754777894
 30
0.0
 10
43.4524086877
 20
153.0951969378
 30
0.0
 10
43.2583939491
 20
152.8591562563
 30
0.0
 10
43.1092626633
 20
152.6933322194
 30
0.0
 10
43.0030885831
 20
152.5884093374
 30
0.0
 10
42.9382101659
 20
152.5302086486
 30
0.0
 10
42.8811530914
 20
152.486915547
 30
0.0
 10
42.8311894057
 20
152.4559409569
 30
0.0
 10
42.7852219066
 20
152.4431922056
 30
0.0
 10
42.7688465498
 20
152.4554427296
 30
0.0
  0
SPLINE
  5
629
100
AcDbEntity
  8
BEZUGSACHSEN
100
AcDbSpline
 62
7
  6
CONTINUOUS
 70
0
 71
3
 72
9
 73
5
 74
0
 42
0.0000001
 43
0.0000001
 44
0.0000000001
 40
0.0
 40
0.0
 40
0.0
 40
0.0
 40
0.2582071815
 40
1.0
 40
1.0
 40
1.0
 40
1.0
 10
45.0320796393
 20
156.721915651
 30
0.0
 10
44.9930671988
 20
156.654806459
 30
0.0
 10
44.8384163142
 20
156.3970118204
 30
0.0
 10
44.6703650893
 20
156.1470757648
 30
0.0
 10
44.5365617275
 20
155.9686718007
 30
0.0
  0
SPLINE
  5
62A
100
AcDbEntity
  8
BEZUGSACHSEN
100
AcDbSpline
 62
7
  6
CONTINUOUS
 70
0
 71
3
 72
15
 73
11
 74
0
 42
0.0000001
 43
0.0000001
 44
0.0000000001
 40
0.0
 40
0.0
 40
0.0
 40
0.0
 40
0.3766850008
 40
0.6963503363
 40
0.8193311134
 40
0.8695027173
 40
0.9115743907
 40
0.9453134705
 40
0.9707570171
 40
1.0
 40
1.0
 40
1.0
 40
1.0
 10
46.9810093807
 20
158.9473167178
 30
0.0
 10
46.8664127276
 20
158.7181926177
 30
0.0
 10
46.6446125672
 20
158.2995992173
 30
0.0
 10
46.3585964277
 20
157.8207032936
 30
0.0
 10
46.1671230013
 20
157.5454956851
 30
0.0
 10
46.0762921584
 20
157.4304481079
 30
0.0
 10
46.0202089753
 20
157.3660900901
 30
0.0
 10
45.9698849654
 20
157.3174345849
 30
0.0
 10
45.9252362034
 20
157.2815735694
 30
0.0
 10
45.8816085697
 20
157.2647430299
 30
0.0
 10
45.8647119995
 20
157.2752333204
 30
0.0
  0
SPLINE
  5
62B
100
AcDbEntity
  8
BEZUGSACHSEN
100
AcDbSpline
 62
7
  6
CONTINUOUS
 70
0
 71
3
 72
15
 73
11
 74
0
 42
0.0000001
 43
0.0000001
 44
0.0000000001
 40
0.0
 40
0.0
 40
0.0
 40
0.0
 40
0.3768493473
 40
0.6958124408
 40
0.8185345878
 40
0.8686675464
 40
0.9107784559
 40
0.9446386922
 40
0.970273643
 40
1.0
 40
1.0
 40
1.0
 40
1.0
 10
50.768795568
 20
169.7022779669
 30
0.0
 10
50.714933109
 20
169.4550192916
 30
0.0
 10
50.604888308
 20
169.0007836607
 30
0.0
 10
50.4482304217
 20
168.4733361122
 30
0.0
 10
50.332382027
 20
168.1639565804
 30
0.0
 10
50.2736400506
 20
168.0318792599
 30
0.0
 10
50.2356311646
 20
167.9565451998
 30
0.0
 10
50.1993820438
 20
167.8974654195
 30
0.0
 10
50.1649620529
 20
167.85181063
 30
0.0
 10
50.1277249159
 20
167.8243948216
 30
0.0
 10
50.1084684324
 20
167.8296530294
 30
0.0
  0
SPLINE
  5
62C
100
AcDbEntity
  8
BEZUGSACHSEN
100
AcDbSpline
 62
7
  6
CONTINUOUS
 70
0
 71
3
 72
9
 73
5
 74
0
 42
0.0000001
 43
0.0000001
 44
0.0000000001
 40
0.0
 40
0.0
 40
0.0
 40
0.0
 40
0.2607998972
 40
1.0
 40
1.0
 40
1.0
 40
1.0
 10
49.4551560138
 20
167.1420305921
 30
0.0
 10
49.4318082594
 20
167.0596825278
 30
0.0
 10
49.3375079925
 20
166.745341087
 30
0.0
 10
49.2253905175
 20
166.4360633595
 30
0.0
 10
49.1290781729
 20
166.2133964963
 30
0.0
  0
SPLINE
  5
62D
100
AcDbEntity
  8
BEZUGSACHSEN
100
AcDbSpline
 62
7
  6
CONTINUOUS
 70
0
 71
3
 72
15
 73
11
 74
0
 42
0.0000001
 43
0.0000001
 44
0.0000000001
 40
0.0
 40
0.0
 40
0.0
 40
0.0
 40
0.3765262089
 40
0.6959707673
 40
0.8189474156
 40
0.8691537047
 40
0.9112728332
 40
0.9450864775
 40
0.970605177
 40
1.0
 40
1.0
 40
1.0
 40
1.0
 10
49.2081768131
 20
164.1941943824
 30
0.0
 10
49.1233307821
 20
163.953636668
 30
0.0
 10
48.9560944697
 20
163.5126551013
 30
0.0
 10
48.7329240213
 20
163.0040862554
 30
0.0
 10
48.5778912189
 20
162.708438114
 30
0.0
 10
48.5023978691
 20
162.5833938516
 30
0.0
 10
48.4548982229
 20
162.5127364509
 30
0.0
 10
48.4111777734
 20
162.4582479673
 30
0.0
 10
48.3713382777
 20
162.4171325184
 30
0.0
 10
48.3303648487
 20
162.3947762282
 30
0.0
 10
48.3121897665
 20
162.4029143134
 30
0.0
  0
SPLINE
  5
62E
100
AcDbEntity
  8
BEZUGSACHSEN
100
AcDbSpline
 62
7
  6
CONTINUOUS
 70
0
 71
3
 72
9
 73
5
 74
0
 42
0.0000001
 43
0.0000001
 44
0.0000000001
 40
0.0
 40
0.0
 40
0.0
 40
0.0
 40
0.2590946278
 40
1.0
 40
1.0
 40
1.0
 40
1.0
 10
47.5714550336
 20
161.7928144833
 30
0.0
 10
47.5397903045
 20
161.7182170563
 30
0.0
 10
47.4134763023
 20
161.4320865906
 30
0.0
 10
47.2718013352
 20
161.1525264929
 30
0.0
 10
47.155891944
 20
160.9518558365
 30
0.0
  0
SPLINE
  5
62F
100
AcDbEntity
  8
BEZUGSACHSEN
100
AcDbSpline
 62
7
  6
CONTINUOUS
 70
0
 71
3
 72
9
 73
5
 74
0
 42
0.0000001
 43
0.0000001
 44
0.0000000001
 40
0.0
 40
0.0
 40
0.0
 40
0.0
 40
0.2373037759
 40
1.0
 40
1.0
 40
1.0
 40
1.0
 10
47.8876164069
 20
162.6755768622
 30
0.0
 10
47.8671710216
 20
162.6042524788
 30
0.0
 10
47.7754897078
 20
162.3052877532
 30
0.0
 10
47.6646324744
 20
162.0123267777
 30
0.0
 10
47.5714550336
 20
161.7928144833
 30
0.0
  0
SPLINE
  5
630
100
AcDbEntity
  8
BEZUGSACHSEN
100
AcDbSpline
 62
7
  6
CONTINUOUS
 70
0
 71
3
 72
9
 73
5
 74
0
 42
0.0000001
 43
0.0000001
 44
0.0000000001
 40
0.0
 40
0.0
 40
0.0
 40
0.0
 40
0.505740241
 40
1.0
 40
1.0
 40
1.0
 40
1.0
 10
47.3500168068
 20
159.3568599291
 30
0.0
 10
46.9035078375
 20
158.4379556313
 30
0.0
 10
45.9598761253
 20
156.6498925803
 30
0.0
 10
44.8965673824
 20
154.9300395155
 30
0.0
 10
44.3402523092
 20
154.1009318443
 30
0.0
  0
SPLINE
  5
631
100
AcDbEntity
  8
BEZUGSACHSEN
100
AcDbSpline
 62
7
  6
CONTINUOUS
 70
0
 71
3
 72
16
 73
12
 74
0
 42
0.0000001
 43
0.0000001
 44
0.0000000001
 40
0.0
 40
0.0
 40
0.0
 40
0.0
 40
0.0296519307
 40
0.0554170904
 40
0.0894705124
 40
0.1318289503
 40
0.1822608584
 40
0.3055974366
 40
0.4551130384
 40
0.6251405744
 40
1.0
 40
1.0
 40
1.0
 40
1.0
 10
50.9520255255
 20
171.7338055295
 30
0.0
 10
50.9722130715
 20
171.7305364397
 30
0.0
 10
50.9949742865
 20
171.6886142207
 30
0.0
 10
51.0074009282
 20
171.6311569641
 30
0.0
 10
51.0158935814
 20
171.560039803
 30
0.0
 10
51.0190960369
 20
171.4729407287
 30
0.0
 10
51.0173755412
 20
171.3236800503
 30
0.0
 10
51.0016871474
 20
171.1012129263
 30
0.0
 10
50.9666676639
 20
170.7976826107
 30
0.0
 10
50.8954038793
 20
170.3240420819
 30
0.0
 10
50.823824002
 20
169.9548891165
 30
0.0
 10
50.768795568
 20
169.7022779669
 30
0.0
  0
SPLINE
  5
632
100
AcDbEntity
  8
BEZUGSACHSEN
100
AcDbSpline
 62
7
  6
CONTINUOUS
 70
0
 71
3
 72
15
 73
11
 74
0
 42
0.0000001
 43
0.0000001
 44
0.0000000001
 40
0.0
 40
0.0
 40
0.0
 40
0.0
 40
0.0297267279
 40
0.0553619105
 40
0.0892221715
 40
0.1313330526
 40
0.1814659688
 40
0.3041881123
 40
0.6231511646
 40
1.0
 40
1.0
 40
1.0
 40
1.0
 10
44.9912751527
 20
155.7742988723
 30
0.0
 10
45.008434141
 20
155.7640988891
 30
0.0
 10
45.0145792003
 20
155.7182678837
 30
0.0
 10
45.0056477482
 20
155.6617933154
 30
0.0
 10
44.9883299203
 20
155.5946775568
 30
0.0
 10
44.960542202
 20
155.5150049141
 30
0.0
 10
44.9063392452
 20
155.3810010153
 30
0.0
 10
44.7642652948
 20
155.0827537779
 30
0.0
 10
44.4936752077
 20
154.6036682301
 30
0.0
 10
44.2433692683
 20
154.2089705175
 30
0.0
 10
44.102922516
 20
153.998465167
 30
0.0
  0
SPLINE
  5
633
100
AcDbEntity
  8
0
100
AcDbSpline
 62
7
  6
CONTINUOUS
 70
0
 71
3
 72
8
 73
4
 74
0
 42
0.0000001
 43
0.0000001
 44
0.0000000001
 40
0.0
 40
0.0
 40
0.0
 40
0.0
 40
1.0
 40
1.0
 40
1.0
 40
1.0
 10
65.0586861316
 20
226.6168690912
 30
0.0
 10
64.7614813146
 20
226.9126933655
 30
0.0
 10
64.3952566659
 20
227.1495443051
 30
0.0
 10
64.0061692112
 20
227.3059209564
 30
0.0
  0
SPLINE
  5
634
100
AcDbEntity
  8
0
100
AcDbSpline
 62
7
  6
CONTINUOUS
 70
0
 71
3
 72
15
 73
11
 74
0
 42
0.0000001
 43
0.0000001
 44
0.0000000001
 40
0.0
 40
0.0
 40
0.0
 40
0.0
 40
0.1250022635
 40
0.2500037079
 40
0.375003188
 40
0.5000019756
 40
0.6250004241
 40
0.749999196
 40
0.8749990659
 40
1.0
 40
1.0
 40
1.0
 40
1.0
 10
154.35899976
 20
204.5004781337
 30
0.0
 10
153.2975786402
 20
205.360000009
 30
0.0
 10
151.3112313681
 20
207.2560598258
 30
0.0
 10
148.8402238401
 20
210.5467238153
 30
0.0
 10
146.9448185855
 20
214.2008083073
 30
0.0
 10
145.6815761043
 20
218.1184645616
 30
0.0
 10
145.0870704396
 20
222.1916376096
 30
0.0
 10
145.1780264718
 20
226.3071748363
 30
0.0
 10
145.9492503498
 20
230.3495766003
 30
0.0
 10
146.901794489
 20
232.9252919063
 30
0.0
 10
147.4789977435
 20
234.1631082803
 30
0.0
  0
SPLINE
  5
635
100
AcDbEntity
  8
0
100
AcDbSpline
 62
7
  6
CONTINUOUS
 70
0
 71
3
 72
11
 73
7
 74
0
 42
0.0000001
 43
0.0000001
 44
0.0000000001
 40
0.0
 40
0.0
 40
0.0
 40
0.0
 40
0.2500103872
 40
0.5000039861
 40
0.7500012731
 40
1.0
 40
1.0
 40
1.0
 40
1.0
 10
31.3232863686
 20
142.0115259242
 30
0.0
 10
31.7492327976
 20
142.2574462096
 30
0.0
 10
32.6559399671
 20
142.6606502629
 30
0.0
 10
34.1109937408
 20
142.963948086
 30
0.0
 10
35.5973457654
 20
142.9517660714
 30
0.0
 10
36.5652736374
 20
142.7320724055
 30
0.0
 10
37.030533262
 20
142.5726419668
 30
0.0
  0
SPLINE
  5
636
100
AcDbEntity
  8
0
100
AcDbSpline
 62
7
  6
CONTINUOUS
 70
0
 71
3
 72
11
 73
7
 74
0
 42
0.0000001
 43
0.0000001
 44
0.0000000001
 40
0.0
 40
0.0
 40
0.0
 40
0.0
 40
0.2500293777
 40
0.5000031941
 40
0.7499761634
 40
1.0
 40
1.0
 40
1.0
 40
1.0
 10
90.1920796111
 20
194.1777689088
 30
0.0
 10
89.7285239203
 20
194.7818837059
 30
0.0
 10
88.5583215583
 20
195.8243258536
 30
0.0
 10
86.3485242965
 20
196.5988063777
 30
0.0
 10
84.0104038855
 20
196.4715860114
 30
0.0
 10
82.5958769484
 20
195.7969710702
 30
0.0
 10
81.9822015454
 20
195.3461769197
 30
0.0
  0
SPLINE
  5
637
100
AcDbEntity
  8
0
100
AcDbSpline
 62
7
  6
CONTINUOUS
 70
0
 71
3
 72
11
 73
7
 74
0
 42
0.0000001
 43
0.0000001
 44
0.0000000001
 40
0.0
 40
0.0
 40
0.0
 40
0.0
 40
0.2499999873
 40
0.499992964
 40
0.7499905875
 40
1.0
 40
1.0
 40
1.0
 40
1.0
 10
63.367562819
 20
227.5073029105
 30
0.0
 10
62.9605239298
 20
227.6240194741
 30
0.0
 10
62.1786759169
 20
227.9927862339
 30
0.0
 10
61.247430123
 20
228.8882500587
 30
0.0
 10
60.6474963522
 20
230.0323025885
 30
0.0
 10
60.5099196536
 20
230.8854587872
 30
0.0
 10
60.5099247785
 20
231.3089170891
 30
0.0
  0
SPLINE
  5
638
100
AcDbEntity
  8
BEZUGSACHSEN
100
AcDbSpline
 62
7
  6
CONTINUOUS
 70
0
 71
3
 72
15
 73
11
 74
0
 42
0.0000001
 43
0.0000001
 44
0.0000000001
 40
0.0
 40
0.0
 40
0.0
 40
0.0
 40
0.1253452733
 40
0.2499448451
 40
0.3741683944
 40
0.4988256075
 40
0.6241503472
 40
0.7496323289
 40
0.8748549698
 40
1.0
 40
1.0
 40
1.0
 40
1.0
 10
111.8486809636
 20
52.4113124657
 30
0.0
 10
111.7399729772
 20
52.1296002993
 30
0.0
 10
111.4696076462
 20
51.586029112
 30
0.0
 10
110.8884619974
 20
50.8846663216
 30
0.0
 10
110.1368579171
 20
50.3668691259
 30
0.0
 10
109.2628876094
 20
50.094596623
 30
0.0
 10
108.3453996904
 20
50.0917367075
 30
0.0
 10
107.463944878
 20
50.3466603344
 30
0.0
 10
106.6834346806
 20
50.8246153244
 30
0.0
 10
106.2572535476
 20
51.2603369402
 30
0.0
 10
106.0711058453
 20
51.4974805957
 30
0.0
  0
SPLINE
  5
639
100
AcDbEntity
  8
RUNDUNGEN
100
AcDbSpline
 62
7
  6
CONTINUOUS
 70
0
 71
3
 72
11
 73
7
 74
0
 42
0.0000001
 43
0.0000001
 44
0.0000000001
 40
0.0
 40
0.0
 40
0.0
 40
0.0
 40
0.2500220302
 40
0.4999909569
 40
0.7499723053
 40
1.0
 40
1.0
 40
1.0
 40
1.0
 10
82.8475142199
 20
198.4065564111
 30
0.0
 10
83.4595506502
 20
198.7634107328
 30
0.0
 10
84.8245219058
 20
199.2620933186
 30
0.0
 10
86.9959670024
 20
199.2286409956
 30
0.0
 10
89.0122456242
 20
198.4231804497
 30
0.0
 10
90.0829263047
 20
197.4421224788
 30
0.0
 10
90.5142252302
 20
196.8800392289
 30
0.0
  0
SPLINE
  5
63A
100
AcDbEntity
  8
BEZUGSACHSEN
100
AcDbSpline
 62
7
  6
CONTINUOUS
 70
0
 71
3
 72
16
 73
12
 74
0
 42
0.0000001
 43
0.0000001
 44
0.0000000001
 40
0.0
 40
0.0
 40
0.0
 40
0.0
 40
0.125716662
 40
0.2497878151
 40
0.311782621
 40
0.3740113638
 40
0.4990220753
 40
0.6245141742
 40
0.749193889
 40
0.8741112336
 40
1.0
 40
1.0
 40
1.0
 40
1.0
 10
135.110754534
 20
57.9535391031
 30
0.0
 10
135.2187321694
 20
57.5142539723
 30
0.0
 10
135.3409607098
 20
56.6141079355
 30
0.0
 10
135.1660621704
 20
55.4821355672
 30
0.0
 10
134.7800991352
 20
54.6696258523
 30
0.0
 10
134.2322480766
 20
53.9520566165
 30
0.0
 10
133.2648957368
 20
53.3044989551
 30
0.0
 10
131.8949856278
 20
53.0780759776
 30
0.0
 10
130.5506160954
 20
53.3960578999
 30
0.0
 10
129.3989366842
 20
54.140296302
 30
0.0
 10
128.7894609674
 20
54.8188577462
 30
0.0
 10
128.5246021916
 20
55.1863371084
 30
0.0
  0
SPLINE
  5
63B
100
AcDbEntity
  8
0
100
AcDbSpline
 62
7
  6
CONTINUOUS
 70
0
 71
3
 72
22
 73
18
 74
0
 42
0.0000001
 43
0.0000001
 44
0.0000000001
 40
0.0
 40
0.0
 40
0.0
 40
0.0
 40
0.192615766
 40
0.3773918374
 40
0.5469809148
 40
0.6240189378
 40
0.6949268851
 40
0.7590932467
 40
0.8159973815
 40
0.8652349929
 40
0.9065400432
 40
0.9398417303
 40
0.9654395945
 40
0.9756710454
 40
0.9845152079
 40
0.9924185129
 40
1.0
 40
1.0
 40
1.0
 40
1.0
 10
120.8712441085
 20
265.2409816099
 30
0.0
 10
120.8712441085
 20
266.4289023571
 30
0.0
 10
120.8345572549
 20
268.7565910728
 30
0.0
 10
120.6708456812
 20
272.1265927347
 30
0.0
 10
120.4446270732
 20
274.7784158829
 30
0.0
 10
120.2096713516
 20
276.7227899845
 30
0.0
 10
120.0181895601
 20
278.0170500314
 30
0.0
 10
119.8080047572
 20
279.1824653555
 30
0.0
 10
119.581396056
 20
280.2084430955
 30
0.0
 10
119.3409357207
 20
281.0858438999
 30
0.0
 10
119.0893083923
 20
281.8081119684
 30
0.0
 10
118.8292313207
 20
282.3695544219
 30
0.0
 10
118.5911665036
 20
282.7281495311
 30
0.0
 10
118.3906566933
 20
282.9189617098
 30
0.0
 10
118.2486484098
 20
283.0084372754
 30
0.0
 10
118.1033823076
 20
283.0534971178
 30
0.0
 10
118.0060123588
 20
283.0519743576
 30
0.0
 10
117.9599255458
 20
283.0440840522
 30
0.0
  0
SPLINE
  5
63C
100
AcDbEntity
  8
BEZUGSACHSEN
100
AcDbSpline
 62
7
  6
CONTINUOUS
 70
0
 71
3
 72
8
 73
4
 74
0
 42
0.0000001
 43
0.0000001
 44
0.0000000001
 40
0.0
 40
0.0
 40
0.0
 40
0.0
 40
1.0
 40
1.0
 40
1.0
 40
1.0
 10
106.0711058453
 20
51.4974805957
 30
0.0
 10
105.7666390698
 20
51.8853567497
 30
0.0
 10
105.5313800057
 20
52.3333133109
 30
0.0
 10
105.3656112288
 20
52.7977146899
 30
0.0
  0
SPLINE
  5
63D
100
AcDbEntity
  8
RUNDUNGEN
100
AcDbSpline
 62
7
  6
CONTINUOUS
 70
0
 71
3
 72
11
 73
7
 74
0
 42
0.0000001
 43
0.0000001
 44
0.0000000001
 40
0.0
 40
0.0
 40
0.0
 40
0.0
 40
0.1706445528
 40
0.4058982251
 40
0.6894926471
 40
1.0
 40
1.0
 40
1.0
 40
1.0
 10
77.4419234848
 20
227.7042476404
 30
0.0
 10
77.4046807746
 20
227.8271964721
 30
0.0
 10
77.3650073602
 20
228.1329679458
 30
0.0
 10
77.3579922913
 20
228.651830762
 30
0.0
 10
77.4004146833
 20
229.2755807569
 30
0.0
 10
77.4584299533
 20
229.7192775522
 30
0.0
 10
77.4953552479
 20
229.9501007786
 30
0.0
  0
SPLINE
  5
63E
100
AcDbEntity
  8
0
100
AcDbSpline
 62
7
  6
CONTINUOUS
 70
0
 71
3
 72
9
 73
5
 74
0
 42
0.0000001
 43
0.0000001
 44
0.0000000001
 40
0.0
 40
0.0
 40
0.0
 40
0.0
 40
0.2476712487
 40
1.0
 40
1.0
 40
1.0
 40
1.0
 10
71.2583636229
 20
276.4745571753
 30
0.0
 10
72.2154603655
 20
275.8436249235
 30
0.0
 10
76.0714495376
 20
273.2834195749
 30
0.0
 10
79.9031945837
 20
270.6869895586
 30
0.0
 10
82.7851290762
 20
268.7325473331
 30
0.0
  0
SPLINE
  5
63F
100
AcDbEntity
  8
0
100
AcDbSpline
 62
7
  6
CONTINUOUS
 70
0
 71
3
 72
9
 73
5
 74
0
 42
0.0000001
 43
0.0000001
 44
0.0000000001
 40
0.0
 40
0.0
 40
0.0
 40
0.0
 40
0.4999967225
 40
1.0
 40
1.0
 40
1.0
 40
1.0
 10
83.2918282127
 20
265.2409816099
 30
0.0
 10
83.2918282127
 20
265.8304218429
 30
0.0
 10
83.2012257878
 20
267.0109077573
 30
0.0
 10
82.9453489351
 20
268.1652921038
 30
0.0
 10
82.7851290762
 20
268.7325473331
 30
0.0
  0
SPLINE
  5
640
100
AcDbEntity
  8
0
100
AcDbSpline
 62
7
  6
CONTINUOUS
 70
0
 71
3
 72
8
 73
4
 74
0
 42
0.0000001
 43
0.0000001
 44
0.0000000001
 40
0.0
 40
0.0
 40
0.0
 40
0.0
 40
1.0
 40
1.0
 40
1.0
 40
1.0
 10
83.5099255458
 20
263.5471887196
 30
0.0
 10
83.3672138694
 20
264.0982685887
 30
0.0
 10
83.2918282127
 20
264.6717227543
 30
0.0
 10
83.2918282127
 20
265.2409816099
 30
0.0
  0
SPLINE
  5
641
100
AcDbEntity
  8
BEZUGSACHSEN
100
AcDbSpline
 62
7
  6
CONTINUOUS
 70
0
 71
3
 72
15
 73
11
 74
0
 42
0.0000001
 43
0.0000001
 44
0.0000000001
 40
0.0
 40
0.0
 40
0.0
 40
0.0
 40
0.1252393346
 40
0.2489794216
 40
0.3725261417
 40
0.497336824
 40
0.6230037946
 40
0.7485950213
 40
0.874135775
 40
1.0
 40
1.0
 40
1.0
 40
1.0
 10
89.5833630993
 20
57.1659644864
 30
0.0
 10
89.3251530351
 20
56.9020657109
 30
0.0
 10
88.7466050837
 20
56.4342120767
 30
0.0
 10
87.7060072396
 20
56.022990059
 30
0.0
 10
86.5838256351
 20
56.0070088123
 30
0.0
 10
85.5258993296
 20
56.3899009564
 30
0.0
 10
84.6489667875
 20
57.0995646136
 30
0.0
 10
84.0360293671
 20
58.0474149402
 30
0.0
 10
83.7296164345
 20
59.1308197095
 30
0.0
 10
83.7222604999
 20
59.8807675067
 30
0.0
 10
83.7613695546
 20
60.249751494
 30
0.0
  0
SPLINE
  5
642
100
AcDbEntity
  8
0
100
AcDbSpline
 62
7
  6
CONTINUOUS
 70
0
 71
3
 72
10
 73
6
 74
0
 42
0.0000001
 43
0.0000001
 44
0.0000000001
 40
0.0
 40
0.0
 40
0.0
 40
0.0
 40
0.3810933303
 40
0.7052141044
 40
1.0
 40
1.0
 40
1.0
 40
1.0
 10
82.7851290762
 20
268.7325473331
 30
0.0
 10
82.0780189217
 20
271.5676946266
 30
0.0
 10
80.8620987062
 20
276.8374840618
 30
0.0
 10
79.3257857895
 20
284.3498223238
 30
0.0
 10
78.4599152525
 20
289.015830576
 30
0.0
 10
78.0632508505
 20
291.2409816099
 30
0.0
  0
SPLINE
  5
643
100
AcDbEntity
  8
RUNDUNGEN
100
AcDbSpline
 62
7
  6
CONTINUOUS
 70
0
 71
3
 72
17
 73
13
 74
0
 42
0.0000001
 43
0.0000001
 44
0.0000000001
 40
0.0
 40
0.0
 40
0.0
 40
0.0
 40
0.1330504984
 40
0.262550001
 40
0.3873332683
 40
0.5064801134
 40
0.6206965193
 40
0.6779029051
 40
0.7368123068
 40
0.7987533878
 40
0.8640234141
 40
1.0
 40
1.0
 40
1.0
 40
1.0
 10
120.9347293976
 20
261.5727299124
 30
0.0
 10
120.9500391225
 20
261.1357425294
 30
0.0
 10
120.9915121262
 20
260.2736912946
 30
0.0
 10
121.1134067965
 20
259.0058962105
 30
0.0
 10
121.332980756
 20
257.7958980953
 30
0.0
 10
121.7061255435
 20
256.6740065792
 30
0.0
 10
122.2366094947
 20
255.8554727577
 30
0.0
 10
122.8299313887
 20
255.3747747824
 30
0.0
 10
123.365924806
 20
255.1247753112
 30
0.0
 10
123.9738140896
 20
255.0128329335
 30
0.0
 10
124.843585191
 20
255.057764888
 30
0.0
 10
125.4806469405
 20
255.2937560213
 30
0.0
 10
125.8731711006
 20
255.5073423951
 30
0.0
  0
SPLINE
  5
644
100
AcDbEntity
  8
RUNDUNGEN
100
AcDbSpline
 62
7
  6
CONTINUOUS
 70
0
 71
3
 72
17
 73
13
 74
0
 42
0.0000001
 43
0.0000001
 44
0.0000000001
 40
0.0
 40
0.0
 40
0.0
 40
0.0
 40
0.1359755652
 40
0.2012424758
 40
0.2631822714
 40
0.3220922318
 40
0.3792975148
 40
0.4935135609
 40
0.6126633901
 40
0.7374483562
 40
0.8669488169
 40
1.0
 40
1.0
 40
1.0
 40
1.0
 10
91.146679991
 20
255.5073423951
 30
0.0
 10
91.5392012025
 20
255.2937576258
 30
0.0
 10
92.1762492721
 20
255.0577817251
 30
0.0
 10
93.0460017582
 20
255.0128157409
 30
0.0
 10
93.6538765642
 20
255.1247679958
 30
0.0
 10
94.1898712862
 20
255.374746047
 30
0.0
 10
94.7832039316
 20
255.8554278406
 30
0.0
 10
95.313700595
 20
256.6739603488
 30
0.0
 10
95.686862592
 20
257.7958614113
 30
0.0
 10
95.9064423172
 20
259.0058777395
 30
0.0
 10
96.0283384479
 20
260.2736836495
 30
0.0
 10
96.0698118905
 20
261.135740283
 30
0.0
 10
96.085121694
 20
261.5727299124
 30
0.0
  0
LINE
  5
645
100
AcDbEntity
  8
0
100
AcDbLine
 62
7
  6
CONTINUOUS
 10
144.9923626029
 20
279.7033175362
 11
144.0211827324
 21
291.2409393127
  0
SPLINE
  5
646
100
AcDbEntity
  8
0
100
AcDbSpline
 62
7
  6
CONTINUOUS
 70
0
 71
3
 72
19
 73
15
 74
0
 42
0.0000001
 43
0.0000001
 44
0.0000000001
 40
0.0
 40
0.0
 40
0.0
 40
0.0
 40
0.1589621023
 40
0.3109721797
 40
0.3823173249
 40
0.4487876216
 40
0.5090058628
 40
0.5626447779
 40
0.6115871482
 40
0.6593458662
 40
0.708843514
 40
0.7613696181
 40
0.8755794971
 40
1.0
 40
1.0
 40
1.0
 40
1.0
 10
67.298200142
 20
271.2510422788
 30
0.0
 10
67.0211156635
 20
270.9035928664
 30
0.0
 10
66.4561647207
 20
270.2418593506
 30
0.0
 10
65.6828353919
 20
269.4986709034
 30
0.0
 10
65.0294445692
 20
269.0172336606
 30
0.0
 10
64.5456911831
 20
268.7441501645
 30
0.0
 10
64.0673858701
 20
268.5740875532
 30
0.0
 10
63.6077429004
 20
268.530933178
 30
0.0
 10
63.1907413978
 20
268.6315179763
 30
0.0
 10
62.8443076697
 20
268.8615605789
 30
0.0
 10
62.571515881
 20
269.1845126917
 30
0.0
 10
62.2813420443
 20
269.7180365005
 30
0.0
 10
62.0525975334
 20
270.5068699718
 30
0.0
 10
61.9651641476
 20
271.1692544103
 30
0.0
 10
61.9359010438
 20
271.5158604778
 30
0.0
  0
SPLINE
  5
647
100
AcDbEntity
  8
0
100
AcDbSpline
 62
7
  6
CONTINUOUS
 70
0
 71
3
 72
10
 73
6
 74
0
 42
0.0000001
 43
0.0000001
 44
0.0000000001
 40
0.0
 40
0.0
 40
0.0
 40
0.0
 40
0.2961302148
 40
0.620535749
 40
1.0
 40
1.0
 40
1.0
 40
1.0
 10
138.9565983634
 20
291.2409322333
 30
0.0
 10
138.5493139865
 20
288.9564067691
 30
0.0
 10
137.661150862
 20
284.1752169205
 30
0.0
 10
136.085423678
 20
276.498525915
 30
0.0
 10
134.8371650799
 20
271.1246911346
 30
0.0
 10
134.1115807575
 20
268.240982074
 30
0.0
  0
SPLINE
  5
648
100
AcDbEntity
  8
BEZUGSACHSEN
100
AcDbSpline
 62
7
  6
CONTINUOUS
 70
0
 71
3
 72
8
 73
4
 74
0
 42
0.0000001
 43
0.0000001
 44
0.0000000001
 40
0.0
 40
0.0
 40
0.0
 40
0.0
 40
1.0
 40
1.0
 40
1.0
 40
1.0
 10
128.5246021916
 20
55.1863371084
 30
0.0
 10
128.0930403022
 20
55.7851093689
 30
0.0
 10
127.6842965046
 20
56.4006482464
 30
0.0
 10
127.2929491616
 20
57.0264446522
 30
0.0
  0
SPLINE
  5
649
100
AcDbEntity
  8
BEZUGSACHSEN
100
AcDbSpline
 62
7
  6
CONTINUOUS
 70
0
 71
3
 72
8
 73
4
 74
0
 42
0.0000001
 43
0.0000001
 44
0.0000000001
 40
0.0
 40
0.0
 40
0.0
 40
0.0
 40
1.0
 40
1.0
 40
1.0
 40
1.0
 10
134.6103912122
 20
59.7513771086
 30
0.0
 10
134.7935180433
 20
59.1568870357
 30
0.0
 10
134.9622710557
 20
58.5576140486
 30
0.0
 10
135.110754534
 20
57.9535391031
 30
0.0
  0
SPLINE
  5
64A
100
AcDbEntity
  8
0
100
AcDbSpline
 62
7
  6
CONTINUOUS
 70
0
 71
3
 72
22
 73
18
 74
0
 42
0.0000001
 43
0.0000001
 44
0.0000000001
 40
0.0
 40
0.0
 40
0.0
 40
0.0
 40
0.007583171
 40
0.0154857609
 40
0.024327687
 40
0.0345548122
 40
0.0601389985
 40
0.0934256326
 40
0.134708154
 40
0.1839226962
 40
0.2408072569
 40
0.3049595716
 40
0.3758633398
 40
0.4529052755
 40
0.6225193887
 40
0.8073393581
 40
1.0
 40
1.0
 40
1.0
 40
1.0
 10
99.0599255458
 20
283.0440840522
 30
0.0
 10
99.0138284278
 20
283.0519761219
 30
0.0
 10
98.9164555464
 20
283.0535197532
 30
0.0
 10
98.7711814883
 20
283.0084952218
 30
0.0
 10
98.6292312993
 20
282.9190063062
 30
0.0
 10
98.428824448
 20
282.7282755048
 30
0.0
 10
98.1908006666
 20
282.3699034546
 30
0.0
 10
97.9308050298
 20
281.8087663683
 30
0.0
 10
97.6792227
 20
281.0868797341
 30
0.0
 10
97.4388123528
 20
280.2098794788
 30
0.0
 10
97.212207608
 20
279.184257983
 30
0.0
 10
97.0019843073
 20
278.0190843528
 30
0.0
 10
96.8104626514
 20
276.7249172431
 30
0.0
 10
96.5754204774
 20
274.7803967637
 30
0.0
 10
96.3490908817
 20
272.1281274084
 30
0.0
 10
96.1853139499
 20
268.7574205773
 30
0.0
 10
96.1486069832
 20
266.4291808952
 30
0.0
 10
96.1486069832
 20
265.2409816099
 30
0.0
  0
SPLINE
  5
64B
100
AcDbEntity
  8
BEZUGSACHSEN
100
AcDbSpline
 62
7
  6
CONTINUOUS
 70
0
 71
3
 72
8
 73
4
 74
0
 42
0.0000001
 43
0.0000001
 44
0.0000000001
 40
0.0
 40
0.0
 40
0.0
 40
0.0
 40
1.0
 40
1.0
 40
1.0
 40
1.0
 10
112.5569413942
 20
54.7354131329
 30
0.0
 10
112.3673192205
 20
53.9480499081
 30
0.0
 10
112.1402434143
 20
53.1668842716
 30
0.0
 10
111.8486809636
 20
52.4113124657
 30
0.0
  0
LINE
  5
64C
100
AcDbEntity
  8
0
100
AcDbLine
 62
7
  6
CONTINUOUS
 10
73.0099224339
 20
291.2409389053
 11
71.8525153758
 21
279.7033175362
  0
SPLINE
  5
64D
100
AcDbEntity
  8
BEZUGSACHSEN
100
AcDbSpline
 62
7
  6
CONTINUOUS
 70
0
 71
3
 72
8
 73
4
 74
0
 42
0.0000001
 43
0.0000001
 44
0.0000000001
 40
0.0
 40
0.0
 40
0.0
 40
0.0
 40
1.0
 40
1.0
 40
1.0
 40
1.0
 10
83.7613695546
 20
60.249751494
 30
0.0
 10
83.8125234875
 20
60.7323758459
 30
0.0
 10
83.8845721678
 20
61.2130055749
 30
0.0
 10
83.971314805
 20
61.6905186164
 30
0.0
  0
SPLINE
  5
64E
100
AcDbEntity
  8
RUNDUNGEN
100
AcDbSpline
 62
7
  6
CONTINUOUS
 70
0
 71
3
 72
9
 73
5
 74
0
 42
0.0000001
 43
0.0000001
 44
0.0000000001
 40
0.0
 40
0.0
 40
0.0
 40
0.0
 40
0.2506512636
 40
1.0
 40
1.0
 40
1.0
 40
1.0
 10
44.4903544237
 20
122.487088493
 30
0.0
 10
44.7138362733
 20
122.4148282898
 30
0.0
 10
45.6074107942
 20
122.1326225389
 30
0.0
 10
46.5072159838
 20
121.8705030351
 30
0.0
 10
47.1831807896
 20
121.6804279492
 30
0.0
  0
SPLINE
  5
64F
100
AcDbEntity
  8
RUNDUNGEN
100
AcDbSpline
 62
7
  6
CONTINUOUS
 70
0
 71
3
 72
15
 73
11
 74
0
 42
0.0000001
 43
0.0000001
 44
0.0000000001
 40
0.0
 40
0.0
 40
0.0
 40
0.0
 40
0.3346371663
 40
0.4911298126
 40
0.6358715946
 40
0.7651977737
 40
0.8739015033
 40
0.9546932105
 40
0.9820603061
 40
1.0
 40
1.0
 40
1.0
 40
1.0
 10
55.0033923868
 20
119.7800740449
 30
0.0
 10
55.2440604303
 20
119.7324460324
 30
0.0
 10
55.5988409076
 20
119.6701115585
 30
0.0
 10
56.0604480017
 20
119.6046702948
 30
0.0
 10
56.3739306049
 20
119.5676701574
 30
0.0
 10
56.6535438611
 20
119.5421351224
 30
0.0
 10
56.8867441196
 20
119.5299153029
 30
0.0
 10
57.0464775091
 20
119.5297149522
 30
0.0
 10
57.1378922964
 20
119.5413056137
 30
0.0
 10
57.1706575999
 20
119.5501883789
 30
0.0
 10
57.1819217704
 20
119.5569781633
 30
0.0
  0
SPLINE
  5
650
100
AcDbEntity
  8
BEZUGSACHSEN
100
AcDbSpline
 62
7
  6
CONTINUOUS
 70
0
 71
3
 72
21
 73
17
 74
0
 42
0.0000001
 43
0.0000001
 44
0.0000000001
 40
0.0
 40
0.0
 40
0.0
 40
0.0
 40
0.1284096917
 40
0.1917183613
 40
0.2539846216
 40
0.3152685771
 40
0.3762655825
 40
0.438216554
 40
0.5018097623
 40
0.566254488
 40
0.6299758159
 40
0.6920035301
 40
0.7527158511
 40
0.8740654504
 40
0.9365247688
 40
1.0
 40
1.0
 40
1.0
 40
1.0
 10
127.2929491616
 20
57.0264446522
 30
0.0
 10
126.9481566795
 20
57.5777960278
 30
0.0
 10
126.5187244715
 20
58.4605956225
 30
0.0
 10
126.1696058518
 20
59.7013858
 30
0.0
 10
126.0482966002
 20
60.6443252514
 30
0.0
 10
126.1063095474
 20
61.58432623
 30
0.0
 10
126.390394317
 20
62.4847687747
 30
0.0
 10
126.9220419705
 20
63.281388423
 30
0.0
 10
127.6656134361
 20
63.9102539367
 30
0.0
 10
128.5514051989
 20
64.3324715019
 30
0.0
 10
129.5063086161
 20
64.521925724
 30
0.0
 10
130.4597382786
 20
64.4614698088
 30
0.0
 10
131.6432981967
 20
64.062528915
 30
0.0
 10
132.6351102607
 20
63.2608032067
 30
0.0
 10
133.4101604273
 20
62.2768858636
 30
0.0
 10
133.7438019316
 20
61.7309634213
 30
0.0
 10
133.896818455
 20
61.4482720236
 30
0.0
  0
SPLINE
  5
651
100
AcDbEntity
  8
BEZUGSACHSEN
100
AcDbSpline
 62
7
  6
CONTINUOUS
 70
0
 71
3
 72
17
 73
13
 74
0
 42
0.0000001
 43
0.0000001
 44
0.0000000001
 40
0.0
 40
0.0
 40
0.0
 40
0.0
 40
0.1274828045
 40
0.1928095972
 40
0.2575245939
 40
0.381138018
 40
0.4404849282
 40
0.4990991581
 40
0.6176044227
 40
0.7412940043
 40
0.8695223063
 40
1.0
 40
1.0
 40
1.0
 40
1.0
 10
106.7783488268
 20
61.3154657987
 30
0.0
 10
107.2100429107
 20
61.5244286848
 30
0.0
 10
107.9281897585
 20
61.7170988938
 30
0.0
 10
108.8988548553
 20
61.7475908421
 30
0.0
 10
109.848846998
 20
61.6329169033
 30
0.0
 10
110.7426046859
 20
61.2925642897
 30
0.0
 10
111.4616600327
 20
60.7277206656
 30
0.0
 10
112.0435838713
 20
60.0476457191
 30
0.0
 10
112.5288761246
 20
59.0033243698
 30
0.0
 10
112.7890521711
 20
57.625727696
 30
0.0
 10
112.8107725005
 20
56.181680109
 30
0.0
 10
112.671874091
 20
55.2126451839
 30
0.0
 10
112.5569413942
 20
54.7354131329
 30
0.0
  0
SPLINE
  5
652
100
AcDbEntity
  8
BEZUGSACHSEN
100
AcDbSpline
 62
7
  6
CONTINUOUS
 70
0
 71
3
 72
13
 73
9
 74
0
 42
0.0000001
 43
0.0000001
 44
0.0000000001
 40
0.0
 40
0.0
 40
0.0
 40
0.0
 40
0.2607486769
 40
0.5141107958
 40
0.6368013103
 40
0.7571625474
 40
0.8772109231
 40
1.0
 40
1.0
 40
1.0
 40
1.0
 10
104.7548794666
 20
54.9034765222
 30
0.0
 10
104.6108954262
 20
55.5145288672
 30
0.0
 10
104.4715399601
 20
56.755388216
 30
0.0
 10
104.6247409778
 20
58.2971832743
 30
0.0
 10
104.9977392986
 20
59.4380464287
 30
0.0
 10
105.4224221273
 20
60.2096866109
 30
0.0
 10
106.0150994511
 20
60.8644851156
 30
0.0
 10
106.51225875
 20
61.1866492098
 30
0.0
 10
106.7783488268
 20
61.3154657987
 30
0.0
  0
SPLINE
  5
653
100
AcDbEntity
  8
BEZUGSACHSEN
100
AcDbSpline
 62
7
  6
CONTINUOUS
 70
0
 71
3
 72
22
 73
18
 74
0
 42
0.0000001
 43
0.0000001
 44
0.0000000001
 40
0.0
 40
0.0
 40
0.0
 40
0.0
 40
0.1306446743
 40
0.1949547251
 40
0.2580370993
 40
0.3197799951
 40
0.3806064353
 40
0.4416594119
 40
0.5043037078
 40
0.5689820632
 40
0.6346810716
 40
0.6995819249
 40
0.7621254575
 40
0.8220158613
 40
0.88051701
 40
0.9394539982
 40
1.0
 40
1.0
 40
1.0
 40
1.0
 10
83.971314805
 20
61.6905186164
 30
0.0
 10
84.0791089505
 20
62.2839189517
 30
0.0
 10
84.3546265743
 20
63.1533827545
 30
0.0
 10
84.9134132364
 20
64.2076646164
 30
0.0
 10
85.4237641958
 20
64.9201793748
 30
0.0
 10
86.0324133476
 20
65.5301345797
 30
0.0
 10
86.7461033645
 20
66.000702356
 30
0.0
 10
87.5578501555
 20
66.2877964015
 30
0.0
 10
88.4330416962
 20
66.3630642371
 30
0.0
 10
89.3215961004
 20
66.2338177278
 30
0.0
 10
90.1751316057
 20
65.9268123099
 30
0.0
 10
90.9463247549
 20
65.4679309634
 30
0.0
 10
91.5869515289
 20
64.8760328775
 30
0.0
 10
92.0505339347
 20
64.1699936143
 30
0.0
 10
92.3086683887
 20
63.3835358683
 30
0.0
 10
92.3721622355
 20
62.558022664
 30
0.0
 10
92.3083202097
 20
62.0071707765
 30
0.0
 10
92.256231918
 20
61.732561036
 30
0.0
  0
SPLINE
  5
654
100
AcDbEntity
  8
BEZUGSACHSEN
100
AcDbSpline
 62
7
  6
CONTINUOUS
 70
0
 71
3
 72
8
 73
4
 74
0
 42
0.0000001
 43
0.0000001
 44
0.0000000001
 40
0.0
 40
0.0
 40
0.0
 40
0.0
 40
1.0
 40
1.0
 40
1.0
 40
1.0
 10
90.6118621128
 20
58.3158843481
 30
0.0
 10
90.2843751349
 20
57.9193862855
 30
0.0
 10
89.9430130883
 20
57.5335380434
 30
0.0
 10
89.5833630993
 20
57.1659644864
 30
0.0
  0
SPLINE
  5
655
100
AcDbEntity
  8
0
100
AcDbSpline
 62
7
  6
CONTINUOUS
 70
0
 71
3
 72
8
 73
4
 74
0
 42
0.0000001
 43
0.0000001
 44
0.0000000001
 40
0.0
 40
0.0
 40
0.0
 40
0.0
 40
1.0
 40
1.0
 40
1.0
 40
1.0
 10
77.3470455218
 20
227.3040570461
 30
0.0
 10
77.2042472874
 20
226.7356196593
 30
0.0
 10
77.0619134944
 20
226.1670653253
 30
0.0
 10
76.9201232389
 20
225.5983756719
 30
0.0
  0
LINE
  5
656
100
AcDbEntity
  8
RUNDUNGEN
100
AcDbLine
 62
7
  6
CONTINUOUS
 10
124.4400808869
 20
152.6670033418
 11
124.2302304298
 21
152.940727569
  0
SPLINE
  5
657
100
AcDbEntity
  8
RUNDUNGEN
100
AcDbSpline
 62
7
  6
CONTINUOUS
 70
0
 71
3
 72
13
 73
9
 74
0
 42
0.0000001
 43
0.0000001
 44
0.0000000001
 40
0.0
 40
0.0
 40
0.0
 40
0.0
 40
0.2497705839
 40
0.4990677892
 40
0.6243088412
 40
0.7495274045
 40
0.8747490028
 40
1.0
 40
1.0
 40
1.0
 40
1.0
 10
69.5268356388
 20
227.7183667769
 30
0.0
 10
69.9384255799
 20
227.6003499468
 30
0.0
 10
70.728515465
 20
227.2290122133
 30
0.0
 10
71.5006122615
 20
226.4455632393
 30
0.0
 10
71.8773254321
 20
225.6680675028
 30
0.0
 10
72.0113299954
 20
225.0307964093
 30
0.0
 10
71.9756063505
 20
224.3804674806
 30
0.0
 10
71.8403433858
 20
223.9672380714
 30
0.0
 10
71.7492249657
 20
223.7728163107
 30
0.0
  0
SPLINE
  5
658
100
AcDbEntity
  8
RUNDUNGEN
100
AcDbSpline
 62
7
  6
CONTINUOUS
 70
0
 71
3
 72
13
 73
9
 74
0
 42
0.0000001
 43
0.0000001
 44
0.0000000001
 40
0.0
 40
0.0
 40
0.0
 40
0.0
 40
0.2499682114
 40
0.4998581875
 40
0.6248948681
 40
0.7499293775
 40
0.8749677152
 40
1.0
 40
1.0
 40
1.0
 40
1.0
 10
91.146679991
 20
255.5073423951
 30
0.0
 10
90.3141729068
 20
255.9603391461
 30
0.0
 10
88.6948477959
 20
256.9531712472
 30
0.0
 10
86.8422307395
 20
258.4461554378
 30
0.0
 10
85.5334121315
 20
259.8212707245
 30
0.0
 10
84.6672905059
 20
260.9537930391
 30
0.0
 10
83.9588177904
 20
262.1925429244
 30
0.0
 10
83.6287734524
 20
263.0882585856
 30
0.0
 10
83.5099255458
 20
263.5471887196
 30
0.0
  0
SPLINE
  5
659
100
AcDbEntity
  8
RUNDUNGEN
100
AcDbSpline
 62
7
  6
CONTINUOUS
 70
0
 71
3
 72
13
 73
9
 74
0
 42
0.0000001
 43
0.0000001
 44
0.0000000001
 40
0.0
 40
0.0
 40
0.0
 40
0.0
 40
0.1249937217
 40
0.2500175075
 40
0.3750716845
 40
0.5001342913
 40
0.7499966849
 40
1.0
 40
1.0
 40
1.0
 40
1.0
 10
133.7289659717
 20
265.2409816099
 30
0.0
 10
133.7289659717
 20
264.6960544518
 30
0.0
 10
133.589643974
 20
263.6017812779
 30
0.0
 10
133.0108152039
 20
262.0602953933
 30
0.0
 10
132.1576599788
 20
260.6561552312
 30
0.0
 10
130.7640893677
 20
258.972827505
 30
0.0
 10
128.685024681
 20
257.1846439073
 30
0.0
 10
126.8305404509
 20
256.0282811516
 30
0.0
 10
125.8731711006
 20
255.5073423951
 30
0.0
  0
SPLINE
  5
65A
100
AcDbEntity
  8
0
100
AcDbSpline
 62
7
  6
CONTINUOUS
 70
0
 71
3
 72
8
 73
4
 74
0
 42
0.0000001
 43
0.0000001
 44
0.0000000001
 40
0.0
 40
0.0
 40
0.0
 40
0.0
 40
1.0
 40
1.0
 40
1.0
 40
1.0
 10
134.1115807242
 20
268.240982074
 30
0.0
 10
133.8655947695
 20
267.2633537065
 30
0.0
 10
133.7289659717
 20
266.2490819595
 30
0.0
 10
133.7289659717
 20
265.2409816099
 30
0.0
  0
SPLINE
  5
65B
100
AcDbEntity
  8
RUNDUNGEN
100
AcDbSpline
 62
7
  6
CONTINUOUS
 70
0
 71
3
 72
8
 73
4
 74
0
 42
0.0000001
 43
0.0000001
 44
0.0000000001
 40
0.0
 40
0.0
 40
0.0
 40
0.0
 40
1.0
 40
1.0
 40
1.0
 40
1.0
 10
77.4419232233
 20
227.7042489935
 30
0.0
 10
77.4438499741
 20
227.6978882686
 30
0.0
 10
77.4442670872
 20
227.6907691275
 30
0.0
 10
77.4426461583
 20
227.6843236811
 30
0.0
  0
LINE
  5
65C
100
AcDbEntity
  8
RUNDUNGEN
100
AcDbLine
 62
7
  6
CONTINUOUS
 10
77.3470455218
 20
227.3040570461
 11
77.4426461583
 21
227.6843236811
  0
SPLINE
  5
65D
100
AcDbEntity
  8
BEZUGSACHSEN
100
AcDbSpline
 62
7
  6
CONTINUOUS
 70
0
 71
3
 72
8
 73
4
 74
0
 42
0.0000001
 43
0.0000001
 44
0.0000000001
 40
0.0
 40
0.0
 40
0.0
 40
0.0
 40
1.0
 40
1.0
 40
1.0
 40
1.0
 10
105.3656112288
 20
52.7977146899
 30
0.0
 10
105.1199178399
 20
53.4860249403
 30
0.0
 10
104.9225007169
 20
54.1921120877
 30
0.0
 10
104.7548794666
 20
54.9034765222
 30
0.0
  0
SPLINE
  5
65E
100
AcDbEntity
  8
RUNDUNGEN
100
AcDbSpline
 62
7
  6
CONTINUOUS
 70
0
 71
3
 72
9
 73
5
 74
0
 42
0.0000001
 43
0.0000001
 44
0.0000000001
 40
0.0
 40
0.0
 40
0.0
 40
0.0
 40
0.4999895029
 40
1.0
 40
1.0
 40
1.0
 40
1.0
 10
124.2484064613
 20
152.9249915745
 30
0.0
 10
124.2145118457
 20
152.9762007525
 30
0.0
 10
124.1543063517
 20
153.0834091682
 30
0.0
 10
124.0900503906
 20
153.188080077
 30
0.0
 10
124.0598092426
 20
153.2415311252
 30
0.0
  0
SPLINE
  5
65F
100
AcDbEntity
  8
BEZUGSACHSEN
100
AcDbSpline
 62
7
  6
CONTINUOUS
 70
0
 71
3
 72
9
 73
5
 74
0
 42
0.0000001
 43
0.0000001
 44
0.0000000001
 40
0.0
 40
0.0
 40
0.0
 40
0.0
 40
0.249046512
 40
1.0
 40
1.0
 40
1.0
 40
1.0
 10
133.896818455
 20
61.4482720236
 30
0.0
 10
133.9696276851
 20
61.3137601255
 30
0.0
 10
134.2482570164
 20
60.7663649121
 30
0.0
 10
134.4746183151
 20
60.1921406987
 30
0.0
 10
134.6103912122
 20
59.7513771086
 30
0.0
  0
SPLINE
  5
660
100
AcDbEntity
  8
BEZUGSACHSEN
100
AcDbSpline
 62
7
  6
CONTINUOUS
 70
0
 71
3
 72
9
 73
5
 74
0
 42
0.0000001
 43
0.0000001
 44
0.0000000001
 40
0.0
 40
0.0
 40
0.0
 40
0.0
 40
0.4913889876
 40
1.0
 40
1.0
 40
1.0
 40
1.0
 10
92.256231918
 20
61.732561036
 30
0.0
 10
92.1396559153
 20
61.1179717532
 30
0.0
 10
91.706198725
 20
59.904375317
 30
0.0
 10
91.0241837353
 20
58.8150941961
 30
0.0
 10
90.6118621128
 20
58.3158843481
 30
0.0
  0
SPLINE
  5
661
100
AcDbEntity
  8
BEZUGSACHSEN
100
AcDbSpline
 62
7
  6
CONTINUOUS
 70
0
 71
3
 72
9
 73
5
 74
0
 42
0.0000001
 43
0.0000001
 44
0.0000000001
 40
0.0
 40
0.0
 40
0.0
 40
0.0
 40
0.5076668302
 40
1.0
 40
1.0
 40
1.0
 40
1.0
 10
358.2657894737
 20
159.3568599291
 30
0.0
 10
358.2657894737
 20
158.4501334455
 30
0.0
 10
358.1154318835
 20
156.6601787087
 30
0.0
 10
357.6473655275
 20
154.9248514109
 30
0.0
 10
357.3401284886
 20
154.1009318443
 30
0.0
  0
LINE
  5
662
100
AcDbEntity
  8
0
100
AcDbLine
 62
7
  6
CONTINUOUS
 10
325.8366238898
 20
184.5363656657
 11
325.737682781
 21
184.8164208838
  0
LINE
  5
663
100
AcDbEntity
  8
0
100
AcDbLine
 62
7
  6
CONTINUOUS
 10
325.737682781
 20
184.8164208838
 11
325.6387074119
 21
185.0972915693
  0
SPLINE
  5
664
100
AcDbEntity
  8
RUNDUNGEN
100
AcDbSpline
 62
7
  6
CONTINUOUS
 70
0
 71
3
 72
9
 73
5
 74
0
 42
0.0000001
 43
0.0000001
 44
0.0000000001
 40
0.0
 40
0.0
 40
0.0
 40
0.0
 40
0.2369397769
 40
1.0
 40
1.0
 40
1.0
 40
1.0
 10
310.1921472266
 20
147.9611133195
 30
0.0
 10
309.9937766164
 20
148.4425326467
 30
0.0
 10
309.1667160139
 20
150.4785368315
 30
0.0
 10
308.3773389268
 20
152.5297509266
 30
0.0
 10
307.7914504587
 20
154.1009318443
 30
0.0
  0
SPLINE
  5
665
100
AcDbEntity
  8
BEZUGSACHSEN
100
AcDbSpline
 62
7
  6
CONTINUOUS
 70
0
 71
3
 72
12
 73
8
 74
0
 42
0.0000001
 43
0.0000001
 44
0.0000000001
 40
0.0
 40
0.0
 40
0.0
 40
0.0
 40
0.2560433203
 40
0.5091012783
 40
0.634108683
 40
0.7576832603
 40
1.0
 40
1.0
 40
1.0
 40
1.0
 10
337.1189771264
 20
144.4480615287
 30
0.0
 10
337.589387836
 20
144.4480615287
 30
0.0
 10
338.5291079034
 20
144.3257660691
 30
0.0
 10
339.618612296
 20
143.8736787238
 30
0.0
 10
340.3823399645
 20
143.3527992631
 30
0.0
 10
341.0515191035
 20
142.7451737029
 30
0.0
 10
341.4493330056
 20
142.1877892594
 30
0.0
 10
341.6505160616
 20
141.7906480669
 30
0.0
  0
SPLINE
  5
666
100
AcDbEntity
  8
RUNDUNGEN
100
AcDbSpline
 62
7
  6
CONTINUOUS
 70
0
 71
3
 72
12
 73
8
 74
0
 42
0.0000001
 43
0.0000001
 44
0.0000000001
 40
0.0
 40
0.0
 40
0.0
 40
0.0
 40
0.2560433203
 40
0.5091012783
 40
0.634108683
 40
0.7576832603
 40
1.0
 40
1.0
 40
1.0
 40
1.0
 10
328.012601821
 20
144.4480615287
 30
0.0
 10
327.5421911114
 20
144.4480615287
 30
0.0
 10
326.602471044
 20
144.3257660691
 30
0.0
 10
325.5129666513
 20
143.8736787238
 30
0.0
 10
324.7492389829
 20
143.3527992631
 30
0.0
 10
324.0800598438
 20
142.7451737029
 30
0.0
 10
323.6822459417
 20
142.1877892594
 30
0.0
 10
323.4810628858
 20
141.7906480669
 30
0.0
  0
SPLINE
  5
667
100
AcDbEntity
  8
BEZUGSACHSEN
100
AcDbSpline
 62
7
  6
CONTINUOUS
 70
0
 71
3
 72
17
 73
13
 74
0
 42
0.0000001
 43
0.0000001
 44
0.0000000001
 40
0.0
 40
0.0
 40
0.0
 40
0.0
 40
0.0562671304
 40
0.1130549694
 40
0.1712139166
 40
0.23132132
 40
0.3576432671
 40
0.4911978496
 40
0.6270932898
 40
0.7594281775
 40
0.8838857137
 40
1.0
 40
1.0
 40
1.0
 40
1.0
 10
310.5820444225
 20
153.8009842481
 30
0.0
 10
310.5951123318
 20
153.6990154163
 30
0.0
 10
310.6449350565
 20
153.4963670078
 30
0.0
 10
310.7875235499
 20
153.2151281805
 30
0.0
 10
310.9923625437
 20
152.9662447568
 30
0.0
 10
311.343166808
 20
152.6850620805
 30
0.0
 10
311.8981719668
 20
152.4609244342
 30
0.0
 10
312.6319010428
 20
152.4231824683
 30
0.0
 10
313.3536531209
 20
152.6101456546
 30
0.0
 10
313.9710829401
 20
152.9995698606
 30
0.0
 10
314.4031413875
 20
153.5451200406
 30
0.0
 10
314.5245900779
 20
153.9839793236
 30
0.0
 10
314.5331266318
 20
154.1959539569
 30
0.0
  0
SPLINE
  5
668
100
AcDbEntity
  8
BEZUGSACHSEN
100
AcDbSpline
 62
7
  6
CONTINUOUS
 70
0
 71
3
 72
24
 73
20
 74
0
 42
0.0000001
 43
0.0000001
 44
0.0000000001
 40
0.0
 40
0.0
 40
0.0
 40
0.0
 40
0.0651980084
 40
0.1300648592
 40
0.1943197586
 40
0.2577455668
 40
0.3202349662
 40
0.381801745
 40
0.4425862297
 40
0.5028400317
 40
0.5628927114
 40
0.6231039041
 40
0.6838095097
 40
0.7452726619
 40
0.8076478581
 40
0.8709657943
 40
0.9029807864
 40
0.9351888568
 40
1.0
 40
1.0
 40
1.0
 40
1.0
 10
306.8657894737
 20
177.6538238144
 30
0.0
 10
307.8608213536
 20
177.6538238144
 30
0.0
 10
309.8499457287
 20
177.4859581298
 30
0.0
 10
312.7338955106
 20
176.7379163453
 30
0.0
 10
315.4239415068
 20
175.518298267
 30
0.0
 10
317.8291352014
 20
173.8665614814
 30
0.0
 10
319.8687675766
 20
171.8368091677
 30
0.0
 10
321.4732226728
 20
169.4959237548
 30
0.0
 10
322.5869948827
 20
166.9220129171
 30
0.0
 10
323.1709052078
 20
164.2020327999
 30
0.0
 10
323.204157831
 20
161.4288355738
 30
0.0
 10
322.6855622141
 20
158.6974929672
 30
0.0
 10
321.6336458822
 20
156.1013339093
 30
0.0
 10
320.0853356916
 20
153.7281505376
 30
0.0
 10
318.0947962126
 20
151.6574167115
 30
0.0
 10
316.1289535595
 20
150.2447058977
 30
0.0
 10
314.4105674949
 20
149.3257509922
 30
0.0
 10
312.5981056187
 20
148.5509858515
 30
0.0
 10
311.1635527802
 20
148.1475128468
 30
0.0
 10
310.1921472266
 20
147.9611133195
 30
0.0
  0
SPLINE
  5
669
100
AcDbEntity
  8
BEZUGSACHSEN
100
AcDbSpline
 62
7
  6
CONTINUOUS
 70
0
 71
3
 72
9
 73
5
 74
0
 42
0.0000001
 43
0.0000001
 44
0.0000000001
 40
0.0
 40
0.0
 40
0.0
 40
0.0
 40
0.5025038068
 40
1.0
 40
1.0
 40
1.0
 40
1.0
 10
319.2831742519
 20
162.1479554351
 30
0.0
 10
319.2831742519
 20
162.3777189105
 30
0.0
 10
319.1890695785
 20
162.8412002842
 30
0.0
 10
318.9061809914
 20
163.2210717315
 30
0.0
 10
318.7352375536
 20
163.3711472934
 30
0.0
  0
SPLINE
  5
66A
100
AcDbEntity
  8
BEZUGSACHSEN
100
AcDbSpline
 62
7
  6
CONTINUOUS
 70
0
 71
3
 72
11
 73
7
 74
0
 42
0.0000001
 43
0.0000001
 44
0.0000000001
 40
0.0
 40
0.0
 40
0.0
 40
0.0
 40
0.2519790097
 40
0.5008531936
 40
0.7492814109
 40
1.0
 40
1.0
 40
1.0
 40
1.0
 10
319.2403958127
 20
167.4958935887
 30
0.0
 10
319.2307686775
 20
167.676117788
 30
0.0
 10
319.1582924447
 20
168.0340210668
 30
0.0
 10
318.8933571563
 20
168.5103753355
 30
0.0
 10
318.4960395337
 20
168.8822846037
 30
0.0
 10
318.1670100451
 20
169.0380842862
 30
0.0
 10
317.9951361724
 20
169.0901204305
 30
0.0
  0
SPLINE
  5
66B
100
AcDbEntity
  8
BEZUGSACHSEN
100
AcDbSpline
 62
7
  6
CONTINUOUS
 70
0
 71
3
 72
9
 73
5
 74
0
 42
0.0000001
 43
0.0000001
 44
0.0000000001
 40
0.0
 40
0.0
 40
0.0
 40
0.0
 40
0.5007609074
 40
1.0
 40
1.0
 40
1.0
 40
1.0
 10
314.5331266318
 20
169.8997667568
 30
0.0
 10
314.5253684527
 20
170.1255469606
 30
0.0
 10
314.4286312534
 20
170.5775478988
 30
0.0
 10
314.1768403708
 20
170.9653448442
 30
0.0
 10
314.0225565323
 20
171.1294291384
 30
0.0
  0
SPLINE
  5
66C
100
AcDbEntity
  8
BEZUGSACHSEN
100
AcDbSpline
 62
7
  6
CONTINUOUS
 70
0
 71
3
 72
9
 73
5
 74
0
 42
0.0000001
 43
0.0000001
 44
0.0000000001
 40
0.0
 40
0.0
 40
0.0
 40
0.0
 40
0.5023237422
 40
1.0
 40
1.0
 40
1.0
 40
1.0
 10
319.2403958127
 20
157.0757786476
 30
0.0
 10
319.2522349037
 20
157.2768008115
 30
0.0
 10
319.1949278583
 20
157.6875382242
 30
0.0
 10
318.9665348849
 20
158.0343328815
 30
0.0
 10
318.8249983571
 20
158.1749409205
 30
0.0
  0
SPLINE
  5
66D
100
AcDbEntity
  8
RUNDUNGEN
100
AcDbSpline
 62
7
  6
CONTINUOUS
 70
0
 71
3
 72
12
 73
8
 74
0
 42
0.0000001
 43
0.0000001
 44
0.0000000001
 40
0.0
 40
0.0
 40
0.0
 40
0.0
 40
0.2423167397
 40
0.365891317
 40
0.4908987217
 40
0.7439566797
 40
1.0
 40
1.0
 40
1.0
 40
1.0
 10
323.4810628858
 20
142.9628414524
 30
0.0
 10
323.6822459417
 20
143.3599826449
 30
0.0
 10
324.0800598438
 20
143.9173670884
 30
0.0
 10
324.7492389829
 20
144.5249926486
 30
0.0
 10
325.5129666513
 20
145.0458721092
 30
0.0
 10
326.602471044
 20
145.4979594546
 30
0.0
 10
327.5421911114
 20
145.6202549142
 30
0.0
 10
328.012601821
 20
145.6202549142
 30
0.0
  0
SPLINE
  5
66E
100
AcDbEntity
  8
RUNDUNGEN
100
AcDbSpline
 62
7
  6
CONTINUOUS
 70
0
 71
3
 72
11
 73
7
 74
0
 42
0.0000001
 43
0.0000001
 44
0.0000000001
 40
0.0
 40
0.0
 40
0.0
 40
0.0
 40
0.2424534173
 40
0.4905906733
 40
0.7438120944
 40
1.0
 40
1.0
 40
1.0
 40
1.0
 10
318.469645763
 20
131.8979651922
 30
0.0
 10
318.4092933166
 20
131.7788277111
 30
0.0
 10
318.2497208363
 20
131.5550825035
 30
0.0
 10
317.9232000753
 20
131.2992006133
 30
0.0
 10
317.533293417
 20
131.1374731232
 30
0.0
 10
317.2513016101
 20
131.1007411537
 30
0.0
 10
317.1101840825
 20
131.1007411537
 30
0.0
  0
SPLINE
  5
66F
100
AcDbEntity
  8
BEZUGSACHSEN
100
AcDbSpline
 62
7
  6
CONTINUOUS
 70
0
 71
3
 72
17
 73
13
 74
0
 42
0.0000001
 43
0.0000001
 44
0.0000000001
 40
0.0
 40
0.0
 40
0.0
 40
0.0
 40
0.0575151888
 40
0.1145063648
 40
0.1718391219
 40
0.2302817597
 40
0.3519406362
 40
0.4814228462
 40
0.6158126658
 40
0.7499873155
 40
0.8789114021
 40
1.0
 40
1.0
 40
1.0
 40
1.0
 10
315.4228950937
 20
156.5876006684
 30
0.0
 10
315.431704787
 20
156.4834207383
 30
0.0
 10
315.4716450403
 20
156.2771046435
 30
0.0
 10
315.5989143362
 20
155.9890581794
 30
0.0
 10
315.7882608916
 20
155.7351658535
 30
0.0
 10
316.1173449851
 20
155.4512681607
 30
0.0
 10
316.6513778047
 20
155.2282904752
 30
0.0
 10
317.3651019904
 20
155.2063515204
 30
0.0
 10
318.0696415635
 20
155.4180641288
 30
0.0
 10
318.6744226234
 20
155.8354099877
 30
0.0
 10
319.1007088355
 20
156.4049644076
 30
0.0
 10
319.227454613
 20
156.8560431989
 30
0.0
 10
319.2403958127
 20
157.0757786476
 30
0.0
  0
SPLINE
  5
670
100
AcDbEntity
  8
BEZUGSACHSEN
100
AcDbSpline
 62
7
  6
CONTINUOUS
 70
0
 71
3
 72
17
 73
13
 74
0
 42
0.0000001
 43
0.0000001
 44
0.0000000001
 40
0.0
 40
0.0
 40
0.0
 40
0.0
 40
0.0575151888
 40
0.1145063648
 40
0.1718391219
 40
0.2302817597
 40
0.3519406362
 40
0.4814228462
 40
0.6158126658
 40
0.7499873155
 40
0.8789114021
 40
1.0
 40
1.0
 40
1.0
 40
1.0
 10
349.7086838537
 20
156.5876006684
 30
0.0
 10
349.6998741603
 20
156.4834207383
 30
0.0
 10
349.659933907
 20
156.2771046435
 30
0.0
 10
349.5326646112
 20
155.9890581794
 30
0.0
 10
349.3433180558
 20
155.7351658535
 30
0.0
 10
349.0142339622
 20
155.4512681607
 30
0.0
 10
348.4802011426
 20
155.2282904752
 30
0.0
 10
347.7664769569
 20
155.2063515204
 30
0.0
 10
347.0619373839
 20
155.4180641288
 30
0.0
 10
346.457156324
 20
155.8354099877
 30
0.0
 10
346.0308701119
 20
156.4049644076
 30
0.0
 10
345.9041243344
 20
156.8560431989
 30
0.0
 10
345.8911831347
 20
157.0757786476
 30
0.0
  0
SPLINE
  5
671
100
AcDbEntity
  8
BEZUGSACHSEN
100
AcDbSpline
 62
7
  6
CONTINUOUS
 70
0
 71
3
 72
17
 73
13
 74
0
 42
0.0000001
 43
0.0000001
 44
0.0000000001
 40
0.0
 40
0.0
 40
0.0
 40
0.0
 40
0.0562671304
 40
0.1130549694
 40
0.1712139166
 40
0.23132132
 40
0.3576432671
 40
0.4911978496
 40
0.6270932898
 40
0.7594281775
 40
0.8838857137
 40
1.0
 40
1.0
 40
1.0
 40
1.0
 10
354.5495345249
 20
153.8009842481
 30
0.0
 10
354.5364666156
 20
153.6990154163
 30
0.0
 10
354.4866438908
 20
153.4963670078
 30
0.0
 10
354.3440553974
 20
153.2151281805
 30
0.0
 10
354.1392164037
 20
152.9662447568
 30
0.0
 10
353.7884121394
 20
152.6850620805
 30
0.0
 10
353.2334069806
 20
152.4609244342
 30
0.0
 10
352.4996779045
 20
152.4231824683
 30
0.0
 10
351.7779258265
 20
152.6101456546
 30
0.0
 10
351.1604960072
 20
152.9995698606
 30
0.0
 10
350.7284375599
 20
153.5451200406
 30
0.0
 10
350.6069888695
 20
153.9839793236
 30
0.0
 10
350.5984523156
 20
154.1959539569
 30
0.0
  0
SPLINE
  5
672
100
AcDbEntity
  8
BEZUGSACHSEN
100
AcDbSpline
 62
7
  6
CONTINUOUS
 70
0
 71
3
 72
9
 73
5
 74
0
 42
0.0000001
 43
0.0000001
 44
0.0000000001
 40
0.0
 40
0.0
 40
0.0
 40
0.0
 40
0.2369397769
 40
1.0
 40
1.0
 40
1.0
 40
1.0
 10
354.9394317208
 20
147.9611133195
 30
0.0
 10
355.137802331
 20
148.4425326467
 30
0.0
 10
355.9648629334
 20
150.4785368315
 30
0.0
 10
356.7542400206
 20
152.5297509266
 30
0.0
 10
357.3401284886
 20
154.1009318443
 30
0.0
  0
SPLINE
  5
673
100
AcDbEntity
  8
BEZUGSACHSEN
100
AcDbSpline
 62
7
  6
CONTINUOUS
 70
0
 71
3
 72
24
 73
20
 74
0
 42
0.0000001
 43
0.0000001
 44
0.0000000001
 40
0.0
 40
0.0
 40
0.0
 40
0.0
 40
0.0651980084
 40
0.1300648592
 40
0.1943197586
 40
0.2577455668
 40
0.3202349662
 40
0.381801745
 40
0.4425862297
 40
0.5028400317
 40
0.5628927114
 40
0.6231039041
 40
0.6838095097
 40
0.7452726619
 40
0.8076478581
 40
0.8709657943
 40
0.9029807864
 40
0.9351888568
 40
1.0
 40
1.0
 40
1.0
 40
1.0
 10
358.2657894737
 20
177.6538238144
 30
0.0
 10
357.2707575937
 20
177.6538238144
 30
0.0
 10
355.2816332187
 20
177.4859581298
 30
0.0
 10
352.3976834368
 20
176.7379163453
 30
0.0
 10
349.7076374406
 20
175.518298267
 30
0.0
 10
347.302443746
 20
173.8665614814
 30
0.0
 10
345.2628113708
 20
171.8368091677
 30
0.0
 10
343.6583562745
 20
169.4959237548
 30
0.0
 10
342.5445840647
 20
166.9220129171
 30
0.0
 10
341.9606737396
 20
164.2020327999
 30
0.0
 10
341.9274211163
 20
161.4288355738
 30
0.0
 10
342.4460167332
 20
158.6974929672
 30
0.0
 10
343.4979330652
 20
156.1013339093
 30
0.0
 10
345.0462432557
 20
153.7281505376
 30
0.0
 10
347.0367827348
 20
151.6574167115
 30
0.0
 10
349.0026253878
 20
150.2447058977
 30
0.0
 10
350.7210114524
 20
149.3257509922
 30
0.0
 10
352.5334733286
 20
148.5509858515
 30
0.0
 10
353.9680261672
 20
148.1475128468
 30
0.0
 10
354.9394317208
 20
147.9611133195
 30
0.0
  0
SPLINE
  5
674
100
AcDbEntity
  8
BEZUGSACHSEN
100
AcDbSpline
 62
7
  6
CONTINUOUS
 70
0
 71
3
 72
9
 73
5
 74
0
 42
0.0000001
 43
0.0000001
 44
0.0000000001
 40
0.0
 40
0.0
 40
0.0
 40
0.0
 40
0.5025038068
 40
1.0
 40
1.0
 40
1.0
 40
1.0
 10
345.8484046954
 20
162.1479554351
 30
0.0
 10
345.8484046954
 20
162.3777189105
 30
0.0
 10
345.9425093689
 20
162.8412002842
 30
0.0
 10
346.225397956
 20
163.2210717315
 30
0.0
 10
346.3963413937
 20
163.3711472934
 30
0.0
  0
SPLINE
  5
675
100
AcDbEntity
  8
BEZUGSACHSEN
100
AcDbSpline
 62
7
  6
CONTINUOUS
 70
0
 71
3
 72
11
 73
7
 74
0
 42
0.0000001
 43
0.0000001
 44
0.0000000001
 40
0.0
 40
0.0
 40
0.0
 40
0.0
 40
0.2519790097
 40
0.5008531936
 40
0.7492814109
 40
1.0
 40
1.0
 40
1.0
 40
1.0
 10
345.8911831347
 20
167.4958935887
 30
0.0
 10
345.9008102699
 20
167.676117788
 30
0.0
 10
345.9732865026
 20
168.0340210668
 30
0.0
 10
346.2382217911
 20
168.5103753355
 30
0.0
 10
346.6355394137
 20
168.8822846037
 30
0.0
 10
346.9645689022
 20
169.0380842862
 30
0.0
 10
347.136442775
 20
169.0901204305
 30
0.0
  0
SPLINE
  5
676
100
AcDbEntity
  8
BEZUGSACHSEN
100
AcDbSpline
 62
7
  6
CONTINUOUS
 70
0
 71
3
 72
9
 73
5
 74
0
 42
0.0000001
 43
0.0000001
 44
0.0000000001
 40
0.0
 40
0.0
 40
0.0
 40
0.0
 40
0.5007609074
 40
1.0
 40
1.0
 40
1.0
 40
1.0
 10
350.5984523156
 20
169.8997667568
 30
0.0
 10
350.6062104947
 20
170.1255469606
 30
0.0
 10
350.702947694
 20
170.5775478988
 30
0.0
 10
350.9547385765
 20
170.9653448442
 30
0.0
 10
351.1090224151
 20
171.1294291384
 30
0.0
  0
SPLINE
  5
677
100
AcDbEntity
  8
BEZUGSACHSEN
100
AcDbSpline
 62
7
  6
CONTINUOUS
 70
0
 71
3
 72
9
 73
5
 74
0
 42
0.0000001
 43
0.0000001
 44
0.0000000001
 40
0.0
 40
0.0
 40
0.0
 40
0.0
 40
0.5023237422
 40
1.0
 40
1.0
 40
1.0
 40
1.0
 10
345.8911831347
 20
157.0757786476
 30
0.0
 10
345.8793440437
 20
157.2768008115
 30
0.0
 10
345.9366510891
 20
157.6875382242
 30
0.0
 10
346.1650440624
 20
158.0343328815
 30
0.0
 10
346.3065805902
 20
158.1749409205
 30
0.0
  0
SPLINE
  5
678
100
AcDbEntity
  8
BEZUGSACHSEN
100
AcDbSpline
 62
7
  6
CONTINUOUS
 70
0
 71
3
 72
17
 73
13
 74
0
 42
0.0000001
 43
0.0000001
 44
0.0000000001
 40
0.0
 40
0.0
 40
0.0
 40
0.0
 40
0.0588705045
 40
0.1177396208
 40
0.1771995274
 40
0.2377054134
 40
0.3622624193
 40
0.4919663624
 40
0.6240014304
 40
0.7543404905
 40
0.8798602881
 40
1.0
 40
1.0
 40
1.0
 40
1.0
 10
310.5703761838
 20
158.8359936846
 30
0.0
 10
310.578015881
 20
158.7234443529
 30
0.0
 10
310.6174968799
 20
158.4992046982
 30
0.0
 10
310.7480486056
 20
158.1830210478
 30
0.0
 10
310.9447003552
 20
157.8991478846
 30
0.0
 10
311.2872867012
 20
157.5752522852
 30
0.0
 10
311.8436064371
 20
157.3029647341
 30
0.0
 10
312.5954508693
 20
157.2342523165
 30
0.0
 10
313.3377937092
 20
157.4217452044
 30
0.0
 10
313.9697352691
 20
157.8409811137
 30
0.0
 10
314.4029131935
 20
158.4369663191
 30
0.0
 10
314.5146238285
 20
158.9106230512
 30
0.0
 10
314.5181038466
 20
159.1408098082
 30
0.0
  0
SPLINE
  5
679
100
AcDbEntity
  8
BEZUGSACHSEN
100
AcDbSpline
 62
7
  6
CONTINUOUS
 70
0
 71
3
 72
12
 73
8
 74
0
 42
0.0000001
 43
0.0000001
 44
0.0000000001
 40
0.0
 40
0.0
 40
0.0
 40
0.0
 40
0.2423167397
 40
0.365891317
 40
0.4908987217
 40
0.7439566797
 40
1.0
 40
1.0
 40
1.0
 40
1.0
 10
341.6505160616
 20
142.9628414524
 30
0.0
 10
341.4493330056
 20
143.3599826449
 30
0.0
 10
341.0515191035
 20
143.9173670884
 30
0.0
 10
340.3823399645
 20
144.5249926486
 30
0.0
 10
339.618612296
 20
145.0458721092
 30
0.0
 10
338.5291079034
 20
145.4979594546
 30
0.0
 10
337.589387836
 20
145.6202549142
 30
0.0
 10
337.1189771264
 20
145.6202549142
 30
0.0
  0
SPLINE
  5
67A
100
AcDbEntity
  8
BEZUGSACHSEN
100
AcDbSpline
 62
7
  6
CONTINUOUS
 70
0
 71
3
 72
11
 73
7
 74
0
 42
0.0000001
 43
0.0000001
 44
0.0000000001
 40
0.0
 40
0.0
 40
0.0
 40
0.0
 40
0.2415229584
 40
0.4891164495
 40
0.7427104403
 40
1.0
 40
1.0
 40
1.0
 40
1.0
 10
349.8965193954
 20
133.2384900975
 30
0.0
 10
349.8486932033
 20
133.0988630405
 30
0.0
 10
349.7020920221
 20
132.8309096915
 30
0.0
 10
349.3629338429
 20
132.5184753793
 30
0.0
 10
348.9373072395
 20
132.3185308393
 30
0.0
 10
348.6231695418
 20
132.2729345392
 30
0.0
 10
348.4659439693
 20
132.2729345392
 30
0.0
  0
SPLINE
  5
67B
100
AcDbEntity
  8
BEZUGSACHSEN
100
AcDbSpline
 62
7
  6
CONTINUOUS
 70
0
 71
3
 72
11
 73
7
 74
0
 42
0.0000001
 43
0.0000001
 44
0.0000000001
 40
0.0
 40
0.0
 40
0.0
 40
0.0
 40
0.2424534173
 40
0.4905906733
 40
0.7438120944
 40
1.0
 40
1.0
 40
1.0
 40
1.0
 10
346.6619331843
 20
131.8979651922
 30
0.0
 10
346.7222856307
 20
131.7788277111
 30
0.0
 10
346.8818581111
 20
131.5550825035
 30
0.0
 10
347.208378872
 20
131.2992006133
 30
0.0
 10
347.5982855303
 20
131.1374731232
 30
0.0
 10
347.8802773372
 20
131.1007411537
 30
0.0
 10
348.0213948649
 20
131.1007411537
 30
0.0
  0
SPLINE
  5
67C
100
AcDbEntity
  8
BEZUGSACHSEN
100
AcDbSpline
 62
7
  6
CONTINUOUS
 70
0
 71
3
 72
11
 73
7
 74
0
 42
0.0000001
 43
0.0000001
 44
0.0000000001
 40
0.0
 40
0.0
 40
0.0
 40
0.0
 40
0.2561879056
 40
0.5094093267
 40
0.7575465827
 40
1.0
 40
1.0
 40
1.0
 40
1.0
 10
348.0213948649
 20
132.2729345392
 30
0.0
 10
347.8802773372
 20
132.2729345392
 30
0.0
 10
347.5982855303
 20
132.3096665087
 30
0.0
 10
347.208378872
 20
132.4713939988
 30
0.0
 10
346.8818581111
 20
132.727275889
 30
0.0
 10
346.7222856307
 20
132.9510210966
 30
0.0
 10
346.6619331843
 20
133.0701585777
 30
0.0
  0
SPLINE
  5
67D
100
AcDbEntity
  8
RUNDUNGEN
100
AcDbSpline
 62
7
  6
CONTINUOUS
 70
0
 71
3
 72
11
 73
7
 74
0
 42
0.0000001
 43
0.0000001
 44
0.0000000001
 40
0.0
 40
0.0
 40
0.0
 40
0.0
 40
0.2561879056
 40
0.5094093267
 40
0.7575465827
 40
1.0
 40
1.0
 40
1.0
 40
1.0
 10
317.1101840825
 20
132.2729345392
 30
0.0
 10
317.2513016101
 20
132.2729345392
 30
0.0
 10
317.533293417
 20
132.3096665087
 30
0.0
 10
317.9232000753
 20
132.4713939988
 30
0.0
 10
318.2497208363
 20
132.727275889
 30
0.0
 10
318.4092933166
 20
132.9510210966
 30
0.0
 10
318.469645763
 20
133.0701585777
 30
0.0
  0
SPLINE
  5
67E
100
AcDbEntity
  8
RUNDUNGEN
100
AcDbSpline
 62
7
  6
CONTINUOUS
 70
0
 71
3
 72
11
 73
7
 74
0
 42
0.0000001
 43
0.0000001
 44
0.0000000001
 40
0.0
 40
0.0
 40
0.0
 40
0.0
 40
0.2415229584
 40
0.4891164495
 40
0.7427104403
 40
1.0
 40
1.0
 40
1.0
 40
1.0
 10
315.235059552
 20
133.2384900975
 30
0.0
 10
315.2828857441
 20
133.0988630405
 30
0.0
 10
315.4294869252
 20
132.8309096915
 30
0.0
 10
315.7686451045
 20
132.5184753793
 30
0.0
 10
316.1942717079
 20
132.3185308393
 30
0.0
 10
316.5084094056
 20
132.2729345392
 30
0.0
 10
316.6656349781
 20
132.2729345392
 30
0.0
  0
SPLINE
  5
67F
100
AcDbEntity
  8
BEZUGSACHSEN
100
AcDbSpline
 62
7
  6
CONTINUOUS
 70
0
 71
3
 72
15
 73
11
 74
0
 42
0.0000001
 43
0.0000001
 44
0.0000000001
 40
0.0
 40
0.0
 40
0.0
 40
0.0
 40
0.1216961724
 40
0.242465233
 40
0.3646450261
 40
0.4897468101
 40
0.6176026072
 40
0.746609179
 40
0.8746050497
 40
1.0
 40
1.0
 40
1.0
 40
1.0
 10
349.6933639157
 20
166.8772095586
 30
0.0
 10
349.6584326444
 20
166.6458741364
 30
0.0
 10
349.4963311631
 20
166.1930476867
 30
0.0
 10
349.0037290697
 20
165.6677636575
 30
0.0
 10
348.3377389445
 20
165.3769066098
 30
0.0
 10
347.5992633457
 20
165.3608276147
 30
0.0
 10
346.893564042
 20
165.6161429915
 30
0.0
 10
346.3173587747
 20
166.105067857
 30
0.0
 10
345.9493872436
 20
166.7592069842
 30
0.0
 10
345.878324171
 20
167.2551681424
 30
0.0
 10
345.8911831347
 20
167.4958935887
 30
0.0
  0
SPLINE
  5
680
100
AcDbEntity
  8
BEZUGSACHSEN
100
AcDbSpline
 62
7
  6
CONTINUOUS
 70
0
 71
3
 72
17
 73
13
 74
0
 42
0.0000001
 43
0.0000001
 44
0.0000000001
 40
0.0
 40
0.0
 40
0.0
 40
0.0
 40
0.1228460528
 40
0.2460788429
 40
0.3704847204
 40
0.4334468741
 40
0.4967082013
 40
0.6232799531
 40
0.7497541825
 40
0.812921934
 40
0.8757857426
 40
1.0
 40
1.0
 40
1.0
 40
1.0
 10
310.6646988898
 20
169.1379430444
 30
0.0
 10
310.7361882493
 20
168.9191668634
 30
0.0
 10
310.9630921723
 20
168.5034832855
 30
0.0
 10
311.5053781269
 20
168.0466371781
 30
0.0
 10
312.0680176301
 20
167.8506806342
 30
0.0
 10
312.5385681352
 20
167.8185422877
 30
0.0
 10
313.0116416985
 20
167.8693552608
 30
0.0
 10
313.5763149086
 20
168.0878129486
 30
0.0
 10
314.0323969911
 20
168.4856776336
 30
0.0
 10
314.2973402904
 20
168.8803178416
 30
0.0
 10
314.4876746184
 20
169.3106981341
 30
0.0
 10
314.5411186835
 20
169.6671803426
 30
0.0
 10
314.5331266318
 20
169.8997667568
 30
0.0
  0
SPLINE
  5
681
100
AcDbEntity
  8
BEZUGSACHSEN
100
AcDbSpline
 62
7
  6
CONTINUOUS
 70
0
 71
3
 72
17
 73
13
 74
0
 42
0.0000001
 43
0.0000001
 44
0.0000000001
 40
0.0
 40
0.0
 40
0.0
 40
0.0
 40
0.0588705045
 40
0.1177396208
 40
0.1771995274
 40
0.2377054134
 40
0.3622624193
 40
0.4919663624
 40
0.6240014304
 40
0.7543404905
 40
0.8798602881
 40
1.0
 40
1.0
 40
1.0
 40
1.0
 10
354.5612027636
 20
158.8359936846
 30
0.0
 10
354.5535630664
 20
158.7234443529
 30
0.0
 10
354.5140820675
 20
158.4992046982
 30
0.0
 10
354.3835303417
 20
158.1830210478
 30
0.0
 10
354.1868785921
 20
157.8991478846
 30
0.0
 10
353.8442922462
 20
157.5752522852
 30
0.0
 10
353.2879725103
 20
157.3029647341
 30
0.0
 10
352.5361280781
 20
157.2342523165
 30
0.0
 10
351.7937852381
 20
157.4217452044
 30
0.0
 10
351.1618436783
 20
157.8409811137
 30
0.0
 10
350.7286657539
 20
158.4369663191
 30
0.0
 10
350.6169551189
 20
158.9106230512
 30
0.0
 10
350.6134751007
 20
159.1408098082
 30
0.0
  0
SPLINE
  5
682
100
AcDbEntity
  8
BEZUGSACHSEN
100
AcDbSpline
 62
7
  6
CONTINUOUS
 70
0
 71
3
 72
19
 73
15
 74
0
 42
0.0000001
 43
0.0000001
 44
0.0000000001
 40
0.0
 40
0.0
 40
0.0
 40
0.0
 40
0.0605235967
 40
0.1209441375
 40
0.1815795699
 40
0.2427172014
 40
0.3666353142
 40
0.4936331789
 40
0.5581772411
 40
0.6228858203
 40
0.6874556187
 40
0.75161731
 40
0.8773451375
 40
1.0
 40
1.0
 40
1.0
 40
1.0
 10
354.5576101455
 20
164.0373888011
 30
0.0
 10
354.5468622955
 20
163.9188682057
 30
0.0
 10
354.5011854283
 20
163.6834906728
 30
0.0
 10
354.3622800847
 20
163.3519968809
 30
0.0
 10
354.1580813574
 20
163.0545099585
 30
0.0
 10
353.8084696706
 20
162.7170336419
 30
0.0
 10
353.2463677063
 20
162.4320150354
 30
0.0
 10
352.6137314514
 20
162.3746803122
 30
0.0
 10
352.1156888487
 20
162.4645206027
 30
0.0
 10
351.7566913584
 20
162.5986525865
 30
0.0
 10
351.4281231393
 20
162.794474834
 30
0.0
 10
351.0496171141
 20
163.1251702616
 30
0.0
 10
350.7047602545
 20
163.6520587402
 30
0.0
 10
350.6100132628
 20
164.1465373299
 30
0.0
 10
350.6134751007
 20
164.3876874728
 30
0.0
  0
SPLINE
  5
683
100
AcDbEntity
  8
BEZUGSACHSEN
100
AcDbSpline
 62
7
  6
CONTINUOUS
 70
0
 71
3
 72
15
 73
11
 74
0
 42
0.0000001
 43
0.0000001
 44
0.0000000001
 40
0.0
 40
0.0
 40
0.0
 40
0.0
 40
0.1216961724
 40
0.242465233
 40
0.3646450261
 40
0.4897468101
 40
0.6176026072
 40
0.746609179
 40
0.8746050497
 40
1.0
 40
1.0
 40
1.0
 40
1.0
 10
315.4382150316
 20
166.8772095586
 30
0.0
 10
315.4731463029
 20
166.6458741364
 30
0.0
 10
315.6352477842
 20
166.1930476867
 30
0.0
 10
316.1278498777
 20
165.6677636575
 30
0.0
 10
316.7938400029
 20
165.3769066098
 30
0.0
 10
317.5323156017
 20
165.3608276147
 30
0.0
 10
318.2380149053
 20
165.6161429915
 30
0.0
 10
318.8142201726
 20
166.105067857
 30
0.0
 10
319.1821917038
 20
166.7592069842
 30
0.0
 10
319.2532547763
 20
167.2551681424
 30
0.0
 10
319.2403958127
 20
167.4958935887
 30
0.0
  0
SPLINE
  5
684
100
AcDbEntity
  8
BEZUGSACHSEN
100
AcDbSpline
 62
7
  6
CONTINUOUS
 70
0
 71
3
 72
19
 73
15
 74
0
 42
0.0000001
 43
0.0000001
 44
0.0000000001
 40
0.0
 40
0.0
 40
0.0
 40
0.0
 40
0.0605235967
 40
0.1209441375
 40
0.1815795699
 40
0.2427172014
 40
0.3666353142
 40
0.4936331789
 40
0.5581772411
 40
0.6228858203
 40
0.6874556187
 40
0.75161731
 40
0.8773451375
 40
1.0
 40
1.0
 40
1.0
 40
1.0
 10
310.5739688019
 20
164.0373888011
 30
0.0
 10
310.5847166519
 20
163.9188682057
 30
0.0
 10
310.6303935191
 20
163.6834906728
 30
0.0
 10
310.7692988626
 20
163.3519968809
 30
0.0
 10
310.97349759
 20
163.0545099585
 30
0.0
 10
311.3231092768
 20
162.7170336419
 30
0.0
 10
311.8852112411
 20
162.4320150354
 30
0.0
 10
312.5178474959
 20
162.3746803122
 30
0.0
 10
313.0158900987
 20
162.4645206027
 30
0.0
 10
313.374887589
 20
162.5986525865
 30
0.0
 10
313.703455808
 20
162.794474834
 30
0.0
 10
314.0819618333
 20
163.1251702616
 30
0.0
 10
314.4268186928
 20
163.6520587402
 30
0.0
 10
314.5215656846
 20
164.1465373299
 30
0.0
 10
314.5181038466
 20
164.3876874728
 30
0.0
  0
SPLINE
  5
685
100
AcDbEntity
  8
BEZUGSACHSEN
100
AcDbSpline
 62
7
  6
CONTINUOUS
 70
0
 71
3
 72
15
 73
11
 74
0
 42
0.0000001
 43
0.0000001
 44
0.0000000001
 40
0.0
 40
0.0
 40
0.0
 40
0.0
 40
0.1177868287
 40
0.2364699186
 40
0.3591361112
 40
0.4866861599
 40
0.61756056
 40
0.7486298933
 40
0.8766987711
 40
1.0
 40
1.0
 40
1.0
 40
1.0
 10
349.6607802145
 20
161.4023013004
 30
0.0
 10
349.610683972
 20
161.1929608643
 30
0.0
 10
349.4226030696
 20
160.7880370448
 30
0.0
 10
348.9171331093
 20
160.3426038272
 30
0.0
 10
348.2643586673
 20
160.1180608925
 30
0.0
 10
347.5542907653
 20
160.1381633027
 30
0.0
 10
346.8766224218
 20
160.3946017044
 30
0.0
 10
346.3151532673
 20
160.8542266984
 30
0.0
 10
345.9405327125
 20
161.4596739197
 30
0.0
 10
345.8484046954
 20
161.9226269334
 30
0.0
 10
345.8484046954
 20
162.1479554351
 30
0.0
  0
SPLINE
  5
686
100
AcDbEntity
  8
BEZUGSACHSEN
100
AcDbSpline
 62
7
  6
CONTINUOUS
 70
0
 71
3
 72
15
 73
11
 74
0
 42
0.0000001
 43
0.0000001
 44
0.0000000001
 40
0.0
 40
0.0
 40
0.0
 40
0.0
 40
0.1177868287
 40
0.2364699186
 40
0.3591361112
 40
0.4866861599
 40
0.61756056
 40
0.7486298933
 40
0.8766987711
 40
1.0
 40
1.0
 40
1.0
 40
1.0
 10
315.4707987329
 20
161.4023013004
 30
0.0
 10
315.5208949753
 20
161.1929608643
 30
0.0
 10
315.7089758777
 20
160.7880370448
 30
0.0
 10
316.214445838
 20
160.3426038272
 30
0.0
 10
316.8672202801
 20
160.1180608925
 30
0.0
 10
317.5772881821
 20
160.1381633027
 30
0.0
 10
318.2549565256
 20
160.3946017044
 30
0.0
 10
318.8164256801
 20
160.8542266984
 30
0.0
 10
319.1910462349
 20
161.4596739197
 30
0.0
 10
319.2831742519
 20
161.9226269334
 30
0.0
 10
319.2831742519
 20
162.1479554351
 30
0.0
  0
SPLINE
  5
687
100
AcDbEntity
  8
BEZUGSACHSEN
100
AcDbSpline
 62
7
  6
CONTINUOUS
 70
0
 71
3
 72
17
 73
13
 74
0
 42
0.0000001
 43
0.0000001
 44
0.0000000001
 40
0.0
 40
0.0
 40
0.0
 40
0.0
 40
0.1228460528
 40
0.2460788429
 40
0.3704847204
 40
0.4334468741
 40
0.4967082013
 40
0.6232799531
 40
0.7497541825
 40
0.812921934
 40
0.8757857426
 40
1.0
 40
1.0
 40
1.0
 40
1.0
 10
354.4668800575
 20
169.1379430444
 30
0.0
 10
354.395390698
 20
168.9191668634
 30
0.0
 10
354.1684867751
 20
168.5034832855
 30
0.0
 10
353.6262008205
 20
168.0466371781
 30
0.0
 10
353.0635613173
 20
167.8506806342
 30
0.0
 10
352.5930108122
 20
167.8185422877
 30
0.0
 10
352.1199372488
 20
167.8693552608
 30
0.0
 10
351.5552640388
 20
168.0878129486
 30
0.0
 10
351.0991819563
 20
168.4856776336
 30
0.0
 10
350.834238657
 20
168.8803178416
 30
0.0
 10
350.643904329
 20
169.3106981341
 30
0.0
 10
350.5904602639
 20
169.6671803426
 30
0.0
 10
350.5984523156
 20
169.8997667568
 30
0.0
  0
SPLINE
  5
688
100
AcDbEntity
  8
RUNDUNGEN
100
AcDbSpline
 62
7
  6
CONTINUOUS
 70
0
 71
3
 72
11
 73
7
 74
0
 42
0.0000001
 43
0.0000001
 44
0.0000000001
 40
0.0
 40
0.0
 40
0.0
 40
0.0
 40
0.2422334358
 40
0.4902899825
 40
0.7435793465
 40
1.0
 40
1.0
 40
1.0
 40
1.0
 10
328.5907613841
 20
142.2383067162
 30
0.0
 10
328.6490801635
 20
142.3614527041
 30
0.0
 10
328.8068518428
 20
142.5936336328
 30
0.0
 10
329.1363370015
 20
142.8601085936
 30
0.0
 10
329.5333486893
 20
143.0289406398
 30
0.0
 10
329.821551951
 20
143.0673042486
 30
0.0
 10
329.9657894737
 20
143.0673042486
 30
0.0
  0
SPLINE
  5
689
100
AcDbEntity
  8
RUNDUNGEN
100
AcDbSpline
 62
7
  6
CONTINUOUS
 70
0
 71
3
 72
9
 73
5
 74
0
 42
0.0000001
 43
0.0000001
 44
0.0000000001
 40
0.0
 40
0.0
 40
0.0
 40
0.0
 40
0.5076668302
 40
1.0
 40
1.0
 40
1.0
 40
1.0
 10
306.8657894737
 20
159.3568599291
 30
0.0
 10
306.8657894737
 20
158.4501334455
 30
0.0
 10
307.0161470638
 20
156.6601787087
 30
0.0
 10
307.4842134199
 20
154.9248514109
 30
0.0
 10
307.7914504587
 20
154.1009318443
 30
0.0
  0
SPLINE
  5
68A
100
AcDbEntity
  8
BEZUGSACHSEN
100
AcDbSpline
 62
7
  6
CONTINUOUS
 70
0
 71
3
 72
11
 73
7
 74
0
 42
0.0000001
 43
0.0000001
 44
0.0000000001
 40
0.0
 40
0.0
 40
0.0
 40
0.0
 40
0.2422334358
 40
0.4902899825
 40
0.7435793465
 40
1.0
 40
1.0
 40
1.0
 40
1.0
 10
336.5408175633
 20
142.2383067162
 30
0.0
 10
336.4824987839
 20
142.3614527041
 30
0.0
 10
336.3247271045
 20
142.5936336328
 30
0.0
 10
335.9952419458
 20
142.8601085936
 30
0.0
 10
335.598230258
 20
143.0289406398
 30
0.0
 10
335.3100269963
 20
143.0673042486
 30
0.0
 10
335.1657894737
 20
143.0673042486
 30
0.0
  0
SPLINE
  5
68B
100
AcDbEntity
  8
BEZUGSACHSEN
100
AcDbSpline
 62
7
  6
CONTINUOUS
 70
0
 71
3
 72
17
 73
13
 74
0
 42
0.0000001
 43
0.0000001
 44
0.0000000001
 40
0.0
 40
0.0
 40
0.0
 40
0.0
 40
0.0082079848
 40
0.0241548452
 40
0.0489158092
 40
0.0824888491
 40
0.175133811
 40
0.2989124286
 40
0.4492880531
 40
0.6206420071
 40
0.8067165149
 40
1.0
 40
1.0
 40
1.0
 40
1.0
 10
355.4567596528
 20
259.6410341481
 30
0.0
 10
355.4484616472
 20
259.6410328384
 30
0.0
 10
355.4289883256
 20
259.6621259872
 30
0.0
 10
355.4110432341
 20
259.7059876187
 30
0.0
 10
355.3879266634
 20
259.7786396175
 30
0.0
 10
355.353697737
 20
259.9268683128
 30
0.0
 10
355.3116438752
 20
260.1766693342
 30
0.0
 10
355.2660759255
 20
260.5445509948
 30
0.0
 10
355.2251592877
 20
260.9932243795
 30
0.0
 10
355.1928012706
 20
261.5056143116
 30
0.0
 10
355.1720725902
 20
262.0620442421
 30
0.0
 10
355.1673015474
 20
262.4455782935
 30
0.0
 10
355.1673015474
 20
262.6409816099
 30
0.0
  0
SPLINE
  5
68C
100
AcDbEntity
  8
BEZUGSACHSEN
100
AcDbSpline
 62
7
  6
CONTINUOUS
 70
0
 71
3
 72
17
 73
13
 74
0
 42
0.0000001
 43
0.0000001
 44
0.0000000001
 40
0.0
 40
0.0
 40
0.0
 40
0.0
 40
0.0082076699
 40
0.0241535826
 40
0.0489144609
 40
0.0824875196
 40
0.1751323218
 40
0.2989123935
 40
0.4492906094
 40
0.6206420769
 40
0.8067146236
 40
1.0
 40
1.0
 40
1.0
 40
1.0
 10
309.6748172221
 20
265.6409292138
 30
0.0
 10
309.683114914
 20
265.6409313038
 30
0.0
 10
309.7025890126
 20
265.6198404085
 30
0.0
 10
309.7205341748
 20
265.5759800218
 30
0.0
 10
309.7436507063
 20
265.5033290891
 30
0.0
 10
309.7778802224
 20
265.3551006522
 30
0.0
 10
309.8199345278
 20
265.1052982002
 30
0.0
 10
309.8655031069
 20
264.7374124348
 30
0.0
 10
309.9064194378
 20
264.2887371727
 30
0.0
 10
309.9387781475
 20
263.7763488616
 30
0.0
 10
309.9595061526
 20
263.2199211557
 30
0.0
 10
309.9642774
 20
262.8363869543
 30
0.0
 10
309.9642774
 20
262.6409816099
 30
0.0
  0
LINE
  5
68D
100
AcDbEntity
  8
0
100
AcDbLine
 62
7
  6
CONTINUOUS
 10
358.8888309294
 20
165.7449615985
 11
358.8893679754
 21
165.7637616018
  0
SPLINE
  5
68E
100
AcDbEntity
  8
BEZUGSACHSEN
100
AcDbSpline
 62
7
  6
CONTINUOUS
 70
0
 71
3
 72
9
 73
5
 74
0
 42
0.0000001
 43
0.0000001
 44
0.0000000001
 40
0.0
 40
0.0
 40
0.0
 40
0.0
 40
0.2467277892
 40
1.0
 40
1.0
 40
1.0
 40
1.0
 10
352.0992508784
 20
52.7977146899
 30
0.0
 10
352.096123417
 20
52.9708961129
 30
0.0
 10
352.083584494
 20
53.672811492
 30
0.0
 10
352.0714102347
 20
54.374733427
 30
0.0
 10
352.0625273744
 20
54.9034765222
 30
0.0
  0
SPLINE
  5
68F
100
AcDbEntity
  8
BEZUGSACHSEN
100
AcDbSpline
 62
7
  6
CONTINUOUS
 70
0
 71
3
 72
9
 73
5
 74
0
 42
0.0000001
 43
0.0000001
 44
0.0000000001
 40
0.0
 40
0.0
 40
0.0
 40
0.0
 40
0.2324635199
 40
1.0
 40
1.0
 40
1.0
 40
1.0
 10
352.0464702246
 20
51.4974805957
 30
0.0
 10
352.0561416892
 20
51.5978796714
 30
0.0
 10
352.092565102
 20
52.0302376301
 30
0.0
 10
352.1052639935
 20
52.464741816
 30
0.0
 10
352.0992508784
 20
52.7977146899
 30
0.0
  0
SPLINE
  5
690
100
AcDbEntity
  8
0
100
AcDbSpline
 62
7
  6
CONTINUOUS
 70
0
 71
3
 72
9
 73
5
 74
0
 42
0.0000001
 43
0.0000001
 44
0.0000000001
 40
0.0
 40
0.0
 40
0.0
 40
0.0
 40
0.2536685736
 40
1.0
 40
1.0
 40
1.0
 40
1.0
 10
314.6777449176
 20
61.4342207619
 30
0.0
 10
314.651774394
 20
61.3613184293
 30
0.0
 10
314.5523183354
 20
61.0728985484
 30
0.0
 10
314.4647990863
 20
60.7803205262
 30
0.0
 10
314.4072702005
 20
60.5600147452
 30
0.0
  0
SPLINE
  5
691
100
AcDbEntity
  8
0
100
AcDbSpline
 62
7
  6
CONTINUOUS
 70
0
 71
3
 72
12
 73
8
 74
0
 42
0.0000001
 43
0.0000001
 44
0.0000000001
 40
0.0
 40
0.0
 40
0.0
 40
0.0
 40
0.0688999641
 40
0.1611381307
 40
0.402890819
 40
0.6932733967
 40
1.0
 40
1.0
 40
1.0
 40
1.0
 10
314.7488267803
 20
56.2350668203
 30
0.0
 10
314.7755423371
 20
56.3235432104
 30
0.0
 10
314.8074722067
 20
56.5390107877
 30
0.0
 10
314.8221955714
 20
57.0793474163
 30
0.0
 10
314.7592092047
 20
57.9159548079
 30
0.0
 10
314.6638950294
 20
59.0364631481
 30
0.0
 10
314.6400331314
 20
59.8384703135
 30
0.0
 10
314.6514792701
 20
60.249751494
 30
0.0
  0
SPLINE
  5
692
100
AcDbEntity
  8
0
100
AcDbSpline
 62
7
  6
CONTINUOUS
 70
0
 71
3
 72
14
 73
10
 74
0
 42
0.0000001
 43
0.0000001
 44
0.0000000001
 40
0.0
 40
0.0
 40
0.0
 40
0.0
 40
0.0377902092
 40
0.1040132306
 40
0.1974763594
 40
0.3163578612
 40
0.4584788994
 40
0.6215045375
 40
1.0
 40
1.0
 40
1.0
 40
1.0
 10
313.241684223
 20
50.116622921
 30
0.0
 10
313.2465053519
 20
50.133467186
 30
0.0
 10
313.2458383022
 20
50.1826730008
 30
0.0
 10
313.2392007009
 20
50.2734039582
 30
0.0
 10
313.2232605442
 20
50.4018791936
 30
0.0
 10
313.2009151307
 20
50.5645776333
 30
0.0
 10
313.1733992082
 20
50.7592758321
 30
0.0
 10
313.1309500815
 20
51.0733570743
 30
0.0
 10
313.1019349022
 20
51.3228077297
 30
0.0
 10
313.0851087228
 20
51.4974805957
 30
0.0
  0
SPLINE
  5
693
100
AcDbEntity
  8
0
100
AcDbSpline
 62
7
  6
CONTINUOUS
 70
0
 71
3
 72
8
 73
4
 74
0
 42
0.0000001
 43
0.0000001
 44
0.0000000001
 40
0.0
 40
0.0
 40
0.0
 40
0.0
 40
1.0
 40
1.0
 40
1.0
 40
1.0
 10
319.3381129308
 20
40.4210047181
 30
0.0
 10
319.3336071725
 20
40.4210072413
 30
0.0
 10
319.3299595213
 20
40.4255877465
 30
0.0
 10
319.3274784979
 20
40.4293489149
 30
0.0
  0
SPLINE
  5
694
100
AcDbEntity
  8
0
100
AcDbSpline
 62
7
  6
CONTINUOUS
 70
0
 71
3
 72
9
 73
5
 74
0
 42
0.0000001
 43
0.0000001
 44
0.0000000001
 40
0.0
 40
0.0
 40
0.0
 40
0.0
 40
0.1609351006
 40
1.0
 40
1.0
 40
1.0
 40
1.0
 10
319.3274784979
 20
40.4293489149
 30
0.0
 10
319.3249770011
 20
40.4331411205
 30
0.0
 10
319.3126145085
 20
40.4586842815
 30
0.0
 10
319.3061382676
 20
40.4864206149
 30
0.0
 10
319.3007589688
 20
40.5094871319
 30
0.0
  0
SPLINE
  5
695
100
AcDbEntity
  8
0
100
AcDbSpline
 62
7
  6
CONTINUOUS
 70
0
 71
3
 72
22
 73
18
 74
0
 42
0.0000001
 43
0.0000001
 44
0.0000000001
 40
0.0
 40
0.0
 40
0.0
 40
0.0
 40
0.0024854272
 40
0.0074313556
 40
0.0150903783
 40
0.0254913239
 40
0.0543760402
 40
0.0935969043
 40
0.1424572741
 40
0.2000905368
 40
0.2654972755
 40
0.3375812747
 40
0.4151440446
 40
0.4969292243
 40
0.6678314125
 40
0.8392542943
 40
1.0
 40
1.0
 40
1.0
 40
1.0
 10
319.4351831789
 20
41.7695943324
 30
0.0
 10
319.442717316
 20
41.7696315372
 30
0.0
 10
319.4605585489
 20
41.7502948809
 30
0.0
 10
319.4809202404
 20
41.7118727755
 30
0.0
 10
319.5085975506
 20
41.6465192455
 30
0.0
 10
319.5554090649
 20
41.5127882128
 30
0.0
 10
319.6227121323
 20
41.2839152438
 30
0.0
 10
319.7119941145
 20
40.9409883044
 30
0.0
 10
319.8145071317
 20
40.5112203994
 30
0.0
 10
319.9279378059
 20
40.0026411267
 30
0.0
 10
320.0500492932
 20
39.4238704156
 30
0.0
 10
320.1784956923
 20
38.7847393132
 30
0.0
 10
320.3110335293
 20
38.0958102034
 30
0.0
 10
320.4928005393
 20
37.1113350384
 30
0.0
 10
320.7131775437
 20
35.8446909718
 30
0.0
 10
320.956223957
 20
34.3391613386
 30
0.0
 10
321.1046826426
 20
33.3432084241
 30
0.0
 10
321.173045595
 20
32.860749383
 30
0.0
  0
SPLINE
  5
696
100
AcDbEntity
  8
0
100
AcDbSpline
 62
7
  6
CONTINUOUS
 70
0
 71
3
 72
19
 73
15
 74
0
 42
0.0000001
 43
0.0000001
 44
0.0000000001
 40
0.0
 40
0.0
 40
0.0
 40
0.0
 40
0.2161720494
 40
0.4125322339
 40
0.5851040632
 40
0.7308267433
 40
0.7927748144
 40
0.8470443973
 40
0.8933481049
 40
0.9314864807
 40
0.9613000826
 40
0.9826398342
 40
0.995449004
 40
1.0
 40
1.0
 40
1.0
 40
1.0
 10
341.9441638095
 20
19.4205936062
 30
0.0
 10
341.9092652844
 20
19.1983757318
 30
0.0
 10
341.8434888947
 20
18.7741770415
 30
0.0
 10
341.7528189327
 20
18.1721205297
 30
0.0
 10
341.6757804825
 20
17.6421656979
 30
0.0
 10
341.6213164789
 20
17.2502339584
 30
0.0
 10
341.585718659
 20
16.9800438989
 30
0.0
 10
341.564562782
 20
16.8121545651
 30
0.0
 10
341.5476609183
 20
16.6691092335
 30
0.0
 10
341.534721657
 20
16.5500796984
 30
0.0
 10
341.5266601063
 20
16.4596750347
 30
0.0
 10
341.5211722215
 20
16.3884386651
 30
0.0
 10
341.522482633
 20
16.3566507515
 30
0.0
 10
341.5225457237
 20
16.329505411
 30
0.0
 10
341.5272812852
 20
16.329482525
 30
0.0
  0
SPLINE
  5
697
100
AcDbEntity
  8
0
100
AcDbSpline
 62
7
  6
CONTINUOUS
 70
0
 71
3
 72
11
 73
7
 74
0
 42
0.0000001
 43
0.0000001
 44
0.0000000001
 40
0.0
 40
0.0
 40
0.0
 40
0.0
 40
0.3248285909
 40
0.6334064765
 40
0.8729283615
 40
1.0
 40
1.0
 40
1.0
 40
1.0
 10
344.4578515582
 20
32.7737414196
 30
0.0
 10
344.5996907038
 20
33.6025268806
 30
0.0
 10
344.8794623861
 20
35.2180922826
 30
0.0
 10
345.2758294513
 20
37.4426850791
 30
0.0
 10
345.5873633089
 20
39.1624038529
 30
0.0
 10
345.7605910262
 20
40.095423199
 30
0.0
 10
345.8174189317
 20
40.4194083814
 30
0.0
  0
LINE
  5
698
100
AcDbEntity
  8
0
100
AcDbLine
 62
7
  6
CONTINUOUS
 10
341.7827164112
 20
65.5167215434
 11
341.7828650095
 21
65.4206119037
  0
LINE
  5
699
100
AcDbEntity
  8
0
100
AcDbLine
 62
7
  6
CONTINUOUS
 10
341.7828650095
 20
65.4206119037
 11
341.7837273281
 21
64.8206241154
  0
LINE
  5
69A
100
AcDbEntity
  8
0
100
AcDbLine
 62
7
  6
CONTINUOUS
 10
341.7837273281
 20
64.8206241154
 11
341.7842465401
 21
64.4147175971
  0
LINE
  5
69B
100
AcDbEntity
  8
0
100
AcDbLine
 62
7
  6
CONTINUOUS
 10
341.7842465401
 20
64.4147175971
 11
341.7846586713
 21
64.0590536171
  0
LINE
  5
69C
100
AcDbEntity
  8
0
100
AcDbLine
 62
7
  6
CONTINUOUS
 10
341.7846586713
 20
64.0590536171
 11
341.78478929
 21
63.9384674858
  0
LINE
  5
69D
100
AcDbEntity
  8
0
100
AcDbLine
 62
7
  6
CONTINUOUS
 10
341.78478929
 20
63.9384674858
 11
341.785024023
 21
63.7100500143
  0
LINE
  5
69E
100
AcDbEntity
  8
0
100
AcDbLine
 62
7
  6
CONTINUOUS
 10
341.785024023
 20
63.7100500143
 11
341.7854114968
 21
63.2907962003
  0
LINE
  5
69F
100
AcDbEntity
  8
0
100
AcDbLine
 62
7
  6
CONTINUOUS
 10
341.7854114968
 20
63.2907962003
 11
341.7854791168
 21
63.2106938155
  0
LINE
  5
6A0
100
AcDbEntity
  8
0
100
AcDbLine
 62
7
  6
CONTINUOUS
 10
341.7854791168
 20
63.2106938155
 11
341.7857921266
 21
62.8017760151
  0
LINE
  5
6A1
100
AcDbEntity
  8
0
100
AcDbLine
 62
7
  6
CONTINUOUS
 10
341.7857921266
 20
62.8017760151
 11
341.7859291849
 21
62.5960425649
  0
LINE
  5
6A2
100
AcDbEntity
  8
0
100
AcDbLine
 62
7
  6
CONTINUOUS
 10
341.7859291849
 20
62.5960425649
 11
341.7861320547
 21
62.2436045951
  0
LINE
  5
6A3
100
AcDbEntity
  8
0
100
AcDbLine
 62
7
  6
CONTINUOUS
 10
341.7861320547
 20
62.2436045951
 11
341.7864487392
 21
61.4163943674
  0
LINE
  5
6A4
100
AcDbEntity
  8
0
100
AcDbLine
 62
7
  6
CONTINUOUS
 10
341.7864487392
 20
61.4163943674
 11
341.7865087457
 21
61.1105687552
  0
LINE
  5
6A5
100
AcDbEntity
  8
0
100
AcDbLine
 62
7
  6
CONTINUOUS
 10
341.7865087457
 20
61.1105687552
 11
341.7865405147
 21
60.656969452
  0
LINE
  5
6A6
100
AcDbEntity
  8
0
100
AcDbLine
 62
7
  6
CONTINUOUS
 10
341.7865405147
 20
60.656969452
 11
341.7865304118
 21
60.4276599461
  0
LINE
  5
6A7
100
AcDbEntity
  8
0
100
AcDbLine
 62
7
  6
CONTINUOUS
 10
341.7865304118
 20
60.4276599461
 11
341.7865268011
 21
60.3872323146
  0
LINE
  5
6A8
100
AcDbEntity
  8
0
100
AcDbLine
 62
7
  6
CONTINUOUS
 10
341.7865268011
 20
60.3872323146
 11
341.7865020802
 21
60.1948220565
  0
LINE
  5
6A9
100
AcDbEntity
  8
0
100
AcDbLine
 62
7
  6
CONTINUOUS
 10
341.7865020802
 20
60.1948220565
 11
341.7864119255
 21
59.7990514038
  0
LINE
  5
6AA
100
AcDbEntity
  8
0
100
AcDbLine
 62
7
  6
CONTINUOUS
 10
341.7864119255
 20
59.7990514038
 11
341.786369911
 21
59.6666643483
  0
LINE
  5
6AB
100
AcDbEntity
  8
0
100
AcDbLine
 62
7
  6
CONTINUOUS
 10
341.786369911
 20
59.6666643483
 11
341.7863145423
 21
59.5152549331
  0
SPLINE
  5
6AC
100
AcDbEntity
  8
0
100
AcDbSpline
 62
7
  6
CONTINUOUS
 70
0
 71
3
 72
9
 73
5
 74
0
 42
0.0000001
 43
0.0000001
 44
0.0000000001
 40
0.0
 40
0.0
 40
0.0
 40
0.0
 40
0.2512430951
 40
1.0
 40
1.0
 40
1.0
 40
1.0
 10
341.7863145423
 20
59.5152549331
 30
0.0
 10
341.7862453798
 20
59.3386020608
 30
0.0
 10
341.78590647
 20
58.6354867547
 30
0.0
 10
341.7853118394
 20
57.9323715703
 30
0.0
 10
341.784718578
 20
57.405909404
 30
0.0
  0
LINE
  5
6AD
100
AcDbEntity
  8
0
100
AcDbLine
 62
7
  6
CONTINUOUS
 10
341.784718578
 20
57.405909404
 11
341.7843366466
 21
57.0834488124
  0
SPLINE
  5
6AE
100
AcDbEntity
  8
0
100
AcDbSpline
 62
7
  6
CONTINUOUS
 70
0
 71
3
 72
9
 73
5
 74
0
 42
0.0000001
 43
0.0000001
 44
0.0000000001
 40
0.0
 40
0.0
 40
0.0
 40
0.0
 40
0.2524520878
 40
1.0
 40
1.0
 40
1.0
 40
1.0
 10
341.7843366466
 20
57.0834488124
 30
0.0
 10
341.7839620309
 20
56.7818472307
 30
0.0
 10
341.7822843964
 20
55.5871590777
 30
0.0
 10
341.7798266232
 20
54.3924720051
 30
0.0
 10
341.7775277223
 20
53.4993874533
 30
0.0
  0
LINE
  5
6AF
100
AcDbEntity
  8
0
100
AcDbLine
 62
7
  6
CONTINUOUS
 10
341.7775277223
 20
53.4993874533
 11
341.777439196
 21
53.4650847591
  0
LINE
  5
6B0
100
AcDbEntity
  8
0
100
AcDbLine
 62
7
  6
CONTINUOUS
 10
341.777439196
 20
53.4650847591
 11
341.7763214009
 21
53.0462137065
  0
LINE
  5
6B1
100
AcDbEntity
  8
0
100
AcDbLine
 62
7
  6
CONTINUOUS
 10
341.7763214009
 20
53.0462137065
 11
341.7762021106
 21
53.0029694115
  0
SPLINE
  5
6B2
100
AcDbEntity
  8
0
100
AcDbSpline
 62
7
  6
CONTINUOUS
 70
0
 71
3
 72
9
 73
5
 74
0
 42
0.0000001
 43
0.0000001
 44
0.0000000001
 40
0.0
 40
0.0
 40
0.0
 40
0.0
 40
0.2512829928
 40
1.0
 40
1.0
 40
1.0
 40
1.0
 10
341.7762021106
 20
53.0029694115
 30
0.0
 10
341.7758246855
 20
52.866565545
 30
0.0
 10
341.7742792906
 20
52.3237359864
 30
0.0
 10
341.7725595098
 20
51.7809069234
 30
0.0
 10
341.7711710951
 20
51.3744819259
 30
0.0
  0
SPLINE
  5
6B3
100
AcDbEntity
  8
0
100
AcDbSpline
 62
7
  6
CONTINUOUS
 70
0
 71
3
 72
9
 73
5
 74
0
 42
0.0000001
 43
0.0000001
 44
0.0000000001
 40
0.0
 40
0.0
 40
0.0
 40
0.0
 40
0.2512950645
 40
1.0
 40
1.0
 40
1.0
 40
1.0
 10
341.7711710951
 20
51.3744819259
 30
0.0
 10
341.7707327774
 20
51.2461749723
 30
0.0
 10
341.7689485573
 20
50.7355922462
 30
0.0
 10
341.7670036477
 20
50.2250100808
 30
0.0
 10
341.76545455
 20
49.842735079
 30
0.0
  0
LINE
  5
6B4
100
AcDbEntity
  8
0
100
AcDbLine
 62
7
  6
CONTINUOUS
 10
341.76545455
 20
49.842735079
 11
341.764914766
 21
49.7104480014
  0
LINE
  5
6B5
100
AcDbEntity
  8
0
100
AcDbLine
 62
7
  6
CONTINUOUS
 10
341.764914766
 20
49.7104480014
 11
341.7635369937
 21
49.3807501861
  0
LINE
  5
6B6
100
AcDbEntity
  8
0
100
AcDbLine
 62
7
  6
CONTINUOUS
 10
341.7635369937
 20
49.3807501861
 11
341.7631785114
 21
49.2967477402
  0
LINE
  5
6B7
100
AcDbEntity
  8
0
100
AcDbLine
 62
7
  6
CONTINUOUS
 10
341.7631785114
 20
49.2967477402
 11
341.7626490286
 21
49.1739558764
  0
LINE
  5
6B8
100
AcDbEntity
  8
0
100
AcDbLine
 62
7
  6
CONTINUOUS
 10
341.7626490286
 20
49.1739558764
 11
341.7609869645
 21
48.7979209071
  0
LINE
  5
6B9
100
AcDbEntity
  8
0
100
AcDbLine
 62
7
  6
CONTINUOUS
 10
341.7609869645
 20
48.7979209071
 11
341.7608227333
 21
48.761503194
  0
LINE
  5
6BA
100
AcDbEntity
  8
0
100
AcDbLine
 62
7
  6
CONTINUOUS
 10
341.7608227333
 20
48.761503194
 11
341.7601104518
 21
48.6050202511
  0
LINE
  5
6BB
100
AcDbEntity
  8
0
100
AcDbLine
 62
7
  6
CONTINUOUS
 10
341.7601104518
 20
48.6050202511
 11
341.7582224382
 21
48.2011643493
  0
LINE
  5
6BC
100
AcDbEntity
  8
0
100
AcDbLine
 62
7
  6
CONTINUOUS
 10
341.7582224382
 20
48.2011643493
 11
341.7577123375
 21
48.0946236441
  0
LINE
  5
6BD
100
AcDbEntity
  8
0
100
AcDbLine
 62
7
  6
CONTINUOUS
 10
341.7577123375
 20
48.0946236441
 11
341.7562173278
 21
47.7882615391
  0
LINE
  5
6BE
100
AcDbEntity
  8
0
100
AcDbLine
 62
7
  6
CONTINUOUS
 10
341.7562173278
 20
47.7882615391
 11
341.7556366919
 21
47.6715427955
  0
LINE
  5
6BF
100
AcDbEntity
  8
0
100
AcDbLine
 62
7
  6
CONTINUOUS
 10
341.7556366919
 20
47.6715427955
 11
341.7551041736
 21
47.5655648853
  0
LINE
  5
6C0
100
AcDbEntity
  8
0
100
AcDbLine
 62
7
  6
CONTINUOUS
 10
341.7551041736
 20
47.5655648853
 11
341.7525075128
 21
47.0626195554
  0
LINE
  5
6C1
100
AcDbEntity
  8
0
100
AcDbLine
 62
7
  6
CONTINUOUS
 10
341.7525075128
 20
47.0626195554
 11
341.7510692739
 21
46.7932668901
  0
LINE
  5
6C2
100
AcDbEntity
  8
0
100
AcDbLine
 62
7
  6
CONTINUOUS
 10
341.7510692739
 20
46.7932668901
 11
341.7499024175
 21
46.5792170554
  0
LINE
  5
6C3
100
AcDbEntity
  8
0
100
AcDbLine
 62
7
  6
CONTINUOUS
 10
341.7499024175
 20
46.5792170554
 11
341.7491492835
 21
46.4430948176
  0
LINE
  5
6C4
100
AcDbEntity
  8
0
100
AcDbLine
 62
7
  6
CONTINUOUS
 10
341.7491492835
 20
46.4430948176
 11
341.7485061692
 21
46.3280778683
  0
LINE
  5
6C5
100
AcDbEntity
  8
0
100
AcDbLine
 62
7
  6
CONTINUOUS
 10
341.7485061692
 20
46.3280778683
 11
341.7482827743
 21
46.2883825992
  0
LINE
  5
6C6
100
AcDbEntity
  8
0
100
AcDbLine
 62
7
  6
CONTINUOUS
 10
341.7482827743
 20
46.2883825992
 11
341.7469392163
 21
46.0523663539
  0
LINE
  5
6C7
100
AcDbEntity
  8
0
100
AcDbLine
 62
7
  6
CONTINUOUS
 10
341.7469392163
 20
46.0523663539
 11
341.7467422012
 21
46.0181414187
  0
LINE
  5
6C8
100
AcDbEntity
  8
0
100
AcDbLine
 62
7
  6
CONTINUOUS
 10
341.7467422012
 20
46.0181414187
 11
341.7455428346
 21
45.8118371494
  0
LINE
  5
6C9
100
AcDbEntity
  8
0
100
AcDbLine
 62
7
  6
CONTINUOUS
 10
341.7455428346
 20
45.8118371494
 11
341.7441388516
 21
45.5746543871
  0
LINE
  5
6CA
100
AcDbEntity
  8
0
100
AcDbLine
 62
7
  6
CONTINUOUS
 10
341.7441388516
 20
45.5746543871
 11
341.743930346
 21
45.5398144383
  0
LINE
  5
6CB
100
AcDbEntity
  8
0
100
AcDbLine
 62
7
  6
CONTINUOUS
 10
341.743930346
 20
45.5398144383
 11
341.7433608184
 21
45.4451434526
  0
LINE
  5
6CC
100
AcDbEntity
  8
0
100
AcDbLine
 62
7
  6
CONTINUOUS
 10
341.7433608184
 20
45.4451434526
 11
341.7391124302
 21
44.7605034194
  0
SPLINE
  5
6CD
100
AcDbEntity
  8
0
100
AcDbSpline
 62
7
  6
CONTINUOUS
 70
0
 71
3
 72
9
 73
5
 74
0
 42
0.0000001
 43
0.0000001
 44
0.0000000001
 40
0.0
 40
0.0
 40
0.0
 40
0.0
 40
0.2517909183
 40
1.0
 40
1.0
 40
1.0
 40
1.0
 10
341.7391124302
 20
44.7605034194
 30
0.0
 10
341.7382792749
 20
44.6297749696
 30
0.0
 10
341.7349200312
 20
44.1105808318
 30
0.0
 10
341.7313582262
 20
43.5913880029
 30
0.0
 10
341.7285749171
 20
43.2029240746
 30
0.0
  0
LINE
  5
6CE
100
AcDbEntity
  8
0
100
AcDbLine
 62
7
  6
CONTINUOUS
 10
341.7285749171
 20
43.2029240746
 11
341.7241725359
 21
42.6017794924
  0
LINE
  5
6CF
100
AcDbEntity
  8
0
100
AcDbLine
 62
7
  6
CONTINUOUS
 10
341.7241725359
 20
42.6017794924
 11
341.723693055
 21
42.5378496324
  0
LINE
  5
6D0
100
AcDbEntity
  8
0
100
AcDbLine
 62
7
  6
CONTINUOUS
 10
341.723693055
 20
42.5378496324
 11
341.7188791229
 21
41.91157411
  0
SPLINE
  5
6D1
100
AcDbEntity
  8
0
100
AcDbSpline
 62
7
  6
CONTINUOUS
 70
0
 71
3
 72
9
 73
5
 74
0
 42
0.0000001
 43
0.0000001
 44
0.0000000001
 40
0.0
 40
0.0
 40
0.0
 40
0.0
 40
0.2529191623
 40
1.0
 40
1.0
 40
1.0
 40
1.0
 10
341.7188791229
 20
41.91157411
 30
0.0
 10
341.7174382165
 20
41.7281893391
 30
0.0
 10
341.7116315258
 20
41.0031175408
 30
0.0
 10
341.7053826455
 20
40.2780492744
 30
0.0
 10
341.7004503785
 20
39.7363671147
 30
0.0
  0
LINE
  5
6D2
100
AcDbEntity
  8
0
100
AcDbLine
 62
7
  6
CONTINUOUS
 10
341.7004503785
 20
39.7363671147
 11
341.6952841245
 21
39.1792978609
  0
LINE
  5
6D3
100
AcDbEntity
  8
0
100
AcDbLine
 62
7
  6
CONTINUOUS
 10
341.6952841245
 20
39.1792978609
 11
341.6948601393
 21
39.1344682076
  0
LINE
  5
6D4
100
AcDbEntity
  8
0
100
AcDbLine
 62
7
  6
CONTINUOUS
 10
341.6435256831
 20
34.4767237434
 11
341.6323695996
 21
33.6213079208
  0
LINE
  5
6D5
100
AcDbEntity
  8
0
100
AcDbLine
 62
7
  6
CONTINUOUS
 10
341.6323695996
 20
33.6213079208
 11
341.6252131437
 21
33.0953979764
  0
LINE
  5
6D6
100
AcDbEntity
  8
0
100
AcDbLine
 62
7
  6
CONTINUOUS
 10
341.6252131437
 20
33.0953979764
 11
341.6235589503
 21
32.9762231886
  0
LINE
  5
6D7
100
AcDbEntity
  8
0
100
AcDbLine
 62
7
  6
CONTINUOUS
 10
341.6235589503
 20
32.9762231886
 11
341.6211062256
 21
32.8011155827
  0
LINE
  5
6D8
100
AcDbEntity
  8
0
100
AcDbLine
 62
7
  6
CONTINUOUS
 10
341.6211062256
 20
32.8011155827
 11
341.6195280929
 21
32.6894398037
  0
LINE
  5
6D9
100
AcDbEntity
  8
0
100
AcDbLine
 62
7
  6
CONTINUOUS
 10
341.6195280929
 20
32.6894398037
 11
341.6189506473
 21
32.6487687393
  0
LINE
  5
6DA
100
AcDbEntity
  8
0
100
AcDbLine
 62
7
  6
CONTINUOUS
 10
341.6189506473
 20
32.6487687393
 11
341.6157030894
 21
32.4219177666
  0
LINE
  5
6DB
100
AcDbEntity
  8
0
100
AcDbLine
 62
7
  6
CONTINUOUS
 10
341.6157030894
 20
32.4219177666
 11
341.6114794537
 21
32.131564891
  0
LINE
  5
6DC
100
AcDbEntity
  8
0
100
AcDbLine
 62
7
  6
CONTINUOUS
 10
341.6114794537
 20
32.131564891
 11
341.6090681524
 21
31.9681106467
  0
LINE
  5
6DD
100
AcDbEntity
  8
0
100
AcDbLine
 62
7
  6
CONTINUOUS
 10
341.6090681524
 20
31.9681106467
 11
341.6081347632
 21
31.9052810191
  0
LINE
  5
6DE
100
AcDbEntity
  8
0
100
AcDbLine
 62
7
  6
CONTINUOUS
 10
341.6081347632
 20
31.9052810191
 11
341.6011425867
 21
31.442248709
  0
LINE
  5
6DF
100
AcDbEntity
  8
0
100
AcDbLine
 62
7
  6
CONTINUOUS
 10
341.6011425867
 20
31.442248709
 11
341.5971117826
 21
31.1812616411
  0
LINE
  5
6E0
100
AcDbEntity
  8
0
100
AcDbLine
 62
7
  6
CONTINUOUS
 10
341.5971117826
 20
31.1812616411
 11
341.5937817367
 21
30.9688087779
  0
LINE
  5
6E1
100
AcDbEntity
  8
0
100
AcDbLine
 62
7
  6
CONTINUOUS
 10
341.5937817367
 20
30.9688087779
 11
341.588239112
 21
30.6213448493
  0
LINE
  5
6E2
100
AcDbEntity
  8
0
100
AcDbLine
 62
7
  6
CONTINUOUS
 10
341.588239112
 20
30.6213448493
 11
341.5805816377
 21
30.1534624321
  0
LINE
  5
6E3
100
AcDbEntity
  8
0
100
AcDbLine
 62
7
  6
CONTINUOUS
 10
341.5805816377
 20
30.1534624321
 11
341.5795951948
 21
30.0941824433
  0
SPLINE
  5
6E4
100
AcDbEntity
  8
0
100
AcDbSpline
 62
7
  6
CONTINUOUS
 70
0
 71
3
 72
13
 73
9
 74
0
 42
0.0000001
 43
0.0000001
 44
0.0000000001
 40
0.0
 40
0.0
 40
0.0
 40
0.0
 40
0.4192705599
 40
0.5871281155
 40
0.7258643521
 40
0.8351991271
 40
0.9156366369
 40
1.0
 40
1.0
 40
1.0
 40
1.0
 10
341.4814009863
 20
25.114831629
 30
0.0
 10
341.4783171715
 20
24.9824759297
 30
0.0
 10
341.4765624616
 20
24.7971667819
 30
0.0
 10
341.485425347
 20
24.5676872438
 30
0.0
 10
341.4954727816
 20
24.4375492296
 30
0.0
 10
341.511420404
 20
24.3325764791
 30
0.0
 10
341.5294231275
 20
24.254266804
 30
0.0
 10
341.5617154843
 20
24.1931934946
 30
0.0
 10
341.5883546083
 20
24.1932089363
 30
0.0
  0
SPLINE
  5
6E5
100
AcDbEntity
  8
BEZUGSACHSEN
100
AcDbSpline
 62
7
  6
CONTINUOUS
 70
0
 71
3
 72
15
 73
11
 74
0
 42
0.0000001
 43
0.0000001
 44
0.0000000001
 40
0.0
 40
0.0
 40
0.0
 40
0.0
 40
0.2573860645
 40
0.3957285518
 40
0.5377764718
 40
0.6790075421
 40
0.8108727041
 40
0.9213678177
 40
0.9650890904
 40
1.0
 40
1.0
 40
1.0
 40
1.0
 10
352.8775425215
 20
57.0264446522
 30
0.0
 10
352.8725708944
 20
57.6548929586
 30
0.0
 10
352.7740923078
 20
58.6220793435
 30
0.0
 10
352.4929405301
 20
59.9053079061
 30
0.0
 10
352.204618407
 20
60.8943783017
 30
0.0
 10
351.8715384954
 20
61.8520665577
 30
0.0
 10
351.5461434274
 20
62.7299585286
 30
0.0
 10
351.32073379
 20
63.3922671639
 30
0.0
 10
351.2162851209
 20
63.842439819
 30
0.0
 10
351.1939966819
 20
64.0340946583
 30
0.0
 10
351.193277426
 20
64.1193347336
 30
0.0
  0
SPLINE
  5
6E6
100
AcDbEntity
  8
BEZUGSACHSEN
100
AcDbSpline
 62
7
  6
CONTINUOUS
 70
0
 71
3
 72
9
 73
5
 74
0
 42
0.0000001
 43
0.0000001
 44
0.0000000001
 40
0.0
 40
0.0
 40
0.0
 40
0.0
 40
0.5030776868
 40
1.0
 40
1.0
 40
1.0
 40
1.0
 10
352.0625273744
 20
54.9034765222
 30
0.0
 10
352.0500860852
 20
55.6440120825
 30
0.0
 10
351.8919631594
 20
57.1172077166
 30
0.0
 10
351.4565745718
 20
58.5348283508
 30
0.0
 10
351.1725290697
 20
59.2090127005
 30
0.0
  0
SPLINE
  5
6E7
100
AcDbEntity
  8
BEZUGSACHSEN
100
AcDbSpline
 62
7
  6
CONTINUOUS
 70
0
 71
3
 72
9
 73
5
 74
0
 42
0.0000001
 43
0.0000001
 44
0.0000000001
 40
0.0
 40
0.0
 40
0.0
 40
0.0
 40
0.2544717809
 40
1.0
 40
1.0
 40
1.0
 40
1.0
 10
350.4427102039
 20
61.6905186164
 30
0.0
 10
350.4399504294
 20
61.8041674079
 30
0.0
 10
350.4231859413
 20
62.2505822334
 30
0.0
 10
350.3817659166
 20
62.6962947056
 30
0.0
 10
350.3335292187
 20
63.0258391399
 30
0.0
  0
SPLINE
  5
6E8
100
AcDbEntity
  8
0
100
AcDbSpline
 62
7
  6
CONTINUOUS
 70
0
 71
3
 72
9
 73
5
 74
0
 42
0.0000001
 43
0.0000001
 44
0.0000000001
 40
0.0
 40
0.0
 40
0.0
 40
0.0
 40
0.2369117404
 40
1.0
 40
1.0
 40
1.0
 40
1.0
 10
312.2687769781
 20
54.4545565115
 30
0.0
 10
312.2630164182
 20
54.5121271545
 30
0.0
 10
312.2422919956
 20
54.7554836152
 30
0.0
 10
312.2356259384
 20
54.9999868876
 30
0.0
 10
312.2375294354
 20
55.1863371084
 30
0.0
  0
SPLINE
  5
6E9
100
AcDbEntity
  8
0
100
AcDbSpline
 62
7
  6
CONTINUOUS
 70
0
 71
3
 72
9
 73
5
 74
0
 42
0.0000001
 43
0.0000001
 44
0.0000000001
 40
0.0
 40
0.0
 40
0.0
 40
0.0
 40
0.2516769317
 40
1.0
 40
1.0
 40
1.0
 40
1.0
 10
312.1054090757
 20
56.5676232169
 30
0.0
 10
312.1148841282
 20
56.4981687724
 30
0.0
 10
312.1546603179
 20
56.2224925415
 30
0.0
 10
312.2024677595
 20
55.9480078803
 30
0.0
 10
312.2415664253
 20
55.7432829671
 30
0.0
  0
SPLINE
  5
6EA
100
AcDbEntity
  8
BEZUGSACHSEN
100
AcDbSpline
 62
7
  6
CONTINUOUS
 70
0
 71
3
 72
9
 73
5
 74
0
 42
0.0000001
 43
0.0000001
 44
0.0000000001
 40
0.0
 40
0.0
 40
0.0
 40
0.0
 40
0.2536685736
 40
1.0
 40
1.0
 40
1.0
 40
1.0
 10
350.4538340298
 20
61.4342207619
 30
0.0
 10
350.4798045534
 20
61.3613184293
 30
0.0
 10
350.579260612
 20
61.0728985484
 30
0.0
 10
350.6667798611
 20
60.7803205262
 30
0.0
 10
350.7243087469
 20
60.5600147452
 30
0.0
  0
SPLINE
  5
6EB
100
AcDbEntity
  8
BEZUGSACHSEN
100
AcDbSpline
 62
7
  6
CONTINUOUS
 70
0
 71
3
 72
12
 73
8
 74
0
 42
0.0000001
 43
0.0000001
 44
0.0000000001
 40
0.0
 40
0.0
 40
0.0
 40
0.0
 40
0.0688999641
 40
0.1611381307
 40
0.402890819
 40
0.6932733967
 40
1.0
 40
1.0
 40
1.0
 40
1.0
 10
350.382752167
 20
56.2350668203
 30
0.0
 10
350.3560366102
 20
56.3235432104
 30
0.0
 10
350.3241067407
 20
56.5390107877
 30
0.0
 10
350.309383376
 20
57.0793474163
 30
0.0
 10
350.3723697426
 20
57.9159548079
 30
0.0
 10
350.467683918
 20
59.0364631481
 30
0.0
 10
350.4915458159
 20
59.8384703135
 30
0.0
 10
350.4800996773
 20
60.249751494
 30
0.0
  0
SPLINE
  5
6EC
100
AcDbEntity
  8
BEZUGSACHSEN
100
AcDbSpline
 62
7
  6
CONTINUOUS
 70
0
 71
3
 72
14
 73
10
 74
0
 42
0.0000001
 43
0.0000001
 44
0.0000000001
 40
0.0
 40
0.0
 40
0.0
 40
0.0
 40
0.0377902092
 40
0.1040132306
 40
0.1974763594
 40
0.3163578612
 40
0.4584788994
 40
0.6215045375
 40
1.0
 40
1.0
 40
1.0
 40
1.0
 10
351.8898947244
 20
50.116622921
 30
0.0
 10
351.8850735955
 20
50.133467186
 30
0.0
 10
351.8857406452
 20
50.1826730008
 30
0.0
 10
351.8923782464
 20
50.2734039582
 30
0.0
 10
351.9083184031
 20
50.4018791936
 30
0.0
 10
351.9306638166
 20
50.5645776333
 30
0.0
 10
351.9581797391
 20
50.7592758321
 30
0.0
 10
352.0006288659
 20
51.0733570743
 30
0.0
 10
352.0296440452
 20
51.3228077297
 30
0.0
 10
352.0464702246
 20
51.4974805957
 30
0.0
  0
SPLINE
  5
6ED
100
AcDbEntity
  8
0
100
AcDbSpline
 62
7
  6
CONTINUOUS
 70
0
 71
3
 72
8
 73
4
 74
0
 42
0.0000001
 43
0.0000001
 44
0.0000000001
 40
0.0
 40
0.0
 40
0.0
 40
0.0
 40
1.0
 40
1.0
 40
1.0
 40
1.0
 10
345.7934660165
 20
40.4210047181
 30
0.0
 10
345.7979717749
 20
40.4210072413
 30
0.0
 10
345.8016194261
 20
40.4255877465
 30
0.0
 10
345.8041004494
 20
40.4293489149
 30
0.0
  0
SPLINE
  5
6EE
100
AcDbEntity
  8
0
100
AcDbSpline
 62
7
  6
CONTINUOUS
 70
0
 71
3
 72
9
 73
5
 74
0
 42
0.0000001
 43
0.0000001
 44
0.0000000001
 40
0.0
 40
0.0
 40
0.0
 40
0.0
 40
0.1609351006
 40
1.0
 40
1.0
 40
1.0
 40
1.0
 10
345.8041004494
 20
40.4293489149
 30
0.0
 10
345.8066019463
 20
40.4331411205
 30
0.0
 10
345.8189644389
 20
40.4586842815
 30
0.0
 10
345.8254406798
 20
40.4864206149
 30
0.0
 10
345.8308199785
 20
40.5094871319
 30
0.0
  0
SPLINE
  5
6EF
100
AcDbEntity
  8
0
100
AcDbSpline
 62
7
  6
CONTINUOUS
 70
0
 71
3
 72
22
 73
18
 74
0
 42
0.0000001
 43
0.0000001
 44
0.0000000001
 40
0.0
 40
0.0
 40
0.0
 40
0.0
 40
0.0024854272
 40
0.0074313556
 40
0.0150903783
 40
0.0254913239
 40
0.0543760402
 40
0.0935969043
 40
0.1424572741
 40
0.2000905368
 40
0.2654972755
 40
0.3375812747
 40
0.4151440446
 40
0.4969292243
 40
0.6678314125
 40
0.8392542943
 40
1.0
 40
1.0
 40
1.0
 40
1.0
 10
345.6963957685
 20
41.7695943324
 30
0.0
 10
345.6888616314
 20
41.7696315372
 30
0.0
 10
345.6710203984
 20
41.7502948809
 30
0.0
 10
345.650658707
 20
41.7118727755
 30
0.0
 10
345.6229813967
 20
41.6465192455
 30
0.0
 10
345.5761698825
 20
41.5127882128
 30
0.0
 10
345.5088668151
 20
41.2839152438
 30
0.0
 10
345.4195848329
 20
40.9409883044
 30
0.0
 10
345.3170718157
 20
40.5112203994
 30
0.0
 10
345.2036411415
 20
40.0026411267
 30
0.0
 10
345.0815296541
 20
39.4238704156
 30
0.0
 10
344.953083255
 20
38.7847393132
 30
0.0
 10
344.8205454181
 20
38.0958102034
 30
0.0
 10
344.6387784081
 20
37.1113350384
 30
0.0
 10
344.4184014036
 20
35.8446909718
 30
0.0
 10
344.1753549904
 20
34.3391613386
 30
0.0
 10
344.0268963047
 20
33.3432084241
 30
0.0
 10
343.9585333523
 20
32.860749383
 30
0.0
  0
LINE
  5
6F0
100
AcDbEntity
  8
0
100
AcDbLine
 62
7
  6
CONTINUOUS
 10
355.565313807
 20
265.2409816099
 11
355.5652889505
 21
265.6408345343
  0
SPLINE
  5
6F1
100
AcDbEntity
  8
BEZUGSACHSEN
100
AcDbSpline
 62
7
  6
CONTINUOUS
 70
0
 71
3
 72
17
 73
13
 74
0
 42
0.0000001
 43
0.0000001
 44
0.0000000001
 40
0.0
 40
0.0
 40
0.0
 40
0.0
 40
0.1932853364
 40
0.3793576971
 40
0.5507090821
 40
0.7010873136
 40
0.8248673685
 40
0.9175122006
 40
0.9510853444
 40
0.9758463178
 40
0.9917922386
 40
1.0
 40
1.0
 40
1.0
 40
1.0
 10
355.1673015474
 20
262.6409816099
 30
0.0
 10
355.1673015474
 20
262.8363869032
 30
0.0
 10
355.1720727625
 20
263.2199208556
 30
0.0
 10
355.1928007756
 20
263.7763482191
 30
0.0
 10
355.225159459
 20
264.2887362464
 30
0.0
 10
355.2660756969
 20
264.7374114088
 30
0.0
 10
355.3116443121
 20
265.1052971766
 30
0.0
 10
355.3536985064
 20
265.3550997341
 30
0.0
 10
355.3879281026
 20
265.5033283644
 30
0.0
 10
355.4110444773
 20
265.5759795244
 30
0.0
 10
355.4289899045
 20
265.6198400705
 30
0.0
 10
355.4484637468
 20
265.6409311273
 30
0.0
 10
355.4567615309
 20
265.6409292584
 30
0.0
  0
SPLINE
  5
6F2
100
AcDbEntity
  8
BEZUGSACHSEN
100
AcDbSpline
 62
7
  6
CONTINUOUS
 70
0
 71
3
 72
9
 73
5
 74
0
 42
0.0000001
 43
0.0000001
 44
0.0000000001
 40
0.0
 40
0.0
 40
0.0
 40
0.0
 40
0.2516769317
 40
1.0
 40
1.0
 40
1.0
 40
1.0
 10
353.0261698717
 20
56.5676232169
 30
0.0
 10
353.0166948192
 20
56.4981687724
 30
0.0
 10
352.9769186295
 20
56.2224925415
 30
0.0
 10
352.9291111879
 20
55.9480078803
 30
0.0
 10
352.8900125221
 20
55.7432829671
 30
0.0
  0
SPLINE
  5
6F3
100
AcDbEntity
  8
BEZUGSACHSEN
100
AcDbSpline
 62
7
  6
CONTINUOUS
 70
0
 71
3
 72
9
 73
5
 74
0
 42
0.0000001
 43
0.0000001
 44
0.0000000001
 40
0.0
 40
0.0
 40
0.0
 40
0.0
 40
0.2369118076
 40
1.0
 40
1.0
 40
1.0
 40
1.0
 10
352.8628022462
 20
54.4545592792
 30
0.0
 10
352.8685627588
 20
54.5121297228
 30
0.0
 10
352.889287004
 20
54.7554852685
 30
0.0
 10
352.8959530016
 20
54.999987611
 30
0.0
 10
352.894049512
 20
55.1863371084
 30
0.0
  0
LINE
  5
6F4
100
AcDbEntity
  8
0
100
AcDbLine
 62
7
  6
CONTINUOUS
 10
341.618066132
 20
32.6158668843
 11
341.6452538225
 21
32.7445246432
  0
LINE
  5
6F5
100
AcDbEntity
  8
0
100
AcDbLine
 62
7
  6
CONTINUOUS
 10
341.6452538225
 20
32.7445246432
 11
341.6582272894
 21
32.8059181042
  0
LINE
  5
6F6
100
AcDbEntity
  8
0
100
AcDbLine
 62
7
  6
CONTINUOUS
 10
341.6582272894
 20
32.8059181042
 11
341.7220889286
 21
33.049192335
  0
LINE
  5
6F7
100
AcDbEntity
  8
0
100
AcDbLine
 62
7
  6
CONTINUOUS
 10
341.7220889286
 20
33.049192335
 11
341.7348162076
 21
33.0976993922
  0
LINE
  5
6F8
100
AcDbEntity
  8
0
100
AcDbLine
 62
7
  6
CONTINUOUS
 10
341.8233752368
 20
33.2022964353
 11
341.8312081833
 21
33.2048122749
  0
LINE
  5
6F9
100
AcDbEntity
  8
0
100
AcDbLine
 62
7
  6
CONTINUOUS
 10
341.8421585318
 20
31.9896829542
 11
341.8875403074
 21
32.3669894663
  0
LINE
  5
6FA
100
AcDbEntity
  8
0
100
AcDbLine
 62
7
  6
CONTINUOUS
 10
341.8875403074
 20
32.3669894663
 11
341.932450374
 21
32.7428057871
  0
LINE
  5
6FB
100
AcDbEntity
  8
0
100
AcDbLine
 62
7
  6
CONTINUOUS
 10
341.932450374
 20
32.7428057871
 11
341.9512655072
 21
32.996456046
  0
LINE
  5
6FC
100
AcDbEntity
  8
0
100
AcDbLine
 62
7
  6
CONTINUOUS
 10
341.9512655072
 20
32.996456046
 11
341.9636284671
 21
33.1655778056
  0
LINE
  5
6FD
100
AcDbEntity
  8
0
100
AcDbLine
 62
7
  6
CONTINUOUS
 10
341.9636284671
 20
33.1655778056
 11
341.9657689089
 21
33.1950630839
  0
LINE
  5
6FE
100
AcDbEntity
  8
0
100
AcDbLine
 62
7
  6
CONTINUOUS
 10
341.9657689089
 20
33.1950630839
 11
341.9697556337
 21
33.2501457299
  0
LINE
  5
6FF
100
AcDbEntity
  8
0
100
AcDbLine
 62
7
  6
CONTINUOUS
 10
341.9697556337
 20
33.2501457299
 11
341.9715276374
 21
33.3142091735
  0
LINE
  5
700
100
AcDbEntity
  8
0
100
AcDbLine
 62
7
  6
CONTINUOUS
 10
341.9715276374
 20
33.3142091735
 11
341.973261625
 21
33.3782772424
  0
LINE
  5
701
100
AcDbEntity
  8
0
100
AcDbLine
 62
7
  6
CONTINUOUS
 10
341.973261625
 20
33.3782772424
 11
341.97495757
 21
33.4423499783
  0
LINE
  5
702
100
AcDbEntity
  8
0
100
AcDbLine
 62
7
  6
CONTINUOUS
 10
341.97495757
 20
33.4423499783
 11
341.9798168509
 21
33.6345951075
  0
LINE
  5
703
100
AcDbEntity
  8
0
100
AcDbLine
 62
7
  6
CONTINUOUS
 10
341.9641698709
 20
33.8725493237
 11
341.9625535058
 21
33.89615568
  0
LINE
  5
704
100
AcDbEntity
  8
0
100
AcDbLine
 62
7
  6
CONTINUOUS
 10
341.9191907045
 20
34.1117145069
 11
342.0480482577
 21
34.6624771479
  0
LINE
  5
705
100
AcDbEntity
  8
0
100
AcDbLine
 62
7
  6
CONTINUOUS
 10
342.0480482577
 20
34.6624771479
 11
342.0737030708
 21
34.7721673181
  0
LINE
  5
706
100
AcDbEntity
  8
0
100
AcDbLine
 62
7
  6
CONTINUOUS
 10
342.0737030708
 20
34.7721673181
 11
342.0864961246
 21
34.8209250626
  0
LINE
  5
707
100
AcDbEntity
  8
0
100
AcDbLine
 62
7
  6
CONTINUOUS
 10
342.0864961246
 20
34.8209250626
 11
342.1502278052
 21
35.0639487782
  0
LINE
  5
708
100
AcDbEntity
  8
0
100
AcDbLine
 62
7
  6
CONTINUOUS
 10
342.1502278052
 20
35.0639487782
 11
342.21275389
 21
35.2431667324
  0
LINE
  5
709
100
AcDbEntity
  8
0
100
AcDbLine
 62
7
  6
CONTINUOUS
 10
342.21275389
 20
35.2431667324
 11
342.2251773133
 21
35.2788410744
  0
LINE
  5
70A
100
AcDbEntity
  8
0
100
AcDbLine
 62
7
  6
CONTINUOUS
 10
342.2644379226
 20
35.2914364532
 11
342.2722329095
 21
35.293952226
  0
LINE
  5
70B
100
AcDbEntity
  8
0
100
AcDbLine
 62
7
  6
CONTINUOUS
 10
342.1322772152
 20
33.2109166358
 11
342.1590351845
 21
33.3593411864
  0
LINE
  5
70C
100
AcDbEntity
  8
0
100
AcDbLine
 62
7
  6
CONTINUOUS
 10
342.1590351845
 20
33.3593411864
 11
342.1724003204
 21
33.4334812458
  0
LINE
  5
70D
100
AcDbEntity
  8
0
100
AcDbLine
 62
7
  6
CONTINUOUS
 10
342.1724003204
 20
33.4334812458
 11
342.1911331598
 21
33.554443001
  0
LINE
  5
70E
100
AcDbEntity
  8
0
100
AcDbLine
 62
7
  6
CONTINUOUS
 10
342.1911331598
 20
33.554443001
 11
342.2098199135
 21
33.6751687123
  0
LINE
  5
70F
100
AcDbEntity
  8
0
100
AcDbLine
 62
7
  6
CONTINUOUS
 10
342.2098199135
 20
33.6751687123
 11
342.2284605609
 21
33.7956582308
  0
LINE
  5
710
100
AcDbEntity
  8
0
100
AcDbLine
 62
7
  6
CONTINUOUS
 10
342.2284605609
 20
33.7956582308
 11
342.2841064858
 21
34.1557134848
  0
LINE
  5
711
100
AcDbEntity
  8
0
100
AcDbLine
 62
7
  6
CONTINUOUS
 10
342.2841064858
 20
34.1557134848
 11
342.314511733
 21
34.4074559399
  0
LINE
  5
712
100
AcDbEntity
  8
0
100
AcDbLine
 62
7
  6
CONTINUOUS
 10
342.314511733
 20
34.4074559399
 11
342.3296314986
 21
34.5330605958
  0
LINE
  5
713
100
AcDbEntity
  8
0
100
AcDbLine
 62
7
  6
CONTINUOUS
 10
342.3296314986
 20
34.5330605958
 11
342.3446963592
 21
34.6584904573
  0
LINE
  5
714
100
AcDbEntity
  8
0
100
AcDbLine
 62
7
  6
CONTINUOUS
 10
342.3446963592
 20
34.6584904573
 11
342.3597066941
 21
34.7837488089
  0
LINE
  5
715
100
AcDbEntity
  8
0
100
AcDbLine
 62
7
  6
CONTINUOUS
 10
342.3597066941
 20
34.7837488089
 11
342.3746623563
 21
34.9088345578
  0
LINE
  5
716
100
AcDbEntity
  8
0
100
AcDbLine
 62
7
  6
CONTINUOUS
 10
342.3746623563
 20
34.9088345578
 11
342.3873225313
 21
35.0779313651
  0
LINE
  5
717
100
AcDbEntity
  8
0
100
AcDbLine
 62
7
  6
CONTINUOUS
 10
342.3873225313
 20
35.0779313651
 11
342.3935961646
 21
35.1624857305
  0
LINE
  5
718
100
AcDbEntity
  8
0
100
AcDbLine
 62
7
  6
CONTINUOUS
 10
342.3935961646
 20
35.1624857305
 11
342.4060302504
 21
35.3316080272
  0
LINE
  5
719
100
AcDbEntity
  8
0
100
AcDbLine
 62
7
  6
CONTINUOUS
 10
342.4060302504
 20
35.3316080272
 11
342.4121905671
 21
35.4161762604
  0
LINE
  5
71A
100
AcDbEntity
  8
0
100
AcDbLine
 62
7
  6
CONTINUOUS
 10
342.4121905671
 20
35.4161762604
 11
342.4150581942
 21
35.5186833214
  0
LINE
  5
71B
100
AcDbEntity
  8
0
100
AcDbLine
 62
7
  6
CONTINUOUS
 10
341.5850646891
 20
30.4479555036
 11
341.6001811498
 21
30.5199144887
  0
LINE
  5
71C
100
AcDbEntity
  8
0
100
AcDbLine
 62
7
  6
CONTINUOUS
 10
341.6001811498
 20
30.5199144887
 11
341.6129049622
 21
30.5804849203
  0
LINE
  5
71D
100
AcDbEntity
  8
0
100
AcDbLine
 62
7
  6
CONTINUOUS
 10
341.6129049622
 20
30.5804849203
 11
341.621648662
 21
30.6221090557
  0
LINE
  5
71E
100
AcDbEntity
  8
0
100
AcDbLine
 62
7
  6
CONTINUOUS
 10
341.621648662
 20
30.6221090557
 11
341.756438029
 21
31.3903412803
  0
LINE
  5
71F
100
AcDbEntity
  8
0
100
AcDbLine
 62
7
  6
CONTINUOUS
 10
341.756438029
 20
31.3903412803
 11
341.8421585318
 21
31.9896829542
  0
LINE
  5
720
100
AcDbEntity
  8
0
100
AcDbLine
 62
7
  6
CONTINUOUS
 10
341.6400985384
 20
33.9163335557
 11
341.6509606381
 21
33.9652915188
  0
LINE
  5
721
100
AcDbEntity
  8
0
100
AcDbLine
 62
7
  6
CONTINUOUS
 10
341.6509606381
 20
33.9652915188
 11
341.6612640019
 21
34.0117314777
  0
LINE
  5
722
100
AcDbEntity
  8
0
100
AcDbLine
 62
7
  6
CONTINUOUS
 10
341.6612640019
 20
34.0117314777
 11
341.6945051843
 21
34.1615605056
  0
LINE
  5
723
100
AcDbEntity
  8
0
100
AcDbLine
 62
7
  6
CONTINUOUS
 10
341.6945051843
 20
34.1615605056
 11
341.7760578007
 21
34.5291603291
  0
LINE
  5
724
100
AcDbEntity
  8
0
100
AcDbLine
 62
7
  6
CONTINUOUS
 10
341.7760578007
 20
34.5291603291
 11
341.8413991482
 21
34.8237033949
  0
LINE
  5
725
100
AcDbEntity
  8
0
100
AcDbLine
 62
7
  6
CONTINUOUS
 10
341.8413991482
 20
34.8237033949
 11
341.8649175394
 21
34.929722144
  0
LINE
  5
726
100
AcDbEntity
  8
0
100
AcDbLine
 62
7
  6
CONTINUOUS
 10
341.8649175394
 20
34.929722144
 11
341.9066764055
 21
35.117971907
  0
LINE
  5
727
100
AcDbEntity
  8
0
100
AcDbLine
 62
7
  6
CONTINUOUS
 10
341.9066764055
 20
35.117971907
 11
341.9501587856
 21
35.3139976631
  0
LINE
  5
728
100
AcDbEntity
  8
0
100
AcDbLine
 62
7
  6
CONTINUOUS
 10
341.9501587856
 20
35.3139976631
 11
342.0535337114
 21
35.7800554315
  0
LINE
  5
729
100
AcDbEntity
  8
0
100
AcDbLine
 62
7
  6
CONTINUOUS
 10
342.0535337114
 20
35.7800554315
 11
342.0671444984
 21
35.8414214239
  0
LINE
  5
72A
100
AcDbEntity
  8
0
100
AcDbLine
 62
7
  6
CONTINUOUS
 10
342.0671444984
 20
35.8414214239
 11
342.26793629
 21
36.7467960086
  0
LINE
  5
72B
100
AcDbEntity
  8
0
100
AcDbLine
 62
7
  6
CONTINUOUS
 10
342.26793629
 20
36.7467960086
 11
342.2940788743
 21
36.8646846355
  0
LINE
  5
72C
100
AcDbEntity
  8
0
100
AcDbLine
 62
7
  6
CONTINUOUS
 10
342.2940788743
 20
36.8646846355
 11
342.4672940971
 21
37.6458572301
  0
LINE
  5
72D
100
AcDbEntity
  8
0
100
AcDbLine
 62
7
  6
CONTINUOUS
 10
341.7062657099
 20
40.4776710473
 11
341.9700559456
 21
41.4831045442
  0
LINE
  5
72E
100
AcDbEntity
  8
0
100
AcDbLine
 62
7
  6
CONTINUOUS
 10
341.9700559456
 20
41.4831045442
 11
342.0755586427
 21
41.8852948077
  0
LINE
  5
72F
100
AcDbEntity
  8
0
100
AcDbLine
 62
7
  6
CONTINUOUS
 10
342.0755586427
 20
41.8852948077
 11
342.1720667962
 21
42.2532322562
  0
LINE
  5
730
100
AcDbEntity
  8
0
100
AcDbLine
 62
7
  6
CONTINUOUS
 10
342.1720667962
 20
42.2532322562
 11
342.230852874
 21
42.4773713298
  0
LINE
  5
731
100
AcDbEntity
  8
0
100
AcDbLine
 62
7
  6
CONTINUOUS
 10
342.230852874
 20
42.4773713298
 11
342.5715347125
 21
43.7765885379
  0
LINE
  5
732
100
AcDbEntity
  8
0
100
AcDbLine
 62
7
  6
CONTINUOUS
 10
342.12035587
 20
44.4161364077
 11
342.1241813785
 21
44.8920672925
  0
LINE
  5
733
100
AcDbEntity
  8
0
100
AcDbLine
 62
7
  6
CONTINUOUS
 10
342.1241813785
 20
44.8920672925
 11
342.1267832165
 21
45.3680934685
  0
LINE
  5
734
100
AcDbEntity
  8
0
100
AcDbLine
 62
7
  6
CONTINUOUS
 10
342.1267832165
 20
45.3680934685
 11
342.6208241131
 21
47.2428108556
  0
LINE
  5
735
100
AcDbEntity
  8
0
100
AcDbLine
 62
7
  6
CONTINUOUS
 10
341.7325145785
 20
43.8719994343
 11
341.970768644
 21
44.7760775388
  0
LINE
  5
736
100
AcDbEntity
  8
0
100
AcDbLine
 62
7
  6
CONTINUOUS
 10
342.3531573533
 20
48.0893522908
 11
342.3664456041
 21
48.1513785258
  0
LINE
  5
737
100
AcDbEntity
  8
0
100
AcDbLine
 62
7
  6
CONTINUOUS
 10
342.3664456041
 20
48.1513785258
 11
342.4327169184
 21
48.4607803416
  0
LINE
  5
738
100
AcDbEntity
  8
0
100
AcDbLine
 62
7
  6
CONTINUOUS
 10
342.4327169184
 20
48.4607803416
 11
342.5054035204
 21
48.914637622
  0
LINE
  5
739
100
AcDbEntity
  8
0
100
AcDbLine
 62
7
  6
CONTINUOUS
 10
342.5054035204
 20
48.914637622
 11
342.5414488474
 21
49.140143358
  0
SPLINE
  5
73A
100
AcDbEntity
  8
0
100
AcDbSpline
 62
7
  6
CONTINUOUS
 70
0
 71
3
 72
8
 73
4
 74
0
 42
0.0000001
 43
0.0000001
 44
0.0000000001
 40
0.0
 40
0.0
 40
0.0
 40
0.0
 40
1.0
 40
1.0
 40
1.0
 40
1.0
 10
342.5414488474
 20
49.140143358
 30
0.0
 10
342.5694950742
 20
49.3744117956
 30
0.0
 10
342.5974040851
 20
49.6086967035
 30
0.0
 10
342.6251721481
 20
49.8429982749
 30
0.0
  0
LINE
  5
73B
100
AcDbEntity
  8
0
100
AcDbLine
 62
7
  6
CONTINUOUS
 10
342.6571713352
 20
50.4823626353
 11
342.6588537972
 21
50.6664754807
  0
LINE
  5
73C
100
AcDbEntity
  8
0
100
AcDbLine
 62
7
  6
CONTINUOUS
 10
342.6588537972
 20
50.6664754807
 11
342.6610689546
 21
50.9426706218
  0
LINE
  5
73D
100
AcDbEntity
  8
0
100
AcDbLine
 62
7
  6
CONTINUOUS
 10
342.6610689546
 20
50.9426706218
 11
342.6617250031
 21
51.0347420099
  0
LINE
  5
73E
100
AcDbEntity
  8
0
100
AcDbLine
 62
7
  6
CONTINUOUS
 10
342.6617250031
 20
51.0347420099
 11
342.654022133
 21
51.1530717055
  0
LINE
  5
73F
100
AcDbEntity
  8
0
100
AcDbLine
 62
7
  6
CONTINUOUS
 10
342.654022133
 20
51.1530717055
 11
342.638299853
 21
51.3896633052
  0
LINE
  5
740
100
AcDbEntity
  8
0
100
AcDbLine
 62
7
  6
CONTINUOUS
 10
341.7618423193
 20
49.0854376192
 11
341.782178853
 21
49.1820563916
  0
SPLINE
  5
741
100
AcDbEntity
  8
0
100
AcDbSpline
 62
7
  6
CONTINUOUS
 70
0
 71
3
 72
8
 73
4
 74
0
 42
0.0000001
 43
0.0000001
 44
0.0000000001
 40
0.0
 40
0.0
 40
0.0
 40
0.0
 40
1.0
 40
1.0
 40
1.0
 40
1.0
 10
341.782178853
 20
49.1820563916
 30
0.0
 10
341.7823845233
 20
49.3293578274
 30
0.0
 10
341.782445221
 20
49.4766595369
 30
0.0
 10
341.7823609379
 20
49.6239610922
 30
0.0
  0
LINE
  5
742
100
AcDbEntity
  8
0
100
AcDbLine
 62
7
  6
CONTINUOUS
 10
341.7823609379
 20
49.6239610922
 11
341.7821257831
 21
49.8449126525
  0
LINE
  5
743
100
AcDbEntity
  8
0
100
AcDbLine
 62
7
  6
CONTINUOUS
 10
341.7448364721
 20
45.7355479327
 11
341.8291051899
 21
46.0182493651
  0
LINE
  5
744
100
AcDbEntity
  8
0
100
AcDbLine
 62
7
  6
CONTINUOUS
 10
341.8291051899
 20
46.0182493651
 11
341.9007798399
 21
46.398055404
  0
LINE
  5
745
100
AcDbEntity
  8
0
100
AcDbLine
 62
7
  6
CONTINUOUS
 10
341.9007798399
 20
46.398055404
 11
341.9364368771
 21
46.5871368813
  0
LINE
  5
746
100
AcDbEntity
  8
0
100
AcDbLine
 62
7
  6
CONTINUOUS
 10
341.9364368771
 20
46.5871368813
 11
342.0468314129
 21
47.3769755198
  0
LINE
  5
747
100
AcDbEntity
  8
0
100
AcDbLine
 62
7
  6
CONTINUOUS
 10
342.0468314129
 20
47.3769755198
 11
342.104529701
 21
47.9928479795
  0
LINE
  5
748
100
AcDbEntity
  8
0
100
AcDbLine
 62
7
  6
CONTINUOUS
 10
342.1364980372
 20
48.6322110756
 11
342.139425827
 21
48.9636190757
  0
LINE
  5
749
100
AcDbEntity
  8
0
100
AcDbLine
 62
7
  6
CONTINUOUS
 10
342.139425827
 20
48.9636190757
 11
342.141847943
 21
49.2950673365
  0
LINE
  5
74A
100
AcDbEntity
  8
0
100
AcDbLine
 62
7
  6
CONTINUOUS
 10
342.141847943
 20
49.2950673365
 11
342.1697629862
 21
49.7134791884
  0
LINE
  5
74B
100
AcDbEntity
  8
0
100
AcDbLine
 62
7
  6
CONTINUOUS
 10
342.1697629862
 20
49.7134791884
 11
342.2231817652
 21
50.2188747619
  0
LINE
  5
74C
100
AcDbEntity
  8
0
100
AcDbLine
 62
7
  6
CONTINUOUS
 10
342.2231817652
 20
50.2188747619
 11
342.3015535653
 21
50.5903028127
  0
LINE
  5
74D
100
AcDbEntity
  8
0
100
AcDbLine
 62
7
  6
CONTINUOUS
 10
342.3535614865
 20
50.7642702556
 11
342.3795011409
 21
50.8145275108
  0
LINE
  5
74E
100
AcDbEntity
  8
0
100
AcDbLine
 62
7
  6
CONTINUOUS
 10
342.3795011409
 20
50.8145275108
 11
342.4183014895
 21
50.8897276099
  0
LINE
  5
74F
100
AcDbEntity
  8
0
100
AcDbLine
 62
7
  6
CONTINUOUS
 10
342.4183014895
 20
50.8897276099
 11
342.431205835
 21
50.9147447774
  0
LINE
  5
750
100
AcDbEntity
  8
0
100
AcDbLine
 62
7
  6
CONTINUOUS
 10
341.9005900865
 20
51.3894819375
 11
342.030527732
 21
51.781654701
  0
LINE
  5
751
100
AcDbEntity
  8
0
100
AcDbLine
 62
7
  6
CONTINUOUS
 10
341.7847506836
 20
57.4805551162
 11
341.9138357365
 21
57.8219764761
  0
LINE
  5
752
100
AcDbEntity
  8
0
100
AcDbLine
 62
7
  6
CONTINUOUS
 10
341.9138357365
 20
57.8219764761
 11
342.0522703722
 21
58.1881277337
  0
LINE
  5
753
100
AcDbEntity
  8
0
100
AcDbLine
 62
7
  6
CONTINUOUS
 10
342.0418809938
 20
55.0494636342
 11
342.1718085968
 21
55.3934726078
  0
LINE
  5
754
100
AcDbEntity
  8
0
100
AcDbLine
 62
7
  6
CONTINUOUS
 10
342.1718085968
 20
55.3934726078
 11
342.197742818
 21
55.4621397967
  0
LINE
  5
755
100
AcDbEntity
  8
0
100
AcDbLine
 62
7
  6
CONTINUOUS
 10
342.2091965726
 20
58.0776168417
 11
342.2082947376
 21
58.6008038961
  0
LINE
  5
756
100
AcDbEntity
  8
0
100
AcDbLine
 62
7
  6
CONTINUOUS
 10
342.2082947376
 20
58.6008038961
 11
342.5463459452
 21
59.4949357741
  0
LINE
  5
757
100
AcDbEntity
  8
0
100
AcDbLine
 62
7
  6
CONTINUOUS
 10
342.5302288737
 20
55.8734006998
 11
342.6859865277
 21
56.2860768623
  0
LINE
  5
758
100
AcDbEntity
  8
0
100
AcDbLine
 62
7
  6
CONTINUOUS
 10
341.7844059707
 20
63.6581663626
 11
341.7957355839
 21
63.7201298534
  0
LINE
  5
759
100
AcDbEntity
  8
0
100
AcDbLine
 62
7
  6
CONTINUOUS
 10
341.7957355839
 20
63.7201298534
 11
341.8818337988
 21
64.0104843177
  0
LINE
  5
75A
100
AcDbEntity
  8
0
100
AcDbLine
 62
7
  6
CONTINUOUS
 10
341.8818337988
 20
64.0104843177
 11
341.8989914946
 21
64.0683660361
  0
LINE
  5
75B
100
AcDbEntity
  8
0
100
AcDbLine
 62
7
  6
CONTINUOUS
 10
341.8989914946
 20
64.0683660361
 11
342.0293072477
 21
64.3465276651
  0
LINE
  5
75C
100
AcDbEntity
  8
0
100
AcDbLine
 62
7
  6
CONTINUOUS
 10
342.0293072477
 20
64.3465276651
 11
342.0943338876
 21
64.4853297229
  0
LINE
  5
75D
100
AcDbEntity
  8
0
100
AcDbLine
 62
7
  6
CONTINUOUS
 10
342.0943338876
 20
64.4853297229
 11
342.2241233612
 21
64.7623735504
  0
LINE
  5
75E
100
AcDbEntity
  8
0
100
AcDbLine
 62
7
  6
CONTINUOUS
 10
342.2241233612
 20
64.7623735504
 11
342.2888859451
 21
64.9006148163
  0
LINE
  5
75F
100
AcDbEntity
  8
0
100
AcDbLine
 62
7
  6
CONTINUOUS
 10
342.2888859451
 20
64.9006148163
 11
342.3936174991
 21
64.9962446083
  0
LINE
  5
760
100
AcDbEntity
  8
0
100
AcDbLine
 62
7
  6
CONTINUOUS
 10
342.3875185376
 20
60.9545445268
 11
342.518506417
 21
61.3582635697
  0
LINE
  5
761
100
AcDbEntity
  8
0
100
AcDbLine
 62
7
  6
CONTINUOUS
 10
342.518506417
 20
61.3582635697
 11
342.6113796222
 21
61.9845103234
  0
LINE
  5
762
100
AcDbEntity
  8
0
100
AcDbLine
 62
7
  6
CONTINUOUS
 10
342.6113796222
 20
61.9845103234
 11
342.626283257
 21
62.0854093382
  0
SPLINE
  5
763
100
AcDbEntity
  8
0
100
AcDbSpline
 62
7
  6
CONTINUOUS
 70
0
 71
3
 72
8
 73
4
 74
0
 42
0.0000001
 43
0.0000001
 44
0.0000000001
 40
0.0
 40
0.0
 40
0.0
 40
0.0
 40
1.0
 40
1.0
 40
1.0
 40
1.0
 10
342.626283257
 20
62.0854093382
 30
0.0
 10
342.6447370275
 20
62.2907887819
 30
0.0
 10
342.6630405256
 20
62.4961817853
 30
0.0
 10
342.6811910369
 20
62.7015882517
 30
0.0
  0
LINE
  5
764
100
AcDbEntity
  8
0
100
AcDbLine
 62
7
  6
CONTINUOUS
 10
342.709516834
 20
63.3885872944
 11
342.7101974489
 21
63.7674923819
  0
LINE
  5
765
100
AcDbEntity
  8
0
100
AcDbLine
 62
7
  6
CONTINUOUS
 10
342.7099468751
 20
64.5253155101
 11
342.6962039759
 21
64.813384323
  0
LINE
  5
766
100
AcDbEntity
  8
0
100
AcDbLine
 62
7
  6
CONTINUOUS
 10
342.6962039759
 20
64.813384323
 11
342.6820962142
 21
65.1013480591
  0
LINE
  5
767
100
AcDbEntity
  8
0
100
AcDbLine
 62
7
  6
CONTINUOUS
 10
342.5201458073
 20
65.7788735984
 11
342.4141573142
 21
65.809546821
  0
LINE
  5
768
100
AcDbEntity
  8
0
100
AcDbLine
 62
7
  6
CONTINUOUS
 10
341.7899878904
 20
59.6784297719
 11
341.7919792664
 21
59.931015859
  0
LINE
  5
769
100
AcDbEntity
  8
0
100
AcDbLine
 62
7
  6
CONTINUOUS
 10
341.7919792664
 20
59.931015859
 11
341.7937534882
 21
60.183622783
  0
LINE
  5
76A
100
AcDbEntity
  8
0
100
AcDbLine
 62
7
  6
CONTINUOUS
 10
341.7937534882
 20
60.183622783
 11
341.7950748096
 21
60.3956435565
  0
LINE
  5
76B
100
AcDbEntity
  8
0
100
AcDbLine
 62
7
  6
CONTINUOUS
 10
341.7950748096
 20
60.3956435565
 11
341.7953103773
 21
60.436248221
  0
LINE
  5
76C
100
AcDbEntity
  8
0
100
AcDbLine
 62
7
  6
CONTINUOUS
 10
341.7817619163
 20
65.9502892343
 11
341.8929086633
 21
66.1480069055
  0
LINE
  5
76D
100
AcDbEntity
  8
0
100
AcDbLine
 62
7
  6
CONTINUOUS
 10
341.8929086633
 20
66.1480069055
 11
341.9043566149
 21
66.1683715365
  0
LINE
  5
76E
100
AcDbEntity
  8
0
100
AcDbLine
 62
7
  6
CONTINUOUS
 10
341.9043566149
 20
66.1683715365
 11
342.7066362224
 21
67.5955383158
  0
SPLINE
  5
76F
100
AcDbEntity
  8
0
100
AcDbSpline
 62
7
  6
CONTINUOUS
 70
0
 71
3
 72
9
 73
5
 74
0
 42
0.0000001
 43
0.0000001
 44
0.0000000001
 40
0.0
 40
0.0
 40
0.0
 40
0.0
 40
0.2467277892
 40
1.0
 40
1.0
 40
1.0
 40
1.0
 10
313.032328069
 20
52.7977146899
 30
0.0
 10
313.0354555304
 20
52.9708961129
 30
0.0
 10
313.0479944534
 20
53.672811492
 30
0.0
 10
313.0601687127
 20
54.374733427
 30
0.0
 10
313.069051573
 20
54.9034765222
 30
0.0
  0
SPLINE
  5
770
100
AcDbEntity
  8
0
100
AcDbSpline
 62
7
  6
CONTINUOUS
 70
0
 71
3
 72
9
 73
5
 74
0
 42
0.0000001
 43
0.0000001
 44
0.0000000001
 40
0.0
 40
0.0
 40
0.0
 40
0.0
 40
0.2324635199
 40
1.0
 40
1.0
 40
1.0
 40
1.0
 10
313.0851087228
 20
51.4974805957
 30
0.0
 10
313.0754372581
 20
51.5978796714
 30
0.0
 10
313.0390138453
 20
52.0302376301
 30
0.0
 10
313.0263149538
 20
52.464741816
 30
0.0
 10
313.032328069
 20
52.7977146899
 30
0.0
  0
SPLINE
  5
771
100
AcDbEntity
  8
0
100
AcDbSpline
 62
7
  6
CONTINUOUS
 70
0
 71
3
 72
11
 73
7
 74
0
 42
0.0000001
 43
0.0000001
 44
0.0000000001
 40
0.0
 40
0.0
 40
0.0
 40
0.0
 40
0.3248285909
 40
0.6334064765
 40
0.8729283615
 40
1.0
 40
1.0
 40
1.0
 40
1.0
 10
320.6737273892
 20
32.7737414196
 30
0.0
 10
320.5318882436
 20
33.6025268806
 30
0.0
 10
320.2521165613
 20
35.2180922826
 30
0.0
 10
319.8557494961
 20
37.4426850791
 30
0.0
 10
319.5442156385
 20
39.1624038529
 30
0.0
 10
319.3709879211
 20
40.095423199
 30
0.0
 10
319.3141600157
 20
40.4194083814
 30
0.0
  0
SPLINE
  5
772
100
AcDbEntity
  8
0
100
AcDbSpline
 62
7
  6
CONTINUOUS
 70
0
 71
3
 72
19
 73
15
 74
0
 42
0.0000001
 43
0.0000001
 44
0.0000000001
 40
0.0
 40
0.0
 40
0.0
 40
0.0
 40
0.2161720494
 40
0.4125322339
 40
0.5851040632
 40
0.7308267433
 40
0.7927748144
 40
0.8470443973
 40
0.8933481049
 40
0.9314864807
 40
0.9613000826
 40
0.9826398342
 40
0.995449004
 40
1.0
 40
1.0
 40
1.0
 40
1.0
 10
323.1874151379
 20
19.4205936062
 30
0.0
 10
323.222313663
 20
19.1983757318
 30
0.0
 10
323.2880900527
 20
18.7741770415
 30
0.0
 10
323.3787600147
 20
18.1721205297
 30
0.0
 10
323.4557984649
 20
17.6421656979
 30
0.0
 10
323.5102624684
 20
17.2502339584
 30
0.0
 10
323.5458602883
 20
16.9800438989
 30
0.0
 10
323.5670161653
 20
16.8121545651
 30
0.0
 10
323.5839180291
 20
16.6691092335
 30
0.0
 10
323.5968572904
 20
16.5500796984
 30
0.0
 10
323.6049188411
 20
16.4596750347
 30
0.0
 10
323.6104067258
 20
16.3884386651
 30
0.0
 10
323.6090963144
 20
16.3566507515
 30
0.0
 10
323.6090332237
 20
16.329505411
 30
0.0
 10
323.6042976622
 20
16.329482525
 30
0.0
  0
SPLINE
  5
773
100
AcDbEntity
  8
0
100
AcDbSpline
 62
7
  6
CONTINUOUS
 70
0
 71
3
 72
13
 73
9
 74
0
 42
0.0000001
 43
0.0000001
 44
0.0000000001
 40
0.0
 40
0.0
 40
0.0
 40
0.0
 40
0.4192705599
 40
0.5871281155
 40
0.7258643521
 40
0.8351991271
 40
0.9156366369
 40
1.0
 40
1.0
 40
1.0
 40
1.0
 10
323.6501779611
 20
25.114831629
 30
0.0
 10
323.6532617758
 20
24.9824759297
 30
0.0
 10
323.6550164857
 20
24.7971667819
 30
0.0
 10
323.6461536003
 20
24.5676872438
 30
0.0
 10
323.6361061658
 20
24.4375492296
 30
0.0
 10
323.6201585433
 20
24.3325764791
 30
0.0
 10
323.6021558199
 20
24.254266804
 30
0.0
 10
323.569863463
 20
24.1931934946
 30
0.0
 10
323.543224339
 20
24.1932089363
 30
0.0
  0
SPLINE
  5
774
100
AcDbEntity
  8
0
100
AcDbSpline
 62
7
  6
CONTINUOUS
 70
0
 71
3
 72
10
 73
6
 74
0
 42
0.0000001
 43
0.0000001
 44
0.0000000001
 40
0.0
 40
0.0
 40
0.0
 40
0.0
 40
0.5687567548
 40
0.8054120686
 40
1.0
 40
1.0
 40
1.0
 40
1.0
 10
323.3488625362
 20
65.5167215434
 30
0.0
 10
323.3369043494
 20
57.8567575147
 30
0.0
 10
323.3554766065
 20
47.0093272239
 30
0.0
 10
323.4899759325
 20
33.5420246733
 30
0.0
 10
323.5891337653
 20
27.7348162598
 30
0.0
 10
323.6501779611
 20
25.114831629
 30
0.0
  0
SPLINE
  5
775
100
AcDbEntity
  8
0
100
AcDbSpline
 62
7
  6
CONTINUOUS
 70
0
 71
3
 72
15
 73
11
 74
0
 42
0.0000001
 43
0.0000001
 44
0.0000000001
 40
0.0
 40
0.0
 40
0.0
 40
0.0
 40
0.2573860645
 40
0.3957285518
 40
0.5377764718
 40
0.6790075421
 40
0.8108727041
 40
0.9213678177
 40
0.9650890904
 40
1.0
 40
1.0
 40
1.0
 40
1.0
 10
312.2540364259
 20
57.0264446522
 30
0.0
 10
312.259008053
 20
57.6548929586
 30
0.0
 10
312.3574866396
 20
58.6220793435
 30
0.0
 10
312.6386384172
 20
59.9053079061
 30
0.0
 10
312.9269605404
 20
60.8943783017
 30
0.0
 10
313.260040452
 20
61.8520665577
 30
0.0
 10
313.5854355199
 20
62.7299585286
 30
0.0
 10
313.8108451574
 20
63.3922671639
 30
0.0
 10
313.9152938265
 20
63.842439819
 30
0.0
 10
313.9375822655
 20
64.0340946583
 30
0.0
 10
313.9383015214
 20
64.1193347336
 30
0.0
  0
SPLINE
  5
776
100
AcDbEntity
  8
0
100
AcDbSpline
 62
7
  6
CONTINUOUS
 70
0
 71
3
 72
9
 73
5
 74
0
 42
0.0000001
 43
0.0000001
 44
0.0000000001
 40
0.0
 40
0.0
 40
0.0
 40
0.0
 40
0.5081055729
 40
1.0
 40
1.0
 40
1.0
 40
1.0
 10
313.069051573
 20
54.9034765222
 30
0.0
 10
313.0835031035
 20
55.7636665003
 30
0.0
 10
313.2904549645
 20
57.4591288225
 30
0.0
 10
313.8663535791
 20
59.0689138257
 30
0.0
 10
314.2366631115
 20
59.8149243748
 30
0.0
  0
SPLINE
  5
777
100
AcDbEntity
  8
0
100
AcDbSpline
 62
7
  6
CONTINUOUS
 70
0
 71
3
 72
9
 73
5
 74
0
 42
0.0000001
 43
0.0000001
 44
0.0000000001
 40
0.0
 40
0.0
 40
0.0
 40
0.0
 40
0.2544719091
 40
1.0
 40
1.0
 40
1.0
 40
1.0
 10
314.6888687435
 20
61.6905186164
 30
0.0
 10
314.691628576
 20
61.8041697963
 30
0.0
 10
314.7083935322
 20
62.2505937726
 30
0.0
 10
314.7498150719
 20
62.6963153697
 30
0.0
 10
314.7980537139
 20
63.0258663657
 30
0.0
  0
LINE
  5
778
100
AcDbEntity
  8
0
100
AcDbLine
 62
7
  6
CONTINUOUS
 10
309.5662651404
 20
265.2409816099
 11
309.5662899963
 21
265.6408303179
  0
SPLINE
  5
779
100
AcDbEntity
  8
BEZUGSACHSEN
100
AcDbSpline
 62
7
  6
CONTINUOUS
 70
0
 71
3
 72
17
 73
13
 74
0
 42
0.0000001
 43
0.0000001
 44
0.0000000001
 40
0.0
 40
0.0
 40
0.0
 40
0.0
 40
0.193283088
 40
0.3793573834
 40
0.5507111229
 40
0.7010866001
 40
0.8248652776
 40
0.9175104508
 40
0.9510836143
 40
0.9758447408
 40
0.9917918796
 40
1.0
 40
1.0
 40
1.0
 40
1.0
 10
309.9642774
 20
262.6409816099
 30
0.0
 10
309.9642774
 20
262.4455787298
 30
0.0
 10
309.9595063464
 20
262.0620453637
 30
0.0
 10
309.9387777798
 20
261.5056163627
 30
0.0
 10
309.9064198723
 20
260.9932270966
 30
0.0
 10
309.8655033188
 20
260.5445540922
 30
0.0
 10
309.8199355113
 20
260.1766723559
 30
0.0
 10
309.77788172
 20
259.9268709619
 30
0.0
 10
309.7436528382
 20
259.7786417756
 30
0.0
 10
309.7205363077
 20
259.70598917
 30
0.0
 10
309.702591085
 20
259.6621270103
 30
0.0
 10
309.6831180517
 20
259.6410331611
 30
0.0
 10
309.6748199105
 20
259.641034168
 30
0.0
  0
SPLINE
  5
77A
100
AcDbEntity
  8
0
100
AcDbSpline
 62
7
  6
CONTINUOUS
 70
0
 71
3
 72
9
 73
5
 74
0
 42
0.0000001
 43
0.0000001
 44
0.0000000001
 40
0.0
 40
0.0
 40
0.0
 40
0.0
 40
0.4745429834
 40
1.0
 40
1.0
 40
1.0
 40
1.0
 10
306.694340859
 20
233.3695768069
 30
0.0
 10
307.0641162216
 20
233.7393108213
 30
0.0
 10
307.8146997799
 20
234.5464399483
 30
0.0
 10
308.5905436012
 20
235.3292377906
 30
0.0
 10
309.0049922077
 20
235.7335786301
 30
0.0
  0
LINE
  5
77B
100
AcDbEntity
  8
0
100
AcDbLine
 62
7
  6
CONTINUOUS
 10
358.7446750279
 20
166.4536712729
 11
358.7446732106
 21
166.4825877626
  0
LINE
  5
77C
100
AcDbEntity
  8
0
100
AcDbLine
 62
7
  6
CONTINUOUS
 10
358.7446732106
 20
166.4825877626
 11
358.7445608653
 21
168.3345709465
  0
LINE
  5
77D
100
AcDbEntity
  8
0
100
AcDbLine
 62
7
  6
CONTINUOUS
 10
358.8894693411
 20
165.9859557308
 11
358.8770925676
 21
166.4536797384
  0
LINE
  5
77E
100
AcDbEntity
  8
0
100
AcDbLine
 62
7
  6
CONTINUOUS
 10
348.7896468142
 20
107.000927914
 11
348.7858952085
 21
106.9761283455
  0
SPLINE
  5
77F
100
AcDbEntity
  8
0
100
AcDbSpline
 62
7
  6
CONTINUOUS
 70
0
 71
3
 72
9
 73
5
 74
0
 42
0.0000001
 43
0.0000001
 44
0.0000000001
 40
0.0
 40
0.0
 40
0.0
 40
0.0
 40
0.7493171875
 40
1.0
 40
1.0
 40
1.0
 40
1.0
 10
348.7858952085
 20
106.9761283455
 30
0.0
 10
348.723131401
 20
106.563656539
 30
0.0
 10
348.6156087205
 20
106.0162619243
 30
0.0
 10
348.4735947765
 20
105.4778165504
 30
0.0
 10
348.4356935702
 20
105.3434807074
 30
0.0
  0
SPLINE
  5
780
100
AcDbEntity
  8
0
100
AcDbSpline
 62
7
  6
CONTINUOUS
 70
0
 71
3
 72
9
 73
5
 74
0
 42
0.0000001
 43
0.0000001
 44
0.0000000001
 40
0.0
 40
0.0
 40
0.0
 40
0.0
 40
0.2488442451
 40
1.0
 40
1.0
 40
1.0
 40
1.0
 10
348.4356935702
 20
105.3434807074
 30
0.0
 10
348.3642582689
 20
105.0905872074
 30
0.0
 10
348.052232191
 20
104.081400367
 30
0.0
 10
347.6546732439
 20
103.0997205042
 30
0.0
 10
347.3215048112
 20
102.3798291872
 30
0.0
  0
SPLINE
  5
781
100
AcDbEntity
  8
0
100
AcDbSpline
 62
7
  6
CONTINUOUS
 70
0
 71
3
 72
8
 73
4
 74
0
 42
0.0000001
 43
0.0000001
 44
0.0000000001
 40
0.0
 40
0.0
 40
0.0
 40
0.0
 40
1.0
 40
1.0
 40
1.0
 40
1.0
 10
348.9333304994
 20
111.3090694031
 30
0.0
 10
348.945823332
 20
110.8615000752
 30
0.0
 10
348.9613628807
 20
110.413885619
 30
0.0
 10
348.9618986802
 20
109.9661422918
 30
0.0
  0
LINE
  5
782
100
AcDbEntity
  8
0
100
AcDbLine
 62
7
  6
CONTINUOUS
 10
341.6095486771
 20
30.8836676961
 11
341.5903046761
 21
30.79217977
  0
SPLINE
  5
783
100
AcDbEntity
  8
0
100
AcDbSpline
 62
7
  6
CONTINUOUS
 70
0
 71
3
 72
9
 73
5
 74
0
 42
0.0000001
 43
0.0000001
 44
0.0000000001
 40
0.0
 40
0.0
 40
0.0
 40
0.0
 40
0.7501421841
 40
1.0
 40
1.0
 40
1.0
 40
1.0
 10
319.2987981373
 20
40.5109779914
 30
0.0
 10
319.2985012181
 20
40.513077117
 30
0.0
 10
319.2989803052
 20
40.514864535
 30
0.0
 10
319.2973014784
 20
40.5193704629
 30
0.0
 10
319.2980066752
 20
40.5194069074
 30
0.0
  0
LINE
  5
784
100
AcDbEntity
  8
0
100
AcDbLine
 62
7
  6
CONTINUOUS
 10
323.0041366728
 20
19.3876954432
 11
323.0942454808
 21
18.8879927096
  0
SPLINE
  5
785
100
AcDbEntity
  8
0
100
AcDbSpline
 62
7
  6
CONTINUOUS
 70
0
 71
3
 72
9
 73
5
 74
0
 42
0.0000001
 43
0.0000001
 44
0.0000000001
 40
0.0
 40
0.0
 40
0.0
 40
0.0
 40
0.7200241435
 40
1.0
 40
1.0
 40
1.0
 40
1.0
 10
345.7238800431
 20
41.63306048
 30
0.0
 10
345.7236678577
 20
41.6672058299
 30
0.0
 10
345.72400297
 20
41.7043658826
 30
0.0
 10
345.7096730199
 20
41.7695287674
 30
0.0
 10
345.6963957685
 20
41.7695943324
 30
0.0
  0
LINE
  5
786
100
AcDbEntity
  8
0
100
AcDbLine
 62
7
  6
CONTINUOUS
 10
341.8485769087
 20
33.114998494
 11
341.8520082002
 21
33.0970328615
  0
LINE
  5
787
100
AcDbEntity
  8
0
100
AcDbLine
 62
7
  6
CONTINUOUS
 10
341.8520082002
 20
33.0970328615
 11
341.8498744574
 21
33.0073062497
  0
LINE
  5
788
100
AcDbEntity
  8
0
100
AcDbLine
 62
7
  6
CONTINUOUS
 10
341.8498744574
 20
33.0073062497
 11
341.8476668646
 21
32.9175881273
  0
LINE
  5
789
100
AcDbEntity
  8
0
100
AcDbLine
 62
7
  6
CONTINUOUS
 10
341.8476668646
 20
32.9175881273
 11
341.845385487
 21
32.8278783811
  0
LINE
  5
78A
100
AcDbEntity
  8
0
100
AcDbLine
 62
7
  6
CONTINUOUS
 10
341.845385487
 20
32.8278783811
 11
341.8406016957
 21
32.6484853678
  0
LINE
  5
78B
100
AcDbEntity
  8
0
100
AcDbLine
 62
7
  6
CONTINUOUS
 10
341.8406016957
 20
32.6484853678
 11
341.8380994346
 21
32.5588023249
  0
LINE
  5
78C
100
AcDbEntity
  8
0
100
AcDbLine
 62
7
  6
CONTINUOUS
 10
341.8380994346
 20
32.5588023249
 11
341.8326901019
 21
32.4998936416
  0
LINE
  5
78D
100
AcDbEntity
  8
0
100
AcDbLine
 62
7
  6
CONTINUOUS
 10
341.8326901019
 20
32.4998936416
 11
341.8109200066
 21
32.2641869505
  0
LINE
  5
78E
100
AcDbEntity
  8
0
100
AcDbLine
 62
7
  6
CONTINUOUS
 10
341.8109200066
 20
32.2641869505
 11
341.8054443207
 21
32.2052417812
  0
LINE
  5
78F
100
AcDbEntity
  8
0
100
AcDbLine
 62
7
  6
CONTINUOUS
 10
341.8054443207
 20
32.2052417812
 11
341.7760533404
 21
31.9673582757
  0
LINE
  5
790
100
AcDbEntity
  8
0
100
AcDbLine
 62
7
  6
CONTINUOUS
 10
341.7760533404
 20
31.9673582757
 11
341.7563547891
 21
31.8083898169
  0
LINE
  5
791
100
AcDbEntity
  8
0
100
AcDbLine
 62
7
  6
CONTINUOUS
 10
341.7563547891
 20
31.8083898169
 11
341.7464740093
 21
31.7287906724
  0
LINE
  5
792
100
AcDbEntity
  8
0
100
AcDbLine
 62
7
  6
CONTINUOUS
 10
341.7464740093
 20
31.7287906724
 11
341.6896963292
 21
31.3292301431
  0
LINE
  5
793
100
AcDbEntity
  8
0
100
AcDbLine
 62
7
  6
CONTINUOUS
 10
341.6896963292
 20
31.3292301431
 11
341.676361886
 21
31.2550919875
  0
LINE
  5
794
100
AcDbEntity
  8
0
100
AcDbLine
 62
7
  6
CONTINUOUS
 10
341.676361886
 20
31.2550919875
 11
341.636302144
 21
31.032384055
  0
LINE
  5
795
100
AcDbEntity
  8
0
100
AcDbLine
 62
7
  6
CONTINUOUS
 10
341.636302144
 20
31.032384055
 11
341.6095486771
 21
30.8836676961
  0
SPLINE
  5
796
100
AcDbEntity
  8
0
100
AcDbSpline
 62
7
  6
CONTINUOUS
 70
0
 71
3
 72
14
 73
10
 74
0
 42
0.0000001
 43
0.0000001
 44
0.0000000001
 40
0.0
 40
0.0
 40
0.0
 40
0.0
 40
0.4337812113
 40
0.6047031806
 40
0.7447928536
 40
0.854004991
 40
0.9324109712
 40
0.9803360699
 40
1.0
 40
1.0
 40
1.0
 40
1.0
 10
345.7238800431
 20
41.63306048
 30
0.0
 10
345.7249760775
 20
41.4566842124
 30
0.0
 10
345.7277330751
 20
41.2106572168
 30
0.0
 10
345.7362005635
 20
40.9082529773
 30
0.0
 10
345.7438711644
 20
40.7368746706
 30
0.0
 10
345.7524163029
 20
40.6056334545
 30
0.0
 10
345.7636965459
 20
40.5064376274
 30
0.0
 10
345.7728082596
 20
40.4551691971
 30
0.0
 10
345.785470472
 20
40.4210002406
 30
0.0
 10
345.7934660165
 20
40.4210047181
 30
0.0
  0
LINE
  5
797
100
AcDbEntity
  8
0
100
AcDbLine
 62
7
  6
CONTINUOUS
 10
341.8833188576
 20
33.8709817107
 11
341.8672501254
 21
33.8659333767
  0
SPLINE
  5
798
100
AcDbEntity
  8
0
100
AcDbSpline
 62
7
  6
CONTINUOUS
 70
0
 71
3
 72
8
 73
4
 74
0
 42
0.0000001
 43
0.0000001
 44
0.0000000001
 40
0.0
 40
0.0
 40
0.0
 40
0.0
 40
1.0
 40
1.0
 40
1.0
 40
1.0
 10
341.7711225544
 20
69.2694616671
 30
0.0
 10
341.7862707566
 20
68.9679812389
 30
0.0
 10
341.8012559719
 20
68.666492573
 30
0.0
 10
341.8160708763
 20
68.3649955826
 30
0.0
  0
LINE
  5
799
100
AcDbEntity
  8
0
100
AcDbLine
 62
7
  6
CONTINUOUS
 10
341.9200681328
 20
66.1858153974
 11
341.9377074202
 21
65.8022425682
  0
LINE
  5
79A
100
AcDbEntity
  8
0
100
AcDbLine
 62
7
  6
CONTINUOUS
 10
342.1418065441
 20
60.9364692202
 11
342.1535128067
 21
60.6248059195
  0
LINE
  5
79B
100
AcDbEntity
  8
0
100
AcDbLine
 62
7
  6
CONTINUOUS
 10
342.3080293474
 20
55.8597912229
 11
342.3186022159
 21
55.4631604858
  0
LINE
  5
79C
100
AcDbEntity
  8
0
100
AcDbLine
 62
7
  6
CONTINUOUS
 10
342.3186022159
 20
55.4631604858
 11
342.3224350719
 21
55.3156533901
  0
LINE
  5
79D
100
AcDbEntity
  8
0
100
AcDbLine
 62
7
  6
CONTINUOUS
 10
342.267434862
 20
47.8780184492
 11
342.2746689539
 21
47.9847781676
  0
LINE
  5
79E
100
AcDbEntity
  8
0
100
AcDbLine
 62
7
  6
CONTINUOUS
 10
342.2746689539
 20
47.9847781676
 11
342.282146671
 21
48.0975092529
  0
SPLINE
  5
79F
100
AcDbEntity
  8
0
100
AcDbSpline
 62
7
  6
CONTINUOUS
 70
0
 71
3
 72
9
 73
5
 74
0
 42
0.0000001
 43
0.0000001
 44
0.0000000001
 40
0.0
 40
0.0
 40
0.0
 40
0.0
 40
0.2611888235
 40
1.0
 40
1.0
 40
1.0
 40
1.0
 10
342.4169287494
 20
51.7530089489
 30
0.0
 10
342.4172308031
 20
51.8909853287
 30
0.0
 10
342.4158411226
 20
52.4192462984
 30
0.0
 10
342.4040616883
 20
52.9475142958
 30
0.0
 10
342.3879376823
 20
53.3374685975
 30
0.0
  0
LINE
  5
7A0
100
AcDbEntity
  8
0
100
AcDbLine
 62
7
  6
CONTINUOUS
 10
342.2894071706
 20
35.2041386246
 11
342.2927976029
 21
35.1861728126
  0
LINE
  5
7A1
100
AcDbEntity
  8
0
100
AcDbLine
 62
7
  6
CONTINUOUS
 10
342.2927976029
 20
35.1861728126
 11
342.2908918591
 21
35.1092658417
  0
LINE
  5
7A2
100
AcDbEntity
  8
0
100
AcDbLine
 62
7
  6
CONTINUOUS
 10
342.2908918591
 20
35.1092658417
 11
342.2869105042
 21
34.9554719559
  0
LINE
  5
7A3
100
AcDbEntity
  8
0
100
AcDbLine
 62
7
  6
CONTINUOUS
 10
342.2869105042
 20
34.9554719559
 11
342.2848349955
 21
34.878585192
  0
LINE
  5
7A4
100
AcDbEntity
  8
0
100
AcDbLine
 62
7
  6
CONTINUOUS
 10
342.2848349955
 20
34.878585192
 11
342.2827030083
 21
34.8017055173
  0
LINE
  5
7A5
100
AcDbEntity
  8
0
100
AcDbLine
 62
7
  6
CONTINUOUS
 10
342.2827030083
 20
34.8017055173
 11
342.2817005803
 21
34.7662460986
  0
LINE
  5
7A6
100
AcDbEntity
  8
0
100
AcDbLine
 62
7
  6
CONTINUOUS
 10
342.2817005803
 20
34.7662460986
 11
342.2805145929
 21
34.7248328554
  0
LINE
  5
7A7
100
AcDbEntity
  8
0
100
AcDbLine
 62
7
  6
CONTINUOUS
 10
342.2805145929
 20
34.7248328554
 11
342.275085655
 21
34.6659254323
  0
LINE
  5
7A8
100
AcDbEntity
  8
0
100
AcDbLine
 62
7
  6
CONTINUOUS
 10
342.275085655
 20
34.6659254323
 11
342.2641861686
 21
34.5480877192
  0
LINE
  5
7A9
100
AcDbEntity
  8
0
100
AcDbLine
 62
7
  6
CONTINUOUS
 10
342.2641861686
 20
34.5480877192
 11
342.2532312428
 21
34.4302187745
  0
LINE
  5
7AA
100
AcDbEntity
  8
0
100
AcDbLine
 62
7
  6
CONTINUOUS
 10
342.2532312428
 20
34.4302187745
 11
342.2477330054
 21
34.3712723117
  0
LINE
  5
7AB
100
AcDbEntity
  8
0
100
AcDbLine
 62
7
  6
CONTINUOUS
 10
342.2477330054
 20
34.3712723117
 11
342.1985297344
 21
33.9744304002
  0
LINE
  5
7AC
100
AcDbEntity
  8
0
100
AcDbLine
 62
7
  6
CONTINUOUS
 10
342.1985297344
 20
33.9744304002
 11
342.1886232448
 21
33.8948212029
  0
LINE
  5
7AD
100
AcDbEntity
  8
0
100
AcDbLine
 62
7
  6
CONTINUOUS
 10
342.1886232448
 20
33.8948212029
 11
342.1611398764
 21
33.7211377471
  0
LINE
  5
7AE
100
AcDbEntity
  8
0
100
AcDbLine
 62
7
  6
CONTINUOUS
 10
342.1611398764
 20
33.7211377471
 11
342.1473642396
 21
33.6341210557
  0
LINE
  5
7AF
100
AcDbEntity
  8
0
100
AcDbLine
 62
7
  6
CONTINUOUS
 10
342.1473642396
 20
33.6341210557
 11
342.1197449892
 21
33.4597372789
  0
LINE
  5
7B0
100
AcDbEntity
  8
0
100
AcDbLine
 62
7
  6
CONTINUOUS
 10
342.1197449892
 20
33.4597372789
 11
342.105901363
 21
33.3723701085
  0
LINE
  5
7B1
100
AcDbEntity
  8
0
100
AcDbLine
 62
7
  6
CONTINUOUS
 10
342.105901363
 20
33.3723701085
 11
342.1014441236
 21
33.2441960337
  0
LINE
  5
7B2
100
AcDbEntity
  8
0
100
AcDbLine
 62
7
  6
CONTINUOUS
 10
342.1014441236
 20
33.2441960337
 11
342.094471563
 21
33.0519792303
  0
LINE
  5
7B3
100
AcDbEntity
  8
0
100
AcDbLine
 62
7
  6
CONTINUOUS
 10
342.094471563
 20
33.0519792303
 11
342.0920710781
 21
32.987918971
  0
LINE
  5
7B4
100
AcDbEntity
  8
BEZUGSACHSEN
100
AcDbLine
 62
7
  6
CONTINUOUS
 10
352.3340043538
 20
53.1356327683
 11
352.3288572134
 21
52.7670417687
  0
LINE
  5
7B5
100
AcDbEntity
  8
BEZUGSACHSEN
100
AcDbLine
 62
7
  6
CONTINUOUS
 10
352.3288572134
 20
52.7670417687
 11
352.3236108937
 21
52.4113124657
  0
LINE
  5
7B6
100
AcDbEntity
  8
0
100
AcDbLine
 62
7
  6
CONTINUOUS
 10
342.2332990105
 20
35.7401810315
 11
342.1696949174
 21
35.5105093401
  0
LINE
  5
7B7
100
AcDbEntity
  8
0
100
AcDbLine
 62
7
  6
CONTINUOUS
 10
342.1696949174
 20
35.5105093401
 11
342.1140173275
 21
35.3096714388
  0
LINE
  5
7B8
100
AcDbEntity
  8
0
100
AcDbLine
 62
7
  6
CONTINUOUS
 10
342.1140173275
 20
35.3096714388
 11
342.1056503569
 21
35.2795072608
  0
LINE
  5
7B9
100
AcDbEntity
  8
0
100
AcDbLine
 62
7
  6
CONTINUOUS
 10
342.1056503569
 20
35.2795072608
 11
342.0756231253
 21
35.1494225008
  0
LINE
  5
7BA
100
AcDbEntity
  8
0
100
AcDbLine
 62
7
  6
CONTINUOUS
 10
342.0756231253
 20
35.1494225008
 11
341.95505045
 21
34.6271933361
  0
LINE
  5
7BB
100
AcDbEntity
  8
0
100
AcDbLine
 62
7
  6
CONTINUOUS
 10
341.95505045
 20
34.6271933361
 11
341.9247914918
 21
34.4961638846
  0
LINE
  5
7BC
100
AcDbEntity
  8
0
100
AcDbLine
 62
7
  6
CONTINUOUS
 10
341.9247914918
 20
34.4961638846
 11
341.8642458095
 21
34.2098196262
  0
LINE
  5
7BD
100
AcDbEntity
  8
0
100
AcDbLine
 62
7
  6
CONTINUOUS
 10
341.8642458095
 20
34.2098196262
 11
341.773267371
 21
33.7795522752
  0
LINE
  5
7BE
100
AcDbEntity
  8
0
100
AcDbLine
 62
7
  6
CONTINUOUS
 10
341.773267371
 20
33.7795522752
 11
341.7428986611
 21
33.6359299288
  0
LINE
  5
7BF
100
AcDbEntity
  8
0
100
AcDbLine
 62
7
  6
CONTINUOUS
 10
341.7428986611
 20
33.6359299288
 11
341.6516050219
 21
33.1680853467
  0
LINE
  5
7C0
100
AcDbEntity
  8
0
100
AcDbLine
 62
7
  6
CONTINUOUS
 10
341.6516050219
 20
33.1680853467
 11
341.6242061272
 21
33.0276828715
  0
LINE
  5
7C1
100
AcDbEntity
  8
0
100
AcDbLine
 62
7
  6
CONTINUOUS
 10
342.307996048
 20
37.8419230961
 11
342.1697015794
 21
37.2196919076
  0
LINE
  5
7C2
100
AcDbEntity
  8
0
100
AcDbLine
 62
7
  6
CONTINUOUS
 10
342.1697015794
 20
37.2196919076
 11
342.1003441941
 21
36.9076432877
  0
LINE
  5
7C3
100
AcDbEntity
  8
0
100
AcDbLine
 62
7
  6
CONTINUOUS
 10
342.2721042959
 20
37.2183579549
 11
342.1982865812
 21
36.8858963212
  0
LINE
  5
7C4
100
AcDbEntity
  8
0
100
AcDbLine
 62
7
  6
CONTINUOUS
 10
342.1982865812
 20
36.8858963212
 11
341.6413798059
 21
34.3781318375
  0
LINE
  5
7C5
100
AcDbEntity
  8
0
100
AcDbLine
 62
7
  6
CONTINUOUS
 10
341.9532991332
 20
42.8725562219
 11
341.9459321397
 21
42.3969789213
  0
LINE
  5
7C6
100
AcDbEntity
  8
0
100
AcDbLine
 62
7
  6
CONTINUOUS
 10
341.9459321397
 20
42.3969789213
 11
341.9373720907
 21
41.921541581
  0
LINE
  5
7C7
100
AcDbEntity
  8
0
100
AcDbLine
 62
7
  6
CONTINUOUS
 10
341.9373720907
 20
41.921541581
 11
341.7111944774
 21
41.0605395588
  0
SPLINE
  5
7C8
100
AcDbEntity
  8
BEZUGSACHSEN
100
AcDbSpline
 62
7
  6
CONTINUOUS
 70
0
 71
3
 72
22
 73
18
 74
0
 42
0.0000001
 43
0.0000001
 44
0.0000000001
 40
0.0
 40
0.0
 40
0.0
 40
0.0
 40
0.0360527706
 40
0.061548282
 40
0.0727945413
 40
0.0846733649
 40
0.0981971923
 40
0.1139542083
 40
0.1529632716
 40
0.2018792771
 40
0.2596218984
 40
0.3248024143
 40
0.3961391074
 40
0.4725291408
 40
0.63707379
 40
0.8137952638
 40
1.0
 40
1.0
 40
1.0
 40
1.0
 10
351.193277426
 20
64.1193347336
 30
0.0
 10
351.1926928367
 20
64.1886152662
 30
0.0
 10
351.1997291415
 20
64.3077851185
 30
0.0
 10
351.2702059212
 20
64.4396432497
 30
0.0
 10
351.3552368502
 20
64.4842477783
 30
0.0
 10
351.426512516
 20
64.4920104452
 30
0.0
 10
351.5051353416
 20
64.4779114656
 30
0.0
 10
351.627224507
 20
64.4279296246
 30
0.0
 10
351.7902982106
 20
64.3095320496
 30
0.0
 10
351.9849997014
 20
64.1074523119
 30
0.0
 10
352.1816641426
 20
63.8411308459
 30
0.0
 10
352.371792266
 20
63.519279012
 30
0.0
 10
352.5485316921
 20
63.1497479238
 30
0.0
 10
352.7654449124
 20
62.5897207668
 30
0.0
 10
352.9751742785
 20
61.8123969698
 30
0.0
 10
353.1220704244
 20
60.8075145647
 30
0.0
 10
353.1492709472
 20
60.10919847
 30
0.0
 10
353.1465568902
 20
59.7513771086
 30
0.0
  0
LINE
  5
7C9
100
AcDbEntity
  8
0
100
AcDbLine
 62
7
  6
CONTINUOUS
 10
342.5851624525
 20
44.3882748979
 11
342.3400832211
 21
43.4548926727
  0
LINE
  5
7CA
100
AcDbEntity
  8
0
100
AcDbLine
 62
7
  6
CONTINUOUS
 10
342.3400832211
 20
43.4548926727
 11
342.0928696367
 21
42.5135575107
  0
LINE
  5
7CB
100
AcDbEntity
  8
0
100
AcDbLine
 62
7
  6
CONTINUOUS
 10
342.6224480055
 20
47.8544972156
 11
342.4715924327
 21
47.2821439638
  0
LINE
  5
7CC
100
AcDbEntity
  8
0
100
AcDbLine
 62
7
  6
CONTINUOUS
 10
342.4715924327
 20
47.2821439638
 11
342.4194850113
 21
47.0844459483
  0
LINE
  5
7CD
100
AcDbEntity
  8
0
100
AcDbLine
 62
7
  6
CONTINUOUS
 10
342.4194850113
 20
47.0844459483
 11
342.2655457906
 21
46.5003933713
  0
LINE
  5
7CE
100
AcDbEntity
  8
0
100
AcDbLine
 62
7
  6
CONTINUOUS
 10
342.2655457906
 20
46.5003933713
 11
342.2162187141
 21
46.313244172
  0
LINE
  5
7CF
100
AcDbEntity
  8
0
100
AcDbLine
 62
7
  6
CONTINUOUS
 10
342.2162187141
 20
46.313244172
 11
342.118371452
 21
45.9420071935
  0
LINE
  5
7D0
100
AcDbEntity
  8
0
100
AcDbLine
 62
7
  6
CONTINUOUS
 10
342.118371452
 20
45.9420071935
 11
342.0126473617
 21
45.5408852255
  0
LINE
  5
7D1
100
AcDbEntity
  8
0
100
AcDbLine
 62
7
  6
CONTINUOUS
 10
342.0126473617
 20
45.5408852255
 11
342.0027644089
 21
45.5033888596
  0
LINE
  5
7D2
100
AcDbEntity
  8
0
100
AcDbLine
 62
7
  6
CONTINUOUS
 10
342.0027644089
 20
45.5033888596
 11
341.9774767427
 21
45.4074463233
  0
LINE
  5
7D3
100
AcDbEntity
  8
0
100
AcDbLine
 62
7
  6
CONTINUOUS
 10
341.9774767427
 20
45.4074463233
 11
341.9649599624
 21
45.3599571001
  0
LINE
  5
7D4
100
AcDbEntity
  8
0
100
AcDbLine
 62
7
  6
CONTINUOUS
 10
341.9649599624
 20
45.3599571001
 11
341.8214400552
 21
44.8154362222
  0
LINE
  5
7D5
100
AcDbEntity
  8
0
100
AcDbLine
 62
7
  6
CONTINUOUS
 10
341.8214400552
 20
44.8154362222
 11
341.8087762241
 21
44.7673890914
  0
LINE
  5
7D6
100
AcDbEntity
  8
0
100
AcDbLine
 62
7
  6
CONTINUOUS
 10
341.8087762241
 20
44.7673890914
 11
341.7366249089
 21
44.4936438512
  0
SPLINE
  5
7D7
100
AcDbEntity
  8
BEZUGSACHSEN
100
AcDbSpline
 62
7
  6
CONTINUOUS
 70
0
 71
3
 72
9
 73
5
 74
0
 42
0.0000001
 43
0.0000001
 44
0.0000000001
 40
0.0
 40
0.0
 40
0.0
 40
0.0
 40
0.494397107
 40
1.0
 40
1.0
 40
1.0
 40
1.0
 10
351.2106139846
 20
59.6465612
 30
0.0
 10
351.5954720629
 20
58.9030994833
 30
0.0
 10
352.1805961464
 20
57.2930931168
 30
0.0
 10
352.3634094683
 20
55.5915020353
 30
0.0
 10
352.3537522295
 20
54.7354131329
 30
0.0
  0
SPLINE
  5
7D8
100
AcDbEntity
  8
0
100
AcDbSpline
 62
7
  6
CONTINUOUS
 70
0
 71
3
 72
12
 73
8
 74
0
 42
0.0000001
 43
0.0000001
 44
0.0000000001
 40
0.0
 40
0.0
 40
0.0
 40
0.0
 40
0.038079464
 40
0.0965909733
 40
0.2912824656
 40
0.5934481467
 40
1.0
 40
1.0
 40
1.0
 40
1.0
 10
341.5883546083
 20
24.1932089363
 30
0.0
 10
341.599580021
 20
24.1932154433
 30
0.0
 10
341.6267148969
 20
24.2079710756
 30
0.0
 10
341.6798168351
 20
24.2753817761
 30
0.0
 10
341.7494622632
 20
24.4255520867
 30
0.0
 10
341.8386019101
 20
24.6758848422
 30
0.0
 10
341.8977819619
 20
24.8765824377
 30
0.0
 10
341.9301066004
 20
24.9919879999
 30
0.0
  0
SPLINE
  5
7D9
100
AcDbEntity
  8
0
100
AcDbSpline
 62
7
  6
CONTINUOUS
 70
0
 71
3
 72
12
 73
8
 74
0
 42
0.0000001
 43
0.0000001
 44
0.0000000001
 40
0.0
 40
0.0
 40
0.0
 40
0.0
 40
0.0847277473
 40
0.1898316175
 40
0.4450458485
 40
0.7288219609
 40
1.0
 40
1.0
 40
1.0
 40
1.0
 10
341.9301066004
 20
24.9919879999
 30
0.0
 10
341.9929083293
 20
25.2162029994
 30
0.0
 10
342.1198997745
 20
25.7223618486
 30
0.0
 10
342.3851109123
 20
26.9163652545
 30
0.0
 10
342.7183706922
 20
28.6551430122
 30
0.0
 10
343.0846282208
 20
30.8513852182
 30
0.0
 10
343.296795604
 20
32.3620001862
 30
0.0
 10
343.3850052681
 20
33.1019981122
 30
0.0
  0
LINE
  5
7DA
100
AcDbEntity
  8
0
100
AcDbLine
 62
7
  6
CONTINUOUS
 10
342.4845540316
 20
51.7515684813
 11
342.3805475337
 21
51.5141104817
  0
LINE
  5
7DB
100
AcDbEntity
  8
0
100
AcDbLine
 62
7
  6
CONTINUOUS
 10
342.2765212947
 20
51.1661753521
 11
342.1724760742
 21
50.7077635798
  0
SPLINE
  5
7DC
100
AcDbEntity
  8
0
100
AcDbSpline
 62
7
  6
CONTINUOUS
 70
0
 71
3
 72
8
 73
4
 74
0
 42
0.0000001
 43
0.0000001
 44
0.0000000001
 40
0.0
 40
0.0
 40
0.0
 40
0.0
 40
1.0
 40
1.0
 40
1.0
 40
1.0
 10
342.1724760742
 20
50.7077635798
 30
0.0
 10
342.1377351419
 20
50.444464744
 30
0.0
 10
342.1028467835
 20
50.1811853209
 30
0.0
 10
342.0678156277
 20
49.9179249414
 30
0.0
  0
LINE
  5
7DD
100
AcDbEntity
  8
0
100
AcDbLine
 62
7
  6
CONTINUOUS
 10
342.0678156277
 20
49.9179249414
 11
342.0232759653
 21
49.4047962607
  0
LINE
  5
7DE
100
AcDbEntity
  8
0
100
AcDbLine
 62
7
  6
CONTINUOUS
 10
342.0232759653
 20
49.4047962607
 11
342.0142849329
 21
49.3020537459
  0
LINE
  5
7DF
100
AcDbEntity
  8
0
100
AcDbLine
 62
7
  6
CONTINUOUS
 10
342.0142849329
 20
49.3020537459
 11
341.9954442877
 21
48.9494402248
  0
LINE
  5
7E0
100
AcDbEntity
  8
0
100
AcDbLine
 62
7
  6
CONTINUOUS
 10
341.9954442877
 20
48.9494402248
 11
341.9906740249
 21
48.861300041
  0
LINE
  5
7E1
100
AcDbEntity
  8
0
100
AcDbLine
 62
7
  6
CONTINUOUS
 10
341.9906740249
 20
48.861300041
 11
341.9858797914
 21
48.7731650076
  0
LINE
  5
7E2
100
AcDbEntity
  8
0
100
AcDbLine
 62
7
  6
CONTINUOUS
 10
341.9858797914
 20
48.7731650076
 11
341.9834947633
 21
48.4417173309
  0
LINE
  5
7E3
100
AcDbEntity
  8
0
100
AcDbLine
 62
7
  6
CONTINUOUS
 10
341.9834947633
 20
48.4417173309
 11
341.9806117706
 21
48.1103087467
  0
SPLINE
  5
7E4
100
AcDbEntity
  8
0
100
AcDbSpline
 62
7
  6
CONTINUOUS
 70
0
 71
3
 72
8
 73
4
 74
0
 42
0.0000001
 43
0.0000001
 44
0.0000000001
 40
0.0
 40
0.0
 40
0.0
 40
0.0
 40
1.0
 40
1.0
 40
1.0
 40
1.0
 10
341.9806117706
 20
48.1103087467
 30
0.0
 10
341.9705587581
 20
47.9340047047
 30
0.0
 10
341.9603622085
 20
47.7577087898
 30
0.0
 10
341.9500234664
 20
47.5814212727
 30
0.0
  0
LINE
  5
7E5
100
AcDbEntity
  8
0
100
AcDbLine
 62
7
  6
CONTINUOUS
 10
341.9500234664
 20
47.5814212727
 11
341.8940700306
 21
47.0760256993
  0
LINE
  5
7E6
100
AcDbEntity
  8
0
100
AcDbLine
 62
7
  6
CONTINUOUS
 10
341.8940700306
 20
47.0760256993
 11
341.8267884785
 21
46.6747176791
  0
LINE
  5
7E7
100
AcDbEntity
  8
0
100
AcDbLine
 62
7
  6
CONTINUOUS
 10
341.8267884785
 20
46.6747176791
 11
341.8132614602
 21
46.5941219046
  0
LINE
  5
7E8
100
AcDbEntity
  8
0
100
AcDbLine
 62
7
  6
CONTINUOUS
 10
341.8132614602
 20
46.5941219046
 11
341.7485280037
 21
46.3771685662
  0
SPLINE
  5
7E9
100
AcDbEntity
  8
0
100
AcDbSpline
 62
7
  6
CONTINUOUS
 70
0
 71
3
 72
18
 73
14
 74
0
 42
0.0000001
 43
0.0000001
 44
0.0000000001
 40
0.0
 40
0.0
 40
0.0
 40
0.0
 40
0.0051848289
 40
0.0184545956
 40
0.0400115762
 40
0.0698029294
 40
0.1077444627
 40
0.1537032328
 40
0.2688258512
 40
0.4133858334
 40
0.5852337926
 40
0.7818897753
 40
1.0
 40
1.0
 40
1.0
 40
1.0
 10
341.5272812852
 20
16.329482525
 30
0.0
 10
341.5317937034
 20
16.3294607174
 30
0.0
 10
341.5383218665
 20
16.3498956244
 30
0.0
 10
341.5495829096
 20
16.3778451794
 30
0.0
 10
341.5640499757
 20
16.4349674494
 30
0.0
 10
341.5824275421
 20
16.509277285
 30
0.0
 10
341.6041121099
 20
16.6062830273
 30
0.0
 10
341.640335707
 20
16.7754537105
 30
0.0
 10
341.6929147303
 20
17.036357569
 30
0.0
 10
341.7642348615
 20
17.4050367307
 30
0.0
 10
341.8466916524
 20
17.8439105901
 30
0.0
 10
341.9391547899
 20
18.3460049086
 30
0.0
 10
342.0036104544
 20
18.7011860679
 30
0.0
 10
342.0373334665
 20
18.8879927096
 30
0.0
  0
LINE
  5
7EA
100
AcDbEntity
  8
0
100
AcDbLine
 62
7
  6
CONTINUOUS
 10
341.7821257831
 20
49.8449126525
 11
341.7651122602
 21
49.7698165465
  0
SPLINE
  5
7EB
100
AcDbEntity
  8
0
100
AcDbSpline
 62
7
  6
CONTINUOUS
 70
0
 71
3
 72
9
 73
5
 74
0
 42
0.0000001
 43
0.0000001
 44
0.0000000001
 40
0.0
 40
0.0
 40
0.0
 40
0.0
 40
0.2501135285
 40
1.0
 40
1.0
 40
1.0
 40
1.0
 10
343.3850052681
 20
33.1019981122
 30
0.0
 10
343.5307194
 20
34.3244056169
 30
0.0
 10
344.0901965555
 20
39.2144641369
 30
0.0
 10
344.5440911381
 20
44.1172380387
 30
0.0
 10
344.7998350957
 20
47.7993169072
 30
0.0
  0
LINE
  5
7EC
100
AcDbEntity
  8
0
100
AcDbLine
 62
7
  6
CONTINUOUS
 10
342.4733788537
 20
50.7834886419
 11
342.4817535551
 21
50.7572840899
  0
LINE
  5
7ED
100
AcDbEntity
  8
0
100
AcDbLine
 62
7
  6
CONTINUOUS
 10
342.4817535551
 20
50.7572840899
 11
342.5017998633
 21
50.5535831486
  0
LINE
  5
7EE
100
AcDbEntity
  8
0
100
AcDbLine
 62
7
  6
CONTINUOUS
 10
342.5017998633
 20
50.5535831486
 11
342.5057647755
 21
50.512839681
  0
LINE
  5
7EF
100
AcDbEntity
  8
0
100
AcDbLine
 62
7
  6
CONTINUOUS
 10
342.5057647755
 20
50.512839681
 11
342.5049853401
 21
50.4023519366
  0
LINE
  5
7F0
100
AcDbEntity
  8
0
100
AcDbLine
 62
7
  6
CONTINUOUS
 10
342.5049853401
 20
50.4023519366
 11
342.5041475642
 21
50.2918687171
  0
LINE
  5
7F1
100
AcDbEntity
  8
0
100
AcDbLine
 62
7
  6
CONTINUOUS
 10
342.5041475642
 20
50.2918687171
 11
342.5032514688
 21
50.1813898766
  0
LINE
  5
7F2
100
AcDbEntity
  8
0
100
AcDbLine
 62
7
  6
CONTINUOUS
 10
342.5032514688
 20
50.1813898766
 11
342.5002135407
 21
49.84998342
  0
LINE
  5
7F3
100
AcDbEntity
  8
0
100
AcDbLine
 62
7
  6
CONTINUOUS
 10
342.5002135407
 20
49.84998342
 11
342.4706817454
 21
49.4315715681
  0
LINE
  5
7F4
100
AcDbEntity
  8
0
100
AcDbLine
 62
7
  6
CONTINUOUS
 10
342.4706817454
 20
49.4315715681
 11
342.4160978944
 21
49.036652881
  0
LINE
  5
7F5
100
AcDbEntity
  8
0
100
AcDbLine
 62
7
  6
CONTINUOUS
 10
342.4160978944
 20
49.036652881
 11
342.3627705738
 21
48.7522085517
  0
LINE
  5
7F6
100
AcDbEntity
  8
0
100
AcDbLine
 62
7
  6
CONTINUOUS
 10
342.3627705738
 20
48.7522085517
 11
342.3582212701
 21
48.4207444715
  0
LINE
  5
7F7
100
AcDbEntity
  8
0
100
AcDbLine
 62
7
  6
CONTINUOUS
 10
342.3582212701
 20
48.4207444715
 11
342.3565904178
 21
48.3102720879
  0
LINE
  5
7F8
100
AcDbEntity
  8
0
100
AcDbLine
 62
7
  6
CONTINUOUS
 10
342.3565904178
 20
48.3102720879
 11
342.3549024319
 21
48.1998080697
  0
LINE
  5
7F9
100
AcDbEntity
  8
0
100
AcDbLine
 62
7
  6
CONTINUOUS
 10
342.3549024319
 20
48.1998080697
 11
342.3531573533
 21
48.0893522908
  0
SPLINE
  5
7FA
100
AcDbEntity
  8
0
100
AcDbSpline
 62
7
  6
CONTINUOUS
 70
0
 71
3
 72
9
 73
5
 74
0
 42
0.0000001
 43
0.0000001
 44
0.0000000001
 40
0.0
 40
0.0
 40
0.0
 40
0.0
 40
0.5370109784
 40
1.0
 40
1.0
 40
1.0
 40
1.0
 10
344.7998350957
 20
47.7993169072
 30
0.0
 10
344.8685680203
 20
48.7889005966
 30
0.0
 10
344.9627819795
 20
50.6342519617
 30
0.0
 10
344.9610970927
 20
52.4829644791
 30
0.0
 10
344.9257646718
 20
53.3374685975
 30
0.0
  0
SPLINE
  5
7FB
100
AcDbEntity
  8
0
100
AcDbSpline
 62
7
  6
CONTINUOUS
 70
0
 71
3
 72
9
 73
5
 74
0
 42
0.0000001
 43
0.0000001
 44
0.0000000001
 40
0.0
 40
0.0
 40
0.0
 40
0.0
 40
0.2655281208
 40
1.0
 40
1.0
 40
1.0
 40
1.0
 10
344.2638694677
 20
70.1573746891
 30
0.0
 10
344.3312101193
 20
68.8443909695
 30
0.0
 10
344.5735146117
 20
63.8990509555
 30
0.0
 10
344.7664696498
 20
58.9510345489
 30
0.0
 10
344.8602620613
 20
55.3156533901
 30
0.0
  0
LINE
  5
7FC
100
AcDbEntity
  8
0
100
AcDbLine
 62
7
  6
CONTINUOUS
 10
342.0462292398
 20
55.5724426278
 11
342.0418809938
 21
55.0494636342
  0
LINE
  5
7FD
100
AcDbEntity
  8
0
100
AcDbLine
 62
7
  6
CONTINUOUS
 10
342.5365741517
 20
56.476749009
 11
342.5302288737
 21
55.8734006998
  0
LINE
  5
7FE
100
AcDbEntity
  8
0
100
AcDbLine
 62
7
  6
CONTINUOUS
 10
342.6992063832
 20
60.6319190896
 11
342.3040848027
 21
59.5865005025
  0
LINE
  5
7FF
100
AcDbEntity
  8
0
100
AcDbLine
 62
7
  6
CONTINUOUS
 10
342.3040848027
 20
59.5865005025
 11
342.0920098721
 21
59.0254038031
  0
LINE
  5
800
100
AcDbEntity
  8
0
100
AcDbLine
 62
7
  6
CONTINUOUS
 10
342.0920098721
 20
59.0254038031
 11
341.9661212127
 21
58.6923386028
  0
LINE
  5
801
100
AcDbEntity
  8
0
100
AcDbLine
 62
7
  6
CONTINUOUS
 10
341.9661212127
 20
58.6923386028
 11
341.7850661258
 21
58.2133243447
  0
LINE
  5
802
100
AcDbEntity
  8
0
100
AcDbLine
 62
7
  6
CONTINUOUS
 10
341.7953103773
 20
60.436248221
 11
341.7860198521
 21
60.4314208255
  0
LINE
  5
803
100
AcDbEntity
  8
0
100
AcDbLine
 62
7
  6
CONTINUOUS
 10
342.3936174991
 20
64.9962446083
 11
342.4598022354
 21
64.9243940383
  0
LINE
  5
804
100
AcDbEntity
  8
0
100
AcDbLine
 62
7
  6
CONTINUOUS
 10
342.4598022354
 20
64.9243940383
 11
342.4729623572
 21
64.9100882943
  0
LINE
  5
805
100
AcDbEntity
  8
0
100
AcDbLine
 62
7
  6
CONTINUOUS
 10
342.4729623572
 20
64.9100882943
 11
342.481949507
 21
64.8653477887
  0
LINE
  5
806
100
AcDbEntity
  8
0
100
AcDbLine
 62
7
  6
CONTINUOUS
 10
342.481949507
 20
64.8653477887
 11
342.5176902075
 21
64.6867197371
  0
LINE
  5
807
100
AcDbEntity
  8
0
100
AcDbLine
 62
7
  6
CONTINUOUS
 10
342.5176902075
 20
64.6867197371
 11
342.5265735728
 21
64.6421452021
  0
LINE
  5
808
100
AcDbEntity
  8
0
100
AcDbLine
 62
7
  6
CONTINUOUS
 10
342.5265735728
 20
64.6421452021
 11
342.5449028726
 21
64.342347262
  0
LINE
  5
809
100
AcDbEntity
  8
0
100
AcDbLine
 62
7
  6
CONTINUOUS
 10
342.5449028726
 20
64.342347262
 11
342.5539142427
 21
64.1924160291
  0
LINE
  5
80A
100
AcDbEntity
  8
0
100
AcDbLine
 62
7
  6
CONTINUOUS
 10
342.5539142427
 20
64.1924160291
 11
342.5543017849
 21
63.813505648
  0
SPLINE
  5
80B
100
AcDbEntity
  8
0
100
AcDbSpline
 62
7
  6
CONTINUOUS
 70
0
 71
3
 72
8
 73
4
 74
0
 42
0.0000001
 43
0.0000001
 44
0.0000000001
 40
0.0
 40
0.0
 40
0.0
 40
0.0
 40
1.0
 40
1.0
 40
1.0
 40
1.0
 10
342.5534911788
 20
63.0556878134
 30
0.0
 10
342.5444076747
 20
62.8687816781
 30
0.0
 10
342.5351690628
 20
62.6818830176
 30
0.0
 10
342.5257767329
 20
62.4949921467
 30
0.0
  0
LINE
  5
80C
100
AcDbEntity
  8
0
100
AcDbLine
 62
7
  6
CONTINUOUS
 10
342.5257767329
 20
62.4949921467
 11
342.4809233763
 21
62.086916606
  0
LINE
  5
80D
100
AcDbEntity
  8
0
100
AcDbLine
 62
7
  6
CONTINUOUS
 10
342.4809233763
 20
62.086916606
 11
342.4718902554
 21
62.0051162478
  0
LINE
  5
80E
100
AcDbEntity
  8
0
100
AcDbLine
 62
7
  6
CONTINUOUS
 10
342.4718902554
 20
62.0051162478
 11
342.3931662916
 21
61.7123629759
  0
SPLINE
  5
80F
100
AcDbEntity
  8
0
100
AcDbSpline
 62
7
  6
CONTINUOUS
 70
0
 71
3
 72
9
 73
5
 74
0
 42
0.0000001
 43
0.0000001
 44
0.0000000001
 40
0.0
 40
0.0
 40
0.0
 40
0.0
 40
0.4992996446
 40
1.0
 40
1.0
 40
1.0
 40
1.0
 10
347.0133590879
 20
111.2409816099
 30
0.0
 10
347.0420180726
 20
110.7858531604
 30
0.0
 10
347.1323983118
 20
109.8760429521
 30
0.0
 10
347.2820304775
 20
108.974744033
 30
0.0
 10
347.3606009323
 20
108.5242350062
 30
0.0
  0
LINE
  5
810
100
AcDbEntity
  8
0
100
AcDbLine
 62
7
  6
CONTINUOUS
 10
342.4141573142
 20
65.809546821
 11
342.2831609574
 21
65.6584336267
  0
LINE
  5
811
100
AcDbEntity
  8
0
100
AcDbLine
 62
7
  6
CONTINUOUS
 10
342.2831609574
 20
65.6584336267
 11
342.0487252719
 21
65.1577319741
  0
LINE
  5
812
100
AcDbEntity
  8
0
100
AcDbLine
 62
7
  6
CONTINUOUS
 10
342.0487252719
 20
65.1577319741
 11
342.0238003479
 21
65.1044994614
  0
LINE
  5
813
100
AcDbEntity
  8
0
100
AcDbLine
 62
7
  6
CONTINUOUS
 10
342.0238003479
 20
65.1044994614
 11
341.9586949614
 21
64.9654542777
  0
LINE
  5
814
100
AcDbEntity
  8
0
100
AcDbLine
 62
7
  6
CONTINUOUS
 10
341.9586949614
 20
64.9654542777
 11
341.8934836987
 21
64.8261848465
  0
LINE
  5
815
100
AcDbEntity
  8
0
100
AcDbLine
 62
7
  6
CONTINUOUS
 10
341.8934836987
 20
64.8261848465
 11
341.7836569207
 21
64.4820732899
  0
LINE
  5
816
100
AcDbEntity
  8
0
100
AcDbLine
 62
7
  6
CONTINUOUS
 10
342.7050368943
 20
68.3717422829
 11
342.3002997477
 21
67.6516427564
  0
LINE
  5
817
100
AcDbEntity
  8
0
100
AcDbLine
 62
7
  6
CONTINUOUS
 10
342.3002997477
 20
67.6516427564
 11
341.7790931744
 21
66.7243372891
  0
SPLINE
  5
818
100
AcDbEntity
  8
0
100
AcDbSpline
 62
7
  6
CONTINUOUS
 70
0
 71
3
 72
9
 73
5
 74
0
 42
0.0000001
 43
0.0000001
 44
0.0000000001
 40
0.0
 40
0.0
 40
0.0
 40
0.0
 40
0.2485090605
 40
1.0
 40
1.0
 40
1.0
 40
1.0
 10
311.9850220571
 20
59.7513771086
 30
0.0
 10
311.9861516614
 20
59.6024500407
 30
0.0
 10
311.9907799418
 20
59.0031684295
 30
0.0
 10
311.9957617602
 20
58.4038895141
 30
0.0
 10
311.9997570507
 20
57.9535391031
 30
0.0
  0
SPLINE
  5
819
100
AcDbEntity
  8
BEZUGSACHSEN
100
AcDbSpline
 62
7
  6
CONTINUOUS
 70
0
 71
3
 72
19
 73
15
 74
0
 42
0.0000001
 43
0.0000001
 44
0.0000000001
 40
0.0
 40
0.0
 40
0.0
 40
0.0
 40
0.2216075154
 40
0.4235730301
 40
0.6012746326
 40
0.7498486431
 40
0.8118414661
 40
0.8650361042
 40
0.908997889
 40
0.9434580508
 40
0.968367457
 40
0.9838748165
 40
0.9914020937
 40
1.0
 40
1.0
 40
1.0
 40
1.0
 10
352.2824731184
 20
51.6963773223
 30
0.0
 10
352.2701277501
 20
51.5738681908
 30
0.0
 10
352.2411949201
 20
51.3402083348
 30
0.0
 10
352.1852122333
 20
51.010740366
 30
0.0
 10
352.1230318403
 20
50.7238057923
 30
0.0
 10
352.0680117472
 20
50.515118192
 30
0.0
 10
352.0249400559
 20
50.3750151626
 30
0.0
 10
351.9966310575
 20
50.2912457556
 30
0.0
 10
351.9705509044
 20
50.2228449502
 30
0.0
 10
351.9484449677
 20
50.1700149671
 30
0.0
 10
351.9278592077
 20
50.1331966111
 30
0.0
 10
351.9153166172
 20
50.1108760934
 30
0.0
 10
351.895851375
 20
50.1005969738
 30
0.0
 10
351.8912092518
 20
50.1120301695
 30
0.0
 10
351.8898947244
 20
50.116622921
 30
0.0
  0
LINE
  5
81A
100
AcDbEntity
  8
0
100
AcDbLine
 62
7
  6
CONTINUOUS
 10
312.7975745936
 20
53.1356327683
 11
312.802721734
 21
52.7670417687
  0
LINE
  5
81B
100
AcDbEntity
  8
0
100
AcDbLine
 62
7
  6
CONTINUOUS
 10
312.802721734
 20
52.7670417687
 11
312.8079680536
 21
52.4113124657
  0
SPLINE
  5
81C
100
AcDbEntity
  8
0
100
AcDbSpline
 62
7
  6
CONTINUOUS
 70
0
 71
3
 72
19
 73
15
 74
0
 42
0.0000001
 43
0.0000001
 44
0.0000000001
 40
0.0
 40
0.0
 40
0.0
 40
0.0
 40
0.2216075154
 40
0.4235730301
 40
0.6012746326
 40
0.7498486431
 40
0.8118414661
 40
0.8650361042
 40
0.908997889
 40
0.9434580508
 40
0.968367457
 40
0.9838748165
 40
0.9914020937
 40
1.0
 40
1.0
 40
1.0
 40
1.0
 10
312.8491058289
 20
51.6963773223
 30
0.0
 10
312.8614511973
 20
51.5738681908
 30
0.0
 10
312.8903840273
 20
51.3402083348
 30
0.0
 10
312.9463667141
 20
51.010740366
 30
0.0
 10
313.0085471071
 20
50.7238057923
 30
0.0
 10
313.0635672001
 20
50.515118192
 30
0.0
 10
313.1066388914
 20
50.3750151626
 30
0.0
 10
313.1349478899
 20
50.2912457556
 30
0.0
 10
313.161028043
 20
50.2228449502
 30
0.0
 10
313.1831339797
 20
50.1700149671
 30
0.0
 10
313.2037197397
 20
50.1331966111
 30
0.0
 10
313.2162623302
 20
50.1108760934
 30
0.0
 10
313.2357275723
 20
50.1005969738
 30
0.0
 10
313.2403696956
 20
50.1120301695
 30
0.0
 10
313.241684223
 20
50.116622921
 30
0.0
  0
SPLINE
  5
81D
100
AcDbEntity
  8
0
100
AcDbSpline
 62
7
  6
CONTINUOUS
 70
0
 71
3
 72
17
 73
13
 74
0
 42
0.0000001
 43
0.0000001
 44
0.0000000001
 40
0.0
 40
0.0
 40
0.0
 40
0.0
 40
0.2173209415
 40
0.4071972192
 40
0.5650656978
 40
0.6873727816
 40
0.7349762062
 40
0.774077035
 40
0.8064313422
 40
0.8354531369
 40
0.9012704068
 40
1.0
 40
1.0
 40
1.0
 40
1.0
 10
314.1717846777
 20
57.1659644864
 30
0.0
 10
314.1762766762
 20
57.0541242863
 30
0.0
 10
314.1933718829
 20
56.8447686597
 30
0.0
 10
314.24578274
 20
56.5578404154
 30
0.0
 10
314.317895098
 20
56.3262029786
 30
0.0
 10
314.39381327
 20
56.1736538136
 30
0.0
 10
314.4616788293
 20
56.0894798428
 30
0.0
 10
314.5092975622
 20
56.0499589301
 30
0.0
 10
314.5579032866
 20
56.0292941545
 30
0.0
 10
314.6260706387
 20
56.0311390674
 30
0.0
 10
314.7051799441
 20
56.1065307715
 30
0.0
 10
314.7341279276
 20
56.1863872646
 30
0.0
 10
314.7488267803
 20
56.2350668203
 30
0.0
  0
LINE
  5
81E
100
AcDbEntity
  8
0
100
AcDbLine
 62
7
  6
CONTINUOUS
 10
332.5657894736
 20
142.0115259242
 11
332.5657894738
 21
142.9449325138
  0
SPLINE
  5
81F
100
AcDbEntity
  8
0
100
AcDbSpline
 62
7
  6
CONTINUOUS
 70
0
 71
3
 72
9
 73
5
 74
0
 42
0.0000001
 43
0.0000001
 44
0.0000000001
 40
0.0
 40
0.0
 40
0.0
 40
0.0
 40
0.7200241435
 40
1.0
 40
1.0
 40
1.0
 40
1.0
 10
319.4076989042
 20
41.63306048
 30
0.0
 10
319.4079110897
 20
41.6672058299
 30
0.0
 10
319.4075759774
 20
41.7043658826
 30
0.0
 10
319.4219059274
 20
41.7695287674
 30
0.0
 10
319.4351831789
 20
41.7695943324
 30
0.0
  0
SPLINE
  5
820
100
AcDbEntity
  8
0
100
AcDbSpline
 62
7
  6
CONTINUOUS
 70
0
 71
3
 72
14
 73
10
 74
0
 42
0.0000001
 43
0.0000001
 44
0.0000000001
 40
0.0
 40
0.0
 40
0.0
 40
0.0
 40
0.4337812113
 40
0.6047031806
 40
0.7447928536
 40
0.854004991
 40
0.9324109712
 40
0.9803360699
 40
1.0
 40
1.0
 40
1.0
 40
1.0
 10
319.4076989042
 20
41.63306048
 30
0.0
 10
319.4066028699
 20
41.4566842124
 30
0.0
 10
319.4038458722
 20
41.2106572168
 30
0.0
 10
319.3953783838
 20
40.9082529773
 30
0.0
 10
319.387707783
 20
40.7368746706
 30
0.0
 10
319.3791626445
 20
40.6056334545
 30
0.0
 10
319.3678824014
 20
40.5064376274
 30
0.0
 10
319.3587706878
 20
40.4551691971
 30
0.0
 10
319.3461084754
 20
40.4210002406
 30
0.0
 10
319.3381129308
 20
40.4210047181
 30
0.0
  0
SPLINE
  5
821
100
AcDbEntity
  8
0
100
AcDbSpline
 62
7
  6
CONTINUOUS
 70
0
 71
3
 72
9
 73
5
 74
0
 42
0.0000001
 43
0.0000001
 44
0.0000000001
 40
0.0
 40
0.0
 40
0.0
 40
0.0
 40
0.2655281208
 40
1.0
 40
1.0
 40
1.0
 40
1.0
 10
320.8677094796
 20
70.1573746891
 30
0.0
 10
320.8003688281
 20
68.8443909695
 30
0.0
 10
320.5580643356
 20
63.8990509555
 30
0.0
 10
320.3651092976
 20
58.9510345489
 30
0.0
 10
320.2713168861
 20
55.3156533901
 30
0.0
  0
SPLINE
  5
822
100
AcDbEntity
  8
0
100
AcDbSpline
 62
7
  6
CONTINUOUS
 70
0
 71
3
 72
9
 73
5
 74
0
 42
0.0000001
 43
0.0000001
 44
0.0000000001
 40
0.0
 40
0.0
 40
0.0
 40
0.0
 40
0.5370109784
 40
1.0
 40
1.0
 40
1.0
 40
1.0
 10
320.3317438516
 20
47.7993169072
 30
0.0
 10
320.2630109271
 20
48.7889005966
 30
0.0
 10
320.1687969679
 20
50.6342519617
 30
0.0
 10
320.1704818547
 20
52.4829644791
 30
0.0
 10
320.2058142756
 20
53.3374685975
 30
0.0
  0
SPLINE
  5
823
100
AcDbEntity
  8
0
100
AcDbSpline
 62
7
  6
CONTINUOUS
 70
0
 71
3
 72
9
 73
5
 74
0
 42
0.0000001
 43
0.0000001
 44
0.0000000001
 40
0.0
 40
0.0
 40
0.0
 40
0.0
 40
0.2501135285
 40
1.0
 40
1.0
 40
1.0
 40
1.0
 10
321.7465736792
 20
33.1019981122
 30
0.0
 10
321.6008595473
 20
34.3244056169
 30
0.0
 10
321.0413823919
 20
39.2144641369
 30
0.0
 10
320.5874878092
 20
44.1172380387
 30
0.0
 10
320.3317438516
 20
47.7993169072
 30
0.0
  0
SPLINE
  5
824
100
AcDbEntity
  8
0
100
AcDbSpline
 62
7
  6
CONTINUOUS
 70
0
 71
3
 72
8
 73
4
 74
0
 42
0.0000001
 43
0.0000001
 44
0.0000000001
 40
0.0
 40
0.0
 40
0.0
 40
0.0
 40
1.0
 40
1.0
 40
1.0
 40
1.0
 10
347.3606009323
 20
108.5242350062
 30
0.0
 10
347.4151992452
 20
108.2111779701
 30
0.0
 10
347.4499795799
 20
107.893667669
 30
0.0
 10
347.4594528131
 20
107.576026454
 30
0.0
  0
SPLINE
  5
825
100
AcDbEntity
  8
BEZUGSACHSEN
100
AcDbSpline
 62
7
  6
CONTINUOUS
 70
0
 71
3
 72
17
 73
13
 74
0
 42
0.0000001
 43
0.0000001
 44
0.0000000001
 40
0.0
 40
0.0
 40
0.0
 40
0.0
 40
0.2173209415
 40
0.4071972192
 40
0.5650656978
 40
0.6873727816
 40
0.7349762062
 40
0.774077035
 40
0.8064313422
 40
0.8354531369
 40
0.9012704068
 40
1.0
 40
1.0
 40
1.0
 40
1.0
 10
350.9597942697
 20
57.1659644864
 30
0.0
 10
350.9553022712
 20
57.0541242863
 30
0.0
 10
350.9382070645
 20
56.8447686597
 30
0.0
 10
350.8857962073
 20
56.5578404154
 30
0.0
 10
350.8136838494
 20
56.3262029786
 30
0.0
 10
350.7377656773
 20
56.1736538136
 30
0.0
 10
350.6699001181
 20
56.0894798428
 30
0.0
 10
350.6222813852
 20
56.0499589301
 30
0.0
 10
350.5736756608
 20
56.0292941545
 30
0.0
 10
350.5055083087
 20
56.0311390674
 30
0.0
 10
350.4263990033
 20
56.1065307715
 30
0.0
 10
350.3974510198
 20
56.1863872646
 30
0.0
 10
350.382752167
 20
56.2350668203
 30
0.0
  0
SPLINE
  5
826
100
AcDbEntity
  8
RUNDUNGEN
100
AcDbSpline
 62
7
  6
CONTINUOUS
 70
0
 71
3
 72
9
 73
5
 74
0
 42
0.0000001
 43
0.0000001
 44
0.0000000001
 40
0.0
 40
0.0
 40
0.0
 40
0.0
 40
0.500697334
 40
1.0
 40
1.0
 40
1.0
 40
1.0
 10
357.1564014661
 20
227.7042476404
 30
0.0
 10
357.5835490912
 20
227.8981080094
 30
0.0
 10
358.3412098769
 20
228.5382499834
 30
0.0
 10
358.6464237201
 20
229.4825966213
 30
0.0
 10
358.6623203278
 20
229.9501007786
 30
0.0
  0
SPLINE
  5
827
100
AcDbEntity
  8
0
100
AcDbSpline
 62
7
  6
CONTINUOUS
 70
0
 71
3
 72
22
 73
18
 74
0
 42
0.0000001
 43
0.0000001
 44
0.0000000001
 40
0.0
 40
0.0
 40
0.0
 40
0.0
 40
0.0360527706
 40
0.061548282
 40
0.0727945413
 40
0.0846733649
 40
0.0981971923
 40
0.1139542083
 40
0.1529632716
 40
0.2018792771
 40
0.2596218984
 40
0.3248024143
 40
0.3961391074
 40
0.4725291408
 40
0.63707379
 40
0.8137952638
 40
1.0
 40
1.0
 40
1.0
 40
1.0
 10
313.9383015214
 20
64.1193347336
 30
0.0
 10
313.9388861106
 20
64.1886152662
 30
0.0
 10
313.9318498059
 20
64.3077851185
 30
0.0
 10
313.8613730261
 20
64.4396432497
 30
0.0
 10
313.7763420972
 20
64.4842477783
 30
0.0
 10
313.7050664314
 20
64.4920104452
 30
0.0
 10
313.6264436058
 20
64.4779114656
 30
0.0
 10
313.5043544404
 20
64.4279296246
 30
0.0
 10
313.3412807368
 20
64.3095320496
 30
0.0
 10
313.146579246
 20
64.1074523119
 30
0.0
 10
312.9499148047
 20
63.8411308459
 30
0.0
 10
312.7597866814
 20
63.519279012
 30
0.0
 10
312.5830472553
 20
63.1497479238
 30
0.0
 10
312.366134035
 20
62.5897207668
 30
0.0
 10
312.1564046689
 20
61.8123969698
 30
0.0
 10
312.009508523
 20
60.8075145647
 30
0.0
 10
311.9823080001
 20
60.10919847
 30
0.0
 10
311.9850220571
 20
59.7513771086
 30
0.0
  0
SPLINE
  5
828
100
AcDbEntity
  8
0
100
AcDbSpline
 62
7
  6
CONTINUOUS
 70
0
 71
3
 72
9
 73
5
 74
0
 42
0.0000001
 43
0.0000001
 44
0.0000000001
 40
0.0
 40
0.0
 40
0.0
 40
0.0
 40
0.494397107
 40
1.0
 40
1.0
 40
1.0
 40
1.0
 10
313.9209649627
 20
59.6465612
 30
0.0
 10
313.5361068844
 20
58.9030994833
 30
0.0
 10
312.9509828009
 20
57.2930931168
 30
0.0
 10
312.768169479
 20
55.5915020353
 30
0.0
 10
312.7778267179
 20
54.7354131329
 30
0.0
  0
SPLINE
  5
829
100
AcDbEntity
  8
0
100
AcDbSpline
 62
7
  6
CONTINUOUS
 70
0
 71
3
 72
12
 73
8
 74
0
 42
0.0000001
 43
0.0000001
 44
0.0000000001
 40
0.0
 40
0.0
 40
0.0
 40
0.0
 40
0.038079464
 40
0.0965909733
 40
0.2912824656
 40
0.5934481467
 40
1.0
 40
1.0
 40
1.0
 40
1.0
 10
323.543224339
 20
24.1932089363
 30
0.0
 10
323.5319989263
 20
24.1932154433
 30
0.0
 10
323.5048640505
 20
24.2079710756
 30
0.0
 10
323.4517621123
 20
24.2753817761
 30
0.0
 10
323.3821166842
 20
24.4255520867
 30
0.0
 10
323.2929770372
 20
24.6758848422
 30
0.0
 10
323.2337969855
 20
24.8765824377
 30
0.0
 10
323.2014723469
 20
24.9919879999
 30
0.0
  0
SPLINE
  5
82A
100
AcDbEntity
  8
0
100
AcDbSpline
 62
7
  6
CONTINUOUS
 70
0
 71
3
 72
12
 73
8
 74
0
 42
0.0000001
 43
0.0000001
 44
0.0000000001
 40
0.0
 40
0.0
 40
0.0
 40
0.0
 40
0.0847277473
 40
0.1898316175
 40
0.4450458485
 40
0.7288219609
 40
1.0
 40
1.0
 40
1.0
 40
1.0
 10
323.2014723469
 20
24.9919879999
 30
0.0
 10
323.1386706181
 20
25.2162029994
 30
0.0
 10
323.0116791728
 20
25.7223618486
 30
0.0
 10
322.7464680351
 20
26.9163652545
 30
0.0
 10
322.4132082551
 20
28.6551430122
 30
0.0
 10
322.0469507265
 20
30.8513852182
 30
0.0
 10
321.8347833433
 20
32.3620001862
 30
0.0
 10
321.7465736792
 20
33.1019981122
 30
0.0
  0
SPLINE
  5
82B
100
AcDbEntity
  8
BEZUGSACHSEN
100
AcDbSpline
 62
7
  6
CONTINUOUS
 70
0
 71
3
 72
16
 73
12
 74
0
 42
0.0000001
 43
0.0000001
 44
0.0000000001
 40
0.0
 40
0.0
 40
0.0
 40
0.0
 40
0.1940788345
 40
0.3809280152
 40
0.5529533163
 40
0.7037561826
 40
0.8275343351
 40
0.9196404853
 40
0.9768897016
 40
0.9922153245
 40
1.0
 40
1.0
 40
1.0
 40
1.0
 10
355.5648894656
 20
262.6409816099
 30
0.0
 10
355.5648894656
 20
262.4459098301
 30
0.0
 10
355.5646939472
 20
262.0630269327
 30
0.0
 10
355.5634422517
 20
261.5072706561
 30
0.0
 10
355.5601491028
 20
260.9949121892
 30
0.0
 10
355.5537540271
 20
260.5463068901
 30
0.0
 10
355.5419140323
 20
260.1772082182
 30
0.0
 10
355.5260742337
 20
259.904760781
 30
0.0
 10
355.5030698265
 20
259.7374368187
 30
0.0
 10
355.4825564552
 20
259.6623034491
 30
0.0
 10
355.464584156
 20
259.6410353831
 30
0.0
 10
355.4567596528
 20
259.6410341481
 30
0.0
  0
SPLINE
  5
82C
100
AcDbEntity
  8
BEZUGSACHSEN
100
AcDbSpline
 62
7
  6
CONTINUOUS
 70
0
 71
3
 72
9
 73
5
 74
0
 42
0.0000001
 43
0.0000001
 44
0.0000000001
 40
0.0
 40
0.0
 40
0.0
 40
0.0
 40
0.2485090605
 40
1.0
 40
1.0
 40
1.0
 40
1.0
 10
353.1465568902
 20
59.7513771086
 30
0.0
 10
353.1454272859
 20
59.6024500407
 30
0.0
 10
353.1407990056
 20
59.0031684295
 30
0.0
 10
353.1358171872
 20
58.4038895141
 30
0.0
 10
353.1318218966
 20
57.9535391031
 30
0.0
  0
SPLINE
  5
82D
100
AcDbEntity
  8
BEZUGSACHSEN
100
AcDbSpline
 62
7
  6
CONTINUOUS
 70
0
 71
3
 72
9
 73
5
 74
0
 42
0.0000001
 43
0.0000001
 44
0.0000000001
 40
0.0
 40
0.0
 40
0.0
 40
0.0
 40
0.2650077804
 40
1.0
 40
1.0
 40
1.0
 40
1.0
 10
350.8303092864
 20
60.1092610076
 30
0.0
 10
350.8628998935
 20
59.953294005
 30
0.0
 10
350.970300359
 20
59.3617672696
 30
0.0
 10
351.0145287883
 20
58.7575765154
 30
0.0
 10
351.0005492465
 20
58.3158843481
 30
0.0
  0
SPLINE
  5
82E
100
AcDbEntity
  8
BEZUGSACHSEN
100
AcDbSpline
 62
7
  6
CONTINUOUS
 70
0
 71
3
 72
16
 73
12
 74
0
 42
0.0000001
 43
0.0000001
 44
0.0000000001
 40
0.0
 40
0.0
 40
0.0
 40
0.0
 40
0.0077845577
 40
0.0231099553
 40
0.080359151
 40
0.1724653345
 40
0.2962415476
 40
0.4470395236
 40
0.6190604942
 40
0.8059155194
 40
1.0
 40
1.0
 40
1.0
 40
1.0
 10
309.6748199105
 20
259.641034168
 30
0.0
 10
309.6669955243
 20
259.6410351174
 30
0.0
 10
309.6490228335
 20
259.66230251
 30
0.0
 10
309.6285092548
 20
259.737435559
 30
0.0
 10
309.6055049763
 20
259.9047593077
 30
0.0
 10
309.5896650052
 20
260.1772048594
 30
0.0
 10
309.577825214
 20
260.5462967409
 30
0.0
 10
309.5714298553
 20
260.994890901
 30
0.0
 10
309.5681373369
 20
261.5072460575
 30
0.0
 10
309.566884333
 20
262.0630096149
 30
0.0
 10
309.5666894818
 20
262.4459041241
 30
0.0
 10
309.5666894818
 20
262.6409816099
 30
0.0
  0
SPLINE
  5
82F
100
AcDbEntity
  8
0
100
AcDbSpline
 62
7
  6
CONTINUOUS
 70
0
 71
3
 72
9
 73
5
 74
0
 42
0.0000001
 43
0.0000001
 44
0.0000000001
 40
0.0
 40
0.0
 40
0.0
 40
0.0
 40
0.2650074364
 40
1.0
 40
1.0
 40
1.0
 40
1.0
 10
314.3012556739
 20
60.1091940696
 30
0.0
 10
314.268667517
 20
59.95323292
 30
0.0
 10
314.1612751322
 20
59.3617278084
 30
0.0
 10
314.117050681
 20
58.7575600239
 30
0.0
 10
314.1310297008
 20
58.3158843481
 30
0.0
  0
SPLINE
  5
830
100
AcDbEntity
  8
BEZUGSACHSEN
100
AcDbSpline
 62
7
  6
CONTINUOUS
 70
0
 71
3
 72
11
 73
7
 74
0
 42
0.0000001
 43
0.0000001
 44
0.0000000001
 40
0.0
 40
0.0
 40
0.0
 40
0.0
 40
0.0822068375
 40
0.2732341442
 40
0.5803863484
 40
1.0
 40
1.0
 40
1.0
 40
1.0
 10
355.4567615309
 20
265.6409292584
 30
0.0
 10
355.4701770568
 20
265.6409262367
 30
0.0
 10
355.494351251
 20
265.5884607136
 30
0.0
 10
355.5085797401
 20
265.504653921
 30
0.0
 10
355.5272800513
 20
265.3506217704
 30
0.0
 10
355.5339955307
 20
265.2338568267
 30
0.0
 10
355.5375743229
 20
265.1654726743
 30
0.0
  0
SPLINE
  5
831
100
AcDbEntity
  8
BEZUGSACHSEN
100
AcDbSpline
 62
7
  6
CONTINUOUS
 70
0
 71
3
 72
9
 73
5
 74
0
 42
0.0000001
 43
0.0000001
 44
0.0000000001
 40
0.0
 40
0.0
 40
0.0
 40
0.0
 40
0.2320268193
 40
1.0
 40
1.0
 40
1.0
 40
1.0
 10
355.5375743229
 20
265.1654726743
 30
0.0
 10
355.5386105914
 20
265.1456714833
 30
0.0
 10
355.5427751424
 20
265.0603155934
 30
0.0
 10
355.5458911002
 20
264.9749109586
 30
0.0
 10
355.5479194458
 20
264.9093137178
 30
0.0
  0
SPLINE
  5
832
100
AcDbEntity
  8
BEZUGSACHSEN
100
AcDbSpline
 62
7
  6
CONTINUOUS
 70
0
 71
3
 72
9
 73
5
 74
0
 42
0.0000001
 43
0.0000001
 44
0.0000000001
 40
0.0
 40
0.0
 40
0.0
 40
0.0
 40
0.2184863695
 40
1.0
 40
1.0
 40
1.0
 40
1.0
 10
355.5479194458
 20
264.9093137178
 30
0.0
 10
355.5502142984
 20
264.8350975706
 30
0.0
 10
355.5584944808
 20
264.4953459735
 30
0.0
 10
355.5611294809
 20
264.1554892265
 30
0.0
 10
355.5625200588
 20
263.8898989443
 30
0.0
  0
LINE
  5
833
100
AcDbEntity
  8
BEZUGSACHSEN
100
AcDbLine
 62
7
  6
CONTINUOUS
 10
355.5647017874
 20
263.0723640386
 11
355.5648894656
 21
262.6409816099
  0
LINE
  5
834
100
AcDbEntity
  8
0
100
AcDbLine
 62
7
  6
CONTINUOUS
 10
332.5657894736
 20
227.6642149744
 11
332.5657893849
 21
231.3089170891
  0
SPLINE
  5
835
100
AcDbEntity
  8
0
100
AcDbSpline
 62
7
  6
CONTINUOUS
 70
0
 71
3
 72
18
 73
14
 74
0
 42
0.0000001
 43
0.0000001
 44
0.0000000001
 40
0.0
 40
0.0
 40
0.0
 40
0.0
 40
0.1154580901
 40
0.2252482316
 40
0.2783737305
 40
0.3310745511
 40
0.3848115077
 40
0.4414632795
 40
0.5023293393
 40
0.5674303923
 40
0.7064595774
 40
0.8519645931
 40
1.0
 40
1.0
 40
1.0
 40
1.0
 10
352.8646262398
 20
271.2510422788
 30
0.0
 10
352.7705501708
 20
270.9068669263
 30
0.0
 10
352.5460602431
 20
270.2456583799
 30
0.0
 10
352.1131614842
 20
269.4896532115
 30
0.0
 10
351.6481037072
 20
269.0071196955
 30
0.0
 10
351.2345016643
 20
268.7301282861
 30
0.0
 10
350.7518397875
 20
268.56454162
 30
0.0
 10
350.2172707604
 20
268.5345300027
 30
0.0
 10
349.6583547998
 20
268.6404062796
 30
0.0
 10
348.8942613254
 20
268.9450812153
 30
0.0
 10
347.9907246506
 20
269.5559752995
 30
0.0
 10
347.014161413
 20
270.4721398866
 30
0.0
 10
346.4195339777
 20
271.1592029544
 30
0.0
 10
346.1330400641
 20
271.5158604778
 30
0.0
  0
SPLINE
  5
836
100
AcDbEntity
  8
0
100
AcDbSpline
 62
7
  6
CONTINUOUS
 70
0
 71
3
 72
18
 73
14
 74
0
 42
0.0000001
 43
0.0000001
 44
0.0000000001
 40
0.0
 40
0.0
 40
0.0
 40
0.0
 40
0.0051848289
 40
0.0184545956
 40
0.0400115762
 40
0.0698029294
 40
0.1077444627
 40
0.1537032328
 40
0.2688258512
 40
0.4133858334
 40
0.5852337926
 40
0.7818897753
 40
1.0
 40
1.0
 40
1.0
 40
1.0
 10
323.6042976622
 20
16.329482525
 30
0.0
 10
323.5997852439
 20
16.3294607174
 30
0.0
 10
323.5932570809
 20
16.3498956244
 30
0.0
 10
323.5819960377
 20
16.3778451794
 30
0.0
 10
323.5675289716
 20
16.4349674494
 30
0.0
 10
323.5491514053
 20
16.509277285
 30
0.0
 10
323.5274668374
 20
16.6062830273
 30
0.0
 10
323.4912432403
 20
16.7754537105
 30
0.0
 10
323.4386642171
 20
17.036357569
 30
0.0
 10
323.3673440859
 20
17.4050367307
 30
0.0
 10
323.284887295
 20
17.8439105901
 30
0.0
 10
323.1924241575
 20
18.3460049086
 30
0.0
 10
323.1279684929
 20
18.7011860679
 30
0.0
 10
323.0942454808
 20
18.8879927096
 30
0.0
  0
SPLINE
  5
837
100
AcDbEntity
  8
0
100
AcDbSpline
 62
7
  6
CONTINUOUS
 70
0
 71
3
 72
9
 73
5
 74
0
 42
0.0000001
 43
0.0000001
 44
0.0000000001
 40
0.0
 40
0.0
 40
0.0
 40
0.0
 40
0.500697334
 40
1.0
 40
1.0
 40
1.0
 40
1.0
 10
307.9751774813
 20
227.7042476404
 30
0.0
 10
307.5480298562
 20
227.8981080094
 30
0.0
 10
306.7903690705
 20
228.5382499834
 30
0.0
 10
306.4851552273
 20
229.4825966213
 30
0.0
 10
306.4692586196
 20
229.9501007786
 30
0.0
  0
LINE
  5
838
100
AcDbEntity
  8
BEZUGSACHSEN
100
AcDbLine
 62
7
  6
CONTINUOUS
 10
309.5666894818
 20
262.6409816099
 11
309.5668751396
 21
263.0700473047
  0
SPLINE
  5
839
100
AcDbEntity
  8
BEZUGSACHSEN
100
AcDbSpline
 62
7
  6
CONTINUOUS
 70
0
 71
3
 72
9
 73
5
 74
0
 42
0.0000001
 43
0.0000001
 44
0.0000000001
 40
0.0
 40
0.0
 40
0.0
 40
0.0
 40
0.2786817405
 40
1.0
 40
1.0
 40
1.0
 40
1.0
 10
309.5690322788
 20
263.8848079136
 30
0.0
 10
309.5695255499
 20
263.9798727144
 30
0.0
 10
309.5718250411
 20
264.3209869335
 30
0.0
 10
309.5760342179
 20
264.6621313787
 30
0.0
 10
309.5836213062
 20
264.9080760694
 30
0.0
  0
SPLINE
  5
83A
100
AcDbEntity
  8
BEZUGSACHSEN
100
AcDbSpline
 62
7
  6
CONTINUOUS
 70
0
 71
3
 72
11
 73
7
 74
0
 42
0.0000001
 43
0.0000001
 44
0.0000000001
 40
0.0
 40
0.0
 40
0.0
 40
0.0
 40
0.3636489778
 40
0.6547784011
 40
0.8677445341
 40
1.0
 40
1.0
 40
1.0
 40
1.0
 10
309.5836213062
 20
264.9080760694
 30
0.0
 10
309.5862645398
 20
264.9937596988
 30
0.0
 10
309.5922058029
 20
265.1479457718
 30
0.0
 10
309.6048838905
 20
265.3523576633
 30
0.0
 10
309.621795488
 20
265.5010383589
 30
0.0
 10
309.6368860602
 20
265.5818638401
 30
0.0
 10
309.6485371831
 20
265.6107820464
 30
0.0
  0
SPLINE
  5
83B
100
AcDbEntity
  8
BEZUGSACHSEN
100
AcDbSpline
 62
7
  6
CONTINUOUS
 70
0
 71
3
 72
9
 73
5
 74
0
 42
0.0000001
 43
0.0000001
 44
0.0000000001
 40
0.0
 40
0.0
 40
0.0
 40
0.0
 40
0.3567754732
 40
1.0
 40
1.0
 40
1.0
 40
1.0
 10
309.6485371831
 20
265.6107820464
 30
0.0
 10
309.6503529552
 20
265.6152888114
 30
0.0
 10
309.655555859
 20
265.6270990533
 30
0.0
 10
309.6660573693
 20
265.6409270074
 30
0.0
 10
309.6748172221
 20
265.6409292138
 30
0.0
  0
LINE
  5
83C
100
AcDbEntity
  8
0
100
AcDbLine
 62
7
  6
CONTINUOUS
 10
342.1274422746
 20
19.3876954432
 11
342.0373334665
 21
18.8879927096
  0
SPLINE
  5
83D
100
AcDbEntity
  8
0
100
AcDbSpline
 62
7
  6
CONTINUOUS
 70
0
 71
3
 72
18
 73
14
 74
0
 42
0.0000001
 43
0.0000001
 44
0.0000000001
 40
0.0
 40
0.0
 40
0.0
 40
0.0
 40
0.1154580901
 40
0.2252482316
 40
0.2783737305
 40
0.3310745511
 40
0.3848115077
 40
0.4414632795
 40
0.5023293393
 40
0.5674303923
 40
0.7064595774
 40
0.8519645931
 40
1.0
 40
1.0
 40
1.0
 40
1.0
 10
312.2669527076
 20
271.2510422788
 30
0.0
 10
312.3610287765
 20
270.9068669263
 30
0.0
 10
312.5855187043
 20
270.2456583799
 30
0.0
 10
313.0184174632
 20
269.4896532115
 30
0.0
 10
313.4834752401
 20
269.0071196955
 30
0.0
 10
313.897077283
 20
268.7301282861
 30
0.0
 10
314.3797391599
 20
268.56454162
 30
0.0
 10
314.914308187
 20
268.5345300027
 30
0.0
 10
315.4732241475
 20
268.6404062796
 30
0.0
 10
316.237317622
 20
268.9450812153
 30
0.0
 10
317.1408542968
 20
269.5559752995
 30
0.0
 10
318.1174175344
 20
270.4721398866
 30
0.0
 10
318.7120449697
 20
271.1592029544
 30
0.0
 10
318.9985388832
 20
271.5158604778
 30
0.0
  0
LINE
  5
83E
100
AcDbEntity
  8
0
100
AcDbLine
 62
7
  6
CONTINUOUS
 10
358.6186316902
 20
157.607004192
 11
358.6241632137
 21
157.7634336198
  0
LINE
  5
83F
100
AcDbEntity
  8
0
100
AcDbLine
 62
7
  6
CONTINUOUS
 10
358.792803623
 20
162.7897518858
 11
358.7955552855
 21
162.8763152137
  0
LINE
  5
840
100
AcDbEntity
  8
0
100
AcDbLine
 62
7
  6
CONTINUOUS
 10
358.7955552855
 20
162.8763152137
 11
358.8777625773
 21
165.5405375949
  0
SPLINE
  5
841
100
AcDbEntity
  8
0
100
AcDbSpline
 62
7
  6
CONTINUOUS
 70
0
 71
3
 72
9
 73
5
 74
0
 42
0.0000001
 43
0.0000001
 44
0.0000000001
 40
0.0
 40
0.0
 40
0.0
 40
0.0
 40
0.7501421841
 40
1.0
 40
1.0
 40
1.0
 40
1.0
 10
345.8327808101
 20
40.5109779914
 30
0.0
 10
345.8330777293
 20
40.513077117
 30
0.0
 10
345.8325986421
 20
40.514864535
 30
0.0
 10
345.8342774689
 20
40.5193704629
 30
0.0
 10
345.8335722722
 20
40.5194069074
 30
0.0
  0
SPLINE
  5
842
100
AcDbEntity
  8
0
100
AcDbSpline
 62
7
  6
CONTINUOUS
 70
0
 71
3
 72
9
 73
5
 74
0
 42
0.0000001
 43
0.0000001
 44
0.0000000001
 40
0.0
 40
0.0
 40
0.0
 40
0.0
 40
0.5370109784
 40
1.0
 40
1.0
 40
1.0
 40
1.0
 10
322.8695708411
 20
47.7993169072
 30
0.0
 10
322.8008379165
 20
48.7889005966
 30
0.0
 10
322.7066239573
 20
50.6342519617
 30
0.0
 10
322.7083088442
 20
52.4829644791
 30
0.0
 10
322.743641265
 20
53.3374685975
 30
0.0
  0
LINE
  5
843
100
AcDbEntity
  8
0
100
AcDbLine
 62
7
  6
CONTINUOUS
 10
323.2138346583
 20
66.2360158532
 11
323.1809633157
 21
65.5186247006
  0
SPLINE
  5
844
100
AcDbEntity
  8
0
100
AcDbSpline
 62
7
  6
CONTINUOUS
 70
0
 71
3
 72
8
 73
4
 74
0
 42
0.0000001
 43
0.0000001
 44
0.0000000001
 40
0.0
 40
0.0
 40
0.0
 40
0.0
 40
1.0
 40
1.0
 40
1.0
 40
1.0
 10
348.9527797472
 20
107.7831710477
 30
0.0
 10
348.9387294578
 20
108.0875124904
 30
0.0
 10
348.9086261497
 20
108.3913874024
 30
0.0
 10
348.8656228452
 20
108.6930027869
 30
0.0
  0
SPLINE
  5
845
100
AcDbEntity
  8
0
100
AcDbSpline
 62
7
  6
CONTINUOUS
 70
0
 71
3
 72
8
 73
4
 74
0
 42
0.0000001
 43
0.0000001
 44
0.0000000001
 40
0.0
 40
0.0
 40
0.0
 40
0.0
 40
1.0
 40
1.0
 40
1.0
 40
1.0
 10
348.8538619018
 20
108.7735406796
 30
0.0
 10
348.787300476
 20
109.2185102504
 30
0.0
 10
348.7223663412
 20
109.6639061695
 30
0.0
 10
348.6721936648
 20
110.111020299
 30
0.0
  0
SPLINE
  5
846
100
AcDbEntity
  8
0
100
AcDbSpline
 62
7
  6
CONTINUOUS
 70
0
 71
3
 72
9
 73
5
 74
0
 42
0.0000001
 43
0.0000001
 44
0.0000000001
 40
0.0
 40
0.0
 40
0.0
 40
0.0
 40
0.2537158849
 40
1.0
 40
1.0
 40
1.0
 40
1.0
 10
348.7670058387
 20
111.6771784009
 30
0.0
 10
348.7832126191
 20
111.7161772975
 30
0.0
 10
348.8434688869
 20
111.8713628396
 30
0.0
 10
348.8888699694
 20
112.032358797
 30
0.0
 10
348.9134596569
 20
112.1541237534
 30
0.0
  0
SPLINE
  5
847
100
AcDbEntity
  8
RUNDUNGEN
100
AcDbSpline
 62
7
  6
CONTINUOUS
 70
0
 71
3
 72
11
 73
7
 74
0
 42
0.0000001
 43
0.0000001
 44
0.0000000001
 40
0.0
 40
0.0
 40
0.0
 40
0.0
 40
0.3081510033
 40
0.6479279013
 40
0.8568526377
 40
1.0
 40
1.0
 40
1.0
 40
1.0
 10
324.7019040682
 20
107.5044727776
 30
0.0
 10
324.6850999761
 20
107.5327147673
 30
0.0
 10
324.6534631461
 20
107.5948905835
 30
0.0
 10
324.6344894396
 20
107.6849603508
 30
0.0
 10
324.5940194834
 20
107.7491703285
 30
0.0
 10
324.5618572791
 20
107.7703397576
 30
0.0
 10
324.5526797419
 20
107.7825392542
 30
0.0
  0
ELLIPSE
  5
848
100
AcDbEntity
  8
0
100
AcDbEllipse
 62
7
  6
CONTINUOUS
 10
60.5099255458
 20
262.6409816099
 30
0.0
 11
-0.0
 21
11.3
 31
0.0
 40
0.1051042353
 41
-3.1415926536
 42
0.0
  0
ELLIPSE
  5
849
100
AcDbEntity
  8
0
100
AcDbEllipse
 62
7
  6
CONTINUOUS
 10
117.9599255458
 20
262.6409816099
 30
0.0
 11
-0.0
 21
11.3
 31
0.0
 40
0.1401632215
 41
3.1415926536
 42
6.2831853072
  0
ELLIPSE
  5
84A
100
AcDbEntity
  8
0
100
AcDbEllipse
 62
7
  6
CONTINUOUS
 10
99.0599255458
 20
262.6409816099
 30
0.0
 11
0.0
 21
11.3
 31
0.0
 40
0.1401632215
 41
0.0
 42
3.1415926536
  0
ELLIPSE
  5
84B
100
AcDbEntity
  8
0
100
AcDbEllipse
 62
7
  6
CONTINUOUS
 10
164.2150013106
 20
268.2409816099
 30
0.0
 11
-15.9119083164
 21
21.5384013486
 31
0.0
 40
0.5070597189
 41
0.6906673768
 42
1.2123762812
  0
ELLIPSE
  5
84C
100
AcDbEntity
  8
0
100
AcDbEllipse
 62
7
  6
CONTINUOUS
 10
48.9438666367
 20
268.2409816099
 30
0.0
 11
20.4012491631
 21
20.4012491631
 31
0.0
 40
0.5205670506
 41
-0.7247255006
 42
-0.5691218781
  0
ELLIPSE
  5
84D
100
AcDbEntity
  8
0
100
AcDbEllipse
 62
7
  6
CONTINUOUS
 10
83.5099255458
 20
367.0650624343
 30
0.0
 11
41.4229448542
 21
112.2104056805
 31
0.0
 40
0.2495534463
 41
-2.4954447283
 42
-2.4127942337
  0
ELLIPSE
  5
84E
100
AcDbEntity
  8
0
100
AcDbEllipse
 62
7
  6
CONTINUOUS
 10
154.1069204855
 20
265.7409816099
 30
0.0
 11
0.0
 21
13.2379634185
 31
0.0
 40
0.1612836482
 41
-0.1898944321
 42
0.8415783997
  0
ELLIPSE
  5
84F
100
AcDbEntity
  8
RUNDUNGEN
100
AcDbEllipse
 62
7
  6
CONTINUOUS
 10
151.65900562
 20
261.8514982587
 30
0.0
 11
0.1130091729
 21
11.9522741481
 31
0.0
 40
0.0655789333
 41
-4.5691977892
 42
-3.1554810951
  0
ELLIPSE
  5
850
100
AcDbEntity
  8
0
100
AcDbEllipse
 62
7
  6
CONTINUOUS
 10
60.6551394124
 20
265.7409816099
 30
0.0
 11
-0.0
 21
13.0724052977
 31
0.0
 40
0.1056896278
 41
-0.8967720225
 42
0.1052987163
  0
ELLIPSE
  5
851
100
AcDbEntity
  8
RUNDUNGEN
100
AcDbEllipse
 62
7
  6
CONTINUOUS
 10
316.6656349781
 20
130.8212918629
 30
0.0
 11
1.5
 21
-0.0
 31
0.0
 40
0.8556501488
 41
-2.8361600345
 42
-1.5707963268
  0
ELLIPSE
  5
852
100
AcDbEntity
  8
RUNDUNGEN
100
AcDbEllipse
 62
7
  6
CONTINUOUS
 10
326.8657894737
 20
155.7816071303
 30
0.0
 11
20.0
 21
-0.0
 31
0.0
 40
0.8556501488
 41
3.1415926536
 42
3.4470252727
  0
ELLIPSE
  5
853
100
AcDbEntity
  8
BEZUGSACHSEN
100
AcDbEllipse
 62
7
  6
CONTINUOUS
 10
348.4659439693
 20
130.8212918629
 30
0.0
 11
1.5
 21
0.0
 31
0.0
 40
0.8556501488
 41
-1.5707963268
 42
-0.3054326191
  0
ELLIPSE
  5
854
100
AcDbEntity
  8
BEZUGSACHSEN
100
AcDbEllipse
 62
7
  6
CONTINUOUS
 10
338.2657894737
 20
155.7816071303
 30
0.0
 11
20.0
 21
-0.0
 31
0.0
 40
0.8556501488
 41
-0.3054326191
 42
0.0
  0
ELLIPSE
  5
855
100
AcDbEntity
  8
0
100
AcDbEllipse
 62
7
  6
CONTINUOUS
 10
329.0241247653
 20
203.8180151837
 30
0.0
 11
146.766177316
 21
-46.7431108455
 31
0.0
 40
0.1209443349
 41
-1.5620878124
 42
-1.5580436978
  0
ELLIPSE
  5
856
100
AcDbEntity
  8
0
100
AcDbEllipse
 62
7
  6
CONTINUOUS
 10
326.5032914493
 20
203.8180151837
 30
0.0
 11
-47.9314251022
 21
49.0402791261
 31
0.0
 40
0.203403329
 41
-4.5329562293
 42
-4.5248691971
  0
ELLIPSE
  5
857
100
AcDbEntity
  8
0
100
AcDbEllipse
 62
7
  6
CONTINUOUS
 10
347.3053704377
 20
203.8180151837
 30
0.0
 11
195.7839737794
 21
-46.4515634931
 31
0.0
 40
0.0944922121
 41
-1.5741284566
 42
-1.570084763
  0
ELLIPSE
  5
858
100
AcDbEntity
  8
0
100
AcDbEllipse
 62
7
  6
CONTINUOUS
 10
344.6491237613
 20
203.8180151837
 30
0.0
 11
72.8778180184
 21
-48.0818739837
 31
0.0
 40
0.1882077853
 41
-1.4689605306
 42
-1.4608741421
  0
ELLIPSE
  5
859
100
AcDbEntity
  8
0
100
AcDbEllipse
 62
7
  6
CONTINUOUS
 10
344.0631864434
 20
203.8180151837
 30
0.0
 11
-11.3630340841
 21
49.9893095985
 31
0.0
 40
0.090987029
 41
-4.3331318572
 42
-4.3316425005
  0
ELLIPSE
  5
85A
100
AcDbEntity
  8
0
100
AcDbEllipse
 62
7
  6
CONTINUOUS
 10
1570.4749036029
 20
2141.0060781217
 30
0.0
 11
348.5260289202
 21
7037.7380195347
 31
0.0
 40
0.1674519521
 41
1.8738321787
 42
1.8749044021
  0
ELLIPSE
  5
85B
100
AcDbEntity
  8
0
100
AcDbEllipse
 62
7
  6
CONTINUOUS
 10
1570.4749036029
 20
2141.0060781217
 30
0.0
 11
348.5260289202
 21
7037.7380195347
 31
0.0
 40
0.1674519521
 41
1.8749083379
 42
1.8753317118
  0
ELLIPSE
  5
85C
100
AcDbEntity
  8
0
100
AcDbEllipse
 62
7
  6
CONTINUOUS
 10
1570.4749036029
 20
2141.0060781217
 30
0.0
 11
348.5260289202
 21
7037.7380195347
 31
0.0
 40
0.1674519521
 41
1.8753354321
 42
1.8754009637
  0
ELLIPSE
  5
85D
100
AcDbEntity
  8
0
100
AcDbEllipse
 62
7
  6
CONTINUOUS
 10
1570.4749036029
 20
2141.0060781217
 30
0.0
 11
348.5260289202
 21
7037.7380195347
 31
0.0
 40
0.1674519521
 41
-4.4077792518
 42
-4.4076651041
  0
ELLIPSE
  5
85E
100
AcDbEntity
  8
0
100
AcDbEllipse
 62
7
  6
CONTINUOUS
 10
1570.4749036029
 20
2141.0060781217
 30
0.0
 11
348.5260289202
 21
7037.7380195347
 31
0.0
 40
0.1674519521
 41
1.8755356415
 42
1.8783307797
  0
ELLIPSE
  5
85F
100
AcDbEntity
  8
0
100
AcDbEllipse
 62
7
  6
CONTINUOUS
 10
-905.3433246555
 20
2141.0060781217
 30
0.0
 11
-348.5260289202
 21
7037.7380195347
 31
0.0
 40
0.1674519521
 41
-1.8783307797
 42
-1.8738321787
  0
ELLIPSE
  5
860
100
AcDbEntity
  8
0
100
AcDbEllipse
 62
7
  6
CONTINUOUS
 10
358.2915692474
 20
112.4709816099
 30
0.0
 11
4.1117076464
 21
83.027145255
 31
0.0
 40
0.1674519521
 41
-4.4804390497
 42
-4.1693554455
  0
ELLIPSE
  5
861
100
AcDbEntity
  8
0
100
AcDbEllipse
 62
7
  6
CONTINUOUS
 10
341.8141664687
 20
91.5089007799
 30
0.0
 11
0.5684981787
 21
11.4796052936
 31
0.0
 40
0.1674519521
 41
-1.3388463961
 42
-0.3521180497
  0
ELLIPSE
  5
862
100
AcDbEntity
  8
0
100
AcDbEllipse
 62
7
  6
CONTINUOUS
 10
342.5051056795
 20
97.8809816099
 30
0.0
 11
0.2332427197
 21
4.7098380604
 31
0.0
 40
0.1674519521
 41
-0.3521180497
 42
1.8738321787
  0
ELLIPSE
  5
863
100
AcDbEntity
  8
0
100
AcDbEllipse
 62
7
  6
CONTINUOUS
 10
333.9474071245
 20
265.7409816099
 30
0.0
 11
13.1452138666
 21
-0.0
 31
0.0
 40
0.9944612108
 41
0.6740243043
 42
1.6760950431
  0
ELLIPSE
  5
864
100
AcDbEntity
  8
0
100
AcDbEllipse
 62
7
  6
CONTINUOUS
 10
322.6264732679
 20
97.8809816099
 30
0.0
 11
-0.2332427197
 21
4.7098380604
 31
0.0
 40
0.1674519521
 41
4.4093531285
 42
6.6353033569
  0
ELLIPSE
  5
865
100
AcDbEntity
  8
0
100
AcDbEllipse
 62
7
  6
CONTINUOUS
 10
323.3174124787
 20
91.5089007799
 30
0.0
 11
-0.5684981787
 21
11.4796052936
 31
0.0
 40
0.1674519521
 41
0.3521180497
 42
1.3388463961
  0
ELLIPSE
  5
866
100
AcDbEntity
  8
0
100
AcDbEllipse
 62
7
  6
CONTINUOUS
 10
306.8400096999
 20
112.4709816099
 30
0.0
 11
-4.1117076464
 21
83.027145255
 31
0.0
 40
0.1674519521
 41
-2.1138298616
 42
-1.8027462575
  0
ELLIPSE
  5
867
100
AcDbEntity
  8
0
100
AcDbEllipse
 62
7
  6
CONTINUOUS
 10
305.5657894737
 20
367.0650624343
 30
0.0
 11
-35.3553390593
 21
112.1328095964
 31
0.0
 40
0.3152987889
 41
-2.686396898
 42
-2.6037464033
  0
ELLIPSE
  5
868
100
AcDbEntity
  8
0
100
AcDbEllipse
 62
7
  6
CONTINUOUS
 10
331.1841718228
 20
265.7409816099
 30
0.0
 11
13.1452138666
 21
0.0
 31
0.0
 40
0.9944612108
 41
1.4654976105
 42
2.4675683493
  0
ELLIPSE
  5
869
100
AcDbEntity
  8
0
100
AcDbEllipse
 62
7
  6
CONTINUOUS
 10
359.5657894737
 20
367.0650624343
 30
0.0
 11
35.3553390593
 21
112.1328095964
 31
0.0
 40
0.3152987889
 41
-3.6794389039
 42
-3.5967884092
  0
ENDSEC
  0
SECTION
  2
OBJECTS
  0
DICTIONARY
  5
C
100
AcDbDictionary
280
0
281
1
  3
ACAD_GROUP
350
D
  3
ACAD_MLINESTYLE
350
17
  3
ACAD_LAYOUT
350
1A
  3
ACAD_PLOTSETTINGS
350
19
  3
ACAD_PLOTSTYLENAME
350
E
  0
DICTIONARY
  5
D
102
{ACAD_REACTORS
330
C
102
}
100
AcDbDictionary
280
0
281
1
  0
ACDBDICTIONARYWDFLT
  5
E
102
{ACAD_REACTORS
330
C
102
}
100
AcDbDictionary
281
1
  3
Normal
350
F
100
AcDbDictionaryWithDefault
340
F
  0
DICTIONARY
  5
17
102
{ACAD_REACTORS
330
C
102
}
100
AcDbDictionary
280
0
281
1
  3
Standard
350
18
  0
DICTIONARY
  5
19
102
{ACAD_REACTORS
330
C
102
}
100
AcDbDictionary
281
1
  0
DICTIONARY
  5
1A
102
{ACAD_REACTORS
330
C
102
}
100
AcDbDictionary
281
1
  3
Model
350
86A
  3
Layout1
350
86B
  0
ACDBPLACEHOLDER
  5
F
102
{ACAD_REACTORS
330
E
102
}
  0
MLINESTYLE
  5
18
102
{ACAD_REACTORS
330
17
102
}
100
AcDbMlineStyle
  2
STANDARD
 70
0
  3

 62
256
 51
90.0
 52
90.0
 71
2
 49
0.5
 62
256
  6
BYLAYER
 49
-0.5
 62
256
  6
BYLAYER
  0
LAYOUT
  5
86A
102
{ACAD_REACTORS
330
1A
102
}
100
AcDbPlotSettings
  1

  2
none_device
  4
ISO_A3_(420.00_x_297.00_MM)
  6

 40
0.0
 41
0.0
 42
0.0
 43
0.0
 44
420.0
 45
297.0
 46
0.0
 47
0.0
 48
0.0
 49
0.0
140
0.0
141
0.0
142
1.0
143
1.0
 70
1024
 72
1
 73
0
 74
0
  7

 75
0
147
1.0
148
0.0
149
0.0
100
AcDbLayout
  1
Model
 70
0
 71
0
 10
0.0
 20
0.0
 11
420.0
 21
297.0
 12
0.0
 22
0.0
 32
0.0
 14
0.0
 24
0.0
 34
0.0
 15
0.0
 25
0.0
 35
0.0
146
0.0
 13
0.0
 23
0.0
 33
0.0
 16
1.0
 26
0.0
 36
0.0
 17
0.0
 27
1.0
 37
0.0
 76
0
330
211
345
0
346
0
  0
LAYOUT
  5
86B
102
{ACAD_REACTORS
330
1A
102
}
100
AcDbPlotSettings
  1

  2
none_device
  4
ISO_A3_(420.00_x_297.00_MM)
  6

 40
0.0
 41
0.0
 42
0.0
 43
0.0
 44
420.0
 45
297.0
 46
0.0
 47
0.0
 48
0.0
 49
0.0
140
0.0
141
0.0
142
1.0
143
1.0
 70
0
 72
1
 73
0
 74
0
  7

 75
0
147
1.0
148
0.0
149
0.0
100
AcDbLayout
  1
Layout1
 70
0
 71
1
 10
0.0
 20
0.0
 11
420.0
 21
297.0
 12
0.0
 22
0.0
 32
0.0
 14
0.0
 24
0.0
 34
0.0
 15
0.0
 25
0.0
 35
0.0
146
0.0
 13
0.0
 23
0.0
 33
0.0
 16
1.0
 26
0.0
 36
0.0
 17
0.0
 27
1.0
 37
0.0
 76
0
330
212
345
0
346
0
  0
ENDSEC
  0
EOF
