999
DXF file: ISAK-RG-2-8_250_7903202_M34586-P-9.dxf
999
Pro/ENGINEER 2010140 by Parametric Technology Corporation
  0
SECTION
  2
HEADER
  9
$ACADVER
  1
AC1015
  9
$DWGCODEPAGE
  3
ANSI_1252
  9
$EXTMAX
 10
1189.0
 20
841.0
 30
0.0
  9
$EXTMIN
 10
0.0
 20
0.0
 30
0.0
  9
$LIMMIN
 10
0.0
 20
0.0
  9
$LIMMAX
 10
1189.0
 20
841.0
  9
$VIEWCTR
 10
594.5
 20
420.5
  9
$VIEWSIZE
 40
841.0
  9
$CLAYER
  8
0
  9
$LTSCALE
 40
65.395
  9
$CELTYPE
  6
BYLAYER
  9
$DIMSCALE
 40
1.0
  9
$DIMASZ
 40
3.5
  9
$DIMEXO
 40
7.43125
  9
$DIMDLI
 40
45.182
  9
$DIMEXE
 40
21.402
  9
$DIMCEN
 40
10.701
  9
$DIMLFAC
 40
1.0
  9
$DIMBLK
  1
_FILLED
  9
$DIMTXT
 40
3.5
  9
$DIMTOL
 70
1
  9
$DIMLIM
 70
0
  9
$DIMTFAC
 40
1.0
  9
$DIMTP
 40
0.005
  9
$DIMTM
 40
0.005
  9
$PDMODE
 70
3
  9
$PDSIZE
 40
0.3125
  9
$HANDSEED
  5
854
  9
$TILEMODE
 70
1
  9
$MEASUREMENT
 70
1
  9
$INSUNITS
 70
4
  0
ENDSEC
  0
SECTION
  2
CLASSES
  0
CLASS
  1
ACDBDICTIONARYWDFLT
  2
AcDbDictionaryWithDefault
  3
AutoCAD 2000
 90
0
280
0
281
0
  0
CLASS
  1
ACDBPLACEHOLDER
  2
AcDbPlaceHolder
  3
AutoCAD 2000
 90
0
280
0
281
0
  0
CLASS
  1
LAYOUT
  2
AcDbLayout
  3
AutoCAD 2000
 90
0
280
0
281
0
  0
ENDSEC
  0
SECTION
  2
TABLES
  0
TABLE
  2
VPORT
  5
8
100
AcDbSymbolTable
 70
2
  0
VPORT
  5
1F4
100
AcDbSymbolTableRecord
100
AcDbViewportTableRecord
  2
*ACTIVE
 70
0
 10
0.0
 20
0.0
 11
1.0
 21
1.0
 12
594.5
 22
420.5
 13
0.0
 23
0.0
 14
1.0
 24
1.0
 15
0.0
 25
0.0
 16
0.0
 26
0.0
 36
1.0
 17
0.0
 27
0.0
 37
0.0
 40
841.0
 41
1.4137931034
 42
50.0
 43
0.0
 44
0.0
 50
0.0
 51
0.0
 71
0
 72
100
 73
1
 74
1
 75
0
 76
0
 77
0
 78
0
  0
ENDTAB
  0
TABLE
  2
LTYPE
  5
5
100
AcDbSymbolTable
 70
6
  0
LTYPE
  5
14
100
AcDbSymbolTableRecord
100
AcDbLinetypeTableRecord
  2
BYBLOCK
 70
0
  3

 72
65
 73
0
 40
0.0
  0
LTYPE
  5
15
100
AcDbSymbolTableRecord
100
AcDbLinetypeTableRecord
  2
BYLAYER
 70
0
  3

 72
65
 73
0
 40
0.0
  0
LTYPE
  5
16
100
AcDbSymbolTableRecord
100
AcDbLinetypeTableRecord
  2
CONTINUOUS
 70
64
  3
Solid line
 72
65
 73
0
 40
0.0
  0
LTYPE
  5
1F5
100
AcDbSymbolTableRecord
100
AcDbLinetypeTableRecord
  2
CENTER
 70
64
  3
____ _ ____ _ ____ _ ____ _ ____ _ ____ _ ____
 72
65
 73
4
 40
0.6
 49
0.375
 74
0
 49
-0.075
 74
0
 49
0.075
 74
0
 49
-0.075
 74
0
  0
LTYPE
  5
1F6
100
AcDbSymbolTableRecord
100
AcDbLinetypeTableRecord
  2
HIDDEN
 70
64
  3
- - - - - - - - - - - - - - - - - - - -
 72
65
 73
2
 40
0.2
 49
0.1
 74
0
 49
-0.1
 74
0
  0
LTYPE
  5
1F7
100
AcDbSymbolTableRecord
100
AcDbLinetypeTableRecord
  2
PHANTOM
 70
64
  3
_____ _ _ _____ _ _ _____ _ _ _____
 72
65
 73
6
 40
0.8
 49
0.45
 74
0
 49
-0.05
 74
0
 49
0.1
 74
0
 49
-0.05
 74
0
 49
0.1
 74
0
 49
-0.05
 74
0
  0
LTYPE
  5
1F8
100
AcDbSymbolTableRecord
100
AcDbLinetypeTableRecord
  2
DOT
 70
64
  3
. . . . . . . . . . . . . . . . . . . .
 72
65
 73
2
 40
0.2
 49
0.1
 74
0
 49
-0.1
 74
0
  0
LTYPE
  5
1F9
100
AcDbSymbolTableRecord
100
AcDbLinetypeTableRecord
  2
DASHED
 70
64
  3
- - - - - - - - - - - - - - - - - - - -
 72
65
 73
2
 40
0.2
 49
0.1
 74
0
 49
-0.1
 74
0
  0
ENDTAB
  0
TABLE
  2
LAYER
  5
2
100
AcDbSymbolTable
 70
36
  0
LAYER
  5
10
100
AcDbSymbolTableRecord
100
AcDbLayerTableRecord
  2
0
 70
0
 62
7
  6
CONTINUOUS
370
-3
390
F
  0
LAYER
  5
1FA
100
AcDbSymbolTableRecord
100
AcDbLayerTableRecord
  2
DEFAULT_1
 70
0
 62
7
  6
CENTER
370
-3
390
F
  0
LAYER
  5
1FB
100
AcDbSymbolTableRecord
100
AcDbLayerTableRecord
  2
DEFAULT_2
 70
0
 62
8
  6
HIDDEN
370
-3
390
F
  0
LAYER
  5
1FC
100
AcDbSymbolTableRecord
100
AcDbLayerTableRecord
  2
DEFAULT_3
 70
0
 62
7
  6
PHANTOM
370
-3
390
F
  0
LAYER
  5
1FD
100
AcDbSymbolTableRecord
100
AcDbLayerTableRecord
  2
BEZUGSACHSEN
 70
0
 62
7
  6
CONTINUOUS
370
-3
390
F
  0
LAYER
  5
1FE
100
AcDbSymbolTableRecord
100
AcDbLayerTableRecord
  2
BEZUGSEBENEN
 70
0
 62
7
  6
CONTINUOUS
370
-3
390
F
  0
LAYER
  5
1FF
100
AcDbSymbolTableRecord
100
AcDbLayerTableRecord
  2
BG_STARTBEZUEGE
 70
0
 62
7
  6
CONTINUOUS
370
-3
390
F
  0
LAYER
  5
200
100
AcDbSymbolTableRecord
100
AcDbLayerTableRecord
  2
FASEN
 70
0
 62
7
  6
CONTINUOUS
370
-3
390
F
  0
LAYER
  5
201
100
AcDbSymbolTableRecord
100
AcDbLayerTableRecord
  2
HILFEN
 70
0
 62
7
  6
CONTINUOUS
370
-3
390
F
  0
LAYER
  5
202
100
AcDbSymbolTableRecord
100
AcDbLayerTableRecord
  2
KONSTRUKTIONSELEMENTE
 70
0
 62
7
  6
CONTINUOUS
370
-3
390
F
  0
LAYER
  5
203
100
AcDbSymbolTableRecord
100
AcDbLayerTableRecord
  2
NORM
 70
0
 62
7
  6
CONTINUOUS
370
-3
390
F
  0
LAYER
  5
204
100
AcDbSymbolTableRecord
100
AcDbLayerTableRecord
  2
PLATZIERUNG
 70
0
 62
7
  6
CONTINUOUS
370
-3
390
F
  0
LAYER
  5
205
100
AcDbSymbolTableRecord
100
AcDbLayerTableRecord
  2
RUNDUNGEN
 70
0
 62
7
  6
CONTINUOUS
370
-3
390
F
  0
LAYER
  5
206
100
AcDbSymbolTableRecord
100
AcDbLayerTableRecord
  2
TEIL_STARTBEZUEGE
 70
0
 62
7
  6
CONTINUOUS
370
-3
390
F
  0
LAYER
  5
207
100
AcDbSymbolTableRecord
100
AcDbLayerTableRecord
  2
T_STARTBEZUEGE
 70
0
 62
7
  6
CONTINUOUS
370
-3
390
F
  0
ENDTAB
  0
TABLE
  2
STYLE
  5
3
100
AcDbSymbolTable
 70
1
  0
STYLE
  5
11
100
AcDbSymbolTableRecord
100
AcDbTextStyleTableRecord
  2
STANDARD
 70
0
 40
0.0
 41
0.7
 50
0.0
 71
0
 42
0.2
  3
txt
  4

  0
STYLE
  5
208
100
AcDbSymbolTableRecord
100
AcDbTextStyleTableRecord
  2
TEXTSTYLE_1
 70
0
 40
0.0
 41
0.8
 50
0.0
 71
0
 42
0.2
  3
gdt
  4

  0
ENDTAB
  0
TABLE
  2
VIEW
  5
6
100
AcDbSymbolTable
 70
0
  0
ENDTAB
  0
TABLE
  2
UCS
  5
7
100
AcDbSymbolTable
 70
0
  0
ENDTAB
  0
TABLE
  2
APPID
  5
9
100
AcDbSymbolTable
 70
1
  0
APPID
  5
209
100
AcDbSymbolTableRecord
100
AcDbRegAppTableRecord
  2
ACAD
 70
0
  0
ENDTAB
  0
TABLE
  2
BLOCK_RECORD
  5
1
100
AcDbSymbolTable
 70
0
  0
BLOCK_RECORD
  5
20A
100
AcDbSymbolTableRecord
100
AcDbBlockTableRecord
  2
*Model_Space
  0
BLOCK_RECORD
  5
20B
100
AcDbSymbolTableRecord
100
AcDbBlockTableRecord
  2
*Paper_Space
  0
ENDTAB
  0
TABLE
  2
DIMSTYLE
  5
A
100
AcDbSymbolTable
 70
1
100
AcDbDimStyleTable
 71
0
  0
DIMSTYLE
105
20C
100
AcDbSymbolTableRecord
100
AcDbDimStyleTableRecord
  2
STANDARD
 70
0
  3

  4

 40
1.0
 41
3.5
 42
0.0625
 43
0.38
 44
0.18
 45
0.0
 46
0.0
 47
0.005
 48
0.005
140
3.5
141
0.09
142
0.0
143
25.4
144
1.0
145
0.0
146
1.0
147
0.09
 71
1.0
 72
0.0
 73
0
 74
0
 75
0
 76
0
 77
1
 78
8
170
0
171
2
172
0
173
0
174
0
175
0
176
0
177
0
178
5
270
2
271
3
272
3
273
2
274
2
275
0
280
0
281
0
282
0
283
1
284
8
285
0
286
0
287
3
288
0
340
11
  0
ENDTAB
  0
ENDSEC
  0
SECTION
  2
BLOCKS
  0
BLOCK
  5
20
100
AcDbEntity
  8
0
100
AcDbBlockBegin
  2
*Model_Space
 70
0
 10
0.0
 20
0.0
 30
0.0
  3
*Model_Space
  1

  0
ENDBLK
  5
21
100
AcDbEntity
  8
0
100
AcDbBlockEnd
  0
BLOCK
  5
1C
100
AcDbEntity
  8
0
100
AcDbBlockBegin
  2
*Paper_Space
 70
0
 10
0.0
 20
0.0
 30
0.0
  3
*Paper_Space
  1

  0
ENDBLK
  5
1D
100
AcDbEntity
  8
0
100
AcDbBlockEnd
  0
ENDSEC
  0
SECTION
  2
ENTITIES
  0
MTEXT
  5
20D
100
AcDbEntity
  8
0
100
AcDbMText
 62
5
  6
CONTINUOUS
  7
STANDARD
 71
1
 72
1
 10
611.33213489
 20
493.4463525498
 30
0.0
 11
0.0
 21
1.0
 31
0.0
 44
0.9
  1
RUD
 40
11.0
 41
29.3333333333
  0
MTEXT
  5
20E
100
AcDbEntity
  8
0
100
AcDbMText
 62
5
  6
CONTINUOUS
  7
STANDARD
 71
1
 72
1
 10
896.5277739209
 20
449.5657447833
 30
0.0
 11
0.0
 21
1.0
 31
0.0
 44
0.9
  1
ISAK-RG 2-8/250
 40
11.0
 41
128.3333333333
  0
MTEXT
  5
20F
100
AcDbEntity
  8
0
100
AcDbMText
 62
5
  6
CONTINUOUS
  7
STANDARD
 71
1
 72
1
 10
282.8075670067
 20
417.8536805266
 30
0.0
 11
0.0
 21
1.0
 31
0.0
 44
0.9
  1
RUD ISAK-RG 2-8/250
 40
11.0
 41
164.2142857143
  0
LINE
  5
210
100
AcDbEntity
  8
0
100
AcDbLine
 62
7
  6
CONTINUOUS
 10
0.0
 20
0.0
 11
0.0
 21
841.0
  0
LINE
  5
211
100
AcDbEntity
  8
0
100
AcDbLine
 62
7
  6
CONTINUOUS
 10
0.0
 20
0.0
 11
1189.0
 21
0.0
  0
LINE
  5
212
100
AcDbEntity
  8
0
100
AcDbLine
 62
7
  6
CONTINUOUS
 10
0.0
 20
841.0
 11
1189.0
 21
841.0
  0
LINE
  5
213
100
AcDbEntity
  8
0
100
AcDbLine
 62
7
  6
CONTINUOUS
 10
1189.0
 20
0.0
 11
1189.0
 21
841.0
  0
LINE
  5
214
100
AcDbEntity
  8
RUNDUNGEN
100
AcDbLine
 62
7
  6
CONTINUOUS
 10
644.8751443325
 20
63.1412861652
 11
647.3865514808
 21
62.4683566479
  0
LINE
  5
215
100
AcDbEntity
  8
RUNDUNGEN
100
AcDbLine
 62
7
  6
CONTINUOUS
 10
687.7622510197
 20
51.6497205626
 11
690.273658168
 21
50.9767910453
  0
LINE
  5
216
100
AcDbEntity
  8
RUNDUNGEN
100
AcDbLine
 62
7
  6
CONTINUOUS
 10
653.0803818049
 20
68.2632074864
 11
658.3443975764
 21
66.8527187115
  0
LINE
  5
217
100
AcDbEntity
  8
RUNDUNGEN
100
AcDbLine
 62
7
  6
CONTINUOUS
 10
680.4646589619
 20
60.9256125369
 11
685.7286747335
 21
59.5151237619
  0
LINE
  5
218
100
AcDbEntity
  8
0
100
AcDbLine
 62
7
  6
CONTINUOUS
 10
667.0877871212
 20
98.477092015
 11
670.7969422942
 21
97.4832268819
  0
LINE
  5
219
100
AcDbEntity
  8
0
100
AcDbLine
 62
7
  6
CONTINUOUS
 10
672.7641864747
 20
96.9561053924
 11
673.5060175093
 21
96.7573323657
  0
LINE
  5
21A
100
AcDbEntity
  8
0
100
AcDbLine
 62
7
  6
CONTINUOUS
 10
677.0397249419
 20
95.8104783129
 11
677.896317637
 21
95.580954992
  0
LINE
  5
21B
100
AcDbEntity
  8
0
100
AcDbLine
 62
7
  6
CONTINUOUS
 10
684.3507645449
 20
93.8514911554
 11
687.0383311157
 21
93.1313598632
  0
LINE
  5
21C
100
AcDbEntity
  8
0
100
AcDbLine
 62
7
  6
CONTINUOUS
 10
667.160992202
 20
98.7502970958
 11
670.8701473749
 21
97.7564319626
  0
LINE
  5
21D
100
AcDbEntity
  8
0
100
AcDbLine
 62
7
  6
CONTINUOUS
 10
672.8373915555
 20
97.2293104731
 11
673.5792225901
 21
97.0305374465
  0
LINE
  5
21E
100
AcDbEntity
  8
0
100
AcDbLine
 62
7
  6
CONTINUOUS
 10
677.1129300227
 20
96.0836833936
 11
677.7464517034
 21
95.9139317709
  0
LINE
  5
21F
100
AcDbEntity
  8
0
100
AcDbLine
 62
7
  6
CONTINUOUS
 10
684.4239696256
 20
94.1246962362
 11
687.1115361965
 21
93.4045649439
  0
LINE
  5
220
100
AcDbEntity
  8
0
100
AcDbLine
 62
7
  6
CONTINUOUS
 10
687.2009970191
 20
93.6734143118
 11
685.239005741
 21
94.1991282903
  0
LINE
  5
221
100
AcDbEntity
  8
0
100
AcDbLine
 62
7
  6
CONTINUOUS
 10
669.6976123973
 20
98.4805602152
 11
668.5385014057
 21
98.7911430693
  0
LINE
  5
222
100
AcDbEntity
  8
0
100
AcDbLine
 62
7
  6
CONTINUOUS
 10
668.8130259569
 20
98.9811227283
 11
669.5548569915
 21
98.7823497016
  0
LINE
  5
223
100
AcDbEntity
  8
0
100
AcDbLine
 62
7
  6
CONTINUOUS
 10
668.8862310376
 20
99.254327809
 11
669.6280620722
 21
99.0555547824
  0
LINE
  5
224
100
AcDbEntity
  8
0
100
AcDbLine
 62
7
  6
CONTINUOUS
 10
669.4407714374
 20
99.515687609
 11
669.2784958986
 21
99.5591692086
  0
LINE
  5
225
100
AcDbEntity
  8
0
100
AcDbLine
 62
7
  6
CONTINUOUS
 10
669.7744722337
 20
99.6019649439
 11
669.5774233652
 21
99.6547640291
  0
LINE
  5
226
100
AcDbEntity
  8
0
100
AcDbLine
 62
7
  6
CONTINUOUS
 10
669.2296900677
 20
99.7479388853
 11
669.0326411992
 21
99.8007379705
  0
LINE
  5
227
100
AcDbEntity
  8
0
100
AcDbLine
 62
7
  6
CONTINUOUS
 10
668.8898857934
 20
100.102527457
 11
669.2955746404
 21
99.993823458
  0
LINE
  5
228
100
AcDbEntity
  8
0
100
AcDbLine
 62
7
  6
CONTINUOUS
 10
669.6433079379
 20
99.9006486018
 11
670.0489967849
 21
99.7919446028
  0
LINE
  5
229
100
AcDbEntity
  8
0
100
AcDbLine
 62
7
  6
CONTINUOUS
 10
674.0570565421
 20
98.8138380332
 11
675.9116341286
 21
98.3169054666
  0
LINE
  5
22A
100
AcDbEntity
  8
0
100
AcDbLine
 62
7
  6
CONTINUOUS
 10
668.9630908741
 20
100.3757325377
 11
669.3687797212
 21
100.2670285388
  0
LINE
  5
22B
100
AcDbEntity
  8
0
100
AcDbLine
 62
7
  6
CONTINUOUS
 10
669.7165130186
 20
100.1738536825
 11
670.1222018657
 21
100.0651496836
  0
LINE
  5
22C
100
AcDbEntity
  8
0
100
AcDbLine
 62
7
  6
CONTINUOUS
 10
670.1368428818
 20
100.1197906997
 11
669.7311540348
 21
100.2284946987
  0
LINE
  5
22D
100
AcDbEntity
  8
0
100
AcDbLine
 62
7
  6
CONTINUOUS
 10
669.3834207373
 20
100.3216695549
 11
668.9777318903
 21
100.4303735539
  0
LINE
  5
22E
100
AcDbEntity
  8
0
100
AcDbLine
 62
7
  6
CONTINUOUS
 10
674.1302616229
 20
99.087043114
 11
675.9848392094
 21
98.5901105474
  0
LINE
  5
22F
100
AcDbEntity
  8
0
100
AcDbLine
 62
7
  6
CONTINUOUS
 10
669.2522564414
 20
100.6203532128
 11
669.44930531
 21
100.5675541276
  0
LINE
  5
230
100
AcDbEntity
  8
0
100
AcDbLine
 62
7
  6
CONTINUOUS
 10
669.7970386075
 20
100.4743792714
 11
669.994087476
 21
100.4215801862
  0
LINE
  5
231
100
AcDbEntity
  8
0
100
AcDbLine
 62
7
  6
CONTINUOUS
 10
676.3612841481
 20
98.7586371272
 11
674.1976102972
 21
99.3383917882
  0
LINE
  5
232
100
AcDbEntity
  8
0
100
AcDbLine
 62
7
  6
CONTINUOUS
 10
669.5859572378
 20
100.7066305477
 11
669.7482327766
 21
100.6631489482
  0
LINE
  5
233
100
AcDbEntity
  8
0
100
AcDbLine
 62
7
  6
CONTINUOUS
 10
669.3254615222
 20
100.8935582936
 11
669.5225103907
 21
100.8407592084
  0
LINE
  5
234
100
AcDbEntity
  8
0
100
AcDbLine
 62
7
  6
CONTINUOUS
 10
669.8702436882
 20
100.7475843521
 11
670.0672925568
 21
100.6947852669
  0
LINE
  5
235
100
AcDbEntity
  8
0
100
AcDbLine
 62
7
  6
CONTINUOUS
 10
669.6591623185
 20
100.9798356285
 11
669.8214378573
 21
100.9363540289
  0
LINE
  5
236
100
AcDbEntity
  8
0
100
AcDbLine
 62
7
  6
CONTINUOUS
 10
685.9710565485
 20
96.9311790979
 11
685.2292255139
 21
97.1299521245
  0
LINE
  5
237
100
AcDbEntity
  8
0
100
AcDbLine
 62
7
  6
CONTINUOUS
 10
674.3917989865
 20
100.0631138429
 11
673.6499679519
 21
100.2618868695
  0
LINE
  5
238
100
AcDbEntity
  8
0
100
AcDbLine
 62
7
  6
CONTINUOUS
 10
670.2137027183
 20
101.2411954284
 11
669.4718716837
 21
101.4399684551
  0
LINE
  5
239
100
AcDbEntity
  8
0
100
AcDbLine
 62
7
  6
CONTINUOUS
 10
669.3291162779
 20
101.7417579415
 11
670.4882272694
 21
101.4311750874
  0
LINE
  5
23A
100
AcDbEntity
  8
0
100
AcDbLine
 62
7
  6
CONTINUOUS
 10
685.3522100496
 20
97.5889366602
 11
688.0560323623
 21
96.864449655
  0
LINE
  5
23B
100
AcDbEntity
  8
0
100
AcDbLine
 62
7
  6
CONTINUOUS
 10
673.7729524876
 20
100.7208714052
 11
676.678457373
 21
99.9423437175
  0
LINE
  5
23C
100
AcDbEntity
  8
0
100
AcDbLine
 62
7
  6
CONTINUOUS
 10
669.4023213587
 20
102.0149630223
 11
670.5614323502
 21
101.7043801681
  0
LINE
  5
23D
100
AcDbEntity
  8
0
100
AcDbLine
 62
7
  6
CONTINUOUS
 10
685.4254151304
 20
97.8621417409
 11
688.1292374431
 21
97.1376547358
  0
LINE
  5
23E
100
AcDbEntity
  8
0
100
AcDbLine
 62
7
  6
CONTINUOUS
 10
673.8461575683
 20
100.9940764859
 11
676.7516624538
 21
100.2155487983
  0
LINE
  5
23F
100
AcDbEntity
  8
0
100
AcDbLine
 62
7
  6
CONTINUOUS
 10
688.1803303755
 20
97.393359123
 11
685.4927638047
 21
98.1134904152
  0
LINE
  5
240
100
AcDbEntity
  8
0
100
AcDbLine
 62
7
  6
CONTINUOUS
 10
683.8700084165
 20
98.548306411
 11
683.1281773819
 21
98.7470794376
  0
LINE
  5
241
100
AcDbEntity
  8
0
100
AcDbLine
 62
7
  6
CONTINUOUS
 10
680.2117495286
 20
99.5285339257
 11
679.469918494
 21
99.7273069524
  0
LINE
  5
242
100
AcDbEntity
  8
0
100
AcDbLine
 62
7
  6
CONTINUOUS
 10
676.81169062
 20
100.4395769645
 11
673.9061857345
 21
101.2181046522
  0
LINE
  5
243
100
AcDbEntity
  8
0
100
AcDbLine
 62
7
  6
CONTINUOUS
 10
671.938941554
 20
101.7452261417
 11
668.229786381
 21
102.7390912749
  0
LINE
  5
244
100
AcDbEntity
  8
0
100
AcDbLine
 62
7
  6
CONTINUOUS
 10
849.0017679108
 20
142.6341466026
 11
845.5050631071
 21
141.6972073743
  0
LINE
  5
245
100
AcDbEntity
  8
0
100
AcDbLine
 62
7
  6
CONTINUOUS
 10
815.1967355252
 20
133.5761154748
 11
811.7000307215
 21
132.6391762464
  0
LINE
  5
246
100
AcDbEntity
  8
BEZUGSACHSEN
100
AcDbLine
 62
7
  6
CONTINUOUS
 10
833.019389421
 20
146.9962372995
 11
823.3601311581
 21
144.4080468485
  0
LINE
  5
247
100
AcDbEntity
  8
BEZUGSACHSEN
100
AcDbLine
 62
7
  6
CONTINUOUS
 10
832.2380313978
 20
149.9123051409
 11
822.5787731349
 21
147.3241146899
  0
LINE
  5
248
100
AcDbEntity
  8
BEZUGSACHSEN
100
AcDbLine
 62
7
  6
CONTINUOUS
 10
830.8760922345
 20
154.9951312952
 11
821.2168339716
 21
152.4069408442
  0
LINE
  5
249
100
AcDbEntity
  8
BEZUGSACHSEN
100
AcDbLine
 62
7
  6
CONTINUOUS
 10
830.0947342113
 20
157.9111991366
 11
820.4354759484
 21
155.3230086856
  0
LINE
  5
24A
100
AcDbEntity
  8
0
100
AcDbLine
 62
7
  6
CONTINUOUS
 10
843.3958413539
 20
163.9081190779
 11
833.3603449823
 21
161.2191159295
  0
LINE
  5
24B
100
AcDbEntity
  8
0
100
AcDbLine
 62
7
  6
CONTINUOUS
 10
815.9534156654
 20
156.5549432763
 11
805.9179192939
 21
153.8659401279
  0
LINE
  5
24C
100
AcDbEntity
  8
RUNDUNGEN
100
AcDbLine
 62
7
  6
CONTINUOUS
 10
674.6613858692
 20
110.1015753504
 11
671.0765383149
 21
109.3825839839
  0
LINE
  5
24D
100
AcDbEntity
  8
RUNDUNGEN
100
AcDbLine
 62
7
  6
CONTINUOUS
 10
653.6838877424
 20
106.9560863432
 11
656.6413869748
 21
107.5492542206
  0
LINE
  5
24E
100
AcDbEntity
  8
RUNDUNGEN
100
AcDbLine
 62
7
  6
CONTINUOUS
 10
675.5764493787
 20
113.5166388599
 11
671.9916018243
 21
112.7976474933
  0
LINE
  5
24F
100
AcDbEntity
  8
RUNDUNGEN
100
AcDbLine
 62
7
  6
CONTINUOUS
 10
654.5989512519
 20
110.3711498526
 11
656.7786441551
 21
110.8083177811
  0
LINE
  5
250
100
AcDbEntity
  8
RUNDUNGEN
100
AcDbLine
 62
7
  6
CONTINUOUS
 10
653.5296855794
 20
113.0004211462
 11
650.572186347
 21
112.4072532688
  0
LINE
  5
251
100
AcDbEntity
  8
RUNDUNGEN
100
AcDbLine
 62
7
  6
CONTINUOUS
 10
651.4390083654
 20
119.2875648396
 11
649.6465845882
 21
118.9280691564
  0
LINE
  5
252
100
AcDbEntity
  8
RUNDUNGEN
100
AcDbLine
 62
7
  6
CONTINUOUS
 10
652.3540718749
 20
122.7026283491
 11
650.5616480977
 21
122.3431326658
  0
LINE
  5
253
100
AcDbEntity
  8
KONSTRUKTIONSELEMENTE
100
AcDbLine
 62
7
  6
CONTINUOUS
 10
707.8159788073
 20
132.6391762464
 11
704.3530588957
 21
133.5670628402
  0
LINE
  5
254
100
AcDbEntity
  8
0
100
AcDbLine
 62
7
  6
CONTINUOUS
 10
704.3530588957
 20
133.5670628402
 11
704.3192740037
 21
133.5761154748
  0
LINE
  5
255
100
AcDbEntity
  8
0
100
AcDbLine
 62
7
  6
CONTINUOUS
 10
674.0109464217
 20
141.6972073743
 11
673.9771615297
 21
141.7062600088
  0
LINE
  5
256
100
AcDbEntity
  8
KONSTRUKTIONSELEMENTE
100
AcDbLine
 62
7
  6
CONTINUOUS
 10
673.9771615297
 20
141.7062600088
 11
670.514241618
 21
142.6341466026
  0
LINE
  5
257
100
AcDbEntity
  8
BEZUGSACHSEN
100
AcDbLine
 62
7
  6
CONTINUOUS
 10
686.4966201079
 20
146.9962372995
 11
696.1558783707
 21
144.4080468485
  0
LINE
  5
258
100
AcDbEntity
  8
BEZUGSACHSEN
100
AcDbLine
 62
7
  6
CONTINUOUS
 10
687.277978131
 20
149.9123051409
 11
696.9372363939
 21
147.3241146899
  0
LINE
  5
259
100
AcDbEntity
  8
BEZUGSACHSEN
100
AcDbLine
 62
7
  6
CONTINUOUS
 10
688.6399172943
 20
154.9951312952
 11
698.2991755572
 21
152.4069408442
  0
LINE
  5
25A
100
AcDbEntity
  8
BEZUGSACHSEN
100
AcDbLine
 62
7
  6
CONTINUOUS
 10
689.4212753175
 20
157.9111991366
 11
699.0805335804
 21
155.3230086856
  0
LINE
  5
25B
100
AcDbEntity
  8
RUNDUNGEN
100
AcDbLine
 62
7
  6
CONTINUOUS
 10
676.1201681749
 20
163.9081190779
 11
686.1556645465
 21
161.2191159295
  0
LINE
  5
25C
100
AcDbEntity
  8
RUNDUNGEN
100
AcDbLine
 62
7
  6
CONTINUOUS
 10
703.5625938634
 20
156.5549432763
 11
713.598090235
 21
153.8659401279
  0
LINE
  5
25D
100
AcDbEntity
  8
RUNDUNGEN
100
AcDbLine
 62
7
  6
CONTINUOUS
 10
695.0953516621
 20
100.2594849464
 11
687.9581609066
 21
106.5387152172
  0
LINE
  5
25E
100
AcDbEntity
  8
RUNDUNGEN
100
AcDbLine
 62
7
  6
CONTINUOUS
 10
688.873224416
 20
109.9537787267
 11
696.0104151716
 21
103.6745484558
  0
LINE
  5
25F
100
AcDbEntity
  8
RUNDUNGEN
100
AcDbLine
 62
7
  6
CONTINUOUS
 10
715.9564125468
 20
99.984720443
 11
711.0152804852
 21
104.3318798613
  0
LINE
  5
260
100
AcDbEntity
  8
0
100
AcDbLine
 62
7
  6
CONTINUOUS
 10
804.5730560856
 20
158.8850379503
 11
819.2824014906
 21
162.8263951728
  0
LINE
  5
261
100
AcDbEntity
  8
0
100
AcDbLine
 62
7
  6
CONTINUOUS
 10
827.3416327407
 20
164.9858596778
 11
842.0509781456
 21
168.9272169003
  0
LINE
  5
262
100
AcDbEntity
  8
0
100
AcDbLine
 62
7
  6
CONTINUOUS
 10
804.7668630759
 20
169.2401004977
 11
807.2190833874
 21
169.8971709499
  0
LINE
  5
263
100
AcDbEntity
  8
0
100
AcDbLine
 62
7
  6
CONTINUOUS
 10
834.2533847833
 20
177.1409901768
 11
836.7056054022
 21
177.7980607113
  0
LINE
  5
264
100
AcDbEntity
  8
0
100
AcDbLine
 62
7
  6
CONTINUOUS
 10
829.8101567273
 20
176.0558076048
 11
811.6096230448
 21
171.1789893027
  0
LINE
  5
265
100
AcDbEntity
  8
0
100
AcDbLine
 62
7
  6
CONTINUOUS
 10
704.5416303371
 20
165.3464451494
 11
704.3200719045
 21
165.3217947153
  0
LINE
  5
266
100
AcDbEntity
  8
0
100
AcDbLine
 62
7
  6
CONTINUOUS
 10
682.884776337
 20
171.1493816893
 11
682.6335050699
 21
171.1326927852
  0
LINE
  5
267
100
AcDbEntity
  8
0
100
AcDbLine
 62
7
  6
CONTINUOUS
 10
713.2381808051
 20
161.16784088
 11
712.9497704548
 21
161.1611033633
  0
LINE
  5
268
100
AcDbEntity
  8
0
100
AcDbLine
 62
7
  6
CONTINUOUS
 10
712.7510270957
 20
162.5586260573
 11
713.039436681
 21
162.565363779
  0
LINE
  5
269
100
AcDbEntity
  8
0
100
AcDbLine
 62
7
  6
CONTINUOUS
 10
713.6792692445
 20
162.8140053462
 11
713.3908588942
 21
162.8072678295
  0
LINE
  5
26A
100
AcDbEntity
  8
0
100
AcDbLine
 62
7
  6
CONTINUOUS
 10
707.2425579345
 20
162.8583800235
 11
706.9541483492
 21
162.8516423018
  0
LINE
  5
26B
100
AcDbEntity
  8
0
100
AcDbLine
 62
7
  6
CONTINUOUS
 10
713.1711113405
 20
164.1264018022
 11
713.4595209258
 21
164.1331395239
  0
LINE
  5
26C
100
AcDbEntity
  8
0
100
AcDbLine
 62
7
  6
CONTINUOUS
 10
706.79922314
 20
165.7497272626
 11
707.0876331078
 21
165.7564648818
  0
LINE
  5
26D
100
AcDbEntity
  8
0
100
AcDbLine
 62
7
  6
CONTINUOUS
 10
689.3516994099
 20
167.652221117
 11
689.0236727498
 21
167.6560987585
  0
LINE
  5
26E
100
AcDbEntity
  8
0
100
AcDbLine
 62
7
  6
CONTINUOUS
 10
685.6674269254
 20
168.6394189539
 11
685.3393998261
 21
168.6432967131
  0
LINE
  5
26F
100
AcDbEntity
  8
0
100
AcDbLine
 62
7
  6
CONTINUOUS
 10
712.9116013114
 20
160.7512465096
 11
713.2668620512
 21
160.7400715258
  0
LINE
  5
270
100
AcDbEntity
  8
0
100
AcDbLine
 62
7
  6
CONTINUOUS
 10
706.8281230787
 20
162.3813095893
 11
707.1833842011
 21
162.370134503
  0
LINE
  5
271
100
AcDbEntity
  8
0
100
AcDbLine
 62
7
  6
CONTINUOUS
 10
713.5645419722
 20
164.5250834052
 11
713.2092804692
 21
164.5362586009
  0
LINE
  5
272
100
AcDbEntity
  8
0
100
AcDbLine
 62
7
  6
CONTINUOUS
 10
707.2136583635
 20
166.2267975394
 11
706.8583968605
 21
166.2379727351
  0
LINE
  5
273
100
AcDbEntity
  8
0
100
AcDbLine
 62
7
  6
CONTINUOUS
 10
688.8976474793
 20
167.185766046
 11
689.3024304127
 21
167.1613216304
  0
LINE
  5
274
100
AcDbEntity
  8
0
100
AcDbLine
 62
7
  6
CONTINUOUS
 10
685.2133745556
 20
168.1729640006
 11
685.6181570499
 21
168.1485197027
  0
LINE
  5
275
100
AcDbEntity
  8
RUNDUNGEN
100
AcDbLine
 62
7
  6
CONTINUOUS
 10
714.9429534432
 20
158.8850379503
 11
700.2336080382
 21
162.8263951728
  0
LINE
  5
276
100
AcDbEntity
  8
RUNDUNGEN
100
AcDbLine
 62
7
  6
CONTINUOUS
 10
692.1743767882
 20
164.9858596778
 11
677.4650313832
 21
168.9272169003
  0
LINE
  5
277
100
AcDbEntity
  8
0
100
AcDbLine
 62
7
  6
CONTINUOUS
 10
680.1474992856
 20
169.5303611882
 11
680.608033401
 21
169.4069614439
  0
LINE
  5
278
100
AcDbEntity
  8
0
100
AcDbLine
 62
7
  6
CONTINUOUS
 10
682.5269254756
 20
168.8927958621
 11
683.0642154233
 21
168.7488294545
  0
LINE
  5
279
100
AcDbEntity
  8
0
100
AcDbLine
 62
7
  6
CONTINUOUS
 10
684.9063516656
 20
168.2552305361
 11
685.2133745556
 21
168.1729640006
  0
LINE
  5
27A
100
AcDbEntity
  8
0
100
AcDbLine
 62
7
  6
CONTINUOUS
 10
687.0555110174
 20
167.6793650233
 11
688.8976474793
 21
167.185766046
  0
LINE
  5
27B
100
AcDbEntity
  8
0
100
AcDbLine
 62
7
  6
CONTINUOUS
 10
701.1457532925
 20
163.9038959846
 11
701.546861739
 21
163.7964193003
  0
LINE
  5
27C
100
AcDbEntity
  8
0
100
AcDbLine
 62
7
  6
CONTINUOUS
 10
702.0816729691
 20
163.6531170631
 11
702.4827814156
 21
163.5456403787
  0
LINE
  5
27D
100
AcDbEntity
  8
0
100
AcDbLine
 62
7
  6
CONTINUOUS
 10
704.1540666412
 20
163.0978208522
 11
704.622026623
 21
162.972431353
  0
LINE
  5
27E
100
AcDbEntity
  8
0
100
AcDbLine
 62
7
  6
CONTINUOUS
 10
706.226460409
 20
162.5425246157
 11
706.8281230787
 21
162.3813095893
  0
LINE
  5
27F
100
AcDbEntity
  8
0
100
AcDbLine
 62
7
  6
CONTINUOUS
 10
712.5104928649
 20
160.858723194
 11
712.9116013114
 21
160.7512465096
  0
LINE
  5
280
100
AcDbEntity
  8
0
100
AcDbLine
 62
7
  6
CONTINUOUS
 10
712.9497704548
 20
161.1611033633
 11
712.6823650788
 21
161.2327544178
  0
LINE
  5
281
100
AcDbEntity
  8
0
100
AcDbLine
 62
7
  6
CONTINUOUS
 10
706.9541483492
 20
162.8516423018
 11
706.3524856794
 21
163.0128573282
  0
LINE
  5
282
100
AcDbEntity
  8
0
100
AcDbLine
 62
7
  6
CONTINUOUS
 10
689.0236727498
 20
167.6560987585
 11
687.6420704034
 21
168.0262979915
  0
LINE
  5
283
100
AcDbEntity
  8
0
100
AcDbLine
 62
7
  6
CONTINUOUS
 10
685.3393998261
 20
168.6432967131
 11
685.032376936
 21
168.7255632486
  0
LINE
  5
284
100
AcDbEntity
  8
0
100
AcDbLine
 62
7
  6
CONTINUOUS
 10
707.1813557882
 20
163.9669981491
 11
707.7830184579
 21
163.8057831226
  0
LINE
  5
285
100
AcDbEntity
  8
0
100
AcDbLine
 62
7
  6
CONTINUOUS
 10
681.0491218551
 20
171.053125965
 11
682.3539684789
 21
170.7034933659
  0
LINE
  5
286
100
AcDbEntity
  8
0
100
AcDbLine
 62
7
  6
CONTINUOUS
 10
702.9238698697
 20
165.1918048999
 11
704.0603437695
 21
164.8872876362
  0
LINE
  5
287
100
AcDbEntity
  8
0
100
AcDbLine
 62
7
  6
CONTINUOUS
 10
713.039436681
 20
162.565363779
 11
713.306842057
 21
162.4937127245
  0
LINE
  5
288
100
AcDbEntity
  8
0
100
AcDbLine
 62
7
  6
CONTINUOUS
 10
713.3908588942
 20
162.8072678295
 11
713.1234535182
 21
162.8789188841
  0
LINE
  5
289
100
AcDbEntity
  8
0
100
AcDbLine
 62
7
  6
CONTINUOUS
 10
708.3101521602
 20
164.1686390959
 11
707.307381044
 21
164.4373308067
  0
LINE
  5
28A
100
AcDbEntity
  8
0
100
AcDbLine
 62
7
  6
CONTINUOUS
 10
704.3200719045
 20
165.3217947153
 11
703.0498951254
 21
165.6621375575
  0
LINE
  5
28B
100
AcDbEntity
  8
0
100
AcDbLine
 62
7
  6
CONTINUOUS
 10
682.6335050699
 20
171.1326927852
 11
681.1751471109
 21
171.5234586226
  0
LINE
  5
28C
100
AcDbEntity
  8
0
100
AcDbLine
 62
7
  6
CONTINUOUS
 10
708.0980815974
 20
164.9816147666
 11
708.4991900439
 21
164.8741380822
  0
LINE
  5
28D
100
AcDbEntity
  8
0
100
AcDbLine
 62
7
  6
CONTINUOUS
 10
688.3772178317
 20
170.7699055451
 11
689.7588201781
 21
170.3997063121
  0
LINE
  5
28E
100
AcDbEntity
  8
0
100
AcDbLine
 62
7
  6
CONTINUOUS
 10
707.0876331078
 20
165.7564648818
 11
707.6892957775
 21
165.5952498553
  0
LINE
  5
28F
100
AcDbEntity
  8
0
100
AcDbLine
 62
7
  6
CONTINUOUS
 10
681.4902103091
 20
172.6992904862
 11
682.9485682682
 21
172.3085246488
  0
LINE
  5
290
100
AcDbEntity
  8
0
100
AcDbLine
 62
7
  6
CONTINUOUS
 10
703.3649583237
 20
166.8379694211
 11
704.6351351028
 21
166.4976265789
  0
LINE
  5
291
100
AcDbEntity
  8
0
100
AcDbLine
 62
7
  6
CONTINUOUS
 10
713.4595209258
 20
164.1331395239
 11
713.7269263017
 21
164.0614884694
  0
LINE
  5
292
100
AcDbEntity
  8
0
100
AcDbLine
 62
7
  6
CONTINUOUS
 10
713.8319473482
 20
164.4534323507
 11
713.5645419722
 21
164.5250834052
  0
LINE
  5
293
100
AcDbEntity
  8
0
100
AcDbLine
 62
7
  6
CONTINUOUS
 10
707.8153210333
 20
166.0655825129
 11
707.2136583635
 21
166.2267975394
  0
LINE
  5
294
100
AcDbEntity
  8
0
100
AcDbLine
 62
7
  6
CONTINUOUS
 10
704.6733048053
 20
166.9074832238
 11
703.0688709237
 21
167.3373899867
  0
LINE
  5
295
100
AcDbEntity
  8
0
100
AcDbLine
 62
7
  6
CONTINUOUS
 10
702.5340596936
 20
167.4806922239
 11
702.1329512471
 21
167.5881689082
  0
LINE
  5
296
100
AcDbEntity
  8
0
100
AcDbLine
 62
7
  6
CONTINUOUS
 10
687.4286636311
 20
171.5281709002
 11
686.9681295157
 21
171.6515706445
  0
LINE
  5
297
100
AcDbEntity
  8
0
100
AcDbLine
 62
7
  6
CONTINUOUS
 10
689.8848454339
 20
170.8700389697
 11
688.042708972
 21
171.363637947
  0
LINE
  5
298
100
AcDbEntity
  8
0
100
AcDbLine
 62
7
  6
CONTINUOUS
 10
685.1259930539
 20
172.1451696218
 11
684.6654587188
 21
172.268569425
  0
LINE
  5
299
100
AcDbEntity
  8
0
100
AcDbLine
 62
7
  6
CONTINUOUS
 10
682.976833702
 20
172.7210351346
 11
681.1346972402
 21
173.2146341119
  0
LINE
  5
29A
100
AcDbEntity
  8
RUNDUNGEN
100
AcDbLine
 62
7
  6
CONTINUOUS
 10
714.7491464529
 20
169.2401004977
 11
712.2969261414
 21
169.8971709499
  0
LINE
  5
29B
100
AcDbEntity
  8
RUNDUNGEN
100
AcDbLine
 62
7
  6
CONTINUOUS
 10
685.2626247455
 20
177.1409901768
 11
682.8104041266
 21
177.7980607113
  0
LINE
  5
29C
100
AcDbEntity
  8
RUNDUNGEN
100
AcDbLine
 62
7
  6
CONTINUOUS
 10
689.7057498369
 20
176.0558351941
 11
707.9064769688
 21
171.1789650574
  0
LINE
  5
29D
100
AcDbEntity
  8
0
100
AcDbLine
 62
7
  6
CONTINUOUS
 10
684.5435775935
 20
168.4364524002
 11
684.9063516656
 21
168.2552305361
  0
LINE
  5
29E
100
AcDbEntity
  8
0
100
AcDbLine
 62
7
  6
CONTINUOUS
 10
683.3396079954
 20
172.5398132184
 11
682.976833702
 21
172.7210351346
  0
LINE
  5
29F
100
AcDbEntity
  8
0
100
AcDbLine
 62
7
  6
CONTINUOUS
 10
690.2476199469
 20
170.6888169947
 11
689.8848454339
 21
170.8700389697
  0
LINE
  5
2A0
100
AcDbEntity
  8
0
100
AcDbLine
 62
7
  6
CONTINUOUS
 10
705.9132073263
 20
162.7104773708
 11
706.226460409
 21
162.5425246157
  0
LINE
  5
2A1
100
AcDbEntity
  8
0
100
AcDbLine
 62
7
  6
CONTINUOUS
 10
712.1972397823
 20
161.026675949
 11
712.5104928649
 21
160.858723194
  0
LINE
  5
2A2
100
AcDbEntity
  8
0
100
AcDbLine
 62
7
  6
CONTINUOUS
 10
704.9865575073
 20
166.7395305781
 11
704.6733048053
 21
166.9074832238
  0
LINE
  5
2A3
100
AcDbEntity
  8
0
100
AcDbLine
 62
7
  6
CONTINUOUS
 10
708.1285737352
 20
165.8976298672
 11
707.8153210333
 21
166.0655825129
  0
LINE
  5
2A4
100
AcDbEntity
  8
0
100
AcDbLine
 62
7
  6
CONTINUOUS
 10
714.1452004327
 20
164.2854796025
 11
713.8319473482
 21
164.4534323507
  0
LINE
  5
2A5
100
AcDbEntity
  8
0
100
AcDbLine
 62
7
  6
CONTINUOUS
 10
685.032376936
 20
168.7255632486
 11
684.7463586945
 21
168.8862184426
  0
LINE
  5
2A6
100
AcDbEntity
  8
0
100
AcDbLine
 62
7
  6
CONTINUOUS
 10
689.7588201781
 20
170.3997063121
 11
690.0448384196
 21
170.2390511181
  0
LINE
  5
2A7
100
AcDbEntity
  8
0
100
AcDbLine
 62
7
  6
CONTINUOUS
 10
706.3524856794
 20
163.0128573282
 11
706.1060841302
 21
163.1628972615
  0
LINE
  5
2A8
100
AcDbEntity
  8
0
100
AcDbLine
 62
7
  6
CONTINUOUS
 10
712.6823650788
 20
161.2327544178
 11
712.4359639121
 21
161.3827942486
  0
LINE
  5
2A9
100
AcDbEntity
  8
0
100
AcDbLine
 62
7
  6
CONTINUOUS
 10
707.6892957775
 20
165.5952498553
 11
707.9356969442
 21
165.4452100245
  0
LINE
  5
2AA
100
AcDbEntity
  8
0
100
AcDbLine
 62
7
  6
CONTINUOUS
 10
713.306842057
 20
162.4937127245
 11
713.5532439887
 21
162.3436726887
  0
LINE
  5
2AB
100
AcDbEntity
  8
0
100
AcDbLine
 62
7
  6
CONTINUOUS
 10
713.1234535182
 20
162.8789188841
 11
712.8770523515
 21
163.0289587149
  0
LINE
  5
2AC
100
AcDbEntity
  8
0
100
AcDbLine
 62
7
  6
CONTINUOUS
 10
713.7269263017
 20
164.0614884694
 11
713.9733282335
 21
163.9114484336
  0
LINE
  5
2AD
100
AcDbEntity
  8
0
100
AcDbLine
 62
7
  6
CONTINUOUS
 10
682.9485682682
 20
172.3085246488
 11
683.1578311167
 21
172.1684360004
  0
LINE
  5
2AE
100
AcDbEntity
  8
RUNDUNGEN
100
AcDbLine
 62
7
  6
CONTINUOUS
 10
716.8714760562
 20
103.3997839525
 11
711.9303439947
 21
107.7469433708
  0
LINE
  5
2AF
100
AcDbEntity
  8
RUNDUNGEN
100
AcDbLine
 62
7
  6
CONTINUOUS
 10
647.6782052912
 20
115.3773027635
 11
649.0117916035
 21
113.0410883668
  0
LINE
  5
2B0
100
AcDbEntity
  8
RUNDUNGEN
100
AcDbLine
 62
7
  6
CONTINUOUS
 10
653.0933739533
 20
105.8908564253
 11
661.5766126984
 21
91.0296777344
  0
LINE
  5
2B1
100
AcDbEntity
  8
RUNDUNGEN
100
AcDbLine
 62
7
  6
CONTINUOUS
 10
674.7387357328
 20
67.9718965917
 11
677.6118622151
 21
62.9386719779
  0
LINE
  5
2B2
100
AcDbEntity
  8
RUNDUNGEN
100
AcDbLine
 62
7
  6
CONTINUOUS
 10
657.6255766233
 20
109.324637417
 11
656.1303434853
 21
111.9440293164
  0
LINE
  5
2B3
100
AcDbEntity
  8
0
100
AcDbLine
 62
7
  6
CONTINUOUS
 10
713.5475945997
 20
161.252967378
 11
713.2381808051
 21
161.16784088
  0
LINE
  5
2B4
100
AcDbEntity
  8
0
100
AcDbLine
 62
7
  6
CONTINUOUS
 10
713.8836619926
 20
162.5071879629
 11
714.0383692724
 21
162.5497511094
  0
LINE
  5
2B5
100
AcDbEntity
  8
0
100
AcDbLine
 62
7
  6
CONTINUOUS
 10
712.4416125361
 20
162.4734997643
 11
712.7510270957
 21
162.5586260573
  0
LINE
  5
2B6
100
AcDbEntity
  8
0
100
AcDbLine
 62
7
  6
CONTINUOUS
 10
712.5466335826
 20
162.8654436456
 11
712.3919270678
 21
162.8228802941
  0
LINE
  5
2B7
100
AcDbEntity
  8
0
100
AcDbLine
 62
7
  6
CONTINUOUS
 10
707.1833842011
 20
162.370134503
 11
707.4927983837
 21
162.455260919
  0
LINE
  5
2B8
100
AcDbEntity
  8
0
100
AcDbLine
 62
7
  6
CONTINUOUS
 10
704.5034606346
 20
164.9365885044
 11
704.8128748117
 21
165.0217148999
  0
LINE
  5
2B9
100
AcDbEntity
  8
0
100
AcDbLine
 62
7
  6
CONTINUOUS
 10
706.8583968605
 20
166.2379727351
 11
706.5489830659
 21
166.1528462371
  0
LINE
  5
2BA
100
AcDbEntity
  8
0
100
AcDbLine
 62
7
  6
CONTINUOUS
 10
689.3024304127
 20
167.1613216304
 11
689.6514612877
 21
167.2358327858
  0
LINE
  5
2BB
100
AcDbEntity
  8
0
100
AcDbLine
 62
7
  6
CONTINUOUS
 10
685.6181570499
 20
168.1485197027
 11
685.967188364
 21
168.2230307404
  0
LINE
  5
2BC
100
AcDbEntity
  8
0
100
AcDbLine
 62
7
  6
CONTINUOUS
 10
682.8565111228
 20
170.7368711447
 11
683.2055422118
 21
170.8113822206
  0
LINE
  5
2BD
100
AcDbEntity
  8
0
100
AcDbLine
 62
7
  6
CONTINUOUS
 10
704.6351351028
 20
166.4976265789
 11
704.8146851168
 21
166.3654994604
  0
LINE
  5
2BE
100
AcDbEntity
  8
0
100
AcDbLine
 62
7
  6
CONTINUOUS
 10
684.2785631276
 20
168.6754965088
 11
684.5435775935
 21
168.4364524002
  0
LINE
  5
2BF
100
AcDbEntity
  8
0
100
AcDbLine
 62
7
  6
CONTINUOUS
 10
690.5126339792
 20
170.4497730244
 11
690.2476199469
 21
170.6888169947
  0
LINE
  5
2C0
100
AcDbEntity
  8
0
100
AcDbLine
 62
7
  6
CONTINUOUS
 10
712.4359639121
 20
161.3827942486
 11
712.2105661897
 21
161.6112230607
  0
LINE
  5
2C1
100
AcDbEntity
  8
0
100
AcDbLine
 62
7
  6
CONTINUOUS
 10
713.9963608538
 20
162.3929735569
 11
713.8836619926
 21
162.5071879629
  0
LINE
  5
2C2
100
AcDbEntity
  8
0
100
AcDbLine
 62
7
  6
CONTINUOUS
 10
705.6878103744
 20
162.9389059985
 11
705.9132073263
 21
162.7104773708
  0
LINE
  5
2C3
100
AcDbEntity
  8
0
100
AcDbLine
 62
7
  6
CONTINUOUS
 10
708.3539710751
 20
165.6692011577
 11
708.1285737352
 21
165.8976298672
  0
LINE
  5
2C4
100
AcDbEntity
  8
0
100
AcDbLine
 62
7
  6
CONTINUOUS
 10
712.4339354864
 20
162.9796578467
 11
712.5466335826
 21
162.8654436456
  0
LINE
  5
2C5
100
AcDbEntity
  8
0
100
AcDbLine
 62
7
  6
CONTINUOUS
 10
713.5532439887
 20
162.3436726887
 11
713.7786409461
 21
162.1152440816
  0
LINE
  5
2C6
100
AcDbEntity
  8
0
100
AcDbLine
 62
7
  6
CONTINUOUS
 10
684.7463586945
 20
168.8862184426
 11
684.5581000701
 21
169.1046959222
  0
LINE
  5
2C7
100
AcDbEntity
  8
0
100
AcDbLine
 62
7
  6
CONTINUOUS
 10
690.0448384196
 20
170.2390511181
 11
690.2330970588
 21
170.0205736934
  0
LINE
  5
2C8
100
AcDbEntity
  8
RUNDUNGEN
100
AcDbLine
 62
7
  6
CONTINUOUS
 10
695.8238434121
 20
59.0305225238
 11
687.2346355066
 21
74.0773410011
  0
LINE
  5
2C9
100
AcDbEntity
  8
RUNDUNGEN
100
AcDbLine
 62
7
  6
CONTINUOUS
 10
665.8752225031
 20
111.4953676436
 11
664.4422978947
 21
114.0056056902
  0
LINE
  5
2CA
100
AcDbEntity
  8
RUNDUNGEN
100
AcDbLine
 62
7
  6
CONTINUOUS
 10
696.7389069216
 20
62.4455860333
 11
688.1496990161
 21
77.4924045106
  0
LINE
  5
2CB
100
AcDbEntity
  8
RUNDUNGEN
100
AcDbLine
 62
7
  6
CONTINUOUS
 10
666.7902860126
 20
114.9104311531
 11
665.3573614042
 21
117.4206691997
  0
LINE
  5
2CC
100
AcDbEntity
  8
0
100
AcDbLine
 62
7
  6
CONTINUOUS
 10
700.1705770956
 20
213.482952739
 11
694.7240622163
 21
213.482952739
  0
LINE
  5
2CD
100
AcDbEntity
  8
0
100
AcDbLine
 62
7
  6
CONTINUOUS
 10
819.3454324332
 20
213.482952739
 11
824.7919473125
 21
213.482952739
  0
LINE
  5
2CE
100
AcDbEntity
  8
0
100
AcDbLine
 62
7
  6
CONTINUOUS
 10
722.2740622163
 20
206.1009524875
 11
717.5572419688
 21
208.8242099271
  0
LINE
  5
2CF
100
AcDbEntity
  8
0
100
AcDbLine
 62
7
  6
CONTINUOUS
 10
711.9259951219
 20
161.3514062703
 11
712.1972397823
 21
161.026675949
  0
LINE
  5
2D0
100
AcDbEntity
  8
0
100
AcDbLine
 62
7
  6
CONTINUOUS
 10
714.4164450986
 20
163.9607493018
 11
714.1452004327
 21
164.2854796025
  0
LINE
  5
2D1
100
AcDbEntity
  8
0
100
AcDbLine
 62
7
  6
CONTINUOUS
 10
683.583618038
 20
172.222380413
 11
683.3396079954
 21
172.5398132184
  0
LINE
  5
2D2
100
AcDbEntity
  8
0
100
AcDbLine
 62
7
  6
CONTINUOUS
 10
706.1060841302
 20
163.1628972615
 11
705.9475383403
 21
163.3734132111
  0
LINE
  5
2D3
100
AcDbEntity
  8
0
100
AcDbLine
 62
7
  6
CONTINUOUS
 10
707.9356969442
 20
165.4452100245
 11
708.0942427489
 21
165.2346941298
  0
LINE
  5
2D4
100
AcDbEntity
  8
0
100
AcDbLine
 62
7
  6
CONTINUOUS
 10
705.1909506379
 20
166.4327130923
 11
704.9865575073
 21
166.7395305781
  0
LINE
  5
2D5
100
AcDbEntity
  8
0
100
AcDbLine
 62
7
  6
CONTINUOUS
 10
684.0555575213
 20
169.0713180591
 11
684.2785631276
 21
168.6754965088
  0
LINE
  5
2D6
100
AcDbEntity
  8
0
100
AcDbLine
 62
7
  6
CONTINUOUS
 10
683.1578311167
 20
172.1684360004
 11
683.2693341431
 21
171.9705251801
  0
LINE
  5
2D7
100
AcDbEntity
  8
0
100
AcDbLine
 62
7
  6
CONTINUOUS
 10
675.9116341286
 20
98.3169054666
 11
677.0397249419
 21
95.8104783129
  0
LINE
  5
2D8
100
AcDbEntity
  8
0
100
AcDbLine
 62
7
  6
CONTINUOUS
 10
675.9848392094
 20
98.5901105474
 11
677.1129300227
 21
96.0836833936
  0
LINE
  5
2D9
100
AcDbEntity
  8
0
100
AcDbLine
 62
7
  6
CONTINUOUS
 10
677.896317637
 20
95.580954992
 11
676.7233908831
 21
98.1870000288
  0
LINE
  5
2DA
100
AcDbEntity
  8
0
100
AcDbLine
 62
7
  6
CONTINUOUS
 10
598.7580047644
 20
611.0929305449
 11
598.7580047644
 21
401.0929305449
  0
LINE
  5
2DB
100
AcDbEntity
  8
0
100
AcDbLine
 62
7
  6
CONTINUOUS
 10
806.5821569151
 20
137.4776396784
 11
811.7000307215
 21
132.6391762464
  0
LINE
  5
2DC
100
AcDbEntity
  8
0
100
AcDbLine
 62
7
  6
CONTINUOUS
 10
712.8770523515
 20
163.0289587149
 11
712.6726588383
 21
163.3357763032
  0
LINE
  5
2DD
100
AcDbEntity
  8
0
100
AcDbLine
 62
7
  6
CONTINUOUS
 10
714.2007536019
 20
162.0861561735
 11
713.9963608538
 21
162.3929735569
  0
LINE
  5
2DE
100
AcDbEntity
  8
0
100
AcDbLine
 62
7
  6
CONTINUOUS
 10
713.9733282335
 20
163.9114484336
 11
714.1777209816
 21
163.6046310502
  0
LINE
  5
2DF
100
AcDbEntity
  8
0
100
AcDbLine
 62
7
  6
CONTINUOUS
 10
690.7356395928
 20
170.0539515016
 11
690.5126339792
 21
170.4497730244
  0
LINE
  5
2E0
100
AcDbEntity
  8
0
100
AcDbLine
 62
7
  6
CONTINUOUS
 10
705.5044214605
 20
163.324112288
 11
705.6878103744
 21
162.9389059985
  0
LINE
  5
2E1
100
AcDbEntity
  8
0
100
AcDbLine
 62
7
  6
CONTINUOUS
 10
704.8146851168
 20
166.3654994604
 11
704.9063795774
 21
166.1728963294
  0
LINE
  5
2E2
100
AcDbEntity
  8
0
100
AcDbLine
 62
7
  6
CONTINUOUS
 10
683.7298682585
 20
171.8471254358
 11
683.583618038
 21
172.222380413
  0
LINE
  5
2E3
100
AcDbEntity
  8
RUNDUNGEN
100
AcDbLine
 62
7
  6
CONTINUOUS
 10
670.514241618
 20
142.6341466026
 11
668.5012646044
 21
149.3833157531
  0
LINE
  5
2E4
100
AcDbEntity
  8
0
100
AcDbLine
 62
7
  6
CONTINUOUS
 10
824.7919473125
 20
213.482952739
 11
837.5779468095
 21
206.1009524875
  0
LINE
  5
2E5
100
AcDbEntity
  8
0
100
AcDbLine
 62
7
  6
CONTINUOUS
 10
729.6560624678
 20
193.3149529904
 11
722.2740622163
 21
206.1009524875
  0
LINE
  5
2E6
100
AcDbEntity
  8
0
100
AcDbLine
 62
7
  6
CONTINUOUS
 10
708.5373599965
 20
165.2839948956
 11
708.3539710751
 21
165.6692011577
  0
LINE
  5
2E7
100
AcDbEntity
  8
0
100
AcDbLine
 62
7
  6
CONTINUOUS
 10
711.7884535339
 20
161.6403109687
 11
711.9259951219
 21
161.3514062703
  0
LINE
  5
2E8
100
AcDbEntity
  8
0
100
AcDbLine
 62
7
  6
CONTINUOUS
 10
712.296393891
 20
163.2685625176
 11
712.4339354864
 21
162.9796578467
  0
LINE
  5
2E9
100
AcDbEntity
  8
0
100
AcDbLine
 62
7
  6
CONTINUOUS
 10
714.5539866939
 20
163.6718446308
 11
714.4164450986
 21
163.9607493018
  0
LINE
  5
2EA
100
AcDbEntity
  8
0
100
AcDbLine
 62
7
  6
CONTINUOUS
 10
684.5581000701
 20
169.1046959222
 11
684.4676010333
 21
169.3809955775
  0
LINE
  5
2EB
100
AcDbEntity
  8
0
100
AcDbLine
 62
7
  6
CONTINUOUS
 10
690.2330970588
 20
170.0205736934
 11
690.3235960367
 21
169.7442738184
  0
LINE
  5
2EC
100
AcDbEntity
  8
0
100
AcDbLine
 62
7
  6
CONTINUOUS
 10
634.7580047644
 20
611.0929305449
 11
634.7580047644
 21
401.0929305449
  0
LINE
  5
2ED
100
AcDbEntity
  8
0
100
AcDbLine
 62
7
  6
CONTINUOUS
 10
705.3074878327
 20
166.0654196963
 11
705.1909506379
 21
166.4327130923
  0
LINE
  5
2EE
100
AcDbEntity
  8
0
100
AcDbLine
 62
7
  6
CONTINUOUS
 10
712.2105661897
 20
161.6112230607
 11
712.0940288183
 21
161.9785165628
  0
LINE
  5
2EF
100
AcDbEntity
  8
0
100
AcDbLine
 62
7
  6
CONTINUOUS
 10
713.7786409461
 20
162.1152440816
 11
713.8951783027
 21
161.7479505246
  0
LINE
  5
2F0
100
AcDbEntity
  8
0
100
AcDbLine
 62
7
  6
CONTINUOUS
 10
705.9475383403
 20
163.3734132111
 11
705.8768482802
 21
163.6444050672
  0
LINE
  5
2F1
100
AcDbEntity
  8
0
100
AcDbLine
 62
7
  6
CONTINUOUS
 10
712.6726588383
 20
163.3357763032
 11
712.6019691608
 21
163.6067680568
  0
LINE
  5
2F2
100
AcDbEntity
  8
0
100
AcDbLine
 62
7
  6
CONTINUOUS
 10
714.1777209816
 20
163.6046310502
 11
714.2484113653
 21
163.3336388721
  0
LINE
  5
2F3
100
AcDbEntity
  8
0
100
AcDbLine
 62
7
  6
CONTINUOUS
 10
683.9860629282
 20
169.4260064868
 11
684.0555575213
 21
169.0713180591
  0
LINE
  5
2F4
100
AcDbEntity
  8
0
100
AcDbLine
 62
7
  6
CONTINUOUS
 10
690.8051344202
 20
169.69926307
 11
690.7356395928
 21
170.0539515016
  0
LINE
  5
2F5
100
AcDbEntity
  8
0
100
AcDbLine
 62
7
  6
CONTINUOUS
 10
683.0642154233
 20
168.7488294545
 11
682.8565111228
 21
170.7368711447
  0
LINE
  5
2F6
100
AcDbEntity
  8
0
100
AcDbLine
 62
7
  6
CONTINUOUS
 10
682.3539684789
 20
170.7034933659
 11
682.5269254756
 21
168.8927958621
  0
LINE
  5
2F7
100
AcDbEntity
  8
0
100
AcDbLine
 62
7
  6
CONTINUOUS
 10
683.2693341431
 20
171.9705251801
 11
683.2830771279
 21
171.7147922469
  0
LINE
  5
2F8
100
AcDbEntity
  8
0
100
AcDbLine
 62
7
  6
CONTINUOUS
 10
683.7436112434
 20
171.5913925026
 11
683.7298682585
 21
171.8471254358
  0
LINE
  5
2F9
100
AcDbEntity
  8
0
100
AcDbLine
 62
7
  6
CONTINUOUS
 10
674.5560624678
 20
193.3149529904
 11
674.5560624678
 21
178.5509524875
  0
LINE
  5
2FA
100
AcDbEntity
  8
0
100
AcDbLine
 62
7
  6
CONTINUOUS
 10
672.5720292733
 20
171.1464398016
 11
672.3081853102
 21
163.5909372476
  0
LINE
  5
2FB
100
AcDbEntity
  8
0
100
AcDbLine
 62
7
  6
CONTINUOUS
 10
789.859947061
 20
178.5509524875
 11
797.2419473125
 21
165.7649529904
  0
LINE
  5
2FC
100
AcDbEntity
  8
0
100
AcDbLine
 62
7
  6
CONTINUOUS
 10
799.225980507
 20
158.3604403045
 11
802.7752362093
 21
151.6852611729
  0
LINE
  5
2FD
100
AcDbEntity
  8
0
100
AcDbLine
 62
7
  6
CONTINUOUS
 10
705.4547356244
 20
163.6734929753
 11
705.5044214605
 21
163.324112288
  0
LINE
  5
2FE
100
AcDbEntity
  8
0
100
AcDbLine
 62
7
  6
CONTINUOUS
 10
712.2467076577
 20
163.6179432524
 11
712.296393891
 21
163.2685625176
  0
LINE
  5
2FF
100
AcDbEntity
  8
0
100
AcDbLine
 62
7
  6
CONTINUOUS
 10
711.7597722896
 20
162.0680803297
 11
711.7884535339
 21
161.6403109687
  0
LINE
  5
300
100
AcDbEntity
  8
0
100
AcDbLine
 62
7
  6
CONTINUOUS
 10
714.2294355965
 20
161.6583865526
 11
714.2007536019
 21
162.0861561735
  0
LINE
  5
301
100
AcDbEntity
  8
0
100
AcDbLine
 62
7
  6
CONTINUOUS
 10
714.5826678941
 20
163.2440751051
 11
714.5539866939
 21
163.6718446308
  0
LINE
  5
302
100
AcDbEntity
  8
0
100
AcDbLine
 62
7
  6
CONTINUOUS
 10
704.622026623
 20
162.972431353
 11
704.5034606346
 21
164.9365885044
  0
LINE
  5
303
100
AcDbEntity
  8
0
100
AcDbLine
 62
7
  6
CONTINUOUS
 10
704.0603437695
 20
164.8872876362
 11
704.1540666412
 21
163.0978208522
  0
LINE
  5
304
100
AcDbEntity
  8
0
100
AcDbLine
 62
7
  6
CONTINUOUS
 10
704.9063795774
 20
166.1728963294
 11
704.9102182935
 21
165.919817237
  0
LINE
  5
305
100
AcDbEntity
  8
0
100
AcDbLine
 62
7
  6
CONTINUOUS
 10
705.31132674
 20
165.8123405526
 11
705.3074878327
 21
166.0654196963
  0
LINE
  5
306
100
AcDbEntity
  8
0
100
AcDbLine
 62
7
  6
CONTINUOUS
 10
708.0942427489
 20
165.2346941298
 11
708.0980815974
 21
164.9816147666
  0
LINE
  5
307
100
AcDbEntity
  8
0
100
AcDbLine
 62
7
  6
CONTINUOUS
 10
684.4676010333
 20
169.3809955775
 11
684.4748624774
 21
169.7151172282
  0
LINE
  5
308
100
AcDbEntity
  8
0
100
AcDbLine
 62
7
  6
CONTINUOUS
 10
690.3235960367
 20
169.7442738184
 11
690.3163345926
 21
169.4101521678
  0
LINE
  5
309
100
AcDbEntity
  8
0
100
AcDbLine
 62
7
  6
CONTINUOUS
 10
684.0143281424
 20
169.8385170314
 11
683.9860629282
 21
169.4260064868
  0
LINE
  5
30A
100
AcDbEntity
  8
0
100
AcDbLine
 62
7
  6
CONTINUOUS
 10
690.776868708
 20
169.2867524235
 11
690.8051344202
 21
169.69926307
  0
LINE
  5
30B
100
AcDbEntity
  8
0
100
AcDbLine
 62
7
  6
CONTINUOUS
 10
729.6560624678
 20
178.5509524875
 11
729.6560624678
 21
193.3149529904
  0
LINE
  5
30C
100
AcDbEntity
  8
0
100
AcDbLine
 62
7
  6
CONTINUOUS
 10
705.8768482802
 20
163.6444050672
 11
705.8940135821
 21
163.9758729871
  0
LINE
  5
30D
100
AcDbEntity
  8
0
100
AcDbLine
 62
7
  6
CONTINUOUS
 10
705.4929051356
 20
164.0833496715
 11
705.4547356244
 21
163.6734929753
  0
LINE
  5
30E
100
AcDbEntity
  8
0
100
AcDbLine
 62
7
  6
CONTINUOUS
 10
708.4991900439
 20
164.8741380822
 11
708.5373599965
 21
165.2839948956
  0
LINE
  5
30F
100
AcDbEntity
  8
RUNDUNGEN
100
AcDbLine
 62
7
  6
CONTINUOUS
 10
647.3993495404
 20
117.1315703105
 11
648.3144130499
 21
120.5466338199
  0
LINE
  5
310
100
AcDbEntity
  8
RUNDUNGEN
100
AcDbLine
 62
7
  6
CONTINUOUS
 10
641.7434918349
 20
66.9086131531
 11
643.8918422264
 21
74.926365967
  0
LINE
  5
311
100
AcDbEntity
  8
RUNDUNGEN
100
AcDbLine
 62
7
  6
CONTINUOUS
 10
653.0097172281
 20
106.4171366894
 11
653.9247807375
 21
109.8322001989
  0
LINE
  5
312
100
AcDbEntity
  8
0
100
AcDbLine
 62
7
  6
CONTINUOUS
 10
837.5779468095
 20
206.1009524875
 11
844.959947061
 21
193.3149529904
  0
LINE
  5
313
100
AcDbEntity
  8
0
100
AcDbLine
 62
7
  6
CONTINUOUS
 10
799.225980507
 20
158.3604403045
 11
797.2419473125
 21
165.7649529904
  0
LINE
  5
314
100
AcDbEntity
  8
0
100
AcDbLine
 62
7
  6
CONTINUOUS
 10
806.5821569151
 20
137.4776396784
 11
800.046510152
 21
161.8690054587
  0
LINE
  5
315
100
AcDbEntity
  8
0
100
AcDbLine
 62
7
  6
CONTINUOUS
 10
672.5720292733
 20
171.1464398016
 11
674.5560624678
 21
178.5509524875
  0
LINE
  5
316
100
AcDbEntity
  8
RUNDUNGEN
100
AcDbLine
 62
7
  6
CONTINUOUS
 10
668.5012646044
 20
149.3833157531
 11
675.0369113675
 21
173.7746815334
  0
LINE
  5
317
100
AcDbEntity
  8
RUNDUNGEN
100
AcDbLine
 62
7
  6
CONTINUOUS
 10
647.3865514808
 20
62.4683566479
 11
648.4846276922
 21
66.5664328593
  0
LINE
  5
318
100
AcDbEntity
  8
0
100
AcDbLine
 62
7
  6
CONTINUOUS
 10
681.1346972402
 20
173.2146341119
 11
680.1474992856
 21
169.5303611882
  0
LINE
  5
319
100
AcDbEntity
  8
0
100
AcDbLine
 62
7
  6
CONTINUOUS
 10
680.608033401
 20
169.4069614439
 11
681.0491218551
 21
171.053125965
  0
LINE
  5
31A
100
AcDbEntity
  8
0
100
AcDbLine
 62
7
  6
CONTINUOUS
 10
681.1751471109
 20
171.5234586226
 11
681.4902103091
 21
172.6992904862
  0
LINE
  5
31B
100
AcDbEntity
  8
0
100
AcDbLine
 62
7
  6
CONTINUOUS
 10
683.2830771279
 20
171.7147922469
 11
683.2200644412
 21
171.4796256985
  0
LINE
  5
31C
100
AcDbEntity
  8
0
100
AcDbLine
 62
7
  6
CONTINUOUS
 10
683.6595943473
 20
171.2778371779
 11
683.7436112434
 21
171.5913925026
  0
LINE
  5
31D
100
AcDbEntity
  8
0
100
AcDbLine
 62
7
  6
CONTINUOUS
 10
684.6654587188
 20
172.268569425
 11
684.0143281424
 21
169.8385170314
  0
LINE
  5
31E
100
AcDbEntity
  8
0
100
AcDbLine
 62
7
  6
CONTINUOUS
 10
684.4748624774
 20
169.7151172282
 11
685.1259930539
 21
172.1451696218
  0
LINE
  5
31F
100
AcDbEntity
  8
KONSTRUKTIONSELEMENTE
100
AcDbLine
 62
7
  6
CONTINUOUS
 10
681.2525395742
 20
154.3024586719
 11
682.2335672828
 21
157.9637039239
  0
LINE
  5
320
100
AcDbEntity
  8
0
100
AcDbLine
 62
7
  6
CONTINUOUS
 10
667.6782958875
 20
102.5354783196
 11
666.7119888215
 21
98.9291712536
  0
LINE
  5
321
100
AcDbEntity
  8
0
100
AcDbLine
 62
7
  6
CONTINUOUS
 10
686.9681295157
 20
171.6515706445
 11
686.3169989393
 21
169.2215182509
  0
LINE
  5
322
100
AcDbEntity
  8
0
100
AcDbLine
 62
7
  6
CONTINUOUS
 10
686.7775330547
 20
169.0981185066
 11
687.4286636311
 21
171.5281709002
  0
LINE
  5
323
100
AcDbEntity
  8
0
100
AcDbLine
 62
7
  6
CONTINUOUS
 10
668.3506022559
 20
99.0171826886
 11
668.6873456274
 21
100.2739260601
  0
LINE
  5
324
100
AcDbEntity
  8
0
100
AcDbLine
 62
7
  6
CONTINUOUS
 10
668.7898327404
 20
100.6564131731
 11
669.1265761119
 21
101.9131565446
  0
LINE
  5
325
100
AcDbEntity
  8
0
100
AcDbLine
 62
7
  6
CONTINUOUS
 10
688.042708972
 20
171.363637947
 11
687.0555110174
 21
167.6793650233
  0
LINE
  5
326
100
AcDbEntity
  8
0
100
AcDbLine
 62
7
  6
CONTINUOUS
 10
669.361573585
 20
101.399245864
 11
669.1770967815
 21
100.7107690605
  0
LINE
  5
327
100
AcDbEntity
  8
0
100
AcDbLine
 62
7
  6
CONTINUOUS
 10
668.9223431005
 20
99.7600153795
 11
668.7378662969
 21
99.071538576
  0
LINE
  5
328
100
AcDbEntity
  8
0
100
AcDbLine
 62
7
  6
CONTINUOUS
 10
669.2033362386
 20
99.6495850563
 11
669.2296900677
 21
99.7479388853
  0
LINE
  5
329
100
AcDbEntity
  8
0
100
AcDbLine
 62
7
  6
CONTINUOUS
 10
669.2955746404
 20
99.993823458
 11
669.3834207373
 21
100.3216695549
  0
LINE
  5
32A
100
AcDbEntity
  8
0
100
AcDbLine
 62
7
  6
CONTINUOUS
 10
669.44930531
 20
100.5675541276
 11
669.5488642198
 21
100.9391130374
  0
LINE
  5
32B
100
AcDbEntity
  8
0
100
AcDbLine
 62
7
  6
CONTINUOUS
 10
687.6420704034
 20
168.0262979915
 11
688.3772178317
 21
170.7699055451
  0
LINE
  5
32C
100
AcDbEntity
  8
0
100
AcDbLine
 62
7
  6
CONTINUOUS
 10
669.7311540348
 20
100.2284946987
 11
669.6433079379
 21
99.9006486018
  0
LINE
  5
32D
100
AcDbEntity
  8
0
100
AcDbLine
 62
7
  6
CONTINUOUS
 10
669.8965975173
 20
100.8459381812
 11
669.7970386075
 21
100.4743792714
  0
LINE
  5
32E
100
AcDbEntity
  8
0
100
AcDbLine
 62
7
  6
CONTINUOUS
 10
669.5774233652
 20
99.6547640291
 11
669.5510695361
 21
99.5564102
  0
LINE
  5
32F
100
AcDbEntity
  8
0
100
AcDbLine
 62
7
  6
CONTINUOUS
 10
721.0268522083
 20
291.319631116
 11
694.398112338
 21
191.9398209787
  0
LINE
  5
330
100
AcDbEntity
  8
0
100
AcDbLine
 62
7
  6
CONTINUOUS
 10
669.6651550902
 20
98.8230722927
 11
669.8496318937
 21
99.5115490962
  0
LINE
  5
331
100
AcDbEntity
  8
0
100
AcDbLine
 62
7
  6
CONTINUOUS
 10
670.1043855747
 20
100.4623027772
 11
670.2888623782
 21
101.1507795807
  0
LINE
  5
332
100
AcDbEntity
  8
0
100
AcDbLine
 62
7
  6
CONTINUOUS
 10
670.7493315001
 20
101.4783405489
 11
670.4125881286
 21
100.2215971774
  0
LINE
  5
333
100
AcDbEntity
  8
0
100
AcDbLine
 62
7
  6
CONTINUOUS
 10
670.3101010155
 20
99.8391100643
 11
669.973357644
 21
98.5823666928
  0
LINE
  5
334
100
AcDbEntity
  8
KONSTRUKTIONSELEMENTE
100
AcDbLine
 62
7
  6
CONTINUOUS
 10
677.6907330744
 20
125.7233294006
 11
680.4359236028
 21
135.968519929
  0
LINE
  5
335
100
AcDbEntity
  8
0
100
AcDbLine
 62
7
  6
CONTINUOUS
 10
690.3163345926
 20
169.4101521678
 11
690.0012714237
 21
168.234320414
  0
LINE
  5
336
100
AcDbEntity
  8
0
100
AcDbLine
 62
7
  6
CONTINUOUS
 10
671.3484327877
 20
97.6868398371
 11
672.3147398537
 21
101.2931469031
  0
LINE
  5
337
100
AcDbEntity
  8
0
100
AcDbLine
 62
7
  6
CONTINUOUS
 10
690.4618055392
 20
168.1109206697
 11
690.776868708
 21
169.2867524235
  0
LINE
  5
338
100
AcDbEntity
  8
0
100
AcDbLine
 62
7
  6
CONTINUOUS
 10
673.9061857345
 20
101.2181046522
 11
673.7729524876
 21
100.7208714052
  0
LINE
  5
339
100
AcDbEntity
  8
0
100
AcDbLine
 62
7
  6
CONTINUOUS
 10
673.6499679519
 20
100.2618868695
 11
672.7641864747
 21
96.9561053924
  0
LINE
  5
33A
100
AcDbEntity
  8
0
100
AcDbLine
 62
7
  6
CONTINUOUS
 10
687.9718886649
 20
152.5020145094
 11
685.4258055453
 21
142.9999029466
  0
LINE
  5
33B
100
AcDbEntity
  8
KONSTRUKTIONSELEMENTE
100
AcDbLine
 62
7
  6
CONTINUOUS
 10
687.9718886649
 20
152.5020145094
 11
690.6610185436
 21
162.5379838445
  0
LINE
  5
33C
100
AcDbEntity
  8
0
100
AcDbLine
 62
7
  6
CONTINUOUS
 10
673.5060175093
 20
96.7573323657
 11
674.1302616229
 21
99.087043114
  0
LINE
  5
33D
100
AcDbEntity
  8
0
100
AcDbLine
 62
7
  6
CONTINUOUS
 10
674.1976102972
 20
99.3383917882
 11
674.3917989865
 21
100.0631138429
  0
LINE
  5
33E
100
AcDbEntity
  8
KONSTRUKTIONSELEMENTE
100
AcDbLine
 62
7
  6
CONTINUOUS
 10
682.0373992927
 20
124.5586436976
 11
684.7825898211
 21
134.803834226
  0
LINE
  5
33F
100
AcDbEntity
  8
KONSTRUKTIONSELEMENTE
100
AcDbLine
 62
7
  6
CONTINUOUS
 10
690.8701640569
 20
157.5229705689
 11
692.8351487044
 21
164.8563931093
  0
LINE
  5
340
100
AcDbEntity
  8
0
100
AcDbLine
 62
7
  6
CONTINUOUS
 10
675.9116341286
 20
98.3169054666
 11
675.9848392094
 21
98.5901105474
  0
LINE
  5
341
100
AcDbEntity
  8
KONSTRUKTIONSELEMENTE
100
AcDbLine
 62
7
  6
CONTINUOUS
 10
677.6190537992
 20
104.2054505254
 11
683.4306431464
 21
125.8945972417
  0
LINE
  5
342
100
AcDbEntity
  8
KONSTRUKTIONSELEMENTE
100
AcDbLine
 62
7
  6
CONTINUOUS
 10
693.4496525129
 20
163.286049239
 11
694.1949552826
 21
166.0675570423
  0
LINE
  5
343
100
AcDbEntity
  8
KONSTRUKTIONSELEMENTE
100
AcDbLine
 62
7
  6
CONTINUOUS
 10
696.4579551264
 20
174.5131874372
 11
698.4257435242
 21
181.8570737162
  0
LINE
  5
344
100
AcDbEntity
  8
KONSTRUKTIONSELEMENTE
100
AcDbLine
 62
7
  6
CONTINUOUS
 10
685.7956083465
 20
133.7548417004
 11
689.1529161301
 21
146.2844849255
  0
LINE
  5
345
100
AcDbEntity
  8
0
100
AcDbLine
 62
7
  6
CONTINUOUS
 10
676.7233908831
 20
98.1870000288
 11
676.7965959639
 21
98.4602051096
  0
LINE
  5
346
100
AcDbEntity
  8
0
100
AcDbLine
 62
7
  6
CONTINUOUS
 10
677.4300827983
 20
99.399420165
 11
677.3568777175
 21
99.1262150842
  0
LINE
  5
347
100
AcDbEntity
  8
0
100
AcDbLine
 62
7
  6
CONTINUOUS
 10
677.0397249419
 20
95.8104783129
 11
677.1129300227
 21
96.0836833936
  0
LINE
  5
348
100
AcDbEntity
  8
0
100
AcDbLine
 62
7
  6
CONTINUOUS
 10
679.469918494
 20
99.7273069524
 11
678.7473602495
 21
97.0306828727
  0
LINE
  5
349
100
AcDbEntity
  8
0
100
AcDbLine
 62
7
  6
CONTINUOUS
 10
815.1655135103
 20
148.1133798958
 11
814.1844858017
 21
151.7746251478
  0
LINE
  5
34A
100
AcDbEntity
  8
0
100
AcDbLine
 62
7
  6
CONTINUOUS
 10
807.7460432053
 20
187.2258031816
 11
781.0876815597
 21
286.7161632894
  0
LINE
  5
34B
100
AcDbEntity
  8
0
100
AcDbLine
 62
7
  6
CONTINUOUS
 10
824.4309457206
 20
140.4117124956
 11
819.1957326558
 21
159.949793642
  0
LINE
  5
34C
100
AcDbEntity
  8
0
100
AcDbLine
 62
7
  6
CONTINUOUS
 10
834.0902039835
 20
142.9999029466
 11
828.8549909853
 21
162.5379838445
  0
LINE
  5
34D
100
AcDbEntity
  8
0
100
AcDbLine
 62
7
  6
CONTINUOUS
 10
679.4891912841
 20
96.8319098461
 11
680.2117495286
 21
99.5285339257
  0
LINE
  5
34E
100
AcDbEntity
  8
KONSTRUKTIONSELEMENTE
100
AcDbLine
 62
7
  6
CONTINUOUS
 10
690.1422745648
 20
132.5901559975
 11
693.4995823484
 21
145.1197992225
  0
LINE
  5
34F
100
AcDbEntity
  8
KONSTRUKTIONSELEMENTE
100
AcDbLine
 62
7
  6
CONTINUOUS
 10
682.4486829307
 20
102.9113552999
 11
688.2602722778
 21
124.6005020162
  0
LINE
  5
350
100
AcDbEntity
  8
KONSTRUKTIONSELEMENTE
100
AcDbLine
 62
7
  6
CONTINUOUS
 10
698.2792816444
 20
161.9919540135
 11
699.024584414
 21
164.7734618168
  0
LINE
  5
351
100
AcDbEntity
  8
KONSTRUKTIONSELEMENTE
100
AcDbLine
 62
7
  6
CONTINUOUS
 10
701.2875842579
 20
173.2190922117
 11
703.2553726557
 21
180.5629784907
  0
LINE
  5
352
100
AcDbEntity
  8
KONSTRUKTIONSELEMENTE
100
AcDbLine
 62
7
  6
CONTINUOUS
 10
699.5966294884
 20
163.0446597935
 11
697.631644841
 21
155.7112372532
  0
LINE
  5
353
100
AcDbEntity
  8
KONSTRUKTIONSELEMENTE
100
AcDbLine
 62
7
  6
CONTINUOUS
 10
691.5440706051
 20
132.9921009103
 11
688.7988800768
 21
122.7469103819
  0
LINE
  5
354
100
AcDbEntity
  8
0
100
AcDbLine
 62
7
  6
CONTINUOUS
 10
683.1281773819
 20
98.7470794376
 11
682.4056191375
 21
96.050455358
  0
LINE
  5
355
100
AcDbEntity
  8
0
100
AcDbLine
 62
7
  6
CONTINUOUS
 10
702.1329512471
 20
167.5881689082
 11
701.1457532925
 21
163.9038959846
  0
LINE
  5
356
100
AcDbEntity
  8
0
100
AcDbLine
 62
7
  6
CONTINUOUS
 10
695.0850638082
 20
140.4117124956
 11
697.6311469278
 21
149.9138240584
  0
LINE
  5
357
100
AcDbEntity
  8
KONSTRUKTIONSELEMENTE
100
AcDbLine
 62
7
  6
CONTINUOUS
 10
697.6311469278
 20
149.9138240584
 11
700.320276873
 21
159.949793642
  0
LINE
  5
358
100
AcDbEntity
  8
0
100
AcDbLine
 62
7
  6
CONTINUOUS
 10
683.1474501721
 20
95.8516823314
 11
683.8700084165
 21
98.548306411
  0
LINE
  5
359
100
AcDbEntity
  8
0
100
AcDbLine
 62
7
  6
CONTINUOUS
 10
701.546861739
 20
163.7964193003
 11
702.5340596936
 21
167.4806922239
  0
LINE
  5
35A
100
AcDbEntity
  8
0
100
AcDbLine
 62
7
  6
CONTINUOUS
 10
703.0688709237
 20
167.3373899867
 11
702.0816729691
 21
163.6531170631
  0
LINE
  5
35B
100
AcDbEntity
  8
0
100
AcDbLine
 62
7
  6
CONTINUOUS
 10
702.4827814156
 20
163.5456403787
 11
702.9238698697
 21
165.1918048999
  0
LINE
  5
35C
100
AcDbEntity
  8
0
100
AcDbLine
 62
7
  6
CONTINUOUS
 10
703.0498951254
 20
165.6621375575
 11
703.3649583237
 21
166.8379694211
  0
LINE
  5
35D
100
AcDbEntity
  8
0
100
AcDbLine
 62
7
  6
CONTINUOUS
 10
685.4927638047
 20
98.1134904152
 11
685.3522100496
 21
97.5889366602
  0
LINE
  5
35E
100
AcDbEntity
  8
0
100
AcDbLine
 62
7
  6
CONTINUOUS
 10
685.2292255139
 20
97.1299521245
 11
684.3507645449
 21
93.8514911554
  0
LINE
  5
35F
100
AcDbEntity
  8
0
100
AcDbLine
 62
7
  6
CONTINUOUS
 10
685.239005741
 20
94.1991282903
 11
685.9710565485
 21
96.9311790979
  0
LINE
  5
360
100
AcDbEntity
  8
0
100
AcDbLine
 62
7
  6
CONTINUOUS
 10
704.9102182935
 20
165.919817237
 11
704.8472056068
 21
165.6846506886
  0
LINE
  5
361
100
AcDbEntity
  8
KONSTRUKTIONSELEMENTE
100
AcDbLine
 62
7
  6
CONTINUOUS
 10
695.8907368234
 20
131.8274152073
 11
693.1455462951
 21
121.5822246789
  0
LINE
  5
362
100
AcDbEntity
  8
0
100
AcDbLine
 62
7
  6
CONTINUOUS
 10
705.227309844
 20
165.498785228
 11
705.31132674
 21
165.8123405526
  0
LINE
  5
363
100
AcDbEntity
  8
0
100
AcDbLine
 62
7
  6
CONTINUOUS
 10
705.8079683045
 20
165.2591814252
 11
705.4929051356
 21
164.0833496715
  0
LINE
  5
364
100
AcDbEntity
  8
0
100
AcDbLine
 62
7
  6
CONTINUOUS
 10
738.4135170815
 20
286.6608883042
 11
711.7847772112
 21
187.2810781669
  0
LINE
  5
365
100
AcDbEntity
  8
0
100
AcDbLine
 62
7
  6
CONTINUOUS
 10
705.8940135821
 20
163.9758729871
 11
706.209076751
 21
165.1517047409
  0
LINE
  5
366
100
AcDbEntity
  8
0
100
AcDbLine
 62
7
  6
CONTINUOUS
 10
707.307381044
 20
164.4373308067
 11
707.1813557882
 21
163.9669981491
  0
LINE
  5
367
100
AcDbEntity
  8
0
100
AcDbLine
 62
7
  6
CONTINUOUS
 10
688.9331671765
 20
95.2121717264
 11
688.8599620958
 21
94.9389666457
  0
LINE
  5
368
100
AcDbEntity
  8
0
100
AcDbLine
 62
7
  6
CONTINUOUS
 10
707.7830184579
 20
163.8057831226
 11
707.6149847542
 21
163.1786728027
  0
LINE
  5
369
100
AcDbEntity
  8
0
100
AcDbLine
 62
7
  6
CONTINUOUS
 10
707.9950889914
 20
162.9928073421
 11
708.3101521602
 21
164.1686390959
  0
LINE
  5
36A
100
AcDbEntity
  8
KONSTRUKTIONSELEMENTE
100
AcDbLine
 62
7
  6
CONTINUOUS
 10
704.3504960185
 20
148.1133798958
 11
705.3315237271
 21
151.7746251478
  0
LINE
  5
36B
100
AcDbEntity
  8
0
100
AcDbLine
 62
7
  6
CONTINUOUS
 10
711.8227849175
 20
162.3032466585
 11
711.7597722896
 21
162.0680803297
  0
LINE
  5
36C
100
AcDbEntity
  8
0
100
AcDbLine
 62
7
  6
CONTINUOUS
 10
712.3097202856
 20
163.8531095812
 11
712.2467076577
 21
163.6179432524
  0
LINE
  5
36D
100
AcDbEntity
  8
0
100
AcDbLine
 62
7
  6
CONTINUOUS
 10
712.0940288183
 20
161.9785165628
 11
712.1570414462
 21
162.2136828916
  0
LINE
  5
36E
100
AcDbEntity
  8
0
100
AcDbLine
 62
7
  6
CONTINUOUS
 10
712.6019691608
 20
163.6067680568
 11
712.6439775794
 21
163.7635456093
  0
LINE
  5
36F
100
AcDbEntity
  8
0
100
AcDbLine
 62
7
  6
CONTINUOUS
 10
714.2484113653
 20
163.3336388721
 11
714.2064029468
 21
163.1768613195
  0
LINE
  5
370
100
AcDbEntity
  8
0
100
AcDbLine
 62
7
  6
CONTINUOUS
 10
713.8951783027
 20
161.7479505246
 11
713.8321656749
 21
161.5127841958
  0
LINE
  5
371
100
AcDbEntity
  8
0
100
AcDbLine
 62
7
  6
CONTINUOUS
 10
714.5196552662
 20
163.0089087763
 11
714.5826678941
 21
163.2440751051
  0
LINE
  5
372
100
AcDbEntity
  8
0
100
AcDbLine
 62
7
  6
CONTINUOUS
 10
714.1664229686
 20
161.4232202238
 11
714.2294355965
 21
161.6583865526
  0
LINE
  5
373
100
AcDbEntity
  8
RUNDUNGEN
100
AcDbLine
 62
7
  6
CONTINUOUS
 10
688.860327231
 20
55.747796774
 11
687.7622510197
 21
51.6497205626
  0
LINE
  5
374
100
AcDbEntity
  8
RUNDUNGEN
100
AcDbLine
 62
7
  6
CONTINUOUS
 10
712.9338526137
 20
137.4776396784
 11
719.4694993768
 21
161.8690054587
  0
LINE
  5
375
100
AcDbEntity
  8
0
100
AcDbLine
 62
7
  6
CONTINUOUS
 10
720.2900290218
 20
158.3604403045
 11
722.2740622163
 21
165.7649529904
  0
LINE
  5
376
100
AcDbEntity
  8
0
100
AcDbLine
 62
7
  6
CONTINUOUS
 10
825.1327080785
 20
191.8845459935
 11
798.4743464329
 21
291.3749061012
  0
LINE
  5
377
100
AcDbEntity
  8
0
100
AcDbLine
 62
7
  6
CONTINUOUS
 10
838.2634699546
 20
154.3024586719
 11
837.282442246
 21
157.9637039239
  0
LINE
  5
378
100
AcDbEntity
  8
0
100
AcDbLine
 62
7
  6
CONTINUOUS
 10
851.0147449244
 20
149.3833157531
 11
844.4790981613
 21
173.7746815334
  0
LINE
  5
379
100
AcDbEntity
  8
0
100
AcDbLine
 62
7
  6
CONTINUOUS
 10
846.9439802555
 20
171.1464398016
 11
844.959947061
 21
178.5509524875
  0
LINE
  5
37A
100
AcDbEntity
  8
0
100
AcDbLine
 62
7
  6
CONTINUOUS
 10
789.859947061
 20
178.5509524875
 11
789.859947061
 21
193.3149529904
  0
LINE
  5
37B
100
AcDbEntity
  8
RUNDUNGEN
100
AcDbLine
 62
7
  6
CONTINUOUS
 10
694.8694122808
 20
52.6735656725
 11
697.0177626723
 21
60.6913184863
  0
LINE
  5
37C
100
AcDbEntity
  8
RUNDUNGEN
100
AcDbLine
 62
7
  6
CONTINUOUS
 10
716.2707865118
 20
99.1808910943
 11
717.1858500212
 21
102.5959546038
  0
LINE
  5
37D
100
AcDbEntity
  8
0
100
AcDbLine
 62
7
  6
CONTINUOUS
 10
705.979840945
 20
165.6332127113
 11
705.8079683045
 21
165.2591814252
  0
LINE
  5
37E
100
AcDbEntity
  8
0
100
AcDbLine
 62
7
  6
CONTINUOUS
 10
686.5957561759
 20
168.7267412885
 11
686.7775330547
 21
169.0981185066
  0
LINE
  5
37F
100
AcDbEntity
  8
0
100
AcDbLine
 62
7
  6
CONTINUOUS
 10
690.2800290996
 20
167.7395433339
 11
690.4618055392
 21
168.1109206697
  0
LINE
  5
380
100
AcDbEntity
  8
0
100
AcDbLine
 62
7
  6
CONTINUOUS
 10
686.3169989393
 20
169.2215182509
 11
686.1562262698
 21
168.9285298091
  0
LINE
  5
381
100
AcDbEntity
  8
0
100
AcDbLine
 62
7
  6
CONTINUOUS
 10
690.0012714237
 20
168.234320414
 11
689.8404991934
 21
167.9413318545
  0
LINE
  5
382
100
AcDbEntity
  8
0
100
AcDbLine
 62
7
  6
CONTINUOUS
 10
681.9380627193
 20
206.1009524875
 11
674.5560624678
 21
193.3149529904
  0
LINE
  5
383
100
AcDbEntity
  8
0
100
AcDbLine
 62
7
  6
CONTINUOUS
 10
846.9439802555
 20
171.1464398016
 11
847.2078242186
 21
163.5909372476
  0
LINE
  5
384
100
AcDbEntity
  8
0
100
AcDbLine
 62
7
  6
CONTINUOUS
 10
706.209076751
 20
165.1517047409
 11
706.3599451234
 21
165.4473470311
  0
LINE
  5
385
100
AcDbEntity
  8
0
100
AcDbLine
 62
7
  6
CONTINUOUS
 10
707.8442209867
 20
162.6971648945
 11
707.9950889914
 21
162.9928073421
  0
LINE
  5
386
100
AcDbEntity
  8
0
100
AcDbLine
 62
7
  6
CONTINUOUS
 10
704.8472056068
 20
165.6846506886
 11
704.7173416349
 21
165.4673971234
  0
LINE
  5
387
100
AcDbEntity
  8
0
100
AcDbLine
 62
7
  6
CONTINUOUS
 10
705.0974456809
 20
165.2815317141
 11
705.227309844
 21
165.498785228
  0
LINE
  5
388
100
AcDbEntity
  8
0
100
AcDbLine
 62
7
  6
CONTINUOUS
 10
683.2200644412
 20
171.4796256985
 11
683.0802962006
 21
171.2650259741
  0
LINE
  5
389
100
AcDbEntity
  8
0
100
AcDbLine
 62
7
  6
CONTINUOUS
 10
683.5198261067
 20
171.0632374535
 11
683.6595943473
 21
171.2778371779
  0
LINE
  5
38A
100
AcDbEntity
  8
0
100
AcDbLine
 62
7
  6
CONTINUOUS
 10
844.959947061
 20
193.3149529904
 11
844.959947061
 21
178.5509524875
  0
LINE
  5
38B
100
AcDbEntity
  8
0
100
AcDbLine
 62
7
  6
CONTINUOUS
 10
720.2900290218
 20
158.3604403045
 11
716.7407733195
 21
151.6852611729
  0
LINE
  5
38C
100
AcDbEntity
  8
0
100
AcDbLine
 62
7
  6
CONTINUOUS
 10
722.2740622163
 20
165.7649529904
 11
729.6560624678
 21
178.5509524875
  0
LINE
  5
38D
100
AcDbEntity
  8
0
100
AcDbLine
 62
7
  6
CONTINUOUS
 10
707.6149847542
 20
163.1786728027
 11
707.485120591
 21
162.9614192888
  0
LINE
  5
38E
100
AcDbEntity
  8
0
100
AcDbLine
 62
7
  6
CONTINUOUS
 10
712.5484444614
 20
164.2092280524
 11
712.3097202856
 21
163.8531095812
  0
LINE
  5
38F
100
AcDbEntity
  8
0
100
AcDbLine
 62
7
  6
CONTINUOUS
 10
712.0615082989
 20
162.6593652249
 11
711.8227849175
 21
162.3032466585
  0
LINE
  5
390
100
AcDbEntity
  8
0
100
AcDbLine
 62
7
  6
CONTINUOUS
 10
713.9276988369
 20
161.0671019174
 11
714.1664229686
 21
161.4232202238
  0
LINE
  5
391
100
AcDbEntity
  8
0
100
AcDbLine
 62
7
  6
CONTINUOUS
 10
686.3582280986
 20
168.4543193375
 11
686.5957561759
 21
168.7267412885
  0
LINE
  5
392
100
AcDbEntity
  8
0
100
AcDbLine
 62
7
  6
CONTINUOUS
 10
690.0425005831
 20
167.4671215006
 11
690.2800290996
 21
167.7395433339
  0
LINE
  5
393
100
AcDbEntity
  8
0
100
AcDbLine
 62
7
  6
CONTINUOUS
 10
884.7580047644
 20
401.0929305449
 11
884.7580047644
 21
611.0929305449
  0
LINE
  5
394
100
AcDbEntity
  8
0
100
AcDbLine
 62
7
  6
CONTINUOUS
 10
789.859947061
 20
193.3149529904
 11
797.2419473125
 21
206.1009524875
  0
LINE
  5
395
100
AcDbEntity
  8
0
100
AcDbLine
 62
7
  6
CONTINUOUS
 10
706.1975604702
 20
165.9109422891
 11
705.979840945
 21
165.6332127113
  0
LINE
  5
396
100
AcDbEntity
  8
0
100
AcDbLine
 62
7
  6
CONTINUOUS
 10
714.3019361235
 20
162.731179096
 11
714.5196552662
 21
163.0089087763
  0
LINE
  5
397
100
AcDbEntity
  8
0
100
AcDbLine
 62
7
  6
CONTINUOUS
 10
706.3599451234
 20
165.4473470311
 11
706.5566604981
 21
165.6466880522
  0
LINE
  5
398
100
AcDbEntity
  8
0
100
AcDbLine
 62
7
  6
CONTINUOUS
 10
686.1562262698
 20
168.9285298091
 11
685.9397024165
 21
168.7344966892
  0
LINE
  5
399
100
AcDbEntity
  8
0
100
AcDbLine
 62
7
  6
CONTINUOUS
 10
689.8404991934
 20
167.9413318545
 11
689.6239749009
 21
167.7472988523
  0
LINE
  5
39A
100
AcDbEntity
  8
0
100
AcDbLine
 62
7
  6
CONTINUOUS
 10
920.7580047644
 20
401.0929305449
 11
920.7580047644
 21
611.0929305449
  0
LINE
  5
39B
100
AcDbEntity
  8
0
100
AcDbLine
 62
7
  6
CONTINUOUS
 10
712.6439775794
 20
163.7635456093
 11
712.8406925716
 21
163.9628867329
  0
LINE
  5
39C
100
AcDbEntity
  8
0
100
AcDbLine
 62
7
  6
CONTINUOUS
 10
714.2064029468
 20
163.1768613195
 11
714.0096872484
 21
162.9775206205
  0
LINE
  5
39D
100
AcDbEntity
  8
0
100
AcDbLine
 62
7
  6
CONTINUOUS
 10
704.8128748117
 20
165.0217148999
 11
705.0974456809
 21
165.2815317141
  0
LINE
  5
39E
100
AcDbEntity
  8
0
100
AcDbLine
 62
7
  6
CONTINUOUS
 10
712.1570414462
 20
162.2136828916
 11
712.4416125361
 21
162.4734997643
  0
LINE
  5
39F
100
AcDbEntity
  8
0
100
AcDbLine
 62
7
  6
CONTINUOUS
 10
713.8321656749
 20
161.5127841958
 11
713.5475945997
 21
161.252967378
  0
LINE
  5
3A0
100
AcDbEntity
  8
0
100
AcDbLine
 62
7
  6
CONTINUOUS
 10
683.2055422118
 20
170.8113822206
 11
683.5198261067
 21
171.0632374535
  0
LINE
  5
3A1
100
AcDbEntity
  8
0
100
AcDbLine
 62
7
  6
CONTINUOUS
 10
694.7240622163
 20
213.482952739
 11
681.9380627193
 21
206.1009524875
  0
LINE
  5
3A2
100
AcDbEntity
  8
0
100
AcDbLine
 62
7
  6
CONTINUOUS
 10
849.0017679108
 20
142.6341466026
 11
851.0147449244
 21
149.3833157531
  0
LINE
  5
3A3
100
AcDbEntity
  8
RUNDUNGEN
100
AcDbLine
 62
7
  6
CONTINUOUS
 10
707.8159788073
 20
132.6391762464
 11
712.9338526137
 21
137.4776396784
  0
LINE
  5
3A4
100
AcDbEntity
  8
0
100
AcDbLine
 62
7
  6
CONTINUOUS
 10
704.7173416349
 20
165.4673971234
 11
704.5416303371
 21
165.3464451494
  0
LINE
  5
3A5
100
AcDbEntity
  8
0
100
AcDbLine
 62
7
  6
CONTINUOUS
 10
706.5489830659
 20
166.1528462371
 11
706.1975604702
 21
165.9109422891
  0
LINE
  5
3A6
100
AcDbEntity
  8
0
100
AcDbLine
 62
7
  6
CONTINUOUS
 10
707.4927983837
 20
162.455260919
 11
707.8442209867
 21
162.6971648945
  0
LINE
  5
3A7
100
AcDbEntity
  8
0
100
AcDbLine
 62
7
  6
CONTINUOUS
 10
712.8120113126
 20
164.390656039
 11
712.5484444614
 21
164.2092280524
  0
LINE
  5
3A8
100
AcDbEntity
  8
0
100
AcDbLine
 62
7
  6
CONTINUOUS
 10
714.0383692724
 20
162.5497511094
 11
714.3019361235
 21
162.731179096
  0
LINE
  5
3A9
100
AcDbEntity
  8
0
100
AcDbLine
 62
7
  6
CONTINUOUS
 10
713.6641319784
 20
160.8856739033
 11
713.9276988369
 21
161.0671019174
  0
LINE
  5
3AA
100
AcDbEntity
  8
0
100
AcDbLine
 62
7
  6
CONTINUOUS
 10
683.0802962006
 20
171.2650259741
 11
682.884776337
 21
171.1493816893
  0
LINE
  5
3AB
100
AcDbEntity
  8
0
100
AcDbLine
 62
7
  6
CONTINUOUS
 10
685.967188364
 20
168.2230307404
 11
686.3582280986
 21
168.4543193375
  0
LINE
  5
3AC
100
AcDbEntity
  8
0
100
AcDbLine
 62
7
  6
CONTINUOUS
 10
689.6514612877
 20
167.2358327858
 11
690.0425005831
 21
167.4671215006
  0
LINE
  5
3AD
100
AcDbEntity
  8
0
100
AcDbLine
 62
7
  6
CONTINUOUS
 10
797.2419473125
 20
206.1009524875
 11
801.95876756
 21
208.8242099271
  0
LINE
  5
3AE
100
AcDbEntity
  8
0
100
AcDbLine
 62
7
  6
CONTINUOUS
 10
712.8406925716
 20
163.9628867329
 11
713.1711113405
 21
164.1264018022
  0
LINE
  5
3AF
100
AcDbEntity
  8
0
100
AcDbLine
 62
7
  6
CONTINUOUS
 10
712.3919270678
 20
162.8228802941
 11
712.0615082989
 21
162.6593652249
  0
LINE
  5
3B0
100
AcDbEntity
  8
0
100
AcDbLine
 62
7
  6
CONTINUOUS
 10
714.0096872484
 20
162.9775206205
 11
713.6792692445
 21
162.8140053462
  0
LINE
  5
3B1
100
AcDbEntity
  8
0
100
AcDbLine
 62
7
  6
CONTINUOUS
 10
706.5566604981
 20
165.6466880522
 11
706.79922314
 21
165.7497272626
  0
LINE
  5
3B2
100
AcDbEntity
  8
0
100
AcDbLine
 62
7
  6
CONTINUOUS
 10
707.485120591
 20
162.9614192888
 11
707.2425579345
 21
162.8583800235
  0
LINE
  5
3B3
100
AcDbEntity
  8
0
100
AcDbLine
 62
7
  6
CONTINUOUS
 10
685.9397024165
 20
168.7344966892
 11
685.6674269254
 21
168.6394189539
  0
LINE
  5
3B4
100
AcDbEntity
  8
0
100
AcDbLine
 62
7
  6
CONTINUOUS
 10
689.6239749009
 20
167.7472988523
 11
689.3516994099
 21
167.652221117
  0
LINE
  5
3B5
100
AcDbEntity
  8
RUNDUNGEN
100
AcDbLine
 62
7
  6
CONTINUOUS
 10
659.9723536473
 20
85.042501447
 11
645.0104721641
 21
76.3061783523
  0
LINE
  5
3B6
100
AcDbEntity
  8
RUNDUNGEN
100
AcDbLine
 62
7
  6
CONTINUOUS
 10
659.0572901378
 20
81.6274379376
 11
644.0954086546
 21
72.8911148428
  0
LINE
  5
3B7
100
AcDbEntity
  8
RUNDUNGEN
100
AcDbLine
 62
7
  6
CONTINUOUS
 10
701.5712786275
 20
102.903614872
 11
710.2620849579
 21
107.9782234459
  0
LINE
  5
3B8
100
AcDbEntity
  8
RUNDUNGEN
100
AcDbLine
 62
7
  6
CONTINUOUS
 10
700.656215118
 20
99.4885513626
 11
709.3470214485
 21
104.5631599365
  0
LINE
  5
3B9
100
AcDbEntity
  8
0
100
AcDbLine
 62
7
  6
CONTINUOUS
 10
713.2092804692
 20
164.5362586009
 11
712.8120113126
 21
164.390656039
  0
LINE
  5
3BA
100
AcDbEntity
  8
0
100
AcDbLine
 62
7
  6
CONTINUOUS
 10
713.2668620512
 20
160.7400715258
 11
713.6641319784
 21
160.8856739033
  0
LINE
  5
3BB
100
AcDbEntity
  8
RUNDUNGEN
100
AcDbLine
 62
7
  6
CONTINUOUS
 10
661.8215217515
 20
67.1696809533
 11
666.8263345804
 21
70.0920180906
  0
LINE
  5
3BC
100
AcDbEntity
  8
RUNDUNGEN
100
AcDbLine
 62
7
  6
CONTINUOUS
 10
689.7539580672
 20
83.4795807979
 11
715.9351975305
 21
98.7669473787
  0
LINE
  5
3BD
100
AcDbEntity
  8
0
100
AcDbLine
 62
7
  6
CONTINUOUS
 10
439.1616267529
 20
77.5333529653
 11
439.2097701918
 21
77.5386137833
  0
LINE
  5
3BE
100
AcDbEntity
  8
0
100
AcDbLine
 62
7
  6
CONTINUOUS
 10
425.080793653
 20
91.1343933122
 11
425.1289370919
 21
91.1396541302
  0
LINE
  5
3BF
100
AcDbEntity
  8
0
100
AcDbLine
 62
7
  6
CONTINUOUS
 10
416.3138643591
 20
96.5355607494
 11
416.2784132653
 21
96.5272165276
  0
LINE
  5
3C0
100
AcDbEntity
  8
0
100
AcDbLine
 62
7
  6
CONTINUOUS
 10
415.636826484
 20
97.1633791683
 11
415.6722775779
 21
97.1717233902
  0
LINE
  5
3C1
100
AcDbEntity
  8
0
100
AcDbLine
 62
7
  6
CONTINUOUS
 10
415.8276460575
 20
96.4984966158
 11
415.8843188194
 21
96.5050444597
  0
LINE
  5
3C2
100
AcDbEntity
  8
0
100
AcDbLine
 62
7
  6
CONTINUOUS
 10
415.2019345122
 20
96.9071611691
 11
415.4286255597
 21
96.9333525445
  0
LINE
  5
3C3
100
AcDbEntity
  8
0
100
AcDbLine
 62
7
  6
CONTINUOUS
 10
415.4852983216
 20
96.9399003883
 11
415.5797529157
 21
96.9508134603
  0
LINE
  5
3C4
100
AcDbEntity
  8
0
100
AcDbLine
 62
7
  6
CONTINUOUS
 10
415.4087441082
 20
97.1371803117
 11
415.314289514
 21
97.1262672397
  0
LINE
  5
3C5
100
AcDbEntity
  8
0
100
AcDbLine
 62
7
  6
CONTINUOUS
 10
415.2576167522
 20
97.1197193959
 11
415.0970439246
 21
97.1011671714
  0
LINE
  5
3C6
100
AcDbEntity
  8
0
100
AcDbLine
 62
7
  6
CONTINUOUS
 10
414.5447499798
 20
97.9649179623
 11
414.4880772179
 21
97.9583701185
  0
LINE
  5
3C7
100
AcDbEntity
  8
0
100
AcDbLine
 62
7
  6
CONTINUOUS
 10
410.6121853459
 20
102.0214218102
 11
410.5520060526
 21
102.0148457826
  0
LINE
  5
3C8
100
AcDbEntity
  8
0
100
AcDbLine
 62
7
  6
CONTINUOUS
 10
409.7696750704
 20
102.9646337668
 11
409.8298543638
 21
102.9712097636
  0
LINE
  5
3C9
100
AcDbEntity
  8
0
100
AcDbLine
 62
7
  6
CONTINUOUS
 10
410.5836002069
 20
105.6077948353
 11
410.5234209135
 21
105.6012188077
  0
LINE
  5
3CA
100
AcDbEntity
  8
0
100
AcDbLine
 62
7
  6
CONTINUOUS
 10
410.5836002069
 20
105.9528868131
 11
410.5234209135
 21
105.9463107855
  0
LINE
  5
3CB
100
AcDbEntity
  8
0
100
AcDbLine
 62
7
  6
CONTINUOUS
 10
410.5836002069
 20
106.578366131
 11
410.5234209135
 21
106.5717901034
  0
LINE
  5
3CC
100
AcDbEntity
  8
0
100
AcDbLine
 62
7
  6
CONTINUOUS
 10
410.5836002069
 20
106.9234583557
 11
410.5234209135
 21
106.9168823281
  0
LINE
  5
3CD
100
AcDbEntity
  8
0
100
AcDbLine
 62
7
  6
CONTINUOUS
 10
416.407008408
 20
96.3744204254
 11
416.4577519636
 21
96.3772109252
  0
LINE
  5
3CE
100
AcDbEntity
  8
0
100
AcDbLine
 62
7
  6
CONTINUOUS
 10
415.5436824531
 20
97.3245194709
 11
415.4929388952
 21
97.3217289738
  0
LINE
  5
3CF
100
AcDbEntity
  8
0
100
AcDbLine
 62
7
  6
CONTINUOUS
 10
430.3763154121
 20
82.5878532728
 11
430.4433308153
 21
82.5711395453
  0
LINE
  5
3D0
100
AcDbEntity
  8
0
100
AcDbLine
 62
7
  6
CONTINUOUS
 10
430.3227545407
 20
82.7222621686
 11
430.2289329608
 21
82.7456613909
  0
LINE
  5
3D1
100
AcDbEntity
  8
0
100
AcDbLine
 62
7
  6
CONTINUOUS
 10
429.6930155275
 20
83.3635228521
 11
429.7868371074
 21
83.3401236299
  0
LINE
  5
3D2
100
AcDbEntity
  8
0
100
AcDbLine
 62
7
  6
CONTINUOUS
 10
429.6394546749
 20
83.4979317263
 11
429.5724392716
 21
83.5146454538
  0
LINE
  5
3D3
100
AcDbEntity
  8
0
100
AcDbLine
 62
7
  6
CONTINUOUS
 10
429.5859040549
 20
83.6565482621
 11
429.652919439
 21
83.6398345394
  0
LINE
  5
3D4
100
AcDbEntity
  8
0
100
AcDbLine
 62
7
  6
CONTINUOUS
 10
429.237485682
 20
83.8887051256
 11
429.3179041736
 21
83.8686486507
  0
LINE
  5
3D5
100
AcDbEntity
  8
0
100
AcDbLine
 62
7
  6
CONTINUOUS
 10
429.1705217411
 20
84.0264567472
 11
429.1169094261
 21
84.0398277272
  0
LINE
  5
3D6
100
AcDbEntity
  8
0
100
AcDbLine
 62
7
  6
CONTINUOUS
 10
289.5054717618
 20
132.6391762464
 11
287.9054717618
 21
132.6391762464
  0
LINE
  5
3D7
100
AcDbEntity
  8
0
100
AcDbLine
 62
7
  6
CONTINUOUS
 10
410.792723226
 20
101.674489574
 11
410.9130818127
 21
101.6445051166
  0
LINE
  5
3D8
100
AcDbEntity
  8
0
100
AcDbLine
 62
7
  6
CONTINUOUS
 10
410.5098805135
 20
101.897354304
 11
410.4891006402
 21
101.9025311141
  0
LINE
  5
3D9
100
AcDbEntity
  8
0
100
AcDbLine
 62
7
  6
CONTINUOUS
 10
410.792723226
 20
102.1705593848
 11
410.6723646393
 21
102.2005438576
  0
LINE
  5
3DA
100
AcDbEntity
  8
0
100
AcDbLine
 62
7
  6
CONTINUOUS
 10
412.0880826671
 20
103.0977318964
 11
411.9677240804
 21
103.1277163538
  0
LINE
  5
3DB
100
AcDbEntity
  8
0
100
AcDbLine
 62
7
  6
CONTINUOUS
 10
410.944675967
 20
104.0727684355
 11
411.0048552603
 21
104.0577762145
  0
LINE
  5
3DC
100
AcDbEntity
  8
0
100
AcDbLine
 62
7
  6
CONTINUOUS
 10
410.7821918412
 20
104.2009439776
 11
410.7436610789
 21
104.2105429788
  0
LINE
  5
3DD
100
AcDbEntity
  8
0
100
AcDbLine
 62
7
  6
CONTINUOUS
 10
411.1853931404
 20
104.2284820685
 11
411.3057517271
 21
104.1984975957
  0
LINE
  5
3DE
100
AcDbEntity
  8
0
100
AcDbLine
 62
7
  6
CONTINUOUS
 10
411.0650345537
 20
104.4741490584
 11
411.0048552603
 21
104.4891412639
  0
LINE
  5
3DF
100
AcDbEntity
  8
0
100
AcDbLine
 62
7
  6
CONTINUOUS
 10
410.7641380869
 20
105.3255672832
 11
410.8243173803
 21
105.3105751394
  0
LINE
  5
3E0
100
AcDbEntity
  8
0
100
AcDbLine
 62
7
  6
CONTINUOUS
 10
410.7641380869
 20
105.6706593845
 11
410.8243173803
 21
105.6556671172
  0
LINE
  5
3E1
100
AcDbEntity
  8
0
100
AcDbLine
 62
7
  6
CONTINUOUS
 10
410.7641380869
 20
106.2961388258
 11
410.8243173803
 21
106.2811464351
  0
LINE
  5
3E2
100
AcDbEntity
  8
0
100
AcDbLine
 62
7
  6
CONTINUOUS
 10
410.7641380869
 20
106.6412308037
 11
410.8243173803
 21
106.6262386598
  0
LINE
  5
3E3
100
AcDbEntity
  8
0
100
AcDbLine
 62
7
  6
CONTINUOUS
 10
431.07452481
 20
82.4110532044
 11
431.0028024336
 21
82.4319627074
  0
LINE
  5
3E4
100
AcDbEntity
  8
0
100
AcDbLine
 62
7
  6
CONTINUOUS
 10
430.0786672035
 20
83.5383679766
 11
430.1503894714
 21
83.5174585311
  0
LINE
  5
3E5
100
AcDbEntity
  8
0
100
AcDbLine
 62
7
  6
CONTINUOUS
 10
432.5176959248
 20
82.0701456042
 11
435.7836822486
 21
80.9859974266
  0
LINE
  5
3E6
100
AcDbEntity
  8
0
100
AcDbLine
 62
7
  6
CONTINUOUS
 10
435.5008395361
 20
81.2304304361
 11
431.9862342445
 21
82.3971079859
  0
LINE
  5
3E7
100
AcDbEntity
  8
0
100
AcDbLine
 62
7
  6
CONTINUOUS
 10
435.7836822486
 20
81.5036355168
 11
431.7011993439
 21
82.8588207388
  0
LINE
  5
3E8
100
AcDbEntity
  8
0
100
AcDbLine
 62
7
  6
CONTINUOUS
 10
431.1179933753
 20
82.2852740814
 11
431.2086677753
 21
82.2543151823
  0
LINE
  5
3E9
100
AcDbEntity
  8
0
100
AcDbLine
 62
7
  6
CONTINUOUS
 10
430.0351985458
 20
83.6641471365
 11
429.9445241439
 21
83.6951060382
  0
LINE
  5
3EA
100
AcDbEntity
  8
0
100
AcDbLine
 62
7
  6
CONTINUOUS
 10
416.3152532736
 20
96.4077429009
 11
416.407008408
 21
96.3744204254
  0
LINE
  5
3EB
100
AcDbEntity
  8
0
100
AcDbLine
 62
7
  6
CONTINUOUS
 10
416.2784132653
 20
96.5272165276
 11
416.1866581309
 21
96.5605390031
  0
LINE
  5
3EC
100
AcDbEntity
  8
0
100
AcDbLine
 62
7
  6
CONTINUOUS
 10
415.8689922366
 20
96.8244372508
 11
415.7772371023
 21
96.8577597263
  0
LINE
  5
3ED
100
AcDbEntity
  8
0
100
AcDbLine
 62
7
  6
CONTINUOUS
 10
415.5457658417
 20
97.1327927144
 11
415.6528135276
 21
97.0939164824
  0
LINE
  5
3EE
100
AcDbEntity
  8
0
100
AcDbLine
 62
7
  6
CONTINUOUS
 10
415.6722775779
 20
97.1717233902
 11
415.7640327122
 21
97.1384009147
  0
LINE
  5
3EF
100
AcDbEntity
  8
0
100
AcDbLine
 62
7
  6
CONTINUOUS
 10
415.6354375875
 20
97.2911969954
 11
415.5436824531
 21
97.3245194709
  0
LINE
  5
3F0
100
AcDbEntity
  8
0
100
AcDbLine
 62
7
  6
CONTINUOUS
 10
415.0821288285
 20
97.7467676201
 11
415.5256120364
 21
97.5857089672
  0
LINE
  5
3F1
100
AcDbEntity
  8
0
100
AcDbLine
 62
7
  6
CONTINUOUS
 10
415.3970169116
 20
97.738505048
 11
414.877071121
 21
97.9273324198
  0
LINE
  5
3F2
100
AcDbEntity
  8
0
100
AcDbLine
 62
7
  6
CONTINUOUS
 10
439.0653398751
 20
77.5745951259
 11
439.1616267529
 21
77.5333529653
  0
LINE
  5
3F3
100
AcDbEntity
  8
0
100
AcDbLine
 62
7
  6
CONTINUOUS
 10
439.0171964236
 20
77.741880346
 11
438.9209095542
 21
77.7831225109
  0
LINE
  5
3F4
100
AcDbEntity
  8
0
100
AcDbLine
 62
7
  6
CONTINUOUS
 10
287.9054717618
 20
142.6341466026
 11
289.5054717618
 21
142.6341466026
  0
LINE
  5
3F5
100
AcDbEntity
  8
0
100
AcDbLine
 62
7
  6
CONTINUOUS
 10
282.3645984768
 20
149.3833157531
 11
295.0463450467
 21
149.3833157531
  0
LINE
  5
3F6
100
AcDbEntity
  8
0
100
AcDbLine
 62
7
  6
CONTINUOUS
 10
286.9554717618
 20
163.5909372476
 11
290.4554717618
 21
163.5909372476
  0
LINE
  5
3F7
100
AcDbEntity
  8
0
100
AcDbLine
 62
7
  6
CONTINUOUS
 10
411.9963092406
 20
100.4256417408
 11
412.1768471364
 21
100.3590967908
  0
LINE
  5
3F8
100
AcDbEntity
  8
0
100
AcDbLine
 62
7
  6
CONTINUOUS
 10
412.2084412749
 20
102.8304966299
 11
412.3889791708
 21
102.7639516799
  0
LINE
  5
3F9
100
AcDbEntity
  8
0
100
AcDbLine
 62
7
  6
CONTINUOUS
 10
409.8614485181
 20
105.6367238944
 11
409.680910638
 21
105.703268806
  0
LINE
  5
3FA
100
AcDbEntity
  8
0
100
AcDbLine
 62
7
  6
CONTINUOUS
 10
424.9845067752
 20
91.1756354728
 11
425.080793653
 21
91.1343933122
  0
LINE
  5
3FB
100
AcDbEntity
  8
0
100
AcDbLine
 62
7
  6
CONTINUOUS
 10
424.9363633236
 20
91.3429206929
 11
424.8400764543
 21
91.3841628578
  0
LINE
  5
3FC
100
AcDbEntity
  8
0
100
AcDbLine
 62
7
  6
CONTINUOUS
 10
410.5520060526
 20
102.0148457826
 11
410.4316474659
 21
102.0663984732
  0
LINE
  5
3FD
100
AcDbEntity
  8
0
100
AcDbLine
 62
7
  6
CONTINUOUS
 10
411.0334403994
 20
101.8302032225
 11
411.1537989861
 21
101.7786505164
  0
LINE
  5
3FE
100
AcDbEntity
  8
RUNDUNGEN
100
AcDbLine
 62
7
  6
CONTINUOUS
 10
401.8061626148
 20
113.5166388599
 11
403.4284817655
 21
112.7976474933
  0
LINE
  5
3FF
100
AcDbEntity
  8
RUNDUNGEN
100
AcDbLine
 62
7
  6
CONTINUOUS
 10
410.273847717
 20
110.3711498526
 11
409.2196620625
 21
110.8383516261
  0
LINE
  5
400
100
AcDbEntity
  8
0
100
AcDbLine
 62
7
  6
CONTINUOUS
 10
409.6493164837
 20
103.2534372539
 11
409.4687786036
 21
103.3415504604
  0
LINE
  5
401
100
AcDbEntity
  8
0
100
AcDbLine
 62
7
  6
CONTINUOUS
 10
410.9627297213
 20
104.1128307711
 11
410.7821918412
 21
104.2009439776
  0
LINE
  5
402
100
AcDbEntity
  8
0
100
AcDbLine
 62
7
  6
CONTINUOUS
 10
410.8243173803
 20
104.3184354254
 11
410.6437795002
 21
104.4065486164
  0
LINE
  5
403
100
AcDbEntity
  8
0
100
AcDbLine
 62
7
  6
CONTINUOUS
 10
411.2455724338
 20
104.3860358519
 11
411.0650345537
 21
104.4741490584
  0
LINE
  5
404
100
AcDbEntity
  8
0
100
AcDbLine
 62
7
  6
CONTINUOUS
 10
409.9818071048
 20
105.3910569045
 11
410.1623449848
 21
105.302943698
  0
LINE
  5
405
100
AcDbEntity
  8
0
100
AcDbLine
 62
7
  6
CONTINUOUS
 10
430.282504128
 20
82.6354600751
 11
430.3763154121
 21
82.5878532728
  0
LINE
  5
406
100
AcDbEntity
  8
0
100
AcDbLine
 62
7
  6
CONTINUOUS
 10
429.7332659661
 20
83.4503249243
 11
429.6394546749
 21
83.4979317263
  0
LINE
  5
407
100
AcDbEntity
  8
0
100
AcDbLine
 62
7
  6
CONTINUOUS
 10
429.2643330132
 20
83.9788499499
 11
429.1705217411
 21
84.0264567472
  0
LINE
  5
408
100
AcDbEntity
  8
0
100
AcDbLine
 62
7
  6
CONTINUOUS
 10
290.4554717618
 20
171.1464398016
 11
286.9554717618
 21
171.1464398016
  0
LINE
  5
409
100
AcDbEntity
  8
0
100
AcDbLine
 62
7
  6
CONTINUOUS
 10
286.0357859969
 20
178.5509524875
 11
291.3751575266
 21
178.5509524875
  0
LINE
  5
40A
100
AcDbEntity
  8
0
100
AcDbLine
 62
7
  6
CONTINUOUS
 10
416.2130716636
 20
96.4660708388
 11
416.3152532736
 21
96.4077429009
  0
LINE
  5
40B
100
AcDbEntity
  8
0
100
AcDbLine
 62
7
  6
CONTINUOUS
 10
415.7376191953
 20
97.2328690603
 11
415.6354375875
 21
97.2911969954
  0
LINE
  5
40C
100
AcDbEntity
  8
0
100
AcDbLine
 62
7
  6
CONTINUOUS
 10
415.8749481243
 20
98.0509823655
 11
415.5290210088
 21
98.2585041883
  0
LINE
  5
40D
100
AcDbEntity
  8
0
100
AcDbLine
 62
7
  6
CONTINUOUS
 10
415.9240322035
 20
98.0983939453
 11
421.9951000154
 21
94.4563577999
  0
LINE
  5
40E
100
AcDbEntity
  8
0
100
AcDbLine
 62
7
  6
CONTINUOUS
 10
421.9951000154
 20
94.8223832037
 11
414.9240322035
 21
99.0643197716
  0
LINE
  5
40F
100
AcDbEntity
  8
0
100
AcDbLine
 62
7
  6
CONTINUOUS
 10
416.1866581309
 20
96.5605390031
 11
416.0997689872
 21
96.6133132135
  0
LINE
  5
410
100
AcDbEntity
  8
0
100
AcDbLine
 62
7
  6
CONTINUOUS
 10
415.7640327122
 20
97.1384009147
 11
415.8509218559
 21
97.0856267043
  0
LINE
  5
411
100
AcDbEntity
  8
0
100
AcDbLine
 62
7
  6
CONTINUOUS
 10
411.8157713394
 20
100.729437477
 11
411.6352334172
 21
100.8391189574
  0
LINE
  5
412
100
AcDbEntity
  8
0
100
AcDbLine
 62
7
  6
CONTINUOUS
 10
410.5520060526
 20
101.8207314911
 11
410.792723226
 21
101.674489574
  0
LINE
  5
413
100
AcDbEntity
  8
0
100
AcDbLine
 62
7
  6
CONTINUOUS
 10
410.7505976869
 20
101.7511124256
 11
410.5098805135
 21
101.897354304
  0
LINE
  5
414
100
AcDbEntity
  8
0
100
AcDbLine
 62
7
  6
CONTINUOUS
 10
411.0334403994
 20
102.0243175063
 11
410.792723226
 21
102.1705593848
  0
LINE
  5
415
100
AcDbEntity
  8
0
100
AcDbLine
 62
7
  6
CONTINUOUS
 10
409.8298543638
 20
102.9712097636
 11
409.9502129505
 21
102.8980888243
  0
LINE
  5
416
100
AcDbEntity
  8
0
100
AcDbLine
 62
7
  6
CONTINUOUS
 10
412.0279033738
 20
102.9401780938
 11
412.2084412749
 21
102.8304966299
  0
LINE
  5
417
100
AcDbEntity
  8
0
100
AcDbLine
 62
7
  6
CONTINUOUS
 10
410.7641380869
 20
104.1824498752
 11
410.944675967
 21
104.0727684355
  0
LINE
  5
418
100
AcDbEntity
  8
0
100
AcDbLine
 62
7
  6
CONTINUOUS
 10
410.0419863981
 20
105.5270424547
 11
409.8614485181
 21
105.6367238944
  0
LINE
  5
419
100
AcDbEntity
  8
0
100
AcDbLine
 62
7
  6
CONTINUOUS
 10
410.8243173803
 20
105.3105751394
 11
410.8844966736
 21
105.2740145772
  0
LINE
  5
41A
100
AcDbEntity
  8
0
100
AcDbLine
 62
7
  6
CONTINUOUS
 10
410.7641380869
 20
105.4981133956
 11
410.5836002069
 21
105.6077948353
  0
LINE
  5
41B
100
AcDbEntity
  8
0
100
AcDbLine
 62
7
  6
CONTINUOUS
 10
410.8243173803
 20
105.6556671172
 11
410.8844966736
 21
105.6191066785
  0
LINE
  5
41C
100
AcDbEntity
  8
0
100
AcDbLine
 62
7
  6
CONTINUOUS
 10
410.7039587936
 20
105.8797659356
 11
410.5836002069
 21
105.9528868131
  0
LINE
  5
41D
100
AcDbEntity
  8
0
100
AcDbLine
 62
7
  6
CONTINUOUS
 10
410.8243173803
 20
106.2811464351
 11
410.8844966736
 21
106.2445861198
  0
LINE
  5
41E
100
AcDbEntity
  8
0
100
AcDbLine
 62
7
  6
CONTINUOUS
 10
410.7641380869
 20
106.4686846913
 11
410.5836002069
 21
106.578366131
  0
LINE
  5
41F
100
AcDbEntity
  8
0
100
AcDbLine
 62
7
  6
CONTINUOUS
 10
410.8243173803
 20
106.6262386598
 11
410.8844966736
 21
106.5896780976
  0
LINE
  5
420
100
AcDbEntity
  8
0
100
AcDbLine
 62
7
  6
CONTINUOUS
 10
410.7039587936
 20
106.8503372313
 11
410.5836002069
 21
106.9234583557
  0
LINE
  5
421
100
AcDbEntity
  8
0
100
AcDbLine
 62
7
  6
CONTINUOUS
 10
430.2289329608
 20
82.7456613909
 11
430.1619278461
 21
82.7865826981
  0
LINE
  5
422
100
AcDbEntity
  8
0
100
AcDbLine
 62
7
  6
CONTINUOUS
 10
429.7868371074
 20
83.3401236299
 11
429.8538422029
 21
83.2992023274
  0
LINE
  5
423
100
AcDbEntity
  8
0
100
AcDbLine
 62
7
  6
CONTINUOUS
 10
429.3179041736
 20
83.8686486507
 11
429.3849092883
 21
83.8277273434
  0
LINE
  5
424
100
AcDbEntity
  8
0
100
AcDbLine
 62
7
  6
CONTINUOUS
 10
430.9812426011
 20
82.3749084278
 11
431.1179933753
 21
82.2852740814
  0
LINE
  5
425
100
AcDbEntity
  8
0
100
AcDbLine
 62
7
  6
CONTINUOUS
 10
430.171949318
 20
83.5745127927
 11
430.0351985458
 21
83.6641471365
  0
LINE
  5
426
100
AcDbEntity
  8
0
100
AcDbLine
 62
7
  6
CONTINUOUS
 10
431.0028024336
 20
82.4319627074
 11
430.8850037954
 21
82.5115475949
  0
LINE
  5
427
100
AcDbEntity
  8
0
100
AcDbLine
 62
7
  6
CONTINUOUS
 10
430.1503894714
 20
83.5174585311
 11
430.268188218
 21
83.4378735861
  0
LINE
  5
428
100
AcDbEntity
  8
RUNDUNGEN
100
AcDbLine
 62
7
  6
CONTINUOUS
 10
420.07925567
 20
83.4795807979
 11
398.5365900762
 21
98.7669473787
  0
LINE
  5
429
100
AcDbEntity
  8
RUNDUNGEN
100
AcDbLine
 62
7
  6
CONTINUOUS
 10
446.5983895547
 20
70.5847444628
 11
442.4802877633
 21
73.5070816001
  0
LINE
  5
42A
100
AcDbEntity
  8
RUNDUNGEN
100
AcDbLine
 62
7
  6
CONTINUOUS
 10
423.614789576
 20
86.8946443074
 11
402.0721239821
 21
102.1820108882
  0
LINE
  5
42B
100
AcDbEntity
  8
0
100
AcDbLine
 62
7
  6
CONTINUOUS
 10
286.7004631059
 20
193.3149529904
 11
290.7104804176
 21
193.3149529904
  0
LINE
  5
42C
100
AcDbEntity
  8
0
100
AcDbLine
 62
7
  6
CONTINUOUS
 10
286.7004631059
 20
206.1009524875
 11
290.7104804176
 21
206.1009524875
  0
LINE
  5
42D
100
AcDbEntity
  8
0
100
AcDbLine
 62
7
  6
CONTINUOUS
 10
286.1821384284
 20
213.482952739
 11
291.2288050951
 21
213.482952739
  0
LINE
  5
42E
100
AcDbEntity
  8
0
100
AcDbLine
 62
7
  6
CONTINUOUS
 10
409.8900336571
 20
103.0856270805
 11
409.6493164837
 21
103.2534372539
  0
LINE
  5
42F
100
AcDbEntity
  8
0
100
AcDbLine
 62
7
  6
CONTINUOUS
 10
411.9677240804
 20
103.1277163538
 11
411.7270068649
 21
103.2955265602
  0
LINE
  5
430
100
AcDbEntity
  8
0
100
AcDbLine
 62
7
  6
CONTINUOUS
 10
411.3057517271
 20
104.1984975957
 11
411.5464689848
 21
104.0306873409
  0
LINE
  5
431
100
AcDbEntity
  8
RUNDUNGEN
100
AcDbLine
 62
7
  6
CONTINUOUS
 10
405.3295996959
 20
102.903614872
 11
398.1785580205
 21
107.9782234459
  0
LINE
  5
432
100
AcDbEntity
  8
RUNDUNGEN
100
AcDbLine
 62
7
  6
CONTINUOUS
 10
433.3487044801
 20
85.042501447
 11
445.6597644625
 21
76.3061783523
  0
LINE
  5
433
100
AcDbEntity
  8
0
100
AcDbLine
 62
7
  6
CONTINUOUS
 10
411.1537989861
 20
101.7786505164
 11
411.3343369505
 21
101.6474007004
  0
LINE
  5
434
100
AcDbEntity
  8
0
100
AcDbLine
 62
7
  6
CONTINUOUS
 10
410.6437795002
 20
104.4065486164
 11
410.4632416202
 21
104.5377983047
  0
LINE
  5
435
100
AcDbEntity
  8
0
100
AcDbLine
 62
7
  6
CONTINUOUS
 10
410.1623449848
 20
105.302943698
 11
410.3428830335
 21
105.1716938623
  0
LINE
  5
436
100
AcDbEntity
  8
0
100
AcDbLine
 62
7
  6
CONTINUOUS
 10
431.3484208847
 20
82.8975774602
 11
431.4235139558
 21
82.8421076449
  0
LINE
  5
437
100
AcDbEntity
  8
0
100
AcDbLine
 62
7
  6
CONTINUOUS
 10
431.2370293968
 20
83.1321817834
 11
431.1619363257
 21
83.1876515986
  0
LINE
  5
438
100
AcDbEntity
  8
0
100
AcDbLine
 62
7
  6
CONTINUOUS
 10
430.1351011016
 20
82.7448530226
 11
430.282504128
 21
82.6354600751
  0
LINE
  5
439
100
AcDbEntity
  8
0
100
AcDbLine
 62
7
  6
CONTINUOUS
 10
429.8806689568
 20
83.3409319922
 11
429.7332659661
 21
83.4503249243
  0
LINE
  5
43A
100
AcDbEntity
  8
0
100
AcDbLine
 62
7
  6
CONTINUOUS
 10
429.4117360421
 20
83.8694570082
 11
429.2643330132
 21
83.9788499499
  0
LINE
  5
43B
100
AcDbEntity
  8
0
100
AcDbLine
 62
7
  6
CONTINUOUS
 10
411.6954127106
 20
100.6515807069
 11
411.9963092406
 21
100.4256417408
  0
LINE
  5
43C
100
AcDbEntity
  8
0
100
AcDbLine
 62
7
  6
CONTINUOUS
 10
430.1619278461
 20
82.7865826981
 11
430.0681268626
 21
82.8583970752
  0
LINE
  5
43D
100
AcDbEntity
  8
0
100
AcDbLine
 62
7
  6
CONTINUOUS
 10
429.8538422029
 20
83.2992023274
 11
429.9476431864
 21
83.2273879503
  0
LINE
  5
43E
100
AcDbEntity
  8
0
100
AcDbLine
 62
7
  6
CONTINUOUS
 10
429.3849092883
 20
83.8277273434
 11
429.4787102717
 21
83.7559129664
  0
LINE
  5
43F
100
AcDbEntity
  8
0
100
AcDbLine
 62
7
  6
CONTINUOUS
 10
416.0594519117
 20
96.585517246
 11
416.2130716636
 21
96.4660708388
  0
LINE
  5
440
100
AcDbEntity
  8
0
100
AcDbLine
 62
7
  6
CONTINUOUS
 10
415.8912389404
 20
97.113422661
 11
415.7376191953
 21
97.2328690603
  0
LINE
  5
441
100
AcDbEntity
  8
0
100
AcDbLine
 62
7
  6
CONTINUOUS
 10
438.8727661195
 20
77.7260978921
 11
439.0653398751
 21
77.5745951259
  0
LINE
  5
442
100
AcDbEntity
  8
0
100
AcDbLine
 62
7
  6
CONTINUOUS
 10
410.8442442572
 20
101.6774382245
 11
410.7505976869
 21
101.7511124256
  0
LINE
  5
443
100
AcDbEntity
  8
0
100
AcDbLine
 62
7
  6
CONTINUOUS
 10
411.2741576571
 20
101.8349389566
 11
411.0334403994
 21
102.0243175063
  0
LINE
  5
444
100
AcDbEntity
  8
0
100
AcDbLine
 62
7
  6
CONTINUOUS
 10
409.9502129505
 20
102.8980888243
 11
410.0705715372
 21
102.8033995902
  0
LINE
  5
445
100
AcDbEntity
  8
0
100
AcDbLine
 62
7
  6
CONTINUOUS
 10
424.7919330196
 20
91.327138239
 11
424.9845067752
 21
91.1756354728
  0
LINE
  5
446
100
AcDbEntity
  8
0
100
AcDbLine
 62
7
  6
CONTINUOUS
 10
410.5234209135
 20
104.3718283029
 11
410.7641380869
 21
104.1824498752
  0
LINE
  5
447
100
AcDbEntity
  8
0
100
AcDbLine
 62
7
  6
CONTINUOUS
 10
410.8844966736
 20
105.2740145772
 11
411.0048552603
 21
105.1793254048
  0
LINE
  5
448
100
AcDbEntity
  8
0
100
AcDbLine
 62
7
  6
CONTINUOUS
 10
410.8844966736
 20
105.6191066785
 11
411.0048552603
 21
105.5244175061
  0
LINE
  5
449
100
AcDbEntity
  8
0
100
AcDbLine
 62
7
  6
CONTINUOUS
 10
410.8844966736
 20
106.2445861198
 11
411.0048552603
 21
106.1498968239
  0
LINE
  5
44A
100
AcDbEntity
  8
0
100
AcDbLine
 62
7
  6
CONTINUOUS
 10
410.8844966736
 20
106.5896780976
 11
411.0048552603
 21
106.4949888018
  0
LINE
  5
44B
100
AcDbEntity
  8
0
100
AcDbLine
 62
7
  6
CONTINUOUS
 10
416.0997689872
 20
96.6133132135
 11
416.0024533701
 21
96.6910928835
  0
LINE
  5
44C
100
AcDbEntity
  8
0
100
AcDbLine
 62
7
  6
CONTINUOUS
 10
415.8509218559
 20
97.0856267043
 11
415.948237473
 21
97.0078470342
  0
LINE
  5
44D
100
AcDbEntity
  8
0
100
AcDbLine
 62
7
  6
CONTINUOUS
 10
411.7270068649
 20
103.187685294
 11
412.0279033738
 21
102.9401780938
  0
LINE
  5
44E
100
AcDbEntity
  8
0
100
AcDbLine
 62
7
  6
CONTINUOUS
 10
411.0015560739
 20
104.0808935401
 11
410.9627297213
 21
104.1128307711
  0
LINE
  5
44F
100
AcDbEntity
  8
0
100
AcDbLine
 62
7
  6
CONTINUOUS
 10
411.5464689848
 20
104.1385286302
 11
411.2455724338
 21
104.3860358519
  0
LINE
  5
450
100
AcDbEntity
  8
0
100
AcDbLine
 62
7
  6
CONTINUOUS
 10
410.3428830335
 20
105.2795351516
 11
410.0419863981
 21
105.5270424547
  0
LINE
  5
451
100
AcDbEntity
  8
0
100
AcDbLine
 62
7
  6
CONTINUOUS
 10
411.0048552603
 20
105.6322587337
 11
410.7039587936
 21
105.8797659356
  0
LINE
  5
452
100
AcDbEntity
  8
0
100
AcDbLine
 62
7
  6
CONTINUOUS
 10
411.0048552603
 20
106.6028301529
 11
410.7039587936
 21
106.8503372313
  0
LINE
  5
453
100
AcDbEntity
  8
0
100
AcDbLine
 62
7
  6
CONTINUOUS
 10
430.8173675867
 20
82.5131687653
 11
430.9812426011
 21
82.3749084278
  0
LINE
  5
454
100
AcDbEntity
  8
0
100
AcDbLine
 62
7
  6
CONTINUOUS
 10
430.3358244349
 20
83.4362524054
 11
430.171949318
 21
83.5745127927
  0
LINE
  5
455
100
AcDbEntity
  8
0
100
AcDbLine
 62
7
  6
CONTINUOUS
 10
411.6352334172
 20
100.8391189574
 11
411.4546955372
 21
100.9919369097
  0
LINE
  5
456
100
AcDbEntity
  8
0
100
AcDbLine
 62
7
  6
CONTINUOUS
 10
438.9209095542
 20
77.7831225109
 11
438.7764792164
 21
77.9053769177
  0
LINE
  5
457
100
AcDbEntity
  8
0
100
AcDbLine
 62
7
  6
CONTINUOUS
 10
410.4316474659
 20
102.0663984732
 11
410.2511095858
 21
102.2192164256
  0
LINE
  5
458
100
AcDbEntity
  8
0
100
AcDbLine
 62
7
  6
CONTINUOUS
 10
410.0705715372
 20
102.9328091128
 11
409.8900336571
 21
103.0856270805
  0
LINE
  5
459
100
AcDbEntity
  8
0
100
AcDbLine
 62
7
  6
CONTINUOUS
 10
424.8400764543
 20
91.3841628578
 11
424.6956461165
 21
91.5064172646
  0
LINE
  5
45A
100
AcDbEntity
  8
0
100
AcDbLine
 62
7
  6
CONTINUOUS
 10
429.9476431864
 20
83.2273879503
 11
430.0280411007
 21
83.1589163159
  0
LINE
  5
45B
100
AcDbEntity
  8
0
100
AcDbLine
 62
7
  6
CONTINUOUS
 10
430.0012658091
 20
83.2382245453
 11
429.8806689568
 21
83.3409319922
  0
LINE
  5
45C
100
AcDbEntity
  8
0
100
AcDbLine
 62
7
  6
CONTINUOUS
 10
430.8850037954
 20
82.5115475949
 11
430.7820711317
 21
82.6003713485
  0
LINE
  5
45D
100
AcDbEntity
  8
0
100
AcDbLine
 62
7
  6
CONTINUOUS
 10
430.268188218
 20
83.4378735861
 11
430.3711208818
 21
83.3490498325
  0
LINE
  5
45E
100
AcDbEntity
  8
0
100
AcDbLine
 62
7
  6
CONTINUOUS
 10
411.4546955372
 20
100.8625273872
 11
411.6954127106
 21
100.6515807069
  0
LINE
  5
45F
100
AcDbEntity
  8
0
100
AcDbLine
 62
7
  6
CONTINUOUS
 10
410.3112888792
 20
102.0316781694
 11
410.5520060526
 21
101.8207314911
  0
LINE
  5
460
100
AcDbEntity
  8
0
100
AcDbLine
 62
7
  6
CONTINUOUS
 10
429.987708371
 20
82.8784535501
 11
430.1351011016
 21
82.7448530226
  0
LINE
  5
461
100
AcDbEntity
  8
0
100
AcDbLine
 62
7
  6
CONTINUOUS
 10
429.5591287633
 20
83.7358564915
 11
429.4117360421
 21
83.8694570082
  0
LINE
  5
462
100
AcDbEntity
  8
0
100
AcDbLine
 62
7
  6
CONTINUOUS
 10
430.0681268626
 20
82.8583970752
 11
429.9609330703
 21
82.9577617987
  0
LINE
  5
463
100
AcDbEntity
  8
0
100
AcDbLine
 62
7
  6
CONTINUOUS
 10
429.4787102717
 20
83.7559129664
 11
429.5859040549
 21
83.6565482621
  0
LINE
  5
464
100
AcDbEntity
  8
0
100
AcDbLine
 62
7
  6
CONTINUOUS
 10
415.9106982357
 20
96.724415359
 11
416.0594519117
 21
96.585517246
  0
LINE
  5
465
100
AcDbEntity
  8
0
100
AcDbLine
 62
7
  6
CONTINUOUS
 10
416.0399926074
 20
96.9745245587
 11
415.8912389404
 21
97.113422661
  0
LINE
  5
466
100
AcDbEntity
  8
0
100
AcDbLine
 62
7
  6
CONTINUOUS
 10
430.6913967297
 20
82.6313302502
 11
430.8173675867
 21
82.5131687653
  0
LINE
  5
467
100
AcDbEntity
  8
0
100
AcDbLine
 62
7
  6
CONTINUOUS
 10
430.4617952838
 20
83.3180909308
 11
430.3358244349
 21
83.4362524054
  0
LINE
  5
468
100
AcDbEntity
  8
0
100
AcDbLine
 62
7
  6
CONTINUOUS
 10
415.948237473
 20
97.0078470342
 11
416.0559795635
 21
96.9050619045
  0
LINE
  5
469
100
AcDbEntity
  8
KONSTRUKTIONSELEMENTE
100
AcDbLine
 62
7
  6
CONTINUOUS
 10
392.9639117851
 20
103.7548039479
 11
384.549341089
 21
111.8826551004
  0
LINE
  5
46A
100
AcDbEntity
  8
KONSTRUKTIONSELEMENTE
100
AcDbLine
 62
7
  6
CONTINUOUS
 10
331.7991752125
 20
162.8354026616
 11
323.3846045163
 21
170.9632538141
  0
LINE
  5
46B
100
AcDbEntity
  8
KONSTRUKTIONSELEMENTE
100
AcDbLine
 62
7
  6
CONTINUOUS
 10
364.7472611681
 20
133.133410603
 11
354.1406594503
 21
143.3786011314
  0
LINE
  5
46C
100
AcDbEntity
  8
RUNDUNGEN
100
AcDbLine
 62
7
  6
CONTINUOUS
 10
448.5116043099
 20
52.6735656725
 11
443.7465497073
 21
57.2762549769
  0
LINE
  5
46D
100
AcDbEntity
  8
KONSTRUKTIONSELEMENTE
100
AcDbLine
 62
7
  6
CONTINUOUS
 10
396.4376447381
 20
107.3510769313
 11
388.023074042
 21
115.4789280838
  0
LINE
  5
46E
100
AcDbEntity
  8
KONSTRUKTIONSELEMENTE
100
AcDbLine
 62
7
  6
CONTINUOUS
 10
335.2729081655
 20
166.431675645
 11
327.2191278779
 21
174.211030024
  0
LINE
  5
46F
100
AcDbEntity
  8
KONSTRUKTIONSELEMENTE
100
AcDbLine
 62
7
  6
CONTINUOUS
 10
367.8736208258
 20
136.370056288
 11
357.267019108
 21
146.6152468164
  0
LINE
  5
470
100
AcDbEntity
  8
KONSTRUKTIONSELEMENTE
100
AcDbLine
 62
7
  6
CONTINUOUS
 10
342.650174256
 20
160.8439940995
 11
353.2567759738
 21
150.5988035711
  0
LINE
  5
471
100
AcDbEntity
  8
KONSTRUKTIONSELEMENTE
100
AcDbLine
 62
7
  6
CONTINUOUS
 10
373.7628726282
 20
130.7914352163
 11
384.369474346
 21
120.5462446879
  0
LINE
  5
472
100
AcDbEntity
  8
RUNDUNGEN
100
AcDbLine
 62
7
  6
CONTINUOUS
 10
452.0471382158
 20
56.088629182
 11
447.2820836132
 21
60.6913184863
  0
LINE
  5
473
100
AcDbEntity
  8
RUNDUNGEN
100
AcDbLine
 62
7
  6
CONTINUOUS
 10
450.6329246535
 20
59.1628602834
 11
454.8755653406
 21
55.0647840721
  0
LINE
  5
474
100
AcDbEntity
  8
0
100
AcDbLine
 62
7
  6
CONTINUOUS
 10
408.2065177823
 20
100.6353785827
 11
413.1562652506
 21
95.8542896694
  0
LINE
  5
475
100
AcDbEntity
  8
0
100
AcDbLine
 62
7
  6
CONTINUOUS
 10
412.80271186
 20
96.3252055429
 11
408.5600711729
 21
100.4232817543
  0
LINE
  5
476
100
AcDbEntity
  8
0
100
AcDbLine
 62
7
  6
CONTINUOUS
 10
440.0263229357
 20
72.2291784034
 11
429.4197212179
 21
82.4743689318
  0
LINE
  5
477
100
AcDbEntity
  8
0
100
AcDbLine
 62
7
  6
CONTINUOUS
 10
426.2377407025
 20
85.5479260903
 11
414.9240322035
 21
96.4761293206
  0
LINE
  5
478
100
AcDbEntity
  8
0
100
AcDbLine
 62
7
  6
CONTINUOUS
 10
435.5008395361
 20
76.7039873136
 11
430.4096707115
 21
81.6216787672
  0
LINE
  5
479
100
AcDbEntity
  8
0
100
AcDbLine
 62
7
  6
CONTINUOUS
 10
430.1268279991
 20
81.894883848
 11
429.4197212179
 21
82.5778965499
  0
LINE
  5
47A
100
AcDbEntity
  8
0
100
AcDbLine
 62
7
  6
CONTINUOUS
 10
439.6727695451
 20
72.7000942769
 11
436.1372356391
 21
76.1151577864
  0
LINE
  5
47B
100
AcDbEntity
  8
0
100
AcDbLine
 62
7
  6
CONTINUOUS
 10
425.8841873119
 20
86.0188419638
 11
422.348653406
 21
89.4339054733
  0
LINE
  5
47C
100
AcDbEntity
  8
0
100
AcDbLine
 62
7
  6
CONTINUOUS
 10
421.6415466248
 20
90.1169181752
 11
415.9846923753
 21
95.5810197903
  0
LINE
  5
47D
100
AcDbEntity
  8
0
100
AcDbLine
 62
7
  6
CONTINUOUS
 10
415.6311389847
 20
95.9225261413
 11
414.9240322035
 21
96.6055388432
  0
LINE
  5
47E
100
AcDbEntity
  8
0
100
AcDbLine
 62
7
  6
CONTINUOUS
 10
412.8734225381
 20
98.6869131299
 11
412.80271186
 21
98.7552144001
  0
LINE
  5
47F
100
AcDbEntity
  8
0
100
AcDbLine
 62
7
  6
CONTINUOUS
 10
408.3418943573
 20
103.0640332323
 11
408.2065177823
 21
103.1947969624
  0
LINE
  5
480
100
AcDbEntity
  8
0
100
AcDbLine
 62
7
  6
CONTINUOUS
 10
408.5600711729
 20
103.2702912504
 11
412.80271186
 21
99.172215039
  0
LINE
  5
481
100
AcDbEntity
  8
0
100
AcDbLine
 62
7
  6
CONTINUOUS
 10
413.1562652506
 20
98.9601182106
 11
408.2065177823
 21
103.7412071239
  0
LINE
  5
482
100
AcDbEntity
  8
KONSTRUKTIONSELEMENTE
100
AcDbLine
 62
7
  6
CONTINUOUS
 10
345.7765339138
 20
164.0806397846
 11
356.3831356316
 21
153.8354492562
  0
LINE
  5
483
100
AcDbEntity
  8
KONSTRUKTIONSELEMENTE
100
AcDbLine
 62
7
  6
CONTINUOUS
 10
376.889232286
 20
134.0280809013
 11
387.4958340038
 21
123.7828903729
  0
LINE
  5
484
100
AcDbEntity
  8
0
100
AcDbLine
 62
7
  6
CONTINUOUS
 10
410.0705715372
 20
102.2641932668
 11
410.3112888792
 21
102.0316781694
  0
LINE
  5
485
100
AcDbEntity
  8
RUNDUNGEN
100
AcDbLine
 62
7
  6
CONTINUOUS
 10
451.3400314347
 20
62.4683566479
 11
447.0973907475
 21
66.5664328593
  0
LINE
  5
486
100
AcDbEntity
  8
0
100
AcDbLine
 62
7
  6
CONTINUOUS
 10
410.2511095858
 20
102.2192164256
 11
410.1307509991
 21
102.3354738929
  0
LINE
  5
487
100
AcDbEntity
  8
0
100
AcDbLine
 62
7
  6
CONTINUOUS
 10
411.3343369505
 20
101.6474007004
 11
411.5148748305
 21
101.4730144995
  0
LINE
  5
488
100
AcDbEntity
  8
0
100
AcDbLine
 62
7
  6
CONTINUOUS
 10
411.5750541239
 20
101.5442952884
 11
411.2741576571
 21
101.8349389566
  0
LINE
  5
489
100
AcDbEntity
  8
0
100
AcDbLine
 62
7
  6
CONTINUOUS
 10
411.5464689848
 20
103.3620714949
 11
411.7270068649
 21
103.187685294
  0
LINE
  5
48A
100
AcDbEntity
  8
0
100
AcDbLine
 62
7
  6
CONTINUOUS
 10
410.3428830335
 20
104.5462145039
 11
410.5234209135
 21
104.3718283029
  0
LINE
  5
48B
100
AcDbEntity
  8
0
100
AcDbLine
 62
7
  6
CONTINUOUS
 10
411.7270068649
 20
103.2955265602
 11
411.5464689848
 21
103.4699127612
  0
LINE
  5
48C
100
AcDbEntity
  8
0
100
AcDbLine
 62
7
  6
CONTINUOUS
 10
410.4632416202
 20
104.5377983047
 11
410.3428830335
 21
104.6540557721
  0
LINE
  5
48D
100
AcDbEntity
  8
KONSTRUKTIONSELEMENTE
100
AcDbLine
 62
7
  6
CONTINUOUS
 10
387.2898367884
 20
126.9582874221
 11
377.889366072
 21
136.0384448663
  0
LINE
  5
48E
100
AcDbEntity
  8
KONSTRUKTIONSELEMENTE
100
AcDbLine
 62
7
  6
CONTINUOUS
 10
356.3831356316
 20
156.8118682749
 11
347.2354510333
 21
165.6478530791
  0
LINE
  5
48F
100
AcDbEntity
  8
KONSTRUKTIONSELEMENTE
100
AcDbLine
 62
7
  6
CONTINUOUS
 10
362.272387434
 20
151.2332472031
 11
372.8789891518
 21
140.9880566747
  0
LINE
  5
490
100
AcDbEntity
  8
0
100
AcDbLine
 62
7
  6
CONTINUOUS
 10
423.6364904861
 20
92.3051731947
 11
423.8290642248
 21
92.119161247
  0
LINE
  5
491
100
AcDbEntity
  8
0
100
AcDbLine
 62
7
  6
CONTINUOUS
 10
437.717323586
 20
78.7041328479
 11
437.9098973247
 21
78.5181209001
  0
LINE
  5
492
100
AcDbEntity
  8
0
100
AcDbLine
 62
7
  6
CONTINUOUS
 10
410.3428830335
 20
105.1716938623
 11
410.4632416202
 21
105.0554363949
  0
LINE
  5
493
100
AcDbEntity
  8
0
100
AcDbLine
 62
7
  6
CONTINUOUS
 10
411.5464689848
 20
104.0306873409
 11
411.7270068649
 21
103.8563011399
  0
LINE
  5
494
100
AcDbEntity
  8
0
100
AcDbLine
 62
7
  6
CONTINUOUS
 10
410.5234209135
 20
105.1051489507
 11
410.3428830335
 21
105.2795351516
  0
LINE
  5
495
100
AcDbEntity
  8
0
100
AcDbLine
 62
7
  6
CONTINUOUS
 10
423.2513428737
 20
92.8152340486
 11
423.6364904861
 21
92.4432100229
  0
LINE
  5
496
100
AcDbEntity
  8
0
100
AcDbLine
 62
7
  6
CONTINUOUS
 10
423.8290642248
 20
92.2571980752
 11
424.7919330196
 21
91.327138239
  0
LINE
  5
497
100
AcDbEntity
  8
0
100
AcDbLine
 62
7
  6
CONTINUOUS
 10
437.3321759737
 20
79.2141937017
 11
437.717323586
 21
78.842169676
  0
LINE
  5
498
100
AcDbEntity
  8
0
100
AcDbLine
 62
7
  6
CONTINUOUS
 10
437.9098973247
 20
78.6561577283
 11
438.8727661195
 21
77.7260978921
  0
LINE
  5
499
100
AcDbEntity
  8
0
100
AcDbLine
 62
7
  6
CONTINUOUS
 10
411.7270068649
 20
103.9641424293
 11
411.5464689848
 21
104.1385286302
  0
LINE
  5
49A
100
AcDbEntity
  8
0
100
AcDbLine
 62
7
  6
CONTINUOUS
 10
438.7764792164
 20
77.9053769177
 11
437.9098973247
 21
78.7424307475
  0
LINE
  5
49B
100
AcDbEntity
  8
0
100
AcDbLine
 62
7
  6
CONTINUOUS
 10
437.717323586
 20
78.9284426952
 11
437.3321759737
 21
79.3004667208
  0
LINE
  5
49C
100
AcDbEntity
  8
0
100
AcDbLine
 62
7
  6
CONTINUOUS
 10
424.6956461165
 20
91.5064172646
 11
423.8290642248
 21
92.3434710944
  0
LINE
  5
49D
100
AcDbEntity
  8
0
100
AcDbLine
 62
7
  6
CONTINUOUS
 10
423.6364904861
 20
92.5294830421
 11
423.2513428737
 21
92.9015070677
  0
LINE
  5
49E
100
AcDbEntity
  8
0
100
AcDbLine
 62
7
  6
CONTINUOUS
 10
410.5234209135
 20
105.2992632345
 11
412.4491584694
 21
103.4391435946
  0
LINE
  5
49F
100
AcDbEntity
  8
0
100
AcDbLine
 62
7
  6
CONTINUOUS
 10
439.2579136307
 20
77.5956384103
 11
439.0653398751
 21
77.7816503743
  0
LINE
  5
4A0
100
AcDbEntity
  8
0
100
AcDbLine
 62
7
  6
CONTINUOUS
 10
425.1770805308
 20
91.1966787572
 11
424.9845067752
 21
91.3826907212
  0
LINE
  5
4A1
100
AcDbEntity
  8
0
100
AcDbLine
 62
7
  6
CONTINUOUS
 10
439.7434802232
 20
77.1323542247
 11
439.6727695451
 21
77.2006554949
  0
LINE
  5
4A2
100
AcDbEntity
  8
0
100
AcDbLine
 62
7
  6
CONTINUOUS
 10
435.9190588235
 20
80.8264616253
 11
435.7836822486
 21
80.9572253553
  0
LINE
  5
4A3
100
AcDbEntity
  8
0
100
AcDbLine
 62
7
  6
CONTINUOUS
 10
435.7382986141
 20
81.0010625799
 11
435.5008395361
 21
81.2304304361
  0
LINE
  5
4A4
100
AcDbEntity
  8
0
100
AcDbLine
 62
7
  6
CONTINUOUS
 10
425.9548979901
 20
90.4511019116
 11
425.8841873119
 21
90.5194031818
  0
LINE
  5
4A5
100
AcDbEntity
  8
0
100
AcDbLine
 62
7
  6
CONTINUOUS
 10
422.1304765904
 20
94.1452093122
 11
421.9951000154
 21
94.2759730422
  0
LINE
  5
4A6
100
AcDbEntity
  8
0
100
AcDbLine
 62
7
  6
CONTINUOUS
 10
437.9098973247
 20
78.9322313723
 11
437.717323586
 21
79.11824332
  0
LINE
  5
4A7
100
AcDbEntity
  8
0
100
AcDbLine
 62
7
  6
CONTINUOUS
 10
423.8290642248
 20
92.5332717192
 11
423.6364904861
 21
92.7192836669
  0
LINE
  5
4A8
100
AcDbEntity
  8
0
100
AcDbLine
 62
7
  6
CONTINUOUS
 10
412.4491584694
 20
103.546984884
 11
410.944675967
 21
105.0002033882
  0
LINE
  5
4A9
100
AcDbEntity
  8
0
100
AcDbLine
 62
7
  6
CONTINUOUS
 10
410.7039587936
 20
105.2327183229
 11
410.5234209135
 21
105.4071045238
  0
LINE
  5
4AA
100
AcDbEntity
  8
0
100
AcDbLine
 62
7
  6
CONTINUOUS
 10
411.0048552603
 20
105.1793254048
 11
412.4491584694
 21
103.7842356342
  0
LINE
  5
4AB
100
AcDbEntity
  8
0
100
AcDbLine
 62
7
  6
CONTINUOUS
 10
412.4491584694
 20
103.8920768618
 11
411.0048552603
 21
105.2871666324
  0
LINE
  5
4AC
100
AcDbEntity
  8
0
100
AcDbLine
 62
7
  6
CONTINUOUS
 10
422.348653406
 20
94.3514673302
 11
425.8841873119
 21
90.9364038208
  0
LINE
  5
4AD
100
AcDbEntity
  8
0
100
AcDbLine
 62
7
  6
CONTINUOUS
 10
436.1372356391
 20
81.0327196433
 11
439.6727695451
 21
77.6176561339
  0
LINE
  5
4AE
100
AcDbEntity
  8
0
100
AcDbLine
 62
7
  6
CONTINUOUS
 10
440.0263229357
 20
77.4055593055
 11
435.7836822486
 21
81.5036355168
  0
LINE
  5
4AF
100
AcDbEntity
  8
0
100
AcDbLine
 62
7
  6
CONTINUOUS
 10
426.2377407025
 20
90.7243069924
 11
421.9951000154
 21
94.8223832037
  0
LINE
  5
4B0
100
AcDbEntity
  8
0
100
AcDbLine
 62
7
  6
CONTINUOUS
 10
411.0048552603
 20
105.5244175061
 11
412.4491584694
 21
104.1293277355
  0
LINE
  5
4B1
100
AcDbEntity
  8
KONSTRUKTIONSELEMENTE
100
AcDbLine
 62
7
  6
CONTINUOUS
 10
333.3548101311
 20
180.5937329108
 11
337.3853187838
 21
176.70056051
  0
LINE
  5
4B2
100
AcDbEntity
  8
KONSTRUKTIONSELEMENTE
100
AcDbLine
 62
7
  6
CONTINUOUS
 10
337.7388721744
 20
176.3590541591
 11
341.7693808272
 21
172.4658817583
  0
LINE
  5
4B3
100
AcDbEntity
  8
KONSTRUKTIONSELEMENTE
100
AcDbLine
 62
7
  6
CONTINUOUS
 10
394.5195467037
 20
121.5131341971
 11
398.5500553565
 21
117.6199617963
  0
LINE
  5
4B4
100
AcDbEntity
  8
KONSTRUKTIONSELEMENTE
100
AcDbLine
 62
7
  6
CONTINUOUS
 10
398.9036087471
 20
117.2784554454
 11
402.9341173998
 21
113.3852830446
  0
LINE
  5
4B5
100
AcDbEntity
  8
0
100
AcDbLine
 62
7
  6
CONTINUOUS
 10
412.4491584694
 20
104.2371689631
 11
411.0048552603
 21
105.6322587337
  0
LINE
  5
4B6
100
AcDbEntity
  8
0
100
AcDbLine
 62
7
  6
CONTINUOUS
 10
410.5234209135
 20
106.2698345919
 11
412.4491584694
 21
104.409714952
  0
LINE
  5
4B7
100
AcDbEntity
  8
0
100
AcDbLine
 62
7
  6
CONTINUOUS
 10
412.4491584694
 20
104.5175563031
 11
410.944675967
 21
105.9707748074
  0
LINE
  5
4B8
100
AcDbEntity
  8
0
100
AcDbLine
 62
7
  6
CONTINUOUS
 10
410.7039587936
 20
106.203289742
 11
410.5234209135
 21
106.377675943
  0
LINE
  5
4B9
100
AcDbEntity
  8
0
100
AcDbLine
 62
7
  6
CONTINUOUS
 10
411.0048552603
 20
106.1498968239
 11
412.4491584694
 21
104.7548070533
  0
LINE
  5
4BA
100
AcDbEntity
  8
0
100
AcDbLine
 62
7
  6
CONTINUOUS
 10
412.4491584694
 20
104.8626484044
 11
411.0048552603
 21
106.257738175
  0
LINE
  5
4BB
100
AcDbEntity
  8
0
100
AcDbLine
 62
7
  6
CONTINUOUS
 10
411.0048552603
 20
106.4949888018
 11
412.4491584694
 21
105.0998990312
  0
LINE
  5
4BC
100
AcDbEntity
  8
0
100
AcDbLine
 62
7
  6
CONTINUOUS
 10
412.4491584694
 20
105.2077403822
 11
411.0048552603
 21
106.6028301529
  0
LINE
  5
4BD
100
AcDbEntity
  8
RUNDUNGEN
100
AcDbLine
 62
7
  6
CONTINUOUS
 10
454.8755653406
 20
65.8834201574
 11
450.6329246535
 21
69.9814963687
  0
LINE
  5
4BE
100
AcDbEntity
  8
RUNDUNGEN
100
AcDbLine
 62
7
  6
CONTINUOUS
 10
447.2820836132
 20
74.926365967
 11
452.0471382158
 21
70.3236766626
  0
LINE
  5
4BF
100
AcDbEntity
  8
KONSTRUKTIONSELEMENTE
100
AcDbLine
 62
7
  6
CONTINUOUS
 10
365.3987470917
 20
154.4698928882
 11
376.0053488095
 21
144.2247023598
  0
LINE
  5
4C0
100
AcDbEntity
  8
KONSTRUKTIONSELEMENTE
100
AcDbLine
 62
7
  6
CONTINUOUS
 10
336.8285430841
 20
184.1900058942
 11
340.8590517369
 21
180.2968334934
  0
LINE
  5
4C1
100
AcDbEntity
  8
KONSTRUKTIONSELEMENTE
100
AcDbLine
 62
7
  6
CONTINUOUS
 10
341.2126051275
 20
179.9553271424
 11
345.2431137802
 21
176.0621547417
  0
LINE
  5
4C2
100
AcDbEntity
  8
KONSTRUKTIONSELEMENTE
100
AcDbLine
 62
7
  6
CONTINUOUS
 10
397.9932796567
 20
125.1094071805
 11
402.0237883095
 21
121.2162347797
  0
LINE
  5
4C3
100
AcDbEntity
  8
KONSTRUKTIONSELEMENTE
100
AcDbLine
 62
7
  6
CONTINUOUS
 10
402.3773417001
 20
120.8747284288
 11
406.4078503529
 21
116.981556028
  0
LINE
  5
4C4
100
AcDbEntity
  8
0
100
AcDbLine
 62
7
  6
CONTINUOUS
 10
415.7772371023
 20
96.8577597263
 11
415.9106982357
 21
96.724415359
  0
LINE
  5
4C5
100
AcDbEntity
  8
0
100
AcDbLine
 62
7
  6
CONTINUOUS
 10
416.0024533701
 20
96.6910928835
 11
415.8689922366
 21
96.8244372508
  0
LINE
  5
4C6
100
AcDbEntity
  8
0
100
AcDbLine
 62
7
  6
CONTINUOUS
 10
429.8269228446
 20
83.0396044123
 11
429.987708371
 21
82.8784535501
  0
LINE
  5
4C7
100
AcDbEntity
  8
0
100
AcDbLine
 62
7
  6
CONTINUOUS
 10
430.16205133
 20
83.0770737014
 11
430.0012658091
 21
83.2382245453
  0
LINE
  5
4C8
100
AcDbEntity
  8
0
100
AcDbLine
 62
7
  6
CONTINUOUS
 10
430.7820711317
 20
82.6003713485
 11
430.5680335773
 21
82.8165954632
  0
LINE
  5
4C9
100
AcDbEntity
  8
0
100
AcDbLine
 62
7
  6
CONTINUOUS
 10
430.3711208818
 20
83.3490498325
 11
430.5851583761
 21
83.1328257137
  0
LINE
  5
4CA
100
AcDbEntity
  8
0
100
AcDbLine
 62
7
  6
CONTINUOUS
 10
429.9609330703
 20
82.9577617987
 11
429.867142385
 21
83.0537837532
  0
LINE
  5
4CB
100
AcDbEntity
  8
0
100
AcDbLine
 62
7
  6
CONTINUOUS
 10
430.0280411007
 20
83.1589163159
 11
430.1218318139
 21
83.0628943205
  0
LINE
  5
4CC
100
AcDbEntity
  8
0
100
AcDbLine
 62
7
  6
CONTINUOUS
 10
429.652919439
 20
83.6398345394
 11
429.5591287633
 21
83.7358564915
  0
LINE
  5
4CD
100
AcDbEntity
  8
0
100
AcDbLine
 62
7
  6
CONTINUOUS
 10
416.1991727838
 20
96.8106209539
 11
416.0399926074
 21
96.9745245587
  0
LINE
  5
4CE
100
AcDbEntity
  8
0
100
AcDbLine
 62
7
  6
CONTINUOUS
 10
416.0588869447
 20
97.5247608988
 11
416.1540141983
 21
97.4260437408
  0
LINE
  5
4CF
100
AcDbEntity
  8
RUNDUNGEN
100
AcDbLine
 62
7
  6
CONTINUOUS
 10
300.6721500915
 20
164.0260050469
 11
297.6721500915
 21
169.0451028694
  0
LINE
  5
4D0
100
AcDbEntity
  8
0
100
AcDbLine
 62
7
  6
CONTINUOUS
 10
416.0559795635
 20
96.9050619045
 11
416.1484292259
 21
96.8078304568
  0
LINE
  5
4D1
100
AcDbEntity
  8
0
100
AcDbLine
 62
7
  6
CONTINUOUS
 10
409.8298543638
 20
102.5182764578
 11
410.0705715372
 21
102.2641932668
  0
LINE
  5
4D2
100
AcDbEntity
  8
0
100
AcDbLine
 62
7
  6
CONTINUOUS
 10
430.5613397594
 20
82.7687800389
 11
430.6913967297
 21
82.6313302502
  0
LINE
  5
4D3
100
AcDbEntity
  8
0
100
AcDbLine
 62
7
  6
CONTINUOUS
 10
430.5918521838
 20
83.1806411914
 11
430.4617952838
 21
83.3180909308
  0
LINE
  5
4D4
100
AcDbEntity
  8
0
100
AcDbLine
 62
7
  6
CONTINUOUS
 10
410.1307509991
 20
102.3354738929
 11
409.9502129505
 21
102.5314285053
  0
LINE
  5
4D5
100
AcDbEntity
  8
0
100
AcDbLine
 62
7
  6
CONTINUOUS
 10
415.0309257047
 20
97.0935280205
 11
415.2019345122
 21
96.9071611691
  0
LINE
  5
4D6
100
AcDbEntity
  8
0
100
AcDbLine
 62
7
  6
CONTINUOUS
 10
415.4286255597
 20
96.9333525445
 11
415.8276460575
 21
96.4984966158
  0
LINE
  5
4D7
100
AcDbEntity
  8
0
100
AcDbLine
 62
7
  6
CONTINUOUS
 10
414.7160889081
 20
97.7098810413
 11
415.2576167522
 21
97.1197193959
  0
LINE
  5
4D8
100
AcDbEntity
  8
0
100
AcDbLine
 62
7
  6
CONTINUOUS
 10
415.8843188194
 20
96.5050444597
 11
415.4852983216
 21
96.9399003883
  0
LINE
  5
4D9
100
AcDbEntity
  8
0
100
AcDbLine
 62
7
  6
CONTINUOUS
 10
415.314289514
 20
97.1262672397
 11
414.5447499798
 21
97.9649179623
  0
LINE
  5
4DA
100
AcDbEntity
  8
0
100
AcDbLine
 62
7
  6
CONTINUOUS
 10
415.5797529157
 20
96.9508134603
 11
415.4087441082
 21
97.1371803117
  0
LINE
  5
4DB
100
AcDbEntity
  8
0
100
AcDbLine
 62
7
  6
CONTINUOUS
 10
429.6259486428
 20
83.2591986902
 11
429.8269228446
 21
83.0396044123
  0
LINE
  5
4DC
100
AcDbEntity
  8
0
100
AcDbLine
 62
7
  6
CONTINUOUS
 10
431.2111663532
 20
83.0497385627
 11
431.3484208847
 21
82.8975774602
  0
LINE
  5
4DD
100
AcDbEntity
  8
0
100
AcDbLine
 62
7
  6
CONTINUOUS
 10
431.3742840173
 20
82.9800205425
 11
431.2370293968
 21
83.1321817834
  0
LINE
  5
4DE
100
AcDbEntity
  8
0
100
AcDbLine
 62
7
  6
CONTINUOUS
 10
410.0419863981
 20
104.8799948419
 11
410.3428830335
 21
104.5462145039
  0
LINE
  5
4DF
100
AcDbEntity
  8
0
100
AcDbLine
 62
7
  6
CONTINUOUS
 10
411.2455724338
 20
103.6958517535
 11
411.5464689848
 21
103.3620714949
  0
LINE
  5
4E0
100
AcDbEntity
  8
0
100
AcDbLine
 62
7
  6
CONTINUOUS
 10
412.0279033738
 20
103.6303621922
 11
411.7270068649
 21
103.9641424293
  0
LINE
  5
4E1
100
AcDbEntity
  8
0
100
AcDbLine
 62
7
  6
CONTINUOUS
 10
430.4732731242
 20
82.8668426297
 11
430.5613397594
 21
82.7687800389
  0
LINE
  5
4E2
100
AcDbEntity
  8
0
100
AcDbLine
 62
7
  6
CONTINUOUS
 10
430.6799189376
 20
83.0825784897
 11
430.5918521838
 21
83.1806411914
  0
LINE
  5
4E3
100
AcDbEntity
  8
0
100
AcDbLine
 62
7
  6
CONTINUOUS
 10
411.8157713394
 20
101.2686438466
 11
411.5750541239
 21
101.5442952884
  0
LINE
  5
4E4
100
AcDbEntity
  8
0
100
AcDbLine
 62
7
  6
CONTINUOUS
 10
410.7641380869
 20
104.8294974879
 11
410.5234209135
 21
105.1051489507
  0
LINE
  5
4E5
100
AcDbEntity
  8
0
100
AcDbLine
 62
7
  6
CONTINUOUS
 10
411.0048552603
 20
105.2871666324
 11
410.8844966736
 21
105.4249923947
  0
LINE
  5
4E6
100
AcDbEntity
  8
0
100
AcDbLine
 62
7
  6
CONTINUOUS
 10
411.0048552603
 20
106.257738175
 11
410.8844966736
 21
106.3955638138
  0
LINE
  5
4E7
100
AcDbEntity
  8
0
100
AcDbLine
 62
7
  6
CONTINUOUS
 10
429.4383775608
 20
83.4754501789
 11
429.6259486428
 21
83.2591986902
  0
LINE
  5
4E8
100
AcDbEntity
  8
0
100
AcDbLine
 62
7
  6
CONTINUOUS
 10
429.5589847066
 20
83.3969503106
 11
429.5053929689
 21
83.4587364503
  0
LINE
  5
4E9
100
AcDbEntity
  8
0
100
AcDbLine
 62
7
  6
CONTINUOUS
 10
429.867142385
 20
83.0537837532
 11
429.7867547784
 21
83.1464629626
  0
LINE
  5
4EA
100
AcDbEntity
  8
0
100
AcDbLine
 62
7
  6
CONTINUOUS
 10
430.1218318139
 20
83.0628943205
 11
430.2022194205
 21
82.9702151111
  0
LINE
  5
4EB
100
AcDbEntity
  8
0
100
AcDbLine
 62
7
  6
CONTINUOUS
 10
430.2960307118
 20
82.922608309
 11
430.16205133
 21
83.0770737014
  0
LINE
  5
4EC
100
AcDbEntity
  8
0
100
AcDbLine
 62
7
  6
CONTINUOUS
 10
430.3391300866
 20
83.0235807037
 11
430.4732731242
 21
82.8668426297
  0
LINE
  5
4ED
100
AcDbEntity
  8
0
100
AcDbLine
 62
7
  6
CONTINUOUS
 10
430.8140618888
 20
82.9258404855
 11
430.6799189376
 21
83.0825784897
  0
LINE
  5
4EE
100
AcDbEntity
  8
0
100
AcDbLine
 62
7
  6
CONTINUOUS
 10
430.5680335773
 20
82.8165954632
 11
430.4108524088
 21
83.0026712296
  0
LINE
  5
4EF
100
AcDbEntity
  8
0
100
AcDbLine
 62
7
  6
CONTINUOUS
 10
430.5851583761
 20
83.1328257137
 11
430.7423396208
 21
82.9467499309
  0
LINE
  5
4F0
100
AcDbEntity
  8
0
100
AcDbLine
 62
7
  6
CONTINUOUS
 10
414.877071121
 20
97.9273324198
 11
415.5457658417
 21
97.1327927144
  0
LINE
  5
4F1
100
AcDbEntity
  8
0
100
AcDbLine
 62
7
  6
CONTINUOUS
 10
415.4936332998
 20
97.2578200761
 11
415.0821288285
 21
97.7467676201
  0
LINE
  5
4F2
100
AcDbEntity
  8
0
100
AcDbLine
 62
7
  6
CONTINUOUS
 10
416.1484292259
 20
96.8078304568
 11
416.1998672758
 21
96.7467120245
  0
LINE
  5
4F3
100
AcDbEntity
  8
0
100
AcDbLine
 62
7
  6
CONTINUOUS
 10
415.5256120364
 20
97.5857089672
 11
415.3970169116
 21
97.738505048
  0
LINE
  5
4F4
100
AcDbEntity
  8
0
100
AcDbLine
 62
7
  6
CONTINUOUS
 10
416.3020488836
 20
96.6883840893
 11
416.1991727838
 21
96.8106209539
  0
LINE
  5
4F5
100
AcDbEntity
  8
0
100
AcDbLine
 62
7
  6
CONTINUOUS
 10
411.5148748305
 20
101.4730144995
 11
411.6954127106
 21
101.2554918321
  0
LINE
  5
4F6
100
AcDbEntity
  8
0
100
AcDbLine
 62
7
  6
CONTINUOUS
 10
410.3428830335
 20
104.6540557721
 11
410.1623449848
 21
104.8715786485
  0
LINE
  5
4F7
100
AcDbEntity
  8
0
100
AcDbLine
 62
7
  6
CONTINUOUS
 10
410.4632416202
 20
105.0554363949
 11
410.6437795002
 21
104.8379136659
  0
LINE
  5
4F8
100
AcDbEntity
  8
RUNDUNGEN
100
AcDbLine
 62
7
  6
CONTINUOUS
 10
442.1242305566
 20
59.0305225238
 11
429.8131705742
 21
74.0773410011
  0
LINE
  5
4F9
100
AcDbEntity
  8
RUNDUNGEN
100
AcDbLine
 62
7
  6
CONTINUOUS
 10
398.7518392094
 20
112.0411081647
 11
397.1445195684
 21
114.0056056902
  0
LINE
  5
4FA
100
AcDbEntity
  8
RUNDUNGEN
100
AcDbLine
 62
7
  6
CONTINUOUS
 10
445.6597644625
 20
62.4455860333
 11
433.3487044801
 21
77.4924045106
  0
LINE
  5
4FB
100
AcDbEntity
  8
0
100
AcDbLine
 62
7
  6
CONTINUOUS
 10
429.2642095612
 20
83.6883589217
 11
429.4383775608
 21
83.4754501789
  0
LINE
  5
4FC
100
AcDbEntity
  8
0
100
AcDbLine
 62
7
  6
CONTINUOUS
 10
411.5464689848
 20
103.4699127612
 11
411.3057517271
 21
103.7671325462
  0
LINE
  5
4FD
100
AcDbEntity
  8
0
100
AcDbLine
 62
7
  6
CONTINUOUS
 10
411.7270068649
 20
103.8563011399
 11
411.9677240804
 21
103.5590814033
  0
LINE
  5
4FE
100
AcDbEntity
  8
0
100
AcDbLine
 62
7
  6
CONTINUOUS
 10
429.5053929689
 20
83.4587364503
 11
429.3580208393
 21
83.640752123
  0
LINE
  5
4FF
100
AcDbEntity
  8
KONSTRUKTIONSELEMENTE
100
AcDbLine
 62
7
  6
CONTINUOUS
 10
291.2288033308
 20
213.4829560471
 11
294.2201776441
 21
207.8741292096
  0
LINE
  5
500
100
AcDbEntity
  8
RUNDUNGEN
100
AcDbLine
 62
7
  6
CONTINUOUS
 10
411.4556170206
 20
109.3059199348
 11
423.614789576
 21
94.4447412438
  0
LINE
  5
501
100
AcDbEntity
  8
RUNDUNGEN
100
AcDbLine
 62
7
  6
CONTINUOUS
 10
442.4802877633
 20
71.3869601011
 11
446.5983895547
 21
66.3537354874
  0
LINE
  5
502
100
AcDbEntity
  8
0
100
AcDbLine
 62
7
  6
CONTINUOUS
 10
430.1317864206
 20
83.2876201934
 11
430.3391300866
 21
83.0235807037
  0
LINE
  5
503
100
AcDbEntity
  8
0
100
AcDbLine
 62
7
  6
CONTINUOUS
 10
430.4108524088
 20
83.0026712296
 11
430.249585113
 21
83.2080352771
  0
LINE
  5
504
100
AcDbEntity
  8
0
100
AcDbLine
 62
7
  6
CONTINUOUS
 10
430.7423396208
 20
82.9467499309
 11
430.9036069166
 21
82.7413858833
  0
LINE
  5
505
100
AcDbEntity
  8
0
100
AcDbLine
 62
7
  6
CONTINUOUS
 10
431.0214055548
 20
82.6618009958
 11
430.8140618888
 21
82.9258404855
  0
LINE
  5
506
100
AcDbEntity
  8
0
100
AcDbLine
 62
7
  6
CONTINUOUS
 10
409.5891371904
 20
102.83706441
 11
409.8298543638
 21
102.5182764578
  0
LINE
  5
507
100
AcDbEntity
  8
0
100
AcDbLine
 62
7
  6
CONTINUOUS
 10
412.0564885339
 20
100.9498558355
 11
411.8157713394
 21
101.2686438466
  0
LINE
  5
508
100
AcDbEntity
  8
0
100
AcDbLine
 62
7
  6
CONTINUOUS
 10
409.8614485181
 20
105.1190858042
 11
410.0419863981
 21
104.8799948419
  0
LINE
  5
509
100
AcDbEntity
  8
0
100
AcDbLine
 62
7
  6
CONTINUOUS
 10
410.944675967
 20
104.5904065257
 11
410.7641380869
 21
104.8294974879
  0
LINE
  5
50A
100
AcDbEntity
  8
0
100
AcDbLine
 62
7
  6
CONTINUOUS
 10
410.5836002069
 20
105.3921122566
 11
410.7039587936
 21
105.2327183229
  0
LINE
  5
50B
100
AcDbEntity
  8
0
100
AcDbLine
 62
7
  6
CONTINUOUS
 10
410.944675967
 20
105.0002033882
 11
410.8243173803
 21
105.1595973219
  0
LINE
  5
50C
100
AcDbEntity
  8
0
100
AcDbLine
 62
7
  6
CONTINUOUS
 10
412.2084412749
 20
103.3912712096
 11
412.0279033738
 21
103.6303621922
  0
LINE
  5
50D
100
AcDbEntity
  8
0
100
AcDbLine
 62
7
  6
CONTINUOUS
 10
410.5836002069
 20
105.7372043578
 11
410.7641380869
 21
105.4981133956
  0
LINE
  5
50E
100
AcDbEntity
  8
0
100
AcDbLine
 62
7
  6
CONTINUOUS
 10
410.8844966736
 20
105.4249923947
 11
410.8243173803
 21
105.5046894232
  0
LINE
  5
50F
100
AcDbEntity
  8
0
100
AcDbLine
 62
7
  6
CONTINUOUS
 10
410.5836002069
 20
106.3626836757
 11
410.7039587936
 21
106.203289742
  0
LINE
  5
510
100
AcDbEntity
  8
0
100
AcDbLine
 62
7
  6
CONTINUOUS
 10
410.944675967
 20
105.9707748074
 11
410.8243173803
 21
106.1301687411
  0
LINE
  5
511
100
AcDbEntity
  8
0
100
AcDbLine
 62
7
  6
CONTINUOUS
 10
410.5836002069
 20
106.7077756536
 11
410.7641380869
 21
106.4686846913
  0
LINE
  5
512
100
AcDbEntity
  8
0
100
AcDbLine
 62
7
  6
CONTINUOUS
 10
410.8844966736
 20
106.3955638138
 11
410.8243173803
 21
106.4752607189
  0
LINE
  5
513
100
AcDbEntity
  8
0
100
AcDbLine
 62
7
  6
CONTINUOUS
 10
414.9240322035
 20
99.0643197716
 11
415.9732500792
 21
97.6668127315
  0
LINE
  5
514
100
AcDbEntity
  8
0
100
AcDbLine
 62
7
  6
CONTINUOUS
 10
416.1540141983
 20
97.4260437408
 11
417.3915466248
 21
95.777710903
  0
LINE
  5
515
100
AcDbEntity
  8
0
100
AcDbLine
 62
7
  6
CONTINUOUS
 10
417.6415466248
 20
95.4447230955
 11
421.6415466248
 21
90.1169181752
  0
LINE
  5
516
100
AcDbEntity
  8
0
100
AcDbLine
 62
7
  6
CONTINUOUS
 10
421.9951000154
 20
90.0120277055
 11
415.9240322035
 21
98.0983939453
  0
LINE
  5
517
100
AcDbEntity
  8
0
100
AcDbLine
 62
7
  6
CONTINUOUS
 10
429.3580208393
 20
83.640752123
 11
429.2910362365
 21
83.7300886739
  0
LINE
  5
518
100
AcDbEntity
  8
0
100
AcDbLine
 62
7
  6
CONTINUOUS
 10
429.7867547784
 20
83.1464629626
 11
429.7197702131
 21
83.2357994703
  0
LINE
  5
519
100
AcDbEntity
  8
0
100
AcDbLine
 62
7
  6
CONTINUOUS
 10
430.2022194205
 20
82.9702151111
 11
430.2692039579
 21
82.8808786443
  0
LINE
  5
51A
100
AcDbEntity
  8
0
100
AcDbLine
 62
7
  6
CONTINUOUS
 10
415.9799833216
 20
97.6330175356
 11
416.0588869447
 21
97.5247608988
  0
LINE
  5
51B
100
AcDbEntity
  8
0
100
AcDbLine
 62
7
  6
CONTINUOUS
 10
429.1570363054
 20
83.8361388658
 11
429.2642095612
 21
83.6883589217
  0
LINE
  5
51C
100
AcDbEntity
  8
0
100
AcDbLine
 62
7
  6
CONTINUOUS
 10
430.4032038981
 20
82.7748284331
 11
430.2960307118
 21
82.922608309
  0
LINE
  5
51D
100
AcDbEntity
  8
0
100
AcDbLine
 62
7
  6
CONTINUOUS
 10
430.249585113
 20
83.2080352771
 11
430.1303080279
 21
83.3740122048
  0
LINE
  5
51E
100
AcDbEntity
  8
0
100
AcDbLine
 62
7
  6
CONTINUOUS
 10
430.9036069166
 20
82.7413858833
 11
431.0228839256
 21
82.5754089721
  0
LINE
  5
51F
100
AcDbEntity
  8
0
100
AcDbLine
 62
7
  6
CONTINUOUS
 10
416.1998672758
 20
96.7467120245
 11
416.2617317991
 21
96.6605881326
  0
LINE
  5
520
100
AcDbEntity
  8
0
100
AcDbLine
 62
7
  6
CONTINUOUS
 10
430.0355475748
 20
83.4242593713
 11
430.1317864206
 21
83.2876201934
  0
LINE
  5
521
100
AcDbEntity
  8
0
100
AcDbLine
 62
7
  6
CONTINUOUS
 10
431.1176444871
 20
82.5251617481
 11
431.0214055548
 21
82.6618009958
  0
LINE
  5
522
100
AcDbEntity
  8
0
100
AcDbLine
 62
7
  6
CONTINUOUS
 10
410.1623449848
 20
104.8715786485
 11
409.9818071048
 21
105.1322378594
  0
LINE
  5
523
100
AcDbEntity
  8
0
100
AcDbLine
 62
7
  6
CONTINUOUS
 10
411.0650345537
 20
103.9565109682
 11
411.2455724338
 21
103.6958517535
  0
LINE
  5
524
100
AcDbEntity
  8
0
100
AcDbLine
 62
7
  6
CONTINUOUS
 10
410.6437795002
 20
104.8379136659
 11
410.8243173803
 21
104.5772544705
  0
LINE
  5
525
100
AcDbEntity
  8
0
100
AcDbLine
 62
7
  6
CONTINUOUS
 10
416.4000590107
 20
96.5466954685
 11
416.3020488836
 21
96.6883840893
  0
LINE
  5
526
100
AcDbEntity
  8
RUNDUNGEN
100
AcDbLine
 62
7
  6
CONTINUOUS
 10
397.3548207726
 20
99.984720443
 11
394.4346463014
 21
104.3318798613
  0
LINE
  5
527
100
AcDbEntity
  8
RUNDUNGEN
100
AcDbLine
 62
7
  6
CONTINUOUS
 10
400.8903546785
 20
103.3997839525
 11
397.9701802073
 21
107.7469433708
  0
LINE
  5
528
100
AcDbEntity
  8
RUNDUNGEN
100
AcDbLine
 62
7
  6
CONTINUOUS
 10
401.8061626148
 20
109.9537787267
 11
406.0241924066
 21
103.6745484558
  0
LINE
  5
529
100
AcDbEntity
  8
0
100
AcDbLine
 62
7
  6
CONTINUOUS
 10
409.9502129505
 20
102.5314285053
 11
409.8298543638
 21
102.7123907493
  0
LINE
  5
52A
100
AcDbEntity
  8
0
100
AcDbLine
 62
7
  6
CONTINUOUS
 10
411.6954127106
 20
101.2554918321
 11
411.8157713394
 21
101.0745295628
  0
LINE
  5
52B
100
AcDbEntity
  8
0
100
AcDbLine
 62
7
  6
CONTINUOUS
 10
250.7054717618
 20
217.5670235499
 11
250.7054717618
 21
261.0336857329
  0
LINE
  5
52C
100
AcDbEntity
  8
0
100
AcDbLine
 62
7
  6
CONTINUOUS
 10
429.9853850347
 20
83.5022231892
 11
430.0355475748
 21
83.4242593713
  0
LINE
  5
52D
100
AcDbEntity
  8
0
100
AcDbLine
 62
7
  6
CONTINUOUS
 10
431.1678069084
 20
82.4471980411
 11
431.1176444871
 21
82.5251617481
  0
LINE
  5
52E
100
AcDbEntity
  8
0
100
AcDbLine
 62
7
  6
CONTINUOUS
 10
431.1490048039
 20
83.1464299883
 11
431.2111663532
 21
83.0497385627
  0
LINE
  5
52F
100
AcDbEntity
  8
0
100
AcDbLine
 62
7
  6
CONTINUOUS
 10
431.4364455666
 20
82.8833291169
 11
431.3742840173
 21
82.9800205425
  0
LINE
  5
530
100
AcDbEntity
  8
0
100
AcDbLine
 62
7
  6
CONTINUOUS
 10
409.680910638
 20
105.4013132791
 11
409.8614485181
 21
105.1190858042
  0
LINE
  5
531
100
AcDbEntity
  8
0
100
AcDbLine
 62
7
  6
CONTINUOUS
 10
412.0466943423
 20
102.9287620923
 11
412.0075484012
 21
102.989957327
  0
LINE
  5
532
100
AcDbEntity
  8
0
100
AcDbLine
 62
7
  6
CONTINUOUS
 10
412.3889791708
 20
103.1090437657
 11
412.2084412749
 21
103.3912712096
  0
LINE
  5
533
100
AcDbEntity
  8
0
100
AcDbLine
 62
7
  6
CONTINUOUS
 10
414.4880772179
 20
97.9583701185
 11
415.0309257047
 21
97.0935280205
  0
LINE
  5
534
100
AcDbEntity
  8
0
100
AcDbLine
 62
7
  6
CONTINUOUS
 10
415.0970439246
 20
97.1011671714
 11
414.7160889081
 21
97.7098810413
  0
LINE
  5
535
100
AcDbEntity
  8
0
100
AcDbLine
 62
7
  6
CONTINUOUS
 10
429.2910362365
 20
83.7300886739
 11
429.237454797
 21
83.816082391
  0
LINE
  5
536
100
AcDbEntity
  8
0
100
AcDbLine
 62
7
  6
CONTINUOUS
 10
430.2692039579
 20
82.8808786443
 11
430.3227854065
 21
82.794884908
  0
LINE
  5
537
100
AcDbEntity
  8
0
100
AcDbLine
 62
7
  6
CONTINUOUS
 10
431.7011993439
 20
82.8588207388
 11
432.8760080978
 21
80.9558110271
  0
LINE
  5
538
100
AcDbEntity
  8
0
100
AcDbLine
 62
7
  6
CONTINUOUS
 10
433.0141571208
 20
80.7320308317
 11
435.5008395361
 21
76.7039873136
  0
LINE
  5
539
100
AcDbEntity
  8
0
100
AcDbLine
 62
7
  6
CONTINUOUS
 10
435.7836822486
 20
76.779749468
 11
432.5176959248
 21
82.0701456042
  0
LINE
  5
53A
100
AcDbEntity
  8
0
100
AcDbLine
 62
7
  6
CONTINUOUS
 10
409.4687786036
 20
103.0395948872
 11
409.5891371904
 21
102.83706441
  0
LINE
  5
53B
100
AcDbEntity
  8
0
100
AcDbLine
 62
7
  6
CONTINUOUS
 10
411.8635906998
 20
100.5252982237
 11
411.780399395
 21
100.6652863449
  0
LINE
  5
53C
100
AcDbEntity
  8
0
100
AcDbLine
 62
7
  6
CONTINUOUS
 10
412.1768471364
 20
100.7473253584
 11
412.0564885339
 21
100.9498558355
  0
LINE
  5
53D
100
AcDbEntity
  8
0
100
AcDbLine
 62
7
  6
CONTINUOUS
 10
411.0048552603
 20
104.0577762145
 11
411.0650345537
 21
103.9565109682
  0
LINE
  5
53E
100
AcDbEntity
  8
0
100
AcDbLine
 62
7
  6
CONTINUOUS
 10
411.3057517271
 20
103.7671325462
 11
411.1853931404
 21
103.9696630234
  0
LINE
  5
53F
100
AcDbEntity
  8
0
100
AcDbLine
 62
7
  6
CONTINUOUS
 10
411.0048552603
 20
104.4891412639
 11
410.944675967
 21
104.5904065257
  0
LINE
  5
540
100
AcDbEntity
  8
0
100
AcDbLine
 62
7
  6
CONTINUOUS
 10
411.9677240804
 20
103.5590814033
 11
412.0880826671
 21
103.3565509415
  0
LINE
  5
541
100
AcDbEntity
  8
0
100
AcDbLine
 62
7
  6
CONTINUOUS
 10
410.8243173803
 20
105.5046894232
 11
410.7641380869
 21
105.6059546232
  0
LINE
  5
542
100
AcDbEntity
  8
0
100
AcDbLine
 62
7
  6
CONTINUOUS
 10
410.8243173803
 20
106.4752607189
 11
410.7641380869
 21
106.5765260424
  0
LINE
  5
543
100
AcDbEntity
  8
0
100
AcDbLine
 62
7
  6
CONTINUOUS
 10
429.0900620758
 20
83.9496829077
 11
429.1570363054
 21
83.8361388658
  0
LINE
  5
544
100
AcDbEntity
  8
0
100
AcDbLine
 62
7
  6
CONTINUOUS
 10
430.4701781371
 20
82.6612843805
 11
430.4032038981
 21
82.7748284331
  0
LINE
  5
545
100
AcDbEntity
  8
0
100
AcDbLine
 62
7
  6
CONTINUOUS
 10
416.2617317991
 20
96.6605881326
 11
416.3083038764
 21
96.580017944
  0
LINE
  5
546
100
AcDbEntity
  8
0
100
AcDbLine
 62
7
  6
CONTINUOUS
 10
268.7054717618
 20
217.5670235499
 11
268.7054717618
 21
261.0336857329
  0
LINE
  5
547
100
AcDbEntity
  8
0
100
AcDbLine
 62
7
  6
CONTINUOUS
 10
270.7054717618
 20
258.0929305449
 11
270.7054717618
 21
754.0929305449
  0
LINE
  5
548
100
AcDbEntity
  8
0
100
AcDbLine
 62
7
  6
CONTINUOUS
 10
276.7054717618
 20
143.433941204
 11
276.7054717618
 21
163.9081190779
  0
LINE
  5
549
100
AcDbEntity
  8
0
100
AcDbLine
 62
7
  6
CONTINUOUS
 10
279.7054717618
 20
174.6217178743
 11
279.7054717618
 21
168.9893546286
  0
LINE
  5
54A
100
AcDbEntity
  8
0
100
AcDbLine
 62
7
  6
CONTINUOUS
 10
429.931136508
 20
83.5994751896
 11
429.9853850347
 21
83.5022231892
  0
LINE
  5
54B
100
AcDbEntity
  8
0
100
AcDbLine
 62
7
  6
CONTINUOUS
 10
431.2220555055
 20
82.3499459913
 11
431.1678069084
 21
82.4471980411
  0
LINE
  5
54C
100
AcDbEntity
  8
0
100
AcDbLine
 62
7
  6
CONTINUOUS
 10
416.4570575524
 20
96.4411198309
 11
416.4000590107
 21
96.5466954685
  0
LINE
  5
54D
100
AcDbEntity
  8
0
100
AcDbLine
 62
7
  6
CONTINUOUS
 10
409.8298543638
 20
102.7123907493
 11
409.7696750704
 21
102.8352242443
  0
LINE
  5
54E
100
AcDbEntity
  8
0
100
AcDbLine
 62
7
  6
CONTINUOUS
 10
410.5234209135
 20
105.5149457515
 11
410.5836002069
 21
105.3921122566
  0
LINE
  5
54F
100
AcDbEntity
  8
0
100
AcDbLine
 62
7
  6
CONTINUOUS
 10
410.8243173803
 20
105.1595973219
 11
410.7641380869
 21
105.2824308169
  0
LINE
  5
550
100
AcDbEntity
  8
0
100
AcDbLine
 62
7
  6
CONTINUOUS
 10
410.5234209135
 20
105.8600378528
 11
410.5836002069
 21
105.7372043578
  0
LINE
  5
551
100
AcDbEntity
  8
0
100
AcDbLine
 62
7
  6
CONTINUOUS
 10
410.5234209135
 20
106.4855171706
 11
410.5836002069
 21
106.3626836757
  0
LINE
  5
552
100
AcDbEntity
  8
0
100
AcDbLine
 62
7
  6
CONTINUOUS
 10
410.8243173803
 20
106.1301687411
 11
410.7641380869
 21
106.253002236
  0
LINE
  5
553
100
AcDbEntity
  8
0
100
AcDbLine
 62
7
  6
CONTINUOUS
 10
410.5234209135
 20
106.8306091485
 11
410.5836002069
 21
106.7077756536
  0
LINE
  5
554
100
AcDbEntity
  8
0
100
AcDbLine
 62
7
  6
CONTINUOUS
 10
429.7197702131
 20
83.2357994703
 11
429.6929846425
 21
83.2909001176
  0
LINE
  5
555
100
AcDbEntity
  8
KONSTRUKTIONSELEMENTE
100
AcDbLine
 62
7
  6
CONTINUOUS
 10
337.7411216488
 20
176.3589083172
 11
337.707971698
 21
176.449658896
  0
LINE
  5
556
100
AcDbEntity
  8
KONSTRUKTIONSELEMENTE
100
AcDbLine
 62
7
  6
CONTINUOUS
 10
340.8568022625
 20
180.2969793353
 11
340.8899522133
 21
180.2062287564
  0
LINE
  5
557
100
AcDbEntity
  8
KONSTRUKTIONSELEMENTE
100
AcDbLine
 62
7
  6
CONTINUOUS
 10
341.2103556531
 20
179.9554729843
 11
341.2435056039
 21
179.8647224055
  0
LINE
  5
558
100
AcDbEntity
  8
0
100
AcDbLine
 62
7
  6
CONTINUOUS
 10
286.9554717618
 20
163.5909372476
 11
285.6905884332
 21
173.7746815334
  0
LINE
  5
559
100
AcDbEntity
  8
0
100
AcDbLine
 62
7
  6
CONTINUOUS
 10
286.9554717618
 20
171.1464398016
 11
286.0357859969
 21
178.5509524875
  0
LINE
  5
55A
100
AcDbEntity
  8
0
100
AcDbLine
 62
7
  6
CONTINUOUS
 10
291.2198488575
 20
186.8950199385
 11
291.3751575266
 21
178.5509524875
  0
LINE
  5
55B
100
AcDbEntity
  8
0
100
AcDbLine
 62
7
  6
CONTINUOUS
 10
282.4554717618
 20
186.5957457666
 11
282.4554717618
 21
178.1156036488
  0
LINE
  5
55C
100
AcDbEntity
  8
BEZUGSACHSEN
100
AcDbLine
 62
7
  6
CONTINUOUS
 10
282.4554717618
 20
186.5960431763
 11
282.4554717618
 21
204.9114321834
  0
LINE
  5
55D
100
AcDbEntity
  8
0
100
AcDbLine
 62
7
  6
CONTINUOUS
 10
286.9554717618
 20
171.1464398016
 11
286.9554717618
 21
163.5909372476
  0
LINE
  5
55E
100
AcDbEntity
  8
0
100
AcDbLine
 62
7
  6
CONTINUOUS
 10
290.4554717618
 20
171.1464398016
 11
290.4554717618
 21
163.5909372476
  0
LINE
  5
55F
100
AcDbEntity
  8
RUNDUNGEN
100
AcDbLine
 62
7
  6
CONTINUOUS
 10
294.9554717618
 20
186.5957457666
 11
294.9554717618
 21
178.1156036488
  0
LINE
  5
560
100
AcDbEntity
  8
BEZUGSACHSEN
100
AcDbLine
 62
7
  6
CONTINUOUS
 10
294.9554717618
 20
186.5960431763
 11
294.9554717618
 21
204.9114321834
  0
LINE
  5
561
100
AcDbEntity
  8
RUNDUNGEN
100
AcDbLine
 62
7
  6
CONTINUOUS
 10
297.7054717618
 20
174.6217178743
 11
297.7054717618
 21
168.9893546286
  0
LINE
  5
562
100
AcDbEntity
  8
RUNDUNGEN
100
AcDbLine
 62
7
  6
CONTINUOUS
 10
300.7054717618
 20
143.433941204
 11
300.7054717618
 21
145.177838371
  0
LINE
  5
563
100
AcDbEntity
  8
KONSTRUKTIONSELEMENTE
100
AcDbLine
 62
7
  6
CONTINUOUS
 10
300.7054717618
 20
143.433941204
 11
300.7054717618
 21
153.4761201539
  0
LINE
  5
564
100
AcDbEntity
  8
RUNDUNGEN
100
AcDbLine
 62
7
  6
CONTINUOUS
 10
300.7054717618
 20
151.7322229869
 11
300.7054717618
 21
163.9081190779
  0
LINE
  5
565
100
AcDbEntity
  8
0
100
AcDbLine
 62
7
  6
CONTINUOUS
 10
286.191094666
 20
186.8950199385
 11
286.0357859969
 21
178.5509524875
  0
LINE
  5
566
100
AcDbEntity
  8
0
100
AcDbLine
 62
7
  6
CONTINUOUS
 10
430.1303080279
 20
83.3740122048
 11
430.0678872802
 21
83.5098408458
  0
LINE
  5
567
100
AcDbEntity
  8
0
100
AcDbLine
 62
7
  6
CONTINUOUS
 10
431.0228839256
 20
82.5754089721
 11
431.0853047333
 21
82.4395803352
  0
LINE
  5
568
100
AcDbEntity
  8
0
100
AcDbLine
 62
7
  6
CONTINUOUS
 10
409.4085993103
 20
103.1839966462
 11
409.4687786036
 21
103.0395948872
  0
LINE
  5
569
100
AcDbEntity
  8
0
100
AcDbLine
 62
7
  6
CONTINUOUS
 10
409.9818071048
 20
105.1322378594
 11
409.9216278114
 21
105.2766396184
  0
LINE
  5
56A
100
AcDbEntity
  8
0
100
AcDbLine
 62
7
  6
CONTINUOUS
 10
411.8157713394
 20
101.0745295628
 11
411.8759506328
 21
100.9301278038
  0
LINE
  5
56B
100
AcDbEntity
  8
0
100
AcDbLine
 62
7
  6
CONTINUOUS
 10
410.8243173803
 20
104.5772544705
 11
410.8844966736
 21
104.4328527115
  0
LINE
  5
56C
100
AcDbEntity
  8
0
100
AcDbLine
 62
7
  6
CONTINUOUS
 10
411.1853931404
 20
103.9696630234
 11
411.1252138471
 21
104.1140647824
  0
LINE
  5
56D
100
AcDbEntity
  8
0
100
AcDbLine
 62
7
  6
CONTINUOUS
 10
412.0880826671
 20
103.3565509415
 11
412.1482619605
 21
103.2121491825
  0
LINE
  5
56E
100
AcDbEntity
  8
KONSTRUKTIONSELEMENTE
100
AcDbLine
 62
7
  6
CONTINUOUS
 10
398.9058582214
 20
117.2783096035
 11
398.8727082706
 21
117.3690601823
  0
LINE
  5
56F
100
AcDbEntity
  8
KONSTRUKTIONSELEMENTE
100
AcDbLine
 62
7
  6
CONTINUOUS
 10
402.0215388351
 20
121.2163806216
 11
402.054688786
 21
121.1256300427
  0
LINE
  5
570
100
AcDbEntity
  8
KONSTRUKTIONSELEMENTE
100
AcDbLine
 62
7
  6
CONTINUOUS
 10
402.3750922257
 20
120.8748742707
 11
402.4082421765
 21
120.7841236918
  0
LINE
  5
571
100
AcDbEntity
  8
0
100
AcDbLine
 62
7
  6
CONTINUOUS
 10
409.6207313447
 20
105.5672832867
 11
409.680910638
 21
105.4013132791
  0
LINE
  5
572
100
AcDbEntity
  8
0
100
AcDbLine
 62
7
  6
CONTINUOUS
 10
412.237026435
 20
100.5813553612
 11
412.1768471364
 21
100.7473253584
  0
LINE
  5
573
100
AcDbEntity
  8
0
100
AcDbLine
 62
7
  6
CONTINUOUS
 10
412.4491584694
 20
102.9430737376
 11
412.3889791708
 21
103.1090437657
  0
LINE
  5
574
100
AcDbEntity
  8
0
100
AcDbLine
 62
7
  6
CONTINUOUS
 10
306.7054717618
 20
258.0929305449
 11
306.7054717618
 21
754.0929305449
  0
LINE
  5
575
100
AcDbEntity
  8
0
100
AcDbLine
 62
7
  6
CONTINUOUS
 10
308.7054717618
 20
261.0336857329
 11
308.7054717618
 21
217.5670235499
  0
LINE
  5
576
100
AcDbEntity
  8
0
100
AcDbLine
 62
7
  6
CONTINUOUS
 10
326.7054717618
 20
261.0336857329
 11
326.7054717618
 21
217.5670235499
  0
LINE
  5
577
100
AcDbEntity
  8
0
100
AcDbLine
 62
7
  6
CONTINUOUS
 10
290.4554717618
 20
171.1464398016
 11
291.3751575266
 21
178.5509524875
  0
LINE
  5
578
100
AcDbEntity
  8
RUNDUNGEN
100
AcDbLine
 62
7
  6
CONTINUOUS
 10
290.4554717618
 20
163.5909372476
 11
291.7203550903
 21
173.7746815334
  0
LINE
  5
579
100
AcDbEntity
  8
0
100
AcDbLine
 62
7
  6
CONTINUOUS
 10
429.237454797
 20
83.816082391
 11
429.2240723051
 21
83.8678402932
  0
LINE
  5
57A
100
AcDbEntity
  8
0
100
AcDbLine
 62
7
  6
CONTINUOUS
 10
429.5322197276
 20
83.5004661138
 11
429.5589847066
 21
83.3969503106
  0
LINE
  5
57B
100
AcDbEntity
  8
0
100
AcDbLine
 62
7
  6
CONTINUOUS
 10
429.6929846425
 20
83.2909001176
 11
429.6796021506
 21
83.3426580198
  0
LINE
  5
57C
100
AcDbEntity
  8
0
100
AcDbLine
 62
7
  6
CONTINUOUS
 10
430.3227854065
 20
82.794884908
 11
430.3361678984
 21
82.7431270058
  0
LINE
  5
57D
100
AcDbEntity
  8
0
100
AcDbLine
 62
7
  6
CONTINUOUS
 10
415.6528135276
 20
97.0939164824
 11
415.636826484
 21
97.1633791683
  0
LINE
  5
57E
100
AcDbEntity
  8
0
100
AcDbLine
 62
7
  6
CONTINUOUS
 10
415.9732500792
 20
97.6668127315
 11
415.9799833216
 21
97.6330175356
  0
LINE
  5
57F
100
AcDbEntity
  8
0
100
AcDbLine
 62
7
  6
CONTINUOUS
 10
429.9188782462
 20
83.6573400415
 11
429.931136508
 21
83.5994751896
  0
LINE
  5
580
100
AcDbEntity
  8
0
100
AcDbLine
 62
7
  6
CONTINUOUS
 10
431.2343137754
 20
82.2920811292
 11
431.2220555055
 21
82.3499459913
  0
LINE
  5
581
100
AcDbEntity
  8
0
100
AcDbLine
 62
7
  6
CONTINUOUS
 10
429.0766898821
 20
84.0256483873
 11
429.0900620758
 21
83.9496829077
  0
LINE
  5
582
100
AcDbEntity
  8
0
100
AcDbLine
 62
7
  6
CONTINUOUS
 10
430.4835503666
 20
82.5853188856
 11
430.4701781371
 21
82.6612843805
  0
LINE
  5
583
100
AcDbEntity
  8
0
100
AcDbLine
 62
7
  6
CONTINUOUS
 10
416.3083038764
 20
96.580017944
 11
416.3138643591
 21
96.5355607494
  0
LINE
  5
584
100
AcDbEntity
  8
0
100
AcDbLine
 62
7
  6
CONTINUOUS
 10
283.1907658794
 20
207.8741292096
 11
286.1821401927
 21
213.4829560471
  0
LINE
  5
585
100
AcDbEntity
  8
0
100
AcDbLine
 62
7
  6
CONTINUOUS
 10
415.4929388952
 20
97.3217289738
 11
415.4936332998
 21
97.2578200761
  0
LINE
  5
586
100
AcDbEntity
  8
0
100
AcDbLine
 62
7
  6
CONTINUOUS
 10
416.4577519636
 20
96.3772109252
 11
416.4570575524
 21
96.4411198309
  0
LINE
  5
587
100
AcDbEntity
  8
0
100
AcDbLine
 62
7
  6
CONTINUOUS
 10
408.2065177823
 20
103.7412071239
 11
408.2065177823
 21
100.6353785827
  0
LINE
  5
588
100
AcDbEntity
  8
0
100
AcDbLine
 62
7
  6
CONTINUOUS
 10
408.2772284604
 20
100.5670773125
 11
408.2772284604
 21
102.9970861696
  0
LINE
  5
589
100
AcDbEntity
  8
0
100
AcDbLine
 62
7
  6
CONTINUOUS
 10
408.5600711729
 20
100.4232817543
 11
408.5600711729
 21
103.2702912504
  0
LINE
  5
58A
100
AcDbEntity
  8
0
100
AcDbLine
 62
7
  6
CONTINUOUS
 10
409.4085993103
 20
103.2918379047
 11
409.4085993103
 21
103.1839966462
  0
LINE
  5
58B
100
AcDbEntity
  8
0
100
AcDbLine
 62
7
  6
CONTINUOUS
 10
409.6207313447
 20
105.6535562811
 11
409.6207313447
 21
105.5672832867
  0
LINE
  5
58C
100
AcDbEntity
  8
0
100
AcDbLine
 62
7
  6
CONTINUOUS
 10
409.7696750704
 20
102.8352242443
 11
409.7696750704
 21
102.9646337668
  0
LINE
  5
58D
100
AcDbEntity
  8
0
100
AcDbLine
 62
7
  6
CONTINUOUS
 10
409.9216278114
 20
105.2766396184
 11
409.9216278114
 21
105.3629126128
  0
LINE
  5
58E
100
AcDbEntity
  8
0
100
AcDbLine
 62
7
  6
CONTINUOUS
 10
410.0705715372
 20
102.8033995902
 11
410.0705715372
 21
102.9328091128
  0
LINE
  5
58F
100
AcDbEntity
  8
0
100
AcDbLine
 62
7
  6
CONTINUOUS
 10
410.5234209135
 20
106.9168823281
 11
410.5234209135
 21
106.8306091485
  0
LINE
  5
590
100
AcDbEntity
  8
0
100
AcDbLine
 62
7
  6
CONTINUOUS
 10
410.5234209135
 20
106.5717901034
 11
410.5234209135
 21
106.4855171706
  0
LINE
  5
591
100
AcDbEntity
  8
0
100
AcDbLine
 62
7
  6
CONTINUOUS
 10
410.5234209135
 20
106.377675943
 11
410.5234209135
 21
106.2698345919
  0
LINE
  5
592
100
AcDbEntity
  8
0
100
AcDbLine
 62
7
  6
CONTINUOUS
 10
410.5234209135
 20
105.9463107855
 11
410.5234209135
 21
105.8600378528
  0
LINE
  5
593
100
AcDbEntity
  8
0
100
AcDbLine
 62
7
  6
CONTINUOUS
 10
410.5234209135
 20
105.6012188077
 11
410.5234209135
 21
105.5149457515
  0
LINE
  5
594
100
AcDbEntity
  8
0
100
AcDbLine
 62
7
  6
CONTINUOUS
 10
410.5234209135
 20
105.4071045238
 11
410.5234209135
 21
105.2992632345
  0
LINE
  5
595
100
AcDbEntity
  8
0
100
AcDbLine
 62
7
  6
CONTINUOUS
 10
410.6121853459
 20
102.1508313328
 11
410.6121853459
 21
102.0214218102
  0
LINE
  5
596
100
AcDbEntity
  8
0
100
AcDbLine
 62
7
  6
CONTINUOUS
 10
410.7641380869
 20
105.2824308169
 11
410.7641380869
 21
105.3255672832
  0
LINE
  5
597
100
AcDbEntity
  8
0
100
AcDbLine
 62
7
  6
CONTINUOUS
 10
410.7641380869
 20
105.6059546232
 11
410.7641380869
 21
105.6706593845
  0
LINE
  5
598
100
AcDbEntity
  8
0
100
AcDbLine
 62
7
  6
CONTINUOUS
 10
410.7641380869
 20
106.253002236
 11
410.7641380869
 21
106.2961388258
  0
LINE
  5
599
100
AcDbEntity
  8
0
100
AcDbLine
 62
7
  6
CONTINUOUS
 10
410.7641380869
 20
106.5765260424
 11
410.7641380869
 21
106.6412308037
  0
LINE
  5
59A
100
AcDbEntity
  8
0
100
AcDbLine
 62
7
  6
CONTINUOUS
 10
410.8844966736
 20
104.4328527115
 11
410.8844966736
 21
104.346579717
  0
LINE
  5
59B
100
AcDbEntity
  8
0
100
AcDbLine
 62
7
  6
CONTINUOUS
 10
410.973261106
 20
101.6726494083
 11
410.973261106
 21
101.8020589308
  0
LINE
  5
59C
100
AcDbEntity
  8
0
100
AcDbLine
 62
7
  6
CONTINUOUS
 10
411.1252138471
 20
104.1140647824
 11
411.1252138471
 21
104.2003377768
  0
LINE
  5
59D
100
AcDbEntity
  8
0
100
AcDbLine
 62
7
  6
CONTINUOUS
 10
411.4546955372
 20
100.9919369097
 11
411.4546955372
 21
100.8625273872
  0
LINE
  5
59E
100
AcDbEntity
  8
0
100
AcDbLine
 62
7
  6
CONTINUOUS
 10
411.8759506328
 20
100.9301278038
 11
411.8759506328
 21
100.7575817532
  0
LINE
  5
59F
100
AcDbEntity
  8
0
100
AcDbLine
 62
7
  6
CONTINUOUS
 10
412.1482619605
 20
103.2121491825
 11
412.1482619605
 21
103.1258761881
  0
LINE
  5
5A0
100
AcDbEntity
  8
0
100
AcDbLine
 62
7
  6
CONTINUOUS
 10
412.237026435
 20
100.4088093105
 11
412.237026435
 21
100.5813553612
  0
LINE
  5
5A1
100
AcDbEntity
  8
0
100
AcDbLine
 62
7
  6
CONTINUOUS
 10
412.4491584694
 20
102.813664215
 11
412.4491584694
 21
102.9430737376
  0
LINE
  5
5A2
100
AcDbEntity
  8
0
100
AcDbLine
 62
7
  6
CONTINUOUS
 10
412.4491584694
 20
103.7842356342
 11
412.4491584694
 21
103.8920768618
  0
LINE
  5
5A3
100
AcDbEntity
  8
0
100
AcDbLine
 62
7
  6
CONTINUOUS
 10
412.4491584694
 20
104.1293277355
 11
412.4491584694
 21
104.2371689631
  0
LINE
  5
5A4
100
AcDbEntity
  8
0
100
AcDbLine
 62
7
  6
CONTINUOUS
 10
412.4491584694
 20
103.4391435946
 11
412.4491584694
 21
103.546984884
  0
LINE
  5
5A5
100
AcDbEntity
  8
0
100
AcDbLine
 62
7
  6
CONTINUOUS
 10
412.4491584694
 20
104.409714952
 11
412.4491584694
 21
104.5175563031
  0
LINE
  5
5A6
100
AcDbEntity
  8
0
100
AcDbLine
 62
7
  6
CONTINUOUS
 10
412.4491584694
 20
104.7548070533
 11
412.4491584694
 21
104.8626484044
  0
LINE
  5
5A7
100
AcDbEntity
  8
0
100
AcDbLine
 62
7
  6
CONTINUOUS
 10
412.4491584694
 20
105.0998990312
 11
412.4491584694
 21
105.2077403822
  0
LINE
  5
5A8
100
AcDbEntity
  8
0
100
AcDbLine
 62
7
  6
CONTINUOUS
 10
412.80271186
 20
99.172215039
 11
412.80271186
 21
96.3252055429
  0
LINE
  5
5A9
100
AcDbEntity
  8
0
100
AcDbLine
 62
7
  6
CONTINUOUS
 10
412.8734225381
 20
96.1274947502
 11
412.8734225381
 21
98.6869131299
  0
LINE
  5
5AA
100
AcDbEntity
  8
0
100
AcDbLine
 62
7
  6
CONTINUOUS
 10
413.1562652506
 20
95.8542896694
 11
413.1562652506
 21
98.9601182106
  0
LINE
  5
5AB
100
AcDbEntity
  8
0
100
AcDbLine
 62
7
  6
CONTINUOUS
 10
414.9240322035
 20
96.6055388432
 11
414.9240322035
 21
96.4761293206
  0
LINE
  5
5AC
100
AcDbEntity
  8
0
100
AcDbLine
 62
7
  6
CONTINUOUS
 10
421.9951000154
 20
94.4563577999
 11
421.9951000154
 21
90.0120277055
  0
LINE
  5
5AD
100
AcDbEntity
  8
0
100
AcDbLine
 62
7
  6
CONTINUOUS
 10
422.0658106935
 20
89.5777010315
 11
422.0658106935
 21
94.0782622495
  0
LINE
  5
5AE
100
AcDbEntity
  8
0
100
AcDbLine
 62
7
  6
CONTINUOUS
 10
422.348653406
 20
89.4339054733
 11
422.348653406
 21
94.3514673302
  0
LINE
  5
5AF
100
AcDbEntity
  8
0
100
AcDbLine
 62
7
  6
CONTINUOUS
 10
423.2513428737
 20
92.9015070677
 11
423.2513428737
 21
92.8152340486
  0
LINE
  5
5B0
100
AcDbEntity
  8
0
100
AcDbLine
 62
7
  6
CONTINUOUS
 10
423.6364904861
 20
92.7192836669
 11
423.6364904861
 21
92.5294830421
  0
LINE
  5
5B1
100
AcDbEntity
  8
0
100
AcDbLine
 62
7
  6
CONTINUOUS
 10
423.6364904861
 20
92.4432100229
 11
423.6364904861
 21
92.3051731947
  0
LINE
  5
5B2
100
AcDbEntity
  8
0
100
AcDbLine
 62
7
  6
CONTINUOUS
 10
423.8290642248
 20
92.119161247
 11
423.8290642248
 21
92.2571980752
  0
LINE
  5
5B3
100
AcDbEntity
  8
0
100
AcDbLine
 62
7
  6
CONTINUOUS
 10
423.8290642248
 20
92.3434710944
 11
423.8290642248
 21
92.5332717192
  0
LINE
  5
5B4
100
AcDbEntity
  8
0
100
AcDbLine
 62
7
  6
CONTINUOUS
 10
425.8841873119
 20
90.9364038208
 11
425.8841873119
 21
86.0188419638
  0
LINE
  5
5B5
100
AcDbEntity
  8
0
100
AcDbLine
 62
7
  6
CONTINUOUS
 10
425.9548979901
 20
85.8211311711
 11
425.9548979901
 21
90.4511019116
  0
LINE
  5
5B6
100
AcDbEntity
  8
0
100
AcDbLine
 62
7
  6
CONTINUOUS
 10
426.2377407025
 20
85.5479260903
 11
426.2377407025
 21
90.7243069924
  0
LINE
  5
5B7
100
AcDbEntity
  8
0
100
AcDbLine
 62
7
  6
CONTINUOUS
 10
429.4197212179
 20
82.5778965499
 11
429.4197212179
 21
82.4743689318
  0
LINE
  5
5B8
100
AcDbEntity
  8
0
100
AcDbLine
 62
7
  6
CONTINUOUS
 10
279.738793432
 20
169.0451028694
 11
276.738793432
 21
164.0260050469
  0
LINE
  5
5B9
100
AcDbEntity
  8
0
100
AcDbLine
 62
7
  6
CONTINUOUS
 10
435.7836822486
 20
80.9859974266
 11
435.7836822486
 21
76.779749468
  0
LINE
  5
5BA
100
AcDbEntity
  8
0
100
AcDbLine
 62
7
  6
CONTINUOUS
 10
435.8543929267
 20
76.2589533446
 11
435.8543929267
 21
80.7595145626
  0
LINE
  5
5BB
100
AcDbEntity
  8
0
100
AcDbLine
 62
7
  6
CONTINUOUS
 10
436.1372356391
 20
76.1151577864
 11
436.1372356391
 21
81.0327196433
  0
LINE
  5
5BC
100
AcDbEntity
  8
0
100
AcDbLine
 62
7
  6
CONTINUOUS
 10
437.3321759737
 20
79.3004667208
 11
437.3321759737
 21
79.2141937017
  0
LINE
  5
5BD
100
AcDbEntity
  8
0
100
AcDbLine
 62
7
  6
CONTINUOUS
 10
437.717323586
 20
79.11824332
 11
437.717323586
 21
78.9284426952
  0
LINE
  5
5BE
100
AcDbEntity
  8
0
100
AcDbLine
 62
7
  6
CONTINUOUS
 10
437.717323586
 20
78.842169676
 11
437.717323586
 21
78.7041328479
  0
LINE
  5
5BF
100
AcDbEntity
  8
0
100
AcDbLine
 62
7
  6
CONTINUOUS
 10
437.9098973247
 20
78.7424307475
 11
437.9098973247
 21
78.9322313723
  0
LINE
  5
5C0
100
AcDbEntity
  8
0
100
AcDbLine
 62
7
  6
CONTINUOUS
 10
437.9098973247
 20
78.5181209001
 11
437.9098973247
 21
78.6561577283
  0
LINE
  5
5C1
100
AcDbEntity
  8
0
100
AcDbLine
 62
7
  6
CONTINUOUS
 10
439.6727695451
 20
77.6176561339
 11
439.6727695451
 21
72.7000942769
  0
LINE
  5
5C2
100
AcDbEntity
  8
0
100
AcDbLine
 62
7
  6
CONTINUOUS
 10
439.7434802232
 20
72.5023834842
 11
439.7434802232
 21
77.1323542247
  0
LINE
  5
5C3
100
AcDbEntity
  8
0
100
AcDbLine
 62
7
  6
CONTINUOUS
 10
440.0263229357
 20
72.2291784034
 11
440.0263229357
 21
77.4055593055
  0
LINE
  5
5C4
100
AcDbEntity
  8
RUNDUNGEN
100
AcDbLine
 62
7
  6
CONTINUOUS
 10
447.8044975287
 20
71.6782709959
 11
447.8044975287
 21
70.267782221
  0
LINE
  5
5C5
100
AcDbEntity
  8
RUNDUNGEN
100
AcDbLine
 62
7
  6
CONTINUOUS
 10
447.8044975287
 20
64.3406760463
 11
447.8044975287
 21
62.9301872714
  0
LINE
  5
5C6
100
AcDbEntity
  8
RUNDUNGEN
100
AcDbLine
 62
7
  6
CONTINUOUS
 10
454.8755653406
 20
66.5563496746
 11
454.8755653406
 21
65.8834201574
  0
LINE
  5
5C7
100
AcDbEntity
  8
RUNDUNGEN
100
AcDbLine
 62
7
  6
CONTINUOUS
 10
454.8755653406
 20
55.0647840721
 11
454.8755653406
 21
54.3918545548
  0
LINE
  5
5C8
100
AcDbEntity
  8
0
100
AcDbLine
 62
7
  6
CONTINUOUS
 10
431.1619363257
 20
83.1876515986
 11
431.1490048039
 21
83.1464299883
  0
LINE
  5
5C9
100
AcDbEntity
  8
0
100
AcDbLine
 62
7
  6
CONTINUOUS
 10
431.4235139558
 20
82.8421076449
 11
431.4364455666
 21
82.8833291169
  0
LINE
  5
5CA
100
AcDbEntity
  8
0
100
AcDbLine
 62
7
  6
CONTINUOUS
 10
430.0678872802
 20
83.5098408458
 11
430.0786672035
 21
83.5383679766
  0
LINE
  5
5CB
100
AcDbEntity
  8
0
100
AcDbLine
 62
7
  6
CONTINUOUS
 10
431.0853047333
 20
82.4395803352
 11
431.07452481
 21
82.4110532044
  0
LINE
  5
5CC
100
AcDbEntity
  8
0
100
AcDbLine
 62
7
  6
CONTINUOUS
 10
429.2240723051
 20
83.8678402932
 11
429.237485682
 21
83.8887051256
  0
LINE
  5
5CD
100
AcDbEntity
  8
0
100
AcDbLine
 62
7
  6
CONTINUOUS
 10
429.6796021506
 20
83.3426580198
 11
429.6930155275
 21
83.3635228521
  0
LINE
  5
5CE
100
AcDbEntity
  8
0
100
AcDbLine
 62
7
  6
CONTINUOUS
 10
430.3361678984
 20
82.7431270058
 11
430.3227545407
 21
82.7222621686
  0
LINE
  5
5CF
100
AcDbEntity
  8
0
100
AcDbLine
 62
7
  6
CONTINUOUS
 10
429.9445241439
 20
83.6951060382
 11
429.9188782462
 21
83.6573400415
  0
LINE
  5
5D0
100
AcDbEntity
  8
0
100
AcDbLine
 62
7
  6
CONTINUOUS
 10
431.2086677753
 20
82.2543151823
 11
431.2343137754
 21
82.2920811292
  0
LINE
  5
5D1
100
AcDbEntity
  8
RUNDUNGEN
100
AcDbLine
 62
7
  6
CONTINUOUS
 10
394.2528515391
 20
119.4006732406
 11
395.4796893766
 21
120.5857075925
  0
LINE
  5
5D2
100
AcDbEntity
  8
0
100
AcDbLine
 62
7
  6
CONTINUOUS
 10
400.4199391116
 20
113.652368941
 11
396.8844052057
 21
110.2373054316
  0
LINE
  5
5D3
100
AcDbEntity
  8
RUNDUNGEN
100
AcDbLine
 62
7
  6
CONTINUOUS
 10
397.831557857
 20
108.1168023922
 11
394.296023951
 21
104.7017388828
  0
LINE
  5
5D4
100
AcDbEntity
  8
0
100
AcDbLine
 62
7
  6
CONTINUOUS
 10
425.1289370919
 20
91.1396541302
 11
425.1770805308
 21
91.1966787572
  0
LINE
  5
5D5
100
AcDbEntity
  8
0
100
AcDbLine
 62
7
  6
CONTINUOUS
 10
410.5836002069
 20
106.9234583557
 11
410.5234209135
 21
106.865329622
  0
LINE
  5
5D6
100
AcDbEntity
  8
0
100
AcDbLine
 62
7
  6
CONTINUOUS
 10
410.7039587936
 20
106.8503372313
 11
410.5704560513
 21
106.7213834847
  0
LINE
  5
5D7
100
AcDbEntity
  8
0
100
AcDbLine
 62
7
  6
CONTINUOUS
 10
410.5836002069
 20
106.578366131
 11
410.5234209135
 21
106.5202373973
  0
LINE
  5
5D8
100
AcDbEntity
  8
0
100
AcDbLine
 62
7
  6
CONTINUOUS
 10
409.680910638
 20
105.703268806
 11
409.6249369215
 21
105.6492023476
  0
LINE
  5
5D9
100
AcDbEntity
  8
0
100
AcDbLine
 62
7
  6
CONTINUOUS
 10
410.7641380869
 20
106.6412308037
 11
410.6887987161
 21
106.5684585596
  0
LINE
  5
5DA
100
AcDbEntity
  8
0
100
AcDbLine
 62
7
  6
CONTINUOUS
 10
410.7641380869
 20
106.5765260424
 11
410.7170509667
 21
106.5310433768
  0
LINE
  5
5DB
100
AcDbEntity
  8
0
100
AcDbLine
 62
7
  6
CONTINUOUS
 10
409.8614485181
 20
105.6367238944
 11
409.6645231915
 21
105.4465086356
  0
LINE
  5
5DC
100
AcDbEntity
  8
0
100
AcDbLine
 62
7
  6
CONTINUOUS
 10
410.7641380869
 20
106.4686846913
 11
410.617772262
 21
106.327306161
  0
LINE
  5
5DD
100
AcDbEntity
  8
0
100
AcDbLine
 62
7
  6
CONTINUOUS
 10
410.8243173803
 20
106.4752607189
 11
410.6359690867
 21
106.2933302378
  0
LINE
  5
5DE
100
AcDbEntity
  8
0
100
AcDbLine
 62
7
  6
CONTINUOUS
 10
411.0048552603
 20
106.6028301529
 11
410.9433248893
 21
106.5433963784
  0
LINE
  5
5DF
100
AcDbEntity
  8
0
100
AcDbLine
 62
7
  6
CONTINUOUS
 10
410.7641380869
 20
106.2961388258
 11
410.6866090458
 21
106.2212515226
  0
LINE
  5
5E0
100
AcDbEntity
  8
0
100
AcDbLine
 62
7
  6
CONTINUOUS
 10
410.8844966736
 20
106.3955638138
 11
410.7725492714
 21
106.2874309268
  0
LINE
  5
5E1
100
AcDbEntity
  8
0
100
AcDbLine
 62
7
  6
CONTINUOUS
 10
410.7039587936
 20
106.203289742
 11
410.6438140823
 21
106.145194412
  0
LINE
  5
5E2
100
AcDbEntity
  8
0
100
AcDbLine
 62
7
  6
CONTINUOUS
 10
410.7641380869
 20
106.253002236
 11
410.7081643858
 21
106.1989357925
  0
LINE
  5
5E3
100
AcDbEntity
  8
0
100
AcDbLine
 62
7
  6
CONTINUOUS
 10
410.0419863981
 20
105.5270424547
 11
409.7690984286
 21
105.2634529172
  0
LINE
  5
5E4
100
AcDbEntity
  8
0
100
AcDbLine
 62
7
  6
CONTINUOUS
 10
409.9216278114
 20
105.3629126128
 11
409.7880264141
 21
105.2338635727
  0
LINE
  5
5E5
100
AcDbEntity
  8
0
100
AcDbLine
 62
7
  6
CONTINUOUS
 10
410.5836002069
 20
105.9528868131
 11
410.5234209135
 21
105.8947580795
  0
LINE
  5
5E6
100
AcDbEntity
  8
0
100
AcDbLine
 62
7
  6
CONTINUOUS
 10
409.9216278114
 20
105.2766396184
 11
409.8221374019
 21
105.1805392623
  0
LINE
  5
5E7
100
AcDbEntity
  8
0
100
AcDbLine
 62
7
  6
CONTINUOUS
 10
410.8243173803
 20
106.1301687411
 11
410.7461655112
 21
106.0546798323
  0
LINE
  5
5E8
100
AcDbEntity
  8
0
100
AcDbLine
 62
7
  6
CONTINUOUS
 10
411.0048552603
 20
106.257738175
 11
410.9433248893
 21
106.1983044005
  0
LINE
  5
5E9
100
AcDbEntity
  8
0
100
AcDbLine
 62
7
  6
CONTINUOUS
 10
410.7039587936
 20
105.8797659356
 11
410.5704560513
 21
105.750812189
  0
LINE
  5
5EA
100
AcDbEntity
  8
0
100
AcDbLine
 62
7
  6
CONTINUOUS
 10
409.9818071048
 20
105.1322378594
 11
409.9064677698
 21
105.0594656501
  0
LINE
  5
5EB
100
AcDbEntity
  8
0
100
AcDbLine
 62
7
  6
CONTINUOUS
 10
410.944675967
 20
105.9707748074
 11
410.888853176
 21
105.9168541318
  0
LINE
  5
5EC
100
AcDbEntity
  8
0
100
AcDbLine
 62
7
  6
CONTINUOUS
 10
410.5836002069
 20
105.6077948353
 11
410.5234209135
 21
105.5496661016
  0
LINE
  5
5ED
100
AcDbEntity
  8
0
100
AcDbLine
 62
7
  6
CONTINUOUS
 10
410.3428830335
 20
105.2795351516
 11
410.2791816265
 21
105.2180043174
  0
LINE
  5
5EE
100
AcDbEntity
  8
0
100
AcDbLine
 62
7
  6
CONTINUOUS
 10
410.7641380869
 20
105.6706593845
 11
410.68879877
 21
105.5978871925
  0
LINE
  5
5EF
100
AcDbEntity
  8
0
100
AcDbLine
 62
7
  6
CONTINUOUS
 10
410.7641380869
 20
105.6059546232
 11
410.7170510206
 21
105.5604720098
  0
LINE
  5
5F0
100
AcDbEntity
  8
0
100
AcDbLine
 62
7
  6
CONTINUOUS
 10
410.7641380869
 20
105.4981133956
 11
410.6177722004
 21
105.3567348057
  0
LINE
  5
5F1
100
AcDbEntity
  8
0
100
AcDbLine
 62
7
  6
CONTINUOUS
 10
410.1623449848
 20
104.8715786485
 11
410.1042857863
 21
104.8154977692
  0
LINE
  5
5F2
100
AcDbEntity
  8
0
100
AcDbLine
 62
7
  6
CONTINUOUS
 10
410.8243173803
 20
105.5046894232
 11
410.6359690328
 21
105.3227588901
  0
LINE
  5
5F3
100
AcDbEntity
  8
0
100
AcDbLine
 62
7
  6
CONTINUOUS
 10
411.0048552603
 20
105.6322587337
 11
410.9433249237
 21
105.5728249925
  0
LINE
  5
5F4
100
AcDbEntity
  8
0
100
AcDbLine
 62
7
  6
CONTINUOUS
 10
408.5600711729
 20
103.2702912504
 11
408.2772284604
 21
102.9970861696
  0
LINE
  5
5F5
100
AcDbEntity
  8
0
100
AcDbLine
 62
7
  6
CONTINUOUS
 10
410.5234209135
 20
105.1051489507
 11
410.463276233
 21
105.0470536505
  0
LINE
  5
5F6
100
AcDbEntity
  8
0
100
AcDbLine
 62
7
  6
CONTINUOUS
 10
410.7641380869
 20
105.3255672832
 11
410.6866091074
 21
105.2506800397
  0
LINE
  5
5F7
100
AcDbEntity
  8
0
100
AcDbLine
 62
7
  6
CONTINUOUS
 10
410.8844966736
 20
105.4249923947
 11
410.7725492098
 21
105.3168594481
  0
LINE
  5
5F8
100
AcDbEntity
  8
0
100
AcDbLine
 62
7
  6
CONTINUOUS
 10
410.7039587936
 20
105.2327183229
 11
410.6438141131
 21
105.1746230227
  0
LINE
  5
5F9
100
AcDbEntity
  8
0
100
AcDbLine
 62
7
  6
CONTINUOUS
 10
410.7641380869
 20
105.2824308169
 11
410.7081643858
 21
105.2283643734
  0
LINE
  5
5FA
100
AcDbEntity
  8
0
100
AcDbLine
 62
7
  6
CONTINUOUS
 10
410.8243173803
 20
105.1595973219
 11
410.7461655431
 21
105.0841084441
  0
LINE
  5
5FB
100
AcDbEntity
  8
0
100
AcDbLine
 62
7
  6
CONTINUOUS
 10
410.3428830335
 20
104.6540557721
 11
410.2889947864
 21
104.6020037225
  0
LINE
  5
5FC
100
AcDbEntity
  8
0
100
AcDbLine
 62
7
  6
CONTINUOUS
 10
411.0048552603
 20
105.2871666324
 11
410.9433249237
 21
105.2277328912
  0
LINE
  5
5FD
100
AcDbEntity
  8
0
100
AcDbLine
 62
7
  6
CONTINUOUS
 10
410.7641380869
 20
104.8294974879
 11
410.6955173552
 21
104.7632149509
  0
LINE
  5
5FE
100
AcDbEntity
  8
0
100
AcDbLine
 62
7
  6
CONTINUOUS
 10
410.4632416202
 20
104.5377983047
 11
410.4051824246
 21
104.4817174282
  0
LINE
  5
5FF
100
AcDbEntity
  8
0
100
AcDbLine
 62
7
  6
CONTINUOUS
 10
410.944675967
 20
105.0002033882
 11
410.8888532079
 21
104.9462827436
  0
LINE
  5
600
100
AcDbEntity
  8
0
100
AcDbLine
 62
7
  6
CONTINUOUS
 10
409.4687786036
 20
103.3415504604
 11
409.4128048717
 21
103.2874839871
  0
LINE
  5
601
100
AcDbEntity
  8
0
100
AcDbLine
 62
7
  6
CONTINUOUS
 10
410.6437795002
 20
104.4065486164
 11
410.5699430799
 21
104.3352281111
  0
LINE
  5
602
100
AcDbEntity
  8
0
100
AcDbLine
 62
7
  6
CONTINUOUS
 10
410.944675967
 20
104.5904065257
 11
410.8549538082
 21
104.5037415753
  0
LINE
  5
603
100
AcDbEntity
  8
0
100
AcDbLine
 62
7
  6
CONTINUOUS
 10
409.6493164837
 20
103.2534372539
 11
409.4570547188
 21
103.0677266498
  0
LINE
  5
604
100
AcDbEntity
  8
0
100
AcDbLine
 62
7
  6
CONTINUOUS
 10
410.8243173803
 20
104.3184354254
 11
410.7252330607
 21
104.2227273221
  0
LINE
  5
605
100
AcDbEntity
  8
0
100
AcDbLine
 62
7
  6
CONTINUOUS
 10
411.0048552603
 20
104.4891412639
 11
410.8844966736
 21
104.3728837966
  0
LINE
  5
606
100
AcDbEntity
  8
0
100
AcDbLine
 62
7
  6
CONTINUOUS
 10
410.8844966736
 20
104.346579717
 11
410.7402162768
 21
104.2072155554
  0
LINE
  5
607
100
AcDbEntity
  8
0
100
AcDbLine
 62
7
  6
CONTINUOUS
 10
411.0650345537
 20
104.4741490584
 11
410.7821918412
 21
104.2009439776
  0
LINE
  5
608
100
AcDbEntity
  8
0
100
AcDbLine
 62
7
  6
CONTINUOUS
 10
409.8900336571
 20
103.0856270805
 11
409.6071909446
 21
102.8124219998
  0
LINE
  5
609
100
AcDbEntity
  8
0
100
AcDbLine
 62
7
  6
CONTINUOUS
 10
409.7696750704
 20
102.9646337668
 11
409.6125315524
 21
102.8128447843
  0
LINE
  5
60A
100
AcDbEntity
  8
0
100
AcDbLine
 62
7
  6
CONTINUOUS
 10
411.2455724338
 20
104.3860358519
 11
410.9627297213
 21
104.1128307711
  0
LINE
  5
60B
100
AcDbEntity
  8
0
100
AcDbLine
 62
7
  6
CONTINUOUS
 10
411.1252138471
 20
104.2003377768
 11
410.9832067212
 21
104.0631694264
  0
LINE
  5
60C
100
AcDbEntity
  8
0
100
AcDbLine
 62
7
  6
CONTINUOUS
 10
409.7696750704
 20
102.8352242443
 11
409.6660834823
 21
102.7351624539
  0
LINE
  5
60D
100
AcDbEntity
  8
0
100
AcDbLine
 62
7
  6
CONTINUOUS
 10
411.1252138471
 20
104.1140647824
 11
411.0274965545
 21
104.0196771259
  0
LINE
  5
60E
100
AcDbEntity
  8
0
100
AcDbLine
 62
7
  6
CONTINUOUS
 10
409.8298543638
 20
102.7123907493
 11
409.745097609
 21
102.6305220109
  0
LINE
  5
60F
100
AcDbEntity
  8
0
100
AcDbLine
 62
7
  6
CONTINUOUS
 10
410.0705715372
 20
102.9328091128
 11
409.9967351267
 21
102.8614886169
  0
LINE
  5
610
100
AcDbEntity
  8
0
100
AcDbLine
 62
7
  6
CONTINUOUS
 10
412.4491584694
 20
105.2077403822
 11
412.3952701809
 21
105.1556882927
  0
LINE
  5
611
100
AcDbEntity
  8
0
100
AcDbLine
 62
7
  6
CONTINUOUS
 10
411.1853931404
 20
103.9696630234
 11
411.1078218854
 21
103.8947349448
  0
LINE
  5
612
100
AcDbEntity
  8
0
100
AcDbLine
 62
7
  6
CONTINUOUS
 10
411.5464689848
 20
104.1385286302
 11
411.481623567
 21
104.0758927665
  0
LINE
  5
613
100
AcDbEntity
  8
0
100
AcDbLine
 62
7
  6
CONTINUOUS
 10
409.9502129505
 20
102.5314285053
 11
409.8813761089
 21
102.4649372222
  0
LINE
  5
614
100
AcDbEntity
  8
0
100
AcDbLine
 62
7
  6
CONTINUOUS
 10
411.3057517271
 20
103.7671325462
 11
411.2390003541
 21
103.702655671
  0
LINE
  5
615
100
AcDbEntity
  8
0
100
AcDbLine
 62
7
  6
CONTINUOUS
 10
412.4491584694
 20
104.8626484044
 11
412.3952701809
 21
104.8105963148
  0
LINE
  5
616
100
AcDbEntity
  8
0
100
AcDbLine
 62
7
  6
CONTINUOUS
 10
411.7270068649
 20
103.9641424293
 11
411.6731186072
 21
103.9120903695
  0
LINE
  5
617
100
AcDbEntity
  8
0
100
AcDbLine
 62
7
  6
CONTINUOUS
 10
410.1307509991
 20
102.3354738929
 11
410.0639996221
 21
102.2709970139
  0
LINE
  5
618
100
AcDbEntity
  8
0
100
AcDbLine
 62
7
  6
CONTINUOUS
 10
412.4491584694
 20
104.5175563031
 11
412.3952701809
 21
104.4655042135
  0
LINE
  5
619
100
AcDbEntity
  8
0
100
AcDbLine
 62
7
  6
CONTINUOUS
 10
410.2511095858
 20
102.2192164256
 11
410.1801872603
 21
102.1507107197
  0
LINE
  5
61A
100
AcDbEntity
  8
0
100
AcDbLine
 62
7
  6
CONTINUOUS
 10
411.5464689848
 20
103.4699127612
 11
411.4925807387
 21
103.4178607125
  0
LINE
  5
61B
100
AcDbEntity
  8
0
100
AcDbLine
 62
7
  6
CONTINUOUS
 10
412.4491584694
 20
104.2371689631
 11
412.3952702426
 21
104.1851169331
  0
LINE
  5
61C
100
AcDbEntity
  8
0
100
AcDbLine
 62
7
  6
CONTINUOUS
 10
408.5600711729
 20
100.4232817543
 11
408.4930838748
 21
100.358576993
  0
LINE
  5
61D
100
AcDbEntity
  8
0
100
AcDbLine
 62
7
  6
CONTINUOUS
 10
412.0279033738
 20
103.6303621922
 11
411.9611520027
 21
103.5658853189
  0
LINE
  5
61E
100
AcDbEntity
  8
0
100
AcDbLine
 62
7
  6
CONTINUOUS
 10
410.4316474659
 20
102.0663984732
 11
410.3520329736
 21
101.9894967789
  0
LINE
  5
61F
100
AcDbEntity
  8
0
100
AcDbLine
 62
7
  6
CONTINUOUS
 10
411.7270068649
 20
103.2955265602
 11
411.6731186188
 21
103.2434745116
  0
LINE
  5
620
100
AcDbEntity
  8
0
100
AcDbLine
 62
7
  6
CONTINUOUS
 10
410.6723646393
 20
102.2005438576
 11
410.6163909228
 21
102.1464773992
  0
LINE
  5
621
100
AcDbEntity
  8
0
100
AcDbLine
 62
7
  6
CONTINUOUS
 10
412.4491584694
 20
103.8920768618
 11
412.3952702426
 21
103.8400248318
  0
LINE
  5
622
100
AcDbEntity
  8
0
100
AcDbLine
 62
7
  6
CONTINUOUS
 10
410.5520060526
 20
102.0148457826
 11
410.4466380969
 21
101.9130681529
  0
LINE
  5
623
100
AcDbEntity
  8
0
100
AcDbLine
 62
7
  6
CONTINUOUS
 10
410.6121853459
 20
102.0214218102
 11
410.4746216276
 21
101.888545462
  0
LINE
  5
624
100
AcDbEntity
  8
0
100
AcDbLine
 62
7
  6
CONTINUOUS
 10
410.792723226
 20
102.1705593848
 11
410.5098805135
 21
101.897354304
  0
LINE
  5
625
100
AcDbEntity
  8
0
100
AcDbLine
 62
7
  6
CONTINUOUS
 10
412.2084412749
 20
103.3912712096
 11
412.1123103881
 21
103.2984159033
  0
LINE
  5
626
100
AcDbEntity
  8
0
100
AcDbLine
 62
7
  6
CONTINUOUS
 10
411.9677240804
 20
103.1277163538
 11
411.8905435004
 21
103.0531656383
  0
LINE
  5
627
100
AcDbEntity
  8
0
100
AcDbLine
 62
7
  6
CONTINUOUS
 10
412.4491584694
 20
103.546984884
 11
412.3952702117
 21
103.4949328242
  0
LINE
  5
628
100
AcDbEntity
  8
0
100
AcDbLine
 62
7
  6
CONTINUOUS
 10
412.0880826671
 20
103.0977318964
 11
411.9723117997
 21
102.9859058256
  0
LINE
  5
629
100
AcDbEntity
  8
0
100
AcDbLine
 62
7
  6
CONTINUOUS
 10
412.1482619605
 20
103.1258761881
 11
411.9932039148
 21
102.9761016172
  0
LINE
  5
62A
100
AcDbEntity
  8
0
100
AcDbLine
 62
7
  6
CONTINUOUS
 10
411.0334403994
 20
102.0243175063
 11
410.7505976869
 21
101.7511124256
  0
LINE
  5
62B
100
AcDbEntity
  8
0
100
AcDbLine
 62
7
  6
CONTINUOUS
 10
410.973261106
 20
101.8020589308
 11
410.8312539634
 21
101.6648905642
  0
LINE
  5
62C
100
AcDbEntity
  8
0
100
AcDbLine
 62
7
  6
CONTINUOUS
 10
412.3889791708
 20
103.1090437657
 11
412.1422422851
 21
102.8707142355
  0
LINE
  5
62D
100
AcDbEntity
  8
0
100
AcDbLine
 62
7
  6
CONTINUOUS
 10
411.2741576571
 20
101.8349389566
 11
411.1837655304
 21
101.7476268669
  0
LINE
  5
62E
100
AcDbEntity
  8
0
100
AcDbLine
 62
7
  6
CONTINUOUS
 10
412.4491584694
 20
102.9430737376
 11
412.2983147725
 21
102.797369915
  0
LINE
  5
62F
100
AcDbEntity
  8
0
100
AcDbLine
 62
7
  6
CONTINUOUS
 10
411.5750541239
 20
101.5442952884
 11
411.5083027527
 21
101.479818415
  0
LINE
  5
630
100
AcDbEntity
  8
0
100
AcDbLine
 62
7
  6
CONTINUOUS
 10
411.8157713394
 20
101.2686438466
 11
411.7371650998
 21
101.1927160497
  0
LINE
  5
631
100
AcDbEntity
  8
0
100
AcDbLine
 62
7
  6
CONTINUOUS
 10
411.6352334172
 20
100.8391189574
 11
411.5620612321
 21
100.7684400539
  0
LINE
  5
632
100
AcDbEntity
  8
0
100
AcDbLine
 62
7
  6
CONTINUOUS
 10
411.8157713394
 20
100.729437477
 11
411.714601547
 21
100.6317149616
  0
LINE
  5
633
100
AcDbEntity
  8
0
100
AcDbLine
 62
7
  6
CONTINUOUS
 10
412.0564885339
 20
100.9498558355
 11
411.8759506328
 21
100.7754696142
  0
LINE
  5
634
100
AcDbEntity
  8
0
100
AcDbLine
 62
7
  6
CONTINUOUS
 10
411.8759506328
 20
100.7575817532
 11
411.7352453805
 21
100.6216709161
  0
LINE
  5
635
100
AcDbEntity
  8
0
100
AcDbLine
 62
7
  6
CONTINUOUS
 10
412.1768471364
 20
100.7473253584
 11
411.9105121797
 21
100.4900655453
  0
LINE
  5
636
100
AcDbEntity
  8
0
100
AcDbLine
 62
7
  6
CONTINUOUS
 10
412.237026435
 20
100.5813553612
 11
412.0538590859
 21
100.4044292881
  0
LINE
  5
637
100
AcDbEntity
  8
0
100
AcDbLine
 62
7
  6
CONTINUOUS
 10
413.1562652506
 20
98.9601182106
 11
412.8734225381
 21
98.6869131299
  0
LINE
  5
638
100
AcDbEntity
  8
0
100
AcDbLine
 62
7
  6
CONTINUOUS
 10
412.80271186
 20
96.3252055429
 11
412.7357245619
 21
96.2605007816
  0
LINE
  5
639
100
AcDbEntity
  8
0
100
AcDbLine
 62
7
  6
CONTINUOUS
 10
414.5447499798
 20
97.9649179623
 11
414.5121596645
 21
97.9334381351
  0
LINE
  5
63A
100
AcDbEntity
  8
0
100
AcDbLine
 62
7
  6
CONTINUOUS
 10
414.7160889081
 20
97.7098810413
 11
414.6712411671
 21
97.66656145
  0
LINE
  5
63B
100
AcDbEntity
  8
0
100
AcDbLine
 62
7
  6
CONTINUOUS
 10
415.0821288285
 20
97.7467676201
 11
415.0528436847
 21
97.7184803433
  0
LINE
  5
63C
100
AcDbEntity
  8
0
100
AcDbLine
 62
7
  6
CONTINUOUS
 10
415.3970169116
 20
97.738505048
 11
415.3171921731
 21
97.6614002715
  0
LINE
  5
63D
100
AcDbEntity
  8
0
100
AcDbLine
 62
7
  6
CONTINUOUS
 10
415.9240322035
 20
98.0983939453
 11
415.7647436973
 21
97.9445330634
  0
LINE
  5
63E
100
AcDbEntity
  8
0
100
AcDbLine
 62
7
  6
CONTINUOUS
 10
415.0970439246
 20
97.1011671714
 11
415.0590218914
 21
97.0644407076
  0
LINE
  5
63F
100
AcDbEntity
  8
0
100
AcDbLine
 62
7
  6
CONTINUOUS
 10
415.2576167522
 20
97.1197193959
 11
415.1272554912
 21
96.9938000871
  0
LINE
  5
640
100
AcDbEntity
  8
0
100
AcDbLine
 62
7
  6
CONTINUOUS
 10
415.314289514
 20
97.1262672397
 11
415.1513379378
 21
96.9688681038
  0
LINE
  5
641
100
AcDbEntity
  8
0
100
AcDbLine
 62
7
  6
CONTINUOUS
 10
415.5436824531
 20
97.3245194709
 11
415.4934359275
 21
97.2759850542
  0
LINE
  5
642
100
AcDbEntity
  8
0
100
AcDbLine
 62
7
  6
CONTINUOUS
 10
415.4936332998
 20
97.2578200761
 11
415.4643481559
 21
97.2295327993
  0
LINE
  5
643
100
AcDbEntity
  8
0
100
AcDbLine
 62
7
  6
CONTINUOUS
 10
415.4087441082
 20
97.1371803117
 11
415.1868153925
 21
96.9228136337
  0
LINE
  5
644
100
AcDbEntity
  8
0
100
AcDbLine
 62
7
  6
CONTINUOUS
 10
415.6354375875
 20
97.2911969954
 11
415.5098933882
 21
97.169930611
  0
LINE
  5
645
100
AcDbEntity
  8
0
100
AcDbLine
 62
7
  6
CONTINUOUS
 10
415.636826484
 20
97.1633791683
 11
415.5889316409
 21
97.1171163024
  0
LINE
  5
646
100
AcDbEntity
  8
0
100
AcDbLine
 62
7
  6
CONTINUOUS
 10
415.7376191953
 20
97.2328690603
 11
415.6732617292
 21
97.1707045217
  0
LINE
  5
647
100
AcDbEntity
  8
0
100
AcDbLine
 62
7
  6
CONTINUOUS
 10
415.4852983216
 20
96.9399003883
 11
415.4527080063
 21
96.9084205611
  0
LINE
  5
648
100
AcDbEntity
  8
0
100
AcDbLine
 62
7
  6
CONTINUOUS
 10
415.8912389404
 20
97.113422661
 11
415.8564921863
 21
97.0798598739
  0
LINE
  5
649
100
AcDbEntity
  8
0
100
AcDbLine
 62
7
  6
CONTINUOUS
 10
415.8689922366
 20
96.8244372508
 11
415.8381760425
 21
96.794671093
  0
LINE
  5
64A
100
AcDbEntity
  8
0
100
AcDbLine
 62
7
  6
CONTINUOUS
 10
416.0399926074
 20
96.9745245587
 11
416.0091764133
 21
96.9447584009
  0
LINE
  5
64B
100
AcDbEntity
  8
0
100
AcDbLine
 62
7
  6
CONTINUOUS
 10
416.0024533701
 20
96.6910928835
 11
415.9716371759
 21
96.6613267257
  0
LINE
  5
64C
100
AcDbEntity
  8
0
100
AcDbLine
 62
7
  6
CONTINUOUS
 10
416.1991727838
 20
96.8106209539
 11
416.1715273518
 21
96.7839175172
  0
LINE
  5
64D
100
AcDbEntity
  8
0
100
AcDbLine
 62
7
  6
CONTINUOUS
 10
416.0997689872
 20
96.6133132135
 11
416.0650222324
 21
96.5797504257
  0
LINE
  5
64E
100
AcDbEntity
  8
0
100
AcDbLine
 62
7
  6
CONTINUOUS
 10
416.3020488836
 20
96.6883840893
 11
416.2673021295
 21
96.6548213022
  0
LINE
  5
64F
100
AcDbEntity
  8
0
100
AcDbLine
 62
7
  6
CONTINUOUS
 10
416.1866581309
 20
96.5605390031
 11
416.1442539843
 21
96.5195797427
  0
LINE
  5
650
100
AcDbEntity
  8
0
100
AcDbLine
 62
7
  6
CONTINUOUS
 10
415.6311389847
 20
95.9225261413
 11
415.5641516866
 21
95.85782138
  0
LINE
  5
651
100
AcDbEntity
  8
0
100
AcDbLine
 62
7
  6
CONTINUOUS
 10
416.2784132653
 20
96.5272165276
 11
416.214055798
 21
96.4650519878
  0
LINE
  5
652
100
AcDbEntity
  8
0
100
AcDbLine
 62
7
  6
CONTINUOUS
 10
416.3138643591
 20
96.5355607494
 11
416.2269974726
 21
96.4516537804
  0
LINE
  5
653
100
AcDbEntity
  8
0
100
AcDbLine
 62
7
  6
CONTINUOUS
 10
416.4000590107
 20
96.5466954685
 11
416.2781382963
 21
96.4289291016
  0
LINE
  5
654
100
AcDbEntity
  8
0
100
AcDbLine
 62
7
  6
CONTINUOUS
 10
416.4570575524
 20
96.4411198309
 11
416.3978360984
 21
96.3839162991
  0
LINE
  5
655
100
AcDbEntity
  8
0
100
AcDbLine
 62
7
  6
CONTINUOUS
 10
415.8170643579
 20
95.613526499
 11
416.0835739
 21
95.8709549486
  0
LINE
  5
656
100
AcDbEntity
  8
0
100
AcDbLine
 62
7
  6
CONTINUOUS
 10
415.9846923753
 20
95.5810197903
 11
415.9177050772
 21
95.516315029
  0
LINE
  5
657
100
AcDbEntity
  8
0
100
AcDbLine
 62
7
  6
CONTINUOUS
 10
417.3915466248
 20
95.777710903
 11
417.2641308176
 21
95.6546366841
  0
LINE
  5
658
100
AcDbEntity
  8
0
100
AcDbLine
 62
7
  6
CONTINUOUS
 10
421.9951000154
 20
94.8223832037
 11
421.7613413822
 21
94.5965897028
  0
LINE
  5
659
100
AcDbEntity
  8
0
100
AcDbLine
 62
7
  6
CONTINUOUS
 10
422.348653406
 20
94.3514673302
 11
422.0658106935
 21
94.0782622495
  0
LINE
  5
65A
100
AcDbEntity
  8
0
100
AcDbLine
 62
7
  6
CONTINUOUS
 10
409.680910638
 20
105.703268806
 11
409.6207313447
 21
105.6535562811
  0
LINE
  5
65B
100
AcDbEntity
  8
0
100
AcDbLine
 62
7
  6
CONTINUOUS
 10
409.4687786036
 20
103.3415504604
 11
409.4085993103
 21
103.2918379047
  0
LINE
  5
65C
100
AcDbEntity
  8
0
100
AcDbLine
 62
7
  6
CONTINUOUS
 10
410.6723646393
 20
102.2005438576
 11
410.6121853459
 21
102.1508313328
  0
LINE
  5
65D
100
AcDbEntity
  8
0
100
AcDbLine
 62
7
  6
CONTINUOUS
 10
412.3889791708
 20
102.7639516799
 11
412.4491584694
 21
102.813664215
  0
LINE
  5
65E
100
AcDbEntity
  8
0
100
AcDbLine
 62
7
  6
CONTINUOUS
 10
412.1768471364
 20
100.3590967908
 11
412.237026435
 21
100.4088093105
  0
LINE
  5
65F
100
AcDbEntity
  8
0
100
AcDbLine
 62
7
  6
CONTINUOUS
 10
439.2097701918
 20
77.5386137833
 11
439.2579136307
 21
77.5956384103
  0
LINE
  5
660
100
AcDbEntity
  8
0
100
AcDbLine
 62
7
  6
CONTINUOUS
 10
423.6364904861
 20
92.5294830421
 11
423.5933798861
 21
92.4878414002
  0
LINE
  5
661
100
AcDbEntity
  8
0
100
AcDbLine
 62
7
  6
CONTINUOUS
 10
423.8290642248
 20
92.5332717192
 11
423.6364904861
 21
92.3472597715
  0
LINE
  5
662
100
AcDbEntity
  8
0
100
AcDbLine
 62
7
  6
CONTINUOUS
 10
423.8290642248
 20
92.3434710944
 11
423.7103031484
 21
92.2287567036
  0
LINE
  5
663
100
AcDbEntity
  8
0
100
AcDbLine
 62
7
  6
CONTINUOUS
 10
423.8290642248
 20
92.2571980752
 11
423.7600872661
 21
92.1905714494
  0
LINE
  5
664
100
AcDbEntity
  8
0
100
AcDbLine
 62
7
  6
CONTINUOUS
 10
421.6415466248
 20
90.1169181752
 11
421.5745593267
 21
90.0522134139
  0
LINE
  5
665
100
AcDbEntity
  8
0
100
AcDbLine
 62
7
  6
CONTINUOUS
 10
421.9951000154
 20
90.0120277055
 11
421.8056313244
 21
89.8290150036
  0
LINE
  5
666
100
AcDbEntity
  8
0
100
AcDbLine
 62
7
  6
CONTINUOUS
 10
422.348653406
 20
89.4339054733
 11
422.2816661079
 21
89.369200712
  0
LINE
  5
667
100
AcDbEntity
  8
0
100
AcDbLine
 62
7
  6
CONTINUOUS
 10
424.6956461165
 20
91.5064172646
 11
424.6509879156
 21
91.463280755
  0
LINE
  5
668
100
AcDbEntity
  8
0
100
AcDbLine
 62
7
  6
CONTINUOUS
 10
424.8400764543
 20
91.3841628578
 11
424.7866753635
 21
91.3325813651
  0
LINE
  5
669
100
AcDbEntity
  8
0
100
AcDbLine
 62
7
  6
CONTINUOUS
 10
424.9363633236
 20
91.3429206929
 11
424.8625269106
 21
91.2716001947
  0
LINE
  5
66A
100
AcDbEntity
  8
0
100
AcDbLine
 62
7
  6
CONTINUOUS
 10
424.9845067752
 20
91.3826907212
 11
424.8663685037
 21
91.2685779138
  0
LINE
  5
66B
100
AcDbEntity
  8
0
100
AcDbLine
 62
7
  6
CONTINUOUS
 10
425.1770805308
 20
91.1966787572
 11
425.1236794337
 21
91.1450972584
  0
LINE
  5
66C
100
AcDbEntity
  8
0
100
AcDbLine
 62
7
  6
CONTINUOUS
 10
426.2377407025
 20
90.7243069924
 11
425.9548979901
 21
90.4511019116
  0
LINE
  5
66D
100
AcDbEntity
  8
0
100
AcDbLine
 62
7
  6
CONTINUOUS
 10
425.8841873119
 20
86.0188419638
 11
425.8172000138
 21
85.9541372026
  0
LINE
  5
66E
100
AcDbEntity
  8
0
100
AcDbLine
 62
7
  6
CONTINUOUS
 10
429.1169094261
 20
84.0398277272
 11
429.0804014172
 21
84.0045636985
  0
LINE
  5
66F
100
AcDbEntity
  8
0
100
AcDbLine
 62
7
  6
CONTINUOUS
 10
429.1705217411
 20
84.0264567472
 11
429.0905339068
 21
83.9491944323
  0
LINE
  5
670
100
AcDbEntity
  8
0
100
AcDbLine
 62
7
  6
CONTINUOUS
 10
429.2643330132
 20
83.9788499499
 11
429.1375128276
 21
83.8563510574
  0
LINE
  5
671
100
AcDbEntity
  8
0
100
AcDbLine
 62
7
  6
CONTINUOUS
 10
429.2201204276
 20
83.8719315778
 11
429.1695996902
 21
83.8231322928
  0
LINE
  5
672
100
AcDbEntity
  8
0
100
AcDbLine
 62
7
  6
CONTINUOUS
 10
429.2240723051
 20
83.8678402932
 11
429.1735515677
 21
83.8190410082
  0
LINE
  5
673
100
AcDbEntity
  8
0
100
AcDbLine
 62
7
  6
CONTINUOUS
 10
429.237454797
 20
83.816082391
 11
429.1987175514
 21
83.7786650851
  0
LINE
  5
674
100
AcDbEntity
  8
0
100
AcDbLine
 62
7
  6
CONTINUOUS
 10
429.4117360421
 20
83.8694570082
 11
429.3770055333
 21
83.8359099127
  0
LINE
  5
675
100
AcDbEntity
  8
0
100
AcDbLine
 62
7
  6
CONTINUOUS
 10
429.2910362365
 20
83.7300886739
 11
429.2563057246
 21
83.6965415756
  0
LINE
  5
676
100
AcDbEntity
  8
0
100
AcDbLine
 62
7
  6
CONTINUOUS
 10
429.3580208393
 20
83.640752123
 11
429.3273717454
 21
83.6111473716
  0
LINE
  5
677
100
AcDbEntity
  8
0
100
AcDbLine
 62
7
  6
CONTINUOUS
 10
429.5591287633
 20
83.7358564915
 11
429.5333500525
 21
83.710956169
  0
LINE
  5
678
100
AcDbEntity
  8
0
100
AcDbLine
 62
7
  6
CONTINUOUS
 10
429.5053929689
 20
83.4587364503
 11
429.479075922
 21
83.433316135
  0
LINE
  5
679
100
AcDbEntity
  8
0
100
AcDbLine
 62
7
  6
CONTINUOUS
 10
429.5724392716
 20
83.5146454538
 11
429.5373236288
 21
83.4807263475
  0
LINE
  5
67A
100
AcDbEntity
  8
0
100
AcDbLine
 62
7
  6
CONTINUOUS
 10
429.6394546749
 20
83.4979317263
 11
429.5541738349
 21
83.4155567606
  0
LINE
  5
67B
100
AcDbEntity
  8
0
100
AcDbLine
 62
7
  6
CONTINUOUS
 10
429.5589847066
 20
83.3969503106
 11
429.5358177116
 21
83.3745727118
  0
LINE
  5
67C
100
AcDbEntity
  8
0
100
AcDbLine
 62
7
  6
CONTINUOUS
 10
429.7332659661
 20
83.4503249243
 11
429.5822420807
 21
83.3044470529
  0
LINE
  5
67D
100
AcDbEntity
  8
0
100
AcDbLine
 62
7
  6
CONTINUOUS
 10
429.6756502731
 20
83.3467493044
 11
429.6061892553
 21
83.2796551134
  0
LINE
  5
67E
100
AcDbEntity
  8
0
100
AcDbLine
 62
7
  6
CONTINUOUS
 10
429.6796021506
 20
83.3426580198
 11
429.6101411328
 21
83.2755638288
  0
LINE
  5
67F
100
AcDbEntity
  8
0
100
AcDbLine
 62
7
  6
CONTINUOUS
 10
430.0351985458
 20
83.6641471365
 11
429.9490478747
 21
83.5809319783
  0
LINE
  5
680
100
AcDbEntity
  8
0
100
AcDbLine
 62
7
  6
CONTINUOUS
 10
429.6929846425
 20
83.2909001176
 11
429.6424639051
 21
83.2421008325
  0
LINE
  5
681
100
AcDbEntity
  8
0
100
AcDbLine
 62
7
  6
CONTINUOUS
 10
429.7197702131
 20
83.2357994703
 11
429.6829263478
 21
83.2002110293
  0
LINE
  5
682
100
AcDbEntity
  8
0
100
AcDbLine
 62
7
  6
CONTINUOUS
 10
430.0786672035
 20
83.5383679766
 11
430.012348264
 21
83.4743088001
  0
LINE
  5
683
100
AcDbEntity
  8
0
100
AcDbLine
 62
7
  6
CONTINUOUS
 10
429.8806689568
 20
83.3409319922
 11
429.8459384479
 21
83.3073848967
  0
LINE
  5
684
100
AcDbEntity
  8
0
100
AcDbLine
 62
7
  6
CONTINUOUS
 10
430.0678872802
 20
83.5098408458
 11
430.0083920364
 21
83.4523728533
  0
LINE
  5
685
100
AcDbEntity
  8
0
100
AcDbLine
 62
7
  6
CONTINUOUS
 10
430.171949318
 20
83.5745127927
 11
430.1215781632
 21
83.5258579933
  0
LINE
  5
686
100
AcDbEntity
  8
0
100
AcDbLine
 62
7
  6
CONTINUOUS
 10
429.7867547784
 20
83.1464629626
 11
429.7541376273
 21
83.114957214
  0
LINE
  5
687
100
AcDbEntity
  8
0
100
AcDbLine
 62
7
  6
CONTINUOUS
 10
430.1303080279
 20
83.3740122048
 11
430.0949756901
 21
83.3398837873
  0
LINE
  5
688
100
AcDbEntity
  8
0
100
AcDbLine
 62
7
  6
CONTINUOUS
 10
430.0012658091
 20
83.2382245453
 11
429.9681103262
 21
83.206198808
  0
LINE
  5
689
100
AcDbEntity
  8
0
100
AcDbLine
 62
7
  6
CONTINUOUS
 10
429.867142385
 20
83.0537837532
 11
429.8392503117
 21
83.0268420792
  0
LINE
  5
68A
100
AcDbEntity
  8
0
100
AcDbLine
 62
7
  6
CONTINUOUS
 10
430.3358244349
 20
83.4362524054
 11
430.3016444853
 21
83.4032371095
  0
LINE
  5
68B
100
AcDbEntity
  8
0
100
AcDbLine
 62
7
  6
CONTINUOUS
 10
429.9609330703
 20
82.9577617987
 11
429.9351543546
 21
82.9328614715
  0
LINE
  5
68C
100
AcDbEntity
  8
0
100
AcDbLine
 62
7
  6
CONTINUOUS
 10
430.249585113
 20
83.2080352771
 11
430.2181366759
 21
83.1776584195
  0
LINE
  5
68D
100
AcDbEntity
  8
0
100
AcDbLine
 62
7
  6
CONTINUOUS
 10
430.16205133
 20
83.0770737014
 11
430.1341592493
 21
83.0501320203
  0
LINE
  5
68E
100
AcDbEntity
  8
0
100
AcDbLine
 62
7
  6
CONTINUOUS
 10
430.4617952838
 20
83.3180909308
 11
430.4303571048
 21
83.2877239818
  0
LINE
  5
68F
100
AcDbEntity
  8
0
100
AcDbLine
 62
7
  6
CONTINUOUS
 10
430.0681268626
 20
82.8583970752
 11
430.0365464056
 21
82.8278926962
  0
LINE
  5
690
100
AcDbEntity
  8
0
100
AcDbLine
 62
7
  6
CONTINUOUS
 10
430.2960307118
 20
82.922608309
 11
430.2613002029
 21
82.8890612135
  0
LINE
  5
691
100
AcDbEntity
  8
0
100
AcDbLine
 62
7
  6
CONTINUOUS
 10
430.1619278461
 20
82.7865826981
 11
430.1271973367
 21
82.7530356021
  0
LINE
  5
692
100
AcDbEntity
  8
0
100
AcDbLine
 62
7
  6
CONTINUOUS
 10
430.5918521838
 20
83.1806411914
 11
430.5644959163
 21
83.1542170661
  0
LINE
  5
693
100
AcDbEntity
  8
0
100
AcDbLine
 62
7
  6
CONTINUOUS
 10
430.4108524088
 20
83.0026712296
 11
430.38419696
 21
82.9769240432
  0
LINE
  5
694
100
AcDbEntity
  8
0
100
AcDbLine
 62
7
  6
CONTINUOUS
 10
430.2289329608
 20
82.7456613909
 11
430.1876907082
 21
82.705824434
  0
LINE
  5
695
100
AcDbEntity
  8
0
100
AcDbLine
 62
7
  6
CONTINUOUS
 10
430.6799189376
 20
83.0825784897
 11
430.6560052457
 21
83.0594796371
  0
LINE
  5
696
100
AcDbEntity
  8
0
100
AcDbLine
 62
7
  6
CONTINUOUS
 10
430.3227545407
 20
82.7222621686
 11
430.2585569302
 21
82.6602520387
  0
LINE
  5
697
100
AcDbEntity
  8
0
100
AcDbLine
 62
7
  6
CONTINUOUS
 10
430.4032038981
 20
82.7748284331
 11
430.2711203033
 21
82.6472454777
  0
LINE
  5
698
100
AcDbEntity
  8
0
100
AcDbLine
 62
7
  6
CONTINUOUS
 10
430.5680335773
 20
82.8165954632
 11
430.5441199128
 21
82.793496637
  0
LINE
  5
699
100
AcDbEntity
  8
0
100
AcDbLine
 62
7
  6
CONTINUOUS
 10
430.4701781371
 20
82.6612843805
 11
430.3849268978
 21
82.5789380067
  0
LINE
  5
69A
100
AcDbEntity
  8
0
100
AcDbLine
 62
7
  6
CONTINUOUS
 10
430.8140618888
 20
82.9258404855
 11
430.7874064537
 21
82.9000933123
  0
LINE
  5
69B
100
AcDbEntity
  8
0
100
AcDbLine
 62
7
  6
CONTINUOUS
 10
431.2370293968
 20
83.1321817834
 11
431.1883769635
 21
83.0851871415
  0
LINE
  5
69C
100
AcDbEntity
  8
0
100
AcDbLine
 62
7
  6
CONTINUOUS
 10
430.7820711317
 20
82.6003713485
 11
430.7567558442
 21
82.5759186585
  0
LINE
  5
69D
100
AcDbEntity
  8
0
100
AcDbLine
 62
7
  6
CONTINUOUS
 10
430.1268279991
 20
81.894883848
 11
430.0732381606
 21
81.8431200389
  0
LINE
  5
69E
100
AcDbEntity
  8
0
100
AcDbLine
 62
7
  6
CONTINUOUS
 10
431.0214055548
 20
82.6618009958
 11
430.9856318106
 21
82.6272462124
  0
LINE
  5
69F
100
AcDbEntity
  8
0
100
AcDbLine
 62
7
  6
CONTINUOUS
 10
430.8850037954
 20
82.5115475949
 11
430.8508238449
 21
82.478532298
  0
LINE
  5
6A0
100
AcDbEntity
  8
0
100
AcDbLine
 62
7
  6
CONTINUOUS
 10
431.3742840173
 20
82.9800205425
 11
431.3247368893
 21
82.932161692
  0
LINE
  5
6A1
100
AcDbEntity
  8
0
100
AcDbLine
 62
7
  6
CONTINUOUS
 10
431.4364455666
 20
82.8833291169
 11
431.4091573366
 21
82.8569707109
  0
LINE
  5
6A2
100
AcDbEntity
  8
0
100
AcDbLine
 62
7
  6
CONTINUOUS
 10
431.0028024336
 20
82.4319627074
 11
430.9631389412
 21
82.3936507157
  0
LINE
  5
6A3
100
AcDbEntity
  8
0
100
AcDbLine
 62
7
  6
CONTINUOUS
 10
431.1176444871
 20
82.5251617481
 11
431.0680085441
 21
82.4772171088
  0
LINE
  5
6A4
100
AcDbEntity
  8
0
100
AcDbLine
 62
7
  6
CONTINUOUS
 10
430.2655042257
 20
81.6574052811
 11
430.4986640837
 21
81.8826204097
  0
LINE
  5
6A5
100
AcDbEntity
  8
0
100
AcDbLine
 62
7
  6
CONTINUOUS
 10
431.07452481
 20
82.4110532044
 11
431.0145221538
 21
82.3530950892
  0
LINE
  5
6A6
100
AcDbEntity
  8
0
100
AcDbLine
 62
7
  6
CONTINUOUS
 10
431.1678069084
 20
82.4471980411
 11
431.0478016036
 21
82.3312818179
  0
LINE
  5
6A7
100
AcDbEntity
  8
0
100
AcDbLine
 62
7
  6
CONTINUOUS
 10
430.4096707115
 20
81.6216787672
 11
430.356080873
 21
81.5699149582
  0
LINE
  5
6A8
100
AcDbEntity
  8
0
100
AcDbLine
 62
7
  6
CONTINUOUS
 10
431.2220555055
 20
82.3499459913
 11
431.1454108595
 21
82.2759129483
  0
LINE
  5
6A9
100
AcDbEntity
  8
0
100
AcDbLine
 62
7
  6
CONTINUOUS
 10
432.5176959248
 20
82.0701456042
 11
432.3112106446
 21
81.8706961393
  0
LINE
  5
6AA
100
AcDbEntity
  8
0
100
AcDbLine
 62
7
  6
CONTINUOUS
 10
432.8760080978
 20
80.9558110271
 11
432.8046380448
 21
80.8868728497
  0
LINE
  5
6AB
100
AcDbEntity
  8
0
100
AcDbLine
 62
7
  6
CONTINUOUS
 10
435.7836822486
 20
81.5036355168
 11
435.5008395361
 21
81.2304304361
  0
LINE
  5
6AC
100
AcDbEntity
  8
0
100
AcDbLine
 62
7
  6
CONTINUOUS
 10
436.1372356391
 20
81.0327196433
 11
435.8543929267
 21
80.7595145626
  0
LINE
  5
6AD
100
AcDbEntity
  8
0
100
AcDbLine
 62
7
  6
CONTINUOUS
 10
437.717323586
 20
78.9284426952
 11
437.674212986
 21
78.8868010533
  0
LINE
  5
6AE
100
AcDbEntity
  8
0
100
AcDbLine
 62
7
  6
CONTINUOUS
 10
435.5008395361
 20
76.7039873136
 11
435.4472496976
 21
76.6522235046
  0
LINE
  5
6AF
100
AcDbEntity
  8
0
100
AcDbLine
 62
7
  6
CONTINUOUS
 10
437.9098973247
 20
78.9322313723
 11
437.717323586
 21
78.7462194246
  0
LINE
  5
6B0
100
AcDbEntity
  8
0
100
AcDbLine
 62
7
  6
CONTINUOUS
 10
435.7836822486
 20
76.779749468
 11
435.5494536769
 21
76.5535020414
  0
LINE
  5
6B1
100
AcDbEntity
  8
0
100
AcDbLine
 62
7
  6
CONTINUOUS
 10
437.9098973247
 20
78.7424307475
 11
437.7911362484
 21
78.6277163567
  0
LINE
  5
6B2
100
AcDbEntity
  8
0
100
AcDbLine
 62
7
  6
CONTINUOUS
 10
437.9098973247
 20
78.6561577283
 11
437.840920366
 21
78.5895311025
  0
LINE
  5
6B3
100
AcDbEntity
  8
0
100
AcDbLine
 62
7
  6
CONTINUOUS
 10
436.1372356391
 20
76.1151577864
 11
436.070248341
 21
76.0504530251
  0
LINE
  5
6B4
100
AcDbEntity
  8
0
100
AcDbLine
 62
7
  6
CONTINUOUS
 10
438.7764792164
 20
77.9053769177
 11
438.7318210156
 21
77.8622404081
  0
LINE
  5
6B5
100
AcDbEntity
  8
0
100
AcDbLine
 62
7
  6
CONTINUOUS
 10
438.9209095542
 20
77.7831225109
 11
438.8675084635
 21
77.7315410182
  0
LINE
  5
6B6
100
AcDbEntity
  8
0
100
AcDbLine
 62
7
  6
CONTINUOUS
 10
439.0171964236
 20
77.741880346
 11
438.9433600106
 21
77.6705598478
  0
LINE
  5
6B7
100
AcDbEntity
  8
0
100
AcDbLine
 62
7
  6
CONTINUOUS
 10
439.0653398751
 20
77.7816503743
 11
438.9472016037
 21
77.6675375669
  0
LINE
  5
6B8
100
AcDbEntity
  8
0
100
AcDbLine
 62
7
  6
CONTINUOUS
 10
439.2579136307
 20
77.5956384103
 11
439.2045125336
 21
77.5440569115
  0
LINE
  5
6B9
100
AcDbEntity
  8
0
100
AcDbLine
 62
7
  6
CONTINUOUS
 10
440.0263229357
 20
77.4055593055
 11
439.7434802232
 21
77.1323542247
  0
LINE
  5
6BA
100
AcDbEntity
  8
0
100
AcDbLine
 62
7
  6
CONTINUOUS
 10
424.9845067752
 20
91.3826907212
 11
424.9363633236
 21
91.3429206929
  0
LINE
  5
6BB
100
AcDbEntity
  8
0
100
AcDbLine
 62
7
  6
CONTINUOUS
 10
409.9216278114
 20
105.3629126128
 11
409.9818071048
 21
105.3910569045
  0
LINE
  5
6BC
100
AcDbEntity
  8
0
100
AcDbLine
 62
7
  6
CONTINUOUS
 10
410.8844966736
 20
104.346579717
 11
410.8243173803
 21
104.3184354254
  0
LINE
  5
6BD
100
AcDbEntity
  8
0
100
AcDbLine
 62
7
  6
CONTINUOUS
 10
411.1252138471
 20
104.2003377768
 11
411.1853931404
 21
104.2284820685
  0
LINE
  5
6BE
100
AcDbEntity
  8
0
100
AcDbLine
 62
7
  6
CONTINUOUS
 10
439.6727695451
 20
72.7000942769
 11
439.605782247
 21
72.6353895157
  0
LINE
  5
6BF
100
AcDbEntity
  8
RUNDUNGEN
100
AcDbLine
 62
7
  6
CONTINUOUS
 10
445.3864845218
 20
67.8349495393
 11
447.7550567664
 21
70.1228146418
  0
LINE
  5
6C0
100
AcDbEntity
  8
KONSTRUKTIONSELEMENTE
100
AcDbLine
 62
7
  6
CONTINUOUS
 10
454.8755653406
 20
65.8834201574
 11
451.3400314347
 21
62.4683566479
  0
LINE
  5
6C1
100
AcDbEntity
  8
RUNDUNGEN
100
AcDbLine
 62
7
  6
CONTINUOUS
 10
451.2905906723
 20
50.8318234662
 11
454.8261245783
 21
54.2468869757
  0
LINE
  5
6C2
100
AcDbEntity
  8
0
100
AcDbLine
 62
7
  6
CONTINUOUS
 10
439.0653398751
 20
77.7816503743
 11
439.0171964236
 21
77.741880346
  0
LINE
  5
6C3
100
AcDbEntity
  8
0
100
AcDbLine
 62
7
  6
CONTINUOUS
 10
412.1482619605
 20
103.1258761881
 11
412.0880826671
 21
103.0977318964
  0
LINE
  5
6C4
100
AcDbEntity
  8
0
100
AcDbLine
 62
7
  6
CONTINUOUS
 10
410.973261106
 20
101.8020589308
 11
411.0334403994
 21
101.8302032225
  0
LINE
  5
6C5
100
AcDbEntity
  8
0
100
AcDbLine
 62
7
  6
CONTINUOUS
 10
410.9130818127
 20
101.6445051166
 11
410.973261106
 21
101.6726494083
  0
LINE
  5
6C6
100
AcDbEntity
  8
0
100
AcDbLine
 62
7
  6
CONTINUOUS
 10
411.8759506328
 20
100.7575817532
 11
411.8157713394
 21
100.729437477
  0
LINE
  5
6C7
100
AcDbEntity
  8
0
100
AcDbLine
 62
7
  6
CONTINUOUS
 10
429.1169094261
 20
84.0398277272
 11
429.0766898821
 21
84.0256483873
  0
LINE
  5
6C8
100
AcDbEntity
  8
0
100
AcDbLine
 62
7
  6
CONTINUOUS
 10
429.5724392716
 20
83.5146454538
 11
429.5322197276
 21
83.5004661138
  0
LINE
  5
6C9
100
AcDbEntity
  8
0
100
AcDbLine
 62
7
  6
CONTINUOUS
 10
430.4433308153
 20
82.5711395453
 11
430.4835503666
 21
82.5853188856
  0
ARC
  5
6CA
100
AcDbEntity
  8
KONSTRUKTIONSELEMENTE
100
AcDbCircle
 62
7
  6
CONTINUOUS
 10
707.2704326913
 20
204.6998148274
 40
30.7197128927
100
AcDbArc
 50
259.4262461443
 51
268.6815744353
  0
ARC
  5
6CB
100
AcDbEntity
  8
KONSTRUKTIONSELEMENTE
100
AcDbCircle
 62
7
  6
CONTINUOUS
 10
682.91686647
 20
114.3178983188
 40
28.79136
100
AcDbArc
 50
41.9721560344
 51
64.9991254185
  0
ARC
  5
6CC
100
AcDbEntity
  8
KONSTRUKTIONSELEMENTE
100
AcDbCircle
 62
7
  6
CONTINUOUS
 10
682.91686647
 20
114.3178983188
 40
28.79136
100
AcDbArc
 50
85.0008745815
 51
108.0278439656
  0
ARC
  5
6CD
100
AcDbEntity
  8
RUNDUNGEN
100
AcDbCircle
 62
7
  6
CONTINUOUS
 10
721.9305684167
 20
196.0516611945
 40
27.7566678191
100
AcDbArc
 50
255.0054115361
 51
255.9708056369
  0
ARC
  5
6CE
100
AcDbEntity
  8
RUNDUNGEN
100
AcDbCircle
 62
7
  6
CONTINUOUS
 10
689.9966447364
 20
204.6073681391
 40
27.7557384852
100
AcDbArc
 50
254.029932686
 51
254.9945997237
  0
ARC
  5
6CF
100
AcDbEntity
  8
BEZUGSACHSEN
100
AcDbCircle
 62
7
  6
CONTINUOUS
 10
702.1060624678
 20
185.932952739
 40
12.75
100
AcDbArc
 50
119.9044389838
 51
30.0955610162
  0
ARC
  5
6D0
100
AcDbEntity
  8
0
100
AcDbCircle
 62
7
  6
CONTINUOUS
 10
729.7349955325
 20
289.0455346953
 40
9.0
100
AcDbArc
 50
345.0
 51
165.0
  0
ARC
  5
6D1
100
AcDbEntity
  8
0
100
AcDbCircle
 62
7
  6
CONTINUOUS
 10
703.076633887
 20
189.5551745875
 40
9.0
100
AcDbArc
 50
165.0
 51
345.0
  0
ARC
  5
6D2
100
AcDbEntity
  8
RUNDUNGEN
100
AcDbCircle
 62
7
  6
CONTINUOUS
 10
680.8324663252
 20
172.2217672628
 40
6.0
100
AcDbArc
 50
101.2394469635
 51
165.0
  0
ARC
  5
6D3
100
AcDbEntity
  8
RUNDUNGEN
100
AcDbCircle
 62
7
  6
CONTINUOUS
 10
713.6739444191
 20
163.4219197293
 40
6.0
100
AcDbArc
 50
345.0
 51
48.7605530365
  0
ARC
  5
6D4
100
AcDbEntity
  8
KONSTRUKTIONSELEMENTE
100
AcDbCircle
 62
7
  6
CONTINUOUS
 10
695.490647675
 20
161.243888619
 40
5.0
100
AcDbArc
 50
345.0000014742
 51
165.0
  0
ARC
  5
6D5
100
AcDbEntity
  8
RUNDUNGEN
100
AcDbCircle
 62
7
  6
CONTINUOUS
 10
680.4658284321
 20
174.0676981589
 40
4.1180105822
100
AcDbArc
 50
98.1855758857
 51
101.2420010499
  0
ARC
  5
6D6
100
AcDbEntity
  8
RUNDUNGEN
100
AcDbCircle
 62
7
  6
CONTINUOUS
 10
714.9144275966
 20
164.8372238324
 40
4.1180105822
100
AcDbArc
 50
48.7579989501
 51
51.8144241143
  0
ARC
  5
6D7
100
AcDbEntity
  8
KONSTRUKTIONSELEMENTE
100
AcDbCircle
 62
7
  6
CONTINUOUS
 10
680.033868365
 20
103.5584029126
 40
2.5
100
AcDbArc
 50
165.0
 51
345.0
  0
ARC
  5
6D8
100
AcDbEntity
  8
KONSTRUKTIONSELEMENTE
100
AcDbCircle
 62
7
  6
CONTINUOUS
 10
685.8610680534
 20
125.3058082158
 40
2.5
100
AcDbArc
 50
345.0
 51
165.0
  0
ARC
  5
6D9
100
AcDbEntity
  8
KONSTRUKTIONSELEMENTE
100
AcDbCircle
 62
7
  6
CONTINUOUS
 10
695.8644670786
 20
162.6390016263
 40
2.5
100
AcDbArc
 50
165.0
 51
345.0
  0
ARC
  5
6DA
100
AcDbEntity
  8
KONSTRUKTIONSELEMENTE
100
AcDbCircle
 62
7
  6
CONTINUOUS
 10
687.956209617
 20
133.1249829802
 40
2.25
100
AcDbArc
 50
165.0
 51
345.0
  0
ARC
  5
6DB
100
AcDbEntity
  8
KONSTRUKTIONSELEMENTE
100
AcDbCircle
 62
7
  6
CONTINUOUS
 10
693.6778191641
 20
154.4783205109
 40
2.25
100
AcDbArc
 50
64.84376417
 51
85.15623583
  0
CIRCLE
  5
6DC
100
AcDbEntity
  8
BEZUGSACHSEN
100
AcDbCircle
 62
7
  6
CONTINUOUS
 10
678.441110806
 20
154.7969596948
 40
1.75
  0
ARC
  5
6DD
100
AcDbEntity
  8
0
100
AcDbCircle
 62
7
  6
CONTINUOUS
 10
688.1715746442
 20
95.4067401565
 40
1.7033694965
100
AcDbArc
 50
335.5636876714
 51
340.3957076165
  0
ARC
  5
6DE
100
AcDbEntity
  8
0
100
AcDbCircle
 62
7
  6
CONTINUOUS
 10
670.0356954181
 20
99.7429942507
 40
0.3335678168
100
AcDbArc
 50
63.8903114986
 51
74.9692795101
  0
ARC
  5
6DF
100
AcDbEntity
  8
KONSTRUKTIONSELEMENTE
100
AcDbCircle
 62
7
  6
CONTINUOUS
 10
836.5991430588
 20
114.3178983188
 40
28.79136
100
AcDbArc
 50
115.0008745815
 51
138.0278439656
  0
ARC
  5
6E0
100
AcDbEntity
  8
KONSTRUKTIONSELEMENTE
100
AcDbCircle
 62
7
  6
CONTINUOUS
 10
836.5991430588
 20
114.3178983188
 40
28.79136
100
AcDbArc
 50
71.9721560344
 51
94.9991254185
  0
ARC
  5
6E1
100
AcDbEntity
  8
0
100
AcDbCircle
 62
7
  6
CONTINUOUS
 10
797.5854411121
 20
196.0516611945
 40
27.7566678191
100
AcDbArc
 50
284.0291943631
 51
284.9945884639
  0
ARC
  5
6E2
100
AcDbEntity
  8
0
100
AcDbCircle
 62
7
  6
CONTINUOUS
 10
829.5193647926
 20
204.6073681386
 40
27.7557384847
100
AcDbArc
 50
285.0054002763
 51
285.970067314
  0
ARC
  5
6E3
100
AcDbEntity
  8
BEZUGSACHSEN
100
AcDbCircle
 62
7
  6
CONTINUOUS
 10
817.409947061
 20
185.932952739
 40
12.75
100
AcDbArc
 50
149.9044389838
 51
60.0955610162
  0
ARC
  5
6E4
100
AcDbEntity
  8
0
100
AcDbCircle
 62
7
  6
CONTINUOUS
 10
789.7810139963
 20
289.0455346953
 40
9.0
100
AcDbArc
 50
15.0
 51
195.0
  0
ARC
  5
6E5
100
AcDbEntity
  8
0
100
AcDbCircle
 62
7
  6
CONTINUOUS
 10
816.4393756419
 20
189.5551745875
 40
9.0
100
AcDbArc
 50
195.0
 51
15.0
  0
ARC
  5
6E6
100
AcDbEntity
  8
0
100
AcDbCircle
 62
7
  6
CONTINUOUS
 10
805.8420651098
 20
163.4219197293
 40
6.0
100
AcDbArc
 50
131.2394469635
 51
195.0
  0
ARC
  5
6E7
100
AcDbEntity
  8
0
100
AcDbCircle
 62
7
  6
CONTINUOUS
 10
838.6835432036
 20
172.2217672628
 40
6.0
100
AcDbArc
 50
15.0
 51
78.7605530365
  0
ARC
  5
6E8
100
AcDbEntity
  8
0
100
AcDbCircle
 62
7
  6
CONTINUOUS
 10
824.0253618538
 20
161.243888619
 40
5.0
100
AcDbArc
 50
15.0
 51
194.9999985258
  0
ARC
  5
6E9
100
AcDbEntity
  8
0
100
AcDbCircle
 62
7
  6
CONTINUOUS
 10
804.6015819322
 20
164.8372238324
 40
4.1180105822
100
AcDbArc
 50
128.1855758857
 51
131.2420010499
  0
ARC
  5
6EA
100
AcDbEntity
  8
0
100
AcDbCircle
 62
7
  6
CONTINUOUS
 10
839.0501810967
 20
174.0676981589
 40
4.1180105822
100
AcDbArc
 50
78.7579989501
 51
81.8144241143
  0
CIRCLE
  5
6EB
100
AcDbEntity
  8
BEZUGSACHSEN
100
AcDbCircle
 62
7
  6
CONTINUOUS
 10
841.0748987228
 20
154.7969596948
 40
1.75
  0
ARC
  5
6EC
100
AcDbEntity
  8
0
100
AcDbCircle
 62
7
  6
CONTINUOUS
 10
759.7580047644
 20
401.0929305449
 40
161.0
100
AcDbArc
 50
180.0
 51
251.7952772672
  0
ARC
  5
6ED
100
AcDbEntity
  8
0
100
AcDbCircle
 62
7
  6
CONTINUOUS
 10
759.7580047644
 20
401.0929305449
 40
161.0
100
AcDbArc
 50
258.2049392225
 51
281.7950607775
  0
ARC
  5
6EE
100
AcDbEntity
  8
0
100
AcDbCircle
 62
7
  6
CONTINUOUS
 10
759.7580047644
 20
401.0929305449
 40
161.0
100
AcDbArc
 50
288.2047227328
 51
360.0
  0
ARC
  5
6EF
100
AcDbEntity
  8
0
100
AcDbCircle
 62
7
  6
CONTINUOUS
 10
759.7580047644
 20
611.0929305449
 40
161.0
100
AcDbArc
 50
0.0
 51
180.0
  0
ARC
  5
6F0
100
AcDbEntity
  8
0
100
AcDbCircle
 62
7
  6
CONTINUOUS
 10
759.7580047644
 20
401.0929305449
 40
125.0
100
AcDbArc
 50
180.0
 51
250.8706717416
  0
ARC
  5
6F1
100
AcDbEntity
  8
0
100
AcDbCircle
 62
7
  6
CONTINUOUS
 10
759.7580047644
 20
401.0929305449
 40
125.0
100
AcDbArc
 50
259.1289357753
 51
280.8710642247
  0
ARC
  5
6F2
100
AcDbEntity
  8
0
100
AcDbCircle
 62
7
  6
CONTINUOUS
 10
759.7580047644
 20
401.0929305449
 40
125.0
100
AcDbArc
 50
289.1293282584
 51
360.0
  0
ARC
  5
6F3
100
AcDbEntity
  8
0
100
AcDbCircle
 62
7
  6
CONTINUOUS
 10
759.7580047644
 20
611.0929305449
 40
125.0
100
AcDbArc
 50
0.0
 51
180.0
  0
ARC
  5
6F4
100
AcDbEntity
  8
0
100
AcDbCircle
 62
7
  6
CONTINUOUS
 10
236.8312791735
 20
185.8099116463
 40
54.3993931242
100
AcDbArc
 50
1.142958506
 51
7.929924865
  0
ARC
  5
6F5
100
AcDbEntity
  8
0
100
AcDbCircle
 62
7
  6
CONTINUOUS
 10
288.7054717618
 20
177.1583193425
 40
35.4610844589
100
AcDbArc
 50
268.7073008821
 51
271.2926991179
  0
ARC
  5
6F6
100
AcDbEntity
  8
0
100
AcDbCircle
 62
7
  6
CONTINUOUS
 10
288.7054717618
 20
98.1150035065
 40
35.4610844589
100
AcDbArc
 50
88.7073008821
 51
91.2926991179
  0
ARC
  5
6F7
100
AcDbEntity
  8
KONSTRUKTIONSELEMENTE
100
AcDbCircle
 62
7
  6
CONTINUOUS
 10
333.3504876336
 20
132.9764747578
 40
33.1455707133
100
AcDbArc
 50
44.5353474264
 51
45.9812535785
  0
ARC
  5
6F8
100
AcDbEntity
  8
0
100
AcDbCircle
 62
7
  6
CONTINUOUS
 10
288.7054717618
 20
258.0929305449
 40
18.0
100
AcDbArc
 50
180.0
 51
360.0
  0
ARC
  5
6F9
100
AcDbEntity
  8
KONSTRUKTIONSELEMENTE
100
AcDbCircle
 62
7
  6
CONTINUOUS
 10
287.7834581386
 20
145.1692964532
 40
12.9220164464
100
AcDbArc
 50
352.3402638648
 51
0.0378745745
  0
ARC
  5
6FA
100
AcDbEntity
  8
KONSTRUKTIONSELEMENTE
100
AcDbCircle
 62
7
  6
CONTINUOUS
 10
329.6530721582
 20
177.5755413041
 40
9.0964505593
100
AcDbArc
 50
177.1004097402
 51
179.9796392337
  0
ARC
  5
6FB
100
AcDbEntity
  8
BEZUGSACHSEN
100
AcDbCircle
 62
7
  6
CONTINUOUS
 10
288.7054717618
 20
204.932952739
 40
6.25
100
AcDbArc
 50
0.0
 51
28.0724869359
  0
ARC
  5
6FC
100
AcDbEntity
  8
BEZUGSACHSEN
100
AcDbCircle
 62
7
  6
CONTINUOUS
 10
288.7054717618
 20
204.932952739
 40
6.25
100
AcDbArc
 50
151.9275130641
 51
180.0
  0
ARC
  5
6FD
100
AcDbEntity
  8
BEZUGSACHSEN
100
AcDbCircle
 62
7
  6
CONTINUOUS
 10
289.0666240004
 20
156.6964945547
 40
5.3295000262
100
AcDbArc
 50
4.4686945854
 51
5.8512461556
  0
ARC
  5
6FE
100
AcDbEntity
  8
BEZUGSACHSEN
100
AcDbCircle
 62
7
  6
CONTINUOUS
 10
288.3443195229
 20
156.6964945547
 40
5.329500026
100
AcDbArc
 50
174.1487538444
 51
175.5313054146
  0
ARC
  5
6FF
100
AcDbEntity
  8
BEZUGSACHSEN
100
AcDbCircle
 62
7
  6
CONTINUOUS
 10
289.078939506
 20
156.6974149335
 40
5.3171502485
100
AcDbArc
 50
2.1757275003
 51
4.4691468841
  0
ARC
  5
700
100
AcDbEntity
  8
BEZUGSACHSEN
100
AcDbCircle
 62
7
  6
CONTINUOUS
 10
288.3320040173
 20
156.6974149335
 40
5.3171502483
100
AcDbArc
 50
175.5308531159
 51
177.8242724997
  0
ARC
  5
701
100
AcDbEntity
  8
0
100
AcDbCircle
 62
7
  6
CONTINUOUS
 10
283.3054717618
 20
174.6217672628
 40
3.6
100
AcDbArc
 50
98.2471303551
 51
180.0
  0
ARC
  5
702
100
AcDbEntity
  8
RUNDUNGEN
100
AcDbCircle
 62
7
  6
CONTINUOUS
 10
294.1054717618
 20
174.6217672628
 40
3.6
100
AcDbArc
 50
0.0
 51
81.7528696449
  0
ARC
  5
703
100
AcDbEntity
  8
RUNDUNGEN
100
AcDbCircle
 62
7
  6
CONTINUOUS
 10
294.5554072519
 20
176.9101413477
 40
1.2783509896
100
AcDbArc
 50
105.2027779704
 51
110.6075832392
  0
ARC
  5
704
100
AcDbEntity
  8
0
100
AcDbCircle
 62
7
  6
CONTINUOUS
 10
282.8555362716
 20
176.9101413477
 40
1.2783509896
100
AcDbArc
 50
69.3924167608
 51
74.7972220296
  0
ARC
  5
705
100
AcDbEntity
  8
0
100
AcDbCircle
 62
7
  6
CONTINUOUS
 10
288.7054717618
 20
754.0929305449
 40
18.0
100
AcDbArc
 50
0.0
 51
180.0
  0
ARC
  5
706
100
AcDbEntity
  8
KONSTRUKTIONSELEMENTE
100
AcDbCircle
 62
7
  6
CONTINUOUS
 10
392.2411261226
 20
266.3431031534
 40
113.8296800947
100
AcDbArc
 50
224.0485547219
 51
225.9785494446
  0
ARC
  5
707
100
AcDbEntity
  8
KONSTRUKTIONSELEMENTE
100
AcDbCircle
 62
7
  6
CONTINUOUS
 10
392.0098008154
 20
266.1101536329
 40
107.5014167107
100
AcDbArc
 50
224.338048337
 51
225.9801205858
  0
ARC
  5
708
100
AcDbEntity
  8
0
100
AcDbCircle
 62
7
  6
CONTINUOUS
 10
340.57966435
 20
185.8099116463
 40
54.3993931242
100
AcDbArc
 50
172.0700751349
 51
178.857041494
  0
ARC
  5
709
100
AcDbEntity
  8
KONSTRUKTIONSELEMENTE
100
AcDbCircle
 62
7
  6
CONTINUOUS
 10
396.0514886723
 20
131.1093110942
 40
15.6688141016
100
AcDbArc
 50
233.3753354951
 51
233.5160582162
  0
ARC
  5
70A
100
AcDbEntity
  8
KONSTRUKTIONSELEMENTE
100
AcDbCircle
 62
7
  6
CONTINUOUS
 10
336.0889101279
 20
159.2744917976
 40
12.2468399772
100
AcDbArc
 50
55.2809419386
 51
55.5610984189
  0
ARC
  5
70B
100
AcDbEntity
  8
KONSTRUKTIONSELEMENTE
100
AcDbCircle
 62
7
  6
CONTINUOUS
 10
336.279200103
 20
159.5519156434
 40
11.9104261509
100
AcDbArc
 50
55.5613249791
 51
55.7966521662
  0
ARC
  5
70C
100
AcDbEntity
  8
KONSTRUKTIONSELEMENTE
100
AcDbCircle
 62
7
  6
CONTINUOUS
 10
399.6121823083
 20
110.6522400964
 40
9.5798813339
100
AcDbArc
 50
226.0538046676
 51
249.0189934888
  0
ARC
  5
70D
100
AcDbEntity
  8
KONSTRUKTIONSELEMENTE
100
AcDbCircle
 62
7
  6
CONTINUOUS
 10
399.9103187526
 20
110.2548299016
 40
9.3523666136
100
AcDbArc
 50
45.4559945701
 51
45.9929150436
  0
ARC
  5
70E
100
AcDbEntity
  8
KONSTRUKTIONSELEMENTE
100
AcDbCircle
 62
7
  6
CONTINUOUS
 10
338.7455821792
 20
169.3354286145
 40
9.3523666147
100
AcDbArc
 50
45.4559945702
 51
45.9929150436
  0
ARC
  5
70F
100
AcDbEntity
  8
BEZUGSACHSEN
100
AcDbCircle
 62
7
  6
CONTINUOUS
 10
398.934384387
 20
102.9376004706
 40
9.1894698553
100
AcDbArc
 50
54.7974011487
 51
55.4088814218
  0
ARC
  5
710
100
AcDbEntity
  8
KONSTRUKTIONSELEMENTE
100
AcDbCircle
 62
7
  6
CONTINUOUS
 10
390.8342139825
 20
118.4928754042
 40
9.1128567777
100
AcDbArc
 50
155.3174888113
 51
179.9666787515
  0
ARC
  5
711
100
AcDbEntity
  8
KONSTRUKTIONSELEMENTE
100
AcDbCircle
 62
7
  6
CONTINUOUS
 10
370.5602668517
 20
138.5875519709
 40
7.8374984551
100
AcDbArc
 50
45.416289493
 51
45.9929054453
  0
ARC
  5
712
100
AcDbEntity
  8
KONSTRUKTIONSELEMENTE
100
AcDbCircle
 62
7
  6
CONTINUOUS
 10
359.4115375149
 20
148.9213820096
 40
7.6417945598
100
AcDbArc
 50
159.7236942383
 51
179.9651547733
  0
ARC
  5
713
100
AcDbEntity
  8
KONSTRUKTIONSELEMENTE
100
AcDbCircle
 62
7
  6
CONTINUOUS
 10
399.5412940008
 20
110.5675538647
 40
4.4697435729
100
AcDbArc
 50
227.0651411622
 51
231.4022607278
  0
ARC
  5
714
100
AcDbEntity
  8
KONSTRUKTIONSELEMENTE
100
AcDbCircle
 62
7
  6
CONTINUOUS
 10
399.4860367807
 20
110.5070853154
 40
4.3878335162
100
AcDbArc
 50
225.9937050332
 51
227.0555598992
  0
ARC
  5
715
100
AcDbEntity
  8
KONSTRUKTIONSELEMENTE
100
AcDbCircle
 62
7
  6
CONTINUOUS
 10
338.3213002083
 20
169.5876840292
 40
4.3878335164
100
AcDbArc
 50
225.9937050332
 51
227.0555598991
  0
ARC
  5
716
100
AcDbEntity
  8
KONSTRUKTIONSELEMENTE
100
AcDbCircle
 62
7
  6
CONTINUOUS
 10
400.116780605
 20
110.3728328393
 40
4.1190336978
100
AcDbArc
 50
336.8395141566
 51
359.9588786007
  0
ARC
  5
717
100
AcDbEntity
  8
KONSTRUKTIONSELEMENTE
100
AcDbCircle
 62
7
  6
CONTINUOUS
 10
338.9568917606
 20
169.4521059316
 40
4.1141852318
100
AcDbArc
 50
334.689527825
 51
359.9772912731
  0
ARC
  5
718
100
AcDbEntity
  8
KONSTRUKTIONSELEMENTE
100
AcDbCircle
 62
7
  6
CONTINUOUS
 10
390.8057374041
 20
118.496768679
 40
4.0843599296
100
AcDbArc
 50
179.6607782886
 51
180.0341463988
  0
ARC
  5
719
100
AcDbEntity
  8
KONSTRUKTIONSELEMENTE
100
AcDbCircle
 62
7
  6
CONTINUOUS
 10
370.2096181669
 20
138.7885514492
 40
3.3624399507
100
AcDbArc
 50
225.9940708964
 51
227.2341816412
  0
ARC
  5
71A
100
AcDbEntity
  8
KONSTRUKTIONSELEMENTE
100
AcDbCircle
 62
7
  6
CONTINUOUS
 10
370.7475311682
 20
138.679736048
 40
3.1286794214
100
AcDbArc
 50
342.3964861857
 51
359.9749659755
  0
ARC
  5
71B
100
AcDbEntity
  8
0
100
AcDbCircle
 62
7
  6
CONTINUOUS
 10
415.3760273346
 20
93.6263990855
 40
2.4706222004
100
AcDbArc
 50
70.0477787251
 51
72.5407055246
  0
ARC
  5
71C
100
AcDbEntity
  8
0
100
AcDbCircle
 62
7
  6
CONTINUOUS
 10
415.4974536472
 20
94.0094400904
 40
2.068796649
100
AcDbArc
 50
72.5658848132
 51
74.2788351735
  0
ARC
  5
71D
100
AcDbEntity
  8
0
100
AcDbCircle
 62
7
  6
CONTINUOUS
 10
429.9491870829
 20
80.0638338566
 40
1.945545064
100
AcDbArc
 50
72.2103624258
 51
73.4471043843
  0
ARC
  5
71E
100
AcDbEntity
  8
RUNDUNGEN
100
AcDbCircle
 62
7
  6
CONTINUOUS
 10
404.187721134
 20
114.5107431756
 40
1.873803948
100
AcDbArc
 50
246.097208523
 51
246.3363791608
  0
ARC
  5
71F
100
AcDbEntity
  8
0
100
AcDbCircle
 62
7
  6
CONTINUOUS
 10
430.6759440566
 20
80.7876217846
 40
1.1798162286
100
AcDbArc
 50
78.3737944144
 51
79.1173689693
  0
SPLINE
  5
720
100
AcDbEntity
  8
KONSTRUKTIONSELEMENTE
100
AcDbSpline
 62
7
  6
CONTINUOUS
 70
0
 71
3
 72
13
 73
9
 74
0
 42
0.0000001
 43
0.0000001
 44
0.0000000001
 40
0.0
 40
0.0
 40
0.0
 40
0.0
 40
0.1194785188
 40
0.2392741704
 40
0.3602835725
 40
0.4830059608
 40
0.7355440041
 40
1.0
 40
1.0
 40
1.0
 40
1.0
 10
680.4359236028
 20
135.968519929
 30
0.0
 10
680.5287463645
 20
136.3149391918
 30
0.0
 10
680.7887297947
 20
136.9912001925
 30
0.0
 10
681.3808775623
 20
137.9045587671
 30
0.0
 10
682.1466301841
 20
138.6915015076
 30
0.0
 10
683.369433256
 20
139.5548131768
 30
0.0
 10
685.1965829446
 20
140.2447640649
 30
0.0
 10
686.7627385698
 20
140.3712490532
 30
0.0
 10
687.5559607026
 20
140.3404549187
 30
0.0
  0
SPLINE
  5
721
100
AcDbEntity
  8
KONSTRUKTIONSELEMENTE
100
AcDbSpline
 62
7
  6
CONTINUOUS
 70
0
 71
3
 72
13
 73
9
 74
0
 42
0.0000001
 43
0.0000001
 44
0.0000000001
 40
0.0
 40
0.0
 40
0.0
 40
0.0
 40
0.2644681654
 40
0.5169944072
 40
0.6397129492
 40
0.760706397
 40
0.8805228501
 40
1.0
 40
1.0
 40
1.0
 40
1.0
 10
691.9088075347
 20
139.174559549
 30
0.0
 10
692.6114003192
 20
138.8046300078
 30
0.0
 10
693.904964017
 20
137.9120980698
 30
0.0
 10
695.142857691
 20
136.400860993
 30
0.0
 10
695.7704311055
 20
135.0416774357
 30
0.0
 10
696.0404155012
 20
133.9771040885
 30
0.0
 10
696.0965213475
 20
132.8897797356
 30
0.0
 10
695.9835789083
 20
132.1739065853
 30
0.0
 10
695.8907368234
 20
131.8274152073
 30
0.0
  0
SPLINE
  5
722
100
AcDbEntity
  8
KONSTRUKTIONSELEMENTE
100
AcDbSpline
 62
7
  6
CONTINUOUS
 70
0
 71
3
 72
10
 73
6
 74
0
 42
0.0000001
 43
0.0000001
 44
0.0000000001
 40
0.0
 40
0.0
 40
0.0
 40
0.0
 40
0.3116645009
 40
0.6060899939
 40
1.0
 40
1.0
 40
1.0
 40
1.0
 10
684.7825898211
 20
134.803834226
 30
0.0
 10
684.8336172502
 20
134.9942711839
 30
0.0
 10
685.1108622173
 20
135.3044087834
 30
0.0
 10
685.6648933295
 20
135.6051350695
 30
0.0
 10
686.0892589774
 20
135.7268588277
 30
0.0
 10
686.3342053317
 20
135.7726090791
 30
0.0
  0
SPLINE
  5
723
100
AcDbEntity
  8
KONSTRUKTIONSELEMENTE
100
AcDbSpline
 62
7
  6
CONTINUOUS
 70
0
 71
3
 72
10
 73
6
 74
0
 42
0.0000001
 43
0.0000001
 44
0.0000000001
 40
0.0
 40
0.0
 40
0.0
 40
0.0
 40
0.3939255147
 40
0.6883533687
 40
1.0
 40
1.0
 40
1.0
 40
1.0
 10
690.6845141672
 20
134.6070632163
 30
0.0
 10
690.8738156142
 20
134.4449547851
 30
0.0
 10
691.1805150933
 20
134.1273059281
 30
0.0
 10
691.510073846
 20
133.5898176335
 30
0.0
 10
691.5951022937
 20
133.1825537649
 30
0.0
 10
691.5440706051
 20
132.9921009103
 30
0.0
  0
SPLINE
  5
724
100
AcDbEntity
  8
KONSTRUKTIONSELEMENTE
100
AcDbSpline
 62
7
  6
CONTINUOUS
 70
0
 71
3
 72
10
 73
6
 74
0
 42
0.0000001
 43
0.0000001
 44
0.0000000001
 40
0.0
 40
0.0
 40
0.0
 40
0.0
 40
0.3192646009
 40
0.6086079864
 40
1.0
 40
1.0
 40
1.0
 40
1.0
 10
688.7988800768
 20
122.7469103819
 30
0.0
 10
688.7544305521
 20
122.5810224976
 30
0.0
 10
688.5342114311
 20
122.307860413
 30
0.0
 10
688.0790628772
 20
122.0225887929
 30
0.0
 10
687.7309705399
 20
121.8953047059
 30
0.0
 10
687.5275001168
 20
121.8412088588
 30
0.0
  0
SPLINE
  5
725
100
AcDbEntity
  8
KONSTRUKTIONSELEMENTE
100
AcDbSpline
 62
7
  6
CONTINUOUS
 70
0
 71
3
 72
10
 73
6
 74
0
 42
0.0000001
 43
0.0000001
 44
0.0000000001
 40
0.0
 40
0.0
 40
0.0
 40
0.0
 40
0.3914026107
 40
0.6807340322
 40
1.0
 40
1.0
 40
1.0
 40
1.0
 10
682.6855210378
 20
123.1386675649
 30
0.0
 10
682.5363673655
 20
123.2872495954
 30
0.0
 10
682.2986041683
 20
123.5715330337
 30
0.0
 10
682.0470416081
 20
124.0461114431
 30
0.0
 10
681.9929523536
 20
124.3927654625
 30
0.0
 10
682.0373992927
 20
124.5586436976
 30
0.0
  0
SPLINE
  5
726
100
AcDbEntity
  8
KONSTRUKTIONSELEMENTE
100
AcDbSpline
 62
7
  6
CONTINUOUS
 70
0
 71
3
 72
13
 73
9
 74
0
 42
0.0000001
 43
0.0000001
 44
0.0000000001
 40
0.0
 40
0.0
 40
0.0
 40
0.0
 40
0.1197290731
 40
0.2397365246
 40
0.3609040964
 40
0.4836831257
 40
0.7359942557
 40
1.0
 40
1.0
 40
1.0
 40
1.0
 10
693.1455462951
 20
121.5822246789
 30
0.0
 10
693.0551631381
 20
121.2449101452
 30
0.0
 10
692.8039959704
 20
120.586128516
 30
0.0
 10
692.2350922231
 20
119.6927109263
 30
0.0
 10
691.5001435865
 20
118.9179521468
 30
0.0
 10
690.3262282914
 20
118.0597673375
 30
0.0
 10
688.567675395
 20
117.3537126736
 30
0.0
 10
687.0518157963
 20
117.1940602594
 30
0.0
 10
686.2818507952
 20
117.2037019063
 30
0.0
  0
SPLINE
  5
727
100
AcDbEntity
  8
KONSTRUKTIONSELEMENTE
100
AcDbSpline
 62
7
  6
CONTINUOUS
 70
0
 71
3
 72
13
 73
9
 74
0
 42
0.0000001
 43
0.0000001
 44
0.0000000001
 40
0.0
 40
0.0
 40
0.0
 40
0.0
 40
0.2640112835
 40
0.5163080567
 40
0.6390830379
 40
0.7602378991
 40
0.8802701562
 40
1.0
 40
1.0
 40
1.0
 40
1.0
 10
681.4447976505
 20
118.5000422996
 30
0.0
 10
680.7732665001
 20
118.8767168252
 30
0.0
 10
679.5405284365
 20
119.7728754081
 30
0.0
 10
678.3708957199
 20
121.2635370351
 30
0.0
 10
677.7835095923
 20
122.5934965313
 30
0.0
 10
677.5343715462
 20
123.6318360502
 30
0.0
 10
677.4885309932
 20
124.6899426703
 30
0.0
 10
677.6003589515
 20
125.3860485821
 30
0.0
 10
677.6907330744
 20
125.7233294006
 30
0.0
  0
SPLINE
  5
728
100
AcDbEntity
  8
KONSTRUKTIONSELEMENTE
100
AcDbSpline
 62
7
  6
CONTINUOUS
 70
0
 71
3
 72
10
 73
6
 74
0
 42
0.0000001
 43
0.0000001
 44
0.0000000001
 40
0.0
 40
0.0
 40
0.0
 40
0.0
 40
0.3192646009
 40
0.6086079864
 40
1.0
 40
1.0
 40
1.0
 40
1.0
 10
692.8351487044
 20
164.8563931093
 30
0.0
 10
692.879598229
 20
165.0222809935
 30
0.0
 10
693.09981735
 20
165.2954430782
 30
0.0
 10
693.5549659039
 20
165.5807146982
 30
0.0
 10
693.9030582412
 20
165.7079987852
 30
0.0
 10
694.1065286643
 20
165.7620946323
 30
0.0
  0
SPLINE
  5
729
100
AcDbEntity
  8
KONSTRUKTIONSELEMENTE
100
AcDbSpline
 62
7
  6
CONTINUOUS
 70
0
 71
3
 72
10
 73
6
 74
0
 42
0.0000001
 43
0.0000001
 44
0.0000000001
 40
0.0
 40
0.0
 40
0.0
 40
0.0
 40
0.3914026107
 40
0.6807340322
 40
1.0
 40
1.0
 40
1.0
 40
1.0
 10
698.9485077433
 20
164.4646359263
 30
0.0
 10
699.0976614156
 20
164.3160538958
 30
0.0
 10
699.3354246128
 20
164.0317704574
 30
0.0
 10
699.5869871731
 20
163.557192048
 30
0.0
 10
699.6410764275
 20
163.2105380286
 30
0.0
 10
699.5966294884
 20
163.0446597935
 30
0.0
  0
SPLINE
  5
72A
100
AcDbEntity
  8
KONSTRUKTIONSELEMENTE
100
AcDbSpline
 62
7
  6
CONTINUOUS
 70
0
 71
3
 72
9
 73
5
 74
0
 42
0.0000001
 43
0.0000001
 44
0.0000000001
 40
0.0
 40
0.0
 40
0.0
 40
0.0
 40
0.2518169059
 40
1.0
 40
1.0
 40
1.0
 40
1.0
 10
696.8004859782
 20
175.7966325796
 30
0.0
 10
696.4063570111
 20
175.9361839816
 30
0.0
 10
694.8523554856
 20
176.5212290319
 30
0.0
 10
693.3444865298
 20
177.229623841
 30
0.0
 10
692.255380205
 20
177.8271452894
 30
0.0
  0
SPLINE
  5
72B
100
AcDbEntity
  8
KONSTRUKTIONSELEMENTE
100
AcDbSpline
 62
7
  6
CONTINUOUS
 70
0
 71
3
 72
9
 73
5
 74
0
 42
0.0000001
 43
0.0000001
 44
0.0000000001
 40
0.0
 40
0.0
 40
0.0
 40
0.0
 40
0.4771280743
 40
1.0
 40
1.0
 40
1.0
 40
1.0
 10
713.891824415
 20
181.0659115391
 30
0.0
 10
712.27358007
 20
180.4853575833
 30
0.0
 10
708.68273032
 20
179.8046703155
 30
0.0
 10
705.0510445269
 20
180.0100681579
 30
0.0
 10
703.1925432131
 20
180.3193504319
 30
0.0
  0
SPLINE
  5
72C
100
AcDbEntity
  8
KONSTRUKTIONSELEMENTE
100
AcDbSpline
 62
7
  6
CONTINUOUS
 70
0
 71
3
 72
9
 73
5
 74
0
 42
0.0000001
 43
0.0000001
 44
0.0000000001
 40
0.0
 40
0.0
 40
0.0
 40
0.0
 40
0.5228783463
 40
1.0
 40
1.0
 40
1.0
 40
1.0
 10
698.3586596761
 20
181.6145444444
 30
0.0
 10
696.5940536285
 20
182.2760983654
 30
0.0
 10
693.3454300755
 20
183.9144903288
 30
0.0
 10
690.5755324229
 20
186.3002601564
 30
0.0
 10
689.4642870651
 20
187.6126025479
 30
0.0
  0
SPLINE
  5
72D
100
AcDbEntity
  8
0
100
AcDbSpline
 62
7
  6
CONTINUOUS
 70
0
 71
3
 72
11
 73
7
 74
0
 42
0.0000001
 43
0.0000001
 44
0.0000000001
 40
0.0
 40
0.0
 40
0.0
 40
0.0
 40
0.2192989281
 40
0.4548225453
 40
0.7152180566
 40
1.0
 40
1.0
 40
1.0
 40
1.0
 10
689.7430449305
 20
94.6906325003
 30
0.0
 10
689.8028764615
 20
94.9139268136
 30
0.0
 10
689.8277267456
 20
95.4083052334
 30
0.0
 10
689.5730047282
 20
96.1336524281
 30
0.0
 10
689.0690307357
 20
96.7975599725
 30
0.0
 10
688.6125176665
 20
97.1567125927
 30
0.0
 10
688.3583065685
 20
97.3163885135
 30
0.0
  0
SPLINE
  5
72E
100
AcDbEntity
  8
0
100
AcDbSpline
 62
7
  6
CONTINUOUS
 70
0
 71
3
 72
15
 73
11
 74
0
 42
0.0000001
 43
0.0000001
 44
0.0000000001
 40
0.0
 40
0.0
 40
0.0
 40
0.0
 40
0.1047415988
 40
0.222328371
 40
0.3560160977
 40
0.5
 40
0.6439839023
 40
0.777671629
 40
0.8952584012
 40
1.0
 40
1.0
 40
1.0
 40
1.0
 10
679.4891912841
 20
96.8319098461
 30
0.0
 10
679.4525772742
 20
96.6952645007
 30
0.0
 10
679.462698125
 20
96.3779984059
 30
0.0
 10
679.7123563581
 20
95.9508865554
 30
0.0
 10
680.1322127347
 20
95.6071316185
 30
0.0
 10
680.6642924358
 20
95.3845913417
 30
0.0
 10
681.2363571123
 20
95.3112770242
 30
0.0
 10
681.7718408688
 20
95.3990493439
 30
0.0
 10
682.2016071661
 20
95.6441099401
 30
0.0
 10
682.3690051275
 20
95.9138100126
 30
0.0
 10
682.4056191375
 20
96.050455358
 30
0.0
  0
SPLINE
  5
72F
100
AcDbEntity
  8
0
100
AcDbSpline
 62
7
  6
CONTINUOUS
 70
0
 71
3
 72
11
 73
7
 74
0
 42
0.0000001
 43
0.0000001
 44
0.0000000001
 40
0.0
 40
0.0
 40
0.0
 40
0.0
 40
0.2094689415
 40
0.4446609502
 40
0.7120169424
 40
1.0
 40
1.0
 40
1.0
 40
1.0
 10
678.060133987
 20
98.9380404103
 30
0.0
 10
678.0987777943
 20
99.0823476513
 30
0.0
 10
678.0879612589
 20
99.4174066207
 30
0.0
 10
677.8242062542
 20
99.8684581355
 30
0.0
 10
677.3811560929
 20
100.2314016296
 30
0.0
 10
677.0100797954
 20
100.3864187452
 30
0.0
 10
676.81169062
 20
100.4395769645
 30
0.0
  0
SPLINE
  5
730
100
AcDbEntity
  8
0
100
AcDbSpline
 62
7
  6
CONTINUOUS
 70
0
 71
3
 72
9
 73
5
 74
0
 42
0.0000001
 43
0.0000001
 44
0.0000000001
 40
0.0
 40
0.0
 40
0.0
 40
0.0
 40
0.4402133985
 40
1.0
 40
1.0
 40
1.0
 40
1.0
 10
669.2033362386
 20
99.6495850563
 30
0.0
 10
669.1985368611
 20
99.6316735352
 30
0.0
 10
669.2156707803
 20
99.5852776592
 30
0.0
 10
669.255719151
 20
99.5652722197
 30
0.0
 10
669.2784958986
 20
99.5591692086
 30
0.0
  0
SPLINE
  5
731
100
AcDbEntity
  8
0
100
AcDbSpline
 62
7
  6
CONTINUOUS
 70
0
 71
3
 72
9
 73
5
 74
0
 42
0.0000001
 43
0.0000001
 44
0.0000000001
 40
0.0
 40
0.0
 40
0.0
 40
0.0
 40
0.4402133985
 40
1.0
 40
1.0
 40
1.0
 40
1.0
 10
669.8496318937
 20
99.5115490962
 30
0.0
 10
669.8544312713
 20
99.5294606172
 30
0.0
 10
669.837297352
 20
99.5758564932
 30
0.0
 10
669.7972489814
 20
99.5958619328
 30
0.0
 10
669.7744722337
 20
99.6019649439
 30
0.0
  0
SPLINE
  5
732
100
AcDbEntity
  8
RUNDUNGEN
100
AcDbSpline
 62
7
  6
CONTINUOUS
 70
0
 71
3
 72
9
 73
5
 74
0
 42
0.0000001
 43
0.0000001
 44
0.0000000001
 40
0.0
 40
0.0
 40
0.0
 40
0.0
 40
0.5194633901
 40
1.0
 40
1.0
 40
1.0
 40
1.0
 10
696.7389069216
 20
62.4455860333
 30
0.0
 10
696.8943987075
 20
62.1731911043
 30
0.0
 10
697.1169742866
 20
61.5959815424
 30
0.0
 10
697.0928581657
 20
60.9715786828
 30
0.0
 10
697.0177626723
 20
60.6913184863
 30
0.0
  0
SPLINE
  5
733
100
AcDbEntity
  8
0
100
AcDbSpline
 62
7
  6
CONTINUOUS
 70
0
 71
3
 72
9
 73
5
 74
0
 42
0.0000001
 43
0.0000001
 44
0.0000000001
 40
0.0
 40
0.0
 40
0.0
 40
0.0
 40
0.4402133985
 40
1.0
 40
1.0
 40
1.0
 40
1.0
 10
670.2888623782
 20
101.1507795807
 30
0.0
 10
670.2936617558
 20
101.1686911017
 30
0.0
 10
670.2765278365
 20
101.2150869778
 30
0.0
 10
670.2364794659
 20
101.2350924173
 30
0.0
 10
670.2137027183
 20
101.2411954284
 30
0.0
  0
SPLINE
  5
734
100
AcDbEntity
  8
RUNDUNGEN
100
AcDbSpline
 62
7
  6
CONTINUOUS
 70
0
 71
3
 72
10
 73
6
 74
0
 42
0.0000001
 43
0.0000001
 44
0.0000000001
 40
0.0
 40
0.0
 40
0.0
 40
0.0
 40
0.5349737816
 40
0.7734707301
 40
1.0
 40
1.0
 40
1.0
 40
1.0
 10
716.8714760562
 20
103.3997839525
 30
0.0
 10
716.9923307616
 20
103.2934571706
 30
0.0
 10
717.1439157968
 20
103.1010530442
 30
0.0
 10
717.2160510232
 20
102.8048252154
 30
0.0
 10
717.2035621227
 20
102.6622474347
 30
0.0
 10
717.1859599609
 20
102.5963984712
 30
0.0
  0
SPLINE
  5
735
100
AcDbEntity
  8
RUNDUNGEN
100
AcDbSpline
 62
7
  6
CONTINUOUS
 70
0
 71
3
 72
10
 73
6
 74
0
 42
0.0000001
 43
0.0000001
 44
0.0000000001
 40
0.0
 40
0.0
 40
0.0
 40
0.0
 40
0.4809192537
 40
0.7459271807
 40
1.0
 40
1.0
 40
1.0
 40
1.0
 10
710.2620849579
 20
107.9782234459
 30
0.0
 10
710.5066384017
 20
108.1210195175
 30
0.0
 10
710.9853004636
 20
108.1715903253
 30
0.0
 10
711.5520443955
 20
108.0089835606
 30
0.0
 10
711.8180168249
 20
107.8457677107
 30
0.0
 10
711.9303439947
 20
107.7469433708
 30
0.0
  0
SPLINE
  5
736
100
AcDbEntity
  8
0
100
AcDbSpline
 62
7
  6
CONTINUOUS
 70
0
 71
3
 72
9
 73
5
 74
0
 42
0.0000001
 43
0.0000001
 44
0.0000000001
 40
0.0
 40
0.0
 40
0.0
 40
0.0
 40
0.2423574743
 40
1.0
 40
1.0
 40
1.0
 40
1.0
 10
688.873224416
 20
109.9537787267
 30
0.0
 10
688.594598237
 20
110.1989113003
 30
0.0
 10
687.4017288973
 20
111.1607361997
 30
0.0
 10
686.0541196565
 20
111.9256788799
 30
0.0
 10
684.9907811598
 20
112.3896143839
 30
0.0
  0
SPLINE
  5
737
100
AcDbEntity
  8
0
100
AcDbSpline
 62
7
  6
CONTINUOUS
 70
0
 71
3
 72
9
 73
5
 74
0
 42
0.0000001
 43
0.0000001
 44
0.0000000001
 40
0.0
 40
0.0
 40
0.0
 40
0.0
 40
0.2572745118
 40
1.0
 40
1.0
 40
1.0
 40
1.0
 10
680.156661696
 20
113.6849127903
 30
0.0
 10
679.7652209508
 20
113.7290157972
 30
0.0
 10
678.2384937193
 20
113.8457296863
 30
0.0
 10
676.6914443648
 20
113.7402667148
 30
0.0
 10
675.5764493787
 20
113.5166388599
 30
0.0
  0
SPLINE
  5
738
100
AcDbEntity
  8
RUNDUNGEN
100
AcDbSpline
 62
7
  6
CONTINUOUS
 70
0
 71
3
 72
12
 73
8
 74
0
 42
0.0000001
 43
0.0000001
 44
0.0000000001
 40
0.0
 40
0.0
 40
0.0
 40
0.0
 40
0.2522580801
 40
0.5153826073
 40
0.6451774922
 40
0.770453943
 40
1.0
 40
1.0
 40
1.0
 40
1.0
 10
652.3540718749
 20
122.7026283491
 30
0.0
 10
653.5764775951
 20
122.9477989305
 30
0.0
 10
656.1677477844
 20
123.0222560953
 30
0.0
 10
659.2979050162
 20
122.2318471422
 30
0.0
 10
661.6065609814
 20
121.1017590537
 30
0.0
 10
663.5834488427
 20
119.7435249995
 30
0.0
 10
664.7949355169
 20
118.4059428508
 30
0.0
 10
665.3573614042
 20
117.4206691997
 30
0.0
  0
SPLINE
  5
739
100
AcDbEntity
  8
0
100
AcDbSpline
 62
7
  6
CONTINUOUS
 70
0
 71
3
 72
11
 73
7
 74
0
 42
0.0000001
 43
0.0000001
 44
0.0000000001
 40
0.0
 40
0.0
 40
0.0
 40
0.0
 40
0.2094668498
 40
0.4446559298
 40
0.7120302568
 40
1.0
 40
1.0
 40
1.0
 40
1.0
 10
668.7898327404
 20
100.6564131731
 30
0.0
 10
668.7840124022
 20
100.6346913754
 30
0.0
 10
668.7856173637
 20
100.5842542189
 30
0.0
 10
668.8253206203
 20
100.5163499339
 30
0.0
 10
668.8920093269
 20
100.4617108014
 30
0.0
 10
668.9478693105
 20
100.438375208
 30
0.0
 10
668.9777318903
 20
100.4303735539
 30
0.0
  0
SPLINE
  5
73A
100
AcDbEntity
  8
0
100
AcDbSpline
 62
7
  6
CONTINUOUS
 70
0
 71
3
 72
11
 73
7
 74
0
 42
0.0000001
 43
0.0000001
 44
0.0000000001
 40
0.0
 40
0.0
 40
0.0
 40
0.0
 40
0.2094668498
 40
0.4446559298
 40
0.7120302568
 40
1.0
 40
1.0
 40
1.0
 40
1.0
 10
668.3506022559
 20
99.0171826886
 30
0.0
 10
668.3447819177
 20
98.9954608909
 30
0.0
 10
668.3463868792
 20
98.9450237344
 30
0.0
 10
668.3860901357
 20
98.8771194493
 30
0.0
 10
668.4527788424
 20
98.8224803169
 30
0.0
 10
668.5086388259
 20
98.7991447235
 30
0.0
 10
668.5385014057
 20
98.7911430693
 30
0.0
  0
SPLINE
  5
73B
100
AcDbEntity
  8
0
100
AcDbSpline
 62
7
  6
CONTINUOUS
 70
0
 71
3
 72
9
 73
5
 74
0
 42
0.0000001
 43
0.0000001
 44
0.0000000001
 40
0.0
 40
0.0
 40
0.0
 40
0.0
 40
0.2432035461
 40
1.0
 40
1.0
 40
1.0
 40
1.0
 10
672.3147398537
 20
101.2931469031
 30
0.0
 10
672.3181868299
 20
101.3060111934
 30
0.0
 10
672.3279620229
 20
101.3600867842
 30
0.0
 10
672.3187894724
 20
101.4167789006
 30
0.0
 10
672.3040878109
 20
101.4555265949
 30
0.0
  0
SPLINE
  5
73C
100
AcDbEntity
  8
0
100
AcDbSpline
 62
7
  6
CONTINUOUS
 70
0
 71
3
 72
9
 73
5
 74
0
 42
0.0000001
 43
0.0000001
 44
0.0000000001
 40
0.0
 40
0.0
 40
0.0
 40
0.0
 40
0.2401326547
 40
1.0
 40
1.0
 40
1.0
 40
1.0
 10
672.3040878109
 20
101.4555265949
 30
0.0
 10
672.300580823
 20
101.4647696113
 30
0.0
 10
672.2841927402
 20
101.5025797018
 30
0.0
 10
672.2610374109
 20
101.5372929069
 30
0.0
 10
672.2410400079
 20
101.5613494573
 30
0.0
  0
SPLINE
  5
73D
100
AcDbEntity
  8
0
100
AcDbSpline
 62
7
  6
CONTINUOUS
 70
0
 71
3
 72
9
 73
5
 74
0
 42
0.0000001
 43
0.0000001
 44
0.0000000001
 40
0.0
 40
0.0
 40
0.0
 40
0.0
 40
0.2356425559
 40
1.0
 40
1.0
 40
1.0
 40
1.0
 10
672.2410400079
 20
101.5613494573
 30
0.0
 10
672.2231231687
 20
101.5829031233
 30
0.0
 10
672.1384820335
 20
101.6671313275
 30
0.0
 10
672.0267588388
 20
101.7216955711
 30
0.0
 10
671.938941554
 20
101.7452261417
 30
0.0
  0
SPLINE
  5
73E
100
AcDbEntity
  8
RUNDUNGEN
100
AcDbSpline
 62
7
  6
CONTINUOUS
 70
0
 71
3
 72
10
 73
6
 74
0
 42
0.0000001
 43
0.0000001
 44
0.0000000001
 40
0.0
 40
0.0
 40
0.0
 40
0.0
 40
0.2265435863
 40
0.4650408478
 40
1.0
 40
1.0
 40
1.0
 40
1.0
 10
653.9249123668
 20
109.8326543673
 30
0.0
 10
653.9425960313
 20
109.8984847295
 30
0.0
 10
654.0030737161
 20
110.0282054375
 30
0.0
 10
654.2136624694
 20
110.2486672768
 30
0.0
 10
654.4411316625
 20
110.3394969244
 30
0.0
 10
654.5989512519
 20
110.3711498526
 30
0.0
  0
SPLINE
  5
73F
100
AcDbEntity
  8
RUNDUNGEN
100
AcDbSpline
 62
7
  6
CONTINUOUS
 70
0
 71
3
 72
9
 73
5
 74
0
 42
0.0000001
 43
0.0000001
 44
0.0000000001
 40
0.0
 40
0.0
 40
0.0
 40
0.0
 40
0.4805181646
 40
1.0
 40
1.0
 40
1.0
 40
1.0
 10
653.0098391234
 20
106.4175585254
 30
0.0
 10
652.9872460705
 20
106.3334302485
 30
0.0
 10
652.9798684146
 20
106.1459604425
 30
0.0
 10
653.0466880321
 20
105.9726421487
 30
0.0
 10
653.0933739533
 20
105.8908564253
 30
0.0
  0
SPLINE
  5
740
100
AcDbEntity
  8
RUNDUNGEN
100
AcDbSpline
 62
7
  6
CONTINUOUS
 70
0
 71
3
 72
11
 73
7
 74
0
 42
0.0000001
 43
0.0000001
 44
0.0000000001
 40
0.0
 40
0.0
 40
0.0
 40
0.0
 40
0.2256919297
 40
0.4632773963
 40
0.7205986282
 40
1.0
 40
1.0
 40
1.0
 40
1.0
 10
648.3142826329
 20
120.5461395983
 30
0.0
 10
648.3730872963
 20
120.7657710731
 30
0.0
 10
648.5741734567
 20
121.1985481895
 30
0.0
 10
649.0830434449
 20
121.7312687084
 30
0.0
 10
649.7635565287
 20
122.1293920071
 30
0.0
 10
650.2856684686
 20
122.2877810874
 30
0.0
 10
650.5616480977
 20
122.3431326658
 30
0.0
  0
SPLINE
  5
741
100
AcDbEntity
  8
RUNDUNGEN
100
AcDbSpline
 62
7
  6
CONTINUOUS
 70
0
 71
3
 72
9
 73
5
 74
0
 42
0.0000001
 43
0.0000001
 44
0.0000000001
 40
0.0
 40
0.0
 40
0.0
 40
0.0
 40
0.4805188659
 40
1.0
 40
1.0
 40
1.0
 40
1.0
 10
647.3992191234
 20
117.1310760888
 30
0.0
 10
647.3242012431
 20
116.8508893359
 30
0.0
 10
647.3002329729
 20
116.2266640878
 30
0.0
 10
647.5227512355
 20
115.6496315956
 30
0.0
 10
647.6782052912
 20
115.3773027635
 30
0.0
  0
SPLINE
  5
742
100
AcDbEntity
  8
RUNDUNGEN
100
AcDbSpline
 62
7
  6
CONTINUOUS
 70
0
 71
3
 72
11
 73
7
 74
0
 42
0.0000001
 43
0.0000001
 44
0.0000000001
 40
0.0
 40
0.0
 40
0.0
 40
0.0
 40
0.237780559
 40
0.4809056754
 40
0.7339193747
 40
1.0
 40
1.0
 40
1.0
 40
1.0
 10
686.3980683477
 20
79.3401439905
 30
0.0
 10
686.5100807997
 20
79.7581800931
 30
0.0
 10
686.8300832161
 20
80.5814996678
 30
0.0
 10
687.5714711538
 20
81.7036348838
 30
0.0
 10
688.5554660658
 20
82.6931645502
 30
0.0
 10
689.3357413753
 20
83.2353818214
 30
0.0
 10
689.7539580672
 20
83.4795807979
 30
0.0
  0
SPLINE
  5
743
100
AcDbEntity
  8
RUNDUNGEN
100
AcDbSpline
 62
7
  6
CONTINUOUS
 70
0
 71
3
 72
9
 73
5
 74
0
 42
0.0000001
 43
0.0000001
 44
0.0000000001
 40
0.0
 40
0.0
 40
0.0
 40
0.0
 40
0.4843491198
 40
1.0
 40
1.0
 40
1.0
 40
1.0
 10
687.1099841511
 20
80.978521653
 30
0.0
 10
687.1283143139
 20
80.3870663516
 30
0.0
 10
687.3381580036
 20
79.1673133942
 30
0.0
 10
687.8373867903
 20
78.0395219424
 30
0.0
 10
688.1496990161
 20
77.4924045106
 30
0.0
  0
SPLINE
  5
744
100
AcDbEntity
  8
RUNDUNGEN
100
AcDbSpline
 62
7
  6
CONTINUOUS
 70
0
 71
3
 72
9
 73
5
 74
0
 42
0.0000001
 43
0.0000001
 44
0.0000000001
 40
0.0
 40
0.0
 40
0.0
 40
0.0
 40
0.4805364547
 40
1.0
 40
1.0
 40
1.0
 40
1.0
 10
643.8918422264
 20
74.926365967
 30
0.0
 10
643.9669376955
 20
75.206626073
 30
0.0
 10
644.258253903
 20
75.7594328818
 30
0.0
 10
644.7396147818
 20
76.1480232695
 30
0.0
 10
645.0104721641
 20
76.3061783523
 30
0.0
  0
SPLINE
  5
745
100
AcDbEntity
  8
BEZUGSACHSEN
100
AcDbSpline
 62
7
  6
CONTINUOUS
 70
0
 71
3
 72
9
 73
5
 74
0
 42
0.0000001
 43
0.0000001
 44
0.0000000001
 40
0.0
 40
0.0
 40
0.0
 40
0.0
 40
0.2346500853
 40
1.0
 40
1.0
 40
1.0
 40
1.0
 10
676.4271822753
 20
106.8230700436
 30
0.0
 10
676.4995072186
 20
106.6626100904
 30
0.0
 10
676.8594101292
 20
106.0020997095
 30
0.0
 10
677.400006046
 20
105.4503111427
 30
0.0
 10
677.8570608032
 20
105.1029464954
 30
0.0
  0
SPLINE
  5
746
100
AcDbEntity
  8
BEZUGSACHSEN
100
AcDbSpline
 62
7
  6
CONTINUOUS
 70
0
 71
3
 72
9
 73
5
 74
0
 42
0.0000001
 43
0.0000001
 44
0.0000000001
 40
0.0
 40
0.0
 40
0.0
 40
0.0
 40
0.2668229076
 40
1.0
 40
1.0
 40
1.0
 40
1.0
 10
682.691310804
 20
103.8076131117
 30
0.0
 10
682.8897576203
 20
103.8328062066
 30
0.0
 10
683.6270876949
 20
103.9649229953
 30
0.0
 10
684.3435146539
 20
104.2612996641
 30
0.0
 10
684.7896837075
 20
104.5823445381
 30
0.0
  0
SPLINE
  5
747
100
AcDbEntity
  8
BEZUGSACHSEN
100
AcDbSpline
 62
7
  6
CONTINUOUS
 70
0
 71
3
 72
11
 73
7
 74
0
 42
0.0000001
 43
0.0000001
 44
0.0000000001
 40
0.0
 40
0.0
 40
0.0
 40
0.0
 40
0.2228273727
 40
0.4593732167
 40
0.7180073661
 40
1.0
 40
1.0
 40
1.0
 40
1.0
 10
684.9809642293
 20
102.7026995026
 30
0.0
 10
685.0612267425
 20
103.0022432796
 30
0.0
 10
685.1083945786
 20
103.6568779839
 30
0.0
 10
684.8253674758
 20
104.6328363584
 30
0.0
 10
684.2288962559
 20
105.550232142
 30
0.0
 10
683.6731267743
 20
106.0682394547
 30
0.0
 10
683.3606729021
 20
106.3057064702
 30
0.0
  0
SPLINE
  5
748
100
AcDbEntity
  8
BEZUGSACHSEN
100
AcDbSpline
 62
7
  6
CONTINUOUS
 70
0
 71
3
 72
11
 73
7
 74
0
 42
0.0000001
 43
0.0000001
 44
0.0000000001
 40
0.0
 40
0.0
 40
0.0
 40
0.0
 40
0.2819926339
 40
0.5406267833
 40
0.7771726273
 40
1.0
 40
1.0
 40
1.0
 40
1.0
 10
678.5264229012
 20
107.601039854
 30
0.0
 10
678.1370964026
 20
107.5516143221
 30
0.0
 10
677.3967822565
 20
107.3808915707
 30
0.0
 10
676.4215251357
 20
106.8846391267
 30
0.0
 10
675.6884372874
 20
106.1809479329
 30
0.0
 10
675.4019684796
 20
105.5904337306
 30
0.0
 10
675.3217059665
 20
105.2908899536
 30
0.0
  0
SPLINE
  5
749
100
AcDbEntity
  8
RUNDUNGEN
100
AcDbSpline
 62
7
  6
CONTINUOUS
 70
0
 71
3
 72
13
 73
9
 74
0
 42
0.0000001
 43
0.0000001
 44
0.0000000001
 40
0.0
 40
0.0
 40
0.0
 40
0.0
 40
0.1034546555
 40
0.2106690395
 40
0.3244963599
 40
0.4464318111
 40
0.7129511617
 40
1.0
 40
1.0
 40
1.0
 40
1.0
 10
641.7434918349
 20
66.9086131531
 30
0.0
 10
641.6954275322
 20
66.7292347335
 30
0.0
 10
641.6491091921
 20
66.3481474304
 30
0.0
 10
641.737314174
 20
65.7661526311
 30
0.0
 10
641.9752334301
 20
65.1924509639
 30
0.0
 10
642.4911400355
 20
64.4462868904
 30
0.0
 10
643.4474407052
 20
63.6627397163
 30
0.0
 10
644.3774348119
 20
63.2746470293
 30
0.0
 10
644.8751443325
 20
63.1412861652
 30
0.0
  0
SPLINE
  5
74A
100
AcDbEntity
  8
RUNDUNGEN
100
AcDbSpline
 62
7
  6
CONTINUOUS
 70
0
 71
3
 72
10
 73
6
 74
0
 42
0.0000001
 43
0.0000001
 44
0.0000000001
 40
0.0
 40
0.0
 40
0.0
 40
0.0
 40
0.4808964563
 40
0.7459158441
 40
1.0
 40
1.0
 40
1.0
 40
1.0
 10
649.0117916035
 20
113.0410883668
 30
0.0
 10
649.1521765046
 20
112.7951581078
 30
0.0
 10
649.5414115911
 20
112.5120315441
 30
0.0
 10
650.113528136
 20
112.3694703812
 30
0.0
 10
650.4254893478
 20
112.3778311318
 30
0.0
 10
650.572186347
 20
112.4072532688
 30
0.0
  0
SPLINE
  5
74B
100
AcDbEntity
  8
RUNDUNGEN
100
AcDbSpline
 62
7
  6
CONTINUOUS
 70
0
 71
3
 72
9
 73
5
 74
0
 42
0.0000001
 43
0.0000001
 44
0.0000000001
 40
0.0
 40
0.0
 40
0.0
 40
0.0
 40
0.5194816775
 40
1.0
 40
1.0
 40
1.0
 40
1.0
 10
715.9351975305
 20
98.7669473787
 30
0.0
 10
716.016528464
 20
98.8144369484
 30
0.0
 10
716.1610667696
 20
98.9311373066
 30
0.0
 10
716.2484105811
 20
99.0972005303
 30
0.0
 10
716.2709030562
 20
99.1813634364
 30
0.0
  0
SPLINE
  5
74C
100
AcDbEntity
  8
RUNDUNGEN
100
AcDbSpline
 62
7
  6
CONTINUOUS
 70
0
 71
3
 72
13
 73
9
 74
0
 42
0.0000001
 43
0.0000001
 44
0.0000000001
 40
0.0
 40
0.0
 40
0.0
 40
0.0
 40
0.2870490624
 40
0.5535683755
 40
0.6755038246
 40
0.7893311355
 40
0.8965454157
 40
1.0
 40
1.0
 40
1.0
 40
1.0
 10
690.273658168
 20
50.9767910453
 30
0.0
 10
690.771368077
 20
50.8434300772
 30
0.0
 10
691.7708133216
 20
50.7145311805
 30
0.0
 10
692.9907678569
 20
50.9149529896
 30
0.0
 10
693.8106379395
 20
51.3031969206
 30
0.0
 10
694.3035325638
 20
51.6810775953
 30
0.0
 10
694.6709174092
 20
52.140997191
 30
0.0
 10
694.8213480112
 20
52.4941873763
 30
0.0
 10
694.8694122808
 20
52.6735656725
 30
0.0
  0
SPLINE
  5
74D
100
AcDbEntity
  8
RUNDUNGEN
100
AcDbSpline
 62
7
  6
CONTINUOUS
 70
0
 71
3
 72
9
 73
5
 74
0
 42
0.0000001
 43
0.0000001
 44
0.0000000001
 40
0.0
 40
0.0
 40
0.0
 40
0.0
 40
0.4729729907
 40
1.0
 40
1.0
 40
1.0
 40
1.0
 10
677.6118622151
 20
62.9386719779
 30
0.0
 10
677.8898416666
 20
62.4516996759
 30
0.0
 10
678.7573785818
 20
61.5808941342
 30
0.0
 10
679.86113897
 20
61.0873252313
 30
0.0
 10
680.4646589619
 20
60.9256125369
 30
0.0
  0
SPLINE
  5
74E
100
AcDbEntity
  8
RUNDUNGEN
100
AcDbSpline
 62
7
  6
CONTINUOUS
 70
0
 71
3
 72
9
 73
5
 74
0
 42
0.0000001
 43
0.0000001
 44
0.0000000001
 40
0.0
 40
0.0
 40
0.0
 40
0.0
 40
0.5270273161
 40
1.0
 40
1.0
 40
1.0
 40
1.0
 10
658.3443975764
 20
66.8527187115
 30
0.0
 10
658.9479179204
 20
66.6910059227
 30
0.0
 10
660.150586974
 20
66.5665690388
 30
0.0
 10
661.3372986473
 20
66.8869404776
 30
0.0
 10
661.8215217515
 20
67.1696809533
 30
0.0
  0
SPLINE
  5
74F
100
AcDbEntity
  8
0
100
AcDbSpline
 62
7
  6
CONTINUOUS
 70
0
 71
3
 72
11
 73
7
 74
0
 42
0.0000001
 43
0.0000001
 44
0.0000000001
 40
0.0
 40
0.0
 40
0.0
 40
0.0
 40
0.2880052506
 40
0.5553344723
 40
0.7905070702
 40
1.0
 40
1.0
 40
1.0
 40
1.0
 10
668.229786381
 20
102.7390912749
 30
0.0
 10
668.1700542755
 20
102.7550964443
 30
0.0
 10
668.0499655431
 20
102.7705509762
 30
0.0
 10
667.8798396572
 20
102.7425527548
 30
0.0
 10
667.7431510268
 20
102.6646924338
 30
0.0
 10
667.6899379316
 20
102.5789270198
 30
0.0
 10
667.6782958875
 20
102.5354783196
 30
0.0
  0
SPLINE
  5
750
100
AcDbEntity
  8
0
100
AcDbSpline
 62
7
  6
CONTINUOUS
 70
0
 71
3
 72
11
 73
7
 74
0
 42
0.0000001
 43
0.0000001
 44
0.0000000001
 40
0.0
 40
0.0
 40
0.0
 40
0.0
 40
0.2879697432
 40
0.5553440702
 40
0.7905331502
 40
1.0
 40
1.0
 40
1.0
 40
1.0
 10
670.1368428818
 20
100.1197906997
 30
0.0
 10
670.1667054616
 20
100.1117890456
 30
0.0
 10
670.2267494231
 20
100.1040682706
 30
0.0
 10
670.3118231034
 20
100.118042794
 30
0.0
 10
670.3801592748
 20
100.1569980016
 30
0.0
 10
670.4067677904
 20
100.1998753796
 30
0.0
 10
670.4125881286
 20
100.2215971774
 30
0.0
  0
SPLINE
  5
751
100
AcDbEntity
  8
0
100
AcDbSpline
 62
7
  6
CONTINUOUS
 70
0
 71
3
 72
11
 73
7
 74
0
 42
0.0000001
 43
0.0000001
 44
0.0000000001
 40
0.0
 40
0.0
 40
0.0
 40
0.0
 40
0.2879697432
 40
0.5553440702
 40
0.7905331502
 40
1.0
 40
1.0
 40
1.0
 40
1.0
 10
669.6976123973
 20
98.4805602152
 30
0.0
 10
669.7274749771
 20
98.4725585611
 30
0.0
 10
669.7875189386
 20
98.464837786
 30
0.0
 10
669.8725926189
 20
98.4788123094
 30
0.0
 10
669.9409287902
 20
98.517767517
 30
0.0
 10
669.9675373059
 20
98.5606448951
 30
0.0
 10
669.973357644
 20
98.5823666928
 30
0.0
  0
SPLINE
  5
752
100
AcDbEntity
  8
0
100
AcDbSpline
 62
7
  6
CONTINUOUS
 70
0
 71
3
 72
9
 73
5
 74
0
 42
0.0000001
 43
0.0000001
 44
0.0000000001
 40
0.0
 40
0.0
 40
0.0
 40
0.0
 40
0.5597866015
 40
1.0
 40
1.0
 40
1.0
 40
1.0
 10
669.4718716837
 20
101.4399684551
 30
0.0
 10
669.4490949361
 20
101.4460714662
 30
0.0
 10
669.40440931
 20
101.4487704327
 30
0.0
 10
669.3663729626
 20
101.417157385
 30
0.0
 10
669.361573585
 20
101.399245864
 30
0.0
  0
SPLINE
  5
753
100
AcDbEntity
  8
0
100
AcDbSpline
 62
7
  6
CONTINUOUS
 70
0
 71
3
 72
9
 73
5
 74
0
 42
0.0000001
 43
0.0000001
 44
0.0000000001
 40
0.0
 40
0.0
 40
0.0
 40
0.0
 40
0.5597866015
 40
1.0
 40
1.0
 40
1.0
 40
1.0
 10
669.0326411992
 20
99.8007379705
 30
0.0
 10
669.0098644515
 20
99.8068409817
 30
0.0
 10
668.9651788254
 20
99.8095399481
 30
0.0
 10
668.927142478
 20
99.7779269005
 30
0.0
 10
668.9223431005
 20
99.7600153795
 30
0.0
  0
SPLINE
  5
754
100
AcDbEntity
  8
0
100
AcDbSpline
 62
7
  6
CONTINUOUS
 70
0
 71
3
 72
9
 73
5
 74
0
 42
0.0000001
 43
0.0000001
 44
0.0000000001
 40
0.0
 40
0.0
 40
0.0
 40
0.0
 40
0.5597866015
 40
1.0
 40
1.0
 40
1.0
 40
1.0
 10
669.4407714374
 20
99.515687609
 30
0.0
 10
669.463548185
 20
99.5095845978
 30
0.0
 10
669.5082338111
 20
99.5068856314
 30
0.0
 10
669.5462701585
 20
99.538498679
 30
0.0
 10
669.5510695361
 20
99.5564102
 30
0.0
  0
SPLINE
  5
755
100
AcDbEntity
  8
0
100
AcDbSpline
 62
7
  6
CONTINUOUS
 70
0
 71
3
 72
11
 73
7
 74
0
 42
0.0000001
 43
0.0000001
 44
0.0000000001
 40
0.0
 40
0.0
 40
0.0
 40
0.0
 40
0.2880001164
 40
0.5553425139
 40
0.7905343079
 40
1.0
 40
1.0
 40
1.0
 40
1.0
 10
676.3612841481
 20
98.7586371272
 30
0.0
 10
676.4691151962
 20
98.729743885
 30
0.0
 10
676.685908106
 20
98.7018637753
 30
0.0
 10
676.9930595008
 20
98.7523473647
 30
0.0
 10
677.2397935846
 20
98.8929702947
 30
0.0
 10
677.3358488924
 20
99.0477922334
 30
0.0
 10
677.3568632693
 20
99.1262189556
 30
0.0
  0
SPLINE
  5
756
100
AcDbEntity
  8
0
100
AcDbSpline
 62
7
  6
CONTINUOUS
 70
0
 71
3
 72
8
 73
4
 74
0
 42
0.0000001
 43
0.0000001
 44
0.0000000001
 40
0.0
 40
0.0
 40
0.0
 40
0.0
 40
1.0
 40
1.0
 40
1.0
 40
1.0
 10
688.3583065685
 20
97.3163885135
 30
0.0
 10
688.3035725482
 20
97.3507682284
 30
0.0
 10
688.2427636978
 20
97.3766301647
 30
0.0
 10
688.1803303755
 20
97.393359123
 30
0.0
  0
SPLINE
  5
757
100
AcDbEntity
  8
0
100
AcDbSpline
 62
7
  6
CONTINUOUS
 70
0
 71
3
 72
11
 73
7
 74
0
 42
0.0000001
 43
0.0000001
 44
0.0000000001
 40
0.0
 40
0.0
 40
0.0
 40
0.0
 40
0.2779817175
 40
0.5346952233
 40
0.772857858
 40
1.0
 40
1.0
 40
1.0
 40
1.0
 10
687.3509950086
 20
93.6694257116
 30
0.0
 10
687.5370856724
 20
93.713880884
 30
0.0
 10
687.8883674866
 20
93.8338945727
 30
0.0
 10
688.3439498388
 20
94.1188468527
 30
0.0
 10
688.6840829079
 20
94.4904864916
 30
0.0
 10
688.8194855887
 20
94.7879618741
 30
0.0
 10
688.8599481934
 20
94.9389703708
 30
0.0
  0
SPLINE
  5
758
100
AcDbEntity
  8
0
100
AcDbSpline
 62
7
  6
CONTINUOUS
 70
0
 71
3
 72
9
 73
5
 74
0
 42
0.0000001
 43
0.0000001
 44
0.0000000001
 40
0.0
 40
0.0
 40
0.0
 40
0.0
 40
0.2591205677
 40
1.0
 40
1.0
 40
1.0
 40
1.0
 10
687.2009970191
 20
93.6734143118
 30
0.0
 10
687.213584768
 20
93.6700414346
 30
0.0
 10
687.2628214363
 20
93.6598261869
 30
0.0
 10
687.3147541558
 20
93.6607681393
 30
0.0
 10
687.3509950086
 20
93.6694257116
 30
0.0
  0
SPLINE
  5
759
100
AcDbEntity
  8
RUNDUNGEN
100
AcDbSpline
 62
7
  6
CONTINUOUS
 70
0
 71
3
 72
13
 73
9
 74
0
 42
0.0000001
 43
0.0000001
 44
0.0000000001
 40
0.0
 40
0.0
 40
0.0
 40
0.0
 40
0.1034546555
 40
0.2106690395
 40
0.3244963599
 40
0.4464318111
 40
0.7129511617
 40
1.0
 40
1.0
 40
1.0
 40
1.0
 10
648.4846276922
 20
66.5664328593
 30
0.0
 10
648.5326919948
 20
66.7458112789
 30
0.0
 10
648.6831227872
 20
67.0990017344
 30
0.0
 10
649.0505079419
 20
67.5589215246
 30
0.0
 10
649.5434028954
 20
67.9368021146
 30
0.0
 10
650.3632731583
 20
68.3250458549
 30
0.0
 10
651.583227419
 20
68.5254672779
 30
0.0
 10
652.5826722843
 20
68.3965683505
 30
0.0
 10
653.0803818049
 20
68.2632074864
 30
0.0
  0
SPLINE
  5
75A
100
AcDbEntity
  8
RUNDUNGEN
100
AcDbSpline
 62
7
  6
CONTINUOUS
 70
0
 71
3
 72
13
 73
9
 74
0
 42
0.0000001
 43
0.0000001
 44
0.0000000001
 40
0.0
 40
0.0
 40
0.0
 40
0.0
 40
0.2870490624
 40
0.5535683755
 40
0.6755038246
 40
0.7893311355
 40
0.8965454157
 40
1.0
 40
1.0
 40
1.0
 40
1.0
 10
685.7286747335
 20
59.5151237619
 30
0.0
 10
686.2263846425
 20
59.3817627938
 30
0.0
 10
687.1563790623
 20
58.9936698905
 30
0.0
 10
688.1126797767
 20
58.2101222447
 30
0.0
 10
688.6285861306
 20
57.4639580963
 30
0.0
 10
688.8665050592
 20
56.8902565203
 30
0.0
 10
688.9547098705
 20
56.308262044
 30
0.0
 10
688.9083915007
 20
55.9271750702
 30
0.0
 10
688.860327231
 20
55.747796774
 30
0.0
  0
SPLINE
  5
75B
100
AcDbEntity
  8
RUNDUNGEN
100
AcDbSpline
 62
7
  6
CONTINUOUS
 70
0
 71
3
 72
13
 73
9
 74
0
 42
0.0000001
 43
0.0000001
 44
0.0000000001
 40
0.0
 40
0.0
 40
0.0
 40
0.0
 40
0.2360077452
 40
0.3661261418
 40
0.5000000756
 40
0.6338740402
 40
0.7639924068
 40
1.0
 40
1.0
 40
1.0
 40
1.0
 10
666.8263345804
 20
70.0920180906
 30
0.0
 10
667.4316119743
 20
70.4454428174
 30
0.0
 10
668.5249012447
 20
70.7399961243
 30
0.0
 10
670.0119608692
 20
70.7304326835
 30
0.0
 10
671.1814651998
 20
70.5207814887
 30
0.0
 10
672.2991110901
 20
70.1175923816
 30
0.0
 10
673.5917236827
 20
69.3823446958
 30
0.0
 10
674.3912627205
 20
68.5806096883
 30
0.0
 10
674.7387357328
 20
67.9718965917
 30
0.0
  0
SPLINE
  5
75C
100
AcDbEntity
  8
RUNDUNGEN
100
AcDbSpline
 62
7
  6
CONTINUOUS
 70
0
 71
3
 72
9
 73
5
 74
0
 42
0.0000001
 43
0.0000001
 44
0.0000000001
 40
0.0
 40
0.0
 40
0.0
 40
0.0
 40
0.5156509212
 40
1.0
 40
1.0
 40
1.0
 40
1.0
 10
659.9723536473
 20
85.042501447
 30
0.0
 10
660.5163859693
 20
85.3601648468
 30
0.0
 10
661.5126321279
 20
86.0872515323
 30
0.0
 10
662.3042411562
 20
87.0386744834
 30
0.0
 10
662.615843307
 20
87.5417287361
 30
0.0
  0
SPLINE
  5
75D
100
AcDbEntity
  8
RUNDUNGEN
100
AcDbSpline
 62
7
  6
CONTINUOUS
 70
0
 71
3
 72
11
 73
7
 74
0
 42
0.0000001
 43
0.0000001
 44
0.0000000001
 40
0.0
 40
0.0
 40
0.0
 40
0.0
 40
0.2660806488
 40
0.5190943636
 40
0.7622194616
 40
1.0
 40
1.0
 40
1.0
 40
1.0
 10
661.5766126984
 20
91.0296777344
 30
0.0
 10
661.8166995424
 20
90.6090867788
 30
0.0
 10
662.2213292049
 20
89.7493750012
 30
0.0
 10
662.5787289586
 20
88.4004194837
 30
0.0
 10
662.6597220121
 20
87.0579277627
 30
0.0
 10
662.5251923143
 20
86.1849108662
 30
0.0
 10
662.4131798574
 20
85.766874745
 30
0.0
  0
SPLINE
  5
75E
100
AcDbEntity
  8
RUNDUNGEN
100
AcDbSpline
 62
7
  6
CONTINUOUS
 70
0
 71
3
 72
10
 73
6
 74
0
 42
0.0000001
 43
0.0000001
 44
0.0000000001
 40
0.0
 40
0.0
 40
0.0
 40
0.0
 40
0.2540843695
 40
0.5191023225
 40
1.0
 40
1.0
 40
1.0
 40
1.0
 10
653.5296855794
 20
113.0004211462
 30
0.0
 10
653.774180774
 20
113.0494580806
 30
0.0
 10
654.2941149092
 20
113.0633924333
 30
0.0
 10
655.2476424923
 20
112.8257913478
 30
0.0
 10
655.8963680651
 20
112.353914106
 30
0.0
 10
656.1303434853
 20
111.9440293164
 30
0.0
  0
SPLINE
  5
75F
100
AcDbEntity
  8
RUNDUNGEN
100
AcDbSpline
 62
7
  6
CONTINUOUS
 70
0
 71
3
 72
9
 73
5
 74
0
 42
0.0000001
 43
0.0000001
 44
0.0000000001
 40
0.0
 40
0.0
 40
0.0
 40
0.0
 40
0.5194825986
 40
1.0
 40
1.0
 40
1.0
 40
1.0
 10
657.6255766233
 20
109.324637417
 30
0.0
 10
657.7033931366
 20
109.1883162379
 30
0.0
 10
657.8147654975
 20
108.89942541
 30
0.0
 10
657.8024500127
 20
108.5869476033
 30
0.0
 10
657.7647794892
 20
108.4467255768
 30
0.0
  0
SPLINE
  5
760
100
AcDbEntity
  8
RUNDUNGEN
100
AcDbSpline
 62
7
  6
CONTINUOUS
 70
0
 71
3
 72
11
 73
7
 74
0
 42
0.0000001
 43
0.0000001
 44
0.0000000001
 40
0.0
 40
0.0
 40
0.0
 40
0.0
 40
0.2524375529
 40
0.5157480446
 40
0.7702932073
 40
1.0
 40
1.0
 40
1.0
 40
1.0
 10
696.0104151716
 20
103.6745484558
 30
0.0
 10
696.3848369563
 20
103.34513585
 30
0.0
 10
697.2678331768
 20
102.8008593951
 30
0.0
 10
698.7489825311
 20
102.381645009
 30
0.0
 10
700.2444271348
 20
102.3740720124
 30
0.0
 10
701.1793960154
 20
102.6747925064
 30
0.0
 10
701.5712786275
 20
102.903614872
 30
0.0
  0
SPLINE
  5
761
100
AcDbEntity
  8
RUNDUNGEN
100
AcDbSpline
 62
7
  6
CONTINUOUS
 70
0
 71
3
 72
11
 73
7
 74
0
 42
0.0000001
 43
0.0000001
 44
0.0000000001
 40
0.0
 40
0.0
 40
0.0
 40
0.0
 40
0.2297109937
 40
0.4842558728
 40
0.7475644511
 40
1.0
 40
1.0
 40
1.0
 40
1.0
 10
666.7902860126
 20
114.9104311531
 30
0.0
 10
667.0152592411
 20
114.5163166587
 30
0.0
 10
667.674614103
 20
113.7883962949
 30
0.0
 10
668.9735004817
 20
113.0472370218
 30
0.0
 10
670.4658134085
 20
112.6697193891
 30
0.0
 10
671.5026406267
 20
112.6995794795
 30
0.0
 10
671.9916018243
 20
112.7976474933
 30
0.0
  0
SPLINE
  5
762
100
AcDbEntity
  8
0
100
AcDbSpline
 62
7
  6
CONTINUOUS
 70
0
 71
3
 72
9
 73
5
 74
0
 42
0.0000001
 43
0.0000001
 44
0.0000000001
 40
0.0
 40
0.0
 40
0.0
 40
0.0
 40
0.4402133985
 40
1.0
 40
1.0
 40
1.0
 40
1.0
 10
668.8110713777
 20
99.3447436567
 30
0.0
 10
668.8062720001
 20
99.3268321357
 30
0.0
 10
668.8234059194
 20
99.2804362597
 30
0.0
 10
668.86345429
 20
99.2604308202
 30
0.0
 10
668.8862310376
 20
99.254327809
 30
0.0
  0
SPLINE
  5
763
100
AcDbEntity
  8
RUNDUNGEN
100
AcDbSpline
 62
7
  6
CONTINUOUS
 70
0
 71
3
 72
11
 73
7
 74
0
 42
0.0000001
 43
0.0000001
 44
0.0000000001
 40
0.0
 40
0.0
 40
0.0
 40
0.0
 40
0.237780559
 40
0.4809056754
 40
0.7339193747
 40
1.0
 40
1.0
 40
1.0
 40
1.0
 10
662.4131798574
 20
85.766874745
 30
0.0
 10
662.3011674054
 20
85.3488386424
 30
0.0
 10
661.9811649889
 20
84.5255190677
 30
0.0
 10
661.2397770513
 20
83.4033838517
 30
0.0
 10
660.2557821392
 20
82.4138541853
 30
0.0
 10
659.4755068298
 20
81.871636914
 30
0.0
 10
659.0572901378
 20
81.6274379376
 30
0.0
  0
SPLINE
  5
764
100
AcDbEntity
  8
RUNDUNGEN
100
AcDbSpline
 62
7
  6
CONTINUOUS
 70
0
 71
3
 72
9
 73
5
 74
0
 42
0.0000001
 43
0.0000001
 44
0.0000000001
 40
0.0
 40
0.0
 40
0.0
 40
0.0
 40
0.4805366099
 40
1.0
 40
1.0
 40
1.0
 40
1.0
 10
696.1026991629
 20
57.2762549769
 30
0.0
 10
696.1777946562
 20
57.5565151734
 30
0.0
 10
696.2019107772
 20
58.180918033
 30
0.0
 10
695.979335198
 20
58.7581275949
 30
0.0
 10
695.8238434121
 20
59.0305225238
 30
0.0
  0
SPLINE
  5
765
100
AcDbEntity
  8
0
100
AcDbSpline
 62
7
  6
CONTINUOUS
 70
0
 71
3
 72
9
 73
5
 74
0
 42
0.0000001
 43
0.0000001
 44
0.0000000001
 40
0.0
 40
0.0
 40
0.0
 40
0.0
 40
0.4402133985
 40
1.0
 40
1.0
 40
1.0
 40
1.0
 10
669.8233924365
 20
100.5727331004
 30
0.0
 10
669.8281918141
 20
100.5906446215
 30
0.0
 10
669.8110578948
 20
100.6370404975
 30
0.0
 10
669.7710095242
 20
100.657045937
 30
0.0
 10
669.7482327766
 20
100.6631489482
 30
0.0
  0
SPLINE
  5
766
100
AcDbEntity
  8
0
100
AcDbSpline
 62
7
  6
CONTINUOUS
 70
0
 71
3
 72
9
 73
5
 74
0
 42
0.0000001
 43
0.0000001
 44
0.0000000001
 40
0.0
 40
0.0
 40
0.0
 40
0.0
 40
0.471076254
 40
1.0
 40
1.0
 40
1.0
 40
1.0
 10
670.2368959348
 20
99.5659049836
 30
0.0
 10
670.2427162729
 20
99.5876267813
 30
0.0
 10
670.2411653138
 20
99.6380091051
 30
0.0
 10
670.2161957487
 20
99.6805926317
 30
0.0
 10
670.2000550703
 20
99.7000096051
 30
0.0
  0
SPLINE
  5
767
100
AcDbEntity
  8
0
100
AcDbSpline
 62
7
  6
CONTINUOUS
 70
0
 71
3
 72
8
 73
4
 74
0
 42
0.0000001
 43
0.0000001
 44
0.0000000001
 40
0.0
 40
0.0
 40
0.0
 40
0.0
 40
1.0
 40
1.0
 40
1.0
 40
1.0
 10
670.2000550703
 20
99.7000096051
 30
0.0
 10
670.1910949313
 20
99.7107885065
 30
0.0
 10
670.1810738503
 20
99.7207403283
 30
0.0
 10
670.1703831283
 20
99.7298054962
 30
0.0
  0
SPLINE
  5
768
100
AcDbEntity
  8
0
100
AcDbSpline
 62
7
  6
CONTINUOUS
 70
0
 71
3
 72
9
 73
5
 74
0
 42
0.0000001
 43
0.0000001
 44
0.0000000001
 40
0.0
 40
0.0
 40
0.0
 40
0.0
 40
0.241609722
 40
1.0
 40
1.0
 40
1.0
 40
1.0
 10
670.1703831283
 20
99.7298054962
 30
0.0
 10
670.1619681106
 20
99.736940987
 30
0.0
 10
670.1253151481
 20
99.7642915737
 30
0.0
 10
670.0824483874
 20
99.782981273
 30
0.0
 10
670.0489967849
 20
99.7919446028
 30
0.0
  0
SPLINE
  5
769
100
AcDbEntity
  8
RUNDUNGEN
100
AcDbSpline
 62
7
  6
CONTINUOUS
 70
0
 71
3
 72
9
 73
5
 74
0
 42
0.0000001
 43
0.0000001
 44
0.0000000001
 40
0.0
 40
0.0
 40
0.0
 40
0.0
 40
0.5194635453
 40
1.0
 40
1.0
 40
1.0
 40
1.0
 10
644.0954086546
 20
72.8911148428
 30
0.0
 10
643.8245512724
 20
72.7329597601
 30
0.0
 10
643.3431903935
 20
72.3443693723
 30
0.0
 10
643.0518741861
 20
71.7915625636
 30
0.0
 10
642.976778717
 20
71.5113024575
 30
0.0
  0
SPLINE
  5
76A
100
AcDbEntity
  8
RUNDUNGEN
100
AcDbSpline
 62
7
  6
CONTINUOUS
 70
0
 71
3
 72
10
 73
6
 74
0
 42
0.0000001
 43
0.0000001
 44
0.0000000001
 40
0.0
 40
0.0
 40
0.0
 40
0.0
 40
0.5349741761
 40
0.7734715455
 40
1.0
 40
1.0
 40
1.0
 40
1.0
 10
653.6838877424
 20
106.9560863432
 30
0.0
 10
653.5260578848
 20
106.9244313555
 30
0.0
 10
653.2985743075
 20
106.8335940872
 30
0.0
 10
653.0879889036
 20
106.6131126929
 30
0.0
 10
653.027517966
 20
106.483388078
 30
0.0
 10
653.0098391234
 20
106.4175585254
 30
0.0
  0
SPLINE
  5
76B
100
AcDbEntity
  8
RUNDUNGEN
100
AcDbSpline
 62
7
  6
CONTINUOUS
 70
0
 71
3
 72
11
 73
7
 74
0
 42
0.0000001
 43
0.0000001
 44
0.0000000001
 40
0.0
 40
0.0
 40
0.0
 40
0.0
 40
0.2794013718
 40
0.5367226037
 40
0.7743080703
 40
1.0
 40
1.0
 40
1.0
 40
1.0
 10
649.6465845882
 20
118.9280691564
 30
0.0
 10
649.3706049591
 20
118.8727175779
 30
0.0
 10
648.8484930192
 20
118.7143284976
 30
0.0
 10
648.1679799354
 20
118.316205199
 30
0.0
 10
647.6591099472
 20
117.7834846801
 30
0.0
 10
647.4580237868
 20
117.3507075636
 30
0.0
 10
647.3992191234
 20
117.1310760888
 30
0.0
  0
SPLINE
  5
76C
100
AcDbEntity
  8
RUNDUNGEN
100
AcDbSpline
 62
7
  6
CONTINUOUS
 70
0
 71
3
 72
12
 73
8
 74
0
 42
0.0000001
 43
0.0000001
 44
0.0000000001
 40
0.0
 40
0.0
 40
0.0
 40
0.0
 40
0.2295487136
 40
0.3548258051
 40
0.4846200283
 40
0.7477432149
 40
1.0
 40
1.0
 40
1.0
 40
1.0
 10
664.4422978947
 20
114.0056056902
 30
0.0
 10
663.8798655125
 20
114.9908907194
 30
0.0
 10
662.668362552
 20
116.3284819543
 30
0.0
 10
660.6914600397
 20
117.6867173054
 30
0.0
 10
658.3828064725
 20
118.8167947177
 30
0.0
 10
655.2526642008
 20
119.6071934032
 30
0.0
 10
652.6614077796
 20
119.5327341563
 30
0.0
 10
651.4390083654
 20
119.2875648396
 30
0.0
  0
SPLINE
  5
76D
100
AcDbEntity
  8
0
100
AcDbSpline
 62
7
  6
CONTINUOUS
 70
0
 71
3
 72
9
 73
5
 74
0
 42
0.0000001
 43
0.0000001
 44
0.0000000001
 40
0.0
 40
0.0
 40
0.0
 40
0.0
 40
0.2423574743
 40
1.0
 40
1.0
 40
1.0
 40
1.0
 10
687.9581609066
 20
106.5387152172
 30
0.0
 10
687.6795347275
 20
106.7838477908
 30
0.0
 10
686.4866653878
 20
107.7456726902
 30
0.0
 10
685.139056147
 20
108.5106153705
 30
0.0
 10
684.0757176503
 20
108.9745508744
 30
0.0
  0
SPLINE
  5
76E
100
AcDbEntity
  8
0
100
AcDbSpline
 62
7
  6
CONTINUOUS
 70
0
 71
3
 72
9
 73
5
 74
0
 42
0.0000001
 43
0.0000001
 44
0.0000000001
 40
0.0
 40
0.0
 40
0.0
 40
0.0
 40
0.2572745118
 40
1.0
 40
1.0
 40
1.0
 40
1.0
 10
679.2415981865
 20
110.2698492809
 30
0.0
 10
678.8501574414
 20
110.3139522877
 30
0.0
 10
677.3234302099
 20
110.4306661768
 30
0.0
 10
675.7763808554
 20
110.3252032053
 30
0.0
 10
674.6613858692
 20
110.1015753504
 30
0.0
  0
SPLINE
  5
76F
100
AcDbEntity
  8
RUNDUNGEN
100
AcDbSpline
 62
7
  6
CONTINUOUS
 70
0
 71
3
 72
10
 73
6
 74
0
 42
0.0000001
 43
0.0000001
 44
0.0000000001
 40
0.0
 40
0.0
 40
0.0
 40
0.0
 40
0.2540841022
 40
0.5191024011
 40
1.0
 40
1.0
 40
1.0
 40
1.0
 10
711.0152804852
 20
104.3318798613
 30
0.0
 10
710.9029482532
 20
104.4307086549
 30
0.0
 10
710.6369629119
 20
104.5939295685
 30
0.0
 10
710.0702150408
 20
104.7565265413
 30
0.0
 10
709.5915640414
 20
104.7059496722
 30
0.0
 10
709.3470214485
 20
104.5631599365
 30
0.0
  0
SPLINE
  5
770
100
AcDbEntity
  8
0
100
AcDbSpline
 62
7
  6
CONTINUOUS
 70
0
 71
3
 72
11
 73
7
 74
0
 42
0.0000001
 43
0.0000001
 44
0.0000000001
 40
0.0
 40
0.0
 40
0.0
 40
0.0
 40
0.2880052506
 40
0.5553344723
 40
0.7905070702
 40
1.0
 40
1.0
 40
1.0
 40
1.0
 10
670.7969422942
 20
97.4832268819
 30
0.0
 10
670.8566743996
 20
97.4672217124
 30
0.0
 10
670.976763132
 20
97.4517671806
 30
0.0
 10
671.146889018
 20
97.479765402
 30
0.0
 10
671.2835776484
 20
97.5576257229
 30
0.0
 10
671.3367907436
 20
97.6433911369
 30
0.0
 10
671.3484327877
 20
97.6868398371
 30
0.0
  0
SPLINE
  5
771
100
AcDbEntity
  8
0
100
AcDbSpline
 62
7
  6
CONTINUOUS
 70
0
 71
3
 72
17
 73
13
 74
0
 42
0.0000001
 43
0.0000001
 44
0.0000000001
 40
0.0
 40
0.0
 40
0.0
 40
0.0
 40
0.0517921087
 40
0.1054769531
 40
0.2228492041
 40
0.356284866
 40
0.5
 40
0.643715134
 40
0.7771507959
 40
0.8945230469
 40
0.9482078913
 40
1.0
 40
1.0
 40
1.0
 40
1.0
 10
678.7473602495
 20
97.0306828727
 30
0.0
 10
678.7199939123
 20
96.9285503119
 30
0.0
 10
678.6936594154
 20
96.7115406577
 30
0.0
 10
678.762370078
 20
96.257018555
 30
0.0
 10
679.0836337189
 20
95.7001305983
 30
0.0
 10
679.7176243676
 20
95.1832408069
 30
0.0
 10
680.5202078996
 20
94.8468605319
 30
0.0
 10
681.3834557645
 20
94.7368826294
 30
0.0
 10
682.1909526677
 20
94.8675269953
 30
0.0
 10
682.7476191205
 20
95.1891742925
 30
0.0
 10
683.0343853511
 20
95.5484466487
 30
0.0
 10
683.1200838349
 20
95.7495497705
 30
0.0
 10
683.1474501721
 20
95.8516823314
 30
0.0
  0
SPLINE
  5
772
100
AcDbEntity
  8
0
100
AcDbSpline
 62
7
  6
CONTINUOUS
 70
0
 71
3
 72
9
 73
5
 74
0
 42
0.0000001
 43
0.0000001
 44
0.0000000001
 40
0.0
 40
0.0
 40
0.0
 40
0.0
 40
0.4402133985
 40
1.0
 40
1.0
 40
1.0
 40
1.0
 10
669.1770967815
 20
100.7107690605
 30
0.0
 10
669.1722974039
 20
100.6928575395
 30
0.0
 10
669.1894313232
 20
100.6464616635
 30
0.0
 10
669.2294796938
 20
100.6264562239
 30
0.0
 10
669.2522564414
 20
100.6203532128
 30
0.0
  0
SPLINE
  5
773
100
AcDbEntity
  8
0
100
AcDbSpline
 62
7
  6
CONTINUOUS
 70
0
 71
3
 72
9
 73
5
 74
0
 42
0.0000001
 43
0.0000001
 44
0.0000000001
 40
0.0
 40
0.0
 40
0.0
 40
0.0
 40
0.471076254
 40
1.0
 40
1.0
 40
1.0
 40
1.0
 10
670.6761264193
 20
101.2051354681
 30
0.0
 10
670.6819467575
 20
101.2268572658
 30
0.0
 10
670.6803957983
 20
101.2772395896
 30
0.0
 10
670.6554262332
 20
101.3198231162
 30
0.0
 10
670.6392855549
 20
101.3392400896
 30
0.0
  0
SPLINE
  5
774
100
AcDbEntity
  8
0
100
AcDbSpline
 62
7
  6
CONTINUOUS
 70
0
 71
3
 72
8
 73
4
 74
0
 42
0.0000001
 43
0.0000001
 44
0.0000000001
 40
0.0
 40
0.0
 40
0.0
 40
0.0
 40
1.0
 40
1.0
 40
1.0
 40
1.0
 10
670.6392855549
 20
101.3392400896
 30
0.0
 10
670.6303254158
 20
101.3500189911
 30
0.0
 10
670.6203043349
 20
101.3599708128
 30
0.0
 10
670.6096136128
 20
101.3690359808
 30
0.0
  0
SPLINE
  5
775
100
AcDbEntity
  8
0
100
AcDbSpline
 62
7
  6
CONTINUOUS
 70
0
 71
3
 72
9
 73
5
 74
0
 42
0.0000001
 43
0.0000001
 44
0.0000000001
 40
0.0
 40
0.0
 40
0.0
 40
0.0
 40
0.241609722
 40
1.0
 40
1.0
 40
1.0
 40
1.0
 10
670.6096136128
 20
101.3690359808
 30
0.0
 10
670.6011985952
 20
101.3761714716
 30
0.0
 10
670.5645456326
 20
101.4035220582
 30
0.0
 10
670.521678872
 20
101.4222117575
 30
0.0
 10
670.4882272694
 20
101.4311750874
 30
0.0
  0
SPLINE
  5
776
100
AcDbEntity
  8
0
100
AcDbSpline
 62
7
  6
CONTINUOUS
 70
0
 71
3
 72
11
 73
7
 74
0
 42
0.0000001
 43
0.0000001
 44
0.0000000001
 40
0.0
 40
0.0
 40
0.0
 40
0.0
 40
0.2879697432
 40
0.5553440702
 40
0.7905331502
 40
1.0
 40
1.0
 40
1.0
 40
1.0
 10
668.8898857934
 20
100.102527457
 30
0.0
 10
668.8600232135
 20
100.1105291111
 30
0.0
 10
668.799979252
 20
100.1182498862
 30
0.0
 10
668.7149055717
 20
100.1042753627
 30
0.0
 10
668.6465694004
 20
100.0653201551
 30
0.0
 10
668.6199608848
 20
100.0224427771
 30
0.0
 10
668.6141405466
 20
100.0007209793
 30
0.0
  0
SPLINE
  5
777
100
AcDbEntity
  8
0
100
AcDbSpline
 62
7
  6
CONTINUOUS
 70
0
 71
3
 72
9
 73
5
 74
0
 42
0.0000001
 43
0.0000001
 44
0.0000000001
 40
0.0
 40
0.0
 40
0.0
 40
0.0
 40
0.4402133985
 40
1.0
 40
1.0
 40
1.0
 40
1.0
 10
669.2503018622
 20
100.9839741413
 30
0.0
 10
669.2455024847
 20
100.9660626203
 30
0.0
 10
669.2626364039
 20
100.9196667443
 30
0.0
 10
669.3026847746
 20
100.8996613047
 30
0.0
 10
669.3254615222
 20
100.8935582936
 30
0.0
  0
SPLINE
  5
778
100
AcDbEntity
  8
0
100
AcDbSpline
 62
7
  6
CONTINUOUS
 70
0
 71
3
 72
9
 73
5
 74
0
 42
0.0000001
 43
0.0000001
 44
0.0000000001
 40
0.0
 40
0.0
 40
0.0
 40
0.0
 40
0.5
 40
1.0
 40
1.0
 40
1.0
 40
1.0
 10
678.7862774728
 20
97.1106521685
 30
0.0
 10
678.7059539354
 20
96.2252640783
 30
0.0
 10
680.4642720603
 20
94.6381051377
 30
0.0
 10
682.7805996948
 20
95.1334660376
 30
0.0
 10
683.153731516
 20
95.9403963847
 30
0.0
  0
SPLINE
  5
779
100
AcDbEntity
  8
0
100
AcDbSpline
 62
7
  6
CONTINUOUS
 70
0
 71
3
 72
11
 73
7
 74
0
 42
0.0000001
 43
0.0000001
 44
0.0000000001
 40
0.0
 40
0.0
 40
0.0
 40
0.0
 40
0.2094929298
 40
0.4446655277
 40
0.7119947494
 40
1.0
 40
1.0
 40
1.0
 40
1.0
 10
666.7119888215
 20
98.9291712536
 30
0.0
 10
666.7003467774
 20
98.8857225534
 30
0.0
 10
666.7035479626
 20
98.7848409785
 30
0.0
 10
666.7829936285
 20
98.6490676474
 30
0.0
 10
666.9163278568
 20
98.5397575335
 30
0.0
 10
667.0280550157
 20
98.4930971845
 30
0.0
 10
667.0877871212
 20
98.477092015
 30
0.0
  0
SPLINE
  5
77A
100
AcDbEntity
  8
0
100
AcDbSpline
 62
7
  6
CONTINUOUS
 70
0
 71
3
 72
11
 73
7
 74
0
 42
0.0000001
 43
0.0000001
 44
0.0000000001
 40
0.0
 40
0.0
 40
0.0
 40
0.0
 40
0.2879697432
 40
0.5553440702
 40
0.7905331502
 40
1.0
 40
1.0
 40
1.0
 40
1.0
 10
669.3291162779
 20
101.7417579415
 30
0.0
 10
669.2992536981
 20
101.7497595956
 30
0.0
 10
669.2392097366
 20
101.7574803707
 30
0.0
 10
669.1541360563
 20
101.7435058473
 30
0.0
 10
669.0857998849
 20
101.7045506397
 30
0.0
 10
669.0591913693
 20
101.6616732616
 30
0.0
 10
669.0533710311
 20
101.6399514639
 30
0.0
  0
SPLINE
  5
77B
100
AcDbEntity
  8
0
100
AcDbSpline
 62
7
  6
CONTINUOUS
 70
0
 71
3
 72
9
 73
5
 74
0
 42
0.0000001
 43
0.0000001
 44
0.0000000001
 40
0.0
 40
0.0
 40
0.0
 40
0.0
 40
0.5597866015
 40
1.0
 40
1.0
 40
1.0
 40
1.0
 10
669.5859572378
 20
100.7066305477
 30
0.0
 10
669.5631804901
 20
100.7127335589
 30
0.0
 10
669.518494864
 20
100.7154325253
 30
0.0
 10
669.4804585167
 20
100.6838194777
 30
0.0
 10
669.4756591391
 20
100.6659079567
 30
0.0
  0
SPLINE
  5
77C
100
AcDbEntity
  8
0
100
AcDbSpline
 62
7
  6
CONTINUOUS
 70
0
 71
3
 72
9
 73
5
 74
0
 42
0.0000001
 43
0.0000001
 44
0.0000000001
 40
0.0
 40
0.0
 40
0.0
 40
0.0
 40
0.5597866015
 40
1.0
 40
1.0
 40
1.0
 40
1.0
 10
669.994087476
 20
100.4215801862
 30
0.0
 10
670.0168642236
 20
100.415477175
 30
0.0
 10
670.0615498498
 20
100.4127782086
 30
0.0
 10
670.0995861971
 20
100.4443912562
 30
0.0
 10
670.1043855747
 20
100.4623027772
 30
0.0
  0
SPLINE
  5
77D
100
AcDbEntity
  8
0
100
AcDbSpline
 62
7
  6
CONTINUOUS
 70
0
 71
3
 72
9
 73
5
 74
0
 42
0.0000001
 43
0.0000001
 44
0.0000000001
 40
0.0
 40
0.0
 40
0.0
 40
0.0
 40
0.7407738242
 40
1.0
 40
1.0
 40
1.0
 40
1.0
 10
666.7851939023
 20
99.2023763344
 30
0.0
 10
666.7765145585
 20
99.1699845823
 30
0.0
 10
666.7744200781
 20
99.1230887068
 30
0.0
 10
666.78376837
 20
99.0787762337
 30
0.0
 10
666.7868694846
 20
99.0674583799
 30
0.0
  0
SPLINE
  5
77E
100
AcDbEntity
  8
0
100
AcDbSpline
 62
7
  6
CONTINUOUS
 70
0
 71
3
 72
9
 73
5
 74
0
 42
0.0000001
 43
0.0000001
 44
0.0000000001
 40
0.0
 40
0.0
 40
0.0
 40
0.0
 40
0.238285514
 40
1.0
 40
1.0
 40
1.0
 40
1.0
 10
666.7868694846
 20
99.0674583799
 30
0.0
 10
666.7900633618
 20
99.0558019789
 30
0.0
 10
666.8065224598
 20
99.0077272181
 30
0.0
 10
666.8341784832
 20
98.9638773583
 30
0.0
 10
666.8588756311
 20
98.9341670913
 30
0.0
  0
SPLINE
  5
77F
100
AcDbEntity
  8
0
100
AcDbSpline
 62
7
  6
CONTINUOUS
 70
0
 71
3
 72
9
 73
5
 74
0
 42
0.0000001
 43
0.0000001
 44
0.0000000001
 40
0.0
 40
0.0
 40
0.0
 40
0.0
 40
0.2355596553
 40
1.0
 40
1.0
 40
1.0
 40
1.0
 10
666.8588756311
 20
98.9341670913
 30
0.0
 10
666.8767863349
 20
98.9126208062
 30
0.0
 10
666.9614807978
 20
98.8284455835
 30
0.0
 10
667.0731645697
 20
98.773830439
 30
0.0
 10
667.160992202
 20
98.7502970958
 30
0.0
  0
SPLINE
  5
780
100
AcDbEntity
  8
0
100
AcDbSpline
 62
7
  6
CONTINUOUS
 70
0
 71
3
 72
9
 73
5
 74
0
 42
0.0000001
 43
0.0000001
 44
0.0000000001
 40
0.0
 40
0.0
 40
0.0
 40
0.0
 40
0.5597866015
 40
1.0
 40
1.0
 40
1.0
 40
1.0
 10
669.5548569915
 20
98.7823497016
 30
0.0
 10
669.5776337391
 20
98.7762466905
 30
0.0
 10
669.6223193652
 20
98.7735477241
 30
0.0
 10
669.6603557126
 20
98.8051607717
 30
0.0
 10
669.6651550902
 20
98.8230722927
 30
0.0
  0
SPLINE
  5
781
100
AcDbEntity
  8
0
100
AcDbSpline
 62
7
  6
CONTINUOUS
 70
0
 71
3
 72
11
 73
7
 74
0
 42
0.0000001
 43
0.0000001
 44
0.0000000001
 40
0.0
 40
0.0
 40
0.0
 40
0.0
 40
0.2094656921
 40
0.4446574861
 40
0.7119998836
 40
1.0
 40
1.0
 40
1.0
 40
1.0
 10
677.3568632693
 20
99.1262189556
 30
0.0
 10
677.3778776461
 20
99.2046456778
 30
0.0
 10
677.3721022788
 20
99.3867530636
 30
0.0
 10
677.2287357592
 20
99.6319031353
 30
0.0
 10
676.9879766432
 20
99.8291989036
 30
0.0
 10
676.7862884212
 20
99.9134504752
 30
0.0
 10
676.678457373
 20
99.9423437175
 30
0.0
  0
SPLINE
  5
782
100
AcDbEntity
  8
BEZUGSACHSEN
100
AcDbSpline
 62
7
  6
CONTINUOUS
 70
0
 71
3
 72
19
 73
15
 74
0
 42
0.0000001
 43
0.0000001
 44
0.0000000001
 40
0.0
 40
0.0
 40
0.0
 40
0.0
 40
0.051729057
 40
0.1053341786
 40
0.1622493009
 40
0.2232160554
 40
0.3564757248
 40
0.5
 40
0.6435242752
 40
0.7767839446
 40
0.8377506991
 40
0.8946658214
 40
0.948270943
 40
1.0
 40
1.0
 40
1.0
 40
1.0
 10
675.3217059665
 20
105.2908899536
 30
0.0
 10
675.2616236515
 20
105.0666597015
 30
0.0
 10
675.203721815
 20
104.5903015143
 30
0.0
 10
675.3139939124
 20
103.8628088226
 30
0.0
 10
675.6113986798
 20
103.1456811075
 30
0.0
 10
676.2561921113
 20
102.2130097777
 30
0.0
 10
677.4524502939
 20
101.2333406106
 30
0.0
 10
679.2137664417
 20
100.4977408675
 30
0.0
 10
681.1069108413
 20
100.2541308582
 30
0.0
 10
682.6327354005
 20
100.5044201529
 30
0.0
 10
683.6574785572
 20
100.9897405021
 30
0.0
 10
684.2736024985
 20
101.4620889375
 30
0.0
 10
684.7328472821
 20
102.0369800408
 30
0.0
 10
684.9208819144
 20
102.4784692504
 30
0.0
 10
684.9809642293
 20
102.7026995026
 30
0.0
  0
SPLINE
  5
783
100
AcDbEntity
  8
0
100
AcDbSpline
 62
7
  6
CONTINUOUS
 70
0
 71
3
 72
11
 73
7
 74
0
 42
0.0000001
 43
0.0000001
 44
0.0000000001
 40
0.0
 40
0.0
 40
0.0
 40
0.0
 40
0.2865059912
 40
0.5484241175
 40
0.7833822346
 40
1.0
 40
1.0
 40
1.0
 40
1.0
 10
676.7233908831
 20
98.1870000288
 30
0.0
 10
676.8803231546
 20
98.1817370295
 30
0.0
 10
677.1834666062
 20
98.2051814625
 30
0.0
 10
677.5936720349
 20
98.3505280619
 30
0.0
 10
677.9082607971
 20
98.5969452012
 30
0.0
 10
678.0294247002
 20
98.8233629819
 30
0.0
 10
678.060133987
 20
98.9380404103
 30
0.0
  0
SPLINE
  5
784
100
AcDbEntity
  8
RUNDUNGEN
100
AcDbSpline
 62
7
  6
CONTINUOUS
 70
0
 71
3
 72
10
 73
6
 74
0
 42
0.0000001
 43
0.0000001
 44
0.0000000001
 40
0.0
 40
0.0
 40
0.0
 40
0.0
 40
0.2265442612
 40
0.4650409816
 40
1.0
 40
1.0
 40
1.0
 40
1.0
 10
716.2709030562
 20
99.1813634364
 30
0.0
 10
716.2885020155
 20
99.2472156629
 30
0.0
 10
716.3009840562
 20
99.3897940079
 30
0.0
 10
716.2288372345
 20
99.6860084453
 30
0.0
 10
716.0772600425
 20
99.8784000042
 30
0.0
 10
715.9564125468
 20
99.984720443
 30
0.0
  0
SPLINE
  5
785
100
AcDbEntity
  8
0
100
AcDbSpline
 62
7
  6
CONTINUOUS
 70
0
 71
3
 72
11
 73
7
 74
0
 42
0.0000001
 43
0.0000001
 44
0.0000000001
 40
0.0
 40
0.0
 40
0.0
 40
0.0
 40
0.227142142
 40
0.4653047767
 40
0.7220182825
 40
1.0
 40
1.0
 40
1.0
 40
1.0
 10
688.8599481934
 20
94.9389703708
 30
0.0
 10
688.9004107982
 20
95.0899788675
 30
0.0
 10
688.9318863281
 20
95.4153014462
 30
0.0
 10
688.8231422691
 20
95.9072173491
 30
0.0
 10
688.5710725185
 20
96.3817844385
 30
0.0
 10
688.3268603879
 20
96.6613602488
 30
0.0
 10
688.1879287319
 20
96.7929048894
 30
0.0
  0
SPLINE
  5
786
100
AcDbEntity
  8
0
100
AcDbSpline
 62
7
  6
CONTINUOUS
 70
0
 71
3
 72
9
 73
5
 74
0
 42
0.0000001
 43
0.0000001
 44
0.0000000001
 40
0.0
 40
0.0
 40
0.0
 40
0.0
 40
0.4402133985
 40
1.0
 40
1.0
 40
1.0
 40
1.0
 10
668.7378662969
 20
99.071538576
 30
0.0
 10
668.7330669194
 20
99.053627055
 30
0.0
 10
668.7502008386
 20
99.007231179
 30
0.0
 10
668.7902492093
 20
98.9872257394
 30
0.0
 10
668.8130259569
 20
98.9811227283
 30
0.0
  0
SPLINE
  5
787
100
AcDbEntity
  8
0
100
AcDbSpline
 62
7
  6
CONTINUOUS
 70
0
 71
3
 72
8
 73
4
 74
0
 42
0.0000001
 43
0.0000001
 44
0.0000000001
 40
0.0
 40
0.0
 40
0.0
 40
0.0
 40
1.0
 40
1.0
 40
1.0
 40
1.0
 10
687.0383311157
 20
93.1313598632
 30
0.0
 10
687.100764438
 20
93.1146309049
 30
0.0
 10
687.1663574154
 20
93.1066235734
 30
0.0
 10
687.2309483249
 20
93.1090302698
 30
0.0
  0
SPLINE
  5
788
100
AcDbEntity
  8
0
100
AcDbSpline
 62
7
  6
CONTINUOUS
 70
0
 71
3
 72
11
 73
7
 74
0
 42
0.0000001
 43
0.0000001
 44
0.0000000001
 40
0.0
 40
0.0
 40
0.0
 40
0.0
 40
0.2847819434
 40
0.5451774547
 40
0.7807010719
 40
1.0
 40
1.0
 40
1.0
 40
1.0
 10
687.2309483249
 20
93.1090302698
 30
0.0
 10
687.530939554
 20
93.1202081245
 30
0.0
 10
688.1058677792
 20
93.2029868829
 30
0.0
 10
688.8742758317
 20
93.525960686
 30
0.0
 10
689.4575451671
 20
94.0267687743
 30
0.0
 10
689.6832133996
 20
94.467338187
 30
0.0
 10
689.7430449305
 20
94.6906325003
 30
0.0
  0
SPLINE
  5
789
100
AcDbEntity
  8
0
100
AcDbSpline
 62
7
  6
CONTINUOUS
 70
0
 71
3
 72
9
 73
5
 74
0
 42
0.0000001
 43
0.0000001
 44
0.0000000001
 40
0.0
 40
0.0
 40
0.0
 40
0.0
 40
0.239729366
 40
1.0
 40
1.0
 40
1.0
 40
1.0
 10
688.1879287319
 20
96.7929048894
 30
0.0
 10
688.1791712825
 20
96.801196704
 30
0.0
 10
688.1401608019
 20
96.8331271581
 30
0.0
 10
688.0929763103
 20
96.854550554
 30
0.0
 10
688.0560323623
 20
96.864449655
 30
0.0
  0
SPLINE
  5
78A
100
AcDbEntity
  8
0
100
AcDbSpline
 62
7
  6
CONTINUOUS
 70
0
 71
3
 72
8
 73
4
 74
0
 42
0.0000001
 43
0.0000001
 44
0.0000000001
 40
0.0
 40
0.0
 40
0.0
 40
0.0
 40
1.0
 40
1.0
 40
1.0
 40
1.0
 10
687.1115361965
 20
93.4045649439
 30
0.0
 10
687.1739695188
 20
93.3878359856
 30
0.0
 10
687.2395624961
 20
93.3798286542
 30
0.0
 10
687.3041534056
 20
93.3822353506
 30
0.0
  0
SPLINE
  5
78B
100
AcDbEntity
  8
0
100
AcDbSpline
 62
7
  6
CONTINUOUS
 70
0
 71
3
 72
11
 73
7
 74
0
 42
0.0000001
 43
0.0000001
 44
0.0000000001
 40
0.0
 40
0.0
 40
0.0
 40
0.0
 40
0.2816347582
 40
0.5420479832
 40
0.7798483853
 40
1.0
 40
1.0
 40
1.0
 40
1.0
 10
687.3041534056
 20
93.3822353506
 30
0.0
 10
687.5750986941
 20
93.392330936
 30
0.0
 10
688.0967687264
 20
93.4621303913
 30
0.0
 10
688.8066207337
 20
93.7284437856
 30
0.0
 10
689.3743343031
 20
94.1401680943
 30
0.0
 10
689.6347022175
 20
94.5091214263
 30
0.0
 10
689.7223591371
 20
94.7020876902
 30
0.0
  0
SPLINE
  5
78C
100
AcDbEntity
  8
0
100
AcDbSpline
 62
7
  6
CONTINUOUS
 70
0
 71
3
 72
9
 73
5
 74
0
 42
0.0000001
 43
0.0000001
 44
0.0000000001
 40
0.0
 40
0.0
 40
0.0
 40
0.0
 40
0.2591205677
 40
1.0
 40
1.0
 40
1.0
 40
1.0
 10
688.1292374431
 20
97.1376547358
 30
0.0
 10
688.141825192
 20
97.1342818586
 30
0.0
 10
688.1895730214
 20
97.1185101885
 30
0.0
 10
688.2340770995
 20
97.091728074
 30
0.0
 10
688.2611338126
 20
97.0661099701
 30
0.0
  0
SPLINE
  5
78D
100
AcDbEntity
  8
0
100
AcDbSpline
 62
7
  6
CONTINUOUS
 70
0
 71
3
 72
11
 73
7
 74
0
 42
0.0000001
 43
0.0000001
 44
0.0000000001
 40
0.0
 40
0.0
 40
0.0
 40
0.0
 40
0.2779697373
 40
0.5346991835
 40
0.7728568778
 40
1.0
 40
1.0
 40
1.0
 40
1.0
 10
688.2611338126
 20
97.0661099701
 30
0.0
 10
688.4000599789
 20
96.9345705274
 30
0.0
 10
688.6442662775
 20
96.6549872093
 30
0.0
 10
688.8963643579
 20
96.1804318253
 30
0.0
 10
689.0050956223
 20
95.6885023968
 30
0.0
 10
688.9736301009
 20
95.3631814159
 30
0.0
 10
688.9331671765
 20
95.2121717264
 30
0.0
  0
SPLINE
  5
78E
100
AcDbEntity
  8
0
100
AcDbSpline
 62
7
  6
CONTINUOUS
 70
0
 71
3
 72
9
 73
5
 74
0
 42
0.0000001
 43
0.0000001
 44
0.0000000001
 40
0.0
 40
0.0
 40
0.0
 40
0.0
 40
0.5403772208
 40
1.0
 40
1.0
 40
1.0
 40
1.0
 10
676.7965959639
 20
98.4602051096
 30
0.0
 10
677.0371631174
 20
98.4521372676
 30
0.0
 10
677.4910486933
 20
98.5093357625
 30
0.0
 10
677.8828262511
 20
98.7746129503
 30
0.0
 10
678.0031303076
 20
98.9402691362
 30
0.0
  0
SPLINE
  5
78F
100
AcDbEntity
  8
0
100
AcDbSpline
 62
7
  6
CONTINUOUS
 70
0
 71
3
 72
8
 73
4
 74
0
 42
0.0000001
 43
0.0000001
 44
0.0000000001
 40
0.0
 40
0.0
 40
0.0
 40
0.0
 40
1.0
 40
1.0
 40
1.0
 40
1.0
 10
678.0031303076
 20
98.9402691362
 30
0.0
 10
678.0332462986
 20
98.9817382301
 30
0.0
 10
678.05985136
 20
99.0260387282
 30
0.0
 10
678.0819615467
 20
99.0722750592
 30
0.0
  0
SPLINE
  5
790
100
AcDbEntity
  8
0
100
AcDbSpline
 62
7
  6
CONTINUOUS
 70
0
 71
3
 72
11
 73
7
 74
0
 42
0.0000001
 43
0.0000001
 44
0.0000000001
 40
0.0
 40
0.0
 40
0.0
 40
0.0
 40
0.2880066977
 40
0.5553334191
 40
0.790532629
 40
1.0
 40
1.0
 40
1.0
 40
1.0
 10
676.7516624538
 20
100.2155487983
 30
0.0
 10
676.8594955554
 20
100.1866550058
 30
0.0
 10
677.0611861734
 20
100.1024145694
 30
0.0
 10
677.3019230632
 20
99.9050933121
 30
0.0
 10
677.4452933186
 20
99.6599597139
 30
0.0
 10
677.4510972635
 20
99.4778472171
 30
0.0
 10
677.4300827983
 20
99.399420165
 30
0.0
  0
SPLINE
  5
791
100
AcDbEntity
  8
0
100
AcDbSpline
 62
7
  6
CONTINUOUS
 70
0
 71
3
 72
9
 73
5
 74
0
 42
0.0000001
 43
0.0000001
 44
0.0000000001
 40
0.0
 40
0.0
 40
0.0
 40
0.0
 40
0.5597866015
 40
1.0
 40
1.0
 40
1.0
 40
1.0
 10
669.6280620722
 20
99.0555547824
 30
0.0
 10
669.6508388199
 20
99.0494517713
 30
0.0
 10
669.695524446
 20
99.0467528048
 30
0.0
 10
669.7335607933
 20
99.0783658524
 30
0.0
 10
669.7383601709
 20
99.0962773734
 30
0.0
  0
SPLINE
  5
792
100
AcDbEntity
  8
0
100
AcDbSpline
 62
7
  6
CONTINUOUS
 70
0
 71
3
 72
9
 73
5
 74
0
 42
0.0000001
 43
0.0000001
 44
0.0000000001
 40
0.0
 40
0.0
 40
0.0
 40
0.0
 40
0.4402133985
 40
1.0
 40
1.0
 40
1.0
 40
1.0
 10
669.5488642198
 20
100.9391130374
 30
0.0
 10
669.5536635974
 20
100.9570245585
 30
0.0
 10
669.5916999448
 20
100.9886376061
 30
0.0
 10
669.6363855709
 20
100.9859386396
 30
0.0
 10
669.6591623185
 20
100.9798356285
 30
0.0
  0
SPLINE
  5
793
100
AcDbEntity
  8
RUNDUNGEN
100
AcDbSpline
 62
7
  6
CONTINUOUS
 70
0
 71
3
 72
11
 73
7
 74
0
 42
0.0000001
 43
0.0000001
 44
0.0000000001
 40
0.0
 40
0.0
 40
0.0
 40
0.0
 40
0.2256927635
 40
0.4632951072
 40
0.7206222905
 40
1.0
 40
1.0
 40
1.0
 40
1.0
 10
657.7647794892
 20
108.4467255768
 30
0.0
 10
657.7353047331
 20
108.3370108807
 30
0.0
 10
657.6346165983
 20
108.1208670297
 30
0.0
 10
657.3802075074
 20
107.8548428343
 30
0.0
 10
657.0401361292
 20
107.6560230535
 30
0.0
 10
656.7792689159
 20
107.5769083743
 30
0.0
 10
656.6413869748
 20
107.5492542206
 30
0.0
  0
SPLINE
  5
794
100
AcDbEntity
  8
0
100
AcDbSpline
 62
7
  6
CONTINUOUS
 70
0
 71
3
 72
9
 73
5
 74
0
 42
0.0000001
 43
0.0000001
 44
0.0000000001
 40
0.0
 40
0.0
 40
0.0
 40
0.0
 40
0.5597866015
 40
1.0
 40
1.0
 40
1.0
 40
1.0
 10
669.8214378573
 20
100.9363540289
 30
0.0
 10
669.844214605
 20
100.9302510178
 30
0.0
 10
669.8842629756
 20
100.9102455782
 30
0.0
 10
669.9013968949
 20
100.8638497022
 30
0.0
 10
669.8965975173
 20
100.8459381812
 30
0.0
  0
SPLINE
  5
795
100
AcDbEntity
  8
0
100
AcDbSpline
 62
7
  6
CONTINUOUS
 70
0
 71
3
 72
9
 73
5
 74
0
 42
0.0000001
 43
0.0000001
 44
0.0000000001
 40
0.0
 40
0.0
 40
0.0
 40
0.0
 40
0.5597866015
 40
1.0
 40
1.0
 40
1.0
 40
1.0
 10
670.0672925568
 20
100.6947852669
 30
0.0
 10
670.0900693044
 20
100.6886822558
 30
0.0
 10
670.1347549305
 20
100.6859832894
 30
0.0
 10
670.1727912779
 20
100.717596337
 30
0.0
 10
670.1775906555
 20
100.735507858
 30
0.0
  0
SPLINE
  5
796
100
AcDbEntity
  8
0
100
AcDbSpline
 62
7
  6
CONTINUOUS
 70
0
 71
3
 72
11
 73
7
 74
0
 42
0.0000001
 43
0.0000001
 44
0.0000000001
 40
0.0
 40
0.0
 40
0.0
 40
0.0
 40
0.2876567391
 40
0.555407049
 40
0.7907201247
 40
1.0
 40
1.0
 40
1.0
 40
1.0
 10
670.5614323502
 20
101.7043801681
 30
0.0
 10
670.59125815
 20
101.6963883692
 30
0.0
 10
670.6470414705
 20
101.6729464348
 30
0.0
 10
670.7139305392
 20
101.6184880338
 30
0.0
 10
670.7534011311
 20
101.5504347503
 30
0.0
 10
670.7551458005
 20
101.5000398134
 30
0.0
 10
670.7493315001
 20
101.4783405489
 30
0.0
  0
SPLINE
  5
797
100
AcDbEntity
  8
0
100
AcDbSpline
 62
7
  6
CONTINUOUS
 70
0
 71
3
 72
9
 73
5
 74
0
 42
0.0000001
 43
0.0000001
 44
0.0000000001
 40
0.0
 40
0.0
 40
0.0
 40
0.0
 40
0.5531686664
 40
1.0
 40
1.0
 40
1.0
 40
1.0
 10
670.1824956178
 20
100.0425225295
 30
0.0
 10
670.2246416935
 20
100.0218708371
 30
0.0
 10
670.2967806379
 20
99.9688777481
 30
0.0
 10
670.3199132574
 20
99.8757298495
 30
0.0
 10
670.3101010155
 20
99.8391100643
 30
0.0
  0
SPLINE
  5
798
100
AcDbEntity
  8
0
100
AcDbSpline
 62
7
  6
CONTINUOUS
 70
0
 71
3
 72
9
 73
5
 74
0
 42
0.0000001
 43
0.0000001
 44
0.0000000001
 40
0.0
 40
0.0
 40
0.0
 40
0.0
 40
0.4575243679
 40
1.0
 40
1.0
 40
1.0
 40
1.0
 10
668.6873456274
 20
100.2739260601
 30
0.0
 10
668.6951741006
 20
100.3031423199
 30
0.0
 10
668.739601579
 20
100.360059329
 30
0.0
 10
668.805708033
 20
100.3803897597
 30
0.0
 10
668.8412952023
 20
100.3848292989
 30
0.0
  0
SPLINE
  5
799
100
AcDbEntity
  8
0
100
AcDbSpline
 62
7
  6
CONTINUOUS
 70
0
 71
3
 72
8
 73
4
 74
0
 42
0.0000001
 43
0.0000001
 44
0.0000000001
 40
0.0
 40
0.0
 40
0.0
 40
0.0
 40
1.0
 40
1.0
 40
1.0
 40
1.0
 10
668.8412952023
 20
100.3848292989
 30
0.0
 10
668.8816936956
 20
100.3898690562
 30
0.0
 10
668.9237664522
 20
100.3862694848
 30
0.0
 10
668.9630908741
 20
100.3757325377
 30
0.0
  0
SPLINE
  5
79A
100
AcDbEntity
  8
0
100
AcDbSpline
 62
7
  6
CONTINUOUS
 70
0
 71
3
 72
11
 73
7
 74
0
 42
0.0000001
 43
0.0000001
 44
0.0000000001
 40
0.0
 40
0.0
 40
0.0
 40
0.0
 40
0.2092798753
 40
0.444592951
 40
0.7123432609
 40
1.0
 40
1.0
 40
1.0
 40
1.0
 10
669.1265761119
 20
101.9131565446
 30
0.0
 10
669.1323904123
 20
101.9348558092
 30
0.0
 10
669.1590988088
 20
101.9776267701
 30
0.0
 10
669.2273079858
 20
102.0168273464
 30
0.0
 10
669.312464819
 20
102.0305451709
 30
0.0
 10
669.3724955588
 20
102.0229548212
 30
0.0
 10
669.4023213587
 20
102.0149630223
 30
0.0
  0
SPLINE
  5
79B
100
AcDbEntity
  8
RUNDUNGEN
100
AcDbSpline
 62
7
  6
CONTINUOUS
 70
0
 71
3
 72
11
 73
7
 74
0
 42
0.0000001
 43
0.0000001
 44
0.0000000001
 40
0.0
 40
0.0
 40
0.0
 40
0.0
 40
0.2660806488
 40
0.5190943636
 40
0.7622194616
 40
1.0
 40
1.0
 40
1.0
 40
1.0
 10
687.2346355066
 20
74.0773410011
 30
0.0
 10
686.9945486626
 20
74.4979319567
 30
0.0
 10
686.5899190002
 20
75.3576437343
 30
0.0
 10
686.2325192464
 20
76.7065992518
 30
0.0
 10
686.151526193
 20
78.0490909728
 30
0.0
 10
686.2860558907
 20
78.9221078693
 30
0.0
 10
686.3980683477
 20
79.3401439905
 30
0.0
  0
SPLINE
  5
79C
100
AcDbEntity
  8
0
100
AcDbSpline
 62
7
  6
CONTINUOUS
 70
0
 71
3
 72
9
 73
5
 74
0
 42
0.0000001
 43
0.0000001
 44
0.0000000001
 40
0.0
 40
0.0
 40
0.0
 40
0.0
 40
0.538986273
 40
1.0
 40
1.0
 40
1.0
 40
1.0
 10
670.8701473749
 20
97.7564319626
 30
0.0
 10
670.9579750072
 20
97.7328986195
 30
0.0
 10
671.1310084011
 20
97.7195802596
 30
0.0
 10
671.2974254332
 20
97.7893581541
 30
0.0
 10
671.3527277943
 20
97.844040333
 30
0.0
  0
SPLINE
  5
79D
100
AcDbEntity
  8
0
100
AcDbSpline
 62
7
  6
CONTINUOUS
 70
0
 71
3
 72
9
 73
5
 74
0
 42
0.0000001
 43
0.0000001
 44
0.0000000001
 40
0.0
 40
0.0
 40
0.0
 40
0.0
 40
0.2592261758
 40
1.0
 40
1.0
 40
1.0
 40
1.0
 10
671.3527277943
 20
97.844040333
 30
0.0
 10
671.3610723653
 20
97.8522913247
 30
0.0
 10
671.39132446
 20
97.8859929061
 30
0.0
 10
671.4129585246
 20
97.9276531659
 30
0.0
 10
671.4216378684
 20
97.9600449179
 30
0.0
  0
SPLINE
  5
79E
100
AcDbEntity
  8
RUNDUNGEN
100
AcDbSpline
 62
7
  6
CONTINUOUS
 70
0
 71
3
 72
11
 73
7
 74
0
 42
0.0000001
 43
0.0000001
 44
0.0000000001
 40
0.0
 40
0.0
 40
0.0
 40
0.0
 40
0.2297109937
 40
0.4842558728
 40
0.7475644511
 40
1.0
 40
1.0
 40
1.0
 40
1.0
 10
700.656215118
 20
99.4885513626
 30
0.0
 10
700.2643253398
 20
99.2597248126
 30
0.0
 10
699.3293470973
 20
98.9590047166
 30
0.0
 10
697.8338988602
 20
98.9665851472
 30
0.0
 10
696.3527591388
 20
99.3858017503
 30
0.0
 10
695.4697704738
 20
99.9300749563
 30
0.0
 10
695.0953516621
 20
100.2594849464
 30
0.0
  0
SPLINE
  5
79F
100
AcDbEntity
  8
RUNDUNGEN
100
AcDbSpline
 62
7
  6
CONTINUOUS
 70
0
 71
3
 72
11
 73
7
 74
0
 42
0.0000001
 43
0.0000001
 44
0.0000000001
 40
0.0
 40
0.0
 40
0.0
 40
0.0
 40
0.2524375529
 40
0.5157480446
 40
0.7702932073
 40
1.0
 40
1.0
 40
1.0
 40
1.0
 10
671.0765383149
 20
109.3825839839
 30
0.0
 10
670.5875732346
 20
109.2845151913
 30
0.0
 10
669.5507378488
 20
109.2546560649
 30
0.0
 10
668.0584176881
 20
109.632180434
 30
0.0
 10
666.759538173
 20
110.3733443285
 30
0.0
 10
666.1001916177
 20
111.1012603561
 30
0.0
 10
665.8752225031
 20
111.4953676436
 30
0.0
  0
SPLINE
  5
7A0
100
AcDbEntity
  8
RUNDUNGEN
100
AcDbSpline
 62
7
  6
CONTINUOUS
 70
0
 71
3
 72
9
 73
5
 74
0
 42
0.0000001
 43
0.0000001
 44
0.0000000001
 40
0.0
 40
0.0
 40
0.0
 40
0.0
 40
0.492156512
 40
1.0
 40
1.0
 40
1.0
 40
1.0
 10
689.7057498369
 20
176.0558351941
 30
0.0
 10
688.9809868111
 20
176.2500348616
 30
0.0
 10
687.4939030235
 20
176.5878043439
 30
0.0
 10
686.0104888375
 20
176.9406005973
 30
0.0
 10
685.2626247455
 20
177.1409901768
 30
0.0
  0
SPLINE
  5
7A1
100
AcDbEntity
  8
KONSTRUKTIONSELEMENTE
100
AcDbSpline
 62
7
  6
CONTINUOUS
 70
0
 71
3
 72
9
 73
5
 74
0
 42
0.0000001
 43
0.0000001
 44
0.0000000001
 40
0.0
 40
0.0
 40
0.0
 40
0.0
 40
0.7244773545
 40
1.0
 40
1.0
 40
1.0
 40
1.0
 10
704.3530588957
 20
133.5670628402
 30
0.0
 10
704.3707319228
 20
133.5623273669
 30
0.0
 10
704.3986377591
 20
133.5656776883
 30
0.0
 10
704.4198759195
 20
133.5793830852
 30
0.0
 10
704.4254521889
 20
133.5835451014
 30
0.0
  0
SPLINE
  5
7A2
100
AcDbEntity
  8
KONSTRUKTIONSELEMENTE
100
AcDbSpline
 62
7
  6
CONTINUOUS
 70
0
 71
3
 72
18
 73
14
 74
0
 42
0.0000001
 43
0.0000001
 44
0.0000000001
 40
0.0
 40
0.0
 40
0.0
 40
0.0
 40
0.0123460177
 40
0.0326550327
 40
0.0614188717
 40
0.0985579817
 40
0.1437753901
 40
0.1966304972
 40
0.3230251361
 40
0.4725670057
 40
0.6393127884
 40
0.8170773473
 40
1.0
 40
1.0
 40
1.0
 40
1.0
 10
704.4254521889
 20
133.5835451014
 30
0.0
 10
704.4639958625
 20
133.6123133306
 30
0.0
 10
704.5283132375
 20
133.7294005243
 30
0.0
 10
704.5999497896
 20
133.9551499567
 30
0.0
 10
704.6688783142
 20
134.2855731546
 30
0.0
 10
704.7319092849
 20
134.7134601147
 30
0.0
 10
704.7878630111
 20
135.2375171971
 30
0.0
 10
704.8541991273
 20
136.1094633286
 30
0.0
 10
704.9020656951
 20
137.3899647224
 30
0.0
 10
704.897131595
 20
139.1149008695
 30
0.0
 10
704.8118703282
 20
141.0383232584
 30
0.0
 10
704.6256652772
 20
143.0853552567
 30
0.0
 10
704.4214774912
 20
144.4766305623
 30
0.0
 10
704.2945317173
 20
145.177838371
 30
0.0
  0
SPLINE
  5
7A3
100
AcDbEntity
  8
KONSTRUKTIONSELEMENTE
100
AcDbSpline
 62
7
  6
CONTINUOUS
 70
0
 71
3
 72
9
 73
5
 74
0
 42
0.0000001
 43
0.0000001
 44
0.0000000001
 40
0.0
 40
0.0
 40
0.0
 40
0.0
 40
0.2510778321
 40
1.0
 40
1.0
 40
1.0
 40
1.0
 10
699.9430095988
 20
158.5418130064
 30
0.0
 10
700.257359172
 20
158.3978560782
 30
0.0
 10
701.4990590368
 20
157.802370794
 30
0.0
 10
702.6983567878
 20
157.1176749465
 30
0.0
 10
703.5625938634
 20
156.5549432763
 30
0.0
  0
SPLINE
  5
7A4
100
AcDbEntity
  8
KONSTRUKTIONSELEMENTE
100
AcDbSpline
 62
7
  6
CONTINUOUS
 70
0
 71
3
 72
9
 73
5
 74
0
 42
0.0000001
 43
0.0000001
 44
0.0000000001
 40
0.0
 40
0.0
 40
0.0
 40
0.0
 40
0.248984136
 40
1.0
 40
1.0
 40
1.0
 40
1.0
 10
686.1556645465
 20
161.2191159295
 30
0.0
 10
686.4980391428
 20
161.2374749168
 30
0.0
 10
687.8744728832
 20
161.2843424322
 30
0.0
 10
689.2541367633
 20
161.2272310956
 30
0.0
 10
690.2837513359
 20
161.1300034574
 30
0.0
  0
SPLINE
  5
7A5
100
AcDbEntity
  8
KONSTRUKTIONSELEMENTE
100
AcDbSpline
 62
7
  6
CONTINUOUS
 70
0
 71
3
 72
12
 73
8
 74
0
 42
0.0000001
 43
0.0000001
 44
0.0000000001
 40
0.0
 40
0.0
 40
0.0
 40
0.0
 40
0.1250699247
 40
0.2501553866
 40
0.4997777447
 40
0.7498050362
 40
1.0
 40
1.0
 40
1.0
 40
1.0
 10
682.2335672828
 20
157.9637039239
 30
0.0
 10
682.290781928
 20
158.1772318868
 30
0.0
 10
682.4511925388
 20
158.5933584361
 30
0.0
 10
682.9289974875
 20
159.3419526792
 30
0.0
 10
683.7513461774
 20
160.1039356984
 30
0.0
 10
684.9057970784
 20
160.7672828015
 30
0.0
 10
685.734162845
 20
161.0853501288
 30
0.0
 10
686.1556645465
 20
161.2191159295
 30
0.0
  0
SPLINE
  5
7A6
100
AcDbEntity
  8
KONSTRUKTIONSELEMENTE
100
AcDbSpline
 62
7
  6
CONTINUOUS
 70
0
 71
3
 72
9
 73
5
 74
0
 42
0.0000001
 43
0.0000001
 44
0.0000000001
 40
0.0
 40
0.0
 40
0.0
 40
0.0
 40
0.5002468695
 40
1.0
 40
1.0
 40
1.0
 40
1.0
 10
679.8332353184
 20
151.7322229869
 30
0.0
 10
680.1516254576
 20
152.1081660998
 30
0.0
 10
680.7356176163
 20
152.9084642369
 30
0.0
 10
681.1251578311
 20
153.8270635344
 30
0.0
 10
681.2525395742
 20
154.3024586719
 30
0.0
  0
SPLINE
  5
7A7
100
AcDbEntity
  8
KONSTRUKTIONSELEMENTE
100
AcDbSpline
 62
7
  6
CONTINUOUS
 70
0
 71
3
 72
9
 73
5
 74
0
 42
0.0000001
 43
0.0000001
 44
0.0000000001
 40
0.0
 40
0.0
 40
0.0
 40
0.0
 40
0.4997531305
 40
1.0
 40
1.0
 40
1.0
 40
1.0
 10
704.3504960185
 20
148.1133798958
 30
0.0
 10
704.2231142754
 20
147.6379847584
 30
0.0
 10
704.1011663483
 20
146.6476843235
 30
0.0
 10
704.2067693249
 20
145.6626097267
 30
0.0
 10
704.2945317173
 20
145.177838371
 30
0.0
  0
SPLINE
  5
7A8
100
AcDbEntity
  8
KONSTRUKTIONSELEMENTE
100
AcDbSpline
 62
7
  6
CONTINUOUS
 70
0
 71
3
 72
12
 73
8
 74
0
 42
0.0000001
 43
0.0000001
 44
0.0000000001
 40
0.0
 40
0.0
 40
0.0
 40
0.0
 40
0.2501944841
 40
0.5002215546
 40
0.7498441276
 40
0.8749297703
 40
1.0
 40
1.0
 40
1.0
 40
1.0
 10
703.5625938634
 20
156.5549432763
 30
0.0
 10
703.8607415723
 20
156.2283484705
 30
0.0
 10
704.4190929706
 20
155.5387122348
 30
0.0
 10
705.0872033561
 20
154.3870124161
 30
0.0
 10
705.418387269
 20
153.3159413076
 30
0.0
 10
705.4578822464
 20
152.4287359844
 30
0.0
 10
705.3887385118
 20
151.9881536313
 30
0.0
 10
705.3315237271
 20
151.7746251478
 30
0.0
  0
SPLINE
  5
7A9
100
AcDbEntity
  8
RUNDUNGEN
100
AcDbSpline
 62
7
  6
CONTINUOUS
 70
0
 71
3
 72
15
 73
11
 74
0
 42
0.0000001
 43
0.0000001
 44
0.0000000001
 40
0.0
 40
0.0
 40
0.0
 40
0.0
 40
0.0506580437
 40
0.0823029949
 40
0.1197229212
 40
0.2136507622
 40
0.3333912895
 40
0.4767107866
 40
0.6395049098
 40
1.0
 40
1.0
 40
1.0
 40
1.0
 10
716.8257619348
 20
152.0024430031
 30
0.0
 10
716.8427411617
 20
152.0658103406
 30
0.0
 10
716.8261312373
 20
152.1801598792
 30
0.0
 10
716.7511331492
 20
152.3156457599
 30
0.0
 10
716.619597278
 20
152.4821187142
 30
0.0
 10
716.3706061921
 20
152.6946080332
 30
0.0
 10
715.9813101232
 20
152.9451024505
 30
0.0
 10
715.4904075545
 20
153.1980558654
 30
0.0
 10
714.6959458498
 20
153.5368838909
 30
0.0
 10
714.0490277832
 20
153.745111776
 30
0.0
 10
713.598090235
 20
153.8659401279
 30
0.0
  0
SPLINE
  5
7AA
100
AcDbEntity
  8
RUNDUNGEN
100
AcDbSpline
 62
7
  6
CONTINUOUS
 70
0
 71
3
 72
15
 73
11
 74
0
 42
0.0000001
 43
0.0000001
 44
0.0000000001
 40
0.0
 40
0.0
 40
0.0
 40
0.0
 40
0.0506580437
 40
0.0823029949
 40
0.1197229212
 40
0.2136507622
 40
0.3333912895
 40
0.4767107866
 40
0.6395049098
 40
1.0
 40
1.0
 40
1.0
 40
1.0
 10
718.170625143
 20
157.0215408256
 30
0.0
 10
718.1876043699
 20
157.084908163
 30
0.0
 10
718.1709944456
 20
157.1992577017
 30
0.0
 10
718.0959963574
 20
157.3347435823
 30
0.0
 10
717.9644604863
 20
157.5012165367
 30
0.0
 10
717.7154694004
 20
157.7137058556
 30
0.0
 10
717.3261733314
 20
157.964200273
 30
0.0
 10
716.8352707628
 20
158.2171536878
 30
0.0
 10
716.040809058
 20
158.5559817134
 30
0.0
 10
715.3938909914
 20
158.7642095984
 30
0.0
 10
714.9429534432
 20
158.8850379503
 30
0.0
  0
SPLINE
  5
7AB
100
AcDbEntity
  8
RUNDUNGEN
100
AcDbSpline
 62
7
  6
CONTINUOUS
 70
0
 71
3
 72
9
 73
5
 74
0
 42
0.0000001
 43
0.0000001
 44
0.0000000001
 40
0.0
 40
0.0
 40
0.0
 40
0.0
 40
0.4847438183
 40
1.0
 40
1.0
 40
1.0
 40
1.0
 10
717.4602251326
 20
168.0740318373
 30
0.0
 10
717.1422883293
 20
168.324068476
 30
0.0
 10
716.4128923256
 20
168.7475179376
 30
0.0
 10
715.6189979026
 20
169.0186210513
 30
0.0
 10
715.2019006356
 20
169.122910048
 30
0.0
  0
SPLINE
  5
7AC
100
AcDbEntity
  8
KONSTRUKTIONSELEMENTE
100
AcDbSpline
 62
7
  6
CONTINUOUS
 70
0
 71
3
 72
18
 73
14
 74
0
 42
0.0000001
 43
0.0000001
 44
0.0000000001
 40
0.0
 40
0.0
 40
0.0
 40
0.0
 40
0.1829226527
 40
0.3606872116
 40
0.5274329943
 40
0.6769748639
 40
0.8033695028
 40
0.8562246099
 40
0.9014420183
 40
0.9385811283
 40
0.9673449673
 40
0.9876539823
 40
1.0
 40
1.0
 40
1.0
 40
1.0
 10
679.8332353184
 20
151.7322229869
 30
0.0
 10
679.3726931489
 20
151.1884320982
 30
0.0
 10
678.5002236863
 20
150.0856462329
 30
0.0
 10
677.3154493827
 20
148.4059670455
 30
0.0
 10
676.2798997652
 20
146.7828650279
 30
0.0
 10
675.4131586357
 20
145.2914935547
 30
0.0
 10
674.8143616025
 20
144.1586135341
 30
0.0
 10
674.4358372985
 20
143.3703179755
 30
0.0
 10
674.2222661056
 20
142.888494366
 30
0.0
 10
674.0629090474
 20
142.4864179032
 30
0.0
 10
673.9573913018
 20
142.1657987575
 30
0.0
 10
673.9065556596
 20
141.9344757381
 30
0.0
 10
673.9037125434
 20
141.8009165664
 30
0.0
 10
673.9227082294
 20
141.7567307123
 30
0.0
  0
SPLINE
  5
7AD
100
AcDbEntity
  8
KONSTRUKTIONSELEMENTE
100
AcDbSpline
 62
7
  6
CONTINUOUS
 70
0
 71
3
 72
9
 73
5
 74
0
 42
0.0000001
 43
0.0000001
 44
0.0000000001
 40
0.0
 40
0.0
 40
0.0
 40
0.0
 40
0.2755226455
 40
1.0
 40
1.0
 40
1.0
 40
1.0
 10
673.9227082294
 20
141.7567307123
 30
0.0
 10
673.9254564122
 20
141.7503381659
 30
0.0
 10
673.9369965002
 20
141.7278498637
 30
0.0
 10
673.9594885026
 20
141.7109954821
 30
0.0
 10
673.9771615297
 20
141.7062600088
 30
0.0
  0
SPLINE
  5
7AE
100
AcDbEntity
  8
RUNDUNGEN
100
AcDbSpline
 62
7
  6
CONTINUOUS
 70
0
 71
3
 72
9
 73
5
 74
0
 42
0.0000001
 43
0.0000001
 44
0.0000000001
 40
0.0
 40
0.0
 40
0.0
 40
0.0
 40
0.5078433254
 40
1.0
 40
1.0
 40
1.0
 40
1.0
 10
712.2969261414
 20
169.8971709499
 30
0.0
 10
711.5490601768
 20
170.0975610311
 30
0.0
 10
710.0879836619
 20
170.533739205
 30
0.0
 10
708.6312422807
 20
170.9847647774
 30
0.0
 10
707.9064769688
 20
171.1789650574
 30
0.0
  0
SPLINE
  5
7AF
100
AcDbEntity
  8
RUNDUNGEN
100
AcDbSpline
 62
7
  6
CONTINUOUS
 70
0
 71
3
 72
15
 73
11
 74
0
 42
0.0000001
 43
0.0000001
 44
0.0000000001
 40
0.0
 40
0.0
 40
0.0
 40
0.0
 40
0.0506580437
 40
0.0823029949
 40
0.1197229212
 40
0.2136507622
 40
0.3333912895
 40
0.4767107866
 40
0.6395049098
 40
1.0
 40
1.0
 40
1.0
 40
1.0
 10
673.7380371337
 20
168.9272169003
 30
0.0
 10
673.7550163606
 20
168.9905842378
 30
0.0
 10
673.8265757464
 20
169.0813088809
 30
0.0
 10
673.9592689362
 20
169.1611440514
 30
0.0
 10
674.1564188194
 20
169.2395459233
 30
0.0
 10
674.4782960846
 20
169.2990715286
 30
0.0
 10
674.9406835785
 20
169.3213580231
 30
0.0
 10
675.4922943812
 20
169.294970822
 30
0.0
 10
676.3497324126
 20
169.1911736472
 30
0.0
 10
677.014093835
 20
169.0480452522
 30
0.0
 10
677.4650313832
 20
168.9272169003
 30
0.0
  0
SPLINE
  5
7B0
100
AcDbEntity
  8
RUNDUNGEN
100
AcDbSpline
 62
7
  6
CONTINUOUS
 70
0
 71
3
 72
9
 73
5
 74
0
 42
0.0000001
 43
0.0000001
 44
0.0000000001
 40
0.0
 40
0.0
 40
0.0
 40
0.0
 40
0.5152567055
 40
1.0
 40
1.0
 40
1.0
 40
1.0
 10
682.3600659613
 20
177.9228467181
 30
0.0
 10
681.9466496423
 20
178.041116221
 30
0.0
 10
681.1234504532
 20
178.2033368516
 30
0.0
 10
680.2799248351
 20
178.2013329161
 30
0.0
 10
679.8795070955
 20
178.1437548863
 30
0.0
  0
SPLINE
  5
7B1
100
AcDbEntity
  8
RUNDUNGEN
100
AcDbSpline
 62
7
  6
CONTINUOUS
 70
0
 71
3
 72
15
 73
11
 74
0
 42
0.0000001
 43
0.0000001
 44
0.0000000001
 40
0.0
 40
0.0
 40
0.0
 40
0.0
 40
0.3604950902
 40
0.5232892134
 40
0.6666087105
 40
0.7863492378
 40
0.8802770788
 40
0.9176970051
 40
0.9493419563
 40
1.0
 40
1.0
 40
1.0
 40
1.0
 10
676.1201681749
 20
163.9081190779
 30
0.0
 10
675.6692306267
 20
164.0289474297
 30
0.0
 10
675.0048692043
 20
164.1720758248
 30
0.0
 10
674.1474311729
 20
164.2758729995
 30
0.0
 10
673.5958203703
 20
164.3022602006
 30
0.0
 10
673.1334328763
 20
164.2799737062
 30
0.0
 10
672.8115556111
 20
164.2204481009
 30
0.0
 10
672.614405728
 20
164.1420462289
 30
0.0
 10
672.4817125381
 20
164.0622110585
 30
0.0
 10
672.4101531524
 20
163.9714864153
 30
0.0
 10
672.3931739255
 20
163.9081190779
 30
0.0
  0
SPLINE
  5
7B2
100
AcDbEntity
  8
0
100
AcDbSpline
 62
7
  6
CONTINUOUS
 70
0
 71
3
 72
9
 73
5
 74
0
 42
0.0000001
 43
0.0000001
 44
0.0000000001
 40
0.0
 40
0.0
 40
0.0
 40
0.0
 40
0.492156512
 40
1.0
 40
1.0
 40
1.0
 40
1.0
 10
829.8102596919
 20
176.0558351941
 30
0.0
 10
830.5350227178
 20
176.2500348616
 30
0.0
 10
832.0221065053
 20
176.5878043439
 30
0.0
 10
833.5055206913
 20
176.9406005973
 30
0.0
 10
834.2533847833
 20
177.1409901768
 30
0.0
  0
SPLINE
  5
7B3
100
AcDbEntity
  8
0
100
AcDbSpline
 62
7
  6
CONTINUOUS
 70
0
 71
3
 72
18
 73
14
 74
0
 42
0.0000001
 43
0.0000001
 44
0.0000000001
 40
0.0
 40
0.0
 40
0.0
 40
0.0
 40
0.1829226527
 40
0.3606872116
 40
0.5274329943
 40
0.6769748639
 40
0.8033695028
 40
0.8562246099
 40
0.9014420183
 40
0.9385811283
 40
0.9673449673
 40
0.9876539823
 40
1.0
 40
1.0
 40
1.0
 40
1.0
 10
839.6827742105
 20
151.7322229869
 30
0.0
 10
840.1433163799
 20
151.1884320982
 30
0.0
 10
841.0157858425
 20
150.0856462329
 30
0.0
 10
842.2005601461
 20
148.4059670455
 30
0.0
 10
843.2361097636
 20
146.7828650279
 30
0.0
 10
844.1028508932
 20
145.2914935547
 30
0.0
 10
844.7016479263
 20
144.1586135341
 30
0.0
 10
845.0801722303
 20
143.3703179755
 30
0.0
 10
845.2937434232
 20
142.888494366
 30
0.0
 10
845.4531004814
 20
142.4864179032
 30
0.0
 10
845.558618227
 20
142.1657987575
 30
0.0
 10
845.6094538692
 20
141.9344757381
 30
0.0
 10
845.6122969854
 20
141.8009165664
 30
0.0
 10
845.5933012994
 20
141.7567307123
 30
0.0
  0
SPLINE
  5
7B4
100
AcDbEntity
  8
0
100
AcDbSpline
 62
7
  6
CONTINUOUS
 70
0
 71
3
 72
9
 73
5
 74
0
 42
0.0000001
 43
0.0000001
 44
0.0000000001
 40
0.0
 40
0.0
 40
0.0
 40
0.0
 40
0.2755226455
 40
1.0
 40
1.0
 40
1.0
 40
1.0
 10
845.5933012994
 20
141.7567307123
 30
0.0
 10
845.5905531166
 20
141.7503381659
 30
0.0
 10
845.5790130287
 20
141.7278498637
 30
0.0
 10
845.5565210262
 20
141.7109954821
 30
0.0
 10
845.5388479991
 20
141.7062600088
 30
0.0
  0
SPLINE
  5
7B5
100
AcDbEntity
  8
0
100
AcDbSpline
 62
7
  6
CONTINUOUS
 70
0
 71
3
 72
9
 73
5
 74
0
 42
0.0000001
 43
0.0000001
 44
0.0000000001
 40
0.0
 40
0.0
 40
0.0
 40
0.0
 40
0.4997531305
 40
1.0
 40
1.0
 40
1.0
 40
1.0
 10
815.1655135103
 20
148.1133798958
 30
0.0
 10
815.2928952534
 20
147.6379847584
 30
0.0
 10
815.4148431805
 20
146.6476843235
 30
0.0
 10
815.3092402039
 20
145.6626097267
 30
0.0
 10
815.2214778115
 20
145.177838371
 30
0.0
  0
SPLINE
  5
7B6
100
AcDbEntity
  8
0
100
AcDbSpline
 62
7
  6
CONTINUOUS
 70
0
 71
3
 72
12
 73
8
 74
0
 42
0.0000001
 43
0.0000001
 44
0.0000000001
 40
0.0
 40
0.0
 40
0.0
 40
0.0
 40
0.2501944841
 40
0.5002215546
 40
0.7498441276
 40
0.8749297703
 40
1.0
 40
1.0
 40
1.0
 40
1.0
 10
815.9534156654
 20
156.5549432763
 30
0.0
 10
815.6552679565
 20
156.2283484705
 30
0.0
 10
815.0969165582
 20
155.5387122348
 30
0.0
 10
814.4288061727
 20
154.3870124161
 30
0.0
 10
814.0976222599
 20
153.3159413076
 30
0.0
 10
814.0581272824
 20
152.4287359844
 30
0.0
 10
814.127271017
 20
151.9881536313
 30
0.0
 10
814.1844858017
 20
151.7746251478
 30
0.0
  0
SPLINE
  5
7B7
100
AcDbEntity
  8
0
100
AcDbSpline
 62
7
  6
CONTINUOUS
 70
0
 71
3
 72
12
 73
8
 74
0
 42
0.0000001
 43
0.0000001
 44
0.0000000001
 40
0.0
 40
0.0
 40
0.0
 40
0.0
 40
0.1250699247
 40
0.2501553866
 40
0.4997777447
 40
0.7498050362
 40
1.0
 40
1.0
 40
1.0
 40
1.0
 10
837.282442246
 20
157.9637039239
 30
0.0
 10
837.2252276008
 20
158.1772318868
 30
0.0
 10
837.06481699
 20
158.5933584361
 30
0.0
 10
836.5870120413
 20
159.3419526792
 30
0.0
 10
835.7646633515
 20
160.1039356984
 30
0.0
 10
834.6102124504
 20
160.7672828015
 30
0.0
 10
833.7818466838
 20
161.0853501288
 30
0.0
 10
833.3603449823
 20
161.2191159295
 30
0.0
  0
SPLINE
  5
7B8
100
AcDbEntity
  8
0
100
AcDbSpline
 62
7
  6
CONTINUOUS
 70
0
 71
3
 72
9
 73
5
 74
0
 42
0.0000001
 43
0.0000001
 44
0.0000000001
 40
0.0
 40
0.0
 40
0.0
 40
0.0
 40
0.5002468695
 40
1.0
 40
1.0
 40
1.0
 40
1.0
 10
839.6827742105
 20
151.7322229869
 30
0.0
 10
839.3643840712
 20
152.1081660998
 30
0.0
 10
838.7803919125
 20
152.9084642369
 30
0.0
 10
838.3908516978
 20
153.8270635344
 30
0.0
 10
838.2634699546
 20
154.3024586719
 30
0.0
  0
SPLINE
  5
7B9
100
AcDbEntity
  8
0
100
AcDbSpline
 62
7
  6
CONTINUOUS
 70
0
 71
3
 72
9
 73
5
 74
0
 42
0.0000001
 43
0.0000001
 44
0.0000000001
 40
0.0
 40
0.0
 40
0.0
 40
0.0
 40
0.5078433254
 40
1.0
 40
1.0
 40
1.0
 40
1.0
 10
807.2190833874
 20
169.8971709499
 30
0.0
 10
807.966949352
 20
170.0975610311
 30
0.0
 10
809.4280258669
 20
170.533739205
 30
0.0
 10
810.8847672481
 20
170.9847647774
 30
0.0
 10
811.60953256
 20
171.1789650574
 30
0.0
  0
SPLINE
  5
7BA
100
AcDbEntity
  8
0
100
AcDbSpline
 62
7
  6
CONTINUOUS
 70
0
 71
3
 72
9
 73
5
 74
0
 42
0.0000001
 43
0.0000001
 44
0.0000000001
 40
0.0
 40
0.0
 40
0.0
 40
0.0
 40
0.248984136
 40
1.0
 40
1.0
 40
1.0
 40
1.0
 10
833.3603449823
 20
161.2191159295
 30
0.0
 10
833.017970386
 20
161.2374749168
 30
0.0
 10
831.6415366456
 20
161.2843424322
 30
0.0
 10
830.2618727655
 20
161.2272310956
 30
0.0
 10
829.2322581929
 20
161.1300034574
 30
0.0
  0
SPLINE
  5
7BB
100
AcDbEntity
  8
0
100
AcDbSpline
 62
7
  6
CONTINUOUS
 70
0
 71
3
 72
9
 73
5
 74
0
 42
0.0000001
 43
0.0000001
 44
0.0000000001
 40
0.0
 40
0.0
 40
0.0
 40
0.0
 40
0.2510778321
 40
1.0
 40
1.0
 40
1.0
 40
1.0
 10
819.57299993
 20
158.5418130064
 30
0.0
 10
819.2586503568
 20
158.3978560782
 30
0.0
 10
818.016950492
 20
157.802370794
 30
0.0
 10
816.817652741
 20
157.1176749465
 30
0.0
 10
815.9534156654
 20
156.5549432763
 30
0.0
  0
SPLINE
  5
7BC
100
AcDbEntity
  8
0
100
AcDbSpline
 62
7
  6
CONTINUOUS
 70
0
 71
3
 72
9
 73
5
 74
0
 42
0.0000001
 43
0.0000001
 44
0.0000000001
 40
0.0
 40
0.0
 40
0.0
 40
0.0
 40
0.7244773545
 40
1.0
 40
1.0
 40
1.0
 40
1.0
 10
815.1629506331
 20
133.5670628402
 30
0.0
 10
815.145277606
 20
133.5623273669
 30
0.0
 10
815.1173717697
 20
133.5656776883
 30
0.0
 10
815.0961336093
 20
133.5793830852
 30
0.0
 10
815.09055734
 20
133.5835451014
 30
0.0
  0
SPLINE
  5
7BD
100
AcDbEntity
  8
0
100
AcDbSpline
 62
7
  6
CONTINUOUS
 70
0
 71
3
 72
18
 73
14
 74
0
 42
0.0000001
 43
0.0000001
 44
0.0000000001
 40
0.0
 40
0.0
 40
0.0
 40
0.0
 40
0.0123460177
 40
0.0326550327
 40
0.0614188717
 40
0.0985579817
 40
0.1437753901
 40
0.1966304972
 40
0.3230251361
 40
0.4725670057
 40
0.6393127884
 40
0.8170773473
 40
1.0
 40
1.0
 40
1.0
 40
1.0
 10
815.09055734
 20
133.5835451014
 30
0.0
 10
815.0520136663
 20
133.6123133306
 30
0.0
 10
814.9876962913
 20
133.7294005243
 30
0.0
 10
814.9160597392
 20
133.9551499567
 30
0.0
 10
814.8471312146
 20
134.2855731546
 30
0.0
 10
814.7841002439
 20
134.7134601147
 30
0.0
 10
814.7281465177
 20
135.2375171971
 30
0.0
 10
814.6618104015
 20
136.1094633286
 30
0.0
 10
814.6139438337
 20
137.3899647224
 30
0.0
 10
814.6188779338
 20
139.1149008695
 30
0.0
 10
814.7041392006
 20
141.0383232584
 30
0.0
 10
814.8903442516
 20
143.0853552567
 30
0.0
 10
815.0945320376
 20
144.4766305623
 30
0.0
 10
815.2214778115
 20
145.177838371
 30
0.0
  0
SPLINE
  5
7BE
100
AcDbEntity
  8
0
100
AcDbSpline
 62
7
  6
CONTINUOUS
 70
0
 71
3
 72
15
 73
11
 74
0
 42
0.0000001
 43
0.0000001
 44
0.0000000001
 40
0.0
 40
0.0
 40
0.0
 40
0.0
 40
0.0506580437
 40
0.0823029949
 40
0.1197229212
 40
0.2136507622
 40
0.3333912895
 40
0.4767107866
 40
0.6395049098
 40
1.0
 40
1.0
 40
1.0
 40
1.0
 10
802.690247594
 20
152.0024430031
 30
0.0
 10
802.6732683671
 20
152.0658103406
 30
0.0
 10
802.6898782915
 20
152.1801598792
 30
0.0
 10
802.7648763796
 20
152.3156457599
 30
0.0
 10
802.8964122508
 20
152.4821187142
 30
0.0
 10
803.1454033367
 20
152.6946080332
 30
0.0
 10
803.5346994057
 20
152.9451024505
 30
0.0
 10
804.0256019743
 20
153.1980558654
 30
0.0
 10
804.820063679
 20
153.5368838909
 30
0.0
 10
805.4669817456
 20
153.745111776
 30
0.0
 10
805.9179192939
 20
153.8659401279
 30
0.0
  0
SPLINE
  5
7BF
100
AcDbEntity
  8
0
100
AcDbSpline
 62
7
  6
CONTINUOUS
 70
0
 71
3
 72
15
 73
11
 74
0
 42
0.0000001
 43
0.0000001
 44
0.0000000001
 40
0.0
 40
0.0
 40
0.0
 40
0.0
 40
0.0506580437
 40
0.0823029949
 40
0.1197229212
 40
0.2136507622
 40
0.3333912895
 40
0.4767107866
 40
0.6395049098
 40
1.0
 40
1.0
 40
1.0
 40
1.0
 10
845.7779723951
 20
168.9272169003
 30
0.0
 10
845.7609931682
 20
168.9905842378
 30
0.0
 10
845.6894337825
 20
169.0813088809
 30
0.0
 10
845.5567405926
 20
169.1611440514
 30
0.0
 10
845.3595907094
 20
169.2395459233
 30
0.0
 10
845.0377134443
 20
169.2990715286
 30
0.0
 10
844.5753259503
 20
169.3213580231
 30
0.0
 10
844.0237151476
 20
169.294970822
 30
0.0
 10
843.1662771162
 20
169.1911736472
 30
0.0
 10
842.5019156938
 20
169.0480452522
 30
0.0
 10
842.0509781456
 20
168.9272169003
 30
0.0
  0
SPLINE
  5
7C0
100
AcDbEntity
  8
0
100
AcDbSpline
 62
7
  6
CONTINUOUS
 70
0
 71
3
 72
9
 73
5
 74
0
 42
0.0000001
 43
0.0000001
 44
0.0000000001
 40
0.0
 40
0.0
 40
0.0
 40
0.0
 40
0.5152567055
 40
1.0
 40
1.0
 40
1.0
 40
1.0
 10
837.1559435675
 20
177.9228467181
 30
0.0
 10
837.5693598865
 20
178.041116221
 30
0.0
 10
838.3925590756
 20
178.2033368516
 30
0.0
 10
839.2360846937
 20
178.2013329161
 30
0.0
 10
839.6365024333
 20
178.1437548863
 30
0.0
  0
SPLINE
  5
7C1
100
AcDbEntity
  8
0
100
AcDbSpline
 62
7
  6
CONTINUOUS
 70
0
 71
3
 72
15
 73
11
 74
0
 42
0.0000001
 43
0.0000001
 44
0.0000000001
 40
0.0
 40
0.0
 40
0.0
 40
0.0
 40
0.3604950902
 40
0.5232892134
 40
0.6666087105
 40
0.7863492378
 40
0.8802770788
 40
0.9176970051
 40
0.9493419563
 40
1.0
 40
1.0
 40
1.0
 40
1.0
 10
843.3958413539
 20
163.9081190779
 30
0.0
 10
843.8467789021
 20
164.0289474297
 30
0.0
 10
844.5111403245
 20
164.1720758248
 30
0.0
 10
845.3685783559
 20
164.2758729995
 30
0.0
 10
845.9201891585
 20
164.3022602006
 30
0.0
 10
846.3825766525
 20
164.2799737062
 30
0.0
 10
846.7044539177
 20
164.2204481009
 30
0.0
 10
846.9016038008
 20
164.1420462289
 30
0.0
 10
847.0342969907
 20
164.0622110585
 30
0.0
 10
847.1058563764
 20
163.9714864153
 30
0.0
 10
847.1228356033
 20
163.9081190779
 30
0.0
  0
SPLINE
  5
7C2
100
AcDbEntity
  8
0
100
AcDbSpline
 62
7
  6
CONTINUOUS
 70
0
 71
3
 72
15
 73
11
 74
0
 42
0.0000001
 43
0.0000001
 44
0.0000000001
 40
0.0
 40
0.0
 40
0.0
 40
0.0
 40
0.0506580437
 40
0.0823029949
 40
0.1197229212
 40
0.2136507622
 40
0.3333912895
 40
0.4767107866
 40
0.6395049098
 40
1.0
 40
1.0
 40
1.0
 40
1.0
 10
801.3453843858
 20
157.0215408256
 30
0.0
 10
801.3284051589
 20
157.084908163
 30
0.0
 10
801.3450150832
 20
157.1992577017
 30
0.0
 10
801.4200131714
 20
157.3347435823
 30
0.0
 10
801.5515490425
 20
157.5012165367
 30
0.0
 10
801.8005401284
 20
157.7137058556
 30
0.0
 10
802.1898361974
 20
157.964200273
 30
0.0
 10
802.6807387661
 20
158.2171536878
 30
0.0
 10
803.4752004708
 20
158.5559817134
 30
0.0
 10
804.1221185374
 20
158.7642095984
 30
0.0
 10
804.5730560856
 20
158.8850379503
 30
0.0
  0
SPLINE
  5
7C3
100
AcDbEntity
  8
0
100
AcDbSpline
 62
7
  6
CONTINUOUS
 70
0
 71
3
 72
9
 73
5
 74
0
 42
0.0000001
 43
0.0000001
 44
0.0000000001
 40
0.0
 40
0.0
 40
0.0
 40
0.0
 40
0.4847438183
 40
1.0
 40
1.0
 40
1.0
 40
1.0
 10
802.0557843962
 20
168.0740318373
 30
0.0
 10
802.3737211995
 20
168.324068476
 30
0.0
 10
803.1031172032
 20
168.7475179376
 30
0.0
 10
803.8970116262
 20
169.0186210513
 30
0.0
 10
804.3141088932
 20
169.122910048
 30
0.0
  0
SPLINE
  5
7C4
100
AcDbEntity
  8
KONSTRUKTIONSELEMENTE
100
AcDbSpline
 62
7
  6
CONTINUOUS
 70
0
 71
3
 72
11
 73
7
 74
0
 42
0.0000001
 43
0.0000001
 44
0.0000000001
 40
0.0
 40
0.0
 40
0.0
 40
0.0
 40
0.2193102634
 40
0.4447591571
 40
0.7096345186
 40
1.0
 40
1.0
 40
1.0
 40
1.0
 10
373.738175292
 20
139.5774356385
 30
0.0
 10
373.4722335092
 20
139.7432484691
 30
0.0
 10
372.9160694912
 20
140.0546129952
 30
0.0
 10
371.9438341354
 20
140.378919945
 30
0.0
 10
370.79563262
 20
140.3483234864
 30
0.0
 10
370.0658893348
 20
139.9400498558
 30
0.0
 10
369.7677044734
 20
139.6515023567
 30
0.0
  0
SPLINE
  5
7C5
100
AcDbEntity
  8
KONSTRUKTIONSELEMENTE
100
AcDbSpline
 62
7
  6
CONTINUOUS
 70
0
 71
3
 72
25
 73
21
 74
0
 42
0.0000001
 43
0.0000001
 44
0.0000000001
 40
0.0
 40
0.0
 40
0.0
 40
0.0
 40
0.0139556627
 40
0.0215641577
 40
0.0229744644
 40
0.0230439997
 40
0.0271929754
 40
0.0360330942
 40
0.0489380107
 40
0.0654456056
 40
0.085103462
 40
0.1324479604
 40
0.1889354145
 40
0.2529517006
 40
0.323314794
 40
0.3989389876
 40
0.4788786837
 40
0.6480928262
 40
0.8241941934
 40
1.0
 40
1.0
 40
1.0
 40
1.0
 10
373.488233923
 20
138.0905530371
 30
0.0
 10
373.4836987243
 20
138.1160228916
 30
0.0
 10
373.4706552631
 20
138.1645479824
 30
0.0
 10
373.469623337
 20
138.1846776563
 30
0.0
 10
373.456537406
 20
138.2167640781
 30
0.0
 10
373.46297317
 20
138.2079178966
 30
0.0
 10
373.468022172
 20
138.1841258425
 30
0.0
 10
373.4909206619
 20
138.1414203594
 30
0.0
 10
373.521279255
 20
138.0775474525
 30
0.0
 10
373.5647345565
 20
137.9975077696
 30
0.0
 10
373.6409393609
 20
137.8627960955
 30
0.0
 10
373.7614412209
 20
137.668027167
 30
0.0
 10
373.9339643578
 20
137.4090494072
 30
0.0
 10
374.139257457
 20
137.1208058716
 30
0.0
 10
374.3731437453
 20
136.8095569137
 30
0.0
 10
374.6325030134
 20
136.4806669206
 30
0.0
 10
375.0150245046
 20
136.0156980893
 30
0.0
 10
375.5335722527
 20
135.4216694898
 30
0.0
 10
376.1935678458
 20
134.7160201742
 30
0.0
 10
376.6548256985
 20
134.254500278
 30
0.0
 10
376.889232286
 20
134.0280809013
 30
0.0
  0
SPLINE
  5
7C6
100
AcDbEntity
  8
KONSTRUKTIONSELEMENTE
100
AcDbSpline
 62
7
  6
CONTINUOUS
 70
0
 71
3
 72
17
 73
13
 74
0
 42
0.0000001
 43
0.0000001
 44
0.0000000001
 40
0.0
 40
0.0
 40
0.0
 40
0.0
 40
0.0672998635
 40
0.1329602329
 40
0.1944855734
 40
0.2504309869
 40
0.3502866628
 40
0.4545528348
 40
0.5743822025
 40
0.7091855667
 40
0.853565524
 40
1.0
 40
1.0
 40
1.0
 40
1.0
 10
369.7677044734
 20
139.6515023567
 30
0.0
 10
369.5956590767
 20
139.485017483
 30
0.0
 10
369.3023247339
 20
139.1036938891
 30
0.0
 10
369.0522150758
 20
138.4490072541
 30
0.0
 10
368.9878243752
 20
137.7940774795
 30
0.0
 10
369.08195945
 20
137.0216736126
 30
0.0
 10
369.4221003343
 20
136.1503199319
 30
0.0
 10
370.0074542243
 20
135.1563262402
 30
0.0
 10
370.751451693
 20
134.117013637
 30
0.0
 10
371.6477360833
 20
133.0155909321
 30
0.0
 10
372.6612684823
 20
131.8900354535
 30
0.0
 10
373.3881992053
 20
131.1533419519
 30
0.0
 10
373.7628726282
 20
130.7914352163
 30
0.0
  0
SPLINE
  5
7C7
100
AcDbEntity
  8
KONSTRUKTIONSELEMENTE
100
AcDbSpline
 62
7
  6
CONTINUOUS
 70
0
 71
3
 72
13
 73
9
 74
0
 42
0.0000001
 43
0.0000001
 44
0.0000000001
 40
0.0
 40
0.0
 40
0.0
 40
0.0
 40
0.147827563
 40
0.2910391013
 40
0.5396303344
 40
0.6488307226
 40
0.7583173339
 40
1.0
 40
1.0
 40
1.0
 40
1.0
 10
391.4910021586
 20
117.8992422512
 30
0.0
 10
391.6817099364
 20
118.0837863361
 30
0.0
 10
391.9996914741
 20
118.5122232137
 30
0.0
 10
392.3096750407
 20
119.4450564334
 30
0.0
 10
392.2236609339
 20
120.37782407
 30
0.0
 10
391.9248880901
 20
121.1618279064
 30
0.0
 10
391.5563849757
 20
121.9030176142
 30
0.0
 10
391.2120231096
 20
122.4332161875
 30
0.0
 10
390.9631101103
 20
122.788579113
 30
0.0
  0
SPLINE
  5
7C8
100
AcDbEntity
  8
KONSTRUKTIONSELEMENTE
100
AcDbSpline
 62
7
  6
CONTINUOUS
 70
0
 71
3
 72
19
 73
15
 74
0
 42
0.0000001
 43
0.0000001
 44
0.0000000001
 40
0.0
 40
0.0
 40
0.0
 40
0.0
 40
0.186931947
 40
0.3655432537
 40
0.5317545855
 40
0.6818380102
 40
0.7494939838
 40
0.8113676119
 40
0.866702645
 40
0.9144809375
 40
0.9535989404
 40
0.9694074678
 40
0.9823674488
 40
1.0
 40
1.0
 40
1.0
 40
1.0
 10
387.4958340038
 20
123.7828903729
 30
0.0
 10
387.6501787458
 20
123.6338048004
 30
0.0
 10
387.955425966
 20
123.3457927545
 30
0.0
 10
388.409744758
 20
122.9379819987
 30
0.0
 10
388.8429267479
 20
122.5702896054
 30
0.0
 10
389.1878756717
 20
122.2956969477
 30
0.0
 10
389.4446777829
 20
122.1032108776
 30
0.0
 10
389.6173479362
 20
121.9794926812
 30
0.0
 10
389.773418118
 20
121.8731782617
 30
0.0
 10
389.9124590195
 20
121.7842770836
 30
0.0
 10
390.0097509568
 20
121.7254654042
 30
0.0
 10
390.0841919424
 20
121.6850892055
 30
0.0
 10
390.1151652265
 20
121.6664617139
 30
0.0
 10
390.1968507622
 20
121.6311496606
 30
0.0
 10
390.1777564082
 20
121.6378668348
 30
0.0
  0
SPLINE
  5
7C9
100
AcDbEntity
  8
KONSTRUKTIONSELEMENTE
100
AcDbSpline
 62
7
  6
CONTINUOUS
 70
0
 71
3
 72
9
 73
5
 74
0
 42
0.0000001
 43
0.0000001
 44
0.0000000001
 40
0.0
 40
0.0
 40
0.0
 40
0.0
 40
0.5263197575
 40
1.0
 40
1.0
 40
1.0
 40
1.0
 10
384.369474346
 20
120.5462446879
 30
0.0
 10
384.7585618509
 20
120.1704150183
 30
0.0
 10
385.5156574375
 20
119.474568521
 30
0.0
 10
386.3132053146
 20
118.8245781429
 30
0.0
 10
386.7039377565
 20
118.5341360566
 30
0.0
  0
SPLINE
  5
7CA
100
AcDbEntity
  8
KONSTRUKTIONSELEMENTE
100
AcDbSpline
 62
7
  6
CONTINUOUS
 70
0
 71
3
 72
14
 73
10
 74
0
 42
0.0000001
 43
0.0000001
 44
0.0000000001
 40
0.0
 40
0.0
 40
0.0
 40
0.0
 40
0.238355881
 40
0.3472682142
 40
0.4568467248
 40
0.5760006498
 40
0.7088709196
 40
0.852214807
 40
1.0
 40
1.0
 40
1.0
 40
1.0
 10
386.7348514897
 20
118.511215724
 30
0.0
 10
387.0705373125
 20
118.2629689804
 30
0.0
 10
387.5740742198
 20
117.9182605449
 30
0.0
 10
388.2829097362
 20
117.5450410259
 30
0.0
 10
388.833914419
 20
117.3254698332
 30
0.0
 10
389.4570874826
 20
117.1917190003
 30
0.0
 10
390.1573044045
 20
117.2018413982
 30
0.0
 10
390.8780433002
 20
117.421839922
 30
0.0
 10
391.3049777479
 20
117.7192301667
 30
0.0
 10
391.4910021586
 20
117.8992422512
 30
0.0
  0
SPLINE
  5
7CB
100
AcDbEntity
  8
KONSTRUKTIONSELEMENTE
100
AcDbSpline
 62
7
  6
CONTINUOUS
 70
0
 71
3
 72
13
 73
9
 74
0
 42
0.0000001
 43
0.0000001
 44
0.0000000001
 40
0.0
 40
0.0
 40
0.0
 40
0.0
 40
0.2266749134
 40
0.4472161745
 40
0.5713587125
 40
0.7075537383
 40
0.8520150675
 40
1.0
 40
1.0
 40
1.0
 40
1.0
 10
342.9744282483
 20
169.4024065539
 30
0.0
 10
342.6795341643
 20
169.6028378628
 30
0.0
 10
342.0811423687
 20
169.9746879399
 30
0.0
 10
341.239204021
 20
170.3167959993
 30
0.0
 10
340.4852185194
 20
170.4223273598
 30
0.0
 10
339.8442742846
 20
170.3685544413
 30
0.0
 10
339.201609009
 20
170.139348673
 30
0.0
 10
338.8222880066
 20
169.8659365787
 30
0.0
 10
338.6550061012
 20
169.7040612399
 30
0.0
  0
SPLINE
  5
7CC
100
AcDbEntity
  8
KONSTRUKTIONSELEMENTE
100
AcDbSpline
 62
7
  6
CONTINUOUS
 70
0
 71
3
 72
25
 73
21
 74
0
 42
0.0000001
 43
0.0000001
 44
0.0000000001
 40
0.0
 40
0.0
 40
0.0
 40
0.0
 40
0.0139556627
 40
0.0215641577
 40
0.0229744644
 40
0.0230439997
 40
0.0271929754
 40
0.0360330942
 40
0.0489380107
 40
0.0654456056
 40
0.085103462
 40
0.1324479604
 40
0.1889354145
 40
0.2529517006
 40
0.323314794
 40
0.3989389876
 40
0.4788786837
 40
0.6480928262
 40
0.8241941934
 40
1.0
 40
1.0
 40
1.0
 40
1.0
 10
342.3755355508
 20
168.1431119204
 30
0.0
 10
342.3710003521
 20
168.1685817748
 30
0.0
 10
342.3579568909
 20
168.2171068656
 30
0.0
 10
342.3569249648
 20
168.2372365396
 30
0.0
 10
342.3438390338
 20
168.2693229614
 30
0.0
 10
342.3502747978
 20
168.2604767798
 30
0.0
 10
342.3553237998
 20
168.2366847257
 30
0.0
 10
342.3782222897
 20
168.1939792427
 30
0.0
 10
342.4085808828
 20
168.1301063358
 30
0.0
 10
342.4520361843
 20
168.0500666529
 30
0.0
 10
342.5282409887
 20
167.9153549787
 30
0.0
 10
342.6487428487
 20
167.7205860503
 30
0.0
 10
342.8212659856
 20
167.4616082905
 30
0.0
 10
343.0265590848
 20
167.1733647548
 30
0.0
 10
343.2604453731
 20
166.8621157969
 30
0.0
 10
343.5198046412
 20
166.5332258039
 30
0.0
 10
343.9023261324
 20
166.0682569726
 30
0.0
 10
344.4208738805
 20
165.4742283731
 30
0.0
 10
345.0808694736
 20
164.7685790574
 30
0.0
 10
345.5421273263
 20
164.3070591612
 30
0.0
 10
345.7765339138
 20
164.0806397846
 30
0.0
  0
SPLINE
  5
7CD
100
AcDbEntity
  8
KONSTRUKTIONSELEMENTE
100
AcDbSpline
 62
7
  6
CONTINUOUS
 70
0
 71
3
 72
17
 73
13
 74
0
 42
0.0000001
 43
0.0000001
 44
0.0000000001
 40
0.0
 40
0.0
 40
0.0
 40
0.0
 40
0.0672998635
 40
0.1329602329
 40
0.1944855734
 40
0.2504309869
 40
0.3502866628
 40
0.4545528348
 40
0.5743822025
 40
0.7091855667
 40
0.853565524
 40
1.0
 40
1.0
 40
1.0
 40
1.0
 10
338.6550061012
 20
169.7040612399
 30
0.0
 10
338.4829607045
 20
169.5375763662
 30
0.0
 10
338.1896263616
 20
169.1562527724
 30
0.0
 10
337.9395167036
 20
168.5015661374
 30
0.0
 10
337.875126003
 20
167.8466363628
 30
0.0
 10
337.9692610778
 20
167.0742324959
 30
0.0
 10
338.3094019621
 20
166.2028788152
 30
0.0
 10
338.8947558521
 20
165.2088851234
 30
0.0
 10
339.6387533208
 20
164.1695725202
 30
0.0
 10
340.5350377111
 20
163.0681498154
 30
0.0
 10
341.5485701101
 20
161.9425943368
 30
0.0
 10
342.2755008331
 20
161.2059008351
 30
0.0
 10
342.650174256
 20
160.8439940995
 30
0.0
  0
SPLINE
  5
7CE
100
AcDbEntity
  8
KONSTRUKTIONSELEMENTE
100
AcDbSpline
 62
7
  6
CONTINUOUS
 70
0
 71
3
 72
13
 73
9
 74
0
 42
0.0000001
 43
0.0000001
 44
0.0000000001
 40
0.0
 40
0.0
 40
0.0
 40
0.0
 40
0.1478830584
 40
0.2925777243
 40
0.4291426403
 40
0.5544682928
 40
0.7758011155
 40
1.0
 40
1.0
 40
1.0
 40
1.0
 10
360.3783037863
 20
147.9518011345
 30
0.0
 10
360.5415322004
 20
148.1097539911
 30
0.0
 10
360.8226584982
 20
148.469235126
 30
0.0
 10
361.0737838097
 20
149.0869977386
 30
0.0
 10
361.1567056034
 20
149.711999465
 30
0.0
 10
361.0925360844
 20
150.4562710915
 30
0.0
 10
360.799261715
 20
151.2934059299
 30
0.0
 10
360.464704876
 20
151.8915711499
 30
0.0
 10
360.2839291578
 20
152.1846612868
 30
0.0
  0
SPLINE
  5
7CF
100
AcDbEntity
  8
KONSTRUKTIONSELEMENTE
100
AcDbSpline
 62
7
  6
CONTINUOUS
 70
0
 71
3
 72
19
 73
15
 74
0
 42
0.0000001
 43
0.0000001
 44
0.0000000001
 40
0.0
 40
0.0
 40
0.0
 40
0.0
 40
0.186931947
 40
0.3655432537
 40
0.5317545855
 40
0.6818380102
 40
0.7494939838
 40
0.8113676119
 40
0.866702645
 40
0.9144809375
 40
0.9535989404
 40
0.9694074678
 40
0.9823674488
 40
1.0
 40
1.0
 40
1.0
 40
1.0
 10
356.3831356316
 20
153.8354492562
 30
0.0
 10
356.5374803736
 20
153.6863636837
 30
0.0
 10
356.8427275938
 20
153.3983516378
 30
0.0
 10
357.2970463858
 20
152.9905408819
 30
0.0
 10
357.7302283757
 20
152.6228484886
 30
0.0
 10
358.0751772995
 20
152.3482558309
 30
0.0
 10
358.3319794107
 20
152.1557697609
 30
0.0
 10
358.504649564
 20
152.0320515644
 30
0.0
 10
358.6607197458
 20
151.9257371449
 30
0.0
 10
358.7997606473
 20
151.8368359668
 30
0.0
 10
358.8970525846
 20
151.7780242874
 30
0.0
 10
358.9714935702
 20
151.7376480888
 30
0.0
 10
359.0024668543
 20
151.7190205972
 30
0.0
 10
359.08415239
 20
151.6837085438
 30
0.0
 10
359.065058036
 20
151.6904257181
 30
0.0
  0
SPLINE
  5
7D0
100
AcDbEntity
  8
KONSTRUKTIONSELEMENTE
100
AcDbSpline
 62
7
  6
CONTINUOUS
 70
0
 71
3
 72
14
 73
10
 74
0
 42
0.0000001
 43
0.0000001
 44
0.0000000001
 40
0.0
 40
0.0
 40
0.0
 40
0.0
 40
0.2853075585
 40
0.4098818106
 40
0.5208692916
 40
0.6238507303
 40
0.7336576496
 40
0.8616333138
 40
1.0
 40
1.0
 40
1.0
 40
1.0
 10
353.2567759738
 20
150.5988035711
 30
0.0
 10
353.8289351037
 20
150.0461402908
 30
0.0
 10
354.6792931596
 20
149.279507567
 30
0.0
 10
355.8330024238
 20
148.3961648018
 30
0.0
 10
356.6227207683
 20
147.8771157163
 30
0.0
 10
357.4291410663
 20
147.4650851601
 30
0.0
 10
358.3560469672
 20
147.2102471666
 30
0.0
 10
359.4302709672
 20
147.2914812158
 30
0.0
 10
360.1010647261
 20
147.6835224662
 30
0.0
 10
360.3783037863
 20
147.9518011345
 30
0.0
  0
SPLINE
  5
7D1
100
AcDbEntity
  8
KONSTRUKTIONSELEMENTE
100
AcDbSpline
 62
7
  6
CONTINUOUS
 70
0
 71
3
 72
9
 73
5
 74
0
 42
0.0000001
 43
0.0000001
 44
0.0000000001
 40
0.0
 40
0.0
 40
0.0
 40
0.0
 40
0.4992056363
 40
1.0
 40
1.0
 40
1.0
 40
1.0
 10
378.3762638915
 20
138.6772740179
 30
0.0
 10
378.3759847284
 20
137.8600715448
 30
0.0
 10
378.1081841991
 20
136.2122742834
 30
0.0
 10
377.3303133699
 20
134.7360875972
 30
0.0
 10
376.8394225178
 20
134.0795028093
 30
0.0
  0
SPLINE
  5
7D2
100
AcDbEntity
  8
KONSTRUKTIONSELEMENTE
100
AcDbSpline
 62
7
  6
CONTINUOUS
 70
0
 71
3
 72
11
 73
7
 74
0
 42
0.0000001
 43
0.0000001
 44
0.0000000001
 40
0.0
 40
0.0
 40
0.0
 40
0.0
 40
0.2503834639
 40
0.5009562809
 40
0.7509829001
 40
1.0
 40
1.0
 40
1.0
 40
1.0
 10
373.1737735546
 20
131.3676156194
 30
0.0
 10
372.4646135843
 20
131.1095347302
 30
0.0
 10
370.9654079031
 20
130.7900154397
 30
0.0
 10
368.6790915583
 20
130.9450991728
 30
0.0
 10
366.5255880726
 20
131.7171910267
 30
0.0
 10
365.2870926733
 20
132.6119734102
 30
0.0
 10
364.7472611681
 20
133.133410603
 30
0.0
  0
SPLINE
  5
7D3
100
AcDbEntity
  8
KONSTRUKTIONSELEMENTE
100
AcDbSpline
 62
7
  6
CONTINUOUS
 70
0
 71
3
 72
11
 73
7
 74
0
 42
0.0000001
 43
0.0000001
 44
0.0000000001
 40
0.0
 40
0.0
 40
0.0
 40
0.0
 40
0.2497701922
 40
0.5003846994
 40
0.7507632035
 40
1.0
 40
1.0
 40
1.0
 40
1.0
 10
354.990611946
 20
155.1830065002
 30
0.0
 10
355.7494365776
 20
155.7342492376
 30
0.0
 10
357.4805022051
 20
156.5751327805
 30
0.0
 10
360.3389233677
 20
156.8729925827
 30
0.0
 10
363.1287147099
 20
156.1901543255
 30
0.0
 10
364.7255885028
 20
155.1201141544
 30
0.0
 10
365.3987470917
 20
154.4698928882
 30
0.0
  0
SPLINE
  5
7D4
100
AcDbEntity
  8
KONSTRUKTIONSELEMENTE
100
AcDbSpline
 62
7
  6
CONTINUOUS
 70
0
 71
3
 72
9
 73
5
 74
0
 42
0.0000001
 43
0.0000001
 44
0.0000000001
 40
0.0
 40
0.0
 40
0.0
 40
0.0
 40
0.5052259423
 40
1.0
 40
1.0
 40
1.0
 40
1.0
 10
357.267019108
 20
146.6152468164
 30
0.0
 10
357.0647188232
 20
146.8106538862
 30
0.0
 10
356.711104258
 20
147.2492896524
 30
0.0
 10
356.4801122501
 20
147.763545496
 30
0.0
 10
356.401210151
 20
148.0274479176
 30
0.0
  0
SPLINE
  5
7D5
100
AcDbEntity
  8
KONSTRUKTIONSELEMENTE
100
AcDbSpline
 62
7
  6
CONTINUOUS
 70
0
 71
3
 72
11
 73
7
 74
0
 42
0.0000001
 43
0.0000001
 44
0.0000000001
 40
0.0
 40
0.0
 40
0.0
 40
0.0
 40
0.2519918144
 40
0.5048009909
 40
0.755086504
 40
1.0
 40
1.0
 40
1.0
 40
1.0
 10
358.5385930594
 20
152.0168656557
 30
0.0
 10
358.8554454354
 20
152.1292940774
 30
0.0
 10
359.5249851733
 20
152.2668878406
 30
0.0
 10
360.5420618809
 20
152.1941496366
 30
0.0
 10
361.4928000604
 20
151.8523987966
 30
0.0
 10
362.0373611087
 20
151.4602652006
 30
0.0
 10
362.272387434
 20
151.2332472031
 30
0.0
  0
SPLINE
  5
7D6
100
AcDbEntity
  8
KONSTRUKTIONSELEMENTE
100
AcDbSpline
 62
7
  6
CONTINUOUS
 70
0
 71
3
 72
9
 73
5
 74
0
 42
0.0000001
 43
0.0000001
 44
0.0000000001
 40
0.0
 40
0.0
 40
0.0
 40
0.0
 40
0.5069780116
 40
1.0
 40
1.0
 40
1.0
 40
1.0
 10
372.8789891518
 20
140.9880566747
 30
0.0
 10
373.1910860607
 20
140.68659421
 30
0.0
 10
373.6979696911
 20
139.965107536
 30
0.0
 10
373.8763181707
 20
139.1003413747
 30
0.0
 10
373.8762102909
 20
138.6783690462
 30
0.0
  0
SPLINE
  5
7D7
100
AcDbEntity
  8
KONSTRUKTIONSELEMENTE
100
AcDbSpline
 62
7
  6
CONTINUOUS
 70
0
 71
3
 72
9
 73
5
 74
0
 42
0.0000001
 43
0.0000001
 44
0.0000000001
 40
0.0
 40
0.0
 40
0.0
 40
0.0
 40
0.5012207597
 40
1.0
 40
1.0
 40
1.0
 40
1.0
 10
354.1406594503
 20
143.3786011314
 30
0.0
 10
353.400806643
 20
144.0932440656
 30
0.0
 10
352.1929528118
 20
145.8285331389
 30
0.0
 10
351.7693946886
 20
147.9024019053
 30
0.0
 10
351.7697443683
 20
148.9260294732
 30
0.0
  0
SPLINE
  5
7D8
100
AcDbEntity
  8
KONSTRUKTIONSELEMENTE
100
AcDbSpline
 62
7
  6
CONTINUOUS
 70
0
 71
3
 72
9
 73
5
 74
0
 42
0.0000001
 43
0.0000001
 44
0.0000000001
 40
0.0
 40
0.0
 40
0.0
 40
0.0
 40
0.50530061
 40
1.0
 40
1.0
 40
1.0
 40
1.0
 10
369.8671166721
 20
135.4102061017
 30
0.0
 10
369.5053647828
 20
135.4603609404
 30
0.0
 10
368.8000566043
 20
135.6676951761
 30
0.0
 10
368.1889953413
 20
136.0772837762
 30
0.0
 10
367.9265098292
 20
136.3200663388
 30
0.0
  0
SPLINE
  5
7D9
100
AcDbEntity
  8
KONSTRUKTIONSELEMENTE
100
AcDbSpline
 62
7
  6
CONTINUOUS
 70
0
 71
3
 72
9
 73
5
 74
0
 42
0.0000001
 43
0.0000001
 44
0.0000000001
 40
0.0
 40
0.0
 40
0.0
 40
0.0
 40
0.5012063269
 40
1.0
 40
1.0
 40
1.0
 40
1.0
 10
376.0618035309
 20
144.1696193479
 30
0.0
 10
376.7852037014
 20
143.4566570256
 30
0.0
 10
377.963914872
 20
141.7353862039
 30
0.0
 10
378.3766091889
 20
139.6880732213
 30
0.0
 10
378.3762638915
 20
138.6772740179
 30
0.0
  0
SPLINE
  5
7DA
100
AcDbEntity
  8
KONSTRUKTIONSELEMENTE
100
AcDbSpline
 62
7
  6
CONTINUOUS
 70
0
 71
3
 72
9
 73
5
 74
0
 42
0.0000001
 43
0.0000001
 44
0.0000000001
 40
0.0
 40
0.0
 40
0.0
 40
0.0
 40
0.4046530715
 40
1.0
 40
1.0
 40
1.0
 40
1.0
 10
398.8727082706
 20
117.3690601823
 30
0.0
 10
398.8727082706
 20
117.4214780607
 30
0.0
 10
398.9087162902
 20
117.5491010961
 30
0.0
 10
398.9641154857
 20
117.6656897016
 30
0.0
 10
399.0003583644
 20
117.7337627488
 30
0.0
  0
SPLINE
  5
7DB
100
AcDbEntity
  8
KONSTRUKTIONSELEMENTE
100
AcDbSpline
 62
7
  6
CONTINUOUS
 70
0
 71
3
 72
10
 73
6
 74
0
 42
0.0000001
 43
0.0000001
 44
0.0000000001
 40
0.0
 40
0.0
 40
0.0
 40
0.0
 40
0.371444044
 40
0.6586206829
 40
1.0
 40
1.0
 40
1.0
 40
1.0
 10
401.9288935427
 20
120.7641370173
 30
0.0
 10
401.9799034005
 20
120.7935357761
 30
0.0
 10
402.0741969383
 20
120.842772795
 30
0.0
 10
402.2151896309
 20
120.8991635581
 30
0.0
 10
402.3361222943
 20
120.9123966456
 30
0.0
 10
402.375849865
 20
120.8756597817
 30
0.0
  0
SPLINE
  5
7DC
100
AcDbEntity
  8
KONSTRUKTIONSELEMENTE
100
AcDbSpline
 62
7
  6
CONTINUOUS
 70
0
 71
3
 72
21
 73
17
 74
0
 42
0.0000001
 43
0.0000001
 44
0.0000000001
 40
0.0
 40
0.0
 40
0.0
 40
0.0
 40
0.0294220707
 40
0.0723221796
 40
0.128270212
 40
0.1957493625
 40
0.3569194901
 40
0.5354427485
 40
0.7081562347
 40
0.7852637376
 40
0.8528295098
 40
0.9088459223
 40
0.951807463
 40
0.968259586
 40
0.9814568991
 40
1.0
 40
1.0
 40
1.0
 40
1.0
 10
402.054688786
 20
121.1256300427
 30
0.0
 10
402.054688786
 20
121.0754795487
 30
0.0
 10
402.0215385774
 20
120.9538976817
 30
0.0
 10
401.9294796567
 20
120.7560461571
 30
0.0
 10
401.7832183989
 20
120.5123382026
 30
0.0
 10
401.5061670786
 20
120.1140683449
 30
0.0
 10
401.0665363287
 20
119.5756657043
 30
0.0
 10
400.4696903771
 20
118.9374504904
 30
0.0
 10
399.9372196975
 20
118.4367895379
 30
0.0
 10
399.5208916969
 20
118.0910928717
 30
0.0
 10
399.246888198
 20
117.8859459091
 30
0.0
 10
399.0083693986
 20
117.731561456
 30
0.0
 10
398.8331338134
 20
117.6408615701
 30
0.0
 10
398.7148013759
 20
117.6019174909
 30
0.0
 10
398.6349866195
 20
117.5871529982
 30
0.0
 10
398.5747531726
 20
117.5975714175
 30
0.0
 10
398.5515471916
 20
117.6190304434
 30
0.0
  0
SPLINE
  5
7DD
100
AcDbEntity
  8
KONSTRUKTIONSELEMENTE
100
AcDbSpline
 62
7
  6
CONTINUOUS
 70
0
 71
3
 72
9
 73
5
 74
0
 42
0.0000001
 43
0.0000001
 44
0.0000000001
 40
0.0
 40
0.0
 40
0.0
 40
0.0
 40
0.5061516998
 40
1.0
 40
1.0
 40
1.0
 40
1.0
 10
402.9341173998
 20
113.3852830446
 30
0.0
 10
403.3408802431
 20
112.9923803091
 30
0.0
 10
404.0023103264
 20
112.0504079028
 30
0.0
 10
404.2354844801
 20
110.9216635304
 30
0.0
 10
404.2358132419
 20
110.3698765934
 30
0.0
  0
SPLINE
  5
7DE
100
AcDbEntity
  8
KONSTRUKTIONSELEMENTE
100
AcDbSpline
 62
7
  6
CONTINUOUS
 70
0
 71
3
 72
9
 73
5
 74
0
 42
0.0000001
 43
0.0000001
 44
0.0000000001
 40
0.0
 40
0.0
 40
0.0
 40
0.0
 40
0.4992038931
 40
1.0
 40
1.0
 40
1.0
 40
1.0
 10
409.235832696
 20
110.3660360014
 30
0.0
 10
409.2355071868
 20
109.4194853765
 30
0.0
 10
408.9343663765
 20
107.5115731674
 30
0.0
 10
408.0580548435
 20
105.7912581063
 30
0.0
 10
407.5034278762
 20
105.0204977278
 30
0.0
  0
SPLINE
  5
7DF
100
AcDbEntity
  8
KONSTRUKTIONSELEMENTE
100
AcDbSpline
 62
7
  6
CONTINUOUS
 70
0
 71
3
 72
9
 73
5
 74
0
 42
0.0000001
 43
0.0000001
 44
0.0000000001
 40
0.0
 40
0.0
 40
0.0
 40
0.0
 40
0.5012747397
 40
1.0
 40
1.0
 40
1.0
 40
1.0
 10
406.470600491
 20
116.9203729994
 30
0.0
 10
407.3347680687
 20
116.0698538673
 30
0.0
 10
408.7430398269
 20
114.0161155898
 30
0.0
 10
409.2362475435
 20
111.5723741478
 30
0.0
 10
409.235832696
 20
110.3660360014
 30
0.0
  0
SPLINE
  5
7E0
100
AcDbEntity
  8
KONSTRUKTIONSELEMENTE
100
AcDbSpline
 62
7
  6
CONTINUOUS
 70
0
 71
3
 72
11
 73
7
 74
0
 42
0.0000001
 43
0.0000001
 44
0.0000000001
 40
0.0
 40
0.0
 40
0.0
 40
0.0
 40
0.2507528382
 40
0.5034086137
 40
0.7541779598
 40
1.0
 40
1.0
 40
1.0
 40
1.0
 10
389.1666322938
 20
122.3164854369
 30
0.0
 10
389.5967103172
 20
122.5291827531
 30
0.0
 10
390.5325318158
 20
122.8234684432
 30
0.0
 10
391.9969808256
 20
122.8247394262
 30
0.0
 10
393.386937049
 20
122.3939623284
 30
0.0
 10
394.1812349315
 20
121.8399182752
 30
0.0
 10
394.5195467037
 20
121.5131341971
 30
0.0
  0
SPLINE
  5
7E1
100
AcDbEntity
  8
KONSTRUKTIONSELEMENTE
100
AcDbSpline
 62
7
  6
CONTINUOUS
 70
0
 71
3
 72
9
 73
5
 74
0
 42
0.0000001
 43
0.0000001
 44
0.0000000001
 40
0.0
 40
0.0
 40
0.0
 40
0.0
 40
0.5012894406
 40
1.0
 40
1.0
 40
1.0
 40
1.0
 10
384.549341089
 20
111.8826551004
 30
0.0
 10
383.6668884154
 20
112.7350389283
 30
0.0
 10
382.2262272026
 20
114.8043399766
 30
0.0
 10
381.7209389983
 20
117.277588075
 30
0.0
 10
381.7213587459
 20
118.498175127
 30
0.0
  0
SPLINE
  5
7E2
100
AcDbEntity
  8
KONSTRUKTIONSELEMENTE
100
AcDbSpline
 62
7
  6
CONTINUOUS
 70
0
 71
3
 72
11
 73
7
 74
0
 42
0.0000001
 43
0.0000001
 44
0.0000000001
 40
0.0
 40
0.0
 40
0.0
 40
0.0
 40
0.2496929416
 40
0.500340108
 40
0.7507767759
 40
1.0
 40
1.0
 40
1.0
 40
1.0
 10
385.3822014122
 20
125.8252830224
 30
0.0
 10
386.2869020578
 20
126.5160228145
 30
0.0
 10
388.3686713205
 20
127.5803969507
 30
0.0
 10
391.8353941022
 20
127.9924439915
 30
0.0
 10
395.2318477353
 20
127.1929322739
 30
0.0
 10
397.1761308499
 20
125.8987123169
 30
0.0
 10
397.9932796567
 20
125.1094071805
 30
0.0
  0
SPLINE
  5
7E3
100
AcDbEntity
  8
KONSTRUKTIONSELEMENTE
100
AcDbSpline
 62
7
  6
CONTINUOUS
 70
0
 71
3
 72
9
 73
5
 74
0
 42
0.0000001
 43
0.0000001
 44
0.0000000001
 40
0.0
 40
0.0
 40
0.0
 40
0.0
 40
0.5061516998
 40
1.0
 40
1.0
 40
1.0
 40
1.0
 10
388.023074042
 20
115.4789280838
 30
0.0
 10
387.6163111987
 20
115.8718308193
 30
0.0
 10
386.9548811155
 20
116.8138032256
 30
0.0
 10
386.7217069618
 20
117.942547598
 30
0.0
 10
386.7213781999
 20
118.494334535
 30
0.0
  0
SPLINE
  5
7E4
100
AcDbEntity
  8
KONSTRUKTIONSELEMENTE
100
AcDbSpline
 62
7
  6
CONTINUOUS
 70
0
 71
3
 72
21
 73
17
 74
0
 42
0.0000001
 43
0.0000001
 44
0.0000000001
 40
0.0
 40
0.0
 40
0.0
 40
0.0
 40
0.0294220707
 40
0.0723221796
 40
0.128270212
 40
0.1957493625
 40
0.3569194901
 40
0.5354427485
 40
0.7081562347
 40
0.7852637376
 40
0.8528295098
 40
0.9088459223
 40
0.951807463
 40
0.968259586
 40
0.9814568991
 40
1.0
 40
1.0
 40
1.0
 40
1.0
 10
402.4082421765
 20
120.7841236918
 30
0.0
 10
402.4082421765
 20
120.7339731978
 30
0.0
 10
402.375091968
 20
120.6123913307
 30
0.0
 10
402.2830330473
 20
120.4145398062
 30
0.0
 10
402.1367717895
 20
120.1708318516
 30
0.0
 10
401.8597204692
 20
119.772561994
 30
0.0
 10
401.4200897193
 20
119.2341593534
 30
0.0
 10
400.8232437677
 20
118.5959441395
 30
0.0
 10
400.2907730881
 20
118.095283187
 30
0.0
 10
399.8744450875
 20
117.7495865208
 30
0.0
 10
399.6004415886
 20
117.5444395581
 30
0.0
 10
399.3619227892
 20
117.390055105
 30
0.0
 10
399.186687204
 20
117.2993552192
 30
0.0
 10
399.0683547665
 20
117.2604111399
 30
0.0
 10
398.9885400101
 20
117.2456466472
 30
0.0
 10
398.9283065632
 20
117.2560650666
 30
0.0
 10
398.9051005822
 20
117.2775240925
 30
0.0
  0
SPLINE
  5
7E5
100
AcDbEntity
  8
KONSTRUKTIONSELEMENTE
100
AcDbSpline
 62
7
  6
CONTINUOUS
 70
0
 71
3
 72
9
 73
5
 74
0
 42
0.0000001
 43
0.0000001
 44
0.0000000001
 40
0.0
 40
0.0
 40
0.0
 40
0.0
 40
0.4046530715
 40
1.0
 40
1.0
 40
1.0
 40
1.0
 10
337.707971698
 20
176.449658896
 30
0.0
 10
337.707971698
 20
176.5020767743
 30
0.0
 10
337.7439797176
 20
176.6296998098
 30
0.0
 10
337.7993789131
 20
176.7462884153
 30
0.0
 10
337.8356217918
 20
176.8143614624
 30
0.0
  0
SPLINE
  5
7E6
100
AcDbEntity
  8
KONSTRUKTIONSELEMENTE
100
AcDbSpline
 62
7
  6
CONTINUOUS
 70
0
 71
3
 72
10
 73
6
 74
0
 42
0.0000001
 43
0.0000001
 44
0.0000000001
 40
0.0
 40
0.0
 40
0.0
 40
0.0
 40
0.371444044
 40
0.6586206829
 40
1.0
 40
1.0
 40
1.0
 40
1.0
 10
340.7641569701
 20
179.844735731
 30
0.0
 10
340.8151668279
 20
179.8741344898
 30
0.0
 10
340.9094603656
 20
179.9233715087
 30
0.0
 10
341.0504530582
 20
179.9797622718
 30
0.0
 10
341.1713857217
 20
179.9929953593
 30
0.0
 10
341.2111132924
 20
179.9562584954
 30
0.0
  0
SPLINE
  5
7E7
100
AcDbEntity
  8
KONSTRUKTIONSELEMENTE
100
AcDbSpline
 62
7
  6
CONTINUOUS
 70
0
 71
3
 72
21
 73
17
 74
0
 42
0.0000001
 43
0.0000001
 44
0.0000000001
 40
0.0
 40
0.0
 40
0.0
 40
0.0
 40
0.0294220707
 40
0.0723221796
 40
0.128270212
 40
0.1957493625
 40
0.3569194901
 40
0.5354427485
 40
0.7081562347
 40
0.7852637376
 40
0.8528295098
 40
0.9088459223
 40
0.951807463
 40
0.968259586
 40
0.9814568991
 40
1.0
 40
1.0
 40
1.0
 40
1.0
 10
340.8899522133
 20
180.2062287564
 30
0.0
 10
340.8899522133
 20
180.1560782624
 30
0.0
 10
340.8568020047
 20
180.0344963953
 30
0.0
 10
340.7647430841
 20
179.8366448708
 30
0.0
 10
340.6184818262
 20
179.5929369163
 30
0.0
 10
340.341430506
 20
179.1946670586
 30
0.0
 10
339.9017997561
 20
178.656264418
 30
0.0
 10
339.3049538045
 20
178.0180492041
 30
0.0
 10
338.7724831248
 20
177.5173882516
 30
0.0
 10
338.3561551243
 20
177.1716915854
 30
0.0
 10
338.0821516254
 20
176.9665446228
 30
0.0
 10
337.843632826
 20
176.8121601697
 30
0.0
 10
337.6683972407
 20
176.7214602838
 30
0.0
 10
337.5500648033
 20
176.6825162046
 30
0.0
 10
337.4702500469
 20
176.6677517119
 30
0.0
 10
337.4100166
 20
176.6781701312
 30
0.0
 10
337.3868106189
 20
176.6996291571
 30
0.0
  0
SPLINE
  5
7E8
100
AcDbEntity
  8
KONSTRUKTIONSELEMENTE
100
AcDbSpline
 62
7
  6
CONTINUOUS
 70
0
 71
3
 72
9
 73
5
 74
0
 42
0.0000001
 43
0.0000001
 44
0.0000000001
 40
0.0
 40
0.0
 40
0.0
 40
0.0
 40
0.5061516998
 40
1.0
 40
1.0
 40
1.0
 40
1.0
 10
341.7693808272
 20
172.4658817583
 30
0.0
 10
342.1761436705
 20
172.0729790228
 30
0.0
 10
342.8375737537
 20
171.1310066164
 30
0.0
 10
343.0707479074
 20
170.0022622441
 30
0.0
 10
343.0710766693
 20
169.4504753071
 30
0.0
  0
SPLINE
  5
7E9
100
AcDbEntity
  8
KONSTRUKTIONSELEMENTE
100
AcDbSpline
 62
7
  6
CONTINUOUS
 70
0
 71
3
 72
9
 73
5
 74
0
 42
0.0000001
 43
0.0000001
 44
0.0000000001
 40
0.0
 40
0.0
 40
0.0
 40
0.0
 40
0.4990961922
 40
1.0
 40
1.0
 40
1.0
 40
1.0
 10
348.0710961233
 20
169.4466347151
 30
0.0
 10
348.0707476253
 20
168.4332348029
 30
0.0
 10
347.7247392755
 20
166.3882900707
 30
0.0
 10
346.7227276973
 20
164.573713656
 30
0.0
 10
346.093020609
 20
163.7750266453
 30
0.0
  0
SPLINE
  5
7EA
100
AcDbEntity
  8
KONSTRUKTIONSELEMENTE
100
AcDbSpline
 62
7
  6
CONTINUOUS
 70
0
 71
3
 72
11
 73
7
 74
0
 42
0.0000001
 43
0.0000001
 44
0.0000000001
 40
0.0
 40
0.0
 40
0.0
 40
0.0
 40
0.250262514
 40
0.5008853759
 40
0.7509951573
 40
1.0
 40
1.0
 40
1.0
 40
1.0
 10
342.5029579523
 20
160.9866506807
 30
0.0
 10
341.6285285457
 20
160.5956926365
 30
0.0
 10
339.7499124089
 20
160.0719486558
 30
0.0
 10
336.8360641039
 20
160.1408300813
 30
0.0
 10
334.0711449287
 20
161.0489990798
 30
0.0
 10
332.4846504193
 20
162.173284456
 30
0.0
 10
331.7991752125
 20
162.8354026616
 30
0.0
  0
SPLINE
  5
7EB
100
AcDbEntity
  8
KONSTRUKTIONSELEMENTE
100
AcDbSpline
 62
7
  6
CONTINUOUS
 70
0
 71
3
 72
9
 73
5
 74
0
 42
0.0000001
 43
0.0000001
 44
0.0000000001
 40
0.0
 40
0.0
 40
0.0
 40
0.0
 40
0.5012747397
 40
1.0
 40
1.0
 40
1.0
 40
1.0
 10
345.3058639183
 20
176.0009717131
 30
0.0
 10
346.1700314961
 20
175.150452581
 30
0.0
 10
347.5783032543
 20
173.0967143035
 30
0.0
 10
348.0715109709
 20
170.6529728615
 30
0.0
 10
348.0710961233
 20
169.4466347151
 30
0.0
  0
SPLINE
  5
7EC
100
AcDbEntity
  8
KONSTRUKTIONSELEMENTE
100
AcDbSpline
 62
7
  6
CONTINUOUS
 70
0
 71
3
 72
9
 73
5
 74
0
 42
0.0000001
 43
0.0000001
 44
0.0000000001
 40
0.0
 40
0.0
 40
0.0
 40
0.0
 40
0.5050460752
 40
1.0
 40
1.0
 40
1.0
 40
1.0
 10
338.9451168794
 20
165.1577843376
 30
0.0
 10
338.2915415059
 20
165.0996843889
 30
0.0
 10
336.9589397825
 20
165.25376732
 30
0.0
 10
335.8026282565
 20
165.9376229026
 30
0.0
 10
335.3319181863
 20
166.375725422
 30
0.0
  0
SPLINE
  5
7ED
100
AcDbEntity
  8
KONSTRUKTIONSELEMENTE
100
AcDbSpline
 62
7
  6
CONTINUOUS
 70
0
 71
3
 72
11
 73
7
 74
0
 42
0.0000001
 43
0.0000001
 44
0.0000000001
 40
0.0
 40
0.0
 40
0.0
 40
0.0
 40
0.2482337156
 40
0.500955749
 40
0.7531052982
 40
1.0
 40
1.0
 40
1.0
 40
1.0
 10
327.1112885098
 20
180.8199961041
 30
0.0
 10
327.5437503417
 20
181.1784898942
 30
0.0
 10
328.5626317201
 20
181.7410517415
 30
0.0
 10
330.2851640405
 20
181.9862837772
 30
0.0
 10
331.9823573865
 20
181.6166679847
 30
0.0
 10
332.952962354
 20
180.9818880569
 30
0.0
 10
333.3548101311
 20
180.5937329108
 30
0.0
  0
SPLINE
  5
7EE
100
AcDbEntity
  8
KONSTRUKTIONSELEMENTE
100
AcDbSpline
 62
7
  6
CONTINUOUS
 70
0
 71
3
 72
9
 73
5
 74
0
 42
0.0000001
 43
0.0000001
 44
0.0000000001
 40
0.0
 40
0.0
 40
0.0
 40
0.0
 40
0.5012894406
 40
1.0
 40
1.0
 40
1.0
 40
1.0
 10
323.3846045163
 20
170.9632538141
 30
0.0
 10
322.5021518428
 20
171.815637642
 30
0.0
 10
321.0614906299
 20
173.8849386903
 30
0.0
 10
320.5562024256
 20
176.3581867886
 30
0.0
 10
320.5566221732
 20
177.5787738407
 30
0.0
  0
SPLINE
  5
7EF
100
AcDbEntity
  8
KONSTRUKTIONSELEMENTE
100
AcDbSpline
 62
7
  6
CONTINUOUS
 70
0
 71
3
 72
13
 73
9
 74
0
 42
0.0000001
 43
0.0000001
 44
0.0000000001
 40
0.0
 40
0.0
 40
0.0
 40
0.0
 40
0.1246872084
 40
0.249825705
 40
0.49981089
 40
0.7499026556
 40
0.8751888276
 40
1.0
 40
1.0
 40
1.0
 40
1.0
 10
322.9754637568
 20
183.7693115261
 30
0.0
 10
323.406434917
 20
184.2408527201
 30
0.0
 10
324.3697948366
 20
185.0998741334
 30
0.0
 10
326.5950447026
 20
186.394634886
 30
0.0
 10
329.8030395132
 20
187.14158491
 30
0.0
 10
333.0508198994
 20
186.5896751183
 30
0.0
 10
335.3526808686
 20
185.4325764191
 30
0.0
 10
336.368614169
 20
184.6342631115
 30
0.0
 10
336.8285430841
 20
184.1900058942
 30
0.0
  0
SPLINE
  5
7F0
100
AcDbEntity
  8
KONSTRUKTIONSELEMENTE
100
AcDbSpline
 62
7
  6
CONTINUOUS
 70
0
 71
3
 72
21
 73
17
 74
0
 42
0.0000001
 43
0.0000001
 44
0.0000000001
 40
0.0
 40
0.0
 40
0.0
 40
0.0
 40
0.0294220707
 40
0.0723221796
 40
0.128270212
 40
0.1957493625
 40
0.3569194901
 40
0.5354427485
 40
0.7081562347
 40
0.7852637376
 40
0.8528295098
 40
0.9088459223
 40
0.951807463
 40
0.968259586
 40
0.9814568991
 40
1.0
 40
1.0
 40
1.0
 40
1.0
 10
341.2435056039
 20
179.8647224055
 30
0.0
 10
341.2435056039
 20
179.8145719114
 30
0.0
 10
341.2103553953
 20
179.6929900444
 30
0.0
 10
341.1182964747
 20
179.4951385198
 30
0.0
 10
340.9720352168
 20
179.2514305653
 30
0.0
 10
340.6949838966
 20
178.8531607077
 30
0.0
 10
340.2553531467
 20
178.314758067
 30
0.0
 10
339.6585071951
 20
177.6765428532
 30
0.0
 10
339.1260365154
 20
177.1758819007
 30
0.0
 10
338.7097085149
 20
176.8301852345
 30
0.0
 10
338.435705016
 20
176.6250382718
 30
0.0
 10
338.1971862166
 20
176.4706538187
 30
0.0
 10
338.0219506313
 20
176.3799539328
 30
0.0
 10
337.9036181939
 20
176.3410098536
 30
0.0
 10
337.8238034375
 20
176.3262453609
 30
0.0
 10
337.7635699906
 20
176.3366637803
 30
0.0
 10
337.7403640095
 20
176.3581228061
 30
0.0
  0
SPLINE
  5
7F1
100
AcDbEntity
  8
KONSTRUKTIONSELEMENTE
100
AcDbSpline
 62
7
  6
CONTINUOUS
 70
0
 71
3
 72
14
 73
10
 74
0
 42
0.0000001
 43
0.0000001
 44
0.0000000001
 40
0.0
 40
0.0
 40
0.0
 40
0.0
 40
0.24585177
 40
0.3588613228
 40
0.4700655894
 40
0.5853954014
 40
0.7113182501
 40
0.8509775931
 40
1.0
 40
1.0
 40
1.0
 40
1.0
 10
306.1968743126
 20
208.36687856
 30
0.0
 10
305.6380636925
 20
208.6904800425
 30
0.0
 10
304.8017233866
 20
209.1315535874
 30
0.0
 10
303.6511069819
 20
209.5827901738
 30
0.0
 10
302.7910615135
 20
209.8261223512
 30
0.0
 10
301.8701900905
 20
209.9534860029
 30
0.0
 10
300.8629197738
 20
209.9003391512
 30
0.0
 10
299.8110339235
 20
209.5696046815
 30
0.0
 10
299.1757686577
 20
209.1278730182
 30
0.0
 10
298.8945445938
 20
208.8556226878
 30
0.0
  0
SPLINE
  5
7F2
100
AcDbEntity
  8
KONSTRUKTIONSELEMENTE
100
AcDbSpline
 62
7
  6
CONTINUOUS
 70
0
 71
3
 72
17
 73
13
 74
0
 42
0.0000001
 43
0.0000001
 44
0.0000000001
 40
0.0
 40
0.0
 40
0.0
 40
0.0
 40
0.1669648669
 40
0.3236735358
 40
0.4659161063
 40
0.5906556236
 40
0.6971649102
 40
0.7898025498
 40
0.8353372451
 40
0.8845933001
 40
0.9399549185
 40
1.0
 40
1.0
 40
1.0
 40
1.0
 10
313.1377362844
 20
184.4904930143
 30
0.0
 10
314.0251306505
 20
183.633335878
 30
0.0
 10
315.7734138902
 20
182.0003141968
 30
0.0
 10
318.3764532063
 20
179.7455784226
 30
0.0
 10
320.8319721122
 20
177.8015352468
 30
0.0
 10
323.0910070991
 20
176.2118166223
 30
0.0
 10
325.1530526818
 20
174.99286401
 30
0.0
 10
326.8258864888
 20
174.2754174307
 30
0.0
 10
328.1848926481
 20
173.9820856142
 30
0.0
 10
329.3038170035
 20
173.9578768375
 30
0.0
 10
330.5012268745
 20
174.2600999398
 30
0.0
 10
331.2306215242
 20
174.7438580935
 30
0.0
 10
331.5494075187
 20
175.0524717702
 30
0.0
  0
SPLINE
  5
7F3
100
AcDbEntity
  8
KONSTRUKTIONSELEMENTE
100
AcDbSpline
 62
7
  6
CONTINUOUS
 70
0
 71
3
 72
13
 73
9
 74
0
 42
0.0000001
 43
0.0000001
 44
0.0000000001
 40
0.0
 40
0.0
 40
0.0
 40
0.0
 40
0.02094215
 40
0.0472808575
 40
0.1171870138
 40
0.2270178316
 40
0.5522301624
 40
1.0
 40
1.0
 40
1.0
 40
1.0
 10
303.724752316
 20
206.0171983544
 30
0.0
 10
303.7243741898
 20
206.02262634
 30
0.0
 10
303.7215814683
 20
206.0443638463
 30
0.0
 10
303.729062334
 20
205.9914752936
 30
0.0
 10
303.7396387282
 20
205.9558533302
 30
0.0
 10
303.7748115203
 20
205.816876618
 30
0.0
 10
303.8465575997
 20
205.6087317631
 30
0.0
 10
303.9218114734
 20
205.4188567007
 30
0.0
 10
303.967291039
 20
205.3117760876
 30
0.0
  0
SPLINE
  5
7F4
100
AcDbEntity
  8
KONSTRUKTIONSELEMENTE
100
AcDbSpline
 62
7
  6
CONTINUOUS
 70
0
 71
3
 72
9
 73
5
 74
0
 42
0.0000001
 43
0.0000001
 44
0.0000000001
 40
0.0
 40
0.0
 40
0.0
 40
0.0
 40
0.4754380711
 40
1.0
 40
1.0
 40
1.0
 40
1.0
 10
323.1406361197
 20
183.9134324053
 30
0.0
 10
322.1259780542
 20
185.2700681389
 30
0.0
 10
319.8782599972
 20
188.038743321
 30
0.0
 10
317.4822094966
 20
190.6783332982
 30
0.0
 10
316.1912863108
 20
192.0300811897
 30
0.0
  0
SPLINE
  5
7F5
100
AcDbEntity
  8
KONSTRUKTIONSELEMENTE
100
AcDbSpline
 62
7
  6
CONTINUOUS
 70
0
 71
3
 72
14
 73
10
 74
0
 42
0.0000001
 43
0.0000001
 44
0.0000000001
 40
0.0
 40
0.0
 40
0.0
 40
0.0
 40
0.1487755139
 40
0.2879319834
 40
0.4130990662
 40
0.5278266168
 40
0.6388745175
 40
0.752220382
 40
1.0
 40
1.0
 40
1.0
 40
1.0
 10
298.8945445938
 20
208.8556226878
 30
0.0
 10
298.6083170139
 20
208.5785285013
 30
0.0
 10
298.1383865457
 20
207.947016011
 30
0.0
 10
297.7743855781
 20
206.8871795046
 30
0.0
 10
297.696423056
 20
205.8668427162
 30
0.0
 10
297.8031517449
 20
204.9292600168
 30
0.0
 10
298.0293335639
 20
204.0477611328
 30
0.0
 10
298.4606427376
 20
202.8579044325
 30
0.0
 10
298.8895795551
 20
201.9879448545
 30
0.0
 10
299.2059083602
 20
201.404719582
 30
0.0
  0
SPLINE
  5
7F6
100
AcDbEntity
  8
KONSTRUKTIONSELEMENTE
100
AcDbSpline
 62
7
  6
CONTINUOUS
 70
0
 71
3
 72
15
 73
11
 74
0
 42
0.0000001
 43
0.0000001
 44
0.0000000001
 40
0.0
 40
0.0
 40
0.0
 40
0.0
 40
0.3492137388
 40
0.5082144171
 40
0.6523862283
 40
0.7783002807
 40
0.8821721843
 40
0.9589804931
 40
0.984782024
 40
1.0
 40
1.0
 40
1.0
 40
1.0
 10
317.3062158281
 20
188.8060205944
 30
0.0
 10
318.5289510404
 20
187.6249490741
 30
0.0
 10
320.350142262
 20
185.947891626
 30
0.0
 10
322.7833458207
 20
183.9061629193
 30
0.0
 10
324.4301044778
 20
182.6203058981
 30
0.0
 10
325.9119762597
 20
181.5614830499
 30
0.0
 10
327.17297212
 20
180.7618072235
 30
0.0
 10
328.0608292161
 20
180.2863607166
 30
0.0
 10
328.590260643
 20
180.0646604167
 30
0.0
 10
328.7802530901
 20
180.0021020003
 30
0.0
 10
328.8519686479
 20
179.9835254448
 30
0.0
  0
SPLINE
  5
7F7
100
AcDbEntity
  8
KONSTRUKTIONSELEMENTE
100
AcDbSpline
 62
7
  6
CONTINUOUS
 70
0
 71
3
 72
13
 73
9
 74
0
 42
0.0000001
 43
0.0000001
 44
0.0000000001
 40
0.0
 40
0.0
 40
0.0
 40
0.0
 40
0.1498874791
 40
0.2919721285
 40
0.4218090472
 40
0.540761172
 40
0.7645766969
 40
1.0
 40
1.0
 40
1.0
 40
1.0
 10
331.5494075187
 20
175.0524717702
 30
0.0
 10
331.8017580286
 20
175.2967698887
 30
0.0
 10
332.227903015
 20
175.8462753834
 30
0.0
 10
332.6011067316
 20
176.7728562052
 30
0.0
 10
332.7385777692
 20
177.6854143276
 30
0.0
 10
332.6936790503
 20
178.7968006853
 30
0.0
 10
332.3595554098
 20
180.1215858116
 30
0.0
 10
331.935372601
 20
181.1127941019
 30
0.0
 10
331.6962737874
 20
181.6099520259
 30
0.0
  0
SPLINE
  5
7F8
100
AcDbEntity
  8
KONSTRUKTIONSELEMENTE
100
AcDbSpline
 62
7
  6
CONTINUOUS
 70
0
 71
3
 72
9
 73
5
 74
0
 42
0.0000001
 43
0.0000001
 44
0.0000000001
 40
0.0
 40
0.0
 40
0.0
 40
0.0
 40
0.4745167273
 40
1.0
 40
1.0
 40
1.0
 40
1.0
 10
328.5093190076
 20
186.7413718743
 30
0.0
 10
327.2991206365
 20
188.4111471005
 30
0.0
 10
324.5776400319
 20
191.8060244813
 30
0.0
 10
321.6484444603
 20
195.0198840693
 30
0.0
 10
320.0614935972
 20
196.6621158765
 30
0.0
  0
SPLINE
  5
7F9
100
AcDbEntity
  8
0
100
AcDbSpline
 62
7
  6
CONTINUOUS
 70
0
 71
3
 72
9
 73
5
 74
0
 42
0.0000001
 43
0.0000001
 44
0.0000000001
 40
0.0
 40
0.0
 40
0.0
 40
0.0
 40
0.4874259717
 40
1.0
 40
1.0
 40
1.0
 40
1.0
 10
282.5286254549
 20
133.8358711317
 30
0.0
 10
283.0637702496
 20
133.5498422482
 30
0.0
 10
284.2328106488
 20
133.0941531266
 30
0.0
 10
285.456947252
 20
132.8425645875
 30
0.0
 10
286.0895100992
 20
132.758722157
 30
0.0
  0
SPLINE
  5
7FA
100
AcDbEntity
  8
0
100
AcDbSpline
 62
7
  6
CONTINUOUS
 70
0
 71
3
 72
11
 73
7
 74
0
 42
0.0000001
 43
0.0000001
 44
0.0000000001
 40
0.0
 40
0.0
 40
0.0
 40
0.0
 40
0.2513556333
 40
0.5016708514
 40
0.7510886351
 40
1.0
 40
1.0
 40
1.0
 40
1.0
 10
282.5286325297
 20
133.8358839591
 30
0.0
 10
281.6599353408
 20
134.3002653507
 30
0.0
 10
280.0398492524
 20
135.4612510709
 30
0.0
 10
278.1637855078
 20
137.7739326105
 30
0.0
 10
276.9762711357
 20
140.4951730202
 30
0.0
 10
276.7054717618
 20
142.4584895804
 30
0.0
 10
276.7054717618
 20
143.433941204
 30
0.0
  0
SPLINE
  5
7FB
100
AcDbEntity
  8
RUNDUNGEN
100
AcDbSpline
 62
7
  6
CONTINUOUS
 70
0
 71
3
 72
9
 73
5
 74
0
 42
0.0000001
 43
0.0000001
 44
0.0000000001
 40
0.0
 40
0.0
 40
0.0
 40
0.0
 40
0.4874259717
 40
1.0
 40
1.0
 40
1.0
 40
1.0
 10
294.8823180686
 20
133.8358711317
 30
0.0
 10
294.3471732739
 20
133.5498422482
 30
0.0
 10
293.1781328747
 20
133.0941531266
 30
0.0
 10
291.9539962715
 20
132.8425645875
 30
0.0
 10
291.3214334243
 20
132.758722157
 30
0.0
  0
SPLINE
  5
7FC
100
AcDbEntity
  8
RUNDUNGEN
100
AcDbSpline
 62
7
  6
CONTINUOUS
 70
0
 71
3
 72
11
 73
7
 74
0
 42
0.0000001
 43
0.0000001
 44
0.0000000001
 40
0.0
 40
0.0
 40
0.0
 40
0.0
 40
0.2513556333
 40
0.5016708514
 40
0.7510886351
 40
1.0
 40
1.0
 40
1.0
 40
1.0
 10
294.8823109938
 20
133.8358839591
 30
0.0
 10
295.7510081827
 20
134.3002653507
 30
0.0
 10
297.3710942711
 20
135.4612510709
 30
0.0
 10
299.2471580157
 20
137.7739326105
 30
0.0
 10
300.4346723878
 20
140.4951730202
 30
0.0
 10
300.7054717618
 20
142.4584895804
 30
0.0
 10
300.7054717618
 20
143.433941204
 30
0.0
  0
SPLINE
  5
7FD
100
AcDbEntity
  8
BEZUGSACHSEN
100
AcDbSpline
 62
7
  6
CONTINUOUS
 70
0
 71
3
 72
19
 73
15
 74
0
 42
0.0000001
 43
0.0000001
 44
0.0000000001
 40
0.0
 40
0.0
 40
0.0
 40
0.0
 40
0.0615778188
 40
0.1233173652
 40
0.1853624895
 40
0.2478005785
 40
0.3733221741
 40
0.5
 40
0.6266778259
 40
0.7521994215
 40
0.8146375105
 40
0.8766826348
 40
0.9384221812
 40
1.0
 40
1.0
 40
1.0
 40
1.0
 10
283.0148717618
 20
157.1124610299
 30
0.0
 10
283.0148717618
 20
156.7531498085
 30
0.0
 10
283.0884829511
 20
156.0314486378
 30
0.0
 10
283.4151226335
 20
154.9930078743
 30
0.0
 10
283.9456354179
 20
154.0359743228
 30
0.0
 10
284.8955277261
 20
152.9182257697
 30
0.0
 10
286.4819738818
 20
151.8975953674
 30
0.0
 10
288.7054717618
 20
151.4742268722
 30
0.0
 10
290.9289696417
 20
151.8975953674
 30
0.0
 10
292.5154157974
 20
152.9182257697
 30
0.0
 10
293.4653081056
 20
154.0359743228
 30
0.0
 10
293.99582089
 20
154.9930078743
 30
0.0
 10
294.3224605725
 20
156.0314486378
 30
0.0
 10
294.3960717618
 20
156.7531498085
 30
0.0
 10
294.3960717618
 20
157.1124610299
 30
0.0
  0
SPLINE
  5
7FE
100
AcDbEntity
  8
KONSTRUKTIONSELEMENTE
100
AcDbSpline
 62
7
  6
CONTINUOUS
 70
0
 71
3
 72
15
 73
11
 74
0
 42
0.0000001
 43
0.0000001
 44
0.0000000001
 40
0.0
 40
0.0
 40
0.0
 40
0.0
 40
0.1069982
 40
0.2203176601
 40
0.3397977279
 40
0.4649271459
 40
0.5948381365
 40
0.7283315371
 40
0.8639342933
 40
1.0
 40
1.0
 40
1.0
 40
1.0
 10
300.7054717618
 20
151.7322229869
 30
0.0
 10
300.7054717618
 20
151.1416023779
 30
0.0
 10
300.5694098312
 20
149.9220466588
 30
0.0
 10
299.9713748783
 20
148.1307329127
 30
0.0
 10
298.9721565879
 20
146.4106419077
 30
0.0
 10
297.5944583334
 20
144.8518783141
 30
0.0
 10
295.8848427705
 20
143.5360301671
 30
0.0
 10
293.9104212412
 20
142.53211235
 30
0.0
 10
291.7559548782
 20
141.8905516458
 30
0.0
 10
290.2563512367
 20
141.723206276
 30
0.0
 10
289.5054717618
 20
141.7062600088
 30
0.0
  0
SPLINE
  5
7FF
100
AcDbEntity
  8
0
100
AcDbSpline
 62
7
  6
CONTINUOUS
 70
0
 71
3
 72
8
 73
4
 74
0
 42
0.0000001
 43
0.0000001
 44
0.0000000001
 40
0.0
 40
0.0
 40
0.0
 40
0.0
 40
1.0
 40
1.0
 40
1.0
 40
1.0
 10
276.7054717618
 20
163.9081190779
 30
0.0
 10
276.7054717618
 20
163.9480779814
 30
0.0
 10
276.7169140262
 20
163.9893619929
 30
0.0
 10
276.7374134882
 20
164.023661935
 30
0.0
  0
SPLINE
  5
800
100
AcDbEntity
  8
RUNDUNGEN
100
AcDbSpline
 62
7
  6
CONTINUOUS
 70
0
 71
3
 72
8
 73
4
 74
0
 42
0.0000001
 43
0.0000001
 44
0.0000000001
 40
0.0
 40
0.0
 40
0.0
 40
0.0
 40
1.0
 40
1.0
 40
1.0
 40
1.0
 10
300.7054717618
 20
163.9081190779
 30
0.0
 10
300.7054717618
 20
163.9480779814
 30
0.0
 10
300.6940294973
 20
163.9893619929
 30
0.0
 10
300.6735300353
 20
164.023661935
 30
0.0
  0
SPLINE
  5
801
100
AcDbEntity
  8
0
100
AcDbSpline
 62
7
  6
CONTINUOUS
 70
0
 71
3
 72
15
 73
11
 74
0
 42
0.0000001
 43
0.0000001
 44
0.0000000001
 40
0.0
 40
0.0
 40
0.0
 40
0.0
 40
0.1069982
 40
0.2203176601
 40
0.3397977279
 40
0.4649271459
 40
0.5948381365
 40
0.7283315371
 40
0.8639342933
 40
1.0
 40
1.0
 40
1.0
 40
1.0
 10
276.7054717618
 20
151.7322229869
 30
0.0
 10
276.7054717618
 20
151.1416023779
 30
0.0
 10
276.8415336923
 20
149.9220466588
 30
0.0
 10
277.4395686452
 20
148.1307329127
 30
0.0
 10
278.4387869356
 20
146.4106419077
 30
0.0
 10
279.8164851901
 20
144.8518783141
 30
0.0
 10
281.526100753
 20
143.5360301671
 30
0.0
 10
283.5005222823
 20
142.53211235
 30
0.0
 10
285.6549886453
 20
141.8905516458
 30
0.0
 10
287.1545922868
 20
141.723206276
 30
0.0
 10
287.9054717618
 20
141.7062600088
 30
0.0
  0
SPLINE
  5
802
100
AcDbEntity
  8
0
100
AcDbSpline
 62
7
  6
CONTINUOUS
 70
0
 71
3
 72
9
 73
5
 74
0
 42
0.0000001
 43
0.0000001
 44
0.0000000001
 40
0.0
 40
0.0
 40
0.0
 40
0.0
 40
0.5000000008
 40
1.0
 40
1.0
 40
1.0
 40
1.0
 10
290.7104804176
 20
206.1009524875
 30
0.0
 10
291.0470095505
 20
203.9896116898
 30
0.0
 10
291.4106006402
 20
199.7079527353
 30
0.0
 10
291.0470095494
 20
195.4262937811
 30
0.0
 10
290.7104804176
 20
193.3149529904
 30
0.0
  0
SPLINE
  5
803
100
AcDbEntity
  8
0
100
AcDbSpline
 62
7
  6
CONTINUOUS
 70
0
 71
3
 72
14
 73
10
 74
0
 42
0.0000001
 43
0.0000001
 44
0.0000000001
 40
0.0
 40
0.0
 40
0.0
 40
0.0
 40
0.0530203222
 40
0.1277196065
 40
0.2271490675
 40
0.3499340678
 40
0.4928855102
 40
0.6519428582
 40
1.0
 40
1.0
 40
1.0
 40
1.0
 10
276.7374134882
 20
164.023661935
 30
0.0
 10
276.7706735538
 20
164.0793130696
 30
0.0
 10
276.903315958
 20
164.1778782848
 30
0.0
 10
277.1710504653
 20
164.2549336413
 30
0.0
 10
277.53330515
 20
164.2961403463
 30
0.0
 10
277.9803042543
 20
164.2957233932
 30
0.0
 10
278.4986139454
 20
164.2555276636
 30
0.0
 10
279.2862707986
 20
164.1462941466
 30
0.0
 10
279.8934475271
 20
164.0147587968
 30
0.0
 10
280.3054717618
 20
163.9081190779
 30
0.0
  0
SPLINE
  5
804
100
AcDbEntity
  8
0
100
AcDbSpline
 62
7
  6
CONTINUOUS
 70
0
 71
3
 72
11
 73
7
 74
0
 42
0.0000001
 43
0.0000001
 44
0.0000000001
 40
0.0
 40
0.0
 40
0.0
 40
0.0
 40
0.2517747099
 40
0.5000000008
 40
0.7482252915
 40
1.0
 40
1.0
 40
1.0
 40
1.0
 10
290.7104804176
 20
213.482952739
 30
0.0
 10
290.877351391
 20
212.8785090533
 30
0.0
 10
291.1382022844
 20
211.6567624676
 30
0.0
 10
291.2737849128
 20
209.7919526076
 30
0.0
 10
291.1382022857
 20
207.9271427508
 30
0.0
 10
290.87735139
 20
206.7053961698
 30
0.0
 10
290.7104804176
 20
206.1009524875
 30
0.0
  0
SPLINE
  5
805
100
AcDbEntity
  8
RUNDUNGEN
100
AcDbSpline
 62
7
  6
CONTINUOUS
 70
0
 71
3
 72
14
 73
10
 74
0
 42
0.0000001
 43
0.0000001
 44
0.0000000001
 40
0.0
 40
0.0
 40
0.0
 40
0.0
 40
0.0530203222
 40
0.1277196065
 40
0.2271490675
 40
0.3499340678
 40
0.4928855102
 40
0.6519428582
 40
1.0
 40
1.0
 40
1.0
 40
1.0
 10
300.6735300353
 20
164.023661935
 30
0.0
 10
300.6402699697
 20
164.0793130696
 30
0.0
 10
300.5076275655
 20
164.1778782848
 30
0.0
 10
300.2398930582
 20
164.2549336413
 30
0.0
 10
299.8776383735
 20
164.2961403463
 30
0.0
 10
299.4306392692
 20
164.2957233932
 30
0.0
 10
298.9123295781
 20
164.2555276636
 30
0.0
 10
298.1246727249
 20
164.1462941466
 30
0.0
 10
297.5174959964
 20
164.0147587968
 30
0.0
 10
297.1054717618
 20
163.9081190779
 30
0.0
  0
SPLINE
  5
806
100
AcDbEntity
  8
0
100
AcDbSpline
 62
7
  6
CONTINUOUS
 70
0
 71
3
 72
9
 73
5
 74
0
 42
0.0000001
 43
0.0000001
 44
0.0000000001
 40
0.0
 40
0.0
 40
0.0
 40
0.0
 40
0.213435322
 40
1.0
 40
1.0
 40
1.0
 40
1.0
 10
282.7823169507
 20
178.1835504751
 30
0.0
 10
282.8113296783
 20
178.1877480772
 30
0.0
 10
282.9487662895
 20
178.1971391252
 30
0.0
 10
283.0864979668
 20
178.1720262238
 30
0.0
 10
283.1907658794
 20
178.1437548863
 30
0.0
  0
SPLINE
  5
807
100
AcDbEntity
  8
RUNDUNGEN
100
AcDbSpline
 62
7
  6
CONTINUOUS
 70
0
 71
3
 72
9
 73
5
 74
0
 42
0.0000001
 43
0.0000001
 44
0.0000000001
 40
0.0
 40
0.0
 40
0.0
 40
0.0
 40
0.213435322
 40
1.0
 40
1.0
 40
1.0
 40
1.0
 10
294.6286265728
 20
178.1835504751
 30
0.0
 10
294.5996138452
 20
178.1877480772
 30
0.0
 10
294.462177234
 20
178.1971391252
 30
0.0
 10
294.3244455567
 20
178.1720262238
 30
0.0
 10
294.2201776441
 20
178.1437548863
 30
0.0
  0
SPLINE
  5
808
100
AcDbEntity
  8
BEZUGSACHSEN
100
AcDbSpline
 62
7
  6
CONTINUOUS
 70
0
 71
3
 72
19
 73
15
 74
0
 42
0.0000001
 43
0.0000001
 44
0.0000000001
 40
0.0
 40
0.0
 40
0.0
 40
0.0
 40
0.0615637168
 40
0.1233167015
 40
0.1853986847
 40
0.2478631715
 40
0.3734162268
 40
0.5
 40
0.6265837732
 40
0.7521368285
 40
0.8146013153
 40
0.8766832985
 40
0.9384362832
 40
1.0
 40
1.0
 40
1.0
 40
1.0
 10
294.3683569303
 20
157.2398162548
 30
0.0
 10
294.3339787875
 20
157.5752846325
 30
0.0
 10
294.2006529955
 20
158.2424143353
 30
0.0
 10
293.8150012666
 20
159.1880727888
 30
0.0
 10
293.256585997
 20
160.0496511367
 30
0.0
 10
292.3080880153
 20
161.0472381551
 30
0.0
 10
290.7904074213
 20
161.9475913255
 30
0.0
 10
288.7054717618
 20
162.3194688311
 30
0.0
 10
286.6205361022
 20
161.9475913255
 30
0.0
 10
285.1028555082
 20
161.0472381551
 30
0.0
 10
284.1543575265
 20
160.0496511367
 30
0.0
 10
283.5959422569
 20
159.1880727888
 30
0.0
 10
283.210290528
 20
158.2424143353
 30
0.0
 10
283.076964736
 20
157.5752846325
 30
0.0
 10
283.0425865932
 20
157.2398162548
 30
0.0
  0
SPLINE
  5
809
100
AcDbEntity
  8
KONSTRUKTIONSELEMENTE
100
AcDbSpline
 62
7
  6
CONTINUOUS
 70
0
 71
3
 72
15
 73
11
 74
0
 42
0.0000001
 43
0.0000001
 44
0.0000000001
 40
0.0
 40
0.0
 40
0.0
 40
0.0
 40
0.1248309587
 40
0.2497423057
 40
0.3747543653
 40
0.4998706216
 40
0.6250805387
 40
0.7503042645
 40
0.8753748171
 40
1.0
 40
1.0
 40
1.0
 40
1.0
 10
289.5054717618
 20
133.5670628402
 30
0.0
 10
290.1816552476
 20
133.5518023538
 30
0.0
 10
291.5409483671
 20
133.650508728
 30
0.0
 10
293.5125617817
 20
134.1832828812
 30
0.0
 10
295.3493179253
 20
135.0811827799
 30
0.0
 10
296.9850558903
 20
136.3096189649
 30
0.0
 10
298.3653337985
 20
137.8203592807
 30
0.0
 10
299.4490813416
 20
139.555243342
 30
0.0
 10
300.2109909691
 20
141.4487501447
 30
0.0
 10
300.4999799701
 20
142.7777340594
 30
0.0
 10
300.5901728804
 20
143.446924088
 30
0.0
  0
SPLINE
  5
80A
100
AcDbEntity
  8
0
100
AcDbSpline
 62
7
  6
CONTINUOUS
 70
0
 71
3
 72
19
 73
15
 74
0
 42
0.0000001
 43
0.0000001
 44
0.0000000001
 40
0.0
 40
0.0
 40
0.0
 40
0.0
 40
0.2532552319
 40
0.3791581408
 40
0.5039318497
 40
0.565937596
 40
0.6276024341
 40
0.6889416372
 40
0.7500500236
 40
0.8111955017
 40
0.8421521402
 40
0.87338704
 40
0.9363343012
 40
1.0
 40
1.0
 40
1.0
 40
1.0
 10
286.0895100372
 20
142.800901123
 30
0.0
 10
285.1895801007
 20
142.967285187
 30
0.0
 10
283.862399132
 20
143.4095785619
 30
0.0
 10
282.3268467993
 20
144.4021775673
 30
0.0
 10
281.5088601124
 20
145.1971152712
 30
0.0
 10
280.9906830012
 20
145.9332265411
 30
0.0
 10
280.6875234712
 20
146.5322510315
 30
0.0
 10
280.4942028616
 20
147.1733471731
 30
0.0
 10
280.4467871877
 20
147.8418013264
 30
0.0
 10
280.5793869472
 20
148.3936145007
 30
0.0
 10
280.815328734
 20
148.7759785171
 30
0.0
 10
281.1380186173
 20
149.0988833231
 30
0.0
 10
281.6738304491
 20
149.3429997046
 30
0.0
 10
282.1345314327
 20
149.3833157531
 30
0.0
 10
282.3645984768
 20
149.3833157531
 30
0.0
  0
SPLINE
  5
80B
100
AcDbEntity
  8
RUNDUNGEN
100
AcDbSpline
 62
7
  6
CONTINUOUS
 70
0
 71
3
 72
19
 73
15
 74
0
 42
0.0000001
 43
0.0000001
 44
0.0000000001
 40
0.0
 40
0.0
 40
0.0
 40
0.0
 40
0.2532552319
 40
0.3791581408
 40
0.5039318497
 40
0.565937596
 40
0.6276024341
 40
0.6889416372
 40
0.7500500236
 40
0.8111955017
 40
0.8421521402
 40
0.87338704
 40
0.9363343012
 40
1.0
 40
1.0
 40
1.0
 40
1.0
 10
291.3214334863
 20
142.800901123
 30
0.0
 10
292.2213634228
 20
142.967285187
 30
0.0
 10
293.5485443915
 20
143.4095785619
 30
0.0
 10
295.0840967242
 20
144.4021775673
 30
0.0
 10
295.9020834111
 20
145.1971152712
 30
0.0
 10
296.4202605223
 20
145.9332265411
 30
0.0
 10
296.7234200523
 20
146.5322510315
 30
0.0
 10
296.9167406619
 20
147.1733471731
 30
0.0
 10
296.9641563358
 20
147.8418013264
 30
0.0
 10
296.8315565763
 20
148.3936145007
 30
0.0
 10
296.5956147895
 20
148.7759785171
 30
0.0
 10
296.2729249062
 20
149.0988833231
 30
0.0
 10
295.7371130744
 20
149.3429997046
 30
0.0
 10
295.2764120908
 20
149.3833157531
 30
0.0
 10
295.0463450467
 20
149.3833157531
 30
0.0
  0
SPLINE
  5
80C
100
AcDbEntity
  8
0
100
AcDbSpline
 62
7
  6
CONTINUOUS
 70
0
 71
3
 72
14
 73
10
 74
0
 42
0.0000001
 43
0.0000001
 44
0.0000000001
 40
0.0
 40
0.0
 40
0.0
 40
0.0
 40
0.3480571418
 40
0.5071144898
 40
0.6500659322
 40
0.7728509325
 40
0.8722803935
 40
0.9469796778
 40
1.0
 40
1.0
 40
1.0
 40
1.0
 10
283.3054717618
 20
168.9272169003
 30
0.0
 10
282.8934475271
 20
169.0338566193
 30
0.0
 10
282.2862707986
 20
169.1653919691
 30
0.0
 10
281.4986139454
 20
169.274625486
 30
0.0
 10
280.9803042543
 20
169.3148212156
 30
0.0
 10
280.53330515
 20
169.3152381688
 30
0.0
 10
280.1710504653
 20
169.2740314637
 30
0.0
 10
279.903315958
 20
169.1969761073
 30
0.0
 10
279.7706735538
 20
169.098410892
 30
0.0
 10
279.7374134882
 20
169.0427597574
 30
0.0
  0
SPLINE
  5
80D
100
AcDbEntity
  8
0
100
AcDbSpline
 62
7
  6
CONTINUOUS
 70
0
 71
3
 72
15
 73
11
 74
0
 42
0.0000001
 43
0.0000001
 44
0.0000000001
 40
0.0
 40
0.0
 40
0.0
 40
0.0
 40
0.123850099
 40
0.2486155812
 40
0.374107491
 40
0.5
 40
0.625892509
 40
0.7513844188
 40
0.876149901
 40
1.0
 40
1.0
 40
1.0
 40
1.0
 10
281.0680814185
 20
143.9245984376
 30
0.0
 10
281.5282015384
 20
143.3772000187
 30
0.0
 10
282.5790732997
 20
142.3789066229
 30
0.0
 10
284.4467085667
 20
141.261321756
 30
0.0
 10
286.522977924
 20
140.5679577527
 30
0.0
 10
288.7054717618
 20
140.3332439691
 30
0.0
 10
290.8879655995
 20
140.5679577527
 30
0.0
 10
292.9642349568
 20
141.261321756
 30
0.0
 10
294.8318702238
 20
142.3789066229
 30
0.0
 10
295.8827419851
 20
143.3772000187
 30
0.0
 10
296.342862105
 20
143.9245984376
 30
0.0
  0
SPLINE
  5
80E
100
AcDbEntity
  8
0
100
AcDbSpline
 62
7
  6
CONTINUOUS
 70
0
 71
3
 72
15
 73
11
 74
0
 42
0.0000001
 43
0.0000001
 44
0.0000000001
 40
0.0
 40
0.0
 40
0.0
 40
0.0
 40
0.1249484361
 40
0.249985754
 40
0.3751374232
 40
0.5004074281
 40
0.625753134
 40
0.7510313972
 40
0.875941774
 40
1.0
 40
1.0
 40
1.0
 40
1.0
 10
287.9054717618
 20
133.5670628402
 30
0.0
 10
287.1566680402
 20
133.5501634198
 30
0.0
 10
285.6500877614
 20
133.6750790583
 30
0.0
 10
283.48299815
 20
134.3332945395
 30
0.0
 10
281.4995632595
 20
135.4322034422
 30
0.0
 10
279.7864807632
 20
136.9195012563
 30
0.0
 10
278.4112226677
 20
138.7236957174
 30
0.0
 10
277.4194634739
 20
140.7605057359
 30
0.0
 10
276.8316699596
 20
142.9382762584
 30
0.0
 10
276.7054717618
 20
144.4341802765
 30
0.0
 10
276.7054717618
 20
145.177838371
 30
0.0
  0
SPLINE
  5
80F
100
AcDbEntity
  8
RUNDUNGEN
100
AcDbSpline
 62
7
  6
CONTINUOUS
 70
0
 71
3
 72
14
 73
10
 74
0
 42
0.0000001
 43
0.0000001
 44
0.0000000001
 40
0.0
 40
0.0
 40
0.0
 40
0.0
 40
0.3480571418
 40
0.5071144898
 40
0.6500659322
 40
0.7728509325
 40
0.8722803935
 40
0.9469796778
 40
1.0
 40
1.0
 40
1.0
 40
1.0
 10
294.1054717618
 20
168.9272169003
 30
0.0
 10
294.5174959964
 20
169.0338566193
 30
0.0
 10
295.1246727249
 20
169.1653919691
 30
0.0
 10
295.9123295781
 20
169.274625486
 30
0.0
 10
296.4306392692
 20
169.3148212156
 30
0.0
 10
296.8776383735
 20
169.3152381688
 30
0.0
 10
297.2398930582
 20
169.2740314637
 30
0.0
 10
297.5076275655
 20
169.1969761073
 30
0.0
 10
297.6402699697
 20
169.098410892
 30
0.0
 10
297.6735300353
 20
169.0427597574
 30
0.0
  0
SPLINE
  5
810
100
AcDbEntity
  8
BEZUGSACHSEN
100
AcDbSpline
 62
7
  6
CONTINUOUS
 70
0
 71
3
 72
19
 73
15
 74
0
 42
0.0000001
 43
0.0000001
 44
0.0000000001
 40
0.0
 40
0.0
 40
0.0
 40
0.0
 40
0.0615778188
 40
0.1233173652
 40
0.1853624895
 40
0.2478005785
 40
0.3733221741
 40
0.5
 40
0.6266778259
 40
0.7521994215
 40
0.8146375105
 40
0.8766826348
 40
0.9384221812
 40
1.0
 40
1.0
 40
1.0
 40
1.0
 10
294.3960717618
 20
157.1124610299
 30
0.0
 10
294.3960717618
 20
157.4717722513
 30
0.0
 10
294.3224605725
 20
158.1934734221
 30
0.0
 10
293.99582089
 20
159.2319141855
 30
0.0
 10
293.4653081056
 20
160.1889477371
 30
0.0
 10
292.5154157974
 20
161.3066962902
 30
0.0
 10
290.9289696417
 20
162.3273266924
 30
0.0
 10
288.7054717618
 20
162.7506951876
 30
0.0
 10
286.4819738818
 20
162.3273266924
 30
0.0
 10
284.8955277261
 20
161.3066962902
 30
0.0
 10
283.9456354179
 20
160.1889477371
 30
0.0
 10
283.4151226335
 20
159.2319141855
 30
0.0
 10
283.0884829511
 20
158.1934734221
 30
0.0
 10
283.0148717618
 20
157.4717722513
 30
0.0
 10
283.0148717618
 20
157.1124610299
 30
0.0
  0
SPLINE
  5
811
100
AcDbEntity
  8
0
100
AcDbSpline
 62
7
  6
CONTINUOUS
 70
0
 71
3
 72
11
 73
7
 74
0
 42
0.0000001
 43
0.0000001
 44
0.0000000001
 40
0.0
 40
0.0
 40
0.0
 40
0.0
 40
0.2517747099
 40
0.5000000008
 40
0.7482252915
 40
1.0
 40
1.0
 40
1.0
 40
1.0
 10
286.7004631059
 20
213.482952739
 30
0.0
 10
286.5335921325
 20
212.8785090533
 30
0.0
 10
286.2727412391
 20
211.6567624676
 30
0.0
 10
286.1371586107
 20
209.7919526076
 30
0.0
 10
286.2727412378
 20
207.9271427508
 30
0.0
 10
286.5335921335
 20
206.7053961698
 30
0.0
 10
286.7004631059
 20
206.1009524875
 30
0.0
  0
SPLINE
  5
812
100
AcDbEntity
  8
0
100
AcDbSpline
 62
7
  6
CONTINUOUS
 70
0
 71
3
 72
9
 73
5
 74
0
 42
0.0000001
 43
0.0000001
 44
0.0000000001
 40
0.0
 40
0.0
 40
0.0
 40
0.0
 40
0.5000000008
 40
1.0
 40
1.0
 40
1.0
 40
1.0
 10
286.7004631059
 20
206.1009524875
 30
0.0
 10
286.363933973
 20
203.9896116898
 30
0.0
 10
286.0003428833
 20
199.7079527353
 30
0.0
 10
286.3639339741
 20
195.4262937811
 30
0.0
 10
286.7004631059
 20
193.3149529904
 30
0.0
  0
SPLINE
  5
813
100
AcDbEntity
  8
BEZUGSACHSEN
100
AcDbSpline
 62
7
  6
CONTINUOUS
 70
0
 71
3
 72
18
 73
14
 74
0
 42
0.0000001
 43
0.0000001
 44
0.0000000001
 40
0.0
 40
0.0
 40
0.0
 40
0.0
 40
0.1778989221
 40
0.3545513497
 40
0.5217906006
 40
0.6719119382
 40
0.7981965821
 40
0.8507100399
 40
0.8954826799
 40
0.9322654265
 40
0.9611594147
 40
0.9829542772
 40
1.0
 40
1.0
 40
1.0
 40
1.0
 10
406.2820244647
 20
106.117763012
 30
0.0
 10
406.0198688482
 20
106.3709858925
 30
0.0
 10
405.5078374107
 20
106.8865811026
 30
0.0
 10
404.7849018998
 20
107.6744885841
 30
0.0
 10
404.1321058148
 20
108.4484682211
 30
0.0
 10
403.5805366425
 20
109.1713649145
 30
0.0
 10
403.205284092
 20
109.7321190436
 30
0.0
 10
402.9802090179
 20
110.1313507717
 30
0.0
 10
402.8612737906
 20
110.3792050847
 30
0.0
 10
402.7821706919
 20
110.5917900394
 30
0.0
 10
402.7439454818
 20
110.7676064247
 30
0.0
 10
402.7452831641
 20
110.9086179803
 30
0.0
 10
402.7831873286
 20
110.9838621215
 30
0.0
 10
402.8083067228
 20
111.0081246799
 30
0.0
  0
SPLINE
  5
814
100
AcDbEntity
  8
RUNDUNGEN
100
AcDbSpline
 62
7
  6
CONTINUOUS
 70
0
 71
3
 72
14
 73
10
 74
0
 42
0.0000001
 43
0.0000001
 44
0.0000000001
 40
0.0
 40
0.0
 40
0.0
 40
0.0
 40
0.0546650285
 40
0.1355376427
 40
0.2415140182
 40
0.3693734414
 40
0.5146684856
 40
0.672125956
 40
1.0
 40
1.0
 40
1.0
 40
1.0
 10
454.8755653406
 20
66.5563496746
 30
0.0
 10
454.8755653406
 20
66.6430837665
 30
0.0
 10
454.8148141056
 20
66.8547858826
 30
0.0
 10
454.6480505001
 20
67.1987405505
 30
0.0
 10
454.3847123483
 20
67.6245371052
 30
0.0
 10
454.0348729525
 20
68.1139337639
 30
0.0
 10
453.6100235118
 20
68.6494372089
 30
0.0
 10
452.9561689785
 20
69.4070026316
 30
0.0
 10
452.421309057
 20
69.9622553837
 30
0.0
 10
452.0471382158
 20
70.3236766626
 30
0.0
  0
SPLINE
  5
815
100
AcDbEntity
  8
RUNDUNGEN
100
AcDbSpline
 62
7
  6
CONTINUOUS
 70
0
 71
3
 72
12
 73
8
 74
0
 42
0.0000001
 43
0.0000001
 44
0.0000000001
 40
0.0
 40
0.0
 40
0.0
 40
0.0
 40
0.0611670511
 40
0.1416527351
 40
0.3611634952
 40
0.6520783701
 40
1.0
 40
1.0
 40
1.0
 40
1.0
 10
447.8044975287
 20
64.3406760463
 30
0.0
 10
447.8044975287
 20
64.3890005053
 30
0.0
 10
447.7847779399
 20
64.5005334602
 30
0.0
 10
447.6891677411
 20
64.7697532685
 30
0.0
 10
447.4633657908
 20
65.1810798386
 30
0.0
 10
447.0830824598
 20
65.7425688232
 30
0.0
 10
446.7724492725
 20
66.1409962933
 30
0.0
 10
446.5983895547
 20
66.3537354874
 30
0.0
  0
SPLINE
  5
816
100
AcDbEntity
  8
RUNDUNGEN
100
AcDbSpline
 62
7
  6
CONTINUOUS
 70
0
 71
3
 72
11
 73
7
 74
0
 42
0.0000001
 43
0.0000001
 44
0.0000000001
 40
0.0
 40
0.0
 40
0.0
 40
0.0
 40
0.3831246355
 40
0.676832755
 40
0.8769472571
 40
1.0
 40
1.0
 40
1.0
 40
1.0
 10
398.1785580205
 20
107.9782234459
 30
0.0
 10
398.1381815958
 20
108.0068758521
 30
0.0
 10
398.0655452983
 20
108.0557030377
 30
0.0
 10
397.9643240442
 20
108.1079368304
 30
0.0
 10
397.8895703242
 20
108.1346859977
 30
0.0
 10
397.8429894973
 20
108.1278453023
 30
0.0
 10
397.8315553959
 20
108.1167943478
 30
0.0
  0
SPLINE
  5
817
100
AcDbEntity
  8
RUNDUNGEN
100
AcDbSpline
 62
7
  6
CONTINUOUS
 70
0
 71
3
 72
11
 73
7
 74
0
 42
0.0000001
 43
0.0000001
 44
0.0000000001
 40
0.0
 40
0.0
 40
0.0
 40
0.0
 40
0.2855242273
 40
0.5744465678
 40
0.8243990606
 40
1.0
 40
1.0
 40
1.0
 40
1.0
 10
411.4556170206
 20
109.3059199348
 30
0.0
 10
411.3592354569
 20
109.4237193685
 30
0.0
 10
411.1550155584
 20
109.6522438004
 30
0.0
 10
410.8406398345
 20
109.9602703839
 30
0.0
 10
410.5486760702
 20
110.2041534042
 30
0.0
 10
410.3594271719
 20
110.3332221186
 30
0.0
 10
410.273847717
 20
110.3711498526
 30
0.0
  0
SPLINE
  5
818
100
AcDbEntity
  8
RUNDUNGEN
100
AcDbSpline
 62
7
  6
CONTINUOUS
 70
0
 71
3
 72
9
 73
5
 74
0
 42
0.0000001
 43
0.0000001
 44
0.0000000001
 40
0.0
 40
0.0
 40
0.0
 40
0.0
 40
0.5394967105
 40
1.0
 40
1.0
 40
1.0
 40
1.0
 10
447.2820836132
 20
74.926365967
 30
0.0
 10
447.0064328013
 20
75.1926242052
 30
0.0
 10
446.4820294656
 20
75.6723460082
 30
0.0
 10
445.9265471416
 20
76.116860805
 30
0.0
 10
445.6597644625
 20
76.3061783523
 30
0.0
  0
SPLINE
  5
819
100
AcDbEntity
  8
0
100
AcDbSpline
 62
7
  6
CONTINUOUS
 70
0
 71
3
 72
11
 73
7
 74
0
 42
0.0000001
 43
0.0000001
 44
0.0000000001
 40
0.0
 40
0.0
 40
0.0
 40
0.0
 40
0.3277429657
 40
0.6065413602
 40
0.8313357058
 40
1.0
 40
1.0
 40
1.0
 40
1.0
 10
433.0141571208
 20
80.7320308317
 30
0.0
 10
432.8021806757
 20
80.8933548305
 30
0.0
 10
432.4034859132
 20
81.1836138663
 30
0.0
 10
431.8340075032
 20
81.5487328961
 30
0.0
 10
431.3504933367
 20
81.8037651588
 30
0.0
 10
431.0479831141
 20
81.9156127868
 30
0.0
 10
430.9137076218
 20
81.9432319353
 30
0.0
  0
SPLINE
  5
81A
100
AcDbEntity
  8
0
100
AcDbSpline
 62
7
  6
CONTINUOUS
 70
0
 71
3
 72
9
 73
5
 74
0
 42
0.0000001
 43
0.0000001
 44
0.0000000001
 40
0.0
 40
0.0
 40
0.0
 40
0.0
 40
0.5747335104
 40
1.0
 40
1.0
 40
1.0
 40
1.0
 10
430.8986907151
 20
81.9462201876
 30
0.0
 10
430.8203009642
 20
81.9612865713
 30
0.0
 10
430.6799385781
 20
81.9778368465
 30
0.0
 10
430.5410845916
 20
81.9236342961
 30
0.0
 10
430.498618837
 20
81.8825813643
 30
0.0
  0
SPLINE
  5
81B
100
AcDbEntity
  8
0
100
AcDbSpline
 62
7
  6
CONTINUOUS
 70
0
 71
3
 72
9
 73
5
 74
0
 42
0.0000001
 43
0.0000001
 44
0.0000000001
 40
0.0
 40
0.0
 40
0.0
 40
0.0
 40
0.2662079322
 40
1.0
 40
1.0
 40
1.0
 40
1.0
 10
417.6415466248
 20
95.4447230955
 30
0.0
 10
417.6028492247
 20
95.4679376821
 30
0.0
 10
417.4568026294
 20
95.5539886222
 30
0.0
 10
417.3079172784
 20
95.6353202467
 30
0.0
 10
417.1967052618
 20
95.6910397942
 30
0.0
  0
SPLINE
  5
81C
100
AcDbEntity
  8
0
100
AcDbSpline
 62
7
  6
CONTINUOUS
 70
0
 71
3
 72
11
 73
7
 74
0
 42
0.0000001
 43
0.0000001
 44
0.0000000001
 40
0.0
 40
0.0
 40
0.0
 40
0.0
 40
0.3582245027
 40
0.6372652827
 40
0.8436682534
 40
1.0
 40
1.0
 40
1.0
 40
1.0
 10
417.1967052618
 20
95.6910397942
 30
0.0
 10
417.0708339293
 20
95.7541039657
 30
0.0
 10
416.8422196065
 20
95.8580448833
 30
0.0
 10
416.5233503778
 20
95.9528792002
 30
0.0
 10
416.2679803591
 20
95.9723809438
 30
0.0
 10
416.1276823624
 20
95.9135953869
 30
0.0
 10
416.083505707
 20
95.8708953118
 30
0.0
  0
SPLINE
  5
81D
100
AcDbEntity
  8
0
100
AcDbSpline
 62
7
  6
CONTINUOUS
 70
0
 71
3
 72
9
 73
5
 74
0
 42
0.0000001
 43
0.0000001
 44
0.0000000001
 40
0.0
 40
0.0
 40
0.0
 40
0.0
 40
0.4519605006
 40
1.0
 40
1.0
 40
1.0
 40
1.0
 10
415.7361281496
 20
96.2305188829
 30
0.0
 10
415.7001463726
 20
96.1957397768
 30
0.0
 10
415.6424177724
 20
96.0954764306
 30
0.0
 10
415.6311389847
 20
95.9832070876
 30
0.0
 10
415.6311389847
 20
95.9225261413
 30
0.0
  0
SPLINE
  5
81E
100
AcDbEntity
  8
0
100
AcDbSpline
 62
7
  6
CONTINUOUS
 70
0
 71
3
 72
9
 73
5
 74
0
 42
0.0000001
 43
0.0000001
 44
0.0000000001
 40
0.0
 40
0.0
 40
0.0
 40
0.0
 40
0.4520427014
 40
1.0
 40
1.0
 40
1.0
 40
1.0
 10
430.220717687
 20
82.1702810338
 30
0.0
 10
430.1885406511
 20
82.1391745182
 30
0.0
 10
430.1369359966
 20
82.0495170798
 30
0.0
 10
430.1268279991
 20
81.9491345335
 30
0.0
 10
430.1268279991
 20
81.894883848
 30
0.0
  0
SPLINE
  5
81F
100
AcDbEntity
  8
RUNDUNGEN
100
AcDbSpline
 62
7
  6
CONTINUOUS
 70
0
 71
3
 72
15
 73
11
 74
0
 42
0.0000001
 43
0.0000001
 44
0.0000000001
 40
0.0
 40
0.0
 40
0.0
 40
0.0
 40
0.2012473284
 40
0.3857015208
 40
0.5498422124
 40
0.6907475561
 40
0.8062033585
 40
0.8540172368
 40
0.8951941964
 40
1.0
 40
1.0
 40
1.0
 40
1.0
 10
397.1445195684
 20
114.0056056902
 30
0.0
 10
396.8771889243
 20
114.3323424359
 30
0.0
 10
396.3741666847
 20
114.9662708481
 30
0.0
 10
395.689839365
 20
115.8951943822
 30
0.0
 10
395.117023589
 20
116.7476428644
 30
0.0
 10
394.6668326657
 20
117.507729267
 30
0.0
 10
394.3846066273
 20
118.0790584673
 30
0.0
 10
394.2330475562
 20
118.4844570062
 30
0.0
 10
394.1246504979
 20
118.8633979654
 30
0.0
 10
394.0946271049
 20
119.247621254
 30
0.0
 10
394.2526610769
 20
119.400466055
 30
0.0
  0
SPLINE
  5
820
100
AcDbEntity
  8
0
100
AcDbSpline
 62
7
  6
CONTINUOUS
 70
0
 71
3
 72
13
 73
9
 74
0
 42
0.0000001
 43
0.0000001
 44
0.0000000001
 40
0.0
 40
0.0
 40
0.0
 40
0.0
 40
0.3721269905
 40
0.6578666052
 40
0.7687588437
 40
0.8599550114
 40
0.9348644751
 40
1.0
 40
1.0
 40
1.0
 40
1.0
 10
397.4905407058
 20
107.7933774994
 30
0.0
 10
397.3302091276
 20
108.0779430554
 30
0.0
 10
397.0640230849
 20
108.5907669596
 30
0.0
 10
396.8209653136
 20
109.2242194521
 30
0.0
 10
396.7383554621
 20
109.6456195988
 30
0.0
 10
396.7308446763
 20
109.8901226355
 30
0.0
 10
396.7738147398
 20
110.0914821114
 30
0.0
 10
396.8433609976
 20
110.1976072273
 30
0.0
 10
396.884484793
 20
110.2373232032
 30
0.0
  0
SPLINE
  5
821
100
AcDbEntity
  8
RUNDUNGEN
100
AcDbSpline
 62
7
  6
CONTINUOUS
 70
0
 71
3
 72
10
 73
6
 74
0
 42
0.0000001
 43
0.0000001
 44
0.0000000001
 40
0.0
 40
0.0
 40
0.0
 40
0.0
 40
0.6785007611
 40
0.8787501437
 40
1.0
 40
1.0
 40
1.0
 40
1.0
 10
394.4346463014
 20
104.3318798613
 30
0.0
 10
394.3830494242
 20
104.4086902892
 30
0.0
 10
394.3195520482
 20
104.5127913675
 30
0.0
 10
394.2761840297
 20
104.6412918388
 30
0.0
 10
394.284159599
 20
104.6903042264
 30
0.0
 10
394.2960689232
 20
104.701775703
 30
0.0
  0
SPLINE
  5
822
100
AcDbEntity
  8
RUNDUNGEN
100
AcDbSpline
 62
7
  6
CONTINUOUS
 70
0
 71
3
 72
11
 73
7
 74
0
 42
0.0000001
 43
0.0000001
 44
0.0000000001
 40
0.0
 40
0.0
 40
0.0
 40
0.0
 40
0.2283935007
 40
0.4975020238
 40
0.7679048038
 40
1.0
 40
1.0
 40
1.0
 40
1.0
 10
398.5365900762
 20
98.7669473787
 30
0.0
 10
398.4308354627
 20
98.841994245
 30
0.0
 10
398.212599897
 20
99.0223377951
 30
0.0
 10
397.8982364046
 20
99.3248265642
 30
0.0
 10
397.6039439987
 20
99.6497378258
 30
0.0
 10
397.4283023477
 20
99.8753310471
 30
0.0
 10
397.3548207726
 20
99.984720443
 30
0.0
  0
SPLINE
  5
823
100
AcDbEntity
  8
RUNDUNGEN
100
AcDbSpline
 62
7
  6
CONTINUOUS
 70
0
 71
3
 72
9
 73
5
 74
0
 42
0.0000001
 43
0.0000001
 44
0.0000000001
 40
0.0
 40
0.0
 40
0.0
 40
0.0
 40
0.2538116446
 40
1.0
 40
1.0
 40
1.0
 40
1.0
 10
443.7465497073
 20
57.2762549769
 30
0.0
 10
443.6011049415
 20
57.4167438325
 30
0.0
 10
443.0363083807
 20
57.9786723286
 30
0.0
 10
442.5006913589
 20
58.5704047627
 30
0.0
 10
442.1242305566
 20
59.0305225238
 30
0.0
  0
SPLINE
  5
824
100
AcDbEntity
  8
RUNDUNGEN
100
AcDbSpline
 62
7
  6
CONTINUOUS
 70
0
 71
3
 72
9
 73
5
 74
0
 42
0.0000001
 43
0.0000001
 44
0.0000000001
 40
0.0
 40
0.0
 40
0.0
 40
0.0
 40
0.2218388199
 40
1.0
 40
1.0
 40
1.0
 40
1.0
 10
454.8261142965
 20
54.2468812114
 30
0.0
 10
454.8343964716
 20
54.2548889243
 30
0.0
 10
454.8670817873
 20
54.2960932757
 30
0.0
 10
454.8755653406
 20
54.3514438195
 30
0.0
 10
454.8755653406
 20
54.3918545548
 30
0.0
  0
SPLINE
  5
825
100
AcDbEntity
  8
RUNDUNGEN
100
AcDbSpline
 62
7
  6
CONTINUOUS
 70
0
 71
3
 72
16
 73
12
 74
0
 42
0.0000001
 43
0.0000001
 44
0.0000000001
 40
0.0
 40
0.0
 40
0.0
 40
0.0
 40
0.0406935363
 40
0.0688789223
 40
0.1037508194
 40
0.194666286
 40
0.3133767797
 40
0.4573894856
 40
0.6229640379
 40
0.8055826945
 40
1.0
 40
1.0
 40
1.0
 40
1.0
 10
451.2905803905
 20
50.8318177019
 30
0.0
 10
451.2571743622
 20
50.7995187127
 30
0.0
 10
451.1709945673
 20
50.78014851
 30
0.0
 10
451.0548233106
 20
50.7966734763
 30
0.0
 10
450.8849360109
 20
50.8460399477
 30
0.0
 10
450.632782836
 20
50.9682128781
 30
0.0
 10
450.2887711629
 20
51.1803153384
 30
0.0
 10
449.8917060883
 20
51.4664239965
 30
0.0
 10
449.4529470466
 20
51.8179500877
 30
0.0
 10
448.9857272793
 20
52.2251232661
 30
0.0
 10
448.6712794501
 20
52.5193313308
 30
0.0
 10
448.5116043099
 20
52.6735656725
 30
0.0
  0
SPLINE
  5
826
100
AcDbEntity
  8
RUNDUNGEN
100
AcDbSpline
 62
7
  6
CONTINUOUS
 70
0
 71
3
 72
12
 73
8
 74
0
 42
0.0000001
 43
0.0000001
 44
0.0000000001
 40
0.0
 40
0.0
 40
0.0
 40
0.0
 40
0.1229683891
 40
0.2119573972
 40
0.3236051429
 40
0.6170595586
 40
1.0
 40
1.0
 40
1.0
 40
1.0
 10
406.486295703
 20
102.441713784
 30
0.0
 10
406.4481778972
 20
102.4048839751
 30
0.0
 10
406.3450630399
 20
102.3886967918
 30
0.0
 10
406.210336174
 20
102.415957465
 30
0.0
 10
406.0075521284
 20
102.4858902757
 30
0.0
 10
405.707446939
 20
102.6468022403
 30
0.0
 10
405.4642110685
 20
102.8080903238
 30
0.0
 10
405.3295996959
 20
102.903614872
 30
0.0
  0
SPLINE
  5
827
100
AcDbEntity
  8
RUNDUNGEN
100
AcDbSpline
 62
7
  6
CONTINUOUS
 70
0
 71
3
 72
9
 73
5
 74
0
 42
0.0000001
 43
0.0000001
 44
0.0000000001
 40
0.0
 40
0.0
 40
0.0
 40
0.0
 40
0.2218259981
 40
1.0
 40
1.0
 40
1.0
 40
1.0
 10
447.7550513201
 20
70.1228113236
 30
0.0
 10
447.7633330517
 20
70.13081814
 30
0.0
 10
447.796017346
 20
70.1720220452
 30
0.0
 10
447.8044975287
 20
70.2273717888
 30
0.0
 10
447.8044975287
 20
70.267782221
 30
0.0
  0
SPLINE
  5
828
100
AcDbEntity
  8
BEZUGSACHSEN
100
AcDbSpline
 62
7
  6
CONTINUOUS
 70
0
 71
3
 72
16
 73
12
 74
0
 42
0.0000001
 43
0.0000001
 44
0.0000000001
 40
0.0
 40
0.0
 40
0.0
 40
0.0
 40
0.0406906313
 40
0.068872499
 40
0.1037466664
 40
0.1946599168
 40
0.3133677147
 40
0.4573796392
 40
0.6229632438
 40
0.8055702353
 40
1.0
 40
1.0
 40
1.0
 40
1.0
 10
409.7557422067
 20
103.8155917952
 30
0.0
 10
409.7139673721
 20
103.7752419223
 30
0.0
 10
409.6062834828
 20
103.7510100549
 30
0.0
 10
409.4610603325
 20
103.7716246778
 30
0.0
 10
409.248715272
 20
103.8333600063
 30
0.0
 10
408.9335187788
 20
103.9860501799
 30
0.0
 10
408.5035117946
 20
104.2511796626
 30
0.0
 10
408.0071713997
 20
104.6088149366
 30
0.0
 10
407.4587289256
 20
105.0482234085
 30
0.0
 10
406.8746903769
 20
105.55719515
 30
0.0
 10
406.4816311913
 20
105.9249577198
 30
0.0
 10
406.2820244647
 20
106.117763012
 30
0.0
  0
SPLINE
  5
829
100
AcDbEntity
  8
0
100
AcDbSpline
 62
7
  6
CONTINUOUS
 70
0
 71
3
 72
11
 73
7
 74
0
 42
0.0000001
 43
0.0000001
 44
0.0000000001
 40
0.0
 40
0.0
 40
0.0
 40
0.0
 40
0.1659345516
 40
0.375397696
 40
0.6509059308
 40
1.0
 40
1.0
 40
1.0
 40
1.0
 10
400.4200186989
 20
113.6523867126
 30
0.0
 10
400.4779597986
 20
113.7083442743
 30
0.0
 10
400.6515117249
 20
113.7912559046
 30
0.0
 10
400.9726328416
 20
113.7900769882
 30
0.0
 10
401.3683608742
 20
113.6968534477
 30
0.0
 10
401.6512330934
 20
113.5853016679
 30
0.0
 10
401.8061626148
 20
113.5166388599
 30
0.0
  0
SPLINE
  5
82A
100
AcDbEntity
  8
RUNDUNGEN
100
AcDbSpline
 62
7
  6
CONTINUOUS
 70
0
 71
3
 72
9
 73
5
 74
0
 42
0.0000001
 43
0.0000001
 44
0.0000000001
 40
0.0
 40
0.0
 40
0.0
 40
0.0
 40
0.2929719602
 40
1.0
 40
1.0
 40
1.0
 40
1.0
 10
447.8044975287
 20
71.6782709959
 30
0.0
 10
447.8044975287
 20
71.6934408095
 30
0.0
 10
447.8071990758
 20
71.7447985206
 30
0.0
 10
447.8276294025
 20
71.7977973891
 30
0.0
 10
447.8539484711
 20
71.8232442705
 30
0.0
  0
SPLINE
  5
82B
100
AcDbEntity
  8
RUNDUNGEN
100
AcDbSpline
 62
7
  6
CONTINUOUS
 70
0
 71
3
 72
9
 73
5
 74
0
 42
0.0000001
 43
0.0000001
 44
0.0000000001
 40
0.0
 40
0.0
 40
0.0
 40
0.0
 40
0.5388599213
 40
1.0
 40
1.0
 40
1.0
 40
1.0
 10
447.0973907475
 20
66.5664328593
 30
0.0
 10
446.8242340722
 20
66.8302819466
 30
0.0
 10
446.3040770815
 20
67.3063477441
 30
0.0
 10
445.7534142905
 20
67.7478590213
 30
0.0
 10
445.4887655632
 20
67.936505282
 30
0.0
  0
SPLINE
  5
82C
100
AcDbEntity
  8
RUNDUNGEN
100
AcDbSpline
 62
7
  6
CONTINUOUS
 70
0
 71
3
 72
14
 73
10
 74
0
 42
0.0000001
 43
0.0000001
 44
0.0000000001
 40
0.0
 40
0.0
 40
0.0
 40
0.0
 40
0.327873784
 40
0.4853312748
 40
0.6306263543
 40
0.7584857965
 40
0.8644622094
 40
0.9453349233
 40
1.0
 40
1.0
 40
1.0
 40
1.0
 10
450.6329246535
 20
59.1628602834
 30
0.0
 10
450.2587541093
 20
59.5242812755
 30
0.0
 10
449.7238944426
 20
60.0795337419
 30
0.0
 10
449.0700400703
 20
60.8370988744
 30
0.0
 10
448.6451905186
 20
61.372602383
 30
0.0
 10
448.2953510029
 20
61.8619991324
 30
0.0
 10
448.0320126506
 20
62.2877958567
 30
0.0
 10
447.8652488826
 20
62.6317507658
 30
0.0
 10
447.8044975287
 20
62.8434531031
 30
0.0
 10
447.8044975287
 20
62.9301872714
 30
0.0
  0
SPLINE
  5
82D
100
AcDbEntity
  8
RUNDUNGEN
100
AcDbSpline
 62
7
  6
CONTINUOUS
 70
0
 71
3
 72
14
 73
10
 74
0
 42
0.0000001
 43
0.0000001
 44
0.0000000001
 40
0.0
 40
0.0
 40
0.0
 40
0.0
 40
0.201257276
 40
0.3857885857
 40
0.549942995
 40
0.6908692158
 40
0.8063236773
 40
0.8952180865
 40
1.0
 40
1.0
 40
1.0
 40
1.0
 10
442.4802877633
 20
71.3869601011
 30
0.0
 10
442.3466190347
 20
71.5503326376
 30
0.0
 10
442.0950606116
 20
71.8674309757
 30
0.0
 10
441.7528524924
 20
72.3317022038
 30
0.0
 10
441.4663530104
 20
72.758823312
 30
0.0
 10
441.2414016749
 20
73.1365292104
 30
0.0
 10
441.0808448004
 20
73.4673472567
 30
0.0
 10
440.974772403
 20
73.7587103759
 30
0.0
 10
440.9554386106
 20
74.0082153933
 30
0.0
 10
441.0345071207
 20
74.084544623
 30
0.0
  0
SPLINE
  5
82E
100
AcDbEntity
  8
RUNDUNGEN
100
AcDbSpline
 62
7
  6
CONTINUOUS
 70
0
 71
3
 72
11
 73
7
 74
0
 42
0.0000001
 43
0.0000001
 44
0.0000000001
 40
0.0
 40
0.0
 40
0.0
 40
0.0
 40
0.217048507
 40
0.4713284974
 40
0.7403269981
 40
1.0
 40
1.0
 40
1.0
 40
1.0
 10
433.3487044801
 20
85.042501447
 30
0.0
 10
432.5483557978
 20
85.6104545467
 30
0.0
 10
430.8818800849
 20
86.9440215583
 30
0.0
 10
428.4109529482
 20
89.204434468
 30
0.0
 10
425.9350686571
 20
91.7372020409
 30
0.0
 10
424.3582871485
 20
93.5360239581
 30
0.0
 10
423.614789576
 20
94.4447412438
 30
0.0
  0
SPLINE
  5
82F
100
AcDbEntity
  8
RUNDUNGEN
100
AcDbSpline
 62
7
  6
CONTINUOUS
 70
0
 71
3
 72
11
 73
7
 74
0
 42
0.0000001
 43
0.0000001
 44
0.0000000001
 40
0.0
 40
0.0
 40
0.0
 40
0.0
 40
0.2596730019
 40
0.5286715026
 40
0.782951493
 40
1.0
 40
1.0
 40
1.0
 40
1.0
 10
429.8131705742
 20
74.0773410011
 30
0.0
 10
429.0696730017
 20
74.9860582869
 30
0.0
 10
427.492891493
 20
76.7848802041
 30
0.0
 10
425.0170072019
 20
79.317647777
 30
0.0
 10
422.5460800652
 20
81.5780606866
 30
0.0
 10
420.8796043523
 20
82.9116276983
 30
0.0
 10
420.07925567
 20
83.4795807979
 30
0.0
  0
SPLINE
  5
830
100
AcDbEntity
  8
RUNDUNGEN
100
AcDbSpline
 62
7
  6
CONTINUOUS
 70
0
 71
3
 72
11
 73
7
 74
0
 42
0.0000001
 43
0.0000001
 44
0.0000000001
 40
0.0
 40
0.0
 40
0.0
 40
0.0
 40
0.2321082131
 40
0.5025206982
 40
0.7716173963
 40
1.0
 40
1.0
 40
1.0
 40
1.0
 10
400.8903546785
 20
103.3997839525
 30
0.0
 10
400.9638403748
 20
103.2903884216
 30
0.0
 10
401.1394909488
 20
103.0647857034
 30
0.0
 10
401.4337886743
 20
102.7398709167
 30
0.0
 10
401.7481482997
 20
102.4373887854
 30
0.0
 10
401.9663744144
 20
102.2570541739
 30
0.0
 10
402.0721239821
 20
102.1820108882
 30
0.0
  0
SPLINE
  5
831
100
AcDbEntity
  8
BEZUGSACHSEN
100
AcDbSpline
 62
7
  6
CONTINUOUS
 70
0
 71
3
 72
14
 73
10
 74
0
 42
0.0000001
 43
0.0000001
 44
0.0000000001
 40
0.0
 40
0.0
 40
0.0
 40
0.0
 40
0.20152863
 40
0.386005568
 40
0.5500286943
 40
0.6907445844
 40
0.806026157
 40
0.8948430487
 40
1.0
 40
1.0
 40
1.0
 40
1.0
 10
408.3486538764
 20
106.4656357507
 30
0.0
 10
408.4794321371
 20
106.3048260222
 30
0.0
 10
408.7253452177
 20
105.992983157
 30
0.0
 10
409.0595777904
 20
105.5366097749
 30
0.0
 10
409.3389402026
 20
105.1172163392
 30
0.0
 10
409.5579521295
 20
104.7464531673
 30
0.0
 10
409.7137891985
 20
104.421932501
 30
0.0
 10
409.8166315396
 20
104.1352874072
 30
0.0
 10
409.8335346954
 20
103.890730741
 30
0.0
 10
409.7557422067
 20
103.8155917952
 30
0.0
  0
SPLINE
  5
832
100
AcDbEntity
  8
RUNDUNGEN
100
AcDbSpline
 62
7
  6
CONTINUOUS
 70
0
 71
3
 72
12
 73
8
 74
0
 42
0.0000001
 43
0.0000001
 44
0.0000000001
 40
0.0
 40
0.0
 40
0.0
 40
0.0
 40
0.3829279487
 40
0.6763788394
 40
0.7880316563
 40
0.8770245698
 40
1.0
 40
1.0
 40
1.0
 40
1.0
 10
446.5983895547
 20
70.5847444628
 30
0.0
 10
446.7329919467
 20
70.4892262874
 30
0.0
 10
446.9762142507
 20
70.3279463385
 30
0.0
 10
447.2762998203
 20
70.1670398015
 30
0.0
 10
447.4790816831
 20
70.0971016414
 30
0.0
 10
447.6137979741
 20
70.069836615
 30
0.0
 10
447.7169439542
 20
70.0859689463
 30
0.0
 10
447.7550513201
 20
70.1228113236
 30
0.0
  0
SPLINE
  5
833
100
AcDbEntity
  8
0
100
AcDbSpline
 62
7
  6
CONTINUOUS
 70
0
 71
3
 72
15
 73
11
 74
0
 42
0.0000001
 43
0.0000001
 44
0.0000000001
 40
0.0
 40
0.0
 40
0.0
 40
0.0
 40
0.2018499553
 40
0.3828567064
 40
0.5413894942
 40
0.6765595027
 40
0.7880615151
 40
0.8765600154
 40
0.9448337862
 40
1.0
 40
1.0
 40
1.0
 40
1.0
 10
401.8061626148
 20
109.9537787267
 30
0.0
 10
401.6519717138
 20
110.1833172129
 30
0.0
 10
401.3665584432
 20
110.6235138038
 30
0.0
 10
400.9889832884
 20
111.2621583213
 30
0.0
 10
400.6876103829
 20
111.838880121
 30
0.0
 10
400.4651084185
 20
112.3480304506
 30
0.0
 10
400.3223810195
 20
112.7856457937
 30
0.0
 10
400.2609144811
 20
113.149710449
 30
0.0
 10
400.2801783781
 20
113.4441640135
 30
0.0
 10
400.3656577857
 20
113.5998867744
 30
0.0
 10
400.4200186989
 20
113.6523867126
 30
0.0
  0
SPLINE
  5
834
100
AcDbEntity
  8
0
100
AcDbSpline
 62
7
  6
CONTINUOUS
 70
0
 71
3
 72
9
 73
5
 74
0
 42
0.0000001
 43
0.0000001
 44
0.0000000001
 40
0.0
 40
0.0
 40
0.0
 40
0.0
 40
0.4519605006
 40
1.0
 40
1.0
 40
1.0
 40
1.0
 10
416.083505707
 20
95.8708953118
 30
0.0
 10
416.0496405051
 20
95.8381620356
 30
0.0
 10
415.9953077049
 20
95.7437965333
 30
0.0
 10
415.9846923753
 20
95.6381312692
 30
0.0
 10
415.9846923753
 20
95.5810197903
 30
0.0
  0
SPLINE
  5
835
100
AcDbEntity
  8
0
100
AcDbSpline
 62
7
  6
CONTINUOUS
 70
0
 71
3
 72
10
 73
6
 74
0
 42
0.0000001
 43
0.0000001
 44
0.0000000001
 40
0.0
 40
0.0
 40
0.0
 40
0.0
 40
0.5928686779
 40
0.819309755
 40
1.0
 40
1.0
 40
1.0
 40
1.0
 10
417.3915466248
 20
95.777710903
 30
0.0
 10
417.1507264503
 20
95.9221790274
 30
0.0
 10
416.8087858169
 20
96.1101426669
 30
0.0
 10
416.3639181391
 20
96.274625717
 30
0.0
 10
416.1739718134
 20
96.3154538572
 30
0.0
 10
416.0886706534
 20
96.3224709295
 30
0.0
  0
SPLINE
  5
836
100
AcDbEntity
  8
0
100
AcDbSpline
 62
7
  6
CONTINUOUS
 70
0
 71
3
 72
9
 73
5
 74
0
 42
0.0000001
 43
0.0000001
 44
0.0000000001
 40
0.0
 40
0.0
 40
0.0
 40
0.0
 40
0.5554668888
 40
1.0
 40
1.0
 40
1.0
 40
1.0
 10
416.0886706534
 20
96.3224709295
 30
0.0
 10
416.0198732697
 20
96.3281303628
 30
0.0
 10
415.8931696353
 20
96.3267283815
 30
0.0
 10
415.7758495006
 20
96.2689125696
 30
0.0
 10
415.7361281496
 20
96.2305188829
 30
0.0
  0
SPLINE
  5
837
100
AcDbEntity
  8
0
100
AcDbSpline
 62
7
  6
CONTINUOUS
 70
0
 71
3
 72
9
 73
5
 74
0
 42
0.0000001
 43
0.0000001
 44
0.0000000001
 40
0.0
 40
0.0
 40
0.0
 40
0.0
 40
0.4520427014
 40
1.0
 40
1.0
 40
1.0
 40
1.0
 10
430.498618837
 20
81.8825813643
 30
0.0
 10
430.4681353293
 20
81.8531120337
 30
0.0
 10
430.4192467092
 20
81.7681734079
 30
0.0
 10
430.4096707115
 20
81.6730741535
 30
0.0
 10
430.4096707115
 20
81.6216787672
 30
0.0
  0
SPLINE
  5
838
100
AcDbEntity
  8
0
100
AcDbSpline
 62
7
  6
CONTINUOUS
 70
0
 71
3
 72
10
 73
6
 74
0
 42
0.0000001
 43
0.0000001
 44
0.0000000001
 40
0.0
 40
0.0
 40
0.0
 40
0.0
 40
0.5858417796
 40
0.8157463948
 40
1.0
 40
1.0
 40
1.0
 40
1.0
 10
432.8760080978
 20
80.9558110271
 30
0.0
 10
432.5092556908
 20
81.2349267789
 30
0.0
 10
431.9854378329
 20
81.6088106813
 30
0.0
 10
431.3006235653
 20
81.9969553211
 30
0.0
 10
431.0019628489
 20
82.1300361713
 30
0.0
 10
430.8647919505
 20
82.1768914001
 30
0.0
  0
SPLINE
  5
839
100
AcDbEntity
  8
0
100
AcDbSpline
 62
7
  6
CONTINUOUS
 70
0
 71
3
 72
11
 73
7
 74
0
 42
0.0000001
 43
0.0000001
 44
0.0000000001
 40
0.0
 40
0.0
 40
0.0
 40
0.0
 40
0.3329938946
 40
0.6024543343
 40
0.817906727
 40
1.0
 40
1.0
 40
1.0
 40
1.0
 10
430.8647919505
 20
82.1768914001
 30
0.0
 10
430.7942006448
 20
82.2010041807
 30
0.0
 10
430.6641447791
 20
82.2386251784
 30
0.0
 10
430.4813557056
 20
82.2616658526
 30
0.0
 10
430.3306298837
 20
82.2441715937
 30
0.0
 10
430.2500455927
 20
82.1986332089
 30
0.0
 10
430.220717687
 20
82.1702810338
 30
0.0
  0
SPLINE
  5
83A
100
AcDbEntity
  8
RUNDUNGEN
100
AcDbSpline
 62
7
  6
CONTINUOUS
 70
0
 71
3
 72
10
 73
6
 74
0
 42
0.0000001
 43
0.0000001
 44
0.0000000001
 40
0.0
 40
0.0
 40
0.0
 40
0.0
 40
0.1212917484
 40
0.32158466
 40
1.0
 40
1.0
 40
1.0
 40
1.0
 10
397.8315553959
 20
108.1167943478
 30
0.0
 10
397.8196630366
 20
108.1053004911
 30
0.0
 10
397.8117392605
 20
108.0562876821
 30
0.0
 10
397.8551053324
 20
107.9278128286
 30
0.0
 10
397.9185972553
 20
107.8237330687
 30
0.0
 10
397.9701802073
 20
107.7469433708
 30
0.0
  0
SPLINE
  5
83B
100
AcDbEntity
  8
RUNDUNGEN
100
AcDbSpline
 62
7
  6
CONTINUOUS
 70
0
 71
3
 72
16
 73
12
 74
0
 42
0.0000001
 43
0.0000001
 44
0.0000000001
 40
0.0
 40
0.0
 40
0.0
 40
0.0
 40
0.1944173055
 40
0.3770359621
 40
0.5426105144
 40
0.6866232203
 40
0.805333714
 40
0.8962491806
 40
0.9311210777
 40
0.9593064637
 40
1.0
 40
1.0
 40
1.0
 40
1.0
 10
452.0471382158
 20
56.088629182
 30
0.0
 10
452.2068133561
 20
55.9343948402
 30
0.0
 10
452.5212611853
 20
55.6401867756
 30
0.0
 10
452.9884809526
 20
55.2330135972
 30
0.0
 10
453.4272399942
 20
54.881487506
 30
0.0
 10
453.8243050688
 20
54.5953788478
 30
0.0
 10
454.168316742
 20
54.3832763876
 30
0.0
 10
454.4204699169
 20
54.2611034572
 30
0.0
 10
454.5903572165
 20
54.2117369858
 30
0.0
 10
454.7065284733
 20
54.1952120195
 30
0.0
 10
454.7927082681
 20
54.2145822222
 30
0.0
 10
454.8261142965
 20
54.2468812114
 30
0.0
  0
SPLINE
  5
83C
100
AcDbEntity
  8
RUNDUNGEN
100
AcDbSpline
 62
7
  6
CONTINUOUS
 70
0
 71
3
 72
14
 73
10
 74
0
 42
0.0000001
 43
0.0000001
 44
0.0000000001
 40
0.0
 40
0.0
 40
0.0
 40
0.0
 40
0.0563083454
 40
0.1252818539
 40
0.2140273179
 40
0.3253679452
 40
0.4601494496
 40
0.6181802257
 40
1.0
 40
1.0
 40
1.0
 40
1.0
 10
441.0345071207
 20
74.084544623
 30
0.0
 10
441.0563953613
 20
74.1056745589
 30
0.0
 10
441.119414129
 20
74.1382325039
 30
0.0
 10
441.2367727496
 20
74.1440317613
 30
0.0
 10
441.3803320591
 20
74.1169696991
 30
0.0
 10
441.5515948804
 20
74.0572463113
 30
0.0
 10
441.7498885588
 20
73.9652450807
 30
0.0
 10
442.0689890662
 20
73.7886445754
 30
0.0
 10
442.3120485698
 20
73.6264695288
 30
0.0
 10
442.4802877633
 20
73.5070816001
 30
0.0
  0
SPLINE
  5
83D
100
AcDbEntity
  8
RUNDUNGEN
100
AcDbSpline
 62
7
  6
CONTINUOUS
 70
0
 71
3
 72
16
 73
12
 74
0
 42
0.0000001
 43
0.0000001
 44
0.0000000001
 40
0.0
 40
0.0
 40
0.0
 40
0.0
 40
0.0406934736
 40
0.0688788371
 40
0.1037506951
 40
0.1946661206
 40
0.3133765647
 40
0.4573892105
 40
0.6229637467
 40
0.8055825858
 40
1.0
 40
1.0
 40
1.0
 40
1.0
 10
447.8539484711
 20
71.8232442705
 30
0.0
 10
447.8873544507
 20
71.8555432098
 30
0.0
 10
447.9735340757
 20
71.874913556
 30
0.0
 10
448.0897052196
 20
71.8583886183
 30
0.0
 10
448.2595924535
 20
71.8090223576
 30
0.0
 10
448.5117455245
 20
71.686849475
 30
0.0
 10
448.8557571029
 20
71.4747471819
 30
0.0
 10
449.2528221032
 20
71.1886386237
 30
0.0
 10
449.6915812891
 20
70.8371124855
 30
0.0
 10
450.1588013238
 20
70.4299390964
 30
0.0
 10
450.4732494176
 20
70.1357308028
 30
0.0
 10
450.6329246535
 20
69.9814963687
 30
0.0
  0
SPLINE
  5
83E
100
AcDbEntity
  8
RUNDUNGEN
100
AcDbSpline
 62
7
  6
CONTINUOUS
 70
0
 71
3
 72
9
 73
5
 74
0
 42
0.0000001
 43
0.0000001
 44
0.0000000001
 40
0.0
 40
0.0
 40
0.0
 40
0.0
 40
0.2406099096
 40
1.0
 40
1.0
 40
1.0
 40
1.0
 10
445.6597644625
 20
62.4455860333
 30
0.0
 10
445.7811563297
 20
62.2972185172
 30
0.0
 10
446.2962833426
 20
61.6893306721
 30
0.0
 10
446.8469163019
 20
61.1116578311
 30
0.0
 10
447.2820836132
 20
60.6913184863
 30
0.0
  0
SPLINE
  5
83F
100
AcDbEntity
  8
BEZUGSACHSEN
100
AcDbSpline
 62
7
  6
CONTINUOUS
 70
0
 71
3
 72
13
 73
9
 74
0
 42
0.0000001
 43
0.0000001
 44
0.0000000001
 40
0.0
 40
0.0
 40
0.0
 40
0.0
 40
0.0580260031
 40
0.1281008872
 40
0.2172115715
 40
0.3284040678
 40
0.6196750182
 40
1.0
 40
1.0
 40
1.0
 40
1.0
 10
402.8083067228
 20
111.0081246799
 30
0.0
 10
402.8291115509
 20
111.0282198444
 30
0.0
 10
402.8878471238
 20
111.0598025161
 30
0.0
 10
402.9975421735
 20
111.0681188443
 30
0.0
 10
403.1312601639
 20
111.046339383
 30
0.0
 10
403.3648067193
 20
110.970095201
 30
0.0
 10
403.7137583395
 20
110.7916278757
 30
0.0
 10
403.9953150958
 20
110.6102153634
 30
0.0
 10
404.151394777
 20
110.502596096
 30
0.0
  0
SPLINE
  5
840
100
AcDbEntity
  8
RUNDUNGEN
100
AcDbSpline
 62
7
  6
CONTINUOUS
 70
0
 71
3
 72
11
 73
7
 74
0
 42
0.0000001
 43
0.0000001
 44
0.0000000001
 40
0.0
 40
0.0
 40
0.0
 40
0.0
 40
0.217048507
 40
0.4713284974
 40
0.7403269981
 40
1.0
 40
1.0
 40
1.0
 40
1.0
 10
423.614789576
 20
86.8946443074
 30
0.0
 10
424.4151382583
 20
86.3266912077
 30
0.0
 10
426.0816139711
 20
84.9931241961
 30
0.0
 10
428.5525411078
 20
82.7327112864
 30
0.0
 10
431.0284253989
 20
80.1999437135
 30
0.0
 10
432.6052069076
 20
78.4011217963
 30
0.0
 10
433.3487044801
 20
77.4924045106
 30
0.0
  0
SPLINE
  5
841
100
AcDbEntity
  8
RUNDUNGEN
100
AcDbSpline
 62
7
  6
CONTINUOUS
 70
0
 71
3
 72
13
 73
9
 74
0
 42
0.0000001
 43
0.0000001
 44
0.0000000001
 40
0.0
 40
0.0
 40
0.0
 40
0.0
 40
0.3838126006
 40
0.5428077377
 40
0.6783592868
 40
0.790156864
 40
0.8789253364
 40
1.0
 40
1.0
 40
1.0
 40
1.0
 10
406.0241924066
 20
103.6745484558
 30
0.0
 10
406.1216445134
 20
103.5294749857
 30
0.0
 10
406.2538439335
 20
103.3201917991
 30
0.0
 10
406.3969758881
 20
103.0461457032
 30
0.0
 10
406.4713238825
 20
102.8768149939
 30
0.0
 10
406.5183958209
 20
102.7298736145
 30
0.0
 10
406.5444720543
 20
102.588211395
 30
0.0
 10
406.5259428956
 20
102.4800213019
 30
0.0
 10
406.486295703
 20
102.441713784
 30
0.0
  0
SPLINE
  5
842
100
AcDbEntity
  8
0
100
AcDbSpline
 62
7
  6
CONTINUOUS
 70
0
 71
3
 72
9
 73
5
 74
0
 42
0.0000001
 43
0.0000001
 44
0.0000000001
 40
0.0
 40
0.0
 40
0.0
 40
0.0
 40
0.2920400839
 40
1.0
 40
1.0
 40
1.0
 40
1.0
 10
430.5034736663
 20
81.928749935
 30
0.0
 10
430.4686499451
 20
81.9390931539
 30
0.0
 10
430.3486893803
 20
81.9707874279
 30
0.0
 10
430.2224534798
 20
81.9879265412
 30
0.0
 10
430.1348342899
 20
81.9790843495
 30
0.0
  0
SPLINE
  5
843
100
AcDbEntity
  8
0
100
AcDbSpline
 62
7
  6
CONTINUOUS
 70
0
 71
3
 72
9
 73
5
 74
0
 42
0.0000001
 43
0.0000001
 44
0.0000000001
 40
0.0
 40
0.0
 40
0.0
 40
0.0
 40
0.2946138386
 40
1.0
 40
1.0
 40
1.0
 40
1.0
 10
416.0580065987
 20
96.0008466194
 30
0.0
 10
416.018208385
 20
96.0120343893
 30
0.0
 10
415.8823996215
 20
96.0454054303
 30
0.0
 10
415.7385854609
 20
96.0607388041
 30
0.0
 10
415.640906732
 20
96.0447339678
 30
0.0
  0
SPLINE
  5
844
100
AcDbEntity
  8
0
100
AcDbSpline
 62
7
  6
CONTINUOUS
 70
0
 71
3
 72
9
 73
5
 74
0
 42
0.0000001
 43
0.0000001
 44
0.0000000001
 40
0.0
 40
0.0
 40
0.0
 40
0.0
 40
0.4980096818
 40
1.0
 40
1.0
 40
1.0
 40
1.0
 10
268.7054717618
 20
261.0336857329
 30
0.0
 10
268.7054717618
 20
262.4552157984
 30
0.0
 10
269.0454568934
 20
265.319663522
 30
0.0
 10
270.0476419794
 20
268.0238893219
 30
0.0
 10
270.6969451184
 20
269.3012249488
 30
0.0
  0
SPLINE
  5
845
100
AcDbEntity
  8
0
100
AcDbSpline
 62
7
  6
CONTINUOUS
 70
0
 71
3
 72
9
 73
5
 74
0
 42
0.0000001
 43
0.0000001
 44
0.0000000001
 40
0.0
 40
0.0
 40
0.0
 40
0.0
 40
0.5019908052
 40
1.0
 40
1.0
 40
1.0
 40
1.0
 10
306.7138778847
 20
269.3014622261
 30
0.0
 10
307.3632196727
 20
268.024095069
 30
0.0
 10
308.3654659416
 20
265.3197950848
 30
0.0
 10
308.7054717618
 20
262.4552582884
 30
0.0
 10
308.7054717618
 20
261.0336857329
 30
0.0
  0
SPLINE
  5
846
100
AcDbEntity
  8
0
100
AcDbSpline
 62
7
  6
CONTINUOUS
 70
0
 71
3
 72
13
 73
9
 74
0
 42
0.0000001
 43
0.0000001
 44
0.0000000001
 40
0.0
 40
0.0
 40
0.0
 40
0.0
 40
0.1244012338
 40
0.2488858144
 40
0.3735415495
 40
0.4984343266
 40
0.7485531997
 40
1.0
 40
1.0
 40
1.0
 40
1.0
 10
250.7054717618
 20
261.0336857329
 30
0.0
 10
250.7054717618
 20
262.6974105934
 30
0.0
 10
250.9366530693
 20
266.0305959411
 30
0.0
 10
251.9700052489
 20
270.9336079918
 30
0.0
 10
253.6706942019
 20
275.6555158261
 30
0.0
 10
256.7813226055
 20
281.5900601318
 30
0.0
 10
262.1645536533
 20
288.1497905894
 30
0.0
 10
267.7221960934
 20
292.0674628174
 30
0.0
 10
270.7008813868
 20
293.6282178784
 30
0.0
  0
SPLINE
  5
847
100
AcDbEntity
  8
0
100
AcDbSpline
 62
7
  6
CONTINUOUS
 70
0
 71
3
 72
13
 73
9
 74
0
 42
0.0000001
 43
0.0000001
 44
0.0000000001
 40
0.0
 40
0.0
 40
0.0
 40
0.0
 40
0.2514466365
 40
0.5015652721
 40
0.6264579946
 40
0.7511137552
 40
0.8755984698
 40
1.0
 40
1.0
 40
1.0
 40
1.0
 10
306.7089982791
 20
293.6287762643
 30
0.0
 10
309.6878223424
 20
292.068074889
 30
0.0
 10
315.245734869
 20
288.1504325802
 30
0.0
 10
320.6292607884
 20
281.5906190173
 30
0.0
 10
323.740067624
 20
275.6559454597
 30
0.0
 10
325.4408588347
 20
270.9339130555
 30
0.0
 10
326.4742757407
 20
266.0307548563
 30
0.0
 10
326.7054717618
 20
262.6974641284
 30
0.0
 10
326.7054717618
 20
261.0336857329
 30
0.0
  0
SPLINE
  5
848
100
AcDbEntity
  8
0
100
AcDbSpline
 62
7
  6
CONTINUOUS
 70
0
 71
3
 72
15
 73
11
 74
0
 42
0.0000001
 43
0.0000001
 44
0.0000000001
 40
0.0
 40
0.0
 40
0.0
 40
0.0
 40
0.1239295425
 40
0.2480016812
 40
0.3723523026
 40
0.497076683
 40
0.6222280488
 40
0.747808028
 40
0.8737648485
 40
1.0
 40
1.0
 40
1.0
 40
1.0
 10
326.7054717618
 20
217.5670235499
 30
0.0
 10
326.7054717618
 20
215.3953551294
 30
0.0
 10
326.3105408867
 20
211.0393207758
 30
0.0
 10
324.5533307577
 20
204.7204627745
 30
0.0
 10
321.6888610687
 20
198.8030809949
 30
0.0
 10
317.8100643519
 20
193.4729016093
 30
0.0
 10
313.0408909276
 20
188.8916838257
 30
0.0
 10
307.530510227
 20
185.1967622661
 30
0.0
 10
301.4517454982
 20
182.4975220724
 30
0.0
 10
297.141025096
 20
181.4141510028
 30
0.0
 10
294.9575737126
 20
181.059473398
 30
0.0
  0
SPLINE
  5
849
100
AcDbEntity
  8
0
100
AcDbSpline
 62
7
  6
CONTINUOUS
 70
0
 71
3
 72
15
 73
11
 74
0
 42
0.0000001
 43
0.0000001
 44
0.0000000001
 40
0.0
 40
0.0
 40
0.0
 40
0.0
 40
0.1262352727
 40
0.252192062
 40
0.3777719198
 40
0.5029231268
 40
0.6276473764
 40
0.7519979442
 40
0.8760701782
 40
1.0
 40
1.0
 40
1.0
 40
1.0
 10
282.4530888778
 20
181.0595178229
 30
0.0
 10
280.2696502676
 20
181.4142129898
 30
0.0
 10
275.9589601192
 20
182.4976089512
 30
0.0
 10
269.8802425637
 20
185.1968660842
 30
0.0
 10
264.3699188704
 20
188.8917979077
 30
0.0
 10
259.6007924214
 20
193.4730018063
 30
0.0
 10
255.7220383101
 20
198.8031605607
 30
0.0
 10
252.8575952722
 20
204.7205134969
 30
0.0
 10
251.1003998442
 20
211.0393445683
 30
0.0
 10
250.7054717618
 20
215.3953619346
 30
0.0
 10
250.7054717618
 20
217.5670235499
 30
0.0
  0
SPLINE
  5
84A
100
AcDbEntity
  8
0
100
AcDbSpline
 62
7
  6
CONTINUOUS
 70
0
 71
3
 72
13
 73
9
 74
0
 42
0.0000001
 43
0.0000001
 44
0.0000000001
 40
0.0
 40
0.0
 40
0.0
 40
0.0
 40
0.1215724383
 40
0.2436200921
 40
0.3665796743
 40
0.490769641
 40
0.7426922219
 40
1.0
 40
1.0
 40
1.0
 40
1.0
 10
308.7054717618
 20
217.5670235499
 30
0.0
 10
308.7054717618
 20
216.585129187
 30
0.0
 10
308.5441563188
 20
214.6137284056
 30
0.0
 10
307.8234981611
 20
211.7293066434
 30
0.0
 10
306.6378359232
 20
208.9785541497
 30
0.0
 10
304.4636802152
 20
205.5666760897
 30
0.0
 10
300.7072456803
 20
201.9642411321
 30
0.0
 10
296.9426989316
 20
200.1304091764
 30
0.0
 10
294.9595077567
 20
199.5093030564
 30
0.0
  0
SPLINE
  5
84B
100
AcDbEntity
  8
0
100
AcDbSpline
 62
7
  6
CONTINUOUS
 70
0
 71
3
 72
13
 73
9
 74
0
 42
0.0000001
 43
0.0000001
 44
0.0000000001
 40
0.0
 40
0.0
 40
0.0
 40
0.0
 40
0.2573078904
 40
0.5092307467
 40
0.6334207891
 40
0.7563803472
 40
0.8784278683
 40
1.0
 40
1.0
 40
1.0
 40
1.0
 10
282.4514225543
 20
199.5093084152
 30
0.0
 10
280.4682319051
 20
200.1304151115
 30
0.0
 10
276.7036857257
 20
201.9642499854
 30
0.0
 10
272.947252869
 20
205.5666878718
 30
0.0
 10
270.7731001595
 20
208.9785681576
 30
0.0
 10
269.5874411348
 20
211.729319357
 30
0.0
 10
268.8667863764
 20
214.613736233
 30
0.0
 10
268.7054717618
 20
216.585132247
 30
0.0
 10
268.7054717618
 20
217.5670235499
 30
0.0
  0
ELLIPSE
  5
84C
100
AcDbEntity
  8
0
100
AcDbEllipse
 62
7
  6
CONTINUOUS
 10
287.9054717618
 20
141.6736850054
 30
0.0
 11
11.2
 21
0.0
 31
0.0
 40
0.8066525678
 41
-1.7336547185
 42
-1.5707963268
  0
ELLIPSE
  5
84D
100
AcDbEntity
  8
RUNDUNGEN
100
AcDbEllipse
 62
7
  6
CONTINUOUS
 10
289.5054717618
 20
141.6736850054
 30
0.0
 11
11.2
 21
-0.0
 31
0.0
 40
0.8066525678
 41
-1.5707963268
 42
-1.4079379351
  0
ELLIPSE
  5
84E
100
AcDbEntity
  8
0
100
AcDbEllipse
 62
7
  6
CONTINUOUS
 10
287.9054717618
 20
155.2363763525
 30
0.0
 11
-0.0
 21
12.6022297499
 31
0.0
 40
0.8887316151
 41
-3.3044510509
 42
-3.1415926536
  0
ELLIPSE
  5
84F
100
AcDbEntity
  8
RUNDUNGEN
100
AcDbEllipse
 62
7
  6
CONTINUOUS
 10
289.5054717618
 20
155.2363763525
 30
0.0
 11
-0.0
 21
12.6022297499
 31
0.0
 40
0.8887316151
 41
-3.1415926536
 42
-2.9787342562
  0
ELLIPSE
  5
850
100
AcDbEntity
  8
0
100
AcDbEllipse
 62
7
  6
CONTINUOUS
 10
282.5726042259
 20
172.2217672628
 30
0.0
 11
0.1559518697
 21
5.9994247339
 31
0.0
 40
0.5327506767
 41
-1.2951492524
 42
-0.182317669
  0
ELLIPSE
  5
851
100
AcDbEntity
  8
RUNDUNGEN
100
AcDbEllipse
 62
7
  6
CONTINUOUS
 10
294.8383392976
 20
172.2217672628
 30
0.0
 11
-0.1559518697
 21
5.9994247339
 31
0.0
 40
0.5327506767
 41
0.182317669
 42
1.2951492524
  0
ENDSEC
  0
SECTION
  2
OBJECTS
  0
DICTIONARY
  5
C
100
AcDbDictionary
280
0
281
1
  3
ACAD_GROUP
350
D
  3
ACAD_MLINESTYLE
350
17
  3
ACAD_LAYOUT
350
1A
  3
ACAD_PLOTSETTINGS
350
19
  3
ACAD_PLOTSTYLENAME
350
E
  0
DICTIONARY
  5
D
102
{ACAD_REACTORS
330
C
102
}
100
AcDbDictionary
280
0
281
1
  0
ACDBDICTIONARYWDFLT
  5
E
102
{ACAD_REACTORS
330
C
102
}
100
AcDbDictionary
281
1
  3
Normal
350
F
100
AcDbDictionaryWithDefault
340
F
  0
DICTIONARY
  5
17
102
{ACAD_REACTORS
330
C
102
}
100
AcDbDictionary
280
0
281
1
  3
Standard
350
18
  0
DICTIONARY
  5
19
102
{ACAD_REACTORS
330
C
102
}
100
AcDbDictionary
281
1
  0
DICTIONARY
  5
1A
102
{ACAD_REACTORS
330
C
102
}
100
AcDbDictionary
281
1
  3
Model
350
852
  3
Layout1
350
853
  0
ACDBPLACEHOLDER
  5
F
102
{ACAD_REACTORS
330
E
102
}
  0
MLINESTYLE
  5
18
102
{ACAD_REACTORS
330
17
102
}
100
AcDbMlineStyle
  2
STANDARD
 70
0
  3

 62
256
 51
90.0
 52
90.0
 71
2
 49
0.5
 62
256
  6
BYLAYER
 49
-0.5
 62
256
  6
BYLAYER
  0
LAYOUT
  5
852
102
{ACAD_REACTORS
330
1A
102
}
100
AcDbPlotSettings
  1

  2
none_device
  4
ISO_A0_(1189.00_x_841.00_MM)
  6

 40
0.0
 41
0.0
 42
0.0
 43
0.0
 44
1189.0
 45
841.0
 46
0.0
 47
0.0
 48
0.0
 49
0.0
140
0.0
141
0.0
142
1.0
143
1.0
 70
1024
 72
1
 73
0
 74
0
  7

 75
0
147
1.0
148
0.0
149
0.0
100
AcDbLayout
  1
Model
 70
0
 71
0
 10
0.0
 20
0.0
 11
1189.0
 21
841.0
 12
0.0
 22
0.0
 32
0.0
 14
0.0
 24
0.0
 34
0.0
 15
0.0
 25
0.0
 35
0.0
146
0.0
 13
0.0
 23
0.0
 33
0.0
 16
1.0
 26
0.0
 36
0.0
 17
0.0
 27
1.0
 37
0.0
 76
0
330
20A
345
0
346
0
  0
LAYOUT
  5
853
102
{ACAD_REACTORS
330
1A
102
}
100
AcDbPlotSettings
  1

  2
none_device
  4
ISO_A0_(1189.00_x_841.00_MM)
  6

 40
0.0
 41
0.0
 42
0.0
 43
0.0
 44
1189.0
 45
841.0
 46
0.0
 47
0.0
 48
0.0
 49
0.0
140
0.0
141
0.0
142
1.0
143
1.0
 70
0
 72
1
 73
0
 74
0
  7

 75
0
147
1.0
148
0.0
149
0.0
100
AcDbLayout
  1
Layout1
 70
0
 71
1
 10
0.0
 20
0.0
 11
1189.0
 21
841.0
 12
0.0
 22
0.0
 32
0.0
 14
0.0
 24
0.0
 34
0.0
 15
0.0
 25
0.0
 35
0.0
146
0.0
 13
0.0
 23
0.0
 33
0.0
 16
1.0
 26
0.0
 36
0.0
 17
0.0
 27
1.0
 37
0.0
 76
0
330
20B
345
0
346
0
  0
ENDSEC
  0
EOF
