999
DXF file: ISAK-RG-2-8_190_7903199_M34586-P-6.dxf
999
Pro/ENGINEER 2010140 by Parametric Technology Corporation
  0
SECTION
  2
HEADER
  9
$ACADVER
  1
AC1015
  9
$DWGCODEPAGE
  3
ANSI_1252
  9
$EXTMAX
 10
841.0
 20
594.0
 30
0.0
  9
$EXTMIN
 10
0.0
 20
0.0
 30
0.0
  9
$LIMMIN
 10
0.0
 20
0.0
  9
$LIMMAX
 10
841.0
 20
594.0
  9
$VIEWCTR
 10
420.5
 20
297.0
  9
$VIEWSIZE
 40
594.0
  9
$CLAYER
  8
0
  9
$LTSCALE
 40
46.255
  9
$CELTYPE
  6
BYLAYER
  9
$DIMSCALE
 40
1.0
  9
$DIMASZ
 40
3.5
  9
$DIMEXO
 40
5.25625
  9
$DIMDLI
 40
31.958
  9
$DIMEXE
 40
15.138
  9
$DIMCEN
 40
7.569
  9
$DIMLFAC
 40
1.0
  9
$DIMBLK
  1
_FILLED
  9
$DIMTXT
 40
3.5
  9
$DIMTOL
 70
1
  9
$DIMLIM
 70
0
  9
$DIMTFAC
 40
1.0
  9
$DIMTP
 40
0.005
  9
$DIMTM
 40
0.005
  9
$PDMODE
 70
3
  9
$PDSIZE
 40
0.3125
  9
$HANDSEED
  5
854
  9
$TILEMODE
 70
1
  9
$MEASUREMENT
 70
1
  9
$INSUNITS
 70
4
  0
ENDSEC
  0
SECTION
  2
CLASSES
  0
CLASS
  1
ACDBDICTIONARYWDFLT
  2
AcDbDictionaryWithDefault
  3
AutoCAD 2000
 90
0
280
0
281
0
  0
CLASS
  1
ACDBPLACEHOLDER
  2
AcDbPlaceHolder
  3
AutoCAD 2000
 90
0
280
0
281
0
  0
CLASS
  1
LAYOUT
  2
AcDbLayout
  3
AutoCAD 2000
 90
0
280
0
281
0
  0
ENDSEC
  0
SECTION
  2
TABLES
  0
TABLE
  2
VPORT
  5
8
100
AcDbSymbolTable
 70
2
  0
VPORT
  5
1F4
100
AcDbSymbolTableRecord
100
AcDbViewportTableRecord
  2
*ACTIVE
 70
0
 10
0.0
 20
0.0
 11
1.0
 21
1.0
 12
420.5
 22
297.0
 13
0.0
 23
0.0
 14
1.0
 24
1.0
 15
0.0
 25
0.0
 16
0.0
 26
0.0
 36
1.0
 17
0.0
 27
0.0
 37
0.0
 40
594.0
 41
1.4158249158
 42
50.0
 43
0.0
 44
0.0
 50
0.0
 51
0.0
 71
0
 72
100
 73
1
 74
1
 75
0
 76
0
 77
0
 78
0
  0
ENDTAB
  0
TABLE
  2
LTYPE
  5
5
100
AcDbSymbolTable
 70
6
  0
LTYPE
  5
14
100
AcDbSymbolTableRecord
100
AcDbLinetypeTableRecord
  2
BYBLOCK
 70
0
  3

 72
65
 73
0
 40
0.0
  0
LTYPE
  5
15
100
AcDbSymbolTableRecord
100
AcDbLinetypeTableRecord
  2
BYLAYER
 70
0
  3

 72
65
 73
0
 40
0.0
  0
LTYPE
  5
16
100
AcDbSymbolTableRecord
100
AcDbLinetypeTableRecord
  2
CONTINUOUS
 70
64
  3
Solid line
 72
65
 73
0
 40
0.0
  0
LTYPE
  5
1F5
100
AcDbSymbolTableRecord
100
AcDbLinetypeTableRecord
  2
CENTER
 70
64
  3
____ _ ____ _ ____ _ ____ _ ____ _ ____ _ ____
 72
65
 73
4
 40
0.6
 49
0.375
 74
0
 49
-0.075
 74
0
 49
0.075
 74
0
 49
-0.075
 74
0
  0
LTYPE
  5
1F6
100
AcDbSymbolTableRecord
100
AcDbLinetypeTableRecord
  2
HIDDEN
 70
64
  3
- - - - - - - - - - - - - - - - - - - -
 72
65
 73
2
 40
0.2
 49
0.1
 74
0
 49
-0.1
 74
0
  0
LTYPE
  5
1F7
100
AcDbSymbolTableRecord
100
AcDbLinetypeTableRecord
  2
PHANTOM
 70
64
  3
_____ _ _ _____ _ _ _____ _ _ _____
 72
65
 73
6
 40
0.8
 49
0.45
 74
0
 49
-0.05
 74
0
 49
0.1
 74
0
 49
-0.05
 74
0
 49
0.1
 74
0
 49
-0.05
 74
0
  0
LTYPE
  5
1F8
100
AcDbSymbolTableRecord
100
AcDbLinetypeTableRecord
  2
DOT
 70
64
  3
. . . . . . . . . . . . . . . . . . . .
 72
65
 73
2
 40
0.2
 49
0.1
 74
0
 49
-0.1
 74
0
  0
LTYPE
  5
1F9
100
AcDbSymbolTableRecord
100
AcDbLinetypeTableRecord
  2
DASHED
 70
64
  3
- - - - - - - - - - - - - - - - - - - -
 72
65
 73
2
 40
0.2
 49
0.1
 74
0
 49
-0.1
 74
0
  0
ENDTAB
  0
TABLE
  2
LAYER
  5
2
100
AcDbSymbolTable
 70
36
  0
LAYER
  5
10
100
AcDbSymbolTableRecord
100
AcDbLayerTableRecord
  2
0
 70
0
 62
7
  6
CONTINUOUS
370
-3
390
F
  0
LAYER
  5
1FA
100
AcDbSymbolTableRecord
100
AcDbLayerTableRecord
  2
DEFAULT_1
 70
0
 62
7
  6
CENTER
370
-3
390
F
  0
LAYER
  5
1FB
100
AcDbSymbolTableRecord
100
AcDbLayerTableRecord
  2
DEFAULT_2
 70
0
 62
8
  6
HIDDEN
370
-3
390
F
  0
LAYER
  5
1FC
100
AcDbSymbolTableRecord
100
AcDbLayerTableRecord
  2
DEFAULT_3
 70
0
 62
7
  6
PHANTOM
370
-3
390
F
  0
LAYER
  5
1FD
100
AcDbSymbolTableRecord
100
AcDbLayerTableRecord
  2
BEZUGSACHSEN
 70
0
 62
7
  6
CONTINUOUS
370
-3
390
F
  0
LAYER
  5
1FE
100
AcDbSymbolTableRecord
100
AcDbLayerTableRecord
  2
BEZUGSEBENEN
 70
0
 62
7
  6
CONTINUOUS
370
-3
390
F
  0
LAYER
  5
1FF
100
AcDbSymbolTableRecord
100
AcDbLayerTableRecord
  2
BG_STARTBEZUEGE
 70
0
 62
7
  6
CONTINUOUS
370
-3
390
F
  0
LAYER
  5
200
100
AcDbSymbolTableRecord
100
AcDbLayerTableRecord
  2
FASEN
 70
0
 62
7
  6
CONTINUOUS
370
-3
390
F
  0
LAYER
  5
201
100
AcDbSymbolTableRecord
100
AcDbLayerTableRecord
  2
HILFEN
 70
0
 62
7
  6
CONTINUOUS
370
-3
390
F
  0
LAYER
  5
202
100
AcDbSymbolTableRecord
100
AcDbLayerTableRecord
  2
KONSTRUKTIONSELEMENTE
 70
0
 62
7
  6
CONTINUOUS
370
-3
390
F
  0
LAYER
  5
203
100
AcDbSymbolTableRecord
100
AcDbLayerTableRecord
  2
NORM
 70
0
 62
7
  6
CONTINUOUS
370
-3
390
F
  0
LAYER
  5
204
100
AcDbSymbolTableRecord
100
AcDbLayerTableRecord
  2
PLATZIERUNG
 70
0
 62
7
  6
CONTINUOUS
370
-3
390
F
  0
LAYER
  5
205
100
AcDbSymbolTableRecord
100
AcDbLayerTableRecord
  2
RUNDUNGEN
 70
0
 62
7
  6
CONTINUOUS
370
-3
390
F
  0
LAYER
  5
206
100
AcDbSymbolTableRecord
100
AcDbLayerTableRecord
  2
TEIL_STARTBEZUEGE
 70
0
 62
7
  6
CONTINUOUS
370
-3
390
F
  0
LAYER
  5
207
100
AcDbSymbolTableRecord
100
AcDbLayerTableRecord
  2
T_STARTBEZUEGE
 70
0
 62
7
  6
CONTINUOUS
370
-3
390
F
  0
ENDTAB
  0
TABLE
  2
STYLE
  5
3
100
AcDbSymbolTable
 70
1
  0
STYLE
  5
11
100
AcDbSymbolTableRecord
100
AcDbTextStyleTableRecord
  2
STANDARD
 70
0
 40
0.0
 41
0.7
 50
0.0
 71
0
 42
0.2
  3
txt
  4

  0
STYLE
  5
208
100
AcDbSymbolTableRecord
100
AcDbTextStyleTableRecord
  2
TEXTSTYLE_1
 70
0
 40
0.0
 41
0.8
 50
0.0
 71
0
 42
0.2
  3
gdt
  4

  0
ENDTAB
  0
TABLE
  2
VIEW
  5
6
100
AcDbSymbolTable
 70
0
  0
ENDTAB
  0
TABLE
  2
UCS
  5
7
100
AcDbSymbolTable
 70
0
  0
ENDTAB
  0
TABLE
  2
APPID
  5
9
100
AcDbSymbolTable
 70
1
  0
APPID
  5
209
100
AcDbSymbolTableRecord
100
AcDbRegAppTableRecord
  2
ACAD
 70
0
  0
ENDTAB
  0
TABLE
  2
BLOCK_RECORD
  5
1
100
AcDbSymbolTable
 70
0
  0
BLOCK_RECORD
  5
20A
100
AcDbSymbolTableRecord
100
AcDbBlockTableRecord
  2
*Model_Space
  0
BLOCK_RECORD
  5
20B
100
AcDbSymbolTableRecord
100
AcDbBlockTableRecord
  2
*Paper_Space
  0
ENDTAB
  0
TABLE
  2
DIMSTYLE
  5
A
100
AcDbSymbolTable
 70
1
100
AcDbDimStyleTable
 71
0
  0
DIMSTYLE
105
20C
100
AcDbSymbolTableRecord
100
AcDbDimStyleTableRecord
  2
STANDARD
 70
0
  3

  4

 40
1.0
 41
3.5
 42
0.0625
 43
0.38
 44
0.18
 45
0.0
 46
0.0
 47
0.005
 48
0.005
140
3.5
141
0.09
142
0.0
143
25.4
144
1.0
145
0.0
146
1.0
147
0.09
 71
1.0
 72
0.0
 73
0
 74
0
 75
0
 76
0
 77
1
 78
8
170
0
171
2
172
0
173
0
174
0
175
0
176
0
177
0
178
5
270
2
271
3
272
3
273
2
274
2
275
0
280
0
281
0
282
0
283
1
284
8
285
0
286
0
287
3
288
0
340
11
  0
ENDTAB
  0
ENDSEC
  0
SECTION
  2
BLOCKS
  0
BLOCK
  5
20
100
AcDbEntity
  8
0
100
AcDbBlockBegin
  2
*Model_Space
 70
0
 10
0.0
 20
0.0
 30
0.0
  3
*Model_Space
  1

  0
ENDBLK
  5
21
100
AcDbEntity
  8
0
100
AcDbBlockEnd
  0
BLOCK
  5
1C
100
AcDbEntity
  8
0
100
AcDbBlockBegin
  2
*Paper_Space
 70
0
 10
0.0
 20
0.0
 30
0.0
  3
*Paper_Space
  1

  0
ENDBLK
  5
1D
100
AcDbEntity
  8
0
100
AcDbBlockEnd
  0
ENDSEC
  0
SECTION
  2
ENTITIES
  0
MTEXT
  5
20D
100
AcDbEntity
  8
0
100
AcDbMText
 62
5
  6
CONTINUOUS
  7
STANDARD
 71
1
 72
1
 10
453.2418799148
 20
367.6530497758
 30
0.0
 11
0.0
 21
1.0
 31
0.0
 44
0.9
  1
RUD
 40
11.0
 41
29.3333333333
  0
MTEXT
  5
20E
100
AcDbEntity
  8
0
100
AcDbMText
 62
5
  6
CONTINUOUS
  7
STANDARD
 71
1
 72
1
 10
668.8172874461
 20
319.9701293115
 30
0.0
 11
0.0
 21
1.0
 31
0.0
 44
0.9
  1
ISAK-RG 2-8/190
 40
11.0
 41
126.7619047619
  0
MTEXT
  5
20F
100
AcDbEntity
  8
0
100
AcDbMText
 62
5
  6
CONTINUOUS
  7
STANDARD
 71
1
 72
1
 10
174.9066215347
 20
296.9418183262
 30
0.0
 11
0.0
 21
1.0
 31
0.0
 44
0.9
  1
RUD ISAK-RG 2-8/190
 40
11.0
 41
162.6428571429
  0
LINE
  5
210
100
AcDbEntity
  8
0
100
AcDbLine
 62
7
  6
CONTINUOUS
 10
0.0
 20
0.0
 11
0.0
 21
594.0
  0
LINE
  5
211
100
AcDbEntity
  8
0
100
AcDbLine
 62
7
  6
CONTINUOUS
 10
0.0
 20
0.0
 11
841.0
 21
0.0
  0
LINE
  5
212
100
AcDbEntity
  8
0
100
AcDbLine
 62
7
  6
CONTINUOUS
 10
0.0
 20
594.0
 11
841.0
 21
594.0
  0
LINE
  5
213
100
AcDbEntity
  8
0
100
AcDbLine
 62
7
  6
CONTINUOUS
 10
841.0
 20
0.0
 11
841.0
 21
594.0
  0
LINE
  5
214
100
AcDbEntity
  8
RUNDUNGEN
100
AcDbLine
 62
7
  6
CONTINUOUS
 10
459.4177370503
 20
-6.5706547745
 11
461.9291441987
 21
-7.2435842918
  0
LINE
  5
215
100
AcDbEntity
  8
RUNDUNGEN
100
AcDbLine
 62
7
  6
CONTINUOUS
 10
502.3048437376
 20
-18.0622203771
 11
504.8162508859
 21
-18.7351498944
  0
LINE
  5
216
100
AcDbEntity
  8
RUNDUNGEN
100
AcDbLine
 62
7
  6
CONTINUOUS
 10
467.6229745228
 20
-1.4487334533
 11
472.8869902943
 21
-2.8592222282
  0
LINE
  5
217
100
AcDbEntity
  8
RUNDUNGEN
100
AcDbLine
 62
7
  6
CONTINUOUS
 10
495.0072516798
 20
-8.7863284028
 11
500.2712674513
 21
-10.1968171778
  0
LINE
  5
218
100
AcDbEntity
  8
0
100
AcDbLine
 62
7
  6
CONTINUOUS
 10
481.6303798391
 20
28.7651510753
 11
485.339535012
 21
27.7712859421
  0
LINE
  5
219
100
AcDbEntity
  8
0
100
AcDbLine
 62
7
  6
CONTINUOUS
 10
487.3067791926
 20
27.2441644526
 11
488.0486102272
 21
27.045391426
  0
LINE
  5
21A
100
AcDbEntity
  8
0
100
AcDbLine
 62
7
  6
CONTINUOUS
 10
491.5823176598
 20
26.0985373731
 11
492.4389103548
 21
25.8690140523
  0
LINE
  5
21B
100
AcDbEntity
  8
0
100
AcDbLine
 62
7
  6
CONTINUOUS
 10
498.8933572627
 20
24.1395502157
 11
501.5809238336
 21
23.4194189234
  0
LINE
  5
21C
100
AcDbEntity
  8
0
100
AcDbLine
 62
7
  6
CONTINUOUS
 10
481.7035849198
 20
29.0383561561
 11
485.4127400928
 21
28.0444910229
  0
LINE
  5
21D
100
AcDbEntity
  8
0
100
AcDbLine
 62
7
  6
CONTINUOUS
 10
487.3799842734
 20
27.5173695334
 11
488.1218153079
 21
27.3185965068
  0
LINE
  5
21E
100
AcDbEntity
  8
0
100
AcDbLine
 62
7
  6
CONTINUOUS
 10
491.6555227406
 20
26.3717424539
 11
492.2890444213
 21
26.2019908312
  0
LINE
  5
21F
100
AcDbEntity
  8
0
100
AcDbLine
 62
7
  6
CONTINUOUS
 10
498.9665623435
 20
24.4127552965
 11
501.6541289143
 21
23.6926240042
  0
LINE
  5
220
100
AcDbEntity
  8
0
100
AcDbLine
 62
7
  6
CONTINUOUS
 10
501.743589737
 20
23.9614733721
 11
499.7815984588
 21
24.4871873506
  0
LINE
  5
221
100
AcDbEntity
  8
0
100
AcDbLine
 62
7
  6
CONTINUOUS
 10
484.2402051151
 20
28.7686192755
 11
483.0810941236
 21
29.0792021296
  0
LINE
  5
222
100
AcDbEntity
  8
0
100
AcDbLine
 62
7
  6
CONTINUOUS
 10
483.3556186748
 20
29.2691817886
 11
484.0974497093
 21
29.0704087619
  0
LINE
  5
223
100
AcDbEntity
  8
0
100
AcDbLine
 62
7
  6
CONTINUOUS
 10
483.4288237555
 20
29.5423868693
 11
484.1706547901
 21
29.3436138427
  0
LINE
  5
224
100
AcDbEntity
  8
0
100
AcDbLine
 62
7
  6
CONTINUOUS
 10
483.9833641553
 20
29.8037466693
 11
483.8210886165
 21
29.8472282688
  0
LINE
  5
225
100
AcDbEntity
  8
0
100
AcDbLine
 62
7
  6
CONTINUOUS
 10
484.3170649516
 20
29.8900240042
 11
484.1200160831
 21
29.9428230894
  0
LINE
  5
226
100
AcDbEntity
  8
0
100
AcDbLine
 62
7
  6
CONTINUOUS
 10
483.7722827856
 20
30.0359979456
 11
483.575233917
 21
30.0887970308
  0
LINE
  5
227
100
AcDbEntity
  8
0
100
AcDbLine
 62
7
  6
CONTINUOUS
 10
483.4324785112
 20
30.3905865172
 11
483.8381673583
 21
30.2818825183
  0
LINE
  5
228
100
AcDbEntity
  8
0
100
AcDbLine
 62
7
  6
CONTINUOUS
 10
484.1859006557
 20
30.1887076621
 11
484.5915895028
 21
30.0800036631
  0
LINE
  5
229
100
AcDbEntity
  8
0
100
AcDbLine
 62
7
  6
CONTINUOUS
 10
488.59964926
 20
29.1018970935
 11
490.4542268465
 21
28.6049645269
  0
LINE
  5
22A
100
AcDbEntity
  8
0
100
AcDbLine
 62
7
  6
CONTINUOUS
 10
483.505683592
 20
30.663791598
 11
483.911372439
 21
30.5550875991
  0
LINE
  5
22B
100
AcDbEntity
  8
0
100
AcDbLine
 62
7
  6
CONTINUOUS
 10
484.2591057365
 20
30.4619127428
 11
484.6647945835
 21
30.3532087439
  0
LINE
  5
22C
100
AcDbEntity
  8
0
100
AcDbLine
 62
7
  6
CONTINUOUS
 10
484.6794355997
 20
30.40784976
 11
484.2737467526
 21
30.516553759
  0
LINE
  5
22D
100
AcDbEntity
  8
0
100
AcDbLine
 62
7
  6
CONTINUOUS
 10
483.9260134552
 20
30.6097286152
 11
483.5203246081
 21
30.7184326142
  0
LINE
  5
22E
100
AcDbEntity
  8
0
100
AcDbLine
 62
7
  6
CONTINUOUS
 10
488.6728543408
 20
29.3751021742
 11
490.5274319273
 21
28.8781696076
  0
LINE
  5
22F
100
AcDbEntity
  8
0
100
AcDbLine
 62
7
  6
CONTINUOUS
 10
483.7948491593
 20
30.9084122731
 11
483.9918980279
 21
30.8556131879
  0
LINE
  5
230
100
AcDbEntity
  8
0
100
AcDbLine
 62
7
  6
CONTINUOUS
 10
484.3396313253
 20
30.7624383317
 11
484.5366801939
 21
30.7096392465
  0
LINE
  5
231
100
AcDbEntity
  8
0
100
AcDbLine
 62
7
  6
CONTINUOUS
 10
490.903876866
 20
29.0466961875
 11
488.7402030151
 21
29.6264508485
  0
LINE
  5
232
100
AcDbEntity
  8
0
100
AcDbLine
 62
7
  6
CONTINUOUS
 10
484.1285499556
 20
30.994689608
 11
484.2908254945
 21
30.9512080084
  0
LINE
  5
233
100
AcDbEntity
  8
0
100
AcDbLine
 62
7
  6
CONTINUOUS
 10
483.8680542401
 20
31.1816173538
 11
484.0651031086
 21
31.1288182686
  0
LINE
  5
234
100
AcDbEntity
  8
0
100
AcDbLine
 62
7
  6
CONTINUOUS
 10
484.4128364061
 20
31.0356434124
 11
484.6098852746
 21
30.9828443272
  0
LINE
  5
235
100
AcDbEntity
  8
0
100
AcDbLine
 62
7
  6
CONTINUOUS
 10
484.2017550364
 20
31.2678946888
 11
484.3640305752
 21
31.2244130892
  0
LINE
  5
236
100
AcDbEntity
  8
0
100
AcDbLine
 62
7
  6
CONTINUOUS
 10
500.5136492664
 20
27.2192381582
 11
499.7718182318
 21
27.4180111848
  0
LINE
  5
237
100
AcDbEntity
  8
0
100
AcDbLine
 62
7
  6
CONTINUOUS
 10
488.9343917043
 20
30.3511729032
 11
488.1925606698
 21
30.5499459298
  0
LINE
  5
238
100
AcDbEntity
  8
0
100
AcDbLine
 62
7
  6
CONTINUOUS
 10
484.7562954362
 20
31.5292544887
 11
484.0144644016
 21
31.7280275154
  0
LINE
  5
239
100
AcDbEntity
  8
0
100
AcDbLine
 62
7
  6
CONTINUOUS
 10
483.8717089958
 20
32.0298170018
 11
485.0308199873
 21
31.7192341477
  0
LINE
  5
23A
100
AcDbEntity
  8
0
100
AcDbLine
 62
7
  6
CONTINUOUS
 10
499.8948027675
 20
27.8769957205
 11
502.5986250802
 21
27.1525087153
  0
LINE
  5
23B
100
AcDbEntity
  8
0
100
AcDbLine
 62
7
  6
CONTINUOUS
 10
488.3155452054
 20
31.0089304655
 11
491.2210500909
 21
30.2304027778
  0
LINE
  5
23C
100
AcDbEntity
  8
0
100
AcDbLine
 62
7
  6
CONTINUOUS
 10
483.9449140765
 20
32.3030220825
 11
485.1040250681
 21
31.9924392284
  0
LINE
  5
23D
100
AcDbEntity
  8
0
100
AcDbLine
 62
7
  6
CONTINUOUS
 10
499.9680078482
 20
28.1502008012
 11
502.671830161
 21
27.425713796
  0
LINE
  5
23E
100
AcDbEntity
  8
0
100
AcDbLine
 62
7
  6
CONTINUOUS
 10
488.3887502862
 20
31.2821355462
 11
491.2942551717
 21
30.5036078586
  0
LINE
  5
23F
100
AcDbEntity
  8
0
100
AcDbLine
 62
7
  6
CONTINUOUS
 10
502.7229230934
 20
27.6814181832
 11
500.0353565225
 21
28.4015494755
  0
LINE
  5
240
100
AcDbEntity
  8
0
100
AcDbLine
 62
7
  6
CONTINUOUS
 10
498.4126011344
 20
28.8363654713
 11
497.6707700998
 21
29.0351384979
  0
LINE
  5
241
100
AcDbEntity
  8
0
100
AcDbLine
 62
7
  6
CONTINUOUS
 10
494.7543422464
 20
29.816592986
 11
494.0125112118
 21
30.0153660127
  0
LINE
  5
242
100
AcDbEntity
  8
0
100
AcDbLine
 62
7
  6
CONTINUOUS
 10
491.3542833379
 20
30.7276360248
 11
488.4487784524
 21
31.5061637124
  0
LINE
  5
243
100
AcDbEntity
  8
0
100
AcDbLine
 62
7
  6
CONTINUOUS
 10
486.4815342718
 20
32.0332852019
 11
482.7723790989
 21
33.0271503351
  0
LINE
  5
244
100
AcDbEntity
  8
0
100
AcDbLine
 62
7
  6
CONTINUOUS
 10
648.0152179225
 20
72.9222056629
 11
644.5185131188
 21
71.9852664346
  0
LINE
  5
245
100
AcDbEntity
  8
0
100
AcDbLine
 62
7
  6
CONTINUOUS
 10
614.2101855369
 20
63.864174535
 11
610.7134807332
 21
62.9272353067
  0
LINE
  5
246
100
AcDbEntity
  8
BEZUGSACHSEN
100
AcDbLine
 62
7
  6
CONTINUOUS
 10
632.0328394327
 20
77.2842963598
 11
622.3735811698
 21
74.6961059088
  0
LINE
  5
247
100
AcDbEntity
  8
RUNDUNGEN
100
AcDbLine
 62
7
  6
CONTINUOUS
 10
489.2039785871
 20
40.3896344107
 11
485.6191310327
 21
39.6706430442
  0
LINE
  5
248
100
AcDbEntity
  8
RUNDUNGEN
100
AcDbLine
 62
7
  6
CONTINUOUS
 10
468.2264804603
 20
37.2441454035
 11
471.1839796927
 21
37.8373132809
  0
LINE
  5
249
100
AcDbEntity
  8
RUNDUNGEN
100
AcDbLine
 62
7
  6
CONTINUOUS
 10
490.1190420966
 20
43.8046979202
 11
486.5341945422
 21
43.0857065536
  0
LINE
  5
24A
100
AcDbEntity
  8
RUNDUNGEN
100
AcDbLine
 62
7
  6
CONTINUOUS
 10
469.1415439698
 20
40.6592089129
 11
471.3212368729
 21
41.0963768414
  0
LINE
  5
24B
100
AcDbEntity
  8
RUNDUNGEN
100
AcDbLine
 62
7
  6
CONTINUOUS
 10
468.0722782973
 20
43.2884802065
 11
465.1147790649
 21
42.6953123291
  0
LINE
  5
24C
100
AcDbEntity
  8
KONSTRUKTIONSELEMENTE
100
AcDbLine
 62
7
  6
CONTINUOUS
 10
522.3585715252
 20
62.9272353067
 11
518.8956516136
 21
63.8551219005
  0
LINE
  5
24D
100
AcDbEntity
  8
0
100
AcDbLine
 62
7
  6
CONTINUOUS
 10
518.8956516136
 20
63.8551219005
 11
518.8618667215
 21
63.864174535
  0
LINE
  5
24E
100
AcDbEntity
  8
0
100
AcDbLine
 62
7
  6
CONTINUOUS
 10
488.5535391396
 20
71.9852664346
 11
488.5197542476
 21
71.9943190691
  0
LINE
  5
24F
100
AcDbEntity
  8
KONSTRUKTIONSELEMENTE
100
AcDbLine
 62
7
  6
CONTINUOUS
 10
488.5197542476
 20
71.9943190691
 11
485.0568343359
 21
72.9222056629
  0
LINE
  5
250
100
AcDbEntity
  8
BEZUGSACHSEN
100
AcDbLine
 62
7
  6
CONTINUOUS
 10
501.0392128257
 20
77.2842963598
 11
510.6984710886
 21
74.6961059088
  0
LINE
  5
251
100
AcDbEntity
  8
RUNDUNGEN
100
AcDbLine
 62
7
  6
CONTINUOUS
 10
509.63794438
 20
30.5475440066
 11
502.5007536244
 21
36.8267742775
  0
LINE
  5
252
100
AcDbEntity
  8
RUNDUNGEN
100
AcDbLine
 62
7
  6
CONTINUOUS
 10
503.4158171339
 20
40.241837787
 11
510.5530078894
 21
33.9626075161
  0
LINE
  5
253
100
AcDbEntity
  8
BEZUGSACHSEN
100
AcDbLine
 62
7
  6
CONTINUOUS
 10
631.2514814095
 20
80.2003642012
 11
621.5922231466
 21
77.6121737502
  0
LINE
  5
254
100
AcDbEntity
  8
BEZUGSACHSEN
100
AcDbLine
 62
7
  6
CONTINUOUS
 10
629.8895422462
 20
85.2831903555
 11
620.2302839833
 21
82.6949999045
  0
LINE
  5
255
100
AcDbEntity
  8
BEZUGSACHSEN
100
AcDbLine
 62
7
  6
CONTINUOUS
 10
629.108184223
 20
88.1992581969
 11
619.4489259601
 21
85.6110677459
  0
LINE
  5
256
100
AcDbEntity
  8
0
100
AcDbLine
 62
7
  6
CONTINUOUS
 10
642.4092913656
 20
94.1961781381
 11
632.373794994
 21
91.5071749897
  0
LINE
  5
257
100
AcDbEntity
  8
0
100
AcDbLine
 62
7
  6
CONTINUOUS
 10
614.9668656771
 20
86.8430023366
 11
604.9313693056
 21
84.1539991882
  0
LINE
  5
258
100
AcDbEntity
  8
0
100
AcDbLine
 62
7
  6
CONTINUOUS
 10
603.5865060973
 20
89.1730970106
 11
618.2958515023
 21
93.114454233
  0
LINE
  5
259
100
AcDbEntity
  8
0
100
AcDbLine
 62
7
  6
CONTINUOUS
 10
626.3550827524
 20
95.2739187381
 11
641.0644281573
 21
99.2152759606
  0
LINE
  5
25A
100
AcDbEntity
  8
RUNDUNGEN
100
AcDbLine
 62
7
  6
CONTINUOUS
 10
465.9816010833
 20
49.5756238999
 11
464.1891773061
 21
49.2161282166
  0
LINE
  5
25B
100
AcDbEntity
  8
RUNDUNGEN
100
AcDbLine
 62
7
  6
CONTINUOUS
 10
466.8966645928
 20
52.9906874094
 11
465.1042408156
 21
52.6311917261
  0
LINE
  5
25C
100
AcDbEntity
  8
0
100
AcDbLine
 62
7
  6
CONTINUOUS
 10
527.4541940293
 20
91.0393055699
 11
527.8094547691
 21
91.0281305861
  0
LINE
  5
25D
100
AcDbEntity
  8
BEZUGSACHSEN
100
AcDbLine
 62
7
  6
CONTINUOUS
 10
501.8205708489
 20
80.2003642012
 11
511.4798291118
 21
77.6121737502
  0
LINE
  5
25E
100
AcDbEntity
  8
BEZUGSACHSEN
100
AcDbLine
 62
7
  6
CONTINUOUS
 10
503.1825100122
 20
85.2831903555
 11
512.8417682751
 21
82.6949999045
  0
LINE
  5
25F
100
AcDbEntity
  8
BEZUGSACHSEN
100
AcDbLine
 62
7
  6
CONTINUOUS
 10
503.9638680354
 20
88.1992581969
 11
513.6231262983
 21
85.6110677459
  0
LINE
  5
260
100
AcDbEntity
  8
RUNDUNGEN
100
AcDbLine
 62
7
  6
CONTINUOUS
 10
490.6627608928
 20
94.1961781381
 11
500.6982572644
 21
91.5071749897
  0
LINE
  5
261
100
AcDbEntity
  8
RUNDUNGEN
100
AcDbLine
 62
7
  6
CONTINUOUS
 10
518.1051865813
 20
86.8430023366
 11
528.1406829528
 21
84.1539991882
  0
LINE
  5
262
100
AcDbEntity
  8
RUNDUNGEN
100
AcDbLine
 62
7
  6
CONTINUOUS
 10
529.4855461611
 20
89.1730970106
 11
514.7762007561
 21
93.114454233
  0
LINE
  5
263
100
AcDbEntity
  8
RUNDUNGEN
100
AcDbLine
 62
7
  6
CONTINUOUS
 10
506.716969506
 20
95.2739187381
 11
492.0076241011
 21
99.2152759606
  0
LINE
  5
264
100
AcDbEntity
  8
0
100
AcDbLine
 62
7
  6
CONTINUOUS
 10
494.6900920034
 20
99.8184202485
 11
495.1506261189
 21
99.6950205042
  0
LINE
  5
265
100
AcDbEntity
  8
0
100
AcDbLine
 62
7
  6
CONTINUOUS
 10
497.0695181934
 20
99.1808549224
 11
497.6068081412
 21
99.0368885148
  0
LINE
  5
266
100
AcDbEntity
  8
0
100
AcDbLine
 62
7
  6
CONTINUOUS
 10
499.4489443834
 20
98.5432895964
 11
499.7559672735
 21
98.4610230609
  0
LINE
  5
267
100
AcDbEntity
  8
0
100
AcDbLine
 62
7
  6
CONTINUOUS
 10
501.5981037353
 20
97.9674240836
 11
503.4402401971
 21
97.4738251063
  0
LINE
  5
268
100
AcDbEntity
  8
0
100
AcDbLine
 62
7
  6
CONTINUOUS
 10
515.6883460104
 20
94.1919550449
 11
516.0894544569
 21
94.0844783605
  0
LINE
  5
269
100
AcDbEntity
  8
0
100
AcDbLine
 62
7
  6
CONTINUOUS
 10
516.624265687
 20
93.9411761233
 11
517.0253741335
 21
93.833699439
  0
LINE
  5
26A
100
AcDbEntity
  8
0
100
AcDbLine
 62
7
  6
CONTINUOUS
 10
518.6966593591
 20
93.3858799125
 11
519.1646193408
 21
93.2604904133
  0
LINE
  5
26B
100
AcDbEntity
  8
0
100
AcDbLine
 62
7
  6
CONTINUOUS
 10
520.7690531268
 20
92.830583676
 11
521.3707157966
 21
92.6693686496
  0
LINE
  5
26C
100
AcDbEntity
  8
0
100
AcDbLine
 62
7
  6
CONTINUOUS
 10
527.0530855828
 20
91.1467822542
 11
527.4541940293
 21
91.0393055699
  0
LINE
  5
26D
100
AcDbEntity
  8
0
100
AcDbLine
 62
7
  6
CONTINUOUS
 10
527.4923631727
 20
91.4491624235
 11
527.2249577967
 21
91.5208134781
  0
LINE
  5
26E
100
AcDbEntity
  8
0
100
AcDbLine
 62
7
  6
CONTINUOUS
 10
521.4967410671
 20
93.139701362
 11
520.8950783973
 21
93.3009163885
  0
LINE
  5
26F
100
AcDbEntity
  8
0
100
AcDbLine
 62
7
  6
CONTINUOUS
 10
503.5662654676
 20
97.9441578188
 11
502.1846631213
 21
98.3143570518
  0
LINE
  5
270
100
AcDbEntity
  8
0
100
AcDbLine
 62
7
  6
CONTINUOUS
 10
499.881992544
 20
98.9313557734
 11
499.5749696539
 21
99.0136223089
  0
LINE
  5
271
100
AcDbEntity
  8
0
100
AcDbLine
 62
7
  6
CONTINUOUS
 10
521.7239485061
 20
94.2550572093
 11
522.3256111758
 21
94.0938421829
  0
LINE
  5
272
100
AcDbEntity
  8
0
100
AcDbLine
 62
7
  6
CONTINUOUS
 10
495.5917145729
 20
101.3411850253
 11
496.8965611968
 21
100.9915524262
  0
LINE
  5
273
100
AcDbEntity
  8
0
100
AcDbLine
 62
7
  6
CONTINUOUS
 10
517.4664625875
 20
95.4798639602
 11
518.6029364874
 21
95.1753466965
  0
LINE
  5
274
100
AcDbEntity
  8
0
100
AcDbLine
 62
7
  6
CONTINUOUS
 10
527.5820293989
 20
92.8534228393
 11
527.8494347748
 21
92.7817717847
  0
LINE
  5
275
100
AcDbEntity
  8
0
100
AcDbLine
 62
7
  6
CONTINUOUS
 10
527.933451612
 20
93.0953268898
 11
527.666046236
 21
93.1669779444
  0
LINE
  5
276
100
AcDbEntity
  8
0
100
AcDbLine
 62
7
  6
CONTINUOUS
 10
522.8527448781
 20
94.4566981561
 11
521.8499737618
 21
94.7253898669
  0
LINE
  5
277
100
AcDbEntity
  8
0
100
AcDbLine
 62
7
  6
CONTINUOUS
 10
518.8626646224
 20
95.6098537756
 11
517.5924878433
 21
95.9501966178
  0
LINE
  5
278
100
AcDbEntity
  8
0
100
AcDbLine
 62
7
  6
CONTINUOUS
 10
497.1760977878
 20
101.4207518455
 11
495.7177398287
 21
101.8115176829
  0
LINE
  5
279
100
AcDbEntity
  8
0
100
AcDbLine
 62
7
  6
CONTINUOUS
 10
522.6406743153
 20
95.2696738268
 11
523.0417827617
 21
95.1621971425
  0
LINE
  5
27A
100
AcDbEntity
  8
0
100
AcDbLine
 62
7
  6
CONTINUOUS
 10
499.0861703114
 20
98.7245114605
 11
499.4489443834
 21
98.5432895964
  0
LINE
  5
27B
100
AcDbEntity
  8
0
100
AcDbLine
 62
7
  6
CONTINUOUS
 10
499.5749696539
 20
99.0136223089
 11
499.2889514124
 21
99.1742775029
  0
LINE
  5
27C
100
AcDbEntity
  8
RUNDUNGEN
100
AcDbLine
 62
7
  6
CONTINUOUS
 10
530.4990052646
 20
30.2727795033
 11
525.5578732031
 21
34.6199389216
  0
LINE
  5
27D
100
AcDbEntity
  8
RUNDUNGEN
100
AcDbLine
 62
7
  6
CONTINUOUS
 10
531.4140687741
 20
33.6878430128
 11
526.4729367126
 21
38.0350024311
  0
LINE
  5
27E
100
AcDbEntity
  8
RUNDUNGEN
100
AcDbLine
 62
7
  6
CONTINUOUS
 10
462.2207980091
 20
45.6653618238
 11
463.5543843214
 21
43.3291474271
  0
LINE
  5
27F
100
AcDbEntity
  8
RUNDUNGEN
100
AcDbLine
 62
7
  6
CONTINUOUS
 10
467.6359666712
 20
36.1789154856
 11
476.1192054163
 21
21.3177367946
  0
LINE
  5
280
100
AcDbEntity
  8
RUNDUNGEN
100
AcDbLine
 62
7
  6
CONTINUOUS
 10
489.2813284506
 20
-1.7400443481
 11
492.154454933
 21
-6.7732689618
  0
LINE
  5
281
100
AcDbEntity
  8
RUNDUNGEN
100
AcDbLine
 62
7
  6
CONTINUOUS
 10
472.1681693412
 20
39.6126964773
 11
470.6729362031
 21
42.2320883766
  0
LINE
  5
282
100
AcDbEntity
  8
RUNDUNGEN
100
AcDbLine
 62
7
  6
CONTINUOUS
 10
510.36643613
 20
-10.6814184159
 11
501.7772282245
 21
4.3654000614
  0
LINE
  5
283
100
AcDbEntity
  8
RUNDUNGEN
100
AcDbLine
 62
7
  6
CONTINUOUS
 10
480.417815221
 20
41.7834267039
 11
478.9848906126
 21
44.2936647505
  0
LINE
  5
284
100
AcDbEntity
  8
0
100
AcDbLine
 62
7
  6
CONTINUOUS
 10
528.0901873176
 20
91.5410264382
 11
527.780773523
 21
91.4558999403
  0
LINE
  5
285
100
AcDbEntity
  8
0
100
AcDbLine
 62
7
  6
CONTINUOUS
 10
528.4262547104
 20
92.7952470232
 11
528.5809619903
 21
92.8378101697
  0
LINE
  5
286
100
AcDbEntity
  8
0
100
AcDbLine
 62
7
  6
CONTINUOUS
 10
526.984205254
 20
92.7615588246
 11
527.2936198136
 21
92.8466851176
  0
LINE
  5
287
100
AcDbEntity
  8
0
100
AcDbLine
 62
7
  6
CONTINUOUS
 10
527.0892263004
 20
93.1535027059
 11
526.9345197857
 21
93.1109393544
  0
LINE
  5
288
100
AcDbEntity
  8
0
100
AcDbLine
 62
7
  6
CONTINUOUS
 10
521.7259769189
 20
92.6581935633
 11
522.0353911016
 21
92.7433199793
  0
LINE
  5
289
100
AcDbEntity
  8
0
100
AcDbLine
 62
7
  6
CONTINUOUS
 10
603.7803130876
 20
99.528159558
 11
606.2325333992
 21
100.1852300102
  0
LINE
  5
28A
100
AcDbEntity
  8
0
100
AcDbLine
 62
7
  6
CONTINUOUS
 10
633.2668347951
 20
107.4290492371
 11
635.7190554139
 21
108.0861197716
  0
LINE
  5
28B
100
AcDbEntity
  8
0
100
AcDbLine
 62
7
  6
CONTINUOUS
 10
628.8236067391
 20
106.3438666651
 11
610.6230730565
 21
101.467048363
  0
LINE
  5
28C
100
AcDbEntity
  8
0
100
AcDbLine
 62
7
  6
CONTINUOUS
 10
519.084223055
 20
95.6345042097
 11
518.8626646224
 21
95.6098537756
  0
LINE
  5
28D
100
AcDbEntity
  8
0
100
AcDbLine
 62
7
  6
CONTINUOUS
 10
497.4273690548
 20
101.4374407496
 11
497.1760977878
 21
101.4207518455
  0
LINE
  5
28E
100
AcDbEntity
  8
0
100
AcDbLine
 62
7
  6
CONTINUOUS
 10
527.780773523
 20
91.4558999403
 11
527.4923631727
 21
91.4491624235
  0
LINE
  5
28F
100
AcDbEntity
  8
0
100
AcDbLine
 62
7
  6
CONTINUOUS
 10
527.2936198136
 20
92.8466851176
 11
527.5820293989
 21
92.8534228393
  0
LINE
  5
290
100
AcDbEntity
  8
0
100
AcDbLine
 62
7
  6
CONTINUOUS
 10
528.2218619624
 20
93.1020644065
 11
527.933451612
 21
93.0953268898
  0
LINE
  5
291
100
AcDbEntity
  8
0
100
AcDbLine
 62
7
  6
CONTINUOUS
 10
521.7851506523
 20
93.1464390838
 11
521.4967410671
 21
93.139701362
  0
LINE
  5
292
100
AcDbEntity
  8
0
100
AcDbLine
 62
7
  6
CONTINUOUS
 10
527.7137040583
 20
94.4144608625
 11
528.0021136436
 21
94.4211985842
  0
LINE
  5
293
100
AcDbEntity
  8
0
100
AcDbLine
 62
7
  6
CONTINUOUS
 10
521.3418158578
 20
96.0377863229
 11
521.6302258256
 21
96.0445239421
  0
LINE
  5
294
100
AcDbEntity
  8
0
100
AcDbLine
 62
7
  6
CONTINUOUS
 10
503.8942921278
 20
97.9402801773
 11
503.5662654676
 21
97.9441578188
  0
LINE
  5
295
100
AcDbEntity
  8
0
100
AcDbLine
 62
7
  6
CONTINUOUS
 10
500.2100196433
 20
98.9274780142
 11
499.881992544
 21
98.9313557734
  0
LINE
  5
296
100
AcDbEntity
  8
0
100
AcDbLine
 62
7
  6
CONTINUOUS
 10
521.3707157966
 20
92.6693686496
 11
521.7259769189
 21
92.6581935633
  0
LINE
  5
297
100
AcDbEntity
  8
0
100
AcDbLine
 62
7
  6
CONTINUOUS
 10
528.1071346901
 20
94.8131424655
 11
527.751873187
 21
94.8243176612
  0
LINE
  5
298
100
AcDbEntity
  8
0
100
AcDbLine
 62
7
  6
CONTINUOUS
 10
521.7562510814
 20
96.5148565997
 11
521.4009895784
 21
96.5260317954
  0
LINE
  5
299
100
AcDbEntity
  8
0
100
AcDbLine
 62
7
  6
CONTINUOUS
 10
503.4402401971
 20
97.4738251063
 11
503.8450231306
 21
97.4493806907
  0
LINE
  5
29A
100
AcDbEntity
  8
0
100
AcDbLine
 62
7
  6
CONTINUOUS
 10
499.7559672735
 20
98.4610230609
 11
500.1607497678
 21
98.436578763
  0
LINE
  5
29B
100
AcDbEntity
  8
0
100
AcDbLine
 62
7
  6
CONTINUOUS
 10
502.9198105496
 20
101.0579646054
 11
504.301412896
 21
100.6877653724
  0
LINE
  5
29C
100
AcDbEntity
  8
0
100
AcDbLine
 62
7
  6
CONTINUOUS
 10
521.6302258256
 20
96.0445239421
 11
522.2318884954
 21
95.8833089156
  0
LINE
  5
29D
100
AcDbEntity
  8
0
100
AcDbLine
 62
7
  6
CONTINUOUS
 10
496.032803027
 20
102.9873495465
 11
497.4911609861
 21
102.5965837091
  0
LINE
  5
29E
100
AcDbEntity
  8
0
100
AcDbLine
 62
7
  6
CONTINUOUS
 10
517.9075510416
 20
97.1260284814
 11
519.1777278207
 21
96.7856856391
  0
LINE
  5
29F
100
AcDbEntity
  8
0
100
AcDbLine
 62
7
  6
CONTINUOUS
 10
528.0021136436
 20
94.4211985842
 11
528.2695190196
 21
94.3495475296
  0
LINE
  5
2A0
100
AcDbEntity
  8
0
100
AcDbLine
 62
7
  6
CONTINUOUS
 10
528.3745400661
 20
94.741491411
 11
528.1071346901
 21
94.8131424655
  0
LINE
  5
2A1
100
AcDbEntity
  8
0
100
AcDbLine
 62
7
  6
CONTINUOUS
 10
522.3579137512
 20
96.3536415732
 11
521.7562510814
 21
96.5148565997
  0
LINE
  5
2A2
100
AcDbEntity
  8
0
100
AcDbLine
 62
7
  6
CONTINUOUS
 10
519.2158975232
 20
97.1955422841
 11
517.6114636416
 21
97.625449047
  0
LINE
  5
2A3
100
AcDbEntity
  8
0
100
AcDbLine
 62
7
  6
CONTINUOUS
 10
517.0766524114
 20
97.7687512842
 11
516.6755439649
 21
97.8762279685
  0
LINE
  5
2A4
100
AcDbEntity
  8
0
100
AcDbLine
 62
7
  6
CONTINUOUS
 10
504.4274381517
 20
101.15809803
 11
502.5853016899
 21
101.6516970073
  0
LINE
  5
2A5
100
AcDbEntity
  8
0
100
AcDbLine
 62
7
  6
CONTINUOUS
 10
501.971256349
 20
101.8162299605
 11
501.5107222336
 21
101.9396297048
  0
LINE
  5
2A6
100
AcDbEntity
  8
0
100
AcDbLine
 62
7
  6
CONTINUOUS
 10
499.6685857717
 20
102.4332286821
 11
499.2080514367
 21
102.5566284853
  0
LINE
  5
2A7
100
AcDbEntity
  8
0
100
AcDbLine
 62
7
  6
CONTINUOUS
 10
497.5194264199
 20
103.0090941949
 11
495.677289958
 21
103.5026931721
  0
LINE
  5
2A8
100
AcDbEntity
  8
RUNDUNGEN
100
AcDbLine
 62
7
  6
CONTINUOUS
 10
529.2917391708
 20
99.528159558
 11
526.8395188592
 21
100.1852300102
  0
LINE
  5
2A9
100
AcDbEntity
  8
RUNDUNGEN
100
AcDbLine
 62
7
  6
CONTINUOUS
 10
499.8052174634
 20
107.4290492371
 11
497.3529968445
 21
108.0861197716
  0
LINE
  5
2AA
100
AcDbEntity
  8
RUNDUNGEN
100
AcDbLine
 62
7
  6
CONTINUOUS
 10
504.2483425547
 20
106.3438942544
 11
522.4490696867
 21
101.4670241177
  0
LINE
  5
2AB
100
AcDbEntity
  8
0
100
AcDbLine
 62
7
  6
CONTINUOUS
 10
497.8822007133
 20
102.8278722787
 11
497.5194264199
 21
103.0090941949
  0
LINE
  5
2AC
100
AcDbEntity
  8
0
100
AcDbLine
 62
7
  6
CONTINUOUS
 10
504.7902126648
 20
100.976876055
 11
504.4274381517
 21
101.15809803
  0
LINE
  5
2AD
100
AcDbEntity
  8
0
100
AcDbLine
 62
7
  6
CONTINUOUS
 10
520.4558000442
 20
92.9985364311
 11
520.7690531268
 21
92.830583676
  0
LINE
  5
2AE
100
AcDbEntity
  8
0
100
AcDbLine
 62
7
  6
CONTINUOUS
 10
526.7398325001
 20
91.3147350093
 11
527.0530855828
 21
91.1467822542
  0
LINE
  5
2AF
100
AcDbEntity
  8
0
100
AcDbLine
 62
7
  6
CONTINUOUS
 10
519.5291502251
 20
97.0275896384
 11
519.2158975232
 21
97.1955422841
  0
LINE
  5
2B0
100
AcDbEntity
  8
0
100
AcDbLine
 62
7
  6
CONTINUOUS
 10
522.6711664531
 20
96.1856889275
 11
522.3579137512
 21
96.3536415732
  0
LINE
  5
2B1
100
AcDbEntity
  8
0
100
AcDbLine
 62
7
  6
CONTINUOUS
 10
528.6877931506
 20
94.5735386628
 11
528.3745400661
 21
94.741491411
  0
LINE
  5
2B2
100
AcDbEntity
  8
0
100
AcDbLine
 62
7
  6
CONTINUOUS
 10
504.301412896
 20
100.6877653724
 11
504.5874311375
 21
100.5271101784
  0
LINE
  5
2B3
100
AcDbEntity
  8
0
100
AcDbLine
 62
7
  6
CONTINUOUS
 10
520.8950783973
 20
93.3009163885
 11
520.6486768481
 21
93.4509563218
  0
LINE
  5
2B4
100
AcDbEntity
  8
0
100
AcDbLine
 62
7
  6
CONTINUOUS
 10
527.2249577967
 20
91.5208134781
 11
526.97855663
 21
91.6708533089
  0
LINE
  5
2B5
100
AcDbEntity
  8
0
100
AcDbLine
 62
7
  6
CONTINUOUS
 10
522.2318884954
 20
95.8833089156
 11
522.4782896621
 21
95.7332690848
  0
LINE
  5
2B6
100
AcDbEntity
  8
0
100
AcDbLine
 62
7
  6
CONTINUOUS
 10
527.8494347748
 20
92.7817717847
 11
528.0958367066
 21
92.6317317489
  0
LINE
  5
2B7
100
AcDbEntity
  8
0
100
AcDbLine
 62
7
  6
CONTINUOUS
 10
527.666046236
 20
93.1669779444
 11
527.4196450694
 21
93.3170177752
  0
LINE
  5
2B8
100
AcDbEntity
  8
0
100
AcDbLine
 62
7
  6
CONTINUOUS
 10
528.2695190196
 20
94.3495475296
 11
528.5159209513
 21
94.1995074938
  0
LINE
  5
2B9
100
AcDbEntity
  8
0
100
AcDbLine
 62
7
  6
CONTINUOUS
 10
497.4911609861
 20
102.5965837091
 11
497.7004238345
 21
102.4564950607
  0
LINE
  5
2BA
100
AcDbEntity
  8
0
100
AcDbLine
 62
7
  6
CONTINUOUS
 10
519.1777278207
 20
96.7856856391
 11
519.3572778346
 21
96.6535585207
  0
LINE
  5
2BB
100
AcDbEntity
  8
0
100
AcDbLine
 62
7
  6
CONTINUOUS
 10
498.8211558455
 20
98.9635555691
 11
499.0861703114
 21
98.7245114605
  0
LINE
  5
2BC
100
AcDbEntity
  8
0
100
AcDbLine
 62
7
  6
CONTINUOUS
 10
505.055226697
 20
100.7378320847
 11
504.7902126648
 21
100.976876055
  0
LINE
  5
2BD
100
AcDbEntity
  8
0
100
AcDbLine
 62
7
  6
CONTINUOUS
 10
499.2889514124
 20
99.1742775029
 11
499.100692788
 21
99.3927549825
  0
LINE
  5
2BE
100
AcDbEntity
  8
RUNDUNGEN
100
AcDbLine
 62
7
  6
CONTINUOUS
 10
511.2814996394
 20
-7.2663549064
 11
502.692291734
 21
7.7804635709
  0
LINE
  5
2BF
100
AcDbEntity
  8
RUNDUNGEN
100
AcDbLine
 62
7
  6
CONTINUOUS
 10
481.3328787305
 20
45.1984902134
 11
479.8999541221
 21
47.70872826
  0
LINE
  5
2C0
100
AcDbEntity
  8
0
100
AcDbLine
 62
7
  6
CONTINUOUS
 10
490.4542268465
 20
28.6049645269
 11
491.5823176598
 21
26.0985373731
  0
LINE
  5
2C1
100
AcDbEntity
  8
0
100
AcDbLine
 62
7
  6
CONTINUOUS
 10
490.5274319273
 20
28.8781696076
 11
491.6555227406
 21
26.3717424539
  0
LINE
  5
2C2
100
AcDbEntity
  8
0
100
AcDbLine
 62
7
  6
CONTINUOUS
 10
492.4389103548
 20
25.8690140523
 11
491.265983601
 21
28.4750590891
  0
LINE
  5
2C3
100
AcDbEntity
  8
0
100
AcDbLine
 62
7
  6
CONTINUOUS
 10
519.0460533525
 20
95.2246475647
 11
519.3554675296
 21
95.3097739602
  0
LINE
  5
2C4
100
AcDbEntity
  8
0
100
AcDbLine
 62
7
  6
CONTINUOUS
 10
521.4009895784
 20
96.5260317954
 11
521.0915757838
 21
96.4409052974
  0
LINE
  5
2C5
100
AcDbEntity
  8
0
100
AcDbLine
 62
7
  6
CONTINUOUS
 10
503.8450231306
 20
97.4493806907
 11
504.1940540056
 21
97.5238918461
  0
LINE
  5
2C6
100
AcDbEntity
  8
0
100
AcDbLine
 62
7
  6
CONTINUOUS
 10
500.1607497678
 20
98.436578763
 11
500.5097810819
 21
98.5110898007
  0
LINE
  5
2C7
100
AcDbEntity
  8
0
100
AcDbLine
 62
7
  6
CONTINUOUS
 10
497.3991038407
 20
101.024930205
 11
497.7481349297
 21
101.0994412809
  0
LINE
  5
2C8
100
AcDbEntity
  8
0
100
AcDbLine
 62
7
  6
CONTINUOUS
 10
526.97855663
 20
91.6708533089
 11
526.7531589076
 21
91.899282121
  0
LINE
  5
2C9
100
AcDbEntity
  8
0
100
AcDbLine
 62
7
  6
CONTINUOUS
 10
528.5389535717
 20
92.6810326172
 11
528.4262547104
 21
92.7952470232
  0
LINE
  5
2CA
100
AcDbEntity
  8
0
100
AcDbLine
 62
7
  6
CONTINUOUS
 10
520.2304030923
 20
93.2269650587
 11
520.4558000442
 21
92.9985364311
  0
LINE
  5
2CB
100
AcDbEntity
  8
0
100
AcDbLine
 62
7
  6
CONTINUOUS
 10
522.896563793
 20
95.9572602179
 11
522.6711664531
 21
96.1856889275
  0
LINE
  5
2CC
100
AcDbEntity
  8
0
100
AcDbLine
 62
7
  6
CONTINUOUS
 10
526.9765282043
 20
93.2677169069
 11
527.0892263004
 21
93.1535027059
  0
LINE
  5
2CD
100
AcDbEntity
  8
0
100
AcDbLine
 62
7
  6
CONTINUOUS
 10
528.0958367066
 20
92.6317317489
 11
528.321233664
 21
92.4033031419
  0
LINE
  5
2CE
100
AcDbEntity
  8
0
100
AcDbLine
 62
7
  6
CONTINUOUS
 10
504.5874311375
 20
100.5271101784
 11
504.7756897766
 21
100.3086327537
  0
LINE
  5
2CF
100
AcDbEntity
  8
0
100
AcDbLine
 62
7
  6
CONTINUOUS
 10
526.4685878398
 20
91.6394653306
 11
526.7398325001
 21
91.3147350093
  0
LINE
  5
2D0
100
AcDbEntity
  8
0
100
AcDbLine
 62
7
  6
CONTINUOUS
 10
528.9590378164
 20
94.2488083621
 11
528.6877931506
 21
94.5735386628
  0
LINE
  5
2D1
100
AcDbEntity
  8
0
100
AcDbLine
 62
7
  6
CONTINUOUS
 10
498.1262107559
 20
102.5104394733
 11
497.8822007133
 21
102.8278722787
  0
LINE
  5
2D2
100
AcDbEntity
  8
0
100
AcDbLine
 62
7
  6
CONTINUOUS
 10
520.6486768481
 20
93.4509563218
 11
520.4901310582
 21
93.6614722714
  0
LINE
  5
2D3
100
AcDbEntity
  8
0
100
AcDbLine
 62
7
  6
CONTINUOUS
 10
498.5981502392
 20
99.3593771194
 11
498.8211558455
 21
98.9635555691
  0
LINE
  5
2D4
100
AcDbEntity
  8
0
100
AcDbLine
 62
7
  6
CONTINUOUS
 10
514.7131698135
 20
143.7710117992
 11
509.2666549342
 21
143.7710117992
  0
LINE
  5
2D5
100
AcDbEntity
  8
0
100
AcDbLine
 62
7
  6
CONTINUOUS
 10
618.3588824449
 20
143.7710117992
 11
623.8053973242
 21
143.7710117992
  0
LINE
  5
2D6
100
AcDbEntity
  8
0
100
AcDbLine
 62
7
  6
CONTINUOUS
 10
536.8166549342
 20
136.3890115478
 11
532.0998346867
 21
139.1122689874
  0
LINE
  5
2D7
100
AcDbEntity
  8
0
100
AcDbLine
 62
7
  6
CONTINUOUS
 10
605.5956069269
 20
67.7656987387
 11
610.7134807332
 21
62.9272353067
  0
LINE
  5
2D8
100
AcDbEntity
  8
0
100
AcDbLine
 62
7
  6
CONTINUOUS
 10
522.4782896621
 20
95.7332690848
 11
522.6368354667
 21
95.5227531901
  0
LINE
  5
2D9
100
AcDbEntity
  8
0
100
AcDbLine
 62
7
  6
CONTINUOUS
 10
519.7335433557
 20
96.7207721526
 11
519.5291502251
 21
97.0275896384
  0
LINE
  5
2DA
100
AcDbEntity
  8
0
100
AcDbLine
 62
7
  6
CONTINUOUS
 10
527.4196450694
 20
93.3170177752
 11
527.2152515562
 21
93.6238353635
  0
LINE
  5
2DB
100
AcDbEntity
  8
0
100
AcDbLine
 62
7
  6
CONTINUOUS
 10
528.7433463198
 20
92.3742152338
 11
528.5389535717
 21
92.6810326172
  0
LINE
  5
2DC
100
AcDbEntity
  8
0
100
AcDbLine
 62
7
  6
CONTINUOUS
 10
528.5159209513
 20
94.1995074938
 11
528.7203136994
 21
93.8926901105
  0
LINE
  5
2DD
100
AcDbEntity
  8
0
100
AcDbLine
 62
7
  6
CONTINUOUS
 10
497.7004238345
 20
102.4564950607
 11
497.8119268609
 21
102.2585842404
  0
LINE
  5
2DE
100
AcDbEntity
  8
0
100
AcDbLine
 62
7
  6
CONTINUOUS
 10
505.2782323107
 20
100.3420105619
 11
505.055226697
 21
100.7378320847
  0
LINE
  5
2DF
100
AcDbEntity
  8
0
100
AcDbLine
 62
7
  6
CONTINUOUS
 10
498.2724609764
 20
102.1351844961
 11
498.1262107559
 21
102.5104394733
  0
LINE
  5
2E0
100
AcDbEntity
  8
RUNDUNGEN
100
AcDbLine
 62
7
  6
CONTINUOUS
 10
485.0568343359
 20
72.9222056629
 11
483.0438573223
 21
79.6713748134
  0
LINE
  5
2E1
100
AcDbEntity
  8
0
100
AcDbLine
 62
7
  6
CONTINUOUS
 10
445.5360261292
 20
462.4032148165
 11
445.5360261292
 21
302.4032148165
  0
LINE
  5
2E2
100
AcDbEntity
  8
0
100
AcDbLine
 62
7
  6
CONTINUOUS
 10
520.0470141784
 20
93.6121713483
 11
520.2304030923
 21
93.2269650587
  0
LINE
  5
2E3
100
AcDbEntity
  8
0
100
AcDbLine
 62
7
  6
CONTINUOUS
 10
519.3572778346
 20
96.6535585207
 11
519.4489722953
 21
96.4609553897
  0
LINE
  5
2E4
100
AcDbEntity
  8
0
100
AcDbLine
 62
7
  6
CONTINUOUS
 10
523.0799527143
 20
95.5720539558
 11
522.896563793
 21
95.9572602179
  0
LINE
  5
2E5
100
AcDbEntity
  8
0
100
AcDbLine
 62
7
  6
CONTINUOUS
 10
526.3310462518
 20
91.928370029
 11
526.4685878398
 21
91.6394653306
  0
LINE
  5
2E6
100
AcDbEntity
  8
0
100
AcDbLine
 62
7
  6
CONTINUOUS
 10
526.8389866089
 20
93.5566215779
 11
526.9765282043
 21
93.2677169069
  0
LINE
  5
2E7
100
AcDbEntity
  8
0
100
AcDbLine
 62
7
  6
CONTINUOUS
 10
529.0965794118
 20
93.9599036911
 11
528.9590378164
 21
94.2488083621
  0
LINE
  5
2E8
100
AcDbEntity
  8
0
100
AcDbLine
 62
7
  6
CONTINUOUS
 10
499.100692788
 20
99.3927549825
 11
499.0101937512
 21
99.6690546378
  0
LINE
  5
2E9
100
AcDbEntity
  8
0
100
AcDbLine
 62
7
  6
CONTINUOUS
 10
504.7756897766
 20
100.3086327537
 11
504.8661887545
 21
100.0323328787
  0
LINE
  5
2EA
100
AcDbEntity
  8
0
100
AcDbLine
 62
7
  6
CONTINUOUS
 10
497.6068081412
 20
99.0368885148
 11
497.3991038407
 21
101.024930205
  0
LINE
  5
2EB
100
AcDbEntity
  8
0
100
AcDbLine
 62
7
  6
CONTINUOUS
 10
496.8965611968
 20
100.9915524262
 11
497.0695181934
 21
99.1808549224
  0
LINE
  5
2EC
100
AcDbEntity
  8
0
100
AcDbLine
 62
7
  6
CONTINUOUS
 10
471.5360261292
 20
462.4032148165
 11
471.5360261292
 21
302.4032148165
  0
LINE
  5
2ED
100
AcDbEntity
  8
0
100
AcDbLine
 62
7
  6
CONTINUOUS
 10
623.8053973242
 20
143.7710117992
 11
636.5913968212
 21
136.3890115478
  0
LINE
  5
2EE
100
AcDbEntity
  8
0
100
AcDbLine
 62
7
  6
CONTINUOUS
 10
544.1986551857
 20
123.6030120507
 11
536.8166549342
 21
136.3890115478
  0
LINE
  5
2EF
100
AcDbEntity
  8
0
100
AcDbLine
 62
7
  6
CONTINUOUS
 10
519.8500805505
 20
96.3534787566
 11
519.7335433557
 21
96.7207721526
  0
LINE
  5
2F0
100
AcDbEntity
  8
0
100
AcDbLine
 62
7
  6
CONTINUOUS
 10
526.7531589076
 20
91.899282121
 11
526.6366215362
 21
92.2665756231
  0
LINE
  5
2F1
100
AcDbEntity
  8
0
100
AcDbLine
 62
7
  6
CONTINUOUS
 10
528.321233664
 20
92.4033031419
 11
528.4377710206
 21
92.0360095848
  0
LINE
  5
2F2
100
AcDbEntity
  8
0
100
AcDbLine
 62
7
  6
CONTINUOUS
 10
520.4901310582
 20
93.6614722714
 11
520.419440998
 21
93.9324641275
  0
LINE
  5
2F3
100
AcDbEntity
  8
0
100
AcDbLine
 62
7
  6
CONTINUOUS
 10
527.2152515562
 20
93.6238353635
 11
527.1445618786
 21
93.8948271171
  0
LINE
  5
2F4
100
AcDbEntity
  8
0
100
AcDbLine
 62
7
  6
CONTINUOUS
 10
528.7203136994
 20
93.8926901105
 11
528.7910040832
 21
93.6216979323
  0
LINE
  5
2F5
100
AcDbEntity
  8
0
100
AcDbLine
 62
7
  6
CONTINUOUS
 10
498.5286556461
 20
99.714065547
 11
498.5981502392
 21
99.3593771194
  0
LINE
  5
2F6
100
AcDbEntity
  8
0
100
AcDbLine
 62
7
  6
CONTINUOUS
 10
505.3477271381
 20
99.9873221303
 11
505.2782323107
 21
100.3420105619
  0
LINE
  5
2F7
100
AcDbEntity
  8
0
100
AcDbLine
 62
7
  6
CONTINUOUS
 10
497.8119268609
 20
102.2585842404
 11
497.8256698458
 21
102.0028513072
  0
LINE
  5
2F8
100
AcDbEntity
  8
0
100
AcDbLine
 62
7
  6
CONTINUOUS
 10
498.2862039612
 20
101.8794515628
 11
498.2724609764
 21
102.1351844961
  0
LINE
  5
2F9
100
AcDbEntity
  8
0
100
AcDbLine
 62
7
  6
CONTINUOUS
 10
489.0986551857
 20
123.6030120507
 11
489.0986551857
 21
108.8390115478
  0
LINE
  5
2FA
100
AcDbEntity
  8
0
100
AcDbLine
 62
7
  6
CONTINUOUS
 10
499.0101937512
 20
99.6690546378
 11
499.0174551953
 21
100.0031762885
  0
LINE
  5
2FB
100
AcDbEntity
  8
0
100
AcDbLine
 62
7
  6
CONTINUOUS
 10
487.1146219912
 20
101.4344988618
 11
486.8507780281
 21
93.8789963079
  0
LINE
  5
2FC
100
AcDbEntity
  8
0
100
AcDbLine
 62
7
  6
CONTINUOUS
 10
588.8733970727
 20
108.8390115478
 11
596.2553973242
 21
96.0530120507
  0
LINE
  5
2FD
100
AcDbEntity
  8
0
100
AcDbLine
 62
7
  6
CONTINUOUS
 10
598.2394305187
 20
88.6484993648
 11
601.788686221
 21
81.9733202332
  0
LINE
  5
2FE
100
AcDbEntity
  8
0
100
AcDbLine
 62
7
  6
CONTINUOUS
 10
519.9973283423
 20
93.9615520355
 11
520.0470141784
 21
93.6121713483
  0
LINE
  5
2FF
100
AcDbEntity
  8
0
100
AcDbLine
 62
7
  6
CONTINUOUS
 10
526.7893003756
 20
93.9060023127
 11
526.8389866089
 21
93.5566215779
  0
LINE
  5
300
100
AcDbEntity
  8
0
100
AcDbLine
 62
7
  6
CONTINUOUS
 10
526.3023650075
 20
92.35613939
 11
526.3310462518
 21
91.928370029
  0
LINE
  5
301
100
AcDbEntity
  8
0
100
AcDbLine
 62
7
  6
CONTINUOUS
 10
528.7720283144
 20
91.9464456129
 11
528.7433463198
 21
92.3742152338
  0
LINE
  5
302
100
AcDbEntity
  8
0
100
AcDbLine
 62
7
  6
CONTINUOUS
 10
529.1252606119
 20
93.5321341654
 11
529.0965794118
 21
93.9599036911
  0
LINE
  5
303
100
AcDbEntity
  8
0
100
AcDbLine
 62
7
  6
CONTINUOUS
 10
519.1646193408
 20
93.2604904133
 11
519.0460533525
 21
95.2246475647
  0
LINE
  5
304
100
AcDbEntity
  8
0
100
AcDbLine
 62
7
  6
CONTINUOUS
 10
518.6029364874
 20
95.1753466965
 11
518.6966593591
 21
93.3858799125
  0
LINE
  5
305
100
AcDbEntity
  8
0
100
AcDbLine
 62
7
  6
CONTINUOUS
 10
519.4489722953
 20
96.4609553897
 11
519.4528110114
 21
96.2078762972
  0
LINE
  5
306
100
AcDbEntity
  8
0
100
AcDbLine
 62
7
  6
CONTINUOUS
 10
519.8539194579
 20
96.1003996129
 11
519.8500805505
 21
96.3534787566
  0
LINE
  5
307
100
AcDbEntity
  8
0
100
AcDbLine
 62
7
  6
CONTINUOUS
 10
522.6368354667
 20
95.5227531901
 11
522.6406743153
 21
95.2696738268
  0
LINE
  5
308
100
AcDbEntity
  8
0
100
AcDbLine
 62
7
  6
CONTINUOUS
 10
504.8661887545
 20
100.0323328787
 11
504.8589273105
 21
99.6982112281
  0
LINE
  5
309
100
AcDbEntity
  8
0
100
AcDbLine
 62
7
  6
CONTINUOUS
 10
498.5569208602
 20
100.1265760917
 11
498.5286556461
 21
99.714065547
  0
LINE
  5
30A
100
AcDbEntity
  8
0
100
AcDbLine
 62
7
  6
CONTINUOUS
 10
505.3194614259
 20
99.5748114837
 11
505.3477271381
 21
99.9873221303
  0
LINE
  5
30B
100
AcDbEntity
  8
0
100
AcDbLine
 62
7
  6
CONTINUOUS
 10
544.1986551857
 20
108.8390115478
 11
544.1986551857
 21
123.6030120507
  0
LINE
  5
30C
100
AcDbEntity
  8
0
100
AcDbLine
 62
7
  6
CONTINUOUS
 10
520.419440998
 20
93.9324641275
 11
520.4366063
 21
94.2639320474
  0
LINE
  5
30D
100
AcDbEntity
  8
0
100
AcDbLine
 62
7
  6
CONTINUOUS
 10
520.0354978535
 20
94.3714087317
 11
519.9973283423
 21
93.9615520355
  0
LINE
  5
30E
100
AcDbEntity
  8
0
100
AcDbLine
 62
7
  6
CONTINUOUS
 10
523.0417827617
 20
95.1621971425
 11
523.0799527143
 21
95.5720539558
  0
LINE
  5
30F
100
AcDbEntity
  8
RUNDUNGEN
100
AcDbLine
 62
7
  6
CONTINUOUS
 10
461.9419422583
 20
47.4196293707
 11
462.8570057678
 21
50.8346928802
  0
LINE
  5
310
100
AcDbEntity
  8
RUNDUNGEN
100
AcDbLine
 62
7
  6
CONTINUOUS
 10
456.2860845527
 20
-2.8033277866
 11
458.4344349443
 21
5.2144250272
  0
LINE
  5
311
100
AcDbEntity
  8
RUNDUNGEN
100
AcDbLine
 62
7
  6
CONTINUOUS
 10
467.552309946
 20
36.7051957497
 11
468.4673734554
 21
40.1202592592
  0
LINE
  5
312
100
AcDbEntity
  8
0
100
AcDbLine
 62
7
  6
CONTINUOUS
 10
487.1146219912
 20
101.4344988618
 11
489.0986551857
 21
108.8390115478
  0
LINE
  5
313
100
AcDbEntity
  8
RUNDUNGEN
100
AcDbLine
 62
7
  6
CONTINUOUS
 10
483.0438573223
 20
79.6713748134
 11
489.5795040854
 21
104.0627405937
  0
LINE
  5
314
100
AcDbEntity
  8
RUNDUNGEN
100
AcDbLine
 62
7
  6
CONTINUOUS
 10
461.9291441987
 20
-7.2435842918
 11
463.02722041
 21
-3.1455080805
  0
LINE
  5
315
100
AcDbEntity
  8
0
100
AcDbLine
 62
7
  6
CONTINUOUS
 10
495.677289958
 20
103.5026931721
 11
494.6900920034
 21
99.8184202485
  0
LINE
  5
316
100
AcDbEntity
  8
0
100
AcDbLine
 62
7
  6
CONTINUOUS
 10
495.1506261189
 20
99.6950205042
 11
495.5917145729
 21
101.3411850253
  0
LINE
  5
317
100
AcDbEntity
  8
0
100
AcDbLine
 62
7
  6
CONTINUOUS
 10
495.7177398287
 20
101.8115176829
 11
496.032803027
 21
102.9873495465
  0
LINE
  5
318
100
AcDbEntity
  8
0
100
AcDbLine
 62
7
  6
CONTINUOUS
 10
497.8256698458
 20
102.0028513072
 11
497.762657159
 21
101.7676847588
  0
LINE
  5
319
100
AcDbEntity
  8
0
100
AcDbLine
 62
7
  6
CONTINUOUS
 10
498.2021870652
 20
101.5658962382
 11
498.2862039612
 21
101.8794515628
  0
LINE
  5
31A
100
AcDbEntity
  8
0
100
AcDbLine
 62
7
  6
CONTINUOUS
 10
598.2394305187
 20
88.6484993648
 11
596.2553973242
 21
96.0530120507
  0
LINE
  5
31B
100
AcDbEntity
  8
0
100
AcDbLine
 62
7
  6
CONTINUOUS
 10
499.2080514367
 20
102.5566284853
 11
498.5569208602
 21
100.1265760917
  0
LINE
  5
31C
100
AcDbEntity
  8
0
100
AcDbLine
 62
7
  6
CONTINUOUS
 10
499.0174551953
 20
100.0031762885
 11
499.6685857717
 21
102.4332286821
  0
LINE
  5
31D
100
AcDbEntity
  8
KONSTRUKTIONSELEMENTE
100
AcDbLine
 62
7
  6
CONTINUOUS
 10
495.7951322921
 20
84.5905177322
 11
496.7761600007
 21
88.2517629842
  0
LINE
  5
31E
100
AcDbEntity
  8
0
100
AcDbLine
 62
7
  6
CONTINUOUS
 10
482.2208886054
 20
32.8235373799
 11
481.2545815394
 21
29.2172303139
  0
LINE
  5
31F
100
AcDbEntity
  8
0
100
AcDbLine
 62
7
  6
CONTINUOUS
 10
501.5107222336
 20
101.9396297048
 11
500.8595916571
 21
99.5095773112
  0
LINE
  5
320
100
AcDbEntity
  8
0
100
AcDbLine
 62
7
  6
CONTINUOUS
 10
501.3201257726
 20
99.3861775669
 11
501.971256349
 21
101.8162299605
  0
LINE
  5
321
100
AcDbEntity
  8
0
100
AcDbLine
 62
7
  6
CONTINUOUS
 10
482.8931949737
 20
29.3052417489
 11
483.2299383452
 21
30.5619851204
  0
LINE
  5
322
100
AcDbEntity
  8
0
100
AcDbLine
 62
7
  6
CONTINUOUS
 10
483.3324254583
 20
30.9444722334
 11
483.6691688298
 21
32.2012156049
  0
LINE
  5
323
100
AcDbEntity
  8
0
100
AcDbLine
 62
7
  6
CONTINUOUS
 10
502.5853016899
 20
101.6516970073
 11
501.5981037353
 21
97.9674240836
  0
LINE
  5
324
100
AcDbEntity
  8
0
100
AcDbLine
 62
7
  6
CONTINUOUS
 10
483.9041663029
 20
31.6873049243
 11
483.7196894994
 21
30.9988281208
  0
LINE
  5
325
100
AcDbEntity
  8
0
100
AcDbLine
 62
7
  6
CONTINUOUS
 10
483.4649358183
 20
30.0480744398
 11
483.2804590148
 21
29.3595976363
  0
LINE
  5
326
100
AcDbEntity
  8
0
100
AcDbLine
 62
7
  6
CONTINUOUS
 10
483.7459289565
 20
29.9376441165
 11
483.7722827856
 21
30.0359979456
  0
LINE
  5
327
100
AcDbEntity
  8
0
100
AcDbLine
 62
7
  6
CONTINUOUS
 10
483.8381673583
 20
30.2818825183
 11
483.9260134552
 21
30.6097286152
  0
LINE
  5
328
100
AcDbEntity
  8
0
100
AcDbLine
 62
7
  6
CONTINUOUS
 10
483.9918980279
 20
30.8556131879
 11
484.0914569377
 21
31.2271720977
  0
LINE
  5
329
100
AcDbEntity
  8
0
100
AcDbLine
 62
7
  6
CONTINUOUS
 10
502.1846631213
 20
98.3143570518
 11
502.9198105496
 21
101.0579646054
  0
LINE
  5
32A
100
AcDbEntity
  8
0
100
AcDbLine
 62
7
  6
CONTINUOUS
 10
484.2737467526
 20
30.516553759
 11
484.1859006557
 21
30.1887076621
  0
LINE
  5
32B
100
AcDbEntity
  8
0
100
AcDbLine
 62
7
  6
CONTINUOUS
 10
484.4391902352
 20
31.1339972415
 11
484.3396313253
 21
30.7624383317
  0
LINE
  5
32C
100
AcDbEntity
  8
0
100
AcDbLine
 62
7
  6
CONTINUOUS
 10
484.1200160831
 20
29.9428230894
 11
484.093662254
 21
29.8444692603
  0
LINE
  5
32D
100
AcDbEntity
  8
0
100
AcDbLine
 62
7
  6
CONTINUOUS
 10
535.5694449261
 20
221.6076901763
 11
508.9407050559
 21
122.227880039
  0
LINE
  5
32E
100
AcDbEntity
  8
0
100
AcDbLine
 62
7
  6
CONTINUOUS
 10
484.2077478081
 20
29.111131353
 11
484.3922246116
 21
29.7996081565
  0
LINE
  5
32F
100
AcDbEntity
  8
0
100
AcDbLine
 62
7
  6
CONTINUOUS
 10
484.6469782926
 20
30.7503618375
 11
484.8314550961
 21
31.438838641
  0
LINE
  5
330
100
AcDbEntity
  8
0
100
AcDbLine
 62
7
  6
CONTINUOUS
 10
485.2919242179
 20
31.7663996091
 11
484.9551808464
 21
30.5096562377
  0
LINE
  5
331
100
AcDbEntity
  8
0
100
AcDbLine
 62
7
  6
CONTINUOUS
 10
484.8526937334
 20
30.1271691246
 11
484.5159503619
 21
28.8704257531
  0
LINE
  5
332
100
AcDbEntity
  8
KONSTRUKTIONSELEMENTE
100
AcDbLine
 62
7
  6
CONTINUOUS
 10
492.2333257923
 20
56.0113884609
 11
494.9785163207
 21
66.2565789892
  0
LINE
  5
333
100
AcDbEntity
  8
0
100
AcDbLine
 62
7
  6
CONTINUOUS
 10
504.8589273105
 20
99.6982112281
 11
504.5438641416
 21
98.5223794743
  0
LINE
  5
334
100
AcDbEntity
  8
0
100
AcDbLine
 62
7
  6
CONTINUOUS
 10
485.8910255056
 20
27.9748988974
 11
486.8573325715
 21
31.5812059634
  0
LINE
  5
335
100
AcDbEntity
  8
0
100
AcDbLine
 62
7
  6
CONTINUOUS
 10
505.004398257
 20
98.39897973
 11
505.3194614259
 21
99.5748114837
  0
LINE
  5
336
100
AcDbEntity
  8
0
100
AcDbLine
 62
7
  6
CONTINUOUS
 10
488.4487784524
 20
31.5061637124
 11
488.3155452054
 21
31.0089304655
  0
LINE
  5
337
100
AcDbEntity
  8
0
100
AcDbLine
 62
7
  6
CONTINUOUS
 10
488.1925606698
 20
30.5499459298
 11
487.3067791926
 21
27.2441644526
  0
LINE
  5
338
100
AcDbEntity
  8
0
100
AcDbLine
 62
7
  6
CONTINUOUS
 10
502.5144813828
 20
82.7900735697
 11
499.9683982632
 21
73.2879620069
  0
LINE
  5
339
100
AcDbEntity
  8
KONSTRUKTIONSELEMENTE
100
AcDbLine
 62
7
  6
CONTINUOUS
 10
502.5144813828
 20
82.7900735697
 11
505.2036112614
 21
92.8260429048
  0
LINE
  5
33A
100
AcDbEntity
  8
0
100
AcDbLine
 62
7
  6
CONTINUOUS
 10
488.0486102272
 20
27.045391426
 11
488.6728543408
 21
29.3751021742
  0
LINE
  5
33B
100
AcDbEntity
  8
0
100
AcDbLine
 62
7
  6
CONTINUOUS
 10
488.7402030151
 20
29.6264508485
 11
488.9343917043
 21
30.3511729032
  0
LINE
  5
33C
100
AcDbEntity
  8
KONSTRUKTIONSELEMENTE
100
AcDbLine
 62
7
  6
CONTINUOUS
 10
496.5799920106
 20
54.8467027579
 11
499.325182539
 21
65.0918932863
  0
LINE
  5
33D
100
AcDbEntity
  8
KONSTRUKTIONSELEMENTE
100
AcDbLine
 62
7
  6
CONTINUOUS
 10
505.4127567748
 20
87.8110296292
 11
507.3777414222
 21
95.1444521695
  0
LINE
  5
33E
100
AcDbEntity
  8
0
100
AcDbLine
 62
7
  6
CONTINUOUS
 10
490.4542268465
 20
28.6049645269
 11
490.5274319273
 21
28.8781696076
  0
LINE
  5
33F
100
AcDbEntity
  8
KONSTRUKTIONSELEMENTE
100
AcDbLine
 62
7
  6
CONTINUOUS
 10
492.1616465171
 20
34.4935095856
 11
497.9732358643
 21
56.1826563019
  0
LINE
  5
340
100
AcDbEntity
  8
KONSTRUKTIONSELEMENTE
100
AcDbLine
 62
7
  6
CONTINUOUS
 10
507.9922452308
 20
93.5741082993
 11
508.7375480004
 21
96.3556161026
  0
LINE
  5
341
100
AcDbEntity
  8
KONSTRUKTIONSELEMENTE
100
AcDbLine
 62
7
  6
CONTINUOUS
 10
511.0005478443
 20
104.8012464975
 11
512.9683362421
 21
112.1451327765
  0
LINE
  5
342
100
AcDbEntity
  8
KONSTRUKTIONSELEMENTE
100
AcDbLine
 62
7
  6
CONTINUOUS
 10
500.3382010644
 20
64.0429007607
 11
503.695508848
 21
76.5725439858
  0
LINE
  5
343
100
AcDbEntity
  8
0
100
AcDbLine
 62
7
  6
CONTINUOUS
 10
491.265983601
 20
28.4750590891
 11
491.3391886818
 21
28.7482641699
  0
LINE
  5
344
100
AcDbEntity
  8
0
100
AcDbLine
 62
7
  6
CONTINUOUS
 10
491.9726755161
 20
29.6874792252
 11
491.8994704354
 21
29.4142741445
  0
LINE
  5
345
100
AcDbEntity
  8
0
100
AcDbLine
 62
7
  6
CONTINUOUS
 10
491.5823176598
 20
26.0985373731
 11
491.6555227406
 21
26.3717424539
  0
LINE
  5
346
100
AcDbEntity
  8
0
100
AcDbLine
 62
7
  6
CONTINUOUS
 10
494.0125112118
 20
30.0153660127
 11
493.2899529674
 21
27.318741933
  0
LINE
  5
347
100
AcDbEntity
  8
0
100
AcDbLine
 62
7
  6
CONTINUOUS
 10
494.031784002
 20
27.1199689064
 11
494.7543422464
 21
29.816592986
  0
LINE
  5
348
100
AcDbEntity
  8
KONSTRUKTIONSELEMENTE
100
AcDbLine
 62
7
  6
CONTINUOUS
 10
504.6848672827
 20
62.8782150578
 11
508.0421750663
 21
75.4078582828
  0
LINE
  5
349
100
AcDbEntity
  8
KONSTRUKTIONSELEMENTE
100
AcDbLine
 62
7
  6
CONTINUOUS
 10
496.9912756486
 20
33.1994143601
 11
502.8028649957
 21
54.8885610764
  0
LINE
  5
34A
100
AcDbEntity
  8
KONSTRUKTIONSELEMENTE
100
AcDbLine
 62
7
  6
CONTINUOUS
 10
512.8218743622
 20
92.2800130738
 11
513.5671771319
 21
95.0615208771
  0
LINE
  5
34B
100
AcDbEntity
  8
KONSTRUKTIONSELEMENTE
100
AcDbLine
 62
7
  6
CONTINUOUS
 10
515.8301769758
 20
103.507151272
 11
517.7979653735
 21
110.851037551
  0
LINE
  5
34C
100
AcDbEntity
  8
KONSTRUKTIONSELEMENTE
100
AcDbLine
 62
7
  6
CONTINUOUS
 10
514.1392222063
 20
93.3327188538
 11
512.1742375588
 21
85.9992963135
  0
LINE
  5
34D
100
AcDbEntity
  8
KONSTRUKTIONSELEMENTE
100
AcDbLine
 62
7
  6
CONTINUOUS
 10
506.086663323
 20
63.2801599706
 11
503.3414727946
 21
53.0349694422
  0
LINE
  5
34E
100
AcDbEntity
  8
0
100
AcDbLine
 62
7
  6
CONTINUOUS
 10
497.6707700998
 20
29.0351384979
 11
496.9482118553
 21
26.3385144183
  0
LINE
  5
34F
100
AcDbEntity
  8
0
100
AcDbLine
 62
7
  6
CONTINUOUS
 10
516.6755439649
 20
97.8762279685
 11
515.6883460104
 21
94.1919550449
  0
LINE
  5
350
100
AcDbEntity
  8
0
100
AcDbLine
 62
7
  6
CONTINUOUS
 10
509.6276565261
 20
70.6997715559
 11
512.1737396457
 21
80.2018831186
  0
LINE
  5
351
100
AcDbEntity
  8
KONSTRUKTIONSELEMENTE
100
AcDbLine
 62
7
  6
CONTINUOUS
 10
512.1737396457
 20
80.2018831186
 11
514.8628695909
 21
90.2378527023
  0
LINE
  5
352
100
AcDbEntity
  8
0
100
AcDbLine
 62
7
  6
CONTINUOUS
 10
497.6900428899
 20
26.1397413917
 11
498.4126011344
 21
28.8363654713
  0
LINE
  5
353
100
AcDbEntity
  8
0
100
AcDbLine
 62
7
  6
CONTINUOUS
 10
516.0894544569
 20
94.0844783605
 11
517.0766524114
 21
97.7687512842
  0
LINE
  5
354
100
AcDbEntity
  8
0
100
AcDbLine
 62
7
  6
CONTINUOUS
 10
517.6114636416
 20
97.625449047
 11
516.624265687
 21
93.9411761233
  0
LINE
  5
355
100
AcDbEntity
  8
0
100
AcDbLine
 62
7
  6
CONTINUOUS
 10
517.0253741335
 20
93.833699439
 11
517.4664625875
 21
95.4798639602
  0
LINE
  5
356
100
AcDbEntity
  8
0
100
AcDbLine
 62
7
  6
CONTINUOUS
 10
517.5924878433
 20
95.9501966178
 11
517.9075510416
 21
97.1260284814
  0
LINE
  5
357
100
AcDbEntity
  8
0
100
AcDbLine
 62
7
  6
CONTINUOUS
 10
500.0353565225
 20
28.4015494755
 11
499.8948027675
 21
27.8769957205
  0
LINE
  5
358
100
AcDbEntity
  8
0
100
AcDbLine
 62
7
  6
CONTINUOUS
 10
499.7718182318
 20
27.4180111848
 11
498.8933572627
 21
24.1395502157
  0
LINE
  5
359
100
AcDbEntity
  8
0
100
AcDbLine
 62
7
  6
CONTINUOUS
 10
499.7815984588
 20
24.4871873506
 11
500.5136492664
 21
27.2192381582
  0
LINE
  5
35A
100
AcDbEntity
  8
0
100
AcDbLine
 62
7
  6
CONTINUOUS
 10
519.4528110114
 20
96.2078762972
 11
519.3897983247
 21
95.9727097488
  0
LINE
  5
35B
100
AcDbEntity
  8
KONSTRUKTIONSELEMENTE
100
AcDbLine
 62
7
  6
CONTINUOUS
 10
510.4333295413
 20
62.1154742676
 11
507.6881390129
 21
51.8702837392
  0
LINE
  5
35C
100
AcDbEntity
  8
0
100
AcDbLine
 62
7
  6
CONTINUOUS
 10
636.5913968212
 20
136.3890115478
 11
643.9733970727
 21
123.6030120507
  0
LINE
  5
35D
100
AcDbEntity
  8
0
100
AcDbLine
 62
7
  6
CONTINUOUS
 10
599.0599601637
 20
92.157064519
 11
605.5956069269
 21
67.7656987387
  0
LINE
  5
35E
100
AcDbEntity
  8
0
100
AcDbLine
 62
7
  6
CONTINUOUS
 10
614.178963522
 20
78.4014389561
 11
613.1979358134
 21
82.0626842081
  0
LINE
  5
35F
100
AcDbEntity
  8
0
100
AcDbLine
 62
7
  6
CONTINUOUS
 10
606.759493217
 20
117.5138622419
 11
580.1011315714
 21
217.0042223497
  0
LINE
  5
360
100
AcDbEntity
  8
0
100
AcDbLine
 62
7
  6
CONTINUOUS
 10
618.2091826675
 20
90.2378527023
 11
623.4443957323
 21
70.6997715559
  0
LINE
  5
361
100
AcDbEntity
  8
0
100
AcDbLine
 62
7
  6
CONTINUOUS
 10
588.8733970727
 20
108.8390115478
 11
588.8733970727
 21
123.6030120507
  0
LINE
  5
362
100
AcDbEntity
  8
0
100
AcDbLine
 62
7
  6
CONTINUOUS
 10
519.7699025619
 20
95.7868442883
 11
519.8539194579
 21
96.1003996129
  0
LINE
  5
363
100
AcDbEntity
  8
0
100
AcDbLine
 62
7
  6
CONTINUOUS
 10
520.3505610223
 20
95.5472404855
 11
520.0354978535
 21
94.3714087317
  0
LINE
  5
364
100
AcDbEntity
  8
0
100
AcDbLine
 62
7
  6
CONTINUOUS
 10
552.9561097993
 20
216.9489473645
 11
526.3273699291
 21
117.5691372271
  0
LINE
  5
365
100
AcDbEntity
  8
0
100
AcDbLine
 62
7
  6
CONTINUOUS
 10
520.4366063
 20
94.2639320474
 11
520.7516694688
 21
95.4397638012
  0
LINE
  5
366
100
AcDbEntity
  8
0
100
AcDbLine
 62
7
  6
CONTINUOUS
 10
521.8499737618
 20
94.7253898669
 11
521.7239485061
 21
94.2550572093
  0
LINE
  5
367
100
AcDbEntity
  8
0
100
AcDbLine
 62
7
  6
CONTINUOUS
 10
503.4757598944
 20
25.5002307867
 11
503.4025548136
 21
25.227025706
  0
LINE
  5
368
100
AcDbEntity
  8
0
100
AcDbLine
 62
7
  6
CONTINUOUS
 10
522.3256111758
 20
94.0938421829
 11
522.157577472
 21
93.4667318629
  0
LINE
  5
369
100
AcDbEntity
  8
0
100
AcDbLine
 62
7
  6
CONTINUOUS
 10
522.5376817092
 20
93.2808664024
 11
522.8527448781
 21
94.4566981561
  0
LINE
  5
36A
100
AcDbEntity
  8
KONSTRUKTIONSELEMENTE
100
AcDbLine
 62
7
  6
CONTINUOUS
 10
518.8930887364
 20
78.4014389561
 11
519.874116445
 21
82.0626842081
  0
LINE
  5
36B
100
AcDbEntity
  8
0
100
AcDbLine
 62
7
  6
CONTINUOUS
 10
526.3653776354
 20
92.5913057188
 11
526.3023650075
 21
92.35613939
  0
LINE
  5
36C
100
AcDbEntity
  8
0
100
AcDbLine
 62
7
  6
CONTINUOUS
 10
526.8523130035
 20
94.1411686415
 11
526.7893003756
 21
93.9060023127
  0
LINE
  5
36D
100
AcDbEntity
  8
0
100
AcDbLine
 62
7
  6
CONTINUOUS
 10
526.6366215362
 20
92.2665756231
 11
526.6996341641
 21
92.5017419519
  0
LINE
  5
36E
100
AcDbEntity
  8
0
100
AcDbLine
 62
7
  6
CONTINUOUS
 10
527.1445618786
 20
93.8948271171
 11
527.1865702972
 21
94.0516046696
  0
LINE
  5
36F
100
AcDbEntity
  8
0
100
AcDbLine
 62
7
  6
CONTINUOUS
 10
528.7910040832
 20
93.6216979323
 11
528.7489956646
 21
93.4649203798
  0
LINE
  5
370
100
AcDbEntity
  8
0
100
AcDbLine
 62
7
  6
CONTINUOUS
 10
528.4377710206
 20
92.0360095848
 11
528.3747583927
 21
91.800843256
  0
LINE
  5
371
100
AcDbEntity
  8
0
100
AcDbLine
 62
7
  6
CONTINUOUS
 10
529.062247984
 20
93.2969678366
 11
529.1252606119
 21
93.5321341654
  0
LINE
  5
372
100
AcDbEntity
  8
0
100
AcDbLine
 62
7
  6
CONTINUOUS
 10
528.7090156865
 20
91.7112792841
 11
528.7720283144
 21
91.9464456129
  0
LINE
  5
373
100
AcDbEntity
  8
RUNDUNGEN
100
AcDbLine
 62
7
  6
CONTINUOUS
 10
503.4029199489
 20
-13.9641441657
 11
502.3048437376
 21
-18.0622203771
  0
LINE
  5
374
100
AcDbEntity
  8
RUNDUNGEN
100
AcDbLine
 62
7
  6
CONTINUOUS
 10
527.4764453315
 20
67.7656987387
 11
534.0120920947
 21
92.157064519
  0
LINE
  5
375
100
AcDbEntity
  8
0
100
AcDbLine
 62
7
  6
CONTINUOUS
 10
534.8326217397
 20
88.6484993648
 11
536.8166549342
 21
96.0530120507
  0
LINE
  5
376
100
AcDbEntity
  8
RUNDUNGEN
100
AcDbLine
 62
7
  6
CONTINUOUS
 10
509.4120049986
 20
-17.0383752672
 11
511.5603553902
 21
-9.0206224534
  0
LINE
  5
377
100
AcDbEntity
  8
0
100
AcDbLine
 62
7
  6
CONTINUOUS
 10
501.1383488938
 20
99.0148003488
 11
501.3201257726
 21
99.3861775669
  0
LINE
  5
378
100
AcDbEntity
  8
0
100
AcDbLine
 62
7
  6
CONTINUOUS
 10
496.4806554372
 20
136.3890115478
 11
489.0986551857
 21
123.6030120507
  0
LINE
  5
379
100
AcDbEntity
  8
0
100
AcDbLine
 62
7
  6
CONTINUOUS
 10
633.1036539952
 20
73.2879620069
 11
627.868440997
 21
92.8260429048
  0
LINE
  5
37A
100
AcDbEntity
  8
0
100
AcDbLine
 62
7
  6
CONTINUOUS
 10
624.1461580902
 20
122.1726050538
 11
597.4877964446
 21
221.6629651615
  0
LINE
  5
37B
100
AcDbEntity
  8
0
100
AcDbLine
 62
7
  6
CONTINUOUS
 10
637.2769199663
 20
84.5905177322
 11
636.2958922578
 21
88.2517629842
  0
LINE
  5
37C
100
AcDbEntity
  8
RUNDUNGEN
100
AcDbLine
 62
7
  6
CONTINUOUS
 10
530.8133792296
 20
29.4689501546
 11
531.7284427391
 21
32.8840136641
  0
LINE
  5
37D
100
AcDbEntity
  8
0
100
AcDbLine
 62
7
  6
CONTINUOUS
 10
520.5224336629
 20
95.9212717716
 11
520.3505610223
 21
95.5472404855
  0
LINE
  5
37E
100
AcDbEntity
  8
0
100
AcDbLine
 62
7
  6
CONTINUOUS
 10
504.8226218175
 20
98.0276023942
 11
505.004398257
 21
98.39897973
  0
LINE
  5
37F
100
AcDbEntity
  8
0
100
AcDbLine
 62
7
  6
CONTINUOUS
 10
520.7516694688
 20
95.4397638012
 11
520.9025378413
 21
95.7354060914
  0
LINE
  5
380
100
AcDbEntity
  8
0
100
AcDbLine
 62
7
  6
CONTINUOUS
 10
500.8595916571
 20
99.5095773112
 11
500.6988189876
 21
99.2165888694
  0
LINE
  5
381
100
AcDbEntity
  8
0
100
AcDbLine
 62
7
  6
CONTINUOUS
 10
504.5438641416
 20
98.5223794743
 11
504.3830919113
 21
98.2293909148
  0
LINE
  5
382
100
AcDbEntity
  8
0
100
AcDbLine
 62
7
  6
CONTINUOUS
 10
497.762657159
 20
101.7676847588
 11
497.6228889184
 21
101.5530850344
  0
LINE
  5
383
100
AcDbEntity
  8
0
100
AcDbLine
 62
7
  6
CONTINUOUS
 10
498.0624188246
 20
101.3512965138
 11
498.2021870652
 21
101.5658962382
  0
LINE
  5
384
100
AcDbEntity
  8
0
100
AcDbLine
 62
7
  6
CONTINUOUS
 10
643.492548173
 20
104.0627405937
 11
650.0281949362
 21
79.6713748134
  0
LINE
  5
385
100
AcDbEntity
  8
0
100
AcDbLine
 62
7
  6
CONTINUOUS
 10
645.9574302673
 20
101.4344988618
 11
643.9733970727
 21
108.8390115478
  0
LINE
  5
386
100
AcDbEntity
  8
0
100
AcDbLine
 62
7
  6
CONTINUOUS
 10
522.3868137046
 20
92.9852239548
 11
522.5376817092
 21
93.2808664024
  0
LINE
  5
387
100
AcDbEntity
  8
0
100
AcDbLine
 62
7
  6
CONTINUOUS
 10
534.8326217397
 20
88.6484993648
 11
531.2833660374
 21
81.9733202332
  0
LINE
  5
388
100
AcDbEntity
  8
0
100
AcDbLine
 62
7
  6
CONTINUOUS
 10
536.8166549342
 20
96.0530120507
 11
544.1986551857
 21
108.8390115478
  0
LINE
  5
389
100
AcDbEntity
  8
0
100
AcDbLine
 62
7
  6
CONTINUOUS
 10
519.3897983247
 20
95.9727097488
 11
519.2599343528
 21
95.7554561837
  0
LINE
  5
38A
100
AcDbEntity
  8
0
100
AcDbLine
 62
7
  6
CONTINUOUS
 10
519.6400383987
 20
95.5695907744
 11
519.7699025619
 21
95.7868442883
  0
LINE
  5
38B
100
AcDbEntity
  8
0
100
AcDbLine
 62
7
  6
CONTINUOUS
 10
522.157577472
 20
93.4667318629
 11
522.0277133089
 21
93.249478349
  0
LINE
  5
38C
100
AcDbEntity
  8
0
100
AcDbLine
 62
7
  6
CONTINUOUS
 10
645.9574302673
 20
101.4344988618
 11
646.2212742303
 21
93.8789963079
  0
LINE
  5
38D
100
AcDbEntity
  8
0
100
AcDbLine
 62
7
  6
CONTINUOUS
 10
643.9733970727
 20
123.6030120507
 11
643.9733970727
 21
108.8390115478
  0
LINE
  5
38E
100
AcDbEntity
  8
0
100
AcDbLine
 62
7
  6
CONTINUOUS
 10
527.0910371793
 20
94.4972871127
 11
526.8523130035
 21
94.1411686415
  0
LINE
  5
38F
100
AcDbEntity
  8
0
100
AcDbLine
 62
7
  6
CONTINUOUS
 10
526.6041010168
 20
92.9474242852
 11
526.3653776354
 21
92.5913057188
  0
LINE
  5
390
100
AcDbEntity
  8
0
100
AcDbLine
 62
7
  6
CONTINUOUS
 10
528.4702915548
 20
91.3551609777
 11
528.7090156865
 21
91.7112792841
  0
LINE
  5
391
100
AcDbEntity
  8
0
100
AcDbLine
 62
7
  6
CONTINUOUS
 10
520.7401531881
 20
96.1990013494
 11
520.5224336629
 21
95.9212717716
  0
LINE
  5
392
100
AcDbEntity
  8
0
100
AcDbLine
 62
7
  6
CONTINUOUS
 10
528.8445288414
 20
93.0192381563
 11
529.062247984
 21
93.2969678366
  0
LINE
  5
393
100
AcDbEntity
  8
0
100
AcDbLine
 62
7
  6
CONTINUOUS
 10
500.9008208165
 20
98.7423783977
 11
501.1383488938
 21
99.0148003488
  0
LINE
  5
394
100
AcDbEntity
  8
0
100
AcDbLine
 62
7
  6
CONTINUOUS
 10
504.5850933009
 20
97.7551805608
 11
504.8226218175
 21
98.0276023942
  0
LINE
  5
395
100
AcDbEntity
  8
0
100
AcDbLine
 62
7
  6
CONTINUOUS
 10
661.5360261292
 20
302.4032148165
 11
661.5360261292
 21
462.4032148165
  0
LINE
  5
396
100
AcDbEntity
  8
0
100
AcDbLine
 62
7
  6
CONTINUOUS
 10
588.8733970727
 20
123.6030120507
 11
596.2553973242
 21
136.3890115478
  0
LINE
  5
397
100
AcDbEntity
  8
0
100
AcDbLine
 62
7
  6
CONTINUOUS
 10
520.9025378413
 20
95.7354060914
 11
521.099253216
 21
95.9347471125
  0
LINE
  5
398
100
AcDbEntity
  8
0
100
AcDbLine
 62
7
  6
CONTINUOUS
 10
527.1865702972
 20
94.0516046696
 11
527.3832852894
 21
94.2509457932
  0
LINE
  5
399
100
AcDbEntity
  8
0
100
AcDbLine
 62
7
  6
CONTINUOUS
 10
528.7489956646
 20
93.4649203798
 11
528.5522799662
 21
93.2655796808
  0
LINE
  5
39A
100
AcDbEntity
  8
0
100
AcDbLine
 62
7
  6
CONTINUOUS
 10
519.3554675296
 20
95.3097739602
 11
519.6400383987
 21
95.5695907744
  0
LINE
  5
39B
100
AcDbEntity
  8
0
100
AcDbLine
 62
7
  6
CONTINUOUS
 10
500.6988189876
 20
99.2165888694
 11
500.4822951343
 21
99.0225557495
  0
LINE
  5
39C
100
AcDbEntity
  8
0
100
AcDbLine
 62
7
  6
CONTINUOUS
 10
504.3830919113
 20
98.2293909148
 11
504.1665676188
 21
98.0353579126
  0
LINE
  5
39D
100
AcDbEntity
  8
0
100
AcDbLine
 62
7
  6
CONTINUOUS
 10
497.7481349297
 20
101.0994412809
 11
498.0624188246
 21
101.3512965138
  0
LINE
  5
39E
100
AcDbEntity
  8
0
100
AcDbLine
 62
7
  6
CONTINUOUS
 10
509.2666549342
 20
143.7710117992
 11
496.4806554372
 21
136.3890115478
  0
LINE
  5
39F
100
AcDbEntity
  8
0
100
AcDbLine
 62
7
  6
CONTINUOUS
 10
687.5360261292
 20
302.4032148165
 11
687.5360261292
 21
462.4032148165
  0
LINE
  5
3A0
100
AcDbEntity
  8
RUNDUNGEN
100
AcDbLine
 62
7
  6
CONTINUOUS
 10
522.3585715252
 20
62.9272353067
 11
527.4764453315
 21
67.7656987387
  0
LINE
  5
3A1
100
AcDbEntity
  8
0
100
AcDbLine
 62
7
  6
CONTINUOUS
 10
526.6996341641
 20
92.5017419519
 11
526.984205254
 21
92.7615588246
  0
LINE
  5
3A2
100
AcDbEntity
  8
0
100
AcDbLine
 62
7
  6
CONTINUOUS
 10
528.3747583927
 20
91.800843256
 11
528.0901873176
 21
91.5410264382
  0
LINE
  5
3A3
100
AcDbEntity
  8
0
100
AcDbLine
 62
7
  6
CONTINUOUS
 10
519.2599343528
 20
95.7554561837
 11
519.084223055
 21
95.6345042097
  0
LINE
  5
3A4
100
AcDbEntity
  8
0
100
AcDbLine
 62
7
  6
CONTINUOUS
 10
521.0915757838
 20
96.4409052974
 11
520.7401531881
 21
96.1990013494
  0
LINE
  5
3A5
100
AcDbEntity
  8
0
100
AcDbLine
 62
7
  6
CONTINUOUS
 10
522.0353911016
 20
92.7433199793
 11
522.3868137046
 21
92.9852239548
  0
LINE
  5
3A6
100
AcDbEntity
  8
0
100
AcDbLine
 62
7
  6
CONTINUOUS
 10
527.3546040304
 20
94.6787150993
 11
527.0910371793
 21
94.4972871127
  0
LINE
  5
3A7
100
AcDbEntity
  8
0
100
AcDbLine
 62
7
  6
CONTINUOUS
 10
497.6228889184
 20
101.5530850344
 11
497.4273690548
 21
101.4374407496
  0
LINE
  5
3A8
100
AcDbEntity
  8
0
100
AcDbLine
 62
7
  6
CONTINUOUS
 10
500.5097810819
 20
98.5110898007
 11
500.9008208165
 21
98.7423783977
  0
LINE
  5
3A9
100
AcDbEntity
  8
0
100
AcDbLine
 62
7
  6
CONTINUOUS
 10
504.1940540056
 20
97.5238918461
 11
504.5850933009
 21
97.7551805608
  0
LINE
  5
3AA
100
AcDbEntity
  8
0
100
AcDbLine
 62
7
  6
CONTINUOUS
 10
648.0152179225
 20
72.9222056629
 11
650.0281949362
 21
79.6713748134
  0
LINE
  5
3AB
100
AcDbEntity
  8
0
100
AcDbLine
 62
7
  6
CONTINUOUS
 10
528.5809619903
 20
92.8378101697
 11
528.8445288414
 21
93.0192381563
  0
LINE
  5
3AC
100
AcDbEntity
  8
0
100
AcDbLine
 62
7
  6
CONTINUOUS
 10
528.2067246963
 20
91.1737329636
 11
528.4702915548
 21
91.3551609777
  0
LINE
  5
3AD
100
AcDbEntity
  8
0
100
AcDbLine
 62
7
  6
CONTINUOUS
 10
596.2553973242
 20
136.3890115478
 11
600.9722175717
 21
139.1122689874
  0
LINE
  5
3AE
100
AcDbEntity
  8
0
100
AcDbLine
 62
7
  6
CONTINUOUS
 10
527.3832852894
 20
94.2509457932
 11
527.7137040583
 21
94.4144608625
  0
LINE
  5
3AF
100
AcDbEntity
  8
0
100
AcDbLine
 62
7
  6
CONTINUOUS
 10
526.9345197857
 20
93.1109393544
 11
526.6041010168
 21
92.9474242852
  0
LINE
  5
3B0
100
AcDbEntity
  8
0
100
AcDbLine
 62
7
  6
CONTINUOUS
 10
528.5522799662
 20
93.2655796808
 11
528.2218619624
 21
93.1020644065
  0
LINE
  5
3B1
100
AcDbEntity
  8
0
100
AcDbLine
 62
7
  6
CONTINUOUS
 10
521.099253216
 20
95.9347471125
 11
521.3418158578
 21
96.0377863229
  0
LINE
  5
3B2
100
AcDbEntity
  8
0
100
AcDbLine
 62
7
  6
CONTINUOUS
 10
500.4822951343
 20
99.0225557495
 11
500.2100196433
 21
98.9274780142
  0
LINE
  5
3B3
100
AcDbEntity
  8
0
100
AcDbLine
 62
7
  6
CONTINUOUS
 10
504.1665676188
 20
98.0353579126
 11
503.8942921278
 21
97.9402801773
  0
LINE
  5
3B4
100
AcDbEntity
  8
0
100
AcDbLine
 62
7
  6
CONTINUOUS
 10
522.0277133089
 20
93.249478349
 11
521.7851506523
 21
93.1464390838
  0
LINE
  5
3B5
100
AcDbEntity
  8
0
100
AcDbLine
 62
7
  6
CONTINUOUS
 10
527.751873187
 20
94.8243176612
 11
527.3546040304
 21
94.6787150993
  0
LINE
  5
3B6
100
AcDbEntity
  8
0
100
AcDbLine
 62
7
  6
CONTINUOUS
 10
527.8094547691
 20
91.0281305861
 11
528.2067246963
 21
91.1737329636
  0
LINE
  5
3B7
100
AcDbEntity
  8
RUNDUNGEN
100
AcDbLine
 62
7
  6
CONTINUOUS
 10
474.5149463651
 20
15.3305605073
 11
459.553064882
 21
6.5942374126
  0
LINE
  5
3B8
100
AcDbEntity
  8
RUNDUNGEN
100
AcDbLine
 62
7
  6
CONTINUOUS
 10
473.5998828557
 20
11.9154969978
 11
458.6380013725
 21
3.1791739031
  0
LINE
  5
3B9
100
AcDbEntity
  8
RUNDUNGEN
100
AcDbLine
 62
7
  6
CONTINUOUS
 10
516.1138713454
 20
33.1916739323
 11
524.8046776758
 21
38.2662825062
  0
LINE
  5
3BA
100
AcDbEntity
  8
RUNDUNGEN
100
AcDbLine
 62
7
  6
CONTINUOUS
 10
515.1988078359
 20
29.7766104228
 11
523.8896141663
 21
34.8512189967
  0
LINE
  5
3BB
100
AcDbEntity
  8
RUNDUNGEN
100
AcDbLine
 62
7
  6
CONTINUOUS
 10
476.3641144694
 20
-2.5422599864
 11
481.3689272983
 21
0.3800771509
  0
LINE
  5
3BC
100
AcDbEntity
  8
RUNDUNGEN
100
AcDbLine
 62
7
  6
CONTINUOUS
 10
504.2965507851
 20
13.7676398582
 11
530.4777902484
 21
29.055006439
  0
LINE
  5
3BD
100
AcDbEntity
  8
0
100
AcDbLine
 62
7
  6
CONTINUOUS
 10
331.0060065361
 20
7.8214120255
 11
331.054149975
 21
7.8266728436
  0
LINE
  5
3BE
100
AcDbEntity
  8
0
100
AcDbLine
 62
7
  6
CONTINUOUS
 10
308.1582441422
 20
26.8236198097
 11
308.1227930484
 21
26.8152755878
  0
LINE
  5
3BF
100
AcDbEntity
  8
0
100
AcDbLine
 62
7
  6
CONTINUOUS
 10
307.4812062672
 20
27.4514382286
 11
307.516657361
 21
27.4597824505
  0
LINE
  5
3C0
100
AcDbEntity
  8
0
100
AcDbLine
 62
7
  6
CONTINUOUS
 10
307.6720258406
 20
26.7865556761
 11
307.7286986025
 21
26.79310352
  0
LINE
  5
3C1
100
AcDbEntity
  8
0
100
AcDbLine
 62
7
  6
CONTINUOUS
 10
307.0463142954
 20
27.1952202294
 11
307.2730053429
 21
27.2214116047
  0
LINE
  5
3C2
100
AcDbEntity
  8
0
100
AcDbLine
 62
7
  6
CONTINUOUS
 10
307.3296781048
 20
27.2279594486
 11
307.4241326989
 21
27.2388725206
  0
LINE
  5
3C3
100
AcDbEntity
  8
0
100
AcDbLine
 62
7
  6
CONTINUOUS
 10
307.2531238913
 20
27.425239372
 11
307.1586692972
 21
27.4143263
  0
LINE
  5
3C4
100
AcDbEntity
  8
0
100
AcDbLine
 62
7
  6
CONTINUOUS
 10
307.1019965353
 20
27.4077784562
 11
306.9414237078
 21
27.3892262317
  0
LINE
  5
3C5
100
AcDbEntity
  8
0
100
AcDbLine
 62
7
  6
CONTINUOUS
 10
306.389129763
 20
28.2529770226
 11
306.3324570011
 21
28.2464291787
  0
LINE
  5
3C6
100
AcDbEntity
  8
0
100
AcDbLine
 62
7
  6
CONTINUOUS
 10
316.9251734361
 20
21.4224523724
 11
316.973316875
 21
21.4277131905
  0
LINE
  5
3C7
100
AcDbEntity
  8
0
100
AcDbLine
 62
7
  6
CONTINUOUS
 10
302.4565651291
 20
32.3094808705
 11
302.3963858357
 21
32.3029048429
  0
LINE
  5
3C8
100
AcDbEntity
  8
0
100
AcDbLine
 62
7
  6
CONTINUOUS
 10
301.6140548536
 20
33.2526928271
 11
301.6742341469
 21
33.2592688239
  0
LINE
  5
3C9
100
AcDbEntity
  8
0
100
AcDbLine
 62
7
  6
CONTINUOUS
 10
308.2513881912
 20
26.6624794857
 11
308.3021317468
 21
26.6652699855
  0
LINE
  5
3CA
100
AcDbEntity
  8
0
100
AcDbLine
 62
7
  6
CONTINUOUS
 10
307.3880622363
 20
27.6125785312
 11
307.3373186784
 21
27.6097880341
  0
LINE
  5
3CB
100
AcDbEntity
  8
0
100
AcDbLine
 62
7
  6
CONTINUOUS
 10
302.42797999
 20
35.8958538956
 11
302.3678006967
 21
35.889277868
  0
LINE
  5
3CC
100
AcDbEntity
  8
0
100
AcDbLine
 62
7
  6
CONTINUOUS
 10
302.42797999
 20
36.2409458734
 11
302.3678006967
 21
36.2343698458
  0
LINE
  5
3CD
100
AcDbEntity
  8
0
100
AcDbLine
 62
7
  6
CONTINUOUS
 10
302.42797999
 20
36.8664251913
 11
302.3678006967
 21
36.8598491637
  0
LINE
  5
3CE
100
AcDbEntity
  8
0
100
AcDbLine
 62
7
  6
CONTINUOUS
 10
302.42797999
 20
37.211517416
 11
302.3678006967
 21
37.2049413884
  0
LINE
  5
3CF
100
AcDbEntity
  8
0
100
AcDbLine
 62
7
  6
CONTINUOUS
 10
322.2206951952
 20
12.8759123331
 11
322.2877105985
 21
12.8591986056
  0
LINE
  5
3D0
100
AcDbEntity
  8
0
100
AcDbLine
 62
7
  6
CONTINUOUS
 10
322.1671343238
 20
13.0103212289
 11
322.0733127439
 21
13.0337204512
  0
LINE
  5
3D1
100
AcDbEntity
  8
0
100
AcDbLine
 62
7
  6
CONTINUOUS
 10
321.5373953107
 20
13.6515819124
 11
321.6312168906
 21
13.6281826901
  0
LINE
  5
3D2
100
AcDbEntity
  8
0
100
AcDbLine
 62
7
  6
CONTINUOUS
 10
321.483834458
 20
13.7859907866
 11
321.4168190548
 21
13.8027045141
  0
LINE
  5
3D3
100
AcDbEntity
  8
0
100
AcDbLine
 62
7
  6
CONTINUOUS
 10
321.4302838381
 20
13.9446073224
 11
321.4972992222
 21
13.9278935997
  0
LINE
  5
3D4
100
AcDbEntity
  8
0
100
AcDbLine
 62
7
  6
CONTINUOUS
 10
321.0818654652
 20
14.1767641858
 11
321.1622839568
 21
14.156707711
  0
LINE
  5
3D5
100
AcDbEntity
  8
0
100
AcDbLine
 62
7
  6
CONTINUOUS
 10
321.0149015242
 20
14.3145158075
 11
320.9612892093
 21
14.3278867875
  0
LINE
  5
3D6
100
AcDbEntity
  8
0
100
AcDbLine
 62
7
  6
CONTINUOUS
 10
322.9189045932
 20
12.6991122647
 11
322.8471822168
 21
12.7200217676
  0
LINE
  5
3D7
100
AcDbEntity
  8
0
100
AcDbLine
 62
7
  6
CONTINUOUS
 10
321.9230469866
 20
13.8264270368
 11
321.9947692546
 21
13.8055175914
  0
LINE
  5
3D8
100
AcDbEntity
  8
0
100
AcDbLine
 62
7
  6
CONTINUOUS
 10
324.362075708
 20
12.3582046645
 11
327.6280620317
 21
11.2740564869
  0
LINE
  5
3D9
100
AcDbEntity
  8
0
100
AcDbLine
 62
7
  6
CONTINUOUS
 10
327.3452193192
 20
11.5184894964
 11
323.8306140276
 21
12.6851670461
  0
LINE
  5
3DA
100
AcDbEntity
  8
0
100
AcDbLine
 62
7
  6
CONTINUOUS
 10
327.6280620317
 20
11.7916945771
 11
323.5455791271
 21
13.1468797991
  0
LINE
  5
3DB
100
AcDbEntity
  8
0
100
AcDbLine
 62
7
  6
CONTINUOUS
 10
181.3498515449
 20
62.9272353067
 11
179.7498515449
 21
62.9272353067
  0
LINE
  5
3DC
100
AcDbEntity
  8
0
100
AcDbLine
 62
7
  6
CONTINUOUS
 10
179.7498515449
 20
72.9222056629
 11
181.3498515449
 21
72.9222056629
  0
LINE
  5
3DD
100
AcDbEntity
  8
0
100
AcDbLine
 62
7
  6
CONTINUOUS
 10
302.6371030092
 20
31.9625486343
 11
302.7574615959
 21
31.9325641769
  0
LINE
  5
3DE
100
AcDbEntity
  8
0
100
AcDbLine
 62
7
  6
CONTINUOUS
 10
302.3542602967
 20
32.1854133643
 11
302.3334804234
 21
32.1905901744
  0
LINE
  5
3DF
100
AcDbEntity
  8
0
100
AcDbLine
 62
7
  6
CONTINUOUS
 10
302.6371030092
 20
32.458618445
 11
302.5167444224
 21
32.4886029179
  0
LINE
  5
3E0
100
AcDbEntity
  8
0
100
AcDbLine
 62
7
  6
CONTINUOUS
 10
303.9324624503
 20
33.3857909567
 11
303.8121038636
 21
33.4157754141
  0
LINE
  5
3E1
100
AcDbEntity
  8
0
100
AcDbLine
 62
7
  6
CONTINUOUS
 10
302.7890557502
 20
34.3608274958
 11
302.8492350435
 21
34.3458352748
  0
LINE
  5
3E2
100
AcDbEntity
  8
0
100
AcDbLine
 62
7
  6
CONTINUOUS
 10
302.6265716244
 20
34.4890030379
 11
302.5880408621
 21
34.4986020391
  0
LINE
  5
3E3
100
AcDbEntity
  8
0
100
AcDbLine
 62
7
  6
CONTINUOUS
 10
303.0297729236
 20
34.5165411288
 11
303.1501315103
 21
34.4865566559
  0
LINE
  5
3E4
100
AcDbEntity
  8
0
100
AcDbLine
 62
7
  6
CONTINUOUS
 10
302.9094143369
 20
34.7622081187
 11
302.8492350435
 21
34.7772003242
  0
LINE
  5
3E5
100
AcDbEntity
  8
0
100
AcDbLine
 62
7
  6
CONTINUOUS
 10
302.6085178701
 20
35.6136263435
 11
302.6686971635
 21
35.5986341997
  0
LINE
  5
3E6
100
AcDbEntity
  8
0
100
AcDbLine
 62
7
  6
CONTINUOUS
 10
302.6085178701
 20
35.9587184448
 11
302.6686971635
 21
35.9437261775
  0
LINE
  5
3E7
100
AcDbEntity
  8
0
100
AcDbLine
 62
7
  6
CONTINUOUS
 10
302.6085178701
 20
36.5841978861
 11
302.6686971635
 21
36.5692054954
  0
LINE
  5
3E8
100
AcDbEntity
  8
0
100
AcDbLine
 62
7
  6
CONTINUOUS
 10
302.6085178701
 20
36.9292898639
 11
302.6686971635
 21
36.9142977201
  0
LINE
  5
3E9
100
AcDbEntity
  8
0
100
AcDbLine
 62
7
  6
CONTINUOUS
 10
322.9623731585
 20
12.5733331417
 11
323.0530475584
 21
12.5423742426
  0
LINE
  5
3EA
100
AcDbEntity
  8
0
100
AcDbLine
 62
7
  6
CONTINUOUS
 10
321.879578329
 20
13.9522061968
 11
321.7889039271
 21
13.9831650985
  0
LINE
  5
3EB
100
AcDbEntity
  8
0
100
AcDbLine
 62
7
  6
CONTINUOUS
 10
308.1596330568
 20
26.6958019612
 11
308.2513881912
 21
26.6624794857
  0
LINE
  5
3EC
100
AcDbEntity
  8
0
100
AcDbLine
 62
7
  6
CONTINUOUS
 10
308.1227930484
 20
26.8152755878
 11
308.031037914
 21
26.8485980633
  0
LINE
  5
3ED
100
AcDbEntity
  8
0
100
AcDbLine
 62
7
  6
CONTINUOUS
 10
307.7133720198
 20
27.112496311
 11
307.6216168854
 21
27.1458187865
  0
LINE
  5
3EE
100
AcDbEntity
  8
0
100
AcDbLine
 62
7
  6
CONTINUOUS
 10
307.3901456249
 20
27.4208517747
 11
307.4971933108
 21
27.3819755426
  0
LINE
  5
3EF
100
AcDbEntity
  8
0
100
AcDbLine
 62
7
  6
CONTINUOUS
 10
307.516657361
 20
27.4597824505
 11
307.6084124954
 21
27.426459975
  0
LINE
  5
3F0
100
AcDbEntity
  8
0
100
AcDbLine
 62
7
  6
CONTINUOUS
 10
307.4798173707
 20
27.5792560557
 11
307.3880622363
 21
27.6125785312
  0
LINE
  5
3F1
100
AcDbEntity
  8
0
100
AcDbLine
 62
7
  6
CONTINUOUS
 10
306.9265086117
 20
28.0348266803
 11
307.3699918195
 21
27.8737680275
  0
LINE
  5
3F2
100
AcDbEntity
  8
0
100
AcDbLine
 62
7
  6
CONTINUOUS
 10
307.2413966948
 20
28.0265641083
 11
306.7214509041
 21
28.2153914801
  0
LINE
  5
3F3
100
AcDbEntity
  8
0
100
AcDbLine
 62
7
  6
CONTINUOUS
 10
303.8406890237
 20
30.7137008011
 11
304.0212269196
 21
30.6471558511
  0
LINE
  5
3F4
100
AcDbEntity
  8
0
100
AcDbLine
 62
7
  6
CONTINUOUS
 10
304.0528210581
 20
33.1185556902
 11
304.2333589539
 21
33.0520107401
  0
LINE
  5
3F5
100
AcDbEntity
  8
0
100
AcDbLine
 62
7
  6
CONTINUOUS
 10
301.7058283012
 20
35.9247829546
 11
301.5252904212
 21
35.9913278663
  0
LINE
  5
3F6
100
AcDbEntity
  8
0
100
AcDbLine
 62
7
  6
CONTINUOUS
 10
330.9097196583
 20
7.8626541862
 11
331.0060065361
 21
7.8214120255
  0
LINE
  5
3F7
100
AcDbEntity
  8
0
100
AcDbLine
 62
7
  6
CONTINUOUS
 10
330.8615762067
 20
8.0299394063
 11
330.7652893374
 21
8.0711815712
  0
LINE
  5
3F8
100
AcDbEntity
  8
0
100
AcDbLine
 62
7
  6
CONTINUOUS
 10
316.8288865583
 20
21.4636945331
 11
316.9251734361
 21
21.4224523724
  0
LINE
  5
3F9
100
AcDbEntity
  8
0
100
AcDbLine
 62
7
  6
CONTINUOUS
 10
316.7807431068
 20
21.6309797532
 11
316.6844562374
 21
21.672221918
  0
LINE
  5
3FA
100
AcDbEntity
  8
0
100
AcDbLine
 62
7
  6
CONTINUOUS
 10
174.20897826
 20
79.6713748134
 11
186.8907248299
 21
79.6713748134
  0
LINE
  5
3FB
100
AcDbEntity
  8
0
100
AcDbLine
 62
7
  6
CONTINUOUS
 10
178.7998515449
 20
93.8789963079
 11
182.2998515449
 21
93.8789963079
  0
LINE
  5
3FC
100
AcDbEntity
  8
0
100
AcDbLine
 62
7
  6
CONTINUOUS
 10
302.3963858357
 20
32.3029048429
 11
302.276027249
 21
32.3544575335
  0
LINE
  5
3FD
100
AcDbEntity
  8
0
100
AcDbLine
 62
7
  6
CONTINUOUS
 10
302.8778201826
 20
32.1182622828
 11
302.9981787693
 21
32.0667095767
  0
LINE
  5
3FE
100
AcDbEntity
  8
RUNDUNGEN
100
AcDbLine
 62
7
  6
CONTINUOUS
 10
293.650542398
 20
43.8046979202
 11
295.2728615487
 21
43.0857065536
  0
LINE
  5
3FF
100
AcDbEntity
  8
RUNDUNGEN
100
AcDbLine
 62
7
  6
CONTINUOUS
 10
302.1182275002
 20
40.6592089129
 11
301.0640418456
 21
41.1264106864
  0
LINE
  5
400
100
AcDbEntity
  8
0
100
AcDbLine
 62
7
  6
CONTINUOUS
 10
301.4936962669
 20
33.5414963142
 11
301.3131583868
 21
33.6296095207
  0
LINE
  5
401
100
AcDbEntity
  8
0
100
AcDbLine
 62
7
  6
CONTINUOUS
 10
302.8071095044
 20
34.4008898314
 11
302.6265716244
 21
34.4890030379
  0
LINE
  5
402
100
AcDbEntity
  8
0
100
AcDbLine
 62
7
  6
CONTINUOUS
 10
302.6686971635
 20
34.6064944856
 11
302.4881592834
 21
34.6946076767
  0
LINE
  5
403
100
AcDbEntity
  8
0
100
AcDbLine
 62
7
  6
CONTINUOUS
 10
303.0899522169
 20
34.6740949122
 11
302.9094143369
 21
34.7622081187
  0
LINE
  5
404
100
AcDbEntity
  8
0
100
AcDbLine
 62
7
  6
CONTINUOUS
 10
301.8261868879
 20
35.6791159648
 11
302.006724768
 21
35.5910027583
  0
LINE
  5
405
100
AcDbEntity
  8
0
100
AcDbLine
 62
7
  6
CONTINUOUS
 10
322.1268839112
 20
12.9235191354
 11
322.2206951952
 21
12.8759123331
  0
LINE
  5
406
100
AcDbEntity
  8
0
100
AcDbLine
 62
7
  6
CONTINUOUS
 10
321.5776457493
 20
13.7383839846
 11
321.483834458
 21
13.7859907866
  0
LINE
  5
407
100
AcDbEntity
  8
0
100
AcDbLine
 62
7
  6
CONTINUOUS
 10
321.1087127963
 20
14.2669090102
 11
321.0149015242
 21
14.3145158075
  0
LINE
  5
408
100
AcDbEntity
  8
0
100
AcDbLine
 62
7
  6
CONTINUOUS
 10
308.0574514468
 20
26.754129899
 11
308.1596330568
 21
26.6958019612
  0
LINE
  5
409
100
AcDbEntity
  8
0
100
AcDbLine
 62
7
  6
CONTINUOUS
 10
307.5819989784
 20
27.5209281205
 11
307.4798173707
 21
27.5792560557
  0
LINE
  5
40A
100
AcDbEntity
  8
0
100
AcDbLine
 62
7
  6
CONTINUOUS
 10
322.0733127439
 20
13.0337204512
 11
322.0063076293
 21
13.0746417584
  0
LINE
  5
40B
100
AcDbEntity
  8
0
100
AcDbLine
 62
7
  6
CONTINUOUS
 10
321.6312168906
 20
13.6281826901
 11
321.698221986
 21
13.5872613877
  0
LINE
  5
40C
100
AcDbEntity
  8
0
100
AcDbLine
 62
7
  6
CONTINUOUS
 10
321.1622839568
 20
14.156707711
 11
321.2292890714
 21
14.1157864037
  0
LINE
  5
40D
100
AcDbEntity
  8
0
100
AcDbLine
 62
7
  6
CONTINUOUS
 10
182.2998515449
 20
101.4344988618
 11
178.7998515449
 21
101.4344988618
  0
LINE
  5
40E
100
AcDbEntity
  8
0
100
AcDbLine
 62
7
  6
CONTINUOUS
 10
177.8801657801
 20
108.8390115478
 11
183.2195373097
 21
108.8390115478
  0
LINE
  5
40F
100
AcDbEntity
  8
0
100
AcDbLine
 62
7
  6
CONTINUOUS
 10
307.7193279075
 20
28.3390414258
 11
307.373400792
 21
28.5465632485
  0
LINE
  5
410
100
AcDbEntity
  8
0
100
AcDbLine
 62
7
  6
CONTINUOUS
 10
307.7684119867
 20
28.3864530056
 11
313.8394797986
 21
24.7444168602
  0
LINE
  5
411
100
AcDbEntity
  8
0
100
AcDbLine
 62
7
  6
CONTINUOUS
 10
313.8394797986
 20
25.110442264
 11
306.7684119867
 21
29.3523788319
  0
LINE
  5
412
100
AcDbEntity
  8
0
100
AcDbLine
 62
7
  6
CONTINUOUS
 10
308.031037914
 20
26.8485980633
 11
307.9441487703
 21
26.9013722738
  0
LINE
  5
413
100
AcDbEntity
  8
0
100
AcDbLine
 62
7
  6
CONTINUOUS
 10
307.6084124954
 20
27.426459975
 11
307.6953016391
 21
27.3736857646
  0
LINE
  5
414
100
AcDbEntity
  8
0
100
AcDbLine
 62
7
  6
CONTINUOUS
 10
303.6601511226
 20
31.0174965372
 11
303.4796132004
 21
31.1271780176
  0
LINE
  5
415
100
AcDbEntity
  8
0
100
AcDbLine
 62
7
  6
CONTINUOUS
 10
302.3963858357
 20
32.1087905513
 11
302.6371030092
 21
31.9625486343
  0
LINE
  5
416
100
AcDbEntity
  8
0
100
AcDbLine
 62
7
  6
CONTINUOUS
 10
302.5949774701
 20
32.0391714858
 11
302.3542602967
 21
32.1854133643
  0
LINE
  5
417
100
AcDbEntity
  8
0
100
AcDbLine
 62
7
  6
CONTINUOUS
 10
302.8778201826
 20
32.3123765666
 11
302.6371030092
 21
32.458618445
  0
LINE
  5
418
100
AcDbEntity
  8
0
100
AcDbLine
 62
7
  6
CONTINUOUS
 10
301.6742341469
 20
33.2592688239
 11
301.7945927336
 21
33.1861478846
  0
LINE
  5
419
100
AcDbEntity
  8
0
100
AcDbLine
 62
7
  6
CONTINUOUS
 10
303.8722831569
 20
33.2282371541
 11
304.0528210581
 21
33.1185556902
  0
LINE
  5
41A
100
AcDbEntity
  8
0
100
AcDbLine
 62
7
  6
CONTINUOUS
 10
302.6085178701
 20
34.4705089355
 11
302.7890557502
 21
34.3608274958
  0
LINE
  5
41B
100
AcDbEntity
  8
0
100
AcDbLine
 62
7
  6
CONTINUOUS
 10
301.8863661813
 20
35.8151015149
 11
301.7058283012
 21
35.9247829546
  0
LINE
  5
41C
100
AcDbEntity
  8
0
100
AcDbLine
 62
7
  6
CONTINUOUS
 10
302.6686971635
 20
35.5986341997
 11
302.7288764568
 21
35.5620736375
  0
LINE
  5
41D
100
AcDbEntity
  8
0
100
AcDbLine
 62
7
  6
CONTINUOUS
 10
302.6085178701
 20
35.7861724559
 11
302.42797999
 21
35.8958538956
  0
LINE
  5
41E
100
AcDbEntity
  8
0
100
AcDbLine
 62
7
  6
CONTINUOUS
 10
302.6686971635
 20
35.9437261775
 11
302.7288764568
 21
35.9071657388
  0
LINE
  5
41F
100
AcDbEntity
  8
0
100
AcDbLine
 62
7
  6
CONTINUOUS
 10
302.5483385767
 20
36.1678249959
 11
302.42797999
 21
36.2409458734
  0
LINE
  5
420
100
AcDbEntity
  8
0
100
AcDbLine
 62
7
  6
CONTINUOUS
 10
302.6686971635
 20
36.5692054954
 11
302.7288764568
 21
36.53264518
  0
LINE
  5
421
100
AcDbEntity
  8
0
100
AcDbLine
 62
7
  6
CONTINUOUS
 10
302.6085178701
 20
36.7567437516
 11
302.42797999
 21
36.8664251913
  0
LINE
  5
422
100
AcDbEntity
  8
0
100
AcDbLine
 62
7
  6
CONTINUOUS
 10
302.6686971635
 20
36.9142977201
 11
302.7288764568
 21
36.8777371579
  0
LINE
  5
423
100
AcDbEntity
  8
0
100
AcDbLine
 62
7
  6
CONTINUOUS
 10
302.5483385767
 20
37.1383962916
 11
302.42797999
 21
37.211517416
  0
LINE
  5
424
100
AcDbEntity
  8
0
100
AcDbLine
 62
7
  6
CONTINUOUS
 10
322.8256223843
 20
12.6629674881
 11
322.9623731585
 21
12.5733331417
  0
LINE
  5
425
100
AcDbEntity
  8
0
100
AcDbLine
 62
7
  6
CONTINUOUS
 10
322.0163291012
 20
13.862571853
 11
321.879578329
 21
13.9522061968
  0
LINE
  5
426
100
AcDbEntity
  8
0
100
AcDbLine
 62
7
  6
CONTINUOUS
 10
322.8471822168
 20
12.7200217676
 11
322.7293835786
 21
12.7996066552
  0
LINE
  5
427
100
AcDbEntity
  8
0
100
AcDbLine
 62
7
  6
CONTINUOUS
 10
321.9947692546
 20
13.8055175914
 11
322.1125680012
 21
13.7259326464
  0
LINE
  5
428
100
AcDbEntity
  8
0
100
AcDbLine
 62
7
  6
CONTINUOUS
 10
301.7344134403
 20
33.3736861408
 11
301.4936962669
 21
33.5414963142
  0
LINE
  5
429
100
AcDbEntity
  8
0
100
AcDbLine
 62
7
  6
CONTINUOUS
 10
303.8121038636
 20
33.4157754141
 11
303.571386648
 21
33.5835856205
  0
LINE
  5
42A
100
AcDbEntity
  8
0
100
AcDbLine
 62
7
  6
CONTINUOUS
 10
303.1501315103
 20
34.4865566559
 11
303.390848768
 21
34.3187464012
  0
LINE
  5
42B
100
AcDbEntity
  8
RUNDUNGEN
100
AcDbLine
 62
7
  6
CONTINUOUS
 10
311.9236354532
 20
13.7676398582
 11
290.3809698594
 21
29.055006439
  0
LINE
  5
42C
100
AcDbEntity
  8
RUNDUNGEN
100
AcDbLine
 62
7
  6
CONTINUOUS
 10
338.4427693378
 20
0.8728035231
 11
334.3246675465
 21
3.7951406604
  0
LINE
  5
42D
100
AcDbEntity
  8
RUNDUNGEN
100
AcDbLine
 62
7
  6
CONTINUOUS
 10
315.4591693591
 20
17.1827033677
 11
293.9165037653
 21
32.4700699485
  0
LINE
  5
42E
100
AcDbEntity
  8
RUNDUNGEN
100
AcDbLine
 62
7
  6
CONTINUOUS
 10
297.1739794791
 20
33.1916739323
 11
290.0229378037
 21
38.2662825062
  0
LINE
  5
42F
100
AcDbEntity
  8
RUNDUNGEN
100
AcDbLine
 62
7
  6
CONTINUOUS
 10
325.1930842633
 20
15.3305605073
 11
337.5041442457
 21
6.5942374126
  0
LINE
  5
430
100
AcDbEntity
  8
0
100
AcDbLine
 62
7
  6
CONTINUOUS
 10
302.9981787693
 20
32.0667095767
 11
303.1787167336
 21
31.9354597607
  0
LINE
  5
431
100
AcDbEntity
  8
0
100
AcDbLine
 62
7
  6
CONTINUOUS
 10
323.1928006679
 20
13.1856365205
 11
323.267893739
 21
13.1301667052
  0
LINE
  5
432
100
AcDbEntity
  8
0
100
AcDbLine
 62
7
  6
CONTINUOUS
 10
323.08140918
 20
13.4202408436
 11
323.0063161089
 21
13.4757106589
  0
LINE
  5
433
100
AcDbEntity
  8
0
100
AcDbLine
 62
7
  6
CONTINUOUS
 10
321.9794808848
 20
13.0329120828
 11
322.1268839112
 21
12.9235191354
  0
LINE
  5
434
100
AcDbEntity
  8
0
100
AcDbLine
 62
7
  6
CONTINUOUS
 10
321.7250487399
 20
13.6289910524
 11
321.5776457493
 21
13.7383839846
  0
LINE
  5
435
100
AcDbEntity
  8
0
100
AcDbLine
 62
7
  6
CONTINUOUS
 10
321.2561158253
 20
14.1575160685
 11
321.1087127963
 21
14.2669090102
  0
LINE
  5
436
100
AcDbEntity
  8
0
100
AcDbLine
 62
7
  6
CONTINUOUS
 10
178.5448428891
 20
123.6030120507
 11
182.5548602008
 21
123.6030120507
  0
LINE
  5
437
100
AcDbEntity
  8
0
100
AcDbLine
 62
7
  6
CONTINUOUS
 10
178.5448428891
 20
136.3890115478
 11
182.5548602008
 21
136.3890115478
  0
LINE
  5
438
100
AcDbEntity
  8
0
100
AcDbLine
 62
7
  6
CONTINUOUS
 10
302.4881592834
 20
34.6946076767
 11
302.3076214033
 21
34.825857365
  0
LINE
  5
439
100
AcDbEntity
  8
0
100
AcDbLine
 62
7
  6
CONTINUOUS
 10
302.006724768
 20
35.5910027583
 11
302.1872628166
 21
35.4597529225
  0
LINE
  5
43A
100
AcDbEntity
  8
0
100
AcDbLine
 62
7
  6
CONTINUOUS
 10
303.5397924937
 20
30.9396397672
 11
303.8406890237
 21
30.7137008011
  0
LINE
  5
43B
100
AcDbEntity
  8
0
100
AcDbLine
 62
7
  6
CONTINUOUS
 10
322.0063076293
 20
13.0746417584
 11
321.9125066458
 21
13.1464561355
  0
LINE
  5
43C
100
AcDbEntity
  8
0
100
AcDbLine
 62
7
  6
CONTINUOUS
 10
321.698221986
 20
13.5872613877
 11
321.7920229695
 21
13.5154470106
  0
LINE
  5
43D
100
AcDbEntity
  8
0
100
AcDbLine
 62
7
  6
CONTINUOUS
 10
321.2292890714
 20
14.1157864037
 11
321.3230900549
 21
14.0439720267
  0
LINE
  5
43E
100
AcDbEntity
  8
0
100
AcDbLine
 62
7
  6
CONTINUOUS
 10
307.9038316949
 20
26.8735763063
 11
308.0574514468
 21
26.754129899
  0
LINE
  5
43F
100
AcDbEntity
  8
0
100
AcDbLine
 62
7
  6
CONTINUOUS
 10
307.7356187236
 20
27.4014817213
 11
307.5819989784
 21
27.5209281205
  0
LINE
  5
440
100
AcDbEntity
  8
0
100
AcDbLine
 62
7
  6
CONTINUOUS
 10
330.7171459027
 20
8.0141569524
 11
330.9097196583
 21
7.8626541862
  0
LINE
  5
441
100
AcDbEntity
  8
0
100
AcDbLine
 62
7
  6
CONTINUOUS
 10
302.6886240403
 20
31.9654972847
 11
302.5949774701
 21
32.0391714858
  0
LINE
  5
442
100
AcDbEntity
  8
0
100
AcDbLine
 62
7
  6
CONTINUOUS
 10
303.1185374403
 20
32.1229980169
 11
302.8778201826
 21
32.3123765666
  0
LINE
  5
443
100
AcDbEntity
  8
0
100
AcDbLine
 62
7
  6
CONTINUOUS
 10
301.7945927336
 20
33.1861478846
 11
301.9149513203
 21
33.0914586505
  0
LINE
  5
444
100
AcDbEntity
  8
0
100
AcDbLine
 62
7
  6
CONTINUOUS
 10
316.6363128027
 20
21.6151972993
 11
316.8288865583
 21
21.4636945331
  0
LINE
  5
445
100
AcDbEntity
  8
0
100
AcDbLine
 62
7
  6
CONTINUOUS
 10
302.3678006967
 20
34.6598873632
 11
302.6085178701
 21
34.4705089355
  0
LINE
  5
446
100
AcDbEntity
  8
0
100
AcDbLine
 62
7
  6
CONTINUOUS
 10
302.7288764568
 20
35.5620736375
 11
302.8492350435
 21
35.4673844651
  0
LINE
  5
447
100
AcDbEntity
  8
0
100
AcDbLine
 62
7
  6
CONTINUOUS
 10
302.7288764568
 20
35.9071657388
 11
302.8492350435
 21
35.8124765663
  0
LINE
  5
448
100
AcDbEntity
  8
0
100
AcDbLine
 62
7
  6
CONTINUOUS
 10
302.7288764568
 20
36.53264518
 11
302.8492350435
 21
36.4379558842
  0
LINE
  5
449
100
AcDbEntity
  8
0
100
AcDbLine
 62
7
  6
CONTINUOUS
 10
302.7288764568
 20
36.8777371579
 11
302.8492350435
 21
36.7830478621
  0
LINE
  5
44A
100
AcDbEntity
  8
0
100
AcDbLine
 62
7
  6
CONTINUOUS
 10
307.9441487703
 20
26.9013722738
 11
307.8468331532
 21
26.9791519438
  0
LINE
  5
44B
100
AcDbEntity
  8
0
100
AcDbLine
 62
7
  6
CONTINUOUS
 10
307.6953016391
 20
27.3736857646
 11
307.7926172562
 21
27.2959060945
  0
LINE
  5
44C
100
AcDbEntity
  8
0
100
AcDbLine
 62
7
  6
CONTINUOUS
 10
303.571386648
 20
33.4757443543
 11
303.8722831569
 21
33.2282371541
  0
LINE
  5
44D
100
AcDbEntity
  8
0
100
AcDbLine
 62
7
  6
CONTINUOUS
 10
302.845935857
 20
34.3689526004
 11
302.8071095044
 21
34.4008898314
  0
LINE
  5
44E
100
AcDbEntity
  8
0
100
AcDbLine
 62
7
  6
CONTINUOUS
 10
303.390848768
 20
34.4265876905
 11
303.0899522169
 21
34.6740949122
  0
LINE
  5
44F
100
AcDbEntity
  8
0
100
AcDbLine
 62
7
  6
CONTINUOUS
 10
302.1872628166
 20
35.5675942119
 11
301.8863661813
 21
35.8151015149
  0
LINE
  5
450
100
AcDbEntity
  8
0
100
AcDbLine
 62
7
  6
CONTINUOUS
 10
302.8492350435
 20
35.920317794
 11
302.5483385767
 21
36.1678249959
  0
LINE
  5
451
100
AcDbEntity
  8
0
100
AcDbLine
 62
7
  6
CONTINUOUS
 10
302.8492350435
 20
36.8908892131
 11
302.5483385767
 21
37.1383962916
  0
LINE
  5
452
100
AcDbEntity
  8
0
100
AcDbLine
 62
7
  6
CONTINUOUS
 10
322.6617473698
 20
12.8012278256
 11
322.8256223843
 21
12.6629674881
  0
LINE
  5
453
100
AcDbEntity
  8
0
100
AcDbLine
 62
7
  6
CONTINUOUS
 10
322.180204218
 20
13.7243114657
 11
322.0163291012
 21
13.862571853
  0
LINE
  5
454
100
AcDbEntity
  8
0
100
AcDbLine
 62
7
  6
CONTINUOUS
 10
303.4796132004
 20
31.1271780176
 11
303.2990753203
 21
31.27999597
  0
LINE
  5
455
100
AcDbEntity
  8
0
100
AcDbLine
 62
7
  6
CONTINUOUS
 10
330.7652893374
 20
8.0711815712
 11
330.6208589996
 21
8.1934359779
  0
LINE
  5
456
100
AcDbEntity
  8
0
100
AcDbLine
 62
7
  6
CONTINUOUS
 10
302.276027249
 20
32.3544575335
 11
302.095489369
 21
32.5072754858
  0
LINE
  5
457
100
AcDbEntity
  8
0
100
AcDbLine
 62
7
  6
CONTINUOUS
 10
301.9149513203
 20
33.2208681731
 11
301.7344134403
 21
33.3736861408
  0
LINE
  5
458
100
AcDbEntity
  8
0
100
AcDbLine
 62
7
  6
CONTINUOUS
 10
316.6844562374
 20
21.672221918
 11
316.5400258997
 21
21.7944763248
  0
LINE
  5
459
100
AcDbEntity
  8
0
100
AcDbLine
 62
7
  6
CONTINUOUS
 10
321.7920229695
 20
13.5154470106
 11
321.8724208839
 21
13.4469753762
  0
LINE
  5
45A
100
AcDbEntity
  8
0
100
AcDbLine
 62
7
  6
CONTINUOUS
 10
321.8456455923
 20
13.5262836056
 11
321.7250487399
 21
13.6289910524
  0
LINE
  5
45B
100
AcDbEntity
  8
0
100
AcDbLine
 62
7
  6
CONTINUOUS
 10
322.7293835786
 20
12.7996066552
 11
322.6264509148
 21
12.8884304088
  0
LINE
  5
45C
100
AcDbEntity
  8
0
100
AcDbLine
 62
7
  6
CONTINUOUS
 10
322.1125680012
 20
13.7259326464
 11
322.215500665
 21
13.6371088928
  0
LINE
  5
45D
100
AcDbEntity
  8
0
100
AcDbLine
 62
7
  6
CONTINUOUS
 10
303.2990753203
 20
31.1505864475
 11
303.5397924937
 21
30.9396397672
  0
LINE
  5
45E
100
AcDbEntity
  8
0
100
AcDbLine
 62
7
  6
CONTINUOUS
 10
302.1556686623
 20
32.3197372296
 11
302.3963858357
 21
32.1087905513
  0
LINE
  5
45F
100
AcDbEntity
  8
0
100
AcDbLine
 62
7
  6
CONTINUOUS
 10
321.8320881542
 20
13.1665126104
 11
321.9794808848
 21
13.0329120828
  0
LINE
  5
460
100
AcDbEntity
  8
0
100
AcDbLine
 62
7
  6
CONTINUOUS
 10
321.4035085465
 20
14.0239155518
 11
321.2561158253
 21
14.1575160685
  0
LINE
  5
461
100
AcDbEntity
  8
KONSTRUKTIONSELEMENTE
100
AcDbLine
 62
7
  6
CONTINUOUS
 10
284.8082915683
 20
34.0428630082
 11
276.3937208721
 21
42.1707141607
  0
LINE
  5
462
100
AcDbEntity
  8
KONSTRUKTIONSELEMENTE
100
AcDbLine
 62
7
  6
CONTINUOUS
 10
223.6435549956
 20
93.1234617219
 11
215.2289842995
 21
101.2513128744
  0
LINE
  5
463
100
AcDbEntity
  8
KONSTRUKTIONSELEMENTE
100
AcDbLine
 62
7
  6
CONTINUOUS
 10
256.5916409513
 20
63.4214696633
 11
245.9850392335
 21
73.6666601916
  0
LINE
  5
464
100
AcDbEntity
  8
RUNDUNGEN
100
AcDbLine
 62
7
  6
CONTINUOUS
 10
340.3559840931
 20
-17.0383752672
 11
335.5909294904
 21
-12.4356859629
  0
LINE
  5
465
100
AcDbEntity
  8
KONSTRUKTIONSELEMENTE
100
AcDbLine
 62
7
  6
CONTINUOUS
 10
288.2820245213
 20
37.6391359916
 11
279.8674538252
 21
45.7669871441
  0
LINE
  5
466
100
AcDbEntity
  8
KONSTRUKTIONSELEMENTE
100
AcDbLine
 62
7
  6
CONTINUOUS
 10
227.1172879487
 20
96.7197347053
 11
219.0635076611
 21
104.4990890843
  0
LINE
  5
467
100
AcDbEntity
  8
0
100
AcDbLine
 62
7
  6
CONTINUOUS
 10
178.0265182116
 20
143.7710117992
 11
183.0731848782
 21
143.7710117992
  0
LINE
  5
468
100
AcDbEntity
  8
0
100
AcDbLine
 62
7
  6
CONTINUOUS
 10
321.9125066458
 20
13.1464561355
 11
321.8053128534
 21
13.245820859
  0
LINE
  5
469
100
AcDbEntity
  8
0
100
AcDbLine
 62
7
  6
CONTINUOUS
 10
321.3230900549
 20
14.0439720267
 11
321.4302838381
 21
13.9446073224
  0
LINE
  5
46A
100
AcDbEntity
  8
0
100
AcDbLine
 62
7
  6
CONTINUOUS
 10
307.7550780189
 20
27.0124744193
 11
307.9038316949
 21
26.8735763063
  0
LINE
  5
46B
100
AcDbEntity
  8
0
100
AcDbLine
 62
7
  6
CONTINUOUS
 10
307.8843723906
 20
27.262583619
 11
307.7356187236
 21
27.4014817213
  0
LINE
  5
46C
100
AcDbEntity
  8
0
100
AcDbLine
 62
7
  6
CONTINUOUS
 10
322.5357765129
 20
12.9193893105
 11
322.6617473698
 21
12.8012278256
  0
LINE
  5
46D
100
AcDbEntity
  8
0
100
AcDbLine
 62
7
  6
CONTINUOUS
 10
322.3061750669
 20
13.6061499911
 11
322.180204218
 21
13.7243114657
  0
LINE
  5
46E
100
AcDbEntity
  8
0
100
AcDbLine
 62
7
  6
CONTINUOUS
 10
307.7926172562
 20
27.2959060945
 11
307.9003593467
 21
27.1931209648
  0
LINE
  5
46F
100
AcDbEntity
  8
KONSTRUKTIONSELEMENTE
100
AcDbLine
 62
7
  6
CONTINUOUS
 10
259.718000609
 20
66.6581153483
 11
249.1113988912
 21
76.9033058767
  0
LINE
  5
470
100
AcDbEntity
  8
KONSTRUKTIONSELEMENTE
100
AcDbLine
 62
7
  6
CONTINUOUS
 10
234.4945540392
 20
91.1320531598
 11
245.101155757
 21
80.8868626314
  0
LINE
  5
471
100
AcDbEntity
  8
KONSTRUKTIONSELEMENTE
100
AcDbLine
 62
7
  6
CONTINUOUS
 10
265.6072524114
 20
61.0794942766
 11
276.2138541292
 21
50.8343037482
  0
LINE
  5
472
100
AcDbEntity
  8
RUNDUNGEN
100
AcDbLine
 62
7
  6
CONTINUOUS
 10
343.891517999
 20
-13.6233117577
 11
339.1264633964
 21
-9.0206224534
  0
LINE
  5
473
100
AcDbEntity
  8
RUNDUNGEN
100
AcDbLine
 62
7
  6
CONTINUOUS
 10
342.4773044366
 20
-10.5490806563
 11
346.7199451238
 21
-14.6471568676
  0
LINE
  5
474
100
AcDbEntity
  8
0
100
AcDbLine
 62
7
  6
CONTINUOUS
 10
300.0508975654
 20
30.9234376429
 11
305.0006450337
 21
26.1423487297
  0
LINE
  5
475
100
AcDbEntity
  8
0
100
AcDbLine
 62
7
  6
CONTINUOUS
 10
304.6470916432
 20
26.6132646032
 11
300.404450956
 21
30.7113408145
  0
LINE
  5
476
100
AcDbEntity
  8
0
100
AcDbLine
 62
7
  6
CONTINUOUS
 10
331.8707027188
 20
2.5172374637
 11
321.264101001
 21
12.7624279921
  0
LINE
  5
477
100
AcDbEntity
  8
0
100
AcDbLine
 62
7
  6
CONTINUOUS
 10
318.0821204857
 20
15.8359851506
 11
306.7684119867
 21
26.7641883809
  0
LINE
  5
478
100
AcDbEntity
  8
0
100
AcDbLine
 62
7
  6
CONTINUOUS
 10
327.3452193192
 20
6.9920463739
 11
322.2540504947
 21
11.9097378275
  0
LINE
  5
479
100
AcDbEntity
  8
0
100
AcDbLine
 62
7
  6
CONTINUOUS
 10
321.9712077822
 20
12.1829429082
 11
321.264101001
 21
12.8659556101
  0
LINE
  5
47A
100
AcDbEntity
  8
0
100
AcDbLine
 62
7
  6
CONTINUOUS
 10
331.5171493282
 20
2.9881533372
 11
327.9816154223
 21
6.4032168467
  0
LINE
  5
47B
100
AcDbEntity
  8
0
100
AcDbLine
 62
7
  6
CONTINUOUS
 10
317.7285670951
 20
16.3069010241
 11
314.1930331892
 21
19.7219645336
  0
LINE
  5
47C
100
AcDbEntity
  8
0
100
AcDbLine
 62
7
  6
CONTINUOUS
 10
313.485926408
 20
20.4049772355
 11
307.8290721585
 21
25.8690788506
  0
LINE
  5
47D
100
AcDbEntity
  8
0
100
AcDbLine
 62
7
  6
CONTINUOUS
 10
307.4755187679
 20
26.2105852015
 11
306.7684119867
 21
26.8935979034
  0
LINE
  5
47E
100
AcDbEntity
  8
0
100
AcDbLine
 62
7
  6
CONTINUOUS
 10
304.7178023213
 20
28.9749721902
 11
304.6470916432
 21
29.0432734604
  0
LINE
  5
47F
100
AcDbEntity
  8
0
100
AcDbLine
 62
7
  6
CONTINUOUS
 10
300.1862741404
 20
33.3520922926
 11
300.0508975654
 21
33.4828560227
  0
LINE
  5
480
100
AcDbEntity
  8
0
100
AcDbLine
 62
7
  6
CONTINUOUS
 10
300.404450956
 20
33.5583503107
 11
304.6470916432
 21
29.4602740993
  0
LINE
  5
481
100
AcDbEntity
  8
0
100
AcDbLine
 62
7
  6
CONTINUOUS
 10
305.0006450337
 20
29.2481772709
 11
300.0508975654
 21
34.0292661842
  0
LINE
  5
482
100
AcDbEntity
  8
KONSTRUKTIONSELEMENTE
100
AcDbLine
 62
7
  6
CONTINUOUS
 10
237.6209136969
 20
94.3686988449
 11
248.2275154147
 21
84.1235083165
  0
LINE
  5
483
100
AcDbEntity
  8
KONSTRUKTIONSELEMENTE
100
AcDbLine
 62
7
  6
CONTINUOUS
 10
268.7336120691
 20
64.3161399616
 11
279.3402137869
 21
54.0709494332
  0
LINE
  5
484
100
AcDbEntity
  8
0
100
AcDbLine
 62
7
  6
CONTINUOUS
 10
301.9149513203
 20
32.5522523271
 11
302.1556686623
 21
32.3197372296
  0
LINE
  5
485
100
AcDbEntity
  8
RUNDUNGEN
100
AcDbLine
 62
7
  6
CONTINUOUS
 10
343.1844112178
 20
-7.2435842918
 11
338.9417705307
 21
-3.1455080805
  0
LINE
  5
486
100
AcDbEntity
  8
0
100
AcDbLine
 62
7
  6
CONTINUOUS
 10
302.095489369
 20
32.5072754858
 11
301.9751307823
 21
32.6235329532
  0
LINE
  5
487
100
AcDbEntity
  8
0
100
AcDbLine
 62
7
  6
CONTINUOUS
 10
303.1787167336
 20
31.9354597607
 11
303.3592546137
 21
31.7610735597
  0
LINE
  5
488
100
AcDbEntity
  8
0
100
AcDbLine
 62
7
  6
CONTINUOUS
 10
303.419433907
 20
31.8323543486
 11
303.1185374403
 21
32.1229980169
  0
LINE
  5
489
100
AcDbEntity
  8
0
100
AcDbLine
 62
7
  6
CONTINUOUS
 10
303.390848768
 20
33.6501305552
 11
303.571386648
 21
33.4757443543
  0
LINE
  5
48A
100
AcDbEntity
  8
0
100
AcDbLine
 62
7
  6
CONTINUOUS
 10
302.1872628166
 20
34.8342735642
 11
302.3678006967
 21
34.6598873632
  0
LINE
  5
48B
100
AcDbEntity
  8
0
100
AcDbLine
 62
7
  6
CONTINUOUS
 10
303.571386648
 20
33.5835856205
 11
303.390848768
 21
33.7579718214
  0
LINE
  5
48C
100
AcDbEntity
  8
0
100
AcDbLine
 62
7
  6
CONTINUOUS
 10
302.3076214033
 20
34.825857365
 11
302.1872628166
 21
34.9421148323
  0
LINE
  5
48D
100
AcDbEntity
  8
KONSTRUKTIONSELEMENTE
100
AcDbLine
 62
7
  6
CONTINUOUS
 10
279.1342165715
 20
57.2463464824
 11
269.7337458552
 21
66.3265039266
  0
LINE
  5
48E
100
AcDbEntity
  8
KONSTRUKTIONSELEMENTE
100
AcDbLine
 62
7
  6
CONTINUOUS
 10
248.2275154147
 20
87.0999273352
 11
239.0798308164
 21
95.9359121394
  0
LINE
  5
48F
100
AcDbEntity
  8
KONSTRUKTIONSELEMENTE
100
AcDbLine
 62
7
  6
CONTINUOUS
 10
254.1167672171
 20
81.5213062634
 11
264.7233689349
 21
71.276115735
  0
LINE
  5
490
100
AcDbEntity
  8
0
100
AcDbLine
 62
7
  6
CONTINUOUS
 10
315.4808702692
 20
22.593232255
 11
315.673444008
 21
22.4072203073
  0
LINE
  5
491
100
AcDbEntity
  8
0
100
AcDbLine
 62
7
  6
CONTINUOUS
 10
329.5617033692
 20
8.9921919081
 11
329.7542771079
 21
8.8061799604
  0
LINE
  5
492
100
AcDbEntity
  8
0
100
AcDbLine
 62
7
  6
CONTINUOUS
 10
302.1872628166
 20
35.4597529225
 11
302.3076214033
 21
35.3434954552
  0
LINE
  5
493
100
AcDbEntity
  8
0
100
AcDbLine
 62
7
  6
CONTINUOUS
 10
303.390848768
 20
34.3187464012
 11
303.571386648
 21
34.1443602002
  0
LINE
  5
494
100
AcDbEntity
  8
0
100
AcDbLine
 62
7
  6
CONTINUOUS
 10
302.3678006967
 20
35.3932080109
 11
302.1872628166
 21
35.5675942119
  0
LINE
  5
495
100
AcDbEntity
  8
0
100
AcDbLine
 62
7
  6
CONTINUOUS
 10
315.0957226569
 20
23.1032931089
 11
315.4808702692
 21
22.7312690832
  0
LINE
  5
496
100
AcDbEntity
  8
0
100
AcDbLine
 62
7
  6
CONTINUOUS
 10
315.673444008
 20
22.5452571355
 11
316.6363128027
 21
21.6151972993
  0
LINE
  5
497
100
AcDbEntity
  8
0
100
AcDbLine
 62
7
  6
CONTINUOUS
 10
329.1765557568
 20
9.502252762
 11
329.5617033692
 21
9.1302287363
  0
LINE
  5
498
100
AcDbEntity
  8
0
100
AcDbLine
 62
7
  6
CONTINUOUS
 10
329.7542771079
 20
8.9442167886
 11
330.7171459027
 21
8.0141569524
  0
LINE
  5
499
100
AcDbEntity
  8
0
100
AcDbLine
 62
7
  6
CONTINUOUS
 10
303.571386648
 20
34.2522014896
 11
303.390848768
 21
34.4265876905
  0
LINE
  5
49A
100
AcDbEntity
  8
0
100
AcDbLine
 62
7
  6
CONTINUOUS
 10
330.6208589996
 20
8.1934359779
 11
329.7542771079
 21
9.0304898077
  0
LINE
  5
49B
100
AcDbEntity
  8
0
100
AcDbLine
 62
7
  6
CONTINUOUS
 10
329.5617033692
 20
9.2165017555
 11
329.1765557568
 21
9.5885257811
  0
LINE
  5
49C
100
AcDbEntity
  8
0
100
AcDbLine
 62
7
  6
CONTINUOUS
 10
316.5400258997
 20
21.7944763248
 11
315.673444008
 21
22.6315301546
  0
LINE
  5
49D
100
AcDbEntity
  8
0
100
AcDbLine
 62
7
  6
CONTINUOUS
 10
315.4808702692
 20
22.8175421023
 11
315.0957226569
 21
23.189566128
  0
LINE
  5
49E
100
AcDbEntity
  8
0
100
AcDbLine
 62
7
  6
CONTINUOUS
 10
302.3678006967
 20
35.5873222948
 11
304.2935382526
 21
33.7272026549
  0
LINE
  5
49F
100
AcDbEntity
  8
0
100
AcDbLine
 62
7
  6
CONTINUOUS
 10
331.1022934139
 20
7.8836974706
 11
330.9097196583
 21
8.0697094346
  0
LINE
  5
4A0
100
AcDbEntity
  8
0
100
AcDbLine
 62
7
  6
CONTINUOUS
 10
317.0214603139
 20
21.4847378175
 11
316.8288865583
 21
21.6707497815
  0
LINE
  5
4A1
100
AcDbEntity
  8
0
100
AcDbLine
 62
7
  6
CONTINUOUS
 10
331.5878600064
 20
7.420413285
 11
331.5171493282
 21
7.4887145552
  0
LINE
  5
4A2
100
AcDbEntity
  8
0
100
AcDbLine
 62
7
  6
CONTINUOUS
 10
327.7634386067
 20
11.1145206856
 11
327.6280620317
 21
11.2452844156
  0
LINE
  5
4A3
100
AcDbEntity
  8
0
100
AcDbLine
 62
7
  6
CONTINUOUS
 10
327.5826783973
 20
11.2891216402
 11
327.3452193192
 21
11.5184894964
  0
LINE
  5
4A4
100
AcDbEntity
  8
0
100
AcDbLine
 62
7
  6
CONTINUOUS
 10
317.7992777732
 20
20.7391609719
 11
317.7285670951
 21
20.8074622421
  0
LINE
  5
4A5
100
AcDbEntity
  8
0
100
AcDbLine
 62
7
  6
CONTINUOUS
 10
313.9748563736
 20
24.4332683725
 11
313.8394797986
 21
24.5640321025
  0
LINE
  5
4A6
100
AcDbEntity
  8
0
100
AcDbLine
 62
7
  6
CONTINUOUS
 10
329.7542771079
 20
9.2202904326
 11
329.5617033692
 21
9.4063023803
  0
LINE
  5
4A7
100
AcDbEntity
  8
0
100
AcDbLine
 62
7
  6
CONTINUOUS
 10
315.673444008
 20
22.8213307795
 11
315.4808702692
 21
23.0073427272
  0
LINE
  5
4A8
100
AcDbEntity
  8
0
100
AcDbLine
 62
7
  6
CONTINUOUS
 10
304.2935382526
 20
33.8350439443
 11
302.7890557502
 21
35.2882624485
  0
LINE
  5
4A9
100
AcDbEntity
  8
0
100
AcDbLine
 62
7
  6
CONTINUOUS
 10
302.5483385767
 20
35.5207773832
 11
302.3678006967
 21
35.6951635841
  0
LINE
  5
4AA
100
AcDbEntity
  8
0
100
AcDbLine
 62
7
  6
CONTINUOUS
 10
302.8492350435
 20
35.4673844651
 11
304.2935382526
 21
34.0722946945
  0
LINE
  5
4AB
100
AcDbEntity
  8
0
100
AcDbLine
 62
7
  6
CONTINUOUS
 10
304.2935382526
 20
34.1801359221
 11
302.8492350435
 21
35.5752256927
  0
LINE
  5
4AC
100
AcDbEntity
  8
0
100
AcDbLine
 62
7
  6
CONTINUOUS
 10
314.1930331892
 20
24.6395263905
 11
317.7285670951
 21
21.2244628811
  0
LINE
  5
4AD
100
AcDbEntity
  8
0
100
AcDbLine
 62
7
  6
CONTINUOUS
 10
327.9816154223
 20
11.3207787036
 11
331.5171493282
 21
7.9057151942
  0
LINE
  5
4AE
100
AcDbEntity
  8
0
100
AcDbLine
 62
7
  6
CONTINUOUS
 10
331.8707027188
 20
7.6936183658
 11
327.6280620317
 21
11.7916945771
  0
LINE
  5
4AF
100
AcDbEntity
  8
0
100
AcDbLine
 62
7
  6
CONTINUOUS
 10
318.0821204857
 20
21.0123660527
 11
313.8394797986
 21
25.110442264
  0
LINE
  5
4B0
100
AcDbEntity
  8
0
100
AcDbLine
 62
7
  6
CONTINUOUS
 10
302.8492350435
 20
35.8124765663
 11
304.2935382526
 21
34.4173867957
  0
LINE
  5
4B1
100
AcDbEntity
  8
KONSTRUKTIONSELEMENTE
100
AcDbLine
 62
7
  6
CONTINUOUS
 10
225.1991899142
 20
110.8817919711
 11
229.229698567
 21
106.9886195703
  0
LINE
  5
4B2
100
AcDbEntity
  8
KONSTRUKTIONSELEMENTE
100
AcDbLine
 62
7
  6
CONTINUOUS
 10
229.5832519576
 20
106.6471132193
 11
233.6137606104
 21
102.7539408186
  0
LINE
  5
4B3
100
AcDbEntity
  8
KONSTRUKTIONSELEMENTE
100
AcDbLine
 62
7
  6
CONTINUOUS
 10
286.3639264869
 20
51.8011932574
 11
290.3944351396
 21
47.9080208566
  0
LINE
  5
4B4
100
AcDbEntity
  8
KONSTRUKTIONSELEMENTE
100
AcDbLine
 62
7
  6
CONTINUOUS
 10
290.7479885302
 20
47.5665145057
 11
294.778497183
 21
43.6733421049
  0
LINE
  5
4B5
100
AcDbEntity
  8
0
100
AcDbLine
 62
7
  6
CONTINUOUS
 10
304.2935382526
 20
34.5252280234
 11
302.8492350435
 21
35.920317794
  0
LINE
  5
4B6
100
AcDbEntity
  8
0
100
AcDbLine
 62
7
  6
CONTINUOUS
 10
302.3678006967
 20
36.5578936522
 11
304.2935382526
 21
34.6977740123
  0
LINE
  5
4B7
100
AcDbEntity
  8
0
100
AcDbLine
 62
7
  6
CONTINUOUS
 10
304.2935382526
 20
34.8056153634
 11
302.7890557502
 21
36.2588338677
  0
LINE
  5
4B8
100
AcDbEntity
  8
0
100
AcDbLine
 62
7
  6
CONTINUOUS
 10
302.5483385767
 20
36.4913488023
 11
302.3678006967
 21
36.6657350033
  0
LINE
  5
4B9
100
AcDbEntity
  8
0
100
AcDbLine
 62
7
  6
CONTINUOUS
 10
302.8492350435
 20
36.4379558842
 11
304.2935382526
 21
35.0428661136
  0
LINE
  5
4BA
100
AcDbEntity
  8
0
100
AcDbLine
 62
7
  6
CONTINUOUS
 10
304.2935382526
 20
35.1507074647
 11
302.8492350435
 21
36.5457972353
  0
LINE
  5
4BB
100
AcDbEntity
  8
0
100
AcDbLine
 62
7
  6
CONTINUOUS
 10
302.8492350435
 20
36.7830478621
 11
304.2935382526
 21
35.3879580915
  0
LINE
  5
4BC
100
AcDbEntity
  8
0
100
AcDbLine
 62
7
  6
CONTINUOUS
 10
304.2935382526
 20
35.4957994425
 11
302.8492350435
 21
36.8908892131
  0
LINE
  5
4BD
100
AcDbEntity
  8
RUNDUNGEN
100
AcDbLine
 62
7
  6
CONTINUOUS
 10
346.7199451238
 20
-3.8285207824
 11
342.4773044366
 21
0.269555429
  0
LINE
  5
4BE
100
AcDbEntity
  8
RUNDUNGEN
100
AcDbLine
 62
7
  6
CONTINUOUS
 10
339.1264633964
 20
5.2144250272
 11
343.891517999
 21
0.6117357229
  0
LINE
  5
4BF
100
AcDbEntity
  8
KONSTRUKTIONSELEMENTE
100
AcDbLine
 62
7
  6
CONTINUOUS
 10
257.2431268749
 20
84.7579519484
 11
267.8497285926
 21
74.5127614201
  0
LINE
  5
4C0
100
AcDbEntity
  8
KONSTRUKTIONSELEMENTE
100
AcDbLine
 62
7
  6
CONTINUOUS
 10
228.6729228673
 20
114.4780649545
 11
232.70343152
 21
110.5848925537
  0
LINE
  5
4C1
100
AcDbEntity
  8
KONSTRUKTIONSELEMENTE
100
AcDbLine
 62
7
  6
CONTINUOUS
 10
233.0569849106
 20
110.2433862027
 11
237.0874935634
 21
106.3502138019
  0
LINE
  5
4C2
100
AcDbEntity
  8
KONSTRUKTIONSELEMENTE
100
AcDbLine
 62
7
  6
CONTINUOUS
 10
289.8376594399
 20
55.3974662408
 11
293.8681680927
 21
51.50429384
  0
LINE
  5
4C3
100
AcDbEntity
  8
KONSTRUKTIONSELEMENTE
100
AcDbLine
 62
7
  6
CONTINUOUS
 10
294.2217214833
 20
51.162787489
 11
298.252230136
 21
47.2696150883
  0
LINE
  5
4C4
100
AcDbEntity
  8
0
100
AcDbLine
 62
7
  6
CONTINUOUS
 10
307.6216168854
 20
27.1458187865
 11
307.7550780189
 21
27.0124744193
  0
LINE
  5
4C5
100
AcDbEntity
  8
0
100
AcDbLine
 62
7
  6
CONTINUOUS
 10
307.8468331532
 20
26.9791519438
 11
307.7133720198
 21
27.112496311
  0
LINE
  5
4C6
100
AcDbEntity
  8
0
100
AcDbLine
 62
7
  6
CONTINUOUS
 10
321.6713026277
 20
13.3276634726
 11
321.8320881542
 21
13.1665126104
  0
LINE
  5
4C7
100
AcDbEntity
  8
0
100
AcDbLine
 62
7
  6
CONTINUOUS
 10
322.0064311132
 20
13.3651327617
 11
321.8456455923
 21
13.5262836056
  0
LINE
  5
4C8
100
AcDbEntity
  8
0
100
AcDbLine
 62
7
  6
CONTINUOUS
 10
322.6264509148
 20
12.8884304088
 11
322.4124133605
 21
13.1046545235
  0
LINE
  5
4C9
100
AcDbEntity
  8
0
100
AcDbLine
 62
7
  6
CONTINUOUS
 10
322.215500665
 20
13.6371088928
 11
322.4295381593
 21
13.4208847739
  0
LINE
  5
4CA
100
AcDbEntity
  8
0
100
AcDbLine
 62
7
  6
CONTINUOUS
 10
321.8053128534
 20
13.245820859
 11
321.7115221681
 21
13.3418428135
  0
LINE
  5
4CB
100
AcDbEntity
  8
0
100
AcDbLine
 62
7
  6
CONTINUOUS
 10
321.8724208839
 20
13.4469753762
 11
321.9662115971
 21
13.3509533808
  0
LINE
  5
4CC
100
AcDbEntity
  8
0
100
AcDbLine
 62
7
  6
CONTINUOUS
 10
321.4972992222
 20
13.9278935997
 11
321.4035085465
 21
14.0239155518
  0
LINE
  5
4CD
100
AcDbEntity
  8
0
100
AcDbLine
 62
7
  6
CONTINUOUS
 10
308.043552567
 20
27.0986800142
 11
307.8843723906
 21
27.262583619
  0
LINE
  5
4CE
100
AcDbEntity
  8
0
100
AcDbLine
 62
7
  6
CONTINUOUS
 10
307.9032667278
 20
27.8128199591
 11
307.9983939815
 21
27.714102801
  0
LINE
  5
4CF
100
AcDbEntity
  8
0
100
AcDbLine
 62
7
  6
CONTINUOUS
 10
307.9003593467
 20
27.1931209648
 11
307.9928090091
 21
27.0958895171
  0
LINE
  5
4D0
100
AcDbEntity
  8
0
100
AcDbLine
 62
7
  6
CONTINUOUS
 10
301.6742341469
 20
32.8063355181
 11
301.9149513203
 21
32.5522523271
  0
LINE
  5
4D1
100
AcDbEntity
  8
0
100
AcDbLine
 62
7
  6
CONTINUOUS
 10
322.4057195425
 20
13.0568390992
 11
322.5357765129
 21
12.9193893105
  0
LINE
  5
4D2
100
AcDbEntity
  8
0
100
AcDbLine
 62
7
  6
CONTINUOUS
 10
322.4362319669
 20
13.4687002517
 11
322.3061750669
 21
13.6061499911
  0
LINE
  5
4D3
100
AcDbEntity
  8
0
100
AcDbLine
 62
7
  6
CONTINUOUS
 10
301.9751307823
 20
32.6235329532
 11
301.7945927336
 21
32.8194875656
  0
LINE
  5
4D4
100
AcDbEntity
  8
0
100
AcDbLine
 62
7
  6
CONTINUOUS
 10
306.8753054878
 20
27.3815870808
 11
307.0463142954
 21
27.1952202294
  0
LINE
  5
4D5
100
AcDbEntity
  8
0
100
AcDbLine
 62
7
  6
CONTINUOUS
 10
306.5604686913
 20
27.9979401015
 11
307.1019965353
 21
27.4077784562
  0
LINE
  5
4D6
100
AcDbEntity
  8
0
100
AcDbLine
 62
7
  6
CONTINUOUS
 10
307.2730053429
 20
27.2214116047
 11
307.6720258406
 21
26.7865556761
  0
LINE
  5
4D7
100
AcDbEntity
  8
0
100
AcDbLine
 62
7
  6
CONTINUOUS
 10
307.7286986025
 20
26.79310352
 11
307.3296781048
 21
27.2279594486
  0
LINE
  5
4D8
100
AcDbEntity
  8
0
100
AcDbLine
 62
7
  6
CONTINUOUS
 10
307.1586692972
 20
27.4143263
 11
306.389129763
 21
28.2529770226
  0
LINE
  5
4D9
100
AcDbEntity
  8
0
100
AcDbLine
 62
7
  6
CONTINUOUS
 10
307.4241326989
 20
27.2388725206
 11
307.2531238913
 21
27.425239372
  0
LINE
  5
4DA
100
AcDbEntity
  8
0
100
AcDbLine
 62
7
  6
CONTINUOUS
 10
321.4703284259
 20
13.5472577505
 11
321.6713026277
 21
13.3276634726
  0
LINE
  5
4DB
100
AcDbEntity
  8
RUNDUNGEN
100
AcDbLine
 62
7
  6
CONTINUOUS
 10
192.5165298747
 20
94.3140641072
 11
189.5165298747
 21
99.3331619297
  0
LINE
  5
4DC
100
AcDbEntity
  8
0
100
AcDbLine
 62
7
  6
CONTINUOUS
 10
323.0555461364
 20
13.337797623
 11
323.1928006679
 21
13.1856365205
  0
LINE
  5
4DD
100
AcDbEntity
  8
0
100
AcDbLine
 62
7
  6
CONTINUOUS
 10
323.2186638004
 20
13.2680796028
 11
323.08140918
 21
13.4202408436
  0
LINE
  5
4DE
100
AcDbEntity
  8
0
100
AcDbLine
 62
7
  6
CONTINUOUS
 10
301.8863661813
 20
35.1680539022
 11
302.1872628166
 21
34.8342735642
  0
LINE
  5
4DF
100
AcDbEntity
  8
0
100
AcDbLine
 62
7
  6
CONTINUOUS
 10
303.0899522169
 20
33.9839108137
 11
303.390848768
 21
33.6501305552
  0
LINE
  5
4E0
100
AcDbEntity
  8
0
100
AcDbLine
 62
7
  6
CONTINUOUS
 10
303.8722831569
 20
33.9184212525
 11
303.571386648
 21
34.2522014896
  0
LINE
  5
4E1
100
AcDbEntity
  8
0
100
AcDbLine
 62
7
  6
CONTINUOUS
 10
322.3176529074
 20
13.15490169
 11
322.4057195425
 21
13.0568390992
  0
LINE
  5
4E2
100
AcDbEntity
  8
0
100
AcDbLine
 62
7
  6
CONTINUOUS
 10
322.5242987208
 20
13.37063755
 11
322.4362319669
 21
13.4687002517
  0
LINE
  5
4E3
100
AcDbEntity
  8
0
100
AcDbLine
 62
7
  6
CONTINUOUS
 10
303.6601511226
 20
31.5567029069
 11
303.419433907
 21
31.8323543486
  0
LINE
  5
4E4
100
AcDbEntity
  8
0
100
AcDbLine
 62
7
  6
CONTINUOUS
 10
302.6085178701
 20
35.1175565482
 11
302.3678006967
 21
35.3932080109
  0
LINE
  5
4E5
100
AcDbEntity
  8
0
100
AcDbLine
 62
7
  6
CONTINUOUS
 10
302.8492350435
 20
35.5752256927
 11
302.7288764568
 21
35.7130514549
  0
LINE
  5
4E6
100
AcDbEntity
  8
0
100
AcDbLine
 62
7
  6
CONTINUOUS
 10
302.8492350435
 20
36.5457972353
 11
302.7288764568
 21
36.6836228741
  0
LINE
  5
4E7
100
AcDbEntity
  8
0
100
AcDbLine
 62
7
  6
CONTINUOUS
 10
321.282757344
 20
13.7635092392
 11
321.4703284259
 21
13.5472577505
  0
LINE
  5
4E8
100
AcDbEntity
  8
0
100
AcDbLine
 62
7
  6
CONTINUOUS
 10
321.4033644898
 20
13.6850093709
 11
321.3497727521
 21
13.7467955106
  0
LINE
  5
4E9
100
AcDbEntity
  8
0
100
AcDbLine
 62
7
  6
CONTINUOUS
 10
321.7115221681
 20
13.3418428135
 11
321.6311345616
 21
13.4345220229
  0
LINE
  5
4EA
100
AcDbEntity
  8
0
100
AcDbLine
 62
7
  6
CONTINUOUS
 10
321.9662115971
 20
13.3509533808
 11
322.0465992036
 21
13.2582741714
  0
LINE
  5
4EB
100
AcDbEntity
  8
0
100
AcDbLine
 62
7
  6
CONTINUOUS
 10
322.1404104949
 20
13.2106673693
 11
322.0064311132
 21
13.3651327617
  0
LINE
  5
4EC
100
AcDbEntity
  8
0
100
AcDbLine
 62
7
  6
CONTINUOUS
 10
322.1835098698
 20
13.311639764
 11
322.3176529074
 21
13.15490169
  0
LINE
  5
4ED
100
AcDbEntity
  8
0
100
AcDbLine
 62
7
  6
CONTINUOUS
 10
322.6584416719
 20
13.2138995458
 11
322.5242987208
 21
13.37063755
  0
LINE
  5
4EE
100
AcDbEntity
  8
0
100
AcDbLine
 62
7
  6
CONTINUOUS
 10
322.4124133605
 20
13.1046545235
 11
322.255232192
 21
13.2907302898
  0
LINE
  5
4EF
100
AcDbEntity
  8
0
100
AcDbLine
 62
7
  6
CONTINUOUS
 10
322.4295381593
 20
13.4208847739
 11
322.586719404
 21
13.2348089912
  0
LINE
  5
4F0
100
AcDbEntity
  8
0
100
AcDbLine
 62
7
  6
CONTINUOUS
 10
306.7214509041
 20
28.2153914801
 11
307.3901456249
 21
27.4208517747
  0
LINE
  5
4F1
100
AcDbEntity
  8
0
100
AcDbLine
 62
7
  6
CONTINUOUS
 10
307.3380130829
 20
27.5458791364
 11
306.9265086117
 21
28.0348266803
  0
LINE
  5
4F2
100
AcDbEntity
  8
0
100
AcDbLine
 62
7
  6
CONTINUOUS
 10
307.9928090091
 20
27.0958895171
 11
308.044247059
 21
27.0347710848
  0
LINE
  5
4F3
100
AcDbEntity
  8
0
100
AcDbLine
 62
7
  6
CONTINUOUS
 10
307.3699918195
 20
27.8737680275
 11
307.2413966948
 21
28.0265641083
  0
LINE
  5
4F4
100
AcDbEntity
  8
0
100
AcDbLine
 62
7
  6
CONTINUOUS
 10
308.1464286668
 20
26.9764431496
 11
308.043552567
 21
27.0986800142
  0
LINE
  5
4F5
100
AcDbEntity
  8
0
100
AcDbLine
 62
7
  6
CONTINUOUS
 10
303.3592546137
 20
31.7610735597
 11
303.5397924937
 21
31.5435508924
  0
LINE
  5
4F6
100
AcDbEntity
  8
0
100
AcDbLine
 62
7
  6
CONTINUOUS
 10
302.1872628166
 20
34.9421148323
 11
302.006724768
 21
35.1596377088
  0
LINE
  5
4F7
100
AcDbEntity
  8
0
100
AcDbLine
 62
7
  6
CONTINUOUS
 10
302.3076214033
 20
35.3434954552
 11
302.4881592834
 21
35.1259727262
  0
LINE
  5
4F8
100
AcDbEntity
  8
RUNDUNGEN
100
AcDbLine
 62
7
  6
CONTINUOUS
 10
333.9686103398
 20
-10.6814184159
 11
321.6575503573
 21
4.3654000614
  0
LINE
  5
4F9
100
AcDbEntity
  8
RUNDUNGEN
100
AcDbLine
 62
7
  6
CONTINUOUS
 10
290.5962189925
 20
42.3291672249
 11
288.9888993516
 21
44.2936647505
  0
LINE
  5
4FA
100
AcDbEntity
  8
RUNDUNGEN
100
AcDbLine
 62
7
  6
CONTINUOUS
 10
337.5041442457
 20
-7.2663549064
 11
325.1930842633
 21
7.7804635709
  0
LINE
  5
4FB
100
AcDbEntity
  8
RUNDUNGEN
100
AcDbLine
 62
7
  6
CONTINUOUS
 10
303.2999968038
 20
39.5939789951
 11
315.4591693591
 21
24.7328003041
  0
LINE
  5
4FC
100
AcDbEntity
  8
RUNDUNGEN
100
AcDbLine
 62
7
  6
CONTINUOUS
 10
334.3246675465
 20
1.6750191614
 11
338.4427693378
 21
-3.3582054524
  0
LINE
  5
4FD
100
AcDbEntity
  8
0
100
AcDbLine
 62
7
  6
CONTINUOUS
 10
321.1085893444
 20
13.976417982
 11
321.282757344
 21
13.7635092392
  0
LINE
  5
4FE
100
AcDbEntity
  8
0
100
AcDbLine
 62
7
  6
CONTINUOUS
 10
303.390848768
 20
33.7579718214
 11
303.1501315103
 21
34.0551916065
  0
LINE
  5
4FF
100
AcDbEntity
  8
0
100
AcDbLine
 62
7
  6
CONTINUOUS
 10
303.571386648
 20
34.1443602002
 11
303.8121038636
 21
33.8471404636
  0
LINE
  5
500
100
AcDbEntity
  8
0
100
AcDbLine
 62
7
  6
CONTINUOUS
 10
321.3497727521
 20
13.7467955106
 11
321.2024006225
 21
13.9288111832
  0
LINE
  5
501
100
AcDbEntity
  8
0
100
AcDbLine
 62
7
  6
CONTINUOUS
 10
321.9761662038
 20
13.5756792537
 11
322.1835098698
 21
13.311639764
  0
LINE
  5
502
100
AcDbEntity
  8
0
100
AcDbLine
 62
7
  6
CONTINUOUS
 10
322.255232192
 20
13.2907302898
 11
322.0939648962
 21
13.4960943374
  0
LINE
  5
503
100
AcDbEntity
  8
0
100
AcDbLine
 62
7
  6
CONTINUOUS
 10
322.586719404
 20
13.2348089912
 11
322.7479866998
 21
13.0294449436
  0
LINE
  5
504
100
AcDbEntity
  8
0
100
AcDbLine
 62
7
  6
CONTINUOUS
 10
322.865785338
 20
12.949860056
 11
322.6584416719
 21
13.2138995458
  0
LINE
  5
505
100
AcDbEntity
  8
0
100
AcDbLine
 62
7
  6
CONTINUOUS
 10
301.4335169735
 20
33.1251234703
 11
301.6742341469
 21
32.8063355181
  0
LINE
  5
506
100
AcDbEntity
  8
0
100
AcDbLine
 62
7
  6
CONTINUOUS
 10
303.9008683171
 20
31.2379148958
 11
303.6601511226
 21
31.5567029069
  0
LINE
  5
507
100
AcDbEntity
  8
0
100
AcDbLine
 62
7
  6
CONTINUOUS
 10
301.7058283012
 20
35.4071448644
 11
301.8863661813
 21
35.1680539022
  0
LINE
  5
508
100
AcDbEntity
  8
RUNDUNGEN
100
AcDbLine
 62
7
  6
CONTINUOUS
 10
289.1992005558
 20
30.2727795033
 11
286.2790260845
 21
34.6199389216
  0
LINE
  5
509
100
AcDbEntity
  8
KONSTRUKTIONSELEMENTE
100
AcDbLine
 62
7
  6
CONTINUOUS
 10
183.0731831139
 20
143.7710151074
 11
186.0645574273
 21
138.1621882698
  0
LINE
  5
50A
100
AcDbEntity
  8
0
100
AcDbLine
 62
7
  6
CONTINUOUS
 10
142.5498515449
 20
147.8550826102
 11
142.5498515449
 21
191.3217447932
  0
LINE
  5
50B
100
AcDbEntity
  8
0
100
AcDbLine
 62
7
  6
CONTINUOUS
 10
160.5498515449
 20
147.8550826102
 11
160.5498515449
 21
191.3217447932
  0
LINE
  5
50C
100
AcDbEntity
  8
0
100
AcDbLine
 62
7
  6
CONTINUOUS
 10
302.7890557502
 20
34.878465586
 11
302.6085178701
 21
35.1175565482
  0
LINE
  5
50D
100
AcDbEntity
  8
0
100
AcDbLine
 62
7
  6
CONTINUOUS
 10
302.42797999
 20
35.6801713168
 11
302.5483385767
 21
35.5207773832
  0
LINE
  5
50E
100
AcDbEntity
  8
0
100
AcDbLine
 62
7
  6
CONTINUOUS
 10
302.7890557502
 20
35.2882624485
 11
302.6686971635
 21
35.4476563822
  0
LINE
  5
50F
100
AcDbEntity
  8
0
100
AcDbLine
 62
7
  6
CONTINUOUS
 10
304.0528210581
 20
33.6793302699
 11
303.8722831569
 21
33.9184212525
  0
LINE
  5
510
100
AcDbEntity
  8
0
100
AcDbLine
 62
7
  6
CONTINUOUS
 10
302.42797999
 20
36.0252634181
 11
302.6085178701
 21
35.7861724559
  0
LINE
  5
511
100
AcDbEntity
  8
0
100
AcDbLine
 62
7
  6
CONTINUOUS
 10
302.7288764568
 20
35.7130514549
 11
302.6686971635
 21
35.7927484835
  0
LINE
  5
512
100
AcDbEntity
  8
0
100
AcDbLine
 62
7
  6
CONTINUOUS
 10
302.42797999
 20
36.650742736
 11
302.5483385767
 21
36.4913488023
  0
LINE
  5
513
100
AcDbEntity
  8
0
100
AcDbLine
 62
7
  6
CONTINUOUS
 10
302.7890557502
 20
36.2588338677
 11
302.6686971635
 21
36.4182278014
  0
LINE
  5
514
100
AcDbEntity
  8
0
100
AcDbLine
 62
7
  6
CONTINUOUS
 10
302.42797999
 20
36.9958347138
 11
302.6085178701
 21
36.7567437516
  0
LINE
  5
515
100
AcDbEntity
  8
0
100
AcDbLine
 62
7
  6
CONTINUOUS
 10
302.7288764568
 20
36.6836228741
 11
302.6686971635
 21
36.7633197792
  0
LINE
  5
516
100
AcDbEntity
  8
0
100
AcDbLine
 62
7
  6
CONTINUOUS
 10
306.7684119867
 20
29.3523788319
 11
307.8176298624
 21
27.9548717918
  0
LINE
  5
517
100
AcDbEntity
  8
0
100
AcDbLine
 62
7
  6
CONTINUOUS
 10
307.9983939815
 20
27.714102801
 11
309.235926408
 21
26.0657699633
  0
LINE
  5
518
100
AcDbEntity
  8
0
100
AcDbLine
 62
7
  6
CONTINUOUS
 10
309.485926408
 20
25.7327821558
 11
313.485926408
 21
20.4049772355
  0
LINE
  5
519
100
AcDbEntity
  8
0
100
AcDbLine
 62
7
  6
CONTINUOUS
 10
313.8394797986
 20
20.3000867658
 11
307.7684119867
 21
28.3864530056
  0
LINE
  5
51A
100
AcDbEntity
  8
0
100
AcDbLine
 62
7
  6
CONTINUOUS
 10
321.2024006225
 20
13.9288111832
 11
321.1354160196
 21
14.0181477342
  0
LINE
  5
51B
100
AcDbEntity
  8
0
100
AcDbLine
 62
7
  6
CONTINUOUS
 10
321.6311345616
 20
13.4345220229
 11
321.5641499963
 21
13.5238585306
  0
LINE
  5
51C
100
AcDbEntity
  8
0
100
AcDbLine
 62
7
  6
CONTINUOUS
 10
322.0465992036
 20
13.2582741714
 11
322.113583741
 21
13.1689377045
  0
LINE
  5
51D
100
AcDbEntity
  8
0
100
AcDbLine
 62
7
  6
CONTINUOUS
 10
307.8243631048
 20
27.9210765959
 11
307.9032667278
 21
27.8128199591
  0
LINE
  5
51E
100
AcDbEntity
  8
0
100
AcDbLine
 62
7
  6
CONTINUOUS
 10
321.0014160886
 20
14.1241979261
 11
321.1085893444
 21
13.976417982
  0
LINE
  5
51F
100
AcDbEntity
  8
0
100
AcDbLine
 62
7
  6
CONTINUOUS
 10
322.2475836813
 20
13.0628874934
 11
322.1404104949
 21
13.2106673693
  0
LINE
  5
520
100
AcDbEntity
  8
0
100
AcDbLine
 62
7
  6
CONTINUOUS
 10
322.0939648962
 20
13.4960943374
 11
321.974687811
 21
13.6620712651
  0
LINE
  5
521
100
AcDbEntity
  8
0
100
AcDbLine
 62
7
  6
CONTINUOUS
 10
322.7479866998
 20
13.0294449436
 11
322.8672637087
 21
12.8634680323
  0
LINE
  5
522
100
AcDbEntity
  8
0
100
AcDbLine
 62
7
  6
CONTINUOUS
 10
308.044247059
 20
27.0347710848
 11
308.1061115823
 21
26.9486471928
  0
LINE
  5
523
100
AcDbEntity
  8
0
100
AcDbLine
 62
7
  6
CONTINUOUS
 10
321.8799273579
 20
13.7123184316
 11
321.9761662038
 21
13.5756792537
  0
LINE
  5
524
100
AcDbEntity
  8
0
100
AcDbLine
 62
7
  6
CONTINUOUS
 10
322.9620242703
 20
12.8132208083
 11
322.865785338
 21
12.949860056
  0
LINE
  5
525
100
AcDbEntity
  8
0
100
AcDbLine
 62
7
  6
CONTINUOUS
 10
302.006724768
 20
35.1596377088
 11
301.8261868879
 21
35.4202969197
  0
LINE
  5
526
100
AcDbEntity
  8
0
100
AcDbLine
 62
7
  6
CONTINUOUS
 10
302.9094143369
 20
34.2445700285
 11
303.0899522169
 21
33.9839108137
  0
LINE
  5
527
100
AcDbEntity
  8
0
100
AcDbLine
 62
7
  6
CONTINUOUS
 10
302.4881592834
 20
35.1259727262
 11
302.6686971635
 21
34.8653135307
  0
LINE
  5
528
100
AcDbEntity
  8
0
100
AcDbLine
 62
7
  6
CONTINUOUS
 10
308.2444387939
 20
26.8347545287
 11
308.1464286668
 21
26.9764431496
  0
LINE
  5
529
100
AcDbEntity
  8
RUNDUNGEN
100
AcDbLine
 62
7
  6
CONTINUOUS
 10
292.7347344617
 20
33.6878430128
 11
289.8145599905
 21
38.0350024311
  0
LINE
  5
52A
100
AcDbEntity
  8
RUNDUNGEN
100
AcDbLine
 62
7
  6
CONTINUOUS
 10
293.650542398
 20
40.241837787
 11
297.8685721898
 21
33.9626075161
  0
LINE
  5
52B
100
AcDbEntity
  8
0
100
AcDbLine
 62
7
  6
CONTINUOUS
 10
301.7945927336
 20
32.8194875656
 11
301.6742341469
 21
33.0004498096
  0
LINE
  5
52C
100
AcDbEntity
  8
0
100
AcDbLine
 62
7
  6
CONTINUOUS
 10
303.5397924937
 20
31.5435508924
 11
303.6601511226
 21
31.3625886231
  0
LINE
  5
52D
100
AcDbEntity
  8
0
100
AcDbLine
 62
7
  6
CONTINUOUS
 10
301.5252904212
 20
35.6893723393
 11
301.7058283012
 21
35.4071448644
  0
LINE
  5
52E
100
AcDbEntity
  8
0
100
AcDbLine
 62
7
  6
CONTINUOUS
 10
303.8910741255
 20
33.2168211526
 11
303.8519281843
 21
33.2780163873
  0
LINE
  5
52F
100
AcDbEntity
  8
0
100
AcDbLine
 62
7
  6
CONTINUOUS
 10
304.2333589539
 20
33.397102826
 11
304.0528210581
 21
33.6793302699
  0
LINE
  5
530
100
AcDbEntity
  8
0
100
AcDbLine
 62
7
  6
CONTINUOUS
 10
306.3324570011
 20
28.2464291787
 11
306.8753054878
 21
27.3815870808
  0
LINE
  5
531
100
AcDbEntity
  8
0
100
AcDbLine
 62
7
  6
CONTINUOUS
 10
306.9414237078
 20
27.3892262317
 11
306.5604686913
 21
27.9979401015
  0
LINE
  5
532
100
AcDbEntity
  8
0
100
AcDbLine
 62
7
  6
CONTINUOUS
 10
178.7998515449
 20
93.8789963079
 11
177.5349682164
 21
104.0627405937
  0
LINE
  5
533
100
AcDbEntity
  8
0
100
AcDbLine
 62
7
  6
CONTINUOUS
 10
178.7998515449
 20
101.4344988618
 11
177.8801657801
 21
108.8390115478
  0
LINE
  5
534
100
AcDbEntity
  8
0
100
AcDbLine
 62
7
  6
CONTINUOUS
 10
183.0642286407
 20
117.1830789987
 11
183.2195373097
 21
108.8390115478
  0
LINE
  5
535
100
AcDbEntity
  8
0
100
AcDbLine
 62
7
  6
CONTINUOUS
 10
167.5498515449
 20
194.4032148165
 11
167.5498515449
 21
570.4032148165
  0
LINE
  5
536
100
AcDbEntity
  8
0
100
AcDbLine
 62
7
  6
CONTINUOUS
 10
168.5498515449
 20
73.7220002642
 11
168.5498515449
 21
94.1961781381
  0
LINE
  5
537
100
AcDbEntity
  8
0
100
AcDbLine
 62
7
  6
CONTINUOUS
 10
171.5498515449
 20
104.9097769346
 11
171.5498515449
 21
99.2774136889
  0
LINE
  5
538
100
AcDbEntity
  8
0
100
AcDbLine
 62
7
  6
CONTINUOUS
 10
174.2998515449
 20
116.8838048269
 11
174.2998515449
 21
108.4036627091
  0
LINE
  5
539
100
AcDbEntity
  8
BEZUGSACHSEN
100
AcDbLine
 62
7
  6
CONTINUOUS
 10
174.2998515449
 20
116.8841022366
 11
174.2998515449
 21
135.1994912437
  0
LINE
  5
53A
100
AcDbEntity
  8
0
100
AcDbLine
 62
7
  6
CONTINUOUS
 10
178.7998515449
 20
101.4344988618
 11
178.7998515449
 21
93.8789963079
  0
LINE
  5
53B
100
AcDbEntity
  8
0
100
AcDbLine
 62
7
  6
CONTINUOUS
 10
182.2998515449
 20
101.4344988618
 11
182.2998515449
 21
93.8789963079
  0
LINE
  5
53C
100
AcDbEntity
  8
0
100
AcDbLine
 62
7
  6
CONTINUOUS
 10
178.0354744491
 20
117.1830789987
 11
177.8801657801
 21
108.8390115478
  0
LINE
  5
53D
100
AcDbEntity
  8
0
100
AcDbLine
 62
7
  6
CONTINUOUS
 10
321.8297648178
 20
13.7902822495
 11
321.8799273579
 21
13.7123184316
  0
LINE
  5
53E
100
AcDbEntity
  8
0
100
AcDbLine
 62
7
  6
CONTINUOUS
 10
323.0121866916
 20
12.7352571014
 11
322.9620242703
 21
12.8132208083
  0
LINE
  5
53F
100
AcDbEntity
  8
0
100
AcDbLine
 62
7
  6
CONTINUOUS
 10
322.9933845871
 20
13.4344890486
 11
323.0555461364
 21
13.337797623
  0
LINE
  5
540
100
AcDbEntity
  8
0
100
AcDbLine
 62
7
  6
CONTINUOUS
 10
323.2808253497
 20
13.1713881772
 11
323.2186638004
 21
13.2680796028
  0
LINE
  5
541
100
AcDbEntity
  8
0
100
AcDbLine
 62
7
  6
CONTINUOUS
 10
321.1354160196
 20
14.0181477342
 11
321.0818345801
 21
14.1041414513
  0
LINE
  5
542
100
AcDbEntity
  8
0
100
AcDbLine
 62
7
  6
CONTINUOUS
 10
322.113583741
 20
13.1689377045
 11
322.1671651897
 21
13.0829439683
  0
LINE
  5
543
100
AcDbEntity
  8
0
100
AcDbLine
 62
7
  6
CONTINUOUS
 10
323.5455791271
 20
13.1468797991
 11
324.7203878809
 21
11.2438700874
  0
LINE
  5
544
100
AcDbEntity
  8
0
100
AcDbLine
 62
7
  6
CONTINUOUS
 10
324.858536904
 20
11.020089892
 11
327.3452193192
 21
6.9920463739
  0
LINE
  5
545
100
AcDbEntity
  8
0
100
AcDbLine
 62
7
  6
CONTINUOUS
 10
327.6280620317
 20
7.0678085283
 11
324.362075708
 21
12.3582046645
  0
LINE
  5
546
100
AcDbEntity
  8
0
100
AcDbLine
 62
7
  6
CONTINUOUS
 10
301.3131583868
 20
33.3276539475
 11
301.4335169735
 21
33.1251234703
  0
LINE
  5
547
100
AcDbEntity
  8
0
100
AcDbLine
 62
7
  6
CONTINUOUS
 10
303.707970483
 20
30.8133572839
 11
303.6247791782
 21
30.9533454052
  0
LINE
  5
548
100
AcDbEntity
  8
0
100
AcDbLine
 62
7
  6
CONTINUOUS
 10
304.0212269196
 20
31.0353844187
 11
303.9008683171
 21
31.2379148958
  0
LINE
  5
549
100
AcDbEntity
  8
0
100
AcDbLine
 62
7
  6
CONTINUOUS
 10
302.8492350435
 20
34.3458352748
 11
302.9094143369
 21
34.2445700285
  0
LINE
  5
54A
100
AcDbEntity
  8
0
100
AcDbLine
 62
7
  6
CONTINUOUS
 10
303.1501315103
 20
34.0551916065
 11
303.0297729236
 21
34.2577220837
  0
LINE
  5
54B
100
AcDbEntity
  8
0
100
AcDbLine
 62
7
  6
CONTINUOUS
 10
302.8492350435
 20
34.7772003242
 11
302.7890557502
 21
34.878465586
  0
LINE
  5
54C
100
AcDbEntity
  8
0
100
AcDbLine
 62
7
  6
CONTINUOUS
 10
303.8121038636
 20
33.8471404636
 11
303.9324624503
 21
33.6446100018
  0
LINE
  5
54D
100
AcDbEntity
  8
0
100
AcDbLine
 62
7
  6
CONTINUOUS
 10
302.6686971635
 20
35.7927484835
 11
302.6085178701
 21
35.8940136835
  0
LINE
  5
54E
100
AcDbEntity
  8
0
100
AcDbLine
 62
7
  6
CONTINUOUS
 10
302.6686971635
 20
36.7633197792
 11
302.6085178701
 21
36.8645851027
  0
LINE
  5
54F
100
AcDbEntity
  8
0
100
AcDbLine
 62
7
  6
CONTINUOUS
 10
320.934441859
 20
14.237741968
 11
321.0014160886
 21
14.1241979261
  0
LINE
  5
550
100
AcDbEntity
  8
0
100
AcDbLine
 62
7
  6
CONTINUOUS
 10
322.3145579203
 20
12.9493434408
 11
322.2475836813
 21
13.0628874934
  0
LINE
  5
551
100
AcDbEntity
  8
0
100
AcDbLine
 62
7
  6
CONTINUOUS
 10
308.1061115823
 20
26.9486471928
 11
308.1526836595
 21
26.8680770043
  0
LINE
  5
552
100
AcDbEntity
  8
0
100
AcDbLine
 62
7
  6
CONTINUOUS
 10
321.7755162911
 20
13.8875342499
 11
321.8297648178
 21
13.7902822495
  0
LINE
  5
553
100
AcDbEntity
  8
0
100
AcDbLine
 62
7
  6
CONTINUOUS
 10
323.0664352887
 20
12.6380050516
 11
323.0121866916
 21
12.7352571014
  0
LINE
  5
554
100
AcDbEntity
  8
0
100
AcDbLine
 62
7
  6
CONTINUOUS
 10
308.3014373355
 20
26.7291788912
 11
308.2444387939
 21
26.8347545287
  0
LINE
  5
555
100
AcDbEntity
  8
KONSTRUKTIONSELEMENTE
100
AcDbLine
 62
7
  6
CONTINUOUS
 10
229.585501432
 20
106.6469673775
 11
229.5523514811
 21
106.7377179563
  0
LINE
  5
556
100
AcDbEntity
  8
KONSTRUKTIONSELEMENTE
100
AcDbLine
 62
7
  6
CONTINUOUS
 10
232.7011820457
 20
110.5850383956
 11
232.7343319965
 21
110.4942878167
  0
LINE
  5
557
100
AcDbEntity
  8
KONSTRUKTIONSELEMENTE
100
AcDbLine
 62
7
  6
CONTINUOUS
 10
233.0547354363
 20
110.2435320446
 11
233.0878853871
 21
110.1527814658
  0
LINE
  5
558
100
AcDbEntity
  8
RUNDUNGEN
100
AcDbLine
 62
7
  6
CONTINUOUS
 10
186.7998515449
 20
116.8838048269
 11
186.7998515449
 21
108.4036627091
  0
LINE
  5
559
100
AcDbEntity
  8
BEZUGSACHSEN
100
AcDbLine
 62
7
  6
CONTINUOUS
 10
186.7998515449
 20
116.8841022366
 11
186.7998515449
 21
135.1994912437
  0
LINE
  5
55A
100
AcDbEntity
  8
RUNDUNGEN
100
AcDbLine
 62
7
  6
CONTINUOUS
 10
189.5498515449
 20
104.9097769346
 11
189.5498515449
 21
99.2774136889
  0
LINE
  5
55B
100
AcDbEntity
  8
RUNDUNGEN
100
AcDbLine
 62
7
  6
CONTINUOUS
 10
192.5498515449
 20
73.7220002642
 11
192.5498515449
 21
75.4658974313
  0
LINE
  5
55C
100
AcDbEntity
  8
KONSTRUKTIONSELEMENTE
100
AcDbLine
 62
7
  6
CONTINUOUS
 10
192.5498515449
 20
73.7220002642
 11
192.5498515449
 21
83.7641792142
  0
LINE
  5
55D
100
AcDbEntity
  8
RUNDUNGEN
100
AcDbLine
 62
7
  6
CONTINUOUS
 10
192.5498515449
 20
82.0202820472
 11
192.5498515449
 21
94.1961781381
  0
LINE
  5
55E
100
AcDbEntity
  8
0
100
AcDbLine
 62
7
  6
CONTINUOUS
 10
193.5498515449
 20
194.4032148165
 11
193.5498515449
 21
570.4032148165
  0
LINE
  5
55F
100
AcDbEntity
  8
0
100
AcDbLine
 62
7
  6
CONTINUOUS
 10
200.5498515449
 20
191.3217447932
 11
200.5498515449
 21
147.8550826102
  0
LINE
  5
560
100
AcDbEntity
  8
0
100
AcDbLine
 62
7
  6
CONTINUOUS
 10
182.2998515449
 20
101.4344988618
 11
183.2195373097
 21
108.8390115478
  0
LINE
  5
561
100
AcDbEntity
  8
0
100
AcDbLine
 62
7
  6
CONTINUOUS
 10
301.6742341469
 20
33.0004498096
 11
301.6140548536
 21
33.1232833045
  0
LINE
  5
562
100
AcDbEntity
  8
0
100
AcDbLine
 62
7
  6
CONTINUOUS
 10
302.3678006967
 20
35.8030048118
 11
302.42797999
 21
35.6801713168
  0
LINE
  5
563
100
AcDbEntity
  8
0
100
AcDbLine
 62
7
  6
CONTINUOUS
 10
302.6686971635
 20
35.4476563822
 11
302.6085178701
 21
35.5704898771
  0
LINE
  5
564
100
AcDbEntity
  8
0
100
AcDbLine
 62
7
  6
CONTINUOUS
 10
302.3678006967
 20
36.1480969131
 11
302.42797999
 21
36.0252634181
  0
LINE
  5
565
100
AcDbEntity
  8
0
100
AcDbLine
 62
7
  6
CONTINUOUS
 10
302.3678006967
 20
36.7735762309
 11
302.42797999
 21
36.650742736
  0
LINE
  5
566
100
AcDbEntity
  8
0
100
AcDbLine
 62
7
  6
CONTINUOUS
 10
302.6686971635
 20
36.4182278014
 11
302.6085178701
 21
36.5410612963
  0
LINE
  5
567
100
AcDbEntity
  8
0
100
AcDbLine
 62
7
  6
CONTINUOUS
 10
302.3678006967
 20
37.1186682088
 11
302.42797999
 21
36.9958347138
  0
LINE
  5
568
100
AcDbEntity
  8
0
100
AcDbLine
 62
7
  6
CONTINUOUS
 10
321.5641499963
 20
13.5238585306
 11
321.5373644256
 21
13.5789591778
  0
LINE
  5
569
100
AcDbEntity
  8
0
100
AcDbLine
 62
7
  6
CONTINUOUS
 10
321.974687811
 20
13.6620712651
 11
321.9122670633
 21
13.7978999061
  0
LINE
  5
56A
100
AcDbEntity
  8
0
100
AcDbLine
 62
7
  6
CONTINUOUS
 10
322.8672637087
 20
12.8634680323
 11
322.9296845165
 21
12.7276393955
  0
LINE
  5
56B
100
AcDbEntity
  8
0
100
AcDbLine
 62
7
  6
CONTINUOUS
 10
301.2529790935
 20
33.4720557065
 11
301.3131583868
 21
33.3276539475
  0
LINE
  5
56C
100
AcDbEntity
  8
0
100
AcDbLine
 62
7
  6
CONTINUOUS
 10
301.8261868879
 20
35.4202969197
 11
301.7660075946
 21
35.5646986787
  0
LINE
  5
56D
100
AcDbEntity
  8
0
100
AcDbLine
 62
7
  6
CONTINUOUS
 10
303.6601511226
 20
31.3625886231
 11
303.7203304159
 21
31.2181868641
  0
LINE
  5
56E
100
AcDbEntity
  8
0
100
AcDbLine
 62
7
  6
CONTINUOUS
 10
302.6686971635
 20
34.8653135307
 11
302.7288764568
 21
34.7209117718
  0
LINE
  5
56F
100
AcDbEntity
  8
0
100
AcDbLine
 62
7
  6
CONTINUOUS
 10
303.0297729236
 20
34.2577220837
 11
302.9695936302
 21
34.4021238427
  0
LINE
  5
570
100
AcDbEntity
  8
0
100
AcDbLine
 62
7
  6
CONTINUOUS
 10
303.9324624503
 20
33.6446100018
 11
303.9926417437
 21
33.5002082428
  0
LINE
  5
571
100
AcDbEntity
  8
0
100
AcDbLine
 62
7
  6
CONTINUOUS
 10
218.5498515449
 20
191.3217447932
 11
218.5498515449
 21
147.8550826102
  0
LINE
  5
572
100
AcDbEntity
  8
RUNDUNGEN
100
AcDbLine
 62
7
  6
CONTINUOUS
 10
182.2998515449
 20
93.8789963079
 11
183.5647348734
 21
104.0627405937
  0
LINE
  5
573
100
AcDbEntity
  8
KONSTRUKTIONSELEMENTE
100
AcDbLine
 62
7
  6
CONTINUOUS
 10
290.7502380046
 20
47.5663686638
 11
290.7170880538
 21
47.6571192426
  0
LINE
  5
574
100
AcDbEntity
  8
KONSTRUKTIONSELEMENTE
100
AcDbLine
 62
7
  6
CONTINUOUS
 10
293.8659186183
 20
51.5044396819
 11
293.8990685691
 21
51.413689103
  0
LINE
  5
575
100
AcDbEntity
  8
KONSTRUKTIONSELEMENTE
100
AcDbLine
 62
7
  6
CONTINUOUS
 10
294.2194720089
 20
51.1629333309
 11
294.2526219597
 21
51.0721827521
  0
LINE
  5
576
100
AcDbEntity
  8
0
100
AcDbLine
 62
7
  6
CONTINUOUS
 10
301.4651111278
 20
35.8553423469
 11
301.5252904212
 21
35.6893723393
  0
LINE
  5
577
100
AcDbEntity
  8
0
100
AcDbLine
 62
7
  6
CONTINUOUS
 10
304.0814062182
 20
30.8694144215
 11
304.0212269196
 21
31.0353844187
  0
LINE
  5
578
100
AcDbEntity
  8
0
100
AcDbLine
 62
7
  6
CONTINUOUS
 10
304.2935382526
 20
33.2311327979
 11
304.2333589539
 21
33.397102826
  0
LINE
  5
579
100
AcDbEntity
  8
0
100
AcDbLine
 62
7
  6
CONTINUOUS
 10
175.0351456626
 20
138.1621882698
 11
178.0265199759
 21
143.7710151074
  0
LINE
  5
57A
100
AcDbEntity
  8
0
100
AcDbLine
 62
7
  6
CONTINUOUS
 10
321.0818345801
 20
14.1041414513
 11
321.0684520882
 21
14.1558993535
  0
LINE
  5
57B
100
AcDbEntity
  8
0
100
AcDbLine
 62
7
  6
CONTINUOUS
 10
321.3765995107
 20
13.7885251741
 11
321.4033644898
 21
13.6850093709
  0
LINE
  5
57C
100
AcDbEntity
  8
0
100
AcDbLine
 62
7
  6
CONTINUOUS
 10
321.5373644256
 20
13.5789591778
 11
321.5239819337
 21
13.63071708
  0
LINE
  5
57D
100
AcDbEntity
  8
0
100
AcDbLine
 62
7
  6
CONTINUOUS
 10
322.1671651897
 20
13.0829439683
 11
322.1805476816
 21
13.0311860661
  0
LINE
  5
57E
100
AcDbEntity
  8
0
100
AcDbLine
 62
7
  6
CONTINUOUS
 10
307.4971933108
 20
27.3819755426
 11
307.4812062672
 21
27.4514382286
  0
LINE
  5
57F
100
AcDbEntity
  8
0
100
AcDbLine
 62
7
  6
CONTINUOUS
 10
321.7632580293
 20
13.9453991018
 11
321.7755162911
 21
13.8875342499
  0
LINE
  5
580
100
AcDbEntity
  8
0
100
AcDbLine
 62
7
  6
CONTINUOUS
 10
323.0786935585
 20
12.5801401895
 11
323.0664352887
 21
12.6380050516
  0
LINE
  5
581
100
AcDbEntity
  8
0
100
AcDbLine
 62
7
  6
CONTINUOUS
 10
307.8176298624
 20
27.9548717918
 11
307.8243631048
 21
27.9210765959
  0
LINE
  5
582
100
AcDbEntity
  8
0
100
AcDbLine
 62
7
  6
CONTINUOUS
 10
171.5831732151
 20
99.3331619297
 11
168.5831732151
 21
94.3140641072
  0
LINE
  5
583
100
AcDbEntity
  8
0
100
AcDbLine
 62
7
  6
CONTINUOUS
 10
320.9210696653
 20
14.3137074476
 11
320.934441859
 21
14.237741968
  0
LINE
  5
584
100
AcDbEntity
  8
0
100
AcDbLine
 62
7
  6
CONTINUOUS
 10
322.3279301498
 20
12.8733779459
 11
322.3145579203
 21
12.9493434408
  0
LINE
  5
585
100
AcDbEntity
  8
0
100
AcDbLine
 62
7
  6
CONTINUOUS
 10
308.1526836595
 20
26.8680770043
 11
308.1582441422
 21
26.8236198097
  0
LINE
  5
586
100
AcDbEntity
  8
0
100
AcDbLine
 62
7
  6
CONTINUOUS
 10
307.3373186784
 20
27.6097880341
 11
307.3380130829
 21
27.5458791364
  0
LINE
  5
587
100
AcDbEntity
  8
0
100
AcDbLine
 62
7
  6
CONTINUOUS
 10
308.3021317468
 20
26.6652699855
 11
308.3014373355
 21
26.7291788912
  0
LINE
  5
588
100
AcDbEntity
  8
0
100
AcDbLine
 62
7
  6
CONTINUOUS
 10
300.0508975654
 20
34.0292661842
 11
300.0508975654
 21
30.9234376429
  0
LINE
  5
589
100
AcDbEntity
  8
0
100
AcDbLine
 62
7
  6
CONTINUOUS
 10
300.1216082436
 20
30.8551363728
 11
300.1216082436
 21
33.2851452299
  0
LINE
  5
58A
100
AcDbEntity
  8
0
100
AcDbLine
 62
7
  6
CONTINUOUS
 10
300.404450956
 20
30.7113408145
 11
300.404450956
 21
33.5583503107
  0
LINE
  5
58B
100
AcDbEntity
  8
0
100
AcDbLine
 62
7
  6
CONTINUOUS
 10
301.2529790935
 20
33.579896965
 11
301.2529790935
 21
33.4720557065
  0
LINE
  5
58C
100
AcDbEntity
  8
0
100
AcDbLine
 62
7
  6
CONTINUOUS
 10
301.4651111278
 20
35.9416153414
 11
301.4651111278
 21
35.8553423469
  0
LINE
  5
58D
100
AcDbEntity
  8
0
100
AcDbLine
 62
7
  6
CONTINUOUS
 10
301.6140548536
 20
33.1232833045
 11
301.6140548536
 21
33.2526928271
  0
LINE
  5
58E
100
AcDbEntity
  8
0
100
AcDbLine
 62
7
  6
CONTINUOUS
 10
301.7660075946
 20
35.5646986787
 11
301.7660075946
 21
35.6509716731
  0
LINE
  5
58F
100
AcDbEntity
  8
0
100
AcDbLine
 62
7
  6
CONTINUOUS
 10
301.9149513203
 20
33.0914586505
 11
301.9149513203
 21
33.2208681731
  0
LINE
  5
590
100
AcDbEntity
  8
0
100
AcDbLine
 62
7
  6
CONTINUOUS
 10
302.3678006967
 20
37.2049413884
 11
302.3678006967
 21
37.1186682088
  0
LINE
  5
591
100
AcDbEntity
  8
0
100
AcDbLine
 62
7
  6
CONTINUOUS
 10
302.3678006967
 20
36.8598491637
 11
302.3678006967
 21
36.7735762309
  0
LINE
  5
592
100
AcDbEntity
  8
0
100
AcDbLine
 62
7
  6
CONTINUOUS
 10
302.3678006967
 20
36.6657350033
 11
302.3678006967
 21
36.5578936522
  0
LINE
  5
593
100
AcDbEntity
  8
0
100
AcDbLine
 62
7
  6
CONTINUOUS
 10
302.3678006967
 20
36.2343698458
 11
302.3678006967
 21
36.1480969131
  0
LINE
  5
594
100
AcDbEntity
  8
0
100
AcDbLine
 62
7
  6
CONTINUOUS
 10
302.3678006967
 20
35.889277868
 11
302.3678006967
 21
35.8030048118
  0
LINE
  5
595
100
AcDbEntity
  8
0
100
AcDbLine
 62
7
  6
CONTINUOUS
 10
302.3678006967
 20
35.6951635841
 11
302.3678006967
 21
35.5873222948
  0
LINE
  5
596
100
AcDbEntity
  8
0
100
AcDbLine
 62
7
  6
CONTINUOUS
 10
302.4565651291
 20
32.438890393
 11
302.4565651291
 21
32.3094808705
  0
LINE
  5
597
100
AcDbEntity
  8
0
100
AcDbLine
 62
7
  6
CONTINUOUS
 10
302.6085178701
 20
35.5704898771
 11
302.6085178701
 21
35.6136263435
  0
LINE
  5
598
100
AcDbEntity
  8
0
100
AcDbLine
 62
7
  6
CONTINUOUS
 10
302.6085178701
 20
35.8940136835
 11
302.6085178701
 21
35.9587184448
  0
LINE
  5
599
100
AcDbEntity
  8
0
100
AcDbLine
 62
7
  6
CONTINUOUS
 10
302.6085178701
 20
36.5410612963
 11
302.6085178701
 21
36.5841978861
  0
LINE
  5
59A
100
AcDbEntity
  8
0
100
AcDbLine
 62
7
  6
CONTINUOUS
 10
302.6085178701
 20
36.8645851027
 11
302.6085178701
 21
36.9292898639
  0
LINE
  5
59B
100
AcDbEntity
  8
0
100
AcDbLine
 62
7
  6
CONTINUOUS
 10
302.7288764568
 20
34.7209117718
 11
302.7288764568
 21
34.6346387773
  0
LINE
  5
59C
100
AcDbEntity
  8
0
100
AcDbLine
 62
7
  6
CONTINUOUS
 10
302.8176408892
 20
31.9607084686
 11
302.8176408892
 21
32.0901179911
  0
LINE
  5
59D
100
AcDbEntity
  8
0
100
AcDbLine
 62
7
  6
CONTINUOUS
 10
302.9695936302
 20
34.4021238427
 11
302.9695936302
 21
34.4883968371
  0
LINE
  5
59E
100
AcDbEntity
  8
0
100
AcDbLine
 62
7
  6
CONTINUOUS
 10
303.2990753203
 20
31.27999597
 11
303.2990753203
 21
31.1505864475
  0
LINE
  5
59F
100
AcDbEntity
  8
0
100
AcDbLine
 62
7
  6
CONTINUOUS
 10
303.7203304159
 20
31.2181868641
 11
303.7203304159
 21
31.0456408135
  0
LINE
  5
5A0
100
AcDbEntity
  8
0
100
AcDbLine
 62
7
  6
CONTINUOUS
 10
303.9926417437
 20
33.5002082428
 11
303.9926417437
 21
33.4139352484
  0
LINE
  5
5A1
100
AcDbEntity
  8
0
100
AcDbLine
 62
7
  6
CONTINUOUS
 10
304.0814062182
 20
30.6968683708
 11
304.0814062182
 21
30.8694144215
  0
LINE
  5
5A2
100
AcDbEntity
  8
0
100
AcDbLine
 62
7
  6
CONTINUOUS
 10
304.2935382526
 20
33.7272026549
 11
304.2935382526
 21
33.8350439443
  0
LINE
  5
5A3
100
AcDbEntity
  8
0
100
AcDbLine
 62
7
  6
CONTINUOUS
 10
304.2935382526
 20
33.1017232753
 11
304.2935382526
 21
33.2311327979
  0
LINE
  5
5A4
100
AcDbEntity
  8
0
100
AcDbLine
 62
7
  6
CONTINUOUS
 10
304.2935382526
 20
34.0722946945
 11
304.2935382526
 21
34.1801359221
  0
LINE
  5
5A5
100
AcDbEntity
  8
0
100
AcDbLine
 62
7
  6
CONTINUOUS
 10
304.2935382526
 20
34.4173867957
 11
304.2935382526
 21
34.5252280234
  0
LINE
  5
5A6
100
AcDbEntity
  8
0
100
AcDbLine
 62
7
  6
CONTINUOUS
 10
304.2935382526
 20
34.6977740123
 11
304.2935382526
 21
34.8056153634
  0
LINE
  5
5A7
100
AcDbEntity
  8
0
100
AcDbLine
 62
7
  6
CONTINUOUS
 10
304.2935382526
 20
35.0428661136
 11
304.2935382526
 21
35.1507074647
  0
LINE
  5
5A8
100
AcDbEntity
  8
0
100
AcDbLine
 62
7
  6
CONTINUOUS
 10
304.2935382526
 20
35.3879580915
 11
304.2935382526
 21
35.4957994425
  0
LINE
  5
5A9
100
AcDbEntity
  8
0
100
AcDbLine
 62
7
  6
CONTINUOUS
 10
304.6470916432
 20
29.4602740993
 11
304.6470916432
 21
26.6132646032
  0
LINE
  5
5AA
100
AcDbEntity
  8
0
100
AcDbLine
 62
7
  6
CONTINUOUS
 10
304.7178023213
 20
26.4155538105
 11
304.7178023213
 21
28.9749721902
  0
LINE
  5
5AB
100
AcDbEntity
  8
0
100
AcDbLine
 62
7
  6
CONTINUOUS
 10
305.0006450337
 20
26.1423487297
 11
305.0006450337
 21
29.2481772709
  0
LINE
  5
5AC
100
AcDbEntity
  8
0
100
AcDbLine
 62
7
  6
CONTINUOUS
 10
306.7684119867
 20
26.8935979034
 11
306.7684119867
 21
26.7641883809
  0
LINE
  5
5AD
100
AcDbEntity
  8
0
100
AcDbLine
 62
7
  6
CONTINUOUS
 10
313.8394797986
 20
24.7444168602
 11
313.8394797986
 21
20.3000867658
  0
LINE
  5
5AE
100
AcDbEntity
  8
0
100
AcDbLine
 62
7
  6
CONTINUOUS
 10
313.9101904767
 20
19.8657600918
 11
313.9101904767
 21
24.3663213098
  0
LINE
  5
5AF
100
AcDbEntity
  8
0
100
AcDbLine
 62
7
  6
CONTINUOUS
 10
314.1930331892
 20
19.7219645336
 11
314.1930331892
 21
24.6395263905
  0
LINE
  5
5B0
100
AcDbEntity
  8
0
100
AcDbLine
 62
7
  6
CONTINUOUS
 10
315.0957226569
 20
23.189566128
 11
315.0957226569
 21
23.1032931089
  0
LINE
  5
5B1
100
AcDbEntity
  8
0
100
AcDbLine
 62
7
  6
CONTINUOUS
 10
315.4808702692
 20
23.0073427272
 11
315.4808702692
 21
22.8175421023
  0
LINE
  5
5B2
100
AcDbEntity
  8
0
100
AcDbLine
 62
7
  6
CONTINUOUS
 10
315.4808702692
 20
22.7312690832
 11
315.4808702692
 21
22.593232255
  0
LINE
  5
5B3
100
AcDbEntity
  8
0
100
AcDbLine
 62
7
  6
CONTINUOUS
 10
315.673444008
 20
22.6315301546
 11
315.673444008
 21
22.8213307795
  0
LINE
  5
5B4
100
AcDbEntity
  8
0
100
AcDbLine
 62
7
  6
CONTINUOUS
 10
315.673444008
 20
22.4072203073
 11
315.673444008
 21
22.5452571355
  0
LINE
  5
5B5
100
AcDbEntity
  8
0
100
AcDbLine
 62
7
  6
CONTINUOUS
 10
317.7285670951
 20
21.2244628811
 11
317.7285670951
 21
16.3069010241
  0
LINE
  5
5B6
100
AcDbEntity
  8
0
100
AcDbLine
 62
7
  6
CONTINUOUS
 10
317.7992777732
 20
16.1091902314
 11
317.7992777732
 21
20.7391609719
  0
LINE
  5
5B7
100
AcDbEntity
  8
0
100
AcDbLine
 62
7
  6
CONTINUOUS
 10
318.0821204857
 20
15.8359851506
 11
318.0821204857
 21
21.0123660527
  0
LINE
  5
5B8
100
AcDbEntity
  8
0
100
AcDbLine
 62
7
  6
CONTINUOUS
 10
321.264101001
 20
12.8659556101
 11
321.264101001
 21
12.7624279921
  0
LINE
  5
5B9
100
AcDbEntity
  8
0
100
AcDbLine
 62
7
  6
CONTINUOUS
 10
327.6280620317
 20
11.2740564869
 11
327.6280620317
 21
7.0678085283
  0
LINE
  5
5BA
100
AcDbEntity
  8
0
100
AcDbLine
 62
7
  6
CONTINUOUS
 10
327.6987727098
 20
6.5470124049
 11
327.6987727098
 21
11.0475736229
  0
LINE
  5
5BB
100
AcDbEntity
  8
0
100
AcDbLine
 62
7
  6
CONTINUOUS
 10
327.9816154223
 20
6.4032168467
 11
327.9816154223
 21
11.3207787036
  0
LINE
  5
5BC
100
AcDbEntity
  8
0
100
AcDbLine
 62
7
  6
CONTINUOUS
 10
329.1765557568
 20
9.5885257811
 11
329.1765557568
 21
9.502252762
  0
LINE
  5
5BD
100
AcDbEntity
  8
0
100
AcDbLine
 62
7
  6
CONTINUOUS
 10
329.5617033692
 20
9.4063023803
 11
329.5617033692
 21
9.2165017555
  0
LINE
  5
5BE
100
AcDbEntity
  8
0
100
AcDbLine
 62
7
  6
CONTINUOUS
 10
329.5617033692
 20
9.1302287363
 11
329.5617033692
 21
8.9921919081
  0
LINE
  5
5BF
100
AcDbEntity
  8
0
100
AcDbLine
 62
7
  6
CONTINUOUS
 10
329.7542771079
 20
9.0304898077
 11
329.7542771079
 21
9.2202904326
  0
LINE
  5
5C0
100
AcDbEntity
  8
0
100
AcDbLine
 62
7
  6
CONTINUOUS
 10
329.7542771079
 20
8.8061799604
 11
329.7542771079
 21
8.9442167886
  0
LINE
  5
5C1
100
AcDbEntity
  8
0
100
AcDbLine
 62
7
  6
CONTINUOUS
 10
331.5171493282
 20
7.9057151942
 11
331.5171493282
 21
2.9881533372
  0
LINE
  5
5C2
100
AcDbEntity
  8
0
100
AcDbLine
 62
7
  6
CONTINUOUS
 10
331.5878600064
 20
2.7904425445
 11
331.5878600064
 21
7.420413285
  0
LINE
  5
5C3
100
AcDbEntity
  8
0
100
AcDbLine
 62
7
  6
CONTINUOUS
 10
331.8707027188
 20
2.5172374637
 11
331.8707027188
 21
7.6936183658
  0
LINE
  5
5C4
100
AcDbEntity
  8
RUNDUNGEN
100
AcDbLine
 62
7
  6
CONTINUOUS
 10
339.6488773119
 20
1.9663300562
 11
339.6488773119
 21
0.5558412812
  0
LINE
  5
5C5
100
AcDbEntity
  8
RUNDUNGEN
100
AcDbLine
 62
7
  6
CONTINUOUS
 10
339.6488773119
 20
-5.3712648934
 11
339.6488773119
 21
-6.7817536683
  0
LINE
  5
5C6
100
AcDbEntity
  8
RUNDUNGEN
100
AcDbLine
 62
7
  6
CONTINUOUS
 10
346.7199451238
 20
-3.1555912651
 11
346.7199451238
 21
-3.8285207824
  0
LINE
  5
5C7
100
AcDbEntity
  8
RUNDUNGEN
100
AcDbLine
 62
7
  6
CONTINUOUS
 10
346.7199451238
 20
-14.6471568676
 11
346.7199451238
 21
-15.3200863849
  0
LINE
  5
5C8
100
AcDbEntity
  8
0
100
AcDbLine
 62
7
  6
CONTINUOUS
 10
323.0063161089
 20
13.4757106589
 11
322.9933845871
 21
13.4344890486
  0
LINE
  5
5C9
100
AcDbEntity
  8
0
100
AcDbLine
 62
7
  6
CONTINUOUS
 10
323.267893739
 20
13.1301667052
 11
323.2808253497
 21
13.1713881772
  0
LINE
  5
5CA
100
AcDbEntity
  8
0
100
AcDbLine
 62
7
  6
CONTINUOUS
 10
321.9122670633
 20
13.7978999061
 11
321.9230469866
 21
13.8264270368
  0
LINE
  5
5CB
100
AcDbEntity
  8
0
100
AcDbLine
 62
7
  6
CONTINUOUS
 10
322.9296845165
 20
12.7276393955
 11
322.9189045932
 21
12.6991122647
  0
LINE
  5
5CC
100
AcDbEntity
  8
0
100
AcDbLine
 62
7
  6
CONTINUOUS
 10
321.0684520882
 20
14.1558993535
 11
321.0818654652
 21
14.1767641858
  0
LINE
  5
5CD
100
AcDbEntity
  8
0
100
AcDbLine
 62
7
  6
CONTINUOUS
 10
321.5239819337
 20
13.63071708
 11
321.5373953107
 21
13.6515819124
  0
LINE
  5
5CE
100
AcDbEntity
  8
0
100
AcDbLine
 62
7
  6
CONTINUOUS
 10
322.1805476816
 20
13.0311860661
 11
322.1671343238
 21
13.0103212289
  0
LINE
  5
5CF
100
AcDbEntity
  8
0
100
AcDbLine
 62
7
  6
CONTINUOUS
 10
321.7889039271
 20
13.9831650985
 11
321.7632580293
 21
13.9453991018
  0
LINE
  5
5D0
100
AcDbEntity
  8
RUNDUNGEN
100
AcDbLine
 62
7
  6
CONTINUOUS
 10
286.0972313223
 20
49.6887323009
 11
287.3240691597
 21
50.8737666528
  0
LINE
  5
5D1
100
AcDbEntity
  8
0
100
AcDbLine
 62
7
  6
CONTINUOUS
 10
292.2643188948
 20
43.9404280013
 11
288.7287849888
 21
40.5253644919
  0
LINE
  5
5D2
100
AcDbEntity
  8
RUNDUNGEN
100
AcDbLine
 62
7
  6
CONTINUOUS
 10
289.6759376401
 20
38.4048614525
 11
286.1404037342
 21
34.989797943
  0
LINE
  5
5D3
100
AcDbEntity
  8
0
100
AcDbLine
 62
7
  6
CONTINUOUS
 10
323.0530475584
 20
12.5423742426
 11
323.0786935585
 21
12.5801401895
  0
LINE
  5
5D4
100
AcDbEntity
  8
0
100
AcDbLine
 62
7
  6
CONTINUOUS
 10
316.973316875
 20
21.4277131905
 11
317.0214603139
 21
21.4847378175
  0
LINE
  5
5D5
100
AcDbEntity
  8
0
100
AcDbLine
 62
7
  6
CONTINUOUS
 10
302.42797999
 20
37.211517416
 11
302.3678006967
 21
37.1533886823
  0
LINE
  5
5D6
100
AcDbEntity
  8
0
100
AcDbLine
 62
7
  6
CONTINUOUS
 10
302.5483385767
 20
37.1383962916
 11
302.4148358345
 21
37.009442545
  0
LINE
  5
5D7
100
AcDbEntity
  8
0
100
AcDbLine
 62
7
  6
CONTINUOUS
 10
302.42797999
 20
36.8664251913
 11
302.3678006967
 21
36.8082964576
  0
LINE
  5
5D8
100
AcDbEntity
  8
0
100
AcDbLine
 62
7
  6
CONTINUOUS
 10
301.5252904212
 20
35.9913278663
 11
301.4693167047
 21
35.9372614079
  0
LINE
  5
5D9
100
AcDbEntity
  8
0
100
AcDbLine
 62
7
  6
CONTINUOUS
 10
302.6085178701
 20
36.9292898639
 11
302.5331784993
 21
36.8565176199
  0
LINE
  5
5DA
100
AcDbEntity
  8
0
100
AcDbLine
 62
7
  6
CONTINUOUS
 10
302.6085178701
 20
36.8645851027
 11
302.5614307499
 21
36.8191024371
  0
LINE
  5
5DB
100
AcDbEntity
  8
0
100
AcDbLine
 62
7
  6
CONTINUOUS
 10
301.7058283012
 20
35.9247829546
 11
301.5089029747
 21
35.7345676959
  0
LINE
  5
5DC
100
AcDbEntity
  8
0
100
AcDbLine
 62
7
  6
CONTINUOUS
 10
302.6085178701
 20
36.7567437516
 11
302.4621520452
 21
36.6153652212
  0
LINE
  5
5DD
100
AcDbEntity
  8
0
100
AcDbLine
 62
7
  6
CONTINUOUS
 10
302.6686971635
 20
36.7633197792
 11
302.4803488699
 21
36.5813892981
  0
LINE
  5
5DE
100
AcDbEntity
  8
0
100
AcDbLine
 62
7
  6
CONTINUOUS
 10
302.8492350435
 20
36.8908892131
 11
302.7877046725
 21
36.8314554387
  0
LINE
  5
5DF
100
AcDbEntity
  8
0
100
AcDbLine
 62
7
  6
CONTINUOUS
 10
302.6085178701
 20
36.5841978861
 11
302.5309888289
 21
36.5093105829
  0
LINE
  5
5E0
100
AcDbEntity
  8
0
100
AcDbLine
 62
7
  6
CONTINUOUS
 10
302.7288764568
 20
36.6836228741
 11
302.6169290546
 21
36.5754899871
  0
LINE
  5
5E1
100
AcDbEntity
  8
0
100
AcDbLine
 62
7
  6
CONTINUOUS
 10
302.5483385767
 20
36.4913488023
 11
302.4881938654
 21
36.4332534723
  0
LINE
  5
5E2
100
AcDbEntity
  8
0
100
AcDbLine
 62
7
  6
CONTINUOUS
 10
302.6085178701
 20
36.5410612963
 11
302.552544169
 21
36.4869948528
  0
LINE
  5
5E3
100
AcDbEntity
  8
0
100
AcDbLine
 62
7
  6
CONTINUOUS
 10
301.8863661813
 20
35.8151015149
 11
301.6134782118
 21
35.5515119775
  0
LINE
  5
5E4
100
AcDbEntity
  8
0
100
AcDbLine
 62
7
  6
CONTINUOUS
 10
301.7660075946
 20
35.6509716731
 11
301.6324061972
 21
35.521922633
  0
LINE
  5
5E5
100
AcDbEntity
  8
0
100
AcDbLine
 62
7
  6
CONTINUOUS
 10
302.42797999
 20
36.2409458734
 11
302.3678006967
 21
36.1828171398
  0
LINE
  5
5E6
100
AcDbEntity
  8
0
100
AcDbLine
 62
7
  6
CONTINUOUS
 10
301.7660075946
 20
35.5646986787
 11
301.666517185
 21
35.4685983226
  0
LINE
  5
5E7
100
AcDbEntity
  8
0
100
AcDbLine
 62
7
  6
CONTINUOUS
 10
302.6686971635
 20
36.4182278014
 11
302.5905452944
 21
36.3427388926
  0
LINE
  5
5E8
100
AcDbEntity
  8
0
100
AcDbLine
 62
7
  6
CONTINUOUS
 10
302.8492350435
 20
36.5457972353
 11
302.7877046725
 21
36.4863634608
  0
LINE
  5
5E9
100
AcDbEntity
  8
0
100
AcDbLine
 62
7
  6
CONTINUOUS
 10
302.5483385767
 20
36.1678249959
 11
302.4148358345
 21
36.0388712493
  0
LINE
  5
5EA
100
AcDbEntity
  8
0
100
AcDbLine
 62
7
  6
CONTINUOUS
 10
301.8261868879
 20
35.4202969197
 11
301.750847553
 21
35.3475247103
  0
LINE
  5
5EB
100
AcDbEntity
  8
0
100
AcDbLine
 62
7
  6
CONTINUOUS
 10
302.7890557502
 20
36.2588338677
 11
302.7332329591
 21
36.2049131921
  0
LINE
  5
5EC
100
AcDbEntity
  8
0
100
AcDbLine
 62
7
  6
CONTINUOUS
 10
302.42797999
 20
35.8958538956
 11
302.3678006967
 21
35.8377251619
  0
LINE
  5
5ED
100
AcDbEntity
  8
0
100
AcDbLine
 62
7
  6
CONTINUOUS
 10
302.1872628166
 20
35.5675942119
 11
302.1235614096
 21
35.5060633777
  0
LINE
  5
5EE
100
AcDbEntity
  8
0
100
AcDbLine
 62
7
  6
CONTINUOUS
 10
302.6085178701
 20
35.9587184448
 11
302.5331785531
 21
35.8859462528
  0
LINE
  5
5EF
100
AcDbEntity
  8
0
100
AcDbLine
 62
7
  6
CONTINUOUS
 10
302.6085178701
 20
35.8940136835
 11
302.5614308037
 21
35.84853107
  0
LINE
  5
5F0
100
AcDbEntity
  8
0
100
AcDbLine
 62
7
  6
CONTINUOUS
 10
302.6085178701
 20
35.7861724559
 11
302.4621519835
 21
35.6447938659
  0
LINE
  5
5F1
100
AcDbEntity
  8
0
100
AcDbLine
 62
7
  6
CONTINUOUS
 10
302.006724768
 20
35.1596377088
 11
301.9486655695
 21
35.1035568295
  0
LINE
  5
5F2
100
AcDbEntity
  8
0
100
AcDbLine
 62
7
  6
CONTINUOUS
 10
302.6686971635
 20
35.7927484835
 11
302.480348816
 21
35.6108179504
  0
LINE
  5
5F3
100
AcDbEntity
  8
0
100
AcDbLine
 62
7
  6
CONTINUOUS
 10
302.8492350435
 20
35.920317794
 11
302.7877047069
 21
35.8608840528
  0
LINE
  5
5F4
100
AcDbEntity
  8
0
100
AcDbLine
 62
7
  6
CONTINUOUS
 10
300.404450956
 20
33.5583503107
 11
300.1216082436
 21
33.2851452299
  0
LINE
  5
5F5
100
AcDbEntity
  8
0
100
AcDbLine
 62
7
  6
CONTINUOUS
 10
302.3678006967
 20
35.3932080109
 11
302.3076560162
 21
35.3351127107
  0
LINE
  5
5F6
100
AcDbEntity
  8
0
100
AcDbLine
 62
7
  6
CONTINUOUS
 10
302.6085178701
 20
35.6136263435
 11
302.5309888906
 21
35.5387391
  0
LINE
  5
5F7
100
AcDbEntity
  8
0
100
AcDbLine
 62
7
  6
CONTINUOUS
 10
302.7288764568
 20
35.7130514549
 11
302.6169289929
 21
35.6049185084
  0
LINE
  5
5F8
100
AcDbEntity
  8
0
100
AcDbLine
 62
7
  6
CONTINUOUS
 10
302.5483385767
 20
35.5207773832
 11
302.4881938963
 21
35.462682083
  0
LINE
  5
5F9
100
AcDbEntity
  8
0
100
AcDbLine
 62
7
  6
CONTINUOUS
 10
302.6085178701
 20
35.5704898771
 11
302.552544169
 21
35.5164234337
  0
LINE
  5
5FA
100
AcDbEntity
  8
0
100
AcDbLine
 62
7
  6
CONTINUOUS
 10
302.6686971635
 20
35.4476563822
 11
302.5905453263
 21
35.3721675043
  0
LINE
  5
5FB
100
AcDbEntity
  8
0
100
AcDbLine
 62
7
  6
CONTINUOUS
 10
302.1872628166
 20
34.9421148323
 11
302.1333745696
 21
34.8900627828
  0
LINE
  5
5FC
100
AcDbEntity
  8
0
100
AcDbLine
 62
7
  6
CONTINUOUS
 10
302.8492350435
 20
35.5752256927
 11
302.7877047069
 21
35.5157919515
  0
LINE
  5
5FD
100
AcDbEntity
  8
0
100
AcDbLine
 62
7
  6
CONTINUOUS
 10
302.6085178701
 20
35.1175565482
 11
302.5398971383
 21
35.0512740112
  0
LINE
  5
5FE
100
AcDbEntity
  8
0
100
AcDbLine
 62
7
  6
CONTINUOUS
 10
302.3076214033
 20
34.825857365
 11
302.2495622077
 21
34.7697764885
  0
LINE
  5
5FF
100
AcDbEntity
  8
0
100
AcDbLine
 62
7
  6
CONTINUOUS
 10
302.7890557502
 20
35.2882624485
 11
302.7332329911
 21
35.2343418038
  0
LINE
  5
600
100
AcDbEntity
  8
0
100
AcDbLine
 62
7
  6
CONTINUOUS
 10
301.3131583868
 20
33.6296095207
 11
301.2571846549
 21
33.5755430474
  0
LINE
  5
601
100
AcDbEntity
  8
0
100
AcDbLine
 62
7
  6
CONTINUOUS
 10
302.4881592834
 20
34.6946076767
 11
302.4143228631
 21
34.6232871714
  0
LINE
  5
602
100
AcDbEntity
  8
0
100
AcDbLine
 62
7
  6
CONTINUOUS
 10
302.7890557502
 20
34.878465586
 11
302.6993335914
 21
34.7918006356
  0
LINE
  5
603
100
AcDbEntity
  8
0
100
AcDbLine
 62
7
  6
CONTINUOUS
 10
301.4936962669
 20
33.5414963142
 11
301.301434502
 21
33.3557857101
  0
LINE
  5
604
100
AcDbEntity
  8
0
100
AcDbLine
 62
7
  6
CONTINUOUS
 10
302.6686971635
 20
34.6064944856
 11
302.5696128439
 21
34.5107863824
  0
LINE
  5
605
100
AcDbEntity
  8
0
100
AcDbLine
 62
7
  6
CONTINUOUS
 10
302.8492350435
 20
34.7772003242
 11
302.7288764568
 21
34.6609428569
  0
LINE
  5
606
100
AcDbEntity
  8
0
100
AcDbLine
 62
7
  6
CONTINUOUS
 10
302.7288764568
 20
34.6346387773
 11
302.5845960599
 21
34.4952746157
  0
LINE
  5
607
100
AcDbEntity
  8
0
100
AcDbLine
 62
7
  6
CONTINUOUS
 10
302.9094143369
 20
34.7622081187
 11
302.6265716244
 21
34.4890030379
  0
LINE
  5
608
100
AcDbEntity
  8
0
100
AcDbLine
 62
7
  6
CONTINUOUS
 10
301.7344134403
 20
33.3736861408
 11
301.4515707278
 21
33.1004810601
  0
LINE
  5
609
100
AcDbEntity
  8
0
100
AcDbLine
 62
7
  6
CONTINUOUS
 10
301.6140548536
 20
33.2526928271
 11
301.4569113355
 21
33.1009038446
  0
LINE
  5
60A
100
AcDbEntity
  8
0
100
AcDbLine
 62
7
  6
CONTINUOUS
 10
303.0899522169
 20
34.6740949122
 11
302.8071095044
 21
34.4008898314
  0
LINE
  5
60B
100
AcDbEntity
  8
0
100
AcDbLine
 62
7
  6
CONTINUOUS
 10
302.9695936302
 20
34.4883968371
 11
302.8275865043
 21
34.3512284867
  0
LINE
  5
60C
100
AcDbEntity
  8
0
100
AcDbLine
 62
7
  6
CONTINUOUS
 10
301.6140548536
 20
33.1232833045
 11
301.5104632655
 21
33.0232215142
  0
LINE
  5
60D
100
AcDbEntity
  8
0
100
AcDbLine
 62
7
  6
CONTINUOUS
 10
302.9695936302
 20
34.4021238427
 11
302.8718763377
 21
34.3077361861
  0
LINE
  5
60E
100
AcDbEntity
  8
0
100
AcDbLine
 62
7
  6
CONTINUOUS
 10
301.6742341469
 20
33.0004498096
 11
301.5894773922
 21
32.9185810712
  0
LINE
  5
60F
100
AcDbEntity
  8
0
100
AcDbLine
 62
7
  6
CONTINUOUS
 10
301.9149513203
 20
33.2208681731
 11
301.8411149098
 21
33.1495476772
  0
LINE
  5
610
100
AcDbEntity
  8
0
100
AcDbLine
 62
7
  6
CONTINUOUS
 10
304.2935382526
 20
35.4957994425
 11
304.2396499641
 21
35.4437473529
  0
LINE
  5
611
100
AcDbEntity
  8
0
100
AcDbLine
 62
7
  6
CONTINUOUS
 10
303.0297729236
 20
34.2577220837
 11
302.9522016686
 21
34.1827940051
  0
LINE
  5
612
100
AcDbEntity
  8
0
100
AcDbLine
 62
7
  6
CONTINUOUS
 10
303.390848768
 20
34.4265876905
 11
303.3260033502
 21
34.3639518268
  0
LINE
  5
613
100
AcDbEntity
  8
0
100
AcDbLine
 62
7
  6
CONTINUOUS
 10
301.7945927336
 20
32.8194875656
 11
301.7257558921
 21
32.7529962825
  0
LINE
  5
614
100
AcDbEntity
  8
0
100
AcDbLine
 62
7
  6
CONTINUOUS
 10
303.1501315103
 20
34.0551916065
 11
303.0833801372
 21
33.9907147313
  0
LINE
  5
615
100
AcDbEntity
  8
0
100
AcDbLine
 62
7
  6
CONTINUOUS
 10
304.2935382526
 20
35.1507074647
 11
304.2396499641
 21
35.0986553751
  0
LINE
  5
616
100
AcDbEntity
  8
0
100
AcDbLine
 62
7
  6
CONTINUOUS
 10
303.571386648
 20
34.2522014896
 11
303.5174983904
 21
34.2001494298
  0
LINE
  5
617
100
AcDbEntity
  8
0
100
AcDbLine
 62
7
  6
CONTINUOUS
 10
301.9751307823
 20
32.6235329532
 11
301.9083794053
 21
32.5590560742
  0
LINE
  5
618
100
AcDbEntity
  8
0
100
AcDbLine
 62
7
  6
CONTINUOUS
 10
304.2935382526
 20
34.8056153634
 11
304.2396499641
 21
34.7535632738
  0
LINE
  5
619
100
AcDbEntity
  8
0
100
AcDbLine
 62
7
  6
CONTINUOUS
 10
302.095489369
 20
32.5072754858
 11
302.0245670435
 21
32.43876978
  0
LINE
  5
61A
100
AcDbEntity
  8
0
100
AcDbLine
 62
7
  6
CONTINUOUS
 10
303.390848768
 20
33.7579718214
 11
303.3369605219
 21
33.7059197728
  0
LINE
  5
61B
100
AcDbEntity
  8
0
100
AcDbLine
 62
7
  6
CONTINUOUS
 10
304.2935382526
 20
34.5252280234
 11
304.2396500257
 21
34.4731759934
  0
LINE
  5
61C
100
AcDbEntity
  8
0
100
AcDbLine
 62
7
  6
CONTINUOUS
 10
300.404450956
 20
30.7113408145
 11
300.3374636579
 21
30.6466360533
  0
LINE
  5
61D
100
AcDbEntity
  8
0
100
AcDbLine
 62
7
  6
CONTINUOUS
 10
303.8722831569
 20
33.9184212525
 11
303.8055317858
 21
33.8539443792
  0
LINE
  5
61E
100
AcDbEntity
  8
0
100
AcDbLine
 62
7
  6
CONTINUOUS
 10
302.276027249
 20
32.3544575335
 11
302.1964127567
 21
32.2775558392
  0
LINE
  5
61F
100
AcDbEntity
  8
0
100
AcDbLine
 62
7
  6
CONTINUOUS
 10
303.571386648
 20
33.5835856205
 11
303.5174984019
 21
33.5315335718
  0
LINE
  5
620
100
AcDbEntity
  8
0
100
AcDbLine
 62
7
  6
CONTINUOUS
 10
302.5167444224
 20
32.4886029179
 11
302.4607707059
 21
32.4345364595
  0
LINE
  5
621
100
AcDbEntity
  8
0
100
AcDbLine
 62
7
  6
CONTINUOUS
 10
304.2935382526
 20
34.1801359221
 11
304.2396500257
 21
34.1280838921
  0
LINE
  5
622
100
AcDbEntity
  8
0
100
AcDbLine
 62
7
  6
CONTINUOUS
 10
302.3963858357
 20
32.3029048429
 11
302.2910178801
 21
32.2011272132
  0
LINE
  5
623
100
AcDbEntity
  8
0
100
AcDbLine
 62
7
  6
CONTINUOUS
 10
302.4565651291
 20
32.3094808705
 11
302.3190014108
 21
32.1766045222
  0
LINE
  5
624
100
AcDbEntity
  8
0
100
AcDbLine
 62
7
  6
CONTINUOUS
 10
302.6371030092
 20
32.458618445
 11
302.3542602967
 21
32.1854133643
  0
LINE
  5
625
100
AcDbEntity
  8
0
100
AcDbLine
 62
7
  6
CONTINUOUS
 10
304.0528210581
 20
33.6793302699
 11
303.9566901712
 21
33.5864749636
  0
LINE
  5
626
100
AcDbEntity
  8
0
100
AcDbLine
 62
7
  6
CONTINUOUS
 10
303.8121038636
 20
33.4157754141
 11
303.7349232835
 21
33.3412246986
  0
LINE
  5
627
100
AcDbEntity
  8
0
100
AcDbLine
 62
7
  6
CONTINUOUS
 10
304.2935382526
 20
33.8350439443
 11
304.2396499949
 21
33.7829918844
  0
LINE
  5
628
100
AcDbEntity
  8
0
100
AcDbLine
 62
7
  6
CONTINUOUS
 10
303.9324624503
 20
33.3857909567
 11
303.8166915828
 21
33.2739648859
  0
LINE
  5
629
100
AcDbEntity
  8
0
100
AcDbLine
 62
7
  6
CONTINUOUS
 10
303.9926417437
 20
33.4139352484
 11
303.8375836979
 21
33.2641606774
  0
LINE
  5
62A
100
AcDbEntity
  8
0
100
AcDbLine
 62
7
  6
CONTINUOUS
 10
302.8778201826
 20
32.3123765666
 11
302.5949774701
 21
32.0391714858
  0
LINE
  5
62B
100
AcDbEntity
  8
0
100
AcDbLine
 62
7
  6
CONTINUOUS
 10
302.8176408892
 20
32.0901179911
 11
302.6756337466
 21
31.9529496245
  0
LINE
  5
62C
100
AcDbEntity
  8
0
100
AcDbLine
 62
7
  6
CONTINUOUS
 10
304.2333589539
 20
33.397102826
 11
303.9866220683
 21
33.1587732958
  0
LINE
  5
62D
100
AcDbEntity
  8
0
100
AcDbLine
 62
7
  6
CONTINUOUS
 10
303.1185374403
 20
32.1229980169
 11
303.0281453135
 21
32.0356859272
  0
LINE
  5
62E
100
AcDbEntity
  8
0
100
AcDbLine
 62
7
  6
CONTINUOUS
 10
304.2935382526
 20
33.2311327979
 11
304.1426945556
 21
33.0854289753
  0
LINE
  5
62F
100
AcDbEntity
  8
0
100
AcDbLine
 62
7
  6
CONTINUOUS
 10
303.419433907
 20
31.8323543486
 11
303.3526825359
 21
31.7678774753
  0
LINE
  5
630
100
AcDbEntity
  8
0
100
AcDbLine
 62
7
  6
CONTINUOUS
 10
303.6601511226
 20
31.5567029069
 11
303.5815448829
 21
31.4807751099
  0
LINE
  5
631
100
AcDbEntity
  8
0
100
AcDbLine
 62
7
  6
CONTINUOUS
 10
303.4796132004
 20
31.1271780176
 11
303.4064410152
 21
31.0564991142
  0
LINE
  5
632
100
AcDbEntity
  8
0
100
AcDbLine
 62
7
  6
CONTINUOUS
 10
303.6601511226
 20
31.0174965372
 11
303.5589813302
 21
30.9197740219
  0
LINE
  5
633
100
AcDbEntity
  8
0
100
AcDbLine
 62
7
  6
CONTINUOUS
 10
303.9008683171
 20
31.2379148958
 11
303.7203304159
 21
31.0635286744
  0
LINE
  5
634
100
AcDbEntity
  8
0
100
AcDbLine
 62
7
  6
CONTINUOUS
 10
303.7203304159
 20
31.0456408135
 11
303.5796251637
 21
30.9097299764
  0
LINE
  5
635
100
AcDbEntity
  8
0
100
AcDbLine
 62
7
  6
CONTINUOUS
 10
304.0212269196
 20
31.0353844187
 11
303.7548919629
 21
30.7781246056
  0
LINE
  5
636
100
AcDbEntity
  8
0
100
AcDbLine
 62
7
  6
CONTINUOUS
 10
304.0814062182
 20
30.8694144215
 11
303.898238869
 21
30.6924883484
  0
LINE
  5
637
100
AcDbEntity
  8
0
100
AcDbLine
 62
7
  6
CONTINUOUS
 10
305.0006450337
 20
29.2481772709
 11
304.7178023213
 21
28.9749721902
  0
LINE
  5
638
100
AcDbEntity
  8
0
100
AcDbLine
 62
7
  6
CONTINUOUS
 10
304.6470916432
 20
26.6132646032
 11
304.580104345
 21
26.5485598419
  0
LINE
  5
639
100
AcDbEntity
  8
0
100
AcDbLine
 62
7
  6
CONTINUOUS
 10
306.389129763
 20
28.2529770226
 11
306.3565394477
 21
28.2214971954
  0
LINE
  5
63A
100
AcDbEntity
  8
0
100
AcDbLine
 62
7
  6
CONTINUOUS
 10
306.5604686913
 20
27.9979401015
 11
306.5156209503
 21
27.9546205103
  0
LINE
  5
63B
100
AcDbEntity
  8
0
100
AcDbLine
 62
7
  6
CONTINUOUS
 10
306.9265086117
 20
28.0348266803
 11
306.8972234678
 21
28.0065394036
  0
LINE
  5
63C
100
AcDbEntity
  8
0
100
AcDbLine
 62
7
  6
CONTINUOUS
 10
307.2413966948
 20
28.0265641083
 11
307.1615719563
 21
27.9494593317
  0
LINE
  5
63D
100
AcDbEntity
  8
0
100
AcDbLine
 62
7
  6
CONTINUOUS
 10
307.7684119867
 20
28.3864530056
 11
307.6091234805
 21
28.2325921236
  0
LINE
  5
63E
100
AcDbEntity
  8
0
100
AcDbLine
 62
7
  6
CONTINUOUS
 10
306.9414237078
 20
27.3892262317
 11
306.9034016746
 21
27.3524997679
  0
LINE
  5
63F
100
AcDbEntity
  8
0
100
AcDbLine
 62
7
  6
CONTINUOUS
 10
307.1019965353
 20
27.4077784562
 11
306.9716352743
 21
27.2818591474
  0
LINE
  5
640
100
AcDbEntity
  8
0
100
AcDbLine
 62
7
  6
CONTINUOUS
 10
307.1586692972
 20
27.4143263
 11
306.9957177209
 21
27.2569271641
  0
LINE
  5
641
100
AcDbEntity
  8
0
100
AcDbLine
 62
7
  6
CONTINUOUS
 10
307.3880622363
 20
27.6125785312
 11
307.3378157107
 21
27.5640441145
  0
LINE
  5
642
100
AcDbEntity
  8
0
100
AcDbLine
 62
7
  6
CONTINUOUS
 10
307.3380130829
 20
27.5458791364
 11
307.3087279391
 21
27.5175918596
  0
LINE
  5
643
100
AcDbEntity
  8
0
100
AcDbLine
 62
7
  6
CONTINUOUS
 10
307.2531238913
 20
27.425239372
 11
307.0311951757
 21
27.210872694
  0
LINE
  5
644
100
AcDbEntity
  8
0
100
AcDbLine
 62
7
  6
CONTINUOUS
 10
307.4798173707
 20
27.5792560557
 11
307.3542731714
 21
27.4579896713
  0
LINE
  5
645
100
AcDbEntity
  8
0
100
AcDbLine
 62
7
  6
CONTINUOUS
 10
307.4812062672
 20
27.4514382286
 11
307.4333114241
 21
27.4051753627
  0
LINE
  5
646
100
AcDbEntity
  8
0
100
AcDbLine
 62
7
  6
CONTINUOUS
 10
307.5819989784
 20
27.5209281205
 11
307.5176415124
 21
27.458763582
  0
LINE
  5
647
100
AcDbEntity
  8
0
100
AcDbLine
 62
7
  6
CONTINUOUS
 10
307.3296781048
 20
27.2279594486
 11
307.2970877895
 21
27.1964796214
  0
LINE
  5
648
100
AcDbEntity
  8
0
100
AcDbLine
 62
7
  6
CONTINUOUS
 10
307.7356187236
 20
27.4014817213
 11
307.7008719695
 21
27.3679189342
  0
LINE
  5
649
100
AcDbEntity
  8
0
100
AcDbLine
 62
7
  6
CONTINUOUS
 10
307.7133720198
 20
27.112496311
 11
307.6825558257
 21
27.0827301533
  0
LINE
  5
64A
100
AcDbEntity
  8
0
100
AcDbLine
 62
7
  6
CONTINUOUS
 10
307.8843723906
 20
27.262583619
 11
307.8535561964
 21
27.2328174612
  0
LINE
  5
64B
100
AcDbEntity
  8
0
100
AcDbLine
 62
7
  6
CONTINUOUS
 10
307.8468331532
 20
26.9791519438
 11
307.8160169591
 21
26.949385786
  0
LINE
  5
64C
100
AcDbEntity
  8
0
100
AcDbLine
 62
7
  6
CONTINUOUS
 10
308.043552567
 20
27.0986800142
 11
308.015907135
 21
27.0719765775
  0
LINE
  5
64D
100
AcDbEntity
  8
0
100
AcDbLine
 62
7
  6
CONTINUOUS
 10
307.9441487703
 20
26.9013722738
 11
307.9094020156
 21
26.8678094859
  0
LINE
  5
64E
100
AcDbEntity
  8
0
100
AcDbLine
 62
7
  6
CONTINUOUS
 10
308.1464286668
 20
26.9764431496
 11
308.1116819127
 21
26.9428803625
  0
LINE
  5
64F
100
AcDbEntity
  8
0
100
AcDbLine
 62
7
  6
CONTINUOUS
 10
308.031037914
 20
26.8485980633
 11
307.9886337674
 21
26.807638803
  0
LINE
  5
650
100
AcDbEntity
  8
0
100
AcDbLine
 62
7
  6
CONTINUOUS
 10
307.4755187679
 20
26.2105852015
 11
307.4085314698
 21
26.1458804403
  0
LINE
  5
651
100
AcDbEntity
  8
0
100
AcDbLine
 62
7
  6
CONTINUOUS
 10
308.1227930484
 20
26.8152755878
 11
308.0584355812
 21
26.7531110481
  0
LINE
  5
652
100
AcDbEntity
  8
0
100
AcDbLine
 62
7
  6
CONTINUOUS
 10
308.1582441422
 20
26.8236198097
 11
308.0713772558
 21
26.7397128407
  0
LINE
  5
653
100
AcDbEntity
  8
0
100
AcDbLine
 62
7
  6
CONTINUOUS
 10
308.2444387939
 20
26.8347545287
 11
308.1225180794
 21
26.7169881619
  0
LINE
  5
654
100
AcDbEntity
  8
0
100
AcDbLine
 62
7
  6
CONTINUOUS
 10
308.3014373355
 20
26.7291788912
 11
308.2422158816
 21
26.6719753594
  0
LINE
  5
655
100
AcDbEntity
  8
0
100
AcDbLine
 62
7
  6
CONTINUOUS
 10
307.6614441411
 20
25.9015855593
 11
307.9279536831
 21
26.1590140089
  0
LINE
  5
656
100
AcDbEntity
  8
0
100
AcDbLine
 62
7
  6
CONTINUOUS
 10
307.8290721585
 20
25.8690788506
 11
307.7620848604
 21
25.8043740893
  0
LINE
  5
657
100
AcDbEntity
  8
0
100
AcDbLine
 62
7
  6
CONTINUOUS
 10
309.235926408
 20
26.0657699633
 11
309.1085106008
 21
25.9426957444
  0
LINE
  5
658
100
AcDbEntity
  8
0
100
AcDbLine
 62
7
  6
CONTINUOUS
 10
313.8394797986
 20
25.110442264
 11
313.6057211654
 21
24.8846487631
  0
LINE
  5
659
100
AcDbEntity
  8
0
100
AcDbLine
 62
7
  6
CONTINUOUS
 10
314.1930331892
 20
24.6395263905
 11
313.9101904767
 21
24.3663213098
  0
LINE
  5
65A
100
AcDbEntity
  8
0
100
AcDbLine
 62
7
  6
CONTINUOUS
 10
315.4808702692
 20
22.8175421023
 11
315.4377596693
 21
22.7759004605
  0
LINE
  5
65B
100
AcDbEntity
  8
0
100
AcDbLine
 62
7
  6
CONTINUOUS
 10
315.673444008
 20
22.8213307795
 11
315.4808702692
 21
22.6353188318
  0
LINE
  5
65C
100
AcDbEntity
  8
0
100
AcDbLine
 62
7
  6
CONTINUOUS
 10
301.5252904212
 20
35.9913278663
 11
301.4651111278
 21
35.9416153414
  0
LINE
  5
65D
100
AcDbEntity
  8
0
100
AcDbLine
 62
7
  6
CONTINUOUS
 10
301.3131583868
 20
33.6296095207
 11
301.2529790935
 21
33.579896965
  0
LINE
  5
65E
100
AcDbEntity
  8
0
100
AcDbLine
 62
7
  6
CONTINUOUS
 10
302.5167444224
 20
32.4886029179
 11
302.4565651291
 21
32.438890393
  0
LINE
  5
65F
100
AcDbEntity
  8
0
100
AcDbLine
 62
7
  6
CONTINUOUS
 10
304.2333589539
 20
33.0520107401
 11
304.2935382526
 21
33.1017232753
  0
LINE
  5
660
100
AcDbEntity
  8
0
100
AcDbLine
 62
7
  6
CONTINUOUS
 10
304.0212269196
 20
30.6471558511
 11
304.0814062182
 21
30.6968683708
  0
LINE
  5
661
100
AcDbEntity
  8
0
100
AcDbLine
 62
7
  6
CONTINUOUS
 10
331.054149975
 20
7.8266728436
 11
331.1022934139
 21
7.8836974706
  0
LINE
  5
662
100
AcDbEntity
  8
0
100
AcDbLine
 62
7
  6
CONTINUOUS
 10
315.673444008
 20
22.6315301546
 11
315.5546829316
 21
22.5168157638
  0
LINE
  5
663
100
AcDbEntity
  8
0
100
AcDbLine
 62
7
  6
CONTINUOUS
 10
315.673444008
 20
22.5452571355
 11
315.6044670492
 21
22.4786305097
  0
LINE
  5
664
100
AcDbEntity
  8
0
100
AcDbLine
 62
7
  6
CONTINUOUS
 10
313.485926408
 20
20.4049772355
 11
313.4189391099
 21
20.3402724742
  0
LINE
  5
665
100
AcDbEntity
  8
0
100
AcDbLine
 62
7
  6
CONTINUOUS
 10
313.8394797986
 20
20.3000867658
 11
313.6500111076
 21
20.1170740639
  0
LINE
  5
666
100
AcDbEntity
  8
0
100
AcDbLine
 62
7
  6
CONTINUOUS
 10
314.1930331892
 20
19.7219645336
 11
314.1260458911
 21
19.6572597723
  0
LINE
  5
667
100
AcDbEntity
  8
0
100
AcDbLine
 62
7
  6
CONTINUOUS
 10
316.5400258997
 20
21.7944763248
 11
316.4953676988
 21
21.7513398153
  0
LINE
  5
668
100
AcDbEntity
  8
0
100
AcDbLine
 62
7
  6
CONTINUOUS
 10
316.6844562374
 20
21.672221918
 11
316.6310551467
 21
21.6206404254
  0
LINE
  5
669
100
AcDbEntity
  8
0
100
AcDbLine
 62
7
  6
CONTINUOUS
 10
316.7807431068
 20
21.6309797532
 11
316.7069066938
 21
21.559659255
  0
LINE
  5
66A
100
AcDbEntity
  8
0
100
AcDbLine
 62
7
  6
CONTINUOUS
 10
316.8288865583
 20
21.6707497815
 11
316.7107482869
 21
21.5566369741
  0
LINE
  5
66B
100
AcDbEntity
  8
0
100
AcDbLine
 62
7
  6
CONTINUOUS
 10
317.0214603139
 20
21.4847378175
 11
316.9680592169
 21
21.4331563187
  0
LINE
  5
66C
100
AcDbEntity
  8
0
100
AcDbLine
 62
7
  6
CONTINUOUS
 10
318.0821204857
 20
21.0123660527
 11
317.7992777732
 21
20.7391609719
  0
LINE
  5
66D
100
AcDbEntity
  8
0
100
AcDbLine
 62
7
  6
CONTINUOUS
 10
317.7285670951
 20
16.3069010241
 11
317.661579797
 21
16.2421962628
  0
LINE
  5
66E
100
AcDbEntity
  8
0
100
AcDbLine
 62
7
  6
CONTINUOUS
 10
320.9612892093
 20
14.3278867875
 11
320.9247812003
 21
14.2926227588
  0
LINE
  5
66F
100
AcDbEntity
  8
0
100
AcDbLine
 62
7
  6
CONTINUOUS
 10
321.0149015242
 20
14.3145158075
 11
320.93491369
 21
14.2372534926
  0
LINE
  5
670
100
AcDbEntity
  8
0
100
AcDbLine
 62
7
  6
CONTINUOUS
 10
321.1087127963
 20
14.2669090102
 11
320.9818926108
 21
14.1444101177
  0
LINE
  5
671
100
AcDbEntity
  8
0
100
AcDbLine
 62
7
  6
CONTINUOUS
 10
321.0645002107
 20
14.1599906381
 11
321.0139794734
 21
14.1111913531
  0
LINE
  5
672
100
AcDbEntity
  8
0
100
AcDbLine
 62
7
  6
CONTINUOUS
 10
321.0684520882
 20
14.1558993535
 11
321.0179313509
 21
14.1071000685
  0
LINE
  5
673
100
AcDbEntity
  8
0
100
AcDbLine
 62
7
  6
CONTINUOUS
 10
321.0818345801
 20
14.1041414513
 11
321.0430973346
 21
14.0667241454
  0
LINE
  5
674
100
AcDbEntity
  8
0
100
AcDbLine
 62
7
  6
CONTINUOUS
 10
321.2561158253
 20
14.1575160685
 11
321.2213853164
 21
14.123968973
  0
LINE
  5
675
100
AcDbEntity
  8
0
100
AcDbLine
 62
7
  6
CONTINUOUS
 10
321.1354160196
 20
14.0181477342
 11
321.1006855077
 21
13.9846006358
  0
LINE
  5
676
100
AcDbEntity
  8
0
100
AcDbLine
 62
7
  6
CONTINUOUS
 10
321.2024006225
 20
13.9288111832
 11
321.1717515286
 21
13.8992064319
  0
LINE
  5
677
100
AcDbEntity
  8
0
100
AcDbLine
 62
7
  6
CONTINUOUS
 10
321.4035085465
 20
14.0239155518
 11
321.3777298357
 21
13.9990152293
  0
LINE
  5
678
100
AcDbEntity
  8
0
100
AcDbLine
 62
7
  6
CONTINUOUS
 10
321.3497727521
 20
13.7467955106
 11
321.3234557052
 21
13.7213751953
  0
LINE
  5
679
100
AcDbEntity
  8
0
100
AcDbLine
 62
7
  6
CONTINUOUS
 10
321.4168190548
 20
13.8027045141
 11
321.3817034119
 21
13.7687854078
  0
LINE
  5
67A
100
AcDbEntity
  8
0
100
AcDbLine
 62
7
  6
CONTINUOUS
 10
321.483834458
 20
13.7859907866
 11
321.3985536181
 21
13.7036158209
  0
LINE
  5
67B
100
AcDbEntity
  8
0
100
AcDbLine
 62
7
  6
CONTINUOUS
 10
321.4033644898
 20
13.6850093709
 11
321.3801974948
 21
13.6626317721
  0
LINE
  5
67C
100
AcDbEntity
  8
0
100
AcDbLine
 62
7
  6
CONTINUOUS
 10
321.5776457493
 20
13.7383839846
 11
321.4266218638
 21
13.5925061132
  0
LINE
  5
67D
100
AcDbEntity
  8
0
100
AcDbLine
 62
7
  6
CONTINUOUS
 10
321.5200300562
 20
13.6348083647
 11
321.4505690385
 21
13.5677141737
  0
LINE
  5
67E
100
AcDbEntity
  8
0
100
AcDbLine
 62
7
  6
CONTINUOUS
 10
321.5239819337
 20
13.63071708
 11
321.454520916
 21
13.5636228891
  0
LINE
  5
67F
100
AcDbEntity
  8
0
100
AcDbLine
 62
7
  6
CONTINUOUS
 10
321.879578329
 20
13.9522061968
 11
321.7934276579
 21
13.8689910386
  0
LINE
  5
680
100
AcDbEntity
  8
0
100
AcDbLine
 62
7
  6
CONTINUOUS
 10
321.5373644256
 20
13.5789591778
 11
321.4868436882
 21
13.5301598928
  0
LINE
  5
681
100
AcDbEntity
  8
0
100
AcDbLine
 62
7
  6
CONTINUOUS
 10
321.5641499963
 20
13.5238585306
 11
321.527306131
 21
13.4882700896
  0
LINE
  5
682
100
AcDbEntity
  8
0
100
AcDbLine
 62
7
  6
CONTINUOUS
 10
321.9230469866
 20
13.8264270368
 11
321.8567280471
 21
13.7623678604
  0
LINE
  5
683
100
AcDbEntity
  8
0
100
AcDbLine
 62
7
  6
CONTINUOUS
 10
321.7250487399
 20
13.6289910524
 11
321.6903182311
 21
13.595443957
  0
LINE
  5
684
100
AcDbEntity
  8
0
100
AcDbLine
 62
7
  6
CONTINUOUS
 10
321.9122670633
 20
13.7978999061
 11
321.8527718196
 21
13.7404319136
  0
LINE
  5
685
100
AcDbEntity
  8
0
100
AcDbLine
 62
7
  6
CONTINUOUS
 10
322.0163291012
 20
13.862571853
 11
321.9659579463
 21
13.8139170536
  0
LINE
  5
686
100
AcDbEntity
  8
0
100
AcDbLine
 62
7
  6
CONTINUOUS
 10
321.6311345616
 20
13.4345220229
 11
321.5985174105
 21
13.4030162743
  0
LINE
  5
687
100
AcDbEntity
  8
0
100
AcDbLine
 62
7
  6
CONTINUOUS
 10
321.974687811
 20
13.6620712651
 11
321.9393554733
 21
13.6279428476
  0
LINE
  5
688
100
AcDbEntity
  8
0
100
AcDbLine
 62
7
  6
CONTINUOUS
 10
321.8456455923
 20
13.5262836056
 11
321.8124901093
 21
13.4942578683
  0
LINE
  5
689
100
AcDbEntity
  8
0
100
AcDbLine
 62
7
  6
CONTINUOUS
 10
321.7115221681
 20
13.3418428135
 11
321.6836300949
 21
13.3149011395
  0
LINE
  5
68A
100
AcDbEntity
  8
0
100
AcDbLine
 62
7
  6
CONTINUOUS
 10
322.180204218
 20
13.7243114657
 11
322.1460242685
 21
13.6912961697
  0
LINE
  5
68B
100
AcDbEntity
  8
0
100
AcDbLine
 62
7
  6
CONTINUOUS
 10
321.8053128534
 20
13.245820859
 11
321.7795341378
 21
13.2209205318
  0
LINE
  5
68C
100
AcDbEntity
  8
0
100
AcDbLine
 62
7
  6
CONTINUOUS
 10
322.0939648962
 20
13.4960943374
 11
322.062516459
 21
13.4657174798
  0
LINE
  5
68D
100
AcDbEntity
  8
0
100
AcDbLine
 62
7
  6
CONTINUOUS
 10
322.0064311132
 20
13.3651327617
 11
321.9785390325
 21
13.3381910806
  0
LINE
  5
68E
100
AcDbEntity
  8
0
100
AcDbLine
 62
7
  6
CONTINUOUS
 10
322.3061750669
 20
13.6061499911
 11
322.274736888
 21
13.5757830421
  0
LINE
  5
68F
100
AcDbEntity
  8
0
100
AcDbLine
 62
7
  6
CONTINUOUS
 10
321.9125066458
 20
13.1464561355
 11
321.8809261888
 21
13.1159517565
  0
LINE
  5
690
100
AcDbEntity
  8
0
100
AcDbLine
 62
7
  6
CONTINUOUS
 10
322.1404104949
 20
13.2106673693
 11
322.105679986
 21
13.1771202738
  0
LINE
  5
691
100
AcDbEntity
  8
0
100
AcDbLine
 62
7
  6
CONTINUOUS
 10
322.0063076293
 20
13.0746417584
 11
321.9715771198
 21
13.0410946624
  0
LINE
  5
692
100
AcDbEntity
  8
0
100
AcDbLine
 62
7
  6
CONTINUOUS
 10
322.4362319669
 20
13.4687002517
 11
322.4088756995
 21
13.4422761264
  0
LINE
  5
693
100
AcDbEntity
  8
0
100
AcDbLine
 62
7
  6
CONTINUOUS
 10
322.255232192
 20
13.2907302898
 11
322.2285767432
 21
13.2649831035
  0
LINE
  5
694
100
AcDbEntity
  8
0
100
AcDbLine
 62
7
  6
CONTINUOUS
 10
322.0733127439
 20
13.0337204512
 11
322.0320704914
 21
12.9938834943
  0
LINE
  5
695
100
AcDbEntity
  8
0
100
AcDbLine
 62
7
  6
CONTINUOUS
 10
322.5242987208
 20
13.37063755
 11
322.5003850289
 21
13.3475386974
  0
LINE
  5
696
100
AcDbEntity
  8
0
100
AcDbLine
 62
7
  6
CONTINUOUS
 10
322.1671343238
 20
13.0103212289
 11
322.1029367133
 21
12.948311099
  0
LINE
  5
697
100
AcDbEntity
  8
0
100
AcDbLine
 62
7
  6
CONTINUOUS
 10
322.2475836813
 20
13.0628874934
 11
322.1155000865
 21
12.935304538
  0
LINE
  5
698
100
AcDbEntity
  8
0
100
AcDbLine
 62
7
  6
CONTINUOUS
 10
322.4124133605
 20
13.1046545235
 11
322.388499696
 21
13.0815556973
  0
LINE
  5
699
100
AcDbEntity
  8
0
100
AcDbLine
 62
7
  6
CONTINUOUS
 10
322.3145579203
 20
12.9493434408
 11
322.229306681
 21
12.866997067
  0
LINE
  5
69A
100
AcDbEntity
  8
0
100
AcDbLine
 62
7
  6
CONTINUOUS
 10
322.6584416719
 20
13.2138995458
 11
322.6317862368
 21
13.1881523726
  0
LINE
  5
69B
100
AcDbEntity
  8
0
100
AcDbLine
 62
7
  6
CONTINUOUS
 10
323.08140918
 20
13.4202408436
 11
323.0327567467
 21
13.3732462018
  0
LINE
  5
69C
100
AcDbEntity
  8
0
100
AcDbLine
 62
7
  6
CONTINUOUS
 10
322.6264509148
 20
12.8884304088
 11
322.6011356274
 21
12.8639777188
  0
LINE
  5
69D
100
AcDbEntity
  8
0
100
AcDbLine
 62
7
  6
CONTINUOUS
 10
321.9712077822
 20
12.1829429082
 11
321.9176179437
 21
12.1311790992
  0
LINE
  5
69E
100
AcDbEntity
  8
0
100
AcDbLine
 62
7
  6
CONTINUOUS
 10
322.865785338
 20
12.949860056
 11
322.8300115938
 21
12.9153052726
  0
LINE
  5
69F
100
AcDbEntity
  8
0
100
AcDbLine
 62
7
  6
CONTINUOUS
 10
322.7293835786
 20
12.7996066552
 11
322.6952036281
 21
12.7665913583
  0
LINE
  5
6A0
100
AcDbEntity
  8
0
100
AcDbLine
 62
7
  6
CONTINUOUS
 10
323.2186638004
 20
13.2680796028
 11
323.1691166724
 21
13.2202207523
  0
LINE
  5
6A1
100
AcDbEntity
  8
0
100
AcDbLine
 62
7
  6
CONTINUOUS
 10
323.2808253497
 20
13.1713881772
 11
323.2535371198
 21
13.1450297711
  0
LINE
  5
6A2
100
AcDbEntity
  8
0
100
AcDbLine
 62
7
  6
CONTINUOUS
 10
322.8471822168
 20
12.7200217676
 11
322.8075187244
 21
12.681709776
  0
LINE
  5
6A3
100
AcDbEntity
  8
0
100
AcDbLine
 62
7
  6
CONTINUOUS
 10
322.9620242703
 20
12.8132208083
 11
322.9123883272
 21
12.7652761691
  0
LINE
  5
6A4
100
AcDbEntity
  8
0
100
AcDbLine
 62
7
  6
CONTINUOUS
 10
322.1098840088
 20
11.9454643414
 11
322.3430438669
 21
12.1706794699
  0
LINE
  5
6A5
100
AcDbEntity
  8
0
100
AcDbLine
 62
7
  6
CONTINUOUS
 10
322.9189045932
 20
12.6991122647
 11
322.858901937
 21
12.6411541494
  0
LINE
  5
6A6
100
AcDbEntity
  8
0
100
AcDbLine
 62
7
  6
CONTINUOUS
 10
323.0121866916
 20
12.7352571014
 11
322.8921813868
 21
12.6193408782
  0
LINE
  5
6A7
100
AcDbEntity
  8
0
100
AcDbLine
 62
7
  6
CONTINUOUS
 10
322.2540504947
 20
11.9097378275
 11
322.2004606562
 21
11.8579740185
  0
LINE
  5
6A8
100
AcDbEntity
  8
0
100
AcDbLine
 62
7
  6
CONTINUOUS
 10
323.0664352887
 20
12.6380050516
 11
322.9897906426
 21
12.5639720086
  0
LINE
  5
6A9
100
AcDbEntity
  8
0
100
AcDbLine
 62
7
  6
CONTINUOUS
 10
324.362075708
 20
12.3582046645
 11
324.1555904278
 21
12.1587551995
  0
LINE
  5
6AA
100
AcDbEntity
  8
0
100
AcDbLine
 62
7
  6
CONTINUOUS
 10
324.7203878809
 20
11.2438700874
 11
324.6490178279
 21
11.17493191
  0
LINE
  5
6AB
100
AcDbEntity
  8
0
100
AcDbLine
 62
7
  6
CONTINUOUS
 10
327.6280620317
 20
11.7916945771
 11
327.3452193192
 21
11.5184894964
  0
LINE
  5
6AC
100
AcDbEntity
  8
0
100
AcDbLine
 62
7
  6
CONTINUOUS
 10
327.9816154223
 20
11.3207787036
 11
327.6987727098
 21
11.0475736229
  0
LINE
  5
6AD
100
AcDbEntity
  8
0
100
AcDbLine
 62
7
  6
CONTINUOUS
 10
329.5617033692
 20
9.2165017555
 11
329.5185927692
 21
9.1748601136
  0
LINE
  5
6AE
100
AcDbEntity
  8
0
100
AcDbLine
 62
7
  6
CONTINUOUS
 10
327.3452193192
 20
6.9920463739
 11
327.2916294808
 21
6.9402825648
  0
LINE
  5
6AF
100
AcDbEntity
  8
0
100
AcDbLine
 62
7
  6
CONTINUOUS
 10
329.7542771079
 20
9.2202904326
 11
329.5617033692
 21
9.0342784849
  0
LINE
  5
6B0
100
AcDbEntity
  8
0
100
AcDbLine
 62
7
  6
CONTINUOUS
 10
327.6280620317
 20
7.0678085283
 11
327.3938334601
 21
6.8415611017
  0
LINE
  5
6B1
100
AcDbEntity
  8
0
100
AcDbLine
 62
7
  6
CONTINUOUS
 10
329.7542771079
 20
9.0304898077
 11
329.6355160315
 21
8.915775417
  0
LINE
  5
6B2
100
AcDbEntity
  8
0
100
AcDbLine
 62
7
  6
CONTINUOUS
 10
329.7542771079
 20
8.9442167886
 11
329.6853001492
 21
8.8775901628
  0
LINE
  5
6B3
100
AcDbEntity
  8
0
100
AcDbLine
 62
7
  6
CONTINUOUS
 10
327.9816154223
 20
6.4032168467
 11
327.9146281242
 21
6.3385120854
  0
LINE
  5
6B4
100
AcDbEntity
  8
0
100
AcDbLine
 62
7
  6
CONTINUOUS
 10
330.6208589996
 20
8.1934359779
 11
330.5762007987
 21
8.1502994684
  0
LINE
  5
6B5
100
AcDbEntity
  8
0
100
AcDbLine
 62
7
  6
CONTINUOUS
 10
330.7652893374
 20
8.0711815712
 11
330.7118882466
 21
8.0196000785
  0
LINE
  5
6B6
100
AcDbEntity
  8
0
100
AcDbLine
 62
7
  6
CONTINUOUS
 10
330.8615762067
 20
8.0299394063
 11
330.7877397937
 21
7.9586189081
  0
LINE
  5
6B7
100
AcDbEntity
  8
0
100
AcDbLine
 62
7
  6
CONTINUOUS
 10
330.9097196583
 20
8.0697094346
 11
330.7915813868
 21
7.9555966272
  0
LINE
  5
6B8
100
AcDbEntity
  8
0
100
AcDbLine
 62
7
  6
CONTINUOUS
 10
316.8288865583
 20
21.6707497815
 11
316.7807431068
 21
21.6309797532
  0
LINE
  5
6B9
100
AcDbEntity
  8
0
100
AcDbLine
 62
7
  6
CONTINUOUS
 10
301.7660075946
 20
35.6509716731
 11
301.8261868879
 21
35.6791159648
  0
LINE
  5
6BA
100
AcDbEntity
  8
0
100
AcDbLine
 62
7
  6
CONTINUOUS
 10
302.7288764568
 20
34.6346387773
 11
302.6686971635
 21
34.6064944856
  0
LINE
  5
6BB
100
AcDbEntity
  8
0
100
AcDbLine
 62
7
  6
CONTINUOUS
 10
302.9695936302
 20
34.4883968371
 11
303.0297729236
 21
34.5165411288
  0
LINE
  5
6BC
100
AcDbEntity
  8
0
100
AcDbLine
 62
7
  6
CONTINUOUS
 10
303.9926417437
 20
33.4139352484
 11
303.9324624503
 21
33.3857909567
  0
LINE
  5
6BD
100
AcDbEntity
  8
0
100
AcDbLine
 62
7
  6
CONTINUOUS
 10
302.8176408892
 20
32.0901179911
 11
302.8778201826
 21
32.1182622828
  0
LINE
  5
6BE
100
AcDbEntity
  8
0
100
AcDbLine
 62
7
  6
CONTINUOUS
 10
302.7574615959
 20
31.9325641769
 11
302.8176408892
 21
31.9607084686
  0
LINE
  5
6BF
100
AcDbEntity
  8
0
100
AcDbLine
 62
7
  6
CONTINUOUS
 10
303.7203304159
 20
31.0456408135
 11
303.6601511226
 21
31.0174965372
  0
LINE
  5
6C0
100
AcDbEntity
  8
0
100
AcDbLine
 62
7
  6
CONTINUOUS
 10
331.1022934139
 20
7.8836974706
 11
331.0488923168
 21
7.8321159718
  0
LINE
  5
6C1
100
AcDbEntity
  8
0
100
AcDbLine
 62
7
  6
CONTINUOUS
 10
331.8707027188
 20
7.6936183658
 11
331.5878600064
 21
7.420413285
  0
LINE
  5
6C2
100
AcDbEntity
  8
0
100
AcDbLine
 62
7
  6
CONTINUOUS
 10
331.5171493282
 20
2.9881533372
 11
331.4501620301
 21
2.9234485759
  0
LINE
  5
6C3
100
AcDbEntity
  8
RUNDUNGEN
100
AcDbLine
 62
7
  6
CONTINUOUS
 10
337.230864305
 20
-1.8769914004
 11
339.5994365496
 21
0.4108737021
  0
LINE
  5
6C4
100
AcDbEntity
  8
KONSTRUKTIONSELEMENTE
100
AcDbLine
 62
7
  6
CONTINUOUS
 10
346.7199451238
 20
-3.8285207824
 11
343.1844112178
 21
-7.2435842918
  0
LINE
  5
6C5
100
AcDbEntity
  8
0
100
AcDbLine
 62
7
  6
CONTINUOUS
 10
330.9097196583
 20
8.0697094346
 11
330.8615762067
 21
8.0299394063
  0
LINE
  5
6C6
100
AcDbEntity
  8
0
100
AcDbLine
 62
7
  6
CONTINUOUS
 10
320.9612892093
 20
14.3278867875
 11
320.9210696653
 21
14.3137074476
  0
LINE
  5
6C7
100
AcDbEntity
  8
RUNDUNGEN
100
AcDbLine
 62
7
  6
CONTINUOUS
 10
343.1349704555
 20
-18.8801174735
 11
346.6705043614
 21
-15.465053964
  0
LINE
  5
6C8
100
AcDbEntity
  8
0
100
AcDbLine
 62
7
  6
CONTINUOUS
 10
321.4168190548
 20
13.8027045141
 11
321.3765995107
 21
13.7885251741
  0
LINE
  5
6C9
100
AcDbEntity
  8
0
100
AcDbLine
 62
7
  6
CONTINUOUS
 10
322.2877105985
 20
12.8591986056
 11
322.3279301498
 21
12.8733779459
  0
ARC
  5
6CA
100
AcDbEntity
  8
KONSTRUKTIONSELEMENTE
100
AcDbCircle
 62
7
  6
CONTINUOUS
 10
521.8130254092
 20
134.9878738876
 40
30.7197128927
100
AcDbArc
 50
259.4262461443
 51
268.6815744353
  0
ARC
  5
6CB
100
AcDbEntity
  8
KONSTRUKTIONSELEMENTE
100
AcDbCircle
 62
7
  6
CONTINUOUS
 10
497.4594591879
 20
44.6059573791
 40
28.79136
100
AcDbArc
 50
41.9721560344
 51
64.9991254185
  0
ARC
  5
6CC
100
AcDbEntity
  8
KONSTRUKTIONSELEMENTE
100
AcDbCircle
 62
7
  6
CONTINUOUS
 10
497.4594591879
 20
44.6059573791
 40
28.79136
100
AcDbArc
 50
85.0008745815
 51
108.0278439656
  0
ARC
  5
6CD
100
AcDbEntity
  8
RUNDUNGEN
100
AcDbCircle
 62
7
  6
CONTINUOUS
 10
536.4731611345
 20
126.3397202544
 40
27.7566678187
100
AcDbArc
 50
255.0054115361
 51
255.9708056369
  0
ARC
  5
6CE
100
AcDbEntity
  8
RUNDUNGEN
100
AcDbCircle
 62
7
  6
CONTINUOUS
 10
504.539237454
 20
134.8954271984
 40
27.7557384842
100
AcDbArc
 50
254.029932686
 51
254.9945997237
  0
ARC
  5
6CF
100
AcDbEntity
  8
BEZUGSACHSEN
100
AcDbCircle
 62
7
  6
CONTINUOUS
 10
516.6486551857
 20
116.2210117992
 40
12.75
100
AcDbArc
 50
119.9044389838
 51
30.0955610162
  0
ARC
  5
6D0
100
AcDbEntity
  8
0
100
AcDbCircle
 62
7
  6
CONTINUOUS
 10
544.2775882504
 20
219.3335937556
 40
9.0
100
AcDbArc
 50
345.0
 51
165.0
  0
ARC
  5
6D1
100
AcDbEntity
  8
0
100
AcDbCircle
 62
7
  6
CONTINUOUS
 10
517.6192266048
 20
119.8432336478
 40
9.0
100
AcDbArc
 50
165.0
 51
345.0
  0
ARC
  5
6D2
100
AcDbEntity
  8
RUNDUNGEN
100
AcDbCircle
 62
7
  6
CONTINUOUS
 10
495.3750590431
 20
102.5098263231
 40
6.0
100
AcDbArc
 50
101.2394469635
 51
165.0
  0
ARC
  5
6D3
100
AcDbEntity
  8
RUNDUNGEN
100
AcDbCircle
 62
7
  6
CONTINUOUS
 10
528.2165371369
 20
93.7099787896
 40
6.0
100
AcDbArc
 50
345.0
 51
48.7605530365
  0
ARC
  5
6D4
100
AcDbEntity
  8
KONSTRUKTIONSELEMENTE
100
AcDbCircle
 62
7
  6
CONTINUOUS
 10
510.0332403929
 20
91.5319476793
 40
5.0
100
AcDbArc
 50
345.0000014742
 51
165.0
  0
ARC
  5
6D5
100
AcDbEntity
  8
RUNDUNGEN
100
AcDbCircle
 62
7
  6
CONTINUOUS
 10
495.0084211499
 20
104.3557572193
 40
4.1180105821
100
AcDbArc
 50
98.1855758857
 51
101.2420010499
  0
ARC
  5
6D6
100
AcDbEntity
  8
RUNDUNGEN
100
AcDbCircle
 62
7
  6
CONTINUOUS
 10
529.4570203144
 20
95.1252828927
 40
4.1180105822
100
AcDbArc
 50
48.7579989501
 51
51.8144241143
  0
ARC
  5
6D7
100
AcDbEntity
  8
KONSTRUKTIONSELEMENTE
100
AcDbCircle
 62
7
  6
CONTINUOUS
 10
494.5764610828
 20
33.8464619729
 40
2.5
100
AcDbArc
 50
165.0
 51
345.0
  0
ARC
  5
6D8
100
AcDbEntity
  8
KONSTRUKTIONSELEMENTE
100
AcDbCircle
 62
7
  6
CONTINUOUS
 10
500.4036607713
 20
55.5938672761
 40
2.5
100
AcDbArc
 50
345.0
 51
165.0
  0
ARC
  5
6D9
100
AcDbEntity
  8
KONSTRUKTIONSELEMENTE
100
AcDbCircle
 62
7
  6
CONTINUOUS
 10
510.4070597965
 20
92.9270606866
 40
2.5
100
AcDbArc
 50
165.0
 51
345.0
  0
ARC
  5
6DA
100
AcDbEntity
  8
KONSTRUKTIONSELEMENTE
100
AcDbCircle
 62
7
  6
CONTINUOUS
 10
502.4988023349
 20
63.4130420405
 40
2.25
100
AcDbArc
 50
165.0
 51
345.0
  0
ARC
  5
6DB
100
AcDbEntity
  8
KONSTRUKTIONSELEMENTE
100
AcDbCircle
 62
7
  6
CONTINUOUS
 10
508.220411882
 20
84.7663795712
 40
2.25
100
AcDbArc
 50
64.84376417
 51
85.15623583
  0
CIRCLE
  5
6DC
100
AcDbEntity
  8
BEZUGSACHSEN
100
AcDbCircle
 62
7
  6
CONTINUOUS
 10
492.9837035239
 20
85.0850187551
 40
1.75
  0
ARC
  5
6DD
100
AcDbEntity
  8
0
100
AcDbCircle
 62
7
  6
CONTINUOUS
 10
502.7141673621
 20
25.6947992168
 40
1.7033694965
100
AcDbArc
 50
335.5636876714
 51
340.3957076166
  0
ARC
  5
6DE
100
AcDbEntity
  8
0
100
AcDbCircle
 62
7
  6
CONTINUOUS
 10
484.578288136
 20
30.031053311
 40
0.3335678168
100
AcDbArc
 50
63.8903114983
 51
74.9692795105
  0
ARC
  5
6DF
100
AcDbEntity
  8
KONSTRUKTIONSELEMENTE
100
AcDbCircle
 62
7
  6
CONTINUOUS
 10
635.6125930705
 20
44.6059573791
 40
28.79136
100
AcDbArc
 50
115.0008745815
 51
138.0278439656
  0
ARC
  5
6E0
100
AcDbEntity
  8
KONSTRUKTIONSELEMENTE
100
AcDbCircle
 62
7
  6
CONTINUOUS
 10
635.6125930705
 20
44.6059573791
 40
28.79136
100
AcDbArc
 50
71.9721560344
 51
94.9991254185
  0
ARC
  5
6E1
100
AcDbEntity
  8
0
100
AcDbCircle
 62
7
  6
CONTINUOUS
 10
596.5988911239
 20
126.3397202544
 40
27.7566678187
100
AcDbArc
 50
284.0291943631
 51
284.9945884639
  0
ARC
  5
6E2
100
AcDbEntity
  8
0
100
AcDbCircle
 62
7
  6
CONTINUOUS
 10
628.5328148044
 20
134.8954271984
 40
27.7557384842
100
AcDbArc
 50
285.0054002763
 51
285.970067314
  0
ARC
  5
6E3
100
AcDbEntity
  8
BEZUGSACHSEN
100
AcDbCircle
 62
7
  6
CONTINUOUS
 10
616.4233970727
 20
116.2210117992
 40
12.75
100
AcDbArc
 50
149.9044389838
 51
60.0955610162
  0
ARC
  5
6E4
100
AcDbEntity
  8
0
100
AcDbCircle
 62
7
  6
CONTINUOUS
 10
588.794464008
 20
219.3335937556
 40
9.0
100
AcDbArc
 50
15.0
 51
195.0
  0
ARC
  5
6E5
100
AcDbEntity
  8
0
100
AcDbCircle
 62
7
  6
CONTINUOUS
 10
615.4528256536
 20
119.8432336478
 40
9.0
100
AcDbArc
 50
195.0
 51
15.0
  0
ARC
  5
6E6
100
AcDbEntity
  8
0
100
AcDbCircle
 62
7
  6
CONTINUOUS
 10
604.8555151215
 20
93.7099787896
 40
6.0
100
AcDbArc
 50
131.2394469635
 51
195.0
  0
ARC
  5
6E7
100
AcDbEntity
  8
0
100
AcDbCircle
 62
7
  6
CONTINUOUS
 10
637.6969932153
 20
102.5098263231
 40
6.0
100
AcDbArc
 50
15.0
 51
78.7605530365
  0
ARC
  5
6E8
100
AcDbEntity
  8
0
100
AcDbCircle
 62
7
  6
CONTINUOUS
 10
623.0388118655
 20
91.5319476793
 40
5.0
100
AcDbArc
 50
15.0
 51
194.9999985258
  0
ARC
  5
6E9
100
AcDbEntity
  8
0
100
AcDbCircle
 62
7
  6
CONTINUOUS
 10
603.615031944
 20
95.1252828927
 40
4.1180105822
100
AcDbArc
 50
128.1855758857
 51
131.2420010499
  0
ARC
  5
6EA
100
AcDbEntity
  8
0
100
AcDbCircle
 62
7
  6
CONTINUOUS
 10
638.0636311085
 20
104.3557572193
 40
4.1180105821
100
AcDbArc
 50
78.7579989501
 51
81.8144241143
  0
CIRCLE
  5
6EB
100
AcDbEntity
  8
BEZUGSACHSEN
100
AcDbCircle
 62
7
  6
CONTINUOUS
 10
640.0883487345
 20
85.0850187551
 40
1.75
  0
ARC
  5
6EC
100
AcDbEntity
  8
0
100
AcDbCircle
 62
7
  6
CONTINUOUS
 10
566.5360261292
 20
302.4032148165
 40
121.0
100
AcDbArc
 50
180.0
 51
250.7338817204
  0
ARC
  5
6ED
100
AcDbEntity
  8
0
100
AcDbCircle
 62
7
  6
CONTINUOUS
 10
566.5360261292
 20
302.4032148165
 40
121.0
100
AcDbArc
 50
259.2658895412
 51
280.7341104588
  0
ARC
  5
6EE
100
AcDbEntity
  8
0
100
AcDbCircle
 62
7
  6
CONTINUOUS
 10
566.5360261292
 20
302.4032148165
 40
121.0
100
AcDbArc
 50
289.2661182796
 51
360.0
  0
ARC
  5
6EF
100
AcDbEntity
  8
0
100
AcDbCircle
 62
7
  6
CONTINUOUS
 10
566.5360261292
 20
462.4032148165
 40
121.0
100
AcDbArc
 50
0.0
 51
180.0
  0
ARC
  5
6F0
100
AcDbEntity
  8
0
100
AcDbCircle
 62
7
  6
CONTINUOUS
 10
566.5360261292
 20
302.4032148165
 40
95.0
100
AcDbArc
 50
180.0
 51
249.5632151238
  0
ARC
  5
6F1
100
AcDbEntity
  8
0
100
AcDbCircle
 62
7
  6
CONTINUOUS
 10
566.5360261292
 20
302.4032148165
 40
95.0
100
AcDbArc
 50
260.4370817534
 51
279.5629182466
  0
ARC
  5
6F2
100
AcDbEntity
  8
0
100
AcDbCircle
 62
7
  6
CONTINUOUS
 10
566.5360261292
 20
302.4032148165
 40
95.0
100
AcDbArc
 50
290.4367848762
 51
360.0
  0
ARC
  5
6F3
100
AcDbEntity
  8
0
100
AcDbCircle
 62
7
  6
CONTINUOUS
 10
566.5360261292
 20
462.4032148165
 40
95.0
100
AcDbArc
 50
0.0
 51
180.0
  0
ARC
  5
6F4
100
AcDbEntity
  8
0
100
AcDbCircle
 62
7
  6
CONTINUOUS
 10
128.6756589566
 20
116.0979707065
 40
54.3993931242
100
AcDbArc
 50
1.142958506
 51
7.929924865
  0
ARC
  5
6F5
100
AcDbEntity
  8
0
100
AcDbCircle
 62
7
  6
CONTINUOUS
 10
180.5498515449
 20
107.4463784029
 40
35.461084459
100
AcDbArc
 50
268.7073008821
 51
271.2926991179
  0
ARC
  5
6F6
100
AcDbEntity
  8
0
100
AcDbCircle
 62
7
  6
CONTINUOUS
 10
180.5498515449
 20
28.4030625667
 40
35.461084459
100
AcDbArc
 50
88.7073008821
 51
91.2926991179
  0
ARC
  5
6F7
100
AcDbEntity
  8
KONSTRUKTIONSELEMENTE
100
AcDbCircle
 62
7
  6
CONTINUOUS
 10
225.1948674164
 20
63.2645338177
 40
33.1455707138
100
AcDbArc
 50
44.5353474264
 51
45.9812535784
  0
ARC
  5
6F8
100
AcDbEntity
  8
0
100
AcDbCircle
 62
7
  6
CONTINUOUS
 10
180.5498515449
 20
194.4032148165
 40
13.0
100
AcDbArc
 50
180.0
 51
360.0
  0
ARC
  5
6F9
100
AcDbEntity
  8
KONSTRUKTIONSELEMENTE
100
AcDbCircle
 62
7
  6
CONTINUOUS
 10
179.6278379217
 20
75.4573555135
 40
12.9220164464
100
AcDbArc
 50
352.3402638648
 51
0.0378745745
  0
ARC
  5
6FA
100
AcDbEntity
  8
KONSTRUKTIONSELEMENTE
100
AcDbCircle
 62
7
  6
CONTINUOUS
 10
221.4974519414
 20
107.8636003644
 40
9.0964505594
100
AcDbArc
 50
177.1004097402
 51
179.9796392337
  0
ARC
  5
6FB
100
AcDbEntity
  8
BEZUGSACHSEN
100
AcDbCircle
 62
7
  6
CONTINUOUS
 10
180.5498515449
 20
135.2210117992
 40
6.25
100
AcDbArc
 50
0.0
 51
28.0724869359
  0
ARC
  5
6FC
100
AcDbEntity
  8
BEZUGSACHSEN
100
AcDbCircle
 62
7
  6
CONTINUOUS
 10
180.5498515449
 20
135.2210117992
 40
6.25
100
AcDbArc
 50
151.9275130641
 51
180.0
  0
ARC
  5
6FD
100
AcDbEntity
  8
BEZUGSACHSEN
100
AcDbCircle
 62
7
  6
CONTINUOUS
 10
180.9110037837
 20
86.984553615
 40
5.3295000261
100
AcDbArc
 50
4.4686945854
 51
5.8512461556
  0
ARC
  5
6FE
100
AcDbEntity
  8
BEZUGSACHSEN
100
AcDbCircle
 62
7
  6
CONTINUOUS
 10
180.1886993059
 20
86.984553615
 40
5.3295000258
100
AcDbArc
 50
174.1487538443
 51
175.5313054146
  0
ARC
  5
6FF
100
AcDbEntity
  8
BEZUGSACHSEN
100
AcDbCircle
 62
7
  6
CONTINUOUS
 10
180.9233192892
 20
86.9854739938
 40
5.3171502485
100
AcDbArc
 50
2.1757275003
 51
4.4691468841
  0
ARC
  5
700
100
AcDbEntity
  8
BEZUGSACHSEN
100
AcDbCircle
 62
7
  6
CONTINUOUS
 10
180.1763838005
 20
86.9854739938
 40
5.3171502484
100
AcDbArc
 50
175.5308531159
 51
177.8242724997
  0
ARC
  5
701
100
AcDbEntity
  8
0
100
AcDbCircle
 62
7
  6
CONTINUOUS
 10
175.1498515449
 20
104.9098263231
 40
3.6
100
AcDbArc
 50
98.2471303551
 51
180.0
  0
ARC
  5
702
100
AcDbEntity
  8
RUNDUNGEN
100
AcDbCircle
 62
7
  6
CONTINUOUS
 10
185.9498515449
 20
104.9098263231
 40
3.6
100
AcDbArc
 50
0.0
 51
81.7528696449
  0
ARC
  5
703
100
AcDbEntity
  8
RUNDUNGEN
100
AcDbCircle
 62
7
  6
CONTINUOUS
 10
186.3997870351
 20
107.198200408
 40
1.2783509896
100
AcDbArc
 50
105.2027779704
 51
110.6075832392
  0
ARC
  5
704
100
AcDbEntity
  8
0
100
AcDbCircle
 62
7
  6
CONTINUOUS
 10
174.6999160548
 20
107.198200408
 40
1.2783509896
100
AcDbArc
 50
69.3924167608
 51
74.7972220296
  0
ARC
  5
705
100
AcDbEntity
  8
0
100
AcDbCircle
 62
7
  6
CONTINUOUS
 10
180.5498515449
 20
570.4032148165
 40
13.0
100
AcDbArc
 50
0.0
 51
180.0
  0
ARC
  5
706
100
AcDbEntity
  8
KONSTRUKTIONSELEMENTE
100
AcDbCircle
 62
7
  6
CONTINUOUS
 10
284.0855059058
 20
196.6311622137
 40
113.8296800947
100
AcDbArc
 50
224.0485547219
 51
225.9785494446
  0
ARC
  5
707
100
AcDbEntity
  8
KONSTRUKTIONSELEMENTE
100
AcDbCircle
 62
7
  6
CONTINUOUS
 10
283.8541805984
 20
196.398212693
 40
107.5014167104
100
AcDbArc
 50
224.338048337
 51
225.9801205858
  0
ARC
  5
708
100
AcDbEntity
  8
0
100
AcDbCircle
 62
7
  6
CONTINUOUS
 10
232.4240441332
 20
116.0979707065
 40
54.3993931242
100
AcDbArc
 50
172.070075135
 51
178.857041494
  0
ARC
  5
709
100
AcDbEntity
  8
KONSTRUKTIONSELEMENTE
100
AcDbCircle
 62
7
  6
CONTINUOUS
 10
287.8958684676
 20
61.3973701708
 40
15.6688141219
100
AcDbArc
 50
233.3753354952
 51
233.5160582161
  0
ARC
  5
70A
100
AcDbEntity
  8
KONSTRUKTIONSELEMENTE
100
AcDbCircle
 62
7
  6
CONTINUOUS
 10
227.9332899166
 20
89.5625508659
 40
12.2468399675
100
AcDbArc
 50
55.2809419386
 51
55.5610984191
  0
ARC
  5
70B
100
AcDbEntity
  8
KONSTRUKTIONSELEMENTE
100
AcDbCircle
 62
7
  6
CONTINUOUS
 10
228.1235798705
 20
89.8399746806
 40
11.9104261788
100
AcDbArc
 50
55.5613249794
 51
55.7966521659
  0
ARC
  5
70C
100
AcDbEntity
  8
KONSTRUKTIONSELEMENTE
100
AcDbCircle
 62
7
  6
CONTINUOUS
 10
291.4565620915
 20
40.9402991567
 40
9.5798813339
100
AcDbArc
 50
226.0538046676
 51
249.0189934888
  0
ARC
  5
70D
100
AcDbEntity
  8
KONSTRUKTIONSELEMENTE
100
AcDbCircle
 62
7
  6
CONTINUOUS
 10
230.5899619642
 20
99.6234876766
 40
9.3523666121
100
AcDbArc
 50
45.4559945701
 51
45.9929150437
  0
ARC
  5
70E
100
AcDbEntity
  8
KONSTRUKTIONSELEMENTE
100
AcDbCircle
 62
7
  6
CONTINUOUS
 10
291.7546985395
 20
40.5428889657
 40
9.3523666082
100
AcDbArc
 50
45.45599457
 51
45.9929150438
  0
ARC
  5
70F
100
AcDbEntity
  8
BEZUGSACHSEN
100
AcDbCircle
 62
7
  6
CONTINUOUS
 10
290.7787641699
 20
33.2256595305
 40
9.1894698557
100
AcDbArc
 50
54.7974011487
 51
55.4088814217
  0
ARC
  5
710
100
AcDbEntity
  8
KONSTRUKTIONSELEMENTE
100
AcDbCircle
 62
7
  6
CONTINUOUS
 10
282.6785937657
 20
48.7809344645
 40
9.1128567777
100
AcDbArc
 50
155.3174888113
 51
179.9666787515
  0
ARC
  5
711
100
AcDbEntity
  8
KONSTRUKTIONSELEMENTE
100
AcDbCircle
 62
7
  6
CONTINUOUS
 10
262.4046466354
 20
68.8756110318
 40
7.8374984543
100
AcDbArc
 50
45.4162894929
 51
45.9929054453
  0
ARC
  5
712
100
AcDbEntity
  8
KONSTRUKTIONSELEMENTE
100
AcDbCircle
 62
7
  6
CONTINUOUS
 10
251.2454415803
 20
79.2113175649
 40
7.6313179319
100
AcDbArc
 50
159.7096533879
 51
179.9791956236
  0
ARC
  5
713
100
AcDbEntity
  8
KONSTRUKTIONSELEMENTE
100
AcDbCircle
 62
7
  6
CONTINUOUS
 10
291.3856737841
 20
40.8556129251
 40
4.469743573
100
AcDbArc
 50
227.0651411622
 51
231.4022607278
  0
ARC
  5
714
100
AcDbEntity
  8
KONSTRUKTIONSELEMENTE
100
AcDbCircle
 62
7
  6
CONTINUOUS
 10
291.3304165641
 20
40.7951443759
 40
4.3878335165
100
AcDbArc
 50
225.9937050332
 51
227.0555598991
  0
ARC
  5
715
100
AcDbEntity
  8
KONSTRUKTIONSELEMENTE
100
AcDbCircle
 62
7
  6
CONTINUOUS
 10
230.1656799918
 20
99.8757430899
 40
4.3878335169
100
AcDbArc
 50
225.9937050332
 51
227.055559899
  0
ARC
  5
716
100
AcDbEntity
  8
KONSTRUKTIONSELEMENTE
100
AcDbCircle
 62
7
  6
CONTINUOUS
 10
230.8012715437
 20
99.7401649919
 40
4.1141852318
100
AcDbArc
 50
334.689527825
 51
359.9772912731
  0
ARC
  5
717
100
AcDbEntity
  8
KONSTRUKTIONSELEMENTE
100
AcDbCircle
 62
7
  6
CONTINUOUS
 10
291.9715268151
 20
40.6587638262
 40
4.1086662935
100
AcDbArc
 50
336.80994171
 51
359.9884510473
  0
ARC
  5
718
100
AcDbEntity
  8
KONSTRUKTIONSELEMENTE
100
AcDbCircle
 62
7
  6
CONTINUOUS
 10
282.6501171853
 20
48.7848277393
 40
4.0843599275
100
AcDbArc
 50
179.6607782886
 51
180.0341463991
  0
ARC
  5
719
100
AcDbEntity
  8
KONSTRUKTIONSELEMENTE
100
AcDbCircle
 62
7
  6
CONTINUOUS
 10
262.0539979501
 20
69.0766105096
 40
3.3624399508
100
AcDbArc
 50
225.9940708965
 51
227.2341816412
  0
ARC
  5
71A
100
AcDbEntity
  8
KONSTRUKTIONSELEMENTE
100
AcDbCircle
 62
7
  6
CONTINUOUS
 10
262.5919109513
 20
68.9677951083
 40
3.1286794214
100
AcDbArc
 50
342.3964861857
 51
359.9749659755
  0
ARC
  5
71B
100
AcDbEntity
  8
0
100
AcDbCircle
 62
7
  6
CONTINUOUS
 10
307.2054431016
 20
23.8702634892
 40
2.5172706553
100
AcDbArc
 50
70.0708809342
 51
72.5176033156
  0
ARC
  5
71C
100
AcDbEntity
  8
0
100
AcDbCircle
 62
7
  6
CONTINUOUS
 10
307.3418334304
 20
24.2974991506
 40
2.0687966491
100
AcDbArc
 50
72.5658848131
 51
74.2788351735
  0
ARC
  5
71D
100
AcDbEntity
  8
0
100
AcDbCircle
 62
7
  6
CONTINUOUS
 10
321.7935668661
 20
10.3518929169
 40
1.945545064
100
AcDbArc
 50
72.2103624257
 51
73.4471043843
  0
ARC
  5
71E
100
AcDbEntity
  8
RUNDUNGEN
100
AcDbCircle
 62
7
  6
CONTINUOUS
 10
296.0320922203
 20
44.7987825019
 40
1.8737823826
100
AcDbArc
 50
246.097207147
 51
246.3363805375
  0
ARC
  5
71F
100
AcDbEntity
  8
0
100
AcDbCircle
 62
7
  6
CONTINUOUS
 10
322.5203238402
 20
11.0756808473
 40
1.1798162262
100
AcDbArc
 50
78.3737944134
 51
79.1173689699
  0
SPLINE
  5
720
100
AcDbEntity
  8
KONSTRUKTIONSELEMENTE
100
AcDbSpline
 62
7
  6
CONTINUOUS
 70
0
 71
3
 72
13
 73
9
 74
0
 42
0.0000001
 43
0.0000001
 44
0.0000000001
 40
0.0
 40
0.0
 40
0.0
 40
0.0
 40
0.1194785188
 40
0.2392741704
 40
0.3602835725
 40
0.4830059608
 40
0.7355440041
 40
1.0
 40
1.0
 40
1.0
 40
1.0
 10
494.9785163207
 20
66.2565789892
 30
0.0
 10
495.0713390824
 20
66.602998252
 30
0.0
 10
495.3313225126
 20
67.2792592527
 30
0.0
 10
495.9234702802
 20
68.1926178274
 30
0.0
 10
496.689222902
 20
68.9795605678
 30
0.0
 10
497.9120259738
 20
69.8428722371
 30
0.0
 10
499.7391756624
 20
70.5328231251
 30
0.0
 10
501.3053312876
 20
70.6593081135
 30
0.0
 10
502.0985534204
 20
70.6285139789
 30
0.0
  0
SPLINE
  5
721
100
AcDbEntity
  8
KONSTRUKTIONSELEMENTE
100
AcDbSpline
 62
7
  6
CONTINUOUS
 70
0
 71
3
 72
13
 73
9
 74
0
 42
0.0000001
 43
0.0000001
 44
0.0000000001
 40
0.0
 40
0.0
 40
0.0
 40
0.0
 40
0.2644681654
 40
0.5169944072
 40
0.6397129492
 40
0.760706397
 40
0.8805228501
 40
1.0
 40
1.0
 40
1.0
 40
1.0
 10
506.4514002526
 20
69.4626186093
 30
0.0
 10
507.1539930371
 20
69.0926890681
 30
0.0
 10
508.4475567349
 20
68.20015713
 30
0.0
 10
509.6854504089
 20
66.6889200533
 30
0.0
 10
510.3130238234
 20
65.329736496
 30
0.0
 10
510.5830082191
 20
64.2651631488
 30
0.0
 10
510.6391140653
 20
63.1778387959
 30
0.0
 10
510.5261716262
 20
62.4619656456
 30
0.0
 10
510.4333295413
 20
62.1154742676
 30
0.0
  0
SPLINE
  5
722
100
AcDbEntity
  8
KONSTRUKTIONSELEMENTE
100
AcDbSpline
 62
7
  6
CONTINUOUS
 70
0
 71
3
 72
10
 73
6
 74
0
 42
0.0000001
 43
0.0000001
 44
0.0000000001
 40
0.0
 40
0.0
 40
0.0
 40
0.0
 40
0.3116645009
 40
0.6060899939
 40
1.0
 40
1.0
 40
1.0
 40
1.0
 10
499.325182539
 20
65.0918932863
 30
0.0
 10
499.3762099681
 20
65.2823302442
 30
0.0
 10
499.6534549351
 20
65.5924678437
 30
0.0
 10
500.2074860473
 20
65.8931941298
 30
0.0
 10
500.6318516952
 20
66.0149178879
 30
0.0
 10
500.8767980495
 20
66.0606681394
 30
0.0
  0
SPLINE
  5
723
100
AcDbEntity
  8
KONSTRUKTIONSELEMENTE
100
AcDbSpline
 62
7
  6
CONTINUOUS
 70
0
 71
3
 72
10
 73
6
 74
0
 42
0.0000001
 43
0.0000001
 44
0.0000000001
 40
0.0
 40
0.0
 40
0.0
 40
0.0
 40
0.3939255147
 40
0.6883533687
 40
1.0
 40
1.0
 40
1.0
 40
1.0
 10
505.2271068851
 20
64.8951222766
 30
0.0
 10
505.416408332
 20
64.7330138453
 30
0.0
 10
505.7231078112
 20
64.4153649884
 30
0.0
 10
506.0526665639
 20
63.8778766938
 30
0.0
 10
506.1376950116
 20
63.4706128252
 30
0.0
 10
506.086663323
 20
63.2801599706
 30
0.0
  0
SPLINE
  5
724
100
AcDbEntity
  8
KONSTRUKTIONSELEMENTE
100
AcDbSpline
 62
7
  6
CONTINUOUS
 70
0
 71
3
 72
10
 73
6
 74
0
 42
0.0000001
 43
0.0000001
 44
0.0000000001
 40
0.0
 40
0.0
 40
0.0
 40
0.0
 40
0.3192646009
 40
0.6086079864
 40
1.0
 40
1.0
 40
1.0
 40
1.0
 10
503.3414727946
 20
53.0349694422
 30
0.0
 10
503.29702327
 20
52.8690815579
 30
0.0
 10
503.076804149
 20
52.5959194733
 30
0.0
 10
502.6216555951
 20
52.3106478532
 30
0.0
 10
502.2735632578
 20
52.1833637662
 30
0.0
 10
502.0700928347
 20
52.1292679191
 30
0.0
  0
SPLINE
  5
725
100
AcDbEntity
  8
KONSTRUKTIONSELEMENTE
100
AcDbSpline
 62
7
  6
CONTINUOUS
 70
0
 71
3
 72
10
 73
6
 74
0
 42
0.0000001
 43
0.0000001
 44
0.0000000001
 40
0.0
 40
0.0
 40
0.0
 40
0.0
 40
0.3914026107
 40
0.6807340322
 40
1.0
 40
1.0
 40
1.0
 40
1.0
 10
497.2281137557
 20
53.4267266252
 30
0.0
 10
497.0789600834
 20
53.5753086557
 30
0.0
 10
496.8411968862
 20
53.859592094
 30
0.0
 10
496.589634326
 20
54.3341705034
 30
0.0
 10
496.5355450715
 20
54.6808245228
 30
0.0
 10
496.5799920106
 20
54.8467027579
 30
0.0
  0
SPLINE
  5
726
100
AcDbEntity
  8
KONSTRUKTIONSELEMENTE
100
AcDbSpline
 62
7
  6
CONTINUOUS
 70
0
 71
3
 72
13
 73
9
 74
0
 42
0.0000001
 43
0.0000001
 44
0.0000000001
 40
0.0
 40
0.0
 40
0.0
 40
0.0
 40
0.1197290731
 40
0.2397365246
 40
0.3609040964
 40
0.4836831257
 40
0.7359942557
 40
1.0
 40
1.0
 40
1.0
 40
1.0
 10
507.6881390129
 20
51.8702837392
 30
0.0
 10
507.597755856
 20
51.5329692055
 30
0.0
 10
507.3465886883
 20
50.8741875763
 30
0.0
 10
506.777684941
 20
49.9807699866
 30
0.0
 10
506.0427363043
 20
49.2060112071
 30
0.0
 10
504.8688210093
 20
48.3478263978
 30
0.0
 10
503.1102681129
 20
47.6417717339
 30
0.0
 10
501.5944085141
 20
47.4821193197
 30
0.0
 10
500.8244435131
 20
47.4917609666
 30
0.0
  0
SPLINE
  5
727
100
AcDbEntity
  8
KONSTRUKTIONSELEMENTE
100
AcDbSpline
 62
7
  6
CONTINUOUS
 70
0
 71
3
 72
13
 73
9
 74
0
 42
0.0000001
 43
0.0000001
 44
0.0000000001
 40
0.0
 40
0.0
 40
0.0
 40
0.0
 40
0.2640112835
 40
0.5163080567
 40
0.6390830379
 40
0.7602378991
 40
0.8802701562
 40
1.0
 40
1.0
 40
1.0
 40
1.0
 10
495.9873903683
 20
48.7881013599
 30
0.0
 10
495.315859218
 20
49.1647758855
 30
0.0
 10
494.0831211544
 20
50.0609344684
 30
0.0
 10
492.9134884377
 20
51.5515960954
 30
0.0
 10
492.3261023102
 20
52.8815555916
 30
0.0
 10
492.0769642641
 20
53.9198951105
 30
0.0
 10
492.0311237111
 20
54.9780017305
 30
0.0
 10
492.1429516694
 20
55.6741076424
 30
0.0
 10
492.2333257923
 20
56.0113884609
 30
0.0
  0
SPLINE
  5
728
100
AcDbEntity
  8
KONSTRUKTIONSELEMENTE
100
AcDbSpline
 62
7
  6
CONTINUOUS
 70
0
 71
3
 72
10
 73
6
 74
0
 42
0.0000001
 43
0.0000001
 44
0.0000000001
 40
0.0
 40
0.0
 40
0.0
 40
0.0
 40
0.3192646009
 40
0.6086079864
 40
1.0
 40
1.0
 40
1.0
 40
1.0
 10
507.3777414222
 20
95.1444521695
 30
0.0
 10
507.4221909469
 20
95.3103400538
 30
0.0
 10
507.6424100679
 20
95.5835021384
 30
0.0
 10
508.0975586218
 20
95.8687737585
 30
0.0
 10
508.4456509591
 20
95.9960578455
 30
0.0
 10
508.6491213822
 20
96.0501536926
 30
0.0
  0
SPLINE
  5
729
100
AcDbEntity
  8
KONSTRUKTIONSELEMENTE
100
AcDbSpline
 62
7
  6
CONTINUOUS
 70
0
 71
3
 72
10
 73
6
 74
0
 42
0.0000001
 43
0.0000001
 44
0.0000000001
 40
0.0
 40
0.0
 40
0.0
 40
0.0
 40
0.3914026107
 40
0.6807340322
 40
1.0
 40
1.0
 40
1.0
 40
1.0
 10
513.4911004612
 20
94.7526949865
 30
0.0
 10
513.6402541335
 20
94.6041129561
 30
0.0
 10
513.8780173307
 20
94.3198295177
 30
0.0
 10
514.1295798909
 20
93.8452511083
 30
0.0
 10
514.1836691454
 20
93.4985970889
 30
0.0
 10
514.1392222063
 20
93.3327188538
 30
0.0
  0
SPLINE
  5
72A
100
AcDbEntity
  8
KONSTRUKTIONSELEMENTE
100
AcDbSpline
 62
7
  6
CONTINUOUS
 70
0
 71
3
 72
9
 73
5
 74
0
 42
0.0000001
 43
0.0000001
 44
0.0000000001
 40
0.0
 40
0.0
 40
0.0
 40
0.0
 40
0.2518169059
 40
1.0
 40
1.0
 40
1.0
 40
1.0
 10
511.3430786961
 20
106.0846916399
 30
0.0
 10
510.948949729
 20
106.2242430419
 30
0.0
 10
509.3949482035
 20
106.8092880921
 30
0.0
 10
507.8870792477
 20
107.5176829013
 30
0.0
 10
506.7979729229
 20
108.1152043497
 30
0.0
  0
SPLINE
  5
72B
100
AcDbEntity
  8
KONSTRUKTIONSELEMENTE
100
AcDbSpline
 62
7
  6
CONTINUOUS
 70
0
 71
3
 72
9
 73
5
 74
0
 42
0.0000001
 43
0.0000001
 44
0.0000000001
 40
0.0
 40
0.0
 40
0.0
 40
0.0
 40
0.4771280743
 40
1.0
 40
1.0
 40
1.0
 40
1.0
 10
528.4344171329
 20
111.3539705994
 30
0.0
 10
526.8161727879
 20
110.7734166436
 30
0.0
 10
523.2253230379
 20
110.0927293758
 30
0.0
 10
519.5936372448
 20
110.2981272182
 30
0.0
 10
517.735135931
 20
110.6074094922
 30
0.0
  0
SPLINE
  5
72C
100
AcDbEntity
  8
KONSTRUKTIONSELEMENTE
100
AcDbSpline
 62
7
  6
CONTINUOUS
 70
0
 71
3
 72
9
 73
5
 74
0
 42
0.0000001
 43
0.0000001
 44
0.0000000001
 40
0.0
 40
0.0
 40
0.0
 40
0.0
 40
0.5228783463
 40
1.0
 40
1.0
 40
1.0
 40
1.0
 10
512.901252394
 20
111.9026035047
 30
0.0
 10
511.1366463463
 20
112.5641574257
 30
0.0
 10
507.8880227934
 20
114.2025493891
 30
0.0
 10
505.1181251407
 20
116.5883192167
 30
0.0
 10
504.006879783
 20
117.9006616081
 30
0.0
  0
SPLINE
  5
72D
100
AcDbEntity
  8
0
100
AcDbSpline
 62
7
  6
CONTINUOUS
 70
0
 71
3
 72
11
 73
7
 74
0
 42
0.0000001
 43
0.0000001
 44
0.0000000001
 40
0.0
 40
0.0
 40
0.0
 40
0.0
 40
0.2192989281
 40
0.4548225453
 40
0.7152180566
 40
1.0
 40
1.0
 40
1.0
 40
1.0
 10
504.2856376484
 20
24.9786915606
 30
0.0
 10
504.3454691793
 20
25.2019858739
 30
0.0
 10
504.3703194634
 20
25.6963642937
 30
0.0
 10
504.115597446
 20
26.4217114883
 30
0.0
 10
503.6116234536
 20
27.0856190328
 30
0.0
 10
503.1551103844
 20
27.444771653
 30
0.0
 10
502.9008992864
 20
27.6044475738
 30
0.0
  0
SPLINE
  5
72E
100
AcDbEntity
  8
0
100
AcDbSpline
 62
7
  6
CONTINUOUS
 70
0
 71
3
 72
17
 73
13
 74
0
 42
0.0000001
 43
0.0000001
 44
0.0000000001
 40
0.0
 40
0.0
 40
0.0
 40
0.0
 40
0.0517809237
 40
0.1054811646
 40
0.2228479209
 40
0.3562855052
 40
0.5
 40
0.6437144948
 40
0.7771520791
 40
0.8945188354
 40
0.9482190763
 40
1.0
 40
1.0
 40
1.0
 40
1.0
 10
494.031784002
 20
27.1199689064
 30
0.0
 10
494.0136492652
 20
27.0522891472
 30
0.0
 10
493.9962267016
 20
26.9084459334
 30
0.0
 10
494.0417078884
 20
26.6071805621
 30
0.0
 10
494.2546712681
 20
26.2380499562
 30
0.0
 10
494.674894654
 20
25.8954830958
 30
0.0
 10
495.2068441478
 20
25.6724973656
 30
0.0
 10
495.779018788
 20
25.5996339258
 30
0.0
 10
496.3142263456
 20
25.6861938364
 30
0.0
 10
496.6832233455
 20
25.8993886286
 30
0.0
 10
496.8732438943
 20
26.1375515
 30
0.0
 10
496.9300771185
 20
26.2708346591
 30
0.0
 10
496.9482118553
 20
26.3385144183
 30
0.0
  0
SPLINE
  5
72F
100
AcDbEntity
  8
0
100
AcDbSpline
 62
7
  6
CONTINUOUS
 70
0
 71
3
 72
12
 73
8
 74
0
 42
0.0000001
 43
0.0000001
 44
0.0000000001
 40
0.0
 40
0.0
 40
0.0
 40
0.0
 40
0.1035930223
 40
0.210949621
 40
0.4457011106
 40
0.7125563401
 40
1.0
 40
1.0
 40
1.0
 40
1.0
 10
492.6027267048
 20
29.2260994706
 30
0.0
 10
492.6218738918
 20
29.2976006481
 30
0.0
 10
492.640239755
 20
29.4495151239
 30
0.0
 10
492.5920596061
 20
29.7676547009
 30
0.0
 10
492.3670965356
 20
30.1574661265
 30
0.0
 10
491.9236517775
 20
30.5191512503
 30
0.0
 10
491.5526725133
 20
30.6744778054
 30
0.0
 10
491.3542833379
 20
30.7276360248
 30
0.0
  0
SPLINE
  5
730
100
AcDbEntity
  8
0
100
AcDbSpline
 62
7
  6
CONTINUOUS
 70
0
 71
3
 72
9
 73
5
 74
0
 42
0.0000001
 43
0.0000001
 44
0.0000000001
 40
0.0
 40
0.0
 40
0.0
 40
0.0
 40
0.4402133985
 40
1.0
 40
1.0
 40
1.0
 40
1.0
 10
483.7459289565
 20
29.9376441165
 30
0.0
 10
483.7411295789
 20
29.9197325955
 30
0.0
 10
483.7582634982
 20
29.8733367195
 30
0.0
 10
483.7983118688
 20
29.85333128
 30
0.0
 10
483.8210886165
 20
29.8472282688
 30
0.0
  0
SPLINE
  5
731
100
AcDbEntity
  8
0
100
AcDbSpline
 62
7
  6
CONTINUOUS
 70
0
 71
3
 72
9
 73
5
 74
0
 42
0.0000001
 43
0.0000001
 44
0.0000000001
 40
0.0
 40
0.0
 40
0.0
 40
0.0
 40
0.4402133985
 40
1.0
 40
1.0
 40
1.0
 40
1.0
 10
484.3922246116
 20
29.7996081565
 30
0.0
 10
484.3970239892
 20
29.8175196775
 30
0.0
 10
484.3798900699
 20
29.8639155535
 30
0.0
 10
484.3398416992
 20
29.8839209931
 30
0.0
 10
484.3170649516
 20
29.8900240042
 30
0.0
  0
SPLINE
  5
732
100
AcDbEntity
  8
RUNDUNGEN
100
AcDbSpline
 62
7
  6
CONTINUOUS
 70
0
 71
3
 72
10
 73
6
 74
0
 42
0.0000001
 43
0.0000001
 44
0.0000000001
 40
0.0
 40
0.0
 40
0.0
 40
0.0
 40
0.5180750537
 40
0.7617172794
 40
1.0
 40
1.0
 40
1.0
 40
1.0
 10
511.2814996394
 20
-7.2663549064
 30
0.0
 10
511.4369914254
 20
-7.5387498354
 30
0.0
 10
511.6061918619
 20
-7.9823972966
 30
0.0
 10
511.6424677911
 20
-8.590164418
 30
0.0
 10
511.59769263
 20
-8.8812779774
 30
0.0
 10
511.5603553902
 20
-9.0206224534
 30
0.0
  0
SPLINE
  5
733
100
AcDbEntity
  8
0
100
AcDbSpline
 62
7
  6
CONTINUOUS
 70
0
 71
3
 72
9
 73
5
 74
0
 42
0.0000001
 43
0.0000001
 44
0.0000000001
 40
0.0
 40
0.0
 40
0.0
 40
0.0
 40
0.4402133985
 40
1.0
 40
1.0
 40
1.0
 40
1.0
 10
484.8314550961
 20
31.438838641
 30
0.0
 10
484.8362544737
 20
31.456750162
 30
0.0
 10
484.8191205544
 20
31.503146038
 30
0.0
 10
484.7790721838
 20
31.5231514776
 30
0.0
 10
484.7562954362
 20
31.5292544887
 30
0.0
  0
SPLINE
  5
734
100
AcDbEntity
  8
RUNDUNGEN
100
AcDbSpline
 62
7
  6
CONTINUOUS
 70
0
 71
3
 72
11
 73
7
 74
0
 42
0.0000001
 43
0.0000001
 44
0.0000000001
 40
0.0
 40
0.0
 40
0.0
 40
0.0
 40
0.2793755914
 40
0.5367190118
 40
0.774320888
 40
1.0
 40
1.0
 40
1.0
 40
1.0
 10
531.4140687741
 20
33.6878430128
 30
0.0
 10
531.47741963
 20
33.6321075525
 30
0.0
 10
531.5892414616
 20
33.5127305923
 30
0.0
 10
531.7063061211
 20
33.3073875201
 30
0.0
 10
531.7586853491
 20
33.0928242152
 30
0.0
 10
531.7461548406
 20
32.950306495
 30
0.0
 10
531.7285526788
 20
32.8844575314
 30
0.0
  0
SPLINE
  5
735
100
AcDbEntity
  8
RUNDUNGEN
100
AcDbSpline
 62
7
  6
CONTINUOUS
 70
0
 71
3
 72
10
 73
6
 74
0
 42
0.0000001
 43
0.0000001
 44
0.0000000001
 40
0.0
 40
0.0
 40
0.0
 40
0.0
 40
0.4809192537
 40
0.7459271807
 40
1.0
 40
1.0
 40
1.0
 40
1.0
 10
524.8046776758
 20
38.2662825062
 30
0.0
 10
525.0492311195
 20
38.4090785777
 30
0.0
 10
525.5278931815
 20
38.4596493856
 30
0.0
 10
526.0946371134
 20
38.2970426209
 30
0.0
 10
526.3606095427
 20
38.133826771
 30
0.0
 10
526.4729367126
 20
38.0350024311
 30
0.0
  0
SPLINE
  5
736
100
AcDbEntity
  8
0
100
AcDbSpline
 62
7
  6
CONTINUOUS
 70
0
 71
3
 72
9
 73
5
 74
0
 42
0.0000001
 43
0.0000001
 44
0.0000000001
 40
0.0
 40
0.0
 40
0.0
 40
0.0
 40
0.2423574743
 40
1.0
 40
1.0
 40
1.0
 40
1.0
 10
503.4158171339
 20
40.241837787
 30
0.0
 10
503.1371909548
 20
40.4869703605
 30
0.0
 10
501.9443216152
 20
41.4487952599
 30
0.0
 10
500.5967123743
 20
42.2137379402
 30
0.0
 10
499.5333738776
 20
42.6776734442
 30
0.0
  0
SPLINE
  5
737
100
AcDbEntity
  8
0
100
AcDbSpline
 62
7
  6
CONTINUOUS
 70
0
 71
3
 72
9
 73
5
 74
0
 42
0.0000001
 43
0.0000001
 44
0.0000000001
 40
0.0
 40
0.0
 40
0.0
 40
0.0
 40
0.2572745118
 40
1.0
 40
1.0
 40
1.0
 40
1.0
 10
494.6992544138
 20
43.9729718506
 30
0.0
 10
494.3078136687
 20
44.0170748574
 30
0.0
 10
492.7810864372
 20
44.1337887465
 30
0.0
 10
491.2340370827
 20
44.0283257751
 30
0.0
 10
490.1190420966
 20
43.8046979202
 30
0.0
  0
SPLINE
  5
738
100
AcDbEntity
  8
RUNDUNGEN
100
AcDbSpline
 62
7
  6
CONTINUOUS
 70
0
 71
3
 72
13
 73
9
 74
0
 42
0.0000001
 43
0.0000001
 44
0.0000000001
 40
0.0
 40
0.0
 40
0.0
 40
0.0
 40
0.2520973212
 40
0.3837531223
 40
0.515691444
 40
0.6454036133
 40
0.770600228
 40
1.0
 40
1.0
 40
1.0
 40
1.0
 10
466.8966645928
 20
52.9906874094
 30
0.0
 10
468.1190703129
 20
53.2358579908
 30
0.0
 10
470.0542884173
 20
53.2912367819
 30
0.0
 10
472.5685564163
 20
52.8394895691
 30
0.0
 10
474.424237134
 20
52.2345641693
 30
0.0
 10
476.1492402926
 20
51.3896753613
 30
0.0
 10
478.1259949196
 20
50.0316609493
 30
0.0
 10
479.3375282348
 20
48.6940019111
 30
0.0
 10
479.8999541221
 20
47.70872826
 30
0.0
  0
SPLINE
  5
739
100
AcDbEntity
  8
0
100
AcDbSpline
 62
7
  6
CONTINUOUS
 70
0
 71
3
 72
11
 73
7
 74
0
 42
0.0000001
 43
0.0000001
 44
0.0000000001
 40
0.0
 40
0.0
 40
0.0
 40
0.0
 40
0.2094668498
 40
0.4446559298
 40
0.7120302568
 40
1.0
 40
1.0
 40
1.0
 40
1.0
 10
483.3324254583
 20
30.9444722334
 30
0.0
 10
483.3266051201
 20
30.9227504357
 30
0.0
 10
483.3282100816
 20
30.8723132792
 30
0.0
 10
483.3679133382
 20
30.8044089942
 30
0.0
 10
483.4346020448
 20
30.7497698617
 30
0.0
 10
483.4904620283
 20
30.7264342683
 30
0.0
 10
483.5203246081
 20
30.7184326142
 30
0.0
  0
SPLINE
  5
73A
100
AcDbEntity
  8
0
100
AcDbSpline
 62
7
  6
CONTINUOUS
 70
0
 71
3
 72
11
 73
7
 74
0
 42
0.0000001
 43
0.0000001
 44
0.0000000001
 40
0.0
 40
0.0
 40
0.0
 40
0.0
 40
0.2094668498
 40
0.4446559298
 40
0.7120302568
 40
1.0
 40
1.0
 40
1.0
 40
1.0
 10
482.8931949737
 20
29.3052417489
 30
0.0
 10
482.8873746356
 20
29.2835199511
 30
0.0
 10
482.888979597
 20
29.2330827947
 30
0.0
 10
482.9286828536
 20
29.1651785096
 30
0.0
 10
482.9953715603
 20
29.1105393772
 30
0.0
 10
483.0512315438
 20
29.0872037838
 30
0.0
 10
483.0810941236
 20
29.0792021296
 30
0.0
  0
SPLINE
  5
73B
100
AcDbEntity
  8
0
100
AcDbSpline
 62
7
  6
CONTINUOUS
 70
0
 71
3
 72
9
 73
5
 74
0
 42
0.0000001
 43
0.0000001
 44
0.0000000001
 40
0.0
 40
0.0
 40
0.0
 40
0.0
 40
0.2432035461
 40
1.0
 40
1.0
 40
1.0
 40
1.0
 10
486.8573325715
 20
31.5812059634
 30
0.0
 10
486.8607795477
 20
31.5940702537
 30
0.0
 10
486.8705547408
 20
31.6481458445
 30
0.0
 10
486.8613821903
 20
31.7048379609
 30
0.0
 10
486.8466805288
 20
31.7435856552
 30
0.0
  0
SPLINE
  5
73C
100
AcDbEntity
  8
0
100
AcDbSpline
 62
7
  6
CONTINUOUS
 70
0
 71
3
 72
9
 73
5
 74
0
 42
0.0000001
 43
0.0000001
 44
0.0000000001
 40
0.0
 40
0.0
 40
0.0
 40
0.0
 40
0.2401326547
 40
1.0
 40
1.0
 40
1.0
 40
1.0
 10
486.8466805288
 20
31.7435856552
 30
0.0
 10
486.8431735408
 20
31.7528286716
 30
0.0
 10
486.8267854581
 20
31.7906387621
 30
0.0
 10
486.8036301288
 20
31.8253519672
 30
0.0
 10
486.7836327258
 20
31.8494085176
 30
0.0
  0
SPLINE
  5
73D
100
AcDbEntity
  8
0
100
AcDbSpline
 62
7
  6
CONTINUOUS
 70
0
 71
3
 72
9
 73
5
 74
0
 42
0.0000001
 43
0.0000001
 44
0.0000000001
 40
0.0
 40
0.0
 40
0.0
 40
0.0
 40
0.2356425559
 40
1.0
 40
1.0
 40
1.0
 40
1.0
 10
486.7836327258
 20
31.8494085176
 30
0.0
 10
486.7657158865
 20
31.8709621836
 30
0.0
 10
486.6810747514
 20
31.9551903878
 30
0.0
 10
486.5693515567
 20
32.0097546314
 30
0.0
 10
486.4815342718
 20
32.0332852019
 30
0.0
  0
SPLINE
  5
73E
100
AcDbEntity
  8
RUNDUNGEN
100
AcDbSpline
 62
7
  6
CONTINUOUS
 70
0
 71
3
 72
11
 73
7
 74
0
 42
0.0000001
 43
0.0000001
 44
0.0000000001
 40
0.0
 40
0.0
 40
0.0
 40
0.0
 40
0.2256934588
 40
0.4632957354
 40
0.7206235605
 40
1.0
 40
1.0
 40
1.0
 40
1.0
 10
468.4675050847
 20
40.1207134276
 30
0.0
 10
468.4851887492
 20
40.1865437898
 30
0.0
 10
468.5456003272
 20
40.3162333403
 30
0.0
 10
468.6982464905
 20
40.4758522611
 30
0.0
 10
468.9022916597
 20
40.595146643
 30
0.0
 10
469.0588140002
 20
40.6426162593
 30
0.0
 10
469.1415439698
 20
40.6592089129
 30
0.0
  0
SPLINE
  5
73F
100
AcDbEntity
  8
RUNDUNGEN
100
AcDbSpline
 62
7
  6
CONTINUOUS
 70
0
 71
3
 72
9
 73
5
 74
0
 42
0.0000001
 43
0.0000001
 44
0.0000000001
 40
0.0
 40
0.0
 40
0.0
 40
0.0
 40
0.4805181646
 40
1.0
 40
1.0
 40
1.0
 40
1.0
 10
467.5524318413
 20
36.7056175857
 30
0.0
 10
467.5298387884
 20
36.6214893088
 30
0.0
 10
467.5224611324
 20
36.4340195028
 30
0.0
 10
467.58928075
 20
36.260701209
 30
0.0
 10
467.6359666712
 20
36.1789154856
 30
0.0
  0
SPLINE
  5
740
100
AcDbEntity
  8
RUNDUNGEN
100
AcDbSpline
 62
7
  6
CONTINUOUS
 70
0
 71
3
 72
11
 73
7
 74
0
 42
0.0000001
 43
0.0000001
 44
0.0000000001
 40
0.0
 40
0.0
 40
0.0
 40
0.0
 40
0.2256919297
 40
0.4632773963
 40
0.7205986282
 40
1.0
 40
1.0
 40
1.0
 40
1.0
 10
462.8568753508
 20
50.8341986586
 30
0.0
 10
462.9156800141
 20
51.0538301334
 30
0.0
 10
463.1167661746
 20
51.4866072498
 30
0.0
 10
463.6256361628
 20
52.0193277687
 30
0.0
 10
464.3061492466
 20
52.4174510674
 30
0.0
 10
464.8282611865
 20
52.5758401476
 30
0.0
 10
465.1042408156
 20
52.6311917261
 30
0.0
  0
SPLINE
  5
741
100
AcDbEntity
  8
RUNDUNGEN
100
AcDbSpline
 62
7
  6
CONTINUOUS
 70
0
 71
3
 72
10
 73
6
 74
0
 42
0.0000001
 43
0.0000001
 44
0.0000000001
 40
0.0
 40
0.0
 40
0.0
 40
0.0
 40
0.2382860828
 40
0.4819052527
 40
1.0
 40
1.0
 40
1.0
 40
1.0
 10
461.9418118413
 20
47.4191351491
 30
0.0
 10
461.9045114306
 20
47.2798206161
 30
0.0
 10
461.859856821
 20
46.988785511
 30
0.0
 10
461.8961596134
 20
46.3811996513
 30
0.0
 10
462.0653439534
 20
45.9376906559
 30
0.0
 10
462.2207980091
 20
45.6653618238
 30
0.0
  0
SPLINE
  5
742
100
AcDbEntity
  8
RUNDUNGEN
100
AcDbSpline
 62
7
  6
CONTINUOUS
 70
0
 71
3
 72
11
 73
7
 74
0
 42
0.0000001
 43
0.0000001
 44
0.0000000001
 40
0.0
 40
0.0
 40
0.0
 40
0.0
 40
0.237780559
 40
0.4809056754
 40
0.7339193747
 40
1.0
 40
1.0
 40
1.0
 40
1.0
 10
500.9406610656
 20
9.6282030508
 30
0.0
 10
501.0526735175
 20
10.0462391534
 30
0.0
 10
501.372675934
 20
10.869558728
 30
0.0
 10
502.1140638716
 20
11.9916939441
 30
0.0
 10
503.0980587837
 20
12.9812236105
 30
0.0
 10
503.8783340931
 20
13.5234408817
 30
0.0
 10
504.2965507851
 20
13.7676398582
 30
0.0
  0
SPLINE
  5
743
100
AcDbEntity
  8
RUNDUNGEN
100
AcDbSpline
 62
7
  6
CONTINUOUS
 70
0
 71
3
 72
9
 73
5
 74
0
 42
0.0000001
 43
0.0000001
 44
0.0000000001
 40
0.0
 40
0.0
 40
0.0
 40
0.0
 40
0.4843491198
 40
1.0
 40
1.0
 40
1.0
 40
1.0
 10
501.652576869
 20
11.2665807133
 30
0.0
 10
501.6709070318
 20
10.6751254119
 30
0.0
 10
501.8807507215
 20
9.4553724544
 30
0.0
 10
502.3799795081
 20
8.3275810027
 30
0.0
 10
502.692291734
 20
7.7804635709
 30
0.0
  0
SPLINE
  5
744
100
AcDbEntity
  8
RUNDUNGEN
100
AcDbSpline
 62
7
  6
CONTINUOUS
 70
0
 71
3
 72
10
 73
6
 74
0
 42
0.0000001
 43
0.0000001
 44
0.0000000001
 40
0.0
 40
0.0
 40
0.0
 40
0.0
 40
0.2382826319
 40
0.4819247904
 40
1.0
 40
1.0
 40
1.0
 40
1.0
 10
458.4344349443
 20
5.2144250272
 30
0.0
 10
458.4717721702
 20
5.3537694512
 30
0.0
 10
458.5785524694
 20
5.6282686857
 30
0.0
 10
458.9138518607
 20
6.1364725153
 30
0.0
 10
459.2822074997
 20
6.4360823298
 30
0.0
 10
459.553064882
 20
6.5942374126
 30
0.0
  0
SPLINE
  5
745
100
AcDbEntity
  8
BEZUGSACHSEN
100
AcDbSpline
 62
7
  6
CONTINUOUS
 70
0
 71
3
 72
9
 73
5
 74
0
 42
0.0000001
 43
0.0000001
 44
0.0000000001
 40
0.0
 40
0.0
 40
0.0
 40
0.0
 40
0.2346500853
 40
1.0
 40
1.0
 40
1.0
 40
1.0
 10
490.9697749932
 20
37.1111291038
 30
0.0
 10
491.0420999364
 20
36.9506691507
 30
0.0
 10
491.4020028471
 20
36.2901587697
 30
0.0
 10
491.9425987638
 20
35.738370203
 30
0.0
 10
492.3996535211
 20
35.3910055557
 30
0.0
  0
SPLINE
  5
746
100
AcDbEntity
  8
BEZUGSACHSEN
100
AcDbSpline
 62
7
  6
CONTINUOUS
 70
0
 71
3
 72
9
 73
5
 74
0
 42
0.0000001
 43
0.0000001
 44
0.0000000001
 40
0.0
 40
0.0
 40
0.0
 40
0.0
 40
0.2668229076
 40
1.0
 40
1.0
 40
1.0
 40
1.0
 10
497.2339035219
 20
34.0956721719
 30
0.0
 10
497.4323503381
 20
34.1208652669
 30
0.0
 10
498.1696804127
 20
34.2529820556
 30
0.0
 10
498.8861073717
 20
34.5493587244
 30
0.0
 10
499.3322764254
 20
34.8704035984
 30
0.0
  0
SPLINE
  5
747
100
AcDbEntity
  8
BEZUGSACHSEN
100
AcDbSpline
 62
7
  6
CONTINUOUS
 70
0
 71
3
 72
11
 73
7
 74
0
 42
0.0000001
 43
0.0000001
 44
0.0000000001
 40
0.0
 40
0.0
 40
0.0
 40
0.0
 40
0.2228273727
 40
0.4593732167
 40
0.7180073661
 40
1.0
 40
1.0
 40
1.0
 40
1.0
 10
499.5235569472
 20
32.9907585629
 30
0.0
 10
499.6038194604
 20
33.2903023399
 30
0.0
 10
499.6509872965
 20
33.9449370442
 30
0.0
 10
499.3679601936
 20
34.9208954187
 30
0.0
 10
498.7714889738
 20
35.8382912023
 30
0.0
 10
498.2157194922
 20
36.356298515
 30
0.0
 10
497.9032656199
 20
36.5937655305
 30
0.0
  0
SPLINE
  5
748
100
AcDbEntity
  8
BEZUGSACHSEN
100
AcDbSpline
 62
7
  6
CONTINUOUS
 70
0
 71
3
 72
11
 73
7
 74
0
 42
0.0000001
 43
0.0000001
 44
0.0000000001
 40
0.0
 40
0.0
 40
0.0
 40
0.0
 40
0.2819926339
 40
0.5406267833
 40
0.7771726273
 40
1.0
 40
1.0
 40
1.0
 40
1.0
 10
493.0690156191
 20
37.8890989143
 30
0.0
 10
492.6796891205
 20
37.8396733824
 30
0.0
 10
491.9393749744
 20
37.668950631
 30
0.0
 10
490.9641178536
 20
37.172698187
 30
0.0
 10
490.2310300053
 20
36.4690069931
 30
0.0
 10
489.9445611975
 20
35.8784927909
 30
0.0
 10
489.8642986843
 20
35.5789490139
 30
0.0
  0
SPLINE
  5
749
100
AcDbEntity
  8
RUNDUNGEN
100
AcDbSpline
 62
7
  6
CONTINUOUS
 70
0
 71
3
 72
13
 73
9
 74
0
 42
0.0000001
 43
0.0000001
 44
0.0000000001
 40
0.0
 40
0.0
 40
0.0
 40
0.0
 40
0.1034546555
 40
0.2106690395
 40
0.3244963599
 40
0.4464318111
 40
0.7129511617
 40
1.0
 40
1.0
 40
1.0
 40
1.0
 10
456.2860845527
 20
-2.8033277866
 30
0.0
 10
456.2380202501
 20
-2.9827062062
 30
0.0
 10
456.19170191
 20
-3.3637935093
 30
0.0
 10
456.2799068918
 20
-3.9457883086
 30
0.0
 10
456.517826148
 20
-4.5194899758
 30
0.0
 10
457.0337327534
 20
-5.2656540493
 30
0.0
 10
457.9900334231
 20
-6.0492012234
 30
0.0
 10
458.9200275297
 20
-6.4372939104
 30
0.0
 10
459.4177370503
 20
-6.5706547745
 30
0.0
  0
SPLINE
  5
74A
100
AcDbEntity
  8
RUNDUNGEN
100
AcDbSpline
 62
7
  6
CONTINUOUS
 70
0
 71
3
 72
10
 73
6
 74
0
 42
0.0000001
 43
0.0000001
 44
0.0000000001
 40
0.0
 40
0.0
 40
0.0
 40
0.0
 40
0.4808964563
 40
0.7459158441
 40
1.0
 40
1.0
 40
1.0
 40
1.0
 10
463.5543843214
 20
43.3291474271
 30
0.0
 10
463.6947692225
 20
43.0832171681
 30
0.0
 10
464.084004309
 20
42.8000906043
 30
0.0
 10
464.6561208539
 20
42.6575294415
 30
0.0
 10
464.9680820656
 20
42.6658901921
 30
0.0
 10
465.1147790649
 20
42.6953123291
 30
0.0
  0
SPLINE
  5
74B
100
AcDbEntity
  8
RUNDUNGEN
100
AcDbSpline
 62
7
  6
CONTINUOUS
 70
0
 71
3
 72
9
 73
5
 74
0
 42
0.0000001
 43
0.0000001
 44
0.0000000001
 40
0.0
 40
0.0
 40
0.0
 40
0.0
 40
0.5194816775
 40
1.0
 40
1.0
 40
1.0
 40
1.0
 10
530.4777902484
 20
29.055006439
 30
0.0
 10
530.5591211819
 20
29.1024960087
 30
0.0
 10
530.7036594875
 20
29.2191963669
 30
0.0
 10
530.7910032989
 20
29.3852595906
 30
0.0
 10
530.813495774
 20
29.4694224967
 30
0.0
  0
SPLINE
  5
74C
100
AcDbEntity
  8
RUNDUNGEN
100
AcDbSpline
 62
7
  6
CONTINUOUS
 70
0
 71
3
 72
13
 73
9
 74
0
 42
0.0000001
 43
0.0000001
 44
0.0000000001
 40
0.0
 40
0.0
 40
0.0
 40
0.0
 40
0.2870490624
 40
0.5535683755
 40
0.6755038246
 40
0.7893311355
 40
0.8965454157
 40
1.0
 40
1.0
 40
1.0
 40
1.0
 10
504.8162508859
 20
-18.7351498944
 30
0.0
 10
505.3139607949
 20
-18.8685108625
 30
0.0
 10
506.3134060395
 20
-18.9974097592
 30
0.0
 10
507.5333605748
 20
-18.7969879501
 30
0.0
 10
508.3532306574
 20
-18.4087440191
 30
0.0
 10
508.8461252816
 20
-18.0308633444
 30
0.0
 10
509.2135101271
 20
-17.5709437487
 30
0.0
 10
509.363940729
 20
-17.2177535634
 30
0.0
 10
509.4120049986
 20
-17.0383752672
 30
0.0
  0
SPLINE
  5
74D
100
AcDbEntity
  8
RUNDUNGEN
100
AcDbSpline
 62
7
  6
CONTINUOUS
 70
0
 71
3
 72
10
 73
6
 74
0
 42
0.0000001
 43
0.0000001
 44
0.0000000001
 40
0.0
 40
0.0
 40
0.0
 40
0.0
 40
0.47201694
 40
0.7322443513
 40
1.0
 40
1.0
 40
1.0
 40
1.0
 10
492.154454933
 20
-6.7732689618
 30
0.0
 10
492.4324343844
 20
-7.2602412638
 30
0.0
 10
493.0722093364
 20
-7.9016500929
 30
0.0
 10
494.1058766369
 20
-8.4897633773
 30
0.0
 10
494.700012791
 20
-8.7040039907
 30
0.0
 10
495.0072516798
 20
-8.7863284028
 30
0.0
  0
SPLINE
  5
74E
100
AcDbEntity
  8
RUNDUNGEN
100
AcDbSpline
 62
7
  6
CONTINUOUS
 70
0
 71
3
 72
10
 73
6
 74
0
 42
0.0000001
 43
0.0000001
 44
0.0000000001
 40
0.0
 40
0.0
 40
0.0
 40
0.0
 40
0.2677558652
 40
0.5279833681
 40
1.0
 40
1.0
 40
1.0
 40
1.0
 10
472.8869902943
 20
-2.8592222282
 30
0.0
 10
473.1942294332
 20
-2.9415467074
 30
0.0
 10
473.8158871206
 20
-3.0530770033
 30
0.0
 10
475.0051259223
 20
-3.0605893831
 30
0.0
 10
475.8798913652
 20
-2.8250004621
 30
0.0
 10
476.3641144694
 20
-2.5422599864
 30
0.0
  0
SPLINE
  5
74F
100
AcDbEntity
  8
0
100
AcDbSpline
 62
7
  6
CONTINUOUS
 70
0
 71
3
 72
11
 73
7
 74
0
 42
0.0000001
 43
0.0000001
 44
0.0000000001
 40
0.0
 40
0.0
 40
0.0
 40
0.0
 40
0.2880052506
 40
0.5553344723
 40
0.7905070702
 40
1.0
 40
1.0
 40
1.0
 40
1.0
 10
482.7723790989
 20
33.0271503351
 30
0.0
 10
482.7126469934
 20
33.0431555046
 30
0.0
 10
482.592558261
 20
33.0586100364
 30
0.0
 10
482.4224323751
 20
33.030611815
 30
0.0
 10
482.2857437446
 20
32.9527514941
 30
0.0
 10
482.2325306495
 20
32.8669860801
 30
0.0
 10
482.2208886054
 20
32.8235373799
 30
0.0
  0
SPLINE
  5
750
100
AcDbEntity
  8
0
100
AcDbSpline
 62
7
  6
CONTINUOUS
 70
0
 71
3
 72
11
 73
7
 74
0
 42
0.0000001
 43
0.0000001
 44
0.0000000001
 40
0.0
 40
0.0
 40
0.0
 40
0.0
 40
0.2879697432
 40
0.5553440702
 40
0.7905331502
 40
1.0
 40
1.0
 40
1.0
 40
1.0
 10
484.6794355997
 20
30.40784976
 30
0.0
 10
484.7092981795
 20
30.3998481059
 30
0.0
 10
484.769342141
 20
30.3921273308
 30
0.0
 10
484.8544158213
 20
30.4061018543
 30
0.0
 10
484.9227519927
 20
30.4450570618
 30
0.0
 10
484.9493605083
 20
30.4879344399
 30
0.0
 10
484.9551808464
 20
30.5096562377
 30
0.0
  0
SPLINE
  5
751
100
AcDbEntity
  8
0
100
AcDbSpline
 62
7
  6
CONTINUOUS
 70
0
 71
3
 72
11
 73
7
 74
0
 42
0.0000001
 43
0.0000001
 44
0.0000000001
 40
0.0
 40
0.0
 40
0.0
 40
0.0
 40
0.2879697432
 40
0.5553440702
 40
0.7905331502
 40
1.0
 40
1.0
 40
1.0
 40
1.0
 10
484.2402051151
 20
28.7686192755
 30
0.0
 10
484.270067695
 20
28.7606176213
 30
0.0
 10
484.3301116565
 20
28.7528968463
 30
0.0
 10
484.4151853368
 20
28.7668713697
 30
0.0
 10
484.4835215081
 20
28.8058265773
 30
0.0
 10
484.5101300237
 20
28.8487039554
 30
0.0
 10
484.5159503619
 20
28.8704257531
 30
0.0
  0
SPLINE
  5
752
100
AcDbEntity
  8
0
100
AcDbSpline
 62
7
  6
CONTINUOUS
 70
0
 71
3
 72
9
 73
5
 74
0
 42
0.0000001
 43
0.0000001
 44
0.0000000001
 40
0.0
 40
0.0
 40
0.0
 40
0.0
 40
0.5597866015
 40
1.0
 40
1.0
 40
1.0
 40
1.0
 10
484.0144644016
 20
31.7280275154
 30
0.0
 10
483.991687654
 20
31.7341305265
 30
0.0
 10
483.9470020278
 20
31.7368294929
 30
0.0
 10
483.9089656805
 20
31.7052164453
 30
0.0
 10
483.9041663029
 20
31.6873049243
 30
0.0
  0
SPLINE
  5
753
100
AcDbEntity
  8
0
100
AcDbSpline
 62
7
  6
CONTINUOUS
 70
0
 71
3
 72
9
 73
5
 74
0
 42
0.0000001
 43
0.0000001
 44
0.0000000001
 40
0.0
 40
0.0
 40
0.0
 40
0.0
 40
0.5597866015
 40
1.0
 40
1.0
 40
1.0
 40
1.0
 10
483.575233917
 20
30.0887970308
 30
0.0
 10
483.5524571694
 20
30.094900042
 30
0.0
 10
483.5077715433
 20
30.0975990084
 30
0.0
 10
483.4697351959
 20
30.0659859608
 30
0.0
 10
483.4649358183
 20
30.0480744398
 30
0.0
  0
SPLINE
  5
754
100
AcDbEntity
  8
0
100
AcDbSpline
 62
7
  6
CONTINUOUS
 70
0
 71
3
 72
9
 73
5
 74
0
 42
0.0000001
 43
0.0000001
 44
0.0000000001
 40
0.0
 40
0.0
 40
0.0
 40
0.0
 40
0.5597866015
 40
1.0
 40
1.0
 40
1.0
 40
1.0
 10
483.9833641553
 20
29.8037466693
 30
0.0
 10
484.0061409029
 20
29.7976436581
 30
0.0
 10
484.050826529
 20
29.7949446917
 30
0.0
 10
484.0888628764
 20
29.8265577393
 30
0.0
 10
484.093662254
 20
29.8444692603
 30
0.0
  0
SPLINE
  5
755
100
AcDbEntity
  8
0
100
AcDbSpline
 62
7
  6
CONTINUOUS
 70
0
 71
3
 72
11
 73
7
 74
0
 42
0.0000001
 43
0.0000001
 44
0.0000000001
 40
0.0
 40
0.0
 40
0.0
 40
0.0
 40
0.2880001164
 40
0.5553425139
 40
0.7905343079
 40
1.0
 40
1.0
 40
1.0
 40
1.0
 10
490.903876866
 20
29.0466961875
 30
0.0
 10
491.0117079141
 20
29.0178029452
 30
0.0
 10
491.2285008239
 20
28.9899228356
 30
0.0
 10
491.5356522187
 20
29.040406425
 30
0.0
 10
491.7823863025
 20
29.181029355
 30
0.0
 10
491.8784416102
 20
29.3358512937
 30
0.0
 10
491.8994559871
 20
29.4142780159
 30
0.0
  0
SPLINE
  5
756
100
AcDbEntity
  8
0
100
AcDbSpline
 62
7
  6
CONTINUOUS
 70
0
 71
3
 72
9
 73
5
 74
0
 42
0.0000001
 43
0.0000001
 44
0.0000000001
 40
0.0
 40
0.0
 40
0.0
 40
0.0
 40
0.2457811574
 40
1.0
 40
1.0
 40
1.0
 40
1.0
 10
502.9008992864
 20
27.6044475738
 30
0.0
 10
502.8874184308
 20
27.6129152136
 30
0.0
 10
502.8312132019
 20
27.6451741657
 30
0.0
 10
502.7701104171
 20
27.668774378
 30
0.0
 10
502.7229230934
 20
27.6814181832
 30
0.0
  0
SPLINE
  5
757
100
AcDbEntity
  8
0
100
AcDbSpline
 62
7
  6
CONTINUOUS
 70
0
 71
3
 72
11
 73
7
 74
0
 42
0.0000001
 43
0.0000001
 44
0.0000000001
 40
0.0
 40
0.0
 40
0.0
 40
0.0
 40
0.2779817175
 40
0.5346952233
 40
0.772857858
 40
1.0
 40
1.0
 40
1.0
 40
1.0
 10
501.8935877265
 20
23.9574847718
 30
0.0
 10
502.0796783903
 20
24.0019399443
 30
0.0
 10
502.4309602044
 20
24.121953633
 30
0.0
 10
502.8865425566
 20
24.4069059129
 30
0.0
 10
503.2266756257
 20
24.7785455519
 30
0.0
 10
503.3620783065
 20
25.0760209344
 30
0.0
 10
503.4025409113
 20
25.2270294311
 30
0.0
  0
SPLINE
  5
758
100
AcDbEntity
  8
0
100
AcDbSpline
 62
7
  6
CONTINUOUS
 70
0
 71
3
 72
9
 73
5
 74
0
 42
0.0000001
 43
0.0000001
 44
0.0000000001
 40
0.0
 40
0.0
 40
0.0
 40
0.0
 40
0.2591205677
 40
1.0
 40
1.0
 40
1.0
 40
1.0
 10
501.743589737
 20
23.9614733721
 30
0.0
 10
501.7561774859
 20
23.9581004949
 30
0.0
 10
501.8054141542
 20
23.9478852472
 30
0.0
 10
501.8573468737
 20
23.9488271996
 30
0.0
 10
501.8935877265
 20
23.9574847718
 30
0.0
  0
SPLINE
  5
759
100
AcDbEntity
  8
RUNDUNGEN
100
AcDbSpline
 62
7
  6
CONTINUOUS
 70
0
 71
3
 72
13
 73
9
 74
0
 42
0.0000001
 43
0.0000001
 44
0.0000000001
 40
0.0
 40
0.0
 40
0.0
 40
0.0
 40
0.1034546555
 40
0.2106690395
 40
0.3244963599
 40
0.4464318111
 40
0.7129511617
 40
1.0
 40
1.0
 40
1.0
 40
1.0
 10
463.02722041
 20
-3.1455080805
 30
0.0
 10
463.0752847127
 20
-2.9661296608
 30
0.0
 10
463.2257155051
 20
-2.6129392053
 30
0.0
 10
463.5931006598
 20
-2.1530194151
 30
0.0
 10
464.0859956133
 20
-1.7751388252
 30
0.0
 10
464.9058658762
 20
-1.3868950848
 30
0.0
 10
466.1258201369
 20
-1.1864736619
 30
0.0
 10
467.1252650022
 20
-1.3153725892
 30
0.0
 10
467.6229745228
 20
-1.4487334533
 30
0.0
  0
SPLINE
  5
75A
100
AcDbEntity
  8
RUNDUNGEN
100
AcDbSpline
 62
7
  6
CONTINUOUS
 70
0
 71
3
 72
13
 73
9
 74
0
 42
0.0000001
 43
0.0000001
 44
0.0000000001
 40
0.0
 40
0.0
 40
0.0
 40
0.0
 40
0.2870490624
 40
0.5535683755
 40
0.6755038246
 40
0.7893311355
 40
0.8965454157
 40
1.0
 40
1.0
 40
1.0
 40
1.0
 10
500.2712674513
 20
-10.1968171778
 30
0.0
 10
500.7689773603
 20
-10.3301781459
 30
0.0
 10
501.6989717802
 20
-10.7182710492
 30
0.0
 10
502.6552724946
 20
-11.501818695
 30
0.0
 10
503.1711788485
 20
-12.2479828435
 30
0.0
 10
503.4090977771
 20
-12.8216844194
 30
0.0
 10
503.4973025884
 20
-13.4036788957
 30
0.0
 10
503.4509842185
 20
-13.7847658695
 30
0.0
 10
503.4029199489
 20
-13.9641441657
 30
0.0
  0
SPLINE
  5
75B
100
AcDbEntity
  8
RUNDUNGEN
100
AcDbSpline
 62
7
  6
CONTINUOUS
 70
0
 71
3
 72
13
 73
9
 74
0
 42
0.0000001
 43
0.0000001
 44
0.0000000001
 40
0.0
 40
0.0
 40
0.0
 40
0.0
 40
0.2360077452
 40
0.3661261418
 40
0.5000000756
 40
0.6338740402
 40
0.7639924068
 40
1.0
 40
1.0
 40
1.0
 40
1.0
 10
481.3689272983
 20
0.3800771509
 30
0.0
 10
481.9742046922
 20
0.7335018777
 30
0.0
 10
483.0674939626
 20
1.0280551846
 30
0.0
 10
484.5545535871
 20
1.0184917438
 30
0.0
 10
485.7240579177
 20
0.808840549
 30
0.0
 10
486.841703808
 20
0.4056514419
 30
0.0
 10
488.1343164005
 20
-0.3295962439
 30
0.0
 10
488.9338554383
 20
-1.1313312514
 30
0.0
 10
489.2813284506
 20
-1.7400443481
 30
0.0
  0
SPLINE
  5
75C
100
AcDbEntity
  8
RUNDUNGEN
100
AcDbSpline
 62
7
  6
CONTINUOUS
 70
0
 71
3
 72
9
 73
5
 74
0
 42
0.0000001
 43
0.0000001
 44
0.0000000001
 40
0.0
 40
0.0
 40
0.0
 40
0.0
 40
0.5156509212
 40
1.0
 40
1.0
 40
1.0
 40
1.0
 10
474.5149463651
 20
15.3305605073
 30
0.0
 10
475.0589786872
 20
15.6482239071
 30
0.0
 10
476.0552248458
 20
16.3753105926
 30
0.0
 10
476.8468338741
 20
17.3267335437
 30
0.0
 10
477.1584360249
 20
17.8297877964
 30
0.0
  0
SPLINE
  5
75D
100
AcDbEntity
  8
RUNDUNGEN
100
AcDbSpline
 62
7
  6
CONTINUOUS
 70
0
 71
3
 72
11
 73
7
 74
0
 42
0.0000001
 43
0.0000001
 44
0.0000000001
 40
0.0
 40
0.0
 40
0.0
 40
0.0
 40
0.2660806488
 40
0.5190943636
 40
0.7622194616
 40
1.0
 40
1.0
 40
1.0
 40
1.0
 10
476.1192054163
 20
21.3177367946
 30
0.0
 10
476.3592922603
 20
20.8971458391
 30
0.0
 10
476.7639219228
 20
20.0374340615
 30
0.0
 10
477.1213216765
 20
18.688478544
 30
0.0
 10
477.2023147299
 20
17.345986823
 30
0.0
 10
477.0677850322
 20
16.4729699265
 30
0.0
 10
476.9557725752
 20
16.0549338053
 30
0.0
  0
SPLINE
  5
75E
100
AcDbEntity
  8
RUNDUNGEN
100
AcDbSpline
 62
7
  6
CONTINUOUS
 70
0
 71
3
 72
11
 73
7
 74
0
 42
0.0000001
 43
0.0000001
 44
0.0000000001
 40
0.0
 40
0.0
 40
0.0
 40
0.0
 40
0.2524507309
 40
0.5157647478
 40
0.7702968692
 40
1.0
 40
1.0
 40
1.0
 40
1.0
 10
468.0722782973
 20
43.2884802065
 30
0.0
 10
468.3167734919
 20
43.3375171409
 30
0.0
 10
468.8352096272
 20
43.3524447661
 30
0.0
 10
469.581366324
 20
43.1636589873
 30
0.0
 10
470.230795614
 20
42.7930884435
 30
0.0
 10
470.5604534889
 20
42.4291387918
 30
0.0
 10
470.6729362031
 20
42.2320883766
 30
0.0
  0
SPLINE
  5
75F
100
AcDbEntity
  8
RUNDUNGEN
100
AcDbSpline
 62
7
  6
CONTINUOUS
 70
0
 71
3
 72
9
 73
5
 74
0
 42
0.0000001
 43
0.0000001
 44
0.0000000001
 40
0.0
 40
0.0
 40
0.0
 40
0.0
 40
0.5194825986
 40
1.0
 40
1.0
 40
1.0
 40
1.0
 10
472.1681693412
 20
39.6126964773
 30
0.0
 10
472.2459858544
 20
39.4763752982
 30
0.0
 10
472.3573582154
 20
39.1874844702
 30
0.0
 10
472.3450427306
 20
38.8750066636
 30
0.0
 10
472.3073722071
 20
38.7347846371
 30
0.0
  0
SPLINE
  5
760
100
AcDbEntity
  8
RUNDUNGEN
100
AcDbSpline
 62
7
  6
CONTINUOUS
 70
0
 71
3
 72
11
 73
7
 74
0
 42
0.0000001
 43
0.0000001
 44
0.0000000001
 40
0.0
 40
0.0
 40
0.0
 40
0.0
 40
0.2524375529
 40
0.5157480446
 40
0.7702932073
 40
1.0
 40
1.0
 40
1.0
 40
1.0
 10
510.5530078894
 20
33.9626075161
 30
0.0
 10
510.9274296742
 20
33.6331949103
 30
0.0
 10
511.8104258946
 20
33.0889184554
 30
0.0
 10
513.291575249
 20
32.6697040692
 30
0.0
 10
514.7870198527
 20
32.6621310727
 30
0.0
 10
515.7219887333
 20
32.9628515667
 30
0.0
 10
516.1138713454
 20
33.1916739323
 30
0.0
  0
SPLINE
  5
761
100
AcDbEntity
  8
RUNDUNGEN
100
AcDbSpline
 62
7
  6
CONTINUOUS
 70
0
 71
3
 72
11
 73
7
 74
0
 42
0.0000001
 43
0.0000001
 44
0.0000000001
 40
0.0
 40
0.0
 40
0.0
 40
0.0
 40
0.2297109937
 40
0.4842558728
 40
0.7475644511
 40
1.0
 40
1.0
 40
1.0
 40
1.0
 10
481.3328787305
 20
45.1984902134
 30
0.0
 10
481.5578519589
 20
44.804375719
 30
0.0
 10
482.2172068209
 20
44.0764553552
 30
0.0
 10
483.5160931996
 20
43.3352960821
 30
0.0
 10
485.0084061264
 20
42.9577784494
 30
0.0
 10
486.0452333446
 20
42.9876385398
 30
0.0
 10
486.5341945422
 20
43.0857065536
 30
0.0
  0
SPLINE
  5
762
100
AcDbEntity
  8
0
100
AcDbSpline
 62
7
  6
CONTINUOUS
 70
0
 71
3
 72
9
 73
5
 74
0
 42
0.0000001
 43
0.0000001
 44
0.0000000001
 40
0.0
 40
0.0
 40
0.0
 40
0.0
 40
0.4402133985
 40
1.0
 40
1.0
 40
1.0
 40
1.0
 10
483.3536640956
 20
29.632802717
 30
0.0
 10
483.348864718
 20
29.614891196
 30
0.0
 10
483.3659986373
 20
29.56849532
 30
0.0
 10
483.4060470079
 20
29.5484898804
 30
0.0
 10
483.4288237555
 20
29.5423868693
 30
0.0
  0
SPLINE
  5
763
100
AcDbEntity
  8
RUNDUNGEN
100
AcDbSpline
 62
7
  6
CONTINUOUS
 70
0
 71
3
 72
11
 73
7
 74
0
 42
0.0000001
 43
0.0000001
 44
0.0000000001
 40
0.0
 40
0.0
 40
0.0
 40
0.0
 40
0.237780559
 40
0.4809056754
 40
0.7339193747
 40
1.0
 40
1.0
 40
1.0
 40
1.0
 10
476.9557725752
 20
16.0549338053
 30
0.0
 10
476.8437601233
 20
15.6368977026
 30
0.0
 10
476.5237577068
 20
14.813578128
 30
0.0
 10
475.7823697691
 20
13.6914429119
 30
0.0
 10
474.7983748571
 20
12.7019132456
 30
0.0
 10
474.0180995476
 20
12.1596959743
 30
0.0
 10
473.5998828557
 20
11.9154969978
 30
0.0
  0
SPLINE
  5
764
100
AcDbEntity
  8
RUNDUNGEN
100
AcDbSpline
 62
7
  6
CONTINUOUS
 70
0
 71
3
 72
10
 73
6
 74
0
 42
0.0000001
 43
0.0000001
 44
0.0000000001
 40
0.0
 40
0.0
 40
0.0
 40
0.0
 40
0.2382827206
 40
0.4819249463
 40
1.0
 40
1.0
 40
1.0
 40
1.0
 10
510.6452918808
 20
-12.4356859629
 30
0.0
 10
510.6826291206
 20
-12.2963414869
 30
0.0
 10
510.7274042816
 20
-12.0052279275
 30
0.0
 10
510.6911283525
 20
-11.3974608061
 30
0.0
 10
510.5219279159
 20
-10.9538133449
 30
0.0
 10
510.36643613
 20
-10.6814184159
 30
0.0
  0
SPLINE
  5
765
100
AcDbEntity
  8
0
100
AcDbSpline
 62
7
  6
CONTINUOUS
 70
0
 71
3
 72
9
 73
5
 74
0
 42
0.0000001
 43
0.0000001
 44
0.0000000001
 40
0.0
 40
0.0
 40
0.0
 40
0.0
 40
0.4402133985
 40
1.0
 40
1.0
 40
1.0
 40
1.0
 10
484.3659851544
 20
30.8607921607
 30
0.0
 10
484.370784532
 20
30.8787036817
 30
0.0
 10
484.3536506127
 20
30.9250995578
 30
0.0
 10
484.3136022421
 20
30.9451049973
 30
0.0
 10
484.2908254945
 20
30.9512080084
 30
0.0
  0
SPLINE
  5
766
100
AcDbEntity
  8
0
100
AcDbSpline
 62
7
  6
CONTINUOUS
 70
0
 71
3
 72
9
 73
5
 74
0
 42
0.0000001
 43
0.0000001
 44
0.0000000001
 40
0.0
 40
0.0
 40
0.0
 40
0.0
 40
0.471076254
 40
1.0
 40
1.0
 40
1.0
 40
1.0
 10
484.7794886526
 20
29.8539640438
 30
0.0
 10
484.7853089908
 20
29.8756858416
 30
0.0
 10
484.7837580317
 20
29.9260681653
 30
0.0
 10
484.7587884666
 20
29.968651692
 30
0.0
 10
484.7426477882
 20
29.9880686654
 30
0.0
  0
SPLINE
  5
767
100
AcDbEntity
  8
0
100
AcDbSpline
 62
7
  6
CONTINUOUS
 70
0
 71
3
 72
8
 73
4
 74
0
 42
0.0000001
 43
0.0000001
 44
0.0000000001
 40
0.0
 40
0.0
 40
0.0
 40
0.0
 40
1.0
 40
1.0
 40
1.0
 40
1.0
 10
484.7426477882
 20
29.9880686654
 30
0.0
 10
484.7336876491
 20
29.9988475668
 30
0.0
 10
484.7236665682
 20
30.0087993885
 30
0.0
 10
484.7129758462
 20
30.0178645565
 30
0.0
  0
SPLINE
  5
768
100
AcDbEntity
  8
0
100
AcDbSpline
 62
7
  6
CONTINUOUS
 70
0
 71
3
 72
9
 73
5
 74
0
 42
0.0000001
 43
0.0000001
 44
0.0000000001
 40
0.0
 40
0.0
 40
0.0
 40
0.0
 40
0.241609722
 40
1.0
 40
1.0
 40
1.0
 40
1.0
 10
484.7129758462
 20
30.0178645565
 30
0.0
 10
484.7045608285
 20
30.0250000473
 30
0.0
 10
484.6679078659
 20
30.052350634
 30
0.0
 10
484.6250411053
 20
30.0710403332
 30
0.0
 10
484.5915895028
 20
30.0800036631
 30
0.0
  0
SPLINE
  5
769
100
AcDbEntity
  8
RUNDUNGEN
100
AcDbSpline
 62
7
  6
CONTINUOUS
 70
0
 71
3
 72
10
 73
6
 74
0
 42
0.0000001
 43
0.0000001
 44
0.0000000001
 40
0.0
 40
0.0
 40
0.0
 40
0.0
 40
0.5180752096
 40
0.7617173681
 40
1.0
 40
1.0
 40
1.0
 40
1.0
 10
458.6380013725
 20
3.1791739031
 30
0.0
 10
458.3671439902
 20
3.0210188204
 30
0.0
 10
457.9987883513
 20
2.7214090058
 30
0.0
 10
457.6634889599
 20
2.2132051763
 30
0.0
 10
457.5567086607
 20
1.9387059417
 30
0.0
 10
457.5193714349
 20
1.7993615178
 30
0.0
  0
SPLINE
  5
76A
100
AcDbEntity
  8
RUNDUNGEN
100
AcDbSpline
 62
7
  6
CONTINUOUS
 70
0
 71
3
 72
11
 73
7
 74
0
 42
0.0000001
 43
0.0000001
 44
0.0000000001
 40
0.0
 40
0.0
 40
0.0
 40
0.0
 40
0.2793752682
 40
0.5367194959
 40
0.7743217448
 40
1.0
 40
1.0
 40
1.0
 40
1.0
 10
468.2264804603
 20
37.2441454035
 30
0.0
 10
468.1437477313
 20
37.2275521964
 30
0.0
 10
467.9872154941
 20
37.18007833
 30
0.0
 10
467.7831594565
 20
37.0607742377
 30
0.0
 10
467.6305155561
 20
36.9011405398
 30
0.0
 10
467.5701106839
 20
36.7714471383
 30
0.0
 10
467.5524318413
 20
36.7056175857
 30
0.0
  0
SPLINE
  5
76B
100
AcDbEntity
  8
RUNDUNGEN
100
AcDbSpline
 62
7
  6
CONTINUOUS
 70
0
 71
3
 72
11
 73
7
 74
0
 42
0.0000001
 43
0.0000001
 44
0.0000000001
 40
0.0
 40
0.0
 40
0.0
 40
0.0
 40
0.2794013718
 40
0.5367226037
 40
0.7743080703
 40
1.0
 40
1.0
 40
1.0
 40
1.0
 10
464.1891773061
 20
49.2161282166
 30
0.0
 10
463.913197677
 20
49.1607766382
 30
0.0
 10
463.3910857371
 20
49.0023875579
 30
0.0
 10
462.7105726533
 20
48.6042642593
 30
0.0
 10
462.2017026651
 20
48.0715437404
 30
0.0
 10
462.0006165047
 20
47.6387666239
 30
0.0
 10
461.9418118413
 20
47.4191351491
 30
0.0
  0
SPLINE
  5
76C
100
AcDbEntity
  8
RUNDUNGEN
100
AcDbSpline
 62
7
  6
CONTINUOUS
 70
0
 71
3
 72
13
 73
9
 74
0
 42
0.0000001
 43
0.0000001
 44
0.0000000001
 40
0.0
 40
0.0
 40
0.0
 40
0.0
 40
0.2294024287
 40
0.3545996847
 40
0.4843111938
 40
0.616248878
 40
0.747903971
 40
1.0
 40
1.0
 40
1.0
 40
1.0
 10
478.9848906126
 20
44.2936647505
 30
0.0
 10
478.4224582303
 20
45.2789497797
 30
0.0
 10
477.2109086236
 20
46.6166178946
 30
0.0
 10
475.2341393599
 20
47.9746336322
 30
0.0
 10
473.5091363604
 20
48.8195151423
 30
0.0
 10
471.6534639196
 20
49.4244333164
 30
0.0
 10
469.139208004
 20
49.8761734018
 30
0.0
 10
467.2040004975
 20
49.8207932166
 30
0.0
 10
465.9816010833
 20
49.5756238999
 30
0.0
  0
SPLINE
  5
76D
100
AcDbEntity
  8
0
100
AcDbSpline
 62
7
  6
CONTINUOUS
 70
0
 71
3
 72
9
 73
5
 74
0
 42
0.0000001
 43
0.0000001
 44
0.0000000001
 40
0.0
 40
0.0
 40
0.0
 40
0.0
 40
0.2423574743
 40
1.0
 40
1.0
 40
1.0
 40
1.0
 10
502.5007536244
 20
36.8267742775
 30
0.0
 10
502.2221274454
 20
37.0719068511
 30
0.0
 10
501.0292581057
 20
38.0337317505
 30
0.0
 10
499.6816488649
 20
38.7986744308
 30
0.0
 10
498.6183103682
 20
39.2626099347
 30
0.0
  0
SPLINE
  5
76E
100
AcDbEntity
  8
0
100
AcDbSpline
 62
7
  6
CONTINUOUS
 70
0
 71
3
 72
9
 73
5
 74
0
 42
0.0000001
 43
0.0000001
 44
0.0000000001
 40
0.0
 40
0.0
 40
0.0
 40
0.0
 40
0.2572745118
 40
1.0
 40
1.0
 40
1.0
 40
1.0
 10
493.7841909044
 20
40.5579083412
 30
0.0
 10
493.3927501592
 20
40.602011348
 30
0.0
 10
491.8660229277
 20
40.7187252371
 30
0.0
 10
490.3189735732
 20
40.6132622656
 30
0.0
 10
489.2039785871
 20
40.3896344107
 30
0.0
  0
SPLINE
  5
76F
100
AcDbEntity
  8
RUNDUNGEN
100
AcDbSpline
 62
7
  6
CONTINUOUS
 70
0
 71
3
 72
10
 73
6
 74
0
 42
0.0000001
 43
0.0000001
 44
0.0000000001
 40
0.0
 40
0.0
 40
0.0
 40
0.0
 40
0.2540841022
 40
0.5191024011
 40
1.0
 40
1.0
 40
1.0
 40
1.0
 10
525.5578732031
 20
34.6199389216
 30
0.0
 10
525.4455409711
 20
34.7187677151
 30
0.0
 10
525.1795556297
 20
34.8819886288
 30
0.0
 10
524.6128077587
 20
35.0445856016
 30
0.0
 10
524.1341567593
 20
34.9940087325
 30
0.0
 10
523.8896141663
 20
34.8512189967
 30
0.0
  0
SPLINE
  5
770
100
AcDbEntity
  8
0
100
AcDbSpline
 62
7
  6
CONTINUOUS
 70
0
 71
3
 72
11
 73
7
 74
0
 42
0.0000001
 43
0.0000001
 44
0.0000000001
 40
0.0
 40
0.0
 40
0.0
 40
0.0
 40
0.2880052506
 40
0.5553344723
 40
0.7905070702
 40
1.0
 40
1.0
 40
1.0
 40
1.0
 10
485.339535012
 20
27.7712859421
 30
0.0
 10
485.3992671175
 20
27.7552807727
 30
0.0
 10
485.5193558499
 20
27.7398262408
 30
0.0
 10
485.6894817359
 20
27.7678244622
 30
0.0
 10
485.8261703663
 20
27.8456847832
 30
0.0
 10
485.8793834614
 20
27.9314501972
 30
0.0
 10
485.8910255056
 20
27.9748988974
 30
0.0
  0
SPLINE
  5
771
100
AcDbEntity
  8
0
100
AcDbSpline
 62
7
  6
CONTINUOUS
 70
0
 71
3
 72
19
 73
15
 74
0
 42
0.0000001
 43
0.0000001
 44
0.0000000001
 40
0.0
 40
0.0
 40
0.0
 40
0.0
 40
0.0517234907
 40
0.1053372095
 40
0.1622487312
 40
0.2232163938
 40
0.3564752704
 40
0.5
 40
0.6435247296
 40
0.7767836062
 40
0.8377512688
 40
0.8946627905
 40
0.9482765093
 40
1.0
 40
1.0
 40
1.0
 40
1.0
 10
493.2899529674
 20
27.318741933
 30
0.0
 10
493.2625866302
 20
27.2166093721
 30
0.0
 10
493.236231767
 20
26.9996083291
 30
0.0
 10
493.2864203713
 20
26.6682068716
 30
0.0
 10
493.4219447139
 20
26.3415382435
 30
0.0
 10
493.7156359881
 20
25.9166709266
 30
0.0
 10
494.260579073
 20
25.4704067367
 30
0.0
 10
495.0629038256
 20
25.1353047701
 30
0.0
 10
495.9252884267
 20
25.0243492097
 30
0.0
 10
496.6203550768
 20
25.1383537926
 30
0.0
 10
497.0871328396
 20
25.3594540451
 30
0.0
 10
497.3678346772
 20
25.5745952044
 30
0.0
 10
497.5770000122
 20
25.8365029833
 30
0.0
 10
497.6626765527
 20
26.0376088308
 30
0.0
 10
497.6900428899
 20
26.1397413917
 30
0.0
  0
SPLINE
  5
772
100
AcDbEntity
  8
0
100
AcDbSpline
 62
7
  6
CONTINUOUS
 70
0
 71
3
 72
9
 73
5
 74
0
 42
0.0000001
 43
0.0000001
 44
0.0000000001
 40
0.0
 40
0.0
 40
0.0
 40
0.0
 40
0.4402133985
 40
1.0
 40
1.0
 40
1.0
 40
1.0
 10
483.7196894994
 20
30.9988281208
 30
0.0
 10
483.7148901218
 20
30.9809165998
 30
0.0
 10
483.7320240411
 20
30.9345207238
 30
0.0
 10
483.7720724117
 20
30.9145152842
 30
0.0
 10
483.7948491593
 20
30.9084122731
 30
0.0
  0
SPLINE
  5
773
100
AcDbEntity
  8
0
100
AcDbSpline
 62
7
  6
CONTINUOUS
 70
0
 71
3
 72
9
 73
5
 74
0
 42
0.0000001
 43
0.0000001
 44
0.0000000001
 40
0.0
 40
0.0
 40
0.0
 40
0.0
 40
0.471076254
 40
1.0
 40
1.0
 40
1.0
 40
1.0
 10
485.2187191372
 20
31.4931945284
 30
0.0
 10
485.2245394753
 20
31.5149163261
 30
0.0
 10
485.2229885162
 20
31.5652986499
 30
0.0
 10
485.1980189511
 20
31.6078821765
 30
0.0
 10
485.1818782727
 20
31.6272991499
 30
0.0
  0
SPLINE
  5
774
100
AcDbEntity
  8
0
100
AcDbSpline
 62
7
  6
CONTINUOUS
 70
0
 71
3
 72
8
 73
4
 74
0
 42
0.0000001
 43
0.0000001
 44
0.0000000001
 40
0.0
 40
0.0
 40
0.0
 40
0.0
 40
1.0
 40
1.0
 40
1.0
 40
1.0
 10
485.1818782727
 20
31.6272991499
 30
0.0
 10
485.1729181337
 20
31.6380780514
 30
0.0
 10
485.1628970527
 20
31.6480298731
 30
0.0
 10
485.1522063307
 20
31.6570950411
 30
0.0
  0
SPLINE
  5
775
100
AcDbEntity
  8
0
100
AcDbSpline
 62
7
  6
CONTINUOUS
 70
0
 71
3
 72
9
 73
5
 74
0
 42
0.0000001
 43
0.0000001
 44
0.0000000001
 40
0.0
 40
0.0
 40
0.0
 40
0.0
 40
0.241609722
 40
1.0
 40
1.0
 40
1.0
 40
1.0
 10
485.1522063307
 20
31.6570950411
 30
0.0
 10
485.1437913131
 20
31.6642305319
 30
0.0
 10
485.1071383505
 20
31.6915811185
 30
0.0
 10
485.0642715899
 20
31.7102708178
 30
0.0
 10
485.0308199873
 20
31.7192341477
 30
0.0
  0
SPLINE
  5
776
100
AcDbEntity
  8
0
100
AcDbSpline
 62
7
  6
CONTINUOUS
 70
0
 71
3
 72
11
 73
7
 74
0
 42
0.0000001
 43
0.0000001
 44
0.0000000001
 40
0.0
 40
0.0
 40
0.0
 40
0.0
 40
0.2879697432
 40
0.5553440702
 40
0.7905331502
 40
1.0
 40
1.0
 40
1.0
 40
1.0
 10
483.4324785112
 20
30.3905865172
 30
0.0
 10
483.4026159314
 20
30.3985881714
 30
0.0
 10
483.3425719699
 20
30.4063089464
 30
0.0
 10
483.2574982896
 20
30.392334423
 30
0.0
 10
483.1891621183
 20
30.3533792154
 30
0.0
 10
483.1625536026
 20
30.3105018374
 30
0.0
 10
483.1567332645
 20
30.2887800396
 30
0.0
  0
SPLINE
  5
777
100
AcDbEntity
  8
0
100
AcDbSpline
 62
7
  6
CONTINUOUS
 70
0
 71
3
 72
9
 73
5
 74
0
 42
0.0000001
 43
0.0000001
 44
0.0000000001
 40
0.0
 40
0.0
 40
0.0
 40
0.0
 40
0.4402133985
 40
1.0
 40
1.0
 40
1.0
 40
1.0
 10
483.7928945801
 20
31.2720332016
 30
0.0
 10
483.7880952025
 20
31.2541216805
 30
0.0
 10
483.8052291218
 20
31.2077258045
 30
0.0
 10
483.8452774924
 20
31.187720365
 30
0.0
 10
483.8680542401
 20
31.1816173538
 30
0.0
  0
SPLINE
  5
778
100
AcDbEntity
  8
0
100
AcDbSpline
 62
7
  6
CONTINUOUS
 70
0
 71
3
 72
17
 73
13
 74
0
 42
0.0000001
 43
0.0000001
 44
0.0000000001
 40
0.0
 40
0.0
 40
0.0
 40
0.0
 40
0.0519082659
 40
0.1062678596
 40
0.2250851405
 40
0.3581749994
 40
0.5
 40
0.6418250006
 40
0.7749148595
 40
0.8937321404
 40
0.9480917341
 40
1.0
 40
1.0
 40
1.0
 40
1.0
 10
493.3288701906
 20
27.3987112288
 30
0.0
 10
493.3198988495
 20
27.2998221747
 30
0.0
 10
493.3277240655
 20
27.0942290347
 30
0.0
 10
493.4458420402
 20
26.6767478204
 30
0.0
 10
493.7843051168
 20
26.1799416102
 30
0.0
 10
494.3911353173
 20
25.7177581918
 30
0.0
 10
495.1375196585
 20
25.4137748494
 30
0.0
 10
495.9358991301
 20
25.3038399757
 30
0.0
 10
496.6925212087
 20
25.400687457
 30
0.0
 10
497.2340419364
 20
25.6617027175
 30
0.0
 10
497.5450757103
 20
25.9641930672
 30
0.0
 10
497.6546491162
 20
26.1383293414
 30
0.0
 10
497.6963242339
 20
26.2284554449
 30
0.0
  0
SPLINE
  5
779
100
AcDbEntity
  8
0
100
AcDbSpline
 62
7
  6
CONTINUOUS
 70
0
 71
3
 72
11
 73
7
 74
0
 42
0.0000001
 43
0.0000001
 44
0.0000000001
 40
0.0
 40
0.0
 40
0.0
 40
0.0
 40
0.2094929298
 40
0.4446655277
 40
0.7119947494
 40
1.0
 40
1.0
 40
1.0
 40
1.0
 10
481.2545815394
 20
29.2172303139
 30
0.0
 10
481.2429394952
 20
29.1737816137
 30
0.0
 10
481.2461406804
 20
29.0729000388
 30
0.0
 10
481.3255863463
 20
28.9371267077
 30
0.0
 10
481.4589205747
 20
28.8278165937
 30
0.0
 10
481.5706477336
 20
28.7811562448
 30
0.0
 10
481.6303798391
 20
28.7651510753
 30
0.0
  0
SPLINE
  5
77A
100
AcDbEntity
  8
0
100
AcDbSpline
 62
7
  6
CONTINUOUS
 70
0
 71
3
 72
11
 73
7
 74
0
 42
0.0000001
 43
0.0000001
 44
0.0000000001
 40
0.0
 40
0.0
 40
0.0
 40
0.0
 40
0.2879697432
 40
0.5553440702
 40
0.7905331502
 40
1.0
 40
1.0
 40
1.0
 40
1.0
 10
483.8717089958
 20
32.0298170018
 30
0.0
 10
483.841846416
 20
32.0378186559
 30
0.0
 10
483.7818024545
 20
32.045539431
 30
0.0
 10
483.6967287741
 20
32.0315649076
 30
0.0
 10
483.6283926028
 20
31.9926097
 30
0.0
 10
483.6017840872
 20
31.9497323219
 30
0.0
 10
483.595963749
 20
31.9280105242
 30
0.0
  0
SPLINE
  5
77B
100
AcDbEntity
  8
0
100
AcDbSpline
 62
7
  6
CONTINUOUS
 70
0
 71
3
 72
9
 73
5
 74
0
 42
0.0000001
 43
0.0000001
 44
0.0000000001
 40
0.0
 40
0.0
 40
0.0
 40
0.0
 40
0.5597866015
 40
1.0
 40
1.0
 40
1.0
 40
1.0
 10
484.1285499556
 20
30.994689608
 30
0.0
 10
484.105773208
 20
31.0007926191
 30
0.0
 10
484.0610875819
 20
31.0034915856
 30
0.0
 10
484.0230512345
 20
30.971878538
 30
0.0
 10
484.0182518569
 20
30.953967017
 30
0.0
  0
SPLINE
  5
77C
100
AcDbEntity
  8
0
100
AcDbSpline
 62
7
  6
CONTINUOUS
 70
0
 71
3
 72
9
 73
5
 74
0
 42
0.0000001
 43
0.0000001
 44
0.0000000001
 40
0.0
 40
0.0
 40
0.0
 40
0.0
 40
0.5597866015
 40
1.0
 40
1.0
 40
1.0
 40
1.0
 10
484.5366801939
 20
30.7096392465
 30
0.0
 10
484.5594569415
 20
30.7035362353
 30
0.0
 10
484.6041425676
 20
30.7008372689
 30
0.0
 10
484.642178915
 20
30.7324503165
 30
0.0
 10
484.6469782926
 20
30.7503618375
 30
0.0
  0
SPLINE
  5
77D
100
AcDbEntity
  8
0
100
AcDbSpline
 62
7
  6
CONTINUOUS
 70
0
 71
3
 72
9
 73
5
 74
0
 42
0.0000001
 43
0.0000001
 44
0.0000000001
 40
0.0
 40
0.0
 40
0.0
 40
0.0
 40
0.2445376398
 40
1.0
 40
1.0
 40
1.0
 40
1.0
 10
481.3277866201
 20
29.4904353946
 30
0.0
 10
481.324920826
 20
29.4797401054
 30
0.0
 10
481.3162773873
 20
29.4351947252
 30
0.0
 10
481.3204225903
 20
29.3885084848
 30
0.0
 10
481.3294622025
 20
29.3555174402
 30
0.0
  0
SPLINE
  5
77E
100
AcDbEntity
  8
0
100
AcDbSpline
 62
7
  6
CONTINUOUS
 70
0
 71
3
 72
9
 73
5
 74
0
 42
0.0000001
 43
0.0000001
 44
0.0000000001
 40
0.0
 40
0.0
 40
0.0
 40
0.0
 40
0.238285514
 40
1.0
 40
1.0
 40
1.0
 40
1.0
 10
481.3294622025
 20
29.3555174402
 30
0.0
 10
481.3326560796
 20
29.3438610391
 30
0.0
 10
481.3491151777
 20
29.2957862784
 30
0.0
 10
481.3767712011
 20
29.2519364186
 30
0.0
 10
481.401468349
 20
29.2222261516
 30
0.0
  0
SPLINE
  5
77F
100
AcDbEntity
  8
0
100
AcDbSpline
 62
7
  6
CONTINUOUS
 70
0
 71
3
 72
9
 73
5
 74
0
 42
0.0000001
 43
0.0000001
 44
0.0000000001
 40
0.0
 40
0.0
 40
0.0
 40
0.0
 40
0.2355596553
 40
1.0
 40
1.0
 40
1.0
 40
1.0
 10
481.401468349
 20
29.2222261516
 30
0.0
 10
481.4193790528
 20
29.2006798664
 30
0.0
 10
481.5040735157
 20
29.1165046438
 30
0.0
 10
481.6157572875
 20
29.0618894992
 30
0.0
 10
481.7035849198
 20
29.0383561561
 30
0.0
  0
SPLINE
  5
780
100
AcDbEntity
  8
0
100
AcDbSpline
 62
7
  6
CONTINUOUS
 70
0
 71
3
 72
9
 73
5
 74
0
 42
0.0000001
 43
0.0000001
 44
0.0000000001
 40
0.0
 40
0.0
 40
0.0
 40
0.0
 40
0.5597866015
 40
1.0
 40
1.0
 40
1.0
 40
1.0
 10
484.0974497093
 20
29.0704087619
 30
0.0
 10
484.120226457
 20
29.0643057508
 30
0.0
 10
484.1649120831
 20
29.0616067843
 30
0.0
 10
484.2029484305
 20
29.0932198319
 30
0.0
 10
484.2077478081
 20
29.111131353
 30
0.0
  0
SPLINE
  5
781
100
AcDbEntity
  8
0
100
AcDbSpline
 62
7
  6
CONTINUOUS
 70
0
 71
3
 72
11
 73
7
 74
0
 42
0.0000001
 43
0.0000001
 44
0.0000000001
 40
0.0
 40
0.0
 40
0.0
 40
0.0
 40
0.2094656921
 40
0.4446574861
 40
0.7119998836
 40
1.0
 40
1.0
 40
1.0
 40
1.0
 10
491.8994559871
 20
29.4142780159
 30
0.0
 10
491.920470364
 20
29.4927047381
 30
0.0
 10
491.9146949966
 20
29.6748121239
 30
0.0
 10
491.7713284771
 20
29.9199621956
 30
0.0
 10
491.5305693611
 20
30.1172579639
 30
0.0
 10
491.328881139
 20
30.2015095355
 30
0.0
 10
491.2210500909
 20
30.2304027778
 30
0.0
  0
SPLINE
  5
782
100
AcDbEntity
  8
BEZUGSACHSEN
100
AcDbSpline
 62
7
  6
CONTINUOUS
 70
0
 71
3
 72
19
 73
15
 74
0
 42
0.0000001
 43
0.0000001
 44
0.0000000001
 40
0.0
 40
0.0
 40
0.0
 40
0.0
 40
0.051729057
 40
0.1053341786
 40
0.1622493009
 40
0.2232160554
 40
0.3564757248
 40
0.5
 40
0.6435242752
 40
0.7767839446
 40
0.8377506991
 40
0.8946658214
 40
0.948270943
 40
1.0
 40
1.0
 40
1.0
 40
1.0
 10
489.8642986843
 20
35.5789490139
 30
0.0
 10
489.8042163693
 20
35.3547187617
 30
0.0
 10
489.7463145328
 20
34.8783605746
 30
0.0
 10
489.8565866303
 20
34.1508678829
 30
0.0
 10
490.1539913976
 20
33.4337401677
 30
0.0
 10
490.7987848292
 20
32.501068838
 30
0.0
 10
491.9950430118
 20
31.5213996709
 30
0.0
 10
493.7563591596
 20
30.7857999278
 30
0.0
 10
495.6495035591
 20
30.5421899185
 30
0.0
 10
497.1753281183
 20
30.7924792131
 30
0.0
 10
498.2000712751
 20
31.2777995623
 30
0.0
 10
498.8161952164
 20
31.7501479978
 30
0.0
 10
499.27544
 20
32.3250391011
 30
0.0
 10
499.4634746322
 20
32.7665283107
 30
0.0
 10
499.5235569472
 20
32.9907585629
 30
0.0
  0
SPLINE
  5
783
100
AcDbEntity
  8
0
100
AcDbSpline
 62
7
  6
CONTINUOUS
 70
0
 71
3
 72
11
 73
7
 74
0
 42
0.0000001
 43
0.0000001
 44
0.0000000001
 40
0.0
 40
0.0
 40
0.0
 40
0.0
 40
0.2865059912
 40
0.5484241175
 40
0.7833822346
 40
1.0
 40
1.0
 40
1.0
 40
1.0
 10
491.265983601
 20
28.4750590891
 30
0.0
 10
491.4229158725
 20
28.4697960898
 30
0.0
 10
491.7260593241
 20
28.4932405228
 30
0.0
 10
492.1362647528
 20
28.6385871222
 30
0.0
 10
492.450853515
 20
28.8850042614
 30
0.0
 10
492.572017418
 20
29.1114220422
 30
0.0
 10
492.6027267048
 20
29.2260994706
 30
0.0
  0
SPLINE
  5
784
100
AcDbEntity
  8
RUNDUNGEN
100
AcDbSpline
 62
7
  6
CONTINUOUS
 70
0
 71
3
 72
11
 73
7
 74
0
 42
0.0000001
 43
0.0000001
 44
0.0000000001
 40
0.0
 40
0.0
 40
0.0
 40
0.0
 40
0.2256941656
 40
0.4632959394
 40
0.7206237852
 40
1.0
 40
1.0
 40
1.0
 40
1.0
 10
530.813495774
 20
29.4694224967
 30
0.0
 10
530.8310947334
 20
29.5352747232
 30
0.0
 10
530.8436184406
 20
29.6777930327
 30
0.0
 10
530.7912306309
 20
29.8923462096
 30
0.0
 10
530.6741701195
 20
30.0976766854
 30
0.0
 10
530.5623541975
 20
30.2170457348
 30
0.0
 10
530.4990052646
 20
30.2727795033
 30
0.0
  0
SPLINE
  5
785
100
AcDbEntity
  8
0
100
AcDbSpline
 62
7
  6
CONTINUOUS
 70
0
 71
3
 72
11
 73
7
 74
0
 42
0.0000001
 43
0.0000001
 44
0.0000000001
 40
0.0
 40
0.0
 40
0.0
 40
0.0
 40
0.227142142
 40
0.4653047767
 40
0.7220182825
 40
1.0
 40
1.0
 40
1.0
 40
1.0
 10
503.4025409113
 20
25.2270294311
 30
0.0
 10
503.443003516
 20
25.3780379278
 30
0.0
 10
503.474479046
 20
25.7033605065
 30
0.0
 10
503.3657349869
 20
26.1952764094
 30
0.0
 10
503.1136652364
 20
26.6698434988
 30
0.0
 10
502.8694531058
 20
26.9494193091
 30
0.0
 10
502.7305214497
 20
27.0809639497
 30
0.0
  0
SPLINE
  5
786
100
AcDbEntity
  8
0
100
AcDbSpline
 62
7
  6
CONTINUOUS
 70
0
 71
3
 72
9
 73
5
 74
0
 42
0.0000001
 43
0.0000001
 44
0.0000000001
 40
0.0
 40
0.0
 40
0.0
 40
0.0
 40
0.4402133985
 40
1.0
 40
1.0
 40
1.0
 40
1.0
 10
483.2804590148
 20
29.3595976363
 30
0.0
 10
483.2756596372
 20
29.3416861152
 30
0.0
 10
483.2927935565
 20
29.2952902392
 30
0.0
 10
483.3328419271
 20
29.2752847997
 30
0.0
 10
483.3556186748
 20
29.2691817886
 30
0.0
  0
SPLINE
  5
787
100
AcDbEntity
  8
0
100
AcDbSpline
 62
7
  6
CONTINUOUS
 70
0
 71
3
 72
9
 73
5
 74
0
 42
0.0000001
 43
0.0000001
 44
0.0000000001
 40
0.0
 40
0.0
 40
0.0
 40
0.0
 40
0.2536121958
 40
1.0
 40
1.0
 40
1.0
 40
1.0
 10
501.5809238336
 20
23.4194189234
 30
0.0
 10
501.5967902604
 20
23.4151675272
 30
0.0
 10
501.6599299942
 20
23.4006787671
 30
0.0
 10
501.7252319938
 20
23.3952893057
 30
0.0
 10
501.7735410427
 20
23.3970893301
 30
0.0
  0
SPLINE
  5
788
100
AcDbEntity
  8
0
100
AcDbSpline
 62
7
  6
CONTINUOUS
 70
0
 71
3
 72
11
 73
7
 74
0
 42
0.0000001
 43
0.0000001
 44
0.0000000001
 40
0.0
 40
0.0
 40
0.0
 40
0.0
 40
0.2847819434
 40
0.5451774547
 40
0.7807010719
 40
1.0
 40
1.0
 40
1.0
 40
1.0
 10
501.7735410427
 20
23.3970893301
 30
0.0
 10
502.0735322719
 20
23.4082671848
 30
0.0
 10
502.6484604971
 20
23.4910459432
 30
0.0
 10
503.4168685496
 20
23.8140197462
 30
0.0
 10
504.0001378849
 20
24.3148278346
 30
0.0
 10
504.2258061175
 20
24.7553972473
 30
0.0
 10
504.2856376484
 20
24.9786915606
 30
0.0
  0
SPLINE
  5
789
100
AcDbEntity
  8
0
100
AcDbSpline
 62
7
  6
CONTINUOUS
 70
0
 71
3
 72
9
 73
5
 74
0
 42
0.0000001
 43
0.0000001
 44
0.0000000001
 40
0.0
 40
0.0
 40
0.0
 40
0.0
 40
0.239729366
 40
1.0
 40
1.0
 40
1.0
 40
1.0
 10
502.7305214497
 20
27.0809639497
 30
0.0
 10
502.7217640003
 20
27.0892557642
 30
0.0
 10
502.6827535197
 20
27.1211862184
 30
0.0
 10
502.6355690282
 20
27.1426096143
 30
0.0
 10
502.5986250802
 20
27.1525087153
 30
0.0
  0
SPLINE
  5
78A
100
AcDbEntity
  8
0
100
AcDbSpline
 62
7
  6
CONTINUOUS
 70
0
 71
3
 72
9
 73
5
 74
0
 42
0.0000001
 43
0.0000001
 44
0.0000000001
 40
0.0
 40
0.0
 40
0.0
 40
0.0
 40
0.2536121958
 40
1.0
 40
1.0
 40
1.0
 40
1.0
 10
501.6541289143
 20
23.6926240042
 30
0.0
 10
501.6699953412
 20
23.6883726079
 30
0.0
 10
501.733135075
 20
23.6738838478
 30
0.0
 10
501.7984370745
 20
23.6684943865
 30
0.0
 10
501.8467461235
 20
23.6702944109
 30
0.0
  0
SPLINE
  5
78B
100
AcDbEntity
  8
0
100
AcDbSpline
 62
7
  6
CONTINUOUS
 70
0
 71
3
 72
11
 73
7
 74
0
 42
0.0000001
 43
0.0000001
 44
0.0000000001
 40
0.0
 40
0.0
 40
0.0
 40
0.0
 40
0.2816347582
 40
0.5420479832
 40
0.7798483853
 40
1.0
 40
1.0
 40
1.0
 40
1.0
 10
501.8467461235
 20
23.6702944109
 30
0.0
 10
502.117691412
 20
23.6803899963
 30
0.0
 10
502.6393614443
 20
23.7501894516
 30
0.0
 10
503.3492134515
 20
24.0165028459
 30
0.0
 10
503.916927021
 20
24.4282271546
 30
0.0
 10
504.1772949353
 20
24.7971804866
 30
0.0
 10
504.264951855
 20
24.9901467505
 30
0.0
  0
SPLINE
  5
78C
100
AcDbEntity
  8
0
100
AcDbSpline
 62
7
  6
CONTINUOUS
 70
0
 71
3
 72
9
 73
5
 74
0
 42
0.0000001
 43
0.0000001
 44
0.0000000001
 40
0.0
 40
0.0
 40
0.0
 40
0.0
 40
0.2591205677
 40
1.0
 40
1.0
 40
1.0
 40
1.0
 10
502.671830161
 20
27.425713796
 30
0.0
 10
502.6844179099
 20
27.4223409189
 30
0.0
 10
502.7321657393
 20
27.4065692488
 30
0.0
 10
502.7766698174
 20
27.3797871343
 30
0.0
 10
502.8037265305
 20
27.3541690304
 30
0.0
  0
SPLINE
  5
78D
100
AcDbEntity
  8
0
100
AcDbSpline
 62
7
  6
CONTINUOUS
 70
0
 71
3
 72
11
 73
7
 74
0
 42
0.0000001
 43
0.0000001
 44
0.0000000001
 40
0.0
 40
0.0
 40
0.0
 40
0.0
 40
0.2779697373
 40
0.5346991835
 40
0.7728568778
 40
1.0
 40
1.0
 40
1.0
 40
1.0
 10
502.8037265305
 20
27.3541690304
 30
0.0
 10
502.9426526968
 20
27.2226295877
 30
0.0
 10
503.1868589954
 20
26.9430462696
 30
0.0
 10
503.4389570758
 20
26.4684908856
 30
0.0
 10
503.5476883401
 20
25.9765614571
 30
0.0
 10
503.5162228187
 20
25.6512404761
 30
0.0
 10
503.4757598944
 20
25.5002307867
 30
0.0
  0
SPLINE
  5
78E
100
AcDbEntity
  8
0
100
AcDbSpline
 62
7
  6
CONTINUOUS
 70
0
 71
3
 72
11
 73
7
 74
0
 42
0.0000001
 43
0.0000001
 44
0.0000000001
 40
0.0
 40
0.0
 40
0.0
 40
0.0
 40
0.2782911642
 40
0.539206302
 40
0.7792454761
 40
1.0
 40
1.0
 40
1.0
 40
1.0
 10
491.3391886818
 20
28.7482641699
 30
0.0
 10
491.4639989489
 20
28.7440784384
 30
0.0
 10
491.7072925929
 20
28.7575324012
 30
0.0
 10
492.0481241696
 20
28.8469471111
 30
0.0
 10
492.3367241369
 20
29.0010940322
 30
0.0
 10
492.4875127119
 20
29.1481738044
 30
0.0
 10
492.5457230255
 20
29.2283281965
 30
0.0
  0
SPLINE
  5
78F
100
AcDbEntity
  8
0
100
AcDbSpline
 62
7
  6
CONTINUOUS
 70
0
 71
3
 72
8
 73
4
 74
0
 42
0.0000001
 43
0.0000001
 44
0.0000000001
 40
0.0
 40
0.0
 40
0.0
 40
0.0
 40
1.0
 40
1.0
 40
1.0
 40
1.0
 10
492.5457230255
 20
29.2283281965
 30
0.0
 10
492.5758390165
 20
29.2697972904
 30
0.0
 10
492.6024440779
 20
29.3140977884
 30
0.0
 10
492.6245542646
 20
29.3603341195
 30
0.0
  0
SPLINE
  5
790
100
AcDbEntity
  8
0
100
AcDbSpline
 62
7
  6
CONTINUOUS
 70
0
 71
3
 72
11
 73
7
 74
0
 42
0.0000001
 43
0.0000001
 44
0.0000000001
 40
0.0
 40
0.0
 40
0.0
 40
0.0
 40
0.2880066977
 40
0.5553334191
 40
0.790532629
 40
1.0
 40
1.0
 40
1.0
 40
1.0
 10
491.2942551717
 20
30.5036078586
 30
0.0
 10
491.4020882732
 20
30.4747140661
 30
0.0
 10
491.6037788913
 20
30.3904736297
 30
0.0
 10
491.8445157811
 20
30.1931523724
 30
0.0
 10
491.9878860365
 20
29.9480187742
 30
0.0
 10
491.9936899814
 20
29.7659062774
 30
0.0
 10
491.9726755161
 20
29.6874792252
 30
0.0
  0
SPLINE
  5
791
100
AcDbEntity
  8
0
100
AcDbSpline
 62
7
  6
CONTINUOUS
 70
0
 71
3
 72
9
 73
5
 74
0
 42
0.0000001
 43
0.0000001
 44
0.0000000001
 40
0.0
 40
0.0
 40
0.0
 40
0.0
 40
0.5597866015
 40
1.0
 40
1.0
 40
1.0
 40
1.0
 10
484.1706547901
 20
29.3436138427
 30
0.0
 10
484.1934315377
 20
29.3375108315
 30
0.0
 10
484.2381171638
 20
29.3348118651
 30
0.0
 10
484.2761535112
 20
29.3664249127
 30
0.0
 10
484.2809528888
 20
29.3843364337
 30
0.0
  0
SPLINE
  5
792
100
AcDbEntity
  8
0
100
AcDbSpline
 62
7
  6
CONTINUOUS
 70
0
 71
3
 72
9
 73
5
 74
0
 42
0.0000001
 43
0.0000001
 44
0.0000000001
 40
0.0
 40
0.0
 40
0.0
 40
0.0
 40
0.4402133985
 40
1.0
 40
1.0
 40
1.0
 40
1.0
 10
484.0914569377
 20
31.2271720977
 30
0.0
 10
484.0962563153
 20
31.2450836187
 30
0.0
 10
484.1342926627
 20
31.2766966663
 30
0.0
 10
484.1789782888
 20
31.2739976999
 30
0.0
 10
484.2017550364
 20
31.2678946888
 30
0.0
  0
SPLINE
  5
793
100
AcDbEntity
  8
RUNDUNGEN
100
AcDbSpline
 62
7
  6
CONTINUOUS
 70
0
 71
3
 72
11
 73
7
 74
0
 42
0.0000001
 43
0.0000001
 44
0.0000000001
 40
0.0
 40
0.0
 40
0.0
 40
0.0
 40
0.2256927635
 40
0.4632951072
 40
0.7206222905
 40
1.0
 40
1.0
 40
1.0
 40
1.0
 10
472.3073722071
 20
38.7347846371
 30
0.0
 10
472.277897451
 20
38.6250699409
 30
0.0
 10
472.1772093161
 20
38.40892609
 30
0.0
 10
471.9228002253
 20
38.1429018946
 30
0.0
 10
471.582728847
 20
37.9440821138
 30
0.0
 10
471.3218616337
 20
37.8649674346
 30
0.0
 10
471.1839796927
 20
37.8373132809
 30
0.0
  0
SPLINE
  5
794
100
AcDbEntity
  8
0
100
AcDbSpline
 62
7
  6
CONTINUOUS
 70
0
 71
3
 72
9
 73
5
 74
0
 42
0.0000001
 43
0.0000001
 44
0.0000000001
 40
0.0
 40
0.0
 40
0.0
 40
0.0
 40
0.5597866015
 40
1.0
 40
1.0
 40
1.0
 40
1.0
 10
484.3640305752
 20
31.2244130892
 30
0.0
 10
484.3868073228
 20
31.2183100781
 30
0.0
 10
484.4268556935
 20
31.1983046385
 30
0.0
 10
484.4439896127
 20
31.1519087625
 30
0.0
 10
484.4391902352
 20
31.1339972415
 30
0.0
  0
SPLINE
  5
795
100
AcDbEntity
  8
0
100
AcDbSpline
 62
7
  6
CONTINUOUS
 70
0
 71
3
 72
9
 73
5
 74
0
 42
0.0000001
 43
0.0000001
 44
0.0000000001
 40
0.0
 40
0.0
 40
0.0
 40
0.0
 40
0.5597866015
 40
1.0
 40
1.0
 40
1.0
 40
1.0
 10
484.6098852746
 20
30.9828443272
 30
0.0
 10
484.6326620223
 20
30.9767413161
 30
0.0
 10
484.6773476484
 20
30.9740423496
 30
0.0
 10
484.7153839958
 20
31.0056553972
 30
0.0
 10
484.7201833734
 20
31.0235669183
 30
0.0
  0
SPLINE
  5
796
100
AcDbEntity
  8
0
100
AcDbSpline
 62
7
  6
CONTINUOUS
 70
0
 71
3
 72
11
 73
7
 74
0
 42
0.0000001
 43
0.0000001
 44
0.0000000001
 40
0.0
 40
0.0
 40
0.0
 40
0.0
 40
0.2876567391
 40
0.555407049
 40
0.7907201247
 40
1.0
 40
1.0
 40
1.0
 40
1.0
 10
485.1040250681
 20
31.9924392284
 30
0.0
 10
485.1338508679
 20
31.9844474294
 30
0.0
 10
485.1896341884
 20
31.9610054951
 30
0.0
 10
485.2565232571
 20
31.9065470941
 30
0.0
 10
485.2959938489
 20
31.8384938106
 30
0.0
 10
485.2977385183
 20
31.7880988737
 30
0.0
 10
485.2919242179
 20
31.7663996091
 30
0.0
  0
SPLINE
  5
797
100
AcDbEntity
  8
0
100
AcDbSpline
 62
7
  6
CONTINUOUS
 70
0
 71
3
 72
9
 73
5
 74
0
 42
0.0000001
 43
0.0000001
 44
0.0000000001
 40
0.0
 40
0.0
 40
0.0
 40
0.0
 40
0.5531686664
 40
1.0
 40
1.0
 40
1.0
 40
1.0
 10
484.7250883356
 20
30.3305815898
 30
0.0
 10
484.7672344114
 20
30.3099298974
 30
0.0
 10
484.8393733558
 20
30.2569368084
 30
0.0
 10
484.8625059753
 20
30.1637889098
 30
0.0
 10
484.8526937334
 20
30.1271691246
 30
0.0
  0
SPLINE
  5
798
100
AcDbEntity
  8
0
100
AcDbSpline
 62
7
  6
CONTINUOUS
 70
0
 71
3
 72
9
 73
5
 74
0
 42
0.0000001
 43
0.0000001
 44
0.0000000001
 40
0.0
 40
0.0
 40
0.0
 40
0.0
 40
0.4575243679
 40
1.0
 40
1.0
 40
1.0
 40
1.0
 10
483.2299383452
 20
30.5619851204
 30
0.0
 10
483.2377668185
 20
30.5912013802
 30
0.0
 10
483.2821942968
 20
30.6481183893
 30
0.0
 10
483.3483007509
 20
30.66844882
 30
0.0
 10
483.3838879202
 20
30.6728883592
 30
0.0
  0
SPLINE
  5
799
100
AcDbEntity
  8
0
100
AcDbSpline
 62
7
  6
CONTINUOUS
 70
0
 71
3
 72
9
 73
5
 74
0
 42
0.0000001
 43
0.0000001
 44
0.0000000001
 40
0.0
 40
0.0
 40
0.0
 40
0.0
 40
0.2441493338
 40
1.0
 40
1.0
 40
1.0
 40
1.0
 10
483.3838879202
 20
30.6728883592
 30
0.0
 10
483.3937851684
 20
30.674123052
 30
0.0
 10
483.4345783932
 20
30.6769449719
 30
0.0
 10
483.4758577921
 20
30.671783397
 30
0.0
 10
483.505683592
 20
30.663791598
 30
0.0
  0
SPLINE
  5
79A
100
AcDbEntity
  8
0
100
AcDbSpline
 62
7
  6
CONTINUOUS
 70
0
 71
3
 72
11
 73
7
 74
0
 42
0.0000001
 43
0.0000001
 44
0.0000000001
 40
0.0
 40
0.0
 40
0.0
 40
0.0
 40
0.2092798753
 40
0.444592951
 40
0.7123432609
 40
1.0
 40
1.0
 40
1.0
 40
1.0
 10
483.6691688298
 20
32.2012156049
 30
0.0
 10
483.6749831302
 20
32.2229148694
 30
0.0
 10
483.7016915267
 20
32.2656858304
 30
0.0
 10
483.7699007037
 20
32.3048864067
 30
0.0
 10
483.8550575369
 20
32.3186042311
 30
0.0
 10
483.9150882767
 20
32.3110138815
 30
0.0
 10
483.9449140765
 20
32.3030220825
 30
0.0
  0
SPLINE
  5
79B
100
AcDbEntity
  8
RUNDUNGEN
100
AcDbSpline
 62
7
  6
CONTINUOUS
 70
0
 71
3
 72
11
 73
7
 74
0
 42
0.0000001
 43
0.0000001
 44
0.0000000001
 40
0.0
 40
0.0
 40
0.0
 40
0.0
 40
0.2660806488
 40
0.5190943636
 40
0.7622194616
 40
1.0
 40
1.0
 40
1.0
 40
1.0
 10
501.7772282245
 20
4.3654000614
 30
0.0
 10
501.5371413805
 20
4.7859910169
 30
0.0
 10
501.132511718
 20
5.6457027946
 30
0.0
 10
500.7751119643
 20
6.994658312
 30
0.0
 10
500.6941189108
 20
8.3371500331
 30
0.0
 10
500.8286486086
 20
9.2101669296
 30
0.0
 10
500.9406610656
 20
9.6282030508
 30
0.0
  0
SPLINE
  5
79C
100
AcDbEntity
  8
0
100
AcDbSpline
 62
7
  6
CONTINUOUS
 70
0
 71
3
 72
9
 73
5
 74
0
 42
0.0000001
 43
0.0000001
 44
0.0000000001
 40
0.0
 40
0.0
 40
0.0
 40
0.0
 40
0.538986273
 40
1.0
 40
1.0
 40
1.0
 40
1.0
 10
485.4127400928
 20
28.0444910229
 30
0.0
 10
485.5005677251
 20
28.0209576797
 30
0.0
 10
485.673601119
 20
28.0076393199
 30
0.0
 10
485.8400181511
 20
28.0774172144
 30
0.0
 10
485.8953205122
 20
28.1320993933
 30
0.0
  0
SPLINE
  5
79D
100
AcDbEntity
  8
0
100
AcDbSpline
 62
7
  6
CONTINUOUS
 70
0
 71
3
 72
9
 73
5
 74
0
 42
0.0000001
 43
0.0000001
 44
0.0000000001
 40
0.0
 40
0.0
 40
0.0
 40
0.0
 40
0.2592261758
 40
1.0
 40
1.0
 40
1.0
 40
1.0
 10
485.8953205122
 20
28.1320993933
 30
0.0
 10
485.9036650831
 20
28.140350385
 30
0.0
 10
485.9339171779
 20
28.1740519664
 30
0.0
 10
485.9555512425
 20
28.2157122261
 30
0.0
 10
485.9642305863
 20
28.2481039782
 30
0.0
  0
SPLINE
  5
79E
100
AcDbEntity
  8
RUNDUNGEN
100
AcDbSpline
 62
7
  6
CONTINUOUS
 70
0
 71
3
 72
11
 73
7
 74
0
 42
0.0000001
 43
0.0000001
 44
0.0000000001
 40
0.0
 40
0.0
 40
0.0
 40
0.0
 40
0.2297109937
 40
0.4842558728
 40
0.7475644511
 40
1.0
 40
1.0
 40
1.0
 40
1.0
 10
515.1988078359
 20
29.7766104228
 30
0.0
 10
514.8069180577
 20
29.5477838729
 30
0.0
 10
513.8719398152
 20
29.2470637769
 30
0.0
 10
512.3764915781
 20
29.2546442075
 30
0.0
 10
510.8953518567
 20
29.6738608106
 30
0.0
 10
510.0123631916
 20
30.2181340165
 30
0.0
 10
509.63794438
 20
30.5475440066
 30
0.0
  0
SPLINE
  5
79F
100
AcDbEntity
  8
RUNDUNGEN
100
AcDbSpline
 62
7
  6
CONTINUOUS
 70
0
 71
3
 72
11
 73
7
 74
0
 42
0.0000001
 43
0.0000001
 44
0.0000000001
 40
0.0
 40
0.0
 40
0.0
 40
0.0
 40
0.2524375529
 40
0.5157480446
 40
0.7702932073
 40
1.0
 40
1.0
 40
1.0
 40
1.0
 10
485.6191310327
 20
39.6706430442
 30
0.0
 10
485.1301659525
 20
39.5725742516
 30
0.0
 10
484.0933305667
 20
39.5427151252
 30
0.0
 10
482.6010104059
 20
39.9202394943
 30
0.0
 10
481.3021308909
 20
40.6614033888
 30
0.0
 10
480.6427843356
 20
41.3893194164
 30
0.0
 10
480.417815221
 20
41.7834267039
 30
0.0
  0
SPLINE
  5
7A0
100
AcDbEntity
  8
RUNDUNGEN
100
AcDbSpline
 62
7
  6
CONTINUOUS
 70
0
 71
3
 72
9
 73
5
 74
0
 42
0.0000001
 43
0.0000001
 44
0.0000000001
 40
0.0
 40
0.0
 40
0.0
 40
0.0
 40
0.492156512
 40
1.0
 40
1.0
 40
1.0
 40
1.0
 10
504.2483425547
 20
106.3438942544
 30
0.0
 10
503.5235795289
 20
106.5380939218
 30
0.0
 10
502.0364957413
 20
106.8758634041
 30
0.0
 10
500.5530815553
 20
107.2286596576
 30
0.0
 10
499.8052174634
 20
107.4290492371
 30
0.0
  0
SPLINE
  5
7A1
100
AcDbEntity
  8
KONSTRUKTIONSELEMENTE
100
AcDbSpline
 62
7
  6
CONTINUOUS
 70
0
 71
3
 72
9
 73
5
 74
0
 42
0.0000001
 43
0.0000001
 44
0.0000000001
 40
0.0
 40
0.0
 40
0.0
 40
0.0
 40
0.479507891
 40
1.0
 40
1.0
 40
1.0
 40
1.0
 10
518.8956516136
 20
63.8551219005
 30
0.0
 10
518.9074429845
 20
63.8519624122
 30
0.0
 10
518.9341449774
 20
63.8512183954
 30
0.0
 10
518.9574259217
 20
63.8636783631
 30
0.0
 10
518.9680449067
 20
63.8716041617
 30
0.0
  0
SPLINE
  5
7A2
100
AcDbEntity
  8
KONSTRUKTIONSELEMENTE
100
AcDbSpline
 62
7
  6
CONTINUOUS
 70
0
 71
3
 72
19
 73
15
 74
0
 42
0.0000001
 43
0.0000001
 44
0.0000000001
 40
0.0
 40
0.0
 40
0.0
 40
0.0
 40
0.0053167983
 40
0.0124273829
 40
0.0327347248
 40
0.0614961942
 40
0.0986322446
 40
0.1438459278
 40
0.1966966806
 40
0.3230809068
 40
0.4726104568
 40
0.6393425026
 40
0.8170924169
 40
1.0
 40
1.0
 40
1.0
 40
1.0
 10
518.9680449067
 20
63.8716041617
 30
0.0
 10
518.984645063
 20
63.8839941873
 30
0.0
 10
519.0166933681
 20
63.9215491534
 30
0.0
 10
519.0770623895
 20
64.0341667196
 30
0.0
 10
519.1425154848
 20
64.2445591933
 30
0.0
 10
519.2114819123
 20
64.5730885907
 30
0.0
 10
519.2744980252
 20
65.0017179135
 30
0.0
 10
519.3304570643
 20
65.5255095413
 30
0.0
 10
519.3967908549
 20
66.3975718634
 30
0.0
 10
519.4446588334
 20
67.6780027753
 30
0.0
 10
519.4397241771
 20
69.4029667117
 30
0.0
 10
519.354463087
 20
71.3263802714
 30
0.0
 10
519.1682579827
 20
73.3734149366
 30
0.0
 10
518.9640702091
 20
74.7646896226
 30
0.0
 10
518.8371244352
 20
75.4658974313
 30
0.0
  0
SPLINE
  5
7A3
100
AcDbEntity
  8
KONSTRUKTIONSELEMENTE
100
AcDbSpline
 62
7
  6
CONTINUOUS
 70
0
 71
3
 72
9
 73
5
 74
0
 42
0.0000001
 43
0.0000001
 44
0.0000000001
 40
0.0
 40
0.0
 40
0.0
 40
0.0
 40
0.2510778321
 40
1.0
 40
1.0
 40
1.0
 40
1.0
 10
514.4856023166
 20
88.8298720667
 30
0.0
 10
514.7999518898
 20
88.6859151385
 30
0.0
 10
516.0416517546
 20
88.0904298543
 30
0.0
 10
517.2409495057
 20
87.4057340067
 30
0.0
 10
518.1051865813
 20
86.8430023366
 30
0.0
  0
SPLINE
  5
7A4
100
AcDbEntity
  8
KONSTRUKTIONSELEMENTE
100
AcDbSpline
 62
7
  6
CONTINUOUS
 70
0
 71
3
 72
9
 73
5
 74
0
 42
0.0000001
 43
0.0000001
 44
0.0000000001
 40
0.0
 40
0.0
 40
0.0
 40
0.0
 40
0.248984136
 40
1.0
 40
1.0
 40
1.0
 40
1.0
 10
500.6982572644
 20
91.5071749897
 30
0.0
 10
501.0406318607
 20
91.5255339771
 30
0.0
 10
502.4170656011
 20
91.5724014925
 30
0.0
 10
503.7967294812
 20
91.5152901559
 30
0.0
 10
504.8263440537
 20
91.4180625177
 30
0.0
  0
SPLINE
  5
7A5
100
AcDbEntity
  8
KONSTRUKTIONSELEMENTE
100
AcDbSpline
 62
7
  6
CONTINUOUS
 70
0
 71
3
 72
12
 73
8
 74
0
 42
0.0000001
 43
0.0000001
 44
0.0000000001
 40
0.0
 40
0.0
 40
0.0
 40
0.0
 40
0.1250699247
 40
0.2501553866
 40
0.4997777447
 40
0.7498050362
 40
1.0
 40
1.0
 40
1.0
 40
1.0
 10
496.7761600007
 20
88.2517629842
 30
0.0
 10
496.8333746459
 20
88.465290947
 30
0.0
 10
496.9937852567
 20
88.8814174963
 30
0.0
 10
497.4715902054
 20
89.6300117395
 30
0.0
 10
498.2939388952
 20
90.3919947586
 30
0.0
 10
499.4483897962
 20
91.0553418618
 30
0.0
 10
500.2767555629
 20
91.3734091891
 30
0.0
 10
500.6982572644
 20
91.5071749897
 30
0.0
  0
SPLINE
  5
7A6
100
AcDbEntity
  8
KONSTRUKTIONSELEMENTE
100
AcDbSpline
 62
7
  6
CONTINUOUS
 70
0
 71
3
 72
9
 73
5
 74
0
 42
0.0000001
 43
0.0000001
 44
0.0000000001
 40
0.0
 40
0.0
 40
0.0
 40
0.0
 40
0.5002468695
 40
1.0
 40
1.0
 40
1.0
 40
1.0
 10
494.3758280362
 20
82.0202820472
 30
0.0
 10
494.6942181755
 20
82.39622516
 30
0.0
 10
495.2782103342
 20
83.1965232972
 30
0.0
 10
495.6677505489
 20
84.1151225947
 30
0.0
 10
495.7951322921
 20
84.5905177322
 30
0.0
  0
SPLINE
  5
7A7
100
AcDbEntity
  8
KONSTRUKTIONSELEMENTE
100
AcDbSpline
 62
7
  6
CONTINUOUS
 70
0
 71
3
 72
9
 73
5
 74
0
 42
0.0000001
 43
0.0000001
 44
0.0000000001
 40
0.0
 40
0.0
 40
0.0
 40
0.0
 40
0.4997531305
 40
1.0
 40
1.0
 40
1.0
 40
1.0
 10
518.8930887364
 20
78.4014389561
 30
0.0
 10
518.7657069932
 20
77.9260438187
 30
0.0
 10
518.6437590662
 20
76.9357433837
 30
0.0
 10
518.7493620427
 20
75.950668787
 30
0.0
 10
518.8371244352
 20
75.4658974313
 30
0.0
  0
SPLINE
  5
7A8
100
AcDbEntity
  8
KONSTRUKTIONSELEMENTE
100
AcDbSpline
 62
7
  6
CONTINUOUS
 70
0
 71
3
 72
12
 73
8
 74
0
 42
0.0000001
 43
0.0000001
 44
0.0000000001
 40
0.0
 40
0.0
 40
0.0
 40
0.0
 40
0.2501944841
 40
0.5002215546
 40
0.7498441276
 40
0.8749297703
 40
1.0
 40
1.0
 40
1.0
 40
1.0
 10
518.1051865813
 20
86.8430023366
 30
0.0
 10
518.4033342902
 20
86.5164075308
 30
0.0
 10
518.9616856885
 20
85.8267712951
 30
0.0
 10
519.629796074
 20
84.6750714764
 30
0.0
 10
519.9609799868
 20
83.6040003679
 30
0.0
 10
520.0004749643
 20
82.7167950446
 30
0.0
 10
519.9313312297
 20
82.2762126916
 30
0.0
 10
519.874116445
 20
82.0626842081
 30
0.0
  0
SPLINE
  5
7A9
100
AcDbEntity
  8
RUNDUNGEN
100
AcDbSpline
 62
7
  6
CONTINUOUS
 70
0
 71
3
 72
16
 73
12
 74
0
 42
0.0000001
 43
0.0000001
 44
0.0000000001
 40
0.0
 40
0.0
 40
0.0
 40
0.0
 40
0.0242874348
 40
0.0512771385
 40
0.082901453
 40
0.1202969766
 40
0.2141635644
 40
0.3338260053
 40
0.4770520394
 40
0.6397399996
 40
1.0
 40
1.0
 40
1.0
 40
1.0
 10
531.3683546526
 20
82.2905020634
 30
0.0
 10
531.376500466
 20
82.3209026527
 30
0.0
 10
531.3814361644
 20
82.3888069629
 30
0.0
 10
531.3536884856
 20
82.4940110606
 30
0.0
 10
531.2937995059
 20
82.6040304398
 30
0.0
 10
531.1621322747
 20
82.7699225404
 30
0.0
 10
530.9132257037
 20
82.9827855711
 30
0.0
 10
530.52389326
 20
83.2331191451
 30
0.0
 10
530.033003387
 20
83.4861286981
 30
0.0
 10
529.238536381
 20
83.8249332824
 30
0.0
 10
528.591620501
 20
84.0331708363
 30
0.0
 10
528.1406829528
 20
84.1539991882
 30
0.0
  0
SPLINE
  5
7AA
100
AcDbEntity
  8
RUNDUNGEN
100
AcDbSpline
 62
7
  6
CONTINUOUS
 70
0
 71
3
 72
16
 73
12
 74
0
 42
0.0000001
 43
0.0000001
 44
0.0000000001
 40
0.0
 40
0.0
 40
0.0
 40
0.0
 40
0.0242874348
 40
0.0512771385
 40
0.082901453
 40
0.1202969766
 40
0.2141635644
 40
0.3338260053
 40
0.4770520394
 40
0.6397399996
 40
1.0
 40
1.0
 40
1.0
 40
1.0
 10
532.7132178609
 20
87.3095998859
 30
0.0
 10
532.7213636742
 20
87.3400004751
 30
0.0
 10
532.7262993727
 20
87.4079047854
 30
0.0
 10
532.6985516938
 20
87.513108883
 30
0.0
 10
532.6386627141
 20
87.6231282623
 30
0.0
 10
532.506995483
 20
87.7890203628
 30
0.0
 10
532.2580889119
 20
88.0018833936
 30
0.0
 10
531.8687564683
 20
88.2522169675
 30
0.0
 10
531.3778665952
 20
88.5052265205
 30
0.0
 10
530.5833995893
 20
88.8440311048
 30
0.0
 10
529.9364837093
 20
89.0522686587
 30
0.0
 10
529.4855461611
 20
89.1730970106
 30
0.0
  0
SPLINE
  5
7AB
100
AcDbEntity
  8
RUNDUNGEN
100
AcDbSpline
 62
7
  6
CONTINUOUS
 70
0
 71
3
 72
9
 73
5
 74
0
 42
0.0000001
 43
0.0000001
 44
0.0000000001
 40
0.0
 40
0.0
 40
0.0
 40
0.0
 40
0.4847438183
 40
1.0
 40
1.0
 40
1.0
 40
1.0
 10
532.0028178504
 20
98.3620908976
 30
0.0
 10
531.6848810472
 20
98.6121275362
 30
0.0
 10
530.9554850435
 20
99.0355769979
 30
0.0
 10
530.1615906205
 20
99.3066801115
 30
0.0
 10
529.7444933535
 20
99.4109691083
 30
0.0
  0
SPLINE
  5
7AC
100
AcDbEntity
  8
KONSTRUKTIONSELEMENTE
100
AcDbSpline
 62
7
  6
CONTINUOUS
 70
0
 71
3
 72
19
 73
15
 74
0
 42
0.0000001
 43
0.0000001
 44
0.0000000001
 40
0.0
 40
0.0
 40
0.0
 40
0.0
 40
0.1829075831
 40
0.3606574974
 40
0.5273895432
 40
0.6769190932
 40
0.8033033194
 40
0.8561540722
 40
0.9013677554
 40
0.9385038058
 40
0.9672652752
 40
0.9875726171
 40
0.9946832017
 40
1.0
 40
1.0
 40
1.0
 40
1.0
 10
494.3758280362
 20
82.0202820472
 30
0.0
 10
493.9152858668
 20
81.4764911585
 30
0.0
 10
493.0428167247
 20
80.3737058235
 30
0.0
 10
491.8580410414
 20
78.6940243532
 30
0.0
 10
490.8224959916
 20
77.0709298936
 30
0.0
 10
489.9557404857
 20
75.5795346323
 30
0.0
 10
489.3569799151
 20
74.4467149455
 30
0.0
 10
488.978395502
 20
73.6583199255
 30
0.0
 10
488.7649616374
 20
73.1767235501
 30
0.0
 10
488.6052205307
 20
72.7740116112
 30
0.0
 10
488.5006825102
 20
72.4550135934
 30
0.0
 10
488.4521703167
 20
72.2400818188
 30
0.0
 10
488.4481426397
 20
72.1123676349
 30
0.0
 10
488.457119803
 20
72.0638199276
 30
0.0
 10
488.4653009472
 20
72.0447897726
 30
0.0
  0
SPLINE
  5
7AD
100
AcDbEntity
  8
KONSTRUKTIONSELEMENTE
100
AcDbSpline
 62
7
  6
CONTINUOUS
 70
0
 71
3
 72
9
 73
5
 74
0
 42
0.0000001
 43
0.0000001
 44
0.0000000001
 40
0.0
 40
0.0
 40
0.0
 40
0.0
 40
0.520492109
 40
1.0
 40
1.0
 40
1.0
 40
1.0
 10
488.4653009472
 20
72.0447897726
 30
0.0
 10
488.4705343587
 20
72.0326163371
 30
0.0
 10
488.484466264
 20
72.0101852165
 30
0.0
 10
488.5079628766
 20
71.9974785574
 30
0.0
 10
488.5197542476
 20
71.9943190691
 30
0.0
  0
SPLINE
  5
7AE
100
AcDbEntity
  8
RUNDUNGEN
100
AcDbSpline
 62
7
  6
CONTINUOUS
 70
0
 71
3
 72
9
 73
5
 74
0
 42
0.0000001
 43
0.0000001
 44
0.0000000001
 40
0.0
 40
0.0
 40
0.0
 40
0.0
 40
0.5078433254
 40
1.0
 40
1.0
 40
1.0
 40
1.0
 10
526.8395188592
 20
100.1852300102
 30
0.0
 10
526.0916528947
 20
100.3856200914
 30
0.0
 10
524.6305763797
 20
100.8217982653
 30
0.0
 10
523.1738349986
 20
101.2728238377
 30
0.0
 10
522.4490696867
 20
101.4670241177
 30
0.0
  0
SPLINE
  5
7AF
100
AcDbEntity
  8
RUNDUNGEN
100
AcDbSpline
 62
7
  6
CONTINUOUS
 70
0
 71
3
 72
16
 73
12
 74
0
 42
0.0000001
 43
0.0000001
 44
0.0000000001
 40
0.0
 40
0.0
 40
0.0
 40
0.0
 40
0.0242874348
 40
0.0512771385
 40
0.082901453
 40
0.1202969766
 40
0.2141635644
 40
0.3338260053
 40
0.4770520394
 40
0.6397399996
 40
1.0
 40
1.0
 40
1.0
 40
1.0
 10
488.2806298516
 20
99.2152759606
 30
0.0
 10
488.2887756649
 20
99.2456765498
 30
0.0
 10
488.3184533798
 20
99.3069512568
 30
0.0
 10
488.3950856234
 20
99.3841868385
 30
0.0
 10
488.5019606909
 20
99.449521926
 30
0.0
 10
488.6989339081
 20
99.5273550837
 30
0.0
 10
489.0209248372
 20
99.5872465904
 30
0.0
 10
489.4832634109
 20
99.609375603
 30
0.0
 10
490.0348912879
 20
99.5830433668
 30
0.0
 10
490.8923221897
 20
99.4792232408
 30
0.0
 10
491.5566865529
 20
99.3361043124
 30
0.0
 10
492.0076241011
 20
99.2152759606
 30
0.0
  0
SPLINE
  5
7B0
100
AcDbEntity
  8
RUNDUNGEN
100
AcDbSpline
 62
7
  6
CONTINUOUS
 70
0
 71
3
 72
9
 73
5
 74
0
 42
0.0000001
 43
0.0000001
 44
0.0000000001
 40
0.0
 40
0.0
 40
0.0
 40
0.0
 40
0.5152567055
 40
1.0
 40
1.0
 40
1.0
 40
1.0
 10
496.9026586791
 20
108.2109057784
 30
0.0
 10
496.4892423602
 20
108.3291752813
 30
0.0
 10
495.6660431711
 20
108.4913959119
 30
0.0
 10
494.822517553
 20
108.4893919764
 30
0.0
 10
494.4220998133
 20
108.4318139466
 30
0.0
  0
SPLINE
  5
7B1
100
AcDbEntity
  8
RUNDUNGEN
100
AcDbSpline
 62
7
  6
CONTINUOUS
 70
0
 71
3
 72
16
 73
12
 74
0
 42
0.0000001
 43
0.0000001
 44
0.0000000001
 40
0.0
 40
0.0
 40
0.0
 40
0.0
 40
0.3602600004
 40
0.5229479606
 40
0.6661739947
 40
0.7858364356
 40
0.8797030234
 40
0.917098547
 40
0.9487228615
 40
0.9757125652
 40
1.0
 40
1.0
 40
1.0
 40
1.0
 10
490.6627608928
 20
94.1961781381
 30
0.0
 10
490.2118233446
 20
94.31700649
 30
0.0
 10
489.5474589815
 20
94.4601254183
 30
0.0
 10
488.6900280797
 20
94.5639455444
 30
0.0
 10
488.1384002027
 20
94.5902777806
 30
0.0
 10
487.676061629
 20
94.568148768
 30
0.0
 10
487.3540706999
 20
94.5082572613
 30
0.0
 10
487.1570974826
 20
94.4304241036
 30
0.0
 10
487.0502224151
 20
94.365089016
 30
0.0
 10
486.9735901716
 20
94.2878534343
 30
0.0
 10
486.9439124567
 20
94.2265787274
 30
0.0
 10
486.9357666433
 20
94.1961781381
 30
0.0
  0
SPLINE
  5
7B2
100
AcDbEntity
  8
0
100
AcDbSpline
 62
7
  6
CONTINUOUS
 70
0
 71
3
 72
9
 73
5
 74
0
 42
0.0000001
 43
0.0000001
 44
0.0000000001
 40
0.0
 40
0.0
 40
0.0
 40
0.0
 40
0.492156512
 40
1.0
 40
1.0
 40
1.0
 40
1.0
 10
628.8237097037
 20
106.3438942544
 30
0.0
 10
629.5484727295
 20
106.5380939218
 30
0.0
 10
631.0355565171
 20
106.8758634041
 30
0.0
 10
632.5189707031
 20
107.2286596576
 30
0.0
 10
633.2668347951
 20
107.4290492371
 30
0.0
  0
SPLINE
  5
7B3
100
AcDbEntity
  8
0
100
AcDbSpline
 62
7
  6
CONTINUOUS
 70
0
 71
3
 72
19
 73
15
 74
0
 42
0.0000001
 43
0.0000001
 44
0.0000000001
 40
0.0
 40
0.0
 40
0.0
 40
0.0
 40
0.1829075831
 40
0.3606574974
 40
0.5273895432
 40
0.6769190932
 40
0.8033033194
 40
0.8561540722
 40
0.9013677554
 40
0.9385038058
 40
0.9672652752
 40
0.9875726171
 40
0.9946832017
 40
1.0
 40
1.0
 40
1.0
 40
1.0
 10
638.6962242222
 20
82.0202820472
 30
0.0
 10
639.1567663916
 20
81.4764911585
 30
0.0
 10
640.0292355337
 20
80.3737058235
 30
0.0
 10
641.214011217
 20
78.6940243532
 30
0.0
 10
642.2495562668
 20
77.0709298936
 30
0.0
 10
643.1163117727
 20
75.5795346323
 30
0.0
 10
643.7150723433
 20
74.4467149455
 30
0.0
 10
644.0936567564
 20
73.6583199255
 30
0.0
 10
644.307090621
 20
73.1767235501
 30
0.0
 10
644.4668317277
 20
72.7740116112
 30
0.0
 10
644.5713697482
 20
72.4550135934
 30
0.0
 10
644.6198819417
 20
72.2400818188
 30
0.0
 10
644.6239096187
 20
72.1123676349
 30
0.0
 10
644.6149324554
 20
72.0638199276
 30
0.0
 10
644.6067513112
 20
72.0447897726
 30
0.0
  0
SPLINE
  5
7B4
100
AcDbEntity
  8
0
100
AcDbSpline
 62
7
  6
CONTINUOUS
 70
0
 71
3
 72
9
 73
5
 74
0
 42
0.0000001
 43
0.0000001
 44
0.0000000001
 40
0.0
 40
0.0
 40
0.0
 40
0.0
 40
0.520492109
 40
1.0
 40
1.0
 40
1.0
 40
1.0
 10
644.6067513112
 20
72.0447897726
 30
0.0
 10
644.6015178997
 20
72.0326163371
 30
0.0
 10
644.5875859944
 20
72.0101852165
 30
0.0
 10
644.5640893818
 20
71.9974785574
 30
0.0
 10
644.5522980108
 20
71.9943190691
 30
0.0
  0
SPLINE
  5
7B5
100
AcDbEntity
  8
0
100
AcDbSpline
 62
7
  6
CONTINUOUS
 70
0
 71
3
 72
9
 73
5
 74
0
 42
0.0000001
 43
0.0000001
 44
0.0000000001
 40
0.0
 40
0.0
 40
0.0
 40
0.0
 40
0.4997531305
 40
1.0
 40
1.0
 40
1.0
 40
1.0
 10
614.178963522
 20
78.4014389561
 30
0.0
 10
614.3063452652
 20
77.9260438187
 30
0.0
 10
614.4282931922
 20
76.9357433837
 30
0.0
 10
614.3226902157
 20
75.950668787
 30
0.0
 10
614.2349278232
 20
75.4658974313
 30
0.0
  0
SPLINE
  5
7B6
100
AcDbEntity
  8
0
100
AcDbSpline
 62
7
  6
CONTINUOUS
 70
0
 71
3
 72
12
 73
8
 74
0
 42
0.0000001
 43
0.0000001
 44
0.0000000001
 40
0.0
 40
0.0
 40
0.0
 40
0.0
 40
0.2501944841
 40
0.5002215546
 40
0.7498441276
 40
0.8749297703
 40
1.0
 40
1.0
 40
1.0
 40
1.0
 10
614.9668656771
 20
86.8430023366
 30
0.0
 10
614.6687179682
 20
86.5164075308
 30
0.0
 10
614.1103665699
 20
85.8267712951
 30
0.0
 10
613.4422561844
 20
84.6750714764
 30
0.0
 10
613.1110722716
 20
83.6040003679
 30
0.0
 10
613.0715772941
 20
82.7167950446
 30
0.0
 10
613.1407210287
 20
82.2762126916
 30
0.0
 10
613.1979358134
 20
82.0626842081
 30
0.0
  0
SPLINE
  5
7B7
100
AcDbEntity
  8
0
100
AcDbSpline
 62
7
  6
CONTINUOUS
 70
0
 71
3
 72
12
 73
8
 74
0
 42
0.0000001
 43
0.0000001
 44
0.0000000001
 40
0.0
 40
0.0
 40
0.0
 40
0.0
 40
0.1250699247
 40
0.2501553866
 40
0.4997777447
 40
0.7498050362
 40
1.0
 40
1.0
 40
1.0
 40
1.0
 10
636.2958922578
 20
88.2517629842
 30
0.0
 10
636.2386776125
 20
88.465290947
 30
0.0
 10
636.0782670017
 20
88.8814174963
 30
0.0
 10
635.600462053
 20
89.6300117395
 30
0.0
 10
634.7781133632
 20
90.3919947586
 30
0.0
 10
633.6236624622
 20
91.0553418618
 30
0.0
 10
632.7952966955
 20
91.3734091891
 30
0.0
 10
632.373794994
 20
91.5071749897
 30
0.0
  0
SPLINE
  5
7B8
100
AcDbEntity
  8
0
100
AcDbSpline
 62
7
  6
CONTINUOUS
 70
0
 71
3
 72
9
 73
5
 74
0
 42
0.0000001
 43
0.0000001
 44
0.0000000001
 40
0.0
 40
0.0
 40
0.0
 40
0.0
 40
0.5002468695
 40
1.0
 40
1.0
 40
1.0
 40
1.0
 10
638.6962242222
 20
82.0202820472
 30
0.0
 10
638.377834083
 20
82.39622516
 30
0.0
 10
637.7938419242
 20
83.1965232972
 30
0.0
 10
637.4043017095
 20
84.1151225947
 30
0.0
 10
637.2769199663
 20
84.5905177322
 30
0.0
  0
SPLINE
  5
7B9
100
AcDbEntity
  8
0
100
AcDbSpline
 62
7
  6
CONTINUOUS
 70
0
 71
3
 72
9
 73
5
 74
0
 42
0.0000001
 43
0.0000001
 44
0.0000000001
 40
0.0
 40
0.0
 40
0.0
 40
0.0
 40
0.5078433254
 40
1.0
 40
1.0
 40
1.0
 40
1.0
 10
606.2325333992
 20
100.1852300102
 30
0.0
 10
606.9803993637
 20
100.3856200914
 30
0.0
 10
608.4414758787
 20
100.8217982653
 30
0.0
 10
609.8982172598
 20
101.2728238377
 30
0.0
 10
610.6229825717
 20
101.4670241177
 30
0.0
  0
SPLINE
  5
7BA
100
AcDbEntity
  8
0
100
AcDbSpline
 62
7
  6
CONTINUOUS
 70
0
 71
3
 72
9
 73
5
 74
0
 42
0.0000001
 43
0.0000001
 44
0.0000000001
 40
0.0
 40
0.0
 40
0.0
 40
0.0
 40
0.248984136
 40
1.0
 40
1.0
 40
1.0
 40
1.0
 10
632.373794994
 20
91.5071749897
 30
0.0
 10
632.0314203977
 20
91.5255339771
 30
0.0
 10
630.6549866573
 20
91.5724014925
 30
0.0
 10
629.2753227772
 20
91.5152901559
 30
0.0
 10
628.2457082047
 20
91.4180625177
 30
0.0
  0
SPLINE
  5
7BB
100
AcDbEntity
  8
0
100
AcDbSpline
 62
7
  6
CONTINUOUS
 70
0
 71
3
 72
9
 73
5
 74
0
 42
0.0000001
 43
0.0000001
 44
0.0000000001
 40
0.0
 40
0.0
 40
0.0
 40
0.0
 40
0.2510778321
 40
1.0
 40
1.0
 40
1.0
 40
1.0
 10
618.5864499418
 20
88.8298720667
 30
0.0
 10
618.2721003686
 20
88.6859151385
 30
0.0
 10
617.0304005038
 20
88.0904298543
 30
0.0
 10
615.8311027527
 20
87.4057340067
 30
0.0
 10
614.9668656771
 20
86.8430023366
 30
0.0
  0
SPLINE
  5
7BC
100
AcDbEntity
  8
0
100
AcDbSpline
 62
7
  6
CONTINUOUS
 70
0
 71
3
 72
9
 73
5
 74
0
 42
0.0000001
 43
0.0000001
 44
0.0000000001
 40
0.0
 40
0.0
 40
0.0
 40
0.0
 40
0.479507891
 40
1.0
 40
1.0
 40
1.0
 40
1.0
 10
614.1764006448
 20
63.8551219005
 30
0.0
 10
614.1646092739
 20
63.8519624122
 30
0.0
 10
614.137907281
 20
63.8512183954
 30
0.0
 10
614.1146263367
 20
63.8636783631
 30
0.0
 10
614.1040073517
 20
63.8716041617
 30
0.0
  0
SPLINE
  5
7BD
100
AcDbEntity
  8
0
100
AcDbSpline
 62
7
  6
CONTINUOUS
 70
0
 71
3
 72
19
 73
15
 74
0
 42
0.0000001
 43
0.0000001
 44
0.0000000001
 40
0.0
 40
0.0
 40
0.0
 40
0.0
 40
0.0053167983
 40
0.0124273829
 40
0.0327347248
 40
0.0614961942
 40
0.0986322446
 40
0.1438459278
 40
0.1966966806
 40
0.3230809068
 40
0.4726104568
 40
0.6393425026
 40
0.8170924169
 40
1.0
 40
1.0
 40
1.0
 40
1.0
 10
614.1040073517
 20
63.8716041617
 30
0.0
 10
614.0874071954
 20
63.8839941873
 30
0.0
 10
614.0553588903
 20
63.9215491534
 30
0.0
 10
613.9949898689
 20
64.0341667196
 30
0.0
 10
613.9295367736
 20
64.2445591933
 30
0.0
 10
613.8605703461
 20
64.5730885907
 30
0.0
 10
613.7975542332
 20
65.0017179135
 30
0.0
 10
613.7415951941
 20
65.5255095413
 30
0.0
 10
613.6752614035
 20
66.3975718634
 30
0.0
 10
613.627393425
 20
67.6780027753
 30
0.0
 10
613.6323280813
 20
69.4029667117
 30
0.0
 10
613.7175891714
 20
71.3263802714
 30
0.0
 10
613.9037942757
 20
73.3734149366
 30
0.0
 10
614.1079820493
 20
74.7646896226
 30
0.0
 10
614.2349278232
 20
75.4658974313
 30
0.0
  0
SPLINE
  5
7BE
100
AcDbEntity
  8
0
100
AcDbSpline
 62
7
  6
CONTINUOUS
 70
0
 71
3
 72
16
 73
12
 74
0
 42
0.0000001
 43
0.0000001
 44
0.0000000001
 40
0.0
 40
0.0
 40
0.0
 40
0.0
 40
0.0242874348
 40
0.0512771385
 40
0.082901453
 40
0.1202969766
 40
0.2141635644
 40
0.3338260053
 40
0.4770520394
 40
0.6397399996
 40
1.0
 40
1.0
 40
1.0
 40
1.0
 10
601.7036976058
 20
82.2905020634
 30
0.0
 10
601.6955517924
 20
82.3209026527
 30
0.0
 10
601.690616094
 20
82.3888069629
 30
0.0
 10
601.7183637728
 20
82.4940110606
 30
0.0
 10
601.7782527525
 20
82.6040304398
 30
0.0
 10
601.9099199837
 20
82.7699225404
 30
0.0
 10
602.1588265547
 20
82.9827855711
 30
0.0
 10
602.5481589984
 20
83.2331191451
 30
0.0
 10
603.0390488714
 20
83.4861286981
 30
0.0
 10
603.8335158774
 20
83.8249332824
 30
0.0
 10
604.4804317574
 20
84.0331708363
 30
0.0
 10
604.9313693056
 20
84.1539991882
 30
0.0
  0
SPLINE
  5
7BF
100
AcDbEntity
  8
0
100
AcDbSpline
 62
7
  6
CONTINUOUS
 70
0
 71
3
 72
16
 73
12
 74
0
 42
0.0000001
 43
0.0000001
 44
0.0000000001
 40
0.0
 40
0.0
 40
0.0
 40
0.0
 40
0.0242874348
 40
0.0512771385
 40
0.082901453
 40
0.1202969766
 40
0.2141635644
 40
0.3338260053
 40
0.4770520394
 40
0.6397399996
 40
1.0
 40
1.0
 40
1.0
 40
1.0
 10
644.7914224068
 20
99.2152759606
 30
0.0
 10
644.7832765935
 20
99.2456765498
 30
0.0
 10
644.7535988786
 20
99.3069512568
 30
0.0
 10
644.676966635
 20
99.3841868385
 30
0.0
 10
644.5700915676
 20
99.449521926
 30
0.0
 10
644.3731183503
 20
99.5273550837
 30
0.0
 10
644.0511274212
 20
99.5872465904
 30
0.0
 10
643.5887888475
 20
99.609375603
 30
0.0
 10
643.0371609705
 20
99.5830433668
 30
0.0
 10
642.1797300687
 20
99.4792232408
 30
0.0
 10
641.5153657056
 20
99.3361043124
 30
0.0
 10
641.0644281573
 20
99.2152759606
 30
0.0
  0
SPLINE
  5
7C0
100
AcDbEntity
  8
0
100
AcDbSpline
 62
7
  6
CONTINUOUS
 70
0
 71
3
 72
9
 73
5
 74
0
 42
0.0000001
 43
0.0000001
 44
0.0000000001
 40
0.0
 40
0.0
 40
0.0
 40
0.0
 40
0.5152567055
 40
1.0
 40
1.0
 40
1.0
 40
1.0
 10
636.1693935793
 20
108.2109057784
 30
0.0
 10
636.5828098982
 20
108.3291752813
 30
0.0
 10
637.4060090873
 20
108.4913959119
 30
0.0
 10
638.2495347054
 20
108.4893919764
 30
0.0
 10
638.6499524451
 20
108.4318139466
 30
0.0
  0
SPLINE
  5
7C1
100
AcDbEntity
  8
0
100
AcDbSpline
 62
7
  6
CONTINUOUS
 70
0
 71
3
 72
16
 73
12
 74
0
 42
0.0000001
 43
0.0000001
 44
0.0000000001
 40
0.0
 40
0.0
 40
0.0
 40
0.0
 40
0.3602600004
 40
0.5229479606
 40
0.6661739947
 40
0.7858364356
 40
0.8797030234
 40
0.917098547
 40
0.9487228615
 40
0.9757125652
 40
1.0
 40
1.0
 40
1.0
 40
1.0
 10
642.4092913656
 20
94.1961781381
 30
0.0
 10
642.8602289138
 20
94.31700649
 30
0.0
 10
643.5245932769
 20
94.4601254183
 30
0.0
 10
644.3820241787
 20
94.5639455444
 30
0.0
 10
644.9336520557
 20
94.5902777806
 30
0.0
 10
645.3959906294
 20
94.568148768
 30
0.0
 10
645.7179815585
 20
94.5082572613
 30
0.0
 10
645.9149547758
 20
94.4304241036
 30
0.0
 10
646.0218298433
 20
94.365089016
 30
0.0
 10
646.0984620868
 20
94.2878534343
 30
0.0
 10
646.1281398017
 20
94.2265787274
 30
0.0
 10
646.1362856151
 20
94.1961781381
 30
0.0
  0
SPLINE
  5
7C2
100
AcDbEntity
  8
0
100
AcDbSpline
 62
7
  6
CONTINUOUS
 70
0
 71
3
 72
16
 73
12
 74
0
 42
0.0000001
 43
0.0000001
 44
0.0000000001
 40
0.0
 40
0.0
 40
0.0
 40
0.0
 40
0.0242874348
 40
0.0512771385
 40
0.082901453
 40
0.1202969766
 40
0.2141635644
 40
0.3338260053
 40
0.4770520394
 40
0.6397399996
 40
1.0
 40
1.0
 40
1.0
 40
1.0
 10
600.3588343975
 20
87.3095998859
 30
0.0
 10
600.3506885842
 20
87.3400004751
 30
0.0
 10
600.3457528857
 20
87.4079047854
 30
0.0
 10
600.3735005646
 20
87.513108883
 30
0.0
 10
600.4333895443
 20
87.6231282623
 30
0.0
 10
600.5650567754
 20
87.7890203628
 30
0.0
 10
600.8139633465
 20
88.0018833936
 30
0.0
 10
601.2032957901
 20
88.2522169675
 30
0.0
 10
601.6941856632
 20
88.5052265205
 30
0.0
 10
602.4886526691
 20
88.8440311048
 30
0.0
 10
603.1355685491
 20
89.0522686587
 30
0.0
 10
603.5865060973
 20
89.1730970106
 30
0.0
  0
SPLINE
  5
7C3
100
AcDbEntity
  8
0
100
AcDbSpline
 62
7
  6
CONTINUOUS
 70
0
 71
3
 72
9
 73
5
 74
0
 42
0.0000001
 43
0.0000001
 44
0.0000000001
 40
0.0
 40
0.0
 40
0.0
 40
0.0
 40
0.4847438183
 40
1.0
 40
1.0
 40
1.0
 40
1.0
 10
601.069234408
 20
98.3620908976
 30
0.0
 10
601.3871712112
 20
98.6121275362
 30
0.0
 10
602.1165672149
 20
99.0355769979
 30
0.0
 10
602.9104616379
 20
99.3066801115
 30
0.0
 10
603.3275589049
 20
99.4109691083
 30
0.0
  0
SPLINE
  5
7C4
100
AcDbEntity
  8
KONSTRUKTIONSELEMENTE
100
AcDbSpline
 62
7
  6
CONTINUOUS
 70
0
 71
3
 72
14
 73
10
 74
0
 42
0.0000001
 43
0.0000001
 44
0.0000000001
 40
0.0
 40
0.0
 40
0.0
 40
0.0
 40
0.2183594552
 40
0.3271656908
 40
0.4433163075
 40
0.5706940954
 40
0.7085256149
 40
0.8528448111
 40
1.0
 40
1.0
 40
1.0
 40
1.0
 10
265.5825550752
 20
69.8654946988
 30
0.0
 10
265.3166132924
 20
70.0313075293
 30
0.0
 10
264.9046585522
 20
70.2607692228
 30
0.0
 10
264.3114155448
 20
70.4940756474
 30
0.0
 10
263.818325596
 20
70.6144212236
 30
0.0
 10
263.2691496383
 20
70.6547652834
 30
0.0
 10
262.6820127035
 20
70.5705890967
 30
0.0
 10
262.1045176035
 20
70.338881405
 30
0.0
 10
261.7638602694
 20
70.086432015
 30
0.0
 10
261.6120842566
 20
69.9395614169
 30
0.0
  0
SPLINE
  5
7C5
100
AcDbEntity
  8
KONSTRUKTIONSELEMENTE
100
AcDbSpline
 62
7
  6
CONTINUOUS
 70
0
 71
3
 72
28
 73
24
 74
0
 42
0.0000001
 43
0.0000001
 44
0.0000000001
 40
0.0
 40
0.0
 40
0.0
 40
0.0
 40
0.0139516498
 40
0.0185680024
 40
0.0215584049
 40
0.0229683062
 40
0.0231133966
 40
0.023324789
 40
0.0247636009
 40
0.0274726968
 40
0.0363102737
 40
0.0492114795
 40
0.0657143278
 40
0.0853665318
 40
0.1326974167
 40
0.1891686284
 40
0.2531665072
 40
0.3235093684
 40
0.399111817
 40
0.4790285272
 40
0.6481940138
 40
0.8242447447
 40
1.0
 40
1.0
 40
1.0
 40
1.0
 10
265.3326137062
 20
68.3786120974
 30
0.0
 10
265.3280785075
 20
68.4040819519
 30
0.0
 10
265.3207949819
 20
68.4383666011
 30
0.0
 10
265.3105288155
 20
68.4758610761
 30
0.0
 10
265.3054178132
 20
68.4933682088
 30
0.0
 10
265.3033983174
 20
68.49943787
 30
0.0
 10
265.3020915518
 20
68.5039694343
 30
0.0
 10
265.3040306329
 20
68.498821244
 30
0.0
 10
265.305987723
 20
68.4938664805
 30
0.0
 10
265.3159895125
 20
68.4690535518
 30
0.0
 10
265.3339943921
 20
68.4299070302
 30
0.0
 10
265.3661843593
 20
68.3654345192
 30
0.0
 10
265.4089310729
 20
68.2856268327
 30
0.0
 10
265.4854569732
 20
68.1508100296
 30
0.0
 10
265.6057618864
 20
67.9561055828
 30
0.0
 10
265.7783636068
 20
67.6971020943
 30
0.0
 10
265.9836311609
 20
67.4088669222
 30
0.0
 10
266.2175253567
 20
67.0976153754
 30
0.0
 10
266.4768822722
 20
66.7687261526
 30
0.0
 10
266.8594046167
 20
66.3037570419
 30
0.0
 10
267.3779519168
 20
65.7097285891
 30
0.0
 10
268.0379476635
 20
65.0040792231
 30
0.0
 10
268.4992054817
 20
64.5425593383
 30
0.0
 10
268.7336120691
 20
64.3161399616
 30
0.0
  0
SPLINE
  5
7C6
100
AcDbEntity
  8
KONSTRUKTIONSELEMENTE
100
AcDbSpline
 62
7
  6
CONTINUOUS
 70
0
 71
3
 72
17
 73
13
 74
0
 42
0.0000001
 43
0.0000001
 44
0.0000000001
 40
0.0
 40
0.0
 40
0.0
 40
0.0
 40
0.0672998635
 40
0.1329602329
 40
0.1944855734
 40
0.2504309869
 40
0.3502866628
 40
0.4545528348
 40
0.5743822025
 40
0.7091855667
 40
0.853565524
 40
1.0
 40
1.0
 40
1.0
 40
1.0
 10
261.6120842566
 20
69.9395614169
 30
0.0
 10
261.4400388598
 20
69.7730765432
 30
0.0
 10
261.146704517
 20
69.3917529494
 30
0.0
 10
260.896594859
 20
68.7370663144
 30
0.0
 10
260.8322041583
 20
68.0821365398
 30
0.0
 10
260.9263392332
 20
67.3097326729
 30
0.0
 10
261.2664801175
 20
66.4383789922
 30
0.0
 10
261.8518340075
 20
65.4443853004
 30
0.0
 10
262.5958314762
 20
64.4050726973
 30
0.0
 10
263.4921158664
 20
63.3036499924
 30
0.0
 10
264.5056482654
 20
62.1780945138
 30
0.0
 10
265.2325789885
 20
61.4414010122
 30
0.0
 10
265.6072524114
 20
61.0794942766
 30
0.0
  0
SPLINE
  5
7C7
100
AcDbEntity
  8
KONSTRUKTIONSELEMENTE
100
AcDbSpline
 62
7
  6
CONTINUOUS
 70
0
 71
3
 72
13
 73
9
 74
0
 42
0.0000001
 43
0.0000001
 44
0.0000000001
 40
0.0
 40
0.0
 40
0.0
 40
0.0
 40
0.147827563
 40
0.2910391013
 40
0.5396303344
 40
0.6488307226
 40
0.7583173339
 40
1.0
 40
1.0
 40
1.0
 40
1.0
 10
283.3353819417
 20
48.1873013115
 30
0.0
 10
283.5260897196
 20
48.3718453964
 30
0.0
 10
283.8440712573
 20
48.8002822739
 30
0.0
 10
284.1540548238
 20
49.7331154937
 30
0.0
 10
284.0680407171
 20
50.6658831303
 30
0.0
 10
283.7692678732
 20
51.4498869667
 30
0.0
 10
283.4007647589
 20
52.1910766745
 30
0.0
 10
283.0564028928
 20
52.7212752478
 30
0.0
 10
282.8074898935
 20
53.0766381733
 30
0.0
  0
SPLINE
  5
7C8
100
AcDbEntity
  8
KONSTRUKTIONSELEMENTE
100
AcDbSpline
 62
7
  6
CONTINUOUS
 70
0
 71
3
 72
21
 73
17
 74
0
 42
0.0000001
 43
0.0000001
 44
0.0000000001
 40
0.0
 40
0.0
 40
0.0
 40
0.0
 40
0.1864112425
 40
0.364525022
 40
0.5302733672
 40
0.6799387301
 40
0.747406246
 40
0.8091075232
 40
0.8642884189
 40
0.9119336236
 40
0.9509426621
 40
0.9796295776
 40
0.9894492175
 40
0.9958898775
 40
0.9986057402
 40
1.0
 40
1.0
 40
1.0
 40
1.0
 10
279.3402137869
 20
54.0709494332
 30
0.0
 10
279.494558529
 20
53.9218638607
 30
0.0
 10
279.7998071262
 20
53.6338512884
 30
0.0
 10
280.2541200871
 20
53.2260427616
 30
0.0
 10
280.6873212037
 20
52.8583430567
 30
0.0
 10
281.0322177269
 20
52.5837704303
 30
0.0
 10
281.289114058
 20
52.3912483426
 30
0.0
 10
281.4615407842
 20
52.2676232016
 30
0.0
 10
281.618381459
 20
52.1610142439
 30
0.0
 10
281.7551224785
 20
52.0729922472
 30
0.0
 10
281.8709930155
 20
52.0043506769
 30
0.0
 10
281.9454412298
 20
51.9628834903
 30
0.0
 10
281.9967257031
 20
51.9377304063
 30
0.0
 10
282.0094046045
 20
51.9312929629
 30
0.0
 10
282.0307050951
 20
51.922782987
 30
0.0
 10
282.0236502579
 20
51.9253932639
 30
0.0
 10
282.0221361914
 20
51.9259258951
 30
0.0
  0
SPLINE
  5
7C9
100
AcDbEntity
  8
KONSTRUKTIONSELEMENTE
100
AcDbSpline
 62
7
  6
CONTINUOUS
 70
0
 71
3
 72
9
 73
5
 74
0
 42
0.0000001
 43
0.0000001
 44
0.0000000001
 40
0.0
 40
0.0
 40
0.0
 40
0.0
 40
0.5263197575
 40
1.0
 40
1.0
 40
1.0
 40
1.0
 10
276.2138541292
 20
50.8343037482
 30
0.0
 10
276.6029416341
 20
50.4584740785
 30
0.0
 10
277.3600372206
 20
49.7626275812
 30
0.0
 10
278.1575850977
 20
49.1126372032
 30
0.0
 10
278.5483175396
 20
48.8221951169
 30
0.0
  0
SPLINE
  5
7CA
100
AcDbEntity
  8
KONSTRUKTIONSELEMENTE
100
AcDbSpline
 62
7
  6
CONTINUOUS
 70
0
 71
3
 72
14
 73
10
 74
0
 42
0.0000001
 43
0.0000001
 44
0.0000000001
 40
0.0
 40
0.0
 40
0.0
 40
0.0
 40
0.238355881
 40
0.3472682142
 40
0.4568467248
 40
0.5760006498
 40
0.7088709196
 40
0.852214807
 40
1.0
 40
1.0
 40
1.0
 40
1.0
 10
278.5792312729
 20
48.7992747842
 30
0.0
 10
278.9149170957
 20
48.5510280406
 30
0.0
 10
279.418454003
 20
48.2063196052
 30
0.0
 10
280.1272895193
 20
47.8331000862
 30
0.0
 10
280.6782942022
 20
47.6135288935
 30
0.0
 10
281.3014672658
 20
47.4797780606
 30
0.0
 10
282.0016841876
 20
47.4899004585
 30
0.0
 10
282.7224230834
 20
47.7098989823
 30
0.0
 10
283.1493575311
 20
48.007289227
 30
0.0
 10
283.3353819417
 20
48.1873013115
 30
0.0
  0
SPLINE
  5
7CB
100
AcDbEntity
  8
KONSTRUKTIONSELEMENTE
100
AcDbSpline
 62
7
  6
CONTINUOUS
 70
0
 71
3
 72
13
 73
9
 74
0
 42
0.0000001
 43
0.0000001
 44
0.0000000001
 40
0.0
 40
0.0
 40
0.0
 40
0.0
 40
0.2266749134
 40
0.4472161745
 40
0.5713587125
 40
0.7075537383
 40
0.8520150675
 40
1.0
 40
1.0
 40
1.0
 40
1.0
 10
234.8188080315
 20
99.6904656142
 30
0.0
 10
234.5239139474
 20
99.8908969231
 30
0.0
 10
233.9255221519
 20
100.2627470002
 30
0.0
 10
233.0835838042
 20
100.6048550596
 30
0.0
 10
232.3295983026
 20
100.71038642
 30
0.0
 10
231.6886540678
 20
100.6566135016
 30
0.0
 10
231.0459887922
 20
100.4274077333
 30
0.0
 10
230.6666677898
 20
100.153995639
 30
0.0
 10
230.4993858844
 20
99.9921203002
 30
0.0
  0
SPLINE
  5
7CC
100
AcDbEntity
  8
KONSTRUKTIONSELEMENTE
100
AcDbSpline
 62
7
  6
CONTINUOUS
 70
0
 71
3
 72
28
 73
24
 74
0
 42
0.0000001
 43
0.0000001
 44
0.0000000001
 40
0.0
 40
0.0
 40
0.0
 40
0.0
 40
0.0139516498
 40
0.0185680024
 40
0.0215584049
 40
0.0229683062
 40
0.0231133966
 40
0.023324789
 40
0.0247636009
 40
0.0274726968
 40
0.0363102737
 40
0.0492114795
 40
0.0657143278
 40
0.0853665318
 40
0.1326974167
 40
0.1891686284
 40
0.2531665072
 40
0.3235093684
 40
0.399111817
 40
0.4790285272
 40
0.6481940138
 40
0.8242447447
 40
1.0
 40
1.0
 40
1.0
 40
1.0
 10
234.219915334
 20
98.4311709807
 30
0.0
 10
234.2153801353
 20
98.4566408351
 30
0.0
 10
234.2080966096
 20
98.4909254844
 30
0.0
 10
234.1978304433
 20
98.5284199594
 30
0.0
 10
234.192719441
 20
98.5459270921
 30
0.0
 10
234.1906999452
 20
98.5519967532
 30
0.0
 10
234.1893931796
 20
98.5565283176
 30
0.0
 10
234.1913322607
 20
98.5513801273
 30
0.0
 10
234.1932893508
 20
98.5464253637
 30
0.0
 10
234.2032911403
 20
98.5216124351
 30
0.0
 10
234.2212960199
 20
98.4824659135
 30
0.0
 10
234.2534859871
 20
98.4179934024
 30
0.0
 10
234.2962327007
 20
98.3381857159
 30
0.0
 10
234.372758601
 20
98.2033689129
 30
0.0
 10
234.4930635142
 20
98.0086644661
 30
0.0
 10
234.6656652346
 20
97.7496609775
 30
0.0
 10
234.8709327886
 20
97.4614258055
 30
0.0
 10
235.1048269845
 20
97.1501742586
 30
0.0
 10
235.3641839
 20
96.8212850359
 30
0.0
 10
235.7467062445
 20
96.3563159251
 30
0.0
 10
236.2652535446
 20
95.7622874723
 30
0.0
 10
236.9252492913
 20
95.0566381064
 30
0.0
 10
237.3865071095
 20
94.5951182215
 30
0.0
 10
237.6209136969
 20
94.3686988449
 30
0.0
  0
SPLINE
  5
7CD
100
AcDbEntity
  8
KONSTRUKTIONSELEMENTE
100
AcDbSpline
 62
7
  6
CONTINUOUS
 70
0
 71
3
 72
17
 73
13
 74
0
 42
0.0000001
 43
0.0000001
 44
0.0000000001
 40
0.0
 40
0.0
 40
0.0
 40
0.0
 40
0.0672998635
 40
0.1329602329
 40
0.1944855734
 40
0.2504309869
 40
0.3502866628
 40
0.4545528348
 40
0.5743822025
 40
0.7091855667
 40
0.853565524
 40
1.0
 40
1.0
 40
1.0
 40
1.0
 10
230.4993858844
 20
99.9921203002
 30
0.0
 10
230.3273404876
 20
99.8256354265
 30
0.0
 10
230.0340061448
 20
99.4443118326
 30
0.0
 10
229.7838964868
 20
98.7896251977
 30
0.0
 10
229.7195057861
 20
98.1346954231
 30
0.0
 10
229.813640861
 20
97.3622915561
 30
0.0
 10
230.1537817453
 20
96.4909378755
 30
0.0
 10
230.7391356353
 20
95.4969441837
 30
0.0
 10
231.483133104
 20
94.4576315805
 30
0.0
 10
232.3794174942
 20
93.3562088756
 30
0.0
 10
233.3929498932
 20
92.2306533971
 30
0.0
 10
234.1198806163
 20
91.4939598954
 30
0.0
 10
234.4945540392
 20
91.1320531598
 30
0.0
  0
SPLINE
  5
7CE
100
AcDbEntity
  8
KONSTRUKTIONSELEMENTE
100
AcDbSpline
 62
7
  6
CONTINUOUS
 70
0
 71
3
 72
14
 73
10
 74
0
 42
0.0000001
 43
0.0000001
 44
0.0000000001
 40
0.0
 40
0.0
 40
0.0
 40
0.0
 40
0.1478176424
 40
0.2924483027
 40
0.4289528093
 40
0.5542230241
 40
0.6675850853
 40
0.7759002898
 40
1.0
 40
1.0
 40
1.0
 40
1.0
 10
252.2226835695
 20
78.2398601948
 30
0.0
 10
252.3859119835
 20
78.3978130514
 30
0.0
 10
252.6670518417
 20
78.7572988917
 30
0.0
 10
252.9181183413
 20
79.3750410967
 30
0.0
 10
253.0012376654
 20
80.0001113657
 30
0.0
 10
252.9507504549
 20
80.5779360526
 30
0.0
 10
252.8157232307
 20
81.0956533072
 30
0.0
 10
252.5582146097
 20
81.7316039469
 30
0.0
 10
252.3090846592
 20
82.1796302102
 30
0.0
 10
252.1283089409
 20
82.4727203471
 30
0.0
  0
SPLINE
  5
7CF
100
AcDbEntity
  8
KONSTRUKTIONSELEMENTE
100
AcDbSpline
 62
7
  6
CONTINUOUS
 70
0
 71
3
 72
21
 73
17
 74
0
 42
0.0000001
 43
0.0000001
 44
0.0000000001
 40
0.0
 40
0.0
 40
0.0
 40
0.0
 40
0.1864112425
 40
0.364525022
 40
0.5302733672
 40
0.6799387301
 40
0.747406246
 40
0.8091075232
 40
0.8642884189
 40
0.9119336236
 40
0.9509426621
 40
0.9796295776
 40
0.9894492175
 40
0.9958898775
 40
0.9986057402
 40
1.0
 40
1.0
 40
1.0
 40
1.0
 10
248.2275154147
 20
84.1235083165
 30
0.0
 10
248.3818601568
 20
83.974422744
 30
0.0
 10
248.687108754
 20
83.6864101717
 30
0.0
 10
249.1414217149
 20
83.2786016449
 30
0.0
 10
249.5746228315
 20
82.91090194
 30
0.0
 10
249.9195193547
 20
82.6363293136
 30
0.0
 10
250.1764156858
 20
82.4438072259
 30
0.0
 10
250.348842412
 20
82.3201820849
 30
0.0
 10
250.5056830868
 20
82.2135731272
 30
0.0
 10
250.6424241063
 20
82.1255511304
 30
0.0
 10
250.7582946433
 20
82.0569095601
 30
0.0
 10
250.8327428576
 20
82.0154423735
 30
0.0
 10
250.8840273309
 20
81.9902892896
 30
0.0
 10
250.8967062323
 20
81.9838518461
 30
0.0
 10
250.9180067229
 20
81.9753418703
 30
0.0
 10
250.9109518857
 20
81.9779521472
 30
0.0
 10
250.9094378192
 20
81.9784847784
 30
0.0
  0
SPLINE
  5
7D0
100
AcDbEntity
  8
KONSTRUKTIONSELEMENTE
100
AcDbSpline
 62
7
  6
CONTINUOUS
 70
0
 71
3
 72
14
 73
10
 74
0
 42
0.0000001
 43
0.0000001
 44
0.0000000001
 40
0.0
 40
0.0
 40
0.0
 40
0.0
 40
0.2853075585
 40
0.4098818106
 40
0.5208692916
 40
0.6238507303
 40
0.7336576496
 40
0.8616333138
 40
1.0
 40
1.0
 40
1.0
 40
1.0
 10
245.101155757
 20
80.8868626314
 30
0.0
 10
245.6733148869
 20
80.3341993511
 30
0.0
 10
246.5236729428
 20
79.5675666273
 30
0.0
 10
247.6773822069
 20
78.6842238621
 30
0.0
 10
248.4671005515
 20
78.1651747766
 30
0.0
 10
249.2735208495
 20
77.7531442203
 30
0.0
 10
250.2004267504
 20
77.4983062268
 30
0.0
 10
251.2746507503
 20
77.5795402761
 30
0.0
 10
251.9454445092
 20
77.9715815265
 30
0.0
 10
252.2226835695
 20
78.2398601948
 30
0.0
  0
SPLINE
  5
7D1
100
AcDbEntity
  8
KONSTRUKTIONSELEMENTE
100
AcDbSpline
 62
7
  6
CONTINUOUS
 70
0
 71
3
 72
9
 73
5
 74
0
 42
0.0000001
 43
0.0000001
 44
0.0000000001
 40
0.0
 40
0.0
 40
0.0
 40
0.0
 40
0.4992056363
 40
1.0
 40
1.0
 40
1.0
 40
1.0
 10
270.2206436747
 20
68.9653330782
 30
0.0
 10
270.2203645115
 20
68.1481306051
 30
0.0
 10
269.9525639823
 20
66.5003333437
 30
0.0
 10
269.1746931531
 20
65.0241466575
 30
0.0
 10
268.683802301
 20
64.3675618696
 30
0.0
  0
SPLINE
  5
7D2
100
AcDbEntity
  8
KONSTRUKTIONSELEMENTE
100
AcDbSpline
 62
7
  6
CONTINUOUS
 70
0
 71
3
 72
11
 73
7
 74
0
 42
0.0000001
 43
0.0000001
 44
0.0000000001
 40
0.0
 40
0.0
 40
0.0
 40
0.0
 40
0.2503834639
 40
0.5009562809
 40
0.7509829001
 40
1.0
 40
1.0
 40
1.0
 40
1.0
 10
265.0181533377
 20
61.6556746797
 30
0.0
 10
264.3089933675
 20
61.3975937904
 30
0.0
 10
262.8097876863
 20
61.0780745
 30
0.0
 10
260.5234713415
 20
61.2331582331
 30
0.0
 10
258.3699678557
 20
62.0052500869
 30
0.0
 10
257.1314724565
 20
62.9000324705
 30
0.0
 10
256.5916409513
 20
63.4214696633
 30
0.0
  0
SPLINE
  5
7D3
100
AcDbEntity
  8
KONSTRUKTIONSELEMENTE
100
AcDbSpline
 62
7
  6
CONTINUOUS
 70
0
 71
3
 72
11
 73
7
 74
0
 42
0.0000001
 43
0.0000001
 44
0.0000000001
 40
0.0
 40
0.0
 40
0.0
 40
0.0
 40
0.2497701922
 40
0.5003846994
 40
0.7507632035
 40
1.0
 40
1.0
 40
1.0
 40
1.0
 10
246.8349917291
 20
85.4710655605
 30
0.0
 10
247.5938163608
 20
86.0223082978
 30
0.0
 10
249.3248819883
 20
86.8631918408
 30
0.0
 10
252.1833031509
 20
87.161051643
 30
0.0
 10
254.9730944931
 20
86.4782133858
 30
0.0
 10
256.5699682859
 20
85.4081732147
 30
0.0
 10
257.2431268749
 20
84.7579519484
 30
0.0
  0
SPLINE
  5
7D4
100
AcDbEntity
  8
KONSTRUKTIONSELEMENTE
100
AcDbSpline
 62
7
  6
CONTINUOUS
 70
0
 71
3
 72
9
 73
5
 74
0
 42
0.0000001
 43
0.0000001
 44
0.0000000001
 40
0.0
 40
0.0
 40
0.0
 40
0.0
 40
0.5052259423
 40
1.0
 40
1.0
 40
1.0
 40
1.0
 10
249.1113988912
 20
76.9033058767
 30
0.0
 10
248.9090986063
 20
77.0987129465
 30
0.0
 10
248.5554840411
 20
77.5373487127
 30
0.0
 10
248.3244920333
 20
78.0516045563
 30
0.0
 10
248.2455899342
 20
78.3155069778
 30
0.0
  0
SPLINE
  5
7D5
100
AcDbEntity
  8
KONSTRUKTIONSELEMENTE
100
AcDbSpline
 62
7
  6
CONTINUOUS
 70
0
 71
3
 72
9
 73
5
 74
0
 42
0.0000001
 43
0.0000001
 44
0.0000000001
 40
0.0
 40
0.0
 40
0.0
 40
0.0
 40
0.5069780116
 40
1.0
 40
1.0
 40
1.0
 40
1.0
 10
264.7233689349
 20
71.276115735
 30
0.0
 10
265.0354658439
 20
70.9746532703
 30
0.0
 10
265.5423494743
 20
70.2531665963
 30
0.0
 10
265.7206979539
 20
69.388400435
 30
0.0
 10
265.7205900741
 20
68.9664281065
 30
0.0
  0
SPLINE
  5
7D6
100
AcDbEntity
  8
KONSTRUKTIONSELEMENTE
100
AcDbSpline
 62
7
  6
CONTINUOUS
 70
0
 71
3
 72
11
 73
7
 74
0
 42
0.0000001
 43
0.0000001
 44
0.0000000001
 40
0.0
 40
0.0
 40
0.0
 40
0.0
 40
0.2519918144
 40
0.5048009909
 40
0.755086504
 40
1.0
 40
1.0
 40
1.0
 40
1.0
 10
250.3829728426
 20
82.3049247159
 30
0.0
 10
250.6998252186
 20
82.4173531377
 30
0.0
 10
251.3693649565
 20
82.5549469009
 30
0.0
 10
252.3864416641
 20
82.4822086969
 30
0.0
 10
253.3371798436
 20
82.1404578568
 30
0.0
 10
253.8817408918
 20
81.7483242609
 30
0.0
 10
254.1167672171
 20
81.5213062634
 30
0.0
  0
SPLINE
  5
7D7
100
AcDbEntity
  8
KONSTRUKTIONSELEMENTE
100
AcDbSpline
 62
7
  6
CONTINUOUS
 70
0
 71
3
 72
9
 73
5
 74
0
 42
0.0000001
 43
0.0000001
 44
0.0000000001
 40
0.0
 40
0.0
 40
0.0
 40
0.0
 40
0.50530061
 40
1.0
 40
1.0
 40
1.0
 40
1.0
 10
261.7114964553
 20
65.698265162
 30
0.0
 10
261.349744566
 20
65.7484200007
 30
0.0
 10
260.6444363875
 20
65.9557542363
 30
0.0
 10
260.0333751245
 20
66.3653428365
 30
0.0
 10
259.7708896123
 20
66.6081253991
 30
0.0
  0
SPLINE
  5
7D8
100
AcDbEntity
  8
KONSTRUKTIONSELEMENTE
100
AcDbSpline
 62
7
  6
CONTINUOUS
 70
0
 71
3
 72
11
 73
7
 74
0
 42
0.0000001
 43
0.0000001
 44
0.0000000001
 40
0.0
 40
0.0
 40
0.0
 40
0.0
 40
0.2509365798
 40
0.5011818949
 40
0.7507345868
 40
1.0
 40
1.0
 40
1.0
 40
1.0
 10
245.9850392335
 20
73.6666601916
 30
0.0
 10
245.6127582838
 20
74.0262559756
 30
0.0
 10
244.9381889138
 20
74.8200766957
 30
0.0
 10
244.1840617659
 20
76.1840425952
 30
0.0
 10
243.7188736558
 20
77.6680467764
 30
0.0
 10
243.613948515
 20
78.6999428554
 30
0.0
 10
243.6141241514
 20
79.2140885335
 30
0.0
  0
SPLINE
  5
7D9
100
AcDbEntity
  8
KONSTRUKTIONSELEMENTE
100
AcDbSpline
 62
7
  6
CONTINUOUS
 70
0
 71
3
 72
9
 73
5
 74
0
 42
0.0000001
 43
0.0000001
 44
0.0000000001
 40
0.0
 40
0.0
 40
0.0
 40
0.0
 40
0.5012063269
 40
1.0
 40
1.0
 40
1.0
 40
1.0
 10
267.906183314
 20
74.4576784082
 30
0.0
 10
268.6295834845
 20
73.7447160859
 30
0.0
 10
269.8082946552
 20
72.0234452642
 30
0.0
 10
270.2209889721
 20
69.9761322816
 30
0.0
 10
270.2206436747
 20
68.9653330782
 30
0.0
  0
SPLINE
  5
7DA
100
AcDbEntity
  8
KONSTRUKTIONSELEMENTE
100
AcDbSpline
 62
7
  6
CONTINUOUS
 70
0
 71
3
 72
9
 73
5
 74
0
 42
0.0000001
 43
0.0000001
 44
0.0000000001
 40
0.0
 40
0.0
 40
0.0
 40
0.0
 40
0.4046530715
 40
1.0
 40
1.0
 40
1.0
 40
1.0
 10
290.7170880538
 20
47.6571192426
 30
0.0
 10
290.7170880538
 20
47.709537121
 30
0.0
 10
290.7530960734
 20
47.8371601564
 30
0.0
 10
290.8084952689
 20
47.9537487619
 30
0.0
 10
290.8447381476
 20
48.021821809
 30
0.0
  0
SPLINE
  5
7DB
100
AcDbEntity
  8
KONSTRUKTIONSELEMENTE
100
AcDbSpline
 62
7
  6
CONTINUOUS
 70
0
 71
3
 72
10
 73
6
 74
0
 42
0.0000001
 43
0.0000001
 44
0.0000000001
 40
0.0
 40
0.0
 40
0.0
 40
0.0
 40
0.371444044
 40
0.6586206829
 40
1.0
 40
1.0
 40
1.0
 40
1.0
 10
293.7732733259
 20
51.0521960776
 30
0.0
 10
293.8242831837
 20
51.0815948364
 30
0.0
 10
293.9185767214
 20
51.1308318553
 30
0.0
 10
294.059569414
 20
51.1872226184
 30
0.0
 10
294.1805020775
 20
51.2004557059
 30
0.0
 10
294.2202296481
 20
51.163718842
 30
0.0
  0
SPLINE
  5
7DC
100
AcDbEntity
  8
KONSTRUKTIONSELEMENTE
100
AcDbSpline
 62
7
  6
CONTINUOUS
 70
0
 71
3
 72
22
 73
18
 74
0
 42
0.0000001
 43
0.0000001
 44
0.0000000001
 40
0.0
 40
0.0
 40
0.0
 40
0.0
 40
0.0294212254
 40
0.0723201016
 40
0.1282665266
 40
0.1957437383
 40
0.356909235
 40
0.5354273641
 40
0.6239691462
 40
0.7081646199
 40
0.7852699074
 40
0.8528337383
 40
0.9088485413
 40
0.9518088476
 40
0.9682604979
 40
0.9814574319
 40
1.0
 40
1.0
 40
1.0
 40
1.0
 10
293.8990685691
 20
51.413689103
 30
0.0
 10
293.8990685691
 20
51.363538609
 30
0.0
 10
293.8659183542
 20
51.2419567628
 30
0.0
 10
293.7738594775
 20
51.0441050935
 30
0.0
 10
293.6275979808
 20
50.8003979264
 30
0.0
 10
293.3505483246
 20
50.4021225824
 30
0.0
 10
292.9109012479
 20
49.8637737715
 30
0.0
 10
292.4121567916
 20
49.3301883063
 30
0.0
 10
291.9819663944
 20
48.9135810278
 30
0.0
 10
291.6655349051
 20
48.6283991446
 30
0.0
 10
291.3652614759
 20
48.3791605755
 30
0.0
 10
291.0912700573
 20
48.1740031756
 30
0.0
 10
290.8527487883
 20
48.0196208562
 30
0.0
 10
290.6775136289
 20
47.9289206025
 30
0.0
 10
290.5591811551
 20
47.8899765546
 30
0.0
 10
290.4793664042
 20
47.8752120572
 30
0.0
 10
290.4191329558
 20
47.8856304778
 30
0.0
 10
290.3959269747
 20
47.9070895037
 30
0.0
  0
SPLINE
  5
7DD
100
AcDbEntity
  8
KONSTRUKTIONSELEMENTE
100
AcDbSpline
 62
7
  6
CONTINUOUS
 70
0
 71
3
 72
9
 73
5
 74
0
 42
0.0000001
 43
0.0000001
 44
0.0000000001
 40
0.0
 40
0.0
 40
0.0
 40
0.0
 40
0.5061516998
 40
1.0
 40
1.0
 40
1.0
 40
1.0
 10
294.778497183
 20
43.6733421049
 30
0.0
 10
295.1852600263
 20
43.2804393694
 30
0.0
 10
295.8466901095
 20
42.338466963
 30
0.0
 10
296.0798642632
 20
41.2097225907
 30
0.0
 10
296.0801930251
 20
40.6579356537
 30
0.0
  0
SPLINE
  5
7DE
100
AcDbEntity
  8
KONSTRUKTIONSELEMENTE
100
AcDbSpline
 62
7
  6
CONTINUOUS
 70
0
 71
3
 72
9
 73
5
 74
0
 42
0.0000001
 43
0.0000001
 44
0.0000000001
 40
0.0
 40
0.0
 40
0.0
 40
0.0
 40
0.4992038931
 40
1.0
 40
1.0
 40
1.0
 40
1.0
 10
301.0802124791
 20
40.6540950617
 30
0.0
 10
301.0798869699
 20
39.7075444368
 30
0.0
 10
300.7787461597
 20
37.7996322277
 30
0.0
 10
299.9024346267
 20
36.0793171666
 30
0.0
 10
299.3478076593
 20
35.3085567881
 30
0.0
  0
SPLINE
  5
7DF
100
AcDbEntity
  8
KONSTRUKTIONSELEMENTE
100
AcDbSpline
 62
7
  6
CONTINUOUS
 70
0
 71
3
 72
11
 73
7
 74
0
 42
0.0000001
 43
0.0000001
 44
0.0000000001
 40
0.0
 40
0.0
 40
0.0
 40
0.0
 40
0.2509991166
 40
0.5012371893
 40
0.7507683023
 40
1.0
 40
1.0
 40
1.0
 40
1.0
 10
298.3149802741
 20
47.2084320597
 30
0.0
 10
298.7498253627
 20
46.7804548052
 30
0.0
 10
299.5371572231
 20
45.838623446
 30
0.0
 10
300.4163179273
 20
44.2261661236
 30
0.0
 10
300.9582321891
 20
42.4757840007
 30
0.0
 10
301.0804208182
 20
41.2599256536
 30
0.0
 10
301.0802124791
 20
40.6540950617
 30
0.0
  0
SPLINE
  5
7E0
100
AcDbEntity
  8
KONSTRUKTIONSELEMENTE
100
AcDbSpline
 62
7
  6
CONTINUOUS
 70
0
 71
3
 72
11
 73
7
 74
0
 42
0.0000001
 43
0.0000001
 44
0.0000000001
 40
0.0
 40
0.0
 40
0.0
 40
0.0
 40
0.2507528382
 40
0.5034086137
 40
0.7541779598
 40
1.0
 40
1.0
 40
1.0
 40
1.0
 10
281.011012077
 20
52.6045444971
 30
0.0
 10
281.4410901003
 20
52.8172418134
 30
0.0
 10
282.376911599
 20
53.1115275035
 30
0.0
 10
283.8413606088
 20
53.1127984864
 30
0.0
 10
285.2313168322
 20
52.6820213887
 30
0.0
 10
286.0256147146
 20
52.1279773355
 30
0.0
 10
286.3639264869
 20
51.8011932574
 30
0.0
  0
SPLINE
  5
7E1
100
AcDbEntity
  8
KONSTRUKTIONSELEMENTE
100
AcDbSpline
 62
7
  6
CONTINUOUS
 70
0
 71
3
 72
11
 73
7
 74
0
 42
0.0000001
 43
0.0000001
 44
0.0000000001
 40
0.0
 40
0.0
 40
0.0
 40
0.0
 40
0.2509930803
 40
0.501249827
 40
0.7507781035
 40
1.0
 40
1.0
 40
1.0
 40
1.0
 10
276.3937208721
 20
42.1707141607
 30
0.0
 10
275.9496470128
 20
42.5996565702
 30
0.0
 10
275.1450249611
 20
43.5464400086
 30
0.0
 10
274.2455031562
 20
45.1731055789
 30
0.0
 10
273.6906699472
 20
46.9427330049
 30
0.0
 10
273.5655277068
 20
48.1731826508
 30
0.0
 10
273.565738529
 20
48.7862341873
 30
0.0
  0
SPLINE
  5
7E2
100
AcDbEntity
  8
KONSTRUKTIONSELEMENTE
100
AcDbSpline
 62
7
  6
CONTINUOUS
 70
0
 71
3
 72
15
 73
11
 74
0
 42
0.0000001
 43
0.0000001
 44
0.0000000001
 40
0.0
 40
0.0
 40
0.0
 40
0.0
 40
0.1246775817
 40
0.2497008934
 40
0.3749646148
 40
0.5003333456
 40
0.6256554896
 40
0.7507587796
 40
0.8756138354
 40
1.0
 40
1.0
 40
1.0
 40
1.0
 10
277.2265811953
 20
56.1133420827
 30
0.0
 10
277.6801028241
 20
56.459606272
 30
0.0
 10
278.6531232237
 20
57.0725852949
 30
0.0
 10
280.2522033166
 20
57.7185768986
 30
0.0
 10
281.9434035813
 20
58.0744596436
 30
0.0
 10
283.6720183141
 20
58.12880724
 30
0.0
 10
285.3827157047
 20
57.8798179544
 30
0.0
 10
287.0212872019
 20
57.3355618536
 30
0.0
 10
288.533658998
 20
56.5123978578
 30
0.0
 10
289.4282143035
 20
55.7929598725
 30
0.0
 10
289.8376594399
 20
55.3974662408
 30
0.0
  0
SPLINE
  5
7E3
100
AcDbEntity
  8
KONSTRUKTIONSELEMENTE
100
AcDbSpline
 62
7
  6
CONTINUOUS
 70
0
 71
3
 72
9
 73
5
 74
0
 42
0.0000001
 43
0.0000001
 44
0.0000000001
 40
0.0
 40
0.0
 40
0.0
 40
0.0
 40
0.5061516998
 40
1.0
 40
1.0
 40
1.0
 40
1.0
 10
279.8674538252
 20
45.7669871441
 30
0.0
 10
279.4606909819
 20
46.1598898796
 30
0.0
 10
278.7992608986
 20
47.1018622859
 30
0.0
 10
278.5660867449
 20
48.2306066583
 30
0.0
 10
278.5657579831
 20
48.7823935953
 30
0.0
  0
SPLINE
  5
7E4
100
AcDbEntity
  8
KONSTRUKTIONSELEMENTE
100
AcDbSpline
 62
7
  6
CONTINUOUS
 70
0
 71
3
 72
22
 73
18
 74
0
 42
0.0000001
 43
0.0000001
 44
0.0000000001
 40
0.0
 40
0.0
 40
0.0
 40
0.0
 40
0.0294212254
 40
0.0723201016
 40
0.1282665266
 40
0.1957437383
 40
0.356909235
 40
0.5354273641
 40
0.6239691462
 40
0.7081646199
 40
0.7852699074
 40
0.8528337383
 40
0.9088485413
 40
0.9518088476
 40
0.9682604979
 40
0.9814574319
 40
1.0
 40
1.0
 40
1.0
 40
1.0
 10
294.2526219597
 20
51.0721827521
 30
0.0
 10
294.2526219597
 20
51.022032258
 30
0.0
 10
294.2194717448
 20
50.9004504118
 30
0.0
 10
294.1274128681
 20
50.7025987426
 30
0.0
 10
293.9811513714
 20
50.4588915755
 30
0.0
 10
293.7041017152
 20
50.0606162314
 30
0.0
 10
293.2644546385
 20
49.5222674206
 30
0.0
 10
292.7657101821
 20
48.9886819553
 30
0.0
 10
292.335519785
 20
48.5720746768
 30
0.0
 10
292.0190882957
 20
48.2868927937
 30
0.0
 10
291.7188148664
 20
48.0376542245
 30
0.0
 10
291.4448234479
 20
47.8324968247
 30
0.0
 10
291.2063021789
 20
47.6781145053
 30
0.0
 10
291.0310670195
 20
47.5874142515
 30
0.0
 10
290.9127345457
 20
47.5484702037
 30
0.0
 10
290.8329197948
 20
47.5337057062
 30
0.0
 10
290.7726863464
 20
47.5441241269
 30
0.0
 10
290.7494803653
 20
47.5655831527
 30
0.0
  0
SPLINE
  5
7E5
100
AcDbEntity
  8
KONSTRUKTIONSELEMENTE
100
AcDbSpline
 62
7
  6
CONTINUOUS
 70
0
 71
3
 72
9
 73
5
 74
0
 42
0.0000001
 43
0.0000001
 44
0.0000000001
 40
0.0
 40
0.0
 40
0.0
 40
0.0
 40
0.4046530715
 40
1.0
 40
1.0
 40
1.0
 40
1.0
 10
229.5523514811
 20
106.7377179563
 30
0.0
 10
229.5523514811
 20
106.7901358346
 30
0.0
 10
229.5883595008
 20
106.91775887
 30
0.0
 10
229.6437586962
 20
107.0343474755
 30
0.0
 10
229.6800015749
 20
107.1024205227
 30
0.0
  0
SPLINE
  5
7E6
100
AcDbEntity
  8
KONSTRUKTIONSELEMENTE
100
AcDbSpline
 62
7
  6
CONTINUOUS
 70
0
 71
3
 72
10
 73
6
 74
0
 42
0.0000001
 43
0.0000001
 44
0.0000000001
 40
0.0
 40
0.0
 40
0.0
 40
0.0
 40
0.371444044
 40
0.6586206829
 40
1.0
 40
1.0
 40
1.0
 40
1.0
 10
232.6085367533
 20
110.1327947912
 30
0.0
 10
232.6595466111
 20
110.1621935501
 30
0.0
 10
232.7538401488
 20
110.211430569
 30
0.0
 10
232.8948328414
 20
110.267821332
 30
0.0
 10
233.0157655048
 20
110.2810544196
 30
0.0
 10
233.0554930755
 20
110.2443175556
 30
0.0
  0
SPLINE
  5
7E7
100
AcDbEntity
  8
KONSTRUKTIONSELEMENTE
100
AcDbSpline
 62
7
  6
CONTINUOUS
 70
0
 71
3
 72
22
 73
18
 74
0
 42
0.0000001
 43
0.0000001
 44
0.0000000001
 40
0.0
 40
0.0
 40
0.0
 40
0.0
 40
0.0294212254
 40
0.0723201016
 40
0.1282665266
 40
0.1957437383
 40
0.356909235
 40
0.5354273641
 40
0.6239691462
 40
0.7081646199
 40
0.7852699074
 40
0.8528337383
 40
0.9088485413
 40
0.9518088476
 40
0.9682604979
 40
0.9814574319
 40
1.0
 40
1.0
 40
1.0
 40
1.0
 10
232.7343319965
 20
110.4942878167
 30
0.0
 10
232.7343319965
 20
110.4441373227
 30
0.0
 10
232.7011817816
 20
110.3225554764
 30
0.0
 10
232.6091229048
 20
110.1247038072
 30
0.0
 10
232.4628614082
 20
109.8809966401
 30
0.0
 10
232.1858117519
 20
109.4827212961
 30
0.0
 10
231.7461646752
 20
108.9443724852
 30
0.0
 10
231.2474202189
 20
108.41078702
 30
0.0
 10
230.8172298217
 20
107.9941797414
 30
0.0
 10
230.5007983325
 20
107.7089978583
 30
0.0
 10
230.2005249032
 20
107.4597592892
 30
0.0
 10
229.9265334847
 20
107.2546018893
 30
0.0
 10
229.6880122157
 20
107.1002195699
 30
0.0
 10
229.5127770562
 20
107.0095193161
 30
0.0
 10
229.3944445825
 20
106.9705752683
 30
0.0
 10
229.3146298315
 20
106.9558107709
 30
0.0
 10
229.2543963831
 20
106.9662291915
 30
0.0
 10
229.2311904021
 20
106.9876882174
 30
0.0
  0
SPLINE
  5
7E8
100
AcDbEntity
  8
KONSTRUKTIONSELEMENTE
100
AcDbSpline
 62
7
  6
CONTINUOUS
 70
0
 71
3
 72
9
 73
5
 74
0
 42
0.0000001
 43
0.0000001
 44
0.0000000001
 40
0.0
 40
0.0
 40
0.0
 40
0.0
 40
0.5061516998
 40
1.0
 40
1.0
 40
1.0
 40
1.0
 10
233.6137606104
 20
102.7539408186
 30
0.0
 10
234.0205234537
 20
102.361038083
 30
0.0
 10
234.6819535369
 20
101.4190656767
 30
0.0
 10
234.9151276906
 20
100.2903213043
 30
0.0
 10
234.9154564524
 20
99.7385343673
 30
0.0
  0
SPLINE
  5
7E9
100
AcDbEntity
  8
KONSTRUKTIONSELEMENTE
100
AcDbSpline
 62
7
  6
CONTINUOUS
 70
0
 71
3
 72
9
 73
5
 74
0
 42
0.0000001
 43
0.0000001
 44
0.0000000001
 40
0.0
 40
0.0
 40
0.0
 40
0.0
 40
0.4990961922
 40
1.0
 40
1.0
 40
1.0
 40
1.0
 10
239.9154759065
 20
99.7346937754
 30
0.0
 10
239.9151274085
 20
98.7212938632
 30
0.0
 10
239.5691190587
 20
96.676349131
 30
0.0
 10
238.5671074805
 20
94.8617727162
 30
0.0
 10
237.9374003922
 20
94.0630857056
 30
0.0
  0
SPLINE
  5
7EA
100
AcDbEntity
  8
KONSTRUKTIONSELEMENTE
100
AcDbSpline
 62
7
  6
CONTINUOUS
 70
0
 71
3
 72
11
 73
7
 74
0
 42
0.0000001
 43
0.0000001
 44
0.0000000001
 40
0.0
 40
0.0
 40
0.0
 40
0.0
 40
0.250262514
 40
0.5008853759
 40
0.7509951573
 40
1.0
 40
1.0
 40
1.0
 40
1.0
 10
234.3473377355
 20
91.2747097409
 30
0.0
 10
233.4729083288
 20
90.8837516968
 30
0.0
 10
231.5942921921
 20
90.360007716
 30
0.0
 10
228.680443887
 20
90.4288891416
 30
0.0
 10
225.9155247119
 20
91.3370581401
 30
0.0
 10
224.3290302025
 20
92.4613435163
 30
0.0
 10
223.6435549956
 20
93.1234617219
 30
0.0
  0
SPLINE
  5
7EB
100
AcDbEntity
  8
KONSTRUKTIONSELEMENTE
100
AcDbSpline
 62
7
  6
CONTINUOUS
 70
0
 71
3
 72
11
 73
7
 74
0
 42
0.0000001
 43
0.0000001
 44
0.0000000001
 40
0.0
 40
0.0
 40
0.0
 40
0.0
 40
0.2509991166
 40
0.5012371893
 40
0.7507683023
 40
1.0
 40
1.0
 40
1.0
 40
1.0
 10
237.1502437015
 20
106.2890307734
 30
0.0
 10
237.5850887901
 20
105.8610535189
 30
0.0
 10
238.3724206504
 20
104.9192221596
 30
0.0
 10
239.2515813547
 20
103.3067648373
 30
0.0
 10
239.7934956165
 20
101.5563827144
 30
0.0
 10
239.9156842455
 20
100.3405243673
 30
0.0
 10
239.9154759065
 20
99.7346937754
 30
0.0
  0
SPLINE
  5
7EC
100
AcDbEntity
  8
KONSTRUKTIONSELEMENTE
100
AcDbSpline
 62
7
  6
CONTINUOUS
 70
0
 71
3
 72
9
 73
5
 74
0
 42
0.0000001
 43
0.0000001
 44
0.0000000001
 40
0.0
 40
0.0
 40
0.0
 40
0.0
 40
0.5050460752
 40
1.0
 40
1.0
 40
1.0
 40
1.0
 10
230.7894966625
 20
95.4458433979
 30
0.0
 10
230.1359212891
 20
95.3877434492
 30
0.0
 10
228.8033195656
 20
95.5418263802
 30
0.0
 10
227.6470080397
 20
96.2256819629
 30
0.0
 10
227.1762979695
 20
96.6637844823
 30
0.0
  0
SPLINE
  5
7ED
100
AcDbEntity
  8
KONSTRUKTIONSELEMENTE
100
AcDbSpline
 62
7
  6
CONTINUOUS
 70
0
 71
3
 72
11
 73
7
 74
0
 42
0.0000001
 43
0.0000001
 44
0.0000000001
 40
0.0
 40
0.0
 40
0.0
 40
0.0
 40
0.2482337156
 40
0.500955749
 40
0.7531052982
 40
1.0
 40
1.0
 40
1.0
 40
1.0
 10
218.9556682929
 20
111.1080551644
 30
0.0
 10
219.3881301248
 20
111.4665489545
 30
0.0
 10
220.4070115033
 20
112.0291108018
 30
0.0
 10
222.1295438236
 20
112.2743428375
 30
0.0
 10
223.8267371696
 20
111.904727045
 30
0.0
 10
224.7973421371
 20
111.2699471172
 30
0.0
 10
225.1991899142
 20
110.8817919711
 30
0.0
  0
SPLINE
  5
7EE
100
AcDbEntity
  8
KONSTRUKTIONSELEMENTE
100
AcDbSpline
 62
7
  6
CONTINUOUS
 70
0
 71
3
 72
11
 73
7
 74
0
 42
0.0000001
 43
0.0000001
 44
0.0000000001
 40
0.0
 40
0.0
 40
0.0
 40
0.0
 40
0.2509930803
 40
0.501249827
 40
0.7507781035
 40
1.0
 40
1.0
 40
1.0
 40
1.0
 10
215.2289842995
 20
101.2513128744
 30
0.0
 10
214.7849104401
 20
101.6802552839
 30
0.0
 10
213.9802883884
 20
102.6270387223
 30
0.0
 10
213.0807665836
 20
104.2537042926
 30
0.0
 10
212.5259333746
 20
106.0233317186
 30
0.0
 10
212.4007911341
 20
107.2537813644
 30
0.0
 10
212.4010019564
 20
107.8668329009
 30
0.0
  0
SPLINE
  5
7EF
100
AcDbEntity
  8
KONSTRUKTIONSELEMENTE
100
AcDbSpline
 62
7
  6
CONTINUOUS
 70
0
 71
3
 72
15
 73
11
 74
0
 42
0.0000001
 43
0.0000001
 44
0.0000000001
 40
0.0
 40
0.0
 40
0.0
 40
0.0
 40
0.124380951
 40
0.2492120816
 40
0.3744063708
 40
0.4998133725
 40
0.625253779
 40
0.7505169462
 40
0.8754953896
 40
1.0
 40
1.0
 40
1.0
 40
1.0
 10
214.81984354
 20
114.0573705864
 30
0.0
 10
215.2508147002
 20
114.5289117804
 30
0.0
 10
216.2136868904
 20
115.3879088322
 30
0.0
 10
217.8869207427
 20
116.3603072211
 30
0.0
 10
219.7251215481
 20
116.9838617488
 30
0.0
 10
221.6529208631
 20
117.2338314906
 30
0.0
 10
223.5926018143
 20
117.1006386081
 30
0.0
 10
225.4665328508
 20
116.5897208598
 30
0.0
 10
227.1975457206
 20
115.7206235445
 30
0.0
 10
228.2129939522
 20
114.9223221718
 30
0.0
 10
228.6729228673
 20
114.4780649545
 30
0.0
  0
SPLINE
  5
7F0
100
AcDbEntity
  8
KONSTRUKTIONSELEMENTE
100
AcDbSpline
 62
7
  6
CONTINUOUS
 70
0
 71
3
 72
22
 73
18
 74
0
 42
0.0000001
 43
0.0000001
 44
0.0000000001
 40
0.0
 40
0.0
 40
0.0
 40
0.0
 40
0.0294212254
 40
0.0723201016
 40
0.1282665266
 40
0.1957437383
 40
0.356909235
 40
0.5354273641
 40
0.6239691462
 40
0.7081646199
 40
0.7852699074
 40
0.8528337383
 40
0.9088485413
 40
0.9518088476
 40
0.9682604979
 40
0.9814574319
 40
1.0
 40
1.0
 40
1.0
 40
1.0
 10
233.0878853871
 20
110.1527814658
 30
0.0
 10
233.0878853871
 20
110.1026309717
 30
0.0
 10
233.0547351722
 20
109.9810491255
 30
0.0
 10
232.9626762954
 20
109.7831974563
 30
0.0
 10
232.8164147987
 20
109.5394902891
 30
0.0
 10
232.5393651425
 20
109.1412149451
 30
0.0
 10
232.0997180658
 20
108.6028661343
 30
0.0
 10
231.6009736095
 20
108.069280669
 30
0.0
 10
231.1707832123
 20
107.6526733905
 30
0.0
 10
230.8543517231
 20
107.3674915074
 30
0.0
 10
230.5540782938
 20
107.1182529382
 30
0.0
 10
230.2800868753
 20
106.9130955383
 30
0.0
 10
230.0415656063
 20
106.7587132189
 30
0.0
 10
229.8663304468
 20
106.6680129652
 30
0.0
 10
229.7479979731
 20
106.6290689173
 30
0.0
 10
229.6681832221
 20
106.6143044199
 30
0.0
 10
229.6079497737
 20
106.6247228406
 30
0.0
 10
229.5847437927
 20
106.6461818664
 30
0.0
  0
SPLINE
  5
7F1
100
AcDbEntity
  8
KONSTRUKTIONSELEMENTE
100
AcDbSpline
 62
7
  6
CONTINUOUS
 70
0
 71
3
 72
14
 73
10
 74
0
 42
0.0000001
 43
0.0000001
 44
0.0000000001
 40
0.0
 40
0.0
 40
0.0
 40
0.0
 40
0.24585177
 40
0.3588613228
 40
0.4700655894
 40
0.5853954014
 40
0.7113182501
 40
0.8509775931
 40
1.0
 40
1.0
 40
1.0
 40
1.0
 10
198.0412540958
 20
138.6549376203
 30
0.0
 10
197.4824434757
 20
138.9785391028
 30
0.0
 10
196.6461031698
 20
139.4196126477
 30
0.0
 10
195.4954867651
 20
139.8708492341
 30
0.0
 10
194.6354412966
 20
140.1141814115
 30
0.0
 10
193.7145698736
 20
140.2415450632
 30
0.0
 10
192.707299557
 20
140.1883982115
 30
0.0
 10
191.6554137067
 20
139.8576637418
 30
0.0
 10
191.0201484409
 20
139.4159320785
 30
0.0
 10
190.738924377
 20
139.1436817481
 30
0.0
  0
SPLINE
  5
7F2
100
AcDbEntity
  8
KONSTRUKTIONSELEMENTE
100
AcDbSpline
 62
7
  6
CONTINUOUS
 70
0
 71
3
 72
17
 73
13
 74
0
 42
0.0000001
 43
0.0000001
 44
0.0000000001
 40
0.0
 40
0.0
 40
0.0
 40
0.0
 40
0.1669648669
 40
0.3236735358
 40
0.4659161063
 40
0.5906556236
 40
0.6971649102
 40
0.7898025498
 40
0.8353372451
 40
0.8845933001
 40
0.9399549185
 40
1.0
 40
1.0
 40
1.0
 40
1.0
 10
204.9821160676
 20
114.7785520746
 30
0.0
 10
205.8695104337
 20
113.9213949383
 30
0.0
 10
207.6177936733
 20
112.2883732571
 30
0.0
 10
210.2208329894
 20
110.0336374829
 30
0.0
 10
212.6763518953
 20
108.089594307
 30
0.0
 10
214.9353868823
 20
106.4998756826
 30
0.0
 10
216.9974324649
 20
105.2809230703
 30
0.0
 10
218.6702662719
 20
104.563476491
 30
0.0
 10
220.0292724312
 20
104.2701446745
 30
0.0
 10
221.1481967867
 20
104.2459358977
 30
0.0
 10
222.3456066577
 20
104.5481590001
 30
0.0
 10
223.0750013074
 20
105.0319171538
 30
0.0
 10
223.3937873019
 20
105.3405308304
 30
0.0
  0
SPLINE
  5
7F3
100
AcDbEntity
  8
KONSTRUKTIONSELEMENTE
100
AcDbSpline
 62
7
  6
CONTINUOUS
 70
0
 71
3
 72
13
 73
9
 74
0
 42
0.0000001
 43
0.0000001
 44
0.0000000001
 40
0.0
 40
0.0
 40
0.0
 40
0.0
 40
0.02094215
 40
0.0472808575
 40
0.1171870138
 40
0.2270178316
 40
0.5522301624
 40
1.0
 40
1.0
 40
1.0
 40
1.0
 10
195.5691320992
 20
136.3052574146
 30
0.0
 10
195.568753973
 20
136.3106854003
 30
0.0
 10
195.5659612515
 20
136.3324229066
 30
0.0
 10
195.5734421172
 20
136.2795343539
 30
0.0
 10
195.5840185114
 20
136.2439123905
 30
0.0
 10
195.6191913035
 20
136.1049356782
 30
0.0
 10
195.6909373829
 20
135.8967908234
 30
0.0
 10
195.7661912566
 20
135.706915761
 30
0.0
 10
195.8116708221
 20
135.5998351478
 30
0.0
  0
SPLINE
  5
7F4
100
AcDbEntity
  8
KONSTRUKTIONSELEMENTE
100
AcDbSpline
 62
7
  6
CONTINUOUS
 70
0
 71
3
 72
9
 73
5
 74
0
 42
0.0000001
 43
0.0000001
 44
0.0000000001
 40
0.0
 40
0.0
 40
0.0
 40
0.0
 40
0.4754380711
 40
1.0
 40
1.0
 40
1.0
 40
1.0
 10
214.9850159028
 20
114.2014914656
 30
0.0
 10
213.9703578374
 20
115.5581271992
 30
0.0
 10
211.7226397804
 20
118.3268023813
 30
0.0
 10
209.3265892797
 20
120.9663923585
 30
0.0
 10
208.035666094
 20
122.31814025
 30
0.0
  0
SPLINE
  5
7F5
100
AcDbEntity
  8
KONSTRUKTIONSELEMENTE
100
AcDbSpline
 62
7
  6
CONTINUOUS
 70
0
 71
3
 72
14
 73
10
 74
0
 42
0.0000001
 43
0.0000001
 44
0.0000000001
 40
0.0
 40
0.0
 40
0.0
 40
0.0
 40
0.1487755139
 40
0.2879319834
 40
0.4130990662
 40
0.5278266168
 40
0.6388745175
 40
0.752220382
 40
1.0
 40
1.0
 40
1.0
 40
1.0
 10
190.738924377
 20
139.1436817481
 30
0.0
 10
190.452696797
 20
138.8665875616
 30
0.0
 10
189.9827663289
 20
138.2350750713
 30
0.0
 10
189.6187653612
 20
137.1752385648
 30
0.0
 10
189.5408028391
 20
136.1549017765
 30
0.0
 10
189.647531528
 20
135.2173190771
 30
0.0
 10
189.8737133471
 20
134.3358201931
 30
0.0
 10
190.3050225207
 20
133.1459634927
 30
0.0
 10
190.7339593383
 20
132.2760039148
 30
0.0
 10
191.0502881433
 20
131.6927786423
 30
0.0
  0
SPLINE
  5
7F6
100
AcDbEntity
  8
KONSTRUKTIONSELEMENTE
100
AcDbSpline
 62
7
  6
CONTINUOUS
 70
0
 71
3
 72
15
 73
11
 74
0
 42
0.0000001
 43
0.0000001
 44
0.0000000001
 40
0.0
 40
0.0
 40
0.0
 40
0.0
 40
0.3492137388
 40
0.5082144171
 40
0.6523862283
 40
0.7783002807
 40
0.8821721843
 40
0.9589804931
 40
0.984782024
 40
1.0
 40
1.0
 40
1.0
 40
1.0
 10
209.1505956112
 20
119.0940796547
 30
0.0
 10
210.3733308236
 20
117.9130081344
 30
0.0
 10
212.1945220452
 20
116.2359506863
 30
0.0
 10
214.6277256038
 20
114.1942219796
 30
0.0
 10
216.274484261
 20
112.9083649584
 30
0.0
 10
217.7563560429
 20
111.8495421101
 30
0.0
 10
219.0173519032
 20
111.0498662838
 30
0.0
 10
219.9052089992
 20
110.5744197768
 30
0.0
 10
220.4346404261
 20
110.352719477
 30
0.0
 10
220.6246328733
 20
110.2901610606
 30
0.0
 10
220.696348431
 20
110.271584505
 30
0.0
  0
SPLINE
  5
7F7
100
AcDbEntity
  8
KONSTRUKTIONSELEMENTE
100
AcDbSpline
 62
7
  6
CONTINUOUS
 70
0
 71
3
 72
14
 73
10
 74
0
 42
0.0000001
 43
0.0000001
 44
0.0000000001
 40
0.0
 40
0.0
 40
0.0
 40
0.0
 40
0.1498411528
 40
0.2918818875
 40
0.4216786769
 40
0.5405940367
 40
0.6530458086
 40
0.7646494602
 40
1.0
 40
1.0
 40
1.0
 40
1.0
 10
223.3937873019
 20
105.3405308304
 30
0.0
 10
223.6461378118
 20
105.584828949
 30
0.0
 10
224.0722802704
 20
106.1343337647
 30
0.0
 10
224.4454945623
 20
107.0609174272
 30
0.0
 10
224.5829314138
 20
107.9734663665
 30
0.0
 10
224.548722095
 20
108.823079565
 30
0.0
 10
224.403881406
 20
109.6157784097
 30
0.0
 10
224.1008384086
 20
110.6504744627
 30
0.0
 10
223.7797523842
 20
111.4008531622
 30
0.0
 10
223.5406535706
 20
111.8980110862
 30
0.0
  0
SPLINE
  5
7F8
100
AcDbEntity
  8
KONSTRUKTIONSELEMENTE
100
AcDbSpline
 62
7
  6
CONTINUOUS
 70
0
 71
3
 72
10
 73
6
 74
0
 42
0.0000001
 43
0.0000001
 44
0.0000000001
 40
0.0
 40
0.0
 40
0.0
 40
0.0
 40
0.2280071042
 40
0.4745634721
 40
1.0
 40
1.0
 40
1.0
 40
1.0
 10
220.3536987908
 20
117.0294309346
 30
0.0
 10
219.7721421072
 20
117.8318357023
 30
0.0
 10
218.5210346555
 20
119.4726431693
 30
0.0
 10
215.7559200768
 20
122.8267036373
 30
0.0
 10
213.4928242435
 20
125.3079431296
 30
0.0
 10
211.9058733804
 20
126.9501749367
 30
0.0
  0
SPLINE
  5
7F9
100
AcDbEntity
  8
0
100
AcDbSpline
 62
7
  6
CONTINUOUS
 70
0
 71
3
 72
9
 73
5
 74
0
 42
0.0000001
 43
0.0000001
 44
0.0000000001
 40
0.0
 40
0.0
 40
0.0
 40
0.0
 40
0.4874259717
 40
1.0
 40
1.0
 40
1.0
 40
1.0
 10
174.373005238
 20
64.123930192
 30
0.0
 10
174.9081500327
 20
63.8379013085
 30
0.0
 10
176.077190432
 20
63.3822121869
 30
0.0
 10
177.3013270351
 20
63.1306236478
 30
0.0
 10
177.9338898823
 20
63.0467812173
 30
0.0
  0
SPLINE
  5
7FA
100
AcDbEntity
  8
0
100
AcDbSpline
 62
7
  6
CONTINUOUS
 70
0
 71
3
 72
11
 73
7
 74
0
 42
0.0000001
 43
0.0000001
 44
0.0000000001
 40
0.0
 40
0.0
 40
0.0
 40
0.0
 40
0.2513556333
 40
0.5016708514
 40
0.7510886351
 40
1.0
 40
1.0
 40
1.0
 40
1.0
 10
174.3730123129
 20
64.1239430194
 30
0.0
 10
173.504315124
 20
64.588324411
 30
0.0
 10
171.8842290355
 20
65.7493101312
 30
0.0
 10
170.008165291
 20
68.0619916708
 30
0.0
 10
168.8206509189
 20
70.7832320804
 30
0.0
 10
168.5498515449
 20
72.7465486407
 30
0.0
 10
168.5498515449
 20
73.7220002642
 30
0.0
  0
SPLINE
  5
7FB
100
AcDbEntity
  8
RUNDUNGEN
100
AcDbSpline
 62
7
  6
CONTINUOUS
 70
0
 71
3
 72
9
 73
5
 74
0
 42
0.0000001
 43
0.0000001
 44
0.0000000001
 40
0.0
 40
0.0
 40
0.0
 40
0.0
 40
0.4874259717
 40
1.0
 40
1.0
 40
1.0
 40
1.0
 10
186.7266978518
 20
64.123930192
 30
0.0
 10
186.1915530571
 20
63.8379013085
 30
0.0
 10
185.0225126579
 20
63.3822121869
 30
0.0
 10
183.7983760547
 20
63.1306236478
 30
0.0
 10
183.1658132075
 20
63.0467812173
 30
0.0
  0
SPLINE
  5
7FC
100
AcDbEntity
  8
RUNDUNGEN
100
AcDbSpline
 62
7
  6
CONTINUOUS
 70
0
 71
3
 72
11
 73
7
 74
0
 42
0.0000001
 43
0.0000001
 44
0.0000000001
 40
0.0
 40
0.0
 40
0.0
 40
0.0
 40
0.2513556333
 40
0.5016708514
 40
0.7510886351
 40
1.0
 40
1.0
 40
1.0
 40
1.0
 10
186.7266907769
 20
64.1239430194
 30
0.0
 10
187.5953879659
 20
64.588324411
 30
0.0
 10
189.2154740543
 20
65.7493101312
 30
0.0
 10
191.0915377988
 20
68.0619916708
 30
0.0
 10
192.2790521709
 20
70.7832320804
 30
0.0
 10
192.5498515449
 20
72.7465486407
 30
0.0
 10
192.5498515449
 20
73.7220002642
 30
0.0
  0
SPLINE
  5
7FD
100
AcDbEntity
  8
BEZUGSACHSEN
100
AcDbSpline
 62
7
  6
CONTINUOUS
 70
0
 71
3
 72
21
 73
17
 74
0
 42
0.0000001
 43
0.0000001
 44
0.0000000001
 40
0.0
 40
0.0
 40
0.0
 40
0.0
 40
0.0615051333
 40
0.1231718031
 40
0.1851436903
 40
0.2475080782
 40
0.310295763
 40
0.3734717029
 40
0.5
 40
0.6265282971
 40
0.689704237
 40
0.7524919218
 40
0.8148563097
 40
0.8768281969
 40
0.9384948667
 40
1.0
 40
1.0
 40
1.0
 40
1.0
 10
174.8592515449
 20
87.4005200902
 30
0.0
 10
174.8592515449
 20
87.0412088688
 30
0.0
 10
174.9328450352
 20
86.3195140712
 30
0.0
 10
175.2595646691
 20
85.2810445184
 30
0.0
 10
175.7897821038
 20
84.3241173179
 30
0.0
 10
176.5027103125
 20
83.486114439
 30
0.0
 10
177.3711122032
 20
82.7988664377
 30
0.0
 10
178.6887303474
 20
82.1187756052
 30
0.0
 10
180.5498515449
 20
81.7604820237
 30
0.0
 10
182.4109727424
 20
82.1187756052
 30
0.0
 10
183.7285908867
 20
82.7988664377
 30
0.0
 10
184.5969927773
 20
83.486114439
 30
0.0
 10
185.309920986
 20
84.3241173179
 30
0.0
 10
185.8401384207
 20
85.2810445184
 30
0.0
 10
186.1668580546
 20
86.3195140712
 30
0.0
 10
186.2404515449
 20
87.0412088688
 30
0.0
 10
186.2404515449
 20
87.4005200902
 30
0.0
  0
SPLINE
  5
7FE
100
AcDbEntity
  8
KONSTRUKTIONSELEMENTE
100
AcDbSpline
 62
7
  6
CONTINUOUS
 70
0
 71
3
 72
15
 73
11
 74
0
 42
0.0000001
 43
0.0000001
 44
0.0000000001
 40
0.0
 40
0.0
 40
0.0
 40
0.0
 40
0.1069982
 40
0.2203176601
 40
0.3397977279
 40
0.4649271459
 40
0.5948381365
 40
0.7283315371
 40
0.8639342933
 40
1.0
 40
1.0
 40
1.0
 40
1.0
 10
192.5498515449
 20
82.0202820472
 30
0.0
 10
192.5498515449
 20
81.4296614382
 30
0.0
 10
192.4137896144
 20
80.2101057191
 30
0.0
 10
191.8157546615
 20
78.418791973
 30
0.0
 10
190.8165363711
 20
76.698700968
 30
0.0
 10
189.4388381166
 20
75.1399373744
 30
0.0
 10
187.7292225537
 20
73.8240892273
 30
0.0
 10
185.7548010244
 20
72.8201714103
 30
0.0
 10
183.6003346614
 20
72.1786107061
 30
0.0
 10
182.1007310198
 20
72.0112653363
 30
0.0
 10
181.3498515449
 20
71.9943190691
 30
0.0
  0
SPLINE
  5
7FF
100
AcDbEntity
  8
0
100
AcDbSpline
 62
7
  6
CONTINUOUS
 70
0
 71
3
 72
8
 73
4
 74
0
 42
0.0000001
 43
0.0000001
 44
0.0000000001
 40
0.0
 40
0.0
 40
0.0
 40
0.0
 40
1.0
 40
1.0
 40
1.0
 40
1.0
 10
168.5498515449
 20
94.1961781381
 30
0.0
 10
168.5498515449
 20
94.2361370416
 30
0.0
 10
168.5612938093
 20
94.2774210532
 30
0.0
 10
168.5817932714
 20
94.3117209953
 30
0.0
  0
SPLINE
  5
800
100
AcDbEntity
  8
RUNDUNGEN
100
AcDbSpline
 62
7
  6
CONTINUOUS
 70
0
 71
3
 72
8
 73
4
 74
0
 42
0.0000001
 43
0.0000001
 44
0.0000000001
 40
0.0
 40
0.0
 40
0.0
 40
0.0
 40
1.0
 40
1.0
 40
1.0
 40
1.0
 10
192.5498515449
 20
94.1961781381
 30
0.0
 10
192.5498515449
 20
94.2361370416
 30
0.0
 10
192.5384092805
 20
94.2774210532
 30
0.0
 10
192.5179098184
 20
94.3117209953
 30
0.0
  0
SPLINE
  5
801
100
AcDbEntity
  8
0
100
AcDbSpline
 62
7
  6
CONTINUOUS
 70
0
 71
3
 72
15
 73
11
 74
0
 42
0.0000001
 43
0.0000001
 44
0.0000000001
 40
0.0
 40
0.0
 40
0.0
 40
0.0
 40
0.1069982
 40
0.2203176601
 40
0.3397977279
 40
0.4649271459
 40
0.5948381365
 40
0.7283315371
 40
0.8639342933
 40
1.0
 40
1.0
 40
1.0
 40
1.0
 10
168.5498515449
 20
82.0202820472
 30
0.0
 10
168.5498515449
 20
81.4296614382
 30
0.0
 10
168.6859134754
 20
80.2101057191
 30
0.0
 10
169.2839484283
 20
78.418791973
 30
0.0
 10
170.2831667187
 20
76.698700968
 30
0.0
 10
171.6608649732
 20
75.1399373744
 30
0.0
 10
173.3704805361
 20
73.8240892273
 30
0.0
 10
175.3449020654
 20
72.8201714103
 30
0.0
 10
177.4993684284
 20
72.1786107061
 30
0.0
 10
178.99897207
 20
72.0112653363
 30
0.0
 10
179.7498515449
 20
71.9943190691
 30
0.0
  0
SPLINE
  5
802
100
AcDbEntity
  8
0
100
AcDbSpline
 62
7
  6
CONTINUOUS
 70
0
 71
3
 72
11
 73
7
 74
0
 42
0.0000001
 43
0.0000001
 44
0.0000000001
 40
0.0
 40
0.0
 40
0.0
 40
0.0
 40
0.2502026974
 40
0.5000000008
 40
0.7497973041
 40
1.0
 40
1.0
 40
1.0
 40
1.0
 10
182.5548602008
 20
136.3890115478
 30
0.0
 10
182.7233941241
 20
135.3316512384
 30
0.0
 10
182.983957666
 20
133.2054423271
 30
0.0
 10
183.1177623119
 20
129.9960117895
 30
0.0
 10
182.9839576674
 20
126.7865812578
 30
0.0
 10
182.7233941231
 20
124.660372354
 30
0.0
 10
182.5548602008
 20
123.6030120507
 30
0.0
  0
SPLINE
  5
803
100
AcDbEntity
  8
0
100
AcDbSpline
 62
7
  6
CONTINUOUS
 70
0
 71
3
 72
15
 73
11
 74
0
 42
0.0000001
 43
0.0000001
 44
0.0000000001
 40
0.0
 40
0.0
 40
0.0
 40
0.0
 40
0.0530113035
 40
0.0874033997
 40
0.1278679807
 40
0.2272805288
 40
0.3500446435
 40
0.49297177
 40
0.6520020624
 40
1.0
 40
1.0
 40
1.0
 40
1.0
 10
168.5817932714
 20
94.3117209953
 30
0.0
 10
168.615053337
 20
94.3673721299
 30
0.0
 10
168.7061085028
 20
94.4354875088
 30
0.0
 10
168.8502947693
 20
94.4941335812
 30
0.0
 10
169.057218097
 20
94.5487753111
 30
0.0
 10
169.3776725963
 20
94.5837381833
 30
0.0
 10
169.8246882698
 20
94.5839406802
 30
0.0
 10
170.3429923976
 20
94.543536967
 30
0.0
 10
171.1306514974
 20
94.4343874393
 30
0.0
 10
171.7378273103
 20
94.3028178571
 30
0.0
 10
172.1498515449
 20
94.1961781381
 30
0.0
  0
SPLINE
  5
804
100
AcDbEntity
  8
0
100
AcDbSpline
 62
7
  6
CONTINUOUS
 70
0
 71
3
 72
11
 73
7
 74
0
 42
0.0000001
 43
0.0000001
 44
0.0000000001
 40
0.0
 40
0.0
 40
0.0
 40
0.0
 40
0.2517747099
 40
0.5000000008
 40
0.7482252915
 40
1.0
 40
1.0
 40
1.0
 40
1.0
 10
182.5548602008
 20
143.7710117992
 30
0.0
 10
182.7217311741
 20
143.1665681135
 30
0.0
 10
182.9825820675
 20
141.9448215279
 30
0.0
 10
183.118164696
 20
140.0800116679
 30
0.0
 10
182.9825820689
 20
138.2152018111
 30
0.0
 10
182.7217311732
 20
136.9934552301
 30
0.0
 10
182.5548602008
 20
136.3890115478
 30
0.0
  0
SPLINE
  5
805
100
AcDbEntity
  8
RUNDUNGEN
100
AcDbSpline
 62
7
  6
CONTINUOUS
 70
0
 71
3
 72
15
 73
11
 74
0
 42
0.0000001
 43
0.0000001
 44
0.0000000001
 40
0.0
 40
0.0
 40
0.0
 40
0.0
 40
0.0530113035
 40
0.0874033997
 40
0.1278679807
 40
0.2272805288
 40
0.3500446435
 40
0.49297177
 40
0.6520020624
 40
1.0
 40
1.0
 40
1.0
 40
1.0
 10
192.5179098184
 20
94.3117209953
 30
0.0
 10
192.4846497528
 20
94.3673721299
 30
0.0
 10
192.393594587
 20
94.4354875088
 30
0.0
 10
192.2494083206
 20
94.4941335812
 30
0.0
 10
192.0424849928
 20
94.5487753111
 30
0.0
 10
191.7220304935
 20
94.5837381833
 30
0.0
 10
191.2750148201
 20
94.5839406802
 30
0.0
 10
190.7567106922
 20
94.543536967
 30
0.0
 10
189.9690515924
 20
94.4343874393
 30
0.0
 10
189.3618757796
 20
94.3028178571
 30
0.0
 10
188.9498515449
 20
94.1961781381
 30
0.0
  0
SPLINE
  5
806
100
AcDbEntity
  8
0
100
AcDbSpline
 62
7
  6
CONTINUOUS
 70
0
 71
3
 72
9
 73
5
 74
0
 42
0.0000001
 43
0.0000001
 44
0.0000000001
 40
0.0
 40
0.0
 40
0.0
 40
0.0
 40
0.213435322
 40
1.0
 40
1.0
 40
1.0
 40
1.0
 10
174.6266967339
 20
108.4716095354
 30
0.0
 10
174.6557094614
 20
108.4758071374
 30
0.0
 10
174.7931460726
 20
108.4851981855
 30
0.0
 10
174.93087775
 20
108.4600852841
 30
0.0
 10
175.0351456626
 20
108.4318139466
 30
0.0
  0
SPLINE
  5
807
100
AcDbEntity
  8
RUNDUNGEN
100
AcDbSpline
 62
7
  6
CONTINUOUS
 70
0
 71
3
 72
9
 73
5
 74
0
 42
0.0000001
 43
0.0000001
 44
0.0000000001
 40
0.0
 40
0.0
 40
0.0
 40
0.0
 40
0.213435322
 40
1.0
 40
1.0
 40
1.0
 40
1.0
 10
186.473006356
 20
108.4716095354
 30
0.0
 10
186.4439936284
 20
108.4758071374
 30
0.0
 10
186.3065570172
 20
108.4851981855
 30
0.0
 10
186.1688253398
 20
108.4600852841
 30
0.0
 10
186.0645574273
 20
108.4318139466
 30
0.0
  0
SPLINE
  5
808
100
AcDbEntity
  8
BEZUGSACHSEN
100
AcDbSpline
 62
7
  6
CONTINUOUS
 70
0
 71
3
 72
19
 73
15
 74
0
 42
0.0000001
 43
0.0000001
 44
0.0000000001
 40
0.0
 40
0.0
 40
0.0
 40
0.0
 40
0.0615637168
 40
0.1233167015
 40
0.1853986847
 40
0.2478631715
 40
0.3734162268
 40
0.5
 40
0.6265837732
 40
0.7521368285
 40
0.8146013153
 40
0.8766832985
 40
0.9384362832
 40
1.0
 40
1.0
 40
1.0
 40
1.0
 10
186.2127367134
 20
87.527875315
 30
0.0
 10
186.1783585707
 20
87.8633436927
 30
0.0
 10
186.0450327786
 20
88.5304733956
 30
0.0
 10
185.6593810498
 20
89.4761318491
 30
0.0
 10
185.1009657801
 20
90.337710197
 30
0.0
 10
184.1524677985
 20
91.3352972154
 30
0.0
 10
182.6347872044
 20
92.2356503858
 30
0.0
 10
180.5498515449
 20
92.6075278914
 30
0.0
 10
178.4649158854
 20
92.2356503858
 30
0.0
 10
176.9472352914
 20
91.3352972154
 30
0.0
 10
175.9987373097
 20
90.337710197
 30
0.0
 10
175.44032204
 20
89.4761318491
 30
0.0
 10
175.0546703112
 20
88.5304733956
 30
0.0
 10
174.9213445191
 20
87.8633436927
 30
0.0
 10
174.8869663764
 20
87.527875315
 30
0.0
  0
SPLINE
  5
809
100
AcDbEntity
  8
KONSTRUKTIONSELEMENTE
100
AcDbSpline
 62
7
  6
CONTINUOUS
 70
0
 71
3
 72
15
 73
11
 74
0
 42
0.0000001
 43
0.0000001
 44
0.0000000001
 40
0.0
 40
0.0
 40
0.0
 40
0.0
 40
0.1248309587
 40
0.2497423057
 40
0.3747543653
 40
0.4998706216
 40
0.6250805387
 40
0.7503042645
 40
0.8753748171
 40
1.0
 40
1.0
 40
1.0
 40
1.0
 10
181.3498515449
 20
63.8551219005
 30
0.0
 10
182.0260350308
 20
63.8398614141
 30
0.0
 10
183.3853281503
 20
63.9385677883
 30
0.0
 10
185.3569415649
 20
64.4713419415
 30
0.0
 10
187.1936977084
 20
65.3692418402
 30
0.0
 10
188.8294356735
 20
66.5976780251
 30
0.0
 10
190.2097135817
 20
68.108418341
 30
0.0
 10
191.2934611248
 20
69.8433024023
 30
0.0
 10
192.0553707523
 20
71.7368092049
 30
0.0
 10
192.3443597532
 20
73.0657931197
 30
0.0
 10
192.4345526635
 20
73.7349831483
 30
0.0
  0
SPLINE
  5
80A
100
AcDbEntity
  8
0
100
AcDbSpline
 62
7
  6
CONTINUOUS
 70
0
 71
3
 72
20
 73
16
 74
0
 42
0.0000001
 43
0.0000001
 44
0.0000000001
 40
0.0
 40
0.0
 40
0.0
 40
0.0
 40
0.2531700581
 40
0.3790306239
 40
0.5037623694
 40
0.5657472621
 40
0.6273913614
 40
0.6887099351
 40
0.7497977698
 40
0.8109226837
 40
0.841868911
 40
0.873093306
 40
0.9046132565
 40
0.936355713
 40
1.0
 40
1.0
 40
1.0
 40
1.0
 10
177.9338898203
 20
73.0889601832
 30
0.0
 10
177.0339598838
 20
73.2553442473
 30
0.0
 10
175.7067788851
 20
73.6976376469
 30
0.0
 10
174.171226632
 20
74.6902365868
 30
0.0
 10
173.3532397486
 20
75.4851744525
 30
0.0
 10
172.8350630369
 20
76.2212853935
 30
0.0
 10
172.5319022984
 20
76.8203108788
 30
0.0
 10
172.3385861922
 20
77.4614033131
 30
0.0
 10
172.2911537796
 20
78.1298712456
 30
0.0
 10
172.4238057197
 20
78.6816414655
 30
0.0
 10
172.6596398112
 20
79.0640941352
 30
0.0
 10
172.9016513982
 20
79.3056566964
 30
0.0
 10
173.1954981217
 20
79.4854762633
 30
0.0
 10
173.6302985468
 20
79.6395412279
 30
0.0
 10
173.9789112158
 20
79.6713748134
 30
0.0
 10
174.20897826
 20
79.6713748134
 30
0.0
  0
SPLINE
  5
80B
100
AcDbEntity
  8
RUNDUNGEN
100
AcDbSpline
 62
7
  6
CONTINUOUS
 70
0
 71
3
 72
20
 73
16
 74
0
 42
0.0000001
 43
0.0000001
 44
0.0000000001
 40
0.0
 40
0.0
 40
0.0
 40
0.0
 40
0.2531700581
 40
0.3790306239
 40
0.5037623694
 40
0.5657472621
 40
0.6273913614
 40
0.6887099351
 40
0.7497977698
 40
0.8109226837
 40
0.841868911
 40
0.873093306
 40
0.9046132565
 40
0.936355713
 40
1.0
 40
1.0
 40
1.0
 40
1.0
 10
183.1658132695
 20
73.0889601832
 30
0.0
 10
184.065743206
 20
73.2553442473
 30
0.0
 10
185.3929242047
 20
73.6976376469
 30
0.0
 10
186.9284764578
 20
74.6902365868
 30
0.0
 10
187.7464633412
 20
75.4851744525
 30
0.0
 10
188.2646400529
 20
76.2212853935
 30
0.0
 10
188.5678007915
 20
76.8203108788
 30
0.0
 10
188.7611168976
 20
77.4614033131
 30
0.0
 10
188.8085493103
 20
78.1298712456
 30
0.0
 10
188.6758973701
 20
78.6816414655
 30
0.0
 10
188.4400632786
 20
79.0640941352
 30
0.0
 10
188.1980516916
 20
79.3056566964
 30
0.0
 10
187.9042049681
 20
79.4854762633
 30
0.0
 10
187.469404543
 20
79.6395412279
 30
0.0
 10
187.120791874
 20
79.6713748134
 30
0.0
 10
186.8907248299
 20
79.6713748134
 30
0.0
  0
SPLINE
  5
80C
100
AcDbEntity
  8
0
100
AcDbSpline
 62
7
  6
CONTINUOUS
 70
0
 71
3
 72
15
 73
11
 74
0
 42
0.0000001
 43
0.0000001
 44
0.0000000001
 40
0.0
 40
0.0
 40
0.0
 40
0.0
 40
0.3479979376
 40
0.50702823
 40
0.6499553565
 40
0.7727194712
 40
0.8721320193
 40
0.9125966003
 40
0.9469886965
 40
1.0
 40
1.0
 40
1.0
 40
1.0
 10
175.1498515449
 20
99.2152759606
 30
0.0
 10
174.7378273103
 20
99.3219156795
 30
0.0
 10
174.1306514974
 20
99.4534852617
 30
0.0
 10
173.3429923976
 20
99.5626347894
 30
0.0
 10
172.8246882698
 20
99.6030385026
 30
0.0
 10
172.3776725963
 20
99.6028360058
 30
0.0
 10
172.057218097
 20
99.5678731335
 30
0.0
 10
171.8502947693
 20
99.5132314036
 30
0.0
 10
171.7061085028
 20
99.4545853312
 30
0.0
 10
171.615053337
 20
99.3864699523
 30
0.0
 10
171.5817932714
 20
99.3308188177
 30
0.0
  0
SPLINE
  5
80D
100
AcDbEntity
  8
0
100
AcDbSpline
 62
7
  6
CONTINUOUS
 70
0
 71
3
 72
15
 73
11
 74
0
 42
0.0000001
 43
0.0000001
 44
0.0000000001
 40
0.0
 40
0.0
 40
0.0
 40
0.0
 40
0.123850099
 40
0.2486155812
 40
0.374107491
 40
0.5
 40
0.625892509
 40
0.7513844188
 40
0.876149901
 40
1.0
 40
1.0
 40
1.0
 40
1.0
 10
172.9124612016
 20
74.2126574979
 30
0.0
 10
173.3725813216
 20
73.665259079
 30
0.0
 10
174.4234530829
 20
72.6669656832
 30
0.0
 10
176.2910883498
 20
71.5493808163
 30
0.0
 10
178.3673577071
 20
70.856016813
 30
0.0
 10
180.5498515449
 20
70.6213030294
 30
0.0
 10
182.7323453827
 20
70.856016813
 30
0.0
 10
184.80861474
 20
71.5493808163
 30
0.0
 10
186.6762500069
 20
72.6669656832
 30
0.0
 10
187.7271217683
 20
73.665259079
 30
0.0
 10
188.1872418882
 20
74.2126574979
 30
0.0
  0
SPLINE
  5
80E
100
AcDbEntity
  8
0
100
AcDbSpline
 62
7
  6
CONTINUOUS
 70
0
 71
3
 72
15
 73
11
 74
0
 42
0.0000001
 43
0.0000001
 44
0.0000000001
 40
0.0
 40
0.0
 40
0.0
 40
0.0
 40
0.1249484361
 40
0.249985754
 40
0.3751374232
 40
0.5004074281
 40
0.625753134
 40
0.7510313972
 40
0.875941774
 40
1.0
 40
1.0
 40
1.0
 40
1.0
 10
179.7498515449
 20
63.8551219005
 30
0.0
 10
179.0010478234
 20
63.8382224801
 30
0.0
 10
177.4944675446
 20
63.9631381186
 30
0.0
 10
175.3273779331
 20
64.6213535998
 30
0.0
 10
173.3439430426
 20
65.7202625025
 30
0.0
 10
171.6308605464
 20
67.2075603166
 30
0.0
 10
170.2556024509
 20
69.0117547777
 30
0.0
 10
169.2638432571
 20
71.0485647961
 30
0.0
 10
168.6760497428
 20
73.2263353187
 30
0.0
 10
168.5498515449
 20
74.7222393367
 30
0.0
 10
168.5498515449
 20
75.4658974313
 30
0.0
  0
SPLINE
  5
80F
100
AcDbEntity
  8
RUNDUNGEN
100
AcDbSpline
 62
7
  6
CONTINUOUS
 70
0
 71
3
 72
15
 73
11
 74
0
 42
0.0000001
 43
0.0000001
 44
0.0000000001
 40
0.0
 40
0.0
 40
0.0
 40
0.0
 40
0.3479979376
 40
0.50702823
 40
0.6499553565
 40
0.7727194712
 40
0.8721320193
 40
0.9125966003
 40
0.9469886965
 40
1.0
 40
1.0
 40
1.0
 40
1.0
 10
185.9498515449
 20
99.2152759606
 30
0.0
 10
186.3618757796
 20
99.3219156795
 30
0.0
 10
186.9690515924
 20
99.4534852617
 30
0.0
 10
187.7567106922
 20
99.5626347894
 30
0.0
 10
188.2750148201
 20
99.6030385026
 30
0.0
 10
188.7220304935
 20
99.6028360058
 30
0.0
 10
189.0424849928
 20
99.5678731335
 30
0.0
 10
189.2494083206
 20
99.5132314036
 30
0.0
 10
189.393594587
 20
99.4545853312
 30
0.0
 10
189.4846497528
 20
99.3864699523
 30
0.0
 10
189.5179098184
 20
99.3308188177
 30
0.0
  0
SPLINE
  5
810
100
AcDbEntity
  8
BEZUGSACHSEN
100
AcDbSpline
 62
7
  6
CONTINUOUS
 70
0
 71
3
 72
21
 73
17
 74
0
 42
0.0000001
 43
0.0000001
 44
0.0000000001
 40
0.0
 40
0.0
 40
0.0
 40
0.0
 40
0.0615051333
 40
0.1231718031
 40
0.1851436903
 40
0.2475080782
 40
0.310295763
 40
0.3734717029
 40
0.5
 40
0.6265282971
 40
0.689704237
 40
0.7524919218
 40
0.8148563097
 40
0.8768281969
 40
0.9384948667
 40
1.0
 40
1.0
 40
1.0
 40
1.0
 10
186.2404515449
 20
87.4005200902
 30
0.0
 10
186.2404515449
 20
87.7598313116
 30
0.0
 10
186.1668580546
 20
88.4815261092
 30
0.0
 10
185.8401384207
 20
89.519995662
 30
0.0
 10
185.309920986
 20
90.4769228625
 30
0.0
 10
184.5969927773
 20
91.3149257413
 30
0.0
 10
183.7285908867
 20
92.0021737427
 30
0.0
 10
182.4109727424
 20
92.6822645752
 30
0.0
 10
180.5498515449
 20
93.0405581567
 30
0.0
 10
178.6887303474
 20
92.6822645752
 30
0.0
 10
177.3711122032
 20
92.0021737427
 30
0.0
 10
176.5027103125
 20
91.3149257413
 30
0.0
 10
175.7897821038
 20
90.4769228625
 30
0.0
 10
175.2595646691
 20
89.519995662
 30
0.0
 10
174.9328450352
 20
88.4815261092
 30
0.0
 10
174.8592515449
 20
87.7598313116
 30
0.0
 10
174.8592515449
 20
87.4005200902
 30
0.0
  0
SPLINE
  5
811
100
AcDbEntity
  8
0
100
AcDbSpline
 62
7
  6
CONTINUOUS
 70
0
 71
3
 72
11
 73
7
 74
0
 42
0.0000001
 43
0.0000001
 44
0.0000000001
 40
0.0
 40
0.0
 40
0.0
 40
0.0
 40
0.2517747099
 40
0.5000000008
 40
0.7482252915
 40
1.0
 40
1.0
 40
1.0
 40
1.0
 10
178.5448428891
 20
143.7710117992
 30
0.0
 10
178.3779719157
 20
143.1665681135
 30
0.0
 10
178.1171210223
 20
141.9448215279
 30
0.0
 10
177.9815383938
 20
140.0800116679
 30
0.0
 10
178.117121021
 20
138.2152018111
 30
0.0
 10
178.3779719166
 20
136.9934552301
 30
0.0
 10
178.5448428891
 20
136.3890115478
 30
0.0
  0
SPLINE
  5
812
100
AcDbEntity
  8
0
100
AcDbSpline
 62
7
  6
CONTINUOUS
 70
0
 71
3
 72
11
 73
7
 74
0
 42
0.0000001
 43
0.0000001
 44
0.0000000001
 40
0.0
 40
0.0
 40
0.0
 40
0.0
 40
0.2502026974
 40
0.5000000008
 40
0.7497973041
 40
1.0
 40
1.0
 40
1.0
 40
1.0
 10
178.5448428891
 20
136.3890115478
 30
0.0
 10
178.3763089658
 20
135.3316512384
 30
0.0
 10
178.1157454238
 20
133.2054423271
 30
0.0
 10
177.9819407779
 20
129.9960117895
 30
0.0
 10
178.1157454224
 20
126.7865812578
 30
0.0
 10
178.3763089667
 20
124.660372354
 30
0.0
 10
178.5448428891
 20
123.6030120507
 30
0.0
  0
SPLINE
  5
813
100
AcDbEntity
  8
BEZUGSACHSEN
100
AcDbSpline
 62
7
  6
CONTINUOUS
 70
0
 71
3
 72
19
 73
15
 74
0
 42
0.0000001
 43
0.0000001
 44
0.0000000001
 40
0.0
 40
0.0
 40
0.0
 40
0.0
 40
0.1778943797
 40
0.3545422968
 40
0.5217772774
 40
0.6718947819
 40
0.7383939079
 40
0.7982017348
 40
0.8507138518
 40
0.8954853486
 40
0.932267156
 40
0.9611604064
 40
0.9829547124
 40
1.0
 40
1.0
 40
1.0
 40
1.0
 10
298.1264042479
 20
36.4058220723
 30
0.0
 10
297.8642486314
 20
36.6590449528
 30
0.0
 10
297.3522264899
 20
37.1746415173
 30
0.0
 10
296.6292501281
 20
37.9625430468
 30
0.0
 10
295.9765911645
 20
38.7365426625
 30
0.0
 10
295.4989752444
 20
39.3619702637
 30
0.0
 10
295.1781420706
 20
39.8288297316
 30
0.0
 10
294.9826733489
 20
40.1388415989
 30
0.0
 10
294.8246033009
 20
40.4194187655
 30
0.0
 10
294.70565064
 20
40.6672623374
 30
0.0
 10
294.6265510308
 20
40.8798494421
 30
0.0
 10
294.5883251663
 20
41.0556654242
 30
0.0
 10
294.5896629663
 20
41.1966770523
 30
0.0
 10
294.6275671117
 20
41.2719211818
 30
0.0
 10
294.6526865059
 20
41.2961837402
 30
0.0
  0
SPLINE
  5
814
100
AcDbEntity
  8
RUNDUNGEN
100
AcDbSpline
 62
7
  6
CONTINUOUS
 70
0
 71
3
 72
15
 73
11
 74
0
 42
0.0000001
 43
0.0000001
 44
0.0000000001
 40
0.0
 40
0.0
 40
0.0
 40
0.0
 40
0.0242383956
 40
0.0548387036
 40
0.13569646
 40
0.2416533658
 40
0.3694892989
 40
0.5147576498
 40
0.6721861923
 40
1.0
 40
1.0
 40
1.0
 40
1.0
 10
346.7199451238
 20
-3.1555912651
 30
0.0
 10
346.7199451238
 20
-3.1171264259
 30
0.0
 10
346.7074058459
 20
-3.030226177
 30
0.0
 10
346.6441444363
 20
-2.8240213403
 30
0.0
 10
346.4916746346
 20
-2.5126539972
 30
0.0
 10
346.2293676935
 20
-2.087603087
 30
0.0
 10
345.879161408
 20
-1.5979411389
 30
0.0
 10
345.4544309603
 20
-1.062523735
 30
0.0
 10
344.800530883
 20
-0.3049253804
 30
0.0
 10
344.2656888401
 20
0.250314444
 30
0.0
 10
343.891517999
 20
0.6117357229
 30
0.0
  0
SPLINE
  5
815
100
AcDbEntity
  8
RUNDUNGEN
100
AcDbSpline
 62
7
  6
CONTINUOUS
 70
0
 71
3
 72
12
 73
8
 74
0
 42
0.0000001
 43
0.0000001
 44
0.0000000001
 40
0.0
 40
0.0
 40
0.0
 40
0.0
 40
0.0611670511
 40
0.1416527351
 40
0.3611634952
 40
0.6520783701
 40
1.0
 40
1.0
 40
1.0
 40
1.0
 10
339.6488773119
 20
-5.3712648934
 30
0.0
 10
339.6488773119
 20
-5.3229404344
 30
0.0
 10
339.6291577231
 20
-5.2114074795
 30
0.0
 10
339.5335475243
 20
-4.9421876712
 30
0.0
 10
339.307745574
 20
-4.5308611011
 30
0.0
 10
338.9274622429
 20
-3.9693721165
 30
0.0
 10
338.6168290557
 20
-3.5709446465
 30
0.0
 10
338.4427693378
 20
-3.3582054524
 30
0.0
  0
SPLINE
  5
816
100
AcDbEntity
  8
RUNDUNGEN
100
AcDbSpline
 62
7
  6
CONTINUOUS
 70
0
 71
3
 72
12
 73
8
 74
0
 42
0.0000001
 43
0.0000001
 44
0.0000000001
 40
0.0
 40
0.0
 40
0.0
 40
0.0
 40
0.3828843386
 40
0.6764082435
 40
0.7880579935
 40
0.8770244361
 40
1.0
 40
1.0
 40
1.0
 40
1.0
 10
290.0229378037
 20
38.2662825062
 30
0.0
 10
289.982561379
 20
38.2949349124
 30
0.0
 10
289.9095899898
 20
38.3433211027
 30
0.0
 10
289.8195606311
 20
38.3915913629
 30
0.0
 10
289.758722251
 20
38.4125841018
 30
0.0
 10
289.7183060168
 20
38.4207413113
 30
0.0
 10
289.6873692804
 20
38.4159043626
 30
0.0
 10
289.6759351791
 20
38.404853408
 30
0.0
  0
SPLINE
  5
817
100
AcDbEntity
  8
RUNDUNGEN
100
AcDbSpline
 62
7
  6
CONTINUOUS
 70
0
 71
3
 72
12
 73
8
 74
0
 42
0.0000001
 43
0.0000001
 44
0.0000000001
 40
0.0
 40
0.0
 40
0.0
 40
0.0
 40
0.2854603788
 40
0.5743181109
 40
0.8242147096
 40
0.923084168
 40
1.0
 40
1.0
 40
1.0
 40
1.0
 10
303.2999968038
 20
39.5939789951
 30
0.0
 10
303.2036152401
 20
39.7117784288
 30
0.0
 10
302.9994113608
 20
39.9404767126
 30
0.0
 10
302.6849661211
 20
40.2477488628
 30
0.0
 10
302.4245289128
 20
40.467400967
 30
0.0
 10
302.237667118
 20
40.5963980425
 30
0.0
 10
302.1557209628
 20
40.6425922836
 30
0.0
 10
302.1182275002
 20
40.6592089129
 30
0.0
  0
SPLINE
  5
818
100
AcDbEntity
  8
RUNDUNGEN
100
AcDbSpline
 62
7
  6
CONTINUOUS
 70
0
 71
3
 72
9
 73
5
 74
0
 42
0.0000001
 43
0.0000001
 44
0.0000000001
 40
0.0
 40
0.0
 40
0.0
 40
0.0
 40
0.5394967105
 40
1.0
 40
1.0
 40
1.0
 40
1.0
 10
339.1264633964
 20
5.2144250272
 30
0.0
 10
338.8508125845
 20
5.4806832655
 30
0.0
 10
338.3264092488
 20
5.9604050684
 30
0.0
 10
337.7709269247
 20
6.4049198653
 30
0.0
 10
337.5041442457
 20
6.5942374126
 30
0.0
  0
SPLINE
  5
819
100
AcDbEntity
  8
0
100
AcDbSpline
 62
7
  6
CONTINUOUS
 70
0
 71
3
 72
11
 73
7
 74
0
 42
0.0000001
 43
0.0000001
 44
0.0000000001
 40
0.0
 40
0.0
 40
0.0
 40
0.0
 40
0.3277429657
 40
0.6065413602
 40
0.8313357058
 40
1.0
 40
1.0
 40
1.0
 40
1.0
 10
324.858536904
 20
11.020089892
 30
0.0
 10
324.6465604588
 20
11.1814138908
 30
0.0
 10
324.2478656963
 20
11.4716729266
 30
0.0
 10
323.6783872864
 20
11.8367919564
 30
0.0
 10
323.1948731198
 20
12.0918242191
 30
0.0
 10
322.8923628972
 20
12.2036718471
 30
0.0
 10
322.7580874049
 20
12.2312909956
 30
0.0
  0
SPLINE
  5
81A
100
AcDbEntity
  8
0
100
AcDbSpline
 62
7
  6
CONTINUOUS
 70
0
 71
3
 72
10
 73
6
 74
0
 42
0.0000001
 43
0.0000001
 44
0.0000000001
 40
0.0
 40
0.0
 40
0.0
 40
0.0
 40
0.311819073
 40
0.5756258749
 40
1.0
 40
1.0
 40
1.0
 40
1.0
 10
322.7430704982
 20
12.2342792479
 30
0.0
 10
322.7004510614
 20
12.2424706349
 30
0.0
 10
322.6205480649
 20
12.2531063835
 30
0.0
 10
322.4816035696
 20
12.249686909
 30
0.0
 10
322.3854643747
 20
12.2116933564
 30
0.0
 10
322.3429986201
 20
12.1706404246
 30
0.0
  0
SPLINE
  5
81B
100
AcDbEntity
  8
0
100
AcDbSpline
 62
7
  6
CONTINUOUS
 70
0
 71
3
 72
9
 73
5
 74
0
 42
0.0000001
 43
0.0000001
 44
0.0000000001
 40
0.0
 40
0.0
 40
0.0
 40
0.0
 40
0.2662079322
 40
1.0
 40
1.0
 40
1.0
 40
1.0
 10
309.485926408
 20
25.7327821558
 30
0.0
 10
309.4472290079
 20
25.7559967424
 30
0.0
 10
309.3011824125
 20
25.8420476825
 30
0.0
 10
309.1522970616
 20
25.9233793069
 30
0.0
 10
309.0410850449
 20
25.9790988545
 30
0.0
  0
SPLINE
  5
81C
100
AcDbEntity
  8
0
100
AcDbSpline
 62
7
  6
CONTINUOUS
 70
0
 71
3
 72
12
 73
8
 74
0
 42
0.0000001
 43
0.0000001
 44
0.0000000001
 40
0.0
 40
0.0
 40
0.0
 40
0.0
 40
0.3579555866
 40
0.636786893
 40
0.7484181776
 40
0.8437856103
 40
1.0
 40
1.0
 40
1.0
 40
1.0
 10
309.0410850449
 20
25.9790988545
 30
0.0
 10
308.9152137125
 20
26.042163026
 30
0.0
 10
308.6867329001
 20
26.1454960992
 30
0.0
 10
308.4032500987
 20
26.2315142066
 30
0.0
 10
308.212291722
 20
26.2512811461
 30
0.0
 10
308.0696897661
 20
26.2431502188
 30
0.0
 10
307.9720621456
 20
26.2016544472
 30
0.0
 10
307.9278854902
 20
26.1589543721
 30
0.0
  0
SPLINE
  5
81D
100
AcDbEntity
  8
0
100
AcDbSpline
 62
7
  6
CONTINUOUS
 70
0
 71
3
 72
9
 73
5
 74
0
 42
0.0000001
 43
0.0000001
 44
0.0000000001
 40
0.0
 40
0.0
 40
0.0
 40
0.0
 40
0.4519605006
 40
1.0
 40
1.0
 40
1.0
 40
1.0
 10
307.5805079328
 20
26.5185779431
 30
0.0
 10
307.5445261557
 20
26.4837988371
 30
0.0
 10
307.4867975555
 20
26.3835354909
 30
0.0
 10
307.4755187679
 20
26.2712661479
 30
0.0
 10
307.4755187679
 20
26.2105852015
 30
0.0
  0
SPLINE
  5
81E
100
AcDbEntity
  8
0
100
AcDbSpline
 62
7
  6
CONTINUOUS
 70
0
 71
3
 72
9
 73
5
 74
0
 42
0.0000001
 43
0.0000001
 44
0.0000000001
 40
0.0
 40
0.0
 40
0.0
 40
0.0
 40
0.4520427014
 40
1.0
 40
1.0
 40
1.0
 40
1.0
 10
322.0650974702
 20
12.4583400941
 30
0.0
 10
322.0329204343
 20
12.4272335785
 30
0.0
 10
321.9813157797
 20
12.3375761401
 30
0.0
 10
321.9712077822
 20
12.2371935938
 30
0.0
 10
321.9712077822
 20
12.1829429082
 30
0.0
  0
SPLINE
  5
81F
100
AcDbEntity
  8
RUNDUNGEN
100
AcDbSpline
 62
7
  6
CONTINUOUS
 70
0
 71
3
 72
19
 73
15
 74
0
 42
0.0000001
 43
0.0000001
 44
0.0000000001
 40
0.0
 40
0.0
 40
0.0
 40
0.0
 40
0.2004136132
 40
0.38410366
 40
0.5475643595
 40
0.6878859691
 40
0.7486600545
 40
0.802901028
 40
0.8505168258
 40
0.8915232
 40
0.9261405403
 40
0.9548901096
 40
0.9788587824
 40
1.0
 40
1.0
 40
1.0
 40
1.0
 10
288.9888993516
 20
44.2936647505
 30
0.0
 10
288.7215687075
 20
44.6204014962
 30
0.0
 10
288.2185573361
 20
45.2543524738
 30
0.0
 10
287.5341861219
 20
46.1831848712
 30
0.0
 10
286.9615050382
 20
47.0359130104
 30
0.0
 10
286.5692387558
 20
47.696894602
 30
0.0
 10
286.3241643783
 20
48.1758708858
 30
0.0
 10
286.1836135174
 20
48.4884829563
 30
0.0
 10
286.0777866919
 20
48.770476619
 30
0.0
 10
286.0071695969
 20
49.0207005908
 30
0.0
 10
285.9718619243
 20
49.2383741011
 30
0.0
 10
285.9724254144
 20
49.4234964588
 30
0.0
 10
286.0102931619
 20
49.5765801287
 30
0.0
 10
286.0650299497
 20
49.6575653086
 30
0.0
 10
286.09704086
 20
49.6885251153
 30
0.0
  0
SPLINE
  5
820
100
AcDbEntity
  8
0
100
AcDbSpline
 62
7
  6
CONTINUOUS
 70
0
 71
3
 72
14
 73
10
 74
0
 42
0.0000001
 43
0.0000001
 44
0.0000000001
 40
0.0
 40
0.0
 40
0.0
 40
0.0
 40
0.3720344445
 40
0.5258500159
 40
0.6579516919
 40
0.7688163521
 40
0.8599898398
 40
0.9348806739
 40
1.0
 40
1.0
 40
1.0
 40
1.0
 10
289.3349204889
 20
38.0814365596
 30
0.0
 10
289.1745889108
 20
38.3660021157
 30
0.0
 10
288.9606364983
 20
38.7763178832
 30
0.0
 10
288.7434739353
 20
39.3120476695
 30
0.0
 10
288.6390787162
 20
39.6449192485
 30
0.0
 10
288.5827863402
 20
39.9336882599
 30
0.0
 10
288.5752142915
 20
40.1781797851
 30
0.0
 10
288.6181968084
 20
40.3795416011
 30
0.0
 10
288.6877407807
 20
40.4856662875
 30
0.0
 10
288.7288645762
 20
40.5253822635
 30
0.0
  0
SPLINE
  5
821
100
AcDbEntity
  8
RUNDUNGEN
100
AcDbSpline
 62
7
  6
CONTINUOUS
 70
0
 71
3
 72
12
 73
8
 74
0
 42
0.0000001
 43
0.0000001
 44
0.0000000001
 40
0.0
 40
0.0
 40
0.0
 40
0.0
 40
0.3839151376
 40
0.6784059315
 40
0.7902036726
 40
0.8789455224
 40
1.0
 40
1.0
 40
1.0
 40
1.0
 10
286.2790260845
 20
34.6199389216
 30
0.0
 10
286.2497839757
 20
34.6634706044
 30
0.0
 10
286.2004906853
 20
34.7420601618
 30
0.0
 10
286.1516067737
 20
34.8385546561
 30
0.0
 10
286.1307335947
 20
34.9034107794
 30
0.0
 10
286.122950792
 20
34.9459160405
 30
0.0
 10
286.1285393822
 20
34.9783632867
 30
0.0
 10
286.1404487064
 20
34.9898347633
 30
0.0
  0
SPLINE
  5
822
100
AcDbEntity
  8
RUNDUNGEN
100
AcDbSpline
 62
7
  6
CONTINUOUS
 70
0
 71
3
 72
11
 73
7
 74
0
 42
0.0000001
 43
0.0000001
 44
0.0000000001
 40
0.0
 40
0.0
 40
0.0
 40
0.0
 40
0.2283935007
 40
0.4975020238
 40
0.7679048038
 40
1.0
 40
1.0
 40
1.0
 40
1.0
 10
290.3809698594
 20
29.055006439
 30
0.0
 10
290.2752152459
 20
29.1300533053
 30
0.0
 10
290.0569796802
 20
29.3103968554
 30
0.0
 10
289.7426161878
 20
29.6128856245
 30
0.0
 10
289.4483237818
 20
29.9377968861
 30
0.0
 10
289.2726821309
 20
30.1633901074
 30
0.0
 10
289.1992005558
 20
30.2727795033
 30
0.0
  0
SPLINE
  5
823
100
AcDbEntity
  8
RUNDUNGEN
100
AcDbSpline
 62
7
  6
CONTINUOUS
 70
0
 71
3
 72
9
 73
5
 74
0
 42
0.0000001
 43
0.0000001
 44
0.0000000001
 40
0.0
 40
0.0
 40
0.0
 40
0.0
 40
0.50882034
 40
1.0
 40
1.0
 40
1.0
 40
1.0
 10
335.5909294904
 20
-12.4356859629
 30
0.0
 10
335.299323052
 20
-12.1540157728
 30
0.0
 10
334.7420248482
 20
-11.5839220858
 30
0.0
 10
334.2164425565
 20
-10.9843238021
 30
0.0
 10
333.9686103398
 20
-10.6814184159
 30
0.0
  0
SPLINE
  5
824
100
AcDbEntity
  8
RUNDUNGEN
100
AcDbSpline
 62
7
  6
CONTINUOUS
 70
0
 71
3
 72
9
 73
5
 74
0
 42
0.0000001
 43
0.0000001
 44
0.0000000001
 40
0.0
 40
0.0
 40
0.0
 40
0.0
 40
0.2218388199
 40
1.0
 40
1.0
 40
1.0
 40
1.0
 10
346.6704940796
 20
-15.4650597283
 30
0.0
 10
346.6787762548
 20
-15.4570520154
 30
0.0
 10
346.7114615704
 20
-15.415847664
 30
0.0
 10
346.7199451238
 20
-15.3604971202
 30
0.0
 10
346.7199451238
 20
-15.3200863849
 30
0.0
  0
SPLINE
  5
825
100
AcDbEntity
  8
RUNDUNGEN
100
AcDbSpline
 62
7
  6
CONTINUOUS
 70
0
 71
3
 72
17
 73
13
 74
0
 42
0.0000001
 43
0.0000001
 44
0.0000000001
 40
0.0
 40
0.0
 40
0.0
 40
0.0
 40
0.0189539837
 40
0.0414302201
 40
0.0695939616
 40
0.1044390794
 40
0.195284729
 40
0.3139040609
 40
0.4578061746
 40
0.6232535765
 40
0.8057319941
 40
1.0
 40
1.0
 40
1.0
 40
1.0
 10
343.1349601737
 20
-18.8801232378
 30
0.0
 10
343.1193885624
 20
-18.895178823
 30
0.0
 10
343.0764528462
 20
-18.919280378
 30
0.0
 10
342.9961880829
 20
-18.9282117626
 30
0.0
 10
342.8987729137
 20
-18.9155134199
 30
0.0
 10
342.7296724798
 20
-18.8656970561
 30
0.0
 10
342.4769913758
 20
-18.7438259705
 30
0.0
 10
342.1332136766
 20
-18.531589735
 30
0.0
 10
341.7360647483
 20
-18.2455290204
 30
0.0
 10
341.2973335228
 20
-17.8939870253
 30
0.0
 10
340.8301049328
 20
-17.4868188913
 30
0.0
 10
340.5156592333
 20
-17.192609609
 30
0.0
 10
340.3559840931
 20
-17.0383752672
 30
0.0
  0
SPLINE
  5
826
100
AcDbEntity
  8
RUNDUNGEN
100
AcDbSpline
 62
7
  6
CONTINUOUS
 70
0
 71
3
 72
14
 73
10
 74
0
 42
0.0000001
 43
0.0000001
 44
0.0000000001
 40
0.0
 40
0.0
 40
0.0
 40
0.0
 40
0.0563087688
 40
0.1252728761
 40
0.2140080878
 40
0.3253374145
 40
0.4601132286
 40
0.6181517035
 40
1.0
 40
1.0
 40
1.0
 40
1.0
 10
298.3306754862
 20
32.7297728443
 30
0.0
 10
298.3131709416
 20
32.7128597765
 30
0.0
 10
298.2627758406
 20
32.6867757406
 30
0.0
 10
298.1688866768
 20
32.6821038954
 30
0.0
 10
298.0540411705
 20
32.7037363044
 30
0.0
 10
297.9170270532
 20
32.7515023334
 30
0.0
 10
297.7583806862
 20
32.825100116
 30
0.0
 10
297.5030670022
 20
32.9663924787
 30
0.0
 10
297.3085908517
 20
33.0961493841
 30
0.0
 10
297.1739794791
 20
33.1916739323
 30
0.0
  0
SPLINE
  5
827
100
AcDbEntity
  8
RUNDUNGEN
100
AcDbSpline
 62
7
  6
CONTINUOUS
 70
0
 71
3
 72
9
 73
5
 74
0
 42
0.0000001
 43
0.0000001
 44
0.0000000001
 40
0.0
 40
0.0
 40
0.0
 40
0.0
 40
0.2218259981
 40
1.0
 40
1.0
 40
1.0
 40
1.0
 10
339.5994311033
 20
0.4108703839
 30
0.0
 10
339.6077128349
 20
0.4188772003
 30
0.0
 10
339.6403971292
 20
0.4600811054
 30
0.0
 10
339.6488773119
 20
0.5154308491
 30
0.0
 10
339.6488773119
 20
0.5558412812
 30
0.0
  0
SPLINE
  5
828
100
AcDbEntity
  8
BEZUGSACHSEN
100
AcDbSpline
 62
7
  6
CONTINUOUS
 70
0
 71
3
 72
18
 73
14
 74
0
 42
0.0000001
 43
0.0000001
 44
0.0000000001
 40
0.0
 40
0.0
 40
0.0
 40
0.0
 40
0.0189477995
 40
0.0414255061
 40
0.0695837455
 40
0.1044286737
 40
0.1463270042
 40
0.1953351316
 40
0.3139434024
 40
0.4578345841
 40
0.6232793597
 40
0.8057332495
 40
1.0
 40
1.0
 40
1.0
 40
1.0
 10
301.6001219898
 20
34.1036508555
 30
0.0
 10
301.5806530023
 20
34.0848459654
 30
0.0
 10
301.5270155232
 20
34.0546786721
 30
0.0
 10
301.4266751516
 20
34.0435492621
 30
0.0
 10
301.3049130408
 20
34.0593940655
 30
0.0
 10
301.1607401622
 20
34.1017352826
 30
0.0
 10
300.9944017503
 20
34.1701600355
 30
0.0
 10
300.7268828982
 20
34.3048483288
 30
0.0
 10
300.3479397848
 20
34.5395217509
 30
0.0
 10
299.851534949
 20
34.896778686
 30
0.0
 10
299.303113852
 20
35.3363126651
 30
0.0
 10
298.7190685234
 20
35.8452446012
 30
0.0
 10
298.3260109744
 20
36.21301678
 30
0.0
 10
298.1264042479
 20
36.4058220723
 30
0.0
  0
SPLINE
  5
829
100
AcDbEntity
  8
0
100
AcDbSpline
 62
7
  6
CONTINUOUS
 70
0
 71
3
 72
12
 73
8
 74
0
 42
0.0000001
 43
0.0000001
 44
0.0000000001
 40
0.0
 40
0.0
 40
0.0
 40
0.0
 40
0.1658116919
 40
0.2636046688
 40
0.3758601579
 40
0.6511644036
 40
1.0
 40
1.0
 40
1.0
 40
1.0
 10
292.2643984821
 20
43.9404457729
 30
0.0
 10
292.3223395818
 20
43.9964033346
 30
0.0
 10
292.4445078418
 20
44.0553113487
 30
0.0
 10
292.6259527973
 20
44.0775269979
 30
0.0
 10
292.8626046765
 20
44.0682884759
 30
0.0
 10
293.2129802654
 20
43.9844188963
 30
0.0
 10
293.4956128765
 20
43.8733607282
 30
0.0
 10
293.650542398
 20
43.8046979202
 30
0.0
  0
SPLINE
  5
82A
100
AcDbEntity
  8
RUNDUNGEN
100
AcDbSpline
 62
7
  6
CONTINUOUS
 70
0
 71
3
 72
9
 73
5
 74
0
 42
0.0000001
 43
0.0000001
 44
0.0000000001
 40
0.0
 40
0.0
 40
0.0
 40
0.0
 40
0.2929719602
 40
1.0
 40
1.0
 40
1.0
 40
1.0
 10
339.6488773119
 20
1.9663300562
 30
0.0
 10
339.6488773119
 20
1.9814998697
 30
0.0
 10
339.6515788589
 20
2.0328575809
 30
0.0
 10
339.6720091857
 20
2.0858564494
 30
0.0
 10
339.6983282543
 20
2.1113033307
 30
0.0
  0
SPLINE
  5
82B
100
AcDbEntity
  8
RUNDUNGEN
100
AcDbSpline
 62
7
  6
CONTINUOUS
 70
0
 71
3
 72
9
 73
5
 74
0
 42
0.0000001
 43
0.0000001
 44
0.0000000001
 40
0.0
 40
0.0
 40
0.0
 40
0.0
 40
0.5388599213
 40
1.0
 40
1.0
 40
1.0
 40
1.0
 10
338.9417705307
 20
-3.1455080805
 30
0.0
 10
338.6686138554
 20
-2.8816589931
 30
0.0
 10
338.1484568646
 20
-2.4055931957
 30
0.0
 10
337.5977940737
 20
-1.9640819184
 30
0.0
 10
337.3331453464
 20
-1.7754356577
 30
0.0
  0
SPLINE
  5
82C
100
AcDbEntity
  8
RUNDUNGEN
100
AcDbSpline
 62
7
  6
CONTINUOUS
 70
0
 71
3
 72
15
 73
11
 74
0
 42
0.0000001
 43
0.0000001
 44
0.0000000001
 40
0.0
 40
0.0
 40
0.0
 40
0.0
 40
0.3278135477
 40
0.4852421108
 40
0.6305104969
 40
0.7583464491
 40
0.8643033922
 40
0.9451612484
 40
0.9757615911
 40
1.0
 40
1.0
 40
1.0
 40
1.0
 10
342.4773044366
 20
-10.5490806563
 30
0.0
 10
342.1031338925
 20
-10.1876596642
 30
0.0
 10
341.5682921048
 20
-9.6324201254
 30
0.0
 10
340.9143921877
 20
-8.8748220612
 30
0.0
 10
340.4896616308
 20
-8.3394045935
 30
0.0
 10
340.1394552202
 20
-7.8497425554
 30
0.0
 10
339.8771480936
 20
-7.4246914738
 30
0.0
 10
339.7246781066
 20
-7.1133239094
 30
0.0
 10
339.6614166334
 20
-6.9071188499
 30
0.0
 10
339.6488773119
 20
-6.8202185287
 30
0.0
 10
339.6488773119
 20
-6.7817536683
 30
0.0
  0
SPLINE
  5
82D
100
AcDbEntity
  8
RUNDUNGEN
100
AcDbSpline
 62
7
  6
CONTINUOUS
 70
0
 71
3
 72
15
 73
11
 74
0
 42
0.0000001
 43
0.0000001
 44
0.0000000001
 40
0.0
 40
0.0
 40
0.0
 40
0.0
 40
0.2012405793
 40
0.3857565799
 40
0.5498973705
 40
0.6908118998
 40
0.8062567829
 40
0.8540605811
 40
0.8952267794
 40
1.0
 40
1.0
 40
1.0
 40
1.0
 10
334.3246675465
 20
1.6750191614
 30
0.0
 10
334.1909988179
 20
1.8383916978
 30
0.0
 10
333.9394443921
 20
2.1554255931
 30
0.0
 10
333.5972201254
 20
2.6199571429
 30
0.0
 10
333.3107701824
 20
3.0462796057
 30
0.0
 10
333.0856721931
 20
3.4263497939
 30
0.0
 10
332.944578948
 20
3.7120321331
 30
0.0
 10
332.8688410974
 20
3.9147258347
 30
0.0
 10
332.8146908645
 20
4.1041627437
 30
0.0
 10
332.7998183937
 20
4.2962744536
 30
0.0
 10
332.8788869038
 20
4.3726036833
 30
0.0
  0
SPLINE
  5
82E
100
AcDbEntity
  8
RUNDUNGEN
100
AcDbSpline
 62
7
  6
CONTINUOUS
 70
0
 71
3
 72
12
 73
8
 74
0
 42
0.0000001
 43
0.0000001
 44
0.0000000001
 40
0.0
 40
0.0
 40
0.0
 40
0.0
 40
0.1026154206
 40
0.2170880099
 40
0.4713551709
 40
0.7403400996
 40
1.0
 40
1.0
 40
1.0
 40
1.0
 10
325.1930842633
 20
15.3305605073
 30
0.0
 10
324.8146791699
 20
15.5990889006
 30
0.0
 10
324.030481213
 20
16.1903008051
 30
0.0
 10
322.3837673265
 20
17.5440923706
 30
0.0
 10
320.2553897695
 20
19.4929272057
 30
0.0
 10
317.7794323701
 20
22.0251389147
 30
0.0
 10
316.2026669316
 20
23.8240830184
 30
0.0
 10
315.4591693591
 20
24.7328003041
 30
0.0
  0
SPLINE
  5
82F
100
AcDbEntity
  8
RUNDUNGEN
100
AcDbSpline
 62
7
  6
CONTINUOUS
 70
0
 71
3
 72
12
 73
8
 74
0
 42
0.0000001
 43
0.0000001
 44
0.0000000001
 40
0.0
 40
0.0
 40
0.0
 40
0.0
 40
0.2596599004
 40
0.5286448291
 40
0.7829119901
 40
0.8973845794
 40
1.0
 40
1.0
 40
1.0
 40
1.0
 10
321.6575503573
 20
4.3654000614
 30
0.0
 10
320.9140527848
 20
5.2741173472
 30
0.0
 10
319.3372873464
 20
7.0730614508
 30
0.0
 10
316.8613299469
 20
9.6052731598
 30
0.0
 10
314.7329523899
 20
11.5541079949
 30
0.0
 10
313.0862385034
 20
12.9078995605
 30
0.0
 10
312.3020405466
 20
13.4991114649
 30
0.0
 10
311.9236354532
 20
13.7676398582
 30
0.0
  0
SPLINE
  5
830
100
AcDbEntity
  8
RUNDUNGEN
100
AcDbSpline
 62
7
  6
CONTINUOUS
 70
0
 71
3
 72
11
 73
7
 74
0
 42
0.0000001
 43
0.0000001
 44
0.0000000001
 40
0.0
 40
0.0
 40
0.0
 40
0.0
 40
0.2321082131
 40
0.5025206982
 40
0.7716173963
 40
1.0
 40
1.0
 40
1.0
 40
1.0
 10
292.7347344617
 20
33.6878430128
 30
0.0
 10
292.808220158
 20
33.5784474819
 30
0.0
 10
292.983870732
 20
33.3528447636
 30
0.0
 10
293.2781684574
 20
33.027929977
 30
0.0
 10
293.5925280828
 20
32.7254478457
 30
0.0
 10
293.8107541975
 20
32.5451132342
 30
0.0
 10
293.9165037653
 20
32.4700699485
 30
0.0
  0
SPLINE
  5
831
100
AcDbEntity
  8
BEZUGSACHSEN
100
AcDbSpline
 62
7
  6
CONTINUOUS
 70
0
 71
3
 72
15
 73
11
 74
0
 42
0.0000001
 43
0.0000001
 44
0.0000000001
 40
0.0
 40
0.0
 40
0.0
 40
0.0
 40
0.2015117988
 40
0.3859733297
 40
0.5499827572
 40
0.6906868951
 40
0.8059588395
 40
0.8537031785
 40
0.8948518312
 40
1.0
 40
1.0
 40
1.0
 40
1.0
 10
300.1930336596
 20
36.753694811
 30
0.0
 10
300.3238119203
 20
36.5928850825
 30
0.0
 10
300.5697223727
 20
36.2811043744
 30
0.0
 10
300.9039655466
 20
35.8244802729
 30
0.0
 10
301.1832954696
 20
35.4058552037
 30
0.0
 10
301.4024035049
 20
35.03281908
 30
0.0
 10
301.5394453541
 20
34.7524956792
 30
0.0
 10
301.6126321536
 20
34.5536457896
 30
0.0
 10
301.6649462196
 20
34.3672074747
 30
0.0
 10
301.6779144786
 20
34.1787898013
 30
0.0
 10
301.6001219898
 20
34.1036508555
 30
0.0
  0
SPLINE
  5
832
100
AcDbEntity
  8
RUNDUNGEN
100
AcDbSpline
 62
7
  6
CONTINUOUS
 70
0
 71
3
 72
14
 73
10
 74
0
 42
0.0000001
 43
0.0000001
 44
0.0000000001
 40
0.0
 40
0.0
 40
0.0
 40
0.0
 40
0.3818348225
 40
0.5398672732
 40
0.6746447813
 40
0.7859788682
 40
0.8747177379
 40
0.9436856704
 40
1.0
 40
1.0
 40
1.0
 40
1.0
 10
338.4427693378
 20
0.8728035231
 30
0.0
 10
338.5773717299
 20
0.7772853477
 30
0.0
 10
338.7718343429
 20
0.6475368328
 30
0.0
 10
339.0271314681
 20
0.5062493338
 30
0.0
 10
339.1857716028
 20
0.4326511239
 30
0.0
 10
339.3227844248
 20
0.3848810526
 30
0.0
 10
339.4376293186
 20
0.3632428843
 30
0.0
 10
339.5315191751
 20
0.367878299
 30
0.0
 10
339.5819305801
 20
0.3939507974
 30
0.0
 10
339.5994311033
 20
0.4108703839
 30
0.0
  0
SPLINE
  5
833
100
AcDbEntity
  8
0
100
AcDbSpline
 62
7
  6
CONTINUOUS
 70
0
 71
3
 72
15
 73
11
 74
0
 42
0.0000001
 43
0.0000001
 44
0.0000000001
 40
0.0
 40
0.0
 40
0.0
 40
0.0
 40
0.2018499553
 40
0.3828567064
 40
0.5413894942
 40
0.6765595027
 40
0.7880615151
 40
0.8765600154
 40
0.9448337862
 40
1.0
 40
1.0
 40
1.0
 40
1.0
 10
293.650542398
 20
40.241837787
 30
0.0
 10
293.496351497
 20
40.4713762731
 30
0.0
 10
293.2109382263
 20
40.9115728641
 30
0.0
 10
292.8333630716
 20
41.5502173816
 30
0.0
 10
292.531990166
 20
42.1269391813
 30
0.0
 10
292.3094882017
 20
42.6360895109
 30
0.0
 10
292.1667608027
 20
43.073704854
 30
0.0
 10
292.1052942643
 20
43.4377695093
 30
0.0
 10
292.1245581613
 20
43.7322230737
 30
0.0
 10
292.2100375689
 20
43.8879458347
 30
0.0
 10
292.2643984821
 20
43.9404457729
 30
0.0
  0
SPLINE
  5
834
100
AcDbEntity
  8
0
100
AcDbSpline
 62
7
  6
CONTINUOUS
 70
0
 71
3
 72
9
 73
5
 74
0
 42
0.0000001
 43
0.0000001
 44
0.0000000001
 40
0.0
 40
0.0
 40
0.0
 40
0.0
 40
0.4519605006
 40
1.0
 40
1.0
 40
1.0
 40
1.0
 10
307.9278854902
 20
26.1589543721
 30
0.0
 10
307.8940202882
 20
26.1262210959
 30
0.0
 10
307.839687488
 20
26.0318555935
 30
0.0
 10
307.8290721585
 20
25.9261903295
 30
0.0
 10
307.8290721585
 20
25.8690788506
 30
0.0
  0
SPLINE
  5
835
100
AcDbEntity
  8
0
100
AcDbSpline
 62
7
  6
CONTINUOUS
 70
0
 71
3
 72
10
 73
6
 74
0
 42
0.0000001
 43
0.0000001
 44
0.0000000001
 40
0.0
 40
0.0
 40
0.0
 40
0.0
 40
0.5928686779
 40
0.819309755
 40
1.0
 40
1.0
 40
1.0
 40
1.0
 10
309.235926408
 20
26.0657699633
 30
0.0
 10
308.9951062334
 20
26.2102380877
 30
0.0
 10
308.6531656
 20
26.3982017272
 30
0.0
 10
308.2082979223
 20
26.5626847772
 30
0.0
 10
308.0183515966
 20
26.6035129175
 30
0.0
 10
307.9330504366
 20
26.6105299898
 30
0.0
  0
SPLINE
  5
836
100
AcDbEntity
  8
0
100
AcDbSpline
 62
7
  6
CONTINUOUS
 70
0
 71
3
 72
9
 73
5
 74
0
 42
0.0000001
 43
0.0000001
 44
0.0000000001
 40
0.0
 40
0.0
 40
0.0
 40
0.0
 40
0.5554668888
 40
1.0
 40
1.0
 40
1.0
 40
1.0
 10
307.9330504366
 20
26.6105299898
 30
0.0
 10
307.8642530529
 20
26.6161894231
 30
0.0
 10
307.7375494184
 20
26.6147874418
 30
0.0
 10
307.6202292837
 20
26.5569716299
 30
0.0
 10
307.5805079328
 20
26.5185779431
 30
0.0
  0
SPLINE
  5
837
100
AcDbEntity
  8
0
100
AcDbSpline
 62
7
  6
CONTINUOUS
 70
0
 71
3
 72
9
 73
5
 74
0
 42
0.0000001
 43
0.0000001
 44
0.0000000001
 40
0.0
 40
0.0
 40
0.0
 40
0.0
 40
0.4520427014
 40
1.0
 40
1.0
 40
1.0
 40
1.0
 10
322.3429986201
 20
12.1706404246
 30
0.0
 10
322.3125151124
 20
12.141171094
 30
0.0
 10
322.2636264923
 20
12.0562324682
 30
0.0
 10
322.2540504947
 20
11.9611332138
 30
0.0
 10
322.2540504947
 20
11.9097378275
 30
0.0
  0
SPLINE
  5
838
100
AcDbEntity
  8
0
100
AcDbSpline
 62
7
  6
CONTINUOUS
 70
0
 71
3
 72
10
 73
6
 74
0
 42
0.0000001
 43
0.0000001
 44
0.0000000001
 40
0.0
 40
0.0
 40
0.0
 40
0.0
 40
0.5858417796
 40
0.8157463948
 40
1.0
 40
1.0
 40
1.0
 40
1.0
 10
324.7203878809
 20
11.2438700874
 30
0.0
 10
324.353635474
 20
11.5229858392
 30
0.0
 10
323.8298176161
 20
11.8968697416
 30
0.0
 10
323.1450033485
 20
12.2850143813
 30
0.0
 10
322.8463426321
 20
12.4180952316
 30
0.0
 10
322.7091717336
 20
12.4649504604
 30
0.0
  0
SPLINE
  5
839
100
AcDbEntity
  8
0
100
AcDbSpline
 62
7
  6
CONTINUOUS
 70
0
 71
3
 72
11
 73
7
 74
0
 42
0.0000001
 43
0.0000001
 44
0.0000000001
 40
0.0
 40
0.0
 40
0.0
 40
0.0
 40
0.3329938946
 40
0.6024543343
 40
0.817906727
 40
1.0
 40
1.0
 40
1.0
 40
1.0
 10
322.7091717336
 20
12.4649504604
 30
0.0
 10
322.6385804279
 20
12.489063241
 30
0.0
 10
322.5085245623
 20
12.5266842387
 30
0.0
 10
322.3257354888
 20
12.5497249129
 30
0.0
 10
322.1750096669
 20
12.5322306539
 30
0.0
 10
322.0944253759
 20
12.4866922692
 30
0.0
 10
322.0650974702
 20
12.4583400941
 30
0.0
  0
SPLINE
  5
83A
100
AcDbEntity
  8
RUNDUNGEN
100
AcDbSpline
 62
7
  6
CONTINUOUS
 70
0
 71
3
 72
12
 73
8
 74
0
 42
0.0000001
 43
0.0000001
 44
0.0000000001
 40
0.0
 40
0.0
 40
0.0
 40
0.0
 40
0.12109665
 40
0.2098669562
 40
0.3216786506
 40
0.6161507077
 40
1.0
 40
1.0
 40
1.0
 40
1.0
 10
289.6759351791
 20
38.404853408
 30
0.0
 10
289.6640428198
 20
38.3933595513
 30
0.0
 10
289.6584894641
 20
38.36091025
 30
0.0
 10
289.6662865129
 20
38.3184019821
 30
0.0
 10
289.6871696016
 20
38.2535568158
 30
0.0
 10
289.7360461521
 20
38.1570877989
 30
0.0
 10
289.7853271912
 20
38.0785202551
 30
0.0
 10
289.8145599905
 20
38.0350024311
 30
0.0
  0
SPLINE
  5
83B
100
AcDbEntity
  8
RUNDUNGEN
100
AcDbSpline
 62
7
  6
CONTINUOUS
 70
0
 71
3
 72
17
 73
13
 74
0
 42
0.0000001
 43
0.0000001
 44
0.0000000001
 40
0.0
 40
0.0
 40
0.0
 40
0.0
 40
0.1942680059
 40
0.3767464235
 40
0.5421938254
 40
0.6860959391
 40
0.804715271
 40
0.8955609206
 40
0.9304060384
 40
0.9585697799
 40
0.9810460163
 40
1.0
 40
1.0
 40
1.0
 40
1.0
 10
343.891517999
 20
-13.6233117577
 30
0.0
 10
344.0511931392
 20
-13.7775460995
 30
0.0
 10
344.3656388388
 20
-14.0717553818
 30
0.0
 10
344.8328674287
 20
-14.4789235158
 30
0.0
 10
345.2715986542
 20
-14.8304655109
 30
0.0
 10
345.6687475825
 20
-15.1165262256
 30
0.0
 10
346.0125252817
 20
-15.328762461
 30
0.0
 10
346.2652063858
 20
-15.4506335466
 30
0.0
 10
346.4343068197
 20
-15.5004499104
 30
0.0
 10
346.5317219888
 20
-15.5131482531
 30
0.0
 10
346.6119867522
 20
-15.5042168685
 30
0.0
 10
346.6549224684
 20
-15.4801153135
 30
0.0
 10
346.6704940796
 20
-15.4650597283
 30
0.0
  0
SPLINE
  5
83C
100
AcDbEntity
  8
RUNDUNGEN
100
AcDbSpline
 62
7
  6
CONTINUOUS
 70
0
 71
3
 72
14
 73
10
 74
0
 42
0.0000001
 43
0.0000001
 44
0.0000000001
 40
0.0
 40
0.0
 40
0.0
 40
0.0
 40
0.0563083454
 40
0.1252818539
 40
0.2140273179
 40
0.3253679452
 40
0.4601494496
 40
0.6181802257
 40
1.0
 40
1.0
 40
1.0
 40
1.0
 10
332.8788869038
 20
4.3726036833
 30
0.0
 10
332.9007751445
 20
4.3937336192
 30
0.0
 10
332.9637939122
 20
4.4262915642
 30
0.0
 10
333.0811525328
 20
4.4320908216
 30
0.0
 10
333.2247118423
 20
4.4050287594
 30
0.0
 10
333.3959746636
 20
4.3453053716
 30
0.0
 10
333.5942683419
 20
4.253304141
 30
0.0
 10
333.9133688494
 20
4.0767036357
 30
0.0
 10
334.156428353
 20
3.9145285891
 30
0.0
 10
334.3246675465
 20
3.7951406604
 30
0.0
  0
SPLINE
  5
83D
100
AcDbEntity
  8
RUNDUNGEN
100
AcDbSpline
 62
7
  6
CONTINUOUS
 70
0
 71
3
 72
17
 73
13
 74
0
 42
0.0000001
 43
0.0000001
 44
0.0000000001
 40
0.0
 40
0.0
 40
0.0
 40
0.0
 40
0.018953956
 40
0.0414301552
 40
0.0695938743
 40
0.1044389531
 40
0.1952845618
 40
0.3139038444
 40
0.4578058983
 40
0.6232532846
 40
0.805731885
 40
1.0
 40
1.0
 40
1.0
 40
1.0
 10
339.6983282543
 20
2.1113033307
 30
0.0
 10
339.713899844
 20
2.1263588938
 30
0.0
 10
339.756835452
 20
2.1504604639
 30
0.0
 10
339.8371001148
 20
2.1593919517
 30
0.0
 10
339.9345151784
 20
2.1466936362
 30
0.0
 10
340.1036155543
 20
2.0968774809
 30
0.0
 10
340.3562965495
 20
1.9750064446
 30
0.0
 10
340.7000741561
 20
1.7627703756
 30
0.0
 10
341.0972230093
 20
1.4767097613
 30
0.0
 10
341.5359543793
 20
1.125167719
 30
0.0
 10
342.0031832366
 20
0.7179993744
 30
0.0
 10
342.3176292008
 20
0.4237898631
 30
0.0
 10
342.4773044366
 20
0.269555429
 30
0.0
  0
SPLINE
  5
83E
100
AcDbEntity
  8
RUNDUNGEN
100
AcDbSpline
 62
7
  6
CONTINUOUS
 70
0
 71
3
 72
9
 73
5
 74
0
 42
0.0000001
 43
0.0000001
 44
0.0000000001
 40
0.0
 40
0.0
 40
0.0
 40
0.0
 40
0.49117966
 40
1.0
 40
1.0
 40
1.0
 40
1.0
 10
337.5041442457
 20
-7.2663549064
 30
0.0
 10
337.7519764625
 20
-7.5692602926
 30
0.0
 10
338.2775587541
 20
-8.1688585763
 30
0.0
 10
338.8348569579
 20
-8.7389522634
 30
0.0
 10
339.1264633964
 20
-9.0206224534
 30
0.0
  0
SPLINE
  5
83F
100
AcDbEntity
  8
BEZUGSACHSEN
100
AcDbSpline
 62
7
  6
CONTINUOUS
 70
0
 71
3
 72
14
 73
10
 74
0
 42
0.0000001
 43
0.0000001
 44
0.0000000001
 40
0.0
 40
0.0
 40
0.0
 40
0.0
 40
0.0580139767
 40
0.128074337
 40
0.2171665522
 40
0.3283360027
 40
0.4625380024
 40
0.6197538444
 40
1.0
 40
1.0
 40
1.0
 40
1.0
 10
294.6526865059
 20
41.2961837402
 30
0.0
 10
294.6734913341
 20
41.3162789047
 30
0.0
 10
294.7322265638
 20
41.3478605635
 30
0.0
 10
294.8419236007
 20
41.3561827576
 30
0.0
 10
294.9756311812
 20
41.3343725673
 30
0.0
 10
295.134621513
 20
41.2826449524
 30
0.0
 10
295.3184645389
 20
41.2015063861
 30
0.0
 10
295.6142804104
 20
41.0441006619
 30
0.0
 10
295.839694879
 20
40.8982744237
 30
0.0
 10
295.9957745601
 20
40.7906551563
 30
0.0
  0
SPLINE
  5
840
100
AcDbEntity
  8
RUNDUNGEN
100
AcDbSpline
 62
7
  6
CONTINUOUS
 70
0
 71
3
 72
12
 73
8
 74
0
 42
0.0000001
 43
0.0000001
 44
0.0000000001
 40
0.0
 40
0.0
 40
0.0
 40
0.0
 40
0.1026154206
 40
0.2170880099
 40
0.4713551709
 40
0.7403400996
 40
1.0
 40
1.0
 40
1.0
 40
1.0
 10
315.4591693591
 20
17.1827033677
 30
0.0
 10
315.8375744525
 20
16.9141749744
 30
0.0
 10
316.6217724093
 20
16.3229630699
 30
0.0
 10
318.2684862959
 20
14.9691715044
 30
0.0
 10
320.3968638529
 20
13.0203366693
 30
0.0
 10
322.8728212523
 20
10.4881249603
 30
0.0
 10
324.4495866908
 20
8.6891808566
 30
0.0
 10
325.1930842633
 20
7.7804635709
 30
0.0
  0
SPLINE
  5
841
100
AcDbEntity
  8
RUNDUNGEN
100
AcDbSpline
 62
7
  6
CONTINUOUS
 70
0
 71
3
 72
14
 73
10
 74
0
 42
0.0000001
 43
0.0000001
 44
0.0000000001
 40
0.0
 40
0.0
 40
0.0
 40
0.0
 40
0.3827717614
 40
0.5413357289
 40
0.6765196836
 40
0.7880140834
 40
0.8765418298
 40
0.9448217642
 40
1.0
 40
1.0
 40
1.0
 40
1.0
 10
297.8685721898
 20
33.9626075161
 30
0.0
 10
297.9660242965
 20
33.817534046
 30
0.0
 10
298.0981907502
 20
33.6081761522
 30
0.0
 10
298.2413980372
 20
33.3343007714
 30
0.0
 10
298.3155782458
 20
33.1645898331
 30
0.0
 10
298.3631232673
 20
33.0187205346
 30
0.0
 10
298.3836721668
 20
32.897368945
 30
0.0
 10
298.3772145578
 20
32.7992269679
 30
0.0
 10
298.348793322
 20
32.7472784802
 30
0.0
 10
298.3306754862
 20
32.7297728443
 30
0.0
  0
SPLINE
  5
842
100
AcDbEntity
  8
0
100
AcDbSpline
 62
7
  6
CONTINUOUS
 70
0
 71
3
 72
9
 73
5
 74
0
 42
0.0000001
 43
0.0000001
 44
0.0000000001
 40
0.0
 40
0.0
 40
0.0
 40
0.0
 40
0.5542265569
 40
1.0
 40
1.0
 40
1.0
 40
1.0
 10
322.3478534495
 20
12.2168089953
 30
0.0
 10
322.2816698562
 20
12.2364666128
 30
0.0
 10
322.1602260818
 20
12.2656859046
 30
0.0
 10
322.0344644257
 20
12.2727190629
 30
0.0
 10
321.9792140731
 20
12.2671434098
 30
0.0
  0
SPLINE
  5
843
100
AcDbEntity
  8
0
100
AcDbSpline
 62
7
  6
CONTINUOUS
 70
0
 71
3
 72
9
 73
5
 74
0
 42
0.0000001
 43
0.0000001
 44
0.0000000001
 40
0.0
 40
0.0
 40
0.0
 40
0.0
 40
0.5571429934
 40
1.0
 40
1.0
 40
1.0
 40
1.0
 10
307.9023863819
 20
26.2889056797
 30
0.0
 10
307.8269856791
 20
26.3101017494
 30
0.0
 10
307.6892880771
 20
26.3405432283
 30
0.0
 10
307.5467242038
 20
26.3428597044
 30
0.0
 10
307.4852865151
 20
26.3327930281
 30
0.0
  0
SPLINE
  5
844
100
AcDbEntity
  8
0
100
AcDbSpline
 62
7
  6
CONTINUOUS
 70
0
 71
3
 72
11
 73
7
 74
0
 42
0.0000001
 43
0.0000001
 44
0.0000000001
 40
0.0
 40
0.0
 40
0.0
 40
0.0
 40
0.2460212289
 40
0.4938418953
 40
0.7449172753
 40
1.0
 40
1.0
 40
1.0
 40
1.0
 10
160.5498515449
 20
191.3217447932
 30
0.0
 10
160.5498515449
 20
192.6797176449
 30
0.0
 10
160.8602823133
 20
195.4154257535
 30
0.0
 10
162.2381461027
 20
199.3248440211
 30
0.0
 10
164.4714481532
 20
202.8756496276
 30
0.0
 10
166.4568897069
 20
204.8780286592
 30
0.0
 10
167.5491719702
 20
205.7664852564
 30
0.0
  0
SPLINE
  5
845
100
AcDbEntity
  8
0
100
AcDbSpline
 62
7
  6
CONTINUOUS
 70
0
 71
3
 72
11
 73
7
 74
0
 42
0.0000001
 43
0.0000001
 44
0.0000000001
 40
0.0
 40
0.0
 40
0.0
 40
0.0
 40
0.2550834257
 40
0.5061591307
 40
0.7539795396
 40
1.0
 40
1.0
 40
1.0
 40
1.0
 10
193.549896796
 20
205.7670012908
 30
0.0
 10
194.6422703427
 20
204.8785412636
 30
0.0
 10
196.6278908028
 20
202.8761339699
 30
0.0
 10
198.8613984647
 20
199.3252050564
 30
0.0
 10
200.2393917699
 20
195.4156177469
 30
0.0
 10
200.5498515449
 20
192.6797800591
 30
0.0
 10
200.5498515449
 20
191.3217447932
 30
0.0
  0
SPLINE
  5
846
100
AcDbEntity
  8
0
100
AcDbSpline
 62
7
  6
CONTINUOUS
 70
0
 71
3
 72
15
 73
11
 74
0
 42
0.0000001
 43
0.0000001
 44
0.0000000001
 40
0.0
 40
0.0
 40
0.0
 40
0.0
 40
0.1241098514
 40
0.2483261042
 40
0.3727588388
 40
0.4974869944
 40
0.6225677245
 40
0.7480260859
 40
0.8738517371
 40
1.0
 40
1.0
 40
1.0
 40
1.0
 10
142.5498515449
 20
191.3217447932
 30
0.0
 10
142.5498515449
 20
193.2087942918
 30
0.0
 10
142.8475514868
 20
196.9912127896
 30
0.0
 10
144.1760116006
 20
202.5237687843
 30
0.0
 10
146.353304666
 20
207.7919614919
 30
0.0
 10
149.3261977742
 20
212.6704250709
 30
0.0
 10
153.0224259322
 20
217.0465053994
 30
0.0
 10
157.3539694311
 20
220.8202169023
 30
0.0
 10
162.2170943561
 20
223.9059202541
 30
0.0
 10
165.7381595056
 20
225.458278345
 30
0.0
 10
167.5458824044
 20
226.0993917465
 30
0.0
  0
SPLINE
  5
847
100
AcDbEntity
  8
0
100
AcDbSpline
 62
7
  6
CONTINUOUS
 70
0
 71
3
 72
15
 73
11
 74
0
 42
0.0000001
 43
0.0000001
 44
0.0000000001
 40
0.0
 40
0.0
 40
0.0
 40
0.0
 40
0.1261482435
 40
0.2519737909
 40
0.3774320092
 40
0.5025126043
 40
0.6272406774
 40
0.7516734183
 40
0.875889823
 40
1.0
 40
1.0
 40
1.0
 40
1.0
 10
193.5544245737
 20
226.0991762118
 30
0.0
 10
195.3621120397
 20
225.4580441886
 30
0.0
 10
198.8831018585
 20
223.9056540296
 30
0.0
 10
203.7461126932
 20
220.8199301851
 30
0.0
 10
208.0775462821
 20
217.046224896
 30
0.0
 10
211.7736783629
 20
212.6701767021
 30
0.0
 10
214.746494515
 20
207.7917644441
 30
0.0
 10
216.9237312132
 20
202.5236342566
 30
0.0
 10
218.252158643
 20
196.9911454267
 30
0.0
 10
218.5498515449
 20
193.2087728013
 30
0.0
 10
218.5498515449
 20
191.3217447932
 30
0.0
  0
SPLINE
  5
848
100
AcDbEntity
  8
0
100
AcDbSpline
 62
7
  6
CONTINUOUS
 70
0
 71
3
 72
15
 73
11
 74
0
 42
0.0000001
 43
0.0000001
 44
0.0000000001
 40
0.0
 40
0.0
 40
0.0
 40
0.0
 40
0.1239295425
 40
0.2480016812
 40
0.3723523026
 40
0.497076683
 40
0.6222280488
 40
0.747808028
 40
0.8737648485
 40
1.0
 40
1.0
 40
1.0
 40
1.0
 10
218.5498515449
 20
147.8550826102
 30
0.0
 10
218.5498515449
 20
145.6834141897
 30
0.0
 10
218.1549206699
 20
141.3273798361
 30
0.0
 10
216.3977105409
 20
135.0085218348
 30
0.0
 10
213.5332408519
 20
129.0911400552
 30
0.0
 10
209.654444135
 20
123.7609606696
 30
0.0
 10
204.8852707108
 20
119.179742886
 30
0.0
 10
199.3748900101
 20
115.4848213264
 30
0.0
 10
193.2961252814
 20
112.7855811326
 30
0.0
 10
188.9854048792
 20
111.702210063
 30
0.0
 10
186.8019534957
 20
111.3475324582
 30
0.0
  0
SPLINE
  5
849
100
AcDbEntity
  8
0
100
AcDbSpline
 62
7
  6
CONTINUOUS
 70
0
 71
3
 72
15
 73
11
 74
0
 42
0.0000001
 43
0.0000001
 44
0.0000000001
 40
0.0
 40
0.0
 40
0.0
 40
0.0
 40
0.1262352727
 40
0.252192062
 40
0.3777719198
 40
0.5029231268
 40
0.6276473764
 40
0.7519979442
 40
0.8760701782
 40
1.0
 40
1.0
 40
1.0
 40
1.0
 10
174.297468661
 20
111.3475768832
 30
0.0
 10
172.1140300508
 20
111.7022720501
 30
0.0
 10
167.8033399024
 20
112.7856680114
 30
0.0
 10
161.7246223469
 20
115.4849251445
 30
0.0
 10
156.2142986535
 20
119.179856968
 30
0.0
 10
151.4451722046
 20
123.7610608666
 30
0.0
 10
147.5664180932
 20
129.091219621
 30
0.0
 10
144.7019750553
 20
135.0085725571
 30
0.0
 10
142.9447796273
 20
141.3274036286
 30
0.0
 10
142.5498515449
 20
145.6834209949
 30
0.0
 10
142.5498515449
 20
147.8550826102
 30
0.0
  0
SPLINE
  5
84A
100
AcDbEntity
  8
0
100
AcDbSpline
 62
7
  6
CONTINUOUS
 70
0
 71
3
 72
15
 73
11
 74
0
 42
0.0000001
 43
0.0000001
 44
0.0000000001
 40
0.0
 40
0.0
 40
0.0
 40
0.0
 40
0.1213859819
 40
0.2432464506
 40
0.366017449
 40
0.4900169448
 40
0.615439209
 40
0.7423291563
 40
0.8705905235
 40
1.0
 40
1.0
 40
1.0
 40
1.0
 10
200.5498515449
 20
147.8550826102
 30
0.0
 10
200.5498515449
 20
146.8731882472
 30
0.0
 10
200.3885598872
 20
144.9018034856
 30
0.0
 10
199.6677940796
 20
142.0173092192
 30
0.0
 10
198.4825310779
 20
139.2668256188
 30
0.0
 10
196.857110998
 20
136.7174252832
 30
0.0
 10
194.8269574103
 20
134.4323627003
 30
0.0
 10
192.4380156004
 20
132.4707533165
 30
0.0
 10
189.7479945576
 20
130.8852748689
 30
0.0
 10
187.80283889
 20
130.1102188927
 30
0.0
 10
186.8038875398
 20
129.7973621167
 30
0.0
  0
SPLINE
  5
84B
100
AcDbEntity
  8
0
100
AcDbSpline
 62
7
  6
CONTINUOUS
 70
0
 71
3
 72
15
 73
11
 74
0
 42
0.0000001
 43
0.0000001
 44
0.0000000001
 40
0.0
 40
0.0
 40
0.0
 40
0.0
 40
0.1294094812
 40
0.2576709551
 40
0.3845610468
 40
0.5099834434
 40
0.6339830146
 40
0.7567539886
 40
0.8786143244
 40
1.0
 40
1.0
 40
1.0
 40
1.0
 10
174.2958023374
 20
129.7973674755
 30
0.0
 10
173.2968516496
 20
130.1102244173
 30
0.0
 10
171.3516968526
 20
130.8852817004
 30
0.0
 10
168.6616763073
 20
132.4707613835
 30
0.0
 10
166.2727346794
 20
134.4323730822
 30
0.0
 10
164.2425821674
 20
136.7174380575
 30
0.0
 10
162.6171645673
 20
139.2668396207
 30
0.0
 10
161.4319047836
 20
142.0173219345
 30
0.0
 10
160.7111423742
 20
144.9018113126
 30
0.0
 10
160.5498515449
 20
146.8731913072
 30
0.0
 10
160.5498515449
 20
147.8550826102
 30
0.0
  0
ELLIPSE
  5
84C
100
AcDbEntity
  8
0
100
AcDbEllipse
 62
7
  6
CONTINUOUS
 10
179.7498515449
 20
71.9617440657
 30
0.0
 11
11.2
 21
-0.0
 31
0.0
 40
0.8066525678
 41
-1.7336547185
 42
-1.5707963268
  0
ELLIPSE
  5
84D
100
AcDbEntity
  8
RUNDUNGEN
100
AcDbEllipse
 62
7
  6
CONTINUOUS
 10
181.3498515449
 20
71.9617440657
 30
0.0
 11
11.2
 21
0.0
 31
0.0
 40
0.8066525678
 41
-1.5707963268
 42
-1.4079379351
  0
ELLIPSE
  5
84E
100
AcDbEntity
  8
0
100
AcDbEllipse
 62
7
  6
CONTINUOUS
 10
179.7498515449
 20
85.5244354128
 30
0.0
 11
-0.0
 21
12.6022297499
 31
0.0
 40
0.8887316151
 41
-3.3044510509
 42
-3.1415926536
  0
ELLIPSE
  5
84F
100
AcDbEntity
  8
RUNDUNGEN
100
AcDbEllipse
 62
7
  6
CONTINUOUS
 10
181.3498515449
 20
85.5244354128
 30
0.0
 11
0.0
 21
12.6022297499
 31
0.0
 40
0.8887316151
 41
-3.1415926536
 42
-2.9787342562
  0
ELLIPSE
  5
850
100
AcDbEntity
  8
0
100
AcDbEllipse
 62
7
  6
CONTINUOUS
 10
174.4169840091
 20
102.5098263231
 30
0.0
 11
0.1559518697
 21
5.9994247339
 31
0.0
 40
0.5327506767
 41
-1.2951492524
 42
-0.182317669
  0
ELLIPSE
  5
851
100
AcDbEntity
  8
RUNDUNGEN
100
AcDbEllipse
 62
7
  6
CONTINUOUS
 10
186.6827190808
 20
102.5098263231
 30
0.0
 11
-0.1559518697
 21
5.9994247339
 31
0.0
 40
0.5327506767
 41
0.182317669
 42
1.2951492524
  0
ENDSEC
  0
SECTION
  2
OBJECTS
  0
DICTIONARY
  5
C
100
AcDbDictionary
280
0
281
1
  3
ACAD_GROUP
350
D
  3
ACAD_MLINESTYLE
350
17
  3
ACAD_LAYOUT
350
1A
  3
ACAD_PLOTSETTINGS
350
19
  3
ACAD_PLOTSTYLENAME
350
E
  0
DICTIONARY
  5
D
102
{ACAD_REACTORS
330
C
102
}
100
AcDbDictionary
280
0
281
1
  0
ACDBDICTIONARYWDFLT
  5
E
102
{ACAD_REACTORS
330
C
102
}
100
AcDbDictionary
281
1
  3
Normal
350
F
100
AcDbDictionaryWithDefault
340
F
  0
DICTIONARY
  5
17
102
{ACAD_REACTORS
330
C
102
}
100
AcDbDictionary
280
0
281
1
  3
Standard
350
18
  0
DICTIONARY
  5
19
102
{ACAD_REACTORS
330
C
102
}
100
AcDbDictionary
281
1
  0
DICTIONARY
  5
1A
102
{ACAD_REACTORS
330
C
102
}
100
AcDbDictionary
281
1
  3
Model
350
852
  3
Layout1
350
853
  0
ACDBPLACEHOLDER
  5
F
102
{ACAD_REACTORS
330
E
102
}
  0
MLINESTYLE
  5
18
102
{ACAD_REACTORS
330
17
102
}
100
AcDbMlineStyle
  2
STANDARD
 70
0
  3

 62
256
 51
90.0
 52
90.0
 71
2
 49
0.5
 62
256
  6
BYLAYER
 49
-0.5
 62
256
  6
BYLAYER
  0
LAYOUT
  5
852
102
{ACAD_REACTORS
330
1A
102
}
100
AcDbPlotSettings
  1

  2
none_device
  4
ISO_A1_(594.00_x_841.00_MM)
  6

 40
0.0
 41
0.0
 42
0.0
 43
0.0
 44
841.0
 45
594.0
 46
0.0
 47
0.0
 48
0.0
 49
0.0
140
0.0
141
0.0
142
1.0
143
1.0
 70
1024
 72
1
 73
0
 74
0
  7

 75
0
147
1.0
148
0.0
149
0.0
100
AcDbLayout
  1
Model
 70
0
 71
0
 10
0.0
 20
0.0
 11
841.0
 21
594.0
 12
0.0
 22
0.0
 32
0.0
 14
0.0
 24
0.0
 34
0.0
 15
0.0
 25
0.0
 35
0.0
146
0.0
 13
0.0
 23
0.0
 33
0.0
 16
1.0
 26
0.0
 36
0.0
 17
0.0
 27
1.0
 37
0.0
 76
0
330
20A
345
0
346
0
  0
LAYOUT
  5
853
102
{ACAD_REACTORS
330
1A
102
}
100
AcDbPlotSettings
  1

  2
none_device
  4
ISO_A1_(594.00_x_841.00_MM)
  6

 40
0.0
 41
0.0
 42
0.0
 43
0.0
 44
841.0
 45
594.0
 46
0.0
 47
0.0
 48
0.0
 49
0.0
140
0.0
141
0.0
142
1.0
143
1.0
 70
0
 72
1
 73
0
 74
0
  7

 75
0
147
1.0
148
0.0
149
0.0
100
AcDbLayout
  1
Layout1
 70
0
 71
1
 10
0.0
 20
0.0
 11
841.0
 21
594.0
 12
0.0
 22
0.0
 32
0.0
 14
0.0
 24
0.0
 34
0.0
 15
0.0
 25
0.0
 35
0.0
146
0.0
 13
0.0
 23
0.0
 33
0.0
 16
1.0
 26
0.0
 36
0.0
 17
0.0
 27
1.0
 37
0.0
 76
0
330
20B
345
0
346
0
  0
ENDSEC
  0
EOF
