999
DXF file: ISAK-RG-2-8_140_7903195_M34586-P-2.dxf
999
Pro/ENGINEER 2010140 by Parametric Technology Corporation
  0
SECTION
  2
HEADER
  9
$ACADVER
  1
AC1015
  9
$DWGCODEPAGE
  3
ANSI_1252
  9
$EXTMAX
 10
841.0
 20
594.0
 30
0.0
  9
$EXTMIN
 10
0.0
 20
0.0
 30
0.0
  9
$LIMMIN
 10
0.0
 20
0.0
  9
$LIMMAX
 10
841.0
 20
594.0
  9
$VIEWCTR
 10
420.5
 20
297.0
  9
$VIEWSIZE
 40
594.0
  9
$CLAYER
  8
0
  9
$LTSCALE
 40
46.255
  9
$CELTYPE
  6
BYLAYER
  9
$DIMSCALE
 40
1.0
  9
$DIMASZ
 40
3.5
  9
$DIMEXO
 40
5.25625
  9
$DIMDLI
 40
31.958
  9
$DIMEXE
 40
15.138
  9
$DIMCEN
 40
7.569
  9
$DIMLFAC
 40
1.0
  9
$DIMBLK
  1
_FILLED
  9
$DIMTXT
 40
3.5
  9
$DIMTOL
 70
1
  9
$DIMLIM
 70
0
  9
$DIMTFAC
 40
1.0
  9
$DIMTP
 40
0.005
  9
$DIMTM
 40
0.005
  9
$PDMODE
 70
3
  9
$PDSIZE
 40
0.3125
  9
$HANDSEED
  5
854
  9
$TILEMODE
 70
1
  9
$MEASUREMENT
 70
1
  9
$INSUNITS
 70
4
  0
ENDSEC
  0
SECTION
  2
CLASSES
  0
CLASS
  1
ACDBDICTIONARYWDFLT
  2
AcDbDictionaryWithDefault
  3
AutoCAD 2000
 90
0
280
0
281
0
  0
CLASS
  1
ACDBPLACEHOLDER
  2
AcDbPlaceHolder
  3
AutoCAD 2000
 90
0
280
0
281
0
  0
CLASS
  1
LAYOUT
  2
AcDbLayout
  3
AutoCAD 2000
 90
0
280
0
281
0
  0
ENDSEC
  0
SECTION
  2
TABLES
  0
TABLE
  2
VPORT
  5
8
100
AcDbSymbolTable
 70
2
  0
VPORT
  5
1F4
100
AcDbSymbolTableRecord
100
AcDbViewportTableRecord
  2
*ACTIVE
 70
0
 10
0.0
 20
0.0
 11
1.0
 21
1.0
 12
420.5
 22
297.0
 13
0.0
 23
0.0
 14
1.0
 24
1.0
 15
0.0
 25
0.0
 16
0.0
 26
0.0
 36
1.0
 17
0.0
 27
0.0
 37
0.0
 40
594.0
 41
1.4158249158
 42
50.0
 43
0.0
 44
0.0
 50
0.0
 51
0.0
 71
0
 72
100
 73
1
 74
1
 75
0
 76
0
 77
0
 78
0
  0
ENDTAB
  0
TABLE
  2
LTYPE
  5
5
100
AcDbSymbolTable
 70
6
  0
LTYPE
  5
14
100
AcDbSymbolTableRecord
100
AcDbLinetypeTableRecord
  2
BYBLOCK
 70
0
  3

 72
65
 73
0
 40
0.0
  0
LTYPE
  5
15
100
AcDbSymbolTableRecord
100
AcDbLinetypeTableRecord
  2
BYLAYER
 70
0
  3

 72
65
 73
0
 40
0.0
  0
LTYPE
  5
16
100
AcDbSymbolTableRecord
100
AcDbLinetypeTableRecord
  2
CONTINUOUS
 70
64
  3
Solid line
 72
65
 73
0
 40
0.0
  0
LTYPE
  5
1F5
100
AcDbSymbolTableRecord
100
AcDbLinetypeTableRecord
  2
CENTER
 70
64
  3
____ _ ____ _ ____ _ ____ _ ____ _ ____ _ ____
 72
65
 73
4
 40
0.6
 49
0.375
 74
0
 49
-0.075
 74
0
 49
0.075
 74
0
 49
-0.075
 74
0
  0
LTYPE
  5
1F6
100
AcDbSymbolTableRecord
100
AcDbLinetypeTableRecord
  2
HIDDEN
 70
64
  3
- - - - - - - - - - - - - - - - - - - -
 72
65
 73
2
 40
0.2
 49
0.1
 74
0
 49
-0.1
 74
0
  0
LTYPE
  5
1F7
100
AcDbSymbolTableRecord
100
AcDbLinetypeTableRecord
  2
PHANTOM
 70
64
  3
_____ _ _ _____ _ _ _____ _ _ _____
 72
65
 73
6
 40
0.8
 49
0.45
 74
0
 49
-0.05
 74
0
 49
0.1
 74
0
 49
-0.05
 74
0
 49
0.1
 74
0
 49
-0.05
 74
0
  0
LTYPE
  5
1F8
100
AcDbSymbolTableRecord
100
AcDbLinetypeTableRecord
  2
DOT
 70
64
  3
. . . . . . . . . . . . . . . . . . . .
 72
65
 73
2
 40
0.2
 49
0.1
 74
0
 49
-0.1
 74
0
  0
LTYPE
  5
1F9
100
AcDbSymbolTableRecord
100
AcDbLinetypeTableRecord
  2
DASHED
 70
64
  3
- - - - - - - - - - - - - - - - - - - -
 72
65
 73
2
 40
0.2
 49
0.1
 74
0
 49
-0.1
 74
0
  0
ENDTAB
  0
TABLE
  2
LAYER
  5
2
100
AcDbSymbolTable
 70
36
  0
LAYER
  5
10
100
AcDbSymbolTableRecord
100
AcDbLayerTableRecord
  2
0
 70
0
 62
7
  6
CONTINUOUS
370
-3
390
F
  0
LAYER
  5
1FA
100
AcDbSymbolTableRecord
100
AcDbLayerTableRecord
  2
DEFAULT_1
 70
0
 62
7
  6
CENTER
370
-3
390
F
  0
LAYER
  5
1FB
100
AcDbSymbolTableRecord
100
AcDbLayerTableRecord
  2
DEFAULT_2
 70
0
 62
8
  6
HIDDEN
370
-3
390
F
  0
LAYER
  5
1FC
100
AcDbSymbolTableRecord
100
AcDbLayerTableRecord
  2
DEFAULT_3
 70
0
 62
7
  6
PHANTOM
370
-3
390
F
  0
LAYER
  5
1FD
100
AcDbSymbolTableRecord
100
AcDbLayerTableRecord
  2
BEZUGSACHSEN
 70
0
 62
7
  6
CONTINUOUS
370
-3
390
F
  0
LAYER
  5
1FE
100
AcDbSymbolTableRecord
100
AcDbLayerTableRecord
  2
BEZUGSEBENEN
 70
0
 62
7
  6
CONTINUOUS
370
-3
390
F
  0
LAYER
  5
1FF
100
AcDbSymbolTableRecord
100
AcDbLayerTableRecord
  2
BG_STARTBEZUEGE
 70
0
 62
7
  6
CONTINUOUS
370
-3
390
F
  0
LAYER
  5
200
100
AcDbSymbolTableRecord
100
AcDbLayerTableRecord
  2
FASEN
 70
0
 62
7
  6
CONTINUOUS
370
-3
390
F
  0
LAYER
  5
201
100
AcDbSymbolTableRecord
100
AcDbLayerTableRecord
  2
HILFEN
 70
0
 62
7
  6
CONTINUOUS
370
-3
390
F
  0
LAYER
  5
202
100
AcDbSymbolTableRecord
100
AcDbLayerTableRecord
  2
KONSTRUKTIONSELEMENTE
 70
0
 62
7
  6
CONTINUOUS
370
-3
390
F
  0
LAYER
  5
203
100
AcDbSymbolTableRecord
100
AcDbLayerTableRecord
  2
NORM
 70
0
 62
7
  6
CONTINUOUS
370
-3
390
F
  0
LAYER
  5
204
100
AcDbSymbolTableRecord
100
AcDbLayerTableRecord
  2
PLATZIERUNG
 70
0
 62
7
  6
CONTINUOUS
370
-3
390
F
  0
LAYER
  5
205
100
AcDbSymbolTableRecord
100
AcDbLayerTableRecord
  2
RUNDUNGEN
 70
0
 62
7
  6
CONTINUOUS
370
-3
390
F
  0
LAYER
  5
206
100
AcDbSymbolTableRecord
100
AcDbLayerTableRecord
  2
TEIL_STARTBEZUEGE
 70
0
 62
7
  6
CONTINUOUS
370
-3
390
F
  0
LAYER
  5
207
100
AcDbSymbolTableRecord
100
AcDbLayerTableRecord
  2
T_STARTBEZUEGE
 70
0
 62
7
  6
CONTINUOUS
370
-3
390
F
  0
ENDTAB
  0
TABLE
  2
STYLE
  5
3
100
AcDbSymbolTable
 70
1
  0
STYLE
  5
11
100
AcDbSymbolTableRecord
100
AcDbTextStyleTableRecord
  2
STANDARD
 70
0
 40
0.0
 41
0.7
 50
0.0
 71
0
 42
0.2
  3
txt
  4

  0
STYLE
  5
208
100
AcDbSymbolTableRecord
100
AcDbTextStyleTableRecord
  2
TEXTSTYLE_1
 70
0
 40
0.0
 41
0.8
 50
0.0
 71
0
 42
0.2
  3
gdt
  4

  0
ENDTAB
  0
TABLE
  2
VIEW
  5
6
100
AcDbSymbolTable
 70
0
  0
ENDTAB
  0
TABLE
  2
UCS
  5
7
100
AcDbSymbolTable
 70
0
  0
ENDTAB
  0
TABLE
  2
APPID
  5
9
100
AcDbSymbolTable
 70
1
  0
APPID
  5
209
100
AcDbSymbolTableRecord
100
AcDbRegAppTableRecord
  2
ACAD
 70
0
  0
ENDTAB
  0
TABLE
  2
BLOCK_RECORD
  5
1
100
AcDbSymbolTable
 70
0
  0
BLOCK_RECORD
  5
20A
100
AcDbSymbolTableRecord
100
AcDbBlockTableRecord
  2
*Model_Space
  0
BLOCK_RECORD
  5
20B
100
AcDbSymbolTableRecord
100
AcDbBlockTableRecord
  2
*Paper_Space
  0
ENDTAB
  0
TABLE
  2
DIMSTYLE
  5
A
100
AcDbSymbolTable
 70
1
100
AcDbDimStyleTable
 71
0
  0
DIMSTYLE
105
20C
100
AcDbSymbolTableRecord
100
AcDbDimStyleTableRecord
  2
STANDARD
 70
0
  3

  4

 40
1.0
 41
3.5
 42
0.0625
 43
0.38
 44
0.18
 45
0.0
 46
0.0
 47
0.005
 48
0.005
140
3.5
141
0.09
142
0.0
143
25.4
144
1.0
145
0.0
146
1.0
147
0.09
 71
1.0
 72
0.0
 73
0
 74
0
 75
0
 76
0
 77
1
 78
8
170
0
171
2
172
0
173
0
174
0
175
0
176
0
177
0
178
5
270
2
271
3
272
3
273
2
274
2
275
0
280
0
281
0
282
0
283
1
284
8
285
0
286
0
287
3
288
0
340
11
  0
ENDTAB
  0
ENDSEC
  0
SECTION
  2
BLOCKS
  0
BLOCK
  5
20
100
AcDbEntity
  8
0
100
AcDbBlockBegin
  2
*Model_Space
 70
0
 10
0.0
 20
0.0
 30
0.0
  3
*Model_Space
  1

  0
ENDBLK
  5
21
100
AcDbEntity
  8
0
100
AcDbBlockEnd
  0
BLOCK
  5
1C
100
AcDbEntity
  8
0
100
AcDbBlockBegin
  2
*Paper_Space
 70
0
 10
0.0
 20
0.0
 30
0.0
  3
*Paper_Space
  1

  0
ENDBLK
  5
1D
100
AcDbEntity
  8
0
100
AcDbBlockEnd
  0
ENDSEC
  0
SECTION
  2
ENTITIES
  0
MTEXT
  5
20D
100
AcDbEntity
  8
0
100
AcDbMText
 62
5
  6
CONTINUOUS
  7
STANDARD
 71
1
 72
1
 10
485.9626335195
 20
363.8491747769
 30
0.0
 11
0.0
 21
1.0
 31
0.0
 44
0.9
  1
RUD
 40
10.0
 41
26.6666666667
  0
MTEXT
  5
20E
100
AcDbEntity
  8
0
100
AcDbMText
 62
5
  6
CONTINUOUS
  7
STANDARD
 71
1
 72
1
 10
648.592703786
 20
326.1237795594
 30
0.0
 11
0.0
 21
1.0
 31
0.0
 44
0.9
  1
ISAK-RG 2-8/140
 40
10.0
 41
115.2380952381
  0
MTEXT
  5
20F
100
AcDbEntity
  8
0
100
AcDbMText
 62
5
  6
CONTINUOUS
  7
STANDARD
 71
1
 72
1
 10
203.2766661776
 20
309.317560985
 30
0.0
 11
0.0
 21
1.0
 31
0.0
 44
0.9
  1
RUD ISAK-RG 2-8/140
 40
10.0
 41
147.8571428571
  0
LINE
  5
210
100
AcDbEntity
  8
0
100
AcDbLine
 62
7
  6
CONTINUOUS
 10
0.0
 20
0.0
 11
0.0
 21
594.0
  0
LINE
  5
211
100
AcDbEntity
  8
0
100
AcDbLine
 62
7
  6
CONTINUOUS
 10
0.0
 20
0.0
 11
841.0
 21
0.0
  0
LINE
  5
212
100
AcDbEntity
  8
0
100
AcDbLine
 62
7
  6
CONTINUOUS
 10
0.0
 20
594.0
 11
841.0
 21
594.0
  0
LINE
  5
213
100
AcDbEntity
  8
0
100
AcDbLine
 62
7
  6
CONTINUOUS
 10
841.0
 20
0.0
 11
841.0
 21
594.0
  0
LINE
  5
214
100
AcDbEntity
  8
RUNDUNGEN
100
AcDbLine
 62
7
  6
CONTINUOUS
 10
471.8122491781
 20
40.004502935
 11
474.3236563265
 21
39.3315734178
  0
LINE
  5
215
100
AcDbEntity
  8
RUNDUNGEN
100
AcDbLine
 62
7
  6
CONTINUOUS
 10
514.6993558654
 20
28.5129373325
 11
517.2107630137
 21
27.8400078152
  0
LINE
  5
216
100
AcDbEntity
  8
RUNDUNGEN
100
AcDbLine
 62
7
  6
CONTINUOUS
 10
480.0174866506
 20
45.1264242563
 11
485.2815024221
 21
43.7159354814
  0
LINE
  5
217
100
AcDbEntity
  8
RUNDUNGEN
100
AcDbLine
 62
7
  6
CONTINUOUS
 10
507.4017638076
 20
37.7888293068
 11
512.6657795791
 21
36.3783405318
  0
LINE
  5
218
100
AcDbEntity
  8
0
100
AcDbLine
 62
7
  6
CONTINUOUS
 10
494.0248919669
 20
75.3403087849
 11
497.7340471398
 21
74.3464436517
  0
LINE
  5
219
100
AcDbEntity
  8
0
100
AcDbLine
 62
7
  6
CONTINUOUS
 10
499.7012913204
 20
73.8193221622
 11
500.443122355
 21
73.6205491356
  0
LINE
  5
21A
100
AcDbEntity
  8
0
100
AcDbLine
 62
7
  6
CONTINUOUS
 10
503.9768297876
 20
72.6736950827
 11
504.8334224826
 21
72.4441717619
  0
LINE
  5
21B
100
AcDbEntity
  8
0
100
AcDbLine
 62
7
  6
CONTINUOUS
 10
511.2878693905
 20
70.7147079253
 11
513.9754359614
 21
69.994576633
  0
LINE
  5
21C
100
AcDbEntity
  8
0
100
AcDbLine
 62
7
  6
CONTINUOUS
 10
494.0980970476
 20
75.6135138657
 11
497.8072522206
 21
74.6196487325
  0
LINE
  5
21D
100
AcDbEntity
  8
0
100
AcDbLine
 62
7
  6
CONTINUOUS
 10
499.7744964012
 20
74.092527243
 11
500.5163274357
 21
73.8937542164
  0
LINE
  5
21E
100
AcDbEntity
  8
0
100
AcDbLine
 62
7
  6
CONTINUOUS
 10
504.0500348684
 20
72.9469001635
 11
504.6835565491
 21
72.7771485408
  0
LINE
  5
21F
100
AcDbEntity
  8
0
100
AcDbLine
 62
7
  6
CONTINUOUS
 10
511.3610744713
 20
70.9879130061
 11
514.0486410421
 21
70.2677817138
  0
LINE
  5
220
100
AcDbEntity
  8
0
100
AcDbLine
 62
7
  6
CONTINUOUS
 10
514.1381018648
 20
70.5366310816
 11
512.1761105866
 21
71.0623450602
  0
LINE
  5
221
100
AcDbEntity
  8
0
100
AcDbLine
 62
7
  6
CONTINUOUS
 10
496.6347172429
 20
75.3437769851
 11
495.4756062514
 21
75.6543598392
  0
LINE
  5
222
100
AcDbEntity
  8
0
100
AcDbLine
 62
7
  6
CONTINUOUS
 10
495.7501308026
 20
75.8443394981
 11
496.4919618371
 21
75.6455664715
  0
LINE
  5
223
100
AcDbEntity
  8
0
100
AcDbLine
 62
7
  6
CONTINUOUS
 10
495.8233358833
 20
76.1175445789
 11
496.5651669179
 21
75.9187715523
  0
LINE
  5
224
100
AcDbEntity
  8
0
100
AcDbLine
 62
7
  6
CONTINUOUS
 10
496.3778762831
 20
76.3789043789
 11
496.2156007443
 21
76.4223859784
  0
LINE
  5
225
100
AcDbEntity
  8
0
100
AcDbLine
 62
7
  6
CONTINUOUS
 10
496.7115770794
 20
76.4651817138
 11
496.5145282109
 21
76.517980799
  0
LINE
  5
226
100
AcDbEntity
  8
0
100
AcDbLine
 62
7
  6
CONTINUOUS
 10
496.1667949134
 20
76.6111556552
 11
495.9697460448
 21
76.6639547404
  0
LINE
  5
227
100
AcDbEntity
  8
0
100
AcDbLine
 62
7
  6
CONTINUOUS
 10
496.5804127835
 20
76.7638653717
 11
496.9861016306
 21
76.6551613727
  0
LINE
  5
228
100
AcDbEntity
  8
0
100
AcDbLine
 62
7
  6
CONTINUOUS
 10
495.826990639
 20
76.9657442268
 11
496.2326794861
 21
76.8570402279
  0
LINE
  5
229
100
AcDbEntity
  8
0
100
AcDbLine
 62
7
  6
CONTINUOUS
 10
500.9941613878
 20
75.6770548031
 11
502.8487389743
 21
75.1801222365
  0
LINE
  5
22A
100
AcDbEntity
  8
0
100
AcDbLine
 62
7
  6
CONTINUOUS
 10
496.6536178643
 20
77.0370704524
 11
497.0593067113
 21
76.9283664535
  0
LINE
  5
22B
100
AcDbEntity
  8
0
100
AcDbLine
 62
7
  6
CONTINUOUS
 10
495.9001957198
 20
77.2389493076
 11
496.3058845668
 21
77.1302453087
  0
LINE
  5
22C
100
AcDbEntity
  8
0
100
AcDbLine
 62
7
  6
CONTINUOUS
 10
497.0739477275
 20
76.9830074696
 11
496.6682588804
 21
77.0917114686
  0
LINE
  5
22D
100
AcDbEntity
  8
0
100
AcDbLine
 62
7
  6
CONTINUOUS
 10
496.320525583
 20
77.1848863248
 11
495.9148367359
 21
77.2935903238
  0
LINE
  5
22E
100
AcDbEntity
  8
0
100
AcDbLine
 62
7
  6
CONTINUOUS
 10
501.0673664686
 20
75.9502598838
 11
502.9219440551
 21
75.4533273172
  0
LINE
  5
22F
100
AcDbEntity
  8
0
100
AcDbLine
 62
7
  6
CONTINUOUS
 10
496.1893612871
 20
77.4835699827
 11
496.3864101557
 21
77.4307708975
  0
LINE
  5
230
100
AcDbEntity
  8
0
100
AcDbLine
 62
7
  6
CONTINUOUS
 10
496.7341434531
 20
77.3375960413
 11
496.9311923217
 21
77.2847969561
  0
LINE
  5
231
100
AcDbEntity
  8
0
100
AcDbLine
 62
7
  6
CONTINUOUS
 10
503.2983889938
 20
75.6218538971
 11
501.1347151429
 21
76.2016085581
  0
LINE
  5
232
100
AcDbEntity
  8
0
100
AcDbLine
 62
7
  6
CONTINUOUS
 10
496.5230620834
 20
77.5698473176
 11
496.6853376223
 21
77.526365718
  0
LINE
  5
233
100
AcDbEntity
  8
0
100
AcDbLine
 62
7
  6
CONTINUOUS
 10
496.2625663679
 20
77.7567750634
 11
496.4596152364
 21
77.7039759782
  0
LINE
  5
234
100
AcDbEntity
  8
0
100
AcDbLine
 62
7
  6
CONTINUOUS
 10
496.8073485339
 20
77.610801122
 11
497.0043974024
 21
77.5580020368
  0
LINE
  5
235
100
AcDbEntity
  8
0
100
AcDbLine
 62
7
  6
CONTINUOUS
 10
496.5962671642
 20
77.8430523984
 11
496.758542703
 21
77.7995707988
  0
LINE
  5
236
100
AcDbEntity
  8
0
100
AcDbLine
 62
7
  6
CONTINUOUS
 10
512.9081613942
 20
73.7943958678
 11
512.1663303596
 21
73.9931688944
  0
LINE
  5
237
100
AcDbEntity
  8
0
100
AcDbLine
 62
7
  6
CONTINUOUS
 10
501.3289038321
 20
76.9263306128
 11
500.5870727976
 21
77.1251036394
  0
LINE
  5
238
100
AcDbEntity
  8
0
100
AcDbLine
 62
7
  6
CONTINUOUS
 10
497.150807564
 20
78.1044121983
 11
496.4089765294
 21
78.303185225
  0
LINE
  5
239
100
AcDbEntity
  8
0
100
AcDbLine
 62
7
  6
CONTINUOUS
 10
496.2662211236
 20
78.6049747114
 11
497.4253321151
 21
78.2943918573
  0
LINE
  5
23A
100
AcDbEntity
  8
0
100
AcDbLine
 62
7
  6
CONTINUOUS
 10
512.2893148953
 20
74.4521534301
 11
514.993137208
 21
73.7276664249
  0
LINE
  5
23B
100
AcDbEntity
  8
0
100
AcDbLine
 62
7
  6
CONTINUOUS
 10
500.7100573332
 20
77.5840881751
 11
503.6155622187
 21
76.8055604874
  0
LINE
  5
23C
100
AcDbEntity
  8
0
100
AcDbLine
 62
7
  6
CONTINUOUS
 10
496.3394262043
 20
78.8781797921
 11
497.4985371959
 21
78.567596938
  0
LINE
  5
23D
100
AcDbEntity
  8
0
100
AcDbLine
 62
7
  6
CONTINUOUS
 10
512.362519976
 20
74.7253585108
 11
515.0663422888
 21
74.0008715056
  0
LINE
  5
23E
100
AcDbEntity
  8
0
100
AcDbLine
 62
7
  6
CONTINUOUS
 10
500.783262414
 20
77.8572932558
 11
503.6887672995
 21
77.0787655682
  0
LINE
  5
23F
100
AcDbEntity
  8
0
100
AcDbLine
 62
7
  6
CONTINUOUS
 10
515.1174352212
 20
74.2565758928
 11
512.4298686503
 21
74.9767071851
  0
LINE
  5
240
100
AcDbEntity
  8
0
100
AcDbLine
 62
7
  6
CONTINUOUS
 10
510.8071132622
 20
75.4115231809
 11
510.0652822276
 21
75.6102962075
  0
LINE
  5
241
100
AcDbEntity
  8
0
100
AcDbLine
 62
7
  6
CONTINUOUS
 10
507.1488543742
 20
76.3917506956
 11
506.4070233396
 21
76.5905237223
  0
LINE
  5
242
100
AcDbEntity
  8
0
100
AcDbLine
 62
7
  6
CONTINUOUS
 10
503.7487954657
 20
77.3027937344
 11
500.8432905802
 21
78.081321422
  0
LINE
  5
243
100
AcDbEntity
  8
0
100
AcDbLine
 62
7
  6
CONTINUOUS
 10
498.8760463996
 20
78.6084429115
 11
495.1668912267
 21
79.6023080447
  0
LINE
  5
244
100
AcDbEntity
  8
RUNDUNGEN
100
AcDbLine
 62
7
  6
CONTINUOUS
 10
522.0324565078
 20
77.1227017162
 11
514.8952657522
 21
83.4019319871
  0
LINE
  5
245
100
AcDbEntity
  8
RUNDUNGEN
100
AcDbLine
 62
7
  6
CONTINUOUS
 10
515.8103292617
 20
86.8169954966
 11
522.9475200172
 21
80.5377652257
  0
LINE
  5
246
100
AcDbEntity
  8
0
100
AcDbLine
 62
7
  6
CONTINUOUS
 10
647.4687777952
 20
119.4973633725
 11
643.9720729915
 21
118.5604241441
  0
LINE
  5
247
100
AcDbEntity
  8
0
100
AcDbLine
 62
7
  6
CONTINUOUS
 10
613.6637454095
 20
110.4393322446
 11
610.1670406059
 21
109.5023930163
  0
LINE
  5
248
100
AcDbEntity
  8
BEZUGSACHSEN
100
AcDbLine
 62
7
  6
CONTINUOUS
 10
631.4863993053
 20
123.8594540694
 11
621.8271410425
 21
121.2712636184
  0
LINE
  5
249
100
AcDbEntity
  8
BEZUGSACHSEN
100
AcDbLine
 62
7
  6
CONTINUOUS
 10
630.7050412822
 20
126.7755219108
 11
621.0457830193
 21
124.1873314597
  0
LINE
  5
24A
100
AcDbEntity
  8
BEZUGSACHSEN
100
AcDbLine
 62
7
  6
CONTINUOUS
 10
629.3431021189
 20
131.8583480651
 11
619.683843856
 21
129.2701576141
  0
LINE
  5
24B
100
AcDbEntity
  8
RUNDUNGEN
100
AcDbLine
 62
7
  6
CONTINUOUS
 10
501.5984907149
 20
86.9647921203
 11
498.0136431605
 21
86.2458007538
  0
LINE
  5
24C
100
AcDbEntity
  8
RUNDUNGEN
100
AcDbLine
 62
7
  6
CONTINUOUS
 10
480.6209925881
 20
83.8193031131
 11
483.5784918205
 21
84.4124709905
  0
LINE
  5
24D
100
AcDbEntity
  8
RUNDUNGEN
100
AcDbLine
 62
7
  6
CONTINUOUS
 10
502.5135542244
 20
90.3798556298
 11
498.92870667
 21
89.6608642632
  0
LINE
  5
24E
100
AcDbEntity
  8
RUNDUNGEN
100
AcDbLine
 62
7
  6
CONTINUOUS
 10
481.5360560976
 20
87.2343666225
 11
483.7157490007
 21
87.671534551
  0
LINE
  5
24F
100
AcDbEntity
  8
RUNDUNGEN
100
AcDbLine
 62
7
  6
CONTINUOUS
 10
480.4667904251
 20
89.8636379161
 11
477.5092911927
 21
89.2704700387
  0
LINE
  5
250
100
AcDbEntity
  8
RUNDUNGEN
100
AcDbLine
 62
7
  6
CONTINUOUS
 10
478.3761132111
 20
96.1507816095
 11
476.5836894339
 21
95.7912859262
  0
LINE
  5
251
100
AcDbEntity
  8
RUNDUNGEN
100
AcDbLine
 62
7
  6
CONTINUOUS
 10
479.2911767206
 20
99.565845119
 11
477.4987529434
 21
99.2063494357
  0
LINE
  5
252
100
AcDbEntity
  8
KONSTRUKTIONSELEMENTE
100
AcDbLine
 62
7
  6
CONTINUOUS
 10
534.753083653
 20
109.5023930163
 11
531.2901637414
 21
110.4302796101
  0
LINE
  5
253
100
AcDbEntity
  8
0
100
AcDbLine
 62
7
  6
CONTINUOUS
 10
531.2901637414
 20
110.4302796101
 11
531.2563788493
 21
110.4393322446
  0
LINE
  5
254
100
AcDbEntity
  8
0
100
AcDbLine
 62
7
  6
CONTINUOUS
 10
500.9480512674
 20
118.5604241441
 11
500.9142663754
 21
118.5694767787
  0
LINE
  5
255
100
AcDbEntity
  8
KONSTRUKTIONSELEMENTE
100
AcDbLine
 62
7
  6
CONTINUOUS
 10
500.9142663754
 20
118.5694767787
 11
497.4513464637
 21
119.4973633725
  0
LINE
  5
256
100
AcDbEntity
  8
BEZUGSACHSEN
100
AcDbLine
 62
7
  6
CONTINUOUS
 10
513.4337249535
 20
123.8594540694
 11
523.0929832164
 21
121.2712636184
  0
LINE
  5
257
100
AcDbEntity
  8
BEZUGSACHSEN
100
AcDbLine
 62
7
  6
CONTINUOUS
 10
514.2150829767
 20
126.7755219108
 11
523.8743412396
 21
124.1873314597
  0
LINE
  5
258
100
AcDbEntity
  8
RUNDUNGEN
100
AcDbLine
 62
7
  6
CONTINUOUS
 10
542.8935173924
 20
76.8479372129
 11
537.9523853309
 21
81.1950966312
  0
LINE
  5
259
100
AcDbEntity
  8
RUNDUNGEN
100
AcDbLine
 62
7
  6
CONTINUOUS
 10
543.8085809019
 20
80.2630007224
 11
538.8674488404
 21
84.6101601407
  0
LINE
  5
25A
100
AcDbEntity
  8
RUNDUNGEN
100
AcDbLine
 62
7
  6
CONTINUOUS
 10
474.6153101369
 20
92.2405195334
 11
475.9488964492
 21
89.9043051367
  0
LINE
  5
25B
100
AcDbEntity
  8
RUNDUNGEN
100
AcDbLine
 62
7
  6
CONTINUOUS
 10
480.030478799
 20
82.7540731952
 11
488.5137175441
 21
67.8928945042
  0
LINE
  5
25C
100
AcDbEntity
  8
RUNDUNGEN
100
AcDbLine
 62
7
  6
CONTINUOUS
 10
501.6758405784
 20
44.8351133615
 11
504.5489670608
 21
39.8018887478
  0
LINE
  5
25D
100
AcDbEntity
  8
RUNDUNGEN
100
AcDbLine
 62
7
  6
CONTINUOUS
 10
484.562681469
 20
86.1878541869
 11
483.0674483309
 21
88.8072460862
  0
LINE
  5
25E
100
AcDbEntity
  8
BEZUGSACHSEN
100
AcDbLine
 62
7
  6
CONTINUOUS
 10
628.5617440957
 20
134.7744159065
 11
618.9024858328
 21
132.1862254555
  0
LINE
  5
25F
100
AcDbEntity
  8
0
100
AcDbLine
 62
7
  6
CONTINUOUS
 10
641.8628512383
 20
140.7713358477
 11
631.8273548667
 21
138.0823326993
  0
LINE
  5
260
100
AcDbEntity
  8
0
100
AcDbLine
 62
7
  6
CONTINUOUS
 10
614.4204255498
 20
133.4181600462
 11
604.3849291782
 21
130.7291568978
  0
LINE
  5
261
100
AcDbEntity
  8
0
100
AcDbLine
 62
7
  6
CONTINUOUS
 10
603.04006597
 20
135.7482547202
 11
617.749411375
 21
139.6896119426
  0
LINE
  5
262
100
AcDbEntity
  8
0
100
AcDbLine
 62
7
  6
CONTINUOUS
 10
625.8086426251
 20
141.8490764477
 11
640.51798803
 21
145.7904336702
  0
LINE
  5
263
100
AcDbEntity
  8
0
100
AcDbLine
 62
7
  6
CONTINUOUS
 10
540.1752856508
 20
138.0310576499
 11
539.8868753005
 21
138.0243201331
  0
LINE
  5
264
100
AcDbEntity
  8
0
100
AcDbLine
 62
7
  6
CONTINUOUS
 10
539.8487061571
 20
137.6144632795
 11
540.2039668969
 21
137.6032882957
  0
LINE
  5
265
100
AcDbEntity
  8
0
100
AcDbLine
 62
7
  6
CONTINUOUS
 10
533.7652279244
 20
139.2445263592
 11
534.1204890467
 21
139.2333512728
  0
LINE
  5
266
100
AcDbEntity
  8
BEZUGSACHSEN
100
AcDbLine
 62
7
  6
CONTINUOUS
 10
515.57702214
 20
131.8583480651
 11
525.2362804029
 21
129.2701576141
  0
LINE
  5
267
100
AcDbEntity
  8
BEZUGSACHSEN
100
AcDbLine
 62
7
  6
CONTINUOUS
 10
516.3583801632
 20
134.7744159065
 11
526.0176384261
 21
132.1862254555
  0
LINE
  5
268
100
AcDbEntity
  8
RUNDUNGEN
100
AcDbLine
 62
7
  6
CONTINUOUS
 10
503.0572730206
 20
140.7713358477
 11
513.0927693922
 21
138.0823326993
  0
LINE
  5
269
100
AcDbEntity
  8
RUNDUNGEN
100
AcDbLine
 62
7
  6
CONTINUOUS
 10
530.4996987091
 20
133.4181600462
 11
540.5351950806
 21
130.7291568978
  0
LINE
  5
26A
100
AcDbEntity
  8
RUNDUNGEN
100
AcDbLine
 62
7
  6
CONTINUOUS
 10
541.8800582889
 20
135.7482547202
 11
527.1707128839
 21
139.6896119426
  0
LINE
  5
26B
100
AcDbEntity
  8
RUNDUNGEN
100
AcDbLine
 62
7
  6
CONTINUOUS
 10
519.1114816338
 20
141.8490764477
 11
504.4021362289
 21
145.7904336702
  0
LINE
  5
26C
100
AcDbEntity
  8
0
100
AcDbLine
 62
7
  6
CONTINUOUS
 10
507.0846041312
 20
146.3935779581
 11
507.5451382467
 21
146.2701782138
  0
LINE
  5
26D
100
AcDbEntity
  8
0
100
AcDbLine
 62
7
  6
CONTINUOUS
 10
509.4640303212
 20
145.756012632
 11
510.001320269
 21
145.6120462244
  0
LINE
  5
26E
100
AcDbEntity
  8
0
100
AcDbLine
 62
7
  6
CONTINUOUS
 10
511.8434565112
 20
145.118447306
 11
512.1504794013
 21
145.0361807705
  0
LINE
  5
26F
100
AcDbEntity
  8
0
100
AcDbLine
 62
7
  6
CONTINUOUS
 10
513.9926158631
 20
144.5425817932
 11
515.8347523249
 21
144.0489828159
  0
LINE
  5
270
100
AcDbEntity
  8
0
100
AcDbLine
 62
7
  6
CONTINUOUS
 10
528.0828581382
 20
140.7671127545
 11
528.4839665846
 21
140.6596360701
  0
LINE
  5
271
100
AcDbEntity
  8
0
100
AcDbLine
 62
7
  6
CONTINUOUS
 10
529.0187778148
 20
140.5163338329
 11
529.4198862613
 21
140.4088571486
  0
LINE
  5
272
100
AcDbEntity
  8
0
100
AcDbLine
 62
7
  6
CONTINUOUS
 10
531.0911714869
 20
139.9610376221
 11
531.5591314686
 21
139.8356481229
  0
LINE
  5
273
100
AcDbEntity
  8
0
100
AcDbLine
 62
7
  6
CONTINUOUS
 10
533.1635652546
 20
139.4057413856
 11
533.7652279244
 21
139.2445263592
  0
LINE
  5
274
100
AcDbEntity
  8
0
100
AcDbLine
 62
7
  6
CONTINUOUS
 10
539.4475977106
 20
137.7219399638
 11
539.8487061571
 21
137.6144632795
  0
LINE
  5
275
100
AcDbEntity
  8
0
100
AcDbLine
 62
7
  6
CONTINUOUS
 10
539.8868753005
 20
138.0243201331
 11
539.6194699245
 21
138.0959711877
  0
LINE
  5
276
100
AcDbEntity
  8
0
100
AcDbLine
 62
7
  6
CONTINUOUS
 10
533.8912531949
 20
139.7148590716
 11
533.2895905251
 21
139.8760740981
  0
LINE
  5
277
100
AcDbEntity
  8
0
100
AcDbLine
 62
7
  6
CONTINUOUS
 10
515.9607775954
 20
144.5193155284
 11
514.579175249
 21
144.8895147614
  0
LINE
  5
278
100
AcDbEntity
  8
0
100
AcDbLine
 62
7
  6
CONTINUOUS
 10
512.2765046718
 20
145.506513483
 11
511.9694817817
 21
145.5887800185
  0
LINE
  5
279
100
AcDbEntity
  8
0
100
AcDbLine
 62
7
  6
CONTINUOUS
 10
534.1184606339
 20
140.8302149189
 11
534.7201233036
 21
140.6689998925
  0
LINE
  5
27A
100
AcDbEntity
  8
0
100
AcDbLine
 62
7
  6
CONTINUOUS
 10
507.9862267007
 20
147.9163427349
 11
509.2910733246
 21
147.5667101358
  0
LINE
  5
27B
100
AcDbEntity
  8
0
100
AcDbLine
 62
7
  6
CONTINUOUS
 10
529.8609747153
 20
142.0550216698
 11
530.9974486152
 21
141.7505044061
  0
LINE
  5
27C
100
AcDbEntity
  8
0
100
AcDbLine
 62
7
  6
CONTINUOUS
 10
539.9765415267
 20
139.4285805489
 11
540.2439469026
 21
139.3569294943
  0
LINE
  5
27D
100
AcDbEntity
  8
0
100
AcDbLine
 62
7
  6
CONTINUOUS
 10
540.3279637398
 20
139.6704845994
 11
540.0605583638
 21
139.7421356539
  0
LINE
  5
27E
100
AcDbEntity
  8
0
100
AcDbLine
 62
7
  6
CONTINUOUS
 10
535.2472570059
 20
141.0318558657
 11
534.2444858896
 21
141.3005475765
  0
LINE
  5
27F
100
AcDbEntity
  8
0
100
AcDbLine
 62
7
  6
CONTINUOUS
 10
531.2571767502
 20
142.1850114852
 11
529.9869999711
 21
142.5253543274
  0
LINE
  5
280
100
AcDbEntity
  8
0
100
AcDbLine
 62
7
  6
CONTINUOUS
 10
509.5706099156
 20
147.9959095551
 11
508.1122519565
 21
148.3866753925
  0
LINE
  5
281
100
AcDbEntity
  8
0
100
AcDbLine
 62
7
  6
CONTINUOUS
 10
535.035186443
 20
141.8448315364
 11
535.4362948895
 21
141.7373548521
  0
LINE
  5
282
100
AcDbEntity
  8
0
100
AcDbLine
 62
7
  6
CONTINUOUS
 10
515.3143226774
 20
147.633122315
 11
516.6959250238
 21
147.262923082
  0
LINE
  5
283
100
AcDbEntity
  8
0
100
AcDbLine
 62
7
  6
CONTINUOUS
 10
534.0247379534
 20
142.6196816517
 11
534.6264006232
 21
142.4584666252
  0
LINE
  5
284
100
AcDbEntity
  8
0
100
AcDbLine
 62
7
  6
CONTINUOUS
 10
508.4273151548
 20
149.5625072561
 11
509.8856731139
 21
149.1717414187
  0
LINE
  5
285
100
AcDbEntity
  8
0
100
AcDbLine
 62
7
  6
CONTINUOUS
 10
530.3020631694
 20
143.701186191
 11
531.5722399485
 21
143.3608433487
  0
LINE
  5
286
100
AcDbEntity
  8
0
100
AcDbLine
 62
7
  6
CONTINUOUS
 10
540.3966257714
 20
140.9963562938
 11
540.6640311474
 21
140.9247052392
  0
LINE
  5
287
100
AcDbEntity
  8
0
100
AcDbLine
 62
7
  6
CONTINUOUS
 10
511.4806824392
 20
145.2996691701
 11
511.8434565112
 21
145.118447306
  0
LINE
  5
288
100
AcDbEntity
  8
0
100
AcDbLine
 62
7
  6
CONTINUOUS
 10
510.2767128411
 20
149.4030299883
 11
509.9139385477
 21
149.5842519044
  0
LINE
  5
289
100
AcDbEntity
  8
0
100
AcDbLine
 62
7
  6
CONTINUOUS
 10
511.9694817817
 20
145.5887800185
 11
511.6834635402
 21
145.7494352125
  0
LINE
  5
28A
100
AcDbEntity
  8
RUNDUNGEN
100
AcDbLine
 62
7
  6
CONTINUOUS
 10
522.7609482578
 20
35.8937392937
 11
514.1717403523
 21
50.940557771
  0
LINE
  5
28B
100
AcDbEntity
  8
RUNDUNGEN
100
AcDbLine
 62
7
  6
CONTINUOUS
 10
492.8123273488
 20
88.3585844135
 11
491.3794027404
 21
90.8688224601
  0
LINE
  5
28C
100
AcDbEntity
  8
RUNDUNGEN
100
AcDbLine
 62
7
  6
CONTINUOUS
 10
523.6760117672
 20
39.3088028032
 11
515.0868038618
 21
54.3556212805
  0
LINE
  5
28D
100
AcDbEntity
  8
RUNDUNGEN
100
AcDbLine
 62
7
  6
CONTINUOUS
 10
493.7273908583
 20
91.773647923
 11
492.2944662499
 21
94.2838859695
  0
LINE
  5
28E
100
AcDbEntity
  8
0
100
AcDbLine
 62
7
  6
CONTINUOUS
 10
502.8487389743
 20
75.1801222365
 11
503.9768297876
 21
72.6736950827
  0
LINE
  5
28F
100
AcDbEntity
  8
0
100
AcDbLine
 62
7
  6
CONTINUOUS
 10
540.4846994454
 20
138.1161841478
 11
540.1752856508
 21
138.0310576499
  0
LINE
  5
290
100
AcDbEntity
  8
0
100
AcDbLine
 62
7
  6
CONTINUOUS
 10
540.8207668382
 20
139.3704047328
 11
540.9754741181
 21
139.4129678793
  0
LINE
  5
291
100
AcDbEntity
  8
0
100
AcDbLine
 62
7
  6
CONTINUOUS
 10
539.3787173818
 20
139.3367165342
 11
539.6881319414
 21
139.4218428272
  0
LINE
  5
292
100
AcDbEntity
  8
0
100
AcDbLine
 62
7
  6
CONTINUOUS
 10
539.4837384282
 20
139.7286604155
 11
539.3290319135
 21
139.686097064
  0
LINE
  5
293
100
AcDbEntity
  8
0
100
AcDbLine
 62
7
  6
CONTINUOUS
 10
534.1204890467
 20
139.2333512728
 11
534.4299032294
 21
139.3184776889
  0
LINE
  5
294
100
AcDbEntity
  8
0
100
AcDbLine
 62
7
  6
CONTINUOUS
 10
531.4405654803
 20
141.7998052743
 11
531.7499796574
 21
141.8849316698
  0
LINE
  5
295
100
AcDbEntity
  8
0
100
AcDbLine
 62
7
  6
CONTINUOUS
 10
533.7955017062
 20
143.101189505
 11
533.4860879116
 21
143.016063007
  0
LINE
  5
296
100
AcDbEntity
  8
0
100
AcDbLine
 62
7
  6
CONTINUOUS
 10
603.2338729603
 20
146.1033172676
 11
605.6860932718
 21
146.7603877198
  0
LINE
  5
297
100
AcDbEntity
  8
0
100
AcDbLine
 62
7
  6
CONTINUOUS
 10
632.7203946677
 20
154.0042069467
 11
635.1726152866
 21
154.6612774812
  0
LINE
  5
298
100
AcDbEntity
  8
0
100
AcDbLine
 62
7
  6
CONTINUOUS
 10
628.2771666117
 20
152.9190243747
 11
610.0766329291
 21
148.0422060726
  0
LINE
  5
299
100
AcDbEntity
  8
0
100
AcDbLine
 62
7
  6
CONTINUOUS
 10
531.4787351828
 20
142.2096619193
 11
531.2571767502
 21
142.1850114852
  0
LINE
  5
29A
100
AcDbEntity
  8
0
100
AcDbLine
 62
7
  6
CONTINUOUS
 10
509.8218811826
 20
148.0125984592
 11
509.5706099156
 21
147.9959095551
  0
LINE
  5
29B
100
AcDbEntity
  8
0
100
AcDbLine
 62
7
  6
CONTINUOUS
 10
539.6881319414
 20
139.4218428272
 11
539.9765415267
 21
139.4285805489
  0
LINE
  5
29C
100
AcDbEntity
  8
0
100
AcDbLine
 62
7
  6
CONTINUOUS
 10
540.6163740902
 20
139.6772221161
 11
540.3279637398
 21
139.6704845994
  0
LINE
  5
29D
100
AcDbEntity
  8
0
100
AcDbLine
 62
7
  6
CONTINUOUS
 10
534.1796627801
 20
139.7215967934
 11
533.8912531949
 21
139.7148590716
  0
LINE
  5
29E
100
AcDbEntity
  8
0
100
AcDbLine
 62
7
  6
CONTINUOUS
 10
540.1082161861
 20
140.9896185721
 11
540.3966257714
 21
140.9963562938
  0
LINE
  5
29F
100
AcDbEntity
  8
0
100
AcDbLine
 62
7
  6
CONTINUOUS
 10
533.7363279856
 20
142.6129440325
 11
534.0247379534
 21
142.6196816517
  0
LINE
  5
2A0
100
AcDbEntity
  8
0
100
AcDbLine
 62
7
  6
CONTINUOUS
 10
516.2888042556
 20
144.5154378869
 11
515.9607775954
 21
144.5193155284
  0
LINE
  5
2A1
100
AcDbEntity
  8
0
100
AcDbLine
 62
7
  6
CONTINUOUS
 10
512.6045317711
 20
145.5026357238
 11
512.2765046718
 21
145.506513483
  0
LINE
  5
2A2
100
AcDbEntity
  8
0
100
AcDbLine
 62
7
  6
CONTINUOUS
 10
540.5016468179
 20
141.3883001751
 11
540.1463853148
 21
141.3994753708
  0
LINE
  5
2A3
100
AcDbEntity
  8
0
100
AcDbLine
 62
7
  6
CONTINUOUS
 10
534.1507632092
 20
143.0900143093
 11
533.7955017062
 21
143.101189505
  0
LINE
  5
2A4
100
AcDbEntity
  8
0
100
AcDbLine
 62
7
  6
CONTINUOUS
 10
515.8347523249
 20
144.0489828159
 11
516.2395352584
 21
144.0245384003
  0
LINE
  5
2A5
100
AcDbEntity
  8
0
100
AcDbLine
 62
7
  6
CONTINUOUS
 10
512.1504794013
 20
145.0361807705
 11
512.5552618956
 21
145.0117364726
  0
LINE
  5
2A6
100
AcDbEntity
  8
0
100
AcDbLine
 62
7
  6
CONTINUOUS
 10
540.7690521939
 20
141.3166491206
 11
540.5016468179
 21
141.3883001751
  0
LINE
  5
2A7
100
AcDbEntity
  8
0
100
AcDbLine
 62
7
  6
CONTINUOUS
 10
534.752425879
 20
142.9287992828
 11
534.1507632092
 21
143.0900143093
  0
LINE
  5
2A8
100
AcDbEntity
  8
0
100
AcDbLine
 62
7
  6
CONTINUOUS
 10
531.610409651
 20
143.7706999937
 11
530.0059757694
 21
144.2006067566
  0
LINE
  5
2A9
100
AcDbEntity
  8
0
100
AcDbLine
 62
7
  6
CONTINUOUS
 10
529.4711645392
 20
144.3439089938
 11
529.0700560927
 21
144.4513856781
  0
LINE
  5
2AA
100
AcDbEntity
  8
0
100
AcDbLine
 62
7
  6
CONTINUOUS
 10
516.8219502795
 20
147.7332557396
 11
514.9798138177
 21
148.2268547169
  0
LINE
  5
2AB
100
AcDbEntity
  8
0
100
AcDbLine
 62
7
  6
CONTINUOUS
 10
514.3657684768
 20
148.3913876701
 11
513.9052343614
 21
148.5147874144
  0
LINE
  5
2AC
100
AcDbEntity
  8
0
100
AcDbLine
 62
7
  6
CONTINUOUS
 10
512.0630978995
 20
149.0083863917
 11
511.6025635645
 21
149.1317861949
  0
LINE
  5
2AD
100
AcDbEntity
  8
0
100
AcDbLine
 62
7
  6
CONTINUOUS
 10
509.9139385477
 20
149.5842519044
 11
508.0718020858
 21
150.0778508817
  0
LINE
  5
2AE
100
AcDbEntity
  8
RUNDUNGEN
100
AcDbLine
 62
7
  6
CONTINUOUS
 10
541.6862512986
 20
146.1033172676
 11
539.234030987
 21
146.7603877198
  0
LINE
  5
2AF
100
AcDbEntity
  8
RUNDUNGEN
100
AcDbLine
 62
7
  6
CONTINUOUS
 10
512.1997295912
 20
154.0042069467
 11
509.7475089723
 21
154.6612774812
  0
LINE
  5
2B0
100
AcDbEntity
  8
RUNDUNGEN
100
AcDbLine
 62
7
  6
CONTINUOUS
 10
516.6428546825
 20
152.919051964
 11
534.8435818145
 21
148.0421818273
  0
LINE
  5
2B1
100
AcDbEntity
  8
0
100
AcDbLine
 62
7
  6
CONTINUOUS
 10
517.1847247926
 20
147.5520337646
 11
516.8219502795
 21
147.7332557396
  0
LINE
  5
2B2
100
AcDbEntity
  8
0
100
AcDbLine
 62
7
  6
CONTINUOUS
 10
532.850312172
 20
139.5736941407
 11
533.1635652546
 21
139.4057413856
  0
LINE
  5
2B3
100
AcDbEntity
  8
0
100
AcDbLine
 62
7
  6
CONTINUOUS
 10
539.1343446279
 20
137.8898927189
 11
539.4475977106
 21
137.7219399638
  0
LINE
  5
2B4
100
AcDbEntity
  8
0
100
AcDbLine
 62
7
  6
CONTINUOUS
 10
531.9236623529
 20
143.602747348
 11
531.610409651
 21
143.7706999937
  0
LINE
  5
2B5
100
AcDbEntity
  8
0
100
AcDbLine
 62
7
  6
CONTINUOUS
 10
535.0656785809
 20
142.7608466371
 11
534.752425879
 21
142.9287992828
  0
LINE
  5
2B6
100
AcDbEntity
  8
0
100
AcDbLine
 62
7
  6
CONTINUOUS
 10
541.0823052783
 20
141.1486963724
 11
540.7690521939
 21
141.3166491206
  0
LINE
  5
2B7
100
AcDbEntity
  8
0
100
AcDbLine
 62
7
  6
CONTINUOUS
 10
516.6959250238
 20
147.262923082
 11
516.9819432653
 21
147.102267888
  0
LINE
  5
2B8
100
AcDbEntity
  8
0
100
AcDbLine
 62
7
  6
CONTINUOUS
 10
533.2895905251
 20
139.8760740981
 11
533.0431889759
 21
140.0261140314
  0
LINE
  5
2B9
100
AcDbEntity
  8
0
100
AcDbLine
 62
7
  6
CONTINUOUS
 10
539.6194699245
 20
138.0959711877
 11
539.3730687578
 21
138.2460110185
  0
LINE
  5
2BA
100
AcDbEntity
  8
0
100
AcDbLine
 62
7
  6
CONTINUOUS
 10
534.6264006232
 20
142.4584666252
 11
534.8728017899
 21
142.3084267944
  0
LINE
  5
2BB
100
AcDbEntity
  8
0
100
AcDbLine
 62
7
  6
CONTINUOUS
 10
540.2439469026
 20
139.3569294943
 11
540.4903488344
 21
139.2068894585
  0
LINE
  5
2BC
100
AcDbEntity
  8
0
100
AcDbLine
 62
7
  6
CONTINUOUS
 10
540.0605583638
 20
139.7421356539
 11
539.8141571972
 21
139.8921754848
  0
LINE
  5
2BD
100
AcDbEntity
  8
0
100
AcDbLine
 62
7
  6
CONTINUOUS
 10
540.6640311474
 20
140.9247052392
 11
540.9104330791
 21
140.7746652034
  0
LINE
  5
2BE
100
AcDbEntity
  8
0
100
AcDbLine
 62
7
  6
CONTINUOUS
 10
509.8856731139
 20
149.1717414187
 11
510.0949359623
 21
149.0316527703
  0
LINE
  5
2BF
100
AcDbEntity
  8
0
100
AcDbLine
 62
7
  6
CONTINUOUS
 10
531.5722399485
 20
143.3608433487
 11
531.7517899624
 21
143.2287162303
  0
LINE
  5
2C0
100
AcDbEntity
  8
0
100
AcDbLine
 62
7
  6
CONTINUOUS
 10
511.2156679733
 20
145.5387132787
 11
511.4806824392
 21
145.2996691701
  0
LINE
  5
2C1
100
AcDbEntity
  8
0
100
AcDbLine
 62
7
  6
CONTINUOUS
 10
517.4497388248
 20
147.3129897943
 11
517.1847247926
 21
147.5520337646
  0
LINE
  5
2C2
100
AcDbEntity
  8
0
100
AcDbLine
 62
7
  6
CONTINUOUS
 10
511.6834635402
 20
145.7494352125
 11
511.4952049157
 21
145.9679126921
  0
LINE
  5
2C3
100
AcDbEntity
  8
0
100
AcDbLine
 62
7
  6
CONTINUOUS
 10
516.9819432653
 20
147.102267888
 11
517.1702019044
 21
146.8837904633
  0
LINE
  5
2C4
100
AcDbEntity
  8
0
100
AcDbLine
 62
7
  6
CONTINUOUS
 10
510.5207228837
 20
149.0855971829
 11
510.2767128411
 21
149.4030299883
  0
LINE
  5
2C5
100
AcDbEntity
  8
0
100
AcDbLine
 62
7
  6
CONTINUOUS
 10
502.9219440551
 20
75.4533273172
 11
504.0500348684
 21
72.9469001635
  0
LINE
  5
2C6
100
AcDbEntity
  8
0
100
AcDbLine
 62
7
  6
CONTINUOUS
 10
504.8334224826
 20
72.4441717619
 11
503.6604957288
 21
75.0502167987
  0
LINE
  5
2C7
100
AcDbEntity
  8
0
100
AcDbLine
 62
7
  6
CONTINUOUS
 10
516.2395352584
 20
144.0245384003
 11
516.5885661334
 21
144.0990495557
  0
LINE
  5
2C8
100
AcDbEntity
  8
0
100
AcDbLine
 62
7
  6
CONTINUOUS
 10
512.5552618956
 20
145.0117364726
 11
512.9042932097
 21
145.0862475103
  0
LINE
  5
2C9
100
AcDbEntity
  8
0
100
AcDbLine
 62
7
  6
CONTINUOUS
 10
509.7936159685
 20
147.6000879146
 11
510.1426470575
 21
147.6745989905
  0
LINE
  5
2CA
100
AcDbEntity
  8
0
100
AcDbLine
 62
7
  6
CONTINUOUS
 10
539.3730687578
 20
138.2460110185
 11
539.1476710354
 21
138.4744398306
  0
LINE
  5
2CB
100
AcDbEntity
  8
0
100
AcDbLine
 62
7
  6
CONTINUOUS
 10
540.9334656995
 20
139.2561903268
 11
540.8207668382
 21
139.3704047328
  0
LINE
  5
2CC
100
AcDbEntity
  8
0
100
AcDbLine
 62
7
  6
CONTINUOUS
 10
532.6249152201
 20
139.8021227683
 11
532.850312172
 21
139.5736941407
  0
LINE
  5
2CD
100
AcDbEntity
  8
0
100
AcDbLine
 62
7
  6
CONTINUOUS
 10
535.2910759208
 20
142.5324179275
 11
535.0656785809
 21
142.7608466371
  0
LINE
  5
2CE
100
AcDbEntity
  8
0
100
AcDbLine
 62
7
  6
CONTINUOUS
 10
539.3710403321
 20
139.8428746165
 11
539.4837384282
 21
139.7286604155
  0
LINE
  5
2CF
100
AcDbEntity
  8
0
100
AcDbLine
 62
7
  6
CONTINUOUS
 10
540.4903488344
 20
139.2068894585
 11
540.7157457918
 21
138.9784608515
  0
LINE
  5
2D0
100
AcDbEntity
  8
0
100
AcDbLine
 62
7
  6
CONTINUOUS
 10
538.8630999676
 20
138.2146230402
 11
539.1343446279
 21
137.8898927189
  0
LINE
  5
2D1
100
AcDbEntity
  8
0
100
AcDbLine
 62
7
  6
CONTINUOUS
 10
541.3535499442
 20
140.8239660717
 11
541.0823052783
 21
141.1486963724
  0
LINE
  5
2D2
100
AcDbEntity
  8
0
100
AcDbLine
 62
7
  6
CONTINUOUS
 10
533.0431889759
 20
140.0261140314
 11
532.8846431859
 21
140.236629981
  0
LINE
  5
2D3
100
AcDbEntity
  8
0
100
AcDbLine
 62
7
  6
CONTINUOUS
 10
534.8728017899
 20
142.3084267944
 11
535.0313475945
 21
142.0979108997
  0
LINE
  5
2D4
100
AcDbEntity
  8
0
100
AcDbLine
 62
7
  6
CONTINUOUS
 10
510.992662367
 20
145.934534829
 11
511.2156679733
 21
145.5387132787
  0
LINE
  5
2D5
100
AcDbEntity
  8
0
100
AcDbLine
 62
7
  6
CONTINUOUS
 10
510.0949359623
 20
149.0316527703
 11
510.2064389887
 21
148.83374195
  0
LINE
  5
2D6
100
AcDbEntity
  8
0
100
AcDbLine
 62
7
  6
CONTINUOUS
 10
517.6727444385
 20
146.9171682715
 11
517.4497388248
 21
147.3129897943
  0
LINE
  5
2D7
100
AcDbEntity
  8
RUNDUNGEN
100
AcDbLine
 62
7
  6
CONTINUOUS
 10
497.4513464637
 20
119.4973633725
 11
495.43836945
 21
126.246532523
  0
LINE
  5
2D8
100
AcDbEntity
  8
0
100
AcDbLine
 62
7
  6
CONTINUOUS
 10
527.1076819413
 20
190.3461695088
 11
521.661167062
 21
190.3461695088
  0
LINE
  5
2D9
100
AcDbEntity
  8
0
100
AcDbLine
 62
7
  6
CONTINUOUS
 10
617.8124423176
 20
190.3461695088
 11
623.2589571969
 21
190.3461695088
  0
LINE
  5
2DA
100
AcDbEntity
  8
0
100
AcDbLine
 62
7
  6
CONTINUOUS
 10
549.211167062
 20
182.9641692574
 11
544.4943468145
 21
185.687426697
  0
LINE
  5
2DB
100
AcDbEntity
  8
0
100
AcDbLine
 62
7
  6
CONTINUOUS
 10
605.0491667995
 20
114.3408564483
 11
610.1670406059
 21
109.5023930163
  0
LINE
  5
2DC
100
AcDbEntity
  8
0
100
AcDbLine
 62
7
  6
CONTINUOUS
 10
532.1280554835
 20
143.2959298622
 11
531.9236623529
 21
143.602747348
  0
LINE
  5
2DD
100
AcDbEntity
  8
0
100
AcDbLine
 62
7
  6
CONTINUOUS
 10
539.8141571972
 20
139.8921754848
 11
539.609763684
 21
140.1989930731
  0
LINE
  5
2DE
100
AcDbEntity
  8
0
100
AcDbLine
 62
7
  6
CONTINUOUS
 10
541.1378584476
 20
138.9493729434
 11
540.9334656995
 21
139.2561903268
  0
LINE
  5
2DF
100
AcDbEntity
  8
0
100
AcDbLine
 62
7
  6
CONTINUOUS
 10
540.9104330791
 20
140.7746652034
 11
541.1148258272
 21
140.4678478201
  0
LINE
  5
2E0
100
AcDbEntity
  8
0
100
AcDbLine
 62
7
  6
CONTINUOUS
 10
532.4415263061
 20
140.1873290579
 11
532.6249152201
 21
139.8021227683
  0
LINE
  5
2E1
100
AcDbEntity
  8
0
100
AcDbLine
 62
7
  6
CONTINUOUS
 10
531.7517899624
 20
143.2287162303
 11
531.8434844231
 21
143.0361130993
  0
LINE
  5
2E2
100
AcDbEntity
  8
0
100
AcDbLine
 62
7
  6
CONTINUOUS
 10
510.6669731042
 20
148.7103422057
 11
510.5207228837
 21
149.0855971829
  0
LINE
  5
2E3
100
AcDbEntity
  8
0
100
AcDbLine
 62
7
  6
CONTINUOUS
 10
511.4952049157
 20
145.9679126921
 11
511.404705879
 21
146.2442123474
  0
LINE
  5
2E4
100
AcDbEntity
  8
0
100
AcDbLine
 62
7
  6
CONTINUOUS
 10
517.1702019044
 20
146.8837904633
 11
517.2607008823
 21
146.6074905883
  0
LINE
  5
2E5
100
AcDbEntity
  8
0
100
AcDbLine
 62
7
  6
CONTINUOUS
 10
510.001320269
 20
145.6120462244
 11
509.7936159685
 21
147.6000879146
  0
LINE
  5
2E6
100
AcDbEntity
  8
0
100
AcDbLine
 62
7
  6
CONTINUOUS
 10
480.4600621294
 20
444.8302268688
 11
480.4600621294
 21
324.8302268688
  0
LINE
  5
2E7
100
AcDbEntity
  8
0
100
AcDbLine
 62
7
  6
CONTINUOUS
 10
535.4744648421
 20
142.1472116654
 11
535.2910759208
 21
142.5324179275
  0
LINE
  5
2E8
100
AcDbEntity
  8
0
100
AcDbLine
 62
7
  6
CONTINUOUS
 10
538.7255583796
 20
138.5035277386
 11
538.8630999676
 21
138.2146230402
  0
LINE
  5
2E9
100
AcDbEntity
  8
0
100
AcDbLine
 62
7
  6
CONTINUOUS
 10
539.2334987367
 20
140.1317792875
 11
539.3710403321
 21
139.8428746165
  0
LINE
  5
2EA
100
AcDbEntity
  8
0
100
AcDbLine
 62
7
  6
CONTINUOUS
 10
541.4910915396
 20
140.5350614007
 11
541.3535499442
 21
140.8239660717
  0
LINE
  5
2EB
100
AcDbEntity
  8
0
100
AcDbLine
 62
7
  6
CONTINUOUS
 10
532.2445926783
 20
142.9286364662
 11
532.1280554835
 21
143.2959298622
  0
LINE
  5
2EC
100
AcDbEntity
  8
0
100
AcDbLine
 62
7
  6
CONTINUOUS
 10
510.9231677739
 20
146.2892232566
 11
510.992662367
 21
145.934534829
  0
LINE
  5
2ED
100
AcDbEntity
  8
0
100
AcDbLine
 62
7
  6
CONTINUOUS
 10
517.7422392659
 20
146.5624798399
 11
517.6727444385
 21
146.9171682715
  0
LINE
  5
2EE
100
AcDbEntity
  8
0
100
AcDbLine
 62
7
  6
CONTINUOUS
 10
509.2910733246
 20
147.5667101358
 11
509.4640303212
 21
145.756012632
  0
LINE
  5
2EF
100
AcDbEntity
  8
0
100
AcDbLine
 62
7
  6
CONTINUOUS
 10
510.2064389887
 20
148.83374195
 11
510.2201819736
 21
148.5780090168
  0
LINE
  5
2F0
100
AcDbEntity
  8
0
100
AcDbLine
 62
7
  6
CONTINUOUS
 10
510.680716089
 20
148.4546092724
 11
510.6669731042
 21
148.7103422057
  0
LINE
  5
2F1
100
AcDbEntity
  8
0
100
AcDbLine
 62
7
  6
CONTINUOUS
 10
501.4931673135
 20
170.1781697603
 11
501.4931673135
 21
155.4141692574
  0
LINE
  5
2F2
100
AcDbEntity
  8
0
100
AcDbLine
 62
7
  6
CONTINUOUS
 10
502.4600621294
 20
444.8302268688
 11
502.4600621294
 21
324.8302268688
  0
LINE
  5
2F3
100
AcDbEntity
  8
0
100
AcDbLine
 62
7
  6
CONTINUOUS
 10
511.404705879
 20
146.2442123474
 11
511.4119673231
 21
146.5783339981
  0
LINE
  5
2F4
100
AcDbEntity
  8
0
100
AcDbLine
 62
7
  6
CONTINUOUS
 10
499.5091341189
 20
148.0096565714
 11
499.2452901559
 21
140.4541540175
  0
LINE
  5
2F5
100
AcDbEntity
  8
0
100
AcDbLine
 62
7
  6
CONTINUOUS
 10
556.5931673135
 20
170.1781697603
 11
549.211167062
 21
182.9641692574
  0
LINE
  5
2F6
100
AcDbEntity
  8
0
100
AcDbLine
 62
7
  6
CONTINUOUS
 10
539.1476710354
 20
138.4744398306
 11
539.031133664
 21
138.8417333327
  0
LINE
  5
2F7
100
AcDbEntity
  8
0
100
AcDbLine
 62
7
  6
CONTINUOUS
 10
540.7157457918
 20
138.9784608515
 11
540.8322831484
 21
138.6111672944
  0
LINE
  5
2F8
100
AcDbEntity
  8
0
100
AcDbLine
 62
7
  6
CONTINUOUS
 10
532.8846431859
 20
140.236629981
 11
532.8139531258
 21
140.5076218371
  0
LINE
  5
2F9
100
AcDbEntity
  8
0
100
AcDbLine
 62
7
  6
CONTINUOUS
 10
539.609763684
 20
140.1989930731
 11
539.5390740064
 21
140.4699848267
  0
LINE
  5
2FA
100
AcDbEntity
  8
0
100
AcDbLine
 62
7
  6
CONTINUOUS
 10
541.1148258272
 20
140.4678478201
 11
541.185516211
 21
140.1968556419
  0
LINE
  5
2FB
100
AcDbEntity
  8
0
100
AcDbLine
 62
7
  6
CONTINUOUS
 10
532.3918404701
 20
140.5367097451
 11
532.4415263061
 21
140.1873290579
  0
LINE
  5
2FC
100
AcDbEntity
  8
0
100
AcDbLine
 62
7
  6
CONTINUOUS
 10
538.6968771353
 20
138.9312970996
 11
538.7255583796
 21
138.5035277386
  0
LINE
  5
2FD
100
AcDbEntity
  8
0
100
AcDbLine
 62
7
  6
CONTINUOUS
 10
541.1665404422
 20
138.5216033225
 11
541.1378584476
 21
138.9493729434
  0
LINE
  5
2FE
100
AcDbEntity
  8
0
100
AcDbLine
 62
7
  6
CONTINUOUS
 10
541.5197727397
 20
140.107291875
 11
541.4910915396
 21
140.5350614007
  0
LINE
  5
2FF
100
AcDbEntity
  8
0
100
AcDbLine
 62
7
  6
CONTINUOUS
 10
531.5591314686
 20
139.8356481229
 11
531.4405654803
 21
141.7998052743
  0
LINE
  5
300
100
AcDbEntity
  8
0
100
AcDbLine
 62
7
  6
CONTINUOUS
 10
530.9974486152
 20
141.7505044061
 11
531.0911714869
 21
139.9610376221
  0
LINE
  5
301
100
AcDbEntity
  8
0
100
AcDbLine
 62
7
  6
CONTINUOUS
 10
531.8434844231
 20
143.0361130993
 11
531.8473231392
 21
142.7830340068
  0
LINE
  5
302
100
AcDbEntity
  8
0
100
AcDbLine
 62
7
  6
CONTINUOUS
 10
532.2484315857
 20
142.6755573225
 11
532.2445926783
 21
142.9286364662
  0
LINE
  5
303
100
AcDbEntity
  8
0
100
AcDbLine
 62
7
  6
CONTINUOUS
 10
517.2607008823
 20
146.6074905883
 11
517.2534394382
 21
146.2733689377
  0
LINE
  5
304
100
AcDbEntity
  8
0
100
AcDbLine
 62
7
  6
CONTINUOUS
 10
510.951432988
 20
146.7017338013
 11
510.9231677739
 21
146.2892232566
  0
LINE
  5
305
100
AcDbEntity
  8
0
100
AcDbLine
 62
7
  6
CONTINUOUS
 10
517.7139735537
 20
146.1499691933
 11
517.7422392659
 21
146.5624798399
  0
LINE
  5
306
100
AcDbEntity
  8
RUNDUNGEN
100
AcDbLine
 62
7
  6
CONTINUOUS
 10
474.3364543861
 20
93.9947870803
 11
475.2515178956
 21
97.4098505898
  0
LINE
  5
307
100
AcDbEntity
  8
0
100
AcDbLine
 62
7
  6
CONTINUOUS
 10
623.2589571969
 20
190.3461695088
 11
636.0449566939
 21
182.9641692574
  0
LINE
  5
308
100
AcDbEntity
  8
0
100
AcDbLine
 62
7
  6
CONTINUOUS
 10
588.3269569454
 20
155.4141692574
 11
595.7089571969
 21
142.6281697603
  0
LINE
  5
309
100
AcDbEntity
  8
0
100
AcDbLine
 62
7
  6
CONTINUOUS
 10
597.6929903914
 20
135.2236570744
 11
601.2422460937
 21
128.5484779428
  0
LINE
  5
30A
100
AcDbEntity
  8
0
100
AcDbLine
 62
7
  6
CONTINUOUS
 10
539.1838125034
 20
140.4811600223
 11
539.2334987367
 21
140.1317792875
  0
LINE
  5
30B
100
AcDbEntity
  8
0
100
AcDbLine
 62
7
  6
CONTINUOUS
 10
535.0313475945
 20
142.0979108997
 11
535.035186443
 21
141.8448315364
  0
LINE
  5
30C
100
AcDbEntity
  8
0
100
AcDbLine
 62
7
  6
CONTINUOUS
 10
532.8139531258
 20
140.5076218371
 11
532.8311184278
 21
140.839089757
  0
LINE
  5
30D
100
AcDbEntity
  8
0
100
AcDbLine
 62
7
  6
CONTINUOUS
 10
532.4300099813
 20
140.9465664413
 11
532.3918404701
 21
140.5367097451
  0
LINE
  5
30E
100
AcDbEntity
  8
0
100
AcDbLine
 62
7
  6
CONTINUOUS
 10
535.4362948895
 20
141.7373548521
 11
535.4744648421
 21
142.1472116654
  0
LINE
  5
30F
100
AcDbEntity
  8
RUNDUNGEN
100
AcDbLine
 62
7
  6
CONTINUOUS
 10
468.6805966805
 20
43.771829923
 11
470.8289470721
 21
51.7895827368
  0
LINE
  5
310
100
AcDbEntity
  8
RUNDUNGEN
100
AcDbLine
 62
7
  6
CONTINUOUS
 10
479.9468220738
 20
83.2803534593
 11
480.8618855832
 21
86.6954169687
  0
LINE
  5
311
100
AcDbEntity
  8
0
100
AcDbLine
 62
7
  6
CONTINUOUS
 10
499.5091341189
 20
148.0096565714
 11
501.4931673135
 21
155.4141692574
  0
LINE
  5
312
100
AcDbEntity
  8
RUNDUNGEN
100
AcDbLine
 62
7
  6
CONTINUOUS
 10
495.43836945
 20
126.246532523
 11
501.9740162132
 21
150.6378983033
  0
LINE
  5
313
100
AcDbEntity
  8
RUNDUNGEN
100
AcDbLine
 62
7
  6
CONTINUOUS
 10
474.3236563265
 20
39.3315734178
 11
475.4217325378
 21
43.4296496291
  0
LINE
  5
314
100
AcDbEntity
  8
0
100
AcDbLine
 62
7
  6
CONTINUOUS
 10
508.0718020858
 20
150.0778508817
 11
507.0846041312
 21
146.3935779581
  0
LINE
  5
315
100
AcDbEntity
  8
0
100
AcDbLine
 62
7
  6
CONTINUOUS
 10
507.5451382467
 20
146.2701782138
 11
507.9862267007
 21
147.9163427349
  0
LINE
  5
316
100
AcDbEntity
  8
0
100
AcDbLine
 62
7
  6
CONTINUOUS
 10
508.1122519565
 20
148.3866753925
 11
508.4273151548
 21
149.5625072561
  0
LINE
  5
317
100
AcDbEntity
  8
0
100
AcDbLine
 62
7
  6
CONTINUOUS
 10
510.2201819736
 20
148.5780090168
 11
510.1571692868
 21
148.3428424684
  0
LINE
  5
318
100
AcDbEntity
  8
0
100
AcDbLine
 62
7
  6
CONTINUOUS
 10
510.596699193
 20
148.1410539478
 11
510.680716089
 21
148.4546092724
  0
LINE
  5
319
100
AcDbEntity
  8
0
100
AcDbLine
 62
7
  6
CONTINUOUS
 10
511.6025635645
 20
149.1317861949
 11
510.951432988
 21
146.7017338013
  0
LINE
  5
31A
100
AcDbEntity
  8
0
100
AcDbLine
 62
7
  6
CONTINUOUS
 10
511.4119673231
 20
146.5783339981
 11
512.0630978995
 21
149.0083863917
  0
LINE
  5
31B
100
AcDbEntity
  8
KONSTRUKTIONSELEMENTE
100
AcDbLine
 62
7
  6
CONTINUOUS
 10
508.1896444199
 20
131.1656754418
 11
509.1706721284
 21
134.8269206938
  0
LINE
  5
31C
100
AcDbEntity
  8
0
100
AcDbLine
 62
7
  6
CONTINUOUS
 10
494.6154007332
 20
79.3986950895
 11
493.6490936672
 21
75.7923880235
  0
LINE
  5
31D
100
AcDbEntity
  8
0
100
AcDbLine
 62
7
  6
CONTINUOUS
 10
513.9052343614
 20
148.5147874144
 11
513.2541037849
 21
146.0847350208
  0
LINE
  5
31E
100
AcDbEntity
  8
0
100
AcDbLine
 62
7
  6
CONTINUOUS
 10
513.7146379004
 20
145.9613352765
 11
514.3657684768
 21
148.3913876701
  0
LINE
  5
31F
100
AcDbEntity
  8
0
100
AcDbLine
 62
7
  6
CONTINUOUS
 10
556.5931673135
 20
155.4141692574
 11
556.5931673135
 21
170.1781697603
  0
LINE
  5
320
100
AcDbEntity
  8
0
100
AcDbLine
 62
7
  6
CONTINUOUS
 10
495.2877071015
 20
75.8803994585
 11
495.624450473
 21
77.13714283
  0
LINE
  5
321
100
AcDbEntity
  8
0
100
AcDbLine
 62
7
  6
CONTINUOUS
 10
495.7269375861
 20
77.519629943
 11
496.0636809576
 21
78.7763733145
  0
LINE
  5
322
100
AcDbEntity
  8
0
100
AcDbLine
 62
7
  6
CONTINUOUS
 10
514.9798138177
 20
148.2268547169
 11
513.9926158631
 21
144.5425817932
  0
LINE
  5
323
100
AcDbEntity
  8
0
100
AcDbLine
 62
7
  6
CONTINUOUS
 10
496.2986784307
 20
78.2624626339
 11
496.1142016272
 21
77.5739858304
  0
LINE
  5
324
100
AcDbEntity
  8
0
100
AcDbLine
 62
7
  6
CONTINUOUS
 10
495.8594479461
 20
76.6232321494
 11
495.6749711426
 21
75.9347553459
  0
LINE
  5
325
100
AcDbEntity
  8
0
100
AcDbLine
 62
7
  6
CONTINUOUS
 10
496.2326794861
 20
76.8570402279
 11
496.320525583
 21
77.1848863248
  0
LINE
  5
326
100
AcDbEntity
  8
0
100
AcDbLine
 62
7
  6
CONTINUOUS
 10
496.1404410843
 20
76.5128018261
 11
496.1667949134
 21
76.6111556552
  0
LINE
  5
327
100
AcDbEntity
  8
0
100
AcDbLine
 62
7
  6
CONTINUOUS
 10
496.3864101557
 20
77.4307708975
 11
496.4859690655
 21
77.8023298073
  0
LINE
  5
328
100
AcDbEntity
  8
0
100
AcDbLine
 62
7
  6
CONTINUOUS
 10
514.579175249
 20
144.8895147614
 11
515.3143226774
 21
147.633122315
  0
LINE
  5
329
100
AcDbEntity
  8
0
100
AcDbLine
 62
7
  6
CONTINUOUS
 10
496.833702363
 20
77.7091549511
 11
496.7341434531
 21
77.3375960413
  0
LINE
  5
32A
100
AcDbEntity
  8
0
100
AcDbLine
 62
7
  6
CONTINUOUS
 10
496.6682588804
 20
77.0917114686
 11
496.5804127835
 21
76.7638653717
  0
LINE
  5
32B
100
AcDbEntity
  8
0
100
AcDbLine
 62
7
  6
CONTINUOUS
 10
496.5145282109
 20
76.517980799
 11
496.4881743818
 21
76.4196269699
  0
LINE
  5
32C
100
AcDbEntity
  8
0
100
AcDbLine
 62
7
  6
CONTINUOUS
 10
547.9639570539
 20
268.1828478859
 11
521.3352171837
 21
168.8030377486
  0
LINE
  5
32D
100
AcDbEntity
  8
0
100
AcDbLine
 62
7
  6
CONTINUOUS
 10
496.6022599358
 20
75.6862890626
 11
496.7867367394
 21
76.3747658661
  0
LINE
  5
32E
100
AcDbEntity
  8
0
100
AcDbLine
 62
7
  6
CONTINUOUS
 10
497.0414904204
 20
77.3255195471
 11
497.2259672239
 21
78.0139963506
  0
LINE
  5
32F
100
AcDbEntity
  8
0
100
AcDbLine
 62
7
  6
CONTINUOUS
 10
497.6864363457
 20
78.3415573187
 11
497.3496929742
 21
77.0848139473
  0
LINE
  5
330
100
AcDbEntity
  8
0
100
AcDbLine
 62
7
  6
CONTINUOUS
 10
497.2472058612
 20
76.7023268342
 11
496.9104624897
 21
75.4455834627
  0
LINE
  5
331
100
AcDbEntity
  8
KONSTRUKTIONSELEMENTE
100
AcDbLine
 62
7
  6
CONTINUOUS
 10
504.6278379201
 20
102.5865461705
 11
507.3730284485
 21
112.8317366988
  0
LINE
  5
332
100
AcDbEntity
  8
0
100
AcDbLine
 62
7
  6
CONTINUOUS
 10
517.2534394382
 20
146.2733689377
 11
516.9383762694
 21
145.0975371839
  0
LINE
  5
333
100
AcDbEntity
  8
0
100
AcDbLine
 62
7
  6
CONTINUOUS
 10
498.2855376334
 20
74.550056607
 11
499.2518446993
 21
78.156363673
  0
LINE
  5
334
100
AcDbEntity
  8
0
100
AcDbLine
 62
7
  6
CONTINUOUS
 10
517.3989103848
 20
144.9741374396
 11
517.7139735537
 21
146.1499691933
  0
LINE
  5
335
100
AcDbEntity
  8
0
100
AcDbLine
 62
7
  6
CONTINUOUS
 10
500.8432905802
 20
78.081321422
 11
500.7100573332
 21
77.5840881751
  0
LINE
  5
336
100
AcDbEntity
  8
0
100
AcDbLine
 62
7
  6
CONTINUOUS
 10
500.5870727976
 20
77.1251036394
 11
499.7012913204
 21
73.8193221622
  0
LINE
  5
337
100
AcDbEntity
  8
0
100
AcDbLine
 62
7
  6
CONTINUOUS
 10
514.9089935106
 20
129.3652312793
 11
512.362910391
 21
119.8631197165
  0
LINE
  5
338
100
AcDbEntity
  8
KONSTRUKTIONSELEMENTE
100
AcDbLine
 62
7
  6
CONTINUOUS
 10
514.9089935106
 20
129.3652312793
 11
517.5981233892
 21
139.4012006144
  0
LINE
  5
339
100
AcDbEntity
  8
0
100
AcDbLine
 62
7
  6
CONTINUOUS
 10
500.443122355
 20
73.6205491356
 11
501.0673664686
 21
75.9502598838
  0
LINE
  5
33A
100
AcDbEntity
  8
0
100
AcDbLine
 62
7
  6
CONTINUOUS
 10
501.1347151429
 20
76.2016085581
 11
501.3289038321
 21
76.9263306128
  0
LINE
  5
33B
100
AcDbEntity
  8
KONSTRUKTIONSELEMENTE
100
AcDbLine
 62
7
  6
CONTINUOUS
 10
508.9745041384
 20
101.4218604675
 11
511.7196946668
 21
111.6670509959
  0
LINE
  5
33C
100
AcDbEntity
  8
KONSTRUKTIONSELEMENTE
100
AcDbLine
 62
7
  6
CONTINUOUS
 10
517.8072689026
 20
134.3861873388
 11
519.77225355
 21
141.7196098791
  0
LINE
  5
33D
100
AcDbEntity
  8
0
100
AcDbLine
 62
7
  6
CONTINUOUS
 10
502.8487389743
 20
75.1801222365
 11
502.9219440551
 21
75.4533273172
  0
LINE
  5
33E
100
AcDbEntity
  8
KONSTRUKTIONSELEMENTE
100
AcDbLine
 62
7
  6
CONTINUOUS
 10
504.5561586449
 20
81.0686672952
 11
510.3677479921
 21
102.7578140115
  0
LINE
  5
33F
100
AcDbEntity
  8
KONSTRUKTIONSELEMENTE
100
AcDbLine
 62
7
  6
CONTINUOUS
 10
520.3867573586
 20
140.1492660089
 11
521.1320601282
 21
142.9307738122
  0
LINE
  5
340
100
AcDbEntity
  8
KONSTRUKTIONSELEMENTE
100
AcDbLine
 62
7
  6
CONTINUOUS
 10
523.3950599721
 20
151.3764042071
 11
525.3628483699
 21
158.7202904861
  0
LINE
  5
341
100
AcDbEntity
  8
KONSTRUKTIONSELEMENTE
100
AcDbLine
 62
7
  6
CONTINUOUS
 10
512.7327131922
 20
110.6180584703
 11
516.0900209758
 21
123.1477016954
  0
LINE
  5
342
100
AcDbEntity
  8
0
100
AcDbLine
 62
7
  6
CONTINUOUS
 10
503.6604957288
 20
75.0502167987
 11
503.7337008096
 21
75.3234218795
  0
LINE
  5
343
100
AcDbEntity
  8
0
100
AcDbLine
 62
7
  6
CONTINUOUS
 10
504.3671876439
 20
76.2626369348
 11
504.2939825632
 21
75.9894318541
  0
LINE
  5
344
100
AcDbEntity
  8
0
100
AcDbLine
 62
7
  6
CONTINUOUS
 10
503.9768297876
 20
72.6736950827
 11
504.0500348684
 21
72.9469001635
  0
LINE
  5
345
100
AcDbEntity
  8
0
100
AcDbLine
 62
7
  6
CONTINUOUS
 10
506.4070233396
 20
76.5905237223
 11
505.6844650952
 21
73.8938996426
  0
LINE
  5
346
100
AcDbEntity
  8
0
100
AcDbLine
 62
7
  6
CONTINUOUS
 10
506.4262961298
 20
73.695126616
 11
507.1488543742
 21
76.3917506956
  0
LINE
  5
347
100
AcDbEntity
  8
KONSTRUKTIONSELEMENTE
100
AcDbLine
 62
7
  6
CONTINUOUS
 10
517.0793794105
 20
109.4533727674
 11
520.4366871941
 21
121.9830159924
  0
LINE
  5
348
100
AcDbEntity
  8
KONSTRUKTIONSELEMENTE
100
AcDbLine
 62
7
  6
CONTINUOUS
 10
509.3857877764
 20
79.7745720697
 11
515.1973771235
 21
101.463718786
  0
LINE
  5
349
100
AcDbEntity
  8
KONSTRUKTIONSELEMENTE
100
AcDbLine
 62
7
  6
CONTINUOUS
 10
525.21638649
 20
138.8551707834
 11
525.9616892597
 21
141.6366785867
  0
LINE
  5
34A
100
AcDbEntity
  8
KONSTRUKTIONSELEMENTE
100
AcDbLine
 62
7
  6
CONTINUOUS
 10
528.2246891036
 20
150.0823089816
 11
530.1924775013
 21
157.4261952606
  0
LINE
  5
34B
100
AcDbEntity
  8
KONSTRUKTIONSELEMENTE
100
AcDbLine
 62
7
  6
CONTINUOUS
 10
526.5337343341
 20
139.9078765634
 11
524.5687496866
 21
132.5744540231
  0
LINE
  5
34C
100
AcDbEntity
  8
KONSTRUKTIONSELEMENTE
100
AcDbLine
 62
7
  6
CONTINUOUS
 10
518.4811754508
 20
109.8553176802
 11
515.7359849224
 21
99.6101271518
  0
LINE
  5
34D
100
AcDbEntity
  8
0
100
AcDbLine
 62
7
  6
CONTINUOUS
 10
510.0652822276
 20
75.6102962075
 11
509.3427239831
 21
72.9136721279
  0
LINE
  5
34E
100
AcDbEntity
  8
0
100
AcDbLine
 62
7
  6
CONTINUOUS
 10
529.0700560927
 20
144.4513856781
 11
528.0828581382
 21
140.7671127545
  0
LINE
  5
34F
100
AcDbEntity
  8
0
100
AcDbLine
 62
7
  6
CONTINUOUS
 10
522.0221686539
 20
117.2749292655
 11
524.5682517735
 21
126.7770408282
  0
LINE
  5
350
100
AcDbEntity
  8
KONSTRUKTIONSELEMENTE
100
AcDbLine
 62
7
  6
CONTINUOUS
 10
524.5682517735
 20
126.7770408282
 11
527.2573817187
 21
136.8130104119
  0
LINE
  5
351
100
AcDbEntity
  8
0
100
AcDbLine
 62
7
  6
CONTINUOUS
 10
510.0845550177
 20
72.7148991013
 11
510.8071132622
 21
75.4115231809
  0
LINE
  5
352
100
AcDbEntity
  8
0
100
AcDbLine
 62
7
  6
CONTINUOUS
 10
528.4839665846
 20
140.6596360701
 11
529.4711645392
 21
144.3439089938
  0
LINE
  5
353
100
AcDbEntity
  8
0
100
AcDbLine
 62
7
  6
CONTINUOUS
 10
530.0059757694
 20
144.2006067566
 11
529.0187778148
 21
140.5163338329
  0
LINE
  5
354
100
AcDbEntity
  8
0
100
AcDbLine
 62
7
  6
CONTINUOUS
 10
529.4198862613
 20
140.4088571486
 11
529.8609747153
 21
142.0550216698
  0
LINE
  5
355
100
AcDbEntity
  8
0
100
AcDbLine
 62
7
  6
CONTINUOUS
 10
529.9869999711
 20
142.5253543274
 11
530.3020631694
 21
143.701186191
  0
LINE
  5
356
100
AcDbEntity
  8
0
100
AcDbLine
 62
7
  6
CONTINUOUS
 10
512.4298686503
 20
74.9767071851
 11
512.2893148953
 21
74.4521534301
  0
LINE
  5
357
100
AcDbEntity
  8
0
100
AcDbLine
 62
7
  6
CONTINUOUS
 10
512.1663303596
 20
73.9931688944
 11
511.2878693905
 21
70.7147079253
  0
LINE
  5
358
100
AcDbEntity
  8
0
100
AcDbLine
 62
7
  6
CONTINUOUS
 10
512.1761105866
 20
71.0623450602
 11
512.9081613942
 21
73.7943958678
  0
LINE
  5
359
100
AcDbEntity
  8
0
100
AcDbLine
 62
7
  6
CONTINUOUS
 10
508.875167565
 20
182.9641692574
 11
501.4931673135
 21
170.1781697603
  0
LINE
  5
35A
100
AcDbEntity
  8
0
100
AcDbLine
 62
7
  6
CONTINUOUS
 10
597.6929903914
 20
135.2236570744
 11
595.7089571969
 21
142.6281697603
  0
LINE
  5
35B
100
AcDbEntity
  8
0
100
AcDbLine
 62
7
  6
CONTINUOUS
 10
605.0491667995
 20
114.3408564483
 11
598.5135200364
 21
138.7322222286
  0
LINE
  5
35C
100
AcDbEntity
  8
0
100
AcDbLine
 62
7
  6
CONTINUOUS
 10
531.8473231392
 20
142.7830340068
 11
531.7843104525
 21
142.5478674584
  0
LINE
  5
35D
100
AcDbEntity
  8
KONSTRUKTIONSELEMENTE
100
AcDbLine
 62
7
  6
CONTINUOUS
 10
522.8278416691
 20
108.6906319772
 11
520.0826511407
 21
98.4454414488
  0
LINE
  5
35E
100
AcDbEntity
  8
0
100
AcDbLine
 62
7
  6
CONTINUOUS
 10
532.1644146897
 20
142.3620019979
 11
532.2484315857
 21
142.6755573225
  0
LINE
  5
35F
100
AcDbEntity
  8
0
100
AcDbLine
 62
7
  6
CONTINUOUS
 10
532.7450731501
 20
142.1223981951
 11
532.4300099813
 21
140.9465664413
  0
LINE
  5
360
100
AcDbEntity
  8
0
100
AcDbLine
 62
7
  6
CONTINUOUS
 10
565.3506219271
 20
263.5241050741
 11
538.7218820569
 21
164.1442949367
  0
LINE
  5
361
100
AcDbEntity
  8
0
100
AcDbLine
 62
7
  6
CONTINUOUS
 10
532.8311184278
 20
140.839089757
 11
533.1461815966
 21
142.0149215108
  0
LINE
  5
362
100
AcDbEntity
  8
0
100
AcDbLine
 62
7
  6
CONTINUOUS
 10
534.2444858896
 20
141.3005475765
 11
534.1184606339
 21
140.8302149189
  0
LINE
  5
363
100
AcDbEntity
  8
0
100
AcDbLine
 62
7
  6
CONTINUOUS
 10
515.8702720222
 20
72.0753884963
 11
515.7970669414
 21
71.8021834156
  0
LINE
  5
364
100
AcDbEntity
  8
0
100
AcDbLine
 62
7
  6
CONTINUOUS
 10
534.7201233036
 20
140.6689998925
 11
534.5520895998
 21
140.0418895725
  0
LINE
  5
365
100
AcDbEntity
  8
0
100
AcDbLine
 62
7
  6
CONTINUOUS
 10
534.932193837
 20
139.856024112
 11
535.2472570059
 21
141.0318558657
  0
LINE
  5
366
100
AcDbEntity
  8
KONSTRUKTIONSELEMENTE
100
AcDbLine
 62
7
  6
CONTINUOUS
 10
531.2876008642
 20
124.9765966657
 11
532.2686285728
 21
128.6378419177
  0
LINE
  5
367
100
AcDbEntity
  8
0
100
AcDbLine
 62
7
  6
CONTINUOUS
 10
538.7598897632
 20
139.1664634284
 11
538.6968771353
 21
138.9312970996
  0
LINE
  5
368
100
AcDbEntity
  8
0
100
AcDbLine
 62
7
  6
CONTINUOUS
 10
539.2468251313
 20
140.7163263511
 11
539.1838125034
 21
140.4811600223
  0
LINE
  5
369
100
AcDbEntity
  8
0
100
AcDbLine
 62
7
  6
CONTINUOUS
 10
539.031133664
 20
138.8417333327
 11
539.0941462919
 21
139.0768996615
  0
LINE
  5
36A
100
AcDbEntity
  8
0
100
AcDbLine
 62
7
  6
CONTINUOUS
 10
539.5390740064
 20
140.4699848267
 11
539.581082425
 21
140.6267623792
  0
LINE
  5
36B
100
AcDbEntity
  8
0
100
AcDbLine
 62
7
  6
CONTINUOUS
 10
541.185516211
 20
140.1968556419
 11
541.1435077924
 21
140.0400780894
  0
LINE
  5
36C
100
AcDbEntity
  8
0
100
AcDbLine
 62
7
  6
CONTINUOUS
 10
540.8322831484
 20
138.6111672944
 11
540.7692705205
 21
138.3760009656
  0
LINE
  5
36D
100
AcDbEntity
  8
0
100
AcDbLine
 62
7
  6
CONTINUOUS
 10
541.4567601118
 20
139.8721255462
 11
541.5197727397
 21
140.107291875
  0
LINE
  5
36E
100
AcDbEntity
  8
0
100
AcDbLine
 62
7
  6
CONTINUOUS
 10
541.1035278143
 20
138.2864369937
 11
541.1665404422
 21
138.5216033225
  0
LINE
  5
36F
100
AcDbEntity
  8
RUNDUNGEN
100
AcDbLine
 62
7
  6
CONTINUOUS
 10
515.7974320767
 20
32.6110135439
 11
514.6993558654
 21
28.5129373325
  0
LINE
  5
370
100
AcDbEntity
  8
RUNDUNGEN
100
AcDbLine
 62
7
  6
CONTINUOUS
 10
539.8709574593
 20
114.3408564483
 11
546.4066042225
 21
138.7322222286
  0
LINE
  5
371
100
AcDbEntity
  8
0
100
AcDbLine
 62
7
  6
CONTINUOUS
 10
547.2271338675
 20
135.2236570744
 11
549.211167062
 21
142.6281697603
  0
LINE
  5
372
100
AcDbEntity
  8
0
100
AcDbLine
 62
7
  6
CONTINUOUS
 10
513.5328610216
 20
145.5899580584
 11
513.7146379004
 21
145.9613352765
  0
LINE
  5
373
100
AcDbEntity
  8
0
100
AcDbLine
 62
7
  6
CONTINUOUS
 10
517.2171339453
 20
144.6027601038
 11
517.3989103848
 21
144.9741374396
  0
LINE
  5
374
100
AcDbEntity
  8
0
100
AcDbLine
 62
7
  6
CONTINUOUS
 10
513.2541037849
 20
146.0847350208
 11
513.0933311154
 21
145.791746579
  0
LINE
  5
375
100
AcDbEntity
  8
0
100
AcDbLine
 62
7
  6
CONTINUOUS
 10
636.0449566939
 20
182.9641692574
 11
643.4269569454
 21
170.1781697603
  0
LINE
  5
376
100
AcDbEntity
  8
0
100
AcDbLine
 62
7
  6
CONTINUOUS
 10
613.6325233947
 20
124.9765966657
 11
612.6514956861
 21
128.6378419177
  0
LINE
  5
377
100
AcDbEntity
  8
0
100
AcDbLine
 62
7
  6
CONTINUOUS
 10
606.2130530896
 20
164.0890199515
 11
579.5546914441
 21
263.5793800593
  0
LINE
  5
378
100
AcDbEntity
  8
0
100
AcDbLine
 62
7
  6
CONTINUOUS
 10
622.897955605
 20
117.2749292655
 11
617.6627425402
 21
136.8130104119
  0
LINE
  5
379
100
AcDbEntity
  8
0
100
AcDbLine
 62
7
  6
CONTINUOUS
 10
588.3269569454
 20
155.4141692574
 11
588.3269569454
 21
170.1781697603
  0
LINE
  5
37A
100
AcDbEntity
  8
RUNDUNGEN
100
AcDbLine
 62
7
  6
CONTINUOUS
 10
521.8065171264
 20
29.5367824424
 11
523.954867518
 21
37.5545352562
  0
LINE
  5
37B
100
AcDbEntity
  8
RUNDUNGEN
100
AcDbLine
 62
7
  6
CONTINUOUS
 10
543.2078913574
 20
76.0441078642
 11
544.1229548669
 21
79.4591713737
  0
LINE
  5
37C
100
AcDbEntity
  8
0
100
AcDbLine
 62
7
  6
CONTINUOUS
 10
532.9169457907
 20
142.4964294812
 11
532.7450731501
 21
142.1223981951
  0
LINE
  5
37D
100
AcDbEntity
  8
0
100
AcDbLine
 62
7
  6
CONTINUOUS
 10
533.1461815966
 20
142.0149215108
 11
533.2970499691
 21
142.310563801
  0
LINE
  5
37E
100
AcDbEntity
  8
0
100
AcDbLine
 62
7
  6
CONTINUOUS
 10
534.7813258324
 20
139.5603816644
 11
534.932193837
 21
139.856024112
  0
LINE
  5
37F
100
AcDbEntity
  8
0
100
AcDbLine
 62
7
  6
CONTINUOUS
 10
516.9383762694
 20
145.0975371839
 11
516.7776040391
 21
144.8045486244
  0
LINE
  5
380
100
AcDbEntity
  8
0
100
AcDbLine
 62
7
  6
CONTINUOUS
 10
510.1571692868
 20
148.3428424684
 11
510.0174010462
 21
148.128242744
  0
LINE
  5
381
100
AcDbEntity
  8
0
100
AcDbLine
 62
7
  6
CONTINUOUS
 10
510.4569309524
 20
147.9264542234
 11
510.596699193
 21
148.1410539478
  0
LINE
  5
382
100
AcDbEntity
  8
0
100
AcDbLine
 62
7
  6
CONTINUOUS
 10
632.5572138679
 20
119.8631197165
 11
627.3220008696
 21
139.4012006144
  0
LINE
  5
383
100
AcDbEntity
  8
0
100
AcDbLine
 62
7
  6
CONTINUOUS
 10
623.5997179629
 20
168.7477627634
 11
596.9413563173
 21
268.2381228711
  0
LINE
  5
384
100
AcDbEntity
  8
0
100
AcDbLine
 62
7
  6
CONTINUOUS
 10
636.730479839
 20
131.1656754418
 11
635.7494521304
 21
134.8269206938
  0
LINE
  5
385
100
AcDbEntity
  8
0
100
AcDbLine
 62
7
  6
CONTINUOUS
 10
547.2271338675
 20
135.2236570744
 11
543.6778781652
 21
128.5484779428
  0
LINE
  5
386
100
AcDbEntity
  8
0
100
AcDbLine
 62
7
  6
CONTINUOUS
 10
549.211167062
 20
142.6281697603
 11
556.5931673135
 21
155.4141692574
  0
LINE
  5
387
100
AcDbEntity
  8
0
100
AcDbLine
 62
7
  6
CONTINUOUS
 10
531.7843104525
 20
142.5478674584
 11
531.6544464806
 21
142.3306138933
  0
LINE
  5
388
100
AcDbEntity
  8
0
100
AcDbLine
 62
7
  6
CONTINUOUS
 10
532.0345505265
 20
142.144748484
 11
532.1644146897
 21
142.3620019979
  0
LINE
  5
389
100
AcDbEntity
  8
0
100
AcDbLine
 62
7
  6
CONTINUOUS
 10
534.5520895998
 20
140.0418895725
 11
534.4222254367
 21
139.8246360586
  0
LINE
  5
38A
100
AcDbEntity
  8
0
100
AcDbLine
 62
7
  6
CONTINUOUS
 10
539.4855493071
 20
141.0724448223
 11
539.2468251313
 21
140.7163263511
  0
LINE
  5
38B
100
AcDbEntity
  8
0
100
AcDbLine
 62
7
  6
CONTINUOUS
 10
538.9986131446
 20
139.5225819948
 11
538.7598897632
 21
139.1664634284
  0
LINE
  5
38C
100
AcDbEntity
  8
0
100
AcDbLine
 62
7
  6
CONTINUOUS
 10
513.2953329443
 20
145.3175361073
 11
513.5328610216
 21
145.5899580584
  0
LINE
  5
38D
100
AcDbEntity
  8
0
100
AcDbLine
 62
7
  6
CONTINUOUS
 10
516.9796054287
 20
144.3303382704
 11
517.2171339453
 21
144.6027601038
  0
LINE
  5
38E
100
AcDbEntity
  8
0
100
AcDbLine
 62
7
  6
CONTINUOUS
 10
649.4817548088
 20
126.246532523
 11
642.9461080457
 21
150.6378983033
  0
LINE
  5
38F
100
AcDbEntity
  8
0
100
AcDbLine
 62
7
  6
CONTINUOUS
 10
645.4109901399
 20
148.0096565714
 11
643.4269569454
 21
155.4141692574
  0
LINE
  5
390
100
AcDbEntity
  8
0
100
AcDbLine
 62
7
  6
CONTINUOUS
 10
645.4109901399
 20
148.0096565714
 11
645.674834103
 21
140.4541540175
  0
LINE
  5
391
100
AcDbEntity
  8
0
100
AcDbLine
 62
7
  6
CONTINUOUS
 10
588.3269569454
 20
170.1781697603
 11
595.7089571969
 21
182.9641692574
  0
LINE
  5
392
100
AcDbEntity
  8
0
100
AcDbLine
 62
7
  6
CONTINUOUS
 10
540.8648036826
 20
137.9303186873
 11
541.1035278143
 21
138.2864369937
  0
LINE
  5
393
100
AcDbEntity
  8
0
100
AcDbLine
 62
7
  6
CONTINUOUS
 10
533.1346653159
 20
142.774159059
 11
532.9169457907
 21
142.4964294812
  0
LINE
  5
394
100
AcDbEntity
  8
0
100
AcDbLine
 62
7
  6
CONTINUOUS
 10
541.2390409692
 20
139.5943958659
 11
541.4567601118
 21
139.8721255462
  0
LINE
  5
395
100
AcDbEntity
  8
0
100
AcDbLine
 62
7
  6
CONTINUOUS
 10
533.2970499691
 20
142.310563801
 11
533.4937653438
 21
142.5099048221
  0
LINE
  5
396
100
AcDbEntity
  8
0
100
AcDbLine
 62
7
  6
CONTINUOUS
 10
513.0933311154
 20
145.791746579
 11
512.8768072621
 21
145.5977134591
  0
LINE
  5
397
100
AcDbEntity
  8
0
100
AcDbLine
 62
7
  6
CONTINUOUS
 10
516.7776040391
 20
144.8045486244
 11
516.5610797466
 21
144.6105156222
  0
LINE
  5
398
100
AcDbEntity
  8
0
100
AcDbLine
 62
7
  6
CONTINUOUS
 10
510.1426470575
 20
147.6745989905
 11
510.4569309524
 21
147.9264542234
  0
LINE
  5
399
100
AcDbEntity
  8
0
100
AcDbLine
 62
7
  6
CONTINUOUS
 10
521.661167062
 20
190.3461695088
 11
508.875167565
 21
182.9641692574
  0
LINE
  5
39A
100
AcDbEntity
  8
0
100
AcDbLine
 62
7
  6
CONTINUOUS
 10
642.4600621294
 20
324.8302268688
 11
642.4600621294
 21
444.8302268688
  0
LINE
  5
39B
100
AcDbEntity
  8
0
100
AcDbLine
 62
7
  6
CONTINUOUS
 10
643.4269569454
 20
170.1781697603
 11
643.4269569454
 21
155.4141692574
  0
LINE
  5
39C
100
AcDbEntity
  8
0
100
AcDbLine
 62
7
  6
CONTINUOUS
 10
539.581082425
 20
140.6267623792
 11
539.7777974172
 21
140.8261035028
  0
LINE
  5
39D
100
AcDbEntity
  8
0
100
AcDbLine
 62
7
  6
CONTINUOUS
 10
541.1435077924
 20
140.0400780894
 11
540.946792094
 21
139.8407373904
  0
LINE
  5
39E
100
AcDbEntity
  8
0
100
AcDbLine
 62
7
  6
CONTINUOUS
 10
531.7499796574
 20
141.8849316698
 11
532.0345505265
 21
142.144748484
  0
LINE
  5
39F
100
AcDbEntity
  8
0
100
AcDbLine
 62
7
  6
CONTINUOUS
 10
539.0941462919
 20
139.0768996615
 11
539.3787173818
 21
139.3367165342
  0
LINE
  5
3A0
100
AcDbEntity
  8
0
100
AcDbLine
 62
7
  6
CONTINUOUS
 10
540.7692705205
 20
138.3760009656
 11
540.4846994454
 21
138.1161841478
  0
LINE
  5
3A1
100
AcDbEntity
  8
0
100
AcDbLine
 62
7
  6
CONTINUOUS
 10
510.0174010462
 20
148.128242744
 11
509.8218811826
 21
148.0125984592
  0
LINE
  5
3A2
100
AcDbEntity
  8
0
100
AcDbLine
 62
7
  6
CONTINUOUS
 10
512.9042932097
 20
145.0862475103
 11
513.2953329443
 21
145.3175361073
  0
LINE
  5
3A3
100
AcDbEntity
  8
0
100
AcDbLine
 62
7
  6
CONTINUOUS
 10
664.4600621294
 20
324.8302268688
 11
664.4600621294
 21
444.8302268688
  0
LINE
  5
3A4
100
AcDbEntity
  8
RUNDUNGEN
100
AcDbLine
 62
7
  6
CONTINUOUS
 10
534.753083653
 20
109.5023930163
 11
539.8709574593
 21
114.3408564483
  0
LINE
  5
3A5
100
AcDbEntity
  8
0
100
AcDbLine
 62
7
  6
CONTINUOUS
 10
531.6544464806
 20
142.3306138933
 11
531.4787351828
 21
142.2096619193
  0
LINE
  5
3A6
100
AcDbEntity
  8
0
100
AcDbLine
 62
7
  6
CONTINUOUS
 10
533.4860879116
 20
143.016063007
 11
533.1346653159
 21
142.774159059
  0
LINE
  5
3A7
100
AcDbEntity
  8
0
100
AcDbLine
 62
7
  6
CONTINUOUS
 10
534.4299032294
 20
139.3184776889
 11
534.7813258324
 21
139.5603816644
  0
LINE
  5
3A8
100
AcDbEntity
  8
0
100
AcDbLine
 62
7
  6
CONTINUOUS
 10
539.7491161582
 20
141.2538728089
 11
539.4855493071
 21
141.0724448223
  0
LINE
  5
3A9
100
AcDbEntity
  8
0
100
AcDbLine
 62
7
  6
CONTINUOUS
 10
540.9754741181
 20
139.4129678793
 11
541.2390409692
 21
139.5943958659
  0
LINE
  5
3AA
100
AcDbEntity
  8
0
100
AcDbLine
 62
7
  6
CONTINUOUS
 10
540.6012368241
 20
137.7488906732
 11
540.8648036826
 21
137.9303186873
  0
LINE
  5
3AB
100
AcDbEntity
  8
0
100
AcDbLine
 62
7
  6
CONTINUOUS
 10
516.5885661334
 20
144.0990495557
 11
516.9796054287
 21
144.3303382704
  0
LINE
  5
3AC
100
AcDbEntity
  8
0
100
AcDbLine
 62
7
  6
CONTINUOUS
 10
595.7089571969
 20
182.9641692574
 11
600.4257774444
 21
185.687426697
  0
LINE
  5
3AD
100
AcDbEntity
  8
0
100
AcDbLine
 62
7
  6
CONTINUOUS
 10
512.8768072621
 20
145.5977134591
 11
512.6045317711
 21
145.5026357238
  0
LINE
  5
3AE
100
AcDbEntity
  8
0
100
AcDbLine
 62
7
  6
CONTINUOUS
 10
647.4687777952
 20
119.4973633725
 11
649.4817548088
 21
126.246532523
  0
LINE
  5
3AF
100
AcDbEntity
  8
0
100
AcDbLine
 62
7
  6
CONTINUOUS
 10
539.7777974172
 20
140.8261035028
 11
540.1082161861
 21
140.9896185721
  0
LINE
  5
3B0
100
AcDbEntity
  8
0
100
AcDbLine
 62
7
  6
CONTINUOUS
 10
539.3290319135
 20
139.686097064
 11
538.9986131446
 21
139.5225819948
  0
LINE
  5
3B1
100
AcDbEntity
  8
0
100
AcDbLine
 62
7
  6
CONTINUOUS
 10
540.946792094
 20
139.8407373904
 11
540.6163740902
 21
139.6772221161
  0
LINE
  5
3B2
100
AcDbEntity
  8
0
100
AcDbLine
 62
7
  6
CONTINUOUS
 10
533.4937653438
 20
142.5099048221
 11
533.7363279856
 21
142.6129440325
  0
LINE
  5
3B3
100
AcDbEntity
  8
0
100
AcDbLine
 62
7
  6
CONTINUOUS
 10
534.4222254367
 20
139.8246360586
 11
534.1796627801
 21
139.7215967934
  0
LINE
  5
3B4
100
AcDbEntity
  8
0
100
AcDbLine
 62
7
  6
CONTINUOUS
 10
540.1463853148
 20
141.3994753708
 11
539.7491161582
 21
141.2538728089
  0
LINE
  5
3B5
100
AcDbEntity
  8
0
100
AcDbLine
 62
7
  6
CONTINUOUS
 10
540.2039668969
 20
137.6032882957
 11
540.6012368241
 21
137.7488906732
  0
LINE
  5
3B6
100
AcDbEntity
  8
0
100
AcDbLine
 62
7
  6
CONTINUOUS
 10
516.5610797466
 20
144.6105156222
 11
516.2888042556
 21
144.5154378869
  0
LINE
  5
3B7
100
AcDbEntity
  8
RUNDUNGEN
100
AcDbLine
 62
7
  6
CONTINUOUS
 10
486.9094584929
 20
61.9057182169
 11
471.9475770098
 21
53.1693951222
  0
LINE
  5
3B8
100
AcDbEntity
  8
RUNDUNGEN
100
AcDbLine
 62
7
  6
CONTINUOUS
 10
485.9943949835
 20
58.4906547074
 11
471.0325135003
 21
49.7543316127
  0
LINE
  5
3B9
100
AcDbEntity
  8
RUNDUNGEN
100
AcDbLine
 62
7
  6
CONTINUOUS
 10
528.5083834732
 20
79.7668316419
 11
537.1991898036
 21
84.8414402158
  0
LINE
  5
3BA
100
AcDbEntity
  8
RUNDUNGEN
100
AcDbLine
 62
7
  6
CONTINUOUS
 10
527.5933199637
 20
76.3517681324
 11
536.2841262941
 21
81.4263767063
  0
LINE
  5
3BB
100
AcDbEntity
  8
RUNDUNGEN
100
AcDbLine
 62
7
  6
CONTINUOUS
 10
488.7586265972
 20
44.0328977232
 11
493.7634394261
 21
46.9552348605
  0
LINE
  5
3BC
100
AcDbEntity
  8
RUNDUNGEN
100
AcDbLine
 62
7
  6
CONTINUOUS
 10
516.6910629129
 20
60.3427975678
 11
542.8723023761
 21
75.6301641486
  0
LINE
  5
3BD
100
AcDbEntity
  8
0
100
AcDbLine
 62
7
  6
CONTINUOUS
 10
359.3897565361
 20
54.3965697351
 11
359.437899975
 21
54.4018305532
  0
LINE
  5
3BE
100
AcDbEntity
  8
0
100
AcDbLine
 62
7
  6
CONTINUOUS
 10
336.5419941422
 20
73.3987775193
 11
336.5065430484
 21
73.3904332974
  0
LINE
  5
3BF
100
AcDbEntity
  8
0
100
AcDbLine
 62
7
  6
CONTINUOUS
 10
335.8649562672
 20
74.0265959382
 11
335.900407361
 21
74.0349401601
  0
LINE
  5
3C0
100
AcDbEntity
  8
0
100
AcDbLine
 62
7
  6
CONTINUOUS
 10
345.3089234361
 20
67.997610082
 11
345.357066875
 21
68.0028709001
  0
LINE
  5
3C1
100
AcDbEntity
  8
0
100
AcDbLine
 62
7
  6
CONTINUOUS
 10
336.0557758406
 20
73.3617133857
 11
336.1124486025
 21
73.3682612296
  0
LINE
  5
3C2
100
AcDbEntity
  8
0
100
AcDbLine
 62
7
  6
CONTINUOUS
 10
335.4300642954
 20
73.770377939
 11
335.6567553429
 21
73.7965693143
  0
LINE
  5
3C3
100
AcDbEntity
  8
0
100
AcDbLine
 62
7
  6
CONTINUOUS
 10
335.7134281048
 20
73.8031171582
 11
335.8078826989
 21
73.8140302302
  0
LINE
  5
3C4
100
AcDbEntity
  8
0
100
AcDbLine
 62
7
  6
CONTINUOUS
 10
335.6368738913
 20
74.0003970816
 11
335.5424192972
 21
73.9894840096
  0
LINE
  5
3C5
100
AcDbEntity
  8
0
100
AcDbLine
 62
7
  6
CONTINUOUS
 10
335.4857465353
 20
73.9829361658
 11
335.3251737078
 21
73.9643839413
  0
LINE
  5
3C6
100
AcDbEntity
  8
0
100
AcDbLine
 62
7
  6
CONTINUOUS
 10
334.772879763
 20
74.8281347322
 11
334.7162070011
 21
74.8215868883
  0
LINE
  5
3C7
100
AcDbEntity
  8
0
100
AcDbLine
 62
7
  6
CONTINUOUS
 10
330.8403151291
 20
78.8846385801
 11
330.7801358357
 21
78.8780625525
  0
LINE
  5
3C8
100
AcDbEntity
  8
0
100
AcDbLine
 62
7
  6
CONTINUOUS
 10
329.9978048536
 20
79.8278505367
 11
330.0579841469
 21
79.8344265335
  0
LINE
  5
3C9
100
AcDbEntity
  8
0
100
AcDbLine
 62
7
  6
CONTINUOUS
 10
330.81172999
 20
82.4710116052
 11
330.7515506967
 21
82.4644355775
  0
LINE
  5
3CA
100
AcDbEntity
  8
0
100
AcDbLine
 62
7
  6
CONTINUOUS
 10
330.81172999
 20
82.816103583
 11
330.7515506967
 21
82.8095275554
  0
LINE
  5
3CB
100
AcDbEntity
  8
0
100
AcDbLine
 62
7
  6
CONTINUOUS
 10
330.81172999
 20
83.4415829009
 11
330.7515506967
 21
83.4350068733
  0
LINE
  5
3CC
100
AcDbEntity
  8
0
100
AcDbLine
 62
7
  6
CONTINUOUS
 10
330.81172999
 20
83.7866751256
 11
330.7515506967
 21
83.780099098
  0
LINE
  5
3CD
100
AcDbEntity
  8
0
100
AcDbLine
 62
7
  6
CONTINUOUS
 10
336.6351381912
 20
73.2376371953
 11
336.6858817468
 21
73.2404276951
  0
LINE
  5
3CE
100
AcDbEntity
  8
0
100
AcDbLine
 62
7
  6
CONTINUOUS
 10
335.7718122363
 20
74.1877362408
 11
335.7210686784
 21
74.1849457437
  0
LINE
  5
3CF
100
AcDbEntity
  8
0
100
AcDbLine
 62
7
  6
CONTINUOUS
 10
331.0208530092
 20
78.5377063439
 11
331.1412115959
 21
78.5077218865
  0
LINE
  5
3D0
100
AcDbEntity
  8
0
100
AcDbLine
 62
7
  6
CONTINUOUS
 10
330.7380102967
 20
78.7605710739
 11
330.7172304234
 21
78.765747884
  0
LINE
  5
3D1
100
AcDbEntity
  8
0
100
AcDbLine
 62
7
  6
CONTINUOUS
 10
331.0208530092
 20
79.0337761546
 11
330.9004944224
 21
79.0637606275
  0
LINE
  5
3D2
100
AcDbEntity
  8
0
100
AcDbLine
 62
7
  6
CONTINUOUS
 10
332.3162124503
 20
79.9609486663
 11
332.1958538636
 21
79.9909331237
  0
LINE
  5
3D3
100
AcDbEntity
  8
0
100
AcDbLine
 62
7
  6
CONTINUOUS
 10
331.1728057502
 20
80.9359852054
 11
331.2329850435
 21
80.9209929844
  0
LINE
  5
3D4
100
AcDbEntity
  8
0
100
AcDbLine
 62
7
  6
CONTINUOUS
 10
331.0103216244
 20
81.0641607475
 11
330.9717908621
 21
81.0737597487
  0
LINE
  5
3D5
100
AcDbEntity
  8
0
100
AcDbLine
 62
7
  6
CONTINUOUS
 10
331.4135229236
 20
81.0916988384
 11
331.5338815103
 21
81.0617143655
  0
LINE
  5
3D6
100
AcDbEntity
  8
0
100
AcDbLine
 62
7
  6
CONTINUOUS
 10
331.2931643369
 20
81.3373658283
 11
331.2329850435
 21
81.3523580338
  0
LINE
  5
3D7
100
AcDbEntity
  8
0
100
AcDbLine
 62
7
  6
CONTINUOUS
 10
350.6044451952
 20
59.4510700426
 11
350.6714605985
 21
59.4343563152
  0
LINE
  5
3D8
100
AcDbEntity
  8
0
100
AcDbLine
 62
7
  6
CONTINUOUS
 10
350.5508843238
 20
59.5854789385
 11
350.4570627439
 21
59.6088781608
  0
LINE
  5
3D9
100
AcDbEntity
  8
0
100
AcDbLine
 62
7
  6
CONTINUOUS
 10
349.9211453107
 20
60.226739622
 11
350.0149668906
 21
60.2033403997
  0
LINE
  5
3DA
100
AcDbEntity
  8
0
100
AcDbLine
 62
7
  6
CONTINUOUS
 10
349.867584458
 20
60.3611484962
 11
349.8005690548
 21
60.3778622237
  0
LINE
  5
3DB
100
AcDbEntity
  8
0
100
AcDbLine
 62
7
  6
CONTINUOUS
 10
349.8140338381
 20
60.519765032
 11
349.8810492222
 21
60.5030513093
  0
LINE
  5
3DC
100
AcDbEntity
  8
0
100
AcDbLine
 62
7
  6
CONTINUOUS
 10
349.4656154652
 20
60.7519218954
 11
349.5460339568
 21
60.7318654206
  0
LINE
  5
3DD
100
AcDbEntity
  8
0
100
AcDbLine
 62
7
  6
CONTINUOUS
 10
349.3986515242
 20
60.8896735171
 11
349.3450392093
 21
60.9030444971
  0
LINE
  5
3DE
100
AcDbEntity
  8
0
100
AcDbLine
 62
7
  6
CONTINUOUS
 10
351.3026545932
 20
59.2742699743
 11
351.2309322168
 21
59.2951794772
  0
LINE
  5
3DF
100
AcDbEntity
  8
0
100
AcDbLine
 62
7
  6
CONTINUOUS
 10
350.3067969866
 20
60.4015847464
 11
350.3785192546
 21
60.380675301
  0
LINE
  5
3E0
100
AcDbEntity
  8
0
100
AcDbLine
 62
7
  6
CONTINUOUS
 10
352.745825708
 20
58.9333623741
 11
356.0118120317
 21
57.8492141965
  0
LINE
  5
3E1
100
AcDbEntity
  8
0
100
AcDbLine
 62
7
  6
CONTINUOUS
 10
355.7289693192
 20
58.093647206
 11
352.2143640276
 21
59.2603247557
  0
LINE
  5
3E2
100
AcDbEntity
  8
0
100
AcDbLine
 62
7
  6
CONTINUOUS
 10
356.0118120317
 20
58.3668522867
 11
351.9293291271
 21
59.7220375087
  0
LINE
  5
3E3
100
AcDbEntity
  8
0
100
AcDbLine
 62
7
  6
CONTINUOUS
 10
351.3461231585
 20
59.1484908513
 11
351.4367975584
 21
59.1175319522
  0
LINE
  5
3E4
100
AcDbEntity
  8
0
100
AcDbLine
 62
7
  6
CONTINUOUS
 10
350.263328329
 20
60.5273639064
 11
350.1726539271
 21
60.5583228081
  0
LINE
  5
3E5
100
AcDbEntity
  8
0
100
AcDbLine
 62
7
  6
CONTINUOUS
 10
209.7336015449
 20
109.5023930163
 11
208.1336015449
 21
109.5023930163
  0
LINE
  5
3E6
100
AcDbEntity
  8
0
100
AcDbLine
 62
7
  6
CONTINUOUS
 10
208.1336015449
 20
119.4973633725
 11
209.7336015449
 21
119.4973633725
  0
LINE
  5
3E7
100
AcDbEntity
  8
0
100
AcDbLine
 62
7
  6
CONTINUOUS
 10
330.9922678701
 20
82.1887840531
 11
331.0524471635
 21
82.1737919093
  0
LINE
  5
3E8
100
AcDbEntity
  8
0
100
AcDbLine
 62
7
  6
CONTINUOUS
 10
330.9922678701
 20
82.5338761544
 11
331.0524471635
 21
82.5188838871
  0
LINE
  5
3E9
100
AcDbEntity
  8
0
100
AcDbLine
 62
7
  6
CONTINUOUS
 10
330.9922678701
 20
83.1593555957
 11
331.0524471635
 21
83.144363205
  0
LINE
  5
3EA
100
AcDbEntity
  8
0
100
AcDbLine
 62
7
  6
CONTINUOUS
 10
330.9922678701
 20
83.5044475735
 11
331.0524471635
 21
83.4894554297
  0
LINE
  5
3EB
100
AcDbEntity
  8
0
100
AcDbLine
 62
7
  6
CONTINUOUS
 10
336.5433830568
 20
73.2709596708
 11
336.6351381912
 21
73.2376371953
  0
LINE
  5
3EC
100
AcDbEntity
  8
0
100
AcDbLine
 62
7
  6
CONTINUOUS
 10
336.5065430484
 20
73.3904332974
 11
336.414787914
 21
73.4237557729
  0
LINE
  5
3ED
100
AcDbEntity
  8
0
100
AcDbLine
 62
7
  6
CONTINUOUS
 10
336.0971220198
 20
73.6876540206
 11
336.0053668854
 21
73.7209764961
  0
LINE
  5
3EE
100
AcDbEntity
  8
0
100
AcDbLine
 62
7
  6
CONTINUOUS
 10
335.7738956249
 20
73.9960094843
 11
335.8809433108
 21
73.9571332522
  0
LINE
  5
3EF
100
AcDbEntity
  8
0
100
AcDbLine
 62
7
  6
CONTINUOUS
 10
335.900407361
 20
74.0349401601
 11
335.9921624954
 21
74.0016176846
  0
LINE
  5
3F0
100
AcDbEntity
  8
0
100
AcDbLine
 62
7
  6
CONTINUOUS
 10
335.8635673707
 20
74.1544137653
 11
335.7718122363
 21
74.1877362408
  0
LINE
  5
3F1
100
AcDbEntity
  8
0
100
AcDbLine
 62
7
  6
CONTINUOUS
 10
335.3102586117
 20
74.6099843899
 11
335.7537418195
 21
74.4489257371
  0
LINE
  5
3F2
100
AcDbEntity
  8
0
100
AcDbLine
 62
7
  6
CONTINUOUS
 10
335.6251466948
 20
74.6017218179
 11
335.1052009041
 21
74.7905491897
  0
LINE
  5
3F3
100
AcDbEntity
  8
0
100
AcDbLine
 62
7
  6
CONTINUOUS
 10
332.2244390237
 20
77.2888585107
 11
332.4049769196
 21
77.2223135607
  0
LINE
  5
3F4
100
AcDbEntity
  8
0
100
AcDbLine
 62
7
  6
CONTINUOUS
 10
332.4365710581
 20
79.6937133997
 11
332.6171089539
 21
79.6271684497
  0
LINE
  5
3F5
100
AcDbEntity
  8
0
100
AcDbLine
 62
7
  6
CONTINUOUS
 10
330.0895783012
 20
82.4999406642
 11
329.9090404212
 21
82.5664855759
  0
LINE
  5
3F6
100
AcDbEntity
  8
0
100
AcDbLine
 62
7
  6
CONTINUOUS
 10
359.2934696583
 20
54.4378118958
 11
359.3897565361
 21
54.3965697351
  0
LINE
  5
3F7
100
AcDbEntity
  8
0
100
AcDbLine
 62
7
  6
CONTINUOUS
 10
359.2453262067
 20
54.6050971159
 11
359.1490393374
 21
54.6463392808
  0
LINE
  5
3F8
100
AcDbEntity
  8
0
100
AcDbLine
 62
7
  6
CONTINUOUS
 10
345.2126365583
 20
68.0388522427
 11
345.3089234361
 21
67.997610082
  0
LINE
  5
3F9
100
AcDbEntity
  8
0
100
AcDbLine
 62
7
  6
CONTINUOUS
 10
345.1644931068
 20
68.2061374628
 11
345.0682062374
 21
68.2473796276
  0
LINE
  5
3FA
100
AcDbEntity
  8
0
100
AcDbLine
 62
7
  6
CONTINUOUS
 10
330.7801358357
 20
78.8780625525
 11
330.659777249
 21
78.9296152431
  0
LINE
  5
3FB
100
AcDbEntity
  8
0
100
AcDbLine
 62
7
  6
CONTINUOUS
 10
331.2615701826
 20
78.6934199924
 11
331.3819287693
 21
78.6418672863
  0
LINE
  5
3FC
100
AcDbEntity
  8
0
100
AcDbLine
 62
7
  6
CONTINUOUS
 10
350.5106339112
 20
59.498676845
 11
350.6044451952
 21
59.4510700426
  0
LINE
  5
3FD
100
AcDbEntity
  8
0
100
AcDbLine
 62
7
  6
CONTINUOUS
 10
349.9613957493
 20
60.3135416942
 11
349.867584458
 21
60.3611484962
  0
LINE
  5
3FE
100
AcDbEntity
  8
0
100
AcDbLine
 62
7
  6
CONTINUOUS
 10
349.4924627963
 20
60.8420667198
 11
349.3986515242
 21
60.8896735171
  0
LINE
  5
3FF
100
AcDbEntity
  8
0
100
AcDbLine
 62
7
  6
CONTINUOUS
 10
202.59272826
 20
126.246532523
 11
215.2744748299
 21
126.246532523
  0
LINE
  5
400
100
AcDbEntity
  8
RUNDUNGEN
100
AcDbLine
 62
7
  6
CONTINUOUS
 10
322.034292398
 20
90.3798556298
 11
323.6566115487
 21
89.6608642632
  0
LINE
  5
401
100
AcDbEntity
  8
RUNDUNGEN
100
AcDbLine
 62
7
  6
CONTINUOUS
 10
330.5019775002
 20
87.2343666225
 11
329.4477918456
 21
87.701568396
  0
LINE
  5
402
100
AcDbEntity
  8
0
100
AcDbLine
 62
7
  6
CONTINUOUS
 10
329.8774462669
 20
80.1166540238
 11
329.6969083868
 21
80.2047672303
  0
LINE
  5
403
100
AcDbEntity
  8
0
100
AcDbLine
 62
7
  6
CONTINUOUS
 10
331.1908595044
 20
80.976047541
 11
331.0103216244
 21
81.0641607475
  0
LINE
  5
404
100
AcDbEntity
  8
0
100
AcDbLine
 62
7
  6
CONTINUOUS
 10
331.0524471635
 20
81.1816521952
 11
330.8719092834
 21
81.2697653863
  0
LINE
  5
405
100
AcDbEntity
  8
0
100
AcDbLine
 62
7
  6
CONTINUOUS
 10
331.4737022169
 20
81.2492526218
 11
331.2931643369
 21
81.3373658283
  0
LINE
  5
406
100
AcDbEntity
  8
0
100
AcDbLine
 62
7
  6
CONTINUOUS
 10
330.2099368879
 20
82.2542736744
 11
330.390474768
 21
82.1661604679
  0
LINE
  5
407
100
AcDbEntity
  8
0
100
AcDbLine
 62
7
  6
CONTINUOUS
 10
336.4412014468
 20
73.3292876086
 11
336.5433830568
 21
73.2709596708
  0
LINE
  5
408
100
AcDbEntity
  8
0
100
AcDbLine
 62
7
  6
CONTINUOUS
 10
335.9657489784
 20
74.0960858301
 11
335.8635673707
 21
74.1544137653
  0
LINE
  5
409
100
AcDbEntity
  8
0
100
AcDbLine
 62
7
  6
CONTINUOUS
 10
336.1030779075
 20
74.9141991354
 11
335.757150792
 21
75.1217209581
  0
LINE
  5
40A
100
AcDbEntity
  8
0
100
AcDbLine
 62
7
  6
CONTINUOUS
 10
336.1521619867
 20
74.9616107152
 11
342.2232297986
 21
71.3195745698
  0
LINE
  5
40B
100
AcDbEntity
  8
0
100
AcDbLine
 62
7
  6
CONTINUOUS
 10
342.2232297986
 20
71.6855999736
 11
335.1521619867
 21
75.9275365415
  0
LINE
  5
40C
100
AcDbEntity
  8
0
100
AcDbLine
 62
7
  6
CONTINUOUS
 10
336.414787914
 20
73.4237557729
 11
336.3278987703
 21
73.4765299834
  0
LINE
  5
40D
100
AcDbEntity
  8
0
100
AcDbLine
 62
7
  6
CONTINUOUS
 10
335.9921624954
 20
74.0016176846
 11
336.0790516391
 21
73.9488434741
  0
LINE
  5
40E
100
AcDbEntity
  8
0
100
AcDbLine
 62
7
  6
CONTINUOUS
 10
332.0439011226
 20
77.5926542468
 11
331.8633632004
 21
77.7023357272
  0
LINE
  5
40F
100
AcDbEntity
  8
0
100
AcDbLine
 62
7
  6
CONTINUOUS
 10
330.7801358357
 20
78.6839482609
 11
331.0208530092
 21
78.5377063439
  0
LINE
  5
410
100
AcDbEntity
  8
0
100
AcDbLine
 62
7
  6
CONTINUOUS
 10
330.9787274701
 20
78.6143291954
 11
330.7380102967
 21
78.7605710739
  0
LINE
  5
411
100
AcDbEntity
  8
0
100
AcDbLine
 62
7
  6
CONTINUOUS
 10
350.4570627439
 20
59.6088781608
 11
350.3900576293
 21
59.649799468
  0
LINE
  5
412
100
AcDbEntity
  8
0
100
AcDbLine
 62
7
  6
CONTINUOUS
 10
350.0149668906
 20
60.2033403997
 11
350.081971986
 21
60.1624190973
  0
LINE
  5
413
100
AcDbEntity
  8
0
100
AcDbLine
 62
7
  6
CONTINUOUS
 10
349.5460339568
 20
60.7318654206
 11
349.6130390714
 21
60.6909441133
  0
LINE
  5
414
100
AcDbEntity
  8
0
100
AcDbLine
 62
7
  6
CONTINUOUS
 10
207.1836015449
 20
140.4541540175
 11
210.6836015449
 21
140.4541540175
  0
LINE
  5
415
100
AcDbEntity
  8
0
100
AcDbLine
 62
7
  6
CONTINUOUS
 10
210.6836015449
 20
148.0096565714
 11
207.1836015449
 21
148.0096565714
  0
LINE
  5
416
100
AcDbEntity
  8
0
100
AcDbLine
 62
7
  6
CONTINUOUS
 10
206.2639157801
 20
155.4141692574
 11
211.6032873097
 21
155.4141692574
  0
LINE
  5
417
100
AcDbEntity
  8
0
100
AcDbLine
 62
7
  6
CONTINUOUS
 10
331.2615701826
 20
78.8875342762
 11
331.0208530092
 21
79.0337761546
  0
LINE
  5
418
100
AcDbEntity
  8
0
100
AcDbLine
 62
7
  6
CONTINUOUS
 10
330.0579841469
 20
79.8344265335
 11
330.1783427336
 21
79.7613055942
  0
LINE
  5
419
100
AcDbEntity
  8
0
100
AcDbLine
 62
7
  6
CONTINUOUS
 10
332.2560331569
 20
79.8033948637
 11
332.4365710581
 21
79.6937133997
  0
LINE
  5
41A
100
AcDbEntity
  8
0
100
AcDbLine
 62
7
  6
CONTINUOUS
 10
330.9922678701
 20
81.0456666451
 11
331.1728057502
 21
80.9359852054
  0
LINE
  5
41B
100
AcDbEntity
  8
0
100
AcDbLine
 62
7
  6
CONTINUOUS
 10
330.2701161813
 20
82.3902592245
 11
330.0895783012
 21
82.4999406642
  0
LINE
  5
41C
100
AcDbEntity
  8
0
100
AcDbLine
 62
7
  6
CONTINUOUS
 10
331.0524471635
 20
82.1737919093
 11
331.1126264568
 21
82.1372313471
  0
LINE
  5
41D
100
AcDbEntity
  8
0
100
AcDbLine
 62
7
  6
CONTINUOUS
 10
330.9922678701
 20
82.3613301655
 11
330.81172999
 21
82.4710116052
  0
LINE
  5
41E
100
AcDbEntity
  8
0
100
AcDbLine
 62
7
  6
CONTINUOUS
 10
331.0524471635
 20
82.5188838871
 11
331.1126264568
 21
82.4823234484
  0
LINE
  5
41F
100
AcDbEntity
  8
0
100
AcDbLine
 62
7
  6
CONTINUOUS
 10
330.9320885767
 20
82.7429827055
 11
330.81172999
 21
82.816103583
  0
LINE
  5
420
100
AcDbEntity
  8
0
100
AcDbLine
 62
7
  6
CONTINUOUS
 10
331.0524471635
 20
83.144363205
 11
331.1126264568
 21
83.1078028896
  0
LINE
  5
421
100
AcDbEntity
  8
0
100
AcDbLine
 62
7
  6
CONTINUOUS
 10
330.9922678701
 20
83.3319014612
 11
330.81172999
 21
83.4415829009
  0
LINE
  5
422
100
AcDbEntity
  8
0
100
AcDbLine
 62
7
  6
CONTINUOUS
 10
331.0524471635
 20
83.4894554297
 11
331.1126264568
 21
83.4528948675
  0
LINE
  5
423
100
AcDbEntity
  8
0
100
AcDbLine
 62
7
  6
CONTINUOUS
 10
330.9320885767
 20
83.7135540012
 11
330.81172999
 21
83.7866751256
  0
LINE
  5
424
100
AcDbEntity
  8
0
100
AcDbLine
 62
7
  6
CONTINUOUS
 10
351.2093723843
 20
59.2381251977
 11
351.3461231585
 21
59.1484908513
  0
LINE
  5
425
100
AcDbEntity
  8
0
100
AcDbLine
 62
7
  6
CONTINUOUS
 10
350.4000791012
 20
60.4377295626
 11
350.263328329
 21
60.5273639064
  0
LINE
  5
426
100
AcDbEntity
  8
0
100
AcDbLine
 62
7
  6
CONTINUOUS
 10
351.2309322168
 20
59.2951794772
 11
351.1131335786
 21
59.3747643648
  0
LINE
  5
427
100
AcDbEntity
  8
0
100
AcDbLine
 62
7
  6
CONTINUOUS
 10
350.3785192546
 20
60.380675301
 11
350.4963180012
 21
60.301090356
  0
LINE
  5
428
100
AcDbEntity
  8
0
100
AcDbLine
 62
7
  6
CONTINUOUS
 10
330.1181634403
 20
79.9488438504
 11
329.8774462669
 21
80.1166540238
  0
LINE
  5
429
100
AcDbEntity
  8
0
100
AcDbLine
 62
7
  6
CONTINUOUS
 10
332.1958538636
 20
79.9909331237
 11
331.955136648
 21
80.1587433301
  0
LINE
  5
42A
100
AcDbEntity
  8
0
100
AcDbLine
 62
7
  6
CONTINUOUS
 10
331.5338815103
 20
81.0617143655
 11
331.774598768
 21
80.8939041108
  0
LINE
  5
42B
100
AcDbEntity
  8
RUNDUNGEN
100
AcDbLine
 62
7
  6
CONTINUOUS
 10
340.3073854532
 20
60.3427975678
 11
318.7647198594
 21
75.6301641486
  0
LINE
  5
42C
100
AcDbEntity
  8
RUNDUNGEN
100
AcDbLine
 62
7
  6
CONTINUOUS
 10
366.8265193378
 20
47.4479612327
 11
362.7084175465
 21
50.37029837
  0
LINE
  5
42D
100
AcDbEntity
  8
RUNDUNGEN
100
AcDbLine
 62
7
  6
CONTINUOUS
 10
343.8429193591
 20
63.7578610773
 11
322.3002537653
 21
79.0452276581
  0
LINE
  5
42E
100
AcDbEntity
  8
RUNDUNGEN
100
AcDbLine
 62
7
  6
CONTINUOUS
 10
325.5577294791
 20
79.7668316419
 11
318.4066878037
 21
84.8414402158
  0
LINE
  5
42F
100
AcDbEntity
  8
RUNDUNGEN
100
AcDbLine
 62
7
  6
CONTINUOUS
 10
353.5768342633
 20
61.9057182169
 11
365.8878942457
 21
53.1693951222
  0
LINE
  5
430
100
AcDbEntity
  8
0
100
AcDbLine
 62
7
  6
CONTINUOUS
 10
331.3819287693
 20
78.6418672863
 11
331.5624667336
 21
78.5106174703
  0
LINE
  5
431
100
AcDbEntity
  8
0
100
AcDbLine
 62
7
  6
CONTINUOUS
 10
330.8719092834
 20
81.2697653863
 11
330.6913714033
 21
81.4010150746
  0
LINE
  5
432
100
AcDbEntity
  8
0
100
AcDbLine
 62
7
  6
CONTINUOUS
 10
330.390474768
 20
82.1661604679
 11
330.5710128166
 21
82.0349106321
  0
LINE
  5
433
100
AcDbEntity
  8
0
100
AcDbLine
 62
7
  6
CONTINUOUS
 10
351.5765506679
 20
59.7607942301
 11
351.651643739
 21
59.7053244148
  0
LINE
  5
434
100
AcDbEntity
  8
0
100
AcDbLine
 62
7
  6
CONTINUOUS
 10
351.46515918
 20
59.9953985532
 11
351.3900661089
 21
60.0508683685
  0
LINE
  5
435
100
AcDbEntity
  8
0
100
AcDbLine
 62
7
  6
CONTINUOUS
 10
350.3632308848
 20
59.6080697924
 11
350.5106339112
 21
59.498676845
  0
LINE
  5
436
100
AcDbEntity
  8
0
100
AcDbLine
 62
7
  6
CONTINUOUS
 10
350.1087987399
 20
60.204148762
 11
349.9613957493
 21
60.3135416942
  0
LINE
  5
437
100
AcDbEntity
  8
0
100
AcDbLine
 62
7
  6
CONTINUOUS
 10
349.6398658253
 20
60.7326737781
 11
349.4924627963
 21
60.8420667198
  0
LINE
  5
438
100
AcDbEntity
  8
0
100
AcDbLine
 62
7
  6
CONTINUOUS
 10
331.9235424937
 20
77.5147974768
 11
332.2244390237
 21
77.2888585107
  0
LINE
  5
439
100
AcDbEntity
  8
0
100
AcDbLine
 62
7
  6
CONTINUOUS
 10
350.3900576293
 20
59.649799468
 11
350.2962566458
 21
59.7216138451
  0
LINE
  5
43A
100
AcDbEntity
  8
0
100
AcDbLine
 62
7
  6
CONTINUOUS
 10
350.081971986
 20
60.1624190973
 11
350.1757729695
 21
60.0906047202
  0
LINE
  5
43B
100
AcDbEntity
  8
0
100
AcDbLine
 62
7
  6
CONTINUOUS
 10
349.6130390714
 20
60.6909441133
 11
349.7068400549
 21
60.6191297363
  0
LINE
  5
43C
100
AcDbEntity
  8
0
100
AcDbLine
 62
7
  6
CONTINUOUS
 10
336.2875816949
 20
73.4487340159
 11
336.4412014468
 21
73.3292876086
  0
LINE
  5
43D
100
AcDbEntity
  8
0
100
AcDbLine
 62
7
  6
CONTINUOUS
 10
336.1193687236
 20
73.9766394309
 11
335.9657489784
 21
74.0960858301
  0
LINE
  5
43E
100
AcDbEntity
  8
0
100
AcDbLine
 62
7
  6
CONTINUOUS
 10
359.1008959027
 20
54.589314662
 11
359.2934696583
 21
54.4378118958
  0
LINE
  5
43F
100
AcDbEntity
  8
0
100
AcDbLine
 62
7
  6
CONTINUOUS
 10
206.9285928891
 20
170.1781697603
 11
210.9386102008
 21
170.1781697603
  0
LINE
  5
440
100
AcDbEntity
  8
0
100
AcDbLine
 62
7
  6
CONTINUOUS
 10
331.0723740403
 20
78.5406549943
 11
330.9787274701
 21
78.6143291954
  0
LINE
  5
441
100
AcDbEntity
  8
0
100
AcDbLine
 62
7
  6
CONTINUOUS
 10
331.5022874403
 20
78.6981557265
 11
331.2615701826
 21
78.8875342762
  0
LINE
  5
442
100
AcDbEntity
  8
0
100
AcDbLine
 62
7
  6
CONTINUOUS
 10
330.1783427336
 20
79.7613055942
 11
330.2987013203
 21
79.6666163601
  0
LINE
  5
443
100
AcDbEntity
  8
0
100
AcDbLine
 62
7
  6
CONTINUOUS
 10
345.0200628027
 20
68.1903550089
 11
345.2126365583
 21
68.0388522427
  0
LINE
  5
444
100
AcDbEntity
  8
0
100
AcDbLine
 62
7
  6
CONTINUOUS
 10
330.7515506967
 20
81.2350450728
 11
330.9922678701
 21
81.0456666451
  0
LINE
  5
445
100
AcDbEntity
  8
0
100
AcDbLine
 62
7
  6
CONTINUOUS
 10
331.1126264568
 20
82.1372313471
 11
331.2329850435
 21
82.0425421747
  0
LINE
  5
446
100
AcDbEntity
  8
0
100
AcDbLine
 62
7
  6
CONTINUOUS
 10
331.1126264568
 20
82.4823234484
 11
331.2329850435
 21
82.3876342759
  0
LINE
  5
447
100
AcDbEntity
  8
0
100
AcDbLine
 62
7
  6
CONTINUOUS
 10
331.1126264568
 20
83.1078028896
 11
331.2329850435
 21
83.0131135938
  0
LINE
  5
448
100
AcDbEntity
  8
0
100
AcDbLine
 62
7
  6
CONTINUOUS
 10
331.1126264568
 20
83.4528948675
 11
331.2329850435
 21
83.3582055717
  0
LINE
  5
449
100
AcDbEntity
  8
0
100
AcDbLine
 62
7
  6
CONTINUOUS
 10
336.3278987703
 20
73.4765299834
 11
336.2305831532
 21
73.5543096534
  0
LINE
  5
44A
100
AcDbEntity
  8
0
100
AcDbLine
 62
7
  6
CONTINUOUS
 10
336.0790516391
 20
73.9488434741
 11
336.1763672562
 21
73.8710638041
  0
LINE
  5
44B
100
AcDbEntity
  8
0
100
AcDbLine
 62
7
  6
CONTINUOUS
 10
331.955136648
 20
80.0509020639
 11
332.2560331569
 21
79.8033948637
  0
LINE
  5
44C
100
AcDbEntity
  8
0
100
AcDbLine
 62
7
  6
CONTINUOUS
 10
331.229685857
 20
80.94411031
 11
331.1908595044
 21
80.976047541
  0
LINE
  5
44D
100
AcDbEntity
  8
0
100
AcDbLine
 62
7
  6
CONTINUOUS
 10
331.774598768
 20
81.0017454001
 11
331.4737022169
 21
81.2492526218
  0
LINE
  5
44E
100
AcDbEntity
  8
0
100
AcDbLine
 62
7
  6
CONTINUOUS
 10
330.5710128166
 20
82.1427519215
 11
330.2701161813
 21
82.3902592245
  0
LINE
  5
44F
100
AcDbEntity
  8
0
100
AcDbLine
 62
7
  6
CONTINUOUS
 10
331.2329850435
 20
82.4954755036
 11
330.9320885767
 21
82.7429827055
  0
LINE
  5
450
100
AcDbEntity
  8
0
100
AcDbLine
 62
7
  6
CONTINUOUS
 10
331.2329850435
 20
83.4660469227
 11
330.9320885767
 21
83.7135540012
  0
LINE
  5
451
100
AcDbEntity
  8
0
100
AcDbLine
 62
7
  6
CONTINUOUS
 10
351.0454973698
 20
59.3763855352
 11
351.2093723843
 21
59.2381251977
  0
LINE
  5
452
100
AcDbEntity
  8
0
100
AcDbLine
 62
7
  6
CONTINUOUS
 10
350.563954218
 20
60.2994691753
 11
350.4000791012
 21
60.4377295626
  0
LINE
  5
453
100
AcDbEntity
  8
0
100
AcDbLine
 62
7
  6
CONTINUOUS
 10
331.8633632004
 20
77.7023357272
 11
331.6828253203
 21
77.8551536796
  0
LINE
  5
454
100
AcDbEntity
  8
0
100
AcDbLine
 62
7
  6
CONTINUOUS
 10
359.1490393374
 20
54.6463392808
 11
359.0046089996
 21
54.7685936875
  0
LINE
  5
455
100
AcDbEntity
  8
0
100
AcDbLine
 62
7
  6
CONTINUOUS
 10
330.659777249
 20
78.9296152431
 11
330.479239369
 21
79.0824331954
  0
LINE
  5
456
100
AcDbEntity
  8
0
100
AcDbLine
 62
7
  6
CONTINUOUS
 10
330.2987013203
 20
79.7960258826
 11
330.1181634403
 21
79.9488438504
  0
LINE
  5
457
100
AcDbEntity
  8
0
100
AcDbLine
 62
7
  6
CONTINUOUS
 10
345.0682062374
 20
68.2473796276
 11
344.9237758997
 21
68.3696340344
  0
LINE
  5
458
100
AcDbEntity
  8
0
100
AcDbLine
 62
7
  6
CONTINUOUS
 10
350.1757729695
 20
60.0906047202
 11
350.2561708839
 21
60.0221330858
  0
LINE
  5
459
100
AcDbEntity
  8
0
100
AcDbLine
 62
7
  6
CONTINUOUS
 10
350.2293955923
 20
60.1014413152
 11
350.1087987399
 21
60.204148762
  0
LINE
  5
45A
100
AcDbEntity
  8
0
100
AcDbLine
 62
7
  6
CONTINUOUS
 10
351.1131335786
 20
59.3747643648
 11
351.0102009148
 21
59.4635881184
  0
LINE
  5
45B
100
AcDbEntity
  8
0
100
AcDbLine
 62
7
  6
CONTINUOUS
 10
350.4963180012
 20
60.301090356
 11
350.599250665
 21
60.2122666024
  0
LINE
  5
45C
100
AcDbEntity
  8
0
100
AcDbLine
 62
7
  6
CONTINUOUS
 10
331.6828253203
 20
77.7257441571
 11
331.9235424937
 21
77.5147974768
  0
LINE
  5
45D
100
AcDbEntity
  8
0
100
AcDbLine
 62
7
  6
CONTINUOUS
 10
330.5394186623
 20
78.8948949392
 11
330.7801358357
 21
78.6839482609
  0
LINE
  5
45E
100
AcDbEntity
  8
0
100
AcDbLine
 62
7
  6
CONTINUOUS
 10
350.2158381542
 20
59.74167032
 11
350.3632308848
 21
59.6080697924
  0
LINE
  5
45F
100
AcDbEntity
  8
0
100
AcDbLine
 62
7
  6
CONTINUOUS
 10
349.7872585465
 20
60.5990732614
 11
349.6398658253
 21
60.7326737781
  0
LINE
  5
460
100
AcDbEntity
  8
0
100
AcDbLine
 62
7
  6
CONTINUOUS
 10
350.2962566458
 20
59.7216138451
 11
350.1890628534
 21
59.8209785686
  0
LINE
  5
461
100
AcDbEntity
  8
0
100
AcDbLine
 62
7
  6
CONTINUOUS
 10
349.7068400549
 20
60.6191297363
 11
349.8140338381
 21
60.519765032
  0
LINE
  5
462
100
AcDbEntity
  8
0
100
AcDbLine
 62
7
  6
CONTINUOUS
 10
336.1388280189
 20
73.5876321289
 11
336.2875816949
 21
73.4487340159
  0
LINE
  5
463
100
AcDbEntity
  8
0
100
AcDbLine
 62
7
  6
CONTINUOUS
 10
336.2681223906
 20
73.8377413286
 11
336.1193687236
 21
73.9766394309
  0
LINE
  5
464
100
AcDbEntity
  8
0
100
AcDbLine
 62
7
  6
CONTINUOUS
 10
350.9195265129
 20
59.4945470201
 11
351.0454973698
 21
59.3763855352
  0
LINE
  5
465
100
AcDbEntity
  8
0
100
AcDbLine
 62
7
  6
CONTINUOUS
 10
350.6899250669
 20
60.1813077007
 11
350.563954218
 21
60.2994691753
  0
LINE
  5
466
100
AcDbEntity
  8
KONSTRUKTIONSELEMENTE
100
AcDbLine
 62
7
  6
CONTINUOUS
 10
313.1920415683
 20
80.6180207178
 11
304.7774708721
 21
88.7458718703
  0
LINE
  5
467
100
AcDbEntity
  8
KONSTRUKTIONSELEMENTE
100
AcDbLine
 62
7
  6
CONTINUOUS
 10
252.0273049956
 20
139.6986194315
 11
243.6127342995
 21
147.826470584
  0
LINE
  5
468
100
AcDbEntity
  8
KONSTRUKTIONSELEMENTE
100
AcDbLine
 62
7
  6
CONTINUOUS
 10
284.9753909513
 20
109.9966273729
 11
274.3687892335
 21
120.2418179012
  0
LINE
  5
469
100
AcDbEntity
  8
RUNDUNGEN
100
AcDbLine
 62
7
  6
CONTINUOUS
 10
368.7397340931
 20
29.5367824424
 11
363.9746794904
 21
34.1394717467
  0
LINE
  5
46A
100
AcDbEntity
  8
KONSTRUKTIONSELEMENTE
100
AcDbLine
 62
7
  6
CONTINUOUS
 10
316.6657745213
 20
84.2142937012
 11
308.2512038252
 21
92.3421448537
  0
LINE
  5
46B
100
AcDbEntity
  8
KONSTRUKTIONSELEMENTE
100
AcDbLine
 62
7
  6
CONTINUOUS
 10
255.5010379487
 20
143.2948924149
 11
247.4472576611
 21
151.0742467939
  0
LINE
  5
46C
100
AcDbEntity
  8
KONSTRUKTIONSELEMENTE
100
AcDbLine
 62
7
  6
CONTINUOUS
 10
288.101750609
 20
113.2332730579
 11
277.4951488912
 21
123.4784635863
  0
LINE
  5
46D
100
AcDbEntity
  8
KONSTRUKTIONSELEMENTE
100
AcDbLine
 62
7
  6
CONTINUOUS
 10
262.8783040392
 20
137.7072108694
 11
273.484905757
 21
127.462020341
  0
LINE
  5
46E
100
AcDbEntity
  8
KONSTRUKTIONSELEMENTE
100
AcDbLine
 62
7
  6
CONTINUOUS
 10
293.9910024114
 20
107.6546519862
 11
304.5976041292
 21
97.4094614578
  0
LINE
  5
46F
100
AcDbEntity
  8
RUNDUNGEN
100
AcDbLine
 62
7
  6
CONTINUOUS
 10
372.275267999
 20
32.9518459519
 11
367.5102133964
 21
37.5545352562
  0
LINE
  5
470
100
AcDbEntity
  8
RUNDUNGEN
100
AcDbLine
 62
7
  6
CONTINUOUS
 10
370.8610544366
 20
36.0260770533
 11
375.1036951238
 21
31.928000842
  0
LINE
  5
471
100
AcDbEntity
  8
0
100
AcDbLine
 62
7
  6
CONTINUOUS
 10
328.4346475654
 20
77.4985953525
 11
333.3843950337
 21
72.7175064393
  0
LINE
  5
472
100
AcDbEntity
  8
0
100
AcDbLine
 62
7
  6
CONTINUOUS
 10
333.0308416432
 20
73.1884223128
 11
328.788200956
 21
77.2864985241
  0
LINE
  5
473
100
AcDbEntity
  8
RUNDUNGEN
100
AcDbLine
 62
7
  6
CONTINUOUS
 10
220.9002798747
 20
140.8892218168
 11
217.9002798747
 21
145.9083196393
  0
LINE
  5
474
100
AcDbEntity
  8
0
100
AcDbLine
 62
7
  6
CONTINUOUS
 10
170.9336015449
 20
194.4302403198
 11
170.9336015449
 21
237.8969025028
  0
LINE
  5
475
100
AcDbEntity
  8
0
100
AcDbLine
 62
7
  6
CONTINUOUS
 10
206.9285928891
 20
182.9641692574
 11
210.9386102008
 21
182.9641692574
  0
LINE
  5
476
100
AcDbEntity
  8
0
100
AcDbLine
 62
7
  6
CONTINUOUS
 10
206.4102682116
 20
190.3461695088
 11
211.4569348782
 21
190.3461695088
  0
LINE
  5
477
100
AcDbEntity
  8
0
100
AcDbLine
 62
7
  6
CONTINUOUS
 10
336.1763672562
 20
73.8710638041
 11
336.2841093467
 21
73.7682786744
  0
LINE
  5
478
100
AcDbEntity
  8
0
100
AcDbLine
 62
7
  6
CONTINUOUS
 10
360.2544527188
 20
49.0923951733
 11
349.647851001
 21
59.3375857017
  0
LINE
  5
479
100
AcDbEntity
  8
0
100
AcDbLine
 62
7
  6
CONTINUOUS
 10
346.4658704857
 20
62.4111428602
 11
335.1521619867
 21
73.3393460905
  0
LINE
  5
47A
100
AcDbEntity
  8
0
100
AcDbLine
 62
7
  6
CONTINUOUS
 10
355.7289693192
 20
53.5672040835
 11
350.6378004947
 21
58.4848955371
  0
LINE
  5
47B
100
AcDbEntity
  8
0
100
AcDbLine
 62
7
  6
CONTINUOUS
 10
350.3549577822
 20
58.7581006178
 11
349.647851001
 21
59.4411133197
  0
LINE
  5
47C
100
AcDbEntity
  8
0
100
AcDbLine
 62
7
  6
CONTINUOUS
 10
359.9008993282
 20
49.5633110468
 11
356.3653654223
 21
52.9783745563
  0
LINE
  5
47D
100
AcDbEntity
  8
0
100
AcDbLine
 62
7
  6
CONTINUOUS
 10
346.1123170951
 20
62.8820587337
 11
342.5767831892
 21
66.2971222432
  0
LINE
  5
47E
100
AcDbEntity
  8
0
100
AcDbLine
 62
7
  6
CONTINUOUS
 10
341.869676408
 20
66.9801349451
 11
336.2128221585
 21
72.4442365602
  0
LINE
  5
47F
100
AcDbEntity
  8
0
100
AcDbLine
 62
7
  6
CONTINUOUS
 10
335.8592687679
 20
72.7857429111
 11
335.1521619867
 21
73.468755613
  0
LINE
  5
480
100
AcDbEntity
  8
0
100
AcDbLine
 62
7
  6
CONTINUOUS
 10
333.1015523213
 20
75.5501298998
 11
333.0308416432
 21
75.61843117
  0
LINE
  5
481
100
AcDbEntity
  8
0
100
AcDbLine
 62
7
  6
CONTINUOUS
 10
328.5700241404
 20
79.9272500022
 11
328.4346475654
 21
80.0580137323
  0
LINE
  5
482
100
AcDbEntity
  8
0
100
AcDbLine
 62
7
  6
CONTINUOUS
 10
328.788200956
 20
80.1335080203
 11
333.0308416432
 21
76.0354318089
  0
LINE
  5
483
100
AcDbEntity
  8
0
100
AcDbLine
 62
7
  6
CONTINUOUS
 10
333.3843950337
 20
75.8233349805
 11
328.4346475654
 21
80.6044238938
  0
LINE
  5
484
100
AcDbEntity
  8
KONSTRUKTIONSELEMENTE
100
AcDbLine
 62
7
  6
CONTINUOUS
 10
266.0046636969
 20
140.9438565545
 11
276.6112654147
 21
130.6986660261
  0
LINE
  5
485
100
AcDbEntity
  8
KONSTRUKTIONSELEMENTE
100
AcDbLine
 62
7
  6
CONTINUOUS
 10
297.1173620691
 20
110.8912976712
 11
307.7239637869
 21
100.6461071428
  0
LINE
  5
486
100
AcDbEntity
  8
0
100
AcDbLine
 62
7
  6
CONTINUOUS
 10
330.2987013203
 20
79.1274100367
 11
330.5394186623
 21
78.8948949392
  0
LINE
  5
487
100
AcDbEntity
  8
RUNDUNGEN
100
AcDbLine
 62
7
  6
CONTINUOUS
 10
371.5681612178
 20
39.3315734178
 11
367.3255205307
 21
43.4296496291
  0
LINE
  5
488
100
AcDbEntity
  8
0
100
AcDbLine
 62
7
  6
CONTINUOUS
 10
330.479239369
 20
79.0824331954
 11
330.3588807823
 21
79.1986906628
  0
LINE
  5
489
100
AcDbEntity
  8
0
100
AcDbLine
 62
7
  6
CONTINUOUS
 10
331.5624667336
 20
78.5106174703
 11
331.7430046137
 21
78.3362312693
  0
LINE
  5
48A
100
AcDbEntity
  8
0
100
AcDbLine
 62
7
  6
CONTINUOUS
 10
331.803183907
 20
78.4075120582
 11
331.5022874403
 21
78.6981557265
  0
LINE
  5
48B
100
AcDbEntity
  8
0
100
AcDbLine
 62
7
  6
CONTINUOUS
 10
331.774598768
 20
80.2252882648
 11
331.955136648
 21
80.0509020639
  0
LINE
  5
48C
100
AcDbEntity
  8
0
100
AcDbLine
 62
7
  6
CONTINUOUS
 10
330.5710128166
 20
81.4094312738
 11
330.7515506967
 21
81.2350450728
  0
LINE
  5
48D
100
AcDbEntity
  8
0
100
AcDbLine
 62
7
  6
CONTINUOUS
 10
331.955136648
 20
80.1587433301
 11
331.774598768
 21
80.333129531
  0
LINE
  5
48E
100
AcDbEntity
  8
0
100
AcDbLine
 62
7
  6
CONTINUOUS
 10
330.6913714033
 20
81.4010150746
 11
330.5710128166
 21
81.5172725419
  0
LINE
  5
48F
100
AcDbEntity
  8
KONSTRUKTIONSELEMENTE
100
AcDbLine
 62
7
  6
CONTINUOUS
 10
307.5179665715
 20
103.821504192
 11
298.1174958552
 21
112.9016616362
  0
LINE
  5
490
100
AcDbEntity
  8
KONSTRUKTIONSELEMENTE
100
AcDbLine
 62
7
  6
CONTINUOUS
 10
276.6112654147
 20
133.6750850448
 11
267.4635808164
 21
142.511069849
  0
LINE
  5
491
100
AcDbEntity
  8
KONSTRUKTIONSELEMENTE
100
AcDbLine
 62
7
  6
CONTINUOUS
 10
282.5005172171
 20
128.096463973
 11
293.1071189349
 21
117.8512734446
  0
LINE
  5
492
100
AcDbEntity
  8
0
100
AcDbLine
 62
7
  6
CONTINUOUS
 10
343.8646202692
 20
69.1683899646
 11
344.057194008
 21
68.9823780169
  0
LINE
  5
493
100
AcDbEntity
  8
0
100
AcDbLine
 62
7
  6
CONTINUOUS
 10
357.9454533692
 20
55.5673496177
 11
358.1380271079
 21
55.38133767
  0
LINE
  5
494
100
AcDbEntity
  8
0
100
AcDbLine
 62
7
  6
CONTINUOUS
 10
330.5710128166
 20
82.0349106321
 11
330.6913714033
 21
81.9186531648
  0
LINE
  5
495
100
AcDbEntity
  8
0
100
AcDbLine
 62
7
  6
CONTINUOUS
 10
331.774598768
 20
80.8939041108
 11
331.955136648
 21
80.7195179098
  0
LINE
  5
496
100
AcDbEntity
  8
0
100
AcDbLine
 62
7
  6
CONTINUOUS
 10
330.7515506967
 20
81.9683657205
 11
330.5710128166
 21
82.1427519215
  0
LINE
  5
497
100
AcDbEntity
  8
0
100
AcDbLine
 62
7
  6
CONTINUOUS
 10
343.4794726569
 20
69.6784508185
 11
343.8646202692
 21
69.3064267928
  0
LINE
  5
498
100
AcDbEntity
  8
0
100
AcDbLine
 62
7
  6
CONTINUOUS
 10
344.057194008
 20
69.1204148451
 11
345.0200628027
 21
68.1903550089
  0
LINE
  5
499
100
AcDbEntity
  8
0
100
AcDbLine
 62
7
  6
CONTINUOUS
 10
357.5603057568
 20
56.0774104716
 11
357.9454533692
 21
55.7053864459
  0
LINE
  5
49A
100
AcDbEntity
  8
0
100
AcDbLine
 62
7
  6
CONTINUOUS
 10
358.1380271079
 20
55.5193744982
 11
359.1008959027
 21
54.589314662
  0
LINE
  5
49B
100
AcDbEntity
  8
0
100
AcDbLine
 62
7
  6
CONTINUOUS
 10
331.955136648
 20
80.8273591992
 11
331.774598768
 21
81.0017454001
  0
LINE
  5
49C
100
AcDbEntity
  8
0
100
AcDbLine
 62
7
  6
CONTINUOUS
 10
359.0046089996
 20
54.7685936875
 11
358.1380271079
 21
55.6056475173
  0
LINE
  5
49D
100
AcDbEntity
  8
0
100
AcDbLine
 62
7
  6
CONTINUOUS
 10
357.9454533692
 20
55.791659465
 11
357.5603057568
 21
56.1636834907
  0
LINE
  5
49E
100
AcDbEntity
  8
0
100
AcDbLine
 62
7
  6
CONTINUOUS
 10
344.9237758997
 20
68.3696340344
 11
344.057194008
 21
69.2066878642
  0
LINE
  5
49F
100
AcDbEntity
  8
0
100
AcDbLine
 62
7
  6
CONTINUOUS
 10
343.8646202692
 20
69.3926998119
 11
343.4794726569
 21
69.7647238376
  0
LINE
  5
4A0
100
AcDbEntity
  8
0
100
AcDbLine
 62
7
  6
CONTINUOUS
 10
330.7515506967
 20
82.1624800044
 11
332.6772882526
 21
80.3023603645
  0
LINE
  5
4A1
100
AcDbEntity
  8
0
100
AcDbLine
 62
7
  6
CONTINUOUS
 10
359.4860434139
 20
54.4588551802
 11
359.2934696583
 21
54.6448671442
  0
LINE
  5
4A2
100
AcDbEntity
  8
0
100
AcDbLine
 62
7
  6
CONTINUOUS
 10
345.4052103139
 20
68.0598955271
 11
345.2126365583
 21
68.2459074911
  0
LINE
  5
4A3
100
AcDbEntity
  8
0
100
AcDbLine
 62
7
  6
CONTINUOUS
 10
359.9716100064
 20
53.9955709946
 11
359.9008993282
 21
54.0638722648
  0
LINE
  5
4A4
100
AcDbEntity
  8
0
100
AcDbLine
 62
7
  6
CONTINUOUS
 10
356.1471886067
 20
57.6896783952
 11
356.0118120317
 21
57.8204421252
  0
LINE
  5
4A5
100
AcDbEntity
  8
0
100
AcDbLine
 62
7
  6
CONTINUOUS
 10
355.9664283973
 20
57.8642793498
 11
355.7289693192
 21
58.093647206
  0
LINE
  5
4A6
100
AcDbEntity
  8
0
100
AcDbLine
 62
7
  6
CONTINUOUS
 10
346.1830277732
 20
67.3143186815
 11
346.1123170951
 21
67.3826199517
  0
LINE
  5
4A7
100
AcDbEntity
  8
0
100
AcDbLine
 62
7
  6
CONTINUOUS
 10
342.3586063736
 20
71.0084260821
 11
342.2232297986
 21
71.1391898121
  0
LINE
  5
4A8
100
AcDbEntity
  8
0
100
AcDbLine
 62
7
  6
CONTINUOUS
 10
358.1380271079
 20
55.7954481422
 11
357.9454533692
 21
55.9814600899
  0
LINE
  5
4A9
100
AcDbEntity
  8
0
100
AcDbLine
 62
7
  6
CONTINUOUS
 10
344.057194008
 20
69.3964884891
 11
343.8646202692
 21
69.5825004368
  0
LINE
  5
4AA
100
AcDbEntity
  8
0
100
AcDbLine
 62
7
  6
CONTINUOUS
 10
332.6772882526
 20
80.4102016539
 11
331.1728057502
 21
81.8634201581
  0
LINE
  5
4AB
100
AcDbEntity
  8
0
100
AcDbLine
 62
7
  6
CONTINUOUS
 10
330.9320885767
 20
82.0959350927
 11
330.7515506967
 21
82.2703212937
  0
LINE
  5
4AC
100
AcDbEntity
  8
0
100
AcDbLine
 62
7
  6
CONTINUOUS
 10
331.2329850435
 20
82.0425421747
 11
332.6772882526
 21
80.6474524041
  0
LINE
  5
4AD
100
AcDbEntity
  8
0
100
AcDbLine
 62
7
  6
CONTINUOUS
 10
332.6772882526
 20
80.7552936317
 11
331.2329850435
 21
82.1503834023
  0
LINE
  5
4AE
100
AcDbEntity
  8
0
100
AcDbLine
 62
7
  6
CONTINUOUS
 10
342.5767831892
 20
71.2146841001
 11
346.1123170951
 21
67.7996205907
  0
LINE
  5
4AF
100
AcDbEntity
  8
0
100
AcDbLine
 62
7
  6
CONTINUOUS
 10
356.3653654223
 20
57.8959364132
 11
359.9008993282
 21
54.4808729038
  0
LINE
  5
4B0
100
AcDbEntity
  8
0
100
AcDbLine
 62
7
  6
CONTINUOUS
 10
360.2544527188
 20
54.2687760754
 11
356.0118120317
 21
58.3668522867
  0
LINE
  5
4B1
100
AcDbEntity
  8
0
100
AcDbLine
 62
7
  6
CONTINUOUS
 10
346.4658704857
 20
67.5875237623
 11
342.2232297986
 21
71.6855999736
  0
LINE
  5
4B2
100
AcDbEntity
  8
0
100
AcDbLine
 62
7
  6
CONTINUOUS
 10
331.2329850435
 20
82.3876342759
 11
332.6772882526
 21
80.9925445053
  0
LINE
  5
4B3
100
AcDbEntity
  8
KONSTRUKTIONSELEMENTE
100
AcDbLine
 62
7
  6
CONTINUOUS
 10
253.5829399142
 20
157.4569496807
 11
257.613448567
 21
153.5637772799
  0
LINE
  5
4B4
100
AcDbEntity
  8
KONSTRUKTIONSELEMENTE
100
AcDbLine
 62
7
  6
CONTINUOUS
 10
257.9670019576
 20
153.2222709289
 11
261.9975106104
 21
149.3290985282
  0
LINE
  5
4B5
100
AcDbEntity
  8
KONSTRUKTIONSELEMENTE
100
AcDbLine
 62
7
  6
CONTINUOUS
 10
314.7476764869
 20
98.376350967
 11
318.7781851396
 21
94.4831785662
  0
LINE
  5
4B6
100
AcDbEntity
  8
KONSTRUKTIONSELEMENTE
100
AcDbLine
 62
7
  6
CONTINUOUS
 10
319.1317385302
 20
94.1416722153
 11
323.162247183
 21
90.2484998145
  0
LINE
  5
4B7
100
AcDbEntity
  8
0
100
AcDbLine
 62
7
  6
CONTINUOUS
 10
332.6772882526
 20
81.100385733
 11
331.2329850435
 21
82.4954755036
  0
LINE
  5
4B8
100
AcDbEntity
  8
0
100
AcDbLine
 62
7
  6
CONTINUOUS
 10
330.7515506967
 20
83.1330513618
 11
332.6772882526
 21
81.2729317219
  0
LINE
  5
4B9
100
AcDbEntity
  8
0
100
AcDbLine
 62
7
  6
CONTINUOUS
 10
332.6772882526
 20
81.380773073
 11
331.1728057502
 21
82.8339915773
  0
LINE
  5
4BA
100
AcDbEntity
  8
0
100
AcDbLine
 62
7
  6
CONTINUOUS
 10
330.9320885767
 20
83.0665065119
 11
330.7515506967
 21
83.2408927129
  0
LINE
  5
4BB
100
AcDbEntity
  8
0
100
AcDbLine
 62
7
  6
CONTINUOUS
 10
331.2329850435
 20
83.0131135938
 11
332.6772882526
 21
81.6180238232
  0
LINE
  5
4BC
100
AcDbEntity
  8
0
100
AcDbLine
 62
7
  6
CONTINUOUS
 10
332.6772882526
 20
81.7258651743
 11
331.2329850435
 21
83.1209549449
  0
LINE
  5
4BD
100
AcDbEntity
  8
0
100
AcDbLine
 62
7
  6
CONTINUOUS
 10
331.2329850435
 20
83.3582055717
 11
332.6772882526
 21
81.9631158011
  0
LINE
  5
4BE
100
AcDbEntity
  8
0
100
AcDbLine
 62
7
  6
CONTINUOUS
 10
332.6772882526
 20
82.0709571521
 11
331.2329850435
 21
83.4660469227
  0
LINE
  5
4BF
100
AcDbEntity
  8
RUNDUNGEN
100
AcDbLine
 62
7
  6
CONTINUOUS
 10
375.1036951238
 20
42.7466369272
 11
370.8610544366
 21
46.8447131386
  0
LINE
  5
4C0
100
AcDbEntity
  8
RUNDUNGEN
100
AcDbLine
 62
7
  6
CONTINUOUS
 10
367.5102133964
 20
51.7895827368
 11
372.275267999
 21
47.1868934325
  0
LINE
  5
4C1
100
AcDbEntity
  8
KONSTRUKTIONSELEMENTE
100
AcDbLine
 62
7
  6
CONTINUOUS
 10
285.6268768749
 20
131.333109658
 11
296.2334785926
 21
121.0879191297
  0
LINE
  5
4C2
100
AcDbEntity
  8
KONSTRUKTIONSELEMENTE
100
AcDbLine
 62
7
  6
CONTINUOUS
 10
257.0566728673
 20
161.0532226641
 11
261.08718152
 21
157.1600502633
  0
LINE
  5
4C3
100
AcDbEntity
  8
KONSTRUKTIONSELEMENTE
100
AcDbLine
 62
7
  6
CONTINUOUS
 10
261.4407349106
 20
156.8185439123
 11
265.4712435634
 21
152.9253715115
  0
LINE
  5
4C4
100
AcDbEntity
  8
KONSTRUKTIONSELEMENTE
100
AcDbLine
 62
7
  6
CONTINUOUS
 10
318.2214094399
 20
101.9726239504
 11
322.2519180927
 21
98.0794515496
  0
LINE
  5
4C5
100
AcDbEntity
  8
KONSTRUKTIONSELEMENTE
100
AcDbLine
 62
7
  6
CONTINUOUS
 10
322.6054714833
 20
97.7379451986
 11
326.635980136
 21
93.8447727979
  0
LINE
  5
4C6
100
AcDbEntity
  8
0
100
AcDbLine
 62
7
  6
CONTINUOUS
 10
336.0053668854
 20
73.7209764961
 11
336.1388280189
 21
73.5876321289
  0
LINE
  5
4C7
100
AcDbEntity
  8
0
100
AcDbLine
 62
7
  6
CONTINUOUS
 10
336.2305831532
 20
73.5543096534
 11
336.0971220198
 21
73.6876540206
  0
LINE
  5
4C8
100
AcDbEntity
  8
0
100
AcDbLine
 62
7
  6
CONTINUOUS
 10
350.0550526277
 20
59.9028211822
 11
350.2158381542
 21
59.74167032
  0
LINE
  5
4C9
100
AcDbEntity
  8
0
100
AcDbLine
 62
7
  6
CONTINUOUS
 10
350.3901811132
 20
59.9402904713
 11
350.2293955923
 21
60.1014413152
  0
LINE
  5
4CA
100
AcDbEntity
  8
0
100
AcDbLine
 62
7
  6
CONTINUOUS
 10
351.0102009148
 20
59.4635881184
 11
350.7961633605
 21
59.6798122331
  0
LINE
  5
4CB
100
AcDbEntity
  8
0
100
AcDbLine
 62
7
  6
CONTINUOUS
 10
350.599250665
 20
60.2122666024
 11
350.8132881593
 21
59.9960424835
  0
LINE
  5
4CC
100
AcDbEntity
  8
0
100
AcDbLine
 62
7
  6
CONTINUOUS
 10
350.1890628534
 20
59.8209785686
 11
350.0952721681
 21
59.9170005231
  0
LINE
  5
4CD
100
AcDbEntity
  8
0
100
AcDbLine
 62
7
  6
CONTINUOUS
 10
350.2561708839
 20
60.0221330858
 11
350.3499615971
 21
59.9261110904
  0
LINE
  5
4CE
100
AcDbEntity
  8
0
100
AcDbLine
 62
7
  6
CONTINUOUS
 10
349.8810492222
 20
60.5030513093
 11
349.7872585465
 21
60.5990732614
  0
LINE
  5
4CF
100
AcDbEntity
  8
0
100
AcDbLine
 62
7
  6
CONTINUOUS
 10
336.427302567
 20
73.6738377238
 11
336.2681223906
 21
73.8377413286
  0
LINE
  5
4D0
100
AcDbEntity
  8
0
100
AcDbLine
 62
7
  6
CONTINUOUS
 10
336.2870167278
 20
74.3879776687
 11
336.3821439815
 21
74.2892605106
  0
LINE
  5
4D1
100
AcDbEntity
  8
0
100
AcDbLine
 62
7
  6
CONTINUOUS
 10
336.2841093467
 20
73.7682786744
 11
336.3765590091
 21
73.6710472267
  0
LINE
  5
4D2
100
AcDbEntity
  8
0
100
AcDbLine
 62
7
  6
CONTINUOUS
 10
330.0579841469
 20
79.3814932277
 11
330.2987013203
 21
79.1274100367
  0
LINE
  5
4D3
100
AcDbEntity
  8
0
100
AcDbLine
 62
7
  6
CONTINUOUS
 10
350.7894695425
 20
59.6319968088
 11
350.9195265129
 21
59.4945470201
  0
LINE
  5
4D4
100
AcDbEntity
  8
0
100
AcDbLine
 62
7
  6
CONTINUOUS
 10
350.8199819669
 20
60.0438579613
 11
350.6899250669
 21
60.1813077007
  0
LINE
  5
4D5
100
AcDbEntity
  8
0
100
AcDbLine
 62
7
  6
CONTINUOUS
 10
330.3588807823
 20
79.1986906628
 11
330.1783427336
 21
79.3946452752
  0
LINE
  5
4D6
100
AcDbEntity
  8
0
100
AcDbLine
 62
7
  6
CONTINUOUS
 10
335.2590554878
 20
73.9567447904
 11
335.4300642954
 21
73.770377939
  0
LINE
  5
4D7
100
AcDbEntity
  8
0
100
AcDbLine
 62
7
  6
CONTINUOUS
 10
334.9442186913
 20
74.5730978111
 11
335.4857465353
 21
73.9829361658
  0
LINE
  5
4D8
100
AcDbEntity
  8
0
100
AcDbLine
 62
7
  6
CONTINUOUS
 10
335.6567553429
 20
73.7965693143
 11
336.0557758406
 21
73.3617133857
  0
LINE
  5
4D9
100
AcDbEntity
  8
0
100
AcDbLine
 62
7
  6
CONTINUOUS
 10
336.1124486025
 20
73.3682612296
 11
335.7134281048
 21
73.8031171582
  0
LINE
  5
4DA
100
AcDbEntity
  8
0
100
AcDbLine
 62
7
  6
CONTINUOUS
 10
335.5424192972
 20
73.9894840096
 11
334.772879763
 21
74.8281347322
  0
LINE
  5
4DB
100
AcDbEntity
  8
0
100
AcDbLine
 62
7
  6
CONTINUOUS
 10
335.8078826989
 20
73.8140302302
 11
335.6368738913
 21
74.0003970816
  0
LINE
  5
4DC
100
AcDbEntity
  8
0
100
AcDbLine
 62
7
  6
CONTINUOUS
 10
349.8540784259
 20
60.1224154601
 11
350.0550526277
 21
59.9028211822
  0
LINE
  5
4DD
100
AcDbEntity
  8
0
100
AcDbLine
 62
7
  6
CONTINUOUS
 10
351.4392961364
 20
59.9129553326
 11
351.5765506679
 21
59.7607942301
  0
LINE
  5
4DE
100
AcDbEntity
  8
0
100
AcDbLine
 62
7
  6
CONTINUOUS
 10
351.6024138004
 20
59.8432373124
 11
351.46515918
 21
59.9953985532
  0
LINE
  5
4DF
100
AcDbEntity
  8
0
100
AcDbLine
 62
7
  6
CONTINUOUS
 10
330.2701161813
 20
81.7432116118
 11
330.5710128166
 21
81.4094312738
  0
LINE
  5
4E0
100
AcDbEntity
  8
0
100
AcDbLine
 62
7
  6
CONTINUOUS
 10
331.4737022169
 20
80.5590685233
 11
331.774598768
 21
80.2252882648
  0
LINE
  5
4E1
100
AcDbEntity
  8
0
100
AcDbLine
 62
7
  6
CONTINUOUS
 10
332.2560331569
 20
80.4935789621
 11
331.955136648
 21
80.8273591992
  0
LINE
  5
4E2
100
AcDbEntity
  8
0
100
AcDbLine
 62
7
  6
CONTINUOUS
 10
350.7014029074
 20
59.7300593996
 11
350.7894695425
 21
59.6319968088
  0
LINE
  5
4E3
100
AcDbEntity
  8
0
100
AcDbLine
 62
7
  6
CONTINUOUS
 10
350.9080487208
 20
59.9457952596
 11
350.8199819669
 21
60.0438579613
  0
LINE
  5
4E4
100
AcDbEntity
  8
0
100
AcDbLine
 62
7
  6
CONTINUOUS
 10
332.0439011226
 20
78.1318606165
 11
331.803183907
 21
78.4075120582
  0
LINE
  5
4E5
100
AcDbEntity
  8
KONSTRUKTIONSELEMENTE
100
AcDbLine
 62
7
  6
CONTINUOUS
 10
211.4569331139
 20
190.346172817
 11
214.4483074273
 21
184.7373459794
  0
LINE
  5
4E6
100
AcDbEntity
  8
0
100
AcDbLine
 62
7
  6
CONTINUOUS
 10
188.9336015449
 20
194.4302403198
 11
188.9336015449
 21
237.8969025028
  0
LINE
  5
4E7
100
AcDbEntity
  8
0
100
AcDbLine
 62
7
  6
CONTINUOUS
 10
196.9336015449
 20
120.2971579738
 11
196.9336015449
 21
140.7713358477
  0
LINE
  5
4E8
100
AcDbEntity
  8
0
100
AcDbLine
 62
7
  6
CONTINUOUS
 10
197.9336015449
 20
243.8302268688
 11
197.9336015449
 21
525.8302268688
  0
LINE
  5
4E9
100
AcDbEntity
  8
0
100
AcDbLine
 62
7
  6
CONTINUOUS
 10
199.9336015449
 20
151.4849346442
 11
199.9336015449
 21
145.8525713985
  0
LINE
  5
4EA
100
AcDbEntity
  8
0
100
AcDbLine
 62
7
  6
CONTINUOUS
 10
330.9922678701
 20
81.6927142578
 11
330.7515506967
 21
81.9683657205
  0
LINE
  5
4EB
100
AcDbEntity
  8
0
100
AcDbLine
 62
7
  6
CONTINUOUS
 10
331.2329850435
 20
82.1503834023
 11
331.1126264568
 21
82.2882091645
  0
LINE
  5
4EC
100
AcDbEntity
  8
0
100
AcDbLine
 62
7
  6
CONTINUOUS
 10
331.2329850435
 20
83.1209549449
 11
331.1126264568
 21
83.2587805837
  0
LINE
  5
4ED
100
AcDbEntity
  8
0
100
AcDbLine
 62
7
  6
CONTINUOUS
 10
349.666507344
 20
60.3386669488
 11
349.8540784259
 21
60.1224154601
  0
LINE
  5
4EE
100
AcDbEntity
  8
0
100
AcDbLine
 62
7
  6
CONTINUOUS
 10
349.7871144898
 20
60.2601670805
 11
349.7335227521
 21
60.3219532202
  0
LINE
  5
4EF
100
AcDbEntity
  8
0
100
AcDbLine
 62
7
  6
CONTINUOUS
 10
350.0952721681
 20
59.9170005231
 11
350.0148845616
 21
60.0096797325
  0
LINE
  5
4F0
100
AcDbEntity
  8
0
100
AcDbLine
 62
7
  6
CONTINUOUS
 10
350.3499615971
 20
59.9261110904
 11
350.4303492036
 21
59.833431881
  0
LINE
  5
4F1
100
AcDbEntity
  8
0
100
AcDbLine
 62
7
  6
CONTINUOUS
 10
350.5241604949
 20
59.7858250789
 11
350.3901811132
 21
59.9402904713
  0
LINE
  5
4F2
100
AcDbEntity
  8
0
100
AcDbLine
 62
7
  6
CONTINUOUS
 10
350.5672598698
 20
59.8867974736
 11
350.7014029074
 21
59.7300593996
  0
LINE
  5
4F3
100
AcDbEntity
  8
0
100
AcDbLine
 62
7
  6
CONTINUOUS
 10
351.0421916719
 20
59.7890572554
 11
350.9080487208
 21
59.9457952596
  0
LINE
  5
4F4
100
AcDbEntity
  8
0
100
AcDbLine
 62
7
  6
CONTINUOUS
 10
350.7961633605
 20
59.6798122331
 11
350.638982192
 21
59.8658879994
  0
LINE
  5
4F5
100
AcDbEntity
  8
0
100
AcDbLine
 62
7
  6
CONTINUOUS
 10
350.8132881593
 20
59.9960424835
 11
350.970469404
 21
59.8099667008
  0
LINE
  5
4F6
100
AcDbEntity
  8
0
100
AcDbLine
 62
7
  6
CONTINUOUS
 10
335.1052009041
 20
74.7905491897
 11
335.7738956249
 21
73.9960094843
  0
LINE
  5
4F7
100
AcDbEntity
  8
0
100
AcDbLine
 62
7
  6
CONTINUOUS
 10
335.7217630829
 20
74.121036846
 11
335.3102586117
 21
74.6099843899
  0
LINE
  5
4F8
100
AcDbEntity
  8
0
100
AcDbLine
 62
7
  6
CONTINUOUS
 10
336.3765590091
 20
73.6710472267
 11
336.427997059
 21
73.6099287944
  0
LINE
  5
4F9
100
AcDbEntity
  8
0
100
AcDbLine
 62
7
  6
CONTINUOUS
 10
335.7537418195
 20
74.4489257371
 11
335.6251466948
 21
74.6017218179
  0
LINE
  5
4FA
100
AcDbEntity
  8
0
100
AcDbLine
 62
7
  6
CONTINUOUS
 10
336.5301786668
 20
73.5516008592
 11
336.427302567
 21
73.6738377238
  0
LINE
  5
4FB
100
AcDbEntity
  8
0
100
AcDbLine
 62
7
  6
CONTINUOUS
 10
331.7430046137
 20
78.3362312693
 11
331.9235424937
 21
78.118708602
  0
LINE
  5
4FC
100
AcDbEntity
  8
0
100
AcDbLine
 62
7
  6
CONTINUOUS
 10
330.5710128166
 20
81.5172725419
 11
330.390474768
 21
81.7347954184
  0
LINE
  5
4FD
100
AcDbEntity
  8
0
100
AcDbLine
 62
7
  6
CONTINUOUS
 10
330.6913714033
 20
81.9186531648
 11
330.8719092834
 21
81.7011304358
  0
LINE
  5
4FE
100
AcDbEntity
  8
RUNDUNGEN
100
AcDbLine
 62
7
  6
CONTINUOUS
 10
362.3523603398
 20
35.8937392937
 11
350.0413003573
 21
50.940557771
  0
LINE
  5
4FF
100
AcDbEntity
  8
RUNDUNGEN
100
AcDbLine
 62
7
  6
CONTINUOUS
 10
318.9799689925
 20
88.9043249345
 11
317.3726493516
 21
90.8688224601
  0
LINE
  5
500
100
AcDbEntity
  8
RUNDUNGEN
100
AcDbLine
 62
7
  6
CONTINUOUS
 10
365.8878942457
 20
39.3088028032
 11
353.5768342633
 21
54.3556212805
  0
LINE
  5
501
100
AcDbEntity
  8
RUNDUNGEN
100
AcDbLine
 62
7
  6
CONTINUOUS
 10
331.6837468038
 20
86.1691367047
 11
343.8429193591
 21
71.3079580137
  0
LINE
  5
502
100
AcDbEntity
  8
RUNDUNGEN
100
AcDbLine
 62
7
  6
CONTINUOUS
 10
362.7084175465
 20
48.250176871
 11
366.8265193378
 21
43.2169522572
  0
LINE
  5
503
100
AcDbEntity
  8
0
100
AcDbLine
 62
7
  6
CONTINUOUS
 10
349.4923393444
 20
60.5515756916
 11
349.666507344
 21
60.3386669488
  0
LINE
  5
504
100
AcDbEntity
  8
0
100
AcDbLine
 62
7
  6
CONTINUOUS
 10
331.774598768
 20
80.333129531
 11
331.5338815103
 21
80.6303493161
  0
LINE
  5
505
100
AcDbEntity
  8
0
100
AcDbLine
 62
7
  6
CONTINUOUS
 10
331.955136648
 20
80.7195179098
 11
332.1958538636
 21
80.4222981732
  0
LINE
  5
506
100
AcDbEntity
  8
0
100
AcDbLine
 62
7
  6
CONTINUOUS
 10
349.7335227521
 20
60.3219532202
 11
349.5861506225
 21
60.5039688928
  0
LINE
  5
507
100
AcDbEntity
  8
0
100
AcDbLine
 62
7
  6
CONTINUOUS
 10
350.3599162038
 20
60.1508369633
 11
350.5672598698
 21
59.8867974736
  0
LINE
  5
508
100
AcDbEntity
  8
0
100
AcDbLine
 62
7
  6
CONTINUOUS
 10
350.638982192
 20
59.8658879994
 11
350.4777148962
 21
60.071252047
  0
LINE
  5
509
100
AcDbEntity
  8
0
100
AcDbLine
 62
7
  6
CONTINUOUS
 10
350.970469404
 20
59.8099667008
 11
351.1317366998
 21
59.6046026532
  0
LINE
  5
50A
100
AcDbEntity
  8
0
100
AcDbLine
 62
7
  6
CONTINUOUS
 10
351.249535338
 20
59.5250177656
 11
351.0421916719
 21
59.7890572554
  0
LINE
  5
50B
100
AcDbEntity
  8
0
100
AcDbLine
 62
7
  6
CONTINUOUS
 10
329.8172669735
 20
79.7002811799
 11
330.0579841469
 21
79.3814932277
  0
LINE
  5
50C
100
AcDbEntity
  8
0
100
AcDbLine
 62
7
  6
CONTINUOUS
 10
332.2846183171
 20
77.8130726054
 11
332.0439011226
 21
78.1318606165
  0
LINE
  5
50D
100
AcDbEntity
  8
0
100
AcDbLine
 62
7
  6
CONTINUOUS
 10
330.0895783012
 20
81.982302574
 11
330.2701161813
 21
81.7432116118
  0
LINE
  5
50E
100
AcDbEntity
  8
0
100
AcDbLine
 62
7
  6
CONTINUOUS
 10
331.1728057502
 20
81.4536232956
 11
330.9922678701
 21
81.6927142578
  0
LINE
  5
50F
100
AcDbEntity
  8
0
100
AcDbLine
 62
7
  6
CONTINUOUS
 10
330.81172999
 20
82.2553290264
 11
330.9320885767
 21
82.0959350927
  0
LINE
  5
510
100
AcDbEntity
  8
0
100
AcDbLine
 62
7
  6
CONTINUOUS
 10
331.1728057502
 20
81.8634201581
 11
331.0524471635
 21
82.0228140918
  0
LINE
  5
511
100
AcDbEntity
  8
0
100
AcDbLine
 62
7
  6
CONTINUOUS
 10
332.4365710581
 20
80.2544879795
 11
332.2560331569
 21
80.4935789621
  0
LINE
  5
512
100
AcDbEntity
  8
0
100
AcDbLine
 62
7
  6
CONTINUOUS
 10
330.81172999
 20
82.6004211277
 11
330.9922678701
 21
82.3613301655
  0
LINE
  5
513
100
AcDbEntity
  8
0
100
AcDbLine
 62
7
  6
CONTINUOUS
 10
331.1126264568
 20
82.2882091645
 11
331.0524471635
 21
82.3679061931
  0
LINE
  5
514
100
AcDbEntity
  8
0
100
AcDbLine
 62
7
  6
CONTINUOUS
 10
330.81172999
 20
83.2259004456
 11
330.9320885767
 21
83.0665065119
  0
LINE
  5
515
100
AcDbEntity
  8
0
100
AcDbLine
 62
7
  6
CONTINUOUS
 10
331.1728057502
 20
82.8339915773
 11
331.0524471635
 21
82.9933855109
  0
LINE
  5
516
100
AcDbEntity
  8
0
100
AcDbLine
 62
7
  6
CONTINUOUS
 10
330.81172999
 20
83.5709924234
 11
330.9922678701
 21
83.3319014612
  0
LINE
  5
517
100
AcDbEntity
  8
0
100
AcDbLine
 62
7
  6
CONTINUOUS
 10
331.1126264568
 20
83.2587805837
 11
331.0524471635
 21
83.3384774888
  0
LINE
  5
518
100
AcDbEntity
  8
0
100
AcDbLine
 62
7
  6
CONTINUOUS
 10
335.1521619867
 20
75.9275365415
 11
336.2013798624
 21
74.5300295014
  0
LINE
  5
519
100
AcDbEntity
  8
0
100
AcDbLine
 62
7
  6
CONTINUOUS
 10
336.3821439815
 20
74.2892605106
 11
337.619676408
 21
72.6409276729
  0
LINE
  5
51A
100
AcDbEntity
  8
0
100
AcDbLine
 62
7
  6
CONTINUOUS
 10
337.869676408
 20
72.3079398654
 11
341.869676408
 21
66.9801349451
  0
LINE
  5
51B
100
AcDbEntity
  8
0
100
AcDbLine
 62
7
  6
CONTINUOUS
 10
342.2232297986
 20
66.8752444753
 11
336.1521619867
 21
74.9616107152
  0
LINE
  5
51C
100
AcDbEntity
  8
0
100
AcDbLine
 62
7
  6
CONTINUOUS
 10
349.5861506225
 20
60.5039688928
 11
349.5191660196
 21
60.5933054438
  0
LINE
  5
51D
100
AcDbEntity
  8
0
100
AcDbLine
 62
7
  6
CONTINUOUS
 10
350.0148845616
 20
60.0096797325
 11
349.9478999963
 21
60.0990162402
  0
LINE
  5
51E
100
AcDbEntity
  8
0
100
AcDbLine
 62
7
  6
CONTINUOUS
 10
350.4303492036
 20
59.833431881
 11
350.497333741
 21
59.7440954141
  0
LINE
  5
51F
100
AcDbEntity
  8
0
100
AcDbLine
 62
7
  6
CONTINUOUS
 10
336.2081131048
 20
74.4962343055
 11
336.2870167278
 21
74.3879776687
  0
LINE
  5
520
100
AcDbEntity
  8
RUNDUNGEN
100
AcDbLine
 62
7
  6
CONTINUOUS
 10
317.5829505558
 20
76.8479372129
 11
314.6627760845
 21
81.1950966312
  0
LINE
  5
521
100
AcDbEntity
  8
RUNDUNGEN
100
AcDbLine
 62
7
  6
CONTINUOUS
 10
321.1184844617
 20
80.2630007224
 11
318.1983099905
 21
84.6101601407
  0
LINE
  5
522
100
AcDbEntity
  8
0
100
AcDbLine
 62
7
  6
CONTINUOUS
 10
207.1836015449
 20
140.4541540175
 11
205.9187182164
 21
150.6378983033
  0
LINE
  5
523
100
AcDbEntity
  8
0
100
AcDbLine
 62
7
  6
CONTINUOUS
 10
207.1836015449
 20
148.0096565714
 11
206.2639157801
 21
155.4141692574
  0
LINE
  5
524
100
AcDbEntity
  8
0
100
AcDbLine
 62
7
  6
CONTINUOUS
 10
211.4479786407
 20
163.7582367083
 11
211.6032873097
 21
155.4141692574
  0
LINE
  5
525
100
AcDbEntity
  8
0
100
AcDbLine
 62
7
  6
CONTINUOUS
 10
202.6836015449
 20
163.4589625365
 11
202.6836015449
 21
154.9788204186
  0
LINE
  5
526
100
AcDbEntity
  8
BEZUGSACHSEN
100
AcDbLine
 62
7
  6
CONTINUOUS
 10
202.6836015449
 20
163.4592599462
 11
202.6836015449
 21
181.7746489533
  0
LINE
  5
527
100
AcDbEntity
  8
0
100
AcDbLine
 62
7
  6
CONTINUOUS
 10
207.1836015449
 20
148.0096565714
 11
207.1836015449
 21
140.4541540175
  0
LINE
  5
528
100
AcDbEntity
  8
0
100
AcDbLine
 62
7
  6
CONTINUOUS
 10
210.6836015449
 20
148.0096565714
 11
210.6836015449
 21
140.4541540175
  0
LINE
  5
529
100
AcDbEntity
  8
RUNDUNGEN
100
AcDbLine
 62
7
  6
CONTINUOUS
 10
215.1836015449
 20
163.4589625365
 11
215.1836015449
 21
154.9788204186
  0
LINE
  5
52A
100
AcDbEntity
  8
BEZUGSACHSEN
100
AcDbLine
 62
7
  6
CONTINUOUS
 10
215.1836015449
 20
163.4592599462
 11
215.1836015449
 21
181.7746489533
  0
LINE
  5
52B
100
AcDbEntity
  8
RUNDUNGEN
100
AcDbLine
 62
7
  6
CONTINUOUS
 10
217.9336015449
 20
151.4849346442
 11
217.9336015449
 21
145.8525713985
  0
LINE
  5
52C
100
AcDbEntity
  8
0
100
AcDbLine
 62
7
  6
CONTINUOUS
 10
219.9336015449
 20
243.8302268688
 11
219.9336015449
 21
525.8302268688
  0
LINE
  5
52D
100
AcDbEntity
  8
0
100
AcDbLine
 62
7
  6
CONTINUOUS
 10
206.4192244491
 20
163.7582367083
 11
206.2639157801
 21
155.4141692574
  0
LINE
  5
52E
100
AcDbEntity
  8
0
100
AcDbLine
 62
7
  6
CONTINUOUS
 10
349.3851660886
 20
60.6993556357
 11
349.4923393444
 21
60.5515756916
  0
LINE
  5
52F
100
AcDbEntity
  8
0
100
AcDbLine
 62
7
  6
CONTINUOUS
 10
350.6313336813
 20
59.638045203
 11
350.5241604949
 21
59.7858250789
  0
LINE
  5
530
100
AcDbEntity
  8
0
100
AcDbLine
 62
7
  6
CONTINUOUS
 10
350.4777148962
 20
60.071252047
 11
350.358437811
 21
60.2372289747
  0
LINE
  5
531
100
AcDbEntity
  8
0
100
AcDbLine
 62
7
  6
CONTINUOUS
 10
351.1317366998
 20
59.6046026532
 11
351.2510137087
 21
59.4386257419
  0
LINE
  5
532
100
AcDbEntity
  8
0
100
AcDbLine
 62
7
  6
CONTINUOUS
 10
336.427997059
 20
73.6099287944
 11
336.4898615823
 21
73.5238049024
  0
LINE
  5
533
100
AcDbEntity
  8
0
100
AcDbLine
 62
7
  6
CONTINUOUS
 10
350.2636773579
 20
60.2874761412
 11
350.3599162038
 21
60.1508369633
  0
LINE
  5
534
100
AcDbEntity
  8
0
100
AcDbLine
 62
7
  6
CONTINUOUS
 10
351.3457742703
 20
59.3883785179
 11
351.249535338
 21
59.5250177656
  0
LINE
  5
535
100
AcDbEntity
  8
0
100
AcDbLine
 62
7
  6
CONTINUOUS
 10
330.390474768
 20
81.7347954184
 11
330.2099368879
 21
81.9954546293
  0
LINE
  5
536
100
AcDbEntity
  8
0
100
AcDbLine
 62
7
  6
CONTINUOUS
 10
331.2931643369
 20
80.8197277381
 11
331.4737022169
 21
80.5590685233
  0
LINE
  5
537
100
AcDbEntity
  8
0
100
AcDbLine
 62
7
  6
CONTINUOUS
 10
330.8719092834
 20
81.7011304358
 11
331.0524471635
 21
81.4404712403
  0
LINE
  5
538
100
AcDbEntity
  8
0
100
AcDbLine
 62
7
  6
CONTINUOUS
 10
336.6281887939
 20
73.4099122383
 11
336.5301786668
 21
73.5516008592
  0
LINE
  5
539
100
AcDbEntity
  8
RUNDUNGEN
100
AcDbLine
 62
7
  6
CONTINUOUS
 10
322.034292398
 20
86.8169954966
 11
326.2523221898
 21
80.5377652257
  0
LINE
  5
53A
100
AcDbEntity
  8
0
100
AcDbLine
 62
7
  6
CONTINUOUS
 10
330.1783427336
 20
79.3946452752
 11
330.0579841469
 21
79.5756075192
  0
LINE
  5
53B
100
AcDbEntity
  8
0
100
AcDbLine
 62
7
  6
CONTINUOUS
 10
331.9235424937
 20
78.118708602
 11
332.0439011226
 21
77.9377463327
  0
LINE
  5
53C
100
AcDbEntity
  8
0
100
AcDbLine
 62
7
  6
CONTINUOUS
 10
350.2135148178
 20
60.3654399591
 11
350.2636773579
 21
60.2874761412
  0
LINE
  5
53D
100
AcDbEntity
  8
0
100
AcDbLine
 62
7
  6
CONTINUOUS
 10
351.3959366916
 20
59.310414811
 11
351.3457742703
 21
59.3883785179
  0
LINE
  5
53E
100
AcDbEntity
  8
0
100
AcDbLine
 62
7
  6
CONTINUOUS
 10
351.3771345871
 20
60.0096467582
 11
351.4392961364
 21
59.9129553326
  0
LINE
  5
53F
100
AcDbEntity
  8
0
100
AcDbLine
 62
7
  6
CONTINUOUS
 10
351.6645753497
 20
59.7465458868
 11
351.6024138004
 21
59.8432373124
  0
LINE
  5
540
100
AcDbEntity
  8
0
100
AcDbLine
 62
7
  6
CONTINUOUS
 10
329.9090404212
 20
82.2645300489
 11
330.0895783012
 21
81.982302574
  0
LINE
  5
541
100
AcDbEntity
  8
0
100
AcDbLine
 62
7
  6
CONTINUOUS
 10
332.2748241255
 20
79.7919788622
 11
332.2356781843
 21
79.8531740969
  0
LINE
  5
542
100
AcDbEntity
  8
0
100
AcDbLine
 62
7
  6
CONTINUOUS
 10
332.6171089539
 20
79.9722605356
 11
332.4365710581
 21
80.2544879795
  0
LINE
  5
543
100
AcDbEntity
  8
0
100
AcDbLine
 62
7
  6
CONTINUOUS
 10
334.7162070011
 20
74.8215868883
 11
335.2590554878
 21
73.9567447904
  0
LINE
  5
544
100
AcDbEntity
  8
0
100
AcDbLine
 62
7
  6
CONTINUOUS
 10
335.3251737078
 20
73.9643839413
 11
334.9442186913
 21
74.5730978111
  0
LINE
  5
545
100
AcDbEntity
  8
0
100
AcDbLine
 62
7
  6
CONTINUOUS
 10
329.6969083868
 20
79.9028116571
 11
329.8172669735
 21
79.7002811799
  0
LINE
  5
546
100
AcDbEntity
  8
0
100
AcDbLine
 62
7
  6
CONTINUOUS
 10
332.091720483
 20
77.3885149935
 11
332.0085291782
 21
77.5285031148
  0
LINE
  5
547
100
AcDbEntity
  8
0
100
AcDbLine
 62
7
  6
CONTINUOUS
 10
332.4049769196
 20
77.6105421283
 11
332.2846183171
 21
77.8130726054
  0
LINE
  5
548
100
AcDbEntity
  8
0
100
AcDbLine
 62
7
  6
CONTINUOUS
 10
331.2329850435
 20
80.9209929844
 11
331.2931643369
 21
80.8197277381
  0
LINE
  5
549
100
AcDbEntity
  8
0
100
AcDbLine
 62
7
  6
CONTINUOUS
 10
331.5338815103
 20
80.6303493161
 11
331.4135229236
 21
80.8328797933
  0
LINE
  5
54A
100
AcDbEntity
  8
0
100
AcDbLine
 62
7
  6
CONTINUOUS
 10
331.2329850435
 20
81.3523580338
 11
331.1728057502
 21
81.4536232956
  0
LINE
  5
54B
100
AcDbEntity
  8
KONSTRUKTIONSELEMENTE
100
AcDbLine
 62
7
  6
CONTINUOUS
 10
257.969251432
 20
153.222125087
 11
257.9361014811
 21
153.3128756659
  0
LINE
  5
54C
100
AcDbEntity
  8
KONSTRUKTIONSELEMENTE
100
AcDbLine
 62
7
  6
CONTINUOUS
 10
261.0849320457
 20
157.1601961052
 11
261.1180819965
 21
157.0694455263
  0
LINE
  5
54D
100
AcDbEntity
  8
KONSTRUKTIONSELEMENTE
100
AcDbLine
 62
7
  6
CONTINUOUS
 10
261.4384854363
 20
156.8186897542
 11
261.4716353871
 21
156.7279391754
  0
LINE
  5
54E
100
AcDbEntity
  8
RUNDUNGEN
100
AcDbLine
 62
7
  6
CONTINUOUS
 10
220.9336015449
 20
120.2971579738
 11
220.9336015449
 21
122.0410551409
  0
LINE
  5
54F
100
AcDbEntity
  8
KONSTRUKTIONSELEMENTE
100
AcDbLine
 62
7
  6
CONTINUOUS
 10
220.9336015449
 20
120.2971579738
 11
220.9336015449
 21
130.3393369238
  0
LINE
  5
550
100
AcDbEntity
  8
RUNDUNGEN
100
AcDbLine
 62
7
  6
CONTINUOUS
 10
220.9336015449
 20
128.5954397568
 11
220.9336015449
 21
140.7713358477
  0
LINE
  5
551
100
AcDbEntity
  8
0
100
AcDbLine
 62
7
  6
CONTINUOUS
 10
228.9336015449
 20
237.8969025028
 11
228.9336015449
 21
194.4302403198
  0
LINE
  5
552
100
AcDbEntity
  8
0
100
AcDbLine
 62
7
  6
CONTINUOUS
 10
210.6836015449
 20
148.0096565714
 11
211.6032873097
 21
155.4141692574
  0
LINE
  5
553
100
AcDbEntity
  8
RUNDUNGEN
100
AcDbLine
 62
7
  6
CONTINUOUS
 10
210.6836015449
 20
140.4541540175
 11
211.9484848734
 21
150.6378983033
  0
LINE
  5
554
100
AcDbEntity
  8
0
100
AcDbLine
 62
7
  6
CONTINUOUS
 10
349.5191660196
 20
60.5933054438
 11
349.4655845801
 21
60.6792991609
  0
LINE
  5
555
100
AcDbEntity
  8
0
100
AcDbLine
 62
7
  6
CONTINUOUS
 10
350.497333741
 20
59.7440954141
 11
350.5509151897
 21
59.6581016779
  0
LINE
  5
556
100
AcDbEntity
  8
0
100
AcDbLine
 62
7
  6
CONTINUOUS
 10
351.9293291271
 20
59.7220375087
 11
353.1041378809
 21
57.819027797
  0
LINE
  5
557
100
AcDbEntity
  8
0
100
AcDbLine
 62
7
  6
CONTINUOUS
 10
353.242286904
 20
57.5952476016
 11
355.7289693192
 21
53.5672040835
  0
LINE
  5
558
100
AcDbEntity
  8
0
100
AcDbLine
 62
7
  6
CONTINUOUS
 10
356.0118120317
 20
53.6429662379
 11
352.745825708
 21
58.9333623741
  0
LINE
  5
559
100
AcDbEntity
  8
0
100
AcDbLine
 62
7
  6
CONTINUOUS
 10
332.1958538636
 20
80.4222981732
 11
332.3162124503
 21
80.2197677114
  0
LINE
  5
55A
100
AcDbEntity
  8
0
100
AcDbLine
 62
7
  6
CONTINUOUS
 10
331.0524471635
 20
82.3679061931
 11
330.9922678701
 21
82.4691713931
  0
LINE
  5
55B
100
AcDbEntity
  8
0
100
AcDbLine
 62
7
  6
CONTINUOUS
 10
331.0524471635
 20
83.3384774888
 11
330.9922678701
 21
83.4397428123
  0
LINE
  5
55C
100
AcDbEntity
  8
0
100
AcDbLine
 62
7
  6
CONTINUOUS
 10
349.318191859
 20
60.8128996776
 11
349.3851660886
 21
60.6993556357
  0
LINE
  5
55D
100
AcDbEntity
  8
0
100
AcDbLine
 62
7
  6
CONTINUOUS
 10
350.6983079203
 20
59.5245011503
 11
350.6313336813
 21
59.638045203
  0
LINE
  5
55E
100
AcDbEntity
  8
0
100
AcDbLine
 62
7
  6
CONTINUOUS
 10
336.4898615823
 20
73.5238049024
 11
336.5364336595
 21
73.4432347138
  0
LINE
  5
55F
100
AcDbEntity
  8
0
100
AcDbLine
 62
7
  6
CONTINUOUS
 10
350.1592662911
 20
60.4626919595
 11
350.2135148178
 21
60.3654399591
  0
LINE
  5
560
100
AcDbEntity
  8
0
100
AcDbLine
 62
7
  6
CONTINUOUS
 10
351.4501852887
 20
59.2131627612
 11
351.3959366916
 21
59.310414811
  0
LINE
  5
561
100
AcDbEntity
  8
0
100
AcDbLine
 62
7
  6
CONTINUOUS
 10
336.6851873355
 20
73.3043366008
 11
336.6281887939
 21
73.4099122383
  0
LINE
  5
562
100
AcDbEntity
  8
0
100
AcDbLine
 62
7
  6
CONTINUOUS
 10
330.0579841469
 20
79.5756075192
 11
329.9978048536
 21
79.6984410141
  0
LINE
  5
563
100
AcDbEntity
  8
0
100
AcDbLine
 62
7
  6
CONTINUOUS
 10
330.7515506967
 20
82.3781625214
 11
330.81172999
 21
82.2553290264
  0
LINE
  5
564
100
AcDbEntity
  8
0
100
AcDbLine
 62
7
  6
CONTINUOUS
 10
331.0524471635
 20
82.0228140918
 11
330.9922678701
 21
82.1456475867
  0
LINE
  5
565
100
AcDbEntity
  8
0
100
AcDbLine
 62
7
  6
CONTINUOUS
 10
330.7515506967
 20
82.7232546227
 11
330.81172999
 21
82.6004211277
  0
LINE
  5
566
100
AcDbEntity
  8
0
100
AcDbLine
 62
7
  6
CONTINUOUS
 10
330.7515506967
 20
83.3487339405
 11
330.81172999
 21
83.2259004456
  0
LINE
  5
567
100
AcDbEntity
  8
0
100
AcDbLine
 62
7
  6
CONTINUOUS
 10
331.0524471635
 20
82.9933855109
 11
330.9922678701
 21
83.1162190059
  0
LINE
  5
568
100
AcDbEntity
  8
0
100
AcDbLine
 62
7
  6
CONTINUOUS
 10
330.7515506967
 20
83.6938259184
 11
330.81172999
 21
83.5709924234
  0
LINE
  5
569
100
AcDbEntity
  8
0
100
AcDbLine
 62
7
  6
CONTINUOUS
 10
246.9336015449
 20
237.8969025028
 11
246.9336015449
 21
194.4302403198
  0
LINE
  5
56A
100
AcDbEntity
  8
0
100
AcDbLine
 62
7
  6
CONTINUOUS
 10
349.9478999963
 20
60.0990162402
 11
349.9211144256
 21
60.1541168874
  0
LINE
  5
56B
100
AcDbEntity
  8
0
100
AcDbLine
 62
7
  6
CONTINUOUS
 10
350.358437811
 20
60.2372289747
 11
350.2960170633
 21
60.3730576157
  0
LINE
  5
56C
100
AcDbEntity
  8
0
100
AcDbLine
 62
7
  6
CONTINUOUS
 10
351.2510137087
 20
59.4386257419
 11
351.3134345165
 21
59.3027971051
  0
LINE
  5
56D
100
AcDbEntity
  8
0
100
AcDbLine
 62
7
  6
CONTINUOUS
 10
329.6367290935
 20
80.0472134161
 11
329.6969083868
 21
79.9028116571
  0
LINE
  5
56E
100
AcDbEntity
  8
0
100
AcDbLine
 62
7
  6
CONTINUOUS
 10
330.2099368879
 20
81.9954546293
 11
330.1497575946
 21
82.1398563882
  0
LINE
  5
56F
100
AcDbEntity
  8
0
100
AcDbLine
 62
7
  6
CONTINUOUS
 10
332.0439011226
 20
77.9377463327
 11
332.1040804159
 21
77.7933445737
  0
LINE
  5
570
100
AcDbEntity
  8
0
100
AcDbLine
 62
7
  6
CONTINUOUS
 10
331.0524471635
 20
81.4404712403
 11
331.1126264568
 21
81.2960694814
  0
LINE
  5
571
100
AcDbEntity
  8
0
100
AcDbLine
 62
7
  6
CONTINUOUS
 10
331.4135229236
 20
80.8328797933
 11
331.3533436302
 21
80.9772815523
  0
LINE
  5
572
100
AcDbEntity
  8
0
100
AcDbLine
 62
7
  6
CONTINUOUS
 10
332.3162124503
 20
80.2197677114
 11
332.3763917437
 21
80.0753659524
  0
LINE
  5
573
100
AcDbEntity
  8
KONSTRUKTIONSELEMENTE
100
AcDbLine
 62
7
  6
CONTINUOUS
 10
319.1339880046
 20
94.1415263734
 11
319.1008380538
 21
94.2322769522
  0
LINE
  5
574
100
AcDbEntity
  8
KONSTRUKTIONSELEMENTE
100
AcDbLine
 62
7
  6
CONTINUOUS
 10
322.2496686183
 20
98.0795973915
 11
322.2828185691
 21
97.9888468126
  0
LINE
  5
575
100
AcDbEntity
  8
KONSTRUKTIONSELEMENTE
100
AcDbLine
 62
7
  6
CONTINUOUS
 10
322.6032220089
 20
97.7380910405
 11
322.6363719597
 21
97.6473404617
  0
LINE
  5
576
100
AcDbEntity
  8
0
100
AcDbLine
 62
7
  6
CONTINUOUS
 10
203.4188956626
 20
184.7373459794
 11
206.4102699759
 21
190.346172817
  0
LINE
  5
577
100
AcDbEntity
  8
0
100
AcDbLine
 62
7
  6
CONTINUOUS
 10
329.8488611278
 20
82.4305000565
 11
329.9090404212
 21
82.2645300489
  0
LINE
  5
578
100
AcDbEntity
  8
0
100
AcDbLine
 62
7
  6
CONTINUOUS
 10
332.4651562182
 20
77.4445721311
 11
332.4049769196
 21
77.6105421283
  0
LINE
  5
579
100
AcDbEntity
  8
0
100
AcDbLine
 62
7
  6
CONTINUOUS
 10
332.6772882526
 20
79.8062905075
 11
332.6171089539
 21
79.9722605356
  0
LINE
  5
57A
100
AcDbEntity
  8
0
100
AcDbLine
 62
7
  6
CONTINUOUS
 10
199.9669232151
 20
145.9083196393
 11
196.9669232151
 21
140.8892218168
  0
LINE
  5
57B
100
AcDbEntity
  8
0
100
AcDbLine
 62
7
  6
CONTINUOUS
 10
349.4655845801
 20
60.6792991609
 11
349.4522020882
 21
60.7310570631
  0
LINE
  5
57C
100
AcDbEntity
  8
0
100
AcDbLine
 62
7
  6
CONTINUOUS
 10
349.7603495107
 20
60.3636828837
 11
349.7871144898
 21
60.2601670805
  0
LINE
  5
57D
100
AcDbEntity
  8
0
100
AcDbLine
 62
7
  6
CONTINUOUS
 10
349.9211144256
 20
60.1541168874
 11
349.9077319337
 21
60.2058747896
  0
LINE
  5
57E
100
AcDbEntity
  8
0
100
AcDbLine
 62
7
  6
CONTINUOUS
 10
350.5509151897
 20
59.6581016779
 11
350.5642976816
 21
59.6063437757
  0
LINE
  5
57F
100
AcDbEntity
  8
0
100
AcDbLine
 62
7
  6
CONTINUOUS
 10
335.8809433108
 20
73.9571332522
 11
335.8649562672
 21
74.0265959382
  0
LINE
  5
580
100
AcDbEntity
  8
0
100
AcDbLine
 62
7
  6
CONTINUOUS
 10
350.1470080293
 20
60.5205568114
 11
350.1592662911
 21
60.4626919595
  0
LINE
  5
581
100
AcDbEntity
  8
0
100
AcDbLine
 62
7
  6
CONTINUOUS
 10
351.4624435585
 20
59.1552978991
 11
351.4501852887
 21
59.2131627612
  0
LINE
  5
582
100
AcDbEntity
  8
0
100
AcDbLine
 62
7
  6
CONTINUOUS
 10
336.2013798624
 20
74.5300295014
 11
336.2081131048
 21
74.4962343055
  0
LINE
  5
583
100
AcDbEntity
  8
0
100
AcDbLine
 62
7
  6
CONTINUOUS
 10
349.3048196653
 20
60.8888651572
 11
349.318191859
 21
60.8128996776
  0
LINE
  5
584
100
AcDbEntity
  8
0
100
AcDbLine
 62
7
  6
CONTINUOUS
 10
350.7116801498
 20
59.4485356555
 11
350.6983079203
 21
59.5245011503
  0
LINE
  5
585
100
AcDbEntity
  8
0
100
AcDbLine
 62
7
  6
CONTINUOUS
 10
336.5364336595
 20
73.4432347138
 11
336.5419941422
 21
73.3987775193
  0
LINE
  5
586
100
AcDbEntity
  8
0
100
AcDbLine
 62
7
  6
CONTINUOUS
 10
328.4346475654
 20
80.6044238938
 11
328.4346475654
 21
77.4985953525
  0
LINE
  5
587
100
AcDbEntity
  8
0
100
AcDbLine
 62
7
  6
CONTINUOUS
 10
328.5053582436
 20
77.4302940824
 11
328.5053582436
 21
79.8603029395
  0
LINE
  5
588
100
AcDbEntity
  8
0
100
AcDbLine
 62
7
  6
CONTINUOUS
 10
328.788200956
 20
77.2864985241
 11
328.788200956
 21
80.1335080203
  0
LINE
  5
589
100
AcDbEntity
  8
0
100
AcDbLine
 62
7
  6
CONTINUOUS
 10
329.6367290935
 20
80.1550546746
 11
329.6367290935
 21
80.0472134161
  0
LINE
  5
58A
100
AcDbEntity
  8
0
100
AcDbLine
 62
7
  6
CONTINUOUS
 10
329.8488611278
 20
82.516773051
 11
329.8488611278
 21
82.4305000565
  0
LINE
  5
58B
100
AcDbEntity
  8
0
100
AcDbLine
 62
7
  6
CONTINUOUS
 10
329.9978048536
 20
79.6984410141
 11
329.9978048536
 21
79.8278505367
  0
LINE
  5
58C
100
AcDbEntity
  8
0
100
AcDbLine
 62
7
  6
CONTINUOUS
 10
330.1497575946
 20
82.1398563882
 11
330.1497575946
 21
82.2261293827
  0
LINE
  5
58D
100
AcDbEntity
  8
0
100
AcDbLine
 62
7
  6
CONTINUOUS
 10
330.2987013203
 20
79.6666163601
 11
330.2987013203
 21
79.7960258826
  0
LINE
  5
58E
100
AcDbEntity
  8
0
100
AcDbLine
 62
7
  6
CONTINUOUS
 10
335.7210686784
 20
74.1849457437
 11
335.7217630829
 21
74.121036846
  0
LINE
  5
58F
100
AcDbEntity
  8
0
100
AcDbLine
 62
7
  6
CONTINUOUS
 10
336.6858817468
 20
73.2404276951
 11
336.6851873355
 21
73.3043366008
  0
LINE
  5
590
100
AcDbEntity
  8
0
100
AcDbLine
 62
7
  6
CONTINUOUS
 10
330.7515506967
 20
83.780099098
 11
330.7515506967
 21
83.6938259184
  0
LINE
  5
591
100
AcDbEntity
  8
0
100
AcDbLine
 62
7
  6
CONTINUOUS
 10
330.7515506967
 20
83.4350068733
 11
330.7515506967
 21
83.3487339405
  0
LINE
  5
592
100
AcDbEntity
  8
0
100
AcDbLine
 62
7
  6
CONTINUOUS
 10
330.7515506967
 20
83.2408927129
 11
330.7515506967
 21
83.1330513618
  0
LINE
  5
593
100
AcDbEntity
  8
0
100
AcDbLine
 62
7
  6
CONTINUOUS
 10
330.7515506967
 20
82.8095275554
 11
330.7515506967
 21
82.7232546227
  0
LINE
  5
594
100
AcDbEntity
  8
0
100
AcDbLine
 62
7
  6
CONTINUOUS
 10
330.7515506967
 20
82.4644355775
 11
330.7515506967
 21
82.3781625214
  0
LINE
  5
595
100
AcDbEntity
  8
0
100
AcDbLine
 62
7
  6
CONTINUOUS
 10
330.7515506967
 20
82.2703212937
 11
330.7515506967
 21
82.1624800044
  0
LINE
  5
596
100
AcDbEntity
  8
0
100
AcDbLine
 62
7
  6
CONTINUOUS
 10
330.8403151291
 20
79.0140481026
 11
330.8403151291
 21
78.8846385801
  0
LINE
  5
597
100
AcDbEntity
  8
0
100
AcDbLine
 62
7
  6
CONTINUOUS
 10
330.9922678701
 20
82.1456475867
 11
330.9922678701
 21
82.1887840531
  0
LINE
  5
598
100
AcDbEntity
  8
0
100
AcDbLine
 62
7
  6
CONTINUOUS
 10
330.9922678701
 20
82.4691713931
 11
330.9922678701
 21
82.5338761544
  0
LINE
  5
599
100
AcDbEntity
  8
0
100
AcDbLine
 62
7
  6
CONTINUOUS
 10
330.9922678701
 20
83.1162190059
 11
330.9922678701
 21
83.1593555957
  0
LINE
  5
59A
100
AcDbEntity
  8
0
100
AcDbLine
 62
7
  6
CONTINUOUS
 10
330.9922678701
 20
83.4397428123
 11
330.9922678701
 21
83.5044475735
  0
LINE
  5
59B
100
AcDbEntity
  8
0
100
AcDbLine
 62
7
  6
CONTINUOUS
 10
331.1126264568
 20
81.2960694814
 11
331.1126264568
 21
81.2097964869
  0
LINE
  5
59C
100
AcDbEntity
  8
0
100
AcDbLine
 62
7
  6
CONTINUOUS
 10
331.2013908892
 20
78.5358661781
 11
331.2013908892
 21
78.6652757007
  0
LINE
  5
59D
100
AcDbEntity
  8
0
100
AcDbLine
 62
7
  6
CONTINUOUS
 10
331.3533436302
 20
80.9772815523
 11
331.3533436302
 21
81.0635545467
  0
LINE
  5
59E
100
AcDbEntity
  8
0
100
AcDbLine
 62
7
  6
CONTINUOUS
 10
331.6828253203
 20
77.8551536796
 11
331.6828253203
 21
77.7257441571
  0
LINE
  5
59F
100
AcDbEntity
  8
0
100
AcDbLine
 62
7
  6
CONTINUOUS
 10
332.1040804159
 20
77.7933445737
 11
332.1040804159
 21
77.6207985231
  0
LINE
  5
5A0
100
AcDbEntity
  8
0
100
AcDbLine
 62
7
  6
CONTINUOUS
 10
332.3763917437
 20
80.0753659524
 11
332.3763917437
 21
79.989092958
  0
LINE
  5
5A1
100
AcDbEntity
  8
0
100
AcDbLine
 62
7
  6
CONTINUOUS
 10
332.4651562182
 20
77.2720260804
 11
332.4651562182
 21
77.4445721311
  0
LINE
  5
5A2
100
AcDbEntity
  8
0
100
AcDbLine
 62
7
  6
CONTINUOUS
 10
332.6772882526
 20
79.6768809849
 11
332.6772882526
 21
79.8062905075
  0
LINE
  5
5A3
100
AcDbEntity
  8
0
100
AcDbLine
 62
7
  6
CONTINUOUS
 10
332.6772882526
 20
80.6474524041
 11
332.6772882526
 21
80.7552936317
  0
LINE
  5
5A4
100
AcDbEntity
  8
0
100
AcDbLine
 62
7
  6
CONTINUOUS
 10
332.6772882526
 20
80.3023603645
 11
332.6772882526
 21
80.4102016539
  0
LINE
  5
5A5
100
AcDbEntity
  8
0
100
AcDbLine
 62
7
  6
CONTINUOUS
 10
332.6772882526
 20
81.2729317219
 11
332.6772882526
 21
81.380773073
  0
LINE
  5
5A6
100
AcDbEntity
  8
0
100
AcDbLine
 62
7
  6
CONTINUOUS
 10
332.6772882526
 20
80.9925445053
 11
332.6772882526
 21
81.100385733
  0
LINE
  5
5A7
100
AcDbEntity
  8
0
100
AcDbLine
 62
7
  6
CONTINUOUS
 10
332.6772882526
 20
81.6180238232
 11
332.6772882526
 21
81.7258651743
  0
LINE
  5
5A8
100
AcDbEntity
  8
0
100
AcDbLine
 62
7
  6
CONTINUOUS
 10
332.6772882526
 20
81.9631158011
 11
332.6772882526
 21
82.0709571521
  0
LINE
  5
5A9
100
AcDbEntity
  8
0
100
AcDbLine
 62
7
  6
CONTINUOUS
 10
333.0308416432
 20
76.0354318089
 11
333.0308416432
 21
73.1884223128
  0
LINE
  5
5AA
100
AcDbEntity
  8
0
100
AcDbLine
 62
7
  6
CONTINUOUS
 10
333.1015523213
 20
72.9907115201
 11
333.1015523213
 21
75.5501298998
  0
LINE
  5
5AB
100
AcDbEntity
  8
0
100
AcDbLine
 62
7
  6
CONTINUOUS
 10
333.3843950337
 20
72.7175064393
 11
333.3843950337
 21
75.8233349805
  0
LINE
  5
5AC
100
AcDbEntity
  8
0
100
AcDbLine
 62
7
  6
CONTINUOUS
 10
335.1521619867
 20
73.468755613
 11
335.1521619867
 21
73.3393460905
  0
LINE
  5
5AD
100
AcDbEntity
  8
0
100
AcDbLine
 62
7
  6
CONTINUOUS
 10
342.2232297986
 20
71.3195745698
 11
342.2232297986
 21
66.8752444753
  0
LINE
  5
5AE
100
AcDbEntity
  8
0
100
AcDbLine
 62
7
  6
CONTINUOUS
 10
342.2939404767
 20
66.4409178014
 11
342.2939404767
 21
70.9414790194
  0
LINE
  5
5AF
100
AcDbEntity
  8
0
100
AcDbLine
 62
7
  6
CONTINUOUS
 10
342.5767831892
 20
66.2971222432
 11
342.5767831892
 21
71.2146841001
  0
LINE
  5
5B0
100
AcDbEntity
  8
0
100
AcDbLine
 62
7
  6
CONTINUOUS
 10
343.4794726569
 20
69.7647238376
 11
343.4794726569
 21
69.6784508185
  0
LINE
  5
5B1
100
AcDbEntity
  8
0
100
AcDbLine
 62
7
  6
CONTINUOUS
 10
343.8646202692
 20
69.5825004368
 11
343.8646202692
 21
69.3926998119
  0
LINE
  5
5B2
100
AcDbEntity
  8
0
100
AcDbLine
 62
7
  6
CONTINUOUS
 10
343.8646202692
 20
69.3064267928
 11
343.8646202692
 21
69.1683899646
  0
LINE
  5
5B3
100
AcDbEntity
  8
0
100
AcDbLine
 62
7
  6
CONTINUOUS
 10
344.057194008
 20
68.9823780169
 11
344.057194008
 21
69.1204148451
  0
LINE
  5
5B4
100
AcDbEntity
  8
0
100
AcDbLine
 62
7
  6
CONTINUOUS
 10
344.057194008
 20
69.2066878642
 11
344.057194008
 21
69.3964884891
  0
LINE
  5
5B5
100
AcDbEntity
  8
0
100
AcDbLine
 62
7
  6
CONTINUOUS
 10
346.1123170951
 20
67.7996205907
 11
346.1123170951
 21
62.8820587337
  0
LINE
  5
5B6
100
AcDbEntity
  8
0
100
AcDbLine
 62
7
  6
CONTINUOUS
 10
346.1830277732
 20
62.684347941
 11
346.1830277732
 21
67.3143186815
  0
LINE
  5
5B7
100
AcDbEntity
  8
0
100
AcDbLine
 62
7
  6
CONTINUOUS
 10
346.4658704857
 20
62.4111428602
 11
346.4658704857
 21
67.5875237623
  0
LINE
  5
5B8
100
AcDbEntity
  8
0
100
AcDbLine
 62
7
  6
CONTINUOUS
 10
349.647851001
 20
59.4411133197
 11
349.647851001
 21
59.3375857017
  0
LINE
  5
5B9
100
AcDbEntity
  8
0
100
AcDbLine
 62
7
  6
CONTINUOUS
 10
356.0118120317
 20
57.8492141965
 11
356.0118120317
 21
53.6429662379
  0
LINE
  5
5BA
100
AcDbEntity
  8
0
100
AcDbLine
 62
7
  6
CONTINUOUS
 10
356.0825227098
 20
53.1221701145
 11
356.0825227098
 21
57.6227313325
  0
LINE
  5
5BB
100
AcDbEntity
  8
0
100
AcDbLine
 62
7
  6
CONTINUOUS
 10
356.3653654223
 20
52.9783745563
 11
356.3653654223
 21
57.8959364132
  0
LINE
  5
5BC
100
AcDbEntity
  8
0
100
AcDbLine
 62
7
  6
CONTINUOUS
 10
357.5603057568
 20
56.1636834907
 11
357.5603057568
 21
56.0774104716
  0
LINE
  5
5BD
100
AcDbEntity
  8
0
100
AcDbLine
 62
7
  6
CONTINUOUS
 10
357.9454533692
 20
55.9814600899
 11
357.9454533692
 21
55.791659465
  0
LINE
  5
5BE
100
AcDbEntity
  8
0
100
AcDbLine
 62
7
  6
CONTINUOUS
 10
357.9454533692
 20
55.7053864459
 11
357.9454533692
 21
55.5673496177
  0
LINE
  5
5BF
100
AcDbEntity
  8
0
100
AcDbLine
 62
7
  6
CONTINUOUS
 10
358.1380271079
 20
55.38133767
 11
358.1380271079
 21
55.5193744982
  0
LINE
  5
5C0
100
AcDbEntity
  8
0
100
AcDbLine
 62
7
  6
CONTINUOUS
 10
358.1380271079
 20
55.6056475173
 11
358.1380271079
 21
55.7954481422
  0
LINE
  5
5C1
100
AcDbEntity
  8
0
100
AcDbLine
 62
7
  6
CONTINUOUS
 10
359.9008993282
 20
54.4808729038
 11
359.9008993282
 21
49.5633110468
  0
LINE
  5
5C2
100
AcDbEntity
  8
0
100
AcDbLine
 62
7
  6
CONTINUOUS
 10
359.9716100064
 20
49.3656002541
 11
359.9716100064
 21
53.9955709946
  0
LINE
  5
5C3
100
AcDbEntity
  8
0
100
AcDbLine
 62
7
  6
CONTINUOUS
 10
360.2544527188
 20
49.0923951733
 11
360.2544527188
 21
54.2687760754
  0
LINE
  5
5C4
100
AcDbEntity
  8
RUNDUNGEN
100
AcDbLine
 62
7
  6
CONTINUOUS
 10
368.0326273119
 20
48.5414877658
 11
368.0326273119
 21
47.1309989908
  0
LINE
  5
5C5
100
AcDbEntity
  8
RUNDUNGEN
100
AcDbLine
 62
7
  6
CONTINUOUS
 10
368.0326273119
 20
41.2038928162
 11
368.0326273119
 21
39.7934040413
  0
LINE
  5
5C6
100
AcDbEntity
  8
RUNDUNGEN
100
AcDbLine
 62
7
  6
CONTINUOUS
 10
375.1036951238
 20
43.4195664445
 11
375.1036951238
 21
42.7466369272
  0
LINE
  5
5C7
100
AcDbEntity
  8
RUNDUNGEN
100
AcDbLine
 62
7
  6
CONTINUOUS
 10
375.1036951238
 20
31.928000842
 11
375.1036951238
 21
31.2550713247
  0
LINE
  5
5C8
100
AcDbEntity
  8
0
100
AcDbLine
 62
7
  6
CONTINUOUS
 10
351.3900661089
 20
60.0508683685
 11
351.3771345871
 21
60.0096467582
  0
LINE
  5
5C9
100
AcDbEntity
  8
0
100
AcDbLine
 62
7
  6
CONTINUOUS
 10
351.651643739
 20
59.7053244148
 11
351.6645753497
 21
59.7465458868
  0
LINE
  5
5CA
100
AcDbEntity
  8
0
100
AcDbLine
 62
7
  6
CONTINUOUS
 10
350.2960170633
 20
60.3730576157
 11
350.3067969866
 21
60.4015847464
  0
LINE
  5
5CB
100
AcDbEntity
  8
0
100
AcDbLine
 62
7
  6
CONTINUOUS
 10
351.3134345165
 20
59.3027971051
 11
351.3026545932
 21
59.2742699743
  0
LINE
  5
5CC
100
AcDbEntity
  8
RUNDUNGEN
100
AcDbLine
 62
7
  6
CONTINUOUS
 10
314.4809813223
 20
96.2638900105
 11
315.7078191597
 21
97.4489243624
  0
LINE
  5
5CD
100
AcDbEntity
  8
0
100
AcDbLine
 62
7
  6
CONTINUOUS
 10
349.4522020882
 20
60.7310570631
 11
349.4656154652
 21
60.7519218954
  0
LINE
  5
5CE
100
AcDbEntity
  8
0
100
AcDbLine
 62
7
  6
CONTINUOUS
 10
349.9077319337
 20
60.2058747896
 11
349.9211453107
 21
60.226739622
  0
LINE
  5
5CF
100
AcDbEntity
  8
0
100
AcDbLine
 62
7
  6
CONTINUOUS
 10
320.6480688948
 20
90.5155857109
 11
317.1125349888
 21
87.1005222015
  0
LINE
  5
5D0
100
AcDbEntity
  8
RUNDUNGEN
100
AcDbLine
 62
7
  6
CONTINUOUS
 10
318.0596876401
 20
84.9800191621
 11
314.5241537342
 21
81.5649556526
  0
LINE
  5
5D1
100
AcDbEntity
  8
0
100
AcDbLine
 62
7
  6
CONTINUOUS
 10
330.81172999
 20
83.7866751256
 11
330.7515506967
 21
83.7285463919
  0
LINE
  5
5D2
100
AcDbEntity
  8
0
100
AcDbLine
 62
7
  6
CONTINUOUS
 10
330.9320885767
 20
83.7135540012
 11
330.7985858345
 21
83.5846002546
  0
LINE
  5
5D3
100
AcDbEntity
  8
0
100
AcDbLine
 62
7
  6
CONTINUOUS
 10
330.81172999
 20
83.4415829009
 11
330.7515506967
 21
83.3834541672
  0
LINE
  5
5D4
100
AcDbEntity
  8
0
100
AcDbLine
 62
7
  6
CONTINUOUS
 10
329.9090404212
 20
82.5664855759
 11
329.8530667047
 21
82.5124191175
  0
LINE
  5
5D5
100
AcDbEntity
  8
0
100
AcDbLine
 62
7
  6
CONTINUOUS
 10
330.9922678701
 20
83.5044475735
 11
330.9169284993
 21
83.4316753295
  0
LINE
  5
5D6
100
AcDbEntity
  8
0
100
AcDbLine
 62
7
  6
CONTINUOUS
 10
330.9922678701
 20
83.4397428123
 11
330.9451807499
 21
83.3942601467
  0
LINE
  5
5D7
100
AcDbEntity
  8
0
100
AcDbLine
 62
7
  6
CONTINUOUS
 10
330.0895783012
 20
82.4999406642
 11
329.8926529747
 21
82.3097254055
  0
LINE
  5
5D8
100
AcDbEntity
  8
0
100
AcDbLine
 62
7
  6
CONTINUOUS
 10
330.9922678701
 20
83.3319014612
 11
330.8459020452
 21
83.1905229308
  0
LINE
  5
5D9
100
AcDbEntity
  8
0
100
AcDbLine
 62
7
  6
CONTINUOUS
 10
331.0524471635
 20
83.3384774888
 11
330.8640988699
 21
83.1565470077
  0
LINE
  5
5DA
100
AcDbEntity
  8
0
100
AcDbLine
 62
7
  6
CONTINUOUS
 10
331.2329850435
 20
83.4660469227
 11
331.1714546725
 21
83.4066131483
  0
LINE
  5
5DB
100
AcDbEntity
  8
0
100
AcDbLine
 62
7
  6
CONTINUOUS
 10
330.9922678701
 20
83.1593555957
 11
330.9147388289
 21
83.0844682925
  0
LINE
  5
5DC
100
AcDbEntity
  8
0
100
AcDbLine
 62
7
  6
CONTINUOUS
 10
331.1126264568
 20
83.2587805837
 11
331.0006790546
 21
83.1506476967
  0
LINE
  5
5DD
100
AcDbEntity
  8
0
100
AcDbLine
 62
7
  6
CONTINUOUS
 10
330.9320885767
 20
83.0665065119
 11
330.8719438654
 21
83.0084111819
  0
LINE
  5
5DE
100
AcDbEntity
  8
0
100
AcDbLine
 62
7
  6
CONTINUOUS
 10
330.9922678701
 20
83.1162190059
 11
330.936294169
 21
83.0621525624
  0
LINE
  5
5DF
100
AcDbEntity
  8
0
100
AcDbLine
 62
7
  6
CONTINUOUS
 10
330.2701161813
 20
82.3902592245
 11
329.9972282118
 21
82.1266696871
  0
LINE
  5
5E0
100
AcDbEntity
  8
0
100
AcDbLine
 62
7
  6
CONTINUOUS
 10
330.1497575946
 20
82.2261293827
 11
330.0161561972
 21
82.0970803426
  0
LINE
  5
5E1
100
AcDbEntity
  8
0
100
AcDbLine
 62
7
  6
CONTINUOUS
 10
330.81172999
 20
82.816103583
 11
330.7515506967
 21
82.7579748494
  0
LINE
  5
5E2
100
AcDbEntity
  8
0
100
AcDbLine
 62
7
  6
CONTINUOUS
 10
330.1497575946
 20
82.1398563882
 11
330.050267185
 21
82.0437560322
  0
LINE
  5
5E3
100
AcDbEntity
  8
0
100
AcDbLine
 62
7
  6
CONTINUOUS
 10
331.0524471635
 20
82.9933855109
 11
330.9742952944
 21
82.9178966022
  0
LINE
  5
5E4
100
AcDbEntity
  8
0
100
AcDbLine
 62
7
  6
CONTINUOUS
 10
331.2329850435
 20
83.1209549449
 11
331.1714546725
 21
83.0615211704
  0
LINE
  5
5E5
100
AcDbEntity
  8
0
100
AcDbLine
 62
7
  6
CONTINUOUS
 10
330.9320885767
 20
82.7429827055
 11
330.7985858345
 21
82.6140289589
  0
LINE
  5
5E6
100
AcDbEntity
  8
0
100
AcDbLine
 62
7
  6
CONTINUOUS
 10
330.2099368879
 20
81.9954546293
 11
330.134597553
 21
81.9226824199
  0
LINE
  5
5E7
100
AcDbEntity
  8
0
100
AcDbLine
 62
7
  6
CONTINUOUS
 10
331.1728057502
 20
82.8339915773
 11
331.1169829591
 21
82.7800709017
  0
LINE
  5
5E8
100
AcDbEntity
  8
0
100
AcDbLine
 62
7
  6
CONTINUOUS
 10
330.81172999
 20
82.4710116052
 11
330.7515506967
 21
82.4128828715
  0
LINE
  5
5E9
100
AcDbEntity
  8
0
100
AcDbLine
 62
7
  6
CONTINUOUS
 10
330.5710128166
 20
82.1427519215
 11
330.5073114096
 21
82.0812210873
  0
LINE
  5
5EA
100
AcDbEntity
  8
0
100
AcDbLine
 62
7
  6
CONTINUOUS
 10
330.9922678701
 20
82.5338761544
 11
330.9169285531
 21
82.4611039624
  0
LINE
  5
5EB
100
AcDbEntity
  8
0
100
AcDbLine
 62
7
  6
CONTINUOUS
 10
330.9922678701
 20
82.4691713931
 11
330.9451808037
 21
82.4236887796
  0
LINE
  5
5EC
100
AcDbEntity
  8
0
100
AcDbLine
 62
7
  6
CONTINUOUS
 10
330.9922678701
 20
82.3613301655
 11
330.8459019835
 21
82.2199515755
  0
LINE
  5
5ED
100
AcDbEntity
  8
0
100
AcDbLine
 62
7
  6
CONTINUOUS
 10
330.390474768
 20
81.7347954184
 11
330.3324155695
 21
81.6787145391
  0
LINE
  5
5EE
100
AcDbEntity
  8
0
100
AcDbLine
 62
7
  6
CONTINUOUS
 10
331.0524471635
 20
82.3679061931
 11
330.864098816
 21
82.18597566
  0
LINE
  5
5EF
100
AcDbEntity
  8
0
100
AcDbLine
 62
7
  6
CONTINUOUS
 10
331.2329850435
 20
82.4954755036
 11
331.1714547069
 21
82.4360417624
  0
LINE
  5
5F0
100
AcDbEntity
  8
0
100
AcDbLine
 62
7
  6
CONTINUOUS
 10
328.788200956
 20
80.1335080203
 11
328.5053582436
 21
79.8603029395
  0
LINE
  5
5F1
100
AcDbEntity
  8
0
100
AcDbLine
 62
7
  6
CONTINUOUS
 10
330.7515506967
 20
81.9683657205
 11
330.6914060162
 21
81.9102704203
  0
LINE
  5
5F2
100
AcDbEntity
  8
0
100
AcDbLine
 62
7
  6
CONTINUOUS
 10
330.9922678701
 20
82.1887840531
 11
330.9147388906
 21
82.1138968095
  0
LINE
  5
5F3
100
AcDbEntity
  8
0
100
AcDbLine
 62
7
  6
CONTINUOUS
 10
331.1126264568
 20
82.2882091645
 11
331.0006789929
 21
82.180076218
  0
LINE
  5
5F4
100
AcDbEntity
  8
0
100
AcDbLine
 62
7
  6
CONTINUOUS
 10
330.9320885767
 20
82.0959350927
 11
330.8719438963
 21
82.0378397926
  0
LINE
  5
5F5
100
AcDbEntity
  8
0
100
AcDbLine
 62
7
  6
CONTINUOUS
 10
330.9922678701
 20
82.1456475867
 11
330.936294169
 21
82.0915811433
  0
LINE
  5
5F6
100
AcDbEntity
  8
0
100
AcDbLine
 62
7
  6
CONTINUOUS
 10
331.0524471635
 20
82.0228140918
 11
330.9742953263
 21
81.9473252139
  0
LINE
  5
5F7
100
AcDbEntity
  8
0
100
AcDbLine
 62
7
  6
CONTINUOUS
 10
330.5710128166
 20
81.5172725419
 11
330.5171245696
 21
81.4652204924
  0
LINE
  5
5F8
100
AcDbEntity
  8
0
100
AcDbLine
 62
7
  6
CONTINUOUS
 10
331.2329850435
 20
82.1503834023
 11
331.1714547069
 21
82.0909496611
  0
LINE
  5
5F9
100
AcDbEntity
  8
0
100
AcDbLine
 62
7
  6
CONTINUOUS
 10
330.9922678701
 20
81.6927142578
 11
330.9236471383
 21
81.6264317208
  0
LINE
  5
5FA
100
AcDbEntity
  8
0
100
AcDbLine
 62
7
  6
CONTINUOUS
 10
330.6913714033
 20
81.4010150746
 11
330.6333122077
 21
81.3449341981
  0
LINE
  5
5FB
100
AcDbEntity
  8
0
100
AcDbLine
 62
7
  6
CONTINUOUS
 10
331.1728057502
 20
81.8634201581
 11
331.1169829911
 21
81.8094995134
  0
LINE
  5
5FC
100
AcDbEntity
  8
0
100
AcDbLine
 62
7
  6
CONTINUOUS
 10
329.6969083868
 20
80.2047672303
 11
329.6409346549
 21
80.150700757
  0
LINE
  5
5FD
100
AcDbEntity
  8
0
100
AcDbLine
 62
7
  6
CONTINUOUS
 10
330.8719092834
 20
81.2697653863
 11
330.7980728631
 21
81.198444881
  0
LINE
  5
5FE
100
AcDbEntity
  8
0
100
AcDbLine
 62
7
  6
CONTINUOUS
 10
331.1728057502
 20
81.4536232956
 11
331.0830835914
 21
81.3669583452
  0
LINE
  5
5FF
100
AcDbEntity
  8
0
100
AcDbLine
 62
7
  6
CONTINUOUS
 10
329.8774462669
 20
80.1166540238
 11
329.685184502
 21
79.9309434197
  0
LINE
  5
600
100
AcDbEntity
  8
0
100
AcDbLine
 62
7
  6
CONTINUOUS
 10
331.0524471635
 20
81.1816521952
 11
330.9533628439
 21
81.085944092
  0
LINE
  5
601
100
AcDbEntity
  8
0
100
AcDbLine
 62
7
  6
CONTINUOUS
 10
331.2329850435
 20
81.3523580338
 11
331.1126264568
 21
81.2361005665
  0
LINE
  5
602
100
AcDbEntity
  8
0
100
AcDbLine
 62
7
  6
CONTINUOUS
 10
331.1126264568
 20
81.2097964869
 11
330.9683460599
 21
81.0704323253
  0
LINE
  5
603
100
AcDbEntity
  8
0
100
AcDbLine
 62
7
  6
CONTINUOUS
 10
331.2931643369
 20
81.3373658283
 11
331.0103216244
 21
81.0641607475
  0
LINE
  5
604
100
AcDbEntity
  8
0
100
AcDbLine
 62
7
  6
CONTINUOUS
 10
330.1181634403
 20
79.9488438504
 11
329.8353207278
 21
79.6756387697
  0
LINE
  5
605
100
AcDbEntity
  8
0
100
AcDbLine
 62
7
  6
CONTINUOUS
 10
329.9978048536
 20
79.8278505367
 11
329.8406613355
 21
79.6760615542
  0
LINE
  5
606
100
AcDbEntity
  8
0
100
AcDbLine
 62
7
  6
CONTINUOUS
 10
331.4737022169
 20
81.2492526218
 11
331.1908595044
 21
80.976047541
  0
LINE
  5
607
100
AcDbEntity
  8
0
100
AcDbLine
 62
7
  6
CONTINUOUS
 10
331.3533436302
 20
81.0635545467
 11
331.2113365043
 21
80.9263861963
  0
LINE
  5
608
100
AcDbEntity
  8
0
100
AcDbLine
 62
7
  6
CONTINUOUS
 10
329.9978048536
 20
79.6984410141
 11
329.8942132655
 21
79.5983792238
  0
LINE
  5
609
100
AcDbEntity
  8
0
100
AcDbLine
 62
7
  6
CONTINUOUS
 10
331.3533436302
 20
80.9772815523
 11
331.2556263377
 21
80.8828938957
  0
LINE
  5
60A
100
AcDbEntity
  8
0
100
AcDbLine
 62
7
  6
CONTINUOUS
 10
350.5642976816
 20
59.6063437757
 11
350.5508843238
 21
59.5854789385
  0
LINE
  5
60B
100
AcDbEntity
  8
0
100
AcDbLine
 62
7
  6
CONTINUOUS
 10
350.1726539271
 20
60.5583228081
 11
350.1470080293
 21
60.5205568114
  0
LINE
  5
60C
100
AcDbEntity
  8
0
100
AcDbLine
 62
7
  6
CONTINUOUS
 10
351.4367975584
 20
59.1175319522
 11
351.4624435585
 21
59.1552978991
  0
LINE
  5
60D
100
AcDbEntity
  8
0
100
AcDbLine
 62
7
  6
CONTINUOUS
 10
345.357066875
 20
68.0028709001
 11
345.4052103139
 21
68.0598955271
  0
LINE
  5
60E
100
AcDbEntity
  8
0
100
AcDbLine
 62
7
  6
CONTINUOUS
 10
330.0579841469
 20
79.5756075192
 11
329.9732273922
 21
79.4937387808
  0
LINE
  5
60F
100
AcDbEntity
  8
0
100
AcDbLine
 62
7
  6
CONTINUOUS
 10
330.2987013203
 20
79.7960258826
 11
330.2248649098
 21
79.7247053868
  0
LINE
  5
610
100
AcDbEntity
  8
0
100
AcDbLine
 62
7
  6
CONTINUOUS
 10
332.6772882526
 20
82.0709571521
 11
332.6233999641
 21
82.0189050625
  0
LINE
  5
611
100
AcDbEntity
  8
0
100
AcDbLine
 62
7
  6
CONTINUOUS
 10
331.4135229236
 20
80.8328797933
 11
331.3359516686
 21
80.7579517147
  0
LINE
  5
612
100
AcDbEntity
  8
0
100
AcDbLine
 62
7
  6
CONTINUOUS
 10
331.774598768
 20
81.0017454001
 11
331.7097533502
 21
80.9391095364
  0
LINE
  5
613
100
AcDbEntity
  8
0
100
AcDbLine
 62
7
  6
CONTINUOUS
 10
330.1783427336
 20
79.3946452752
 11
330.1095058921
 21
79.3281539921
  0
LINE
  5
614
100
AcDbEntity
  8
0
100
AcDbLine
 62
7
  6
CONTINUOUS
 10
331.5338815103
 20
80.6303493161
 11
331.4671301372
 21
80.5658724409
  0
LINE
  5
615
100
AcDbEntity
  8
0
100
AcDbLine
 62
7
  6
CONTINUOUS
 10
332.6772882526
 20
81.7258651743
 11
332.6233999641
 21
81.6738130847
  0
LINE
  5
616
100
AcDbEntity
  8
0
100
AcDbLine
 62
7
  6
CONTINUOUS
 10
331.955136648
 20
80.8273591992
 11
331.9012483904
 21
80.7753071394
  0
LINE
  5
617
100
AcDbEntity
  8
0
100
AcDbLine
 62
7
  6
CONTINUOUS
 10
330.3588807823
 20
79.1986906628
 11
330.2921294053
 21
79.1342137838
  0
LINE
  5
618
100
AcDbEntity
  8
0
100
AcDbLine
 62
7
  6
CONTINUOUS
 10
332.6772882526
 20
81.380773073
 11
332.6233999641
 21
81.3287209834
  0
LINE
  5
619
100
AcDbEntity
  8
0
100
AcDbLine
 62
7
  6
CONTINUOUS
 10
330.479239369
 20
79.0824331954
 11
330.4083170435
 21
79.0139274896
  0
LINE
  5
61A
100
AcDbEntity
  8
0
100
AcDbLine
 62
7
  6
CONTINUOUS
 10
331.774598768
 20
80.333129531
 11
331.7207105219
 21
80.2810774824
  0
LINE
  5
61B
100
AcDbEntity
  8
0
100
AcDbLine
 62
7
  6
CONTINUOUS
 10
332.6772882526
 20
81.100385733
 11
332.6234000257
 21
81.048333703
  0
LINE
  5
61C
100
AcDbEntity
  8
0
100
AcDbLine
 62
7
  6
CONTINUOUS
 10
328.788200956
 20
77.2864985241
 11
328.7212136579
 21
77.2217937629
  0
LINE
  5
61D
100
AcDbEntity
  8
0
100
AcDbLine
 62
7
  6
CONTINUOUS
 10
332.2560331569
 20
80.4935789621
 11
332.1892817858
 21
80.4291020888
  0
LINE
  5
61E
100
AcDbEntity
  8
0
100
AcDbLine
 62
7
  6
CONTINUOUS
 10
330.659777249
 20
78.9296152431
 11
330.5801627567
 21
78.8527135488
  0
LINE
  5
61F
100
AcDbEntity
  8
0
100
AcDbLine
 62
7
  6
CONTINUOUS
 10
331.955136648
 20
80.1587433301
 11
331.9012484019
 21
80.1066912814
  0
LINE
  5
620
100
AcDbEntity
  8
0
100
AcDbLine
 62
7
  6
CONTINUOUS
 10
330.9004944224
 20
79.0637606275
 11
330.8445207059
 21
79.0096941691
  0
LINE
  5
621
100
AcDbEntity
  8
0
100
AcDbLine
 62
7
  6
CONTINUOUS
 10
332.6772882526
 20
80.7552936317
 11
332.6234000257
 21
80.7032416017
  0
LINE
  5
622
100
AcDbEntity
  8
0
100
AcDbLine
 62
7
  6
CONTINUOUS
 10
330.7801358357
 20
78.8780625525
 11
330.6747678801
 21
78.7762849228
  0
LINE
  5
623
100
AcDbEntity
  8
0
100
AcDbLine
 62
7
  6
CONTINUOUS
 10
330.8403151291
 20
78.8846385801
 11
330.7027514108
 21
78.7517622318
  0
LINE
  5
624
100
AcDbEntity
  8
0
100
AcDbLine
 62
7
  6
CONTINUOUS
 10
331.0208530092
 20
79.0337761546
 11
330.7380102967
 21
78.7605710739
  0
LINE
  5
625
100
AcDbEntity
  8
0
100
AcDbLine
 62
7
  6
CONTINUOUS
 10
332.4365710581
 20
80.2544879795
 11
332.3404401712
 21
80.1616326732
  0
LINE
  5
626
100
AcDbEntity
  8
0
100
AcDbLine
 62
7
  6
CONTINUOUS
 10
332.1958538636
 20
79.9909331237
 11
332.1186732835
 21
79.9163824082
  0
LINE
  5
627
100
AcDbEntity
  8
0
100
AcDbLine
 62
7
  6
CONTINUOUS
 10
332.6772882526
 20
80.4102016539
 11
332.6233999949
 21
80.358149594
  0
LINE
  5
628
100
AcDbEntity
  8
0
100
AcDbLine
 62
7
  6
CONTINUOUS
 10
332.3162124503
 20
79.9609486663
 11
332.2004415828
 21
79.8491225955
  0
LINE
  5
629
100
AcDbEntity
  8
0
100
AcDbLine
 62
7
  6
CONTINUOUS
 10
332.3763917437
 20
79.989092958
 11
332.2213336979
 21
79.839318387
  0
LINE
  5
62A
100
AcDbEntity
  8
0
100
AcDbLine
 62
7
  6
CONTINUOUS
 10
331.2615701826
 20
78.8875342762
 11
330.9787274701
 21
78.6143291954
  0
LINE
  5
62B
100
AcDbEntity
  8
0
100
AcDbLine
 62
7
  6
CONTINUOUS
 10
331.2013908892
 20
78.6652757007
 11
331.0593837466
 21
78.5281073341
  0
LINE
  5
62C
100
AcDbEntity
  8
0
100
AcDbLine
 62
7
  6
CONTINUOUS
 10
332.6171089539
 20
79.9722605356
 11
332.3703720683
 21
79.7339310054
  0
LINE
  5
62D
100
AcDbEntity
  8
0
100
AcDbLine
 62
7
  6
CONTINUOUS
 10
331.5022874403
 20
78.6981557265
 11
331.4118953135
 21
78.6108436368
  0
LINE
  5
62E
100
AcDbEntity
  8
0
100
AcDbLine
 62
7
  6
CONTINUOUS
 10
332.6772882526
 20
79.8062905075
 11
332.5264445556
 21
79.6605866849
  0
LINE
  5
62F
100
AcDbEntity
  8
0
100
AcDbLine
 62
7
  6
CONTINUOUS
 10
331.803183907
 20
78.4075120582
 11
331.7364325359
 21
78.3430351849
  0
LINE
  5
630
100
AcDbEntity
  8
0
100
AcDbLine
 62
7
  6
CONTINUOUS
 10
332.0439011226
 20
78.1318606165
 11
331.9652948829
 21
78.0559328195
  0
LINE
  5
631
100
AcDbEntity
  8
0
100
AcDbLine
 62
7
  6
CONTINUOUS
 10
331.8633632004
 20
77.7023357272
 11
331.7901910152
 21
77.6316568238
  0
LINE
  5
632
100
AcDbEntity
  8
0
100
AcDbLine
 62
7
  6
CONTINUOUS
 10
332.0439011226
 20
77.5926542468
 11
331.9427313302
 21
77.4949317315
  0
LINE
  5
633
100
AcDbEntity
  8
0
100
AcDbLine
 62
7
  6
CONTINUOUS
 10
332.2846183171
 20
77.8130726054
 11
332.1040804159
 21
77.638686384
  0
LINE
  5
634
100
AcDbEntity
  8
0
100
AcDbLine
 62
7
  6
CONTINUOUS
 10
332.1040804159
 20
77.6207985231
 11
331.9633751637
 21
77.484887686
  0
LINE
  5
635
100
AcDbEntity
  8
0
100
AcDbLine
 62
7
  6
CONTINUOUS
 10
332.4049769196
 20
77.6105421283
 11
332.1386419629
 21
77.3532823152
  0
LINE
  5
636
100
AcDbEntity
  8
0
100
AcDbLine
 62
7
  6
CONTINUOUS
 10
332.4651562182
 20
77.4445721311
 11
332.281988869
 21
77.267646058
  0
LINE
  5
637
100
AcDbEntity
  8
0
100
AcDbLine
 62
7
  6
CONTINUOUS
 10
333.3843950337
 20
75.8233349805
 11
333.1015523213
 21
75.5501298998
  0
LINE
  5
638
100
AcDbEntity
  8
0
100
AcDbLine
 62
7
  6
CONTINUOUS
 10
333.0308416432
 20
73.1884223128
 11
332.963854345
 21
73.1237175515
  0
LINE
  5
639
100
AcDbEntity
  8
0
100
AcDbLine
 62
7
  6
CONTINUOUS
 10
334.772879763
 20
74.8281347322
 11
334.7402894477
 21
74.796654905
  0
LINE
  5
63A
100
AcDbEntity
  8
0
100
AcDbLine
 62
7
  6
CONTINUOUS
 10
334.9442186913
 20
74.5730978111
 11
334.8993709503
 21
74.5297782199
  0
LINE
  5
63B
100
AcDbEntity
  8
0
100
AcDbLine
 62
7
  6
CONTINUOUS
 10
335.3102586117
 20
74.6099843899
 11
335.2809734678
 21
74.5816971132
  0
LINE
  5
63C
100
AcDbEntity
  8
0
100
AcDbLine
 62
7
  6
CONTINUOUS
 10
335.6251466948
 20
74.6017218179
 11
335.5453219563
 21
74.5246170413
  0
LINE
  5
63D
100
AcDbEntity
  8
0
100
AcDbLine
 62
7
  6
CONTINUOUS
 10
336.1521619867
 20
74.9616107152
 11
335.9928734805
 21
74.8077498332
  0
LINE
  5
63E
100
AcDbEntity
  8
0
100
AcDbLine
 62
7
  6
CONTINUOUS
 10
335.3251737078
 20
73.9643839413
 11
335.2871516746
 21
73.9276574775
  0
LINE
  5
63F
100
AcDbEntity
  8
0
100
AcDbLine
 62
7
  6
CONTINUOUS
 10
335.4857465353
 20
73.9829361658
 11
335.3553852743
 21
73.857016857
  0
LINE
  5
640
100
AcDbEntity
  8
0
100
AcDbLine
 62
7
  6
CONTINUOUS
 10
335.5424192972
 20
73.9894840096
 11
335.3794677209
 21
73.8320848736
  0
LINE
  5
641
100
AcDbEntity
  8
0
100
AcDbLine
 62
7
  6
CONTINUOUS
 10
335.7718122363
 20
74.1877362408
 11
335.7215657107
 21
74.1392018241
  0
LINE
  5
642
100
AcDbEntity
  8
0
100
AcDbLine
 62
7
  6
CONTINUOUS
 10
335.7217630829
 20
74.121036846
 11
335.6924779391
 21
74.0927495692
  0
LINE
  5
643
100
AcDbEntity
  8
0
100
AcDbLine
 62
7
  6
CONTINUOUS
 10
335.6368738913
 20
74.0003970816
 11
335.4149451757
 21
73.7860304035
  0
LINE
  5
644
100
AcDbEntity
  8
0
100
AcDbLine
 62
7
  6
CONTINUOUS
 10
335.8635673707
 20
74.1544137653
 11
335.7380231714
 21
74.0331473809
  0
LINE
  5
645
100
AcDbEntity
  8
0
100
AcDbLine
 62
7
  6
CONTINUOUS
 10
335.8649562672
 20
74.0265959382
 11
335.8170614241
 21
73.9803330723
  0
LINE
  5
646
100
AcDbEntity
  8
0
100
AcDbLine
 62
7
  6
CONTINUOUS
 10
335.9657489784
 20
74.0960858301
 11
335.9013915124
 21
74.0339212916
  0
LINE
  5
647
100
AcDbEntity
  8
0
100
AcDbLine
 62
7
  6
CONTINUOUS
 10
335.7134281048
 20
73.8031171582
 11
335.6808377895
 21
73.771637331
  0
LINE
  5
648
100
AcDbEntity
  8
0
100
AcDbLine
 62
7
  6
CONTINUOUS
 10
336.1193687236
 20
73.9766394309
 11
336.0846219695
 21
73.9430766438
  0
LINE
  5
649
100
AcDbEntity
  8
0
100
AcDbLine
 62
7
  6
CONTINUOUS
 10
336.0971220198
 20
73.6876540206
 11
336.0663058257
 21
73.6578878628
  0
LINE
  5
64A
100
AcDbEntity
  8
0
100
AcDbLine
 62
7
  6
CONTINUOUS
 10
336.2681223906
 20
73.8377413286
 11
336.2373061964
 21
73.8079751708
  0
LINE
  5
64B
100
AcDbEntity
  8
0
100
AcDbLine
 62
7
  6
CONTINUOUS
 10
336.2305831532
 20
73.5543096534
 11
336.1997669591
 21
73.5245434956
  0
LINE
  5
64C
100
AcDbEntity
  8
0
100
AcDbLine
 62
7
  6
CONTINUOUS
 10
336.427302567
 20
73.6738377238
 11
336.399657135
 21
73.6471342871
  0
LINE
  5
64D
100
AcDbEntity
  8
0
100
AcDbLine
 62
7
  6
CONTINUOUS
 10
336.3278987703
 20
73.4765299834
 11
336.2931520156
 21
73.4429671955
  0
LINE
  5
64E
100
AcDbEntity
  8
0
100
AcDbLine
 62
7
  6
CONTINUOUS
 10
336.5301786668
 20
73.5516008592
 11
336.4954319127
 21
73.5180380721
  0
LINE
  5
64F
100
AcDbEntity
  8
0
100
AcDbLine
 62
7
  6
CONTINUOUS
 10
336.414787914
 20
73.4237557729
 11
336.3723837674
 21
73.3827965126
  0
LINE
  5
650
100
AcDbEntity
  8
0
100
AcDbLine
 62
7
  6
CONTINUOUS
 10
335.8592687679
 20
72.7857429111
 11
335.7922814698
 21
72.7210381499
  0
LINE
  5
651
100
AcDbEntity
  8
0
100
AcDbLine
 62
7
  6
CONTINUOUS
 10
336.5065430484
 20
73.3904332974
 11
336.4421855812
 21
73.3282687577
  0
LINE
  5
652
100
AcDbEntity
  8
0
100
AcDbLine
 62
7
  6
CONTINUOUS
 10
336.5419941422
 20
73.3987775193
 11
336.4551272558
 21
73.3148705503
  0
LINE
  5
653
100
AcDbEntity
  8
0
100
AcDbLine
 62
7
  6
CONTINUOUS
 10
336.6281887939
 20
73.4099122383
 11
336.5062680794
 21
73.2921458715
  0
LINE
  5
654
100
AcDbEntity
  8
0
100
AcDbLine
 62
7
  6
CONTINUOUS
 10
336.6851873355
 20
73.3043366008
 11
336.6259658816
 21
73.247133069
  0
LINE
  5
655
100
AcDbEntity
  8
0
100
AcDbLine
 62
7
  6
CONTINUOUS
 10
336.0451941411
 20
72.4767432689
 11
336.3117036831
 21
72.7341717185
  0
LINE
  5
656
100
AcDbEntity
  8
0
100
AcDbLine
 62
7
  6
CONTINUOUS
 10
336.2128221585
 20
72.4442365602
 11
336.1458348604
 21
72.3795317989
  0
LINE
  5
657
100
AcDbEntity
  8
0
100
AcDbLine
 62
7
  6
CONTINUOUS
 10
337.619676408
 20
72.6409276729
 11
337.4922606008
 21
72.517853454
  0
LINE
  5
658
100
AcDbEntity
  8
0
100
AcDbLine
 62
7
  6
CONTINUOUS
 10
342.2232297986
 20
71.6855999736
 11
341.9894711654
 21
71.4598064727
  0
LINE
  5
659
100
AcDbEntity
  8
0
100
AcDbLine
 62
7
  6
CONTINUOUS
 10
342.5767831892
 20
71.2146841001
 11
342.2939404767
 21
70.9414790194
  0
LINE
  5
65A
100
AcDbEntity
  8
0
100
AcDbLine
 62
7
  6
CONTINUOUS
 10
343.8646202692
 20
69.3926998119
 11
343.8215096693
 21
69.3510581701
  0
LINE
  5
65B
100
AcDbEntity
  8
0
100
AcDbLine
 62
7
  6
CONTINUOUS
 10
344.057194008
 20
69.3964884891
 11
343.8646202692
 21
69.2104765414
  0
LINE
  5
65C
100
AcDbEntity
  8
0
100
AcDbLine
 62
7
  6
CONTINUOUS
 10
344.057194008
 20
69.2066878642
 11
343.9384329316
 21
69.0919734734
  0
LINE
  5
65D
100
AcDbEntity
  8
0
100
AcDbLine
 62
7
  6
CONTINUOUS
 10
344.057194008
 20
69.1204148451
 11
343.9882170492
 21
69.0537882193
  0
LINE
  5
65E
100
AcDbEntity
  8
0
100
AcDbLine
 62
7
  6
CONTINUOUS
 10
341.869676408
 20
66.9801349451
 11
341.8026891099
 21
66.9154301838
  0
LINE
  5
65F
100
AcDbEntity
  8
0
100
AcDbLine
 62
7
  6
CONTINUOUS
 10
342.2232297986
 20
66.8752444753
 11
342.0337611076
 21
66.6922317735
  0
LINE
  5
660
100
AcDbEntity
  8
0
100
AcDbLine
 62
7
  6
CONTINUOUS
 10
329.9090404212
 20
82.5664855759
 11
329.8488611278
 21
82.516773051
  0
LINE
  5
661
100
AcDbEntity
  8
0
100
AcDbLine
 62
7
  6
CONTINUOUS
 10
329.6969083868
 20
80.2047672303
 11
329.6367290935
 21
80.1550546746
  0
LINE
  5
662
100
AcDbEntity
  8
0
100
AcDbLine
 62
7
  6
CONTINUOUS
 10
330.9004944224
 20
79.0637606275
 11
330.8403151291
 21
79.0140481026
  0
LINE
  5
663
100
AcDbEntity
  8
0
100
AcDbLine
 62
7
  6
CONTINUOUS
 10
332.6171089539
 20
79.6271684497
 11
332.6772882526
 21
79.6768809849
  0
LINE
  5
664
100
AcDbEntity
  8
0
100
AcDbLine
 62
7
  6
CONTINUOUS
 10
332.4049769196
 20
77.2223135607
 11
332.4651562182
 21
77.2720260804
  0
LINE
  5
665
100
AcDbEntity
  8
0
100
AcDbLine
 62
7
  6
CONTINUOUS
 10
359.437899975
 20
54.4018305532
 11
359.4860434139
 21
54.4588551802
  0
LINE
  5
666
100
AcDbEntity
  8
0
100
AcDbLine
 62
7
  6
CONTINUOUS
 10
342.5767831892
 20
66.2971222432
 11
342.5097958911
 21
66.2324174819
  0
LINE
  5
667
100
AcDbEntity
  8
0
100
AcDbLine
 62
7
  6
CONTINUOUS
 10
344.9237758997
 20
68.3696340344
 11
344.8791176988
 21
68.3264975249
  0
LINE
  5
668
100
AcDbEntity
  8
0
100
AcDbLine
 62
7
  6
CONTINUOUS
 10
345.0682062374
 20
68.2473796276
 11
345.0148051467
 21
68.195798135
  0
LINE
  5
669
100
AcDbEntity
  8
0
100
AcDbLine
 62
7
  6
CONTINUOUS
 10
345.1644931068
 20
68.2061374628
 11
345.0906566938
 21
68.1348169646
  0
LINE
  5
66A
100
AcDbEntity
  8
0
100
AcDbLine
 62
7
  6
CONTINUOUS
 10
345.2126365583
 20
68.2459074911
 11
345.0944982869
 21
68.1317946837
  0
LINE
  5
66B
100
AcDbEntity
  8
0
100
AcDbLine
 62
7
  6
CONTINUOUS
 10
345.4052103139
 20
68.0598955271
 11
345.3518092169
 21
68.0083140283
  0
LINE
  5
66C
100
AcDbEntity
  8
0
100
AcDbLine
 62
7
  6
CONTINUOUS
 10
346.4658704857
 20
67.5875237623
 11
346.1830277732
 21
67.3143186815
  0
LINE
  5
66D
100
AcDbEntity
  8
0
100
AcDbLine
 62
7
  6
CONTINUOUS
 10
346.1123170951
 20
62.8820587337
 11
346.045329797
 21
62.8173539724
  0
LINE
  5
66E
100
AcDbEntity
  8
0
100
AcDbLine
 62
7
  6
CONTINUOUS
 10
349.3450392093
 20
60.9030444971
 11
349.3085312003
 21
60.8677804684
  0
LINE
  5
66F
100
AcDbEntity
  8
0
100
AcDbLine
 62
7
  6
CONTINUOUS
 10
349.3986515242
 20
60.8896735171
 11
349.31866369
 21
60.8124112022
  0
LINE
  5
670
100
AcDbEntity
  8
0
100
AcDbLine
 62
7
  6
CONTINUOUS
 10
349.4924627963
 20
60.8420667198
 11
349.3656426108
 21
60.7195678272
  0
LINE
  5
671
100
AcDbEntity
  8
0
100
AcDbLine
 62
7
  6
CONTINUOUS
 10
349.4482502107
 20
60.7351483477
 11
349.3977294734
 21
60.6863490627
  0
LINE
  5
672
100
AcDbEntity
  8
0
100
AcDbLine
 62
7
  6
CONTINUOUS
 10
349.4522020882
 20
60.7310570631
 11
349.4016813509
 21
60.6822577781
  0
LINE
  5
673
100
AcDbEntity
  8
0
100
AcDbLine
 62
7
  6
CONTINUOUS
 10
349.4655845801
 20
60.6792991609
 11
349.4268473346
 21
60.641881855
  0
LINE
  5
674
100
AcDbEntity
  8
0
100
AcDbLine
 62
7
  6
CONTINUOUS
 10
349.6398658253
 20
60.7326737781
 11
349.6051353164
 21
60.6991266826
  0
LINE
  5
675
100
AcDbEntity
  8
0
100
AcDbLine
 62
7
  6
CONTINUOUS
 10
349.5191660196
 20
60.5933054438
 11
349.4844355077
 21
60.5597583454
  0
LINE
  5
676
100
AcDbEntity
  8
0
100
AcDbLine
 62
7
  6
CONTINUOUS
 10
349.5861506225
 20
60.5039688928
 11
349.5555015286
 21
60.4743641415
  0
LINE
  5
677
100
AcDbEntity
  8
0
100
AcDbLine
 62
7
  6
CONTINUOUS
 10
349.7872585465
 20
60.5990732614
 11
349.7614798357
 21
60.5741729389
  0
LINE
  5
678
100
AcDbEntity
  8
0
100
AcDbLine
 62
7
  6
CONTINUOUS
 10
349.7335227521
 20
60.3219532202
 11
349.7072057052
 21
60.2965329049
  0
LINE
  5
679
100
AcDbEntity
  8
0
100
AcDbLine
 62
7
  6
CONTINUOUS
 10
349.8005690548
 20
60.3778622237
 11
349.7654534119
 21
60.3439431174
  0
LINE
  5
67A
100
AcDbEntity
  8
0
100
AcDbLine
 62
7
  6
CONTINUOUS
 10
349.867584458
 20
60.3611484962
 11
349.7823036181
 21
60.2787735305
  0
LINE
  5
67B
100
AcDbEntity
  8
0
100
AcDbLine
 62
7
  6
CONTINUOUS
 10
349.7871144898
 20
60.2601670805
 11
349.7639474948
 21
60.2377894817
  0
LINE
  5
67C
100
AcDbEntity
  8
0
100
AcDbLine
 62
7
  6
CONTINUOUS
 10
349.9613957493
 20
60.3135416942
 11
349.8103718638
 21
60.1676638228
  0
LINE
  5
67D
100
AcDbEntity
  8
0
100
AcDbLine
 62
7
  6
CONTINUOUS
 10
349.9037800562
 20
60.2099660743
 11
349.8343190385
 21
60.1428718833
  0
LINE
  5
67E
100
AcDbEntity
  8
0
100
AcDbLine
 62
7
  6
CONTINUOUS
 10
349.9077319337
 20
60.2058747896
 11
349.838270916
 21
60.1387805987
  0
LINE
  5
67F
100
AcDbEntity
  8
0
100
AcDbLine
 62
7
  6
CONTINUOUS
 10
350.263328329
 20
60.5273639064
 11
350.1771776579
 21
60.4441487482
  0
LINE
  5
680
100
AcDbEntity
  8
0
100
AcDbLine
 62
7
  6
CONTINUOUS
 10
349.9211144256
 20
60.1541168874
 11
349.8705936882
 21
60.1053176024
  0
LINE
  5
681
100
AcDbEntity
  8
0
100
AcDbLine
 62
7
  6
CONTINUOUS
 10
349.9478999963
 20
60.0990162402
 11
349.911056131
 21
60.0634277992
  0
LINE
  5
682
100
AcDbEntity
  8
0
100
AcDbLine
 62
7
  6
CONTINUOUS
 10
350.3067969866
 20
60.4015847464
 11
350.2404780471
 21
60.33752557
  0
LINE
  5
683
100
AcDbEntity
  8
0
100
AcDbLine
 62
7
  6
CONTINUOUS
 10
350.1087987399
 20
60.204148762
 11
350.0740682311
 21
60.1706016666
  0
LINE
  5
684
100
AcDbEntity
  8
0
100
AcDbLine
 62
7
  6
CONTINUOUS
 10
350.2960170633
 20
60.3730576157
 11
350.2365218196
 21
60.3155896232
  0
LINE
  5
685
100
AcDbEntity
  8
0
100
AcDbLine
 62
7
  6
CONTINUOUS
 10
350.4000791012
 20
60.4377295626
 11
350.3497079463
 21
60.3890747632
  0
LINE
  5
686
100
AcDbEntity
  8
0
100
AcDbLine
 62
7
  6
CONTINUOUS
 10
350.0148845616
 20
60.0096797325
 11
349.9822674105
 21
59.9781739839
  0
LINE
  5
687
100
AcDbEntity
  8
0
100
AcDbLine
 62
7
  6
CONTINUOUS
 10
350.358437811
 20
60.2372289747
 11
350.3231054733
 21
60.2031005572
  0
LINE
  5
688
100
AcDbEntity
  8
0
100
AcDbLine
 62
7
  6
CONTINUOUS
 10
350.2293955923
 20
60.1014413152
 11
350.1962401093
 21
60.0694155779
  0
LINE
  5
689
100
AcDbEntity
  8
0
100
AcDbLine
 62
7
  6
CONTINUOUS
 10
350.0952721681
 20
59.9170005231
 11
350.0673800949
 21
59.8900588491
  0
LINE
  5
68A
100
AcDbEntity
  8
0
100
AcDbLine
 62
7
  6
CONTINUOUS
 10
350.563954218
 20
60.2994691753
 11
350.5297742685
 21
60.2664538793
  0
LINE
  5
68B
100
AcDbEntity
  8
0
100
AcDbLine
 62
7
  6
CONTINUOUS
 10
350.1890628534
 20
59.8209785686
 11
350.1632841378
 21
59.7960782414
  0
LINE
  5
68C
100
AcDbEntity
  8
0
100
AcDbLine
 62
7
  6
CONTINUOUS
 10
350.4777148962
 20
60.071252047
 11
350.446266459
 21
60.0408751894
  0
LINE
  5
68D
100
AcDbEntity
  8
0
100
AcDbLine
 62
7
  6
CONTINUOUS
 10
350.3901811132
 20
59.9402904713
 11
350.3622890325
 21
59.9133487902
  0
LINE
  5
68E
100
AcDbEntity
  8
0
100
AcDbLine
 62
7
  6
CONTINUOUS
 10
350.6899250669
 20
60.1813077007
 11
350.658486888
 21
60.1509407517
  0
LINE
  5
68F
100
AcDbEntity
  8
0
100
AcDbLine
 62
7
  6
CONTINUOUS
 10
350.2962566458
 20
59.7216138451
 11
350.2646761888
 21
59.6911094661
  0
LINE
  5
690
100
AcDbEntity
  8
0
100
AcDbLine
 62
7
  6
CONTINUOUS
 10
350.5241604949
 20
59.7858250789
 11
350.489429986
 21
59.7522779834
  0
LINE
  5
691
100
AcDbEntity
  8
0
100
AcDbLine
 62
7
  6
CONTINUOUS
 10
350.3900576293
 20
59.649799468
 11
350.3553271198
 21
59.616252372
  0
LINE
  5
692
100
AcDbEntity
  8
0
100
AcDbLine
 62
7
  6
CONTINUOUS
 10
350.8199819669
 20
60.0438579613
 11
350.7926256995
 21
60.017433836
  0
LINE
  5
693
100
AcDbEntity
  8
0
100
AcDbLine
 62
7
  6
CONTINUOUS
 10
350.638982192
 20
59.8658879994
 11
350.6123267432
 21
59.8401408131
  0
LINE
  5
694
100
AcDbEntity
  8
0
100
AcDbLine
 62
7
  6
CONTINUOUS
 10
350.4570627439
 20
59.6088781608
 11
350.4158204914
 21
59.5690412039
  0
LINE
  5
695
100
AcDbEntity
  8
0
100
AcDbLine
 62
7
  6
CONTINUOUS
 10
350.9080487208
 20
59.9457952596
 11
350.8841350289
 21
59.922696407
  0
LINE
  5
696
100
AcDbEntity
  8
0
100
AcDbLine
 62
7
  6
CONTINUOUS
 10
350.5508843238
 20
59.5854789385
 11
350.4866867133
 21
59.5234688086
  0
LINE
  5
697
100
AcDbEntity
  8
0
100
AcDbLine
 62
7
  6
CONTINUOUS
 10
350.6313336813
 20
59.638045203
 11
350.4992500865
 21
59.5104622476
  0
LINE
  5
698
100
AcDbEntity
  8
0
100
AcDbLine
 62
7
  6
CONTINUOUS
 10
350.7961633605
 20
59.6798122331
 11
350.772249696
 21
59.6567134069
  0
LINE
  5
699
100
AcDbEntity
  8
0
100
AcDbLine
 62
7
  6
CONTINUOUS
 10
350.6983079203
 20
59.5245011503
 11
350.613056681
 21
59.4421547766
  0
LINE
  5
69A
100
AcDbEntity
  8
0
100
AcDbLine
 62
7
  6
CONTINUOUS
 10
351.0421916719
 20
59.7890572554
 11
351.0155362368
 21
59.7633100822
  0
LINE
  5
69B
100
AcDbEntity
  8
0
100
AcDbLine
 62
7
  6
CONTINUOUS
 10
351.46515918
 20
59.9953985532
 11
351.4165067467
 21
59.9484039114
  0
LINE
  5
69C
100
AcDbEntity
  8
0
100
AcDbLine
 62
7
  6
CONTINUOUS
 10
351.0102009148
 20
59.4635881184
 11
350.9848856274
 21
59.4391354284
  0
LINE
  5
69D
100
AcDbEntity
  8
0
100
AcDbLine
 62
7
  6
CONTINUOUS
 10
350.3549577822
 20
58.7581006178
 11
350.3013679437
 21
58.7063368088
  0
LINE
  5
69E
100
AcDbEntity
  8
0
100
AcDbLine
 62
7
  6
CONTINUOUS
 10
351.249535338
 20
59.5250177656
 11
351.2137615938
 21
59.4904629822
  0
LINE
  5
69F
100
AcDbEntity
  8
0
100
AcDbLine
 62
7
  6
CONTINUOUS
 10
351.1131335786
 20
59.3747643648
 11
351.0789536281
 21
59.3417490679
  0
LINE
  5
6A0
100
AcDbEntity
  8
0
100
AcDbLine
 62
7
  6
CONTINUOUS
 10
351.6024138004
 20
59.8432373124
 11
351.5528666724
 21
59.7953784619
  0
LINE
  5
6A1
100
AcDbEntity
  8
0
100
AcDbLine
 62
7
  6
CONTINUOUS
 10
351.6645753497
 20
59.7465458868
 11
351.6372871198
 21
59.7201874807
  0
LINE
  5
6A2
100
AcDbEntity
  8
0
100
AcDbLine
 62
7
  6
CONTINUOUS
 10
351.2309322168
 20
59.2951794772
 11
351.1912687244
 21
59.2568674856
  0
LINE
  5
6A3
100
AcDbEntity
  8
0
100
AcDbLine
 62
7
  6
CONTINUOUS
 10
351.3457742703
 20
59.3883785179
 11
351.2961383272
 21
59.3404338787
  0
LINE
  5
6A4
100
AcDbEntity
  8
0
100
AcDbLine
 62
7
  6
CONTINUOUS
 10
350.4936340088
 20
58.520622051
 11
350.7267938669
 21
58.7458371795
  0
LINE
  5
6A5
100
AcDbEntity
  8
0
100
AcDbLine
 62
7
  6
CONTINUOUS
 10
351.3026545932
 20
59.2742699743
 11
351.242651937
 21
59.216311859
  0
LINE
  5
6A6
100
AcDbEntity
  8
0
100
AcDbLine
 62
7
  6
CONTINUOUS
 10
351.3959366916
 20
59.310414811
 11
351.2759313868
 21
59.1944985878
  0
LINE
  5
6A7
100
AcDbEntity
  8
0
100
AcDbLine
 62
7
  6
CONTINUOUS
 10
350.6378004947
 20
58.4848955371
 11
350.5842106562
 21
58.4331317281
  0
LINE
  5
6A8
100
AcDbEntity
  8
0
100
AcDbLine
 62
7
  6
CONTINUOUS
 10
351.4501852887
 20
59.2131627612
 11
351.3735406426
 21
59.1391297182
  0
LINE
  5
6A9
100
AcDbEntity
  8
0
100
AcDbLine
 62
7
  6
CONTINUOUS
 10
352.745825708
 20
58.9333623741
 11
352.5393404278
 21
58.7339129091
  0
LINE
  5
6AA
100
AcDbEntity
  8
0
100
AcDbLine
 62
7
  6
CONTINUOUS
 10
353.1041378809
 20
57.819027797
 11
353.0327678279
 21
57.7500896196
  0
LINE
  5
6AB
100
AcDbEntity
  8
0
100
AcDbLine
 62
7
  6
CONTINUOUS
 10
356.0118120317
 20
58.3668522867
 11
355.7289693192
 21
58.093647206
  0
LINE
  5
6AC
100
AcDbEntity
  8
0
100
AcDbLine
 62
7
  6
CONTINUOUS
 10
356.3653654223
 20
57.8959364132
 11
356.0825227098
 21
57.6227313325
  0
LINE
  5
6AD
100
AcDbEntity
  8
0
100
AcDbLine
 62
7
  6
CONTINUOUS
 10
357.9454533692
 20
55.791659465
 11
357.9023427692
 21
55.7500178232
  0
LINE
  5
6AE
100
AcDbEntity
  8
0
100
AcDbLine
 62
7
  6
CONTINUOUS
 10
345.2126365583
 20
68.2459074911
 11
345.1644931068
 21
68.2061374628
  0
LINE
  5
6AF
100
AcDbEntity
  8
0
100
AcDbLine
 62
7
  6
CONTINUOUS
 10
330.1497575946
 20
82.2261293827
 11
330.2099368879
 21
82.2542736744
  0
LINE
  5
6B0
100
AcDbEntity
  8
0
100
AcDbLine
 62
7
  6
CONTINUOUS
 10
331.1126264568
 20
81.2097964869
 11
331.0524471635
 21
81.1816521952
  0
LINE
  5
6B1
100
AcDbEntity
  8
0
100
AcDbLine
 62
7
  6
CONTINUOUS
 10
331.3533436302
 20
81.0635545467
 11
331.4135229236
 21
81.0916988384
  0
LINE
  5
6B2
100
AcDbEntity
  8
0
100
AcDbLine
 62
7
  6
CONTINUOUS
 10
332.3763917437
 20
79.989092958
 11
332.3162124503
 21
79.9609486663
  0
LINE
  5
6B3
100
AcDbEntity
  8
0
100
AcDbLine
 62
7
  6
CONTINUOUS
 10
331.2013908892
 20
78.6652757007
 11
331.2615701826
 21
78.6934199924
  0
LINE
  5
6B4
100
AcDbEntity
  8
0
100
AcDbLine
 62
7
  6
CONTINUOUS
 10
331.1412115959
 20
78.5077218865
 11
331.2013908892
 21
78.5358661781
  0
LINE
  5
6B5
100
AcDbEntity
  8
0
100
AcDbLine
 62
7
  6
CONTINUOUS
 10
332.1040804159
 20
77.6207985231
 11
332.0439011226
 21
77.5926542468
  0
LINE
  5
6B6
100
AcDbEntity
  8
0
100
AcDbLine
 62
7
  6
CONTINUOUS
 10
355.7289693192
 20
53.5672040835
 11
355.6753794808
 21
53.5154402744
  0
LINE
  5
6B7
100
AcDbEntity
  8
0
100
AcDbLine
 62
7
  6
CONTINUOUS
 10
358.1380271079
 20
55.7954481422
 11
357.9454533692
 21
55.6094361945
  0
LINE
  5
6B8
100
AcDbEntity
  8
0
100
AcDbLine
 62
7
  6
CONTINUOUS
 10
356.0118120317
 20
53.6429662379
 11
355.7775834601
 21
53.4167188113
  0
LINE
  5
6B9
100
AcDbEntity
  8
0
100
AcDbLine
 62
7
  6
CONTINUOUS
 10
358.1380271079
 20
55.6056475173
 11
358.0192660315
 21
55.4909331266
  0
LINE
  5
6BA
100
AcDbEntity
  8
0
100
AcDbLine
 62
7
  6
CONTINUOUS
 10
358.1380271079
 20
55.5193744982
 11
358.0690501492
 21
55.4527478724
  0
LINE
  5
6BB
100
AcDbEntity
  8
0
100
AcDbLine
 62
7
  6
CONTINUOUS
 10
356.3653654223
 20
52.9783745563
 11
356.2983781242
 21
52.913669795
  0
LINE
  5
6BC
100
AcDbEntity
  8
0
100
AcDbLine
 62
7
  6
CONTINUOUS
 10
359.0046089996
 20
54.7685936875
 11
358.9599507987
 21
54.725457178
  0
LINE
  5
6BD
100
AcDbEntity
  8
0
100
AcDbLine
 62
7
  6
CONTINUOUS
 10
359.1490393374
 20
54.6463392808
 11
359.0956382466
 21
54.5947577881
  0
LINE
  5
6BE
100
AcDbEntity
  8
0
100
AcDbLine
 62
7
  6
CONTINUOUS
 10
359.2453262067
 20
54.6050971159
 11
359.1714897937
 21
54.5337766177
  0
LINE
  5
6BF
100
AcDbEntity
  8
0
100
AcDbLine
 62
7
  6
CONTINUOUS
 10
359.2934696583
 20
54.6448671442
 11
359.1753313868
 21
54.5307543368
  0
LINE
  5
6C0
100
AcDbEntity
  8
0
100
AcDbLine
 62
7
  6
CONTINUOUS
 10
359.4860434139
 20
54.4588551802
 11
359.4326423168
 21
54.4072736814
  0
LINE
  5
6C1
100
AcDbEntity
  8
0
100
AcDbLine
 62
7
  6
CONTINUOUS
 10
360.2544527188
 20
54.2687760754
 11
359.9716100064
 21
53.9955709946
  0
LINE
  5
6C2
100
AcDbEntity
  8
0
100
AcDbLine
 62
7
  6
CONTINUOUS
 10
359.9008993282
 20
49.5633110468
 11
359.8339120301
 21
49.4986062855
  0
LINE
  5
6C3
100
AcDbEntity
  8
RUNDUNGEN
100
AcDbLine
 62
7
  6
CONTINUOUS
 10
365.614614305
 20
44.6981663092
 11
367.9831865496
 21
46.9860314117
  0
LINE
  5
6C4
100
AcDbEntity
  8
0
100
AcDbLine
 62
7
  6
CONTINUOUS
 10
359.2934696583
 20
54.6448671442
 11
359.2453262067
 21
54.6050971159
  0
LINE
  5
6C5
100
AcDbEntity
  8
0
100
AcDbLine
 62
7
  6
CONTINUOUS
 10
349.3450392093
 20
60.9030444971
 11
349.3048196653
 21
60.8888651572
  0
LINE
  5
6C6
100
AcDbEntity
  8
0
100
AcDbLine
 62
7
  6
CONTINUOUS
 10
349.8005690548
 20
60.3778622237
 11
349.7603495107
 21
60.3636828837
  0
LINE
  5
6C7
100
AcDbEntity
  8
0
100
AcDbLine
 62
7
  6
CONTINUOUS
 10
350.6714605985
 20
59.4343563152
 11
350.7116801498
 21
59.4485356555
  0
LINE
  5
6C8
100
AcDbEntity
  8
KONSTRUKTIONSELEMENTE
100
AcDbLine
 62
7
  6
CONTINUOUS
 10
375.1036951238
 20
42.7466369272
 11
371.5681612178
 21
39.3315734178
  0
LINE
  5
6C9
100
AcDbEntity
  8
RUNDUNGEN
100
AcDbLine
 62
7
  6
CONTINUOUS
 10
371.5187204555
 20
27.6950402361
 11
375.0542543614
 21
31.1101037456
  0
ARC
  5
6CA
100
AcDbEntity
  8
KONSTRUKTIONSELEMENTE
100
AcDbCircle
 62
7
  6
CONTINUOUS
 10
534.207537537
 20
181.5630315972
 40
30.7197128927
100
AcDbArc
 50
259.4262461443
 51
268.6815744353
  0
ARC
  5
6CB
100
AcDbEntity
  8
KONSTRUKTIONSELEMENTE
100
AcDbCircle
 62
7
  6
CONTINUOUS
 10
509.8539713157
 20
91.1811150886
 40
28.79136
100
AcDbArc
 50
41.9721560344
 51
64.9991254185
  0
ARC
  5
6CC
100
AcDbEntity
  8
KONSTRUKTIONSELEMENTE
100
AcDbCircle
 62
7
  6
CONTINUOUS
 10
509.8539713157
 20
91.1811150886
 40
28.79136
100
AcDbArc
 50
85.0008745815
 51
108.0278439656
  0
ARC
  5
6CD
100
AcDbEntity
  8
RUNDUNGEN
100
AcDbCircle
 62
7
  6
CONTINUOUS
 10
548.8676732623
 20
172.914877964
 40
27.7566678187
100
AcDbArc
 50
255.0054115361
 51
255.9708056369
  0
ARC
  5
6CE
100
AcDbEntity
  8
RUNDUNGEN
100
AcDbCircle
 62
7
  6
CONTINUOUS
 10
516.933749582
 20
181.4705849087
 40
27.7557384849
100
AcDbArc
 50
254.029932686
 51
254.9945997237
  0
ARC
  5
6CF
100
AcDbEntity
  8
BEZUGSACHSEN
100
AcDbCircle
 62
7
  6
CONTINUOUS
 10
529.0431673135
 20
162.7961695088
 40
12.75
100
AcDbArc
 50
119.9044389838
 51
30.0955610162
  0
ARC
  5
6D0
100
AcDbEntity
  8
0
100
AcDbCircle
 62
7
  6
CONTINUOUS
 10
530.0137387326
 20
166.4183913574
 40
9.0
100
AcDbArc
 50
165.0
 51
345.0
  0
ARC
  5
6D1
100
AcDbEntity
  8
RUNDUNGEN
100
AcDbCircle
 62
7
  6
CONTINUOUS
 10
507.7695711709
 20
149.0849840327
 40
6.0
100
AcDbArc
 50
101.2394469635
 51
165.0
  0
ARC
  5
6D2
100
AcDbEntity
  8
RUNDUNGEN
100
AcDbCircle
 62
7
  6
CONTINUOUS
 10
540.6110492647
 20
140.2851364992
 40
6.0
100
AcDbArc
 50
345.0
 51
48.7605530365
  0
ARC
  5
6D3
100
AcDbEntity
  8
KONSTRUKTIONSELEMENTE
100
AcDbCircle
 62
7
  6
CONTINUOUS
 10
522.4277525207
 20
138.1071053889
 40
5.0
100
AcDbArc
 50
345.0000014742
 51
165.0
  0
ARC
  5
6D4
100
AcDbEntity
  8
RUNDUNGEN
100
AcDbCircle
 62
7
  6
CONTINUOUS
 10
507.4029332777
 20
150.9309149288
 40
4.1180105821
100
AcDbArc
 50
98.1855758857
 51
101.2420010499
  0
ARC
  5
6D5
100
AcDbEntity
  8
RUNDUNGEN
100
AcDbCircle
 62
7
  6
CONTINUOUS
 10
541.8515324423
 20
141.7004406023
 40
4.1180105822
100
AcDbArc
 50
48.7579989501
 51
51.8144241143
  0
ARC
  5
6D6
100
AcDbEntity
  8
KONSTRUKTIONSELEMENTE
100
AcDbCircle
 62
7
  6
CONTINUOUS
 10
506.9709732106
 20
80.4216196825
 40
2.5
100
AcDbArc
 50
165.0
 51
345.0
  0
ARC
  5
6D7
100
AcDbEntity
  8
KONSTRUKTIONSELEMENTE
100
AcDbCircle
 62
7
  6
CONTINUOUS
 10
512.7981728991
 20
102.1690249857
 40
2.5
100
AcDbArc
 50
345.0
 51
165.0
  0
ARC
  5
6D8
100
AcDbEntity
  8
KONSTRUKTIONSELEMENTE
100
AcDbCircle
 62
7
  6
CONTINUOUS
 10
522.8015719243
 20
139.5022183962
 40
2.5
100
AcDbArc
 50
165.0
 51
345.0
  0
ARC
  5
6D9
100
AcDbEntity
  8
KONSTRUKTIONSELEMENTE
100
AcDbCircle
 62
7
  6
CONTINUOUS
 10
514.8933144627
 20
109.9881997501
 40
2.25
100
AcDbArc
 50
165.0
 51
345.0
  0
ARC
  5
6DA
100
AcDbEntity
  8
KONSTRUKTIONSELEMENTE
100
AcDbCircle
 62
7
  6
CONTINUOUS
 10
520.6149240098
 20
131.3415372808
 40
2.25
100
AcDbArc
 50
64.84376417
 51
85.15623583
  0
CIRCLE
  5
6DB
100
AcDbEntity
  8
BEZUGSACHSEN
100
AcDbCircle
 62
7
  6
CONTINUOUS
 10
505.3782156517
 20
131.6601764647
 40
1.75
  0
ARC
  5
6DC
100
AcDbEntity
  8
0
100
AcDbCircle
 62
7
  6
CONTINUOUS
 10
515.1086794899
 20
72.2699569263
 40
1.7033694964
100
AcDbArc
 50
335.5636876714
 51
340.3957076166
  0
ARC
  5
6DD
100
AcDbEntity
  8
0
100
AcDbCircle
 62
7
  6
CONTINUOUS
 10
496.9728002638
 20
76.6062110206
 40
0.3335678168
100
AcDbArc
 50
63.8903114985
 51
74.9692795103
  0
ARC
  5
6DE
100
AcDbEntity
  8
0
100
AcDbCircle
 62
7
  6
CONTINUOUS
 10
556.6721003782
 20
265.9087514652
 40
9.0
100
AcDbArc
 50
345.0
 51
165.0
  0
ARC
  5
6DF
100
AcDbEntity
  8
KONSTRUKTIONSELEMENTE
100
AcDbCircle
 62
7
  6
CONTINUOUS
 10
635.0661529432
 20
91.1811150886
 40
28.79136
100
AcDbArc
 50
115.0008745815
 51
138.0278439656
  0
ARC
  5
6E0
100
AcDbEntity
  8
KONSTRUKTIONSELEMENTE
100
AcDbCircle
 62
7
  6
CONTINUOUS
 10
635.0661529432
 20
91.1811150886
 40
28.79136
100
AcDbArc
 50
71.9721560344
 51
94.9991254185
  0
ARC
  5
6E1
100
AcDbEntity
  8
0
100
AcDbCircle
 62
7
  6
CONTINUOUS
 10
596.0524509966
 20
172.914877964
 40
27.7566678187
100
AcDbArc
 50
284.0291943631
 51
284.9945884639
  0
ARC
  5
6E2
100
AcDbEntity
  8
0
100
AcDbCircle
 62
7
  6
CONTINUOUS
 10
627.9863746769
 20
181.4705849087
 40
27.7557384849
100
AcDbArc
 50
285.0054002763
 51
285.970067314
  0
ARC
  5
6E3
100
AcDbEntity
  8
BEZUGSACHSEN
100
AcDbCircle
 62
7
  6
CONTINUOUS
 10
615.8769569454
 20
162.7961695088
 40
12.75
100
AcDbArc
 50
149.9044389838
 51
60.0955610162
  0
ARC
  5
6E4
100
AcDbEntity
  8
0
100
AcDbCircle
 62
7
  6
CONTINUOUS
 10
614.9063855262
 20
166.4183913574
 40
9.0
100
AcDbArc
 50
195.0
 51
15.0
  0
ARC
  5
6E5
100
AcDbEntity
  8
0
100
AcDbCircle
 62
7
  6
CONTINUOUS
 10
604.3090749941
 20
140.2851364992
 40
6.0
100
AcDbArc
 50
131.2394469635
 51
195.0
  0
ARC
  5
6E6
100
AcDbEntity
  8
0
100
AcDbCircle
 62
7
  6
CONTINUOUS
 10
637.150553088
 20
149.0849840327
 40
6.0
100
AcDbArc
 50
15.0
 51
78.7605530365
  0
ARC
  5
6E7
100
AcDbEntity
  8
0
100
AcDbCircle
 62
7
  6
CONTINUOUS
 10
622.4923717382
 20
138.1071053889
 40
5.0
100
AcDbArc
 50
15.0
 51
194.9999985258
  0
ARC
  5
6E8
100
AcDbEntity
  8
0
100
AcDbCircle
 62
7
  6
CONTINUOUS
 10
603.0685918166
 20
141.7004406023
 40
4.1180105822
100
AcDbArc
 50
128.1855758857
 51
131.2420010499
  0
ARC
  5
6E9
100
AcDbEntity
  8
0
100
AcDbCircle
 62
7
  6
CONTINUOUS
 10
637.5171909811
 20
150.9309149288
 40
4.1180105821
100
AcDbArc
 50
78.7579989501
 51
81.8144241143
  0
CIRCLE
  5
6EA
100
AcDbEntity
  8
BEZUGSACHSEN
100
AcDbCircle
 62
7
  6
CONTINUOUS
 10
639.5419086072
 20
131.6601764647
 40
1.75
  0
ARC
  5
6EB
100
AcDbEntity
  8
0
100
AcDbCircle
 62
7
  6
CONTINUOUS
 10
572.4600621294
 20
324.8302268688
 40
92.0
100
AcDbArc
 50
180.0
 51
249.3847243999
  0
ARC
  5
6EC
100
AcDbEntity
  8
0
100
AcDbCircle
 62
7
  6
CONTINUOUS
 10
572.4600621294
 20
324.8302268688
 40
92.0
100
AcDbArc
 50
260.6146811395
 51
279.3853188605
  0
ARC
  5
6ED
100
AcDbEntity
  8
0
100
AcDbCircle
 62
7
  6
CONTINUOUS
 10
572.4600621294
 20
324.8302268688
 40
92.0
100
AcDbArc
 50
290.6152756001
 51
360.0
  0
ARC
  5
6EE
100
AcDbEntity
  8
0
100
AcDbCircle
 62
7
  6
CONTINUOUS
 10
572.4600621294
 20
444.8302268688
 40
92.0
100
AcDbArc
 50
0.0
 51
180.0
  0
ARC
  5
6EF
100
AcDbEntity
  8
0
100
AcDbCircle
 62
7
  6
CONTINUOUS
 10
572.4600621294
 20
324.8302268688
 40
70.0
100
AcDbArc
 50
180.0
 51
247.6113629901
  0
ARC
  5
6F0
100
AcDbEntity
  8
0
100
AcDbCircle
 62
7
  6
CONTINUOUS
 10
572.4600621294
 20
324.8302268688
 40
70.0
100
AcDbArc
 50
262.3880508693
 51
277.6119491307
  0
ARC
  5
6F1
100
AcDbEntity
  8
0
100
AcDbCircle
 62
7
  6
CONTINUOUS
 10
572.4600621294
 20
324.8302268688
 40
70.0
100
AcDbArc
 50
292.3886370099
 51
360.0
  0
ARC
  5
6F2
100
AcDbEntity
  8
0
100
AcDbCircle
 62
7
  6
CONTINUOUS
 10
572.4600621294
 20
444.8302268688
 40
70.0
100
AcDbArc
 50
0.0
 51
180.0
  0
ARC
  5
6F3
100
AcDbEntity
  8
0
100
AcDbCircle
 62
7
  6
CONTINUOUS
 10
588.2480238807
 20
265.9087514652
 40
9.0
100
AcDbArc
 50
15.0
 51
195.0
  0
ARC
  5
6F4
100
AcDbEntity
  8
0
100
AcDbCircle
 62
7
  6
CONTINUOUS
 10
157.0594089566
 20
162.6731284161
 40
54.3993931242
100
AcDbArc
 50
1.142958506
 51
7.929924865
  0
ARC
  5
6F5
100
AcDbEntity
  8
0
100
AcDbCircle
 62
7
  6
CONTINUOUS
 10
208.9336015449
 20
154.0215361125
 40
35.461084459
100
AcDbArc
 50
268.7073008821
 51
271.2926991179
  0
ARC
  5
6F6
100
AcDbEntity
  8
0
100
AcDbCircle
 62
7
  6
CONTINUOUS
 10
208.9336015449
 20
74.9782202763
 40
35.461084459
100
AcDbArc
 50
88.7073008821
 51
91.2926991179
  0
ARC
  5
6F7
100
AcDbEntity
  8
KONSTRUKTIONSELEMENTE
100
AcDbCircle
 62
7
  6
CONTINUOUS
 10
253.5786174166
 20
109.8396915275
 40
33.1455707135
100
AcDbArc
 50
44.5353474264
 51
45.9812535785
  0
ARC
  5
6F8
100
AcDbEntity
  8
KONSTRUKTIONSELEMENTE
100
AcDbCircle
 62
7
  6
CONTINUOUS
 10
208.0115879217
 20
122.0325132231
 40
12.9220164464
100
AcDbArc
 50
352.3402638648
 51
0.0378745745
  0
ARC
  5
6F9
100
AcDbEntity
  8
0
100
AcDbCircle
 62
7
  6
CONTINUOUS
 10
208.9336015449
 20
243.8302268688
 40
11.0
100
AcDbArc
 50
180.0
 51
360.0
  0
ARC
  5
6FA
100
AcDbEntity
  8
KONSTRUKTIONSELEMENTE
100
AcDbCircle
 62
7
  6
CONTINUOUS
 10
249.8812019414
 20
154.438758074
 40
9.0964505594
100
AcDbArc
 50
177.1004097402
 51
179.9796392337
  0
ARC
  5
6FB
100
AcDbEntity
  8
BEZUGSACHSEN
100
AcDbCircle
 62
7
  6
CONTINUOUS
 10
208.9336015449
 20
181.7961695088
 40
6.25
100
AcDbArc
 50
0.0
 51
28.0724869359
  0
ARC
  5
6FC
100
AcDbEntity
  8
BEZUGSACHSEN
100
AcDbCircle
 62
7
  6
CONTINUOUS
 10
208.9336015449
 20
181.7961695088
 40
6.25
100
AcDbArc
 50
151.9275130641
 51
180.0
  0
ARC
  5
6FD
100
AcDbEntity
  8
BEZUGSACHSEN
100
AcDbCircle
 62
7
  6
CONTINUOUS
 10
209.2947537837
 20
133.5597113246
 40
5.3295000261
100
AcDbArc
 50
4.4686945854
 51
5.8512461556
  0
ARC
  5
6FE
100
AcDbEntity
  8
BEZUGSACHSEN
100
AcDbCircle
 62
7
  6
CONTINUOUS
 10
208.5724493062
 20
133.5597113246
 40
5.3295000261
100
AcDbArc
 50
174.1487538444
 51
175.5313054146
  0
ARC
  5
6FF
100
AcDbEntity
  8
BEZUGSACHSEN
100
AcDbCircle
 62
7
  6
CONTINUOUS
 10
209.3070692892
 20
133.5606317034
 40
5.3171502485
100
AcDbArc
 50
2.1757275003
 51
4.4691468841
  0
ARC
  5
700
100
AcDbEntity
  8
BEZUGSACHSEN
100
AcDbCircle
 62
7
  6
CONTINUOUS
 10
208.5601338006
 20
133.5606317034
 40
5.3171502484
100
AcDbArc
 50
175.5308531159
 51
177.8242724997
  0
ARC
  5
701
100
AcDbEntity
  8
0
100
AcDbCircle
 62
7
  6
CONTINUOUS
 10
203.5336015449
 20
151.4849840327
 40
3.6
100
AcDbArc
 50
98.2471303551
 51
180.0
  0
ARC
  5
702
100
AcDbEntity
  8
RUNDUNGEN
100
AcDbCircle
 62
7
  6
CONTINUOUS
 10
214.3336015449
 20
151.4849840327
 40
3.6
100
AcDbArc
 50
0.0
 51
81.7528696449
  0
ARC
  5
703
100
AcDbEntity
  8
RUNDUNGEN
100
AcDbCircle
 62
7
  6
CONTINUOUS
 10
214.7835370351
 20
153.7733581176
 40
1.2783509896
100
AcDbArc
 50
105.2027779704
 51
110.6075832392
  0
ARC
  5
704
100
AcDbEntity
  8
0
100
AcDbCircle
 62
7
  6
CONTINUOUS
 10
203.0836660548
 20
153.7733581176
 40
1.2783509896
100
AcDbArc
 50
69.3924167608
 51
74.7972220296
  0
ARC
  5
705
100
AcDbEntity
  8
0
100
AcDbCircle
 62
7
  6
CONTINUOUS
 10
208.9336015449
 20
525.8302268688
 40
11.0
100
AcDbArc
 50
0.0
 51
180.0
  0
ARC
  5
706
100
AcDbEntity
  8
KONSTRUKTIONSELEMENTE
100
AcDbCircle
 62
7
  6
CONTINUOUS
 10
312.4692559054
 20
243.2063199229
 40
113.8296800942
100
AcDbArc
 50
224.0485547219
 51
225.9785494447
  0
ARC
  5
707
100
AcDbEntity
  8
KONSTRUKTIONSELEMENTE
100
AcDbCircle
 62
7
  6
CONTINUOUS
 10
312.2379305982
 20
242.9733704024
 40
107.5014167101
100
AcDbArc
 50
224.338048337
 51
225.9801205858
  0
ARC
  5
708
100
AcDbEntity
  8
0
100
AcDbCircle
 62
7
  6
CONTINUOUS
 10
260.8077941332
 20
162.6731284161
 40
54.3993931242
100
AcDbArc
 50
172.070075135
 51
178.857041494
  0
ARC
  5
709
100
AcDbEntity
  8
KONSTRUKTIONSELEMENTE
100
AcDbCircle
 62
7
  6
CONTINUOUS
 10
316.27961843
 20
107.9725278297
 40
15.6688140588
100
AcDbArc
 50
233.3753354949
 51
233.5160582164
  0
ARC
  5
70A
100
AcDbEntity
  8
KONSTRUKTIONSELEMENTE
100
AcDbCircle
 62
7
  6
CONTINUOUS
 10
256.3170399141
 20
136.1377085718
 40
12.246839972
100
AcDbArc
 50
55.2809419386
 51
55.561098419
  0
ARC
  5
70B
100
AcDbEntity
  8
KONSTRUKTIONSELEMENTE
100
AcDbCircle
 62
7
  6
CONTINUOUS
 10
256.5073298741
 20
136.4151323955
 40
11.9104261724
100
AcDbArc
 50
55.5613249794
 51
55.796652166
  0
ARC
  5
70C
100
AcDbEntity
  8
KONSTRUKTIONSELEMENTE
100
AcDbCircle
 62
7
  6
CONTINUOUS
 10
319.8403120915
 20
87.5154568663
 40
9.5798813339
100
AcDbArc
 50
226.0538046676
 51
249.0189934888
  0
ARC
  5
70D
100
AcDbEntity
  8
KONSTRUKTIONSELEMENTE
100
AcDbCircle
 62
7
  6
CONTINUOUS
 10
258.9737119621
 20
146.198645384
 40
9.3523666152
100
AcDbArc
 50
45.4559945702
 51
45.9929150435
  0
ARC
  5
70E
100
AcDbEntity
  8
KONSTRUKTIONSELEMENTE
100
AcDbCircle
 62
7
  6
CONTINUOUS
 10
320.1384485369
 20
87.1180466726
 40
9.3523666121
100
AcDbArc
 50
45.4559945701
 51
45.9929150436
  0
ARC
  5
70F
100
AcDbEntity
  8
BEZUGSACHSEN
100
AcDbCircle
 62
7
  6
CONTINUOUS
 10
319.1625141686
 20
79.8008172383
 40
9.189469858
100
AcDbArc
 50
54.7974011488
 51
55.4088814216
  0
ARC
  5
710
100
AcDbEntity
  8
KONSTRUKTIONSELEMENTE
100
AcDbCircle
 62
7
  6
CONTINUOUS
 10
311.0623437657
 20
95.3560921741
 40
9.1128567777
100
AcDbArc
 50
155.3174888113
 51
179.9666787515
  0
ARC
  5
711
100
AcDbEntity
  8
KONSTRUKTIONSELEMENTE
100
AcDbCircle
 62
7
  6
CONTINUOUS
 10
290.7883966386
 20
115.4507687447
 40
7.8374984496
100
AcDbArc
 50
45.4162894927
 51
45.9929054455
  0
ARC
  5
712
100
AcDbEntity
  8
KONSTRUKTIONSELEMENTE
100
AcDbCircle
 62
7
  6
CONTINUOUS
 10
279.6291915803
 20
125.7864752745
 40
7.6313179319
100
AcDbArc
 50
159.7096533879
 51
179.9791956236
  0
ARC
  5
713
100
AcDbEntity
  8
KONSTRUKTIONSELEMENTE
100
AcDbCircle
 62
7
  6
CONTINUOUS
 10
319.769423784
 20
87.4307706346
 40
4.4697435729
100
AcDbArc
 50
227.0651411622
 51
231.4022607278
  0
ARC
  5
714
100
AcDbEntity
  8
KONSTRUKTIONSELEMENTE
100
AcDbCircle
 62
7
  6
CONTINUOUS
 10
319.7141665643
 20
87.3703020857
 40
4.3878335168
100
AcDbArc
 50
225.9937050332
 51
227.0555598991
  0
ARC
  5
715
100
AcDbEntity
  8
KONSTRUKTIONSELEMENTE
100
AcDbCircle
 62
7
  6
CONTINUOUS
 10
258.5494299915
 20
146.4509007992
 40
4.3878335166
100
AcDbArc
 50
225.9937050332
 51
227.0555598991
  0
ARC
  5
716
100
AcDbEntity
  8
KONSTRUKTIONSELEMENTE
100
AcDbCircle
 62
7
  6
CONTINUOUS
 10
259.1850215437
 20
146.3153227015
 40
4.1141852318
100
AcDbArc
 50
334.689527825
 51
359.9772912731
  0
ARC
  5
717
100
AcDbEntity
  8
KONSTRUKTIONSELEMENTE
100
AcDbCircle
 62
7
  6
CONTINUOUS
 10
320.3552768151
 20
87.2339215358
 40
4.1086662935
100
AcDbArc
 50
336.80994171
 51
359.9884510473
  0
ARC
  5
718
100
AcDbEntity
  8
KONSTRUKTIONSELEMENTE
100
AcDbCircle
 62
7
  6
CONTINUOUS
 10
311.0338671807
 20
95.3599854489
 40
4.084359923
100
AcDbArc
 50
179.6607782885
 51
180.0341463994
  0
ARC
  5
719
100
AcDbEntity
  8
KONSTRUKTIONSELEMENTE
100
AcDbCircle
 62
7
  6
CONTINUOUS
 10
290.4377479501
 20
115.6517682191
 40
3.3624399507
100
AcDbArc
 50
225.9940708965
 51
227.2341816412
  0
ARC
  5
71A
100
AcDbEntity
  8
KONSTRUKTIONSELEMENTE
100
AcDbCircle
 62
7
  6
CONTINUOUS
 10
290.9756609513
 20
115.5429528179
 40
3.1286794214
100
AcDbArc
 50
342.3964861858
 51
359.9749659754
  0
ARC
  5
71B
100
AcDbEntity
  8
0
100
AcDbCircle
 62
7
  6
CONTINUOUS
 10
335.5891931015
 20
70.4454211987
 40
2.5172706553
100
AcDbArc
 50
70.0708809342
 51
72.5176033156
  0
ARC
  5
71C
100
AcDbEntity
  8
0
100
AcDbCircle
 62
7
  6
CONTINUOUS
 10
335.7255834304
 20
70.8726568604
 40
2.0687966489
100
AcDbArc
 50
72.565884813
 51
74.2788351735
  0
ARC
  5
71D
100
AcDbEntity
  8
0
100
AcDbCircle
 62
7
  6
CONTINUOUS
 10
350.1773168661
 20
56.9270506268
 40
1.9455450637
100
AcDbArc
 50
72.2103624256
 51
73.4471043843
  0
ARC
  5
71E
100
AcDbEntity
  8
RUNDUNGEN
100
AcDbCircle
 62
7
  6
CONTINUOUS
 10
324.4158422198
 20
91.3739402104
 40
1.8737823814
100
AcDbArc
 50
246.0972071468
 51
246.3363805374
  0
ARC
  5
71F
100
AcDbEntity
  8
0
100
AcDbCircle
 62
7
  6
CONTINUOUS
 10
350.9040738402
 20
57.6508385567
 40
1.1798162264
100
AcDbArc
 50
78.3737944134
 51
79.1173689697
  0
SPLINE
  5
720
100
AcDbEntity
  8
KONSTRUKTIONSELEMENTE
100
AcDbSpline
 62
7
  6
CONTINUOUS
 70
0
 71
3
 72
13
 73
9
 74
0
 42
0.0000001
 43
0.0000001
 44
0.0000000001
 40
0.0
 40
0.0
 40
0.0
 40
0.0
 40
0.1194785188
 40
0.2392741704
 40
0.3602835725
 40
0.4830059608
 40
0.7355440041
 40
1.0
 40
1.0
 40
1.0
 40
1.0
 10
507.3730284485
 20
112.8317366988
 30
0.0
 10
507.4658512102
 20
113.1781559616
 30
0.0
 10
507.7258346404
 20
113.8544169623
 30
0.0
 10
508.317982408
 20
114.767775537
 30
0.0
 10
509.0837350298
 20
115.5547182774
 30
0.0
 10
510.3065381016
 20
116.4180299467
 30
0.0
 10
512.1336877902
 20
117.1079808347
 30
0.0
 10
513.6998434154
 20
117.2344658231
 30
0.0
 10
514.4930655482
 20
117.2036716885
 30
0.0
  0
SPLINE
  5
721
100
AcDbEntity
  8
KONSTRUKTIONSELEMENTE
100
AcDbSpline
 62
7
  6
CONTINUOUS
 70
0
 71
3
 72
13
 73
9
 74
0
 42
0.0000001
 43
0.0000001
 44
0.0000000001
 40
0.0
 40
0.0
 40
0.0
 40
0.0
 40
0.2644681654
 40
0.5169944072
 40
0.6397129492
 40
0.760706397
 40
0.8805228501
 40
1.0
 40
1.0
 40
1.0
 40
1.0
 10
518.8459123804
 20
116.0377763189
 30
0.0
 10
519.5485051648
 20
115.6678467777
 30
0.0
 10
520.8420688627
 20
114.7753148396
 30
0.0
 10
522.0799625367
 20
113.2640777629
 30
0.0
 10
522.7075359512
 20
111.9048942056
 30
0.0
 10
522.9775203469
 20
110.8403208584
 30
0.0
 10
523.0336261931
 20
109.7529965055
 30
0.0
 10
522.920683754
 20
109.0371233551
 30
0.0
 10
522.8278416691
 20
108.6906319772
 30
0.0
  0
SPLINE
  5
722
100
AcDbEntity
  8
KONSTRUKTIONSELEMENTE
100
AcDbSpline
 62
7
  6
CONTINUOUS
 70
0
 71
3
 72
10
 73
6
 74
0
 42
0.0000001
 43
0.0000001
 44
0.0000000001
 40
0.0
 40
0.0
 40
0.0
 40
0.0
 40
0.3116645009
 40
0.6060899939
 40
1.0
 40
1.0
 40
1.0
 40
1.0
 10
511.7196946668
 20
111.6670509959
 30
0.0
 10
511.7707220959
 20
111.8574879538
 30
0.0
 10
512.0479670629
 20
112.1676255533
 30
0.0
 10
512.6019981751
 20
112.4683518394
 30
0.0
 10
513.026363823
 20
112.5900755975
 30
0.0
 10
513.2713101773
 20
112.635825849
 30
0.0
  0
SPLINE
  5
723
100
AcDbEntity
  8
KONSTRUKTIONSELEMENTE
100
AcDbSpline
 62
7
  6
CONTINUOUS
 70
0
 71
3
 72
10
 73
6
 74
0
 42
0.0000001
 43
0.0000001
 44
0.0000000001
 40
0.0
 40
0.0
 40
0.0
 40
0.0
 40
0.3939255147
 40
0.6883533687
 40
1.0
 40
1.0
 40
1.0
 40
1.0
 10
517.6216190129
 20
111.4702799862
 30
0.0
 10
517.8109204598
 20
111.3081715549
 30
0.0
 10
518.117619939
 20
110.990522698
 30
0.0
 10
518.4471786917
 20
110.4530344034
 30
0.0
 10
518.5322071394
 20
110.0457705348
 30
0.0
 10
518.4811754508
 20
109.8553176802
 30
0.0
  0
SPLINE
  5
724
100
AcDbEntity
  8
KONSTRUKTIONSELEMENTE
100
AcDbSpline
 62
7
  6
CONTINUOUS
 70
0
 71
3
 72
10
 73
6
 74
0
 42
0.0000001
 43
0.0000001
 44
0.0000000001
 40
0.0
 40
0.0
 40
0.0
 40
0.0
 40
0.3192646009
 40
0.6086079864
 40
1.0
 40
1.0
 40
1.0
 40
1.0
 10
515.7359849224
 20
99.6101271518
 30
0.0
 10
515.6915353978
 20
99.4442392675
 30
0.0
 10
515.4713162768
 20
99.1710771829
 30
0.0
 10
515.0161677229
 20
98.8858055628
 30
0.0
 10
514.6680753856
 20
98.7585214758
 30
0.0
 10
514.4646049625
 20
98.7044256287
 30
0.0
  0
SPLINE
  5
725
100
AcDbEntity
  8
KONSTRUKTIONSELEMENTE
100
AcDbSpline
 62
7
  6
CONTINUOUS
 70
0
 71
3
 72
10
 73
6
 74
0
 42
0.0000001
 43
0.0000001
 44
0.0000000001
 40
0.0
 40
0.0
 40
0.0
 40
0.0
 40
0.3914026107
 40
0.6807340322
 40
1.0
 40
1.0
 40
1.0
 40
1.0
 10
509.6226258835
 20
100.0018843348
 30
0.0
 10
509.4734722112
 20
100.1504663653
 30
0.0
 10
509.235709014
 20
100.4347498036
 30
0.0
 10
508.9841464538
 20
100.909328213
 30
0.0
 10
508.9300571993
 20
101.2559822324
 30
0.0
 10
508.9745041384
 20
101.4218604675
 30
0.0
  0
SPLINE
  5
726
100
AcDbEntity
  8
KONSTRUKTIONSELEMENTE
100
AcDbSpline
 62
7
  6
CONTINUOUS
 70
0
 71
3
 72
13
 73
9
 74
0
 42
0.0000001
 43
0.0000001
 44
0.0000000001
 40
0.0
 40
0.0
 40
0.0
 40
0.0
 40
0.1197290731
 40
0.2397365246
 40
0.3609040964
 40
0.4836831257
 40
0.7359942557
 40
1.0
 40
1.0
 40
1.0
 40
1.0
 10
520.0826511407
 20
98.4454414488
 30
0.0
 10
519.9922679838
 20
98.1081269151
 30
0.0
 10
519.7411008161
 20
97.4493452859
 30
0.0
 10
519.1721970688
 20
96.5559276962
 30
0.0
 10
518.4372484321
 20
95.7811689167
 30
0.0
 10
517.263333137
 20
94.9229841074
 30
0.0
 10
515.5047802407
 20
94.2169294435
 30
0.0
 10
513.9889206419
 20
94.0572770293
 30
0.0
 10
513.2189556409
 20
94.0669186762
 30
0.0
  0
SPLINE
  5
727
100
AcDbEntity
  8
KONSTRUKTIONSELEMENTE
100
AcDbSpline
 62
7
  6
CONTINUOUS
 70
0
 71
3
 72
13
 73
9
 74
0
 42
0.0000001
 43
0.0000001
 44
0.0000000001
 40
0.0
 40
0.0
 40
0.0
 40
0.0
 40
0.2640112835
 40
0.5163080567
 40
0.6390830379
 40
0.7602378991
 40
0.8802701562
 40
1.0
 40
1.0
 40
1.0
 40
1.0
 10
508.3819024961
 20
95.3632590695
 30
0.0
 10
507.7103713458
 20
95.7399335951
 30
0.0
 10
506.4776332822
 20
96.636092178
 30
0.0
 10
505.3080005655
 20
98.126753805
 30
0.0
 10
504.720614438
 20
99.4567133012
 30
0.0
 10
504.4714763919
 20
100.4950528201
 30
0.0
 10
504.4256358389
 20
101.5531594401
 30
0.0
 10
504.5374637972
 20
102.249265352
 30
0.0
 10
504.6278379201
 20
102.5865461705
 30
0.0
  0
SPLINE
  5
728
100
AcDbEntity
  8
KONSTRUKTIONSELEMENTE
100
AcDbSpline
 62
7
  6
CONTINUOUS
 70
0
 71
3
 72
10
 73
6
 74
0
 42
0.0000001
 43
0.0000001
 44
0.0000000001
 40
0.0
 40
0.0
 40
0.0
 40
0.0
 40
0.3192646009
 40
0.6086079864
 40
1.0
 40
1.0
 40
1.0
 40
1.0
 10
519.77225355
 20
141.7196098791
 30
0.0
 10
519.8167030747
 20
141.8854977634
 30
0.0
 10
520.0369221957
 20
142.158659848
 30
0.0
 10
520.4920707496
 20
142.4439314681
 30
0.0
 10
520.8401630869
 20
142.5712155551
 30
0.0
 10
521.04363351
 20
142.6253114022
 30
0.0
  0
SPLINE
  5
729
100
AcDbEntity
  8
KONSTRUKTIONSELEMENTE
100
AcDbSpline
 62
7
  6
CONTINUOUS
 70
0
 71
3
 72
10
 73
6
 74
0
 42
0.0000001
 43
0.0000001
 44
0.0000000001
 40
0.0
 40
0.0
 40
0.0
 40
0.0
 40
0.3914026107
 40
0.6807340322
 40
1.0
 40
1.0
 40
1.0
 40
1.0
 10
525.885612589
 20
141.3278526961
 30
0.0
 10
526.0347662613
 20
141.1792706657
 30
0.0
 10
526.2725294585
 20
140.8949872273
 30
0.0
 10
526.5240920187
 20
140.4204088179
 30
0.0
 10
526.5781812732
 20
140.0737547985
 30
0.0
 10
526.5337343341
 20
139.9078765634
 30
0.0
  0
SPLINE
  5
72A
100
AcDbEntity
  8
KONSTRUKTIONSELEMENTE
100
AcDbSpline
 62
7
  6
CONTINUOUS
 70
0
 71
3
 72
9
 73
5
 74
0
 42
0.0000001
 43
0.0000001
 44
0.0000000001
 40
0.0
 40
0.0
 40
0.0
 40
0.0
 40
0.2518169059
 40
1.0
 40
1.0
 40
1.0
 40
1.0
 10
523.7375908238
 20
152.6598493495
 30
0.0
 10
523.3434618568
 20
152.7994007515
 30
0.0
 10
521.7894603313
 20
153.3844458017
 30
0.0
 10
520.2815913755
 20
154.0928406109
 30
0.0
 10
519.1924850507
 20
154.6903620593
 30
0.0
  0
SPLINE
  5
72B
100
AcDbEntity
  8
KONSTRUKTIONSELEMENTE
100
AcDbSpline
 62
7
  6
CONTINUOUS
 70
0
 71
3
 72
9
 73
5
 74
0
 42
0.0000001
 43
0.0000001
 44
0.0000000001
 40
0.0
 40
0.0
 40
0.0
 40
0.0
 40
0.4771280743
 40
1.0
 40
1.0
 40
1.0
 40
1.0
 10
540.8289292607
 20
157.929128309
 30
0.0
 10
539.2106849157
 20
157.3485743532
 30
0.0
 10
535.6198351657
 20
156.6678870854
 30
0.0
 10
531.9881493726
 20
156.8732849278
 30
0.0
 10
530.1296480588
 20
157.1825672018
 30
0.0
  0
SPLINE
  5
72C
100
AcDbEntity
  8
KONSTRUKTIONSELEMENTE
100
AcDbSpline
 62
7
  6
CONTINUOUS
 70
0
 71
3
 72
9
 73
5
 74
0
 42
0.0000001
 43
0.0000001
 44
0.0000000001
 40
0.0
 40
0.0
 40
0.0
 40
0.0
 40
0.5228783463
 40
1.0
 40
1.0
 40
1.0
 40
1.0
 10
525.2957645218
 20
158.4777612143
 30
0.0
 10
523.5311584741
 20
159.1393151353
 30
0.0
 10
520.2825349211
 20
160.7777070987
 30
0.0
 10
517.5126372685
 20
163.1634769263
 30
0.0
 10
516.4013919108
 20
164.4758193177
 30
0.0
  0
SPLINE
  5
72D
100
AcDbEntity
  8
0
100
AcDbSpline
 62
7
  6
CONTINUOUS
 70
0
 71
3
 72
11
 73
7
 74
0
 42
0.0000001
 43
0.0000001
 44
0.0000000001
 40
0.0
 40
0.0
 40
0.0
 40
0.0
 40
0.2192989281
 40
0.4548225453
 40
0.7152180566
 40
1.0
 40
1.0
 40
1.0
 40
1.0
 10
516.6801497762
 20
71.5538492702
 30
0.0
 10
516.7399813071
 20
71.7771435835
 30
0.0
 10
516.7648315912
 20
72.2715220033
 30
0.0
 10
516.5101095738
 20
72.9968691979
 30
0.0
 10
516.0061355814
 20
73.6607767424
 30
0.0
 10
515.5496225122
 20
74.0199293626
 30
0.0
 10
515.2954114142
 20
74.1796052834
 30
0.0
  0
SPLINE
  5
72E
100
AcDbEntity
  8
0
100
AcDbSpline
 62
7
  6
CONTINUOUS
 70
0
 71
3
 72
17
 73
13
 74
0
 42
0.0000001
 43
0.0000001
 44
0.0000000001
 40
0.0
 40
0.0
 40
0.0
 40
0.0
 40
0.0517809237
 40
0.1054811646
 40
0.2228479209
 40
0.3562855052
 40
0.5
 40
0.6437144948
 40
0.7771520791
 40
0.8945188354
 40
0.9482190763
 40
1.0
 40
1.0
 40
1.0
 40
1.0
 10
506.4262961298
 20
73.695126616
 30
0.0
 10
506.408161393
 20
73.6274468567
 30
0.0
 10
506.3907388294
 20
73.483603643
 30
0.0
 10
506.4362200162
 20
73.1823382717
 30
0.0
 10
506.6491833959
 20
72.8132076658
 30
0.0
 10
507.0694067818
 20
72.4706408054
 30
0.0
 10
507.6013562756
 20
72.2476550752
 30
0.0
 10
508.1735309158
 20
72.1747916354
 30
0.0
 10
508.7087384734
 20
72.261351546
 30
0.0
 10
509.0777354733
 20
72.4745463382
 30
0.0
 10
509.2677560221
 20
72.7127092096
 30
0.0
 10
509.3245892463
 20
72.8459923687
 30
0.0
 10
509.3427239831
 20
72.9136721279
 30
0.0
  0
SPLINE
  5
72F
100
AcDbEntity
  8
0
100
AcDbSpline
 62
7
  6
CONTINUOUS
 70
0
 71
3
 72
12
 73
8
 74
0
 42
0.0000001
 43
0.0000001
 44
0.0000000001
 40
0.0
 40
0.0
 40
0.0
 40
0.0
 40
0.1035930223
 40
0.210949621
 40
0.4457011106
 40
0.7125563401
 40
1.0
 40
1.0
 40
1.0
 40
1.0
 10
504.9972388326
 20
75.8012571802
 30
0.0
 10
505.0163860196
 20
75.8727583577
 30
0.0
 10
505.0347518828
 20
76.0246728335
 30
0.0
 10
504.9865717339
 20
76.3428124105
 30
0.0
 10
504.7616086634
 20
76.7326238361
 30
0.0
 10
504.3181639053
 20
77.0943089599
 30
0.0
 10
503.9471846411
 20
77.249635515
 30
0.0
 10
503.7487954657
 20
77.3027937344
 30
0.0
  0
SPLINE
  5
730
100
AcDbEntity
  8
0
100
AcDbSpline
 62
7
  6
CONTINUOUS
 70
0
 71
3
 72
9
 73
5
 74
0
 42
0.0000001
 43
0.0000001
 44
0.0000000001
 40
0.0
 40
0.0
 40
0.0
 40
0.0
 40
0.4402133985
 40
1.0
 40
1.0
 40
1.0
 40
1.0
 10
496.1404410843
 20
76.5128018261
 30
0.0
 10
496.1356417067
 20
76.4948903051
 30
0.0
 10
496.152775626
 20
76.4484944291
 30
0.0
 10
496.1928239966
 20
76.4284889896
 30
0.0
 10
496.2156007443
 20
76.4223859784
 30
0.0
  0
SPLINE
  5
731
100
AcDbEntity
  8
0
100
AcDbSpline
 62
7
  6
CONTINUOUS
 70
0
 71
3
 72
9
 73
5
 74
0
 42
0.0000001
 43
0.0000001
 44
0.0000000001
 40
0.0
 40
0.0
 40
0.0
 40
0.0
 40
0.4402133985
 40
1.0
 40
1.0
 40
1.0
 40
1.0
 10
496.7867367394
 20
76.3747658661
 30
0.0
 10
496.7915361169
 20
76.3926773871
 30
0.0
 10
496.7744021977
 20
76.4390732631
 30
0.0
 10
496.734353827
 20
76.4590787027
 30
0.0
 10
496.7115770794
 20
76.4651817138
 30
0.0
  0
SPLINE
  5
732
100
AcDbEntity
  8
RUNDUNGEN
100
AcDbSpline
 62
7
  6
CONTINUOUS
 70
0
 71
3
 72
10
 73
6
 74
0
 42
0.0000001
 43
0.0000001
 44
0.0000000001
 40
0.0
 40
0.0
 40
0.0
 40
0.0
 40
0.5180750537
 40
0.7617172794
 40
1.0
 40
1.0
 40
1.0
 40
1.0
 10
523.6760117672
 20
39.3088028032
 30
0.0
 10
523.8315035532
 20
39.0364078742
 30
0.0
 10
524.0007039897
 20
38.592760413
 30
0.0
 10
524.0369799189
 20
37.9849932916
 30
0.0
 10
523.9922047578
 20
37.6938797322
 30
0.0
 10
523.954867518
 20
37.5545352562
 30
0.0
  0
SPLINE
  5
733
100
AcDbEntity
  8
0
100
AcDbSpline
 62
7
  6
CONTINUOUS
 70
0
 71
3
 72
9
 73
5
 74
0
 42
0.0000001
 43
0.0000001
 44
0.0000000001
 40
0.0
 40
0.0
 40
0.0
 40
0.0
 40
0.4402133985
 40
1.0
 40
1.0
 40
1.0
 40
1.0
 10
497.2259672239
 20
78.0139963506
 30
0.0
 10
497.2307666015
 20
78.0319078716
 30
0.0
 10
497.2136326822
 20
78.0783037476
 30
0.0
 10
497.1735843116
 20
78.0983091872
 30
0.0
 10
497.150807564
 20
78.1044121983
 30
0.0
  0
SPLINE
  5
734
100
AcDbEntity
  8
RUNDUNGEN
100
AcDbSpline
 62
7
  6
CONTINUOUS
 70
0
 71
3
 72
11
 73
7
 74
0
 42
0.0000001
 43
0.0000001
 44
0.0000000001
 40
0.0
 40
0.0
 40
0.0
 40
0.0
 40
0.2793755914
 40
0.5367190118
 40
0.774320888
 40
1.0
 40
1.0
 40
1.0
 40
1.0
 10
543.8085809019
 20
80.2630007224
 30
0.0
 10
543.8719317578
 20
80.2072652621
 30
0.0
 10
543.9837535894
 20
80.0878883019
 30
0.0
 10
544.1008182489
 20
79.8825452297
 30
0.0
 10
544.1531974769
 20
79.6679819248
 30
0.0
 10
544.1406669684
 20
79.5254642046
 30
0.0
 10
544.1230648066
 20
79.459615241
 30
0.0
  0
SPLINE
  5
735
100
AcDbEntity
  8
RUNDUNGEN
100
AcDbSpline
 62
7
  6
CONTINUOUS
 70
0
 71
3
 72
10
 73
6
 74
0
 42
0.0000001
 43
0.0000001
 44
0.0000000001
 40
0.0
 40
0.0
 40
0.0
 40
0.0
 40
0.4809192537
 40
0.7459271807
 40
1.0
 40
1.0
 40
1.0
 40
1.0
 10
537.1991898036
 20
84.8414402158
 30
0.0
 10
537.4437432473
 20
84.9842362873
 30
0.0
 10
537.9224053093
 20
85.0348070952
 30
0.0
 10
538.4891492412
 20
84.8722003305
 30
0.0
 10
538.7551216705
 20
84.7089844806
 30
0.0
 10
538.8674488404
 20
84.6101601407
 30
0.0
  0
SPLINE
  5
736
100
AcDbEntity
  8
0
100
AcDbSpline
 62
7
  6
CONTINUOUS
 70
0
 71
3
 72
9
 73
5
 74
0
 42
0.0000001
 43
0.0000001
 44
0.0000000001
 40
0.0
 40
0.0
 40
0.0
 40
0.0
 40
0.2423574743
 40
1.0
 40
1.0
 40
1.0
 40
1.0
 10
515.8103292617
 20
86.8169954966
 30
0.0
 10
515.5317030826
 20
87.0621280701
 30
0.0
 10
514.338833743
 20
88.0239529695
 30
0.0
 10
512.9912245021
 20
88.7888956498
 30
0.0
 10
511.9278860054
 20
89.2528311538
 30
0.0
  0
SPLINE
  5
737
100
AcDbEntity
  8
0
100
AcDbSpline
 62
7
  6
CONTINUOUS
 70
0
 71
3
 72
9
 73
5
 74
0
 42
0.0000001
 43
0.0000001
 44
0.0000000001
 40
0.0
 40
0.0
 40
0.0
 40
0.0
 40
0.2572745118
 40
1.0
 40
1.0
 40
1.0
 40
1.0
 10
507.0937665416
 20
90.5481295602
 30
0.0
 10
506.7023257965
 20
90.592232567
 30
0.0
 10
505.175598565
 20
90.7089464561
 30
0.0
 10
503.6285492105
 20
90.6034834847
 30
0.0
 10
502.5135542244
 20
90.3798556298
 30
0.0
  0
SPLINE
  5
738
100
AcDbEntity
  8
RUNDUNGEN
100
AcDbSpline
 62
7
  6
CONTINUOUS
 70
0
 71
3
 72
13
 73
9
 74
0
 42
0.0000001
 43
0.0000001
 44
0.0000000001
 40
0.0
 40
0.0
 40
0.0
 40
0.0
 40
0.2520973212
 40
0.3837531223
 40
0.515691444
 40
0.6454036133
 40
0.770600228
 40
1.0
 40
1.0
 40
1.0
 40
1.0
 10
479.2911767206
 20
99.565845119
 30
0.0
 10
480.5135824407
 20
99.8110157004
 30
0.0
 10
482.4488005451
 20
99.8663944915
 30
0.0
 10
484.9630685441
 20
99.4146472787
 30
0.0
 10
486.8187492618
 20
98.8097218789
 30
0.0
 10
488.5437524204
 20
97.9648330709
 30
0.0
 10
490.5205070474
 20
96.6068186589
 30
0.0
 10
491.7320403625
 20
95.2691596207
 30
0.0
 10
492.2944662499
 20
94.2838859695
 30
0.0
  0
SPLINE
  5
739
100
AcDbEntity
  8
0
100
AcDbSpline
 62
7
  6
CONTINUOUS
 70
0
 71
3
 72
11
 73
7
 74
0
 42
0.0000001
 43
0.0000001
 44
0.0000000001
 40
0.0
 40
0.0
 40
0.0
 40
0.0
 40
0.2094668498
 40
0.4446559298
 40
0.7120302568
 40
1.0
 40
1.0
 40
1.0
 40
1.0
 10
495.7269375861
 20
77.519629943
 30
0.0
 10
495.7211172479
 20
77.4979081453
 30
0.0
 10
495.7227222094
 20
77.4474709888
 30
0.0
 10
495.762425466
 20
77.3795667038
 30
0.0
 10
495.8291141726
 20
77.3249275713
 30
0.0
 10
495.8849741561
 20
77.3015919779
 30
0.0
 10
495.9148367359
 20
77.2935903238
 30
0.0
  0
SPLINE
  5
73A
100
AcDbEntity
  8
0
100
AcDbSpline
 62
7
  6
CONTINUOUS
 70
0
 71
3
 72
11
 73
7
 74
0
 42
0.0000001
 43
0.0000001
 44
0.0000000001
 40
0.0
 40
0.0
 40
0.0
 40
0.0
 40
0.2094668498
 40
0.4446559298
 40
0.7120302568
 40
1.0
 40
1.0
 40
1.0
 40
1.0
 10
495.2877071015
 20
75.8803994585
 30
0.0
 10
495.2818867634
 20
75.8586776607
 30
0.0
 10
495.2834917248
 20
75.8082405043
 30
0.0
 10
495.3231949814
 20
75.7403362192
 30
0.0
 10
495.389883688
 20
75.6856970868
 30
0.0
 10
495.4457436716
 20
75.6623614934
 30
0.0
 10
495.4756062514
 20
75.6543598392
 30
0.0
  0
SPLINE
  5
73B
100
AcDbEntity
  8
0
100
AcDbSpline
 62
7
  6
CONTINUOUS
 70
0
 71
3
 72
9
 73
5
 74
0
 42
0.0000001
 43
0.0000001
 44
0.0000000001
 40
0.0
 40
0.0
 40
0.0
 40
0.0
 40
0.2432035461
 40
1.0
 40
1.0
 40
1.0
 40
1.0
 10
499.2518446993
 20
78.156363673
 30
0.0
 10
499.2552916755
 20
78.1692279633
 30
0.0
 10
499.2650668686
 20
78.2233035541
 30
0.0
 10
499.2558943181
 20
78.2799956705
 30
0.0
 10
499.2411926566
 20
78.3187433648
 30
0.0
  0
SPLINE
  5
73C
100
AcDbEntity
  8
0
100
AcDbSpline
 62
7
  6
CONTINUOUS
 70
0
 71
3
 72
9
 73
5
 74
0
 42
0.0000001
 43
0.0000001
 44
0.0000000001
 40
0.0
 40
0.0
 40
0.0
 40
0.0
 40
0.2401326547
 40
1.0
 40
1.0
 40
1.0
 40
1.0
 10
499.2411926566
 20
78.3187433648
 30
0.0
 10
499.2376856686
 20
78.3279863812
 30
0.0
 10
499.2212975859
 20
78.3657964717
 30
0.0
 10
499.1981422566
 20
78.4005096768
 30
0.0
 10
499.1781448536
 20
78.4245662272
 30
0.0
  0
SPLINE
  5
73D
100
AcDbEntity
  8
0
100
AcDbSpline
 62
7
  6
CONTINUOUS
 70
0
 71
3
 72
9
 73
5
 74
0
 42
0.0000001
 43
0.0000001
 44
0.0000000001
 40
0.0
 40
0.0
 40
0.0
 40
0.0
 40
0.2356425559
 40
1.0
 40
1.0
 40
1.0
 40
1.0
 10
499.1781448536
 20
78.4245662272
 30
0.0
 10
499.1602280143
 20
78.4461198932
 30
0.0
 10
499.0755868792
 20
78.5303480974
 30
0.0
 10
498.9638636845
 20
78.584912341
 30
0.0
 10
498.8760463996
 20
78.6084429115
 30
0.0
  0
SPLINE
  5
73E
100
AcDbEntity
  8
RUNDUNGEN
100
AcDbSpline
 62
7
  6
CONTINUOUS
 70
0
 71
3
 72
11
 73
7
 74
0
 42
0.0000001
 43
0.0000001
 44
0.0000000001
 40
0.0
 40
0.0
 40
0.0
 40
0.0
 40
0.2256934588
 40
0.4632957354
 40
0.7206235605
 40
1.0
 40
1.0
 40
1.0
 40
1.0
 10
480.8620172125
 20
86.6958711372
 30
0.0
 10
480.879700877
 20
86.7617014994
 30
0.0
 10
480.940112455
 20
86.8913910499
 30
0.0
 10
481.0927586183
 20
87.0510099707
 30
0.0
 10
481.2968037875
 20
87.1703043526
 30
0.0
 10
481.453326128
 20
87.2177739689
 30
0.0
 10
481.5360560976
 20
87.2343666225
 30
0.0
  0
SPLINE
  5
73F
100
AcDbEntity
  8
RUNDUNGEN
100
AcDbSpline
 62
7
  6
CONTINUOUS
 70
0
 71
3
 72
9
 73
5
 74
0
 42
0.0000001
 43
0.0000001
 44
0.0000000001
 40
0.0
 40
0.0
 40
0.0
 40
0.0
 40
0.4805181646
 40
1.0
 40
1.0
 40
1.0
 40
1.0
 10
479.9469439691
 20
83.2807752953
 30
0.0
 10
479.9243509162
 20
83.1966470184
 30
0.0
 10
479.9169732602
 20
83.0091772124
 30
0.0
 10
479.9837928778
 20
82.8358589186
 30
0.0
 10
480.030478799
 20
82.7540731952
 30
0.0
  0
SPLINE
  5
740
100
AcDbEntity
  8
RUNDUNGEN
100
AcDbSpline
 62
7
  6
CONTINUOUS
 70
0
 71
3
 72
11
 73
7
 74
0
 42
0.0000001
 43
0.0000001
 44
0.0000000001
 40
0.0
 40
0.0
 40
0.0
 40
0.0
 40
0.2256919297
 40
0.4632773963
 40
0.7205986282
 40
1.0
 40
1.0
 40
1.0
 40
1.0
 10
475.2513874786
 20
97.4093563682
 30
0.0
 10
475.3101921419
 20
97.628987843
 30
0.0
 10
475.5112783024
 20
98.0617649594
 30
0.0
 10
476.0201482906
 20
98.5944854783
 30
0.0
 10
476.7006613744
 20
98.992608777
 30
0.0
 10
477.2227733143
 20
99.1509978572
 30
0.0
 10
477.4987529434
 20
99.2063494357
 30
0.0
  0
SPLINE
  5
741
100
AcDbEntity
  8
RUNDUNGEN
100
AcDbSpline
 62
7
  6
CONTINUOUS
 70
0
 71
3
 72
10
 73
6
 74
0
 42
0.0000001
 43
0.0000001
 44
0.0000000001
 40
0.0
 40
0.0
 40
0.0
 40
0.0
 40
0.2382860828
 40
0.4819052527
 40
1.0
 40
1.0
 40
1.0
 40
1.0
 10
474.3363239691
 20
93.9942928587
 30
0.0
 10
474.2990235584
 20
93.8549783257
 30
0.0
 10
474.2543689488
 20
93.5639432206
 30
0.0
 10
474.2906717412
 20
92.9563573609
 30
0.0
 10
474.4598560812
 20
92.5128483655
 30
0.0
 10
474.6153101369
 20
92.2405195334
 30
0.0
  0
SPLINE
  5
742
100
AcDbEntity
  8
RUNDUNGEN
100
AcDbSpline
 62
7
  6
CONTINUOUS
 70
0
 71
3
 72
11
 73
7
 74
0
 42
0.0000001
 43
0.0000001
 44
0.0000000001
 40
0.0
 40
0.0
 40
0.0
 40
0.0
 40
0.237780559
 40
0.4809056754
 40
0.7339193747
 40
1.0
 40
1.0
 40
1.0
 40
1.0
 10
513.3351731934
 20
56.2033607604
 30
0.0
 10
513.4471856453
 20
56.621396863
 30
0.0
 10
513.7671880618
 20
57.4447164376
 30
0.0
 10
514.5085759994
 20
58.5668516537
 30
0.0
 10
515.4925709115
 20
59.5563813201
 30
0.0
 10
516.2728462209
 20
60.0985985913
 30
0.0
 10
516.6910629129
 20
60.3427975678
 30
0.0
  0
SPLINE
  5
743
100
AcDbEntity
  8
RUNDUNGEN
100
AcDbSpline
 62
7
  6
CONTINUOUS
 70
0
 71
3
 72
9
 73
5
 74
0
 42
0.0000001
 43
0.0000001
 44
0.0000000001
 40
0.0
 40
0.0
 40
0.0
 40
0.0
 40
0.4843491198
 40
1.0
 40
1.0
 40
1.0
 40
1.0
 10
514.0470889968
 20
57.8417384229
 30
0.0
 10
514.0654191596
 20
57.2502831215
 30
0.0
 10
514.2752628493
 20
56.030530164
 30
0.0
 10
514.7744916359
 20
54.9027387123
 30
0.0
 10
515.0868038618
 20
54.3556212805
 30
0.0
  0
SPLINE
  5
744
100
AcDbEntity
  8
RUNDUNGEN
100
AcDbSpline
 62
7
  6
CONTINUOUS
 70
0
 71
3
 72
10
 73
6
 74
0
 42
0.0000001
 43
0.0000001
 44
0.0000000001
 40
0.0
 40
0.0
 40
0.0
 40
0.0
 40
0.2382826319
 40
0.4819247904
 40
1.0
 40
1.0
 40
1.0
 40
1.0
 10
470.8289470721
 20
51.7895827368
 30
0.0
 10
470.866284298
 20
51.9289271608
 30
0.0
 10
470.9730645972
 20
52.2034263953
 30
0.0
 10
471.3083639885
 20
52.7116302249
 30
0.0
 10
471.6767196275
 20
53.0112400394
 30
0.0
 10
471.9475770098
 20
53.1693951222
 30
0.0
  0
SPLINE
  5
745
100
AcDbEntity
  8
BEZUGSACHSEN
100
AcDbSpline
 62
7
  6
CONTINUOUS
 70
0
 71
3
 72
9
 73
5
 74
0
 42
0.0000001
 43
0.0000001
 44
0.0000000001
 40
0.0
 40
0.0
 40
0.0
 40
0.0
 40
0.2346500853
 40
1.0
 40
1.0
 40
1.0
 40
1.0
 10
503.364287121
 20
83.6862868134
 30
0.0
 10
503.4366120642
 20
83.5258268603
 30
0.0
 10
503.7965149749
 20
82.8653164793
 30
0.0
 10
504.3371108916
 20
82.3135279126
 30
0.0
 10
504.7941656489
 20
81.9661632653
 30
0.0
  0
SPLINE
  5
746
100
AcDbEntity
  8
BEZUGSACHSEN
100
AcDbSpline
 62
7
  6
CONTINUOUS
 70
0
 71
3
 72
9
 73
5
 74
0
 42
0.0000001
 43
0.0000001
 44
0.0000000001
 40
0.0
 40
0.0
 40
0.0
 40
0.0
 40
0.2668229076
 40
1.0
 40
1.0
 40
1.0
 40
1.0
 10
509.6284156497
 20
80.6708298815
 30
0.0
 10
509.8268624659
 20
80.6960229765
 30
0.0
 10
510.5641925405
 20
80.8281397652
 30
0.0
 10
511.2806194995
 20
81.124516434
 30
0.0
 10
511.7267885532
 20
81.445561308
 30
0.0
  0
SPLINE
  5
747
100
AcDbEntity
  8
BEZUGSACHSEN
100
AcDbSpline
 62
7
  6
CONTINUOUS
 70
0
 71
3
 72
11
 73
7
 74
0
 42
0.0000001
 43
0.0000001
 44
0.0000000001
 40
0.0
 40
0.0
 40
0.0
 40
0.0
 40
0.2228273727
 40
0.4593732167
 40
0.7180073661
 40
1.0
 40
1.0
 40
1.0
 40
1.0
 10
511.918069075
 20
79.5659162725
 30
0.0
 10
511.9983315882
 20
79.8654600495
 30
0.0
 10
512.0454994243
 20
80.5200947538
 30
0.0
 10
511.7624723214
 20
81.4960531283
 30
0.0
 10
511.1660011016
 20
82.4134489119
 30
0.0
 10
510.61023162
 20
82.9314562246
 30
0.0
 10
510.2977777477
 20
83.1689232401
 30
0.0
  0
SPLINE
  5
748
100
AcDbEntity
  8
BEZUGSACHSEN
100
AcDbSpline
 62
7
  6
CONTINUOUS
 70
0
 71
3
 72
11
 73
7
 74
0
 42
0.0000001
 43
0.0000001
 44
0.0000000001
 40
0.0
 40
0.0
 40
0.0
 40
0.0
 40
0.2819926339
 40
0.5406267833
 40
0.7771726273
 40
1.0
 40
1.0
 40
1.0
 40
1.0
 10
505.4635277469
 20
84.4642566239
 30
0.0
 10
505.0742012483
 20
84.414831092
 30
0.0
 10
504.3338871022
 20
84.2441083406
 30
0.0
 10
503.3586299814
 20
83.7478558966
 30
0.0
 10
502.6255421331
 20
83.0441647027
 30
0.0
 10
502.3390733253
 20
82.4536505005
 30
0.0
 10
502.2588108121
 20
82.1541067235
 30
0.0
  0
SPLINE
  5
749
100
AcDbEntity
  8
RUNDUNGEN
100
AcDbSpline
 62
7
  6
CONTINUOUS
 70
0
 71
3
 72
13
 73
9
 74
0
 42
0.0000001
 43
0.0000001
 44
0.0000000001
 40
0.0
 40
0.0
 40
0.0
 40
0.0
 40
0.1034546555
 40
0.2106690395
 40
0.3244963599
 40
0.4464318111
 40
0.7129511617
 40
1.0
 40
1.0
 40
1.0
 40
1.0
 10
468.6805966805
 20
43.771829923
 30
0.0
 10
468.6325323779
 20
43.5924515034
 30
0.0
 10
468.5862140378
 20
43.2113642003
 30
0.0
 10
468.6744190196
 20
42.629369401
 30
0.0
 10
468.9123382758
 20
42.0556677338
 30
0.0
 10
469.4282448812
 20
41.3095036603
 30
0.0
 10
470.3845455509
 20
40.5259564862
 30
0.0
 10
471.3145396575
 20
40.1378637992
 30
0.0
 10
471.8122491781
 20
40.004502935
 30
0.0
  0
SPLINE
  5
74A
100
AcDbEntity
  8
RUNDUNGEN
100
AcDbSpline
 62
7
  6
CONTINUOUS
 70
0
 71
3
 72
10
 73
6
 74
0
 42
0.0000001
 43
0.0000001
 44
0.0000000001
 40
0.0
 40
0.0
 40
0.0
 40
0.0
 40
0.4808964563
 40
0.7459158441
 40
1.0
 40
1.0
 40
1.0
 40
1.0
 10
475.9488964492
 20
89.9043051367
 30
0.0
 10
476.0892813503
 20
89.6583748777
 30
0.0
 10
476.4785164368
 20
89.3752483139
 30
0.0
 10
477.0506329817
 20
89.2326871511
 30
0.0
 10
477.3625941934
 20
89.2410479017
 30
0.0
 10
477.5092911927
 20
89.2704700387
 30
0.0
  0
SPLINE
  5
74B
100
AcDbEntity
  8
RUNDUNGEN
100
AcDbSpline
 62
7
  6
CONTINUOUS
 70
0
 71
3
 72
9
 73
5
 74
0
 42
0.0000001
 43
0.0000001
 44
0.0000000001
 40
0.0
 40
0.0
 40
0.0
 40
0.0
 40
0.5194816775
 40
1.0
 40
1.0
 40
1.0
 40
1.0
 10
542.8723023761
 20
75.6301641486
 30
0.0
 10
542.9536333097
 20
75.6776537183
 30
0.0
 10
543.0981716153
 20
75.7943540765
 30
0.0
 10
543.1855154267
 20
75.9604173002
 30
0.0
 10
543.2080079018
 20
76.0445802063
 30
0.0
  0
SPLINE
  5
74C
100
AcDbEntity
  8
RUNDUNGEN
100
AcDbSpline
 62
7
  6
CONTINUOUS
 70
0
 71
3
 72
13
 73
9
 74
0
 42
0.0000001
 43
0.0000001
 44
0.0000000001
 40
0.0
 40
0.0
 40
0.0
 40
0.0
 40
0.2870490624
 40
0.5535683755
 40
0.6755038246
 40
0.7893311355
 40
0.8965454157
 40
1.0
 40
1.0
 40
1.0
 40
1.0
 10
517.2107630137
 20
27.8400078152
 30
0.0
 10
517.7084729227
 20
27.7066468471
 30
0.0
 10
518.7079181673
 20
27.5777479504
 30
0.0
 10
519.9278727026
 20
27.7781697595
 30
0.0
 10
520.7477427852
 20
28.1664136905
 30
0.0
 10
521.2406374094
 20
28.5442943652
 30
0.0
 10
521.6080222549
 20
29.0042139609
 30
0.0
 10
521.7584528568
 20
29.3574041462
 30
0.0
 10
521.8065171264
 20
29.5367824424
 30
0.0
  0
SPLINE
  5
74D
100
AcDbEntity
  8
RUNDUNGEN
100
AcDbSpline
 62
7
  6
CONTINUOUS
 70
0
 71
3
 72
10
 73
6
 74
0
 42
0.0000001
 43
0.0000001
 44
0.0000000001
 40
0.0
 40
0.0
 40
0.0
 40
0.0
 40
0.47201694
 40
0.7322443513
 40
1.0
 40
1.0
 40
1.0
 40
1.0
 10
504.5489670608
 20
39.8018887478
 30
0.0
 10
504.8269465122
 20
39.3149164458
 30
0.0
 10
505.4667214642
 20
38.6735076167
 30
0.0
 10
506.5003887647
 20
38.0853943323
 30
0.0
 10
507.0945249188
 20
37.8711537189
 30
0.0
 10
507.4017638076
 20
37.7888293068
 30
0.0
  0
SPLINE
  5
74E
100
AcDbEntity
  8
RUNDUNGEN
100
AcDbSpline
 62
7
  6
CONTINUOUS
 70
0
 71
3
 72
10
 73
6
 74
0
 42
0.0000001
 43
0.0000001
 44
0.0000000001
 40
0.0
 40
0.0
 40
0.0
 40
0.0
 40
0.2677558652
 40
0.5279833681
 40
1.0
 40
1.0
 40
1.0
 40
1.0
 10
485.2815024221
 20
43.7159354814
 30
0.0
 10
485.588741561
 20
43.6336110022
 30
0.0
 10
486.2103992484
 20
43.5220807063
 30
0.0
 10
487.3996380501
 20
43.5145683265
 30
0.0
 10
488.274403493
 20
43.7501572475
 30
0.0
 10
488.7586265972
 20
44.0328977232
 30
0.0
  0
SPLINE
  5
74F
100
AcDbEntity
  8
0
100
AcDbSpline
 62
7
  6
CONTINUOUS
 70
0
 71
3
 72
11
 73
7
 74
0
 42
0.0000001
 43
0.0000001
 44
0.0000000001
 40
0.0
 40
0.0
 40
0.0
 40
0.0
 40
0.2880052506
 40
0.5553344723
 40
0.7905070702
 40
1.0
 40
1.0
 40
1.0
 40
1.0
 10
495.1668912267
 20
79.6023080447
 30
0.0
 10
495.1071591212
 20
79.6183132142
 30
0.0
 10
494.9870703888
 20
79.633767746
 30
0.0
 10
494.8169445029
 20
79.6057695246
 30
0.0
 10
494.6802558724
 20
79.5279092037
 30
0.0
 10
494.6270427773
 20
79.4421437897
 30
0.0
 10
494.6154007332
 20
79.3986950895
 30
0.0
  0
SPLINE
  5
750
100
AcDbEntity
  8
0
100
AcDbSpline
 62
7
  6
CONTINUOUS
 70
0
 71
3
 72
11
 73
7
 74
0
 42
0.0000001
 43
0.0000001
 44
0.0000000001
 40
0.0
 40
0.0
 40
0.0
 40
0.0
 40
0.2879697432
 40
0.5553440702
 40
0.7905331502
 40
1.0
 40
1.0
 40
1.0
 40
1.0
 10
497.0739477275
 20
76.9830074696
 30
0.0
 10
497.1038103073
 20
76.9750058155
 30
0.0
 10
497.1638542688
 20
76.9672850404
 30
0.0
 10
497.2489279491
 20
76.9812595639
 30
0.0
 10
497.3172641205
 20
77.0202147714
 30
0.0
 10
497.3438726361
 20
77.0630921495
 30
0.0
 10
497.3496929742
 20
77.0848139473
 30
0.0
  0
SPLINE
  5
751
100
AcDbEntity
  8
0
100
AcDbSpline
 62
7
  6
CONTINUOUS
 70
0
 71
3
 72
11
 73
7
 74
0
 42
0.0000001
 43
0.0000001
 44
0.0000000001
 40
0.0
 40
0.0
 40
0.0
 40
0.0
 40
0.2879697432
 40
0.5553440702
 40
0.7905331502
 40
1.0
 40
1.0
 40
1.0
 40
1.0
 10
496.6347172429
 20
75.3437769851
 30
0.0
 10
496.6645798228
 20
75.3357753309
 30
0.0
 10
496.7246237843
 20
75.3280545559
 30
0.0
 10
496.8096974646
 20
75.3420290793
 30
0.0
 10
496.8780336359
 20
75.3809842869
 30
0.0
 10
496.9046421515
 20
75.423861665
 30
0.0
 10
496.9104624897
 20
75.4455834627
 30
0.0
  0
SPLINE
  5
752
100
AcDbEntity
  8
0
100
AcDbSpline
 62
7
  6
CONTINUOUS
 70
0
 71
3
 72
9
 73
5
 74
0
 42
0.0000001
 43
0.0000001
 44
0.0000000001
 40
0.0
 40
0.0
 40
0.0
 40
0.0
 40
0.5597866015
 40
1.0
 40
1.0
 40
1.0
 40
1.0
 10
496.4089765294
 20
78.303185225
 30
0.0
 10
496.3861997817
 20
78.3092882361
 30
0.0
 10
496.3415141556
 20
78.3119872025
 30
0.0
 10
496.3034778083
 20
78.2803741549
 30
0.0
 10
496.2986784307
 20
78.2624626339
 30
0.0
  0
SPLINE
  5
753
100
AcDbEntity
  8
0
100
AcDbSpline
 62
7
  6
CONTINUOUS
 70
0
 71
3
 72
9
 73
5
 74
0
 42
0.0000001
 43
0.0000001
 44
0.0000000001
 40
0.0
 40
0.0
 40
0.0
 40
0.0
 40
0.5597866015
 40
1.0
 40
1.0
 40
1.0
 40
1.0
 10
495.9697460448
 20
76.6639547404
 30
0.0
 10
495.9469692972
 20
76.6700577515
 30
0.0
 10
495.9022836711
 20
76.672756718
 30
0.0
 10
495.8642473237
 20
76.6411436704
 30
0.0
 10
495.8594479461
 20
76.6232321494
 30
0.0
  0
SPLINE
  5
754
100
AcDbEntity
  8
0
100
AcDbSpline
 62
7
  6
CONTINUOUS
 70
0
 71
3
 72
9
 73
5
 74
0
 42
0.0000001
 43
0.0000001
 44
0.0000000001
 40
0.0
 40
0.0
 40
0.0
 40
0.0
 40
0.5597866015
 40
1.0
 40
1.0
 40
1.0
 40
1.0
 10
496.3778762831
 20
76.3789043789
 30
0.0
 10
496.4006530307
 20
76.3728013677
 30
0.0
 10
496.4453386568
 20
76.3701024013
 30
0.0
 10
496.4833750042
 20
76.4017154489
 30
0.0
 10
496.4881743818
 20
76.4196269699
 30
0.0
  0
SPLINE
  5
755
100
AcDbEntity
  8
0
100
AcDbSpline
 62
7
  6
CONTINUOUS
 70
0
 71
3
 72
11
 73
7
 74
0
 42
0.0000001
 43
0.0000001
 44
0.0000000001
 40
0.0
 40
0.0
 40
0.0
 40
0.0
 40
0.2880001164
 40
0.5553425139
 40
0.7905343079
 40
1.0
 40
1.0
 40
1.0
 40
1.0
 10
503.2983889938
 20
75.6218538971
 30
0.0
 10
503.4062200419
 20
75.5929606548
 30
0.0
 10
503.6230129517
 20
75.5650805452
 30
0.0
 10
503.9301643465
 20
75.6155641346
 30
0.0
 10
504.1768984303
 20
75.7561870646
 30
0.0
 10
504.272953738
 20
75.9110090033
 30
0.0
 10
504.2939681149
 20
75.9894357255
 30
0.0
  0
SPLINE
  5
756
100
AcDbEntity
  8
0
100
AcDbSpline
 62
7
  6
CONTINUOUS
 70
0
 71
3
 72
9
 73
5
 74
0
 42
0.0000001
 43
0.0000001
 44
0.0000000001
 40
0.0
 40
0.0
 40
0.0
 40
0.0
 40
0.2457811574
 40
1.0
 40
1.0
 40
1.0
 40
1.0
 10
515.2954114142
 20
74.1796052834
 30
0.0
 10
515.2819305586
 20
74.1880729232
 30
0.0
 10
515.2257253297
 20
74.2203318753
 30
0.0
 10
515.1646225449
 20
74.2439320876
 30
0.0
 10
515.1174352212
 20
74.2565758928
 30
0.0
  0
SPLINE
  5
757
100
AcDbEntity
  8
0
100
AcDbSpline
 62
7
  6
CONTINUOUS
 70
0
 71
3
 72
11
 73
7
 74
0
 42
0.0000001
 43
0.0000001
 44
0.0000000001
 40
0.0
 40
0.0
 40
0.0
 40
0.0
 40
0.2779817175
 40
0.5346952233
 40
0.772857858
 40
1.0
 40
1.0
 40
1.0
 40
1.0
 10
514.2880998543
 20
70.5326424814
 30
0.0
 10
514.4741905181
 20
70.5770976539
 30
0.0
 10
514.8254723322
 20
70.6971113426
 30
0.0
 10
515.2810546844
 20
70.9820636225
 30
0.0
 10
515.6211877535
 20
71.3537032615
 30
0.0
 10
515.7565904343
 20
71.651178644
 30
0.0
 10
515.7970530391
 20
71.8021871407
 30
0.0
  0
SPLINE
  5
758
100
AcDbEntity
  8
0
100
AcDbSpline
 62
7
  6
CONTINUOUS
 70
0
 71
3
 72
9
 73
5
 74
0
 42
0.0000001
 43
0.0000001
 44
0.0000000001
 40
0.0
 40
0.0
 40
0.0
 40
0.0
 40
0.2591205677
 40
1.0
 40
1.0
 40
1.0
 40
1.0
 10
514.1381018648
 20
70.5366310816
 30
0.0
 10
514.1506896137
 20
70.5332582045
 30
0.0
 10
514.199926282
 20
70.5230429568
 30
0.0
 10
514.2518590015
 20
70.5239849092
 30
0.0
 10
514.2880998543
 20
70.5326424814
 30
0.0
  0
SPLINE
  5
759
100
AcDbEntity
  8
RUNDUNGEN
100
AcDbSpline
 62
7
  6
CONTINUOUS
 70
0
 71
3
 72
13
 73
9
 74
0
 42
0.0000001
 43
0.0000001
 44
0.0000000001
 40
0.0
 40
0.0
 40
0.0
 40
0.0
 40
0.1034546555
 40
0.2106690395
 40
0.3244963599
 40
0.4464318111
 40
0.7129511617
 40
1.0
 40
1.0
 40
1.0
 40
1.0
 10
475.4217325378
 20
43.4296496291
 30
0.0
 10
475.4697968405
 20
43.6090280488
 30
0.0
 10
475.6202276329
 20
43.9622185043
 30
0.0
 10
475.9876127876
 20
44.4221382945
 30
0.0
 10
476.4805077411
 20
44.8000188844
 30
0.0
 10
477.300378004
 20
45.1882626248
 30
0.0
 10
478.5203322647
 20
45.3886840477
 30
0.0
 10
479.51977713
 20
45.2597851204
 30
0.0
 10
480.0174866506
 20
45.1264242563
 30
0.0
  0
SPLINE
  5
75A
100
AcDbEntity
  8
RUNDUNGEN
100
AcDbSpline
 62
7
  6
CONTINUOUS
 70
0
 71
3
 72
13
 73
9
 74
0
 42
0.0000001
 43
0.0000001
 44
0.0000000001
 40
0.0
 40
0.0
 40
0.0
 40
0.0
 40
0.2870490624
 40
0.5535683755
 40
0.6755038246
 40
0.7893311355
 40
0.8965454157
 40
1.0
 40
1.0
 40
1.0
 40
1.0
 10
512.6657795791
 20
36.3783405318
 30
0.0
 10
513.1634894881
 20
36.2449795636
 30
0.0
 10
514.093483908
 20
35.8568866604
 30
0.0
 10
515.0497846224
 20
35.0733390146
 30
0.0
 10
515.5656909762
 20
34.3271748661
 30
0.0
 10
515.8036099049
 20
33.7534732902
 30
0.0
 10
515.8918147162
 20
33.1714788139
 30
0.0
 10
515.8454963463
 20
32.7903918401
 30
0.0
 10
515.7974320767
 20
32.6110135439
 30
0.0
  0
SPLINE
  5
75B
100
AcDbEntity
  8
RUNDUNGEN
100
AcDbSpline
 62
7
  6
CONTINUOUS
 70
0
 71
3
 72
13
 73
9
 74
0
 42
0.0000001
 43
0.0000001
 44
0.0000000001
 40
0.0
 40
0.0
 40
0.0
 40
0.0
 40
0.2360077452
 40
0.3661261418
 40
0.5000000756
 40
0.6338740402
 40
0.7639924068
 40
1.0
 40
1.0
 40
1.0
 40
1.0
 10
493.7634394261
 20
46.9552348605
 30
0.0
 10
494.36871682
 20
47.3086595873
 30
0.0
 10
495.4620060904
 20
47.6032128942
 30
0.0
 10
496.9490657149
 20
47.5936494534
 30
0.0
 10
498.1185700455
 20
47.3839982586
 30
0.0
 10
499.2362159358
 20
46.9808091515
 30
0.0
 10
500.5288285283
 20
46.2455614657
 30
0.0
 10
501.3283675661
 20
45.4438264582
 30
0.0
 10
501.6758405784
 20
44.8351133615
 30
0.0
  0
SPLINE
  5
75C
100
AcDbEntity
  8
RUNDUNGEN
100
AcDbSpline
 62
7
  6
CONTINUOUS
 70
0
 71
3
 72
9
 73
5
 74
0
 42
0.0000001
 43
0.0000001
 44
0.0000000001
 40
0.0
 40
0.0
 40
0.0
 40
0.0
 40
0.5156509212
 40
1.0
 40
1.0
 40
1.0
 40
1.0
 10
486.9094584929
 20
61.9057182169
 30
0.0
 10
487.453490815
 20
62.2233816167
 30
0.0
 10
488.4497369736
 20
62.9504683022
 30
0.0
 10
489.2413460018
 20
63.9018912533
 30
0.0
 10
489.5529481527
 20
64.404945506
 30
0.0
  0
SPLINE
  5
75D
100
AcDbEntity
  8
RUNDUNGEN
100
AcDbSpline
 62
7
  6
CONTINUOUS
 70
0
 71
3
 72
11
 73
7
 74
0
 42
0.0000001
 43
0.0000001
 44
0.0000000001
 40
0.0
 40
0.0
 40
0.0
 40
0.0
 40
0.2660806488
 40
0.5190943636
 40
0.7622194616
 40
1.0
 40
1.0
 40
1.0
 40
1.0
 10
488.5137175441
 20
67.8928945042
 30
0.0
 10
488.7538043881
 20
67.4723035487
 30
0.0
 10
489.1584340505
 20
66.6125917711
 30
0.0
 10
489.5158338043
 20
65.2636362536
 30
0.0
 10
489.5968268577
 20
63.9211445326
 30
0.0
 10
489.46229716
 20
63.0481276361
 30
0.0
 10
489.350284703
 20
62.6300915149
 30
0.0
  0
SPLINE
  5
75E
100
AcDbEntity
  8
RUNDUNGEN
100
AcDbSpline
 62
7
  6
CONTINUOUS
 70
0
 71
3
 72
11
 73
7
 74
0
 42
0.0000001
 43
0.0000001
 44
0.0000000001
 40
0.0
 40
0.0
 40
0.0
 40
0.0
 40
0.2524507309
 40
0.5157647478
 40
0.7702968692
 40
1.0
 40
1.0
 40
1.0
 40
1.0
 10
480.4667904251
 20
89.8636379161
 30
0.0
 10
480.7112856197
 20
89.9126748505
 30
0.0
 10
481.229721755
 20
89.9276024757
 30
0.0
 10
481.9758784518
 20
89.7388166969
 30
0.0
 10
482.6253077418
 20
89.3682461531
 30
0.0
 10
482.9549656166
 20
89.0042965014
 30
0.0
 10
483.0674483309
 20
88.8072460862
 30
0.0
  0
SPLINE
  5
75F
100
AcDbEntity
  8
RUNDUNGEN
100
AcDbSpline
 62
7
  6
CONTINUOUS
 70
0
 71
3
 72
9
 73
5
 74
0
 42
0.0000001
 43
0.0000001
 44
0.0000000001
 40
0.0
 40
0.0
 40
0.0
 40
0.0
 40
0.5194825986
 40
1.0
 40
1.0
 40
1.0
 40
1.0
 10
484.562681469
 20
86.1878541869
 30
0.0
 10
484.6404979822
 20
86.0515330078
 30
0.0
 10
484.7518703432
 20
85.7626421798
 30
0.0
 10
484.7395548584
 20
85.4501643732
 30
0.0
 10
484.7018843349
 20
85.3099423467
 30
0.0
  0
SPLINE
  5
760
100
AcDbEntity
  8
RUNDUNGEN
100
AcDbSpline
 62
7
  6
CONTINUOUS
 70
0
 71
3
 72
11
 73
7
 74
0
 42
0.0000001
 43
0.0000001
 44
0.0000000001
 40
0.0
 40
0.0
 40
0.0
 40
0.0
 40
0.2524375529
 40
0.5157480446
 40
0.7702932073
 40
1.0
 40
1.0
 40
1.0
 40
1.0
 10
522.9475200172
 20
80.5377652257
 30
0.0
 10
523.321941802
 20
80.2083526199
 30
0.0
 10
524.2049380224
 20
79.664076165
 30
0.0
 10
525.6860873768
 20
79.2448617788
 30
0.0
 10
527.1815319805
 20
79.2372887823
 30
0.0
 10
528.1165008611
 20
79.5380092763
 30
0.0
 10
528.5083834732
 20
79.7668316419
 30
0.0
  0
SPLINE
  5
761
100
AcDbEntity
  8
RUNDUNGEN
100
AcDbSpline
 62
7
  6
CONTINUOUS
 70
0
 71
3
 72
11
 73
7
 74
0
 42
0.0000001
 43
0.0000001
 44
0.0000000001
 40
0.0
 40
0.0
 40
0.0
 40
0.0
 40
0.2297109937
 40
0.4842558728
 40
0.7475644511
 40
1.0
 40
1.0
 40
1.0
 40
1.0
 10
493.7273908583
 20
91.773647923
 30
0.0
 10
493.9523640867
 20
91.3795334286
 30
0.0
 10
494.6117189487
 20
90.6516130648
 30
0.0
 10
495.9106053274
 20
89.9104537917
 30
0.0
 10
497.4029182542
 20
89.532936159
 30
0.0
 10
498.4397454724
 20
89.5627962494
 30
0.0
 10
498.92870667
 20
89.6608642632
 30
0.0
  0
SPLINE
  5
762
100
AcDbEntity
  8
0
100
AcDbSpline
 62
7
  6
CONTINUOUS
 70
0
 71
3
 72
9
 73
5
 74
0
 42
0.0000001
 43
0.0000001
 44
0.0000000001
 40
0.0
 40
0.0
 40
0.0
 40
0.0
 40
0.4402133985
 40
1.0
 40
1.0
 40
1.0
 40
1.0
 10
495.7481762234
 20
76.2079604266
 30
0.0
 10
495.7433768458
 20
76.1900489056
 30
0.0
 10
495.7605107651
 20
76.1436530296
 30
0.0
 10
495.8005591357
 20
76.12364759
 30
0.0
 10
495.8233358833
 20
76.1175445789
 30
0.0
  0
SPLINE
  5
763
100
AcDbEntity
  8
RUNDUNGEN
100
AcDbSpline
 62
7
  6
CONTINUOUS
 70
0
 71
3
 72
11
 73
7
 74
0
 42
0.0000001
 43
0.0000001
 44
0.0000000001
 40
0.0
 40
0.0
 40
0.0
 40
0.0
 40
0.237780559
 40
0.4809056754
 40
0.7339193747
 40
1.0
 40
1.0
 40
1.0
 40
1.0
 10
489.350284703
 20
62.6300915149
 30
0.0
 10
489.2382722511
 20
62.2120554122
 30
0.0
 10
488.9182698346
 20
61.3887358376
 30
0.0
 10
488.1768818969
 20
60.2666006215
 30
0.0
 10
487.1928869849
 20
59.2770709552
 30
0.0
 10
486.4126116754
 20
58.7348536839
 30
0.0
 10
485.9943949835
 20
58.4906547074
 30
0.0
  0
SPLINE
  5
764
100
AcDbEntity
  8
RUNDUNGEN
100
AcDbSpline
 62
7
  6
CONTINUOUS
 70
0
 71
3
 72
10
 73
6
 74
0
 42
0.0000001
 43
0.0000001
 44
0.0000000001
 40
0.0
 40
0.0
 40
0.0
 40
0.0
 40
0.2382827206
 40
0.4819249463
 40
1.0
 40
1.0
 40
1.0
 40
1.0
 10
523.0398040086
 20
34.1394717467
 30
0.0
 10
523.0771412484
 20
34.2788162227
 30
0.0
 10
523.1219164094
 20
34.5699297821
 30
0.0
 10
523.0856404803
 20
35.1776969035
 30
0.0
 10
522.9164400437
 20
35.6213443647
 30
0.0
 10
522.7609482578
 20
35.8937392937
 30
0.0
  0
SPLINE
  5
765
100
AcDbEntity
  8
0
100
AcDbSpline
 62
7
  6
CONTINUOUS
 70
0
 71
3
 72
9
 73
5
 74
0
 42
0.0000001
 43
0.0000001
 44
0.0000000001
 40
0.0
 40
0.0
 40
0.0
 40
0.0
 40
0.4402133985
 40
1.0
 40
1.0
 40
1.0
 40
1.0
 10
496.7604972822
 20
77.4359498703
 30
0.0
 10
496.7652966598
 20
77.4538613913
 30
0.0
 10
496.7481627405
 20
77.5002572673
 30
0.0
 10
496.7081143699
 20
77.5202627069
 30
0.0
 10
496.6853376223
 20
77.526365718
 30
0.0
  0
SPLINE
  5
766
100
AcDbEntity
  8
0
100
AcDbSpline
 62
7
  6
CONTINUOUS
 70
0
 71
3
 72
9
 73
5
 74
0
 42
0.0000001
 43
0.0000001
 44
0.0000000001
 40
0.0
 40
0.0
 40
0.0
 40
0.0
 40
0.471076254
 40
1.0
 40
1.0
 40
1.0
 40
1.0
 10
497.1740007804
 20
76.4291217534
 30
0.0
 10
497.1798211186
 20
76.4508435512
 30
0.0
 10
497.1782701595
 20
76.5012258749
 30
0.0
 10
497.1533005944
 20
76.5438094016
 30
0.0
 10
497.137159916
 20
76.563226375
 30
0.0
  0
SPLINE
  5
767
100
AcDbEntity
  8
0
100
AcDbSpline
 62
7
  6
CONTINUOUS
 70
0
 71
3
 72
8
 73
4
 74
0
 42
0.0000001
 43
0.0000001
 44
0.0000000001
 40
0.0
 40
0.0
 40
0.0
 40
0.0
 40
1.0
 40
1.0
 40
1.0
 40
1.0
 10
497.137159916
 20
76.563226375
 30
0.0
 10
497.1281997769
 20
76.5740052764
 30
0.0
 10
497.118178696
 20
76.5839570981
 30
0.0
 10
497.107487974
 20
76.5930222661
 30
0.0
  0
SPLINE
  5
768
100
AcDbEntity
  8
0
100
AcDbSpline
 62
7
  6
CONTINUOUS
 70
0
 71
3
 72
9
 73
5
 74
0
 42
0.0000001
 43
0.0000001
 44
0.0000000001
 40
0.0
 40
0.0
 40
0.0
 40
0.0
 40
0.241609722
 40
1.0
 40
1.0
 40
1.0
 40
1.0
 10
497.107487974
 20
76.5930222661
 30
0.0
 10
497.0990729563
 20
76.6001577569
 30
0.0
 10
497.0624199937
 20
76.6275083436
 30
0.0
 10
497.0195532331
 20
76.6461980428
 30
0.0
 10
496.9861016306
 20
76.6551613727
 30
0.0
  0
SPLINE
  5
769
100
AcDbEntity
  8
RUNDUNGEN
100
AcDbSpline
 62
7
  6
CONTINUOUS
 70
0
 71
3
 72
10
 73
6
 74
0
 42
0.0000001
 43
0.0000001
 44
0.0000000001
 40
0.0
 40
0.0
 40
0.0
 40
0.0
 40
0.5180752096
 40
0.7617173681
 40
1.0
 40
1.0
 40
1.0
 40
1.0
 10
471.0325135003
 20
49.7543316127
 30
0.0
 10
470.761656118
 20
49.5961765299
 30
0.0
 10
470.393300479
 20
49.2965667154
 30
0.0
 10
470.0580010877
 20
48.7883628859
 30
0.0
 10
469.9512207885
 20
48.5138636513
 30
0.0
 10
469.9138835627
 20
48.3745192274
 30
0.0
  0
SPLINE
  5
76A
100
AcDbEntity
  8
RUNDUNGEN
100
AcDbSpline
 62
7
  6
CONTINUOUS
 70
0
 71
3
 72
11
 73
7
 74
0
 42
0.0000001
 43
0.0000001
 44
0.0000000001
 40
0.0
 40
0.0
 40
0.0
 40
0.0
 40
0.2793752682
 40
0.5367194959
 40
0.7743217448
 40
1.0
 40
1.0
 40
1.0
 40
1.0
 10
480.6209925881
 20
83.8193031131
 30
0.0
 10
480.5382598591
 20
83.802709906
 30
0.0
 10
480.3817276219
 20
83.7552360396
 30
0.0
 10
480.1776715843
 20
83.6359319473
 30
0.0
 10
480.0250276839
 20
83.4762982494
 30
0.0
 10
479.9646228116
 20
83.3466048479
 30
0.0
 10
479.9469439691
 20
83.2807752953
 30
0.0
  0
SPLINE
  5
76B
100
AcDbEntity
  8
RUNDUNGEN
100
AcDbSpline
 62
7
  6
CONTINUOUS
 70
0
 71
3
 72
11
 73
7
 74
0
 42
0.0000001
 43
0.0000001
 44
0.0000000001
 40
0.0
 40
0.0
 40
0.0
 40
0.0
 40
0.2794013718
 40
0.5367226037
 40
0.7743080703
 40
1.0
 40
1.0
 40
1.0
 40
1.0
 10
476.5836894339
 20
95.7912859262
 30
0.0
 10
476.3077098048
 20
95.7359343478
 30
0.0
 10
475.7855978649
 20
95.5775452675
 30
0.0
 10
475.1050847811
 20
95.1794219689
 30
0.0
 10
474.5962147929
 20
94.6467014499
 30
0.0
 10
474.3951286325
 20
94.2139243335
 30
0.0
 10
474.3363239691
 20
93.9942928587
 30
0.0
  0
SPLINE
  5
76C
100
AcDbEntity
  8
RUNDUNGEN
100
AcDbSpline
 62
7
  6
CONTINUOUS
 70
0
 71
3
 72
13
 73
9
 74
0
 42
0.0000001
 43
0.0000001
 44
0.0000000001
 40
0.0
 40
0.0
 40
0.0
 40
0.0
 40
0.2294024287
 40
0.3545996847
 40
0.4843111938
 40
0.616248878
 40
0.747903971
 40
1.0
 40
1.0
 40
1.0
 40
1.0
 10
491.3794027404
 20
90.8688224601
 30
0.0
 10
490.8169703581
 20
91.8541074893
 30
0.0
 10
489.6054207514
 20
93.1917756042
 30
0.0
 10
487.6286514877
 20
94.5497913418
 30
0.0
 10
485.9036484882
 20
95.3946728519
 30
0.0
 10
484.0479760474
 20
95.999591026
 30
0.0
 10
481.5337201318
 20
96.4513311114
 30
0.0
 10
479.5985126253
 20
96.3959509262
 30
0.0
 10
478.3761132111
 20
96.1507816095
 30
0.0
  0
SPLINE
  5
76D
100
AcDbEntity
  8
0
100
AcDbSpline
 62
7
  6
CONTINUOUS
 70
0
 71
3
 72
9
 73
5
 74
0
 42
0.0000001
 43
0.0000001
 44
0.0000000001
 40
0.0
 40
0.0
 40
0.0
 40
0.0
 40
0.2423574743
 40
1.0
 40
1.0
 40
1.0
 40
1.0
 10
514.8952657522
 20
83.4019319871
 30
0.0
 10
514.6166395732
 20
83.6470645607
 30
0.0
 10
513.4237702335
 20
84.6088894601
 30
0.0
 10
512.0761609927
 20
85.3738321404
 30
0.0
 10
511.012822496
 20
85.8377676443
 30
0.0
  0
SPLINE
  5
76E
100
AcDbEntity
  8
0
100
AcDbSpline
 62
7
  6
CONTINUOUS
 70
0
 71
3
 72
9
 73
5
 74
0
 42
0.0000001
 43
0.0000001
 44
0.0000000001
 40
0.0
 40
0.0
 40
0.0
 40
0.0
 40
0.2572745118
 40
1.0
 40
1.0
 40
1.0
 40
1.0
 10
506.1787030322
 20
87.1330660508
 30
0.0
 10
505.787262287
 20
87.1771690576
 30
0.0
 10
504.2605350555
 20
87.2938829467
 30
0.0
 10
502.713485701
 20
87.1884199752
 30
0.0
 10
501.5984907149
 20
86.9647921203
 30
0.0
  0
SPLINE
  5
76F
100
AcDbEntity
  8
RUNDUNGEN
100
AcDbSpline
 62
7
  6
CONTINUOUS
 70
0
 71
3
 72
10
 73
6
 74
0
 42
0.0000001
 43
0.0000001
 44
0.0000000001
 40
0.0
 40
0.0
 40
0.0
 40
0.0
 40
0.2540841022
 40
0.5191024011
 40
1.0
 40
1.0
 40
1.0
 40
1.0
 10
537.9523853309
 20
81.1950966312
 30
0.0
 10
537.8400530989
 20
81.2939254247
 30
0.0
 10
537.5740677575
 20
81.4571463384
 30
0.0
 10
537.0073198865
 20
81.6197433112
 30
0.0
 10
536.5286688871
 20
81.5691664421
 30
0.0
 10
536.2841262941
 20
81.4263767063
 30
0.0
  0
SPLINE
  5
770
100
AcDbEntity
  8
0
100
AcDbSpline
 62
7
  6
CONTINUOUS
 70
0
 71
3
 72
11
 73
7
 74
0
 42
0.0000001
 43
0.0000001
 44
0.0000000001
 40
0.0
 40
0.0
 40
0.0
 40
0.0
 40
0.2880052506
 40
0.5553344723
 40
0.7905070702
 40
1.0
 40
1.0
 40
1.0
 40
1.0
 10
497.7340471398
 20
74.3464436517
 30
0.0
 10
497.7937792453
 20
74.3304384823
 30
0.0
 10
497.9138679777
 20
74.3149839504
 30
0.0
 10
498.0839938637
 20
74.3429821718
 30
0.0
 10
498.2206824941
 20
74.4208424928
 30
0.0
 10
498.2738955892
 20
74.5066079068
 30
0.0
 10
498.2855376334
 20
74.550056607
 30
0.0
  0
SPLINE
  5
771
100
AcDbEntity
  8
0
100
AcDbSpline
 62
7
  6
CONTINUOUS
 70
0
 71
3
 72
19
 73
15
 74
0
 42
0.0000001
 43
0.0000001
 44
0.0000000001
 40
0.0
 40
0.0
 40
0.0
 40
0.0
 40
0.0517234907
 40
0.1053372095
 40
0.1622487312
 40
0.2232163938
 40
0.3564752704
 40
0.5
 40
0.6435247296
 40
0.7767836062
 40
0.8377512688
 40
0.8946627905
 40
0.9482765093
 40
1.0
 40
1.0
 40
1.0
 40
1.0
 10
505.6844650952
 20
73.8938996426
 30
0.0
 10
505.657098758
 20
73.7917670817
 30
0.0
 10
505.6307438948
 20
73.5747660387
 30
0.0
 10
505.6809324991
 20
73.2433645812
 30
0.0
 10
505.8164568417
 20
72.9166959531
 30
0.0
 10
506.1101481159
 20
72.4918286362
 30
0.0
 10
506.6550912008
 20
72.0455644463
 30
0.0
 10
507.4574159534
 20
71.7104624797
 30
0.0
 10
508.3198005545
 20
71.5995069193
 30
0.0
 10
509.0148672046
 20
71.7135115022
 30
0.0
 10
509.4816449674
 20
71.9346117547
 30
0.0
 10
509.762346805
 20
72.149752914
 30
0.0
 10
509.97151214
 20
72.4116606929
 30
0.0
 10
510.0571886805
 20
72.6127665404
 30
0.0
 10
510.0845550177
 20
72.7148991013
 30
0.0
  0
SPLINE
  5
772
100
AcDbEntity
  8
0
100
AcDbSpline
 62
7
  6
CONTINUOUS
 70
0
 71
3
 72
9
 73
5
 74
0
 42
0.0000001
 43
0.0000001
 44
0.0000000001
 40
0.0
 40
0.0
 40
0.0
 40
0.0
 40
0.4402133985
 40
1.0
 40
1.0
 40
1.0
 40
1.0
 10
496.1142016272
 20
77.5739858304
 30
0.0
 10
496.1094022496
 20
77.5560743094
 30
0.0
 10
496.1265361688
 20
77.5096784334
 30
0.0
 10
496.1665845395
 20
77.4896729938
 30
0.0
 10
496.1893612871
 20
77.4835699827
 30
0.0
  0
SPLINE
  5
773
100
AcDbEntity
  8
0
100
AcDbSpline
 62
7
  6
CONTINUOUS
 70
0
 71
3
 72
9
 73
5
 74
0
 42
0.0000001
 43
0.0000001
 44
0.0000000001
 40
0.0
 40
0.0
 40
0.0
 40
0.0
 40
0.471076254
 40
1.0
 40
1.0
 40
1.0
 40
1.0
 10
497.613231265
 20
78.068352238
 30
0.0
 10
497.6190516031
 20
78.0900740357
 30
0.0
 10
497.617500644
 20
78.1404563595
 30
0.0
 10
497.5925310789
 20
78.1830398861
 30
0.0
 10
497.5763904005
 20
78.2024568595
 30
0.0
  0
SPLINE
  5
774
100
AcDbEntity
  8
0
100
AcDbSpline
 62
7
  6
CONTINUOUS
 70
0
 71
3
 72
8
 73
4
 74
0
 42
0.0000001
 43
0.0000001
 44
0.0000000001
 40
0.0
 40
0.0
 40
0.0
 40
0.0
 40
1.0
 40
1.0
 40
1.0
 40
1.0
 10
497.5763904005
 20
78.2024568595
 30
0.0
 10
497.5674302615
 20
78.213235761
 30
0.0
 10
497.5574091805
 20
78.2231875827
 30
0.0
 10
497.5467184585
 20
78.2322527507
 30
0.0
  0
SPLINE
  5
775
100
AcDbEntity
  8
0
100
AcDbSpline
 62
7
  6
CONTINUOUS
 70
0
 71
3
 72
9
 73
5
 74
0
 42
0.0000001
 43
0.0000001
 44
0.0000000001
 40
0.0
 40
0.0
 40
0.0
 40
0.0
 40
0.241609722
 40
1.0
 40
1.0
 40
1.0
 40
1.0
 10
497.5467184585
 20
78.2322527507
 30
0.0
 10
497.5383034409
 20
78.2393882415
 30
0.0
 10
497.5016504783
 20
78.2667388281
 30
0.0
 10
497.4587837177
 20
78.2854285274
 30
0.0
 10
497.4253321151
 20
78.2943918573
 30
0.0
  0
SPLINE
  5
776
100
AcDbEntity
  8
0
100
AcDbSpline
 62
7
  6
CONTINUOUS
 70
0
 71
3
 72
11
 73
7
 74
0
 42
0.0000001
 43
0.0000001
 44
0.0000000001
 40
0.0
 40
0.0
 40
0.0
 40
0.0
 40
0.2879697432
 40
0.5553440702
 40
0.7905331502
 40
1.0
 40
1.0
 40
1.0
 40
1.0
 10
495.826990639
 20
76.9657442268
 30
0.0
 10
495.7971280592
 20
76.973745881
 30
0.0
 10
495.7370840977
 20
76.981466656
 30
0.0
 10
495.6520104174
 20
76.9674921326
 30
0.0
 10
495.5836742461
 20
76.928536925
 30
0.0
 10
495.5570657304
 20
76.885659547
 30
0.0
 10
495.5512453923
 20
76.8639377492
 30
0.0
  0
SPLINE
  5
777
100
AcDbEntity
  8
0
100
AcDbSpline
 62
7
  6
CONTINUOUS
 70
0
 71
3
 72
9
 73
5
 74
0
 42
0.0000001
 43
0.0000001
 44
0.0000000001
 40
0.0
 40
0.0
 40
0.0
 40
0.0
 40
0.4402133985
 40
1.0
 40
1.0
 40
1.0
 40
1.0
 10
496.1874067079
 20
77.8471909112
 30
0.0
 10
496.1826073303
 20
77.8292793901
 30
0.0
 10
496.1997412496
 20
77.7828835141
 30
0.0
 10
496.2397896202
 20
77.7628780746
 30
0.0
 10
496.2625663679
 20
77.7567750634
 30
0.0
  0
SPLINE
  5
778
100
AcDbEntity
  8
0
100
AcDbSpline
 62
7
  6
CONTINUOUS
 70
0
 71
3
 72
17
 73
13
 74
0
 42
0.0000001
 43
0.0000001
 44
0.0000000001
 40
0.0
 40
0.0
 40
0.0
 40
0.0
 40
0.0519082659
 40
0.1062678596
 40
0.2250851405
 40
0.3581749994
 40
0.5
 40
0.6418250006
 40
0.7749148595
 40
0.8937321404
 40
0.9480917341
 40
1.0
 40
1.0
 40
1.0
 40
1.0
 10
505.7233823184
 20
73.9738689384
 30
0.0
 10
505.7144109773
 20
73.8749798843
 30
0.0
 10
505.7222361933
 20
73.6693867443
 30
0.0
 10
505.840354168
 20
73.25190553
 30
0.0
 10
506.1788172446
 20
72.7550993198
 30
0.0
 10
506.7856474451
 20
72.2929159014
 30
0.0
 10
507.5320317863
 20
71.988932559
 30
0.0
 10
508.3304112579
 20
71.8789976853
 30
0.0
 10
509.0870333365
 20
71.9758451666
 30
0.0
 10
509.6285540642
 20
72.2368604271
 30
0.0
 10
509.9395878381
 20
72.5393507768
 30
0.0
 10
510.049161244
 20
72.713487051
 30
0.0
 10
510.0908363617
 20
72.8036131545
 30
0.0
  0
SPLINE
  5
779
100
AcDbEntity
  8
0
100
AcDbSpline
 62
7
  6
CONTINUOUS
 70
0
 71
3
 72
11
 73
7
 74
0
 42
0.0000001
 43
0.0000001
 44
0.0000000001
 40
0.0
 40
0.0
 40
0.0
 40
0.0
 40
0.2094929298
 40
0.4446655277
 40
0.7119947494
 40
1.0
 40
1.0
 40
1.0
 40
1.0
 10
493.6490936672
 20
75.7923880235
 30
0.0
 10
493.637451623
 20
75.7489393233
 30
0.0
 10
493.6406528082
 20
75.6480577484
 30
0.0
 10
493.7200984741
 20
75.5122844173
 30
0.0
 10
493.8534327025
 20
75.4029743033
 30
0.0
 10
493.9651598614
 20
75.3563139544
 30
0.0
 10
494.0248919669
 20
75.3403087849
 30
0.0
  0
SPLINE
  5
77A
100
AcDbEntity
  8
0
100
AcDbSpline
 62
7
  6
CONTINUOUS
 70
0
 71
3
 72
11
 73
7
 74
0
 42
0.0000001
 43
0.0000001
 44
0.0000000001
 40
0.0
 40
0.0
 40
0.0
 40
0.0
 40
0.2879697432
 40
0.5553440702
 40
0.7905331502
 40
1.0
 40
1.0
 40
1.0
 40
1.0
 10
496.2662211236
 20
78.6049747114
 30
0.0
 10
496.2363585438
 20
78.6129763655
 30
0.0
 10
496.1763145822
 20
78.6206971406
 30
0.0
 10
496.0912409019
 20
78.6067226172
 30
0.0
 10
496.0229047306
 20
78.5677674096
 30
0.0
 10
495.996296215
 20
78.5248900315
 30
0.0
 10
495.9904758768
 20
78.5031682338
 30
0.0
  0
SPLINE
  5
77B
100
AcDbEntity
  8
0
100
AcDbSpline
 62
7
  6
CONTINUOUS
 70
0
 71
3
 72
9
 73
5
 74
0
 42
0.0000001
 43
0.0000001
 44
0.0000000001
 40
0.0
 40
0.0
 40
0.0
 40
0.0
 40
0.5597866015
 40
1.0
 40
1.0
 40
1.0
 40
1.0
 10
496.5230620834
 20
77.5698473176
 30
0.0
 10
496.5002853358
 20
77.5759503287
 30
0.0
 10
496.4555997097
 20
77.5786492952
 30
0.0
 10
496.4175633623
 20
77.5470362476
 30
0.0
 10
496.4127639847
 20
77.5291247266
 30
0.0
  0
SPLINE
  5
77C
100
AcDbEntity
  8
0
100
AcDbSpline
 62
7
  6
CONTINUOUS
 70
0
 71
3
 72
9
 73
5
 74
0
 42
0.0000001
 43
0.0000001
 44
0.0000000001
 40
0.0
 40
0.0
 40
0.0
 40
0.0
 40
0.5597866015
 40
1.0
 40
1.0
 40
1.0
 40
1.0
 10
496.9311923217
 20
77.2847969561
 30
0.0
 10
496.9539690693
 20
77.2786939449
 30
0.0
 10
496.9986546954
 20
77.2759949785
 30
0.0
 10
497.0366910428
 20
77.3076080261
 30
0.0
 10
497.0414904204
 20
77.3255195471
 30
0.0
  0
SPLINE
  5
77D
100
AcDbEntity
  8
0
100
AcDbSpline
 62
7
  6
CONTINUOUS
 70
0
 71
3
 72
9
 73
5
 74
0
 42
0.0000001
 43
0.0000001
 44
0.0000000001
 40
0.0
 40
0.0
 40
0.0
 40
0.0
 40
0.2445376398
 40
1.0
 40
1.0
 40
1.0
 40
1.0
 10
493.7222987479
 20
76.0655931042
 30
0.0
 10
493.7194329538
 20
76.054897815
 30
0.0
 10
493.7107895151
 20
76.0103524348
 30
0.0
 10
493.7149347181
 20
75.9636661944
 30
0.0
 10
493.7239743303
 20
75.9306751498
 30
0.0
  0
SPLINE
  5
77E
100
AcDbEntity
  8
0
100
AcDbSpline
 62
7
  6
CONTINUOUS
 70
0
 71
3
 72
9
 73
5
 74
0
 42
0.0000001
 43
0.0000001
 44
0.0000000001
 40
0.0
 40
0.0
 40
0.0
 40
0.0
 40
0.238285514
 40
1.0
 40
1.0
 40
1.0
 40
1.0
 10
493.7239743303
 20
75.9306751498
 30
0.0
 10
493.7271682074
 20
75.9190187487
 30
0.0
 10
493.7436273055
 20
75.870943988
 30
0.0
 10
493.7712833289
 20
75.8270941282
 30
0.0
 10
493.7959804768
 20
75.7973838612
 30
0.0
  0
SPLINE
  5
77F
100
AcDbEntity
  8
0
100
AcDbSpline
 62
7
  6
CONTINUOUS
 70
0
 71
3
 72
9
 73
5
 74
0
 42
0.0000001
 43
0.0000001
 44
0.0000000001
 40
0.0
 40
0.0
 40
0.0
 40
0.0
 40
0.2355596553
 40
1.0
 40
1.0
 40
1.0
 40
1.0
 10
493.7959804768
 20
75.7973838612
 30
0.0
 10
493.8138911806
 20
75.775837576
 30
0.0
 10
493.8985856435
 20
75.6916623534
 30
0.0
 10
494.0102694153
 20
75.6370472088
 30
0.0
 10
494.0980970476
 20
75.6135138657
 30
0.0
  0
SPLINE
  5
780
100
AcDbEntity
  8
0
100
AcDbSpline
 62
7
  6
CONTINUOUS
 70
0
 71
3
 72
9
 73
5
 74
0
 42
0.0000001
 43
0.0000001
 44
0.0000000001
 40
0.0
 40
0.0
 40
0.0
 40
0.0
 40
0.5597866015
 40
1.0
 40
1.0
 40
1.0
 40
1.0
 10
496.4919618371
 20
75.6455664715
 30
0.0
 10
496.5147385848
 20
75.6394634604
 30
0.0
 10
496.5594242109
 20
75.6367644939
 30
0.0
 10
496.5974605583
 20
75.6683775415
 30
0.0
 10
496.6022599358
 20
75.6862890626
 30
0.0
  0
SPLINE
  5
781
100
AcDbEntity
  8
0
100
AcDbSpline
 62
7
  6
CONTINUOUS
 70
0
 71
3
 72
11
 73
7
 74
0
 42
0.0000001
 43
0.0000001
 44
0.0000000001
 40
0.0
 40
0.0
 40
0.0
 40
0.0
 40
0.2094656921
 40
0.4446574861
 40
0.7119998836
 40
1.0
 40
1.0
 40
1.0
 40
1.0
 10
504.2939681149
 20
75.9894357255
 30
0.0
 10
504.3149824918
 20
76.0678624477
 30
0.0
 10
504.3092071244
 20
76.2499698335
 30
0.0
 10
504.1658406049
 20
76.4951199052
 30
0.0
 10
503.9250814889
 20
76.6924156735
 30
0.0
 10
503.7233932668
 20
76.7766672451
 30
0.0
 10
503.6155622187
 20
76.8055604874
 30
0.0
  0
SPLINE
  5
782
100
AcDbEntity
  8
BEZUGSACHSEN
100
AcDbSpline
 62
7
  6
CONTINUOUS
 70
0
 71
3
 72
19
 73
15
 74
0
 42
0.0000001
 43
0.0000001
 44
0.0000000001
 40
0.0
 40
0.0
 40
0.0
 40
0.0
 40
0.051729057
 40
0.1053341786
 40
0.1622493009
 40
0.2232160554
 40
0.3564757248
 40
0.5
 40
0.6435242752
 40
0.7767839446
 40
0.8377506991
 40
0.8946658214
 40
0.948270943
 40
1.0
 40
1.0
 40
1.0
 40
1.0
 10
502.2588108121
 20
82.1541067235
 30
0.0
 10
502.1987284971
 20
81.9298764713
 30
0.0
 10
502.1408266606
 20
81.4535182842
 30
0.0
 10
502.2510987581
 20
80.7260255925
 30
0.0
 10
502.5485035254
 20
80.0088978773
 30
0.0
 10
503.193296957
 20
79.0762265476
 30
0.0
 10
504.3895551396
 20
78.0965573805
 30
0.0
 10
506.1508712874
 20
77.3609576374
 30
0.0
 10
508.0440156869
 20
77.1173476281
 30
0.0
 10
509.5698402461
 20
77.3676369227
 30
0.0
 10
510.5945834029
 20
77.8529572719
 30
0.0
 10
511.2107073442
 20
78.3253057074
 30
0.0
 10
511.6699521278
 20
78.9001968107
 30
0.0
 10
511.85798676
 20
79.3416860203
 30
0.0
 10
511.918069075
 20
79.5659162725
 30
0.0
  0
SPLINE
  5
783
100
AcDbEntity
  8
0
100
AcDbSpline
 62
7
  6
CONTINUOUS
 70
0
 71
3
 72
11
 73
7
 74
0
 42
0.0000001
 43
0.0000001
 44
0.0000000001
 40
0.0
 40
0.0
 40
0.0
 40
0.0
 40
0.2865059912
 40
0.5484241175
 40
0.7833822346
 40
1.0
 40
1.0
 40
1.0
 40
1.0
 10
503.6604957288
 20
75.0502167987
 30
0.0
 10
503.8174280003
 20
75.0449537994
 30
0.0
 10
504.1205714519
 20
75.0683982324
 30
0.0
 10
504.5307768806
 20
75.2137448318
 30
0.0
 10
504.8453656428
 20
75.460161971
 30
0.0
 10
504.9665295458
 20
75.6865797518
 30
0.0
 10
504.9972388326
 20
75.8012571802
 30
0.0
  0
SPLINE
  5
784
100
AcDbEntity
  8
RUNDUNGEN
100
AcDbSpline
 62
7
  6
CONTINUOUS
 70
0
 71
3
 72
11
 73
7
 74
0
 42
0.0000001
 43
0.0000001
 44
0.0000000001
 40
0.0
 40
0.0
 40
0.0
 40
0.0
 40
0.2256941656
 40
0.4632959394
 40
0.7206237852
 40
1.0
 40
1.0
 40
1.0
 40
1.0
 10
543.2080079018
 20
76.0445802063
 30
0.0
 10
543.2256068612
 20
76.1104324328
 30
0.0
 10
543.2381305684
 20
76.2529507423
 30
0.0
 10
543.1857427587
 20
76.4675039192
 30
0.0
 10
543.0686822473
 20
76.672834395
 30
0.0
 10
542.9568663253
 20
76.7922034444
 30
0.0
 10
542.8935173924
 20
76.8479372129
 30
0.0
  0
SPLINE
  5
785
100
AcDbEntity
  8
0
100
AcDbSpline
 62
7
  6
CONTINUOUS
 70
0
 71
3
 72
11
 73
7
 74
0
 42
0.0000001
 43
0.0000001
 44
0.0000000001
 40
0.0
 40
0.0
 40
0.0
 40
0.0
 40
0.227142142
 40
0.4653047767
 40
0.7220182825
 40
1.0
 40
1.0
 40
1.0
 40
1.0
 10
515.7970530391
 20
71.8021871407
 30
0.0
 10
515.8375156438
 20
71.9531956374
 30
0.0
 10
515.8689911738
 20
72.2785182161
 30
0.0
 10
515.7602471147
 20
72.770434119
 30
0.0
 10
515.5081773642
 20
73.2450012084
 30
0.0
 10
515.2639652336
 20
73.5245770187
 30
0.0
 10
515.1250335775
 20
73.6561216593
 30
0.0
  0
SPLINE
  5
786
100
AcDbEntity
  8
0
100
AcDbSpline
 62
7
  6
CONTINUOUS
 70
0
 71
3
 72
9
 73
5
 74
0
 42
0.0000001
 43
0.0000001
 44
0.0000000001
 40
0.0
 40
0.0
 40
0.0
 40
0.0
 40
0.4402133985
 40
1.0
 40
1.0
 40
1.0
 40
1.0
 10
495.6749711426
 20
75.9347553459
 30
0.0
 10
495.670171765
 20
75.9168438248
 30
0.0
 10
495.6873056843
 20
75.8704479488
 30
0.0
 10
495.7273540549
 20
75.8504425093
 30
0.0
 10
495.7501308026
 20
75.8443394981
 30
0.0
  0
SPLINE
  5
787
100
AcDbEntity
  8
0
100
AcDbSpline
 62
7
  6
CONTINUOUS
 70
0
 71
3
 72
9
 73
5
 74
0
 42
0.0000001
 43
0.0000001
 44
0.0000000001
 40
0.0
 40
0.0
 40
0.0
 40
0.0
 40
0.2536121958
 40
1.0
 40
1.0
 40
1.0
 40
1.0
 10
513.9754359614
 20
69.994576633
 30
0.0
 10
513.9913023882
 20
69.9903252368
 30
0.0
 10
514.054442122
 20
69.9758364767
 30
0.0
 10
514.1197441216
 20
69.9704470153
 30
0.0
 10
514.1680531705
 20
69.9722470397
 30
0.0
  0
SPLINE
  5
788
100
AcDbEntity
  8
0
100
AcDbSpline
 62
7
  6
CONTINUOUS
 70
0
 71
3
 72
11
 73
7
 74
0
 42
0.0000001
 43
0.0000001
 44
0.0000000001
 40
0.0
 40
0.0
 40
0.0
 40
0.0
 40
0.2847819434
 40
0.5451774547
 40
0.7807010719
 40
1.0
 40
1.0
 40
1.0
 40
1.0
 10
514.1680531705
 20
69.9722470397
 30
0.0
 10
514.4680443997
 20
69.9834248944
 30
0.0
 10
515.0429726249
 20
70.0662036528
 30
0.0
 10
515.8113806774
 20
70.3891774558
 30
0.0
 10
516.3946500127
 20
70.8899855442
 30
0.0
 10
516.6203182453
 20
71.3305549569
 30
0.0
 10
516.6801497762
 20
71.5538492702
 30
0.0
  0
SPLINE
  5
789
100
AcDbEntity
  8
0
100
AcDbSpline
 62
7
  6
CONTINUOUS
 70
0
 71
3
 72
9
 73
5
 74
0
 42
0.0000001
 43
0.0000001
 44
0.0000000001
 40
0.0
 40
0.0
 40
0.0
 40
0.0
 40
0.239729366
 40
1.0
 40
1.0
 40
1.0
 40
1.0
 10
515.1250335775
 20
73.6561216593
 30
0.0
 10
515.1162761281
 20
73.6644134738
 30
0.0
 10
515.0772656475
 20
73.696343928
 30
0.0
 10
515.030081156
 20
73.7177673239
 30
0.0
 10
514.993137208
 20
73.7276664249
 30
0.0
  0
SPLINE
  5
78A
100
AcDbEntity
  8
0
100
AcDbSpline
 62
7
  6
CONTINUOUS
 70
0
 71
3
 72
9
 73
5
 74
0
 42
0.0000001
 43
0.0000001
 44
0.0000000001
 40
0.0
 40
0.0
 40
0.0
 40
0.0
 40
0.2536121958
 40
1.0
 40
1.0
 40
1.0
 40
1.0
 10
514.0486410421
 20
70.2677817138
 30
0.0
 10
514.064507469
 20
70.2635303175
 30
0.0
 10
514.1276472028
 20
70.2490415574
 30
0.0
 10
514.1929492023
 20
70.2436520961
 30
0.0
 10
514.2412582513
 20
70.2454521205
 30
0.0
  0
SPLINE
  5
78B
100
AcDbEntity
  8
0
100
AcDbSpline
 62
7
  6
CONTINUOUS
 70
0
 71
3
 72
11
 73
7
 74
0
 42
0.0000001
 43
0.0000001
 44
0.0000000001
 40
0.0
 40
0.0
 40
0.0
 40
0.0
 40
0.2816347582
 40
0.5420479832
 40
0.7798483853
 40
1.0
 40
1.0
 40
1.0
 40
1.0
 10
514.2412582513
 20
70.2454521205
 30
0.0
 10
514.5122035398
 20
70.2555477059
 30
0.0
 10
515.0338735721
 20
70.3253471612
 30
0.0
 10
515.7437255793
 20
70.5916605555
 30
0.0
 10
516.3114391488
 20
71.0033848642
 30
0.0
 10
516.5718070631
 20
71.3723381962
 30
0.0
 10
516.6594639828
 20
71.5653044601
 30
0.0
  0
SPLINE
  5
78C
100
AcDbEntity
  8
0
100
AcDbSpline
 62
7
  6
CONTINUOUS
 70
0
 71
3
 72
9
 73
5
 74
0
 42
0.0000001
 43
0.0000001
 44
0.0000000001
 40
0.0
 40
0.0
 40
0.0
 40
0.0
 40
0.2591205677
 40
1.0
 40
1.0
 40
1.0
 40
1.0
 10
515.0663422888
 20
74.0008715056
 30
0.0
 10
515.0789300377
 20
73.9974986285
 30
0.0
 10
515.1266778671
 20
73.9817269584
 30
0.0
 10
515.1711819452
 20
73.9549448439
 30
0.0
 10
515.1982386583
 20
73.92932674
 30
0.0
  0
SPLINE
  5
78D
100
AcDbEntity
  8
0
100
AcDbSpline
 62
7
  6
CONTINUOUS
 70
0
 71
3
 72
11
 73
7
 74
0
 42
0.0000001
 43
0.0000001
 44
0.0000000001
 40
0.0
 40
0.0
 40
0.0
 40
0.0
 40
0.2779697373
 40
0.5346991835
 40
0.7728568778
 40
1.0
 40
1.0
 40
1.0
 40
1.0
 10
515.1982386583
 20
73.92932674
 30
0.0
 10
515.3371648246
 20
73.7977872973
 30
0.0
 10
515.5813711232
 20
73.5182039792
 30
0.0
 10
515.8334692036
 20
73.0436485952
 30
0.0
 10
515.9422004679
 20
72.5517191667
 30
0.0
 10
515.9107349465
 20
72.2263981857
 30
0.0
 10
515.8702720222
 20
72.0753884963
 30
0.0
  0
SPLINE
  5
78E
100
AcDbEntity
  8
0
100
AcDbSpline
 62
7
  6
CONTINUOUS
 70
0
 71
3
 72
11
 73
7
 74
0
 42
0.0000001
 43
0.0000001
 44
0.0000000001
 40
0.0
 40
0.0
 40
0.0
 40
0.0
 40
0.2782911642
 40
0.539206302
 40
0.7792454761
 40
1.0
 40
1.0
 40
1.0
 40
1.0
 10
503.7337008096
 20
75.3234218795
 30
0.0
 10
503.8585110767
 20
75.319236148
 30
0.0
 10
504.1018047207
 20
75.3326901108
 30
0.0
 10
504.4426362974
 20
75.4221048207
 30
0.0
 10
504.7312362647
 20
75.5762517418
 30
0.0
 10
504.8820248397
 20
75.723331514
 30
0.0
 10
504.9402351533
 20
75.8034859061
 30
0.0
  0
SPLINE
  5
78F
100
AcDbEntity
  8
0
100
AcDbSpline
 62
7
  6
CONTINUOUS
 70
0
 71
3
 72
8
 73
4
 74
0
 42
0.0000001
 43
0.0000001
 44
0.0000000001
 40
0.0
 40
0.0
 40
0.0
 40
0.0
 40
1.0
 40
1.0
 40
1.0
 40
1.0
 10
504.9402351533
 20
75.8034859061
 30
0.0
 10
504.9703511443
 20
75.844955
 30
0.0
 10
504.9969562057
 20
75.889255498
 30
0.0
 10
505.0190663924
 20
75.935491829
 30
0.0
  0
SPLINE
  5
790
100
AcDbEntity
  8
0
100
AcDbSpline
 62
7
  6
CONTINUOUS
 70
0
 71
3
 72
11
 73
7
 74
0
 42
0.0000001
 43
0.0000001
 44
0.0000000001
 40
0.0
 40
0.0
 40
0.0
 40
0.0
 40
0.2880066977
 40
0.5553334191
 40
0.790532629
 40
1.0
 40
1.0
 40
1.0
 40
1.0
 10
503.6887672995
 20
77.0787655682
 30
0.0
 10
503.796600401
 20
77.0498717757
 30
0.0
 10
503.9982910191
 20
76.9656313393
 30
0.0
 10
504.2390279089
 20
76.768310082
 30
0.0
 10
504.3823981643
 20
76.5231764838
 30
0.0
 10
504.3882021092
 20
76.341063987
 30
0.0
 10
504.3671876439
 20
76.2626369348
 30
0.0
  0
SPLINE
  5
791
100
AcDbEntity
  8
0
100
AcDbSpline
 62
7
  6
CONTINUOUS
 70
0
 71
3
 72
9
 73
5
 74
0
 42
0.0000001
 43
0.0000001
 44
0.0000000001
 40
0.0
 40
0.0
 40
0.0
 40
0.0
 40
0.5597866015
 40
1.0
 40
1.0
 40
1.0
 40
1.0
 10
496.5651669179
 20
75.9187715523
 30
0.0
 10
496.5879436655
 20
75.9126685411
 30
0.0
 10
496.6326292916
 20
75.9099695747
 30
0.0
 10
496.670665639
 20
75.9415826223
 30
0.0
 10
496.6754650166
 20
75.9594941433
 30
0.0
  0
SPLINE
  5
792
100
AcDbEntity
  8
0
100
AcDbSpline
 62
7
  6
CONTINUOUS
 70
0
 71
3
 72
9
 73
5
 74
0
 42
0.0000001
 43
0.0000001
 44
0.0000000001
 40
0.0
 40
0.0
 40
0.0
 40
0.0
 40
0.4402133985
 40
1.0
 40
1.0
 40
1.0
 40
1.0
 10
496.4859690655
 20
77.8023298073
 30
0.0
 10
496.4907684431
 20
77.8202413283
 30
0.0
 10
496.5288047905
 20
77.8518543759
 30
0.0
 10
496.5734904166
 20
77.8491554095
 30
0.0
 10
496.5962671642
 20
77.8430523984
 30
0.0
  0
SPLINE
  5
793
100
AcDbEntity
  8
RUNDUNGEN
100
AcDbSpline
 62
7
  6
CONTINUOUS
 70
0
 71
3
 72
11
 73
7
 74
0
 42
0.0000001
 43
0.0000001
 44
0.0000000001
 40
0.0
 40
0.0
 40
0.0
 40
0.0
 40
0.2256927635
 40
0.4632951072
 40
0.7206222905
 40
1.0
 40
1.0
 40
1.0
 40
1.0
 10
484.7018843349
 20
85.3099423467
 30
0.0
 10
484.6724095788
 20
85.2002276505
 30
0.0
 10
484.5717214439
 20
84.9840837996
 30
0.0
 10
484.3173123531
 20
84.7180596042
 30
0.0
 10
483.9772409748
 20
84.5192398234
 30
0.0
 10
483.7163737615
 20
84.4401251442
 30
0.0
 10
483.5784918205
 20
84.4124709905
 30
0.0
  0
SPLINE
  5
794
100
AcDbEntity
  8
0
100
AcDbSpline
 62
7
  6
CONTINUOUS
 70
0
 71
3
 72
9
 73
5
 74
0
 42
0.0000001
 43
0.0000001
 44
0.0000000001
 40
0.0
 40
0.0
 40
0.0
 40
0.0
 40
0.5597866015
 40
1.0
 40
1.0
 40
1.0
 40
1.0
 10
496.758542703
 20
77.7995707988
 30
0.0
 10
496.7813194506
 20
77.7934677877
 30
0.0
 10
496.8213678213
 20
77.7734623481
 30
0.0
 10
496.8385017405
 20
77.7270664721
 30
0.0
 10
496.833702363
 20
77.7091549511
 30
0.0
  0
SPLINE
  5
795
100
AcDbEntity
  8
0
100
AcDbSpline
 62
7
  6
CONTINUOUS
 70
0
 71
3
 72
9
 73
5
 74
0
 42
0.0000001
 43
0.0000001
 44
0.0000000001
 40
0.0
 40
0.0
 40
0.0
 40
0.0
 40
0.5597866015
 40
1.0
 40
1.0
 40
1.0
 40
1.0
 10
497.0043974024
 20
77.5580020368
 30
0.0
 10
497.0271741501
 20
77.5518990257
 30
0.0
 10
497.0718597762
 20
77.5492000592
 30
0.0
 10
497.1098961236
 20
77.5808131068
 30
0.0
 10
497.1146955011
 20
77.5987246279
 30
0.0
  0
SPLINE
  5
796
100
AcDbEntity
  8
0
100
AcDbSpline
 62
7
  6
CONTINUOUS
 70
0
 71
3
 72
11
 73
7
 74
0
 42
0.0000001
 43
0.0000001
 44
0.0000000001
 40
0.0
 40
0.0
 40
0.0
 40
0.0
 40
0.2876567391
 40
0.555407049
 40
0.7907201247
 40
1.0
 40
1.0
 40
1.0
 40
1.0
 10
497.4985371959
 20
78.567596938
 30
0.0
 10
497.5283629957
 20
78.559605139
 30
0.0
 10
497.5841463162
 20
78.5361632047
 30
0.0
 10
497.6510353849
 20
78.4817048037
 30
0.0
 10
497.6905059767
 20
78.4136515202
 30
0.0
 10
497.6922506461
 20
78.3632565833
 30
0.0
 10
497.6864363457
 20
78.3415573187
 30
0.0
  0
SPLINE
  5
797
100
AcDbEntity
  8
0
100
AcDbSpline
 62
7
  6
CONTINUOUS
 70
0
 71
3
 72
9
 73
5
 74
0
 42
0.0000001
 43
0.0000001
 44
0.0000000001
 40
0.0
 40
0.0
 40
0.0
 40
0.0
 40
0.5531686664
 40
1.0
 40
1.0
 40
1.0
 40
1.0
 10
497.1196004634
 20
76.9057392994
 30
0.0
 10
497.1617465392
 20
76.885087607
 30
0.0
 10
497.2338854836
 20
76.832094518
 30
0.0
 10
497.2570181031
 20
76.7389466194
 30
0.0
 10
497.2472058612
 20
76.7023268342
 30
0.0
  0
SPLINE
  5
798
100
AcDbEntity
  8
0
100
AcDbSpline
 62
7
  6
CONTINUOUS
 70
0
 71
3
 72
9
 73
5
 74
0
 42
0.0000001
 43
0.0000001
 44
0.0000000001
 40
0.0
 40
0.0
 40
0.0
 40
0.0
 40
0.4575243679
 40
1.0
 40
1.0
 40
1.0
 40
1.0
 10
495.624450473
 20
77.13714283
 30
0.0
 10
495.6322789462
 20
77.1663590898
 30
0.0
 10
495.6767064246
 20
77.2232760989
 30
0.0
 10
495.7428128787
 20
77.2436065296
 30
0.0
 10
495.7784000479
 20
77.2480460688
 30
0.0
  0
SPLINE
  5
799
100
AcDbEntity
  8
0
100
AcDbSpline
 62
7
  6
CONTINUOUS
 70
0
 71
3
 72
9
 73
5
 74
0
 42
0.0000001
 43
0.0000001
 44
0.0000000001
 40
0.0
 40
0.0
 40
0.0
 40
0.0
 40
0.2441493338
 40
1.0
 40
1.0
 40
1.0
 40
1.0
 10
495.7784000479
 20
77.2480460688
 30
0.0
 10
495.7882972962
 20
77.2492807616
 30
0.0
 10
495.829090521
 20
77.2521026815
 30
0.0
 10
495.8703699199
 20
77.2469411066
 30
0.0
 10
495.9001957198
 20
77.2389493076
 30
0.0
  0
SPLINE
  5
79A
100
AcDbEntity
  8
0
100
AcDbSpline
 62
7
  6
CONTINUOUS
 70
0
 71
3
 72
11
 73
7
 74
0
 42
0.0000001
 43
0.0000001
 44
0.0000000001
 40
0.0
 40
0.0
 40
0.0
 40
0.0
 40
0.2092798753
 40
0.444592951
 40
0.7123432609
 40
1.0
 40
1.0
 40
1.0
 40
1.0
 10
496.0636809576
 20
78.7763733145
 30
0.0
 10
496.069495258
 20
78.798072579
 30
0.0
 10
496.0962036545
 20
78.84084354
 30
0.0
 10
496.1644128315
 20
78.8800441163
 30
0.0
 10
496.2495696647
 20
78.8937619407
 30
0.0
 10
496.3096004045
 20
78.8861715911
 30
0.0
 10
496.3394262043
 20
78.8781797921
 30
0.0
  0
SPLINE
  5
79B
100
AcDbEntity
  8
RUNDUNGEN
100
AcDbSpline
 62
7
  6
CONTINUOUS
 70
0
 71
3
 72
11
 73
7
 74
0
 42
0.0000001
 43
0.0000001
 44
0.0000000001
 40
0.0
 40
0.0
 40
0.0
 40
0.0
 40
0.2660806488
 40
0.5190943636
 40
0.7622194616
 40
1.0
 40
1.0
 40
1.0
 40
1.0
 10
514.1717403523
 20
50.940557771
 30
0.0
 10
513.9316535083
 20
51.3611487265
 30
0.0
 10
513.5270238458
 20
52.2208605042
 30
0.0
 10
513.1696240921
 20
53.5698160216
 30
0.0
 10
513.0886310386
 20
54.9123077427
 30
0.0
 10
513.2231607364
 20
55.7853246391
 30
0.0
 10
513.3351731934
 20
56.2033607604
 30
0.0
  0
SPLINE
  5
79C
100
AcDbEntity
  8
0
100
AcDbSpline
 62
7
  6
CONTINUOUS
 70
0
 71
3
 72
9
 73
5
 74
0
 42
0.0000001
 43
0.0000001
 44
0.0000000001
 40
0.0
 40
0.0
 40
0.0
 40
0.0
 40
0.538986273
 40
1.0
 40
1.0
 40
1.0
 40
1.0
 10
497.8072522206
 20
74.6196487325
 30
0.0
 10
497.8950798529
 20
74.5961153893
 30
0.0
 10
498.0681132468
 20
74.5827970295
 30
0.0
 10
498.2345302789
 20
74.652574924
 30
0.0
 10
498.28983264
 20
74.7072571029
 30
0.0
  0
SPLINE
  5
79D
100
AcDbEntity
  8
0
100
AcDbSpline
 62
7
  6
CONTINUOUS
 70
0
 71
3
 72
9
 73
5
 74
0
 42
0.0000001
 43
0.0000001
 44
0.0000000001
 40
0.0
 40
0.0
 40
0.0
 40
0.0
 40
0.2592261758
 40
1.0
 40
1.0
 40
1.0
 40
1.0
 10
498.28983264
 20
74.7072571029
 30
0.0
 10
498.2981772109
 20
74.7155080946
 30
0.0
 10
498.3284293057
 20
74.749209676
 30
0.0
 10
498.3500633703
 20
74.7908699357
 30
0.0
 10
498.3587427141
 20
74.8232616878
 30
0.0
  0
SPLINE
  5
79E
100
AcDbEntity
  8
RUNDUNGEN
100
AcDbSpline
 62
7
  6
CONTINUOUS
 70
0
 71
3
 72
11
 73
7
 74
0
 42
0.0000001
 43
0.0000001
 44
0.0000000001
 40
0.0
 40
0.0
 40
0.0
 40
0.0
 40
0.2297109937
 40
0.4842558728
 40
0.7475644511
 40
1.0
 40
1.0
 40
1.0
 40
1.0
 10
527.5933199637
 20
76.3517681324
 30
0.0
 10
527.2014301855
 20
76.1229415825
 30
0.0
 10
526.266451943
 20
75.8222214865
 30
0.0
 10
524.7710037059
 20
75.8298019171
 30
0.0
 10
523.2898639845
 20
76.2490185202
 30
0.0
 10
522.4068753194
 20
76.7932917261
 30
0.0
 10
522.0324565078
 20
77.1227017162
 30
0.0
  0
SPLINE
  5
79F
100
AcDbEntity
  8
RUNDUNGEN
100
AcDbSpline
 62
7
  6
CONTINUOUS
 70
0
 71
3
 72
11
 73
7
 74
0
 42
0.0000001
 43
0.0000001
 44
0.0000000001
 40
0.0
 40
0.0
 40
0.0
 40
0.0
 40
0.2524375529
 40
0.5157480446
 40
0.7702932073
 40
1.0
 40
1.0
 40
1.0
 40
1.0
 10
498.0136431605
 20
86.2458007538
 30
0.0
 10
497.5246780803
 20
86.1477319612
 30
0.0
 10
496.4878426945
 20
86.1178728348
 30
0.0
 10
494.9955225337
 20
86.4953972039
 30
0.0
 10
493.6966430187
 20
87.2365610984
 30
0.0
 10
493.0372964634
 20
87.964477126
 30
0.0
 10
492.8123273488
 20
88.3585844135
 30
0.0
  0
SPLINE
  5
7A0
100
AcDbEntity
  8
RUNDUNGEN
100
AcDbSpline
 62
7
  6
CONTINUOUS
 70
0
 71
3
 72
9
 73
5
 74
0
 42
0.0000001
 43
0.0000001
 44
0.0000000001
 40
0.0
 40
0.0
 40
0.0
 40
0.0
 40
0.492156512
 40
1.0
 40
1.0
 40
1.0
 40
1.0
 10
516.6428546825
 20
152.919051964
 30
0.0
 10
515.9180916567
 20
153.1132516314
 30
0.0
 10
514.4310078691
 20
153.4510211137
 30
0.0
 10
512.9475936831
 20
153.8038173672
 30
0.0
 10
512.1997295912
 20
154.0042069467
 30
0.0
  0
SPLINE
  5
7A1
100
AcDbEntity
  8
KONSTRUKTIONSELEMENTE
100
AcDbSpline
 62
7
  6
CONTINUOUS
 70
0
 71
3
 72
9
 73
5
 74
0
 42
0.0000001
 43
0.0000001
 44
0.0000000001
 40
0.0
 40
0.0
 40
0.0
 40
0.0
 40
0.479507891
 40
1.0
 40
1.0
 40
1.0
 40
1.0
 10
531.2901637414
 20
110.4302796101
 30
0.0
 10
531.3019551123
 20
110.4271201218
 30
0.0
 10
531.3286571052
 20
110.426376105
 30
0.0
 10
531.3519380495
 20
110.4388360727
 30
0.0
 10
531.3625570345
 20
110.4467618713
 30
0.0
  0
SPLINE
  5
7A2
100
AcDbEntity
  8
KONSTRUKTIONSELEMENTE
100
AcDbSpline
 62
7
  6
CONTINUOUS
 70
0
 71
3
 72
19
 73
15
 74
0
 42
0.0000001
 43
0.0000001
 44
0.0000000001
 40
0.0
 40
0.0
 40
0.0
 40
0.0
 40
0.0053167983
 40
0.0124273829
 40
0.0327347248
 40
0.0614961942
 40
0.0986322446
 40
0.1438459278
 40
0.1966966806
 40
0.3230809068
 40
0.4726104568
 40
0.6393425026
 40
0.8170924169
 40
1.0
 40
1.0
 40
1.0
 40
1.0
 10
531.3625570345
 20
110.4467618713
 30
0.0
 10
531.3791571908
 20
110.4591518969
 30
0.0
 10
531.4112054959
 20
110.496706863
 30
0.0
 10
531.4715745173
 20
110.6093244292
 30
0.0
 10
531.5370276126
 20
110.8197169029
 30
0.0
 10
531.6059940401
 20
111.1482463003
 30
0.0
 10
531.669010153
 20
111.5768756231
 30
0.0
 10
531.7249691921
 20
112.1006672509
 30
0.0
 10
531.7913029827
 20
112.972729573
 30
0.0
 10
531.8391709612
 20
114.2531604849
 30
0.0
 10
531.8342363049
 20
115.9781244213
 30
0.0
 10
531.7489752148
 20
117.901537981
 30
0.0
 10
531.5627701105
 20
119.9485726462
 30
0.0
 10
531.3585823369
 20
121.3398473322
 30
0.0
 10
531.231636563
 20
122.0410551409
 30
0.0
  0
SPLINE
  5
7A3
100
AcDbEntity
  8
KONSTRUKTIONSELEMENTE
100
AcDbSpline
 62
7
  6
CONTINUOUS
 70
0
 71
3
 72
9
 73
5
 74
0
 42
0.0000001
 43
0.0000001
 44
0.0000000001
 40
0.0
 40
0.0
 40
0.0
 40
0.0
 40
0.2510778321
 40
1.0
 40
1.0
 40
1.0
 40
1.0
 10
526.8801144444
 20
135.4050297763
 30
0.0
 10
527.1944640176
 20
135.2610728481
 30
0.0
 10
528.4361638824
 20
134.6655875639
 30
0.0
 10
529.6354616335
 20
133.9808917163
 30
0.0
 10
530.4996987091
 20
133.4181600462
 30
0.0
  0
SPLINE
  5
7A4
100
AcDbEntity
  8
KONSTRUKTIONSELEMENTE
100
AcDbSpline
 62
7
  6
CONTINUOUS
 70
0
 71
3
 72
9
 73
5
 74
0
 42
0.0000001
 43
0.0000001
 44
0.0000000001
 40
0.0
 40
0.0
 40
0.0
 40
0.0
 40
0.248984136
 40
1.0
 40
1.0
 40
1.0
 40
1.0
 10
513.0927693922
 20
138.0823326993
 30
0.0
 10
513.4351439885
 20
138.1006916867
 30
0.0
 10
514.8115777289
 20
138.1475592021
 30
0.0
 10
516.191241609
 20
138.0904478655
 30
0.0
 10
517.2208561815
 20
137.9932202273
 30
0.0
  0
SPLINE
  5
7A5
100
AcDbEntity
  8
KONSTRUKTIONSELEMENTE
100
AcDbSpline
 62
7
  6
CONTINUOUS
 70
0
 71
3
 72
12
 73
8
 74
0
 42
0.0000001
 43
0.0000001
 44
0.0000000001
 40
0.0
 40
0.0
 40
0.0
 40
0.0
 40
0.1250699247
 40
0.2501553866
 40
0.4997777447
 40
0.7498050362
 40
1.0
 40
1.0
 40
1.0
 40
1.0
 10
509.1706721284
 20
134.8269206938
 30
0.0
 10
509.2278867737
 20
135.0404486566
 30
0.0
 10
509.3882973845
 20
135.4565752059
 30
0.0
 10
509.8661023332
 20
136.2051694491
 30
0.0
 10
510.688451023
 20
136.9671524682
 30
0.0
 10
511.842901924
 20
137.6304995714
 30
0.0
 10
512.6712676907
 20
137.9485668987
 30
0.0
 10
513.0927693922
 20
138.0823326993
 30
0.0
  0
SPLINE
  5
7A6
100
AcDbEntity
  8
KONSTRUKTIONSELEMENTE
100
AcDbSpline
 62
7
  6
CONTINUOUS
 70
0
 71
3
 72
9
 73
5
 74
0
 42
0.0000001
 43
0.0000001
 44
0.0000000001
 40
0.0
 40
0.0
 40
0.0
 40
0.0
 40
0.5002468695
 40
1.0
 40
1.0
 40
1.0
 40
1.0
 10
506.770340164
 20
128.5954397568
 30
0.0
 10
507.0887303033
 20
128.9713828696
 30
0.0
 10
507.672722462
 20
129.7716810068
 30
0.0
 10
508.0622626767
 20
130.6902803043
 30
0.0
 10
508.1896444199
 20
131.1656754418
 30
0.0
  0
SPLINE
  5
7A7
100
AcDbEntity
  8
KONSTRUKTIONSELEMENTE
100
AcDbSpline
 62
7
  6
CONTINUOUS
 70
0
 71
3
 72
9
 73
5
 74
0
 42
0.0000001
 43
0.0000001
 44
0.0000000001
 40
0.0
 40
0.0
 40
0.0
 40
0.0
 40
0.4997531305
 40
1.0
 40
1.0
 40
1.0
 40
1.0
 10
531.2876008642
 20
124.9765966657
 30
0.0
 10
531.160219121
 20
124.5012015283
 30
0.0
 10
531.038271194
 20
123.5109010933
 30
0.0
 10
531.1438741705
 20
122.5258264966
 30
0.0
 10
531.231636563
 20
122.0410551409
 30
0.0
  0
SPLINE
  5
7A8
100
AcDbEntity
  8
KONSTRUKTIONSELEMENTE
100
AcDbSpline
 62
7
  6
CONTINUOUS
 70
0
 71
3
 72
12
 73
8
 74
0
 42
0.0000001
 43
0.0000001
 44
0.0000000001
 40
0.0
 40
0.0
 40
0.0
 40
0.0
 40
0.2501944841
 40
0.5002215546
 40
0.7498441276
 40
0.8749297703
 40
1.0
 40
1.0
 40
1.0
 40
1.0
 10
530.4996987091
 20
133.4181600462
 30
0.0
 10
530.797846418
 20
133.0915652404
 30
0.0
 10
531.3561978163
 20
132.4019290047
 30
0.0
 10
532.0243082018
 20
131.250229186
 30
0.0
 10
532.3554921146
 20
130.1791580775
 30
0.0
 10
532.3949870921
 20
129.2919527542
 30
0.0
 10
532.3258433575
 20
128.8513704012
 30
0.0
 10
532.2686285728
 20
128.6378419177
 30
0.0
  0
SPLINE
  5
7A9
100
AcDbEntity
  8
RUNDUNGEN
100
AcDbSpline
 62
7
  6
CONTINUOUS
 70
0
 71
3
 72
16
 73
12
 74
0
 42
0.0000001
 43
0.0000001
 44
0.0000000001
 40
0.0
 40
0.0
 40
0.0
 40
0.0
 40
0.0242874348
 40
0.0512771385
 40
0.082901453
 40
0.1202969766
 40
0.2141635644
 40
0.3338260053
 40
0.4770520394
 40
0.6397399996
 40
1.0
 40
1.0
 40
1.0
 40
1.0
 10
543.7628667804
 20
128.865659773
 30
0.0
 10
543.7710125938
 20
128.8960603623
 30
0.0
 10
543.7759482922
 20
128.9639646725
 30
0.0
 10
543.7482006134
 20
129.0691687702
 30
0.0
 10
543.6883116337
 20
129.1791881494
 30
0.0
 10
543.5566444025
 20
129.34508025
 30
0.0
 10
543.3077378315
 20
129.5579432807
 30
0.0
 10
542.9184053878
 20
129.8082768547
 30
0.0
 10
542.4275155148
 20
130.0612864077
 30
0.0
 10
541.6330485088
 20
130.400090992
 30
0.0
 10
540.9861326288
 20
130.6083285459
 30
0.0
 10
540.5351950806
 20
130.7291568978
 30
0.0
  0
SPLINE
  5
7AA
100
AcDbEntity
  8
RUNDUNGEN
100
AcDbSpline
 62
7
  6
CONTINUOUS
 70
0
 71
3
 72
16
 73
12
 74
0
 42
0.0000001
 43
0.0000001
 44
0.0000000001
 40
0.0
 40
0.0
 40
0.0
 40
0.0
 40
0.0242874348
 40
0.0512771385
 40
0.082901453
 40
0.1202969766
 40
0.2141635644
 40
0.3338260053
 40
0.4770520394
 40
0.6397399996
 40
1.0
 40
1.0
 40
1.0
 40
1.0
 10
545.1077299887
 20
133.8847575955
 30
0.0
 10
545.115875802
 20
133.9151581847
 30
0.0
 10
545.1208115005
 20
133.983062495
 30
0.0
 10
545.0930638216
 20
134.0882665926
 30
0.0
 10
545.0331748419
 20
134.1982859719
 30
0.0
 10
544.9015076108
 20
134.3641780724
 30
0.0
 10
544.6526010397
 20
134.5770411032
 30
0.0
 10
544.2632685961
 20
134.8273746771
 30
0.0
 10
543.772378723
 20
135.0803842301
 30
0.0
 10
542.9779117171
 20
135.4191888144
 30
0.0
 10
542.3309958371
 20
135.6274263683
 30
0.0
 10
541.8800582889
 20
135.7482547202
 30
0.0
  0
SPLINE
  5
7AB
100
AcDbEntity
  8
RUNDUNGEN
100
AcDbSpline
 62
7
  6
CONTINUOUS
 70
0
 71
3
 72
9
 73
5
 74
0
 42
0.0000001
 43
0.0000001
 44
0.0000000001
 40
0.0
 40
0.0
 40
0.0
 40
0.0
 40
0.4847438183
 40
1.0
 40
1.0
 40
1.0
 40
1.0
 10
544.3973299782
 20
144.9372486072
 30
0.0
 10
544.079393175
 20
145.1872852458
 30
0.0
 10
543.3499971713
 20
145.6107347075
 30
0.0
 10
542.5561027483
 20
145.8818378211
 30
0.0
 10
542.1390054813
 20
145.9861268179
 30
0.0
  0
SPLINE
  5
7AC
100
AcDbEntity
  8
KONSTRUKTIONSELEMENTE
100
AcDbSpline
 62
7
  6
CONTINUOUS
 70
0
 71
3
 72
19
 73
15
 74
0
 42
0.0000001
 43
0.0000001
 44
0.0000000001
 40
0.0
 40
0.0
 40
0.0
 40
0.0
 40
0.1829075831
 40
0.3606574974
 40
0.5273895432
 40
0.6769190932
 40
0.8033033194
 40
0.8561540722
 40
0.9013677554
 40
0.9385038058
 40
0.9672652752
 40
0.9875726171
 40
0.9946832017
 40
1.0
 40
1.0
 40
1.0
 40
1.0
 10
506.770340164
 20
128.5954397568
 30
0.0
 10
506.3097979946
 20
128.0516488681
 30
0.0
 10
505.4373288525
 20
126.9488635331
 30
0.0
 10
504.2525531692
 20
125.2691820628
 30
0.0
 10
503.2170081194
 20
123.6460876032
 30
0.0
 10
502.3502526135
 20
122.1546923419
 30
0.0
 10
501.7514920429
 20
121.0218726551
 30
0.0
 10
501.3729076298
 20
120.2334776351
 30
0.0
 10
501.1594737652
 20
119.7518812596
 30
0.0
 10
500.9997326585
 20
119.3491693208
 30
0.0
 10
500.895194638
 20
119.030171303
 30
0.0
 10
500.8466824445
 20
118.8152395284
 30
0.0
 10
500.8426547675
 20
118.6875253445
 30
0.0
 10
500.8516319308
 20
118.6389776372
 30
0.0
 10
500.859813075
 20
118.6199474822
 30
0.0
  0
SPLINE
  5
7AD
100
AcDbEntity
  8
KONSTRUKTIONSELEMENTE
100
AcDbSpline
 62
7
  6
CONTINUOUS
 70
0
 71
3
 72
9
 73
5
 74
0
 42
0.0000001
 43
0.0000001
 44
0.0000000001
 40
0.0
 40
0.0
 40
0.0
 40
0.0
 40
0.520492109
 40
1.0
 40
1.0
 40
1.0
 40
1.0
 10
500.859813075
 20
118.6199474822
 30
0.0
 10
500.8650464865
 20
118.6077740467
 30
0.0
 10
500.8789783918
 20
118.5853429261
 30
0.0
 10
500.9024750044
 20
118.572636267
 30
0.0
 10
500.9142663754
 20
118.5694767787
 30
0.0
  0
SPLINE
  5
7AE
100
AcDbEntity
  8
RUNDUNGEN
100
AcDbSpline
 62
7
  6
CONTINUOUS
 70
0
 71
3
 72
9
 73
5
 74
0
 42
0.0000001
 43
0.0000001
 44
0.0000000001
 40
0.0
 40
0.0
 40
0.0
 40
0.0
 40
0.5078433254
 40
1.0
 40
1.0
 40
1.0
 40
1.0
 10
539.234030987
 20
146.7603877198
 30
0.0
 10
538.4861650225
 20
146.960777801
 30
0.0
 10
537.0250885075
 20
147.3969559748
 30
0.0
 10
535.5683471264
 20
147.8479815473
 30
0.0
 10
534.8435818145
 20
148.0421818273
 30
0.0
  0
SPLINE
  5
7AF
100
AcDbEntity
  8
RUNDUNGEN
100
AcDbSpline
 62
7
  6
CONTINUOUS
 70
0
 71
3
 72
16
 73
12
 74
0
 42
0.0000001
 43
0.0000001
 44
0.0000000001
 40
0.0
 40
0.0
 40
0.0
 40
0.0
 40
0.0242874348
 40
0.0512771385
 40
0.082901453
 40
0.1202969766
 40
0.2141635644
 40
0.3338260053
 40
0.4770520394
 40
0.6397399996
 40
1.0
 40
1.0
 40
1.0
 40
1.0
 10
500.6751419794
 20
145.7904336702
 30
0.0
 10
500.6832877927
 20
145.8208342594
 30
0.0
 10
500.7129655076
 20
145.8821089664
 30
0.0
 10
500.7895977512
 20
145.9593445481
 30
0.0
 10
500.8964728186
 20
146.0246796356
 30
0.0
 10
501.0934460359
 20
146.1025127933
 30
0.0
 10
501.415436965
 20
146.1624043
 30
0.0
 10
501.8777755387
 20
146.1845333126
 30
0.0
 10
502.4294034157
 20
146.1582010764
 30
0.0
 10
503.2868343175
 20
146.0543809504
 30
0.0
 10
503.9511986806
 20
145.911262022
 30
0.0
 10
504.4021362289
 20
145.7904336702
 30
0.0
  0
SPLINE
  5
7B0
100
AcDbEntity
  8
RUNDUNGEN
100
AcDbSpline
 62
7
  6
CONTINUOUS
 70
0
 71
3
 72
9
 73
5
 74
0
 42
0.0000001
 43
0.0000001
 44
0.0000000001
 40
0.0
 40
0.0
 40
0.0
 40
0.0
 40
0.5152567055
 40
1.0
 40
1.0
 40
1.0
 40
1.0
 10
509.2971708069
 20
154.786063488
 30
0.0
 10
508.883754488
 20
154.9043329909
 30
0.0
 10
508.0605552989
 20
155.0665536215
 30
0.0
 10
507.2170296808
 20
155.064549686
 30
0.0
 10
506.8166119411
 20
155.0069716562
 30
0.0
  0
SPLINE
  5
7B1
100
AcDbEntity
  8
RUNDUNGEN
100
AcDbSpline
 62
7
  6
CONTINUOUS
 70
0
 71
3
 72
16
 73
12
 74
0
 42
0.0000001
 43
0.0000001
 44
0.0000000001
 40
0.0
 40
0.0
 40
0.0
 40
0.0
 40
0.3602600004
 40
0.5229479606
 40
0.6661739947
 40
0.7858364356
 40
0.8797030234
 40
0.917098547
 40
0.9487228615
 40
0.9757125652
 40
1.0
 40
1.0
 40
1.0
 40
1.0
 10
503.0572730206
 20
140.7713358477
 30
0.0
 10
502.6063354724
 20
140.8921641996
 30
0.0
 10
501.9419711093
 20
141.0352831279
 30
0.0
 10
501.0845402075
 20
141.1391032539
 30
0.0
 10
500.5329123305
 20
141.1654354902
 30
0.0
 10
500.0705737568
 20
141.1433064776
 30
0.0
 10
499.7485828277
 20
141.0834149709
 30
0.0
 10
499.5516096104
 20
141.0055818132
 30
0.0
 10
499.4447345429
 20
140.9402467256
 30
0.0
 10
499.3681022994
 20
140.8630111439
 30
0.0
 10
499.3384245845
 20
140.801736437
 30
0.0
 10
499.3302787711
 20
140.7713358477
 30
0.0
  0
SPLINE
  5
7B2
100
AcDbEntity
  8
0
100
AcDbSpline
 62
7
  6
CONTINUOUS
 70
0
 71
3
 72
9
 73
5
 74
0
 42
0.0000001
 43
0.0000001
 44
0.0000000001
 40
0.0
 40
0.0
 40
0.0
 40
0.0
 40
0.492156512
 40
1.0
 40
1.0
 40
1.0
 40
1.0
 10
628.2772695763
 20
152.919051964
 30
0.0
 10
629.0020326021
 20
153.1132516314
 30
0.0
 10
630.4891163897
 20
153.4510211137
 30
0.0
 10
631.9725305757
 20
153.8038173672
 30
0.0
 10
632.7203946677
 20
154.0042069467
 30
0.0
  0
SPLINE
  5
7B3
100
AcDbEntity
  8
0
100
AcDbSpline
 62
7
  6
CONTINUOUS
 70
0
 71
3
 72
19
 73
15
 74
0
 42
0.0000001
 43
0.0000001
 44
0.0000000001
 40
0.0
 40
0.0
 40
0.0
 40
0.0
 40
0.1829075831
 40
0.3606574974
 40
0.5273895432
 40
0.6769190932
 40
0.8033033194
 40
0.8561540722
 40
0.9013677554
 40
0.9385038058
 40
0.9672652752
 40
0.9875726171
 40
0.9946832017
 40
1.0
 40
1.0
 40
1.0
 40
1.0
 10
638.1497840948
 20
128.5954397568
 30
0.0
 10
638.6103262643
 20
128.0516488681
 30
0.0
 10
639.4827954064
 20
126.9488635331
 30
0.0
 10
640.6675710897
 20
125.2691820628
 30
0.0
 10
641.7031161395
 20
123.6460876032
 30
0.0
 10
642.5698716453
 20
122.1546923419
 30
0.0
 10
643.1686322159
 20
121.0218726551
 30
0.0
 10
643.5472166291
 20
120.2334776351
 30
0.0
 10
643.7606504936
 20
119.7518812596
 30
0.0
 10
643.9203916004
 20
119.3491693208
 30
0.0
 10
644.0249296209
 20
119.030171303
 30
0.0
 10
644.0734418144
 20
118.8152395284
 30
0.0
 10
644.0774694914
 20
118.6875253445
 30
0.0
 10
644.0684923281
 20
118.6389776372
 30
0.0
 10
644.0603111838
 20
118.6199474822
 30
0.0
  0
SPLINE
  5
7B4
100
AcDbEntity
  8
0
100
AcDbSpline
 62
7
  6
CONTINUOUS
 70
0
 71
3
 72
9
 73
5
 74
0
 42
0.0000001
 43
0.0000001
 44
0.0000000001
 40
0.0
 40
0.0
 40
0.0
 40
0.0
 40
0.520492109
 40
1.0
 40
1.0
 40
1.0
 40
1.0
 10
644.0603111838
 20
118.6199474822
 30
0.0
 10
644.0550777723
 20
118.6077740467
 30
0.0
 10
644.041145867
 20
118.5853429261
 30
0.0
 10
644.0176492545
 20
118.572636267
 30
0.0
 10
644.0058578835
 20
118.5694767787
 30
0.0
  0
SPLINE
  5
7B5
100
AcDbEntity
  8
0
100
AcDbSpline
 62
7
  6
CONTINUOUS
 70
0
 71
3
 72
9
 73
5
 74
0
 42
0.0000001
 43
0.0000001
 44
0.0000000001
 40
0.0
 40
0.0
 40
0.0
 40
0.0
 40
0.4997531305
 40
1.0
 40
1.0
 40
1.0
 40
1.0
 10
613.6325233947
 20
124.9765966657
 30
0.0
 10
613.7599051378
 20
124.5012015283
 30
0.0
 10
613.8818530649
 20
123.5109010933
 30
0.0
 10
613.7762500883
 20
122.5258264966
 30
0.0
 10
613.6884876959
 20
122.0410551409
 30
0.0
  0
SPLINE
  5
7B6
100
AcDbEntity
  8
0
100
AcDbSpline
 62
7
  6
CONTINUOUS
 70
0
 71
3
 72
12
 73
8
 74
0
 42
0.0000001
 43
0.0000001
 44
0.0000000001
 40
0.0
 40
0.0
 40
0.0
 40
0.0
 40
0.2501944841
 40
0.5002215546
 40
0.7498441276
 40
0.8749297703
 40
1.0
 40
1.0
 40
1.0
 40
1.0
 10
614.4204255498
 20
133.4181600462
 30
0.0
 10
614.1222778409
 20
133.0915652404
 30
0.0
 10
613.5639264426
 20
132.4019290046
 30
0.0
 10
612.8958160571
 20
131.250229186
 30
0.0
 10
612.5646321442
 20
130.1791580775
 30
0.0
 10
612.5251371668
 20
129.2919527542
 30
0.0
 10
612.5942809014
 20
128.8513704012
 30
0.0
 10
612.6514956861
 20
128.6378419177
 30
0.0
  0
SPLINE
  5
7B7
100
AcDbEntity
  8
0
100
AcDbSpline
 62
7
  6
CONTINUOUS
 70
0
 71
3
 72
12
 73
8
 74
0
 42
0.0000001
 43
0.0000001
 44
0.0000000001
 40
0.0
 40
0.0
 40
0.0
 40
0.0
 40
0.1250699247
 40
0.2501553866
 40
0.4997777447
 40
0.7498050362
 40
1.0
 40
1.0
 40
1.0
 40
1.0
 10
635.7494521304
 20
134.8269206938
 30
0.0
 10
635.6922374852
 20
135.0404486566
 30
0.0
 10
635.5318268744
 20
135.4565752059
 30
0.0
 10
635.0540219257
 20
136.2051694491
 30
0.0
 10
634.2316732358
 20
136.9671524682
 30
0.0
 10
633.0772223348
 20
137.6304995714
 30
0.0
 10
632.2488565682
 20
137.9485668987
 30
0.0
 10
631.8273548667
 20
138.0823326993
 30
0.0
  0
SPLINE
  5
7B8
100
AcDbEntity
  8
0
100
AcDbSpline
 62
7
  6
CONTINUOUS
 70
0
 71
3
 72
9
 73
5
 74
0
 42
0.0000001
 43
0.0000001
 44
0.0000000001
 40
0.0
 40
0.0
 40
0.0
 40
0.0
 40
0.5002468695
 40
1.0
 40
1.0
 40
1.0
 40
1.0
 10
638.1497840948
 20
128.5954397568
 30
0.0
 10
637.8313939556
 20
128.9713828696
 30
0.0
 10
637.2474017969
 20
129.7716810068
 30
0.0
 10
636.8578615821
 20
130.6902803043
 30
0.0
 10
636.730479839
 20
131.1656754418
 30
0.0
  0
SPLINE
  5
7B9
100
AcDbEntity
  8
0
100
AcDbSpline
 62
7
  6
CONTINUOUS
 70
0
 71
3
 72
9
 73
5
 74
0
 42
0.0000001
 43
0.0000001
 44
0.0000000001
 40
0.0
 40
0.0
 40
0.0
 40
0.0
 40
0.5078433254
 40
1.0
 40
1.0
 40
1.0
 40
1.0
 10
605.6860932718
 20
146.7603877198
 30
0.0
 10
606.4339592364
 20
146.960777801
 30
0.0
 10
607.8950357513
 20
147.3969559748
 30
0.0
 10
609.3517771325
 20
147.8479815473
 30
0.0
 10
610.0765424444
 20
148.0421818273
 30
0.0
  0
SPLINE
  5
7BA
100
AcDbEntity
  8
0
100
AcDbSpline
 62
7
  6
CONTINUOUS
 70
0
 71
3
 72
9
 73
5
 74
0
 42
0.0000001
 43
0.0000001
 44
0.0000000001
 40
0.0
 40
0.0
 40
0.0
 40
0.0
 40
0.248984136
 40
1.0
 40
1.0
 40
1.0
 40
1.0
 10
631.8273548667
 20
138.0823326993
 30
0.0
 10
631.4849802704
 20
138.1006916867
 30
0.0
 10
630.10854653
 20
138.1475592021
 30
0.0
 10
628.7288826499
 20
138.0904478655
 30
0.0
 10
627.6992680773
 20
137.9932202273
 30
0.0
  0
SPLINE
  5
7BB
100
AcDbEntity
  8
0
100
AcDbSpline
 62
7
  6
CONTINUOUS
 70
0
 71
3
 72
9
 73
5
 74
0
 42
0.0000001
 43
0.0000001
 44
0.0000000001
 40
0.0
 40
0.0
 40
0.0
 40
0.0
 40
0.2510778321
 40
1.0
 40
1.0
 40
1.0
 40
1.0
 10
618.0400098144
 20
135.4050297763
 30
0.0
 10
617.7256602412
 20
135.2610728481
 30
0.0
 10
616.4839603764
 20
134.6655875639
 30
0.0
 10
615.2846626254
 20
133.9808917163
 30
0.0
 10
614.4204255498
 20
133.4181600462
 30
0.0
  0
SPLINE
  5
7BC
100
AcDbEntity
  8
0
100
AcDbSpline
 62
7
  6
CONTINUOUS
 70
0
 71
3
 72
9
 73
5
 74
0
 42
0.0000001
 43
0.0000001
 44
0.0000000001
 40
0.0
 40
0.0
 40
0.0
 40
0.0
 40
0.479507891
 40
1.0
 40
1.0
 40
1.0
 40
1.0
 10
613.6299605175
 20
110.4302796101
 30
0.0
 10
613.6181691465
 20
110.4271201218
 30
0.0
 10
613.5914671536
 20
110.426376105
 30
0.0
 10
613.5681862094
 20
110.4388360727
 30
0.0
 10
613.5575672244
 20
110.4467618713
 30
0.0
  0
SPLINE
  5
7BD
100
AcDbEntity
  8
0
100
AcDbSpline
 62
7
  6
CONTINUOUS
 70
0
 71
3
 72
19
 73
15
 74
0
 42
0.0000001
 43
0.0000001
 44
0.0000000001
 40
0.0
 40
0.0
 40
0.0
 40
0.0
 40
0.0053167983
 40
0.0124273829
 40
0.0327347248
 40
0.0614961942
 40
0.0986322446
 40
0.1438459278
 40
0.1966966806
 40
0.3230809068
 40
0.4726104568
 40
0.6393425026
 40
0.8170924169
 40
1.0
 40
1.0
 40
1.0
 40
1.0
 10
613.5575672244
 20
110.4467618713
 30
0.0
 10
613.5409670681
 20
110.4591518969
 30
0.0
 10
613.508918763
 20
110.496706863
 30
0.0
 10
613.4485497416
 20
110.6093244292
 30
0.0
 10
613.3830966463
 20
110.8197169029
 30
0.0
 10
613.3141302188
 20
111.1482463003
 30
0.0
 10
613.2511141059
 20
111.5768756231
 30
0.0
 10
613.1951550668
 20
112.1006672509
 30
0.0
 10
613.1288212761
 20
112.972729573
 30
0.0
 10
613.0809532977
 20
114.2531604849
 30
0.0
 10
613.0858879539
 20
115.9781244213
 30
0.0
 10
613.171149044
 20
117.901537981
 30
0.0
 10
613.3573541484
 20
119.9485726462
 30
0.0
 10
613.561541922
 20
121.3398473322
 30
0.0
 10
613.6884876959
 20
122.0410551409
 30
0.0
  0
SPLINE
  5
7BE
100
AcDbEntity
  8
0
100
AcDbSpline
 62
7
  6
CONTINUOUS
 70
0
 71
3
 72
16
 73
12
 74
0
 42
0.0000001
 43
0.0000001
 44
0.0000000001
 40
0.0
 40
0.0
 40
0.0
 40
0.0
 40
0.0242874348
 40
0.0512771385
 40
0.082901453
 40
0.1202969766
 40
0.2141635644
 40
0.3338260053
 40
0.4770520394
 40
0.6397399996
 40
1.0
 40
1.0
 40
1.0
 40
1.0
 10
601.1572574784
 20
128.865659773
 30
0.0
 10
601.1491116651
 20
128.8960603623
 30
0.0
 10
601.1441759667
 20
128.9639646725
 30
0.0
 10
601.1719236455
 20
129.0691687702
 30
0.0
 10
601.2318126252
 20
129.1791881494
 30
0.0
 10
601.3634798563
 20
129.34508025
 30
0.0
 10
601.6123864274
 20
129.5579432807
 30
0.0
 10
602.0017188711
 20
129.8082768547
 30
0.0
 10
602.4926087441
 20
130.0612864077
 30
0.0
 10
603.28707575
 20
130.400090992
 30
0.0
 10
603.93399163
 20
130.6083285459
 30
0.0
 10
604.3849291782
 20
130.7291568978
 30
0.0
  0
SPLINE
  5
7BF
100
AcDbEntity
  8
0
100
AcDbSpline
 62
7
  6
CONTINUOUS
 70
0
 71
3
 72
16
 73
12
 74
0
 42
0.0000001
 43
0.0000001
 44
0.0000000001
 40
0.0
 40
0.0
 40
0.0
 40
0.0
 40
0.0242874348
 40
0.0512771385
 40
0.082901453
 40
0.1202969766
 40
0.2141635644
 40
0.3338260053
 40
0.4770520394
 40
0.6397399996
 40
1.0
 40
1.0
 40
1.0
 40
1.0
 10
644.2449822795
 20
145.7904336702
 30
0.0
 10
644.2368364662
 20
145.8208342594
 30
0.0
 10
644.2071587512
 20
145.8821089664
 30
0.0
 10
644.1305265077
 20
145.9593445481
 30
0.0
 10
644.0236514402
 20
146.0246796356
 30
0.0
 10
643.8266782229
 20
146.1025127933
 30
0.0
 10
643.5046872938
 20
146.1624043
 30
0.0
 10
643.0423487201
 20
146.1845333126
 30
0.0
 10
642.4907208432
 20
146.1582010764
 30
0.0
 10
641.6332899414
 20
146.0543809504
 30
0.0
 10
640.9689255782
 20
145.911262022
 30
0.0
 10
640.51798803
 20
145.7904336702
 30
0.0
  0
SPLINE
  5
7C0
100
AcDbEntity
  8
0
100
AcDbSpline
 62
7
  6
CONTINUOUS
 70
0
 71
3
 72
9
 73
5
 74
0
 42
0.0000001
 43
0.0000001
 44
0.0000000001
 40
0.0
 40
0.0
 40
0.0
 40
0.0
 40
0.5152567055
 40
1.0
 40
1.0
 40
1.0
 40
1.0
 10
635.6229534519
 20
154.786063488
 30
0.0
 10
636.0363697709
 20
154.9043329909
 30
0.0
 10
636.85956896
 20
155.0665536215
 30
0.0
 10
637.7030945781
 20
155.064549686
 30
0.0
 10
638.1035123177
 20
155.0069716562
 30
0.0
  0
SPLINE
  5
7C1
100
AcDbEntity
  8
0
100
AcDbSpline
 62
7
  6
CONTINUOUS
 70
0
 71
3
 72
16
 73
12
 74
0
 42
0.0000001
 43
0.0000001
 44
0.0000000001
 40
0.0
 40
0.0
 40
0.0
 40
0.0
 40
0.3602600004
 40
0.5229479606
 40
0.6661739947
 40
0.7858364356
 40
0.8797030234
 40
0.917098547
 40
0.9487228615
 40
0.9757125652
 40
1.0
 40
1.0
 40
1.0
 40
1.0
 10
641.8628512383
 20
140.7713358477
 30
0.0
 10
642.3137887865
 20
140.8921641996
 30
0.0
 10
642.9781531496
 20
141.0352831279
 30
0.0
 10
643.8355840514
 20
141.1391032539
 30
0.0
 10
644.3872119284
 20
141.1654354902
 30
0.0
 10
644.8495505021
 20
141.1433064776
 30
0.0
 10
645.1715414312
 20
141.0834149709
 30
0.0
 10
645.3685146485
 20
141.0055818132
 30
0.0
 10
645.4753897159
 20
140.9402467256
 30
0.0
 10
645.5520219595
 20
140.8630111439
 30
0.0
 10
645.5816996744
 20
140.801736437
 30
0.0
 10
645.5898454877
 20
140.7713358477
 30
0.0
  0
SPLINE
  5
7C2
100
AcDbEntity
  8
0
100
AcDbSpline
 62
7
  6
CONTINUOUS
 70
0
 71
3
 72
16
 73
12
 74
0
 42
0.0000001
 43
0.0000001
 44
0.0000000001
 40
0.0
 40
0.0
 40
0.0
 40
0.0
 40
0.0242874348
 40
0.0512771385
 40
0.082901453
 40
0.1202969766
 40
0.2141635644
 40
0.3338260053
 40
0.4770520394
 40
0.6397399996
 40
1.0
 40
1.0
 40
1.0
 40
1.0
 10
599.8123942702
 20
133.8847575955
 30
0.0
 10
599.8042484569
 20
133.9151581847
 30
0.0
 10
599.7993127584
 20
133.983062495
 30
0.0
 10
599.8270604372
 20
134.0882665926
 30
0.0
 10
599.8869494169
 20
134.1982859719
 30
0.0
 10
600.0186166481
 20
134.3641780724
 30
0.0
 10
600.2675232191
 20
134.5770411032
 30
0.0
 10
600.6568556628
 20
134.8273746771
 30
0.0
 10
601.1477455358
 20
135.0803842301
 30
0.0
 10
601.9422125418
 20
135.4191888144
 30
0.0
 10
602.5891284218
 20
135.6274263683
 30
0.0
 10
603.04006597
 20
135.7482547202
 30
0.0
  0
SPLINE
  5
7C3
100
AcDbEntity
  8
0
100
AcDbSpline
 62
7
  6
CONTINUOUS
 70
0
 71
3
 72
9
 73
5
 74
0
 42
0.0000001
 43
0.0000001
 44
0.0000000001
 40
0.0
 40
0.0
 40
0.0
 40
0.0
 40
0.4847438183
 40
1.0
 40
1.0
 40
1.0
 40
1.0
 10
600.5227942806
 20
144.9372486072
 30
0.0
 10
600.8407310839
 20
145.1872852458
 30
0.0
 10
601.5701270876
 20
145.6107347075
 30
0.0
 10
602.3640215106
 20
145.8818378211
 30
0.0
 10
602.7811187776
 20
145.9861268179
 30
0.0
  0
SPLINE
  5
7C4
100
AcDbEntity
  8
KONSTRUKTIONSELEMENTE
100
AcDbSpline
 62
7
  6
CONTINUOUS
 70
0
 71
3
 72
14
 73
10
 74
0
 42
0.0000001
 43
0.0000001
 44
0.0000000001
 40
0.0
 40
0.0
 40
0.0
 40
0.0
 40
0.2183594552
 40
0.3271656908
 40
0.4433163075
 40
0.5706940954
 40
0.7085256149
 40
0.8528448111
 40
1.0
 40
1.0
 40
1.0
 40
1.0
 10
293.9663050752
 20
116.4406524084
 30
0.0
 10
293.7003632924
 20
116.6064652389
 30
0.0
 10
293.2884085522
 20
116.8359269324
 30
0.0
 10
292.6951655448
 20
117.069233357
 30
0.0
 10
292.202075596
 20
117.1895789332
 30
0.0
 10
291.6528996383
 20
117.229922993
 30
0.0
 10
291.0657627035
 20
117.1457468063
 30
0.0
 10
290.4882676035
 20
116.9140391146
 30
0.0
 10
290.1476102694
 20
116.6615897245
 30
0.0
 10
289.9958342566
 20
116.5147191265
 30
0.0
  0
SPLINE
  5
7C5
100
AcDbEntity
  8
KONSTRUKTIONSELEMENTE
100
AcDbSpline
 62
7
  6
CONTINUOUS
 70
0
 71
3
 72
28
 73
24
 74
0
 42
0.0000001
 43
0.0000001
 44
0.0000000001
 40
0.0
 40
0.0
 40
0.0
 40
0.0
 40
0.0139516498
 40
0.0185680024
 40
0.0215584049
 40
0.0229683062
 40
0.0231133966
 40
0.023324789
 40
0.0247636009
 40
0.0274726968
 40
0.0363102737
 40
0.0492114795
 40
0.0657143278
 40
0.0853665318
 40
0.1326974167
 40
0.1891686284
 40
0.2531665072
 40
0.3235093684
 40
0.399111817
 40
0.4790285272
 40
0.6481940138
 40
0.8242447447
 40
1.0
 40
1.0
 40
1.0
 40
1.0
 10
293.7163637062
 20
114.953769807
 30
0.0
 10
293.7118285075
 20
114.9792396615
 30
0.0
 10
293.7045449819
 20
115.0135243107
 30
0.0
 10
293.6942788155
 20
115.0510187857
 30
0.0
 10
293.6891678132
 20
115.0685259184
 30
0.0
 10
293.6871483174
 20
115.0745955796
 30
0.0
 10
293.6858415518
 20
115.0791271439
 30
0.0
 10
293.6877806329
 20
115.0739789536
 30
0.0
 10
293.689737723
 20
115.0690241901
 30
0.0
 10
293.6997395125
 20
115.0442112614
 30
0.0
 10
293.7177443921
 20
115.0050647398
 30
0.0
 10
293.7499343593
 20
114.9405922288
 30
0.0
 10
293.7926810729
 20
114.8607845423
 30
0.0
 10
293.8692069732
 20
114.7259677392
 30
0.0
 10
293.9895118864
 20
114.5312632924
 30
0.0
 10
294.1621136068
 20
114.2722598039
 30
0.0
 10
294.3673811609
 20
113.9840246318
 30
0.0
 10
294.6012753567
 20
113.672773085
 30
0.0
 10
294.8606322722
 20
113.3438838622
 30
0.0
 10
295.2431546167
 20
112.8789147515
 30
0.0
 10
295.7617019168
 20
112.2848862987
 30
0.0
 10
296.4216976635
 20
111.5792369327
 30
0.0
 10
296.8829554817
 20
111.1177170479
 30
0.0
 10
297.1173620691
 20
110.8912976712
 30
0.0
  0
SPLINE
  5
7C6
100
AcDbEntity
  8
KONSTRUKTIONSELEMENTE
100
AcDbSpline
 62
7
  6
CONTINUOUS
 70
0
 71
3
 72
17
 73
13
 74
0
 42
0.0000001
 43
0.0000001
 44
0.0000000001
 40
0.0
 40
0.0
 40
0.0
 40
0.0
 40
0.0672998635
 40
0.1329602329
 40
0.1944855734
 40
0.2504309869
 40
0.3502866628
 40
0.4545528348
 40
0.5743822025
 40
0.7091855667
 40
0.853565524
 40
1.0
 40
1.0
 40
1.0
 40
1.0
 10
289.9958342566
 20
116.5147191265
 30
0.0
 10
289.8237888598
 20
116.3482342528
 30
0.0
 10
289.530454517
 20
115.966910659
 30
0.0
 10
289.280344859
 20
115.312224024
 30
0.0
 10
289.2159541583
 20
114.6572942494
 30
0.0
 10
289.3100892332
 20
113.8848903825
 30
0.0
 10
289.6502301175
 20
113.0135367018
 30
0.0
 10
290.2355840075
 20
112.01954301
 30
0.0
 10
290.9795814762
 20
110.9802304069
 30
0.0
 10
291.8758658664
 20
109.878807702
 30
0.0
 10
292.8893982654
 20
108.7532522234
 30
0.0
 10
293.6163289885
 20
108.0165587218
 30
0.0
 10
293.9910024114
 20
107.6546519862
 30
0.0
  0
SPLINE
  5
7C7
100
AcDbEntity
  8
KONSTRUKTIONSELEMENTE
100
AcDbSpline
 62
7
  6
CONTINUOUS
 70
0
 71
3
 72
13
 73
9
 74
0
 42
0.0000001
 43
0.0000001
 44
0.0000000001
 40
0.0
 40
0.0
 40
0.0
 40
0.0
 40
0.147827563
 40
0.2910391013
 40
0.5396303344
 40
0.6488307226
 40
0.7583173339
 40
1.0
 40
1.0
 40
1.0
 40
1.0
 10
311.7191319417
 20
94.7624590211
 30
0.0
 10
311.9098397196
 20
94.947003106
 30
0.0
 10
312.2278212573
 20
95.3754399835
 30
0.0
 10
312.5378048238
 20
96.3082732033
 30
0.0
 10
312.4517907171
 20
97.2410408399
 30
0.0
 10
312.1530178732
 20
98.0250446763
 30
0.0
 10
311.7845147589
 20
98.7662343841
 30
0.0
 10
311.4401528928
 20
99.2964329574
 30
0.0
 10
311.1912398935
 20
99.6517958829
 30
0.0
  0
SPLINE
  5
7C8
100
AcDbEntity
  8
KONSTRUKTIONSELEMENTE
100
AcDbSpline
 62
7
  6
CONTINUOUS
 70
0
 71
3
 72
21
 73
17
 74
0
 42
0.0000001
 43
0.0000001
 44
0.0000000001
 40
0.0
 40
0.0
 40
0.0
 40
0.0
 40
0.1864112425
 40
0.364525022
 40
0.5302733672
 40
0.6799387301
 40
0.747406246
 40
0.8091075232
 40
0.8642884189
 40
0.9119336236
 40
0.9509426621
 40
0.9796295776
 40
0.9894492175
 40
0.9958898775
 40
0.9986057402
 40
1.0
 40
1.0
 40
1.0
 40
1.0
 10
307.7239637869
 20
100.6461071428
 30
0.0
 10
307.878308529
 20
100.4970215703
 30
0.0
 10
308.1835571262
 20
100.209008998
 30
0.0
 10
308.6378700871
 20
99.8012004712
 30
0.0
 10
309.0710712037
 20
99.4335007663
 30
0.0
 10
309.4159677269
 20
99.1589281399
 30
0.0
 10
309.672864058
 20
98.9664060522
 30
0.0
 10
309.8452907842
 20
98.8427809112
 30
0.0
 10
310.002131459
 20
98.7361719535
 30
0.0
 10
310.1388724785
 20
98.6481499568
 30
0.0
 10
310.2547430155
 20
98.5795083865
 30
0.0
 10
310.3291912298
 20
98.5380411999
 30
0.0
 10
310.3804757031
 20
98.5128881159
 30
0.0
 10
310.3931546045
 20
98.5064506725
 30
0.0
 10
310.4144550951
 20
98.4979406966
 30
0.0
 10
310.4074002579
 20
98.5005509735
 30
0.0
 10
310.4058861914
 20
98.5010836047
 30
0.0
  0
SPLINE
  5
7C9
100
AcDbEntity
  8
KONSTRUKTIONSELEMENTE
100
AcDbSpline
 62
7
  6
CONTINUOUS
 70
0
 71
3
 72
9
 73
5
 74
0
 42
0.0000001
 43
0.0000001
 44
0.0000000001
 40
0.0
 40
0.0
 40
0.0
 40
0.0
 40
0.5263197575
 40
1.0
 40
1.0
 40
1.0
 40
1.0
 10
304.5976041292
 20
97.4094614578
 30
0.0
 10
304.9866916341
 20
97.0336317881
 30
0.0
 10
305.7437872206
 20
96.3377852908
 30
0.0
 10
306.5413350977
 20
95.6877949128
 30
0.0
 10
306.9320675396
 20
95.3973528265
 30
0.0
  0
SPLINE
  5
7CA
100
AcDbEntity
  8
KONSTRUKTIONSELEMENTE
100
AcDbSpline
 62
7
  6
CONTINUOUS
 70
0
 71
3
 72
14
 73
10
 74
0
 42
0.0000001
 43
0.0000001
 44
0.0000000001
 40
0.0
 40
0.0
 40
0.0
 40
0.0
 40
0.238355881
 40
0.3472682142
 40
0.4568467248
 40
0.5760006498
 40
0.7088709196
 40
0.852214807
 40
1.0
 40
1.0
 40
1.0
 40
1.0
 10
306.9629812729
 20
95.3744324938
 30
0.0
 10
307.2986670957
 20
95.1261857502
 30
0.0
 10
307.802204003
 20
94.7814773148
 30
0.0
 10
308.5110395193
 20
94.4082577958
 30
0.0
 10
309.0620442022
 20
94.1886866031
 30
0.0
 10
309.6852172658
 20
94.0549357702
 30
0.0
 10
310.3854341876
 20
94.0650581681
 30
0.0
 10
311.1061730834
 20
94.2850566919
 30
0.0
 10
311.5331075311
 20
94.5824469366
 30
0.0
 10
311.7191319417
 20
94.7624590211
 30
0.0
  0
SPLINE
  5
7CB
100
AcDbEntity
  8
KONSTRUKTIONSELEMENTE
100
AcDbSpline
 62
7
  6
CONTINUOUS
 70
0
 71
3
 72
13
 73
9
 74
0
 42
0.0000001
 43
0.0000001
 44
0.0000000001
 40
0.0
 40
0.0
 40
0.0
 40
0.0
 40
0.2266749134
 40
0.4472161745
 40
0.5713587125
 40
0.7075537383
 40
0.8520150675
 40
1.0
 40
1.0
 40
1.0
 40
1.0
 10
263.2025580315
 20
146.2656233238
 30
0.0
 10
262.9076639474
 20
146.4660546327
 30
0.0
 10
262.3092721519
 20
146.8379047098
 30
0.0
 10
261.4673338042
 20
147.1800127692
 30
0.0
 10
260.7133483026
 20
147.2855441296
 30
0.0
 10
260.0724040678
 20
147.2317712112
 30
0.0
 10
259.4297387922
 20
147.0025654429
 30
0.0
 10
259.0504177898
 20
146.7291533486
 30
0.0
 10
258.8831358844
 20
146.5672780098
 30
0.0
  0
SPLINE
  5
7CC
100
AcDbEntity
  8
KONSTRUKTIONSELEMENTE
100
AcDbSpline
 62
7
  6
CONTINUOUS
 70
0
 71
3
 72
28
 73
24
 74
0
 42
0.0000001
 43
0.0000001
 44
0.0000000001
 40
0.0
 40
0.0
 40
0.0
 40
0.0
 40
0.0139516498
 40
0.0185680024
 40
0.0215584049
 40
0.0229683062
 40
0.0231133966
 40
0.023324789
 40
0.0247636009
 40
0.0274726968
 40
0.0363102737
 40
0.0492114795
 40
0.0657143278
 40
0.0853665318
 40
0.1326974167
 40
0.1891686284
 40
0.2531665072
 40
0.3235093684
 40
0.399111817
 40
0.4790285272
 40
0.6481940138
 40
0.8242447447
 40
1.0
 40
1.0
 40
1.0
 40
1.0
 10
262.603665334
 20
145.0063286903
 30
0.0
 10
262.5991301353
 20
145.0317985447
 30
0.0
 10
262.5918466096
 20
145.066083194
 30
0.0
 10
262.5815804433
 20
145.103577669
 30
0.0
 10
262.576469441
 20
145.1210848017
 30
0.0
 10
262.5744499452
 20
145.1271544628
 30
0.0
 10
262.5731431796
 20
145.1316860272
 30
0.0
 10
262.5750822607
 20
145.1265378369
 30
0.0
 10
262.5770393508
 20
145.1215830733
 30
0.0
 10
262.5870411403
 20
145.0967701447
 30
0.0
 10
262.6050460199
 20
145.0576236231
 30
0.0
 10
262.6372359871
 20
144.993151112
 30
0.0
 10
262.6799827007
 20
144.9133434255
 30
0.0
 10
262.756508601
 20
144.7785266225
 30
0.0
 10
262.8768135142
 20
144.5838221757
 30
0.0
 10
263.0494152346
 20
144.3248186871
 30
0.0
 10
263.2546827886
 20
144.0365835151
 30
0.0
 10
263.4885769845
 20
143.7253319682
 30
0.0
 10
263.7479339
 20
143.3964427455
 30
0.0
 10
264.1304562445
 20
142.9314736347
 30
0.0
 10
264.6490035446
 20
142.3374451819
 30
0.0
 10
265.3089992913
 20
141.631795816
 30
0.0
 10
265.7702571095
 20
141.1702759311
 30
0.0
 10
266.0046636969
 20
140.9438565545
 30
0.0
  0
SPLINE
  5
7CD
100
AcDbEntity
  8
KONSTRUKTIONSELEMENTE
100
AcDbSpline
 62
7
  6
CONTINUOUS
 70
0
 71
3
 72
17
 73
13
 74
0
 42
0.0000001
 43
0.0000001
 44
0.0000000001
 40
0.0
 40
0.0
 40
0.0
 40
0.0
 40
0.0672998635
 40
0.1329602329
 40
0.1944855734
 40
0.2504309869
 40
0.3502866628
 40
0.4545528348
 40
0.5743822025
 40
0.7091855667
 40
0.853565524
 40
1.0
 40
1.0
 40
1.0
 40
1.0
 10
258.8831358844
 20
146.5672780098
 30
0.0
 10
258.7110904876
 20
146.4007931361
 30
0.0
 10
258.4177561448
 20
146.0194695422
 30
0.0
 10
258.1676464868
 20
145.3647829073
 30
0.0
 10
258.1032557861
 20
144.7098531327
 30
0.0
 10
258.197390861
 20
143.9374492657
 30
0.0
 10
258.5375317453
 20
143.0660955851
 30
0.0
 10
259.1228856353
 20
142.0721018933
 30
0.0
 10
259.866883104
 20
141.0327892901
 30
0.0
 10
260.7631674942
 20
139.9313665852
 30
0.0
 10
261.7766998932
 20
138.8058111067
 30
0.0
 10
262.5036306163
 20
138.069117605
 30
0.0
 10
262.8783040392
 20
137.7072108694
 30
0.0
  0
SPLINE
  5
7CE
100
AcDbEntity
  8
KONSTRUKTIONSELEMENTE
100
AcDbSpline
 62
7
  6
CONTINUOUS
 70
0
 71
3
 72
14
 73
10
 74
0
 42
0.0000001
 43
0.0000001
 44
0.0000000001
 40
0.0
 40
0.0
 40
0.0
 40
0.0
 40
0.1478176424
 40
0.2924483027
 40
0.4289528093
 40
0.5542230241
 40
0.6675850853
 40
0.7759002898
 40
1.0
 40
1.0
 40
1.0
 40
1.0
 10
280.6064335695
 20
124.8150179044
 30
0.0
 10
280.7696619835
 20
124.972970761
 30
0.0
 10
281.0508018417
 20
125.3324566013
 30
0.0
 10
281.3018683413
 20
125.9501988063
 30
0.0
 10
281.3849876654
 20
126.5752690753
 30
0.0
 10
281.3345004549
 20
127.1530937622
 30
0.0
 10
281.1994732307
 20
127.6708110168
 30
0.0
 10
280.9419646097
 20
128.3067616565
 30
0.0
 10
280.6928346592
 20
128.7547879198
 30
0.0
 10
280.5120589409
 20
129.0478780566
 30
0.0
  0
SPLINE
  5
7CF
100
AcDbEntity
  8
KONSTRUKTIONSELEMENTE
100
AcDbSpline
 62
7
  6
CONTINUOUS
 70
0
 71
3
 72
21
 73
17
 74
0
 42
0.0000001
 43
0.0000001
 44
0.0000000001
 40
0.0
 40
0.0
 40
0.0
 40
0.0
 40
0.1864112425
 40
0.364525022
 40
0.5302733672
 40
0.6799387301
 40
0.747406246
 40
0.8091075232
 40
0.8642884189
 40
0.9119336236
 40
0.9509426621
 40
0.9796295776
 40
0.9894492175
 40
0.9958898775
 40
0.9986057402
 40
1.0
 40
1.0
 40
1.0
 40
1.0
 10
276.6112654147
 20
130.6986660261
 30
0.0
 10
276.7656101568
 20
130.5495804536
 30
0.0
 10
277.070858754
 20
130.2615678813
 30
0.0
 10
277.5251717149
 20
129.8537593545
 30
0.0
 10
277.9583728315
 20
129.4860596496
 30
0.0
 10
278.3032693547
 20
129.2114870232
 30
0.0
 10
278.5601656858
 20
129.0189649354
 30
0.0
 10
278.732592412
 20
128.8953397945
 30
0.0
 10
278.8894330868
 20
128.7887308368
 30
0.0
 10
279.0261741063
 20
128.70070884
 30
0.0
 10
279.1420446433
 20
128.6320672697
 30
0.0
 10
279.2164928576
 20
128.5906000831
 30
0.0
 10
279.2677773309
 20
128.5654469992
 30
0.0
 10
279.2804562323
 20
128.5590095557
 30
0.0
 10
279.3017567229
 20
128.5504995799
 30
0.0
 10
279.2947018857
 20
128.5531098568
 30
0.0
 10
279.2931878192
 20
128.553642488
 30
0.0
  0
SPLINE
  5
7D0
100
AcDbEntity
  8
KONSTRUKTIONSELEMENTE
100
AcDbSpline
 62
7
  6
CONTINUOUS
 70
0
 71
3
 72
14
 73
10
 74
0
 42
0.0000001
 43
0.0000001
 44
0.0000000001
 40
0.0
 40
0.0
 40
0.0
 40
0.0
 40
0.2853075585
 40
0.4098818106
 40
0.5208692916
 40
0.6238507303
 40
0.7336576496
 40
0.8616333138
 40
1.0
 40
1.0
 40
1.0
 40
1.0
 10
273.484905757
 20
127.462020341
 30
0.0
 10
274.0570648869
 20
126.9093570607
 30
0.0
 10
274.9074229428
 20
126.1427243369
 30
0.0
 10
276.0611322069
 20
125.2593815717
 30
0.0
 10
276.8508505515
 20
124.7403324862
 30
0.0
 10
277.6572708495
 20
124.3283019299
 30
0.0
 10
278.5841767504
 20
124.0734639364
 30
0.0
 10
279.6584007503
 20
124.1546979857
 30
0.0
 10
280.3291945092
 20
124.5467392361
 30
0.0
 10
280.6064335695
 20
124.8150179044
 30
0.0
  0
SPLINE
  5
7D1
100
AcDbEntity
  8
KONSTRUKTIONSELEMENTE
100
AcDbSpline
 62
7
  6
CONTINUOUS
 70
0
 71
3
 72
9
 73
5
 74
0
 42
0.0000001
 43
0.0000001
 44
0.0000000001
 40
0.0
 40
0.0
 40
0.0
 40
0.0
 40
0.4992056363
 40
1.0
 40
1.0
 40
1.0
 40
1.0
 10
298.6043936747
 20
115.5404907878
 30
0.0
 10
298.6041145115
 20
114.7232883147
 30
0.0
 10
298.3363139823
 20
113.0754910533
 30
0.0
 10
297.5584431531
 20
111.5993043671
 30
0.0
 10
297.067552301
 20
110.9427195792
 30
0.0
  0
SPLINE
  5
7D2
100
AcDbEntity
  8
KONSTRUKTIONSELEMENTE
100
AcDbSpline
 62
7
  6
CONTINUOUS
 70
0
 71
3
 72
11
 73
7
 74
0
 42
0.0000001
 43
0.0000001
 44
0.0000000001
 40
0.0
 40
0.0
 40
0.0
 40
0.0
 40
0.2503834639
 40
0.5009562809
 40
0.7509829001
 40
1.0
 40
1.0
 40
1.0
 40
1.0
 10
293.4019033377
 20
108.2308323893
 30
0.0
 10
292.6927433675
 20
107.9727515
 30
0.0
 10
291.1935376863
 20
107.6532322096
 30
0.0
 10
288.9072213415
 20
107.8083159427
 30
0.0
 10
286.7537178557
 20
108.5804077965
 30
0.0
 10
285.5152224565
 20
109.4751901801
 30
0.0
 10
284.9753909513
 20
109.9966273729
 30
0.0
  0
SPLINE
  5
7D3
100
AcDbEntity
  8
KONSTRUKTIONSELEMENTE
100
AcDbSpline
 62
7
  6
CONTINUOUS
 70
0
 71
3
 72
11
 73
7
 74
0
 42
0.0000001
 43
0.0000001
 44
0.0000000001
 40
0.0
 40
0.0
 40
0.0
 40
0.0
 40
0.2497701922
 40
0.5003846994
 40
0.7507632035
 40
1.0
 40
1.0
 40
1.0
 40
1.0
 10
275.2187417291
 20
132.0462232701
 30
0.0
 10
275.9775663608
 20
132.5974660074
 30
0.0
 10
277.7086319883
 20
133.4383495504
 30
0.0
 10
280.5670531509
 20
133.7362093526
 30
0.0
 10
283.3568444931
 20
133.0533710954
 30
0.0
 10
284.9537182859
 20
131.9833309243
 30
0.0
 10
285.6268768749
 20
131.333109658
 30
0.0
  0
SPLINE
  5
7D4
100
AcDbEntity
  8
KONSTRUKTIONSELEMENTE
100
AcDbSpline
 62
7
  6
CONTINUOUS
 70
0
 71
3
 72
9
 73
5
 74
0
 42
0.0000001
 43
0.0000001
 44
0.0000000001
 40
0.0
 40
0.0
 40
0.0
 40
0.0
 40
0.5052259423
 40
1.0
 40
1.0
 40
1.0
 40
1.0
 10
277.4951488912
 20
123.4784635863
 30
0.0
 10
277.2928486063
 20
123.6738706561
 30
0.0
 10
276.9392340411
 20
124.1125064223
 30
0.0
 10
276.7082420333
 20
124.6267622659
 30
0.0
 10
276.6293399342
 20
124.8906646874
 30
0.0
  0
SPLINE
  5
7D5
100
AcDbEntity
  8
KONSTRUKTIONSELEMENTE
100
AcDbSpline
 62
7
  6
CONTINUOUS
 70
0
 71
3
 72
9
 73
5
 74
0
 42
0.0000001
 43
0.0000001
 44
0.0000000001
 40
0.0
 40
0.0
 40
0.0
 40
0.0
 40
0.5069780116
 40
1.0
 40
1.0
 40
1.0
 40
1.0
 10
293.1071189349
 20
117.8512734446
 30
0.0
 10
293.4192158439
 20
117.5498109799
 30
0.0
 10
293.9260994743
 20
116.8283243059
 30
0.0
 10
294.1044479539
 20
115.9635581446
 30
0.0
 10
294.1043400741
 20
115.5415858161
 30
0.0
  0
SPLINE
  5
7D6
100
AcDbEntity
  8
KONSTRUKTIONSELEMENTE
100
AcDbSpline
 62
7
  6
CONTINUOUS
 70
0
 71
3
 72
11
 73
7
 74
0
 42
0.0000001
 43
0.0000001
 44
0.0000000001
 40
0.0
 40
0.0
 40
0.0
 40
0.0
 40
0.2519918144
 40
0.5048009909
 40
0.755086504
 40
1.0
 40
1.0
 40
1.0
 40
1.0
 10
278.7667228426
 20
128.8800824255
 30
0.0
 10
279.0835752186
 20
128.9925108473
 30
0.0
 10
279.7531149565
 20
129.1301046105
 30
0.0
 10
280.7701916641
 20
129.0573664065
 30
0.0
 10
281.7209298436
 20
128.7156155664
 30
0.0
 10
282.2654908918
 20
128.3234819705
 30
0.0
 10
282.5005172171
 20
128.096463973
 30
0.0
  0
SPLINE
  5
7D7
100
AcDbEntity
  8
KONSTRUKTIONSELEMENTE
100
AcDbSpline
 62
7
  6
CONTINUOUS
 70
0
 71
3
 72
9
 73
5
 74
0
 42
0.0000001
 43
0.0000001
 44
0.0000000001
 40
0.0
 40
0.0
 40
0.0
 40
0.0
 40
0.50530061
 40
1.0
 40
1.0
 40
1.0
 40
1.0
 10
290.0952464553
 20
112.2734228715
 30
0.0
 10
289.733494566
 20
112.3235777103
 30
0.0
 10
289.0281863875
 20
112.5309119459
 30
0.0
 10
288.4171251245
 20
112.9405005461
 30
0.0
 10
288.1546396123
 20
113.1832831087
 30
0.0
  0
SPLINE
  5
7D8
100
AcDbEntity
  8
KONSTRUKTIONSELEMENTE
100
AcDbSpline
 62
7
  6
CONTINUOUS
 70
0
 71
3
 72
11
 73
7
 74
0
 42
0.0000001
 43
0.0000001
 44
0.0000000001
 40
0.0
 40
0.0
 40
0.0
 40
0.0
 40
0.2509365798
 40
0.5011818949
 40
0.7507345868
 40
1.0
 40
1.0
 40
1.0
 40
1.0
 10
274.3687892335
 20
120.2418179012
 30
0.0
 10
273.9965082838
 20
120.6014136852
 30
0.0
 10
273.3219389138
 20
121.3952344053
 30
0.0
 10
272.5678117659
 20
122.7592003048
 30
0.0
 10
272.1026236558
 20
124.243204486
 30
0.0
 10
271.997698515
 20
125.275100565
 30
0.0
 10
271.9978741514
 20
125.7892462431
 30
0.0
  0
SPLINE
  5
7D9
100
AcDbEntity
  8
KONSTRUKTIONSELEMENTE
100
AcDbSpline
 62
7
  6
CONTINUOUS
 70
0
 71
3
 72
9
 73
5
 74
0
 42
0.0000001
 43
0.0000001
 44
0.0000000001
 40
0.0
 40
0.0
 40
0.0
 40
0.0
 40
0.5012063269
 40
1.0
 40
1.0
 40
1.0
 40
1.0
 10
296.289933314
 20
121.0328361178
 30
0.0
 10
297.0133334845
 20
120.3198737955
 30
0.0
 10
298.1920446552
 20
118.5986029738
 30
0.0
 10
298.6047389721
 20
116.5512899912
 30
0.0
 10
298.6043936747
 20
115.5404907878
 30
0.0
  0
SPLINE
  5
7DA
100
AcDbEntity
  8
KONSTRUKTIONSELEMENTE
100
AcDbSpline
 62
7
  6
CONTINUOUS
 70
0
 71
3
 72
9
 73
5
 74
0
 42
0.0000001
 43
0.0000001
 44
0.0000000001
 40
0.0
 40
0.0
 40
0.0
 40
0.0
 40
0.4046530715
 40
1.0
 40
1.0
 40
1.0
 40
1.0
 10
319.1008380538
 20
94.2322769522
 30
0.0
 10
319.1008380538
 20
94.2846948306
 30
0.0
 10
319.1368460734
 20
94.412317866
 30
0.0
 10
319.1922452689
 20
94.5289064715
 30
0.0
 10
319.2284881476
 20
94.5969795186
 30
0.0
  0
SPLINE
  5
7DB
100
AcDbEntity
  8
KONSTRUKTIONSELEMENTE
100
AcDbSpline
 62
7
  6
CONTINUOUS
 70
0
 71
3
 72
10
 73
6
 74
0
 42
0.0000001
 43
0.0000001
 44
0.0000000001
 40
0.0
 40
0.0
 40
0.0
 40
0.0
 40
0.371444044
 40
0.6586206829
 40
1.0
 40
1.0
 40
1.0
 40
1.0
 10
322.1570233259
 20
97.6273537872
 30
0.0
 10
322.2080331837
 20
97.656752546
 30
0.0
 10
322.3023267214
 20
97.7059895649
 30
0.0
 10
322.443319414
 20
97.762380328
 30
0.0
 10
322.5642520775
 20
97.7756134155
 30
0.0
 10
322.6039796482
 20
97.7388765516
 30
0.0
  0
SPLINE
  5
7DC
100
AcDbEntity
  8
KONSTRUKTIONSELEMENTE
100
AcDbSpline
 62
7
  6
CONTINUOUS
 70
0
 71
3
 72
22
 73
18
 74
0
 42
0.0000001
 43
0.0000001
 44
0.0000000001
 40
0.0
 40
0.0
 40
0.0
 40
0.0
 40
0.0294212254
 40
0.0723201016
 40
0.1282665266
 40
0.1957437383
 40
0.356909235
 40
0.5354273641
 40
0.6239691462
 40
0.7081646199
 40
0.7852699074
 40
0.8528337383
 40
0.9088485413
 40
0.9518088476
 40
0.9682604979
 40
0.9814574319
 40
1.0
 40
1.0
 40
1.0
 40
1.0
 10
322.2828185691
 20
97.9888468126
 30
0.0
 10
322.2828185691
 20
97.9386963186
 30
0.0
 10
322.2496683542
 20
97.8171144724
 30
0.0
 10
322.1576094775
 20
97.6192628031
 30
0.0
 10
322.0113479808
 20
97.375555636
 30
0.0
 10
321.7342983246
 20
96.977280292
 30
0.0
 10
321.2946512479
 20
96.4389314811
 30
0.0
 10
320.7959067916
 20
95.9053460159
 30
0.0
 10
320.3657163944
 20
95.4887387374
 30
0.0
 10
320.0492849051
 20
95.2035568542
 30
0.0
 10
319.7490114759
 20
94.9543182851
 30
0.0
 10
319.4750200573
 20
94.7491608852
 30
0.0
 10
319.2364987883
 20
94.5947785658
 30
0.0
 10
319.0612636289
 20
94.504078312
 30
0.0
 10
318.9429311551
 20
94.4651342642
 30
0.0
 10
318.8631164042
 20
94.4503697668
 30
0.0
 10
318.8028829558
 20
94.4607881874
 30
0.0
 10
318.7796769747
 20
94.4822472133
 30
0.0
  0
SPLINE
  5
7DD
100
AcDbEntity
  8
KONSTRUKTIONSELEMENTE
100
AcDbSpline
 62
7
  6
CONTINUOUS
 70
0
 71
3
 72
9
 73
5
 74
0
 42
0.0000001
 43
0.0000001
 44
0.0000000001
 40
0.0
 40
0.0
 40
0.0
 40
0.0
 40
0.5061516998
 40
1.0
 40
1.0
 40
1.0
 40
1.0
 10
323.162247183
 20
90.2484998145
 30
0.0
 10
323.5690100263
 20
89.855597079
 30
0.0
 10
324.2304401095
 20
88.9136246726
 30
0.0
 10
324.4636142632
 20
87.7848803003
 30
0.0
 10
324.4639430251
 20
87.2330933633
 30
0.0
  0
SPLINE
  5
7DE
100
AcDbEntity
  8
KONSTRUKTIONSELEMENTE
100
AcDbSpline
 62
7
  6
CONTINUOUS
 70
0
 71
3
 72
9
 73
5
 74
0
 42
0.0000001
 43
0.0000001
 44
0.0000000001
 40
0.0
 40
0.0
 40
0.0
 40
0.0
 40
0.4992038931
 40
1.0
 40
1.0
 40
1.0
 40
1.0
 10
329.4639624791
 20
87.2292527713
 30
0.0
 10
329.4636369699
 20
86.2827021464
 30
0.0
 10
329.1624961597
 20
84.3747899373
 30
0.0
 10
328.2861846267
 20
82.6544748762
 30
0.0
 10
327.7315576593
 20
81.8837144977
 30
0.0
  0
SPLINE
  5
7DF
100
AcDbEntity
  8
KONSTRUKTIONSELEMENTE
100
AcDbSpline
 62
7
  6
CONTINUOUS
 70
0
 71
3
 72
11
 73
7
 74
0
 42
0.0000001
 43
0.0000001
 44
0.0000000001
 40
0.0
 40
0.0
 40
0.0
 40
0.0
 40
0.2509991166
 40
0.5012371893
 40
0.7507683023
 40
1.0
 40
1.0
 40
1.0
 40
1.0
 10
326.6987302741
 20
93.7835897693
 30
0.0
 10
327.1335753627
 20
93.3556125148
 30
0.0
 10
327.9209072231
 20
92.4137811556
 30
0.0
 10
328.8000679273
 20
90.8013238332
 30
0.0
 10
329.3419821891
 20
89.0509417103
 30
0.0
 10
329.4641708182
 20
87.8350833632
 30
0.0
 10
329.4639624791
 20
87.2292527713
 30
0.0
  0
SPLINE
  5
7E0
100
AcDbEntity
  8
KONSTRUKTIONSELEMENTE
100
AcDbSpline
 62
7
  6
CONTINUOUS
 70
0
 71
3
 72
11
 73
7
 74
0
 42
0.0000001
 43
0.0000001
 44
0.0000000001
 40
0.0
 40
0.0
 40
0.0
 40
0.0
 40
0.2507528382
 40
0.5034086137
 40
0.7541779598
 40
1.0
 40
1.0
 40
1.0
 40
1.0
 10
309.394762077
 20
99.1797022067
 30
0.0
 10
309.8248401003
 20
99.392399523
 30
0.0
 10
310.760661599
 20
99.6866852131
 30
0.0
 10
312.2251106088
 20
99.687956196
 30
0.0
 10
313.6150668322
 20
99.2571790983
 30
0.0
 10
314.4093647146
 20
98.7031350451
 30
0.0
 10
314.7476764869
 20
98.376350967
 30
0.0
  0
SPLINE
  5
7E1
100
AcDbEntity
  8
KONSTRUKTIONSELEMENTE
100
AcDbSpline
 62
7
  6
CONTINUOUS
 70
0
 71
3
 72
11
 73
7
 74
0
 42
0.0000001
 43
0.0000001
 44
0.0000000001
 40
0.0
 40
0.0
 40
0.0
 40
0.0
 40
0.2509930803
 40
0.501249827
 40
0.7507781035
 40
1.0
 40
1.0
 40
1.0
 40
1.0
 10
304.7774708721
 20
88.7458718703
 30
0.0
 10
304.3333970128
 20
89.1748142798
 30
0.0
 10
303.5287749611
 20
90.1215977182
 30
0.0
 10
302.6292531562
 20
91.7482632885
 30
0.0
 10
302.0744199472
 20
93.5178907145
 30
0.0
 10
301.9492777068
 20
94.7483403604
 30
0.0
 10
301.949488529
 20
95.3613918969
 30
0.0
  0
SPLINE
  5
7E2
100
AcDbEntity
  8
KONSTRUKTIONSELEMENTE
100
AcDbSpline
 62
7
  6
CONTINUOUS
 70
0
 71
3
 72
15
 73
11
 74
0
 42
0.0000001
 43
0.0000001
 44
0.0000000001
 40
0.0
 40
0.0
 40
0.0
 40
0.0
 40
0.1246775817
 40
0.2497008934
 40
0.3749646148
 40
0.5003333456
 40
0.6256554896
 40
0.7507587796
 40
0.8756138354
 40
1.0
 40
1.0
 40
1.0
 40
1.0
 10
305.6103311953
 20
102.6884997923
 30
0.0
 10
306.0638528241
 20
103.0347639816
 30
0.0
 10
307.0368732237
 20
103.6477430045
 30
0.0
 10
308.6359533166
 20
104.2937346082
 30
0.0
 10
310.3271535813
 20
104.6496173532
 30
0.0
 10
312.0557683141
 20
104.7039649496
 30
0.0
 10
313.7664657047
 20
104.454975664
 30
0.0
 10
315.4050372019
 20
103.9107195632
 30
0.0
 10
316.917408998
 20
103.0875555674
 30
0.0
 10
317.8119643035
 20
102.3681175821
 30
0.0
 10
318.2214094399
 20
101.9726239504
 30
0.0
  0
SPLINE
  5
7E3
100
AcDbEntity
  8
KONSTRUKTIONSELEMENTE
100
AcDbSpline
 62
7
  6
CONTINUOUS
 70
0
 71
3
 72
9
 73
5
 74
0
 42
0.0000001
 43
0.0000001
 44
0.0000000001
 40
0.0
 40
0.0
 40
0.0
 40
0.0
 40
0.5061516998
 40
1.0
 40
1.0
 40
1.0
 40
1.0
 10
308.2512038252
 20
92.3421448537
 30
0.0
 10
307.8444409819
 20
92.7350475892
 30
0.0
 10
307.1830108986
 20
93.6770199955
 30
0.0
 10
306.9498367449
 20
94.8057643679
 30
0.0
 10
306.9495079831
 20
95.3575513049
 30
0.0
  0
SPLINE
  5
7E4
100
AcDbEntity
  8
KONSTRUKTIONSELEMENTE
100
AcDbSpline
 62
7
  6
CONTINUOUS
 70
0
 71
3
 72
22
 73
18
 74
0
 42
0.0000001
 43
0.0000001
 44
0.0000000001
 40
0.0
 40
0.0
 40
0.0
 40
0.0
 40
0.0294212254
 40
0.0723201016
 40
0.1282665266
 40
0.1957437383
 40
0.356909235
 40
0.5354273641
 40
0.6239691462
 40
0.7081646199
 40
0.7852699074
 40
0.8528337383
 40
0.9088485413
 40
0.9518088476
 40
0.9682604979
 40
0.9814574319
 40
1.0
 40
1.0
 40
1.0
 40
1.0
 10
322.6363719597
 20
97.6473404617
 30
0.0
 10
322.6363719597
 20
97.5971899676
 30
0.0
 10
322.6032217448
 20
97.4756081214
 30
0.0
 10
322.5111628681
 20
97.2777564522
 30
0.0
 10
322.3649013714
 20
97.0340492851
 30
0.0
 10
322.0878517152
 20
96.635773941
 30
0.0
 10
321.6482046385
 20
96.0974251302
 30
0.0
 10
321.1494601821
 20
95.5638396649
 30
0.0
 10
320.719269785
 20
95.1472323864
 30
0.0
 10
320.4028382957
 20
94.8620505033
 30
0.0
 10
320.1025648664
 20
94.6128119341
 30
0.0
 10
319.8285734479
 20
94.4076545343
 30
0.0
 10
319.5900521789
 20
94.2532722149
 30
0.0
 10
319.4148170195
 20
94.1625719611
 30
0.0
 10
319.2964845457
 20
94.1236279133
 30
0.0
 10
319.2166697948
 20
94.1088634158
 30
0.0
 10
319.1564363464
 20
94.1192818365
 30
0.0
 10
319.1332303653
 20
94.1407408623
 30
0.0
  0
SPLINE
  5
7E5
100
AcDbEntity
  8
KONSTRUKTIONSELEMENTE
100
AcDbSpline
 62
7
  6
CONTINUOUS
 70
0
 71
3
 72
9
 73
5
 74
0
 42
0.0000001
 43
0.0000001
 44
0.0000000001
 40
0.0
 40
0.0
 40
0.0
 40
0.0
 40
0.4046530715
 40
1.0
 40
1.0
 40
1.0
 40
1.0
 10
257.9361014811
 20
153.3128756659
 30
0.0
 10
257.9361014811
 20
153.3652935442
 30
0.0
 10
257.9721095008
 20
153.4929165796
 30
0.0
 10
258.0275086962
 20
153.6095051851
 30
0.0
 10
258.0637515749
 20
153.6775782323
 30
0.0
  0
SPLINE
  5
7E6
100
AcDbEntity
  8
KONSTRUKTIONSELEMENTE
100
AcDbSpline
 62
7
  6
CONTINUOUS
 70
0
 71
3
 72
10
 73
6
 74
0
 42
0.0000001
 43
0.0000001
 44
0.0000000001
 40
0.0
 40
0.0
 40
0.0
 40
0.0
 40
0.371444044
 40
0.6586206829
 40
1.0
 40
1.0
 40
1.0
 40
1.0
 10
260.9922867533
 20
156.7079525008
 30
0.0
 10
261.0432966111
 20
156.7373512597
 30
0.0
 10
261.1375901488
 20
156.7865882786
 30
0.0
 10
261.2785828414
 20
156.8429790416
 30
0.0
 10
261.3995155048
 20
156.8562121292
 30
0.0
 10
261.4392430755
 20
156.8194752652
 30
0.0
  0
SPLINE
  5
7E7
100
AcDbEntity
  8
KONSTRUKTIONSELEMENTE
100
AcDbSpline
 62
7
  6
CONTINUOUS
 70
0
 71
3
 72
22
 73
18
 74
0
 42
0.0000001
 43
0.0000001
 44
0.0000000001
 40
0.0
 40
0.0
 40
0.0
 40
0.0
 40
0.0294212254
 40
0.0723201016
 40
0.1282665266
 40
0.1957437383
 40
0.356909235
 40
0.5354273641
 40
0.6239691462
 40
0.7081646199
 40
0.7852699074
 40
0.8528337383
 40
0.9088485413
 40
0.9518088476
 40
0.9682604979
 40
0.9814574319
 40
1.0
 40
1.0
 40
1.0
 40
1.0
 10
261.1180819965
 20
157.0694455263
 30
0.0
 10
261.1180819965
 20
157.0192950323
 30
0.0
 10
261.0849317816
 20
156.897713186
 30
0.0
 10
260.9928729048
 20
156.6998615168
 30
0.0
 10
260.8466114082
 20
156.4561543497
 30
0.0
 10
260.5695617519
 20
156.0578790057
 30
0.0
 10
260.1299146752
 20
155.5195301948
 30
0.0
 10
259.6311702189
 20
154.9859447296
 30
0.0
 10
259.2009798217
 20
154.569337451
 30
0.0
 10
258.8845483325
 20
154.2841555679
 30
0.0
 10
258.5842749032
 20
154.0349169988
 30
0.0
 10
258.3102834847
 20
153.8297595989
 30
0.0
 10
258.0717622157
 20
153.6753772795
 30
0.0
 10
257.8965270562
 20
153.5846770257
 30
0.0
 10
257.7781945825
 20
153.5457329779
 30
0.0
 10
257.6983798315
 20
153.5309684805
 30
0.0
 10
257.6381463831
 20
153.5413869011
 30
0.0
 10
257.6149404021
 20
153.562845927
 30
0.0
  0
SPLINE
  5
7E8
100
AcDbEntity
  8
KONSTRUKTIONSELEMENTE
100
AcDbSpline
 62
7
  6
CONTINUOUS
 70
0
 71
3
 72
9
 73
5
 74
0
 42
0.0000001
 43
0.0000001
 44
0.0000000001
 40
0.0
 40
0.0
 40
0.0
 40
0.0
 40
0.5061516998
 40
1.0
 40
1.0
 40
1.0
 40
1.0
 10
261.9975106104
 20
149.3290985282
 30
0.0
 10
262.4042734537
 20
148.9361957926
 30
0.0
 10
263.0657035369
 20
147.9942233863
 30
0.0
 10
263.2988776906
 20
146.8654790139
 30
0.0
 10
263.2992064524
 20
146.3136920769
 30
0.0
  0
SPLINE
  5
7E9
100
AcDbEntity
  8
KONSTRUKTIONSELEMENTE
100
AcDbSpline
 62
7
  6
CONTINUOUS
 70
0
 71
3
 72
9
 73
5
 74
0
 42
0.0000001
 43
0.0000001
 44
0.0000000001
 40
0.0
 40
0.0
 40
0.0
 40
0.0
 40
0.4990961922
 40
1.0
 40
1.0
 40
1.0
 40
1.0
 10
268.2992259065
 20
146.309851485
 30
0.0
 10
268.2988774085
 20
145.2964515728
 30
0.0
 10
267.9528690587
 20
143.2515068406
 30
0.0
 10
266.9508574805
 20
141.4369304258
 30
0.0
 10
266.3211503922
 20
140.6382434152
 30
0.0
  0
SPLINE
  5
7EA
100
AcDbEntity
  8
KONSTRUKTIONSELEMENTE
100
AcDbSpline
 62
7
  6
CONTINUOUS
 70
0
 71
3
 72
11
 73
7
 74
0
 42
0.0000001
 43
0.0000001
 44
0.0000000001
 40
0.0
 40
0.0
 40
0.0
 40
0.0
 40
0.250262514
 40
0.5008853759
 40
0.7509951573
 40
1.0
 40
1.0
 40
1.0
 40
1.0
 10
262.7310877355
 20
137.8498674505
 30
0.0
 10
261.8566583288
 20
137.4589094064
 30
0.0
 10
259.9780421921
 20
136.9351654256
 30
0.0
 10
257.064193887
 20
137.0040468512
 30
0.0
 10
254.2992747119
 20
137.9122158497
 30
0.0
 10
252.7127802025
 20
139.0365012259
 30
0.0
 10
252.0273049956
 20
139.6986194315
 30
0.0
  0
SPLINE
  5
7EB
100
AcDbEntity
  8
KONSTRUKTIONSELEMENTE
100
AcDbSpline
 62
7
  6
CONTINUOUS
 70
0
 71
3
 72
11
 73
7
 74
0
 42
0.0000001
 43
0.0000001
 44
0.0000000001
 40
0.0
 40
0.0
 40
0.0
 40
0.0
 40
0.2509991166
 40
0.5012371893
 40
0.7507683023
 40
1.0
 40
1.0
 40
1.0
 40
1.0
 10
265.5339937015
 20
152.864188483
 30
0.0
 10
265.9688387901
 20
152.4362112285
 30
0.0
 10
266.7561706504
 20
151.4943798692
 30
0.0
 10
267.6353313547
 20
149.8819225469
 30
0.0
 10
268.1772456165
 20
148.131540424
 30
0.0
 10
268.2994342455
 20
146.9156820769
 30
0.0
 10
268.2992259065
 20
146.309851485
 30
0.0
  0
SPLINE
  5
7EC
100
AcDbEntity
  8
KONSTRUKTIONSELEMENTE
100
AcDbSpline
 62
7
  6
CONTINUOUS
 70
0
 71
3
 72
9
 73
5
 74
0
 42
0.0000001
 43
0.0000001
 44
0.0000000001
 40
0.0
 40
0.0
 40
0.0
 40
0.0
 40
0.5050460752
 40
1.0
 40
1.0
 40
1.0
 40
1.0
 10
259.1732466625
 20
142.0210011075
 30
0.0
 10
258.5196712891
 20
141.9629011588
 30
0.0
 10
257.1870695656
 20
142.1169840898
 30
0.0
 10
256.0307580397
 20
142.8008396725
 30
0.0
 10
255.5600479695
 20
143.2389421919
 30
0.0
  0
SPLINE
  5
7ED
100
AcDbEntity
  8
KONSTRUKTIONSELEMENTE
100
AcDbSpline
 62
7
  6
CONTINUOUS
 70
0
 71
3
 72
11
 73
7
 74
0
 42
0.0000001
 43
0.0000001
 44
0.0000000001
 40
0.0
 40
0.0
 40
0.0
 40
0.0
 40
0.2482337156
 40
0.500955749
 40
0.7531052982
 40
1.0
 40
1.0
 40
1.0
 40
1.0
 10
247.3394182929
 20
157.683212874
 30
0.0
 10
247.7718801248
 20
158.0417066641
 30
0.0
 10
248.7907615033
 20
158.6042685114
 30
0.0
 10
250.5132938236
 20
158.8495005471
 30
0.0
 10
252.2104871696
 20
158.4798847546
 30
0.0
 10
253.1810921371
 20
157.8451048268
 30
0.0
 10
253.5829399142
 20
157.4569496807
 30
0.0
  0
SPLINE
  5
7EE
100
AcDbEntity
  8
KONSTRUKTIONSELEMENTE
100
AcDbSpline
 62
7
  6
CONTINUOUS
 70
0
 71
3
 72
11
 73
7
 74
0
 42
0.0000001
 43
0.0000001
 44
0.0000000001
 40
0.0
 40
0.0
 40
0.0
 40
0.0
 40
0.2509930803
 40
0.501249827
 40
0.7507781035
 40
1.0
 40
1.0
 40
1.0
 40
1.0
 10
243.6127342995
 20
147.826470584
 30
0.0
 10
243.1686604401
 20
148.2554129935
 30
0.0
 10
242.3640383884
 20
149.2021964319
 30
0.0
 10
241.4645165836
 20
150.8288620022
 30
0.0
 10
240.9096833746
 20
152.5984894282
 30
0.0
 10
240.7845411341
 20
153.828939074
 30
0.0
 10
240.7847519564
 20
154.4419906105
 30
0.0
  0
SPLINE
  5
7EF
100
AcDbEntity
  8
KONSTRUKTIONSELEMENTE
100
AcDbSpline
 62
7
  6
CONTINUOUS
 70
0
 71
3
 72
15
 73
11
 74
0
 42
0.0000001
 43
0.0000001
 44
0.0000000001
 40
0.0
 40
0.0
 40
0.0
 40
0.0
 40
0.124380951
 40
0.2492120816
 40
0.3744063708
 40
0.4998133725
 40
0.625253779
 40
0.7505169462
 40
0.8754953896
 40
1.0
 40
1.0
 40
1.0
 40
1.0
 10
243.20359354
 20
160.632528296
 30
0.0
 10
243.6345647002
 20
161.10406949
 30
0.0
 10
244.5974368904
 20
161.9630665418
 30
0.0
 10
246.2706707427
 20
162.9354649307
 30
0.0
 10
248.1088715481
 20
163.5590194584
 30
0.0
 10
250.0366708631
 20
163.8089892002
 30
0.0
 10
251.9763518143
 20
163.6757963177
 30
0.0
 10
253.8502828508
 20
163.1648785694
 30
0.0
 10
255.5812957206
 20
162.2957812541
 30
0.0
 10
256.5967439522
 20
161.4974798814
 30
0.0
 10
257.0566728673
 20
161.0532226641
 30
0.0
  0
SPLINE
  5
7F0
100
AcDbEntity
  8
KONSTRUKTIONSELEMENTE
100
AcDbSpline
 62
7
  6
CONTINUOUS
 70
0
 71
3
 72
22
 73
18
 74
0
 42
0.0000001
 43
0.0000001
 44
0.0000000001
 40
0.0
 40
0.0
 40
0.0
 40
0.0
 40
0.0294212254
 40
0.0723201016
 40
0.1282665266
 40
0.1957437383
 40
0.356909235
 40
0.5354273641
 40
0.6239691462
 40
0.7081646199
 40
0.7852699074
 40
0.8528337383
 40
0.9088485413
 40
0.9518088476
 40
0.9682604979
 40
0.9814574319
 40
1.0
 40
1.0
 40
1.0
 40
1.0
 10
261.4716353871
 20
156.7279391754
 30
0.0
 10
261.4716353871
 20
156.6777886813
 30
0.0
 10
261.4384851722
 20
156.5562068351
 30
0.0
 10
261.3464262954
 20
156.3583551659
 30
0.0
 10
261.2001647987
 20
156.1146479987
 30
0.0
 10
260.9231151425
 20
155.7163726547
 30
0.0
 10
260.4834680658
 20
155.1780238439
 30
0.0
 10
259.9847236095
 20
154.6444383786
 30
0.0
 10
259.5545332123
 20
154.2278311001
 30
0.0
 10
259.2381017231
 20
153.942649217
 30
0.0
 10
258.9378282938
 20
153.6934106478
 30
0.0
 10
258.6638368753
 20
153.4882532479
 30
0.0
 10
258.4253156063
 20
153.3338709285
 30
0.0
 10
258.2500804468
 20
153.2431706748
 30
0.0
 10
258.1317479731
 20
153.2042266269
 30
0.0
 10
258.0519332221
 20
153.1894621295
 30
0.0
 10
257.9916997737
 20
153.1998805502
 30
0.0
 10
257.9684937927
 20
153.221339576
 30
0.0
  0
SPLINE
  5
7F1
100
AcDbEntity
  8
KONSTRUKTIONSELEMENTE
100
AcDbSpline
 62
7
  6
CONTINUOUS
 70
0
 71
3
 72
14
 73
10
 74
0
 42
0.0000001
 43
0.0000001
 44
0.0000000001
 40
0.0
 40
0.0
 40
0.0
 40
0.0
 40
0.24585177
 40
0.3588613228
 40
0.4700655894
 40
0.5853954014
 40
0.7113182501
 40
0.8509775931
 40
1.0
 40
1.0
 40
1.0
 40
1.0
 10
226.4250040958
 20
185.2300953299
 30
0.0
 10
225.8661934757
 20
185.5536968124
 30
0.0
 10
225.0298531698
 20
185.9947703573
 30
0.0
 10
223.8792367651
 20
186.4460069437
 30
0.0
 10
223.0191912966
 20
186.6893391211
 30
0.0
 10
222.0983198736
 20
186.8167027728
 30
0.0
 10
221.091049557
 20
186.7635559211
 30
0.0
 10
220.0391637067
 20
186.4328214514
 30
0.0
 10
219.4038984409
 20
185.9910897881
 30
0.0
 10
219.122674377
 20
185.7188394577
 30
0.0
  0
SPLINE
  5
7F2
100
AcDbEntity
  8
KONSTRUKTIONSELEMENTE
100
AcDbSpline
 62
7
  6
CONTINUOUS
 70
0
 71
3
 72
17
 73
13
 74
0
 42
0.0000001
 43
0.0000001
 44
0.0000000001
 40
0.0
 40
0.0
 40
0.0
 40
0.0
 40
0.1669648669
 40
0.3236735358
 40
0.4659161063
 40
0.5906556236
 40
0.6971649102
 40
0.7898025498
 40
0.8353372451
 40
0.8845933001
 40
0.9399549185
 40
1.0
 40
1.0
 40
1.0
 40
1.0
 10
233.3658660676
 20
161.3537097842
 30
0.0
 10
234.2532604337
 20
160.4965526479
 30
0.0
 10
236.0015436733
 20
158.8635309667
 30
0.0
 10
238.6045829894
 20
156.6087951925
 30
0.0
 10
241.0601018953
 20
154.6647520166
 30
0.0
 10
243.3191368823
 20
153.0750333922
 30
0.0
 10
245.3811824649
 20
151.8560807799
 30
0.0
 10
247.0540162719
 20
151.1386342006
 30
0.0
 10
248.4130224312
 20
150.8453023841
 30
0.0
 10
249.5319467867
 20
150.8210936073
 30
0.0
 10
250.7293566577
 20
151.1233167097
 30
0.0
 10
251.4587513074
 20
151.6070748634
 30
0.0
 10
251.7775373019
 20
151.91568854
 30
0.0
  0
SPLINE
  5
7F3
100
AcDbEntity
  8
KONSTRUKTIONSELEMENTE
100
AcDbSpline
 62
7
  6
CONTINUOUS
 70
0
 71
3
 72
13
 73
9
 74
0
 42
0.0000001
 43
0.0000001
 44
0.0000000001
 40
0.0
 40
0.0
 40
0.0
 40
0.0
 40
0.02094215
 40
0.0472808575
 40
0.1171870138
 40
0.2270178316
 40
0.5522301624
 40
1.0
 40
1.0
 40
1.0
 40
1.0
 10
223.9528820992
 20
182.8804151242
 30
0.0
 10
223.952503973
 20
182.8858431099
 30
0.0
 10
223.9497112515
 20
182.9075806162
 30
0.0
 10
223.9571921172
 20
182.8546920635
 30
0.0
 10
223.9677685114
 20
182.8190701001
 30
0.0
 10
224.0029413035
 20
182.6800933878
 30
0.0
 10
224.0746873829
 20
182.471948533
 30
0.0
 10
224.1499412566
 20
182.2820734706
 30
0.0
 10
224.1954208221
 20
182.1749928574
 30
0.0
  0
SPLINE
  5
7F4
100
AcDbEntity
  8
KONSTRUKTIONSELEMENTE
100
AcDbSpline
 62
7
  6
CONTINUOUS
 70
0
 71
3
 72
9
 73
5
 74
0
 42
0.0000001
 43
0.0000001
 44
0.0000000001
 40
0.0
 40
0.0
 40
0.0
 40
0.0
 40
0.4754380711
 40
1.0
 40
1.0
 40
1.0
 40
1.0
 10
243.3687659028
 20
160.7766491752
 30
0.0
 10
242.3541078374
 20
162.1332849088
 30
0.0
 10
240.1063897804
 20
164.9019600909
 30
0.0
 10
237.7103392797
 20
167.5415500681
 30
0.0
 10
236.419416094
 20
168.8932979596
 30
0.0
  0
SPLINE
  5
7F5
100
AcDbEntity
  8
KONSTRUKTIONSELEMENTE
100
AcDbSpline
 62
7
  6
CONTINUOUS
 70
0
 71
3
 72
14
 73
10
 74
0
 42
0.0000001
 43
0.0000001
 44
0.0000000001
 40
0.0
 40
0.0
 40
0.0
 40
0.0
 40
0.1487755139
 40
0.2879319834
 40
0.4130990662
 40
0.5278266168
 40
0.6388745175
 40
0.752220382
 40
1.0
 40
1.0
 40
1.0
 40
1.0
 10
219.122674377
 20
185.7188394577
 30
0.0
 10
218.836446797
 20
185.4417452712
 30
0.0
 10
218.3665163289
 20
184.8102327809
 30
0.0
 10
218.0025153612
 20
183.7503962744
 30
0.0
 10
217.9245528391
 20
182.7300594861
 30
0.0
 10
218.031281528
 20
181.7924767867
 30
0.0
 10
218.2574633471
 20
180.9109779027
 30
0.0
 10
218.6887725207
 20
179.7211212023
 30
0.0
 10
219.1177093383
 20
178.8511616244
 30
0.0
 10
219.4340381433
 20
178.2679363519
 30
0.0
  0
SPLINE
  5
7F6
100
AcDbEntity
  8
KONSTRUKTIONSELEMENTE
100
AcDbSpline
 62
7
  6
CONTINUOUS
 70
0
 71
3
 72
15
 73
11
 74
0
 42
0.0000001
 43
0.0000001
 44
0.0000000001
 40
0.0
 40
0.0
 40
0.0
 40
0.0
 40
0.3492137388
 40
0.5082144171
 40
0.6523862283
 40
0.7783002807
 40
0.8821721843
 40
0.9589804931
 40
0.984782024
 40
1.0
 40
1.0
 40
1.0
 40
1.0
 10
237.5343456112
 20
165.6692373643
 30
0.0
 10
238.7570808236
 20
164.488165844
 30
0.0
 10
240.5782720452
 20
162.8111083959
 30
0.0
 10
243.0114756038
 20
160.7693796892
 30
0.0
 10
244.658234261
 20
159.483522668
 30
0.0
 10
246.1401060429
 20
158.4246998197
 30
0.0
 10
247.4011019032
 20
157.6250239934
 30
0.0
 10
248.2889589992
 20
157.1495774864
 30
0.0
 10
248.8183904261
 20
156.9278771866
 30
0.0
 10
249.0083828733
 20
156.8653187702
 30
0.0
 10
249.080098431
 20
156.8467422146
 30
0.0
  0
SPLINE
  5
7F7
100
AcDbEntity
  8
KONSTRUKTIONSELEMENTE
100
AcDbSpline
 62
7
  6
CONTINUOUS
 70
0
 71
3
 72
14
 73
10
 74
0
 42
0.0000001
 43
0.0000001
 44
0.0000000001
 40
0.0
 40
0.0
 40
0.0
 40
0.0
 40
0.1498411528
 40
0.2918818875
 40
0.4216786769
 40
0.5405940367
 40
0.6530458086
 40
0.7646494602
 40
1.0
 40
1.0
 40
1.0
 40
1.0
 10
251.7775373019
 20
151.91568854
 30
0.0
 10
252.0298878118
 20
152.1599866586
 30
0.0
 10
252.4560302704
 20
152.7094914743
 30
0.0
 10
252.8292445623
 20
153.6360751368
 30
0.0
 10
252.9666814138
 20
154.5486240761
 30
0.0
 10
252.932472095
 20
155.3982372746
 30
0.0
 10
252.787631406
 20
156.1909361193
 30
0.0
 10
252.4845884086
 20
157.2256321723
 30
0.0
 10
252.1635023842
 20
157.9760108718
 30
0.0
 10
251.9244035706
 20
158.4731687958
 30
0.0
  0
SPLINE
  5
7F8
100
AcDbEntity
  8
KONSTRUKTIONSELEMENTE
100
AcDbSpline
 62
7
  6
CONTINUOUS
 70
0
 71
3
 72
10
 73
6
 74
0
 42
0.0000001
 43
0.0000001
 44
0.0000000001
 40
0.0
 40
0.0
 40
0.0
 40
0.0
 40
0.2280071042
 40
0.4745634721
 40
1.0
 40
1.0
 40
1.0
 40
1.0
 10
248.7374487908
 20
163.6045886442
 30
0.0
 10
248.1558921072
 20
164.4069934119
 30
0.0
 10
246.9047846555
 20
166.0478008789
 30
0.0
 10
244.1396700768
 20
169.4018613469
 30
0.0
 10
241.8765742435
 20
171.8831008392
 30
0.0
 10
240.2896233804
 20
173.5253326463
 30
0.0
  0
SPLINE
  5
7F9
100
AcDbEntity
  8
0
100
AcDbSpline
 62
7
  6
CONTINUOUS
 70
0
 71
3
 72
9
 73
5
 74
0
 42
0.0000001
 43
0.0000001
 44
0.0000000001
 40
0.0
 40
0.0
 40
0.0
 40
0.0
 40
0.4874259717
 40
1.0
 40
1.0
 40
1.0
 40
1.0
 10
202.756755238
 20
110.6990879016
 30
0.0
 10
203.2919000327
 20
110.4130590181
 30
0.0
 10
204.460940432
 20
109.9573698965
 30
0.0
 10
205.6850770351
 20
109.7057813574
 30
0.0
 10
206.3176398823
 20
109.6219389269
 30
0.0
  0
SPLINE
  5
7FA
100
AcDbEntity
  8
0
100
AcDbSpline
 62
7
  6
CONTINUOUS
 70
0
 71
3
 72
11
 73
7
 74
0
 42
0.0000001
 43
0.0000001
 44
0.0000000001
 40
0.0
 40
0.0
 40
0.0
 40
0.0
 40
0.2513556333
 40
0.5016708514
 40
0.7510886351
 40
1.0
 40
1.0
 40
1.0
 40
1.0
 10
202.7567623129
 20
110.699100729
 30
0.0
 10
201.888065124
 20
111.1634821205
 30
0.0
 10
200.2679790355
 20
112.3244678408
 30
0.0
 10
198.391915291
 20
114.6371493804
 30
0.0
 10
197.2044009189
 20
117.35838979
 30
0.0
 10
196.9336015449
 20
119.3217063503
 30
0.0
 10
196.9336015449
 20
120.2971579738
 30
0.0
  0
SPLINE
  5
7FB
100
AcDbEntity
  8
RUNDUNGEN
100
AcDbSpline
 62
7
  6
CONTINUOUS
 70
0
 71
3
 72
9
 73
5
 74
0
 42
0.0000001
 43
0.0000001
 44
0.0000000001
 40
0.0
 40
0.0
 40
0.0
 40
0.0
 40
0.4874259717
 40
1.0
 40
1.0
 40
1.0
 40
1.0
 10
215.1104478518
 20
110.6990879016
 30
0.0
 10
214.5753030571
 20
110.4130590181
 30
0.0
 10
213.4062626579
 20
109.9573698965
 30
0.0
 10
212.1821260547
 20
109.7057813574
 30
0.0
 10
211.5495632075
 20
109.6219389269
 30
0.0
  0
SPLINE
  5
7FC
100
AcDbEntity
  8
RUNDUNGEN
100
AcDbSpline
 62
7
  6
CONTINUOUS
 70
0
 71
3
 72
11
 73
7
 74
0
 42
0.0000001
 43
0.0000001
 44
0.0000000001
 40
0.0
 40
0.0
 40
0.0
 40
0.0
 40
0.2513556333
 40
0.5016708514
 40
0.7510886351
 40
1.0
 40
1.0
 40
1.0
 40
1.0
 10
215.1104407769
 20
110.699100729
 30
0.0
 10
215.9791379659
 20
111.1634821205
 30
0.0
 10
217.5992240543
 20
112.3244678408
 30
0.0
 10
219.4752877988
 20
114.6371493804
 30
0.0
 10
220.6628021709
 20
117.35838979
 30
0.0
 10
220.9336015449
 20
119.3217063503
 30
0.0
 10
220.9336015449
 20
120.2971579738
 30
0.0
  0
SPLINE
  5
7FD
100
AcDbEntity
  8
BEZUGSACHSEN
100
AcDbSpline
 62
7
  6
CONTINUOUS
 70
0
 71
3
 72
21
 73
17
 74
0
 42
0.0000001
 43
0.0000001
 44
0.0000000001
 40
0.0
 40
0.0
 40
0.0
 40
0.0
 40
0.0615051333
 40
0.1231718031
 40
0.1851436903
 40
0.2475080782
 40
0.310295763
 40
0.3734717029
 40
0.5
 40
0.6265282971
 40
0.689704237
 40
0.7524919218
 40
0.8148563097
 40
0.8768281969
 40
0.9384948667
 40
1.0
 40
1.0
 40
1.0
 40
1.0
 10
203.2430015449
 20
133.9756777998
 30
0.0
 10
203.2430015449
 20
133.6163665784
 30
0.0
 10
203.3165950352
 20
132.8946717808
 30
0.0
 10
203.6433146691
 20
131.856202228
 30
0.0
 10
204.1735321038
 20
130.8992750275
 30
0.0
 10
204.8864603125
 20
130.0612721486
 30
0.0
 10
205.7548622032
 20
129.3740241473
 30
0.0
 10
207.0724803474
 20
128.6939333147
 30
0.0
 10
208.9336015449
 20
128.3356397333
 30
0.0
 10
210.7947227424
 20
128.6939333147
 30
0.0
 10
212.1123408867
 20
129.3740241473
 30
0.0
 10
212.9807427773
 20
130.0612721486
 30
0.0
 10
213.693670986
 20
130.8992750275
 30
0.0
 10
214.2238884207
 20
131.856202228
 30
0.0
 10
214.5506080546
 20
132.8946717808
 30
0.0
 10
214.6242015449
 20
133.6163665784
 30
0.0
 10
214.6242015449
 20
133.9756777998
 30
0.0
  0
SPLINE
  5
7FE
100
AcDbEntity
  8
KONSTRUKTIONSELEMENTE
100
AcDbSpline
 62
7
  6
CONTINUOUS
 70
0
 71
3
 72
15
 73
11
 74
0
 42
0.0000001
 43
0.0000001
 44
0.0000000001
 40
0.0
 40
0.0
 40
0.0
 40
0.0
 40
0.1069982
 40
0.2203176601
 40
0.3397977279
 40
0.4649271459
 40
0.5948381365
 40
0.7283315371
 40
0.8639342933
 40
1.0
 40
1.0
 40
1.0
 40
1.0
 10
220.9336015449
 20
128.5954397568
 30
0.0
 10
220.9336015449
 20
128.0048191478
 30
0.0
 10
220.7975396144
 20
126.7852634287
 30
0.0
 10
220.1995046615
 20
124.9939496826
 30
0.0
 10
219.2002863711
 20
123.2738586776
 30
0.0
 10
217.8225881166
 20
121.715095084
 30
0.0
 10
216.1129725537
 20
120.3992469369
 30
0.0
 10
214.1385510244
 20
119.3953291199
 30
0.0
 10
211.9840846614
 20
118.7537684157
 30
0.0
 10
210.4844810198
 20
118.5864230459
 30
0.0
 10
209.7336015449
 20
118.5694767787
 30
0.0
  0
SPLINE
  5
7FF
100
AcDbEntity
  8
0
100
AcDbSpline
 62
7
  6
CONTINUOUS
 70
0
 71
3
 72
8
 73
4
 74
0
 42
0.0000001
 43
0.0000001
 44
0.0000000001
 40
0.0
 40
0.0
 40
0.0
 40
0.0
 40
1.0
 40
1.0
 40
1.0
 40
1.0
 10
196.9336015449
 20
140.7713358477
 30
0.0
 10
196.9336015449
 20
140.8112947512
 30
0.0
 10
196.9450438093
 20
140.8525787628
 30
0.0
 10
196.9655432714
 20
140.8868787049
 30
0.0
  0
SPLINE
  5
800
100
AcDbEntity
  8
RUNDUNGEN
100
AcDbSpline
 62
7
  6
CONTINUOUS
 70
0
 71
3
 72
8
 73
4
 74
0
 42
0.0000001
 43
0.0000001
 44
0.0000000001
 40
0.0
 40
0.0
 40
0.0
 40
0.0
 40
1.0
 40
1.0
 40
1.0
 40
1.0
 10
220.9336015449
 20
140.7713358477
 30
0.0
 10
220.9336015449
 20
140.8112947512
 30
0.0
 10
220.9221592805
 20
140.8525787628
 30
0.0
 10
220.9016598184
 20
140.8868787049
 30
0.0
  0
SPLINE
  5
801
100
AcDbEntity
  8
0
100
AcDbSpline
 62
7
  6
CONTINUOUS
 70
0
 71
3
 72
15
 73
11
 74
0
 42
0.0000001
 43
0.0000001
 44
0.0000000001
 40
0.0
 40
0.0
 40
0.0
 40
0.0
 40
0.1069982
 40
0.2203176601
 40
0.3397977279
 40
0.4649271459
 40
0.5948381365
 40
0.7283315371
 40
0.8639342933
 40
1.0
 40
1.0
 40
1.0
 40
1.0
 10
196.9336015449
 20
128.5954397568
 30
0.0
 10
196.9336015449
 20
128.0048191478
 30
0.0
 10
197.0696634754
 20
126.7852634287
 30
0.0
 10
197.6676984283
 20
124.9939496826
 30
0.0
 10
198.6669167187
 20
123.2738586776
 30
0.0
 10
200.0446149732
 20
121.715095084
 30
0.0
 10
201.7542305361
 20
120.3992469369
 30
0.0
 10
203.7286520654
 20
119.3953291199
 30
0.0
 10
205.8831184284
 20
118.7537684157
 30
0.0
 10
207.38272207
 20
118.5864230459
 30
0.0
 10
208.1336015449
 20
118.5694767787
 30
0.0
  0
SPLINE
  5
802
100
AcDbEntity
  8
0
100
AcDbSpline
 62
7
  6
CONTINUOUS
 70
0
 71
3
 72
11
 73
7
 74
0
 42
0.0000001
 43
0.0000001
 44
0.0000000001
 40
0.0
 40
0.0
 40
0.0
 40
0.0
 40
0.2502026974
 40
0.5000000008
 40
0.7497973041
 40
1.0
 40
1.0
 40
1.0
 40
1.0
 10
210.9386102008
 20
182.9641692574
 30
0.0
 10
211.1071441241
 20
181.906808948
 30
0.0
 10
211.367707666
 20
179.7806000367
 30
0.0
 10
211.5015123119
 20
176.5711694991
 30
0.0
 10
211.3677076674
 20
173.3617389674
 30
0.0
 10
211.1071441231
 20
171.2355300636
 30
0.0
 10
210.9386102008
 20
170.1781697603
 30
0.0
  0
SPLINE
  5
803
100
AcDbEntity
  8
0
100
AcDbSpline
 62
7
  6
CONTINUOUS
 70
0
 71
3
 72
15
 73
11
 74
0
 42
0.0000001
 43
0.0000001
 44
0.0000000001
 40
0.0
 40
0.0
 40
0.0
 40
0.0
 40
0.0530113035
 40
0.0874033997
 40
0.1278679807
 40
0.2272805288
 40
0.3500446435
 40
0.49297177
 40
0.6520020624
 40
1.0
 40
1.0
 40
1.0
 40
1.0
 10
196.9655432714
 20
140.8868787049
 30
0.0
 10
196.998803337
 20
140.9425298395
 30
0.0
 10
197.0898585028
 20
141.0106452184
 30
0.0
 10
197.2340447693
 20
141.0692912908
 30
0.0
 10
197.440968097
 20
141.1239330207
 30
0.0
 10
197.7614225963
 20
141.1588958929
 30
0.0
 10
198.2084382698
 20
141.1590983898
 30
0.0
 10
198.7267423976
 20
141.1186946766
 30
0.0
 10
199.5144014974
 20
141.0095451489
 30
0.0
 10
200.1215773103
 20
140.8779755667
 30
0.0
 10
200.5336015449
 20
140.7713358477
 30
0.0
  0
SPLINE
  5
804
100
AcDbEntity
  8
0
100
AcDbSpline
 62
7
  6
CONTINUOUS
 70
0
 71
3
 72
11
 73
7
 74
0
 42
0.0000001
 43
0.0000001
 44
0.0000000001
 40
0.0
 40
0.0
 40
0.0
 40
0.0
 40
0.2517747099
 40
0.5000000008
 40
0.7482252915
 40
1.0
 40
1.0
 40
1.0
 40
1.0
 10
210.9386102008
 20
190.3461695088
 30
0.0
 10
211.1054811741
 20
189.7417258231
 30
0.0
 10
211.3663320675
 20
188.5199792375
 30
0.0
 10
211.501914696
 20
186.6551693775
 30
0.0
 10
211.3663320689
 20
184.7903595207
 30
0.0
 10
211.1054811732
 20
183.5686129397
 30
0.0
 10
210.9386102008
 20
182.9641692574
 30
0.0
  0
SPLINE
  5
805
100
AcDbEntity
  8
RUNDUNGEN
100
AcDbSpline
 62
7
  6
CONTINUOUS
 70
0
 71
3
 72
15
 73
11
 74
0
 42
0.0000001
 43
0.0000001
 44
0.0000000001
 40
0.0
 40
0.0
 40
0.0
 40
0.0
 40
0.0530113035
 40
0.0874033997
 40
0.1278679807
 40
0.2272805288
 40
0.3500446435
 40
0.49297177
 40
0.6520020624
 40
1.0
 40
1.0
 40
1.0
 40
1.0
 10
220.9016598184
 20
140.8868787049
 30
0.0
 10
220.8683997528
 20
140.9425298395
 30
0.0
 10
220.777344587
 20
141.0106452184
 30
0.0
 10
220.6331583206
 20
141.0692912908
 30
0.0
 10
220.4262349928
 20
141.1239330207
 30
0.0
 10
220.1057804935
 20
141.1588958929
 30
0.0
 10
219.6587648201
 20
141.1590983898
 30
0.0
 10
219.1404606922
 20
141.1186946766
 30
0.0
 10
218.3528015924
 20
141.0095451489
 30
0.0
 10
217.7456257796
 20
140.8779755667
 30
0.0
 10
217.3336015449
 20
140.7713358477
 30
0.0
  0
SPLINE
  5
806
100
AcDbEntity
  8
0
100
AcDbSpline
 62
7
  6
CONTINUOUS
 70
0
 71
3
 72
9
 73
5
 74
0
 42
0.0000001
 43
0.0000001
 44
0.0000000001
 40
0.0
 40
0.0
 40
0.0
 40
0.0
 40
0.213435322
 40
1.0
 40
1.0
 40
1.0
 40
1.0
 10
203.0104467339
 20
155.046767245
 30
0.0
 10
203.0394594614
 20
155.050964847
 30
0.0
 10
203.1768960726
 20
155.0603558951
 30
0.0
 10
203.31462775
 20
155.0352429937
 30
0.0
 10
203.4188956626
 20
155.0069716562
 30
0.0
  0
SPLINE
  5
807
100
AcDbEntity
  8
RUNDUNGEN
100
AcDbSpline
 62
7
  6
CONTINUOUS
 70
0
 71
3
 72
9
 73
5
 74
0
 42
0.0000001
 43
0.0000001
 44
0.0000000001
 40
0.0
 40
0.0
 40
0.0
 40
0.0
 40
0.213435322
 40
1.0
 40
1.0
 40
1.0
 40
1.0
 10
214.856756356
 20
155.046767245
 30
0.0
 10
214.8277436284
 20
155.050964847
 30
0.0
 10
214.6903070172
 20
155.0603558951
 30
0.0
 10
214.5525753398
 20
155.0352429937
 30
0.0
 10
214.4483074273
 20
155.0069716562
 30
0.0
  0
SPLINE
  5
808
100
AcDbEntity
  8
BEZUGSACHSEN
100
AcDbSpline
 62
7
  6
CONTINUOUS
 70
0
 71
3
 72
19
 73
15
 74
0
 42
0.0000001
 43
0.0000001
 44
0.0000000001
 40
0.0
 40
0.0
 40
0.0
 40
0.0
 40
0.0615637168
 40
0.1233167015
 40
0.1853986847
 40
0.2478631715
 40
0.3734162268
 40
0.5
 40
0.6265837732
 40
0.7521368285
 40
0.8146013153
 40
0.8766832985
 40
0.9384362832
 40
1.0
 40
1.0
 40
1.0
 40
1.0
 10
214.5964867134
 20
134.1030330246
 30
0.0
 10
214.5621085707
 20
134.4385014023
 30
0.0
 10
214.4287827786
 20
135.1056311052
 30
0.0
 10
214.0431310498
 20
136.0512895587
 30
0.0
 10
213.4847157801
 20
136.9128679066
 30
0.0
 10
212.5362177985
 20
137.910454925
 30
0.0
 10
211.0185372044
 20
138.8108080954
 30
0.0
 10
208.9336015449
 20
139.182685601
 30
0.0
 10
206.8486658854
 20
138.8108080954
 30
0.0
 10
205.3309852914
 20
137.910454925
 30
0.0
 10
204.3824873097
 20
136.9128679066
 30
0.0
 10
203.82407204
 20
136.0512895587
 30
0.0
 10
203.4384203112
 20
135.1056311052
 30
0.0
 10
203.3050945191
 20
134.4385014023
 30
0.0
 10
203.2707163764
 20
134.1030330246
 30
0.0
  0
SPLINE
  5
809
100
AcDbEntity
  8
KONSTRUKTIONSELEMENTE
100
AcDbSpline
 62
7
  6
CONTINUOUS
 70
0
 71
3
 72
15
 73
11
 74
0
 42
0.0000001
 43
0.0000001
 44
0.0000000001
 40
0.0
 40
0.0
 40
0.0
 40
0.0
 40
0.1248309587
 40
0.2497423057
 40
0.3747543653
 40
0.4998706216
 40
0.6250805387
 40
0.7503042645
 40
0.8753748171
 40
1.0
 40
1.0
 40
1.0
 40
1.0
 10
209.7336015449
 20
110.4302796101
 30
0.0
 10
210.4097850308
 20
110.4150191237
 30
0.0
 10
211.7690781503
 20
110.5137254979
 30
0.0
 10
213.7406915649
 20
111.0464996511
 30
0.0
 10
215.5774477084
 20
111.9443995498
 30
0.0
 10
217.2131856735
 20
113.1728357347
 30
0.0
 10
218.5934635817
 20
114.6835760506
 30
0.0
 10
219.6772111248
 20
116.4184601119
 30
0.0
 10
220.4391207523
 20
118.3119669145
 30
0.0
 10
220.7281097532
 20
119.6409508293
 30
0.0
 10
220.8183026635
 20
120.3101408579
 30
0.0
  0
SPLINE
  5
80A
100
AcDbEntity
  8
0
100
AcDbSpline
 62
7
  6
CONTINUOUS
 70
0
 71
3
 72
20
 73
16
 74
0
 42
0.0000001
 43
0.0000001
 44
0.0000000001
 40
0.0
 40
0.0
 40
0.0
 40
0.0
 40
0.2531700581
 40
0.3790306239
 40
0.5037623694
 40
0.5657472621
 40
0.6273913614
 40
0.6887099351
 40
0.7497977698
 40
0.8109226837
 40
0.841868911
 40
0.873093306
 40
0.9046132565
 40
0.936355713
 40
1.0
 40
1.0
 40
1.0
 40
1.0
 10
206.3176398203
 20
119.6641178928
 30
0.0
 10
205.4177098838
 20
119.8305019569
 30
0.0
 10
204.0905288851
 20
120.2727953565
 30
0.0
 10
202.554976632
 20
121.2653942964
 30
0.0
 10
201.7369897486
 20
122.0603321621
 30
0.0
 10
201.2188130369
 20
122.7964431031
 30
0.0
 10
200.9156522984
 20
123.3954685884
 30
0.0
 10
200.7223361922
 20
124.0365610227
 30
0.0
 10
200.6749037796
 20
124.7050289552
 30
0.0
 10
200.8075557197
 20
125.2567991751
 30
0.0
 10
201.0433898112
 20
125.6392518448
 30
0.0
 10
201.2854013982
 20
125.880814406
 30
0.0
 10
201.5792481217
 20
126.0606339729
 30
0.0
 10
202.0140485468
 20
126.2146989375
 30
0.0
 10
202.3626612158
 20
126.246532523
 30
0.0
 10
202.59272826
 20
126.246532523
 30
0.0
  0
SPLINE
  5
80B
100
AcDbEntity
  8
RUNDUNGEN
100
AcDbSpline
 62
7
  6
CONTINUOUS
 70
0
 71
3
 72
20
 73
16
 74
0
 42
0.0000001
 43
0.0000001
 44
0.0000000001
 40
0.0
 40
0.0
 40
0.0
 40
0.0
 40
0.2531700581
 40
0.3790306239
 40
0.5037623694
 40
0.5657472621
 40
0.6273913614
 40
0.6887099351
 40
0.7497977698
 40
0.8109226837
 40
0.841868911
 40
0.873093306
 40
0.9046132565
 40
0.936355713
 40
1.0
 40
1.0
 40
1.0
 40
1.0
 10
211.5495632695
 20
119.6641178928
 30
0.0
 10
212.449493206
 20
119.8305019569
 30
0.0
 10
213.7766742047
 20
120.2727953565
 30
0.0
 10
215.3122264578
 20
121.2653942964
 30
0.0
 10
216.1302133412
 20
122.0603321621
 30
0.0
 10
216.6483900529
 20
122.7964431031
 30
0.0
 10
216.9515507915
 20
123.3954685884
 30
0.0
 10
217.1448668976
 20
124.0365610227
 30
0.0
 10
217.1922993103
 20
124.7050289552
 30
0.0
 10
217.0596473701
 20
125.2567991751
 30
0.0
 10
216.8238132786
 20
125.6392518448
 30
0.0
 10
216.5818016916
 20
125.880814406
 30
0.0
 10
216.2879549681
 20
126.0606339729
 30
0.0
 10
215.853154543
 20
126.2146989375
 30
0.0
 10
215.504541874
 20
126.246532523
 30
0.0
 10
215.2744748299
 20
126.246532523
 30
0.0
  0
SPLINE
  5
80C
100
AcDbEntity
  8
0
100
AcDbSpline
 62
7
  6
CONTINUOUS
 70
0
 71
3
 72
15
 73
11
 74
0
 42
0.0000001
 43
0.0000001
 44
0.0000000001
 40
0.0
 40
0.0
 40
0.0
 40
0.0
 40
0.3479979376
 40
0.50702823
 40
0.6499553565
 40
0.7727194712
 40
0.8721320193
 40
0.9125966003
 40
0.9469886965
 40
1.0
 40
1.0
 40
1.0
 40
1.0
 10
203.5336015449
 20
145.7904336702
 30
0.0
 10
203.1215773103
 20
145.8970733891
 30
0.0
 10
202.5144014974
 20
146.0286429713
 30
0.0
 10
201.7267423976
 20
146.137792499
 30
0.0
 10
201.2084382698
 20
146.1781962122
 30
0.0
 10
200.7614225963
 20
146.1779937154
 30
0.0
 10
200.440968097
 20
146.1430308431
 30
0.0
 10
200.2340447693
 20
146.0883891132
 30
0.0
 10
200.0898585028
 20
146.0297430408
 30
0.0
 10
199.998803337
 20
145.9616276619
 30
0.0
 10
199.9655432714
 20
145.9059765273
 30
0.0
  0
SPLINE
  5
80D
100
AcDbEntity
  8
0
100
AcDbSpline
 62
7
  6
CONTINUOUS
 70
0
 71
3
 72
15
 73
11
 74
0
 42
0.0000001
 43
0.0000001
 44
0.0000000001
 40
0.0
 40
0.0
 40
0.0
 40
0.0
 40
0.123850099
 40
0.2486155812
 40
0.374107491
 40
0.5
 40
0.625892509
 40
0.7513844188
 40
0.876149901
 40
1.0
 40
1.0
 40
1.0
 40
1.0
 10
201.2962112016
 20
120.7878152075
 30
0.0
 10
201.7563313216
 20
120.2404167886
 30
0.0
 10
202.8072030829
 20
119.2421233928
 30
0.0
 10
204.6748383498
 20
118.1245385259
 30
0.0
 10
206.7511077071
 20
117.4311745226
 30
0.0
 10
208.9336015449
 20
117.196460739
 30
0.0
 10
211.1160953827
 20
117.4311745226
 30
0.0
 10
213.19236474
 20
118.1245385259
 30
0.0
 10
215.0600000069
 20
119.2421233928
 30
0.0
 10
216.1108717683
 20
120.2404167886
 30
0.0
 10
216.5709918882
 20
120.7878152075
 30
0.0
  0
SPLINE
  5
80E
100
AcDbEntity
  8
0
100
AcDbSpline
 62
7
  6
CONTINUOUS
 70
0
 71
3
 72
15
 73
11
 74
0
 42
0.0000001
 43
0.0000001
 44
0.0000000001
 40
0.0
 40
0.0
 40
0.0
 40
0.0
 40
0.1249484361
 40
0.249985754
 40
0.3751374232
 40
0.5004074281
 40
0.625753134
 40
0.7510313972
 40
0.875941774
 40
1.0
 40
1.0
 40
1.0
 40
1.0
 10
208.1336015449
 20
110.4302796101
 30
0.0
 10
207.3847978234
 20
110.4133801897
 30
0.0
 10
205.8782175446
 20
110.5382958282
 30
0.0
 10
203.7111279331
 20
111.1965113094
 30
0.0
 10
201.7276930426
 20
112.2954202121
 30
0.0
 10
200.0146105464
 20
113.7827180262
 30
0.0
 10
198.6393524509
 20
115.5869124873
 30
0.0
 10
197.6475932571
 20
117.6237225057
 30
0.0
 10
197.0597997428
 20
119.8014930283
 30
0.0
 10
196.9336015449
 20
121.2973970463
 30
0.0
 10
196.9336015449
 20
122.0410551409
 30
0.0
  0
SPLINE
  5
80F
100
AcDbEntity
  8
RUNDUNGEN
100
AcDbSpline
 62
7
  6
CONTINUOUS
 70
0
 71
3
 72
15
 73
11
 74
0
 42
0.0000001
 43
0.0000001
 44
0.0000000001
 40
0.0
 40
0.0
 40
0.0
 40
0.0
 40
0.3479979376
 40
0.50702823
 40
0.6499553565
 40
0.7727194712
 40
0.8721320193
 40
0.9125966003
 40
0.9469886965
 40
1.0
 40
1.0
 40
1.0
 40
1.0
 10
214.3336015449
 20
145.7904336702
 30
0.0
 10
214.7456257796
 20
145.8970733891
 30
0.0
 10
215.3528015924
 20
146.0286429713
 30
0.0
 10
216.1404606922
 20
146.137792499
 30
0.0
 10
216.6587648201
 20
146.1781962122
 30
0.0
 10
217.1057804935
 20
146.1779937154
 30
0.0
 10
217.4262349928
 20
146.1430308431
 30
0.0
 10
217.6331583206
 20
146.0883891132
 30
0.0
 10
217.777344587
 20
146.0297430408
 30
0.0
 10
217.8683997528
 20
145.9616276619
 30
0.0
 10
217.9016598184
 20
145.9059765273
 30
0.0
  0
SPLINE
  5
810
100
AcDbEntity
  8
BEZUGSACHSEN
100
AcDbSpline
 62
7
  6
CONTINUOUS
 70
0
 71
3
 72
21
 73
17
 74
0
 42
0.0000001
 43
0.0000001
 44
0.0000000001
 40
0.0
 40
0.0
 40
0.0
 40
0.0
 40
0.0615051333
 40
0.1231718031
 40
0.1851436903
 40
0.2475080782
 40
0.310295763
 40
0.3734717029
 40
0.5
 40
0.6265282971
 40
0.689704237
 40
0.7524919218
 40
0.8148563097
 40
0.8768281969
 40
0.9384948667
 40
1.0
 40
1.0
 40
1.0
 40
1.0
 10
214.6242015449
 20
133.9756777998
 30
0.0
 10
214.6242015449
 20
134.3349890212
 30
0.0
 10
214.5506080546
 20
135.0566838188
 30
0.0
 10
214.2238884207
 20
136.0951533716
 30
0.0
 10
213.693670986
 20
137.0520805721
 30
0.0
 10
212.9807427773
 20
137.8900834509
 30
0.0
 10
212.1123408867
 20
138.5773314523
 30
0.0
 10
210.7947227424
 20
139.2574222848
 30
0.0
 10
208.9336015449
 20
139.6157158663
 30
0.0
 10
207.0724803474
 20
139.2574222848
 30
0.0
 10
205.7548622032
 20
138.5773314523
 30
0.0
 10
204.8864603125
 20
137.8900834509
 30
0.0
 10
204.1735321038
 20
137.0520805721
 30
0.0
 10
203.6433146691
 20
136.0951533716
 30
0.0
 10
203.3165950352
 20
135.0566838188
 30
0.0
 10
203.2430015449
 20
134.3349890212
 30
0.0
 10
203.2430015449
 20
133.9756777998
 30
0.0
  0
SPLINE
  5
811
100
AcDbEntity
  8
0
100
AcDbSpline
 62
7
  6
CONTINUOUS
 70
0
 71
3
 72
11
 73
7
 74
0
 42
0.0000001
 43
0.0000001
 44
0.0000000001
 40
0.0
 40
0.0
 40
0.0
 40
0.0
 40
0.2517747099
 40
0.5000000008
 40
0.7482252915
 40
1.0
 40
1.0
 40
1.0
 40
1.0
 10
206.9285928891
 20
190.3461695088
 30
0.0
 10
206.7617219157
 20
189.7417258231
 30
0.0
 10
206.5008710223
 20
188.5199792375
 30
0.0
 10
206.3652883938
 20
186.6551693775
 30
0.0
 10
206.500871021
 20
184.7903595207
 30
0.0
 10
206.7617219166
 20
183.5686129397
 30
0.0
 10
206.9285928891
 20
182.9641692574
 30
0.0
  0
SPLINE
  5
812
100
AcDbEntity
  8
0
100
AcDbSpline
 62
7
  6
CONTINUOUS
 70
0
 71
3
 72
11
 73
7
 74
0
 42
0.0000001
 43
0.0000001
 44
0.0000000001
 40
0.0
 40
0.0
 40
0.0
 40
0.0
 40
0.2502026974
 40
0.5000000008
 40
0.7497973041
 40
1.0
 40
1.0
 40
1.0
 40
1.0
 10
206.9285928891
 20
182.9641692574
 30
0.0
 10
206.7600589658
 20
181.906808948
 30
0.0
 10
206.4994954238
 20
179.7806000367
 30
0.0
 10
206.3656907779
 20
176.5711694991
 30
0.0
 10
206.4994954224
 20
173.3617389674
 30
0.0
 10
206.7600589667
 20
171.2355300636
 30
0.0
 10
206.9285928891
 20
170.1781697603
 30
0.0
  0
SPLINE
  5
813
100
AcDbEntity
  8
BEZUGSACHSEN
100
AcDbSpline
 62
7
  6
CONTINUOUS
 70
0
 71
3
 72
19
 73
15
 74
0
 42
0.0000001
 43
0.0000001
 44
0.0000000001
 40
0.0
 40
0.0
 40
0.0
 40
0.0
 40
0.1778943797
 40
0.3545422968
 40
0.5217772774
 40
0.6718947819
 40
0.7383939079
 40
0.7982017348
 40
0.8507138518
 40
0.8954853486
 40
0.932267156
 40
0.9611604064
 40
0.9829547124
 40
1.0
 40
1.0
 40
1.0
 40
1.0
 10
326.5101542479
 20
82.9809797819
 30
0.0
 10
326.2479986314
 20
83.2342026624
 30
0.0
 10
325.7359764899
 20
83.7497992269
 30
0.0
 10
325.0130001281
 20
84.5377007564
 30
0.0
 10
324.3603411645
 20
85.3117003721
 30
0.0
 10
323.8827252444
 20
85.9371279733
 30
0.0
 10
323.5618920706
 20
86.4039874412
 30
0.0
 10
323.3664233489
 20
86.7139993085
 30
0.0
 10
323.2083533009
 20
86.9945764751
 30
0.0
 10
323.08940064
 20
87.242420047
 30
0.0
 10
323.0103010308
 20
87.4550071517
 30
0.0
 10
322.9720751663
 20
87.6308231338
 30
0.0
 10
322.9734129663
 20
87.7718347619
 30
0.0
 10
323.0113171117
 20
87.8470788914
 30
0.0
 10
323.0364365059
 20
87.8713414498
 30
0.0
  0
SPLINE
  5
814
100
AcDbEntity
  8
RUNDUNGEN
100
AcDbSpline
 62
7
  6
CONTINUOUS
 70
0
 71
3
 72
15
 73
11
 74
0
 42
0.0000001
 43
0.0000001
 44
0.0000000001
 40
0.0
 40
0.0
 40
0.0
 40
0.0
 40
0.0242383956
 40
0.0548387036
 40
0.13569646
 40
0.2416533658
 40
0.3694892989
 40
0.5147576498
 40
0.6721861923
 40
1.0
 40
1.0
 40
1.0
 40
1.0
 10
375.1036951238
 20
43.4195664445
 30
0.0
 10
375.1036951238
 20
43.4580312837
 30
0.0
 10
375.0911558459
 20
43.5449315326
 30
0.0
 10
375.0278944363
 20
43.7511363693
 30
0.0
 10
374.8754246346
 20
44.0625037124
 30
0.0
 10
374.6131176935
 20
44.4875546226
 30
0.0
 10
374.262911408
 20
44.9772165707
 30
0.0
 10
373.8381809603
 20
45.5126339746
 30
0.0
 10
373.184280883
 20
46.2702323292
 30
0.0
 10
372.6494388401
 20
46.8254721536
 30
0.0
 10
372.275267999
 20
47.1868934325
 30
0.0
  0
SPLINE
  5
815
100
AcDbEntity
  8
RUNDUNGEN
100
AcDbSpline
 62
7
  6
CONTINUOUS
 70
0
 71
3
 72
12
 73
8
 74
0
 42
0.0000001
 43
0.0000001
 44
0.0000000001
 40
0.0
 40
0.0
 40
0.0
 40
0.0
 40
0.0611670511
 40
0.1416527351
 40
0.3611634952
 40
0.6520783701
 40
1.0
 40
1.0
 40
1.0
 40
1.0
 10
368.0326273119
 20
41.2038928162
 30
0.0
 10
368.0326273119
 20
41.2522172752
 30
0.0
 10
368.0129077231
 20
41.3637502301
 30
0.0
 10
367.9172975243
 20
41.6329700384
 30
0.0
 10
367.691495574
 20
42.0442966085
 30
0.0
 10
367.3112122429
 20
42.6057855931
 30
0.0
 10
367.0005790557
 20
43.0042130631
 30
0.0
 10
366.8265193378
 20
43.2169522572
 30
0.0
  0
SPLINE
  5
816
100
AcDbEntity
  8
RUNDUNGEN
100
AcDbSpline
 62
7
  6
CONTINUOUS
 70
0
 71
3
 72
12
 73
8
 74
0
 42
0.0000001
 43
0.0000001
 44
0.0000000001
 40
0.0
 40
0.0
 40
0.0
 40
0.0
 40
0.3828843386
 40
0.6764082435
 40
0.7880579935
 40
0.8770244361
 40
1.0
 40
1.0
 40
1.0
 40
1.0
 10
318.4066878037
 20
84.8414402158
 30
0.0
 10
318.366311379
 20
84.870092622
 30
0.0
 10
318.2933399898
 20
84.9184788123
 30
0.0
 10
318.2033106311
 20
84.9667490725
 30
0.0
 10
318.142472251
 20
84.9877418114
 30
0.0
 10
318.1020560168
 20
84.9958990209
 30
0.0
 10
318.0711192804
 20
84.9910620722
 30
0.0
 10
318.0596851791
 20
84.9800111176
 30
0.0
  0
SPLINE
  5
817
100
AcDbEntity
  8
RUNDUNGEN
100
AcDbSpline
 62
7
  6
CONTINUOUS
 70
0
 71
3
 72
12
 73
8
 74
0
 42
0.0000001
 43
0.0000001
 44
0.0000000001
 40
0.0
 40
0.0
 40
0.0
 40
0.0
 40
0.2854603788
 40
0.5743181109
 40
0.8242147096
 40
0.923084168
 40
1.0
 40
1.0
 40
1.0
 40
1.0
 10
331.6837468038
 20
86.1691367047
 30
0.0
 10
331.5873652401
 20
86.2869361384
 30
0.0
 10
331.3831613608
 20
86.5156344222
 30
0.0
 10
331.0687161211
 20
86.8229065724
 30
0.0
 10
330.8082789128
 20
87.0425586766
 30
0.0
 10
330.621417118
 20
87.1715557521
 30
0.0
 10
330.5394709628
 20
87.2177499932
 30
0.0
 10
330.5019775002
 20
87.2343666225
 30
0.0
  0
SPLINE
  5
818
100
AcDbEntity
  8
RUNDUNGEN
100
AcDbSpline
 62
7
  6
CONTINUOUS
 70
0
 71
3
 72
9
 73
5
 74
0
 42
0.0000001
 43
0.0000001
 44
0.0000000001
 40
0.0
 40
0.0
 40
0.0
 40
0.0
 40
0.5394967105
 40
1.0
 40
1.0
 40
1.0
 40
1.0
 10
367.5102133964
 20
51.7895827368
 30
0.0
 10
367.2345625845
 20
52.0558409751
 30
0.0
 10
366.7101592488
 20
52.535562778
 30
0.0
 10
366.1546769247
 20
52.9800775749
 30
0.0
 10
365.8878942457
 20
53.1693951222
 30
0.0
  0
SPLINE
  5
819
100
AcDbEntity
  8
0
100
AcDbSpline
 62
7
  6
CONTINUOUS
 70
0
 71
3
 72
11
 73
7
 74
0
 42
0.0000001
 43
0.0000001
 44
0.0000000001
 40
0.0
 40
0.0
 40
0.0
 40
0.0
 40
0.3277429657
 40
0.6065413602
 40
0.8313357058
 40
1.0
 40
1.0
 40
1.0
 40
1.0
 10
353.242286904
 20
57.5952476016
 30
0.0
 10
353.0303104588
 20
57.7565716004
 30
0.0
 10
352.6316156963
 20
58.0468306362
 30
0.0
 10
352.0621372864
 20
58.411949666
 30
0.0
 10
351.5786231198
 20
58.6669819287
 30
0.0
 10
351.2761128972
 20
58.7788295567
 30
0.0
 10
351.1418374049
 20
58.8064487052
 30
0.0
  0
SPLINE
  5
81A
100
AcDbEntity
  8
0
100
AcDbSpline
 62
7
  6
CONTINUOUS
 70
0
 71
3
 72
10
 73
6
 74
0
 42
0.0000001
 43
0.0000001
 44
0.0000000001
 40
0.0
 40
0.0
 40
0.0
 40
0.0
 40
0.311819073
 40
0.5756258749
 40
1.0
 40
1.0
 40
1.0
 40
1.0
 10
351.1268204982
 20
58.8094369575
 30
0.0
 10
351.0842010614
 20
58.8176283445
 30
0.0
 10
351.0042980649
 20
58.8282640931
 30
0.0
 10
350.8653535696
 20
58.8248446186
 30
0.0
 10
350.7692143747
 20
58.786851066
 30
0.0
 10
350.7267486201
 20
58.7457981342
 30
0.0
  0
SPLINE
  5
81B
100
AcDbEntity
  8
0
100
AcDbSpline
 62
7
  6
CONTINUOUS
 70
0
 71
3
 72
9
 73
5
 74
0
 42
0.0000001
 43
0.0000001
 44
0.0000000001
 40
0.0
 40
0.0
 40
0.0
 40
0.0
 40
0.2662079322
 40
1.0
 40
1.0
 40
1.0
 40
1.0
 10
337.869676408
 20
72.3079398654
 30
0.0
 10
337.8309790079
 20
72.331154452
 30
0.0
 10
337.6849324125
 20
72.4172053921
 30
0.0
 10
337.5360470616
 20
72.4985370165
 30
0.0
 10
337.4248350449
 20
72.5542565641
 30
0.0
  0
SPLINE
  5
81C
100
AcDbEntity
  8
0
100
AcDbSpline
 62
7
  6
CONTINUOUS
 70
0
 71
3
 72
12
 73
8
 74
0
 42
0.0000001
 43
0.0000001
 44
0.0000000001
 40
0.0
 40
0.0
 40
0.0
 40
0.0
 40
0.3579555866
 40
0.636786893
 40
0.7484181776
 40
0.8437856103
 40
1.0
 40
1.0
 40
1.0
 40
1.0
 10
337.4248350449
 20
72.5542565641
 30
0.0
 10
337.2989637125
 20
72.6173207356
 30
0.0
 10
337.0704829001
 20
72.7206538088
 30
0.0
 10
336.7870000987
 20
72.8066719162
 30
0.0
 10
336.596041722
 20
72.8264388557
 30
0.0
 10
336.4534397661
 20
72.8183079284
 30
0.0
 10
336.3558121456
 20
72.7768121568
 30
0.0
 10
336.3116354902
 20
72.7341120817
 30
0.0
  0
SPLINE
  5
81D
100
AcDbEntity
  8
0
100
AcDbSpline
 62
7
  6
CONTINUOUS
 70
0
 71
3
 72
9
 73
5
 74
0
 42
0.0000001
 43
0.0000001
 44
0.0000000001
 40
0.0
 40
0.0
 40
0.0
 40
0.0
 40
0.4519605006
 40
1.0
 40
1.0
 40
1.0
 40
1.0
 10
335.9642579328
 20
73.0937356527
 30
0.0
 10
335.9282761557
 20
73.0589565467
 30
0.0
 10
335.8705475555
 20
72.9586932005
 30
0.0
 10
335.8592687679
 20
72.8464238575
 30
0.0
 10
335.8592687679
 20
72.7857429111
 30
0.0
  0
SPLINE
  5
81E
100
AcDbEntity
  8
0
100
AcDbSpline
 62
7
  6
CONTINUOUS
 70
0
 71
3
 72
9
 73
5
 74
0
 42
0.0000001
 43
0.0000001
 44
0.0000000001
 40
0.0
 40
0.0
 40
0.0
 40
0.0
 40
0.4520427014
 40
1.0
 40
1.0
 40
1.0
 40
1.0
 10
350.4488474702
 20
59.0334978037
 30
0.0
 10
350.4166704343
 20
59.0023912881
 30
0.0
 10
350.3650657797
 20
58.9127338497
 30
0.0
 10
350.3549577822
 20
58.8123513034
 30
0.0
 10
350.3549577822
 20
58.7581006178
 30
0.0
  0
SPLINE
  5
81F
100
AcDbEntity
  8
RUNDUNGEN
100
AcDbSpline
 62
7
  6
CONTINUOUS
 70
0
 71
3
 72
19
 73
15
 74
0
 42
0.0000001
 43
0.0000001
 44
0.0000000001
 40
0.0
 40
0.0
 40
0.0
 40
0.0
 40
0.2004136132
 40
0.38410366
 40
0.5475643595
 40
0.6878859691
 40
0.7486600545
 40
0.802901028
 40
0.8505168258
 40
0.8915232
 40
0.9261405403
 40
0.9548901096
 40
0.9788587824
 40
1.0
 40
1.0
 40
1.0
 40
1.0
 10
317.3726493516
 20
90.8688224601
 30
0.0
 10
317.1053187075
 20
91.1955592058
 30
0.0
 10
316.6023073361
 20
91.8295101834
 30
0.0
 10
315.9179361219
 20
92.7583425808
 30
0.0
 10
315.3452550382
 20
93.61107072
 30
0.0
 10
314.9529887558
 20
94.2720523116
 30
0.0
 10
314.7079143783
 20
94.7510285954
 30
0.0
 10
314.5673635174
 20
95.0636406659
 30
0.0
 10
314.4615366919
 20
95.3456343286
 30
0.0
 10
314.3909195969
 20
95.5958583004
 30
0.0
 10
314.3556119243
 20
95.8135318107
 30
0.0
 10
314.3561754144
 20
95.9986541684
 30
0.0
 10
314.3940431619
 20
96.1517378383
 30
0.0
 10
314.4487799497
 20
96.2327230182
 30
0.0
 10
314.48079086
 20
96.2636828249
 30
0.0
  0
SPLINE
  5
820
100
AcDbEntity
  8
0
100
AcDbSpline
 62
7
  6
CONTINUOUS
 70
0
 71
3
 72
14
 73
10
 74
0
 42
0.0000001
 43
0.0000001
 44
0.0000000001
 40
0.0
 40
0.0
 40
0.0
 40
0.0
 40
0.3720344445
 40
0.5258500159
 40
0.6579516919
 40
0.7688163521
 40
0.8599898398
 40
0.9348806739
 40
1.0
 40
1.0
 40
1.0
 40
1.0
 10
317.7186704889
 20
84.6565942692
 30
0.0
 10
317.5583389108
 20
84.9411598253
 30
0.0
 10
317.3443864983
 20
85.3514755928
 30
0.0
 10
317.1272239353
 20
85.8872053791
 30
0.0
 10
317.0228287162
 20
86.2200769581
 30
0.0
 10
316.9665363402
 20
86.5088459695
 30
0.0
 10
316.9589642915
 20
86.7533374947
 30
0.0
 10
317.0019468084
 20
86.9546993107
 30
0.0
 10
317.0714907807
 20
87.0608239971
 30
0.0
 10
317.1126145762
 20
87.1005399731
 30
0.0
  0
SPLINE
  5
821
100
AcDbEntity
  8
RUNDUNGEN
100
AcDbSpline
 62
7
  6
CONTINUOUS
 70
0
 71
3
 72
12
 73
8
 74
0
 42
0.0000001
 43
0.0000001
 44
0.0000000001
 40
0.0
 40
0.0
 40
0.0
 40
0.0
 40
0.3839151376
 40
0.6784059315
 40
0.7902036726
 40
0.8789455224
 40
1.0
 40
1.0
 40
1.0
 40
1.0
 10
314.6627760845
 20
81.1950966312
 30
0.0
 10
314.6335339757
 20
81.238628314
 30
0.0
 10
314.5842406853
 20
81.3172178714
 30
0.0
 10
314.5353567737
 20
81.4137123657
 30
0.0
 10
314.5144835947
 20
81.478568489
 30
0.0
 10
314.506700792
 20
81.5210737501
 30
0.0
 10
314.5122893822
 20
81.5535209963
 30
0.0
 10
314.5241987064
 20
81.5649924729
 30
0.0
  0
SPLINE
  5
822
100
AcDbEntity
  8
RUNDUNGEN
100
AcDbSpline
 62
7
  6
CONTINUOUS
 70
0
 71
3
 72
11
 73
7
 74
0
 42
0.0000001
 43
0.0000001
 44
0.0000000001
 40
0.0
 40
0.0
 40
0.0
 40
0.0
 40
0.2283935007
 40
0.4975020238
 40
0.7679048038
 40
1.0
 40
1.0
 40
1.0
 40
1.0
 10
318.7647198594
 20
75.6301641486
 30
0.0
 10
318.6589652459
 20
75.7052110149
 30
0.0
 10
318.4407296802
 20
75.885554565
 30
0.0
 10
318.1263661878
 20
76.1880433341
 30
0.0
 10
317.8320737818
 20
76.5129545957
 30
0.0
 10
317.6564321309
 20
76.738547817
 30
0.0
 10
317.5829505558
 20
76.8479372129
 30
0.0
  0
SPLINE
  5
823
100
AcDbEntity
  8
RUNDUNGEN
100
AcDbSpline
 62
7
  6
CONTINUOUS
 70
0
 71
3
 72
9
 73
5
 74
0
 42
0.0000001
 43
0.0000001
 44
0.0000000001
 40
0.0
 40
0.0
 40
0.0
 40
0.0
 40
0.50882034
 40
1.0
 40
1.0
 40
1.0
 40
1.0
 10
363.9746794904
 20
34.1394717467
 30
0.0
 10
363.683073052
 20
34.4211419368
 30
0.0
 10
363.1257748482
 20
34.9912356238
 30
0.0
 10
362.6001925565
 20
35.5908339075
 30
0.0
 10
362.3523603398
 20
35.8937392937
 30
0.0
  0
SPLINE
  5
824
100
AcDbEntity
  8
RUNDUNGEN
100
AcDbSpline
 62
7
  6
CONTINUOUS
 70
0
 71
3
 72
9
 73
5
 74
0
 42
0.0000001
 43
0.0000001
 44
0.0000000001
 40
0.0
 40
0.0
 40
0.0
 40
0.0
 40
0.2218388199
 40
1.0
 40
1.0
 40
1.0
 40
1.0
 10
375.0542440796
 20
31.1100979813
 30
0.0
 10
375.0625262548
 20
31.1181056942
 30
0.0
 10
375.0952115704
 20
31.1593100456
 30
0.0
 10
375.1036951238
 20
31.2146605894
 30
0.0
 10
375.1036951238
 20
31.2550713247
 30
0.0
  0
SPLINE
  5
825
100
AcDbEntity
  8
RUNDUNGEN
100
AcDbSpline
 62
7
  6
CONTINUOUS
 70
0
 71
3
 72
17
 73
13
 74
0
 42
0.0000001
 43
0.0000001
 44
0.0000000001
 40
0.0
 40
0.0
 40
0.0
 40
0.0
 40
0.0189539837
 40
0.0414302201
 40
0.0695939616
 40
0.1044390794
 40
0.195284729
 40
0.3139040609
 40
0.4578061746
 40
0.6232535765
 40
0.8057319941
 40
1.0
 40
1.0
 40
1.0
 40
1.0
 10
371.5187101737
 20
27.6950344718
 30
0.0
 10
371.5031385624
 20
27.6799788866
 30
0.0
 10
371.4602028462
 20
27.6558773316
 30
0.0
 10
371.3799380829
 20
27.646945947
 30
0.0
 10
371.2825229137
 20
27.6596442897
 30
0.0
 10
371.1134224798
 20
27.7094606535
 30
0.0
 10
370.8607413758
 20
27.8313317391
 30
0.0
 10
370.5169636766
 20
28.0435679746
 30
0.0
 10
370.1198147483
 20
28.3296286892
 30
0.0
 10
369.6810835228
 20
28.6811706843
 30
0.0
 10
369.2138549328
 20
29.0883388183
 30
0.0
 10
368.8994092333
 20
29.3825481006
 30
0.0
 10
368.7397340931
 20
29.5367824424
 30
0.0
  0
SPLINE
  5
826
100
AcDbEntity
  8
RUNDUNGEN
100
AcDbSpline
 62
7
  6
CONTINUOUS
 70
0
 71
3
 72
14
 73
10
 74
0
 42
0.0000001
 43
0.0000001
 44
0.0000000001
 40
0.0
 40
0.0
 40
0.0
 40
0.0
 40
0.0563087688
 40
0.1252728761
 40
0.2140080878
 40
0.3253374145
 40
0.4601132286
 40
0.6181517035
 40
1.0
 40
1.0
 40
1.0
 40
1.0
 10
326.7144254862
 20
79.3049305539
 30
0.0
 10
326.6969209416
 20
79.2880174861
 30
0.0
 10
326.6465258406
 20
79.2619334502
 30
0.0
 10
326.5526366768
 20
79.257261605
 30
0.0
 10
326.4377911705
 20
79.278894014
 30
0.0
 10
326.3007770532
 20
79.326660043
 30
0.0
 10
326.1421306862
 20
79.4002578256
 30
0.0
 10
325.8868170022
 20
79.5415501883
 30
0.0
 10
325.6923408517
 20
79.6713070937
 30
0.0
 10
325.5577294791
 20
79.7668316419
 30
0.0
  0
SPLINE
  5
827
100
AcDbEntity
  8
RUNDUNGEN
100
AcDbSpline
 62
7
  6
CONTINUOUS
 70
0
 71
3
 72
9
 73
5
 74
0
 42
0.0000001
 43
0.0000001
 44
0.0000000001
 40
0.0
 40
0.0
 40
0.0
 40
0.0
 40
0.2218259981
 40
1.0
 40
1.0
 40
1.0
 40
1.0
 10
367.9831811033
 20
46.9860280935
 30
0.0
 10
367.9914628349
 20
46.9940349099
 30
0.0
 10
368.0241471292
 20
47.035238815
 30
0.0
 10
368.0326273119
 20
47.0905885587
 30
0.0
 10
368.0326273119
 20
47.1309989908
 30
0.0
  0
SPLINE
  5
828
100
AcDbEntity
  8
BEZUGSACHSEN
100
AcDbSpline
 62
7
  6
CONTINUOUS
 70
0
 71
3
 72
18
 73
14
 74
0
 42
0.0000001
 43
0.0000001
 44
0.0000000001
 40
0.0
 40
0.0
 40
0.0
 40
0.0
 40
0.0189477995
 40
0.0414255061
 40
0.0695837455
 40
0.1044286737
 40
0.1463270042
 40
0.1953351316
 40
0.3139434024
 40
0.4578345841
 40
0.6232793597
 40
0.8057332495
 40
1.0
 40
1.0
 40
1.0
 40
1.0
 10
329.9838719898
 20
80.6788085651
 30
0.0
 10
329.9644030023
 20
80.660003675
 30
0.0
 10
329.9107655232
 20
80.6298363817
 30
0.0
 10
329.8104251516
 20
80.6187069717
 30
0.0
 10
329.6886630408
 20
80.6345517751
 30
0.0
 10
329.5444901622
 20
80.6768929922
 30
0.0
 10
329.3781517503
 20
80.7453177451
 30
0.0
 10
329.1106328982
 20
80.8800060384
 30
0.0
 10
328.7316897848
 20
81.1146794605
 30
0.0
 10
328.235284949
 20
81.4719363956
 30
0.0
 10
327.686863852
 20
81.9114703747
 30
0.0
 10
327.1028185234
 20
82.4204023108
 30
0.0
 10
326.7097609744
 20
82.7881744896
 30
0.0
 10
326.5101542479
 20
82.9809797819
 30
0.0
  0
SPLINE
  5
829
100
AcDbEntity
  8
0
100
AcDbSpline
 62
7
  6
CONTINUOUS
 70
0
 71
3
 72
12
 73
8
 74
0
 42
0.0000001
 43
0.0000001
 44
0.0000000001
 40
0.0
 40
0.0
 40
0.0
 40
0.0
 40
0.1658116919
 40
0.2636046688
 40
0.3758601579
 40
0.6511644036
 40
1.0
 40
1.0
 40
1.0
 40
1.0
 10
320.6481484821
 20
90.5156034825
 30
0.0
 10
320.7060895818
 20
90.5715610442
 30
0.0
 10
320.8282578418
 20
90.6304690583
 30
0.0
 10
321.0097027973
 20
90.6526847075
 30
0.0
 10
321.2463546765
 20
90.6434461855
 30
0.0
 10
321.5967302654
 20
90.5595766059
 30
0.0
 10
321.8793628765
 20
90.4485184378
 30
0.0
 10
322.034292398
 20
90.3798556298
 30
0.0
  0
SPLINE
  5
82A
100
AcDbEntity
  8
RUNDUNGEN
100
AcDbSpline
 62
7
  6
CONTINUOUS
 70
0
 71
3
 72
9
 73
5
 74
0
 42
0.0000001
 43
0.0000001
 44
0.0000000001
 40
0.0
 40
0.0
 40
0.0
 40
0.0
 40
0.2929719602
 40
1.0
 40
1.0
 40
1.0
 40
1.0
 10
368.0326273119
 20
48.5414877658
 30
0.0
 10
368.0326273119
 20
48.5566575793
 30
0.0
 10
368.0353288589
 20
48.6080152905
 30
0.0
 10
368.0557591857
 20
48.661014159
 30
0.0
 10
368.0820782543
 20
48.6864610403
 30
0.0
  0
SPLINE
  5
82B
100
AcDbEntity
  8
RUNDUNGEN
100
AcDbSpline
 62
7
  6
CONTINUOUS
 70
0
 71
3
 72
9
 73
5
 74
0
 42
0.0000001
 43
0.0000001
 44
0.0000000001
 40
0.0
 40
0.0
 40
0.0
 40
0.0
 40
0.5388599213
 40
1.0
 40
1.0
 40
1.0
 40
1.0
 10
367.3255205307
 20
43.4296496291
 30
0.0
 10
367.0523638554
 20
43.6934987165
 30
0.0
 10
366.5322068646
 20
44.1695645139
 30
0.0
 10
365.9815440737
 20
44.6110757912
 30
0.0
 10
365.7168953464
 20
44.7997220519
 30
0.0
  0
SPLINE
  5
82C
100
AcDbEntity
  8
RUNDUNGEN
100
AcDbSpline
 62
7
  6
CONTINUOUS
 70
0
 71
3
 72
15
 73
11
 74
0
 42
0.0000001
 43
0.0000001
 44
0.0000000001
 40
0.0
 40
0.0
 40
0.0
 40
0.0
 40
0.3278135477
 40
0.4852421108
 40
0.6305104969
 40
0.7583464491
 40
0.8643033922
 40
0.9451612484
 40
0.9757615911
 40
1.0
 40
1.0
 40
1.0
 40
1.0
 10
370.8610544366
 20
36.0260770533
 30
0.0
 10
370.4868838925
 20
36.3874980454
 30
0.0
 10
369.9520421048
 20
36.9427375842
 30
0.0
 10
369.2981421877
 20
37.7003356484
 30
0.0
 10
368.8734116308
 20
38.2357531161
 30
0.0
 10
368.5232052202
 20
38.7254151542
 30
0.0
 10
368.2608980936
 20
39.1504662358
 30
0.0
 10
368.1084281066
 20
39.4618338002
 30
0.0
 10
368.0451666334
 20
39.6680388597
 30
0.0
 10
368.0326273119
 20
39.7549391809
 30
0.0
 10
368.0326273119
 20
39.7934040413
 30
0.0
  0
SPLINE
  5
82D
100
AcDbEntity
  8
RUNDUNGEN
100
AcDbSpline
 62
7
  6
CONTINUOUS
 70
0
 71
3
 72
15
 73
11
 74
0
 42
0.0000001
 43
0.0000001
 44
0.0000000001
 40
0.0
 40
0.0
 40
0.0
 40
0.0
 40
0.2012405793
 40
0.3857565799
 40
0.5498973705
 40
0.6908118998
 40
0.8062567829
 40
0.8540605811
 40
0.8952267794
 40
1.0
 40
1.0
 40
1.0
 40
1.0
 10
362.7084175465
 20
48.250176871
 30
0.0
 10
362.5747488179
 20
48.4135494074
 30
0.0
 10
362.3231943921
 20
48.7305833027
 30
0.0
 10
361.9809701254
 20
49.1951148525
 30
0.0
 10
361.6945201824
 20
49.6214373153
 30
0.0
 10
361.4694221931
 20
50.0015075035
 30
0.0
 10
361.328328948
 20
50.2871898427
 30
0.0
 10
361.2525910974
 20
50.4898835443
 30
0.0
 10
361.1984408645
 20
50.6793204533
 30
0.0
 10
361.1835683937
 20
50.8714321632
 30
0.0
 10
361.2626369038
 20
50.9477613929
 30
0.0
  0
SPLINE
  5
82E
100
AcDbEntity
  8
RUNDUNGEN
100
AcDbSpline
 62
7
  6
CONTINUOUS
 70
0
 71
3
 72
12
 73
8
 74
0
 42
0.0000001
 43
0.0000001
 44
0.0000000001
 40
0.0
 40
0.0
 40
0.0
 40
0.0
 40
0.1026154206
 40
0.2170880099
 40
0.4713551709
 40
0.7403400996
 40
1.0
 40
1.0
 40
1.0
 40
1.0
 10
353.5768342633
 20
61.9057182169
 30
0.0
 10
353.1984291699
 20
62.1742466102
 30
0.0
 10
352.414231213
 20
62.7654585146
 30
0.0
 10
350.7675173265
 20
64.1192500802
 30
0.0
 10
348.6391397695
 20
66.0680849153
 30
0.0
 10
346.1631823701
 20
68.6002966243
 30
0.0
 10
344.5864169316
 20
70.399240728
 30
0.0
 10
343.8429193591
 20
71.3079580137
 30
0.0
  0
SPLINE
  5
82F
100
AcDbEntity
  8
RUNDUNGEN
100
AcDbSpline
 62
7
  6
CONTINUOUS
 70
0
 71
3
 72
12
 73
8
 74
0
 42
0.0000001
 43
0.0000001
 44
0.0000000001
 40
0.0
 40
0.0
 40
0.0
 40
0.0
 40
0.2596599004
 40
0.5286448291
 40
0.7829119901
 40
0.8973845794
 40
1.0
 40
1.0
 40
1.0
 40
1.0
 10
350.0413003573
 20
50.940557771
 30
0.0
 10
349.2978027848
 20
51.8492750567
 30
0.0
 10
347.7210373464
 20
53.6482191604
 30
0.0
 10
345.2450799469
 20
56.1804308694
 30
0.0
 10
343.1167023899
 20
58.1292657045
 30
0.0
 10
341.4699885034
 20
59.4830572701
 30
0.0
 10
340.6857905466
 20
60.0742691745
 30
0.0
 10
340.3073854532
 20
60.3427975678
 30
0.0
  0
SPLINE
  5
830
100
AcDbEntity
  8
RUNDUNGEN
100
AcDbSpline
 62
7
  6
CONTINUOUS
 70
0
 71
3
 72
11
 73
7
 74
0
 42
0.0000001
 43
0.0000001
 44
0.0000000001
 40
0.0
 40
0.0
 40
0.0
 40
0.0
 40
0.2321082131
 40
0.5025206982
 40
0.7716173963
 40
1.0
 40
1.0
 40
1.0
 40
1.0
 10
321.1184844617
 20
80.2630007224
 30
0.0
 10
321.191970158
 20
80.1536051915
 30
0.0
 10
321.367620732
 20
79.9280024732
 30
0.0
 10
321.6619184574
 20
79.6030876866
 30
0.0
 10
321.9762780828
 20
79.3006055553
 30
0.0
 10
322.1945041975
 20
79.1202709437
 30
0.0
 10
322.3002537653
 20
79.0452276581
 30
0.0
  0
SPLINE
  5
831
100
AcDbEntity
  8
BEZUGSACHSEN
100
AcDbSpline
 62
7
  6
CONTINUOUS
 70
0
 71
3
 72
15
 73
11
 74
0
 42
0.0000001
 43
0.0000001
 44
0.0000000001
 40
0.0
 40
0.0
 40
0.0
 40
0.0
 40
0.2015117988
 40
0.3859733297
 40
0.5499827572
 40
0.6906868951
 40
0.8059588395
 40
0.8537031785
 40
0.8948518312
 40
1.0
 40
1.0
 40
1.0
 40
1.0
 10
328.5767836596
 20
83.3288525206
 30
0.0
 10
328.7075619203
 20
83.1680427921
 30
0.0
 10
328.9534723727
 20
82.856262084
 30
0.0
 10
329.2877155466
 20
82.3996379825
 30
0.0
 10
329.5670454696
 20
81.9810129133
 30
0.0
 10
329.7861535049
 20
81.6079767896
 30
0.0
 10
329.9231953541
 20
81.3276533888
 30
0.0
 10
329.9963821536
 20
81.1288034992
 30
0.0
 10
330.0486962196
 20
80.9423651843
 30
0.0
 10
330.0616644786
 20
80.7539475109
 30
0.0
 10
329.9838719898
 20
80.6788085651
 30
0.0
  0
SPLINE
  5
832
100
AcDbEntity
  8
RUNDUNGEN
100
AcDbSpline
 62
7
  6
CONTINUOUS
 70
0
 71
3
 72
14
 73
10
 74
0
 42
0.0000001
 43
0.0000001
 44
0.0000000001
 40
0.0
 40
0.0
 40
0.0
 40
0.0
 40
0.3818348225
 40
0.5398672732
 40
0.6746447813
 40
0.7859788682
 40
0.8747177379
 40
0.9436856704
 40
1.0
 40
1.0
 40
1.0
 40
1.0
 10
366.8265193378
 20
47.4479612327
 30
0.0
 10
366.9611217299
 20
47.3524430573
 30
0.0
 10
367.1555843429
 20
47.2226945424
 30
0.0
 10
367.4108814681
 20
47.0814070434
 30
0.0
 10
367.5695216028
 20
47.0078088335
 30
0.0
 10
367.7065344248
 20
46.9600387622
 30
0.0
 10
367.8213793186
 20
46.9384005939
 30
0.0
 10
367.9152691751
 20
46.9430360086
 30
0.0
 10
367.9656805801
 20
46.969108507
 30
0.0
 10
367.9831811033
 20
46.9860280935
 30
0.0
  0
SPLINE
  5
833
100
AcDbEntity
  8
0
100
AcDbSpline
 62
7
  6
CONTINUOUS
 70
0
 71
3
 72
15
 73
11
 74
0
 42
0.0000001
 43
0.0000001
 44
0.0000000001
 40
0.0
 40
0.0
 40
0.0
 40
0.0
 40
0.2018499553
 40
0.3828567064
 40
0.5413894942
 40
0.6765595027
 40
0.7880615151
 40
0.8765600154
 40
0.9448337862
 40
1.0
 40
1.0
 40
1.0
 40
1.0
 10
322.034292398
 20
86.8169954966
 30
0.0
 10
321.880101497
 20
87.0465339827
 30
0.0
 10
321.5946882263
 20
87.4867305737
 30
0.0
 10
321.2171130716
 20
88.1253750912
 30
0.0
 10
320.915740166
 20
88.7020968909
 30
0.0
 10
320.6932382017
 20
89.2112472205
 30
0.0
 10
320.5505108027
 20
89.6488625636
 30
0.0
 10
320.4890442643
 20
90.0129272189
 30
0.0
 10
320.5083081613
 20
90.3073807833
 30
0.0
 10
320.5937875689
 20
90.4631035443
 30
0.0
 10
320.6481484821
 20
90.5156034825
 30
0.0
  0
SPLINE
  5
834
100
AcDbEntity
  8
0
100
AcDbSpline
 62
7
  6
CONTINUOUS
 70
0
 71
3
 72
9
 73
5
 74
0
 42
0.0000001
 43
0.0000001
 44
0.0000000001
 40
0.0
 40
0.0
 40
0.0
 40
0.0
 40
0.4519605006
 40
1.0
 40
1.0
 40
1.0
 40
1.0
 10
336.3116354902
 20
72.7341120817
 30
0.0
 10
336.2777702882
 20
72.7013788055
 30
0.0
 10
336.223437488
 20
72.6070133031
 30
0.0
 10
336.2128221585
 20
72.5013480391
 30
0.0
 10
336.2128221585
 20
72.4442365602
 30
0.0
  0
SPLINE
  5
835
100
AcDbEntity
  8
0
100
AcDbSpline
 62
7
  6
CONTINUOUS
 70
0
 71
3
 72
10
 73
6
 74
0
 42
0.0000001
 43
0.0000001
 44
0.0000000001
 40
0.0
 40
0.0
 40
0.0
 40
0.0
 40
0.5928686779
 40
0.819309755
 40
1.0
 40
1.0
 40
1.0
 40
1.0
 10
337.619676408
 20
72.6409276729
 30
0.0
 10
337.3788562334
 20
72.7853957973
 30
0.0
 10
337.0369156
 20
72.9733594368
 30
0.0
 10
336.5920479223
 20
73.1378424868
 30
0.0
 10
336.4021015966
 20
73.178670627
 30
0.0
 10
336.3168004366
 20
73.1856876994
 30
0.0
  0
SPLINE
  5
836
100
AcDbEntity
  8
0
100
AcDbSpline
 62
7
  6
CONTINUOUS
 70
0
 71
3
 72
9
 73
5
 74
0
 42
0.0000001
 43
0.0000001
 44
0.0000000001
 40
0.0
 40
0.0
 40
0.0
 40
0.0
 40
0.5554668888
 40
1.0
 40
1.0
 40
1.0
 40
1.0
 10
336.3168004366
 20
73.1856876994
 30
0.0
 10
336.2480030529
 20
73.1913471327
 30
0.0
 10
336.1212994184
 20
73.1899451514
 30
0.0
 10
336.0039792837
 20
73.1321293395
 30
0.0
 10
335.9642579328
 20
73.0937356527
 30
0.0
  0
SPLINE
  5
837
100
AcDbEntity
  8
0
100
AcDbSpline
 62
7
  6
CONTINUOUS
 70
0
 71
3
 72
9
 73
5
 74
0
 42
0.0000001
 43
0.0000001
 44
0.0000000001
 40
0.0
 40
0.0
 40
0.0
 40
0.0
 40
0.4520427014
 40
1.0
 40
1.0
 40
1.0
 40
1.0
 10
350.7267486201
 20
58.7457981342
 30
0.0
 10
350.6962651124
 20
58.7163288036
 30
0.0
 10
350.6473764923
 20
58.6313901778
 30
0.0
 10
350.6378004947
 20
58.5362909234
 30
0.0
 10
350.6378004947
 20
58.4848955371
 30
0.0
  0
SPLINE
  5
838
100
AcDbEntity
  8
0
100
AcDbSpline
 62
7
  6
CONTINUOUS
 70
0
 71
3
 72
10
 73
6
 74
0
 42
0.0000001
 43
0.0000001
 44
0.0000000001
 40
0.0
 40
0.0
 40
0.0
 40
0.0
 40
0.5858417796
 40
0.8157463948
 40
1.0
 40
1.0
 40
1.0
 40
1.0
 10
353.1041378809
 20
57.819027797
 30
0.0
 10
352.737385474
 20
58.0981435488
 30
0.0
 10
352.2135676161
 20
58.4720274512
 30
0.0
 10
351.5287533485
 20
58.8601720909
 30
0.0
 10
351.2300926321
 20
58.9932529412
 30
0.0
 10
351.0929217336
 20
59.04010817
 30
0.0
  0
SPLINE
  5
839
100
AcDbEntity
  8
0
100
AcDbSpline
 62
7
  6
CONTINUOUS
 70
0
 71
3
 72
11
 73
7
 74
0
 42
0.0000001
 43
0.0000001
 44
0.0000000001
 40
0.0
 40
0.0
 40
0.0
 40
0.0
 40
0.3329938946
 40
0.6024543343
 40
0.817906727
 40
1.0
 40
1.0
 40
1.0
 40
1.0
 10
351.0929217336
 20
59.04010817
 30
0.0
 10
351.0223304279
 20
59.0642209506
 30
0.0
 10
350.8922745623
 20
59.1018419483
 30
0.0
 10
350.7094854888
 20
59.1248826225
 30
0.0
 10
350.5587596669
 20
59.1073883635
 30
0.0
 10
350.4781753759
 20
59.0618499788
 30
0.0
 10
350.4488474702
 20
59.0334978037
 30
0.0
  0
SPLINE
  5
83A
100
AcDbEntity
  8
RUNDUNGEN
100
AcDbSpline
 62
7
  6
CONTINUOUS
 70
0
 71
3
 72
12
 73
8
 74
0
 42
0.0000001
 43
0.0000001
 44
0.0000000001
 40
0.0
 40
0.0
 40
0.0
 40
0.0
 40
0.12109665
 40
0.2098669562
 40
0.3216786506
 40
0.6161507077
 40
1.0
 40
1.0
 40
1.0
 40
1.0
 10
318.0596851791
 20
84.9800111176
 30
0.0
 10
318.0477928198
 20
84.9685172609
 30
0.0
 10
318.0422394641
 20
84.9360679596
 30
0.0
 10
318.0500365129
 20
84.8935596917
 30
0.0
 10
318.0709196016
 20
84.8287145254
 30
0.0
 10
318.1197961521
 20
84.7322455085
 30
0.0
 10
318.1690771912
 20
84.6536779647
 30
0.0
 10
318.1983099905
 20
84.6101601407
 30
0.0
  0
SPLINE
  5
83B
100
AcDbEntity
  8
RUNDUNGEN
100
AcDbSpline
 62
7
  6
CONTINUOUS
 70
0
 71
3
 72
17
 73
13
 74
0
 42
0.0000001
 43
0.0000001
 44
0.0000000001
 40
0.0
 40
0.0
 40
0.0
 40
0.0
 40
0.1942680059
 40
0.3767464235
 40
0.5421938254
 40
0.6860959391
 40
0.804715271
 40
0.8955609206
 40
0.9304060384
 40
0.9585697799
 40
0.9810460163
 40
1.0
 40
1.0
 40
1.0
 40
1.0
 10
372.275267999
 20
32.9518459519
 30
0.0
 10
372.4349431392
 20
32.7976116101
 30
0.0
 10
372.7493888388
 20
32.5034023278
 30
0.0
 10
373.2166174287
 20
32.0962341938
 30
0.0
 10
373.6553486542
 20
31.7446921987
 30
0.0
 10
374.0524975825
 20
31.458631484
 30
0.0
 10
374.3962752817
 20
31.2463952486
 30
0.0
 10
374.6489563858
 20
31.124524163
 30
0.0
 10
374.8180568197
 20
31.0747077992
 30
0.0
 10
374.9154719888
 20
31.0620094565
 30
0.0
 10
374.9957367522
 20
31.0709408411
 30
0.0
 10
375.0386724684
 20
31.0950423961
 30
0.0
 10
375.0542440796
 20
31.1100979813
 30
0.0
  0
SPLINE
  5
83C
100
AcDbEntity
  8
RUNDUNGEN
100
AcDbSpline
 62
7
  6
CONTINUOUS
 70
0
 71
3
 72
14
 73
10
 74
0
 42
0.0000001
 43
0.0000001
 44
0.0000000001
 40
0.0
 40
0.0
 40
0.0
 40
0.0
 40
0.0563083454
 40
0.1252818539
 40
0.2140273179
 40
0.3253679452
 40
0.4601494496
 40
0.6181802257
 40
1.0
 40
1.0
 40
1.0
 40
1.0
 10
361.2626369038
 20
50.9477613929
 30
0.0
 10
361.2845251445
 20
50.9688913288
 30
0.0
 10
361.3475439122
 20
51.0014492738
 30
0.0
 10
361.4649025328
 20
51.0072485312
 30
0.0
 10
361.6084618423
 20
50.980186469
 30
0.0
 10
361.7797246636
 20
50.9204630812
 30
0.0
 10
361.9780183419
 20
50.8284618506
 30
0.0
 10
362.2971188494
 20
50.6518613453
 30
0.0
 10
362.540178353
 20
50.4896862987
 30
0.0
 10
362.7084175465
 20
50.37029837
 30
0.0
  0
SPLINE
  5
83D
100
AcDbEntity
  8
RUNDUNGEN
100
AcDbSpline
 62
7
  6
CONTINUOUS
 70
0
 71
3
 72
17
 73
13
 74
0
 42
0.0000001
 43
0.0000001
 44
0.0000000001
 40
0.0
 40
0.0
 40
0.0
 40
0.0
 40
0.018953956
 40
0.0414301552
 40
0.0695938743
 40
0.1044389531
 40
0.1952845618
 40
0.3139038444
 40
0.4578058983
 40
0.6232532846
 40
0.805731885
 40
1.0
 40
1.0
 40
1.0
 40
1.0
 10
368.0820782543
 20
48.6864610403
 30
0.0
 10
368.097649844
 20
48.7015166034
 30
0.0
 10
368.140585452
 20
48.7256181735
 30
0.0
 10
368.2208501148
 20
48.7345496613
 30
0.0
 10
368.3182651784
 20
48.7218513458
 30
0.0
 10
368.4873655543
 20
48.6720351905
 30
0.0
 10
368.7400465495
 20
48.5501641542
 30
0.0
 10
369.0838241561
 20
48.3379280852
 30
0.0
 10
369.4809730093
 20
48.0518674709
 30
0.0
 10
369.9197043793
 20
47.7003254286
 30
0.0
 10
370.3869332366
 20
47.293157084
 30
0.0
 10
370.7013792008
 20
46.9989475727
 30
0.0
 10
370.8610544366
 20
46.8447131386
 30
0.0
  0
SPLINE
  5
83E
100
AcDbEntity
  8
RUNDUNGEN
100
AcDbSpline
 62
7
  6
CONTINUOUS
 70
0
 71
3
 72
9
 73
5
 74
0
 42
0.0000001
 43
0.0000001
 44
0.0000000001
 40
0.0
 40
0.0
 40
0.0
 40
0.0
 40
0.49117966
 40
1.0
 40
1.0
 40
1.0
 40
1.0
 10
365.8878942457
 20
39.3088028032
 30
0.0
 10
366.1357264625
 20
39.005897417
 30
0.0
 10
366.6613087541
 20
38.4062991333
 30
0.0
 10
367.2186069579
 20
37.8362054462
 30
0.0
 10
367.5102133964
 20
37.5545352562
 30
0.0
  0
SPLINE
  5
83F
100
AcDbEntity
  8
BEZUGSACHSEN
100
AcDbSpline
 62
7
  6
CONTINUOUS
 70
0
 71
3
 72
14
 73
10
 74
0
 42
0.0000001
 43
0.0000001
 44
0.0000000001
 40
0.0
 40
0.0
 40
0.0
 40
0.0
 40
0.0580139767
 40
0.128074337
 40
0.2171665522
 40
0.3283360027
 40
0.4625380024
 40
0.6197538444
 40
1.0
 40
1.0
 40
1.0
 40
1.0
 10
323.0364365059
 20
87.8713414498
 30
0.0
 10
323.0572413341
 20
87.8914366143
 30
0.0
 10
323.1159765638
 20
87.9230182731
 30
0.0
 10
323.2256736007
 20
87.9313404672
 30
0.0
 10
323.3593811812
 20
87.9095302769
 30
0.0
 10
323.518371513
 20
87.857802662
 30
0.0
 10
323.7022145389
 20
87.7766640957
 30
0.0
 10
323.9980304104
 20
87.6192583715
 30
0.0
 10
324.223444879
 20
87.4734321333
 30
0.0
 10
324.3795245601
 20
87.3658128659
 30
0.0
  0
SPLINE
  5
840
100
AcDbEntity
  8
RUNDUNGEN
100
AcDbSpline
 62
7
  6
CONTINUOUS
 70
0
 71
3
 72
12
 73
8
 74
0
 42
0.0000001
 43
0.0000001
 44
0.0000000001
 40
0.0
 40
0.0
 40
0.0
 40
0.0
 40
0.1026154206
 40
0.2170880099
 40
0.4713551709
 40
0.7403400996
 40
1.0
 40
1.0
 40
1.0
 40
1.0
 10
343.8429193591
 20
63.7578610773
 30
0.0
 10
344.2213244525
 20
63.489332684
 30
0.0
 10
345.0055224093
 20
62.8981207795
 30
0.0
 10
346.6522362959
 20
61.544329214
 30
0.0
 10
348.7806138529
 20
59.5954943789
 30
0.0
 10
351.2565712523
 20
57.0632826699
 30
0.0
 10
352.8333366908
 20
55.2643385662
 30
0.0
 10
353.5768342633
 20
54.3556212805
 30
0.0
  0
SPLINE
  5
841
100
AcDbEntity
  8
RUNDUNGEN
100
AcDbSpline
 62
7
  6
CONTINUOUS
 70
0
 71
3
 72
14
 73
10
 74
0
 42
0.0000001
 43
0.0000001
 44
0.0000000001
 40
0.0
 40
0.0
 40
0.0
 40
0.0
 40
0.3827717614
 40
0.5413357289
 40
0.6765196836
 40
0.7880140834
 40
0.8765418298
 40
0.9448217642
 40
1.0
 40
1.0
 40
1.0
 40
1.0
 10
326.2523221898
 20
80.5377652257
 30
0.0
 10
326.3497742965
 20
80.3926917556
 30
0.0
 10
326.4819407502
 20
80.1833338618
 30
0.0
 10
326.6251480372
 20
79.909458481
 30
0.0
 10
326.6993282458
 20
79.7397475427
 30
0.0
 10
326.7468732673
 20
79.5938782442
 30
0.0
 10
326.7674221668
 20
79.4725266546
 30
0.0
 10
326.7609645578
 20
79.3743846775
 30
0.0
 10
326.732543322
 20
79.3224361898
 30
0.0
 10
326.7144254862
 20
79.3049305539
 30
0.0
  0
SPLINE
  5
842
100
AcDbEntity
  8
0
100
AcDbSpline
 62
7
  6
CONTINUOUS
 70
0
 71
3
 72
9
 73
5
 74
0
 42
0.0000001
 43
0.0000001
 44
0.0000000001
 40
0.0
 40
0.0
 40
0.0
 40
0.0
 40
0.5542265569
 40
1.0
 40
1.0
 40
1.0
 40
1.0
 10
350.7316034495
 20
58.7919667049
 30
0.0
 10
350.6654198562
 20
58.8116243224
 30
0.0
 10
350.5439760818
 20
58.8408436142
 30
0.0
 10
350.4182144257
 20
58.8478767725
 30
0.0
 10
350.3629640731
 20
58.8423011194
 30
0.0
  0
SPLINE
  5
843
100
AcDbEntity
  8
0
100
AcDbSpline
 62
7
  6
CONTINUOUS
 70
0
 71
3
 72
9
 73
5
 74
0
 42
0.0000001
 43
0.0000001
 44
0.0000000001
 40
0.0
 40
0.0
 40
0.0
 40
0.0
 40
0.5571429934
 40
1.0
 40
1.0
 40
1.0
 40
1.0
 10
336.2861363819
 20
72.8640633893
 30
0.0
 10
336.2107356791
 20
72.885259459
 30
0.0
 10
336.0730380771
 20
72.9157009379
 30
0.0
 10
335.9304742038
 20
72.918017414
 30
0.0
 10
335.8690365151
 20
72.9079507377
 30
0.0
  0
SPLINE
  5
844
100
AcDbEntity
  8
0
100
AcDbSpline
 62
7
  6
CONTINUOUS
 70
0
 71
3
 72
11
 73
7
 74
0
 42
0.0000001
 43
0.0000001
 44
0.0000000001
 40
0.0
 40
0.0
 40
0.0
 40
0.0
 40
0.2450894343
 40
0.4924978153
 40
0.7439243866
 40
1.0
 40
1.0
 40
1.0
 40
1.0
 10
188.9336015449
 20
237.8969025028
 30
0.0
 10
188.9336015449
 20
239.4490041475
 30
0.0
 10
189.3407806599
 20
242.5825404637
 30
0.0
 10
191.1395394647
 20
246.9906246095
 30
0.0
 10
194.0268602587
 20
250.8622730738
 30
0.0
 10
196.554610766
 20
252.9087613756
 30
0.0
 10
197.928724949
 20
253.7699464027
 30
0.0
  0
SPLINE
  5
845
100
AcDbEntity
  8
0
100
AcDbSpline
 62
7
  6
CONTINUOUS
 70
0
 71
3
 72
11
 73
7
 74
0
 42
0.0000001
 43
0.0000001
 44
0.0000000001
 40
0.0
 40
0.0
 40
0.0
 40
0.0
 40
0.2560757552
 40
0.5075024772
 40
0.7549108552
 40
1.0
 40
1.0
 40
1.0
 40
1.0
 10
219.9388766543
 20
253.7696958152
 30
0.0
 10
221.3129364508
 20
252.9084974048
 30
0.0
 10
223.840585246
 20
250.8620107104
 30
0.0
 10
226.727772883
 20
246.9904106821
 30
0.0
 10
228.5264436359
 20
242.5824209438
 30
0.0
 10
228.9336015449
 20
239.4489641502
 30
0.0
 10
228.9336015449
 20
237.8969025028
 30
0.0
  0
SPLINE
  5
846
100
AcDbEntity
  8
0
100
AcDbSpline
 62
7
  6
CONTINUOUS
 70
0
 71
3
 72
15
 73
11
 74
0
 42
0.0000001
 43
0.0000001
 44
0.0000000001
 40
0.0
 40
0.0
 40
0.0
 40
0.0
 40
0.1240535032
 40
0.2482236696
 40
0.3726284617
 40
0.4973520509
 40
0.6224514315
 40
0.7479462618
 40
0.873815465
 40
1.0
 40
1.0
 40
1.0
 40
1.0
 10
170.9336015449
 20
237.8969025028
 30
0.0
 10
170.9336015449
 20
239.8698633809
 30
0.0
 10
171.2591795867
 20
243.8252972471
 30
0.0
 10
172.7108385367
 20
249.5971739906
 30
0.0
 10
175.0863317143
 20
255.0672406182
 30
0.0
 10
178.3222170591
 20
260.0933195039
 30
0.0
 10
182.3325857239
 20
264.5488929942
 30
0.0
 10
187.0133503826
 20
268.3229701736
 30
0.0
 10
192.2424340013
 20
271.3222784151
 30
0.0
 10
196.006300383
 20
272.756699757
 30
0.0
 10
197.9313693048
 20
273.3237701248
 30
0.0
  0
SPLINE
  5
847
100
AcDbEntity
  8
0
100
AcDbSpline
 62
7
  6
CONTINUOUS
 70
0
 71
3
 72
15
 73
11
 74
0
 42
0.0000001
 43
0.0000001
 44
0.0000000001
 40
0.0
 40
0.0
 40
0.0
 40
0.0
 40
0.1261845587
 40
0.2520536722
 40
0.3775483589
 40
0.5026475956
 40
0.627371089
 40
0.7517758707
 40
0.8759461784
 40
1.0
 40
1.0
 40
1.0
 40
1.0
 10
219.9365451912
 20
273.3235613563
 30
0.0
 10
221.8615728659
 20
272.7564596319
 30
0.0
 10
225.6253536687
 20
271.3219947318
 30
0.0
 10
230.8543069383
 20
268.3226546505
 30
0.0
 10
235.53494402
 20
264.548578272
 30
0.0
 10
239.5451962907
 20
260.0930343026
 30
0.0
 10
242.7809883439
 20
255.0670113282
 30
0.0
 10
245.1564137046
 20
249.5970161233
 30
0.0
 10
246.6080321526
 20
243.8252176029
 30
0.0
 10
246.9336015449
 20
239.869837887
 30
0.0
 10
246.9336015449
 20
237.8969025028
 30
0.0
  0
SPLINE
  5
848
100
AcDbEntity
  8
0
100
AcDbSpline
 62
7
  6
CONTINUOUS
 70
0
 71
3
 72
15
 73
11
 74
0
 42
0.0000001
 43
0.0000001
 44
0.0000000001
 40
0.0
 40
0.0
 40
0.0
 40
0.0
 40
0.1239295425
 40
0.2480016812
 40
0.3723523026
 40
0.497076683
 40
0.6222280488
 40
0.747808028
 40
0.8737648485
 40
1.0
 40
1.0
 40
1.0
 40
1.0
 10
246.9336015449
 20
194.4302403198
 30
0.0
 10
246.9336015449
 20
192.2585718993
 30
0.0
 10
246.5386706699
 20
187.9025375457
 30
0.0
 10
244.7814605409
 20
181.5836795444
 30
0.0
 10
241.9169908519
 20
175.6662977648
 30
0.0
 10
238.038194135
 20
170.3361183792
 30
0.0
 10
233.2690207108
 20
165.7549005956
 30
0.0
 10
227.7586400101
 20
162.059979036
 30
0.0
 10
221.6798752814
 20
159.3607388422
 30
0.0
 10
217.3691548792
 20
158.2773677726
 30
0.0
 10
215.1857034957
 20
157.9226901678
 30
0.0
  0
SPLINE
  5
849
100
AcDbEntity
  8
0
100
AcDbSpline
 62
7
  6
CONTINUOUS
 70
0
 71
3
 72
15
 73
11
 74
0
 42
0.0000001
 43
0.0000001
 44
0.0000000001
 40
0.0
 40
0.0
 40
0.0
 40
0.0
 40
0.1262352727
 40
0.252192062
 40
0.3777719198
 40
0.5029231268
 40
0.6276473764
 40
0.7519979442
 40
0.8760701782
 40
1.0
 40
1.0
 40
1.0
 40
1.0
 10
202.681218661
 20
157.9227345928
 30
0.0
 10
200.4977800508
 20
158.2774297597
 30
0.0
 10
196.1870899024
 20
159.360825721
 30
0.0
 10
190.1083723469
 20
162.0600828541
 30
0.0
 10
184.5980486535
 20
165.7550146776
 30
0.0
 10
179.8289222046
 20
170.3362185762
 30
0.0
 10
175.9501680932
 20
175.6663773306
 30
0.0
 10
173.0857250553
 20
181.5837302667
 30
0.0
 10
171.3285296273
 20
187.9025613382
 30
0.0
 10
170.9336015449
 20
192.2585787045
 30
0.0
 10
170.9336015449
 20
194.4302403198
 30
0.0
  0
SPLINE
  5
84A
100
AcDbEntity
  8
0
100
AcDbSpline
 62
7
  6
CONTINUOUS
 70
0
 71
3
 72
15
 73
11
 74
0
 42
0.0000001
 43
0.0000001
 44
0.0000000001
 40
0.0
 40
0.0
 40
0.0
 40
0.0
 40
0.1213859819
 40
0.2432464506
 40
0.366017449
 40
0.4900169448
 40
0.615439209
 40
0.7423291563
 40
0.8705905235
 40
1.0
 40
1.0
 40
1.0
 40
1.0
 10
228.9336015449
 20
194.4302403198
 30
0.0
 10
228.9336015449
 20
193.4483459568
 30
0.0
 10
228.7723098872
 20
191.4769611952
 30
0.0
 10
228.0515440796
 20
188.5924669288
 30
0.0
 10
226.8662810779
 20
185.8419833284
 30
0.0
 10
225.240860998
 20
183.2925829928
 30
0.0
 10
223.2107074103
 20
181.0075204099
 30
0.0
 10
220.8217656004
 20
179.0459110261
 30
0.0
 10
218.1317445576
 20
177.4604325785
 30
0.0
 10
216.18658889
 20
176.6853766023
 30
0.0
 10
215.1876375398
 20
176.3725198263
 30
0.0
  0
SPLINE
  5
84B
100
AcDbEntity
  8
0
100
AcDbSpline
 62
7
  6
CONTINUOUS
 70
0
 71
3
 72
15
 73
11
 74
0
 42
0.0000001
 43
0.0000001
 44
0.0000000001
 40
0.0
 40
0.0
 40
0.0
 40
0.0
 40
0.1294094812
 40
0.2576709551
 40
0.3845610468
 40
0.5099834434
 40
0.6339830146
 40
0.7567539886
 40
0.8786143244
 40
1.0
 40
1.0
 40
1.0
 40
1.0
 10
202.6795523374
 20
176.3725251851
 30
0.0
 10
201.6806016496
 20
176.6853821269
 30
0.0
 10
199.7354468526
 20
177.46043941
 30
0.0
 10
197.0454263073
 20
179.0459190931
 30
0.0
 10
194.6564846794
 20
181.0075307918
 30
0.0
 10
192.6263321674
 20
183.2925957671
 30
0.0
 10
191.0009145673
 20
185.8419973303
 30
0.0
 10
189.8156547836
 20
188.5924796441
 30
0.0
 10
189.0948923742
 20
191.4769690222
 30
0.0
 10
188.9336015449
 20
193.4483490168
 30
0.0
 10
188.9336015449
 20
194.4302403198
 30
0.0
  0
ELLIPSE
  5
84C
100
AcDbEntity
  8
0
100
AcDbEllipse
 62
7
  6
CONTINUOUS
 10
208.1336015449
 20
118.5369017753
 30
0.0
 11
11.2
 21
-0.0
 31
0.0
 40
0.8066525678
 41
-1.7336547185
 42
-1.5707963268
  0
ELLIPSE
  5
84D
100
AcDbEntity
  8
RUNDUNGEN
100
AcDbEllipse
 62
7
  6
CONTINUOUS
 10
209.7336015449
 20
118.5369017753
 30
0.0
 11
11.2
 21
0.0
 31
0.0
 40
0.8066525678
 41
-1.5707963268
 42
-1.4079379351
  0
ELLIPSE
  5
84E
100
AcDbEntity
  8
0
100
AcDbEllipse
 62
7
  6
CONTINUOUS
 10
208.1336015449
 20
132.0995931224
 30
0.0
 11
-0.0
 21
12.6022297499
 31
0.0
 40
0.8887316151
 41
-3.3044510509
 42
-3.1415926536
  0
ELLIPSE
  5
84F
100
AcDbEntity
  8
RUNDUNGEN
100
AcDbEllipse
 62
7
  6
CONTINUOUS
 10
209.7336015449
 20
132.0995931224
 30
0.0
 11
0.0
 21
12.6022297499
 31
0.0
 40
0.8887316151
 41
-3.1415926536
 42
-2.9787342562
  0
ELLIPSE
  5
850
100
AcDbEntity
  8
0
100
AcDbEllipse
 62
7
  6
CONTINUOUS
 10
202.8007340091
 20
149.0849840327
 30
0.0
 11
0.1559518697
 21
5.9994247339
 31
0.0
 40
0.5327506767
 41
-1.2951492524
 42
-0.182317669
  0
ELLIPSE
  5
851
100
AcDbEntity
  8
RUNDUNGEN
100
AcDbEllipse
 62
7
  6
CONTINUOUS
 10
215.0664690808
 20
149.0849840327
 30
0.0
 11
-0.1559518697
 21
5.9994247339
 31
0.0
 40
0.5327506767
 41
0.182317669
 42
1.2951492524
  0
ENDSEC
  0
SECTION
  2
OBJECTS
  0
DICTIONARY
  5
C
100
AcDbDictionary
280
0
281
1
  3
ACAD_GROUP
350
D
  3
ACAD_MLINESTYLE
350
17
  3
ACAD_LAYOUT
350
1A
  3
ACAD_PLOTSETTINGS
350
19
  3
ACAD_PLOTSTYLENAME
350
E
  0
DICTIONARY
  5
D
102
{ACAD_REACTORS
330
C
102
}
100
AcDbDictionary
280
0
281
1
  0
ACDBDICTIONARYWDFLT
  5
E
102
{ACAD_REACTORS
330
C
102
}
100
AcDbDictionary
281
1
  3
Normal
350
F
100
AcDbDictionaryWithDefault
340
F
  0
DICTIONARY
  5
17
102
{ACAD_REACTORS
330
C
102
}
100
AcDbDictionary
280
0
281
1
  3
Standard
350
18
  0
DICTIONARY
  5
19
102
{ACAD_REACTORS
330
C
102
}
100
AcDbDictionary
281
1
  0
DICTIONARY
  5
1A
102
{ACAD_REACTORS
330
C
102
}
100
AcDbDictionary
281
1
  3
Model
350
852
  3
Layout1
350
853
  0
ACDBPLACEHOLDER
  5
F
102
{ACAD_REACTORS
330
E
102
}
  0
MLINESTYLE
  5
18
102
{ACAD_REACTORS
330
17
102
}
100
AcDbMlineStyle
  2
STANDARD
 70
0
  3

 62
256
 51
90.0
 52
90.0
 71
2
 49
0.5
 62
256
  6
BYLAYER
 49
-0.5
 62
256
  6
BYLAYER
  0
LAYOUT
  5
852
102
{ACAD_REACTORS
330
1A
102
}
100
AcDbPlotSettings
  1

  2
none_device
  4
ISO_A1_(594.00_x_841.00_MM)
  6

 40
0.0
 41
0.0
 42
0.0
 43
0.0
 44
841.0
 45
594.0
 46
0.0
 47
0.0
 48
0.0
 49
0.0
140
0.0
141
0.0
142
1.0
143
1.0
 70
1024
 72
1
 73
0
 74
0
  7

 75
0
147
1.0
148
0.0
149
0.0
100
AcDbLayout
  1
Model
 70
0
 71
0
 10
0.0
 20
0.0
 11
841.0
 21
594.0
 12
0.0
 22
0.0
 32
0.0
 14
0.0
 24
0.0
 34
0.0
 15
0.0
 25
0.0
 35
0.0
146
0.0
 13
0.0
 23
0.0
 33
0.0
 16
1.0
 26
0.0
 36
0.0
 17
0.0
 27
1.0
 37
0.0
 76
0
330
20A
345
0
346
0
  0
LAYOUT
  5
853
102
{ACAD_REACTORS
330
1A
102
}
100
AcDbPlotSettings
  1

  2
none_device
  4
ISO_A1_(594.00_x_841.00_MM)
  6

 40
0.0
 41
0.0
 42
0.0
 43
0.0
 44
841.0
 45
594.0
 46
0.0
 47
0.0
 48
0.0
 49
0.0
140
0.0
141
0.0
142
1.0
143
1.0
 70
0
 72
1
 73
0
 74
0
  7

 75
0
147
1.0
148
0.0
149
0.0
100
AcDbLayout
  1
Layout1
 70
0
 71
1
 10
0.0
 20
0.0
 11
841.0
 21
594.0
 12
0.0
 22
0.0
 32
0.0
 14
0.0
 24
0.0
 34
0.0
 15
0.0
 25
0.0
 35
0.0
146
0.0
 13
0.0
 23
0.0
 33
0.0
 16
1.0
 26
0.0
 36
0.0
 17
0.0
 27
1.0
 37
0.0
 76
0
330
20B
345
0
346
0
  0
ENDSEC
  0
EOF
