999
DXF file: ISAK-RG-2-16_250_7903205_M34586-P-12.dxf
999
Pro/ENGINEER 2010140 by Parametric Technology Corporation
  0
SECTION
  2
HEADER
  9
$ACADVER
  1
AC1015
  9
$DWGCODEPAGE
  3
ANSI_1252
  9
$EXTMAX
 10
1189.0
 20
841.0
 30
0.0
  9
$EXTMIN
 10
0.0
 20
0.0
 30
0.0
  9
$LIMMIN
 10
0.0
 20
0.0
  9
$LIMMAX
 10
1189.0
 20
841.0
  9
$VIEWCTR
 10
594.5
 20
420.5
  9
$VIEWSIZE
 40
841.0
  9
$CLAYER
  8
0
  9
$LTSCALE
 40
65.395
  9
$CELTYPE
  6
BYLAYER
  9
$DIMSCALE
 40
1.0
  9
$DIMASZ
 40
3.5
  9
$DIMEXO
 40
7.43125
  9
$DIMDLI
 40
45.182
  9
$DIMEXE
 40
21.402
  9
$DIMCEN
 40
10.701
  9
$DIMLFAC
 40
1.0
  9
$DIMBLK
  1
_FILLED
  9
$DIMTXT
 40
3.5
  9
$DIMTOL
 70
1
  9
$DIMLIM
 70
0
  9
$DIMTFAC
 40
1.0
  9
$DIMTP
 40
0.005
  9
$DIMTM
 40
0.005
  9
$PDMODE
 70
3
  9
$PDSIZE
 40
0.3125
  9
$HANDSEED
  5
85C
  9
$TILEMODE
 70
1
  9
$MEASUREMENT
 70
1
  9
$INSUNITS
 70
4
  0
ENDSEC
  0
SECTION
  2
CLASSES
  0
CLASS
  1
ACDBDICTIONARYWDFLT
  2
AcDbDictionaryWithDefault
  3
AutoCAD 2000
 90
0
280
0
281
0
  0
CLASS
  1
ACDBPLACEHOLDER
  2
AcDbPlaceHolder
  3
AutoCAD 2000
 90
0
280
0
281
0
  0
CLASS
  1
LAYOUT
  2
AcDbLayout
  3
AutoCAD 2000
 90
0
280
0
281
0
  0
ENDSEC
  0
SECTION
  2
TABLES
  0
TABLE
  2
VPORT
  5
8
100
AcDbSymbolTable
 70
2
  0
VPORT
  5
1F4
100
AcDbSymbolTableRecord
100
AcDbViewportTableRecord
  2
*ACTIVE
 70
0
 10
0.0
 20
0.0
 11
1.0
 21
1.0
 12
594.5
 22
420.5
 13
0.0
 23
0.0
 14
1.0
 24
1.0
 15
0.0
 25
0.0
 16
0.0
 26
0.0
 36
1.0
 17
0.0
 27
0.0
 37
0.0
 40
841.0
 41
1.4137931034
 42
50.0
 43
0.0
 44
0.0
 50
0.0
 51
0.0
 71
0
 72
100
 73
1
 74
1
 75
0
 76
0
 77
0
 78
0
  0
ENDTAB
  0
TABLE
  2
LTYPE
  5
5
100
AcDbSymbolTable
 70
6
  0
LTYPE
  5
14
100
AcDbSymbolTableRecord
100
AcDbLinetypeTableRecord
  2
BYBLOCK
 70
0
  3

 72
65
 73
0
 40
0.0
  0
LTYPE
  5
15
100
AcDbSymbolTableRecord
100
AcDbLinetypeTableRecord
  2
BYLAYER
 70
0
  3

 72
65
 73
0
 40
0.0
  0
LTYPE
  5
16
100
AcDbSymbolTableRecord
100
AcDbLinetypeTableRecord
  2
CONTINUOUS
 70
64
  3
Solid line
 72
65
 73
0
 40
0.0
  0
LTYPE
  5
1F5
100
AcDbSymbolTableRecord
100
AcDbLinetypeTableRecord
  2
CENTER
 70
64
  3
____ _ ____ _ ____ _ ____ _ ____ _ ____ _ ____
 72
65
 73
4
 40
0.6
 49
0.375
 74
0
 49
-0.075
 74
0
 49
0.075
 74
0
 49
-0.075
 74
0
  0
LTYPE
  5
1F6
100
AcDbSymbolTableRecord
100
AcDbLinetypeTableRecord
  2
HIDDEN
 70
64
  3
- - - - - - - - - - - - - - - - - - - -
 72
65
 73
2
 40
0.2
 49
0.1
 74
0
 49
-0.1
 74
0
  0
LTYPE
  5
1F7
100
AcDbSymbolTableRecord
100
AcDbLinetypeTableRecord
  2
PHANTOM
 70
64
  3
_____ _ _ _____ _ _ _____ _ _ _____
 72
65
 73
6
 40
0.8
 49
0.45
 74
0
 49
-0.05
 74
0
 49
0.1
 74
0
 49
-0.05
 74
0
 49
0.1
 74
0
 49
-0.05
 74
0
  0
LTYPE
  5
1F8
100
AcDbSymbolTableRecord
100
AcDbLinetypeTableRecord
  2
DOT
 70
64
  3
. . . . . . . . . . . . . . . . . . . .
 72
65
 73
2
 40
0.2
 49
0.1
 74
0
 49
-0.1
 74
0
  0
LTYPE
  5
1F9
100
AcDbSymbolTableRecord
100
AcDbLinetypeTableRecord
  2
DASHED
 70
64
  3
- - - - - - - - - - - - - - - - - - - -
 72
65
 73
2
 40
0.2
 49
0.1
 74
0
 49
-0.1
 74
0
  0
ENDTAB
  0
TABLE
  2
LAYER
  5
2
100
AcDbSymbolTable
 70
36
  0
LAYER
  5
10
100
AcDbSymbolTableRecord
100
AcDbLayerTableRecord
  2
0
 70
0
 62
7
  6
CONTINUOUS
370
-3
390
F
  0
LAYER
  5
1FA
100
AcDbSymbolTableRecord
100
AcDbLayerTableRecord
  2
DEFAULT_1
 70
0
 62
7
  6
CENTER
370
-3
390
F
  0
LAYER
  5
1FB
100
AcDbSymbolTableRecord
100
AcDbLayerTableRecord
  2
DEFAULT_2
 70
0
 62
8
  6
HIDDEN
370
-3
390
F
  0
LAYER
  5
1FC
100
AcDbSymbolTableRecord
100
AcDbLayerTableRecord
  2
DEFAULT_3
 70
0
 62
7
  6
PHANTOM
370
-3
390
F
  0
LAYER
  5
1FD
100
AcDbSymbolTableRecord
100
AcDbLayerTableRecord
  2
BEZUGSACHSEN
 70
0
 62
7
  6
CONTINUOUS
370
-3
390
F
  0
LAYER
  5
1FE
100
AcDbSymbolTableRecord
100
AcDbLayerTableRecord
  2
BEZUGSEBENEN
 70
0
 62
7
  6
CONTINUOUS
370
-3
390
F
  0
LAYER
  5
1FF
100
AcDbSymbolTableRecord
100
AcDbLayerTableRecord
  2
BG_STARTBEZUEGE
 70
0
 62
7
  6
CONTINUOUS
370
-3
390
F
  0
LAYER
  5
200
100
AcDbSymbolTableRecord
100
AcDbLayerTableRecord
  2
FASEN
 70
0
 62
7
  6
CONTINUOUS
370
-3
390
F
  0
LAYER
  5
201
100
AcDbSymbolTableRecord
100
AcDbLayerTableRecord
  2
HILFEN
 70
0
 62
7
  6
CONTINUOUS
370
-3
390
F
  0
LAYER
  5
202
100
AcDbSymbolTableRecord
100
AcDbLayerTableRecord
  2
KONSTRUKTIONSELEMENTE
 70
0
 62
7
  6
CONTINUOUS
370
-3
390
F
  0
LAYER
  5
203
100
AcDbSymbolTableRecord
100
AcDbLayerTableRecord
  2
NORM
 70
0
 62
7
  6
CONTINUOUS
370
-3
390
F
  0
LAYER
  5
204
100
AcDbSymbolTableRecord
100
AcDbLayerTableRecord
  2
PLATZIERUNG
 70
0
 62
7
  6
CONTINUOUS
370
-3
390
F
  0
LAYER
  5
205
100
AcDbSymbolTableRecord
100
AcDbLayerTableRecord
  2
RUNDUNGEN
 70
0
 62
7
  6
CONTINUOUS
370
-3
390
F
  0
LAYER
  5
206
100
AcDbSymbolTableRecord
100
AcDbLayerTableRecord
  2
TEIL_STARTBEZUEGE
 70
0
 62
7
  6
CONTINUOUS
370
-3
390
F
  0
LAYER
  5
207
100
AcDbSymbolTableRecord
100
AcDbLayerTableRecord
  2
T_STARTBEZUEGE
 70
0
 62
7
  6
CONTINUOUS
370
-3
390
F
  0
ENDTAB
  0
TABLE
  2
STYLE
  5
3
100
AcDbSymbolTable
 70
1
  0
STYLE
  5
11
100
AcDbSymbolTableRecord
100
AcDbTextStyleTableRecord
  2
STANDARD
 70
0
 40
0.0
 41
0.7
 50
0.0
 71
0
 42
0.2
  3
txt
  4

  0
STYLE
  5
208
100
AcDbSymbolTableRecord
100
AcDbTextStyleTableRecord
  2
TEXTSTYLE_1
 70
0
 40
0.0
 41
0.8
 50
0.0
 71
0
 42
0.2
  3
gdt
  4

  0
ENDTAB
  0
TABLE
  2
VIEW
  5
6
100
AcDbSymbolTable
 70
0
  0
ENDTAB
  0
TABLE
  2
UCS
  5
7
100
AcDbSymbolTable
 70
0
  0
ENDTAB
  0
TABLE
  2
APPID
  5
9
100
AcDbSymbolTable
 70
1
  0
APPID
  5
209
100
AcDbSymbolTableRecord
100
AcDbRegAppTableRecord
  2
ACAD
 70
0
  0
ENDTAB
  0
TABLE
  2
BLOCK_RECORD
  5
1
100
AcDbSymbolTable
 70
0
  0
BLOCK_RECORD
  5
20A
100
AcDbSymbolTableRecord
100
AcDbBlockTableRecord
  2
*Model_Space
  0
BLOCK_RECORD
  5
20B
100
AcDbSymbolTableRecord
100
AcDbBlockTableRecord
  2
*Paper_Space
  0
ENDTAB
  0
TABLE
  2
DIMSTYLE
  5
A
100
AcDbSymbolTable
 70
1
100
AcDbDimStyleTable
 71
0
  0
DIMSTYLE
105
20C
100
AcDbSymbolTableRecord
100
AcDbDimStyleTableRecord
  2
STANDARD
 70
0
  3

  4

 40
1.0
 41
3.5
 42
0.0625
 43
0.38
 44
0.18
 45
0.0
 46
0.0
 47
0.005
 48
0.005
140
3.5
141
0.09
142
0.0
143
25.4
144
1.0
145
0.0
146
1.0
147
0.09
 71
1.0
 72
0.0
 73
0
 74
0
 75
0
 76
0
 77
1
 78
8
170
0
171
2
172
0
173
0
174
0
175
0
176
0
177
0
178
5
270
2
271
3
272
3
273
2
274
2
275
0
280
0
281
0
282
0
283
1
284
8
285
0
286
0
287
3
288
0
340
11
  0
ENDTAB
  0
ENDSEC
  0
SECTION
  2
BLOCKS
  0
BLOCK
  5
20
100
AcDbEntity
  8
0
100
AcDbBlockBegin
  2
*Model_Space
 70
0
 10
0.0
 20
0.0
 30
0.0
  3
*Model_Space
  1

  0
ENDBLK
  5
21
100
AcDbEntity
  8
0
100
AcDbBlockEnd
  0
BLOCK
  5
1C
100
AcDbEntity
  8
0
100
AcDbBlockBegin
  2
*Paper_Space
 70
0
 10
0.0
 20
0.0
 30
0.0
  3
*Paper_Space
  1

  0
ENDBLK
  5
1D
100
AcDbEntity
  8
0
100
AcDbBlockEnd
  0
ENDSEC
  0
SECTION
  2
ENTITIES
  0
MTEXT
  5
20D
100
AcDbEntity
  8
0
100
AcDbMText
 62
5
  6
CONTINUOUS
  7
STANDARD
 71
1
 72
1
 10
635.8369680195
 20
539.8610972643
 30
0.0
 11
0.0
 21
1.0
 31
0.0
 44
0.9
  1
RUD
 40
11.0
 41
29.3333333333
  0
MTEXT
  5
20E
100
AcDbEntity
  8
0
100
AcDbMText
 62
5
  6
CONTINUOUS
  7
STANDARD
 71
1
 72
1
 10
927.0275033047
 20
487.5718004714
 30
0.0
 11
0.0
 21
1.0
 31
0.0
 44
0.9
  1
ISAK-RG 2-16/250
 40
11.0
 41
134.619047619
  0
MTEXT
  5
20F
100
AcDbEntity
  8
0
100
AcDbMText
 62
5
  6
CONTINUOUS
  7
STANDARD
 71
1
 72
1
 10
210.6700969379
 20
461.9812977922
 30
0.0
 11
0.0
 21
1.0
 31
0.0
 44
0.9
  1
RUD ISAK-RG 2-16/250
 40
11.0
 41
170.5
  0
LINE
  5
210
100
AcDbEntity
  8
0
100
AcDbLine
 62
7
  6
CONTINUOUS
 10
0.0
 20
0.0
 11
0.0
 21
841.0
  0
LINE
  5
211
100
AcDbEntity
  8
0
100
AcDbLine
 62
7
  6
CONTINUOUS
 10
0.0
 20
0.0
 11
1189.0
 21
0.0
  0
LINE
  5
212
100
AcDbEntity
  8
0
100
AcDbLine
 62
7
  6
CONTINUOUS
 10
0.0
 20
841.0
 11
1189.0
 21
841.0
  0
LINE
  5
213
100
AcDbEntity
  8
0
100
AcDbLine
 62
7
  6
CONTINUOUS
 10
1189.0
 20
0.0
 11
1189.0
 21
841.0
  0
LINE
  5
214
100
AcDbEntity
  8
RUNDUNGEN
100
AcDbLine
 62
7
  6
CONTINUOUS
 10
613.0337640247
 20
-14.539439964
 11
616.462800708
 21
-15.4582475741
  0
LINE
  5
215
100
AcDbEntity
  8
RUNDUNGEN
100
AcDbLine
 62
7
  6
CONTINUOUS
 10
699.4358291862
 20
-37.6908035484
 11
702.8648658695
 21
-38.6096111585
  0
LINE
  5
216
100
AcDbEntity
  8
RUNDUNGEN
100
AcDbLine
 62
7
  6
CONTINUOUS
 10
628.4401893153
 20
-4.758613835
 11
639.1129092657
 21
-7.6183605268
  0
LINE
  5
217
100
AcDbEntity
  8
RUNDUNGEN
100
AcDbLine
 62
7
  6
CONTINUOUS
 10
683.7402033004
 20
-19.5762079238
 11
694.4129232508
 21
-22.4359546155
  0
LINE
  5
218
100
AcDbEntity
  8
0
100
AcDbLine
 62
7
  6
CONTINUOUS
 10
931.0071287238
 20
64.206557948
 11
930.8967196493
 21
64.1760684196
  0
LINE
  5
219
100
AcDbEntity
  8
0
100
AcDbLine
 62
7
  6
CONTINUOUS
 10
857.4863568513
 20
44.5058209918
 11
864.3925512368
 21
46.3563302002
  0
LINE
  5
21A
100
AcDbEntity
  8
0
100
AcDbLine
 62
7
  6
CONTINUOUS
 10
923.9905252638
 20
62.3255592112
 11
930.8967196493
 21
64.1760684196
  0
LINE
  5
21B
100
AcDbEntity
  8
BEZUGSACHSEN
100
AcDbLine
 62
7
  6
CONTINUOUS
 10
899.2170975224
 20
71.3245577383
 11
881.3474697361
 21
66.5364054039
  0
LINE
  5
21C
100
AcDbEntity
  8
0
100
AcDbLine
 62
7
  6
CONTINUOUS
 10
857.4863568513
 20
44.5058209918
 11
857.3754950237
 21
44.4770211607
  0
LINE
  5
21D
100
AcDbEntity
  8
RUNDUNGEN
100
AcDbLine
 62
7
  6
CONTINUOUS
 10
716.4465930868
 20
44.4770211607
 11
716.3357312593
 21
44.5058209918
  0
LINE
  5
21E
100
AcDbEntity
  8
0
100
AcDbLine
 62
7
  6
CONTINUOUS
 10
656.7930739871
 20
55.5785685565
 11
664.211384333
 21
53.5908382901
  0
LINE
  5
21F
100
AcDbEntity
  8
0
100
AcDbLine
 62
7
  6
CONTINUOUS
 10
668.1458726941
 20
52.5365953111
 11
669.6295347633
 21
52.1390492578
  0
LINE
  5
220
100
AcDbEntity
  8
0
100
AcDbLine
 62
7
  6
CONTINUOUS
 10
676.6969496286
 20
50.2453411521
 11
678.4101350186
 21
49.7862945103
  0
LINE
  5
221
100
AcDbEntity
  8
0
100
AcDbLine
 62
7
  6
CONTINUOUS
 10
691.3190288344
 20
46.3273668372
 11
696.6941619761
 21
44.8871042527
  0
LINE
  5
222
100
AcDbEntity
  8
0
100
AcDbLine
 62
7
  6
CONTINUOUS
 10
656.9394841486
 20
56.124978718
 11
664.3577944945
 21
54.1372484516
  0
LINE
  5
223
100
AcDbEntity
  8
0
100
AcDbLine
 62
7
  6
CONTINUOUS
 10
668.2922828557
 20
53.0830054726
 11
669.7759449248
 21
52.6854594193
  0
LINE
  5
224
100
AcDbEntity
  8
0
100
AcDbLine
 62
7
  6
CONTINUOUS
 10
676.8433597901
 20
50.7917513136
 11
678.1104031515
 21
50.4522480681
  0
LINE
  5
225
100
AcDbEntity
  8
0
100
AcDbLine
 62
7
  6
CONTINUOUS
 10
691.4654389959
 20
46.8737769987
 11
696.8405721376
 21
45.4335144142
  0
LINE
  5
226
100
AcDbEntity
  8
0
100
AcDbLine
 62
7
  6
CONTINUOUS
 10
697.0194937829
 20
45.9712131499
 11
693.0955112266
 21
47.022641107
  0
LINE
  5
227
100
AcDbEntity
  8
0
100
AcDbLine
 62
7
  6
CONTINUOUS
 10
662.0127245392
 20
55.5855049568
 11
659.6945025561
 21
56.206670665
  0
LINE
  5
228
100
AcDbEntity
  8
0
100
AcDbLine
 62
7
  6
CONTINUOUS
 10
660.2435516585
 20
56.5866299829
 11
661.7272137276
 21
56.1890839296
  0
LINE
  5
229
100
AcDbEntity
  8
0
100
AcDbLine
 62
7
  6
CONTINUOUS
 10
660.38996182
 20
57.1330401444
 11
661.8736238892
 21
56.7354940911
  0
LINE
  5
22A
100
AcDbEntity
  8
0
100
AcDbLine
 62
7
  6
CONTINUOUS
 10
661.4990426195
 20
57.6557597443
 11
661.1744915419
 21
57.7427229435
  0
LINE
  5
22B
100
AcDbEntity
  8
0
100
AcDbLine
 62
7
  6
CONTINUOUS
 10
662.1664442122
 20
57.8283144142
 11
661.7723464751
 21
57.9339125846
  0
LINE
  5
22C
100
AcDbEntity
  8
0
100
AcDbLine
 62
7
  6
CONTINUOUS
 10
661.0768798801
 20
58.120262297
 11
660.682782143
 21
58.2258604674
  0
LINE
  5
22D
100
AcDbEntity
  8
0
100
AcDbLine
 62
7
  6
CONTINUOUS
 10
660.3972713314
 20
58.8294394403
 11
661.2086490255
 21
58.6120314424
  0
LINE
  5
22E
100
AcDbEntity
  8
0
100
AcDbLine
 62
7
  6
CONTINUOUS
 10
661.9041156204
 20
58.4256817299
 11
662.7154933145
 21
58.208273732
  0
LINE
  5
22F
100
AcDbEntity
  8
0
100
AcDbLine
 62
7
  6
CONTINUOUS
 10
670.731612829
 20
56.2520605928
 11
674.4407680019
 21
55.2581954596
  0
LINE
  5
230
100
AcDbEntity
  8
0
100
AcDbLine
 62
7
  6
CONTINUOUS
 10
660.5436814929
 20
59.3758496018
 11
661.355059187
 21
59.1584416039
  0
LINE
  5
231
100
AcDbEntity
  8
0
100
AcDbLine
 62
7
  6
CONTINUOUS
 10
662.0505257819
 20
58.9720918914
 11
662.861903476
 21
58.7546838936
  0
LINE
  5
232
100
AcDbEntity
  8
RUNDUNGEN
100
AcDbLine
 62
7
  6
CONTINUOUS
 10
716.3357312593
 20
44.5058209918
 11
709.4639386795
 21
46.3471122641
  0
LINE
  5
233
100
AcDbEntity
  8
0
100
AcDbLine
 62
7
  6
CONTINUOUS
 10
709.4639386795
 20
46.3471122641
 11
709.4295368738
 21
46.3563302002
  0
LINE
  5
234
100
AcDbEntity
  8
0
100
AcDbLine
 62
7
  6
CONTINUOUS
 10
649.8315628468
 20
62.3255592112
 11
649.7971610411
 21
62.3347771473
  0
LINE
  5
235
100
AcDbEntity
  8
RUNDUNGEN
100
AcDbLine
 62
7
  6
CONTINUOUS
 10
649.7971610411
 20
62.3347771473
 11
642.9253684613
 21
64.1760684196
  0
LINE
  5
236
100
AcDbEntity
  8
0
100
AcDbLine
 62
7
  6
CONTINUOUS
 10
662.8911855083
 20
58.8639659259
 11
662.0798078142
 21
59.0813739237
  0
LINE
  5
237
100
AcDbEntity
  8
0
100
AcDbLine
 62
7
  6
CONTINUOUS
 10
661.3843412193
 20
59.2677236362
 11
660.5729635252
 21
59.4851316341
  0
LINE
  5
238
100
AcDbEntity
  8
0
100
AcDbLine
 62
7
  6
CONTINUOUS
 10
670.8780229905
 20
56.7984707543
 11
674.5871781635
 21
55.8046056211
  0
LINE
  5
239
100
AcDbEntity
  8
0
100
AcDbLine
 62
7
  6
CONTINUOUS
 10
661.1220126275
 20
59.865090952
 11
661.5161103647
 21
59.7594927816
  0
LINE
  5
23A
100
AcDbEntity
  8
0
100
AcDbLine
 62
7
  6
CONTINUOUS
 10
662.2115769596
 20
59.5731430691
 11
662.6056746967
 21
59.4675448987
  0
LINE
  5
23B
100
AcDbEntity
  8
0
100
AcDbLine
 62
7
  6
CONTINUOUS
 10
675.3400680409
 20
56.1416587808
 11
671.0127203391
 21
57.3011681029
  0
LINE
  5
23C
100
AcDbEntity
  8
0
100
AcDbLine
 62
7
  6
CONTINUOUS
 10
661.7894142202
 20
60.0376456218
 11
662.1139652979
 21
59.9506824227
  0
LINE
  5
23D
100
AcDbEntity
  8
0
100
AcDbLine
 62
7
  6
CONTINUOUS
 10
661.2684227891
 20
60.4115011135
 11
661.6625205262
 21
60.3059029431
  0
LINE
  5
23E
100
AcDbEntity
  8
0
100
AcDbLine
 62
7
  6
CONTINUOUS
 10
662.3579871211
 20
60.1195532306
 11
662.7520848582
 21
60.0139550602
  0
LINE
  5
23F
100
AcDbEntity
  8
0
100
AcDbLine
 62
7
  6
CONTINUOUS
 10
661.9358243817
 20
60.5840557833
 11
662.2603754594
 21
60.4970925842
  0
LINE
  5
240
100
AcDbEntity
  8
0
100
AcDbLine
 62
7
  6
CONTINUOUS
 10
694.5596128417
 20
52.4867427221
 11
693.0759507726
 21
52.8842887754
  0
LINE
  5
241
100
AcDbEntity
  8
0
100
AcDbLine
 62
7
  6
CONTINUOUS
 10
671.4010977176
 20
58.7506122121
 11
669.9174356485
 21
59.1481582654
  0
LINE
  5
242
100
AcDbEntity
  8
0
100
AcDbLine
 62
7
  6
CONTINUOUS
 10
663.0449051813
 20
61.1067753832
 11
661.5612431121
 21
61.5043214365
  0
LINE
  5
243
100
AcDbEntity
  8
0
100
AcDbLine
 62
7
  6
CONTINUOUS
 10
661.2757323005
 20
62.1079004094
 11
663.5939542836
 21
61.4867347011
  0
LINE
  5
244
100
AcDbEntity
  8
0
100
AcDbLine
 62
7
  6
CONTINUOUS
 10
693.3219198439
 20
53.8022578467
 11
698.7295644693
 21
52.3532838364
  0
LINE
  5
245
100
AcDbEntity
  8
0
100
AcDbLine
 62
7
  6
CONTINUOUS
 10
670.1634047198
 20
60.0661273367
 11
675.9744144908
 21
58.5090719614
  0
LINE
  5
246
100
AcDbEntity
  8
0
100
AcDbLine
 62
7
  6
CONTINUOUS
 10
661.422142462
 20
62.6543105709
 11
663.7403644451
 21
62.0331448626
  0
LINE
  5
247
100
AcDbEntity
  8
0
100
AcDbLine
 62
7
  6
CONTINUOUS
 10
693.4683300054
 20
54.3486680082
 11
698.8759746309
 21
52.8996939979
  0
LINE
  5
248
100
AcDbEntity
  8
0
100
AcDbLine
 62
7
  6
CONTINUOUS
 10
670.3098148813
 20
60.6125374982
 11
676.1208246523
 21
59.0554821229
  0
LINE
  5
249
100
AcDbEntity
  8
0
100
AcDbLine
 62
7
  6
CONTINUOUS
 10
698.9781604957
 20
53.4111027723
 11
693.603027354
 21
54.8513653568
  0
LINE
  5
24A
100
AcDbEntity
  8
0
100
AcDbLine
 62
7
  6
CONTINUOUS
 10
690.3575165777
 20
55.7209973484
 11
688.8738545085
 21
56.1185434017
  0
LINE
  5
24B
100
AcDbEntity
  8
0
100
AcDbLine
 62
7
  6
CONTINUOUS
 10
683.0409988018
 20
57.6814523778
 11
681.5573367326
 21
58.0789984311
  0
LINE
  5
24C
100
AcDbEntity
  8
0
100
AcDbLine
 62
7
  6
CONTINUOUS
 10
676.2408809847
 20
59.5035384554
 11
670.4298712138
 21
61.0605938307
  0
LINE
  5
24D
100
AcDbEntity
  8
0
100
AcDbLine
 62
7
  6
CONTINUOUS
 10
666.4953828526
 20
62.1148368097
 11
659.0770725067
 21
64.1025670761
  0
LINE
  5
24E
100
AcDbEntity
  8
BEZUGSACHSEN
100
AcDbLine
 62
7
  6
CONTINUOUS
 10
674.6049905882
 20
71.3245577383
 11
692.4746183745
 21
66.5364054039
  0
LINE
  5
24F
100
AcDbEntity
  8
RUNDUNGEN
100
AcDbLine
 62
7
  6
CONTINUOUS
 10
642.9253684613
 20
64.1760684196
 11
642.8149593868
 21
64.206557948
  0
LINE
  5
250
100
AcDbEntity
  8
BEZUGSACHSEN
100
AcDbLine
 62
7
  6
CONTINUOUS
 10
897.6543814761
 20
77.156693421
 11
879.7847536897
 21
72.3685410866
  0
LINE
  5
251
100
AcDbEntity
  8
BEZUGSACHSEN
100
AcDbLine
 62
7
  6
CONTINUOUS
 10
894.9305031494
 20
87.3223457297
 11
877.0608753631
 21
82.5341933954
  0
LINE
  5
252
100
AcDbEntity
  8
BEZUGSACHSEN
100
AcDbLine
 62
7
  6
CONTINUOUS
 10
893.3677871031
 20
93.1544814125
 11
875.4981593168
 21
88.3663290781
  0
LINE
  5
253
100
AcDbEntity
  8
0
100
AcDbLine
 62
7
  6
CONTINUOUS
 10
919.5086816648
 20
106.6768047763
 11
891.738314159
 21
99.2357572296
  0
LINE
  5
254
100
AcDbEntity
  8
0
100
AcDbLine
 62
7
  6
CONTINUOUS
 10
873.8686863726
 20
94.4476048952
 11
846.0983188668
 21
87.0065573485
  0
LINE
  5
255
100
AcDbEntity
  8
BEZUGSACHSEN
100
AcDbLine
 62
7
  6
CONTINUOUS
 10
676.1677066345
 20
77.156693421
 11
694.0373344208
 21
72.3685410866
  0
LINE
  5
256
100
AcDbEntity
  8
BEZUGSACHSEN
100
AcDbLine
 62
7
  6
CONTINUOUS
 10
678.8915849611
 20
87.3223457297
 11
696.7612127475
 21
82.5341933954
  0
LINE
  5
257
100
AcDbEntity
  8
BEZUGSACHSEN
100
AcDbLine
 62
7
  6
CONTINUOUS
 10
680.4543010075
 20
93.1544814125
 11
698.3239287938
 21
88.3663290781
  0
LINE
  5
258
100
AcDbEntity
  8
RUNDUNGEN
100
AcDbLine
 62
7
  6
CONTINUOUS
 10
654.3134064458
 20
106.6768047763
 11
682.0837739516
 21
99.2357572296
  0
LINE
  5
259
100
AcDbEntity
  8
RUNDUNGEN
100
AcDbLine
 62
7
  6
CONTINUOUS
 10
699.953401738
 20
94.4476048952
 11
727.7237692438
 21
87.0065573485
  0
LINE
  5
25A
100
AcDbEntity
  8
0
100
AcDbLine
 62
7
  6
CONTINUOUS
 10
844.0653433983
 20
94.5937250876
 11
872.0700979614
 21
102.0975764571
  0
LINE
  5
25B
100
AcDbEntity
  8
0
100
AcDbLine
 62
7
  6
CONTINUOUS
 10
889.4709516331
 20
106.760121146
 11
917.4757061962
 21
114.2639725154
  0
LINE
  5
25C
100
AcDbEntity
  8
0
100
AcDbLine
 62
7
  6
CONTINUOUS
 10
845.3982064865
 20
117.2027339252
 11
849.8530326248
 21
118.3964009914
  0
LINE
  5
25D
100
AcDbEntity
  8
0
100
AcDbLine
 62
7
  6
CONTINUOUS
 10
900.562082345
 20
131.9838499129
 11
905.0169091921
 21
133.177517169
  0
LINE
  5
25E
100
AcDbEntity
  8
0
100
AcDbLine
 62
7
  6
CONTINUOUS
 10
892.5304823208
 20
129.9886653709
 11
857.8061945497
 21
120.6843205049
  0
LINE
  5
25F
100
AcDbEntity
  8
RUNDUNGEN
100
AcDbLine
 62
7
  6
CONTINUOUS
 10
631.3964856939
 20
70.5262952713
 11
637.2218629697
 21
71.694656242
  0
LINE
  5
260
100
AcDbEntity
  8
RUNDUNGEN
100
AcDbLine
 62
7
  6
CONTINUOUS
 10
632.3115492033
 20
73.9413587808
 11
638.1369264792
 21
75.1097197514
  0
LINE
  5
261
100
AcDbEntity
  8
RUNDUNGEN
100
AcDbLine
 62
7
  6
CONTINUOUS
 10
630.9176367661
 20
82.7385788446
 11
625.0922594902
 21
81.570217874
  0
LINE
  5
262
100
AcDbEntity
  8
0
100
AcDbLine
 62
7
  6
CONTINUOUS
 10
728.0328009937
 20
100.2910325352
 11
727.5082985084
 21
100.2634569372
  0
LINE
  5
263
100
AcDbEntity
  8
0
100
AcDbLine
 62
7
  6
CONTINUOUS
 10
726.6986012713
 20
103.6746117032
 11
727.2231037566
 21
103.7021873012
  0
LINE
  5
264
100
AcDbEntity
  8
0
100
AcDbLine
 62
7
  6
CONTINUOUS
 10
727.4130927543
 20
106.3411302195
 11
727.9375952396
 21
106.3687058175
  0
LINE
  5
265
100
AcDbEntity
  8
0
100
AcDbLine
 62
7
  6
CONTINUOUS
 10
711.2667383674
 20
108.4820293675
 11
710.7422358821
 21
108.4544537695
  0
LINE
  5
266
100
AcDbEntity
  8
0
100
AcDbLine
 62
7
  6
CONTINUOUS
 10
679.7356883836
 20
113.4003204712
 11
679.0793151414
 21
113.408079536
  0
LINE
  5
267
100
AcDbEntity
  8
0
100
AcDbLine
 62
7
  6
CONTINUOUS
 10
672.363550171
 20
115.3756789518
 11
671.70717605
 21
115.3834382521
  0
LINE
  5
268
100
AcDbEntity
  8
0
100
AcDbLine
 62
7
  6
CONTINUOUS
 10
717.9428837673
 20
103.1627333231
 11
717.2575573684
 21
103.1782503629
  0
LINE
  5
269
100
AcDbEntity
  8
0
100
AcDbLine
 62
7
  6
CONTINUOUS
 10
716.5958211455
 20
109.071493796
 11
717.2811484646
 21
109.0559765097
  0
LINE
  5
26A
100
AcDbEntity
  8
0
100
AcDbLine
 62
7
  6
CONTINUOUS
 10
678.8271416889
 20
112.4669553991
 11
679.6371023376
 21
112.4180427274
  0
LINE
  5
26B
100
AcDbEntity
  8
0
100
AcDbLine
 62
7
  6
CONTINUOUS
 10
671.4550025975
 20
114.4423141151
 11
672.2649623674
 21
114.3934016789
  0
LINE
  5
26C
100
AcDbEntity
  8
0
100
AcDbLine
 62
7
  6
CONTINUOUS
 10
727.1373282056
 20
99.5222799357
 11
727.9834803624
 21
99.4636697787
  0
LINE
  5
26D
100
AcDbEntity
  8
0
100
AcDbLine
 62
7
  6
CONTINUOUS
 10
717.0053839159
 20
102.2371262259
 11
717.8515351524
 21
102.1785163155
  0
LINE
  5
26E
100
AcDbEntity
  8
0
100
AcDbLine
 62
7
  6
CONTINUOUS
 10
727.5940740299
 20
104.4433641929
 11
726.7479218769
 21
104.5019743636
  0
LINE
  5
26F
100
AcDbEntity
  8
0
100
AcDbLine
 62
7
  6
CONTINUOUS
 10
728.308565513
 20
107.1098827092
 11
727.4624133599
 21
107.1684928799
  0
LINE
  5
270
100
AcDbEntity
  8
0
100
AcDbLine
 62
7
  6
CONTINUOUS
 10
717.5333218877
 20
109.9971005368
 11
716.6871697346
 21
110.0557107075
  0
LINE
  5
271
100
AcDbEntity
  8
RUNDUNGEN
100
AcDbLine
 62
7
  6
CONTINUOUS
 10
729.7567447123
 20
94.5937250876
 11
701.7519901492
 21
102.0975764571
  0
LINE
  5
272
100
AcDbEntity
  8
RUNDUNGEN
100
AcDbLine
 62
7
  6
CONTINUOUS
 10
684.3511364775
 20
106.760121146
 11
656.3463819144
 21
114.2639725154
  0
LINE
  5
273
100
AcDbEntity
  8
0
100
AcDbLine
 62
7
  6
CONTINUOUS
 10
661.3183113468
 20
117.1584323496
 11
662.2398287332
 21
116.9115125101
  0
LINE
  5
274
100
AcDbEntity
  8
0
100
AcDbLine
 62
7
  6
CONTINUOUS
 10
666.0794843635
 20
115.8826798848
 11
667.154588274
 21
115.5946066602
  0
LINE
  5
275
100
AcDbEntity
  8
0
100
AcDbLine
 62
7
  6
CONTINUOUS
 10
670.8406573803
 20
114.6069274199
 11
671.4550025975
 21
114.4423141151
  0
LINE
  5
276
100
AcDbEntity
  8
0
100
AcDbLine
 62
7
  6
CONTINUOUS
 10
675.1410721432
 20
113.4546347571
 11
678.8271416889
 21
112.4669553991
  0
LINE
  5
277
100
AcDbEntity
  8
0
100
AcDbLine
 62
7
  6
CONTINUOUS
 10
703.3352988021
 20
105.9000144926
 11
704.300245965
 21
105.6414576796
  0
LINE
  5
278
100
AcDbEntity
  8
0
100
AcDbLine
 62
7
  6
CONTINUOUS
 10
705.5868421054
 20
105.2967152827
 11
706.5517892683
 21
105.0381584697
  0
LINE
  5
279
100
AcDbEntity
  8
0
100
AcDbLine
 62
7
  6
CONTINUOUS
 10
710.5724025235
 20
103.9608383949
 11
711.6981745203
 21
103.6591886975
  0
LINE
  5
27A
100
AcDbEntity
  8
0
100
AcDbLine
 62
7
  6
CONTINUOUS
 10
715.5579631717
 20
102.6249614454
 11
717.0053839159
 21
102.2371262259
  0
LINE
  5
27B
100
AcDbEntity
  8
0
100
AcDbLine
 62
7
  6
CONTINUOUS
 10
721.5084709827
 20
101.0305276829
 11
722.4734181455
 21
100.7719708699
  0
LINE
  5
27C
100
AcDbEntity
  8
0
100
AcDbLine
 62
7
  6
CONTINUOUS
 10
726.3332067969
 20
99.7377436178
 11
727.1373282056
 21
99.5222799357
  0
LINE
  5
27D
100
AcDbEntity
  8
0
100
AcDbLine
 62
7
  6
CONTINUOUS
 10
727.5082985084
 20
100.2634569372
 11
726.3825255914
 21
100.5651068812
  0
LINE
  5
27E
100
AcDbEntity
  8
0
100
AcDbLine
 62
7
  6
CONTINUOUS
 10
717.2575573684
 20
103.1782503629
 11
715.8101366241
 21
103.5660855824
  0
LINE
  5
27F
100
AcDbEntity
  8
0
100
AcDbLine
 62
7
  6
CONTINUOUS
 10
679.0793151414
 20
113.408079536
 11
676.3147629821
 21
114.1488390546
  0
LINE
  5
280
100
AcDbEntity
  8
0
100
AcDbLine
 62
7
  6
CONTINUOUS
 10
671.70717605
 20
115.3834382521
 11
671.0928308327
 21
115.5480515569
  0
LINE
  5
281
100
AcDbEntity
  8
0
100
AcDbLine
 62
7
  6
CONTINUOUS
 10
717.6851372766
 20
105.4172996401
 11
719.1325580209
 21
105.0294644206
  0
LINE
  5
282
100
AcDbEntity
  8
0
100
AcDbLine
 62
7
  6
CONTINUOUS
 10
663.1224358316
 20
120.2054470445
 11
665.7334016866
 21
119.5058408522
  0
LINE
  5
283
100
AcDbEntity
  8
0
100
AcDbLine
 62
7
  6
CONTINUOUS
 10
707.4343963667
 20
108.3320930041
 11
710.1684132514
 21
107.5995153878
  0
LINE
  5
284
100
AcDbEntity
  8
0
100
AcDbLine
 62
7
  6
CONTINUOUS
 10
727.2231037566
 20
103.7021873012
 11
728.3488766735
 21
103.4005373572
  0
LINE
  5
285
100
AcDbEntity
  8
0
100
AcDbLine
 62
7
  6
CONTINUOUS
 10
720.3496786068
 20
105.7120316347
 11
717.9373106997
 21
106.3584236672
  0
LINE
  5
286
100
AcDbEntity
  8
0
100
AcDbLine
 62
7
  6
CONTINUOUS
 10
710.7422358821
 20
108.4544537695
 11
707.6865697897
 21
109.2732170312
  0
LINE
  5
287
100
AcDbEntity
  8
0
100
AcDbLine
 62
7
  6
CONTINUOUS
 10
666.2927474986
 20
120.3646582858
 11
663.3746092547
 21
121.1465710717
  0
LINE
  5
288
100
AcDbEntity
  8
0
100
AcDbLine
 62
7
  6
CONTINUOUS
 10
728.3981954386
 20
104.2279005108
 11
727.5940740299
 21
104.4433641929
  0
LINE
  5
289
100
AcDbEntity
  8
0
100
AcDbLine
 62
7
  6
CONTINUOUS
 10
719.7629915785
 20
107.3822744884
 11
720.7279387414
 21
107.1237176754
  0
LINE
  5
28A
100
AcDbEntity
  8
0
100
AcDbLine
 62
7
  6
CONTINUOUS
 10
729.93696581
 20
104.8242823956
 11
730.7410890592
 21
104.6088182204
  0
LINE
  5
28B
100
AcDbEntity
  8
0
100
AcDbLine
 62
7
  6
CONTINUOUS
 10
677.7857748226
 20
119.6387299818
 11
680.5503269819
 21
118.8979704633
  0
LINE
  5
28C
100
AcDbEntity
  8
0
100
AcDbLine
 62
7
  6
CONTINUOUS
 10
717.2811484646
 20
109.0559765097
 11
718.7285692089
 21
108.6681412901
  0
LINE
  5
28D
100
AcDbEntity
  8
0
100
AcDbLine
 62
7
  6
CONTINUOUS
 10
664.0050429301
 20
123.4993815789
 11
666.9231811739
 21
122.7174687931
  0
LINE
  5
28E
100
AcDbEntity
  8
0
100
AcDbLine
 62
7
  6
CONTINUOUS
 10
708.3170034651
 20
111.6260275385
 11
711.3726695575
 21
110.8072642767
  0
LINE
  5
28F
100
AcDbEntity
  8
0
100
AcDbLine
 62
7
  6
CONTINUOUS
 10
727.9375952396
 20
106.3687058175
 11
728.9025424025
 21
106.1101490045
  0
LINE
  5
290
100
AcDbEntity
  8
0
100
AcDbLine
 62
7
  6
CONTINUOUS
 10
728.951863008
 20
106.9375116649
 11
728.308565513
 21
107.1098827092
  0
LINE
  5
291
100
AcDbEntity
  8
0
100
AcDbLine
 62
7
  6
CONTINUOUS
 10
724.4487768615
 20
108.1441099613
 11
723.4838296987
 21
108.4026667743
  0
LINE
  5
292
100
AcDbEntity
  8
0
100
AcDbLine
 62
7
  6
CONTINUOUS
 10
718.980742632
 20
109.6092653173
 11
717.5333218877
 21
109.9971005368
  0
LINE
  5
293
100
AcDbEntity
  8
0
100
AcDbLine
 62
7
  6
CONTINUOUS
 10
711.4219897029
 20
111.6346270604
 11
707.5622008215
 21
112.6688543741
  0
LINE
  5
294
100
AcDbEntity
  8
0
100
AcDbLine
 62
7
  6
CONTINUOUS
 10
706.275604681
 20
113.013596771
 11
705.3106575182
 21
113.272153584
  0
LINE
  5
295
100
AcDbEntity
  8
0
100
AcDbLine
 62
7
  6
CONTINUOUS
 10
680.8025004049
 20
119.8390944905
 11
677.1164308592
 21
120.8267738485
  0
LINE
  5
296
100
AcDbEntity
  8
0
100
AcDbLine
 62
7
  6
CONTINUOUS
 10
675.8877413036
 20
121.1560002227
 11
674.9662239172
 21
121.4029200622
  0
LINE
  5
297
100
AcDbEntity
  8
0
100
AcDbLine
 62
7
  6
CONTINUOUS
 10
671.2801543715
 20
122.3905994202
 11
670.3586365456
 21
122.6375193774
  0
LINE
  5
298
100
AcDbEntity
  8
0
100
AcDbLine
 62
7
  6
CONTINUOUS
 10
666.9797396085
 20
123.542892083
 11
663.2936700628
 21
124.530571441
  0
LINE
  5
299
100
AcDbEntity
  8
RUNDUNGEN
100
AcDbLine
 62
7
  6
CONTINUOUS
 10
728.423881624
 20
117.2027339252
 11
723.9690554858
 21
118.3964009914
  0
LINE
  5
29A
100
AcDbEntity
  8
RUNDUNGEN
100
AcDbLine
 62
7
  6
CONTINUOUS
 10
673.2600057656
 20
131.9838499129
 11
668.8051789185
 21
133.177517169
  0
LINE
  5
29B
100
AcDbEntity
  8
RUNDUNGEN
100
AcDbLine
 62
7
  6
CONTINUOUS
 10
681.2916057898
 20
129.9886653709
 11
716.0158935609
 21
120.6843205049
  0
LINE
  5
29C
100
AcDbEntity
  8
0
100
AcDbLine
 62
7
  6
CONTINUOUS
 10
714.79586883
 20
102.9972796389
 11
715.5579631717
 21
102.6249614454
  0
LINE
  5
29D
100
AcDbEntity
  8
0
100
AcDbLine
 62
7
  6
CONTINUOUS
 10
725.5711124552
 20
100.1100618113
 11
726.3332067969
 21
99.7377436178
  0
LINE
  5
29E
100
AcDbEntity
  8
0
100
AcDbLine
 62
7
  6
CONTINUOUS
 10
712.1840831281
 20
111.2623091272
 11
711.4219897029
 21
111.6346270604
  0
LINE
  5
29F
100
AcDbEntity
  8
0
100
AcDbLine
 62
7
  6
CONTINUOUS
 10
729.160289784
 20
103.855582331
 11
728.3981954386
 21
104.2279005108
  0
LINE
  5
2A0
100
AcDbEntity
  8
0
100
AcDbLine
 62
7
  6
CONTINUOUS
 10
719.7428360571
 20
109.2369473841
 11
718.980742632
 21
109.6092653173
  0
LINE
  5
2A1
100
AcDbEntity
  8
0
100
AcDbLine
 62
7
  6
CONTINUOUS
 10
729.7139573534
 20
106.5651934851
 11
728.951863008
 21
106.9375116649
  0
LINE
  5
2A2
100
AcDbEntity
  8
0
100
AcDbLine
 62
7
  6
CONTINUOUS
 10
670.1147554254
 20
114.9695478926
 11
670.8406573803
 21
114.6069274199
  0
LINE
  5
2A3
100
AcDbEntity
  8
0
100
AcDbLine
 62
7
  6
CONTINUOUS
 10
667.7056420065
 20
123.1802715063
 11
666.9797396085
 21
123.542892083
  0
LINE
  5
2A4
100
AcDbEntity
  8
0
100
AcDbLine
 62
7
  6
CONTINUOUS
 10
681.5284032423
 20
119.476473796
 11
680.8025004049
 21
119.8390944905
  0
LINE
  5
2A5
100
AcDbEntity
  8
0
100
AcDbLine
 62
7
  6
CONTINUOUS
 10
715.8101366241
 20
103.5660855824
 11
715.2088671127
 21
103.8953108778
  0
LINE
  5
2A6
100
AcDbEntity
  8
0
100
AcDbLine
 62
7
  6
CONTINUOUS
 10
718.7285692089
 20
108.6681412901
 11
719.3298378002
 21
108.3389162413
  0
LINE
  5
2A7
100
AcDbEntity
  8
0
100
AcDbLine
 62
7
  6
CONTINUOUS
 10
671.0928308327
 20
115.5480515569
 11
670.5205153982
 21
115.8695186308
  0
LINE
  5
2A8
100
AcDbEntity
  8
0
100
AcDbLine
 62
7
  6
CONTINUOUS
 10
680.5503269819
 20
118.8979704633
 11
681.1226424164
 21
118.5765033894
  0
LINE
  5
2A9
100
AcDbEntity
  8
0
100
AcDbLine
 62
7
  6
CONTINUOUS
 10
666.9231811739
 20
122.7174687931
 11
667.3419109633
 21
122.4371548688
  0
LINE
  5
2AA
100
AcDbEntity
  8
0
100
AcDbLine
 62
7
  6
CONTINUOUS
 10
669.5844680269
 20
115.4478692477
 11
670.1147554254
 21
114.9695478926
  0
LINE
  5
2AB
100
AcDbEntity
  8
RUNDUNGEN
100
AcDbLine
 62
7
  6
CONTINUOUS
 10
619.0126176575
 20
87.8463139574
 11
621.8414371079
 21
82.8907076613
  0
LINE
  5
2AC
100
AcDbEntity
  8
RUNDUNGEN
100
AcDbLine
 62
7
  6
CONTINUOUS
 10
630.1662486332
 20
68.3070662758
 11
645.5400874159
 21
41.3747386376
  0
LINE
  5
2AD
100
AcDbEntity
  8
RUNDUNGEN
100
AcDbLine
 62
7
  6
CONTINUOUS
 10
672.1472992994
 20
-5.2365312028
 11
678.0346098067
 21
-15.5500890417
  0
LINE
  5
2AE
100
AcDbEntity
  8
RUNDUNGEN
100
AcDbLine
 62
7
  6
CONTINUOUS
 10
639.1902422667
 20
75.2454226348
 11
636.1189525778
 21
80.6257951849
  0
LINE
  5
2AF
100
AcDbEntity
  8
0
100
AcDbLine
 62
7
  6
CONTINUOUS
 10
727.9834803624
 20
99.4636697787
 11
728.9136903341
 21
99.7187676582
  0
LINE
  5
2B0
100
AcDbEntity
  8
0
100
AcDbLine
 62
7
  6
CONTINUOUS
 10
727.4624133599
 20
107.1684928799
 11
726.5322033992
 21
106.9133950416
  0
LINE
  5
2B1
100
AcDbEntity
  8
0
100
AcDbLine
 62
7
  6
CONTINUOUS
 10
679.6371023376
 20
112.4180427274
 11
680.3355044948
 21
112.5671377083
  0
LINE
  5
2B2
100
AcDbEntity
  8
0
100
AcDbLine
 62
7
  6
CONTINUOUS
 10
672.2649623674
 20
114.3934016789
 11
672.9633654034
 21
114.5424964243
  0
LINE
  5
2B3
100
AcDbEntity
  8
0
100
AcDbLine
 62
7
  6
CONTINUOUS
 10
666.7389771004
 20
119.5726289629
 11
667.4373796859
 21
119.7217237848
  0
LINE
  5
2B4
100
AcDbEntity
  8
RUNDUNGEN
100
AcDbLine
 62
7
  6
CONTINUOUS
 10
624.7418000288
 20
95.3073424264
 11
622.9493762516
 21
94.9478467431
  0
LINE
  5
2B5
100
AcDbEntity
  8
RUNDUNGEN
100
AcDbLine
 62
7
  6
CONTINUOUS
 10
625.6568635382
 20
98.7224059359
 11
623.864439761
 21
98.3629102526
  0
LINE
  5
2B6
100
AcDbEntity
  8
0
100
AcDbLine
 62
7
  6
CONTINUOUS
 10
717.8515351524
 20
102.1785163155
 11
718.5788913865
 21
102.3198530748
  0
LINE
  5
2B7
100
AcDbEntity
  8
0
100
AcDbLine
 62
7
  6
CONTINUOUS
 10
711.217418222
 20
107.6546665838
 11
711.944774445
 21
107.7960033019
  0
LINE
  5
2B8
100
AcDbEntity
  8
0
100
AcDbLine
 62
7
  6
CONTINUOUS
 10
716.6871697346
 20
110.0557107075
 11
715.9598144319
 21
109.9143737428
  0
LINE
  5
2B9
100
AcDbEntity
  8
0
100
AcDbLine
 62
7
  6
CONTINUOUS
 10
666.7955350956
 20
120.3980523706
 11
666.2927474986
 21
120.3646582858
  0
LINE
  5
2BA
100
AcDbEntity
  8
0
100
AcDbLine
 62
7
  6
CONTINUOUS
 10
726.3825255914
 20
100.5651068812
 11
725.9420809138
 21
100.8512392922
  0
LINE
  5
2BB
100
AcDbEntity
  8
0
100
AcDbLine
 62
7
  6
CONTINUOUS
 10
711.3726695575
 20
110.8072642767
 11
711.8131142351
 21
110.5211318657
  0
LINE
  5
2BC
100
AcDbEntity
  8
0
100
AcDbLine
 62
7
  6
CONTINUOUS
 10
728.3488766735
 20
103.4005373572
 11
728.7893213511
 21
103.1144049462
  0
LINE
  5
2BD
100
AcDbEntity
  8
0
100
AcDbLine
 62
7
  6
CONTINUOUS
 10
728.9025424025
 20
106.1101490045
 11
729.34298708
 21
105.8240165934
  0
LINE
  5
2BE
100
AcDbEntity
  8
0
100
AcDbLine
 62
7
  6
CONTINUOUS
 10
714.2366291536
 20
103.4833587334
 11
714.79586883
 21
102.9972796389
  0
LINE
  5
2BF
100
AcDbEntity
  8
0
100
AcDbLine
 62
7
  6
CONTINUOUS
 10
720.3020766647
 20
108.7508680842
 11
719.7428360571
 21
109.2369473841
  0
LINE
  5
2C0
100
AcDbEntity
  8
RUNDUNGEN
100
AcDbLine
 62
7
  6
CONTINUOUS
 10
752.7958130208
 20
57.8462198569
 11
743.7027574909
 21
65.8462007308
  0
LINE
  5
2C1
100
AcDbEntity
  8
RUNDUNGEN
100
AcDbLine
 62
7
  6
CONTINUOUS
 10
753.7108765303
 20
61.2612833663
 11
744.6178210004
 21
69.2612642403
  0
LINE
  5
2C2
100
AcDbEntity
  8
0
100
AcDbLine
 62
7
  6
CONTINUOUS
 10
682.058689773
 20
118.9981527176
 11
681.5284032423
 21
119.476473796
  0
LINE
  5
2C3
100
AcDbEntity
  8
0
100
AcDbLine
 62
7
  6
CONTINUOUS
 10
724.8930759286
 20
100.7960880413
 11
725.5711124552
 21
100.1100618113
  0
LINE
  5
2C4
100
AcDbEntity
  8
0
100
AcDbLine
 62
7
  6
CONTINUOUS
 10
670.5205153982
 20
115.8695186308
 11
670.1438145421
 21
116.3066866694
  0
LINE
  5
2C5
100
AcDbEntity
  8
0
100
AcDbLine
 62
7
  6
CONTINUOUS
 10
681.1226424164
 20
118.5765033894
 11
681.499343302
 21
118.1393354607
  0
LINE
  5
2C6
100
AcDbEntity
  8
0
100
AcDbLine
 62
7
  6
CONTINUOUS
 10
668.1939000728
 20
122.5450963057
 11
667.7056420065
 21
123.1802715063
  0
LINE
  5
2C7
100
AcDbEntity
  8
RUNDUNGEN
100
AcDbLine
 62
7
  6
CONTINUOUS
 10
713.9652363577
 20
-22.5021482015
 11
697.4220646619
 21
6.4786500611
  0
LINE
  5
2C8
100
AcDbEntity
  8
RUNDUNGEN
100
AcDbLine
 62
7
  6
CONTINUOUS
 10
714.8802998671
 20
-19.0870846921
 11
698.3371281714
 21
9.8937135706
  0
LINE
  5
2C9
100
AcDbEntity
  8
0
100
AcDbLine
 62
7
  6
CONTINUOUS
 10
729.8383263217
 20
103.1695561422
 11
729.160289784
 21
103.855582331
  0
LINE
  5
2CA
100
AcDbEntity
  8
0
100
AcDbLine
 62
7
  6
CONTINUOUS
 10
730.3919920506
 20
105.8791677895
 11
729.7139573534
 21
106.5651934851
  0
LINE
  5
2CB
100
AcDbEntity
  8
0
100
AcDbLine
 62
7
  6
CONTINUOUS
 10
715.2088671127
 20
103.8953108778
 11
714.8104513684
 21
104.3382974032
  0
LINE
  5
2CC
100
AcDbEntity
  8
0
100
AcDbLine
 62
7
  6
CONTINUOUS
 10
725.9420809138
 20
100.8512392922
 11
725.5436651401
 21
101.2942257078
  0
LINE
  5
2CD
100
AcDbEntity
  8
0
100
AcDbLine
 62
7
  6
CONTINUOUS
 10
719.3298378002
 20
108.3389162413
 11
719.7282535739
 21
107.8959298258
  0
LINE
  5
2CE
100
AcDbEntity
  8
0
100
AcDbLine
 62
7
  6
CONTINUOUS
 10
728.7893213511
 20
103.1144049462
 11
729.1877371249
 21
102.6714185306
  0
LINE
  5
2CF
100
AcDbEntity
  8
0
100
AcDbLine
 62
7
  6
CONTINUOUS
 10
729.34298708
 20
105.8240165934
 11
729.7414028538
 21
105.3810301779
  0
LINE
  5
2D0
100
AcDbEntity
  8
0
100
AcDbLine
 62
7
  6
CONTINUOUS
 10
712.7012948318
 20
110.6193758228
 11
712.1840831281
 21
111.2623091272
  0
LINE
  5
2D1
100
AcDbEntity
  8
0
100
AcDbLine
 62
7
  6
CONTINUOUS
 10
669.1382393185
 20
116.23989839
 11
669.5844680269
 21
115.4478692477
  0
LINE
  5
2D2
100
AcDbEntity
  8
0
100
AcDbLine
 62
7
  6
CONTINUOUS
 10
667.3419109633
 20
122.4371548688
 11
667.5650257642
 21
122.0411402073
  0
LINE
  5
2D3
100
AcDbEntity
  8
0
100
AcDbLine
 62
7
  6
CONTINUOUS
 10
682.5049184961
 20
118.2061236302
 11
682.058689773
 21
118.9981527176
  0
LINE
  5
2D4
100
AcDbEntity
  8
0
100
AcDbLine
 62
7
  6
CONTINUOUS
 10
674.4407680019
 20
55.2581954596
 11
676.6969496286
 21
50.2453411521
  0
LINE
  5
2D5
100
AcDbEntity
  8
0
100
AcDbLine
 62
7
  6
CONTINUOUS
 10
674.5871781635
 20
55.8046056211
 11
676.8433597901
 21
50.7917513136
  0
LINE
  5
2D6
100
AcDbEntity
  8
0
100
AcDbLine
 62
7
  6
CONTINUOUS
 10
678.4101350186
 20
49.7862945103
 11
676.0642815109
 21
54.9983845841
  0
LINE
  5
2D7
100
AcDbEntity
  8
RUNDUNGEN
100
AcDbLine
 62
7
  6
CONTINUOUS
 10
642.8149593868
 20
64.206557948
 11
638.7873356482
 21
77.7104945064
  0
LINE
  5
2D8
100
AcDbEntity
  8
0
100
AcDbLine
 62
7
  6
CONTINUOUS
 10
702.3774506212
 20
201.0527869426
 11
690.2713059176
 21
201.0527869426
  0
LINE
  5
2D9
100
AcDbEntity
  8
0
100
AcDbLine
 62
7
  6
CONTINUOUS
 10
871.4446374894
 20
201.0527869426
 11
883.550782193
 21
201.0527869426
  0
LINE
  5
2DA
100
AcDbEntity
  8
0
100
AcDbLine
 62
7
  6
CONTINUOUS
 10
743.7713059176
 20
186.7175051475
 11
733.2870770624
 21
192.7705774993
  0
LINE
  5
2DB
100
AcDbEntity
  8
0
100
AcDbLine
 62
7
  6
CONTINUOUS
 10
847.1355022701
 20
54.1579614021
 11
857.3754950237
 21
44.4770211607
  0
LINE
  5
2DC
100
AcDbEntity
  8
0
100
AcDbLine
 62
7
  6
CONTINUOUS
 10
713.7614463684
 20
104.2831460973
 11
714.2366291536
 21
103.4833587334
  0
LINE
  5
2DD
100
AcDbEntity
  8
0
100
AcDbLine
 62
7
  6
CONTINUOUS
 10
711.8131142351
 20
110.5211318657
 11
712.0507056351
 21
110.1212382112
  0
LINE
  5
2DE
100
AcDbEntity
  8
0
100
AcDbLine
 62
7
  6
CONTINUOUS
 10
720.7772594647
 20
107.9510807752
 11
720.3020766647
 21
108.7508680842
  0
LINE
  5
2DF
100
AcDbEntity
  8
0
100
AcDbLine
 62
7
  6
CONTINUOUS
 10
729.1877371249
 20
102.6714185306
 11
729.4253271445
 21
102.271525246
  0
LINE
  5
2E0
100
AcDbEntity
  8
0
100
AcDbLine
 62
7
  6
CONTINUOUS
 10
730.1947131916
 20
102.5697157221
 11
729.8383263217
 21
103.1695561422
  0
LINE
  5
2E1
100
AcDbEntity
  8
0
100
AcDbLine
 62
7
  6
CONTINUOUS
 10
668.4865431507
 20
121.7942203678
 11
668.1939000728
 21
122.5450963057
  0
LINE
  5
2E2
100
AcDbEntity
  8
0
100
AcDbLine
 62
7
  6
CONTINUOUS
 10
670.1438145421
 20
116.3066866694
 11
669.9627282056
 21
116.8595554532
  0
LINE
  5
2E3
100
AcDbEntity
  8
0
100
AcDbLine
 62
7
  6
CONTINUOUS
 10
621.9110440553
 20
664.7171997025
 11
621.9110440553
 21
454.7171997025
  0
LINE
  5
2E4
100
AcDbEntity
  8
0
100
AcDbLine
 62
7
  6
CONTINUOUS
 10
713.0156523378
 20
109.8626815215
 11
712.7012948318
 21
110.6193758228
  0
LINE
  5
2E5
100
AcDbEntity
  8
0
100
AcDbLine
 62
7
  6
CONTINUOUS
 10
724.5787179772
 20
101.5527825208
 11
724.8930759286
 21
100.7960880413
  0
LINE
  5
2E6
100
AcDbEntity
  8
0
100
AcDbLine
 62
7
  6
CONTINUOUS
 10
730.7063500166
 20
105.1224733649
 11
730.3919920506
 21
105.8791677895
  0
LINE
  5
2E7
100
AcDbEntity
  8
0
100
AcDbLine
 62
7
  6
CONTINUOUS
 10
714.8104513684
 20
104.3382974032
 11
714.6148893324
 21
104.8950449389
  0
LINE
  5
2E8
100
AcDbEntity
  8
0
100
AcDbLine
 62
7
  6
CONTINUOUS
 10
681.499343302
 20
118.1393354607
 11
681.6804295207
 21
117.5864662375
  0
LINE
  5
2E9
100
AcDbEntity
  8
0
100
AcDbLine
 62
7
  6
CONTINUOUS
 10
668.9991823547
 20
116.9496211704
 11
669.1382393185
 21
116.23989839
  0
LINE
  5
2EA
100
AcDbEntity
  8
0
100
AcDbLine
 62
7
  6
CONTINUOUS
 10
667.154588274
 20
115.5946066602
 11
666.7389771004
 21
119.5726289629
  0
LINE
  5
2EB
100
AcDbEntity
  8
0
100
AcDbLine
 62
7
  6
CONTINUOUS
 10
665.7334016866
 20
119.5058408522
 11
666.0794843635
 21
115.8826798848
  0
LINE
  5
2EC
100
AcDbEntity
  8
0
100
AcDbLine
 62
7
  6
CONTINUOUS
 10
667.5650257642
 20
122.0411402073
 11
667.5925251373
 21
121.5294249264
  0
LINE
  5
2ED
100
AcDbEntity
  8
0
100
AcDbLine
 62
7
  6
CONTINUOUS
 10
668.5140425237
 20
121.2825050869
 11
668.4865431507
 21
121.7942203678
  0
LINE
  5
2EE
100
AcDbEntity
  8
0
100
AcDbLine
 62
7
  6
CONTINUOUS
 10
651.1065877127
 20
161.8880687377
 11
651.1065877127
 21
133.2175051475
  0
LINE
  5
2EF
100
AcDbEntity
  8
0
100
AcDbLine
 62
7
  6
CONTINUOUS
 10
758.1065877127
 20
161.8880687377
 11
743.7713059176
 21
186.7175051475
  0
LINE
  5
2F0
100
AcDbEntity
  8
0
100
AcDbLine
 62
7
  6
CONTINUOUS
 10
725.5436651401
 20
101.2942257078
 11
725.3481040538
 21
101.8509731068
  0
LINE
  5
2F1
100
AcDbEntity
  8
0
100
AcDbLine
 62
7
  6
CONTINUOUS
 10
729.7414028538
 20
105.3810301779
 11
729.93696581
 21
104.8242823956
  0
LINE
  5
2F2
100
AcDbEntity
  8
0
100
AcDbLine
 62
7
  6
CONTINUOUS
 10
713.6079132657
 20
104.9967477474
 11
713.7614463684
 21
104.2831460973
  0
LINE
  5
2F3
100
AcDbEntity
  8
0
100
AcDbLine
 62
7
  6
CONTINUOUS
 10
682.6439759287
 20
117.4964008419
 11
682.5049184961
 21
118.2061236302
  0
LINE
  5
2F4
100
AcDbEntity
  8
0
100
AcDbLine
 62
7
  6
CONTINUOUS
 10
661.9110440553
 20
664.7171997025
 11
661.9110440553
 21
454.7171997025
  0
LINE
  5
2F5
100
AcDbEntity
  8
0
100
AcDbLine
 62
7
  6
CONTINUOUS
 10
669.9627282056
 20
116.8595554532
 11
669.9772581758
 21
117.5281246208
  0
LINE
  5
2F6
100
AcDbEntity
  8
0
100
AcDbLine
 62
7
  6
CONTINUOUS
 10
681.6804295207
 20
117.5864662375
 11
681.6658995505
 21
116.9178970698
  0
LINE
  5
2F7
100
AcDbEntity
  8
0
100
AcDbLine
 62
7
  6
CONTINUOUS
 10
646.9692380609
 20
117.7767060382
 11
646.3482931981
 21
105.9283722364
  0
LINE
  5
2F8
100
AcDbEntity
  8
0
100
AcDbLine
 62
7
  6
CONTINUOUS
 10
669.0557403499
 20
117.7750445781
 11
668.9991823547
 21
116.9496211704
  0
LINE
  5
2F9
100
AcDbEntity
  8
0
100
AcDbLine
 62
7
  6
CONTINUOUS
 10
883.550782193
 20
201.0527869426
 11
908.3802186028
 21
186.7175051475
  0
LINE
  5
2FA
100
AcDbEntity
  8
0
100
AcDbLine
 62
7
  6
CONTINUOUS
 10
815.7155003979
 20
133.2175051475
 11
830.050782193
 21
108.3880687377
  0
LINE
  5
2FB
100
AcDbEntity
  8
0
100
AcDbLine
 62
7
  6
CONTINUOUS
 10
724.4672146986
 20
102.4232379288
 11
724.5787179772
 21
101.5527825208
  0
LINE
  5
2FC
100
AcDbEntity
  8
0
100
AcDbLine
 62
7
  6
CONTINUOUS
 10
711.6981745203
 20
103.6591886975
 11
711.217418222
 21
107.6546665838
  0
LINE
  5
2FD
100
AcDbEntity
  8
0
100
AcDbLine
 62
7
  6
CONTINUOUS
 10
710.1684132514
 20
107.5995153878
 11
710.5724025235
 21
103.9608383949
  0
LINE
  5
2FE
100
AcDbEntity
  8
0
100
AcDbLine
 62
7
  6
CONTINUOUS
 10
712.0507056351
 20
110.1212382112
 11
712.0854432973
 21
109.6075834366
  0
LINE
  5
2FF
100
AcDbEntity
  8
0
100
AcDbLine
 62
7
  6
CONTINUOUS
 10
713.0503904601
 20
109.3490266235
 11
713.0156523378
 21
109.8626815215
  0
LINE
  5
300
100
AcDbEntity
  8
0
100
AcDbLine
 62
7
  6
CONTINUOUS
 10
719.7282535739
 20
107.8959298258
 11
719.7629915785
 21
107.3822744884
  0
LINE
  5
301
100
AcDbEntity
  8
0
100
AcDbLine
 62
7
  6
CONTINUOUS
 10
725.3481040538
 20
101.8509731068
 11
725.3133650112
 21
102.3646282513
  0
LINE
  5
302
100
AcDbEntity
  8
0
100
AcDbLine
 62
7
  6
CONTINUOUS
 10
729.4253271445
 20
102.271525246
 11
729.4600661282
 21
101.7578698818
  0
LINE
  5
303
100
AcDbEntity
  8
0
100
AcDbLine
 62
7
  6
CONTINUOUS
 10
730.7410890592
 20
104.6088182204
 11
730.7063500166
 21
105.1224733649
  0
LINE
  5
304
100
AcDbEntity
  8
0
100
AcDbLine
 62
7
  6
CONTINUOUS
 10
714.6148893324
 20
104.8950449389
 11
714.6221801138
 21
105.5655538414
  0
LINE
  5
305
100
AcDbEntity
  8
0
100
AcDbLine
 62
7
  6
CONTINUOUS
 10
682.587416937
 20
116.6709772303
 11
682.6439759287
 21
117.4964008419
  0
LINE
  5
306
100
AcDbEntity
  8
RUNDUNGEN
100
AcDbLine
 62
7
  6
CONTINUOUS
 10
618.454906156
 20
91.3548490513
 11
619.3699696654
 21
94.7699125608
  0
LINE
  5
307
100
AcDbEntity
  8
RUNDUNGEN
100
AcDbLine
 62
7
  6
CONTINUOUS
 10
606.7704590295
 20
-7.004785988
 11
610.1520963032
 21
5.6156561302
  0
LINE
  5
308
100
AcDbEntity
  8
RUNDUNGEN
100
AcDbLine
 62
7
  6
CONTINUOUS
 10
629.991963789
 20
69.4034834926
 11
630.9070272984
 21
72.8185470021
  0
LINE
  5
309
100
AcDbEntity
  8
0
100
AcDbLine
 62
7
  6
CONTINUOUS
 10
834.1881318448
 20
92.9472696283
 11
839.5745447202
 21
82.3758391321
  0
LINE
  5
30A
100
AcDbEntity
  8
0
100
AcDbLine
 62
7
  6
CONTINUOUS
 10
730.3062164997
 20
101.699260424
 11
730.1947131916
 21
102.5697157221
  0
LINE
  5
30B
100
AcDbEntity
  8
0
100
AcDbLine
 62
7
  6
CONTINUOUS
 10
713.657232951
 20
105.8241106544
 11
713.6079132657
 21
104.9967477474
  0
LINE
  5
30C
100
AcDbEntity
  8
0
100
AcDbLine
 62
7
  6
CONTINUOUS
 10
720.7279387414
 20
107.1237176754
 11
720.7772594647
 21
107.9510807752
  0
LINE
  5
30D
100
AcDbEntity
  8
0
100
AcDbLine
 62
7
  6
CONTINUOUS
 10
646.9692380609
 20
117.7767060382
 11
651.1065877127
 21
133.2175051475
  0
LINE
  5
30E
100
AcDbEntity
  8
RUNDUNGEN
100
AcDbLine
 62
7
  6
CONTINUOUS
 10
638.7873356482
 20
77.7104945064
 11
652.1159341282
 21
127.4535012272
  0
LINE
  5
30F
100
AcDbEntity
  8
RUNDUNGEN
100
AcDbLine
 62
7
  6
CONTINUOUS
 10
617.3819515305
 20
-15.1188926486
 11
619.2486810898
 21
-8.1521630893
  0
LINE
  5
310
100
AcDbEntity
  8
0
100
AcDbLine
 62
7
  6
CONTINUOUS
 10
663.2936700628
 20
124.530571441
 11
661.3183113468
 21
117.1584323496
  0
LINE
  5
311
100
AcDbEntity
  8
0
100
AcDbLine
 62
7
  6
CONTINUOUS
 10
662.2398287332
 20
116.9115125101
 11
663.1224358316
 21
120.2054470445
  0
LINE
  5
312
100
AcDbEntity
  8
0
100
AcDbLine
 62
7
  6
CONTINUOUS
 10
663.3746092547
 20
121.1465710717
 11
664.0050429301
 21
123.4993815789
  0
LINE
  5
313
100
AcDbEntity
  8
0
100
AcDbLine
 62
7
  6
CONTINUOUS
 10
667.5925251373
 20
121.5294249264
 11
667.466438308
 21
121.0588624734
  0
LINE
  5
314
100
AcDbEntity
  8
0
100
AcDbLine
 62
7
  6
CONTINUOUS
 10
668.3459267906
 20
120.6550886294
 11
668.5140425237
 21
121.2825050869
  0
LINE
  5
315
100
AcDbEntity
  8
0
100
AcDbLine
 62
7
  6
CONTINUOUS
 10
670.3586365456
 20
122.6375193774
 11
669.0557403499
 21
117.7750445781
  0
LINE
  5
316
100
AcDbEntity
  8
0
100
AcDbLine
 62
7
  6
CONTINUOUS
 10
669.9772581758
 20
117.5281246208
 11
671.2801543715
 21
122.3905994202
  0
LINE
  5
317
100
AcDbEntity
  8
BEZUGSACHSEN
100
AcDbLine
 62
7
  6
CONTINUOUS
 10
662.2308093766
 20
87.5039633262
 11
662.7762363639
 21
89.5395245548
  0
LINE
  5
318
100
AcDbEntity
  8
0
100
AcDbLine
 62
7
  6
CONTINUOUS
 10
657.9740915197
 20
63.6953411656
 11
656.0414773877
 21
56.4827270336
  0
LINE
  5
319
100
AcDbEntity
  8
0
100
AcDbLine
 62
7
  6
CONTINUOUS
 10
674.9662239172
 20
121.4029200622
 11
673.6633277215
 21
116.5404452628
  0
LINE
  5
31A
100
AcDbEntity
  8
0
100
AcDbLine
 62
7
  6
CONTINUOUS
 10
674.5848451079
 20
116.2935254233
 11
675.8877413036
 21
121.1560002227
  0
LINE
  5
31B
100
AcDbEntity
  8
0
100
AcDbLine
 62
7
  6
CONTINUOUS
 10
659.3187042564
 20
56.6587499036
 11
659.9921909994
 21
59.1722366465
  0
LINE
  5
31C
100
AcDbEntity
  8
0
100
AcDbLine
 62
7
  6
CONTINUOUS
 10
660.1971652255
 20
59.9372108727
 11
660.8706519685
 21
62.4506976156
  0
LINE
  5
31D
100
AcDbEntity
  8
0
100
AcDbLine
 62
7
  6
CONTINUOUS
 10
677.1164308592
 20
120.8267738485
 11
675.1410721432
 21
113.4546347571
  0
LINE
  5
31E
100
AcDbEntity
  8
0
100
AcDbLine
 62
7
  6
CONTINUOUS
 10
661.3406469147
 20
61.4228762544
 11
660.9716933077
 21
60.0459226474
  0
LINE
  5
31F
100
AcDbEntity
  8
0
100
AcDbLine
 62
7
  6
CONTINUOUS
 10
660.4621859456
 20
58.1444152853
 11
660.0932323386
 21
56.7674616783
  0
LINE
  5
320
100
AcDbEntity
  8
0
100
AcDbLine
 62
7
  6
CONTINUOUS
 10
758.1065877127
 20
133.2175051475
 11
758.1065877127
 21
161.8880687377
  0
LINE
  5
321
100
AcDbEntity
  8
0
100
AcDbLine
 62
7
  6
CONTINUOUS
 10
724.6005913302
 20
103.5643093112
 11
724.4672146986
 21
102.4232379288
  0
LINE
  5
322
100
AcDbEntity
  8
0
100
AcDbLine
 62
7
  6
CONTINUOUS
 10
661.024172222
 20
57.9235546389
 11
661.0768798801
 21
58.120262297
  0
LINE
  5
323
100
AcDbEntity
  8
0
100
AcDbLine
 62
7
  6
CONTINUOUS
 10
661.2086490255
 20
58.6120314424
 11
661.3843412193
 21
59.2677236362
  0
LINE
  5
324
100
AcDbEntity
  8
0
100
AcDbLine
 62
7
  6
CONTINUOUS
 10
661.5161103647
 20
59.7594927816
 11
661.7152281843
 21
60.5026106012
  0
LINE
  5
325
100
AcDbEntity
  8
0
100
AcDbLine
 62
7
  6
CONTINUOUS
 10
676.3147629821
 20
114.1488390546
 11
677.7857748226
 21
119.6387299818
  0
LINE
  5
326
100
AcDbEntity
  8
0
100
AcDbLine
 62
7
  6
CONTINUOUS
 10
662.0798078142
 20
59.0813739237
 11
661.9041156204
 21
58.4256817299
  0
LINE
  5
327
100
AcDbEntity
  8
0
100
AcDbLine
 62
7
  6
CONTINUOUS
 10
662.4106947793
 20
60.3162608888
 11
662.2115769596
 21
59.5731430691
  0
LINE
  5
328
100
AcDbEntity
  8
0
100
AcDbLine
 62
7
  6
CONTINUOUS
 10
661.7723464751
 20
57.9339125846
 11
661.7196388169
 21
57.7372049264
  0
LINE
  5
329
100
AcDbEntity
  8
0
100
AcDbLine
 62
7
  6
CONTINUOUS
 10
661.9478099251
 20
56.2705291117
 11
662.3167635321
 21
57.6474827187
  0
LINE
  5
32A
100
AcDbEntity
  8
0
100
AcDbLine
 62
7
  6
CONTINUOUS
 10
662.8262708941
 20
59.5489900808
 11
663.1952245012
 21
60.9259436878
  0
LINE
  5
32B
100
AcDbEntity
  8
0
100
AcDbLine
 62
7
  6
CONTINUOUS
 10
664.1161627448
 20
61.5810656241
 11
663.4426760018
 21
59.0675788811
  0
LINE
  5
32C
100
AcDbEntity
  8
0
100
AcDbLine
 62
7
  6
CONTINUOUS
 10
663.2377017757
 20
58.302604655
 11
662.5642150328
 21
55.789117912
  0
LINE
  5
32D
100
AcDbEntity
  8
0
100
AcDbLine
 62
7
  6
CONTINUOUS
 10
743.2449549185
 20
353.5723893586
 11
690.9635078078
 21
158.4553724483
  0
LINE
  5
32E
100
AcDbEntity
  8
0
100
AcDbLine
 62
7
  6
CONTINUOUS
 10
681.6658995505
 20
116.9178970698
 11
681.035465934
 21
114.5650867823
  0
LINE
  5
32F
100
AcDbEntity
  8
0
100
AcDbLine
 62
7
  6
CONTINUOUS
 10
665.3143653201
 20
53.9980642006
 11
667.246979452
 21
61.2106783326
  0
LINE
  5
330
100
AcDbEntity
  8
0
100
AcDbLine
 62
7
  6
CONTINUOUS
 10
681.9569833205
 20
114.3181669428
 11
682.587416937
 21
116.6709772303
  0
LINE
  5
331
100
AcDbEntity
  8
0
100
AcDbLine
 62
7
  6
CONTINUOUS
 10
670.4298712138
 20
61.0605938307
 11
670.1634047198
 21
60.0661273367
  0
LINE
  5
332
100
AcDbEntity
  8
0
100
AcDbLine
 62
7
  6
CONTINUOUS
 10
669.9174356485
 20
59.1481582654
 11
668.1458726941
 21
52.5365953111
  0
LINE
  5
333
100
AcDbEntity
  8
0
100
AcDbLine
 62
7
  6
CONTINUOUS
 10
677.5698403955
 20
82.3895278562
 11
672.8203195423
 21
64.6640747205
  0
LINE
  5
334
100
AcDbEntity
  8
KONSTRUKTIONSELEMENTE
100
AcDbLine
 62
7
  6
CONTINUOUS
 10
677.5698403955
 20
82.3895278562
 11
683.571983461
 21
104.7898307308
  0
LINE
  5
335
100
AcDbEntity
  8
0
100
AcDbLine
 62
7
  6
CONTINUOUS
 10
669.6295347633
 20
52.1390492578
 11
670.8780229905
 21
56.7984707543
  0
LINE
  5
336
100
AcDbEntity
  8
0
100
AcDbLine
 62
7
  6
CONTINUOUS
 10
671.0127203391
 20
57.3011681029
 11
671.4010977176
 21
58.7506122121
  0
LINE
  5
337
100
AcDbEntity
  8
KONSTRUKTIONSELEMENTE
100
AcDbLine
 62
7
  6
CONTINUOUS
 10
681.6617082903
 20
92.8309576061
 11
684.1707645378
 21
102.1948830006
  0
LINE
  5
338
100
AcDbEntity
  8
KONSTRUKTIONSELEMENTE
100
AcDbLine
 62
7
  6
CONTINUOUS
 10
691.3029250392
 20
128.8124683598
 11
692.223323421
 21
132.2474418839
  0
LINE
  5
339
100
AcDbEntity
  8
0
100
AcDbLine
 62
7
  6
CONTINUOUS
 10
674.4407680019
 20
55.2581954596
 11
674.5871781635
 21
55.8046056211
  0
LINE
  5
33A
100
AcDbEntity
  8
0
100
AcDbLine
 62
7
  6
CONTINUOUS
 10
676.0642815109
 20
54.9983845841
 11
676.2106916725
 21
55.5447947456
  0
LINE
  5
33B
100
AcDbEntity
  8
KONSTRUKTIONSELEMENTE
100
AcDbLine
 62
7
  6
CONTINUOUS
 10
686.0083745086
 20
91.6662719031
 11
688.5174307561
 21
101.0301972976
  0
LINE
  5
33C
100
AcDbEntity
  8
KONSTRUKTIONSELEMENTE
100
AcDbLine
 62
7
  6
CONTINUOUS
 10
695.3432967627
 20
126.50467604
 11
696.5699896393
 21
131.0827561809
  0
LINE
  5
33D
100
AcDbEntity
  8
0
100
AcDbLine
 62
7
  6
CONTINUOUS
 10
677.4776653412
 20
57.4232248563
 11
677.3312551797
 21
56.8768146948
  0
LINE
  5
33E
100
AcDbEntity
  8
KONSTRUKTIONSELEMENTE
100
AcDbLine
 62
7
  6
CONTINUOUS
 10
686.9743003349
 20
91.407452858
 11
687.1654840814
 21
92.1209603133
  0
LINE
  5
33F
100
AcDbEntity
  8
KONSTRUKTIONSELEMENTE
100
AcDbLine
 62
7
  6
CONTINUOUS
 10
697.1844934479
 20
129.5124123107
 11
699.9153334801
 21
139.704046058
  0
LINE
  5
340
100
AcDbEntity
  8
KONSTRUKTIONSELEMENTE
100
AcDbLine
 62
7
  6
CONTINUOUS
 10
689.5304492815
 20
99.9812047721
 11
692.6524619108
 21
111.6327145266
  0
LINE
  5
341
100
AcDbEntity
  8
0
100
AcDbLine
 62
7
  6
CONTINUOUS
 10
676.6969496286
 20
50.2453411521
 11
676.8433597901
 21
50.7917513136
  0
LINE
  5
342
100
AcDbEntity
  8
0
100
AcDbLine
 62
7
  6
CONTINUOUS
 10
681.5573367326
 20
58.0789984311
 11
680.1122202438
 21
52.6857502718
  0
LINE
  5
343
100
AcDbEntity
  8
KONSTRUKTIONSELEMENTE
100
AcDbLine
 62
7
  6
CONTINUOUS
 10
693.8771154998
 20
98.8165190691
 11
696.9991281291
 21
110.4680288237
  0
LINE
  5
344
100
AcDbEntity
  8
0
100
AcDbLine
 62
7
  6
CONTINUOUS
 10
681.5958823129
 20
52.2882042186
 11
683.0409988018
 21
57.6814523778
  0
LINE
  5
345
100
AcDbEntity
  8
KONSTRUKTIONSELEMENTE
100
AcDbLine
 62
7
  6
CONTINUOUS
 10
691.8039294664
 20
90.1133576325
 11
691.9951132128
 21
90.8268650878
  0
LINE
  5
346
100
AcDbEntity
  8
KONSTRUKTIONSELEMENTE
100
AcDbLine
 62
7
  6
CONTINUOUS
 10
702.0141225793
 20
128.2183170852
 11
704.7449626115
 21
138.4099508325
  0
LINE
  5
347
100
AcDbEntity
  8
KONSTRUKTIONSELEMENTE
100
AcDbLine
 62
7
  6
CONTINUOUS
 10
703.3314704234
 20
129.2710228652
 11
702.1047775467
 21
124.6929427243
  0
LINE
  5
348
100
AcDbEntity
  8
KONSTRUKTIONSELEMENTE
100
AcDbLine
 62
7
  6
CONTINUOUS
 10
695.2789115401
 20
99.2184639819
 11
692.7698552927
 21
89.8545385874
  0
LINE
  5
349
100
AcDbEntity
  8
KONSTRUKTIONSELEMENTE
100
AcDbLine
 62
7
  6
CONTINUOUS
 10
707.6781366417
 20
128.1063371622
 11
706.7577382599
 21
124.6713636382
  0
LINE
  5
34A
100
AcDbEntity
  8
KONSTRUKTIONSELEMENTE
100
AcDbLine
 62
7
  6
CONTINUOUS
 10
699.6255777584
 20
98.053778279
 11
697.116521511
 21
88.6898528844
  0
LINE
  5
34B
100
AcDbEntity
  8
0
100
AcDbLine
 62
7
  6
CONTINUOUS
 10
688.8738545085
 20
56.1185434017
 11
687.4287380196
 21
50.7252952424
  0
LINE
  5
34C
100
AcDbEntity
  8
0
100
AcDbLine
 62
7
  6
CONTINUOUS
 10
690.6899473287
 20
59.8759223861
 11
695.4394681819
 21
77.6013755218
  0
LINE
  5
34D
100
AcDbEntity
  8
KONSTRUKTIONSELEMENTE
100
AcDbLine
 62
7
  6
CONTINUOUS
 10
695.4394681819
 20
77.6013755218
 11
701.4416112473
 21
100.0016783964
  0
LINE
  5
34E
100
AcDbEntity
  8
0
100
AcDbLine
 62
7
  6
CONTINUOUS
 10
705.3106575182
 20
113.272153584
 11
703.3352988021
 21
105.9000144926
  0
LINE
  5
34F
100
AcDbEntity
  8
0
100
AcDbLine
 62
7
  6
CONTINUOUS
 10
688.9124000888
 20
50.3277491891
 11
690.3575165777
 21
55.7209973484
  0
LINE
  5
350
100
AcDbEntity
  8
0
100
AcDbLine
 62
7
  6
CONTINUOUS
 10
704.300245965
 20
105.6414576796
 11
706.275604681
 21
113.013596771
  0
LINE
  5
351
100
AcDbEntity
  8
0
100
AcDbLine
 62
7
  6
CONTINUOUS
 10
707.5622008215
 20
112.6688543741
 11
705.5868421054
 21
105.2967152827
  0
LINE
  5
352
100
AcDbEntity
  8
0
100
AcDbLine
 62
7
  6
CONTINUOUS
 10
834.1881318448
 20
92.9472696283
 11
830.050782193
 21
108.3880687377
  0
LINE
  5
353
100
AcDbEntity
  8
0
100
AcDbLine
 62
7
  6
CONTINUOUS
 10
847.1355022701
 20
54.1579614021
 11
833.8069037901
 21
103.9009681229
  0
LINE
  5
354
100
AcDbEntity
  8
0
100
AcDbLine
 62
7
  6
CONTINUOUS
 10
862.7925002858
 20
73.4240155536
 11
861.9959846745
 21
76.396652284
  0
LINE
  5
355
100
AcDbEntity
  8
0
100
AcDbLine
 62
7
  6
CONTINUOUS
 10
706.5517892683
 20
105.0381584697
 11
707.4343963667
 21
108.3320930041
  0
LINE
  5
356
100
AcDbEntity
  8
0
100
AcDbLine
 62
7
  6
CONTINUOUS
 10
707.6865697897
 20
109.2732170312
 11
708.3170034651
 21
111.6260275385
  0
LINE
  5
357
100
AcDbEntity
  8
0
100
AcDbLine
 62
7
  6
CONTINUOUS
 10
693.603027354
 20
54.8513653568
 11
693.3219198439
 21
53.8022578467
  0
LINE
  5
358
100
AcDbEntity
  8
0
100
AcDbLine
 62
7
  6
CONTINUOUS
 10
693.0759507726
 20
52.8842887754
 11
691.3190288344
 21
46.3273668372
  0
LINE
  5
359
100
AcDbEntity
  8
0
100
AcDbLine
 62
7
  6
CONTINUOUS
 10
693.0955112266
 20
47.022641107
 11
694.5596128417
 21
52.4867427221
  0
LINE
  5
35A
100
AcDbEntity
  8
0
100
AcDbLine
 62
7
  6
CONTINUOUS
 10
774.1545813597
 20
345.2901799154
 11
721.873134249
 21
150.173163005
  0
LINE
  5
35B
100
AcDbEntity
  8
0
100
AcDbLine
 62
7
  6
CONTINUOUS
 10
712.0854432973
 20
109.6075834366
 11
711.959356468
 21
109.1370209836
  0
LINE
  5
35C
100
AcDbEntity
  8
0
100
AcDbLine
 62
7
  6
CONTINUOUS
 10
712.882274727
 20
108.721610166
 11
713.0503904601
 21
109.3490266235
  0
LINE
  5
35D
100
AcDbEntity
  8
0
100
AcDbLine
 62
7
  6
CONTINUOUS
 10
714.2876665675
 20
108.176920942
 11
713.657232951
 21
105.8241106544
  0
LINE
  5
35E
100
AcDbEntity
  8
0
100
AcDbLine
 62
7
  6
CONTINUOUS
 10
714.6221801138
 20
105.5655538414
 11
715.2526137303
 21
107.9183641289
  0
LINE
  5
35F
100
AcDbEntity
  8
0
100
AcDbLine
 62
7
  6
CONTINUOUS
 10
700.4838340977
 20
49.0487279792
 11
700.3374239362
 21
48.5023178177
  0
LINE
  5
360
100
AcDbEntity
  8
0
100
AcDbLine
 62
7
  6
CONTINUOUS
 10
717.9373106997
 20
106.3584236672
 11
717.6851372766
 21
105.4172996401
  0
LINE
  5
361
100
AcDbEntity
  8
0
100
AcDbLine
 62
7
  6
CONTINUOUS
 10
719.1325580209
 20
105.0294644206
 11
718.7963267313
 21
103.7746321647
  0
LINE
  5
362
100
AcDbEntity
  8
KONSTRUKTIONSELEMENTE
100
AcDbLine
 62
7
  6
CONTINUOUS
 10
711.0295878248
 20
73.4240155536
 11
711.8261034361
 21
76.396652284
  0
LINE
  5
363
100
AcDbEntity
  8
0
100
AcDbLine
 62
7
  6
CONTINUOUS
 10
719.7192449903
 20
103.3592213471
 11
720.3496786068
 21
105.7120316347
  0
LINE
  5
364
100
AcDbEntity
  8
0
100
AcDbLine
 62
7
  6
CONTINUOUS
 10
722.224680209
 20
107.5632455557
 11
721.8884488605
 21
106.3084130801
  0
LINE
  5
365
100
AcDbEntity
  8
0
100
AcDbLine
 62
7
  6
CONTINUOUS
 10
723.147598468
 20
107.1478347381
 11
721.5084709827
 21
101.0305276829
  0
LINE
  5
366
100
AcDbEntity
  8
0
100
AcDbLine
 62
7
  6
CONTINUOUS
 10
722.4734181455
 20
100.7719708699
 11
724.4487768615
 21
108.1441099613
  0
LINE
  5
367
100
AcDbEntity
  8
0
100
AcDbLine
 62
7
  6
CONTINUOUS
 10
724.8947936571
 20
104.6622873428
 11
724.6005913302
 21
103.5643093112
  0
LINE
  5
368
100
AcDbEntity
  8
0
100
AcDbLine
 62
7
  6
CONTINUOUS
 10
725.6148590986
 20
104.1331151585
 11
725.6989169063
 21
104.4468231676
  0
LINE
  5
369
100
AcDbEntity
  8
0
100
AcDbLine
 62
7
  6
CONTINUOUS
 10
725.3133650112
 20
102.3646282513
 11
725.4394517227
 21
102.8351902649
  0
LINE
  5
36A
100
AcDbEntity
  8
0
100
AcDbLine
 62
7
  6
CONTINUOUS
 10
729.4600661282
 20
101.7578698818
 11
729.3339794167
 21
101.2873078682
  0
LINE
  5
36B
100
AcDbEntity
  8
0
100
AcDbLine
 62
7
  6
CONTINUOUS
 10
730.0960719216
 20
100.9149901816
 11
730.3062164997
 21
101.699260424
  0
LINE
  5
36C
100
AcDbEntity
  8
RUNDUNGEN
100
AcDbLine
 62
7
  6
CONTINUOUS
 10
700.676228246
 20
-29.9706085915
 11
698.8094986867
 21
-36.9373381508
  0
LINE
  5
36D
100
AcDbEntity
  8
0
100
AcDbLine
 62
7
  6
CONTINUOUS
 10
674.2211140647
 20
115.5504087858
 11
674.5848451079
 21
116.2935254233
  0
LINE
  5
36E
100
AcDbEntity
  8
0
100
AcDbLine
 62
7
  6
CONTINUOUS
 10
665.4418695078
 20
186.7175051475
 11
651.1065877127
 21
161.8880687377
  0
LINE
  5
36F
100
AcDbEntity
  8
0
100
AcDbLine
 62
7
  6
CONTINUOUS
 10
908.3802186028
 20
186.7175051475
 11
922.7155003979
 21
161.8880687377
  0
LINE
  5
370
100
AcDbEntity
  8
0
100
AcDbLine
 62
7
  6
CONTINUOUS
 10
851.9489538616
 20
150.173163005
 11
799.6675067508
 21
345.2901799154
  0
LINE
  5
371
100
AcDbEntity
  8
0
100
AcDbLine
 62
7
  6
CONTINUOUS
 10
872.3804768633
 20
100.0016783964
 11
883.1321407819
 21
59.8759223861
  0
LINE
  5
372
100
AcDbEntity
  8
0
100
AcDbLine
 62
7
  6
CONTINUOUS
 10
890.2501046496
 20
104.7898307308
 11
901.0017685682
 21
64.6640747205
  0
LINE
  5
373
100
AcDbEntity
  8
0
100
AcDbLine
 62
7
  6
CONTINUOUS
 10
815.7155003979
 20
133.2175051475
 11
815.7155003979
 21
161.8880687377
  0
LINE
  5
374
100
AcDbEntity
  8
RUNDUNGEN
100
AcDbLine
 62
7
  6
CONTINUOUS
 10
726.6865858405
 20
54.1579614021
 11
740.0151843205
 21
103.9009681229
  0
LINE
  5
375
100
AcDbEntity
  8
0
100
AcDbLine
 62
7
  6
CONTINUOUS
 10
739.6339562658
 20
92.9472696283
 11
743.7713059176
 21
108.3880687377
  0
LINE
  5
376
100
AcDbEntity
  8
RUNDUNGEN
100
AcDbLine
 62
7
  6
CONTINUOUS
 10
712.056374095
 20
-35.2160619042
 11
715.4380113687
 21
-22.595619786
  0
LINE
  5
377
100
AcDbEntity
  8
RUNDUNGEN
100
AcDbLine
 62
7
  6
CONTINUOUS
 10
753.4507587813
 20
56.1715753804
 11
754.3658222907
 21
59.5866388899
  0
LINE
  5
378
100
AcDbEntity
  8
0
100
AcDbLine
 62
7
  6
CONTINUOUS
 10
725.3498217381
 20
105.7171722435
 11
724.8947936571
 21
104.6622873428
  0
LINE
  5
379
100
AcDbEntity
  8
0
100
AcDbLine
 62
7
  6
CONTINUOUS
 10
681.5932531561
 20
113.5750500698
 11
681.9569833205
 21
114.3181669428
  0
LINE
  5
37A
100
AcDbEntity
  8
0
100
AcDbLine
 62
7
  6
CONTINUOUS
 10
673.6633277215
 20
116.5404452628
 11
673.3416255821
 21
115.9541826298
  0
LINE
  5
37B
100
AcDbEntity
  8
0
100
AcDbLine
 62
7
  6
CONTINUOUS
 10
681.035465934
 20
114.5650867823
 11
680.7137646735
 21
113.9788239138
  0
LINE
  5
37C
100
AcDbEntity
  8
0
100
AcDbLine
 62
7
  6
CONTINUOUS
 10
667.466438308
 20
121.0588624734
 11
667.1867655119
 21
120.6294537272
  0
LINE
  5
37D
100
AcDbEntity
  8
0
100
AcDbLine
 62
7
  6
CONTINUOUS
 10
668.0662539945
 20
120.2256798832
 11
668.3459267906
 21
120.6550886294
  0
LINE
  5
37E
100
AcDbEntity
  8
0
100
AcDbLine
 62
7
  6
CONTINUOUS
 10
882.8585803028
 20
158.4553724483
 11
830.5771331921
 21
353.5723893586
  0
LINE
  5
37F
100
AcDbEntity
  8
BEZUGSACHSEN
100
AcDbLine
 62
7
  6
CONTINUOUS
 10
911.591278734
 20
87.5039633262
 11
911.0458517466
 21
89.5395245548
  0
LINE
  5
380
100
AcDbEntity
  8
0
100
AcDbLine
 62
7
  6
CONTINUOUS
 10
725.6989169063
 20
104.4468231676
 11
726.111914243
 21
105.3448545569
  0
LINE
  5
381
100
AcDbEntity
  8
0
100
AcDbLine
 62
7
  6
CONTINUOUS
 10
714.6586360383
 20
108.9180985196
 11
714.2876665675
 21
108.176920942
  0
LINE
  5
382
100
AcDbEntity
  8
0
100
AcDbLine
 62
7
  6
CONTINUOUS
 10
715.2526137303
 20
107.9183641289
 11
715.5815541796
 21
108.5026872627
  0
LINE
  5
383
100
AcDbEntity
  8
0
100
AcDbLine
 62
7
  6
CONTINUOUS
 10
719.3903054319
 20
102.774897857
 11
719.7192449903
 21
103.3592213471
  0
LINE
  5
384
100
AcDbEntity
  8
0
100
AcDbLine
 62
7
  6
CONTINUOUS
 10
921.7061539824
 20
127.4535012272
 11
935.0347524624
 21
77.7104945064
  0
LINE
  5
385
100
AcDbEntity
  8
0
100
AcDbLine
 62
7
  6
CONTINUOUS
 10
926.8528500497
 20
117.7767060382
 11
922.7155003979
 21
133.2175051475
  0
LINE
  5
386
100
AcDbEntity
  8
0
100
AcDbLine
 62
7
  6
CONTINUOUS
 10
739.6339562658
 20
92.9472696283
 11
734.2475433904
 21
82.3758391321
  0
LINE
  5
387
100
AcDbEntity
  8
0
100
AcDbLine
 62
7
  6
CONTINUOUS
 10
743.7713059176
 20
108.3880687377
 11
758.1065877127
 21
133.2175051475
  0
LINE
  5
388
100
AcDbEntity
  8
0
100
AcDbLine
 62
7
  6
CONTINUOUS
 10
711.959356468
 20
109.1370209836
 11
711.6724453827
 21
108.7095517311
  0
LINE
  5
389
100
AcDbEntity
  8
0
100
AcDbLine
 62
7
  6
CONTINUOUS
 10
712.5953631816
 20
108.2941410368
 11
712.882274727
 21
108.721610166
  0
LINE
  5
38A
100
AcDbEntity
  8
0
100
AcDbLine
 62
7
  6
CONTINUOUS
 10
718.7963267313
 20
103.7746321647
 11
718.5094151859
 21
103.3471630355
  0
LINE
  5
38B
100
AcDbEntity
  8
0
100
AcDbLine
 62
7
  6
CONTINUOUS
 10
726.111914243
 20
105.3448545569
 11
726.3988268264
 21
105.772323879
  0
LINE
  5
38C
100
AcDbEntity
  8
0
100
AcDbLine
 62
7
  6
CONTINUOUS
 10
725.4394517227
 20
102.8351902649
 11
725.7263642472
 21
103.2626593672
  0
LINE
  5
38D
100
AcDbEntity
  8
0
100
AcDbLine
 62
7
  6
CONTINUOUS
 10
729.3339794167
 20
101.2873078682
 11
729.047066951
 21
100.8598389856
  0
LINE
  5
38E
100
AcDbEntity
  8
0
100
AcDbLine
 62
7
  6
CONTINUOUS
 10
673.7458262507
 20
115.0052991925
 11
674.2211140647
 21
115.5504087858
  0
LINE
  5
38F
100
AcDbEntity
  8
0
100
AcDbLine
 62
7
  6
CONTINUOUS
 10
681.1179644632
 20
113.029940712
 11
681.5932531561
 21
113.5750500698
  0
LINE
  5
390
100
AcDbEntity
  8
0
100
AcDbLine
 62
7
  6
CONTINUOUS
 10
690.2713059176
 20
201.0527869426
 11
665.4418695078
 21
186.7175051475
  0
LINE
  5
391
100
AcDbEntity
  8
0
100
AcDbLine
 62
7
  6
CONTINUOUS
 10
926.8528500497
 20
117.7767060382
 11
927.4737949125
 21
105.9283722364
  0
LINE
  5
392
100
AcDbEntity
  8
0
100
AcDbLine
 62
7
  6
CONTINUOUS
 10
911.9110440553
 20
454.7171997025
 11
911.9110440553
 21
664.7171997025
  0
LINE
  5
393
100
AcDbEntity
  8
0
100
AcDbLine
 62
7
  6
CONTINUOUS
 10
922.7155003979
 20
161.8880687377
 11
922.7155003979
 21
133.2175051475
  0
LINE
  5
394
100
AcDbEntity
  8
0
100
AcDbLine
 62
7
  6
CONTINUOUS
 10
815.7155003979
 20
161.8880687377
 11
830.050782193
 21
186.7175051475
  0
LINE
  5
395
100
AcDbEntity
  8
0
100
AcDbLine
 62
7
  6
CONTINUOUS
 10
725.8816142024
 20
106.41525743
 11
725.3498217381
 21
105.7171722435
  0
LINE
  5
396
100
AcDbEntity
  8
0
100
AcDbLine
 62
7
  6
CONTINUOUS
 10
729.5642795456
 20
100.2169053247
 11
730.0960719216
 21
100.9149901816
  0
LINE
  5
397
100
AcDbEntity
  8
0
100
AcDbLine
 62
7
  6
CONTINUOUS
 10
715.1484004012
 20
109.4593290156
 11
714.6586360383
 21
108.9180985196
  0
LINE
  5
398
100
AcDbEntity
  8
0
100
AcDbLine
 62
7
  6
CONTINUOUS
 10
673.3416255821
 20
115.9541826298
 11
672.9083667014
 21
115.5659271509
  0
LINE
  5
399
100
AcDbEntity
  8
0
100
AcDbLine
 62
7
  6
CONTINUOUS
 10
680.7137646735
 20
113.9788239138
 11
680.2805049139
 21
113.5905686704
  0
LINE
  5
39A
100
AcDbEntity
  8
0
100
AcDbLine
 62
7
  6
CONTINUOUS
 10
667.4373796859
 20
119.7217237848
 11
668.0662539945
 21
120.2256798832
  0
LINE
  5
39B
100
AcDbEntity
  8
0
100
AcDbLine
 62
7
  6
CONTINUOUS
 10
951.9110440553
 20
454.7171997025
 11
951.9110440553
 21
664.7171997025
  0
LINE
  5
39C
100
AcDbEntity
  8
0
100
AcDbLine
 62
7
  6
CONTINUOUS
 10
715.5815541796
 20
108.5026872627
 11
716.0292897564
 21
108.8870641935
  0
LINE
  5
39D
100
AcDbEntity
  8
0
100
AcDbLine
 62
7
  6
CONTINUOUS
 10
726.3988268264
 20
105.772323879
 11
726.8465613652
 21
106.156700617
  0
LINE
  5
39E
100
AcDbEntity
  8
0
100
AcDbLine
 62
7
  6
CONTINUOUS
 10
729.047066951
 20
100.8598389856
 11
728.5993323828
 21
100.4754621378
  0
LINE
  5
39F
100
AcDbEntity
  8
0
100
AcDbLine
 62
7
  6
CONTINUOUS
 10
711.944774445
 20
107.7960033019
 11
712.5953631816
 21
108.2941410368
  0
LINE
  5
3A0
100
AcDbEntity
  8
0
100
AcDbLine
 62
7
  6
CONTINUOUS
 10
667.1867655119
 20
120.6294537272
 11
666.7955350956
 21
120.3980523706
  0
LINE
  5
3A1
100
AcDbEntity
  8
0
100
AcDbLine
 62
7
  6
CONTINUOUS
 10
672.9633654034
 20
114.5424964243
 11
673.7458262507
 21
115.0052991925
  0
LINE
  5
3A2
100
AcDbEntity
  8
RUNDUNGEN
100
AcDbLine
 62
7
  6
CONTINUOUS
 10
726.6865858405
 20
54.1579614021
 11
716.4465930868
 21
44.4770211607
  0
LINE
  5
3A3
100
AcDbEntity
  8
0
100
AcDbLine
 62
7
  6
CONTINUOUS
 10
726.5322033992
 20
106.9133950416
 11
725.8816142024
 21
106.41525743
  0
LINE
  5
3A4
100
AcDbEntity
  8
0
100
AcDbLine
 62
7
  6
CONTINUOUS
 10
728.9136903341
 20
99.7187676582
 11
729.5642795456
 21
100.2169053247
  0
LINE
  5
3A5
100
AcDbEntity
  8
0
100
AcDbLine
 62
7
  6
CONTINUOUS
 10
723.4838296987
 20
108.4026667743
 11
722.224680209
 21
107.5632455557
  0
LINE
  5
3A6
100
AcDbEntity
  8
0
100
AcDbLine
 62
7
  6
CONTINUOUS
 10
721.8884488605
 20
106.3084130801
 11
723.147598468
 21
107.1478347381
  0
LINE
  5
3A7
100
AcDbEntity
  8
0
100
AcDbLine
 62
7
  6
CONTINUOUS
 10
680.3355044948
 20
112.5671377083
 11
681.1179644632
 21
113.029940712
  0
LINE
  5
3A8
100
AcDbEntity
  8
0
100
AcDbLine
 62
7
  6
CONTINUOUS
 10
830.050782193
 20
186.7175051475
 11
840.5350110481
 21
192.7705774993
  0
LINE
  5
3A9
100
AcDbEntity
  8
0
100
AcDbLine
 62
7
  6
CONTINUOUS
 10
711.6724453827
 20
108.7095517311
 11
711.2667383674
 21
108.4820293675
  0
LINE
  5
3AA
100
AcDbEntity
  8
0
100
AcDbLine
 62
7
  6
CONTINUOUS
 10
715.9598144319
 20
109.9143737428
 11
715.1484004012
 21
109.4593290156
  0
LINE
  5
3AB
100
AcDbEntity
  8
0
100
AcDbLine
 62
7
  6
CONTINUOUS
 10
931.0071287238
 20
64.206557948
 11
935.0347524624
 21
77.7104945064
  0
LINE
  5
3AC
100
AcDbEntity
  8
RUNDUNGEN
100
AcDbLine
 62
7
  6
CONTINUOUS
 10
641.2065622575
 20
25.2018025704
 11
612.3893561785
 21
8.3752809008
  0
LINE
  5
3AD
100
AcDbEntity
  8
RUNDUNGEN
100
AcDbLine
 62
7
  6
CONTINUOUS
 10
640.291498748
 20
21.7867390609
 11
611.474292669
 21
4.9602173913
  0
LINE
  5
3AE
100
AcDbEntity
  8
0
100
AcDbLine
 62
7
  6
CONTINUOUS
 10
718.5788913865
 20
102.3198530748
 11
719.3903054319
 21
102.774897857
  0
LINE
  5
3AF
100
AcDbEntity
  8
0
100
AcDbLine
 62
7
  6
CONTINUOUS
 10
725.7263642472
 20
103.2626593672
 11
726.1320698822
 21
103.4901821007
  0
LINE
  5
3B0
100
AcDbEntity
  8
0
100
AcDbLine
 62
7
  6
CONTINUOUS
 10
672.9083667014
 20
115.5659271509
 11
672.363550171
 21
115.3756789518
  0
LINE
  5
3B1
100
AcDbEntity
  8
0
100
AcDbLine
 62
7
  6
CONTINUOUS
 10
680.2805049139
 20
113.5905686704
 11
679.7356883836
 21
113.4003204712
  0
LINE
  5
3B2
100
AcDbEntity
  8
0
100
AcDbLine
 62
7
  6
CONTINUOUS
 10
716.0292897564
 20
108.8870641935
 11
716.5958211455
 21
109.071493796
  0
LINE
  5
3B3
100
AcDbEntity
  8
RUNDUNGEN
100
AcDbLine
 62
7
  6
CONTINUOUS
 10
728.9559784455
 20
62.627449906
 11
741.1422813404
 21
69.7430977302
  0
LINE
  5
3B4
100
AcDbEntity
  8
RUNDUNGEN
100
AcDbLine
 62
7
  6
CONTINUOUS
 10
728.040914936
 20
59.2123863966
 11
740.227217831
 21
66.3280342207
  0
LINE
  5
3B5
100
AcDbEntity
  8
RUNDUNGEN
100
AcDbLine
 62
7
  6
CONTINUOUS
 10
646.0671576159
 20
-6.9844360431
 11
656.3224969947
 21
-0.9962882049
  0
LINE
  5
3B6
100
AcDbEntity
  8
RUNDUNGEN
100
AcDbLine
 62
7
  6
CONTINUOUS
 10
702.6706533298
 20
26.0666496378
 11
752.7516150702
 21
55.3091926396
  0
LINE
  5
3B7
100
AcDbEntity
  8
0
100
AcDbLine
 62
7
  6
CONTINUOUS
 10
726.8465613652
 20
106.156700617
 11
727.4130927543
 21
106.3411302195
  0
LINE
  5
3B8
100
AcDbEntity
  8
0
100
AcDbLine
 62
7
  6
CONTINUOUS
 10
718.5094151859
 20
103.3471630355
 11
717.9428837673
 21
103.1627333231
  0
LINE
  5
3B9
100
AcDbEntity
  8
0
100
AcDbLine
 62
7
  6
CONTINUOUS
 10
726.7479218769
 20
104.5019743636
 11
725.6148590986
 21
104.1331151585
  0
LINE
  5
3BA
100
AcDbEntity
  8
0
100
AcDbLine
 62
7
  6
CONTINUOUS
 10
726.1320698822
 20
103.4901821007
 11
726.6986012713
 21
103.6746117032
  0
LINE
  5
3BB
100
AcDbEntity
  8
0
100
AcDbLine
 62
7
  6
CONTINUOUS
 10
728.5993323828
 20
100.4754621378
 11
728.0328009937
 21
100.2910325352
  0
LINE
  5
3BC
100
AcDbEntity
  8
0
100
AcDbLine
 62
7
  6
CONTINUOUS
 10
426.0817517734
 20
10.8406122674
 11
426.1780386512
 21
10.8511339035
  0
LINE
  5
3BD
100
AcDbEntity
  8
0
100
AcDbLine
 62
7
  6
CONTINUOUS
 10
379.3211654795
 20
49.8172333957
 11
379.3978679002
 21
49.8266031888
  0
LINE
  5
3BE
100
AcDbEntity
  8
0
100
AcDbLine
 62
7
  6
CONTINUOUS
 10
377.9300845432
 20
51.3367992186
 11
377.8533821188
 21
51.3274294298
  0
LINE
  5
3BF
100
AcDbEntity
  8
0
100
AcDbLine
 62
7
  6
CONTINUOUS
 10
397.0903737447
 20
38.844133045
 11
397.1866606225
 21
38.8546546811
  0
LINE
  5
3C0
100
AcDbEntity
  8
0
100
AcDbLine
 62
7
  6
CONTINUOUS
 10
370.2744774742
 20
59.3456090707
 11
370.1541188875
 21
59.3324570155
  0
LINE
  5
3C1
100
AcDbEntity
  8
0
100
AcDbLine
 62
7
  6
CONTINUOUS
 10
373.3466307033
 20
61.5976543546
 11
373.2262721166
 21
61.5845022993
  0
LINE
  5
3C2
100
AcDbEntity
  8
0
100
AcDbLine
 62
7
  6
CONTINUOUS
 10
368.5894569232
 20
61.2320329839
 11
368.7098155099
 21
61.2451849775
  0
LINE
  5
3C3
100
AcDbEntity
  8
0
100
AcDbLine
 62
7
  6
CONTINUOUS
 10
370.9394587164
 20
64.2247594566
 11
371.0598173031
 21
64.2379115118
  0
LINE
  5
3C4
100
AcDbEntity
  8
0
100
AcDbLine
 62
7
  6
CONTINUOUS
 10
368.8933624052
 20
66.1580002602
 11
369.0137209919
 21
66.1711523155
  0
LINE
  5
3C5
100
AcDbEntity
  8
0
100
AcDbLine
 62
7
  6
CONTINUOUS
 10
370.2173071961
 20
66.6046280536
 11
370.0969486094
 21
66.5914759984
  0
LINE
  5
3C6
100
AcDbEntity
  8
0
100
AcDbLine
 62
7
  6
CONTINUOUS
 10
378.3932130285
 20
50.0162815367
 11
378.4912067213
 21
50.0187425058
  0
LINE
  5
3C7
100
AcDbEntity
  8
0
100
AcDbLine
 62
7
  6
CONTINUOUS
 10
377.3689749759
 20
50.702630203
 11
377.7609497473
 21
50.7124740795
  0
LINE
  5
3C8
100
AcDbEntity
  8
0
100
AcDbLine
 62
7
  6
CONTINUOUS
 10
377.8589434401
 20
50.7149350486
 11
378.022266246
 21
50.7190366634
  0
LINE
  5
3C9
100
AcDbEntity
  8
0
100
AcDbLine
 62
7
  6
CONTINUOUS
 10
377.7512962322
 20
51.0174049359
 11
377.5879734263
 21
51.0133033211
  0
LINE
  5
3CA
100
AcDbEntity
  8
0
100
AcDbLine
 62
7
  6
CONTINUOUS
 10
377.4899797335
 20
51.0108423519
 11
377.2123309332
 21
51.003869606
  0
LINE
  5
3CB
100
AcDbEntity
  8
0
100
AcDbLine
 62
7
  6
CONTINUOUS
 10
376.3686085223
 20
52.355960373
 11
376.2706148295
 21
52.3534994038
  0
LINE
  5
3CC
100
AcDbEntity
  8
0
100
AcDbLine
 62
7
  6
CONTINUOUS
 10
217.7129649072
 20
44.4770211607
 11
215.5213649072
 21
44.4770211607
  0
LINE
  5
3CD
100
AcDbEntity
  8
0
100
AcDbLine
 62
7
  6
CONTINUOUS
 10
409.9434187318
 20
20.4065209026
 11
409.849419707
 21
20.4162627191
  0
LINE
  5
3CE
100
AcDbEntity
  8
0
100
AcDbLine
 62
7
  6
CONTINUOUS
 10
408.2881826102
 20
22.2129638184
 11
408.382181482
 21
22.2032220682
  0
LINE
  5
3CF
100
AcDbEntity
  8
0
100
AcDbLine
 62
7
  6
CONTINUOUS
 10
408.9921997001
 20
20.5022926585
 11
409.0890082901
 21
20.4874429902
  0
LINE
  5
3D0
100
AcDbEntity
  8
0
100
AcDbLine
 62
7
  6
CONTINUOUS
 10
408.8888937758
 20
20.7326591575
 11
408.7533617276
 21
20.7534486966
  0
LINE
  5
3D1
100
AcDbEntity
  8
0
100
AcDbLine
 62
7
  6
CONTINUOUS
 10
407.8754567845
 20
21.7461930729
 11
408.0109888327
 21
21.7254035338
  0
LINE
  5
3D2
100
AcDbEntity
  8
0
100
AcDbLine
 62
7
  6
CONTINUOUS
 10
407.7721508909
 20
21.9765595371
 11
407.6753423008
 21
21.9914092055
  0
LINE
  5
3D3
100
AcDbEntity
  8
0
100
AcDbLine
 62
7
  6
CONTINUOUS
 10
407.6636730899
 20
22.2506234833
 11
407.7604816523
 21
22.2357738192
  0
LINE
  5
3D4
100
AcDbEntity
  8
0
100
AcDbLine
 62
7
  6
CONTINUOUS
 10
407.1292375383
 20
22.5900258431
 11
407.2454078574
 21
22.5722062394
  0
LINE
  5
3D5
100
AcDbEntity
  8
0
100
AcDbLine
 62
7
  6
CONTINUOUS
 10
407.0065699156
 20
22.8233622427
 11
406.9291230546
 21
22.8352419757
  0
LINE
  5
3D6
100
AcDbEntity
  8
0
100
AcDbLine
 62
7
  6
CONTINUOUS
 10
410.0476951444
 20
20.1747817242
 11
410.1684248646
 21
20.1534323632
  0
LINE
  5
3D7
100
AcDbEntity
  8
0
100
AcDbLine
 62
7
  6
CONTINUOUS
 10
408.1839060724
 20
22.4447030293
 11
408.0631763488
 21
22.4660523945
  0
LINE
  5
3D8
100
AcDbEntity
  8
0
100
AcDbLine
 62
7
  6
CONTINUOUS
 10
370.2173071961
 20
67.2948120094
 11
370.0969486094
 21
67.281660201
  0
LINE
  5
3D9
100
AcDbEntity
  8
0
100
AcDbLine
 62
7
  6
CONTINUOUS
 10
370.2173071961
 20
68.5457708919
 11
370.0969486094
 21
68.5326188367
  0
LINE
  5
3DA
100
AcDbEntity
  8
0
100
AcDbLine
 62
7
  6
CONTINUOUS
 10
370.2173071961
 20
69.2359548476
 11
370.0969486094
 21
69.2228027924
  0
LINE
  5
3DB
100
AcDbEntity
  8
0
100
AcDbLine
 62
7
  6
CONTINUOUS
 10
215.5213649072
 20
64.206557948
 11
217.7129649072
 21
64.206557948
  0
LINE
  5
3DC
100
AcDbEntity
  8
0
100
AcDbLine
 62
7
  6
CONTINUOUS
 10
204.8473490819
 20
77.7104945064
 11
228.3869807324
 21
77.7104945064
  0
LINE
  5
3DD
100
AcDbEntity
  8
0
100
AcDbLine
 62
7
  6
CONTINUOUS
 10
370.6355532344
 20
58.6517445984
 11
370.8762704078
 21
58.5917756835
  0
LINE
  5
3DE
100
AcDbEntity
  8
0
100
AcDbLine
 62
7
  6
CONTINUOUS
 10
370.2819998438
 20
59.3023778689
 11
370.2404400971
 21
59.3127314891
  0
LINE
  5
3DF
100
AcDbEntity
  8
0
100
AcDbLine
 62
7
  6
CONTINUOUS
 10
370.6355532344
 20
59.6438842198
 11
370.3948360609
 21
59.7038531655
  0
LINE
  5
3E0
100
AcDbEntity
  8
0
100
AcDbLine
 62
7
  6
CONTINUOUS
 10
413.1822755948
 20
19.539045982
 11
420.2639178889
 21
17.1882861115
  0
LINE
  5
3E1
100
AcDbEntity
  8
0
100
AcDbLine
 62
7
  6
CONTINUOUS
 10
419.7689431421
 20
17.411362844
 11
412.7188025354
 21
19.7516656905
  0
LINE
  5
3E2
100
AcDbEntity
  8
0
100
AcDbLine
 62
7
  6
CONTINUOUS
 10
420.1224965326
 20
17.7528691949
 11
412.3657790138
 21
20.3277211166
  0
LINE
  5
3E3
100
AcDbEntity
  8
0
100
AcDbLine
 62
7
  6
CONTINUOUS
 10
425.8891780178
 20
10.9230965887
 11
426.0817517734
 21
10.8406122674
  0
LINE
  5
3E4
100
AcDbEntity
  8
0
100
AcDbLine
 62
7
  6
CONTINUOUS
 10
425.7928911147
 20
11.257667029
 11
425.600317376
 21
11.3401513586
  0
LINE
  5
3E5
100
AcDbEntity
  8
0
100
AcDbLine
 62
7
  6
CONTINUOUS
 10
212.6164149072
 20
105.9283722364
 11
220.6179149072
 21
105.9283722364
  0
LINE
  5
3E6
100
AcDbEntity
  8
0
100
AcDbLine
 62
7
  6
CONTINUOUS
 10
220.6179149072
 20
117.7767060382
 11
212.6164149072
 21
117.7767060382
  0
LINE
  5
3E7
100
AcDbEntity
  8
0
100
AcDbLine
 62
7
  6
CONTINUOUS
 10
370.5783829562
 20
66.0401731964
 11
370.698741543
 21
66.0101886618
  0
LINE
  5
3E8
100
AcDbEntity
  8
0
100
AcDbLine
 62
7
  6
CONTINUOUS
 10
370.5783829562
 20
66.7303571521
 11
370.698741543
 21
66.7003728644
  0
LINE
  5
3E9
100
AcDbEntity
  8
0
100
AcDbLine
 62
7
  6
CONTINUOUS
 10
370.5783829562
 20
67.9813157878
 11
370.698741543
 21
67.9513315001
  0
LINE
  5
3EA
100
AcDbEntity
  8
0
100
AcDbLine
 62
7
  6
CONTINUOUS
 10
370.5783829562
 20
68.6715002372
 11
370.698741543
 21
68.6415154558
  0
LINE
  5
3EB
100
AcDbEntity
  8
0
100
AcDbLine
 62
7
  6
CONTINUOUS
 10
379.1791595217
 20
49.8648669525
 11
379.3211654795
 21
49.8172333957
  0
LINE
  5
3EC
100
AcDbEntity
  8
0
100
AcDbLine
 62
7
  6
CONTINUOUS
 10
379.1129863067
 20
50.0625554515
 11
378.9709803489
 21
50.1101890083
  0
LINE
  5
3ED
100
AcDbEntity
  8
0
100
AcDbLine
 62
7
  6
CONTINUOUS
 10
378.4665205818
 20
50.5250902078
 11
378.324514624
 21
50.5727237646
  0
LINE
  5
3EE
100
AcDbEntity
  8
0
100
AcDbLine
 62
7
  6
CONTINUOUS
 10
377.9497921071
 20
51.0143034719
 11
378.1154657697
 21
50.9587309739
  0
LINE
  5
3EF
100
AcDbEntity
  8
0
100
AcDbLine
 62
7
  6
CONTINUOUS
 10
378.1382636868
 20
51.0914771971
 11
378.2802696447
 21
51.0438436404
  0
LINE
  5
3F0
100
AcDbEntity
  8
0
100
AcDbLine
 62
7
  6
CONTINUOUS
 10
378.0720905011
 20
51.2891656618
 11
377.9300845432
 21
51.3367992186
  0
LINE
  5
3F1
100
AcDbEntity
  8
0
100
AcDbLine
 62
7
  6
CONTINUOUS
 10
377.1937778402
 20
52.0049614839
 11
377.8801400602
 21
51.7747325959
  0
LINE
  5
3F2
100
AcDbEntity
  8
0
100
AcDbLine
 62
7
  6
CONTINUOUS
 10
377.6719609166
 20
52.0200546174
 11
376.8672604435
 21
52.2899781208
  0
LINE
  5
3F3
100
AcDbEntity
  8
0
100
AcDbLine
 62
7
  6
CONTINUOUS
 10
373.0427252635
 20
56.1540489319
 11
373.4038010552
 21
56.0209590319
  0
LINE
  5
3F4
100
AcDbEntity
  8
0
100
AcDbLine
 62
7
  6
CONTINUOUS
 10
373.4669893322
 20
61.0931682789
 11
373.8280651239
 21
60.9600783017
  0
LINE
  5
3F5
100
AcDbEntity
  8
0
100
AcDbLine
 62
7
  6
CONTINUOUS
 10
370.4655467391
 20
64.3877391406
 11
370.3846883756
 21
64.4175429283
  0
LINE
  5
3F6
100
AcDbEntity
  8
0
100
AcDbLine
 62
7
  6
CONTINUOUS
 10
370.8191001297
 20
64.7292454916
 11
370.4580243695
 21
64.8623353148
  0
LINE
  5
3F7
100
AcDbEntity
  8
0
100
AcDbLine
 62
7
  6
CONTINUOUS
 10
368.4194504279
 20
66.3209798209
 11
368.3566458745
 21
66.3441291307
  0
LINE
  5
3F8
100
AcDbEntity
  8
0
100
AcDbLine
 62
7
  6
CONTINUOUS
 10
368.7730038185
 20
66.6624861718
 11
368.4119280584
 21
66.7955761184
  0
LINE
  5
3F9
100
AcDbEntity
  8
0
100
AcDbLine
 62
7
  6
CONTINUOUS
 10
396.8977999891
 20
38.9266173663
 11
397.0903737447
 21
38.844133045
  0
LINE
  5
3FA
100
AcDbEntity
  8
0
100
AcDbLine
 62
7
  6
CONTINUOUS
 10
396.8015130861
 20
39.2611878066
 11
396.6089393473
 21
39.3436721362
  0
LINE
  5
3FB
100
AcDbEntity
  8
0
100
AcDbLine
 62
7
  6
CONTINUOUS
 10
370.1541188875
 20
59.3324570155
 11
369.9134017141
 21
59.4355623967
  0
LINE
  5
3FC
100
AcDbEntity
  8
0
100
AcDbLine
 62
7
  6
CONTINUOUS
 10
371.1169875812
 20
58.9631718953
 11
371.3577047546
 21
58.8600664832
  0
LINE
  5
3FD
100
AcDbEntity
  8
0
100
AcDbLine
 62
7
  6
CONTINUOUS
 10
373.2262721166
 20
61.5845022993
 11
372.9855549432
 21
61.6876077114
  0
LINE
  5
3FE
100
AcDbEntity
  8
0
100
AcDbLine
 62
7
  6
CONTINUOUS
 10
371.0598173031
 20
64.2379115118
 11
371.3005344765
 21
64.1348060998
  0
LINE
  5
3FF
100
AcDbEntity
  8
0
100
AcDbLine
 62
7
  6
CONTINUOUS
 10
369.0137209919
 20
66.1711523155
 11
369.2544381653
 21
66.0680469034
  0
LINE
  5
400
100
AcDbEntity
  8
0
100
AcDbLine
 62
7
  6
CONTINUOUS
 10
408.8514958498
 20
20.5667795469
 11
408.9921997001
 21
20.5022926585
  0
LINE
  5
401
100
AcDbEntity
  8
0
100
AcDbLine
 62
7
  6
CONTINUOUS
 10
407.9128547512
 20
21.912072651
 11
407.7721508909
 21
21.9765595371
  0
LINE
  5
402
100
AcDbEntity
  8
0
100
AcDbLine
 62
7
  6
CONTINUOUS
 10
407.1472737482
 20
22.7588753608
 11
407.0065699156
 21
22.8233622427
  0
LINE
  5
403
100
AcDbEntity
  8
0
100
AcDbLine
 62
7
  6
CONTINUOUS
 10
211.1808119471
 20
133.2175051475
 11
222.0535178672
 21
133.2175051475
  0
LINE
  5
404
100
AcDbEntity
  8
0
100
AcDbLine
 62
7
  6
CONTINUOUS
 10
206.1171649072
 20
134.8653107762
 11
206.6154770475
 21
134.8653107762
  0
LINE
  5
405
100
AcDbEntity
  8
RUNDUNGEN
100
AcDbLine
 62
7
  6
CONTINUOUS
 10
226.6188527668
 20
134.8653107762
 11
227.1171649072
 21
134.8653107762
  0
LINE
  5
406
100
AcDbEntity
  8
RUNDUNGEN
100
AcDbLine
 62
7
  6
CONTINUOUS
 10
370.4672112172
 20
73.9413587808
 11
367.8309425974
 21
75.1097197514
  0
LINE
  5
407
100
AcDbEntity
  8
RUNDUNGEN
100
AcDbLine
 62
7
  6
CONTINUOUS
 10
358.7949863381
 20
86.1536423541
 11
361.4312549579
 21
84.9852813834
  0
LINE
  5
408
100
AcDbEntity
  8
RUNDUNGEN
100
AcDbLine
 62
7
  6
CONTINUOUS
 10
348.2529171569
 20
98.7224059359
 11
349.0640767323
 21
98.3629102526
  0
LINE
  5
409
100
AcDbEntity
  8
0
100
AcDbLine
 62
7
  6
CONTINUOUS
 10
367.9951863592
 20
61.4681336072
 11
367.9406583238
 21
61.4947465266
  0
LINE
  5
40A
100
AcDbEntity
  8
0
100
AcDbLine
 62
7
  6
CONTINUOUS
 10
368.3487397498
 20
61.8096399581
 11
367.9876639897
 21
61.9858663711
  0
LINE
  5
40B
100
AcDbEntity
  8
0
100
AcDbLine
 62
7
  6
CONTINUOUS
 10
379.0191854362
 20
49.9536259766
 11
379.1791595217
 21
49.8648669525
  0
LINE
  5
40C
100
AcDbEntity
  8
0
100
AcDbLine
 62
7
  6
CONTINUOUS
 10
378.2320645829
 20
51.200406642
 11
378.0720905011
 21
51.2891656618
  0
LINE
  5
40D
100
AcDbEntity
  8
0
100
AcDbLine
 62
7
  6
CONTINUOUS
 10
408.7533617276
 20
20.7534486966
 11
408.6513813254
 21
20.8119957121
  0
LINE
  5
40E
100
AcDbEntity
  8
0
100
AcDbLine
 62
7
  6
CONTINUOUS
 10
408.0109888327
 20
21.7254035338
 11
408.1129692071
 21
21.6668565226
  0
LINE
  5
40F
100
AcDbEntity
  8
0
100
AcDbLine
 62
7
  6
CONTINUOUS
 10
407.2454078574
 20
22.5722062394
 11
407.3473882595
 21
22.5136592239
  0
LINE
  5
410
100
AcDbEntity
  8
0
100
AcDbLine
 62
7
  6
CONTINUOUS
 10
378.7747799236
 20
51.6001540962
 11
378.8716722984
 21
51.5442689607
  0
LINE
  5
411
100
AcDbEntity
  8
0
100
AcDbLine
 62
7
  6
CONTINUOUS
 10
378.4596166186
 20
52.0841444661
 11
378.3627242438
 21
52.1400296017
  0
LINE
  5
412
100
AcDbEntity
  8
0
100
AcDbLine
 62
7
  6
CONTINUOUS
 10
409.8476552534
 20
20.2927234781
 11
410.0476951444
 21
20.1747817242
  0
LINE
  5
413
100
AcDbEntity
  8
0
100
AcDbLine
 62
7
  6
CONTINUOUS
 10
408.3839459599
 20
22.3267612797
 11
408.1839060724
 21
22.4447030293
  0
LINE
  5
414
100
AcDbEntity
  8
0
100
AcDbLine
 62
7
  6
CONTINUOUS
 10
378.9709803489
 20
50.1101890083
 11
378.8346738364
 21
50.1910091322
  0
LINE
  5
415
100
AcDbEntity
  8
0
100
AcDbLine
 62
7
  6
CONTINUOUS
 10
378.2802696447
 20
51.0438436404
 11
378.4165761571
 21
50.9630235165
  0
LINE
  5
416
100
AcDbEntity
  8
0
100
AcDbLine
 62
7
  6
CONTINUOUS
 10
378.3641628697
 20
52.9393345858
 11
378.227728205
 21
53.0211817988
  0
LINE
  5
417
100
AcDbEntity
  8
0
100
AcDbLine
 62
7
  6
CONTINUOUS
 10
378.4839576271
 20
53.0550474358
 11
390.9189864696
 21
45.5952683793
  0
LINE
  5
418
100
AcDbEntity
  8
0
100
AcDbLine
 62
7
  6
CONTINUOUS
 10
390.9189864696
 20
45.9612937831
 11
377.4839576271
 21
54.0209732621
  0
LINE
  5
419
100
AcDbEntity
  8
0
100
AcDbLine
 62
7
  6
CONTINUOUS
 10
372.6816494612
 20
56.7616404042
 11
372.3205736168
 21
56.9810033651
  0
LINE
  5
41A
100
AcDbEntity
  8
0
100
AcDbLine
 62
7
  6
CONTINUOUS
 10
370.1541188875
 20
58.9442284324
 11
370.6355532344
 21
58.6517445984
  0
LINE
  5
41B
100
AcDbEntity
  8
0
100
AcDbLine
 62
7
  6
CONTINUOUS
 10
370.7634341906
 20
59.009894112
 11
370.2819998438
 21
59.3023778689
  0
LINE
  5
41C
100
AcDbEntity
  8
0
100
AcDbLine
 62
7
  6
CONTINUOUS
 10
371.1169875812
 20
59.3514004629
 11
370.6355532344
 21
59.6438842198
  0
LINE
  5
41D
100
AcDbEntity
  8
0
100
AcDbLine
 62
7
  6
CONTINUOUS
 10
368.7098155099
 20
61.2451849775
 11
368.9505326833
 21
61.098943099
  0
LINE
  5
41E
100
AcDbEntity
  8
0
100
AcDbLine
 62
7
  6
CONTINUOUS
 10
370.8266224992
 20
64.1683762612
 11
370.4655467391
 21
64.3877391406
  0
LINE
  5
41F
100
AcDbEntity
  8
0
100
AcDbLine
 62
7
  6
CONTINUOUS
 10
371.3005344765
 20
64.1348060998
 11
371.5412516499
 21
63.9885640979
  0
LINE
  5
420
100
AcDbEntity
  8
0
100
AcDbLine
 62
7
  6
CONTINUOUS
 10
371.1801758898
 20
64.5098826122
 11
370.8191001297
 21
64.7292454916
  0
LINE
  5
421
100
AcDbEntity
  8
0
100
AcDbLine
 62
7
  6
CONTINUOUS
 10
370.698741543
 20
66.0101886618
 11
370.8191001297
 21
65.9370677843
  0
LINE
  5
422
100
AcDbEntity
  8
0
100
AcDbLine
 62
7
  6
CONTINUOUS
 10
370.5783829562
 20
66.3852651743
 11
370.2173071961
 21
66.6046280536
  0
LINE
  5
423
100
AcDbEntity
  8
0
100
AcDbLine
 62
7
  6
CONTINUOUS
 10
370.698741543
 20
66.7003728644
 11
370.8191001297
 21
66.62725174
  0
LINE
  5
424
100
AcDbEntity
  8
0
100
AcDbLine
 62
7
  6
CONTINUOUS
 10
370.4580243695
 20
67.1485702543
 11
370.2173071961
 21
67.2948120094
  0
LINE
  5
425
100
AcDbEntity
  8
0
100
AcDbLine
 62
7
  6
CONTINUOUS
 10
370.698741543
 20
67.9513315001
 11
370.8191001297
 21
67.8782103758
  0
LINE
  5
426
100
AcDbEntity
  8
0
100
AcDbLine
 62
7
  6
CONTINUOUS
 10
370.5783829562
 20
68.3264080125
 11
370.2173071961
 21
68.5457708919
  0
LINE
  5
427
100
AcDbEntity
  8
0
100
AcDbLine
 62
7
  6
CONTINUOUS
 10
370.698741543
 20
68.6415154558
 11
370.8191001297
 21
68.5683948251
  0
LINE
  5
428
100
AcDbEntity
  8
0
100
AcDbLine
 62
7
  6
CONTINUOUS
 10
370.4580243695
 20
69.0897130926
 11
370.2173071961
 21
69.2359548476
  0
LINE
  5
429
100
AcDbEntity
  8
0
100
AcDbLine
 62
7
  6
CONTINUOUS
 10
409.849419707
 20
20.4162627191
 11
409.6761106715
 21
20.5225968537
  0
LINE
  5
42A
100
AcDbEntity
  8
0
100
AcDbLine
 62
7
  6
CONTINUOUS
 10
408.382181482
 20
22.2032220682
 11
408.5554906705
 21
22.0968878672
  0
LINE
  5
42B
100
AcDbEntity
  8
0
100
AcDbLine
 62
7
  6
CONTINUOUS
 10
409.9001822183
 20
21.6360669148
 11
410.0067990199
 21
21.567091574
  0
LINE
  5
42C
100
AcDbEntity
  8
0
100
AcDbLine
 62
7
  6
CONTINUOUS
 10
409.6351463302
 20
22.0821783368
 11
409.5285295286
 21
22.1511536776
  0
LINE
  5
42D
100
AcDbEntity
  8
RUNDUNGEN
100
AcDbLine
 62
7
  6
CONTINUOUS
 10
438.0042452046
 20
-6.9844360431
 11
436.386198027
 21
-5.8362178599
  0
LINE
  5
42E
100
AcDbEntity
  8
RUNDUNGEN
100
AcDbLine
 62
7
  6
CONTINUOUS
 10
391.4292852484
 20
26.0666496378
 11
350.2212510411
 21
55.3091926396
  0
LINE
  5
42F
100
AcDbEntity
  8
RUNDUNGEN
100
AcDbLine
 62
7
  6
CONTINUOUS
 10
441.5397791105
 20
-3.5693725336
 11
433.1013953167
 21
2.4187753046
  0
LINE
  5
430
100
AcDbEntity
  8
RUNDUNGEN
100
AcDbLine
 62
7
  6
CONTINUOUS
 10
394.9648191543
 20
29.4817131473
 11
353.756784947
 21
58.7242561491
  0
LINE
  5
431
100
AcDbEntity
  8
0
100
AcDbLine
 62
7
  6
CONTINUOUS
 10
408.6230015068
 20
20.7305408712
 11
408.8514958498
 21
20.5667795469
  0
LINE
  5
432
100
AcDbEntity
  8
0
100
AcDbLine
 62
7
  6
CONTINUOUS
 10
408.1413490411
 20
21.7483113461
 11
407.9128547512
 21
21.912072651
  0
LINE
  5
433
100
AcDbEntity
  8
0
100
AcDbLine
 62
7
  6
CONTINUOUS
 10
212.3517510859
 20
161.8880687377
 11
220.8825787285
 21
161.8880687377
  0
LINE
  5
434
100
AcDbEntity
  8
0
100
AcDbLine
 62
7
  6
CONTINUOUS
 10
368.476620706
 20
61.1325132605
 11
367.9951863592
 21
61.4681336072
  0
LINE
  5
435
100
AcDbEntity
  8
0
100
AcDbLine
 62
7
  6
CONTINUOUS
 10
368.8301740966
 20
61.4740196114
 11
368.3487397498
 21
61.8096399581
  0
LINE
  5
436
100
AcDbEntity
  8
0
100
AcDbLine
 62
7
  6
CONTINUOUS
 10
372.9855549432
 20
61.4287886046
 11
373.4669893322
 21
61.0931682789
  0
LINE
  5
437
100
AcDbEntity
  8
0
100
AcDbLine
 62
7
  6
CONTINUOUS
 10
368.7927060359
 20
66.0607736736
 11
368.4194504279
 21
66.3209798209
  0
LINE
  5
438
100
AcDbEntity
  8
0
100
AcDbLine
 62
7
  6
CONTINUOUS
 10
369.2544381653
 20
66.3268658251
 11
368.7730038185
 21
66.6624861718
  0
LINE
  5
439
100
AcDbEntity
  8
RUNDUNGEN
100
AcDbLine
 62
7
  6
CONTINUOUS
 10
359.1853199802
 20
60.6382583141
 11
346.354953822
 21
69.7430977302
  0
LINE
  5
43A
100
AcDbEntity
  8
RUNDUNGEN
100
AcDbLine
 62
7
  6
CONTINUOUS
 10
415.2438085379
 20
25.2018025704
 11
438.955422145
 21
8.3752809008
  0
LINE
  5
43B
100
AcDbEntity
  8
0
100
AcDbLine
 62
7
  6
CONTINUOUS
 10
407.3757680935
 20
22.5951140474
 11
407.1472737482
 21
22.7588753608
  0
LINE
  5
43C
100
AcDbEntity
  8
0
100
AcDbLine
 62
7
  6
CONTINUOUS
 10
371.3577047546
 20
58.8600664832
 11
371.7187806833
 21
58.5975668512
  0
LINE
  5
43D
100
AcDbEntity
  8
0
100
AcDbLine
 62
7
  6
CONTINUOUS
 10
372.9855549432
 20
61.6876077114
 11
372.6244790988
 21
61.9501071386
  0
LINE
  5
43E
100
AcDbEntity
  8
0
100
AcDbLine
 62
7
  6
CONTINUOUS
 10
369.2544381653
 20
66.0680469034
 11
369.6155139254
 21
65.8055475576
  0
LINE
  5
43F
100
AcDbEntity
  8
0
100
AcDbLine
 62
7
  6
CONTINUOUS
 10
408.6513813254
 20
20.8119957121
 11
408.5055056808
 21
20.9201799411
  0
LINE
  5
440
100
AcDbEntity
  8
0
100
AcDbLine
 62
7
  6
CONTINUOUS
 10
408.1129692071
 20
21.6668565226
 11
408.2588448517
 21
21.5586722935
  0
LINE
  5
441
100
AcDbEntity
  8
0
100
AcDbLine
 62
7
  6
CONTINUOUS
 10
407.3473882595
 20
22.5136592239
 11
407.4932639041
 21
22.4054749949
  0
LINE
  5
442
100
AcDbEntity
  8
0
100
AcDbLine
 62
7
  6
CONTINUOUS
 10
372.4409322035
 20
56.6059268642
 11
373.0427252635
 21
56.1540489319
  0
LINE
  5
443
100
AcDbEntity
  8
0
100
AcDbLine
 62
7
  6
CONTINUOUS
 10
378.7759395506
 20
50.1405138632
 11
379.0191854362
 21
49.9536259766
  0
LINE
  5
444
100
AcDbEntity
  8
0
100
AcDbLine
 62
7
  6
CONTINUOUS
 10
378.4753104576
 20
51.0135187683
 11
378.2320645829
 21
51.200406642
  0
LINE
  5
445
100
AcDbEntity
  8
0
100
AcDbLine
 62
7
  6
CONTINUOUS
 10
425.5040305066
 20
11.2261021211
 11
425.8891780178
 21
10.9230965887
  0
LINE
  5
446
100
AcDbEntity
  8
0
100
AcDbLine
 62
7
  6
CONTINUOUS
 10
370.9575343334
 20
58.8571904634
 11
370.7634341906
 21
59.009894112
  0
LINE
  5
447
100
AcDbEntity
  8
0
100
AcDbLine
 62
7
  6
CONTINUOUS
 10
396.512652478
 20
39.2296228987
 11
396.8977999891
 21
38.9266173663
  0
LINE
  5
448
100
AcDbEntity
  8
0
100
AcDbLine
 62
7
  6
CONTINUOUS
 10
371.5984220966
 20
58.9726433636
 11
371.1169875812
 21
59.3514004629
  0
LINE
  5
449
100
AcDbEntity
  8
0
100
AcDbLine
 62
7
  6
CONTINUOUS
 10
368.9505326833
 20
61.098943099
 11
369.1912498567
 21
60.9095646308
  0
LINE
  5
44A
100
AcDbEntity
  8
0
100
AcDbLine
 62
7
  6
CONTINUOUS
 10
370.8191001297
 20
65.9370677843
 11
371.0598173031
 21
65.7476891927
  0
LINE
  5
44B
100
AcDbEntity
  8
0
100
AcDbLine
 62
7
  6
CONTINUOUS
 10
370.8191001297
 20
66.62725174
 11
371.0598173031
 21
66.4378733952
  0
LINE
  5
44C
100
AcDbEntity
  8
0
100
AcDbLine
 62
7
  6
CONTINUOUS
 10
370.8191001297
 20
67.8782103758
 11
371.0598173031
 21
67.6888322778
  0
LINE
  5
44D
100
AcDbEntity
  8
0
100
AcDbLine
 62
7
  6
CONTINUOUS
 10
370.8191001297
 20
68.5683948251
 11
371.0598173031
 21
68.3790162335
  0
LINE
  5
44E
100
AcDbEntity
  8
0
100
AcDbLine
 62
7
  6
CONTINUOUS
 10
378.8346738364
 20
50.1910091322
 11
378.6803992
 21
50.3129547192
  0
LINE
  5
44F
100
AcDbEntity
  8
0
100
AcDbLine
 62
7
  6
CONTINUOUS
 10
378.4165761571
 20
50.9630235165
 11
378.5708507935
 21
50.8410779295
  0
LINE
  5
450
100
AcDbEntity
  8
0
100
AcDbLine
 62
7
  6
CONTINUOUS
 10
409.5950360436
 20
20.4956500098
 11
409.8476552534
 21
20.2927234781
  0
LINE
  5
451
100
AcDbEntity
  8
0
100
AcDbLine
 62
7
  6
CONTINUOUS
 10
408.6365653123
 20
22.1238346942
 11
408.3839459599
 21
22.3267612797
  0
LINE
  5
452
100
AcDbEntity
  8
0
100
AcDbLine
 62
7
  6
CONTINUOUS
 10
372.3837619254
 20
61.9238030281
 11
372.9855549432
 21
61.4287886046
  0
LINE
  5
453
100
AcDbEntity
  8
0
100
AcDbLine
 62
7
  6
CONTINUOUS
 10
370.8662602962
 20
64.1357715572
 11
370.8266224992
 21
64.1683762612
  0
LINE
  5
454
100
AcDbEntity
  8
0
100
AcDbLine
 62
7
  6
CONTINUOUS
 10
371.7819688233
 20
64.0148682084
 11
371.1801758898
 21
64.5098826122
  0
LINE
  5
455
100
AcDbEntity
  8
0
100
AcDbLine
 62
7
  6
CONTINUOUS
 10
409.6761106715
 20
20.5225968537
 11
409.5166081048
 21
20.6540120169
  0
LINE
  5
456
100
AcDbEntity
  8
0
100
AcDbLine
 62
7
  6
CONTINUOUS
 10
408.5554906705
 20
22.0968878672
 11
408.7149932371
 21
21.965472704
  0
LINE
  5
457
100
AcDbEntity
  8
0
100
AcDbLine
 62
7
  6
CONTINUOUS
 10
408.2588448517
 20
21.5586722935
 11
408.385358795
 21
21.4534579956
  0
LINE
  5
458
100
AcDbEntity
  8
0
100
AcDbLine
 62
7
  6
CONTINUOUS
 10
408.3311199283
 20
21.5904899034
 11
408.1413490411
 21
21.7483113461
  0
LINE
  5
459
100
AcDbEntity
  8
0
100
AcDbLine
 62
7
  6
CONTINUOUS
 10
425.600317376
 20
11.3401513586
 11
425.3114567005
 21
11.5846601722
  0
LINE
  5
45A
100
AcDbEntity
  8
0
100
AcDbLine
 62
7
  6
CONTINUOUS
 10
372.3205736168
 20
56.9810033651
 11
371.9594978567
 21
57.2866392698
  0
LINE
  5
45B
100
AcDbEntity
  8
0
100
AcDbLine
 62
7
  6
CONTINUOUS
 10
369.9134017141
 20
59.4355623967
 11
369.552325954
 21
59.7411983014
  0
LINE
  5
45C
100
AcDbEntity
  8
0
100
AcDbLine
 62
7
  6
CONTINUOUS
 10
369.1912498567
 20
61.1683836759
 11
368.8301740966
 21
61.4740196114
  0
LINE
  5
45D
100
AcDbEntity
  8
RUNDUNGEN
100
AcDbLine
 62
7
  6
CONTINUOUS
 10
240.0250299153
 20
106.9521995116
 11
234.5250299153
 21
114.5393672507
  0
LINE
  5
45E
100
AcDbEntity
  8
0
100
AcDbLine
 62
7
  6
CONTINUOUS
 10
212.3517510859
 20
186.7175051475
 11
220.8825787285
 21
186.7175051475
  0
LINE
  5
45F
100
AcDbEntity
  8
0
100
AcDbLine
 62
7
  6
CONTINUOUS
 10
211.5368226781
 20
201.0527869426
 11
221.6975071362
 21
201.0527869426
  0
LINE
  5
460
100
AcDbEntity
  8
0
100
AcDbLine
 62
7
  6
CONTINUOUS
 10
371.0598173031
 20
66.6535560973
 11
370.4580243695
 21
67.1485702543
  0
LINE
  5
461
100
AcDbEntity
  8
0
100
AcDbLine
 62
7
  6
CONTINUOUS
 10
371.0598173031
 20
68.5946989356
 11
370.4580243695
 21
69.0897130926
  0
LINE
  5
462
100
AcDbEntity
  8
0
100
AcDbLine
 62
7
  6
CONTINUOUS
 10
396.6089393473
 20
39.3436721362
 11
396.3200786718
 21
39.5881809498
  0
LINE
  5
463
100
AcDbEntity
  8
0
100
AcDbLine
 62
7
  6
CONTINUOUS
 10
372.6244790988
 20
61.9501071386
 11
372.2634033387
 21
62.2557430742
  0
LINE
  5
464
100
AcDbEntity
  8
0
100
AcDbLine
 62
7
  6
CONTINUOUS
 10
371.5412516499
 20
63.9885640979
 11
371.9023275786
 21
63.6829281229
  0
LINE
  5
465
100
AcDbEntity
  8
0
100
AcDbLine
 62
7
  6
CONTINUOUS
 10
369.6155139254
 20
66.0212300129
 11
369.2544381653
 21
66.3268658251
  0
LINE
  5
466
100
AcDbEntity
  8
0
100
AcDbLine
 62
7
  6
CONTINUOUS
 10
371.9594978567
 20
57.0278202247
 11
372.4409322035
 21
56.6059268642
  0
LINE
  5
467
100
AcDbEntity
  8
0
100
AcDbLine
 62
7
  6
CONTINUOUS
 10
369.6726845407
 20
59.366121789
 11
370.1541188875
 21
58.9442284324
  0
LINE
  5
468
100
AcDbEntity
  8
0
100
AcDbLine
 62
7
  6
CONTINUOUS
 10
408.3893353617
 20
20.9379995449
 11
408.6230015068
 21
20.7305408712
  0
LINE
  5
469
100
AcDbEntity
  8
0
100
AcDbLine
 62
7
  6
CONTINUOUS
 10
407.6094342233
 20
22.3876553911
 11
407.3757680935
 21
22.5951140474
  0
LINE
  5
46A
100
AcDbEntity
  8
0
100
AcDbLine
 62
7
  6
CONTINUOUS
 10
409.3958783812
 20
20.6753613821
 11
409.5950360436
 21
20.4956500098
  0
LINE
  5
46B
100
AcDbEntity
  8
0
100
AcDbLine
 62
7
  6
CONTINUOUS
 10
408.8357229608
 20
21.9441233389
 11
408.6365653123
 21
22.1238346942
  0
LINE
  5
46C
100
AcDbEntity
  8
0
100
AcDbLine
 62
7
  6
CONTINUOUS
 10
408.5055056808
 20
20.9201799411
 11
408.3350964781
 21
21.0750314853
  0
LINE
  5
46D
100
AcDbEntity
  8
0
100
AcDbLine
 62
7
  6
CONTINUOUS
 10
407.4932639041
 20
22.4054749949
 11
407.6636730899
 21
22.2506234833
  0
LINE
  5
46E
100
AcDbEntity
  8
0
100
AcDbLine
 62
7
  6
CONTINUOUS
 10
371.5412516499
 20
62.6944689341
 11
372.3837619254
 21
61.9238030281
  0
LINE
  5
46F
100
AcDbEntity
  8
0
100
AcDbLine
 62
7
  6
CONTINUOUS
 10
378.5383932422
 20
50.360588276
 11
378.7759395506
 21
50.1405138632
  0
LINE
  5
470
100
AcDbEntity
  8
0
100
AcDbLine
 62
7
  6
CONTINUOUS
 10
378.7128567514
 20
50.7934443727
 11
378.4753104576
 21
51.0135187683
  0
LINE
  5
471
100
AcDbEntity
  8
0
100
AcDbLine
 62
7
  6
CONTINUOUS
 10
378.5708507935
 20
50.8410779295
 11
378.7430935539
 21
50.6780068795
  0
LINE
  5
472
100
AcDbEntity
  8
RUNDUNGEN
100
AcDbLine
 62
7
  6
CONTINUOUS
 10
448.1946357458
 20
-35.2160619042
 11
438.6645265405
 21
-26.0106832955
  0
LINE
  5
473
100
AcDbEntity
  8
KONSTRUKTIONSELEMENTE
100
AcDbLine
 62
7
  6
CONTINUOUS
 10
343.8565753191
 20
69.9811670196
 11
335.4420046229
 21
78.1090181721
  0
LINE
  5
474
100
AcDbEntity
  8
KONSTRUKTIONSELEMENTE
100
AcDbLine
 62
7
  6
CONTINUOUS
 10
282.6918387464
 20
129.0617657332
 11
274.2772680503
 21
137.1896168858
  0
LINE
  5
475
100
AcDbEntity
  8
KONSTRUKTIONSELEMENTE
100
AcDbLine
 62
7
  6
CONTINUOUS
 10
315.6399247021
 20
99.3597736746
 11
305.0333229843
 21
109.604964203
  0
LINE
  5
476
100
AcDbEntity
  8
RUNDUNGEN
100
AcDbLine
 62
7
  6
CONTINUOUS
 10
451.7301696517
 20
-31.8009983947
 11
442.2000604464
 21
-22.595619786
  0
LINE
  5
477
100
AcDbEntity
  8
RUNDUNGEN
100
AcDbLine
 62
7
  6
CONTINUOUS
 10
449.6088493081
 20
-26.555545082
 11
456.8213384762
 21
-33.5222746413
  0
LINE
  5
478
100
AcDbEntity
  8
KONSTRUKTIONSELEMENTE
100
AcDbLine
 62
7
  6
CONTINUOUS
 10
346.9013137031
 20
73.9918169365
 11
338.915737576
 21
81.7052911555
  0
LINE
  5
479
100
AcDbEntity
  8
KONSTRUKTIONSELEMENTE
100
AcDbLine
 62
7
  6
CONTINUOUS
 10
286.1655716995
 20
132.6580387166
 11
280.4796345117
 21
138.1502322929
  0
LINE
  5
47A
100
AcDbEntity
  8
0
100
AcDbLine
 62
7
  6
CONTINUOUS
 10
367.2309092999
 20
55.124809906
 11
375.0090838929
 21
47.6116701852
  0
LINE
  5
47B
100
AcDbEntity
  8
0
100
AcDbLine
 62
7
  6
CONTINUOUS
 10
374.6555305024
 20
48.0825860587
 11
367.5844626905
 21
54.9127130776
  0
LINE
  5
47C
100
AcDbEntity
  8
KONSTRUKTIONSELEMENTE
100
AcDbLine
 62
7
  6
CONTINUOUS
 10
318.7662843598
 20
102.5964193597
 11
308.159682642
 21
112.8416098881
  0
LINE
  5
47D
100
AcDbEntity
  8
KONSTRUKTIONSELEMENTE
100
AcDbLine
 62
7
  6
CONTINUOUS
 10
293.54283779
 20
127.0703571712
 11
304.1494395078
 21
116.8251666428
  0
LINE
  5
47E
100
AcDbEntity
  8
KONSTRUKTIONSELEMENTE
100
AcDbLine
 62
7
  6
CONTINUOUS
 10
324.6555361622
 20
97.0177982879
 11
335.26213788
 21
86.7726077595
  0
LINE
  5
47F
100
AcDbEntity
  8
0
100
AcDbLine
 62
7
  6
CONTINUOUS
 10
428.0420924819
 20
0.2680032198
 11
407.5359958275
 21
20.0753715747
  0
LINE
  5
480
100
AcDbEntity
  8
0
100
AcDbLine
 62
7
  6
CONTINUOUS
 10
398.6971610627
 20
28.6130303483
 11
377.3425362709
 21
49.2400139455
  0
LINE
  5
481
100
AcDbEntity
  8
0
100
AcDbLine
 62
7
  6
CONTINUOUS
 10
427.6885390913
 20
0.7389190933
 11
420.6174712795
 21
7.5690461122
  0
LINE
  5
482
100
AcDbEntity
  8
0
100
AcDbLine
 62
7
  6
CONTINUOUS
 10
419.5568111077
 20
8.5935651651
 11
408.9502093899
 21
18.8387556935
  0
LINE
  5
483
100
AcDbEntity
  8
0
100
AcDbLine
 62
7
  6
CONTINUOUS
 10
408.6673666774
 20
19.1119607742
 11
407.5359958275
 21
20.2047810972
  0
LINE
  5
484
100
AcDbEntity
  8
0
100
AcDbLine
 62
7
  6
CONTINUOUS
 10
398.3436076721
 20
29.0839462218
 11
391.2725398602
 21
35.9140732408
  0
LINE
  5
485
100
AcDbEntity
  8
0
100
AcDbLine
 62
7
  6
CONTINUOUS
 10
390.1411690103
 20
37.0068935638
 11
378.8274605114
 21
47.9350967941
  0
LINE
  5
486
100
AcDbEntity
  8
0
100
AcDbLine
 62
7
  6
CONTINUOUS
 10
378.4739071208
 20
48.276603145
 11
377.3425362709
 21
49.369423468
  0
LINE
  5
487
100
AcDbEntity
  8
0
100
AcDbLine
 62
7
  6
CONTINUOUS
 10
367.2955751967
 20
60.3321727816
 11
367.2309092999
 21
60.3946352415
  0
LINE
  5
488
100
AcDbEntity
  8
0
100
AcDbLine
 62
7
  6
CONTINUOUS
 10
367.5844626905
 20
60.6067320699
 11
374.6555305024
 21
53.7766050509
  0
LINE
  5
489
100
AcDbEntity
  8
0
100
AcDbLine
 62
7
  6
CONTINUOUS
 10
375.0090838929
 20
53.5645082226
 11
367.2309092999
 21
61.0776479434
  0
LINE
  5
48A
100
AcDbEntity
  8
0
100
AcDbLine
 62
7
  6
CONTINUOUS
 10
369.1912498567
 20
59.831151984
 11
369.6726845407
 21
59.366121789
  0
LINE
  5
48B
100
AcDbEntity
  8
0
100
AcDbLine
 62
7
  6
CONTINUOUS
 10
369.552325954
 20
59.7411983014
 11
369.3116087806
 21
59.9737132361
  0
LINE
  5
48C
100
AcDbEntity
  8
KONSTRUKTIONSELEMENTE
100
AcDbLine
 62
7
  6
CONTINUOUS
 10
296.6691974477
 20
130.3070028562
 11
307.2757991655
 21
120.0618123278
  0
LINE
  5
48D
100
AcDbEntity
  8
KONSTRUKTIONSELEMENTE
100
AcDbLine
 62
7
  6
CONTINUOUS
 10
327.7818958199
 20
100.254443973
 11
338.3884975377
 21
90.0092534446
  0
LINE
  5
48E
100
AcDbEntity
  8
0
100
AcDbLine
 62
7
  6
CONTINUOUS
 10
371.7187806833
 20
58.5975668512
 11
372.0798564434
 21
58.2487944492
  0
LINE
  5
48F
100
AcDbEntity
  8
0
100
AcDbLine
 62
7
  6
CONTINUOUS
 10
372.2002150301
 20
58.391356027
 11
371.5984220966
 21
58.9726433636
  0
LINE
  5
490
100
AcDbEntity
  8
KONSTRUKTIONSELEMENTE
100
AcDbLine
 62
7
  6
CONTINUOUS
 10
338.1825003223
 20
93.1846504938
 11
328.782029606
 21
102.264807938
  0
LINE
  5
491
100
AcDbEntity
  8
KONSTRUKTIONSELEMENTE
100
AcDbLine
 62
7
  6
CONTINUOUS
 10
307.2757991655
 20
123.0382313465
 11
298.1281145672
 21
131.8742161508
  0
LINE
  5
492
100
AcDbEntity
  8
KONSTRUKTIONSELEMENTE
100
AcDbLine
 62
7
  6
CONTINUOUS
 10
313.1650509679
 20
117.4596102748
 11
323.7716526857
 21
107.2144197464
  0
LINE
  5
493
100
AcDbEntity
  8
0
100
AcDbLine
 62
7
  6
CONTINUOUS
 10
369.1340795786
 20
64.1568884763
 11
370.0969486094
 21
63.2268284121
  0
LINE
  5
494
100
AcDbEntity
  8
0
100
AcDbLine
 62
7
  6
CONTINUOUS
 10
369.2544381653
 20
64.2994500541
 11
373.9484237212
 21
59.7654081774
  0
LINE
  5
495
100
AcDbEntity
  8
0
100
AcDbLine
 62
7
  6
CONTINUOUS
 10
373.9484237212
 20
60.0242272225
 11
368.2915694717
 21
65.4883288377
  0
LINE
  5
496
100
AcDbEntity
  8
KONSTRUKTIONSELEMENTE
100
AcDbLine
 62
7
  6
CONTINUOUS
 10
284.247473665
 20
146.8200959824
 11
288.2779823178
 21
142.9269235817
  0
LINE
  5
497
100
AcDbEntity
  8
KONSTRUKTIONSELEMENTE
100
AcDbLine
 62
7
  6
CONTINUOUS
 10
288.6315357084
 20
142.5854172307
 11
292.6620443612
 21
138.6922448299
  0
LINE
  5
498
100
AcDbEntity
  8
KONSTRUKTIONSELEMENTE
100
AcDbLine
 62
7
  6
CONTINUOUS
 10
345.4122102377
 20
87.7394972688
 11
349.4427188904
 21
83.846324868
  0
LINE
  5
499
100
AcDbEntity
  8
KONSTRUKTIONSELEMENTE
100
AcDbLine
 62
7
  6
CONTINUOUS
 10
349.796272281
 20
83.504818517
 11
353.8267809338
 21
79.6116461162
  0
LINE
  5
49A
100
AcDbEntity
  8
0
100
AcDbLine
 62
7
  6
CONTINUOUS
 10
370.698741543
 20
63.5082712053
 11
371.5412516499
 21
62.6944689341
  0
LINE
  5
49B
100
AcDbEntity
  8
0
100
AcDbLine
 62
7
  6
CONTINUOUS
 10
370.9394587164
 20
63.4914387877
 11
370.698741543
 21
63.7239537223
  0
LINE
  5
49C
100
AcDbEntity
  8
0
100
AcDbLine
 62
7
  6
CONTINUOUS
 10
372.2634033387
 20
62.2557430742
 11
371.9023275786
 21
62.6045154761
  0
LINE
  5
49D
100
AcDbEntity
  8
0
100
AcDbLine
 62
7
  6
CONTINUOUS
 10
394.2017674109
 20
41.1856928102
 11
394.5869148884
 21
40.8136689148
  0
LINE
  5
49E
100
AcDbEntity
  8
0
100
AcDbLine
 62
7
  6
CONTINUOUS
 10
423.1931454396
 20
13.1821720326
 11
423.578292917
 21
12.8101481372
  0
LINE
  5
49F
100
AcDbEntity
  8
0
100
AcDbLine
 62
7
  6
CONTINUOUS
 10
423.2247395264
 20
13.2968627306
 11
423.1931454396
 21
13.327380275
  0
LINE
  5
4A0
100
AcDbEntity
  8
0
100
AcDbLine
 62
7
  6
CONTINUOUS
 10
394.2333614978
 20
41.3003835082
 11
394.2017674109
 21
41.3309010526
  0
LINE
  5
4A1
100
AcDbEntity
  8
0
100
AcDbLine
 62
7
  6
CONTINUOUS
 10
393.4314721863
 20
42.2058145179
 11
394.2017674109
 21
41.4617664665
  0
LINE
  5
4A2
100
AcDbEntity
  8
0
100
AcDbLine
 62
7
  6
CONTINUOUS
 10
394.5869148884
 20
41.0897425711
 11
396.512652478
 21
39.2296228987
  0
LINE
  5
4A3
100
AcDbEntity
  8
0
100
AcDbLine
 62
7
  6
CONTINUOUS
 10
422.4228502149
 20
14.2022937403
 11
423.1931454396
 21
13.4582456889
  0
LINE
  5
4A4
100
AcDbEntity
  8
0
100
AcDbLine
 62
7
  6
CONTINUOUS
 10
423.578292917
 20
13.0862217935
 11
425.5040305066
 21
11.2261021211
  0
LINE
  5
4A5
100
AcDbEntity
  8
0
100
AcDbLine
 62
7
  6
CONTINUOUS
 10
425.3114567005
 20
11.5846601722
 11
423.578292917
 21
13.2587678318
  0
LINE
  5
4A6
100
AcDbEntity
  8
0
100
AcDbLine
 62
7
  6
CONTINUOUS
 10
423.1931454396
 20
13.6307917272
 11
422.4228502149
 21
14.3748397786
  0
LINE
  5
4A7
100
AcDbEntity
  8
0
100
AcDbLine
 62
7
  6
CONTINUOUS
 10
396.3200786718
 20
39.5881809498
 11
394.5869148884
 21
41.2622886094
  0
LINE
  5
4A8
100
AcDbEntity
  8
0
100
AcDbLine
 62
7
  6
CONTINUOUS
 10
394.2017674109
 20
41.6343125048
 11
393.4314721863
 21
42.3783605562
  0
LINE
  5
4A9
100
AcDbEntity
  8
0
100
AcDbLine
 62
7
  6
CONTINUOUS
 10
426.274325529
 20
10.9651831576
 11
425.8891780178
 21
11.3372070855
  0
LINE
  5
4AA
100
AcDbEntity
  8
0
100
AcDbLine
 62
7
  6
CONTINUOUS
 10
397.2829475003
 20
38.9687039351
 11
396.8977999891
 21
39.3407278631
  0
LINE
  5
4AB
100
AcDbEntity
  8
RUNDUNGEN
100
AcDbLine
 62
7
  6
CONTINUOUS
 10
453.2858045703
 20
-15.1188926486
 11
446.0733154022
 21
-8.1521630893
  0
LINE
  5
4AC
100
AcDbEntity
  8
0
100
AcDbLine
 62
7
  6
CONTINUOUS
 10
423.578292917
 20
13.6383690815
 11
423.1931454396
 21
14.0103929769
  0
LINE
  5
4AD
100
AcDbEntity
  8
0
100
AcDbLine
 62
7
  6
CONTINUOUS
 10
394.5869148884
 20
41.6418898591
 11
394.2017674109
 21
42.0139137545
  0
LINE
  5
4AE
100
AcDbEntity
  8
0
100
AcDbLine
 62
7
  6
CONTINUOUS
 10
420.3285837857
 20
16.8707914928
 11
420.2639178889
 21
16.9332539526
  0
LINE
  5
4AF
100
AcDbEntity
  8
0
100
AcDbLine
 62
7
  6
CONTINUOUS
 10
419.8616428444
 20
17.3218218074
 11
419.7689431421
 21
17.411362844
  0
LINE
  5
4B0
100
AcDbEntity
  8
0
100
AcDbLine
 62
7
  6
CONTINUOUS
 10
390.9836523665
 20
45.2158186213
 11
390.9189864696
 21
45.2782810812
  0
LINE
  5
4B1
100
AcDbEntity
  8
0
100
AcDbLine
 62
7
  6
CONTINUOUS
 10
371.9023275786
 20
63.6829281229
 11
372.2634033387
 21
63.334155721
  0
LINE
  5
4B2
100
AcDbEntity
  8
0
100
AcDbLine
 62
7
  6
CONTINUOUS
 10
372.3837619254
 20
63.4335807089
 11
371.7819688233
 21
64.0148682084
  0
LINE
  5
4B3
100
AcDbEntity
  8
0
100
AcDbLine
 62
7
  6
CONTINUOUS
 10
391.2725398602
 20
45.4903779096
 11
398.3436076721
 21
38.6602508906
  0
LINE
  5
4B4
100
AcDbEntity
  8
0
100
AcDbLine
 62
7
  6
CONTINUOUS
 10
420.6174712795
 20
17.145350781
 11
427.6885390913
 21
10.3152237621
  0
LINE
  5
4B5
100
AcDbEntity
  8
0
100
AcDbLine
 62
7
  6
CONTINUOUS
 10
370.0969486094
 20
65.9875649754
 11
373.9484237212
 21
62.2673256957
  0
LINE
  5
4B6
100
AcDbEntity
  8
0
100
AcDbLine
 62
7
  6
CONTINUOUS
 10
428.0420924819
 20
10.1031269337
 11
420.1224965326
 21
17.7528691949
  0
LINE
  5
4B7
100
AcDbEntity
  8
0
100
AcDbLine
 62
7
  6
CONTINUOUS
 10
398.6971610627
 20
38.4481540622
 11
390.9189864696
 21
45.9612937831
  0
LINE
  5
4B8
100
AcDbEntity
  8
0
100
AcDbLine
 62
7
  6
CONTINUOUS
 10
373.9484237212
 20
62.483008151
 11
370.9394587164
 21
65.3894451596
  0
LINE
  5
4B9
100
AcDbEntity
  8
0
100
AcDbLine
 62
7
  6
CONTINUOUS
 10
370.4580243695
 20
65.8544750288
 11
370.0969486094
 21
66.2032474308
  0
LINE
  5
4BA
100
AcDbEntity
  8
0
100
AcDbLine
 62
7
  6
CONTINUOUS
 10
371.0598173031
 20
65.7476891927
 11
373.9484237212
 21
62.9575096514
  0
LINE
  5
4BB
100
AcDbEntity
  8
0
100
AcDbLine
 62
7
  6
CONTINUOUS
 10
373.9484237212
 20
63.1731923536
 11
371.0598173031
 21
65.9633718948
  0
LINE
  5
4BC
100
AcDbEntity
  8
0
100
AcDbLine
 62
7
  6
CONTINUOUS
 10
371.0598173031
 20
66.4378733952
 11
373.9484237212
 21
63.647693854
  0
LINE
  5
4BD
100
AcDbEntity
  8
0
100
AcDbLine
 62
7
  6
CONTINUOUS
 10
373.9484237212
 20
63.8633765561
 11
371.0598173031
 21
66.6535560973
  0
LINE
  5
4BE
100
AcDbEntity
  8
0
100
AcDbLine
 62
7
  6
CONTINUOUS
 10
370.0969486094
 20
67.9287075669
 11
373.9484237212
 21
64.2084682871
  0
LINE
  5
4BF
100
AcDbEntity
  8
0
100
AcDbLine
 62
7
  6
CONTINUOUS
 10
373.9484237212
 20
64.4241509893
 11
370.9394587164
 21
67.3305879978
  0
LINE
  5
4C0
100
AcDbEntity
  8
0
100
AcDbLine
 62
7
  6
CONTINUOUS
 10
370.4580243695
 20
67.7956178671
 11
370.0969486094
 21
68.144390269
  0
LINE
  5
4C1
100
AcDbEntity
  8
0
100
AcDbLine
 62
7
  6
CONTINUOUS
 10
371.0598173031
 20
67.6888322778
 11
373.9484237212
 21
64.8986527365
  0
LINE
  5
4C2
100
AcDbEntity
  8
KONSTRUKTIONSELEMENTE
100
AcDbLine
 62
7
  6
CONTINUOUS
 10
316.2914106257
 20
120.6962559598
 11
326.8980123435
 21
110.4510654314
  0
LINE
  5
4C3
100
AcDbEntity
  8
0
100
AcDbLine
 62
7
  6
CONTINUOUS
 10
373.9484237212
 20
65.114334945
 11
371.0598173031
 21
67.9045144862
  0
LINE
  5
4C4
100
AcDbEntity
  8
0
100
AcDbLine
 62
7
  6
CONTINUOUS
 10
371.0598173031
 20
68.3790162335
 11
373.9484237212
 21
65.5888366922
  0
LINE
  5
4C5
100
AcDbEntity
  8
0
100
AcDbLine
 62
7
  6
CONTINUOUS
 10
373.9484237212
 20
65.8045193944
 11
371.0598173031
 21
68.5946989356
  0
LINE
  5
4C6
100
AcDbEntity
  8
KONSTRUKTIONSELEMENTE
100
AcDbLine
 62
7
  6
CONTINUOUS
 10
287.7212066181
 20
150.4163689658
 11
291.7517152708
 21
146.523196565
  0
LINE
  5
4C7
100
AcDbEntity
  8
KONSTRUKTIONSELEMENTE
100
AcDbLine
 62
7
  6
CONTINUOUS
 10
292.1052686614
 20
146.1816902141
 11
296.1357773142
 21
142.2885178133
  0
LINE
  5
4C8
100
AcDbEntity
  8
KONSTRUKTIONSELEMENTE
100
AcDbLine
 62
7
  6
CONTINUOUS
 10
348.8859431907
 20
91.3357702521
 11
352.9164518435
 21
87.4425978514
  0
LINE
  5
4C9
100
AcDbEntity
  8
KONSTRUKTIONSELEMENTE
100
AcDbLine
 62
7
  6
CONTINUOUS
 10
353.2700052341
 20
87.1010915004
 11
357.3005138868
 21
83.2079190996
  0
LINE
  5
4CA
100
AcDbEntity
  8
RUNDUNGEN
100
AcDbLine
 62
7
  6
CONTINUOUS
 10
456.8213384762
 20
-11.7038291392
 11
449.6088493081
 21
-4.7370995799
  0
LINE
  5
4CB
100
AcDbEntity
  8
RUNDUNGEN
100
AcDbLine
 62
7
  6
CONTINUOUS
 10
442.2000604464
 20
5.6156561302
 11
451.7301696517
 21
-3.5897224785
  0
LINE
  5
4CC
100
AcDbEntity
  8
0
100
AcDbLine
 62
7
  6
CONTINUOUS
 10
409.5166081048
 20
20.6540120169
 11
409.1717543309
 21
20.9902195978
  0
LINE
  5
4CD
100
AcDbEntity
  8
0
100
AcDbLine
 62
7
  6
CONTINUOUS
 10
408.7149932371
 20
21.965472704
 11
409.0598469414
 21
21.6292650881
  0
LINE
  5
4CE
100
AcDbEntity
  8
0
100
AcDbLine
 62
7
  6
CONTINUOUS
 10
408.1311356791
 20
21.1921255154
 11
408.3893353617
 21
20.9379995449
  0
LINE
  5
4CF
100
AcDbEntity
  8
0
100
AcDbLine
 62
7
  6
CONTINUOUS
 10
408.5893195992
 20
21.3363639647
 11
408.3311199283
 21
21.5904899034
  0
LINE
  5
4D0
100
AcDbEntity
  8
0
100
AcDbLine
 62
7
  6
CONTINUOUS
 10
378.324514624
 20
50.5727237646
 11
378.5383932422
 21
50.360588276
  0
LINE
  5
4D1
100
AcDbEntity
  8
0
100
AcDbLine
 62
7
  6
CONTINUOUS
 10
378.6803992
 20
50.3129547192
 11
378.4665205818
 21
50.5250902078
  0
LINE
  5
4D2
100
AcDbEntity
  8
0
100
AcDbLine
 62
7
  6
CONTINUOUS
 10
408.3350964781
 20
21.0750314853
 11
408.1840490352
 21
21.2269130594
  0
LINE
  5
4D3
100
AcDbEntity
  8
0
100
AcDbLine
 62
7
  6
CONTINUOUS
 10
408.385358795
 20
21.4534579956
 11
408.5364062855
 21
21.3015763542
  0
LINE
  5
4D4
100
AcDbEntity
  8
0
100
AcDbLine
 62
7
  6
CONTINUOUS
 10
407.7604816523
 20
22.2357738192
 11
407.6094342233
 21
22.3876553911
  0
LINE
  5
4D5
100
AcDbEntity
  8
0
100
AcDbLine
 62
7
  6
CONTINUOUS
 10
378.5405357865
 20
51.835997562
 11
378.7747799236
 21
51.6001540962
  0
LINE
  5
4D6
100
AcDbEntity
  8
0
100
AcDbLine
 62
7
  6
CONTINUOUS
 10
378.6938609522
 20
51.8483007429
 11
378.4596166186
 21
52.0841444661
  0
LINE
  5
4D7
100
AcDbEntity
  8
0
100
AcDbLine
 62
7
  6
CONTINUOUS
 10
369.856231436
 20
64.3652100046
 11
370.698741543
 21
63.5082712053
  0
LINE
  5
4D8
100
AcDbEntity
  8
0
100
AcDbLine
 62
7
  6
CONTINUOUS
 10
409.1837963984
 20
20.8917613817
 11
409.3958783812
 21
20.6753613821
  0
LINE
  5
4D9
100
AcDbEntity
  8
0
100
AcDbLine
 62
7
  6
CONTINUOUS
 10
409.0478048393
 20
21.7277234063
 11
408.8357229608
 21
21.9441233389
  0
LINE
  5
4DA
100
AcDbEntity
  8
0
100
AcDbLine
 62
7
  6
CONTINUOUS
 10
378.9683712275
 20
50.5322444455
 11
378.7128567514
 21
50.7934443727
  0
LINE
  5
4DB
100
AcDbEntity
  8
0
100
AcDbLine
 62
7
  6
CONTINUOUS
 10
370.698741543
 20
63.7239537223
 11
369.9765900227
 21
64.464635116
  0
LINE
  5
4DC
100
AcDbEntity
  8
0
100
AcDbLine
 62
7
  6
CONTINUOUS
 10
378.7430935539
 20
50.6780068795
 11
378.8916688031
 21
50.5228746567
  0
LINE
  5
4DD
100
AcDbEntity
  8
0
100
AcDbLine
 62
7
  6
CONTINUOUS
 10
409.6696813049
 20
21.8767376794
 11
409.9001822183
 21
21.6360669148
  0
LINE
  5
4DE
100
AcDbEntity
  8
0
100
AcDbLine
 62
7
  6
CONTINUOUS
 10
409.8656474208
 20
21.8415073266
 11
409.6351463302
 21
22.0821783368
  0
LINE
  5
4DF
100
AcDbEntity
  8
0
100
AcDbLine
 62
7
  6
CONTINUOUS
 10
368.7098155099
 20
60.3393183659
 11
369.1912498567
 21
59.831151984
  0
LINE
  5
4E0
100
AcDbEntity
  8
0
100
AcDbLine
 62
7
  6
CONTINUOUS
 10
147.1171649072
 20
205.9912994331
 11
147.1171649072
 21
297.7542529305
  0
LINE
  5
4E1
100
AcDbEntity
  8
0
100
AcDbLine
 62
7
  6
CONTINUOUS
 10
407.8045071994
 20
21.5425560142
 11
408.1311356791
 21
21.1921255154
  0
LINE
  5
4E2
100
AcDbEntity
  8
0
100
AcDbLine
 62
7
  6
CONTINUOUS
 10
409.0381003772
 20
21.0482575402
 11
409.1837963984
 21
20.8917613817
  0
LINE
  5
4E3
100
AcDbEntity
  8
0
100
AcDbLine
 62
7
  6
CONTINUOUS
 10
409.1935010481
 20
21.5712270793
 11
409.0478048393
 21
21.7277234063
  0
LINE
  5
4E4
100
AcDbEntity
  8
0
100
AcDbLine
 62
7
  6
CONTINUOUS
 10
369.3116087806
 20
59.9737132361
 11
368.9505326833
 21
60.3656224609
  0
LINE
  5
4E5
100
AcDbEntity
  8
0
100
AcDbLine
 62
7
  6
CONTINUOUS
 10
369.9765900227
 20
64.464635116
 11
369.6155139254
 21
64.85654431
  0
LINE
  5
4E6
100
AcDbEntity
  8
0
100
AcDbLine
 62
7
  6
CONTINUOUS
 10
371.9023275786
 20
62.6045154761
 11
371.5412516499
 21
62.9964245073
  0
LINE
  5
4E7
100
AcDbEntity
  8
0
100
AcDbLine
 62
7
  6
CONTINUOUS
 10
372.2634033387
 20
63.334155721
 11
372.6244790988
 21
62.9422467292
  0
LINE
  5
4E8
100
AcDbEntity
  8
0
100
AcDbLine
 62
7
  6
CONTINUOUS
 10
377.0980049621
 20
51.0009984755
 11
377.3689749759
 21
50.702630203
  0
LINE
  5
4E9
100
AcDbEntity
  8
0
100
AcDbLine
 62
7
  6
CONTINUOUS
 10
376.6319080969
 20
51.9556751334
 11
377.4899797335
 21
51.0108423519
  0
LINE
  5
4EA
100
AcDbEntity
  8
0
100
AcDbLine
 62
7
  6
CONTINUOUS
 10
377.7609497473
 20
50.7124740795
 11
378.3932130285
 21
50.0162815367
  0
LINE
  5
4EB
100
AcDbEntity
  8
0
100
AcDbLine
 62
7
  6
CONTINUOUS
 10
378.4912067213
 20
50.0187425058
 11
377.8589434401
 21
50.7149350486
  0
LINE
  5
4EC
100
AcDbEntity
  8
0
100
AcDbLine
 62
7
  6
CONTINUOUS
 10
377.5879734263
 20
51.0133033211
 11
376.3686085223
 21
52.355960373
  0
LINE
  5
4ED
100
AcDbEntity
  8
0
100
AcDbLine
 62
7
  6
CONTINUOUS
 10
378.022266246
 20
50.7190366634
 11
377.7512962322
 21
51.0174049359
  0
LINE
  5
4EE
100
AcDbEntity
  8
0
100
AcDbLine
 62
7
  6
CONTINUOUS
 10
369.2544381653
 20
65.0327706613
 11
369.856231436
 21
64.3652100046
  0
LINE
  5
4EF
100
AcDbEntity
  8
0
100
AcDbLine
 62
7
  6
CONTINUOUS
 10
372.9855549432
 20
62.7660203582
 11
372.3837619254
 21
63.4335807089
  0
LINE
  5
4F0
100
AcDbEntity
  8
0
100
AcDbLine
 62
7
  6
CONTINUOUS
 10
408.8130941367
 20
21.3013461508
 11
409.0381003772
 21
21.0482575402
  0
LINE
  5
4F1
100
AcDbEntity
  8
0
100
AcDbLine
 62
7
  6
CONTINUOUS
 10
409.4185071566
 20
21.3181385695
 11
409.1935010481
 21
21.5712270793
  0
LINE
  5
4F2
100
AcDbEntity
  8
0
100
AcDbLine
 62
7
  6
CONTINUOUS
 10
407.4972405016
 20
21.8900165094
 11
407.8045071994
 21
21.5425560142
  0
LINE
  5
4F3
100
AcDbEntity
  8
0
100
AcDbLine
 62
7
  6
CONTINUOUS
 10
407.6818395836
 20
21.7758924128
 11
407.5940490985
 21
21.87516684
  0
LINE
  5
4F4
100
AcDbEntity
  8
0
100
AcDbLine
 62
7
  6
CONTINUOUS
 10
408.1840490352
 20
21.2269130594
 11
408.0523633076
 21
21.3758247001
  0
LINE
  5
4F5
100
AcDbEntity
  8
0
100
AcDbLine
 62
7
  6
CONTINUOUS
 10
408.5364062855
 20
21.3015763542
 11
408.6680920131
 21
21.1526647134
  0
LINE
  5
4F6
100
AcDbEntity
  8
0
100
AcDbLine
 62
7
  6
CONTINUOUS
 10
408.8087958734
 20
21.0881778272
 11
408.5893195992
 21
21.3363639647
  0
LINE
  5
4F7
100
AcDbEntity
  8
0
100
AcDbLine
 62
7
  6
CONTINUOUS
 10
409.1717543309
 20
20.9902195978
 11
408.9070930849
 21
21.2916043674
  0
LINE
  5
4F8
100
AcDbEntity
  8
0
100
AcDbLine
 62
7
  6
CONTINUOUS
 10
409.0598469414
 20
21.6292650881
 11
409.3245082848
 21
21.3278803197
  0
LINE
  5
4F9
100
AcDbEntity
  8
0
100
AcDbLine
 62
7
  6
CONTINUOUS
 10
372.6816494612
 20
57.8400531436
 11
372.2002150301
 21
58.391356027
  0
LINE
  5
4FA
100
AcDbEntity
  8
0
100
AcDbLine
 62
7
  6
CONTINUOUS
 10
371.0598173031
 20
65.9633718948
 11
370.8191001297
 21
66.2390231724
  0
LINE
  5
4FB
100
AcDbEntity
  8
0
100
AcDbLine
 62
7
  6
CONTINUOUS
 10
371.0598173031
 20
67.9045144862
 11
370.8191001297
 21
68.1801662575
  0
LINE
  5
4FC
100
AcDbEntity
  8
0
100
AcDbLine
 62
7
  6
CONTINUOUS
 10
376.8672604435
 20
52.2899781208
 11
377.9497921071
 21
51.0143034719
  0
LINE
  5
4FD
100
AcDbEntity
  8
0
100
AcDbLine
 62
7
  6
CONTINUOUS
 10
377.8599512165
 20
51.2199308778
 11
377.1937778402
 21
52.0049614839
  0
LINE
  5
4FE
100
AcDbEntity
  8
0
100
AcDbLine
 62
7
  6
CONTINUOUS
 10
378.8916688031
 20
50.5228746567
 11
378.9749404606
 21
50.4247458481
  0
LINE
  5
4FF
100
AcDbEntity
  8
0
100
AcDbLine
 62
7
  6
CONTINUOUS
 10
377.8801400602
 20
51.7747325959
 11
377.6719609166
 21
52.0200546174
  0
LINE
  5
500
100
AcDbEntity
  8
0
100
AcDbLine
 62
7
  6
CONTINUOUS
 10
379.1349145424
 20
50.3359868283
 11
378.9683712275
 21
50.5322444455
  0
LINE
  5
501
100
AcDbEntity
  8
0
100
AcDbLine
 62
7
  6
CONTINUOUS
 10
407.2093355242
 20
22.2345070705
 11
407.4972405016
 21
21.8900165094
  0
LINE
  5
502
100
AcDbEntity
  8
0
100
AcDbLine
 62
7
  6
CONTINUOUS
 10
372.0798564434
 20
58.2487944492
 11
372.4409322035
 21
57.8137491145
  0
LINE
  5
503
100
AcDbEntity
  8
0
100
AcDbLine
 62
7
  6
CONTINUOUS
 10
369.6155139254
 20
64.85654431
 11
369.2544381653
 21
65.2915897681
  0
LINE
  5
504
100
AcDbEntity
  8
0
100
AcDbLine
 62
7
  6
CONTINUOUS
 10
372.6244790988
 20
62.9422467292
 11
372.9855549432
 21
62.5072013131
  0
LINE
  5
505
100
AcDbEntity
  8
0
100
AcDbLine
 62
7
  6
CONTINUOUS
 10
407.5940490985
 20
21.87516684
 11
407.3500393654
 21
22.1700201872
  0
LINE
  5
506
100
AcDbEntity
  8
0
100
AcDbLine
 62
7
  6
CONTINUOUS
 10
408.4561983995
 20
21.7360118808
 11
408.8130941367
 21
21.3013461508
  0
LINE
  5
507
100
AcDbEntity
  8
0
100
AcDbLine
 62
7
  6
CONTINUOUS
 10
408.9070930849
 20
21.2916043674
 11
408.6295075116
 21
21.629677713
  0
LINE
  5
508
100
AcDbEntity
  8
0
100
AcDbLine
 62
7
  6
CONTINUOUS
 10
409.3245082848
 20
21.3278803197
 11
409.6020938582
 21
20.9898069741
  0
LINE
  5
509
100
AcDbEntity
  8
0
100
AcDbLine
 62
7
  6
CONTINUOUS
 10
409.7754028938
 20
20.8834728395
 11
409.4185071566
 21
21.3181385695
  0
LINE
  5
50A
100
AcDbEntity
  8
RUNDUNGEN
100
AcDbLine
 62
7
  6
CONTINUOUS
 10
435.4198882391
 20
-22.5021482015
 11
411.708274632
 21
6.4786500611
  0
LINE
  5
50B
100
AcDbEntity
  8
RUNDUNGEN
100
AcDbLine
 62
7
  6
CONTINUOUS
 10
349.1947730724
 20
82.8838752562
 11
348.5376431597
 21
83.6870322977
  0
LINE
  5
50C
100
AcDbEntity
  8
RUNDUNGEN
100
AcDbLine
 62
7
  6
CONTINUOUS
 10
438.955422145
 20
-19.0870846921
 11
415.2438085379
 21
9.8937135706
  0
LINE
  5
50D
100
AcDbEntity
  8
RUNDUNGEN
100
AcDbLine
 62
7
  6
CONTINUOUS
 10
363.8917115853
 20
78.6604861443
 11
359.4895790487
 21
84.0408586943
  0
LINE
  5
50E
100
AcDbEntity
  8
RUNDUNGEN
100
AcDbLine
 62
7
  6
CONTINUOUS
 10
356.9425387564
 20
91.2613774669
 11
360.9971345138
 21
86.3057711708
  0
LINE
  5
50F
100
AcDbEntity
  8
RUNDUNGEN
100
AcDbLine
 62
7
  6
CONTINUOUS
 10
372.9292305998
 20
71.7221297853
 11
394.9648191543
 21
44.789802147
  0
LINE
  5
510
100
AcDbEntity
  8
RUNDUNGEN
100
AcDbLine
 62
7
  6
CONTINUOUS
 10
433.1013953167
 20
-1.8214676934
 11
441.5397791105
 21
-12.1350255323
  0
LINE
  5
511
100
AcDbEntity
  8
0
100
AcDbLine
 62
7
  6
CONTINUOUS
 10
368.7730038185
 20
65.6272101148
 11
369.2544381653
 21
65.0327706613
  0
LINE
  5
512
100
AcDbEntity
  8
0
100
AcDbLine
 62
7
  6
CONTINUOUS
 10
373.4669893322
 20
62.1715809257
 11
372.9855549432
 21
62.7660203582
  0
LINE
  5
513
100
AcDbEntity
  8
0
100
AcDbLine
 62
7
  6
CONTINUOUS
 10
368.2915694717
 20
65.2295097926
 11
369.1340795786
 21
64.1568884763
  0
LINE
  5
514
100
AcDbEntity
  8
0
100
AcDbLine
 62
7
  6
CONTINUOUS
 10
370.0969486094
 20
63.2268284121
 11
369.2544381653
 21
64.2994500541
  0
LINE
  5
515
100
AcDbEntity
  8
RUNDUNGEN
100
AcDbLine
 62
7
  6
CONTINUOUS
 10
347.7592316586
 20
57.8462198569
 11
342.3852994719
 21
65.8462007308
  0
LINE
  5
516
100
AcDbEntity
  8
KONSTRUKTIONSELEMENTE
100
AcDbLine
 62
7
  6
CONTINUOUS
 10
221.6645394901
 20
201.1297418806
 11
227.6334006776
 21
187.3112057398
  0
LINE
  5
517
100
AcDbEntity
  8
0
100
AcDbLine
 62
7
  6
CONTINUOUS
 10
221.6977369825
 20
201.0528862238
 11
221.6645394901
 21
201.1297418806
  0
LINE
  5
518
100
AcDbEntity
  8
0
100
AcDbLine
 62
7
  6
CONTINUOUS
 10
179.1171649072
 20
205.9912994331
 11
179.1171649072
 21
297.7542529305
  0
LINE
  5
519
100
AcDbEntity
  8
0
100
AcDbLine
 62
7
  6
CONTINUOUS
 10
407.3500393654
 20
22.1700201872
 11
407.2377152301
 21
22.3159620338
  0
LINE
  5
51A
100
AcDbEntity
  8
0
100
AcDbLine
 62
7
  6
CONTINUOUS
 10
408.0523633076
 20
21.3758247001
 11
407.9400392337
 21
21.5217664772
  0
LINE
  5
51B
100
AcDbEntity
  8
0
100
AcDbLine
 62
7
  6
CONTINUOUS
 10
408.6680920131
 20
21.1526647134
 11
408.7804160394
 21
21.0067230037
  0
LINE
  5
51C
100
AcDbEntity
  8
0
100
AcDbLine
 62
7
  6
CONTINUOUS
 10
378.4031838277
 20
52.0159561496
 11
378.5405357865
 21
51.835997562
  0
LINE
  5
51D
100
AcDbEntity
  8
0
100
AcDbLine
 62
7
  6
CONTINUOUS
 10
378.8312129109
 20
51.6683421553
 11
378.6938609522
 21
51.8483007429
  0
LINE
  5
51E
100
AcDbEntity
  8
0
100
AcDbLine
 62
7
  6
CONTINUOUS
 10
408.6295075116
 20
21.629677713
 11
408.4183077191
 21
21.9078473177
  0
LINE
  5
51F
100
AcDbEntity
  8
0
100
AcDbLine
 62
7
  6
CONTINUOUS
 10
409.6020938582
 20
20.9898069741
 11
409.8132935533
 21
20.7116373682
  0
LINE
  5
520
100
AcDbEntity
  8
0
100
AcDbLine
 62
7
  6
CONTINUOUS
 10
368.2283811631
 20
60.9768942703
 11
368.7098155099
 21
60.3393183659
  0
LINE
  5
521
100
AcDbEntity
  8
0
100
AcDbLine
 62
7
  6
CONTINUOUS
 10
373.1630838502
 20
57.2024771213
 11
372.6816494612
 21
57.8400531436
  0
LINE
  5
522
100
AcDbEntity
  8
0
100
AcDbLine
 62
7
  6
CONTINUOUS
 10
371.5412516499
 20
62.9964245073
 11
371.3005344765
 21
63.3152124981
  0
LINE
  5
523
100
AcDbEntity
  8
0
100
AcDbLine
 62
7
  6
CONTINUOUS
 10
370.2173071961
 20
66.1732628962
 11
370.4580243695
 21
65.8544750288
  0
LINE
  5
524
100
AcDbEntity
  8
0
100
AcDbLine
 62
7
  6
CONTINUOUS
 10
370.4508475029
 20
65.9169834083
 11
370.3451881524
 21
66.0569108785
  0
LINE
  5
525
100
AcDbEntity
  8
0
100
AcDbLine
 62
7
  6
CONTINUOUS
 10
370.9394587164
 20
65.3894451596
 11
370.698741543
 21
65.7082330269
  0
LINE
  5
526
100
AcDbEntity
  8
0
100
AcDbLine
 62
7
  6
CONTINUOUS
 10
370.2173071961
 20
66.8634470988
 11
370.5783829562
 21
66.3852651743
  0
LINE
  5
527
100
AcDbEntity
  8
0
100
AcDbLine
 62
7
  6
CONTINUOUS
 10
370.8191001297
 20
66.2390231724
 11
370.698741543
 21
66.3984172295
  0
LINE
  5
528
100
AcDbEntity
  8
0
100
AcDbLine
 62
7
  6
CONTINUOUS
 10
370.2173071961
 20
68.1144059813
 11
370.4580243695
 21
67.7956178671
  0
LINE
  5
529
100
AcDbEntity
  8
0
100
AcDbLine
 62
7
  6
CONTINUOUS
 10
370.4508477053
 20
67.8581261952
 11
370.3451881524
 21
67.9980537168
  0
LINE
  5
52A
100
AcDbEntity
  8
0
100
AcDbLine
 62
7
  6
CONTINUOUS
 10
370.9394587164
 20
67.3305879978
 11
370.698741543
 21
67.649376112
  0
LINE
  5
52B
100
AcDbEntity
  8
0
100
AcDbLine
 62
7
  6
CONTINUOUS
 10
370.2173071961
 20
68.804589937
 11
370.5783829562
 21
68.3264080125
  0
LINE
  5
52C
100
AcDbEntity
  8
0
100
AcDbLine
 62
7
  6
CONTINUOUS
 10
370.8191001297
 20
68.1801662575
 11
370.698741543
 21
68.3395600678
  0
LINE
  5
52D
100
AcDbEntity
  8
0
100
AcDbLine
 62
7
  6
CONTINUOUS
 10
407.0285826276
 20
22.4767534097
 11
407.2093355242
 21
22.2345070705
  0
LINE
  5
52E
100
AcDbEntity
  8
0
100
AcDbLine
 62
7
  6
CONTINUOUS
 10
408.9895486587
 20
20.8459315952
 11
408.8087958734
 21
21.0881778272
  0
LINE
  5
52F
100
AcDbEntity
  8
0
100
AcDbLine
 62
7
  6
CONTINUOUS
 10
408.2846537654
 20
21.9658852601
 11
408.4561983995
 21
21.7360118808
  0
LINE
  5
530
100
AcDbEntity
  8
0
100
AcDbLine
 62
7
  6
CONTINUOUS
 10
409.9469476599
 20
20.6535993594
 11
409.7754028938
 21
20.8834728395
  0
LINE
  5
531
100
AcDbEntity
  8
0
100
AcDbLine
 62
7
  6
CONTINUOUS
 10
377.4839576271
 20
54.0209732621
 11
382.0282601108
 21
47.9124298958
  0
LINE
  5
532
100
AcDbEntity
  8
0
100
AcDbLine
 62
7
  6
CONTINUOUS
 10
382.274105835
 20
47.5819590979
 11
390.1411690103
 21
37.0068935638
  0
LINE
  5
533
100
AcDbEntity
  8
0
100
AcDbLine
 62
7
  6
CONTINUOUS
 10
390.9189864696
 20
36.3396300052
 11
378.4839576271
 21
53.0550474358
  0
LINE
  5
534
100
AcDbEntity
  8
0
100
AcDbLine
 62
7
  6
CONTINUOUS
 10
378.9749404606
 20
50.4247458481
 11
379.076180242
 21
50.2854915765
  0
LINE
  5
535
100
AcDbEntity
  8
0
100
AcDbLine
 62
7
  6
CONTINUOUS
 10
409.5457970159
 20
22.0484333489
 11
409.6696813049
 21
21.8767376794
  0
LINE
  5
536
100
AcDbEntity
  8
0
100
AcDbLine
 62
7
  6
CONTINUOUS
 10
409.9895317098
 20
21.6698116571
 11
409.8656474208
 21
21.8415073266
  0
LINE
  5
537
100
AcDbEntity
  8
0
100
AcDbLine
 62
7
  6
CONTINUOUS
 10
379.2957584411
 20
50.1065426096
 11
379.1349145424
 21
50.3359868283
  0
LINE
  5
538
100
AcDbEntity
  8
0
100
AcDbLine
 62
7
  6
CONTINUOUS
 10
408.192419184
 20
22.0991663902
 11
408.2846537654
 21
21.9658852601
  0
LINE
  5
539
100
AcDbEntity
  8
0
100
AcDbLine
 62
7
  6
CONTINUOUS
 10
410.0391820537
 20
20.5203183977
 11
409.9469476599
 21
20.6535993594
  0
LINE
  5
53A
100
AcDbEntity
  8
RUNDUNGEN
100
AcDbLine
 62
7
  6
CONTINUOUS
 10
351.2947655645
 20
61.2612833663
 11
345.9208333778
 21
69.2612642403
  0
LINE
  5
53B
100
AcDbEntity
  8
RUNDUNGEN
100
AcDbLine
 62
7
  6
CONTINUOUS
 10
352.6793133327
 20
65.2551293399
 11
348.2176111137
 21
71.8971060483
  0
LINE
  5
53C
100
AcDbEntity
  8
RUNDUNGEN
100
AcDbLine
 62
7
  6
CONTINUOUS
 10
351.7531450197
 20
75.3121695578
 11
360.5745054015
 21
62.1801254817
  0
LINE
  5
53D
100
AcDbEntity
  8
0
100
AcDbLine
 62
7
  6
CONTINUOUS
 10
368.9505326833
 20
60.3656224609
 11
368.7098155099
 21
60.727546949
  0
LINE
  5
53E
100
AcDbEntity
  8
0
100
AcDbLine
 62
7
  6
CONTINUOUS
 10
372.4409322035
 20
57.8137491145
 11
372.6816494612
 21
57.4518245759
  0
LINE
  5
53F
100
AcDbEntity
  8
0
100
AcDbLine
 62
7
  6
CONTINUOUS
 10
369.2544381653
 20
65.2915897681
 11
369.0137209919
 21
65.6535142253
  0
LINE
  5
540
100
AcDbEntity
  8
0
100
AcDbLine
 62
7
  6
CONTINUOUS
 10
370.4580243695
 20
64.215287702
 11
370.8907425626
 21
63.5646847769
  0
LINE
  5
541
100
AcDbEntity
  8
0
100
AcDbLine
 62
7
  6
CONTINUOUS
 10
371.3005344765
 20
63.3152124981
 11
371.0598173031
 21
63.6771369553
  0
LINE
  5
542
100
AcDbEntity
  8
0
100
AcDbLine
 62
7
  6
CONTINUOUS
 10
372.9855549432
 20
62.5072013131
 11
373.2262721166
 21
62.1452768559
  0
LINE
  5
543
100
AcDbEntity
  8
0
100
AcDbLine
 62
7
  6
CONTINUOUS
 10
368.4119280584
 20
66.1916649721
 11
368.7730038185
 21
65.6272101148
  0
LINE
  5
544
100
AcDbEntity
  8
0
100
AcDbLine
 62
7
  6
CONTINUOUS
 10
373.4745117333
 20
61.2656195635
 11
373.2943911028
 21
61.5471947753
  0
LINE
  5
545
100
AcDbEntity
  8
0
100
AcDbLine
 62
7
  6
CONTINUOUS
 10
373.8280651239
 20
61.6071259145
 11
373.4669893322
 21
62.1715809257
  0
LINE
  5
546
100
AcDbEntity
  8
0
100
AcDbLine
 62
7
  6
CONTINUOUS
 10
212.6164149072
 20
105.9283722364
 11
210.6151234794
 21
127.4535012272
  0
LINE
  5
547
100
AcDbEntity
  8
0
100
AcDbLine
 62
7
  6
CONTINUOUS
 10
212.6164149072
 20
117.7767060382
 11
211.1808119471
 21
133.2175051475
  0
LINE
  5
548
100
AcDbEntity
  8
0
100
AcDbLine
 62
7
  6
CONTINUOUS
 10
193.1171649072
 20
66.1466163891
 11
193.1171649072
 21
82.7169223331
  0
LINE
  5
549
100
AcDbEntity
  8
0
100
AcDbLine
 62
7
  6
CONTINUOUS
 10
193.1171649072
 20
82.7419602835
 11
193.1171649072
 21
106.6768047763
  0
LINE
  5
54A
100
AcDbEntity
  8
0
100
AcDbLine
 62
7
  6
CONTINUOUS
 10
196.6171649072
 20
309.7171997025
 11
196.6171649072
 21
809.7171997025
  0
LINE
  5
54B
100
AcDbEntity
  8
0
100
AcDbLine
 62
7
  6
CONTINUOUS
 10
198.6171649072
 20
127.3652630448
 11
198.6171649072
 21
114.4122684074
  0
LINE
  5
54C
100
AcDbEntity
  8
0
100
AcDbLine
 62
7
  6
CONTINUOUS
 10
204.6171649072
 20
149.3842373838
 11
204.6171649072
 21
134.7119768349
  0
LINE
  5
54D
100
AcDbEntity
  8
BEZUGSACHSEN
100
AcDbLine
 62
7
  6
CONTINUOUS
 10
204.6171649072
 20
149.3845454111
 11
204.6171649072
 21
182.3943042326
  0
LINE
  5
54E
100
AcDbEntity
  8
0
100
AcDbLine
 62
7
  6
CONTINUOUS
 10
212.6164149072
 20
117.7767060382
 11
212.6164149072
 21
105.9283722364
  0
LINE
  5
54F
100
AcDbEntity
  8
0
100
AcDbLine
 62
7
  6
CONTINUOUS
 10
407.2377152301
 20
22.3159620338
 11
407.1447529468
 21
22.458933806
  0
LINE
  5
550
100
AcDbEntity
  8
0
100
AcDbLine
 62
7
  6
CONTINUOUS
 10
408.7804160394
 20
21.0067230037
 11
408.8733783396
 21
20.8637511989
  0
LINE
  5
551
100
AcDbEntity
  8
0
100
AcDbLine
 62
7
  6
CONTINUOUS
 10
406.911086817
 20
22.6663924623
 11
407.0285826276
 21
22.4767534097
  0
LINE
  5
552
100
AcDbEntity
  8
0
100
AcDbLine
 62
7
  6
CONTINUOUS
 10
409.1070444847
 20
20.6562925252
 11
408.9895486587
 21
20.8459315952
  0
LINE
  5
553
100
AcDbEntity
  8
0
100
AcDbLine
 62
7
  6
CONTINUOUS
 10
408.0872604837
 20
22.2691359623
 11
408.192419184
 21
22.0991663902
  0
LINE
  5
554
100
AcDbEntity
  8
0
100
AcDbLine
 62
7
  6
CONTINUOUS
 10
410.1443408582
 20
20.3503487587
 11
410.0391820537
 21
20.5203183977
  0
LINE
  5
555
100
AcDbEntity
  8
0
100
AcDbLine
 62
7
  6
CONTINUOUS
 10
412.3657790138
 20
20.3277211166
 11
414.3111004886
 21
17.1533915818
  0
LINE
  5
556
100
AcDbEntity
  8
0
100
AcDbLine
 62
7
  6
CONTINUOUS
 10
414.4473527125
 20
16.9310584281
 11
419.5568111077
 21
8.5935651651
  0
LINE
  5
557
100
AcDbEntity
  8
0
100
AcDbLine
 62
7
  6
CONTINUOUS
 10
420.2639178889
 20
7.9833897163
 11
413.1822755948
 21
19.539045982
  0
LINE
  5
558
100
AcDbEntity
  8
0
100
AcDbLine
 62
7
  6
CONTINUOUS
 10
376.2706148295
 20
52.3534994038
 11
377.0980049621
 21
51.0009984755
  0
LINE
  5
559
100
AcDbEntity
  8
0
100
AcDbLine
 62
7
  6
CONTINUOUS
 10
377.2123309332
 20
51.003869606
 11
376.6319080969
 21
51.9556751334
  0
LINE
  5
55A
100
AcDbEntity
  8
0
100
AcDbLine
 62
7
  6
CONTINUOUS
 10
367.9876639897
 20
61.3819552248
 11
368.2283811631
 21
60.9768942703
  0
LINE
  5
55B
100
AcDbEntity
  8
0
100
AcDbLine
 62
7
  6
CONTINUOUS
 10
373.0502476646
 20
56.4559098162
 11
372.8095304596
 21
56.8609707703
  0
LINE
  5
55C
100
AcDbEntity
  8
0
100
AcDbLine
 62
7
  6
CONTINUOUS
 10
373.4038010552
 20
56.7974161672
 11
373.1630838502
 21
57.2024771213
  0
LINE
  5
55D
100
AcDbEntity
  8
0
100
AcDbLine
 62
7
  6
CONTINUOUS
 10
370.3451881524
 20
66.0569108785
 11
370.3108550492
 21
66.1146840488
  0
LINE
  5
55E
100
AcDbEntity
  8
0
100
AcDbLine
 62
7
  6
CONTINUOUS
 10
370.698741543
 20
66.3984172295
 11
370.5783829562
 21
66.6009476296
  0
LINE
  5
55F
100
AcDbEntity
  8
0
100
AcDbLine
 62
7
  6
CONTINUOUS
 10
370.3451881524
 20
67.9980537168
 11
370.3108552566
 21
68.0558266085
  0
LINE
  5
560
100
AcDbEntity
  8
0
100
AcDbLine
 62
7
  6
CONTINUOUS
 10
370.698741543
 20
68.3395600678
 11
370.5783829562
 21
68.5420907147
  0
LINE
  5
561
100
AcDbEntity
  8
0
100
AcDbLine
 62
7
  6
CONTINUOUS
 10
379.076180242
 20
50.2854915765
 11
379.1537524832
 21
50.1541761664
  0
LINE
  5
562
100
AcDbEntity
  8
0
100
AcDbLine
 62
7
  6
CONTINUOUS
 10
379.3912987916
 20
49.9341017537
 11
379.2957584411
 21
50.1065426096
  0
LINE
  5
563
100
AcDbEntity
  8
KONSTRUKTIONSELEMENTE
100
AcDbLine
 62
7
  6
CONTINUOUS
 10
288.6337851828
 20
142.5852713888
 11
288.6006352319
 21
142.6760219677
  0
LINE
  5
564
100
AcDbEntity
  8
KONSTRUKTIONSELEMENTE
100
AcDbLine
 62
7
  6
CONTINUOUS
 10
291.7494657965
 20
146.5233424069
 11
291.7826157473
 21
146.4325918281
  0
LINE
  5
565
100
AcDbEntity
  8
KONSTRUKTIONSELEMENTE
100
AcDbLine
 62
7
  6
CONTINUOUS
 10
292.1030191871
 20
146.181836056
 11
292.1361691379
 21
146.0910854771
  0
LINE
  5
566
100
AcDbEntity
  8
0
100
AcDbLine
 62
7
  6
CONTINUOUS
 10
221.6660661718
 20
150.3566031342
 11
222.0535178672
 21
133.2175051475
  0
LINE
  5
567
100
AcDbEntity
  8
0
100
AcDbLine
 62
7
  6
CONTINUOUS
 10
220.6179149072
 20
117.7767060382
 11
220.6179149072
 21
105.9283722364
  0
LINE
  5
568
100
AcDbEntity
  8
RUNDUNGEN
100
AcDbLine
 62
7
  6
CONTINUOUS
 10
228.6171649072
 20
149.3842373838
 11
228.6171649072
 21
134.7119768349
  0
LINE
  5
569
100
AcDbEntity
  8
BEZUGSACHSEN
100
AcDbLine
 62
7
  6
CONTINUOUS
 10
228.6171649072
 20
149.3845454111
 11
228.6171649072
 21
182.3943042326
  0
LINE
  5
56A
100
AcDbEntity
  8
RUNDUNGEN
100
AcDbLine
 62
7
  6
CONTINUOUS
 10
234.6171649072
 20
127.3652630448
 11
234.6171649072
 21
114.4122684074
  0
LINE
  5
56B
100
AcDbEntity
  8
0
100
AcDbLine
 62
7
  6
CONTINUOUS
 10
236.6171649072
 20
309.7171997025
 11
236.6171649072
 21
809.7171997025
  0
LINE
  5
56C
100
AcDbEntity
  8
RUNDUNGEN
100
AcDbLine
 62
7
  6
CONTINUOUS
 10
240.1171649072
 20
66.1466163891
 11
240.1171649072
 21
69.2215199226
  0
LINE
  5
56D
100
AcDbEntity
  8
KONSTRUKTIONSELEMENTE
100
AcDbLine
 62
7
  6
CONTINUOUS
 10
240.1171649072
 20
66.1466163891
 11
240.1171649072
 21
82.7169223331
  0
LINE
  5
56E
100
AcDbEntity
  8
KONSTRUKTIONSELEMENTE
100
AcDbLine
 62
7
  6
CONTINUOUS
 10
240.1171649072
 20
82.7419602835
 11
240.1171649072
 21
85.8168638169
  0
LINE
  5
56F
100
AcDbEntity
  8
RUNDUNGEN
100
AcDbLine
 62
7
  6
CONTINUOUS
 10
240.1171649072
 20
82.7419602835
 11
240.1171649072
 21
106.6768047763
  0
LINE
  5
570
100
AcDbEntity
  8
0
100
AcDbLine
 62
7
  6
CONTINUOUS
 10
211.5682636426
 20
150.3566031342
 11
211.1808119471
 21
133.2175051475
  0
LINE
  5
571
100
AcDbEntity
  8
0
100
AcDbLine
 62
7
  6
CONTINUOUS
 10
408.4183077191
 20
21.9078473177
 11
408.2873003712
 21
22.1511942126
  0
LINE
  5
572
100
AcDbEntity
  8
0
100
AcDbLine
 62
7
  6
CONTINUOUS
 10
409.8132935533
 20
20.7116373682
 11
409.9443009707
 21
20.4682905083
  0
LINE
  5
573
100
AcDbEntity
  8
0
100
AcDbLine
 62
7
  6
CONTINUOUS
 10
407.9400392337
 20
21.5217664772
 11
407.890972193
 21
21.6151010358
  0
LINE
  5
574
100
AcDbEntity
  8
0
100
AcDbLine
 62
7
  6
CONTINUOUS
 10
368.7098155099
 20
60.727546949
 11
368.5894569232
 21
60.9732139388
  0
LINE
  5
575
100
AcDbEntity
  8
0
100
AcDbLine
 62
7
  6
CONTINUOUS
 10
369.0137209919
 20
65.6535142253
 11
368.8933624052
 21
65.8991812151
  0
LINE
  5
576
100
AcDbEntity
  8
0
100
AcDbLine
 62
7
  6
CONTINUOUS
 10
371.0598173031
 20
63.6771369553
 11
370.9394587164
 21
63.9228039451
  0
LINE
  5
577
100
AcDbEntity
  8
0
100
AcDbLine
 62
7
  6
CONTINUOUS
 10
370.0969486094
 20
66.4189298861
 11
370.2173071961
 21
66.1732628962
  0
LINE
  5
578
100
AcDbEntity
  8
0
100
AcDbLine
 62
7
  6
CONTINUOUS
 10
370.698741543
 20
65.7082330269
 11
370.5783829562
 21
65.9539000168
  0
LINE
  5
579
100
AcDbEntity
  8
0
100
AcDbLine
 62
7
  6
CONTINUOUS
 10
370.0969486094
 20
67.1091140886
 11
370.2173071961
 21
66.8634470988
  0
LINE
  5
57A
100
AcDbEntity
  8
0
100
AcDbLine
 62
7
  6
CONTINUOUS
 10
370.0969486094
 20
68.3600729712
 11
370.2173071961
 21
68.1144059813
  0
LINE
  5
57B
100
AcDbEntity
  8
0
100
AcDbLine
 62
7
  6
CONTINUOUS
 10
373.2262721166
 20
62.1452768559
 11
373.3466307033
 21
61.899609866
  0
LINE
  5
57C
100
AcDbEntity
  8
0
100
AcDbLine
 62
7
  6
CONTINUOUS
 10
370.698741543
 20
67.649376112
 11
370.5783829562
 21
67.8950431019
  0
LINE
  5
57D
100
AcDbEntity
  8
0
100
AcDbLine
 62
7
  6
CONTINUOUS
 10
370.0969486094
 20
69.0502569269
 11
370.2173071961
 21
68.804589937
  0
LINE
  5
57E
100
AcDbEntity
  8
0
100
AcDbLine
 62
7
  6
CONTINUOUS
 10
367.867305403
 20
61.6707587427
 11
367.9876639897
 21
61.3819552248
  0
LINE
  5
57F
100
AcDbEntity
  8
0
100
AcDbLine
 62
7
  6
CONTINUOUS
 10
372.6816494612
 20
57.4518245759
 11
372.8020080479
 21
57.163021058
  0
LINE
  5
580
100
AcDbEntity
  8
KONSTRUKTIONSELEMENTE
100
AcDbLine
 62
7
  6
CONTINUOUS
 10
349.7985217554
 20
83.5046726751
 11
349.7653718046
 21
83.595423254
  0
LINE
  5
581
100
AcDbEntity
  8
KONSTRUKTIONSELEMENTE
100
AcDbLine
 62
7
  6
CONTINUOUS
 10
352.9142023691
 20
87.4427436932
 11
352.9473523199
 21
87.3519931144
  0
LINE
  5
582
100
AcDbEntity
  8
KONSTRUKTIONSELEMENTE
100
AcDbLine
 62
7
  6
CONTINUOUS
 10
353.2677557597
 20
87.1012373423
 11
353.3009057105
 21
87.0104867635
  0
LINE
  5
583
100
AcDbEntity
  8
0
100
AcDbLine
 62
7
  6
CONTINUOUS
 10
254.1171649072
 20
297.7542529305
 11
254.1171649072
 21
205.9912994331
  0
LINE
  5
584
100
AcDbEntity
  8
0
100
AcDbLine
 62
7
  6
CONTINUOUS
 10
220.6179149072
 20
117.7767060382
 11
222.0535178672
 21
133.2175051475
  0
LINE
  5
585
100
AcDbEntity
  8
RUNDUNGEN
100
AcDbLine
 62
7
  6
CONTINUOUS
 10
220.6179149072
 20
105.9283722364
 11
222.6192063349
 21
127.4535012272
  0
LINE
  5
586
100
AcDbEntity
  8
0
100
AcDbLine
 62
7
  6
CONTINUOUS
 10
368.2915694717
 20
66.5236050181
 11
368.4119280584
 21
66.1916649721
  0
LINE
  5
587
100
AcDbEntity
  8
0
100
AcDbLine
 62
7
  6
CONTINUOUS
 10
373.1706062619
 20
56.1239698217
 11
373.0502476646
 21
56.4559098162
  0
LINE
  5
588
100
AcDbEntity
  8
0
100
AcDbLine
 62
7
  6
CONTINUOUS
 10
370.3376657828
 20
64.5472277481
 11
370.4580243695
 21
64.215287702
  0
LINE
  5
589
100
AcDbEntity
  8
0
100
AcDbLine
 62
7
  6
CONTINUOUS
 10
373.5241596525
 20
56.4654761727
 11
373.4038010552
 21
56.7974161672
  0
LINE
  5
58A
100
AcDbEntity
  8
0
100
AcDbLine
 62
7
  6
CONTINUOUS
 10
373.5478477173
 20
61.0633644513
 11
373.4745117333
 21
61.2656195635
  0
LINE
  5
58B
100
AcDbEntity
  8
0
100
AcDbLine
 62
7
  6
CONTINUOUS
 10
373.9484237212
 20
61.2751859817
 11
373.8280651239
 21
61.6071259145
  0
LINE
  5
58C
100
AcDbEntity
  8
0
100
AcDbLine
 62
7
  6
CONTINUOUS
 10
378.3627242438
 20
52.1400296017
 11
378.4031838277
 21
52.0159561496
  0
LINE
  5
58D
100
AcDbEntity
  8
0
100
AcDbLine
 62
7
  6
CONTINUOUS
 10
378.8716722984
 20
51.5442689607
 11
378.8312129109
 21
51.6683421553
  0
LINE
  5
58E
100
AcDbEntity
  8
0
100
AcDbLine
 62
7
  6
CONTINUOUS
 10
286.1171649072
 20
297.7542529305
 11
286.1171649072
 21
205.9912994331
  0
LINE
  5
58F
100
AcDbEntity
  8
KONSTRUKTIONSELEMENTE
100
AcDbLine
 62
7
  6
CONTINUOUS
 10
211.5697903242
 20
201.1297418806
 11
211.5365928319
 21
201.0528862238
  0
LINE
  5
590
100
AcDbEntity
  8
0
100
AcDbLine
 62
7
  6
CONTINUOUS
 10
205.6009291367
 20
187.3112057398
 11
211.5697903242
 21
201.1297418806
  0
LINE
  5
591
100
AcDbEntity
  8
0
100
AcDbLine
 62
7
  6
CONTINUOUS
 10
408.0484876408
 20
22.3792017602
 11
408.0872604837
 21
22.2691359623
  0
LINE
  5
592
100
AcDbEntity
  8
0
100
AcDbLine
 62
7
  6
CONTINUOUS
 10
410.1831137151
 20
20.2402829438
 11
410.1443408582
 21
20.3503487587
  0
LINE
  5
593
100
AcDbEntity
  8
0
100
AcDbLine
 62
7
  6
CONTINUOUS
 10
407.1447529468
 20
22.458933806
 11
407.1150476212
 21
22.5492984314
  0
LINE
  5
594
100
AcDbEntity
  8
0
100
AcDbLine
 62
7
  6
CONTINUOUS
 10
407.6224289395
 20
21.9566216624
 11
407.6818395836
 21
21.7758924128
  0
LINE
  5
595
100
AcDbEntity
  8
0
100
AcDbLine
 62
7
  6
CONTINUOUS
 10
407.890972193
 20
21.6151010358
 11
407.8612668674
 21
21.7054656611
  0
LINE
  5
596
100
AcDbEntity
  8
0
100
AcDbLine
 62
7
  6
CONTINUOUS
 10
408.8733783396
 20
20.8637511989
 11
408.9030836651
 21
20.7733865735
  0
LINE
  5
597
100
AcDbEntity
  8
0
100
AcDbLine
 62
7
  6
CONTINUOUS
 10
378.1154657697
 20
50.9587309739
 11
378.0852288318
 21
51.0741685125
  0
LINE
  5
598
100
AcDbEntity
  8
0
100
AcDbLine
 62
7
  6
CONTINUOUS
 10
406.8762096933
 20
22.8004544326
 11
406.911086817
 21
22.6663924623
  0
LINE
  5
599
100
AcDbEntity
  8
0
100
AcDbLine
 62
7
  6
CONTINUOUS
 10
409.1419216615
 20
20.5222305355
 11
409.1070444847
 21
20.6562925252
  0
LINE
  5
59A
100
AcDbEntity
  8
0
100
AcDbLine
 62
7
  6
CONTINUOUS
 10
379.1537524832
 20
50.1541761664
 11
379.1660211617
 21
50.0798641362
  0
LINE
  5
59B
100
AcDbEntity
  8
0
100
AcDbLine
 62
7
  6
CONTINUOUS
 10
377.8533821188
 20
51.3274294298
 11
377.8599512165
 21
51.2199308778
  0
LINE
  5
59C
100
AcDbEntity
  8
0
100
AcDbLine
 62
7
  6
CONTINUOUS
 10
379.3978679002
 20
49.8266031888
 11
379.3912987916
 21
49.9341017537
  0
LINE
  5
59D
100
AcDbEntity
  8
0
100
AcDbLine
 62
7
  6
CONTINUOUS
 10
367.2309092999
 20
61.0776479434
 11
367.2309092999
 21
55.124809906
  0
LINE
  5
59E
100
AcDbEntity
  8
0
100
AcDbLine
 62
7
  6
CONTINUOUS
 10
367.5844626905
 20
54.9127130776
 11
367.5844626905
 21
60.6067320699
  0
LINE
  5
59F
100
AcDbEntity
  8
0
100
AcDbLine
 62
7
  6
CONTINUOUS
 10
367.867305403
 20
61.8864412597
 11
367.867305403
 21
61.6707587427
  0
LINE
  5
5A0
100
AcDbEntity
  8
0
100
AcDbLine
 62
7
  6
CONTINUOUS
 10
409.5285295286
 20
22.1511536776
 11
409.5457970159
 21
22.0484333489
  0
LINE
  5
5A1
100
AcDbEntity
  8
0
100
AcDbLine
 62
7
  6
CONTINUOUS
 10
410.0067990199
 20
21.567091574
 11
409.9895317098
 21
21.6698116571
  0
LINE
  5
5A2
100
AcDbEntity
  8
0
100
AcDbLine
 62
7
  6
CONTINUOUS
 10
368.2915694717
 20
66.696151007
 11
368.2915694717
 21
66.5236050181
  0
LINE
  5
5A3
100
AcDbEntity
  8
0
100
AcDbLine
 62
7
  6
CONTINUOUS
 10
368.2915694717
 20
65.4883288377
 11
368.2915694717
 21
65.2295097926
  0
LINE
  5
5A4
100
AcDbEntity
  8
0
100
AcDbLine
 62
7
  6
CONTINUOUS
 10
368.5894569232
 20
60.9732139388
 11
368.5894569232
 21
61.2320329839
  0
LINE
  5
5A5
100
AcDbEntity
  8
0
100
AcDbLine
 62
7
  6
CONTINUOUS
 10
368.8933624052
 20
65.8991812151
 11
368.8933624052
 21
66.1580002602
  0
LINE
  5
5A6
100
AcDbEntity
  8
0
100
AcDbLine
 62
7
  6
CONTINUOUS
 10
369.1912498567
 20
60.9095646308
 11
369.1912498567
 21
61.1683836759
  0
LINE
  5
5A7
100
AcDbEntity
  8
0
100
AcDbLine
 62
7
  6
CONTINUOUS
 10
369.6155139254
 20
65.8055475576
 11
369.6155139254
 21
66.0212300129
  0
LINE
  5
5A8
100
AcDbEntity
  8
0
100
AcDbLine
 62
7
  6
CONTINUOUS
 10
370.0969486094
 20
69.2228027924
 11
370.0969486094
 21
69.0502569269
  0
LINE
  5
5A9
100
AcDbEntity
  8
0
100
AcDbLine
 62
7
  6
CONTINUOUS
 10
370.0969486094
 20
68.5326188367
 11
370.0969486094
 21
68.3600729712
  0
LINE
  5
5AA
100
AcDbEntity
  8
0
100
AcDbLine
 62
7
  6
CONTINUOUS
 10
370.0969486094
 20
68.144390269
 11
370.0969486094
 21
67.9287075669
  0
LINE
  5
5AB
100
AcDbEntity
  8
0
100
AcDbLine
 62
7
  6
CONTINUOUS
 10
370.0969486094
 20
67.281660201
 11
370.0969486094
 21
67.1091140886
  0
LINE
  5
5AC
100
AcDbEntity
  8
0
100
AcDbLine
 62
7
  6
CONTINUOUS
 10
370.0969486094
 20
66.5914759984
 11
370.0969486094
 21
66.4189298861
  0
LINE
  5
5AD
100
AcDbEntity
  8
0
100
AcDbLine
 62
7
  6
CONTINUOUS
 10
370.0969486094
 20
66.2032474308
 11
370.0969486094
 21
65.9875649754
  0
LINE
  5
5AE
100
AcDbEntity
  8
0
100
AcDbLine
 62
7
  6
CONTINUOUS
 10
370.2744774742
 20
59.6044281158
 11
370.2744774742
 21
59.3456090707
  0
LINE
  5
5AF
100
AcDbEntity
  8
0
100
AcDbLine
 62
7
  6
CONTINUOUS
 10
370.3376657828
 20
64.7629103268
 11
370.3376657828
 21
64.5472277481
  0
LINE
  5
5B0
100
AcDbEntity
  8
0
100
AcDbLine
 62
7
  6
CONTINUOUS
 10
370.5783829562
 20
65.9539000168
 11
370.5783829562
 21
66.0401731964
  0
LINE
  5
5B1
100
AcDbEntity
  8
0
100
AcDbLine
 62
7
  6
CONTINUOUS
 10
370.5783829562
 20
66.6009476296
 11
370.5783829562
 21
66.7303571521
  0
LINE
  5
5B2
100
AcDbEntity
  8
0
100
AcDbLine
 62
7
  6
CONTINUOUS
 10
370.5783829562
 20
67.8950431019
 11
370.5783829562
 21
67.9813157878
  0
LINE
  5
5B3
100
AcDbEntity
  8
0
100
AcDbLine
 62
7
  6
CONTINUOUS
 10
370.5783829562
 20
68.5420907147
 11
370.5783829562
 21
68.6715002372
  0
LINE
  5
5B4
100
AcDbEntity
  8
0
100
AcDbLine
 62
7
  6
CONTINUOUS
 10
370.9394587164
 20
63.9228039451
 11
370.9394587164
 21
64.2247594566
  0
LINE
  5
5B5
100
AcDbEntity
  8
0
100
AcDbLine
 62
7
  6
CONTINUOUS
 10
370.9966289945
 20
58.6480642669
 11
370.9966289945
 21
58.906883312
  0
LINE
  5
5B6
100
AcDbEntity
  8
0
100
AcDbLine
 62
7
  6
CONTINUOUS
 10
371.9594978567
 20
57.2866392698
 11
371.9594978567
 21
57.0278202247
  0
LINE
  5
5B7
100
AcDbEntity
  8
0
100
AcDbLine
 62
7
  6
CONTINUOUS
 10
372.8020080479
 20
57.163021058
 11
372.8020080479
 21
56.8179289567
  0
LINE
  5
5B8
100
AcDbEntity
  8
0
100
AcDbLine
 62
7
  6
CONTINUOUS
 10
373.1706062619
 20
56.1069129298
 11
373.1706062619
 21
56.1239698217
  0
LINE
  5
5B9
100
AcDbEntity
  8
0
100
AcDbLine
 62
7
  6
CONTINUOUS
 10
373.3466307033
 20
61.899609866
 11
373.3466307033
 21
61.5976543546
  0
LINE
  5
5BA
100
AcDbEntity
  8
0
100
AcDbLine
 62
7
  6
CONTINUOUS
 10
373.5241596525
 20
56.1203840714
 11
373.5241596525
 21
56.4654761727
  0
LINE
  5
5BB
100
AcDbEntity
  8
0
100
AcDbLine
 62
7
  6
CONTINUOUS
 10
373.9484237212
 20
59.7654081774
 11
373.9484237212
 21
60.0242272225
  0
LINE
  5
5BC
100
AcDbEntity
  8
0
100
AcDbLine
 62
7
  6
CONTINUOUS
 10
373.9484237212
 20
61.059503403
 11
373.9484237212
 21
61.2751859817
  0
LINE
  5
5BD
100
AcDbEntity
  8
0
100
AcDbLine
 62
7
  6
CONTINUOUS
 10
373.9484237212
 20
62.2673256957
 11
373.9484237212
 21
62.483008151
  0
LINE
  5
5BE
100
AcDbEntity
  8
0
100
AcDbLine
 62
7
  6
CONTINUOUS
 10
373.9484237212
 20
62.9575096514
 11
373.9484237212
 21
63.1731923536
  0
LINE
  5
5BF
100
AcDbEntity
  8
0
100
AcDbLine
 62
7
  6
CONTINUOUS
 10
373.9484237212
 20
63.647693854
 11
373.9484237212
 21
63.8633765561
  0
LINE
  5
5C0
100
AcDbEntity
  8
0
100
AcDbLine
 62
7
  6
CONTINUOUS
 10
373.9484237212
 20
64.8986527365
 11
373.9484237212
 21
65.114334945
  0
LINE
  5
5C1
100
AcDbEntity
  8
0
100
AcDbLine
 62
7
  6
CONTINUOUS
 10
373.9484237212
 20
64.2084682871
 11
373.9484237212
 21
64.4241509893
  0
LINE
  5
5C2
100
AcDbEntity
  8
0
100
AcDbLine
 62
7
  6
CONTINUOUS
 10
373.9484237212
 20
65.5888366922
 11
373.9484237212
 21
65.8045193944
  0
LINE
  5
5C3
100
AcDbEntity
  8
0
100
AcDbLine
 62
7
  6
CONTINUOUS
 10
374.6555305024
 20
47.9531765361
 11
374.6555305024
 21
53.7766050509
  0
LINE
  5
5C4
100
AcDbEntity
  8
0
100
AcDbLine
 62
7
  6
CONTINUOUS
 10
375.0090838929
 20
47.6116701852
 11
375.0090838929
 21
53.5645082226
  0
LINE
  5
5C5
100
AcDbEntity
  8
0
100
AcDbLine
 62
7
  6
CONTINUOUS
 10
377.3425362709
 20
49.369423468
 11
377.3425362709
 21
49.2400139455
  0
LINE
  5
5C6
100
AcDbEntity
  8
0
100
AcDbLine
 62
7
  6
CONTINUOUS
 10
390.9189864696
 20
36.1261700692
 11
390.9189864696
 21
45.5952683793
  0
LINE
  5
5C7
100
AcDbEntity
  8
0
100
AcDbLine
 62
7
  6
CONTINUOUS
 10
391.2725398602
 20
35.9140732408
 11
391.2725398602
 21
45.4903779096
  0
LINE
  5
5C8
100
AcDbEntity
  8
0
100
AcDbLine
 62
7
  6
CONTINUOUS
 10
393.4314721863
 20
42.3783605562
 11
393.4314721863
 21
42.2058145179
  0
LINE
  5
5C9
100
AcDbEntity
  8
0
100
AcDbLine
 62
7
  6
CONTINUOUS
 10
394.2017674109
 20
42.0139137545
 11
394.2017674109
 21
41.6343125048
  0
LINE
  5
5CA
100
AcDbEntity
  8
0
100
AcDbLine
 62
7
  6
CONTINUOUS
 10
394.2017674109
 20
41.4617664665
 11
394.2017674109
 21
41.1856928102
  0
LINE
  5
5CB
100
AcDbEntity
  8
0
100
AcDbLine
 62
7
  6
CONTINUOUS
 10
394.2333614978
 20
41.1551752657
 11
394.2333614978
 21
41.3003835082
  0
LINE
  5
5CC
100
AcDbEntity
  8
0
100
AcDbLine
 62
7
  6
CONTINUOUS
 10
394.5869148884
 20
40.8136689148
 11
394.5869148884
 21
41.0897425711
  0
LINE
  5
5CD
100
AcDbEntity
  8
0
100
AcDbLine
 62
7
  6
CONTINUOUS
 10
394.5869148884
 20
41.2622886094
 11
394.5869148884
 21
41.6418898591
  0
LINE
  5
5CE
100
AcDbEntity
  8
0
100
AcDbLine
 62
7
  6
CONTINUOUS
 10
398.3436076721
 20
28.9545366993
 11
398.3436076721
 21
38.6602508906
  0
LINE
  5
5CF
100
AcDbEntity
  8
0
100
AcDbLine
 62
7
  6
CONTINUOUS
 10
198.7092998991
 20
114.5393672507
 11
193.2092998991
 21
106.9521995116
  0
LINE
  5
5D0
100
AcDbEntity
  8
0
100
AcDbLine
 62
7
  6
CONTINUOUS
 10
398.6971610627
 20
28.6130303483
 11
398.6971610627
 21
38.4481540622
  0
LINE
  5
5D1
100
AcDbEntity
  8
0
100
AcDbLine
 62
7
  6
CONTINUOUS
 10
407.5359958275
 20
20.2047810972
 11
407.5359958275
 21
20.0753715747
  0
LINE
  5
5D2
100
AcDbEntity
  8
0
100
AcDbLine
 62
7
  6
CONTINUOUS
 10
420.2639178889
 20
7.7811429406
 11
420.2639178889
 21
17.1882861115
  0
LINE
  5
5D3
100
AcDbEntity
  8
0
100
AcDbLine
 62
7
  6
CONTINUOUS
 10
420.6174712795
 20
7.5690461122
 11
420.6174712795
 21
17.145350781
  0
LINE
  5
5D4
100
AcDbEntity
  8
0
100
AcDbLine
 62
7
  6
CONTINUOUS
 10
422.4228502149
 20
14.3748397786
 11
422.4228502149
 21
14.2022937403
  0
LINE
  5
5D5
100
AcDbEntity
  8
0
100
AcDbLine
 62
7
  6
CONTINUOUS
 10
423.1931454396
 20
14.0103929769
 11
423.1931454396
 21
13.6307917272
  0
LINE
  5
5D6
100
AcDbEntity
  8
0
100
AcDbLine
 62
7
  6
CONTINUOUS
 10
423.1931454396
 20
13.4582456889
 11
423.1931454396
 21
13.1821720326
  0
LINE
  5
5D7
100
AcDbEntity
  8
0
100
AcDbLine
 62
7
  6
CONTINUOUS
 10
423.2247395264
 20
13.1516544881
 11
423.2247395264
 21
13.2968627306
  0
LINE
  5
5D8
100
AcDbEntity
  8
0
100
AcDbLine
 62
7
  6
CONTINUOUS
 10
423.578292917
 20
13.2587678318
 11
423.578292917
 21
13.6383690815
  0
LINE
  5
5D9
100
AcDbEntity
  8
0
100
AcDbLine
 62
7
  6
CONTINUOUS
 10
423.578292917
 20
12.8101481372
 11
423.578292917
 21
13.0862217935
  0
LINE
  5
5DA
100
AcDbEntity
  8
0
100
AcDbLine
 62
7
  6
CONTINUOUS
 10
427.6885390913
 20
0.6095095708
 11
427.6885390913
 21
10.3152237621
  0
LINE
  5
5DB
100
AcDbEntity
  8
0
100
AcDbLine
 62
7
  6
CONTINUOUS
 10
428.0420924819
 20
0.2680032198
 11
428.0420924819
 21
10.1031269337
  0
LINE
  5
5DC
100
AcDbEntity
  8
0
100
AcDbLine
 62
7
  6
CONTINUOUS
 10
408.2873003712
 20
22.1511942126
 11
408.2881826102
 21
22.2129638184
  0
LINE
  5
5DD
100
AcDbEntity
  8
0
100
AcDbLine
 62
7
  6
CONTINUOUS
 10
409.9443009707
 20
20.4682905083
 11
409.9434187318
 21
20.4065209026
  0
LINE
  5
5DE
100
AcDbEntity
  8
RUNDUNGEN
100
AcDbLine
 62
7
  6
CONTINUOUS
 10
443.9519950586
 20
-1.3435503256
 11
443.9519950586
 21
-4.2032970173
  0
LINE
  5
5DF
100
AcDbEntity
  8
RUNDUNGEN
100
AcDbLine
 62
7
  6
CONTINUOUS
 10
443.9519950586
 20
-16.1611444143
 11
443.9519950586
 21
-19.0208911061
  0
LINE
  5
5E0
100
AcDbEntity
  8
RUNDUNGEN
100
AcDbLine
 62
7
  6
CONTINUOUS
 10
457.3870239012
 20
-11.1243764545
 11
457.3870239012
 21
-12.0431840646
  0
LINE
  5
5E1
100
AcDbEntity
  8
RUNDUNGEN
100
AcDbLine
 62
7
  6
CONTINUOUS
 10
457.3870239012
 20
-34.2757400389
 11
457.3870239012
 21
-35.194547649
  0
LINE
  5
5E2
100
AcDbEntity
  8
0
100
AcDbLine
 62
7
  6
CONTINUOUS
 10
408.0631763488
 20
22.4660523945
 11
408.0484876408
 21
22.3792017602
  0
LINE
  5
5E3
100
AcDbEntity
  8
0
100
AcDbLine
 62
7
  6
CONTINUOUS
 10
410.1684248646
 20
20.1534323632
 11
410.1831137151
 21
20.2402829438
  0
LINE
  5
5E4
100
AcDbEntity
  8
0
100
AcDbLine
 62
7
  6
CONTINUOUS
 10
407.1150476212
 20
22.5492984314
 11
407.1292375383
 21
22.5900258431
  0
LINE
  5
5E5
100
AcDbEntity
  8
0
100
AcDbLine
 62
7
  6
CONTINUOUS
 10
407.8612668674
 20
21.7054656611
 11
407.8754567845
 21
21.7461930729
  0
LINE
  5
5E6
100
AcDbEntity
  8
0
100
AcDbLine
 62
7
  6
CONTINUOUS
 10
408.9030836651
 20
20.7733865735
 11
408.8888937758
 21
20.7326591575
  0
LINE
  5
5E7
100
AcDbEntity
  8
RUNDUNGEN
100
AcDbLine
 62
7
  6
CONTINUOUS
 10
342.1759734951
 20
95.5561809085
 11
345.7115074011
 21
98.971244418
  0
LINE
  5
5E8
100
AcDbEntity
  8
0
100
AcDbLine
 62
7
  6
CONTINUOUS
 10
348.9806980132
 20
82.7093499865
 11
345.4451641073
 21
79.294286477
  0
LINE
  5
5E9
100
AcDbEntity
  8
RUNDUNGEN
100
AcDbLine
 62
7
  6
CONTINUOUS
 10
345.6320368147
 20
70.0318038683
 11
342.0965029087
 21
66.6167403588
  0
LINE
  5
5EA
100
AcDbEntity
  8
RUNDUNGEN
100
AcDbLine
 62
7
  6
CONTINUOUS
 10
361.7200515211
 20
84.9570042832
 11
360.0555036794
 21
83.3491745338
  0
LINE
  5
5EB
100
AcDbEntity
  8
0
100
AcDbLine
 62
7
  6
CONTINUOUS
 10
397.1866606225
 20
38.8546546811
 11
397.2829475003
 21
38.9687039351
  0
LINE
  5
5EC
100
AcDbEntity
  8
0
100
AcDbLine
 62
7
  6
CONTINUOUS
 10
370.2173071961
 20
69.2359548476
 11
370.0969486094
 21
69.1196973803
  0
LINE
  5
5ED
100
AcDbEntity
  8
0
100
AcDbLine
 62
7
  6
CONTINUOUS
 10
370.4580243695
 20
69.0897130926
 11
370.191018885
 21
68.8318055993
  0
LINE
  5
5EE
100
AcDbEntity
  8
0
100
AcDbLine
 62
7
  6
CONTINUOUS
 10
370.2173071961
 20
68.5457708919
 11
370.0969486094
 21
68.4295134246
  0
LINE
  5
5EF
100
AcDbEntity
  8
0
100
AcDbLine
 62
7
  6
CONTINUOUS
 10
370.5783829562
 20
68.6715002372
 11
370.4277042146
 21
68.5259557491
  0
LINE
  5
5F0
100
AcDbEntity
  8
0
100
AcDbLine
 62
7
  6
CONTINUOUS
 10
370.5783829562
 20
68.5420907147
 11
370.4842087157
 21
68.4511253836
  0
LINE
  5
5F1
100
AcDbEntity
  8
0
100
AcDbLine
 62
7
  6
CONTINUOUS
 10
368.7730038185
 20
66.6624861718
 11
368.4194504279
 21
66.3209798209
  0
LINE
  5
5F2
100
AcDbEntity
  8
0
100
AcDbLine
 62
7
  6
CONTINUOUS
 10
370.5783829562
 20
68.3264080125
 11
370.2856513064
 21
68.0436509518
  0
LINE
  5
5F3
100
AcDbEntity
  8
0
100
AcDbLine
 62
7
  6
CONTINUOUS
 10
370.698741543
 20
68.3395600678
 11
370.3451881524
 21
67.9980537168
  0
LINE
  5
5F4
100
AcDbEntity
  8
0
100
AcDbLine
 62
7
  6
CONTINUOUS
 10
371.0598173031
 20
68.5946989356
 11
370.936756561
 21
68.4758313867
  0
LINE
  5
5F5
100
AcDbEntity
  8
0
100
AcDbLine
 62
7
  6
CONTINUOUS
 10
370.5783829562
 20
67.9813157878
 11
370.4233249973
 21
67.8315413007
  0
LINE
  5
5F6
100
AcDbEntity
  8
0
100
AcDbLine
 62
7
  6
CONTINUOUS
 10
370.8191001297
 20
68.1801662575
 11
370.5952050786
 21
67.9639002453
  0
LINE
  5
5F7
100
AcDbEntity
  8
0
100
AcDbLine
 62
7
  6
CONTINUOUS
 10
370.4580243695
 20
67.7956178671
 11
370.3377349469
 21
67.6794272071
  0
LINE
  5
5F8
100
AcDbEntity
  8
0
100
AcDbLine
 62
7
  6
CONTINUOUS
 10
370.5783829562
 20
67.8950431019
 11
370.4664354307
 21
67.7869100958
  0
LINE
  5
5F9
100
AcDbEntity
  8
0
100
AcDbLine
 62
7
  6
CONTINUOUS
 10
368.8933624052
 20
66.1580002602
 11
368.6091040878
 21
65.8834278101
  0
LINE
  5
5FA
100
AcDbEntity
  8
0
100
AcDbLine
 62
7
  6
CONTINUOUS
 10
370.2173071961
 20
67.2948120094
 11
370.0969486094
 21
67.1785545421
  0
LINE
  5
5FB
100
AcDbEntity
  8
0
100
AcDbLine
 62
7
  6
CONTINUOUS
 10
369.2544381653
 20
66.3268658251
 11
369.0688053219
 21
66.1475582675
  0
LINE
  5
5FC
100
AcDbEntity
  8
0
100
AcDbLine
 62
7
  6
CONTINUOUS
 10
370.698741543
 20
67.649376112
 11
370.542437677
 21
67.4983981712
  0
LINE
  5
5FD
100
AcDbEntity
  8
0
100
AcDbLine
 62
7
  6
CONTINUOUS
 10
368.8933624052
 20
65.8991812151
 11
368.711437086
 21
65.7234548508
  0
LINE
  5
5FE
100
AcDbEntity
  8
0
100
AcDbLine
 62
7
  6
CONTINUOUS
 10
371.0598173031
 20
67.9045144862
 11
370.9367566987
 21
67.7856470703
  0
LINE
  5
5FF
100
AcDbEntity
  8
0
100
AcDbLine
 62
7
  6
CONTINUOUS
 10
370.4580243695
 20
67.1485702543
 11
370.191018885
 21
66.8906627611
  0
LINE
  5
600
100
AcDbEntity
  8
0
100
AcDbLine
 62
7
  6
CONTINUOUS
 10
369.0137209919
 20
65.6535142253
 11
368.8760473011
 21
65.5205316517
  0
LINE
  5
601
100
AcDbEntity
  8
0
100
AcDbLine
 62
7
  6
CONTINUOUS
 10
370.9394587164
 20
67.3305879978
 11
370.8278131343
 21
67.2227466468
  0
LINE
  5
602
100
AcDbEntity
  8
0
100
AcDbLine
 62
7
  6
CONTINUOUS
 10
370.2173071961
 20
66.6046280536
 11
370.0969486094
 21
66.4883705863
  0
LINE
  5
603
100
AcDbEntity
  8
0
100
AcDbLine
 62
7
  6
CONTINUOUS
 10
369.6155139254
 20
66.0212300129
 11
369.4881111675
 21
65.8981683987
  0
LINE
  5
604
100
AcDbEntity
  8
0
100
AcDbLine
 62
7
  6
CONTINUOUS
 10
370.5783829562
 20
66.7303571521
 11
370.4277043223
 21
66.5848127682
  0
LINE
  5
605
100
AcDbEntity
  8
0
100
AcDbLine
 62
7
  6
CONTINUOUS
 10
370.5783829562
 20
66.6009476296
 11
370.4842088235
 21
66.5099824026
  0
LINE
  5
606
100
AcDbEntity
  8
0
100
AcDbLine
 62
7
  6
CONTINUOUS
 10
369.2544381653
 20
65.2915897681
 11
369.1368279571
 21
65.1779870306
  0
LINE
  5
607
100
AcDbEntity
  8
0
100
AcDbLine
 62
7
  6
CONTINUOUS
 10
370.5783829562
 20
66.3852651743
 11
370.2856511831
 21
66.1025079944
  0
LINE
  5
608
100
AcDbEntity
  8
0
100
AcDbLine
 62
7
  6
CONTINUOUS
 10
370.698741543
 20
66.3984172295
 11
370.3451881524
 21
66.0569108785
  0
LINE
  5
609
100
AcDbEntity
  8
0
100
AcDbLine
 62
7
  6
CONTINUOUS
 10
371.0598173031
 20
66.6535560973
 11
370.936756489
 21
66.5346884789
  0
LINE
  5
60A
100
AcDbEntity
  8
0
100
AcDbLine
 62
7
  6
CONTINUOUS
 10
370.5783829562
 20
66.0401731964
 11
370.4233248739
 21
65.8903985901
  0
LINE
  5
60B
100
AcDbEntity
  8
0
100
AcDbLine
 62
7
  6
CONTINUOUS
 10
370.8191001297
 20
66.2390231724
 11
370.5952053253
 21
66.0227573985
  0
LINE
  5
60C
100
AcDbEntity
  8
0
100
AcDbLine
 62
7
  6
CONTINUOUS
 10
370.4580243695
 20
65.8544750288
 11
370.3377350702
 21
65.738284488
  0
LINE
  5
60D
100
AcDbEntity
  8
0
100
AcDbLine
 62
7
  6
CONTINUOUS
 10
370.5783829562
 20
65.9539000168
 11
370.466435554
 21
65.8457671298
  0
LINE
  5
60E
100
AcDbEntity
  8
0
100
AcDbLine
 62
7
  6
CONTINUOUS
 10
369.6155139254
 20
64.85654431
 11
369.5074238258
 21
64.7521372912
  0
LINE
  5
60F
100
AcDbEntity
  8
0
100
AcDbLine
 62
7
  6
CONTINUOUS
 10
370.698741543
 20
65.7082330269
 11
370.5424379325
 21
65.5572553329
  0
LINE
  5
610
100
AcDbEntity
  8
0
100
AcDbLine
 62
7
  6
CONTINUOUS
 10
369.2544381653
 20
64.2994500541
 11
369.1209354231
 21
64.1704963074
  0
LINE
  5
611
100
AcDbEntity
  8
0
100
AcDbLine
 62
7
  6
CONTINUOUS
 10
371.0598173031
 20
65.9633718948
 11
370.936756561
 21
65.8445043458
  0
LINE
  5
612
100
AcDbEntity
  8
0
100
AcDbLine
 62
7
  6
CONTINUOUS
 10
369.9765900227
 20
64.464635116
 11
369.8646425589
 21
64.3565021694
  0
LINE
  5
613
100
AcDbEntity
  8
0
100
AcDbLine
 62
7
  6
CONTINUOUS
 10
370.9394587164
 20
65.3894451596
 11
370.8278132621
 21
65.2816039319
  0
LINE
  5
614
100
AcDbEntity
  8
0
100
AcDbLine
 62
7
  6
CONTINUOUS
 10
370.8191001297
 20
64.7292454916
 11
370.4655467391
 21
64.3877391406
  0
LINE
  5
615
100
AcDbEntity
  8
0
100
AcDbLine
 62
7
  6
CONTINUOUS
 10
368.3487397498
 20
61.8096399581
 11
367.9951863592
 21
61.4681336072
  0
LINE
  5
616
100
AcDbEntity
  8
0
100
AcDbLine
 62
7
  6
CONTINUOUS
 10
371.1801758898
 20
64.5098826122
 11
370.8266224992
 21
64.1683762612
  0
LINE
  5
617
100
AcDbEntity
  8
0
100
AcDbLine
 62
7
  6
CONTINUOUS
 10
370.9394587164
 20
64.2247594566
 11
370.642501817
 21
63.9379211182
  0
LINE
  5
618
100
AcDbEntity
  8
0
100
AcDbLine
 62
7
  6
CONTINUOUS
 10
370.698741543
 20
63.7239537223
 11
370.5909650585
 21
63.6198496325
  0
LINE
  5
619
100
AcDbEntity
  8
0
100
AcDbLine
 62
7
  6
CONTINUOUS
 10
370.9394587164
 20
63.9228039451
 11
370.7647781638
 21
63.7540754881
  0
LINE
  5
61A
100
AcDbEntity
  8
0
100
AcDbLine
 62
7
  6
CONTINUOUS
 10
367.5844626905
 20
60.6067320699
 11
367.2309092999
 21
60.2652257189
  0
LINE
  5
61B
100
AcDbEntity
  8
0
100
AcDbLine
 62
7
  6
CONTINUOUS
 10
371.0598173031
 20
63.6771369553
 11
370.9047592207
 21
63.527362349
  0
LINE
  5
61C
100
AcDbEntity
  8
0
100
AcDbLine
 62
7
  6
CONTINUOUS
 10
368.8301740966
 20
61.4740196114
 11
368.476620706
 21
61.1325132605
  0
LINE
  5
61D
100
AcDbEntity
  8
0
100
AcDbLine
 62
7
  6
CONTINUOUS
 10
368.5894569232
 20
61.2320329839
 11
368.2751698871
 21
60.9284550189
  0
LINE
  5
61E
100
AcDbEntity
  8
0
100
AcDbLine
 62
7
  6
CONTINUOUS
 10
370.9394587164
 20
63.4914387877
 11
370.8233403348
 21
63.379277044
  0
LINE
  5
61F
100
AcDbEntity
  8
0
100
AcDbLine
 62
7
  6
CONTINUOUS
 10
368.5894569232
 20
60.9732139388
 11
368.382273747
 21
60.7730903581
  0
LINE
  5
620
100
AcDbEntity
  8
0
100
AcDbLine
 62
7
  6
CONTINUOUS
 10
371.7819688233
 20
64.0148682084
 11
371.6442951325
 21
63.8818856348
  0
LINE
  5
621
100
AcDbEntity
  8
0
100
AcDbLine
 62
7
  6
CONTINUOUS
 10
371.3005344765
 20
63.3152124981
 11
371.0995725502
 21
63.1210981834
  0
LINE
  5
622
100
AcDbEntity
  8
0
100
AcDbLine
 62
7
  6
CONTINUOUS
 10
373.9484237212
 20
65.8045193944
 11
373.8406471442
 21
65.7004152152
  0
LINE
  5
623
100
AcDbEntity
  8
0
100
AcDbLine
 62
7
  6
CONTINUOUS
 10
368.7098155099
 20
60.727546949
 11
368.5403020004
 21
60.5638094722
  0
LINE
  5
624
100
AcDbEntity
  8
0
100
AcDbLine
 62
7
  6
CONTINUOUS
 10
369.1912498567
 20
61.1683836759
 11
369.0435770357
 21
61.0257426842
  0
LINE
  5
625
100
AcDbEntity
  8
0
100
AcDbLine
 62
7
  6
CONTINUOUS
 10
371.5412516499
 20
62.9964245073
 11
371.3903645469
 21
62.8506787577
  0
LINE
  5
626
100
AcDbEntity
  8
0
100
AcDbLine
 62
7
  6
CONTINUOUS
 10
368.9505326833
 20
60.3656224609
 11
368.8128590002
 21
60.2326398948
  0
LINE
  5
627
100
AcDbEntity
  8
0
100
AcDbLine
 62
7
  6
CONTINUOUS
 10
373.9484237212
 20
65.114334945
 11
373.8406473909
 21
65.0102310041
  0
LINE
  5
628
100
AcDbEntity
  8
0
100
AcDbLine
 62
7
  6
CONTINUOUS
 10
372.3837619254
 20
63.4335807089
 11
372.2718145232
 21
63.325447822
  0
LINE
  5
629
100
AcDbEntity
  8
0
100
AcDbLine
 62
7
  6
CONTINUOUS
 10
371.9023275786
 20
62.6045154761
 11
371.7745356941
 21
62.4810779945
  0
LINE
  5
62A
100
AcDbEntity
  8
0
100
AcDbLine
 62
7
  6
CONTINUOUS
 10
369.3116087806
 20
59.9737132361
 11
369.1781060267
 21
59.8447594782
  0
LINE
  5
62B
100
AcDbEntity
  8
0
100
AcDbLine
 62
7
  6
CONTINUOUS
 10
373.9484237212
 20
64.4241509893
 11
373.8406471442
 21
64.3200468101
  0
LINE
  5
62C
100
AcDbEntity
  8
0
100
AcDbLine
 62
7
  6
CONTINUOUS
 10
369.552325954
 20
59.7411983014
 11
369.410481303
 21
59.6041868897
  0
LINE
  5
62D
100
AcDbEntity
  8
0
100
AcDbLine
 62
7
  6
CONTINUOUS
 10
372.2634033387
 20
62.2557430742
 11
372.1454416
 21
62.1418007842
  0
LINE
  5
62E
100
AcDbEntity
  8
0
100
AcDbLine
 62
7
  6
CONTINUOUS
 10
373.9484237212
 20
63.8633765561
 11
373.8406471442
 21
63.7592723769
  0
LINE
  5
62F
100
AcDbEntity
  8
0
100
AcDbLine
 62
7
  6
CONTINUOUS
 10
372.9855549432
 20
62.7660203582
 11
372.8562231495
 21
62.6410954385
  0
LINE
  5
630
100
AcDbEntity
  8
0
100
AcDbLine
 62
7
  6
CONTINUOUS
 10
369.9134017141
 20
59.4355623967
 11
369.7541727295
 21
59.2817590082
  0
LINE
  5
631
100
AcDbEntity
  8
0
100
AcDbLine
 62
7
  6
CONTINUOUS
 10
372.6244790988
 20
61.9501071386
 11
372.4990606542
 21
61.8289622239
  0
LINE
  5
632
100
AcDbEntity
  8
0
100
AcDbLine
 62
7
  6
CONTINUOUS
 10
373.9484237212
 20
63.1731923536
 11
373.8406471442
 21
63.0690881744
  0
LINE
  5
633
100
AcDbEntity
  8
0
100
AcDbLine
 62
7
  6
CONTINUOUS
 10
370.1541188875
 20
59.3324570155
 11
369.9433829762
 21
59.1289017562
  0
LINE
  5
634
100
AcDbEntity
  8
0
100
AcDbLine
 62
7
  6
CONTINUOUS
 10
370.2744774742
 20
59.3456090707
 11
369.9993500377
 21
59.0798563742
  0
LINE
  5
635
100
AcDbEntity
  8
0
100
AcDbLine
 62
7
  6
CONTINUOUS
 10
370.6355532344
 20
59.6438842198
 11
370.2819998438
 21
59.3023778689
  0
LINE
  5
636
100
AcDbEntity
  8
0
100
AcDbLine
 62
7
  6
CONTINUOUS
 10
373.4669893322
 20
62.1715809257
 11
373.2948479
 21
62.0053050705
  0
LINE
  5
637
100
AcDbEntity
  8
0
100
AcDbLine
 62
7
  6
CONTINUOUS
 10
372.9855549432
 20
61.6876077114
 11
372.8408413273
 21
61.5478250923
  0
LINE
  5
638
100
AcDbEntity
  8
0
100
AcDbLine
 62
7
  6
CONTINUOUS
 10
373.9484237212
 20
62.483008151
 11
373.8406472675
 21
62.378904091
  0
LINE
  5
639
100
AcDbEntity
  8
0
100
AcDbLine
 62
7
  6
CONTINUOUS
 10
373.2262721166
 20
61.5845022993
 11
373.0239324981
 21
61.3890572361
  0
LINE
  5
63A
100
AcDbEntity
  8
0
100
AcDbLine
 62
7
  6
CONTINUOUS
 10
373.3466307033
 20
61.5976543546
 11
373.0937335776
 21
61.3533744894
  0
LINE
  5
63B
100
AcDbEntity
  8
0
100
AcDbLine
 62
7
  6
CONTINUOUS
 10
371.1169875812
 20
59.3514004629
 11
370.7634341906
 21
59.009894112
  0
LINE
  5
63C
100
AcDbEntity
  8
0
100
AcDbLine
 62
7
  6
CONTINUOUS
 10
370.9966289945
 20
58.906883312
 11
370.7126147092
 21
58.6325465787
  0
LINE
  5
63D
100
AcDbEntity
  8
0
100
AcDbLine
 62
7
  6
CONTINUOUS
 10
373.8280651239
 20
61.6071259145
 11
373.4745117333
 21
61.2656195635
  0
LINE
  5
63E
100
AcDbEntity
  8
0
100
AcDbLine
 62
7
  6
CONTINUOUS
 10
373.9484237212
 20
61.2751859817
 11
373.6790599456
 21
61.0150005542
  0
LINE
  5
63F
100
AcDbEntity
  8
0
100
AcDbLine
 62
7
  6
CONTINUOUS
 10
371.5984220966
 20
58.9726433636
 11
371.4176378431
 21
58.7980191842
  0
LINE
  5
640
100
AcDbEntity
  8
0
100
AcDbLine
 62
7
  6
CONTINUOUS
 10
367.5844626905
 20
54.9127130776
 11
367.5174753924
 21
54.8480083163
  0
LINE
  5
641
100
AcDbEntity
  8
0
100
AcDbLine
 62
7
  6
CONTINUOUS
 10
372.2002150301
 20
58.391356027
 11
372.0667122878
 21
58.2624022804
  0
LINE
  5
642
100
AcDbEntity
  8
0
100
AcDbLine
 62
7
  6
CONTINUOUS
 10
373.9484237212
 20
60.0242272225
 11
373.8190919275
 21
59.8993023028
  0
LINE
  5
643
100
AcDbEntity
  8
0
100
AcDbLine
 62
7
  6
CONTINUOUS
 10
372.6816494612
 20
57.8400531436
 11
372.5244369819
 21
57.6881975496
  0
LINE
  5
644
100
AcDbEntity
  8
0
100
AcDbLine
 62
7
  6
CONTINUOUS
 10
372.3205736168
 20
56.9810033651
 11
372.1742292465
 21
56.8396455582
  0
LINE
  5
645
100
AcDbEntity
  8
0
100
AcDbLine
 62
7
  6
CONTINUOUS
 10
372.6816494612
 20
56.7616404042
 11
372.4793098764
 21
56.5661953736
  0
LINE
  5
646
100
AcDbEntity
  8
0
100
AcDbLine
 62
7
  6
CONTINUOUS
 10
373.1630838502
 20
57.2024771213
 11
372.8095304596
 21
56.8609707703
  0
LINE
  5
647
100
AcDbEntity
  8
0
100
AcDbLine
 62
7
  6
CONTINUOUS
 10
372.8020080479
 20
56.8179289567
 11
372.5205975434
 21
56.5461072826
  0
LINE
  5
648
100
AcDbEntity
  8
0
100
AcDbLine
 62
7
  6
CONTINUOUS
 10
373.4038010552
 20
56.7974161672
 11
373.0502476646
 21
56.4559098162
  0
LINE
  5
649
100
AcDbEntity
  8
0
100
AcDbLine
 62
7
  6
CONTINUOUS
 10
373.5241596525
 20
56.4654761727
 11
373.1706062619
 21
56.1239698217
  0
LINE
  5
64A
100
AcDbEntity
  8
0
100
AcDbLine
 62
7
  6
CONTINUOUS
 10
375.0090838929
 20
53.5645082226
 11
374.6555305024
 21
53.2230018716
  0
LINE
  5
64B
100
AcDbEntity
  8
0
100
AcDbLine
 62
7
  6
CONTINUOUS
 10
376.3686085223
 20
52.355960373
 11
376.3166839766
 21
52.3058051132
  0
LINE
  5
64C
100
AcDbEntity
  8
0
100
AcDbLine
 62
7
  6
CONTINUOUS
 10
376.6319080969
 20
51.9556751334
 11
376.5577835812
 21
51.8840763494
  0
LINE
  5
64D
100
AcDbEntity
  8
0
100
AcDbLine
 62
7
  6
CONTINUOUS
 10
377.1937778402
 20
52.0049614839
 11
377.1472567083
 21
51.9600255211
  0
LINE
  5
64E
100
AcDbEntity
  8
0
100
AcDbLine
 62
7
  6
CONTINUOUS
 10
378.4839576271
 20
53.0550474358
 11
378.3202041668
 21
52.8968737394
  0
LINE
  5
64F
100
AcDbEntity
  8
0
100
AcDbLine
 62
7
  6
CONTINUOUS
 10
377.6719609166
 20
52.0200546174
 11
377.5371082621
 21
51.8897969557
  0
LINE
  5
650
100
AcDbEntity
  8
0
100
AcDbLine
 62
7
  6
CONTINUOUS
 10
377.2123309332
 20
51.003869606
 11
377.1517522985
 21
50.9453551383
  0
LINE
  5
651
100
AcDbEntity
  8
0
100
AcDbLine
 62
7
  6
CONTINUOUS
 10
378.4596166186
 20
52.0841444661
 11
378.3963487225
 21
52.0230323713
  0
LINE
  5
652
100
AcDbEntity
  8
0
100
AcDbLine
 62
7
  6
CONTINUOUS
 10
377.4899797335
 20
51.0108423519
 11
377.2822815505
 21
50.8102213129
  0
LINE
  5
653
100
AcDbEntity
  8
0
100
AcDbLine
 62
7
  6
CONTINUOUS
 10
377.5879734263
 20
51.0133033211
 11
377.3283506976
 21
50.7625270223
  0
LINE
  5
654
100
AcDbEntity
  8
0
100
AcDbLine
 62
7
  6
CONTINUOUS
 10
377.9300845432
 20
51.3367992186
 11
377.8571165849
 21
51.2663175831
  0
LINE
  5
655
100
AcDbEntity
  8
0
100
AcDbLine
 62
7
  6
CONTINUOUS
 10
377.8599512165
 20
51.2199308778
 11
377.8036764019
 21
51.165573581
  0
LINE
  5
656
100
AcDbEntity
  8
0
100
AcDbLine
 62
7
  6
CONTINUOUS
 10
374.6555305024
 20
48.0825860587
 11
374.5885432042
 21
48.0178812974
  0
LINE
  5
657
100
AcDbEntity
  8
0
100
AcDbLine
 62
7
  6
CONTINUOUS
 10
377.7512962322
 20
51.0174049359
 11
377.4269240946
 21
50.7040855109
  0
LINE
  5
658
100
AcDbEntity
  8
0
100
AcDbLine
 62
7
  6
CONTINUOUS
 10
378.0720905011
 20
51.2891656618
 11
377.8714736704
 21
51.0953846839
  0
LINE
  5
659
100
AcDbEntity
  8
0
100
AcDbLine
 62
7
  6
CONTINUOUS
 10
378.6938609522
 20
51.8483007429
 11
378.6083937818
 21
51.7657457958
  0
LINE
  5
65A
100
AcDbEntity
  8
0
100
AcDbLine
 62
7
  6
CONTINUOUS
 10
378.0852288318
 20
51.0741685125
 11
378.0043172392
 21
50.9960139155
  0
LINE
  5
65B
100
AcDbEntity
  8
0
100
AcDbLine
 62
7
  6
CONTINUOUS
 10
378.2320645829
 20
51.200406642
 11
378.1291068217
 21
51.1009570815
  0
LINE
  5
65C
100
AcDbEntity
  8
0
100
AcDbLine
 62
7
  6
CONTINUOUS
 10
378.8312129109
 20
51.6683421553
 11
378.7679450418
 21
51.6072300865
  0
LINE
  5
65D
100
AcDbEntity
  8
0
100
AcDbLine
 62
7
  6
CONTINUOUS
 10
377.8589434401
 20
50.7149350486
 11
377.8070188944
 21
50.6647797889
  0
LINE
  5
65E
100
AcDbEntity
  8
0
100
AcDbLine
 62
7
  6
CONTINUOUS
 10
378.4753104576
 20
51.0135187683
 11
378.4196931467
 21
50.9597965714
  0
LINE
  5
65F
100
AcDbEntity
  8
0
100
AcDbLine
 62
7
  6
CONTINUOUS
 10
378.7128567514
 20
50.7934443727
 11
378.6631956834
 21
50.7454754646
  0
LINE
  5
660
100
AcDbEntity
  8
0
100
AcDbLine
 62
7
  6
CONTINUOUS
 10
378.4665205818
 20
50.5250902078
 11
378.4168595138
 21
50.4771212997
  0
LINE
  5
661
100
AcDbEntity
  8
0
100
AcDbLine
 62
7
  6
CONTINUOUS
 10
378.6803992
 20
50.3129547192
 11
378.6307381321
 21
50.2649858111
  0
LINE
  5
662
100
AcDbEntity
  8
0
100
AcDbLine
 62
7
  6
CONTINUOUS
 10
378.9683712275
 20
50.5322444455
 11
378.9246664065
 21
50.4900288301
  0
LINE
  5
663
100
AcDbEntity
  8
0
100
AcDbLine
 62
7
  6
CONTINUOUS
 10
378.8346738364
 20
50.1910091322
 11
378.7790565246
 21
50.1372869343
  0
LINE
  5
664
100
AcDbEntity
  8
0
100
AcDbLine
 62
7
  6
CONTINUOUS
 10
379.1349145424
 20
50.3359868283
 11
379.0792972316
 21
50.2822646314
  0
LINE
  5
665
100
AcDbEntity
  8
0
100
AcDbLine
 62
7
  6
CONTINUOUS
 10
378.9709803489
 20
50.1101890083
 11
378.9020584915
 21
50.0436156063
  0
LINE
  5
666
100
AcDbEntity
  8
0
100
AcDbLine
 62
7
  6
CONTINUOUS
 10
379.1129863067
 20
50.0625554515
 11
379.0100285437
 21
49.9631058893
  0
LINE
  5
667
100
AcDbEntity
  8
0
100
AcDbLine
 62
7
  6
CONTINUOUS
 10
379.1299356459
 20
50.0450082045
 11
379.0269778829
 21
49.9455586422
  0
LINE
  5
668
100
AcDbEntity
  8
0
100
AcDbLine
 62
7
  6
CONTINUOUS
 10
379.2957584411
 20
50.1065426096
 11
379.0943007772
 21
49.9119494492
  0
LINE
  5
669
100
AcDbEntity
  8
0
100
AcDbLine
 62
7
  6
CONTINUOUS
 10
379.3912987916
 20
49.9341017537
 11
379.2834166586
 21
49.8298956152
  0
LINE
  5
66A
100
AcDbEntity
  8
0
100
AcDbLine
 62
7
  6
CONTINUOUS
 10
378.4739071208
 20
48.276603145
 11
378.4069198227
 21
48.2118983837
  0
LINE
  5
66B
100
AcDbEntity
  8
0
100
AcDbLine
 62
7
  6
CONTINUOUS
 10
378.67167017
 20
48.1734607597
 11
379.0252235606
 21
48.5149671106
  0
LINE
  5
66C
100
AcDbEntity
  8
0
100
AcDbLine
 62
7
  6
CONTINUOUS
 10
378.8274605114
 20
47.9350967941
 11
378.7604732132
 21
47.8703920328
  0
LINE
  5
66D
100
AcDbEntity
  8
0
100
AcDbLine
 62
7
  6
CONTINUOUS
 10
382.0282601108
 20
47.9124298958
 11
381.9071898526
 21
47.7954850066
  0
LINE
  5
66E
100
AcDbEntity
  8
0
100
AcDbLine
 62
7
  6
CONTINUOUS
 10
368.4119280584
 20
66.7955761184
 11
368.2915694717
 21
66.696151007
  0
LINE
  5
66F
100
AcDbEntity
  8
0
100
AcDbLine
 62
7
  6
CONTINUOUS
 10
370.4580243695
 20
64.8623353148
 11
370.3376657828
 21
64.7629103268
  0
LINE
  5
670
100
AcDbEntity
  8
0
100
AcDbLine
 62
7
  6
CONTINUOUS
 10
367.9876639897
 20
61.9858663711
 11
367.867305403
 21
61.8864412597
  0
LINE
  5
671
100
AcDbEntity
  8
0
100
AcDbLine
 62
7
  6
CONTINUOUS
 10
370.3948360609
 20
59.7038531655
 11
370.2744774742
 21
59.6044281158
  0
LINE
  5
672
100
AcDbEntity
  8
0
100
AcDbLine
 62
7
  6
CONTINUOUS
 10
373.8280651239
 20
60.9600783017
 11
373.9484237212
 21
61.059503403
  0
LINE
  5
673
100
AcDbEntity
  8
0
100
AcDbLine
 62
7
  6
CONTINUOUS
 10
373.4038010552
 20
56.0209590319
 11
373.5241596525
 21
56.1203840714
  0
LINE
  5
674
100
AcDbEntity
  8
0
100
AcDbLine
 62
7
  6
CONTINUOUS
 10
390.9189864696
 20
45.9612937831
 11
390.6852278364
 21
45.7355002821
  0
LINE
  5
675
100
AcDbEntity
  8
0
100
AcDbLine
 62
7
  6
CONTINUOUS
 10
391.2725398602
 20
45.4903779096
 11
390.9189864696
 21
45.1488715586
  0
LINE
  5
676
100
AcDbEntity
  8
0
100
AcDbLine
 62
7
  6
CONTINUOUS
 10
394.2017674109
 20
41.6343125048
 11
394.115546211
 21
41.551029221
  0
LINE
  5
677
100
AcDbEntity
  8
0
100
AcDbLine
 62
7
  6
CONTINUOUS
 10
394.5869148884
 20
41.6418898591
 11
394.2333614978
 21
41.3003835082
  0
LINE
  5
678
100
AcDbEntity
  8
0
100
AcDbLine
 62
7
  6
CONTINUOUS
 10
390.1411690103
 20
37.0068935638
 11
390.0741817122
 21
36.9421888025
  0
LINE
  5
679
100
AcDbEntity
  8
0
100
AcDbLine
 62
7
  6
CONTINUOUS
 10
394.5869148884
 20
41.2622886094
 11
394.3493927357
 21
41.0328598278
  0
LINE
  5
67A
100
AcDbEntity
  8
0
100
AcDbLine
 62
7
  6
CONTINUOUS
 10
394.5869148884
 20
41.0897425711
 11
394.448960971
 21
40.9564893195
  0
LINE
  5
67B
100
AcDbEntity
  8
0
100
AcDbLine
 62
7
  6
CONTINUOUS
 10
390.9189864696
 20
36.3396300052
 11
390.808491476
 21
36.2329000372
  0
LINE
  5
67C
100
AcDbEntity
  8
0
100
AcDbLine
 62
7
  6
CONTINUOUS
 10
391.2725398602
 20
35.9140732408
 11
391.2055525621
 21
35.8493684795
  0
LINE
  5
67D
100
AcDbEntity
  8
0
100
AcDbLine
 62
7
  6
CONTINUOUS
 10
396.3200786718
 20
39.5881809498
 11
396.2307622701
 21
39.5019079307
  0
LINE
  5
67E
100
AcDbEntity
  8
0
100
AcDbLine
 62
7
  6
CONTINUOUS
 10
396.6089393473
 20
39.3436721362
 11
396.5021371659
 21
39.2405091508
  0
LINE
  5
67F
100
AcDbEntity
  8
0
100
AcDbLine
 62
7
  6
CONTINUOUS
 10
396.8015130861
 20
39.2611878066
 11
396.65384026
 21
39.1185468101
  0
LINE
  5
680
100
AcDbEntity
  8
0
100
AcDbLine
 62
7
  6
CONTINUOUS
 10
396.8977999891
 20
39.3407278631
 11
396.6615234463
 21
39.1125022482
  0
LINE
  5
681
100
AcDbEntity
  8
0
100
AcDbLine
 62
7
  6
CONTINUOUS
 10
398.6971610627
 20
38.4481540622
 11
398.3436076721
 21
38.1066477113
  0
LINE
  5
682
100
AcDbEntity
  8
0
100
AcDbLine
 62
7
  6
CONTINUOUS
 10
398.3436076721
 20
29.0839462218
 11
398.276620374
 21
29.0192414606
  0
LINE
  5
683
100
AcDbEntity
  8
0
100
AcDbLine
 62
7
  6
CONTINUOUS
 10
407.0065699156
 20
22.8233622427
 11
406.8976266538
 21
22.7181311326
  0
LINE
  5
684
100
AcDbEntity
  8
0
100
AcDbLine
 62
7
  6
CONTINUOUS
 10
407.1472737482
 20
22.7588753608
 11
406.9636680937
 21
22.5815259173
  0
LINE
  5
685
100
AcDbEntity
  8
0
100
AcDbLine
 62
7
  6
CONTINUOUS
 10
407.101545234
 20
22.5632771312
 11
407.0205638191
 21
22.4850550912
  0
LINE
  5
686
100
AcDbEntity
  8
0
100
AcDbLine
 62
7
  6
CONTINUOUS
 10
407.1150476212
 20
22.5492984314
 11
407.0340662064
 21
22.4710763913
  0
LINE
  5
687
100
AcDbEntity
  8
0
100
AcDbLine
 62
7
  6
CONTINUOUS
 10
407.1447529468
 20
22.458933806
 11
407.093559334
 21
22.4094845733
  0
LINE
  5
688
100
AcDbEntity
  8
0
100
AcDbLine
 62
7
  6
CONTINUOUS
 10
407.3757680935
 20
22.5951140474
 11
407.320383485
 21
22.5416166237
  0
LINE
  5
689
100
AcDbEntity
  8
0
100
AcDbLine
 62
7
  6
CONTINUOUS
 10
407.2377152301
 20
22.3159620338
 11
407.182330618
 21
22.2624646067
  0
LINE
  5
68A
100
AcDbEntity
  8
0
100
AcDbLine
 62
7
  6
CONTINUOUS
 10
407.3500393654
 20
22.1700201872
 11
407.3094735196
 21
22.1308365891
  0
LINE
  5
68B
100
AcDbEntity
  8
0
100
AcDbLine
 62
7
  6
CONTINUOUS
 10
407.6094342233
 20
22.3876553911
 11
407.5582406105
 21
22.3382061585
  0
LINE
  5
68C
100
AcDbEntity
  8
0
100
AcDbLine
 62
7
  6
CONTINUOUS
 10
407.5940490985
 20
21.87516684
 11
407.5513877556
 21
21.833959147
  0
LINE
  5
68D
100
AcDbEntity
  8
0
100
AcDbLine
 62
7
  6
CONTINUOUS
 10
408.1839060724
 20
22.4447030293
 11
408.0656515634
 21
22.330477945
  0
LINE
  5
68E
100
AcDbEntity
  8
0
100
AcDbLine
 62
7
  6
CONTINUOUS
 10
407.7721508909
 20
21.9765595371
 11
407.6535376342
 21
21.8619879292
  0
LINE
  5
68F
100
AcDbEntity
  8
0
100
AcDbLine
 62
7
  6
CONTINUOUS
 10
407.6818395836
 20
21.7758924128
 11
407.6433692364
 21
21.7387329109
  0
LINE
  5
690
100
AcDbEntity
  8
0
100
AcDbLine
 62
7
  6
CONTINUOUS
 10
407.9128547512
 20
21.912072651
 11
407.6721562736
 21
21.6795757751
  0
LINE
  5
691
100
AcDbEntity
  8
0
100
AcDbLine
 62
7
  6
CONTINUOUS
 10
408.3839459599
 20
22.3267612797
 11
408.1711348609
 21
22.121201543
  0
LINE
  5
692
100
AcDbEntity
  8
0
100
AcDbLine
 62
7
  6
CONTINUOUS
 10
408.2881826102
 20
22.2129638184
 11
408.1817770492
 21
22.1101839389
  0
LINE
  5
693
100
AcDbEntity
  8
0
100
AcDbLine
 62
7
  6
CONTINUOUS
 10
408.2873003712
 20
22.1511942126
 11
408.2122174686
 21
22.0786696978
  0
LINE
  5
694
100
AcDbEntity
  8
0
100
AcDbLine
 62
7
  6
CONTINUOUS
 10
407.8477644802
 20
21.719444361
 11
407.7369952632
 21
21.6124495136
  0
LINE
  5
695
100
AcDbEntity
  8
0
100
AcDbLine
 62
7
  6
CONTINUOUS
 10
407.8612668674
 20
21.7054656611
 11
407.7504976505
 21
21.5984708137
  0
LINE
  5
696
100
AcDbEntity
  8
0
100
AcDbLine
 62
7
  6
CONTINUOUS
 10
407.890972193
 20
21.6151010358
 11
407.8099907781
 21
21.5368789957
  0
LINE
  5
697
100
AcDbEntity
  8
0
100
AcDbLine
 62
7
  6
CONTINUOUS
 10
408.1413490411
 20
21.7483113461
 11
408.0859644326
 21
21.6948139223
  0
LINE
  5
698
100
AcDbEntity
  8
0
100
AcDbLine
 62
7
  6
CONTINUOUS
 10
407.9400392337
 20
21.5217664772
 11
407.8803133542
 21
21.4640757077
  0
LINE
  5
699
100
AcDbEntity
  8
0
100
AcDbLine
 62
7
  6
CONTINUOUS
 10
396.8977999891
 20
39.3407278631
 11
396.8015130861
 21
39.2611878066
  0
LINE
  5
69A
100
AcDbEntity
  8
0
100
AcDbLine
 62
7
  6
CONTINUOUS
 10
370.9966289945
 20
58.906883312
 11
371.1169875812
 21
58.9631718953
  0
LINE
  5
69B
100
AcDbEntity
  8
0
100
AcDbLine
 62
7
  6
CONTINUOUS
 10
370.8762704078
 20
58.5917756835
 11
370.9966289945
 21
58.6480642669
  0
LINE
  5
69C
100
AcDbEntity
  8
0
100
AcDbLine
 62
7
  6
CONTINUOUS
 10
372.8020080479
 20
56.8179289567
 11
372.6816494612
 21
56.7616404042
  0
LINE
  5
69D
100
AcDbEntity
  8
0
100
AcDbLine
 62
7
  6
CONTINUOUS
 10
426.1780386512
 20
10.8511339035
 11
426.274325529
 21
10.9651831576
  0
LINE
  5
69E
100
AcDbEntity
  8
0
100
AcDbLine
 62
7
  6
CONTINUOUS
 10
408.6365653123
 20
22.1238346942
 11
408.5811578761
 21
22.0703152206
  0
LINE
  5
69F
100
AcDbEntity
  8
0
100
AcDbLine
 62
7
  6
CONTINUOUS
 10
408.4183077191
 20
21.9078473177
 11
408.3658081795
 21
21.8571366565
  0
LINE
  5
6A0
100
AcDbEntity
  8
0
100
AcDbLine
 62
7
  6
CONTINUOUS
 10
408.0523633076
 20
21.3758247001
 11
408.0013199724
 21
21.3265206244
  0
LINE
  5
6A1
100
AcDbEntity
  8
0
100
AcDbLine
 62
7
  6
CONTINUOUS
 10
408.3311199283
 20
21.5904899034
 11
408.2778308177
 21
21.5390165752
  0
LINE
  5
6A2
100
AcDbEntity
  8
0
100
AcDbLine
 62
7
  6
CONTINUOUS
 10
408.8357229608
 20
21.9441233389
 11
408.7839344649
 21
21.8940994931
  0
LINE
  5
6A3
100
AcDbEntity
  8
0
100
AcDbLine
 62
7
  6
CONTINUOUS
 10
408.1840490352
 20
21.2269130594
 11
408.1392921937
 21
21.1836812702
  0
LINE
  5
6A4
100
AcDbEntity
  8
0
100
AcDbLine
 62
7
  6
CONTINUOUS
 10
408.6295075116
 20
21.629677713
 11
408.5815458813
 21
21.5833503357
  0
LINE
  5
6A5
100
AcDbEntity
  8
0
100
AcDbLine
 62
7
  6
CONTINUOUS
 10
408.5893195992
 20
21.3363639647
 11
408.5423169822
 21
21.290962923
  0
LINE
  5
6A6
100
AcDbEntity
  8
0
100
AcDbLine
 62
7
  6
CONTINUOUS
 10
408.3350964781
 20
21.0750314853
 11
408.2880938634
 21
21.0296304459
  0
LINE
  5
6A7
100
AcDbEntity
  8
0
100
AcDbLine
 62
7
  6
CONTINUOUS
 10
409.0478048393
 20
21.7277234063
 11
409.004834956
 21
21.6862176862
  0
LINE
  5
6A8
100
AcDbEntity
  8
0
100
AcDbLine
 62
7
  6
CONTINUOUS
 10
409.6351463302
 20
22.0821783368
 11
409.5720611423
 21
22.0212427245
  0
LINE
  5
6A9
100
AcDbEntity
  8
0
100
AcDbLine
 62
7
  6
CONTINUOUS
 10
408.5055056808
 20
20.9201799411
 11
408.4543120681
 21
20.8707307085
  0
LINE
  5
6AA
100
AcDbEntity
  8
0
100
AcDbLine
 62
7
  6
CONTINUOUS
 10
409.1935010481
 20
21.5712270793
 11
409.153359721
 21
21.5324535348
  0
LINE
  5
6AB
100
AcDbEntity
  8
0
100
AcDbLine
 62
7
  6
CONTINUOUS
 10
408.9070930849
 20
21.2916043674
 11
408.8633328406
 21
21.2493352173
  0
LINE
  5
6AC
100
AcDbEntity
  8
0
100
AcDbLine
 62
7
  6
CONTINUOUS
 10
408.8087958734
 20
21.0881778272
 11
408.7534112649
 21
21.0346804034
  0
LINE
  5
6AD
100
AcDbEntity
  8
0
100
AcDbLine
 62
7
  6
CONTINUOUS
 10
408.6513813254
 20
20.8119957121
 11
408.5959967162
 21
20.7584982877
  0
LINE
  5
6AE
100
AcDbEntity
  8
0
100
AcDbLine
 62
7
  6
CONTINUOUS
 10
409.8656474208
 20
21.8415073266
 11
409.7818734197
 21
21.7605878553
  0
LINE
  5
6AF
100
AcDbEntity
  8
0
100
AcDbLine
 62
7
  6
CONTINUOUS
 10
408.7533617276
 20
20.7534486966
 11
408.6744758098
 21
20.6772507514
  0
LINE
  5
6B0
100
AcDbEntity
  8
0
100
AcDbLine
 62
7
  6
CONTINUOUS
 10
409.4185071566
 20
21.3181385695
 11
409.3747469352
 21
21.2758694416
  0
LINE
  5
6B1
100
AcDbEntity
  8
0
100
AcDbLine
 62
7
  6
CONTINUOUS
 10
408.9895486587
 20
20.8459315952
 11
408.9085672438
 21
20.7677095551
  0
LINE
  5
6B2
100
AcDbEntity
  8
0
100
AcDbLine
 62
7
  6
CONTINUOUS
 10
408.8888937758
 20
20.7326591575
 11
408.7743805584
 21
20.6220478835
  0
LINE
  5
6B3
100
AcDbEntity
  8
0
100
AcDbLine
 62
7
  6
CONTINUOUS
 10
409.1717543309
 20
20.9902195978
 11
409.1316130498
 21
20.9514460977
  0
LINE
  5
6B4
100
AcDbEntity
  8
0
100
AcDbLine
 62
7
  6
CONTINUOUS
 10
409.9895317098
 20
21.6698116571
 11
409.9264465529
 21
21.6088760747
  0
LINE
  5
6B5
100
AcDbEntity
  8
0
100
AcDbLine
 62
7
  6
CONTINUOUS
 10
409.1070444847
 20
20.6562925252
 11
408.9706784728
 21
20.5245730725
  0
LINE
  5
6B6
100
AcDbEntity
  8
0
100
AcDbLine
 62
7
  6
CONTINUOUS
 10
409.5166081048
 20
20.6540120169
 11
409.4648196089
 21
20.6039881711
  0
LINE
  5
6B7
100
AcDbEntity
  8
0
100
AcDbLine
 62
7
  6
CONTINUOUS
 10
409.7754028938
 20
20.8834728395
 11
409.7219955533
 21
20.8318853101
  0
LINE
  5
6B8
100
AcDbEntity
  8
0
100
AcDbLine
 62
7
  6
CONTINUOUS
 10
409.6761106715
 20
20.5225968537
 11
409.620703234
 21
20.4690773789
  0
LINE
  5
6B9
100
AcDbEntity
  8
0
100
AcDbLine
 62
7
  6
CONTINUOUS
 10
409.9469476599
 20
20.6535993594
 11
409.8795739089
 21
20.5885213132
  0
LINE
  5
6BA
100
AcDbEntity
  8
0
100
AcDbLine
 62
7
  6
CONTINUOUS
 10
409.849419707
 20
20.4162627191
 11
409.7867743881
 21
20.3557519877
  0
LINE
  5
6BB
100
AcDbEntity
  8
0
100
AcDbLine
 62
7
  6
CONTINUOUS
 10
410.0391820537
 20
20.5203183977
 11
409.9640991715
 21
20.4477939027
  0
LINE
  5
6BC
100
AcDbEntity
  8
0
100
AcDbLine
 62
7
  6
CONTINUOUS
 10
409.9434187318
 20
20.4065209026
 11
409.8370131456
 21
20.3037409988
  0
LINE
  5
6BD
100
AcDbEntity
  8
0
100
AcDbLine
 62
7
  6
CONTINUOUS
 10
408.6673666774
 20
19.1119607742
 11
408.6003793793
 21
19.0472560129
  0
LINE
  5
6BE
100
AcDbEntity
  8
0
100
AcDbLine
 62
7
  6
CONTINUOUS
 10
408.782058858
 20
19.0408777643
 11
409.1356122486
 21
19.3823841152
  0
LINE
  5
6BF
100
AcDbEntity
  8
0
100
AcDbLine
 62
7
  6
CONTINUOUS
 10
410.1443408582
 20
20.3503487587
 11
409.9948416921
 21
20.2059436531
  0
LINE
  5
6C0
100
AcDbEntity
  8
0
100
AcDbLine
 62
7
  6
CONTINUOUS
 10
410.1831137151
 20
20.2402829438
 11
410.1048401011
 21
20.1646764385
  0
LINE
  5
6C1
100
AcDbEntity
  8
0
100
AcDbLine
 62
7
  6
CONTINUOUS
 10
408.9502093899
 20
18.8387556935
 11
408.8832220918
 21
18.7740509322
  0
LINE
  5
6C2
100
AcDbEntity
  8
0
100
AcDbLine
 62
7
  6
CONTINUOUS
 10
413.1822755948
 20
19.539045982
 11
412.9729888381
 21
19.3368904987
  0
LINE
  5
6C3
100
AcDbEntity
  8
0
100
AcDbLine
 62
7
  6
CONTINUOUS
 10
414.3111004886
 20
17.1533915818
 11
414.2402067723
 21
17.0849135103
  0
LINE
  5
6C4
100
AcDbEntity
  8
0
100
AcDbLine
 62
7
  6
CONTINUOUS
 10
420.1224965326
 20
17.7528691949
 11
419.7689431421
 21
17.411362844
  0
LINE
  5
6C5
100
AcDbEntity
  8
0
100
AcDbLine
 62
7
  6
CONTINUOUS
 10
420.6174712795
 20
17.145350781
 11
420.2639178889
 21
16.8038444301
  0
LINE
  5
6C6
100
AcDbEntity
  8
0
100
AcDbLine
 62
7
  6
CONTINUOUS
 10
423.1931454396
 20
13.6307917272
 11
423.1069242397
 21
13.5475084435
  0
LINE
  5
6C7
100
AcDbEntity
  8
0
100
AcDbLine
 62
7
  6
CONTINUOUS
 10
423.578292917
 20
13.6383690815
 11
423.2247395264
 21
13.2968627306
  0
LINE
  5
6C8
100
AcDbEntity
  8
0
100
AcDbLine
 62
7
  6
CONTINUOUS
 10
423.578292917
 20
13.2587678318
 11
423.3407707644
 21
13.0293390502
  0
LINE
  5
6C9
100
AcDbEntity
  8
0
100
AcDbLine
 62
7
  6
CONTINUOUS
 10
423.578292917
 20
13.0862217935
 11
423.4403389996
 21
12.9529685419
  0
LINE
  5
6CA
100
AcDbEntity
  8
0
100
AcDbLine
 62
7
  6
CONTINUOUS
 10
419.5568111077
 20
8.5935651651
 11
419.4898238096
 21
8.5288604038
  0
LINE
  5
6CB
100
AcDbEntity
  8
0
100
AcDbLine
 62
7
  6
CONTINUOUS
 10
420.2639178889
 20
7.9833897163
 11
420.1592272542
 21
7.8822663285
  0
LINE
  5
6CC
100
AcDbEntity
  8
0
100
AcDbLine
 62
7
  6
CONTINUOUS
 10
420.6174712795
 20
7.5690461122
 11
420.5504839814
 21
7.504341351
  0
LINE
  5
6CD
100
AcDbEntity
  8
0
100
AcDbLine
 62
7
  6
CONTINUOUS
 10
425.3114567005
 20
11.5846601722
 11
425.2221402987
 21
11.4983871531
  0
LINE
  5
6CE
100
AcDbEntity
  8
0
100
AcDbLine
 62
7
  6
CONTINUOUS
 10
425.600317376
 20
11.3401513586
 11
425.4935151945
 21
11.2369883732
  0
LINE
  5
6CF
100
AcDbEntity
  8
0
100
AcDbLine
 62
7
  6
CONTINUOUS
 10
425.7928911147
 20
11.257667029
 11
425.6452182887
 21
11.1150260325
  0
LINE
  5
6D0
100
AcDbEntity
  8
0
100
AcDbLine
 62
7
  6
CONTINUOUS
 10
425.8891780178
 20
11.3372070855
 11
425.652901475
 21
11.1089814707
  0
LINE
  5
6D1
100
AcDbEntity
  8
0
100
AcDbLine
 62
7
  6
CONTINUOUS
 10
428.0420924819
 20
10.1031269337
 11
427.6885390913
 21
9.7616205828
  0
LINE
  5
6D2
100
AcDbEntity
  8
0
100
AcDbLine
 62
7
  6
CONTINUOUS
 10
427.6885390913
 20
0.7389190933
 11
427.6215517932
 21
0.674214332
  0
LINE
  5
6D3
100
AcDbEntity
  8
0
100
AcDbLine
 62
7
  6
CONTINUOUS
 10
406.9291230546
 20
22.8352419757
 11
406.8762096933
 21
22.8004544326
  0
LINE
  5
6D4
100
AcDbEntity
  8
0
100
AcDbLine
 62
7
  6
CONTINUOUS
 10
407.6753423008
 20
21.9914092055
 11
407.6224289395
 21
21.9566216624
  0
LINE
  5
6D5
100
AcDbEntity
  8
0
100
AcDbLine
 62
7
  6
CONTINUOUS
 10
409.0890082901
 20
20.4874429902
 11
409.1419216615
 21
20.5222305355
  0
LINE
  5
6D6
100
AcDbEntity
  8
0
100
AcDbLine
 62
7
  6
CONTINUOUS
 10
378.0852288318
 20
51.0741685125
 11
378.1382636868
 21
51.0914771971
  0
LINE
  5
6D7
100
AcDbEntity
  8
0
100
AcDbLine
 62
7
  6
CONTINUOUS
 10
379.1660211617
 20
50.0798641362
 11
379.1129863067
 21
50.0625554515
  0
LINE
  5
6D8
100
AcDbEntity
  8
RUNDUNGEN
100
AcDbLine
 62
7
  6
CONTINUOUS
 10
440.3175796281
 20
-7.9082956851
 11
443.853113534
 21
-4.4932321756
  0
LINE
  5
6D9
100
AcDbEntity
  8
RUNDUNGEN
100
AcDbLine
 62
7
  6
CONTINUOUS
 10
453.8416018428
 20
-15.4872410899
 11
457.3771357487
 21
-12.0721775804
  0
LINE
  5
6DA
100
AcDbEntity
  8
0
100
AcDbLine
 62
7
  6
CONTINUOUS
 10
425.8891780178
 20
11.3372070855
 11
425.7928911147
 21
11.257667029
  0
LINE
  5
6DB
100
AcDbEntity
  8
RUNDUNGEN
100
AcDbLine
 62
7
  6
CONTINUOUS
 10
453.7526084706
 20
-38.8995463168
 11
457.2881423765
 21
-35.4844828073
  0
ARC
  5
6DC
100
AcDbEntity
  8
KONSTRUKTIONSELEMENTE
100
AcDbCircle
 62
7
  6
CONTINUOUS
 10
667.0378127485
 20
7.3442099979
 40
57.6108
100
AcDbArc
 50
42.6179865928
 51
65.7605878645
  0
ARC
  5
6DD
100
AcDbEntity
  8
KONSTRUKTIONSELEMENTE
100
AcDbCircle
 62
7
  6
CONTINUOUS
 10
667.0378127485
 20
7.3442099979
 40
57.6108
100
AcDbArc
 50
84.2394121355
 51
107.3820134072
  0
ARC
  5
6DE
100
AcDbEntity
  8
BEZUGSACHSEN
100
AcDbCircle
 62
7
  6
CONTINUOUS
 10
704.6065877127
 20
147.5527869426
 40
23.0
100
AcDbArc
 50
119.1060203689
 51
30.8939796311
  0
ARC
  5
6DF
100
AcDbEntity
  8
0
100
AcDbCircle
 62
7
  6
CONTINUOUS
 10
706.4183210284
 20
154.3142677266
 40
16.0
100
AcDbArc
 50
165.0
 51
345.0
  0
ARC
  5
6E0
100
AcDbEntity
  8
RUNDUNGEN
100
AcDbCircle
 62
7
  6
CONTINUOUS
 10
661.775192391
 20
124.8653107762
 40
10.0
100
AcDbArc
 50
83.3778284426
 51
165.0
  0
ARC
  5
6E1
100
AcDbEntity
  8
RUNDUNGEN
100
AcDbCircle
 62
7
  6
CONTINUOUS
 10
730.3559260576
 20
106.4891585739
 40
10.0
100
AcDbArc
 50
345.0
 51
66.6221715574
  0
ARC
  5
6E2
100
AcDbEntity
  8
KONSTRUKTIONSELEMENTE
100
AcDbCircle
 62
7
  6
CONTINUOUS
 10
692.5067973541
 20
102.3957545636
 40
9.25
100
AcDbArc
 50
345.0
 51
165.0
  0
ARC
  5
6E3
100
AcDbEntity
  8
RUNDUNGEN
100
AcDbCircle
 62
7
  6
CONTINUOUS
 10
661.8120683914
 20
126.1118194808
 40
8.7654812864
100
AcDbArc
 50
73.1236775843
 51
74.7802372715
  0
ARC
  5
6E4
100
AcDbEntity
  8
RUNDUNGEN
100
AcDbCircle
 62
7
  6
CONTINUOUS
 10
730.9475754663
 20
107.5884420155
 40
8.764103954
100
AcDbArc
 50
75.219622331
 51
76.8621277479
  0
ARC
  5
6E5
100
AcDbEntity
  8
RUNDUNGEN
100
AcDbCircle
 62
7
  6
CONTINUOUS
 10
731.125555844
 20
108.2643886977
 40
8.0651184057
100
AcDbArc
 50
66.6367431021
 51
75.2171164423
  0
ARC
  5
6E6
100
AcDbEntity
  8
RUNDUNGEN
100
AcDbCircle
 62
7
  6
CONTINUOUS
 10
661.9962885064
 20
126.7875200541
 40
8.0651184057
100
AcDbArc
 50
74.7828835577
 51
83.3632568979
  0
ARC
  5
6E7
100
AcDbEntity
  8
RUNDUNGEN
100
AcDbCircle
 62
7
  6
CONTINUOUS
 10
718.2768740976
 20
51.750264689
 40
7.5
100
AcDbArc
 50
255.0
 51
255.8750417703
  0
ARC
  5
6E8
100
AcDbEntity
  8
RUNDUNGEN
100
AcDbCircle
 62
7
  6
CONTINUOUS
 10
644.8665112996
 20
71.4205121168
 40
7.5
100
AcDbArc
 50
254.1249582297
 51
255.0
  0
ARC
  5
6E9
100
AcDbEntity
  8
0
100
AcDbCircle
 62
7
  6
CONTINUOUS
 10
698.9606490332
 20
49.4378648393
 40
3.4067389929
100
AcDbArc
 50
335.5636876714
 51
340.3957076166
  0
ARC
  5
6EA
100
AcDbEntity
  8
RUNDUNGEN
100
AcDbCircle
 62
7
  6
CONTINUOUS
 10
637.5744899934
 20
78.4519406583
 40
3.3795221867
100
AcDbArc
 50
292.7882030539
 51
296.5825901981
  0
CIRCLE
  5
6EB
100
AcDbEntity
  8
BEZUGSACHSEN
100
AcDbCircle
 62
7
  6
CONTINUOUS
 10
659.2311993851
 20
87.5523358266
 40
3.0
  0
ARC
  5
6EC
100
AcDbEntity
  8
KONSTRUKTIONSELEMENTE
100
AcDbCircle
 62
7
  6
CONTINUOUS
 10
683.7687092999
 20
69.7847659843
 40
2.5
100
AcDbArc
 50
185.7781638084
 51
324.2218361916
  0
ARC
  5
6ED
100
AcDbEntity
  8
KONSTRUKTIONSELEMENTE
100
AcDbCircle
 62
7
  6
CONTINUOUS
 10
689.5959089884
 20
91.5321712875
 40
2.5
100
AcDbArc
 50
345.0
 51
165.0
  0
ARC
  5
6EE
100
AcDbEntity
  8
KONSTRUKTIONSELEMENTE
100
AcDbCircle
 62
7
  6
CONTINUOUS
 10
699.5993080136
 20
128.8653646979
 40
2.5
100
AcDbArc
 50
165.0
 51
345.0
  0
ARC
  5
6EF
100
AcDbEntity
  8
KONSTRUKTIONSELEMENTE
100
AcDbCircle
 62
7
  6
CONTINUOUS
 10
691.691050552
 20
99.3513460519
 40
2.25
100
AcDbArc
 50
165.0
 51
345.0
  0
ARC
  5
6F0
100
AcDbEntity
  8
0
100
AcDbCircle
 62
7
  6
CONTINUOUS
 10
662.688890581
 20
58.1103730277
 40
0.6671356336
100
AcDbArc
 50
63.8903114984
 51
74.9692795104
  0
ARC
  5
6F1
100
AcDbEntity
  8
0
100
AcDbCircle
 62
7
  6
CONTINUOUS
 10
758.6997681391
 20
349.431284637
 40
16.0
100
AcDbArc
 50
345.0
 51
165.0
  0
ARC
  5
6F2
100
AcDbEntity
  8
KONSTRUKTIONSELEMENTE
100
AcDbCircle
 62
7
  6
CONTINUOUS
 10
906.7842753621
 20
7.3442099979
 40
57.6108
100
AcDbArc
 50
114.2394121355
 51
137.3820134072
  0
ARC
  5
6F3
100
AcDbEntity
  8
KONSTRUKTIONSELEMENTE
100
AcDbCircle
 62
7
  6
CONTINUOUS
 10
906.7842753621
 20
7.3442099979
 40
57.6108
100
AcDbArc
 50
72.6179865928
 51
95.7605878645
  0
ARC
  5
6F4
100
AcDbEntity
  8
BEZUGSACHSEN
100
AcDbCircle
 62
7
  6
CONTINUOUS
 10
869.2155003979
 20
147.5527869426
 40
23.0
100
AcDbArc
 50
149.1060203689
 51
60.8939796311
  0
ARC
  5
6F5
100
AcDbEntity
  8
0
100
AcDbCircle
 62
7
  6
CONTINUOUS
 10
867.4037670822
 20
154.3142677266
 40
16.0
100
AcDbArc
 50
195.0
 51
15.0
  0
ARC
  5
6F6
100
AcDbEntity
  8
0
100
AcDbCircle
 62
7
  6
CONTINUOUS
 10
843.466162053
 20
106.4891585739
 40
10.0
100
AcDbArc
 50
113.3778284426
 51
195.0
  0
ARC
  5
6F7
100
AcDbEntity
  8
0
100
AcDbCircle
 62
7
  6
CONTINUOUS
 10
912.0468957195
 20
124.8653107762
 40
10.0
100
AcDbArc
 50
15.0
 51
96.6221715574
  0
ARC
  5
6F8
100
AcDbEntity
  8
0
100
AcDbCircle
 62
7
  6
CONTINUOUS
 10
881.3152907564
 20
102.3957545636
 40
9.25
100
AcDbArc
 50
15.0
 51
195.0
  0
ARC
  5
6F9
100
AcDbEntity
  8
0
100
AcDbCircle
 62
7
  6
CONTINUOUS
 10
912.0100197192
 20
126.1118194808
 40
8.7654812864
100
AcDbArc
 50
105.2197627285
 51
106.8763224157
  0
ARC
  5
6FA
100
AcDbEntity
  8
0
100
AcDbCircle
 62
7
  6
CONTINUOUS
 10
842.8745126443
 20
107.5884420155
 40
8.764103954
100
AcDbArc
 50
103.1378722521
 51
104.780377669
  0
ARC
  5
6FB
100
AcDbEntity
  8
0
100
AcDbCircle
 62
7
  6
CONTINUOUS
 10
842.6965322666
 20
108.2643886977
 40
8.0651184057
100
AcDbArc
 50
104.7828835577
 51
113.3632568979
  0
ARC
  5
6FC
100
AcDbEntity
  8
0
100
AcDbCircle
 62
7
  6
CONTINUOUS
 10
911.8257996042
 20
126.7875200541
 40
8.0651184057
100
AcDbArc
 50
96.6367431021
 51
105.2171164423
  0
ARC
  5
6FD
100
AcDbEntity
  8
0
100
AcDbCircle
 62
7
  6
CONTINUOUS
 10
855.545214013
 20
51.750264689
 40
7.5
100
AcDbArc
 50
284.1249582297
 51
285.0
  0
ARC
  5
6FE
100
AcDbEntity
  8
0
100
AcDbCircle
 62
7
  6
CONTINUOUS
 10
928.955576811
 20
71.4205121168
 40
7.5
100
AcDbArc
 50
285.0
 51
285.8750417703
  0
CIRCLE
  5
6FF
100
AcDbEntity
  8
BEZUGSACHSEN
100
AcDbCircle
 62
7
  6
CONTINUOUS
 10
914.5908887255
 20
87.5523358266
 40
3.0
  0
ARC
  5
700
100
AcDbEntity
  8
0
100
AcDbCircle
 62
7
  6
CONTINUOUS
 10
786.9110440553
 20
454.7171997025
 40
165.0
100
AcDbArc
 50
180.0
 51
249.4346171838
  0
ARC
  5
701
100
AcDbEntity
  8
0
100
AcDbCircle
 62
7
  6
CONTINUOUS
 10
786.9110440553
 20
454.7171997025
 40
165.0
100
AcDbArc
 50
260.56517534
 51
279.43482466
  0
ARC
  5
702
100
AcDbEntity
  8
0
100
AcDbCircle
 62
7
  6
CONTINUOUS
 10
786.9110440553
 20
454.7171997025
 40
165.0
100
AcDbArc
 50
290.5653828162
 51
360.0
  0
ARC
  5
703
100
AcDbEntity
  8
0
100
AcDbCircle
 62
7
  6
CONTINUOUS
 10
786.9110440553
 20
664.7171997025
 40
165.0
100
AcDbArc
 50
0.0
 51
180.0
  0
ARC
  5
704
100
AcDbEntity
  8
0
100
AcDbCircle
 62
7
  6
CONTINUOUS
 10
786.9110440553
 20
454.7171997025
 40
125.0
100
AcDbArc
 50
180.0
 51
247.6450644974
  0
ARC
  5
705
100
AcDbEntity
  8
0
100
AcDbCircle
 62
7
  6
CONTINUOUS
 10
786.9110440553
 20
454.7171997025
 40
125.0
100
AcDbArc
 50
262.3546868321
 51
277.6453131679
  0
ARC
  5
706
100
AcDbEntity
  8
0
100
AcDbCircle
 62
7
  6
CONTINUOUS
 10
786.9110440553
 20
454.7171997025
 40
125.0
100
AcDbArc
 50
292.3549355026
 51
360.0
  0
ARC
  5
707
100
AcDbEntity
  8
0
100
AcDbCircle
 62
7
  6
CONTINUOUS
 10
786.9110440553
 20
664.7171997025
 40
125.0
100
AcDbArc
 50
0.0
 51
180.0
  0
ARC
  5
708
100
AcDbEntity
  8
0
100
AcDbCircle
 62
7
  6
CONTINUOUS
 10
815.1223199715
 20
349.431284637
 40
16.0
100
AcDbArc
 50
15.0
 51
195.0
  0
ARC
  5
709
100
AcDbEntity
  8
0
100
AcDbCircle
 62
7
  6
CONTINUOUS
 10
91.335875442
 20
147.2938708359
 40
130.3661725479
100
AcDbArc
 50
1.3461910976
 51
6.4276062383
  0
ARC
  5
70A
100
AcDbEntity
  8
0
100
AcDbCircle
 62
7
  6
CONTINUOUS
 10
216.6171649072
 20
127.566713841
 40
65.2411399536
100
AcDbArc
 50
269.0376062152
 51
270.9623937848
  0
ARC
  5
70B
100
AcDbEntity
  8
0
100
AcDbCircle
 62
7
  6
CONTINUOUS
 10
216.6171649072
 20
-18.8848244293
 40
65.2411399534
100
AcDbArc
 50
89.0376062152
 51
90.9623937848
  0
ARC
  5
70C
100
AcDbEntity
  8
KONSTRUKTIONSELEMENTE
100
AcDbCircle
 62
7
  6
CONTINUOUS
 10
215.4865632927
 20
69.2176128847
 40
24.6306019244
100
AcDbArc
 50
352.888499475
 51
0.0090885632
  0
ARC
  5
70D
100
AcDbEntity
  8
0
100
AcDbCircle
 62
7
  6
CONTINUOUS
 10
216.6171649072
 20
309.7171997025
 40
20.0
100
AcDbArc
 50
180.0
 51
360.0
  0
ARC
  5
70E
100
AcDbEntity
  8
BEZUGSACHSEN
100
AcDbCircle
 62
7
  6
CONTINUOUS
 10
216.6171649072
 20
182.5527869426
 40
12.0
100
AcDbArc
 50
0.0
 51
23.361736267
  0
ARC
  5
70F
100
AcDbEntity
  8
BEZUGSACHSEN
100
AcDbCircle
 62
7
  6
CONTINUOUS
 10
216.6171649072
 20
182.5527869426
 40
12.0
100
AcDbArc
 50
156.638263733
 51
180.0
  0
ARC
  5
710
100
AcDbEntity
  8
BEZUGSACHSEN
100
AcDbCircle
 62
7
  6
CONTINUOUS
 10
217.3403685482
 20
90.841416587
 40
10.6518951213
100
AcDbArc
 50
4.1940588927
 51
5.8513017697
  0
ARC
  5
711
100
AcDbEntity
  8
BEZUGSACHSEN
100
AcDbCircle
 62
7
  6
CONTINUOUS
 10
215.8939612661
 20
90.841416587
 40
10.6518951213
100
AcDbArc
 50
174.1486982303
 51
175.8059411073
  0
ARC
  5
712
100
AcDbEntity
  8
BEZUGSACHSEN
100
AcDbCircle
 62
7
  6
CONTINUOUS
 10
217.3674045612
 20
90.8433382608
 40
10.6247909679
100
AcDbArc
 50
2.0416643524
 51
4.1943864704
  0
ARC
  5
713
100
AcDbEntity
  8
BEZUGSACHSEN
100
AcDbCircle
 62
7
  6
CONTINUOUS
 10
215.8669252532
 20
90.8433382608
 40
10.624790968
100
AcDbArc
 50
175.8056135296
 51
177.9583356476
  0
ARC
  5
714
100
AcDbEntity
  8
0
100
AcDbCircle
 62
7
  6
CONTINUOUS
 10
206.1171649072
 20
127.3653107762
 40
7.5
100
AcDbArc
 50
90.0
 51
180.0
  0
ARC
  5
715
100
AcDbEntity
  8
RUNDUNGEN
100
AcDbCircle
 62
7
  6
CONTINUOUS
 10
227.1171649072
 20
127.3653107762
 40
7.5
100
AcDbArc
 50
0.0
 51
90.0
  0
ARC
  5
716
100
AcDbEntity
  8
0
100
AcDbCircle
 62
7
  6
CONTINUOUS
 10
216.6171649072
 20
809.7171997025
 40
20.0
100
AcDbArc
 50
0.0
 51
180.0
  0
ARC
  5
717
100
AcDbEntity
  8
0
100
AcDbCircle
 62
7
  6
CONTINUOUS
 10
341.8984543723
 20
147.2938708359
 40
130.3661725479
100
AcDbArc
 50
173.5723937617
 51
178.6538089024
  0
ARC
  5
718
100
AcDbEntity
  8
0
100
AcDbCircle
 62
7
  6
CONTINUOUS
 10
391.4927055912
 20
-13.0844506643
 40
37.786857643
100
AcDbArc
 50
52.5927032515
 51
52.9699542491
  0
ARC
  5
719
100
AcDbEntity
  8
0
100
AcDbCircle
 62
7
  6
CONTINUOUS
 10
392.2237204101
 20
-12.1168396053
 40
36.574152786
100
AcDbArc
 50
52.9712945736
 51
53.0991122674
  0
ARC
  5
71A
100
AcDbEntity
  8
KONSTRUKTIONSELEMENTE
100
AcDbCircle
 62
7
  6
CONTINUOUS
 10
284.2431511672
 20
99.2028378291
 40
33.1455707138
100
AcDbArc
 50
44.5353474264
 51
45.9812535784
  0
ARC
  5
71B
100
AcDbEntity
  8
0
100
AcDbCircle
 62
7
  6
CONTINUOUS
 10
373.2861921194
 20
32.8952922732
 40
17.2186171157
100
AcDbArc
 50
58.5342940761
 51
59.8283985839
  0
ARC
  5
71C
100
AcDbEntity
  8
KONSTRUKTIONSELEMENTE
100
AcDbCircle
 62
7
  6
CONTINUOUS
 10
346.944152217
 20
97.3356741803
 40
15.6688141196
100
AcDbArc
 50
233.3753354951
 51
233.5160582161
  0
ARC
  5
71D
100
AcDbEntity
  8
0
100
AcDbCircle
 62
7
  6
CONTINUOUS
 10
374.3278058366
 20
34.6740680301
 40
15.1573179389
100
AcDbArc
 50
59.8529784565
 51
60.352815869
  0
ARC
  5
71E
100
AcDbEntity
  8
KONSTRUKTIONSELEMENTE
100
AcDbCircle
 62
7
  6
CONTINUOUS
 10
286.9815736583
 20
125.5008548639
 40
12.2468399837
100
AcDbArc
 50
55.2809419387
 51
55.5610984188
  0
ARC
  5
71F
100
AcDbEntity
  8
KONSTRUKTIONSELEMENTE
100
AcDbCircle
 62
7
  6
CONTINUOUS
 10
287.1718636306
 20
125.7782787055
 40
11.9104261623
100
AcDbArc
 50
55.5613249793
 51
55.7966521662
  0
ARC
  5
720
100
AcDbEntity
  8
KONSTRUKTIONSELEMENTE
100
AcDbCircle
 62
7
  6
CONTINUOUS
 10
350.5783336693
 20
77.0899585083
 40
9.805121219
100
AcDbArc
 50
265.1539129968
 51
274.1943188656
  0
ARC
  5
721
100
AcDbEntity
  8
KONSTRUKTIONSELEMENTE
100
AcDbCircle
 62
7
  6
CONTINUOUS
 10
350.4474861814
 20
76.8089188272
 40
9.4899052019
100
AcDbArc
 50
226.0111721295
 51
233.2815364976
  0
ARC
  5
722
100
AcDbEntity
  8
KONSTRUKTIONSELEMENTE
100
AcDbCircle
 62
7
  6
CONTINUOUS
 10
289.6382457139
 20
135.5617916869
 40
9.3523666136
100
AcDbArc
 50
45.4559945702
 51
45.9929150436
  0
ARC
  5
723
100
AcDbEntity
  8
KONSTRUKTIONSELEMENTE
100
AcDbCircle
 62
7
  6
CONTINUOUS
 10
350.8029822881
 20
76.4811929748
 40
9.3523666115
100
AcDbArc
 50
45.4559945701
 51
45.9929150437
  0
ARC
  5
724
100
AcDbEntity
  8
KONSTRUKTIONSELEMENTE
100
AcDbCircle
 62
7
  6
CONTINUOUS
 10
341.7268775165
 20
84.7192384759
 40
9.1128567777
100
AcDbArc
 50
155.3174888113
 51
179.9666787515
  0
ARC
  5
725
100
AcDbEntity
  8
KONSTRUKTIONSELEMENTE
100
AcDbCircle
 62
7
  6
CONTINUOUS
 10
321.4529303856
 20
104.8139150426
 40
7.8374984551
100
AcDbArc
 50
45.416289493
 51
45.9929054453
  0
ARC
  5
726
100
AcDbEntity
  8
KONSTRUKTIONSELEMENTE
100
AcDbCircle
 62
7
  6
CONTINUOUS
 10
310.3042010488
 20
115.1477450813
 40
7.6417945598
100
AcDbArc
 50
159.7236942383
 51
179.9651547733
  0
ARC
  5
727
100
AcDbEntity
  8
KONSTRUKTIONSELEMENTE
100
AcDbCircle
 62
7
  6
CONTINUOUS
 10
289.2139637424
 20
135.8140471011
 40
4.3878335167
100
AcDbArc
 50
225.9937050332
 51
227.0555598991
  0
ARC
  5
728
100
AcDbEntity
  8
KONSTRUKTIONSELEMENTE
100
AcDbCircle
 62
7
  6
CONTINUOUS
 10
351.0115661567
 20
76.5982856296
 40
4.1169111276
100
AcDbArc
 50
333.6771414241
 51
359.9715259484
  0
ARC
  5
729
100
AcDbEntity
  8
KONSTRUKTIONSELEMENTE
100
AcDbCircle
 62
7
  6
CONTINUOUS
 10
289.8495552945
 20
135.6784690033
 40
4.1141852319
100
AcDbArc
 50
334.689527825
 51
359.977291273
  0
ARC
  5
72A
100
AcDbEntity
  8
KONSTRUKTIONSELEMENTE
100
AcDbCircle
 62
7
  6
CONTINUOUS
 10
341.6984009381
 20
84.7231317506
 40
4.0843599295
100
AcDbArc
 50
179.6607782886
 51
180.0341463988
  0
ARC
  5
72B
100
AcDbEntity
  8
KONSTRUKTIONSELEMENTE
100
AcDbCircle
 62
7
  6
CONTINUOUS
 10
321.1022817008
 20
105.0149145207
 40
3.3624399505
100
AcDbArc
 50
225.9940708965
 51
227.2341816413
  0
ARC
  5
72C
100
AcDbEntity
  8
KONSTRUKTIONSELEMENTE
100
AcDbCircle
 62
7
  6
CONTINUOUS
 10
321.6401947021
 20
104.9060991197
 40
3.1286794214
100
AcDbArc
 50
342.3964861857
 51
359.9749659755
  0
ARC
  5
72D
100
AcDbEntity
  8
0
100
AcDbCircle
 62
7
  6
CONTINUOUS
 10
378.8522529447
 20
46.8194219843
 40
1.8985132715
100
AcDbArc
 50
83.6246845517
 51
85.0861320608
  0
ARC
  5
72E
100
AcDbEntity
  8
0
100
AcDbCircle
 62
7
  6
CONTINUOUS
 10
379.0658518091
 20
48.4732885587
 40
0.5582139601
100
AcDbArc
 50
134.0541108738
 51
142.3924513511
  0
ARC
  5
72F
100
AcDbEntity
  8
0
100
AcDbCircle
 62
7
  6
CONTINUOUS
 10
379.0437998776
 20
47.7886975657
 40
0.5352583515
100
AcDbArc
 50
134.0161729421
 51
136.0790337534
  0
SPLINE
  5
730
100
AcDbEntity
  8
KONSTRUKTIONSELEMENTE
100
AcDbSpline
 62
7
  6
CONTINUOUS
 70
0
 71
3
 72
13
 73
9
 74
0
 42
0.0000001
 43
0.0000001
 44
0.0000000001
 40
0.0
 40
0.0
 40
0.0
 40
0.0
 40
0.1194785188
 40
0.2392741704
 40
0.3602835725
 40
0.4830059608
 40
0.7355440041
 40
1.0
 40
1.0
 40
1.0
 40
1.0
 10
684.1707645378
 20
102.1948830006
 30
0.0
 10
684.2635872995
 20
102.5413022634
 30
0.0
 10
684.5235707297
 20
103.2175632641
 30
0.0
 10
685.1157184973
 20
104.1309218388
 30
0.0
 10
685.8814711191
 20
104.9178645792
 30
0.0
 10
687.1042741909
 20
105.7811762485
 30
0.0
 10
688.9314238795
 20
106.4711271365
 30
0.0
 10
690.4975795047
 20
106.5976121249
 30
0.0
 10
691.2908016375
 20
106.5668179903
 30
0.0
  0
SPLINE
  5
731
100
AcDbEntity
  8
KONSTRUKTIONSELEMENTE
100
AcDbSpline
 62
7
  6
CONTINUOUS
 70
0
 71
3
 72
13
 73
9
 74
0
 42
0.0000001
 43
0.0000001
 44
0.0000000001
 40
0.0
 40
0.0
 40
0.0
 40
0.0
 40
0.2644681654
 40
0.5169944072
 40
0.6397129492
 40
0.760706397
 40
0.8805228501
 40
1.0
 40
1.0
 40
1.0
 40
1.0
 10
695.6436484697
 20
105.4009226207
 30
0.0
 10
696.3462412542
 20
105.0309930794
 30
0.0
 10
697.639804952
 20
104.1384611414
 30
0.0
 10
698.877698626
 20
102.6272240647
 30
0.0
 10
699.5052720405
 20
101.2680405073
 30
0.0
 10
699.7752564362
 20
100.2034671601
 30
0.0
 10
699.8313622824
 20
99.1161428072
 30
0.0
 10
699.7184198433
 20
98.4002696569
 30
0.0
 10
699.6255777584
 20
98.053778279
 30
0.0
  0
SPLINE
  5
732
100
AcDbEntity
  8
KONSTRUKTIONSELEMENTE
100
AcDbSpline
 62
7
  6
CONTINUOUS
 70
0
 71
3
 72
10
 73
6
 74
0
 42
0.0000001
 43
0.0000001
 44
0.0000000001
 40
0.0
 40
0.0
 40
0.0
 40
0.0
 40
0.3116645009
 40
0.6060899939
 40
1.0
 40
1.0
 40
1.0
 40
1.0
 10
688.5174307561
 20
101.0301972976
 30
0.0
 10
688.5684581852
 20
101.2206342556
 30
0.0
 10
688.8457031522
 20
101.5307718551
 30
0.0
 10
689.3997342644
 20
101.8314981411
 30
0.0
 10
689.8240999123
 20
101.9532218993
 30
0.0
 10
690.0690462666
 20
101.9989721508
 30
0.0
  0
SPLINE
  5
733
100
AcDbEntity
  8
KONSTRUKTIONSELEMENTE
100
AcDbSpline
 62
7
  6
CONTINUOUS
 70
0
 71
3
 72
10
 73
6
 74
0
 42
0.0000001
 43
0.0000001
 44
0.0000000001
 40
0.0
 40
0.0
 40
0.0
 40
0.0
 40
0.3939255147
 40
0.6883533687
 40
1.0
 40
1.0
 40
1.0
 40
1.0
 10
694.4193551022
 20
100.8334262879
 30
0.0
 10
694.6086565491
 20
100.6713178567
 30
0.0
 10
694.9153560283
 20
100.3536689998
 30
0.0
 10
695.244914781
 20
99.8161807052
 30
0.0
 10
695.3299432287
 20
99.4089168365
 30
0.0
 10
695.2789115401
 20
99.2184639819
 30
0.0
  0
SPLINE
  5
734
100
AcDbEntity
  8
KONSTRUKTIONSELEMENTE
100
AcDbSpline
 62
7
  6
CONTINUOUS
 70
0
 71
3
 72
13
 73
9
 74
0
 42
0.0000001
 43
0.0000001
 44
0.0000000001
 40
0.0
 40
0.0
 40
0.0
 40
0.0
 40
0.1197290731
 40
0.2397365246
 40
0.3609040964
 40
0.4836831257
 40
0.7359942557
 40
1.0
 40
1.0
 40
1.0
 40
1.0
 10
692.223323421
 20
132.2474418839
 30
0.0
 10
692.313706578
 20
132.5847564176
 30
0.0
 10
692.5648737457
 20
133.2435380468
 30
0.0
 10
693.133777493
 20
134.1369556365
 30
0.0
 10
693.8687261296
 20
134.911714416
 30
0.0
 10
695.0426414247
 20
135.7698992253
 30
0.0
 10
696.8011943211
 20
136.4759538892
 30
0.0
 10
698.3170539198
 20
136.6356063034
 30
0.0
 10
699.0870189209
 20
136.6259646565
 30
0.0
  0
SPLINE
  5
735
100
AcDbEntity
  8
KONSTRUKTIONSELEMENTE
100
AcDbSpline
 62
7
  6
CONTINUOUS
 70
0
 71
3
 72
13
 73
9
 74
0
 42
0.0000001
 43
0.0000001
 44
0.0000000001
 40
0.0
 40
0.0
 40
0.0
 40
0.0
 40
0.2640112835
 40
0.5163080567
 40
0.6390830379
 40
0.7602378991
 40
0.8802701562
 40
1.0
 40
1.0
 40
1.0
 40
1.0
 10
703.9240720656
 20
135.3296242632
 30
0.0
 10
704.595603216
 20
134.9529497376
 30
0.0
 10
705.8283412796
 20
134.0567911547
 30
0.0
 10
706.9979739962
 20
132.5661295277
 30
0.0
 10
707.5853601238
 20
131.2361700315
 30
0.0
 10
707.8344981699
 20
130.1978305126
 30
0.0
 10
707.8803387229
 20
129.1397238925
 30
0.0
 10
707.7685107646
 20
128.4436179807
 30
0.0
 10
707.6781366417
 20
128.1063371622
 30
0.0
  0
SPLINE
  5
736
100
AcDbEntity
  8
KONSTRUKTIONSELEMENTE
100
AcDbSpline
 62
7
  6
CONTINUOUS
 70
0
 71
3
 72
10
 73
6
 74
0
 42
0.0000001
 43
0.0000001
 44
0.0000000001
 40
0.0
 40
0.0
 40
0.0
 40
0.0
 40
0.3192646009
 40
0.6086079864
 40
1.0
 40
1.0
 40
1.0
 40
1.0
 10
696.5699896393
 20
131.0827561809
 30
0.0
 10
696.614439164
 20
131.2486440652
 30
0.0
 10
696.834658285
 20
131.5218061498
 30
0.0
 10
697.2898068389
 20
131.8070777698
 30
0.0
 10
697.6378991762
 20
131.9343618569
 30
0.0
 10
697.8413695993
 20
131.988457704
 30
0.0
  0
SPLINE
  5
737
100
AcDbEntity
  8
KONSTRUKTIONSELEMENTE
100
AcDbSpline
 62
7
  6
CONTINUOUS
 70
0
 71
3
 72
10
 73
6
 74
0
 42
0.0000001
 43
0.0000001
 44
0.0000000001
 40
0.0
 40
0.0
 40
0.0
 40
0.0
 40
0.3914026107
 40
0.6807340322
 40
1.0
 40
1.0
 40
1.0
 40
1.0
 10
702.6833486783
 20
130.6909989979
 30
0.0
 10
702.8325023506
 20
130.5424169674
 30
0.0
 10
703.0702655478
 20
130.258133529
 30
0.0
 10
703.321828108
 20
129.7835551196
 30
0.0
 10
703.3759173625
 20
129.4369011003
 30
0.0
 10
703.3314704234
 20
129.2710228652
 30
0.0
  0
SPLINE
  5
738
100
AcDbEntity
  8
KONSTRUKTIONSELEMENTE
100
AcDbSpline
 62
7
  6
CONTINUOUS
 70
0
 71
3
 72
9
 73
5
 74
0
 42
0.0000001
 43
0.0000001
 44
0.0000000001
 40
0.0
 40
0.0
 40
0.0
 40
0.0
 40
0.4862946585
 40
1.0
 40
1.0
 40
1.0
 40
1.0
 10
726.430030487
 20
140.2981249696
 30
0.0
 10
723.6812014835
 20
139.265371055
 30
0.0
 10
717.7086552312
 20
137.9519486847
 30
0.0
 10
711.6176783749
 20
138.0672022949
 30
0.0
 10
708.5393278563
 20
138.4491052862
 30
0.0
  0
SPLINE
  5
739
100
AcDbEntity
  8
KONSTRUKTIONSELEMENTE
100
AcDbSpline
 62
7
  6
CONTINUOUS
 70
0
 71
3
 72
9
 73
5
 74
0
 42
0.0000001
 43
0.0000001
 44
0.0000000001
 40
0.0
 40
0.0
 40
0.0
 40
0.0
 40
0.5137072087
 40
1.0
 40
1.0
 40
1.0
 40
1.0
 10
696.6392236071
 20
141.6392227746
 30
0.0
 10
693.7837855843
 20
142.8478684613
 30
0.0
 10
688.4540150823
 20
145.7934261544
 30
0.0
 10
683.9408102773
 20
149.9161093455
 30
0.0
 10
682.0776313102
 20
152.1841789736
 30
0.0
  0
SPLINE
  5
73A
100
AcDbEntity
  8
KONSTRUKTIONSELEMENTE
100
AcDbSpline
 62
7
  6
CONTINUOUS
 70
0
 71
3
 72
9
 73
5
 74
0
 42
0.0000001
 43
0.0000001
 44
0.0000000001
 40
0.0
 40
0.0
 40
0.0
 40
0.0
 40
0.2334728158
 40
1.0
 40
1.0
 40
1.0
 40
1.0
 10
727.4884154862
 20
149.7285219198
 30
0.0
 10
726.9999637281
 20
149.4083372124
 30
0.0
 10
724.8379113917
 20
148.1440764617
 30
0.0
 10
722.4405569449
 20
147.3059537806
 30
0.0
 10
720.5730990092
 20
146.8707664834
 30
0.0
  0
SPLINE
  5
73B
100
AcDbEntity
  8
KONSTRUKTIONSELEMENTE
100
AcDbSpline
 62
7
  6
CONTINUOUS
 70
0
 71
3
 72
9
 73
5
 74
0
 42
0.0000001
 43
0.0000001
 44
0.0000000001
 40
0.0
 40
0.0
 40
0.0
 40
0.0
 40
0.2669512994
 40
1.0
 40
1.0
 40
1.0
 40
1.0
 10
690.4345589098
 20
154.9487821075
 30
0.0
 10
689.9477463299
 20
155.4048054654
 30
0.0
 10
688.1904652908
 20
157.1802492549
 30
0.0
 10
686.7040456156
 20
159.2404214978
 30
0.0
 10
685.8792405082
 20
160.8759049945
 30
0.0
  0
SPLINE
  5
73C
100
AcDbEntity
  8
0
100
AcDbSpline
 62
7
  6
CONTINUOUS
 70
0
 71
3
 72
11
 73
7
 74
0
 42
0.0000001
 43
0.0000001
 44
0.0000000001
 40
0.0
 40
0.0
 40
0.0
 40
0.0
 40
0.2192989281
 40
0.4548225453
 40
0.7152180566
 40
1.0
 40
1.0
 40
1.0
 40
1.0
 10
702.1035896058
 20
48.005649527
 30
0.0
 10
702.2232526676
 20
48.4522381536
 30
0.0
 10
702.2729532358
 20
49.4409949932
 30
0.0
 10
701.763509201
 20
50.8916893825
 30
0.0
 10
700.7555612161
 20
52.2195044714
 30
0.0
 10
699.8425350777
 20
52.9378097118
 30
0.0
 10
699.3341128817
 20
53.2571615533
 30
0.0
  0
SPLINE
  5
73D
100
AcDbEntity
  8
0
100
AcDbSpline
 62
7
  6
CONTINUOUS
 70
0
 71
3
 72
15
 73
11
 74
0
 42
0.0000001
 43
0.0000001
 44
0.0000000001
 40
0.0
 40
0.0
 40
0.0
 40
0.0
 40
0.1047415988
 40
0.222328371
 40
0.3560160977
 40
0.5
 40
0.6439839023
 40
0.777671629
 40
0.8952584012
 40
1.0
 40
1.0
 40
1.0
 40
1.0
 10
681.5958823129
 20
52.2882042186
 30
0.0
 10
681.522654293
 20
52.0149135278
 30
0.0
 10
681.5428959948
 20
51.3803813381
 30
0.0
 10
682.0422124609
 20
50.5261576372
 30
0.0
 10
682.8819252141
 20
49.8386477634
 30
0.0
 10
683.9460846164
 20
49.3935672097
 30
0.0
 10
685.0902139693
 20
49.2469385748
 30
0.0
 10
686.1611814824
 20
49.4224832143
 30
0.0
 10
687.020714077
 20
49.9126044066
 30
0.0
 10
687.3555099998
 20
50.4520045516
 30
0.0
 10
687.4287380196
 20
50.7252952424
 30
0.0
  0
SPLINE
  5
73E
100
AcDbEntity
  8
0
100
AcDbSpline
 62
7
  6
CONTINUOUS
 70
0
 71
3
 72
11
 73
7
 74
0
 42
0.0000001
 43
0.0000001
 44
0.0000000001
 40
0.0
 40
0.0
 40
0.0
 40
0.0
 40
0.2094689415
 40
0.4446609502
 40
0.7120169424
 40
1.0
 40
1.0
 40
1.0
 40
1.0
 10
678.7377677186
 20
56.500465347
 30
0.0
 10
678.8150553334
 20
56.789079829
 30
0.0
 10
678.7934222624
 20
57.4591977677
 30
0.0
 10
678.2659122531
 20
58.3613007974
 30
0.0
 10
677.3798119305
 20
59.0871877855
 30
0.0
 10
676.6376593355
 20
59.3972220167
 30
0.0
 10
676.2408809847
 20
59.5035384554
 30
0.0
  0
SPLINE
  5
73F
100
AcDbEntity
  8
0
100
AcDbSpline
 62
7
  6
CONTINUOUS
 70
0
 71
3
 72
9
 73
5
 74
0
 42
0.0000001
 43
0.0000001
 44
0.0000000001
 40
0.0
 40
0.0
 40
0.0
 40
0.0
 40
0.4402133985
 40
1.0
 40
1.0
 40
1.0
 40
1.0
 10
661.024172222
 20
57.9235546389
 30
0.0
 10
661.0145734668
 20
57.8877315969
 30
0.0
 10
661.0488413054
 20
57.7949398448
 30
0.0
 10
661.1289380466
 20
57.7549289657
 30
0.0
 10
661.1744915419
 20
57.7427229435
 30
0.0
  0
SPLINE
  5
740
100
AcDbEntity
  8
0
100
AcDbSpline
 62
7
  6
CONTINUOUS
 70
0
 71
3
 72
9
 73
5
 74
0
 42
0.0000001
 43
0.0000001
 44
0.0000000001
 40
0.0
 40
0.0
 40
0.0
 40
0.0
 40
0.4402133985
 40
1.0
 40
1.0
 40
1.0
 40
1.0
 10
662.3167635321
 20
57.6474827187
 30
0.0
 10
662.3263622873
 20
57.6833057608
 30
0.0
 10
662.2920944487
 20
57.7760975128
 30
0.0
 10
662.2119977074
 20
57.8161083919
 30
0.0
 10
662.1664442122
 20
57.8283144142
 30
0.0
  0
SPLINE
  5
741
100
AcDbEntity
  8
0
100
AcDbSpline
 62
7
  6
CONTINUOUS
 70
0
 71
3
 72
9
 73
5
 74
0
 42
0.0000001
 43
0.0000001
 44
0.0000000001
 40
0.0
 40
0.0
 40
0.0
 40
0.0
 40
0.4402133985
 40
1.0
 40
1.0
 40
1.0
 40
1.0
 10
663.1952245012
 20
60.9259436878
 30
0.0
 10
663.2048232563
 20
60.9617667299
 30
0.0
 10
663.1705554178
 20
61.0545584819
 30
0.0
 10
663.0904586765
 20
61.094569361
 30
0.0
 10
663.0449051813
 20
61.1067753832
 30
0.0
  0
SPLINE
  5
742
100
AcDbEntity
  8
0
100
AcDbSpline
 62
7
  6
CONTINUOUS
 70
0
 71
3
 72
11
 73
7
 74
0
 42
0.0000001
 43
0.0000001
 44
0.0000000001
 40
0.0
 40
0.0
 40
0.0
 40
0.0
 40
0.2094668498
 40
0.4446559298
 40
0.7120302568
 40
1.0
 40
1.0
 40
1.0
 40
1.0
 10
660.1971652255
 20
59.9372108727
 30
0.0
 10
660.1855245492
 20
59.8937672772
 30
0.0
 10
660.1887344721
 20
59.7928929642
 30
0.0
 10
660.2681409853
 20
59.6570843941
 30
0.0
 10
660.4015183985
 20
59.5478061293
 30
0.0
 10
660.5132383656
 20
59.5011349424
 30
0.0
 10
660.5729635252
 20
59.4851316341
 30
0.0
  0
SPLINE
  5
743
100
AcDbEntity
  8
0
100
AcDbSpline
 62
7
  6
CONTINUOUS
 70
0
 71
3
 72
11
 73
7
 74
0
 42
0.0000001
 43
0.0000001
 44
0.0000000001
 40
0.0
 40
0.0
 40
0.0
 40
0.0
 40
0.2094668498
 40
0.4446559298
 40
0.7120302568
 40
1.0
 40
1.0
 40
1.0
 40
1.0
 10
659.3187042564
 20
56.6587499036
 30
0.0
 10
659.3070635801
 20
56.6153063081
 30
0.0
 10
659.310273503
 20
56.5144319952
 30
0.0
 10
659.3896800162
 20
56.378623425
 30
0.0
 10
659.5230574295
 20
56.2693451602
 30
0.0
 10
659.6347773965
 20
56.2226739733
 30
0.0
 10
659.6945025561
 20
56.206670665
 30
0.0
  0
SPLINE
  5
744
100
AcDbEntity
  8
0
100
AcDbSpline
 62
7
  6
CONTINUOUS
 70
0
 71
3
 72
9
 73
5
 74
0
 42
0.0000001
 43
0.0000001
 44
0.0000000001
 40
0.0
 40
0.0
 40
0.0
 40
0.0
 40
0.2432035461
 40
1.0
 40
1.0
 40
1.0
 40
1.0
 10
667.246979452
 20
61.2106783326
 30
0.0
 10
667.2538734044
 20
61.2364069131
 30
0.0
 10
667.2734237906
 20
61.3445580948
 30
0.0
 10
667.2550786895
 20
61.4579423276
 30
0.0
 10
667.2256753666
 20
61.5354377161
 30
0.0
  0
SPLINE
  5
745
100
AcDbEntity
  8
0
100
AcDbSpline
 62
7
  6
CONTINUOUS
 70
0
 71
3
 72
9
 73
5
 74
0
 42
0.0000001
 43
0.0000001
 44
0.0000000001
 40
0.0
 40
0.0
 40
0.0
 40
0.0
 40
0.2401326547
 40
1.0
 40
1.0
 40
1.0
 40
1.0
 10
667.2256753666
 20
61.5354377161
 30
0.0
 10
667.2186613906
 20
61.5539237489
 30
0.0
 10
667.1858852251
 20
61.62954393
 30
0.0
 10
667.1395745666
 20
61.6989703402
 30
0.0
 10
667.0995797605
 20
61.747083441
 30
0.0
  0
SPLINE
  5
746
100
AcDbEntity
  8
0
100
AcDbSpline
 62
7
  6
CONTINUOUS
 70
0
 71
3
 72
9
 73
5
 74
0
 42
0.0000001
 43
0.0000001
 44
0.0000000001
 40
0.0
 40
0.0
 40
0.0
 40
0.0
 40
0.2356425559
 40
1.0
 40
1.0
 40
1.0
 40
1.0
 10
667.0995797605
 20
61.747083441
 30
0.0
 10
667.063746082
 20
61.790190773
 30
0.0
 10
666.8944638117
 20
61.9586471813
 30
0.0
 10
666.6710174223
 20
62.0677756686
 30
0.0
 10
666.4953828526
 20
62.1148368097
 30
0.0
  0
SPLINE
  5
747
100
AcDbEntity
  8
RUNDUNGEN
100
AcDbSpline
 62
7
  6
CONTINUOUS
 70
0
 71
3
 72
10
 73
6
 74
0
 42
0.0000001
 43
0.0000001
 44
0.0000000001
 40
0.0
 40
0.0
 40
0.0
 40
0.0
 40
0.2265435213
 40
0.4650408122
 40
1.0
 40
1.0
 40
1.0
 40
1.0
 10
630.9073023981
 20
72.819496463
 30
0.0
 10
630.9441436751
 20
72.9566426673
 30
0.0
 10
631.070139217
 20
73.2268933273
 30
0.0
 10
631.5088656498
 20
73.6861873506
 30
0.0
 10
631.9827589477
 20
73.8754152918
 30
0.0
 10
632.3115492033
 20
73.9413587808
 30
0.0
  0
SPLINE
  5
748
100
AcDbEntity
  8
RUNDUNGEN
100
AcDbSpline
 62
7
  6
CONTINUOUS
 70
0
 71
3
 72
9
 73
5
 74
0
 42
0.0000001
 43
0.0000001
 44
0.0000000001
 40
0.0
 40
0.0
 40
0.0
 40
0.0
 40
0.4805183102
 40
1.0
 40
1.0
 40
1.0
 40
1.0
 10
629.99221856
 20
69.4043654122
 30
0.0
 10
629.9451490856
 20
69.2290977591
 30
0.0
 10
629.9297783296
 20
68.8385345103
 30
0.0
 10
630.0689860567
 20
68.477453621
 30
0.0
 10
630.1662486332
 20
68.3070662758
 30
0.0
  0
SPLINE
  5
749
100
AcDbEntity
  8
RUNDUNGEN
100
AcDbSpline
 62
7
  6
CONTINUOUS
 70
0
 71
3
 72
11
 73
7
 74
0
 42
0.0000001
 43
0.0000001
 44
0.0000000001
 40
0.0
 40
0.0
 40
0.0
 40
0.0
 40
0.2256919297
 40
0.4632773963
 40
0.7205986282
 40
1.0
 40
1.0
 40
1.0
 40
1.0
 10
619.3697088314
 20
94.7689241176
 30
0.0
 10
619.4873181581
 20
95.2081870671
 30
0.0
 10
619.8894904791
 20
96.0737413
 30
0.0
 10
620.9072304555
 20
97.1391823378
 30
0.0
 10
622.2682566231
 20
97.9354289351
 30
0.0
 10
623.3124805028
 20
98.2522070957
 30
0.0
 10
623.864439761
 20
98.3629102526
 30
0.0
  0
SPLINE
  5
74A
100
AcDbEntity
  8
RUNDUNGEN
100
AcDbSpline
 62
7
  6
CONTINUOUS
 70
0
 71
3
 72
9
 73
5
 74
0
 42
0.0000001
 43
0.0000001
 44
0.0000000001
 40
0.0
 40
0.0
 40
0.0
 40
0.0
 40
0.4805188659
 40
1.0
 40
1.0
 40
1.0
 40
1.0
 10
618.454645322
 20
91.3538606081
 30
0.0
 10
618.3046095614
 20
90.7934871022
 30
0.0
 10
618.2566730209
 20
89.545036606
 30
0.0
 10
618.7017095461
 20
88.3909716217
 30
0.0
 10
619.0126176575
 20
87.8463139574
 30
0.0
  0
SPLINE
  5
74B
100
AcDbEntity
  8
RUNDUNGEN
100
AcDbSpline
 62
7
  6
CONTINUOUS
 70
0
 71
3
 72
11
 73
7
 74
0
 42
0.0000001
 43
0.0000001
 44
0.0000000001
 40
0.0
 40
0.0
 40
0.0
 40
0.0
 40
0.2377805486
 40
0.4809056598
 40
0.733919361
 40
1.0
 40
1.0
 40
1.0
 40
1.0
 10
695.6792164073
 20
17.4428229303
 30
0.0
 10
695.9125756715
 20
18.3137314416
 30
0.0
 10
696.5792473413
 20
20.0289805059
 30
0.0
 10
698.1238054841
 20
22.366762192
 30
0.0
 10
700.1737949036
 20
24.4282823769
 30
0.0
 10
701.7993685083
 20
25.5579017429
 30
0.0
 10
702.6706533298
 20
26.0666496378
 30
0.0
  0
SPLINE
  5
74C
100
AcDbEntity
  8
RUNDUNGEN
100
AcDbSpline
 62
7
  6
CONTINUOUS
 70
0
 71
3
 72
9
 73
5
 74
0
 42
0.0000001
 43
0.0000001
 44
0.0000000001
 40
0.0
 40
0.0
 40
0.0
 40
0.0
 40
0.4817888018
 40
1.0
 40
1.0
 40
1.0
 40
1.0
 10
696.2576817829
 20
19.1167968349
 30
0.0
 10
696.0727009185
 20
17.5897883691
 30
0.0
 10
696.280904283
 20
14.3302593438
 30
0.0
 10
697.516934704
 20
11.3305517931
 30
0.0
 10
698.3371281714
 20
9.8937135706
 30
0.0
  0
SPLINE
  5
74D
100
AcDbEntity
  8
RUNDUNGEN
100
AcDbSpline
 62
7
  6
CONTINUOUS
 70
0
 71
3
 72
9
 73
5
 74
0
 42
0.0000001
 43
0.0000001
 44
0.0000000001
 40
0.0
 40
0.0
 40
0.0
 40
0.0
 40
0.4805364547
 40
1.0
 40
1.0
 40
1.0
 40
1.0
 10
610.1520963032
 20
5.6156561302
 30
0.0
 10
610.3022872413
 20
6.1761763423
 30
0.0
 10
610.8849196562
 20
7.2817899598
 30
0.0
 10
611.8476414139
 20
8.0589707353
 30
0.0
 10
612.3893561785
 20
8.3752809008
 30
0.0
  0
SPLINE
  5
74E
100
AcDbEntity
  8
RUNDUNGEN
100
AcDbSpline
 62
7
  6
CONTINUOUS
 70
0
 71
3
 72
9
 73
5
 74
0
 42
0.0000001
 43
0.0000001
 44
0.0000000001
 40
0.0
 40
0.0
 40
0.0
 40
0.0
 40
0.5194633901
 40
1.0
 40
1.0
 40
1.0
 40
1.0
 10
714.8802998671
 20
-19.0870846921
 30
0.0
 10
715.1912834389
 20
-19.63187455
 30
0.0
 10
715.6364345973
 20
-20.7862936738
 30
0.0
 10
715.5882023553
 20
-22.035099393
 30
0.0
 10
715.4380113687
 20
-22.595619786
 30
0.0
  0
SPLINE
  5
74F
100
AcDbEntity
  8
RUNDUNGEN
100
AcDbSpline
 62
7
  6
CONTINUOUS
 70
0
 71
3
 72
10
 73
6
 74
0
 42
0.0000001
 43
0.0000001
 44
0.0000000001
 40
0.0
 40
0.0
 40
0.0
 40
0.0
 40
0.5349738501
 40
0.7734707915
 40
1.0
 40
1.0
 40
1.0
 40
1.0
 10
753.7108765303
 20
61.2612833663
 30
0.0
 10
753.9626570205
 20
61.0397693659
 30
0.0
 10
754.2784590247
 20
60.6389277647
 30
0.0
 10
754.4287409049
 20
60.0217869749
 30
0.0
 10
754.4027226683
 20
59.7247501842
 30
0.0
 10
754.3660517019
 20
59.5875649327
 30
0.0
  0
SPLINE
  5
750
100
AcDbEntity
  8
RUNDUNGEN
100
AcDbSpline
 62
7
  6
CONTINUOUS
 70
0
 71
3
 72
10
 73
6
 74
0
 42
0.0000001
 43
0.0000001
 44
0.0000000001
 40
0.0
 40
0.0
 40
0.0
 40
0.0
 40
0.480919227
 40
0.7459271703
 40
1.0
 40
1.0
 40
1.0
 40
1.0
 10
741.1422813404
 20
69.7430977302
 30
0.0
 10
741.6517676527
 20
70.040589529
 30
0.0
 10
742.6489802618
 20
70.1459454013
 30
0.0
 10
743.8296967798
 20
69.8071812976
 30
0.0
 10
744.383806054
 20
69.4671482899
 30
0.0
 10
744.6178210004
 20
69.2612642403
 30
0.0
  0
SPLINE
  5
751
100
AcDbEntity
  8
RUNDUNGEN
100
AcDbSpline
 62
7
  6
CONTINUOUS
 70
0
 71
3
 72
9
 73
5
 74
0
 42
0.0000001
 43
0.0000001
 44
0.0000000001
 40
0.0
 40
0.0
 40
0.0
 40
0.0
 40
0.2416885815
 40
1.0
 40
1.0
 40
1.0
 40
1.0
 10
625.6568635382
 20
98.7224059359
 30
0.0
 10
627.1136727422
 20
99.0145894177
 30
0.0
 10
633.2458378622
 20
99.6611933507
 30
0.0
 10
639.5488098481
 20
98.2679675776
 30
0.0
 10
643.7616329583
 20
96.271737445
 30
0.0
  0
SPLINE
  5
752
100
AcDbEntity
  8
0
100
AcDbSpline
 62
7
  6
CONTINUOUS
 70
0
 71
3
 72
11
 73
7
 74
0
 42
0.0000001
 43
0.0000001
 44
0.0000000001
 40
0.0
 40
0.0
 40
0.0
 40
0.0
 40
0.2880052506
 40
0.5553344723
 40
0.7905070702
 40
1.0
 40
1.0
 40
1.0
 40
1.0
 10
659.0770725067
 20
64.1025670761
 30
0.0
 10
658.9576082957
 20
64.1345774149
 30
0.0
 10
658.717430831
 20
64.1654864787
 30
0.0
 10
658.3771790591
 20
64.1094900359
 30
0.0
 10
658.1038017982
 20
63.953769394
 30
0.0
 10
657.9973756079
 20
63.7822385659
 30
0.0
 10
657.9740915197
 20
63.6953411656
 30
0.0
  0
SPLINE
  5
753
100
AcDbEntity
  8
0
100
AcDbSpline
 62
7
  6
CONTINUOUS
 70
0
 71
3
 72
11
 73
7
 74
0
 42
0.0000001
 43
0.0000001
 44
0.0000000001
 40
0.0
 40
0.0
 40
0.0
 40
0.0
 40
0.2879697432
 40
0.5553440702
 40
0.7905331502
 40
1.0
 40
1.0
 40
1.0
 40
1.0
 10
662.8911855083
 20
58.8639659259
 30
0.0
 10
662.9509106679
 20
58.8479626176
 30
0.0
 10
663.070998591
 20
58.8325210675
 30
0.0
 10
663.2411459516
 20
58.8604701143
 30
0.0
 10
663.3778182943
 20
58.9383805295
 30
0.0
 10
663.4310353255
 20
59.0241352856
 30
0.0
 10
663.4426760018
 20
59.0675788811
 30
0.0
  0
SPLINE
  5
754
100
AcDbEntity
  8
0
100
AcDbSpline
 62
7
  6
CONTINUOUS
 70
0
 71
3
 72
11
 73
7
 74
0
 42
0.0000001
 43
0.0000001
 44
0.0000000001
 40
0.0
 40
0.0
 40
0.0
 40
0.0
 40
0.2879697432
 40
0.5553440702
 40
0.7905331502
 40
1.0
 40
1.0
 40
1.0
 40
1.0
 10
662.0127245392
 20
55.5855049568
 30
0.0
 10
662.0724496989
 20
55.5695016485
 30
0.0
 10
662.1925376219
 20
55.5540600984
 30
0.0
 10
662.3626849825
 20
55.5820091452
 30
0.0
 10
662.4993573252
 20
55.6599195604
 30
0.0
 10
662.5525743564
 20
55.7456743165
 30
0.0
 10
662.5642150328
 20
55.789117912
 30
0.0
  0
SPLINE
  5
755
100
AcDbEntity
  8
0
100
AcDbSpline
 62
7
  6
CONTINUOUS
 70
0
 71
3
 72
9
 73
5
 74
0
 42
0.0000001
 43
0.0000001
 44
0.0000000001
 40
0.0
 40
0.0
 40
0.0
 40
0.0
 40
0.5597866015
 40
1.0
 40
1.0
 40
1.0
 40
1.0
 10
661.5612431121
 20
61.5043214365
 30
0.0
 10
661.5156896168
 20
61.5165274588
 30
0.0
 10
661.4263183646
 20
61.5219253917
 30
0.0
 10
661.3502456699
 20
61.4586992965
 30
0.0
 10
661.3406469147
 20
61.4228762544
 30
0.0
  0
SPLINE
  5
756
100
AcDbEntity
  8
0
100
AcDbSpline
 62
7
  6
CONTINUOUS
 70
0
 71
3
 72
9
 73
5
 74
0
 42
0.0000001
 43
0.0000001
 44
0.0000000001
 40
0.0
 40
0.0
 40
0.0
 40
0.0
 40
0.5597866015
 40
1.0
 40
1.0
 40
1.0
 40
1.0
 10
660.682782143
 20
58.2258604674
 30
0.0
 10
660.6372286478
 20
58.2380664897
 30
0.0
 10
660.5478573955
 20
58.2434644226
 30
0.0
 10
660.4717847008
 20
58.1802383274
 30
0.0
 10
660.4621859456
 20
58.1444152853
 30
0.0
  0
SPLINE
  5
757
100
AcDbEntity
  8
0
100
AcDbSpline
 62
7
  6
CONTINUOUS
 70
0
 71
3
 72
9
 73
5
 74
0
 42
0.0000001
 43
0.0000001
 44
0.0000000001
 40
0.0
 40
0.0
 40
0.0
 40
0.0
 40
0.5597866015
 40
1.0
 40
1.0
 40
1.0
 40
1.0
 10
661.4990426195
 20
57.6557597443
 30
0.0
 10
661.5445961147
 20
57.6435537221
 30
0.0
 10
661.633967367
 20
57.6381557892
 30
0.0
 10
661.7100400617
 20
57.7013818844
 30
0.0
 10
661.7196388169
 20
57.7372049264
 30
0.0
  0
SPLINE
  5
758
100
AcDbEntity
  8
0
100
AcDbSpline
 62
7
  6
CONTINUOUS
 70
0
 71
3
 72
11
 73
7
 74
0
 42
0.0000001
 43
0.0000001
 44
0.0000000001
 40
0.0
 40
0.0
 40
0.0
 40
0.0
 40
0.2880001164
 40
0.5553425139
 40
0.7905343079
 40
1.0
 40
1.0
 40
1.0
 40
1.0
 10
675.3400680409
 20
56.1416587808
 30
0.0
 10
675.5557301372
 20
56.0838722963
 30
0.0
 10
675.9893159567
 20
56.0281120769
 30
0.0
 10
676.6036187463
 20
56.1290792558
 30
0.0
 10
677.0970869139
 20
56.4103251158
 30
0.0
 10
677.2891975294
 20
56.7199689931
 30
0.0
 10
677.3312262832
 20
56.8768224376
 30
0.0
  0
SPLINE
  5
759
100
AcDbEntity
  8
0
100
AcDbSpline
 62
7
  6
CONTINUOUS
 70
0
 71
3
 72
8
 73
4
 74
0
 42
0.0000001
 43
0.0000001
 44
0.0000000001
 40
0.0
 40
0.0
 40
0.0
 40
0.0
 40
1.0
 40
1.0
 40
1.0
 40
1.0
 10
699.3341128817
 20
53.2571615533
 30
0.0
 10
699.2246448411
 20
53.3259209832
 30
0.0
 10
699.1030271403
 20
53.3776448557
 30
0.0
 10
698.9781604957
 20
53.4111027723
 30
0.0
  0
SPLINE
  5
75A
100
AcDbEntity
  8
0
100
AcDbSpline
 62
7
  6
CONTINUOUS
 70
0
 71
3
 72
11
 73
7
 74
0
 42
0.0000001
 43
0.0000001
 44
0.0000000001
 40
0.0
 40
0.0
 40
0.0
 40
0.0
 40
0.2779817175
 40
0.5346952233
 40
0.772857858
 40
1.0
 40
1.0
 40
1.0
 40
1.0
 10
697.3194897619
 20
45.9632359495
 30
0.0
 10
697.6916710895
 20
46.0521462943
 30
0.0
 10
698.3942347178
 20
46.2921736718
 30
0.0
 10
699.3053994222
 20
46.8620782317
 30
0.0
 10
699.9856655604
 20
47.6053575095
 30
0.0
 10
700.256470922
 20
48.2003082745
 30
0.0
 10
700.3373961315
 20
48.502325268
 30
0.0
  0
SPLINE
  5
75B
100
AcDbEntity
  8
0
100
AcDbSpline
 62
7
  6
CONTINUOUS
 70
0
 71
3
 72
9
 73
5
 74
0
 42
0.0000001
 43
0.0000001
 44
0.0000000001
 40
0.0
 40
0.0
 40
0.0
 40
0.0
 40
0.2591205677
 40
1.0
 40
1.0
 40
1.0
 40
1.0
 10
697.0194937829
 20
45.9712131499
 30
0.0
 10
697.0446692808
 20
45.9644673956
 30
0.0
 10
697.1431426173
 20
45.9440369001
 30
0.0
 10
697.2470080563
 20
45.9459208051
 30
0.0
 10
697.3194897619
 20
45.9632359495
 30
0.0
  0
SPLINE
  5
75C
100
AcDbEntity
  8
RUNDUNGEN
100
AcDbSpline
 62
7
  6
CONTINUOUS
 70
0
 71
3
 72
11
 73
7
 74
0
 42
0.0000001
 43
0.0000001
 44
0.0000000001
 40
0.0
 40
0.0
 40
0.0
 40
0.0
 40
0.2880068215
 40
0.5553366529
 40
0.7905059061
 40
1.0
 40
1.0
 40
1.0
 40
1.0
 10
616.462800708
 20
-15.4582475741
 30
0.0
 10
616.5623547733
 20
-15.4849230055
 30
0.0
 10
616.7625034412
 20
-15.5106797065
 30
0.0
 10
617.0460466672
 20
-15.4640173819
 30
0.0
 10
617.2738594436
 20
-15.3342488584
 30
0.0
 10
617.3625480133
 20
-15.1913075609
 30
0.0
 10
617.3819515305
 20
-15.1188926486
 30
0.0
  0
SPLINE
  5
75D
100
AcDbEntity
  8
RUNDUNGEN
100
AcDbSpline
 62
7
  6
CONTINUOUS
 70
0
 71
3
 72
13
 73
9
 74
0
 42
0.0000001
 43
0.0000001
 44
0.0000000001
 40
0.0
 40
0.0
 40
0.0
 40
0.0
 40
0.1034546555
 40
0.2106690395
 40
0.3244963599
 40
0.4464318111
 40
0.7129511617
 40
1.0
 40
1.0
 40
1.0
 40
1.0
 10
606.7704590295
 20
-7.004785988
 30
0.0
 10
606.6743304241
 20
-7.3635428273
 30
0.0
 10
606.5816937439
 20
-8.1257174334
 30
0.0
 10
606.7581037076
 20
-9.2897070321
 30
0.0
 10
607.23394222
 20
-10.4371103665
 30
0.0
 10
608.2657554307
 20
-11.9294385134
 30
0.0
 10
610.1783567701
 20
-13.4965328617
 30
0.0
 10
612.0383449834
 20
-14.2727182357
 30
0.0
 10
613.0337640247
 20
-14.539439964
 30
0.0
  0
SPLINE
  5
75E
100
AcDbEntity
  8
RUNDUNGEN
100
AcDbSpline
 62
7
  6
CONTINUOUS
 70
0
 71
3
 72
10
 73
6
 74
0
 42
0.0000001
 43
0.0000001
 44
0.0000000001
 40
0.0
 40
0.0
 40
0.0
 40
0.0
 40
0.4808964971
 40
0.7459158261
 40
1.0
 40
1.0
 40
1.0
 40
1.0
 10
621.8414371079
 20
82.8907076613
 30
0.0
 10
622.1339056761
 20
82.3783529128
 30
0.0
 10
622.9448121072
 20
81.7885059117
 30
0.0
 10
624.1367215803
 20
81.4915035586
 30
0.0
 10
624.7866407207
 20
81.508921751
 30
0.0
 10
625.0922594902
 20
81.570217874
 30
0.0
  0
SPLINE
  5
75F
100
AcDbEntity
  8
RUNDUNGEN
100
AcDbSpline
 62
7
  6
CONTINUOUS
 70
0
 71
3
 72
9
 73
5
 74
0
 42
0.0000001
 43
0.0000001
 44
0.0000000001
 40
0.0
 40
0.0
 40
0.0
 40
0.0
 40
0.5194816315
 40
1.0
 40
1.0
 40
1.0
 40
1.0
 10
752.7516150702
 20
55.3091926396
 30
0.0
 10
752.9210547821
 20
55.408129399
 30
0.0
 10
753.2221766751
 20
55.6512556818
 30
0.0
 10
753.404142977
 20
55.9972215188
 30
0.0
 10
753.4510020938
 20
56.1725612923
 30
0.0
  0
SPLINE
  5
760
100
AcDbEntity
  8
RUNDUNGEN
100
AcDbSpline
 62
7
  6
CONTINUOUS
 70
0
 71
3
 72
13
 73
9
 74
0
 42
0.0000001
 43
0.0000001
 44
0.0000000001
 40
0.0
 40
0.0
 40
0.0
 40
0.0
 40
0.2870490624
 40
0.5535683755
 40
0.6755038246
 40
0.7893311355
 40
0.8965454157
 40
1.0
 40
1.0
 40
1.0
 40
1.0
 10
702.8648658695
 20
-38.6096111585
 30
0.0
 10
703.8602856875
 20
-38.8763330949
 30
0.0
 10
705.8591761767
 20
-39.1341308882
 30
0.0
 10
708.2990852472
 20
-38.7332872699
 30
0.0
 10
709.9388254125
 20
-37.9567994079
 30
0.0
 10
710.924614661
 20
-37.2010380586
 30
0.0
 10
711.6593843518
 20
-36.2811988672
 30
0.0
 10
711.9602455558
 20
-35.5748184966
 30
0.0
 10
712.056374095
 20
-35.2160619042
 30
0.0
  0
SPLINE
  5
761
100
AcDbEntity
  8
RUNDUNGEN
100
AcDbSpline
 62
7
  6
CONTINUOUS
 70
0
 71
3
 72
11
 73
7
 74
0
 42
0.0000001
 43
0.0000001
 44
0.0000000001
 40
0.0
 40
0.0
 40
0.0
 40
0.0
 40
0.2094942263
 40
0.444667264
 40
0.7119932261
 40
1.0
 40
1.0
 40
1.0
 40
1.0
 10
698.8094986867
 20
-36.9373381508
 30
0.0
 10
698.7900951588
 20
-37.0097531028
 30
0.0
 10
698.7954316475
 20
-37.1778896188
 30
0.0
 10
698.9278396098
 20
-37.4041786203
 30
0.0
 10
699.1500641234
 20
-37.5863606291
 30
0.0
 10
699.3362751457
 20
-37.6641281236
 30
0.0
 10
699.4358291862
 20
-37.6908035484
 30
0.0
  0
SPLINE
  5
762
100
AcDbEntity
  8
RUNDUNGEN
100
AcDbSpline
 62
7
  6
CONTINUOUS
 70
0
 71
3
 72
9
 73
5
 74
0
 42
0.0000001
 43
0.0000001
 44
0.0000000001
 40
0.0
 40
0.0
 40
0.0
 40
0.0
 40
0.4729729907
 40
1.0
 40
1.0
 40
1.0
 40
1.0
 10
678.0346098067
 20
-15.5500890417
 30
0.0
 10
678.5905687096
 20
-16.5240336457
 30
0.0
 10
680.3256425401
 20
-18.265644729
 30
0.0
 10
682.5331633165
 20
-19.2527825348
 30
0.0
 10
683.7402033004
 20
-19.5762079238
 30
0.0
  0
SPLINE
  5
763
100
AcDbEntity
  8
RUNDUNGEN
100
AcDbSpline
 62
7
  6
CONTINUOUS
 70
0
 71
3
 72
9
 73
5
 74
0
 42
0.0000001
 43
0.0000001
 44
0.0000000001
 40
0.0
 40
0.0
 40
0.0
 40
0.0
 40
0.5270273161
 40
1.0
 40
1.0
 40
1.0
 40
1.0
 10
639.1129092657
 20
-7.6183605268
 30
0.0
 10
640.3199499538
 20
-7.9417861044
 30
0.0
 10
642.7252880608
 20
-8.1906598722
 30
0.0
 10
645.0987114076
 20
-7.5499169945
 30
0.0
 10
646.0671576159
 20
-6.9844360431
 30
0.0
  0
SPLINE
  5
764
100
AcDbEntity
  8
RUNDUNGEN
100
AcDbSpline
 62
7
  6
CONTINUOUS
 70
0
 71
3
 72
13
 73
9
 74
0
 42
0.0000001
 43
0.0000001
 44
0.0000000001
 40
0.0
 40
0.0
 40
0.0
 40
0.0
 40
0.1034546555
 40
0.2106690395
 40
0.3244963599
 40
0.4464318111
 40
0.7129511617
 40
1.0
 40
1.0
 40
1.0
 40
1.0
 10
619.2486810898
 20
-8.1521630893
 30
0.0
 10
619.3448096952
 20
-7.7934062501
 30
0.0
 10
619.6456712799
 20
-7.0870253389
 30
0.0
 10
620.3804415893
 20
-6.1671857586
 30
0.0
 10
621.3662314963
 20
-5.4114245787
 30
0.0
 10
623.0059720222
 20
-4.6349370981
 30
0.0
 10
625.4458805436
 20
-4.2340942521
 30
0.0
 10
627.4447702741
 20
-4.4918921068
 30
0.0
 10
628.4401893153
 20
-4.758613835
 30
0.0
  0
SPLINE
  5
765
100
AcDbEntity
  8
RUNDUNGEN
100
AcDbSpline
 62
7
  6
CONTINUOUS
 70
0
 71
3
 72
13
 73
9
 74
0
 42
0.0000001
 43
0.0000001
 44
0.0000000001
 40
0.0
 40
0.0
 40
0.0
 40
0.0
 40
0.2870490624
 40
0.5535683755
 40
0.6755038246
 40
0.7893311355
 40
0.8965454157
 40
1.0
 40
1.0
 40
1.0
 40
1.0
 10
694.4129232508
 20
-22.4359546155
 30
0.0
 10
695.4083430688
 20
-22.7026765519
 30
0.0
 10
697.2683319085
 20
-23.4788623584
 30
0.0
 10
699.1809333373
 20
-25.0459576501
 30
0.0
 10
700.2127460451
 20
-26.5382859469
 30
0.0
 10
700.6885839024
 20
-27.6856890988
 30
0.0
 10
700.8649935249
 20
-28.8496780514
 30
0.0
 10
700.7723567852
 20
-29.611851999
 30
0.0
 10
700.676228246
 20
-29.9706085915
 30
0.0
  0
SPLINE
  5
766
100
AcDbEntity
  8
RUNDUNGEN
100
AcDbSpline
 62
7
  6
CONTINUOUS
 70
0
 71
3
 72
13
 73
9
 74
0
 42
0.0000001
 43
0.0000001
 44
0.0000000001
 40
0.0
 40
0.0
 40
0.0
 40
0.0
 40
0.2360077452
 40
0.3661261418
 40
0.5000000756
 40
0.6338740402
 40
0.7639924068
 40
1.0
 40
1.0
 40
1.0
 40
1.0
 10
656.3224969947
 20
-0.9962882049
 30
0.0
 10
657.5330517825
 20
-0.2894387514
 30
0.0
 10
659.7196303233
 20
0.2996678625
 30
0.0
 10
662.6937495723
 20
0.2805409808
 30
0.0
 10
665.0327582335
 20
-0.1387614087
 30
0.0
 10
667.2680500142
 20
-0.9451396229
 30
0.0
 10
669.8532751992
 20
-2.4156349945
 30
0.0
 10
671.4523532748
 20
-4.0191050096
 30
0.0
 10
672.1472992994
 20
-5.2365312028
 30
0.0
  0
SPLINE
  5
767
100
AcDbEntity
  8
RUNDUNGEN
100
AcDbSpline
 62
7
  6
CONTINUOUS
 70
0
 71
3
 72
9
 73
5
 74
0
 42
0.0000001
 43
0.0000001
 44
0.0000000001
 40
0.0
 40
0.0
 40
0.0
 40
0.0
 40
0.5182111224
 40
1.0
 40
1.0
 40
1.0
 40
1.0
 10
641.2065622575
 20
25.2018025704
 30
0.0
 10
642.6352839987
 20
26.0360408817
 30
0.0
 10
645.2055621648
 20
28.0158393374
 30
0.0
 10
647.0156344127
 20
30.7345576404
 30
0.0
 10
647.6189424934
 20
32.1494691323
 30
0.0
  0
SPLINE
  5
768
100
AcDbEntity
  8
RUNDUNGEN
100
AcDbSpline
 62
7
  6
CONTINUOUS
 70
0
 71
3
 72
11
 73
7
 74
0
 42
0.0000001
 43
0.0000001
 44
0.0000000001
 40
0.0
 40
0.0
 40
0.0
 40
0.0
 40
0.2660806618
 40
0.5190943778
 40
0.7622194713
 40
1.0
 40
1.0
 40
1.0
 40
1.0
 10
645.5400874159
 20
41.3747386376
 30
0.0
 10
646.0402683642
 20
40.4985074395
 30
0.0
 10
646.8832468352
 20
38.7074411842
 30
0.0
 10
647.6278296494
 20
35.8971171563
 30
0.0
 10
647.796565141
 20
33.1002594582
 30
0.0
 10
647.5162949448
 20
31.2814743171
 30
0.0
 10
647.2829356706
 20
30.4105657684
 30
0.0
  0
SPLINE
  5
769
100
AcDbEntity
  8
RUNDUNGEN
100
AcDbSpline
 62
7
  6
CONTINUOUS
 70
0
 71
3
 72
10
 73
6
 74
0
 42
0.0000001
 43
0.0000001
 44
0.0000000001
 40
0.0
 40
0.0
 40
0.0
 40
0.0
 40
0.2540843695
 40
0.5191023225
 40
1.0
 40
1.0
 40
1.0
 40
1.0
 10
630.9176367661
 20
82.7385788446
 30
0.0
 10
631.4066271553
 20
82.8366527133
 30
0.0
 10
632.4464954257
 20
82.8645214186
 30
0.0
 10
634.3535505919
 20
82.3893192477
 30
0.0
 10
635.6510017374
 20
81.4455647641
 30
0.0
 10
636.1189525778
 20
80.6257951849
 30
0.0
  0
SPLINE
  5
76A
100
AcDbEntity
  8
RUNDUNGEN
100
AcDbSpline
 62
7
  6
CONTINUOUS
 70
0
 71
3
 72
9
 73
5
 74
0
 42
0.0000001
 43
0.0000001
 44
0.0000000001
 40
0.0
 40
0.0
 40
0.0
 40
0.0
 40
0.5194825986
 40
1.0
 40
1.0
 40
1.0
 40
1.0
 10
639.1902422667
 20
75.2454226348
 30
0.0
 10
639.3458752933
 20
74.9727802766
 30
0.0
 10
639.5686200152
 20
74.3949986207
 30
0.0
 10
639.5439890456
 20
73.7700430074
 30
0.0
 10
639.4686479986
 20
73.4895989544
 30
0.0
  0
SPLINE
  5
76B
100
AcDbEntity
  8
RUNDUNGEN
100
AcDbSpline
 62
7
  6
CONTINUOUS
 70
0
 71
3
 72
9
 73
5
 74
0
 42
0.0000001
 43
0.0000001
 44
0.0000000001
 40
0.0
 40
0.0
 40
0.0
 40
0.0
 40
0.2563152072
 40
1.0
 40
1.0
 40
1.0
 40
1.0
 10
638.1369264792
 20
75.1097197514
 30
0.0
 10
638.2023390513
 20
75.1228391586
 30
0.0
 10
638.4562869579
 20
75.1799689512
 30
0.0
 10
638.7050310253
 20
75.2611770492
 30
0.0
 10
638.8834660291
 20
75.3362141061
 30
0.0
  0
SPLINE
  5
76C
100
AcDbEntity
  8
0
100
AcDbSpline
 62
7
  6
CONTINUOUS
 70
0
 71
3
 72
11
 73
7
 74
0
 42
0.0000001
 43
0.0000001
 44
0.0000000001
 40
0.0
 40
0.0
 40
0.0
 40
0.0
 40
0.2094656921
 40
0.4446574861
 40
0.7119998836
 40
1.0
 40
1.0
 40
1.0
 40
1.0
 10
677.3312262832
 20
56.8768224376
 30
0.0
 10
677.373255037
 20
57.033675882
 30
0.0
 10
677.3617043022
 20
57.3978906537
 30
0.0
 10
677.0749712631
 20
57.8881907969
 30
0.0
 10
676.5934530312
 20
58.2827823336
 30
0.0
 10
676.190076587
 20
58.4512854769
 30
0.0
 10
675.9744144908
 20
58.5090719614
 30
0.0
  0
SPLINE
  5
76D
100
AcDbEntity
  8
0
100
AcDbSpline
 62
7
  6
CONTINUOUS
 70
0
 71
3
 72
9
 73
5
 74
0
 42
0.0000001
 43
0.0000001
 44
0.0000000001
 40
0.0
 40
0.0
 40
0.0
 40
0.0
 40
0.4402133985
 40
1.0
 40
1.0
 40
1.0
 40
1.0
 10
660.9716933077
 20
60.0459226474
 30
0.0
 10
660.9620945525
 20
60.0100996054
 30
0.0
 10
660.996362391
 20
59.9173078534
 30
0.0
 10
661.0764591323
 20
59.8772969742
 30
0.0
 10
661.1220126275
 20
59.865090952
 30
0.0
  0
SPLINE
  5
76E
100
AcDbEntity
  8
0
100
AcDbSpline
 62
7
  6
CONTINUOUS
 70
0
 71
3
 72
11
 73
7
 74
0
 42
0.0000001
 43
0.0000001
 44
0.0000000001
 40
0.0
 40
0.0
 40
0.0
 40
0.0
 40
0.2094929298
 40
0.4446655277
 40
0.7119947494
 40
1.0
 40
1.0
 40
1.0
 40
1.0
 10
656.0414773877
 20
56.4827270336
 30
0.0
 10
656.0181932994
 20
56.3958296332
 30
0.0
 10
656.0245956698
 20
56.1940664834
 30
0.0
 10
656.1834870016
 20
55.9225198212
 30
0.0
 10
656.4501554584
 20
55.7038995933
 30
0.0
 10
656.6736097761
 20
55.6105788953
 30
0.0
 10
656.7930739871
 20
55.5785685565
 30
0.0
  0
SPLINE
  5
76F
100
AcDbEntity
  8
0
100
AcDbSpline
 62
7
  6
CONTINUOUS
 70
0
 71
3
 72
9
 73
5
 74
0
 42
0.0000001
 43
0.0000001
 44
0.0000000001
 40
0.0
 40
0.0
 40
0.0
 40
0.0
 40
0.471076254
 40
1.0
 40
1.0
 40
1.0
 40
1.0
 10
663.0912916142
 20
57.7561944935
 30
0.0
 10
663.1029322905
 20
57.799638089
 30
0.0
 10
663.0998303723
 20
57.9004027365
 30
0.0
 10
663.0498912421
 20
57.9855697897
 30
0.0
 10
663.0176098853
 20
58.0244037365
 30
0.0
  0
SPLINE
  5
770
100
AcDbEntity
  8
0
100
AcDbSpline
 62
7
  6
CONTINUOUS
 70
0
 71
3
 72
8
 73
4
 74
0
 42
0.0000001
 43
0.0000001
 44
0.0000000001
 40
0.0
 40
0.0
 40
0.0
 40
0.0
 40
1.0
 40
1.0
 40
1.0
 40
1.0
 10
663.0176098853
 20
58.0244037365
 30
0.0
 10
662.9996896072
 20
58.0459615394
 30
0.0
 10
662.9796474454
 20
58.0658651829
 30
0.0
 10
662.9582660013
 20
58.0839955189
 30
0.0
  0
SPLINE
  5
771
100
AcDbEntity
  8
0
100
AcDbSpline
 62
7
  6
CONTINUOUS
 70
0
 71
3
 72
9
 73
5
 74
0
 42
0.0000001
 43
0.0000001
 44
0.0000000001
 40
0.0
 40
0.0
 40
0.0
 40
0.0
 40
0.241609722
 40
1.0
 40
1.0
 40
1.0
 40
1.0
 10
662.9582660013
 20
58.0839955189
 30
0.0
 10
662.941435966
 20
58.0982665004
 30
0.0
 10
662.8681300408
 20
58.1529676737
 30
0.0
 10
662.7823965196
 20
58.1903470723
 30
0.0
 10
662.7154933145
 20
58.208273732
 30
0.0
  0
SPLINE
  5
772
100
AcDbEntity
  8
0
100
AcDbSpline
 62
7
  6
CONTINUOUS
 70
0
 71
3
 72
9
 73
5
 74
0
 42
0.0000001
 43
0.0000001
 44
0.0000000001
 40
0.0
 40
0.0
 40
0.0
 40
0.0
 40
0.7407738242
 40
1.0
 40
1.0
 40
1.0
 40
1.0
 10
656.1878875492
 20
57.0291371951
 30
0.0
 10
656.1705288616
 20
56.9643536911
 30
0.0
 10
656.166339901
 20
56.87056194
 30
0.0
 10
656.1850364847
 20
56.7819369938
 30
0.0
 10
656.1912387139
 20
56.7593012861
 30
0.0
  0
SPLINE
  5
773
100
AcDbEntity
  8
0
100
AcDbSpline
 62
7
  6
CONTINUOUS
 70
0
 71
3
 72
9
 73
5
 74
0
 42
0.0000001
 43
0.0000001
 44
0.0000000001
 40
0.0
 40
0.0
 40
0.0
 40
0.0
 40
0.238285514
 40
1.0
 40
1.0
 40
1.0
 40
1.0
 10
656.1912387139
 20
56.7593012861
 30
0.0
 10
656.1976264682
 20
56.7359884841
 30
0.0
 10
656.2305446644
 20
56.6398389626
 30
0.0
 10
656.2858567111
 20
56.552139243
 30
0.0
 10
656.335251007
 20
56.492718709
 30
0.0
  0
SPLINE
  5
774
100
AcDbEntity
  8
0
100
AcDbSpline
 62
7
  6
CONTINUOUS
 70
0
 71
3
 72
9
 73
5
 74
0
 42
0.0000001
 43
0.0000001
 44
0.0000000001
 40
0.0
 40
0.0
 40
0.0
 40
0.0
 40
0.2355596553
 40
1.0
 40
1.0
 40
1.0
 40
1.0
 10
656.335251007
 20
56.492718709
 30
0.0
 10
656.3710724145
 20
56.4496261387
 30
0.0
 10
656.5404613403
 20
56.2812756934
 30
0.0
 10
656.763828884
 20
56.1720454043
 30
0.0
 10
656.9394841486
 20
56.124978718
 30
0.0
  0
SPLINE
  5
775
100
AcDbEntity
  8
0
100
AcDbSpline
 62
7
  6
CONTINUOUS
 70
0
 71
3
 72
11
 73
7
 74
0
 42
0.0000001
 43
0.0000001
 44
0.0000000001
 40
0.0
 40
0.0
 40
0.0
 40
0.0
 40
0.2880052506
 40
0.5553344723
 40
0.7905070702
 40
1.0
 40
1.0
 40
1.0
 40
1.0
 10
664.211384333
 20
53.5908382901
 30
0.0
 10
664.330848544
 20
53.5588279512
 30
0.0
 10
664.5710260087
 20
53.5279188875
 30
0.0
 10
664.9112777807
 20
53.5839153303
 30
0.0
 10
665.1846550415
 20
53.7396359722
 30
0.0
 10
665.2910812318
 20
53.9111668002
 30
0.0
 10
665.3143653201
 20
53.9980642006
 30
0.0
  0
SPLINE
  5
776
100
AcDbEntity
  8
0
100
AcDbSpline
 62
7
  6
CONTINUOUS
 70
0
 71
3
 72
11
 73
7
 74
0
 42
0.0000001
 43
0.0000001
 44
0.0000000001
 40
0.0
 40
0.0
 40
0.0
 40
0.0
 40
0.2879697432
 40
0.5553440702
 40
0.7905331502
 40
1.0
 40
1.0
 40
1.0
 40
1.0
 10
660.3972713314
 20
58.8294394403
 30
0.0
 10
660.3375461718
 20
58.8454427486
 30
0.0
 10
660.2174582488
 20
58.8608842987
 30
0.0
 10
660.0473108881
 20
58.8329352518
 30
0.0
 10
659.9106385455
 20
58.7550248367
 30
0.0
 10
659.8574215142
 20
58.6692700805
 30
0.0
 10
659.8457808379
 20
58.625826485
 30
0.0
  0
SPLINE
  5
777
100
AcDbEntity
  8
0
100
AcDbSpline
 62
7
  6
CONTINUOUS
 70
0
 71
3
 72
11
 73
7
 74
0
 42
0.0000001
 43
0.0000001
 44
0.0000000001
 40
0.0
 40
0.0
 40
0.0
 40
0.0
 40
0.2879697432
 40
0.5553440702
 40
0.7905331502
 40
1.0
 40
1.0
 40
1.0
 40
1.0
 10
661.2757323005
 20
62.1079004094
 30
0.0
 10
661.2160071409
 20
62.1239037177
 30
0.0
 10
661.0959192178
 20
62.1393452678
 30
0.0
 10
660.9257718572
 20
62.1113962209
 30
0.0
 10
660.7890995145
 20
62.0334858057
 30
0.0
 10
660.7358824833
 20
61.9477310496
 30
0.0
 10
660.724241807
 20
61.9042874541
 30
0.0
  0
SPLINE
  5
778
100
AcDbEntity
  8
RUNDUNGEN
100
AcDbSpline
 62
7
  6
CONTINUOUS
 70
0
 71
3
 72
11
 73
7
 74
0
 42
0.0000001
 43
0.0000001
 44
0.0000000001
 40
0.0
 40
0.0
 40
0.0
 40
0.0
 40
0.2377805486
 40
0.4809056598
 40
0.733919361
 40
1.0
 40
1.0
 40
1.0
 40
1.0
 10
647.2829356706
 20
30.4105657684
 30
0.0
 10
647.0495764063
 20
29.5396572572
 30
0.0
 10
646.3829047365
 20
27.8244081928
 30
0.0
 10
644.8383465938
 20
25.4866265067
 30
0.0
 10
642.7883571742
 20
23.4251063218
 30
0.0
 10
641.1627835695
 20
22.2954869558
 30
0.0
 10
640.291498748
 20
21.7867390609
 30
0.0
  0
SPLINE
  5
779
100
AcDbEntity
  8
0
100
AcDbSpline
 62
7
  6
CONTINUOUS
 70
0
 71
3
 72
9
 73
5
 74
0
 42
0.0000001
 43
0.0000001
 44
0.0000000001
 40
0.0
 40
0.0
 40
0.0
 40
0.0
 40
0.5597866015
 40
1.0
 40
1.0
 40
1.0
 40
1.0
 10
661.7894142202
 20
60.0376456218
 30
0.0
 10
661.743860725
 20
60.0498516441
 30
0.0
 10
661.6544894727
 20
60.055249577
 30
0.0
 10
661.578416778
 20
59.9920234818
 30
0.0
 10
661.5688180228
 20
59.9562004397
 30
0.0
  0
SPLINE
  5
77A
100
AcDbEntity
  8
RUNDUNGEN
100
AcDbSpline
 62
7
  6
CONTINUOUS
 70
0
 71
3
 72
9
 73
5
 74
0
 42
0.0000001
 43
0.0000001
 44
0.0000000001
 40
0.0
 40
0.0
 40
0.0
 40
0.0
 40
0.4805366099
 40
1.0
 40
1.0
 40
1.0
 40
1.0
 10
714.5229478592
 20
-26.0106832955
 30
0.0
 10
714.6731388459
 20
-25.4501629025
 30
0.0
 10
714.7213710878
 20
-24.2013571832
 30
0.0
 10
714.2762199295
 20
-23.0469380595
 30
0.0
 10
713.9652363577
 20
-22.5021482015
 30
0.0
  0
SPLINE
  5
77B
100
AcDbEntity
  8
0
100
AcDbSpline
 62
7
  6
CONTINUOUS
 70
0
 71
3
 72
9
 73
5
 74
0
 42
0.0000001
 43
0.0000001
 44
0.0000000001
 40
0.0
 40
0.0
 40
0.0
 40
0.0
 40
0.5597866015
 40
1.0
 40
1.0
 40
1.0
 40
1.0
 10
662.6056746967
 20
59.4675448987
 30
0.0
 10
662.651228192
 20
59.4553388764
 30
0.0
 10
662.7405994442
 20
59.4499409436
 30
0.0
 10
662.816672139
 20
59.5131670388
 30
0.0
 10
662.8262708941
 20
59.5489900808
 30
0.0
  0
SPLINE
  5
77C
100
AcDbEntity
  8
0
100
AcDbSpline
 62
7
  6
CONTINUOUS
 70
0
 71
3
 72
9
 73
5
 74
0
 42
0.0000001
 43
0.0000001
 44
0.0000000001
 40
0.0
 40
0.0
 40
0.0
 40
0.0
 40
0.5597866015
 40
1.0
 40
1.0
 40
1.0
 40
1.0
 10
661.7272137276
 20
56.1890839296
 30
0.0
 10
661.7727672229
 20
56.1768779074
 30
0.0
 10
661.8621384751
 20
56.1714799745
 30
0.0
 10
661.9382111699
 20
56.2347060697
 30
0.0
 10
661.9478099251
 20
56.2705291117
 30
0.0
  0
SPLINE
  5
77D
100
AcDbEntity
  8
0
100
AcDbSpline
 62
7
  6
CONTINUOUS
 70
0
 71
3
 72
11
 73
7
 74
0
 42
0.0000001
 43
0.0000001
 44
0.0000000001
 40
0.0
 40
0.0
 40
0.0
 40
0.0
 40
0.2865059912
 40
0.5484241175
 40
0.7833822346
 40
1.0
 40
1.0
 40
1.0
 40
1.0
 10
676.0642815109
 20
54.9983845841
 30
0.0
 10
676.378146054
 20
54.9878585853
 30
0.0
 10
676.9844329571
 20
55.0347474514
 30
0.0
 10
677.8048438145
 20
55.3254406501
 30
0.0
 10
678.4340213389
 20
55.8182749287
 30
0.0
 10
678.676349145
 20
56.2711104902
 30
0.0
 10
678.7377677186
 20
56.500465347
 30
0.0
  0
SPLINE
  5
77E
100
AcDbEntity
  8
RUNDUNGEN
100
AcDbSpline
 62
7
  6
CONTINUOUS
 70
0
 71
3
 72
10
 73
6
 74
0
 42
0.0000001
 43
0.0000001
 44
0.0000000001
 40
0.0
 40
0.0
 40
0.0
 40
0.0
 40
0.2265441733
 40
0.4650409605
 40
1.0
 40
1.0
 40
1.0
 40
1.0
 10
753.4510020938
 20
56.1725612923
 30
0.0
 10
753.4876663156
 20
56.3097533006
 30
0.0
 10
753.513670177
 20
56.6067912149
 30
0.0
 10
753.3633639336
 20
57.2239038636
 30
0.0
 10
753.0475783946
 20
57.6247191558
 30
0.0
 10
752.7958130208
 20
57.8462198569
 30
0.0
  0
SPLINE
  5
77F
100
AcDbEntity
  8
0
100
AcDbSpline
 62
7
  6
CONTINUOUS
 70
0
 71
3
 72
8
 73
4
 74
0
 42
0.0000001
 43
0.0000001
 44
0.0000000001
 40
0.0
 40
0.0
 40
0.0
 40
0.0
 40
1.0
 40
1.0
 40
1.0
 40
1.0
 10
696.6941619761
 20
44.8871042527
 30
0.0
 10
696.8190286207
 20
44.8536463361
 30
0.0
 10
696.9502145754
 20
44.8376316733
 30
0.0
 10
697.0793963944
 20
44.842445066
 30
0.0
  0
SPLINE
  5
780
100
AcDbEntity
  8
0
100
AcDbSpline
 62
7
  6
CONTINUOUS
 70
0
 71
3
 72
11
 73
7
 74
0
 42
0.0000001
 43
0.0000001
 44
0.0000000001
 40
0.0
 40
0.0
 40
0.0
 40
0.0
 40
0.2847819434
 40
0.5451774547
 40
0.7807010719
 40
1.0
 40
1.0
 40
1.0
 40
1.0
 10
697.0793963944
 20
44.842445066
 30
0.0
 10
697.6793788527
 20
44.8648007755
 30
0.0
 10
698.8292353031
 20
45.0303582922
 30
0.0
 10
700.3660514082
 20
45.6763058983
 30
0.0
 10
701.5325900788
 20
46.6779220751
 30
0.0
 10
701.9839265439
 20
47.5590609004
 30
0.0
 10
702.1035896058
 20
48.005649527
 30
0.0
  0
SPLINE
  5
781
100
AcDbEntity
  8
0
100
AcDbSpline
 62
7
  6
CONTINUOUS
 70
0
 71
3
 72
9
 73
5
 74
0
 42
0.0000001
 43
0.0000001
 44
0.0000000001
 40
0.0
 40
0.0
 40
0.0
 40
0.0
 40
0.239729366
 40
1.0
 40
1.0
 40
1.0
 40
1.0
 10
698.9933572084
 20
52.2101943051
 30
0.0
 10
698.9758423096
 20
52.2267779343
 30
0.0
 10
698.8978213484
 20
52.2906388426
 30
0.0
 10
698.8034523653
 20
52.3334856343
 30
0.0
 10
698.7295644693
 20
52.3532838364
 30
0.0
  0
SPLINE
  5
782
100
AcDbEntity
  8
0
100
AcDbSpline
 62
7
  6
CONTINUOUS
 70
0
 71
3
 72
9
 73
5
 74
0
 42
0.0000001
 43
0.0000001
 44
0.0000000001
 40
0.0
 40
0.0
 40
0.0
 40
0.0
 40
0.4402133985
 40
1.0
 40
1.0
 40
1.0
 40
1.0
 10
661.1181034692
 20
60.5923328089
 30
0.0
 10
661.108504714
 20
60.5565097669
 30
0.0
 10
661.1427725526
 20
60.4637180149
 30
0.0
 10
661.2228692938
 20
60.4237071358
 30
0.0
 10
661.2684227891
 20
60.4115011135
 30
0.0
  0
SPLINE
  5
783
100
AcDbEntity
  8
0
100
AcDbSpline
 62
7
  6
CONTINUOUS
 70
0
 71
3
 72
9
 73
5
 74
0
 42
0.0000001
 43
0.0000001
 44
0.0000000001
 40
0.0
 40
0.0
 40
0.0
 40
0.0
 40
0.471076254
 40
1.0
 40
1.0
 40
1.0
 40
1.0
 10
663.9697525833
 20
61.0346554626
 30
0.0
 10
663.9813932596
 20
61.0780990581
 30
0.0
 10
663.9782913413
 20
61.1788637056
 30
0.0
 10
663.9283522112
 20
61.2640307588
 30
0.0
 10
663.8960708544
 20
61.3028647056
 30
0.0
  0
SPLINE
  5
784
100
AcDbEntity
  8
0
100
AcDbSpline
 62
7
  6
CONTINUOUS
 70
0
 71
3
 72
8
 73
4
 74
0
 42
0.0000001
 43
0.0000001
 44
0.0000000001
 40
0.0
 40
0.0
 40
0.0
 40
0.0
 40
1.0
 40
1.0
 40
1.0
 40
1.0
 10
663.8960708544
 20
61.3028647056
 30
0.0
 10
663.8781505763
 20
61.3244225085
 30
0.0
 10
663.8581084144
 20
61.344326152
 30
0.0
 10
663.8367269704
 20
61.3624564879
 30
0.0
  0
SPLINE
  5
785
100
AcDbEntity
  8
0
100
AcDbSpline
 62
7
  6
CONTINUOUS
 70
0
 71
3
 72
9
 73
5
 74
0
 42
0.0000001
 43
0.0000001
 44
0.0000000001
 40
0.0
 40
0.0
 40
0.0
 40
0.0
 40
0.241609722
 40
1.0
 40
1.0
 40
1.0
 40
1.0
 10
663.8367269704
 20
61.3624564879
 30
0.0
 10
663.8198969351
 20
61.3767274695
 30
0.0
 10
663.7465910099
 20
61.4314286428
 30
0.0
 10
663.6608574887
 20
61.4688080414
 30
0.0
 10
663.5939542836
 20
61.4867347011
 30
0.0
  0
SPLINE
  5
786
100
AcDbEntity
  8
BEZUGSACHSEN
100
AcDbSpline
 62
7
  6
CONTINUOUS
 70
0
 71
3
 72
15
 73
11
 74
0
 42
0.0000001
 43
0.0000001
 44
0.0000000001
 40
0.0
 40
0.0
 40
0.0
 40
0.0
 40
0.1084868148
 40
0.2293910952
 40
0.3614748234
 40
0.5
 40
0.6385251766
 40
0.7706089048
 40
0.8915131852
 40
1.0
 40
1.0
 40
1.0
 40
1.0
 10
678.0426821338
 20
70.4028206648
 30
0.0
 10
678.1291006392
 20
69.9266772443
 30
0.0
 10
678.5279122168
 20
68.9549189861
 30
0.0
 10
679.5982673807
 20
67.7217362661
 30
0.0
 10
681.0568197604
 20
66.730252619
 30
0.0
 10
682.772123111
 20
66.065455693
 30
0.0
 10
684.5900178508
 20
65.783535044
 30
0.0
 10
686.3489030879
 20
65.91290888
 30
0.0
 10
687.8924492109
 20
66.445698861
 30
0.0
 10
688.7237092976
 20
67.0878604102
 30
0.0
 10
689.0366216288
 20
67.4570034555
 30
0.0
  0
SPLINE
  5
787
100
AcDbEntity
  8
0
100
AcDbSpline
 62
7
  6
CONTINUOUS
 70
0
 71
3
 72
11
 73
7
 74
0
 42
0.0000001
 43
0.0000001
 44
0.0000000001
 40
0.0
 40
0.0
 40
0.0
 40
0.0
 40
0.227142142
 40
0.4653047767
 40
0.7220182825
 40
1.0
 40
1.0
 40
1.0
 40
1.0
 10
700.3373961315
 20
48.502325268
 30
0.0
 10
700.418321341
 20
48.8043422614
 30
0.0
 10
700.4812724009
 20
49.4549874187
 30
0.0
 10
700.2637842828
 20
50.4388192245
 30
0.0
 10
699.7596447817
 20
51.3879534033
 30
0.0
 10
699.2712205205
 20
51.947105024
 30
0.0
 10
698.9933572084
 20
52.2101943051
 30
0.0
  0
SPLINE
  5
788
100
AcDbEntity
  8
0
100
AcDbSpline
 62
7
  6
CONTINUOUS
 70
0
 71
3
 72
17
 73
13
 74
0
 42
0.0000001
 43
0.0000001
 44
0.0000000001
 40
0.0
 40
0.0
 40
0.0
 40
0.0
 40
0.0517921087
 40
0.1054769531
 40
0.2228492041
 40
0.356284866
 40
0.5
 40
0.643715134
 40
0.7771507959
 40
0.8945230469
 40
0.9482078913
 40
1.0
 40
1.0
 40
1.0
 40
1.0
 10
680.1122202438
 20
52.6857502718
 30
0.0
 10
680.0574875693
 20
52.4814851501
 30
0.0
 10
680.0048185756
 20
52.0474658418
 30
0.0
 10
680.1422399007
 20
51.1384216364
 30
0.0
 10
680.7847671826
 20
50.0246457229
 30
0.0
 10
682.0527484799
 20
48.9908661403
 30
0.0
 10
683.657915544
 20
48.3181055902
 30
0.0
 10
685.3844112737
 20
48.0981497852
 30
0.0
 10
686.9994050801
 20
48.359438517
 30
0.0
 10
688.1127379856
 20
49.0027331113
 30
0.0
 10
688.6862704468
 20
49.7212778237
 30
0.0
 10
688.8576674144
 20
50.1234840673
 30
0.0
 10
688.9124000888
 20
50.3277491891
 30
0.0
  0
SPLINE
  5
789
100
AcDbEntity
  8
RUNDUNGEN
100
AcDbSpline
 62
7
  6
CONTINUOUS
 70
0
 71
3
 72
9
 73
5
 74
0
 42
0.0000001
 43
0.0000001
 44
0.0000000001
 40
0.0
 40
0.0
 40
0.0
 40
0.0
 40
0.5194635453
 40
1.0
 40
1.0
 40
1.0
 40
1.0
 10
611.474292669
 20
4.9602173913
 30
0.0
 10
610.9325779045
 20
4.6439072258
 30
0.0
 10
609.9698561467
 20
3.8667264504
 30
0.0
 10
609.3872237319
 20
2.7611128328
 30
0.0
 10
609.2370327937
 20
2.2005926207
 30
0.0
  0
SPLINE
  5
78A
100
AcDbEntity
  8
RUNDUNGEN
100
AcDbSpline
 62
7
  6
CONTINUOUS
 70
0
 71
3
 72
10
 73
6
 74
0
 42
0.0000001
 43
0.0000001
 44
0.0000000001
 40
0.0
 40
0.0
 40
0.0
 40
0.0
 40
0.534974248
 40
0.7734715769
 40
1.0
 40
1.0
 40
1.0
 40
1.0
 10
631.3964856939
 20
70.5262952713
 30
0.0
 10
631.0676739917
 20
70.460347481
 30
0.0
 10
630.5937506642
 20
70.2711036714
 30
0.0
 10
630.1550312661
 20
69.8117687751
 30
0.0
 10
630.0290497839
 20
69.5415099683
 30
0.0
 10
629.99221856
 20
69.4043654122
 30
0.0
  0
SPLINE
  5
78B
100
AcDbEntity
  8
0
100
AcDbSpline
 62
7
  6
CONTINUOUS
 70
0
 71
3
 72
9
 73
5
 74
0
 42
0.0000001
 43
0.0000001
 44
0.0000000001
 40
0.0
 40
0.0
 40
0.0
 40
0.0
 40
0.4402133985
 40
1.0
 40
1.0
 40
1.0
 40
1.0
 10
660.0932323386
 20
56.7674616783
 30
0.0
 10
660.0836335834
 20
56.7316386363
 30
0.0
 10
660.117901422
 20
56.6388468843
 30
0.0
 10
660.1979981632
 20
56.5988360052
 30
0.0
 10
660.2435516585
 20
56.5866299829
 30
0.0
  0
SPLINE
  5
78C
100
AcDbEntity
  8
RUNDUNGEN
100
AcDbSpline
 62
7
  6
CONTINUOUS
 70
0
 71
3
 72
11
 73
7
 74
0
 42
0.0000001
 43
0.0000001
 44
0.0000000001
 40
0.0
 40
0.0
 40
0.0
 40
0.0
 40
0.2794013718
 40
0.5367226037
 40
0.7743080703
 40
1.0
 40
1.0
 40
1.0
 40
1.0
 10
622.9493762516
 20
94.9478467431
 30
0.0
 10
622.3974169934
 20
94.8371435862
 30
0.0
 10
621.3531931136
 20
94.5203654257
 30
0.0
 10
619.992166946
 20
93.7241188284
 30
0.0
 10
618.9744269696
 20
92.6586777906
 30
0.0
 10
618.5722546487
 20
91.7931235576
 30
0.0
 10
618.454645322
 20
91.3538606081
 30
0.0
  0
SPLINE
  5
78D
100
AcDbEntity
  8
RUNDUNGEN
100
AcDbSpline
 62
7
  6
CONTINUOUS
 70
0
 71
3
 72
9
 73
5
 74
0
 42
0.0000001
 43
0.0000001
 44
0.0000000001
 40
0.0
 40
0.0
 40
0.0
 40
0.0
 40
0.2558234887
 40
1.0
 40
1.0
 40
1.0
 40
1.0
 10
642.8461561564
 20
92.8568695399
 30
0.0
 10
641.4254547272
 20
93.5300338841
 30
0.0
 10
635.6810681909
 20
95.7187601897
 30
0.0
 10
629.2256985198
 20
96.2066510454
 30
0.0
 10
624.7418000288
 20
95.3073424264
 30
0.0
  0
SPLINE
  5
78E
100
AcDbEntity
  8
RUNDUNGEN
100
AcDbSpline
 62
7
  6
CONTINUOUS
 70
0
 71
3
 72
10
 73
6
 74
0
 42
0.0000001
 43
0.0000001
 44
0.0000000001
 40
0.0
 40
0.0
 40
0.0
 40
0.0
 40
0.2540840942
 40
0.5191023916
 40
1.0
 40
1.0
 40
1.0
 40
1.0
 10
743.7027574909
 20
65.8462007308
 30
0.0
 10
743.4687320153
 20
66.052094044
 30
0.0
 10
742.9145958839
 20
66.392137579
 30
0.0
 10
741.7338711772
 20
66.7308813406
 30
0.0
 10
740.7366815758
 20
66.6255128423
 30
0.0
 10
740.227217831
 20
66.3280342207
 30
0.0
  0
SPLINE
  5
78F
100
AcDbEntity
  8
0
100
AcDbSpline
 62
7
  6
CONTINUOUS
 70
0
 71
3
 72
9
 73
5
 74
0
 42
0.0000001
 43
0.0000001
 44
0.0000000001
 40
0.0
 40
0.0
 40
0.0
 40
0.0
 40
0.4402133985
 40
1.0
 40
1.0
 40
1.0
 40
1.0
 10
660.2396425001
 20
57.3138718398
 30
0.0
 10
660.2300437449
 20
57.2780487978
 30
0.0
 10
660.2643115835
 20
57.1852570458
 30
0.0
 10
660.3444083247
 20
57.1452461667
 30
0.0
 10
660.38996182
 20
57.1330401444
 30
0.0
  0
SPLINE
  5
790
100
AcDbEntity
  8
0
100
AcDbSpline
 62
7
  6
CONTINUOUS
 70
0
 71
3
 72
8
 73
4
 74
0
 42
0.0000001
 43
0.0000001
 44
0.0000000001
 40
0.0
 40
0.0
 40
0.0
 40
0.0
 40
1.0
 40
1.0
 40
1.0
 40
1.0
 10
696.8405721376
 20
45.4335144142
 30
0.0
 10
696.9654387822
 20
45.4000564976
 30
0.0
 10
697.0966247369
 20
45.3840418348
 30
0.0
 10
697.2258065559
 20
45.3888552275
 30
0.0
  0
SPLINE
  5
791
100
AcDbEntity
  8
0
100
AcDbSpline
 62
7
  6
CONTINUOUS
 70
0
 71
3
 72
11
 73
7
 74
0
 42
0.0000001
 43
0.0000001
 44
0.0000000001
 40
0.0
 40
0.0
 40
0.0
 40
0.0
 40
0.2816347582
 40
0.5420479832
 40
0.7798483853
 40
1.0
 40
1.0
 40
1.0
 40
1.0
 10
697.2258065559
 20
45.3888552275
 30
0.0
 10
697.767697133
 20
45.4090463983
 30
0.0
 10
698.8110371975
 20
45.548645309
 30
0.0
 10
700.230741212
 20
46.0812720975
 30
0.0
 10
701.3661683509
 20
46.904720715
 30
0.0
 10
701.8869041796
 20
47.642627379
 30
0.0
 10
702.0622180189
 20
48.0285599067
 30
0.0
  0
SPLINE
  5
792
100
AcDbEntity
  8
0
100
AcDbSpline
 62
7
  6
CONTINUOUS
 70
0
 71
3
 72
9
 73
5
 74
0
 42
0.0000001
 43
0.0000001
 44
0.0000000001
 40
0.0
 40
0.0
 40
0.0
 40
0.0
 40
0.2591205677
 40
1.0
 40
1.0
 40
1.0
 40
1.0
 10
698.8759746309
 20
52.8996939979
 30
0.0
 10
698.9011501287
 20
52.8929482436
 30
0.0
 10
698.9966457875
 20
52.8614049033
 30
0.0
 10
699.0856539438
 20
52.8078406743
 30
0.0
 10
699.1397673699
 20
52.7566044666
 30
0.0
  0
SPLINE
  5
793
100
AcDbEntity
  8
0
100
AcDbSpline
 62
7
  6
CONTINUOUS
 70
0
 71
3
 72
11
 73
7
 74
0
 42
0.0000001
 43
0.0000001
 44
0.0000000001
 40
0.0
 40
0.0
 40
0.0
 40
0.0
 40
0.2779697373
 40
0.5346991835
 40
0.7728568778
 40
1.0
 40
1.0
 40
1.0
 40
1.0
 10
699.1397673699
 20
52.7566044666
 30
0.0
 10
699.4176197025
 20
52.4935255812
 30
0.0
 10
699.9060322997
 20
51.9343589449
 30
0.0
 10
700.4102284605
 20
50.985248177
 30
0.0
 10
700.6276909892
 20
50.00138932
 30
0.0
 10
700.5647599464
 20
49.3507473581
 30
0.0
 10
700.4838340977
 20
49.0487279792
 30
0.0
  0
SPLINE
  5
794
100
AcDbEntity
  8
0
100
AcDbSpline
 62
7
  6
CONTINUOUS
 70
0
 71
3
 72
9
 73
5
 74
0
 42
0.0000001
 43
0.0000001
 44
0.0000000001
 40
0.0
 40
0.0
 40
0.0
 40
0.0
 40
0.5403772208
 40
1.0
 40
1.0
 40
1.0
 40
1.0
 10
676.2106916725
 20
55.5447947456
 30
0.0
 10
676.6918259794
 20
55.5286590615
 30
0.0
 10
677.5995971313
 20
55.6430560515
 30
0.0
 10
678.3831522469
 20
56.173610427
 30
0.0
 10
678.6237603599
 20
56.5049227988
 30
0.0
  0
SPLINE
  5
795
100
AcDbEntity
  8
0
100
AcDbSpline
 62
7
  6
CONTINUOUS
 70
0
 71
3
 72
8
 73
4
 74
0
 42
0.0000001
 43
0.0000001
 44
0.0000000001
 40
0.0
 40
0.0
 40
0.0
 40
0.0
 40
1.0
 40
1.0
 40
1.0
 40
1.0
 10
678.6237603599
 20
56.5049227988
 30
0.0
 10
678.683992342
 20
56.5878609865
 30
0.0
 10
678.7372024647
 20
56.6764619827
 30
0.0
 10
678.7814228381
 20
56.7689346447
 30
0.0
  0
SPLINE
  5
796
100
AcDbEntity
  8
0
100
AcDbSpline
 62
7
  6
CONTINUOUS
 70
0
 71
3
 72
11
 73
7
 74
0
 42
0.0000001
 43
0.0000001
 44
0.0000000001
 40
0.0
 40
0.0
 40
0.0
 40
0.0
 40
0.2880066977
 40
0.5553334191
 40
0.790532629
 40
1.0
 40
1.0
 40
1.0
 40
1.0
 10
676.1208246523
 20
59.0554821229
 30
0.0
 10
676.3364908554
 20
58.9976945379
 30
0.0
 10
676.7398720915
 20
58.8292136653
 30
0.0
 10
677.2213458711
 20
58.4345711506
 30
0.0
 10
677.5080863819
 20
57.9443039542
 30
0.0
 10
677.5196942718
 20
57.5800789606
 30
0.0
 10
677.4776653412
 20
57.4232248563
 30
0.0
  0
SPLINE
  5
797
100
AcDbEntity
  8
0
100
AcDbSpline
 62
7
  6
CONTINUOUS
 70
0
 71
3
 72
9
 73
5
 74
0
 42
0.0000001
 43
0.0000001
 44
0.0000000001
 40
0.0
 40
0.0
 40
0.0
 40
0.0
 40
0.5597866015
 40
1.0
 40
1.0
 40
1.0
 40
1.0
 10
661.8736238892
 20
56.7354940911
 30
0.0
 10
661.9191773844
 20
56.7232880689
 30
0.0
 10
662.0085486366
 20
56.717890136
 30
0.0
 10
662.0846213314
 20
56.7811162312
 30
0.0
 10
662.0942200866
 20
56.8169392732
 30
0.0
  0
SPLINE
  5
798
100
AcDbEntity
  8
0
100
AcDbSpline
 62
7
  6
CONTINUOUS
 70
0
 71
3
 72
9
 73
5
 74
0
 42
0.0000001
 43
0.0000001
 44
0.0000000001
 40
0.0
 40
0.0
 40
0.0
 40
0.0
 40
0.4402133985
 40
1.0
 40
1.0
 40
1.0
 40
1.0
 10
661.7152281843
 20
60.5026106012
 30
0.0
 10
661.7248269395
 20
60.5384336433
 30
0.0
 10
661.8008996343
 20
60.6016597385
 30
0.0
 10
661.8902708865
 20
60.5962618056
 30
0.0
 10
661.9358243817
 20
60.5840557833
 30
0.0
  0
SPLINE
  5
799
100
AcDbEntity
  8
0
100
AcDbSpline
 62
7
  6
CONTINUOUS
 70
0
 71
3
 72
9
 73
5
 74
0
 42
0.0000001
 43
0.0000001
 44
0.0000000001
 40
0.0
 40
0.0
 40
0.0
 40
0.0
 40
0.5597866015
 40
1.0
 40
1.0
 40
1.0
 40
1.0
 10
662.2603754594
 20
60.4970925842
 30
0.0
 10
662.3059289546
 20
60.4848865619
 30
0.0
 10
662.3860256959
 20
60.4448756828
 30
0.0
 10
662.4202935344
 20
60.3520839308
 30
0.0
 10
662.4106947793
 20
60.3162608888
 30
0.0
  0
SPLINE
  5
79A
100
AcDbEntity
  8
0
100
AcDbSpline
 62
7
  6
CONTINUOUS
 70
0
 71
3
 72
9
 73
5
 74
0
 42
0.0000001
 43
0.0000001
 44
0.0000000001
 40
0.0
 40
0.0
 40
0.0
 40
0.0
 40
0.5597866015
 40
1.0
 40
1.0
 40
1.0
 40
1.0
 10
662.7520848582
 20
60.0139550602
 30
0.0
 10
662.7976383535
 20
60.001749038
 30
0.0
 10
662.8870096057
 20
59.9963511051
 30
0.0
 10
662.9630823005
 20
60.0595772003
 30
0.0
 10
662.9726810556
 20
60.0954002423
 30
0.0
  0
SPLINE
  5
79B
100
AcDbEntity
  8
0
100
AcDbSpline
 62
7
  6
CONTINUOUS
 70
0
 71
3
 72
11
 73
7
 74
0
 42
0.0000001
 43
0.0000001
 44
0.0000000001
 40
0.0
 40
0.0
 40
0.0
 40
0.0
 40
0.2876567391
 40
0.555407049
 40
0.7907201247
 40
1.0
 40
1.0
 40
1.0
 40
1.0
 10
663.7403644451
 20
62.0331448626
 30
0.0
 10
663.8000160448
 20
62.0171612647
 30
0.0
 10
663.9115826858
 20
61.9702773961
 30
0.0
 10
664.0453608231
 20
61.861360594
 30
0.0
 10
664.1243020068
 20
61.725254027
 30
0.0
 10
664.1277913456
 20
61.6244641531
 30
0.0
 10
664.1161627448
 20
61.5810656241
 30
0.0
  0
SPLINE
  5
79C
100
AcDbEntity
  8
0
100
AcDbSpline
 62
7
  6
CONTINUOUS
 70
0
 71
3
 72
9
 73
5
 74
0
 42
0.0000001
 43
0.0000001
 44
0.0000000001
 40
0.0
 40
0.0
 40
0.0
 40
0.0
 40
0.5531686664
 40
1.0
 40
1.0
 40
1.0
 40
1.0
 10
662.9824909802
 20
58.7094295853
 30
0.0
 10
663.0667831318
 20
58.6681262006
 30
0.0
 10
663.2110610205
 20
58.5621400225
 30
0.0
 10
663.2573262595
 20
58.3758442254
 30
0.0
 10
663.2377017757
 20
58.302604655
 30
0.0
  0
SPLINE
  5
79D
100
AcDbEntity
  8
0
100
AcDbSpline
 62
7
  6
CONTINUOUS
 70
0
 71
3
 72
9
 73
5
 74
0
 42
0.0000001
 43
0.0000001
 44
0.0000000001
 40
0.0
 40
0.0
 40
0.0
 40
0.0
 40
0.4575243679
 40
1.0
 40
1.0
 40
1.0
 40
1.0
 10
659.9921909994
 20
59.1722366465
 30
0.0
 10
660.0078479459
 20
59.2306691662
 30
0.0
 10
660.0967029026
 20
59.3445031844
 30
0.0
 10
660.2289158107
 20
59.3851640458
 30
0.0
 10
660.3000901493
 20
59.3940431242
 30
0.0
  0
SPLINE
  5
79E
100
AcDbEntity
  8
0
100
AcDbSpline
 62
7
  6
CONTINUOUS
 70
0
 71
3
 72
8
 73
4
 74
0
 42
0.0000001
 43
0.0000001
 44
0.0000000001
 40
0.0
 40
0.0
 40
0.0
 40
0.0
 40
1.0
 40
1.0
 40
1.0
 40
1.0
 10
660.3000901493
 20
59.3940431242
 30
0.0
 10
660.3808871359
 20
59.4041226387
 30
0.0
 10
660.465032649
 20
59.396923496
 30
0.0
 10
660.5436814929
 20
59.3758496018
 30
0.0
  0
SPLINE
  5
79F
100
AcDbEntity
  8
0
100
AcDbSpline
 62
7
  6
CONTINUOUS
 70
0
 71
3
 72
11
 73
7
 74
0
 42
0.0000001
 43
0.0000001
 44
0.0000000001
 40
0.0
 40
0.0
 40
0.0
 40
0.0
 40
0.2092798753
 40
0.444592951
 40
0.7123432609
 40
1.0
 40
1.0
 40
1.0
 40
1.0
 10
660.8706519685
 20
62.4506976156
 30
0.0
 10
660.8822805693
 20
62.4940961447
 30
0.0
 10
660.9356973623
 20
62.5796380665
 30
0.0
 10
661.0721157163
 20
62.6580392193
 30
0.0
 10
661.2424293827
 20
62.6854748681
 30
0.0
 10
661.3624908623
 20
62.6702941688
 30
0.0
 10
661.422142462
 20
62.6543105709
 30
0.0
  0
SPLINE
  5
7A0
100
AcDbEntity
  8
RUNDUNGEN
100
AcDbSpline
 62
7
  6
CONTINUOUS
 70
0
 71
3
 72
11
 73
7
 74
0
 42
0.0000001
 43
0.0000001
 44
0.0000000001
 40
0.0
 40
0.0
 40
0.0
 40
0.0
 40
0.2660806618
 40
0.5190943778
 40
0.7622194713
 40
1.0
 40
1.0
 40
1.0
 40
1.0
 10
697.4220646619
 20
6.4786500611
 30
0.0
 10
696.9218837137
 20
7.3548812593
 30
0.0
 10
696.0789052426
 20
9.1459475145
 30
0.0
 10
695.3343224285
 20
11.9562715424
 30
0.0
 10
695.1655869369
 20
14.7531292405
 30
0.0
 10
695.445857133
 20
16.5719143816
 30
0.0
 10
695.6792164073
 20
17.4428229303
 30
0.0
  0
SPLINE
  5
7A1
100
AcDbEntity
  8
0
100
AcDbSpline
 62
7
  6
CONTINUOUS
 70
0
 71
3
 72
9
 73
5
 74
0
 42
0.0000001
 43
0.0000001
 44
0.0000000001
 40
0.0
 40
0.0
 40
0.0
 40
0.0
 40
0.5
 40
1.0
 40
1.0
 40
1.0
 40
1.0
 10
680.1900546902
 20
52.8456888634
 30
0.0
 10
680.0294076155
 20
51.074912683
 30
0.0
 10
683.5460438653
 20
47.9005948017
 30
0.0
 10
688.1786991343
 20
48.8913166016
 30
0.0
 10
688.9249627767
 20
50.5051772957
 30
0.0
  0
SPLINE
  5
7A2
100
AcDbEntity
  8
RUNDUNGEN
100
AcDbSpline
 62
7
  6
CONTINUOUS
 70
0
 71
3
 72
11
 73
7
 74
0
 42
0.0000001
 43
0.0000001
 44
0.0000000001
 40
0.0
 40
0.0
 40
0.0
 40
0.0
 40
0.2256927635
 40
0.4632951072
 40
0.7206222905
 40
1.0
 40
1.0
 40
1.0
 40
1.0
 10
639.4686479986
 20
73.4895989544
 30
0.0
 10
639.4096984864
 20
73.2701695621
 30
0.0
 10
639.2083222166
 20
72.8378818602
 30
0.0
 10
638.6995040349
 20
72.3058334694
 30
0.0
 10
638.0193612784
 20
71.9081939078
 30
0.0
 10
637.4976268518
 20
71.7499645494
 30
0.0
 10
637.2218629697
 20
71.694656242
 30
0.0
  0
SPLINE
  5
7A3
100
AcDbEntity
  8
0
100
AcDbSpline
 62
7
  6
CONTINUOUS
 70
0
 71
3
 72
9
 73
5
 74
0
 42
0.0000001
 43
0.0000001
 44
0.0000000001
 40
0.0
 40
0.0
 40
0.0
 40
0.0
 40
0.4402133985
 40
1.0
 40
1.0
 40
1.0
 40
1.0
 10
662.2642846177
 20
59.7698507273
 30
0.0
 10
662.2738833729
 20
59.8056737693
 30
0.0
 10
662.2396155344
 20
59.8984655213
 30
0.0
 10
662.1595187931
 20
59.9384764004
 30
0.0
 10
662.1139652979
 20
59.9506824227
 30
0.0
  0
SPLINE
  5
7A4
100
AcDbEntity
  8
0
100
AcDbSpline
 62
7
  6
CONTINUOUS
 70
0
 71
3
 72
9
 73
5
 74
0
 42
0.0000001
 43
0.0000001
 44
0.0000000001
 40
0.0
 40
0.0
 40
0.0
 40
0.0
 40
0.538986273
 40
1.0
 40
1.0
 40
1.0
 40
1.0
 10
664.3577944945
 20
54.1372484516
 30
0.0
 10
664.5334497591
 20
54.0901817653
 30
0.0
 10
664.8795165469
 20
54.0635450456
 30
0.0
 10
665.2123506112
 20
54.2031008346
 30
0.0
 10
665.3229553334
 20
54.3124651924
 30
0.0
  0
SPLINE
  5
7A5
100
AcDbEntity
  8
0
100
AcDbSpline
 62
7
  6
CONTINUOUS
 70
0
 71
3
 72
9
 73
5
 74
0
 42
0.0000001
 43
0.0000001
 44
0.0000000001
 40
0.0
 40
0.0
 40
0.0
 40
0.0
 40
0.2592261758
 40
1.0
 40
1.0
 40
1.0
 40
1.0
 10
665.3229553334
 20
54.3124651924
 30
0.0
 10
665.3396444752
 20
54.3289671758
 30
0.0
 10
665.4001486648
 20
54.3963703387
 30
0.0
 10
665.443416794
 20
54.4796908581
 30
0.0
 10
665.4607754816
 20
54.5444743621
 30
0.0
  0
SPLINE
  5
7A6
100
AcDbEntity
  8
BEZUGSACHSEN
100
AcDbSpline
 62
7
  6
CONTINUOUS
 70
0
 71
3
 72
8
 73
4
 74
0
 42
0.0000001
 43
0.0000001
 44
0.0000000001
 40
0.0
 40
0.0
 40
0.0
 40
0.0
 40
1.0
 40
1.0
 40
1.0
 40
1.0
 10
660.1996983267
 20
82.7419602835
 30
0.0
 10
660.8853554032
 20
83.7624542627
 30
0.0
 10
661.4555198654
 20
84.8796445503
 30
0.0
 10
661.8285753476
 20
86.0511236134
 30
0.0
  0
SPLINE
  5
7A7
100
AcDbEntity
  8
KONSTRUKTIONSELEMENTE
100
AcDbSpline
 62
7
  6
CONTINUOUS
 70
0
 71
3
 72
15
 73
11
 74
0
 42
0.0000001
 43
0.0000001
 44
0.0000000001
 40
0.0
 40
0.0
 40
0.0
 40
0.0
 40
0.0625069549
 40
0.1250215132
 40
0.2497860046
 40
0.3747509967
 40
0.4997970344
 40
0.6248763317
 40
0.749970676
 40
1.0
 40
1.0
 40
1.0
 40
1.0
 10
662.7762363639
 20
89.5395245548
 30
0.0
 10
662.8946011343
 20
89.9812678918
 30
0.0
 10
663.2256228151
 20
90.842312706
 30
0.0
 10
664.2097235444
 20
92.3936295388
 30
0.0
 10
665.901142224
 20
93.9792530628
 30
0.0
 10
668.2765085761
 20
95.3739667974
 30
0.0
 10
670.8340205085
 20
96.391489395
 30
0.0
 10
673.4906233665
 20
97.1034064768
 30
0.0
 10
677.1039254413
 20
97.7077534953
 30
0.0
 10
679.8607133144
 20
97.8190523024
 30
0.0
 10
681.6891734883
 20
97.7630882517
 30
0.0
  0
SPLINE
  5
7A8
100
AcDbEntity
  8
RUNDUNGEN
100
AcDbSpline
 62
7
  6
CONTINUOUS
 70
0
 71
3
 72
15
 73
11
 74
0
 42
0.0000001
 43
0.0000001
 44
0.0000000001
 40
0.0
 40
0.0
 40
0.0
 40
0.0
 40
0.0570233419
 40
0.1293586796
 40
0.2242107455
 40
0.3430879243
 40
0.4844660151
 40
0.6447708672
 40
0.8187803679
 40
1.0
 40
1.0
 40
1.0
 40
1.0
 10
646.4569227627
 20
106.3337832908
 30
0.0
 10
646.4976044003
 20
106.4856092291
 30
0.0
 10
646.7116284763
 20
106.7975533042
 30
0.0
 10
647.2639265371
 20
107.098817131
 30
0.0
 10
648.0299340317
 20
107.3018162082
 30
0.0
 10
649.0068832646
 20
107.3998782214
 30
0.0
 10
650.167677304
 20
107.3890389143
 30
0.0
 10
651.4743889043
 20
107.2650424556
 30
0.0
 10
652.8768901468
 20
107.0300539392
 30
0.0
 10
653.830905074
 20
106.8060906292
 30
0.0
 10
654.3134064458
 20
106.6768047763
 30
0.0
  0
SPLINE
  5
7A9
100
AcDbEntity
  8
RUNDUNGEN
100
AcDbSpline
 62
7
  6
CONTINUOUS
 70
0
 71
3
 72
15
 73
11
 74
0
 42
0.0000001
 43
0.0000001
 44
0.0000000001
 40
0.0
 40
0.0
 40
0.0
 40
0.0
 40
0.0570233419
 40
0.1293586796
 40
0.2242107455
 40
0.3430879243
 40
0.4844660151
 40
0.6447708672
 40
0.8187803679
 40
1.0
 40
1.0
 40
1.0
 40
1.0
 10
734.356172955
 20
82.7812501864
 30
0.0
 10
734.3968545926
 20
82.9330761248
 30
0.0
 10
734.3674763433
 20
83.3102396563
 30
0.0
 10
734.0398041056
 20
83.847290814
 30
0.0
 10
733.4779216944
 20
84.4060969192
 30
0.0
 10
732.6808898471
 20
84.9794957301
 30
0.0
 10
731.6701930668
 20
85.5505056346
 30
0.0
 10
730.4765493962
 20
86.0964773515
 30
0.0
 10
729.1444534332
 20
86.5942219479
 30
0.0
 10
728.2062706156
 20
86.8772714956
 30
0.0
 10
727.7237692438
 20
87.0065573485
 30
0.0
  0
SPLINE
  5
7AA
100
AcDbEntity
  8
RUNDUNGEN
100
AcDbSpline
 62
7
  6
CONTINUOUS
 70
0
 71
3
 72
15
 73
11
 74
0
 42
0.0000001
 43
0.0000001
 44
0.0000000001
 40
0.0
 40
0.0
 40
0.0
 40
0.0
 40
0.0570233419
 40
0.1293586796
 40
0.2242107455
 40
0.3430879243
 40
0.4844660151
 40
0.6447708672
 40
0.8187803679
 40
1.0
 40
1.0
 40
1.0
 40
1.0
 10
736.3891484235
 20
90.3684179255
 30
0.0
 10
736.4298300611
 20
90.5202438639
 30
0.0
 10
736.4004518118
 20
90.8974073955
 30
0.0
 10
736.0727795741
 20
91.4344585531
 30
0.0
 10
735.5108971629
 20
91.9932646583
 30
0.0
 10
734.7138653156
 20
92.5666634692
 30
0.0
 10
733.7031685353
 20
93.1376733737
 30
0.0
 10
732.5095248648
 20
93.6836450906
 30
0.0
 10
731.1774289017
 20
94.1813896871
 30
0.0
 10
730.2392460841
 20
94.4644392347
 30
0.0
 10
729.7567447123
 20
94.5937250876
 30
0.0
  0
SPLINE
  5
7AB
100
AcDbEntity
  8
RUNDUNGEN
100
AcDbSpline
 62
7
  6
CONTINUOUS
 70
0
 71
3
 72
9
 73
5
 74
0
 42
0.0000001
 43
0.0000001
 44
0.0000000001
 40
0.0
 40
0.0
 40
0.0
 40
0.0
 40
0.4924952808
 40
1.0
 40
1.0
 40
1.0
 40
1.0
 10
681.2915966952
 20
129.9886678078
 30
0.0
 10
679.9793067438
 20
130.3402948405
 30
0.0
 10
677.2928106786
 20
130.9688736848
 30
0.0
 10
674.6122894712
 20
131.621506586
 30
0.0
 10
673.2600057656
 20
131.9838499129
 30
0.0
  0
SPLINE
  5
7AC
100
AcDbEntity
  8
RUNDUNGEN
100
AcDbSpline
 62
7
  6
CONTINUOUS
 70
0
 71
3
 72
15
 73
11
 74
0
 42
0.0000001
 43
0.0000001
 44
0.0000000001
 40
0.0
 40
0.0
 40
0.0
 40
0.0
 40
0.0570233419
 40
0.1293586796
 40
0.2242107455
 40
0.3430879243
 40
0.4844660151
 40
0.6447708672
 40
0.8187803679
 40
1.0
 40
1.0
 40
1.0
 40
1.0
 10
648.4898982312
 20
113.9209510299
 30
0.0
 10
648.5305798688
 20
114.0727769683
 30
0.0
 10
648.7446039448
 20
114.3847210433
 30
0.0
 10
649.2969020056
 20
114.6859848701
 30
0.0
 10
650.0629095002
 20
114.8889839474
 30
0.0
 10
651.0398587331
 20
114.9870459605
 30
0.0
 10
652.2006527726
 20
114.9762066534
 30
0.0
 10
653.5073643728
 20
114.8522101947
 30
0.0
 10
654.9098656153
 20
114.6172216784
 30
0.0
 10
655.8638805426
 20
114.3932583683
 30
0.0
 10
656.3463819144
 20
114.2639725154
 30
0.0
  0
SPLINE
  5
7AD
100
AcDbEntity
  8
KONSTRUKTIONSELEMENTE
100
AcDbSpline
 62
7
  6
CONTINUOUS
 70
0
 71
3
 72
21
 73
17
 74
0
 42
0.0000001
 43
0.0000001
 44
0.0000000001
 40
0.0
 40
0.0
 40
0.0
 40
0.0
 40
0.1925459405
 40
0.3785037623
 40
0.5509386307
 40
0.7029185681
 40
0.7692074395
 40
0.8280570951
 40
0.8788329079
 40
0.9209998828
 40
0.9541446639
 40
0.9780054346
 40
0.9864621013
 40
0.9926832447
 40
0.9969235195
 40
1.0
 40
1.0
 40
1.0
 40
1.0
 10
660.1996983267
 20
82.7419602835
 30
0.0
 10
659.3736433606
 20
81.5125058689
 30
0.0
 10
657.8046441429
 20
79.058481341
 30
0.0
 10
655.6585131229
 20
75.4029163662
 30
0.0
 10
653.7828951965
 20
71.9530750455
 30
0.0
 10
652.4274962547
 20
69.2698932773
 30
0.0
 10
651.5144922631
 20
67.3434232892
 30
0.0
 10
650.957161045
 20
66.110168668
 30
0.0
 10
650.4992709977
 20
65.0359012296
 30
0.0
 10
650.1435198074
 20
64.1333242336
 30
0.0
 10
649.8928553009
 20
63.4125547283
 30
0.0
 10
649.7570359561
 20
62.9269331602
 30
0.0
 10
649.7104101521
 20
62.6331261084
 30
0.0
 10
649.7073745796
 20
62.4879015175
 30
0.0
 10
649.7274046201
 20
62.3823658369
 30
0.0
 10
649.7743011343
 20
62.3409024409
 30
0.0
 10
649.7971610411
 20
62.3347771473
 30
0.0
  0
SPLINE
  5
7AE
100
AcDbEntity
  8
KONSTRUKTIONSELEMENTE
100
AcDbSpline
 62
7
  6
CONTINUOUS
 70
0
 71
3
 72
21
 73
17
 74
0
 42
0.0000001
 43
0.0000001
 44
0.0000000001
 40
0.0
 40
0.0
 40
0.0
 40
0.0
 40
0.0030764805
 40
0.0073167553
 40
0.0135378987
 40
0.0219945654
 40
0.0458553361
 40
0.0790001172
 40
0.1211670921
 40
0.1719429049
 40
0.2307925605
 40
0.2970814319
 40
0.4490613693
 40
0.6214962377
 40
0.8074540595
 40
1.0
 40
1.0
 40
1.0
 40
1.0
 10
709.4639386795
 20
46.3471122641
 30
0.0
 10
709.4867985863
 20
46.3409869705
 30
0.0
 10
709.548143857
 20
46.3534470677
 30
0.0
 10
709.6182582212
 20
46.4348286279
 30
0.0
 10
709.6882416337
 20
46.5621145991
 30
0.0
 10
709.7947660289
 20
46.8398718718
 30
0.0
 10
709.91995381
 20
47.3283421589
 30
0.0
 10
710.0632567322
 20
48.0778791139
 30
0.0
 10
710.206455662
 20
49.0374093165
 30
0.0
 10
710.3470449681
 20
50.1966972323
 30
0.0
 10
710.4810092855
 20
51.5433926726
 30
0.0
 10
710.6535596291
 20
53.6682666177
 30
0.0
 10
710.8213405973
 20
56.6696696629
 30
0.0
 10
710.9219284856
 20
60.5951288488
 30
0.0
 10
710.8911069898
 20
64.8340064922
 30
0.0
 10
710.7593260728
 20
67.7437536836
 30
0.0
 10
710.6586686944
 20
69.2215199226
 30
0.0
  0
SPLINE
  5
7AF
100
AcDbEntity
  8
KONSTRUKTIONSELEMENTE
100
AcDbSpline
 62
7
  6
CONTINUOUS
 70
0
 71
3
 72
9
 73
5
 74
0
 42
0.0000001
 43
0.0000001
 44
0.0000000001
 40
0.0
 40
0.0
 40
0.0
 40
0.0
 40
0.4999249095
 40
1.0
 40
1.0
 40
1.0
 40
1.0
 10
711.0295878248
 20
73.4240155536
 30
0.0
 10
710.8469969999
 20
72.7425773183
 30
0.0
 10
710.6087325969
 20
71.3426231319
 30
0.0
 10
710.6107121485
 20
69.925577247
 30
0.0
 10
710.6586686944
 20
69.2215199226
 30
0.0
  0
SPLINE
  5
7B0
100
AcDbEntity
  8
KONSTRUKTIONSELEMENTE
100
AcDbSpline
 62
7
  6
CONTINUOUS
 70
0
 71
3
 72
15
 73
11
 74
0
 42
0.0000001
 43
0.0000001
 44
0.0000000001
 40
0.0
 40
0.0
 40
0.0
 40
0.0
 40
0.2500292008
 40
0.3751239827
 40
0.5002037128
 40
0.6252500758
 40
0.750215003
 40
0.8749789827
 40
0.9374933993
 40
1.0
 40
1.0
 40
1.0
 40
1.0
 10
699.5588012746
 20
92.9749359173
 30
0.0
 10
701.1702754618
 20
92.109172549
 30
0.0
 10
703.5020764288
 20
90.6343900781
 30
0.0
 10
706.329118883
 20
88.3043559721
 30
0.0
 10
708.2738500803
 20
86.359508005
 30
0.0
 10
709.9799604129
 20
84.1995461448
 30
0.0
 10
711.3397268412
 20
81.8040051467
 30
0.0
 10
712.0117224679
 20
79.5851097625
 30
0.0
 10
712.0883160716
 20
77.7495869056
 30
0.0
 10
711.9444675353
 20
76.8383931163
 30
0.0
 10
711.8261034361
 20
76.396652284
 30
0.0
  0
SPLINE
  5
7B1
100
AcDbEntity
  8
RUNDUNGEN
100
AcDbSpline
 62
7
  6
CONTINUOUS
 70
0
 71
3
 72
9
 73
5
 74
0
 42
0.0000001
 43
0.0000001
 44
0.0000000001
 40
0.0
 40
0.0
 40
0.0
 40
0.0
 40
0.5075045585
 40
1.0
 40
1.0
 40
1.0
 40
1.0
 10
723.9690554858
 20
118.3964009914
 30
0.0
 10
722.6167674058
 20
118.7587454904
 30
0.0
 10
719.9690422492
 20
119.5338127241
 30
0.0
 10
717.3281693003
 20
120.3326972803
 30
0.0
 10
716.0158742602
 20
120.6843256765
 30
0.0
  0
SPLINE
  5
7B2
100
AcDbEntity
  8
RUNDUNGEN
100
AcDbSpline
 62
7
  6
CONTINUOUS
 70
0
 71
3
 72
9
 73
5
 74
0
 42
0.0000001
 43
0.0000001
 44
0.0000000001
 40
0.0
 40
0.0
 40
0.0
 40
0.0
 40
0.4911624891
 40
1.0
 40
1.0
 40
1.0
 40
1.0
 10
732.9396130117
 20
116.1231537579
 30
0.0
 10
732.199299461
 20
116.2958432203
 30
0.0
 10
730.687815414
 20
116.6288919174
 30
0.0
 10
729.1845909121
 20
116.9989024858
 30
0.0
 10
728.423881624
 20
117.2027339252
 30
0.0
  0
SPLINE
  5
7B3
100
AcDbEntity
  8
RUNDUNGEN
100
AcDbSpline
 62
7
  6
CONTINUOUS
 70
0
 71
3
 72
9
 73
5
 74
0
 42
0.0000001
 43
0.0000001
 44
0.0000000001
 40
0.0
 40
0.0
 40
0.0
 40
0.0
 40
0.5088285907
 40
1.0
 40
1.0
 40
1.0
 40
1.0
 10
668.8051789185
 20
133.177517169
 30
0.0
 10
668.0448418028
 20
133.3812488948
 30
0.0
 10
666.5587026836
 20
133.8122027505
 30
0.0
 10
665.0838859099
 20
134.2792799768
 30
0.0
 10
664.3567468972
 20
134.4998033557
 30
0.0
  0
SPLINE
  5
7B4
100
AcDbEntity
  8
0
100
AcDbSpline
 62
7
  6
CONTINUOUS
 70
0
 71
3
 72
21
 73
17
 74
0
 42
0.0000001
 43
0.0000001
 44
0.0000000001
 40
0.0
 40
0.0
 40
0.0
 40
0.0
 40
0.0030764805
 40
0.0073167553
 40
0.0135378987
 40
0.0219945654
 40
0.0458553361
 40
0.0790001172
 40
0.1211670921
 40
0.1719429049
 40
0.2307925605
 40
0.2970814319
 40
0.4490613693
 40
0.6214962377
 40
0.8074540595
 40
1.0
 40
1.0
 40
1.0
 40
1.0
 10
864.3581494311
 20
46.3471122641
 30
0.0
 10
864.3352895243
 20
46.3409869705
 30
0.0
 10
864.2739442536
 20
46.3534470677
 30
0.0
 10
864.2038298894
 20
46.4348286279
 30
0.0
 10
864.1338464769
 20
46.5621145991
 30
0.0
 10
864.0273220817
 20
46.8398718718
 30
0.0
 10
863.9021343006
 20
47.3283421589
 30
0.0
 10
863.7588313784
 20
48.0778791139
 30
0.0
 10
863.6156324486
 20
49.0374093165
 30
0.0
 10
863.4750431425
 20
50.1966972323
 30
0.0
 10
863.3410788251
 20
51.5433926726
 30
0.0
 10
863.1685284815
 20
53.6682666177
 30
0.0
 10
863.0007475133
 20
56.6696696629
 30
0.0
 10
862.900159625
 20
60.5951288488
 30
0.0
 10
862.9309811208
 20
64.8340064922
 30
0.0
 10
863.0627620378
 20
67.7437536836
 30
0.0
 10
863.1634194162
 20
69.2215199226
 30
0.0
  0
SPLINE
  5
7B5
100
AcDbEntity
  8
0
100
AcDbSpline
 62
7
  6
CONTINUOUS
 70
0
 71
3
 72
21
 73
17
 74
0
 42
0.0000001
 43
0.0000001
 44
0.0000000001
 40
0.0
 40
0.0
 40
0.0
 40
0.0
 40
0.1925459405
 40
0.3785037623
 40
0.5509386307
 40
0.7029185681
 40
0.7692074395
 40
0.8280570951
 40
0.8788329079
 40
0.9209998828
 40
0.9541446639
 40
0.9780054346
 40
0.9864621013
 40
0.9926832447
 40
0.9969235195
 40
1.0
 40
1.0
 40
1.0
 40
1.0
 10
913.6223897838
 20
82.7419602835
 30
0.0
 10
914.44844475
 20
81.5125058689
 30
0.0
 10
916.0174439676
 20
79.058481341
 30
0.0
 10
918.1635749877
 20
75.4029163662
 30
0.0
 10
920.0391929141
 20
71.9530750455
 30
0.0
 10
921.3945918559
 20
69.2698932773
 30
0.0
 10
922.3075958475
 20
67.3434232892
 30
0.0
 10
922.8649270656
 20
66.110168668
 30
0.0
 10
923.3228171128
 20
65.0359012296
 30
0.0
 10
923.6785683032
 20
64.1333242336
 30
0.0
 10
923.9292328097
 20
63.4125547283
 30
0.0
 10
924.0650521545
 20
62.9269331602
 30
0.0
 10
924.1116779585
 20
62.6331261084
 30
0.0
 10
924.114713531
 20
62.4879015175
 30
0.0
 10
924.0946834905
 20
62.3823658369
 30
0.0
 10
924.0477869763
 20
62.3409024409
 30
0.0
 10
924.0249270694
 20
62.3347771473
 30
0.0
  0
SPLINE
  5
7B6
100
AcDbEntity
  8
0
100
AcDbSpline
 62
7
  6
CONTINUOUS
 70
0
 71
3
 72
15
 73
11
 74
0
 42
0.0000001
 43
0.0000001
 44
0.0000000001
 40
0.0
 40
0.0
 40
0.0
 40
0.0
 40
0.0570233419
 40
0.1293586796
 40
0.2242107455
 40
0.3430879243
 40
0.4844660151
 40
0.6447708672
 40
0.8187803679
 40
1.0
 40
1.0
 40
1.0
 40
1.0
 10
927.3651653479
 20
106.3337832908
 30
0.0
 10
927.3244837103
 20
106.4856092291
 30
0.0
 10
927.1104596343
 20
106.7975533042
 30
0.0
 10
926.5581615735
 20
107.098817131
 30
0.0
 10
925.7921540789
 20
107.3018162082
 30
0.0
 10
924.815204846
 20
107.3998782214
 30
0.0
 10
923.6544108066
 20
107.3890389143
 30
0.0
 10
922.3476992063
 20
107.2650424556
 30
0.0
 10
920.9451979638
 20
107.0300539392
 30
0.0
 10
919.9911830366
 20
106.8060906292
 30
0.0
 10
919.5086816648
 20
106.6768047763
 30
0.0
  0
SPLINE
  5
7B7
100
AcDbEntity
  8
BEZUGSACHSEN
100
AcDbSpline
 62
7
  6
CONTINUOUS
 70
0
 71
3
 72
8
 73
4
 74
0
 42
0.0000001
 43
0.0000001
 44
0.0000000001
 40
0.0
 40
0.0
 40
0.0
 40
0.0
 40
1.0
 40
1.0
 40
1.0
 40
1.0
 10
913.6223897838
 20
82.7419602835
 30
0.0
 10
912.9367327074
 20
83.7624542627
 30
0.0
 10
912.3665682452
 20
84.8796445503
 30
0.0
 10
911.993512763
 20
86.0511236134
 30
0.0
  0
SPLINE
  5
7B8
100
AcDbEntity
  8
0
100
AcDbSpline
 62
7
  6
CONTINUOUS
 70
0
 71
3
 72
15
 73
11
 74
0
 42
0.0000001
 43
0.0000001
 44
0.0000000001
 40
0.0
 40
0.0
 40
0.0
 40
0.0
 40
0.0625069549
 40
0.1250215132
 40
0.2497860046
 40
0.3747509967
 40
0.4997970344
 40
0.6248763317
 40
0.749970676
 40
1.0
 40
1.0
 40
1.0
 40
1.0
 10
911.0458517466
 20
89.5395245548
 30
0.0
 10
910.9274869762
 20
89.9812678918
 30
0.0
 10
910.5964652955
 20
90.842312706
 30
0.0
 10
909.6123645662
 20
92.3936295388
 30
0.0
 10
907.9209458866
 20
93.9792530628
 30
0.0
 10
905.5455795345
 20
95.3739667974
 30
0.0
 10
902.988067602
 20
96.391489395
 30
0.0
 10
900.3314647441
 20
97.1034064768
 30
0.0
 10
896.7181626693
 20
97.7077534953
 30
0.0
 10
893.9613747962
 20
97.8190523024
 30
0.0
 10
892.1329146223
 20
97.7630882517
 30
0.0
  0
SPLINE
  5
7B9
100
AcDbEntity
  8
0
100
AcDbSpline
 62
7
  6
CONTINUOUS
 70
0
 71
3
 72
9
 73
5
 74
0
 42
0.0000001
 43
0.0000001
 44
0.0000000001
 40
0.0
 40
0.0
 40
0.0
 40
0.0
 40
0.4999249095
 40
1.0
 40
1.0
 40
1.0
 40
1.0
 10
862.7925002858
 20
73.4240155536
 30
0.0
 10
862.9750911107
 20
72.7425773183
 30
0.0
 10
863.2133555137
 20
71.3426231319
 30
0.0
 10
863.2113759621
 20
69.925577247
 30
0.0
 10
863.1634194162
 20
69.2215199226
 30
0.0
  0
SPLINE
  5
7BA
100
AcDbEntity
  8
0
100
AcDbSpline
 62
7
  6
CONTINUOUS
 70
0
 71
3
 72
15
 73
11
 74
0
 42
0.0000001
 43
0.0000001
 44
0.0000000001
 40
0.0
 40
0.0
 40
0.0
 40
0.0
 40
0.2500292008
 40
0.3751239827
 40
0.5002037128
 40
0.6252500758
 40
0.750215003
 40
0.8749789827
 40
0.9374933993
 40
1.0
 40
1.0
 40
1.0
 40
1.0
 10
874.263286836
 20
92.9749359173
 30
0.0
 10
872.6518126488
 20
92.109172549
 30
0.0
 10
870.3200116818
 20
90.6343900781
 30
0.0
 10
867.4929692276
 20
88.3043559721
 30
0.0
 10
865.5482380303
 20
86.359508005
 30
0.0
 10
863.8421276977
 20
84.1995461448
 30
0.0
 10
862.4823612694
 20
81.8040051467
 30
0.0
 10
861.8103656427
 20
79.5851097625
 30
0.0
 10
861.733772039
 20
77.7495869056
 30
0.0
 10
861.8776205752
 20
76.8383931163
 30
0.0
 10
861.9959846745
 20
76.396652284
 30
0.0
  0
SPLINE
  5
7BB
100
AcDbEntity
  8
0
100
AcDbSpline
 62
7
  6
CONTINUOUS
 70
0
 71
3
 72
15
 73
11
 74
0
 42
0.0000001
 43
0.0000001
 44
0.0000000001
 40
0.0
 40
0.0
 40
0.0
 40
0.0
 40
0.0570233419
 40
0.1293586796
 40
0.2242107455
 40
0.3430879243
 40
0.4844660151
 40
0.6447708672
 40
0.8187803679
 40
1.0
 40
1.0
 40
1.0
 40
1.0
 10
837.432939687
 20
90.3684179255
 30
0.0
 10
837.3922580495
 20
90.5202438639
 30
0.0
 10
837.4216362988
 20
90.8974073955
 30
0.0
 10
837.7493085365
 20
91.4344585531
 30
0.0
 10
838.3111909477
 20
91.9932646583
 30
0.0
 10
839.108222795
 20
92.5666634692
 30
0.0
 10
840.1189195753
 20
93.1376733737
 30
0.0
 10
841.3125632458
 20
93.6836450906
 30
0.0
 10
842.6446592088
 20
94.1813896871
 30
0.0
 10
843.5828420265
 20
94.4644392347
 30
0.0
 10
844.0653433983
 20
94.5937250876
 30
0.0
  0
SPLINE
  5
7BC
100
AcDbEntity
  8
0
100
AcDbSpline
 62
7
  6
CONTINUOUS
 70
0
 71
3
 72
15
 73
11
 74
0
 42
0.0000001
 43
0.0000001
 44
0.0000000001
 40
0.0
 40
0.0
 40
0.0
 40
0.0
 40
0.0570233419
 40
0.1293586796
 40
0.2242107455
 40
0.3430879243
 40
0.4844660151
 40
0.6447708672
 40
0.8187803679
 40
1.0
 40
1.0
 40
1.0
 40
1.0
 10
839.4659151556
 20
82.7812501864
 30
0.0
 10
839.425233518
 20
82.9330761248
 30
0.0
 10
839.4546117673
 20
83.3102396563
 30
0.0
 10
839.782284005
 20
83.847290814
 30
0.0
 10
840.3441664162
 20
84.4060969192
 30
0.0
 10
841.1411982635
 20
84.9794957301
 30
0.0
 10
842.1518950438
 20
85.5505056346
 30
0.0
 10
843.3455387144
 20
86.0964773515
 30
0.0
 10
844.6776346774
 20
86.5942219479
 30
0.0
 10
845.615817495
 20
86.8772714956
 30
0.0
 10
846.0983188668
 20
87.0065573485
 30
0.0
  0
SPLINE
  5
7BD
100
AcDbEntity
  8
0
100
AcDbSpline
 62
7
  6
CONTINUOUS
 70
0
 71
3
 72
9
 73
5
 74
0
 42
0.0000001
 43
0.0000001
 44
0.0000000001
 40
0.0
 40
0.0
 40
0.0
 40
0.0
 40
0.5075045585
 40
1.0
 40
1.0
 40
1.0
 40
1.0
 10
849.8530326248
 20
118.3964009914
 30
0.0
 10
851.2053207048
 20
118.7587454904
 30
0.0
 10
853.8530458614
 20
119.5338127241
 30
0.0
 10
856.4939188103
 20
120.3326972803
 30
0.0
 10
857.8062138504
 20
120.6843256765
 30
0.0
  0
SPLINE
  5
7BE
100
AcDbEntity
  8
0
100
AcDbSpline
 62
7
  6
CONTINUOUS
 70
0
 71
3
 72
9
 73
5
 74
0
 42
0.0000001
 43
0.0000001
 44
0.0000000001
 40
0.0
 40
0.0
 40
0.0
 40
0.0
 40
0.4911624891
 40
1.0
 40
1.0
 40
1.0
 40
1.0
 10
840.8824750989
 20
116.1231537579
 30
0.0
 10
841.6227886496
 20
116.2958432203
 30
0.0
 10
843.1342726966
 20
116.6288919174
 30
0.0
 10
844.6374971985
 20
116.9989024858
 30
0.0
 10
845.3982064865
 20
117.2027339252
 30
0.0
  0
SPLINE
  5
7BF
100
AcDbEntity
  8
0
100
AcDbSpline
 62
7
  6
CONTINUOUS
 70
0
 71
3
 72
9
 73
5
 74
0
 42
0.0000001
 43
0.0000001
 44
0.0000000001
 40
0.0
 40
0.0
 40
0.0
 40
0.0
 40
0.5088285907
 40
1.0
 40
1.0
 40
1.0
 40
1.0
 10
905.0169091921
 20
133.177517169
 30
0.0
 10
905.7772463078
 20
133.3812488948
 30
0.0
 10
907.263385427
 20
133.8122027505
 30
0.0
 10
908.7382022007
 20
134.2792799768
 30
0.0
 10
909.4653412134
 20
134.4998033557
 30
0.0
  0
SPLINE
  5
7C0
100
AcDbEntity
  8
0
100
AcDbSpline
 62
7
  6
CONTINUOUS
 70
0
 71
3
 72
9
 73
5
 74
0
 42
0.0000001
 43
0.0000001
 44
0.0000000001
 40
0.0
 40
0.0
 40
0.0
 40
0.0
 40
0.4924952808
 40
1.0
 40
1.0
 40
1.0
 40
1.0
 10
892.5304914153
 20
129.9886678078
 30
0.0
 10
893.8427813667
 20
130.3402948405
 30
0.0
 10
896.529277432
 20
130.9688736848
 30
0.0
 10
899.2097986393
 20
131.621506586
 30
0.0
 10
900.562082345
 20
131.9838499129
 30
0.0
  0
SPLINE
  5
7C1
100
AcDbEntity
  8
0
100
AcDbSpline
 62
7
  6
CONTINUOUS
 70
0
 71
3
 72
15
 73
11
 74
0
 42
0.0000001
 43
0.0000001
 44
0.0000000001
 40
0.0
 40
0.0
 40
0.0
 40
0.0
 40
0.0570233419
 40
0.1293586796
 40
0.2242107455
 40
0.3430879243
 40
0.4844660151
 40
0.6447708672
 40
0.8187803679
 40
1.0
 40
1.0
 40
1.0
 40
1.0
 10
925.3321898793
 20
113.9209510299
 30
0.0
 10
925.2915082418
 20
114.0727769683
 30
0.0
 10
925.0774841658
 20
114.3847210433
 30
0.0
 10
924.525186105
 20
114.6859848701
 30
0.0
 10
923.7591786104
 20
114.8889839474
 30
0.0
 10
922.7822293775
 20
114.9870459605
 30
0.0
 10
921.621435338
 20
114.9762066534
 30
0.0
 10
920.3147237378
 20
114.8522101947
 30
0.0
 10
918.9122224953
 20
114.6172216784
 30
0.0
 10
917.958207568
 20
114.3932583683
 30
0.0
 10
917.4757061962
 20
114.2639725154
 30
0.0
  0
SPLINE
  5
7C2
100
AcDbEntity
  8
KONSTRUKTIONSELEMENTE
100
AcDbSpline
 62
7
  6
CONTINUOUS
 70
0
 71
3
 72
11
 73
7
 74
0
 42
0.0000001
 43
0.0000001
 44
0.0000000001
 40
0.0
 40
0.0
 40
0.0
 40
0.0
 40
0.2193102634
 40
0.4447591571
 40
0.7096345186
 40
1.0
 40
1.0
 40
1.0
 40
1.0
 10
324.630838826
 20
105.8037987101
 30
0.0
 10
324.3648970432
 20
105.9696115407
 30
0.0
 10
323.8087330252
 20
106.2809760668
 30
0.0
 10
322.8364976694
 20
106.6052830167
 30
0.0
 10
321.688296154
 20
106.5746865581
 30
0.0
 10
320.9585528688
 20
106.1664129274
 30
0.0
 10
320.6603680074
 20
105.8778654283
 30
0.0
  0
SPLINE
  5
7C3
100
AcDbEntity
  8
KONSTRUKTIONSELEMENTE
100
AcDbSpline
 62
7
  6
CONTINUOUS
 70
0
 71
3
 72
25
 73
21
 74
0
 42
0.0000001
 43
0.0000001
 44
0.0000000001
 40
0.0
 40
0.0
 40
0.0
 40
0.0
 40
0.0139556627
 40
0.0215641577
 40
0.0229744644
 40
0.0230439997
 40
0.0271929754
 40
0.0360330942
 40
0.0489380107
 40
0.0654456056
 40
0.085103462
 40
0.1324479604
 40
0.1889354145
 40
0.2529517006
 40
0.323314794
 40
0.3989389876
 40
0.4788786837
 40
0.6480928262
 40
0.8241941934
 40
1.0
 40
1.0
 40
1.0
 40
1.0
 10
324.380897457
 20
104.3169161088
 30
0.0
 10
324.3763622583
 20
104.3423859632
 30
0.0
 10
324.3633187971
 20
104.390911054
 30
0.0
 10
324.3622868709
 20
104.411040728
 30
0.0
 10
324.34920094
 20
104.4431271498
 30
0.0
 10
324.355636704
 20
104.4342809682
 30
0.0
 10
324.360685706
 20
104.4104889141
 30
0.0
 10
324.3835841958
 20
104.3677834311
 30
0.0
 10
324.413942789
 20
104.3039105242
 30
0.0
 10
324.4573980905
 20
104.2238708413
 30
0.0
 10
324.5336028949
 20
104.0891591671
 30
0.0
 10
324.6541047549
 20
103.8943902386
 30
0.0
 10
324.8266278918
 20
103.6354124789
 30
0.0
 10
325.031920991
 20
103.3471689432
 30
0.0
 10
325.2658072793
 20
103.0359199853
 30
0.0
 10
325.5251665474
 20
102.7070299923
 30
0.0
 10
325.9076880385
 20
102.2420611609
 30
0.0
 10
326.4262357867
 20
101.6480325615
 30
0.0
 10
327.0862313798
 20
100.9423832458
 30
0.0
 10
327.5474892325
 20
100.4808633496
 30
0.0
 10
327.7818958199
 20
100.254443973
 30
0.0
  0
SPLINE
  5
7C4
100
AcDbEntity
  8
KONSTRUKTIONSELEMENTE
100
AcDbSpline
 62
7
  6
CONTINUOUS
 70
0
 71
3
 72
17
 73
13
 74
0
 42
0.0000001
 43
0.0000001
 44
0.0000000001
 40
0.0
 40
0.0
 40
0.0
 40
0.0
 40
0.0672998635
 40
0.1329602329
 40
0.1944855734
 40
0.2504309869
 40
0.3502866628
 40
0.4545528348
 40
0.5743822025
 40
0.7091855667
 40
0.853565524
 40
1.0
 40
1.0
 40
1.0
 40
1.0
 10
320.6603680074
 20
105.8778654283
 30
0.0
 10
320.4883226106
 20
105.7113805546
 30
0.0
 10
320.1949882678
 20
105.3300569608
 30
0.0
 10
319.9448786098
 20
104.6753703258
 30
0.0
 10
319.8804879091
 20
104.0204405512
 30
0.0
 10
319.974622984
 20
103.2480366843
 30
0.0
 10
320.3147638683
 20
102.3766830036
 30
0.0
 10
320.9001177583
 20
101.3826893118
 30
0.0
 10
321.644115227
 20
100.3433767086
 30
0.0
 10
322.5403996172
 20
99.2419540038
 30
0.0
 10
323.5539320162
 20
98.1163985252
 30
0.0
 10
324.2808627393
 20
97.3797050235
 30
0.0
 10
324.6555361622
 20
97.0177982879
 30
0.0
  0
SPLINE
  5
7C5
100
AcDbEntity
  8
KONSTRUKTIONSELEMENTE
100
AcDbSpline
 62
7
  6
CONTINUOUS
 70
0
 71
3
 72
13
 73
9
 74
0
 42
0.0000001
 43
0.0000001
 44
0.0000000001
 40
0.0
 40
0.0
 40
0.0
 40
0.0
 40
0.147827563
 40
0.2910391013
 40
0.5396303344
 40
0.6488307226
 40
0.7583173339
 40
1.0
 40
1.0
 40
1.0
 40
1.0
 10
342.3836656925
 20
84.1256053229
 30
0.0
 10
342.5743734704
 20
84.3101494078
 30
0.0
 10
342.8923550081
 20
84.7385862853
 30
0.0
 10
343.2023385746
 20
85.671419505
 30
0.0
 10
343.1163244679
 20
86.6041871417
 30
0.0
 10
342.817551624
 20
87.388190978
 30
0.0
 10
342.4490485097
 20
88.1293806859
 30
0.0
 10
342.1046866436
 20
88.6595792592
 30
0.0
 10
341.8557736443
 20
89.0149421846
 30
0.0
  0
SPLINE
  5
7C6
100
AcDbEntity
  8
KONSTRUKTIONSELEMENTE
100
AcDbSpline
 62
7
  6
CONTINUOUS
 70
0
 71
3
 72
19
 73
15
 74
0
 42
0.0000001
 43
0.0000001
 44
0.0000000001
 40
0.0
 40
0.0
 40
0.0
 40
0.0
 40
0.186931947
 40
0.3655432537
 40
0.5317545855
 40
0.6818380102
 40
0.7494939838
 40
0.8113676119
 40
0.866702645
 40
0.9144809375
 40
0.9535989404
 40
0.9694074678
 40
0.9823674488
 40
1.0
 40
1.0
 40
1.0
 40
1.0
 10
338.3884975377
 20
90.0092534446
 30
0.0
 10
338.5428422798
 20
89.8601678721
 30
0.0
 10
338.8480895
 20
89.5721558262
 30
0.0
 10
339.3024082919
 20
89.1643450703
 30
0.0
 10
339.7355902819
 20
88.796652677
 30
0.0
 10
340.0805392057
 20
88.5220600193
 30
0.0
 10
340.3373413168
 20
88.3295739493
 30
0.0
 10
340.5100114702
 20
88.2058557528
 30
0.0
 10
340.666081652
 20
88.0995413333
 30
0.0
 10
340.8051225535
 20
88.0106401552
 30
0.0
 10
340.9024144907
 20
87.9518284758
 30
0.0
 10
340.9768554764
 20
87.9114522772
 30
0.0
 10
341.0078287604
 20
87.8928247856
 30
0.0
 10
341.0895142962
 20
87.8575127322
 30
0.0
 10
341.0704199422
 20
87.8642299065
 30
0.0
  0
SPLINE
  5
7C7
100
AcDbEntity
  8
KONSTRUKTIONSELEMENTE
100
AcDbSpline
 62
7
  6
CONTINUOUS
 70
0
 71
3
 72
9
 73
5
 74
0
 42
0.0000001
 43
0.0000001
 44
0.0000000001
 40
0.0
 40
0.0
 40
0.0
 40
0.0
 40
0.5263197575
 40
1.0
 40
1.0
 40
1.0
 40
1.0
 10
335.26213788
 20
86.7726077595
 30
0.0
 10
335.6512253849
 20
86.3967780899
 30
0.0
 10
336.4083209714
 20
85.7009315926
 30
0.0
 10
337.2058688486
 20
85.0509412145
 30
0.0
 10
337.5966012904
 20
84.7604991283
 30
0.0
  0
SPLINE
  5
7C8
100
AcDbEntity
  8
KONSTRUKTIONSELEMENTE
100
AcDbSpline
 62
7
  6
CONTINUOUS
 70
0
 71
3
 72
14
 73
10
 74
0
 42
0.0000001
 43
0.0000001
 44
0.0000000001
 40
0.0
 40
0.0
 40
0.0
 40
0.0
 40
0.238355881
 40
0.3472682142
 40
0.4568467248
 40
0.5760006498
 40
0.7088709196
 40
0.852214807
 40
1.0
 40
1.0
 40
1.0
 40
1.0
 10
337.6275150237
 20
84.7375787956
 30
0.0
 10
337.9632008465
 20
84.489332052
 30
0.0
 10
338.4667377538
 20
84.1446236166
 30
0.0
 10
339.1755732701
 20
83.7714040976
 30
0.0
 10
339.726577953
 20
83.5518329048
 30
0.0
 10
340.3497510166
 20
83.418082072
 30
0.0
 10
341.0499679384
 20
83.4282044699
 30
0.0
 10
341.7707068342
 20
83.6482029936
 30
0.0
 10
342.1976412819
 20
83.9455932383
 30
0.0
 10
342.3836656925
 20
84.1256053229
 30
0.0
  0
SPLINE
  5
7C9
100
AcDbEntity
  8
KONSTRUKTIONSELEMENTE
100
AcDbSpline
 62
7
  6
CONTINUOUS
 70
0
 71
3
 72
13
 73
9
 74
0
 42
0.0000001
 43
0.0000001
 44
0.0000000001
 40
0.0
 40
0.0
 40
0.0
 40
0.0
 40
0.2266749134
 40
0.4472161745
 40
0.5713587125
 40
0.7075537383
 40
0.8520150675
 40
1.0
 40
1.0
 40
1.0
 40
1.0
 10
293.8670917823
 20
135.6287696255
 30
0.0
 10
293.5721976983
 20
135.8292009344
 30
0.0
 10
292.9738059027
 20
136.2010510115
 30
0.0
 10
292.131867555
 20
136.5431590709
 30
0.0
 10
291.3778820534
 20
136.6486904314
 30
0.0
 10
290.7369378186
 20
136.594917513
 30
0.0
 10
290.094272543
 20
136.3657117447
 30
0.0
 10
289.7149515406
 20
136.0922996503
 30
0.0
 10
289.5476696352
 20
135.9304243116
 30
0.0
  0
SPLINE
  5
7CA
100
AcDbEntity
  8
KONSTRUKTIONSELEMENTE
100
AcDbSpline
 62
7
  6
CONTINUOUS
 70
0
 71
3
 72
25
 73
21
 74
0
 42
0.0000001
 43
0.0000001
 44
0.0000000001
 40
0.0
 40
0.0
 40
0.0
 40
0.0
 40
0.0139556627
 40
0.0215641577
 40
0.0229744644
 40
0.0230439997
 40
0.0271929754
 40
0.0360330942
 40
0.0489380107
 40
0.0654456056
 40
0.085103462
 40
0.1324479604
 40
0.1889354145
 40
0.2529517006
 40
0.323314794
 40
0.3989389876
 40
0.4788786837
 40
0.6480928262
 40
0.8241941934
 40
1.0
 40
1.0
 40
1.0
 40
1.0
 10
293.2681990848
 20
134.3694749921
 30
0.0
 10
293.2636638861
 20
134.3949448465
 30
0.0
 10
293.2506204249
 20
134.4434699373
 30
0.0
 10
293.2495884987
 20
134.4635996112
 30
0.0
 10
293.2365025678
 20
134.495686033
 30
0.0
 10
293.2429383318
 20
134.4868398515
 30
0.0
 10
293.2479873338
 20
134.4630477974
 30
0.0
 10
293.2708858236
 20
134.4203423143
 30
0.0
 10
293.3012444168
 20
134.3564694074
 30
0.0
 10
293.3446997183
 20
134.2764297245
 30
0.0
 10
293.4209045227
 20
134.1417180504
 30
0.0
 10
293.5414063827
 20
133.9469491219
 30
0.0
 10
293.7139295196
 20
133.6879713621
 30
0.0
 10
293.9192226188
 20
133.3997278265
 30
0.0
 10
294.1531089071
 20
133.0884788686
 30
0.0
 10
294.4124681752
 20
132.7595888755
 30
0.0
 10
294.7949896663
 20
132.2946200442
 30
0.0
 10
295.3135374145
 20
131.7005914447
 30
0.0
 10
295.9735330075
 20
130.9949421291
 30
0.0
 10
296.4347908603
 20
130.5334222329
 30
0.0
 10
296.6691974477
 20
130.3070028562
 30
0.0
  0
SPLINE
  5
7CB
100
AcDbEntity
  8
KONSTRUKTIONSELEMENTE
100
AcDbSpline
 62
7
  6
CONTINUOUS
 70
0
 71
3
 72
17
 73
13
 74
0
 42
0.0000001
 43
0.0000001
 44
0.0000000001
 40
0.0
 40
0.0
 40
0.0
 40
0.0
 40
0.0672998635
 40
0.1329602329
 40
0.1944855734
 40
0.2504309869
 40
0.3502866628
 40
0.4545528348
 40
0.5743822025
 40
0.7091855667
 40
0.853565524
 40
1.0
 40
1.0
 40
1.0
 40
1.0
 10
289.5476696352
 20
135.9304243116
 30
0.0
 10
289.3756242384
 20
135.7639394379
 30
0.0
 10
289.0822898956
 20
135.382615844
 30
0.0
 10
288.8321802376
 20
134.7279292091
 30
0.0
 10
288.7677895369
 20
134.0729994344
 30
0.0
 10
288.8619246118
 20
133.3005955675
 30
0.0
 10
289.2020654961
 20
132.4292418868
 30
0.0
 10
289.7874193861
 20
131.4352481951
 30
0.0
 10
290.5314168548
 20
130.3959355919
 30
0.0
 10
291.427701245
 20
129.294512887
 30
0.0
 10
292.441233644
 20
128.1689574084
 30
0.0
 10
293.1681643671
 20
127.4322639068
 30
0.0
 10
293.54283779
 20
127.0703571712
 30
0.0
  0
SPLINE
  5
7CC
100
AcDbEntity
  8
KONSTRUKTIONSELEMENTE
100
AcDbSpline
 62
7
  6
CONTINUOUS
 70
0
 71
3
 72
13
 73
9
 74
0
 42
0.0000001
 43
0.0000001
 44
0.0000000001
 40
0.0
 40
0.0
 40
0.0
 40
0.0
 40
0.1478830584
 40
0.2925777243
 40
0.4291426403
 40
0.5544682928
 40
0.7758011155
 40
1.0
 40
1.0
 40
1.0
 40
1.0
 10
311.2709673203
 20
114.1781642061
 30
0.0
 10
311.4341957343
 20
114.3361170628
 30
0.0
 10
311.7153220321
 20
114.6955981976
 30
0.0
 10
311.9664473437
 20
115.3133608102
 30
0.0
 10
312.0493691374
 20
115.9383625367
 30
0.0
 10
311.9851996184
 20
116.6826341632
 30
0.0
 10
311.6919252489
 20
117.5197690016
 30
0.0
 10
311.35736841
 20
118.1179342215
 30
0.0
 10
311.1765926917
 20
118.4110243584
 30
0.0
  0
SPLINE
  5
7CD
100
AcDbEntity
  8
KONSTRUKTIONSELEMENTE
100
AcDbSpline
 62
7
  6
CONTINUOUS
 70
0
 71
3
 72
19
 73
15
 74
0
 42
0.0000001
 43
0.0000001
 44
0.0000000001
 40
0.0
 40
0.0
 40
0.0
 40
0.0
 40
0.186931947
 40
0.3655432537
 40
0.5317545855
 40
0.6818380102
 40
0.7494939838
 40
0.8113676119
 40
0.866702645
 40
0.9144809375
 40
0.9535989404
 40
0.9694074678
 40
0.9823674488
 40
1.0
 40
1.0
 40
1.0
 40
1.0
 10
307.2757991655
 20
120.0618123278
 30
0.0
 10
307.4301439076
 20
119.9127267553
 30
0.0
 10
307.7353911278
 20
119.6247147094
 30
0.0
 10
308.1897099197
 20
119.2169039536
 30
0.0
 10
308.6228919096
 20
118.8492115603
 30
0.0
 10
308.9678408335
 20
118.5746189026
 30
0.0
 10
309.2246429446
 20
118.3821328325
 30
0.0
 10
309.397313098
 20
118.2584146361
 30
0.0
 10
309.5533832798
 20
118.1521002166
 30
0.0
 10
309.6924241813
 20
118.0631990385
 30
0.0
 10
309.7897161185
 20
118.0043873591
 30
0.0
 10
309.8641571042
 20
117.9640111605
 30
0.0
 10
309.8951303882
 20
117.9453836688
 30
0.0
 10
309.976815924
 20
117.9100716155
 30
0.0
 10
309.95772157
 20
117.9167887897
 30
0.0
  0
SPLINE
  5
7CE
100
AcDbEntity
  8
KONSTRUKTIONSELEMENTE
100
AcDbSpline
 62
7
  6
CONTINUOUS
 70
0
 71
3
 72
14
 73
10
 74
0
 42
0.0000001
 43
0.0000001
 44
0.0000000001
 40
0.0
 40
0.0
 40
0.0
 40
0.0
 40
0.2853075585
 40
0.4098818106
 40
0.5208692916
 40
0.6238507303
 40
0.7336576496
 40
0.8616333138
 40
1.0
 40
1.0
 40
1.0
 40
1.0
 10
304.1494395078
 20
116.8251666428
 30
0.0
 10
304.7215986377
 20
116.2725033625
 30
0.0
 10
305.5719566936
 20
115.5058706387
 30
0.0
 10
306.7256659578
 20
114.6225278734
 30
0.0
 10
307.5153843023
 20
114.1034787879
 30
0.0
 10
308.3218046003
 20
113.6914482317
 30
0.0
 10
309.2487105012
 20
113.4366102382
 30
0.0
 10
310.3229345011
 20
113.5178442875
 30
0.0
 10
310.99372826
 20
113.9098855378
 30
0.0
 10
311.2709673203
 20
114.1781642061
 30
0.0
  0
SPLINE
  5
7CF
100
AcDbEntity
  8
KONSTRUKTIONSELEMENTE
100
AcDbSpline
 62
7
  6
CONTINUOUS
 70
0
 71
3
 72
9
 73
5
 74
0
 42
0.0000001
 43
0.0000001
 44
0.0000000001
 40
0.0
 40
0.0
 40
0.0
 40
0.0
 40
0.4992056363
 40
1.0
 40
1.0
 40
1.0
 40
1.0
 10
329.2689274255
 20
104.9036370896
 30
0.0
 10
329.2686482623
 20
104.0864346164
 30
0.0
 10
329.0008477331
 20
102.4386373551
 30
0.0
 10
328.2229769039
 20
100.9624506689
 30
0.0
 10
327.7320860518
 20
100.3058658809
 30
0.0
  0
SPLINE
  5
7D0
100
AcDbEntity
  8
KONSTRUKTIONSELEMENTE
100
AcDbSpline
 62
7
  6
CONTINUOUS
 70
0
 71
3
 72
11
 73
7
 74
0
 42
0.0000001
 43
0.0000001
 44
0.0000000001
 40
0.0
 40
0.0
 40
0.0
 40
0.0
 40
0.2503834639
 40
0.5009562809
 40
0.7509829001
 40
1.0
 40
1.0
 40
1.0
 40
1.0
 10
324.0664370886
 20
97.593978691
 30
0.0
 10
323.3572771183
 20
97.3358978018
 30
0.0
 10
321.8580714371
 20
97.0163785114
 30
0.0
 10
319.5717550923
 20
97.1714622445
 30
0.0
 10
317.4182516065
 20
97.9435540983
 30
0.0
 10
316.1797562073
 20
98.8383364819
 30
0.0
 10
315.6399247021
 20
99.3597736746
 30
0.0
  0
SPLINE
  5
7D1
100
AcDbEntity
  8
KONSTRUKTIONSELEMENTE
100
AcDbSpline
 62
7
  6
CONTINUOUS
 70
0
 71
3
 72
11
 73
7
 74
0
 42
0.0000001
 43
0.0000001
 44
0.0000000001
 40
0.0
 40
0.0
 40
0.0
 40
0.0
 40
0.2497701922
 40
0.5003846994
 40
0.7507632035
 40
1.0
 40
1.0
 40
1.0
 40
1.0
 10
305.8832754799
 20
121.4093695719
 30
0.0
 10
306.6421001116
 20
121.9606123092
 30
0.0
 10
308.3731657391
 20
122.8014958521
 30
0.0
 10
311.2315869017
 20
123.0993556543
 30
0.0
 10
314.0213782439
 20
122.4165173972
 30
0.0
 10
315.6182520368
 20
121.346477226
 30
0.0
 10
316.2914106257
 20
120.6962559598
 30
0.0
  0
SPLINE
  5
7D2
100
AcDbEntity
  8
KONSTRUKTIONSELEMENTE
100
AcDbSpline
 62
7
  6
CONTINUOUS
 70
0
 71
3
 72
9
 73
5
 74
0
 42
0.0000001
 43
0.0000001
 44
0.0000000001
 40
0.0
 40
0.0
 40
0.0
 40
0.0
 40
0.5052259423
 40
1.0
 40
1.0
 40
1.0
 40
1.0
 10
308.159682642
 20
112.8416098881
 30
0.0
 10
307.9573823571
 20
113.0370169579
 30
0.0
 10
307.6037677919
 20
113.475652724
 30
0.0
 10
307.3727757841
 20
113.9899085676
 30
0.0
 10
307.293873685
 20
114.2538109892
 30
0.0
  0
SPLINE
  5
7D3
100
AcDbEntity
  8
KONSTRUKTIONSELEMENTE
100
AcDbSpline
 62
7
  6
CONTINUOUS
 70
0
 71
3
 72
11
 73
7
 74
0
 42
0.0000001
 43
0.0000001
 44
0.0000000001
 40
0.0
 40
0.0
 40
0.0
 40
0.0
 40
0.2519918144
 40
0.5048009909
 40
0.755086504
 40
1.0
 40
1.0
 40
1.0
 40
1.0
 10
309.4312565934
 20
118.2432287273
 30
0.0
 10
309.7481089694
 20
118.3556571491
 30
0.0
 10
310.4176487073
 20
118.4932509123
 30
0.0
 10
311.4347254149
 20
118.4205127082
 30
0.0
 10
312.3854635944
 20
118.0787618682
 30
0.0
 10
312.9300246426
 20
117.6866282722
 30
0.0
 10
313.1650509679
 20
117.4596102748
 30
0.0
  0
SPLINE
  5
7D4
100
AcDbEntity
  8
KONSTRUKTIONSELEMENTE
100
AcDbSpline
 62
7
  6
CONTINUOUS
 70
0
 71
3
 72
9
 73
5
 74
0
 42
0.0000001
 43
0.0000001
 44
0.0000000001
 40
0.0
 40
0.0
 40
0.0
 40
0.0
 40
0.5069780116
 40
1.0
 40
1.0
 40
1.0
 40
1.0
 10
323.7716526857
 20
107.2144197464
 30
0.0
 10
324.0837495947
 20
106.9129572817
 30
0.0
 10
324.5906332251
 20
106.1914706077
 30
0.0
 10
324.7689817047
 20
105.3267044464
 30
0.0
 10
324.7688738249
 20
104.9047321179
 30
0.0
  0
SPLINE
  5
7D5
100
AcDbEntity
  8
KONSTRUKTIONSELEMENTE
100
AcDbSpline
 62
7
  6
CONTINUOUS
 70
0
 71
3
 72
9
 73
5
 74
0
 42
0.0000001
 43
0.0000001
 44
0.0000000001
 40
0.0
 40
0.0
 40
0.0
 40
0.0
 40
0.5012207597
 40
1.0
 40
1.0
 40
1.0
 40
1.0
 10
305.0333229843
 20
109.604964203
 30
0.0
 10
304.293470177
 20
110.3196071372
 30
0.0
 10
303.0856163457
 20
112.0548962106
 30
0.0
 10
302.6620582226
 20
114.128764977
 30
0.0
 10
302.6624079023
 20
115.1523925449
 30
0.0
  0
SPLINE
  5
7D6
100
AcDbEntity
  8
KONSTRUKTIONSELEMENTE
100
AcDbSpline
 62
7
  6
CONTINUOUS
 70
0
 71
3
 72
9
 73
5
 74
0
 42
0.0000001
 43
0.0000001
 44
0.0000000001
 40
0.0
 40
0.0
 40
0.0
 40
0.0
 40
0.50530061
 40
1.0
 40
1.0
 40
1.0
 40
1.0
 10
320.7597802061
 20
101.6365691733
 30
0.0
 10
320.3980283168
 20
101.686724012
 30
0.0
 10
319.6927201383
 20
101.8940582477
 30
0.0
 10
319.0816588753
 20
102.3036468479
 30
0.0
 10
318.8191733631
 20
102.5464294105
 30
0.0
  0
SPLINE
  5
7D7
100
AcDbEntity
  8
KONSTRUKTIONSELEMENTE
100
AcDbSpline
 62
7
  6
CONTINUOUS
 70
0
 71
3
 72
9
 73
5
 74
0
 42
0.0000001
 43
0.0000001
 44
0.0000000001
 40
0.0
 40
0.0
 40
0.0
 40
0.0
 40
0.5012063269
 40
1.0
 40
1.0
 40
1.0
 40
1.0
 10
326.9544670648
 20
110.3959824196
 30
0.0
 10
327.6778672353
 20
109.6830200973
 30
0.0
 10
328.856578406
 20
107.9617492756
 30
0.0
 10
329.2692727229
 20
105.9144362929
 30
0.0
 10
329.2689274255
 20
104.9036370896
 30
0.0
  0
SPLINE
  5
7D8
100
AcDbEntity
  8
KONSTRUKTIONSELEMENTE
100
AcDbSpline
 62
7
  6
CONTINUOUS
 70
0
 71
3
 72
9
 73
5
 74
0
 42
0.0000001
 43
0.0000001
 44
0.0000000001
 40
0.0
 40
0.0
 40
0.0
 40
0.0
 40
0.4046530715
 40
1.0
 40
1.0
 40
1.0
 40
1.0
 10
349.7653718046
 20
83.595423254
 30
0.0
 10
349.7653718046
 20
83.6478411323
 30
0.0
 10
349.8013798242
 20
83.7754641677
 30
0.0
 10
349.8567790197
 20
83.8920527732
 30
0.0
 10
349.8930218984
 20
83.9601258204
 30
0.0
  0
SPLINE
  5
7D9
100
AcDbEntity
  8
KONSTRUKTIONSELEMENTE
100
AcDbSpline
 62
7
  6
CONTINUOUS
 70
0
 71
3
 72
10
 73
6
 74
0
 42
0.0000001
 43
0.0000001
 44
0.0000000001
 40
0.0
 40
0.0
 40
0.0
 40
0.0
 40
0.371444044
 40
0.6586206829
 40
1.0
 40
1.0
 40
1.0
 40
1.0
 10
352.8215570767
 20
86.9905000889
 30
0.0
 10
352.8725669345
 20
87.0198988478
 30
0.0
 10
352.9668604722
 20
87.0691358667
 30
0.0
 10
353.1078531648
 20
87.1255266297
 30
0.0
 10
353.2287858283
 20
87.1387597172
 30
0.0
 10
353.268513399
 20
87.1020228533
 30
0.0
  0
SPLINE
  5
7DA
100
AcDbEntity
  8
KONSTRUKTIONSELEMENTE
100
AcDbSpline
 62
7
  6
CONTINUOUS
 70
0
 71
3
 72
21
 73
17
 74
0
 42
0.0000001
 43
0.0000001
 44
0.0000000001
 40
0.0
 40
0.0
 40
0.0
 40
0.0
 40
0.0294220707
 40
0.0723221796
 40
0.128270212
 40
0.1957493625
 40
0.3569194901
 40
0.5354427485
 40
0.7081562347
 40
0.7852637376
 40
0.8528295098
 40
0.9088459223
 40
0.951807463
 40
0.968259586
 40
0.9814568991
 40
1.0
 40
1.0
 40
1.0
 40
1.0
 10
352.9473523199
 20
87.3519931144
 30
0.0
 10
352.9473523199
 20
87.3018426204
 30
0.0
 10
352.9142021113
 20
87.1802607533
 30
0.0
 10
352.8221431907
 20
86.9824092288
 30
0.0
 10
352.6758819329
 20
86.7387012742
 30
0.0
 10
352.3988306126
 20
86.3404314166
 30
0.0
 10
351.9591998627
 20
85.802028776
 30
0.0
 10
351.3623539111
 20
85.1638135621
 30
0.0
 10
350.8298832314
 20
84.6631526096
 30
0.0
 10
350.4135552309
 20
84.3174559434
 30
0.0
 10
350.139551732
 20
84.1123089807
 30
0.0
 10
349.9010329326
 20
83.9579245276
 30
0.0
 10
349.7257973473
 20
83.8672246418
 30
0.0
 10
349.6074649099
 20
83.8282805625
 30
0.0
 10
349.5276501535
 20
83.8135160698
 30
0.0
 10
349.4674167066
 20
83.8239344892
 30
0.0
 10
349.4442107256
 20
83.8453935151
 30
0.0
  0
SPLINE
  5
7DB
100
AcDbEntity
  8
KONSTRUKTIONSELEMENTE
100
AcDbSpline
 62
7
  6
CONTINUOUS
 70
0
 71
3
 72
9
 73
5
 74
0
 42
0.0000001
 43
0.0000001
 44
0.0000000001
 40
0.0
 40
0.0
 40
0.0
 40
0.0
 40
0.5061516998
 40
1.0
 40
1.0
 40
1.0
 40
1.0
 10
353.8267809338
 20
79.6116461162
 30
0.0
 10
354.2335437771
 20
79.2187433807
 30
0.0
 10
354.8949738603
 20
78.2767709744
 30
0.0
 10
355.128148014
 20
77.148026602
 30
0.0
 10
355.1284767759
 20
76.596239665
 30
0.0
  0
SPLINE
  5
7DC
100
AcDbEntity
  8
KONSTRUKTIONSELEMENTE
100
AcDbSpline
 62
7
  6
CONTINUOUS
 70
0
 71
3
 72
9
 73
5
 74
0
 42
0.0000001
 43
0.0000001
 44
0.0000000001
 40
0.0
 40
0.0
 40
0.0
 40
0.0
 40
0.4991499622
 40
1.0
 40
1.0
 40
1.0
 40
1.0
 10
360.1284962299
 20
76.5923990731
 30
0.0
 10
360.1281590943
 20
75.6120399458
 30
0.0
 10
359.8047410826
 20
73.6348749914
 30
0.0
 10
358.8658336225
 20
71.8662227295
 30
0.0
 10
358.2737052329
 20
71.0806998588
 30
0.0
  0
SPLINE
  5
7DD
100
AcDbEntity
  8
KONSTRUKTIONSELEMENTE
100
AcDbSpline
 62
7
  6
CONTINUOUS
 70
0
 71
3
 72
9
 73
5
 74
0
 42
0.0000001
 43
0.0000001
 44
0.0000000001
 40
0.0
 40
0.0
 40
0.0
 40
0.0
 40
0.5012747397
 40
1.0
 40
1.0
 40
1.0
 40
1.0
 10
357.3632640249
 20
83.1467360711
 30
0.0
 10
358.2274316027
 20
82.2962169389
 30
0.0
 10
359.6357033609
 20
80.2424786615
 30
0.0
 10
360.1289110775
 20
77.7987372195
 30
0.0
 10
360.1284962299
 20
76.5923990731
 30
0.0
  0
SPLINE
  5
7DE
100
AcDbEntity
  8
KONSTRUKTIONSELEMENTE
100
AcDbSpline
 62
7
  6
CONTINUOUS
 70
0
 71
3
 72
11
 73
7
 74
0
 42
0.0000001
 43
0.0000001
 44
0.0000000001
 40
0.0
 40
0.0
 40
0.0
 40
0.0
 40
0.2507528382
 40
0.5034086137
 40
0.7541779598
 40
1.0
 40
1.0
 40
1.0
 40
1.0
 10
340.0592958278
 20
88.5428485085
 30
0.0
 10
340.4893738511
 20
88.7555458248
 30
0.0
 10
341.4251953498
 20
89.0498315149
 30
0.0
 10
342.8896443596
 20
89.0511024978
 30
0.0
 10
344.279600583
 20
88.6203254
 30
0.0
 10
345.0738984655
 20
88.0662813469
 30
0.0
 10
345.4122102377
 20
87.7394972688
 30
0.0
  0
SPLINE
  5
7DF
100
AcDbEntity
  8
KONSTRUKTIONSELEMENTE
100
AcDbSpline
 62
7
  6
CONTINUOUS
 70
0
 71
3
 72
9
 73
5
 74
0
 42
0.0000001
 43
0.0000001
 44
0.0000000001
 40
0.0
 40
0.0
 40
0.0
 40
0.0
 40
0.5012894406
 40
1.0
 40
1.0
 40
1.0
 40
1.0
 10
335.4420046229
 20
78.1090181721
 30
0.0
 10
334.5595519494
 20
78.9614019999
 30
0.0
 10
333.1188907365
 20
81.0307030482
 30
0.0
 10
332.6136025323
 20
83.5039511466
 30
0.0
 10
332.6140222798
 20
84.7245381986
 30
0.0
  0
SPLINE
  5
7E0
100
AcDbEntity
  8
KONSTRUKTIONSELEMENTE
100
AcDbSpline
 62
7
  6
CONTINUOUS
 70
0
 71
3
 72
11
 73
7
 74
0
 42
0.0000001
 43
0.0000001
 44
0.0000000001
 40
0.0
 40
0.0
 40
0.0
 40
0.0
 40
0.2496929416
 40
0.500340108
 40
0.7507767759
 40
1.0
 40
1.0
 40
1.0
 40
1.0
 10
336.2748649461
 20
92.051646094
 30
0.0
 10
337.1795655917
 20
92.7423858862
 30
0.0
 10
339.2613348545
 20
93.8067600223
 30
0.0
 10
342.7280576361
 20
94.2188070632
 30
0.0
 10
346.1245112692
 20
93.4192953455
 30
0.0
 10
348.0687943839
 20
92.1250753886
 30
0.0
 10
348.8859431907
 20
91.3357702521
 30
0.0
  0
SPLINE
  5
7E1
100
AcDbEntity
  8
KONSTRUKTIONSELEMENTE
100
AcDbSpline
 62
7
  6
CONTINUOUS
 70
0
 71
3
 72
9
 73
5
 74
0
 42
0.0000001
 43
0.0000001
 44
0.0000000001
 40
0.0
 40
0.0
 40
0.0
 40
0.0
 40
0.5061516998
 40
1.0
 40
1.0
 40
1.0
 40
1.0
 10
338.915737576
 20
81.7052911555
 30
0.0
 10
338.5089747327
 20
82.098193891
 30
0.0
 10
337.8475446494
 20
83.0401662973
 30
0.0
 10
337.6143704957
 20
84.1689106697
 30
0.0
 10
337.6140417339
 20
84.7206976067
 30
0.0
  0
SPLINE
  5
7E2
100
AcDbEntity
  8
KONSTRUKTIONSELEMENTE
100
AcDbSpline
 62
7
  6
CONTINUOUS
 70
0
 71
3
 72
21
 73
17
 74
0
 42
0.0000001
 43
0.0000001
 44
0.0000000001
 40
0.0
 40
0.0
 40
0.0
 40
0.0
 40
0.0294220707
 40
0.0723221796
 40
0.128270212
 40
0.1957493625
 40
0.3569194901
 40
0.5354427485
 40
0.7081562347
 40
0.7852637376
 40
0.8528295098
 40
0.9088459223
 40
0.951807463
 40
0.968259586
 40
0.9814568991
 40
1.0
 40
1.0
 40
1.0
 40
1.0
 10
353.3009057105
 20
87.0104867635
 30
0.0
 10
353.3009057105
 20
86.9603362694
 30
0.0
 10
353.2677555019
 20
86.8387544024
 30
0.0
 10
353.1756965813
 20
86.6409028778
 30
0.0
 10
353.0294353234
 20
86.3971949233
 30
0.0
 10
352.7523840032
 20
85.9989250656
 30
0.0
 10
352.3127532533
 20
85.460522425
 30
0.0
 10
351.7159073017
 20
84.8223072111
 30
0.0
 10
351.183436622
 20
84.3216462587
 30
0.0
 10
350.7671086215
 20
83.9759495925
 30
0.0
 10
350.4931051226
 20
83.7708026298
 30
0.0
 10
350.2545863232
 20
83.6164181767
 30
0.0
 10
350.0793507379
 20
83.5257182908
 30
0.0
 10
349.9610183005
 20
83.4867742116
 30
0.0
 10
349.8812035441
 20
83.4720097189
 30
0.0
 10
349.8209700972
 20
83.4824281382
 30
0.0
 10
349.7977641161
 20
83.5038871641
 30
0.0
  0
SPLINE
  5
7E3
100
AcDbEntity
  8
KONSTRUKTIONSELEMENTE
100
AcDbSpline
 62
7
  6
CONTINUOUS
 70
0
 71
3
 72
9
 73
5
 74
0
 42
0.0000001
 43
0.0000001
 44
0.0000000001
 40
0.0
 40
0.0
 40
0.0
 40
0.0
 40
0.4046530715
 40
1.0
 40
1.0
 40
1.0
 40
1.0
 10
288.6006352319
 20
142.6760219677
 30
0.0
 10
288.6006352319
 20
142.728439846
 30
0.0
 10
288.6366432516
 20
142.8560628814
 30
0.0
 10
288.692042447
 20
142.9726514869
 30
0.0
 10
288.7282853257
 20
143.0407245341
 30
0.0
  0
SPLINE
  5
7E4
100
AcDbEntity
  8
KONSTRUKTIONSELEMENTE
100
AcDbSpline
 62
7
  6
CONTINUOUS
 70
0
 71
3
 72
10
 73
6
 74
0
 42
0.0000001
 43
0.0000001
 44
0.0000000001
 40
0.0
 40
0.0
 40
0.0
 40
0.0
 40
0.371444044
 40
0.6586206829
 40
1.0
 40
1.0
 40
1.0
 40
1.0
 10
291.6568205041
 20
146.0710988026
 30
0.0
 10
291.7078303619
 20
146.1004975615
 30
0.0
 10
291.8021238996
 20
146.1497345804
 30
0.0
 10
291.9431165922
 20
146.2061253434
 30
0.0
 10
292.0640492556
 20
146.2193584309
 30
0.0
 10
292.1037768263
 20
146.182621567
 30
0.0
  0
SPLINE
  5
7E5
100
AcDbEntity
  8
KONSTRUKTIONSELEMENTE
100
AcDbSpline
 62
7
  6
CONTINUOUS
 70
0
 71
3
 72
21
 73
17
 74
0
 42
0.0000001
 43
0.0000001
 44
0.0000000001
 40
0.0
 40
0.0
 40
0.0
 40
0.0
 40
0.0294220707
 40
0.0723221796
 40
0.128270212
 40
0.1957493625
 40
0.3569194901
 40
0.5354427485
 40
0.7081562347
 40
0.7852637376
 40
0.8528295098
 40
0.9088459223
 40
0.951807463
 40
0.968259586
 40
0.9814568991
 40
1.0
 40
1.0
 40
1.0
 40
1.0
 10
291.7826157473
 20
146.4325918281
 30
0.0
 10
291.7826157473
 20
146.382441334
 30
0.0
 10
291.7494655387
 20
146.260859467
 30
0.0
 10
291.6574066181
 20
146.0630079424
 30
0.0
 10
291.5111453602
 20
145.8192999879
 30
0.0
 10
291.23409404
 20
145.4210301302
 30
0.0
 10
290.7944632901
 20
144.8826274896
 30
0.0
 10
290.1976173384
 20
144.2444122758
 30
0.0
 10
289.6651466588
 20
143.7437513233
 30
0.0
 10
289.2488186582
 20
143.3980546571
 30
0.0
 10
288.9748151593
 20
143.1929076944
 30
0.0
 10
288.73629636
 20
143.0385232413
 30
0.0
 10
288.5610607747
 20
142.9478233554
 30
0.0
 10
288.4427283372
 20
142.9088792762
 30
0.0
 10
288.3629135809
 20
142.8941147835
 30
0.0
 10
288.3026801339
 20
142.9045332029
 30
0.0
 10
288.2794741529
 20
142.9259922287
 30
0.0
  0
SPLINE
  5
7E6
100
AcDbEntity
  8
KONSTRUKTIONSELEMENTE
100
AcDbSpline
 62
7
  6
CONTINUOUS
 70
0
 71
3
 72
9
 73
5
 74
0
 42
0.0000001
 43
0.0000001
 44
0.0000000001
 40
0.0
 40
0.0
 40
0.0
 40
0.0
 40
0.5061516998
 40
1.0
 40
1.0
 40
1.0
 40
1.0
 10
292.6620443612
 20
138.6922448299
 30
0.0
 10
293.0688072045
 20
138.2993420944
 30
0.0
 10
293.7302372877
 20
137.3573696881
 30
0.0
 10
293.9634114414
 20
136.2286253157
 30
0.0
 10
293.9637402032
 20
135.6768383787
 30
0.0
  0
SPLINE
  5
7E7
100
AcDbEntity
  8
KONSTRUKTIONSELEMENTE
100
AcDbSpline
 62
7
  6
CONTINUOUS
 70
0
 71
3
 72
9
 73
5
 74
0
 42
0.0000001
 43
0.0000001
 44
0.0000000001
 40
0.0
 40
0.0
 40
0.0
 40
0.0
 40
0.4990961922
 40
1.0
 40
1.0
 40
1.0
 40
1.0
 10
298.9637596573
 20
135.6729977867
 30
0.0
 10
298.9634111593
 20
134.6595978745
 30
0.0
 10
298.6174028095
 20
132.6146531423
 30
0.0
 10
297.6153912313
 20
130.8000767276
 30
0.0
 10
296.985684143
 20
130.001389717
 30
0.0
  0
SPLINE
  5
7E8
100
AcDbEntity
  8
KONSTRUKTIONSELEMENTE
100
AcDbSpline
 62
7
  6
CONTINUOUS
 70
0
 71
3
 72
11
 73
7
 74
0
 42
0.0000001
 43
0.0000001
 44
0.0000000001
 40
0.0
 40
0.0
 40
0.0
 40
0.0
 40
0.250262514
 40
0.5008853759
 40
0.7509951573
 40
1.0
 40
1.0
 40
1.0
 40
1.0
 10
293.3956214863
 20
127.2130137523
 30
0.0
 10
292.5211920796
 20
126.8220557082
 30
0.0
 10
290.6425759429
 20
126.2983117274
 30
0.0
 10
287.7287276378
 20
126.367193153
 30
0.0
 10
284.9638084627
 20
127.2753621515
 30
0.0
 10
283.3773139533
 20
128.3996475277
 30
0.0
 10
282.6918387464
 20
129.0617657332
 30
0.0
  0
SPLINE
  5
7E9
100
AcDbEntity
  8
KONSTRUKTIONSELEMENTE
100
AcDbSpline
 62
7
  6
CONTINUOUS
 70
0
 71
3
 72
9
 73
5
 74
0
 42
0.0000001
 43
0.0000001
 44
0.0000000001
 40
0.0
 40
0.0
 40
0.0
 40
0.0
 40
0.5012747397
 40
1.0
 40
1.0
 40
1.0
 40
1.0
 10
296.1985274523
 20
142.2273347848
 30
0.0
 10
297.0626950301
 20
141.3768156526
 30
0.0
 10
298.4709667883
 20
139.3230773752
 30
0.0
 10
298.9641745048
 20
136.8793359331
 30
0.0
 10
298.9637596573
 20
135.6729977867
 30
0.0
  0
SPLINE
  5
7EA
100
AcDbEntity
  8
KONSTRUKTIONSELEMENTE
100
AcDbSpline
 62
7
  6
CONTINUOUS
 70
0
 71
3
 72
9
 73
5
 74
0
 42
0.0000001
 43
0.0000001
 44
0.0000000001
 40
0.0
 40
0.0
 40
0.0
 40
0.0
 40
0.5050460752
 40
1.0
 40
1.0
 40
1.0
 40
1.0
 10
289.8377804133
 20
131.3841474093
 30
0.0
 10
289.1842050399
 20
131.3260474605
 30
0.0
 10
287.8516033164
 20
131.4801303916
 30
0.0
 10
286.6952917905
 20
132.1639859743
 30
0.0
 10
286.2245817203
 20
132.6020884936
 30
0.0
  0
SPLINE
  5
7EB
100
AcDbEntity
  8
KONSTRUKTIONSELEMENTE
100
AcDbSpline
 62
7
  6
CONTINUOUS
 70
0
 71
3
 72
11
 73
7
 74
0
 42
0.0000001
 43
0.0000001
 44
0.0000000001
 40
0.0
 40
0.0
 40
0.0
 40
0.0
 40
0.2482550632
 40
0.5009776728
 40
0.7531154617
 40
1.0
 40
1.0
 40
1.0
 40
1.0
 10
278.0101658905
 20
147.0515008233
 30
0.0
 10
278.442800811
 20
147.4088321043
 30
0.0
 10
279.4613326361
 20
147.9691544395
 30
0.0
 10
281.182050452
 20
148.2122419375
 30
0.0
 10
282.8768885584
 20
147.8419748174
 30
0.0
 10
283.846111698
 20
147.2077818721
 30
0.0
 10
284.247473665
 20
146.8200959824
 30
0.0
  0
SPLINE
  5
7EC
100
AcDbEntity
  8
KONSTRUKTIONSELEMENTE
100
AcDbSpline
 62
7
  6
CONTINUOUS
 70
0
 71
3
 72
9
 73
5
 74
0
 42
0.0000001
 43
0.0000001
 44
0.0000000001
 40
0.0
 40
0.0
 40
0.0
 40
0.0
 40
0.5010903556
 40
1.0
 40
1.0
 40
1.0
 40
1.0
 10
274.2772680503
 20
137.1896168858
 30
0.0
 10
273.6707933559
 20
137.7754264561
 30
0.0
 10
272.6128088664
 20
139.1138898785
 30
0.0
 10
271.9577509055
 20
140.6901485426
 30
0.0
 10
271.7454373785
 20
141.5023877485
 30
0.0
  0
SPLINE
  5
7ED
100
AcDbEntity
  8
KONSTRUKTIONSELEMENTE
100
AcDbSpline
 62
7
  6
CONTINUOUS
 70
0
 71
3
 72
13
 73
9
 74
0
 42
0.0000001
 43
0.0000001
 44
0.0000000001
 40
0.0
 40
0.0
 40
0.0
 40
0.0
 40
0.1246667417
 40
0.2497924193
 40
0.4997589042
 40
0.7498650217
 40
0.8751703578
 40
1.0
 40
1.0
 40
1.0
 40
1.0
 10
273.7644477211
 20
149.880337566
 30
0.0
 10
274.1917186753
 20
150.3636201841
 30
0.0
 10
275.1512557975
 20
151.2461176096
 30
0.0
 10
277.3812791381
 20
152.5833127643
 30
0.0
 10
280.615297796
 20
153.3705945196
 30
0.0
 10
283.900595115
 20
152.8323958155
 30
0.0
 10
286.229415984
 20
151.6705858015
 30
0.0
 10
287.2566267436
 20
150.865118665
 30
0.0
 10
287.7212066181
 20
150.4163689658
 30
0.0
  0
SPLINE
  5
7EE
100
AcDbEntity
  8
KONSTRUKTIONSELEMENTE
100
AcDbSpline
 62
7
  6
CONTINUOUS
 70
0
 71
3
 72
21
 73
17
 74
0
 42
0.0000001
 43
0.0000001
 44
0.0000000001
 40
0.0
 40
0.0
 40
0.0
 40
0.0
 40
0.0294220707
 40
0.0723221796
 40
0.128270212
 40
0.1957493625
 40
0.3569194901
 40
0.5354427485
 40
0.7081562347
 40
0.7852637376
 40
0.8528295098
 40
0.9088459223
 40
0.951807463
 40
0.968259586
 40
0.9814568991
 40
1.0
 40
1.0
 40
1.0
 40
1.0
 10
292.1361691379
 20
146.0910854771
 30
0.0
 10
292.1361691379
 20
146.0409349831
 30
0.0
 10
292.1030189293
 20
145.919353116
 30
0.0
 10
292.0109600087
 20
145.7215015915
 30
0.0
 10
291.8646987508
 20
145.477793637
 30
0.0
 10
291.5876474306
 20
145.0795237793
 30
0.0
 10
291.1480166807
 20
144.5411211387
 30
0.0
 10
290.551170729
 20
143.9029059248
 30
0.0
 10
290.0187000494
 20
143.4022449723
 30
0.0
 10
289.6023720488
 20
143.0565483061
 30
0.0
 10
289.3283685499
 20
142.8514013435
 30
0.0
 10
289.0898497505
 20
142.6970168904
 30
0.0
 10
288.9146141653
 20
142.6063170045
 30
0.0
 10
288.7962817278
 20
142.5673729253
 30
0.0
 10
288.7164669714
 20
142.5526084326
 30
0.0
 10
288.6562335245
 20
142.5630268519
 30
0.0
 10
288.6330275435
 20
142.5844858778
 30
0.0
  0
SPLINE
  5
7EF
100
AcDbEntity
  8
KONSTRUKTIONSELEMENTE
100
AcDbSpline
 62
7
  6
CONTINUOUS
 70
0
 71
3
 72
14
 73
10
 74
0
 42
0.0000001
 43
0.0000001
 44
0.0000000001
 40
0.0
 40
0.0
 40
0.0
 40
0.0
 40
0.2486058913
 40
0.3624131092
 40
0.473837298
 40
0.588643437
 40
0.7135244377
 40
0.8519761805
 40
1.0
 40
1.0
 40
1.0
 40
1.0
 10
247.8957770707
 20
186.3252630391
 30
0.0
 10
247.1208055927
 20
186.7730829681
 30
0.0
 10
245.9626419757
 20
187.3826708024
 30
0.0
 10
244.3730849891
 20
188.0068572576
 30
0.0
 10
243.1927009245
 20
188.3414152873
 30
0.0
 10
241.9359234579
 20
188.5190451777
 30
0.0
 10
240.5650749773
 20
188.4521531661
 30
0.0
 10
239.1326581991
 20
188.0078267591
 30
0.0
 10
238.2673619419
 20
187.4080348293
 30
0.0
 10
237.8842879623
 20
187.0375373436
 30
0.0
  0
SPLINE
  5
7F0
100
AcDbEntity
  8
KONSTRUKTIONSELEMENTE
100
AcDbSpline
 62
7
  6
CONTINUOUS
 70
0
 71
3
 72
17
 73
13
 74
0
 42
0.0000001
 43
0.0000001
 44
0.0000000001
 40
0.0
 40
0.0
 40
0.0
 40
0.0
 40
0.1680793009
 40
0.3252134024
 40
0.4674934686
 40
0.5921392274
 40
0.6985933902
 40
0.7912245851
 40
0.8366714773
 40
0.8856255444
 40
0.9404961144
 40
1.0
 40
1.0
 40
1.0
 40
1.0
 10
258.7792464825
 20
152.2036510424
 30
0.0
 10
259.9940556355
 20
151.0460408031
 30
0.0
 10
262.3816374346
 20
148.8446237085
 30
0.0
 10
265.9295899764
 20
145.8102431137
 30
0.0
 10
269.2666817358
 20
143.2024983192
 30
0.0
 10
272.3321868423
 20
141.0757193828
 30
0.0
 10
275.1288036635
 20
139.4498218168
 30
0.0
 10
277.3953260488
 20
138.499361654
 30
0.0
 10
279.2305632959
 20
138.1181209504
 30
0.0
 10
280.7333480585
 20
138.0957638495
 30
0.0
 10
282.3361784003
 20
138.506351172
 30
0.0
 10
283.3113712056
 20
139.1554746972
 30
0.0
 10
283.7383895003
 20
139.568473786
 30
0.0
  0
SPLINE
  5
7F1
100
AcDbEntity
  8
KONSTRUKTIONSELEMENTE
100
AcDbSpline
 62
7
  6
CONTINUOUS
 70
0
 71
3
 72
15
 73
11
 74
0
 42
0.0000001
 43
0.0000001
 44
0.0000000001
 40
0.0
 40
0.0
 40
0.0
 40
0.0
 40
0.0948205101
 40
0.1257077489
 40
0.1540779199
 40
0.2356238866
 40
0.3651254237
 40
0.5383117688
 40
0.751095616
 40
1.0
 40
1.0
 40
1.0
 40
1.0
 10
244.3043906145
 20
183.0509387584
 30
0.0
 10
244.305867995
 20
183.0859730752
 30
0.0
 10
244.3082871677
 20
183.1144680687
 30
0.0
 10
244.3002033911
 20
183.2079356356
 30
0.0
 10
244.3116986613
 20
183.1260585016
 30
0.0
 10
244.3279300012
 20
183.0614878386
 30
0.0
 10
244.3662960877
 20
182.9123802788
 30
0.0
 10
244.4224082041
 20
182.7352753858
 30
0.0
 10
244.5005343871
 20
182.5118986095
 30
0.0
 10
244.5626622769
 20
182.3533489974
 30
0.0
 10
244.5972973237
 20
182.2680667208
 30
0.0
  0
SPLINE
  5
7F2
100
AcDbEntity
  8
KONSTRUKTIONSELEMENTE
100
AcDbSpline
 62
7
  6
CONTINUOUS
 70
0
 71
3
 72
9
 73
5
 74
0
 42
0.0000001
 43
0.0000001
 44
0.0000000001
 40
0.0
 40
0.0
 40
0.0
 40
0.0
 40
0.4667006129
 40
1.0
 40
1.0
 40
1.0
 40
1.0
 10
273.7956759121
 20
149.8745768047
 30
0.0
 10
272.7675742301
 20
151.3583899955
 30
0.0
 10
270.4373875119
 20
154.4495993613
 30
0.0
 10
267.948834955
 20
157.4125920053
 30
0.0
 10
266.5881679612
 20
158.9629721862
 30
0.0
  0
SPLINE
  5
7F3
100
AcDbEntity
  8
KONSTRUKTIONSELEMENTE
100
AcDbSpline
 62
7
  6
CONTINUOUS
 70
0
 71
3
 72
14
 73
10
 74
0
 42
0.0000001
 43
0.0000001
 44
0.0000000001
 40
0.0
 40
0.0
 40
0.0
 40
0.0
 40
0.1478599485
 40
0.285967718
 40
0.4104728558
 40
0.5250166171
 40
0.6363303579
 40
0.7503400497
 40
1.0
 40
1.0
 40
1.0
 40
1.0
 10
237.8842879623
 20
187.0375373436
 30
0.0
 10
237.4975316607
 20
186.6634784282
 30
0.0
 10
236.8636448803
 20
185.8106659499
 30
0.0
 10
236.3722722382
 20
184.3798650275
 30
0.0
 10
236.2639298028
 20
183.0004363267
 30
0.0
 10
236.4074274781
 20
181.7283042273
 30
0.0
 10
236.710589221
 20
180.5266158713
 30
0.0
 10
237.2939575231
 20
178.8977243886
 30
0.0
 10
237.8762494275
 20
177.7048623845
 30
0.0
 10
238.3062219774
 20
176.9045571332
 30
0.0
  0
SPLINE
  5
7F4
100
AcDbEntity
  8
KONSTRUKTIONSELEMENTE
100
AcDbSpline
 62
7
  6
CONTINUOUS
 70
0
 71
3
 72
15
 73
11
 74
0
 42
0.0000001
 43
0.0000001
 44
0.0000000001
 40
0.0
 40
0.0
 40
0.0
 40
0.0
 40
0.3535417672
 40
0.5130260009
 40
0.6568962669
 40
0.7819949518
 40
0.884731645
 40
0.9602289924
 40
0.985372995
 40
1.0
 40
1.0
 40
1.0
 40
1.0
 10
264.9569389417
 20
157.3713937621
 30
0.0
 10
266.581785443
 20
155.8427587296
 30
0.0
 10
268.9917915376
 20
153.678081291
 30
0.0
 10
272.2008899257
 20
151.053461823
 30
0.0
 10
274.3537481004
 20
149.4169929831
 30
0.0
 10
276.2815781983
 20
148.0790738096
 30
0.0
 10
277.9138644806
 20
147.0777927143
 30
0.0
 10
279.0573126682
 20
146.4893343583
 30
0.0
 10
279.7337523653
 20
146.2206833113
 30
0.0
 10
279.9739376583
 20
146.1464434131
 30
0.0
 10
280.0637317423
 20
146.1250908426
 30
0.0
  0
SPLINE
  5
7F5
100
AcDbEntity
  8
KONSTRUKTIONSELEMENTE
100
AcDbSpline
 62
7
  6
CONTINUOUS
 70
0
 71
3
 72
12
 73
8
 74
0
 42
0.0000001
 43
0.0000001
 44
0.0000000001
 40
0.0
 40
0.0
 40
0.0
 40
0.0
 40
0.1472178986
 40
0.2900526402
 40
0.5501857384
 40
0.7802254842
 40
1.0
 40
1.0
 40
1.0
 40
1.0
 10
283.7383895003
 20
139.568473786
 30
0.0
 10
283.9906432761
 20
139.812445955
 30
0.0
 10
284.4384870064
 20
140.3473973519
 30
0.0
 10
285.058930292
 20
141.5115698626
 30
0.0
 10
285.3840802638
 20
143.0172855675
 30
0.0
 10
285.2641349228
 20
144.7184188856
 30
0.0
 10
284.9949554902
 20
145.760655842
 30
0.0
 10
284.8349900656
 20
146.2595283271
 30
0.0
  0
SPLINE
  5
7F6
100
AcDbEntity
  8
KONSTRUKTIONSELEMENTE
100
AcDbSpline
 62
7
  6
CONTINUOUS
 70
0
 71
3
 72
10
 73
6
 74
0
 42
0.0000001
 43
0.0000001
 44
0.0000000001
 40
0.0
 40
0.0
 40
0.0
 40
0.0
 40
0.2212206503
 40
0.4642883642
 40
1.0
 40
1.0
 40
1.0
 40
1.0
 10
281.2759446833
 20
153.0918284326
 30
0.0
 10
280.6615508553
 20
154.0265333649
 30
0.0
 10
279.3185319832
 20
155.9532588653
 30
0.0
 10
276.2601628012
 20
159.9807150309
 30
0.0
 10
273.716863582
 20
162.9913653356
 30
0.0
 10
271.9161197109
 20
165.0148198507
 30
0.0
  0
SPLINE
  5
7F7
100
AcDbEntity
  8
0
100
AcDbSpline
 62
7
  6
CONTINUOUS
 70
0
 71
3
 72
9
 73
5
 74
0
 42
0.0000001
 43
0.0000001
 44
0.0000000001
 40
0.0
 40
0.0
 40
0.0
 40
0.0
 40
0.4878118609
 40
1.0
 40
1.0
 40
1.0
 40
1.0
 10
205.4074147278
 20
46.6078335492
 30
0.0
 10
206.9234154136
 20
45.8584238543
 30
0.0
 10
210.2729867997
 20
44.8067992827
 30
0.0
 10
213.7457428431
 20
44.4770211607
 30
0.0
 10
215.5213649072
 20
44.4770211607
 30
0.0
  0
SPLINE
  5
7F8
100
AcDbEntity
  8
0
100
AcDbSpline
 62
7
  6
CONTINUOUS
 70
0
 71
3
 72
11
 73
7
 74
0
 42
0.0000001
 43
0.0000001
 44
0.0000000001
 40
0.0
 40
0.0
 40
0.0
 40
0.0
 40
0.2513500792
 40
0.5016731624
 40
0.7510940607
 40
1.0
 40
1.0
 40
1.0
 40
1.0
 10
205.4074154608
 20
46.6078367955
 30
0.0
 10
203.5867851005
 20
47.5078341925
 30
0.0
 10
200.1781446335
 20
49.8093186266
 30
0.0
 10
196.2116902219
 20
54.5018102514
 30
0.0
 10
193.692566729
 20
60.086110085
 30
0.0
 10
193.1171649072
 20
64.1354319416
 30
0.0
 10
193.1171649072
 20
66.1466163891
 30
0.0
  0
SPLINE
  5
7F9
100
AcDbEntity
  8
0
100
AcDbSpline
 62
7
  6
CONTINUOUS
 70
0
 71
3
 72
8
 73
4
 74
0
 42
0.0000001
 43
0.0000001
 44
0.0000000001
 40
0.0
 40
0.0
 40
0.0
 40
0.0
 40
1.0
 40
1.0
 40
1.0
 40
1.0
 10
193.2044481808
 20
106.9453998942
 30
0.0
 10
193.1491967594
 20
106.8691785564
 30
0.0
 10
193.1171649072
 20
106.7709451604
 30
0.0
 10
193.1171649072
 20
106.6768047763
 30
0.0
  0
SPLINE
  5
7FA
100
AcDbEntity
  8
RUNDUNGEN
100
AcDbSpline
 62
7
  6
CONTINUOUS
 70
0
 71
3
 72
9
 73
5
 74
0
 42
0.0000001
 43
0.0000001
 44
0.0000000001
 40
0.0
 40
0.0
 40
0.0
 40
0.0
 40
0.4878118609
 40
1.0
 40
1.0
 40
1.0
 40
1.0
 10
227.8269150865
 20
46.6078335492
 30
0.0
 10
226.3109144008
 20
45.8584238543
 30
0.0
 10
222.9613430146
 20
44.8067992827
 30
0.0
 10
219.4885869712
 20
44.4770211607
 30
0.0
 10
217.7129649072
 20
44.4770211607
 30
0.0
  0
SPLINE
  5
7FB
100
AcDbEntity
  8
BEZUGSACHSEN
100
AcDbSpline
 62
7
  6
CONTINUOUS
 70
0
 71
3
 72
19
 73
15
 74
0
 42
0.0000001
 43
0.0000001
 44
0.0000000001
 40
0.0
 40
0.0
 40
0.0
 40
0.0
 40
0.0615778188
 40
0.1233173652
 40
0.1853624895
 40
0.2478005785
 40
0.3733221741
 40
0.5
 40
0.6266778259
 40
0.7521994215
 40
0.8146375105
 40
0.8766826348
 40
0.9384221812
 40
1.0
 40
1.0
 40
1.0
 40
1.0
 10
205.2421649072
 20
91.6217099604
 30
0.0
 10
205.2421649072
 20
90.9034789929
 30
0.0
 10
205.3893070852
 20
89.4608629564
 30
0.0
 10
206.0422305708
 20
87.3851128273
 30
0.0
 10
207.1026781375
 20
85.4720884277
 30
0.0
 10
209.001427831
 20
83.2378091265
 30
0.0
 10
212.1725916838
 20
81.1976603152
 30
0.0
 10
216.6171649072
 20
80.3513845916
 30
0.0
 10
221.0617381305
 20
81.1976603152
 30
0.0
 10
224.2329019833
 20
83.2378091265
 30
0.0
 10
226.1316516768
 20
85.4720884277
 30
0.0
 10
227.1920992435
 20
87.3851128273
 30
0.0
 10
227.8450227291
 20
89.4608629564
 30
0.0
 10
227.9921649072
 20
90.9034789929
 30
0.0
 10
227.9921649072
 20
91.6217099604
 30
0.0
  0
SPLINE
  5
7FC
100
AcDbEntity
  8
RUNDUNGEN
100
AcDbSpline
 62
7
  6
CONTINUOUS
 70
0
 71
3
 72
11
 73
7
 74
0
 42
0.0000001
 43
0.0000001
 44
0.0000000001
 40
0.0
 40
0.0
 40
0.0
 40
0.0
 40
0.2513500792
 40
0.5016731624
 40
0.7510940607
 40
1.0
 40
1.0
 40
1.0
 40
1.0
 10
227.8269143536
 20
46.6078367955
 30
0.0
 10
229.6475447138
 20
47.5078341925
 30
0.0
 10
233.0561851808
 20
49.8093186266
 30
0.0
 10
237.0226395924
 20
54.5018102514
 30
0.0
 10
239.5417630853
 20
60.086110085
 30
0.0
 10
240.1171649072
 20
64.1354319416
 30
0.0
 10
240.1171649072
 20
66.1466163891
 30
0.0
  0
SPLINE
  5
7FD
100
AcDbEntity
  8
RUNDUNGEN
100
AcDbSpline
 62
7
  6
CONTINUOUS
 70
0
 71
3
 72
8
 73
4
 74
0
 42
0.0000001
 43
0.0000001
 44
0.0000000001
 40
0.0
 40
0.0
 40
0.0
 40
0.0
 40
1.0
 40
1.0
 40
1.0
 40
1.0
 10
240.0298816335
 20
106.9453998942
 30
0.0
 10
240.0851330549
 20
106.8691785564
 30
0.0
 10
240.1171649072
 20
106.7709451604
 30
0.0
 10
240.1171649072
 20
106.6768047763
 30
0.0
  0
SPLINE
  5
7FE
100
AcDbEntity
  8
KONSTRUKTIONSELEMENTE
100
AcDbSpline
 62
7
  6
CONTINUOUS
 70
0
 71
3
 72
13
 73
9
 74
0
 42
0.0000001
 43
0.0000001
 44
0.0000000001
 40
0.0
 40
0.0
 40
0.0
 40
0.0
 40
0.1127381163
 40
0.2294469722
 40
0.350373488
 40
0.4753903771
 40
0.7342942263
 40
1.0
 40
1.0
 40
1.0
 40
1.0
 10
240.1171649072
 20
82.7419602835
 30
0.0
 10
240.1171649072
 20
81.4877027428
 30
0.0
 10
239.836269588
 20
78.9273673976
 30
0.0
 10
238.599530253
 20
75.2025669142
 30
0.0
 10
236.5614767168
 20
71.6875682588
 30
0.0
 10
232.8223326801
 20
67.4539900367
 30
0.0
 10
226.5384637561
 20
63.5341552694
 30
0.0
 10
220.6686329863
 20
62.3844315002
 30
0.0
 10
217.7129649072
 20
62.3347771473
 30
0.0
  0
SPLINE
  5
7FF
100
AcDbEntity
  8
0
100
AcDbSpline
 62
7
  6
CONTINUOUS
 70
0
 71
3
 72
13
 73
9
 74
0
 42
0.0000001
 43
0.0000001
 44
0.0000000001
 40
0.0
 40
0.0
 40
0.0
 40
0.0
 40
0.1127381163
 40
0.2294469722
 40
0.350373488
 40
0.4753903771
 40
0.7342942263
 40
1.0
 40
1.0
 40
1.0
 40
1.0
 10
193.1171649072
 20
82.7419602835
 30
0.0
 10
193.1171649072
 20
81.4877027428
 30
0.0
 10
193.3980602263
 20
78.9273673976
 30
0.0
 10
194.6347995613
 20
75.2025669142
 30
0.0
 10
196.6728530975
 20
71.6875682588
 30
0.0
 10
200.4119971342
 20
67.4539900367
 30
0.0
 10
206.6958660582
 20
63.5341552694
 30
0.0
 10
212.565696828
 20
62.3844315002
 30
0.0
 10
215.5213649072
 20
62.3347771473
 30
0.0
  0
SPLINE
  5
800
100
AcDbEntity
  8
BEZUGSACHSEN
100
AcDbSpline
 62
7
  6
CONTINUOUS
 70
0
 71
3
 72
19
 73
15
 74
0
 42
0.0000001
 43
0.0000001
 44
0.0000000001
 40
0.0
 40
0.0
 40
0.0
 40
0.0
 40
0.0615778188
 40
0.1233173652
 40
0.1853624895
 40
0.2478005785
 40
0.3733221741
 40
0.5
 40
0.6266778259
 40
0.7521994215
 40
0.8146375105
 40
0.8766826348
 40
0.9384221812
 40
1.0
 40
1.0
 40
1.0
 40
1.0
 10
227.9921649072
 20
91.6217099604
 30
0.0
 10
227.9921649072
 20
92.3399409278
 30
0.0
 10
227.8450227291
 20
93.7825569643
 30
0.0
 10
227.1920992435
 20
95.8583070934
 30
0.0
 10
226.1316516768
 20
97.7713314931
 30
0.0
 10
224.2329019833
 20
100.0056107942
 30
0.0
 10
221.0617381305
 20
102.0457596055
 30
0.0
 10
216.6171649072
 20
102.8920353292
 30
0.0
 10
212.1725916838
 20
102.0457596055
 30
0.0
 10
209.001427831
 20
100.0056107942
 30
0.0
 10
207.1026781375
 20
97.7713314931
 30
0.0
 10
206.0422305708
 20
95.8583070934
 30
0.0
 10
205.3893070852
 20
93.7825569643
 30
0.0
 10
205.2421649072
 20
92.3399409278
 30
0.0
 10
205.2421649072
 20
91.6217099604
 30
0.0
  0
SPLINE
  5
801
100
AcDbEntity
  8
0
100
AcDbSpline
 62
7
  6
CONTINUOUS
 70
0
 71
3
 72
9
 73
5
 74
0
 42
0.0000001
 43
0.0000001
 44
0.0000000001
 40
0.0
 40
0.0
 40
0.0
 40
0.0
 40
0.5000000009
 40
1.0
 40
1.0
 40
1.0
 40
1.0
 10
220.8825787285
 20
186.7175051475
 30
0.0
 10
221.4135316843
 20
182.6044834202
 30
0.0
 10
221.9819635286
 20
174.3027869354
 30
0.0
 10
221.4135316825
 20
166.0010904509
 30
0.0
 10
220.8825787285
 20
161.8880687377
 30
0.0
  0
SPLINE
  5
802
100
AcDbEntity
  8
0
100
AcDbSpline
 62
7
  6
CONTINUOUS
 70
0
 71
3
 72
9
 73
5
 74
0
 42
0.0000001
 43
0.0000001
 44
0.0000000001
 40
0.0
 40
0.0
 40
0.0
 40
0.0
 40
0.5000000008
 40
1.0
 40
1.0
 40
1.0
 40
1.0
 10
220.8825787285
 20
201.0527869426
 30
0.0
 10
221.4072750698
 20
198.7061150615
 30
0.0
 10
221.988220143
 20
193.8851460408
 30
0.0
 10
221.4072750681
 20
189.0641770206
 30
0.0
 10
220.8825787285
 20
186.7175051475
 30
0.0
  0
SPLINE
  5
803
100
AcDbEntity
  8
KONSTRUKTIONSELEMENTE
100
AcDbSpline
 62
7
  6
CONTINUOUS
 70
0
 71
3
 72
15
 73
11
 74
0
 42
0.0000001
 43
0.0000001
 44
0.0000000001
 40
0.0
 40
0.0
 40
0.0
 40
0.0
 40
0.1249040308
 40
0.2497829853
 40
0.3746694502
 40
0.4995923268
 40
0.624592286
 40
0.749682599
 40
0.8748430156
 40
1.0
 40
1.0
 40
1.0
 40
1.0
 10
217.7129649072
 20
46.3471122641
 30
0.0
 10
219.0697976418
 20
46.3243178739
 30
0.0
 10
221.7944452074
 20
46.5343042852
 30
0.0
 10
225.7446325116
 20
47.6086294451
 30
0.0
 10
229.4253670561
 20
49.4037644644
 30
0.0
 10
232.7073157983
 20
51.8541715874
 30
0.0
 10
235.4818060302
 20
54.8693412815
 30
0.0
 10
237.6631429683
 20
58.3402605494
 30
0.0
 10
239.1927060944
 20
62.1430998468
 30
0.0
 10
239.7589677289
 20
64.8190633392
 30
0.0
 10
239.9276846653
 20
66.168328181
 30
0.0
  0
SPLINE
  5
804
100
AcDbEntity
  8
0
100
AcDbSpline
 62
7
  6
CONTINUOUS
 70
0
 71
3
 72
20
 73
16
 74
0
 42
0.0000001
 43
0.0000001
 44
0.0000000001
 40
0.0
 40
0.0
 40
0.0
 40
0.0
 40
0.2532410221
 40
0.3794790454
 40
0.5046438454
 40
0.5668287804
 40
0.6286275003
 40
0.6900233527
 40
0.7510490314
 40
0.811897525
 40
0.8426192501
 40
0.8736144848
 40
0.9049462172
 40
0.9365596055
 40
1.0
 40
1.0
 40
1.0
 40
1.0
 10
215.5213649072
 20
64.206557948
 30
0.0
 10
213.3881159353
 20
64.206557948
 30
0.0
 10
210.1521047717
 20
64.7281582751
 30
0.0
 10
206.2684246647
 20
66.5013877068
 30
0.0
 10
204.1180387624
 20
68.0810098339
 30
0.0
 10
202.6878060001
 20
69.6248246421
 30
0.0
 10
201.8005267535
 20
70.917818951
 30
0.0
 10
201.1539867406
 20
72.3393843615
 30
0.0
 10
200.8308265363
 20
73.8638252922
 30
0.0
 10
200.9505283566
 20
75.1759485536
 30
0.0
 10
201.3700845148
 20
76.1295053759
 30
0.0
 10
201.8614539835
 20
76.7522108307
 30
0.0
 10
202.5069317406
 20
77.2259044383
 30
0.0
 10
203.5004139317
 20
77.6311348952
 30
0.0
 10
204.3129405755
 20
77.7104945064
 30
0.0
 10
204.8473490819
 20
77.7104945064
 30
0.0
  0
SPLINE
  5
805
100
AcDbEntity
  8
RUNDUNGEN
100
AcDbSpline
 62
7
  6
CONTINUOUS
 70
0
 71
3
 72
20
 73
16
 74
0
 42
0.0000001
 43
0.0000001
 44
0.0000000001
 40
0.0
 40
0.0
 40
0.0
 40
0.0
 40
0.2532410221
 40
0.3794790454
 40
0.5046438454
 40
0.5668287804
 40
0.6286275003
 40
0.6900233527
 40
0.7510490314
 40
0.811897525
 40
0.8426192501
 40
0.8736144848
 40
0.9049462172
 40
0.9365596055
 40
1.0
 40
1.0
 40
1.0
 40
1.0
 10
217.7129649072
 20
64.206557948
 30
0.0
 10
219.8462138791
 20
64.206557948
 30
0.0
 10
223.0822250426
 20
64.7281582751
 30
0.0
 10
226.9659051496
 20
66.5013877068
 30
0.0
 10
229.1162910519
 20
68.0810098339
 30
0.0
 10
230.5465238142
 20
69.6248246421
 30
0.0
 10
231.4338030608
 20
70.917818951
 30
0.0
 10
232.0803430737
 20
72.3393843615
 30
0.0
 10
232.403503278
 20
73.8638252922
 30
0.0
 10
232.2838014578
 20
75.1759485536
 30
0.0
 10
231.8642452995
 20
76.1295053759
 30
0.0
 10
231.3728758308
 20
76.7522108307
 30
0.0
 10
230.7273980737
 20
77.2259044383
 30
0.0
 10
229.7339158826
 20
77.6311348952
 30
0.0
 10
228.9213892388
 20
77.7104945064
 30
0.0
 10
228.3869807324
 20
77.7104945064
 30
0.0
  0
SPLINE
  5
806
100
AcDbEntity
  8
BEZUGSACHSEN
100
AcDbSpline
 62
7
  6
CONTINUOUS
 70
0
 71
3
 72
19
 73
15
 74
0
 42
0.0000001
 43
0.0000001
 44
0.0000000001
 40
0.0
 40
0.0
 40
0.0
 40
0.0
 40
0.0615637168
 40
0.1233167015
 40
0.1853986847
 40
0.2478631715
 40
0.3734162268
 40
0.5
 40
0.6265837732
 40
0.7521368285
 40
0.8146013153
 40
0.8766832985
 40
0.9384362832
 40
1.0
 40
1.0
 40
1.0
 40
1.0
 10
227.93676544
 20
91.9273459526
 30
0.0
 10
227.86804661
 20
92.5979172098
 30
0.0
 10
227.6015402865
 20
93.931449767
 30
0.0
 10
226.8306570026
 20
95.8217363639
 30
0.0
 10
225.7144348656
 20
97.5439543563
 30
0.0
 10
223.8184723061
 20
99.5380415061
 30
0.0
 10
220.7847646553
 20
101.3377668977
 30
0.0
 10
216.6171649072
 20
102.0811167423
 30
0.0
 10
212.449565159
 20
101.3377668977
 30
0.0
 10
209.4158575082
 20
99.5380415061
 30
0.0
 10
207.5198949487
 20
97.5439543563
 30
0.0
 10
206.4036728117
 20
95.8217363639
 30
0.0
 10
205.6327895278
 20
93.931449767
 30
0.0
 10
205.3662832043
 20
92.5979172098
 30
0.0
 10
205.2975643743
 20
91.9273459526
 30
0.0
  0
SPLINE
  5
807
100
AcDbEntity
  8
0
100
AcDbSpline
 62
7
  6
CONTINUOUS
 70
0
 71
3
 72
15
 73
11
 74
0
 42
0.0000001
 43
0.0000001
 44
0.0000000001
 40
0.0
 40
0.0
 40
0.0
 40
0.0
 40
0.1238604718
 40
0.2486290716
 40
0.3741165985
 40
0.5
 40
0.6258834015
 40
0.7513709284
 40
0.8761395282
 40
1.0
 40
1.0
 40
1.0
 40
1.0
 10
202.4323229022
 20
66.3559146227
 30
0.0
 10
203.2910188272
 20
65.3452894786
 30
0.0
 10
205.2482569905
 20
63.5033136482
 30
0.0
 10
208.7181010126
 20
61.4423854332
 30
0.0
 10
212.5703130106
 20
60.164231483
 30
0.0
 10
216.6171649072
 20
59.7315408142
 30
0.0
 10
220.6640168037
 20
60.164231483
 30
0.0
 10
224.5162288018
 20
61.4423854332
 30
0.0
 10
227.9860728238
 20
63.5033136482
 30
0.0
 10
229.9433109872
 20
65.3452894786
 30
0.0
 10
230.8020069121
 20
66.3559146227
 30
0.0
  0
SPLINE
  5
808
100
AcDbEntity
  8
RUNDUNGEN
100
AcDbSpline
 62
7
  6
CONTINUOUS
 70
0
 71
3
 72
13
 73
9
 74
0
 42
0.0000001
 43
0.0000001
 44
0.0000000001
 40
0.0
 40
0.0
 40
0.0
 40
0.0
 40
0.3462597834
 40
0.6474982145
 40
0.7707199971
 40
0.8709799733
 40
0.9465895864
 40
1.0
 40
1.0
 40
1.0
 40
1.0
 10
232.6171649072
 20
106.3337832908
 30
0.0
 10
233.4592044952
 20
106.5902308622
 30
0.0
 10
235.0529079017
 20
107.0081976458
 30
0.0
 10
236.9903445361
 20
107.3343067496
 30
0.0
 10
238.3235104212
 20
107.4059229799
 30
0.0
 10
239.0858226107
 20
107.3630318726
 30
0.0
 10
239.6560727549
 20
107.2377761913
 30
0.0
 10
239.9501950752
 20
107.0553303886
 30
0.0
 10
240.0298816335
 20
106.9453998942
 30
0.0
  0
SPLINE
  5
809
100
AcDbEntity
  8
RUNDUNGEN
100
AcDbSpline
 62
7
  6
CONTINUOUS
 70
0
 71
3
 72
13
 73
9
 74
0
 42
0.0000001
 43
0.0000001
 44
0.0000000001
 40
0.0
 40
0.0
 40
0.0
 40
0.0
 40
0.3462597834
 40
0.6474982145
 40
0.7707199971
 40
0.8709799733
 40
0.9465895864
 40
1.0
 40
1.0
 40
1.0
 40
1.0
 10
227.1171649072
 20
113.9209510299
 30
0.0
 10
227.9592044952
 20
114.1773986014
 30
0.0
 10
229.5529079017
 20
114.5953653849
 30
0.0
 10
231.4903445361
 20
114.9214744887
 30
0.0
 10
232.8235104212
 20
114.993090719
 30
0.0
 10
233.5858226107
 20
114.9501996117
 30
0.0
 10
234.1560727549
 20
114.8249439304
 30
0.0
 10
234.4501950752
 20
114.6424981277
 30
0.0
 10
234.5298816335
 20
114.5325676333
 30
0.0
  0
SPLINE
  5
80A
100
AcDbEntity
  8
0
100
AcDbSpline
 62
7
  6
CONTINUOUS
 70
0
 71
3
 72
13
 73
9
 74
0
 42
0.0000001
 43
0.0000001
 44
0.0000000001
 40
0.0
 40
0.0
 40
0.0
 40
0.0
 40
0.3462597834
 40
0.6474982145
 40
0.7707199971
 40
0.8709799733
 40
0.9465895864
 40
1.0
 40
1.0
 40
1.0
 40
1.0
 10
206.1171649072
 20
113.9209510299
 30
0.0
 10
205.2751253192
 20
114.1773986014
 30
0.0
 10
203.6814219126
 20
114.5953653849
 30
0.0
 10
201.7439852782
 20
114.9214744887
 30
0.0
 10
200.4108193931
 20
114.993090719
 30
0.0
 10
199.6485072036
 20
114.9501996117
 30
0.0
 10
199.0782570595
 20
114.8249439304
 30
0.0
 10
198.7841347391
 20
114.6424981277
 30
0.0
 10
198.7044481808
 20
114.5325676333
 30
0.0
  0
SPLINE
  5
80B
100
AcDbEntity
  8
0
100
AcDbSpline
 62
7
  6
CONTINUOUS
 70
0
 71
3
 72
13
 73
9
 74
0
 42
0.0000001
 43
0.0000001
 44
0.0000000001
 40
0.0
 40
0.0
 40
0.0
 40
0.0
 40
0.3462597834
 40
0.6474982145
 40
0.7707199971
 40
0.8709799733
 40
0.9465895864
 40
1.0
 40
1.0
 40
1.0
 40
1.0
 10
200.6171649072
 20
106.3337832908
 30
0.0
 10
199.7751253192
 20
106.5902308622
 30
0.0
 10
198.1814219126
 20
107.0081976458
 30
0.0
 10
196.2439852782
 20
107.3343067496
 30
0.0
 10
194.9108193931
 20
107.4059229799
 30
0.0
 10
194.1485072036
 20
107.3630318726
 30
0.0
 10
193.5782570595
 20
107.2377761913
 30
0.0
 10
193.2841347391
 20
107.0553303886
 30
0.0
 10
193.2044481808
 20
106.9453998942
 30
0.0
  0
SPLINE
  5
80C
100
AcDbEntity
  8
0
100
AcDbSpline
 62
7
  6
CONTINUOUS
 70
0
 71
3
 72
15
 73
11
 74
0
 42
0.0000001
 43
0.0000001
 44
0.0000000001
 40
0.0
 40
0.0
 40
0.0
 40
0.0
 40
0.1249012612
 40
0.2497759277
 40
0.3746648182
 40
0.4996085473
 40
0.6246454272
 40
0.7497796153
 40
0.8749460213
 40
1.0
 40
1.0
 40
1.0
 40
1.0
 10
215.5213649072
 20
46.3471122641
 30
0.0
 10
214.037684342
 20
46.3221868678
 30
0.0
 10
211.0563906545
 20
46.5783008614
 30
0.0
 10
206.7648091858
 20
47.868797504
 30
0.0
 10
202.8255832226
 20
50.0098897154
 30
0.0
 10
199.4032433909
 20
52.9077850157
 30
0.0
 10
196.6306524997
 20
56.434877903
 30
0.0
 10
194.6054970008
 20
60.4399424447
 30
0.0
 10
193.3845029667
 20
64.7555861465
 30
0.0
 10
193.1171649072
 20
67.7358156417
 30
0.0
 10
193.1171649072
 20
69.2215199226
 30
0.0
  0
SPLINE
  5
80D
100
AcDbEntity
  8
0
100
AcDbSpline
 62
7
  6
CONTINUOUS
 70
0
 71
3
 72
9
 73
5
 74
0
 42
0.0000001
 43
0.0000001
 44
0.0000000001
 40
0.0
 40
0.0
 40
0.0
 40
0.0
 40
0.5000000008
 40
1.0
 40
1.0
 40
1.0
 40
1.0
 10
212.3517510859
 20
201.0527869426
 30
0.0
 10
211.8270547445
 20
198.7061150615
 30
0.0
 10
211.2461096713
 20
193.8851460408
 30
0.0
 10
211.8270547462
 20
189.0641770206
 30
0.0
 10
212.3517510859
 20
186.7175051475
 30
0.0
  0
SPLINE
  5
80E
100
AcDbEntity
  8
0
100
AcDbSpline
 62
7
  6
CONTINUOUS
 70
0
 71
3
 72
9
 73
5
 74
0
 42
0.0000001
 43
0.0000001
 44
0.0000000001
 40
0.0
 40
0.0
 40
0.0
 40
0.0
 40
0.5000000009
 40
1.0
 40
1.0
 40
1.0
 40
1.0
 10
212.3517510859
 20
186.7175051475
 30
0.0
 10
211.82079813
 20
182.6044834202
 30
0.0
 10
211.2523662857
 20
174.3027869354
 30
0.0
 10
211.8207981319
 20
166.0010904509
 30
0.0
 10
212.3517510859
 20
161.8880687377
 30
0.0
  0
SPLINE
  5
80F
100
AcDbEntity
  8
BEZUGSACHSEN
100
AcDbSpline
 62
7
  6
CONTINUOUS
 70
0
 71
3
 72
16
 73
12
 74
0
 42
0.0000001
 43
0.0000001
 44
0.0000000001
 40
0.0
 40
0.0
 40
0.0
 40
0.0
 40
0.3548296985
 40
0.5222347141
 40
0.6725064419
 40
0.7989201634
 40
0.8514914073
 40
0.8963100518
 40
0.9331359085
 40
0.9620620535
 40
1.0
 40
1.0
 40
1.0
 40
1.0
 10
357.1693348136
 20
72.0904778183
 30
0.0
 10
356.542521114
 20
72.6959333591
 30
0.0
 10
355.6549224146
 20
73.6244373129
 30
0.0
 10
354.5895119917
 20
74.8871323675
 30
0.0
 10
353.9276854385
 20
75.7547191465
 30
0.0
 10
353.4773127967
 20
76.4273809985
 30
0.0
 10
353.2073115597
 20
76.9068212075
 30
0.0
 10
353.0643062731
 20
77.2034156955
 30
0.0
 10
352.9701296658
 20
77.460909576
 30
0.0
 10
352.9133438668
 20
77.7033211154
 30
0.0
 10
352.933808573
 20
77.894091745
 30
0.0
 10
353.0008131759
 20
77.9588402989
 30
0.0
  0
SPLINE
  5
810
100
AcDbEntity
  8
0
100
AcDbSpline
 62
7
  6
CONTINUOUS
 70
0
 71
3
 72
14
 73
10
 74
0
 42
0.0000001
 43
0.0000001
 44
0.0000000001
 40
0.0
 40
0.0
 40
0.0
 40
0.0
 40
0.3844094697
 40
0.5439799122
 40
0.6800099071
 40
0.791907329
 40
0.8800729872
 40
0.9470448042
 40
1.0
 40
1.0
 40
1.0
 40
1.0
 10
414.1840346254
 20
17.1306090283
 30
0.0
 10
413.5956427596
 20
17.5723975495
 30
0.0
 10
412.7446598478
 20
18.1752179669
 30
0.0
 10
411.6264369075
 20
18.8426669889
 30
0.0
 10
410.9307282259
 20
19.1968561097
 30
0.0
 10
410.3314276167
 20
19.4348932132
 30
0.0
 10
409.8321352626
 20
19.5538912232
 30
0.0
 10
409.427390464
 20
19.5567482975
 30
0.0
 10
409.2084003187
 20
19.4527597449
 30
0.0
 10
409.1355260349
 20
19.3823098994
 30
0.0
  0
SPLINE
  5
811
100
AcDbEntity
  8
0
100
AcDbSpline
 62
7
  6
CONTINUOUS
 70
0
 71
3
 72
11
 73
7
 74
0
 42
0.0000001
 43
0.0000001
 44
0.0000000001
 40
0.0
 40
0.0
 40
0.0
 40
0.0
 40
0.3717744071
 40
0.5257828093
 40
0.6585971451
 40
1.0
 40
1.0
 40
1.0
 40
1.0
 10
381.8254905351
 20
47.8471091088
 30
0.0
 10
381.5049684521
 20
48.0295213013
 30
0.0
 10
381.0442155973
 20
48.2720724362
 30
0.0
 10
380.4322615781
 20
48.5168928342
 30
0.0
 10
379.8543270605
 20
48.6963211642
 30
0.0
 10
379.268582994
 20
48.7502200192
 30
0.0
 10
379.0250824621
 20
48.5148442269
 30
0.0
  0
SPLINE
  5
812
100
AcDbEntity
  8
RUNDUNGEN
100
AcDbSpline
 62
7
  6
CONTINUOUS
 70
0
 71
3
 72
12
 73
8
 74
0
 42
0.0000001
 43
0.0000001
 44
0.0000000001
 40
0.0
 40
0.0
 40
0.0
 40
0.0
 40
0.0611670511
 40
0.1416527351
 40
0.3611634952
 40
0.6520783701
 40
1.0
 40
1.0
 40
1.0
 40
1.0
 10
443.9519950586
 20
-16.1611444143
 30
0.0
 10
443.9519950586
 20
-16.0644954963
 30
0.0
 10
443.912555881
 20
-15.8414295865
 30
0.0
 10
443.7213354834
 20
-15.3029899699
 30
0.0
 10
443.2697315828
 20
-14.4803368297
 30
0.0
 10
442.5091649207
 20
-13.3573588606
 30
0.0
 10
441.8878985463
 20
-12.5605039204
 30
0.0
 10
441.5397791105
 20
-12.1350255323
 30
0.0
  0
SPLINE
  5
813
100
AcDbEntity
  8
RUNDUNGEN
100
AcDbSpline
 62
7
  6
CONTINUOUS
 70
0
 71
3
 72
11
 73
7
 74
0
 42
0.0000001
 43
0.0000001
 44
0.0000000001
 40
0.0
 40
0.0
 40
0.0
 40
0.0
 40
0.1348967641
 40
0.3688212487
 40
0.6717537487
 40
1.0
 40
1.0
 40
1.0
 40
1.0
 10
457.3870239012
 20
-34.2757400389
 30
0.0
 10
457.3870239012
 20
-34.23297666
 30
0.0
 10
457.3293166202
 20
-34.1236913692
 30
0.0
 10
457.2125880755
 20
-33.9499734706
 30
0.0
 10
457.0346112551
 20
-33.7386601888
 30
0.0
 10
456.8961817717
 20
-33.5945677134
 30
0.0
 10
456.8213384762
 20
-33.5222746413
 30
0.0
  0
SPLINE
  5
814
100
AcDbEntity
  8
RUNDUNGEN
100
AcDbSpline
 62
7
  6
CONTINUOUS
 70
0
 71
3
 72
11
 73
7
 74
0
 42
0.0000001
 43
0.0000001
 44
0.0000000001
 40
0.0
 40
0.0
 40
0.0
 40
0.0
 40
0.3831243781
 40
0.6768325431
 40
0.8769471963
 40
1.0
 40
1.0
 40
1.0
 40
1.0
 10
346.354953822
 20
69.7430977302
 30
0.0
 10
346.2708363647
 20
69.8027901763
 30
0.0
 10
346.1195108695
 20
69.9045134181
 30
0.0
 10
345.9086333769
 20
70.0133337763
 30
0.0
 10
345.7528964953
 20
70.0690612897
 30
0.0
 10
345.6558531327
 20
70.0548100863
 30
0.0
 10
345.6320319778
 20
70.0317873764
 30
0.0
  0
SPLINE
  5
815
100
AcDbEntity
  8
RUNDUNGEN
100
AcDbSpline
 62
7
  6
CONTINUOUS
 70
0
 71
3
 72
11
 73
7
 74
0
 42
0.0000001
 43
0.0000001
 44
0.0000000001
 40
0.0
 40
0.0
 40
0.0
 40
0.0
 40
0.349178017
 40
0.6246305242
 40
0.8340634689
 40
1.0
 40
1.0
 40
1.0
 40
1.0
 10
348.2529171569
 20
98.7224059359
 30
0.0
 10
347.9687331434
 20
98.848352703
 30
0.0
 10
347.4499757508
 20
99.0529717298
 30
0.0
 10
346.7242448328
 20
99.2237765015
 30
0.0
 10
346.135404652
 20
99.2257854292
 30
0.0
 10
345.8172715525
 20
99.0734837441
 30
0.0
 10
345.7110900078
 20
98.9707884896
 30
0.0
  0
SPLINE
  5
816
100
AcDbEntity
  8
RUNDUNGEN
100
AcDbSpline
 62
7
  6
CONTINUOUS
 70
0
 71
3
 72
12
 73
8
 74
0
 42
0.0000001
 43
0.0000001
 44
0.0000000001
 40
0.0
 40
0.0
 40
0.0
 40
0.0
 40
0.2854432875
 40
0.5742966057
 40
0.8242065645
 40
0.9230746476
 40
1.0
 40
1.0
 40
1.0
 40
1.0
 10
356.9425387564
 20
91.2613774669
 30
0.0
 10
356.3000333858
 20
92.0466601067
 30
0.0
 10
354.9387257602
 20
93.5712576864
 30
0.0
 10
352.8424681851
 20
95.6197455715
 30
0.0
 10
351.1061868912
 20
97.0840919034
 30
0.0
 10
349.8604035039
 20
97.9441534755
 30
0.0
 10
349.3140641208
 20
98.252118998
 30
0.0
 10
349.0640767323
 20
98.3629102526
 30
0.0
  0
SPLINE
  5
817
100
AcDbEntity
  8
RUNDUNGEN
100
AcDbSpline
 62
7
  6
CONTINUOUS
 70
0
 71
3
 72
11
 73
7
 74
0
 42
0.0000001
 43
0.0000001
 44
0.0000000001
 40
0.0
 40
0.0
 40
0.0
 40
0.0
 40
0.2855242181
 40
0.5744465589
 40
0.8243990322
 40
1.0
 40
1.0
 40
1.0
 40
1.0
 10
372.9292305998
 20
71.7221297853
 30
0.0
 10
372.7284356818
 20
71.9675452642
 30
0.0
 10
372.3029775605
 20
72.4436378176
 30
0.0
 10
371.6480281681
 20
73.0853598544
 30
0.0
 10
371.0397703212
 20
73.5934494901
 30
0.0
 10
370.6455017771
 20
73.8623426555
 30
0.0
 10
370.4672112172
 20
73.9413587808
 30
0.0
  0
SPLINE
  5
818
100
AcDbEntity
  8
RUNDUNGEN
100
AcDbSpline
 62
7
  6
CONTINUOUS
 70
0
 71
3
 72
9
 73
5
 74
0
 42
0.0000001
 43
0.0000001
 44
0.0000000001
 40
0.0
 40
0.0
 40
0.0
 40
0.0
 40
0.5394967105
 40
1.0
 40
1.0
 40
1.0
 40
1.0
 10
442.2000604464
 20
5.6156561302
 30
0.0
 10
441.6487588227
 20
6.1481726066
 30
0.0
 10
440.5999521512
 20
7.1076162126
 30
0.0
 10
439.4889875031
 20
7.9966458063
 30
0.0
 10
438.955422145
 20
8.3752809008
 30
0.0
  0
SPLINE
  5
819
100
AcDbEntity
  8
RUNDUNGEN
100
AcDbSpline
 62
7
  6
CONTINUOUS
 70
0
 71
3
 72
14
 73
10
 74
0
 42
0.0000001
 43
0.0000001
 44
0.0000000001
 40
0.0
 40
0.0
 40
0.0
 40
0.0
 40
0.0546650285
 40
0.1355376427
 40
0.2415140182
 40
0.3693734414
 40
0.5146684856
 40
0.672125956
 40
1.0
 40
1.0
 40
1.0
 40
1.0
 10
457.3870239012
 20
-11.1243764545
 30
0.0
 10
457.3870239012
 20
-10.9509082708
 30
0.0
 10
457.2655214312
 20
-10.5275040385
 30
0.0
 10
456.9319942202
 20
-9.8395947028
 30
0.0
 10
456.4053179167
 20
-8.9880015933
 30
0.0
 10
455.7056391251
 20
-8.0092082759
 30
0.0
 10
454.8559402436
 20
-6.938201386
 30
0.0
 10
453.548231177
 20
-5.4230705405
 30
0.0
 10
452.4785113339
 20
-4.3125650363
 30
0.0
 10
451.7301696517
 20
-3.5897224785
 30
0.0
  0
SPLINE
  5
81A
100
AcDbEntity
  8
RUNDUNGEN
100
AcDbSpline
 62
7
  6
CONTINUOUS
 70
0
 71
3
 72
8
 73
4
 74
0
 42
0.0000001
 43
0.0000001
 44
0.0000000001
 40
0.0
 40
0.0
 40
0.0
 40
0.0
 40
1.0
 40
1.0
 40
1.0
 40
1.0
 10
457.3769263466
 20
-12.072315304
 30
0.0
 10
457.3843766339
 20
-12.0652361587
 30
0.0
 10
457.3870239012
 20
-12.0534612763
 30
0.0
 10
457.3870239012
 20
-12.0431840646
 30
0.0
  0
SPLINE
  5
81B
100
AcDbEntity
  8
RUNDUNGEN
100
AcDbSpline
 62
7
  6
CONTINUOUS
 70
0
 71
3
 72
11
 73
7
 74
0
 42
0.0000001
 43
0.0000001
 44
0.0000000001
 40
0.0
 40
0.0
 40
0.0
 40
0.0
 40
0.1008954196
 40
0.3111966543
 40
0.6217757928
 40
1.0
 40
1.0
 40
1.0
 40
1.0
 10
453.8413924407
 20
-15.4873788134
 30
0.0
 10
453.8247629611
 20
-15.5031798823
 30
0.0
 10
453.7393724728
 20
-15.4811819733
 30
0.0
 10
453.6292385228
 20
-15.4104701771
 30
0.0
 10
453.4619576416
 20
-15.2838185887
 30
0.0
 10
453.3476548196
 20
-15.1786354018
 30
0.0
 10
453.2858045703
 20
-15.1188926486
 30
0.0
  0
SPLINE
  5
81C
100
AcDbEntity
  8
0
100
AcDbSpline
 62
7
  6
CONTINUOUS
 70
0
 71
3
 72
9
 73
5
 74
0
 42
0.0000001
 43
0.0000001
 44
0.0000000001
 40
0.0
 40
0.0
 40
0.0
 40
0.0
 40
0.2214594183
 40
1.0
 40
1.0
 40
1.0
 40
1.0
 10
378.6236295461
 20
48.813938372
 30
0.0
 10
378.5982133841
 20
48.7809617214
 30
0.0
 10
378.4999056834
 20
48.6189347734
 30
0.0
 10
378.4739071208
 20
48.4229696171
 30
0.0
 10
378.4739071208
 20
48.276603145
 30
0.0
  0
SPLINE
  5
81D
100
AcDbEntity
  8
0
100
AcDbSpline
 62
7
  6
CONTINUOUS
 70
0
 71
3
 72
9
 73
5
 74
0
 42
0.0000001
 43
0.0000001
 44
0.0000000001
 40
0.0
 40
0.0
 40
0.0
 40
0.0
 40
0.4519421733
 40
1.0
 40
1.0
 40
1.0
 40
1.0
 10
408.8575943035
 20
19.6699790125
 30
0.0
 10
408.7924007863
 20
19.6069724011
 30
0.0
 10
408.6877897602
 20
19.4253218216
 30
0.0
 10
408.6673666774
 20
19.2219069573
 30
0.0
 10
408.6673666774
 20
19.1119607742
 30
0.0
  0
SPLINE
  5
81E
100
AcDbEntity
  8
RUNDUNGEN
100
AcDbSpline
 62
7
  6
CONTINUOUS
 70
0
 71
3
 72
9
 73
5
 74
0
 42
0.0000001
 43
0.0000001
 44
0.0000000001
 40
0.0
 40
0.0
 40
0.0
 40
0.0
 40
0.2218388199
 40
1.0
 40
1.0
 40
1.0
 40
1.0
 10
457.2881218129
 20
-35.4844943359
 30
0.0
 10
457.3046861632
 20
-35.46847891
 30
0.0
 10
457.3700567945
 20
-35.3860702072
 30
0.0
 10
457.3870239012
 20
-35.2753691196
 30
0.0
 10
457.3870239012
 20
-35.194547649
 30
0.0
  0
SPLINE
  5
81F
100
AcDbEntity
  8
RUNDUNGEN
100
AcDbSpline
 62
7
  6
CONTINUOUS
 70
0
 71
3
 72
16
 73
12
 74
0
 42
0.0000001
 43
0.0000001
 44
0.0000000001
 40
0.0
 40
0.0
 40
0.0
 40
0.0
 40
0.0406935363
 40
0.0688789223
 40
0.1037508194
 40
0.194666286
 40
0.3133767797
 40
0.4573894856
 40
0.6229640379
 40
0.8055826945
 40
1.0
 40
1.0
 40
1.0
 40
1.0
 10
453.752587907
 20
-38.8995578454
 30
0.0
 10
453.6857758503
 20
-38.9641558238
 30
0.0
 10
453.5134162606
 20
-39.0028962291
 30
0.0
 10
453.2810737471
 20
-38.9698462965
 30
0.0
 10
452.9412991478
 20
-38.8711133538
 30
0.0
 10
452.436992798
 20
-38.626767493
 30
0.0
 10
451.7489694516
 20
-38.2025625725
 30
0.0
 10
450.9548393025
 20
-37.6303452561
 30
0.0
 10
450.0773212192
 20
-36.9272930738
 30
0.0
 10
449.1428816846
 20
-36.112946717
 30
0.0
 10
448.5139860262
 20
-35.5245305877
 30
0.0
 10
448.1946357458
 20
-35.2160619042
 30
0.0
  0
SPLINE
  5
820
100
AcDbEntity
  8
RUNDUNGEN
100
AcDbSpline
 62
7
  6
CONTINUOUS
 70
0
 71
3
 72
12
 73
8
 74
0
 42
0.0000001
 43
0.0000001
 44
0.0000000001
 40
0.0
 40
0.0
 40
0.0
 40
0.0
 40
0.1229683891
 40
0.2119573972
 40
0.3236051429
 40
0.6170595586
 40
1.0
 40
1.0
 40
1.0
 40
1.0
 10
361.4987119944
 20
59.7144561381
 30
0.0
 10
361.4224763828
 20
59.6407965202
 30
0.0
 10
361.2162466682
 20
59.6084221536
 30
0.0
 10
360.9467929364
 20
59.6629435
 30
0.0
 10
360.5412248452
 20
59.8028091214
 30
0.0
 10
359.9410144663
 20
60.1246330507
 30
0.0
 10
359.4545427254
 20
60.4472092176
 30
0.0
 10
359.1853199802
 20
60.6382583141
 30
0.0
  0
SPLINE
  5
821
100
AcDbEntity
  8
RUNDUNGEN
100
AcDbSpline
 62
7
  6
CONTINUOUS
 70
0
 71
3
 72
12
 73
8
 74
0
 42
0.0000001
 43
0.0000001
 44
0.0000000001
 40
0.0
 40
0.0
 40
0.0
 40
0.0
 40
0.1048400116
 40
0.1937664923
 40
0.3092680799
 40
0.6142498065
 40
1.0
 40
1.0
 40
1.0
 40
1.0
 10
361.7201061405
 20
84.9570548152
 30
0.0
 10
361.7596079762
 20
84.9952767811
 30
0.0
 10
361.7498498438
 20
85.1200019348
 30
0.0
 10
361.6968146457
 20
85.2657813191
 30
0.0
 10
361.5781900262
 20
85.509237466
 30
0.0
 10
361.3465921317
 20
85.8615874918
 30
0.0
 10
361.1252036237
 20
86.149242598
 30
0.0
 10
360.9971345138
 20
86.3057711708
 30
0.0
  0
SPLINE
  5
822
100
AcDbEntity
  8
RUNDUNGEN
100
AcDbSpline
 62
7
  6
CONTINUOUS
 70
0
 71
3
 72
9
 73
5
 74
0
 42
0.0000001
 43
0.0000001
 44
0.0000000001
 40
0.0
 40
0.0
 40
0.0
 40
0.0
 40
0.2218259981
 40
1.0
 40
1.0
 40
1.0
 40
1.0
 10
443.8531026414
 20
-4.493238812
 30
0.0
 10
443.8696661047
 20
-4.4772251793
 30
0.0
 10
443.9350346932
 20
-4.3948173689
 30
0.0
 10
443.9519950586
 20
-4.2841178817
 30
0.0
 10
443.9519950586
 20
-4.2032970173
 30
0.0
  0
SPLINE
  5
823
100
AcDbEntity
  8
RUNDUNGEN
100
AcDbSpline
 62
7
  6
CONTINUOUS
 70
0
 71
3
 72
12
 73
8
 74
0
 42
0.0000001
 43
0.0000001
 44
0.0000000001
 40
0.0
 40
0.0
 40
0.0
 40
0.0
 40
0.1229754302
 40
0.2119683437
 40
0.3236211606
 40
0.6170720513
 40
1.0
 40
1.0
 40
1.0
 40
1.0
 10
440.3175687355
 20
-7.9083023215
 30
0.0
 10
440.2413540036
 20
-7.981987076
 30
0.0
 10
440.0350620435
 20
-8.0142517387
 30
0.0
 10
439.7656294614
 20
-7.959721686
 30
0.0
 10
439.3600657359
 20
-7.8198453656
 30
0.0
 10
438.7598945966
 20
-7.4980322916
 30
0.0
 10
438.2734499887
 20
-7.1754723938
 30
0.0
 10
438.0042452046
 20
-6.9844360431
 30
0.0
  0
SPLINE
  5
824
100
AcDbEntity
  8
BEZUGSACHSEN
100
AcDbSpline
 62
7
  6
CONTINUOUS
 70
0
 71
3
 72
15
 73
11
 74
0
 42
0.0000001
 43
0.0000001
 44
0.0000000001
 40
0.0
 40
0.0
 40
0.0
 40
0.0
 40
0.0406872048
 40
0.0688708701
 40
0.1037373065
 40
0.1946522288
 40
0.3133671932
 40
0.4573948603
 40
0.6229776034
 40
1.0
 40
1.0
 40
1.0
 40
1.0
 10
361.3378564512
 20
69.327943879
 30
0.0
 10
361.2877441488
 20
69.2795188608
 30
0.0
 10
361.1585540971
 20
69.2503502431
 30
0.0
 10
360.9843054928
 20
69.2751139787
 30
0.0
 10
360.7294904152
 20
69.3491005265
 30
0.0
 10
360.3512705611
 20
69.5323554295
 30
0.0
 10
359.835245933
 20
69.8504933445
 30
0.0
 10
359.2396091512
 20
70.2796496273
 30
0.0
 10
358.3216989245
 20
71.0152891732
 30
0.0
 10
357.6337873642
 20
71.6418511047
 30
0.0
 10
357.1693348136
 20
72.0904778183
 30
0.0
  0
SPLINE
  5
825
100
AcDbEntity
  8
0
100
AcDbSpline
 62
7
  6
CONTINUOUS
 70
0
 71
3
 72
11
 73
7
 74
0
 42
0.0000001
 43
0.0000001
 44
0.0000000001
 40
0.0
 40
0.0
 40
0.0
 40
0.0
 40
0.1989954112
 40
0.4217676251
 40
0.6854209903
 40
1.0
 40
1.0
 40
1.0
 40
1.0
 10
348.9808571879
 20
82.7093855297
 30
0.0
 10
349.053034175
 20
82.7790916318
 30
0.0
 10
349.236174257
 20
82.8975750018
 30
0.0
 10
349.576386769
 20
82.9801054626
 30
0.0
 10
349.9828044399
 20
82.9804781581
 30
0.0
 10
350.2714753133
 20
82.9324851199
 30
0.0
 10
350.4263320234
 20
82.8981210732
 30
0.0
  0
SPLINE
  5
826
100
AcDbEntity
  8
RUNDUNGEN
100
AcDbSpline
 62
7
  6
CONTINUOUS
 70
0
 71
3
 72
9
 73
5
 74
0
 42
0.0000001
 43
0.0000001
 44
0.0000000001
 40
0.0
 40
0.0
 40
0.0
 40
0.0
 40
0.2643250672
 40
1.0
 40
1.0
 40
1.0
 40
1.0
 10
348.5376431597
 20
83.6870322977
 30
0.0
 10
348.2576569086
 20
84.029236974
 30
0.0
 10
347.2079020583
 20
85.3315476651
 30
0.0
 10
346.1959819736
 20
86.6648429869
 30
0.0
 10
345.4832511671
 20
87.6680335221
 30
0.0
  0
SPLINE
  5
827
100
AcDbEntity
  8
RUNDUNGEN
100
AcDbSpline
 62
7
  6
CONTINUOUS
 70
0
 71
3
 72
10
 73
6
 74
0
 42
0.0000001
 43
0.0000001
 44
0.0000000001
 40
0.0
 40
0.0
 40
0.0
 40
0.0
 40
0.3235852204
 40
0.7045381568
 40
1.0
 40
1.0
 40
1.0
 40
1.0
 10
342.0029341596
 20
94.022428849
 30
0.0
 10
341.9629317415
 20
94.1903446677
 30
0.0
 10
341.8959605737
 20
94.5603978258
 30
0.0
 10
341.8935494949
 20
95.1025870152
 30
0.0
 10
342.0622599845
 20
95.446150156
 30
0.0
 10
342.1755532144
 20
95.5557238483
 30
0.0
  0
SPLINE
  5
828
100
AcDbEntity
  8
0
100
AcDbSpline
 62
7
  6
CONTINUOUS
 70
0
 71
3
 72
9
 73
5
 74
0
 42
0.0000001
 43
0.0000001
 44
0.0000000001
 40
0.0
 40
0.0
 40
0.0
 40
0.0
 40
0.2607944861
 40
1.0
 40
1.0
 40
1.0
 40
1.0
 10
348.2176111137
 20
71.8971060483
 30
0.0
 10
348.124872813
 20
72.0351622437
 30
0.0
 10
347.7719189658
 20
72.5662952914
 30
0.0
 10
347.4297705226
 20
73.1046616719
 30
0.0
 10
347.1847943379
 20
73.507411283
 30
0.0
  0
SPLINE
  5
829
100
AcDbEntity
  8
0
100
AcDbSpline
 62
7
  6
CONTINUOUS
 70
0
 71
3
 72
14
 73
10
 74
0
 42
0.0000001
 43
0.0000001
 44
0.0000000001
 40
0.0
 40
0.0
 40
0.0
 40
0.0
 40
0.3772781689
 40
0.5330957256
 40
0.6663802597
 40
0.7773374403
 40
0.867171883
 40
0.9391163595
 40
1.0
 40
1.0
 40
1.0
 40
1.0
 10
347.1847943379
 20
73.507411283
 30
0.0
 10
346.7725103793
 20
74.1852208593
 30
0.0
 10
346.2183588676
 20
75.1623252599
 30
0.0
 10
345.6383195961
 20
76.4389388017
 30
0.0
 10
345.3496290003
 20
77.2302403672
 30
0.0
 10
345.1791797767
 20
77.9137208735
 30
0.0
 10
345.1287750775
 20
78.4882516657
 30
0.0
 10
345.2012411665
 20
78.9581841714
 30
0.0
 10
345.3532314925
 20
79.2053828731
 30
0.0
 10
345.445323282
 20
79.2943220202
 30
0.0
  0
SPLINE
  5
82A
100
AcDbEntity
  8
RUNDUNGEN
100
AcDbSpline
 62
7
  6
CONTINUOUS
 70
0
 71
3
 72
10
 73
6
 74
0
 42
0.0000001
 43
0.0000001
 44
0.0000000001
 40
0.0
 40
0.0
 40
0.0
 40
0.0
 40
0.6785006867
 40
0.8787501619
 40
1.0
 40
1.0
 40
1.0
 40
1.0
 10
342.3852994719
 20
65.8462007308
 30
0.0
 10
342.2778059977
 20
66.0062224259
 30
0.0
 10
342.1455198389
 20
66.2230996629
 30
0.0
 10
342.055169744
 20
66.490808951
 30
0.0
 10
342.0717854783
 20
66.5929180898
 30
0.0
 10
342.0965965403
 20
66.6168170195
 30
0.0
  0
SPLINE
  5
82B
100
AcDbEntity
  8
RUNDUNGEN
100
AcDbSpline
 62
7
  6
CONTINUOUS
 70
0
 71
3
 72
11
 73
7
 74
0
 42
0.0000001
 43
0.0000001
 44
0.0000000001
 40
0.0
 40
0.0
 40
0.0
 40
0.0
 40
0.22839352
 40
0.4975019804
 40
0.7679047874
 40
1.0
 40
1.0
 40
1.0
 40
1.0
 10
350.2212510411
 20
55.3091926396
 30
0.0
 10
350.0009289111
 20
55.4655402908
 30
0.0
 10
349.5462715291
 20
55.8412559961
 30
0.0
 10
348.8913475904
 20
56.4714409065
 30
0.0
 10
348.2782384214
 20
57.1483393473
 30
0.0
 10
347.9123182842
 20
57.6183252661
 30
0.0
 10
347.7592316586
 20
57.8462198569
 30
0.0
  0
SPLINE
  5
82C
100
AcDbEntity
  8
RUNDUNGEN
100
AcDbSpline
 62
7
  6
CONTINUOUS
 70
0
 71
3
 72
9
 73
5
 74
0
 42
0.0000001
 43
0.0000001
 44
0.0000000001
 40
0.0
 40
0.0
 40
0.0
 40
0.0
 40
0.2538116446
 40
1.0
 40
1.0
 40
1.0
 40
1.0
 10
438.6645265405
 20
-26.0106832955
 30
0.0
 10
438.3736370089
 20
-25.7297055842
 30
0.0
 10
437.2440438873
 20
-24.6058485921
 30
0.0
 10
436.1728098437
 20
-23.4223837237
 30
0.0
 10
435.4198882391
 20
-22.5021482015
 30
0.0
  0
SPLINE
  5
82D
100
AcDbEntity
  8
RUNDUNGEN
100
AcDbSpline
 62
7
  6
CONTINUOUS
 70
0
 71
3
 72
9
 73
5
 74
0
 42
0.0000001
 43
0.0000001
 44
0.0000000001
 40
0.0
 40
0.0
 40
0.0
 40
0.0
 40
0.2929719602
 40
1.0
 40
1.0
 40
1.0
 40
1.0
 10
443.9519950586
 20
-1.3435503256
 30
0.0
 10
443.9519950586
 20
-1.3132106984
 30
0.0
 10
443.9573981527
 20
-1.2104952761
 30
0.0
 10
443.9982588062
 20
-1.1044975391
 30
0.0
 10
444.0508969434
 20
-1.0536037764
 30
0.0
  0
SPLINE
  5
82E
100
AcDbEntity
  8
RUNDUNGEN
100
AcDbSpline
 62
7
  6
CONTINUOUS
 70
0
 71
3
 72
9
 73
5
 74
0
 42
0.0000001
 43
0.0000001
 44
0.0000000001
 40
0.0
 40
0.0
 40
0.0
 40
0.0
 40
0.5382929149
 40
1.0
 40
1.0
 40
1.0
 40
1.0
 10
446.0733154022
 20
-8.1521630893
 30
0.0
 10
445.5313717408
 20
-7.6286857104
 30
0.0
 10
444.498496801
 20
-6.6829566047
 30
0.0
 10
443.4055899194
 20
-5.8052217775
 30
0.0
 10
442.8800173022
 20
-5.4291251493
 30
0.0
  0
SPLINE
  5
82F
100
AcDbEntity
  8
RUNDUNGEN
100
AcDbSpline
 62
7
  6
CONTINUOUS
 70
0
 71
3
 72
14
 73
10
 74
0
 42
0.0000001
 43
0.0000001
 44
0.0000000001
 40
0.0
 40
0.0
 40
0.0
 40
0.0
 40
0.327873784
 40
0.4853312748
 40
0.6306263543
 40
0.7584857965
 40
0.8644622094
 40
0.9453349233
 40
1.0
 40
1.0
 40
1.0
 40
1.0
 10
449.6088493081
 20
-26.555545082
 30
0.0
 10
448.8605082198
 20
-25.8327030979
 30
0.0
 10
447.7907888865
 20
-24.722198165
 30
0.0
 10
446.4830801417
 20
-23.2070679001
 30
0.0
 10
445.6333810384
 20
-22.1360608828
 30
0.0
 10
444.9337020071
 20
-21.1572673842
 30
0.0
 10
444.4070253025
 20
-20.3056739354
 30
0.0
 10
444.0734977664
 20
-19.6177641173
 30
0.0
 10
443.9519950586
 20
-19.1943594427
 30
0.0
 10
443.9519950586
 20
-19.0208911061
 30
0.0
  0
SPLINE
  5
830
100
AcDbEntity
  8
RUNDUNGEN
100
AcDbSpline
 62
7
  6
CONTINUOUS
 70
0
 71
3
 72
14
 73
10
 74
0
 42
0.0000001
 43
0.0000001
 44
0.0000000001
 40
0.0
 40
0.0
 40
0.0
 40
0.0
 40
0.201257276
 40
0.3857885857
 40
0.549942995
 40
0.6908692158
 40
0.8063236773
 40
0.8952180865
 40
1.0
 40
1.0
 40
1.0
 40
1.0
 10
433.1013953167
 20
-1.8214676934
 30
0.0
 10
432.8340578595
 20
-1.4947226205
 30
0.0
 10
432.3309410132
 20
-0.8605259442
 30
0.0
 10
431.6465247748
 20
0.0680165121
 30
0.0
 10
431.0735258108
 20
0.9222587284
 30
0.0
 10
430.6236231399
 20
1.6776705251
 30
0.0
 10
430.3025093908
 20
2.3393066179
 30
0.0
 10
430.090364596
 20
2.9220328562
 30
0.0
 10
430.0516970112
 20
3.4210428911
 30
0.0
 10
430.2098340314
 20
3.5737013504
 30
0.0
  0
SPLINE
  5
831
100
AcDbEntity
  8
RUNDUNGEN
100
AcDbSpline
 62
7
  6
CONTINUOUS
 70
0
 71
3
 72
11
 73
7
 74
0
 42
0.0000001
 43
0.0000001
 44
0.0000000001
 40
0.0
 40
0.0
 40
0.0
 40
0.0
 40
0.2170485147
 40
0.471328498
 40
0.7403269907
 40
1.0
 40
1.0
 40
1.0
 40
1.0
 10
415.2438085379
 20
25.2018025704
 30
0.0
 10
413.57641539
 20
26.3850382371
 30
0.0
 10
410.1045909875
 20
29.1633028544
 30
0.0
 10
404.9568261756
 20
33.872496374
 30
0.0
 10
399.7987339496
 20
39.1490954274
 30
0.0
 10
396.5137724743
 20
42.8966410814
 30
0.0
 10
394.9648191543
 20
44.789802147
 30
0.0
  0
SPLINE
  5
832
100
AcDbEntity
  8
RUNDUNGEN
100
AcDbSpline
 62
7
  6
CONTINUOUS
 70
0
 71
3
 72
11
 73
7
 74
0
 42
0.0000001
 43
0.0000001
 44
0.0000000001
 40
0.0
 40
0.0
 40
0.0
 40
0.0
 40
0.2596730093
 40
0.528671502
 40
0.7829514853
 40
1.0
 40
1.0
 40
1.0
 40
1.0
 10
411.708274632
 20
6.4786500611
 30
0.0
 10
410.159321312
 20
8.3718111268
 30
0.0
 10
406.8743598367
 20
12.1193567808
 30
0.0
 10
401.7162676107
 20
17.3959558342
 30
0.0
 10
396.5685027988
 20
22.1051493538
 30
0.0
 10
393.0966783963
 20
24.8834139711
 30
0.0
 10
391.4292852484
 20
26.0666496378
 30
0.0
  0
SPLINE
  5
833
100
AcDbEntity
  8
RUNDUNGEN
100
AcDbSpline
 62
7
  6
CONTINUOUS
 70
0
 71
3
 72
13
 73
9
 74
0
 42
0.0000001
 43
0.0000001
 44
0.0000000001
 40
0.0
 40
0.0
 40
0.0
 40
0.0
 40
0.3856974312
 40
0.5498575693
 40
0.6907703348
 40
0.8062569901
 40
0.8951722101
 40
1.0
 40
1.0
 40
1.0
 40
1.0
 10
359.4895790487
 20
84.0408586943
 30
0.0
 10
359.2846704711
 20
84.2913019686
 30
0.0
 10
359.0019733783
 20
84.6562627513
 30
0.0
 10
358.6785398604
 20
85.1381190376
 30
0.0
 10
358.4986249433
 20
85.4402984894
 30
0.0
 10
358.3701218585
 20
85.7049139605
 30
0.0
 10
358.2852300445
 20
85.9380553989
 30
0.0
 10
358.2696180769
 20
86.137637633
 30
0.0
 10
358.3328173565
 20
86.1987978805
 30
0.0
  0
SPLINE
  5
834
100
AcDbEntity
  8
RUNDUNGEN
100
AcDbSpline
 62
7
  6
CONTINUOUS
 70
0
 71
3
 72
12
 73
8
 74
0
 42
0.0000001
 43
0.0000001
 44
0.0000000001
 40
0.0
 40
0.0
 40
0.0
 40
0.0
 40
0.0769163679
 40
0.1757857774
 40
0.42568196
 40
0.7145393197
 40
1.0
 40
1.0
 40
1.0
 40
1.0
 10
367.8309425974
 20
75.1097197514
 30
0.0
 10
367.7059635181
 20
75.1651089016
 30
0.0
 10
367.4328091139
 20
75.3190905143
 30
0.0
 10
366.8099362113
 20
75.7490805629
 30
0.0
 10
365.9418135838
 20
76.4812536563
 30
0.0
 10
364.8936634077
 20
77.5054935024
 30
0.0
 10
364.2129838032
 20
78.2678209513
 30
0.0
 10
363.8917115853
 20
78.6604861443
 30
0.0
  0
SPLINE
  5
835
100
AcDbEntity
  8
RUNDUNGEN
100
AcDbSpline
 62
7
  6
CONTINUOUS
 70
0
 71
3
 72
11
 73
7
 74
0
 42
0.0000001
 43
0.0000001
 44
0.0000000001
 40
0.0
 40
0.0
 40
0.0
 40
0.0
 40
0.3782242072
 40
0.6888033457
 40
0.8991045804
 40
1.0
 40
1.0
 40
1.0
 40
1.0
 10
456.8213384762
 20
-11.7038291392
 30
0.0
 10
456.8831887256
 20
-11.7635718924
 30
0.0
 10
456.9974915475
 20
-11.8687550793
 30
0.0
 10
457.1647724287
 20
-11.9954066677
 30
0.0
 10
457.2749063788
 20
-12.0661184638
 30
0.0
 10
457.360296867
 20
-12.0881163728
 30
0.0
 10
457.3769263466
 20
-12.072315304
 30
0.0
  0
SPLINE
  5
836
100
AcDbEntity
  8
RUNDUNGEN
100
AcDbSpline
 62
7
  6
CONTINUOUS
 70
0
 71
3
 72
12
 73
8
 74
0
 42
0.0000001
 43
0.0000001
 44
0.0000000001
 40
0.0
 40
0.0
 40
0.0
 40
0.0
 40
0.3829279487
 40
0.6763788394
 40
0.7880316563
 40
0.8770245698
 40
1.0
 40
1.0
 40
1.0
 40
1.0
 10
441.5397791105
 20
-3.5693725336
 30
0.0
 10
441.8089838946
 20
-3.7604088843
 30
0.0
 10
442.2954285025
 20
-4.0829687821
 30
0.0
 10
442.8955996418
 20
-4.4047818562
 30
0.0
 10
443.3011633673
 20
-4.5446581765
 30
0.0
 10
443.5705959494
 20
-4.5991882292
 30
0.0
 10
443.7768879096
 20
-4.5669235666
 30
0.0
 10
443.8531026414
 20
-4.493238812
 30
0.0
  0
SPLINE
  5
837
100
AcDbEntity
  8
0
100
AcDbSpline
 62
7
  6
CONTINUOUS
 70
0
 71
3
 72
13
 73
9
 74
0
 42
0.0000001
 43
0.0000001
 44
0.0000000001
 40
0.0
 40
0.0
 40
0.0
 40
0.0
 40
0.3723465922
 40
0.6582239939
 40
0.7690952212
 40
0.8602403496
 40
0.9350267323
 40
1.0
 40
1.0
 40
1.0
 40
1.0
 10
382.0282601108
 20
47.9124298958
 30
0.0
 10
381.6423275257
 20
48.1485324587
 30
0.0
 10
380.9457624368
 20
48.5425376973
 30
0.0
 10
380.0813087617
 20
48.9108815043
 30
0.0
 10
379.5024345732
 20
49.0464224727
 30
0.0
 10
379.16481076
 20
49.0692877036
 30
0.0
 10
378.8844808398
 20
49.0201031132
 30
0.0
 10
378.7344674476
 20
48.9293364078
 30
0.0
 10
378.6777047575
 20
48.8744676851
 30
0.0
  0
SPLINE
  5
838
100
AcDbEntity
  8
RUNDUNGEN
100
AcDbSpline
 62
7
  6
CONTINUOUS
 70
0
 71
3
 72
16
 73
12
 74
0
 42
0.0000001
 43
0.0000001
 44
0.0000000001
 40
0.0
 40
0.0
 40
0.0
 40
0.0
 40
0.1944173055
 40
0.3770359621
 40
0.5426105144
 40
0.6866232203
 40
0.805333714
 40
0.8962491806
 40
0.9311210777
 40
0.9593064637
 40
1.0
 40
1.0
 40
1.0
 40
1.0
 10
451.7301696517
 20
-31.8009983947
 30
0.0
 10
452.0495199321
 20
-32.1094670782
 30
0.0
 10
452.6784155905
 20
-32.6978832075
 30
0.0
 10
453.6128551251
 20
-33.5122295643
 30
0.0
 10
454.4903732084
 20
-34.2152817467
 30
0.0
 10
455.2845033576
 20
-34.787499063
 30
0.0
 10
455.972526704
 20
-35.2117039835
 30
0.0
 10
456.4768330537
 20
-35.4560498443
 30
0.0
 10
456.816607653
 20
-35.5547827871
 30
0.0
 10
457.0489501665
 20
-35.5878327197
 30
0.0
 10
457.2213097563
 20
-35.5490923143
 30
0.0
 10
457.2881218129
 20
-35.4844943359
 30
0.0
  0
SPLINE
  5
839
100
AcDbEntity
  8
RUNDUNGEN
100
AcDbSpline
 62
7
  6
CONTINUOUS
 70
0
 71
3
 72
9
 73
5
 74
0
 42
0.0000001
 43
0.0000001
 44
0.0000000001
 40
0.0
 40
0.0
 40
0.0
 40
0.0
 40
0.2406099096
 40
1.0
 40
1.0
 40
1.0
 40
1.0
 10
438.955422145
 20
-19.0870846921
 30
0.0
 10
439.1982058794
 20
-19.3838197243
 30
0.0
 10
440.2284599051
 20
-20.5995954145
 30
0.0
 10
441.3297258237
 20
-21.7549410964
 30
0.0
 10
442.2000604464
 20
-22.595619786
 30
0.0
  0
SPLINE
  5
83A
100
AcDbEntity
  8
RUNDUNGEN
100
AcDbSpline
 62
7
  6
CONTINUOUS
 70
0
 71
3
 72
11
 73
7
 74
0
 42
0.0000001
 43
0.0000001
 44
0.0000000001
 40
0.0
 40
0.0
 40
0.0
 40
0.0
 40
0.2321082257
 40
0.5025207276
 40
0.7716173744
 40
1.0
 40
1.0
 40
1.0
 40
1.0
 10
351.2947655645
 20
61.2612833663
 30
0.0
 10
351.4478607733
 20
61.0333759981
 30
0.0
 10
351.8137994994
 20
60.5633703147
 30
0.0
 10
352.4269197383
 20
59.8864645239
 30
0.0
 10
353.0818356217
 20
59.2562934365
 30
0.0
 10
353.5364733264
 20
58.8805963425
 30
0.0
 10
353.756784947
 20
58.7242561491
 30
0.0
  0
SPLINE
  5
83B
100
AcDbEntity
  8
0
100
AcDbSpline
 62
7
  6
CONTINUOUS
 70
0
 71
3
 72
15
 73
11
 74
0
 42
0.0000001
 43
0.0000001
 44
0.0000000001
 40
0.0
 40
0.0
 40
0.0
 40
0.0
 40
0.2018499553
 40
0.3828567064
 40
0.5413894942
 40
0.6765595027
 40
0.7880615151
 40
0.8765600154
 40
0.9448337862
 40
1.0
 40
1.0
 40
1.0
 40
1.0
 10
351.7531450197
 20
75.3121695578
 30
0.0
 10
351.4447632177
 20
75.7712465301
 30
0.0
 10
350.8739366764
 20
76.651639712
 30
0.0
 10
350.1187863669
 20
77.928928747
 30
0.0
 10
349.5160405558
 20
79.0823723464
 30
0.0
 10
349.0710366271
 20
80.1006730056
 30
0.0
 10
348.7855818291
 20
80.9759036918
 30
0.0
 10
348.6626487523
 20
81.7040330024
 30
0.0
 10
348.7011765463
 20
82.2929401313
 30
0.0
 10
348.8721353615
 20
82.6043856532
 30
0.0
 10
348.9808571879
 20
82.7093855297
 30
0.0
  0
SPLINE
  5
83C
100
AcDbEntity
  8
RUNDUNGEN
100
AcDbSpline
 62
7
  6
CONTINUOUS
 70
0
 71
3
 72
9
 73
5
 74
0
 42
0.0000001
 43
0.0000001
 44
0.0000000001
 40
0.0
 40
0.0
 40
0.0
 40
0.0
 40
0.629449925
 40
1.0
 40
1.0
 40
1.0
 40
1.0
 10
361.4312549579
 20
84.9852813834
 30
0.0
 10
361.4888507764
 20
84.9597556438
 30
0.0
 10
361.5792711983
 20
84.9209414647
 30
0.0
 10
361.6934537005
 20
84.9312659211
 30
0.0
 10
361.7201061405
 20
84.9570548152
 30
0.0
  0
SPLINE
  5
83D
100
AcDbEntity
  8
0
100
AcDbSpline
 62
7
  6
CONTINUOUS
 70
0
 71
3
 72
9
 73
5
 74
0
 42
0.0000001
 43
0.0000001
 44
0.0000000001
 40
0.0
 40
0.0
 40
0.0
 40
0.0
 40
0.4519741578
 40
1.0
 40
1.0
 40
1.0
 40
1.0
 10
379.0250824621
 20
48.5148442269
 30
0.0
 10
378.9573528049
 20
48.4493744655
 30
0.0
 10
378.848699086
 20
48.2606409077
 30
0.0
 10
378.8274605114
 20
48.0493155072
 30
0.0
 10
378.8274605114
 20
47.9350967941
 30
0.0
  0
SPLINE
  5
83E
100
AcDbEntity
  8
0
100
AcDbSpline
 62
7
  6
CONTINUOUS
 70
0
 71
3
 72
9
 73
5
 74
0
 42
0.0000001
 43
0.0000001
 44
0.0000000001
 40
0.0
 40
0.0
 40
0.0
 40
0.0
 40
0.4520480689
 40
1.0
 40
1.0
 40
1.0
 40
1.0
 10
409.1355260349
 20
19.3823098994
 30
0.0
 10
409.0720169836
 20
19.3209137166
 30
0.0
 10
408.9701628574
 20
19.1439565959
 30
0.0
 10
408.9502093899
 20
18.9458300836
 30
0.0
 10
408.9502093899
 20
18.8387556935
 30
0.0
  0
SPLINE
  5
83F
100
AcDbEntity
  8
BEZUGSACHSEN
100
AcDbSpline
 62
7
  6
CONTINUOUS
 70
0
 71
3
 72
13
 73
9
 74
0
 42
0.0000001
 43
0.0000001
 44
0.0000000001
 40
0.0
 40
0.0
 40
0.0
 40
0.0
 40
0.3840042719
 40
0.5489054429
 40
0.6909545228
 40
0.8074922617
 40
0.8969891317
 40
1.0
 40
1.0
 40
1.0
 40
1.0
 10
359.3365534214
 20
72.8850299417
 30
0.0
 10
359.6826772337
 20
72.4754275278
 30
0.0
 10
360.1616595187
 20
71.8763653584
 30
0.0
 10
360.7138296568
 20
71.0832714821
 30
0.0
 10
361.0246841838
 20
70.5828499118
 30
0.0
 10
361.2503708645
 20
70.1429305921
 30
0.0
 10
361.4001482234
 20
69.7611331478
 30
0.0
 10
361.4413035059
 20
69.4279078651
 30
0.0
 10
361.3378564512
 20
69.327943879
 30
0.0
  0
SPLINE
  5
840
100
AcDbEntity
  8
0
100
AcDbSpline
 62
7
  6
CONTINUOUS
 70
0
 71
3
 72
15
 73
11
 74
0
 42
0.0000001
 43
0.0000001
 44
0.0000000001
 40
0.0
 40
0.0
 40
0.0
 40
0.0
 40
0.2026661907
 40
0.3850141733
 40
0.5450885773
 40
0.6815705848
 40
0.7936896601
 40
0.8817400891
 40
0.9481203589
 40
1.0
 40
1.0
 40
1.0
 40
1.0
 10
414.3111004886
 20
17.1533915818
 30
0.0
 10
413.9765373569
 20
17.4092378982
 30
0.0
 10
413.3332736288
 20
17.8854088134
 30
0.0
 10
412.3967018573
 20
18.5232260064
 30
0.0
 10
411.5469232199
 20
19.0423710034
 30
0.0
 10
410.7941014503
 20
19.4370468116
 30
0.0
 10
410.1459567188
 20
19.7047990301
 30
0.0
 10
409.6070725259
 20
19.8422428456
 30
0.0
 10
409.1715608996
 20
19.8536694623
 30
0.0
 10
408.935120376
 20
19.7449044857
 30
0.0
 10
408.8575943035
 20
19.6699790125
 30
0.0
  0
SPLINE
  5
841
100
AcDbEntity
  8
RUNDUNGEN
100
AcDbSpline
 62
7
  6
CONTINUOUS
 70
0
 71
3
 72
10
 73
6
 74
0
 42
0.0000001
 43
0.0000001
 44
0.0000000001
 40
0.0
 40
0.0
 40
0.0
 40
0.0
 40
0.3698698647
 40
0.647960795
 40
1.0
 40
1.0
 40
1.0
 40
1.0
 10
358.3328173565
 20
86.1987978805
 30
0.0
 10
358.3754586961
 20
86.2400634597
 30
0.0
 10
358.4955990564
 20
86.2518000384
 30
0.0
 10
358.6479400811
 20
86.2133240924
 30
0.0
 10
358.7433515623
 20
86.1765262348
 30
0.0
 10
358.7949863381
 20
86.1536423541
 30
0.0
  0
SPLINE
  5
842
100
AcDbEntity
  8
RUNDUNGEN
100
AcDbSpline
 62
7
  6
CONTINUOUS
 70
0
 71
3
 72
15
 73
11
 74
0
 42
0.0000001
 43
0.0000001
 44
0.0000000001
 40
0.0
 40
0.0
 40
0.0
 40
0.0
 40
0.0528813664
 40
0.1198281637
 40
0.2080051607
 40
0.3199203137
 40
0.4559894227
 40
0.6155995791
 40
0.7975057048
 40
1.0
 40
1.0
 40
1.0
 40
1.0
 10
345.7110900078
 20
98.9707884896
 30
0.0
 10
345.6039666567
 20
98.8671823513
 30
0.0
 10
345.4404521518
 20
98.5501986082
 30
0.0
 10
345.4249939905
 20
97.9547348432
 30
0.0
 10
345.5756998952
 20
97.2141907559
 30
0.0
 10
345.8963425544
 20
96.3203444443
 30
0.0
 10
346.3831777011
 20
95.2788237791
 30
0.0
 10
347.0335364278
 20
94.099577127
 30
0.0
 10
347.8407026466
 20
92.7955926772
 30
0.0
 10
348.4473693072
 20
91.8977531531
 30
0.0
 10
348.7742941032
 20
91.430015778
 30
0.0
  0
SPLINE
  5
843
100
AcDbEntity
  8
RUNDUNGEN
100
AcDbSpline
 62
7
  6
CONTINUOUS
 70
0
 71
3
 72
10
 73
6
 74
0
 42
0.0000001
 43
0.0000001
 44
0.0000000001
 40
0.0
 40
0.0
 40
0.0
 40
0.0
 40
0.1212915816
 40
0.3215844382
 40
1.0
 40
1.0
 40
1.0
 40
1.0
 10
345.6320319778
 20
70.0317873764
 30
0.0
 10
345.6072561392
 20
70.0078419821
 30
0.0
 10
345.5907479046
 20
69.9057319796
 30
0.0
 10
345.6810939981
 20
69.6380758705
 30
0.0
 10
345.8133688142
 20
69.4212428973
 30
0.0
 10
345.9208333778
 20
69.2612642403
 30
0.0
  0
SPLINE
  5
844
100
AcDbEntity
  8
RUNDUNGEN
100
AcDbSpline
 62
7
  6
CONTINUOUS
 70
0
 71
3
 72
14
 73
10
 74
0
 42
0.0000001
 43
0.0000001
 44
0.0000000001
 40
0.0
 40
0.0
 40
0.0
 40
0.0
 40
0.0563083454
 40
0.1252818539
 40
0.2140273179
 40
0.3253679452
 40
0.4601494496
 40
0.6181802257
 40
1.0
 40
1.0
 40
1.0
 40
1.0
 10
430.2098340314
 20
3.5737013504
 30
0.0
 10
430.2536105127
 20
3.6159612222
 30
0.0
 10
430.3796480481
 20
3.6810771122
 30
0.0
 10
430.6143652893
 20
3.692675627
 30
0.0
 10
430.9014839082
 20
3.6385515027
 30
0.0
 10
431.2440095508
 20
3.519104727
 30
0.0
 10
431.6405969076
 20
3.3351022658
 30
0.0
 10
432.2787979224
 20
2.9819012553
 30
0.0
 10
432.7649169297
 20
2.657551162
 30
0.0
 10
433.1013953167
 20
2.4187753046
 30
0.0
  0
SPLINE
  5
845
100
AcDbEntity
  8
RUNDUNGEN
100
AcDbSpline
 62
7
  6
CONTINUOUS
 70
0
 71
3
 72
16
 73
12
 74
0
 42
0.0000001
 43
0.0000001
 44
0.0000000001
 40
0.0
 40
0.0
 40
0.0
 40
0.0
 40
0.0406934736
 40
0.0688788371
 40
0.1037506951
 40
0.1946661206
 40
0.3133765647
 40
0.4573892105
 40
0.6229637467
 40
0.8055825858
 40
1.0
 40
1.0
 40
1.0
 40
1.0
 10
444.0508969434
 20
-1.0536037764
 30
0.0
 10
444.1177089027
 20
-0.9890058977
 30
0.0
 10
444.2900681526
 20
-0.9502652053
 30
0.0
 10
444.5224104405
 20
-0.9833150807
 30
0.0
 10
444.8621849082
 20
-1.0820476021
 30
0.0
 10
445.3664910501
 20
-1.3263933674
 30
0.0
 10
446.054514207
 20
-1.7505979536
 30
0.0
 10
446.8486442076
 20
-2.3228150699
 30
0.0
 10
447.7261625794
 20
-3.0258673464
 30
0.0
 10
448.6606026488
 20
-3.8402141244
 30
0.0
 10
449.2894988364
 20
-4.4286307116
 30
0.0
 10
449.6088493081
 20
-4.7370995799
 30
0.0
  0
SPLINE
  5
846
100
AcDbEntity
  8
BEZUGSACHSEN
100
AcDbSpline
 62
7
  6
CONTINUOUS
 70
0
 71
3
 72
13
 73
9
 74
0
 42
0.0000001
 43
0.0000001
 44
0.0000000001
 40
0.0
 40
0.0
 40
0.0
 40
0.0
 40
0.1161471224
 40
0.2044734515
 40
0.3168703526
 40
0.4536263369
 40
0.614064373
 40
1.0
 40
1.0
 40
1.0
 40
1.0
 10
353.0008131759
 20
77.9588402989
 30
0.0
 10
353.0672736471
 20
78.023063042
 30
0.0
 10
353.2565759834
 20
78.037701331
 30
0.0
 10
353.4948156627
 20
77.9739475913
 30
0.0
 10
353.7462971583
 20
77.8727286573
 30
0.0
 10
354.0348464907
 20
77.7219442425
 30
0.0
 10
354.5000067571
 20
77.4396397026
 30
0.0
 10
354.853462731
 20
77.1855212517
 30
0.0
 10
355.0978284387
 20
76.9995275151
 30
0.0
  0
SPLINE
  5
847
100
AcDbEntity
  8
RUNDUNGEN
100
AcDbSpline
 62
7
  6
CONTINUOUS
 70
0
 71
3
 72
11
 73
7
 74
0
 42
0.0000001
 43
0.0000001
 44
0.0000000001
 40
0.0
 40
0.0
 40
0.0
 40
0.0
 40
0.2170485147
 40
0.471328498
 40
0.7403269907
 40
1.0
 40
1.0
 40
1.0
 40
1.0
 10
394.9648191543
 20
29.4817131473
 30
0.0
 10
396.6322123023
 20
28.2984774805
 30
0.0
 10
400.1040367047
 20
25.5202128633
 30
0.0
 10
405.2518015166
 20
20.8110193436
 30
0.0
 10
410.4098937426
 20
15.5344202902
 30
0.0
 10
413.6948552179
 20
11.7868746363
 30
0.0
 10
415.2438085379
 20
9.8937135706
 30
0.0
  0
SPLINE
  5
848
100
AcDbEntity
  8
RUNDUNGEN
100
AcDbSpline
 62
7
  6
CONTINUOUS
 70
0
 71
3
 72
13
 73
9
 74
0
 42
0.0000001
 43
0.0000001
 44
0.0000000001
 40
0.0
 40
0.0
 40
0.0
 40
0.0
 40
0.3838126006
 40
0.5428077377
 40
0.6783592868
 40
0.790156864
 40
0.8789253364
 40
1.0
 40
1.0
 40
1.0
 40
1.0
 10
360.5745054015
 20
62.1801254817
 30
0.0
 10
360.7694096151
 20
61.8899785415
 30
0.0
 10
361.0338084553
 20
61.4714121681
 30
0.0
 10
361.3200723646
 20
60.9233199764
 30
0.0
 10
361.4687683534
 20
60.5846585579
 30
0.0
 10
361.5629122302
 20
60.2907757991
 30
0.0
 10
361.6150646969
 20
60.00745136
 30
0.0
 10
361.5780063796
 20
59.7910711739
 30
0.0
 10
361.4987119944
 20
59.7144561381
 30
0.0
  0
SPLINE
  5
849
100
AcDbEntity
  8
0
100
AcDbSpline
 62
7
  6
CONTINUOUS
 70
0
 71
3
 72
9
 73
5
 74
0
 42
0.0000001
 43
0.0000001
 44
0.0000000001
 40
0.0
 40
0.0
 40
0.0
 40
0.0
 40
0.266660797
 40
1.0
 40
1.0
 40
1.0
 40
1.0
 10
409.2723378205
 20
19.4797080595
 30
0.0
 10
409.2480452995
 20
19.483407478
 30
0.0
 10
409.1567298911
 20
19.4956950476
 30
0.0
 10
409.064385413
 20
19.5013329404
 30
0.0
 10
408.9968199063
 20
19.5001054506
 30
0.0
  0
SPLINE
  5
84A
100
AcDbEntity
  8
0
100
AcDbSpline
 62
7
  6
CONTINUOUS
 70
0
 71
3
 72
9
 73
5
 74
0
 42
0.0000001
 43
0.0000001
 44
0.0000000001
 40
0.0
 40
0.0
 40
0.0
 40
0.0
 40
0.2695311292
 40
1.0
 40
1.0
 40
1.0
 40
1.0
 10
408.9968199063
 20
19.5001054506
 30
0.0
 10
408.9721835975
 20
19.4996578729
 30
0.0
 10
408.880905565
 20
19.4953287774
 30
0.0
 10
408.7897496435
 20
19.4793272873
 30
0.0
 10
408.7262569067
 20
19.4586364514
 30
0.0
  0
SPLINE
  5
84B
100
AcDbEntity
  8
0
100
AcDbSpline
 62
7
  6
CONTINUOUS
 70
0
 71
3
 72
8
 73
4
 74
0
 42
0.0000001
 43
0.0000001
 44
0.0000000001
 40
0.0
 40
0.0
 40
0.0
 40
0.0
 40
1.0
 40
1.0
 40
1.0
 40
1.0
 10
408.7053411124
 20
18.9463186138
 30
0.0
 10
408.7263901197
 20
18.9794603199
 30
0.0
 10
408.7512421676
 20
19.0105101713
 30
0.0
 10
408.7792357676
 20
19.038038189
 30
0.0
  0
LINE
  5
84C
100
AcDbEntity
  8
0
100
AcDbLine
 62
7
  6
CONTINUOUS
 10
408.7792357676
 20
19.038038189
 11
408.7824904874
 21
19.0412099375
  0
SPLINE
  5
84D
100
AcDbEntity
  8
0
100
AcDbSpline
 62
7
  6
CONTINUOUS
 70
0
 71
3
 72
9
 73
5
 74
0
 42
0.0000001
 43
0.0000001
 44
0.0000000001
 40
0.0
 40
0.0
 40
0.0
 40
0.0
 40
0.2613067366
 40
1.0
 40
1.0
 40
1.0
 40
1.0
 10
379.2922339103
 20
48.6684977753
 30
0.0
 10
379.272440805
 20
48.6726974619
 30
0.0
 10
379.196527556
 20
48.6879571488
 30
0.0
 10
379.1199119023
 20
48.6998531084
 30
0.0
 10
379.0630653395
 20
48.7061945663
 30
0.0
  0
SPLINE
  5
84E
100
AcDbEntity
  8
0
100
AcDbSpline
 62
7
  6
CONTINUOUS
 70
0
 71
3
 72
9
 73
5
 74
0
 42
0.0000001
 43
0.0000001
 44
0.0000000001
 40
0.0
 40
0.0
 40
0.0
 40
0.0
 40
0.2825884102
 40
1.0
 40
1.0
 40
1.0
 40
1.0
 10
379.0148759412
 20
48.710957446
 30
0.0
 10
378.9688945791
 20
48.7149024678
 30
0.0
 10
378.8061158284
 20
48.7227281674
 30
0.0
 10
378.6391397797
 20
48.7024632946
 30
0.0
 10
378.5295887511
 20
48.660922818
 30
0.0
  0
SPLINE
  5
84F
100
AcDbEntity
  8
0
100
AcDbSpline
 62
7
  6
CONTINUOUS
 70
0
 71
3
 72
8
 73
4
 74
0
 42
0.0000001
 43
0.0000001
 44
0.0000000001
 40
0.0
 40
0.0
 40
0.0
 40
0.0
 40
1.0
 40
1.0
 40
1.0
 40
1.0
 10
378.5757341474
 20
48.0493372147
 30
0.0
 10
378.5985941629
 20
48.0892676711
 30
0.0
 10
378.6263381779
 20
48.1268463361
 30
0.0
 10
378.6582547179
 20
48.1599877926
 30
0.0
  0
SPLINE
  5
850
100
AcDbEntity
  8
0
100
AcDbSpline
 62
7
  6
CONTINUOUS
 70
0
 71
3
 72
11
 73
7
 74
0
 42
0.0000001
 43
0.0000001
 44
0.0000000001
 40
0.0
 40
0.0
 40
0.0
 40
0.0
 40
0.2451102033
 40
0.49255154
 40
0.7439872994
 40
1.0
 40
1.0
 40
1.0
 40
1.0
 10
179.1171649072
 20
297.7542529305
 30
0.0
 10
179.1171649072
 20
300.726380608
 30
0.0
 10
179.9125639664
 20
306.7280329488
 30
0.0
 10
183.4222231251
 20
315.1462433355
 30
0.0
 10
189.04400567
 20
322.4931202245
 30
0.0
 10
193.9514067884
 20
326.3302229891
 30
0.0
 10
196.6130157999
 20
327.9279366504
 30
0.0
  0
SPLINE
  5
851
100
AcDbEntity
  8
0
100
AcDbSpline
 62
7
  6
CONTINUOUS
 70
0
 71
3
 72
11
 73
7
 74
0
 42
0.0000001
 43
0.0000001
 44
0.0000000001
 40
0.0
 40
0.0
 40
0.0
 40
0.0
 40
0.2560129985
 40
0.5074489387
 40
0.7548901993
 40
1.0
 40
1.0
 40
1.0
 40
1.0
 10
236.6207079389
 20
327.9283000118
 30
0.0
 10
239.2824023493
 20
326.3306053616
 30
0.0
 10
244.1899671868
 20
322.4935022696
 30
0.0
 10
249.8119498134
 20
315.1465437598
 30
0.0
 10
253.3217369505
 20
306.7281961775
 30
0.0
 10
254.1171649072
 20
300.7264330018
 30
0.0
 10
254.1171649072
 20
297.7542529305
 30
0.0
  0
SPLINE
  5
852
100
AcDbEntity
  8
0
100
AcDbSpline
 62
7
  6
CONTINUOUS
 70
0
 71
3
 72
15
 73
11
 74
0
 42
0.0000001
 43
0.0000001
 44
0.0000000001
 40
0.0
 40
0.0
 40
0.0
 40
0.0
 40
0.1240322878
 40
0.2481880478
 40
0.3725805736
 40
0.4972991635
 40
0.6224013663
 40
0.7479065065
 40
0.8737930237
 40
1.0
 40
1.0
 40
1.0
 40
1.0
 10
147.1171649072
 20
297.7542529305
 30
0.0
 10
147.1171649072
 20
301.3666229821
 30
0.0
 10
147.7142531934
 20
308.6090155841
 30
0.0
 10
150.3762978627
 20
319.176556324
 30
0.0
 10
154.732580605
 20
329.1900984202
 30
0.0
 10
160.6661150635
 20
338.3887291093
 30
0.0
 10
168.0192969111
 20
346.5402278844
 30
0.0
 10
176.6008137305
 20
353.4408816037
 30
0.0
 10
186.1861931646
 20
358.9197280248
 30
0.0
 10
193.0843746401
 20
361.5353277237
 30
0.0
 10
196.6121493848
 20
362.5676186346
 30
0.0
  0
SPLINE
  5
853
100
AcDbEntity
  8
0
100
AcDbSpline
 62
7
  6
CONTINUOUS
 70
0
 71
3
 72
15
 73
11
 74
0
 42
0.0000001
 43
0.0000001
 44
0.0000000001
 40
0.0
 40
0.0
 40
0.0
 40
0.0
 40
0.1262069869
 40
0.2520934856
 40
0.3775985886
 40
0.502700749
 40
0.6274193082
 40
0.7518118313
 40
0.8759676288
 40
1.0
 40
1.0
 40
1.0
 40
1.0
 10
236.6221466877
 20
362.567627877
 30
0.0
 10
240.1499234687
 20
361.535337604
 30
0.0
 10
247.0481091885
 20
358.9197416389
 30
0.0
 10
256.6334937527
 20
353.4408976396
 30
0.0
 10
265.215014215
 20
346.5402459828
 30
0.0
 10
272.5681993382
 20
338.388748625
 30
0.0
 10
278.5017386347
 20
329.1901185178
 30
0.0
 10
282.8580264872
 20
319.1765736854
 30
0.0
 10
285.5200754321
 20
308.6090259071
 30
0.0
 10
286.1171649072
 20
301.3666268555
 30
0.0
 10
286.1171649072
 20
297.7542529305
 30
0.0
  0
SPLINE
  5
854
100
AcDbEntity
  8
0
100
AcDbSpline
 62
7
  6
CONTINUOUS
 70
0
 71
3
 72
15
 73
11
 74
0
 42
0.0000001
 43
0.0000001
 44
0.0000000001
 40
0.0
 40
0.0
 40
0.0
 40
0.0
 40
0.1239156444
 40
0.2479788768
 40
0.3723206765
 40
0.4970397063
 40
0.6221903713
 40
0.7477754061
 40
0.8737445678
 40
1.0
 40
1.0
 40
1.0
 40
1.0
 10
286.1171649072
 20
205.9912994331
 30
0.0
 10
286.1171649072
 20
202.0440174858
 30
0.0
 10
285.4034807709
 20
194.1264234761
 30
0.0
 10
282.2274531535
 20
182.6365223092
 30
0.0
 10
277.0487168736
 20
171.8676605225
 30
0.0
 10
270.0331033968
 20
162.1541055468
 30
0.0
 10
261.4022823756
 20
153.7871450162
 30
0.0
 10
251.4229452224
 20
147.014932326
 30
0.0
 10
240.4045649791
 20
142.0358740657
 30
0.0
 10
232.5829706911
 20
140.0073938561
 30
0.0
 10
228.6184892869
 20
139.3307237128
 30
0.0
  0
SPLINE
  5
855
100
AcDbEntity
  8
0
100
AcDbSpline
 62
7
  6
CONTINUOUS
 70
0
 71
3
 72
15
 73
11
 74
0
 42
0.0000001
 43
0.0000001
 44
0.0000000001
 40
0.0
 40
0.0
 40
0.0
 40
0.0
 40
0.1262554658
 40
0.2522246187
 40
0.3778096162
 40
0.502960233
 40
0.6276792231
 40
0.7520210104
 40
0.8760842735
 40
1.0
 40
1.0
 40
1.0
 40
1.0
 10
204.6155014112
 20
139.3307813087
 30
0.0
 10
200.6510367789
 20
140.0074704505
 30
0.0
 10
192.8294786872
 20
142.0359758865
 30
0.0
 10
181.8111587347
 20
147.0150612886
 30
0.0
 10
171.8318831658
 20
153.7872813922
 30
0.0
 10
163.2011194359
 20
162.1542328211
 30
0.0
 10
156.1855537359
 20
171.8677648021
 30
0.0
 10
151.0068521654
 20
182.6365945194
 30
0.0
 10
147.8308447326
 20
194.1264598682
 30
0.0
 10
147.1171649072
 20
202.0440290105
 30
0.0
 10
147.1171649072
 20
205.9912994331
 30
0.0
  0
SPLINE
  5
856
100
AcDbEntity
  8
0
100
AcDbSpline
 62
7
  6
CONTINUOUS
 70
0
 71
3
 72
15
 73
11
 74
0
 42
0.0000001
 43
0.0000001
 44
0.0000000001
 40
0.0
 40
0.0
 40
0.0
 40
0.0
 40
0.1215358098
 40
0.2435249916
 40
0.3663817173
 40
0.4904149422
 40
0.6158114783
 40
0.7426194253
 40
0.8707517281
 40
1.0
 40
1.0
 40
1.0
 40
1.0
 10
254.1171649072
 20
205.9912994331
 30
0.0
 10
254.1171649072
 20
204.1587752756
 30
0.0
 10
253.8180818106
 20
200.4799705219
 30
0.0
 10
252.4817586691
 20
195.0960558529
 30
0.0
 10
250.2842025427
 20
189.9602932785
 30
0.0
 10
247.2708260092
 20
185.1964065535
 30
0.0
 10
243.5068091431
 20
180.9210055713
 30
0.0
 10
239.0767991227
 20
177.2427340393
 30
0.0
 10
234.0865042201
 20
174.2585942743
 30
0.0
 10
230.4755742541
 20
172.7892838785
 30
0.0
 10
228.6203668454
 20
172.1925611233
 30
0.0
  0
SPLINE
  5
857
100
AcDbEntity
  8
0
100
AcDbSpline
 62
7
  6
CONTINUOUS
 70
0
 71
3
 72
15
 73
11
 74
0
 42
0.0000001
 43
0.0000001
 44
0.0000000001
 40
0.0
 40
0.0
 40
0.0
 40
0.0
 40
0.1292482658
 40
0.2573805964
 40
0.3841886044
 40
0.5095851955
 40
0.633618463
 40
0.7564751948
 40
0.8784643172
 40
1.0
 40
1.0
 40
1.0
 40
1.0
 10
204.6136392903
 20
172.1926660113
 30
0.0
 10
202.7584515083
 20
172.7894017364
 30
0.0
 10
199.1475592017
 20
174.2587272009
 30
0.0
 10
194.1573242188
 20
177.2428844491
 30
0.0
 10
189.7273677907
 20
180.9211556372
 30
0.0
 10
185.9634016535
 20
185.1965473041
 30
0.0
 10
182.950067031
 20
189.9604118986
 30
0.0
 10
180.7525445662
 20
195.0961427954
 30
0.0
 10
179.4162428848
 20
200.4800166976
 30
0.0
 10
179.1171649072
 20
204.1587909379
 30
0.0
 10
179.1171649072
 20
205.9912994331
 30
0.0
  0
ELLIPSE
  5
858
100
AcDbEntity
  8
RUNDUNGEN
100
AcDbEllipse
 62
7
  6
CONTINUOUS
 10
226.8442756115
 20
124.8653107762
 30
0.0
 11
-0.277681641
 21
9.9992835226
 31
0.0
 40
0.431083391
 41
-0.0116151948
 42
1.2970262588
  0
ELLIPSE
  5
859
100
AcDbEntity
  8
0
100
AcDbEllipse
 62
7
  6
CONTINUOUS
 10
206.3900542028
 20
124.8653107762
 30
0.0
 11
0.277681641
 21
9.9992835226
 31
0.0
 40
0.431083391
 41
-1.2970262588
 42
0.0116151948
  0
ENDSEC
  0
SECTION
  2
OBJECTS
  0
DICTIONARY
  5
C
100
AcDbDictionary
280
0
281
1
  3
ACAD_GROUP
350
D
  3
ACAD_MLINESTYLE
350
17
  3
ACAD_LAYOUT
350
1A
  3
ACAD_PLOTSETTINGS
350
19
  3
ACAD_PLOTSTYLENAME
350
E
  0
DICTIONARY
  5
D
102
{ACAD_REACTORS
330
C
102
}
100
AcDbDictionary
280
0
281
1
  0
ACDBDICTIONARYWDFLT
  5
E
102
{ACAD_REACTORS
330
C
102
}
100
AcDbDictionary
281
1
  3
Normal
350
F
100
AcDbDictionaryWithDefault
340
F
  0
DICTIONARY
  5
17
102
{ACAD_REACTORS
330
C
102
}
100
AcDbDictionary
280
0
281
1
  3
Standard
350
18
  0
DICTIONARY
  5
19
102
{ACAD_REACTORS
330
C
102
}
100
AcDbDictionary
281
1
  0
DICTIONARY
  5
1A
102
{ACAD_REACTORS
330
C
102
}
100
AcDbDictionary
281
1
  3
Model
350
85A
  3
Layout1
350
85B
  0
ACDBPLACEHOLDER
  5
F
102
{ACAD_REACTORS
330
E
102
}
  0
MLINESTYLE
  5
18
102
{ACAD_REACTORS
330
17
102
}
100
AcDbMlineStyle
  2
STANDARD
 70
0
  3

 62
256
 51
90.0
 52
90.0
 71
2
 49
0.5
 62
256
  6
BYLAYER
 49
-0.5
 62
256
  6
BYLAYER
  0
LAYOUT
  5
85A
102
{ACAD_REACTORS
330
1A
102
}
100
AcDbPlotSettings
  1

  2
none_device
  4
ISO_A0_(1189.00_x_841.00_MM)
  6

 40
0.0
 41
0.0
 42
0.0
 43
0.0
 44
1189.0
 45
841.0
 46
0.0
 47
0.0
 48
0.0
 49
0.0
140
0.0
141
0.0
142
1.0
143
1.0
 70
1024
 72
1
 73
0
 74
0
  7

 75
0
147
1.0
148
0.0
149
0.0
100
AcDbLayout
  1
Model
 70
0
 71
0
 10
0.0
 20
0.0
 11
1189.0
 21
841.0
 12
0.0
 22
0.0
 32
0.0
 14
0.0
 24
0.0
 34
0.0
 15
0.0
 25
0.0
 35
0.0
146
0.0
 13
0.0
 23
0.0
 33
0.0
 16
1.0
 26
0.0
 36
0.0
 17
0.0
 27
1.0
 37
0.0
 76
0
330
20A
345
0
346
0
  0
LAYOUT
  5
85B
102
{ACAD_REACTORS
330
1A
102
}
100
AcDbPlotSettings
  1

  2
none_device
  4
ISO_A0_(1189.00_x_841.00_MM)
  6

 40
0.0
 41
0.0
 42
0.0
 43
0.0
 44
1189.0
 45
841.0
 46
0.0
 47
0.0
 48
0.0
 49
0.0
140
0.0
141
0.0
142
1.0
143
1.0
 70
0
 72
1
 73
0
 74
0
  7

 75
0
147
1.0
148
0.0
149
0.0
100
AcDbLayout
  1
Layout1
 70
0
 71
1
 10
0.0
 20
0.0
 11
1189.0
 21
841.0
 12
0.0
 22
0.0
 32
0.0
 14
0.0
 24
0.0
 34
0.0
 15
0.0
 25
0.0
 35
0.0
146
0.0
 13
0.0
 23
0.0
 33
0.0
 16
1.0
 26
0.0
 36
0.0
 17
0.0
 27
1.0
 37
0.0
 76
0
330
20B
345
0
346
0
  0
ENDSEC
  0
EOF
