999
DXF file: ISAK-RG-2-13_250_7903204_M34586-P-11.dxf
999
Pro/ENGINEER 2010140 by Parametric Technology Corporation
  0
SECTION
  2
HEADER
  9
$ACADVER
  1
AC1015
  9
$DWGCODEPAGE
  3
ANSI_1252
  9
$EXTMAX
 10
1189.0
 20
841.0
 30
0.0
  9
$EXTMIN
 10
0.0
 20
0.0
 30
0.0
  9
$LIMMIN
 10
0.0
 20
0.0
  9
$LIMMAX
 10
1189.0
 20
841.0
  9
$VIEWCTR
 10
594.5
 20
420.5
  9
$VIEWSIZE
 40
841.0
  9
$CLAYER
  8
0
  9
$LTSCALE
 40
65.395
  9
$CELTYPE
  6
BYLAYER
  9
$DIMSCALE
 40
1.0
  9
$DIMASZ
 40
3.5
  9
$DIMEXO
 40
7.43125
  9
$DIMDLI
 40
45.182
  9
$DIMEXE
 40
21.402
  9
$DIMCEN
 40
10.701
  9
$DIMLFAC
 40
1.0
  9
$DIMBLK
  1
_FILLED
  9
$DIMTXT
 40
3.5
  9
$DIMTOL
 70
1
  9
$DIMLIM
 70
0
  9
$DIMTFAC
 40
1.0
  9
$DIMTP
 40
0.005
  9
$DIMTM
 40
0.005
  9
$PDMODE
 70
3
  9
$PDSIZE
 40
0.3125
  9
$HANDSEED
  5
845
  9
$TILEMODE
 70
1
  9
$MEASUREMENT
 70
1
  9
$INSUNITS
 70
4
  0
ENDSEC
  0
SECTION
  2
CLASSES
  0
CLASS
  1
ACDBDICTIONARYWDFLT
  2
AcDbDictionaryWithDefault
  3
AutoCAD 2000
 90
0
280
0
281
0
  0
CLASS
  1
ACDBPLACEHOLDER
  2
AcDbPlaceHolder
  3
AutoCAD 2000
 90
0
280
0
281
0
  0
CLASS
  1
LAYOUT
  2
AcDbLayout
  3
AutoCAD 2000
 90
0
280
0
281
0
  0
ENDSEC
  0
SECTION
  2
TABLES
  0
TABLE
  2
VPORT
  5
8
100
AcDbSymbolTable
 70
2
  0
VPORT
  5
1F4
100
AcDbSymbolTableRecord
100
AcDbViewportTableRecord
  2
*ACTIVE
 70
0
 10
0.0
 20
0.0
 11
1.0
 21
1.0
 12
594.5
 22
420.5
 13
0.0
 23
0.0
 14
1.0
 24
1.0
 15
0.0
 25
0.0
 16
0.0
 26
0.0
 36
1.0
 17
0.0
 27
0.0
 37
0.0
 40
841.0
 41
1.4137931034
 42
50.0
 43
0.0
 44
0.0
 50
0.0
 51
0.0
 71
0
 72
100
 73
1
 74
1
 75
0
 76
0
 77
0
 78
0
  0
ENDTAB
  0
TABLE
  2
LTYPE
  5
5
100
AcDbSymbolTable
 70
6
  0
LTYPE
  5
14
100
AcDbSymbolTableRecord
100
AcDbLinetypeTableRecord
  2
BYBLOCK
 70
0
  3

 72
65
 73
0
 40
0.0
  0
LTYPE
  5
15
100
AcDbSymbolTableRecord
100
AcDbLinetypeTableRecord
  2
BYLAYER
 70
0
  3

 72
65
 73
0
 40
0.0
  0
LTYPE
  5
16
100
AcDbSymbolTableRecord
100
AcDbLinetypeTableRecord
  2
CONTINUOUS
 70
64
  3
Solid line
 72
65
 73
0
 40
0.0
  0
LTYPE
  5
1F5
100
AcDbSymbolTableRecord
100
AcDbLinetypeTableRecord
  2
CENTER
 70
64
  3
____ _ ____ _ ____ _ ____ _ ____ _ ____ _ ____
 72
65
 73
4
 40
0.6
 49
0.375
 74
0
 49
-0.075
 74
0
 49
0.075
 74
0
 49
-0.075
 74
0
  0
LTYPE
  5
1F6
100
AcDbSymbolTableRecord
100
AcDbLinetypeTableRecord
  2
HIDDEN
 70
64
  3
- - - - - - - - - - - - - - - - - - - -
 72
65
 73
2
 40
0.2
 49
0.1
 74
0
 49
-0.1
 74
0
  0
LTYPE
  5
1F7
100
AcDbSymbolTableRecord
100
AcDbLinetypeTableRecord
  2
PHANTOM
 70
64
  3
_____ _ _ _____ _ _ _____ _ _ _____
 72
65
 73
6
 40
0.8
 49
0.45
 74
0
 49
-0.05
 74
0
 49
0.1
 74
0
 49
-0.05
 74
0
 49
0.1
 74
0
 49
-0.05
 74
0
  0
LTYPE
  5
1F8
100
AcDbSymbolTableRecord
100
AcDbLinetypeTableRecord
  2
DOT
 70
64
  3
. . . . . . . . . . . . . . . . . . . .
 72
65
 73
2
 40
0.2
 49
0.1
 74
0
 49
-0.1
 74
0
  0
LTYPE
  5
1F9
100
AcDbSymbolTableRecord
100
AcDbLinetypeTableRecord
  2
DASHED
 70
64
  3
- - - - - - - - - - - - - - - - - - - -
 72
65
 73
2
 40
0.2
 49
0.1
 74
0
 49
-0.1
 74
0
  0
ENDTAB
  0
TABLE
  2
LAYER
  5
2
100
AcDbSymbolTable
 70
36
  0
LAYER
  5
10
100
AcDbSymbolTableRecord
100
AcDbLayerTableRecord
  2
0
 70
0
 62
7
  6
CONTINUOUS
370
-3
390
F
  0
LAYER
  5
1FA
100
AcDbSymbolTableRecord
100
AcDbLayerTableRecord
  2
DEFAULT_1
 70
0
 62
7
  6
CENTER
370
-3
390
F
  0
LAYER
  5
1FB
100
AcDbSymbolTableRecord
100
AcDbLayerTableRecord
  2
DEFAULT_2
 70
0
 62
8
  6
HIDDEN
370
-3
390
F
  0
LAYER
  5
1FC
100
AcDbSymbolTableRecord
100
AcDbLayerTableRecord
  2
DEFAULT_3
 70
0
 62
7
  6
PHANTOM
370
-3
390
F
  0
LAYER
  5
1FD
100
AcDbSymbolTableRecord
100
AcDbLayerTableRecord
  2
BEZUGSACHSEN
 70
0
 62
7
  6
CONTINUOUS
370
-3
390
F
  0
LAYER
  5
1FE
100
AcDbSymbolTableRecord
100
AcDbLayerTableRecord
  2
BEZUGSEBENEN
 70
0
 62
7
  6
CONTINUOUS
370
-3
390
F
  0
LAYER
  5
1FF
100
AcDbSymbolTableRecord
100
AcDbLayerTableRecord
  2
BG_STARTBEZUEGE
 70
0
 62
7
  6
CONTINUOUS
370
-3
390
F
  0
LAYER
  5
200
100
AcDbSymbolTableRecord
100
AcDbLayerTableRecord
  2
FASEN
 70
0
 62
7
  6
CONTINUOUS
370
-3
390
F
  0
LAYER
  5
201
100
AcDbSymbolTableRecord
100
AcDbLayerTableRecord
  2
HILFEN
 70
0
 62
7
  6
CONTINUOUS
370
-3
390
F
  0
LAYER
  5
202
100
AcDbSymbolTableRecord
100
AcDbLayerTableRecord
  2
KONSTRUKTIONSELEMENTE
 70
0
 62
7
  6
CONTINUOUS
370
-3
390
F
  0
LAYER
  5
203
100
AcDbSymbolTableRecord
100
AcDbLayerTableRecord
  2
NORM
 70
0
 62
7
  6
CONTINUOUS
370
-3
390
F
  0
LAYER
  5
204
100
AcDbSymbolTableRecord
100
AcDbLayerTableRecord
  2
PLATZIERUNG
 70
0
 62
7
  6
CONTINUOUS
370
-3
390
F
  0
LAYER
  5
205
100
AcDbSymbolTableRecord
100
AcDbLayerTableRecord
  2
RUNDUNGEN
 70
0
 62
7
  6
CONTINUOUS
370
-3
390
F
  0
LAYER
  5
206
100
AcDbSymbolTableRecord
100
AcDbLayerTableRecord
  2
TEIL_STARTBEZUEGE
 70
0
 62
7
  6
CONTINUOUS
370
-3
390
F
  0
LAYER
  5
207
100
AcDbSymbolTableRecord
100
AcDbLayerTableRecord
  2
T_STARTBEZUEGE
 70
0
 62
7
  6
CONTINUOUS
370
-3
390
F
  0
ENDTAB
  0
TABLE
  2
STYLE
  5
3
100
AcDbSymbolTable
 70
1
  0
STYLE
  5
11
100
AcDbSymbolTableRecord
100
AcDbTextStyleTableRecord
  2
STANDARD
 70
0
 40
0.0
 41
0.7
 50
0.0
 71
0
 42
0.2
  3
txt
  4

  0
STYLE
  5
208
100
AcDbSymbolTableRecord
100
AcDbTextStyleTableRecord
  2
TEXTSTYLE_1
 70
0
 40
0.0
 41
0.8
 50
0.0
 71
0
 42
0.2
  3
gdt
  4

  0
ENDTAB
  0
TABLE
  2
VIEW
  5
6
100
AcDbSymbolTable
 70
0
  0
ENDTAB
  0
TABLE
  2
UCS
  5
7
100
AcDbSymbolTable
 70
0
  0
ENDTAB
  0
TABLE
  2
APPID
  5
9
100
AcDbSymbolTable
 70
1
  0
APPID
  5
209
100
AcDbSymbolTableRecord
100
AcDbRegAppTableRecord
  2
ACAD
 70
0
  0
ENDTAB
  0
TABLE
  2
BLOCK_RECORD
  5
1
100
AcDbSymbolTable
 70
0
  0
BLOCK_RECORD
  5
20A
100
AcDbSymbolTableRecord
100
AcDbBlockTableRecord
  2
*Model_Space
  0
BLOCK_RECORD
  5
20B
100
AcDbSymbolTableRecord
100
AcDbBlockTableRecord
  2
*Paper_Space
  0
ENDTAB
  0
TABLE
  2
DIMSTYLE
  5
A
100
AcDbSymbolTable
 70
1
100
AcDbDimStyleTable
 71
0
  0
DIMSTYLE
105
20C
100
AcDbSymbolTableRecord
100
AcDbDimStyleTableRecord
  2
STANDARD
 70
0
  3

  4

 40
1.0
 41
3.5
 42
0.0625
 43
0.38
 44
0.18
 45
0.0
 46
0.0
 47
0.005
 48
0.005
140
3.5
141
0.09
142
0.0
143
25.4
144
1.0
145
0.0
146
1.0
147
0.09
 71
1.0
 72
0.0
 73
0
 74
0
 75
0
 76
0
 77
1
 78
8
170
0
171
2
172
0
173
0
174
0
175
0
176
0
177
0
178
5
270
2
271
3
272
3
273
2
274
2
275
0
280
0
281
0
282
0
283
1
284
8
285
0
286
0
287
3
288
0
340
11
  0
ENDTAB
  0
ENDSEC
  0
SECTION
  2
BLOCKS
  0
BLOCK
  5
20
100
AcDbEntity
  8
0
100
AcDbBlockBegin
  2
*Model_Space
 70
0
 10
0.0
 20
0.0
 30
0.0
  3
*Model_Space
  1

  0
ENDBLK
  5
21
100
AcDbEntity
  8
0
100
AcDbBlockEnd
  0
BLOCK
  5
1C
100
AcDbEntity
  8
0
100
AcDbBlockBegin
  2
*Paper_Space
 70
0
 10
0.0
 20
0.0
 30
0.0
  3
*Paper_Space
  1

  0
ENDBLK
  5
1D
100
AcDbEntity
  8
0
100
AcDbBlockEnd
  0
ENDSEC
  0
SECTION
  2
ENTITIES
  0
MTEXT
  5
20D
100
AcDbEntity
  8
0
100
AcDbMText
 62
5
  6
CONTINUOUS
  7
STANDARD
 71
1
 72
1
 10
626.4254586145
 20
538.2883792655
 30
0.0
 11
0.0
 21
1.0
 31
0.0
 44
0.9
  1
RUD
 40
11.0
 41
29.3333333333
  0
MTEXT
  5
20E
100
AcDbEntity
  8
0
100
AcDbMText
 62
5
  6
CONTINUOUS
  7
STANDARD
 71
1
 72
1
 10
912.4072935638
 20
481.5797669898
 30
0.0
 11
0.0
 21
1.0
 31
0.0
 44
0.9
  1
ISAK-RG 2-13/250
 40
11.0
 41
133.8333333333
  0
MTEXT
  5
20F
100
AcDbEntity
  8
0
100
AcDbMText
 62
5
  6
CONTINUOUS
  7
STANDARD
 71
1
 72
1
 10
245.6039708598
 20
464.4236998611
 30
0.0
 11
0.0
 21
1.0
 31
0.0
 44
0.9
  1
RUD ISAK-RG 2-13/250
 40
11.0
 41
169.7142857143
  0
LINE
  5
210
100
AcDbEntity
  8
0
100
AcDbLine
 62
7
  6
CONTINUOUS
 10
0.0
 20
0.0
 11
0.0
 21
841.0
  0
LINE
  5
211
100
AcDbEntity
  8
0
100
AcDbLine
 62
7
  6
CONTINUOUS
 10
0.0
 20
0.0
 11
1189.0
 21
0.0
  0
LINE
  5
212
100
AcDbEntity
  8
0
100
AcDbLine
 62
7
  6
CONTINUOUS
 10
0.0
 20
841.0
 11
1189.0
 21
841.0
  0
LINE
  5
213
100
AcDbEntity
  8
0
100
AcDbLine
 62
7
  6
CONTINUOUS
 10
1189.0
 20
0.0
 11
1189.0
 21
841.0
  0
LINE
  5
214
100
AcDbEntity
  8
RUNDUNGEN
100
AcDbLine
 62
7
  6
CONTINUOUS
 10
623.420480193
 20
28.8238042225
 11
626.801220585
 21
27.9179375646
  0
LINE
  5
215
100
AcDbEntity
  8
RUNDUNGEN
100
AcDbLine
 62
7
  6
CONTINUOUS
 10
693.4501025989
 20
10.0594234526
 11
696.8308429909
 21
9.1535567947
  0
LINE
  5
216
100
AcDbEntity
  8
RUNDUNGEN
100
AcDbLine
 62
7
  6
CONTINUOUS
 10
635.8249289843
 20
36.4808042999
 11
644.3786037966
 21
34.1888540416
  0
LINE
  5
217
100
AcDbEntity
  8
RUNDUNGEN
100
AcDbLine
 62
7
  6
CONTINUOUS
 10
681.3631004441
 20
24.2788880324
 11
689.9167752564
 21
21.9869377741
  0
LINE
  5
218
100
AcDbEntity
  8
0
100
AcDbLine
 62
7
  6
CONTINUOUS
 10
659.1061477549
 20
85.4392514221
 11
665.1335249109
 21
83.8242205807
  0
LINE
  5
219
100
AcDbEntity
  8
0
100
AcDbLine
 62
7
  6
CONTINUOUS
 10
668.3302967044
 20
82.9676481603
 11
669.5357721356
 21
82.644641992
  0
LINE
  5
21A
100
AcDbEntity
  8
0
100
AcDbLine
 62
7
  6
CONTINUOUS
 10
675.2780467136
 20
81.1060041561
 11
676.670009843
 21
80.7330287597
  0
LINE
  5
21B
100
AcDbEntity
  8
0
100
AcDbLine
 62
7
  6
CONTINUOUS
 10
687.1584860683
 20
77.9226500253
 11
691.525781746
 21
76.7524366753
  0
LINE
  5
21C
100
AcDbEntity
  8
0
100
AcDbLine
 62
7
  6
CONTINUOUS
 10
659.2251060111
 20
85.8832096784
 11
665.2524831672
 21
84.2681788369
  0
LINE
  5
21D
100
AcDbEntity
  8
0
100
AcDbLine
 62
7
  6
CONTINUOUS
 10
668.4492549606
 20
83.4116064165
 11
669.6547303918
 21
83.0886002482
  0
LINE
  5
21E
100
AcDbEntity
  8
0
100
AcDbLine
 62
7
  6
CONTINUOUS
 10
675.3970049698
 20
81.5499624123
 11
676.426477701
 21
81.2741160254
  0
LINE
  5
21F
100
AcDbEntity
  8
0
100
AcDbLine
 62
7
  6
CONTINUOUS
 10
687.2774443245
 20
78.3666082815
 11
691.6447400022
 21
77.1963949316
  0
LINE
  5
220
100
AcDbEntity
  8
0
100
AcDbLine
 62
7
  6
CONTINUOUS
 10
691.7901138389
 20
77.6332751543
 11
688.601878012
 21
78.4875603694
  0
LINE
  5
221
100
AcDbEntity
  8
0
100
AcDbLine
 62
7
  6
CONTINUOUS
 10
663.3471138285
 20
85.4448872474
 11
661.4635584672
 21
85.9495843854
  0
LINE
  5
222
100
AcDbEntity
  8
0
100
AcDbLine
 62
7
  6
CONTINUOUS
 10
661.9096608629
 20
86.2583013311
 11
663.1151362941
 21
85.9352951628
  0
LINE
  5
223
100
AcDbEntity
  8
0
100
AcDbLine
 62
7
  6
CONTINUOUS
 10
662.0286191191
 20
86.7022595874
 11
663.2340945503
 21
86.3792534191
  0
LINE
  5
224
100
AcDbEntity
  8
0
100
AcDbLine
 62
7
  6
CONTINUOUS
 10
838.9915970297
 20
89.9572369096
 11
844.0933681425
 21
91.3242523592
  0
LINE
  5
225
100
AcDbEntity
  8
0
100
AcDbLine
 62
7
  6
CONTINUOUS
 10
893.7772271469
 20
104.6370022563
 11
898.8789982596
 21
106.0040177059
  0
LINE
  5
226
100
AcDbEntity
  8
BEZUGSACHSEN
100
AcDbLine
 62
7
  6
CONTINUOUS
 10
872.9190859328
 20
111.7043314679
 11
858.6233837038
 21
107.8738096004
  0
LINE
  5
227
100
AcDbEntity
  8
0
100
AcDbLine
 62
7
  6
CONTINUOUS
 10
662.9297472687
 20
87.1269692623
 11
662.6660495181
 21
87.1976268616
  0
LINE
  5
228
100
AcDbEntity
  8
0
100
AcDbLine
 62
7
  6
CONTINUOUS
 10
663.4720110628
 20
87.2671699315
 11
663.1518066514
 21
87.352968445
  0
LINE
  5
229
100
AcDbEntity
  8
0
100
AcDbLine
 62
7
  6
CONTINUOUS
 10
662.586740043
 20
87.5043775864
 11
662.2665356316
 21
87.5901760998
  0
LINE
  5
22A
100
AcDbEntity
  8
0
100
AcDbLine
 62
7
  6
CONTINUOUS
 10
662.0345580971
 20
88.0805840153
 11
662.6938024736
 21
87.903940017
  0
LINE
  5
22B
100
AcDbEntity
  8
0
100
AcDbLine
 62
7
  6
CONTINUOUS
 10
663.258869082
 20
87.7525308756
 11
663.9181134584
 21
87.5758868773
  0
LINE
  5
22C
100
AcDbEntity
  8
0
100
AcDbLine
 62
7
  6
CONTINUOUS
 10
670.4312105639
 20
85.9864637016
 11
673.4448991419
 21
85.1789482809
  0
LINE
  5
22D
100
AcDbEntity
  8
0
100
AcDbLine
 62
7
  6
CONTINUOUS
 10
662.1535163534
 20
88.5245422715
 11
662.8127607298
 21
88.3478982732
  0
LINE
  5
22E
100
AcDbEntity
  8
0
100
AcDbLine
 62
7
  6
CONTINUOUS
 10
663.3778273382
 20
88.1964891318
 11
664.0370717146
 21
88.0198451335
  0
LINE
  5
22F
100
AcDbEntity
  8
0
100
AcDbLine
 62
7
  6
CONTINUOUS
 10
664.0608633659
 20
88.1086367848
 11
663.4016189894
 21
88.2852807831
  0
LINE
  5
230
100
AcDbEntity
  8
0
100
AcDbLine
 62
7
  6
CONTINUOUS
 10
662.8365523811
 20
88.4366899244
 11
662.1773080046
 21
88.6133339227
  0
LINE
  5
231
100
AcDbEntity
  8
0
100
AcDbLine
 62
7
  6
CONTINUOUS
 10
670.5501688202
 20
86.4304219579
 11
673.5638573982
 21
85.6229065371
  0
LINE
  5
232
100
AcDbEntity
  8
0
100
AcDbLine
 62
7
  6
CONTINUOUS
 10
662.6234104003
 20
88.9220508685
 11
662.9436148117
 21
88.8362523551
  0
LINE
  5
233
100
AcDbEntity
  8
0
100
AcDbLine
 62
7
  6
CONTINUOUS
 10
663.50868142
 20
88.6848432137
 11
663.8288858315
 21
88.5990447002
  0
LINE
  5
234
100
AcDbEntity
  8
0
100
AcDbLine
 62
7
  6
CONTINUOUS
 10
674.1755804236
 20
85.8967622294
 11
670.6596104159
 21
86.8388635536
  0
LINE
  5
235
100
AcDbEntity
  8
0
100
AcDbLine
 62
7
  6
CONTINUOUS
 10
663.1656741943
 20
89.0622515378
 11
663.4293719449
 21
88.9915939384
  0
LINE
  5
236
100
AcDbEntity
  8
0
100
AcDbLine
 62
7
  6
CONTINUOUS
 10
662.7423686565
 20
89.3660091247
 11
663.0625730679
 21
89.2802106113
  0
LINE
  5
237
100
AcDbEntity
  8
0
100
AcDbLine
 62
7
  6
CONTINUOUS
 10
663.6276396763
 20
89.1288014699
 11
663.9478440877
 21
89.0430029565
  0
LINE
  5
238
100
AcDbEntity
  8
0
100
AcDbLine
 62
7
  6
CONTINUOUS
 10
663.2846324505
 20
89.506209794
 11
663.5483302011
 21
89.4355521947
  0
LINE
  5
239
100
AcDbEntity
  8
0
100
AcDbLine
 62
7
  6
CONTINUOUS
 10
689.7914605743
 20
82.9271429317
 11
688.5859851431
 21
83.2501491
  0
LINE
  5
23A
100
AcDbEntity
  8
0
100
AcDbLine
 62
7
  6
CONTINUOUS
 10
670.975167036
 20
88.0165368924
 11
669.7696916047
 21
88.3395430607
  0
LINE
  5
23B
100
AcDbEntity
  8
0
100
AcDbLine
 62
7
  6
CONTINUOUS
 10
664.1857606001
 20
89.9309194689
 11
662.9802851689
 21
90.2539256372
  0
LINE
  5
23C
100
AcDbEntity
  8
0
100
AcDbLine
 62
7
  6
CONTINUOUS
 10
662.7483076345
 20
90.7443335526
 11
664.6318629958
 21
90.2396364147
  0
LINE
  5
23D
100
AcDbEntity
  8
0
100
AcDbLine
 62
7
  6
CONTINUOUS
 10
688.7858350135
 20
83.9959989705
 11
693.1795462717
 21
82.8187075871
  0
LINE
  5
23E
100
AcDbEntity
  8
0
100
AcDbLine
 62
7
  6
CONTINUOUS
 10
669.9695414752
 20
89.0853929311
 11
674.6909869141
 21
87.8202854387
  0
LINE
  5
23F
100
AcDbEntity
  8
0
100
AcDbLine
 62
7
  6
CONTINUOUS
 10
662.8672658908
 20
91.1882918089
 11
664.750821252
 21
90.6835946709
  0
LINE
  5
240
100
AcDbEntity
  8
0
100
AcDbLine
 62
7
  6
CONTINUOUS
 10
688.9047932698
 20
84.4399572267
 11
693.2985045279
 21
83.2626658433
  0
LINE
  5
241
100
AcDbEntity
  8
0
100
AcDbLine
 62
7
  6
CONTINUOUS
 10
670.0884997314
 20
89.5293511873
 11
674.8099451703
 21
88.2642436949
  0
LINE
  5
242
100
AcDbEntity
  8
0
100
AcDbLine
 62
7
  6
CONTINUOUS
 10
693.3815305432
 20
83.6781854725
 11
689.0142348655
 21
84.8483988224
  0
LINE
  5
243
100
AcDbEntity
  8
0
100
AcDbLine
 62
7
  6
CONTINUOUS
 10
686.3772573597
 20
85.5549748156
 11
685.1717819285
 21
85.8779809839
  0
LINE
  5
244
100
AcDbEntity
  8
0
100
AcDbLine
 62
7
  6
CONTINUOUS
 10
680.4325866668
 20
87.147844527
 11
679.2271112356
 21
87.4708506953
  0
LINE
  5
245
100
AcDbEntity
  8
0
100
AcDbLine
 62
7
  6
CONTINUOUS
 10
674.9074909405
 20
88.628289465
 11
670.1860455016
 21
89.8933969575
  0
LINE
  5
246
100
AcDbEntity
  8
0
100
AcDbLine
 62
7
  6
CONTINUOUS
 10
666.9892737081
 20
90.7499693779
 11
660.9618965521
 21
92.3650002193
  0
LINE
  5
247
100
AcDbEntity
  8
RUNDUNGEN
100
AcDbLine
 62
7
  6
CONTINUOUS
 10
711.2351905603
 20
89.9572369096
 11
706.1897060222
 21
91.309170417
  0
LINE
  5
248
100
AcDbEntity
  8
0
100
AcDbLine
 62
7
  6
CONTINUOUS
 10
706.1897060222
 20
91.309170417
 11
706.1334194475
 21
91.3242523592
  0
LINE
  5
249
100
AcDbEntity
  8
0
100
AcDbLine
 62
7
  6
CONTINUOUS
 10
656.4495604432
 20
104.6370022563
 11
656.3932738686
 21
104.6520841985
  0
LINE
  5
24A
100
AcDbEntity
  8
RUNDUNGEN
100
AcDbLine
 62
7
  6
CONTINUOUS
 10
656.3932738686
 20
104.6520841985
 11
651.3477893304
 21
106.0040177059
  0
LINE
  5
24B
100
AcDbEntity
  8
BEZUGSACHSEN
100
AcDbLine
 62
7
  6
CONTINUOUS
 10
677.3077016572
 20
111.7043314679
 11
691.6034038863
 21
107.8738096004
  0
LINE
  5
24C
100
AcDbEntity
  8
BEZUGSACHSEN
100
AcDbLine
 62
7
  6
CONTINUOUS
 10
871.6597668772
 20
116.4041741666
 11
857.3640646481
 21
112.5736522991
  0
LINE
  5
24D
100
AcDbEntity
  8
BEZUGSACHSEN
100
AcDbLine
 62
7
  6
CONTINUOUS
 10
869.4290755109
 20
124.7292276816
 11
855.1333732818
 21
120.8987058141
  0
LINE
  5
24E
100
AcDbEntity
  8
BEZUGSACHSEN
100
AcDbLine
 62
7
  6
CONTINUOUS
 10
868.1697564552
 20
129.4290703803
 11
853.8740542261
 21
125.5985485128
  0
LINE
  5
24F
100
AcDbEntity
  8
0
100
AcDbLine
 62
7
  6
CONTINUOUS
 10
889.561512636
 20
140.7773474523
 11
866.7656631355
 21
134.6692179879
  0
LINE
  5
250
100
AcDbEntity
  8
0
100
AcDbLine
 62
7
  6
CONTINUOUS
 10
852.4699609065
 20
130.8386961204
 11
829.674111406
 21
124.730566656
  0
LINE
  5
251
100
AcDbEntity
  8
BEZUGSACHSEN
100
AcDbLine
 62
7
  6
CONTINUOUS
 10
678.5670207129
 20
116.4041741666
 11
692.8627229419
 21
112.5736522991
  0
LINE
  5
252
100
AcDbEntity
  8
BEZUGSACHSEN
100
AcDbLine
 62
7
  6
CONTINUOUS
 10
680.7977120792
 20
124.7292276816
 11
695.0934143082
 21
120.8987058141
  0
LINE
  5
253
100
AcDbEntity
  8
BEZUGSACHSEN
100
AcDbLine
 62
7
  6
CONTINUOUS
 10
682.0570311348
 20
129.4290703803
 11
696.3527333639
 21
125.5985485128
  0
LINE
  5
254
100
AcDbEntity
  8
RUNDUNGEN
100
AcDbLine
 62
7
  6
CONTINUOUS
 10
660.6652749541
 20
140.7773474523
 11
683.4611244545
 21
134.6692179879
  0
LINE
  5
255
100
AcDbEntity
  8
RUNDUNGEN
100
AcDbLine
 62
7
  6
CONTINUOUS
 10
697.7568266836
 20
130.8386961204
 11
720.552676184
 21
124.730566656
  0
LINE
  5
256
100
AcDbEntity
  8
RUNDUNGEN
100
AcDbLine
 62
7
  6
CONTINUOUS
 10
707.6501876457
 20
86.8318573935
 11
693.513059803
 21
99.269563507
  0
LINE
  5
257
100
AcDbEntity
  8
RUNDUNGEN
100
AcDbLine
 62
7
  6
CONTINUOUS
 10
707.869442719
 20
90.8590863256
 11
708.5652511551
 21
90.246920903
  0
LINE
  5
258
100
AcDbEntity
  8
0
100
AcDbLine
 62
7
  6
CONTINUOUS
 10
827.6411359375
 20
132.3177343951
 11
852.0282264978
 21
138.8522356165
  0
LINE
  5
259
100
AcDbEntity
  8
0
100
AcDbLine
 62
7
  6
CONTINUOUS
 10
863.1414466071
 20
141.8300139701
 11
887.5285371674
 21
148.3645151914
  0
LINE
  5
25A
100
AcDbEntity
  8
0
100
AcDbLine
 62
7
  6
CONTINUOUS
 10
829.0462543112
 20
149.7293533002
 11
833.1878521605
 21
150.8390910993
  0
LINE
  5
25B
100
AcDbEntity
  8
0
100
AcDbLine
 62
7
  6
CONTINUOUS
 10
873.4642616586
 20
161.6311224984
 11
877.6058601133
 21
162.7408604597
  0
LINE
  5
25C
100
AcDbEntity
  8
0
100
AcDbLine
 62
7
  6
CONTINUOUS
 10
866.2750129281
 20
159.9020150811
 11
840.2784779038
 21
152.9362645154
  0
LINE
  5
25D
100
AcDbEntity
  8
RUNDUNGEN
100
AcDbLine
 62
7
  6
CONTINUOUS
 10
638.3323618936
 20
98.2234899819
 11
643.0822849031
 21
99.1761535426
  0
LINE
  5
25E
100
AcDbEntity
  8
RUNDUNGEN
100
AcDbLine
 62
7
  6
CONTINUOUS
 10
671.3517680741
 20
105.2076637289
 11
665.0782848539
 21
103.9494288375
  0
LINE
  5
25F
100
AcDbEntity
  8
RUNDUNGEN
100
AcDbLine
 62
7
  6
CONTINUOUS
 10
639.247425403
 20
101.6385534914
 11
643.9973484126
 21
102.591217052
  0
LINE
  5
260
100
AcDbEntity
  8
RUNDUNGEN
100
AcDbLine
 62
7
  6
CONTINUOUS
 10
638.0712333054
 20
107.9546561242
 11
633.3213102958
 21
107.0019925635
  0
LINE
  5
261
100
AcDbEntity
  8
RUNDUNGEN
100
AcDbLine
 62
7
  6
CONTINUOUS
 10
633.0857533211
 20
118.0006795975
 11
631.2933295439
 21
117.6411839142
  0
LINE
  5
262
100
AcDbEntity
  8
RUNDUNGEN
100
AcDbLine
 62
7
  6
CONTINUOUS
 10
634.0008168306
 20
121.415743107
 11
632.2083930534
 21
121.0562474237
  0
LINE
  5
263
100
AcDbEntity
  8
0
100
AcDbLine
 62
7
  6
CONTINUOUS
 10
720.7759809937
 20
135.4014118054
 11
721.3668463989
 21
135.5162265949
  0
LINE
  5
264
100
AcDbEntity
  8
0
100
AcDbLine
 62
7
  6
CONTINUOUS
 10
721.242124874
 20
136.0959189983
 11
720.9466914283
 21
136.0385118206
  0
LINE
  5
265
100
AcDbEntity
  8
0
100
AcDbLine
 62
7
  6
CONTINUOUS
 10
712.5453187598
 20
137.6068111041
 11
713.1361849126
 21
137.7216256934
  0
LINE
  5
266
100
AcDbEntity
  8
0
100
AcDbLine
 62
7
  6
CONTINUOUS
 10
721.6978173201
 20
138.8417518117
 11
720.845660561
 21
138.7969498653
  0
LINE
  5
267
100
AcDbEntity
  8
0
100
AcDbLine
 62
7
  6
CONTINUOUS
 10
707.1961743366
 20
142.7274553381
 11
706.770095957
 21
142.7050543649
  0
LINE
  5
268
100
AcDbEntity
  8
0
100
AcDbLine
 62
7
  6
CONTINUOUS
 10
681.5819988826
 20
146.7228177294
 11
681.0487955989
 21
146.7291207878
  0
LINE
  5
269
100
AcDbEntity
  8
0
100
AcDbLine
 62
7
  6
CONTINUOUS
 10
675.5932594736
 20
148.3274956178
 11
675.060055476
 21
148.3337988674
  0
LINE
  5
26A
100
AcDbEntity
  8
0
100
AcDbLine
 62
7
  6
CONTINUOUS
 10
720.2192576773
 20
135.4140170255
 11
720.7759809937
 21
135.4014118054
  0
LINE
  5
26B
100
AcDbEntity
  8
0
100
AcDbLine
 62
7
  6
CONTINUOUS
 10
712.6195255957
 20
138.4063375116
 11
712.0628022822
 21
138.4189427429
  0
LINE
  5
26C
100
AcDbEntity
  8
0
100
AcDbLine
 62
7
  6
CONTINUOUS
 10
711.5252423935
 20
143.2063054019
 11
712.0819664546
 21
143.1936999702
  0
LINE
  5
26D
100
AcDbEntity
  8
0
100
AcDbLine
 62
7
  6
CONTINUOUS
 10
680.8439430786
 20
145.964600774
 11
681.5019127365
 21
145.9248666784
  0
LINE
  5
26E
100
AcDbEntity
  8
0
100
AcDbLine
 62
7
  6
CONTINUOUS
 10
674.8552029557
 20
147.5692788536
 11
675.5131718996
 21
147.5295449493
  0
LINE
  5
26F
100
AcDbEntity
  8
0
100
AcDbLine
 62
7
  6
CONTINUOUS
 10
720.9466914283
 20
136.0385118206
 11
720.2593216858
 21
136.0861236571
  0
LINE
  5
270
100
AcDbEntity
  8
0
100
AcDbLine
 62
7
  6
CONTINUOUS
 10
711.8579497619
 20
137.6544227291
 11
712.5453187598
 21
137.6068111041
  0
LINE
  5
271
100
AcDbEntity
  8
0
100
AcDbLine
 62
7
  6
CONTINUOUS
 10
720.181983007
 20
141.0233070763
 11
720.8693527495
 21
140.9756952398
  0
LINE
  5
272
100
AcDbEntity
  8
0
100
AcDbLine
 62
7
  6
CONTINUOUS
 10
712.286818951
 20
143.9582198948
 11
711.5994492084
 21
144.0058317313
  0
LINE
  5
273
100
AcDbEntity
  8
0
100
AcDbLine
 62
7
  6
CONTINUOUS
 10
721.1707080971
 20
141.5777889724
 11
720.2220484868
 21
141.695413218
  0
LINE
  5
274
100
AcDbEntity
  8
RUNDUNGEN
100
AcDbLine
 62
7
  6
CONTINUOUS
 10
722.5856516525
 20
132.3177343951
 11
698.1985610922
 21
138.8522356165
  0
LINE
  5
275
100
AcDbEntity
  8
RUNDUNGEN
100
AcDbLine
 62
7
  6
CONTINUOUS
 10
687.0853409829
 20
141.8300139701
 11
662.6982504226
 21
148.3645151914
  0
LINE
  5
276
100
AcDbEntity
  8
0
100
AcDbLine
 62
7
  6
CONTINUOUS
 10
666.6206852865
 20
149.7757112131
 11
667.3692778019
 21
149.5751264531
  0
LINE
  5
277
100
AcDbEntity
  8
0
100
AcDbLine
 62
7
  6
CONTINUOUS
 10
670.4884131637
 20
148.7393566519
 11
671.3617713362
 21
148.5053410348
  0
LINE
  5
278
100
AcDbEntity
  8
0
100
AcDbLine
 62
7
  6
CONTINUOUS
 10
674.3561410408
 20
147.7030020907
 11
674.8552029557
 21
147.5692788536
  0
LINE
  5
279
100
AcDbEntity
  8
0
100
AcDbLine
 62
7
  6
CONTINUOUS
 10
677.8495730172
 20
146.7669398138
 11
680.8439430786
 21
145.964600774
  0
LINE
  5
27A
100
AcDbEntity
  8
0
100
AcDbLine
 62
7
  6
CONTINUOUS
 10
700.7530877685
 20
140.6299615323
 11
701.5369603622
 21
140.4199235039
  0
LINE
  5
27B
100
AcDbEntity
  8
0
100
AcDbLine
 62
7
  6
CONTINUOUS
 10
702.5821237582
 20
140.1398728159
 11
703.3659963519
 21
139.9298347875
  0
LINE
  5
27C
100
AcDbEntity
  8
0
100
AcDbLine
 62
7
  6
CONTINUOUS
 10
706.6321322213
 20
139.0546763189
 11
707.5466504965
 21
138.8096318856
  0
LINE
  5
27D
100
AcDbEntity
  8
0
100
AcDbLine
 62
7
  6
CONTINUOUS
 10
710.6821408713
 20
137.9694797718
 11
711.8579497619
 21
137.6544227291
  0
LINE
  5
27E
100
AcDbEntity
  8
0
100
AcDbLine
 62
7
  6
CONTINUOUS
 10
715.516022115
 20
136.6742451963
 11
716.2998947087
 21
136.4642071678
  0
LINE
  5
27F
100
AcDbEntity
  8
0
100
AcDbLine
 62
7
  6
CONTINUOUS
 10
719.1740937206
 20
135.6940678637
 11
720.2192576773
 21
135.4140170255
  0
LINE
  5
280
100
AcDbEntity
  8
0
100
AcDbLine
 62
7
  6
CONTINUOUS
 10
720.2593216858
 20
136.0861236571
 11
719.4754490921
 21
136.2961616855
  0
LINE
  5
281
100
AcDbEntity
  8
0
100
AcDbLine
 62
7
  6
CONTINUOUS
 10
712.0628022822
 20
138.4189427429
 11
710.8869933916
 21
138.7339997856
  0
LINE
  5
282
100
AcDbEntity
  8
0
100
AcDbLine
 62
7
  6
CONTINUOUS
 10
681.0487955989
 20
146.7291207878
 11
678.8030180528
 21
147.3308750676
  0
LINE
  5
283
100
AcDbEntity
  8
0
100
AcDbLine
 62
7
  6
CONTINUOUS
 10
675.060055476
 20
148.3337988674
 11
674.5609935611
 21
148.4675221045
  0
LINE
  5
284
100
AcDbEntity
  8
0
100
AcDbLine
 62
7
  6
CONTINUOUS
 10
718.3738477879
 20
137.4107449465
 11
717.7206201281
 21
137.5857767705
  0
LINE
  5
285
100
AcDbEntity
  8
0
100
AcDbLine
 62
7
  6
CONTINUOUS
 10
712.4101458307
 20
140.2378292395
 11
713.5859547212
 21
139.9227721968
  0
LINE
  5
286
100
AcDbEntity
  8
0
100
AcDbLine
 62
7
  6
CONTINUOUS
 10
668.0862616349
 20
152.2509465461
 11
670.2072737023
 21
151.6826230755
  0
LINE
  5
287
100
AcDbEntity
  8
0
100
AcDbLine
 62
7
  6
CONTINUOUS
 10
704.0829801849
 20
142.6056548804
 11
706.3039524714
 21
142.0105471498
  0
LINE
  5
288
100
AcDbEntity
  8
0
100
AcDbLine
 62
7
  6
CONTINUOUS
 10
720.1865109993
 20
138.4272951343
 11
720.70909223
 21
138.2872699156
  0
LINE
  5
289
100
AcDbEntity
  8
0
100
AcDbLine
 62
7
  6
CONTINUOUS
 10
720.845660561
 20
138.7969498653
 11
720.3230793302
 21
138.9369750841
  0
LINE
  5
28A
100
AcDbEntity
  8
0
100
AcDbLine
 62
7
  6
CONTINUOUS
 10
714.5746798113
 20
140.4772540929
 11
712.6149983271
 21
141.002349164
  0
LINE
  5
28B
100
AcDbEntity
  8
0
100
AcDbLine
 62
7
  6
CONTINUOUS
 10
706.770095957
 20
142.7050543649
 11
704.2878326813
 21
143.370174805
  0
LINE
  5
28C
100
AcDbEntity
  8
0
100
AcDbLine
 62
7
  6
CONTINUOUS
 10
670.6616569777
 20
152.3802814293
 11
668.2911141313
 21
153.0154664706
  0
LINE
  5
28D
100
AcDbEntity
  8
0
100
AcDbLine
 62
7
  6
CONTINUOUS
 10
714.0980859622
 20
141.8340720082
 11
714.8819585559
 21
141.6240339798
  0
LINE
  5
28E
100
AcDbEntity
  8
0
100
AcDbLine
 62
7
  6
CONTINUOUS
 10
718.7048187689
 20
140.7362703864
 11
719.3580449336
 21
140.5612389631
  0
LINE
  5
28F
100
AcDbEntity
  8
0
100
AcDbLine
 62
7
  6
CONTINUOUS
 10
679.9979911158
 20
151.7905752522
 11
682.2437686619
 21
151.1888209724
  0
LINE
  5
290
100
AcDbEntity
  8
0
100
AcDbLine
 62
7
  6
CONTINUOUS
 10
712.0819664546
 20
143.1936999702
 11
713.2577753451
 21
142.8786429276
  0
LINE
  5
291
100
AcDbEntity
  8
0
100
AcDbLine
 62
7
  6
CONTINUOUS
 10
668.8032454679
 20
154.926766639
 11
671.1737883143
 21
154.2915815977
  0
LINE
  5
292
100
AcDbEntity
  8
0
100
AcDbLine
 62
7
  6
CONTINUOUS
 10
704.7999640179
 20
145.2814749733
 11
707.2822272936
 21
144.6163545332
  0
LINE
  5
293
100
AcDbEntity
  8
0
100
AcDbLine
 62
7
  6
CONTINUOUS
 10
720.8693527495
 20
140.9756952398
 11
721.3919339803
 21
140.8356700211
  0
LINE
  5
294
100
AcDbEntity
  8
0
100
AcDbLine
 62
7
  6
CONTINUOUS
 10
721.43199946
 20
141.5077761628
 11
721.1707080971
 21
141.5777889724
  0
LINE
  5
295
100
AcDbEntity
  8
0
100
AcDbLine
 62
7
  6
CONTINUOUS
 10
717.9045727884
 20
142.4529472908
 11
717.1207001947
 21
142.6629853192
  0
LINE
  5
296
100
AcDbEntity
  8
0
100
AcDbLine
 62
7
  6
CONTINUOUS
 10
713.4626278415
 20
143.6431628521
 11
712.286818951
 21
143.9582198948
  0
LINE
  5
297
100
AcDbEntity
  8
0
100
AcDbLine
 62
7
  6
CONTINUOUS
 10
707.3222923996
 20
145.2884607751
 11
704.1868018379
 21
146.1286129389
  0
LINE
  5
298
100
AcDbEntity
  8
0
100
AcDbLine
 62
7
  6
CONTINUOUS
 10
703.1416384419
 20
146.4086636268
 11
702.3577658482
 21
146.6187016553
  0
LINE
  5
299
100
AcDbEntity
  8
0
100
AcDbLine
 62
7
  6
CONTINUOUS
 10
682.4486211583
 20
151.9533408969
 11
679.4542510968
 21
152.7556799368
  0
LINE
  5
29A
100
AcDbEntity
  8
0
100
AcDbLine
 62
7
  6
CONTINUOUS
 10
678.4561279809
 20
153.0231262196
 11
677.7075354656
 21
153.2237109796
  0
LINE
  5
29B
100
AcDbEntity
  8
0
100
AcDbLine
 62
7
  6
CONTINUOUS
 10
674.7131654041
 20
154.0260500194
 11
673.9645725317
 21
154.226634875
  0
LINE
  5
29C
100
AcDbEntity
  8
0
100
AcDbLine
 62
7
  6
CONTINUOUS
 10
671.2197334277
 20
154.9621122963
 11
668.2253633662
 21
155.7644513361
  0
LINE
  5
29D
100
AcDbEntity
  8
RUNDUNGEN
100
AcDbLine
 62
7
  6
CONTINUOUS
 10
721.1805332788
 20
149.7293533002
 11
717.0389354296
 21
150.8390910993
  0
LINE
  5
29E
100
AcDbEntity
  8
RUNDUNGEN
100
AcDbLine
 62
7
  6
CONTINUOUS
 10
676.7625259314
 20
161.6311224984
 11
672.6209274767
 21
162.7408604597
  0
LINE
  5
29F
100
AcDbEntity
  8
RUNDUNGEN
100
AcDbLine
 62
7
  6
CONTINUOUS
 10
683.9517746619
 20
159.9020150811
 11
709.9483096862
 21
152.9362645154
  0
LINE
  5
2A0
100
AcDbEntity
  8
0
100
AcDbLine
 62
7
  6
CONTINUOUS
 10
722.3123749049
 20
141.1353119423
 11
721.43199946
 21
141.5077761628
  0
LINE
  5
2A1
100
AcDbEntity
  8
0
100
AcDbLine
 62
7
  6
CONTINUOUS
 10
720.70909223
 20
138.2872699156
 11
721.458822741
 21
137.9498118997
  0
LINE
  5
2A2
100
AcDbEntity
  8
0
100
AcDbLine
 62
7
  6
CONTINUOUS
 10
710.0630552972
 20
138.2719315943
 11
710.6821408713
 21
137.9694797718
  0
LINE
  5
2A3
100
AcDbEntity
  8
0
100
AcDbLine
 62
7
  6
CONTINUOUS
 10
719.4754490921
 20
136.2961616855
 11
718.8563650101
 21
136.5986130962
  0
LINE
  5
2A4
100
AcDbEntity
  8
0
100
AcDbLine
 62
7
  6
CONTINUOUS
 10
707.9413772291
 20
144.986009164
 11
707.3222923996
 21
145.2884607751
  0
LINE
  5
2A5
100
AcDbEntity
  8
0
100
AcDbLine
 62
7
  6
CONTINUOUS
 10
714.081712671
 20
143.3407112411
 11
713.4626278415
 21
143.6431628521
  0
LINE
  5
2A6
100
AcDbEntity
  8
0
100
AcDbLine
 62
7
  6
CONTINUOUS
 10
721.3919339803
 20
140.8356700211
 11
722.0110195574
 21
140.5332182097
  0
LINE
  5
2A7
100
AcDbEntity
  8
0
100
AcDbLine
 62
7
  6
CONTINUOUS
 10
673.7664562683
 20
147.9975759921
 11
674.3561410408
 21
147.7030020907
  0
LINE
  5
2A8
100
AcDbEntity
  8
0
100
AcDbLine
 62
7
  6
CONTINUOUS
 10
671.8094185601
 20
154.6675383103
 11
671.2197334277
 21
154.9621122963
  0
LINE
  5
2A9
100
AcDbEntity
  8
0
100
AcDbLine
 62
7
  6
CONTINUOUS
 10
683.0383066476
 20
151.6587668154
 11
682.4486211583
 21
151.9533408969
  0
LINE
  5
2AA
100
AcDbEntity
  8
0
100
AcDbLine
 62
7
  6
CONTINUOUS
 10
710.8869933916
 20
138.7339997856
 11
710.398553496
 21
139.0014451921
  0
LINE
  5
2AB
100
AcDbEntity
  8
0
100
AcDbLine
 62
7
  6
CONTINUOUS
 10
718.6856545756
 20
135.961513081
 11
719.1740937206
 21
135.6940678637
  0
LINE
  5
2AC
100
AcDbEntity
  8
0
100
AcDbLine
 62
7
  6
CONTINUOUS
 10
713.2577753451
 20
142.8786429276
 11
713.7462144932
 21
142.6111977214
  0
LINE
  5
2AD
100
AcDbEntity
  8
0
100
AcDbLine
 62
7
  6
CONTINUOUS
 10
674.5609935611
 20
148.4675221045
 11
674.0960744428
 21
148.7286651377
  0
LINE
  5
2AE
100
AcDbEntity
  8
0
100
AcDbLine
 62
7
  6
CONTINUOUS
 10
682.2437686619
 20
151.1888209724
 11
682.7086877801
 21
150.9276779392
  0
LINE
  5
2AF
100
AcDbEntity
  8
0
100
AcDbLine
 62
7
  6
CONTINUOUS
 10
707.2822272936
 20
144.6163545332
 11
707.6400215077
 21
144.3839155316
  0
LINE
  5
2B0
100
AcDbEntity
  8
0
100
AcDbLine
 62
7
  6
CONTINUOUS
 10
671.1737883143
 20
154.2915815977
 11
671.5139424892
 21
154.0638692303
  0
LINE
  5
2B1
100
AcDbEntity
  8
RUNDUNGEN
100
AcDbLine
 62
7
  6
CONTINUOUS
 10
737.1665186663
 20
87.5930000151
 11
731.4018645945
 21
92.6646860031
  0
LINE
  5
2B2
100
AcDbEntity
  8
RUNDUNGEN
100
AcDbLine
 62
7
  6
CONTINUOUS
 10
738.0815821757
 20
91.0080635245
 11
732.3169281039
 21
96.0797495125
  0
LINE
  5
2B3
100
AcDbEntity
  8
0
100
AcDbLine
 62
7
  6
CONTINUOUS
 10
673.3356785279
 20
148.3861392375
 11
673.7664562683
 21
147.9975759921
  0
LINE
  5
2B4
100
AcDbEntity
  8
RUNDUNGEN
100
AcDbLine
 62
7
  6
CONTINUOUS
 10
628.3407605984
 20
112.3150343249
 11
630.7856688376
 21
108.0319745976
  0
LINE
  5
2B5
100
AcDbEntity
  8
RUNDUNGEN
100
AcDbLine
 62
7
  6
CONTINUOUS
 10
637.3727769863
 20
96.4924913654
 11
650.1495872963
 21
74.1097120021
  0
LINE
  5
2B6
100
AcDbEntity
  8
RUNDUNGEN
100
AcDbLine
 62
7
  6
CONTINUOUS
 10
671.607377762
 20
36.5193449258
 11
676.7273057306
 21
27.5501096241
  0
LINE
  5
2B7
100
AcDbEntity
  8
RUNDUNGEN
100
AcDbLine
 62
7
  6
CONTINUOUS
 10
644.681593082
 20
102.0611512368
 11
642.2973024024
 21
106.2380194006
  0
LINE
  5
2B8
100
AcDbEntity
  8
0
100
AcDbLine
 62
7
  6
CONTINUOUS
 10
681.5019127365
 20
145.9248666784
 11
682.0692581119
 21
146.0459836409
  0
LINE
  5
2B9
100
AcDbEntity
  8
0
100
AcDbLine
 62
7
  6
CONTINUOUS
 10
675.5131718996
 20
147.5295449493
 11
676.0805179889
 21
147.6506617206
  0
LINE
  5
2BA
100
AcDbEntity
  8
0
100
AcDbLine
 62
7
  6
CONTINUOUS
 10
671.0241505616
 20
151.7368782425
 11
671.591496285
 21
151.857995076
  0
LINE
  5
2BB
100
AcDbEntity
  8
0
100
AcDbLine
 62
7
  6
CONTINUOUS
 10
720.2220484868
 20
141.695413218
 11
719.6311815954
 21
141.5805988625
  0
LINE
  5
2BC
100
AcDbEntity
  8
0
100
AcDbLine
 62
7
  6
CONTINUOUS
 10
707.1561092306
 20
142.0553490962
 11
707.7469753744
 21
142.170163652
  0
LINE
  5
2BD
100
AcDbEntity
  8
0
100
AcDbLine
 62
7
  6
CONTINUOUS
 10
711.5994492084
 20
144.0058317313
 11
711.0085838122
 21
143.8910169752
  0
LINE
  5
2BE
100
AcDbEntity
  8
0
100
AcDbLine
 62
7
  6
CONTINUOUS
 10
671.0700953181
 20
152.4074090368
 11
670.6616569777
 21
152.3802814293
  0
LINE
  5
2BF
100
AcDbEntity
  8
0
100
AcDbLine
 62
7
  6
CONTINUOUS
 10
722.4074823514
 20
137.8321876541
 11
721.8225403521
 21
138.2620590523
  0
LINE
  5
2C0
100
AcDbEntity
  8
0
100
AcDbLine
 62
7
  6
CONTINUOUS
 10
709.6087582409
 20
138.6667968214
 11
710.0630552972
 21
138.2719315943
  0
LINE
  5
2C1
100
AcDbEntity
  8
0
100
AcDbLine
 62
7
  6
CONTINUOUS
 10
718.2313560241
 20
136.3563787087
 11
718.6856545756
 21
135.961513081
  0
LINE
  5
2C2
100
AcDbEntity
  8
0
100
AcDbLine
 62
7
  6
CONTINUOUS
 10
718.8563650101
 20
136.5986130962
 11
718.6292157299
 21
136.7960458934
  0
LINE
  5
2C3
100
AcDbEntity
  8
0
100
AcDbLine
 62
7
  6
CONTINUOUS
 10
714.5360104839
 20
142.9458458472
 11
714.081712671
 21
143.3407112411
  0
LINE
  5
2C4
100
AcDbEntity
  8
0
100
AcDbLine
 62
7
  6
CONTINUOUS
 10
722.7666719702
 20
140.7404467487
 11
722.3123749049
 21
141.1353119423
  0
LINE
  5
2C5
100
AcDbEntity
  8
0
100
AcDbLine
 62
7
  6
CONTINUOUS
 10
683.4690836832
 20
151.2702037947
 11
683.0383066476
 21
151.6587668154
  0
LINE
  5
2C6
100
AcDbEntity
  8
0
100
AcDbLine
 62
7
  6
CONTINUOUS
 10
710.398553496
 20
139.0014451921
 11
710.0749013885
 21
139.3613042704
  0
LINE
  5
2C7
100
AcDbEntity
  8
0
100
AcDbLine
 62
7
  6
CONTINUOUS
 10
674.0960744428
 20
148.7286651377
 11
673.7900623745
 21
149.0837975817
  0
LINE
  5
2C8
100
AcDbEntity
  8
0
100
AcDbLine
 62
7
  6
CONTINUOUS
 10
682.7086877801
 20
150.9276779392
 11
683.0146998724
 21
150.5725455844
  0
LINE
  5
2C9
100
AcDbEntity
  8
0
100
AcDbLine
 62
7
  6
CONTINUOUS
 10
672.2060538698
 20
154.1515552066
 11
671.8094185601
 21
154.6675383103
  0
LINE
  5
2CA
100
AcDbEntity
  8
RUNDUNGEN
100
AcDbLine
 62
7
  6
CONTINUOUS
 10
705.5221462608
 20
22.6001794162
 11
692.1268401744
 21
46.0664572556
  0
LINE
  5
2CB
100
AcDbEntity
  8
RUNDUNGEN
100
AcDbLine
 62
7
  6
CONTINUOUS
 10
706.4372097703
 20
26.0152429257
 11
693.0419036839
 21
49.481520765
  0
LINE
  5
2CC
100
AcDbEntity
  8
0
100
AcDbLine
 62
7
  6
CONTINUOUS
 10
733.0699690724
 20
205.6205421485
 11
724.8619010827
 21
210.3594724119
  0
LINE
  5
2CD
100
AcDbEntity
  8
0
100
AcDbLine
 62
7
  6
CONTINUOUS
 10
717.9077039047
 20
136.7162377424
 11
718.2313560241
 21
136.3563787087
  0
LINE
  5
2CE
100
AcDbEntity
  8
0
100
AcDbLine
 62
7
  6
CONTINUOUS
 10
713.7462144932
 20
142.6111977214
 11
714.0698666246
 21
142.2513387323
  0
LINE
  5
2CF
100
AcDbEntity
  8
0
100
AcDbLine
 62
7
  6
CONTINUOUS
 10
721.458822741
 20
137.9498118997
 11
721.7824748724
 21
137.5899529106
  0
LINE
  5
2D0
100
AcDbEntity
  8
0
100
AcDbLine
 62
7
  6
CONTINUOUS
 10
722.0110195574
 20
140.5332182097
 11
722.3346716888
 21
140.1733592207
  0
LINE
  5
2D1
100
AcDbEntity
  8
0
100
AcDbLine
 62
7
  6
CONTINUOUS
 10
708.3615329592
 20
144.4637237827
 11
707.9413772291
 21
144.986009164
  0
LINE
  5
2D2
100
AcDbEntity
  8
0
100
AcDbLine
 62
7
  6
CONTINUOUS
 10
672.9731856698
 20
149.0295422776
 11
673.3356785279
 21
148.3861392375
  0
LINE
  5
2D3
100
AcDbEntity
  8
0
100
AcDbLine
 62
7
  6
CONTINUOUS
 10
671.5139424892
 20
154.0638692303
 11
671.6951892812
 21
153.7421676369
  0
LINE
  5
2D4
100
AcDbEntity
  8
0
100
AcDbLine
 62
7
  6
CONTINUOUS
 10
683.8315765532
 20
150.6268007993
 11
683.4690836832
 21
151.2702037947
  0
LINE
  5
2D5
100
AcDbEntity
  8
0
100
AcDbLine
 62
7
  6
CONTINUOUS
 10
673.4448991419
 20
85.1789482809
 11
675.2780467136
 21
81.1060041561
  0
LINE
  5
2D6
100
AcDbEntity
  8
0
100
AcDbLine
 62
7
  6
CONTINUOUS
 10
673.5638573982
 20
85.6229065371
 11
675.3970049698
 21
81.5499624123
  0
LINE
  5
2D7
100
AcDbEntity
  8
0
100
AcDbLine
 62
7
  6
CONTINUOUS
 10
676.670009843
 20
80.7330287597
 11
674.764003868
 21
84.9678519446
  0
LINE
  5
2D8
100
AcDbEntity
  8
RUNDUNGEN
100
AcDbLine
 62
7
  6
CONTINUOUS
 10
651.3477893251
 20
106.0040177237
 11
648.0757200624
 21
116.9747087829
  0
LINE
  5
2D9
100
AcDbEntity
  8
0
100
AcDbLine
 62
7
  6
CONTINUOUS
 10
699.7478295992
 20
217.0887675846
 11
690.2699690724
 21
217.0887675846
  0
LINE
  5
2DA
100
AcDbEntity
  8
0
100
AcDbLine
 62
7
  6
CONTINUOUS
 10
850.4789579909
 20
217.0887675846
 11
859.9568185176
 21
217.0887675846
  0
LINE
  5
2DB
100
AcDbEntity
  8
0
100
AcDbLine
 62
7
  6
CONTINUOUS
 10
830.6725563822
 20
97.8220994453
 11
838.9915970297
 21
89.9572369096
  0
LINE
  5
2DC
100
AcDbEntity
  8
0
100
AcDbLine
 62
7
  6
CONTINUOUS
 10
709.2227446055
 20
139.3165022348
 11
709.6087582409
 21
138.6667968214
  0
LINE
  5
2DD
100
AcDbEntity
  8
0
100
AcDbLine
 62
7
  6
CONTINUOUS
 10
707.6400215077
 20
144.3839155316
 11
707.8330283314
 21
144.0590628472
  0
LINE
  5
2DE
100
AcDbEntity
  8
0
100
AcDbLine
 62
7
  6
CONTINUOUS
 10
714.9220241313
 20
142.2961404784
 11
714.5360104839
 21
142.9458458472
  0
LINE
  5
2DF
100
AcDbEntity
  8
0
100
AcDbLine
 62
7
  6
CONTINUOUS
 10
718.6292157299
 20
136.7960458934
 11
718.4362085564
 21
137.1208987671
  0
LINE
  5
2E0
100
AcDbEntity
  8
0
100
AcDbLine
 62
7
  6
CONTINUOUS
 10
723.1526863652
 20
140.0907411796
 11
722.7666719702
 21
140.7404467487
  0
LINE
  5
2E1
100
AcDbEntity
  8
0
100
AcDbLine
 62
7
  6
CONTINUOUS
 10
672.4437817966
 20
153.5415828769
 11
672.2060538698
 21
154.1515552066
  0
LINE
  5
2E2
100
AcDbEntity
  8
0
100
AcDbLine
 62
7
  6
CONTINUOUS
 10
673.7900623745
 20
149.0837975817
 11
673.6429573083
 21
149.5329192582
  0
LINE
  5
2E3
100
AcDbEntity
  8
0
100
AcDbLine
 62
7
  6
CONTINUOUS
 10
614.113393795
 20
658.1287393375
 11
614.113393795
 21
448.1287393375
  0
LINE
  5
2E4
100
AcDbEntity
  8
0
100
AcDbLine
 62
7
  6
CONTINUOUS
 10
708.6169005513
 20
143.8490249189
 11
708.3615329592
 21
144.4637237827
  0
LINE
  5
2E5
100
AcDbEntity
  8
0
100
AcDbLine
 62
7
  6
CONTINUOUS
 10
710.0749013885
 20
139.3613042704
 11
709.9160370214
 21
139.8135768421
  0
LINE
  5
2E6
100
AcDbEntity
  8
0
100
AcDbLine
 62
7
  6
CONTINUOUS
 10
717.748840285
 20
137.1685101138
 11
717.9077039047
 21
136.7162377424
  0
LINE
  5
2E7
100
AcDbEntity
  8
0
100
AcDbLine
 62
7
  6
CONTINUOUS
 10
683.0146998724
 20
150.5725455844
 11
683.1618048429
 21
150.1234235509
  0
LINE
  5
2E8
100
AcDbEntity
  8
0
100
AcDbLine
 62
7
  6
CONTINUOUS
 10
672.8602230672
 20
149.6060839351
 11
672.9731856698
 21
149.0295422776
  0
LINE
  5
2E9
100
AcDbEntity
  8
0
100
AcDbLine
 62
7
  6
CONTINUOUS
 10
671.3617713362
 20
148.5053410348
 11
671.0241505616
 21
151.7368782425
  0
LINE
  5
2EA
100
AcDbEntity
  8
0
100
AcDbLine
 62
7
  6
CONTINUOUS
 10
670.2072737023
 20
151.6826230755
 11
670.4884131637
 21
148.7393566519
  0
LINE
  5
2EB
100
AcDbEntity
  8
0
100
AcDbLine
 62
7
  6
CONTINUOUS
 10
671.6951892812
 20
153.7421676369
 11
671.7175283333
 21
153.3264769132
  0
LINE
  5
2EC
100
AcDbEntity
  8
0
100
AcDbLine
 62
7
  6
CONTINUOUS
 10
672.4661208486
 20
153.1258921532
 11
672.4437817966
 21
153.5415828769
  0
LINE
  5
2ED
100
AcDbEntity
  8
0
100
AcDbLine
 62
7
  6
CONTINUOUS
 10
650.113393795
 20
658.1287393375
 11
650.113393795
 21
448.1287393375
  0
LINE
  5
2EE
100
AcDbEntity
  8
0
100
AcDbLine
 62
7
  6
CONTINUOUS
 10
658.9381945085
 20
185.7569930206
 11
658.9381945085
 21
162.8205421485
  0
LINE
  5
2EF
100
AcDbEntity
  8
0
100
AcDbLine
 62
7
  6
CONTINUOUS
 10
859.9568185176
 20
217.0887675846
 11
879.8203676455
 21
205.6205421485
  0
LINE
  5
2F0
100
AcDbEntity
  8
0
100
AcDbLine
 62
7
  6
CONTINUOUS
 10
744.5381945085
 20
185.7569930206
 11
733.0699690724
 21
205.6205421485
  0
LINE
  5
2F1
100
AcDbEntity
  8
0
100
AcDbLine
 62
7
  6
CONTINUOUS
 10
722.5663474661
 20
137.3799148822
 11
722.4074823514
 21
137.8321876541
  0
LINE
  5
2F2
100
AcDbEntity
  8
0
100
AcDbLine
 62
7
  6
CONTINUOUS
 10
722.3346716888
 20
140.1733592207
 11
722.4935353084
 21
139.7210868493
  0
LINE
  5
2F3
100
AcDbEntity
  8
0
100
AcDbLine
 62
7
  6
CONTINUOUS
 10
709.0980223449
 20
139.8961948831
 11
709.2227446055
 21
139.3165022348
  0
LINE
  5
2F4
100
AcDbEntity
  8
0
100
AcDbLine
 62
7
  6
CONTINUOUS
 10
718.4362085564
 20
137.1208987671
 11
718.3738477879
 21
137.4107449465
  0
LINE
  5
2F5
100
AcDbEntity
  8
0
100
AcDbLine
 62
7
  6
CONTINUOUS
 10
683.9445395367
 20
150.0502591354
 11
683.8315765532
 21
150.6268007993
  0
LINE
  5
2F6
100
AcDbEntity
  8
0
100
AcDbLine
 62
7
  6
CONTINUOUS
 10
707.8330283314
 20
144.0590628472
 11
707.8612473909
 21
143.6417965802
  0
LINE
  5
2F7
100
AcDbEntity
  8
0
100
AcDbLine
 62
7
  6
CONTINUOUS
 10
708.6451199846
 20
143.4317585518
 11
708.6169005513
 21
143.8490249189
  0
LINE
  5
2F8
100
AcDbEntity
  8
0
100
AcDbLine
 62
7
  6
CONTINUOUS
 10
673.6429573083
 20
149.5329192582
 11
673.6547606959
 21
150.0760298737
  0
LINE
  5
2F9
100
AcDbEntity
  8
0
100
AcDbLine
 62
7
  6
CONTINUOUS
 10
683.1618048429
 20
150.1234235509
 11
683.1500014553
 21
149.5803129354
  0
LINE
  5
2FA
100
AcDbEntity
  8
0
100
AcDbLine
 62
7
  6
CONTINUOUS
 10
672.9061678236
 20
150.2766147293
 11
672.8602230672
 21
149.6060839351
  0
LINE
  5
2FB
100
AcDbEntity
  8
0
100
AcDbLine
 62
7
  6
CONTINUOUS
 10
654.6718630027
 20
146.8983762072
 11
653.9825247582
 21
139.0192040179
  0
LINE
  5
2FC
100
AcDbEntity
  8
0
100
AcDbLine
 62
7
  6
CONTINUOUS
 10
805.6885930816
 20
162.8205421485
 11
817.1568185176
 21
142.9569930206
  0
LINE
  5
2FD
100
AcDbEntity
  8
0
100
AcDbLine
 62
7
  6
CONTINUOUS
 10
721.7824748724
 20
137.5899529106
 11
721.9071978566
 21
137.0102599727
  0
LINE
  5
2FE
100
AcDbEntity
  8
0
100
AcDbLine
 62
7
  6
CONTINUOUS
 10
707.5466504965
 20
138.8096318856
 11
707.1561092306
 21
142.0553490962
  0
LINE
  5
2FF
100
AcDbEntity
  8
0
100
AcDbLine
 62
7
  6
CONTINUOUS
 10
706.3039524714
 20
142.0105471498
 11
706.6321322213
 21
139.0546763189
  0
LINE
  5
300
100
AcDbEntity
  8
0
100
AcDbLine
 62
7
  6
CONTINUOUS
 10
714.0698666246
 20
142.2513387323
 11
714.0980859622
 21
141.8340720082
  0
LINE
  5
301
100
AcDbEntity
  8
0
100
AcDbLine
 62
7
  6
CONTINUOUS
 10
717.7206201281
 20
137.5857767705
 11
717.748840285
 21
137.1685101138
  0
LINE
  5
302
100
AcDbEntity
  8
0
100
AcDbLine
 62
7
  6
CONTINUOUS
 10
709.9160370214
 20
139.8135768421
 11
709.9219596708
 21
140.3582631966
  0
LINE
  5
303
100
AcDbEntity
  8
0
100
AcDbLine
 62
7
  6
CONTINUOUS
 10
683.8985939707
 20
149.3797281755
 11
683.9445395367
 21
150.0502591354
  0
LINE
  5
304
100
AcDbEntity
  8
RUNDUNGEN
100
AcDbLine
 62
7
  6
CONTINUOUS
 10
627.9224769722
 20
114.9464356454
 11
628.8375404817
 21
118.3614991548
  0
LINE
  5
305
100
AcDbEntity
  8
0
100
AcDbLine
 62
7
  6
CONTINUOUS
 10
821.4231500234
 20
127.0348270793
 11
824.7657516865
 21
119.8665946803
  0
LINE
  5
306
100
AcDbEntity
  8
0
100
AcDbLine
 62
7
  6
CONTINUOUS
 10
744.5381945085
 20
162.8205421485
 11
744.5381945085
 21
185.7569930206
  0
LINE
  5
307
100
AcDbEntity
  8
0
100
AcDbLine
 62
7
  6
CONTINUOUS
 10
722.5604240213
 20
136.8352285494
 11
722.5663474661
 21
137.3799148822
  0
LINE
  5
308
100
AcDbEntity
  8
0
100
AcDbLine
 62
7
  6
CONTINUOUS
 10
723.1467629682
 20
139.5460550254
 11
723.1526863652
 21
140.0907411796
  0
LINE
  5
309
100
AcDbEntity
  8
0
100
AcDbLine
 62
7
  6
CONTINUOUS
 10
709.1380870771
 20
140.5683012251
 11
709.0980223449
 21
139.8961948831
  0
LINE
  5
30A
100
AcDbEntity
  8
0
100
AcDbLine
 62
7
  6
CONTINUOUS
 10
714.8819585559
 20
141.6240339798
 11
714.9220241313
 21
142.2961404784
  0
LINE
  5
30B
100
AcDbEntity
  8
RUNDUNGEN
100
AcDbLine
 62
7
  6
CONTINUOUS
 10
618.7230014466
 20
34.4747947045
 11
621.854020683
 21
46.1599175742
  0
LINE
  5
30C
100
AcDbEntity
  8
RUNDUNGEN
100
AcDbLine
 62
7
  6
CONTINUOUS
 10
637.2368348078
 20
97.3476967945
 11
638.1518983172
 21
100.762760304
  0
LINE
  5
30D
100
AcDbEntity
  8
0
100
AcDbLine
 62
7
  6
CONTINUOUS
 10
654.6718630027
 20
146.8983762072
 11
658.9381945085
 21
162.8205421485
  0
LINE
  5
30E
100
AcDbEntity
  8
RUNDUNGEN
100
AcDbLine
 62
7
  6
CONTINUOUS
 10
648.0757200624
 20
116.9747087829
 11
659.1402342405
 21
158.2680378567
  0
LINE
  5
30F
100
AcDbEntity
  8
RUNDUNGEN
100
AcDbLine
 62
7
  6
CONTINUOUS
 10
627.3756898491
 20
28.130034393
 11
628.9312978152
 21
33.9356423591
  0
LINE
  5
310
100
AcDbEntity
  8
0
100
AcDbLine
 62
7
  6
CONTINUOUS
 10
668.2253633662
 20
155.7644513361
 11
666.6206852865
 21
149.7757112131
  0
LINE
  5
311
100
AcDbEntity
  8
0
100
AcDbLine
 62
7
  6
CONTINUOUS
 10
667.3692778019
 20
149.5751264531
 11
668.0862616349
 21
152.2509465461
  0
LINE
  5
312
100
AcDbEntity
  8
0
100
AcDbLine
 62
7
  6
CONTINUOUS
 10
668.2911141313
 20
153.0154664706
 11
668.8032454679
 21
154.926766639
  0
LINE
  5
313
100
AcDbEntity
  8
0
100
AcDbLine
 62
7
  6
CONTINUOUS
 10
671.7175283333
 20
153.3264769132
 11
671.6151019894
 21
152.9442165939
  0
LINE
  5
314
100
AcDbEntity
  8
0
100
AcDbLine
 62
7
  6
CONTINUOUS
 10
672.3295524221
 20
152.6162118465
 11
672.4661208486
 21
153.1258921532
  0
LINE
  5
315
100
AcDbEntity
  8
0
100
AcDbLine
 62
7
  6
CONTINUOUS
 10
673.9645725317
 20
154.226634875
 11
672.9061678236
 21
150.2766147293
  0
LINE
  5
316
100
AcDbEntity
  8
KONSTRUKTIONSELEMENTE
100
AcDbLine
 62
7
  6
CONTINUOUS
 10
666.2759150544
 20
124.7801144427
 11
666.9229626672
 21
127.1949290084
  0
LINE
  5
317
100
AcDbEntity
  8
0
100
AcDbLine
 62
7
  6
CONTINUOUS
 10
673.6547606959
 20
150.0760298737
 11
674.7131654041
 21
154.0260500194
  0
LINE
  5
318
100
AcDbEntity
  8
0
100
AcDbLine
 62
7
  6
CONTINUOUS
 10
660.0657245001
 20
92.034129167
 11
658.4954755179
 21
86.1738801848
  0
LINE
  5
319
100
AcDbEntity
  8
0
100
AcDbLine
 62
7
  6
CONTINUOUS
 10
677.7075354656
 20
153.2237109796
 11
676.6491307574
 21
149.2736908339
  0
LINE
  5
31A
100
AcDbEntity
  8
0
100
AcDbLine
 62
7
  6
CONTINUOUS
 10
677.3977232728
 20
149.0731060739
 11
678.4561279809
 21
153.0231262196
  0
LINE
  5
31B
100
AcDbEntity
  8
0
100
AcDbLine
 62
7
  6
CONTINUOUS
 10
661.1582223487
 20
86.3168987667
 11
661.7054303274
 21
88.3591067453
  0
LINE
  5
31C
100
AcDbEntity
  8
0
100
AcDbLine
 62
7
  6
CONTINUOUS
 10
661.8719718861
 20
88.9806483041
 11
662.4191798648
 21
91.0228562827
  0
LINE
  5
31D
100
AcDbEntity
  8
0
100
AcDbLine
 62
7
  6
CONTINUOUS
 10
821.4231500234
 20
127.0348270793
 11
817.1568185176
 21
142.9569930206
  0
LINE
  5
31E
100
AcDbEntity
  8
0
100
AcDbLine
 62
7
  6
CONTINUOUS
 10
819.6080422041
 20
139.1154285191
 11
830.6725563822
 21
97.8220994453
  0
LINE
  5
31F
100
AcDbEntity
  8
0
100
AcDbLine
 62
7
  6
CONTINUOUS
 10
679.4542510968
 20
152.7556799368
 11
677.8495730172
 21
146.7669398138
  0
LINE
  5
320
100
AcDbEntity
  8
0
100
AcDbLine
 62
7
  6
CONTINUOUS
 10
662.8010507585
 20
90.1877514267
 11
662.5012759528
 21
89.068976621
  0
LINE
  5
321
100
AcDbEntity
  8
0
100
AcDbLine
 62
7
  6
CONTINUOUS
 10
662.0873012212
 20
87.5240018894
 11
661.7875264155
 21
86.4052270837
  0
LINE
  5
322
100
AcDbEntity
  8
0
100
AcDbLine
 62
7
  6
CONTINUOUS
 10
662.5439150707
 20
87.3445526141
 11
662.586740043
 21
87.5043775864
  0
LINE
  5
323
100
AcDbEntity
  8
0
100
AcDbLine
 62
7
  6
CONTINUOUS
 10
662.6938024736
 20
87.903940017
 11
662.8365523811
 21
88.4366899244
  0
LINE
  5
324
100
AcDbEntity
  8
0
100
AcDbLine
 62
7
  6
CONTINUOUS
 10
662.9436148117
 20
88.8362523551
 11
663.1053980401
 21
89.4400355835
  0
LINE
  5
325
100
AcDbEntity
  8
0
100
AcDbLine
 62
7
  6
CONTINUOUS
 10
678.8030180528
 20
147.3308750676
 11
679.9979911158
 21
151.7905752522
  0
LINE
  5
326
100
AcDbEntity
  8
0
100
AcDbLine
 62
7
  6
CONTINUOUS
 10
663.4016189894
 20
88.2852807831
 11
663.258869082
 21
87.7525308756
  0
LINE
  5
327
100
AcDbEntity
  8
0
100
AcDbLine
 62
7
  6
CONTINUOUS
 10
663.6704646485
 20
89.2886264421
 11
663.50868142
 21
88.6848432137
  0
LINE
  5
328
100
AcDbEntity
  8
0
100
AcDbLine
 62
7
  6
CONTINUOUS
 10
663.1518066514
 20
87.352968445
 11
663.1089816791
 21
87.1931434727
  0
LINE
  5
329
100
AcDbEntity
  8
0
100
AcDbLine
 62
7
  6
CONTINUOUS
 10
663.2943707045
 20
86.0014693733
 11
663.5941455102
 21
87.120244179
  0
LINE
  5
32A
100
AcDbEntity
  8
0
100
AcDbLine
 62
7
  6
CONTINUOUS
 10
664.0081202419
 20
88.6652189107
 11
664.3078950476
 21
89.7839937164
  0
LINE
  5
32B
100
AcDbEntity
  8
0
100
AcDbLine
 62
7
  6
CONTINUOUS
 10
665.0561573705
 20
90.3162802896
 11
664.5089493919
 21
88.2740723109
  0
LINE
  5
32C
100
AcDbEntity
  8
0
100
AcDbLine
 62
7
  6
CONTINUOUS
 10
664.3424078331
 20
87.6525307522
 11
663.7951998545
 21
85.6103227736
  0
LINE
  5
32D
100
AcDbEntity
  8
0
100
AcDbLine
 62
7
  6
CONTINUOUS
 10
733.5535102481
 20
343.2532853508
 11
690.6197782684
 21
183.0224162442
  0
LINE
  5
32E
100
AcDbEntity
  8
0
100
AcDbLine
 62
7
  6
CONTINUOUS
 10
683.1500014553
 20
149.5803129354
 11
682.6378701665
 21
147.6690129455
  0
LINE
  5
32F
100
AcDbEntity
  8
0
100
AcDbLine
 62
7
  6
CONTINUOUS
 10
666.0296969629
 20
84.155091633
 11
667.5999459452
 21
90.0153406152
  0
LINE
  5
330
100
AcDbEntity
  8
0
100
AcDbLine
 62
7
  6
CONTINUOUS
 10
683.3864626819
 20
147.4684281856
 11
683.8985939707
 21
149.3797281755
  0
LINE
  5
331
100
AcDbEntity
  8
0
100
AcDbLine
 62
7
  6
CONTINUOUS
 10
670.1860455016
 20
89.8933969575
 11
669.9695414752
 21
89.0853929311
  0
LINE
  5
332
100
AcDbEntity
  8
0
100
AcDbLine
 62
7
  6
CONTINUOUS
 10
669.7696916047
 20
88.3395430607
 11
668.3302967044
 21
82.9676481603
  0
LINE
  5
333
100
AcDbEntity
  8
0
100
AcDbLine
 62
7
  6
CONTINUOUS
 10
679.8376578231
 20
121.1462564199
 11
675.9841668111
 21
106.7648321766
  0
LINE
  5
334
100
AcDbEntity
  8
KONSTRUKTIONSELEMENTE
100
AcDbLine
 62
7
  6
CONTINUOUS
 10
679.8376578231
 20
121.1462564199
 11
684.2893453988
 21
137.760180632
  0
LINE
  5
335
100
AcDbEntity
  8
0
100
AcDbLine
 62
7
  6
CONTINUOUS
 10
669.5357721356
 20
82.644641992
 11
670.5501688202
 21
86.4304219579
  0
LINE
  5
336
100
AcDbEntity
  8
0
100
AcDbLine
 62
7
  6
CONTINUOUS
 10
670.6596104159
 20
86.8388635536
 11
670.975167036
 21
88.0165368924
  0
LINE
  5
337
100
AcDbEntity
  8
0
100
AcDbLine
 62
7
  6
CONTINUOUS
 10
673.4448991419
 20
85.1789482809
 11
673.5638573982
 21
85.6229065371
  0
LINE
  5
338
100
AcDbEntity
  8
KONSTRUKTIONSELEMENTE
100
AcDbLine
 62
7
  6
CONTINUOUS
 10
685.8241418574
 20
128.4196761044
 11
685.9354471518
 21
128.8350731183
  0
LINE
  5
339
100
AcDbEntity
  8
KONSTRUKTIONSELEMENTE
100
AcDbLine
 62
7
  6
CONTINUOUS
 10
693.6594482261
 20
157.6614375655
 11
693.988006035
 21
158.8876320015
  0
LINE
  5
33A
100
AcDbEntity
  8
0
100
AcDbLine
 62
7
  6
CONTINUOUS
 10
674.764003868
 20
84.9678519446
 11
674.8829621242
 21
85.4118102008
  0
LINE
  5
33B
100
AcDbEntity
  8
KONSTRUKTIONSELEMENTE
100
AcDbLine
 62
7
  6
CONTINUOUS
 10
678.7719111299
 20
98.2366894176
 11
682.040738206
 21
110.4361181469
  0
LINE
  5
33C
100
AcDbEntity
  8
KONSTRUKTIONSELEMENTE
100
AcDbLine
 62
7
  6
CONTINUOUS
 10
694.6025098436
 20
157.3172881313
 11
697.4468324882
 21
167.9324447543
  0
LINE
  5
33D
100
AcDbEntity
  8
0
100
AcDbLine
 62
7
  6
CONTINUOUS
 10
675.9123782301
 20
86.9380346657
 11
675.7934199739
 21
86.4940764095
  0
LINE
  5
33E
100
AcDbEntity
  8
KONSTRUKTIONSELEMENTE
100
AcDbLine
 62
7
  6
CONTINUOUS
 10
687.0315491402
 20
128.096152298
 11
691.0873687755
 21
143.2326772434
  0
LINE
  5
33F
100
AcDbEntity
  8
0
100
AcDbLine
 62
7
  6
CONTINUOUS
 10
675.2780467136
 20
81.1060041561
 11
675.3970049698
 21
81.5499624123
  0
LINE
  5
340
100
AcDbEntity
  8
0
100
AcDbLine
 62
7
  6
CONTINUOUS
 10
679.2271112356
 20
87.4708506953
 11
678.0529540884
 21
83.0888365659
  0
LINE
  5
341
100
AcDbEntity
  8
0
100
AcDbLine
 62
7
  6
CONTINUOUS
 10
679.2584295196
 20
82.7658303976
 11
680.4325866668
 21
87.147844527
  0
LINE
  5
342
100
AcDbEntity
  8
KONSTRUKTIONSELEMENTE
100
AcDbLine
 62
7
  6
CONTINUOUS
 10
691.3782153585
 20
126.9314665951
 11
695.4340349938
 21
142.0679915404
  0
LINE
  5
343
100
AcDbEntity
  8
KONSTRUKTIONSELEMENTE
100
AcDbLine
 62
7
  6
CONTINUOUS
 10
683.6171506026
 20
97.000852779
 11
686.8703673375
 21
109.1420229214
  0
LINE
  5
344
100
AcDbEntity
  8
KONSTRUKTIONSELEMENTE
100
AcDbLine
 62
7
  6
CONTINUOUS
 10
699.4477493163
 20
156.0814514927
 11
702.2764616197
 21
166.6383495288
  0
LINE
  5
345
100
AcDbEntity
  8
KONSTRUKTIONSELEMENTE
100
AcDbLine
 62
7
  6
CONTINUOUS
 10
700.749486819
 20
157.0758986858
 11
700.4209290101
 21
155.8497042497
  0
LINE
  5
346
100
AcDbEntity
  8
KONSTRUKTIONSELEMENTE
100
AcDbLine
 62
7
  6
CONTINUOUS
 10
692.6969279358
 20
127.0233398026
 11
692.5856226414
 21
126.6079427887
  0
LINE
  5
347
100
AcDbEntity
  8
0
100
AcDbLine
 62
7
  6
CONTINUOUS
 10
685.1717819285
 20
85.8779809839
 11
683.9976247813
 21
81.4959668545
  0
LINE
  5
348
100
AcDbEntity
  8
0
100
AcDbLine
 62
7
  6
CONTINUOUS
 10
690.2798690401
 20
102.9343103091
 11
694.1333600521
 21
117.3157345523
  0
LINE
  5
349
100
AcDbEntity
  8
KONSTRUKTIONSELEMENTE
100
AcDbLine
 62
7
  6
CONTINUOUS
 10
694.1333600521
 20
117.3157345523
 11
698.5850476592
 21
133.9296588812
  0
LINE
  5
34A
100
AcDbEntity
  8
0
100
AcDbLine
 62
7
  6
CONTINUOUS
 10
702.3577658482
 20
146.6187016553
 11
700.7530877685
 21
140.6299615323
  0
LINE
  5
34B
100
AcDbEntity
  8
0
100
AcDbLine
 62
7
  6
CONTINUOUS
 10
685.2031002125
 20
81.1729606862
 11
686.3772573597
 21
85.5549748156
  0
LINE
  5
34C
100
AcDbEntity
  8
0
100
AcDbLine
 62
7
  6
CONTINUOUS
 10
701.5369603622
 20
140.4199235039
 11
703.1416384419
 21
146.4086636268
  0
LINE
  5
34D
100
AcDbEntity
  8
0
100
AcDbLine
 62
7
  6
CONTINUOUS
 10
704.1868018379
 20
146.1286129389
 11
702.5821237582
 21
140.1398728159
  0
LINE
  5
34E
100
AcDbEntity
  8
0
100
AcDbLine
 62
7
  6
CONTINUOUS
 10
703.3659963519
 20
139.9298347875
 11
704.0829801849
 21
142.6056548804
  0
LINE
  5
34F
100
AcDbEntity
  8
0
100
AcDbLine
 62
7
  6
CONTINUOUS
 10
704.2878326813
 20
143.370174805
 11
704.7999640179
 21
145.2814749733
  0
LINE
  5
350
100
AcDbEntity
  8
0
100
AcDbLine
 62
7
  6
CONTINUOUS
 10
689.0142348655
 20
84.8483988224
 11
688.7858350135
 21
83.9959989705
  0
LINE
  5
351
100
AcDbEntity
  8
0
100
AcDbLine
 62
7
  6
CONTINUOUS
 10
688.5859851431
 20
83.2501491
 11
687.1584860683
 21
77.9226500253
  0
LINE
  5
352
100
AcDbEntity
  8
0
100
AcDbLine
 62
7
  6
CONTINUOUS
 10
688.601878012
 20
78.4875603694
 11
689.7914605743
 21
82.9271429317
  0
LINE
  5
353
100
AcDbEntity
  8
0
100
AcDbLine
 62
7
  6
CONTINUOUS
 10
879.8203676455
 20
205.6205421485
 11
891.2885930816
 21
185.7569930206
  0
LINE
  5
354
100
AcDbEntity
  8
0
100
AcDbLine
 62
7
  6
CONTINUOUS
 10
842.5316847693
 20
113.6818765295
 11
841.8846371565
 21
116.0966910953
  0
LINE
  5
355
100
AcDbEntity
  8
0
100
AcDbLine
 62
7
  6
CONTINUOUS
 10
834.5080525918
 20
176.2367120428
 11
791.5440911047
 21
336.5803992068
  0
LINE
  5
356
100
AcDbEntity
  8
0
100
AcDbLine
 62
7
  6
CONTINUOUS
 10
851.6417399309
 20
133.9296588812
 11
859.9469185499
 21
102.9343103091
  0
LINE
  5
357
100
AcDbEntity
  8
0
100
AcDbLine
 62
7
  6
CONTINUOUS
 10
805.6885930816
 20
162.8205421485
 11
805.6885930816
 21
185.7569930206
  0
LINE
  5
358
100
AcDbEntity
  8
0
100
AcDbLine
 62
7
  6
CONTINUOUS
 10
758.6675817316
 20
336.5239901782
 11
715.7338497519
 21
176.2931210715
  0
LINE
  5
359
100
AcDbEntity
  8
0
100
AcDbLine
 62
7
  6
CONTINUOUS
 10
707.8612473909
 20
143.6417965802
 11
707.7588210471
 21
143.259536261
  0
LINE
  5
35A
100
AcDbEntity
  8
0
100
AcDbLine
 62
7
  6
CONTINUOUS
 10
708.5085515581
 20
142.9220782451
 11
708.6451199846
 21
143.4317585518
  0
LINE
  5
35B
100
AcDbEntity
  8
0
100
AcDbLine
 62
7
  6
CONTINUOUS
 10
709.6502183659
 20
142.479601215
 11
709.1380870771
 21
140.5683012251
  0
LINE
  5
35C
100
AcDbEntity
  8
0
100
AcDbLine
 62
7
  6
CONTINUOUS
 10
709.9219596708
 20
140.3582631966
 11
710.4340909596
 21
142.2695631865
  0
LINE
  5
35D
100
AcDbEntity
  8
0
100
AcDbLine
 62
7
  6
CONTINUOUS
 10
694.6048903448
 20
80.1337559532
 11
694.4859320886
 21
79.6897976969
  0
LINE
  5
35E
100
AcDbEntity
  8
0
100
AcDbLine
 62
7
  6
CONTINUOUS
 10
712.6149983271
 20
141.002349164
 11
712.4101458307
 21
140.2378292395
  0
LINE
  5
35F
100
AcDbEntity
  8
0
100
AcDbLine
 62
7
  6
CONTINUOUS
 10
713.5859547212
 20
139.9227721968
 11
713.3128180116
 21
138.9034121189
  0
LINE
  5
360
100
AcDbEntity
  8
0
100
AcDbLine
 62
7
  6
CONTINUOUS
 10
714.0625485225
 20
138.565954103
 11
714.5746798113
 21
140.4772540929
  0
LINE
  5
361
100
AcDbEntity
  8
KONSTRUKTIONSELEMENTE
100
AcDbLine
 62
7
  6
CONTINUOUS
 10
707.6951028208
 20
113.6818765295
 11
708.3421504335
 21
116.0966910953
  0
LINE
  5
362
100
AcDbEntity
  8
0
100
AcDbLine
 62
7
  6
CONTINUOUS
 10
716.0978330218
 20
141.9810834357
 11
715.8246962643
 21
140.9617231793
  0
LINE
  5
363
100
AcDbEntity
  8
0
100
AcDbLine
 62
7
  6
CONTINUOUS
 10
716.8475635328
 20
141.6436254198
 11
715.516022115
 21
136.6742451963
  0
LINE
  5
364
100
AcDbEntity
  8
0
100
AcDbLine
 62
7
  6
CONTINUOUS
 10
716.2998947087
 20
136.4642071678
 11
717.9045727884
 21
142.4529472908
  0
LINE
  5
365
100
AcDbEntity
  8
0
100
AcDbLine
 62
7
  6
CONTINUOUS
 10
720.3230793302
 20
138.9369750841
 11
720.1865109993
 21
138.4272951343
  0
LINE
  5
366
100
AcDbEntity
  8
0
100
AcDbLine
 62
7
  6
CONTINUOUS
 10
722.4935353084
 20
139.7210868493
 11
722.4252510473
 21
139.4662465175
  0
LINE
  5
367
100
AcDbEntity
  8
0
100
AcDbLine
 62
7
  6
CONTINUOUS
 10
721.9071978566
 20
137.0102599727
 11
721.7706295257
 21
136.500580023
  0
LINE
  5
368
100
AcDbEntity
  8
0
100
AcDbLine
 62
7
  6
CONTINUOUS
 10
723.0784787071
 20
139.2912146936
 11
723.1467629682
 21
139.5460550254
  0
LINE
  5
369
100
AcDbEntity
  8
0
100
AcDbLine
 62
7
  6
CONTINUOUS
 10
722.4238556904
 20
136.3255485997
 11
722.5604240213
 21
136.8352285494
  0
LINE
  5
36A
100
AcDbEntity
  8
RUNDUNGEN
100
AcDbLine
 62
7
  6
CONTINUOUS
 10
694.6142540028
 20
16.3359472921
 11
693.0586460367
 21
10.5303393261
  0
LINE
  5
36B
100
AcDbEntity
  8
RUNDUNGEN
100
AcDbLine
 62
7
  6
CONTINUOUS
 10
719.5542312078
 20
97.8220994453
 11
730.6187453859
 21
139.1154285191
  0
LINE
  5
36C
100
AcDbEntity
  8
0
100
AcDbLine
 62
7
  6
CONTINUOUS
 10
728.8036375667
 20
127.0348270793
 11
733.0699690724
 21
142.9569930206
  0
LINE
  5
36D
100
AcDbEntity
  8
0
100
AcDbLine
 62
7
  6
CONTINUOUS
 10
677.102247202
 20
148.4694369939
 11
677.3977232728
 21
149.0731060739
  0
LINE
  5
36E
100
AcDbEntity
  8
0
100
AcDbLine
 62
7
  6
CONTINUOUS
 10
670.4064199445
 20
205.6205421485
 11
658.9381945085
 21
185.7569930206
  0
LINE
  5
36F
100
AcDbEntity
  8
0
100
AcDbLine
 62
7
  6
CONTINUOUS
 10
865.9374421912
 20
137.760180632
 11
874.242620779
 21
106.7648321766
  0
LINE
  5
370
100
AcDbEntity
  8
0
100
AcDbLine
 62
7
  6
CONTINUOUS
 10
859.6221240753
 20
182.9660072155
 11
816.6581625883
 21
343.3096943795
  0
LINE
  5
371
100
AcDbEntity
  8
0
100
AcDbLine
 62
7
  6
CONTINUOUS
 10
883.9508725356
 20
124.7801144427
 11
883.3038249228
 21
127.1949290084
  0
LINE
  5
372
100
AcDbEntity
  8
RUNDUNGEN
100
AcDbLine
 62
7
  6
CONTINUOUS
 10
703.72447416
 20
11.6987187354
 11
706.8554933965
 21
23.3838416052
  0
LINE
  5
373
100
AcDbEntity
  8
RUNDUNGEN
100
AcDbLine
 62
7
  6
CONTINUOUS
 10
737.6904752746
 20
86.2532844339
 11
738.6055387841
 21
89.6683479434
  0
LINE
  5
374
100
AcDbEntity
  8
0
100
AcDbLine
 62
7
  6
CONTINUOUS
 10
683.0909873249
 20
146.8647589142
 11
683.3864626819
 21
147.4684281856
  0
LINE
  5
375
100
AcDbEntity
  8
0
100
AcDbLine
 62
7
  6
CONTINUOUS
 10
676.6491307574
 20
149.2736908339
 11
676.3877967693
 21
148.7974417413
  0
LINE
  5
376
100
AcDbEntity
  8
0
100
AcDbLine
 62
7
  6
CONTINUOUS
 10
682.6378701665
 20
147.6690129455
 11
682.3765368923
 21
147.1927636616
  0
LINE
  5
377
100
AcDbEntity
  8
0
100
AcDbLine
 62
7
  6
CONTINUOUS
 10
671.6151019894
 20
152.9442165939
 11
671.387910441
 21
152.5953873931
  0
LINE
  5
378
100
AcDbEntity
  8
0
100
AcDbLine
 62
7
  6
CONTINUOUS
 10
672.1023608736
 20
152.2673826457
 11
672.3295524221
 21
152.6162118465
  0
LINE
  5
379
100
AcDbEntity
  8
0
100
AcDbLine
 62
7
  6
CONTINUOUS
 10
891.0865533495
 20
158.2680378567
 11
902.1510675276
 21
116.9747087829
  0
LINE
  5
37A
100
AcDbEntity
  8
0
100
AcDbLine
 62
7
  6
CONTINUOUS
 10
895.5549245873
 20
146.8983762072
 11
891.2885930816
 21
162.8205421485
  0
LINE
  5
37B
100
AcDbEntity
  8
0
100
AcDbLine
 62
7
  6
CONTINUOUS
 10
728.8036375667
 20
127.0348270793
 11
725.4610359036
 21
119.8665946803
  0
LINE
  5
37C
100
AcDbEntity
  8
0
100
AcDbLine
 62
7
  6
CONTINUOUS
 10
709.9515745567
 20
143.0816951042
 11
709.6502183659
 21
142.479601215
  0
LINE
  5
37D
100
AcDbEntity
  8
0
100
AcDbLine
 62
7
  6
CONTINUOUS
 10
710.4340909596
 20
142.2695631865
 11
710.701304972
 21
142.7442367314
  0
LINE
  5
37E
100
AcDbEntity
  8
0
100
AcDbLine
 62
7
  6
CONTINUOUS
 10
713.7953352338
 20
138.0912802686
 11
714.0625485225
 21
138.565954103
  0
LINE
  5
37F
100
AcDbEntity
  8
0
100
AcDbLine
 62
7
  6
CONTINUOUS
 10
718.9720320337
 20
141.2109441316
 11
718.7048187689
 21
140.7362703864
  0
LINE
  5
380
100
AcDbEntity
  8
0
100
AcDbLine
 62
7
  6
CONTINUOUS
 10
722.8112654422
 20
138.8165409484
 11
723.0784787071
 21
139.2912146936
  0
LINE
  5
381
100
AcDbEntity
  8
0
100
AcDbLine
 62
7
  6
CONTINUOUS
 10
895.5549245873
 20
146.8983762072
 11
896.2442628319
 21
139.0192040179
  0
LINE
  5
382
100
AcDbEntity
  8
0
100
AcDbLine
 62
7
  6
CONTINUOUS
 10
891.2885930816
 20
185.7569930206
 11
891.2885930816
 21
162.8205421485
  0
LINE
  5
383
100
AcDbEntity
  8
0
100
AcDbLine
 62
7
  6
CONTINUOUS
 10
733.0699690724
 20
142.9569930206
 11
744.5381945085
 21
162.8205421485
  0
LINE
  5
384
100
AcDbEntity
  8
0
100
AcDbLine
 62
7
  6
CONTINUOUS
 10
707.7588210471
 20
143.259536261
 11
707.5257494912
 21
142.9122826034
  0
LINE
  5
385
100
AcDbEntity
  8
0
100
AcDbLine
 62
7
  6
CONTINUOUS
 10
708.2754796284
 20
142.5748246877
 11
708.5085515581
 21
142.9220782451
  0
LINE
  5
386
100
AcDbEntity
  8
0
100
AcDbLine
 62
7
  6
CONTINUOUS
 10
713.3128180116
 20
138.9034121189
 11
713.0797460819
 21
138.5561585615
  0
LINE
  5
387
100
AcDbEntity
  8
0
100
AcDbLine
 62
7
  6
CONTINUOUS
 10
722.1907844843
 20
135.9782947528
 11
722.4238556904
 21
136.3255485997
  0
LINE
  5
388
100
AcDbEntity
  8
0
100
AcDbLine
 62
7
  6
CONTINUOUS
 10
676.7161482466
 20
148.0266184778
 11
677.102247202
 21
148.4694369939
  0
LINE
  5
389
100
AcDbEntity
  8
0
100
AcDbLine
 62
7
  6
CONTINUOUS
 10
682.7048876557
 20
146.4219405895
 11
683.0909873249
 21
146.8647589142
  0
LINE
  5
38A
100
AcDbEntity
  8
0
100
AcDbLine
 62
7
  6
CONTINUOUS
 10
900.113393795
 20
448.1287393375
 11
900.113393795
 21
658.1287393375
  0
LINE
  5
38B
100
AcDbEntity
  8
0
100
AcDbLine
 62
7
  6
CONTINUOUS
 10
805.6885930816
 20
185.7569930206
 11
817.1568185176
 21
205.6205421485
  0
LINE
  5
38C
100
AcDbEntity
  8
0
100
AcDbLine
 62
7
  6
CONTINUOUS
 10
710.349433503
 20
143.5213624446
 11
709.9515745567
 21
143.0816951042
  0
LINE
  5
38D
100
AcDbEntity
  8
0
100
AcDbLine
 62
7
  6
CONTINUOUS
 10
722.4252510473
 20
139.4662465175
 11
722.0273928485
 21
139.0265789769
  0
LINE
  5
38E
100
AcDbEntity
  8
0
100
AcDbLine
 62
7
  6
CONTINUOUS
 10
721.7706295257
 20
136.500580023
 11
721.5716989312
 21
136.2807466533
  0
LINE
  5
38F
100
AcDbEntity
  8
0
100
AcDbLine
 62
7
  6
CONTINUOUS
 10
676.3877967693
 20
148.7974417413
 11
676.0358399206
 21
148.4820433019
  0
LINE
  5
390
100
AcDbEntity
  8
0
100
AcDbLine
 62
7
  6
CONTINUOUS
 10
682.3765368923
 20
147.1927636616
 11
682.0245793297
 21
146.8773654135
  0
LINE
  5
391
100
AcDbEntity
  8
0
100
AcDbLine
 62
7
  6
CONTINUOUS
 10
671.591496285
 20
151.857995076
 11
672.1023608736
 21
152.2673826457
  0
LINE
  5
392
100
AcDbEntity
  8
0
100
AcDbLine
 62
7
  6
CONTINUOUS
 10
690.2699690724
 20
217.0887675846
 11
670.4064199445
 21
205.6205421485
  0
LINE
  5
393
100
AcDbEntity
  8
0
100
AcDbLine
 62
7
  6
CONTINUOUS
 10
936.113393795
 20
448.1287393375
 11
936.113393795
 21
658.1287393375
  0
LINE
  5
394
100
AcDbEntity
  8
0
100
AcDbLine
 62
7
  6
CONTINUOUS
 10
710.701304972
 20
142.7442367314
 11
711.0650219312
 21
143.0564844413
  0
LINE
  5
395
100
AcDbEntity
  8
0
100
AcDbLine
 62
7
  6
CONTINUOUS
 10
719.3580449336
 20
140.5612389631
 11
719.7217625447
 21
140.8734861157
  0
LINE
  5
396
100
AcDbEntity
  8
0
100
AcDbLine
 62
7
  6
CONTINUOUS
 10
722.4475478311
 20
138.5042937958
 11
722.8112654422
 21
138.8165409484
  0
LINE
  5
397
100
AcDbEntity
  8
0
100
AcDbLine
 62
7
  6
CONTINUOUS
 10
721.8270668732
 20
135.6660476002
 11
722.1907844843
 21
135.9782947528
  0
LINE
  5
398
100
AcDbEntity
  8
0
100
AcDbLine
 62
7
  6
CONTINUOUS
 10
707.7469753744
 20
142.170163652
 11
708.2754796284
 21
142.5748246877
  0
LINE
  5
399
100
AcDbEntity
  8
0
100
AcDbLine
 62
7
  6
CONTINUOUS
 10
671.387910441
 20
152.5953873931
 11
671.0700953181
 21
152.4074090368
  0
LINE
  5
39A
100
AcDbEntity
  8
0
100
AcDbLine
 62
7
  6
CONTINUOUS
 10
898.8789982649
 20
106.0040177237
 11
902.1510675276
 21
116.9747087829
  0
LINE
  5
39B
100
AcDbEntity
  8
RUNDUNGEN
100
AcDbLine
 62
7
  6
CONTINUOUS
 10
719.5542312078
 20
97.8220994453
 11
711.2351905603
 21
89.9572369096
  0
LINE
  5
39C
100
AcDbEntity
  8
0
100
AcDbLine
 62
7
  6
CONTINUOUS
 10
717.1207001947
 20
142.6629853192
 11
716.0978330218
 21
141.9810834357
  0
LINE
  5
39D
100
AcDbEntity
  8
0
100
AcDbLine
 62
7
  6
CONTINUOUS
 10
715.8246962643
 20
140.9617231793
 11
716.8475635328
 21
141.6436254198
  0
LINE
  5
39E
100
AcDbEntity
  8
0
100
AcDbLine
 62
7
  6
CONTINUOUS
 10
676.0805179889
 20
147.6506617206
 11
676.7161482466
 21
148.0266184778
  0
LINE
  5
39F
100
AcDbEntity
  8
0
100
AcDbLine
 62
7
  6
CONTINUOUS
 10
682.0692581119
 20
146.0459836409
 11
682.7048876557
 21
146.4219405895
  0
LINE
  5
3A0
100
AcDbEntity
  8
0
100
AcDbLine
 62
7
  6
CONTINUOUS
 10
817.1568185176
 20
205.6205421485
 11
825.3648865073
 21
210.3594724119
  0
LINE
  5
3A1
100
AcDbEntity
  8
0
100
AcDbLine
 62
7
  6
CONTINUOUS
 10
707.5257494912
 20
142.9122826034
 11
707.1961743366
 21
142.7274553381
  0
LINE
  5
3A2
100
AcDbEntity
  8
0
100
AcDbLine
 62
7
  6
CONTINUOUS
 10
711.0085838122
 20
143.8910169752
 11
710.349433503
 21
143.5213624446
  0
LINE
  5
3A3
100
AcDbEntity
  8
0
100
AcDbLine
 62
7
  6
CONTINUOUS
 10
719.6311815954
 20
141.5805988625
 11
718.9720320337
 21
141.2109441316
  0
LINE
  5
3A4
100
AcDbEntity
  8
0
100
AcDbLine
 62
7
  6
CONTINUOUS
 10
713.1361849126
 20
137.7216256934
 11
713.7953352338
 21
138.0912802686
  0
LINE
  5
3A5
100
AcDbEntity
  8
0
100
AcDbLine
 62
7
  6
CONTINUOUS
 10
722.0273928485
 20
139.0265789769
 11
721.6978173201
 21
138.8417518117
  0
LINE
  5
3A6
100
AcDbEntity
  8
0
100
AcDbLine
 62
7
  6
CONTINUOUS
 10
721.5716989312
 20
136.2807466533
 11
721.242124874
 21
136.0959189983
  0
LINE
  5
3A7
100
AcDbEntity
  8
0
100
AcDbLine
 62
7
  6
CONTINUOUS
 10
676.0358399206
 20
148.4820433019
 11
675.5932594736
 21
148.3274956178
  0
LINE
  5
3A8
100
AcDbEntity
  8
0
100
AcDbLine
 62
7
  6
CONTINUOUS
 10
682.0245793297
 20
146.8773654135
 11
681.5819988826
 21
146.7228177294
  0
LINE
  5
3A9
100
AcDbEntity
  8
RUNDUNGEN
100
AcDbLine
 62
7
  6
CONTINUOUS
 10
646.8657798714
 20
61.8543758502
 11
623.5319655895
 21
48.2296361522
  0
LINE
  5
3AA
100
AcDbEntity
  8
RUNDUNGEN
100
AcDbLine
 62
7
  6
CONTINUOUS
 10
645.950716362
 20
58.4393123407
 11
622.61690208
 21
44.8145726428
  0
LINE
  5
3AB
100
AcDbEntity
  8
RUNDUNGEN
100
AcDbLine
 62
7
  6
CONTINUOUS
 10
716.9065463391
 20
89.0905205273
 11
729.536496376
 21
96.4652163044
  0
LINE
  5
3AC
100
AcDbEntity
  8
RUNDUNGEN
100
AcDbLine
 62
7
  6
CONTINUOUS
 10
715.9914828296
 20
85.6754570178
 11
728.6214328665
 21
93.050152795
  0
LINE
  5
3AD
100
AcDbEntity
  8
RUNDUNGEN
100
AcDbLine
 62
7
  6
CONTINUOUS
 10
650.0289305811
 20
34.7039176846
 11
658.9475359182
 21
39.9115393241
  0
LINE
  5
3AE
100
AcDbEntity
  8
RUNDUNGEN
100
AcDbLine
 62
7
  6
CONTINUOUS
 10
696.3257111088
 20
61.7368569169
 11
737.1311603058
 21
85.5633782412
  0
LINE
  5
3AF
100
AcDbEntity
  8
0
100
AcDbLine
 62
7
  6
CONTINUOUS
 10
721.8225403521
 20
138.2620590523
 11
722.4475478311
 21
138.5042937958
  0
LINE
  5
3B0
100
AcDbEntity
  8
0
100
AcDbLine
 62
7
  6
CONTINUOUS
 10
711.0650219312
 20
143.0564844413
 11
711.5252423935
 21
143.2063054019
  0
LINE
  5
3B1
100
AcDbEntity
  8
0
100
AcDbLine
 62
7
  6
CONTINUOUS
 10
719.7217625447
 20
140.8734861157
 11
720.181983007
 21
141.0233070763
  0
LINE
  5
3B2
100
AcDbEntity
  8
0
100
AcDbLine
 62
7
  6
CONTINUOUS
 10
713.0797460819
 20
138.5561585615
 11
712.6195255957
 21
138.4063375116
  0
LINE
  5
3B3
100
AcDbEntity
  8
0
100
AcDbLine
 62
7
  6
CONTINUOUS
 10
721.3668463989
 20
135.5162265949
 11
721.8270668732
 21
135.6660476002
  0
LINE
  5
3B4
100
AcDbEntity
  8
0
100
AcDbLine
 62
7
  6
CONTINUOUS
 10
437.7784752663
 20
50.4181216425
 11
437.8567083545
 21
50.4266704718
  0
LINE
  5
3B5
100
AcDbEntity
  8
0
100
AcDbLine
 62
7
  6
CONTINUOUS
 10
402.0743852795
 20
79.8162577115
 11
402.1407321161
 21
79.8310696405
  0
LINE
  5
3B6
100
AcDbEntity
  8
0
100
AcDbLine
 62
7
  6
CONTINUOUS
 10
400.7590144594
 20
81.2392792671
 11
400.6926676193
 21
81.2244673421
  0
LINE
  5
3B7
100
AcDbEntity
  8
0
100
AcDbLine
 62
7
  6
CONTINUOUS
 10
401.2706303217
 20
79.9279372698
 11
401.3496450235
 21
79.9442628757
  0
LINE
  5
3B8
100
AcDbEntity
  8
0
100
AcDbLine
 62
7
  6
CONTINUOUS
 10
400.3513945757
 20
80.5141780801
 11
400.6674533831
 21
80.5794805039
  0
LINE
  5
3B9
100
AcDbEntity
  8
0
100
AcDbLine
 62
7
  6
CONTINUOUS
 10
400.7464680849
 20
80.5958061098
 11
400.8781592421
 21
80.6230154504
  0
LINE
  5
3BA
100
AcDbEntity
  8
0
100
AcDbLine
 62
7
  6
CONTINUOUS
 10
400.4089489464
 20
80.8587133557
 11
400.1850739547
 21
80.8124574716
  0
LINE
  5
3BB
100
AcDbEntity
  8
0
100
AcDbLine
 62
7
  6
CONTINUOUS
 10
400.6196548054
 20
80.9022483023
 11
400.4879636482
 21
80.8750389617
  0
LINE
  5
3BC
100
AcDbEntity
  8
0
100
AcDbLine
 62
7
  6
CONTINUOUS
 10
399.3246938337
 20
82.1315866321
 11
399.2456791319
 21
82.1152610262
  0
LINE
  5
3BD
100
AcDbEntity
  8
0
100
AcDbLine
 62
7
  6
CONTINUOUS
 10
416.3672819319
 20
71.0997462558
 11
416.4455150202
 21
71.1082950851
  0
LINE
  5
3BE
100
AcDbEntity
  8
0
100
AcDbLine
 62
7
  6
CONTINUOUS
 10
393.1297973107
 20
89.0311972811
 11
393.032005959
 21
89.0205112362
  0
LINE
  5
3BF
100
AcDbEntity
  8
0
100
AcDbLine
 62
7
  6
CONTINUOUS
 10
391.760718113
 20
90.5639167105
 11
391.8585094647
 21
90.5746027053
  0
LINE
  5
3C0
100
AcDbEntity
  8
0
100
AcDbLine
 62
7
  6
CONTINUOUS
 10
392.7032765649
 20
95.4224438164
 11
392.6054852132
 21
95.4117577716
  0
LINE
  5
3C1
100
AcDbEntity
  8
0
100
AcDbLine
 62
7
  6
CONTINUOUS
 10
392.7032765649
 20
95.9832182805
 11
392.6054852132
 21
95.9725324361
  0
LINE
  5
3C2
100
AcDbEntity
  8
0
100
AcDbLine
 62
7
  6
CONTINUOUS
 10
392.7032765649
 20
96.9996223725
 11
392.6054852132
 21
96.9889363277
  0
LINE
  5
3C3
100
AcDbEntity
  8
0
100
AcDbLine
 62
7
  6
CONTINUOUS
 10
392.7032765649
 20
97.5603968366
 11
392.6054852132
 21
97.5497107917
  0
LINE
  5
3C4
100
AcDbEntity
  8
0
100
AcDbLine
 62
7
  6
CONTINUOUS
 10
253.13857877
 20
89.9572369096
 11
250.53857877
 21
89.9572369096
  0
LINE
  5
3C5
100
AcDbEntity
  8
0
100
AcDbLine
 62
7
  6
CONTINUOUS
 10
393.5833987302
 20
93.5909554739
 11
393.3878160268
 21
93.6046318633
  0
LINE
  5
3C6
100
AcDbEntity
  8
0
100
AcDbLine
 62
7
  6
CONTINUOUS
 10
423.7336271224
 20
58.5427757388
 11
423.8330740823
 21
58.5189444854
  0
LINE
  5
3C7
100
AcDbEntity
  8
0
100
AcDbLine
 62
7
  6
CONTINUOUS
 10
423.6514367916
 20
58.746012659
 11
423.512211025
 21
58.7793764192
  0
LINE
  5
3C8
100
AcDbEntity
  8
0
100
AcDbLine
 62
7
  6
CONTINUOUS
 10
422.706104277
 20
59.7067140945
 11
422.8453300436
 21
59.6733503343
  0
LINE
  5
3C9
100
AcDbEntity
  8
0
100
AcDbLine
 62
7
  6
CONTINUOUS
 10
422.6239139744
 20
59.9099509822
 11
422.5244670145
 21
59.9337822356
  0
LINE
  5
3CA
100
AcDbEntity
  8
0
100
AcDbLine
 62
7
  6
CONTINUOUS
 10
422.5411970324
 20
60.1500223718
 11
422.6406439639
 21
60.1261911252
  0
LINE
  5
3CB
100
AcDbEntity
  8
0
100
AcDbLine
 62
7
  6
CONTINUOUS
 10
422.0209135002
 20
60.4949511656
 11
422.1402498635
 21
60.4663536588
  0
LINE
  5
3CC
100
AcDbEntity
  8
0
100
AcDbLine
 62
7
  6
CONTINUOUS
 10
421.9188337943
 20
60.7029543067
 11
421.8392762378
 21
60.7220193067
  0
LINE
  5
3CD
100
AcDbEntity
  8
0
100
AcDbLine
 62
7
  6
CONTINUOUS
 10
424.7509997622
 20
58.3115318328
 11
424.6477998664
 21
58.3378136291
  0
LINE
  5
3CE
100
AcDbEntity
  8
0
100
AcDbLine
 62
7
  6
CONTINUOUS
 10
423.2426740036
 20
60.0044679015
 11
423.345873741
 21
59.978186186
  0
LINE
  5
3CF
100
AcDbEntity
  8
0
100
AcDbLine
 62
7
  6
CONTINUOUS
 10
424.8237358306
 20
58.1161416603
 11
424.9546130134
 21
58.0757366957
  0
LINE
  5
3D0
100
AcDbEntity
  8
0
100
AcDbLine
 62
7
  6
CONTINUOUS
 10
423.1699378014
 20
60.1998581237
 11
423.0390606156
 21
60.2402630922
  0
LINE
  5
3D1
100
AcDbEntity
  8
0
100
AcDbLine
 62
7
  6
CONTINUOUS
 10
250.53857877
 20
106.0040177059
 11
253.13857877
 21
106.0040177059
  0
LINE
  5
3D2
100
AcDbEntity
  8
0
100
AcDbLine
 62
7
  6
CONTINUOUS
 10
241.7387208166
 20
116.9747087829
 11
261.9384367234
 21
116.9747087829
  0
LINE
  5
3D3
100
AcDbEntity
  8
0
100
AcDbLine
 62
7
  6
CONTINUOUS
 10
393.4231713658
 20
88.4674323973
 11
393.6187540692
 21
88.418707654
  0
LINE
  5
3D4
100
AcDbEntity
  8
0
100
AcDbLine
 62
7
  6
CONTINUOUS
 10
392.9635519581
 20
88.8295875835
 11
392.9297846639
 21
88.8379998999
  0
LINE
  5
3D5
100
AcDbEntity
  8
0
100
AcDbLine
 62
7
  6
CONTINUOUS
 10
393.4231713658
 20
89.2735458397
 11
393.2275886624
 21
89.3222706081
  0
LINE
  5
3D6
100
AcDbEntity
  8
0
100
AcDbLine
 62
7
  6
CONTINUOUS
 10
395.4414346521
 20
90.8499235573
 11
395.6370173812
 21
90.8011987641
  0
LINE
  5
3D7
100
AcDbEntity
  8
0
100
AcDbLine
 62
7
  6
CONTINUOUS
 10
395.1480605628
 20
91.2734947829
 11
395.0502692111
 21
91.297857117
  0
LINE
  5
3D8
100
AcDbEntity
  8
0
100
AcDbLine
 62
7
  6
CONTINUOUS
 10
392.99665062
 20
94.9638242449
 11
393.0944419717
 21
94.9394618106
  0
LINE
  5
3D9
100
AcDbEntity
  8
0
100
AcDbLine
 62
7
  6
CONTINUOUS
 10
391.4319887189
 20
95.5639127296
 11
391.2364060155
 21
95.612637498
  0
LINE
  5
3DA
100
AcDbEntity
  8
0
100
AcDbLine
 62
7
  6
CONTINUOUS
 10
392.99665062
 20
95.524598709
 11
393.0944419717
 21
95.5002364752
  0
LINE
  5
3DB
100
AcDbEntity
  8
0
100
AcDbLine
 62
7
  6
CONTINUOUS
 10
392.99665062
 20
96.5410026005
 11
393.0944419717
 21
96.5166403667
  0
LINE
  5
3DC
100
AcDbEntity
  8
0
100
AcDbLine
 62
7
  6
CONTINUOUS
 10
392.99665062
 20
97.1017774656
 11
393.0944419717
 21
97.0774148307
  0
LINE
  5
3DD
100
AcDbEntity
  8
0
100
AcDbLine
 62
7
  6
CONTINUOUS
 10
401.9472400054
 20
79.8538986359
 11
402.0743852795
 21
79.8162577115
  0
LINE
  5
3DE
100
AcDbEntity
  8
0
100
AcDbLine
 62
7
  6
CONTINUOUS
 10
401.8763476792
 20
80.0471544941
 11
401.7492024051
 21
80.0847954186
  0
LINE
  5
3DF
100
AcDbEntity
  8
0
100
AcDbLine
 62
7
  6
CONTINUOUS
 10
401.2812318647
 20
80.464512288
 11
401.1540865906
 21
80.5021532124
  0
LINE
  5
3E0
100
AcDbEntity
  8
0
100
AcDbLine
 62
7
  6
CONTINUOUS
 10
400.7976189047
 20
80.9177674276
 11
400.9459550982
 21
80.8738530038
  0
LINE
  5
3E1
100
AcDbEntity
  8
0
100
AcDbLine
 62
7
  6
CONTINUOUS
 10
400.9570520319
 20
81.0083825168
 11
401.084197306
 21
80.9707415924
  0
LINE
  5
3E2
100
AcDbEntity
  8
0
100
AcDbLine
 62
7
  6
CONTINUOUS
 10
400.8861597335
 20
81.2016383427
 11
400.7590144594
 21
81.2392792671
  0
LINE
  5
3E3
100
AcDbEntity
  8
0
100
AcDbLine
 62
7
  6
CONTINUOUS
 10
400.0718153439
 20
81.8561664833
 11
400.6863509162
 21
81.6742353246
  0
LINE
  5
3E4
100
AcDbEntity
  8
0
100
AcDbLine
 62
7
  6
CONTINUOUS
 10
400.4883133437
 20
81.9051320749
 11
399.7678234167
 21
82.1184306586
  0
LINE
  5
3E5
100
AcDbEntity
  8
0
100
AcDbLine
 62
7
  6
CONTINUOUS
 10
426.9322244905
 20
57.7211463054
 11
426.6369572493
 21
57.8191606293
  0
LINE
  5
3E6
100
AcDbEntity
  8
0
100
AcDbLine
 62
7
  6
CONTINUOUS
 10
426.9930094419
 20
57.7798600598
 11
432.5043613632
 21
55.9503600102
  0
LINE
  5
3E7
100
AcDbEntity
  8
0
100
AcDbLine
 62
7
  6
CONTINUOUS
 10
432.5043613632
 20
56.4679981004
 11
426.176512861
 21
58.5685351944
  0
LINE
  5
3E8
100
AcDbEntity
  8
0
100
AcDbLine
 62
7
  6
CONTINUOUS
 10
395.3789986395
 20
86.4380546683
 11
395.6723727203
 21
86.3299191245
  0
LINE
  5
3E9
100
AcDbEntity
  8
0
100
AcDbLine
 62
7
  6
CONTINUOUS
 10
437.6220090899
 20
50.4851401535
 11
437.7784752663
 21
50.4181216425
  0
LINE
  5
3EA
100
AcDbEntity
  8
0
100
AcDbLine
 62
7
  6
CONTINUOUS
 10
437.5437759811
 20
50.7569786362
 11
437.3873098184
 21
50.8239971541
  0
LINE
  5
3EB
100
AcDbEntity
  8
0
100
AcDbLine
 62
7
  6
CONTINUOUS
 10
248.58857877
 20
139.0192040179
 11
255.08857877
 21
139.0192040179
  0
LINE
  5
3EC
100
AcDbEntity
  8
0
100
AcDbLine
 62
7
  6
CONTINUOUS
 10
255.08857877
 20
146.8983762072
 11
248.58857877
 21
146.8983762072
  0
LINE
  5
3ED
100
AcDbEntity
  8
0
100
AcDbLine
 62
7
  6
CONTINUOUS
 10
416.2108157555
 20
71.1667647668
 11
416.3672819319
 21
71.0997462558
  0
LINE
  5
3EE
100
AcDbEntity
  8
0
100
AcDbLine
 62
7
  6
CONTINUOUS
 10
416.1325826468
 20
71.4386032495
 11
415.9761164841
 21
71.5056217674
  0
LINE
  5
3EF
100
AcDbEntity
  8
0
100
AcDbLine
 62
7
  6
CONTINUOUS
 10
393.032005959
 20
89.0205112362
 11
392.8364232556
 21
89.1042843584
  0
LINE
  5
3F0
100
AcDbEntity
  8
0
100
AcDbLine
 62
7
  6
CONTINUOUS
 10
393.8143367726
 20
88.720467076
 11
394.009919476
 21
88.6366939287
  0
LINE
  5
3F1
100
AcDbEntity
  8
0
100
AcDbLine
 62
7
  6
CONTINUOUS
 10
395.2458519145
 20
90.9336966875
 11
395.4414346521
 21
90.8499235573
  0
LINE
  5
3F2
100
AcDbEntity
  8
0
100
AcDbLine
 62
7
  6
CONTINUOUS
 10
393.6811900819
 20
93.2511574286
 11
393.8767727853
 21
93.1673843815
  0
LINE
  5
3F3
100
AcDbEntity
  8
0
100
AcDbLine
 62
7
  6
CONTINUOUS
 10
391.725362774
 20
95.1052931581
 11
391.9209454773
 21
95.0215200108
  0
LINE
  5
3F4
100
AcDbEntity
  8
RUNDUNGEN
100
AcDbLine
 62
7
  6
CONTINUOUS
 10
392.7226319416
 20
101.6385534914
 11
390.5730590669
 21
102.591217052
  0
LINE
  5
3F5
100
AcDbEntity
  8
RUNDUNGEN
100
AcDbLine
 62
7
  6
CONTINUOUS
 10
383.3906322967
 20
111.3697196336
 11
385.5402051714
 21
110.4170560729
  0
LINE
  5
3F6
100
AcDbEntity
  8
0
100
AcDbLine
 62
7
  6
CONTINUOUS
 10
391.5651354096
 20
91.0332223771
 11
391.2717613545
 21
91.1764063377
  0
LINE
  5
3F7
100
AcDbEntity
  8
0
100
AcDbLine
 62
7
  6
CONTINUOUS
 10
423.5938748116
 20
58.6129738786
 11
423.7336271224
 21
58.5427757388
  0
LINE
  5
3F8
100
AcDbEntity
  8
0
100
AcDbLine
 62
7
  6
CONTINUOUS
 10
422.7636662959
 20
59.839752843
 11
422.6239139744
 21
59.9099509822
  0
LINE
  5
3F9
100
AcDbEntity
  8
0
100
AcDbLine
 62
7
  6
CONTINUOUS
 10
422.0585860873
 20
60.6327561744
 11
421.9188337943
 21
60.7029543067
  0
LINE
  5
3FA
100
AcDbEntity
  8
0
100
AcDbLine
 62
7
  6
CONTINUOUS
 10
401.8016781327
 20
79.9314454151
 11
401.9472400054
 21
79.8538986359
  0
LINE
  5
3FB
100
AcDbEntity
  8
0
100
AcDbLine
 62
7
  6
CONTINUOUS
 10
401.0317216027
 20
81.1240915676
 11
400.8861597335
 21
81.2016383427
  0
LINE
  5
3FC
100
AcDbEntity
  8
0
100
AcDbLine
 62
7
  6
CONTINUOUS
 10
401.7492024051
 20
80.0847954186
 11
401.6248313341
 21
80.1560687302
  0
LINE
  5
3FD
100
AcDbEntity
  8
0
100
AcDbLine
 62
7
  6
CONTINUOUS
 10
401.084197306
 20
80.9707415924
 11
401.208568377
 21
80.8994682808
  0
LINE
  5
3FE
100
AcDbEntity
  8
0
100
AcDbLine
 62
7
  6
CONTINUOUS
 10
423.512211025
 20
58.7793764192
 11
423.4122375102
 21
58.8400420515
  0
LINE
  5
3FF
100
AcDbEntity
  8
0
100
AcDbLine
 62
7
  6
CONTINUOUS
 10
422.8453300436
 20
59.6733503343
 11
422.9453035299
 21
59.6126847088
  0
LINE
  5
400
100
AcDbEntity
  8
0
100
AcDbLine
 62
7
  6
CONTINUOUS
 10
422.1402498635
 20
60.4663536588
 11
422.2402233783
 21
60.4056880265
  0
LINE
  5
401
100
AcDbEntity
  8
0
100
AcDbLine
 62
7
  6
CONTINUOUS
 10
247.3586395303
 20
162.8205421485
 11
256.3185180097
 21
162.8205421485
  0
LINE
  5
402
100
AcDbEntity
  8
0
100
AcDbLine
 62
7
  6
CONTINUOUS
 10
243.83857877
 20
164.1974854959
 11
244.0143535374
 21
164.1974854959
  0
LINE
  5
403
100
AcDbEntity
  8
RUNDUNGEN
100
AcDbLine
 62
7
  6
CONTINUOUS
 10
259.6628040026
 20
164.1974854959
 11
259.83857877
 21
164.1974854959
  0
LINE
  5
404
100
AcDbEntity
  8
0
100
AcDbLine
 62
7
  6
CONTINUOUS
 10
248.5068605851
 20
185.7569930206
 11
255.1702969549
 21
185.7569930206
  0
LINE
  5
405
100
AcDbEntity
  8
RUNDUNGEN
100
AcDbLine
 62
7
  6
CONTINUOUS
 10
374.9772559412
 20
121.415743107
 11
375.7884155166
 21
121.0562474237
  0
LINE
  5
406
100
AcDbEntity
  8
0
100
AcDbLine
 62
7
  6
CONTINUOUS
 10
401.5534021814
 20
81.5061537497
 11
401.644981552
 21
81.4527862738
  0
LINE
  5
407
100
AcDbEntity
  8
0
100
AcDbLine
 62
7
  6
CONTINUOUS
 10
401.2614955652
 20
81.9572867968
 11
401.1699161946
 21
82.0106542728
  0
LINE
  5
408
100
AcDbEntity
  8
0
100
AcDbLine
 62
7
  6
CONTINUOUS
 10
401.3310028192
 20
82.5674550111
 11
411.2911579276
 21
76.5923537534
  0
LINE
  5
409
100
AcDbEntity
  8
0
100
AcDbLine
 62
7
  6
CONTINUOUS
 10
411.2911579276
 20
76.9583791572
 11
400.3310028192
 21
83.5333808374
  0
LINE
  5
40A
100
AcDbEntity
  8
0
100
AcDbLine
 62
7
  6
CONTINUOUS
 10
395.0856245502
 20
86.9317227395
 11
394.7922504266
 21
87.1099551452
  0
LINE
  5
40B
100
AcDbEntity
  8
0
100
AcDbLine
 62
7
  6
CONTINUOUS
 10
393.032005959
 20
88.7050755125
 11
393.4231713658
 21
88.4674323973
  0
LINE
  5
40C
100
AcDbEntity
  8
0
100
AcDbLine
 62
7
  6
CONTINUOUS
 10
393.3547173649
 20
88.591944531
 11
392.9635519581
 21
88.8295875835
  0
LINE
  5
40D
100
AcDbEntity
  8
0
100
AcDbLine
 62
7
  6
CONTINUOUS
 10
393.8143367726
 20
89.0359027872
 11
393.4231713658
 21
89.2735458397
  0
LINE
  5
40E
100
AcDbEntity
  8
0
100
AcDbLine
 62
7
  6
CONTINUOUS
 10
391.8585094647
 20
90.5746027053
 11
392.0540921681
 21
90.455781179
  0
LINE
  5
40F
100
AcDbEntity
  8
0
100
AcDbLine
 62
7
  6
CONTINUOUS
 10
395.0502692111
 20
91.297857117
 11
394.8546864392
 21
91.4166788097
  0
LINE
  5
410
100
AcDbEntity
  8
0
100
AcDbLine
 62
7
  6
CONTINUOUS
 10
391.3635347179
 20
94.8823114209
 11
391.3222668556
 21
94.9073827094
  0
LINE
  5
411
100
AcDbEntity
  8
0
100
AcDbLine
 62
7
  6
CONTINUOUS
 10
391.8231541257
 20
95.3262696771
 11
391.4319887189
 21
95.5639127296
  0
LINE
  5
412
100
AcDbEntity
  8
0
100
AcDbLine
 62
7
  6
CONTINUOUS
 10
393.0944419717
 20
94.9394618106
 11
393.1922333234
 21
94.8800510976
  0
LINE
  5
413
100
AcDbEntity
  8
0
100
AcDbLine
 62
7
  6
CONTINUOUS
 10
392.99665062
 20
95.2442114769
 11
392.7032765649
 21
95.4224438164
  0
LINE
  5
414
100
AcDbEntity
  8
0
100
AcDbLine
 62
7
  6
CONTINUOUS
 10
393.0944419717
 20
95.5002364752
 11
393.1922333234
 21
95.4408255616
  0
LINE
  5
415
100
AcDbEntity
  8
0
100
AcDbLine
 62
7
  6
CONTINUOUS
 10
392.8988592683
 20
95.8643968545
 11
392.7032765649
 21
95.9832182805
  0
LINE
  5
416
100
AcDbEntity
  8
0
100
AcDbLine
 62
7
  6
CONTINUOUS
 10
393.0944419717
 20
96.5166403667
 11
393.1922333234
 21
96.4572294532
  0
LINE
  5
417
100
AcDbEntity
  8
0
100
AcDbLine
 62
7
  6
CONTINUOUS
 10
392.99665062
 20
96.821390033
 11
392.7032765649
 21
96.9996223725
  0
LINE
  5
418
100
AcDbEntity
  8
0
100
AcDbLine
 62
7
  6
CONTINUOUS
 10
393.0944419717
 20
97.0774148307
 11
393.1922333234
 21
97.0180043183
  0
LINE
  5
419
100
AcDbEntity
  8
0
100
AcDbLine
 62
7
  6
CONTINUOUS
 10
392.8988592683
 20
97.4415754106
 11
392.7032765649
 21
97.5603968366
  0
LINE
  5
41A
100
AcDbEntity
  8
0
100
AcDbLine
 62
7
  6
CONTINUOUS
 10
424.6224842658
 20
58.2452154077
 11
424.8237358306
 21
58.1161416603
  0
LINE
  5
41B
100
AcDbEntity
  8
0
100
AcDbLine
 62
7
  6
CONTINUOUS
 10
423.3711893631
 20
60.0707843802
 11
423.1699378014
 21
60.1998581237
  0
LINE
  5
41C
100
AcDbEntity
  8
0
100
AcDbLine
 62
7
  6
CONTINUOUS
 10
424.6477998664
 20
58.3378136291
 11
424.4742257531
 21
58.4527641197
  0
LINE
  5
41D
100
AcDbEntity
  8
0
100
AcDbLine
 62
7
  6
CONTINUOUS
 10
423.345873741
 20
59.978186186
 11
423.5194480126
 21
59.8632356145
  0
LINE
  5
41E
100
AcDbEntity
  8
0
100
AcDbLine
 62
7
  6
CONTINUOUS
 10
391.9563008164
 20
90.7605308454
 11
391.5651354096
 21
91.0332223771
  0
LINE
  5
41F
100
AcDbEntity
  8
RUNDUNGEN
100
AcDbLine
 62
7
  6
CONTINUOUS
 10
409.4206959613
 20
61.7368569169
 11
375.8448162674
 21
85.5633782412
  0
LINE
  5
420
100
AcDbEntity
  8
RUNDUNGEN
100
AcDbLine
 62
7
  6
CONTINUOUS
 10
451.0505325597
 20
38.118981194
 11
443.7120514076
 21
43.3266028336
  0
LINE
  5
421
100
AcDbEntity
  8
RUNDUNGEN
100
AcDbLine
 62
7
  6
CONTINUOUS
 10
412.9562298672
 20
65.1519204264
 11
379.3803501733
 21
88.9784417507
  0
LINE
  5
422
100
AcDbEntity
  8
RUNDUNGEN
100
AcDbLine
 62
7
  6
CONTINUOUS
 10
384.7434415266
 20
89.0905205273
 11
374.3511608061
 21
96.4652163044
  0
LINE
  5
423
100
AcDbEntity
  8
RUNDUNGEN
100
AcDbLine
 62
7
  6
CONTINUOUS
 10
429.1794213742
 20
61.8543758502
 11
448.3791448559
 21
48.2296361522
  0
LINE
  5
424
100
AcDbEntity
  8
0
100
AcDbLine
 62
7
  6
CONTINUOUS
 10
425.037386455
 20
59.1585723132
 11
425.1467604505
 21
59.080353748
  0
LINE
  5
425
100
AcDbEntity
  8
0
100
AcDbLine
 62
7
  6
CONTINUOUS
 10
424.8470151159
 20
59.5300201516
 11
424.7376411204
 21
59.6082387168
  0
LINE
  5
426
100
AcDbEntity
  8
0
100
AcDbLine
 62
7
  6
CONTINUOUS
 10
394.009919476
 20
88.6366939287
 11
394.3032936681
 21
88.4234129777
  0
LINE
  5
427
100
AcDbEntity
  8
0
100
AcDbLine
 62
7
  6
CONTINUOUS
 10
423.3735118275
 20
58.7759057843
 11
423.5938748116
 21
58.6129738786
  0
LINE
  5
428
100
AcDbEntity
  8
0
100
AcDbLine
 62
7
  6
CONTINUOUS
 10
422.9840292268
 20
59.6768209597
 11
422.7636662959
 21
59.839752843
  0
LINE
  5
429
100
AcDbEntity
  8
0
100
AcDbLine
 62
7
  6
CONTINUOUS
 10
422.2789490752
 20
60.4698242775
 11
422.0585860873
 21
60.6327561744
  0
LINE
  5
42A
100
AcDbEntity
  8
0
100
AcDbLine
 62
7
  6
CONTINUOUS
 10
423.4122375102
 20
58.8400420515
 11
423.2719586623
 21
58.9470745627
  0
LINE
  5
42B
100
AcDbEntity
  8
0
100
AcDbLine
 62
7
  6
CONTINUOUS
 10
422.9453035299
 20
59.6126847088
 11
423.0855823779
 21
59.5056521976
  0
LINE
  5
42C
100
AcDbEntity
  8
0
100
AcDbLine
 62
7
  6
CONTINUOUS
 10
422.2402233783
 20
60.4056880265
 11
422.3805022262
 21
60.2986555153
  0
LINE
  5
42D
100
AcDbEntity
  8
0
100
AcDbLine
 62
7
  6
CONTINUOUS
 10
248.5068605851
 20
205.6205421485
 11
255.1702969549
 21
205.6205421485
  0
LINE
  5
42E
100
AcDbEntity
  8
0
100
AcDbLine
 62
7
  6
CONTINUOUS
 10
247.8583208785
 20
217.0887675846
 11
255.8188366615
 21
217.0887675846
  0
LINE
  5
42F
100
AcDbEntity
  8
0
100
AcDbLine
 62
7
  6
CONTINUOUS
 10
394.9524778594
 20
91.1469774561
 11
395.2458519145
 21
90.9336966875
  0
LINE
  5
430
100
AcDbEntity
  8
0
100
AcDbLine
 62
7
  6
CONTINUOUS
 10
393.8767727853
 20
93.3776748557
 11
393.5833987302
 21
93.5909554739
  0
LINE
  5
431
100
AcDbEntity
  8
0
100
AcDbLine
 62
7
  6
CONTINUOUS
 10
391.9209454773
 20
95.0215200108
 11
392.2143195324
 21
94.8082391921
  0
LINE
  5
432
100
AcDbEntity
  8
0
100
AcDbLine
 62
7
  6
CONTINUOUS
 10
394.8900417783
 20
86.8052054883
 11
395.3789986395
 21
86.4380546683
  0
LINE
  5
433
100
AcDbEntity
  8
0
100
AcDbLine
 62
7
  6
CONTINUOUS
 10
401.5769011029
 20
80.1013509383
 11
401.8016781327
 21
79.9314454151
  0
LINE
  5
434
100
AcDbEntity
  8
0
100
AcDbLine
 62
7
  6
CONTINUOUS
 10
401.2564986221
 20
80.9541860565
 11
401.0317216027
 21
81.1240915676
  0
LINE
  5
435
100
AcDbEntity
  8
0
100
AcDbLine
 62
7
  6
CONTINUOUS
 10
401.6248313341
 20
80.1560687302
 11
401.4820436681
 21
80.2672478925
  0
LINE
  5
436
100
AcDbEntity
  8
0
100
AcDbLine
 62
7
  6
CONTINUOUS
 10
401.208568377
 20
80.8994682808
 11
401.3513560431
 21
80.7882891184
  0
LINE
  5
437
100
AcDbEntity
  8
0
100
AcDbLine
 62
7
  6
CONTINUOUS
 10
437.309076737
 20
50.7313321486
 11
437.6220090899
 21
50.4851401535
  0
LINE
  5
438
100
AcDbEntity
  8
0
100
AcDbLine
 62
7
  6
CONTINUOUS
 10
393.5068930415
 20
88.4722239542
 11
393.3547173649
 21
88.591944531
  0
LINE
  5
439
100
AcDbEntity
  8
0
100
AcDbLine
 62
7
  6
CONTINUOUS
 10
415.8978834027
 20
71.4129567619
 11
416.2108157555
 21
71.1667647668
  0
LINE
  5
43A
100
AcDbEntity
  8
0
100
AcDbLine
 62
7
  6
CONTINUOUS
 10
394.2055023164
 20
88.728162644
 11
393.8143367726
 21
89.0359027872
  0
LINE
  5
43B
100
AcDbEntity
  8
0
100
AcDbLine
 62
7
  6
CONTINUOUS
 10
392.0540921681
 20
90.455781179
 11
392.2496748715
 21
90.3019111736
  0
LINE
  5
43C
100
AcDbEntity
  8
0
100
AcDbLine
 62
7
  6
CONTINUOUS
 10
394.8546864392
 20
91.4166788097
 11
394.6591037358
 21
91.5705487148
  0
LINE
  5
43D
100
AcDbEntity
  8
0
100
AcDbLine
 62
7
  6
CONTINUOUS
 10
393.8767727853
 20
93.1673843815
 11
394.267938329
 21
92.8596442383
  0
LINE
  5
43E
100
AcDbEntity
  8
0
100
AcDbLine
 62
7
  6
CONTINUOUS
 10
393.1922333234
 20
94.8800510976
 11
393.3878160268
 21
94.7261809919
  0
LINE
  5
43F
100
AcDbEntity
  8
0
100
AcDbLine
 62
7
  6
CONTINUOUS
 10
393.1922333234
 20
95.4408255616
 11
393.3878160268
 21
95.2869556565
  0
LINE
  5
440
100
AcDbEntity
  8
0
100
AcDbLine
 62
7
  6
CONTINUOUS
 10
393.1922333234
 20
96.4572294532
 11
393.3878160268
 21
96.3033597485
  0
LINE
  5
441
100
AcDbEntity
  8
0
100
AcDbLine
 62
7
  6
CONTINUOUS
 10
393.1922333234
 20
97.0180043183
 11
393.3878160268
 21
96.8641342126
  0
LINE
  5
442
100
AcDbEntity
  8
0
100
AcDbLine
 62
7
  6
CONTINUOUS
 10
393.3878160268
 20
95.462197852
 11
392.8988592683
 21
95.8643968545
  0
LINE
  5
443
100
AcDbEntity
  8
0
100
AcDbLine
 62
7
  6
CONTINUOUS
 10
393.3878160268
 20
97.039376408
 11
392.8988592683
 21
97.4415754106
  0
LINE
  5
444
100
AcDbEntity
  8
0
100
AcDbLine
 62
7
  6
CONTINUOUS
 10
424.3785357675
 20
58.4488346851
 11
424.6224842658
 21
58.2452154077
  0
LINE
  5
445
100
AcDbEntity
  8
0
100
AcDbLine
 62
7
  6
CONTINUOUS
 10
423.6151380106
 20
59.8671650336
 11
423.3711893631
 21
60.0707843802
  0
LINE
  5
446
100
AcDbEntity
  8
0
100
AcDbLine
 62
7
  6
CONTINUOUS
 10
437.3873098184
 20
50.8239971541
 11
437.1526105195
 21
51.0226605651
  0
LINE
  5
447
100
AcDbEntity
  8
0
100
AcDbLine
 62
7
  6
CONTINUOUS
 10
394.7922504266
 20
87.1099551452
 11
394.4988763715
 21
87.3582843178
  0
LINE
  5
448
100
AcDbEntity
  8
0
100
AcDbLine
 62
7
  6
CONTINUOUS
 10
392.8364232556
 20
89.1042843584
 11
392.5430492006
 21
89.352613531
  0
LINE
  5
449
100
AcDbEntity
  8
0
100
AcDbLine
 62
7
  6
CONTINUOUS
 10
392.2496748715
 20
90.5122016477
 11
391.9563008164
 21
90.7605308454
  0
LINE
  5
44A
100
AcDbEntity
  8
0
100
AcDbLine
 62
7
  6
CONTINUOUS
 10
415.9761164841
 20
71.5056217674
 11
415.7414171852
 21
71.7042851784
  0
LINE
  5
44B
100
AcDbEntity
  8
0
100
AcDbLine
 62
7
  6
CONTINUOUS
 10
394.6591037358
 20
91.3953066698
 11
394.9524778594
 21
91.1469774561
  0
LINE
  5
44C
100
AcDbEntity
  8
0
100
AcDbLine
 62
7
  6
CONTINUOUS
 10
423.0855823779
 20
59.5056521976
 11
423.2059718509
 21
59.403385933
  0
LINE
  5
44D
100
AcDbEntity
  8
0
100
AcDbLine
 62
7
  6
CONTINUOUS
 10
423.1646134079
 20
59.5234215696
 11
422.9840292268
 21
59.6768209597
  0
LINE
  5
44E
100
AcDbEntity
  8
0
100
AcDbLine
 62
7
  6
CONTINUOUS
 10
424.4742257531
 20
58.4527641197
 11
424.3208191904
 21
58.5838025728
  0
LINE
  5
44F
100
AcDbEntity
  8
0
100
AcDbLine
 62
7
  6
CONTINUOUS
 10
423.5194480126
 20
59.8632356145
 11
423.6728545754
 21
59.7321971614
  0
LINE
  5
450
100
AcDbEntity
  8
0
100
AcDbLine
 62
7
  6
CONTINUOUS
 10
394.4988763715
 20
87.1479938436
 11
394.8900417783
 21
86.8052054883
  0
LINE
  5
451
100
AcDbEntity
  8
0
100
AcDbLine
 62
7
  6
CONTINUOUS
 10
392.6408405522
 20
89.0478638647
 11
393.032005959
 21
88.7050755125
  0
LINE
  5
452
100
AcDbEntity
  8
0
100
AcDbLine
 62
7
  6
CONTINUOUS
 10
391.4247864186
 20
94.8286349829
 11
391.3635347179
 21
94.8823114209
  0
LINE
  5
453
100
AcDbEntity
  8
0
100
AcDbLine
 62
7
  6
CONTINUOUS
 10
394.267938329
 20
93.0348862333
 11
393.8767727853
 21
93.3776748557
  0
LINE
  5
454
100
AcDbEntity
  8
0
100
AcDbLine
 62
7
  6
CONTINUOUS
 10
392.2143195324
 20
94.9834813876
 11
391.8231541257
 21
95.3262696771
  0
LINE
  5
455
100
AcDbEntity
  8
0
100
AcDbLine
 62
7
  6
CONTINUOUS
 10
423.1526222991
 20
58.9756720695
 11
423.3735118275
 21
58.7759057843
  0
LINE
  5
456
100
AcDbEntity
  8
0
100
AcDbLine
 62
7
  6
CONTINUOUS
 10
422.4998385894
 20
60.2700580085
 11
422.2789490752
 21
60.4698242775
  0
LINE
  5
457
100
AcDbEntity
  8
0
100
AcDbLine
 62
7
  6
CONTINUOUS
 10
401.354898394
 20
80.304888817
 11
401.5769011029
 21
80.1013509383
  0
LINE
  5
458
100
AcDbEntity
  8
0
100
AcDbLine
 62
7
  6
CONTINUOUS
 10
401.4785013172
 20
80.750648194
 11
401.2564986221
 21
80.9541860565
  0
LINE
  5
459
100
AcDbEntity
  8
0
100
AcDbLine
 62
7
  6
CONTINUOUS
 10
423.2719586623
 20
58.9470745627
 11
423.1112638421
 21
59.0957077353
  0
LINE
  5
45A
100
AcDbEntity
  8
0
100
AcDbLine
 62
7
  6
CONTINUOUS
 10
422.3805022262
 20
60.2986555153
 11
422.5411970324
 21
60.1500223718
  0
LINE
  5
45B
100
AcDbEntity
  8
RUNDUNGEN
100
AcDbLine
 62
7
  6
CONTINUOUS
 10
455.8388851423
 20
11.6987187354
 11
447.277089676
 21
19.9687780958
  0
LINE
  5
45C
100
AcDbEntity
  8
KONSTRUKTIONSELEMENTE
100
AcDbLine
 62
7
  6
CONTINUOUS
 10
368.4713874641
 20
97.7860428402
 11
360.056816768
 21
105.9138939927
  0
LINE
  5
45D
100
AcDbEntity
  8
KONSTRUKTIONSELEMENTE
100
AcDbLine
 62
7
  6
CONTINUOUS
 10
307.3066508915
 20
156.8666415539
 11
298.8920801954
 21
164.9944927064
  0
LINE
  5
45E
100
AcDbEntity
  8
KONSTRUKTIONSELEMENTE
100
AcDbLine
 62
7
  6
CONTINUOUS
 10
340.2547368471
 20
127.1646494953
 11
329.6481351293
 21
137.4098400236
  0
LINE
  5
45F
100
AcDbEntity
  8
RUNDUNGEN
100
AcDbLine
 62
7
  6
CONTINUOUS
 10
459.3744190483
 20
15.1137822449
 11
450.812623582
 21
23.3838416052
  0
LINE
  5
460
100
AcDbEntity
  8
RUNDUNGEN
100
AcDbLine
 62
7
  6
CONTINUOUS
 10
271.2648707765
 20
140.9976632406
 11
265.7648707765
 21
148.5848309797
  0
LINE
  5
461
100
AcDbEntity
  8
0
100
AcDbLine
 62
7
  6
CONTINUOUS
 10
424.1899420046
 20
58.6242075413
 11
424.3785357675
 21
58.4488346851
  0
LINE
  5
462
100
AcDbEntity
  8
0
100
AcDbLine
 62
7
  6
CONTINUOUS
 10
423.8037317612
 20
59.691792193
 11
423.6151380106
 21
59.8671650336
  0
LINE
  5
463
100
AcDbEntity
  8
0
100
AcDbLine
 62
7
  6
CONTINUOUS
 10
401.3513560431
 20
80.7882891184
 11
401.5125603042
 21
80.6372041054
  0
LINE
  5
464
100
AcDbEntity
  8
KONSTRUKTIONSELEMENTE
100
AcDbLine
 62
7
  6
CONTINUOUS
 10
371.9451204172
 20
101.3823158236
 11
363.530549721
 21
109.5101669761
  0
LINE
  5
465
100
AcDbEntity
  8
KONSTRUKTIONSELEMENTE
100
AcDbLine
 62
7
  6
CONTINUOUS
 10
310.7803838445
 20
160.4629145373
 11
303.947058432
 21
167.0634000327
  0
LINE
  5
466
100
AcDbEntity
  8
RUNDUNGEN
100
AcDbLine
 62
7
  6
CONTINUOUS
 10
457.2530987047
 20
19.7510108016
 11
463.2635063448
 21
13.9454028355
  0
LINE
  5
467
100
AcDbEntity
  8
KONSTRUKTIONSELEMENTE
100
AcDbLine
 62
7
  6
CONTINUOUS
 10
343.3810965049
 20
130.4012951803
 11
332.7744947871
 21
140.6464857087
  0
LINE
  5
468
100
AcDbEntity
  8
KONSTRUKTIONSELEMENTE
100
AcDbLine
 62
7
  6
CONTINUOUS
 10
318.1576499351
 20
154.8752329918
 11
328.7642516529
 21
144.6300424634
  0
LINE
  5
469
100
AcDbEntity
  8
KONSTRUKTIONSELEMENTE
100
AcDbLine
 62
7
  6
CONTINUOUS
 10
349.2703483073
 20
124.8226741086
 11
359.8769500251
 21
114.5774835802
  0
LINE
  5
46A
100
AcDbEntity
  8
0
100
AcDbLine
 62
7
  6
CONTINUOUS
 10
389.9718884748
 20
85.9043550896
 11
397.1490223039
 21
78.9717761654
  0
LINE
  5
46B
100
AcDbEntity
  8
0
100
AcDbLine
 62
7
  6
CONTINUOUS
 10
396.6894028961
 20
79.5451439442
 11
390.3254418654
 21
85.6922582612
  0
LINE
  5
46C
100
AcDbEntity
  8
0
100
AcDbLine
 62
7
  6
CONTINUOUS
 10
438.8683223939
 20
42.2974933852
 11
421.8977596454
 21
58.6897982306
  0
LINE
  5
46D
100
AcDbEntity
  8
0
100
AcDbLine
 62
7
  6
CONTINUOUS
 10
417.6551189583
 20
62.787874442
 11
400.6845562098
 21
79.1801792874
  0
LINE
  5
46E
100
AcDbEntity
  8
0
100
AcDbLine
 62
7
  6
CONTINUOUS
 10
438.5147690033
 20
42.7684092587
 11
432.8579147538
 21
48.2325108738
  0
LINE
  5
46F
100
AcDbEntity
  8
0
100
AcDbLine
 62
7
  6
CONTINUOUS
 10
432.0447419554
 20
49.017975481
 11
423.7715926155
 21
57.0092240932
  0
LINE
  5
470
100
AcDbEntity
  8
0
100
AcDbLine
 62
7
  6
CONTINUOUS
 10
423.3119732078
 20
57.4531823494
 11
421.8977596454
 21
58.8192077532
  0
LINE
  5
471
100
AcDbEntity
  8
0
100
AcDbLine
 62
7
  6
CONTINUOUS
 10
417.3015655677
 20
63.2587903155
 11
411.6447113182
 21
68.7228919306
  0
LINE
  5
472
100
AcDbEntity
  8
0
100
AcDbLine
 62
7
  6
CONTINUOUS
 10
411.0436705542
 20
69.3034527272
 11
401.8512823987
 21
78.1826178518
  0
LINE
  5
473
100
AcDbEntity
  8
0
100
AcDbLine
 62
7
  6
CONTINUOUS
 10
401.391662991
 20
78.626576108
 11
400.6845562098
 21
79.3095888099
  0
LINE
  5
474
100
AcDbEntity
  8
0
100
AcDbLine
 62
7
  6
CONTINUOUS
 10
390.3254418654
 20
90.6098201182
 11
396.6894028961
 21
84.4627058011
  0
LINE
  5
475
100
AcDbEntity
  8
0
100
AcDbLine
 62
7
  6
CONTINUOUS
 10
397.1490223039
 20
84.1481570675
 11
389.9718884748
 21
91.0807359917
  0
LINE
  5
476
100
AcDbEntity
  8
0
100
AcDbLine
 62
7
  6
CONTINUOUS
 10
392.2496748715
 20
89.4257008981
 11
392.6408405522
 21
89.0478638647
  0
LINE
  5
477
100
AcDbEntity
  8
KONSTRUKTIONSELEMENTE
100
AcDbLine
 62
7
  6
CONTINUOUS
 10
321.2840095928
 20
158.1118786769
 11
331.8906113106
 21
147.8666881485
  0
LINE
  5
478
100
AcDbEntity
  8
KONSTRUKTIONSELEMENTE
100
AcDbLine
 62
7
  6
CONTINUOUS
 10
352.396707965
 20
128.0593197936
 11
363.0033096828
 21
117.8141292652
  0
LINE
  5
479
100
AcDbEntity
  8
0
100
AcDbLine
 62
7
  6
CONTINUOUS
 10
392.5430492006
 20
89.352613531
 11
392.3474664972
 21
89.5415319154
  0
LINE
  5
47A
100
AcDbEntity
  8
0
100
AcDbLine
 62
7
  6
CONTINUOUS
 10
394.3032936681
 20
88.4234129777
 11
394.5966677232
 21
88.1400354011
  0
LINE
  5
47B
100
AcDbEntity
  8
0
100
AcDbLine
 62
7
  6
CONTINUOUS
 10
394.6944590749
 20
88.2558666831
 11
394.2055023164
 21
88.728162644
  0
LINE
  5
47C
100
AcDbEntity
  8
KONSTRUKTIONSELEMENTE
100
AcDbLine
 62
7
  6
CONTINUOUS
 10
362.7973124674
 20
120.9895263144
 11
353.396841751
 21
130.0696837586
  0
LINE
  5
47D
100
AcDbEntity
  8
KONSTRUKTIONSELEMENTE
100
AcDbLine
 62
7
  6
CONTINUOUS
 10
331.8906113106
 20
150.8431071671
 11
322.7429267123
 21
159.6790919714
  0
LINE
  5
47E
100
AcDbEntity
  8
KONSTRUKTIONSELEMENTE
100
AcDbLine
 62
7
  6
CONTINUOUS
 10
337.779863113
 20
145.2644860954
 11
348.3864648308
 21
135.019295567
  0
LINE
  5
47F
100
AcDbEntity
  8
0
100
AcDbLine
 62
7
  6
CONTINUOUS
 10
391.8231541257
 20
93.4336554098
 11
392.6054852132
 21
92.6779816077
  0
LINE
  5
480
100
AcDbEntity
  8
0
100
AcDbLine
 62
7
  6
CONTINUOUS
 10
391.9209454773
 20
93.5494866918
 11
395.7348087415
 21
89.865577667
  0
LINE
  5
481
100
AcDbEntity
  8
RUNDUNGEN
100
AcDbLine
 62
7
  6
CONTINUOUS
 10
459.7279724389
 20
28.130034393
 11
453.7175647988
 21
33.9356423591
  0
LINE
  5
482
100
AcDbEntity
  8
0
100
AcDbLine
 62
7
  6
CONTINUOUS
 10
395.7348087415
 20
90.0758681412
 11
391.1386146638
 21
94.5154507035
  0
LINE
  5
483
100
AcDbEntity
  8
0
100
AcDbLine
 62
7
  6
CONTINUOUS
 10
414.0202892857
 20
73.002263565
 11
414.3332216112
 21
72.69999415
  0
LINE
  5
484
100
AcDbEntity
  8
0
100
AcDbLine
 62
7
  6
CONTINUOUS
 10
435.4314826201
 20
52.3206389517
 11
435.7444149455
 21
52.0183695367
  0
LINE
  5
485
100
AcDbEntity
  8
KONSTRUKTIONSELEMENTE
100
AcDbLine
 62
7
  6
CONTINUOUS
 10
308.8622858101
 20
174.6249718031
 11
312.8927944629
 21
170.7317994023
  0
LINE
  5
486
100
AcDbEntity
  8
KONSTRUKTIONSELEMENTE
100
AcDbLine
 62
7
  6
CONTINUOUS
 10
313.2463478535
 20
170.3902930513
 11
317.2768565062
 21
166.4971206506
  0
LINE
  5
487
100
AcDbEntity
  8
KONSTRUKTIONSELEMENTE
100
AcDbLine
 62
7
  6
CONTINUOUS
 10
370.0270223827
 20
115.5443730894
 11
374.0575310355
 21
111.6512006886
  0
LINE
  5
488
100
AcDbEntity
  8
KONSTRUKTIONSELEMENTE
100
AcDbLine
 62
7
  6
CONTINUOUS
 10
374.4110844261
 20
111.3096943377
 11
378.4415930789
 21
107.4165219369
  0
LINE
  5
489
100
AcDbEntity
  8
0
100
AcDbLine
 62
7
  6
CONTINUOUS
 10
413.3944244157
 20
73.8311124525
 11
414.0202892857
 21
73.2265734108
  0
LINE
  5
48A
100
AcDbEntity
  8
0
100
AcDbLine
 62
7
  6
CONTINUOUS
 10
414.3332216112
 20
72.9243039957
 11
415.8978834027
 21
71.4129567619
  0
LINE
  5
48B
100
AcDbEntity
  8
0
100
AcDbLine
 62
7
  6
CONTINUOUS
 10
434.80561775
 20
53.1494878392
 11
435.4314826201
 21
52.5449487975
  0
LINE
  5
48C
100
AcDbEntity
  8
0
100
AcDbLine
 62
7
  6
CONTINUOUS
 10
435.7444149455
 20
52.2426793824
 11
437.309076737
 21
50.7313321486
  0
LINE
  5
48D
100
AcDbEntity
  8
0
100
AcDbLine
 62
7
  6
CONTINUOUS
 10
393.1922333234
 20
93.3729692994
 11
393.5833987302
 21
92.9951325306
  0
LINE
  5
48E
100
AcDbEntity
  8
0
100
AcDbLine
 62
7
  6
CONTINUOUS
 10
437.1526105195
 20
51.0226605651
 11
435.7444149455
 21
52.3828730386
  0
LINE
  5
48F
100
AcDbEntity
  8
0
100
AcDbLine
 62
7
  6
CONTINUOUS
 10
435.4314826201
 20
52.6851424536
 11
434.80561775
 21
53.2896814953
  0
LINE
  5
490
100
AcDbEntity
  8
0
100
AcDbLine
 62
7
  6
CONTINUOUS
 10
415.7414171852
 20
71.7042851784
 11
414.3332216112
 21
73.0644976519
  0
LINE
  5
491
100
AcDbEntity
  8
0
100
AcDbLine
 62
7
  6
CONTINUOUS
 10
414.0202892857
 20
73.3667670669
 11
413.3944244157
 21
73.9713061086
  0
LINE
  5
492
100
AcDbEntity
  8
0
100
AcDbLine
 62
7
  6
CONTINUOUS
 10
437.9349414427
 20
50.5193354907
 11
437.6220090899
 21
50.8216049322
  0
LINE
  5
493
100
AcDbEntity
  8
0
100
AcDbLine
 62
7
  6
CONTINUOUS
 10
416.5237481084
 20
71.200960104
 11
416.2108157555
 21
71.5032295455
  0
LINE
  5
494
100
AcDbEntity
  8
0
100
AcDbLine
 62
7
  6
CONTINUOUS
 10
435.7444149455
 20
52.6912990539
 11
435.4314826201
 21
52.993568469
  0
LINE
  5
495
100
AcDbEntity
  8
0
100
AcDbLine
 62
7
  6
CONTINUOUS
 10
414.3332216112
 20
73.3729236672
 11
414.0202892857
 21
73.6751930823
  0
LINE
  5
496
100
AcDbEntity
  8
0
100
AcDbLine
 62
7
  6
CONTINUOUS
 10
392.2143195324
 20
94.8082391921
 11
392.4099025098
 21
94.6193205431
  0
LINE
  5
497
100
AcDbEntity
  8
0
100
AcDbLine
 62
7
  6
CONTINUOUS
 10
394.267938329
 20
92.8596442383
 11
394.6591037358
 21
92.4818074696
  0
LINE
  5
498
100
AcDbEntity
  8
0
100
AcDbLine
 62
7
  6
CONTINUOUS
 10
392.4099025098
 20
94.7945627386
 11
392.2143195324
 21
94.9834813876
  0
LINE
  5
499
100
AcDbEntity
  8
0
100
AcDbLine
 62
7
  6
CONTINUOUS
 10
394.6591037358
 20
92.6570494645
 11
394.267938329
 21
93.0348862333
  0
LINE
  5
49A
100
AcDbEntity
  8
0
100
AcDbLine
 62
7
  6
CONTINUOUS
 10
411.6447113182
 20
76.4874632837
 11
417.3015655677
 21
71.0233616685
  0
LINE
  5
49B
100
AcDbEntity
  8
0
100
AcDbLine
 62
7
  6
CONTINUOUS
 10
432.8579147538
 20
55.9970822269
 11
438.5147690033
 21
50.5329806118
  0
LINE
  5
49C
100
AcDbEntity
  8
0
100
AcDbLine
 62
7
  6
CONTINUOUS
 10
392.6054852132
 20
94.9210800654
 11
395.7348087415
 21
91.8983856506
  0
LINE
  5
49D
100
AcDbEntity
  8
0
100
AcDbLine
 62
7
  6
CONTINUOUS
 10
438.8683223939
 20
50.3208837834
 11
432.5043613632
 21
56.4679981004
  0
LINE
  5
49E
100
AcDbEntity
  8
0
100
AcDbLine
 62
7
  6
CONTINUOUS
 10
417.6551189583
 20
70.8112648401
 11
411.2911579276
 21
76.9583791572
  0
LINE
  5
49F
100
AcDbEntity
  8
0
100
AcDbLine
 62
7
  6
CONTINUOUS
 10
395.7348087415
 20
92.0736276456
 11
393.2900246751
 21
94.435107715
  0
LINE
  5
4A0
100
AcDbEntity
  8
0
100
AcDbLine
 62
7
  6
CONTINUOUS
 10
392.8988592683
 20
94.8129444838
 11
392.6054852132
 21
95.0963220604
  0
LINE
  5
4A1
100
AcDbEntity
  8
0
100
AcDbLine
 62
7
  6
CONTINUOUS
 10
393.3878160268
 20
94.7261809919
 11
395.7348087415
 21
92.4591601146
  0
LINE
  5
4A2
100
AcDbEntity
  8
0
100
AcDbLine
 62
7
  6
CONTINUOUS
 10
395.7348087415
 20
92.6344023101
 11
393.3878160268
 21
94.9014231874
  0
LINE
  5
4A3
100
AcDbEntity
  8
0
100
AcDbLine
 62
7
  6
CONTINUOUS
 10
393.3878160268
 20
95.2869556565
 11
395.7348087415
 21
93.0199347792
  0
LINE
  5
4A4
100
AcDbEntity
  8
0
100
AcDbLine
 62
7
  6
CONTINUOUS
 10
395.7348087415
 20
93.1951769747
 11
393.3878160268
 21
95.462197852
  0
LINE
  5
4A5
100
AcDbEntity
  8
0
100
AcDbLine
 62
7
  6
CONTINUOUS
 10
392.6054852132
 20
96.498258421
 11
395.7348087415
 21
93.4755640062
  0
LINE
  5
4A6
100
AcDbEntity
  8
0
100
AcDbLine
 62
7
  6
CONTINUOUS
 10
395.7348087415
 20
93.6508062017
 11
393.2900246751
 21
96.0122862711
  0
LINE
  5
4A7
100
AcDbEntity
  8
0
100
AcDbLine
 62
7
  6
CONTINUOUS
 10
392.8988592683
 20
96.3901230399
 11
392.6054852132
 21
96.6735006164
  0
LINE
  5
4A8
100
AcDbEntity
  8
0
100
AcDbLine
 62
7
  6
CONTINUOUS
 10
393.3878160268
 20
96.3033597485
 11
395.7348087415
 21
94.0363388713
  0
LINE
  5
4A9
100
AcDbEntity
  8
0
100
AcDbLine
 62
7
  6
CONTINUOUS
 10
395.7348087415
 20
94.2115806657
 11
393.3878160268
 21
96.4786015429
  0
LINE
  5
4AA
100
AcDbEntity
  8
0
100
AcDbLine
 62
7
  6
CONTINUOUS
 10
393.3878160268
 20
96.8641342126
 11
395.7348087415
 21
94.5971133353
  0
LINE
  5
4AB
100
AcDbEntity
  8
0
100
AcDbLine
 62
7
  6
CONTINUOUS
 10
395.7348087415
 20
94.7723555308
 11
393.3878160268
 21
97.039376408
  0
LINE
  5
4AC
100
AcDbEntity
  8
KONSTRUKTIONSELEMENTE
100
AcDbLine
 62
7
  6
CONTINUOUS
 10
340.9062227707
 20
148.5011317804
 11
351.5128244885
 21
138.2559412521
  0
LINE
  5
4AD
100
AcDbEntity
  8
RUNDUNGEN
100
AcDbLine
 62
7
  6
CONTINUOUS
 10
463.2635063448
 20
31.5450979025
 11
457.2530987047
 21
37.3507058686
  0
LINE
  5
4AE
100
AcDbEntity
  8
KONSTRUKTIONSELEMENTE
100
AcDbLine
 62
7
  6
CONTINUOUS
 10
312.3360187631
 20
178.2212447865
 11
316.3665274159
 21
174.3280723857
  0
LINE
  5
4AF
100
AcDbEntity
  8
KONSTRUKTIONSELEMENTE
100
AcDbLine
 62
7
  6
CONTINUOUS
 10
316.7200808065
 20
173.9865660347
 11
320.7505894593
 21
170.0933936339
  0
LINE
  5
4B0
100
AcDbEntity
  8
KONSTRUKTIONSELEMENTE
100
AcDbLine
 62
7
  6
CONTINUOUS
 10
373.5007553358
 20
119.1406460728
 11
377.5312639885
 21
115.247473672
  0
LINE
  5
4B1
100
AcDbEntity
  8
KONSTRUKTIONSELEMENTE
100
AcDbLine
 62
7
  6
CONTINUOUS
 10
377.8848173791
 20
114.905967321
 11
381.9153260319
 21
111.0127949203
  0
LINE
  5
4B2
100
AcDbEntity
  8
RUNDUNGEN
100
AcDbLine
 62
7
  6
CONTINUOUS
 10
450.812623582
 20
46.1599175742
 11
459.3744190483
 21
37.8898582139
  0
LINE
  5
4B3
100
AcDbEntity
  8
0
100
AcDbLine
 62
7
  6
CONTINUOUS
 10
401.1540865906
 20
80.5021532124
 11
401.354898394
 21
80.304888817
  0
LINE
  5
4B4
100
AcDbEntity
  8
0
100
AcDbLine
 62
7
  6
CONTINUOUS
 10
401.4820436681
 20
80.2672478925
 11
401.2812318647
 21
80.464512288
  0
LINE
  5
4B5
100
AcDbEntity
  8
0
100
AcDbLine
 62
7
  6
CONTINUOUS
 10
422.9113168178
 20
59.2170389986
 11
423.1526222991
 21
58.9756720695
  0
LINE
  5
4B6
100
AcDbEntity
  8
0
100
AcDbLine
 62
7
  6
CONTINUOUS
 10
423.4059188805
 20
59.2820546683
 11
423.1646134079
 21
59.5234215696
  0
LINE
  5
4B7
100
AcDbEntity
  8
0
100
AcDbLine
 62
7
  6
CONTINUOUS
 10
424.3208191904
 20
58.5838025728
 11
423.998986403
 21
58.9063018602
  0
LINE
  5
4B8
100
AcDbEntity
  8
0
100
AcDbLine
 62
7
  6
CONTINUOUS
 10
423.6728545754
 20
59.7321971614
 11
423.9946872783
 21
59.4096978617
  0
LINE
  5
4B9
100
AcDbEntity
  8
0
100
AcDbLine
 62
7
  6
CONTINUOUS
 10
401.3339942704
 20
81.7276879063
 11
401.5534021814
 21
81.5061537497
  0
LINE
  5
4BA
100
AcDbEntity
  8
0
100
AcDbLine
 62
7
  6
CONTINUOUS
 10
401.4809036591
 20
81.7357523997
 11
401.2614955652
 21
81.9572867968
  0
LINE
  5
4BB
100
AcDbEntity
  8
0
100
AcDbLine
 62
7
  6
CONTINUOUS
 10
401.7189206627
 20
80.5072044162
 11
401.4785013172
 21
80.750648194
  0
LINE
  5
4BC
100
AcDbEntity
  8
0
100
AcDbLine
 62
7
  6
CONTINUOUS
 10
423.1112638421
 20
59.0957077353
 11
422.9704584534
 21
59.239574622
  0
LINE
  5
4BD
100
AcDbEntity
  8
0
100
AcDbLine
 62
7
  6
CONTINUOUS
 10
423.2059718509
 20
59.403385933
 11
423.3467772818
 21
59.2595189847
  0
LINE
  5
4BE
100
AcDbEntity
  8
0
100
AcDbLine
 62
7
  6
CONTINUOUS
 10
422.6406439639
 20
60.1261911252
 11
422.4998385894
 21
60.2700580085
  0
LINE
  5
4BF
100
AcDbEntity
  8
0
100
AcDbLine
 62
7
  6
CONTINUOUS
 10
401.5125603042
 20
80.6372041054
 11
401.6525738226
 21
80.4923924911
  0
LINE
  5
4C0
100
AcDbEntity
  8
0
100
AcDbLine
 62
7
  6
CONTINUOUS
 10
423.9938384106
 20
58.829791588
 11
424.1899420046
 21
58.6242075413
  0
LINE
  5
4C1
100
AcDbEntity
  8
0
100
AcDbLine
 62
7
  6
CONTINUOUS
 10
423.9998352513
 20
59.4862082177
 11
423.8037317612
 21
59.691792193
  0
LINE
  5
4C2
100
AcDbEntity
  8
0
100
AcDbLine
 62
7
  6
CONTINUOUS
 10
391.8585094647
 20
89.8385860834
 11
392.2496748715
 21
89.4257008981
  0
LINE
  5
4C3
100
AcDbEntity
  8
0
100
AcDbLine
 62
7
  6
CONTINUOUS
 10
391.8231541257
 20
94.2047204984
 11
392.2143195324
 21
93.7918353006
  0
LINE
  5
4C4
100
AcDbEntity
  8
0
100
AcDbLine
 62
7
  6
CONTINUOUS
 10
392.8010679166
 20
94.3816774906
 11
392.4099025098
 21
94.7945627386
  0
LINE
  5
4C5
100
AcDbEntity
  8
0
100
AcDbLine
 62
7
  6
CONTINUOUS
 10
400.092890139
 20
80.793410932
 11
400.3513945757
 21
80.5141780801
  0
LINE
  5
4C6
100
AcDbEntity
  8
0
100
AcDbLine
 62
7
  6
CONTINUOUS
 10
399.5903516338
 20
81.7429506439
 11
400.4089489464
 21
80.8587133557
  0
LINE
  5
4C7
100
AcDbEntity
  8
0
100
AcDbLine
 62
7
  6
CONTINUOUS
 10
400.6674533831
 20
80.5794805039
 11
401.2706303217
 21
79.9279372698
  0
LINE
  5
4C8
100
AcDbEntity
  8
0
100
AcDbLine
 62
7
  6
CONTINUOUS
 10
401.3496450235
 20
79.9442628757
 11
400.7464680849
 21
80.5958061098
  0
LINE
  5
4C9
100
AcDbEntity
  8
0
100
AcDbLine
 62
7
  6
CONTINUOUS
 10
400.4879636482
 20
80.8750389617
 11
399.3246938337
 21
82.1315866321
  0
LINE
  5
4CA
100
AcDbEntity
  8
0
100
AcDbLine
 62
7
  6
CONTINUOUS
 10
400.8781592421
 20
80.6230154504
 11
400.6196548054
 21
80.9022483023
  0
LINE
  5
4CB
100
AcDbEntity
  8
0
100
AcDbLine
 62
7
  6
CONTINUOUS
 10
392.3474664972
 20
89.5415319154
 11
392.0540921681
 21
89.8599581606
  0
LINE
  5
4CC
100
AcDbEntity
  8
0
100
AcDbLine
 62
7
  6
CONTINUOUS
 10
394.9524778594
 20
92.3386235431
 11
394.6591037358
 21
92.6570494645
  0
LINE
  5
4CD
100
AcDbEntity
  8
0
100
AcDbLine
 62
7
  6
CONTINUOUS
 10
424.8280974432
 20
59.3866795367
 11
425.037386455
 21
59.1585723132
  0
LINE
  5
4CE
100
AcDbEntity
  8
0
100
AcDbLine
 62
7
  6
CONTINUOUS
 10
425.0563042706
 20
59.3019127137
 11
424.8470151159
 21
59.5300201516
  0
LINE
  5
4CF
100
AcDbEntity
  8
0
100
AcDbLine
 62
7
  6
CONTINUOUS
 10
422.6092900347
 20
59.5463734671
 11
422.9113168178
 21
59.2170389986
  0
LINE
  5
4D0
100
AcDbEntity
  8
0
100
AcDbLine
 62
7
  6
CONTINUOUS
 10
423.8605994776
 20
58.9769179632
 11
423.9938384106
 21
58.829791588
  0
LINE
  5
4D1
100
AcDbEntity
  8
0
100
AcDbLine
 62
7
  6
CONTINUOUS
 10
424.133074362
 20
59.3390816779
 11
423.9998352513
 21
59.4862082177
  0
LINE
  5
4D2
100
AcDbEntity
  8
0
100
AcDbLine
 62
7
  6
CONTINUOUS
 10
395.0856245502
 20
87.8079330903
 11
394.6944590749
 21
88.2558666831
  0
LINE
  5
4D3
100
AcDbEntity
  8
0
100
AcDbLine
 62
7
  6
CONTINUOUS
 10
392.4099025098
 20
94.6193205431
 11
392.8010679166
 21
94.1713870165
  0
LINE
  5
4D4
100
AcDbEntity
  8
0
100
AcDbLine
 62
7
  6
CONTINUOUS
 10
394.6591037358
 20
92.4818074696
 11
394.8546864392
 21
92.257840606
  0
LINE
  5
4D5
100
AcDbEntity
  8
0
100
AcDbLine
 62
7
  6
CONTINUOUS
 10
393.3878160268
 20
94.9014231874
 11
393.1922333234
 21
95.1253898504
  0
LINE
  5
4D6
100
AcDbEntity
  8
0
100
AcDbLine
 62
7
  6
CONTINUOUS
 10
393.3878160268
 20
96.4786015429
 11
393.1922333234
 21
96.7025686071
  0
LINE
  5
4D7
100
AcDbEntity
  8
0
100
AcDbLine
 62
7
  6
CONTINUOUS
 10
422.3271527026
 20
59.8709416194
 11
422.6092900347
 21
59.5463734671
  0
LINE
  5
4D8
100
AcDbEntity
  8
0
100
AcDbLine
 62
7
  6
CONTINUOUS
 10
422.5072103359
 20
59.7543766065
 11
422.4265996696
 21
59.8471103643
  0
LINE
  5
4D9
100
AcDbEntity
  8
0
100
AcDbLine
 62
7
  6
CONTINUOUS
 10
422.9704584534
 20
59.239574622
 11
422.8495424539
 21
59.3786752587
  0
LINE
  5
4DA
100
AcDbEntity
  8
0
100
AcDbLine
 62
7
  6
CONTINUOUS
 10
423.3467772818
 20
59.2595189847
 11
423.4676932813
 21
59.1204183481
  0
LINE
  5
4DB
100
AcDbEntity
  8
0
100
AcDbLine
 62
7
  6
CONTINUOUS
 10
423.6074456028
 20
59.0502202089
 11
423.4059188805
 21
59.2820546683
  0
LINE
  5
4DC
100
AcDbEntity
  8
0
100
AcDbLine
 62
7
  6
CONTINUOUS
 10
423.6569861196
 20
59.2127131756
 11
423.8605994776
 21
58.9769179632
  0
LINE
  5
4DD
100
AcDbEntity
  8
0
100
AcDbLine
 62
7
  6
CONTINUOUS
 10
424.3366875917
 20
59.103286568
 11
424.133074362
 21
59.3390816779
  0
LINE
  5
4DE
100
AcDbEntity
  8
0
100
AcDbLine
 62
7
  6
CONTINUOUS
 10
399.7678234167
 20
82.1184306586
 11
400.7976189047
 21
80.9177674276
  0
LINE
  5
4DF
100
AcDbEntity
  8
0
100
AcDbLine
 62
7
  6
CONTINUOUS
 10
400.7055356868
 20
81.1172967529
 11
400.0718153439
 21
81.8561664833
  0
LINE
  5
4E0
100
AcDbEntity
  8
0
100
AcDbLine
 62
7
  6
CONTINUOUS
 10
401.6525738226
 20
80.4923924911
 11
401.7317888516
 21
80.400033791
  0
LINE
  5
4E1
100
AcDbEntity
  8
0
100
AcDbLine
 62
7
  6
CONTINUOUS
 10
400.6863509162
 20
81.6742353246
 11
400.4883133437
 21
81.9051320749
  0
LINE
  5
4E2
100
AcDbEntity
  8
0
100
AcDbLine
 62
7
  6
CONTINUOUS
 10
401.8773507207
 20
80.3224870159
 11
401.7189206627
 21
80.5072044162
  0
LINE
  5
4E3
100
AcDbEntity
  8
0
100
AcDbLine
 62
7
  6
CONTINUOUS
 10
423.998986403
 20
58.9063018602
 11
423.7601859362
 21
59.1864314197
  0
LINE
  5
4E4
100
AcDbEntity
  8
0
100
AcDbLine
 62
7
  6
CONTINUOUS
 10
423.9946872783
 20
59.4096978617
 11
424.2334878542
 21
59.1295682835
  0
LINE
  5
4E5
100
AcDbEntity
  8
0
100
AcDbLine
 62
7
  6
CONTINUOUS
 10
394.5966677232
 20
88.1400354011
 11
394.8900417783
 21
87.7865610667
  0
LINE
  5
4E6
100
AcDbEntity
  8
0
100
AcDbLine
 62
7
  6
CONTINUOUS
 10
392.2143195324
 20
93.9670773958
 11
391.9209454773
 21
94.3205517302
  0
LINE
  5
4E7
100
AcDbEntity
  8
0
100
AcDbLine
 62
7
  6
CONTINUOUS
 10
393.0944419717
 20
94.0282031562
 11
392.8010679166
 21
94.3816774906
  0
LINE
  5
4E8
100
AcDbEntity
  8
0
100
AcDbLine
 62
7
  6
CONTINUOUS
 10
395.2458519145
 20
91.9851490081
 11
394.9524778594
 21
92.3386235431
  0
LINE
  5
4E9
100
AcDbEntity
  8
0
100
AcDbLine
 62
7
  6
CONTINUOUS
 10
422.0649047649
 20
60.1907435204
 11
422.3271527026
 21
59.8709416194
  0
LINE
  5
4EA
100
AcDbEntity
  8
RUNDUNGEN
100
AcDbLine
 62
7
  6
CONTINUOUS
 10
444.84361095
 20
22.6001794162
 11
425.6438874682
 21
46.0664572556
  0
LINE
  5
4EB
100
AcDbEntity
  8
RUNDUNGEN
100
AcDbLine
 62
7
  6
CONTINUOUS
 10
374.6487385203
 20
108.3937264377
 11
374.5673892333
 21
108.4931531285
  0
LINE
  5
4EC
100
AcDbEntity
  8
RUNDUNGEN
100
AcDbLine
 62
7
  6
CONTINUOUS
 10
448.3791448559
 20
26.0152429257
 11
429.1794213742
 21
49.481520765
  0
LINE
  5
4ED
100
AcDbEntity
  8
RUNDUNGEN
100
AcDbLine
 62
7
  6
CONTINUOUS
 10
387.3724338697
 20
105.4762147462
 11
383.9549888742
 21
109.6530829101
  0
LINE
  5
4EE
100
AcDbEntity
  8
RUNDUNGEN
100
AcDbLine
 62
7
  6
CONTINUOUS
 10
381.6972620346
 20
115.7300978344
 11
385.2015912249
 21
111.4470381071
  0
LINE
  5
4EF
100
AcDbEntity
  8
RUNDUNGEN
100
AcDbLine
 62
7
  6
CONTINUOUS
 10
394.64300706
 20
99.9075548748
 11
412.9562298672
 21
77.5247755115
  0
LINE
  5
4F0
100
AcDbEntity
  8
RUNDUNGEN
100
AcDbLine
 62
7
  6
CONTINUOUS
 10
443.7120514076
 20
39.9344084352
 11
451.0505325597
 21
30.9651731335
  0
LINE
  5
4F1
100
AcDbEntity
  8
0
100
AcDbLine
 62
7
  6
CONTINUOUS
 10
422.4265996696
 20
59.8471103643
 11
422.2046570668
 21
60.1205453859
  0
LINE
  5
4F2
100
AcDbEntity
  8
0
100
AcDbLine
 62
7
  6
CONTINUOUS
 10
423.3403014283
 20
59.6117226636
 11
423.6569861196
 21
59.2127131756
  0
LINE
  5
4F3
100
AcDbEntity
  8
0
100
AcDbLine
 62
7
  6
CONTINUOUS
 10
423.7601859362
 20
59.1864314197
 11
423.5138756208
 21
59.4967721326
  0
LINE
  5
4F4
100
AcDbEntity
  8
0
100
AcDbLine
 62
7
  6
CONTINUOUS
 10
424.2334878542
 20
59.1295682835
 11
424.4797981696
 21
58.8192275706
  0
LINE
  5
4F5
100
AcDbEntity
  8
0
100
AcDbLine
 62
7
  6
CONTINUOUS
 10
424.6533722829
 20
58.70427708
 11
424.3366875917
 21
59.103286568
  0
LINE
  5
4F6
100
AcDbEntity
  8
0
100
AcDbLine
 62
7
  6
CONTINUOUS
 10
391.1386146638
 20
94.3051602293
 11
391.8231541257
 21
93.4336554098
  0
LINE
  5
4F7
100
AcDbEntity
  8
0
100
AcDbLine
 62
7
  6
CONTINUOUS
 10
392.6054852132
 20
92.6779816077
 11
391.9209454773
 21
93.5494866918
  0
LINE
  5
4F8
100
AcDbEntity
  8
0
100
AcDbLine
 62
7
  6
CONTINUOUS
 10
401.2061655472
 20
81.8958548275
 11
401.3339942704
 21
81.7276879063
  0
LINE
  5
4F9
100
AcDbEntity
  8
0
100
AcDbLine
 62
7
  6
CONTINUOUS
 10
401.6087323823
 20
81.5675854785
 11
401.4809036591
 21
81.7357523997
  0
LINE
  5
4FA
100
AcDbEntity
  8
0
100
AcDbLine
 62
7
  6
CONTINUOUS
 10
391.4673440579
 20
90.3566165058
 11
391.8585094647
 21
89.8385860834
  0
LINE
  5
4FB
100
AcDbEntity
  8
0
100
AcDbLine
 62
7
  6
CONTINUOUS
 10
395.4767899912
 20
87.2899025721
 11
395.0856245502
 21
87.8079330903
  0
LINE
  5
4FC
100
AcDbEntity
  8
0
100
AcDbLine
 62
7
  6
CONTINUOUS
 10
391.4319887189
 20
94.7227509333
 11
391.8231541257
 21
94.2047204984
  0
LINE
  5
4FD
100
AcDbEntity
  8
0
100
AcDbLine
 62
7
  6
CONTINUOUS
 10
392.8010679166
 20
94.1713870165
 11
392.99665062
 21
93.9123717739
  0
LINE
  5
4FE
100
AcDbEntity
  8
0
100
AcDbLine
 62
7
  6
CONTINUOUS
 10
392.7032765649
 20
95.071959626
 11
392.8988592683
 21
94.8129444838
  0
LINE
  5
4FF
100
AcDbEntity
  8
0
100
AcDbLine
 62
7
  6
CONTINUOUS
 10
394.8546864392
 20
92.257840606
 11
395.0502692111
 21
91.9988253976
  0
LINE
  5
500
100
AcDbEntity
  8
0
100
AcDbLine
 62
7
  6
CONTINUOUS
 10
393.2900246751
 20
94.435107715
 11
393.0944419717
 21
94.6941228573
  0
LINE
  5
501
100
AcDbEntity
  8
0
100
AcDbLine
 62
7
  6
CONTINUOUS
 10
392.7032765649
 20
95.6327342906
 11
392.99665062
 21
95.2442114769
  0
LINE
  5
502
100
AcDbEntity
  8
0
100
AcDbLine
 62
7
  6
CONTINUOUS
 10
393.1922333234
 20
95.1253898504
 11
393.0944419717
 21
95.2548975218
  0
LINE
  5
503
100
AcDbEntity
  8
0
100
AcDbLine
 62
7
  6
CONTINUOUS
 10
392.7032765649
 20
96.6491383827
 11
392.8988592683
 21
96.3901230399
  0
LINE
  5
504
100
AcDbEntity
  8
0
100
AcDbLine
 62
7
  6
CONTINUOUS
 10
393.2900246751
 20
96.0122862711
 11
393.0944419717
 21
96.2713016139
  0
LINE
  5
505
100
AcDbEntity
  8
0
100
AcDbLine
 62
7
  6
CONTINUOUS
 10
392.7032765649
 20
97.2099128467
 11
392.99665062
 21
96.821390033
  0
LINE
  5
506
100
AcDbEntity
  8
0
100
AcDbLine
 62
7
  6
CONTINUOUS
 10
393.1922333234
 20
96.7025686071
 11
393.0944419717
 21
96.8320760779
  0
LINE
  5
507
100
AcDbEntity
  8
0
100
AcDbLine
 62
7
  6
CONTINUOUS
 10
400.3310028192
 20
83.5333808374
 11
404.1848002147
 21
78.4142768714
  0
LINE
  5
508
100
AcDbEntity
  8
0
100
AcDbLine
 62
7
  6
CONTINUOUS
 10
404.511413088
 20
77.9804281026
 11
411.0436705542
 21
69.3034527272
  0
LINE
  5
509
100
AcDbEntity
  8
0
100
AcDbLine
 62
7
  6
CONTINUOUS
 10
411.2911579276
 20
69.3371099033
 11
401.3310028192
 21
82.5674550111
  0
LINE
  5
50A
100
AcDbEntity
  8
0
100
AcDbLine
 62
7
  6
CONTINUOUS
 10
401.7317888516
 20
80.400033791
 11
401.8294204756
 21
80.2677692402
  0
LINE
  5
50B
100
AcDbEntity
  8
RUNDUNGEN
100
AcDbLine
 62
7
  6
CONTINUOUS
 10
373.8752007613
 20
87.5930000151
 11
370.4683305449
 21
92.6646860031
  0
LINE
  5
50C
100
AcDbEntity
  8
RUNDUNGEN
100
AcDbLine
 62
7
  6
CONTINUOUS
 10
377.4107346673
 20
91.0080635245
 11
374.0038644508
 21
96.0797495125
  0
LINE
  5
50D
100
AcDbEntity
  8
KONSTRUKTIONSELEMENTE
100
AcDbLine
 62
7
  6
CONTINUOUS
 10
255.7925916645
 20
217.1503464026
 11
260.5669182681
 21
206.0392461683
  0
LINE
  5
50E
100
AcDbEntity
  8
0
100
AcDbLine
 62
7
  6
CONTINUOUS
 10
255.8190179783
 20
217.0888454946
 11
255.7925916645
 21
217.1503464026
  0
LINE
  5
50F
100
AcDbEntity
  8
0
100
AcDbLine
 62
7
  6
CONTINUOUS
 10
193.33857877
 20
223.5509847253
 11
193.33857877
 21
295.995421697
  0
LINE
  5
510
100
AcDbEntity
  8
0
100
AcDbLine
 62
7
  6
CONTINUOUS
 10
422.2046570668
 20
60.1205453859
 11
422.1036303435
 21
60.2548799025
  0
LINE
  5
511
100
AcDbEntity
  8
0
100
AcDbLine
 62
7
  6
CONTINUOUS
 10
422.8495424539
 20
59.3786752587
 11
422.7485157871
 21
59.5130097103
  0
LINE
  5
512
100
AcDbEntity
  8
0
100
AcDbLine
 62
7
  6
CONTINUOUS
 10
423.4676932813
 20
59.1204183481
 11
423.5687199059
 21
58.986083958
  0
LINE
  5
513
100
AcDbEntity
  8
0
100
AcDbLine
 62
7
  6
CONTINUOUS
 10
423.5138756208
 20
59.4967721326
 11
423.3304297833
 21
59.7486552858
  0
LINE
  5
514
100
AcDbEntity
  8
0
100
AcDbLine
 62
7
  6
CONTINUOUS
 10
424.4797981696
 20
58.8192275706
 11
424.663243898
 21
58.5673444361
  0
LINE
  5
515
100
AcDbEntity
  8
0
100
AcDbLine
 62
7
  6
CONTINUOUS
 10
421.9031567733
 20
60.4130455426
 11
422.0649047649
 21
60.1907435204
  0
LINE
  5
516
100
AcDbEntity
  8
0
100
AcDbLine
 62
7
  6
CONTINUOUS
 10
423.7691934901
 20
58.8279182888
 11
423.6074456028
 21
59.0502202089
  0
LINE
  5
517
100
AcDbEntity
  8
0
100
AcDbLine
 62
7
  6
CONTINUOUS
 10
423.192042858
 20
59.8192713889
 11
423.3403014283
 21
59.6117226636
  0
LINE
  5
518
100
AcDbEntity
  8
0
100
AcDbLine
 62
7
  6
CONTINUOUS
 10
424.8016309817
 20
58.4967282522
 11
424.6533722829
 21
58.70427708
  0
LINE
  5
519
100
AcDbEntity
  8
0
100
AcDbLine
 62
7
  6
CONTINUOUS
 10
402.0330066034
 20
80.1041371961
 11
401.8773507207
 21
80.3224870159
  0
LINE
  5
51A
100
AcDbEntity
  8
0
100
AcDbLine
 62
7
  6
CONTINUOUS
 10
393.3878160268
 20
93.6046318633
 11
393.0944419717
 21
94.0282031562
  0
LINE
  5
51B
100
AcDbEntity
  8
RUNDUNGEN
100
AcDbLine
 62
7
  6
CONTINUOUS
 10
377.0789789484
 20
94.529469044
 11
373.8948530606
 21
99.269563507
  0
LINE
  5
51C
100
AcDbEntity
  8
RUNDUNGEN
100
AcDbLine
 62
7
  6
CONTINUOUS
 10
377.4303869665
 20
102.6846270164
 11
385.7853305926
 21
90.246920903
  0
LINE
  5
51D
100
AcDbEntity
  8
0
100
AcDbLine
 62
7
  6
CONTINUOUS
 10
424.728182284
 20
59.5365684094
 11
424.8280974432
 21
59.3866795367
  0
LINE
  5
51E
100
AcDbEntity
  8
0
100
AcDbLine
 62
7
  6
CONTINUOUS
 10
425.1562194298
 20
59.152023841
 11
425.0563042706
 21
59.3019127137
  0
LINE
  5
51F
100
AcDbEntity
  8
0
100
AcDbLine
 62
7
  6
CONTINUOUS
 10
392.0540921681
 20
89.8599581606
 11
391.8585094647
 21
90.1540218071
  0
LINE
  5
520
100
AcDbEntity
  8
0
100
AcDbLine
 62
7
  6
CONTINUOUS
 10
394.8900417783
 20
87.7865610667
 11
395.0856245502
 21
87.4924973791
  0
LINE
  5
521
100
AcDbEntity
  8
0
100
AcDbLine
 62
7
  6
CONTINUOUS
 10
391.9209454773
 20
94.3205517302
 11
391.725362774
 21
94.6146153517
  0
LINE
  5
522
100
AcDbEntity
  8
0
100
AcDbLine
 62
7
  6
CONTINUOUS
 10
395.4414346521
 20
91.6910853536
 11
395.2458519145
 21
91.9851490081
  0
LINE
  5
523
100
AcDbEntity
  8
0
100
AcDbLine
 62
7
  6
CONTINUOUS
 10
423.1141585649
 20
59.9381514632
 11
423.192042858
 21
59.8192713889
  0
LINE
  5
524
100
AcDbEntity
  8
0
100
AcDbLine
 62
7
  6
CONTINUOUS
 10
424.879515097
 20
58.3778483425
 11
424.8016309817
 21
58.4967282522
  0
LINE
  5
525
100
AcDbEntity
  8
0
100
AcDbLine
 62
7
  6
CONTINUOUS
 10
399.2456791319
 20
82.1152610262
 11
400.092890139
 21
80.793410932
  0
LINE
  5
526
100
AcDbEntity
  8
0
100
AcDbLine
 62
7
  6
CONTINUOUS
 10
400.1850739547
 20
80.8124574716
 11
399.5903516338
 21
81.7429506439
  0
LINE
  5
527
100
AcDbEntity
  8
0
100
AcDbLine
 62
7
  6
CONTINUOUS
 10
401.8294204756
 20
80.2677692402
 11
401.9058613293
 21
80.1417781205
  0
LINE
  5
528
100
AcDbEntity
  8
0
100
AcDbLine
 62
7
  6
CONTINUOUS
 10
391.2717613545
 20
90.6857285312
 11
391.4673440579
 21
90.3566165058
  0
LINE
  5
529
100
AcDbEntity
  8
0
100
AcDbLine
 62
7
  6
CONTINUOUS
 10
248.58857877
 20
139.0192040179
 11
247.1016644806
 21
158.2680378567
  0
LINE
  5
52A
100
AcDbEntity
  8
0
100
AcDbLine
 62
7
  6
CONTINUOUS
 10
248.58857877
 20
146.8983762072
 11
247.3586395303
 21
162.8205421485
  0
LINE
  5
52B
100
AcDbEntity
  8
0
100
AcDbLine
 62
7
  6
CONTINUOUS
 10
219.33857877
 20
223.5509847253
 11
219.33857877
 21
295.995421697
  0
LINE
  5
52C
100
AcDbEntity
  8
0
100
AcDbLine
 62
7
  6
CONTINUOUS
 10
232.33857877
 20
107.537086948
 11
232.33857877
 21
140.7773474523
  0
LINE
  5
52D
100
AcDbEntity
  8
0
100
AcDbLine
 62
7
  6
CONTINUOUS
 10
233.83857877
 20
305.1287393375
 11
233.83857877
 21
801.1287393375
  0
LINE
  5
52E
100
AcDbEntity
  8
0
100
AcDbLine
 62
7
  6
CONTINUOUS
 10
237.83857877
 20
158.1974357623
 11
237.83857877
 21
148.483151905
  0
LINE
  5
52F
100
AcDbEntity
  8
0
100
AcDbLine
 62
7
  6
CONTINUOUS
 10
242.33857877
 20
176.7291283815
 11
242.33857877
 21
163.9996721564
  0
LINE
  5
530
100
AcDbEntity
  8
BEZUGSACHSEN
100
AcDbLine
 62
7
  6
CONTINUOUS
 10
242.33857877
 20
176.7291283815
 11
242.33857877
 21
202.1619814166
  0
LINE
  5
531
100
AcDbEntity
  8
0
100
AcDbLine
 62
7
  6
CONTINUOUS
 10
422.1036303435
 20
60.2548799025
 11
422.0224931365
 21
60.3844480358
  0
LINE
  5
532
100
AcDbEntity
  8
0
100
AcDbLine
 62
7
  6
CONTINUOUS
 10
423.5687199059
 20
58.986083958
 11
423.6498571269
 21
58.8565157956
  0
LINE
  5
533
100
AcDbEntity
  8
0
100
AcDbLine
 62
7
  6
CONTINUOUS
 10
426.176512861
 20
58.5685351944
 11
427.8171336057
 21
55.8984202181
  0
LINE
  5
534
100
AcDbEntity
  8
0
100
AcDbLine
 62
7
  6
CONTINUOUS
 10
428.0396393083
 20
55.5362915477
 11
432.0447419554
 21
49.017975481
  0
LINE
  5
535
100
AcDbEntity
  8
0
100
AcDbLine
 62
7
  6
CONTINUOUS
 10
432.5043613632
 20
48.8101189712
 11
426.9930094419
 21
57.7798600598
  0
LINE
  5
536
100
AcDbEntity
  8
0
100
AcDbLine
 62
7
  6
CONTINUOUS
 10
395.1633310108
 20
86.5999964529
 11
395.0281451405
 21
86.82747715
  0
LINE
  5
537
100
AcDbEntity
  8
0
100
AcDbLine
 62
7
  6
CONTINUOUS
 10
395.6723727203
 20
86.9607905469
 11
395.4767899912
 21
87.2899025721
  0
LINE
  5
538
100
AcDbEntity
  8
0
100
AcDbLine
 62
7
  6
CONTINUOUS
 10
391.2364060155
 20
95.0518629337
 11
391.4319887189
 21
94.7227509333
  0
LINE
  5
539
100
AcDbEntity
  8
0
100
AcDbLine
 62
7
  6
CONTINUOUS
 10
395.1089194981
 20
91.0332455416
 11
395.0376509274
 21
91.1531709755
  0
LINE
  5
53A
100
AcDbEntity
  8
0
100
AcDbLine
 62
7
  6
CONTINUOUS
 10
393.0944419717
 20
95.2548975218
 11
392.99665062
 21
95.4194534719
  0
LINE
  5
53B
100
AcDbEntity
  8
0
100
AcDbLine
 62
7
  6
CONTINUOUS
 10
395.0502692111
 20
91.9988253976
 11
395.1480605628
 21
91.8342693472
  0
LINE
  5
53C
100
AcDbEntity
  8
0
100
AcDbLine
 62
7
  6
CONTINUOUS
 10
395.6370173812
 20
91.3619733284
 11
395.4414346521
 21
91.6910853536
  0
LINE
  5
53D
100
AcDbEntity
  8
0
100
AcDbLine
 62
7
  6
CONTINUOUS
 10
393.0944419717
 20
96.8320760779
 11
392.99665062
 21
96.9966322285
  0
LINE
  5
53E
100
AcDbEntity
  8
0
100
AcDbLine
 62
7
  6
CONTINUOUS
 10
421.8016036222
 20
60.5842143048
 11
421.9031567733
 21
60.4130455426
  0
LINE
  5
53F
100
AcDbEntity
  8
0
100
AcDbLine
 62
7
  6
CONTINUOUS
 10
423.8707466553
 20
58.6567495104
 11
423.7691934901
 21
58.8279182888
  0
LINE
  5
540
100
AcDbEntity
  8
0
100
AcDbLine
 62
7
  6
CONTINUOUS
 10
423.0287646309
 20
60.0872425479
 11
423.1141585649
 21
59.9381514632
  0
LINE
  5
541
100
AcDbEntity
  8
0
100
AcDbLine
 62
7
  6
CONTINUOUS
 10
424.9649091349
 20
58.2287571863
 11
424.879515097
 21
58.3778483425
  0
LINE
  5
542
100
AcDbEntity
  8
0
100
AcDbLine
 62
7
  6
CONTINUOUS
 10
402.1278640382
 20
79.9382402419
 11
402.0330066034
 21
80.1041371961
  0
LINE
  5
543
100
AcDbEntity
  8
0
100
AcDbLine
 62
7
  6
CONTINUOUS
 10
391.8585094647
 20
90.1540218071
 11
391.760718113
 21
90.3536262364
  0
LINE
  5
544
100
AcDbEntity
  8
0
100
AcDbLine
 62
7
  6
CONTINUOUS
 10
392.99665062
 20
93.9123717739
 11
393.1922333234
 21
93.5131629154
  0
LINE
  5
545
100
AcDbEntity
  8
0
100
AcDbLine
 62
7
  6
CONTINUOUS
 10
392.6054852132
 20
95.2715640553
 11
392.7032765649
 21
95.071959626
  0
LINE
  5
546
100
AcDbEntity
  8
0
100
AcDbLine
 62
7
  6
CONTINUOUS
 10
393.0944419717
 20
94.6941228573
 11
392.99665062
 21
94.8937272865
  0
LINE
  5
547
100
AcDbEntity
  8
0
100
AcDbLine
 62
7
  6
CONTINUOUS
 10
392.6054852132
 20
95.8323387199
 11
392.7032765649
 21
95.6327342906
  0
LINE
  5
548
100
AcDbEntity
  8
0
100
AcDbLine
 62
7
  6
CONTINUOUS
 10
392.6054852132
 20
96.8487428119
 11
392.7032765649
 21
96.6491383827
  0
LINE
  5
549
100
AcDbEntity
  8
0
100
AcDbLine
 62
7
  6
CONTINUOUS
 10
393.0944419717
 20
96.2713016139
 11
392.99665062
 21
96.4709060432
  0
LINE
  5
54A
100
AcDbEntity
  8
0
100
AcDbLine
 62
7
  6
CONTINUOUS
 10
392.6054852132
 20
97.409517276
 11
392.7032765649
 21
97.2099128467
  0
LINE
  5
54B
100
AcDbEntity
  8
KONSTRUKTIONSELEMENTE
100
AcDbLine
 62
7
  6
CONTINUOUS
 10
313.2485973278
 20
170.3901472094
 11
313.215447377
 21
170.4808977883
  0
LINE
  5
54C
100
AcDbEntity
  8
KONSTRUKTIONSELEMENTE
100
AcDbLine
 62
7
  6
CONTINUOUS
 10
316.3642779415
 20
174.3282182276
 11
316.3974278923
 21
174.2374676487
  0
LINE
  5
54D
100
AcDbEntity
  8
KONSTRUKTIONSELEMENTE
100
AcDbLine
 62
7
  6
CONTINUOUS
 10
316.7178313321
 20
173.9867118766
 11
316.7509812829
 21
173.8959612978
  0
LINE
  5
54E
100
AcDbEntity
  8
0
100
AcDbLine
 62
7
  6
CONTINUOUS
 10
255.7488018771
 20
178.0332823835
 11
256.3185180097
 21
162.8205421485
  0
LINE
  5
54F
100
AcDbEntity
  8
0
100
AcDbLine
 62
7
  6
CONTINUOUS
 10
248.58857877
 20
146.8983762072
 11
248.58857877
 21
139.0192040179
  0
LINE
  5
550
100
AcDbEntity
  8
0
100
AcDbLine
 62
7
  6
CONTINUOUS
 10
255.08857877
 20
146.8983762072
 11
255.08857877
 21
139.0192040179
  0
LINE
  5
551
100
AcDbEntity
  8
RUNDUNGEN
100
AcDbLine
 62
7
  6
CONTINUOUS
 10
261.33857877
 20
176.7291283815
 11
261.33857877
 21
163.9996721564
  0
LINE
  5
552
100
AcDbEntity
  8
BEZUGSACHSEN
100
AcDbLine
 62
7
  6
CONTINUOUS
 10
261.33857877
 20
176.7291283815
 11
261.33857877
 21
202.1619814166
  0
LINE
  5
553
100
AcDbEntity
  8
RUNDUNGEN
100
AcDbLine
 62
7
  6
CONTINUOUS
 10
265.83857877
 20
158.1974357623
 11
265.83857877
 21
148.483151905
  0
LINE
  5
554
100
AcDbEntity
  8
0
100
AcDbLine
 62
7
  6
CONTINUOUS
 10
269.83857877
 20
305.1287393375
 11
269.83857877
 21
801.1287393375
  0
LINE
  5
555
100
AcDbEntity
  8
RUNDUNGEN
100
AcDbLine
 62
7
  6
CONTINUOUS
 10
271.33857877
 20
107.537086948
 11
271.33857877
 21
109.8309008613
  0
LINE
  5
556
100
AcDbEntity
  8
KONSTRUKTIONSELEMENTE
100
AcDbLine
 62
7
  6
CONTINUOUS
 10
271.33857877
 20
107.537086948
 11
271.33857877
 21
123.5838677444
  0
LINE
  5
557
100
AcDbEntity
  8
RUNDUNGEN
100
AcDbLine
 62
7
  6
CONTINUOUS
 10
271.33857877
 20
121.2900538311
 11
271.33857877
 21
140.7773474523
  0
LINE
  5
558
100
AcDbEntity
  8
0
100
AcDbLine
 62
7
  6
CONTINUOUS
 10
247.9283556629
 20
178.0332823835
 11
247.3586395303
 21
162.8205421485
  0
LINE
  5
559
100
AcDbEntity
  8
0
100
AcDbLine
 62
7
  6
CONTINUOUS
 10
422.7485157871
 20
59.5130097103
 11
422.7076839133
 21
59.5962109647
  0
LINE
  5
55A
100
AcDbEntity
  8
0
100
AcDbLine
 62
7
  6
CONTINUOUS
 10
423.3304297833
 20
59.7486552858
 11
423.2300161925
 21
59.9581688044
  0
LINE
  5
55B
100
AcDbEntity
  8
0
100
AcDbLine
 62
7
  6
CONTINUOUS
 10
424.663243898
 20
58.5673444361
 11
424.7636575732
 21
58.3578309299
  0
LINE
  5
55C
100
AcDbEntity
  8
0
100
AcDbLine
 62
7
  6
CONTINUOUS
 10
391.1739700028
 20
90.9203813896
 11
391.2717613545
 21
90.6857285312
  0
LINE
  5
55D
100
AcDbEntity
  8
0
100
AcDbLine
 62
7
  6
CONTINUOUS
 10
395.0856245502
 20
87.4924973791
 11
395.1834159019
 21
87.2578445207
  0
LINE
  5
55E
100
AcDbEntity
  8
0
100
AcDbLine
 62
7
  6
CONTINUOUS
 10
395.7348087415
 20
91.1273205119
 11
395.6370173812
 21
91.3619733284
  0
LINE
  5
55F
100
AcDbEntity
  8
KONSTRUKTIONSELEMENTE
100
AcDbLine
 62
7
  6
CONTINUOUS
 10
374.4133339005
 20
111.3095484958
 11
374.3801839496
 21
111.4002990746
  0
LINE
  5
560
100
AcDbEntity
  8
KONSTRUKTIONSELEMENTE
100
AcDbLine
 62
7
  6
CONTINUOUS
 10
377.5290145142
 20
115.2476195139
 11
377.562164465
 21
115.156868935
  0
LINE
  5
561
100
AcDbEntity
  8
KONSTRUKTIONSELEMENTE
100
AcDbLine
 62
7
  6
CONTINUOUS
 10
377.8825679048
 20
114.9061131629
 11
377.9157178556
 21
114.8153625841
  0
LINE
  5
562
100
AcDbEntity
  8
0
100
AcDbLine
 62
7
  6
CONTINUOUS
 10
284.33857877
 20
295.995421697
 11
284.33857877
 21
223.5509847253
  0
LINE
  5
563
100
AcDbEntity
  8
0
100
AcDbLine
 62
7
  6
CONTINUOUS
 10
255.08857877
 20
146.8983762072
 11
256.3185180097
 21
162.8205421485
  0
LINE
  5
564
100
AcDbEntity
  8
RUNDUNGEN
100
AcDbLine
 62
7
  6
CONTINUOUS
 10
255.08857877
 20
139.0192040179
 11
256.5754930594
 21
158.2680378567
  0
LINE
  5
565
100
AcDbEntity
  8
0
100
AcDbLine
 62
7
  6
CONTINUOUS
 10
391.725362774
 20
94.6146153517
 11
391.6275714223
 21
94.8843166391
  0
LINE
  5
566
100
AcDbEntity
  8
0
100
AcDbLine
 62
7
  6
CONTINUOUS
 10
395.7701640805
 20
86.6910893014
 11
395.6723727203
 21
86.9607905469
  0
LINE
  5
567
100
AcDbEntity
  8
0
100
AcDbLine
 62
7
  6
CONTINUOUS
 10
395.1480605628
 20
91.8342693472
 11
395.2458519145
 21
91.5645681601
  0
LINE
  5
568
100
AcDbEntity
  8
0
100
AcDbLine
 62
7
  6
CONTINUOUS
 10
401.1699161946
 20
82.0106542728
 11
401.2061655472
 21
81.8958548275
  0
LINE
  5
569
100
AcDbEntity
  8
0
100
AcDbLine
 62
7
  6
CONTINUOUS
 10
401.644981552
 20
81.4527862738
 11
401.6087323823
 21
81.5675854785
  0
LINE
  5
56A
100
AcDbEntity
  8
0
100
AcDbLine
 62
7
  6
CONTINUOUS
 10
400.9459550982
 20
80.8738530038
 11
400.9118959899
 21
80.9872971283
  0
LINE
  5
56B
100
AcDbEntity
  8
0
100
AcDbLine
 62
7
  6
CONTINUOUS
 10
391.1386146638
 20
95.391660979
 11
391.2364060155
 21
95.0518629337
  0
LINE
  5
56C
100
AcDbEntity
  8
0
100
AcDbLine
 62
7
  6
CONTINUOUS
 10
310.33857877
 20
295.995421697
 11
310.33857877
 21
223.5509847253
  0
LINE
  5
56D
100
AcDbEntity
  8
KONSTRUKTIONSELEMENTE
100
AcDbLine
 62
7
  6
CONTINUOUS
 10
247.8845658755
 20
217.1503464026
 11
247.8581395617
 21
217.0888454946
  0
LINE
  5
56E
100
AcDbEntity
  8
0
100
AcDbLine
 62
7
  6
CONTINUOUS
 10
243.110239272
 20
206.0392461683
 11
247.8845658755
 21
217.1503464026
  0
LINE
  5
56F
100
AcDbEntity
  8
0
100
AcDbLine
 62
7
  6
CONTINUOUS
 10
422.0224931365
 20
60.3844480358
 11
422.0015506518
 21
60.4628830402
  0
LINE
  5
570
100
AcDbEntity
  8
0
100
AcDbLine
 62
7
  6
CONTINUOUS
 10
422.4653253736
 20
59.9112466135
 11
422.5072103359
 21
59.7543766065
  0
LINE
  5
571
100
AcDbEntity
  8
0
100
AcDbLine
 62
7
  6
CONTINUOUS
 10
422.7076839133
 20
59.5962109647
 11
422.6867414285
 21
59.674645969
  0
LINE
  5
572
100
AcDbEntity
  8
0
100
AcDbLine
 62
7
  6
CONTINUOUS
 10
423.6498571269
 20
58.8565157956
 11
423.6707996116
 21
58.7780807913
  0
LINE
  5
573
100
AcDbEntity
  8
0
100
AcDbLine
 62
7
  6
CONTINUOUS
 10
401.9058613293
 20
80.1417781205
 11
401.9215037212
 21
80.0682398826
  0
LINE
  5
574
100
AcDbEntity
  8
0
100
AcDbLine
 62
7
  6
CONTINUOUS
 10
423.006235254
 20
60.1778760326
 11
423.0287646309
 21
60.0872425479
  0
LINE
  5
575
100
AcDbEntity
  8
0
100
AcDbLine
 62
7
  6
CONTINUOUS
 10
424.9874385241
 20
58.1381236861
 11
424.9649091349
 21
58.2287571863
  0
LINE
  5
576
100
AcDbEntity
  8
0
100
AcDbLine
 62
7
  6
CONTINUOUS
 10
421.7801345968
 20
60.6994836846
 11
421.8016036222
 21
60.5842143048
  0
LINE
  5
577
100
AcDbEntity
  8
0
100
AcDbLine
 62
7
  6
CONTINUOUS
 10
423.892215734
 20
58.5414801081
 11
423.8707466553
 21
58.6567495104
  0
LINE
  5
578
100
AcDbEntity
  8
0
100
AcDbLine
 62
7
  6
CONTINUOUS
 10
400.6926676193
 20
81.2244673421
 11
400.7055356868
 21
81.1172967529
  0
LINE
  5
579
100
AcDbEntity
  8
0
100
AcDbLine
 62
7
  6
CONTINUOUS
 10
402.1407321161
 20
79.8310696405
 11
402.1278640382
 21
79.9382402419
  0
LINE
  5
57A
100
AcDbEntity
  8
0
100
AcDbLine
 62
7
  6
CONTINUOUS
 10
389.9718884748
 20
91.0807359917
 11
389.9718884748
 21
85.9043550896
  0
LINE
  5
57B
100
AcDbEntity
  8
0
100
AcDbLine
 62
7
  6
CONTINUOUS
 10
390.3254418654
 20
85.6922582612
 11
390.3254418654
 21
90.6098201182
  0
LINE
  5
57C
100
AcDbEntity
  8
0
100
AcDbLine
 62
7
  6
CONTINUOUS
 10
391.1386146638
 20
95.4617578371
 11
391.1386146638
 21
95.391660979
  0
LINE
  5
57D
100
AcDbEntity
  8
0
100
AcDbLine
 62
7
  6
CONTINUOUS
 10
391.1386146638
 20
94.5154507035
 11
391.1386146638
 21
94.3051602293
  0
LINE
  5
57E
100
AcDbEntity
  8
0
100
AcDbLine
 62
7
  6
CONTINUOUS
 10
391.1739700028
 20
91.0956234346
 11
391.1739700028
 21
90.9203813896
  0
LINE
  5
57F
100
AcDbEntity
  8
0
100
AcDbLine
 62
7
  6
CONTINUOUS
 10
391.6275714223
 20
94.8843166391
 11
391.6275714223
 21
95.0245102551
  0
LINE
  5
580
100
AcDbEntity
  8
0
100
AcDbLine
 62
7
  6
CONTINUOUS
 10
391.760718113
 20
90.3536262364
 11
391.760718113
 21
90.5639167105
  0
LINE
  5
581
100
AcDbEntity
  8
0
100
AcDbLine
 62
7
  6
CONTINUOUS
 10
392.2143195324
 20
93.7918353006
 11
392.2143195324
 21
93.9670773958
  0
LINE
  5
582
100
AcDbEntity
  8
0
100
AcDbLine
 62
7
  6
CONTINUOUS
 10
392.2496748715
 20
90.3019111736
 11
392.2496748715
 21
90.5122016477
  0
LINE
  5
583
100
AcDbEntity
  8
0
100
AcDbLine
 62
7
  6
CONTINUOUS
 10
392.6054852132
 20
97.5497107917
 11
392.6054852132
 21
97.409517276
  0
LINE
  5
584
100
AcDbEntity
  8
0
100
AcDbLine
 62
7
  6
CONTINUOUS
 10
392.6054852132
 20
96.9889363277
 11
392.6054852132
 21
96.8487428119
  0
LINE
  5
585
100
AcDbEntity
  8
0
100
AcDbLine
 62
7
  6
CONTINUOUS
 10
392.6054852132
 20
96.6735006164
 11
392.6054852132
 21
96.498258421
  0
LINE
  5
586
100
AcDbEntity
  8
0
100
AcDbLine
 62
7
  6
CONTINUOUS
 10
392.6054852132
 20
95.9725324361
 11
392.6054852132
 21
95.8323387199
  0
LINE
  5
587
100
AcDbEntity
  8
0
100
AcDbLine
 62
7
  6
CONTINUOUS
 10
392.6054852132
 20
95.4117577716
 11
392.6054852132
 21
95.2715640553
  0
LINE
  5
588
100
AcDbEntity
  8
0
100
AcDbLine
 62
7
  6
CONTINUOUS
 10
392.6054852132
 20
95.0963220604
 11
392.6054852132
 21
94.9210800654
  0
LINE
  5
589
100
AcDbEntity
  8
0
100
AcDbLine
 62
7
  6
CONTINUOUS
 10
392.99665062
 20
94.8937272865
 11
392.99665062
 21
94.9638242449
  0
LINE
  5
58A
100
AcDbEntity
  8
0
100
AcDbLine
 62
7
  6
CONTINUOUS
 10
392.99665062
 20
95.4194534719
 11
392.99665062
 21
95.524598709
  0
LINE
  5
58B
100
AcDbEntity
  8
0
100
AcDbLine
 62
7
  6
CONTINUOUS
 10
392.99665062
 20
96.4709060432
 11
392.99665062
 21
96.5410026005
  0
LINE
  5
58C
100
AcDbEntity
  8
0
100
AcDbLine
 62
7
  6
CONTINUOUS
 10
392.99665062
 20
96.9966322285
 11
392.99665062
 21
97.1017774656
  0
LINE
  5
58D
100
AcDbEntity
  8
0
100
AcDbLine
 62
7
  6
CONTINUOUS
 10
393.1297973107
 20
89.2414877552
 11
393.1297973107
 21
89.0311972811
  0
LINE
  5
58E
100
AcDbEntity
  8
0
100
AcDbLine
 62
7
  6
CONTINUOUS
 10
393.1922333234
 20
93.5131629154
 11
393.1922333234
 21
93.3729692994
  0
LINE
  5
58F
100
AcDbEntity
  8
0
100
AcDbLine
 62
7
  6
CONTINUOUS
 10
393.5833987302
 20
92.9951325306
 11
393.5833987302
 21
93.1353261466
  0
LINE
  5
590
100
AcDbEntity
  8
0
100
AcDbLine
 62
7
  6
CONTINUOUS
 10
393.7165454209
 20
88.4644421279
 11
393.7165454209
 21
88.6747326021
  0
LINE
  5
591
100
AcDbEntity
  8
0
100
AcDbLine
 62
7
  6
CONTINUOUS
 10
394.4988763715
 20
87.3582843178
 11
394.4988763715
 21
87.1479938436
  0
LINE
  5
592
100
AcDbEntity
  8
0
100
AcDbLine
 62
7
  6
CONTINUOUS
 10
394.6591037358
 20
91.5705487148
 11
394.6591037358
 21
91.3953066698
  0
LINE
  5
593
100
AcDbEntity
  8
0
100
AcDbLine
 62
7
  6
CONTINUOUS
 10
395.1834159019
 20
87.2578445207
 11
395.1834159019
 21
86.9774571884
  0
LINE
  5
594
100
AcDbEntity
  8
0
100
AcDbLine
 62
7
  6
CONTINUOUS
 10
395.2458519145
 20
91.5645681601
 11
395.2458519145
 21
91.3542776859
  0
LINE
  5
595
100
AcDbEntity
  8
0
100
AcDbLine
 62
7
  6
CONTINUOUS
 10
395.7348087415
 20
89.865577667
 11
395.7348087415
 21
90.0758681412
  0
LINE
  5
596
100
AcDbEntity
  8
0
100
AcDbLine
 62
7
  6
CONTINUOUS
 10
395.7348087415
 20
90.8469331796
 11
395.7348087415
 21
91.1273205119
  0
LINE
  5
597
100
AcDbEntity
  8
0
100
AcDbLine
 62
7
  6
CONTINUOUS
 10
395.7348087415
 20
91.8983856506
 11
395.7348087415
 21
92.0736276456
  0
LINE
  5
598
100
AcDbEntity
  8
0
100
AcDbLine
 62
7
  6
CONTINUOUS
 10
395.7348087415
 20
93.4755640062
 11
395.7348087415
 21
93.6508062017
  0
LINE
  5
599
100
AcDbEntity
  8
0
100
AcDbLine
 62
7
  6
CONTINUOUS
 10
395.7348087415
 20
92.4591601146
 11
395.7348087415
 21
92.6344023101
  0
LINE
  5
59A
100
AcDbEntity
  8
0
100
AcDbLine
 62
7
  6
CONTINUOUS
 10
395.7348087415
 20
93.0199347792
 11
395.7348087415
 21
93.1951769747
  0
LINE
  5
59B
100
AcDbEntity
  8
0
100
AcDbLine
 62
7
  6
CONTINUOUS
 10
395.7348087415
 20
94.0363388713
 11
395.7348087415
 21
94.2115806657
  0
LINE
  5
59C
100
AcDbEntity
  8
0
100
AcDbLine
 62
7
  6
CONTINUOUS
 10
395.7348087415
 20
94.5971133353
 11
395.7348087415
 21
94.7723555308
  0
LINE
  5
59D
100
AcDbEntity
  8
0
100
AcDbLine
 62
7
  6
CONTINUOUS
 10
395.7701640805
 20
86.4107019691
 11
395.7701640805
 21
86.6910893014
  0
LINE
  5
59E
100
AcDbEntity
  8
0
100
AcDbLine
 62
7
  6
CONTINUOUS
 10
396.6894028961
 20
79.4157344216
 11
396.6894028961
 21
84.4627058011
  0
LINE
  5
59F
100
AcDbEntity
  8
0
100
AcDbLine
 62
7
  6
CONTINUOUS
 10
397.1490223039
 20
78.9717761654
 11
397.1490223039
 21
84.1481570675
  0
LINE
  5
5A0
100
AcDbEntity
  8
0
100
AcDbLine
 62
7
  6
CONTINUOUS
 10
400.6845562098
 20
79.3095888099
 11
400.6845562098
 21
79.1801792874
  0
LINE
  5
5A1
100
AcDbEntity
  8
0
100
AcDbLine
 62
7
  6
CONTINUOUS
 10
411.1850919104
 20
69.0374406643
 11
411.1850919104
 21
69.234657998
  0
LINE
  5
5A2
100
AcDbEntity
  8
0
100
AcDbLine
 62
7
  6
CONTINUOUS
 10
411.2911579276
 20
76.5923537534
 11
411.2911579276
 21
69.3371099033
  0
LINE
  5
5A3
100
AcDbEntity
  8
0
100
AcDbLine
 62
7
  6
CONTINUOUS
 10
411.6447113182
 20
68.7228919306
 11
411.6447113182
 21
76.4874632837
  0
LINE
  5
5A4
100
AcDbEntity
  8
0
100
AcDbLine
 62
7
  6
CONTINUOUS
 10
413.3944244157
 20
73.9713061086
 11
413.3944244157
 21
73.8311124525
  0
LINE
  5
5A5
100
AcDbEntity
  8
0
100
AcDbLine
 62
7
  6
CONTINUOUS
 10
414.0202892857
 20
73.6751930823
 11
414.0202892857
 21
73.3667670669
  0
LINE
  5
5A6
100
AcDbEntity
  8
0
100
AcDbLine
 62
7
  6
CONTINUOUS
 10
414.0202892857
 20
73.2265734108
 11
414.0202892857
 21
73.002263565
  0
LINE
  5
5A7
100
AcDbEntity
  8
0
100
AcDbLine
 62
7
  6
CONTINUOUS
 10
414.3332216112
 20
73.0644976519
 11
414.3332216112
 21
73.3729236672
  0
LINE
  5
5A8
100
AcDbEntity
  8
0
100
AcDbLine
 62
7
  6
CONTINUOUS
 10
414.3332216112
 20
72.69999415
 11
414.3332216112
 21
72.9243039957
  0
LINE
  5
5A9
100
AcDbEntity
  8
0
100
AcDbLine
 62
7
  6
CONTINUOUS
 10
417.3015655677
 20
71.0233616685
 11
417.3015655677
 21
63.2587903155
  0
LINE
  5
5AA
100
AcDbEntity
  8
0
100
AcDbLine
 62
7
  6
CONTINUOUS
 10
417.6551189583
 20
62.787874442
 11
417.6551189583
 21
70.8112648401
  0
LINE
  5
5AB
100
AcDbEntity
  8
0
100
AcDbLine
 62
7
  6
CONTINUOUS
 10
237.9122867635
 20
148.5848309797
 11
232.4122867635
 21
140.9976632406
  0
LINE
  5
5AC
100
AcDbEntity
  8
0
100
AcDbLine
 62
7
  6
CONTINUOUS
 10
421.8977596454
 20
58.8192077532
 11
421.8977596454
 21
58.6897982306
  0
LINE
  5
5AD
100
AcDbEntity
  8
0
100
AcDbLine
 62
7
  6
CONTINUOUS
 10
432.398295346
 20
48.5470596075
 11
432.398295346
 21
48.7076670659
  0
LINE
  5
5AE
100
AcDbEntity
  8
0
100
AcDbLine
 62
7
  6
CONTINUOUS
 10
432.5043613632
 20
55.9503600102
 11
432.5043613632
 21
48.8101189712
  0
LINE
  5
5AF
100
AcDbEntity
  8
0
100
AcDbLine
 62
7
  6
CONTINUOUS
 10
432.8579147538
 20
48.2325108738
 11
432.8579147538
 21
55.9970822269
  0
LINE
  5
5B0
100
AcDbEntity
  8
0
100
AcDbLine
 62
7
  6
CONTINUOUS
 10
434.80561775
 20
53.2896814953
 11
434.80561775
 21
53.1494878392
  0
LINE
  5
5B1
100
AcDbEntity
  8
0
100
AcDbLine
 62
7
  6
CONTINUOUS
 10
435.4314826201
 20
52.993568469
 11
435.4314826201
 21
52.6851424536
  0
LINE
  5
5B2
100
AcDbEntity
  8
0
100
AcDbLine
 62
7
  6
CONTINUOUS
 10
435.4314826201
 20
52.5449487975
 11
435.4314826201
 21
52.3206389517
  0
LINE
  5
5B3
100
AcDbEntity
  8
0
100
AcDbLine
 62
7
  6
CONTINUOUS
 10
435.7444149455
 20
52.3828730386
 11
435.7444149455
 21
52.6912990539
  0
LINE
  5
5B4
100
AcDbEntity
  8
0
100
AcDbLine
 62
7
  6
CONTINUOUS
 10
435.7444149455
 20
52.0183695367
 11
435.7444149455
 21
52.2426793824
  0
LINE
  5
5B5
100
AcDbEntity
  8
0
100
AcDbLine
 62
7
  6
CONTINUOUS
 10
438.5147690033
 20
50.5329806118
 11
438.5147690033
 21
42.7684092587
  0
LINE
  5
5B6
100
AcDbEntity
  8
0
100
AcDbLine
 62
7
  6
CONTINUOUS
 10
438.8683223939
 20
42.2974933852
 11
438.8683223939
 21
50.3208837834
  0
LINE
  5
5B7
100
AcDbEntity
  8
RUNDUNGEN
100
AcDbLine
 62
7
  6
CONTINUOUS
 10
453.0104580176
 20
39.8958678093
 11
453.0104580176
 21
37.603917551
  0
LINE
  5
5B8
100
AcDbEntity
  8
RUNDUNGEN
100
AcDbLine
 62
7
  6
CONTINUOUS
 10
453.0104580176
 20
27.6939515419
 11
453.0104580176
 21
25.4020012836
  0
LINE
  5
5B9
100
AcDbEntity
  8
RUNDUNGEN
100
AcDbLine
 62
7
  6
CONTINUOUS
 10
463.6170597354
 20
32.238867732
 11
463.6170597354
 21
31.3330010741
  0
LINE
  5
5BA
100
AcDbEntity
  8
RUNDUNGEN
100
AcDbLine
 62
7
  6
CONTINUOUS
 10
463.6170597354
 20
13.474486962
 11
463.6170597354
 21
12.5686203042
  0
LINE
  5
5BB
100
AcDbEntity
  8
0
100
AcDbLine
 62
7
  6
CONTINUOUS
 10
424.7376411204
 20
59.6082387168
 11
424.728182284
 21
59.5365684094
  0
LINE
  5
5BC
100
AcDbEntity
  8
0
100
AcDbLine
 62
7
  6
CONTINUOUS
 10
425.1467604505
 20
59.080353748
 11
425.1562194298
 21
59.152023841
  0
LINE
  5
5BD
100
AcDbEntity
  8
0
100
AcDbLine
 62
7
  6
CONTINUOUS
 10
423.2300161925
 20
59.9581688044
 11
423.2426740036
 21
60.0044679015
  0
LINE
  5
5BE
100
AcDbEntity
  8
0
100
AcDbLine
 62
7
  6
CONTINUOUS
 10
424.7636575732
 20
58.3578309299
 11
424.7509997622
 21
58.3115318328
  0
LINE
  5
5BF
100
AcDbEntity
  8
0
100
AcDbLine
 62
7
  6
CONTINUOUS
 10
391.2364060155
 20
95.612637498
 11
391.1386146638
 21
95.4617578371
  0
LINE
  5
5C0
100
AcDbEntity
  8
RUNDUNGEN
100
AcDbLine
 62
7
  6
CONTINUOUS
 10
463.6104199527
 20
31.3148554875
 11
463.6170597354
 21
31.3330010741
  0
LINE
  5
5C1
100
AcDbEntity
  8
0
100
AcDbLine
 62
7
  6
CONTINUOUS
 10
423.0390606156
 20
60.2402630922
 11
423.006235254
 21
60.1778760326
  0
LINE
  5
5C2
100
AcDbEntity
  8
0
100
AcDbLine
 62
7
  6
CONTINUOUS
 10
424.9546130134
 20
58.0757366957
 11
424.9874385241
 21
58.1381236861
  0
LINE
  5
5C3
100
AcDbEntity
  8
0
100
AcDbLine
 62
7
  6
CONTINUOUS
 10
393.5833987302
 20
93.1353261466
 11
393.6811900819
 21
93.2511574286
  0
LINE
  5
5C4
100
AcDbEntity
  8
RUNDUNGEN
100
AcDbLine
 62
7
  6
CONTINUOUS
 10
371.7259574478
 20
120.4873086691
 11
372.8979206864
 21
121.6193382287
  0
LINE
  5
5C5
100
AcDbEntity
  8
0
100
AcDbLine
 62
7
  6
CONTINUOUS
 10
375.1200144612
 20
108.8489440403
 11
371.5844805553
 21
105.4338805309
  0
LINE
  5
5C6
100
AcDbEntity
  8
RUNDUNGEN
100
AcDbLine
 62
7
  6
CONTINUOUS
 10
385.7654664907
 20
110.3949999348
 11
384.4151365697
 21
109.09068139
  0
LINE
  5
5C7
100
AcDbEntity
  8
RUNDUNGEN
100
AcDbLine
 62
7
  6
CONTINUOUS
 10
373.7728272003
 20
96.6961812149
 11
370.2372932943
 21
93.2811177055
  0
LINE
  5
5C8
100
AcDbEntity
  8
0
100
AcDbLine
 62
7
  6
CONTINUOUS
 10
422.0015506518
 20
60.4628830402
 11
422.0209135002
 21
60.4949511656
  0
LINE
  5
5C9
100
AcDbEntity
  8
0
100
AcDbLine
 62
7
  6
CONTINUOUS
 10
422.6867414285
 20
59.674645969
 11
422.706104277
 21
59.7067140945
  0
LINE
  5
5CA
100
AcDbEntity
  8
0
100
AcDbLine
 62
7
  6
CONTINUOUS
 10
423.6707996116
 20
58.7780807913
 11
423.6514367916
 21
58.746012659
  0
LINE
  5
5CB
100
AcDbEntity
  8
0
100
AcDbLine
 62
7
  6
CONTINUOUS
 10
416.4455150202
 20
71.1082950851
 11
416.5237481084
 21
71.200960104
  0
LINE
  5
5CC
100
AcDbEntity
  8
0
100
AcDbLine
 62
7
  6
CONTINUOUS
 10
392.7032765649
 20
97.5603968366
 11
392.6054852132
 21
97.4659376444
  0
LINE
  5
5CD
100
AcDbEntity
  8
0
100
AcDbLine
 62
7
  6
CONTINUOUS
 10
392.8988592683
 20
97.4415754106
 11
392.6819173121
 21
97.2320255723
  0
LINE
  5
5CE
100
AcDbEntity
  8
0
100
AcDbLine
 62
7
  6
CONTINUOUS
 10
392.7032765649
 20
96.9996223725
 11
392.6054852132
 21
96.9051631803
  0
LINE
  5
5CF
100
AcDbEntity
  8
0
100
AcDbLine
 62
7
  6
CONTINUOUS
 10
392.99665062
 20
97.1017774656
 11
392.8742241424
 21
96.983522569
  0
LINE
  5
5D0
100
AcDbEntity
  8
0
100
AcDbLine
 62
7
  6
CONTINUOUS
 10
391.4319887189
 20
95.5639127296
 11
391.1636393353
 21
95.3047071296
  0
LINE
  5
5D1
100
AcDbEntity
  8
0
100
AcDbLine
 62
7
  6
CONTINUOUS
 10
392.99665062
 20
96.9966322285
 11
392.9201340496
 21
96.922722897
  0
LINE
  5
5D2
100
AcDbEntity
  8
0
100
AcDbLine
 62
7
  6
CONTINUOUS
 10
392.99665062
 20
96.821390033
 11
392.7588061545
 21
96.5916499212
  0
LINE
  5
5D3
100
AcDbEntity
  8
0
100
AcDbLine
 62
7
  6
CONTINUOUS
 10
393.0944419717
 20
96.8320760779
 11
392.7883759565
 21
96.5364390094
  0
LINE
  5
5D4
100
AcDbEntity
  8
0
100
AcDbLine
 62
7
  6
CONTINUOUS
 10
393.3878160268
 20
97.039376408
 11
393.2878291739
 21
96.9427965245
  0
LINE
  5
5D5
100
AcDbEntity
  8
0
100
AcDbLine
 62
7
  6
CONTINUOUS
 10
392.99665062
 20
96.5410026005
 11
392.8706660283
 21
96.4193108297
  0
LINE
  5
5D6
100
AcDbEntity
  8
0
100
AcDbLine
 62
7
  6
CONTINUOUS
 10
393.1922333234
 20
96.7025686071
 11
393.0103185944
 21
96.5268524721
  0
LINE
  5
5D7
100
AcDbEntity
  8
0
100
AcDbLine
 62
7
  6
CONTINUOUS
 10
392.8988592683
 20
96.3901230399
 11
392.8011241124
 21
96.2957181287
  0
LINE
  5
5D8
100
AcDbEntity
  8
0
100
AcDbLine
 62
7
  6
CONTINUOUS
 10
392.99665062
 20
96.4709060432
 11
392.9056932555
 21
96.3830479757
  0
LINE
  5
5D9
100
AcDbEntity
  8
0
100
AcDbLine
 62
7
  6
CONTINUOUS
 10
391.8231541257
 20
95.3262696771
 11
391.3635347179
 21
94.8823114209
  0
LINE
  5
5DA
100
AcDbEntity
  8
0
100
AcDbLine
 62
7
  6
CONTINUOUS
 10
391.6275714223
 20
95.0245102551
 11
391.3893855507
 21
94.7944403703
  0
LINE
  5
5DB
100
AcDbEntity
  8
0
100
AcDbLine
 62
7
  6
CONTINUOUS
 10
392.7032765649
 20
95.9832182805
 11
392.6054852132
 21
95.8887590883
  0
LINE
  5
5DC
100
AcDbEntity
  8
0
100
AcDbLine
 62
7
  6
CONTINUOUS
 10
391.6275714223
 20
94.8843166391
 11
391.4456568436
 21
94.7086006494
  0
LINE
  5
5DD
100
AcDbEntity
  8
0
100
AcDbLine
 62
7
  6
CONTINUOUS
 10
393.0944419717
 20
96.2713016139
 11
392.9674450806
 21
96.1486320369
  0
LINE
  5
5DE
100
AcDbEntity
  8
0
100
AcDbLine
 62
7
  6
CONTINUOUS
 10
393.3878160268
 20
96.4786015429
 11
393.2878292857
 21
96.3820217674
  0
LINE
  5
5DF
100
AcDbEntity
  8
0
100
AcDbLine
 62
7
  6
CONTINUOUS
 10
392.8988592683
 20
95.8643968545
 11
392.6819173121
 21
95.6548470162
  0
LINE
  5
5E0
100
AcDbEntity
  8
0
100
AcDbLine
 62
7
  6
CONTINUOUS
 10
391.725362774
 20
94.6146153517
 11
391.6029363807
 21
94.4963605366
  0
LINE
  5
5E1
100
AcDbEntity
  8
0
100
AcDbLine
 62
7
  6
CONTINUOUS
 10
392.2143195324
 20
94.9834813876
 11
392.1108046941
 21
94.8834937318
  0
LINE
  5
5E2
100
AcDbEntity
  8
0
100
AcDbLine
 62
7
  6
CONTINUOUS
 10
393.2900246751
 20
96.0122862711
 11
393.1993126397
 21
95.9246651734
  0
LINE
  5
5E3
100
AcDbEntity
  8
0
100
AcDbLine
 62
7
  6
CONTINUOUS
 10
392.7032765649
 20
95.4224438164
 11
392.6054852132
 21
95.3279846243
  0
LINE
  5
5E4
100
AcDbEntity
  8
0
100
AcDbLine
 62
7
  6
CONTINUOUS
 10
392.99665062
 20
95.524598709
 11
392.8742242299
 21
95.406343897
  0
LINE
  5
5E5
100
AcDbEntity
  8
0
100
AcDbLine
 62
7
  6
CONTINUOUS
 10
392.99665062
 20
95.4194534719
 11
392.9201341371
 21
95.345544225
  0
LINE
  5
5E6
100
AcDbEntity
  8
0
100
AcDbLine
 62
7
  6
CONTINUOUS
 10
392.4099025098
 20
94.7945627386
 11
392.3155562401
 21
94.7034312401
  0
LINE
  5
5E7
100
AcDbEntity
  8
0
100
AcDbLine
 62
7
  6
CONTINUOUS
 10
391.9209454773
 20
94.3205517302
 11
391.8124745243
 21
94.2157768353
  0
LINE
  5
5E8
100
AcDbEntity
  8
0
100
AcDbLine
 62
7
  6
CONTINUOUS
 10
392.99665062
 20
95.2442114769
 11
392.7588060543
 21
95.0144712683
  0
LINE
  5
5E9
100
AcDbEntity
  8
0
100
AcDbLine
 62
7
  6
CONTINUOUS
 10
393.0944419717
 20
95.2548975218
 11
392.7883759071
 21
94.9592604055
  0
LINE
  5
5EA
100
AcDbEntity
  8
0
100
AcDbLine
 62
7
  6
CONTINUOUS
 10
393.3878160268
 20
95.462197852
 11
393.2878291154
 21
95.3656179119
  0
LINE
  5
5EB
100
AcDbEntity
  8
0
100
AcDbLine
 62
7
  6
CONTINUOUS
 10
392.99665062
 20
94.9638242449
 11
392.8706659281
 21
94.8421323773
  0
LINE
  5
5EC
100
AcDbEntity
  8
0
100
AcDbLine
 62
7
  6
CONTINUOUS
 10
393.1922333234
 20
95.1253898504
 11
393.0103187948
 21
94.9496739091
  0
LINE
  5
5ED
100
AcDbEntity
  8
0
100
AcDbLine
 62
7
  6
CONTINUOUS
 10
392.8988592683
 20
94.8129444838
 11
392.8011242126
 21
94.7185396694
  0
LINE
  5
5EE
100
AcDbEntity
  8
0
100
AcDbLine
 62
7
  6
CONTINUOUS
 10
392.99665062
 20
94.8937272865
 11
392.9056933557
 21
94.8058693159
  0
LINE
  5
5EF
100
AcDbEntity
  8
0
100
AcDbLine
 62
7
  6
CONTINUOUS
 10
392.2143195324
 20
93.9670773958
 11
392.1267511137
 21
93.8824927986
  0
LINE
  5
5F0
100
AcDbEntity
  8
0
100
AcDbLine
 62
7
  6
CONTINUOUS
 10
393.0944419717
 20
94.6941228573
 11
392.9674452882
 21
94.5714534808
  0
LINE
  5
5F1
100
AcDbEntity
  8
0
100
AcDbLine
 62
7
  6
CONTINUOUS
 10
391.9209454773
 20
93.5494866918
 11
391.8124744993
 21
93.4447117727
  0
LINE
  5
5F2
100
AcDbEntity
  8
0
100
AcDbLine
 62
7
  6
CONTINUOUS
 10
392.8010679166
 20
94.3816774906
 11
392.6959858342
 21
94.2801759933
  0
LINE
  5
5F3
100
AcDbEntity
  8
0
100
AcDbLine
 62
7
  6
CONTINUOUS
 10
393.3878160268
 20
94.9014231874
 11
393.2878291739
 21
94.8048433039
  0
LINE
  5
5F4
100
AcDbEntity
  8
0
100
AcDbLine
 62
7
  6
CONTINUOUS
 10
393.2900246751
 20
94.435107715
 11
393.1993127435
 21
94.3474867175
  0
LINE
  5
5F5
100
AcDbEntity
  8
0
100
AcDbLine
 62
7
  6
CONTINUOUS
 10
393.0944419717
 20
94.0282031562
 11
392.9859709435
 21
93.9234281886
  0
LINE
  5
5F6
100
AcDbEntity
  8
0
100
AcDbLine
 62
7
  6
CONTINUOUS
 10
393.3878160268
 20
93.6046318633
 11
393.1922333234
 21
93.4157134789
  0
LINE
  5
5F7
100
AcDbEntity
  8
0
100
AcDbLine
 62
7
  6
CONTINUOUS
 10
390.3254418654
 20
90.6098201182
 11
389.9718884748
 21
90.2683137672
  0
LINE
  5
5F8
100
AcDbEntity
  8
0
100
AcDbLine
 62
7
  6
CONTINUOUS
 10
393.5833987302
 20
93.5909554739
 11
393.272110614
 21
93.290274243
  0
LINE
  5
5F9
100
AcDbEntity
  8
0
100
AcDbLine
 62
7
  6
CONTINUOUS
 10
391.2717613545
 20
91.1764063377
 11
391.1808040401
 21
91.0885483186
  0
LINE
  5
5FA
100
AcDbEntity
  8
0
100
AcDbLine
 62
7
  6
CONTINUOUS
 10
393.6811900819
 20
93.2511574286
 11
393.5026643989
 21
93.0787148607
  0
LINE
  5
5FB
100
AcDbEntity
  8
0
100
AcDbLine
 62
7
  6
CONTINUOUS
 10
393.5833987302
 20
93.1353261466
 11
393.5133440253
 21
93.0676584979
  0
LINE
  5
5FC
100
AcDbEntity
  8
0
100
AcDbLine
 62
7
  6
CONTINUOUS
 10
393.8767727853
 20
93.3776748557
 11
393.7259459726
 21
93.2319873421
  0
LINE
  5
5FD
100
AcDbEntity
  8
0
100
AcDbLine
 62
7
  6
CONTINUOUS
 10
391.5651354096
 20
91.0332223771
 11
391.2527100417
 21
90.7314426454
  0
LINE
  5
5FE
100
AcDbEntity
  8
0
100
AcDbLine
 62
7
  6
CONTINUOUS
 10
395.7348087415
 20
94.7723555308
 11
395.6472402727
 21
94.6877708852
  0
LINE
  5
5FF
100
AcDbEntity
  8
0
100
AcDbLine
 62
7
  6
CONTINUOUS
 10
394.267938329
 20
93.0348862333
 11
394.1679515649
 21
92.9383064355
  0
LINE
  5
600
100
AcDbEntity
  8
0
100
AcDbLine
 62
7
  6
CONTINUOUS
 10
391.9563008164
 20
90.7605308454
 11
391.4966814086
 21
90.3165725892
  0
LINE
  5
601
100
AcDbEntity
  8
0
100
AcDbLine
 62
7
  6
CONTINUOUS
 10
391.760718113
 20
90.5639167105
 11
391.5053598962
 21
90.3172596139
  0
LINE
  5
602
100
AcDbEntity
  8
0
100
AcDbLine
 62
7
  6
CONTINUOUS
 10
395.7348087415
 20
94.2115806657
 11
395.6472404731
 21
94.1269962137
  0
LINE
  5
603
100
AcDbEntity
  8
0
100
AcDbLine
 62
7
  6
CONTINUOUS
 10
391.760718113
 20
90.3536262364
 11
391.5923817823
 21
90.1910258271
  0
LINE
  5
604
100
AcDbEntity
  8
0
100
AcDbLine
 62
7
  6
CONTINUOUS
 10
391.8585094647
 20
90.1540218071
 11
391.7207797382
 21
90.0209851073
  0
LINE
  5
605
100
AcDbEntity
  8
0
100
AcDbLine
 62
7
  6
CONTINUOUS
 10
392.2496748715
 20
90.5122016477
 11
392.1296907044
 21
90.396305842
  0
LINE
  5
606
100
AcDbEntity
  8
0
100
AcDbLine
 62
7
  6
CONTINUOUS
 10
394.6591037358
 20
92.6570494645
 11
394.5715353672
 21
92.5724649157
  0
LINE
  5
607
100
AcDbEntity
  8
0
100
AcDbLine
 62
7
  6
CONTINUOUS
 10
395.7348087415
 20
93.6508062017
 11
395.6472402727
 21
93.5662215561
  0
LINE
  5
608
100
AcDbEntity
  8
0
100
AcDbLine
 62
7
  6
CONTINUOUS
 10
392.0540921681
 20
89.8599581606
 11
391.9422323006
 21
89.7519098256
  0
LINE
  5
609
100
AcDbEntity
  8
0
100
AcDbLine
 62
7
  6
CONTINUOUS
 10
395.7348087415
 20
93.1951769747
 11
395.6472402727
 21
93.1105923291
  0
LINE
  5
60A
100
AcDbEntity
  8
0
100
AcDbLine
 62
7
  6
CONTINUOUS
 10
394.9524778594
 20
92.3386235431
 11
394.8615204925
 21
92.2507654733
  0
LINE
  5
60B
100
AcDbEntity
  8
0
100
AcDbLine
 62
7
  6
CONTINUOUS
 10
392.3474664972
 20
89.5415319154
 11
392.2389955096
 21
89.4367569871
  0
LINE
  5
60C
100
AcDbEntity
  8
0
100
AcDbLine
 62
7
  6
CONTINUOUS
 10
395.7348087415
 20
92.6344023101
 11
395.6472402727
 21
92.5498176646
  0
LINE
  5
60D
100
AcDbEntity
  8
0
100
AcDbLine
 62
7
  6
CONTINUOUS
 10
395.2458519145
 20
91.9851490081
 11
395.1198672727
 21
91.8634571889
  0
LINE
  5
60E
100
AcDbEntity
  8
0
100
AcDbLine
 62
7
  6
CONTINUOUS
 10
392.5430492006
 20
89.352613531
 11
392.4278004216
 21
89.241291759
  0
LINE
  5
60F
100
AcDbEntity
  8
0
100
AcDbLine
 62
7
  6
CONTINUOUS
 10
394.8546864392
 20
91.4166788097
 11
394.7428265404
 21
91.3086304444
  0
LINE
  5
610
100
AcDbEntity
  8
0
100
AcDbLine
 62
7
  6
CONTINUOUS
 10
395.7348087415
 20
92.0736276456
 11
395.6472403729
 21
91.9890430968
  0
LINE
  5
611
100
AcDbEntity
  8
0
100
AcDbLine
 62
7
  6
CONTINUOUS
 10
395.4414346521
 20
91.6910853536
 11
395.2458519145
 21
91.5021669361
  0
LINE
  5
612
100
AcDbEntity
  8
0
100
AcDbLine
 62
7
  6
CONTINUOUS
 10
395.0502692111
 20
91.297857117
 11
394.9242845693
 21
91.1761652978
  0
LINE
  5
613
100
AcDbEntity
  8
0
100
AcDbLine
 62
7
  6
CONTINUOUS
 10
392.8364232556
 20
89.1042843584
 11
392.7070497056
 21
88.9793191053
  0
LINE
  5
614
100
AcDbEntity
  8
0
100
AcDbLine
 62
7
  6
CONTINUOUS
 10
395.1480605628
 20
91.2734947829
 11
394.9836596478
 21
91.1146956933
  0
LINE
  5
615
100
AcDbEntity
  8
0
100
AcDbLine
 62
7
  6
CONTINUOUS
 10
395.2458519145
 20
91.3542776859
 11
394.9904936851
 21
91.1076205772
  0
LINE
  5
616
100
AcDbEntity
  8
0
100
AcDbLine
 62
7
  6
CONTINUOUS
 10
393.2275886624
 20
89.3222706081
 11
393.1366313731
 21
89.2344126133
  0
LINE
  5
617
100
AcDbEntity
  8
0
100
AcDbLine
 62
7
  6
CONTINUOUS
 10
393.032005959
 20
89.0205112362
 11
392.8607830311
 21
88.855122588
  0
LINE
  5
618
100
AcDbEntity
  8
0
100
AcDbLine
 62
7
  6
CONTINUOUS
 10
393.1297973107
 20
89.0311972811
 11
392.9062562685
 21
88.8152732152
  0
LINE
  5
619
100
AcDbEntity
  8
0
100
AcDbLine
 62
7
  6
CONTINUOUS
 10
393.4231713658
 20
89.2735458397
 11
392.9635519581
 21
88.8295875835
  0
LINE
  5
61A
100
AcDbEntity
  8
0
100
AcDbLine
 62
7
  6
CONTINUOUS
 10
395.6370173812
 20
91.3619733284
 11
395.2206471555
 21
90.9597905741
  0
LINE
  5
61B
100
AcDbEntity
  8
0
100
AcDbLine
 62
7
  6
CONTINUOUS
 10
395.7348087415
 20
91.1273205119
 11
395.4444231835
 21
90.8468296019
  0
LINE
  5
61C
100
AcDbEntity
  8
0
100
AcDbLine
 62
7
  6
CONTINUOUS
 10
390.3254418654
 20
85.6922582612
 11
390.2584545673
 21
85.6275534999
  0
LINE
  5
61D
100
AcDbEntity
  8
0
100
AcDbLine
 62
7
  6
CONTINUOUS
 10
393.8143367726
 20
89.0359027872
 11
393.3547173649
 21
88.591944531
  0
LINE
  5
61E
100
AcDbEntity
  8
0
100
AcDbLine
 62
7
  6
CONTINUOUS
 10
393.7165454209
 20
88.6747326021
 11
393.4857838141
 21
88.4518340063
  0
LINE
  5
61F
100
AcDbEntity
  8
0
100
AcDbLine
 62
7
  6
CONTINUOUS
 10
394.2055023164
 20
88.728162644
 11
394.0586151105
 21
88.5862804983
  0
LINE
  5
620
100
AcDbEntity
  8
0
100
AcDbLine
 62
7
  6
CONTINUOUS
 10
395.7348087415
 20
90.0758681412
 11
395.6297266591
 21
89.9743666439
  0
LINE
  5
621
100
AcDbEntity
  8
0
100
AcDbLine
 62
7
  6
CONTINUOUS
 10
394.6944590749
 20
88.2558666831
 11
394.5859880968
 21
88.1510917639
  0
LINE
  5
622
100
AcDbEntity
  8
0
100
AcDbLine
 62
7
  6
CONTINUOUS
 10
395.0856245502
 20
87.8079330903
 11
394.9578894107
 21
87.6845504202
  0
LINE
  5
623
100
AcDbEntity
  8
0
100
AcDbLine
 62
7
  6
CONTINUOUS
 10
394.7922504266
 20
87.1099551452
 11
394.6733456257
 21
86.9951019272
  0
LINE
  5
624
100
AcDbEntity
  8
0
100
AcDbLine
 62
7
  6
CONTINUOUS
 10
395.0856245502
 20
86.9317227395
 11
394.9212236375
 21
86.7729236522
  0
LINE
  5
625
100
AcDbEntity
  8
0
100
AcDbLine
 62
7
  6
CONTINUOUS
 10
395.4767899912
 20
87.2899025721
 11
395.1834159019
 21
87.0065249625
  0
LINE
  5
626
100
AcDbEntity
  8
0
100
AcDbLine
 62
7
  6
CONTINUOUS
 10
395.1834159019
 20
86.9774571884
 11
394.9547698669
 21
86.7566020782
  0
LINE
  5
627
100
AcDbEntity
  8
0
100
AcDbLine
 62
7
  6
CONTINUOUS
 10
395.6723727203
 20
86.9607905469
 11
395.2395784156
 21
86.5427433506
  0
LINE
  5
628
100
AcDbEntity
  8
0
100
AcDbLine
 62
7
  6
CONTINUOUS
 10
395.7701640805
 20
86.6910893014
 11
395.4725171381
 21
86.4035844326
  0
LINE
  5
629
100
AcDbEntity
  8
0
100
AcDbLine
 62
7
  6
CONTINUOUS
 10
397.1490223039
 20
84.1481570675
 11
396.6894028961
 21
83.7041988112
  0
LINE
  5
62A
100
AcDbEntity
  8
0
100
AcDbLine
 62
7
  6
CONTINUOUS
 10
399.3246938337
 20
82.1315866321
 11
399.2756594812
 21
82.0842230846
  0
LINE
  5
62B
100
AcDbEntity
  8
0
100
AcDbLine
 62
7
  6
CONTINUOUS
 10
396.6894028961
 20
79.5451439442
 11
396.622415598
 21
79.4804391829
  0
LINE
  5
62C
100
AcDbEntity
  8
0
100
AcDbLine
 62
7
  6
CONTINUOUS
 10
399.5903516338
 20
81.7429506439
 11
399.5248529056
 21
81.6796837308
  0
LINE
  5
62D
100
AcDbEntity
  8
0
100
AcDbLine
 62
7
  6
CONTINUOUS
 10
391.6275714223
 20
95.0245102551
 11
391.725362774
 21
95.1052931581
  0
LINE
  5
62E
100
AcDbEntity
  8
0
100
AcDbLine
 62
7
  6
CONTINUOUS
 10
400.0718153439
 20
81.8561664833
 11
400.028581859
 21
81.8144061436
  0
LINE
  5
62F
100
AcDbEntity
  8
0
100
AcDbLine
 62
7
  6
CONTINUOUS
 10
400.4883133437
 20
81.9051320749
 11
400.3518060785
 21
81.7732761819
  0
LINE
  5
630
100
AcDbEntity
  8
0
100
AcDbLine
 62
7
  6
CONTINUOUS
 10
401.3310028192
 20
82.5674550111
 11
401.1730423052
 21
82.4148768711
  0
LINE
  5
631
100
AcDbEntity
  8
0
100
AcDbLine
 62
7
  6
CONTINUOUS
 10
401.2614955652
 20
81.9572867968
 11
401.202174308
 21
81.8999868624
  0
LINE
  5
632
100
AcDbEntity
  8
0
100
AcDbLine
 62
7
  6
CONTINUOUS
 10
400.1850739547
 20
80.8124574716
 11
400.127867212
 21
80.7572000014
  0
LINE
  5
633
100
AcDbEntity
  8
0
100
AcDbLine
 62
7
  6
CONTINUOUS
 10
400.7590144594
 20
81.2392792671
 11
400.6979691473
 21
81.1803140236
  0
LINE
  5
634
100
AcDbEntity
  8
0
100
AcDbLine
 62
7
  6
CONTINUOUS
 10
400.4089489464
 20
80.8587133557
 11
400.2128115363
 21
80.6692591658
  0
LINE
  5
635
100
AcDbEntity
  8
0
100
AcDbLine
 62
7
  6
CONTINUOUS
 10
400.7055356868
 20
81.1172967529
 11
400.653468098
 21
81.0670033241
  0
LINE
  5
636
100
AcDbEntity
  8
0
100
AcDbLine
 62
7
  6
CONTINUOUS
 10
400.4879636482
 20
80.8750389617
 11
400.2427918856
 21
80.6382212243
  0
LINE
  5
637
100
AcDbEntity
  8
0
100
AcDbLine
 62
7
  6
CONTINUOUS
 10
400.8861597335
 20
81.2016383427
 11
400.6985049516
 21
81.0203777424
  0
LINE
  5
638
100
AcDbEntity
  8
0
100
AcDbLine
 62
7
  6
CONTINUOUS
 10
401.4809036591
 20
81.7357523997
 11
401.4008736153
 21
81.6584493136
  0
LINE
  5
639
100
AcDbEntity
  8
0
100
AcDbLine
 62
7
  6
CONTINUOUS
 10
400.6196548054
 20
80.9022483023
 11
400.2927591297
 21
80.5864913267
  0
LINE
  5
63A
100
AcDbEntity
  8
0
100
AcDbLine
 62
7
  6
CONTINUOUS
 10
401.0317216027
 20
81.1240915676
 11
400.8075138088
 21
80.9075234691
  0
LINE
  5
63B
100
AcDbEntity
  8
0
100
AcDbLine
 62
7
  6
CONTINUOUS
 10
400.9118959899
 20
80.9872971283
 11
400.8299916308
 21
80.9081835926
  0
LINE
  5
63C
100
AcDbEntity
  8
0
100
AcDbLine
 62
7
  6
CONTINUOUS
 10
401.6087323823
 20
81.5675854785
 11
401.5494111506
 21
81.5102855688
  0
LINE
  5
63D
100
AcDbEntity
  8
0
100
AcDbLine
 62
7
  6
CONTINUOUS
 10
400.7464680849
 20
80.5958061098
 11
400.6974337324
 21
80.5484425623
  0
LINE
  5
63E
100
AcDbEntity
  8
0
100
AcDbLine
 62
7
  6
CONTINUOUS
 10
401.2564986221
 20
80.9541860565
 11
401.2043605489
 21
80.903824545
  0
LINE
  5
63F
100
AcDbEntity
  8
0
100
AcDbLine
 62
7
  6
CONTINUOUS
 10
401.4785013172
 20
80.750648194
 11
401.4315347696
 21
80.7052819927
  0
LINE
  5
640
100
AcDbEntity
  8
0
100
AcDbLine
 62
7
  6
CONTINUOUS
 10
401.2812318647
 20
80.464512288
 11
401.2342653171
 21
80.4191460867
  0
LINE
  5
641
100
AcDbEntity
  8
0
100
AcDbLine
 62
7
  6
CONTINUOUS
 10
401.7189206627
 20
80.5072044162
 11
401.6771256444
 21
80.4668335285
  0
LINE
  5
642
100
AcDbEntity
  8
0
100
AcDbLine
 62
7
  6
CONTINUOUS
 10
401.4820436681
 20
80.2672478925
 11
401.4350771205
 21
80.2218816912
  0
LINE
  5
643
100
AcDbEntity
  8
0
100
AcDbLine
 62
7
  6
CONTINUOUS
 10
401.6248313341
 20
80.1560687302
 11
401.57269326
 21
80.1057072179
  0
LINE
  5
644
100
AcDbEntity
  8
0
100
AcDbLine
 62
7
  6
CONTINUOUS
 10
401.8773507207
 20
80.3224870159
 11
401.8252126475
 21
80.2721255044
  0
LINE
  5
645
100
AcDbEntity
  8
0
100
AcDbLine
 62
7
  6
CONTINUOUS
 10
401.7492024051
 20
80.0847954186
 11
401.6831763243
 21
80.0210191219
  0
LINE
  5
646
100
AcDbEntity
  8
0
100
AcDbLine
 62
7
  6
CONTINUOUS
 10
401.8763476792
 20
80.0471544941
 11
401.779899304
 21
79.9539925176
  0
LINE
  5
647
100
AcDbEntity
  8
0
100
AcDbLine
 62
7
  6
CONTINUOUS
 10
401.8876069117
 20
80.0354980789
 11
401.7911585365
 21
79.9423361024
  0
LINE
  5
648
100
AcDbEntity
  8
0
100
AcDbLine
 62
7
  6
CONTINUOUS
 10
402.0330066034
 20
80.1041371961
 11
401.8270400717
 21
79.9051888038
  0
LINE
  5
649
100
AcDbEntity
  8
0
100
AcDbLine
 62
7
  6
CONTINUOUS
 10
402.1278640382
 20
79.9382402419
 11
402.0186582164
 21
79.8327555183
  0
LINE
  5
64A
100
AcDbEntity
  8
0
100
AcDbLine
 62
7
  6
CONTINUOUS
 10
401.391662991
 20
78.626576108
 11
401.3246756929
 21
78.5618713468
  0
LINE
  5
64B
100
AcDbEntity
  8
0
100
AcDbLine
 62
7
  6
CONTINUOUS
 10
401.6207539318
 20
78.2758817292
 11
402.0119648763
 21
78.653762484
  0
LINE
  5
64C
100
AcDbEntity
  8
0
100
AcDbLine
 62
7
  6
CONTINUOUS
 10
401.8512823987
 20
78.1826178518
 11
401.7842951006
 21
78.1179130905
  0
LINE
  5
64D
100
AcDbEntity
  8
0
100
AcDbLine
 62
7
  6
CONTINUOUS
 10
404.1848002147
 20
78.4142768714
 11
404.0220898188
 21
78.2571106978
  0
LINE
  5
64E
100
AcDbEntity
  8
0
100
AcDbLine
 62
7
  6
CONTINUOUS
 10
411.2911579276
 20
76.9583791572
 11
411.0573992944
 21
76.7325856562
  0
LINE
  5
64F
100
AcDbEntity
  8
0
100
AcDbLine
 62
7
  6
CONTINUOUS
 10
411.6447113182
 20
76.4874632837
 11
411.2911579276
 21
76.1459569327
  0
LINE
  5
650
100
AcDbEntity
  8
0
100
AcDbLine
 62
7
  6
CONTINUOUS
 10
414.0202892857
 20
73.3667670669
 11
413.9502345608
 21
73.2990993988
  0
LINE
  5
651
100
AcDbEntity
  8
0
100
AcDbLine
 62
7
  6
CONTINUOUS
 10
414.3332216112
 20
73.3729236672
 11
414.0202892857
 21
73.0706542522
  0
LINE
  5
652
100
AcDbEntity
  8
0
100
AcDbLine
 62
7
  6
CONTINUOUS
 10
414.3332216112
 20
73.0644976519
 11
414.1402348621
 21
72.8780867668
  0
LINE
  5
653
100
AcDbEntity
  8
0
100
AcDbLine
 62
7
  6
CONTINUOUS
 10
414.3332216112
 20
72.9243039957
 11
414.2211340533
 21
72.8160357288
  0
LINE
  5
654
100
AcDbEntity
  8
0
100
AcDbLine
 62
7
  6
CONTINUOUS
 10
411.0436705542
 20
69.3034527272
 11
410.9766832561
 21
69.2387479659
  0
LINE
  5
655
100
AcDbEntity
  8
0
100
AcDbLine
 62
7
  6
CONTINUOUS
 10
411.2911579276
 20
69.3371099033
 11
411.0830047064
 21
69.1360493312
  0
LINE
  5
656
100
AcDbEntity
  8
0
100
AcDbLine
 62
7
  6
CONTINUOUS
 10
411.6447113182
 20
68.7228919306
 11
411.5777240201
 21
68.6581871693
  0
LINE
  5
657
100
AcDbEntity
  8
0
100
AcDbLine
 62
7
  6
CONTINUOUS
 10
415.7414171852
 20
71.7042851784
 11
415.6688476088
 21
71.6341883504
  0
LINE
  5
658
100
AcDbEntity
  8
0
100
AcDbLine
 62
7
  6
CONTINUOUS
 10
415.9761164841
 20
71.5056217674
 11
415.8893397116
 21
71.4218018418
  0
LINE
  5
659
100
AcDbEntity
  8
0
100
AcDbLine
 62
7
  6
CONTINUOUS
 10
416.1325826468
 20
71.4386032495
 11
416.0125984756
 21
71.3227074399
  0
LINE
  5
65A
100
AcDbEntity
  8
0
100
AcDbLine
 62
7
  6
CONTINUOUS
 10
416.2108157555
 20
71.5032295455
 11
416.0188410645
 21
71.3177962334
  0
LINE
  5
65B
100
AcDbEntity
  8
0
100
AcDbLine
 62
7
  6
CONTINUOUS
 10
416.5237481084
 20
71.200960104
 11
416.4369713257
 21
71.1171401685
  0
LINE
  5
65C
100
AcDbEntity
  8
0
100
AcDbLine
 62
7
  6
CONTINUOUS
 10
417.6551189583
 20
70.8112648401
 11
417.3015655677
 21
70.4697584892
  0
LINE
  5
65D
100
AcDbEntity
  8
0
100
AcDbLine
 62
7
  6
CONTINUOUS
 10
417.3015655677
 20
63.2587903155
 11
417.2345782696
 21
63.1940855542
  0
LINE
  5
65E
100
AcDbEntity
  8
0
100
AcDbLine
 62
7
  6
CONTINUOUS
 10
391.2717613545
 20
91.1764063377
 11
391.1739700028
 21
91.0956234346
  0
LINE
  5
65F
100
AcDbEntity
  8
0
100
AcDbLine
 62
7
  6
CONTINUOUS
 10
395.2458519145
 20
91.3542776859
 11
395.1480605628
 21
91.2734947829
  0
LINE
  5
660
100
AcDbEntity
  8
0
100
AcDbLine
 62
7
  6
CONTINUOUS
 10
393.2275886624
 20
89.3222706081
 11
393.1297973107
 21
89.2414877552
  0
LINE
  5
661
100
AcDbEntity
  8
0
100
AcDbLine
 62
7
  6
CONTINUOUS
 10
395.6723727203
 20
86.3299191245
 11
395.7701640805
 21
86.4107019691
  0
LINE
  5
662
100
AcDbEntity
  8
0
100
AcDbLine
 62
7
  6
CONTINUOUS
 10
437.8567083545
 20
50.4266704718
 11
437.9349414427
 21
50.5193354907
  0
LINE
  5
663
100
AcDbEntity
  8
0
100
AcDbLine
 62
7
  6
CONTINUOUS
 10
421.8392762378
 20
60.7220193067
 11
421.7855948441
 21
60.6701670621
  0
LINE
  5
664
100
AcDbEntity
  8
0
100
AcDbLine
 62
7
  6
CONTINUOUS
 10
421.9188337943
 20
60.7029543067
 11
421.7988530997
 21
60.5870618552
  0
LINE
  5
665
100
AcDbEntity
  8
0
100
AcDbLine
 62
7
  6
CONTINUOUS
 10
422.0585860873
 20
60.6327561744
 11
421.8683889473
 21
60.4490398447
  0
LINE
  5
666
100
AcDbEntity
  8
0
100
AcDbLine
 62
7
  6
CONTINUOUS
 10
421.9948721406
 20
60.4697971438
 11
421.9190665318
 21
60.3965745485
  0
LINE
  5
667
100
AcDbEntity
  8
0
100
AcDbLine
 62
7
  6
CONTINUOUS
 10
422.0015506518
 20
60.4628830402
 11
421.9257450431
 21
60.3896604449
  0
LINE
  5
668
100
AcDbEntity
  8
0
100
AcDbLine
 62
7
  6
CONTINUOUS
 10
422.0224931365
 20
60.3844480358
 11
421.9646308037
 21
60.3285573141
  0
LINE
  5
669
100
AcDbEntity
  8
0
100
AcDbLine
 62
7
  6
CONTINUOUS
 10
422.2789490752
 20
60.4698242775
 11
422.2268663558
 21
60.4195162337
  0
LINE
  5
66A
100
AcDbEntity
  8
0
100
AcDbLine
 62
7
  6
CONTINUOUS
 10
422.1036303435
 20
60.2548799025
 11
422.0515476198
 21
60.2045718545
  0
LINE
  5
66B
100
AcDbEntity
  8
0
100
AcDbLine
 62
7
  6
CONTINUOUS
 10
422.2046570668
 20
60.1205453859
 11
422.1674373885
 21
60.0845939374
  0
LINE
  5
66C
100
AcDbEntity
  8
0
100
AcDbLine
 62
7
  6
CONTINUOUS
 10
422.4998385894
 20
60.2700580085
 11
422.4523928108
 21
60.2242289055
  0
LINE
  5
66D
100
AcDbEntity
  8
0
100
AcDbLine
 62
7
  6
CONTINUOUS
 10
422.4265996696
 20
59.8471103643
 11
422.3870615216
 21
59.808919446
  0
LINE
  5
66E
100
AcDbEntity
  8
0
100
AcDbLine
 62
7
  6
CONTINUOUS
 10
422.5244670145
 20
59.9337822356
 11
422.4726676499
 21
59.8837478915
  0
LINE
  5
66F
100
AcDbEntity
  8
0
100
AcDbLine
 62
7
  6
CONTINUOUS
 10
422.6239139744
 20
59.9099509822
 11
422.4981155276
 21
59.7884390135
  0
LINE
  5
670
100
AcDbEntity
  8
0
100
AcDbLine
 62
7
  6
CONTINUOUS
 10
422.5072103359
 20
59.7543766065
 11
422.4723091287
 21
59.720664629
  0
LINE
  5
671
100
AcDbEntity
  8
0
100
AcDbLine
 62
7
  6
CONTINUOUS
 10
422.7636662959
 20
59.839752843
 11
422.5372016809
 21
59.6210048227
  0
LINE
  5
672
100
AcDbEntity
  8
0
100
AcDbLine
 62
7
  6
CONTINUOUS
 10
423.1699378014
 20
60.1998581237
 11
423.0406311169
 21
60.0749574576
  0
LINE
  5
673
100
AcDbEntity
  8
0
100
AcDbLine
 62
7
  6
CONTINUOUS
 10
422.6800629173
 20
59.6815600726
 11
422.5758974786
 21
59.5809439851
  0
LINE
  5
674
100
AcDbEntity
  8
0
100
AcDbLine
 62
7
  6
CONTINUOUS
 10
422.6867414285
 20
59.674645969
 11
422.5825759898
 21
59.5740298815
  0
LINE
  5
675
100
AcDbEntity
  8
0
100
AcDbLine
 62
7
  6
CONTINUOUS
 10
422.7076839133
 20
59.5962109647
 11
422.6318783046
 21
59.5229883694
  0
LINE
  5
676
100
AcDbEntity
  8
0
100
AcDbLine
 62
7
  6
CONTINUOUS
 10
423.2426740036
 20
60.0044679015
 11
423.1430511719
 21
59.9082396354
  0
LINE
  5
677
100
AcDbEntity
  8
0
100
AcDbLine
 62
7
  6
CONTINUOUS
 10
422.7485157871
 20
59.5130097103
 11
422.6931623805
 21
59.4595424253
  0
LINE
  5
678
100
AcDbEntity
  8
0
100
AcDbLine
 62
7
  6
CONTINUOUS
 10
423.2300161925
 20
59.9581688044
 11
423.1600772344
 21
59.8906129584
  0
LINE
  5
679
100
AcDbEntity
  8
0
100
AcDbLine
 62
7
  6
CONTINUOUS
 10
423.3711893631
 20
60.0707843802
 11
423.2900442297
 21
59.9924042002
  0
LINE
  5
67A
100
AcDbEntity
  8
0
100
AcDbLine
 62
7
  6
CONTINUOUS
 10
422.9840292268
 20
59.6768209597
 11
422.9319465074
 21
59.626512916
  0
LINE
  5
67B
100
AcDbEntity
  8
0
100
AcDbLine
 62
7
  6
CONTINUOUS
 10
422.8495424539
 20
59.3786752587
 11
422.8007304239
 21
59.3315264582
  0
LINE
  5
67C
100
AcDbEntity
  8
0
100
AcDbLine
 62
7
  6
CONTINUOUS
 10
423.3304297833
 20
59.7486552858
 11
423.2783918621
 21
59.6983905137
  0
LINE
  5
67D
100
AcDbEntity
  8
0
100
AcDbLine
 62
7
  6
CONTINUOUS
 10
423.1646134079
 20
59.5234215696
 11
423.1148491589
 21
59.4753529963
  0
LINE
  5
67E
100
AcDbEntity
  8
0
100
AcDbLine
 62
7
  6
CONTINUOUS
 10
423.6151380106
 20
59.8671650336
 11
423.5636714448
 21
59.8174521486
  0
LINE
  5
67F
100
AcDbEntity
  8
0
100
AcDbLine
 62
7
  6
CONTINUOUS
 10
422.9704584534
 20
59.239574622
 11
422.9286018344
 21
59.1991442327
  0
LINE
  5
680
100
AcDbEntity
  8
0
100
AcDbLine
 62
7
  6
CONTINUOUS
 10
423.5138756208
 20
59.4967721326
 11
423.4672668574
 21
59.4517515243
  0
LINE
  5
681
100
AcDbEntity
  8
0
100
AcDbLine
 62
7
  6
CONTINUOUS
 10
423.1112638421
 20
59.0957077353
 11
423.0684550062
 21
59.0543575751
  0
LINE
  5
682
100
AcDbEntity
  8
0
100
AcDbLine
 62
7
  6
CONTINUOUS
 10
423.8037317612
 20
59.691792193
 11
423.7562157862
 21
59.6458952855
  0
LINE
  5
683
100
AcDbEntity
  8
0
100
AcDbLine
 62
7
  6
CONTINUOUS
 10
423.4059188805
 20
59.2820546683
 11
423.3631100425
 21
59.2407045062
  0
LINE
  5
684
100
AcDbEntity
  8
0
100
AcDbLine
 62
7
  6
CONTINUOUS
 10
423.2719586623
 20
58.9470745627
 11
423.2245128836
 21
58.9012454597
  0
LINE
  5
685
100
AcDbEntity
  8
0
100
AcDbLine
 62
7
  6
CONTINUOUS
 10
423.9998352513
 20
59.4862082177
 11
423.9589398647
 21
59.4467063076
  0
LINE
  5
686
100
AcDbEntity
  8
0
100
AcDbLine
 62
7
  6
CONTINUOUS
 10
423.6074456028
 20
59.0502202089
 11
423.5553628834
 21
58.9999121652
  0
LINE
  5
687
100
AcDbEntity
  8
0
100
AcDbLine
 62
7
  6
CONTINUOUS
 10
423.7601859362
 20
59.1864314197
 11
423.7199308516
 21
59.1475479939
  0
LINE
  5
688
100
AcDbEntity
  8
0
100
AcDbLine
 62
7
  6
CONTINUOUS
 10
423.4122375102
 20
58.8400420515
 11
423.36015479
 21
58.789734007
  0
LINE
  5
689
100
AcDbEntity
  8
0
100
AcDbLine
 62
7
  6
CONTINUOUS
 10
423.512211025
 20
58.7793764192
 11
423.4500391735
 21
58.7193230221
  0
LINE
  5
68A
100
AcDbEntity
  8
0
100
AcDbLine
 62
7
  6
CONTINUOUS
 10
424.133074362
 20
59.3390816779
 11
424.0967698474
 21
59.3040142096
  0
LINE
  5
68B
100
AcDbEntity
  8
0
100
AcDbLine
 62
7
  6
CONTINUOUS
 10
423.6514367916
 20
58.746012659
 11
423.5551789793
 21
58.6530347521
  0
LINE
  5
68C
100
AcDbEntity
  8
0
100
AcDbLine
 62
7
  6
CONTINUOUS
 10
423.7691934901
 20
58.8279182888
 11
423.5710887208
 21
58.6365637758
  0
LINE
  5
68D
100
AcDbEntity
  8
0
100
AcDbLine
 62
7
  6
CONTINUOUS
 10
423.998986403
 20
58.9063018602
 11
423.9626819299
 21
58.871234432
  0
LINE
  5
68E
100
AcDbEntity
  8
0
100
AcDbLine
 62
7
  6
CONTINUOUS
 10
423.8707466553
 20
58.6567495104
 11
423.7428583377
 21
58.5332188816
  0
LINE
  5
68F
100
AcDbEntity
  8
0
100
AcDbLine
 62
7
  6
CONTINUOUS
 10
424.3366875917
 20
59.103286568
 11
424.2964325279
 21
59.0644031622
  0
LINE
  5
690
100
AcDbEntity
  8
0
100
AcDbLine
 62
7
  6
CONTINUOUS
 10
424.8470151159
 20
59.5300201516
 11
424.7773824721
 21
59.4627601826
  0
LINE
  5
691
100
AcDbEntity
  8
0
100
AcDbLine
 62
7
  6
CONTINUOUS
 10
425.0563042706
 20
59.3019127137
 11
424.9806046316
 21
59.2287924773
  0
LINE
  5
692
100
AcDbEntity
  8
0
100
AcDbLine
 62
7
  6
CONTINUOUS
 10
424.3208191904
 20
58.5838025728
 11
424.283234134
 21
58.5474981962
  0
LINE
  5
693
100
AcDbEntity
  8
0
100
AcDbLine
 62
7
  6
CONTINUOUS
 10
423.3119732078
 20
57.4531823494
 11
423.2449859096
 21
57.3884775881
  0
LINE
  5
694
100
AcDbEntity
  8
0
100
AcDbLine
 62
7
  6
CONTINUOUS
 10
424.6533722829
 20
58.70427708
 11
424.6006238085
 21
58.6533259663
  0
LINE
  5
695
100
AcDbEntity
  8
0
100
AcDbLine
 62
7
  6
CONTINUOUS
 10
425.1562194298
 20
59.152023841
 11
425.1155125203
 21
59.1127039859
  0
LINE
  5
696
100
AcDbEntity
  8
0
100
AcDbLine
 62
7
  6
CONTINUOUS
 10
424.4742257531
 20
58.4527641197
 11
424.422759186
 21
58.4030512333
  0
LINE
  5
697
100
AcDbEntity
  8
0
100
AcDbLine
 62
7
  6
CONTINUOUS
 10
424.8016309817
 20
58.4967282522
 11
424.7301702068
 21
58.4277024442
  0
LINE
  5
698
100
AcDbEntity
  8
0
100
AcDbLine
 62
7
  6
CONTINUOUS
 10
424.6477998664
 20
58.3378136291
 11
424.5884321168
 21
58.2804687865
  0
LINE
  5
699
100
AcDbEntity
  8
0
100
AcDbLine
 62
7
  6
CONTINUOUS
 10
424.7509997622
 20
58.3115318328
 11
424.6513769072
 21
58.2153035443
  0
LINE
  5
69A
100
AcDbEntity
  8
0
100
AcDbLine
 62
7
  6
CONTINUOUS
 10
424.879515097
 20
58.3778483425
 11
424.6944317211
 21
58.1990715296
  0
LINE
  5
69B
100
AcDbEntity
  8
0
100
AcDbLine
 62
7
  6
CONTINUOUS
 10
423.5574182655
 20
57.0866911067
 11
423.9162068453
 21
57.4332542621
  0
LINE
  5
69C
100
AcDbEntity
  8
0
100
AcDbLine
 62
7
  6
CONTINUOUS
 10
424.9649091349
 20
58.2287571863
 11
424.835602406
 21
58.1038564774
  0
LINE
  5
69D
100
AcDbEntity
  8
0
100
AcDbLine
 62
7
  6
CONTINUOUS
 10
423.7715926155
 20
57.0092240932
 11
423.7046053174
 21
56.9445193319
  0
LINE
  5
69E
100
AcDbEntity
  8
0
100
AcDbLine
 62
7
  6
CONTINUOUS
 10
424.9874385241
 20
58.1381236861
 11
424.9392822363
 21
58.091608284
  0
LINE
  5
69F
100
AcDbEntity
  8
0
100
AcDbLine
 62
7
  6
CONTINUOUS
 10
426.9930094419
 20
57.7798600598
 11
426.7847232465
 21
57.5786710444
  0
LINE
  5
6A0
100
AcDbEntity
  8
0
100
AcDbLine
 62
7
  6
CONTINUOUS
 10
427.8171336057
 20
55.8984202181
 11
427.7016583943
 21
55.7868797291
  0
LINE
  5
6A1
100
AcDbEntity
  8
0
100
AcDbLine
 62
7
  6
CONTINUOUS
 10
432.5043613632
 20
56.4679981004
 11
432.1055269068
 21
56.0827535986
  0
LINE
  5
6A2
100
AcDbEntity
  8
0
100
AcDbLine
 62
7
  6
CONTINUOUS
 10
432.8579147538
 20
55.9970822269
 11
432.5043613632
 21
55.655575876
  0
LINE
  5
6A3
100
AcDbEntity
  8
0
100
AcDbLine
 62
7
  6
CONTINUOUS
 10
435.4314826201
 20
52.6851424536
 11
435.3614278951
 21
52.6174747855
  0
LINE
  5
6A4
100
AcDbEntity
  8
0
100
AcDbLine
 62
7
  6
CONTINUOUS
 10
435.7444149455
 20
52.6912990539
 11
435.4314826201
 21
52.3890296389
  0
LINE
  5
6A5
100
AcDbEntity
  8
0
100
AcDbLine
 62
7
  6
CONTINUOUS
 10
432.0447419554
 20
49.017975481
 11
431.9777546573
 21
48.9532707197
  0
LINE
  5
6A6
100
AcDbEntity
  8
0
100
AcDbLine
 62
7
  6
CONTINUOUS
 10
435.7444149455
 20
52.3828730386
 11
435.5514281964
 21
52.1964621535
  0
LINE
  5
6A7
100
AcDbEntity
  8
0
100
AcDbLine
 62
7
  6
CONTINUOUS
 10
435.7444149455
 20
52.2426793824
 11
435.6323273876
 21
52.1344111155
  0
LINE
  5
6A8
100
AcDbEntity
  8
0
100
AcDbLine
 62
7
  6
CONTINUOUS
 10
432.5043613632
 20
48.8101189712
 11
432.315158808
 21
48.6273633367
  0
LINE
  5
6A9
100
AcDbEntity
  8
0
100
AcDbLine
 62
7
  6
CONTINUOUS
 10
432.8579147538
 20
48.2325108738
 11
432.7909274557
 21
48.1678061126
  0
LINE
  5
6AA
100
AcDbEntity
  8
0
100
AcDbLine
 62
7
  6
CONTINUOUS
 10
437.1526105195
 20
51.0226605651
 11
437.0800409431
 21
50.9525637371
  0
LINE
  5
6AB
100
AcDbEntity
  8
0
100
AcDbLine
 62
7
  6
CONTINUOUS
 10
437.3873098184
 20
50.8239971541
 11
437.3005330459
 21
50.7401772285
  0
LINE
  5
6AC
100
AcDbEntity
  8
0
100
AcDbLine
 62
7
  6
CONTINUOUS
 10
437.5437759811
 20
50.7569786362
 11
437.42379181
 21
50.6410828266
  0
LINE
  5
6AD
100
AcDbEntity
  8
0
100
AcDbLine
 62
7
  6
CONTINUOUS
 10
437.6220090899
 20
50.8216049322
 11
437.4300343988
 21
50.6361716201
  0
LINE
  5
6AE
100
AcDbEntity
  8
0
100
AcDbLine
 62
7
  6
CONTINUOUS
 10
437.9349414427
 20
50.5193354907
 11
437.84816466
 21
50.4355155552
  0
LINE
  5
6AF
100
AcDbEntity
  8
0
100
AcDbLine
 62
7
  6
CONTINUOUS
 10
438.8683223939
 20
50.3208837834
 11
438.5147690033
 21
49.9793774324
  0
LINE
  5
6B0
100
AcDbEntity
  8
0
100
AcDbLine
 62
7
  6
CONTINUOUS
 10
438.5147690033
 20
42.7684092587
 11
438.4477817052
 21
42.7037044974
  0
LINE
  5
6B1
100
AcDbEntity
  8
0
100
AcDbLine
 62
7
  6
CONTINUOUS
 10
416.2108157555
 20
71.5032295455
 11
416.1325826468
 21
71.4386032495
  0
LINE
  5
6B2
100
AcDbEntity
  8
0
100
AcDbLine
 62
7
  6
CONTINUOUS
 10
395.6370173812
 20
90.8011987641
 11
395.7348087415
 21
90.8469331796
  0
LINE
  5
6B3
100
AcDbEntity
  8
0
100
AcDbLine
 62
7
  6
CONTINUOUS
 10
393.7165454209
 20
88.6747326021
 11
393.8143367726
 21
88.720467076
  0
LINE
  5
6B4
100
AcDbEntity
  8
0
100
AcDbLine
 62
7
  6
CONTINUOUS
 10
393.6187540692
 20
88.418707654
 11
393.7165454209
 21
88.4644421279
  0
LINE
  5
6B5
100
AcDbEntity
  8
0
100
AcDbLine
 62
7
  6
CONTINUOUS
 10
395.1834159019
 20
86.9774571884
 11
395.0856245502
 21
86.9317227395
  0
LINE
  5
6B6
100
AcDbEntity
  8
0
100
AcDbLine
 62
7
  6
CONTINUOUS
 10
400.9118959899
 20
80.9872971283
 11
400.9570520319
 21
81.0083825168
  0
LINE
  5
6B7
100
AcDbEntity
  8
0
100
AcDbLine
 62
7
  6
CONTINUOUS
 10
401.9215037212
 20
80.0682398826
 11
401.8763476792
 21
80.0471544941
  0
LINE
  5
6B8
100
AcDbEntity
  8
RUNDUNGEN
100
AcDbLine
 62
7
  6
CONTINUOUS
 10
449.3945828729
 20
33.9532817255
 11
452.9301167788
 21
37.3683452349
  0
LINE
  5
6B9
100
AcDbEntity
  8
RUNDUNGEN
100
AcDbLine
 62
7
  6
CONTINUOUS
 10
460.0753457342
 20
27.8998166172
 11
463.6108796401
 21
31.3148801267
  0
LINE
  5
6BA
100
AcDbEntity
  8
0
100
AcDbLine
 62
7
  6
CONTINUOUS
 10
437.6220090899
 20
50.8216049322
 11
437.5437759811
 21
50.7569786362
  0
LINE
  5
6BB
100
AcDbEntity
  8
0
100
AcDbLine
 62
7
  6
CONTINUOUS
 10
421.8392762378
 20
60.7220193067
 11
421.7801345968
 21
60.6994836846
  0
LINE
  5
6BC
100
AcDbEntity
  8
0
100
AcDbLine
 62
7
  6
CONTINUOUS
 10
422.5244670145
 20
59.9337822356
 11
422.4653253736
 21
59.9112466135
  0
LINE
  5
6BD
100
AcDbEntity
  8
0
100
AcDbLine
 62
7
  6
CONTINUOUS
 10
423.8330740823
 20
58.5189444854
 11
423.892215734
 21
58.5414801081
  0
LINE
  5
6BE
100
AcDbEntity
  8
RUNDUNGEN
100
AcDbLine
 62
7
  6
CONTINUOUS
 10
460.007364686
 20
8.936105426
 11
463.5428985919
 21
12.3511689355
  0
ARC
  5
6BF
100
AcDbEntity
  8
KONSTRUKTIONSELEMENTE
100
AcDbCircle
 62
7
  6
CONTINUOUS
 10
671.1716652818
 20
60.2129274998
 40
46.8
100
AcDbArc
 50
41.6553646926
 51
65.9022287256
  0
ARC
  5
6C0
100
AcDbEntity
  8
KONSTRUKTIONSELEMENTE
100
AcDbCircle
 62
7
  6
CONTINUOUS
 10
671.1716652818
 20
60.2129274998
 40
46.8
100
AcDbArc
 50
84.0977712744
 51
108.3446353074
  0
ARC
  5
6C1
100
AcDbEntity
  8
BEZUGSACHSEN
100
AcDbCircle
 62
7
  6
CONTINUOUS
 10
701.7381945085
 20
174.2887675846
 40
18.5
100
AcDbArc
 50
119.6562818467
 51
30.3437181533
  0
ARC
  5
6C2
100
AcDbEntity
  8
0
100
AcDbCircle
 62
7
  6
CONTINUOUS
 10
746.1256607435
 20
339.9450467932
 40
13.0
100
AcDbArc
 50
345.0
 51
165.0
  0
ARC
  5
6C3
100
AcDbEntity
  8
0
100
AcDbCircle
 62
7
  6
CONTINUOUS
 10
703.1616992565
 20
179.6013596292
 40
13.0
100
AcDbArc
 50
165.0
 51
345.0
  0
ARC
  5
6C4
100
AcDbEntity
  8
KONSTRUKTIONSELEMENTE
100
AcDbCircle
 62
7
  6
CONTINUOUS
 10
695.3289839855
 20
150.9206838898
 40
9.5600220347
100
AcDbArc
 50
235.2472929192
 51
242.2525711218
  0
ARC
  5
6C5
100
AcDbEntity
  8
KONSTRUKTIONSELEMENTE
100
AcDbCircle
 62
7
  6
CONTINUOUS
 10
695.6071610827
 20
150.7270712462
 40
9.440483902
100
AcDbArc
 50
267.7159617125
 51
274.8017277657
  0
ARC
  5
6C6
100
AcDbEntity
  8
RUNDUNGEN
100
AcDbCircle
 62
7
  6
CONTINUOUS
 10
666.8676408509
 20
156.1974854959
 40
8.0
100
AcDbArc
 50
87.037384222
 51
165.0
  0
ARC
  5
6C7
100
AcDbEntity
  8
RUNDUNGEN
100
AcDbCircle
 62
7
  6
CONTINUOUS
 10
722.8913387756
 20
141.1859808799
 40
8.0
100
AcDbArc
 50
345.0
 51
62.962615778
  0
ARC
  5
6C8
100
AcDbEntity
  8
KONSTRUKTIONSELEMENTE
100
AcDbCircle
 62
7
  6
CONTINUOUS
 10
691.4371965134
 20
135.8449196983
 40
7.4
100
AcDbArc
 50
345.0000004677
 51
165.0
  0
ARC
  5
6C9
100
AcDbEntity
  8
BEZUGSACHSEN
100
AcDbCircle
 62
7
  6
CONTINUOUS
 10
683.0499252465
 20
103.5291004173
 40
6.5932236062
100
AcDbArc
 50
274.8014801452
 51
275.1414817251
  0
ARC
  5
6CA
100
AcDbEntity
  8
BEZUGSACHSEN
100
AcDbCircle
 62
7
  6
CONTINUOUS
 10
682.5407504664
 20
103.6619312968
 40
6.5895200261
100
AcDbArc
 50
234.8584610789
 51
235.1295722565
  0
ARC
  5
6CB
100
AcDbEntity
  8
RUNDUNGEN
100
AcDbCircle
 62
7
  6
CONTINUOUS
 10
666.941197966
 20
157.7242688265
 40
6.4714578049
100
AcDbArc
 50
72.1292556972
 51
86.9891141635
  0
ARC
  5
6CC
100
AcDbEntity
  8
RUNDUNGEN
100
AcDbCircle
 62
7
  6
CONTINUOUS
 10
723.5910334936
 20
142.5450084897
 40
6.4714411919
100
AcDbArc
 50
63.010864413
 51
77.8686453501
  0
ARC
  5
6CD
100
AcDbEntity
  8
RUNDUNGEN
100
AcDbCircle
 62
7
  6
CONTINUOUS
 10
643.3443680406
 20
105.8601113938
 40
3.3334747012
100
AcDbArc
 50
281.2964744358
 51
287.2123623221
  0
CIRCLE
  5
6CE
100
AcDbEntity
  8
BEZUGSACHSEN
100
AcDbCircle
 62
7
  6
CONTINUOUS
 10
663.0684421838
 20
125.0183884999
 40
3.0
  0
ARC
  5
6CF
100
AcDbEntity
  8
0
100
AcDbCircle
 62
7
  6
CONTINUOUS
 10
693.3673024799
 20
80.449929652
 40
2.7679754317
100
AcDbArc
 50
335.5636876715
 51
340.3957076167
  0
ARC
  5
6D0
100
AcDbEntity
  8
KONSTRUKTIONSELEMENTE
100
AcDbCircle
 62
7
  6
CONTINUOUS
 10
681.1867256956
 20
97.5896418049
 40
2.5
100
AcDbArc
 50
165.0
 51
345.0
  0
ARC
  5
6D1
100
AcDbEntity
  8
KONSTRUKTIONSELEMENTE
100
AcDbCircle
 62
7
  6
CONTINUOUS
 10
697.0173244093
 20
156.6702405186
 40
2.5
100
AcDbArc
 50
343.1688338955
 51
345.0
  0
ARC
  5
6D2
100
AcDbEntity
  8
KONSTRUKTIONSELEMENTE
100
AcDbCircle
 62
7
  6
CONTINUOUS
 10
697.0173244093
 20
156.6702405186
 40
2.5
100
AcDbArc
 50
165.0
 51
166.8311661045
  0
ARC
  5
6D3
100
AcDbEntity
  8
0
100
AcDbCircle
 62
7
  6
CONTINUOUS
 10
663.8964987374
 20
87.496342555
 40
0.5420477023
100
AcDbArc
 50
63.8903114983
 51
74.9692795104
  0
ARC
  5
6D4
100
AcDbEntity
  8
KONSTRUKTIONSELEMENTE
100
AcDbCircle
 62
7
  6
CONTINUOUS
 10
879.0551223082
 20
60.2129274998
 40
46.8
100
AcDbArc
 50
114.0977712744
 51
138.3446353074
  0
ARC
  5
6D5
100
AcDbEntity
  8
KONSTRUKTIONSELEMENTE
100
AcDbCircle
 62
7
  6
CONTINUOUS
 10
879.0551223082
 20
60.2129274998
 40
46.8
100
AcDbArc
 50
71.6553646926
 51
95.9022287256
  0
ARC
  5
6D6
100
AcDbEntity
  8
BEZUGSACHSEN
100
AcDbCircle
 62
7
  6
CONTINUOUS
 10
848.4885930816
 20
174.2887675846
 40
18.5
100
AcDbArc
 50
149.6562818467
 51
60.3437181533
  0
ARC
  5
6D7
100
AcDbEntity
  8
0
100
AcDbCircle
 62
7
  6
CONTINUOUS
 10
804.1011268465
 20
339.9450467932
 40
13.0
100
AcDbArc
 50
15.0
 51
195.0
  0
ARC
  5
6D8
100
AcDbEntity
  8
0
100
AcDbCircle
 62
7
  6
CONTINUOUS
 10
847.0650883335
 20
179.6013596292
 40
13.0
100
AcDbArc
 50
195.0
 51
15.0
  0
ARC
  5
6D9
100
AcDbEntity
  8
0
100
AcDbCircle
 62
7
  6
CONTINUOUS
 10
827.3354488144
 20
141.1859808799
 40
8.0
100
AcDbArc
 50
117.037384222
 51
195.0
  0
ARC
  5
6DA
100
AcDbEntity
  8
0
100
AcDbCircle
 62
7
  6
CONTINUOUS
 10
883.3591467392
 20
156.1974854959
 40
8.0
100
AcDbArc
 50
15.0
 51
92.962615778
  0
ARC
  5
6DB
100
AcDbEntity
  8
0
100
AcDbCircle
 62
7
  6
CONTINUOUS
 10
858.7895910767
 20
135.8449196983
 40
7.4
100
AcDbArc
 50
15.0
 51
194.9999995323
  0
ARC
  5
6DC
100
AcDbEntity
  8
0
100
AcDbCircle
 62
7
  6
CONTINUOUS
 10
883.285589624
 20
157.7242688265
 40
6.4714578049
100
AcDbArc
 50
93.0108858365
 51
107.8707443028
  0
ARC
  5
6DD
100
AcDbEntity
  8
0
100
AcDbCircle
 62
7
  6
CONTINUOUS
 10
826.6357540964
 20
142.5450084897
 40
6.4714411919
100
AcDbArc
 50
102.1313546499
 51
116.989135587
  0
CIRCLE
  5
6DE
100
AcDbEntity
  8
BEZUGSACHSEN
100
AcDbCircle
 62
7
  6
CONTINUOUS
 10
887.1583454062
 20
125.0183884999
 40
3.0
  0
ARC
  5
6DF
100
AcDbEntity
  8
0
100
AcDbCircle
 62
7
  6
CONTINUOUS
 10
775.113393795
 20
448.1287393375
 40
161.0
100
AcDbArc
 50
180.0
 51
250.3684168881
  0
ARC
  5
6E0
100
AcDbEntity
  8
0
100
AcDbCircle
 62
7
  6
CONTINUOUS
 10
775.113393795
 20
448.1287393375
 40
161.0
100
AcDbArc
 50
259.6318550701
 51
280.3681449299
  0
ARC
  5
6E1
100
AcDbEntity
  8
0
100
AcDbCircle
 62
7
  6
CONTINUOUS
 10
775.113393795
 20
448.1287393375
 40
161.0
100
AcDbArc
 50
289.6315831119
 51
360.0
  0
ARC
  5
6E2
100
AcDbEntity
  8
0
100
AcDbCircle
 62
7
  6
CONTINUOUS
 10
775.113393795
 20
658.1287393375
 40
161.0
100
AcDbArc
 50
0.0
 51
180.0
  0
ARC
  5
6E3
100
AcDbEntity
  8
0
100
AcDbCircle
 62
7
  6
CONTINUOUS
 10
775.113393795
 20
448.1287393375
 40
125.0
100
AcDbArc
 50
180.0
 51
249.0297922979
  0
ARC
  5
6E4
100
AcDbEntity
  8
0
100
AcDbCircle
 62
7
  6
CONTINUOUS
 10
775.113393795
 20
448.1287393375
 40
125.0
100
AcDbArc
 50
260.9695996871
 51
279.0304003129
  0
ARC
  5
6E5
100
AcDbEntity
  8
0
100
AcDbCircle
 62
7
  6
CONTINUOUS
 10
775.113393795
 20
448.1287393375
 40
125.0
100
AcDbArc
 50
290.9702077021
 51
360.0
  0
ARC
  5
6E6
100
AcDbEntity
  8
0
100
AcDbCircle
 62
7
  6
CONTINUOUS
 10
775.113393795
 20
658.1287393375
 40
125.0
100
AcDbArc
 50
0.0
 51
180.0
  0
ARC
  5
6E7
100
AcDbEntity
  8
0
100
AcDbCircle
 62
7
  6
CONTINUOUS
 10
150.1350760305
 20
174.0063483434
 40
105.6904692248
100
AcDbArc
 50
2.1835666675
 51
6.3833300265
  0
ARC
  5
6E8
100
AcDbEntity
  8
0
100
AcDbCircle
 62
7
  6
CONTINUOUS
 10
353.5420815094
 20
174.0063483434
 40
105.6904692248
100
AcDbArc
 50
173.6166699735
 51
177.8164333325
  0
ARC
  5
6E9
100
AcDbEntity
  8
0
100
AcDbCircle
 62
7
  6
CONTINUOUS
 10
251.83857877
 20
160.8494056911
 40
56.2123557853
100
AcDbArc
 50
268.674825962
 51
271.325174038
  0
ARC
  5
6EA
100
AcDbEntity
  8
0
100
AcDbCircle
 62
7
  6
CONTINUOUS
 10
251.83857877
 20
35.1118489244
 40
56.2123557853
100
AcDbArc
 50
88.674825962
 51
91.325174038
  0
ARC
  5
6EB
100
AcDbEntity
  8
KONSTRUKTIONSELEMENTE
100
AcDbCircle
 62
7
  6
CONTINUOUS
 10
308.8579633122
 20
127.0077136497
 40
33.1455707138
100
AcDbArc
 50
44.5353474264
 51
45.9812535784
  0
ARC
  5
6EC
100
AcDbEntity
  8
KONSTRUKTIONSELEMENTE
100
AcDbCircle
 62
7
  6
CONTINUOUS
 10
251.2110199703
 20
109.8277341559
 40
20.1275590488
100
AcDbArc
 50
353.5080291163
 51
0.009014449
  0
ARC
  5
6ED
100
AcDbEntity
  8
0
100
AcDbCircle
 62
7
  6
CONTINUOUS
 10
251.83857877
 20
801.1287393375
 40
18.0
100
AcDbArc
 50
0.0
 51
180.0
  0
ARC
  5
6EE
100
AcDbEntity
  8
0
100
AcDbCircle
 62
7
  6
CONTINUOUS
 10
251.83857877
 20
305.1287393375
 40
18.0
100
AcDbArc
 50
180.0
 51
360.0
  0
ARC
  5
6EF
100
AcDbEntity
  8
KONSTRUKTIONSELEMENTE
100
AcDbCircle
 62
7
  6
CONTINUOUS
 10
371.5589643247
 20
125.1405499506
 40
15.6688140568
100
AcDbArc
 50
233.3753354949
 51
233.5160582164
  0
ARC
  5
6F0
100
AcDbEntity
  8
RUNDUNGEN
100
AcDbCircle
 62
7
  6
CONTINUOUS
 10
382.0220896918
 20
121.3730072555
 40
13.5888666573
100
AcDbArc
 50
205.8708981958
 51
206.2647342943
  0
ARC
  5
6F1
100
AcDbEntity
  8
KONSTRUKTIONSELEMENTE
100
AcDbCircle
 62
7
  6
CONTINUOUS
 10
311.5963858159
 20
153.3057307028
 40
12.2468399615
100
AcDbArc
 50
55.2809419384
 51
55.5610984191
  0
ARC
  5
6F2
100
AcDbEntity
  8
KONSTRUKTIONSELEMENTE
100
AcDbCircle
 62
7
  6
CONTINUOUS
 10
311.7866757658
 20
153.5831545118
 40
11.9104261798
100
AcDbArc
 50
55.5613249794
 51
55.7966521659
  0
ARC
  5
6F3
100
AcDbEntity
  8
KONSTRUKTIONSELEMENTE
100
AcDbCircle
 62
7
  6
CONTINUOUS
 10
375.1946069157
 20
104.8810884805
 40
9.7912946395
100
AcDbArc
 50
275.8789018395
 51
278.3981303415
  0
ARC
  5
6F4
100
AcDbEntity
  8
BEZUGSACHSEN
100
AcDbCircle
 62
7
  6
CONTINUOUS
 10
251.83857877
 20
202.2887675846
 40
9.5
100
AcDbArc
 50
0.0
 51
23.2527041394
  0
ARC
  5
6F5
100
AcDbEntity
  8
BEZUGSACHSEN
100
AcDbCircle
 62
7
  6
CONTINUOUS
 10
251.83857877
 20
202.2887675846
 40
9.5
100
AcDbArc
 50
156.7472958606
 51
180.0
  0
ARC
  5
6F6
100
AcDbEntity
  8
KONSTRUKTIONSELEMENTE
100
AcDbCircle
 62
7
  6
CONTINUOUS
 10
314.2530578567
 20
163.3666675052
 40
9.3523666169
100
AcDbArc
 50
45.4559945703
 51
45.9929150435
  0
ARC
  5
6F7
100
AcDbEntity
  8
KONSTRUKTIONSELEMENTE
100
AcDbCircle
 62
7
  6
CONTINUOUS
 10
375.4177944317
 20
104.2860687939
 40
9.3523666136
100
AcDbArc
 50
45.4559945702
 51
45.9929150436
  0
ARC
  5
6F8
100
AcDbEntity
  8
KONSTRUKTIONSELEMENTE
100
AcDbCircle
 62
7
  6
CONTINUOUS
 10
366.3416896616
 20
112.5241142965
 40
9.1128567777
100
AcDbArc
 50
155.3174888113
 51
179.9666787515
  0
ARC
  5
6F9
100
AcDbEntity
  8
BEZUGSACHSEN
100
AcDbCircle
 62
7
  6
CONTINUOUS
 10
252.4256272733
 20
127.5515962924
 40
8.6630364526
100
AcDbArc
 50
4.4686945854
 51
5.8512461557
  0
ARC
  5
6FA
100
AcDbEntity
  8
BEZUGSACHSEN
100
AcDbCircle
 62
7
  6
CONTINUOUS
 10
251.2515302669
 20
127.5515962924
 40
8.6630364528
100
AcDbArc
 50
174.1487538443
 51
175.5313054146
  0
ARC
  5
6FB
100
AcDbEntity
  8
BEZUGSACHSEN
100
AcDbCircle
 62
7
  6
CONTINUOUS
 10
252.4456459748
 20
127.5530923568
 40
8.6429620422
100
AcDbArc
 50
2.1757275003
 51
4.4691468841
  0
ARC
  5
6FC
100
AcDbEntity
  8
BEZUGSACHSEN
100
AcDbCircle
 62
7
  6
CONTINUOUS
 10
251.2315115653
 20
127.5530923568
 40
8.6429620423
100
AcDbArc
 50
175.5308531159
 51
177.8242724997
  0
ARC
  5
6FD
100
AcDbEntity
  8
KONSTRUKTIONSELEMENTE
100
AcDbCircle
 62
7
  6
CONTINUOUS
 10
346.0677425313
 20
132.6187908639
 40
7.8374984542
100
AcDbArc
 50
45.4162894929
 51
45.9929054453
  0
ARC
  5
6FE
100
AcDbEntity
  8
KONSTRUKTIONSELEMENTE
100
AcDbCircle
 62
7
  6
CONTINUOUS
 10
334.9190131939
 20
142.9526209019
 40
7.6417945598
100
AcDbArc
 50
159.7236942383
 51
179.9651547733
  0
ARC
  5
6FF
100
AcDbEntity
  8
BEZUGSACHSEN
100
AcDbCircle
 62
7
  6
CONTINUOUS
 10
375.6841400425
 20
98.2212915302
 40
7.4707268749
100
AcDbArc
 50
57.1292497831
 51
57.5274853485
  0
ARC
  5
700
100
AcDbEntity
  8
0
100
AcDbCircle
 62
7
  6
CONTINUOUS
 10
243.83857877
 20
158.1974854959
 40
6.0
100
AcDbArc
 50
90.0
 51
180.0
  0
ARC
  5
701
100
AcDbEntity
  8
RUNDUNGEN
100
AcDbCircle
 62
7
  6
CONTINUOUS
 10
259.83857877
 20
158.1974854959
 40
6.0
100
AcDbArc
 50
0.0
 51
90.0
  0
ARC
  5
702
100
AcDbEntity
  8
KONSTRUKTIONSELEMENTE
100
AcDbCircle
 62
7
  6
CONTINUOUS
 10
374.9935124611
 20
104.538324209
 40
4.3878335181
100
AcDbArc
 50
225.9937050334
 51
227.0555598989
  0
ARC
  5
703
100
AcDbEntity
  8
KONSTRUKTIONSELEMENTE
100
AcDbCircle
 62
7
  6
CONTINUOUS
 10
313.8287758873
 20
163.6189229215
 40
4.3878335165
100
AcDbArc
 50
225.9937050332
 51
227.0555598991
  0
ARC
  5
704
100
AcDbEntity
  8
KONSTRUKTIONSELEMENTE
100
AcDbCircle
 62
7
  6
CONTINUOUS
 10
375.6243438826
 20
104.4040562616
 40
4.1189460881
100
AcDbArc
 50
336.8721362905
 51
359.9590929182
  0
ARC
  5
705
100
AcDbEntity
  8
KONSTRUKTIONSELEMENTE
100
AcDbCircle
 62
7
  6
CONTINUOUS
 10
314.4643674396
 20
163.4833448239
 40
4.1141852318
100
AcDbArc
 50
334.689527825
 51
359.9772912731
  0
ARC
  5
706
100
AcDbEntity
  8
KONSTRUKTIONSELEMENTE
100
AcDbCircle
 62
7
  6
CONTINUOUS
 10
366.3132130959
 20
112.5280075712
 40
4.0843599423
100
AcDbArc
 50
179.6607782891
 51
180.0341463983
  0
ARC
  5
707
100
AcDbEntity
  8
KONSTRUKTIONSELEMENTE
100
AcDbCircle
 62
7
  6
CONTINUOUS
 10
345.7170938457
 20
132.8197903412
 40
3.3624399503
100
AcDbArc
 50
225.9940708964
 51
227.2341816413
  0
ARC
  5
708
100
AcDbEntity
  8
0
100
AcDbCircle
 62
7
  6
CONTINUOUS
 10
401.2130233239
 20
75.692169015
 40
3.1733553844
100
AcDbArc
 50
73.4283765074
 51
74.5640250656
  0
ARC
  5
709
100
AcDbEntity
  8
0
100
AcDbCircle
 62
7
  6
CONTINUOUS
 10
423.0236842021
 20
54.4776904746
 40
3.1614865902
100
AcDbArc
 50
72.1838779465
 51
73.3886854488
  0
ARC
  5
70A
100
AcDbEntity
  8
KONSTRUKTIONSELEMENTE
100
AcDbCircle
 62
7
  6
CONTINUOUS
 10
346.2550068472
 20
132.7109749403
 40
3.1286794214
100
AcDbArc
 50
342.3964861857
 51
359.9749659755
  0
ARC
  5
70B
100
AcDbEntity
  8
0
100
AcDbCircle
 62
7
  6
CONTINUOUS
 10
401.2688490823
 20
75.8931185455
 40
2.9647957655
100
AcDbArc
 50
74.5703450303
 51
75.1594777198
  0
SPLINE
  5
70C
100
AcDbEntity
  8
KONSTRUKTIONSELEMENTE
100
AcDbSpline
 62
7
  6
CONTINUOUS
 70
0
 71
3
 72
11
 73
7
 74
0
 42
0.0000001
 43
0.0000001
 44
0.0000000001
 40
0.0
 40
0.0
 40
0.0
 40
0.0
 40
0.2390759488
 40
0.4845199689
 40
0.7382329877
 40
1.0
 40
1.0
 40
1.0
 40
1.0
 10
682.7812723201
 20
132.1721122487
 30
0.0
 10
683.1290704055
 20
132.5573987472
 30
0.0
 10
683.9460306157
 20
133.2424925018
 30
0.0
 10
685.3998367649
 20
133.9480652299
 30
0.0
 10
687.0158801076
 20
134.3401814942
 30
0.0
 10
688.1409358869
 20
134.3937398917
 30
0.0
 10
688.7088180332
 20
134.3716938109
 30
0.0
  0
SPLINE
  5
70D
100
AcDbEntity
  8
KONSTRUKTIONSELEMENTE
100
AcDbSpline
 62
7
  6
CONTINUOUS
 70
0
 71
3
 72
11
 73
7
 74
0
 42
0.0000001
 43
0.0000001
 44
0.0000000001
 40
0.0
 40
0.0
 40
0.0
 40
0.0
 40
0.2617931805
 40
0.5155111137
 40
0.7609431338
 40
1.0
 40
1.0
 40
1.0
 40
1.0
 10
693.0616648653
 20
133.2057984413
 30
0.0
 10
693.5647919417
 20
132.9408916949
 30
0.0
 10
694.512921214
 20
132.3318844969
 30
0.0
 10
695.7170620481
 20
131.1838721979
 30
0.0
 10
696.6236070024
 20
129.8453806054
 30
0.0
 10
696.9887307961
 20
128.843235188
 30
0.0
 10
697.0972539854
 20
128.3354798713
 30
0.0
  0
SPLINE
  5
70E
100
AcDbEntity
  8
KONSTRUKTIONSELEMENTE
100
AcDbSpline
 62
7
  6
CONTINUOUS
 70
0
 71
3
 72
10
 73
6
 74
0
 42
0.0000001
 43
0.0000001
 44
0.0000000001
 40
0.0
 40
0.0
 40
0.0
 40
0.0
 40
0.3116645009
 40
0.6060899939
 40
1.0
 40
1.0
 40
1.0
 40
1.0
 10
685.9354471518
 20
128.8350731183
 30
0.0
 10
685.9864745809
 20
129.0255100762
 30
0.0
 10
686.2637195479
 20
129.3356476757
 30
0.0
 10
686.8177506601
 20
129.6363739618
 30
0.0
 10
687.242116308
 20
129.7580977199
 30
0.0
 10
687.4870626623
 20
129.8038479714
 30
0.0
  0
SPLINE
  5
70F
100
AcDbEntity
  8
KONSTRUKTIONSELEMENTE
100
AcDbSpline
 62
7
  6
CONTINUOUS
 70
0
 71
3
 72
10
 73
6
 74
0
 42
0.0000001
 43
0.0000001
 44
0.0000000001
 40
0.0
 40
0.0
 40
0.0
 40
0.0
 40
0.3939255147
 40
0.6883533687
 40
1.0
 40
1.0
 40
1.0
 40
1.0
 10
691.8373714978
 20
128.6383021086
 30
0.0
 10
692.0266729448
 20
128.4761936773
 30
0.0
 10
692.333372424
 20
128.1585448204
 30
0.0
 10
692.6629311767
 20
127.6210565258
 30
0.0
 10
692.7479596244
 20
127.2137926572
 30
0.0
 10
692.6969279358
 20
127.0233398026
 30
0.0
  0
SPLINE
  5
710
100
AcDbEntity
  8
KONSTRUKTIONSELEMENTE
100
AcDbSpline
 62
7
  6
CONTINUOUS
 70
0
 71
3
 72
12
 73
8
 74
0
 42
0.0000001
 43
0.0000001
 44
0.0000000001
 40
0.0
 40
0.0
 40
0.0
 40
0.0
 40
0.119660423
 40
0.239791031
 40
0.4831782475
 40
0.7358868616
 40
1.0
 40
1.0
 40
1.0
 40
1.0
 10
689.699506205
 20
160.2529154456
 30
0.0
 10
689.8009665486
 20
160.5778824066
 30
0.0
 10
690.0702832539
 20
161.2105855578
 30
0.0
 10
690.8485874374
 20
162.3524684371
 30
0.0
 10
692.2297888568
 20
163.4957335017
 30
0.0
 10
694.2733013365
 20
164.2873717437
 30
0.0
 10
695.7536842895
 20
164.4402490363
 30
0.0
 10
696.5050353165
 20
164.4308404771
 30
0.0
  0
SPLINE
  5
711
100
AcDbEntity
  8
KONSTRUKTIONSELEMENTE
100
AcDbSpline
 62
7
  6
CONTINUOUS
 70
0
 71
3
 72
12
 73
8
 74
0
 42
0.0000001
 43
0.0000001
 44
0.0000000001
 40
0.0
 40
0.0
 40
0.0
 40
0.0
 40
0.2641163723
 40
0.5168081693
 40
0.7601760549
 40
0.8803250158
 40
1.0
 40
1.0
 40
1.0
 40
1.0
 10
701.3420884613
 20
163.1345000838
 30
0.0
 10
701.9973807802
 20
162.7669342259
 30
0.0
 10
703.202786294
 20
161.8943857061
 30
0.0
 10
704.5763014351
 20
160.1871749246
 30
0.0
 10
705.2008279536
 20
158.5067332146
 30
0.0
 10
705.3037771316
 20
157.1287720595
 30
0.0
 10
705.2206769698
 20
156.446158422
 30
0.0
 10
705.1460681146
 20
156.1139909628
 30
0.0
  0
SPLINE
  5
712
100
AcDbEntity
  8
KONSTRUKTIONSELEMENTE
100
AcDbSpline
 62
7
  6
CONTINUOUS
 70
0
 71
3
 72
10
 73
6
 74
0
 42
0.0000001
 43
0.0000001
 44
0.0000000001
 40
0.0
 40
0.0
 40
0.0
 40
0.0
 40
0.3192646009
 40
0.6086079864
 40
1.0
 40
1.0
 40
1.0
 40
1.0
 10
693.988006035
 20
158.8876320015
 30
0.0
 10
694.0324555596
 20
159.0535198858
 30
0.0
 10
694.2526746807
 20
159.3266819704
 30
0.0
 10
694.7078232345
 20
159.6119535905
 30
0.0
 10
695.0559155719
 20
159.7392376775
 30
0.0
 10
695.259385995
 20
159.7933335246
 30
0.0
  0
SPLINE
  5
713
100
AcDbEntity
  8
KONSTRUKTIONSELEMENTE
100
AcDbSpline
 62
7
  6
CONTINUOUS
 70
0
 71
3
 72
10
 73
6
 74
0
 42
0.0000001
 43
0.0000001
 44
0.0000000001
 40
0.0
 40
0.0
 40
0.0
 40
0.0
 40
0.3914026107
 40
0.6807340322
 40
1.0
 40
1.0
 40
1.0
 40
1.0
 10
700.1013650739
 20
158.4958748185
 30
0.0
 10
700.2505187463
 20
158.3472927881
 30
0.0
 10
700.4882819434
 20
158.0630093497
 30
0.0
 10
700.7398445037
 20
157.5884309403
 30
0.0
 10
700.7939337582
 20
157.2417769209
 30
0.0
 10
700.749486819
 20
157.0758986858
 30
0.0
  0
SPLINE
  5
714
100
AcDbEntity
  8
KONSTRUKTIONSELEMENTE
100
AcDbSpline
 62
7
  6
CONTINUOUS
 70
0
 71
3
 72
9
 73
5
 74
0
 42
0.0000001
 43
0.0000001
 44
0.0000000001
 40
0.0
 40
0.0
 40
0.0
 40
0.0
 40
0.4878890232
 40
1.0
 40
1.0
 40
1.0
 40
1.0
 10
719.37203866
 20
168.6934777672
 30
0.0
 10
717.4269085335
 20
167.9921126781
 30
0.0
 10
713.2557751131
 20
167.0404617617
 30
0.0
 10
708.9891972571
 20
166.962369489
 30
0.0
 10
706.8246985227
 20
167.1218956201
 30
0.0
  0
SPLINE
  5
715
100
AcDbEntity
  8
KONSTRUKTIONSELEMENTE
100
AcDbSpline
 62
7
  6
CONTINUOUS
 70
0
 71
3
 72
9
 73
5
 74
0
 42
0.0000001
 43
0.0000001
 44
0.0000000001
 40
0.0
 40
0.0
 40
0.0
 40
0.0
 40
0.5121260224
 40
1.0
 40
1.0
 40
1.0
 40
1.0
 10
693.7694020387
 20
170.6158278254
 30
0.0
 10
691.8111692556
 20
171.5603532486
 30
0.0
 10
688.1478569599
 20
173.7632002727
 30
0.0
 10
685.0053678568
 20
176.6773217614
 30
0.0
 10
683.6692876625
 20
178.2599184528
 30
0.0
  0
SPLINE
  5
716
100
AcDbEntity
  8
KONSTRUKTIONSELEMENTE
100
AcDbSpline
 62
7
  6
CONTINUOUS
 70
0
 71
3
 72
9
 73
5
 74
0
 42
0.0000001
 43
0.0000001
 44
0.0000000001
 40
0.0
 40
0.0
 40
0.0
 40
0.0
 40
0.2348418344
 40
1.0
 40
1.0
 40
1.0
 40
1.0
 10
720.0819247296
 20
176.7625870411
 30
0.0
 10
719.7319413719
 20
176.5429306897
 30
0.0
 10
718.2003234843
 20
175.6737703979
 30
0.0
 10
716.5260546452
 20
175.0678956543
 30
0.0
 10
715.2216998462
 20
174.7344798437
 30
0.0
  0
SPLINE
  5
717
100
AcDbEntity
  8
KONSTRUKTIONSELEMENTE
100
AcDbSpline
 62
7
  6
CONTINUOUS
 70
0
 71
3
 72
9
 73
5
 74
0
 42
0.0000001
 43
0.0000001
 44
0.0000000001
 40
0.0
 40
0.0
 40
0.0
 40
0.0
 40
0.2654819976
 40
1.0
 40
1.0
 40
1.0
 40
1.0
 10
690.2838890089
 20
181.4166123948
 30
0.0
 10
689.9498165472
 20
181.7430644783
 30
0.0
 10
688.7342383498
 20
183.0146621986
 30
0.0
 10
687.6931656325
 20
184.4611706161
 30
0.0
 10
687.0887472344
 20
185.6034361947
 30
0.0
  0
SPLINE
  5
718
100
AcDbEntity
  8
0
100
AcDbSpline
 62
7
  6
CONTINUOUS
 70
0
 71
3
 72
11
 73
7
 74
0
 42
0.0000001
 43
0.0000001
 44
0.0000000001
 40
0.0
 40
0.0
 40
0.0
 40
0.0
 40
0.2192989281
 40
0.4548225453
 40
0.7152180566
 40
1.0
 40
1.0
 40
1.0
 40
1.0
 10
695.9209416951
 20
79.2862547107
 30
0.0
 10
696.0181679328
 20
79.6491079698
 30
0.0
 10
696.0585496445
 20
80.452472902
 30
0.0
 10
695.6446263662
 20
81.6311620933
 30
0.0
 10
694.8256686285
 20
82.710011853
 30
0.0
 10
694.083834891
 20
83.2936348609
 30
0.0
 10
693.6707418568
 20
83.5531082321
 30
0.0
  0
SPLINE
  5
719
100
AcDbEntity
  8
0
100
AcDbSpline
 62
7
  6
CONTINUOUS
 70
0
 71
3
 72
15
 73
11
 74
0
 42
0.0000001
 43
0.0000001
 44
0.0000000001
 40
0.0
 40
0.0
 40
0.0
 40
0.0
 40
0.1047415988
 40
0.222328371
 40
0.3560160977
 40
0.5
 40
0.6439839023
 40
0.777671629
 40
0.8952584012
 40
1.0
 40
1.0
 40
1.0
 40
1.0
 10
679.2584295196
 20
82.7658303976
 30
0.0
 10
679.1989317535
 20
82.5437817114
 30
0.0
 10
679.2153781361
 20
82.0282243072
 30
0.0
 10
679.6210727648
 20
81.3341675503
 30
0.0
 10
680.3033393768
 20
80.7755657778
 30
0.0
 10
681.1679688912
 20
80.4139378279
 30
0.0
 10
682.0975739904
 20
80.2948020621
 30
0.0
 10
682.9677350948
 20
80.4374320816
 30
0.0
 10
683.6661053279
 20
80.8356555504
 30
0.0
 10
683.9381270152
 20
81.2739181682
 30
0.0
 10
683.9976247813
 20
81.4959668545
 30
0.0
  0
SPLINE
  5
71A
100
AcDbEntity
  8
0
100
AcDbSpline
 62
7
  6
CONTINUOUS
 70
0
 71
3
 72
11
 73
7
 74
0
 42
0.0000001
 43
0.0000001
 44
0.0000000001
 40
0.0
 40
0.0
 40
0.0
 40
0.0
 40
0.2094689415
 40
0.4446609502
 40
0.7120169424
 40
1.0
 40
1.0
 40
1.0
 40
1.0
 10
676.9362114117
 20
86.1882925644
 30
0.0
 10
676.9990075987
 20
86.4227918311
 30
0.0
 10
676.9814307286
 20
86.9672626563
 30
0.0
 10
676.552828846
 20
87.7002213679
 30
0.0
 10
675.8328723339
 20
88.2900045458
 30
0.0
 10
675.2298733505
 20
88.5419073586
 30
0.0
 10
674.9074909405
 20
88.628289465
 30
0.0
  0
SPLINE
  5
71B
100
AcDbEntity
  8
0
100
AcDbSpline
 62
7
  6
CONTINUOUS
 70
0
 71
3
 72
9
 73
5
 74
0
 42
0.0000001
 43
0.0000001
 44
0.0000000001
 40
0.0
 40
0.0
 40
0.0
 40
0.0
 40
0.4402133985
 40
1.0
 40
1.0
 40
1.0
 40
1.0
 10
662.5439150707
 20
87.3445526141
 30
0.0
 10
662.5361160821
 20
87.3154463925
 30
0.0
 10
662.563958701
 20
87.240053094
 30
0.0
 10
662.6290373033
 20
87.2075442547
 30
0.0
 10
662.6660495181
 20
87.1976268616
 30
0.0
  0
SPLINE
  5
71C
100
AcDbEntity
  8
0
100
AcDbSpline
 62
7
  6
CONTINUOUS
 70
0
 71
3
 72
9
 73
5
 74
0
 42
0.0000001
 43
0.0000001
 44
0.0000000001
 40
0.0
 40
0.0
 40
0.0
 40
0.0
 40
0.4402133985
 40
1.0
 40
1.0
 40
1.0
 40
1.0
 10
663.5941455102
 20
87.120244179
 30
0.0
 10
663.6019444988
 20
87.1493504006
 30
0.0
 10
663.5741018799
 20
87.2247436992
 30
0.0
 10
663.5090232776
 20
87.2572525384
 30
0.0
 10
663.4720110628
 20
87.2671699315
 30
0.0
  0
SPLINE
  5
71D
100
AcDbEntity
  8
0
100
AcDbSpline
 62
7
  6
CONTINUOUS
 70
0
 71
3
 72
9
 73
5
 74
0
 42
0.0000001
 43
0.0000001
 44
0.0000000001
 40
0.0
 40
0.0
 40
0.0
 40
0.0
 40
0.4402133985
 40
1.0
 40
1.0
 40
1.0
 40
1.0
 10
664.3078950476
 20
89.7839937164
 30
0.0
 10
664.3156940361
 20
89.813099938
 30
0.0
 10
664.2878514173
 20
89.8884932365
 30
0.0
 10
664.222772815
 20
89.9210020758
 30
0.0
 10
664.1857606001
 20
89.9309194689
 30
0.0
  0
SPLINE
  5
71E
100
AcDbEntity
  8
0
100
AcDbSpline
 62
7
  6
CONTINUOUS
 70
0
 71
3
 72
11
 73
7
 74
0
 42
0.0000001
 43
0.0000001
 44
0.0000000001
 40
0.0
 40
0.0
 40
0.0
 40
0.0
 40
0.2094668498
 40
0.4446559298
 40
0.7120302568
 40
1.0
 40
1.0
 40
1.0
 40
1.0
 10
661.8719718861
 20
88.9806483041
 30
0.0
 10
661.8625138366
 20
88.9453503827
 30
0.0
 10
661.8651218989
 20
88.8633900035
 30
0.0
 10
661.9296396909
 20
88.7530455402
 30
0.0
 10
662.0380088392
 20
88.66425695
 30
0.0
 10
662.1287813124
 20
88.6263366107
 30
0.0
 10
662.1773080046
 20
88.6133339227
 30
0.0
  0
SPLINE
  5
71F
100
AcDbEntity
  8
0
100
AcDbSpline
 62
7
  6
CONTINUOUS
 70
0
 71
3
 72
11
 73
7
 74
0
 42
0.0000001
 43
0.0000001
 44
0.0000000001
 40
0.0
 40
0.0
 40
0.0
 40
0.0
 40
0.2094668498
 40
0.4446559298
 40
0.7120302568
 40
1.0
 40
1.0
 40
1.0
 40
1.0
 10
661.1582223487
 20
86.3168987667
 30
0.0
 10
661.1487642992
 20
86.2816008453
 30
0.0
 10
661.1513723616
 20
86.1996404661
 30
0.0
 10
661.2158901535
 20
86.0892960029
 30
0.0
 10
661.3242593018
 20
86.0005074127
 30
0.0
 10
661.415031775
 20
85.9625870733
 30
0.0
 10
661.4635584672
 20
85.9495843854
 30
0.0
  0
SPLINE
  5
720
100
AcDbEntity
  8
0
100
AcDbSpline
 62
7
  6
CONTINUOUS
 70
0
 71
3
 72
9
 73
5
 74
0
 42
0.0000001
 43
0.0000001
 44
0.0000000001
 40
0.0
 40
0.0
 40
0.0
 40
0.0
 40
0.2432035461
 40
1.0
 40
1.0
 40
1.0
 40
1.0
 10
667.5999459452
 20
90.0153406152
 30
0.0
 10
667.6055472815
 20
90.0362450869
 30
0.0
 10
667.6214319702
 20
90.1241179221
 30
0.0
 10
667.6065265756
 20
90.2162426112
 30
0.0
 10
667.5826363757
 20
90.2792076144
 30
0.0
  0
SPLINE
  5
721
100
AcDbEntity
  8
0
100
AcDbSpline
 62
7
  6
CONTINUOUS
 70
0
 71
3
 72
9
 73
5
 74
0
 42
0.0000001
 43
0.0000001
 44
0.0000000001
 40
0.0
 40
0.0
 40
0.0
 40
0.0
 40
0.2401326547
 40
1.0
 40
1.0
 40
1.0
 40
1.0
 10
667.5826363757
 20
90.2792076144
 30
0.0
 10
667.5769375202
 20
90.294227516
 30
0.0
 10
667.5503068858
 20
90.3556689131
 30
0.0
 10
667.5126794757
 20
90.4120778714
 30
0.0
 10
667.4801836958
 20
90.4511697658
 30
0.0
  0
SPLINE
  5
722
100
AcDbEntity
  8
0
100
AcDbSpline
 62
7
  6
CONTINUOUS
 70
0
 71
3
 72
9
 73
5
 74
0
 42
0.0000001
 43
0.0000001
 44
0.0000000001
 40
0.0
 40
0.0
 40
0.0
 40
0.0
 40
0.2356425559
 40
1.0
 40
1.0
 40
1.0
 40
1.0
 10
667.4801836958
 20
90.4511697658
 30
0.0
 10
667.451068832
 20
90.4861944731
 30
0.0
 10
667.3135269874
 20
90.6230653048
 30
0.0
 10
667.131976796
 20
90.7117322007
 30
0.0
 10
666.9892737081
 20
90.7499693779
 30
0.0
  0
SPLINE
  5
723
100
AcDbEntity
  8
RUNDUNGEN
100
AcDbSpline
 62
7
  6
CONTINUOUS
 70
0
 71
3
 72
10
 73
6
 74
0
 42
0.0000001
 43
0.0000001
 44
0.0000000001
 40
0.0
 40
0.0
 40
0.0
 40
0.0
 40
0.2265435863
 40
0.4650408478
 40
1.0
 40
1.0
 40
1.0
 40
1.0
 10
638.1521122148
 20
100.7634983277
 30
0.0
 10
638.1808481696
 20
100.8704726662
 30
0.0
 10
638.2791244074
 20
101.0812688168
 30
0.0
 10
638.6213311314
 20
101.4395193056
 30
0.0
 10
638.9909685702
 20
101.587117483
 30
0.0
 10
639.247425403
 20
101.6385534914
 30
0.0
  0
SPLINE
  5
724
100
AcDbEntity
  8
RUNDUNGEN
100
AcDbSpline
 62
7
  6
CONTINUOUS
 70
0
 71
3
 72
9
 73
5
 74
0
 42
0.0000001
 43
0.0000001
 44
0.0000000001
 40
0.0
 40
0.0
 40
0.0
 40
0.0
 40
0.4805181646
 40
1.0
 40
1.0
 40
1.0
 40
1.0
 10
637.2370328877
 20
97.348382278
 30
0.0
 10
637.2003191767
 20
97.211673828
 30
0.0
 10
637.1883304858
 20
96.9070353933
 30
0.0
 10
637.2969123643
 20
96.6253931659
 30
0.0
 10
637.3727769863
 20
96.4924913654
 30
0.0
  0
SPLINE
  5
725
100
AcDbEntity
  8
RUNDUNGEN
100
AcDbSpline
 62
7
  6
CONTINUOUS
 70
0
 71
3
 72
11
 73
7
 74
0
 42
0.0000001
 43
0.0000001
 44
0.0000000001
 40
0.0
 40
0.0
 40
0.0
 40
0.0
 40
0.2256920307
 40
0.4632775486
 40
0.7205987639
 40
1.0
 40
1.0
 40
1.0
 40
1.0
 10
628.8373436691
 20
118.3607533385
 30
0.0
 10
628.9255503215
 20
118.6902011564
 30
0.0
 10
629.2271791079
 20
119.3393681461
 30
0.0
 10
629.9904845158
 20
120.1384504467
 30
0.0
 10
631.0112549308
 20
120.7356361517
 30
0.0
 10
631.7944233934
 20
120.9732200126
 30
0.0
 10
632.2083930534
 20
121.0562474237
 30
0.0
  0
SPLINE
  5
726
100
AcDbEntity
  8
RUNDUNGEN
100
AcDbSpline
 62
7
  6
CONTINUOUS
 70
0
 71
3
 72
9
 73
5
 74
0
 42
0.0000001
 43
0.0000001
 44
0.0000000001
 40
0.0
 40
0.0
 40
0.0
 40
0.0
 40
0.4805190228
 40
1.0
 40
1.0
 40
1.0
 40
1.0
 10
627.9222801597
 20
114.945689829
 30
0.0
 10
627.8097540918
 20
114.5254101051
 30
0.0
 10
627.7738029638
 20
113.5890738463
 30
0.0
 10
628.1075799755
 20
112.723526766
 30
0.0
 10
628.3407605984
 20
112.3150343249
 30
0.0
  0
SPLINE
  5
727
100
AcDbEntity
  8
RUNDUNGEN
100
AcDbSpline
 62
7
  6
CONTINUOUS
 70
0
 71
3
 72
11
 73
7
 74
0
 42
0.0000001
 43
0.0000001
 44
0.0000000001
 40
0.0
 40
0.0
 40
0.0
 40
0.0
 40
0.2377805525
 40
0.4809056656
 40
0.7339193662
 40
1.0
 40
1.0
 40
1.0
 40
1.0
 10
690.7325615728
 20
54.8377955585
 30
0.0
 10
690.9192489874
 20
55.5345223783
 30
0.0
 10
691.4525863326
 20
56.9067216446
 30
0.0
 10
692.688232865
 20
58.7769469977
 30
0.0
 10
694.3282243948
 20
60.4261631317
 30
0.0
 10
695.6286832656
 20
61.3298586092
 30
0.0
 10
696.3257111088
 20
61.7368569169
 30
0.0
  0
SPLINE
  5
728
100
AcDbEntity
  8
RUNDUNGEN
100
AcDbSpline
 62
7
  6
CONTINUOUS
 70
0
 71
3
 72
9
 73
5
 74
0
 42
0.0000001
 43
0.0000001
 44
0.0000000001
 40
0.0
 40
0.0
 40
0.0
 40
0.0
 40
0.4822746168
 40
1.0
 40
1.0
 40
1.0
 40
1.0
 10
691.3415146488
 20
56.5034847855
 30
0.0
 10
691.241308021
 20
55.3328215035
 30
0.0
 10
691.4616975558
 20
52.8564985856
 30
0.0
 10
692.4166105785
 20
50.5769269951
 30
0.0
 10
693.0419036839
 20
49.481520765
 30
0.0
  0
SPLINE
  5
729
100
AcDbEntity
  8
RUNDUNGEN
100
AcDbSpline
 62
7
  6
CONTINUOUS
 70
0
 71
3
 72
9
 73
5
 74
0
 42
0.0000001
 43
0.0000001
 44
0.0000000001
 40
0.0
 40
0.0
 40
0.0
 40
0.0
 40
0.4805364501
 40
1.0
 40
1.0
 40
1.0
 40
1.0
 10
621.854020683
 20
46.1599175742
 30
0.0
 10
621.9666638856
 20
46.5803077293
 30
0.0
 10
622.4036381945
 20
47.4095179429
 30
0.0
 10
623.1256795125
 20
47.992403526
 30
0.0
 10
623.5319655895
 20
48.2296361522
 30
0.0
  0
SPLINE
  5
72A
100
AcDbEntity
  8
BEZUGSACHSEN
100
AcDbSpline
 62
7
  6
CONTINUOUS
 70
0
 71
3
 72
9
 73
5
 74
0
 42
0.0000001
 43
0.0000001
 44
0.0000000001
 40
0.0
 40
0.0
 40
0.0
 40
0.0
 40
0.4744816413
 40
1.0
 40
1.0
 40
1.0
 40
1.0
 10
676.8993183809
 20
100.5100497963
 30
0.0
 10
677.064593076
 20
100.0765895525
 30
0.0
 10
677.588828499
 20
99.2273590146
 30
0.0
 10
678.3276846675
 20
98.5692082348
 30
0.0
 10
678.7478342577
 20
98.2734657629
 30
0.0
  0
SPLINE
  5
72B
100
AcDbEntity
  8
BEZUGSACHSEN
100
AcDbSpline
 62
7
  6
CONTINUOUS
 70
0
 71
3
 72
9
 73
5
 74
0
 42
0.0000001
 43
0.0000001
 44
0.0000000001
 40
0.0
 40
0.0
 40
0.0
 40
0.0
 40
0.5255183587
 40
1.0
 40
1.0
 40
1.0
 40
1.0
 10
683.6407796169
 20
96.9624050053
 30
0.0
 10
684.1525110714
 20
97.0084507038
 30
0.0
 10
685.1214546729
 20
97.2089979144
 30
0.0
 10
686.0000711358
 20
97.6823354224
 30
0.0
 10
686.3599333422
 20
97.9750856575
 30
0.0
  0
SPLINE
  5
72C
100
AcDbEntity
  8
BEZUGSACHSEN
100
AcDbSpline
 62
7
  6
CONTINUOUS
 70
0
 71
3
 72
11
 73
7
 74
0
 42
0.0000001
 43
0.0000001
 44
0.0000000001
 40
0.0
 40
0.0
 40
0.0
 40
0.0
 40
0.2211899434
 40
0.4572145773
 40
0.7166495597
 40
1.0
 40
1.0
 40
1.0
 40
1.0
 10
686.4853220734
 20
96.1139045173
 30
0.0
 10
686.5780142367
 20
96.45983638
 30
0.0
 10
686.625268799
 20
97.2202958588
 30
0.0
 10
686.2673969407
 20
98.3462352148
 30
0.0
 10
685.5359903104
 20
99.3923168502
 30
0.0
 10
684.8635548595
 20
99.9720071443
 30
0.0
 10
684.4871498954
 20
100.2343031423
 30
0.0
  0
SPLINE
  5
72D
100
AcDbEntity
  8
BEZUGSACHSEN
100
AcDbSpline
 62
7
  6
CONTINUOUS
 70
0
 71
3
 72
11
 73
7
 74
0
 42
0.0000001
 43
0.0000001
 44
0.0000000001
 40
0.0
 40
0.0
 40
0.0
 40
0.0
 40
0.2833504403
 40
0.5427854227
 40
0.7788100566
 40
1.0
 40
1.0
 40
1.0
 40
1.0
 10
679.6508051641
 20
101.5301978074
 30
0.0
 10
679.193680904
 20
101.4912452919
 30
0.0
 10
678.3214895741
 20
101.3254364963
 30
0.0
 10
677.165032034
 20
100.7852065408
 30
0.0
 10
676.2921362354
 20
99.9890503845
 30
0.0
 10
675.9528301475
 20
99.3068458761
 30
0.0
 10
675.8601379842
 20
98.9609140134
 30
0.0
  0
SPLINE
  5
72E
100
AcDbEntity
  8
RUNDUNGEN
100
AcDbSpline
 62
7
  6
CONTINUOUS
 70
0
 71
3
 72
9
 73
5
 74
0
 42
0.0000001
 43
0.0000001
 44
0.0000000001
 40
0.0
 40
0.0
 40
0.0
 40
0.0
 40
0.5194633855
 40
1.0
 40
1.0
 40
1.0
 40
1.0
 10
706.4372097703
 20
26.0152429257
 30
0.0
 10
706.6704474471
 20
25.6066505358
 30
0.0
 10
707.0043108169
 20
24.7408361941
 30
0.0
 10
706.9681366375
 20
23.804231904
 30
0.0
 10
706.8554933965
 20
23.3838416052
 30
0.0
  0
SPLINE
  5
72F
100
AcDbEntity
  8
RUNDUNGEN
100
AcDbSpline
 62
7
  6
CONTINUOUS
 70
0
 71
3
 72
10
 73
6
 74
0
 42
0.0000001
 43
0.0000001
 44
0.0000000001
 40
0.0
 40
0.0
 40
0.0
 40
0.0
 40
0.5349738236
 40
0.7734707683
 40
1.0
 40
1.0
 40
1.0
 40
1.0
 10
738.0815821757
 20
91.0080635245
 30
0.0
 10
738.2830066101
 20
90.8308522871
 30
0.0
 10
738.5356482576
 20
90.5101789105
 30
0.0
 10
738.6558737164
 20
90.0164661268
 30
0.0
 10
738.6350590377
 20
89.7788366197
 30
0.0
 10
738.6057222047
 20
89.6690883921
 30
0.0
  0
SPLINE
  5
730
100
AcDbEntity
  8
RUNDUNGEN
100
AcDbSpline
 62
7
  6
CONTINUOUS
 70
0
 71
3
 72
10
 73
6
 74
0
 42
0.0000001
 43
0.0000001
 44
0.0000000001
 40
0.0
 40
0.0
 40
0.0
 40
0.0
 40
0.480919237
 40
0.7459271749
 40
1.0
 40
1.0
 40
1.0
 40
1.0
 10
729.536496376
 20
96.4652163044
 30
0.0
 10
729.9440854345
 20
96.7032097486
 30
0.0
 10
730.7418555285
 20
96.7874944398
 30
0.0
 10
731.6864287448
 20
96.5164831594
 30
0.0
 10
732.1297161501
 20
96.2444567493
 30
0.0
 10
732.3169281039
 20
96.0797495125
 30
0.0
  0
SPLINE
  5
731
100
AcDbEntity
  8
0
100
AcDbSpline
 62
7
  6
CONTINUOUS
 70
0
 71
3
 72
9
 73
5
 74
0
 42
0.0000001
 43
0.0000001
 44
0.0000000001
 40
0.0
 40
0.0
 40
0.0
 40
0.0
 40
0.2469303797
 40
1.0
 40
1.0
 40
1.0
 40
1.0
 10
690.903320976
 20
105.2359564942
 30
0.0
 10
690.5503779624
 20
105.445873303
 30
0.0
 10
689.1006476542
 20
106.2613114731
 30
0.0
 10
687.5738644585
 20
106.9387257161
 30
0.0
 10
686.3977563299
 20
107.3690773435
 30
0.0
  0
SPLINE
  5
732
100
AcDbEntity
  8
0
100
AcDbSpline
 62
7
  6
CONTINUOUS
 70
0
 71
3
 72
9
 73
5
 74
0
 42
0.0000001
 43
0.0000001
 44
0.0000000001
 40
0.0
 40
0.0
 40
0.0
 40
0.0
 40
0.2528805792
 40
1.0
 40
1.0
 40
1.0
 40
1.0
 10
681.5635585558
 20
108.6643967331
 30
0.0
 10
681.1492828287
 20
108.7367131319
 30
0.0
 10
679.5048903847
 20
108.9857441182
 30
0.0
 10
677.8374192772
 20
109.085943728
 30
0.0
 10
676.5950646892
 20
109.0698422114
 30
0.0
  0
SPLINE
  5
733
100
AcDbEntity
  8
RUNDUNGEN
100
AcDbSpline
 62
7
  6
CONTINUOUS
 70
0
 71
3
 72
9
 73
5
 74
0
 42
0.0000001
 43
0.0000001
 44
0.0000000001
 40
0.0
 40
0.0
 40
0.0
 40
0.0
 40
0.2416515958
 40
1.0
 40
1.0
 40
1.0
 40
1.0
 10
634.0008168306
 20
121.415743107
 30
0.0
 10
635.1861911406
 20
121.6534865206
 30
0.0
 10
640.1761881658
 20
122.1821721817
 30
0.0
 10
645.3051783365
 20
121.0588127835
 30
0.0
 10
648.739242397
 20
119.4458295595
 30
0.0
  0
SPLINE
  5
734
100
AcDbEntity
  8
0
100
AcDbSpline
 62
7
  6
CONTINUOUS
 70
0
 71
3
 72
11
 73
7
 74
0
 42
0.0000001
 43
0.0000001
 44
0.0000000001
 40
0.0
 40
0.0
 40
0.0
 40
0.0
 40
0.2880052506
 40
0.5553344723
 40
0.7905070702
 40
1.0
 40
1.0
 40
1.0
 40
1.0
 10
660.9618965521
 20
92.3650002193
 30
0.0
 10
660.8648318807
 20
92.3910086197
 30
0.0
 10
660.6696876905
 20
92.4161222339
 30
0.0
 10
660.3932331259
 20
92.3706251242
 30
0.0
 10
660.1711141014
 20
92.2441021026
 30
0.0
 10
660.0846428218
 20
92.1047333048
 30
0.0
 10
660.0657245001
 20
92.034129167
 30
0.0
  0
SPLINE
  5
735
100
AcDbEntity
  8
0
100
AcDbSpline
 62
7
  6
CONTINUOUS
 70
0
 71
3
 72
11
 73
7
 74
0
 42
0.0000001
 43
0.0000001
 44
0.0000000001
 40
0.0
 40
0.0
 40
0.0
 40
0.0
 40
0.2879697432
 40
0.5553440702
 40
0.7905331502
 40
1.0
 40
1.0
 40
1.0
 40
1.0
 10
664.0608633659
 20
88.1086367848
 30
0.0
 10
664.1093900581
 20
88.0956340968
 30
0.0
 10
664.2069614955
 20
88.0830878373
 30
0.0
 10
664.345206226
 20
88.1057964379
 30
0.0
 10
664.4562525045
 20
88.1690986502
 30
0.0
 10
664.4994913424
 20
88.2387743896
 30
0.0
 10
664.5089493919
 20
88.2740723109
 30
0.0
  0
SPLINE
  5
736
100
AcDbEntity
  8
0
100
AcDbSpline
 62
7
  6
CONTINUOUS
 70
0
 71
3
 72
11
 73
7
 74
0
 42
0.0000001
 43
0.0000001
 44
0.0000000001
 40
0.0
 40
0.0
 40
0.0
 40
0.0
 40
0.2879697432
 40
0.5553440702
 40
0.7905331502
 40
1.0
 40
1.0
 40
1.0
 40
1.0
 10
663.3471138285
 20
85.4448872474
 30
0.0
 10
663.3956405207
 20
85.4318845594
 30
0.0
 10
663.4932119581
 20
85.4193383
 30
0.0
 10
663.6314566886
 20
85.4420469005
 30
0.0
 10
663.7425029671
 20
85.5053491129
 30
0.0
 10
663.785741805
 20
85.5750248522
 30
0.0
 10
663.7951998545
 20
85.6103227736
 30
0.0
  0
SPLINE
  5
737
100
AcDbEntity
  8
0
100
AcDbSpline
 62
7
  6
CONTINUOUS
 70
0
 71
3
 72
9
 73
5
 74
0
 42
0.0000001
 43
0.0000001
 44
0.0000000001
 40
0.0
 40
0.0
 40
0.0
 40
0.0
 40
0.5597866015
 40
1.0
 40
1.0
 40
1.0
 40
1.0
 10
662.9802851689
 20
90.2539256372
 30
0.0
 10
662.9432729541
 20
90.2638430303
 30
0.0
 10
662.8706588116
 20
90.2682288508
 30
0.0
 10
662.8088497471
 20
90.2168576484
 30
0.0
 10
662.8010507585
 20
90.1877514267
 30
0.0
  0
SPLINE
  5
738
100
AcDbEntity
  8
0
100
AcDbSpline
 62
7
  6
CONTINUOUS
 70
0
 71
3
 72
9
 73
5
 74
0
 42
0.0000001
 43
0.0000001
 44
0.0000000001
 40
0.0
 40
0.0
 40
0.0
 40
0.0
 40
0.5597866015
 40
1.0
 40
1.0
 40
1.0
 40
1.0
 10
662.2665356316
 20
87.5901760998
 30
0.0
 10
662.2295234167
 20
87.6000934929
 30
0.0
 10
662.1569092742
 20
87.6044793134
 30
0.0
 10
662.0951002098
 20
87.553108111
 30
0.0
 10
662.0873012212
 20
87.5240018894
 30
0.0
  0
SPLINE
  5
739
100
AcDbEntity
  8
0
100
AcDbSpline
 62
7
  6
CONTINUOUS
 70
0
 71
3
 72
9
 73
5
 74
0
 42
0.0000001
 43
0.0000001
 44
0.0000000001
 40
0.0
 40
0.0
 40
0.0
 40
0.0
 40
0.5597866015
 40
1.0
 40
1.0
 40
1.0
 40
1.0
 10
662.9297472687
 20
87.1269692623
 30
0.0
 10
662.9667594836
 20
87.1170518692
 30
0.0
 10
663.039373626
 20
87.1126660487
 30
0.0
 10
663.1011826905
 20
87.1640372511
 30
0.0
 10
663.1089816791
 20
87.1931434727
 30
0.0
  0
SPLINE
  5
73A
100
AcDbEntity
  8
0
100
AcDbSpline
 62
7
  6
CONTINUOUS
 70
0
 71
3
 72
11
 73
7
 74
0
 42
0.0000001
 43
0.0000001
 44
0.0000000001
 40
0.0
 40
0.0
 40
0.0
 40
0.0
 40
0.2880001164
 40
0.5553425139
 40
0.7905343079
 40
1.0
 40
1.0
 40
1.0
 40
1.0
 10
674.1755804236
 20
85.8967622294
 30
0.0
 10
674.3508058768
 20
85.8498107107
 30
0.0
 10
674.7030943552
 20
85.8045055325
 30
0.0
 10
675.2022153717
 20
85.8865413653
 30
0.0
 10
675.6031582579
 20
86.1150536266
 30
0.0
 10
675.759248133
 20
86.3666392769
 30
0.0
 10
675.7933964955
 20
86.4940827005
 30
0.0
  0
SPLINE
  5
73B
100
AcDbEntity
  8
0
100
AcDbSpline
 62
7
  6
CONTINUOUS
 70
0
 71
3
 72
8
 73
4
 74
0
 42
0.0000001
 43
0.0000001
 44
0.0000000001
 40
0.0
 40
0.0
 40
0.0
 40
0.0
 40
1.0
 40
1.0
 40
1.0
 40
1.0
 10
693.6707418568
 20
83.5531082321
 30
0.0
 10
693.5817990738
 20
83.6089752689
 30
0.0
 10
693.4829846919
 20
83.6510009153
 30
0.0
 10
693.3815305432
 20
83.6781854725
 30
0.0
  0
SPLINE
  5
73C
100
AcDbEntity
  8
0
100
AcDbSpline
 62
7
  6
CONTINUOUS
 70
0
 71
3
 72
11
 73
7
 74
0
 42
0.0000001
 43
0.0000001
 44
0.0000000001
 40
0.0
 40
0.0
 40
0.0
 40
0.0
 40
0.2779817175
 40
0.5346952233
 40
0.772857858
 40
1.0
 40
1.0
 40
1.0
 40
1.0
 10
692.0338605719
 20
77.626793679
 30
0.0
 10
692.3362579006
 20
77.6990333342
 30
0.0
 10
692.9070908486
 20
77.8940555784
 30
0.0
 10
693.6474121709
 20
78.3571030333
 30
0.0
 10
694.2001284082
 20
78.9610174465
 30
0.0
 10
694.4201577645
 20
79.4444149431
 30
0.0
 10
694.4859094972
 20
79.6898037503
 30
0.0
  0
SPLINE
  5
73D
100
AcDbEntity
  8
0
100
AcDbSpline
 62
7
  6
CONTINUOUS
 70
0
 71
3
 72
9
 73
5
 74
0
 42
0.0000001
 43
0.0000001
 44
0.0000000001
 40
0.0
 40
0.0
 40
0.0
 40
0.0
 40
0.2591205677
 40
1.0
 40
1.0
 40
1.0
 40
1.0
 10
691.7901138389
 20
77.6332751543
 30
0.0
 10
691.810568931
 20
77.6277942289
 30
0.0
 10
691.8905785169
 20
77.6111944514
 30
0.0
 10
691.9749691861
 20
77.6127251241
 30
0.0
 10
692.0338605719
 20
77.626793679
 30
0.0
  0
SPLINE
  5
73E
100
AcDbEntity
  8
RUNDUNGEN
100
AcDbSpline
 62
7
  6
CONTINUOUS
 70
0
 71
3
 72
11
 73
7
 74
0
 42
0.0000001
 43
0.0000001
 44
0.0000000001
 40
0.0
 40
0.0
 40
0.0
 40
0.0
 40
0.287975155
 40
0.5553539353
 40
0.7905396327
 40
1.0
 40
1.0
 40
1.0
 40
1.0
 10
626.801220585
 20
27.9179375646
 30
0.0
 10
626.8634354755
 20
27.901267135
 30
0.0
 10
626.988529454
 20
27.8851824118
 30
0.0
 10
627.1657676345
 20
27.9142976506
 30
0.0
 10
627.308132721
 20
27.9954556133
 30
0.0
 10
627.3635645172
 20
28.0847820384
 30
0.0
 10
627.3756898491
 20
28.130034393
 30
0.0
  0
SPLINE
  5
73F
100
AcDbEntity
  8
RUNDUNGEN
100
AcDbSpline
 62
7
  6
CONTINUOUS
 70
0
 71
3
 72
13
 73
9
 74
0
 42
0.0000001
 43
0.0000001
 44
0.0000000001
 40
0.0
 40
0.0
 40
0.0
 40
0.0
 40
0.1034546064
 40
0.2106689685
 40
0.3244963058
 40
0.4464318167
 40
0.7129512659
 40
1.0
 40
1.0
 40
1.0
 40
1.0
 10
618.7230014466
 20
34.4747947045
 30
0.0
 10
618.6509050267
 20
34.2057272025
 30
0.0
 10
618.5814274726
 20
33.6340964546
 30
0.0
 10
618.713734843
 20
32.7611043891
 30
0.0
 10
619.0706136518
 20
31.9005516957
 30
0.0
 10
619.8444738071
 20
30.7813051634
 30
0.0
 10
621.2789250369
 20
29.6059844075
 30
0.0
 10
622.673916183
 20
29.0238454461
 30
0.0
 10
623.420480193
 20
28.8238042225
 30
0.0
  0
SPLINE
  5
740
100
AcDbEntity
  8
RUNDUNGEN
100
AcDbSpline
 62
7
  6
CONTINUOUS
 70
0
 71
3
 72
10
 73
6
 74
0
 42
0.0000001
 43
0.0000001
 44
0.0000000001
 40
0.0
 40
0.0
 40
0.0
 40
0.0
 40
0.4808964563
 40
0.7459158441
 40
1.0
 40
1.0
 40
1.0
 40
1.0
 10
630.7856688376
 20
108.0319745976
 30
0.0
 10
631.0137943019
 20
107.6323379269
 30
0.0
 10
631.6463013174
 20
107.1722572607
 30
0.0
 10
632.5759907029
 20
106.9405953711
 30
0.0
 10
633.082927672
 20
106.9541815908
 30
0.0
 10
633.3213102958
 20
107.0019925635
 30
0.0
  0
SPLINE
  5
741
100
AcDbEntity
  8
RUNDUNGEN
100
AcDbSpline
 62
7
  6
CONTINUOUS
 70
0
 71
3
 72
9
 73
5
 74
0
 42
0.0000001
 43
0.0000001
 44
0.0000000001
 40
0.0
 40
0.0
 40
0.0
 40
0.0
 40
0.5194816466
 40
1.0
 40
1.0
 40
1.0
 40
1.0
 10
737.1311603058
 20
85.5633782412
 30
0.0
 10
737.2667119962
 20
85.6425276026
 30
0.0
 10
737.5076093861
 20
85.8370284709
 30
0.0
 10
737.6531824197
 20
86.1138009086
 30
0.0
 10
737.6906697741
 20
86.2540726144
 30
0.0
  0
SPLINE
  5
742
100
AcDbEntity
  8
RUNDUNGEN
100
AcDbSpline
 62
7
  6
CONTINUOUS
 70
0
 71
3
 72
13
 73
9
 74
0
 42
0.0000001
 43
0.0000001
 44
0.0000000001
 40
0.0
 40
0.0
 40
0.0
 40
0.0
 40
0.2870489714
 40
0.5535683803
 40
0.6755038887
 40
0.7893312167
 40
0.8965454657
 40
1.0
 40
1.0
 40
1.0
 40
1.0
 10
696.8308429909
 20
9.1535567947
 30
0.0
 10
697.5774076176
 20
8.9535154059
 30
0.0
 10
699.0765754697
 20
8.7601670108
 30
0.0
 10
700.9065074867
 20
9.0607996404
 30
0.0
 10
702.1363130204
 20
9.6431657942
 30
0.0
 10
702.8756549543
 20
10.2099870128
 30
0.0
 10
703.4267320416
 20
10.8998663254
 30
0.0
 10
703.6523777905
 20
11.4296514213
 30
0.0
 10
703.72447416
 20
11.6987187354
 30
0.0
  0
SPLINE
  5
743
100
AcDbEntity
  8
RUNDUNGEN
100
AcDbSpline
 62
7
  6
CONTINUOUS
 70
0
 71
3
 72
11
 73
7
 74
0
 42
0.0000001
 43
0.0000001
 44
0.0000000001
 40
0.0
 40
0.0
 40
0.0
 40
0.0
 40
0.2094711443
 40
0.4446658249
 40
0.7120384825
 40
1.0
 40
1.0
 40
1.0
 40
1.0
 10
693.0586460367
 20
10.5303393261
 30
0.0
 10
693.0465200852
 20
10.4850846587
 30
0.0
 10
693.0498648118
 20
10.3800047564
 30
0.0
 10
693.1325825981
 20
10.2385368832
 30
0.0
 10
693.271517593
 20
10.1247072555
 30
0.0
 10
693.387890676
 20
10.0760930871
 30
0.0
 10
693.4501025989
 20
10.0594234526
 30
0.0
  0
SPLINE
  5
744
100
AcDbEntity
  8
RUNDUNGEN
100
AcDbSpline
 62
7
  6
CONTINUOUS
 70
0
 71
3
 72
9
 73
5
 74
0
 42
0.0000001
 43
0.0000001
 44
0.0000000001
 40
0.0
 40
0.0
 40
0.0
 40
0.0
 40
0.4729729907
 40
1.0
 40
1.0
 40
1.0
 40
1.0
 10
676.7273057306
 20
27.5501096241
 30
0.0
 10
677.1790223391
 20
26.7587796333
 30
0.0
 10
678.5887698264
 20
25.3437206281
 30
0.0
 10
680.3823804572
 20
24.5416711609
 30
0.0
 10
681.3631004441
 20
24.2788880324
 30
0.0
  0
SPLINE
  5
745
100
AcDbEntity
  8
RUNDUNGEN
100
AcDbSpline
 62
7
  6
CONTINUOUS
 70
0
 71
3
 72
9
 73
5
 74
0
 42
0.0000001
 43
0.0000001
 44
0.0000000001
 40
0.0
 40
0.0
 40
0.0
 40
0.0
 40
0.5270273161
 40
1.0
 40
1.0
 40
1.0
 40
1.0
 10
644.3786037966
 20
34.1888540416
 30
0.0
 10
645.3593243556
 20
33.9260707598
 30
0.0
 10
647.3136615676
 20
33.7238608234
 30
0.0
 10
649.2420680368
 20
34.2444644116
 30
0.0
 10
650.0289305811
 20
34.7039176846
 30
0.0
  0
SPLINE
  5
746
100
AcDbEntity
  8
RUNDUNGEN
100
AcDbSpline
 62
7
  6
CONTINUOUS
 70
0
 71
3
 72
13
 73
9
 74
0
 42
0.0000001
 43
0.0000001
 44
0.0000000001
 40
0.0
 40
0.0
 40
0.0
 40
0.0
 40
0.1034546064
 40
0.2106689685
 40
0.3244963058
 40
0.4464318167
 40
0.7129512659
 40
1.0
 40
1.0
 40
1.0
 40
1.0
 10
628.9312978152
 20
33.9356423591
 30
0.0
 10
629.003394235
 20
34.2047098611
 30
0.0
 10
629.2290402821
 20
34.7344953874
 30
0.0
 10
629.7801178587
 20
35.4243750083
 30
0.0
 10
630.5194603199
 20
35.9911960976
 30
0.0
 10
631.7492661396
 20
36.57356195
 30
0.0
 10
633.579197723
 20
36.8741939674
 30
0.0
 10
635.0783649743
 20
36.6808455234
 30
0.0
 10
635.8249289843
 20
36.4808042999
 30
0.0
  0
SPLINE
  5
747
100
AcDbEntity
  8
RUNDUNGEN
100
AcDbSpline
 62
7
  6
CONTINUOUS
 70
0
 71
3
 72
13
 73
9
 74
0
 42
0.0000001
 43
0.0000001
 44
0.0000000001
 40
0.0
 40
0.0
 40
0.0
 40
0.0
 40
0.2870489714
 40
0.5535683803
 40
0.6755038887
 40
0.7893312167
 40
0.8965454657
 40
1.0
 40
1.0
 40
1.0
 40
1.0
 10
689.9167752564
 20
21.9869377741
 30
0.0
 10
690.6633398831
 20
21.7868963853
 30
0.0
 10
692.0583315251
 20
21.2047570812
 30
0.0
 10
693.4927828243
 20
20.0294355783
 30
0.0
 10
694.2666425812
 20
18.9101889279
 30
0.0
 10
694.6235208687
 20
18.0496363862
 30
0.0
 10
694.7558279695
 20
17.1766448323
 30
0.0
 10
694.6863503724
 20
16.6050146063
 30
0.0
 10
694.6142540028
 20
16.3359472921
 30
0.0
  0
SPLINE
  5
748
100
AcDbEntity
  8
RUNDUNGEN
100
AcDbSpline
 62
7
  6
CONTINUOUS
 70
0
 71
3
 72
13
 73
9
 74
0
 42
0.0000001
 43
0.0000001
 44
0.0000000001
 40
0.0
 40
0.0
 40
0.0
 40
0.0
 40
0.2360077347
 40
0.3661261322
 40
0.5000000765
 40
0.633874052
 40
0.7639924192
 40
1.0
 40
1.0
 40
1.0
 40
1.0
 10
658.9475359182
 20
39.9115393241
 30
0.0
 10
659.9159797058
 20
40.477018862
 30
0.0
 10
661.6652424823
 20
40.948304161
 30
0.0
 10
664.0445378885
 20
40.9330026876
 30
0.0
 10
665.9157449262
 20
40.5975607648
 30
0.0
 10
667.7039784474
 20
39.9524581446
 30
0.0
 10
669.7721585754
 20
38.7760618152
 30
0.0
 10
671.0514209714
 20
37.4932858295
 30
0.0
 10
671.607377762
 20
36.5193449258
 30
0.0
  0
SPLINE
  5
749
100
AcDbEntity
  8
RUNDUNGEN
100
AcDbSpline
 62
7
  6
CONTINUOUS
 70
0
 71
3
 72
9
 73
5
 74
0
 42
0.0000001
 43
0.0000001
 44
0.0000000001
 40
0.0
 40
0.0
 40
0.0
 40
0.0
 40
0.5177253986
 40
1.0
 40
1.0
 40
1.0
 40
1.0
 10
646.8657798714
 20
61.8543758502
 30
0.0
 10
647.9550080763
 20
62.4903820592
 30
0.0
 10
649.9217818971
 20
63.9871011956
 30
0.0
 10
651.3508085925
 20
66.021479038
 30
0.0
 10
651.8493573825
 20
67.0854134572
 30
0.0
  0
SPLINE
  5
74A
100
AcDbEntity
  8
RUNDUNGEN
100
AcDbSpline
 62
7
  6
CONTINUOUS
 70
0
 71
3
 72
11
 73
7
 74
0
 42
0.0000001
 43
0.0000001
 44
0.0000000001
 40
0.0
 40
0.0
 40
0.0
 40
0.0
 40
0.2660806569
 40
0.5190943725
 40
0.7622194677
 40
1.0
 40
1.0
 40
1.0
 40
1.0
 10
650.1495872963
 20
74.1097120021
 30
0.0
 10
650.5497320479
 20
73.4087270558
 30
0.0
 10
651.2241148225
 20
71.9758740672
 30
0.0
 10
651.8197810757
 20
69.7276148548
 30
0.0
 10
651.9547694799
 20
67.4901286801
 30
0.0
 10
651.7305533207
 20
66.0351005492
 30
0.0
 10
651.543865898
 20
65.3383736991
 30
0.0
  0
SPLINE
  5
74B
100
AcDbEntity
  8
RUNDUNGEN
100
AcDbSpline
 62
7
  6
CONTINUOUS
 70
0
 71
3
 72
10
 73
6
 74
0
 42
0.0000001
 43
0.0000001
 44
0.0000000001
 40
0.0
 40
0.0
 40
0.0
 40
0.0
 40
0.2540843695
 40
0.5191023225
 40
1.0
 40
1.0
 40
1.0
 40
1.0
 10
638.0712333054
 20
107.9546561242
 30
0.0
 10
638.4685379966
 20
108.0343411425
 30
0.0
 10
639.3134309663
 20
108.0569844656
 30
0.0
 10
640.8629132889
 20
107.6708827016
 30
0.0
 10
641.9170923446
 20
106.9040821838
 30
0.0
 10
642.2973024024
 20
106.2380194006
 30
0.0
  0
SPLINE
  5
74C
100
AcDbEntity
  8
RUNDUNGEN
100
AcDbSpline
 62
7
  6
CONTINUOUS
 70
0
 71
3
 72
9
 73
5
 74
0
 42
0.0000001
 43
0.0000001
 44
0.0000000001
 40
0.0
 40
0.0
 40
0.0
 40
0.0
 40
0.5194813996
 40
1.0
 40
1.0
 40
1.0
 40
1.0
 10
644.681593082
 20
102.0611512368
 30
0.0
 10
644.8080368164
 20
101.8396435099
 30
0.0
 10
644.9890086637
 20
101.3702281265
 30
0.0
 10
644.969020524
 20
100.8624853767
 30
0.0
 10
644.907824639
 20
100.6346340314
 30
0.0
  0
SPLINE
  5
74D
100
AcDbEntity
  8
RUNDUNGEN
100
AcDbSpline
 62
7
  6
CONTINUOUS
 70
0
 71
3
 72
11
 73
7
 74
0
 42
0.0000001
 43
0.0000001
 44
0.0000000001
 40
0.0
 40
0.0
 40
0.0
 40
0.0
 40
0.2524374527
 40
0.5157480209
 40
0.7702932627
 40
1.0
 40
1.0
 40
1.0
 40
1.0
 10
708.5652511551
 20
90.246920903
 30
0.0
 10
709.1268836093
 20
89.7528021904
 30
0.0
 10
710.4513778131
 20
88.9363874847
 30
0.0
 10
712.6731019781
 20
88.3075656939
 30
0.0
 10
714.9162692105
 20
88.2962062441
 30
0.0
 10
716.3187225628
 20
88.7472870617
 30
0.0
 10
716.9065463391
 20
89.0905205273
 30
0.0
  0
SPLINE
  5
74E
100
AcDbEntity
  8
0
100
AcDbSpline
 62
7
  6
CONTINUOUS
 70
0
 71
3
 72
9
 73
5
 74
0
 42
0.0000001
 43
0.0000001
 44
0.0000000001
 40
0.0
 40
0.0
 40
0.0
 40
0.0
 40
0.4402133985
 40
1.0
 40
1.0
 40
1.0
 40
1.0
 10
663.5515063923
 20
88.8446681859
 30
0.0
 10
663.5593053809
 20
88.8737744076
 30
0.0
 10
663.531462762
 20
88.9491677061
 30
0.0
 10
663.4663841598
 20
88.9816765454
 30
0.0
 10
663.4293719449
 20
88.9915939384
 30
0.0
  0
SPLINE
  5
74F
100
AcDbEntity
  8
0
100
AcDbSpline
 62
7
  6
CONTINUOUS
 70
0
 71
3
 72
11
 73
7
 74
0
 42
0.0000001
 43
0.0000001
 44
0.0000000001
 40
0.0
 40
0.0
 40
0.0
 40
0.0
 40
0.2094656921
 40
0.4446574861
 40
0.7119998836
 40
1.0
 40
1.0
 40
1.0
 40
1.0
 10
675.7933964955
 20
86.4940827005
 30
0.0
 10
675.8275448579
 20
86.6215261241
 30
0.0
 10
675.8181598859
 20
86.9174506261
 30
0.0
 10
675.5851892917
 20
87.3158194925
 30
0.0
 10
675.1939557282
 20
87.636425116
 30
0.0
 10
674.8662123673
 20
87.77333392
 30
0.0
 10
674.6909869141
 20
87.8202854387
 30
0.0
  0
SPLINE
  5
750
100
AcDbEntity
  8
0
100
AcDbSpline
 62
7
  6
CONTINUOUS
 70
0
 71
3
 72
9
 73
5
 74
0
 42
0.0000001
 43
0.0000001
 44
0.0000000001
 40
0.0
 40
0.0
 40
0.0
 40
0.0
 40
0.4402133985
 40
1.0
 40
1.0
 40
1.0
 40
1.0
 10
662.5012759528
 20
89.068976621
 30
0.0
 10
662.4934769643
 20
89.0398703994
 30
0.0
 10
662.5213195831
 20
88.9644771009
 30
0.0
 10
662.5863981854
 20
88.9319682616
 30
0.0
 10
662.6234104003
 20
88.9220508685
 30
0.0
  0
SPLINE
  5
751
100
AcDbEntity
  8
0
100
AcDbSpline
 62
7
  6
CONTINUOUS
 70
0
 71
3
 72
11
 73
7
 74
0
 42
0.0000001
 43
0.0000001
 44
0.0000000001
 40
0.0
 40
0.0
 40
0.0
 40
0.0
 40
0.2094929298
 40
0.4446655277
 40
0.7119947494
 40
1.0
 40
1.0
 40
1.0
 40
1.0
 10
658.4954755179
 20
86.1738801848
 30
0.0
 10
658.4765571962
 20
86.103276047
 30
0.0
 10
658.4817591221
 20
85.9393434878
 30
0.0
 10
658.6108583292
 20
85.7187118248
 30
0.0
 10
658.8275264503
 20
85.5410828896
 30
0.0
 10
659.0090830835
 20
85.4652598225
 30
0.0
 10
659.1061477549
 20
85.4392514221
 30
0.0
  0
SPLINE
  5
752
100
AcDbEntity
  8
0
100
AcDbSpline
 62
7
  6
CONTINUOUS
 70
0
 71
3
 72
9
 73
5
 74
0
 42
0.0000001
 43
0.0000001
 44
0.0000000001
 40
0.0
 40
0.0
 40
0.0
 40
0.0
 40
0.471076254
 40
1.0
 40
1.0
 40
1.0
 40
1.0
 10
664.2234495769
 20
87.208572496
 30
0.0
 10
664.2329076264
 20
87.2438704173
 30
0.0
 10
664.2303873178
 20
87.3257416934
 30
0.0
 10
664.1898117746
 20
87.3949399242
 30
0.0
 10
664.1635831722
 20
87.426492506
 30
0.0
  0
SPLINE
  5
753
100
AcDbEntity
  8
0
100
AcDbSpline
 62
7
  6
CONTINUOUS
 70
0
 71
3
 72
8
 73
4
 74
0
 42
0.0000001
 43
0.0000001
 44
0.0000000001
 40
0.0
 40
0.0
 40
0.0
 40
0.0
 40
1.0
 40
1.0
 40
1.0
 40
1.0
 10
664.1635831722
 20
87.426492506
 30
0.0
 10
664.1490229462
 20
87.4440082208
 30
0.0
 10
664.1327386897
 20
87.4601799311
 30
0.0
 10
664.1153662664
 20
87.4749108291
 30
0.0
  0
SPLINE
  5
754
100
AcDbEntity
  8
0
100
AcDbSpline
 62
7
  6
CONTINUOUS
 70
0
 71
3
 72
9
 73
5
 74
0
 42
0.0000001
 43
0.0000001
 44
0.0000000001
 40
0.0
 40
0.0
 40
0.0
 40
0.0
 40
0.241609722
 40
1.0
 40
1.0
 40
1.0
 40
1.0
 10
664.1153662664
 20
87.4749108291
 30
0.0
 10
664.1016918627
 20
87.4865060016
 30
0.0
 10
664.0421307985
 20
87.5309507049
 30
0.0
 10
663.9724723125
 20
87.5613214662
 30
0.0
 10
663.9181134584
 20
87.5758868773
 30
0.0
  0
SPLINE
  5
755
100
AcDbEntity
  8
0
100
AcDbSpline
 62
7
  6
CONTINUOUS
 70
0
 71
3
 72
9
 73
5
 74
0
 42
0.0000001
 43
0.0000001
 44
0.0000000001
 40
0.0
 40
0.0
 40
0.0
 40
0.0
 40
0.7407738242
 40
1.0
 40
1.0
 40
1.0
 40
1.0
 10
658.6144337741
 20
86.617838441
 30
0.0
 10
658.6003298404
 20
86.565201844
 30
0.0
 10
658.5969263099
 20
86.4889960463
 30
0.0
 10
658.6121172842
 20
86.4169882775
 30
0.0
 10
658.6171565954
 20
86.398596765
 30
0.0
  0
SPLINE
  5
756
100
AcDbEntity
  8
0
100
AcDbSpline
 62
7
  6
CONTINUOUS
 70
0
 71
3
 72
9
 73
5
 74
0
 42
0.0000001
 43
0.0000001
 44
0.0000000001
 40
0.0
 40
0.0
 40
0.0
 40
0.0
 40
0.238285514
 40
1.0
 40
1.0
 40
1.0
 40
1.0
 10
658.6171565954
 20
86.398596765
 30
0.0
 10
658.6223466458
 20
86.3796551133
 30
0.0
 10
658.6490926802
 20
86.3015336271
 30
0.0
 10
658.6940337181
 20
86.230277605
 30
0.0
 10
658.7341665835
 20
86.1819984211
 30
0.0
  0
SPLINE
  5
757
100
AcDbEntity
  8
0
100
AcDbSpline
 62
7
  6
CONTINUOUS
 70
0
 71
3
 72
9
 73
5
 74
0
 42
0.0000001
 43
0.0000001
 44
0.0000000001
 40
0.0
 40
0.0
 40
0.0
 40
0.0
 40
0.2355596553
 40
1.0
 40
1.0
 40
1.0
 40
1.0
 10
658.7341665835
 20
86.1819984211
 30
0.0
 10
658.7632714772
 20
86.1469857077
 30
0.0
 10
658.9008999794
 20
86.0102009709
 30
0.0
 10
659.0823861086
 20
85.921451361
 30
0.0
 10
659.2251060111
 20
85.8832096784
 30
0.0
  0
SPLINE
  5
758
100
AcDbEntity
  8
0
100
AcDbSpline
 62
7
  6
CONTINUOUS
 70
0
 71
3
 72
11
 73
7
 74
0
 42
0.0000001
 43
0.0000001
 44
0.0000000001
 40
0.0
 40
0.0
 40
0.0
 40
0.0
 40
0.2880052506
 40
0.5553344723
 40
0.7905070702
 40
1.0
 40
1.0
 40
1.0
 40
1.0
 10
665.1335249109
 20
83.8242205807
 30
0.0
 10
665.2305895824
 20
83.7982121804
 30
0.0
 10
665.4257337725
 20
83.7730985661
 30
0.0
 10
665.7021883372
 20
83.8185956759
 30
0.0
 10
665.9243073616
 20
83.9451186974
 30
0.0
 10
666.0107786412
 20
84.0844874952
 30
0.0
 10
666.0296969629
 20
84.155091633
 30
0.0
  0
SPLINE
  5
759
100
AcDbEntity
  8
RUNDUNGEN
100
AcDbSpline
 62
7
  6
CONTINUOUS
 70
0
 71
3
 72
11
 73
7
 74
0
 42
0.0000001
 43
0.0000001
 44
0.0000000001
 40
0.0
 40
0.0
 40
0.0
 40
0.0
 40
0.2377805525
 40
0.4809056656
 40
0.7339193662
 40
1.0
 40
1.0
 40
1.0
 40
1.0
 10
651.543865898
 20
65.3383736991
 30
0.0
 10
651.3571784833
 20
64.6416468793
 30
0.0
 10
650.8238411381
 20
63.269447613
 30
0.0
 10
649.5881946057
 20
61.3992222599
 30
0.0
 10
647.9482030759
 20
59.7500061259
 30
0.0
 10
646.6477442052
 20
58.8463106484
 30
0.0
 10
645.950716362
 20
58.4393123407
 30
0.0
  0
SPLINE
  5
75A
100
AcDbEntity
  8
0
100
AcDbSpline
 62
7
  6
CONTINUOUS
 70
0
 71
3
 72
11
 73
7
 74
0
 42
0.0000001
 43
0.0000001
 44
0.0000000001
 40
0.0
 40
0.0
 40
0.0
 40
0.0
 40
0.2879697432
 40
0.5553440702
 40
0.7905331502
 40
1.0
 40
1.0
 40
1.0
 40
1.0
 10
662.0345580971
 20
88.0805840153
 30
0.0
 10
661.9860314049
 20
88.0935867032
 30
0.0
 10
661.8884599675
 20
88.1061329627
 30
0.0
 10
661.750215237
 20
88.0834243621
 30
0.0
 10
661.6391689586
 20
88.0201221498
 30
0.0
 10
661.5959301207
 20
87.9504464104
 30
0.0
 10
661.5864720712
 20
87.9151484891
 30
0.0
  0
SPLINE
  5
75B
100
AcDbEntity
  8
0
100
AcDbSpline
 62
7
  6
CONTINUOUS
 70
0
 71
3
 72
11
 73
7
 74
0
 42
0.0000001
 43
0.0000001
 44
0.0000000001
 40
0.0
 40
0.0
 40
0.0
 40
0.0
 40
0.2879697432
 40
0.5553440702
 40
0.7905331502
 40
1.0
 40
1.0
 40
1.0
 40
1.0
 10
662.7483076345
 20
90.7443335526
 30
0.0
 10
662.6997809423
 20
90.7573362406
 30
0.0
 10
662.6022095049
 20
90.7698825001
 30
0.0
 10
662.4639647744
 20
90.7471738995
 30
0.0
 10
662.3529184959
 20
90.6838716872
 30
0.0
 10
662.309679658
 20
90.6141959478
 30
0.0
 10
662.3002216085
 20
90.5788980265
 30
0.0
  0
SPLINE
  5
75C
100
AcDbEntity
  8
0
100
AcDbSpline
 62
7
  6
CONTINUOUS
 70
0
 71
3
 72
9
 73
5
 74
0
 42
0.0000001
 43
0.0000001
 44
0.0000000001
 40
0.0
 40
0.0
 40
0.0
 40
0.0
 40
0.5597866015
 40
1.0
 40
1.0
 40
1.0
 40
1.0
 10
663.1656741943
 20
89.0622515378
 30
0.0
 10
663.1286619794
 20
89.0721689308
 30
0.0
 10
663.056047837
 20
89.0765547513
 30
0.0
 10
662.9942387725
 20
89.0251835489
 30
0.0
 10
662.9864397839
 20
88.9960773273
 30
0.0
  0
SPLINE
  5
75D
100
AcDbEntity
  8
0
100
AcDbSpline
 62
7
  6
CONTINUOUS
 70
0
 71
3
 72
9
 73
5
 74
0
 42
0.0000001
 43
0.0000001
 44
0.0000000001
 40
0.0
 40
0.0
 40
0.0
 40
0.0
 40
0.5597866015
 40
1.0
 40
1.0
 40
1.0
 40
1.0
 10
663.8288858315
 20
88.5990447002
 30
0.0
 10
663.8658980463
 20
88.5891273071
 30
0.0
 10
663.9385121888
 20
88.5847414867
 30
0.0
 10
664.0003212533
 20
88.636112689
 30
0.0
 10
664.0081202419
 20
88.6652189107
 30
0.0
  0
SPLINE
  5
75E
100
AcDbEntity
  8
0
100
AcDbSpline
 62
7
  6
CONTINUOUS
 70
0
 71
3
 72
9
 73
5
 74
0
 42
0.0000001
 43
0.0000001
 44
0.0000000001
 40
0.0
 40
0.0
 40
0.0
 40
0.0
 40
0.5597866015
 40
1.0
 40
1.0
 40
1.0
 40
1.0
 10
663.1151362941
 20
85.9352951628
 30
0.0
 10
663.152148509
 20
85.9253777698
 30
0.0
 10
663.2247626514
 20
85.9209919493
 30
0.0
 10
663.2865717159
 20
85.9723631517
 30
0.0
 10
663.2943707045
 20
86.0014693733
 30
0.0
  0
SPLINE
  5
75F
100
AcDbEntity
  8
RUNDUNGEN
100
AcDbSpline
 62
7
  6
CONTINUOUS
 70
0
 71
3
 72
9
 73
5
 74
0
 42
0.0000001
 43
0.0000001
 44
0.0000000001
 40
0.0
 40
0.0
 40
0.0
 40
0.0
 40
0.4805366145
 40
1.0
 40
1.0
 40
1.0
 40
1.0
 10
705.940429887
 20
19.9687780958
 30
0.0
 10
706.053073128
 20
20.3891683945
 30
0.0
 10
706.0892473074
 20
21.3257726847
 30
0.0
 10
705.7553839376
 20
22.1915870264
 30
0.0
 10
705.5221462608
 20
22.6001794162
 30
0.0
  0
SPLINE
  5
760
100
AcDbEntity
  8
0
100
AcDbSpline
 62
7
  6
CONTINUOUS
 70
0
 71
3
 72
11
 73
7
 74
0
 42
0.0000001
 43
0.0000001
 44
0.0000000001
 40
0.0
 40
0.0
 40
0.0
 40
0.0
 40
0.2865059912
 40
0.5484241175
 40
0.7833822346
 40
1.0
 40
1.0
 40
1.0
 40
1.0
 10
674.764003868
 20
84.9678519446
 30
0.0
 10
675.0190188092
 20
84.9592995706
 30
0.0
 10
675.511626918
 20
84.9973967743
 30
0.0
 10
676.1782107397
 20
85.2335849983
 30
0.0
 10
676.6894174782
 20
85.6340128496
 30
0.0
 10
676.8863088207
 20
86.0019417433
 30
0.0
 10
676.9362114117
 20
86.1882925644
 30
0.0
  0
SPLINE
  5
761
100
AcDbEntity
  8
0
100
AcDbSpline
 62
7
  6
CONTINUOUS
 70
0
 71
3
 72
8
 73
4
 74
0
 42
0.0000001
 43
0.0000001
 44
0.0000000001
 40
0.0
 40
0.0
 40
0.0
 40
0.0
 40
1.0
 40
1.0
 40
1.0
 40
1.0
 10
691.525781746
 20
76.7524366753
 30
0.0
 10
691.6272358947
 20
76.7252521181
 30
0.0
 10
691.7338244829
 20
76.7122402045
 30
0.0
 10
691.8387847108
 20
76.7161510861
 30
0.0
  0
SPLINE
  5
762
100
AcDbEntity
  8
0
100
AcDbSpline
 62
7
  6
CONTINUOUS
 70
0
 71
3
 72
11
 73
7
 74
0
 42
0.0000001
 43
0.0000001
 44
0.0000000001
 40
0.0
 40
0.0
 40
0.0
 40
0.0
 40
0.2847819434
 40
0.5451774547
 40
0.7807010719
 40
1.0
 40
1.0
 40
1.0
 40
1.0
 10
691.8387847108
 20
76.7161510861
 30
0.0
 10
692.3262704582
 20
76.7343151001
 30
0.0
 10
693.2605288242
 20
76.8688305824
 30
0.0
 10
694.5091919095
 20
77.3936630124
 30
0.0
 10
695.4570045794
 20
78.207476156
 30
0.0
 10
695.8237154573
 20
78.9234014516
 30
0.0
 10
695.9209416951
 20
79.2862547107
 30
0.0
  0
SPLINE
  5
763
100
AcDbEntity
  8
0
100
AcDbSpline
 62
7
  6
CONTINUOUS
 70
0
 71
3
 72
9
 73
5
 74
0
 42
0.0000001
 43
0.0000001
 44
0.0000000001
 40
0.0
 40
0.0
 40
0.0
 40
0.0
 40
0.239729366
 40
1.0
 40
1.0
 40
1.0
 40
1.0
 10
693.3938778722
 20
82.7024473429
 30
0.0
 10
693.3796470169
 20
82.7159215416
 30
0.0
 10
693.316254986
 20
82.7678085296
 30
0.0
 10
693.2395801871
 20
82.8026215479
 30
0.0
 10
693.1795462717
 20
82.8187075871
 30
0.0
  0
SPLINE
  5
764
100
AcDbEntity
  8
RUNDUNGEN
100
AcDbSpline
 62
7
  6
CONTINUOUS
 70
0
 71
3
 72
10
 73
6
 74
0
 42
0.0000001
 43
0.0000001
 44
0.0000000001
 40
0.0
 40
0.0
 40
0.0
 40
0.0
 40
0.2265442065
 40
0.4650409693
 40
1.0
 40
1.0
 40
1.0
 40
1.0
 10
737.6906697741
 20
86.2540726144
 30
0.0
 10
737.7200012331
 20
86.3638262598
 30
0.0
 10
737.7408044367
 20
86.6014566814
 30
0.0
 10
737.6205595491
 20
87.0951470247
 30
0.0
 10
737.3679310362
 20
87.4157993918
 30
0.0
 10
737.1665186663
 20
87.5930000151
 30
0.0
  0
SPLINE
  5
765
100
AcDbEntity
  8
RUNDUNGEN
100
AcDbSpline
 62
7
  6
CONTINUOUS
 70
0
 71
3
 72
9
 73
5
 74
0
 42
0.0000001
 43
0.0000001
 44
0.0000000001
 40
0.0
 40
0.0
 40
0.0
 40
0.0
 40
0.5194635499
 40
1.0
 40
1.0
 40
1.0
 40
1.0
 10
622.61690208
 20
44.8145726428
 30
0.0
 10
622.210616003
 20
44.5773400165
 30
0.0
 10
621.4885746851
 20
43.9944544335
 30
0.0
 10
621.0516003761
 20
43.1652442199
 30
0.0
 10
620.9389571736
 20
42.7448540648
 30
0.0
  0
SPLINE
  5
766
100
AcDbEntity
  8
RUNDUNGEN
100
AcDbSpline
 62
7
  6
CONTINUOUS
 70
0
 71
3
 72
10
 73
6
 74
0
 42
0.0000001
 43
0.0000001
 44
0.0000000001
 40
0.0
 40
0.0
 40
0.0
 40
0.0
 40
0.5349741761
 40
0.7734715455
 40
1.0
 40
1.0
 40
1.0
 40
1.0
 10
638.3323618936
 20
98.2234899819
 30
0.0
 10
638.0758883749
 20
98.172050627
 30
0.0
 10
637.7062275619
 20
98.0244400659
 30
0.0
 10
637.3640262804
 20
97.6661578002
 30
0.0
 10
637.2657610068
 20
97.4553553011
 30
0.0
 10
637.2370328877
 20
97.348382278
 30
0.0
  0
SPLINE
  5
767
100
AcDbEntity
  8
0
100
AcDbSpline
 62
7
  6
CONTINUOUS
 70
0
 71
3
 72
9
 73
5
 74
0
 42
0.0000001
 43
0.0000001
 44
0.0000000001
 40
0.0
 40
0.0
 40
0.0
 40
0.0
 40
0.4402133985
 40
1.0
 40
1.0
 40
1.0
 40
1.0
 10
662.6202342091
 20
89.5129348773
 30
0.0
 10
662.6124352205
 20
89.4838286556
 30
0.0
 10
662.6402778393
 20
89.4084353571
 30
0.0
 10
662.7053564416
 20
89.3759265178
 30
0.0
 10
662.7423686565
 20
89.3660091247
 30
0.0
  0
SPLINE
  5
768
100
AcDbEntity
  8
0
100
AcDbSpline
 62
7
  6
CONTINUOUS
 70
0
 71
3
 72
9
 73
5
 74
0
 42
0.0000001
 43
0.0000001
 44
0.0000000001
 40
0.0
 40
0.0
 40
0.0
 40
0.0
 40
0.471076254
 40
1.0
 40
1.0
 40
1.0
 40
1.0
 10
664.9371991143
 20
89.8723220334
 30
0.0
 10
664.9466571638
 20
89.9076199547
 30
0.0
 10
664.9441368552
 20
89.9894912308
 30
0.0
 10
664.9035613119
 20
90.0586894616
 30
0.0
 10
664.8773327096
 20
90.0902420433
 30
0.0
  0
SPLINE
  5
769
100
AcDbEntity
  8
0
100
AcDbSpline
 62
7
  6
CONTINUOUS
 70
0
 71
3
 72
8
 73
4
 74
0
 42
0.0000001
 43
0.0000001
 44
0.0000000001
 40
0.0
 40
0.0
 40
0.0
 40
0.0
 40
1.0
 40
1.0
 40
1.0
 40
1.0
 10
664.8773327096
 20
90.0902420433
 30
0.0
 10
664.8627724836
 20
90.1077577582
 30
0.0
 10
664.8464882271
 20
90.1239294685
 30
0.0
 10
664.8291158038
 20
90.1386603665
 30
0.0
  0
SPLINE
  5
76A
100
AcDbEntity
  8
0
100
AcDbSpline
 62
7
  6
CONTINUOUS
 70
0
 71
3
 72
9
 73
5
 74
0
 42
0.0000001
 43
0.0000001
 44
0.0000000001
 40
0.0
 40
0.0
 40
0.0
 40
0.0
 40
0.241609722
 40
1.0
 40
1.0
 40
1.0
 40
1.0
 10
664.8291158038
 20
90.1386603665
 30
0.0
 10
664.8154414001
 20
90.150255539
 30
0.0
 10
664.7558803359
 20
90.1947002423
 30
0.0
 10
664.6862218499
 20
90.2250710036
 30
0.0
 10
664.6318629958
 20
90.2396364147
 30
0.0
  0
SPLINE
  5
76B
100
AcDbEntity
  8
BEZUGSACHSEN
100
AcDbSpline
 62
7
  6
CONTINUOUS
 70
0
 71
3
 72
19
 73
15
 74
0
 42
0.0000001
 43
0.0000001
 44
0.0000000001
 40
0.0
 40
0.0
 40
0.0
 40
0.0
 40
0.0517263209
 40
0.1053355973
 40
0.1622490903
 40
0.223216447
 40
0.356475981
 40
0.5
 40
0.643524019
 40
0.776783553
 40
0.8377509097
 40
0.8946644027
 40
0.9482736791
 40
1.0
 40
1.0
 40
1.0
 40
1.0
 10
675.8601379842
 20
98.9609140134
 30
0.0
 10
675.7940509932
 20
98.714274005
 30
0.0
 10
675.7303816308
 20
98.1902745582
 30
0.0
 10
675.851625803
 20
97.3900242467
 30
0.0
 10
676.1788245443
 20
96.6011870867
 30
0.0
 10
676.8880639975
 20
95.5752395481
 30
0.0
 10
678.2039683799
 20
94.4976179333
 30
0.0
 10
680.1414060889
 20
93.6884559224
 30
0.0
 10
682.2238573686
 20
93.4204919251
 30
0.0
 10
683.9022748001
 20
93.695787428
 30
0.0
 10
685.0294679532
 20
94.2296643328
 30
0.0
 10
685.7072489552
 20
94.7492179821
 30
0.0
 10
686.2123746441
 20
95.3816329952
 30
0.0
 10
686.4192350823
 20
95.8672645089
 30
0.0
 10
686.4853220734
 20
96.1139045173
 30
0.0
  0
SPLINE
  5
76C
100
AcDbEntity
  8
RUNDUNGEN
100
AcDbSpline
 62
7
  6
CONTINUOUS
 70
0
 71
3
 72
11
 73
7
 74
0
 42
0.0000001
 43
0.0000001
 44
0.0000000001
 40
0.0
 40
0.0
 40
0.0
 40
0.0
 40
0.2794012361
 40
0.5367224514
 40
0.7743079693
 40
1.0
 40
1.0
 40
1.0
 40
1.0
 10
631.2933295439
 20
117.6411839142
 30
0.0
 10
630.8793598839
 20
117.5581565032
 30
0.0
 10
630.0961914213
 20
117.3205726422
 30
0.0
 10
629.0754210064
 20
116.7233869372
 30
0.0
 10
628.3121155984
 20
115.9243046366
 30
0.0
 10
628.010486812
 20
115.2751376469
 30
0.0
 10
627.9222801597
 20
114.945689829
 30
0.0
  0
SPLINE
  5
76D
100
AcDbEntity
  8
RUNDUNGEN
100
AcDbSpline
 62
7
  6
CONTINUOUS
 70
0
 71
3
 72
9
 73
5
 74
0
 42
0.0000001
 43
0.0000001
 44
0.0000000001
 40
0.0
 40
0.0
 40
0.0
 40
0.0
 40
0.5089429305
 40
1.0
 40
1.0
 40
1.0
 40
1.0
 10
648.4582783848
 20
115.7215757361
 30
0.0
 10
646.074395087
 20
116.9275036938
 30
0.0
 10
640.9783437001
 20
118.5359728016
 30
0.0
 10
635.6130825382
 20
118.5075708558
 30
0.0
 10
633.0857533211
 20
118.0006795975
 30
0.0
  0
SPLINE
  5
76E
100
AcDbEntity
  8
0
100
AcDbSpline
 62
7
  6
CONTINUOUS
 70
0
 71
3
 72
9
 73
5
 74
0
 42
0.0000001
 43
0.0000001
 44
0.0000000001
 40
0.0
 40
0.0
 40
0.0
 40
0.0
 40
0.2415905642
 40
1.0
 40
1.0
 40
1.0
 40
1.0
 10
693.513059803
 20
99.269563507
 30
0.0
 10
692.9491314572
 20
99.7657021224
 30
0.0
 10
690.5085984701
 20
101.6971109354
 30
0.0
 10
687.6970238279
 20
103.143764394
 30
0.0
 10
685.4826928204
 20
103.954013834
 30
0.0
  0
SPLINE
  5
76F
100
AcDbEntity
  8
0
100
AcDbSpline
 62
7
  6
CONTINUOUS
 70
0
 71
3
 72
9
 73
5
 74
0
 42
0.0000001
 43
0.0000001
 44
0.0000000001
 40
0.0
 40
0.0
 40
0.0
 40
0.0
 40
0.2578604761
 40
1.0
 40
1.0
 40
1.0
 40
1.0
 10
680.6484950463
 20
105.2493332236
 30
0.0
 10
679.8588503492
 20
105.3871744176
 30
0.0
 10
676.7764573192
 20
105.7903671357
 30
0.0
 10
673.6137372003
 20
105.6613333058
 30
0.0
 10
671.3517680741
 20
105.2076637289
 30
0.0
  0
SPLINE
  5
770
100
AcDbEntity
  8
RUNDUNGEN
100
AcDbSpline
 62
7
  6
CONTINUOUS
 70
0
 71
3
 72
10
 73
6
 74
0
 42
0.0000001
 43
0.0000001
 44
0.0000000001
 40
0.0
 40
0.0
 40
0.0
 40
0.0
 40
0.2540840964
 40
0.5191023951
 40
1.0
 40
1.0
 40
1.0
 40
1.0
 10
731.4018645945
 20
92.6646860031
 30
0.0
 10
731.2146442122
 20
92.8294006551
 30
0.0
 10
730.7713353083
 20
93.1014354937
 30
0.0
 10
729.8267555356
 20
93.3724304831
 30
0.0
 10
729.0290038595
 20
93.2881356906
 30
0.0
 10
728.6214328665
 20
93.050152795
 30
0.0
  0
SPLINE
  5
771
100
AcDbEntity
  8
0
100
AcDbSpline
 62
7
  6
CONTINUOUS
 70
0
 71
3
 72
11
 73
7
 74
0
 42
0.0000001
 43
0.0000001
 44
0.0000000001
 40
0.0
 40
0.0
 40
0.0
 40
0.0
 40
0.227142142
 40
0.4653047767
 40
0.7220182825
 40
1.0
 40
1.0
 40
1.0
 40
1.0
 10
694.4859094972
 20
79.6898037503
 30
0.0
 10
694.5516612299
 20
79.9351925574
 30
0.0
 10
694.6028089661
 20
80.4638417477
 30
0.0
 10
694.4260998702
 20
81.26320509
 30
0.0
 10
694.0164865255
 20
82.0343766102
 30
0.0
 10
693.6196418133
 20
82.488687302
 30
0.0
 10
693.3938778722
 20
82.7024473429
 30
0.0
  0
SPLINE
  5
772
100
AcDbEntity
  8
0
100
AcDbSpline
 62
7
  6
CONTINUOUS
 70
0
 71
3
 72
8
 73
4
 74
0
 42
0.0000001
 43
0.0000001
 44
0.0000000001
 40
0.0
 40
0.0
 40
0.0
 40
0.0
 40
1.0
 40
1.0
 40
1.0
 40
1.0
 10
691.6447400022
 20
77.1963949316
 30
0.0
 10
691.7461941509
 20
77.1692103743
 30
0.0
 10
691.8527827391
 20
77.1561984608
 30
0.0
 10
691.9577429671
 20
77.1601093424
 30
0.0
  0
SPLINE
  5
773
100
AcDbEntity
  8
0
100
AcDbSpline
 62
7
  6
CONTINUOUS
 70
0
 71
3
 72
17
 73
13
 74
0
 42
0.0000001
 43
0.0000001
 44
0.0000000001
 40
0.0
 40
0.0
 40
0.0
 40
0.0
 40
0.0517921087
 40
0.1054769531
 40
0.2228492041
 40
0.356284866
 40
0.5
 40
0.643715134
 40
0.7771507959
 40
0.8945230469
 40
0.9482078913
 40
1.0
 40
1.0
 40
1.0
 40
1.0
 10
678.0529540884
 20
83.0888365659
 30
0.0
 10
678.0084837905
 20
82.9228711545
 30
0.0
 10
677.965690233
 20
82.5702304665
 30
0.0
 10
678.0773450597
 20
81.8316320496
 30
0.0
 10
678.5993984762
 20
80.9266891199
 30
0.0
 10
679.6296332803
 20
80.086743209
 30
0.0
 10
680.9338315198
 20
79.5401252621
 30
0.0
 10
682.3366093003
 20
79.3614111705
 30
0.0
 10
683.648791768
 20
79.5737082651
 30
0.0
 10
684.5533747537
 20
80.096385123
 30
0.0
 10
685.0193698784
 20
80.6802027018
 30
0.0
 10
685.1586299146
 20
81.0069952747
 30
0.0
 10
685.2031002125
 20
81.1729606862
 30
0.0
  0
SPLINE
  5
774
100
AcDbEntity
  8
0
100
AcDbSpline
 62
7
  6
CONTINUOUS
 70
0
 71
3
 72
9
 73
5
 74
0
 42
0.0000001
 43
0.0000001
 44
0.0000000001
 40
0.0
 40
0.0
 40
0.0
 40
0.0
 40
0.4402133985
 40
1.0
 40
1.0
 40
1.0
 40
1.0
 10
661.7875264155
 20
86.4052270837
 30
0.0
 10
661.7797274269
 20
86.376120862
 30
0.0
 10
661.8075700457
 20
86.3007275635
 30
0.0
 10
661.872648648
 20
86.2682187242
 30
0.0
 10
661.9096608629
 20
86.2583013311
 30
0.0
  0
SPLINE
  5
775
100
AcDbEntity
  8
0
100
AcDbSpline
 62
7
  6
CONTINUOUS
 70
0
 71
3
 72
11
 73
7
 74
0
 42
0.0000001
 43
0.0000001
 44
0.0000000001
 40
0.0
 40
0.0
 40
0.0
 40
0.0
 40
0.2816347582
 40
0.5420479832
 40
0.7798483853
 40
1.0
 40
1.0
 40
1.0
 40
1.0
 10
691.9577429671
 20
77.1601093424
 30
0.0
 10
692.3980290609
 20
77.1765146687
 30
0.0
 10
693.2457428634
 20
77.2899387836
 30
0.0
 10
694.3992523751
 20
77.7226980493
 30
0.0
 10
695.3217869255
 20
78.3917500509
 30
0.0
 10
695.7448847863
 20
78.9912992154
 30
0.0
 10
695.8873272807
 20
79.3048693943
 30
0.0
  0
SPLINE
  5
776
100
AcDbEntity
  8
0
100
AcDbSpline
 62
7
  6
CONTINUOUS
 70
0
 71
3
 72
9
 73
5
 74
0
 42
0.0000001
 43
0.0000001
 44
0.0000000001
 40
0.0
 40
0.0
 40
0.0
 40
0.0
 40
0.2591205677
 40
1.0
 40
1.0
 40
1.0
 40
1.0
 10
693.2985045279
 20
83.2626658433
 30
0.0
 10
693.31895962
 20
83.2571849179
 30
0.0
 10
693.3965498427
 20
83.231555954
 30
0.0
 10
693.4688689697
 20
83.1880350179
 30
0.0
 10
693.5128361284
 20
83.1464055992
 30
0.0
  0
SPLINE
  5
777
100
AcDbEntity
  8
0
100
AcDbSpline
 62
7
  6
CONTINUOUS
 70
0
 71
3
 72
11
 73
7
 74
0
 42
0.0000001
 43
0.0000001
 44
0.0000000001
 40
0.0
 40
0.0
 40
0.0
 40
0.0
 40
0.2779697373
 40
0.5346991835
 40
0.7728568778
 40
1.0
 40
1.0
 40
1.0
 40
1.0
 10
693.5128361284
 20
83.1464055992
 30
0.0
 10
693.7385911487
 20
82.9326540048
 30
0.0
 10
694.1354263839
 20
82.4783311128
 30
0.0
 10
694.5450857645
 20
81.7071786139
 30
0.0
 10
694.7217740691
 20
80.9077932925
 30
0.0
 10
694.6706425968
 20
80.3791466985
 30
0.0
 10
694.6048903448
 20
80.1337559532
 30
0.0
  0
SPLINE
  5
778
100
AcDbEntity
  8
0
100
AcDbSpline
 62
7
  6
CONTINUOUS
 70
0
 71
3
 72
9
 73
5
 74
0
 42
0.0000001
 43
0.0000001
 44
0.0000000001
 40
0.0
 40
0.0
 40
0.0
 40
0.0
 40
0.4402133985
 40
1.0
 40
1.0
 40
1.0
 40
1.0
 10
661.9064846717
 20
86.8491853399
 30
0.0
 10
661.8986856831
 20
86.8200791182
 30
0.0
 10
661.9265283019
 20
86.7446858197
 30
0.0
 10
661.9916069042
 20
86.7121769804
 30
0.0
 10
662.0286191191
 20
86.7022595874
 30
0.0
  0
SPLINE
  5
779
100
AcDbEntity
  8
0
100
AcDbSpline
 62
7
  6
CONTINUOUS
 70
0
 71
3
 72
9
 73
5
 74
0
 42
0.0000001
 43
0.0000001
 44
0.0000000001
 40
0.0
 40
0.0
 40
0.0
 40
0.0
 40
0.5
 40
1.0
 40
1.0
 40
1.0
 40
1.0
 10
678.1161945762
 20
83.2187866715
 30
0.0
 10
677.9856688279
 20
81.780031025
 30
0.0
 10
680.842935781
 20
79.2008977464
 30
0.0
 10
684.606968187
 20
80.0058592089
 30
0.0
 10
685.2133073964
 20
81.3171210228
 30
0.0
  0
SPLINE
  5
77A
100
AcDbEntity
  8
0
100
AcDbSpline
 62
7
  6
CONTINUOUS
 70
0
 71
3
 72
9
 73
5
 74
0
 42
0.0000001
 43
0.0000001
 44
0.0000000001
 40
0.0
 40
0.0
 40
0.0
 40
0.0
 40
0.5403772208
 40
1.0
 40
1.0
 40
1.0
 40
1.0
 10
674.8829621242
 20
85.4118102008
 30
0.0
 10
675.2738837486
 20
85.3986999575
 30
0.0
 10
676.0114478096
 20
85.4916475118
 30
0.0
 10
676.648086341
 20
85.922722942
 30
0.0
 10
676.8435804328
 20
86.1919142441
 30
0.0
  0
SPLINE
  5
77B
100
AcDbEntity
  8
0
100
AcDbSpline
 62
7
  6
CONTINUOUS
 70
0
 71
3
 72
8
 73
4
 74
0
 42
0.0000001
 43
0.0000001
 44
0.0000000001
 40
0.0
 40
0.0
 40
0.0
 40
0.0
 40
1.0
 40
1.0
 40
1.0
 40
1.0
 10
676.8435804328
 20
86.1919142441
 30
0.0
 10
676.8925189182
 20
86.2593015216
 30
0.0
 10
676.9357521429
 20
86.331289831
 30
0.0
 10
676.9716811963
 20
86.4064238688
 30
0.0
  0
SPLINE
  5
77C
100
AcDbEntity
  8
0
100
AcDbSpline
 62
7
  6
CONTINUOUS
 70
0
 71
3
 72
11
 73
7
 74
0
 42
0.0000001
 43
0.0000001
 44
0.0000000001
 40
0.0
 40
0.0
 40
0.0
 40
0.0
 40
0.2880066977
 40
0.5553334191
 40
0.790532629
 40
1.0
 40
1.0
 40
1.0
 40
1.0
 10
674.8099451703
 20
88.2642436949
 30
0.0
 10
674.9851739604
 20
88.2172912821
 30
0.0
 10
675.3129212147
 20
88.080400573
 30
0.0
 10
675.7041186606
 20
87.7597535299
 30
0.0
 10
675.9370953257
 20
87.3614114328
 30
0.0
 10
675.9465267362
 20
87.0654786255
 30
0.0
 10
675.9123782301
 20
86.9380346657
 30
0.0
  0
SPLINE
  5
77D
100
AcDbEntity
  8
0
100
AcDbSpline
 62
7
  6
CONTINUOUS
 70
0
 71
3
 72
9
 73
5
 74
0
 42
0.0000001
 43
0.0000001
 44
0.0000000001
 40
0.0
 40
0.0
 40
0.0
 40
0.0
 40
0.5597866015
 40
1.0
 40
1.0
 40
1.0
 40
1.0
 10
663.2340945503
 20
86.3792534191
 30
0.0
 10
663.2711067652
 20
86.369336026
 30
0.0
 10
663.3437209076
 20
86.3649502055
 30
0.0
 10
663.4055299721
 20
86.4163214079
 30
0.0
 10
663.4133289607
 20
86.4454276295
 30
0.0
  0
SPLINE
  5
77E
100
AcDbEntity
  8
0
100
AcDbSpline
 62
7
  6
CONTINUOUS
 70
0
 71
3
 72
9
 73
5
 74
0
 42
0.0000001
 43
0.0000001
 44
0.0000000001
 40
0.0
 40
0.0
 40
0.0
 40
0.0
 40
0.4402133985
 40
1.0
 40
1.0
 40
1.0
 40
1.0
 10
663.1053980401
 20
89.4400355835
 30
0.0
 10
663.1131970287
 20
89.4691418052
 30
0.0
 10
663.1750060932
 20
89.5205130075
 30
0.0
 10
663.2476202357
 20
89.5161271871
 30
0.0
 10
663.2846324505
 20
89.506209794
 30
0.0
  0
SPLINE
  5
77F
100
AcDbEntity
  8
RUNDUNGEN
100
AcDbSpline
 62
7
  6
CONTINUOUS
 70
0
 71
3
 72
11
 73
7
 74
0
 42
0.0000001
 43
0.0000001
 44
0.0000000001
 40
0.0
 40
0.0
 40
0.0
 40
0.0
 40
0.2256778953
 40
0.4632795617
 40
0.7206246471
 40
1.0
 40
1.0
 40
1.0
 40
1.0
 10
644.907824639
 20
100.6346340314
 30
0.0
 10
644.8599412848
 20
100.4563493855
 30
0.0
 10
644.6963411923
 20
100.105105178
 30
0.0
 10
644.2829324651
 20
99.6727739365
 30
0.0
 10
643.7302862368
 20
99.3496660207
 30
0.0
 10
643.306349762
 20
99.221092887
 30
0.0
 10
643.0822849031
 20
99.1761535426
 30
0.0
  0
SPLINE
  5
780
100
AcDbEntity
  8
0
100
AcDbSpline
 62
7
  6
CONTINUOUS
 70
0
 71
3
 72
9
 73
5
 74
0
 42
0.0000001
 43
0.0000001
 44
0.0000000001
 40
0.0
 40
0.0
 40
0.0
 40
0.0
 40
0.5597866015
 40
1.0
 40
1.0
 40
1.0
 40
1.0
 10
663.5483302011
 20
89.4355521947
 30
0.0
 10
663.585342416
 20
89.4256348016
 30
0.0
 10
663.6504210183
 20
89.3931259623
 30
0.0
 10
663.6782636371
 20
89.3177326638
 30
0.0
 10
663.6704646485
 20
89.2886264421
 30
0.0
  0
SPLINE
  5
781
100
AcDbEntity
  8
0
100
AcDbSpline
 62
7
  6
CONTINUOUS
 70
0
 71
3
 72
9
 73
5
 74
0
 42
0.0000001
 43
0.0000001
 44
0.0000000001
 40
0.0
 40
0.0
 40
0.0
 40
0.0
 40
0.5597866015
 40
1.0
 40
1.0
 40
1.0
 40
1.0
 10
663.9478440877
 20
89.0430029565
 30
0.0
 10
663.9848563026
 20
89.0330855634
 30
0.0
 10
664.057470445
 20
89.0286997429
 30
0.0
 10
664.1192795095
 20
89.0800709453
 30
0.0
 10
664.1270784981
 20
89.1091771669
 30
0.0
  0
SPLINE
  5
782
100
AcDbEntity
  8
0
100
AcDbSpline
 62
7
  6
CONTINUOUS
 70
0
 71
3
 72
11
 73
7
 74
0
 42
0.0000001
 43
0.0000001
 44
0.0000000001
 40
0.0
 40
0.0
 40
0.0
 40
0.0
 40
0.2876567391
 40
0.555407049
 40
0.7907201247
 40
1.0
 40
1.0
 40
1.0
 40
1.0
 10
664.750821252
 20
90.6835946709
 30
0.0
 10
664.7992881768
 20
90.6706079976
 30
0.0
 10
664.8899360726
 20
90.6325148543
 30
0.0
 10
664.9986308091
 20
90.5440199526
 30
0.0
 10
665.0627705209
 20
90.433433367
 30
0.0
 10
665.0656056087
 20
90.3515415944
 30
0.0
 10
665.0561573705
 20
90.3162802896
 30
0.0
  0
SPLINE
  5
783
100
AcDbEntity
  8
0
100
AcDbSpline
 62
7
  6
CONTINUOUS
 70
0
 71
3
 72
9
 73
5
 74
0
 42
0.0000001
 43
0.0000001
 44
0.0000000001
 40
0.0
 40
0.0
 40
0.0
 40
0.0
 40
0.5531686664
 40
1.0
 40
1.0
 40
1.0
 40
1.0
 10
664.1350490618
 20
87.9830760081
 30
0.0
 10
664.2035364349
 20
87.949517008
 30
0.0
 10
664.3207622195
 20
87.8634032383
 30
0.0
 10
664.3583527262
 20
87.7120379032
 30
0.0
 10
664.3424078331
 20
87.6525307522
 30
0.0
  0
SPLINE
  5
784
100
AcDbEntity
  8
0
100
AcDbSpline
 62
7
  6
CONTINUOUS
 70
0
 71
3
 72
9
 73
5
 74
0
 42
0.0000001
 43
0.0000001
 44
0.0000000001
 40
0.0
 40
0.0
 40
0.0
 40
0.0
 40
0.4575243679
 40
1.0
 40
1.0
 40
1.0
 40
1.0
 10
661.7054303274
 20
88.3591067453
 30
0.0
 10
661.7181515964
 20
88.4065831676
 30
0.0
 10
661.7903462487
 20
88.4990733073
 30
0.0
 10
661.8977692366
 20
88.5321102572
 30
0.0
 10
661.9555983866
 20
88.5393245084
 30
0.0
  0
SPLINE
  5
785
100
AcDbEntity
  8
0
100
AcDbSpline
 62
7
  6
CONTINUOUS
 70
0
 71
3
 72
8
 73
4
 74
0
 42
0.0000001
 43
0.0000001
 44
0.0000000001
 40
0.0
 40
0.0
 40
0.0
 40
0.0
 40
1.0
 40
1.0
 40
1.0
 40
1.0
 10
661.9555983866
 20
88.5393245084
 30
0.0
 10
662.0212459383
 20
88.547514114
 30
0.0
 10
662.0896141677
 20
88.5416648105
 30
0.0
 10
662.1535163534
 20
88.5245422715
 30
0.0
  0
SPLINE
  5
786
100
AcDbEntity
  8
0
100
AcDbSpline
 62
7
  6
CONTINUOUS
 70
0
 71
3
 72
11
 73
7
 74
0
 42
0.0000001
 43
0.0000001
 44
0.0000000001
 40
0.0
 40
0.0
 40
0.0
 40
0.0
 40
0.2092798753
 40
0.444592951
 40
0.7123432609
 40
1.0
 40
1.0
 40
1.0
 40
1.0
 10
662.4191798648
 20
91.0228562827
 30
0.0
 10
662.4286281029
 20
91.0581175876
 30
0.0
 10
662.4720292472
 20
91.1276203991
 30
0.0
 10
662.5828691598
 20
91.1913213357
 30
0.0
 10
662.7212490138
 20
91.2136128004
 30
0.0
 10
662.818798966
 20
91.2012784822
 30
0.0
 10
662.8672658908
 20
91.1882918089
 30
0.0
  0
SPLINE
  5
787
100
AcDbEntity
  8
0
100
AcDbSpline
 62
7
  6
CONTINUOUS
 70
0
 71
3
 72
9
 73
5
 74
0
 42
0.0000001
 43
0.0000001
 44
0.0000000001
 40
0.0
 40
0.0
 40
0.0
 40
0.0
 40
0.538986273
 40
1.0
 40
1.0
 40
1.0
 40
1.0
 10
665.2524831672
 20
84.2681788369
 30
0.0
 10
665.3952030697
 20
84.2299371543
 30
0.0
 10
665.6763823347
 20
84.2082948195
 30
0.0
 10
665.946810012
 20
84.3216838982
 30
0.0
 10
666.0366763487
 20
84.4105424389
 30
0.0
  0
SPLINE
  5
788
100
AcDbEntity
  8
0
100
AcDbSpline
 62
7
  6
CONTINUOUS
 70
0
 71
3
 72
9
 73
5
 74
0
 42
0.0000001
 43
0.0000001
 44
0.0000000001
 40
0.0
 40
0.0
 40
0.0
 40
0.0
 40
0.2592261758
 40
1.0
 40
1.0
 40
1.0
 40
1.0
 10
666.0366763487
 20
84.4105424389
 30
0.0
 10
666.0502362765
 20
84.4239503003
 30
0.0
 10
666.0993959305
 20
84.4787153702
 30
0.0
 10
666.1345512855
 20
84.5464132922
 30
0.0
 10
666.1486552192
 20
84.5990498892
 30
0.0
  0
SPLINE
  5
789
100
AcDbEntity
  8
RUNDUNGEN
100
AcDbSpline
 62
7
  6
CONTINUOUS
 70
0
 71
3
 72
9
 73
5
 74
0
 42
0.0000001
 43
0.0000001
 44
0.0000000001
 40
0.0
 40
0.0
 40
0.0
 40
0.0
 40
0.4963806263
 40
1.0
 40
1.0
 40
1.0
 40
1.0
 10
665.0782848539
 20
103.9494288375
 30
0.0
 10
664.0266880844
 20
103.7385163825
 30
0.0
 10
661.7981391413
 20
103.8245477662
 30
0.0
 10
659.7613170331
 20
104.718916142
 30
0.0
 10
658.8852494278
 20
105.3643934558
 30
0.0
  0
SPLINE
  5
78A
100
AcDbEntity
  8
RUNDUNGEN
100
AcDbSpline
 62
7
  6
CONTINUOUS
 70
0
 71
3
 72
11
 73
7
 74
0
 42
0.0000001
 43
0.0000001
 44
0.0000000001
 40
0.0
 40
0.0
 40
0.0
 40
0.0
 40
0.2660806569
 40
0.5190943725
 40
0.7622194677
 40
1.0
 40
1.0
 40
1.0
 40
1.0
 10
692.1268401744
 20
46.0664572556
 30
0.0
 10
691.7266954228
 20
46.7674422018
 30
0.0
 10
691.0523126483
 20
48.2002951904
 30
0.0
 10
690.4566463951
 20
50.4485544028
 30
0.0
 10
690.3216579909
 20
52.6860405775
 30
0.0
 10
690.54587415
 20
54.1410687084
 30
0.0
 10
690.7325615728
 20
54.8377955585
 30
0.0
  0
SPLINE
  5
78B
100
AcDbEntity
  8
RUNDUNGEN
100
AcDbSpline
 62
7
  6
CONTINUOUS
 70
0
 71
3
 72
11
 73
7
 74
0
 42
0.0000001
 43
0.0000001
 44
0.0000000001
 40
0.0
 40
0.0
 40
0.0
 40
0.0
 40
0.2297109036
 40
0.4842558674
 40
0.7475645357
 40
1.0
 40
1.0
 40
1.0
 40
1.0
 10
715.9914828296
 20
85.6754570178
 30
0.0
 10
715.403648393
 20
85.3322173276
 30
0.0
 10
714.001181105
 20
84.8811370978
 30
0.0
 10
711.7580084632
 20
84.8925076129
 30
0.0
 10
709.5362986306
 20
85.5213327063
 30
0.0
 10
708.2118156748
 20
86.337742574
 30
0.0
 10
707.6501876457
 20
86.8318573935
 30
0.0
  0
SPLINE
  5
78C
100
AcDbEntity
  8
KONSTRUKTIONSELEMENTE
100
AcDbSpline
 62
7
  6
CONTINUOUS
 70
0
 71
3
 72
15
 73
11
 74
0
 42
0.0000001
 43
0.0000001
 44
0.0000000001
 40
0.0
 40
0.0
 40
0.0
 40
0.0
 40
0.0624946376
 40
0.1250023376
 40
0.2497593649
 40
0.3747328447
 40
0.4997829526
 40
0.6248643907
 40
0.7499620208
 40
1.0
 40
1.0
 40
1.0
 40
1.0
 10
666.9229626672
 20
127.1949290084
 30
0.0
 10
667.0248345014
 20
127.5751198694
 30
0.0
 10
667.3138773772
 20
128.315307746
 30
0.0
 10
668.1793815706
 20
129.6394055585
 30
0.0
 10
669.6614626972
 20
130.9767194861
 30
0.0
 10
671.7257145615
 20
132.1423243746
 30
0.0
 10
673.9393956074
 20
132.9869497319
 30
0.0
 10
676.2335992974
 20
133.5715453078
 30
0.0
 10
679.3498019272
 20
134.0562529331
 30
0.0
 10
681.7240422415
 20
134.1253867252
 30
0.0
 10
683.2973909529
 20
134.058156241
 30
0.0
  0
SPLINE
  5
78D
100
AcDbEntity
  8
KONSTRUKTIONSELEMENTE
100
AcDbSpline
 62
7
  6
CONTINUOUS
 70
0
 71
3
 72
9
 73
5
 74
0
 42
0.0000001
 43
0.0000001
 44
0.0000000001
 40
0.0
 40
0.0
 40
0.0
 40
0.0
 40
0.5000902521
 40
1.0
 40
1.0
 40
1.0
 40
1.0
 10
664.6189260187
 20
121.2900538311
 30
0.0
 10
664.9860878168
 20
121.8220997507
 30
0.0
 10
665.6500705578
 20
122.9377444457
 30
0.0
 10
666.1086652666
 20
124.1559297367
 30
0.0
 10
666.2759150544
 20
124.7801144427
 30
0.0
  0
SPLINE
  5
78E
100
AcDbEntity
  8
KONSTRUKTIONSELEMENTE
100
AcDbSpline
 62
7
  6
CONTINUOUS
 70
0
 71
3
 72
9
 73
5
 74
0
 42
0.0000001
 43
0.0000001
 44
0.0000000001
 40
0.0
 40
0.0
 40
0.0
 40
0.0
 40
0.4999097479
 40
1.0
 40
1.0
 40
1.0
 40
1.0
 10
707.6951028208
 20
113.6818765295
 30
0.0
 10
707.5278530329
 20
113.0576918236
 30
0.0
 10
707.3159150552
 20
111.7734150607
 30
0.0
 10
707.333118629
 20
110.4752470427
 30
0.0
 10
707.3850671137
 20
109.8309008613
 30
0.0
  0
SPLINE
  5
78F
100
AcDbEntity
  8
KONSTRUKTIONSELEMENTE
100
AcDbSpline
 62
7
  6
CONTINUOUS
 70
0
 71
3
 72
15
 73
11
 74
0
 42
0.0000001
 43
0.0000001
 44
0.0000000001
 40
0.0
 40
0.0
 40
0.0
 40
0.0
 40
0.2500415702
 40
0.3751416148
 40
0.5002258421
 40
0.6252778246
 40
0.7502487062
 40
0.8750031602
 40
0.9375084728
 40
1.0
 40
1.0
 40
1.0
 40
1.0
 10
697.593093182
 20
130.2276343735
 30
0.0
 10
698.9892885094
 20
129.4991728211
 30
0.0
 10
701.0109023396
 20
128.2521546675
 30
0.0
 10
703.4673035502
 20
126.2742501527
 30
0.0
 10
705.1618615654
 20
124.6208263198
 30
0.0
 10
706.6566427263
 20
122.7824933338
 30
0.0
 10
707.8614990613
 20
120.7409266051
 30
0.0
 10
708.4763183505
 20
118.841774291
 30
0.0
 10
708.5637927697
 20
117.2623698916
 30
0.0
 10
708.4440172034
 20
116.4768630558
 30
0.0
 10
708.3421504335
 20
116.0966910953
 30
0.0
  0
SPLINE
  5
790
100
AcDbEntity
  8
RUNDUNGEN
100
AcDbSpline
 62
7
  6
CONTINUOUS
 70
0
 71
3
 72
9
 73
5
 74
0
 42
0.0000001
 43
0.0000001
 44
0.0000000001
 40
0.0
 40
0.0
 40
0.0
 40
0.0
 40
0.4907112898
 40
1.0
 40
1.0
 40
1.0
 40
1.0
 10
683.9518547594
 20
159.9019936191
 30
0.0
 10
682.7835689197
 20
160.2150348663
 30
0.0
 10
680.3759060829
 20
160.7464986317
 30
0.0
 10
677.9750409088
 20
161.3062300894
 30
0.0
 10
676.7625259314
 20
161.6311224984
 30
0.0
  0
SPLINE
  5
791
100
AcDbEntity
  8
RUNDUNGEN
100
AcDbSpline
 62
7
  6
CONTINUOUS
 70
0
 71
3
 72
15
 73
11
 74
0
 42
0.0000001
 43
0.0000001
 44
0.0000000001
 40
0.0
 40
0.0
 40
0.0
 40
0.0
 40
0.0570233419
 40
0.1293586796
 40
0.2242107455
 40
0.3430879243
 40
0.4844660151
 40
0.6447708672
 40
0.8187803679
 40
1.0
 40
1.0
 40
1.0
 40
1.0
 10
727.8915746215
 20
128.9374886654
 30
0.0
 10
727.9241199316
 20
129.0589494161
 30
0.0
 10
727.9006173321
 20
129.3606802414
 30
0.0
 10
727.638479542
 20
129.7903211675
 30
0.0
 10
727.188973613
 20
130.2373660516
 30
0.0
 10
726.5513481352
 20
130.6960851004
 30
0.0
 10
725.7427907109
 20
131.1528930239
 30
0.0
 10
724.7878757745
 20
131.5896703975
 30
0.0
 10
723.7221990041
 20
131.9878660746
 30
0.0
 10
722.97165275
 20
132.2143057128
 30
0.0
 10
722.5856516525
 20
132.3177343951
 30
0.0
  0
SPLINE
  5
792
100
AcDbEntity
  8
KONSTRUKTIONSELEMENTE
100
AcDbSpline
 62
7
  6
CONTINUOUS
 70
0
 71
3
 72
20
 73
16
 74
0
 42
0.0000001
 43
0.0000001
 44
0.0000000001
 40
0.0
 40
0.0
 40
0.0
 40
0.0
 40
0.1925074097
 40
0.3784599411
 40
0.5508798646
 40
0.6298138988
 40
0.7027736029
 40
0.7689728188
 40
0.8277038991
 40
0.8783417129
 40
0.9203734727
 40
0.9534317115
 40
0.9665361599
 40
0.9773699474
 40
1.0
 40
1.0
 40
1.0
 40
1.0
 10
664.6189260187
 20
121.2900538311
 30
0.0
 10
663.9353708605
 20
120.2995293958
 30
0.0
 10
662.6424580248
 20
118.3166915241
 30
0.0
 10
660.8893883899
 20
115.3513878588
 30
0.0
 10
659.5887486616
 20
112.9458982861
 30
0.0
 10
658.6751317544
 20
111.1358144959
 30
0.0
 10
658.0839177935
 20
109.9071006261
 30
0.0
 10
657.5701598582
 20
108.7816530951
 30
0.0
 10
657.1374875278
 20
107.7725868587
 30
0.0
 10
656.7887975789
 20
106.8931704708
 30
0.0
 10
656.5266100828
 20
106.1499795589
 30
0.0
 10
656.3705331182
 20
105.6252879767
 30
0.0
 10
656.2952718122
 20
105.2695049691
 30
0.0
 10
656.2549340759
 20
105.0031320886
 30
0.0
 10
656.2566193182
 20
104.6887006749
 30
0.0
 10
656.3932738686
 20
104.6520841985
 30
0.0
  0
SPLINE
  5
793
100
AcDbEntity
  8
KONSTRUKTIONSELEMENTE
100
AcDbSpline
 62
7
  6
CONTINUOUS
 70
0
 71
3
 72
20
 73
16
 74
0
 42
0.0000001
 43
0.0000001
 44
0.0000000001
 40
0.0
 40
0.0
 40
0.0
 40
0.0
 40
0.0226300526
 40
0.0334638401
 40
0.0465682885
 40
0.0796265273
 40
0.1216582871
 40
0.1722961009
 40
0.2310271812
 40
0.2972263971
 40
0.3701861012
 40
0.4491201354
 40
0.6215400589
 40
0.8074925903
 40
1.0
 40
1.0
 40
1.0
 40
1.0
 10
706.1897060222
 20
91.309170417
 30
0.0
 10
706.3263605725
 20
91.2725539406
 30
0.0
 10
706.485035742
 20
91.5440169115
 30
0.0
 10
706.5832886779
 20
91.794871461
 30
0.0
 10
706.6960019788
 20
92.1406192368
 30
0.0
 10
706.8231811536
 20
92.6730539584
 30
0.0
 10
706.9677155774
 20
93.447769916
 30
0.0
 10
707.1054494175
 20
94.383711823
 30
0.0
 10
707.235277306
 20
95.473924983
 30
0.0
 10
707.3530736482
 20
96.7054701031
 30
0.0
 10
707.4554242739
 20
98.0651745088
 30
0.0
 10
707.5692507181
 20
100.0895615077
 30
0.0
 10
707.6456084585
 20
102.8230964503
 30
0.0
 10
707.6100574527
 20
106.2676595718
 30
0.0
 10
707.481781028
 20
108.6313039581
 30
0.0
 10
707.3850671137
 20
109.8309008613
 30
0.0
  0
SPLINE
  5
794
100
AcDbEntity
  8
RUNDUNGEN
100
AcDbSpline
 62
7
  6
CONTINUOUS
 70
0
 71
3
 72
9
 73
5
 74
0
 42
0.0000001
 43
0.0000001
 44
0.0000000001
 40
0.0
 40
0.0
 40
0.0
 40
0.0
 40
0.5098814585
 40
1.0
 40
1.0
 40
1.0
 40
1.0
 10
672.6209274767
 20
162.7408604597
 30
0.0
 10
671.9909634143
 20
162.9096588326
 30
0.0
 10
670.7643786013
 20
163.2743840505
 30
0.0
 10
669.5517348238
 20
163.6813185823
 30
0.0
 10
668.95529268
 20
163.8743745075
 30
0.0
  0
SPLINE
  5
795
100
AcDbEntity
  8
RUNDUNGEN
100
AcDbSpline
 62
7
  6
CONTINUOUS
 70
0
 71
3
 72
15
 73
11
 74
0
 42
0.0000001
 43
0.0000001
 44
0.0000000001
 40
0.0
 40
0.0
 40
0.0
 40
0.0
 40
0.0570233419
 40
0.1293586796
 40
0.2242107455
 40
0.3430879243
 40
0.4844660151
 40
0.6447708672
 40
0.8187803679
 40
1.0
 40
1.0
 40
1.0
 40
1.0
 10
725.858599153
 20
121.3503209263
 30
0.0
 10
725.891144463
 20
121.471781677
 30
0.0
 10
725.8676418636
 20
121.7735125022
 30
0.0
 10
725.6055040734
 20
122.2031534284
 30
0.0
 10
725.1559981445
 20
122.6501983125
 30
0.0
 10
724.5183726666
 20
123.1089173612
 30
0.0
 10
723.7098152424
 20
123.5657252848
 30
0.0
 10
722.7549003059
 20
124.0025026584
 30
0.0
 10
721.6892235355
 20
124.4006983355
 30
0.0
 10
720.9386772814
 20
124.6271379736
 30
0.0
 10
720.552676184
 20
124.730566656
 30
0.0
  0
SPLINE
  5
796
100
AcDbEntity
  8
RUNDUNGEN
100
AcDbSpline
 62
7
  6
CONTINUOUS
 70
0
 71
3
 72
9
 73
5
 74
0
 42
0.0000001
 43
0.0000001
 44
0.0000000001
 40
0.0
 40
0.0
 40
0.0
 40
0.0
 40
0.4901185419
 40
1.0
 40
1.0
 40
1.0
 40
1.0
 10
724.9218236377
 20
148.8781877275
 30
0.0
 10
724.3087615463
 20
149.0092174798
 30
0.0
 10
723.0551138004
 20
149.2631237587
 30
0.0
 10
721.8104974253
 20
149.5605549159
 30
0.0
 10
721.1805332788
 20
149.7293533002
 30
0.0
  0
SPLINE
  5
797
100
AcDbEntity
  8
RUNDUNGEN
100
AcDbSpline
 62
7
  6
CONTINUOUS
 70
0
 71
3
 72
15
 73
11
 74
0
 42
0.0000001
 43
0.0000001
 44
0.0000000001
 40
0.0
 40
0.0
 40
0.0
 40
0.0
 40
0.1812196321
 40
0.3552291328
 40
0.5155339849
 40
0.6569120757
 40
0.7757892545
 40
0.8706413204
 40
0.9429766581
 40
1.0
 40
1.0
 40
1.0
 40
1.0
 10
660.6652749541
 20
140.7773474523
 30
0.0
 10
660.2792738566
 20
140.8807761347
 30
0.0
 10
659.5160619148
 20
141.0599467827
 30
0.0
 10
658.3940609209
 20
141.2479375958
 30
0.0
 10
657.3486916406
 20
141.3471347627
 30
0.0
 10
656.4200564091
 20
141.3558062084
 30
0.0
 10
655.6384970228
 20
141.2773565979
 30
0.0
 10
655.0256910271
 20
141.1149573361
 30
0.0
 10
654.5838525784
 20
140.8739462746
 30
0.0
 10
654.4126333177
 20
140.6243910146
 30
0.0
 10
654.3800880076
 20
140.5029302639
 30
0.0
  0
SPLINE
  5
798
100
AcDbEntity
  8
RUNDUNGEN
100
AcDbSpline
 62
7
  6
CONTINUOUS
 70
0
 71
3
 72
15
 73
11
 74
0
 42
0.0000001
 43
0.0000001
 44
0.0000000001
 40
0.0
 40
0.0
 40
0.0
 40
0.0
 40
0.0570233419
 40
0.1293586796
 40
0.2242107455
 40
0.3430879243
 40
0.4844660151
 40
0.6447708672
 40
0.8187803679
 40
1.0
 40
1.0
 40
1.0
 40
1.0
 10
656.4130634761
 20
148.090098003
 30
0.0
 10
656.4456087862
 20
148.2115587537
 30
0.0
 10
656.616828047
 20
148.4611140137
 30
0.0
 10
657.0586664956
 20
148.7021250752
 30
0.0
 10
657.6714724913
 20
148.864524337
 30
0.0
 10
658.4530318776
 20
148.9429739475
 30
0.0
 10
659.3816671092
 20
148.9343025018
 30
0.0
 10
660.4270363894
 20
148.8351053349
 30
0.0
 10
661.5490373834
 20
148.6471145218
 30
0.0
 10
662.3122493252
 20
148.4679438738
 30
0.0
 10
662.6982504226
 20
148.3645151914
 30
0.0
  0
SPLINE
  5
799
100
AcDbEntity
  8
RUNDUNGEN
100
AcDbSpline
 62
7
  6
CONTINUOUS
 70
0
 71
3
 72
9
 73
5
 74
0
 42
0.0000001
 43
0.0000001
 44
0.0000000001
 40
0.0
 40
0.0
 40
0.0
 40
0.0
 40
0.5092886403
 40
1.0
 40
1.0
 40
1.0
 40
1.0
 10
717.0389354296
 20
150.8390910993
 30
0.0
 10
715.8264194735
 20
151.1639837705
 30
0.0
 10
713.467341337
 20
151.8796755474
 30
0.0
 10
711.1165099502
 20
152.623246198
 30
0.0
 10
709.9482228408
 20
152.9362877855
 30
0.0
  0
SPLINE
  5
79A
100
AcDbEntity
  8
0
100
AcDbSpline
 62
7
  6
CONTINUOUS
 70
0
 71
3
 72
20
 73
16
 74
0
 42
0.0000001
 43
0.0000001
 44
0.0000000001
 40
0.0
 40
0.0
 40
0.0
 40
0.0
 40
0.0226300526
 40
0.0334638401
 40
0.0465682885
 40
0.0796265273
 40
0.1216582871
 40
0.1722961009
 40
0.2310271812
 40
0.2972263971
 40
0.3701861012
 40
0.4491201354
 40
0.6215400589
 40
0.8074925903
 40
1.0
 40
1.0
 40
1.0
 40
1.0
 10
844.0370815679
 20
91.309170417
 30
0.0
 10
843.9004270176
 20
91.2725539406
 30
0.0
 10
843.741751848
 20
91.5440169115
 30
0.0
 10
843.6434989122
 20
91.794871461
 30
0.0
 10
843.5307856112
 20
92.1406192368
 30
0.0
 10
843.4036064364
 20
92.6730539584
 30
0.0
 10
843.2590720127
 20
93.447769916
 30
0.0
 10
843.1213381726
 20
94.383711823
 30
0.0
 10
842.991510284
 20
95.473924983
 30
0.0
 10
842.8737139418
 20
96.7054701031
 30
0.0
 10
842.7713633161
 20
98.0651745088
 30
0.0
 10
842.657536872
 20
100.0895615077
 30
0.0
 10
842.5811791315
 20
102.8230964503
 30
0.0
 10
842.6167301373
 20
106.2676595718
 30
0.0
 10
842.745006562
 20
108.6313039581
 30
0.0
 10
842.8417204763
 20
109.8309008613
 30
0.0
  0
SPLINE
  5
79B
100
AcDbEntity
  8
0
100
AcDbSpline
 62
7
  6
CONTINUOUS
 70
0
 71
3
 72
20
 73
16
 74
0
 42
0.0000001
 43
0.0000001
 44
0.0000000001
 40
0.0
 40
0.0
 40
0.0
 40
0.0
 40
0.1925074097
 40
0.3784599411
 40
0.5508798646
 40
0.6298138988
 40
0.7027736029
 40
0.7689728188
 40
0.8277038991
 40
0.8783417129
 40
0.9203734727
 40
0.9534317115
 40
0.9665361599
 40
0.9773699474
 40
1.0
 40
1.0
 40
1.0
 40
1.0
 10
885.6078615713
 20
121.2900538311
 30
0.0
 10
886.2914167296
 20
120.2995293958
 30
0.0
 10
887.5843295652
 20
118.3166915241
 30
0.0
 10
889.3373992001
 20
115.3513878588
 30
0.0
 10
890.6380389285
 20
112.9458982861
 30
0.0
 10
891.5516558356
 20
111.1358144959
 30
0.0
 10
892.1428697966
 20
109.9071006261
 30
0.0
 10
892.6566277318
 20
108.7816530951
 30
0.0
 10
893.0893000622
 20
107.7725868587
 30
0.0
 10
893.4379900112
 20
106.8931704708
 30
0.0
 10
893.7001775073
 20
106.1499795589
 30
0.0
 10
893.8562544719
 20
105.6252879767
 30
0.0
 10
893.9315157778
 20
105.2695049691
 30
0.0
 10
893.9718535141
 20
105.0031320886
 30
0.0
 10
893.9701682718
 20
104.6887006749
 30
0.0
 10
893.8335137215
 20
104.6520841985
 30
0.0
  0
SPLINE
  5
79C
100
AcDbEntity
  8
0
100
AcDbSpline
 62
7
  6
CONTINUOUS
 70
0
 71
3
 72
9
 73
5
 74
0
 42
0.0000001
 43
0.0000001
 44
0.0000000001
 40
0.0
 40
0.0
 40
0.0
 40
0.0
 40
0.4907112898
 40
1.0
 40
1.0
 40
1.0
 40
1.0
 10
866.2749328307
 20
159.9019936191
 30
0.0
 10
867.4432186704
 20
160.2150348663
 30
0.0
 10
869.8508815071
 20
160.7464986317
 30
0.0
 10
872.2517466813
 20
161.3062300894
 30
0.0
 10
873.4642616586
 20
161.6311224984
 30
0.0
  0
SPLINE
  5
79D
100
AcDbEntity
  8
0
100
AcDbSpline
 62
7
  6
CONTINUOUS
 70
0
 71
3
 72
9
 73
5
 74
0
 42
0.0000001
 43
0.0000001
 44
0.0000000001
 40
0.0
 40
0.0
 40
0.0
 40
0.0
 40
0.4999097479
 40
1.0
 40
1.0
 40
1.0
 40
1.0
 10
842.5316847693
 20
113.6818765295
 30
0.0
 10
842.6989345571
 20
113.0576918236
 30
0.0
 10
842.9108725349
 20
111.7734150607
 30
0.0
 10
842.893668961
 20
110.4752470427
 30
0.0
 10
842.8417204763
 20
109.8309008613
 30
0.0
  0
SPLINE
  5
79E
100
AcDbEntity
  8
0
100
AcDbSpline
 62
7
  6
CONTINUOUS
 70
0
 71
3
 72
15
 73
11
 74
0
 42
0.0000001
 43
0.0000001
 44
0.0000000001
 40
0.0
 40
0.0
 40
0.0
 40
0.0
 40
0.2500415702
 40
0.3751416148
 40
0.5002258421
 40
0.6252778246
 40
0.7502487062
 40
0.8750031602
 40
0.9375084728
 40
1.0
 40
1.0
 40
1.0
 40
1.0
 10
852.6336944081
 20
130.2276343735
 30
0.0
 10
851.2374990806
 20
129.4991728211
 30
0.0
 10
849.2158852505
 20
128.2521546675
 30
0.0
 10
846.7594840399
 20
126.2742501527
 30
0.0
 10
845.0649260246
 20
124.6208263198
 30
0.0
 10
843.5701448637
 20
122.7824933338
 30
0.0
 10
842.3652885288
 20
120.7409266051
 30
0.0
 10
841.7504692395
 20
118.841774291
 30
0.0
 10
841.6629948204
 20
117.2623698916
 30
0.0
 10
841.7827703867
 20
116.4768630558
 30
0.0
 10
841.8846371565
 20
116.0966910953
 30
0.0
  0
SPLINE
  5
79F
100
AcDbEntity
  8
0
100
AcDbSpline
 62
7
  6
CONTINUOUS
 70
0
 71
3
 72
15
 73
11
 74
0
 42
0.0000001
 43
0.0000001
 44
0.0000000001
 40
0.0
 40
0.0
 40
0.0
 40
0.0
 40
0.0624946376
 40
0.1250023376
 40
0.2497593649
 40
0.3747328447
 40
0.4997829526
 40
0.6248643907
 40
0.7499620208
 40
1.0
 40
1.0
 40
1.0
 40
1.0
 10
883.3038249228
 20
127.1949290084
 30
0.0
 10
883.2019530887
 20
127.5751198694
 30
0.0
 10
882.9129102129
 20
128.315307746
 30
0.0
 10
882.0474060194
 20
129.6394055585
 30
0.0
 10
880.5653248928
 20
130.9767194861
 30
0.0
 10
878.5010730285
 20
132.1423243746
 30
0.0
 10
876.2873919826
 20
132.9869497319
 30
0.0
 10
873.9931882926
 20
133.5715453078
 30
0.0
 10
870.8769856629
 20
134.0562529331
 30
0.0
 10
868.5027453486
 20
134.1253867252
 30
0.0
 10
866.9293966371
 20
134.058156241
 30
0.0
  0
SPLINE
  5
7A0
100
AcDbEntity
  8
0
100
AcDbSpline
 62
7
  6
CONTINUOUS
 70
0
 71
3
 72
9
 73
5
 74
0
 42
0.0000001
 43
0.0000001
 44
0.0000000001
 40
0.0
 40
0.0
 40
0.0
 40
0.0
 40
0.5000902521
 40
1.0
 40
1.0
 40
1.0
 40
1.0
 10
885.6078615713
 20
121.2900538311
 30
0.0
 10
885.2406997732
 20
121.8220997507
 30
0.0
 10
884.5767170322
 20
122.9377444457
 30
0.0
 10
884.1181223235
 20
124.1559297367
 30
0.0
 10
883.9508725356
 20
124.7801144427
 30
0.0
  0
SPLINE
  5
7A1
100
AcDbEntity
  8
0
100
AcDbSpline
 62
7
  6
CONTINUOUS
 70
0
 71
3
 72
9
 73
5
 74
0
 42
0.0000001
 43
0.0000001
 44
0.0000000001
 40
0.0
 40
0.0
 40
0.0
 40
0.0
 40
0.5092886403
 40
1.0
 40
1.0
 40
1.0
 40
1.0
 10
833.1878521605
 20
150.8390910993
 30
0.0
 10
834.4003681165
 20
151.1639837705
 30
0.0
 10
836.7594462531
 20
151.8796755474
 30
0.0
 10
839.1102776398
 20
152.623246198
 30
0.0
 10
840.2785647492
 20
152.9362877855
 30
0.0
  0
SPLINE
  5
7A2
100
AcDbEntity
  8
0
100
AcDbSpline
 62
7
  6
CONTINUOUS
 70
0
 71
3
 72
9
 73
5
 74
0
 42
0.0000001
 43
0.0000001
 44
0.0000000001
 40
0.0
 40
0.0
 40
0.0
 40
0.0
 40
0.4901185419
 40
1.0
 40
1.0
 40
1.0
 40
1.0
 10
825.3049639524
 20
148.8781877275
 30
0.0
 10
825.9180260437
 20
149.0092174798
 30
0.0
 10
827.1716737896
 20
149.2631237587
 30
0.0
 10
828.4162901647
 20
149.5605549159
 30
0.0
 10
829.0462543112
 20
149.7293533002
 30
0.0
  0
SPLINE
  5
7A3
100
AcDbEntity
  8
0
100
AcDbSpline
 62
7
  6
CONTINUOUS
 70
0
 71
3
 72
9
 73
5
 74
0
 42
0.0000001
 43
0.0000001
 44
0.0000000001
 40
0.0
 40
0.0
 40
0.0
 40
0.0
 40
0.5098814585
 40
1.0
 40
1.0
 40
1.0
 40
1.0
 10
877.6058601133
 20
162.7408604597
 30
0.0
 10
878.2358241757
 20
162.9096588326
 30
0.0
 10
879.4624089888
 20
163.2743840505
 30
0.0
 10
880.6750527662
 20
163.6813185823
 30
0.0
 10
881.27149491
 20
163.8743745075
 30
0.0
  0
SPLINE
  5
7A4
100
AcDbEntity
  8
0
100
AcDbSpline
 62
7
  6
CONTINUOUS
 70
0
 71
3
 72
15
 73
11
 74
0
 42
0.0000001
 43
0.0000001
 44
0.0000000001
 40
0.0
 40
0.0
 40
0.0
 40
0.0
 40
0.0570233419
 40
0.1293586796
 40
0.2242107455
 40
0.3430879243
 40
0.4844660151
 40
0.6447708672
 40
0.8187803679
 40
1.0
 40
1.0
 40
1.0
 40
1.0
 10
893.8137241139
 20
148.090098003
 30
0.0
 10
893.7811788038
 20
148.2115587537
 30
0.0
 10
893.6099595431
 20
148.4611140137
 30
0.0
 10
893.1681210944
 20
148.7021250752
 30
0.0
 10
892.5553150987
 20
148.864524337
 30
0.0
 10
891.7737557124
 20
148.9429739475
 30
0.0
 10
890.8451204809
 20
148.9343025018
 30
0.0
 10
889.7997512006
 20
148.8351053349
 30
0.0
 10
888.6777502067
 20
148.6471145218
 30
0.0
 10
887.9145382649
 20
148.4679438738
 30
0.0
 10
887.5285371674
 20
148.3645151914
 30
0.0
  0
SPLINE
  5
7A5
100
AcDbEntity
  8
0
100
AcDbSpline
 62
7
  6
CONTINUOUS
 70
0
 71
3
 72
15
 73
11
 74
0
 42
0.0000001
 43
0.0000001
 44
0.0000000001
 40
0.0
 40
0.0
 40
0.0
 40
0.0
 40
0.1812196321
 40
0.3552291328
 40
0.5155339849
 40
0.6569120757
 40
0.7757892545
 40
0.8706413204
 40
0.9429766581
 40
1.0
 40
1.0
 40
1.0
 40
1.0
 10
889.561512636
 20
140.7773474523
 30
0.0
 10
889.9475137334
 20
140.8807761347
 30
0.0
 10
890.7107256752
 20
141.0599467827
 30
0.0
 10
891.8327266692
 20
141.2479375958
 30
0.0
 10
892.8780959494
 20
141.3471347627
 30
0.0
 10
893.806731181
 20
141.3558062084
 30
0.0
 10
894.5882905673
 20
141.2773565979
 30
0.0
 10
895.2010965629
 20
141.1149573361
 30
0.0
 10
895.6429350116
 20
140.8739462746
 30
0.0
 10
895.8141542724
 20
140.6243910146
 30
0.0
 10
895.8466995824
 20
140.5029302639
 30
0.0
  0
SPLINE
  5
7A6
100
AcDbEntity
  8
0
100
AcDbSpline
 62
7
  6
CONTINUOUS
 70
0
 71
3
 72
15
 73
11
 74
0
 42
0.0000001
 43
0.0000001
 44
0.0000000001
 40
0.0
 40
0.0
 40
0.0
 40
0.0
 40
0.0570233419
 40
0.1293586796
 40
0.2242107455
 40
0.3430879243
 40
0.4844660151
 40
0.6447708672
 40
0.8187803679
 40
1.0
 40
1.0
 40
1.0
 40
1.0
 10
824.3681884371
 20
121.3503209263
 30
0.0
 10
824.335643127
 20
121.471781677
 30
0.0
 10
824.3591457264
 20
121.7735125022
 30
0.0
 10
824.6212835166
 20
122.2031534284
 30
0.0
 10
825.0707894456
 20
122.6501983125
 30
0.0
 10
825.7084149234
 20
123.1089173612
 30
0.0
 10
826.5169723476
 20
123.5657252848
 30
0.0
 10
827.4718872841
 20
124.0025026584
 30
0.0
 10
828.5375640545
 20
124.4006983355
 30
0.0
 10
829.2881103086
 20
124.6271379736
 30
0.0
 10
829.674111406
 20
124.730566656
 30
0.0
  0
SPLINE
  5
7A7
100
AcDbEntity
  8
0
100
AcDbSpline
 62
7
  6
CONTINUOUS
 70
0
 71
3
 72
15
 73
11
 74
0
 42
0.0000001
 43
0.0000001
 44
0.0000000001
 40
0.0
 40
0.0
 40
0.0
 40
0.0
 40
0.0570233419
 40
0.1293586796
 40
0.2242107455
 40
0.3430879243
 40
0.4844660151
 40
0.6447708672
 40
0.8187803679
 40
1.0
 40
1.0
 40
1.0
 40
1.0
 10
822.3352129685
 20
128.9374886654
 30
0.0
 10
822.3026676585
 20
129.0589494161
 30
0.0
 10
822.3261702579
 20
129.3606802414
 30
0.0
 10
822.5883080481
 20
129.7903211675
 30
0.0
 10
823.037813977
 20
130.2373660516
 30
0.0
 10
823.6754394549
 20
130.6960851004
 30
0.0
 10
824.4839968791
 20
131.1528930239
 30
0.0
 10
825.4389118156
 20
131.5896703975
 30
0.0
 10
826.504588586
 20
131.9878660746
 30
0.0
 10
827.2551348401
 20
132.2143057128
 30
0.0
 10
827.6411359375
 20
132.3177343951
 30
0.0
  0
SPLINE
  5
7A8
100
AcDbEntity
  8
KONSTRUKTIONSELEMENTE
100
AcDbSpline
 62
7
  6
CONTINUOUS
 70
0
 71
3
 72
11
 73
7
 74
0
 42
0.0000001
 43
0.0000001
 44
0.0000000001
 40
0.0
 40
0.0
 40
0.0
 40
0.0
 40
0.2193102634
 40
0.4447591571
 40
0.7096345186
 40
1.0
 40
1.0
 40
1.0
 40
1.0
 10
349.2456509711
 20
133.6086745308
 30
0.0
 10
348.9797091882
 20
133.7744873613
 30
0.0
 10
348.4235451702
 20
134.0858518875
 30
0.0
 10
347.4513098144
 20
134.4101588373
 30
0.0
 10
346.303108299
 20
134.3795623787
 30
0.0
 10
345.5733650138
 20
133.9712887481
 30
0.0
 10
345.2751801525
 20
133.6827412489
 30
0.0
  0
SPLINE
  5
7A9
100
AcDbEntity
  8
KONSTRUKTIONSELEMENTE
100
AcDbSpline
 62
7
  6
CONTINUOUS
 70
0
 71
3
 72
25
 73
21
 74
0
 42
0.0000001
 43
0.0000001
 44
0.0000000001
 40
0.0
 40
0.0
 40
0.0
 40
0.0
 40
0.0139556627
 40
0.0215641577
 40
0.0229744644
 40
0.0230439997
 40
0.0271929754
 40
0.0360330942
 40
0.0489380107
 40
0.0654456056
 40
0.085103462
 40
0.1324479604
 40
0.1889354145
 40
0.2529517006
 40
0.323314794
 40
0.3989389876
 40
0.4788786837
 40
0.6480928262
 40
0.8241941934
 40
1.0
 40
1.0
 40
1.0
 40
1.0
 10
348.9957096021
 20
132.1217919294
 30
0.0
 10
348.9911744034
 20
132.1472617839
 30
0.0
 10
348.9781309421
 20
132.1957868746
 30
0.0
 10
348.977099016
 20
132.2159165486
 30
0.0
 10
348.964013085
 20
132.2480029704
 30
0.0
 10
348.970448849
 20
132.2391567888
 30
0.0
 10
348.975497851
 20
132.2153647348
 30
0.0
 10
348.9983963409
 20
132.1726592517
 30
0.0
 10
349.0287549341
 20
132.1087863448
 30
0.0
 10
349.0722102356
 20
132.0287466619
 30
0.0
 10
349.14841504
 20
131.8940349878
 30
0.0
 10
349.2689168999
 20
131.6992660593
 30
0.0
 10
349.4414400368
 20
131.4402882995
 30
0.0
 10
349.646733136
 20
131.1520447638
 30
0.0
 10
349.8806194244
 20
130.840795806
 30
0.0
 10
350.1399786924
 20
130.5119058129
 30
0.0
 10
350.5225001836
 20
130.0469369816
 30
0.0
 10
351.0410479318
 20
129.4529083821
 30
0.0
 10
351.7010435248
 20
128.7472590664
 30
0.0
 10
352.1623013776
 20
128.2857391703
 30
0.0
 10
352.396707965
 20
128.0593197936
 30
0.0
  0
SPLINE
  5
7AA
100
AcDbEntity
  8
KONSTRUKTIONSELEMENTE
100
AcDbSpline
 62
7
  6
CONTINUOUS
 70
0
 71
3
 72
17
 73
13
 74
0
 42
0.0000001
 43
0.0000001
 44
0.0000000001
 40
0.0
 40
0.0
 40
0.0
 40
0.0
 40
0.0672998635
 40
0.1329602329
 40
0.1944855734
 40
0.2504309869
 40
0.3502866628
 40
0.4545528348
 40
0.5743822025
 40
0.7091855667
 40
0.853565524
 40
1.0
 40
1.0
 40
1.0
 40
1.0
 10
345.2751801525
 20
133.6827412489
 30
0.0
 10
345.1031347557
 20
133.5162563752
 30
0.0
 10
344.8098004129
 20
133.1349327814
 30
0.0
 10
344.5596907549
 20
132.4802461464
 30
0.0
 10
344.4953000542
 20
131.8253163718
 30
0.0
 10
344.589435129
 20
131.0529125049
 30
0.0
 10
344.9295760134
 20
130.1815588242
 30
0.0
 10
345.5149299033
 20
129.1875651324
 30
0.0
 10
346.2589273721
 20
128.1482525293
 30
0.0
 10
347.1552117623
 20
127.0468298244
 30
0.0
 10
348.1687441613
 20
125.9212743458
 30
0.0
 10
348.8956748844
 20
125.1845808442
 30
0.0
 10
349.2703483073
 20
124.8226741086
 30
0.0
  0
SPLINE
  5
7AB
100
AcDbEntity
  8
KONSTRUKTIONSELEMENTE
100
AcDbSpline
 62
7
  6
CONTINUOUS
 70
0
 71
3
 72
13
 73
9
 74
0
 42
0.0000001
 43
0.0000001
 44
0.0000000001
 40
0.0
 40
0.0
 40
0.0
 40
0.0
 40
0.147827563
 40
0.2910391013
 40
0.5396303344
 40
0.6488307226
 40
0.7583173339
 40
1.0
 40
1.0
 40
1.0
 40
1.0
 10
366.9984778376
 20
111.9304811435
 30
0.0
 10
367.1891856154
 20
112.1150252284
 30
0.0
 10
367.5071671531
 20
112.5434621059
 30
0.0
 10
367.8171507197
 20
113.4762953257
 30
0.0
 10
367.7311366129
 20
114.4090629623
 30
0.0
 10
367.4323637691
 20
115.1930667987
 30
0.0
 10
367.0638606548
 20
115.9342565065
 30
0.0
 10
366.7194987887
 20
116.4644550798
 30
0.0
 10
366.4705857894
 20
116.8198180053
 30
0.0
  0
SPLINE
  5
7AC
100
AcDbEntity
  8
KONSTRUKTIONSELEMENTE
100
AcDbSpline
 62
7
  6
CONTINUOUS
 70
0
 71
3
 72
19
 73
15
 74
0
 42
0.0000001
 43
0.0000001
 44
0.0000000001
 40
0.0
 40
0.0
 40
0.0
 40
0.0
 40
0.186931947
 40
0.3655432537
 40
0.5317545855
 40
0.6818380102
 40
0.7494939838
 40
0.8113676119
 40
0.866702645
 40
0.9144809375
 40
0.9535989404
 40
0.9694074678
 40
0.9823674488
 40
1.0
 40
1.0
 40
1.0
 40
1.0
 10
363.0033096828
 20
117.8141292652
 30
0.0
 10
363.1576544249
 20
117.6650436927
 30
0.0
 10
363.4629016451
 20
117.3770316468
 30
0.0
 10
363.917220437
 20
116.969220891
 30
0.0
 10
364.3504024269
 20
116.6015284977
 30
0.0
 10
364.6953513508
 20
116.32693584
 30
0.0
 10
364.9521534619
 20
116.1344497699
 30
0.0
 10
365.1248236152
 20
116.0107315735
 30
0.0
 10
365.2808937971
 20
115.904417154
 30
0.0
 10
365.4199346986
 20
115.8155159759
 30
0.0
 10
365.5172266358
 20
115.7567042965
 30
0.0
 10
365.5916676215
 20
115.7163280978
 30
0.0
 10
365.6226409055
 20
115.6977006062
 30
0.0
 10
365.7043264412
 20
115.6623885528
 30
0.0
 10
365.6852320873
 20
115.6691057271
 30
0.0
  0
SPLINE
  5
7AD
100
AcDbEntity
  8
KONSTRUKTIONSELEMENTE
100
AcDbSpline
 62
7
  6
CONTINUOUS
 70
0
 71
3
 72
9
 73
5
 74
0
 42
0.0000001
 43
0.0000001
 44
0.0000000001
 40
0.0
 40
0.0
 40
0.0
 40
0.0
 40
0.5263197575
 40
1.0
 40
1.0
 40
1.0
 40
1.0
 10
359.8769500251
 20
114.5774835802
 30
0.0
 10
360.2660375299
 20
114.2016539105
 30
0.0
 10
361.0231331165
 20
113.5058074132
 30
0.0
 10
361.8206809936
 20
112.8558170352
 30
0.0
 10
362.2114134355
 20
112.5653749489
 30
0.0
  0
SPLINE
  5
7AE
100
AcDbEntity
  8
KONSTRUKTIONSELEMENTE
100
AcDbSpline
 62
7
  6
CONTINUOUS
 70
0
 71
3
 72
14
 73
10
 74
0
 42
0.0000001
 43
0.0000001
 44
0.0000000001
 40
0.0
 40
0.0
 40
0.0
 40
0.0
 40
0.238355881
 40
0.3472682142
 40
0.4568467248
 40
0.5760006498
 40
0.7088709196
 40
0.852214807
 40
1.0
 40
1.0
 40
1.0
 40
1.0
 10
362.2423271688
 20
112.5424546162
 30
0.0
 10
362.5780129915
 20
112.2942078726
 30
0.0
 10
363.0815498988
 20
111.9494994372
 30
0.0
 10
363.7903854152
 20
111.5762799182
 30
0.0
 10
364.341390098
 20
111.3567087255
 30
0.0
 10
364.9645631617
 20
111.2229578926
 30
0.0
 10
365.6647800835
 20
111.2330802905
 30
0.0
 10
366.3855189793
 20
111.4530788142
 30
0.0
 10
366.8124534269
 20
111.750469059
 30
0.0
 10
366.9984778376
 20
111.9304811435
 30
0.0
  0
SPLINE
  5
7AF
100
AcDbEntity
  8
KONSTRUKTIONSELEMENTE
100
AcDbSpline
 62
7
  6
CONTINUOUS
 70
0
 71
3
 72
13
 73
9
 74
0
 42
0.0000001
 43
0.0000001
 44
0.0000000001
 40
0.0
 40
0.0
 40
0.0
 40
0.0
 40
0.2266749134
 40
0.4472161745
 40
0.5713587125
 40
0.7075537383
 40
0.8520150675
 40
1.0
 40
1.0
 40
1.0
 40
1.0
 10
318.4819039273
 20
163.4336454462
 30
0.0
 10
318.1870098433
 20
163.6340767551
 30
0.0
 10
317.5886180478
 20
164.0059268322
 30
0.0
 10
316.7466797001
 20
164.3480348916
 30
0.0
 10
315.9926941984
 20
164.453566252
 30
0.0
 10
315.3517499637
 20
164.3997933336
 30
0.0
 10
314.7090846881
 20
164.1705875653
 30
0.0
 10
314.3297636857
 20
163.897175471
 30
0.0
 10
314.1624817803
 20
163.7353001322
 30
0.0
  0
SPLINE
  5
7B0
100
AcDbEntity
  8
KONSTRUKTIONSELEMENTE
100
AcDbSpline
 62
7
  6
CONTINUOUS
 70
0
 71
3
 72
25
 73
21
 74
0
 42
0.0000001
 43
0.0000001
 44
0.0000000001
 40
0.0
 40
0.0
 40
0.0
 40
0.0
 40
0.0139556627
 40
0.0215641577
 40
0.0229744644
 40
0.0230439997
 40
0.0271929754
 40
0.0360330942
 40
0.0489380107
 40
0.0654456056
 40
0.085103462
 40
0.1324479604
 40
0.1889354145
 40
0.2529517006
 40
0.323314794
 40
0.3989389876
 40
0.4788786837
 40
0.6480928262
 40
0.8241941934
 40
1.0
 40
1.0
 40
1.0
 40
1.0
 10
317.8830112299
 20
162.1743508127
 30
0.0
 10
317.8784760312
 20
162.1998206671
 30
0.0
 10
317.8654325699
 20
162.2483457579
 30
0.0
 10
317.8644006438
 20
162.2684754319
 30
0.0
 10
317.8513147128
 20
162.3005618536
 30
0.0
 10
317.8577504768
 20
162.2917156721
 30
0.0
 10
317.8627994788
 20
162.267923618
 30
0.0
 10
317.8856979687
 20
162.225218135
 30
0.0
 10
317.9160565619
 20
162.1613452281
 30
0.0
 10
317.9595118634
 20
162.0813055451
 30
0.0
 10
318.0357166677
 20
161.946593871
 30
0.0
 10
318.1562185277
 20
161.7518249425
 30
0.0
 10
318.3287416646
 20
161.4928471828
 30
0.0
 10
318.5340347638
 20
161.2046036471
 30
0.0
 10
318.7679210522
 20
160.8933546892
 30
0.0
 10
319.0272803202
 20
160.5644646962
 30
0.0
 10
319.4098018114
 20
160.0994958648
 30
0.0
 10
319.9283495595
 20
159.5054672654
 30
0.0
 10
320.5883451526
 20
158.7998179497
 30
0.0
 10
321.0496030053
 20
158.3382980535
 30
0.0
 10
321.2840095928
 20
158.1118786769
 30
0.0
  0
SPLINE
  5
7B1
100
AcDbEntity
  8
KONSTRUKTIONSELEMENTE
100
AcDbSpline
 62
7
  6
CONTINUOUS
 70
0
 71
3
 72
17
 73
13
 74
0
 42
0.0000001
 43
0.0000001
 44
0.0000000001
 40
0.0
 40
0.0
 40
0.0
 40
0.0
 40
0.0672998635
 40
0.1329602329
 40
0.1944855734
 40
0.2504309869
 40
0.3502866628
 40
0.4545528348
 40
0.5743822025
 40
0.7091855667
 40
0.853565524
 40
1.0
 40
1.0
 40
1.0
 40
1.0
 10
314.1624817803
 20
163.7353001322
 30
0.0
 10
313.9904363835
 20
163.5688152585
 30
0.0
 10
313.6971020407
 20
163.1874916646
 30
0.0
 10
313.4469923826
 20
162.5328050297
 30
0.0
 10
313.382601682
 20
161.8778752551
 30
0.0
 10
313.4767367568
 20
161.1054713881
 30
0.0
 10
313.8168776412
 20
160.2341177075
 30
0.0
 10
314.4022315311
 20
159.2401240157
 30
0.0
 10
315.1462289999
 20
158.2008114125
 30
0.0
 10
316.0425133901
 20
157.0993887076
 30
0.0
 10
317.0560457891
 20
155.9738332291
 30
0.0
 10
317.7829765121
 20
155.2371397274
 30
0.0
 10
318.1576499351
 20
154.8752329918
 30
0.0
  0
SPLINE
  5
7B2
100
AcDbEntity
  8
KONSTRUKTIONSELEMENTE
100
AcDbSpline
 62
7
  6
CONTINUOUS
 70
0
 71
3
 72
13
 73
9
 74
0
 42
0.0000001
 43
0.0000001
 44
0.0000000001
 40
0.0
 40
0.0
 40
0.0
 40
0.0
 40
0.1478830584
 40
0.2925777243
 40
0.4291426403
 40
0.5544682928
 40
0.7758011155
 40
1.0
 40
1.0
 40
1.0
 40
1.0
 10
335.8857794654
 20
141.9830400268
 30
0.0
 10
336.0490078794
 20
142.1409928834
 30
0.0
 10
336.3301341772
 20
142.5004740183
 30
0.0
 10
336.5812594888
 20
143.1182366309
 30
0.0
 10
336.6641812824
 20
143.7432383573
 30
0.0
 10
336.6000117634
 20
144.4875099838
 30
0.0
 10
336.306737394
 20
145.3246448222
 30
0.0
 10
335.9721805551
 20
145.9228100422
 30
0.0
 10
335.7914048368
 20
146.215900179
 30
0.0
  0
SPLINE
  5
7B3
100
AcDbEntity
  8
KONSTRUKTIONSELEMENTE
100
AcDbSpline
 62
7
  6
CONTINUOUS
 70
0
 71
3
 72
19
 73
15
 74
0
 42
0.0000001
 43
0.0000001
 44
0.0000000001
 40
0.0
 40
0.0
 40
0.0
 40
0.0
 40
0.186931947
 40
0.3655432537
 40
0.5317545855
 40
0.6818380102
 40
0.7494939838
 40
0.8113676119
 40
0.866702645
 40
0.9144809375
 40
0.9535989404
 40
0.9694074678
 40
0.9823674488
 40
1.0
 40
1.0
 40
1.0
 40
1.0
 10
331.8906113106
 20
147.8666881485
 30
0.0
 10
332.0449560527
 20
147.717602576
 30
0.0
 10
332.3502032729
 20
147.4295905301
 30
0.0
 10
332.8045220648
 20
147.0217797742
 30
0.0
 10
333.2377040547
 20
146.6540873809
 30
0.0
 10
333.5826529786
 20
146.3794947232
 30
0.0
 10
333.8394550897
 20
146.1870086532
 30
0.0
 10
334.012125243
 20
146.0632904567
 30
0.0
 10
334.1681954249
 20
145.9569760372
 30
0.0
 10
334.3072363264
 20
145.8680748591
 30
0.0
 10
334.4045282636
 20
145.8092631797
 30
0.0
 10
334.4789692493
 20
145.7688869811
 30
0.0
 10
334.5099425333
 20
145.7502594895
 30
0.0
 10
334.591628069
 20
145.7149474361
 30
0.0
 10
334.5725337151
 20
145.7216646104
 30
0.0
  0
SPLINE
  5
7B4
100
AcDbEntity
  8
KONSTRUKTIONSELEMENTE
100
AcDbSpline
 62
7
  6
CONTINUOUS
 70
0
 71
3
 72
14
 73
10
 74
0
 42
0.0000001
 43
0.0000001
 44
0.0000000001
 40
0.0
 40
0.0
 40
0.0
 40
0.0
 40
0.2853075585
 40
0.4098818106
 40
0.5208692916
 40
0.6238507303
 40
0.7336576496
 40
0.8616333138
 40
1.0
 40
1.0
 40
1.0
 40
1.0
 10
328.7642516529
 20
144.6300424634
 30
0.0
 10
329.3364107827
 20
144.0773791831
 30
0.0
 10
330.1867688386
 20
143.3107464593
 30
0.0
 10
331.3404781028
 20
142.4274036941
 30
0.0
 10
332.1301964473
 20
141.9083546086
 30
0.0
 10
332.9366167453
 20
141.4963240523
 30
0.0
 10
333.8635226462
 20
141.2414860588
 30
0.0
 10
334.9377466462
 20
141.3227201081
 30
0.0
 10
335.6085404051
 20
141.7147613585
 30
0.0
 10
335.8857794654
 20
141.9830400268
 30
0.0
  0
SPLINE
  5
7B5
100
AcDbEntity
  8
KONSTRUKTIONSELEMENTE
100
AcDbSpline
 62
7
  6
CONTINUOUS
 70
0
 71
3
 72
9
 73
5
 74
0
 42
0.0000001
 43
0.0000001
 44
0.0000000001
 40
0.0
 40
0.0
 40
0.0
 40
0.0
 40
0.4992056363
 40
1.0
 40
1.0
 40
1.0
 40
1.0
 10
353.8837395705
 20
132.7085129102
 30
0.0
 10
353.8834604074
 20
131.8913104371
 30
0.0
 10
353.6156598782
 20
130.2435131757
 30
0.0
 10
352.8377890489
 20
128.7673264895
 30
0.0
 10
352.3468981968
 20
128.1107417016
 30
0.0
  0
SPLINE
  5
7B6
100
AcDbEntity
  8
KONSTRUKTIONSELEMENTE
100
AcDbSpline
 62
7
  6
CONTINUOUS
 70
0
 71
3
 72
11
 73
7
 74
0
 42
0.0000001
 43
0.0000001
 44
0.0000000001
 40
0.0
 40
0.0
 40
0.0
 40
0.0
 40
0.2503834639
 40
0.5009562809
 40
0.7509829001
 40
1.0
 40
1.0
 40
1.0
 40
1.0
 10
348.6812492336
 20
125.3988545117
 30
0.0
 10
347.9720892634
 20
125.1407736224
 30
0.0
 10
346.4728835822
 20
124.821254332
 30
0.0
 10
344.1865672373
 20
124.9763380651
 30
0.0
 10
342.0330637516
 20
125.7484299189
 30
0.0
 10
340.7945683524
 20
126.6432123025
 30
0.0
 10
340.2547368471
 20
127.1646494953
 30
0.0
  0
SPLINE
  5
7B7
100
AcDbEntity
  8
KONSTRUKTIONSELEMENTE
100
AcDbSpline
 62
7
  6
CONTINUOUS
 70
0
 71
3
 72
11
 73
7
 74
0
 42
0.0000001
 43
0.0000001
 44
0.0000000001
 40
0.0
 40
0.0
 40
0.0
 40
0.0
 40
0.2497701922
 40
0.5003846994
 40
0.7507632035
 40
1.0
 40
1.0
 40
1.0
 40
1.0
 10
330.498087625
 20
149.2142453925
 30
0.0
 10
331.2569122566
 20
149.7654881298
 30
0.0
 10
332.9879778842
 20
150.6063716728
 30
0.0
 10
335.8463990467
 20
150.904231475
 30
0.0
 10
338.636190389
 20
150.2213932178
 30
0.0
 10
340.2330641818
 20
149.1513530467
 30
0.0
 10
340.9062227707
 20
148.5011317804
 30
0.0
  0
SPLINE
  5
7B8
100
AcDbEntity
  8
KONSTRUKTIONSELEMENTE
100
AcDbSpline
 62
7
  6
CONTINUOUS
 70
0
 71
3
 72
9
 73
5
 74
0
 42
0.0000001
 43
0.0000001
 44
0.0000000001
 40
0.0
 40
0.0
 40
0.0
 40
0.0
 40
0.5052259423
 40
1.0
 40
1.0
 40
1.0
 40
1.0
 10
332.7744947871
 20
140.6464857087
 30
0.0
 10
332.5721945022
 20
140.8418927785
 30
0.0
 10
332.218579937
 20
141.2805285447
 30
0.0
 10
331.9875879292
 20
141.7947843883
 30
0.0
 10
331.9086858301
 20
142.0586868098
 30
0.0
  0
SPLINE
  5
7B9
100
AcDbEntity
  8
KONSTRUKTIONSELEMENTE
100
AcDbSpline
 62
7
  6
CONTINUOUS
 70
0
 71
3
 72
11
 73
7
 74
0
 42
0.0000001
 43
0.0000001
 44
0.0000000001
 40
0.0
 40
0.0
 40
0.0
 40
0.0
 40
0.2519918144
 40
0.5048009909
 40
0.755086504
 40
1.0
 40
1.0
 40
1.0
 40
1.0
 10
334.0460687384
 20
146.0481045479
 30
0.0
 10
334.3629211145
 20
146.1605329697
 30
0.0
 10
335.0324608523
 20
146.2981267329
 30
0.0
 10
336.04953756
 20
146.2253885289
 30
0.0
 10
337.0002757395
 20
145.8836376888
 30
0.0
 10
337.5448367877
 20
145.4915040929
 30
0.0
 10
337.779863113
 20
145.2644860954
 30
0.0
  0
SPLINE
  5
7BA
100
AcDbEntity
  8
KONSTRUKTIONSELEMENTE
100
AcDbSpline
 62
7
  6
CONTINUOUS
 70
0
 71
3
 72
9
 73
5
 74
0
 42
0.0000001
 43
0.0000001
 44
0.0000000001
 40
0.0
 40
0.0
 40
0.0
 40
0.0
 40
0.5069780116
 40
1.0
 40
1.0
 40
1.0
 40
1.0
 10
348.3864648308
 20
135.019295567
 30
0.0
 10
348.6985617398
 20
134.7178331023
 30
0.0
 10
349.2054453702
 20
133.9963464283
 30
0.0
 10
349.3837938497
 20
133.131580267
 30
0.0
 10
349.3836859699
 20
132.7096079385
 30
0.0
  0
SPLINE
  5
7BB
100
AcDbEntity
  8
KONSTRUKTIONSELEMENTE
100
AcDbSpline
 62
7
  6
CONTINUOUS
 70
0
 71
3
 72
9
 73
5
 74
0
 42
0.0000001
 43
0.0000001
 44
0.0000000001
 40
0.0
 40
0.0
 40
0.0
 40
0.0
 40
0.5012207597
 40
1.0
 40
1.0
 40
1.0
 40
1.0
 10
329.6481351293
 20
137.4098400236
 30
0.0
 10
328.9082823221
 20
138.1244829578
 30
0.0
 10
327.7004284908
 20
139.8597720312
 30
0.0
 10
327.2768703676
 20
141.9336407976
 30
0.0
 10
327.2772200473
 20
142.9572683655
 30
0.0
  0
SPLINE
  5
7BC
100
AcDbEntity
  8
KONSTRUKTIONSELEMENTE
100
AcDbSpline
 62
7
  6
CONTINUOUS
 70
0
 71
3
 72
9
 73
5
 74
0
 42
0.0000001
 43
0.0000001
 44
0.0000000001
 40
0.0
 40
0.0
 40
0.0
 40
0.0
 40
0.50530061
 40
1.0
 40
1.0
 40
1.0
 40
1.0
 10
345.3745923512
 20
129.4414449939
 30
0.0
 10
345.0128404618
 20
129.4915998327
 30
0.0
 10
344.3075322834
 20
129.6989340683
 30
0.0
 10
343.6964710204
 20
130.1085226685
 30
0.0
 10
343.4339855082
 20
130.3513052311
 30
0.0
  0
SPLINE
  5
7BD
100
AcDbEntity
  8
KONSTRUKTIONSELEMENTE
100
AcDbSpline
 62
7
  6
CONTINUOUS
 70
0
 71
3
 72
9
 73
5
 74
0
 42
0.0000001
 43
0.0000001
 44
0.0000000001
 40
0.0
 40
0.0
 40
0.0
 40
0.0
 40
0.5012063269
 40
1.0
 40
1.0
 40
1.0
 40
1.0
 10
351.5692792099
 20
138.2008582402
 30
0.0
 10
352.2926793804
 20
137.4878959179
 30
0.0
 10
353.471390551
 20
135.7666250962
 30
0.0
 10
353.8840848679
 20
133.7193121136
 30
0.0
 10
353.8837395705
 20
132.7085129102
 30
0.0
  0
SPLINE
  5
7BE
100
AcDbEntity
  8
KONSTRUKTIONSELEMENTE
100
AcDbSpline
 62
7
  6
CONTINUOUS
 70
0
 71
3
 72
9
 73
5
 74
0
 42
0.0000001
 43
0.0000001
 44
0.0000000001
 40
0.0
 40
0.0
 40
0.0
 40
0.0
 40
0.4046530715
 40
1.0
 40
1.0
 40
1.0
 40
1.0
 10
374.3801839496
 20
111.4002990746
 30
0.0
 10
374.3801839496
 20
111.452716953
 30
0.0
 10
374.4161919693
 20
111.5803399884
 30
0.0
 10
374.4715911647
 20
111.6969285939
 30
0.0
 10
374.5078340434
 20
111.765001641
 30
0.0
  0
SPLINE
  5
7BF
100
AcDbEntity
  8
KONSTRUKTIONSELEMENTE
100
AcDbSpline
 62
7
  6
CONTINUOUS
 70
0
 71
3
 72
10
 73
6
 74
0
 42
0.0000001
 43
0.0000001
 44
0.0000000001
 40
0.0
 40
0.0
 40
0.0
 40
0.0
 40
0.371444044
 40
0.6586206829
 40
1.0
 40
1.0
 40
1.0
 40
1.0
 10
377.4363692218
 20
114.7953759096
 30
0.0
 10
377.4873790796
 20
114.8247746684
 30
0.0
 10
377.5816726173
 20
114.8740116873
 30
0.0
 10
377.7226653099
 20
114.9304024504
 30
0.0
 10
377.8435979733
 20
114.9436355379
 30
0.0
 10
377.883325544
 20
114.906898674
 30
0.0
  0
SPLINE
  5
7C0
100
AcDbEntity
  8
KONSTRUKTIONSELEMENTE
100
AcDbSpline
 62
7
  6
CONTINUOUS
 70
0
 71
3
 72
21
 73
17
 74
0
 42
0.0000001
 43
0.0000001
 44
0.0000000001
 40
0.0
 40
0.0
 40
0.0
 40
0.0
 40
0.0294220707
 40
0.0723221796
 40
0.128270212
 40
0.1957493625
 40
0.3569194901
 40
0.5354427485
 40
0.7081562347
 40
0.7852637376
 40
0.8528295098
 40
0.9088459223
 40
0.951807463
 40
0.968259586
 40
0.9814568991
 40
1.0
 40
1.0
 40
1.0
 40
1.0
 10
377.562164465
 20
115.156868935
 30
0.0
 10
377.562164465
 20
115.106718441
 30
0.0
 10
377.5290142564
 20
114.9851365739
 30
0.0
 10
377.4369553358
 20
114.7872850494
 30
0.0
 10
377.2906940779
 20
114.5435770949
 30
0.0
 10
377.0136427577
 20
114.1453072372
 30
0.0
 10
376.5740120078
 20
113.6069045966
 30
0.0
 10
375.9771660561
 20
112.9686893827
 30
0.0
 10
375.4446953765
 20
112.4680284302
 30
0.0
 10
375.0283673759
 20
112.122331764
 30
0.0
 10
374.754363877
 20
111.9171848014
 30
0.0
 10
374.5158450777
 20
111.7628003483
 30
0.0
 10
374.3406094924
 20
111.6721004624
 30
0.0
 10
374.2222770549
 20
111.6331563832
 30
0.0
 10
374.1424622986
 20
111.6183918905
 30
0.0
 10
374.0822288516
 20
111.6288103098
 30
0.0
 10
374.0590228706
 20
111.6502693357
 30
0.0
  0
SPLINE
  5
7C1
100
AcDbEntity
  8
KONSTRUKTIONSELEMENTE
100
AcDbSpline
 62
7
  6
CONTINUOUS
 70
0
 71
3
 72
9
 73
5
 74
0
 42
0.0000001
 43
0.0000001
 44
0.0000000001
 40
0.0
 40
0.0
 40
0.0
 40
0.0
 40
0.5061516998
 40
1.0
 40
1.0
 40
1.0
 40
1.0
 10
378.4415930789
 20
107.4165219369
 30
0.0
 10
378.8483559222
 20
107.0236192014
 30
0.0
 10
379.5097860054
 20
106.081646795
 30
0.0
 10
379.7429601591
 20
104.9529024227
 30
0.0
 10
379.7432889209
 20
104.4011154857
 30
0.0
  0
SPLINE
  5
7C2
100
AcDbEntity
  8
KONSTRUKTIONSELEMENTE
100
AcDbSpline
 62
7
  6
CONTINUOUS
 70
0
 71
3
 72
9
 73
5
 74
0
 42
0.0000001
 43
0.0000001
 44
0.0000000001
 40
0.0
 40
0.0
 40
0.0
 40
0.0
 40
0.4991681509
 40
1.0
 40
1.0
 40
1.0
 40
1.0
 10
384.743308375
 20
104.3972748937
 30
0.0
 10
384.7429751328
 20
103.4282375593
 30
0.0
 10
384.4271113441
 20
101.4742754525
 30
0.0
 10
383.5093894742
 20
99.7216607074
 30
0.0
 10
382.9299279617
 20
98.9409381317
 30
0.0
  0
SPLINE
  5
7C3
100
AcDbEntity
  8
KONSTRUKTIONSELEMENTE
100
AcDbSpline
 62
7
  6
CONTINUOUS
 70
0
 71
3
 72
9
 73
5
 74
0
 42
0.0000001
 43
0.0000001
 44
0.0000000001
 40
0.0
 40
0.0
 40
0.0
 40
0.0
 40
0.500997652
 40
1.0
 40
1.0
 40
1.0
 40
1.0
 10
372.5039167424
 20
95.4663656498
 30
0.0
 10
371.7513285495
 20
95.6815545912
 30
0.0
 10
370.2956590008
 20
96.2952757269
 30
0.0
 10
369.0321407253
 20
97.2443967831
 30
0.0
 10
368.4713874641
 20
97.7860428402
 30
0.0
  0
SPLINE
  5
7C4
100
AcDbEntity
  8
KONSTRUKTIONSELEMENTE
100
AcDbSpline
 62
7
  6
CONTINUOUS
 70
0
 71
3
 72
9
 73
5
 74
0
 42
0.0000001
 43
0.0000001
 44
0.0000000001
 40
0.0
 40
0.0
 40
0.0
 40
0.0
 40
0.5012747397
 40
1.0
 40
1.0
 40
1.0
 40
1.0
 10
381.97807617
 20
110.9516118917
 30
0.0
 10
382.8422437478
 20
110.1010927596
 30
0.0
 10
384.250515506
 20
108.0473544821
 30
0.0
 10
384.7437232225
 20
105.6036130401
 30
0.0
 10
384.743308375
 20
104.3972748937
 30
0.0
  0
SPLINE
  5
7C5
100
AcDbEntity
  8
KONSTRUKTIONSELEMENTE
100
AcDbSpline
 62
7
  6
CONTINUOUS
 70
0
 71
3
 72
9
 73
5
 74
0
 42
0.0000001
 43
0.0000001
 44
0.0000000001
 40
0.0
 40
0.0
 40
0.0
 40
0.0
 40
0.2525204064
 40
1.0
 40
1.0
 40
1.0
 40
1.0
 10
373.0397380986
 20
100.6034108776
 30
0.0
 10
372.9448402371
 20
100.6517559035
 30
0.0
 10
372.5758104961
 20
100.8561948502
 30
0.0
 10
372.2349000746
 20
101.1115820945
 30
0.0
 10
372.004130438
 20
101.3263656006
 30
0.0
  0
SPLINE
  5
7C6
100
AcDbEntity
  8
KONSTRUKTIONSELEMENTE
100
AcDbSpline
 62
7
  6
CONTINUOUS
 70
0
 71
3
 72
11
 73
7
 74
0
 42
0.0000001
 43
0.0000001
 44
0.0000000001
 40
0.0
 40
0.0
 40
0.0
 40
0.0
 40
0.2507528382
 40
0.5034086137
 40
0.7541779598
 40
1.0
 40
1.0
 40
1.0
 40
1.0
 10
364.6741079729
 20
116.3477243291
 30
0.0
 10
365.1041859962
 20
116.5604216454
 30
0.0
 10
366.0400074949
 20
116.8547073355
 30
0.0
 10
367.5044565046
 20
116.8559783184
 30
0.0
 10
368.8944127281
 20
116.4252012207
 30
0.0
 10
369.6887106105
 20
115.8711571675
 30
0.0
 10
370.0270223827
 20
115.5443730894
 30
0.0
  0
SPLINE
  5
7C7
100
AcDbEntity
  8
KONSTRUKTIONSELEMENTE
100
AcDbSpline
 62
7
  6
CONTINUOUS
 70
0
 71
3
 72
9
 73
5
 74
0
 42
0.0000001
 43
0.0000001
 44
0.0000000001
 40
0.0
 40
0.0
 40
0.0
 40
0.0
 40
0.5012894406
 40
1.0
 40
1.0
 40
1.0
 40
1.0
 10
360.056816768
 20
105.9138939927
 30
0.0
 10
359.1743640945
 20
106.7662778206
 30
0.0
 10
357.7337028816
 20
108.8355788689
 30
0.0
 10
357.2284146773
 20
111.3088269672
 30
0.0
 10
357.2288344249
 20
112.5294140193
 30
0.0
  0
SPLINE
  5
7C8
100
AcDbEntity
  8
KONSTRUKTIONSELEMENTE
100
AcDbSpline
 62
7
  6
CONTINUOUS
 70
0
 71
3
 72
11
 73
7
 74
0
 42
0.0000001
 43
0.0000001
 44
0.0000000001
 40
0.0
 40
0.0
 40
0.0
 40
0.0
 40
0.2496929416
 40
0.500340108
 40
0.7507767759
 40
1.0
 40
1.0
 40
1.0
 40
1.0
 10
360.8896770912
 20
119.8565219147
 30
0.0
 10
361.7943777368
 20
120.5472617068
 30
0.0
 10
363.8761469996
 20
121.6116358429
 30
0.0
 10
367.3428697812
 20
122.0236828838
 30
0.0
 10
370.7393234143
 20
121.2241711662
 30
0.0
 10
372.6836065289
 20
119.9299512092
 30
0.0
 10
373.5007553358
 20
119.1406460728
 30
0.0
  0
SPLINE
  5
7C9
100
AcDbEntity
  8
KONSTRUKTIONSELEMENTE
100
AcDbSpline
 62
7
  6
CONTINUOUS
 70
0
 71
3
 72
9
 73
5
 74
0
 42
0.0000001
 43
0.0000001
 44
0.0000000001
 40
0.0
 40
0.0
 40
0.0
 40
0.0
 40
0.5061516998
 40
1.0
 40
1.0
 40
1.0
 40
1.0
 10
363.530549721
 20
109.5101669761
 30
0.0
 10
363.1237868777
 20
109.9030697116
 30
0.0
 10
362.4623567945
 20
110.8450421179
 30
0.0
 10
362.2291826408
 20
111.9737864903
 30
0.0
 10
362.228853879
 20
112.5255734273
 30
0.0
  0
SPLINE
  5
7CA
100
AcDbEntity
  8
KONSTRUKTIONSELEMENTE
100
AcDbSpline
 62
7
  6
CONTINUOUS
 70
0
 71
3
 72
21
 73
17
 74
0
 42
0.0000001
 43
0.0000001
 44
0.0000000001
 40
0.0
 40
0.0
 40
0.0
 40
0.0
 40
0.0294220707
 40
0.0723221796
 40
0.128270212
 40
0.1957493625
 40
0.3569194901
 40
0.5354427485
 40
0.7081562347
 40
0.7852637376
 40
0.8528295098
 40
0.9088459223
 40
0.951807463
 40
0.968259586
 40
0.9814568991
 40
1.0
 40
1.0
 40
1.0
 40
1.0
 10
377.9157178556
 20
114.8153625841
 30
0.0
 10
377.9157178556
 20
114.76521209
 30
0.0
 10
377.882567647
 20
114.643630223
 30
0.0
 10
377.7905087263
 20
114.4457786984
 30
0.0
 10
377.6442474685
 20
114.2020707439
 30
0.0
 10
377.3671961483
 20
113.8038008863
 30
0.0
 10
376.9275653984
 20
113.2653982457
 30
0.0
 10
376.3307194467
 20
112.6271830318
 30
0.0
 10
375.7982487671
 20
112.1265220793
 30
0.0
 10
375.3819207665
 20
111.7808254131
 30
0.0
 10
375.1079172676
 20
111.5756784504
 30
0.0
 10
374.8693984682
 20
111.4212939973
 30
0.0
 10
374.694162883
 20
111.3305941114
 30
0.0
 10
374.5758304455
 20
111.2916500322
 30
0.0
 10
374.4960156891
 20
111.2768855395
 30
0.0
 10
374.4357822422
 20
111.2873039589
 30
0.0
 10
374.4125762612
 20
111.3087629847
 30
0.0
  0
SPLINE
  5
7CB
100
AcDbEntity
  8
KONSTRUKTIONSELEMENTE
100
AcDbSpline
 62
7
  6
CONTINUOUS
 70
0
 71
3
 72
9
 73
5
 74
0
 42
0.0000001
 43
0.0000001
 44
0.0000000001
 40
0.0
 40
0.0
 40
0.0
 40
0.0
 40
0.4046530715
 40
1.0
 40
1.0
 40
1.0
 40
1.0
 10
313.215447377
 20
170.4808977883
 30
0.0
 10
313.215447377
 20
170.5333156666
 30
0.0
 10
313.2514553966
 20
170.660938702
 30
0.0
 10
313.3068545921
 20
170.7775273075
 30
0.0
 10
313.3430974708
 20
170.8456003547
 30
0.0
  0
SPLINE
  5
7CC
100
AcDbEntity
  8
KONSTRUKTIONSELEMENTE
100
AcDbSpline
 62
7
  6
CONTINUOUS
 70
0
 71
3
 72
10
 73
6
 74
0
 42
0.0000001
 43
0.0000001
 44
0.0000000001
 40
0.0
 40
0.0
 40
0.0
 40
0.0
 40
0.371444044
 40
0.6586206829
 40
1.0
 40
1.0
 40
1.0
 40
1.0
 10
316.2716326491
 20
173.8759746232
 30
0.0
 10
316.3226425069
 20
173.9053733821
 30
0.0
 10
316.4169360447
 20
173.954610401
 30
0.0
 10
316.5579287372
 20
174.011001164
 30
0.0
 10
316.6788614007
 20
174.0242342516
 30
0.0
 10
316.7185889714
 20
173.9874973876
 30
0.0
  0
SPLINE
  5
7CD
100
AcDbEntity
  8
KONSTRUKTIONSELEMENTE
100
AcDbSpline
 62
7
  6
CONTINUOUS
 70
0
 71
3
 72
21
 73
17
 74
0
 42
0.0000001
 43
0.0000001
 44
0.0000000001
 40
0.0
 40
0.0
 40
0.0
 40
0.0
 40
0.0294220707
 40
0.0723221796
 40
0.128270212
 40
0.1957493625
 40
0.3569194901
 40
0.5354427485
 40
0.7081562347
 40
0.7852637376
 40
0.8528295098
 40
0.9088459223
 40
0.951807463
 40
0.968259586
 40
0.9814568991
 40
1.0
 40
1.0
 40
1.0
 40
1.0
 10
316.3974278923
 20
174.2374676487
 30
0.0
 10
316.3974278923
 20
174.1873171547
 30
0.0
 10
316.3642776838
 20
174.0657352876
 30
0.0
 10
316.2722187631
 20
173.8678837631
 30
0.0
 10
316.1259575053
 20
173.6241758085
 30
0.0
 10
315.848906185
 20
173.2259059509
 30
0.0
 10
315.4092754351
 20
172.6875033103
 30
0.0
 10
314.8124294835
 20
172.0492880964
 30
0.0
 10
314.2799588039
 20
171.5486271439
 30
0.0
 10
313.8636308033
 20
171.2029304777
 30
0.0
 10
313.5896273044
 20
170.997783515
 30
0.0
 10
313.351108505
 20
170.8433990619
 30
0.0
 10
313.1758729198
 20
170.7526991761
 30
0.0
 10
313.0575404823
 20
170.7137550968
 30
0.0
 10
312.9777257259
 20
170.6989906041
 30
0.0
 10
312.917492279
 20
170.7094090235
 30
0.0
 10
312.894286298
 20
170.7308680494
 30
0.0
  0
SPLINE
  5
7CE
100
AcDbEntity
  8
KONSTRUKTIONSELEMENTE
100
AcDbSpline
 62
7
  6
CONTINUOUS
 70
0
 71
3
 72
9
 73
5
 74
0
 42
0.0000001
 43
0.0000001
 44
0.0000000001
 40
0.0
 40
0.0
 40
0.0
 40
0.0
 40
0.5061516998
 40
1.0
 40
1.0
 40
1.0
 40
1.0
 10
317.2768565062
 20
166.4971206506
 30
0.0
 10
317.6836193495
 20
166.104217915
 30
0.0
 10
318.3450494328
 20
165.1622455087
 30
0.0
 10
318.5782235865
 20
164.0335011363
 30
0.0
 10
318.5785523483
 20
163.4817141993
 30
0.0
  0
SPLINE
  5
7CF
100
AcDbEntity
  8
KONSTRUKTIONSELEMENTE
100
AcDbSpline
 62
7
  6
CONTINUOUS
 70
0
 71
3
 72
9
 73
5
 74
0
 42
0.0000001
 43
0.0000001
 44
0.0000000001
 40
0.0
 40
0.0
 40
0.0
 40
0.0
 40
0.4990961922
 40
1.0
 40
1.0
 40
1.0
 40
1.0
 10
323.5785718024
 20
163.4778736074
 30
0.0
 10
323.5782233043
 20
162.4644736952
 30
0.0
 10
323.2322149545
 20
160.419528963
 30
0.0
 10
322.2302033764
 20
158.6049525482
 30
0.0
 10
321.6004962881
 20
157.8062655376
 30
0.0
  0
SPLINE
  5
7D0
100
AcDbEntity
  8
KONSTRUKTIONSELEMENTE
100
AcDbSpline
 62
7
  6
CONTINUOUS
 70
0
 71
3
 72
11
 73
7
 74
0
 42
0.0000001
 43
0.0000001
 44
0.0000000001
 40
0.0
 40
0.0
 40
0.0
 40
0.0
 40
0.250262514
 40
0.5008853759
 40
0.7509951573
 40
1.0
 40
1.0
 40
1.0
 40
1.0
 10
318.0104336313
 20
155.0178895729
 30
0.0
 10
317.1360042247
 20
154.6269315288
 30
0.0
 10
315.257388088
 20
154.103187548
 30
0.0
 10
312.3435397829
 20
154.1720689736
 30
0.0
 10
309.5786206078
 20
155.0802379721
 30
0.0
 10
307.9921260983
 20
156.2045233483
 30
0.0
 10
307.3066508915
 20
156.8666415539
 30
0.0
  0
SPLINE
  5
7D1
100
AcDbEntity
  8
KONSTRUKTIONSELEMENTE
100
AcDbSpline
 62
7
  6
CONTINUOUS
 70
0
 71
3
 72
9
 73
5
 74
0
 42
0.0000001
 43
0.0000001
 44
0.0000000001
 40
0.0
 40
0.0
 40
0.0
 40
0.0
 40
0.5012747397
 40
1.0
 40
1.0
 40
1.0
 40
1.0
 10
320.8133395973
 20
170.0322106054
 30
0.0
 10
321.6775071751
 20
169.1816914732
 30
0.0
 10
323.0857789333
 20
167.1279531958
 30
0.0
 10
323.5789866499
 20
164.6842117538
 30
0.0
 10
323.5785718024
 20
163.4778736074
 30
0.0
  0
SPLINE
  5
7D2
100
AcDbEntity
  8
KONSTRUKTIONSELEMENTE
100
AcDbSpline
 62
7
  6
CONTINUOUS
 70
0
 71
3
 72
9
 73
5
 74
0
 42
0.0000001
 43
0.0000001
 44
0.0000000001
 40
0.0
 40
0.0
 40
0.0
 40
0.0
 40
0.5050460752
 40
1.0
 40
1.0
 40
1.0
 40
1.0
 10
314.4525925584
 20
159.1890232299
 30
0.0
 10
313.7990171849
 20
159.1309232812
 30
0.0
 10
312.4664154615
 20
159.2850062122
 30
0.0
 10
311.3101039356
 20
159.9688617949
 30
0.0
 10
310.8393938653
 20
160.4069643143
 30
0.0
  0
SPLINE
  5
7D3
100
AcDbEntity
  8
KONSTRUKTIONSELEMENTE
100
AcDbSpline
 62
7
  6
CONTINUOUS
 70
0
 71
3
 72
11
 73
7
 74
0
 42
0.0000001
 43
0.0000001
 44
0.0000000001
 40
0.0
 40
0.0
 40
0.0
 40
0.0
 40
0.2485637571
 40
0.501292539
 40
0.7532605035
 40
1.0
 40
1.0
 40
1.0
 40
1.0
 10
302.7167222351
 20
174.9301569446
 30
0.0
 10
303.1515391924
 20
175.2705832691
 30
0.0
 10
304.1644381492
 20
175.7985374586
 30
0.0
 10
305.8583866371
 20
176.0108376663
 30
0.0
 10
307.5188772529
 20
175.6313935657
 30
0.0
 10
308.4680082928
 20
175.0058146398
 30
0.0
 10
308.8622858101
 20
174.6249718031
 30
0.0
  0
SPLINE
  5
7D4
100
AcDbEntity
  8
KONSTRUKTIONSELEMENTE
100
AcDbSpline
 62
7
  6
CONTINUOUS
 70
0
 71
3
 72
9
 73
5
 74
0
 42
0.0000001
 43
0.0000001
 44
0.0000000001
 40
0.0
 40
0.0
 40
0.0
 40
0.0
 40
0.5012633742
 40
1.0
 40
1.0
 40
1.0
 40
1.0
 10
298.8920801954
 20
164.9944927064
 30
0.0
 10
298.0913266379
 20
165.767961248
 30
0.0
 10
296.757619437
 20
167.6120215411
 30
0.0
 10
296.1744465057
 20
169.8139807007
 30
0.0
 10
296.0902658498
 20
170.9184757512
 30
0.0
  0
SPLINE
  5
7D5
100
AcDbEntity
  8
KONSTRUKTIONSELEMENTE
100
AcDbSpline
 62
7
  6
CONTINUOUS
 70
0
 71
3
 72
13
 73
9
 74
0
 42
0.0000001
 43
0.0000001
 44
0.0000000001
 40
0.0
 40
0.0
 40
0.0
 40
0.0
 40
0.1246963396
 40
0.2498404566
 40
0.4998337411
 40
0.7499191514
 40
0.8751969283
 40
1.0
 40
1.0
 40
1.0
 40
1.0
 10
298.5295161779
 20
177.851139069
 30
0.0
 10
298.9620355404
 20
178.3174815548
 30
0.0
 10
299.9269324159
 20
179.1661243528
 30
0.0
 10
302.1498238671
 20
180.4421944659
 30
0.0
 10
305.3461394581
 20
181.1714653701
 30
0.0
 10
308.5772849955
 20
180.6136084343
 30
0.0
 10
310.8672110161
 20
179.4586464349
 30
0.0
 10
311.8781516903
 20
178.6635104171
 30
0.0
 10
312.3360187631
 20
178.2212447865
 30
0.0
  0
SPLINE
  5
7D6
100
AcDbEntity
  8
KONSTRUKTIONSELEMENTE
100
AcDbSpline
 62
7
  6
CONTINUOUS
 70
0
 71
3
 72
21
 73
17
 74
0
 42
0.0000001
 43
0.0000001
 44
0.0000000001
 40
0.0
 40
0.0
 40
0.0
 40
0.0
 40
0.0294220707
 40
0.0723221796
 40
0.128270212
 40
0.1957493625
 40
0.3569194901
 40
0.5354427485
 40
0.7081562347
 40
0.7852637376
 40
0.8528295098
 40
0.9088459223
 40
0.951807463
 40
0.968259586
 40
0.9814568991
 40
1.0
 40
1.0
 40
1.0
 40
1.0
 10
316.7509812829
 20
173.8959612978
 30
0.0
 10
316.7509812829
 20
173.8458108037
 30
0.0
 10
316.7178310744
 20
173.7242289367
 30
0.0
 10
316.6257721537
 20
173.5263774121
 30
0.0
 10
316.4795108959
 20
173.2826694576
 30
0.0
 10
316.2024595756
 20
172.8843995999
 30
0.0
 10
315.7628288257
 20
172.3459969593
 30
0.0
 10
315.1659828741
 20
171.7077817454
 30
0.0
 10
314.6335121945
 20
171.207120793
 30
0.0
 10
314.2171841939
 20
170.8614241268
 30
0.0
 10
313.943180695
 20
170.6562771641
 30
0.0
 10
313.7046618956
 20
170.501892711
 30
0.0
 10
313.5294263104
 20
170.4111928251
 30
0.0
 10
313.4110938729
 20
170.3722487459
 30
0.0
 10
313.3312791165
 20
170.3574842532
 30
0.0
 10
313.2710456696
 20
170.3679026726
 30
0.0
 10
313.2478396886
 20
170.3893616984
 30
0.0
  0
SPLINE
  5
7D7
100
AcDbEntity
  8
KONSTRUKTIONSELEMENTE
100
AcDbSpline
 62
7
  6
CONTINUOUS
 70
0
 71
3
 72
14
 73
10
 74
0
 42
0.0000001
 43
0.0000001
 44
0.0000000001
 40
0.0
 40
0.0
 40
0.0
 40
0.0
 40
0.2479002329
 40
0.3612118633
 40
0.4721190687
 40
0.5867536955
 40
0.7119428874
 40
0.8511057378
 40
1.0
 40
1.0
 40
1.0
 40
1.0
 10
278.8817432031
 20
206.4223863977
 30
0.0
 10
278.2148640649
 20
206.8176126693
 30
0.0
 10
277.2186336405
 20
207.3571468998
 30
0.0
 10
275.8496791391
 20
207.9139300348
 30
0.0
 10
274.8319565383
 20
208.216882581
 30
0.0
 10
273.7434994278
 20
208.3849683033
 30
0.0
 10
272.5494083626
 20
208.3380781463
 30
0.0
 10
271.2965341054
 20
207.9586884764
 30
0.0
 10
270.5392874679
 20
207.4362756664
 30
0.0
 10
270.2043033525
 20
207.112903474
 30
0.0
  0
SPLINE
  5
7D8
100
AcDbEntity
  8
KONSTRUKTIONSELEMENTE
100
AcDbSpline
 62
7
  6
CONTINUOUS
 70
0
 71
3
 72
17
 73
13
 74
0
 42
0.0000001
 43
0.0000001
 44
0.0000000001
 40
0.0
 40
0.0
 40
0.0
 40
0.0
 40
0.1665904769
 40
0.3220875148
 40
0.4627581109
 40
0.5860316404
 40
0.6917370756
 40
0.7849276447
 40
0.8315020862
 40
0.8821153218
 40
0.9388212077
 40
1.0
 40
1.0
 40
1.0
 40
1.0
 10
287.3522954021
 20
178.3062285354
 30
0.0
 10
288.3341209751
 20
177.3751812122
 30
0.0
 10
290.2622016861
 20
175.606127731
 30
0.0
 10
293.1259468341
 20
173.1701418093
 30
0.0
 10
295.8178092119
 20
171.0800638744
 30
0.0
 10
298.2935242379
 20
169.3766195329
 30
0.0
 10
300.5651367327
 20
168.0727990903
 30
0.0
 10
302.4233412696
 20
167.3123670384
 30
0.0
 10
303.9474166684
 20
167.0165358557
 30
0.0
 10
305.208088409
 20
167.0173250791
 30
0.0
 10
306.5480852895
 20
167.3797385642
 30
0.0
 10
307.3615584504
 20
167.9276172013
 30
0.0
 10
307.7190662121
 20
168.272732278
 30
0.0
  0
SPLINE
  5
7D9
100
AcDbEntity
  8
KONSTRUKTIONSELEMENTE
100
AcDbSpline
 62
7
  6
CONTINUOUS
 70
0
 71
3
 72
15
 73
11
 74
0
 42
0.0000001
 43
0.0000001
 44
0.0000000001
 40
0.0
 40
0.0
 40
0.0
 40
0.0
 40
0.1102229893
 40
0.1527872123
 40
0.1727964833
 40
0.2483278758
 40
0.3734146022
 40
0.5432949048
 40
0.7534214078
 40
1.0
 40
1.0
 40
1.0
 40
1.0
 10
275.8437960864
 20
203.6816908036
 30
0.0
 10
275.8454675531
 20
203.7198397833
 30
0.0
 10
275.8491157855
 20
203.7474217258
 30
0.0
 10
275.8376664672
 20
203.8581758276
 30
0.0
 10
275.8483720124
 20
203.7927913378
 30
0.0
 10
275.8636690975
 20
203.7317667045
 30
0.0
 10
275.9003794177
 20
203.6006375913
 30
0.0
 10
275.9548472802
 20
203.4377732276
 30
0.0
 10
276.0308314463
 20
203.2330629789
 30
0.0
 10
276.0911780059
 20
203.0871259639
 30
0.0
 10
276.1248107206
 20
203.0086008741
 30
0.0
  0
SPLINE
  5
7DA
100
AcDbEntity
  8
KONSTRUKTIONSELEMENTE
100
AcDbSpline
 62
7
  6
CONTINUOUS
 70
0
 71
3
 72
9
 73
5
 74
0
 42
0.0000001
 43
0.0000001
 44
0.0000000001
 40
0.0
 40
0.0
 40
0.0
 40
0.0
 40
0.4771481899
 40
1.0
 40
1.0
 40
1.0
 40
1.0
 10
298.2796514371
 20
178.0493078424
 30
0.0
 10
297.5879782429
 20
178.9881159717
 30
0.0
 10
296.0872205226
 20
180.9181113344
 30
0.0
 10
294.5118072754
 20
182.787181579
 30
0.0
 10
293.6718343445
 20
183.7500860817
 30
0.0
  0
SPLINE
  5
7DB
100
AcDbEntity
  8
KONSTRUKTIONSELEMENTE
100
AcDbSpline
 62
7
  6
CONTINUOUS
 70
0
 71
3
 72
14
 73
10
 74
0
 42
0.0000001
 43
0.0000001
 44
0.0000000001
 40
0.0
 40
0.0
 40
0.0
 40
0.0
 40
0.1487404688
 40
0.2875750519
 40
0.4123541879
 40
0.5266639648
 40
0.6374661507
 40
0.7509942026
 40
1.0
 40
1.0
 40
1.0
 40
1.0
 10
270.2043033525
 20
207.112903474
 30
0.0
 10
269.8658020808
 20
206.7861360443
 30
0.0
 10
269.3130729841
 20
206.0388336131
 30
0.0
 10
268.8919706882
 20
204.7862548254
 30
0.0
 10
268.8094346084
 20
203.5835574474
 30
0.0
 10
268.948191544
 20
202.4808526085
 30
0.0
 10
269.2240929384
 20
201.4435348963
 30
0.0
 10
269.7471054393
 20
200.0389920275
 30
0.0
 10
270.2637427018
 20
199.011378075
 30
0.0
 10
270.6442854342
 20
198.3217620654
 30
0.0
  0
SPLINE
  5
7DC
100
AcDbEntity
  8
KONSTRUKTIONSELEMENTE
100
AcDbSpline
 62
7
  6
CONTINUOUS
 70
0
 71
3
 72
14
 73
10
 74
0
 42
0.0000001
 43
0.0000001
 44
0.0000000001
 40
0.0
 40
0.0
 40
0.0
 40
0.0
 40
0.3474108623
 40
0.5045669118
 40
0.6469811233
 40
0.7717448826
 40
0.8755670802
 40
0.9540778989
 40
1.0
 40
1.0
 40
1.0
 40
1.0
 10
292.7393468765
 20
182.8483933028
 30
0.0
 10
293.9909237289
 20
181.6778328617
 30
0.0
 10
295.847179034
 20
180.0175313804
 30
0.0
 10
298.3182224898
 20
177.9973272061
 30
0.0
 10
299.9829666503
 20
176.7276826482
 30
0.0
 10
301.4827774277
 20
175.6782639887
 30
0.0
 10
302.7680292159
 20
174.8740615723
 30
0.0
 10
303.7629362904
 20
174.3462142879
 30
0.0
 10
304.3311873693
 20
174.1076352766
 30
0.0
 10
304.5485778325
 20
174.043977507
 30
0.0
  0
SPLINE
  5
7DD
100
AcDbEntity
  8
KONSTRUKTIONSELEMENTE
100
AcDbSpline
 62
7
  6
CONTINUOUS
 70
0
 71
3
 72
12
 73
8
 74
0
 42
0.0000001
 43
0.0000001
 44
0.0000000001
 40
0.0
 40
0.0
 40
0.0
 40
0.0
 40
0.1499009536
 40
0.2935594572
 40
0.5479540344
 40
0.7732527962
 40
1.0
 40
1.0
 40
1.0
 40
1.0
 10
307.7190662121
 20
168.272732278
 30
0.0
 10
307.982086625
 20
168.5266353249
 30
0.0
 10
308.4345932848
 20
169.0934666012
 30
0.0
 10
308.9941382231
 20
170.319403416
 30
0.0
 10
309.1622404694
 20
171.8691445307
 30
0.0
 10
308.8396379267
 20
173.5733765353
 30
0.0
 10
308.4565284802
 20
174.61078111
 30
0.0
 10
308.2392284309
 20
175.1192860707
 30
0.0
  0
SPLINE
  5
7DE
100
AcDbEntity
  8
KONSTRUKTIONSELEMENTE
100
AcDbSpline
 62
7
  6
CONTINUOUS
 70
0
 71
3
 72
9
 73
5
 74
0
 42
0.0000001
 43
0.0000001
 44
0.0000000001
 40
0.0
 40
0.0
 40
0.0
 40
0.0
 40
0.4727721539
 40
1.0
 40
1.0
 40
1.0
 40
1.0
 10
304.8645448394
 20
180.8805675891
 30
0.0
 10
303.9216111952
 20
182.2279504516
 30
0.0
 10
301.8161590783
 20
185.0004017534
 30
0.0
 10
299.5673430684
 20
187.656030916
 30
0.0
 10
298.3514472554
 20
189.0290160223
 30
0.0
  0
SPLINE
  5
7DF
100
AcDbEntity
  8
0
100
AcDbSpline
 62
7
  6
CONTINUOUS
 70
0
 71
3
 72
10
 73
6
 74
0
 42
0.0000001
 43
0.0000001
 44
0.0000000001
 40
0.0
 40
0.0
 40
0.0
 40
0.0
 40
0.2390100379
 40
0.4878383095
 40
1.0
 40
1.0
 40
1.0
 40
1.0
 10
242.1172781121
 20
91.7706682924
 30
0.0
 10
242.7333221095
 20
91.4565447485
 30
0.0
 10
244.044845258
 20
90.9185487331
 30
0.0
 10
246.8442106146
 20
90.1702644056
 30
0.0
 10
249.0567828918
 20
89.9572369096
 30
0.0
 10
250.53857877
 20
89.9572369096
 30
0.0
  0
SPLINE
  5
7E0
100
AcDbEntity
  8
0
100
AcDbSpline
 62
7
  6
CONTINUOUS
 70
0
 71
3
 72
11
 73
7
 74
0
 42
0.0000001
 43
0.0000001
 44
0.0000000001
 40
0.0
 40
0.0
 40
0.0
 40
0.0
 40
0.2513517818
 40
0.5016718466
 40
0.7510916515
 40
1.0
 40
1.0
 40
1.0
 40
1.0
 10
242.1172836817
 20
91.7706736046
 30
0.0
 10
240.6646738734
 20
92.5114135295
 30
0.0
 10
237.9492425313
 20
94.3883996728
 30
0.0
 10
234.7954966295
 20
98.1798771529
 30
0.0
 10
232.7951814109
 20
102.6717111448
 30
0.0
 10
232.33857877
 20
105.9223642408
 30
0.0
 10
232.33857877
 20
107.537086948
 30
0.0
  0
SPLINE
  5
7E1
100
AcDbEntity
  8
RUNDUNGEN
100
AcDbSpline
 62
7
  6
CONTINUOUS
 70
0
 71
3
 72
10
 73
6
 74
0
 42
0.0000001
 43
0.0000001
 44
0.0000000001
 40
0.0
 40
0.0
 40
0.0
 40
0.0
 40
0.2390100379
 40
0.4878383095
 40
1.0
 40
1.0
 40
1.0
 40
1.0
 10
261.5598794279
 20
91.7706682924
 30
0.0
 10
260.9438354306
 20
91.4565447485
 30
0.0
 10
259.6323122821
 20
90.9185487331
 30
0.0
 10
256.8329469254
 20
90.1702644056
 30
0.0
 10
254.6203746482
 20
89.9572369096
 30
0.0
 10
253.13857877
 20
89.9572369096
 30
0.0
  0
SPLINE
  5
7E2
100
AcDbEntity
  8
RUNDUNGEN
100
AcDbSpline
 62
7
  6
CONTINUOUS
 70
0
 71
3
 72
11
 73
7
 74
0
 42
0.0000001
 43
0.0000001
 44
0.0000000001
 40
0.0
 40
0.0
 40
0.0
 40
0.0
 40
0.2513517818
 40
0.5016718466
 40
0.7510916515
 40
1.0
 40
1.0
 40
1.0
 40
1.0
 10
261.5598738584
 20
91.7706736046
 30
0.0
 10
263.0124836666
 20
92.5114135295
 30
0.0
 10
265.7279150087
 20
94.3883996728
 30
0.0
 10
268.8816609106
 20
98.1798771529
 30
0.0
 10
270.8819761291
 20
102.6717111448
 30
0.0
 10
271.33857877
 20
105.9223642408
 30
0.0
 10
271.33857877
 20
107.537086948
 30
0.0
  0
SPLINE
  5
7E3
100
AcDbEntity
  8
BEZUGSACHSEN
100
AcDbSpline
 62
7
  6
CONTINUOUS
 70
0
 71
3
 72
19
 73
15
 74
0
 42
0.0000001
 43
0.0000001
 44
0.0000000001
 40
0.0
 40
0.0
 40
0.0
 40
0.0
 40
0.0615778188
 40
0.1233173652
 40
0.1853624895
 40
0.2478005785
 40
0.3733221741
 40
0.5
 40
0.6266778259
 40
0.7521994215
 40
0.8146375105
 40
0.8766826348
 40
0.9384221812
 40
1.0
 40
1.0
 40
1.0
 40
1.0
 10
242.58857877
 20
128.2277446591
 30
0.0
 10
242.58857877
 20
127.6436887076
 30
0.0
 10
242.7082328489
 20
126.4705723702
 30
0.0
 10
243.2391816174
 20
124.7825997378
 30
0.0
 10
244.1015235947
 20
123.2269535226
 30
0.0
 10
245.645561807
 20
121.4100670579
 30
0.0
 10
248.2243104346
 20
119.7510449477
 30
0.0
 10
251.83857877
 20
119.0628646889
 30
0.0
 10
255.4528471055
 20
119.7510449477
 30
0.0
 10
258.031595733
 20
121.4100670579
 30
0.0
 10
259.5756339453
 20
123.2269535226
 30
0.0
 10
260.4379759226
 20
124.7825997378
 30
0.0
 10
260.9689246912
 20
126.4705723702
 30
0.0
 10
261.08857877
 20
127.6436887076
 30
0.0
 10
261.08857877
 20
128.2277446591
 30
0.0
  0
SPLINE
  5
7E4
100
AcDbEntity
  8
KONSTRUKTIONSELEMENTE
100
AcDbSpline
 62
7
  6
CONTINUOUS
 70
0
 71
3
 72
13
 73
9
 74
0
 42
0.0000001
 43
0.0000001
 44
0.0000000001
 40
0.0
 40
0.0
 40
0.0
 40
0.0
 40
0.1120314022
 40
0.2284886538
 40
0.3494823057
 40
0.474756652
 40
0.7342768957
 40
1.0
 40
1.0
 40
1.0
 40
1.0
 10
271.33857877
 20
121.2900538311
 30
0.0
 10
271.33857877
 20
120.2769467793
 30
0.0
 10
271.1107054717
 20
118.2046164641
 30
0.0
 10
270.10867531
 20
115.1845954526
 30
0.0
 10
268.4543381283
 20
112.3256089082
 30
0.0
 10
265.4151913469
 20
108.8731774246
 30
0.0
 10
260.3111370538
 20
105.6682371289
 30
0.0
 10
255.5408867454
 20
104.7076636851
 30
0.0
 10
253.13857877
 20
104.6520841985
 30
0.0
  0
SPLINE
  5
7E5
100
AcDbEntity
  8
0
100
AcDbSpline
 62
7
  6
CONTINUOUS
 70
0
 71
3
 72
8
 73
4
 74
0
 42
0.0000001
 43
0.0000001
 44
0.0000000001
 40
0.0
 40
0.0
 40
0.0
 40
0.0
 40
1.0
 40
1.0
 40
1.0
 40
1.0
 10
232.33857877
 20
140.7773474523
 30
0.0
 10
232.33857877
 20
140.8526597596
 30
0.0
 10
232.3642042518
 20
140.9312464764
 30
0.0
 10
232.4084053889
 20
140.9922235466
 30
0.0
  0
SPLINE
  5
7E6
100
AcDbEntity
  8
RUNDUNGEN
100
AcDbSpline
 62
7
  6
CONTINUOUS
 70
0
 71
3
 72
8
 73
4
 74
0
 42
0.0000001
 43
0.0000001
 44
0.0000000001
 40
0.0
 40
0.0
 40
0.0
 40
0.0
 40
1.0
 40
1.0
 40
1.0
 40
1.0
 10
271.33857877
 20
140.7773474523
 30
0.0
 10
271.33857877
 20
140.8526597596
 30
0.0
 10
271.3129532882
 20
140.9312464764
 30
0.0
 10
271.2687521511
 20
140.9922235466
 30
0.0
  0
SPLINE
  5
7E7
100
AcDbEntity
  8
0
100
AcDbSpline
 62
7
  6
CONTINUOUS
 70
0
 71
3
 72
13
 73
9
 74
0
 42
0.0000001
 43
0.0000001
 44
0.0000000001
 40
0.0
 40
0.0
 40
0.0
 40
0.0
 40
0.1120314022
 40
0.2284886538
 40
0.3494823057
 40
0.474756652
 40
0.7342768957
 40
1.0
 40
1.0
 40
1.0
 40
1.0
 10
232.33857877
 20
121.2900538311
 30
0.0
 10
232.33857877
 20
120.2769467793
 30
0.0
 10
232.5664520684
 20
118.2046164641
 30
0.0
 10
233.5684822301
 20
115.1845954526
 30
0.0
 10
235.2228194117
 20
112.3256089082
 30
0.0
 10
238.2619661932
 20
108.8731774246
 30
0.0
 10
243.3660204863
 20
105.6682371289
 30
0.0
 10
248.1362707946
 20
104.7076636851
 30
0.0
 10
250.53857877
 20
104.6520841985
 30
0.0
  0
SPLINE
  5
7E8
100
AcDbEntity
  8
BEZUGSACHSEN
100
AcDbSpline
 62
7
  6
CONTINUOUS
 70
0
 71
3
 72
19
 73
15
 74
0
 42
0.0000001
 43
0.0000001
 44
0.0000000001
 40
0.0
 40
0.0
 40
0.0
 40
0.0
 40
0.0615778188
 40
0.1233173652
 40
0.1853624895
 40
0.2478005785
 40
0.3733221741
 40
0.5
 40
0.6266778259
 40
0.7521994215
 40
0.8146375105
 40
0.8766826348
 40
0.9384221812
 40
1.0
 40
1.0
 40
1.0
 40
1.0
 10
261.08857877
 20
128.2277446591
 30
0.0
 10
261.08857877
 20
128.8118006107
 30
0.0
 10
260.9689246912
 20
129.984916948
 30
0.0
 10
260.4379759226
 20
131.6728895805
 30
0.0
 10
259.5756339453
 20
133.2285357956
 30
0.0
 10
258.031595733
 20
135.0454222603
 30
0.0
 10
255.4528471055
 20
136.7044443706
 30
0.0
 10
251.83857877
 20
137.3926246294
 30
0.0
 10
248.2243104346
 20
136.7044443706
 30
0.0
 10
245.645561807
 20
135.0454222603
 30
0.0
 10
244.1015235947
 20
133.2285357956
 30
0.0
 10
243.2391816174
 20
131.6728895805
 30
0.0
 10
242.7082328489
 20
129.984916948
 30
0.0
 10
242.58857877
 20
128.8118006107
 30
0.0
 10
242.58857877
 20
128.2277446591
 30
0.0
  0
SPLINE
  5
7E9
100
AcDbEntity
  8
0
100
AcDbSpline
 62
7
  6
CONTINUOUS
 70
0
 71
3
 72
9
 73
5
 74
0
 42
0.0000001
 43
0.0000001
 44
0.0000000001
 40
0.0
 40
0.0
 40
0.0
 40
0.0
 40
0.5000000006
 40
1.0
 40
1.0
 40
1.0
 40
1.0
 10
255.1702969549
 20
205.6205421485
 30
0.0
 10
255.5928673084
 20
202.3299173502
 30
0.0
 10
256.0451843758
 20
195.6887675804
 30
0.0
 10
255.5928673074
 20
189.0476178108
 30
0.0
 10
255.1702969549
 20
185.7569930206
 30
0.0
  0
SPLINE
  5
7EA
100
AcDbEntity
  8
0
100
AcDbSpline
 62
7
  6
CONTINUOUS
 70
0
 71
3
 72
9
 73
5
 74
0
 42
0.0000001
 43
0.0000001
 44
0.0000000001
 40
0.0
 40
0.0
 40
0.0
 40
0.0
 40
0.5000000006
 40
1.0
 40
1.0
 40
1.0
 40
1.0
 10
255.1702969549
 20
217.0887675846
 30
0.0
 10
255.5879373538
 20
215.2110891602
 30
0.0
 10
256.0501143304
 20
211.3546548641
 30
0.0
 10
255.5879373527
 20
207.4982205683
 30
0.0
 10
255.1702969549
 20
205.6205421485
 30
0.0
  0
SPLINE
  5
7EB
100
AcDbEntity
  8
0
100
AcDbSpline
 62
7
  6
CONTINUOUS
 70
0
 71
3
 72
13
 73
9
 74
0
 42
0.0000001
 43
0.0000001
 44
0.0000000001
 40
0.0
 40
0.0
 40
0.0
 40
0.0
 40
0.0534104136
 40
0.1290200267
 40
0.2292800029
 40
0.3525017855
 40
0.6537402166
 40
1.0
 40
1.0
 40
1.0
 40
1.0
 10
232.4084053889
 20
140.9922235466
 30
0.0
 10
232.4721546355
 20
141.0801679421
 30
0.0
 10
232.7074524919
 20
141.2261245843
 30
0.0
 10
233.1636526072
 20
141.3263291294
 30
0.0
 10
233.7735023588
 20
141.3606420152
 30
0.0
 10
234.8400350669
 20
141.303349031
 30
0.0
 10
236.3899843744
 20
141.0424617479
 30
0.0
 10
237.6649470996
 20
140.7080883211
 30
0.0
 10
238.33857877
 20
140.5029302639
 30
0.0
  0
SPLINE
  5
7EC
100
AcDbEntity
  8
BEZUGSACHSEN
100
AcDbSpline
 62
7
  6
CONTINUOUS
 70
0
 71
3
 72
19
 73
15
 74
0
 42
0.0000001
 43
0.0000001
 44
0.0000000001
 40
0.0
 40
0.0
 40
0.0
 40
0.0
 40
0.0615637168
 40
0.1233167015
 40
0.1853986847
 40
0.2478631715
 40
0.3734162268
 40
0.5
 40
0.6265837732
 40
0.7521368285
 40
0.8146013153
 40
0.8766832985
 40
0.9384362832
 40
1.0
 40
1.0
 40
1.0
 40
1.0
 10
261.0435286538
 20
128.4347590038
 30
0.0
 10
260.9876474075
 20
128.9800587075
 30
0.0
 10
260.7709279796
 20
130.064469798
 30
0.0
 10
260.1440558586
 20
131.6016259317
 30
0.0
 10
259.2363587362
 20
133.0021108926
 30
0.0
 10
257.6945869845
 20
134.6236762671
 30
0.0
 10
255.2276159279
 20
136.0871892229
 30
0.0
 10
251.83857877
 20
136.6916715141
 30
0.0
 10
248.4495416122
 20
136.0871892229
 30
0.0
 10
245.9825705555
 20
134.6236762671
 30
0.0
 10
244.4407988038
 20
133.0021108926
 30
0.0
 10
243.5331016814
 20
131.6016259317
 30
0.0
 10
242.9062295605
 20
130.064469798
 30
0.0
 10
242.6895101325
 20
128.9800587075
 30
0.0
 10
242.6336288862
 20
128.4347590038
 30
0.0
  0
SPLINE
  5
7ED
100
AcDbEntity
  8
KONSTRUKTIONSELEMENTE
100
AcDbSpline
 62
7
  6
CONTINUOUS
 70
0
 71
3
 72
15
 73
11
 74
0
 42
0.0000001
 43
0.0000001
 44
0.0000000001
 40
0.0
 40
0.0
 40
0.0
 40
0.0
 40
0.1247880654
 40
0.2495804245
 40
0.3744150683
 40
0.4993275685
 40
0.6243611639
 40
0.7495233807
 40
0.8747730249
 40
1.0
 40
1.0
 40
1.0
 40
1.0
 10
253.13857877
 20
91.309170417
 30
0.0
 10
254.247381058
 20
91.2835173107
 30
0.0
 10
256.4757513068
 20
91.4433950852
 30
0.0
 10
259.7080520235
 20
92.3125947892
 30
0.0
 10
262.7187257978
 20
93.780225072
 30
0.0
 10
265.3986925467
 20
95.791841287
 30
0.0
 10
267.6564780236
 20
98.2712155082
 30
0.0
 10
269.4205541806
 20
101.1259198544
 30
0.0
 10
270.6432461258
 20
104.2507757743
 30
0.0
 10
271.0833999509
 20
106.4462004924
 30
0.0
 10
271.2095152654
 20
107.5520322434
 30
0.0
  0
SPLINE
  5
7EE
100
AcDbEntity
  8
0
100
AcDbSpline
 62
7
  6
CONTINUOUS
 70
0
 71
3
 72
20
 73
16
 74
0
 42
0.0000001
 43
0.0000001
 44
0.0000000001
 40
0.0
 40
0.0
 40
0.0
 40
0.0
 40
0.2532674299
 40
0.3795173608
 40
0.5047046886
 40
0.5669050968
 40
0.6287215934
 40
0.6901357528
 40
0.7511762438
 40
0.8120168076
 40
0.8427182695
 40
0.8736845401
 40
0.9049873693
 40
0.9365825082
 40
1.0
 40
1.0
 40
1.0
 40
1.0
 10
250.5385815823
 20
106.0040177059
 30
0.0
 10
248.8037143225
 20
106.0040174043
 30
0.0
 10
246.1725455405
 20
106.4244802236
 30
0.0
 10
243.0091686468
 20
107.8551716779
 30
0.0
 10
241.2538128737
 20
109.1303810048
 30
0.0
 10
240.0817005782
 20
110.3776673085
 30
0.0
 10
239.3509929242
 20
111.4229969769
 30
0.0
 10
238.8127604643
 20
112.5733790394
 30
0.0
 10
238.5329530206
 20
113.8090428037
 30
0.0
 10
238.6104065454
 20
114.8768493083
 30
0.0
 10
238.9341656234
 20
115.6591428854
 30
0.0
 10
239.3221335211
 20
116.1738807665
 30
0.0
 10
239.8395604579
 20
116.5686697654
 30
0.0
 10
240.6432599849
 20
116.9080756258
 30
0.0
 10
241.3043146625
 20
116.9747087829
 30
0.0
 10
241.7387208166
 20
116.9747087829
 30
0.0
  0
SPLINE
  5
7EF
100
AcDbEntity
  8
RUNDUNGEN
100
AcDbSpline
 62
7
  6
CONTINUOUS
 70
0
 71
3
 72
20
 73
16
 74
0
 42
0.0000001
 43
0.0000001
 44
0.0000000001
 40
0.0
 40
0.0
 40
0.0
 40
0.0
 40
0.2532674299
 40
0.3795173608
 40
0.5047046886
 40
0.5669050968
 40
0.6287215934
 40
0.6901357528
 40
0.7511762438
 40
0.8120168076
 40
0.8427182695
 40
0.8736845401
 40
0.9049873693
 40
0.9365825082
 40
1.0
 40
1.0
 40
1.0
 40
1.0
 10
253.1385759577
 20
106.0040177059
 30
0.0
 10
254.8734432175
 20
106.0040174043
 30
0.0
 10
257.5046119995
 20
106.4244802236
 30
0.0
 10
260.6679888933
 20
107.8551716779
 30
0.0
 10
262.4233446664
 20
109.1303810048
 30
0.0
 10
263.5954569618
 20
110.3776673085
 30
0.0
 10
264.3261646158
 20
111.4229969769
 30
0.0
 10
264.8643970757
 20
112.5733790394
 30
0.0
 10
265.1442045195
 20
113.8090428037
 30
0.0
 10
265.0667509947
 20
114.8768493083
 30
0.0
 10
264.7429919166
 20
115.6591428854
 30
0.0
 10
264.3550240189
 20
116.1738807665
 30
0.0
 10
263.8375970821
 20
116.5686697654
 30
0.0
 10
263.0338975552
 20
116.9080756258
 30
0.0
 10
262.3728428775
 20
116.9747087829
 30
0.0
 10
261.9384367234
 20
116.9747087829
 30
0.0
  0
SPLINE
  5
7F0
100
AcDbEntity
  8
0
100
AcDbSpline
 62
7
  6
CONTINUOUS
 70
0
 71
3
 72
13
 73
9
 74
0
 42
0.0000001
 43
0.0000001
 44
0.0000000001
 40
0.0
 40
0.0
 40
0.0
 40
0.0
 40
0.3462597834
 40
0.6474982145
 40
0.7707199971
 40
0.8709799733
 40
0.9465895864
 40
1.0
 40
1.0
 40
1.0
 40
1.0
 10
243.83857877
 20
148.090098003
 30
0.0
 10
243.1649470996
 20
148.2952560602
 30
0.0
 10
241.8899843744
 20
148.629629487
 30
0.0
 10
240.3400350669
 20
148.8905167701
 30
0.0
 10
239.2735023588
 20
148.9478097543
 30
0.0
 10
238.6636526072
 20
148.9134968685
 30
0.0
 10
238.2074524919
 20
148.8132923235
 30
0.0
 10
237.9721546355
 20
148.6673356813
 30
0.0
 10
237.9084053889
 20
148.5793912858
 30
0.0
  0
SPLINE
  5
7F1
100
AcDbEntity
  8
0
100
AcDbSpline
 62
7
  6
CONTINUOUS
 70
0
 71
3
 72
13
 73
9
 74
0
 42
0.0000001
 43
0.0000001
 44
0.0000000001
 40
0.0
 40
0.0
 40
0.0
 40
0.0
 40
0.1243404892
 40
0.2494444692
 40
0.5
 40
0.7505555308
 40
0.8756595108
 40
1.0
 40
1.0
 40
1.0
 40
1.0
 10
241.3496899868
 20
107.1090089441
 30
0.0
 10
242.0392351095
 20
106.447861799
 30
0.0
 10
243.557358647
 20
105.2541425813
 30
0.0
 10
246.991786187
 20
103.4916088307
 30
0.0
 10
251.83857877
 20
102.5626060852
 30
0.0
 10
256.685371353
 20
103.4916088307
 30
0.0
 10
260.119798893
 20
105.2541425813
 30
0.0
 10
261.6379224305
 20
106.447861799
 30
0.0
 10
262.3274675532
 20
107.1090089441
 30
0.0
  0
SPLINE
  5
7F2
100
AcDbEntity
  8
RUNDUNGEN
100
AcDbSpline
 62
7
  6
CONTINUOUS
 70
0
 71
3
 72
13
 73
9
 74
0
 42
0.0000001
 43
0.0000001
 44
0.0000000001
 40
0.0
 40
0.0
 40
0.0
 40
0.0
 40
0.0534104136
 40
0.1290200267
 40
0.2292800029
 40
0.3525017855
 40
0.6537402166
 40
1.0
 40
1.0
 40
1.0
 40
1.0
 10
271.2687521511
 20
140.9922235466
 30
0.0
 10
271.2050029045
 20
141.0801679421
 30
0.0
 10
270.9697050482
 20
141.2261245843
 30
0.0
 10
270.5135049328
 20
141.3263291294
 30
0.0
 10
269.9036551813
 20
141.3606420152
 30
0.0
 10
268.8371224731
 20
141.303349031
 30
0.0
 10
267.2871731657
 20
141.0424617479
 30
0.0
 10
266.0122104404
 20
140.7080883211
 30
0.0
 10
265.33857877
 20
140.5029302639
 30
0.0
  0
SPLINE
  5
7F3
100
AcDbEntity
  8
0
100
AcDbSpline
 62
7
  6
CONTINUOUS
 70
0
 71
3
 72
15
 73
11
 74
0
 42
0.0000001
 43
0.0000001
 44
0.0000000001
 40
0.0
 40
0.0
 40
0.0
 40
0.0
 40
0.1247864889
 40
0.2495786939
 40
0.3744233655
 40
0.4993675364
 40
0.6244502772
 40
0.7496647196
 40
0.8749153133
 40
1.0
 40
1.0
 40
1.0
 40
1.0
 10
250.53857877
 20
91.309170417
 30
0.0
 10
249.3352334677
 20
91.2813299757
 30
0.0
 10
246.91525199
 20
91.4746636801
 30
0.0
 10
243.4278067892
 20
92.5049091762
 30
0.0
 10
240.2242606153
 20
94.2317052258
 30
0.0
 10
237.4406226788
 20
96.5791490966
 30
0.0
 10
235.186741251
 20
99.4425502826
 30
0.0
 10
233.5428269433
 20
102.6969370881
 30
0.0
 10
232.5541935168
 20
106.2036013974
 30
0.0
 10
232.33857877
 20
108.624357185
 30
0.0
 10
232.33857877
 20
109.8309008613
 30
0.0
  0
SPLINE
  5
7F4
100
AcDbEntity
  8
RUNDUNGEN
100
AcDbSpline
 62
7
  6
CONTINUOUS
 70
0
 71
3
 72
13
 73
9
 74
0
 42
0.0000001
 43
0.0000001
 44
0.0000000001
 40
0.0
 40
0.0
 40
0.0
 40
0.0
 40
0.3462597834
 40
0.6474982145
 40
0.7707199971
 40
0.8709799733
 40
0.9465895864
 40
1.0
 40
1.0
 40
1.0
 40
1.0
 10
259.83857877
 20
148.090098003
 30
0.0
 10
260.5122104404
 20
148.2952560602
 30
0.0
 10
261.7871731657
 20
148.629629487
 30
0.0
 10
263.3371224731
 20
148.8905167701
 30
0.0
 10
264.4036551813
 20
148.9478097543
 30
0.0
 10
265.0135049328
 20
148.9134968685
 30
0.0
 10
265.4697050482
 20
148.8132923235
 30
0.0
 10
265.7050029045
 20
148.6673356813
 30
0.0
 10
265.7687521511
 20
148.5793912858
 30
0.0
  0
SPLINE
  5
7F5
100
AcDbEntity
  8
0
100
AcDbSpline
 62
7
  6
CONTINUOUS
 70
0
 71
3
 72
9
 73
5
 74
0
 42
0.0000001
 43
0.0000001
 44
0.0000000001
 40
0.0
 40
0.0
 40
0.0
 40
0.0
 40
0.5000000006
 40
1.0
 40
1.0
 40
1.0
 40
1.0
 10
248.5068605851
 20
217.0887675846
 30
0.0
 10
248.0892201863
 20
215.2110891602
 30
0.0
 10
247.6270432096
 20
211.3546548641
 30
0.0
 10
248.0892201873
 20
207.4982205683
 30
0.0
 10
248.5068605851
 20
205.6205421485
 30
0.0
  0
SPLINE
  5
7F6
100
AcDbEntity
  8
0
100
AcDbSpline
 62
7
  6
CONTINUOUS
 70
0
 71
3
 72
9
 73
5
 74
0
 42
0.0000001
 43
0.0000001
 44
0.0000000001
 40
0.0
 40
0.0
 40
0.0
 40
0.0
 40
0.5000000006
 40
1.0
 40
1.0
 40
1.0
 40
1.0
 10
248.5068605851
 20
205.6205421485
 30
0.0
 10
248.0842902316
 20
202.3299173502
 30
0.0
 10
247.6319731643
 20
195.6887675804
 30
0.0
 10
248.0842902327
 20
189.0476178108
 30
0.0
 10
248.5068605851
 20
185.7569930206
 30
0.0
  0
SPLINE
  5
7F7
100
AcDbEntity
  8
BEZUGSACHSEN
100
AcDbSpline
 62
7
  6
CONTINUOUS
 70
0
 71
3
 72
16
 73
12
 74
0
 42
0.0000001
 43
0.0000001
 44
0.0000000001
 40
0.0
 40
0.0
 40
0.0
 40
0.0
 40
0.3548296985
 40
0.5222347141
 40
0.6725064419
 40
0.7989201634
 40
0.8514914073
 40
0.8963100518
 40
0.9331359085
 40
0.9620620535
 40
1.0
 40
1.0
 40
1.0
 40
1.0
 10
382.2974318521
 20
99.5289680267
 30
0.0
 10
381.7228526274
 20
100.083968939
 30
0.0
 10
380.9092204863
 20
100.9350975634
 30
0.0
 10
379.9325942653
 20
102.0925680301
 30
0.0
 10
379.3259199249
 20
102.8878559109
 30
0.0
 10
378.9130783366
 20
103.5044626086
 30
0.0
 10
378.6655772027
 20
103.9439494667
 30
0.0
 10
378.5344890233
 20
104.2158277475
 30
0.0
 10
378.4481604666
 20
104.4518638046
 30
0.0
 10
378.3961068175
 20
104.6740743824
 30
0.0
 10
378.4148661315
 20
104.8489474595
 30
0.0
 10
378.4762870175
 20
104.9083003006
 30
0.0
  0
SPLINE
  5
7F8
100
AcDbEntity
  8
0
100
AcDbSpline
 62
7
  6
CONTINUOUS
 70
0
 71
3
 72
11
 73
7
 74
0
 42
0.0000001
 43
0.0000001
 44
0.0000000001
 40
0.0
 40
0.0
 40
0.0
 40
0.0
 40
0.3289144544
 40
0.6081940373
 40
0.8326117125
 40
1.0
 40
1.0
 40
1.0
 40
1.0
 10
428.0396393083
 20
55.5362915477
 30
0.0
 10
427.6889147565
 20
55.8040409484
 30
0.0
 10
427.0297144269
 20
56.2853185066
 30
0.0
 10
426.0887493466
 20
56.8896574907
 30
0.0
 10
425.291959264
 20
57.309513887
 30
0.0
 10
424.7939068851
 20
57.491928099
 30
0.0
 10
424.5735576696
 20
57.5351838263
 30
0.0
  0
SPLINE
  5
7F9
100
AcDbEntity
  8
0
100
AcDbSpline
 62
7
  6
CONTINUOUS
 70
0
 71
3
 72
9
 73
5
 74
0
 42
0.0000001
 43
0.0000001
 44
0.0000000001
 40
0.0
 40
0.0
 40
0.0
 40
0.0
 40
0.5755211125
 40
1.0
 40
1.0
 40
1.0
 40
1.0
 10
424.5735576696
 20
57.5351838263
 30
0.0
 10
424.4447208546
 20
57.5604751809
 30
0.0
 10
424.2143438927
 20
57.5887774382
 30
0.0
 10
423.9857604026
 20
57.5005011637
 30
0.0
 10
423.9161372908
 20
57.4331943352
 30
0.0
  0
SPLINE
  5
7FA
100
AcDbEntity
  8
0
100
AcDbSpline
 62
7
  6
CONTINUOUS
 70
0
 71
3
 72
13
 73
9
 74
0
 42
0.0000001
 43
0.0000001
 44
0.0000000001
 40
0.0
 40
0.0
 40
0.0
 40
0.0
 40
0.3704485479
 40
0.6552555728
 40
0.7661428306
 40
0.857785806
 40
0.9335991113
 40
1.0
 40
1.0
 40
1.0
 40
1.0
 10
404.511413088
 20
77.9804281026
 30
0.0
 10
404.2241635044
 20
78.1516978427
 30
0.0
 10
403.7054606572
 20
78.4369095509
 30
0.0
 10
403.0615792744
 20
78.7001568289
 30
0.0
 10
402.630259184
 20
78.7932628463
 30
0.0
 10
402.3777092351
 20
78.8056105225
 30
0.0
 10
402.1675527278
 20
78.7648023608
 30
0.0
 10
402.0549581108
 20
78.6953278223
 30
0.0
 10
402.0118557327
 20
78.653666922
 30
0.0
  0
SPLINE
  5
7FB
100
AcDbEntity
  8
RUNDUNGEN
100
AcDbSpline
 62
7
  6
CONTINUOUS
 70
0
 71
3
 72
12
 73
8
 74
0
 42
0.0000001
 43
0.0000001
 44
0.0000000001
 40
0.0
 40
0.0
 40
0.0
 40
0.0
 40
0.0611670511
 40
0.1416527351
 40
0.3611634952
 40
0.6520783701
 40
1.0
 40
1.0
 40
1.0
 40
1.0
 10
453.0104580176
 20
27.6939515419
 30
0.0
 10
453.0104580176
 20
27.7724787877
 30
0.0
 10
452.9784136857
 20
27.9537198394
 30
0.0
 10
452.8230471127
 20
28.3912020279
 30
0.0
 10
452.4561189435
 20
29.0596077044
 30
0.0
 10
451.8381585305
 20
29.9720273043
 30
0.0
 10
451.3333796013
 20
30.6194719431
 30
0.0
 10
451.0505325597
 20
30.9651731335
 30
0.0
  0
SPLINE
  5
7FC
100
AcDbEntity
  8
RUNDUNGEN
100
AcDbSpline
 62
7
  6
CONTINUOUS
 70
0
 71
3
 72
11
 73
7
 74
0
 42
0.0000001
 43
0.0000001
 44
0.0000000001
 40
0.0
 40
0.0
 40
0.0
 40
0.0
 40
0.1348728247
 40
0.3687918423
 40
0.6717877543
 40
1.0
 40
1.0
 40
1.0
 40
1.0
 10
463.6170597354
 20
13.474486962
 30
0.0
 10
463.6170597354
 20
13.5012093463
 30
0.0
 10
463.5809957443
 20
13.5695066554
 30
0.0
 10
463.5080485069
 20
13.6780942345
 30
0.0
 10
463.3967977727
 20
13.810159665
 30
0.0
 10
463.3102785857
 20
13.9002243201
 30
0.0
 10
463.2635063448
 20
13.9454028355
 30
0.0
  0
SPLINE
  5
7FD
100
AcDbEntity
  8
RUNDUNGEN
100
AcDbSpline
 62
7
  6
CONTINUOUS
 70
0
 71
3
 72
11
 73
7
 74
0
 42
0.0000001
 43
0.0000001
 44
0.0000000001
 40
0.0
 40
0.0
 40
0.0
 40
0.0
 40
0.3831244728
 40
0.676832621
 40
0.8769472189
 40
1.0
 40
1.0
 40
1.0
 40
1.0
 10
374.3511608061
 20
96.4652163044
 30
0.0
 10
374.2838668124
 20
96.5129702811
 30
0.0
 10
374.1628063793
 20
96.594348893
 30
0.0
 10
373.9941043492
 20
96.6814051922
 30
0.0
 10
373.8695148332
 20
96.7259871791
 30
0.0
 10
373.7918801347
 20
96.7145861428
 30
0.0
 10
373.7728232439
 20
96.6961679413
 30
0.0
  0
SPLINE
  5
7FE
100
AcDbEntity
  8
RUNDUNGEN
100
AcDbSpline
 62
7
  6
CONTINUOUS
 70
0
 71
3
 72
11
 73
7
 74
0
 42
0.0000001
 43
0.0000001
 44
0.0000000001
 40
0.0
 40
0.0
 40
0.0
 40
0.0
 40
0.3491780237
 40
0.6246305336
 40
0.8340634718
 40
1.0
 40
1.0
 40
1.0
 40
1.0
 10
374.9772559412
 20
121.415743107
 30
0.0
 10
374.7447417335
 20
121.5187904684
 30
0.0
 10
374.3203038399
 20
121.6862060423
 30
0.0
 10
373.7265239681
 20
121.8259554018
 30
0.0
 10
373.2447456171
 20
121.8275990453
 30
0.0
 10
372.9844549092
 20
121.7029885327
 30
0.0
 10
372.8975791117
 20
121.6189651257
 30
0.0
  0
SPLINE
  5
7FF
100
AcDbEntity
  8
RUNDUNGEN
100
AcDbSpline
 62
7
  6
CONTINUOUS
 70
0
 71
3
 72
12
 73
8
 74
0
 42
0.0000001
 43
0.0000001
 44
0.0000000001
 40
0.0
 40
0.0
 40
0.0
 40
0.0
 40
0.2854431775
 40
0.5742965999
 40
0.8242066349
 40
0.9230746905
 40
1.0
 40
1.0
 40
1.0
 40
1.0
 10
381.6972620346
 20
115.7300978344
 30
0.0
 10
381.2153831923
 20
116.3190595874
 30
0.0
 10
380.1944024984
 20
117.4625077718
 30
0.0
 10
378.6222092097
 20
118.9988738468
 30
0.0
 10
377.3199979108
 20
120.0971338409
 30
0.0
 10
376.3856603405
 20
120.7421800063
 30
0.0
 10
375.9759059535
 20
120.973154029
 30
0.0
 10
375.7884155166
 20
121.0562474237
 30
0.0
  0
SPLINE
  5
800
100
AcDbEntity
  8
RUNDUNGEN
100
AcDbSpline
 62
7
  6
CONTINUOUS
 70
0
 71
3
 72
11
 73
7
 74
0
 42
0.0000001
 43
0.0000001
 44
0.0000000001
 40
0.0
 40
0.0
 40
0.0
 40
0.0
 40
0.2855242273
 40
0.5744465678
 40
0.8243990606
 40
1.0
 40
1.0
 40
1.0
 40
1.0
 10
394.64300706
 20
99.9075548748
 30
0.0
 10
394.4863870189
 20
100.0989789546
 30
0.0
 10
394.1545296839
 20
100.4703311564
 30
0.0
 10
393.6436691324
 20
100.9708743546
 30
0.0
 10
393.1692280155
 20
101.3671842626
 30
0.0
 10
392.8616985558
 20
101.5769209236
 30
0.0
 10
392.7226319416
 20
101.6385534914
 30
0.0
  0
SPLINE
  5
801
100
AcDbEntity
  8
RUNDUNGEN
100
AcDbSpline
 62
7
  6
CONTINUOUS
 70
0
 71
3
 72
9
 73
5
 74
0
 42
0.0000001
 43
0.0000001
 44
0.0000000001
 40
0.0
 40
0.0
 40
0.0
 40
0.0
 40
0.5394967057
 40
1.0
 40
1.0
 40
1.0
 40
1.0
 10
450.812623582
 20
46.1599175742
 30
0.0
 10
450.3991473678
 20
46.5593049281
 30
0.0
 10
449.6125423644
 20
47.2788876327
 30
0.0
 10
448.7793188786
 20
47.9456598284
 30
0.0
 10
448.3791448559
 20
48.2296361522
 30
0.0
  0
SPLINE
  5
802
100
AcDbEntity
  8
RUNDUNGEN
100
AcDbSpline
 62
7
  6
CONTINUOUS
 70
0
 71
3
 72
14
 73
10
 74
0
 42
0.0000001
 43
0.0000001
 44
0.0000000001
 40
0.0
 40
0.0
 40
0.0
 40
0.0
 40
0.0546649946
 40
0.135537574
 40
0.2415139539
 40
0.369373436
 40
0.5146685565
 40
0.6721260619
 40
1.0
 40
1.0
 40
1.0
 40
1.0
 10
463.6170597354
 20
32.238867732
 30
0.0
 10
463.6170597354
 20
32.3689687892
 30
0.0
 10
463.5259329836
 20
32.6865218121
 30
0.0
 10
463.2757876602
 20
33.2024536924
 30
0.0
 10
462.8807804418
 20
33.8411486077
 30
0.0
 10
462.3560211576
 20
34.5752438706
 30
0.0
 10
461.7187467374
 20
35.3784993503
 30
0.0
 10
460.7379648998
 20
36.5148474704
 30
0.0
 10
459.9356751288
 20
37.3477264705
 30
0.0
 10
459.3744190483
 20
37.8898582139
 30
0.0
  0
SPLINE
  5
803
100
AcDbEntity
  8
RUNDUNGEN
100
AcDbSpline
 62
7
  6
CONTINUOUS
 70
0
 71
3
 72
11
 73
7
 74
0
 42
0.0000001
 43
0.0000001
 44
0.0000000001
 40
0.0
 40
0.0
 40
0.0
 40
0.0
 40
0.1013338534
 40
0.3117452188
 40
0.6223535491
 40
1.0
 40
1.0
 40
1.0
 40
1.0
 10
460.0750459944
 20
27.8996261451
 30
0.0
 10
460.0644775284
 20
27.8898554025
 30
0.0
 10
460.0112900542
 20
27.9037716374
 30
0.0
 10
459.9422758898
 20
27.9479831973
 30
0.0
 10
459.8379314278
 20
28.0271202356
 30
0.0
 10
459.7665528033
 20
28.0927686226
 30
0.0
 10
459.7279724389
 20
28.130034393
 30
0.0
  0
SPLINE
  5
804
100
AcDbEntity
  8
0
100
AcDbSpline
 62
7
  6
CONTINUOUS
 70
0
 71
3
 72
9
 73
5
 74
0
 42
0.0000001
 43
0.0000001
 44
0.0000000001
 40
0.0
 40
0.0
 40
0.0
 40
0.0
 40
0.4519564197
 40
1.0
 40
1.0
 40
1.0
 40
1.0
 10
401.5602649916
 20
79.1211776317
 30
0.0
 10
401.5024821859
 20
79.0653272631
 30
0.0
 10
401.4097734209
 20
78.9043167245
 30
0.0
 10
401.391662991
 20
78.7240237796
 30
0.0
 10
401.391662991
 20
78.626576108
 30
0.0
  0
SPLINE
  5
805
100
AcDbEntity
  8
0
100
AcDbSpline
 62
7
  6
CONTINUOUS
 70
0
 71
3
 72
9
 73
5
 74
0
 42
0.0000001
 43
0.0000001
 44
0.0000000001
 40
0.0
 40
0.0
 40
0.0
 40
0.0
 40
0.4519406227
 40
1.0
 40
1.0
 40
1.0
 40
1.0
 10
423.4645268202
 20
57.9006847732
 30
0.0
 10
423.41224484
 20
57.850156985
 30
0.0
 10
423.3283508077
 20
57.7044828431
 30
0.0
 10
423.3119732078
 20
57.5413539704
 30
0.0
 10
423.3119732078
 20
57.4531823494
 30
0.0
  0
SPLINE
  5
806
100
AcDbEntity
  8
RUNDUNGEN
100
AcDbSpline
 62
7
  6
CONTINUOUS
 70
0
 71
3
 72
9
 73
5
 74
0
 42
0.0000001
 43
0.0000001
 44
0.0000000001
 40
0.0
 40
0.0
 40
0.0
 40
0.0
 40
0.2218387009
 40
1.0
 40
1.0
 40
1.0
 40
1.0
 10
463.5428836862
 20
12.3511607548
 30
0.0
 10
463.5553068776
 20
12.3631723162
 30
0.0
 10
463.6043345502
 20
12.4249788019
 30
0.0
 10
463.6170597354
 20
12.5080043589
 30
0.0
 10
463.6170597354
 20
12.5686203042
 30
0.0
  0
SPLINE
  5
807
100
AcDbEntity
  8
RUNDUNGEN
100
AcDbSpline
 62
7
  6
CONTINUOUS
 70
0
 71
3
 72
16
 73
12
 74
0
 42
0.0000001
 43
0.0000001
 44
0.0000000001
 40
0.0
 40
0.0
 40
0.0
 40
0.0
 40
0.0406934868
 40
0.0688788418
 40
0.1037507063
 40
0.1946661649
 40
0.3133767106
 40
0.4573894853
 40
0.622964099
 40
0.8055827269
 40
1.0
 40
1.0
 40
1.0
 40
1.0
 10
460.0073497803
 20
8.9360972453
 30
0.0
 10
459.9572409148
 20
8.887648687
 30
0.0
 10
459.8279714386
 20
8.8585929763
 30
0.0
 10
459.6537146701
 20
8.8833802311
 30
0.0
 10
459.3988837408
 20
8.9574296666
 30
0.0
 10
459.0206538578
 20
9.1406890405
 30
0.0
 10
458.5046360707
 20
9.4588427834
 30
0.0
 10
457.9090381
 20
9.8880059822
 30
0.0
 10
457.2508993196
 20
10.4152953008
 30
0.0
 10
456.5500695643
 20
11.0260551369
 30
0.0
 10
456.0783978443
 20
11.4673672308
 30
0.0
 10
455.8388851423
 20
11.6987187354
 30
0.0
  0
SPLINE
  5
808
100
AcDbEntity
  8
RUNDUNGEN
100
AcDbSpline
 62
7
  6
CONTINUOUS
 70
0
 71
3
 72
12
 73
8
 74
0
 42
0.0000001
 43
0.0000001
 44
0.0000000001
 40
0.0
 40
0.0
 40
0.0
 40
0.0
 40
0.1229684411
 40
0.2119574676
 40
0.3236052604
 40
0.6170597271
 40
1.0
 40
1.0
 40
1.0
 40
1.0
 10
386.4784855904
 20
88.3976689509
 30
0.0
 10
386.4213088619
 20
88.3424242057
 30
0.0
 10
386.2666365207
 20
88.3181433921
 30
0.0
 10
386.0645461393
 20
88.3590344297
 30
0.0
 10
385.7603700078
 20
88.4639337267
 30
0.0
 10
385.310212246
 20
88.705301649
 30
0.0
 10
384.9453585037
 20
88.9472337629
 30
0.0
 10
384.7434415266
 20
89.0905205273
 30
0.0
  0
SPLINE
  5
809
100
AcDbEntity
  8
RUNDUNGEN
100
AcDbSpline
 62
7
  6
CONTINUOUS
 70
0
 71
3
 72
12
 73
8
 74
0
 42
0.0000001
 43
0.0000001
 44
0.0000000001
 40
0.0
 40
0.0
 40
0.0
 40
0.0
 40
0.1048397813
 40
0.1937661804
 40
0.3092677593
 40
0.6142494036
 40
1.0
 40
1.0
 40
1.0
 40
1.0
 10
385.7655087091
 20
110.3950389667
 30
0.0
 10
385.7963203046
 20
110.4248518193
 30
0.0
 10
385.7887094015
 20
110.5221375079
 30
0.0
 10
385.7473420032
 20
110.6358453382
 30
0.0
 10
385.65481491
 20
110.8257412095
 30
0.0
 10
385.4741684524
 20
111.1005744681
 30
0.0
 10
385.3014852734
 20
111.3249456458
 30
0.0
 10
385.2015912249
 20
111.4470381071
 30
0.0
  0
SPLINE
  5
80A
100
AcDbEntity
  8
RUNDUNGEN
100
AcDbSpline
 62
7
  6
CONTINUOUS
 70
0
 71
3
 72
9
 73
5
 74
0
 42
0.0000001
 43
0.0000001
 44
0.0000000001
 40
0.0
 40
0.0
 40
0.0
 40
0.0
 40
0.2218259981
 40
1.0
 40
1.0
 40
1.0
 40
1.0
 10
452.9301079286
 20
37.3683398429
 30
0.0
 10
452.9435657425
 20
37.3813509195
 30
0.0
 10
452.9966777207
 20
37.4483072654
 30
0.0
 10
453.0104580176
 20
37.5382505988
 30
0.0
 10
453.0104580176
 20
37.603917551
 30
0.0
  0
SPLINE
  5
80B
100
AcDbEntity
  8
RUNDUNGEN
100
AcDbSpline
 62
7
  6
CONTINUOUS
 70
0
 71
3
 72
10
 73
6
 74
0
 42
0.0000001
 43
0.0000001
 44
0.0000000001
 40
0.0
 40
0.0
 40
0.0
 40
0.0
 40
0.3560986692
 40
0.6380542507
 40
1.0
 40
1.0
 40
1.0
 40
1.0
 10
449.3945740227
 20
33.9532763334
 30
0.0
 10
449.3129670537
 20
33.8743783391
 30
0.0
 10
449.0710733543
 20
33.872029298
 30
0.0
 10
448.7764398793
 20
33.9660469562
 30
0.0
 10
448.5863121596
 20
34.0510586009
 30
0.0
 10
448.4832537291
 20
34.102925259
 30
0.0
  0
SPLINE
  5
80C
100
AcDbEntity
  8
BEZUGSACHSEN
100
AcDbSpline
 62
7
  6
CONTINUOUS
 70
0
 71
3
 72
15
 73
11
 74
0
 42
0.0000001
 43
0.0000001
 44
0.0000000001
 40
0.0
 40
0.0
 40
0.0
 40
0.0
 40
0.0406872048
 40
0.0688708701
 40
0.1037373065
 40
0.1946522288
 40
0.3133671932
 40
0.4573948603
 40
0.6229776034
 40
1.0
 40
1.0
 40
1.0
 40
1.0
 10
386.1185766866
 20
96.996645249
 30
0.0
 10
386.0726404093
 20
96.952255649
 30
0.0
 10
385.9542161953
 20
96.9255177494
 30
0.0
 10
385.794488308
 20
96.9482178403
 30
0.0
 10
385.5609078202
 20
97.0160388426
 30
0.0
 10
385.2142062873
 20
97.1840225036
 30
0.0
 10
384.7411837116
 20
97.4756489257
 30
0.0
 10
384.1951833282
 20
97.8690421849
 30
0.0
 10
383.3537656204
 20
98.5433784353
 30
0.0
 10
382.7231800234
 20
99.1177268725
 30
0.0
 10
382.2974318521
 20
99.5289680267
 30
0.0
  0
SPLINE
  5
80D
100
AcDbEntity
  8
0
100
AcDbSpline
 62
7
  6
CONTINUOUS
 70
0
 71
3
 72
11
 73
7
 74
0
 42
0.0000001
 43
0.0000001
 44
0.0000000001
 40
0.0
 40
0.0
 40
0.0
 40
0.0
 40
0.176112773
 40
0.3892178591
 40
0.6608267208
 40
1.0
 40
1.0
 40
1.0
 40
1.0
 10
375.1201471068
 20
108.8489736597
 30
0.0
 10
375.2039933257
 20
108.9299495126
 30
0.0
 10
375.4413579219
 20
109.0568602613
 30
0.0
 10
375.8846277799
 20
109.0888030031
 30
0.0
 10
376.4251894503
 20
108.9984798921
 30
0.0
 10
376.8103618813
 20
108.8717093417
 30
0.0
 10
377.020226554
 20
108.7920062833
 30
0.0
  0
SPLINE
  5
80E
100
AcDbEntity
  8
RUNDUNGEN
100
AcDbSpline
 62
7
  6
CONTINUOUS
 70
0
 71
3
 72
10
 73
6
 74
0
 42
0.0000001
 43
0.0000001
 44
0.0000000001
 40
0.0
 40
0.0
 40
0.0
 40
0.0
 40
0.5672539817
 40
0.803071974
 40
1.0
 40
1.0
 40
1.0
 40
1.0
 10
374.5673892333
 20
108.4931531285
 30
0.0
 10
373.5673414887
 20
109.7154310561
 30
0.0
 10
372.1995247543
 20
111.4886464648
 30
0.0
 10
370.6720738762
 20
113.8174018018
 30
0.0
 10
370.0787525013
 20
114.8680114786
 30
0.0
 10
369.8361515968
 20
115.3596712617
 30
0.0
  0
SPLINE
  5
80F
100
AcDbEntity
  8
RUNDUNGEN
100
AcDbSpline
 62
7
  6
CONTINUOUS
 70
0
 71
3
 72
9
 73
5
 74
0
 42
0.0000001
 43
0.0000001
 44
0.0000000001
 40
0.0
 40
0.0
 40
0.0
 40
0.0
 40
0.2592737009
 40
1.0
 40
1.0
 40
1.0
 40
1.0
 10
369.7951057155
 20
115.4435755904
 30
0.0
 10
369.7752340156
 20
115.4845554436
 30
0.0
 10
369.6994060498
 20
115.6430045441
 30
0.0
 10
369.6269272393
 20
115.8030680718
 30
0.0
 10
369.5755870099
 20
115.9226262051
 30
0.0
  0
SPLINE
  5
810
100
AcDbEntity
  8
0
100
AcDbSpline
 62
7
  6
CONTINUOUS
 70
0
 71
3
 72
15
 73
11
 74
0
 42
0.0000001
 43
0.0000001
 44
0.0000000001
 40
0.0
 40
0.0
 40
0.0
 40
0.0
 40
0.2018499553
 40
0.3828567064
 40
0.5413894942
 40
0.6765595027
 40
0.7880615151
 40
0.8765600154
 40
0.9448337862
 40
1.0
 40
1.0
 40
1.0
 40
1.0
 10
373.8948530606
 20
99.269563507
 30
0.0
 10
373.6378682256
 20
99.6521276506
 30
0.0
 10
373.1621794412
 20
100.3857886355
 30
0.0
 10
372.5328875166
 20
101.4501961646
 30
0.0
 10
372.0305993407
 20
102.4113991642
 30
0.0
 10
371.6597627335
 20
103.2599830468
 30
0.0
 10
371.4218837352
 20
103.9893419519
 30
0.0
 10
371.3194395045
 20
104.5961163775
 30
0.0
 10
371.3515459994
 20
105.0868723182
 30
0.0
 10
371.4940116788
 20
105.3464102532
 30
0.0
 10
371.5846132008
 20
105.4339101502
 30
0.0
  0
SPLINE
  5
811
100
AcDbEntity
  8
RUNDUNGEN
100
AcDbSpline
 62
7
  6
CONTINUOUS
 70
0
 71
3
 72
10
 73
6
 74
0
 42
0.0000001
 43
0.0000001
 44
0.0000000001
 40
0.0
 40
0.0
 40
0.0
 40
0.0
 40
0.6785007132
 40
0.878750155
 40
1.0
 40
1.0
 40
1.0
 40
1.0
 10
370.4683305449
 20
92.6646860031
 30
0.0
 10
370.3823357597
 20
92.7927033678
 30
0.0
 10
370.2765068206
 20
92.9662051603
 30
0.0
 10
370.204226761
 20
93.1803725988
 30
0.0
 10
370.2175193592
 20
93.2620599109
 30
0.0
 10
370.2373682179
 20
93.2811790486
 30
0.0
  0
SPLINE
  5
812
100
AcDbEntity
  8
RUNDUNGEN
100
AcDbSpline
 62
7
  6
CONTINUOUS
 70
0
 71
3
 72
11
 73
7
 74
0
 42
0.0000001
 43
0.0000001
 44
0.0000000001
 40
0.0
 40
0.0
 40
0.0
 40
0.0
 40
0.2283935121
 40
0.4975019968
 40
0.7679047943
 40
1.0
 40
1.0
 40
1.0
 40
1.0
 10
375.8448162674
 20
85.5633782412
 30
0.0
 10
375.6685585694
 20
85.688456358
 30
0.0
 10
375.3048326498
 20
85.9890289294
 30
0.0
 10
374.780893497
 20
86.4931768658
 30
0.0
 10
374.2904061585
 20
87.0346956252
 30
0.0
 10
373.9976700581
 20
87.4106843479
 30
0.0
 10
373.8752007613
 20
87.5930000151
 30
0.0
  0
SPLINE
  5
813
100
AcDbEntity
  8
RUNDUNGEN
100
AcDbSpline
 62
7
  6
CONTINUOUS
 70
0
 71
3
 72
9
 73
5
 74
0
 42
0.0000001
 43
0.0000001
 44
0.0000000001
 40
0.0
 40
0.0
 40
0.0
 40
0.0
 40
0.2538116
 40
1.0
 40
1.0
 40
1.0
 40
1.0
 10
447.277089676
 20
19.9687780958
 30
0.0
 10
447.0589225656
 20
20.1795113422
 30
0.0
 10
446.2117277214
 20
21.0224040831
 30
0.0
 10
445.4083021871
 20
21.9100027333
 30
0.0
 10
444.84361095
 20
22.6001794162
 30
0.0
  0
SPLINE
  5
814
100
AcDbEntity
  8
RUNDUNGEN
100
AcDbSpline
 62
7
  6
CONTINUOUS
 70
0
 71
3
 72
9
 73
5
 74
0
 42
0.0000001
 43
0.0000001
 44
0.0000000001
 40
0.0
 40
0.0
 40
0.0
 40
0.0
 40
0.2929719792
 40
1.0
 40
1.0
 40
1.0
 40
1.0
 10
453.0104580176
 20
39.8958678093
 30
0.0
 10
453.0104580176
 20
39.9186224767
 30
0.0
 10
453.0145103119
 20
39.9956588556
 30
0.0
 10
453.045155553
 20
40.0751570051
 30
0.0
 10
453.0846339794
 20
40.1133273183
 30
0.0
  0
SPLINE
  5
815
100
AcDbEntity
  8
RUNDUNGEN
100
AcDbSpline
 62
7
  6
CONTINUOUS
 70
0
 71
3
 72
9
 73
5
 74
0
 42
0.0000001
 43
0.0000001
 44
0.0000000001
 40
0.0
 40
0.0
 40
0.0
 40
0.0
 40
0.5354314211
 40
1.0
 40
1.0
 40
1.0
 40
1.0
 10
453.7175647988
 20
33.9356423591
 30
0.0
 10
453.3281488256
 20
34.3117893048
 30
0.0
 10
452.5827784808
 20
34.9957938073
 30
0.0
 10
451.7961097155
 20
35.6330610295
 30
0.0
 10
451.4166315912
 20
35.9099579217
 30
0.0
  0
SPLINE
  5
816
100
AcDbEntity
  8
RUNDUNGEN
100
AcDbSpline
 62
7
  6
CONTINUOUS
 70
0
 71
3
 72
14
 73
10
 74
0
 42
0.0000001
 43
0.0000001
 44
0.0000000001
 40
0.0
 40
0.0
 40
0.0
 40
0.0
 40
0.3278736629
 40
0.4853311912
 40
0.6306263484
 40
0.7584858509
 40
0.8644622694
 40
0.9453349565
 40
1.0
 40
1.0
 40
1.0
 40
1.0
 10
457.2530987047
 20
19.7510108016
 30
0.0
 10
456.6918430956
 20
20.2931420896
 30
0.0
 10
455.8895537275
 20
21.1260206383
 30
0.0
 10
454.9087721445
 20
22.2623682986
 30
0.0
 10
454.2714975471
 20
23.0656238813
 30
0.0
 10
453.7467380742
 20
23.7997192859
 30
0.0
 10
453.3517305365
 20
24.438414474
 30
0.0
 10
453.1015849548
 20
24.9543467354
 30
0.0
 10
453.0104580176
 20
25.27190011
 30
0.0
 10
453.0104580176
 20
25.4020012836
 30
0.0
  0
SPLINE
  5
817
100
AcDbEntity
  8
RUNDUNGEN
100
AcDbSpline
 62
7
  6
CONTINUOUS
 70
0
 71
3
 72
14
 73
10
 74
0
 42
0.0000001
 43
0.0000001
 44
0.0000000001
 40
0.0
 40
0.0
 40
0.0
 40
0.0
 40
0.2012572755
 40
0.3857885782
 40
0.5499429929
 40
0.6908692169
 40
0.8063236823
 40
0.8952180933
 40
1.0
 40
1.0
 40
1.0
 40
1.0
 10
443.7120514076
 20
39.9344084352
 30
0.0
 10
443.4981814368
 20
40.1958044996
 30
0.0
 10
443.0956879543
 20
40.7031618414
 30
0.0
 10
442.5481549569
 20
41.4459958263
 30
0.0
 10
442.0897557736
 20
42.1293896199
 30
0.0
 10
441.7298336173
 20
42.7337190902
 30
0.0
 10
441.4729426195
 20
43.2630280021
 30
0.0
 10
441.3032267832
 20
43.7292089942
 30
0.0
 10
441.2722928196
 20
44.1284170778
 30
0.0
 10
441.3988024918
 20
44.2505437773
 30
0.0
  0
SPLINE
  5
818
100
AcDbEntity
  8
RUNDUNGEN
100
AcDbSpline
 62
7
  6
CONTINUOUS
 70
0
 71
3
 72
11
 73
7
 74
0
 42
0.0000001
 43
0.0000001
 44
0.0000000001
 40
0.0
 40
0.0
 40
0.0
 40
0.0
 40
0.2170485118
 40
0.4713284978
 40
0.7403269935
 40
1.0
 40
1.0
 40
1.0
 40
1.0
 10
429.1794213742
 20
61.8543758502
 30
0.0
 10
427.8455068737
 20
62.8009643708
 30
0.0
 10
425.068047352
 20
65.0235760617
 30
0.0
 10
420.9498354856
 20
68.7909308901
 30
0.0
 10
416.8233616906
 20
73.0122101498
 30
0.0
 10
414.1953925101
 20
76.0102466751
 30
0.0
 10
412.9562298672
 20
77.5247755115
 30
0.0
  0
SPLINE
  5
819
100
AcDbEntity
  8
RUNDUNGEN
100
AcDbSpline
 62
7
  6
CONTINUOUS
 70
0
 71
3
 72
11
 73
7
 74
0
 42
0.0000001
 43
0.0000001
 44
0.0000000001
 40
0.0
 40
0.0
 40
0.0
 40
0.0
 40
0.2596730065
 40
0.5286715022
 40
0.7829514882
 40
1.0
 40
1.0
 40
1.0
 40
1.0
 10
425.6438874682
 20
46.0664572556
 30
0.0
 10
424.4047248254
 20
47.580986092
 30
0.0
 10
421.7767556449
 20
50.5790226172
 30
0.0
 10
417.6502818499
 20
54.800301877
 30
0.0
 10
413.5320699835
 20
58.5676567053
 30
0.0
 10
410.7546104617
 20
60.7902683963
 30
0.0
 10
409.4206959613
 20
61.7368569169
 30
0.0
  0
SPLINE
  5
81A
100
AcDbEntity
  8
RUNDUNGEN
100
AcDbSpline
 62
7
  6
CONTINUOUS
 70
0
 71
3
 72
13
 73
9
 74
0
 42
0.0000001
 43
0.0000001
 44
0.0000000001
 40
0.0
 40
0.0
 40
0.0
 40
0.0
 40
0.3856974312
 40
0.5498575693
 40
0.6907703348
 40
0.8062569901
 40
0.8951722101
 40
1.0
 40
1.0
 40
1.0
 40
1.0
 10
383.9549888742
 20
109.6530829101
 30
0.0
 10
383.7885006548
 20
109.8565680704
 30
0.0
 10
383.558809267
 20
110.1530987064
 30
0.0
 10
383.2960195336
 20
110.544606939
 30
0.0
 10
383.1498386635
 20
110.7901277435
 30
0.0
 10
383.045429907
 20
111.0051278138
 30
0.0
 10
382.9764553082
 20
111.1945552325
 30
0.0
 10
382.9637705845
 20
111.3567157978
 30
0.0
 10
383.0151199992
 20
111.4064084988
 30
0.0
  0
SPLINE
  5
81B
100
AcDbEntity
  8
RUNDUNGEN
100
AcDbSpline
 62
7
  6
CONTINUOUS
 70
0
 71
3
 72
12
 73
8
 74
0
 42
0.0000001
 43
0.0000001
 44
0.0000000001
 40
0.0
 40
0.0
 40
0.0
 40
0.0
 40
0.0769163679
 40
0.1757857774
 40
0.42568196
 40
0.7145393197
 40
1.0
 40
1.0
 40
1.0
 40
1.0
 10
390.5730590669
 20
102.591217052
 30
0.0
 10
390.471513565
 20
102.6362207365
 30
0.0
 10
390.2495756117
 20
102.7613307968
 30
0.0
 10
389.7434913783
 20
103.1106977114
 30
0.0
 10
389.0381417434
 20
103.7055883497
 30
0.0
 10
388.1865197253
 20
104.5377832247
 30
0.0
 10
387.6334675467
 20
105.1571742769
 30
0.0
 10
387.3724338697
 20
105.4762147462
 30
0.0
  0
SPLINE
  5
81C
100
AcDbEntity
  8
RUNDUNGEN
100
AcDbSpline
 62
7
  6
CONTINUOUS
 70
0
 71
3
 72
11
 73
7
 74
0
 42
0.0000001
 43
0.0000001
 44
0.0000000001
 40
0.0
 40
0.0
 40
0.0
 40
0.0
 40
0.3776464509
 40
0.6882547812
 40
0.8986661466
 40
1.0
 40
1.0
 40
1.0
 40
1.0
 10
463.2635063448
 20
31.5450979025
 30
0.0
 10
463.3020867093
 20
31.5078321321
 30
0.0
 10
463.3734653337
 20
31.442183745
 30
0.0
 10
463.4778097957
 20
31.3630467068
 30
0.0
 10
463.5468239601
 20
31.3188351468
 30
0.0
 10
463.6000114343
 20
31.304918912
 30
0.0
 10
463.6105799004
 20
31.3146896546
 30
0.0
  0
SPLINE
  5
81D
100
AcDbEntity
  8
RUNDUNGEN
100
AcDbSpline
 62
7
  6
CONTINUOUS
 70
0
 71
3
 72
12
 73
8
 74
0
 42
0.0000001
 43
0.0000001
 44
0.0000000001
 40
0.0
 40
0.0
 40
0.0
 40
0.0
 40
0.3829279487
 40
0.6763788394
 40
0.7880316563
 40
0.8770245698
 40
1.0
 40
1.0
 40
1.0
 40
1.0
 10
451.0505325597
 20
38.118981194
 30
0.0
 10
451.2692614468
 20
37.9637641591
 30
0.0
 10
451.6644976907
 20
37.7016842421
 30
0.0
 10
452.1521367414
 20
37.4402111195
 30
0.0
 10
452.4816572684
 20
37.3265616092
 30
0.0
 10
452.7005712414
 20
37.2822559414
 30
0.0
 10
452.868183459
 20
37.3084709798
 30
0.0
 10
452.9301079286
 20
37.3683398429
 30
0.0
  0
SPLINE
  5
81E
100
AcDbEntity
  8
0
100
AcDbSpline
 62
7
  6
CONTINUOUS
 70
0
 71
3
 72
13
 73
9
 74
0
 42
0.0000001
 43
0.0000001
 44
0.0000000001
 40
0.0
 40
0.0
 40
0.0
 40
0.0
 40
0.3704485479
 40
0.6552555728
 40
0.7661428306
 40
0.857785806
 40
0.9335991113
 40
1.0
 40
1.0
 40
1.0
 40
1.0
 10
404.1848002147
 20
78.4142768714
 30
0.0
 10
403.8831881519
 20
78.5941100985
 30
0.0
 10
403.3385501624
 20
78.8935823921
 30
0.0
 10
402.6624747105
 20
79.169992034
 30
0.0
 10
402.2095886155
 20
79.2677533522
 30
0.0
 10
401.9444111692
 20
79.2807184122
 30
0.0
 10
401.7237468365
 20
79.2378698425
 30
0.0
 10
401.6055224887
 20
79.1649215771
 30
0.0
 10
401.5602649916
 20
79.1211776317
 30
0.0
  0
SPLINE
  5
81F
100
AcDbEntity
  8
RUNDUNGEN
100
AcDbSpline
 62
7
  6
CONTINUOUS
 70
0
 71
3
 72
16
 73
12
 74
0
 42
0.0000001
 43
0.0000001
 44
0.0000000001
 40
0.0
 40
0.0
 40
0.0
 40
0.0
 40
0.1944172731
 40
0.377035901
 40
0.5426105147
 40
0.6866232894
 40
0.8053338351
 40
0.8962492937
 40
0.9311211582
 40
0.9593065132
 40
1.0
 40
1.0
 40
1.0
 40
1.0
 10
459.3744190483
 20
15.1137822449
 30
0.0
 10
459.6139317503
 20
14.8824307403
 30
0.0
 10
460.0856034702
 20
14.4411186463
 30
0.0
 10
460.7864332255
 20
13.8303588103
 30
0.0
 10
461.444572006
 20
13.3030694917
 30
0.0
 10
462.0401699766
 20
12.8739062929
 30
0.0
 10
462.5561877637
 20
12.55575255
 30
0.0
 10
462.9344176468
 20
12.3724931761
 30
0.0
 10
463.189248576
 20
12.2984437406
 30
0.0
 10
463.3635053445
 20
12.2736564858
 30
0.0
 10
463.4927748208
 20
12.3027121965
 30
0.0
 10
463.5428836862
 20
12.3511607548
 30
0.0
  0
SPLINE
  5
820
100
AcDbEntity
  8
RUNDUNGEN
100
AcDbSpline
 62
7
  6
CONTINUOUS
 70
0
 71
3
 72
9
 73
5
 74
0
 42
0.0000001
 43
0.0000001
 44
0.0000000001
 40
0.0
 40
0.0
 40
0.0
 40
0.0
 40
0.2406098632
 40
1.0
 40
1.0
 40
1.0
 40
1.0
 10
448.3791448559
 20
26.0152429257
 30
0.0
 10
448.5612326216
 20
25.7926916943
 30
0.0
 10
449.3339231367
 20
24.8808599233
 30
0.0
 10
450.1598725751
 20
24.0143506609
 30
0.0
 10
450.812623582
 20
23.3838416052
 30
0.0
  0
SPLINE
  5
821
100
AcDbEntity
  8
RUNDUNGEN
100
AcDbSpline
 62
7
  6
CONTINUOUS
 70
0
 71
3
 72
11
 73
7
 74
0
 42
0.0000001
 43
0.0000001
 44
0.0000000001
 40
0.0
 40
0.0
 40
0.0
 40
0.0
 40
0.2321082203
 40
0.5025207165
 40
0.7716173832
 40
1.0
 40
1.0
 40
1.0
 40
1.0
 10
377.4107346673
 20
91.0080635245
 30
0.0
 10
377.5332108314
 20
90.8257376341
 30
0.0
 10
377.8259618032
 20
90.4497330935
 30
0.0
 10
378.3164580014
 20
89.908208456
 30
0.0
 10
378.8403907095
 20
89.4040715798
 30
0.0
 10
379.2041008836
 20
89.1035139007
 30
0.0
 10
379.3803501733
 20
88.9784417507
 30
0.0
  0
SPLINE
  5
822
100
AcDbEntity
  8
0
100
AcDbSpline
 62
7
  6
CONTINUOUS
 70
0
 71
3
 72
15
 73
11
 74
0
 42
0.0000001
 43
0.0000001
 44
0.0000000001
 40
0.0
 40
0.0
 40
0.0
 40
0.0
 40
0.2018499553
 40
0.3828567064
 40
0.5413894942
 40
0.6765595027
 40
0.7880615151
 40
0.8765600154
 40
0.9448337862
 40
1.0
 40
1.0
 40
1.0
 40
1.0
 10
377.4303869665
 20
102.6846270164
 30
0.0
 10
377.1734021316
 20
103.06719116
 30
0.0
 10
376.6977133471
 20
103.8008521449
 30
0.0
 10
376.0684214226
 20
104.8652596741
 30
0.0
 10
375.5661332467
 20
105.8264626736
 30
0.0
 10
375.1952966394
 20
106.6750465563
 30
0.0
 10
374.9574176411
 20
107.4044054614
 30
0.0
 10
374.8549734104
 20
108.0111798869
 30
0.0
 10
374.8870799054
 20
108.5019358277
 30
0.0
 10
375.0295455848
 20
108.7614737626
 30
0.0
 10
375.1201471068
 20
108.8489736597
 30
0.0
  0
SPLINE
  5
823
100
AcDbEntity
  8
RUNDUNGEN
100
AcDbSpline
 62
7
  6
CONTINUOUS
 70
0
 71
3
 72
9
 73
5
 74
0
 42
0.0000001
 43
0.0000001
 44
0.0000000001
 40
0.0
 40
0.0
 40
0.0
 40
0.0
 40
0.6294496393
 40
1.0
 40
1.0
 40
1.0
 40
1.0
 10
385.5402051714
 20
110.4170560729
 30
0.0
 10
385.5851297969
 20
110.3971460461
 30
0.0
 10
385.6556575999
 20
110.3668711754
 30
0.0
 10
385.7447196845
 20
110.3749238083
 30
0.0
 10
385.7655087091
 20
110.3950389667
 30
0.0
  0
SPLINE
  5
824
100
AcDbEntity
  8
0
100
AcDbSpline
 62
7
  6
CONTINUOUS
 70
0
 71
3
 72
9
 73
5
 74
0
 42
0.0000001
 43
0.0000001
 44
0.0000000001
 40
0.0
 40
0.0
 40
0.0
 40
0.0
 40
0.4519564197
 40
1.0
 40
1.0
 40
1.0
 40
1.0
 10
402.0118557327
 20
78.653666922
 30
0.0
 10
401.9568244892
 20
78.6004760947
 30
0.0
 10
401.8685304272
 20
78.4471327246
 30
0.0
 10
401.8512823987
 20
78.275425158
 30
0.0
 10
401.8512823987
 20
78.1826178518
 30
0.0
  0
SPLINE
  5
825
100
AcDbEntity
  8
0
100
AcDbSpline
 62
7
  6
CONTINUOUS
 70
0
 71
3
 72
9
 73
5
 74
0
 42
0.0000001
 43
0.0000001
 44
0.0000000001
 40
0.0
 40
0.0
 40
0.0
 40
0.0
 40
0.4520461653
 40
1.0
 40
1.0
 40
1.0
 40
1.0
 10
423.9161372908
 20
57.4331943352
 30
0.0
 10
423.8666007292
 20
57.3853057997
 30
0.0
 10
423.787155356
 20
57.2472797056
 30
0.0
 10
423.7715926155
 20
57.0927419146
 30
0.0
 10
423.7715926155
 20
57.0092240932
 30
0.0
  0
SPLINE
  5
826
100
AcDbEntity
  8
BEZUGSACHSEN
100
AcDbSpline
 62
7
  6
CONTINUOUS
 70
0
 71
3
 72
15
 73
11
 74
0
 42
0.0000001
 43
0.0000001
 44
0.0000000001
 40
0.0
 40
0.0
 40
0.0
 40
0.0
 40
0.3794262398
 40
0.5445784805
 40
0.6876534149
 40
0.8053423535
 40
0.8955272514
 40
0.9302589229
 40
0.9585053325
 40
1.0
 40
1.0
 40
1.0
 40
1.0
 10
383.9388678706
 20
100.657467753
 30
0.0
 10
384.3049541087
 20
100.2414571253
 30
0.0
 10
384.8138312661
 20
99.6289290409
 30
0.0
 10
385.4051610795
 20
98.8168302167
 30
0.0
 10
385.7448030687
 20
98.2951244074
 30
0.0
 10
385.9923630562
 20
97.8458379313
 30
0.0
 10
386.1305419203
 20
97.5180270471
 30
0.0
 10
386.1812534856
 20
97.2987955137
 30
0.0
 10
386.1936750239
 20
97.1479097367
 30
0.0
 10
386.1621568095
 20
97.0387580265
 30
0.0
 10
386.1185766866
 20
96.996645249
 30
0.0
  0
SPLINE
  5
827
100
AcDbEntity
  8
0
100
AcDbSpline
 62
7
  6
CONTINUOUS
 70
0
 71
3
 72
10
 73
6
 74
0
 42
0.0000001
 43
0.0000001
 44
0.0000000001
 40
0.0
 40
0.0
 40
0.0
 40
0.0
 40
0.5856523198
 40
0.8156449048
 40
1.0
 40
1.0
 40
1.0
 40
1.0
 10
427.8171336057
 20
55.8984202181
 30
0.0
 10
427.2164676899
 20
56.3569793298
 30
0.0
 10
426.3583845611
 20
56.9714659517
 30
0.0
 10
425.236485071
 20
57.610434203
 30
0.0
 10
424.7469855829
 20
57.8300744255
 30
0.0
 10
424.5221173967
 20
57.9076779977
 30
0.0
  0
SPLINE
  5
828
100
AcDbEntity
  8
0
100
AcDbSpline
 62
7
  6
CONTINUOUS
 70
0
 71
3
 72
9
 73
5
 74
0
 42
0.0000001
 43
0.0000001
 44
0.0000000001
 40
0.0
 40
0.0
 40
0.0
 40
0.0
 40
0.266391436
 40
1.0
 40
1.0
 40
1.0
 40
1.0
 10
424.5221173967
 20
57.9076779977
 30
0.0
 10
424.4945594801
 20
57.9171884261
 30
0.0
 10
424.3906995269
 20
57.9516564613
 30
0.0
 10
424.2850673855
 20
57.9810187591
 30
0.0
 10
424.2066726433
 20
57.9983293996
 30
0.0
  0
SPLINE
  5
829
100
AcDbEntity
  8
0
100
AcDbSpline
 62
7
  6
CONTINUOUS
 70
0
 71
3
 72
10
 73
6
 74
0
 42
0.0000001
 43
0.0000001
 44
0.0000000001
 40
0.0
 40
0.0
 40
0.0
 40
0.0
 40
0.3160994782
 40
0.5812200367
 40
1.0
 40
1.0
 40
1.0
 40
1.0
 10
424.2066726433
 20
57.9983293996
 30
0.0
 10
424.1271955593
 20
58.0158790362
 30
0.0
 10
423.9785148293
 20
58.0399181491
 30
0.0
 10
423.7216616675
 20
58.0414450016
 30
0.0
 10
423.5420642269
 20
57.9756206049
 30
0.0
 10
423.4645268202
 20
57.9006847732
 30
0.0
  0
SPLINE
  5
82A
100
AcDbEntity
  8
RUNDUNGEN
100
AcDbSpline
 62
7
  6
CONTINUOUS
 70
0
 71
3
 72
10
 73
6
 74
0
 42
0.0000001
 43
0.0000001
 44
0.0000000001
 40
0.0
 40
0.0
 40
0.0
 40
0.0
 40
0.3698698647
 40
0.647960795
 40
1.0
 40
1.0
 40
1.0
 40
1.0
 10
383.0151199992
 20
111.4064084988
 30
0.0
 10
383.0497660876
 20
111.439936782
 30
0.0
 10
383.1473801304
 20
111.4494727521
 30
0.0
 10
383.271157213
 20
111.418211046
 30
0.0
 10
383.3486790415
 20
111.3883127867
 30
0.0
 10
383.3906322967
 20
111.3697196336
 30
0.0
  0
SPLINE
  5
82B
100
AcDbEntity
  8
RUNDUNGEN
100
AcDbSpline
 62
7
  6
CONTINUOUS
 70
0
 71
3
 72
11
 73
7
 74
0
 42
0.0000001
 43
0.0000001
 44
0.0000000001
 40
0.0
 40
0.0
 40
0.0
 40
0.0
 40
0.1663336643
 40
0.3759469007
 40
0.6511753727
 40
1.0
 40
1.0
 40
1.0
 40
1.0
 10
372.8975791117
 20
121.6189651257
 30
0.0
 10
372.8111861827
 20
121.5354087331
 30
0.0
 10
372.6785361761
 20
121.2813548807
 30
0.0
 10
372.6624257331
 20
120.8034762467
 30
0.0
 10
372.7791798583
 20
120.2099359446
 30
0.0
 10
372.9295950171
 20
119.7834624869
 30
0.0
 10
373.02322873
 20
119.5494465635
 30
0.0
  0
SPLINE
  5
82C
100
AcDbEntity
  8
RUNDUNGEN
100
AcDbSpline
 62
7
  6
CONTINUOUS
 70
0
 71
3
 72
10
 73
6
 74
0
 42
0.0000001
 43
0.0000001
 44
0.0000000001
 40
0.0
 40
0.0
 40
0.0
 40
0.0
 40
0.1212916442
 40
0.3215845226
 40
1.0
 40
1.0
 40
1.0
 40
1.0
 10
373.7728232439
 20
96.6961679413
 30
0.0
 10
373.7530025999
 20
96.6770115838
 30
0.0
 10
373.7397961223
 20
96.5953235766
 30
0.0
 10
373.8120729646
 20
96.3811987387
 30
0.0
 10
373.9178928241
 20
96.2077324021
 30
0.0
 10
374.0038644508
 20
96.0797495125
 30
0.0
  0
SPLINE
  5
82D
100
AcDbEntity
  8
RUNDUNGEN
100
AcDbSpline
 62
7
  6
CONTINUOUS
 70
0
 71
3
 72
14
 73
10
 74
0
 42
0.0000001
 43
0.0000001
 44
0.0000000001
 40
0.0
 40
0.0
 40
0.0
 40
0.0
 40
0.0563083523
 40
0.1252818743
 40
0.2140273503
 40
0.3253679894
 40
0.4601495001
 40
0.6181802666
 40
1.0
 40
1.0
 40
1.0
 40
1.0
 10
441.3988024918
 20
44.2505437773
 30
0.0
 10
441.433823696
 20
44.2843516593
 30
0.0
 10
441.5346537649
 20
44.3364443144
 30
0.0
 10
441.7224275706
 20
44.3457230748
 30
0.0
 10
441.9521224782
 20
44.3024237386
 30
0.0
 10
442.2261429903
 20
44.2068662879
 30
0.0
 10
442.5434128561
 20
44.0596643091
 30
0.0
 10
443.0539735989
 20
43.7771035264
 30
0.0
 10
443.4428687427
 20
43.5176234878
 30
0.0
 10
443.7120514076
 20
43.3266028336
 30
0.0
  0
SPLINE
  5
82E
100
AcDbEntity
  8
RUNDUNGEN
100
AcDbSpline
 62
7
  6
CONTINUOUS
 70
0
 71
3
 72
16
 73
12
 74
0
 42
0.0000001
 43
0.0000001
 44
0.0000000001
 40
0.0
 40
0.0
 40
0.0
 40
0.0
 40
0.0406934243
 40
0.0688787598
 40
0.1037505872
 40
0.1946660079
 40
0.3133765043
 40
0.457389213
 40
0.6229638074
 40
0.8055826256
 40
1.0
 40
1.0
 40
1.0
 40
1.0
 10
453.0846339794
 20
40.1133273183
 30
0.0
 10
453.1347427912
 20
40.1617757805
 30
0.0
 10
453.2640120172
 20
40.1908316682
 30
0.0
 10
453.438268618
 20
40.1660444271
 30
0.0
 10
453.6930994546
 20
40.0919952969
 30
0.0
 10
454.0713291778
 20
39.9087359788
 30
0.0
 10
454.5873468049
 20
39.590582486
 30
0.0
 10
455.182944641
 20
39.1614194515
 30
0.0
 10
455.8410836219
 20
38.6341300683
 30
0.0
 10
456.5419137638
 20
38.0233699306
 30
0.0
 10
457.0135858724
 20
37.582057499
 30
0.0
 10
457.2530987047
 20
37.3507058686
 30
0.0
  0
SPLINE
  5
82F
100
AcDbEntity
  8
BEZUGSACHSEN
100
AcDbSpline
 62
7
  6
CONTINUOUS
 70
0
 71
3
 72
12
 73
8
 74
0
 42
0.0000001
 43
0.0000001
 44
0.0000000001
 40
0.0
 40
0.0
 40
0.0
 40
0.0
 40
0.1339254882
 40
0.224551911
 40
0.3357033967
 40
0.6239583049
 40
1.0
 40
1.0
 40
1.0
 40
1.0
 10
378.4762870175
 20
104.9083003006
 30
0.0
 10
378.5190483186
 20
104.949621826
 30
0.0
 10
378.6263658163
 20
104.9777819323
 30
0.0
 10
378.7734955985
 20
104.9618032631
 30
0.0
 10
378.9853184422
 20
104.9068254377
 30
0.0
 10
379.2999711387
 20
104.7635463951
 30
0.0
 10
379.5542719773
 20
104.6136025188
 30
0.0
 10
379.6951356744
 20
104.5239635097
 30
0.0
  0
SPLINE
  5
830
100
AcDbEntity
  8
RUNDUNGEN
100
AcDbSpline
 62
7
  6
CONTINUOUS
 70
0
 71
3
 72
11
 73
7
 74
0
 42
0.0000001
 43
0.0000001
 44
0.0000000001
 40
0.0
 40
0.0
 40
0.0
 40
0.0
 40
0.2170485118
 40
0.4713284978
 40
0.7403269935
 40
1.0
 40
1.0
 40
1.0
 40
1.0
 10
412.9562298672
 20
65.1519204264
 30
0.0
 10
414.2901443677
 20
64.2053319057
 30
0.0
 10
417.0676038894
 20
61.9827202148
 30
0.0
 10
421.1858157558
 20
58.2153653865
 30
0.0
 10
425.3122895508
 20
53.9940861267
 30
0.0
 10
427.9402587313
 20
50.9960496014
 30
0.0
 10
429.1794213742
 20
49.481520765
 30
0.0
  0
SPLINE
  5
831
100
AcDbEntity
  8
RUNDUNGEN
100
AcDbSpline
 62
7
  6
CONTINUOUS
 70
0
 71
3
 72
12
 73
8
 74
0
 42
0.0000001
 43
0.0000001
 44
0.0000000001
 40
0.0
 40
0.0
 40
0.0
 40
0.0
 40
0.3838855418
 40
0.6782978225
 40
0.7901167575
 40
0.8789021861
 40
1.0
 40
1.0
 40
1.0
 40
1.0
 10
385.7853305926
 20
90.246920903
 30
0.0
 10
385.9315086796
 20
90.0293108068
 30
0.0
 10
386.1779138465
 20
89.6364915075
 30
0.0
 10
386.4222839657
 20
89.1541484403
 30
0.0
 10
386.5266819937
 20
88.8299464414
 30
0.0
 10
386.5657333745
 20
88.6174020717
 30
0.0
 10
386.5379564122
 20
88.4551302726
 30
0.0
 10
386.4784855904
 20
88.3976689509
 30
0.0
  0
SPLINE
  5
832
100
AcDbEntity
  8
0
100
AcDbSpline
 62
7
  6
CONTINUOUS
 70
0
 71
3
 72
9
 73
5
 74
0
 42
0.0000001
 43
0.0000001
 44
0.0000000001
 40
0.0
 40
0.0
 40
0.0
 40
0.0
 40
0.2853597975
 40
1.0
 40
1.0
 40
1.0
 40
1.0
 10
423.9274824253
 20
57.5072360232
 30
0.0
 10
423.8784126413
 20
57.5218656469
 30
0.0
 10
423.7053978798
 20
57.5685500059
 30
0.0
 10
423.5255353174
 20
57.596992714
 30
0.0
 10
423.3973302202
 20
57.5943121684
 30
0.0
  0
SPLINE
  5
833
100
AcDbEntity
  8
0
100
AcDbSpline
 62
7
  6
CONTINUOUS
 70
0
 71
3
 72
8
 73
4
 74
0
 42
0.0000001
 43
0.0000001
 44
0.0000000001
 40
0.0
 40
0.0
 40
0.0
 40
0.0
 40
1.0
 40
1.0
 40
1.0
 40
1.0
 10
423.3973302202
 20
57.5943121684
 30
0.0
 10
423.3715525474
 20
57.5937732021
 30
0.0
 10
423.3457672895
 20
57.5922411283
 30
0.0
 10
423.3201301738
 20
57.5894993769
 30
0.0
  0
SPLINE
  5
834
100
AcDbEntity
  8
0
100
AcDbSpline
 62
7
  6
CONTINUOUS
 70
0
 71
3
 72
9
 73
5
 74
0
 42
0.0000001
 43
0.0000001
 44
0.0000000001
 40
0.0
 40
0.0
 40
0.0
 40
0.0
 40
0.2920093717
 40
1.0
 40
1.0
 40
1.0
 40
1.0
 10
402.0282206715
 20
78.7590160873
 30
0.0
 10
401.9691882648
 20
78.7746553266
 30
0.0
 10
401.7659805926
 20
78.8215075749
 30
0.0
 10
401.5520155218
 20
78.841463483
 30
0.0
 10
401.4057859699
 20
78.8182255153
 30
0.0
  0
SPLINE
  5
835
100
AcDbEntity
  8
0
100
AcDbSpline
 62
7
  6
CONTINUOUS
 70
0
 71
3
 72
11
 73
7
 74
0
 42
0.0000001
 43
0.0000001
 44
0.0000000001
 40
0.0
 40
0.0
 40
0.0
 40
0.0
 40
0.2454741303
 40
0.4930871318
 40
0.74439517
 40
1.0
 40
1.0
 40
1.0
 40
1.0
 10
219.33857877
 20
295.995421697
 30
0.0
 10
219.33857877
 20
298.5129061175
 30
0.0
 10
219.9950303277
 20
303.5933056357
 30
0.0
 10
222.8939869873
 20
310.7419825456
 30
0.0
 10
227.5450720177
 20
317.0243106852
 30
0.0
 10
231.6175750562
 20
320.3536693963
 30
0.0
 10
233.831426911
 20
321.7574134523
 30
0.0
  0
SPLINE
  5
836
100
AcDbEntity
  8
0
100
AcDbSpline
 62
7
  6
CONTINUOUS
 70
0
 71
3
 72
11
 73
7
 74
0
 42
0.0000001
 43
0.0000001
 44
0.0000000001
 40
0.0
 40
0.0
 40
0.0
 40
0.0
 40
0.2556050303
 40
0.5069132145
 40
0.7545261816
 40
1.0
 40
1.0
 40
1.0
 40
1.0
 10
269.8456828399
 20
321.7574429368
 30
0.0
 10
272.0595432002
 20
320.3536996083
 30
0.0
 10
276.1320612598
 20
317.0243379463
 30
0.0
 10
280.783162521
 20
310.7419998516
 30
0.0
 10
283.6821261589
 20
303.5933126007
 30
0.0
 10
284.33857877
 20
298.5129074694
 30
0.0
 10
284.33857877
 20
295.995421697
 30
0.0
  0
SPLINE
  5
837
100
AcDbEntity
  8
0
100
AcDbSpline
 62
7
  6
CONTINUOUS
 70
0
 71
3
 72
15
 73
11
 74
0
 42
0.0000001
 43
0.0000001
 44
0.0000000001
 40
0.0
 40
0.0
 40
0.0
 40
0.0
 40
0.1240332942
 40
0.2481877412
 40
0.372577652
 40
0.4972918131
 40
0.6223888863
 40
0.7478910697
 40
0.8737801798
 40
1.0
 40
1.0
 40
1.0
 40
1.0
 10
193.33857877
 20
295.995421697
 30
0.0
 10
193.33857877
 20
298.9853216172
 30
0.0
 10
193.8247346777
 20
304.9793042791
 30
0.0
 10
195.9928399293
 20
313.7332643757
 30
0.0
 10
199.5430167756
 20
322.0435199156
 30
0.0
 10
204.3831157241
 20
329.7005028141
 30
0.0
 10
210.3886719612
 20
336.5170575919
 30
0.0
 10
217.4085195061
 20
342.3280436822
 30
0.0
 10
225.2647348516
 20
346.9939602343
 30
0.0
 10
230.9312911876
 20
349.2673232709
 30
0.0
 10
233.8334412552
 20
350.1810985913
 30
0.0
  0
SPLINE
  5
838
100
AcDbEntity
  8
0
100
AcDbSpline
 62
7
  6
CONTINUOUS
 70
0
 71
3
 72
15
 73
11
 74
0
 42
0.0000001
 43
0.0000001
 44
0.0000000001
 40
0.0
 40
0.0
 40
0.0
 40
0.0
 40
0.1262198835
 40
0.2521089936
 40
0.3776111234
 40
0.5027081152
 40
0.6274222582
 40
0.7518120876
 40
0.8759664713
 40
1.0
 40
1.0
 40
1.0
 40
1.0
 10
269.8432618445
 20
350.1812431815
 30
0.0
 10
272.7454400981
 20
349.2674856779
 30
0.0
 10
278.412050052
 20
346.994143422
 30
0.0
 10
286.2683509336
 20
342.3282525259
 30
0.0
 10
293.2882728539
 20
336.5172662082
 30
0.0
 10
299.2938990111
 20
329.7006981948
 30
0.0
 10
304.1340572361
 20
322.0436867281
 30
0.0
 10
307.6842785912
 20
313.7333894062
 30
0.0
 10
309.8524155574
 20
304.9793734015
 30
0.0
 10
310.33857877
 20
298.9853469311
 30
0.0
 10
310.33857877
 20
295.995421697
 30
0.0
  0
SPLINE
  5
839
100
AcDbEntity
  8
0
100
AcDbSpline
 62
7
  6
CONTINUOUS
 70
0
 71
3
 72
15
 73
11
 74
0
 42
0.0000001
 43
0.0000001
 44
0.0000000001
 40
0.0
 40
0.0
 40
0.0
 40
0.0
 40
0.1238822635
 40
0.2479169902
 40
0.3722408425
 40
0.4969548797
 40
0.6221141048
 40
0.7477192114
 40
0.8737156515
 40
1.0
 40
1.0
 40
1.0
 40
1.0
 10
310.33857877
 20
223.5509847253
 30
0.0
 10
310.33857877
 20
220.2048733757
 30
0.0
 10
309.7288848165
 20
213.4927564639
 30
0.0
 10
307.0160445433
 20
203.7570672073
 30
0.0
 10
302.5939759283
 20
194.6414074706
 30
0.0
 10
296.6062366485
 20
186.4328504619
 30
0.0
 10
289.2446593026
 20
179.381170252
 30
0.0
 10
280.7399206658
 20
173.698626669
 30
0.0
 10
271.3595303926
 20
169.554176607
 30
0.0
 10
264.709206802
 20
167.8972104868
 30
0.0
 10
261.3411713844
 20
167.3575732303
 30
0.0
  0
SPLINE
  5
83A
100
AcDbEntity
  8
0
100
AcDbSpline
 62
7
  6
CONTINUOUS
 70
0
 71
3
 72
15
 73
11
 74
0
 42
0.0000001
 43
0.0000001
 44
0.0000000001
 40
0.0
 40
0.0
 40
0.0
 40
0.0
 40
0.1262844527
 40
0.2522809289
 40
0.3778860032
 40
0.5030451388
 40
0.6277590962
 40
0.7520829371
 40
0.8761175357
 40
1.0
 40
1.0
 40
1.0
 40
1.0
 10
242.3363009621
 20
167.3575238599
 30
0.0
 10
238.9682472147
 20
167.8971490377
 30
0.0
 10
232.3178841863
 20
169.5540832623
 30
0.0
 10
222.9374365066
 20
173.6985128358
 30
0.0
 10
214.4326468122
 20
179.3810483526
 30
0.0
 10
207.071023967
 20
186.4327313305
 30
0.0
 10
201.0832429132
 20
194.6413013636
 30
0.0
 10
196.661141488
 20
203.7569833267
 30
0.0
 10
193.9482788118
 20
213.4927094957
 30
0.0
 10
193.33857877
 20
220.2048548325
 30
0.0
 10
193.33857877
 20
223.5509847253
 30
0.0
  0
SPLINE
  5
83B
100
AcDbEntity
  8
0
100
AcDbSpline
 62
7
  6
CONTINUOUS
 70
0
 71
3
 72
15
 73
11
 74
0
 42
0.0000001
 43
0.0000001
 44
0.0000000001
 40
0.0
 40
0.0
 40
0.0
 40
0.0
 40
0.1215738615
 40
0.2436012185
 40
0.3664971357
 40
0.4905648449
 40
0.6159815311
 40
0.7427821719
 40
0.8708633871
 40
1.0
 40
1.0
 40
1.0
 40
1.0
 10
284.33857877
 20
223.5509847253
 30
0.0
 10
284.33857877
 20
221.9233633693
 30
0.0
 10
284.0668258001
 20
218.6556181292
 30
0.0
 10
282.8531347526
 20
213.8794558531
 30
0.0
 10
280.8591862282
 20
209.3351859926
 30
0.0
 10
278.1287964263
 20
205.1378374991
 30
0.0
 10
274.7248313261
 20
201.3949678422
 30
0.0
 10
270.7281431064
 20
198.2061053429
 30
0.0
 10
266.2393319563
 20
195.6587271214
 30
0.0
 10
263.001701867
 20
194.4385228346
 30
0.0
 10
261.3418442678
 20
193.9549245833
 30
0.0
  0
SPLINE
  5
83C
100
AcDbEntity
  8
0
100
AcDbSpline
 62
7
  6
CONTINUOUS
 70
0
 71
3
 72
15
 73
11
 74
0
 42
0.0000001
 43
0.0000001
 44
0.0000000001
 40
0.0
 40
0.0
 40
0.0
 40
0.0
 40
0.1291365882
 40
0.2572178515
 40
0.3840185648
 40
0.5094353233
 40
0.6335030864
 40
0.7563990112
 40
0.8784262945
 40
1.0
 40
1.0
 40
1.0
 40
1.0
 10
242.335101997
 20
193.9549855072
 30
0.0
 10
240.6752565054
 20
194.4385903897
 30
0.0
 10
237.4376527909
 20
195.6588119166
 30
0.0
 10
232.9488779518
 20
198.2061985869
 30
0.0
 10
228.9522246992
 20
201.3950644111
 30
0.0
 10
225.5482922855
 20
205.1379296573
 30
0.0
 10
222.8179296195
 20
209.3352651269
 30
0.0
 10
220.8240043842
 20
213.8795152138
 30
0.0
 10
219.6103280406
 20
218.6556500795
 30
0.0
 10
219.33857877
 20
221.9233743451
 30
0.0
 10
219.33857877
 20
223.5509847253
 30
0.0
  0
ELLIPSE
  5
83D
100
AcDbEntity
  8
RUNDUNGEN
100
AcDbEllipse
 62
7
  6
CONTINUOUS
 10
666.7656819178
 20
158.2953576705
 30
0.0
 11
13.5917808382
 21
-4.203350773
 31
0.0
 40
0.4203155586
 41
1.5396153878
 42
1.5416988386
  0
ELLIPSE
  5
83E
100
AcDbEntity
  8
RUNDUNGEN
100
AcDbEllipse
 62
7
  6
CONTINUOUS
 10
724.0285738891
 20
142.9518120105
 30
0.0
 11
13.872502875
 21
-3.1556818687
 31
0.0
 40
0.4203155586
 41
1.5998770104
 42
1.6019772748
  0
ELLIPSE
  5
83F
100
AcDbEntity
  8
0
100
AcDbEllipse
 62
7
  6
CONTINUOUS
 10
826.1982137009
 20
142.9518120105
 30
0.0
 11
13.872502875
 21
3.1556818687
 31
0.0
 40
0.4203155586
 41
1.5396153787
 42
1.5417156432
  0
ELLIPSE
  5
840
100
AcDbEntity
  8
0
100
AcDbEllipse
 62
7
  6
CONTINUOUS
 10
883.4611056723
 20
158.2953576705
 30
0.0
 11
13.5917808382
 21
4.203350773
 31
0.0
 40
0.4203155586
 41
1.599893815
 42
1.6019772658
  0
ELLIPSE
  5
841
100
AcDbEntity
  8
0
100
AcDbEllipse
 62
7
  6
CONTINUOUS
 10
243.7163695914
 20
156.1974854959
 30
0.0
 11
0.3665992131
 21
7.9984660413
 31
0.0
 40
0.427321232
 41
-1.2894137339
 42
0.0189671095
  0
ELLIPSE
  5
842
100
AcDbEntity
  8
RUNDUNGEN
100
AcDbEllipse
 62
7
  6
CONTINUOUS
 10
259.9607879486
 20
156.1974854959
 30
0.0
 11
-0.3665992131
 21
7.9984660413
 31
0.0
 40
0.427321232
 41
-0.0189671095
 42
1.2894137339
  0
ENDSEC
  0
SECTION
  2
OBJECTS
  0
DICTIONARY
  5
C
100
AcDbDictionary
280
0
281
1
  3
ACAD_GROUP
350
D
  3
ACAD_MLINESTYLE
350
17
  3
ACAD_LAYOUT
350
1A
  3
ACAD_PLOTSETTINGS
350
19
  3
ACAD_PLOTSTYLENAME
350
E
  0
DICTIONARY
  5
D
102
{ACAD_REACTORS
330
C
102
}
100
AcDbDictionary
280
0
281
1
  0
ACDBDICTIONARYWDFLT
  5
E
102
{ACAD_REACTORS
330
C
102
}
100
AcDbDictionary
281
1
  3
Normal
350
F
100
AcDbDictionaryWithDefault
340
F
  0
DICTIONARY
  5
17
102
{ACAD_REACTORS
330
C
102
}
100
AcDbDictionary
280
0
281
1
  3
Standard
350
18
  0
DICTIONARY
  5
19
102
{ACAD_REACTORS
330
C
102
}
100
AcDbDictionary
281
1
  0
DICTIONARY
  5
1A
102
{ACAD_REACTORS
330
C
102
}
100
AcDbDictionary
281
1
  3
Model
350
843
  3
Layout1
350
844
  0
ACDBPLACEHOLDER
  5
F
102
{ACAD_REACTORS
330
E
102
}
  0
MLINESTYLE
  5
18
102
{ACAD_REACTORS
330
17
102
}
100
AcDbMlineStyle
  2
STANDARD
 70
0
  3

 62
256
 51
90.0
 52
90.0
 71
2
 49
0.5
 62
256
  6
BYLAYER
 49
-0.5
 62
256
  6
BYLAYER
  0
LAYOUT
  5
843
102
{ACAD_REACTORS
330
1A
102
}
100
AcDbPlotSettings
  1

  2
none_device
  4
ISO_A0_(1189.00_x_841.00_MM)
  6

 40
0.0
 41
0.0
 42
0.0
 43
0.0
 44
1189.0
 45
841.0
 46
0.0
 47
0.0
 48
0.0
 49
0.0
140
0.0
141
0.0
142
1.0
143
1.0
 70
1024
 72
1
 73
0
 74
0
  7

 75
0
147
1.0
148
0.0
149
0.0
100
AcDbLayout
  1
Model
 70
0
 71
0
 10
0.0
 20
0.0
 11
1189.0
 21
841.0
 12
0.0
 22
0.0
 32
0.0
 14
0.0
 24
0.0
 34
0.0
 15
0.0
 25
0.0
 35
0.0
146
0.0
 13
0.0
 23
0.0
 33
0.0
 16
1.0
 26
0.0
 36
0.0
 17
0.0
 27
1.0
 37
0.0
 76
0
330
20A
345
0
346
0
  0
LAYOUT
  5
844
102
{ACAD_REACTORS
330
1A
102
}
100
AcDbPlotSettings
  1

  2
none_device
  4
ISO_A0_(1189.00_x_841.00_MM)
  6

 40
0.0
 41
0.0
 42
0.0
 43
0.0
 44
1189.0
 45
841.0
 46
0.0
 47
0.0
 48
0.0
 49
0.0
140
0.0
141
0.0
142
1.0
143
1.0
 70
0
 72
1
 73
0
 74
0
  7

 75
0
147
1.0
148
0.0
149
0.0
100
AcDbLayout
  1
Layout1
 70
0
 71
1
 10
0.0
 20
0.0
 11
1189.0
 21
841.0
 12
0.0
 22
0.0
 32
0.0
 14
0.0
 24
0.0
 34
0.0
 15
0.0
 25
0.0
 35
0.0
146
0.0
 13
0.0
 23
0.0
 33
0.0
 16
1.0
 26
0.0
 36
0.0
 17
0.0
 27
1.0
 37
0.0
 76
0
330
20B
345
0
346
0
  0
ENDSEC
  0
EOF
