999
DXF file: ISAK-RG-2-13_190_7903201_M34586-P-8.dxf
999
Pro/ENGINEER 2010140 by Parametric Technology Corporation
  0
SECTION
  2
HEADER
  9
$ACADVER
  1
AC1015
  9
$DWGCODEPAGE
  3
ANSI_1252
  9
$EXTMAX
 10
1189.0
 20
841.0
 30
0.0
  9
$EXTMIN
 10
0.0
 20
0.0
 30
0.0
  9
$LIMMIN
 10
0.0
 20
0.0
  9
$LIMMAX
 10
1189.0
 20
841.0
  9
$VIEWCTR
 10
594.5
 20
420.5
  9
$VIEWSIZE
 40
841.0
  9
$CLAYER
  8
0
  9
$LTSCALE
 40
65.395
  9
$CELTYPE
  6
BYLAYER
  9
$DIMSCALE
 40
1.0
  9
$DIMASZ
 40
3.5
  9
$DIMEXO
 40
7.43125
  9
$DIMDLI
 40
45.182
  9
$DIMEXE
 40
21.402
  9
$DIMCEN
 40
10.701
  9
$DIMLFAC
 40
1.0
  9
$DIMBLK
  1
_FILLED
  9
$DIMTXT
 40
3.5
  9
$DIMTOL
 70
1
  9
$DIMLIM
 70
0
  9
$DIMTFAC
 40
1.0
  9
$DIMTP
 40
0.005
  9
$DIMTM
 40
0.005
  9
$PDMODE
 70
3
  9
$PDSIZE
 40
0.3125
  9
$HANDSEED
  5
845
  9
$TILEMODE
 70
1
  9
$MEASUREMENT
 70
1
  9
$INSUNITS
 70
4
  0
ENDSEC
  0
SECTION
  2
CLASSES
  0
CLASS
  1
ACDBDICTIONARYWDFLT
  2
AcDbDictionaryWithDefault
  3
AutoCAD 2000
 90
0
280
0
281
0
  0
CLASS
  1
ACDBPLACEHOLDER
  2
AcDbPlaceHolder
  3
AutoCAD 2000
 90
0
280
0
281
0
  0
CLASS
  1
LAYOUT
  2
AcDbLayout
  3
AutoCAD 2000
 90
0
280
0
281
0
  0
ENDSEC
  0
SECTION
  2
TABLES
  0
TABLE
  2
VPORT
  5
8
100
AcDbSymbolTable
 70
2
  0
VPORT
  5
1F4
100
AcDbSymbolTableRecord
100
AcDbViewportTableRecord
  2
*ACTIVE
 70
0
 10
0.0
 20
0.0
 11
1.0
 21
1.0
 12
594.5
 22
420.5
 13
0.0
 23
0.0
 14
1.0
 24
1.0
 15
0.0
 25
0.0
 16
0.0
 26
0.0
 36
1.0
 17
0.0
 27
0.0
 37
0.0
 40
841.0
 41
1.4137931034
 42
50.0
 43
0.0
 44
0.0
 50
0.0
 51
0.0
 71
0
 72
100
 73
1
 74
1
 75
0
 76
0
 77
0
 78
0
  0
ENDTAB
  0
TABLE
  2
LTYPE
  5
5
100
AcDbSymbolTable
 70
6
  0
LTYPE
  5
14
100
AcDbSymbolTableRecord
100
AcDbLinetypeTableRecord
  2
BYBLOCK
 70
0
  3

 72
65
 73
0
 40
0.0
  0
LTYPE
  5
15
100
AcDbSymbolTableRecord
100
AcDbLinetypeTableRecord
  2
BYLAYER
 70
0
  3

 72
65
 73
0
 40
0.0
  0
LTYPE
  5
16
100
AcDbSymbolTableRecord
100
AcDbLinetypeTableRecord
  2
CONTINUOUS
 70
64
  3
Solid line
 72
65
 73
0
 40
0.0
  0
LTYPE
  5
1F5
100
AcDbSymbolTableRecord
100
AcDbLinetypeTableRecord
  2
CENTER
 70
64
  3
____ _ ____ _ ____ _ ____ _ ____ _ ____ _ ____
 72
65
 73
4
 40
0.6
 49
0.375
 74
0
 49
-0.075
 74
0
 49
0.075
 74
0
 49
-0.075
 74
0
  0
LTYPE
  5
1F6
100
AcDbSymbolTableRecord
100
AcDbLinetypeTableRecord
  2
HIDDEN
 70
64
  3
- - - - - - - - - - - - - - - - - - - -
 72
65
 73
2
 40
0.2
 49
0.1
 74
0
 49
-0.1
 74
0
  0
LTYPE
  5
1F7
100
AcDbSymbolTableRecord
100
AcDbLinetypeTableRecord
  2
PHANTOM
 70
64
  3
_____ _ _ _____ _ _ _____ _ _ _____
 72
65
 73
6
 40
0.8
 49
0.45
 74
0
 49
-0.05
 74
0
 49
0.1
 74
0
 49
-0.05
 74
0
 49
0.1
 74
0
 49
-0.05
 74
0
  0
LTYPE
  5
1F8
100
AcDbSymbolTableRecord
100
AcDbLinetypeTableRecord
  2
DOT
 70
64
  3
. . . . . . . . . . . . . . . . . . . .
 72
65
 73
2
 40
0.2
 49
0.1
 74
0
 49
-0.1
 74
0
  0
LTYPE
  5
1F9
100
AcDbSymbolTableRecord
100
AcDbLinetypeTableRecord
  2
DASHED
 70
64
  3
- - - - - - - - - - - - - - - - - - - -
 72
65
 73
2
 40
0.2
 49
0.1
 74
0
 49
-0.1
 74
0
  0
ENDTAB
  0
TABLE
  2
LAYER
  5
2
100
AcDbSymbolTable
 70
36
  0
LAYER
  5
10
100
AcDbSymbolTableRecord
100
AcDbLayerTableRecord
  2
0
 70
0
 62
7
  6
CONTINUOUS
370
-3
390
F
  0
LAYER
  5
1FA
100
AcDbSymbolTableRecord
100
AcDbLayerTableRecord
  2
DEFAULT_1
 70
0
 62
7
  6
CENTER
370
-3
390
F
  0
LAYER
  5
1FB
100
AcDbSymbolTableRecord
100
AcDbLayerTableRecord
  2
DEFAULT_2
 70
0
 62
8
  6
HIDDEN
370
-3
390
F
  0
LAYER
  5
1FC
100
AcDbSymbolTableRecord
100
AcDbLayerTableRecord
  2
DEFAULT_3
 70
0
 62
7
  6
PHANTOM
370
-3
390
F
  0
LAYER
  5
1FD
100
AcDbSymbolTableRecord
100
AcDbLayerTableRecord
  2
BEZUGSACHSEN
 70
0
 62
7
  6
CONTINUOUS
370
-3
390
F
  0
LAYER
  5
1FE
100
AcDbSymbolTableRecord
100
AcDbLayerTableRecord
  2
BEZUGSEBENEN
 70
0
 62
7
  6
CONTINUOUS
370
-3
390
F
  0
LAYER
  5
1FF
100
AcDbSymbolTableRecord
100
AcDbLayerTableRecord
  2
BG_STARTBEZUEGE
 70
0
 62
7
  6
CONTINUOUS
370
-3
390
F
  0
LAYER
  5
200
100
AcDbSymbolTableRecord
100
AcDbLayerTableRecord
  2
FASEN
 70
0
 62
7
  6
CONTINUOUS
370
-3
390
F
  0
LAYER
  5
201
100
AcDbSymbolTableRecord
100
AcDbLayerTableRecord
  2
HILFEN
 70
0
 62
7
  6
CONTINUOUS
370
-3
390
F
  0
LAYER
  5
202
100
AcDbSymbolTableRecord
100
AcDbLayerTableRecord
  2
KONSTRUKTIONSELEMENTE
 70
0
 62
7
  6
CONTINUOUS
370
-3
390
F
  0
LAYER
  5
203
100
AcDbSymbolTableRecord
100
AcDbLayerTableRecord
  2
NORM
 70
0
 62
7
  6
CONTINUOUS
370
-3
390
F
  0
LAYER
  5
204
100
AcDbSymbolTableRecord
100
AcDbLayerTableRecord
  2
PLATZIERUNG
 70
0
 62
7
  6
CONTINUOUS
370
-3
390
F
  0
LAYER
  5
205
100
AcDbSymbolTableRecord
100
AcDbLayerTableRecord
  2
RUNDUNGEN
 70
0
 62
7
  6
CONTINUOUS
370
-3
390
F
  0
LAYER
  5
206
100
AcDbSymbolTableRecord
100
AcDbLayerTableRecord
  2
TEIL_STARTBEZUEGE
 70
0
 62
7
  6
CONTINUOUS
370
-3
390
F
  0
LAYER
  5
207
100
AcDbSymbolTableRecord
100
AcDbLayerTableRecord
  2
T_STARTBEZUEGE
 70
0
 62
7
  6
CONTINUOUS
370
-3
390
F
  0
ENDTAB
  0
TABLE
  2
STYLE
  5
3
100
AcDbSymbolTable
 70
1
  0
STYLE
  5
11
100
AcDbSymbolTableRecord
100
AcDbTextStyleTableRecord
  2
STANDARD
 70
0
 40
0.0
 41
0.7
 50
0.0
 71
0
 42
0.2
  3
txt
  4

  0
STYLE
  5
208
100
AcDbSymbolTableRecord
100
AcDbTextStyleTableRecord
  2
TEXTSTYLE_1
 70
0
 40
0.0
 41
0.8
 50
0.0
 71
0
 42
0.2
  3
gdt
  4

  0
ENDTAB
  0
TABLE
  2
VIEW
  5
6
100
AcDbSymbolTable
 70
0
  0
ENDTAB
  0
TABLE
  2
UCS
  5
7
100
AcDbSymbolTable
 70
0
  0
ENDTAB
  0
TABLE
  2
APPID
  5
9
100
AcDbSymbolTable
 70
1
  0
APPID
  5
209
100
AcDbSymbolTableRecord
100
AcDbRegAppTableRecord
  2
ACAD
 70
0
  0
ENDTAB
  0
TABLE
  2
BLOCK_RECORD
  5
1
100
AcDbSymbolTable
 70
0
  0
BLOCK_RECORD
  5
20A
100
AcDbSymbolTableRecord
100
AcDbBlockTableRecord
  2
*Model_Space
  0
BLOCK_RECORD
  5
20B
100
AcDbSymbolTableRecord
100
AcDbBlockTableRecord
  2
*Paper_Space
  0
ENDTAB
  0
TABLE
  2
DIMSTYLE
  5
A
100
AcDbSymbolTable
 70
1
100
AcDbDimStyleTable
 71
0
  0
DIMSTYLE
105
20C
100
AcDbSymbolTableRecord
100
AcDbDimStyleTableRecord
  2
STANDARD
 70
0
  3

  4

 40
1.0
 41
3.5
 42
0.0625
 43
0.38
 44
0.18
 45
0.0
 46
0.0
 47
0.005
 48
0.005
140
3.5
141
0.09
142
0.0
143
25.4
144
1.0
145
0.0
146
1.0
147
0.09
 71
1.0
 72
0.0
 73
0
 74
0
 75
0
 76
0
 77
1
 78
8
170
0
171
2
172
0
173
0
174
0
175
0
176
0
177
0
178
5
270
2
271
3
272
3
273
2
274
2
275
0
280
0
281
0
282
0
283
1
284
8
285
0
286
0
287
3
288
0
340
11
  0
ENDTAB
  0
ENDSEC
  0
SECTION
  2
BLOCKS
  0
BLOCK
  5
20
100
AcDbEntity
  8
0
100
AcDbBlockBegin
  2
*Model_Space
 70
0
 10
0.0
 20
0.0
 30
0.0
  3
*Model_Space
  1

  0
ENDBLK
  5
21
100
AcDbEntity
  8
0
100
AcDbBlockEnd
  0
BLOCK
  5
1C
100
AcDbEntity
  8
0
100
AcDbBlockBegin
  2
*Paper_Space
 70
0
 10
0.0
 20
0.0
 30
0.0
  3
*Paper_Space
  1

  0
ENDBLK
  5
1D
100
AcDbEntity
  8
0
100
AcDbBlockEnd
  0
ENDSEC
  0
SECTION
  2
ENTITIES
  0
MTEXT
  5
20D
100
AcDbEntity
  8
0
100
AcDbMText
 62
5
  6
CONTINUOUS
  7
STANDARD
 71
1
 72
1
 10
623.0940403471
 20
527.9740427259
 30
0.0
 11
0.0
 21
1.0
 31
0.0
 44
0.9
  1
RUD
 40
11.0
 41
29.3333333333
  0
MTEXT
  5
20E
100
AcDbEntity
  8
0
100
AcDbMText
 62
5
  6
CONTINUOUS
  7
STANDARD
 71
1
 72
1
 10
849.1005600319
 20
476.3141853805
 30
0.0
 11
0.0
 21
1.0
 31
0.0
 44
0.9
  1
ISAK-RG 2-13/190
 40
11.0
 41
132.2619047619
  0
MTEXT
  5
20F
100
AcDbEntity
  8
0
100
AcDbMText
 62
5
  6
CONTINUOUS
  7
STANDARD
 71
1
 72
1
 10
250.24641681
 20
454.5747958668
 30
0.0
 11
0.0
 21
1.0
 31
0.0
 44
0.9
  1
RUD ISAK-RG 2-13/190
 40
11.0
 41
168.1428571429
  0
LINE
  5
210
100
AcDbEntity
  8
0
100
AcDbLine
 62
7
  6
CONTINUOUS
 10
0.0
 20
0.0
 11
0.0
 21
841.0
  0
LINE
  5
211
100
AcDbEntity
  8
0
100
AcDbLine
 62
7
  6
CONTINUOUS
 10
0.0
 20
0.0
 11
1189.0
 21
0.0
  0
LINE
  5
212
100
AcDbEntity
  8
0
100
AcDbLine
 62
7
  6
CONTINUOUS
 10
0.0
 20
841.0
 11
1189.0
 21
841.0
  0
LINE
  5
213
100
AcDbEntity
  8
0
100
AcDbLine
 62
7
  6
CONTINUOUS
 10
1189.0
 20
0.0
 11
1189.0
 21
841.0
  0
LINE
  5
214
100
AcDbEntity
  8
RUNDUNGEN
100
AcDbLine
 62
7
  6
CONTINUOUS
 10
597.8220979224
 20
76.2748049778
 11
601.2028383144
 21
75.3689383199
  0
LINE
  5
215
100
AcDbEntity
  8
RUNDUNGEN
100
AcDbLine
 62
7
  6
CONTINUOUS
 10
667.8517203284
 20
57.5104242079
 11
671.2324607204
 21
56.60455755
  0
LINE
  5
216
100
AcDbEntity
  8
RUNDUNGEN
100
AcDbLine
 62
7
  6
CONTINUOUS
 10
610.2265467137
 20
83.9318050552
 11
618.780221526
 21
81.6398547969
  0
LINE
  5
217
100
AcDbEntity
  8
RUNDUNGEN
100
AcDbLine
 62
7
  6
CONTINUOUS
 10
655.7647181736
 20
71.7298887877
 11
664.3183929859
 21
69.4379385294
  0
LINE
  5
218
100
AcDbEntity
  8
0
100
AcDbLine
 62
7
  6
CONTINUOUS
 10
797.864072053
 20
137.4082376649
 11
802.9658431658
 21
138.7752531145
  0
LINE
  5
219
100
AcDbEntity
  8
0
100
AcDbLine
 62
7
  6
CONTINUOUS
 10
852.6497021702
 20
152.0880030116
 11
857.7514732829
 21
153.4550184612
  0
LINE
  5
21A
100
AcDbEntity
  8
0
100
AcDbLine
 62
7
  6
CONTINUOUS
 10
633.5077654843
 20
132.8902521775
 11
639.5351426404
 21
131.275221336
  0
LINE
  5
21B
100
AcDbEntity
  8
0
100
AcDbLine
 62
7
  6
CONTINUOUS
 10
642.7319144338
 20
130.4186489156
 11
643.937389865
 21
130.0956427473
  0
LINE
  5
21C
100
AcDbEntity
  8
0
100
AcDbLine
 62
7
  6
CONTINUOUS
 10
649.679664443
 20
128.5570049114
 11
651.0716275725
 21
128.184029515
  0
LINE
  5
21D
100
AcDbEntity
  8
0
100
AcDbLine
 62
7
  6
CONTINUOUS
 10
661.5601037978
 20
125.3736507806
 11
665.9273994754
 21
124.2034374306
  0
LINE
  5
21E
100
AcDbEntity
  8
0
100
AcDbLine
 62
7
  6
CONTINUOUS
 10
633.6267237406
 20
133.3342104337
 11
639.6541008966
 21
131.7191795922
  0
LINE
  5
21F
100
AcDbEntity
  8
0
100
AcDbLine
 62
7
  6
CONTINUOUS
 10
642.85087269
 20
130.8626071718
 11
644.0563481212
 21
130.5396010035
  0
LINE
  5
220
100
AcDbEntity
  8
0
100
AcDbLine
 62
7
  6
CONTINUOUS
 10
649.7986226993
 20
129.0009631676
 11
650.8280954304
 21
128.7251167807
  0
LINE
  5
221
100
AcDbEntity
  8
0
100
AcDbLine
 62
7
  6
CONTINUOUS
 10
661.679062054
 20
125.8176090368
 11
666.0463577316
 21
124.6473956869
  0
LINE
  5
222
100
AcDbEntity
  8
0
100
AcDbLine
 62
7
  6
CONTINUOUS
 10
666.1917315684
 20
125.0842759096
 11
663.0034957414
 21
125.9385611247
  0
LINE
  5
223
100
AcDbEntity
  8
0
100
AcDbLine
 62
7
  6
CONTINUOUS
 10
637.7487315579
 20
132.8958880027
 11
635.8651761967
 21
133.4005851407
  0
LINE
  5
224
100
AcDbEntity
  8
0
100
AcDbLine
 62
7
  6
CONTINUOUS
 10
636.3112785923
 20
133.7093020864
 11
637.5167540235
 21
133.3862959181
  0
LINE
  5
225
100
AcDbEntity
  8
0
100
AcDbLine
 62
7
  6
CONTINUOUS
 10
636.4302368485
 20
134.1532603427
 11
637.6357122797
 21
133.8302541744
  0
LINE
  5
226
100
AcDbEntity
  8
0
100
AcDbLine
 62
7
  6
CONTINUOUS
 10
637.3313649982
 20
134.5779700176
 11
637.0676672476
 21
134.6486276169
  0
LINE
  5
227
100
AcDbEntity
  8
0
100
AcDbLine
 62
7
  6
CONTINUOUS
 10
637.8736287922
 20
134.7181706868
 11
637.5534243808
 21
134.8039692003
  0
LINE
  5
228
100
AcDbEntity
  8
0
100
AcDbLine
 62
7
  6
CONTINUOUS
 10
636.9883577724
 20
134.9553783417
 11
636.668153361
 21
135.0411768551
  0
LINE
  5
229
100
AcDbEntity
  8
0
100
AcDbLine
 62
7
  6
CONTINUOUS
 10
636.4361758266
 20
135.5315847706
 11
637.095420203
 21
135.3549407723
  0
LINE
  5
22A
100
AcDbEntity
  8
0
100
AcDbLine
 62
7
  6
CONTINUOUS
 10
637.6604868114
 20
135.2035316309
 11
638.3197311878
 21
135.0268876326
  0
LINE
  5
22B
100
AcDbEntity
  8
0
100
AcDbLine
 62
7
  6
CONTINUOUS
 10
644.8328282934
 20
133.4374644569
 11
647.8465168714
 21
132.6299490362
  0
LINE
  5
22C
100
AcDbEntity
  8
0
100
AcDbLine
 62
7
  6
CONTINUOUS
 10
636.5551340828
 20
135.9755430268
 11
637.2143784592
 21
135.7988990285
  0
LINE
  5
22D
100
AcDbEntity
  8
0
100
AcDbLine
 62
7
  6
CONTINUOUS
 10
637.7794450676
 20
135.6474898871
 11
638.4386894441
 21
135.4708458888
  0
LINE
  5
22E
100
AcDbEntity
  8
0
100
AcDbLine
 62
7
  6
CONTINUOUS
 10
638.4624810953
 20
135.5596375401
 11
637.8032367189
 21
135.7362815384
  0
LINE
  5
22F
100
AcDbEntity
  8
0
100
AcDbLine
 62
7
  6
CONTINUOUS
 10
637.2381701105
 20
135.8876906798
 11
636.5789257341
 21
136.064334678
  0
LINE
  5
230
100
AcDbEntity
  8
0
100
AcDbLine
 62
7
  6
CONTINUOUS
 10
644.9517865496
 20
133.8814227132
 11
647.9654751276
 21
133.0739072925
  0
LINE
  5
231
100
AcDbEntity
  8
0
100
AcDbLine
 62
7
  6
CONTINUOUS
 10
637.0250281297
 20
136.3730516238
 11
637.3452325411
 21
136.2872531104
  0
LINE
  5
232
100
AcDbEntity
  8
0
100
AcDbLine
 62
7
  6
CONTINUOUS
 10
637.9102991495
 20
136.135843969
 11
638.2305035609
 21
136.0500454555
  0
LINE
  5
233
100
AcDbEntity
  8
0
100
AcDbLine
 62
7
  6
CONTINUOUS
 10
648.577198153
 20
133.3477629847
 11
645.0612281453
 21
134.2898643089
  0
LINE
  5
234
100
AcDbEntity
  8
0
100
AcDbLine
 62
7
  6
CONTINUOUS
 10
637.5672919237
 20
136.5132522931
 11
637.8309896743
 21
136.4425946938
  0
LINE
  5
235
100
AcDbEntity
  8
0
100
AcDbLine
 62
7
  6
CONTINUOUS
 10
637.1439863859
 20
136.81700988
 11
637.4641907973
 21
136.7312113666
  0
LINE
  5
236
100
AcDbEntity
  8
0
100
AcDbLine
 62
7
  6
CONTINUOUS
 10
638.0292574057
 20
136.5798022252
 11
638.3494618171
 21
136.4940037118
  0
LINE
  5
237
100
AcDbEntity
  8
0
100
AcDbLine
 62
7
  6
CONTINUOUS
 10
637.68625018
 20
136.9572105493
 11
637.9499479305
 21
136.88655295
  0
LINE
  5
238
100
AcDbEntity
  8
0
100
AcDbLine
 62
7
  6
CONTINUOUS
 10
664.1930783037
 20
130.378143687
 11
662.9876028725
 21
130.7011498553
  0
LINE
  5
239
100
AcDbEntity
  8
0
100
AcDbLine
 62
7
  6
CONTINUOUS
 10
645.3767847654
 20
135.4675376477
 11
644.1713093342
 21
135.790543816
  0
LINE
  5
23A
100
AcDbEntity
  8
0
100
AcDbLine
 62
7
  6
CONTINUOUS
 10
638.5873783296
 20
137.3819202242
 11
637.3819028984
 21
137.7049263925
  0
LINE
  5
23B
100
AcDbEntity
  8
0
100
AcDbLine
 62
7
  6
CONTINUOUS
 10
637.149925364
 20
138.1953343079
 11
639.0334807252
 21
137.69063717
  0
LINE
  5
23C
100
AcDbEntity
  8
0
100
AcDbLine
 62
7
  6
CONTINUOUS
 10
663.187452743
 20
131.4469997258
 11
667.5811640012
 21
130.2697083424
  0
LINE
  5
23D
100
AcDbEntity
  8
0
100
AcDbLine
 62
7
  6
CONTINUOUS
 10
644.3711592047
 20
136.5363936864
 11
649.0926046436
 21
135.271286194
  0
LINE
  5
23E
100
AcDbEntity
  8
0
100
AcDbLine
 62
7
  6
CONTINUOUS
 10
637.2688836202
 20
138.6392925642
 11
639.1524389815
 21
138.1345954262
  0
LINE
  5
23F
100
AcDbEntity
  8
0
100
AcDbLine
 62
7
  6
CONTINUOUS
 10
663.3064109992
 20
131.890957982
 11
667.7001222574
 21
130.7136665986
  0
LINE
  5
240
100
AcDbEntity
  8
0
100
AcDbLine
 62
7
  6
CONTINUOUS
 10
644.4901174609
 20
136.9803519427
 11
649.2115628998
 21
135.7152444502
  0
LINE
  5
241
100
AcDbEntity
  8
0
100
AcDbLine
 62
7
  6
CONTINUOUS
 10
667.7831482726
 20
131.1291862278
 11
663.4158525949
 21
132.2993995778
  0
LINE
  5
242
100
AcDbEntity
  8
0
100
AcDbLine
 62
7
  6
CONTINUOUS
 10
660.7788750892
 20
133.0059755709
 11
659.573399658
 21
133.3289817392
  0
LINE
  5
243
100
AcDbEntity
  8
0
100
AcDbLine
 62
7
  6
CONTINUOUS
 10
654.8342043963
 20
134.5988452823
 11
653.6287289651
 21
134.9218514506
  0
LINE
  5
244
100
AcDbEntity
  8
0
100
AcDbLine
 62
7
  6
CONTINUOUS
 10
649.3091086699
 20
136.0792902203
 11
644.587663231
 21
137.3443977128
  0
LINE
  5
245
100
AcDbEntity
  8
0
100
AcDbLine
 62
7
  6
CONTINUOUS
 10
641.3908914376
 20
138.2009701332
 11
635.3635142815
 21
139.8160009746
  0
LINE
  5
246
100
AcDbEntity
  8
BEZUGSACHSEN
100
AcDbLine
 62
7
  6
CONTINUOUS
 10
831.7915609561
 20
159.1553322232
 11
817.495858727
 21
155.3248103557
  0
LINE
  5
247
100
AcDbEntity
  8
BEZUGSACHSEN
100
AcDbLine
 62
7
  6
CONTINUOUS
 10
830.5322419005
 20
163.8551749219
 11
816.2365396714
 21
160.0246530544
  0
LINE
  5
248
100
AcDbEntity
  8
BEZUGSACHSEN
100
AcDbLine
 62
7
  6
CONTINUOUS
 10
828.3015505342
 20
172.1802284369
 11
814.0058483051
 21
168.3497065694
  0
LINE
  5
249
100
AcDbEntity
  8
RUNDUNGEN
100
AcDbLine
 62
7
  6
CONTINUOUS
 10
685.6368082898
 20
137.4082376649
 11
680.5913237516
 21
138.7601711723
  0
LINE
  5
24A
100
AcDbEntity
  8
0
100
AcDbLine
 62
7
  6
CONTINUOUS
 10
680.5913237516
 20
138.7601711723
 11
680.535037177
 21
138.7752531145
  0
LINE
  5
24B
100
AcDbEntity
  8
0
100
AcDbLine
 62
7
  6
CONTINUOUS
 10
630.8511781726
 20
152.0880030116
 11
630.794891598
 21
152.1030849538
  0
LINE
  5
24C
100
AcDbEntity
  8
RUNDUNGEN
100
AcDbLine
 62
7
  6
CONTINUOUS
 10
630.794891598
 20
152.1030849538
 11
625.7494070598
 21
153.4550184612
  0
LINE
  5
24D
100
AcDbEntity
  8
BEZUGSACHSEN
100
AcDbLine
 62
7
  6
CONTINUOUS
 10
651.7093193866
 20
159.1553322232
 11
666.0050216157
 21
155.3248103557
  0
LINE
  5
24E
100
AcDbEntity
  8
BEZUGSACHSEN
100
AcDbLine
 62
7
  6
CONTINUOUS
 10
652.9686384423
 20
163.8551749219
 11
667.2643406714
 21
160.0246530544
  0
LINE
  5
24F
100
AcDbEntity
  8
BEZUGSACHSEN
100
AcDbLine
 62
7
  6
CONTINUOUS
 10
827.0422314785
 20
176.8800711356
 11
812.7465292494
 21
173.0495492681
  0
LINE
  5
250
100
AcDbEntity
  8
0
100
AcDbLine
 62
7
  6
CONTINUOUS
 10
848.4339876592
 20
188.2283482076
 11
825.6381381588
 21
182.1202187432
  0
LINE
  5
251
100
AcDbEntity
  8
0
100
AcDbLine
 62
7
  6
CONTINUOUS
 10
811.3424359297
 20
178.2896968757
 11
788.5465864293
 21
172.1815674113
  0
LINE
  5
252
100
AcDbEntity
  8
0
100
AcDbLine
 62
7
  6
CONTINUOUS
 10
786.5136109608
 20
179.7687351504
 11
810.9007015211
 21
186.3032363718
  0
LINE
  5
253
100
AcDbEntity
  8
0
100
AcDbLine
 62
7
  6
CONTINUOUS
 10
822.0139216304
 20
189.2810147254
 11
846.4010121907
 21
195.8155159468
  0
LINE
  5
254
100
AcDbEntity
  8
RUNDUNGEN
100
AcDbLine
 62
7
  6
CONTINUOUS
 10
612.733979623
 20
145.6744907372
 11
617.4839026326
 21
146.6271542979
  0
LINE
  5
255
100
AcDbEntity
  8
RUNDUNGEN
100
AcDbLine
 62
7
  6
CONTINUOUS
 10
645.7533858035
 20
152.6586644843
 11
639.4799025834
 21
151.4004295928
  0
LINE
  5
256
100
AcDbEntity
  8
RUNDUNGEN
100
AcDbLine
 62
7
  6
CONTINUOUS
 10
613.6490431325
 20
149.0895542467
 11
618.398966142
 21
150.0422178073
  0
LINE
  5
257
100
AcDbEntity
  8
0
100
AcDbLine
 62
7
  6
CONTINUOUS
 10
694.6208754067
 20
182.8650177808
 11
695.1775987232
 21
182.8524125607
  0
LINE
  5
258
100
AcDbEntity
  8
0
100
AcDbLine
 62
7
  6
CONTINUOUS
 10
695.3483091578
 20
183.4895125759
 11
694.6609394152
 21
183.5371244124
  0
LINE
  5
259
100
AcDbEntity
  8
0
100
AcDbLine
 62
7
  6
CONTINUOUS
 10
686.2595674913
 20
185.1054234844
 11
686.9469364893
 21
185.0578118594
  0
LINE
  5
25A
100
AcDbEntity
  8
BEZUGSACHSEN
100
AcDbLine
 62
7
  6
CONTINUOUS
 10
655.1993298086
 20
172.1802284369
 11
669.4950320377
 21
168.3497065694
  0
LINE
  5
25B
100
AcDbEntity
  8
BEZUGSACHSEN
100
AcDbLine
 62
7
  6
CONTINUOUS
 10
656.4586488643
 20
176.8800711356
 11
670.7543510933
 21
173.0495492681
  0
LINE
  5
25C
100
AcDbEntity
  8
RUNDUNGEN
100
AcDbLine
 62
7
  6
CONTINUOUS
 10
635.0668926835
 20
188.2283482076
 11
657.8627421839
 21
182.1202187432
  0
LINE
  5
25D
100
AcDbEntity
  8
RUNDUNGEN
100
AcDbLine
 62
7
  6
CONTINUOUS
 10
672.158444413
 20
178.2896968757
 11
694.9542939134
 21
172.1815674113
  0
LINE
  5
25E
100
AcDbEntity
  8
RUNDUNGEN
100
AcDbLine
 62
7
  6
CONTINUOUS
 10
696.987269382
 20
179.7687351504
 11
672.6001788217
 21
186.3032363718
  0
LINE
  5
25F
100
AcDbEntity
  8
RUNDUNGEN
100
AcDbLine
 62
7
  6
CONTINUOUS
 10
661.4869587124
 20
189.2810147254
 11
637.0998681521
 21
195.8155159468
  0
LINE
  5
260
100
AcDbEntity
  8
0
100
AcDbLine
 62
7
  6
CONTINUOUS
 10
641.022303016
 20
197.2267119684
 11
641.7708955314
 21
197.0261272084
  0
LINE
  5
261
100
AcDbEntity
  8
0
100
AcDbLine
 62
7
  6
CONTINUOUS
 10
644.8900308931
 20
196.1903574072
 11
645.7633890657
 21
195.9563417901
  0
LINE
  5
262
100
AcDbEntity
  8
0
100
AcDbLine
 62
7
  6
CONTINUOUS
 10
648.7577587702
 20
195.154002846
 11
649.2568206851
 21
195.0202796089
  0
LINE
  5
263
100
AcDbEntity
  8
0
100
AcDbLine
 62
7
  6
CONTINUOUS
 10
652.2511907466
 20
194.2179405691
 11
655.2455608081
 21
193.4156015293
  0
LINE
  5
264
100
AcDbEntity
  8
0
100
AcDbLine
 62
7
  6
CONTINUOUS
 10
675.154705498
 20
188.0809622876
 11
675.9385780917
 21
187.8709242592
  0
LINE
  5
265
100
AcDbEntity
  8
0
100
AcDbLine
 62
7
  6
CONTINUOUS
 10
676.9837414877
 20
187.5908735713
 11
677.7676140814
 21
187.3808355428
  0
LINE
  5
266
100
AcDbEntity
  8
0
100
AcDbLine
 62
7
  6
CONTINUOUS
 10
681.0337499508
 20
186.5056770742
 11
681.9482682259
 21
186.2606326409
  0
LINE
  5
267
100
AcDbEntity
  8
0
100
AcDbLine
 62
7
  6
CONTINUOUS
 10
685.0837586008
 20
185.4204805271
 11
686.2595674913
 21
185.1054234844
  0
LINE
  5
268
100
AcDbEntity
  8
0
100
AcDbLine
 62
7
  6
CONTINUOUS
 10
689.9176398445
 20
184.1252459516
 11
690.7015124382
 21
183.9152079231
  0
LINE
  5
269
100
AcDbEntity
  8
0
100
AcDbLine
 62
7
  6
CONTINUOUS
 10
693.57571145
 20
183.145068619
 11
694.6208754067
 21
182.8650177808
  0
LINE
  5
26A
100
AcDbEntity
  8
0
100
AcDbLine
 62
7
  6
CONTINUOUS
 10
694.6609394152
 20
183.5371244124
 11
693.8770668215
 21
183.7471624408
  0
LINE
  5
26B
100
AcDbEntity
  8
0
100
AcDbLine
 62
7
  6
CONTINUOUS
 10
686.4644200116
 20
185.8699434982
 11
685.2886111211
 21
186.1850005409
  0
LINE
  5
26C
100
AcDbEntity
  8
0
100
AcDbLine
 62
7
  6
CONTINUOUS
 10
655.4504133284
 20
194.1801215431
 11
653.2046357823
 21
194.7818758229
  0
LINE
  5
26D
100
AcDbEntity
  8
0
100
AcDbLine
 62
7
  6
CONTINUOUS
 10
649.4616732054
 20
195.7847996227
 11
648.9626112905
 21
195.9185228598
  0
LINE
  5
26E
100
AcDbEntity
  8
0
100
AcDbLine
 62
7
  6
CONTINUOUS
 10
692.7754655173
 20
184.8617457018
 11
692.1222378576
 21
185.0367775258
  0
LINE
  5
26F
100
AcDbEntity
  8
0
100
AcDbLine
 62
7
  6
CONTINUOUS
 10
686.8117635601
 20
187.6888299948
 11
687.9875724507
 21
187.3737729521
  0
LINE
  5
270
100
AcDbEntity
  8
0
100
AcDbLine
 62
7
  6
CONTINUOUS
 10
642.4878793643
 20
199.7019473014
 11
644.6088914317
 21
199.1336238308
  0
LINE
  5
271
100
AcDbEntity
  8
0
100
AcDbLine
 62
7
  6
CONTINUOUS
 10
678.4845979143
 20
190.0566556357
 11
680.7055702009
 21
189.4615479051
  0
LINE
  5
272
100
AcDbEntity
  8
0
100
AcDbLine
 62
7
  6
CONTINUOUS
 10
694.5881287287
 20
185.8782958897
 11
695.1107099595
 21
185.7382706709
  0
LINE
  5
273
100
AcDbEntity
  8
0
100
AcDbLine
 62
7
  6
CONTINUOUS
 10
648.1680739978
 20
195.4485767474
 11
648.7577587702
 21
195.154002846
  0
LINE
  5
274
100
AcDbEntity
  8
0
100
AcDbLine
 62
7
  6
CONTINUOUS
 10
648.9626112905
 20
195.9185228598
 11
648.4976921723
 21
196.179665893
  0
LINE
  5
275
100
AcDbEntity
  8
RUNDUNGEN
100
AcDbLine
 62
7
  6
CONTINUOUS
 10
682.0518053751
 20
134.2828581488
 11
667.9146775324
 21
146.7205642623
  0
LINE
  5
276
100
AcDbEntity
  8
RUNDUNGEN
100
AcDbLine
 62
7
  6
CONTINUOUS
 10
682.2710604484
 20
138.3100870809
 11
682.9668688846
 21
137.6979216583
  0
LINE
  5
277
100
AcDbEntity
  8
RUNDUNGEN
100
AcDbLine
 62
7
  6
CONTINUOUS
 10
602.7423783278
 20
159.7660350802
 11
605.187286567
 21
155.4829753529
  0
LINE
  5
278
100
AcDbEntity
  8
RUNDUNGEN
100
AcDbLine
 62
7
  6
CONTINUOUS
 10
611.7743947157
 20
143.9434921207
 11
624.5512050257
 21
121.5607127574
  0
LINE
  5
279
100
AcDbEntity
  8
RUNDUNGEN
100
AcDbLine
 62
7
  6
CONTINUOUS
 10
646.0089954915
 20
83.9703456811
 11
651.12892346
 21
75.0011103794
  0
LINE
  5
27A
100
AcDbEntity
  8
RUNDUNGEN
100
AcDbLine
 62
7
  6
CONTINUOUS
 10
619.0832108114
 20
149.5121519921
 11
616.6989201318
 21
153.6890201559
  0
LINE
  5
27B
100
AcDbEntity
  8
0
100
AcDbLine
 62
7
  6
CONTINUOUS
 10
787.9187293345
 20
197.1803540555
 11
792.0603271837
 21
198.2900918546
  0
LINE
  5
27C
100
AcDbEntity
  8
0
100
AcDbLine
 62
7
  6
CONTINUOUS
 10
832.3367366819
 20
209.0821232537
 11
836.4783351366
 21
210.191861215
  0
LINE
  5
27D
100
AcDbEntity
  8
0
100
AcDbLine
 62
7
  6
CONTINUOUS
 10
825.1474879514
 20
207.3530158364
 11
799.1509529271
 21
200.3872652707
  0
LINE
  5
27E
100
AcDbEntity
  8
RUNDUNGEN
100
AcDbLine
 62
7
  6
CONTINUOUS
 10
612.4728510348
 20
155.4056568795
 11
607.7229280252
 21
154.4529933188
  0
LINE
  5
27F
100
AcDbEntity
  8
RUNDUNGEN
100
AcDbLine
 62
7
  6
CONTINUOUS
 10
607.4873710505
 20
165.4516803528
 11
605.6949472733
 21
165.0921846695
  0
LINE
  5
280
100
AcDbEntity
  8
RUNDUNGEN
100
AcDbLine
 62
7
  6
CONTINUOUS
 10
608.40243456
 20
168.8667438623
 11
606.6100107828
 21
168.507248179
  0
LINE
  5
281
100
AcDbEntity
  8
0
100
AcDbLine
 62
7
  6
CONTINUOUS
 10
695.1775987232
 20
182.8524125607
 11
695.7684641284
 21
182.9672273502
  0
LINE
  5
282
100
AcDbEntity
  8
0
100
AcDbLine
 62
7
  6
CONTINUOUS
 10
695.6437426034
 20
183.5469197536
 11
695.3483091578
 21
183.4895125759
  0
LINE
  5
283
100
AcDbEntity
  8
0
100
AcDbLine
 62
7
  6
CONTINUOUS
 10
686.9469364893
 20
185.0578118594
 11
687.537802642
 21
185.1726264487
  0
LINE
  5
284
100
AcDbEntity
  8
0
100
AcDbLine
 62
7
  6
CONTINUOUS
 10
694.6236662162
 20
189.1464139733
 11
694.0327993248
 21
189.0315996178
  0
LINE
  5
285
100
AcDbEntity
  8
0
100
AcDbLine
 62
7
  6
CONTINUOUS
 10
681.5577269601
 20
189.5063498515
 11
682.1485931038
 21
189.6211644073
  0
LINE
  5
286
100
AcDbEntity
  8
0
100
AcDbLine
 62
7
  6
CONTINUOUS
 10
686.0010669379
 20
191.4568324866
 11
685.4102015416
 21
191.3420177305
  0
LINE
  5
287
100
AcDbEntity
  8
0
100
AcDbLine
 62
7
  6
CONTINUOUS
 10
645.4717130475
 20
199.8584097921
 11
645.0632747071
 21
199.8312821846
  0
LINE
  5
288
100
AcDbEntity
  8
0
100
AcDbLine
 62
7
  6
CONTINUOUS
 10
696.0994350496
 20
186.292752567
 11
695.2472782904
 21
186.2479506206
  0
LINE
  5
289
100
AcDbEntity
  8
0
100
AcDbLine
 62
7
  6
CONTINUOUS
 10
681.597792066
 20
190.1784560934
 11
681.1717136864
 21
190.1560551202
  0
LINE
  5
28A
100
AcDbEntity
  8
0
100
AcDbLine
 62
7
  6
CONTINUOUS
 10
655.9836166121
 20
194.1738184847
 11
655.4504133284
 21
194.1801215431
  0
LINE
  5
28B
100
AcDbEntity
  8
0
100
AcDbLine
 62
7
  6
CONTINUOUS
 10
649.994877203
 20
195.7784963731
 11
649.4616732054
 21
195.7847996227
  0
LINE
  5
28C
100
AcDbEntity
  8
0
100
AcDbLine
 62
7
  6
CONTINUOUS
 10
687.0211433251
 20
185.8573382669
 11
686.4644200116
 21
185.8699434982
  0
LINE
  5
28D
100
AcDbEntity
  8
0
100
AcDbLine
 62
7
  6
CONTINUOUS
 10
685.926860123
 20
190.6573061572
 11
686.483584184
 21
190.6447007255
  0
LINE
  5
28E
100
AcDbEntity
  8
0
100
AcDbLine
 62
7
  6
CONTINUOUS
 10
655.2455608081
 20
193.4156015293
 11
655.9035304659
 21
193.3758674337
  0
LINE
  5
28F
100
AcDbEntity
  8
0
100
AcDbLine
 62
7
  6
CONTINUOUS
 10
649.2568206851
 20
195.0202796089
 11
649.914789629
 21
194.9805457046
  0
LINE
  5
290
100
AcDbEntity
  8
0
100
AcDbLine
 62
7
  6
CONTINUOUS
 10
694.5836007364
 20
188.4743078316
 11
695.270970479
 21
188.4266959952
  0
LINE
  5
291
100
AcDbEntity
  8
0
100
AcDbLine
 62
7
  6
CONTINUOUS
 10
686.6884366804
 20
191.4092206501
 11
686.0010669379
 21
191.4568324866
  0
LINE
  5
292
100
AcDbEntity
  8
0
100
AcDbLine
 62
7
  6
CONTINUOUS
 10
695.5723258265
 20
189.0287897278
 11
694.6236662162
 21
189.1464139733
  0
LINE
  5
293
100
AcDbEntity
  8
0
100
AcDbLine
 62
7
  6
CONTINUOUS
 10
695.2472782904
 20
186.2479506206
 11
694.7246970596
 21
186.3879758394
  0
LINE
  5
294
100
AcDbEntity
  8
0
100
AcDbLine
 62
7
  6
CONTINUOUS
 10
688.9762975408
 20
187.9282548482
 11
687.0166160565
 21
188.4533499193
  0
LINE
  5
295
100
AcDbEntity
  8
0
100
AcDbLine
 62
7
  6
CONTINUOUS
 10
681.1717136864
 20
190.1560551202
 11
678.6894504107
 21
190.8211755603
  0
LINE
  5
296
100
AcDbEntity
  8
0
100
AcDbLine
 62
7
  6
CONTINUOUS
 10
645.0632747071
 20
199.8312821846
 11
642.6927318607
 21
200.4664672259
  0
LINE
  5
297
100
AcDbEntity
  8
0
100
AcDbLine
 62
7
  6
CONTINUOUS
 10
688.4997036916
 20
189.2850727635
 11
689.2835762853
 21
189.0750347351
  0
LINE
  5
298
100
AcDbEntity
  8
0
100
AcDbLine
 62
7
  6
CONTINUOUS
 10
693.1064364983
 20
188.1872711417
 11
693.759662663
 21
188.0122397184
  0
LINE
  5
299
100
AcDbEntity
  8
0
100
AcDbLine
 62
7
  6
CONTINUOUS
 10
654.3996088452
 20
199.2415760076
 11
656.6453863913
 21
198.6398217277
  0
LINE
  5
29A
100
AcDbEntity
  8
0
100
AcDbLine
 62
7
  6
CONTINUOUS
 10
686.483584184
 20
190.6447007255
 11
687.6593930746
 21
190.3296436829
  0
LINE
  5
29B
100
AcDbEntity
  8
0
100
AcDbLine
 62
7
  6
CONTINUOUS
 10
643.2048631973
 20
202.3777673943
 11
645.5754060437
 21
201.742582353
  0
LINE
  5
29C
100
AcDbEntity
  8
0
100
AcDbLine
 62
7
  6
CONTINUOUS
 10
679.2015817473
 20
192.7324757287
 11
681.683845023
 21
192.0673552885
  0
LINE
  5
29D
100
AcDbEntity
  8
0
100
AcDbLine
 62
7
  6
CONTINUOUS
 10
695.270970479
 20
188.4266959952
 11
695.7935517097
 21
188.2866707764
  0
LINE
  5
29E
100
AcDbEntity
  8
0
100
AcDbLine
 62
7
  6
CONTINUOUS
 10
695.8336171895
 20
188.9587769181
 11
695.5723258265
 21
189.0287897278
  0
LINE
  5
29F
100
AcDbEntity
  8
0
100
AcDbLine
 62
7
  6
CONTINUOUS
 10
692.3061905178
 20
189.9039480461
 11
691.5223179241
 21
190.1139860746
  0
LINE
  5
2A0
100
AcDbEntity
  8
0
100
AcDbLine
 62
7
  6
CONTINUOUS
 10
687.864245571
 20
191.0941636074
 11
686.6884366804
 21
191.4092206501
  0
LINE
  5
2A1
100
AcDbEntity
  8
0
100
AcDbLine
 62
7
  6
CONTINUOUS
 10
681.723910129
 20
192.7394615304
 11
678.5884195673
 21
193.5796136942
  0
LINE
  5
2A2
100
AcDbEntity
  8
0
100
AcDbLine
 62
7
  6
CONTINUOUS
 10
677.5432561713
 20
193.8596643822
 11
676.7593835776
 21
194.0697024106
  0
LINE
  5
2A3
100
AcDbEntity
  8
0
100
AcDbLine
 62
7
  6
CONTINUOUS
 10
656.8502388877
 20
199.4043416523
 11
653.8558688262
 21
200.2066806921
  0
LINE
  5
2A4
100
AcDbEntity
  8
0
100
AcDbLine
 62
7
  6
CONTINUOUS
 10
652.8577457104
 20
200.4741269749
 11
652.109153195
 21
200.6747117349
  0
LINE
  5
2A5
100
AcDbEntity
  8
0
100
AcDbLine
 62
7
  6
CONTINUOUS
 10
649.1147831335
 20
201.4770507747
 11
648.3661902612
 21
201.6776356303
  0
LINE
  5
2A6
100
AcDbEntity
  8
0
100
AcDbLine
 62
7
  6
CONTINUOUS
 10
645.6213511571
 20
202.4131130516
 11
642.6269810956
 21
203.2154520914
  0
LINE
  5
2A7
100
AcDbEntity
  8
RUNDUNGEN
100
AcDbLine
 62
7
  6
CONTINUOUS
 10
695.5821510082
 20
197.1803540555
 11
691.440553159
 21
198.2900918546
  0
LINE
  5
2A8
100
AcDbEntity
  8
RUNDUNGEN
100
AcDbLine
 62
7
  6
CONTINUOUS
 10
651.1641436608
 20
209.0821232537
 11
647.0225452062
 21
210.191861215
  0
LINE
  5
2A9
100
AcDbEntity
  8
RUNDUNGEN
100
AcDbLine
 62
7
  6
CONTINUOUS
 10
658.3533923914
 20
207.3530158364
 11
684.3499274156
 21
200.3872652707
  0
LINE
  5
2AA
100
AcDbEntity
  8
0
100
AcDbLine
 62
7
  6
CONTINUOUS
 10
696.7139926344
 20
188.5863126976
 11
695.8336171895
 21
188.9587769181
  0
LINE
  5
2AB
100
AcDbEntity
  8
0
100
AcDbLine
 62
7
  6
CONTINUOUS
 10
695.1107099595
 20
185.7382706709
 11
695.8604404704
 21
185.400812655
  0
LINE
  5
2AC
100
AcDbEntity
  8
0
100
AcDbLine
 62
7
  6
CONTINUOUS
 10
684.4646730267
 20
185.7229323496
 11
685.0837586008
 21
185.4204805271
  0
LINE
  5
2AD
100
AcDbEntity
  8
0
100
AcDbLine
 62
7
  6
CONTINUOUS
 10
693.8770668215
 20
183.7471624408
 11
693.2579827396
 21
184.0496138516
  0
LINE
  5
2AE
100
AcDbEntity
  8
0
100
AcDbLine
 62
7
  6
CONTINUOUS
 10
682.3429949585
 20
192.4370099193
 11
681.723910129
 21
192.7394615304
  0
LINE
  5
2AF
100
AcDbEntity
  8
0
100
AcDbLine
 62
7
  6
CONTINUOUS
 10
688.4833304005
 20
190.7917119964
 11
687.864245571
 21
191.0941636074
  0
LINE
  5
2B0
100
AcDbEntity
  8
0
100
AcDbLine
 62
7
  6
CONTINUOUS
 10
695.7935517097
 20
188.2866707764
 11
696.4126372868
 21
187.984218965
  0
LINE
  5
2B1
100
AcDbEntity
  8
0
100
AcDbLine
 62
7
  6
CONTINUOUS
 10
646.2110362895
 20
202.1185390656
 11
645.6213511571
 21
202.4131130516
  0
LINE
  5
2B2
100
AcDbEntity
  8
0
100
AcDbLine
 62
7
  6
CONTINUOUS
 10
657.4399243771
 20
199.1097675707
 11
656.8502388877
 21
199.4043416523
  0
LINE
  5
2B3
100
AcDbEntity
  8
0
100
AcDbLine
 62
7
  6
CONTINUOUS
 10
685.2886111211
 20
186.1850005409
 11
684.8001712255
 21
186.4524459474
  0
LINE
  5
2B4
100
AcDbEntity
  8
0
100
AcDbLine
 62
7
  6
CONTINUOUS
 10
693.087272305
 20
183.4125138363
 11
693.57571145
 21
183.145068619
  0
LINE
  5
2B5
100
AcDbEntity
  8
0
100
AcDbLine
 62
7
  6
CONTINUOUS
 10
687.6593930746
 20
190.3296436829
 11
688.1478322226
 21
190.0621984767
  0
LINE
  5
2B6
100
AcDbEntity
  8
0
100
AcDbLine
 62
7
  6
CONTINUOUS
 10
656.6453863913
 20
198.6398217277
 11
657.1103055096
 21
198.3786786945
  0
LINE
  5
2B7
100
AcDbEntity
  8
0
100
AcDbLine
 62
7
  6
CONTINUOUS
 10
681.683845023
 20
192.0673552885
 11
682.0416392372
 21
191.8349162869
  0
LINE
  5
2B8
100
AcDbEntity
  8
0
100
AcDbLine
 62
7
  6
CONTINUOUS
 10
645.5754060437
 20
201.742582353
 11
645.9155602187
 21
201.5148699856
  0
LINE
  5
2B9
100
AcDbEntity
  8
0
100
AcDbLine
 62
7
  6
CONTINUOUS
 10
696.8091000808
 20
185.2831884094
 11
696.2241580816
 21
185.7130598076
  0
LINE
  5
2BA
100
AcDbEntity
  8
0
100
AcDbLine
 62
7
  6
CONTINUOUS
 10
684.0103759703
 20
186.1177975767
 11
684.4646730267
 21
185.7229323496
  0
LINE
  5
2BB
100
AcDbEntity
  8
RUNDUNGEN
100
AcDbLine
 62
7
  6
CONTINUOUS
 10
711.5681363957
 20
135.0440007704
 11
705.8034823239
 21
140.1156867584
  0
LINE
  5
2BC
100
AcDbEntity
  8
RUNDUNGEN
100
AcDbLine
 62
7
  6
CONTINUOUS
 10
712.4831999052
 20
138.4590642798
 11
706.7185458334
 21
143.5307502678
  0
LINE
  5
2BD
100
AcDbEntity
  8
0
100
AcDbLine
 62
7
  6
CONTINUOUS
 10
647.7372962573
 20
195.8371399928
 11
648.1680739978
 21
195.4485767474
  0
LINE
  5
2BE
100
AcDbEntity
  8
0
100
AcDbLine
 62
7
  6
CONTINUOUS
 10
657.8707014126
 20
198.72120455
 11
657.4399243771
 21
199.1097675707
  0
LINE
  5
2BF
100
AcDbEntity
  8
0
100
AcDbLine
 62
7
  6
CONTINUOUS
 10
648.4976921723
 20
196.179665893
 11
648.1916801039
 21
196.534798337
  0
LINE
  5
2C0
100
AcDbEntity
  8
RUNDUNGEN
100
AcDbLine
 62
7
  6
CONTINUOUS
 10
679.9237639903
 20
70.0511801715
 11
666.5284579039
 21
93.5174580109
  0
LINE
  5
2C1
100
AcDbEntity
  8
RUNDUNGEN
100
AcDbLine
 62
7
  6
CONTINUOUS
 10
680.8388274997
 20
73.466243681
 11
667.4435214133
 21
96.9325215203
  0
LINE
  5
2C2
100
AcDbEntity
  8
0
100
AcDbLine
 62
7
  6
CONTINUOUS
 10
655.9035304659
 20
193.3758674337
 11
656.4708758413
 21
193.4969843962
  0
LINE
  5
2C3
100
AcDbEntity
  8
0
100
AcDbLine
 62
7
  6
CONTINUOUS
 10
649.914789629
 20
194.9805457046
 11
650.4821357183
 21
195.1016624759
  0
LINE
  5
2C4
100
AcDbEntity
  8
0
100
AcDbLine
 62
7
  6
CONTINUOUS
 10
645.4257682911
 20
199.1878789979
 11
645.9931140144
 21
199.3089958313
  0
LINE
  5
2C5
100
AcDbEntity
  8
0
100
AcDbLine
 62
7
  6
CONTINUOUS
 10
692.6329737535
 20
183.807379464
 11
693.087272305
 21
183.4125138363
  0
LINE
  5
2C6
100
AcDbEntity
  8
0
100
AcDbLine
 62
7
  6
CONTINUOUS
 10
693.2579827396
 20
184.0496138516
 11
693.0308334594
 21
184.2470466487
  0
LINE
  5
2C7
100
AcDbEntity
  8
0
100
AcDbLine
 62
7
  6
CONTINUOUS
 10
688.9376282133
 20
190.3968466025
 11
688.4833304005
 21
190.7917119964
  0
LINE
  5
2C8
100
AcDbEntity
  8
0
100
AcDbLine
 62
7
  6
CONTINUOUS
 10
697.1682896997
 20
188.191447504
 11
696.7139926344
 21
188.5863126976
  0
LINE
  5
2C9
100
AcDbEntity
  8
0
100
AcDbLine
 62
7
  6
CONTINUOUS
 10
684.8001712255
 20
186.4524459474
 11
684.476519118
 21
186.8123050257
  0
LINE
  5
2CA
100
AcDbEntity
  8
0
100
AcDbLine
 62
7
  6
CONTINUOUS
 10
692.3093216341
 20
184.1672384977
 11
692.6329737535
 21
183.807379464
  0
LINE
  5
2CB
100
AcDbEntity
  8
0
100
AcDbLine
 62
7
  6
CONTINUOUS
 10
688.1478322226
 20
190.0621984767
 11
688.471484354
 21
189.7023394876
  0
LINE
  5
2CC
100
AcDbEntity
  8
0
100
AcDbLine
 62
7
  6
CONTINUOUS
 10
695.8604404704
 20
185.400812655
 11
696.1840926018
 21
185.0409536659
  0
LINE
  5
2CD
100
AcDbEntity
  8
0
100
AcDbLine
 62
7
  6
CONTINUOUS
 10
696.4126372868
 20
187.984218965
 11
696.7362894182
 21
187.624359976
  0
LINE
  5
2CE
100
AcDbEntity
  8
0
100
AcDbLine
 62
7
  6
CONTINUOUS
 10
657.1103055096
 20
198.3786786945
 11
657.4163176018
 21
198.0235463397
  0
LINE
  5
2CF
100
AcDbEntity
  8
0
100
AcDbLine
 62
7
  6
CONTINUOUS
 10
682.7631506886
 20
191.914724538
 11
682.3429949585
 21
192.4370099193
  0
LINE
  5
2D0
100
AcDbEntity
  8
0
100
AcDbLine
 62
7
  6
CONTINUOUS
 10
646.6076715992
 20
201.6025559619
 11
646.2110362895
 21
202.1185390656
  0
LINE
  5
2D1
100
AcDbEntity
  8
0
100
AcDbLine
 62
7
  6
CONTINUOUS
 10
647.3748033992
 20
196.4805430329
 11
647.7372962573
 21
195.8371399928
  0
LINE
  5
2D2
100
AcDbEntity
  8
0
100
AcDbLine
 62
7
  6
CONTINUOUS
 10
645.9155602187
 20
201.5148699856
 11
646.0968070106
 21
201.1931683922
  0
LINE
  5
2D3
100
AcDbEntity
  8
0
100
AcDbLine
 62
7
  6
CONTINUOUS
 10
647.8465168714
 20
132.6299490362
 11
649.679664443
 21
128.5570049114
  0
LINE
  5
2D4
100
AcDbEntity
  8
0
100
AcDbLine
 62
7
  6
CONTINUOUS
 10
647.9654751276
 20
133.0739072925
 11
649.7986226993
 21
129.0009631676
  0
LINE
  5
2D5
100
AcDbEntity
  8
0
100
AcDbLine
 62
7
  6
CONTINUOUS
 10
651.0716275725
 20
128.184029515
 11
649.1656215975
 21
132.4188526999
  0
LINE
  5
2D6
100
AcDbEntity
  8
RUNDUNGEN
100
AcDbLine
 62
7
  6
CONTINUOUS
 10
625.7494070545
 20
153.455018479
 11
622.4773377918
 21
164.4257095382
  0
LINE
  5
2D7
100
AcDbEntity
  8
0
100
AcDbLine
 62
7
  6
CONTINUOUS
 10
789.5450314055
 20
145.2731002006
 11
797.864072053
 21
137.4082376649
  0
LINE
  5
2D8
100
AcDbEntity
  8
0
100
AcDbLine
 62
7
  6
CONTINUOUS
 10
683.6243623349
 20
186.7675029901
 11
684.0103759703
 21
186.1177975767
  0
LINE
  5
2D9
100
AcDbEntity
  8
0
100
AcDbLine
 62
7
  6
CONTINUOUS
 10
682.0416392372
 20
191.8349162869
 11
682.2346460609
 21
191.5100636025
  0
LINE
  5
2DA
100
AcDbEntity
  8
0
100
AcDbLine
 62
7
  6
CONTINUOUS
 10
689.3236418607
 20
189.7471412337
 11
688.9376282133
 21
190.3968466025
  0
LINE
  5
2DB
100
AcDbEntity
  8
0
100
AcDbLine
 62
7
  6
CONTINUOUS
 10
693.0308334594
 20
184.2470466487
 11
692.8378262858
 21
184.5718995225
  0
LINE
  5
2DC
100
AcDbEntity
  8
0
100
AcDbLine
 62
7
  6
CONTINUOUS
 10
658.2331942826
 20
198.0778015546
 11
657.8707014126
 21
198.72120455
  0
LINE
  5
2DD
100
AcDbEntity
  8
0
100
AcDbLine
 62
7
  6
CONTINUOUS
 10
646.845399526
 20
200.9925836322
 11
646.6076715992
 21
201.6025559619
  0
LINE
  5
2DE
100
AcDbEntity
  8
0
100
AcDbLine
 62
7
  6
CONTINUOUS
 10
674.1494473286
 20
264.5397683399
 11
664.6715868018
 21
264.5397683399
  0
LINE
  5
2DF
100
AcDbEntity
  8
0
100
AcDbLine
 62
7
  6
CONTINUOUS
 10
809.3514330141
 20
264.5397683399
 11
818.8292935409
 21
264.5397683399
  0
LINE
  5
2E0
100
AcDbEntity
  8
0
100
AcDbLine
 62
7
  6
CONTINUOUS
 10
707.4715868018
 20
253.0715429038
 11
699.2635188121
 21
257.8104731672
  0
LINE
  5
2E1
100
AcDbEntity
  8
0
100
AcDbLine
 62
7
  6
CONTINUOUS
 10
697.5543040946
 20
187.5417419349
 11
697.1682896997
 21
188.191447504
  0
LINE
  5
2E2
100
AcDbEntity
  8
0
100
AcDbLine
 62
7
  6
CONTINUOUS
 10
683.0185182808
 20
191.3000256742
 11
682.7631506886
 21
191.914724538
  0
LINE
  5
2E3
100
AcDbEntity
  8
0
100
AcDbLine
 62
7
  6
CONTINUOUS
 10
648.1916801039
 20
196.534798337
 11
648.0445750377
 21
196.9839200135
  0
LINE
  5
2E4
100
AcDbEntity
  8
0
100
AcDbLine
 62
7
  6
CONTINUOUS
 10
657.4163176018
 20
198.0235463397
 11
657.5634225724
 21
197.5744243062
  0
LINE
  5
2E5
100
AcDbEntity
  8
0
100
AcDbLine
 62
7
  6
CONTINUOUS
 10
647.2618407966
 20
197.0570846904
 11
647.3748033992
 21
196.4805430329
  0
LINE
  5
2E6
100
AcDbEntity
  8
0
100
AcDbLine
 62
7
  6
CONTINUOUS
 10
645.7633890657
 20
195.9563417901
 11
645.4257682911
 21
199.1878789979
  0
LINE
  5
2E7
100
AcDbEntity
  8
0
100
AcDbLine
 62
7
  6
CONTINUOUS
 10
644.6088914317
 20
199.1336238308
 11
644.8900308931
 21
196.1903574072
  0
LINE
  5
2E8
100
AcDbEntity
  8
0
100
AcDbLine
 62
7
  6
CONTINUOUS
 10
646.0968070106
 20
201.1931683922
 11
646.1191460627
 21
200.7774776685
  0
LINE
  5
2E9
100
AcDbEntity
  8
0
100
AcDbLine
 62
7
  6
CONTINUOUS
 10
610.7504401714
 20
626.6019653042
 11
610.7504401714
 21
466.6019653042
  0
LINE
  5
2EA
100
AcDbEntity
  8
0
100
AcDbLine
 62
7
  6
CONTINUOUS
 10
633.3398122379
 20
233.2079937759
 11
633.3398122379
 21
210.2715429038
  0
LINE
  5
2EB
100
AcDbEntity
  8
0
100
AcDbLine
 62
7
  6
CONTINUOUS
 10
718.9398122379
 20
233.2079937759
 11
707.4715868018
 21
253.0715429038
  0
LINE
  5
2EC
100
AcDbEntity
  8
0
100
AcDbLine
 62
7
  6
CONTINUOUS
 10
684.476519118
 20
186.8123050257
 11
684.3176547508
 21
187.2645775974
  0
LINE
  5
2ED
100
AcDbEntity
  8
0
100
AcDbLine
 62
7
  6
CONTINUOUS
 10
692.1504580145
 20
184.6195108691
 11
692.3093216341
 21
184.1672384977
  0
LINE
  5
2EE
100
AcDbEntity
  8
0
100
AcDbLine
 62
7
  6
CONTINUOUS
 10
696.9679651955
 20
184.8309156375
 11
696.8091000808
 21
185.2831884094
  0
LINE
  5
2EF
100
AcDbEntity
  8
0
100
AcDbLine
 62
7
  6
CONTINUOUS
 10
696.7362894182
 20
187.624359976
 11
696.8951530378
 21
187.1720876046
  0
LINE
  5
2F0
100
AcDbEntity
  8
0
100
AcDbLine
 62
7
  6
CONTINUOUS
 10
658.3461572661
 20
197.5012598907
 11
658.2331942826
 21
198.0778015546
  0
LINE
  5
2F1
100
AcDbEntity
  8
0
100
AcDbLine
 62
7
  6
CONTINUOUS
 10
646.8677385781
 20
200.5768929085
 11
646.845399526
 21
200.9925836322
  0
LINE
  5
2F2
100
AcDbEntity
  8
0
100
AcDbLine
 62
7
  6
CONTINUOUS
 10
646.7504401714
 20
626.6019653042
 11
646.7504401714
 21
466.6019653042
  0
LINE
  5
2F3
100
AcDbEntity
  8
0
100
AcDbLine
 62
7
  6
CONTINUOUS
 10
648.0445750377
 20
196.9839200135
 11
648.0563784254
 21
197.527030629
  0
LINE
  5
2F4
100
AcDbEntity
  8
0
100
AcDbLine
 62
7
  6
CONTINUOUS
 10
629.0734807321
 20
194.3493769625
 11
628.3841424876
 21
186.4702047732
  0
LINE
  5
2F5
100
AcDbEntity
  8
0
100
AcDbLine
 62
7
  6
CONTINUOUS
 10
818.8292935409
 20
264.5397683399
 11
838.6928426688
 21
253.0715429038
  0
LINE
  5
2F6
100
AcDbEntity
  8
0
100
AcDbLine
 62
7
  6
CONTINUOUS
 10
683.4996400744
 20
187.3471956384
 11
683.6243623349
 21
186.7675029901
  0
LINE
  5
2F7
100
AcDbEntity
  8
0
100
AcDbLine
 62
7
  6
CONTINUOUS
 10
692.8378262858
 20
184.5718995225
 11
692.7754655173
 21
184.8617457018
  0
LINE
  5
2F8
100
AcDbEntity
  8
0
100
AcDbLine
 62
7
  6
CONTINUOUS
 10
696.1840926018
 20
185.0409536659
 11
696.308815586
 21
184.4612607281
  0
LINE
  5
2F9
100
AcDbEntity
  8
0
100
AcDbLine
 62
7
  6
CONTINUOUS
 10
681.9482682259
 20
186.2606326409
 11
681.5577269601
 21
189.5063498515
  0
LINE
  5
2FA
100
AcDbEntity
  8
0
100
AcDbLine
 62
7
  6
CONTINUOUS
 10
680.7055702009
 20
189.4615479051
 11
681.0337499508
 21
186.5056770742
  0
LINE
  5
2FB
100
AcDbEntity
  8
0
100
AcDbLine
 62
7
  6
CONTINUOUS
 10
682.2346460609
 20
191.5100636025
 11
682.2628651204
 21
191.0927973355
  0
LINE
  5
2FC
100
AcDbEntity
  8
0
100
AcDbLine
 62
7
  6
CONTINUOUS
 10
683.0467377141
 20
190.8827593071
 11
683.0185182808
 21
191.3000256742
  0
LINE
  5
2FD
100
AcDbEntity
  8
0
100
AcDbLine
 62
7
  6
CONTINUOUS
 10
688.471484354
 20
189.7023394876
 11
688.4997036916
 21
189.2850727635
  0
LINE
  5
2FE
100
AcDbEntity
  8
0
100
AcDbLine
 62
7
  6
CONTINUOUS
 10
692.1222378576
 20
185.0367775258
 11
692.1504580145
 21
184.6195108691
  0
LINE
  5
2FF
100
AcDbEntity
  8
0
100
AcDbLine
 62
7
  6
CONTINUOUS
 10
657.5634225724
 20
197.5744243062
 11
657.5516191847
 21
197.0313136907
  0
LINE
  5
300
100
AcDbEntity
  8
0
100
AcDbLine
 62
7
  6
CONTINUOUS
 10
647.307785553
 20
197.7276154846
 11
647.2618407966
 21
197.0570846904
  0
LINE
  5
301
100
AcDbEntity
  8
0
100
AcDbLine
 62
7
  6
CONTINUOUS
 10
658.3002117001
 20
196.8307289308
 11
658.3461572661
 21
197.5012598907
  0
LINE
  5
302
100
AcDbEntity
  8
RUNDUNGEN
100
AcDbLine
 62
7
  6
CONTINUOUS
 10
602.3240947016
 20
162.3974364007
 11
603.2391582111
 21
165.8124999101
  0
LINE
  5
303
100
AcDbEntity
  8
RUNDUNGEN
100
AcDbLine
 62
7
  6
CONTINUOUS
 10
593.124619176
 20
81.9257954598
 11
596.2556384124
 21
93.6109183296
  0
LINE
  5
304
100
AcDbEntity
  8
RUNDUNGEN
100
AcDbLine
 62
7
  6
CONTINUOUS
 10
611.6384525372
 20
144.7986975498
 11
612.5535160467
 21
148.2137610593
  0
LINE
  5
305
100
AcDbEntity
  8
0
100
AcDbLine
 62
7
  6
CONTINUOUS
 10
764.5610681049
 20
210.2715429038
 11
776.0292935409
 21
190.4079937759
  0
LINE
  5
306
100
AcDbEntity
  8
0
100
AcDbLine
 62
7
  6
CONTINUOUS
 10
780.2956250467
 20
174.4858278346
 11
783.6382267098
 21
167.3175954356
  0
LINE
  5
307
100
AcDbEntity
  8
0
100
AcDbLine
 62
7
  6
CONTINUOUS
 10
684.3176547508
 20
187.2645775974
 11
684.3235774002
 21
187.809263952
  0
LINE
  5
308
100
AcDbEntity
  8
0
100
AcDbLine
 62
7
  6
CONTINUOUS
 10
696.9620417507
 20
184.2862293048
 11
696.9679651955
 21
184.8309156375
  0
LINE
  5
309
100
AcDbEntity
  8
0
100
AcDbLine
 62
7
  6
CONTINUOUS
 10
697.5483806976
 20
186.9970557807
 11
697.5543040946
 21
187.5417419349
  0
LINE
  5
30A
100
AcDbEntity
  8
0
100
AcDbLine
 62
7
  6
CONTINUOUS
 10
683.5397048065
 20
188.0193019804
 11
683.4996400744
 21
187.3471956384
  0
LINE
  5
30B
100
AcDbEntity
  8
0
100
AcDbLine
 62
7
  6
CONTINUOUS
 10
689.2835762853
 20
189.0750347351
 11
689.3236418607
 21
189.7471412337
  0
LINE
  5
30C
100
AcDbEntity
  8
0
100
AcDbLine
 62
7
  6
CONTINUOUS
 10
629.0734807321
 20
194.3493769625
 11
633.3398122379
 21
210.2715429038
  0
LINE
  5
30D
100
AcDbEntity
  8
RUNDUNGEN
100
AcDbLine
 62
7
  6
CONTINUOUS
 10
622.4773377918
 20
164.4257095382
 11
633.54185197
 21
205.719038612
  0
LINE
  5
30E
100
AcDbEntity
  8
RUNDUNGEN
100
AcDbLine
 62
7
  6
CONTINUOUS
 10
601.7773075785
 20
75.5810351483
 11
603.3329155446
 21
81.3866431144
  0
LINE
  5
30F
100
AcDbEntity
  8
0
100
AcDbLine
 62
7
  6
CONTINUOUS
 10
642.6269810956
 20
203.2154520914
 11
641.022303016
 21
197.2267119684
  0
LINE
  5
310
100
AcDbEntity
  8
0
100
AcDbLine
 62
7
  6
CONTINUOUS
 10
641.7708955314
 20
197.0261272084
 11
642.4878793643
 21
199.7019473014
  0
LINE
  5
311
100
AcDbEntity
  8
0
100
AcDbLine
 62
7
  6
CONTINUOUS
 10
642.6927318607
 20
200.4664672259
 11
643.2048631973
 21
202.3777673943
  0
LINE
  5
312
100
AcDbEntity
  8
0
100
AcDbLine
 62
7
  6
CONTINUOUS
 10
646.1191460627
 20
200.7774776685
 11
646.0167197189
 21
200.3952173492
  0
LINE
  5
313
100
AcDbEntity
  8
0
100
AcDbLine
 62
7
  6
CONTINUOUS
 10
646.7311701515
 20
200.0672126019
 11
646.8677385781
 21
200.5768929085
  0
LINE
  5
314
100
AcDbEntity
  8
0
100
AcDbLine
 62
7
  6
CONTINUOUS
 10
648.3661902612
 20
201.6776356303
 11
647.307785553
 21
197.7276154846
  0
LINE
  5
315
100
AcDbEntity
  8
KONSTRUKTIONSELEMENTE
100
AcDbLine
 62
7
  6
CONTINUOUS
 10
640.6775327839
 20
172.231115198
 11
641.3245803966
 21
174.6459297637
  0
LINE
  5
316
100
AcDbEntity
  8
0
100
AcDbLine
 62
7
  6
CONTINUOUS
 10
648.0563784254
 20
197.527030629
 11
649.1147831335
 21
201.4770507747
  0
LINE
  5
317
100
AcDbEntity
  8
0
100
AcDbLine
 62
7
  6
CONTINUOUS
 10
634.4673422295
 20
139.4851299223
 11
632.8970932473
 21
133.6248809401
  0
LINE
  5
318
100
AcDbEntity
  8
0
100
AcDbLine
 62
7
  6
CONTINUOUS
 10
652.109153195
 20
200.6747117349
 11
651.0507484869
 21
196.7246915892
  0
LINE
  5
319
100
AcDbEntity
  8
0
100
AcDbLine
 62
7
  6
CONTINUOUS
 10
651.7993410022
 20
196.5241068292
 11
652.8577457104
 21
200.4741269749
  0
LINE
  5
31A
100
AcDbEntity
  8
0
100
AcDbLine
 62
7
  6
CONTINUOUS
 10
635.5598400782
 20
133.767899522
 11
636.1070480568
 21
135.8101075006
  0
LINE
  5
31B
100
AcDbEntity
  8
0
100
AcDbLine
 62
7
  6
CONTINUOUS
 10
636.2735896155
 20
136.4316490594
 11
636.8207975942
 21
138.473857038
  0
LINE
  5
31C
100
AcDbEntity
  8
0
100
AcDbLine
 62
7
  6
CONTINUOUS
 10
653.8558688262
 20
200.2066806921
 11
652.2511907466
 21
194.2179405691
  0
LINE
  5
31D
100
AcDbEntity
  8
0
100
AcDbLine
 62
7
  6
CONTINUOUS
 10
637.202668488
 20
137.638752182
 11
636.9028936823
 21
136.5199773763
  0
LINE
  5
31E
100
AcDbEntity
  8
0
100
AcDbLine
 62
7
  6
CONTINUOUS
 10
636.4889189506
 20
134.9750026447
 11
636.1891441449
 21
133.856227839
  0
LINE
  5
31F
100
AcDbEntity
  8
0
100
AcDbLine
 62
7
  6
CONTINUOUS
 10
637.095420203
 20
135.3549407723
 11
637.2381701105
 21
135.8876906798
  0
LINE
  5
320
100
AcDbEntity
  8
0
100
AcDbLine
 62
7
  6
CONTINUOUS
 10
636.9455328002
 20
134.7955533694
 11
636.9883577724
 21
134.9553783417
  0
LINE
  5
321
100
AcDbEntity
  8
0
100
AcDbLine
 62
7
  6
CONTINUOUS
 10
637.3452325411
 20
136.2872531104
 11
637.5070157696
 21
136.8910363388
  0
LINE
  5
322
100
AcDbEntity
  8
0
100
AcDbLine
 62
7
  6
CONTINUOUS
 10
653.2046357823
 20
194.7818758229
 11
654.3996088452
 21
199.2415760076
  0
LINE
  5
323
100
AcDbEntity
  8
0
100
AcDbLine
 62
7
  6
CONTINUOUS
 10
718.9398122379
 20
210.2715429038
 11
718.9398122379
 21
233.2079937759
  0
LINE
  5
324
100
AcDbEntity
  8
0
100
AcDbLine
 62
7
  6
CONTINUOUS
 10
638.072082378
 20
136.7396271975
 11
637.9102991495
 21
136.135843969
  0
LINE
  5
325
100
AcDbEntity
  8
0
100
AcDbLine
 62
7
  6
CONTINUOUS
 10
637.8032367189
 20
135.7362815384
 11
637.6604868114
 21
135.2035316309
  0
LINE
  5
326
100
AcDbEntity
  8
0
100
AcDbLine
 62
7
  6
CONTINUOUS
 10
637.5534243808
 20
134.8039692003
 11
637.5105994085
 21
134.644144228
  0
LINE
  5
327
100
AcDbEntity
  8
0
100
AcDbLine
 62
7
  6
CONTINUOUS
 10
637.6959884339
 20
133.4524701286
 11
637.9957632396
 21
134.5712449343
  0
LINE
  5
328
100
AcDbEntity
  8
0
100
AcDbLine
 62
7
  6
CONTINUOUS
 10
638.4097379713
 20
136.116219666
 11
638.709512777
 21
137.2349944717
  0
LINE
  5
329
100
AcDbEntity
  8
0
100
AcDbLine
 62
7
  6
CONTINUOUS
 10
639.4577751
 20
137.7672810449
 11
638.9105671213
 21
135.7250730662
  0
LINE
  5
32A
100
AcDbEntity
  8
0
100
AcDbLine
 62
7
  6
CONTINUOUS
 10
638.7440255626
 20
135.1035315075
 11
638.1968175839
 21
133.0613235289
  0
LINE
  5
32B
100
AcDbEntity
  8
0
100
AcDbLine
 62
7
  6
CONTINUOUS
 10
707.9551279775
 20
390.7042861061
 11
665.0213959979
 21
230.4734169995
  0
LINE
  5
32C
100
AcDbEntity
  8
0
100
AcDbLine
 62
7
  6
CONTINUOUS
 10
657.5516191847
 20
197.0313136907
 11
657.0394878959
 21
195.1200137008
  0
LINE
  5
32D
100
AcDbEntity
  8
0
100
AcDbLine
 62
7
  6
CONTINUOUS
 10
640.4313146924
 20
131.6060923883
 11
642.0015636746
 21
137.4663413705
  0
LINE
  5
32E
100
AcDbEntity
  8
0
100
AcDbLine
 62
7
  6
CONTINUOUS
 10
657.7880804113
 20
194.9194289409
 11
658.3002117001
 21
196.8307289308
  0
LINE
  5
32F
100
AcDbEntity
  8
0
100
AcDbLine
 62
7
  6
CONTINUOUS
 10
644.587663231
 20
137.3443977128
 11
644.3711592047
 21
136.5363936864
  0
LINE
  5
330
100
AcDbEntity
  8
0
100
AcDbLine
 62
7
  6
CONTINUOUS
 10
644.1713093342
 20
135.790543816
 11
642.7319144338
 21
130.4186489156
  0
LINE
  5
331
100
AcDbEntity
  8
0
100
AcDbLine
 62
7
  6
CONTINUOUS
 10
654.2392755525
 20
168.5972571752
 11
650.3857845405
 21
154.2158329319
  0
LINE
  5
332
100
AcDbEntity
  8
KONSTRUKTIONSELEMENTE
100
AcDbLine
 62
7
  6
CONTINUOUS
 10
654.2392755525
 20
168.5972571752
 11
658.6909631283
 21
185.2111813873
  0
LINE
  5
333
100
AcDbEntity
  8
0
100
AcDbLine
 62
7
  6
CONTINUOUS
 10
643.937389865
 20
130.0956427473
 11
644.9517865496
 21
133.8814227132
  0
LINE
  5
334
100
AcDbEntity
  8
0
100
AcDbLine
 62
7
  6
CONTINUOUS
 10
645.0612281453
 20
134.2898643089
 11
645.3767847654
 21
135.4675376477
  0
LINE
  5
335
100
AcDbEntity
  8
0
100
AcDbLine
 62
7
  6
CONTINUOUS
 10
647.8465168714
 20
132.6299490362
 11
647.9654751276
 21
133.0739072925
  0
LINE
  5
336
100
AcDbEntity
  8
KONSTRUKTIONSELEMENTE
100
AcDbLine
 62
7
  6
CONTINUOUS
 10
660.2257595868
 20
175.8706768597
 11
660.3370648812
 21
176.2860738736
  0
LINE
  5
337
100
AcDbEntity
  8
KONSTRUKTIONSELEMENTE
100
AcDbLine
 62
7
  6
CONTINUOUS
 10
668.0610659555
 20
205.1124383208
 11
668.3896237645
 21
206.3386327568
  0
LINE
  5
338
100
AcDbEntity
  8
0
100
AcDbLine
 62
7
  6
CONTINUOUS
 10
649.1656215975
 20
132.4188526999
 11
649.2845798537
 21
132.8628109561
  0
LINE
  5
339
100
AcDbEntity
  8
KONSTRUKTIONSELEMENTE
100
AcDbLine
 62
7
  6
CONTINUOUS
 10
653.1735288593
 20
145.687690173
 11
656.4423559354
 21
157.8871189022
  0
LINE
  5
33A
100
AcDbEntity
  8
KONSTRUKTIONSELEMENTE
100
AcDbLine
 62
7
  6
CONTINUOUS
 10
669.004127573
 20
204.7682888866
 11
671.8484502177
 21
215.3834455096
  0
LINE
  5
33B
100
AcDbEntity
  8
0
100
AcDbLine
 62
7
  6
CONTINUOUS
 10
650.3139959595
 20
134.3890354211
 11
650.1950377033
 21
133.9450771648
  0
LINE
  5
33C
100
AcDbEntity
  8
KONSTRUKTIONSELEMENTE
100
AcDbLine
 62
7
  6
CONTINUOUS
 10
661.4331668696
 20
175.5471530533
 11
665.488986505
 21
190.6836779987
  0
LINE
  5
33D
100
AcDbEntity
  8
0
100
AcDbLine
 62
7
  6
CONTINUOUS
 10
649.679664443
 20
128.5570049114
 11
649.7986226993
 21
129.0009631676
  0
LINE
  5
33E
100
AcDbEntity
  8
0
100
AcDbLine
 62
7
  6
CONTINUOUS
 10
653.6287289651
 20
134.9218514506
 11
652.4545718179
 21
130.5398373212
  0
LINE
  5
33F
100
AcDbEntity
  8
0
100
AcDbLine
 62
7
  6
CONTINUOUS
 10
653.6600472491
 20
130.2168311529
 11
654.8342043963
 21
134.5988452823
  0
LINE
  5
340
100
AcDbEntity
  8
KONSTRUKTIONSELEMENTE
100
AcDbLine
 62
7
  6
CONTINUOUS
 10
665.779833088
 20
174.3824673504
 11
669.8356527233
 21
189.5189922957
  0
LINE
  5
341
100
AcDbEntity
  8
KONSTRUKTIONSELEMENTE
100
AcDbLine
 62
7
  6
CONTINUOUS
 10
658.0031579908
 20
144.3935949474
 11
661.2719850669
 21
156.5930236767
  0
LINE
  5
342
100
AcDbEntity
  8
KONSTRUKTIONSELEMENTE
100
AcDbLine
 62
7
  6
CONTINUOUS
 10
673.8337567044
 20
203.4741936611
 11
676.6780793491
 21
214.0893502841
  0
LINE
  5
343
100
AcDbEntity
  8
KONSTRUKTIONSELEMENTE
100
AcDbLine
 62
7
  6
CONTINUOUS
 10
675.1511045485
 20
204.5268994411
 11
674.8225467396
 21
203.300705005
  0
LINE
  5
344
100
AcDbEntity
  8
KONSTRUKTIONSELEMENTE
100
AcDbLine
 62
7
  6
CONTINUOUS
 10
667.0985456652
 20
174.4743405579
 11
666.9872403708
 21
174.058943544
  0
LINE
  5
345
100
AcDbEntity
  8
0
100
AcDbLine
 62
7
  6
CONTINUOUS
 10
659.573399658
 20
133.3289817392
 11
658.3992425108
 21
128.9469676098
  0
LINE
  5
346
100
AcDbEntity
  8
0
100
AcDbLine
 62
7
  6
CONTINUOUS
 10
664.6814867696
 20
150.3853110644
 11
668.5349777816
 21
164.7667353077
  0
LINE
  5
347
100
AcDbEntity
  8
KONSTRUKTIONSELEMENTE
100
AcDbLine
 62
7
  6
CONTINUOUS
 10
668.5349777816
 20
164.7667353077
 11
672.9866653886
 21
181.3806596365
  0
LINE
  5
348
100
AcDbEntity
  8
0
100
AcDbLine
 62
7
  6
CONTINUOUS
 10
676.7593835776
 20
194.0697024106
 11
675.154705498
 21
188.0809622876
  0
LINE
  5
349
100
AcDbEntity
  8
0
100
AcDbLine
 62
7
  6
CONTINUOUS
 10
659.604717942
 20
128.6239614415
 11
660.7788750892
 21
133.0059755709
  0
LINE
  5
34A
100
AcDbEntity
  8
0
100
AcDbLine
 62
7
  6
CONTINUOUS
 10
675.9385780917
 20
187.8709242592
 11
677.5432561713
 21
193.8596643822
  0
LINE
  5
34B
100
AcDbEntity
  8
0
100
AcDbLine
 62
7
  6
CONTINUOUS
 10
678.5884195673
 20
193.5796136942
 11
676.9837414877
 21
187.5908735713
  0
LINE
  5
34C
100
AcDbEntity
  8
0
100
AcDbLine
 62
7
  6
CONTINUOUS
 10
644.8080376739
 20
253.0715429038
 11
633.3398122379
 21
233.2079937759
  0
LINE
  5
34D
100
AcDbEntity
  8
0
100
AcDbLine
 62
7
  6
CONTINUOUS
 10
780.2956250467
 20
174.4858278346
 11
776.0292935409
 21
190.4079937759
  0
LINE
  5
34E
100
AcDbEntity
  8
0
100
AcDbLine
 62
7
  6
CONTINUOUS
 10
789.5450314055
 20
145.2731002006
 11
778.4805172274
 21
186.5664292744
  0
LINE
  5
34F
100
AcDbEntity
  8
0
100
AcDbLine
 62
7
  6
CONTINUOUS
 10
801.4041597925
 20
161.1328772848
 11
800.7571121798
 21
163.5476918506
  0
LINE
  5
350
100
AcDbEntity
  8
0
100
AcDbLine
 62
7
  6
CONTINUOUS
 10
677.7676140814
 20
187.3808355428
 11
678.4845979143
 21
190.0566556357
  0
LINE
  5
351
100
AcDbEntity
  8
0
100
AcDbLine
 62
7
  6
CONTINUOUS
 10
678.6894504107
 20
190.8211755603
 11
679.2015817473
 21
192.7324757287
  0
LINE
  5
352
100
AcDbEntity
  8
0
100
AcDbLine
 62
7
  6
CONTINUOUS
 10
663.4158525949
 20
132.2993995778
 11
663.187452743
 21
131.4469997258
  0
LINE
  5
353
100
AcDbEntity
  8
0
100
AcDbLine
 62
7
  6
CONTINUOUS
 10
662.9876028725
 20
130.7011498553
 11
661.5601037978
 21
125.3736507806
  0
LINE
  5
354
100
AcDbEntity
  8
0
100
AcDbLine
 62
7
  6
CONTINUOUS
 10
663.0034957414
 20
125.9385611247
 11
664.1930783037
 21
130.378143687
  0
LINE
  5
355
100
AcDbEntity
  8
0
100
AcDbLine
 62
7
  6
CONTINUOUS
 10
733.0691994611
 20
383.9749909335
 11
690.1354674814
 21
223.7441218268
  0
LINE
  5
356
100
AcDbEntity
  8
0
100
AcDbLine
 62
7
  6
CONTINUOUS
 10
682.2628651204
 20
191.0927973355
 11
682.1604387765
 21
190.7105370163
  0
LINE
  5
357
100
AcDbEntity
  8
0
100
AcDbLine
 62
7
  6
CONTINUOUS
 10
682.9101692875
 20
190.3730790004
 11
683.0467377141
 21
190.8827593071
  0
LINE
  5
358
100
AcDbEntity
  8
0
100
AcDbLine
 62
7
  6
CONTINUOUS
 10
684.0518360953
 20
189.9306019703
 11
683.5397048065
 21
188.0193019804
  0
LINE
  5
359
100
AcDbEntity
  8
0
100
AcDbLine
 62
7
  6
CONTINUOUS
 10
684.3235774002
 20
187.809263952
 11
684.835708689
 21
189.7205639418
  0
LINE
  5
35A
100
AcDbEntity
  8
0
100
AcDbLine
 62
7
  6
CONTINUOUS
 10
669.0065080742
 20
127.5847567085
 11
668.887549818
 21
127.1407984522
  0
LINE
  5
35B
100
AcDbEntity
  8
0
100
AcDbLine
 62
7
  6
CONTINUOUS
 10
687.0166160565
 20
188.4533499193
 11
686.8117635601
 21
187.6888299948
  0
LINE
  5
35C
100
AcDbEntity
  8
0
100
AcDbLine
 62
7
  6
CONTINUOUS
 10
687.9875724507
 20
187.3737729521
 11
687.714435741
 21
186.3544128742
  0
LINE
  5
35D
100
AcDbEntity
  8
0
100
AcDbLine
 62
7
  6
CONTINUOUS
 10
688.464166252
 20
186.0169548583
 11
688.9762975408
 21
187.9282548482
  0
LINE
  5
35E
100
AcDbEntity
  8
KONSTRUKTIONSELEMENTE
100
AcDbLine
 62
7
  6
CONTINUOUS
 10
682.0967205502
 20
161.1328772848
 11
682.743768163
 21
163.5476918506
  0
LINE
  5
35F
100
AcDbEntity
  8
0
100
AcDbLine
 62
7
  6
CONTINUOUS
 10
690.4994507513
 20
189.432084191
 11
690.2263139938
 21
188.4127239346
  0
LINE
  5
360
100
AcDbEntity
  8
0
100
AcDbLine
 62
7
  6
CONTINUOUS
 10
691.2491812623
 20
189.0946261751
 11
689.9176398445
 21
184.1252459516
  0
LINE
  5
361
100
AcDbEntity
  8
0
100
AcDbLine
 62
7
  6
CONTINUOUS
 10
690.7015124382
 20
183.9152079231
 11
692.3061905178
 21
189.9039480461
  0
LINE
  5
362
100
AcDbEntity
  8
0
100
AcDbLine
 62
7
  6
CONTINUOUS
 10
694.7246970596
 20
186.3879758394
 11
694.5881287287
 21
185.8782958897
  0
LINE
  5
363
100
AcDbEntity
  8
0
100
AcDbLine
 62
7
  6
CONTINUOUS
 10
696.8951530378
 20
187.1720876046
 11
696.8268687767
 21
186.9172472728
  0
LINE
  5
364
100
AcDbEntity
  8
0
100
AcDbLine
 62
7
  6
CONTINUOUS
 10
696.308815586
 20
184.4612607281
 11
696.1722472551
 21
183.9515807783
  0
LINE
  5
365
100
AcDbEntity
  8
0
100
AcDbLine
 62
7
  6
CONTINUOUS
 10
697.4800964365
 20
186.7422154489
 11
697.5483806976
 21
186.9970557807
  0
LINE
  5
366
100
AcDbEntity
  8
0
100
AcDbLine
 62
7
  6
CONTINUOUS
 10
696.8254734198
 20
183.776549355
 11
696.9620417507
 21
184.2862293048
  0
LINE
  5
367
100
AcDbEntity
  8
RUNDUNGEN
100
AcDbLine
 62
7
  6
CONTINUOUS
 10
669.0158717323
 20
63.7869480475
 11
667.4602637662
 21
57.9813400814
  0
LINE
  5
368
100
AcDbEntity
  8
0
100
AcDbLine
 62
7
  6
CONTINUOUS
 10
651.5038649314
 20
195.9204377492
 11
651.7993410022
 21
196.5241068292
  0
LINE
  5
369
100
AcDbEntity
  8
0
100
AcDbLine
 62
7
  6
CONTINUOUS
 10
657.4926050544
 20
194.3157596696
 11
657.7880804113
 21
194.9194289409
  0
LINE
  5
36A
100
AcDbEntity
  8
0
100
AcDbLine
 62
7
  6
CONTINUOUS
 10
838.6928426688
 20
253.0715429038
 11
850.1610681049
 21
233.2079937759
  0
LINE
  5
36B
100
AcDbEntity
  8
0
100
AcDbLine
 62
7
  6
CONTINUOUS
 10
793.380527615
 20
223.6877127981
 11
750.416566128
 21
384.0313999621
  0
LINE
  5
36C
100
AcDbEntity
  8
0
100
AcDbLine
 62
7
  6
CONTINUOUS
 10
818.8193935732
 20
150.3853110644
 11
810.5142149541
 21
181.3806596365
  0
LINE
  5
36D
100
AcDbEntity
  8
0
100
AcDbLine
 62
7
  6
CONTINUOUS
 10
764.5610681049
 20
210.2715429038
 11
764.5610681049
 21
233.2079937759
  0
LINE
  5
36E
100
AcDbEntity
  8
RUNDUNGEN
100
AcDbLine
 62
7
  6
CONTINUOUS
 10
693.9558489372
 20
145.2731002006
 11
705.0203631154
 21
186.5664292744
  0
LINE
  5
36F
100
AcDbEntity
  8
0
100
AcDbLine
 62
7
  6
CONTINUOUS
 10
703.2052552961
 20
174.4858278346
 11
707.4715868018
 21
190.4079937759
  0
LINE
  5
370
100
AcDbEntity
  8
RUNDUNGEN
100
AcDbLine
 62
7
  6
CONTINUOUS
 10
678.1260918895
 20
59.1497194908
 11
681.2571111259
 21
70.8348423605
  0
LINE
  5
371
100
AcDbEntity
  8
RUNDUNGEN
100
AcDbLine
 62
7
  6
CONTINUOUS
 10
712.0920930041
 20
133.7042851892
 11
713.0071565135
 21
137.1193486987
  0
LINE
  5
372
100
AcDbEntity
  8
0
100
AcDbLine
 62
7
  6
CONTINUOUS
 10
684.3531922861
 20
190.5326958595
 11
684.0518360953
 21
189.9306019703
  0
LINE
  5
373
100
AcDbEntity
  8
0
100
AcDbLine
 62
7
  6
CONTINUOUS
 10
651.0507484869
 20
196.7246915892
 11
650.7894144987
 21
196.2484424966
  0
LINE
  5
374
100
AcDbEntity
  8
0
100
AcDbLine
 62
7
  6
CONTINUOUS
 10
657.0394878959
 20
195.1200137008
 11
656.7781546217
 21
194.6437644169
  0
LINE
  5
375
100
AcDbEntity
  8
0
100
AcDbLine
 62
7
  6
CONTINUOUS
 10
646.0167197189
 20
200.3952173492
 11
645.7895281704
 21
200.0463881484
  0
LINE
  5
376
100
AcDbEntity
  8
0
100
AcDbLine
 62
7
  6
CONTINUOUS
 10
646.5039786031
 20
199.718383401
 11
646.7311701515
 21
200.0672126019
  0
LINE
  5
377
100
AcDbEntity
  8
0
100
AcDbLine
 62
7
  6
CONTINUOUS
 10
833.1150958023
 20
154.2158329319
 11
824.8099172145
 21
185.2111813873
  0
LINE
  5
378
100
AcDbEntity
  8
0
100
AcDbLine
 62
7
  6
CONTINUOUS
 10
818.4945990986
 20
230.4170079708
 11
775.5306376115
 21
390.7606951348
  0
LINE
  5
379
100
AcDbEntity
  8
0
100
AcDbLine
 62
7
  6
CONTINUOUS
 10
842.8233475589
 20
172.231115198
 11
842.1762999461
 21
174.6459297637
  0
LINE
  5
37A
100
AcDbEntity
  8
0
100
AcDbLine
 62
7
  6
CONTINUOUS
 10
703.2052552961
 20
174.4858278346
 11
699.862653633
 21
167.3175954356
  0
LINE
  5
37B
100
AcDbEntity
  8
0
100
AcDbLine
 62
7
  6
CONTINUOUS
 10
684.835708689
 20
189.7205639418
 11
685.1029227014
 21
190.1952374867
  0
LINE
  5
37C
100
AcDbEntity
  8
0
100
AcDbLine
 62
7
  6
CONTINUOUS
 10
688.1969529632
 20
185.5422810239
 11
688.464166252
 21
186.0169548583
  0
LINE
  5
37D
100
AcDbEntity
  8
0
100
AcDbLine
 62
7
  6
CONTINUOUS
 10
693.3736497632
 20
188.6619448869
 11
693.1064364983
 21
188.1872711417
  0
LINE
  5
37E
100
AcDbEntity
  8
0
100
AcDbLine
 62
7
  6
CONTINUOUS
 10
697.2128831717
 20
186.2675417037
 11
697.4800964365
 21
186.7422154489
  0
LINE
  5
37F
100
AcDbEntity
  8
0
100
AcDbLine
 62
7
  6
CONTINUOUS
 10
682.1604387765
 20
190.7105370163
 11
681.9273672206
 21
190.3632833587
  0
LINE
  5
380
100
AcDbEntity
  8
0
100
AcDbLine
 62
7
  6
CONTINUOUS
 10
651.1177659761
 20
195.4776192331
 11
651.5038649314
 21
195.9204377492
  0
LINE
  5
381
100
AcDbEntity
  8
0
100
AcDbLine
 62
7
  6
CONTINUOUS
 10
861.0235425509
 20
164.4257095382
 11
849.9590283728
 21
205.719038612
  0
LINE
  5
382
100
AcDbEntity
  8
0
100
AcDbLine
 62
7
  6
CONTINUOUS
 10
854.4273996106
 20
194.3493769625
 11
850.1610681049
 21
210.2715429038
  0
LINE
  5
383
100
AcDbEntity
  8
0
100
AcDbLine
 62
7
  6
CONTINUOUS
 10
854.4273996106
 20
194.3493769625
 11
855.1167378551
 21
186.4702047732
  0
LINE
  5
384
100
AcDbEntity
  8
0
100
AcDbLine
 62
7
  6
CONTINUOUS
 10
836.7504401714
 20
466.6019653042
 11
836.7504401714
 21
626.6019653042
  0
LINE
  5
385
100
AcDbEntity
  8
0
100
AcDbLine
 62
7
  6
CONTINUOUS
 10
707.4715868018
 20
190.4079937759
 11
718.9398122379
 21
210.2715429038
  0
LINE
  5
386
100
AcDbEntity
  8
0
100
AcDbLine
 62
7
  6
CONTINUOUS
 10
682.6770973578
 20
190.025825443
 11
682.9101692875
 21
190.3730790004
  0
LINE
  5
387
100
AcDbEntity
  8
0
100
AcDbLine
 62
7
  6
CONTINUOUS
 10
687.714435741
 20
186.3544128742
 11
687.4813638113
 21
186.0071593168
  0
LINE
  5
388
100
AcDbEntity
  8
0
100
AcDbLine
 62
7
  6
CONTINUOUS
 10
696.5924022138
 20
183.4292955081
 11
696.8254734198
 21
183.776549355
  0
LINE
  5
389
100
AcDbEntity
  8
0
100
AcDbLine
 62
7
  6
CONTINUOUS
 10
657.1065053851
 20
193.8729413448
 11
657.4926050544
 21
194.3157596696
  0
LINE
  5
38A
100
AcDbEntity
  8
0
100
AcDbLine
 62
7
  6
CONTINUOUS
 10
650.7894144987
 20
196.2484424966
 11
650.4374576501
 21
195.9330440572
  0
LINE
  5
38B
100
AcDbEntity
  8
0
100
AcDbLine
 62
7
  6
CONTINUOUS
 10
664.6715868018
 20
264.5397683399
 11
644.8080376739
 21
253.0715429038
  0
LINE
  5
38C
100
AcDbEntity
  8
0
100
AcDbLine
 62
7
  6
CONTINUOUS
 10
850.1610681049
 20
233.2079937759
 11
850.1610681049
 21
210.2715429038
  0
LINE
  5
38D
100
AcDbEntity
  8
0
100
AcDbLine
 62
7
  6
CONTINUOUS
 10
764.5610681049
 20
233.2079937759
 11
776.0292935409
 21
253.0715429038
  0
LINE
  5
38E
100
AcDbEntity
  8
0
100
AcDbLine
 62
7
  6
CONTINUOUS
 10
684.7510512324
 20
190.9723631999
 11
684.3531922861
 21
190.5326958595
  0
LINE
  5
38F
100
AcDbEntity
  8
0
100
AcDbLine
 62
7
  6
CONTINUOUS
 10
696.8268687767
 20
186.9172472728
 11
696.429010578
 21
186.4775797322
  0
LINE
  5
390
100
AcDbEntity
  8
0
100
AcDbLine
 62
7
  6
CONTINUOUS
 10
696.1722472551
 20
183.9515807783
 11
695.9733166606
 21
183.7317474086
  0
LINE
  5
391
100
AcDbEntity
  8
0
100
AcDbLine
 62
7
  6
CONTINUOUS
 10
656.7781546217
 20
194.6437644169
 11
656.4261970591
 21
194.3283661688
  0
LINE
  5
392
100
AcDbEntity
  8
0
100
AcDbLine
 62
7
  6
CONTINUOUS
 10
645.9931140144
 20
199.3089958313
 11
646.5039786031
 21
199.718383401
  0
LINE
  5
393
100
AcDbEntity
  8
0
100
AcDbLine
 62
7
  6
CONTINUOUS
 10
872.7504401714
 20
466.6019653042
 11
872.7504401714
 21
626.6019653042
  0
LINE
  5
394
100
AcDbEntity
  8
0
100
AcDbLine
 62
7
  6
CONTINUOUS
 10
685.1029227014
 20
190.1952374867
 11
685.4666396606
 21
190.5074851966
  0
LINE
  5
395
100
AcDbEntity
  8
0
100
AcDbLine
 62
7
  6
CONTINUOUS
 10
693.759662663
 20
188.0122397184
 11
694.1233802741
 21
188.324486871
  0
LINE
  5
396
100
AcDbEntity
  8
0
100
AcDbLine
 62
7
  6
CONTINUOUS
 10
696.8491655605
 20
185.9552945511
 11
697.2128831717
 21
186.2675417037
  0
LINE
  5
397
100
AcDbEntity
  8
0
100
AcDbLine
 62
7
  6
CONTINUOUS
 10
696.2286846026
 20
183.1170483555
 11
696.5924022138
 21
183.4292955081
  0
LINE
  5
398
100
AcDbEntity
  8
0
100
AcDbLine
 62
7
  6
CONTINUOUS
 10
682.1485931038
 20
189.6211644073
 11
682.6770973578
 21
190.025825443
  0
LINE
  5
399
100
AcDbEntity
  8
0
100
AcDbLine
 62
7
  6
CONTINUOUS
 10
645.7895281704
 20
200.0463881484
 11
645.4717130475
 21
199.8584097921
  0
LINE
  5
39A
100
AcDbEntity
  8
0
100
AcDbLine
 62
7
  6
CONTINUOUS
 10
650.4821357183
 20
195.1016624759
 11
651.1177659761
 21
195.4776192331
  0
LINE
  5
39B
100
AcDbEntity
  8
0
100
AcDbLine
 62
7
  6
CONTINUOUS
 10
656.4708758413
 20
193.4969843962
 11
657.1065053851
 21
193.8729413448
  0
LINE
  5
39C
100
AcDbEntity
  8
RUNDUNGEN
100
AcDbLine
 62
7
  6
CONTINUOUS
 10
693.9558489372
 20
145.2731002006
 11
685.6368082898
 21
137.4082376649
  0
LINE
  5
39D
100
AcDbEntity
  8
0
100
AcDbLine
 62
7
  6
CONTINUOUS
 10
691.5223179241
 20
190.1139860746
 11
690.4994507513
 21
189.432084191
  0
LINE
  5
39E
100
AcDbEntity
  8
0
100
AcDbLine
 62
7
  6
CONTINUOUS
 10
690.2263139938
 20
188.4127239346
 11
691.2491812623
 21
189.0946261751
  0
LINE
  5
39F
100
AcDbEntity
  8
0
100
AcDbLine
 62
7
  6
CONTINUOUS
 10
776.0292935409
 20
253.0715429038
 11
784.2373615306
 21
257.8104731672
  0
LINE
  5
3A0
100
AcDbEntity
  8
0
100
AcDbLine
 62
7
  6
CONTINUOUS
 10
681.9273672206
 20
190.3632833587
 11
681.597792066
 21
190.1784560934
  0
LINE
  5
3A1
100
AcDbEntity
  8
0
100
AcDbLine
 62
7
  6
CONTINUOUS
 10
685.4102015416
 20
191.3420177305
 11
684.7510512324
 21
190.9723631999
  0
LINE
  5
3A2
100
AcDbEntity
  8
0
100
AcDbLine
 62
7
  6
CONTINUOUS
 10
694.0327993248
 20
189.0315996178
 11
693.3736497632
 21
188.6619448869
  0
LINE
  5
3A3
100
AcDbEntity
  8
0
100
AcDbLine
 62
7
  6
CONTINUOUS
 10
687.537802642
 20
185.1726264487
 11
688.1969529632
 21
185.5422810239
  0
LINE
  5
3A4
100
AcDbEntity
  8
0
100
AcDbLine
 62
7
  6
CONTINUOUS
 10
696.429010578
 20
186.4775797322
 11
696.0994350496
 21
186.292752567
  0
LINE
  5
3A5
100
AcDbEntity
  8
0
100
AcDbLine
 62
7
  6
CONTINUOUS
 10
695.9733166606
 20
183.7317474086
 11
695.6437426034
 21
183.5469197536
  0
LINE
  5
3A6
100
AcDbEntity
  8
0
100
AcDbLine
 62
7
  6
CONTINUOUS
 10
650.4374576501
 20
195.9330440572
 11
649.994877203
 21
195.7784963731
  0
LINE
  5
3A7
100
AcDbEntity
  8
0
100
AcDbLine
 62
7
  6
CONTINUOUS
 10
656.4261970591
 20
194.3283661688
 11
655.9836166121
 21
194.1738184847
  0
LINE
  5
3A8
100
AcDbEntity
  8
0
100
AcDbLine
 62
7
  6
CONTINUOUS
 10
857.7514732882
 20
153.455018479
 11
861.0235425509
 21
164.4257095382
  0
LINE
  5
3A9
100
AcDbEntity
  8
RUNDUNGEN
100
AcDbLine
 62
7
  6
CONTINUOUS
 10
621.2673976009
 20
109.3053766055
 11
597.9335833189
 21
95.6806369075
  0
LINE
  5
3AA
100
AcDbEntity
  8
RUNDUNGEN
100
AcDbLine
 62
7
  6
CONTINUOUS
 10
620.3523340914
 20
105.890313096
 11
597.0185198095
 21
92.2655733981
  0
LINE
  5
3AB
100
AcDbEntity
  8
0
100
AcDbLine
 62
7
  6
CONTINUOUS
 10
696.2241580816
 20
185.7130598076
 11
696.8491655605
 21
185.9552945511
  0
LINE
  5
3AC
100
AcDbEntity
  8
0
100
AcDbLine
 62
7
  6
CONTINUOUS
 10
685.4666396606
 20
190.5074851966
 11
685.926860123
 21
190.6573061572
  0
LINE
  5
3AD
100
AcDbEntity
  8
0
100
AcDbLine
 62
7
  6
CONTINUOUS
 10
694.1233802741
 20
188.324486871
 11
694.5836007364
 21
188.4743078316
  0
LINE
  5
3AE
100
AcDbEntity
  8
0
100
AcDbLine
 62
7
  6
CONTINUOUS
 10
687.4813638113
 20
186.0071593168
 11
687.0211433251
 21
185.8573382669
  0
LINE
  5
3AF
100
AcDbEntity
  8
0
100
AcDbLine
 62
7
  6
CONTINUOUS
 10
695.7684641284
 20
182.9672273502
 11
696.2286846026
 21
183.1170483555
  0
LINE
  5
3B0
100
AcDbEntity
  8
RUNDUNGEN
100
AcDbLine
 62
7
  6
CONTINUOUS
 10
691.3081640685
 20
136.5415212826
 11
703.9381141054
 21
143.9162170597
  0
LINE
  5
3B1
100
AcDbEntity
  8
RUNDUNGEN
100
AcDbLine
 62
7
  6
CONTINUOUS
 10
690.393100559
 20
133.1264577731
 11
703.0230505959
 21
140.5011535503
  0
LINE
  5
3B2
100
AcDbEntity
  8
RUNDUNGEN
100
AcDbLine
 62
7
  6
CONTINUOUS
 10
624.4305483105
 20
82.1549184399
 11
633.3491536477
 21
87.3625400794
  0
LINE
  5
3B3
100
AcDbEntity
  8
RUNDUNGEN
100
AcDbLine
 62
7
  6
CONTINUOUS
 10
670.7273288382
 20
109.1878576722
 11
711.5327780352
 21
133.0143789965
  0
LINE
  5
3B4
100
AcDbEntity
  8
0
100
AcDbLine
 62
7
  6
CONTINUOUS
 10
442.2571304002
 20
97.8691223978
 11
442.3353634884
 21
97.8776712271
  0
LINE
  5
3B5
100
AcDbEntity
  8
0
100
AcDbLine
 62
7
  6
CONTINUOUS
 10
406.5530404134
 20
127.2672584668
 11
406.6193872501
 21
127.2820703958
  0
LINE
  5
3B6
100
AcDbEntity
  8
0
100
AcDbLine
 62
7
  6
CONTINUOUS
 10
405.2376695934
 20
128.6902800224
 11
405.1713227532
 21
128.6754680974
  0
LINE
  5
3B7
100
AcDbEntity
  8
0
100
AcDbLine
 62
7
  6
CONTINUOUS
 10
405.7492854556
 20
127.3789380251
 11
405.8283001575
 21
127.395263631
  0
LINE
  5
3B8
100
AcDbEntity
  8
0
100
AcDbLine
 62
7
  6
CONTINUOUS
 10
404.8300497096
 20
127.9651788354
 11
405.146108517
 21
128.0304812592
  0
LINE
  5
3B9
100
AcDbEntity
  8
0
100
AcDbLine
 62
7
  6
CONTINUOUS
 10
405.2251232189
 20
128.0468068651
 11
405.3568143761
 21
128.0740162058
  0
LINE
  5
3BA
100
AcDbEntity
  8
0
100
AcDbLine
 62
7
  6
CONTINUOUS
 10
405.0983099393
 20
128.3532490576
 11
404.9666187821
 21
128.326039717
  0
LINE
  5
3BB
100
AcDbEntity
  8
0
100
AcDbLine
 62
7
  6
CONTINUOUS
 10
404.8876040803
 20
128.309714111
 11
404.6637290886
 21
128.2634582269
  0
LINE
  5
3BC
100
AcDbEntity
  8
0
100
AcDbLine
 62
7
  6
CONTINUOUS
 10
403.8033489677
 20
129.5825873874
 11
403.7243342658
 21
129.5662617815
  0
LINE
  5
3BD
100
AcDbEntity
  8
0
100
AcDbLine
 62
7
  6
CONTINUOUS
 10
420.8459370659
 20
118.5507470111
 11
420.9241701541
 21
118.5592958404
  0
LINE
  5
3BE
100
AcDbEntity
  8
0
100
AcDbLine
 62
7
  6
CONTINUOUS
 10
397.6084524447
 20
136.4821980364
 11
397.510661093
 21
136.4715119915
  0
LINE
  5
3BF
100
AcDbEntity
  8
0
100
AcDbLine
 62
7
  6
CONTINUOUS
 10
396.2393732469
 20
138.0149174659
 11
396.3371645986
 21
138.0256034606
  0
LINE
  5
3C0
100
AcDbEntity
  8
0
100
AcDbLine
 62
7
  6
CONTINUOUS
 10
397.1819316988
 20
142.8734445718
 11
397.0841403471
 21
142.8627585269
  0
LINE
  5
3C1
100
AcDbEntity
  8
0
100
AcDbLine
 62
7
  6
CONTINUOUS
 10
397.1819316988
 20
143.4342190358
 11
397.0841403471
 21
143.4235331914
  0
LINE
  5
3C2
100
AcDbEntity
  8
0
100
AcDbLine
 62
7
  6
CONTINUOUS
 10
397.1819316988
 20
144.4506231278
 11
397.0841403471
 21
144.439937083
  0
LINE
  5
3C3
100
AcDbEntity
  8
0
100
AcDbLine
 62
7
  6
CONTINUOUS
 10
397.1819316988
 20
145.0113975919
 11
397.0841403471
 21
145.000711547
  0
LINE
  5
3C4
100
AcDbEntity
  8
0
100
AcDbLine
 62
7
  6
CONTINUOUS
 10
257.6172339039
 20
137.4082376649
 11
255.0172339039
 21
137.4082376649
  0
LINE
  5
3C5
100
AcDbEntity
  8
0
100
AcDbLine
 62
7
  6
CONTINUOUS
 10
255.0172339039
 20
153.4550184612
 11
257.6172339039
 21
153.4550184612
  0
LINE
  5
3C6
100
AcDbEntity
  8
0
100
AcDbLine
 62
7
  6
CONTINUOUS
 10
398.0620538641
 20
141.0419562292
 11
397.8664711607
 21
141.0556326186
  0
LINE
  5
3C7
100
AcDbEntity
  8
0
100
AcDbLine
 62
7
  6
CONTINUOUS
 10
428.2122822564
 20
105.9937764941
 11
428.3117292162
 21
105.9699452407
  0
LINE
  5
3C8
100
AcDbEntity
  8
0
100
AcDbLine
 62
7
  6
CONTINUOUS
 10
428.1300919255
 20
106.1970134143
 11
427.9908661589
 21
106.2303771745
  0
LINE
  5
3C9
100
AcDbEntity
  8
0
100
AcDbLine
 62
7
  6
CONTINUOUS
 10
427.1847594109
 20
107.1577148498
 11
427.3239851775
 21
107.1243510896
  0
LINE
  5
3CA
100
AcDbEntity
  8
0
100
AcDbLine
 62
7
  6
CONTINUOUS
 10
427.1025691083
 20
107.3609517375
 11
427.0031221484
 21
107.3847829909
  0
LINE
  5
3CB
100
AcDbEntity
  8
0
100
AcDbLine
 62
7
  6
CONTINUOUS
 10
427.0198521664
 20
107.6010231271
 11
427.1192990978
 21
107.5771918805
  0
LINE
  5
3CC
100
AcDbEntity
  8
0
100
AcDbLine
 62
7
  6
CONTINUOUS
 10
426.4995686342
 20
107.9459519209
 11
426.6189049974
 21
107.9173544141
  0
LINE
  5
3CD
100
AcDbEntity
  8
0
100
AcDbLine
 62
7
  6
CONTINUOUS
 10
426.3974889282
 20
108.153955062
 11
426.3179313717
 21
108.173020062
  0
LINE
  5
3CE
100
AcDbEntity
  8
0
100
AcDbLine
 62
7
  6
CONTINUOUS
 10
397.9018264998
 20
135.9184331526
 11
398.0974092032
 21
135.8697084093
  0
LINE
  5
3CF
100
AcDbEntity
  8
0
100
AcDbLine
 62
7
  6
CONTINUOUS
 10
429.2296548961
 20
105.7625325881
 11
429.1264550003
 21
105.7888143844
  0
LINE
  5
3D0
100
AcDbEntity
  8
0
100
AcDbLine
 62
7
  6
CONTINUOUS
 10
427.7213291375
 20
107.4554686568
 11
427.8245288749
 21
107.4291869413
  0
LINE
  5
3D1
100
AcDbEntity
  8
0
100
AcDbLine
 62
7
  6
CONTINUOUS
 10
406.4258951393
 20
127.3048993912
 11
406.5530404134
 21
127.2672584668
  0
LINE
  5
3D2
100
AcDbEntity
  8
0
100
AcDbLine
 62
7
  6
CONTINUOUS
 10
429.3023909645
 20
105.5671424156
 11
429.4332681473
 21
105.526737451
  0
LINE
  5
3D3
100
AcDbEntity
  8
0
100
AcDbLine
 62
7
  6
CONTINUOUS
 10
427.6485929354
 20
107.6508588791
 11
427.5177157495
 21
107.6912638475
  0
LINE
  5
3D4
100
AcDbEntity
  8
0
100
AcDbLine
 62
7
  6
CONTINUOUS
 10
431.4108796244
 20
105.1721470607
 11
431.1156123833
 21
105.2701613846
  0
LINE
  5
3D5
100
AcDbEntity
  8
0
100
AcDbLine
 62
7
  6
CONTINUOUS
 10
431.4716645758
 20
105.2308608151
 11
436.9830164971
 21
103.4013607655
  0
LINE
  5
3D6
100
AcDbEntity
  8
0
100
AcDbLine
 62
7
  6
CONTINUOUS
 10
436.9830164971
 20
103.9189988557
 11
430.6551679949
 21
106.0195359497
  0
LINE
  5
3D7
100
AcDbEntity
  8
0
100
AcDbLine
 62
7
  6
CONTINUOUS
 10
246.2173759505
 20
164.4257095382
 11
266.4170918573
 21
164.4257095382
  0
LINE
  5
3D8
100
AcDbEntity
  8
0
100
AcDbLine
 62
7
  6
CONTINUOUS
 10
397.442207092
 20
136.2805883388
 11
397.4084397978
 21
136.2890006552
  0
LINE
  5
3D9
100
AcDbEntity
  8
0
100
AcDbLine
 62
7
  6
CONTINUOUS
 10
397.9018264998
 20
136.724546595
 11
397.7062437964
 21
136.7732713634
  0
LINE
  5
3DA
100
AcDbEntity
  8
0
100
AcDbLine
 62
7
  6
CONTINUOUS
 10
399.9200897861
 20
138.3009243126
 11
400.1156725151
 21
138.2521995194
  0
LINE
  5
3DB
100
AcDbEntity
  8
0
100
AcDbLine
 62
7
  6
CONTINUOUS
 10
399.6267156967
 20
138.7244955382
 11
399.528924345
 21
138.7488578723
  0
LINE
  5
3DC
100
AcDbEntity
  8
0
100
AcDbLine
 62
7
  6
CONTINUOUS
 10
397.4753057539
 20
142.4148250002
 11
397.5730971056
 21
142.3904625659
  0
LINE
  5
3DD
100
AcDbEntity
  8
0
100
AcDbLine
 62
7
  6
CONTINUOUS
 10
395.9106438528
 20
143.0149134849
 11
395.7150611494
 21
143.0636382533
  0
LINE
  5
3DE
100
AcDbEntity
  8
0
100
AcDbLine
 62
7
  6
CONTINUOUS
 10
397.4753057539
 20
142.9755994643
 11
397.5730971056
 21
142.9512372305
  0
LINE
  5
3DF
100
AcDbEntity
  8
0
100
AcDbLine
 62
7
  6
CONTINUOUS
 10
397.4753057539
 20
143.9920033558
 11
397.5730971056
 21
143.967641122
  0
LINE
  5
3E0
100
AcDbEntity
  8
0
100
AcDbLine
 62
7
  6
CONTINUOUS
 10
397.4753057539
 20
144.5527782209
 11
397.5730971056
 21
144.528415586
  0
LINE
  5
3E1
100
AcDbEntity
  8
0
100
AcDbLine
 62
7
  6
CONTINUOUS
 10
406.3550028131
 20
127.4981552494
 11
406.227857539
 21
127.5357961739
  0
LINE
  5
3E2
100
AcDbEntity
  8
0
100
AcDbLine
 62
7
  6
CONTINUOUS
 10
405.7598869987
 20
127.9155130433
 11
405.6327417246
 21
127.9531539677
  0
LINE
  5
3E3
100
AcDbEntity
  8
0
100
AcDbLine
 62
7
  6
CONTINUOUS
 10
405.2762740386
 20
128.3687681829
 11
405.4246102321
 21
128.3248537591
  0
LINE
  5
3E4
100
AcDbEntity
  8
0
100
AcDbLine
 62
7
  6
CONTINUOUS
 10
405.4357071659
 20
128.4593832721
 11
405.56285244
 21
128.4217423477
  0
LINE
  5
3E5
100
AcDbEntity
  8
0
100
AcDbLine
 62
7
  6
CONTINUOUS
 10
405.3648148675
 20
128.652639098
 11
405.2376695934
 21
128.6902800224
  0
LINE
  5
3E6
100
AcDbEntity
  8
0
100
AcDbLine
 62
7
  6
CONTINUOUS
 10
404.5504704778
 20
129.3071672386
 11
405.1650060501
 21
129.1252360799
  0
LINE
  5
3E7
100
AcDbEntity
  8
0
100
AcDbLine
 62
7
  6
CONTINUOUS
 10
404.9669684777
 20
129.3561328302
 11
404.2464785507
 21
129.5694314139
  0
LINE
  5
3E8
100
AcDbEntity
  8
0
100
AcDbLine
 62
7
  6
CONTINUOUS
 10
399.8576537734
 20
133.8890554236
 11
400.1510278542
 21
133.7809198798
  0
LINE
  5
3E9
100
AcDbEntity
  8
0
100
AcDbLine
 62
7
  6
CONTINUOUS
 10
442.1006642238
 20
97.9361409088
 11
442.2571304002
 21
97.8691223978
  0
LINE
  5
3EA
100
AcDbEntity
  8
0
100
AcDbLine
 62
7
  6
CONTINUOUS
 10
442.022431115
 20
98.2079793916
 11
441.8659649523
 21
98.2749979094
  0
LINE
  5
3EB
100
AcDbEntity
  8
0
100
AcDbLine
 62
7
  6
CONTINUOUS
 10
420.6894708895
 20
118.6177655221
 11
420.8459370659
 21
118.5507470111
  0
LINE
  5
3EC
100
AcDbEntity
  8
0
100
AcDbLine
 62
7
  6
CONTINUOUS
 10
420.6112377807
 20
118.8896040048
 11
420.454771618
 21
118.9566225227
  0
LINE
  5
3ED
100
AcDbEntity
  8
0
100
AcDbLine
 62
7
  6
CONTINUOUS
 10
397.510661093
 20
136.4715119915
 11
397.3150783896
 21
136.5552851138
  0
LINE
  5
3EE
100
AcDbEntity
  8
0
100
AcDbLine
 62
7
  6
CONTINUOUS
 10
398.2929919066
 20
136.1714678313
 11
398.4885746099
 21
136.087694684
  0
LINE
  5
3EF
100
AcDbEntity
  8
0
100
AcDbLine
 62
7
  6
CONTINUOUS
 10
428.0725299456
 20
106.0639746339
 11
428.2122822564
 21
105.9937764941
  0
LINE
  5
3F0
100
AcDbEntity
  8
0
100
AcDbLine
 62
7
  6
CONTINUOUS
 10
427.2423214298
 20
107.2907535983
 11
427.1025691083
 21
107.3609517375
  0
LINE
  5
3F1
100
AcDbEntity
  8
0
100
AcDbLine
 62
7
  6
CONTINUOUS
 10
426.5372412213
 20
108.0837569297
 11
426.3974889282
 21
108.153955062
  0
LINE
  5
3F2
100
AcDbEntity
  8
0
100
AcDbLine
 62
7
  6
CONTINUOUS
 10
253.0672339039
 20
186.4702047732
 11
259.5672339039
 21
186.4702047732
  0
LINE
  5
3F3
100
AcDbEntity
  8
0
100
AcDbLine
 62
7
  6
CONTINUOUS
 10
259.5672339039
 20
194.3493769625
 11
253.0672339039
 21
194.3493769625
  0
LINE
  5
3F4
100
AcDbEntity
  8
0
100
AcDbLine
 62
7
  6
CONTINUOUS
 10
399.7245070484
 20
138.3846974428
 11
399.9200897861
 21
138.3009243126
  0
LINE
  5
3F5
100
AcDbEntity
  8
0
100
AcDbLine
 62
7
  6
CONTINUOUS
 10
398.1598452158
 20
140.7021581839
 11
398.3554279192
 21
140.6183851368
  0
LINE
  5
3F6
100
AcDbEntity
  8
0
100
AcDbLine
 62
7
  6
CONTINUOUS
 10
396.2040179079
 20
142.5562939134
 11
396.3996006113
 21
142.4725207661
  0
LINE
  5
3F7
100
AcDbEntity
  8
RUNDUNGEN
100
AcDbLine
 62
7
  6
CONTINUOUS
 10
397.2012870755
 20
149.0895542467
 11
395.0517142009
 21
150.0422178073
  0
LINE
  5
3F8
100
AcDbEntity
  8
RUNDUNGEN
100
AcDbLine
 62
7
  6
CONTINUOUS
 10
387.8692874307
 20
158.8207203889
 11
390.0188603053
 21
157.8680568283
  0
LINE
  5
3F9
100
AcDbEntity
  8
RUNDUNGEN
100
AcDbLine
 62
7
  6
CONTINUOUS
 10
379.4559110752
 20
168.8667438623
 11
380.2670706505
 21
168.507248179
  0
LINE
  5
3FA
100
AcDbEntity
  8
0
100
AcDbLine
 62
7
  6
CONTINUOUS
 10
396.0437905435
 20
138.4842231324
 11
395.7504164885
 21
138.627407093
  0
LINE
  5
3FB
100
AcDbEntity
  8
0
100
AcDbLine
 62
7
  6
CONTINUOUS
 10
406.2803332667
 20
127.3824461704
 11
406.4258951393
 21
127.3048993912
  0
LINE
  5
3FC
100
AcDbEntity
  8
0
100
AcDbLine
 62
7
  6
CONTINUOUS
 10
405.5103767366
 20
128.5750923229
 11
405.3648148675
 21
128.652639098
  0
LINE
  5
3FD
100
AcDbEntity
  8
0
100
AcDbLine
 62
7
  6
CONTINUOUS
 10
406.227857539
 20
127.5357961739
 11
406.1034864681
 21
127.6070694855
  0
LINE
  5
3FE
100
AcDbEntity
  8
0
100
AcDbLine
 62
7
  6
CONTINUOUS
 10
405.56285244
 20
128.4217423477
 11
405.6872235109
 21
128.3504690361
  0
LINE
  5
3FF
100
AcDbEntity
  8
0
100
AcDbLine
 62
7
  6
CONTINUOUS
 10
406.0320573153
 20
128.957154505
 11
406.1236366859
 21
128.9037870291
  0
LINE
  5
400
100
AcDbEntity
  8
0
100
AcDbLine
 62
7
  6
CONTINUOUS
 10
405.7401506992
 20
129.4082875521
 11
405.6485713286
 21
129.4616550281
  0
LINE
  5
401
100
AcDbEntity
  8
0
100
AcDbLine
 62
7
  6
CONTINUOUS
 10
405.8096579531
 20
130.0184557664
 11
415.7698130615
 21
124.0433545087
  0
LINE
  5
402
100
AcDbEntity
  8
0
100
AcDbLine
 62
7
  6
CONTINUOUS
 10
415.7698130615
 20
124.4093799125
 11
404.8096579531
 21
130.9843815927
  0
LINE
  5
403
100
AcDbEntity
  8
0
100
AcDbLine
 62
7
  6
CONTINUOUS
 10
427.9908661589
 20
106.2303771745
 11
427.8908926442
 21
106.2910428068
  0
LINE
  5
404
100
AcDbEntity
  8
0
100
AcDbLine
 62
7
  6
CONTINUOUS
 10
427.3239851775
 20
107.1243510896
 11
427.4239586638
 21
107.0636854641
  0
LINE
  5
405
100
AcDbEntity
  8
0
100
AcDbLine
 62
7
  6
CONTINUOUS
 10
426.6189049974
 20
107.9173544141
 11
426.7188785122
 21
107.8566887818
  0
LINE
  5
406
100
AcDbEntity
  8
0
100
AcDbLine
 62
7
  6
CONTINUOUS
 10
399.5642796841
 20
134.3827234949
 11
399.2709055605
 21
134.5609559005
  0
LINE
  5
407
100
AcDbEntity
  8
0
100
AcDbLine
 62
7
  6
CONTINUOUS
 10
397.510661093
 20
136.1560762678
 11
397.9018264998
 21
135.9184331526
  0
LINE
  5
408
100
AcDbEntity
  8
0
100
AcDbLine
 62
7
  6
CONTINUOUS
 10
397.8333724988
 20
136.0429452863
 11
397.442207092
 21
136.2805883388
  0
LINE
  5
409
100
AcDbEntity
  8
0
100
AcDbLine
 62
7
  6
CONTINUOUS
 10
398.2929919066
 20
136.4869035425
 11
397.9018264998
 21
136.724546595
  0
LINE
  5
40A
100
AcDbEntity
  8
0
100
AcDbLine
 62
7
  6
CONTINUOUS
 10
429.1011393998
 20
105.696216163
 11
429.3023909645
 21
105.5671424156
  0
LINE
  5
40B
100
AcDbEntity
  8
0
100
AcDbLine
 62
7
  6
CONTINUOUS
 10
427.849844497
 20
107.5217851355
 11
427.6485929354
 21
107.6508588791
  0
LINE
  5
40C
100
AcDbEntity
  8
0
100
AcDbLine
 62
7
  6
CONTINUOUS
 10
429.1264550003
 20
105.7888143844
 11
428.9528808871
 21
105.903764875
  0
LINE
  5
40D
100
AcDbEntity
  8
0
100
AcDbLine
 62
7
  6
CONTINUOUS
 10
427.8245288749
 20
107.4291869413
 11
427.9981031466
 21
107.3142363698
  0
LINE
  5
40E
100
AcDbEntity
  8
0
100
AcDbLine
 62
7
  6
CONTINUOUS
 10
251.8372946643
 20
210.2715429038
 11
260.7971731436
 21
210.2715429038
  0
LINE
  5
40F
100
AcDbEntity
  8
0
100
AcDbLine
 62
7
  6
CONTINUOUS
 10
248.3172339039
 20
211.6484862512
 11
248.4930086714
 21
211.6484862512
  0
LINE
  5
410
100
AcDbEntity
  8
RUNDUNGEN
100
AcDbLine
 62
7
  6
CONTINUOUS
 10
264.1414591365
 20
211.6484862512
 11
264.3172339039
 21
211.6484862512
  0
LINE
  5
411
100
AcDbEntity
  8
0
100
AcDbLine
 62
7
  6
CONTINUOUS
 10
252.985515719
 20
233.2079937759
 11
259.6489520888
 21
233.2079937759
  0
LINE
  5
412
100
AcDbEntity
  8
0
100
AcDbLine
 62
7
  6
CONTINUOUS
 10
396.3371645986
 20
138.0256034606
 11
396.532747302
 21
137.9067819344
  0
LINE
  5
413
100
AcDbEntity
  8
0
100
AcDbLine
 62
7
  6
CONTINUOUS
 10
399.528924345
 20
138.7488578723
 11
399.3333415731
 21
138.867679565
  0
LINE
  5
414
100
AcDbEntity
  8
0
100
AcDbLine
 62
7
  6
CONTINUOUS
 10
395.8421898518
 20
142.3333121762
 11
395.8009219896
 21
142.3583834647
  0
LINE
  5
415
100
AcDbEntity
  8
0
100
AcDbLine
 62
7
  6
CONTINUOUS
 10
396.3018092596
 20
142.7772704325
 11
395.9106438528
 21
143.0149134849
  0
LINE
  5
416
100
AcDbEntity
  8
0
100
AcDbLine
 62
7
  6
CONTINUOUS
 10
397.5730971056
 20
142.3904625659
 11
397.6708884573
 21
142.3310518529
  0
LINE
  5
417
100
AcDbEntity
  8
0
100
AcDbLine
 62
7
  6
CONTINUOUS
 10
397.4753057539
 20
142.6952122322
 11
397.1819316988
 21
142.8734445718
  0
LINE
  5
418
100
AcDbEntity
  8
0
100
AcDbLine
 62
7
  6
CONTINUOUS
 10
397.5730971056
 20
142.9512372305
 11
397.6708884573
 21
142.8918263169
  0
LINE
  5
419
100
AcDbEntity
  8
0
100
AcDbLine
 62
7
  6
CONTINUOUS
 10
397.3775144022
 20
143.3153976098
 11
397.1819316988
 21
143.4342190358
  0
LINE
  5
41A
100
AcDbEntity
  8
0
100
AcDbLine
 62
7
  6
CONTINUOUS
 10
397.5730971056
 20
143.967641122
 11
397.6708884573
 21
143.9082302085
  0
LINE
  5
41B
100
AcDbEntity
  8
0
100
AcDbLine
 62
7
  6
CONTINUOUS
 10
397.4753057539
 20
144.2723907883
 11
397.1819316988
 21
144.4506231278
  0
LINE
  5
41C
100
AcDbEntity
  8
0
100
AcDbLine
 62
7
  6
CONTINUOUS
 10
397.5730971056
 20
144.528415586
 11
397.6708884573
 21
144.4690050736
  0
LINE
  5
41D
100
AcDbEntity
  8
0
100
AcDbLine
 62
7
  6
CONTINUOUS
 10
397.3775144022
 20
144.8925761659
 11
397.1819316988
 21
145.0113975919
  0
LINE
  5
41E
100
AcDbEntity
  8
0
100
AcDbLine
 62
7
  6
CONTINUOUS
 10
396.4349559503
 20
138.2115316007
 11
396.0437905435
 21
138.4842231324
  0
LINE
  5
41F
100
AcDbEntity
  8
RUNDUNGEN
100
AcDbLine
 62
7
  6
CONTINUOUS
 10
413.8993510952
 20
109.1878576722
 11
380.3234714013
 21
133.0143789965
  0
LINE
  5
420
100
AcDbEntity
  8
RUNDUNGEN
100
AcDbLine
 62
7
  6
CONTINUOUS
 10
455.5291876937
 20
85.5699819493
 11
448.1907065415
 21
90.7776035889
  0
LINE
  5
421
100
AcDbEntity
  8
RUNDUNGEN
100
AcDbLine
 62
7
  6
CONTINUOUS
 10
417.4348850012
 20
112.6029211817
 11
383.8590053072
 21
136.429442506
  0
LINE
  5
422
100
AcDbEntity
  8
RUNDUNGEN
100
AcDbLine
 62
7
  6
CONTINUOUS
 10
389.2220966605
 20
136.5415212826
 11
378.8298159401
 21
143.9162170597
  0
LINE
  5
423
100
AcDbEntity
  8
RUNDUNGEN
100
AcDbLine
 62
7
  6
CONTINUOUS
 10
433.6580765081
 20
109.3053766055
 11
452.8577999898
 21
95.6806369075
  0
LINE
  5
424
100
AcDbEntity
  8
0
100
AcDbLine
 62
7
  6
CONTINUOUS
 10
429.5160415889
 20
106.6095730686
 11
429.6254155845
 21
106.5313545033
  0
LINE
  5
425
100
AcDbEntity
  8
0
100
AcDbLine
 62
7
  6
CONTINUOUS
 10
429.3256702498
 20
106.9810209069
 11
429.2162962543
 21
107.0592394721
  0
LINE
  5
426
100
AcDbEntity
  8
0
100
AcDbLine
 62
7
  6
CONTINUOUS
 10
398.4885746099
 20
136.087694684
 11
398.781948802
 21
135.874413733
  0
LINE
  5
427
100
AcDbEntity
  8
0
100
AcDbLine
 62
7
  6
CONTINUOUS
 10
399.4311329933
 20
138.5979782114
 11
399.7245070484
 21
138.3846974428
  0
LINE
  5
428
100
AcDbEntity
  8
0
100
AcDbLine
 62
7
  6
CONTINUOUS
 10
398.3554279192
 20
140.828675611
 11
398.0620538641
 21
141.0419562292
  0
LINE
  5
429
100
AcDbEntity
  8
0
100
AcDbLine
 62
7
  6
CONTINUOUS
 10
396.3996006113
 20
142.4725207661
 11
396.6929746664
 21
142.2592399474
  0
LINE
  5
42A
100
AcDbEntity
  8
0
100
AcDbLine
 62
7
  6
CONTINUOUS
 10
427.8521669614
 20
106.2269065396
 11
428.0725299456
 21
106.0639746339
  0
LINE
  5
42B
100
AcDbEntity
  8
0
100
AcDbLine
 62
7
  6
CONTINUOUS
 10
427.4626843607
 20
107.1278217151
 11
427.2423214298
 21
107.2907535983
  0
LINE
  5
42C
100
AcDbEntity
  8
0
100
AcDbLine
 62
7
  6
CONTINUOUS
 10
426.7576042091
 20
107.9208250328
 11
426.5372412213
 21
108.0837569297
  0
LINE
  5
42D
100
AcDbEntity
  8
0
100
AcDbLine
 62
7
  6
CONTINUOUS
 10
399.3686969122
 20
134.2562062436
 11
399.8576537734
 21
133.8890554236
  0
LINE
  5
42E
100
AcDbEntity
  8
0
100
AcDbLine
 62
7
  6
CONTINUOUS
 10
406.0555562368
 20
127.5523516936
 11
406.2803332667
 21
127.3824461704
  0
LINE
  5
42F
100
AcDbEntity
  8
0
100
AcDbLine
 62
7
  6
CONTINUOUS
 10
405.735153756
 20
128.4051868118
 11
405.5103767366
 21
128.5750923229
  0
LINE
  5
430
100
AcDbEntity
  8
0
100
AcDbLine
 62
7
  6
CONTINUOUS
 10
427.8908926442
 20
106.2910428068
 11
427.7506137962
 21
106.398075318
  0
LINE
  5
431
100
AcDbEntity
  8
0
100
AcDbLine
 62
7
  6
CONTINUOUS
 10
427.4239586638
 20
107.0636854641
 11
427.5642375118
 21
106.9566529529
  0
LINE
  5
432
100
AcDbEntity
  8
0
100
AcDbLine
 62
7
  6
CONTINUOUS
 10
426.7188785122
 20
107.8566887818
 11
426.8591573601
 21
107.7496562706
  0
LINE
  5
433
100
AcDbEntity
  8
0
100
AcDbLine
 62
7
  6
CONTINUOUS
 10
406.1034864681
 20
127.6070694855
 11
405.960698802
 21
127.7182486478
  0
LINE
  5
434
100
AcDbEntity
  8
0
100
AcDbLine
 62
7
  6
CONTINUOUS
 10
405.6872235109
 20
128.3504690361
 11
405.830011177
 21
128.2392898737
  0
LINE
  5
435
100
AcDbEntity
  8
0
100
AcDbLine
 62
7
  6
CONTINUOUS
 10
441.787731871
 20
98.1823329039
 11
442.1006642238
 21
97.9361409088
  0
LINE
  5
436
100
AcDbEntity
  8
0
100
AcDbLine
 62
7
  6
CONTINUOUS
 10
397.9855481754
 20
135.9232247095
 11
397.8333724988
 21
136.0429452863
  0
LINE
  5
437
100
AcDbEntity
  8
0
100
AcDbLine
 62
7
  6
CONTINUOUS
 10
420.3765385366
 20
118.8639575172
 11
420.6894708895
 21
118.6177655221
  0
LINE
  5
438
100
AcDbEntity
  8
0
100
AcDbLine
 62
7
  6
CONTINUOUS
 10
398.6841574503
 20
136.1791633993
 11
398.2929919066
 21
136.4869035425
  0
LINE
  5
439
100
AcDbEntity
  8
0
100
AcDbLine
 62
7
  6
CONTINUOUS
 10
396.532747302
 20
137.9067819344
 11
396.7283300054
 21
137.7529119289
  0
LINE
  5
43A
100
AcDbEntity
  8
RUNDUNGEN
100
AcDbLine
 62
7
  6
CONTINUOUS
 10
275.7435259104
 20
188.4486639959
 11
270.2435259104
 21
196.035831735
  0
LINE
  5
43B
100
AcDbEntity
  8
0
100
AcDbLine
 62
7
  6
CONTINUOUS
 10
252.985515719
 20
253.0715429038
 11
259.6489520888
 21
253.0715429038
  0
LINE
  5
43C
100
AcDbEntity
  8
0
100
AcDbLine
 62
7
  6
CONTINUOUS
 10
399.3333415731
 20
138.867679565
 11
399.1377588698
 21
139.0215494701
  0
LINE
  5
43D
100
AcDbEntity
  8
0
100
AcDbLine
 62
7
  6
CONTINUOUS
 10
398.3554279192
 20
140.6183851368
 11
398.746593463
 21
140.3106449936
  0
LINE
  5
43E
100
AcDbEntity
  8
0
100
AcDbLine
 62
7
  6
CONTINUOUS
 10
397.6708884573
 20
142.3310518529
 11
397.8664711607
 21
142.1771817472
  0
LINE
  5
43F
100
AcDbEntity
  8
0
100
AcDbLine
 62
7
  6
CONTINUOUS
 10
397.6708884573
 20
142.8918263169
 11
397.8664711607
 21
142.7379564118
  0
LINE
  5
440
100
AcDbEntity
  8
0
100
AcDbLine
 62
7
  6
CONTINUOUS
 10
397.6708884573
 20
143.9082302085
 11
397.8664711607
 21
143.7543605038
  0
LINE
  5
441
100
AcDbEntity
  8
0
100
AcDbLine
 62
7
  6
CONTINUOUS
 10
397.6708884573
 20
144.4690050736
 11
397.8664711607
 21
144.3151349679
  0
LINE
  5
442
100
AcDbEntity
  8
0
100
AcDbLine
 62
7
  6
CONTINUOUS
 10
397.8664711607
 20
142.9131986073
 11
397.3775144022
 21
143.3153976098
  0
LINE
  5
443
100
AcDbEntity
  8
0
100
AcDbLine
 62
7
  6
CONTINUOUS
 10
397.8664711607
 20
144.4903771634
 11
397.3775144022
 21
144.8925761659
  0
LINE
  5
444
100
AcDbEntity
  8
0
100
AcDbLine
 62
7
  6
CONTINUOUS
 10
428.8571909014
 20
105.8998354404
 11
429.1011393998
 21
105.696216163
  0
LINE
  5
445
100
AcDbEntity
  8
0
100
AcDbLine
 62
7
  6
CONTINUOUS
 10
428.0937931445
 20
107.3181657889
 11
427.849844497
 21
107.5217851355
  0
LINE
  5
446
100
AcDbEntity
  8
0
100
AcDbLine
 62
7
  6
CONTINUOUS
 10
441.8659649523
 20
98.2749979094
 11
441.6312656535
 21
98.4736613204
  0
LINE
  5
447
100
AcDbEntity
  8
0
100
AcDbLine
 62
7
  6
CONTINUOUS
 10
399.2709055605
 20
134.5609559005
 11
398.9775315054
 21
134.8092850731
  0
LINE
  5
448
100
AcDbEntity
  8
0
100
AcDbLine
 62
7
  6
CONTINUOUS
 10
397.3150783896
 20
136.5552851138
 11
397.0217043345
 21
136.8036142863
  0
LINE
  5
449
100
AcDbEntity
  8
0
100
AcDbLine
 62
7
  6
CONTINUOUS
 10
396.7283300054
 20
137.963202403
 11
396.4349559503
 21
138.2115316007
  0
LINE
  5
44A
100
AcDbEntity
  8
0
100
AcDbLine
 62
7
  6
CONTINUOUS
 10
420.454771618
 20
118.9566225227
 11
420.2200723191
 21
119.1552859337
  0
LINE
  5
44B
100
AcDbEntity
  8
0
100
AcDbLine
 62
7
  6
CONTINUOUS
 10
399.1377588698
 20
138.8463074251
 11
399.4311329933
 21
138.5979782114
  0
LINE
  5
44C
100
AcDbEntity
  8
0
100
AcDbLine
 62
7
  6
CONTINUOUS
 10
427.5642375118
 20
106.9566529529
 11
427.6846269848
 21
106.8543866883
  0
LINE
  5
44D
100
AcDbEntity
  8
0
100
AcDbLine
 62
7
  6
CONTINUOUS
 10
427.6432685419
 20
106.974422325
 11
427.4626843607
 21
107.1278217151
  0
LINE
  5
44E
100
AcDbEntity
  8
0
100
AcDbLine
 62
7
  6
CONTINUOUS
 10
428.9528808871
 20
105.903764875
 11
428.7994743243
 21
106.0348033281
  0
LINE
  5
44F
100
AcDbEntity
  8
0
100
AcDbLine
 62
7
  6
CONTINUOUS
 10
427.9981031466
 20
107.3142363698
 11
428.1515097093
 21
107.1831979167
  0
LINE
  5
450
100
AcDbEntity
  8
0
100
AcDbLine
 62
7
  6
CONTINUOUS
 10
398.9775315054
 20
134.5989945989
 11
399.3686969122
 21
134.2562062436
  0
LINE
  5
451
100
AcDbEntity
  8
0
100
AcDbLine
 62
7
  6
CONTINUOUS
 10
397.1194956862
 20
136.49886462
 11
397.510661093
 21
136.1560762678
  0
LINE
  5
452
100
AcDbEntity
  8
0
100
AcDbLine
 62
7
  6
CONTINUOUS
 10
395.9034415525
 20
142.2796357382
 11
395.8421898518
 21
142.3333121762
  0
LINE
  5
453
100
AcDbEntity
  8
0
100
AcDbLine
 62
7
  6
CONTINUOUS
 10
398.746593463
 20
140.4858869886
 11
398.3554279192
 21
140.828675611
  0
LINE
  5
454
100
AcDbEntity
  8
0
100
AcDbLine
 62
7
  6
CONTINUOUS
 10
396.6929746664
 20
142.4344821429
 11
396.3018092596
 21
142.7772704325
  0
LINE
  5
455
100
AcDbEntity
  8
0
100
AcDbLine
 62
7
  6
CONTINUOUS
 10
427.631277433
 20
106.4266728248
 11
427.8521669614
 21
106.2269065396
  0
LINE
  5
456
100
AcDbEntity
  8
0
100
AcDbLine
 62
7
  6
CONTINUOUS
 10
426.9784937234
 20
107.7210587638
 11
426.7576042091
 21
107.9208250328
  0
LINE
  5
457
100
AcDbEntity
  8
0
100
AcDbLine
 62
7
  6
CONTINUOUS
 10
405.8335535279
 20
127.7558895723
 11
406.0555562368
 21
127.5523516936
  0
LINE
  5
458
100
AcDbEntity
  8
0
100
AcDbLine
 62
7
  6
CONTINUOUS
 10
405.9571564511
 20
128.2016489493
 11
405.735153756
 21
128.4051868118
  0
LINE
  5
459
100
AcDbEntity
  8
0
100
AcDbLine
 62
7
  6
CONTINUOUS
 10
427.7506137962
 20
106.398075318
 11
427.589918976
 21
106.5467084906
  0
LINE
  5
45A
100
AcDbEntity
  8
0
100
AcDbLine
 62
7
  6
CONTINUOUS
 10
426.8591573601
 20
107.7496562706
 11
427.0198521664
 21
107.6010231271
  0
LINE
  5
45B
100
AcDbEntity
  8
0
100
AcDbLine
 62
7
  6
CONTINUOUS
 10
428.6685971385
 20
106.0752082966
 11
428.8571909014
 21
105.8998354404
  0
LINE
  5
45C
100
AcDbEntity
  8
0
100
AcDbLine
 62
7
  6
CONTINUOUS
 10
428.2823868951
 20
107.1427929483
 11
428.0937931445
 21
107.3181657889
  0
LINE
  5
45D
100
AcDbEntity
  8
0
100
AcDbLine
 62
7
  6
CONTINUOUS
 10
405.830011177
 20
128.2392898737
 11
405.9912154381
 21
128.0882048607
  0
LINE
  5
45E
100
AcDbEntity
  8
RUNDUNGEN
100
AcDbLine
 62
7
  6
CONTINUOUS
 10
460.3175402763
 20
59.1497194908
 11
451.7557448099
 21
67.4197788511
  0
LINE
  5
45F
100
AcDbEntity
  8
KONSTRUKTIONSELEMENTE
100
AcDbLine
 62
7
  6
CONTINUOUS
 10
372.9500425981
 20
145.2370435955
 11
364.5354719019
 21
153.364894748
  0
LINE
  5
460
100
AcDbEntity
  8
KONSTRUKTIONSELEMENTE
100
AcDbLine
 62
7
  6
CONTINUOUS
 10
311.7853060254
 20
204.3176423092
 11
303.3707353293
 21
212.4454934617
  0
LINE
  5
461
100
AcDbEntity
  8
KONSTRUKTIONSELEMENTE
100
AcDbLine
 62
7
  6
CONTINUOUS
 10
344.7333919811
 20
174.6156502506
 11
334.1267902633
 21
184.8608407789
  0
LINE
  5
462
100
AcDbEntity
  8
RUNDUNGEN
100
AcDbLine
 62
7
  6
CONTINUOUS
 10
463.8530741822
 20
62.5647830002
 11
455.2912787159
 21
70.8348423605
  0
LINE
  5
463
100
AcDbEntity
  8
KONSTRUKTIONSELEMENTE
100
AcDbLine
 62
7
  6
CONTINUOUS
 10
376.4237755511
 20
148.8333165789
 11
368.009204855
 21
156.9611677314
  0
LINE
  5
464
100
AcDbEntity
  8
KONSTRUKTIONSELEMENTE
100
AcDbLine
 62
7
  6
CONTINUOUS
 10
315.2590389785
 20
207.9139152926
 11
308.4257135659
 21
214.514400788
  0
LINE
  5
465
100
AcDbEntity
  8
RUNDUNGEN
100
AcDbLine
 62
7
  6
CONTINUOUS
 10
461.7317538386
 20
67.2020115569
 11
467.7421614787
 21
61.3964035908
  0
LINE
  5
466
100
AcDbEntity
  8
KONSTRUKTIONSELEMENTE
100
AcDbLine
 62
7
  6
CONTINUOUS
 10
347.8597516388
 20
177.8522959356
 11
337.253149921
 21
188.097486464
  0
LINE
  5
467
100
AcDbEntity
  8
KONSTRUKTIONSELEMENTE
100
AcDbLine
 62
7
  6
CONTINUOUS
 10
322.636305069
 20
202.3262337471
 11
333.2429067868
 21
192.0810432187
  0
LINE
  5
468
100
AcDbEntity
  8
KONSTRUKTIONSELEMENTE
100
AcDbLine
 62
7
  6
CONTINUOUS
 10
353.7490034412
 20
172.2736748639
 11
364.355605159
 21
162.0284843355
  0
LINE
  5
469
100
AcDbEntity
  8
0
100
AcDbLine
 62
7
  6
CONTINUOUS
 10
394.4505436087
 20
133.3553558449
 11
401.6276774378
 21
126.4227769207
  0
LINE
  5
46A
100
AcDbEntity
  8
0
100
AcDbLine
 62
7
  6
CONTINUOUS
 10
401.16805803
 20
126.9961446995
 11
394.8040969993
 21
133.1432590165
  0
LINE
  5
46B
100
AcDbEntity
  8
0
100
AcDbLine
 62
7
  6
CONTINUOUS
 10
443.3469775278
 20
89.7484941405
 11
426.3764147793
 21
106.1407989859
  0
LINE
  5
46C
100
AcDbEntity
  8
0
100
AcDbLine
 62
7
  6
CONTINUOUS
 10
422.1337740922
 20
110.2388751973
 11
405.1632113437
 21
126.6311800427
  0
LINE
  5
46D
100
AcDbEntity
  8
0
100
AcDbLine
 62
7
  6
CONTINUOUS
 10
442.9934241372
 20
90.219410014
 11
437.3365698877
 21
95.6835116291
  0
LINE
  5
46E
100
AcDbEntity
  8
0
100
AcDbLine
 62
7
  6
CONTINUOUS
 10
436.5233970893
 20
96.4689762363
 11
428.2502477495
 21
104.4602248485
  0
LINE
  5
46F
100
AcDbEntity
  8
0
100
AcDbLine
 62
7
  6
CONTINUOUS
 10
427.7906283417
 20
104.9041831047
 11
426.3764147793
 21
106.2702085085
  0
LINE
  5
470
100
AcDbEntity
  8
0
100
AcDbLine
 62
7
  6
CONTINUOUS
 10
421.7802207016
 20
110.7097910708
 11
416.1233664521
 21
116.1738926859
  0
LINE
  5
471
100
AcDbEntity
  8
0
100
AcDbLine
 62
7
  6
CONTINUOUS
 10
415.5223256881
 20
116.7544534825
 11
406.3299375327
 21
125.6336186071
  0
LINE
  5
472
100
AcDbEntity
  8
0
100
AcDbLine
 62
7
  6
CONTINUOUS
 10
405.8703181249
 20
126.0775768633
 11
405.1632113437
 21
126.7605895652
  0
LINE
  5
473
100
AcDbEntity
  8
0
100
AcDbLine
 62
7
  6
CONTINUOUS
 10
394.8040969993
 20
138.0608208735
 11
401.16805803
 21
131.9137065564
  0
LINE
  5
474
100
AcDbEntity
  8
0
100
AcDbLine
 62
7
  6
CONTINUOUS
 10
401.6276774378
 20
131.5991578228
 11
394.4505436087
 21
138.531736747
  0
LINE
  5
475
100
AcDbEntity
  8
0
100
AcDbLine
 62
7
  6
CONTINUOUS
 10
396.7283300054
 20
136.8767016534
 11
397.1194956862
 21
136.49886462
  0
LINE
  5
476
100
AcDbEntity
  8
KONSTRUKTIONSELEMENTE
100
AcDbLine
 62
7
  6
CONTINUOUS
 10
325.7626647267
 20
205.5628794322
 11
336.3692664445
 21
195.3176889038
  0
LINE
  5
477
100
AcDbEntity
  8
KONSTRUKTIONSELEMENTE
100
AcDbLine
 62
7
  6
CONTINUOUS
 10
356.8753630989
 20
175.5103205489
 11
367.4819648167
 21
165.2651300205
  0
LINE
  5
478
100
AcDbEntity
  8
0
100
AcDbLine
 62
7
  6
CONTINUOUS
 10
397.0217043345
 20
136.8036142863
 11
396.8261216311
 21
136.9925326707
  0
LINE
  5
479
100
AcDbEntity
  8
0
100
AcDbLine
 62
7
  6
CONTINUOUS
 10
398.781948802
 20
135.874413733
 11
399.0753228571
 21
135.5910361564
  0
LINE
  5
47A
100
AcDbEntity
  8
0
100
AcDbLine
 62
7
  6
CONTINUOUS
 10
399.1731142088
 20
135.7068674384
 11
398.6841574503
 21
136.1791633993
  0
LINE
  5
47B
100
AcDbEntity
  8
KONSTRUKTIONSELEMENTE
100
AcDbLine
 62
7
  6
CONTINUOUS
 10
367.2759676013
 20
168.4405270697
 11
357.875496885
 21
177.5206845139
  0
LINE
  5
47C
100
AcDbEntity
  8
KONSTRUKTIONSELEMENTE
100
AcDbLine
 62
7
  6
CONTINUOUS
 10
336.3692664445
 20
198.2941079225
 11
327.2215818462
 21
207.1300927267
  0
LINE
  5
47D
100
AcDbEntity
  8
KONSTRUKTIONSELEMENTE
100
AcDbLine
 62
7
  6
CONTINUOUS
 10
342.2585182469
 20
192.7154868507
 11
352.8651199647
 21
182.4702963223
  0
LINE
  5
47E
100
AcDbEntity
  8
0
100
AcDbLine
 62
7
  6
CONTINUOUS
 10
396.3018092596
 20
140.8846561651
 11
397.0841403471
 21
140.128982363
  0
LINE
  5
47F
100
AcDbEntity
  8
0
100
AcDbLine
 62
7
  6
CONTINUOUS
 10
396.3996006113
 20
141.0004874471
 11
400.2134638754
 21
137.3165784223
  0
LINE
  5
480
100
AcDbEntity
  8
RUNDUNGEN
100
AcDbLine
 62
7
  6
CONTINUOUS
 10
464.2066275728
 20
75.5810351483
 11
458.1962199327
 21
81.3866431144
  0
LINE
  5
481
100
AcDbEntity
  8
0
100
AcDbLine
 62
7
  6
CONTINUOUS
 10
400.2134638754
 20
137.5268688965
 11
395.6172697977
 21
141.9664514588
  0
LINE
  5
482
100
AcDbEntity
  8
0
100
AcDbLine
 62
7
  6
CONTINUOUS
 10
405.6327417246
 20
127.9531539677
 11
405.8335535279
 21
127.7558895723
  0
LINE
  5
483
100
AcDbEntity
  8
0
100
AcDbLine
 62
7
  6
CONTINUOUS
 10
405.960698802
 20
127.7182486478
 11
405.7598869987
 21
127.9155130433
  0
LINE
  5
484
100
AcDbEntity
  8
0
100
AcDbLine
 62
7
  6
CONTINUOUS
 10
197.8172339039
 20
271.0019854806
 11
197.8172339039
 21
343.4464224523
  0
LINE
  5
485
100
AcDbEntity
  8
0
100
AcDbLine
 62
7
  6
CONTINUOUS
 10
252.3369760124
 20
264.5397683399
 11
260.2974917955
 21
264.5397683399
  0
LINE
  5
486
100
AcDbEntity
  8
0
100
AcDbLine
 62
7
  6
CONTINUOUS
 10
418.4989444197
 20
120.4532643203
 11
418.8118767451
 21
120.1509949053
  0
LINE
  5
487
100
AcDbEntity
  8
0
100
AcDbLine
 62
7
  6
CONTINUOUS
 10
439.910137754
 20
99.771639707
 11
440.2230700794
 21
99.469370292
  0
LINE
  5
488
100
AcDbEntity
  8
KONSTRUKTIONSELEMENTE
100
AcDbLine
 62
7
  6
CONTINUOUS
 10
313.340940944
 20
222.0759725584
 11
317.3714495968
 21
218.1828001576
  0
LINE
  5
489
100
AcDbEntity
  8
KONSTRUKTIONSELEMENTE
100
AcDbLine
 62
7
  6
CONTINUOUS
 10
317.7250029874
 20
217.8412938066
 11
321.7555116401
 21
213.9481214059
  0
LINE
  5
48A
100
AcDbEntity
  8
KONSTRUKTIONSELEMENTE
100
AcDbLine
 62
7
  6
CONTINUOUS
 10
374.5056775167
 20
162.9953738447
 11
378.5361861694
 21
159.1022014439
  0
LINE
  5
48B
100
AcDbEntity
  8
KONSTRUKTIONSELEMENTE
100
AcDbLine
 62
7
  6
CONTINUOUS
 10
378.88973956
 20
158.760695093
 11
382.9202482128
 21
154.8675226922
  0
LINE
  5
48C
100
AcDbEntity
  8
0
100
AcDbLine
 62
7
  6
CONTINUOUS
 10
417.8730795496
 20
121.2821132078
 11
418.4989444197
 21
120.6775741661
  0
LINE
  5
48D
100
AcDbEntity
  8
0
100
AcDbLine
 62
7
  6
CONTINUOUS
 10
418.8118767451
 20
120.375304751
 11
420.3765385366
 21
118.8639575172
  0
LINE
  5
48E
100
AcDbEntity
  8
0
100
AcDbLine
 62
7
  6
CONTINUOUS
 10
439.284272884
 20
100.6004885945
 11
439.910137754
 21
99.9959495528
  0
LINE
  5
48F
100
AcDbEntity
  8
0
100
AcDbLine
 62
7
  6
CONTINUOUS
 10
440.2230700794
 20
99.6936801378
 11
441.787731871
 21
98.1823329039
  0
LINE
  5
490
100
AcDbEntity
  8
0
100
AcDbLine
 62
7
  6
CONTINUOUS
 10
397.6708884573
 20
140.8239700547
 11
398.0620538641
 21
140.4461332859
  0
LINE
  5
491
100
AcDbEntity
  8
0
100
AcDbLine
 62
7
  6
CONTINUOUS
 10
441.6312656535
 20
98.4736613204
 11
440.2230700794
 21
99.8338737939
  0
LINE
  5
492
100
AcDbEntity
  8
0
100
AcDbLine
 62
7
  6
CONTINUOUS
 10
439.910137754
 20
100.1361432089
 11
439.284272884
 21
100.7406822506
  0
LINE
  5
493
100
AcDbEntity
  8
0
100
AcDbLine
 62
7
  6
CONTINUOUS
 10
420.2200723191
 20
119.1552859337
 11
418.8118767451
 21
120.5154984072
  0
LINE
  5
494
100
AcDbEntity
  8
0
100
AcDbLine
 62
7
  6
CONTINUOUS
 10
418.4989444197
 20
120.8177678222
 11
417.8730795496
 21
121.4223068639
  0
LINE
  5
495
100
AcDbEntity
  8
0
100
AcDbLine
 62
7
  6
CONTINUOUS
 10
442.4135965766
 20
97.970336246
 11
442.1006642238
 21
98.2726056875
  0
LINE
  5
496
100
AcDbEntity
  8
0
100
AcDbLine
 62
7
  6
CONTINUOUS
 10
421.0024032423
 20
118.6519608593
 11
420.6894708895
 21
118.9542303008
  0
LINE
  5
497
100
AcDbEntity
  8
0
100
AcDbLine
 62
7
  6
CONTINUOUS
 10
440.2230700794
 20
100.1422998092
 11
439.910137754
 21
100.4445692243
  0
LINE
  5
498
100
AcDbEntity
  8
0
100
AcDbLine
 62
7
  6
CONTINUOUS
 10
418.8118767451
 20
120.8239244225
 11
418.4989444197
 21
121.1261938376
  0
LINE
  5
499
100
AcDbEntity
  8
0
100
AcDbLine
 62
7
  6
CONTINUOUS
 10
396.6929746664
 20
142.2592399474
 11
396.8885576437
 21
142.0703212984
  0
LINE
  5
49A
100
AcDbEntity
  8
0
100
AcDbLine
 62
7
  6
CONTINUOUS
 10
398.746593463
 20
140.3106449936
 11
399.1377588698
 21
139.9328082249
  0
LINE
  5
49B
100
AcDbEntity
  8
0
100
AcDbLine
 62
7
  6
CONTINUOUS
 10
396.8885576437
 20
142.2455634939
 11
396.6929746664
 21
142.4344821429
  0
LINE
  5
49C
100
AcDbEntity
  8
0
100
AcDbLine
 62
7
  6
CONTINUOUS
 10
399.1377588698
 20
140.1080502198
 11
398.746593463
 21
140.4858869886
  0
LINE
  5
49D
100
AcDbEntity
  8
0
100
AcDbLine
 62
7
  6
CONTINUOUS
 10
416.1233664521
 20
123.938464039
 11
421.7802207016
 21
118.4743624238
  0
LINE
  5
49E
100
AcDbEntity
  8
0
100
AcDbLine
 62
7
  6
CONTINUOUS
 10
437.3365698877
 20
103.4480829822
 11
442.9934241372
 21
97.9839813671
  0
LINE
  5
49F
100
AcDbEntity
  8
0
100
AcDbLine
 62
7
  6
CONTINUOUS
 10
397.0841403471
 20
142.3720808207
 11
400.2134638754
 21
139.3493864059
  0
LINE
  5
4A0
100
AcDbEntity
  8
0
100
AcDbLine
 62
7
  6
CONTINUOUS
 10
443.3469775278
 20
97.7718845387
 11
436.9830164971
 21
103.9189988557
  0
LINE
  5
4A1
100
AcDbEntity
  8
0
100
AcDbLine
 62
7
  6
CONTINUOUS
 10
422.1337740922
 20
118.2622655955
 11
415.7698130615
 21
124.4093799125
  0
LINE
  5
4A2
100
AcDbEntity
  8
0
100
AcDbLine
 62
7
  6
CONTINUOUS
 10
400.2134638754
 20
139.5246284009
 11
397.768679809
 21
141.8861084703
  0
LINE
  5
4A3
100
AcDbEntity
  8
0
100
AcDbLine
 62
7
  6
CONTINUOUS
 10
397.3775144022
 20
142.2639452391
 11
397.0841403471
 21
142.5473228157
  0
LINE
  5
4A4
100
AcDbEntity
  8
0
100
AcDbLine
 62
7
  6
CONTINUOUS
 10
397.8664711607
 20
142.1771817472
 11
400.2134638754
 21
139.91016087
  0
LINE
  5
4A5
100
AcDbEntity
  8
0
100
AcDbLine
 62
7
  6
CONTINUOUS
 10
400.2134638754
 20
140.0854030654
 11
397.8664711607
 21
142.3524239427
  0
LINE
  5
4A6
100
AcDbEntity
  8
0
100
AcDbLine
 62
7
  6
CONTINUOUS
 10
397.8664711607
 20
142.7379564118
 11
400.2134638754
 21
140.4709355345
  0
LINE
  5
4A7
100
AcDbEntity
  8
0
100
AcDbLine
 62
7
  6
CONTINUOUS
 10
400.2134638754
 20
140.64617773
 11
397.8664711607
 21
142.9131986073
  0
LINE
  5
4A8
100
AcDbEntity
  8
0
100
AcDbLine
 62
7
  6
CONTINUOUS
 10
397.0841403471
 20
143.9492591763
 11
400.2134638754
 21
140.9265647615
  0
LINE
  5
4A9
100
AcDbEntity
  8
0
100
AcDbLine
 62
7
  6
CONTINUOUS
 10
400.2134638754
 20
141.101806957
 11
397.768679809
 21
143.4632870264
  0
LINE
  5
4AA
100
AcDbEntity
  8
0
100
AcDbLine
 62
7
  6
CONTINUOUS
 10
397.3775144022
 20
143.8411237952
 11
397.0841403471
 21
144.1245013717
  0
LINE
  5
4AB
100
AcDbEntity
  8
0
100
AcDbLine
 62
7
  6
CONTINUOUS
 10
397.8664711607
 20
143.7543605038
 11
400.2134638754
 21
141.4873396266
  0
LINE
  5
4AC
100
AcDbEntity
  8
0
100
AcDbLine
 62
7
  6
CONTINUOUS
 10
400.2134638754
 20
141.662581421
 11
397.8664711607
 21
143.9296022982
  0
LINE
  5
4AD
100
AcDbEntity
  8
0
100
AcDbLine
 62
7
  6
CONTINUOUS
 10
397.8664711607
 20
144.3151349679
 11
400.2134638754
 21
142.0481140906
  0
LINE
  5
4AE
100
AcDbEntity
  8
0
100
AcDbLine
 62
7
  6
CONTINUOUS
 10
400.2134638754
 20
142.2233562861
 11
397.8664711607
 21
144.4903771634
  0
LINE
  5
4AF
100
AcDbEntity
  8
KONSTRUKTIONSELEMENTE
100
AcDbLine
 62
7
  6
CONTINUOUS
 10
345.3848779046
 20
195.9521325358
 11
355.9914796224
 21
185.7069420074
  0
LINE
  5
4B0
100
AcDbEntity
  8
RUNDUNGEN
100
AcDbLine
 62
7
  6
CONTINUOUS
 10
467.7421614787
 20
78.9960986578
 11
461.7317538386
 21
84.8017066239
  0
LINE
  5
4B1
100
AcDbEntity
  8
KONSTRUKTIONSELEMENTE
100
AcDbLine
 62
7
  6
CONTINUOUS
 10
316.8146738971
 20
225.6722455418
 11
320.8451825498
 21
221.779073141
  0
LINE
  5
4B2
100
AcDbEntity
  8
KONSTRUKTIONSELEMENTE
100
AcDbLine
 62
7
  6
CONTINUOUS
 10
321.1987359404
 20
221.43756679
 11
325.2292445932
 21
217.5443943892
  0
LINE
  5
4B3
100
AcDbEntity
  8
KONSTRUKTIONSELEMENTE
100
AcDbLine
 62
7
  6
CONTINUOUS
 10
377.9794104697
 20
166.5916468281
 11
382.0099191225
 21
162.6984744273
  0
LINE
  5
4B4
100
AcDbEntity
  8
KONSTRUKTIONSELEMENTE
100
AcDbLine
 62
7
  6
CONTINUOUS
 10
382.3634725131
 20
162.3569680763
 11
386.3939811658
 21
158.4637956756
  0
LINE
  5
4B5
100
AcDbEntity
  8
RUNDUNGEN
100
AcDbLine
 62
7
  6
CONTINUOUS
 10
455.2912787159
 20
93.6109183296
 11
463.8530741822
 21
85.3408589692
  0
LINE
  5
4B6
100
AcDbEntity
  8
0
100
AcDbLine
 62
7
  6
CONTINUOUS
 10
427.3899719518
 20
106.6680397539
 11
427.631277433
 21
106.4266728248
  0
LINE
  5
4B7
100
AcDbEntity
  8
0
100
AcDbLine
 62
7
  6
CONTINUOUS
 10
427.8845740144
 20
106.7330554237
 11
427.6432685419
 21
106.974422325
  0
LINE
  5
4B8
100
AcDbEntity
  8
0
100
AcDbLine
 62
7
  6
CONTINUOUS
 10
428.7994743243
 20
106.0348033281
 11
428.4776415369
 21
106.3573026155
  0
LINE
  5
4B9
100
AcDbEntity
  8
0
100
AcDbLine
 62
7
  6
CONTINUOUS
 10
428.1515097093
 20
107.1831979167
 11
428.4733424123
 21
106.8606986171
  0
LINE
  5
4BA
100
AcDbEntity
  8
0
100
AcDbLine
 62
7
  6
CONTINUOUS
 10
405.8126494043
 20
129.1786886616
 11
406.0320573153
 21
128.957154505
  0
LINE
  5
4BB
100
AcDbEntity
  8
0
100
AcDbLine
 62
7
  6
CONTINUOUS
 10
405.959558793
 20
129.186753155
 11
405.7401506992
 21
129.4082875521
  0
LINE
  5
4BC
100
AcDbEntity
  8
0
100
AcDbLine
 62
7
  6
CONTINUOUS
 10
406.1975757967
 20
127.9582051715
 11
405.9571564511
 21
128.2016489493
  0
LINE
  5
4BD
100
AcDbEntity
  8
0
100
AcDbLine
 62
7
  6
CONTINUOUS
 10
427.589918976
 20
106.5467084906
 11
427.4491135874
 21
106.6905753773
  0
LINE
  5
4BE
100
AcDbEntity
  8
0
100
AcDbLine
 62
7
  6
CONTINUOUS
 10
427.6846269848
 20
106.8543866883
 11
427.8254324157
 21
106.71051974
  0
LINE
  5
4BF
100
AcDbEntity
  8
0
100
AcDbLine
 62
7
  6
CONTINUOUS
 10
427.1192990978
 20
107.5771918805
 11
426.9784937234
 21
107.7210587638
  0
LINE
  5
4C0
100
AcDbEntity
  8
0
100
AcDbLine
 62
7
  6
CONTINUOUS
 10
405.9912154381
 20
128.0882048607
 11
406.1312289565
 21
127.9433932465
  0
LINE
  5
4C1
100
AcDbEntity
  8
0
100
AcDbLine
 62
7
  6
CONTINUOUS
 10
428.4724935446
 20
106.2807923433
 11
428.6685971385
 21
106.0752082966
  0
LINE
  5
4C2
100
AcDbEntity
  8
0
100
AcDbLine
 62
7
  6
CONTINUOUS
 10
428.4784903852
 20
106.937208973
 11
428.2823868951
 21
107.1427929483
  0
LINE
  5
4C3
100
AcDbEntity
  8
0
100
AcDbLine
 62
7
  6
CONTINUOUS
 10
396.3371645986
 20
137.2895868387
 11
396.7283300054
 21
136.8767016534
  0
LINE
  5
4C4
100
AcDbEntity
  8
0
100
AcDbLine
 62
7
  6
CONTINUOUS
 10
396.3018092596
 20
141.6557212537
 11
396.6929746664
 21
141.2428360559
  0
LINE
  5
4C5
100
AcDbEntity
  8
0
100
AcDbLine
 62
7
  6
CONTINUOUS
 10
397.2797230505
 20
141.8326782459
 11
396.8885576437
 21
142.2455634939
  0
LINE
  5
4C6
100
AcDbEntity
  8
0
100
AcDbLine
 62
7
  6
CONTINUOUS
 10
404.5715452729
 20
128.2444116873
 11
404.8300497096
 21
127.9651788354
  0
LINE
  5
4C7
100
AcDbEntity
  8
0
100
AcDbLine
 62
7
  6
CONTINUOUS
 10
404.0690067677
 20
129.1939513992
 11
404.8876040803
 21
128.309714111
  0
LINE
  5
4C8
100
AcDbEntity
  8
0
100
AcDbLine
 62
7
  6
CONTINUOUS
 10
405.146108517
 20
128.0304812592
 11
405.7492854556
 21
127.3789380251
  0
LINE
  5
4C9
100
AcDbEntity
  8
0
100
AcDbLine
 62
7
  6
CONTINUOUS
 10
405.8283001575
 20
127.395263631
 11
405.2251232189
 21
128.0468068651
  0
LINE
  5
4CA
100
AcDbEntity
  8
0
100
AcDbLine
 62
7
  6
CONTINUOUS
 10
404.9666187821
 20
128.326039717
 11
403.8033489677
 21
129.5825873874
  0
LINE
  5
4CB
100
AcDbEntity
  8
0
100
AcDbLine
 62
7
  6
CONTINUOUS
 10
405.3568143761
 20
128.0740162058
 11
405.0983099393
 21
128.3532490576
  0
LINE
  5
4CC
100
AcDbEntity
  8
0
100
AcDbLine
 62
7
  6
CONTINUOUS
 10
396.8261216311
 20
136.9925326707
 11
396.532747302
 21
137.3109589159
  0
LINE
  5
4CD
100
AcDbEntity
  8
0
100
AcDbLine
 62
7
  6
CONTINUOUS
 10
399.4311329933
 20
139.7896242984
 11
399.1377588698
 21
140.1080502198
  0
LINE
  5
4CE
100
AcDbEntity
  8
0
100
AcDbLine
 62
7
  6
CONTINUOUS
 10
429.3067525772
 20
106.837680292
 11
429.5160415889
 21
106.6095730686
  0
LINE
  5
4CF
100
AcDbEntity
  8
0
100
AcDbLine
 62
7
  6
CONTINUOUS
 10
429.5349594046
 20
106.752913469
 11
429.3256702498
 21
106.9810209069
  0
LINE
  5
4D0
100
AcDbEntity
  8
0
100
AcDbLine
 62
7
  6
CONTINUOUS
 10
427.0879451687
 20
106.9973742224
 11
427.3899719518
 21
106.6680397539
  0
LINE
  5
4D1
100
AcDbEntity
  8
0
100
AcDbLine
 62
7
  6
CONTINUOUS
 10
428.3392546116
 20
106.4279187185
 11
428.4724935446
 21
106.2807923433
  0
LINE
  5
4D2
100
AcDbEntity
  8
0
100
AcDbLine
 62
7
  6
CONTINUOUS
 10
428.611729496
 20
106.7900824332
 11
428.4784903852
 21
106.937208973
  0
LINE
  5
4D3
100
AcDbEntity
  8
0
100
AcDbLine
 62
7
  6
CONTINUOUS
 10
399.5642796841
 20
135.2589338456
 11
399.1731142088
 21
135.7068674384
  0
LINE
  5
4D4
100
AcDbEntity
  8
0
100
AcDbLine
 62
7
  6
CONTINUOUS
 10
396.8885576437
 20
142.0703212984
 11
397.2797230505
 21
141.6223877718
  0
LINE
  5
4D5
100
AcDbEntity
  8
0
100
AcDbLine
 62
7
  6
CONTINUOUS
 10
399.1377588698
 20
139.9328082249
 11
399.3333415731
 21
139.7088413613
  0
LINE
  5
4D6
100
AcDbEntity
  8
0
100
AcDbLine
 62
7
  6
CONTINUOUS
 10
397.8664711607
 20
142.3524239427
 11
397.6708884573
 21
142.5763906057
  0
LINE
  5
4D7
100
AcDbEntity
  8
0
100
AcDbLine
 62
7
  6
CONTINUOUS
 10
397.8664711607
 20
143.9296022982
 11
397.6708884573
 21
144.1535693624
  0
LINE
  5
4D8
100
AcDbEntity
  8
0
100
AcDbLine
 62
7
  6
CONTINUOUS
 10
426.8058078365
 20
107.3219423747
 11
427.0879451687
 21
106.9973742224
  0
LINE
  5
4D9
100
AcDbEntity
  8
0
100
AcDbLine
 62
7
  6
CONTINUOUS
 10
426.9858654698
 20
107.2053773618
 11
426.9052548035
 21
107.2981111196
  0
LINE
  5
4DA
100
AcDbEntity
  8
0
100
AcDbLine
 62
7
  6
CONTINUOUS
 10
427.4491135874
 20
106.6905753773
 11
427.3281975879
 21
106.829676014
  0
LINE
  5
4DB
100
AcDbEntity
  8
0
100
AcDbLine
 62
7
  6
CONTINUOUS
 10
427.8254324157
 20
106.71051974
 11
427.9463484152
 21
106.5714191034
  0
LINE
  5
4DC
100
AcDbEntity
  8
0
100
AcDbLine
 62
7
  6
CONTINUOUS
 10
428.0861007367
 20
106.5012209642
 11
427.8845740144
 21
106.7330554237
  0
LINE
  5
4DD
100
AcDbEntity
  8
0
100
AcDbLine
 62
7
  6
CONTINUOUS
 10
428.1356412535
 20
106.6637139309
 11
428.3392546116
 21
106.4279187185
  0
LINE
  5
4DE
100
AcDbEntity
  8
0
100
AcDbLine
 62
7
  6
CONTINUOUS
 10
428.8153427256
 20
106.5542873233
 11
428.611729496
 21
106.7900824332
  0
LINE
  5
4DF
100
AcDbEntity
  8
0
100
AcDbLine
 62
7
  6
CONTINUOUS
 10
404.2464785507
 20
129.5694314139
 11
405.2762740386
 21
128.3687681829
  0
LINE
  5
4E0
100
AcDbEntity
  8
0
100
AcDbLine
 62
7
  6
CONTINUOUS
 10
405.1841908208
 20
128.5682975082
 11
404.5504704778
 21
129.3071672386
  0
LINE
  5
4E1
100
AcDbEntity
  8
0
100
AcDbLine
 62
7
  6
CONTINUOUS
 10
406.1312289565
 20
127.9433932465
 11
406.2104439855
 21
127.8510345463
  0
LINE
  5
4E2
100
AcDbEntity
  8
0
100
AcDbLine
 62
7
  6
CONTINUOUS
 10
405.1650060501
 20
129.1252360799
 11
404.9669684777
 21
129.3561328302
  0
LINE
  5
4E3
100
AcDbEntity
  8
0
100
AcDbLine
 62
7
  6
CONTINUOUS
 10
406.3560058547
 20
127.7734877712
 11
406.1975757967
 21
127.9582051715
  0
LINE
  5
4E4
100
AcDbEntity
  8
0
100
AcDbLine
 62
7
  6
CONTINUOUS
 10
428.4776415369
 20
106.3573026155
 11
428.2388410701
 21
106.637432175
  0
LINE
  5
4E5
100
AcDbEntity
  8
0
100
AcDbLine
 62
7
  6
CONTINUOUS
 10
428.4733424123
 20
106.8606986171
 11
428.7121429882
 21
106.5805690388
  0
LINE
  5
4E6
100
AcDbEntity
  8
0
100
AcDbLine
 62
7
  6
CONTINUOUS
 10
399.0753228571
 20
135.5910361564
 11
399.3686969122
 21
135.237561822
  0
LINE
  5
4E7
100
AcDbEntity
  8
RUNDUNGEN
100
AcDbLine
 62
7
  6
CONTINUOUS
 10
449.3222660839
 20
70.0511801715
 11
430.1225426021
 21
93.5174580109
  0
LINE
  5
4E8
100
AcDbEntity
  8
RUNDUNGEN
100
AcDbLine
 62
7
  6
CONTINUOUS
 10
379.1273936542
 20
155.844727193
 11
379.0460443672
 21
155.9441538838
  0
LINE
  5
4E9
100
AcDbEntity
  8
KONSTRUKTIONSELEMENTE
100
AcDbLine
 62
7
  6
CONTINUOUS
 10
260.2712467984
 20
264.601347158
 11
265.045573402
 21
253.4902469236
  0
LINE
  5
4EA
100
AcDbEntity
  8
0
100
AcDbLine
 62
7
  6
CONTINUOUS
 10
260.2976731122
 20
264.5398462499
 11
260.2712467984
 21
264.601347158
  0
LINE
  5
4EB
100
AcDbEntity
  8
0
100
AcDbLine
 62
7
  6
CONTINUOUS
 10
223.8172339039
 20
271.0019854806
 11
223.8172339039
 21
343.4464224523
  0
LINE
  5
4EC
100
AcDbEntity
  8
0
100
AcDbLine
 62
7
  6
CONTINUOUS
 10
396.6929746664
 20
141.4180781511
 11
396.3996006113
 21
141.7715524855
  0
LINE
  5
4ED
100
AcDbEntity
  8
0
100
AcDbLine
 62
7
  6
CONTINUOUS
 10
397.5730971056
 20
141.4792039115
 11
397.2797230505
 21
141.8326782459
  0
LINE
  5
4EE
100
AcDbEntity
  8
0
100
AcDbLine
 62
7
  6
CONTINUOUS
 10
399.7245070484
 20
139.4361497634
 11
399.4311329933
 21
139.7896242984
  0
LINE
  5
4EF
100
AcDbEntity
  8
0
100
AcDbLine
 62
7
  6
CONTINUOUS
 10
426.5435598988
 20
107.6417442757
 11
426.8058078365
 21
107.3219423747
  0
LINE
  5
4F0
100
AcDbEntity
  8
RUNDUNGEN
100
AcDbLine
 62
7
  6
CONTINUOUS
 10
452.8577999898
 20
73.466243681
 11
433.6580765081
 21
96.9325215203
  0
LINE
  5
4F1
100
AcDbEntity
  8
RUNDUNGEN
100
AcDbLine
 62
7
  6
CONTINUOUS
 10
391.8510890036
 20
152.9272155015
 11
388.4336440081
 21
157.1040836654
  0
LINE
  5
4F2
100
AcDbEntity
  8
RUNDUNGEN
100
AcDbLine
 62
7
  6
CONTINUOUS
 10
386.1759171686
 20
163.1810985897
 11
389.6802463589
 21
158.8980388624
  0
LINE
  5
4F3
100
AcDbEntity
  8
RUNDUNGEN
100
AcDbLine
 62
7
  6
CONTINUOUS
 10
399.1216621939
 20
147.3585556301
 11
417.4348850012
 21
124.9757762668
  0
LINE
  5
4F4
100
AcDbEntity
  8
RUNDUNGEN
100
AcDbLine
 62
7
  6
CONTINUOUS
 10
448.1907065415
 20
87.3854091905
 11
455.5291876937
 21
78.4161738888
  0
LINE
  5
4F5
100
AcDbEntity
  8
0
100
AcDbLine
 62
7
  6
CONTINUOUS
 10
426.9052548035
 20
107.2981111196
 11
426.6833122007
 21
107.5715461412
  0
LINE
  5
4F6
100
AcDbEntity
  8
0
100
AcDbLine
 62
7
  6
CONTINUOUS
 10
427.8189565623
 20
107.0627234189
 11
428.1356412535
 21
106.6637139309
  0
LINE
  5
4F7
100
AcDbEntity
  8
0
100
AcDbLine
 62
7
  6
CONTINUOUS
 10
428.2388410701
 20
106.637432175
 11
427.9925307547
 21
106.9477728879
  0
LINE
  5
4F8
100
AcDbEntity
  8
0
100
AcDbLine
 62
7
  6
CONTINUOUS
 10
428.7121429882
 20
106.5805690388
 11
428.9584533036
 21
106.2702283259
  0
LINE
  5
4F9
100
AcDbEntity
  8
0
100
AcDbLine
 62
7
  6
CONTINUOUS
 10
429.1320274168
 20
106.1552778353
 11
428.8153427256
 21
106.5542873233
  0
LINE
  5
4FA
100
AcDbEntity
  8
0
100
AcDbLine
 62
7
  6
CONTINUOUS
 10
395.6172697977
 20
141.7561609846
 11
396.3018092596
 21
140.8846561651
  0
LINE
  5
4FB
100
AcDbEntity
  8
0
100
AcDbLine
 62
7
  6
CONTINUOUS
 10
397.0841403471
 20
140.128982363
 11
396.3996006113
 21
141.0004874471
  0
LINE
  5
4FC
100
AcDbEntity
  8
0
100
AcDbLine
 62
7
  6
CONTINUOUS
 10
405.6848206811
 20
129.3468555828
 11
405.8126494043
 21
129.1786886616
  0
LINE
  5
4FD
100
AcDbEntity
  8
0
100
AcDbLine
 62
7
  6
CONTINUOUS
 10
406.0873875162
 20
129.0185862338
 11
405.959558793
 21
129.186753155
  0
LINE
  5
4FE
100
AcDbEntity
  8
0
100
AcDbLine
 62
7
  6
CONTINUOUS
 10
395.9459991918
 20
137.8076172611
 11
396.3371645986
 21
137.2895868387
  0
LINE
  5
4FF
100
AcDbEntity
  8
0
100
AcDbLine
 62
7
  6
CONTINUOUS
 10
399.9554451251
 20
134.7409033274
 11
399.5642796841
 21
135.2589338456
  0
LINE
  5
500
100
AcDbEntity
  8
0
100
AcDbLine
 62
7
  6
CONTINUOUS
 10
395.9106438528
 20
142.1737516886
 11
396.3018092596
 21
141.6557212537
  0
LINE
  5
501
100
AcDbEntity
  8
0
100
AcDbLine
 62
7
  6
CONTINUOUS
 10
397.2797230505
 20
141.6223877718
 11
397.4753057539
 21
141.3633725292
  0
LINE
  5
502
100
AcDbEntity
  8
0
100
AcDbLine
 62
7
  6
CONTINUOUS
 10
397.1819316988
 20
142.5229603813
 11
397.3775144022
 21
142.2639452391
  0
LINE
  5
503
100
AcDbEntity
  8
0
100
AcDbLine
 62
7
  6
CONTINUOUS
 10
399.3333415731
 20
139.7088413613
 11
399.528924345
 21
139.4498261529
  0
LINE
  5
504
100
AcDbEntity
  8
0
100
AcDbLine
 62
7
  6
CONTINUOUS
 10
397.768679809
 20
141.8861084703
 11
397.5730971056
 21
142.1451236126
  0
LINE
  5
505
100
AcDbEntity
  8
0
100
AcDbLine
 62
7
  6
CONTINUOUS
 10
397.1819316988
 20
143.0837350459
 11
397.4753057539
 21
142.6952122322
  0
LINE
  5
506
100
AcDbEntity
  8
0
100
AcDbLine
 62
7
  6
CONTINUOUS
 10
397.6708884573
 20
142.5763906057
 11
397.5730971056
 21
142.7058982771
  0
LINE
  5
507
100
AcDbEntity
  8
0
100
AcDbLine
 62
7
  6
CONTINUOUS
 10
397.1819316988
 20
144.100139138
 11
397.3775144022
 21
143.8411237952
  0
LINE
  5
508
100
AcDbEntity
  8
0
100
AcDbLine
 62
7
  6
CONTINUOUS
 10
397.768679809
 20
143.4632870264
 11
397.5730971056
 21
143.7223023692
  0
LINE
  5
509
100
AcDbEntity
  8
0
100
AcDbLine
 62
7
  6
CONTINUOUS
 10
397.1819316988
 20
144.660913602
 11
397.4753057539
 21
144.2723907883
  0
LINE
  5
50A
100
AcDbEntity
  8
0
100
AcDbLine
 62
7
  6
CONTINUOUS
 10
397.6708884573
 20
144.1535693624
 11
397.5730971056
 21
144.2830768332
  0
LINE
  5
50B
100
AcDbEntity
  8
0
100
AcDbLine
 62
7
  6
CONTINUOUS
 10
404.8096579531
 20
130.9843815927
 11
408.6634553486
 21
125.8652776267
  0
LINE
  5
50C
100
AcDbEntity
  8
0
100
AcDbLine
 62
7
  6
CONTINUOUS
 10
408.9900682219
 20
125.4314288579
 11
415.5223256881
 21
116.7544534825
  0
LINE
  5
50D
100
AcDbEntity
  8
0
100
AcDbLine
 62
7
  6
CONTINUOUS
 10
415.7698130615
 20
116.7881106586
 11
405.8096579531
 21
130.0184557664
  0
LINE
  5
50E
100
AcDbEntity
  8
0
100
AcDbLine
 62
7
  6
CONTINUOUS
 10
426.6833122007
 20
107.5715461412
 11
426.5822854775
 21
107.7058806578
  0
LINE
  5
50F
100
AcDbEntity
  8
0
100
AcDbLine
 62
7
  6
CONTINUOUS
 10
427.3281975879
 20
106.829676014
 11
427.227170921
 21
106.9640104656
  0
LINE
  5
510
100
AcDbEntity
  8
0
100
AcDbLine
 62
7
  6
CONTINUOUS
 10
427.9463484152
 20
106.5714191034
 11
428.0473750398
 21
106.4370847133
  0
LINE
  5
511
100
AcDbEntity
  8
0
100
AcDbLine
 62
7
  6
CONTINUOUS
 10
406.2104439855
 20
127.8510345463
 11
406.3080756096
 21
127.7187699955
  0
LINE
  5
512
100
AcDbEntity
  8
0
100
AcDbLine
 62
7
  6
CONTINUOUS
 10
427.9925307547
 20
106.9477728879
 11
427.8090849172
 21
107.1996560411
  0
LINE
  5
513
100
AcDbEntity
  8
0
100
AcDbLine
 62
7
  6
CONTINUOUS
 10
428.9584533036
 20
106.2702283259
 11
429.1418990319
 21
106.0183451914
  0
LINE
  5
514
100
AcDbEntity
  8
0
100
AcDbLine
 62
7
  6
CONTINUOUS
 10
426.3818119072
 20
107.8640462979
 11
426.5435598988
 21
107.6417442757
  0
LINE
  5
515
100
AcDbEntity
  8
0
100
AcDbLine
 62
7
  6
CONTINUOUS
 10
428.2478486241
 20
106.2789190441
 11
428.0861007367
 21
106.5012209642
  0
LINE
  5
516
100
AcDbEntity
  8
0
100
AcDbLine
 62
7
  6
CONTINUOUS
 10
427.6706979919
 20
107.2702721442
 11
427.8189565623
 21
107.0627234189
  0
LINE
  5
517
100
AcDbEntity
  8
0
100
AcDbLine
 62
7
  6
CONTINUOUS
 10
406.5116617373
 20
127.5551379514
 11
406.3560058547
 21
127.7734877712
  0
LINE
  5
518
100
AcDbEntity
  8
0
100
AcDbLine
 62
7
  6
CONTINUOUS
 10
397.8664711607
 20
141.0556326186
 11
397.5730971056
 21
141.4792039115
  0
LINE
  5
519
100
AcDbEntity
  8
RUNDUNGEN
100
AcDbLine
 62
7
  6
CONTINUOUS
 10
378.3538558953
 20
135.0440007704
 11
374.9469856788
 21
140.1156867584
  0
LINE
  5
51A
100
AcDbEntity
  8
RUNDUNGEN
100
AcDbLine
 62
7
  6
CONTINUOUS
 10
381.8893898012
 20
138.4590642798
 11
378.4825195847
 21
143.5307502678
  0
LINE
  5
51B
100
AcDbEntity
  8
RUNDUNGEN
100
AcDbLine
 62
7
  6
CONTINUOUS
 10
381.5576340823
 20
141.9804697993
 11
378.3735081945
 21
146.7205642623
  0
LINE
  5
51C
100
AcDbEntity
  8
RUNDUNGEN
100
AcDbLine
 62
7
  6
CONTINUOUS
 10
381.9090421005
 20
150.1356277717
 11
390.2639857265
 21
137.6979216583
  0
LINE
  5
51D
100
AcDbEntity
  8
0
100
AcDbLine
 62
7
  6
CONTINUOUS
 10
253.0672339039
 20
186.4702047732
 11
251.5803196145
 21
205.719038612
  0
LINE
  5
51E
100
AcDbEntity
  8
0
100
AcDbLine
 62
7
  6
CONTINUOUS
 10
253.0672339039
 20
194.3493769625
 11
251.8372946643
 21
210.2715429038
  0
LINE
  5
51F
100
AcDbEntity
  8
0
100
AcDbLine
 62
7
  6
CONTINUOUS
 10
260.2274570111
 20
225.4842831388
 11
260.7971731436
 21
210.2715429038
  0
LINE
  5
520
100
AcDbEntity
  8
0
100
AcDbLine
 62
7
  6
CONTINUOUS
 10
236.8172339039
 20
154.9880877033
 11
236.8172339039
 21
188.2283482076
  0
LINE
  5
521
100
AcDbEntity
  8
0
100
AcDbLine
 62
7
  6
CONTINUOUS
 10
238.3172339039
 20
353.6019653042
 11
238.3172339039
 21
739.6019653042
  0
LINE
  5
522
100
AcDbEntity
  8
0
100
AcDbLine
 62
7
  6
CONTINUOUS
 10
242.3172339039
 20
205.6484365176
 11
242.3172339039
 21
195.9341526603
  0
LINE
  5
523
100
AcDbEntity
  8
0
100
AcDbLine
 62
7
  6
CONTINUOUS
 10
246.8172339039
 20
224.1801291368
 11
246.8172339039
 21
211.4506729117
  0
LINE
  5
524
100
AcDbEntity
  8
BEZUGSACHSEN
100
AcDbLine
 62
7
  6
CONTINUOUS
 10
246.8172339039
 20
224.1801291368
 11
246.8172339039
 21
249.6129821719
  0
LINE
  5
525
100
AcDbEntity
  8
0
100
AcDbLine
 62
7
  6
CONTINUOUS
 10
253.0672339039
 20
194.3493769625
 11
253.0672339039
 21
186.4702047732
  0
LINE
  5
526
100
AcDbEntity
  8
0
100
AcDbLine
 62
7
  6
CONTINUOUS
 10
259.5672339039
 20
194.3493769625
 11
259.5672339039
 21
186.4702047732
  0
LINE
  5
527
100
AcDbEntity
  8
0
100
AcDbLine
 62
7
  6
CONTINUOUS
 10
252.4070107968
 20
225.4842831388
 11
251.8372946643
 21
210.2715429038
  0
LINE
  5
528
100
AcDbEntity
  8
0
100
AcDbLine
 62
7
  6
CONTINUOUS
 10
429.2802861156
 20
105.9477290075
 11
429.1320274168
 21
106.1552778353
  0
LINE
  5
529
100
AcDbEntity
  8
0
100
AcDbLine
 62
7
  6
CONTINUOUS
 10
429.206837418
 20
106.9875691647
 11
429.3067525772
 21
106.837680292
  0
LINE
  5
52A
100
AcDbEntity
  8
0
100
AcDbLine
 62
7
  6
CONTINUOUS
 10
429.6348745637
 20
106.6030245963
 11
429.5349594046
 21
106.752913469
  0
LINE
  5
52B
100
AcDbEntity
  8
0
100
AcDbLine
 62
7
  6
CONTINUOUS
 10
396.532747302
 20
137.3109589159
 11
396.3371645986
 21
137.6050225624
  0
LINE
  5
52C
100
AcDbEntity
  8
0
100
AcDbLine
 62
7
  6
CONTINUOUS
 10
399.3686969122
 20
135.237561822
 11
399.5642796841
 21
134.9434981344
  0
LINE
  5
52D
100
AcDbEntity
  8
0
100
AcDbLine
 62
7
  6
CONTINUOUS
 10
396.3996006113
 20
141.7715524855
 11
396.2040179079
 21
142.065616107
  0
LINE
  5
52E
100
AcDbEntity
  8
0
100
AcDbLine
 62
7
  6
CONTINUOUS
 10
399.9200897861
 20
139.1420861089
 11
399.7245070484
 21
139.4361497634
  0
LINE
  5
52F
100
AcDbEntity
  8
0
100
AcDbLine
 62
7
  6
CONTINUOUS
 10
427.5928136988
 20
107.3891522185
 11
427.6706979919
 21
107.2702721442
  0
LINE
  5
530
100
AcDbEntity
  8
0
100
AcDbLine
 62
7
  6
CONTINUOUS
 10
429.358170231
 20
105.8288490978
 11
429.2802861156
 21
105.9477290075
  0
LINE
  5
531
100
AcDbEntity
  8
0
100
AcDbLine
 62
7
  6
CONTINUOUS
 10
403.7243342658
 20
129.5662617815
 11
404.5715452729
 21
128.2444116873
  0
LINE
  5
532
100
AcDbEntity
  8
0
100
AcDbLine
 62
7
  6
CONTINUOUS
 10
404.6637290886
 20
128.2634582269
 11
404.0690067677
 21
129.1939513992
  0
LINE
  5
533
100
AcDbEntity
  8
0
100
AcDbLine
 62
7
  6
CONTINUOUS
 10
426.5822854775
 20
107.7058806578
 11
426.5011482704
 21
107.8354487911
  0
LINE
  5
534
100
AcDbEntity
  8
0
100
AcDbLine
 62
7
  6
CONTINUOUS
 10
428.0473750398
 20
106.4370847133
 11
428.1285122608
 21
106.3075165509
  0
LINE
  5
535
100
AcDbEntity
  8
0
100
AcDbLine
 62
7
  6
CONTINUOUS
 10
430.6551679949
 20
106.0195359497
 11
432.2957887396
 21
103.3494209734
  0
LINE
  5
536
100
AcDbEntity
  8
0
100
AcDbLine
 62
7
  6
CONTINUOUS
 10
432.5182944423
 20
102.987292303
 11
436.5233970893
 21
96.4689762363
  0
LINE
  5
537
100
AcDbEntity
  8
0
100
AcDbLine
 62
7
  6
CONTINUOUS
 10
436.9830164971
 20
96.2611197265
 11
431.4716645758
 21
105.2308608151
  0
LINE
  5
538
100
AcDbEntity
  8
0
100
AcDbLine
 62
7
  6
CONTINUOUS
 10
406.3080756096
 20
127.7187699955
 11
406.3845164632
 21
127.5927788758
  0
LINE
  5
539
100
AcDbEntity
  8
0
100
AcDbLine
 62
7
  6
CONTINUOUS
 10
395.7504164885
 20
138.1367292865
 11
395.9459991918
 21
137.8076172611
  0
LINE
  5
53A
100
AcDbEntity
  8
0
100
AcDbLine
 62
7
  6
CONTINUOUS
 10
399.6419861447
 20
134.0509972083
 11
399.5068002744
 21
134.2784779053
  0
LINE
  5
53B
100
AcDbEntity
  8
0
100
AcDbLine
 62
7
  6
CONTINUOUS
 10
400.1510278542
 20
134.4117913022
 11
399.9554451251
 21
134.7409033274
  0
LINE
  5
53C
100
AcDbEntity
  8
0
100
AcDbLine
 62
7
  6
CONTINUOUS
 10
395.7150611494
 20
142.502863689
 11
395.9106438528
 21
142.1737516886
  0
LINE
  5
53D
100
AcDbEntity
  8
0
100
AcDbLine
 62
7
  6
CONTINUOUS
 10
399.5875746321
 20
138.4842462969
 11
399.5163060614
 21
138.6041717308
  0
LINE
  5
53E
100
AcDbEntity
  8
0
100
AcDbLine
 62
7
  6
CONTINUOUS
 10
397.5730971056
 20
142.7058982771
 11
397.4753057539
 21
142.8704542272
  0
LINE
  5
53F
100
AcDbEntity
  8
0
100
AcDbLine
 62
7
  6
CONTINUOUS
 10
399.528924345
 20
139.4498261529
 11
399.6267156967
 21
139.2852701025
  0
LINE
  5
540
100
AcDbEntity
  8
0
100
AcDbLine
 62
7
  6
CONTINUOUS
 10
400.1156725151
 20
138.8129740837
 11
399.9200897861
 21
139.1420861089
  0
LINE
  5
541
100
AcDbEntity
  8
0
100
AcDbLine
 62
7
  6
CONTINUOUS
 10
397.5730971056
 20
144.2830768332
 11
397.4753057539
 21
144.4476329838
  0
LINE
  5
542
100
AcDbEntity
  8
0
100
AcDbLine
 62
7
  6
CONTINUOUS
 10
426.2802587562
 20
108.0352150601
 11
426.3818119072
 21
107.8640462979
  0
LINE
  5
543
100
AcDbEntity
  8
0
100
AcDbLine
 62
7
  6
CONTINUOUS
 10
406.6065191721
 20
127.3892409972
 11
406.5116617373
 21
127.5551379514
  0
LINE
  5
544
100
AcDbEntity
  8
KONSTRUKTIONSELEMENTE
100
AcDbLine
 62
7
  6
CONTINUOUS
 10
317.7272524618
 20
217.8411479648
 11
317.6941025109
 21
217.9318985436
  0
LINE
  5
545
100
AcDbEntity
  8
KONSTRUKTIONSELEMENTE
100
AcDbLine
 62
7
  6
CONTINUOUS
 10
320.8429330755
 20
221.7792189829
 11
320.8760830263
 21
221.688468404
  0
LINE
  5
546
100
AcDbEntity
  8
KONSTRUKTIONSELEMENTE
100
AcDbLine
 62
7
  6
CONTINUOUS
 10
321.196486466
 20
221.4377126319
 11
321.2296364169
 21
221.3469620531
  0
LINE
  5
547
100
AcDbEntity
  8
RUNDUNGEN
100
AcDbLine
 62
7
  6
CONTINUOUS
 10
265.8172339039
 20
224.1801291368
 11
265.8172339039
 21
211.4506729117
  0
LINE
  5
548
100
AcDbEntity
  8
BEZUGSACHSEN
100
AcDbLine
 62
7
  6
CONTINUOUS
 10
265.8172339039
 20
224.1801291368
 11
265.8172339039
 21
249.6129821719
  0
LINE
  5
549
100
AcDbEntity
  8
RUNDUNGEN
100
AcDbLine
 62
7
  6
CONTINUOUS
 10
270.3172339039
 20
205.6484365176
 11
270.3172339039
 21
195.9341526603
  0
LINE
  5
54A
100
AcDbEntity
  8
0
100
AcDbLine
 62
7
  6
CONTINUOUS
 10
274.3172339039
 20
353.6019653042
 11
274.3172339039
 21
739.6019653042
  0
LINE
  5
54B
100
AcDbEntity
  8
RUNDUNGEN
100
AcDbLine
 62
7
  6
CONTINUOUS
 10
275.8172339039
 20
154.9880877033
 11
275.8172339039
 21
157.2819016166
  0
LINE
  5
54C
100
AcDbEntity
  8
KONSTRUKTIONSELEMENTE
100
AcDbLine
 62
7
  6
CONTINUOUS
 10
275.8172339039
 20
154.9880877033
 11
275.8172339039
 21
171.0348684997
  0
LINE
  5
54D
100
AcDbEntity
  8
RUNDUNGEN
100
AcDbLine
 62
7
  6
CONTINUOUS
 10
275.8172339039
 20
168.7410545864
 11
275.8172339039
 21
188.2283482076
  0
LINE
  5
54E
100
AcDbEntity
  8
0
100
AcDbLine
 62
7
  6
CONTINUOUS
 10
259.5672339039
 20
194.3493769625
 11
260.7971731436
 21
210.2715429038
  0
LINE
  5
54F
100
AcDbEntity
  8
RUNDUNGEN
100
AcDbLine
 62
7
  6
CONTINUOUS
 10
259.5672339039
 20
186.4702047732
 11
261.0541481934
 21
205.719038612
  0
LINE
  5
550
100
AcDbEntity
  8
0
100
AcDbLine
 62
7
  6
CONTINUOUS
 10
428.3494017892
 20
106.1077502657
 11
428.2478486241
 21
106.2789190441
  0
LINE
  5
551
100
AcDbEntity
  8
0
100
AcDbLine
 62
7
  6
CONTINUOUS
 10
427.5074197648
 20
107.5382433033
 11
427.5928136988
 21
107.3891522185
  0
LINE
  5
552
100
AcDbEntity
  8
0
100
AcDbLine
 62
7
  6
CONTINUOUS
 10
429.4435642688
 20
105.6797579416
 11
429.358170231
 21
105.8288490978
  0
LINE
  5
553
100
AcDbEntity
  8
0
100
AcDbLine
 62
7
  6
CONTINUOUS
 10
427.227170921
 20
106.9640104656
 11
427.1863390472
 21
107.04721172
  0
LINE
  5
554
100
AcDbEntity
  8
0
100
AcDbLine
 62
7
  6
CONTINUOUS
 10
396.3371645986
 20
137.6050225624
 11
396.2393732469
 21
137.8046269917
  0
LINE
  5
555
100
AcDbEntity
  8
0
100
AcDbLine
 62
7
  6
CONTINUOUS
 10
397.4753057539
 20
141.3633725292
 11
397.6708884573
 21
140.9641636707
  0
LINE
  5
556
100
AcDbEntity
  8
0
100
AcDbLine
 62
7
  6
CONTINUOUS
 10
397.0841403471
 20
142.7225648106
 11
397.1819316988
 21
142.5229603813
  0
LINE
  5
557
100
AcDbEntity
  8
0
100
AcDbLine
 62
7
  6
CONTINUOUS
 10
397.5730971056
 20
142.1451236126
 11
397.4753057539
 21
142.3447280418
  0
LINE
  5
558
100
AcDbEntity
  8
0
100
AcDbLine
 62
7
  6
CONTINUOUS
 10
397.0841403471
 20
143.2833394752
 11
397.1819316988
 21
143.0837350459
  0
LINE
  5
559
100
AcDbEntity
  8
0
100
AcDbLine
 62
7
  6
CONTINUOUS
 10
397.0841403471
 20
144.2997435672
 11
397.1819316988
 21
144.100139138
  0
LINE
  5
55A
100
AcDbEntity
  8
0
100
AcDbLine
 62
7
  6
CONTINUOUS
 10
397.5730971056
 20
143.7223023692
 11
397.4753057539
 21
143.9219067985
  0
LINE
  5
55B
100
AcDbEntity
  8
0
100
AcDbLine
 62
7
  6
CONTINUOUS
 10
397.0841403471
 20
144.8605180313
 11
397.1819316988
 21
144.660913602
  0
LINE
  5
55C
100
AcDbEntity
  8
0
100
AcDbLine
 62
7
  6
CONTINUOUS
 10
288.8172339039
 20
343.4464224523
 11
288.8172339039
 21
271.0019854806
  0
LINE
  5
55D
100
AcDbEntity
  8
0
100
AcDbLine
 62
7
  6
CONTINUOUS
 10
427.8090849172
 20
107.1996560411
 11
427.7086713265
 21
107.4091695597
  0
LINE
  5
55E
100
AcDbEntity
  8
0
100
AcDbLine
 62
7
  6
CONTINUOUS
 10
429.1418990319
 20
106.0183451914
 11
429.2423127071
 21
105.8088316852
  0
LINE
  5
55F
100
AcDbEntity
  8
0
100
AcDbLine
 62
7
  6
CONTINUOUS
 10
395.6526251368
 20
138.3713821449
 11
395.7504164885
 21
138.1367292865
  0
LINE
  5
560
100
AcDbEntity
  8
0
100
AcDbLine
 62
7
  6
CONTINUOUS
 10
399.5642796841
 20
134.9434981344
 11
399.6620710358
 21
134.708845276
  0
LINE
  5
561
100
AcDbEntity
  8
0
100
AcDbLine
 62
7
  6
CONTINUOUS
 10
400.2134638754
 20
138.5783212672
 11
400.1156725151
 21
138.8129740837
  0
LINE
  5
562
100
AcDbEntity
  8
KONSTRUKTIONSELEMENTE
100
AcDbLine
 62
7
  6
CONTINUOUS
 10
378.8919890344
 20
158.7605492511
 11
378.8588390836
 21
158.8512998299
  0
LINE
  5
563
100
AcDbEntity
  8
KONSTRUKTIONSELEMENTE
100
AcDbLine
 62
7
  6
CONTINUOUS
 10
382.0076696481
 20
162.6986202692
 11
382.0408195989
 21
162.6078696903
  0
LINE
  5
564
100
AcDbEntity
  8
KONSTRUKTIONSELEMENTE
100
AcDbLine
 62
7
  6
CONTINUOUS
 10
382.3612230387
 20
162.3571139182
 11
382.3943729895
 21
162.2663633394
  0
LINE
  5
565
100
AcDbEntity
  8
0
100
AcDbLine
 62
7
  6
CONTINUOUS
 10
396.2040179079
 20
142.065616107
 11
396.1062265562
 21
142.3353173944
  0
LINE
  5
566
100
AcDbEntity
  8
0
100
AcDbLine
 62
7
  6
CONTINUOUS
 10
400.2488192145
 20
134.1420900567
 11
400.1510278542
 21
134.4117913022
  0
LINE
  5
567
100
AcDbEntity
  8
0
100
AcDbLine
 62
7
  6
CONTINUOUS
 10
399.6267156967
 20
139.2852701025
 11
399.7245070484
 21
139.0155689154
  0
LINE
  5
568
100
AcDbEntity
  8
0
100
AcDbLine
 62
7
  6
CONTINUOUS
 10
314.8172339039
 20
343.4464224523
 11
314.8172339039
 21
271.0019854806
  0
LINE
  5
569
100
AcDbEntity
  8
KONSTRUKTIONSELEMENTE
100
AcDbLine
 62
7
  6
CONTINUOUS
 10
252.3632210095
 20
264.601347158
 11
252.3367946957
 21
264.5398462499
  0
LINE
  5
56A
100
AcDbEntity
  8
0
100
AcDbLine
 62
7
  6
CONTINUOUS
 10
247.5888944059
 20
253.4902469236
 11
252.3632210095
 21
264.601347158
  0
LINE
  5
56B
100
AcDbEntity
  8
0
100
AcDbLine
 62
7
  6
CONTINUOUS
 10
405.6485713286
 20
129.4616550281
 11
405.6848206811
 21
129.3468555828
  0
LINE
  5
56C
100
AcDbEntity
  8
0
100
AcDbLine
 62
7
  6
CONTINUOUS
 10
406.1236366859
 20
128.9037870291
 11
406.0873875162
 21
129.0185862338
  0
LINE
  5
56D
100
AcDbEntity
  8
0
100
AcDbLine
 62
7
  6
CONTINUOUS
 10
405.4246102321
 20
128.3248537591
 11
405.3905511239
 21
128.4382978836
  0
LINE
  5
56E
100
AcDbEntity
  8
0
100
AcDbLine
 62
7
  6
CONTINUOUS
 10
395.6172697977
 20
142.8426617343
 11
395.7150611494
 21
142.502863689
  0
LINE
  5
56F
100
AcDbEntity
  8
0
100
AcDbLine
 62
7
  6
CONTINUOUS
 10
426.5011482704
 20
107.8354487911
 11
426.4802057857
 21
107.9138837955
  0
LINE
  5
570
100
AcDbEntity
  8
0
100
AcDbLine
 62
7
  6
CONTINUOUS
 10
426.9439805075
 20
107.3622473688
 11
426.9858654698
 21
107.2053773618
  0
LINE
  5
571
100
AcDbEntity
  8
0
100
AcDbLine
 62
7
  6
CONTINUOUS
 10
427.1863390472
 20
107.04721172
 11
427.1653965625
 21
107.1256467243
  0
LINE
  5
572
100
AcDbEntity
  8
0
100
AcDbLine
 62
7
  6
CONTINUOUS
 10
428.1285122608
 20
106.3075165509
 11
428.1494547455
 21
106.2290815466
  0
LINE
  5
573
100
AcDbEntity
  8
0
100
AcDbLine
 62
7
  6
CONTINUOUS
 10
427.4848903879
 20
107.6288767879
 11
427.5074197648
 21
107.5382433033
  0
LINE
  5
574
100
AcDbEntity
  8
0
100
AcDbLine
 62
7
  6
CONTINUOUS
 10
429.466093658
 20
105.5891244414
 11
429.4435642688
 21
105.6797579416
  0
LINE
  5
575
100
AcDbEntity
  8
0
100
AcDbLine
 62
7
  6
CONTINUOUS
 10
406.3845164632
 20
127.5927788758
 11
406.4001588551
 21
127.5192406379
  0
LINE
  5
576
100
AcDbEntity
  8
0
100
AcDbLine
 62
7
  6
CONTINUOUS
 10
242.3909418975
 20
196.035831735
 11
236.8909418975
 21
188.4486639959
  0
LINE
  5
577
100
AcDbEntity
  8
0
100
AcDbLine
 62
7
  6
CONTINUOUS
 10
426.2587897308
 20
108.1504844399
 11
426.2802587562
 21
108.0352150601
  0
LINE
  5
578
100
AcDbEntity
  8
0
100
AcDbLine
 62
7
  6
CONTINUOUS
 10
428.3708708679
 20
105.9924808634
 11
428.3494017892
 21
106.1077502657
  0
LINE
  5
579
100
AcDbEntity
  8
0
100
AcDbLine
 62
7
  6
CONTINUOUS
 10
405.1713227532
 20
128.6754680974
 11
405.1841908208
 21
128.5682975082
  0
LINE
  5
57A
100
AcDbEntity
  8
0
100
AcDbLine
 62
7
  6
CONTINUOUS
 10
406.6193872501
 20
127.2820703958
 11
406.6065191721
 21
127.3892409972
  0
LINE
  5
57B
100
AcDbEntity
  8
0
100
AcDbLine
 62
7
  6
CONTINUOUS
 10
394.4505436087
 20
138.531736747
 11
394.4505436087
 21
133.3553558449
  0
LINE
  5
57C
100
AcDbEntity
  8
0
100
AcDbLine
 62
7
  6
CONTINUOUS
 10
394.8040969993
 20
133.1432590165
 11
394.8040969993
 21
138.0608208735
  0
LINE
  5
57D
100
AcDbEntity
  8
0
100
AcDbLine
 62
7
  6
CONTINUOUS
 10
395.6172697977
 20
142.9127585924
 11
395.6172697977
 21
142.8426617343
  0
LINE
  5
57E
100
AcDbEntity
  8
0
100
AcDbLine
 62
7
  6
CONTINUOUS
 10
395.6172697977
 20
141.9664514588
 11
395.6172697977
 21
141.7561609846
  0
LINE
  5
57F
100
AcDbEntity
  8
0
100
AcDbLine
 62
7
  6
CONTINUOUS
 10
395.6526251368
 20
138.5466241899
 11
395.6526251368
 21
138.3713821449
  0
LINE
  5
580
100
AcDbEntity
  8
0
100
AcDbLine
 62
7
  6
CONTINUOUS
 10
396.1062265562
 20
142.3353173944
 11
396.1062265562
 21
142.4755110104
  0
LINE
  5
581
100
AcDbEntity
  8
0
100
AcDbLine
 62
7
  6
CONTINUOUS
 10
396.2393732469
 20
137.8046269917
 11
396.2393732469
 21
138.0149174659
  0
LINE
  5
582
100
AcDbEntity
  8
0
100
AcDbLine
 62
7
  6
CONTINUOUS
 10
396.6929746664
 20
141.2428360559
 11
396.6929746664
 21
141.4180781511
  0
LINE
  5
583
100
AcDbEntity
  8
0
100
AcDbLine
 62
7
  6
CONTINUOUS
 10
396.7283300054
 20
137.7529119289
 11
396.7283300054
 21
137.963202403
  0
LINE
  5
584
100
AcDbEntity
  8
0
100
AcDbLine
 62
7
  6
CONTINUOUS
 10
397.0841403471
 20
145.000711547
 11
397.0841403471
 21
144.8605180313
  0
LINE
  5
585
100
AcDbEntity
  8
0
100
AcDbLine
 62
7
  6
CONTINUOUS
 10
397.0841403471
 20
144.439937083
 11
397.0841403471
 21
144.2997435672
  0
LINE
  5
586
100
AcDbEntity
  8
0
100
AcDbLine
 62
7
  6
CONTINUOUS
 10
397.0841403471
 20
144.1245013717
 11
397.0841403471
 21
143.9492591763
  0
LINE
  5
587
100
AcDbEntity
  8
0
100
AcDbLine
 62
7
  6
CONTINUOUS
 10
397.0841403471
 20
143.4235331914
 11
397.0841403471
 21
143.2833394752
  0
LINE
  5
588
100
AcDbEntity
  8
0
100
AcDbLine
 62
7
  6
CONTINUOUS
 10
397.0841403471
 20
142.8627585269
 11
397.0841403471
 21
142.7225648106
  0
LINE
  5
589
100
AcDbEntity
  8
0
100
AcDbLine
 62
7
  6
CONTINUOUS
 10
397.0841403471
 20
142.5473228157
 11
397.0841403471
 21
142.3720808207
  0
LINE
  5
58A
100
AcDbEntity
  8
0
100
AcDbLine
 62
7
  6
CONTINUOUS
 10
397.4753057539
 20
142.3447280418
 11
397.4753057539
 21
142.4148250002
  0
LINE
  5
58B
100
AcDbEntity
  8
0
100
AcDbLine
 62
7
  6
CONTINUOUS
 10
397.4753057539
 20
142.8704542272
 11
397.4753057539
 21
142.9755994643
  0
LINE
  5
58C
100
AcDbEntity
  8
0
100
AcDbLine
 62
7
  6
CONTINUOUS
 10
397.4753057539
 20
143.9219067985
 11
397.4753057539
 21
143.9920033558
  0
LINE
  5
58D
100
AcDbEntity
  8
0
100
AcDbLine
 62
7
  6
CONTINUOUS
 10
397.4753057539
 20
144.4476329838
 11
397.4753057539
 21
144.5527782209
  0
LINE
  5
58E
100
AcDbEntity
  8
0
100
AcDbLine
 62
7
  6
CONTINUOUS
 10
397.6084524447
 20
136.6924885105
 11
397.6084524447
 21
136.4821980364
  0
LINE
  5
58F
100
AcDbEntity
  8
0
100
AcDbLine
 62
7
  6
CONTINUOUS
 10
397.6708884573
 20
140.9641636707
 11
397.6708884573
 21
140.8239700547
  0
LINE
  5
590
100
AcDbEntity
  8
0
100
AcDbLine
 62
7
  6
CONTINUOUS
 10
398.0620538641
 20
140.4461332859
 11
398.0620538641
 21
140.5863269019
  0
LINE
  5
591
100
AcDbEntity
  8
0
100
AcDbLine
 62
7
  6
CONTINUOUS
 10
398.1952005549
 20
135.9154428832
 11
398.1952005549
 21
136.1257333574
  0
LINE
  5
592
100
AcDbEntity
  8
0
100
AcDbLine
 62
7
  6
CONTINUOUS
 10
398.9775315054
 20
134.8092850731
 11
398.9775315054
 21
134.5989945989
  0
LINE
  5
593
100
AcDbEntity
  8
0
100
AcDbLine
 62
7
  6
CONTINUOUS
 10
399.1377588698
 20
139.0215494701
 11
399.1377588698
 21
138.8463074251
  0
LINE
  5
594
100
AcDbEntity
  8
0
100
AcDbLine
 62
7
  6
CONTINUOUS
 10
399.6620710358
 20
134.708845276
 11
399.6620710358
 21
134.4284579437
  0
LINE
  5
595
100
AcDbEntity
  8
0
100
AcDbLine
 62
7
  6
CONTINUOUS
 10
399.7245070484
 20
139.0155689154
 11
399.7245070484
 21
138.8052784413
  0
LINE
  5
596
100
AcDbEntity
  8
0
100
AcDbLine
 62
7
  6
CONTINUOUS
 10
400.2134638754
 20
137.3165784223
 11
400.2134638754
 21
137.5268688965
  0
LINE
  5
597
100
AcDbEntity
  8
0
100
AcDbLine
 62
7
  6
CONTINUOUS
 10
400.2134638754
 20
138.2979339349
 11
400.2134638754
 21
138.5783212672
  0
LINE
  5
598
100
AcDbEntity
  8
0
100
AcDbLine
 62
7
  6
CONTINUOUS
 10
400.2134638754
 20
139.3493864059
 11
400.2134638754
 21
139.5246284009
  0
LINE
  5
599
100
AcDbEntity
  8
0
100
AcDbLine
 62
7
  6
CONTINUOUS
 10
400.2134638754
 20
140.9265647615
 11
400.2134638754
 21
141.101806957
  0
LINE
  5
59A
100
AcDbEntity
  8
0
100
AcDbLine
 62
7
  6
CONTINUOUS
 10
400.2134638754
 20
139.91016087
 11
400.2134638754
 21
140.0854030654
  0
LINE
  5
59B
100
AcDbEntity
  8
0
100
AcDbLine
 62
7
  6
CONTINUOUS
 10
400.2134638754
 20
140.4709355345
 11
400.2134638754
 21
140.64617773
  0
LINE
  5
59C
100
AcDbEntity
  8
0
100
AcDbLine
 62
7
  6
CONTINUOUS
 10
400.2134638754
 20
141.4873396266
 11
400.2134638754
 21
141.662581421
  0
LINE
  5
59D
100
AcDbEntity
  8
0
100
AcDbLine
 62
7
  6
CONTINUOUS
 10
400.2134638754
 20
142.0481140906
 11
400.2134638754
 21
142.2233562861
  0
LINE
  5
59E
100
AcDbEntity
  8
0
100
AcDbLine
 62
7
  6
CONTINUOUS
 10
400.2488192145
 20
133.8617027244
 11
400.2488192145
 21
134.1420900567
  0
LINE
  5
59F
100
AcDbEntity
  8
0
100
AcDbLine
 62
7
  6
CONTINUOUS
 10
401.16805803
 20
126.8667351769
 11
401.16805803
 21
131.9137065564
  0
LINE
  5
5A0
100
AcDbEntity
  8
0
100
AcDbLine
 62
7
  6
CONTINUOUS
 10
401.6276774378
 20
126.4227769207
 11
401.6276774378
 21
131.5991578228
  0
LINE
  5
5A1
100
AcDbEntity
  8
0
100
AcDbLine
 62
7
  6
CONTINUOUS
 10
405.1632113437
 20
126.7605895652
 11
405.1632113437
 21
126.6311800427
  0
LINE
  5
5A2
100
AcDbEntity
  8
0
100
AcDbLine
 62
7
  6
CONTINUOUS
 10
415.6637470443
 20
116.4884414196
 11
415.6637470443
 21
116.6856587534
  0
LINE
  5
5A3
100
AcDbEntity
  8
0
100
AcDbLine
 62
7
  6
CONTINUOUS
 10
415.7698130615
 20
124.0433545087
 11
415.7698130615
 21
116.7881106586
  0
LINE
  5
5A4
100
AcDbEntity
  8
0
100
AcDbLine
 62
7
  6
CONTINUOUS
 10
416.1233664521
 20
116.1738926859
 11
416.1233664521
 21
123.938464039
  0
LINE
  5
5A5
100
AcDbEntity
  8
0
100
AcDbLine
 62
7
  6
CONTINUOUS
 10
417.8730795496
 20
121.4223068639
 11
417.8730795496
 21
121.2821132078
  0
LINE
  5
5A6
100
AcDbEntity
  8
0
100
AcDbLine
 62
7
  6
CONTINUOUS
 10
418.4989444197
 20
121.1261938376
 11
418.4989444197
 21
120.8177678222
  0
LINE
  5
5A7
100
AcDbEntity
  8
0
100
AcDbLine
 62
7
  6
CONTINUOUS
 10
418.4989444197
 20
120.6775741661
 11
418.4989444197
 21
120.4532643203
  0
LINE
  5
5A8
100
AcDbEntity
  8
0
100
AcDbLine
 62
7
  6
CONTINUOUS
 10
418.8118767451
 20
120.5154984072
 11
418.8118767451
 21
120.8239244225
  0
LINE
  5
5A9
100
AcDbEntity
  8
0
100
AcDbLine
 62
7
  6
CONTINUOUS
 10
418.8118767451
 20
120.1509949053
 11
418.8118767451
 21
120.375304751
  0
LINE
  5
5AA
100
AcDbEntity
  8
0
100
AcDbLine
 62
7
  6
CONTINUOUS
 10
421.7802207016
 20
118.4743624238
 11
421.7802207016
 21
110.7097910708
  0
LINE
  5
5AB
100
AcDbEntity
  8
0
100
AcDbLine
 62
7
  6
CONTINUOUS
 10
422.1337740922
 20
110.2388751973
 11
422.1337740922
 21
118.2622655955
  0
LINE
  5
5AC
100
AcDbEntity
  8
0
100
AcDbLine
 62
7
  6
CONTINUOUS
 10
426.3764147793
 20
106.2702085085
 11
426.3764147793
 21
106.1407989859
  0
LINE
  5
5AD
100
AcDbEntity
  8
0
100
AcDbLine
 62
7
  6
CONTINUOUS
 10
436.8769504799
 20
95.9980603628
 11
436.8769504799
 21
96.1586678212
  0
LINE
  5
5AE
100
AcDbEntity
  8
0
100
AcDbLine
 62
7
  6
CONTINUOUS
 10
436.9830164971
 20
103.4013607655
 11
436.9830164971
 21
96.2611197265
  0
LINE
  5
5AF
100
AcDbEntity
  8
0
100
AcDbLine
 62
7
  6
CONTINUOUS
 10
437.3365698877
 20
95.6835116291
 11
437.3365698877
 21
103.4480829822
  0
LINE
  5
5B0
100
AcDbEntity
  8
0
100
AcDbLine
 62
7
  6
CONTINUOUS
 10
439.284272884
 20
100.7406822506
 11
439.284272884
 21
100.6004885945
  0
LINE
  5
5B1
100
AcDbEntity
  8
0
100
AcDbLine
 62
7
  6
CONTINUOUS
 10
439.910137754
 20
100.4445692243
 11
439.910137754
 21
100.1361432089
  0
LINE
  5
5B2
100
AcDbEntity
  8
0
100
AcDbLine
 62
7
  6
CONTINUOUS
 10
439.910137754
 20
99.9959495528
 11
439.910137754
 21
99.771639707
  0
LINE
  5
5B3
100
AcDbEntity
  8
0
100
AcDbLine
 62
7
  6
CONTINUOUS
 10
440.2230700794
 20
99.8338737939
 11
440.2230700794
 21
100.1422998092
  0
LINE
  5
5B4
100
AcDbEntity
  8
0
100
AcDbLine
 62
7
  6
CONTINUOUS
 10
440.2230700794
 20
99.469370292
 11
440.2230700794
 21
99.6936801378
  0
LINE
  5
5B5
100
AcDbEntity
  8
0
100
AcDbLine
 62
7
  6
CONTINUOUS
 10
442.9934241372
 20
97.9839813671
 11
442.9934241372
 21
90.219410014
  0
LINE
  5
5B6
100
AcDbEntity
  8
0
100
AcDbLine
 62
7
  6
CONTINUOUS
 10
443.3469775278
 20
89.7484941405
 11
443.3469775278
 21
97.7718845387
  0
LINE
  5
5B7
100
AcDbEntity
  8
RUNDUNGEN
100
AcDbLine
 62
7
  6
CONTINUOUS
 10
457.4891131515
 20
87.3468685646
 11
457.4891131515
 21
85.0549183063
  0
LINE
  5
5B8
100
AcDbEntity
  8
RUNDUNGEN
100
AcDbLine
 62
7
  6
CONTINUOUS
 10
457.4891131515
 20
75.1449522972
 11
457.4891131515
 21
72.8530020389
  0
LINE
  5
5B9
100
AcDbEntity
  8
RUNDUNGEN
100
AcDbLine
 62
7
  6
CONTINUOUS
 10
468.0957148693
 20
79.6898684873
 11
468.0957148693
 21
78.7840018294
  0
LINE
  5
5BA
100
AcDbEntity
  8
RUNDUNGEN
100
AcDbLine
 62
7
  6
CONTINUOUS
 10
468.0957148693
 20
60.9254877173
 11
468.0957148693
 21
60.0196210595
  0
LINE
  5
5BB
100
AcDbEntity
  8
0
100
AcDbLine
 62
7
  6
CONTINUOUS
 10
429.2162962543
 20
107.0592394721
 11
429.206837418
 21
106.9875691647
  0
LINE
  5
5BC
100
AcDbEntity
  8
0
100
AcDbLine
 62
7
  6
CONTINUOUS
 10
429.6254155845
 20
106.5313545033
 11
429.6348745637
 21
106.6030245963
  0
LINE
  5
5BD
100
AcDbEntity
  8
0
100
AcDbLine
 62
7
  6
CONTINUOUS
 10
427.7086713265
 20
107.4091695597
 11
427.7213291375
 21
107.4554686568
  0
LINE
  5
5BE
100
AcDbEntity
  8
0
100
AcDbLine
 62
7
  6
CONTINUOUS
 10
429.2423127071
 20
105.8088316852
 11
429.2296548961
 21
105.7625325881
  0
LINE
  5
5BF
100
AcDbEntity
  8
0
100
AcDbLine
 62
7
  6
CONTINUOUS
 10
395.7150611494
 20
143.0636382533
 11
395.6172697977
 21
142.9127585924
  0
LINE
  5
5C0
100
AcDbEntity
  8
RUNDUNGEN
100
AcDbLine
 62
7
  6
CONTINUOUS
 10
376.2046125818
 20
167.9383094244
 11
377.3765758203
 21
169.070338984
  0
LINE
  5
5C1
100
AcDbEntity
  8
0
100
AcDbLine
 62
7
  6
CONTINUOUS
 10
427.5177157495
 20
107.6912638475
 11
427.4848903879
 21
107.6288767879
  0
LINE
  5
5C2
100
AcDbEntity
  8
0
100
AcDbLine
 62
7
  6
CONTINUOUS
 10
429.4332681473
 20
105.526737451
 11
429.466093658
 21
105.5891244414
  0
LINE
  5
5C3
100
AcDbEntity
  8
0
100
AcDbLine
 62
7
  6
CONTINUOUS
 10
398.0620538641
 20
140.5863269019
 11
398.1598452158
 21
140.7021581839
  0
LINE
  5
5C4
100
AcDbEntity
  8
0
100
AcDbLine
 62
7
  6
CONTINUOUS
 10
379.5986695951
 20
156.2999447956
 11
376.0631356892
 21
152.8848812862
  0
LINE
  5
5C5
100
AcDbEntity
  8
RUNDUNGEN
100
AcDbLine
 62
7
  6
CONTINUOUS
 10
390.2441216246
 20
157.8460006901
 11
388.8937917036
 21
156.5416821454
  0
LINE
  5
5C6
100
AcDbEntity
  8
RUNDUNGEN
100
AcDbLine
 62
7
  6
CONTINUOUS
 10
378.2514823342
 20
144.1471819702
 11
374.7159484283
 21
140.7321184608
  0
LINE
  5
5C7
100
AcDbEntity
  8
RUNDUNGEN
100
AcDbLine
 62
7
  6
CONTINUOUS
 10
468.0890750867
 20
78.7658562428
 11
468.0957148693
 21
78.7840018294
  0
LINE
  5
5C8
100
AcDbEntity
  8
0
100
AcDbLine
 62
7
  6
CONTINUOUS
 10
426.4802057857
 20
107.9138837955
 11
426.4995686342
 21
107.9459519209
  0
LINE
  5
5C9
100
AcDbEntity
  8
0
100
AcDbLine
 62
7
  6
CONTINUOUS
 10
427.1653965625
 20
107.1256467243
 11
427.1847594109
 21
107.1577148498
  0
LINE
  5
5CA
100
AcDbEntity
  8
0
100
AcDbLine
 62
7
  6
CONTINUOUS
 10
428.1494547455
 20
106.2290815466
 11
428.1300919255
 21
106.1970134143
  0
LINE
  5
5CB
100
AcDbEntity
  8
0
100
AcDbLine
 62
7
  6
CONTINUOUS
 10
420.9241701541
 20
118.5592958404
 11
421.0024032423
 21
118.6519608593
  0
LINE
  5
5CC
100
AcDbEntity
  8
0
100
AcDbLine
 62
7
  6
CONTINUOUS
 10
397.1819316988
 20
145.0113975919
 11
397.0841403471
 21
144.9169383997
  0
LINE
  5
5CD
100
AcDbEntity
  8
0
100
AcDbLine
 62
7
  6
CONTINUOUS
 10
397.3775144022
 20
144.8925761659
 11
397.160572446
 21
144.6830263276
  0
LINE
  5
5CE
100
AcDbEntity
  8
0
100
AcDbLine
 62
7
  6
CONTINUOUS
 10
397.1819316988
 20
144.4506231278
 11
397.0841403471
 21
144.3561639357
  0
LINE
  5
5CF
100
AcDbEntity
  8
0
100
AcDbLine
 62
7
  6
CONTINUOUS
 10
397.4753057539
 20
144.5527782209
 11
397.3528792763
 21
144.4345233243
  0
LINE
  5
5D0
100
AcDbEntity
  8
0
100
AcDbLine
 62
7
  6
CONTINUOUS
 10
395.9106438528
 20
143.0149134849
 11
395.6422944692
 21
142.7557078849
  0
LINE
  5
5D1
100
AcDbEntity
  8
0
100
AcDbLine
 62
7
  6
CONTINUOUS
 10
397.4753057539
 20
144.4476329838
 11
397.3987891835
 21
144.3737236523
  0
LINE
  5
5D2
100
AcDbEntity
  8
0
100
AcDbLine
 62
7
  6
CONTINUOUS
 10
397.4753057539
 20
144.2723907883
 11
397.2374612884
 21
144.0426506765
  0
LINE
  5
5D3
100
AcDbEntity
  8
0
100
AcDbLine
 62
7
  6
CONTINUOUS
 10
397.5730971056
 20
144.2830768332
 11
397.2670310905
 21
143.9874397647
  0
LINE
  5
5D4
100
AcDbEntity
  8
0
100
AcDbLine
 62
7
  6
CONTINUOUS
 10
397.8664711607
 20
144.4903771634
 11
397.7664843078
 21
144.3937972798
  0
LINE
  5
5D5
100
AcDbEntity
  8
0
100
AcDbLine
 62
7
  6
CONTINUOUS
 10
397.4753057539
 20
143.9920033558
 11
397.3493211622
 21
143.870311585
  0
LINE
  5
5D6
100
AcDbEntity
  8
0
100
AcDbLine
 62
7
  6
CONTINUOUS
 10
397.6708884573
 20
144.1535693624
 11
397.4889737283
 21
143.9778532275
  0
LINE
  5
5D7
100
AcDbEntity
  8
0
100
AcDbLine
 62
7
  6
CONTINUOUS
 10
397.3775144022
 20
143.8411237952
 11
397.2797792463
 21
143.746718884
  0
LINE
  5
5D8
100
AcDbEntity
  8
0
100
AcDbLine
 62
7
  6
CONTINUOUS
 10
397.4753057539
 20
143.9219067985
 11
397.3843483894
 21
143.834048731
  0
LINE
  5
5D9
100
AcDbEntity
  8
0
100
AcDbLine
 62
7
  6
CONTINUOUS
 10
396.3018092596
 20
142.7772704325
 11
395.8421898518
 21
142.3333121762
  0
LINE
  5
5DA
100
AcDbEntity
  8
0
100
AcDbLine
 62
7
  6
CONTINUOUS
 10
396.1062265562
 20
142.4755110104
 11
395.8680406846
 21
142.2454411256
  0
LINE
  5
5DB
100
AcDbEntity
  8
0
100
AcDbLine
 62
7
  6
CONTINUOUS
 10
397.1819316988
 20
143.4342190358
 11
397.0841403471
 21
143.3397598436
  0
LINE
  5
5DC
100
AcDbEntity
  8
0
100
AcDbLine
 62
7
  6
CONTINUOUS
 10
396.1062265562
 20
142.3353173944
 11
395.9243119775
 21
142.1596014047
  0
LINE
  5
5DD
100
AcDbEntity
  8
0
100
AcDbLine
 62
7
  6
CONTINUOUS
 10
397.5730971056
 20
143.7223023692
 11
397.4461002145
 21
143.5996327922
  0
LINE
  5
5DE
100
AcDbEntity
  8
0
100
AcDbLine
 62
7
  6
CONTINUOUS
 10
397.8664711607
 20
143.9296022982
 11
397.7664844196
 21
143.8330225228
  0
LINE
  5
5DF
100
AcDbEntity
  8
0
100
AcDbLine
 62
7
  6
CONTINUOUS
 10
397.3775144022
 20
143.3153976098
 11
397.160572446
 21
143.1058477715
  0
LINE
  5
5E0
100
AcDbEntity
  8
0
100
AcDbLine
 62
7
  6
CONTINUOUS
 10
396.2040179079
 20
142.065616107
 11
396.0815915146
 21
141.9473612919
  0
LINE
  5
5E1
100
AcDbEntity
  8
0
100
AcDbLine
 62
7
  6
CONTINUOUS
 10
396.6929746664
 20
142.4344821429
 11
396.589459828
 21
142.3344944871
  0
LINE
  5
5E2
100
AcDbEntity
  8
0
100
AcDbLine
 62
7
  6
CONTINUOUS
 10
397.768679809
 20
143.4632870264
 11
397.6779677736
 21
143.3756659287
  0
LINE
  5
5E3
100
AcDbEntity
  8
0
100
AcDbLine
 62
7
  6
CONTINUOUS
 10
397.1819316988
 20
142.8734445718
 11
397.0841403471
 21
142.7789853796
  0
LINE
  5
5E4
100
AcDbEntity
  8
0
100
AcDbLine
 62
7
  6
CONTINUOUS
 10
397.4753057539
 20
142.9755994643
 11
397.3528793639
 21
142.8573446523
  0
LINE
  5
5E5
100
AcDbEntity
  8
0
100
AcDbLine
 62
7
  6
CONTINUOUS
 10
397.4753057539
 20
142.8704542272
 11
397.3987892711
 21
142.7965449803
  0
LINE
  5
5E6
100
AcDbEntity
  8
0
100
AcDbLine
 62
7
  6
CONTINUOUS
 10
396.8885576437
 20
142.2455634939
 11
396.794211374
 21
142.1544319954
  0
LINE
  5
5E7
100
AcDbEntity
  8
0
100
AcDbLine
 62
7
  6
CONTINUOUS
 10
396.3996006113
 20
141.7715524855
 11
396.2911296582
 21
141.6667775906
  0
LINE
  5
5E8
100
AcDbEntity
  8
0
100
AcDbLine
 62
7
  6
CONTINUOUS
 10
397.4753057539
 20
142.6952122322
 11
397.2374611882
 21
142.4654720236
  0
LINE
  5
5E9
100
AcDbEntity
  8
0
100
AcDbLine
 62
7
  6
CONTINUOUS
 10
397.5730971056
 20
142.7058982771
 11
397.267031041
 21
142.4102611608
  0
LINE
  5
5EA
100
AcDbEntity
  8
0
100
AcDbLine
 62
7
  6
CONTINUOUS
 10
397.8664711607
 20
142.9131986073
 11
397.7664842493
 21
142.8166186672
  0
LINE
  5
5EB
100
AcDbEntity
  8
0
100
AcDbLine
 62
7
  6
CONTINUOUS
 10
397.4753057539
 20
142.4148250002
 11
397.349321062
 21
142.2931331326
  0
LINE
  5
5EC
100
AcDbEntity
  8
0
100
AcDbLine
 62
7
  6
CONTINUOUS
 10
397.6708884573
 20
142.5763906057
 11
397.4889739287
 21
142.4006746644
  0
LINE
  5
5ED
100
AcDbEntity
  8
0
100
AcDbLine
 62
7
  6
CONTINUOUS
 10
397.3775144022
 20
142.2639452391
 11
397.2797793465
 21
142.1695404247
  0
LINE
  5
5EE
100
AcDbEntity
  8
0
100
AcDbLine
 62
7
  6
CONTINUOUS
 10
397.4753057539
 20
142.3447280418
 11
397.3843484896
 21
142.2568700712
  0
LINE
  5
5EF
100
AcDbEntity
  8
0
100
AcDbLine
 62
7
  6
CONTINUOUS
 10
396.6929746664
 20
141.4180781511
 11
396.6054062477
 21
141.3334935539
  0
LINE
  5
5F0
100
AcDbEntity
  8
0
100
AcDbLine
 62
7
  6
CONTINUOUS
 10
397.5730971056
 20
142.1451236126
 11
397.4461004222
 21
142.0224542362
  0
LINE
  5
5F1
100
AcDbEntity
  8
0
100
AcDbLine
 62
7
  6
CONTINUOUS
 10
396.3996006113
 20
141.0004874471
 11
396.2911296332
 21
140.895712528
  0
LINE
  5
5F2
100
AcDbEntity
  8
0
100
AcDbLine
 62
7
  6
CONTINUOUS
 10
397.2797230505
 20
141.8326782459
 11
397.1746409681
 21
141.7311767486
  0
LINE
  5
5F3
100
AcDbEntity
  8
0
100
AcDbLine
 62
7
  6
CONTINUOUS
 10
397.8664711607
 20
142.3524239427
 11
397.7664843078
 21
142.2558440592
  0
LINE
  5
5F4
100
AcDbEntity
  8
0
100
AcDbLine
 62
7
  6
CONTINUOUS
 10
397.768679809
 20
141.8861084703
 11
397.6779678774
 21
141.7984874728
  0
LINE
  5
5F5
100
AcDbEntity
  8
0
100
AcDbLine
 62
7
  6
CONTINUOUS
 10
397.5730971056
 20
141.4792039115
 11
397.4646260774
 21
141.3744289439
  0
LINE
  5
5F6
100
AcDbEntity
  8
0
100
AcDbLine
 62
7
  6
CONTINUOUS
 10
397.8664711607
 20
141.0556326186
 11
397.6708884573
 21
140.8667142342
  0
LINE
  5
5F7
100
AcDbEntity
  8
0
100
AcDbLine
 62
7
  6
CONTINUOUS
 10
394.8040969993
 20
138.0608208735
 11
394.4505436087
 21
137.7193145225
  0
LINE
  5
5F8
100
AcDbEntity
  8
0
100
AcDbLine
 62
7
  6
CONTINUOUS
 10
398.0620538641
 20
141.0419562292
 11
397.7507657479
 21
140.7412749983
  0
LINE
  5
5F9
100
AcDbEntity
  8
0
100
AcDbLine
 62
7
  6
CONTINUOUS
 10
395.7504164885
 20
138.627407093
 11
395.6594591741
 21
138.5395490739
  0
LINE
  5
5FA
100
AcDbEntity
  8
0
100
AcDbLine
 62
7
  6
CONTINUOUS
 10
398.1598452158
 20
140.7021581839
 11
397.9813195328
 21
140.529715616
  0
LINE
  5
5FB
100
AcDbEntity
  8
0
100
AcDbLine
 62
7
  6
CONTINUOUS
 10
398.0620538641
 20
140.5863269019
 11
397.9919991592
 21
140.5186592532
  0
LINE
  5
5FC
100
AcDbEntity
  8
0
100
AcDbLine
 62
7
  6
CONTINUOUS
 10
398.3554279192
 20
140.828675611
 11
398.2046011066
 21
140.6829880974
  0
LINE
  5
5FD
100
AcDbEntity
  8
0
100
AcDbLine
 62
7
  6
CONTINUOUS
 10
396.0437905435
 20
138.4842231324
 11
395.7313651756
 21
138.1824434007
  0
LINE
  5
5FE
100
AcDbEntity
  8
0
100
AcDbLine
 62
7
  6
CONTINUOUS
 10
400.2134638754
 20
142.2233562861
 11
400.1258954066
 21
142.1387716405
  0
LINE
  5
5FF
100
AcDbEntity
  8
0
100
AcDbLine
 62
7
  6
CONTINUOUS
 10
398.746593463
 20
140.4858869886
 11
398.6466066988
 21
140.3893071908
  0
LINE
  5
600
100
AcDbEntity
  8
0
100
AcDbLine
 62
7
  6
CONTINUOUS
 10
396.4349559503
 20
138.2115316007
 11
395.9753365426
 21
137.7675733445
  0
LINE
  5
601
100
AcDbEntity
  8
0
100
AcDbLine
 62
7
  6
CONTINUOUS
 10
396.2393732469
 20
138.0149174659
 11
395.9840150301
 21
137.7682603692
  0
LINE
  5
602
100
AcDbEntity
  8
0
100
AcDbLine
 62
7
  6
CONTINUOUS
 10
400.2134638754
 20
141.662581421
 11
400.125895607
 21
141.577996969
  0
LINE
  5
603
100
AcDbEntity
  8
0
100
AcDbLine
 62
7
  6
CONTINUOUS
 10
396.2393732469
 20
137.8046269917
 11
396.0710369163
 21
137.6420265824
  0
LINE
  5
604
100
AcDbEntity
  8
0
100
AcDbLine
 62
7
  6
CONTINUOUS
 10
396.3371645986
 20
137.6050225624
 11
396.1994348722
 21
137.4719858626
  0
LINE
  5
605
100
AcDbEntity
  8
0
100
AcDbLine
 62
7
  6
CONTINUOUS
 10
396.7283300054
 20
137.963202403
 11
396.6083458384
 21
137.8473065973
  0
LINE
  5
606
100
AcDbEntity
  8
0
100
AcDbLine
 62
7
  6
CONTINUOUS
 10
399.1377588698
 20
140.1080502198
 11
399.0501905012
 21
140.023465671
  0
LINE
  5
607
100
AcDbEntity
  8
0
100
AcDbLine
 62
7
  6
CONTINUOUS
 10
400.2134638754
 20
141.101806957
 11
400.1258954066
 21
141.0172223114
  0
LINE
  5
608
100
AcDbEntity
  8
0
100
AcDbLine
 62
7
  6
CONTINUOUS
 10
396.532747302
 20
137.3109589159
 11
396.4208874345
 21
137.202910581
  0
LINE
  5
609
100
AcDbEntity
  8
0
100
AcDbLine
 62
7
  6
CONTINUOUS
 10
400.2134638754
 20
140.64617773
 11
400.1258954066
 21
140.5615930844
  0
LINE
  5
60A
100
AcDbEntity
  8
0
100
AcDbLine
 62
7
  6
CONTINUOUS
 10
399.4311329933
 20
139.7896242984
 11
399.3401756265
 21
139.7017662287
  0
LINE
  5
60B
100
AcDbEntity
  8
0
100
AcDbLine
 62
7
  6
CONTINUOUS
 10
396.8261216311
 20
136.9925326707
 11
396.7176506435
 21
136.8877577424
  0
LINE
  5
60C
100
AcDbEntity
  8
0
100
AcDbLine
 62
7
  6
CONTINUOUS
 10
400.2134638754
 20
140.0854030654
 11
400.1258954066
 21
140.0008184199
  0
LINE
  5
60D
100
AcDbEntity
  8
0
100
AcDbLine
 62
7
  6
CONTINUOUS
 10
399.7245070484
 20
139.4361497634
 11
399.5985224066
 21
139.3144579442
  0
LINE
  5
60E
100
AcDbEntity
  8
0
100
AcDbLine
 62
7
  6
CONTINUOUS
 10
397.0217043345
 20
136.8036142863
 11
396.9064555555
 21
136.6922925143
  0
LINE
  5
60F
100
AcDbEntity
  8
0
100
AcDbLine
 62
7
  6
CONTINUOUS
 10
399.3333415731
 20
138.867679565
 11
399.2214816743
 21
138.7596311997
  0
LINE
  5
610
100
AcDbEntity
  8
0
100
AcDbLine
 62
7
  6
CONTINUOUS
 10
400.2134638754
 20
139.5246284009
 11
400.1258955068
 21
139.4400438521
  0
LINE
  5
611
100
AcDbEntity
  8
0
100
AcDbLine
 62
7
  6
CONTINUOUS
 10
399.9200897861
 20
139.1420861089
 11
399.7245070484
 21
138.9531676914
  0
LINE
  5
612
100
AcDbEntity
  8
0
100
AcDbLine
 62
7
  6
CONTINUOUS
 10
399.528924345
 20
138.7488578723
 11
399.4029397032
 21
138.6271660531
  0
LINE
  5
613
100
AcDbEntity
  8
0
100
AcDbLine
 62
7
  6
CONTINUOUS
 10
397.3150783896
 20
136.5552851138
 11
397.1857048396
 21
136.4303198606
  0
LINE
  5
614
100
AcDbEntity
  8
0
100
AcDbLine
 62
7
  6
CONTINUOUS
 10
399.6267156967
 20
138.7244955382
 11
399.4623147818
 21
138.5656964486
  0
LINE
  5
615
100
AcDbEntity
  8
0
100
AcDbLine
 62
7
  6
CONTINUOUS
 10
399.7245070484
 20
138.8052784413
 11
399.4691488191
 21
138.5586213325
  0
LINE
  5
616
100
AcDbEntity
  8
0
100
AcDbLine
 62
7
  6
CONTINUOUS
 10
397.7062437964
 20
136.7732713634
 11
397.615286507
 21
136.6854133686
  0
LINE
  5
617
100
AcDbEntity
  8
0
100
AcDbLine
 62
7
  6
CONTINUOUS
 10
397.510661093
 20
136.4715119915
 11
397.339438165
 21
136.3061233433
  0
LINE
  5
618
100
AcDbEntity
  8
0
100
AcDbLine
 62
7
  6
CONTINUOUS
 10
397.6084524447
 20
136.4821980364
 11
397.3849114024
 21
136.2662739705
  0
LINE
  5
619
100
AcDbEntity
  8
0
100
AcDbLine
 62
7
  6
CONTINUOUS
 10
397.9018264998
 20
136.724546595
 11
397.442207092
 21
136.2805883388
  0
LINE
  5
61A
100
AcDbEntity
  8
0
100
AcDbLine
 62
7
  6
CONTINUOUS
 10
400.1156725151
 20
138.8129740837
 11
399.6993022895
 21
138.4107913294
  0
LINE
  5
61B
100
AcDbEntity
  8
0
100
AcDbLine
 62
7
  6
CONTINUOUS
 10
400.2134638754
 20
138.5783212672
 11
399.9230783175
 21
138.2978303572
  0
LINE
  5
61C
100
AcDbEntity
  8
0
100
AcDbLine
 62
7
  6
CONTINUOUS
 10
394.8040969993
 20
133.1432590165
 11
394.7371097012
 21
133.0785542553
  0
LINE
  5
61D
100
AcDbEntity
  8
0
100
AcDbLine
 62
7
  6
CONTINUOUS
 10
398.2929919066
 20
136.4869035425
 11
397.8333724988
 21
136.0429452863
  0
LINE
  5
61E
100
AcDbEntity
  8
0
100
AcDbLine
 62
7
  6
CONTINUOUS
 10
398.1952005549
 20
136.1257333574
 11
397.964438948
 21
135.9028347616
  0
LINE
  5
61F
100
AcDbEntity
  8
0
100
AcDbLine
 62
7
  6
CONTINUOUS
 10
398.6841574503
 20
136.1791633993
 11
398.5372702444
 21
136.0372812536
  0
LINE
  5
620
100
AcDbEntity
  8
0
100
AcDbLine
 62
7
  6
CONTINUOUS
 10
400.2134638754
 20
137.5268688965
 11
400.108381793
 21
137.4253673992
  0
LINE
  5
621
100
AcDbEntity
  8
0
100
AcDbLine
 62
7
  6
CONTINUOUS
 10
399.1731142088
 20
135.7068674384
 11
399.0646432307
 21
135.6020925192
  0
LINE
  5
622
100
AcDbEntity
  8
0
100
AcDbLine
 62
7
  6
CONTINUOUS
 10
399.5642796841
 20
135.2589338456
 11
399.4365445447
 21
135.1355511755
  0
LINE
  5
623
100
AcDbEntity
  8
0
100
AcDbLine
 62
7
  6
CONTINUOUS
 10
399.2709055605
 20
134.5609559005
 11
399.1520007596
 21
134.4461026825
  0
LINE
  5
624
100
AcDbEntity
  8
0
100
AcDbLine
 62
7
  6
CONTINUOUS
 10
399.5642796841
 20
134.3827234949
 11
399.3998787714
 21
134.2239244075
  0
LINE
  5
625
100
AcDbEntity
  8
0
100
AcDbLine
 62
7
  6
CONTINUOUS
 10
399.9554451251
 20
134.7409033274
 11
399.6620710358
 21
134.4575257178
  0
LINE
  5
626
100
AcDbEntity
  8
0
100
AcDbLine
 62
7
  6
CONTINUOUS
 10
399.6620710358
 20
134.4284579437
 11
399.4334250009
 21
134.2076028335
  0
LINE
  5
627
100
AcDbEntity
  8
0
100
AcDbLine
 62
7
  6
CONTINUOUS
 10
400.1510278542
 20
134.4117913022
 11
399.7182335496
 21
133.9937441059
  0
LINE
  5
628
100
AcDbEntity
  8
0
100
AcDbLine
 62
7
  6
CONTINUOUS
 10
400.2488192145
 20
134.1420900567
 11
399.9511722721
 21
133.8545851879
  0
LINE
  5
629
100
AcDbEntity
  8
0
100
AcDbLine
 62
7
  6
CONTINUOUS
 10
401.6276774378
 20
131.5991578228
 11
401.16805803
 21
131.1551995665
  0
LINE
  5
62A
100
AcDbEntity
  8
0
100
AcDbLine
 62
7
  6
CONTINUOUS
 10
403.8033489677
 20
129.5825873874
 11
403.7543146152
 21
129.5352238399
  0
LINE
  5
62B
100
AcDbEntity
  8
0
100
AcDbLine
 62
7
  6
CONTINUOUS
 10
401.16805803
 20
126.9961446995
 11
401.1010707319
 21
126.9314399382
  0
LINE
  5
62C
100
AcDbEntity
  8
0
100
AcDbLine
 62
7
  6
CONTINUOUS
 10
404.0690067677
 20
129.1939513992
 11
404.0035080395
 21
129.1306844861
  0
LINE
  5
62D
100
AcDbEntity
  8
0
100
AcDbLine
 62
7
  6
CONTINUOUS
 10
404.5504704778
 20
129.3071672386
 11
404.5072369929
 21
129.2654068989
  0
LINE
  5
62E
100
AcDbEntity
  8
0
100
AcDbLine
 62
7
  6
CONTINUOUS
 10
404.9669684777
 20
129.3561328302
 11
404.8304612124
 21
129.2242769372
  0
LINE
  5
62F
100
AcDbEntity
  8
0
100
AcDbLine
 62
7
  6
CONTINUOUS
 10
405.8096579531
 20
130.0184557664
 11
405.6516974391
 21
129.8658776264
  0
LINE
  5
630
100
AcDbEntity
  8
0
100
AcDbLine
 62
7
  6
CONTINUOUS
 10
405.7401506992
 20
129.4082875521
 11
405.6808294419
 21
129.3509876177
  0
LINE
  5
631
100
AcDbEntity
  8
0
100
AcDbLine
 62
7
  6
CONTINUOUS
 10
404.6637290886
 20
128.2634582269
 11
404.6065223459
 21
128.2082007567
  0
LINE
  5
632
100
AcDbEntity
  8
0
100
AcDbLine
 62
7
  6
CONTINUOUS
 10
405.2376695934
 20
128.6902800224
 11
405.1766242813
 21
128.6313147789
  0
LINE
  5
633
100
AcDbEntity
  8
0
100
AcDbLine
 62
7
  6
CONTINUOUS
 10
404.8876040803
 20
128.309714111
 11
404.6914666702
 21
128.1202599211
  0
LINE
  5
634
100
AcDbEntity
  8
0
100
AcDbLine
 62
7
  6
CONTINUOUS
 10
405.1841908208
 20
128.5682975082
 11
405.132123232
 21
128.5180040795
  0
LINE
  5
635
100
AcDbEntity
  8
0
100
AcDbLine
 62
7
  6
CONTINUOUS
 10
404.9666187821
 20
128.326039717
 11
404.7214470195
 21
128.0892219796
  0
LINE
  5
636
100
AcDbEntity
  8
0
100
AcDbLine
 62
7
  6
CONTINUOUS
 10
405.3648148675
 20
128.652639098
 11
405.1771600855
 21
128.4713784977
  0
LINE
  5
637
100
AcDbEntity
  8
0
100
AcDbLine
 62
7
  6
CONTINUOUS
 10
405.959558793
 20
129.186753155
 11
405.8795287493
 21
129.1094500689
  0
LINE
  5
638
100
AcDbEntity
  8
0
100
AcDbLine
 62
7
  6
CONTINUOUS
 10
405.0983099393
 20
128.3532490576
 11
404.7714142636
 21
128.037492082
  0
LINE
  5
639
100
AcDbEntity
  8
0
100
AcDbLine
 62
7
  6
CONTINUOUS
 10
405.5103767366
 20
128.5750923229
 11
405.2861689428
 21
128.3585242244
  0
LINE
  5
63A
100
AcDbEntity
  8
0
100
AcDbLine
 62
7
  6
CONTINUOUS
 10
405.3905511239
 20
128.4382978836
 11
405.3086467647
 21
128.3591843479
  0
LINE
  5
63B
100
AcDbEntity
  8
0
100
AcDbLine
 62
7
  6
CONTINUOUS
 10
406.0873875162
 20
129.0185862338
 11
406.0280662846
 21
128.9612863241
  0
LINE
  5
63C
100
AcDbEntity
  8
0
100
AcDbLine
 62
7
  6
CONTINUOUS
 10
405.2251232189
 20
128.0468068651
 11
405.1760888664
 21
127.9994433176
  0
LINE
  5
63D
100
AcDbEntity
  8
0
100
AcDbLine
 62
7
  6
CONTINUOUS
 10
405.735153756
 20
128.4051868118
 11
405.6830156828
 21
128.3548253003
  0
LINE
  5
63E
100
AcDbEntity
  8
0
100
AcDbLine
 62
7
  6
CONTINUOUS
 10
405.9571564511
 20
128.2016489493
 11
405.9101899035
 21
128.156282748
  0
LINE
  5
63F
100
AcDbEntity
  8
0
100
AcDbLine
 62
7
  6
CONTINUOUS
 10
405.7598869987
 20
127.9155130433
 11
405.7129204511
 21
127.870146842
  0
LINE
  5
640
100
AcDbEntity
  8
0
100
AcDbLine
 62
7
  6
CONTINUOUS
 10
406.1975757967
 20
127.9582051715
 11
406.1557807783
 21
127.9178342838
  0
LINE
  5
641
100
AcDbEntity
  8
0
100
AcDbLine
 62
7
  6
CONTINUOUS
 10
405.960698802
 20
127.7182486478
 11
405.9137322544
 21
127.6728824465
  0
LINE
  5
642
100
AcDbEntity
  8
0
100
AcDbLine
 62
7
  6
CONTINUOUS
 10
406.1034864681
 20
127.6070694855
 11
406.0513483939
 21
127.5567079732
  0
LINE
  5
643
100
AcDbEntity
  8
0
100
AcDbLine
 62
7
  6
CONTINUOUS
 10
406.3560058547
 20
127.7734877712
 11
406.3038677814
 21
127.7231262597
  0
LINE
  5
644
100
AcDbEntity
  8
0
100
AcDbLine
 62
7
  6
CONTINUOUS
 10
406.227857539
 20
127.5357961739
 11
406.1618314582
 21
127.4720198772
  0
LINE
  5
645
100
AcDbEntity
  8
0
100
AcDbLine
 62
7
  6
CONTINUOUS
 10
406.3550028131
 20
127.4981552494
 11
406.258554438
 21
127.4049932729
  0
LINE
  5
646
100
AcDbEntity
  8
0
100
AcDbLine
 62
7
  6
CONTINUOUS
 10
406.3662620457
 20
127.4864988342
 11
406.2698136705
 21
127.3933368577
  0
LINE
  5
647
100
AcDbEntity
  8
0
100
AcDbLine
 62
7
  6
CONTINUOUS
 10
406.5116617373
 20
127.5551379514
 11
406.3056952056
 21
127.3561895591
  0
LINE
  5
648
100
AcDbEntity
  8
0
100
AcDbLine
 62
7
  6
CONTINUOUS
 10
406.6065191721
 20
127.3892409972
 11
406.4973133504
 21
127.2837562736
  0
LINE
  5
649
100
AcDbEntity
  8
0
100
AcDbLine
 62
7
  6
CONTINUOUS
 10
405.8703181249
 20
126.0775768633
 11
405.8033308268
 21
126.0128721021
  0
LINE
  5
64A
100
AcDbEntity
  8
0
100
AcDbLine
 62
7
  6
CONTINUOUS
 10
406.0994090657
 20
125.7268824845
 11
406.4906200102
 21
126.1047632393
  0
LINE
  5
64B
100
AcDbEntity
  8
0
100
AcDbLine
 62
7
  6
CONTINUOUS
 10
406.3299375327
 20
125.6336186071
 11
406.2629502346
 21
125.5689138458
  0
LINE
  5
64C
100
AcDbEntity
  8
0
100
AcDbLine
 62
7
  6
CONTINUOUS
 10
396.1062265562
 20
142.4755110104
 11
396.2040179079
 21
142.5562939134
  0
LINE
  5
64D
100
AcDbEntity
  8
0
100
AcDbLine
 62
7
  6
CONTINUOUS
 10
395.7504164885
 20
138.627407093
 11
395.6526251368
 21
138.5466241899
  0
LINE
  5
64E
100
AcDbEntity
  8
0
100
AcDbLine
 62
7
  6
CONTINUOUS
 10
399.7245070484
 20
138.8052784413
 11
399.6267156967
 21
138.7244955382
  0
LINE
  5
64F
100
AcDbEntity
  8
0
100
AcDbLine
 62
7
  6
CONTINUOUS
 10
397.7062437964
 20
136.7732713634
 11
397.6084524447
 21
136.6924885105
  0
LINE
  5
650
100
AcDbEntity
  8
0
100
AcDbLine
 62
7
  6
CONTINUOUS
 10
400.1510278542
 20
133.7809198798
 11
400.2488192145
 21
133.8617027244
  0
LINE
  5
651
100
AcDbEntity
  8
0
100
AcDbLine
 62
7
  6
CONTINUOUS
 10
408.6634553486
 20
125.8652776267
 11
408.5007449527
 21
125.7081114531
  0
LINE
  5
652
100
AcDbEntity
  8
0
100
AcDbLine
 62
7
  6
CONTINUOUS
 10
415.7698130615
 20
124.4093799125
 11
415.5360544283
 21
124.1835864115
  0
LINE
  5
653
100
AcDbEntity
  8
0
100
AcDbLine
 62
7
  6
CONTINUOUS
 10
416.1233664521
 20
123.938464039
 11
415.7698130615
 21
123.596957688
  0
LINE
  5
654
100
AcDbEntity
  8
0
100
AcDbLine
 62
7
  6
CONTINUOUS
 10
418.4989444197
 20
120.8177678222
 11
418.4288896947
 21
120.7501001541
  0
LINE
  5
655
100
AcDbEntity
  8
0
100
AcDbLine
 62
7
  6
CONTINUOUS
 10
418.8118767451
 20
120.8239244225
 11
418.4989444197
 21
120.5216550075
  0
LINE
  5
656
100
AcDbEntity
  8
0
100
AcDbLine
 62
7
  6
CONTINUOUS
 10
418.8118767451
 20
120.5154984072
 11
418.618889996
 21
120.3290875221
  0
LINE
  5
657
100
AcDbEntity
  8
0
100
AcDbLine
 62
7
  6
CONTINUOUS
 10
418.8118767451
 20
120.375304751
 11
418.6997891872
 21
120.2670364841
  0
LINE
  5
658
100
AcDbEntity
  8
0
100
AcDbLine
 62
7
  6
CONTINUOUS
 10
415.5223256881
 20
116.7544534825
 11
415.45533839
 21
116.6897487212
  0
LINE
  5
659
100
AcDbEntity
  8
0
100
AcDbLine
 62
7
  6
CONTINUOUS
 10
415.7698130615
 20
116.7881106586
 11
415.5616598403
 21
116.5870500865
  0
LINE
  5
65A
100
AcDbEntity
  8
0
100
AcDbLine
 62
7
  6
CONTINUOUS
 10
416.1233664521
 20
116.1738926859
 11
416.056379154
 21
116.1091879246
  0
LINE
  5
65B
100
AcDbEntity
  8
0
100
AcDbLine
 62
7
  6
CONTINUOUS
 10
420.2200723191
 20
119.1552859337
 11
420.1475027427
 21
119.0851891057
  0
LINE
  5
65C
100
AcDbEntity
  8
0
100
AcDbLine
 62
7
  6
CONTINUOUS
 10
420.454771618
 20
118.9566225227
 11
420.3679948455
 21
118.8728025971
  0
LINE
  5
65D
100
AcDbEntity
  8
0
100
AcDbLine
 62
7
  6
CONTINUOUS
 10
420.6112377807
 20
118.8896040048
 11
420.4912536096
 21
118.7737081952
  0
LINE
  5
65E
100
AcDbEntity
  8
0
100
AcDbLine
 62
7
  6
CONTINUOUS
 10
420.6894708895
 20
118.9542303008
 11
420.4974961984
 21
118.7687969887
  0
LINE
  5
65F
100
AcDbEntity
  8
0
100
AcDbLine
 62
7
  6
CONTINUOUS
 10
421.0024032423
 20
118.6519608593
 11
420.9156264596
 21
118.5681409238
  0
LINE
  5
660
100
AcDbEntity
  8
0
100
AcDbLine
 62
7
  6
CONTINUOUS
 10
422.1337740922
 20
118.2622655955
 11
421.7802207016
 21
117.9207592445
  0
LINE
  5
661
100
AcDbEntity
  8
0
100
AcDbLine
 62
7
  6
CONTINUOUS
 10
421.7802207016
 20
110.7097910708
 11
421.7132334035
 21
110.6450863095
  0
LINE
  5
662
100
AcDbEntity
  8
0
100
AcDbLine
 62
7
  6
CONTINUOUS
 10
420.6894708895
 20
118.9542303008
 11
420.6112377807
 21
118.8896040048
  0
LINE
  5
663
100
AcDbEntity
  8
0
100
AcDbLine
 62
7
  6
CONTINUOUS
 10
400.1156725151
 20
138.2521995194
 11
400.2134638754
 21
138.2979339349
  0
LINE
  5
664
100
AcDbEntity
  8
0
100
AcDbLine
 62
7
  6
CONTINUOUS
 10
398.1952005549
 20
136.1257333574
 11
398.2929919066
 21
136.1714678313
  0
LINE
  5
665
100
AcDbEntity
  8
0
100
AcDbLine
 62
7
  6
CONTINUOUS
 10
398.0974092032
 20
135.8697084093
 11
398.1952005549
 21
135.9154428832
  0
LINE
  5
666
100
AcDbEntity
  8
0
100
AcDbLine
 62
7
  6
CONTINUOUS
 10
399.6620710358
 20
134.4284579437
 11
399.5642796841
 21
134.3827234949
  0
LINE
  5
667
100
AcDbEntity
  8
0
100
AcDbLine
 62
7
  6
CONTINUOUS
 10
442.3353634884
 20
97.8776712271
 11
442.4135965766
 21
97.970336246
  0
LINE
  5
668
100
AcDbEntity
  8
0
100
AcDbLine
 62
7
  6
CONTINUOUS
 10
426.3179313717
 20
108.173020062
 11
426.264249978
 21
108.1211678174
  0
LINE
  5
669
100
AcDbEntity
  8
0
100
AcDbLine
 62
7
  6
CONTINUOUS
 10
426.3974889282
 20
108.153955062
 11
426.2775082337
 21
108.0380626105
  0
LINE
  5
66A
100
AcDbEntity
  8
0
100
AcDbLine
 62
7
  6
CONTINUOUS
 10
426.5372412213
 20
108.0837569297
 11
426.3470440812
 21
107.9000406
  0
LINE
  5
66B
100
AcDbEntity
  8
0
100
AcDbLine
 62
7
  6
CONTINUOUS
 10
426.4735272745
 20
107.9207978991
 11
426.3977216658
 21
107.8475753038
  0
LINE
  5
66C
100
AcDbEntity
  8
0
100
AcDbLine
 62
7
  6
CONTINUOUS
 10
426.4802057857
 20
107.9138837955
 11
426.404400177
 21
107.8406612002
  0
LINE
  5
66D
100
AcDbEntity
  8
0
100
AcDbLine
 62
7
  6
CONTINUOUS
 10
426.5011482704
 20
107.8354487911
 11
426.4432859376
 21
107.7795580694
  0
LINE
  5
66E
100
AcDbEntity
  8
0
100
AcDbLine
 62
7
  6
CONTINUOUS
 10
426.7576042091
 20
107.9208250328
 11
426.7055214897
 21
107.870516989
  0
LINE
  5
66F
100
AcDbEntity
  8
0
100
AcDbLine
 62
7
  6
CONTINUOUS
 10
426.5822854775
 20
107.7058806578
 11
426.5302027537
 21
107.6555726098
  0
LINE
  5
670
100
AcDbEntity
  8
0
100
AcDbLine
 62
7
  6
CONTINUOUS
 10
426.6833122007
 20
107.5715461412
 11
426.6460925224
 21
107.5355946927
  0
LINE
  5
671
100
AcDbEntity
  8
0
100
AcDbLine
 62
7
  6
CONTINUOUS
 10
426.9784937234
 20
107.7210587638
 11
426.9310479447
 21
107.6752296608
  0
LINE
  5
672
100
AcDbEntity
  8
0
100
AcDbLine
 62
7
  6
CONTINUOUS
 10
426.9052548035
 20
107.2981111196
 11
426.8657166555
 21
107.2599202013
  0
LINE
  5
673
100
AcDbEntity
  8
0
100
AcDbLine
 62
7
  6
CONTINUOUS
 10
427.0031221484
 20
107.3847829909
 11
426.9513227838
 21
107.3347486468
  0
LINE
  5
674
100
AcDbEntity
  8
0
100
AcDbLine
 62
7
  6
CONTINUOUS
 10
427.1025691083
 20
107.3609517375
 11
426.9767706616
 21
107.2394397688
  0
LINE
  5
675
100
AcDbEntity
  8
0
100
AcDbLine
 62
7
  6
CONTINUOUS
 10
426.9858654698
 20
107.2053773618
 11
426.9509642626
 21
107.1716653843
  0
LINE
  5
676
100
AcDbEntity
  8
0
100
AcDbLine
 62
7
  6
CONTINUOUS
 10
427.2423214298
 20
107.2907535983
 11
427.0158568149
 21
107.072005578
  0
LINE
  5
677
100
AcDbEntity
  8
0
100
AcDbLine
 62
7
  6
CONTINUOUS
 10
427.6485929354
 20
107.6508588791
 11
427.5192862508
 21
107.5259582129
  0
LINE
  5
678
100
AcDbEntity
  8
0
100
AcDbLine
 62
7
  6
CONTINUOUS
 10
427.1587180512
 20
107.1325608279
 11
427.0545526125
 21
107.0319447404
  0
LINE
  5
679
100
AcDbEntity
  8
0
100
AcDbLine
 62
7
  6
CONTINUOUS
 10
427.1653965625
 20
107.1256467243
 11
427.0612311237
 21
107.0250306368
  0
LINE
  5
67A
100
AcDbEntity
  8
0
100
AcDbLine
 62
7
  6
CONTINUOUS
 10
427.1863390472
 20
107.04721172
 11
427.1105334385
 21
106.9739891247
  0
LINE
  5
67B
100
AcDbEntity
  8
0
100
AcDbLine
 62
7
  6
CONTINUOUS
 10
427.7213291375
 20
107.4554686568
 11
427.6217063058
 21
107.3592403907
  0
LINE
  5
67C
100
AcDbEntity
  8
0
100
AcDbLine
 62
7
  6
CONTINUOUS
 10
427.227170921
 20
106.9640104656
 11
427.1718175145
 21
106.9105431806
  0
LINE
  5
67D
100
AcDbEntity
  8
0
100
AcDbLine
 62
7
  6
CONTINUOUS
 10
427.7086713265
 20
107.4091695597
 11
427.6387323683
 21
107.3416137137
  0
LINE
  5
67E
100
AcDbEntity
  8
0
100
AcDbLine
 62
7
  6
CONTINUOUS
 10
427.849844497
 20
107.5217851355
 11
427.7686993637
 21
107.4434049555
  0
LINE
  5
67F
100
AcDbEntity
  8
0
100
AcDbLine
 62
7
  6
CONTINUOUS
 10
427.4626843607
 20
107.1278217151
 11
427.4106016414
 21
107.0775136713
  0
LINE
  5
680
100
AcDbEntity
  8
0
100
AcDbLine
 62
7
  6
CONTINUOUS
 10
427.3281975879
 20
106.829676014
 11
427.2793855578
 21
106.7825272135
  0
LINE
  5
681
100
AcDbEntity
  8
0
100
AcDbLine
 62
7
  6
CONTINUOUS
 10
427.8090849172
 20
107.1996560411
 11
427.757046996
 21
107.149391269
  0
LINE
  5
682
100
AcDbEntity
  8
0
100
AcDbLine
 62
7
  6
CONTINUOUS
 10
427.6432685419
 20
106.974422325
 11
427.5935042928
 21
106.9263537516
  0
LINE
  5
683
100
AcDbEntity
  8
0
100
AcDbLine
 62
7
  6
CONTINUOUS
 10
428.0937931445
 20
107.3181657889
 11
428.0423265787
 21
107.2684529039
  0
LINE
  5
684
100
AcDbEntity
  8
0
100
AcDbLine
 62
7
  6
CONTINUOUS
 10
427.4491135874
 20
106.6905753773
 11
427.4072569684
 21
106.650144988
  0
LINE
  5
685
100
AcDbEntity
  8
0
100
AcDbLine
 62
7
  6
CONTINUOUS
 10
427.9925307547
 20
106.9477728879
 11
427.9459219913
 21
106.9027522796
  0
LINE
  5
686
100
AcDbEntity
  8
0
100
AcDbLine
 62
7
  6
CONTINUOUS
 10
427.589918976
 20
106.5467084906
 11
427.5471101402
 21
106.5053583305
  0
LINE
  5
687
100
AcDbEntity
  8
0
100
AcDbLine
 62
7
  6
CONTINUOUS
 10
428.2823868951
 20
107.1427929483
 11
428.2348709201
 21
107.0968960408
  0
LINE
  5
688
100
AcDbEntity
  8
0
100
AcDbLine
 62
7
  6
CONTINUOUS
 10
427.8845740144
 20
106.7330554237
 11
427.8417651764
 21
106.6917052615
  0
LINE
  5
689
100
AcDbEntity
  8
0
100
AcDbLine
 62
7
  6
CONTINUOUS
 10
427.7506137962
 20
106.398075318
 11
427.7031680175
 21
106.352246215
  0
LINE
  5
68A
100
AcDbEntity
  8
0
100
AcDbLine
 62
7
  6
CONTINUOUS
 10
428.4784903852
 20
106.937208973
 11
428.4375949986
 21
106.8977070629
  0
LINE
  5
68B
100
AcDbEntity
  8
0
100
AcDbLine
 62
7
  6
CONTINUOUS
 10
428.0861007367
 20
106.5012209642
 11
428.0340180173
 21
106.4509129205
  0
LINE
  5
68C
100
AcDbEntity
  8
0
100
AcDbLine
 62
7
  6
CONTINUOUS
 10
428.2388410701
 20
106.637432175
 11
428.1985859855
 21
106.5985487492
  0
LINE
  5
68D
100
AcDbEntity
  8
0
100
AcDbLine
 62
7
  6
CONTINUOUS
 10
427.8908926442
 20
106.2910428068
 11
427.838809924
 21
106.2407347623
  0
LINE
  5
68E
100
AcDbEntity
  8
0
100
AcDbLine
 62
7
  6
CONTINUOUS
 10
427.9908661589
 20
106.2303771745
 11
427.9286943074
 21
106.1703237774
  0
LINE
  5
68F
100
AcDbEntity
  8
0
100
AcDbLine
 62
7
  6
CONTINUOUS
 10
428.611729496
 20
106.7900824332
 11
428.5754249813
 21
106.7550149649
  0
LINE
  5
690
100
AcDbEntity
  8
0
100
AcDbLine
 62
7
  6
CONTINUOUS
 10
428.1300919255
 20
106.1970134143
 11
428.0338341133
 21
106.1040355074
  0
LINE
  5
691
100
AcDbEntity
  8
0
100
AcDbLine
 62
7
  6
CONTINUOUS
 10
428.2478486241
 20
106.2789190441
 11
428.0497438547
 21
106.0875645311
  0
LINE
  5
692
100
AcDbEntity
  8
0
100
AcDbLine
 62
7
  6
CONTINUOUS
 10
428.4776415369
 20
106.3573026155
 11
428.4413370638
 21
106.3222351873
  0
LINE
  5
693
100
AcDbEntity
  8
0
100
AcDbLine
 62
7
  6
CONTINUOUS
 10
428.3494017892
 20
106.1077502657
 11
428.2215134716
 21
105.9842196369
  0
LINE
  5
694
100
AcDbEntity
  8
0
100
AcDbLine
 62
7
  6
CONTINUOUS
 10
428.8153427256
 20
106.5542873233
 11
428.7750876618
 21
106.5154039175
  0
LINE
  5
695
100
AcDbEntity
  8
0
100
AcDbLine
 62
7
  6
CONTINUOUS
 10
429.3256702498
 20
106.9810209069
 11
429.2560376061
 21
106.9137609379
  0
LINE
  5
696
100
AcDbEntity
  8
0
100
AcDbLine
 62
7
  6
CONTINUOUS
 10
429.5349594046
 20
106.752913469
 11
429.4592597655
 21
106.6797932326
  0
LINE
  5
697
100
AcDbEntity
  8
0
100
AcDbLine
 62
7
  6
CONTINUOUS
 10
428.7994743243
 20
106.0348033281
 11
428.761889268
 21
105.9984989515
  0
LINE
  5
698
100
AcDbEntity
  8
0
100
AcDbLine
 62
7
  6
CONTINUOUS
 10
427.7906283417
 20
104.9041831047
 11
427.7236410436
 21
104.8394783434
  0
LINE
  5
699
100
AcDbEntity
  8
0
100
AcDbLine
 62
7
  6
CONTINUOUS
 10
429.1320274168
 20
106.1552778353
 11
429.0792789424
 21
106.1043267216
  0
LINE
  5
69A
100
AcDbEntity
  8
0
100
AcDbLine
 62
7
  6
CONTINUOUS
 10
429.6348745637
 20
106.6030245963
 11
429.5941676543
 21
106.5637047412
  0
LINE
  5
69B
100
AcDbEntity
  8
0
100
AcDbLine
 62
7
  6
CONTINUOUS
 10
428.9528808871
 20
105.903764875
 11
428.9014143199
 21
105.8540519886
  0
LINE
  5
69C
100
AcDbEntity
  8
0
100
AcDbLine
 62
7
  6
CONTINUOUS
 10
429.2802861156
 20
105.9477290075
 11
429.2088253408
 21
105.8787031995
  0
LINE
  5
69D
100
AcDbEntity
  8
0
100
AcDbLine
 62
7
  6
CONTINUOUS
 10
429.1264550003
 20
105.7888143844
 11
429.0670872507
 21
105.7314695418
  0
LINE
  5
69E
100
AcDbEntity
  8
0
100
AcDbLine
 62
7
  6
CONTINUOUS
 10
429.2296548961
 20
105.7625325881
 11
429.1300320412
 21
105.6663042996
  0
LINE
  5
69F
100
AcDbEntity
  8
0
100
AcDbLine
 62
7
  6
CONTINUOUS
 10
429.358170231
 20
105.8288490978
 11
429.173086855
 21
105.6500722849
  0
LINE
  5
6A0
100
AcDbEntity
  8
0
100
AcDbLine
 62
7
  6
CONTINUOUS
 10
428.0360733994
 20
104.537691862
 11
428.3948619792
 21
104.8842550174
  0
LINE
  5
6A1
100
AcDbEntity
  8
0
100
AcDbLine
 62
7
  6
CONTINUOUS
 10
429.4435642688
 20
105.6797579416
 11
429.31425754
 21
105.5548572327
  0
LINE
  5
6A2
100
AcDbEntity
  8
0
100
AcDbLine
 62
7
  6
CONTINUOUS
 10
428.2502477495
 20
104.4602248485
 11
428.1832604513
 21
104.3955200872
  0
LINE
  5
6A3
100
AcDbEntity
  8
0
100
AcDbLine
 62
7
  6
CONTINUOUS
 10
429.466093658
 20
105.5891244414
 11
429.4179373702
 21
105.5426090393
  0
LINE
  5
6A4
100
AcDbEntity
  8
0
100
AcDbLine
 62
7
  6
CONTINUOUS
 10
431.4716645758
 20
105.2308608151
 11
431.2633783804
 21
105.0296717997
  0
LINE
  5
6A5
100
AcDbEntity
  8
0
100
AcDbLine
 62
7
  6
CONTINUOUS
 10
432.2957887396
 20
103.3494209734
 11
432.1803135282
 21
103.2378804844
  0
LINE
  5
6A6
100
AcDbEntity
  8
0
100
AcDbLine
 62
7
  6
CONTINUOUS
 10
436.9830164971
 20
103.9189988557
 11
436.5841820407
 21
103.5337543539
  0
LINE
  5
6A7
100
AcDbEntity
  8
0
100
AcDbLine
 62
7
  6
CONTINUOUS
 10
437.3365698877
 20
103.4480829822
 11
436.9830164971
 21
103.1065766313
  0
LINE
  5
6A8
100
AcDbEntity
  8
0
100
AcDbLine
 62
7
  6
CONTINUOUS
 10
439.910137754
 20
100.1361432089
 11
439.8400830291
 21
100.0684755408
  0
LINE
  5
6A9
100
AcDbEntity
  8
0
100
AcDbLine
 62
7
  6
CONTINUOUS
 10
440.2230700794
 20
100.1422998092
 11
439.910137754
 21
99.8400303942
  0
LINE
  5
6AA
100
AcDbEntity
  8
0
100
AcDbLine
 62
7
  6
CONTINUOUS
 10
436.5233970893
 20
96.4689762363
 11
436.4564097912
 21
96.404271475
  0
LINE
  5
6AB
100
AcDbEntity
  8
0
100
AcDbLine
 62
7
  6
CONTINUOUS
 10
440.2230700794
 20
99.8338737939
 11
440.0300833304
 21
99.6474629088
  0
LINE
  5
6AC
100
AcDbEntity
  8
0
100
AcDbLine
 62
7
  6
CONTINUOUS
 10
440.2230700794
 20
99.6936801378
 11
440.1109825215
 21
99.5854118708
  0
LINE
  5
6AD
100
AcDbEntity
  8
0
100
AcDbLine
 62
7
  6
CONTINUOUS
 10
436.9830164971
 20
96.2611197265
 11
436.7938139419
 21
96.078364092
  0
LINE
  5
6AE
100
AcDbEntity
  8
0
100
AcDbLine
 62
7
  6
CONTINUOUS
 10
437.3365698877
 20
95.6835116291
 11
437.2695825896
 21
95.6188068679
  0
LINE
  5
6AF
100
AcDbEntity
  8
0
100
AcDbLine
 62
7
  6
CONTINUOUS
 10
441.6312656535
 20
98.4736613204
 11
441.558696077
 21
98.4035644924
  0
LINE
  5
6B0
100
AcDbEntity
  8
0
100
AcDbLine
 62
7
  6
CONTINUOUS
 10
441.8659649523
 20
98.2749979094
 11
441.7791881799
 21
98.1911779838
  0
LINE
  5
6B1
100
AcDbEntity
  8
0
100
AcDbLine
 62
7
  6
CONTINUOUS
 10
442.022431115
 20
98.2079793916
 11
441.9024469439
 21
98.0920835819
  0
LINE
  5
6B2
100
AcDbEntity
  8
0
100
AcDbLine
 62
7
  6
CONTINUOUS
 10
442.1006642238
 20
98.2726056875
 11
441.9086895327
 21
98.0871723754
  0
LINE
  5
6B3
100
AcDbEntity
  8
0
100
AcDbLine
 62
7
  6
CONTINUOUS
 10
442.4135965766
 20
97.970336246
 11
442.3268197939
 21
97.8865163105
  0
LINE
  5
6B4
100
AcDbEntity
  8
0
100
AcDbLine
 62
7
  6
CONTINUOUS
 10
443.3469775278
 20
97.7718845387
 11
442.9934241372
 21
97.4303781877
  0
LINE
  5
6B5
100
AcDbEntity
  8
0
100
AcDbLine
 62
7
  6
CONTINUOUS
 10
405.3905511239
 20
128.4382978836
 11
405.4357071659
 21
128.4593832721
  0
LINE
  5
6B6
100
AcDbEntity
  8
0
100
AcDbLine
 62
7
  6
CONTINUOUS
 10
406.4001588551
 20
127.5192406379
 11
406.3550028131
 21
127.4981552494
  0
LINE
  5
6B7
100
AcDbEntity
  8
0
100
AcDbLine
 62
7
  6
CONTINUOUS
 10
442.9934241372
 20
90.219410014
 11
442.9264368391
 21
90.1547052527
  0
LINE
  5
6B8
100
AcDbEntity
  8
RUNDUNGEN
100
AcDbLine
 62
7
  6
CONTINUOUS
 10
453.8732380068
 20
81.4042824808
 11
457.4087719127
 21
84.8193459902
  0
LINE
  5
6B9
100
AcDbEntity
  8
0
100
AcDbLine
 62
7
  6
CONTINUOUS
 10
442.1006642238
 20
98.2726056875
 11
442.022431115
 21
98.2079793916
  0
LINE
  5
6BA
100
AcDbEntity
  8
0
100
AcDbLine
 62
7
  6
CONTINUOUS
 10
426.3179313717
 20
108.173020062
 11
426.2587897308
 21
108.1504844399
  0
LINE
  5
6BB
100
AcDbEntity
  8
0
100
AcDbLine
 62
7
  6
CONTINUOUS
 10
427.0031221484
 20
107.3847829909
 11
426.9439805075
 21
107.3622473688
  0
LINE
  5
6BC
100
AcDbEntity
  8
0
100
AcDbLine
 62
7
  6
CONTINUOUS
 10
428.3117292162
 20
105.9699452407
 11
428.3708708679
 21
105.9924808634
  0
LINE
  5
6BD
100
AcDbEntity
  8
RUNDUNGEN
100
AcDbLine
 62
7
  6
CONTINUOUS
 10
464.5540008681
 20
75.3508173726
 11
468.089534774
 21
78.765880882
  0
LINE
  5
6BE
100
AcDbEntity
  8
RUNDUNGEN
100
AcDbLine
 62
7
  6
CONTINUOUS
 10
464.4860198199
 20
56.3871061813
 11
468.0215537258
 21
59.8021696908
  0
ARC
  5
6BF
100
AcDbEntity
  8
KONSTRUKTIONSELEMENTE
100
AcDbCircle
 62
7
  6
CONTINUOUS
 10
645.5732830113
 20
107.6639282551
 40
46.8
100
AcDbArc
 50
41.6553646926
 51
65.9022287256
  0
ARC
  5
6C0
100
AcDbEntity
  8
KONSTRUKTIONSELEMENTE
100
AcDbCircle
 62
7
  6
CONTINUOUS
 10
645.5732830113
 20
107.6639282551
 40
46.8
100
AcDbArc
 50
84.0977712744
 51
108.3446353074
  0
ARC
  5
6C1
100
AcDbEntity
  8
BEZUGSACHSEN
100
AcDbCircle
 62
7
  6
CONTINUOUS
 10
676.1398122379
 20
221.7397683399
 40
18.5
100
AcDbArc
 50
119.6562818467
 51
30.3437181533
  0
ARC
  5
6C2
100
AcDbEntity
  8
0
100
AcDbCircle
 62
7
  6
CONTINUOUS
 10
677.563316986
 20
227.0523603845
 40
13.0
100
AcDbArc
 50
165.0
 51
345.0
  0
ARC
  5
6C3
100
AcDbEntity
  8
KONSTRUKTIONSELEMENTE
100
AcDbCircle
 62
7
  6
CONTINUOUS
 10
669.7306017149
 20
198.3716846451
 40
9.5600220347
100
AcDbArc
 50
235.2472929192
 51
242.2525711218
  0
ARC
  5
6C4
100
AcDbEntity
  8
KONSTRUKTIONSELEMENTE
100
AcDbCircle
 62
7
  6
CONTINUOUS
 10
670.0087788122
 20
198.1780720015
 40
9.440483902
100
AcDbArc
 50
267.7159617125
 51
274.8017277657
  0
ARC
  5
6C5
100
AcDbEntity
  8
RUNDUNGEN
100
AcDbCircle
 62
7
  6
CONTINUOUS
 10
641.2692585803
 20
203.6484862512
 40
8.0
100
AcDbArc
 50
87.037384222
 51
165.0
  0
ARC
  5
6C6
100
AcDbEntity
  8
RUNDUNGEN
100
AcDbCircle
 62
7
  6
CONTINUOUS
 10
697.2929565051
 20
188.6369816353
 40
8.0
100
AcDbArc
 50
345.0
 51
62.962615778
  0
ARC
  5
6C7
100
AcDbEntity
  8
KONSTRUKTIONSELEMENTE
100
AcDbCircle
 62
7
  6
CONTINUOUS
 10
665.8388142428
 20
183.2959204536
 40
7.4
100
AcDbArc
 50
345.0000004677
 51
165.0
  0
ARC
  5
6C8
100
AcDbEntity
  8
BEZUGSACHSEN
100
AcDbCircle
 62
7
  6
CONTINUOUS
 10
656.9423682037
 20
151.1129320633
 40
6.5895200398
100
AcDbArc
 50
234.8584610788
 51
235.1295722559
  0
ARC
  5
6C9
100
AcDbEntity
  8
BEZUGSACHSEN
100
AcDbCircle
 62
7
  6
CONTINUOUS
 10
657.4518683209
 20
150.9764119189
 40
6.5895200404
100
AcDbArc
 50
274.870427744
 51
275.141538921
  0
ARC
  5
6CA
100
AcDbEntity
  8
RUNDUNGEN
100
AcDbCircle
 62
7
  6
CONTINUOUS
 10
641.3428156955
 20
205.1752695818
 40
6.4714578049
100
AcDbArc
 50
72.1292556972
 51
86.9891141635
  0
ARC
  5
6CB
100
AcDbEntity
  8
RUNDUNGEN
100
AcDbCircle
 62
7
  6
CONTINUOUS
 10
697.9926512231
 20
189.996009245
 40
6.4714411919
100
AcDbArc
 50
63.010864413
 51
77.8686453501
  0
ARC
  5
6CC
100
AcDbEntity
  8
RUNDUNGEN
100
AcDbCircle
 62
7
  6
CONTINUOUS
 10
617.7459857701
 20
153.3111121491
 40
3.3334747012
100
AcDbArc
 50
281.2964744358
 51
287.2123623221
  0
CIRCLE
  5
6CD
100
AcDbEntity
  8
BEZUGSACHSEN
100
AcDbCircle
 62
7
  6
CONTINUOUS
 10
637.4700599133
 20
172.4693892552
 40
3.0
  0
ARC
  5
6CE
100
AcDbEntity
  8
0
100
AcDbCircle
 62
7
  6
CONTINUOUS
 10
667.7689202093
 20
127.9009304072
 40
2.7679754317
100
AcDbArc
 50
335.5636876714
 51
340.3957076167
  0
ARC
  5
6CF
100
AcDbEntity
  8
KONSTRUKTIONSELEMENTE
100
AcDbCircle
 62
7
  6
CONTINUOUS
 10
655.588343425
 20
145.0406425602
 40
2.5
100
AcDbArc
 50
165.0
 51
345.0
  0
ARC
  5
6D0
100
AcDbEntity
  8
KONSTRUKTIONSELEMENTE
100
AcDbCircle
 62
7
  6
CONTINUOUS
 10
671.4189421387
 20
204.1212412739
 40
2.5
100
AcDbArc
 50
343.1688338955
 51
345.0
  0
ARC
  5
6D1
100
AcDbEntity
  8
KONSTRUKTIONSELEMENTE
100
AcDbCircle
 62
7
  6
CONTINUOUS
 10
671.4189421387
 20
204.1212412739
 40
2.5
100
AcDbArc
 50
165.0
 51
166.8311661045
  0
ARC
  5
6D2
100
AcDbEntity
  8
0
100
AcDbCircle
 62
7
  6
CONTINUOUS
 10
638.2981164669
 20
134.9473433104
 40
0.5420477023
100
AcDbArc
 50
63.8903114982
 51
74.9692795105
  0
ARC
  5
6D3
100
AcDbEntity
  8
0
100
AcDbCircle
 62
7
  6
CONTINUOUS
 10
720.527278473
 20
387.3960475485
 40
13.0
100
AcDbArc
 50
345.0
 51
165.0
  0
ARC
  5
6D4
100
AcDbEntity
  8
KONSTRUKTIONSELEMENTE
100
AcDbCircle
 62
7
  6
CONTINUOUS
 10
837.9275973315
 20
107.6639282551
 40
46.8
100
AcDbArc
 50
114.0977712744
 51
138.3446353074
  0
ARC
  5
6D5
100
AcDbEntity
  8
KONSTRUKTIONSELEMENTE
100
AcDbCircle
 62
7
  6
CONTINUOUS
 10
837.9275973315
 20
107.6639282551
 40
46.8
100
AcDbArc
 50
71.6553646926
 51
95.9022287256
  0
ARC
  5
6D6
100
AcDbEntity
  8
BEZUGSACHSEN
100
AcDbCircle
 62
7
  6
CONTINUOUS
 10
807.3610681049
 20
221.7397683399
 40
18.5
100
AcDbArc
 50
149.6562818467
 51
60.3437181533
  0
ARC
  5
6D7
100
AcDbEntity
  8
0
100
AcDbCircle
 62
7
  6
CONTINUOUS
 10
805.9375633568
 20
227.0523603845
 40
13.0
100
AcDbArc
 50
195.0
 51
15.0
  0
ARC
  5
6D8
100
AcDbEntity
  8
0
100
AcDbCircle
 62
7
  6
CONTINUOUS
 10
786.2079238377
 20
188.6369816353
 40
8.0
100
AcDbArc
 50
117.037384222
 51
195.0
  0
ARC
  5
6D9
100
AcDbEntity
  8
0
100
AcDbCircle
 62
7
  6
CONTINUOUS
 10
842.2316217625
 20
203.6484862512
 40
8.0
100
AcDbArc
 50
15.0
 51
92.962615778
  0
ARC
  5
6DA
100
AcDbEntity
  8
0
100
AcDbCircle
 62
7
  6
CONTINUOUS
 10
817.6620660999
 20
183.2959204536
 40
7.4
100
AcDbArc
 50
15.0
 51
194.9999995323
  0
ARC
  5
6DB
100
AcDbEntity
  8
0
100
AcDbCircle
 62
7
  6
CONTINUOUS
 10
842.1580646473
 20
205.1752695818
 40
6.4714578049
100
AcDbArc
 50
93.0108858365
 51
107.8707443028
  0
ARC
  5
6DC
100
AcDbEntity
  8
0
100
AcDbCircle
 62
7
  6
CONTINUOUS
 10
785.5082291197
 20
189.996009245
 40
6.4714411919
100
AcDbArc
 50
102.1313546499
 51
116.989135587
  0
CIRCLE
  5
6DD
100
AcDbEntity
  8
BEZUGSACHSEN
100
AcDbCircle
 62
7
  6
CONTINUOUS
 10
846.0308204295
 20
172.4693892552
 40
3.0
  0
ARC
  5
6DE
100
AcDbEntity
  8
0
100
AcDbCircle
 62
7
  6
CONTINUOUS
 10
741.7504401714
 20
466.6019653042
 40
131.0
100
AcDbArc
 50
180.0
 51
249.3043723038
  0
ARC
  5
6DF
100
AcDbEntity
  8
0
100
AcDbCircle
 62
7
  6
CONTINUOUS
 10
741.7504401714
 20
466.6019653042
 40
131.0
100
AcDbArc
 50
260.6961268819
 51
279.3038731181
  0
ARC
  5
6E0
100
AcDbEntity
  8
0
100
AcDbCircle
 62
7
  6
CONTINUOUS
 10
741.7504401714
 20
466.6019653042
 40
131.0
100
AcDbArc
 50
290.6956276962
 51
360.0
  0
ARC
  5
6E1
100
AcDbEntity
  8
0
100
AcDbCircle
 62
7
  6
CONTINUOUS
 10
741.7504401714
 20
626.6019653042
 40
131.0
100
AcDbArc
 50
0.0
 51
180.0
  0
ARC
  5
6E2
100
AcDbEntity
  8
0
100
AcDbCircle
 62
7
  6
CONTINUOUS
 10
741.7504401714
 20
466.6019653042
 40
95.0
100
AcDbArc
 50
180.0
 51
247.1340646539
  0
ARC
  5
6E3
100
AcDbEntity
  8
0
100
AcDbCircle
 62
7
  6
CONTINUOUS
 10
741.7504401714
 20
466.6019653042
 40
95.0
100
AcDbArc
 50
262.8664110376
 51
277.1335889624
  0
ARC
  5
6E4
100
AcDbEntity
  8
0
100
AcDbCircle
 62
7
  6
CONTINUOUS
 10
741.7504401714
 20
466.6019653042
 40
95.0
100
AcDbArc
 50
292.8659353461
 51
360.0
  0
ARC
  5
6E5
100
AcDbEntity
  8
0
100
AcDbCircle
 62
7
  6
CONTINUOUS
 10
741.7504401714
 20
626.6019653042
 40
95.0
100
AcDbArc
 50
0.0
 51
180.0
  0
ARC
  5
6E6
100
AcDbEntity
  8
0
100
AcDbCircle
 62
7
  6
CONTINUOUS
 10
762.9736018698
 20
387.3960475485
 40
13.0
100
AcDbArc
 50
15.0
 51
195.0
  0
ARC
  5
6E7
100
AcDbEntity
  8
0
100
AcDbCircle
 62
7
  6
CONTINUOUS
 10
154.6137311645
 20
221.4573490987
 40
105.6904692248
100
AcDbArc
 50
2.1835666675
 51
6.3833300265
  0
ARC
  5
6E8
100
AcDbEntity
  8
0
100
AcDbCircle
 62
7
  6
CONTINUOUS
 10
358.0207366434
 20
221.4573490987
 40
105.6904692248
100
AcDbArc
 50
173.6166699735
 51
177.8164333325
  0
ARC
  5
6E9
100
AcDbEntity
  8
0
100
AcDbCircle
 62
7
  6
CONTINUOUS
 10
256.3172339039
 20
208.3004064464
 40
56.2123557853
100
AcDbArc
 50
268.674825962
 51
271.325174038
  0
ARC
  5
6EA
100
AcDbEntity
  8
0
100
AcDbCircle
 62
7
  6
CONTINUOUS
 10
256.3172339039
 20
82.5628496797
 40
56.2123557853
100
AcDbArc
 50
88.674825962
 51
91.325174038
  0
ARC
  5
6EB
100
AcDbEntity
  8
KONSTRUKTIONSELEMENTE
100
AcDbCircle
 62
7
  6
CONTINUOUS
 10
313.3366184466
 20
174.4587144055
 40
33.1455707132
100
AcDbArc
 50
44.5353474264
 51
45.9812535785
  0
ARC
  5
6EC
100
AcDbEntity
  8
KONSTRUKTIONSELEMENTE
100
AcDbCircle
 62
7
  6
CONTINUOUS
 10
255.6896751043
 20
157.2787349112
 40
20.1275590488
100
AcDbArc
 50
353.5080291163
 51
0.009014449
  0
ARC
  5
6ED
100
AcDbEntity
  8
0
100
AcDbCircle
 62
7
  6
CONTINUOUS
 10
256.3172339039
 20
739.6019653042
 40
18.0
100
AcDbArc
 50
0.0
 51
180.0
  0
ARC
  5
6EE
100
AcDbEntity
  8
0
100
AcDbCircle
 62
7
  6
CONTINUOUS
 10
256.3172339039
 20
353.6019653042
 40
18.0
100
AcDbArc
 50
180.0
 51
360.0
  0
ARC
  5
6EF
100
AcDbEntity
  8
KONSTRUKTIONSELEMENTE
100
AcDbCircle
 62
7
  6
CONTINUOUS
 10
376.0376194853
 20
172.5915507418
 40
15.6688141016
100
AcDbArc
 50
233.3753354951
 51
233.5160582162
  0
ARC
  5
6F0
100
AcDbEntity
  8
RUNDUNGEN
100
AcDbCircle
 62
7
  6
CONTINUOUS
 10
386.5007448326
 20
168.8240080141
 40
13.5888666649
100
AcDbArc
 50
205.8708981959
 51
206.2647342942
  0
ARC
  5
6F1
100
AcDbEntity
  8
KONSTRUKTIONSELEMENTE
100
AcDbCircle
 62
7
  6
CONTINUOUS
 10
316.0750409435
 20
200.756731449
 40
12.2468399726
100
AcDbArc
 50
55.2809419386
 51
55.561098419
  0
ARC
  5
6F2
100
AcDbEntity
  8
KONSTRUKTIONSELEMENTE
100
AcDbCircle
 62
7
  6
CONTINUOUS
 10
316.2653309146
 20
201.0341552889
 40
11.9104261533
100
AcDbArc
 50
55.5613249792
 51
55.7966521663
  0
ARC
  5
6F3
100
AcDbEntity
  8
KONSTRUKTIONSELEMENTE
100
AcDbCircle
 62
7
  6
CONTINUOUS
 10
379.6732620497
 20
152.3320892359
 40
9.7912946396
100
AcDbArc
 50
275.8789018395
 51
278.3981303415
  0
ARC
  5
6F4
100
AcDbEntity
  8
BEZUGSACHSEN
100
AcDbCircle
 62
7
  6
CONTINUOUS
 10
256.3172339039
 20
249.7397683399
 40
9.5
100
AcDbArc
 50
0.0
 51
23.2527041394
  0
ARC
  5
6F5
100
AcDbEntity
  8
BEZUGSACHSEN
100
AcDbCircle
 62
7
  6
CONTINUOUS
 10
256.3172339039
 20
249.7397683399
 40
9.5
100
AcDbArc
 50
156.7472958606
 51
180.0
  0
ARC
  5
6F6
100
AcDbEntity
  8
KONSTRUKTIONSELEMENTE
100
AcDbCircle
 62
7
  6
CONTINUOUS
 10
379.8964495663
 20
151.73706955
 40
9.3523666125
100
AcDbArc
 50
45.4559945701
 51
45.9929150436
  0
ARC
  5
6F7
100
AcDbEntity
  8
KONSTRUKTIONSELEMENTE
100
AcDbCircle
 62
7
  6
CONTINUOUS
 10
318.7317129929
 20
210.8176682628
 40
9.3523666136
100
AcDbArc
 50
45.4559945701
 51
45.9929150436
  0
ARC
  5
6F8
100
AcDbEntity
  8
KONSTRUKTIONSELEMENTE
100
AcDbCircle
 62
7
  6
CONTINUOUS
 10
370.8203447955
 20
159.9751150518
 40
9.1128567777
100
AcDbArc
 50
155.3174888113
 51
179.9666787515
  0
ARC
  5
6F9
100
AcDbEntity
  8
BEZUGSACHSEN
100
AcDbCircle
 62
7
  6
CONTINUOUS
 10
256.9042824072
 20
175.0025970477
 40
8.6630364526
100
AcDbArc
 50
4.4686945853
 51
5.8512461557
  0
ARC
  5
6FA
100
AcDbEntity
  8
BEZUGSACHSEN
100
AcDbCircle
 62
7
  6
CONTINUOUS
 10
255.7301854011
 20
175.0025970477
 40
8.6630364531
100
AcDbArc
 50
174.1487538444
 51
175.5313054146
  0
ARC
  5
6FB
100
AcDbEntity
  8
BEZUGSACHSEN
100
AcDbCircle
 62
7
  6
CONTINUOUS
 10
256.9243011087
 20
175.0040931121
 40
8.6429620422
100
AcDbArc
 50
2.1757275003
 51
4.4691468841
  0
ARC
  5
6FC
100
AcDbEntity
  8
BEZUGSACHSEN
100
AcDbCircle
 62
7
  6
CONTINUOUS
 10
255.7101666992
 20
175.0040931121
 40
8.6429620423
100
AcDbArc
 50
175.5308531159
 51
177.8242724997
  0
ARC
  5
6FD
100
AcDbEntity
  8
KONSTRUKTIONSELEMENTE
100
AcDbCircle
 62
7
  6
CONTINUOUS
 10
350.5463976646
 20
180.0697916185
 40
7.8374984552
100
AcDbArc
 50
45.4162894929
 51
45.9929054453
  0
ARC
  5
6FE
100
AcDbEntity
  8
KONSTRUKTIONSELEMENTE
100
AcDbCircle
 62
7
  6
CONTINUOUS
 10
339.3976683278
 20
190.4036216572
 40
7.6417945598
100
AcDbArc
 50
159.7236942383
 51
179.9651547733
  0
ARC
  5
6FF
100
AcDbEntity
  8
BEZUGSACHSEN
100
AcDbCircle
 62
7
  6
CONTINUOUS
 10
380.1627951797
 20
145.6722922907
 40
7.4707268688
100
AcDbArc
 50
57.1292497829
 51
57.5274853486
  0
ARC
  5
700
100
AcDbEntity
  8
0
100
AcDbCircle
 62
7
  6
CONTINUOUS
 10
248.3172339039
 20
205.6484862512
 40
6.0
100
AcDbArc
 50
90.0
 51
180.0
  0
ARC
  5
701
100
AcDbEntity
  8
RUNDUNGEN
100
AcDbCircle
 62
7
  6
CONTINUOUS
 10
264.3172339039
 20
205.6484862512
 40
6.0
100
AcDbArc
 50
0.0
 51
90.0
  0
ARC
  5
702
100
AcDbEntity
  8
KONSTRUKTIONSELEMENTE
100
AcDbCircle
 62
7
  6
CONTINUOUS
 10
379.4721675935
 20
151.9893249627
 40
4.3878335159
100
AcDbArc
 50
225.9937050332
 51
227.0555598992
  0
ARC
  5
703
100
AcDbEntity
  8
KONSTRUKTIONSELEMENTE
100
AcDbCircle
 62
7
  6
CONTINUOUS
 10
318.3074310214
 20
211.069923677
 40
4.3878335167
100
AcDbArc
 50
225.9937050332
 51
227.0555598991
  0
ARC
  5
704
100
AcDbEntity
  8
KONSTRUKTIONSELEMENTE
100
AcDbCircle
 62
7
  6
CONTINUOUS
 10
380.1029990166
 20
151.8550570169
 40
4.1189460881
100
AcDbArc
 50
336.8721362905
 51
359.9590929182
  0
ARC
  5
705
100
AcDbEntity
  8
KONSTRUKTIONSELEMENTE
100
AcDbCircle
 62
7
  6
CONTINUOUS
 10
318.9430225735
 20
210.9343455792
 40
4.1141852319
100
AcDbArc
 50
334.689527825
 51
359.9772912731
  0
ARC
  5
706
100
AcDbEntity
  8
KONSTRUKTIONSELEMENTE
100
AcDbCircle
 62
7
  6
CONTINUOUS
 10
370.7918682171
 20
159.9790083266
 40
4.0843599296
100
AcDbArc
 50
179.6607782886
 51
180.0341463988
  0
ARC
  5
707
100
AcDbEntity
  8
KONSTRUKTIONSELEMENTE
100
AcDbCircle
 62
7
  6
CONTINUOUS
 10
350.1957489801
 20
180.2707910971
 40
3.3624399511
100
AcDbArc
 50
225.9940708966
 51
227.2341816412
  0
ARC
  5
708
100
AcDbEntity
  8
0
100
AcDbCircle
 62
7
  6
CONTINUOUS
 10
405.6916784578
 20
123.1431697703
 40
3.1733553844
100
AcDbArc
 50
73.4283765074
 51
74.5640250656
  0
ARC
  5
709
100
AcDbEntity
  8
0
100
AcDbCircle
 62
7
  6
CONTINUOUS
 10
427.5023393361
 20
101.9286912303
 40
3.1614865897
100
AcDbArc
 50
72.1838779464
 51
73.3886854489
  0
ARC
  5
70A
100
AcDbEntity
  8
KONSTRUKTIONSELEMENTE
100
AcDbCircle
 62
7
  6
CONTINUOUS
 10
350.7336619811
 20
180.1619756956
 40
3.1286794214
100
AcDbArc
 50
342.3964861858
 51
359.9749659754
  0
ARC
  5
70B
100
AcDbEntity
  8
0
100
AcDbCircle
 62
7
  6
CONTINUOUS
 10
405.7475042162
 20
123.3441193008
 40
2.9647957655
100
AcDbArc
 50
74.5703450303
 51
75.1594777198
  0
SPLINE
  5
70C
100
AcDbEntity
  8
KONSTRUKTIONSELEMENTE
100
AcDbSpline
 62
7
  6
CONTINUOUS
 70
0
 71
3
 72
11
 73
7
 74
0
 42
0.0000001
 43
0.0000001
 44
0.0000000001
 40
0.0
 40
0.0
 40
0.0
 40
0.0
 40
0.2390759488
 40
0.4845199689
 40
0.7382329877
 40
1.0
 40
1.0
 40
1.0
 40
1.0
 10
657.1828900496
 20
179.623113004
 30
0.0
 10
657.530688135
 20
180.0083995025
 30
0.0
 10
658.3476483451
 20
180.6934932571
 30
0.0
 10
659.8014544943
 20
181.3990659852
 30
0.0
 10
661.417497837
 20
181.7911822495
 30
0.0
 10
662.5425536163
 20
181.8447406471
 30
0.0
 10
663.1104357626
 20
181.8226945662
 30
0.0
  0
SPLINE
  5
70D
100
AcDbEntity
  8
KONSTRUKTIONSELEMENTE
100
AcDbSpline
 62
7
  6
CONTINUOUS
 70
0
 71
3
 72
11
 73
7
 74
0
 42
0.0000001
 43
0.0000001
 44
0.0000000001
 40
0.0
 40
0.0
 40
0.0
 40
0.0
 40
0.2617931805
 40
0.5155111137
 40
0.7609431338
 40
1.0
 40
1.0
 40
1.0
 40
1.0
 10
667.4632825948
 20
180.6567991966
 30
0.0
 10
667.9664096712
 20
180.3918924502
 30
0.0
 10
668.9145389434
 20
179.7828852522
 30
0.0
 10
670.1186797775
 20
178.6348729532
 30
0.0
 10
671.0252247318
 20
177.2963813607
 30
0.0
 10
671.3903485255
 20
176.2942359433
 30
0.0
 10
671.4988717148
 20
175.7864806266
 30
0.0
  0
SPLINE
  5
70E
100
AcDbEntity
  8
KONSTRUKTIONSELEMENTE
100
AcDbSpline
 62
7
  6
CONTINUOUS
 70
0
 71
3
 72
10
 73
6
 74
0
 42
0.0000001
 43
0.0000001
 44
0.0000000001
 40
0.0
 40
0.0
 40
0.0
 40
0.0
 40
0.3116645009
 40
0.6060899939
 40
1.0
 40
1.0
 40
1.0
 40
1.0
 10
660.3370648812
 20
176.2860738736
 30
0.0
 10
660.3880923103
 20
176.4765108315
 30
0.0
 10
660.6653372773
 20
176.786648431
 30
0.0
 10
661.2193683895
 20
177.0873747171
 30
0.0
 10
661.6437340374
 20
177.2090984752
 30
0.0
 10
661.8886803917
 20
177.2548487267
 30
0.0
  0
SPLINE
  5
70F
100
AcDbEntity
  8
KONSTRUKTIONSELEMENTE
100
AcDbSpline
 62
7
  6
CONTINUOUS
 70
0
 71
3
 72
10
 73
6
 74
0
 42
0.0000001
 43
0.0000001
 44
0.0000000001
 40
0.0
 40
0.0
 40
0.0
 40
0.0
 40
0.3939255147
 40
0.6883533687
 40
1.0
 40
1.0
 40
1.0
 40
1.0
 10
666.2389892273
 20
176.0893028639
 30
0.0
 10
666.4282906742
 20
175.9271944326
 30
0.0
 10
666.7349901534
 20
175.6095455757
 30
0.0
 10
667.0645489061
 20
175.0720572811
 30
0.0
 10
667.1495773538
 20
174.6647934125
 30
0.0
 10
667.0985456652
 20
174.4743405579
 30
0.0
  0
SPLINE
  5
710
100
AcDbEntity
  8
KONSTRUKTIONSELEMENTE
100
AcDbSpline
 62
7
  6
CONTINUOUS
 70
0
 71
3
 72
12
 73
8
 74
0
 42
0.0000001
 43
0.0000001
 44
0.0000000001
 40
0.0
 40
0.0
 40
0.0
 40
0.0
 40
0.119660423
 40
0.239791031
 40
0.4831782475
 40
0.7358868616
 40
1.0
 40
1.0
 40
1.0
 40
1.0
 10
664.1011239344
 20
207.703916201
 30
0.0
 10
664.202584278
 20
208.0288831619
 30
0.0
 10
664.4719009833
 20
208.6615863131
 30
0.0
 10
665.2502051668
 20
209.8034691924
 30
0.0
 10
666.6314065863
 20
210.946734257
 30
0.0
 10
668.6749190659
 20
211.738372499
 30
0.0
 10
670.1553020189
 20
211.8912497916
 30
0.0
 10
670.906653046
 20
211.8818412325
 30
0.0
  0
SPLINE
  5
711
100
AcDbEntity
  8
KONSTRUKTIONSELEMENTE
100
AcDbSpline
 62
7
  6
CONTINUOUS
 70
0
 71
3
 72
12
 73
8
 74
0
 42
0.0000001
 43
0.0000001
 44
0.0000000001
 40
0.0
 40
0.0
 40
0.0
 40
0.0
 40
0.2641163723
 40
0.5168081693
 40
0.7601760549
 40
0.8803250158
 40
1.0
 40
1.0
 40
1.0
 40
1.0
 10
675.7437061907
 20
210.5855008391
 30
0.0
 10
676.3989985097
 20
210.2179349812
 30
0.0
 10
677.6044040234
 20
209.3453864614
 30
0.0
 10
678.9779191645
 20
207.6381756799
 30
0.0
 10
679.6024456831
 20
205.9577339699
 30
0.0
 10
679.705394861
 20
204.5797728148
 30
0.0
 10
679.6222946992
 20
203.8971591773
 30
0.0
 10
679.547685844
 20
203.5649917181
 30
0.0
  0
SPLINE
  5
712
100
AcDbEntity
  8
KONSTRUKTIONSELEMENTE
100
AcDbSpline
 62
7
  6
CONTINUOUS
 70
0
 71
3
 72
10
 73
6
 74
0
 42
0.0000001
 43
0.0000001
 44
0.0000000001
 40
0.0
 40
0.0
 40
0.0
 40
0.0
 40
0.3192646009
 40
0.6086079864
 40
1.0
 40
1.0
 40
1.0
 40
1.0
 10
668.3896237645
 20
206.3386327568
 30
0.0
 10
668.4340732891
 20
206.5045206411
 30
0.0
 10
668.6542924101
 20
206.7776827257
 30
0.0
 10
669.109440964
 20
207.0629543458
 30
0.0
 10
669.4575333013
 20
207.1902384328
 30
0.0
 10
669.6610037244
 20
207.2443342799
 30
0.0
  0
SPLINE
  5
713
100
AcDbEntity
  8
KONSTRUKTIONSELEMENTE
100
AcDbSpline
 62
7
  6
CONTINUOUS
 70
0
 71
3
 72
10
 73
6
 74
0
 42
0.0000001
 43
0.0000001
 44
0.0000000001
 40
0.0
 40
0.0
 40
0.0
 40
0.0
 40
0.3914026107
 40
0.6807340322
 40
1.0
 40
1.0
 40
1.0
 40
1.0
 10
674.5029828034
 20
205.9468755738
 30
0.0
 10
674.6521364757
 20
205.7982935434
 30
0.0
 10
674.8898996729
 20
205.514010105
 30
0.0
 10
675.1414622331
 20
205.0394316956
 30
0.0
 10
675.1955514876
 20
204.6927776762
 30
0.0
 10
675.1511045485
 20
204.5268994411
 30
0.0
  0
SPLINE
  5
714
100
AcDbEntity
  8
KONSTRUKTIONSELEMENTE
100
AcDbSpline
 62
7
  6
CONTINUOUS
 70
0
 71
3
 72
9
 73
5
 74
0
 42
0.0000001
 43
0.0000001
 44
0.0000000001
 40
0.0
 40
0.0
 40
0.0
 40
0.0
 40
0.4878890232
 40
1.0
 40
1.0
 40
1.0
 40
1.0
 10
693.7736563895
 20
216.1444785225
 30
0.0
 10
691.828526263
 20
215.4431134334
 30
0.0
 10
687.6573928426
 20
214.491462517
 30
0.0
 10
683.3908149865
 20
214.4133702443
 30
0.0
 10
681.2263162521
 20
214.5728963754
 30
0.0
  0
SPLINE
  5
715
100
AcDbEntity
  8
KONSTRUKTIONSELEMENTE
100
AcDbSpline
 62
7
  6
CONTINUOUS
 70
0
 71
3
 72
9
 73
5
 74
0
 42
0.0000001
 43
0.0000001
 44
0.0000000001
 40
0.0
 40
0.0
 40
0.0
 40
0.0
 40
0.5121260224
 40
1.0
 40
1.0
 40
1.0
 40
1.0
 10
668.1710197681
 20
218.0668285807
 30
0.0
 10
666.212786985
 20
219.0113540039
 30
0.0
 10
662.5494746893
 20
221.214201028
 30
0.0
 10
659.4069855862
 20
224.1283225167
 30
0.0
 10
658.0709053919
 20
225.7109192081
 30
0.0
  0
SPLINE
  5
716
100
AcDbEntity
  8
KONSTRUKTIONSELEMENTE
100
AcDbSpline
 62
7
  6
CONTINUOUS
 70
0
 71
3
 72
9
 73
5
 74
0
 42
0.0000001
 43
0.0000001
 44
0.0000000001
 40
0.0
 40
0.0
 40
0.0
 40
0.0
 40
0.2348418344
 40
1.0
 40
1.0
 40
1.0
 40
1.0
 10
694.4835424591
 20
224.2135877964
 30
0.0
 10
694.1335591013
 20
223.993931445
 30
0.0
 10
692.6019412138
 20
223.1247711532
 30
0.0
 10
690.9276723746
 20
222.5188964096
 30
0.0
 10
689.6233175756
 20
222.185480599
 30
0.0
  0
SPLINE
  5
717
100
AcDbEntity
  8
KONSTRUKTIONSELEMENTE
100
AcDbSpline
 62
7
  6
CONTINUOUS
 70
0
 71
3
 72
9
 73
5
 74
0
 42
0.0000001
 43
0.0000001
 44
0.0000000001
 40
0.0
 40
0.0
 40
0.0
 40
0.0
 40
0.2654819976
 40
1.0
 40
1.0
 40
1.0
 40
1.0
 10
664.6855067383
 20
228.8676131501
 30
0.0
 10
664.3514342767
 20
229.1940652336
 30
0.0
 10
663.1358560793
 20
230.4656629539
 30
0.0
 10
662.094783362
 20
231.9121713714
 30
0.0
 10
661.4903649639
 20
233.05443695
 30
0.0
  0
SPLINE
  5
718
100
AcDbEntity
  8
0
100
AcDbSpline
 62
7
  6
CONTINUOUS
 70
0
 71
3
 72
11
 73
7
 74
0
 42
0.0000001
 43
0.0000001
 44
0.0000000001
 40
0.0
 40
0.0
 40
0.0
 40
0.0
 40
0.2192989281
 40
0.4548225453
 40
0.7152180566
 40
1.0
 40
1.0
 40
1.0
 40
1.0
 10
670.3225594245
 20
126.737255466
 30
0.0
 10
670.4197856622
 20
127.1001087251
 30
0.0
 10
670.4601673739
 20
127.9034736573
 30
0.0
 10
670.0462440956
 20
129.0821628486
 30
0.0
 10
669.2272863579
 20
130.1610126083
 30
0.0
 10
668.4854526205
 20
130.7446356162
 30
0.0
 10
668.0723595862
 20
131.0041089874
 30
0.0
  0
SPLINE
  5
719
100
AcDbEntity
  8
0
100
AcDbSpline
 62
7
  6
CONTINUOUS
 70
0
 71
3
 72
15
 73
11
 74
0
 42
0.0000001
 43
0.0000001
 44
0.0000000001
 40
0.0
 40
0.0
 40
0.0
 40
0.0
 40
0.1047415988
 40
0.222328371
 40
0.3560160977
 40
0.5
 40
0.6439839023
 40
0.777671629
 40
0.8952584012
 40
1.0
 40
1.0
 40
1.0
 40
1.0
 10
653.6600472491
 20
130.2168311529
 30
0.0
 10
653.6005494829
 20
129.9947824667
 30
0.0
 10
653.6169958655
 20
129.4792250625
 30
0.0
 10
654.0226904943
 20
128.7851683056
 30
0.0
 10
654.7049571063
 20
128.2265665331
 30
0.0
 10
655.5695866206
 20
127.8649385832
 30
0.0
 10
656.4991917199
 20
127.7458028174
 30
0.0
 10
657.3693528243
 20
127.8884328369
 30
0.0
 10
658.0677230574
 20
128.2866563057
 30
0.0
 10
658.3397447446
 20
128.7249189235
 30
0.0
 10
658.3992425108
 20
128.9469676098
 30
0.0
  0
SPLINE
  5
71A
100
AcDbEntity
  8
0
100
AcDbSpline
 62
7
  6
CONTINUOUS
 70
0
 71
3
 72
11
 73
7
 74
0
 42
0.0000001
 43
0.0000001
 44
0.0000000001
 40
0.0
 40
0.0
 40
0.0
 40
0.0
 40
0.2094689415
 40
0.4446609502
 40
0.7120169424
 40
1.0
 40
1.0
 40
1.0
 40
1.0
 10
651.3378291412
 20
133.6392933197
 30
0.0
 10
651.4006253282
 20
133.8737925864
 30
0.0
 10
651.383048458
 20
134.4182634116
 30
0.0
 10
650.9544465755
 20
135.1512221232
 30
0.0
 10
650.2344900634
 20
135.7410053011
 30
0.0
 10
649.6314910799
 20
135.9929081139
 30
0.0
 10
649.3091086699
 20
136.0792902203
 30
0.0
  0
SPLINE
  5
71B
100
AcDbEntity
  8
0
100
AcDbSpline
 62
7
  6
CONTINUOUS
 70
0
 71
3
 72
9
 73
5
 74
0
 42
0.0000001
 43
0.0000001
 44
0.0000000001
 40
0.0
 40
0.0
 40
0.0
 40
0.0
 40
0.4402133985
 40
1.0
 40
1.0
 40
1.0
 40
1.0
 10
636.9455328002
 20
134.7955533694
 30
0.0
 10
636.9377338116
 20
134.7664471478
 30
0.0
 10
636.9655764304
 20
134.6910538493
 30
0.0
 10
637.0306550327
 20
134.65854501
 30
0.0
 10
637.0676672476
 20
134.6486276169
 30
0.0
  0
SPLINE
  5
71C
100
AcDbEntity
  8
0
100
AcDbSpline
 62
7
  6
CONTINUOUS
 70
0
 71
3
 72
9
 73
5
 74
0
 42
0.0000001
 43
0.0000001
 44
0.0000000001
 40
0.0
 40
0.0
 40
0.0
 40
0.0
 40
0.4402133985
 40
1.0
 40
1.0
 40
1.0
 40
1.0
 10
637.9957632396
 20
134.5712449343
 30
0.0
 10
638.0035622282
 20
134.600351156
 30
0.0
 10
637.9757196094
 20
134.6757444545
 30
0.0
 10
637.9106410071
 20
134.7082532937
 30
0.0
 10
637.8736287922
 20
134.7181706868
 30
0.0
  0
SPLINE
  5
71D
100
AcDbEntity
  8
0
100
AcDbSpline
 62
7
  6
CONTINUOUS
 70
0
 71
3
 72
9
 73
5
 74
0
 42
0.0000001
 43
0.0000001
 44
0.0000000001
 40
0.0
 40
0.0
 40
0.0
 40
0.0
 40
0.4402133985
 40
1.0
 40
1.0
 40
1.0
 40
1.0
 10
638.709512777
 20
137.2349944717
 30
0.0
 10
638.7173117656
 20
137.2641006933
 30
0.0
 10
638.6894691467
 20
137.3394939918
 30
0.0
 10
638.6243905445
 20
137.3720028311
 30
0.0
 10
638.5873783296
 20
137.3819202242
 30
0.0
  0
SPLINE
  5
71E
100
AcDbEntity
  8
0
100
AcDbSpline
 62
7
  6
CONTINUOUS
 70
0
 71
3
 72
11
 73
7
 74
0
 42
0.0000001
 43
0.0000001
 44
0.0000000001
 40
0.0
 40
0.0
 40
0.0
 40
0.0
 40
0.2094668498
 40
0.4446559298
 40
0.7120302568
 40
1.0
 40
1.0
 40
1.0
 40
1.0
 10
636.2735896155
 20
136.4316490594
 30
0.0
 10
636.264131566
 20
136.396351138
 30
0.0
 10
636.2667396284
 20
136.3143907588
 30
0.0
 10
636.3312574203
 20
136.2040462956
 30
0.0
 10
636.4396265686
 20
136.1152577053
 30
0.0
 10
636.5303990419
 20
136.077337366
 30
0.0
 10
636.5789257341
 20
136.064334678
 30
0.0
  0
SPLINE
  5
71F
100
AcDbEntity
  8
0
100
AcDbSpline
 62
7
  6
CONTINUOUS
 70
0
 71
3
 72
11
 73
7
 74
0
 42
0.0000001
 43
0.0000001
 44
0.0000000001
 40
0.0
 40
0.0
 40
0.0
 40
0.0
 40
0.2094668498
 40
0.4446559298
 40
0.7120302568
 40
1.0
 40
1.0
 40
1.0
 40
1.0
 10
635.5598400782
 20
133.767899522
 30
0.0
 10
635.5503820286
 20
133.7326016006
 30
0.0
 10
635.552990091
 20
133.6506412214
 30
0.0
 10
635.617507883
 20
133.5402967582
 30
0.0
 10
635.7258770312
 20
133.451508168
 30
0.0
 10
635.8166495045
 20
133.4135878286
 30
0.0
 10
635.8651761967
 20
133.4005851407
 30
0.0
  0
SPLINE
  5
720
100
AcDbEntity
  8
0
100
AcDbSpline
 62
7
  6
CONTINUOUS
 70
0
 71
3
 72
9
 73
5
 74
0
 42
0.0000001
 43
0.0000001
 44
0.0000000001
 40
0.0
 40
0.0
 40
0.0
 40
0.0
 40
0.2432035461
 40
1.0
 40
1.0
 40
1.0
 40
1.0
 10
642.0015636746
 20
137.4663413705
 30
0.0
 10
642.0071650109
 20
137.4872458422
 30
0.0
 10
642.0230496996
 20
137.5751186774
 30
0.0
 10
642.0081443051
 20
137.6672433665
 30
0.0
 10
641.9842541051
 20
137.7302083697
 30
0.0
  0
SPLINE
  5
721
100
AcDbEntity
  8
0
100
AcDbSpline
 62
7
  6
CONTINUOUS
 70
0
 71
3
 72
9
 73
5
 74
0
 42
0.0000001
 43
0.0000001
 44
0.0000000001
 40
0.0
 40
0.0
 40
0.0
 40
0.0
 40
0.2401326547
 40
1.0
 40
1.0
 40
1.0
 40
1.0
 10
641.9842541051
 20
137.7302083697
 30
0.0
 10
641.9785552497
 20
137.7452282713
 30
0.0
 10
641.9519246152
 20
137.8066696684
 30
0.0
 10
641.9142972051
 20
137.8630786267
 30
0.0
 10
641.8818014252
 20
137.9021705211
 30
0.0
  0
SPLINE
  5
722
100
AcDbEntity
  8
0
100
AcDbSpline
 62
7
  6
CONTINUOUS
 70
0
 71
3
 72
9
 73
5
 74
0
 42
0.0000001
 43
0.0000001
 44
0.0000000001
 40
0.0
 40
0.0
 40
0.0
 40
0.0
 40
0.2356425559
 40
1.0
 40
1.0
 40
1.0
 40
1.0
 10
641.8818014252
 20
137.9021705211
 30
0.0
 10
641.8526865615
 20
137.9371952284
 30
0.0
 10
641.7151447168
 20
138.0740660602
 30
0.0
 10
641.5335945255
 20
138.162732956
 30
0.0
 10
641.3908914376
 20
138.2009701332
 30
0.0
  0
SPLINE
  5
723
100
AcDbEntity
  8
RUNDUNGEN
100
AcDbSpline
 62
7
  6
CONTINUOUS
 70
0
 71
3
 72
10
 73
6
 74
0
 42
0.0000001
 43
0.0000001
 44
0.0000000001
 40
0.0
 40
0.0
 40
0.0
 40
0.0
 40
0.2265435863
 40
0.4650408478
 40
1.0
 40
1.0
 40
1.0
 40
1.0
 10
612.5537299442
 20
148.214499083
 30
0.0
 10
612.5824658991
 20
148.3214734216
 30
0.0
 10
612.6807421369
 20
148.5322695721
 30
0.0
 10
613.0229488609
 20
148.8905200609
 30
0.0
 10
613.3925862997
 20
149.0381182383
 30
0.0
 10
613.6490431325
 20
149.0895542467
 30
0.0
  0
SPLINE
  5
724
100
AcDbEntity
  8
RUNDUNGEN
100
AcDbSpline
 62
7
  6
CONTINUOUS
 70
0
 71
3
 72
9
 73
5
 74
0
 42
0.0000001
 43
0.0000001
 44
0.0000000001
 40
0.0
 40
0.0
 40
0.0
 40
0.0
 40
0.4805181646
 40
1.0
 40
1.0
 40
1.0
 40
1.0
 10
611.6386506171
 20
144.7993830333
 30
0.0
 10
611.6019369062
 20
144.6626745834
 30
0.0
 10
611.5899482152
 20
144.3580361486
 30
0.0
 10
611.6985300938
 20
144.0763939212
 30
0.0
 10
611.7743947157
 20
143.9434921207
 30
0.0
  0
SPLINE
  5
725
100
AcDbEntity
  8
RUNDUNGEN
100
AcDbSpline
 62
7
  6
CONTINUOUS
 70
0
 71
3
 72
11
 73
7
 74
0
 42
0.0000001
 43
0.0000001
 44
0.0000000001
 40
0.0
 40
0.0
 40
0.0
 40
0.0
 40
0.2256920307
 40
0.4632775486
 40
0.7205987639
 40
1.0
 40
1.0
 40
1.0
 40
1.0
 10
603.2389613986
 20
165.8117540938
 30
0.0
 10
603.3271680509
 20
166.1412019117
 30
0.0
 10
603.6287968373
 20
166.7903689014
 30
0.0
 10
604.3921022453
 20
167.589451202
 30
0.0
 10
605.4128726602
 20
168.186636907
 30
0.0
 10
606.1960411228
 20
168.4242207679
 30
0.0
 10
606.6100107828
 20
168.507248179
 30
0.0
  0
SPLINE
  5
726
100
AcDbEntity
  8
RUNDUNGEN
100
AcDbSpline
 62
7
  6
CONTINUOUS
 70
0
 71
3
 72
9
 73
5
 74
0
 42
0.0000001
 43
0.0000001
 44
0.0000000001
 40
0.0
 40
0.0
 40
0.0
 40
0.0
 40
0.4805190228
 40
1.0
 40
1.0
 40
1.0
 40
1.0
 10
602.3238978891
 20
162.3966905844
 30
0.0
 10
602.2113718212
 20
161.9764108604
 30
0.0
 10
602.1754206932
 20
161.0400746016
 30
0.0
 10
602.509197705
 20
160.1745275213
 30
0.0
 10
602.7423783278
 20
159.7660350802
 30
0.0
  0
SPLINE
  5
727
100
AcDbEntity
  8
RUNDUNGEN
100
AcDbSpline
 62
7
  6
CONTINUOUS
 70
0
 71
3
 72
11
 73
7
 74
0
 42
0.0000001
 43
0.0000001
 44
0.0000000001
 40
0.0
 40
0.0
 40
0.0
 40
0.0
 40
0.2377805525
 40
0.4809056656
 40
0.7339193662
 40
1.0
 40
1.0
 40
1.0
 40
1.0
 10
665.1341793022
 20
102.2887963138
 30
0.0
 10
665.3208667168
 20
102.9855231336
 30
0.0
 10
665.854204062
 20
104.3577223999
 30
0.0
 10
667.0898505945
 20
106.227947753
 30
0.0
 10
668.7298421242
 20
107.877163887
 30
0.0
 10
670.030300995
 20
108.7808593645
 30
0.0
 10
670.7273288382
 20
109.1878576722
 30
0.0
  0
SPLINE
  5
728
100
AcDbEntity
  8
RUNDUNGEN
100
AcDbSpline
 62
7
  6
CONTINUOUS
 70
0
 71
3
 72
9
 73
5
 74
0
 42
0.0000001
 43
0.0000001
 44
0.0000000001
 40
0.0
 40
0.0
 40
0.0
 40
0.0
 40
0.4822746168
 40
1.0
 40
1.0
 40
1.0
 40
1.0
 10
665.7431323782
 20
103.9544855408
 30
0.0
 10
665.6429257504
 20
102.7838222588
 30
0.0
 10
665.8633152853
 20
100.3074993409
 30
0.0
 10
666.818228308
 20
98.0279277505
 30
0.0
 10
667.4435214133
 20
96.9325215203
 30
0.0
  0
SPLINE
  5
729
100
AcDbEntity
  8
RUNDUNGEN
100
AcDbSpline
 62
7
  6
CONTINUOUS
 70
0
 71
3
 72
9
 73
5
 74
0
 42
0.0000001
 43
0.0000001
 44
0.0000000001
 40
0.0
 40
0.0
 40
0.0
 40
0.0
 40
0.4805364501
 40
1.0
 40
1.0
 40
1.0
 40
1.0
 10
596.2556384124
 20
93.6109183296
 30
0.0
 10
596.368281615
 20
94.0313084846
 30
0.0
 10
596.805255924
 20
94.8605186982
 30
0.0
 10
597.5272972419
 20
95.4434042813
 30
0.0
 10
597.9335833189
 20
95.6806369075
 30
0.0
  0
SPLINE
  5
72A
100
AcDbEntity
  8
BEZUGSACHSEN
100
AcDbSpline
 62
7
  6
CONTINUOUS
 70
0
 71
3
 72
9
 73
5
 74
0
 42
0.0000001
 43
0.0000001
 44
0.0000000001
 40
0.0
 40
0.0
 40
0.0
 40
0.0
 40
0.4744816413
 40
1.0
 40
1.0
 40
1.0
 40
1.0
 10
651.3009361104
 20
147.9610505516
 30
0.0
 10
651.4662108054
 20
147.5275903078
 30
0.0
 10
651.9904462284
 20
146.6783597699
 30
0.0
 10
652.7293023969
 20
146.0202089901
 30
0.0
 10
653.1494519872
 20
145.7244665182
 30
0.0
  0
SPLINE
  5
72B
100
AcDbEntity
  8
BEZUGSACHSEN
100
AcDbSpline
 62
7
  6
CONTINUOUS
 70
0
 71
3
 72
9
 73
5
 74
0
 42
0.0000001
 43
0.0000001
 44
0.0000000001
 40
0.0
 40
0.0
 40
0.0
 40
0.0
 40
0.5255183587
 40
1.0
 40
1.0
 40
1.0
 40
1.0
 10
658.0423973463
 20
144.4134057606
 30
0.0
 10
658.5541288008
 20
144.4594514591
 30
0.0
 10
659.5230724024
 20
144.6599986697
 30
0.0
 10
660.4016888652
 20
145.1333361777
 30
0.0
 10
660.7615510716
 20
145.4260864128
 30
0.0
  0
SPLINE
  5
72C
100
AcDbEntity
  8
BEZUGSACHSEN
100
AcDbSpline
 62
7
  6
CONTINUOUS
 70
0
 71
3
 72
11
 73
7
 74
0
 42
0.0000001
 43
0.0000001
 44
0.0000000001
 40
0.0
 40
0.0
 40
0.0
 40
0.0
 40
0.2211899434
 40
0.4572145773
 40
0.7166495597
 40
1.0
 40
1.0
 40
1.0
 40
1.0
 10
660.8869398028
 20
143.5649052726
 30
0.0
 10
660.9796319661
 20
143.9108371353
 30
0.0
 10
661.0268865284
 20
144.6712966141
 30
0.0
 10
660.6690146702
 20
145.7972359701
 30
0.0
 10
659.9376080398
 20
146.8433176055
 30
0.0
 10
659.265172589
 20
147.4230078996
 30
0.0
 10
658.8887676248
 20
147.6853038976
 30
0.0
  0
SPLINE
  5
72D
100
AcDbEntity
  8
BEZUGSACHSEN
100
AcDbSpline
 62
7
  6
CONTINUOUS
 70
0
 71
3
 72
11
 73
7
 74
0
 42
0.0000001
 43
0.0000001
 44
0.0000000001
 40
0.0
 40
0.0
 40
0.0
 40
0.0
 40
0.2833504403
 40
0.5427854227
 40
0.7788100566
 40
1.0
 40
1.0
 40
1.0
 40
1.0
 10
654.0524228935
 20
148.9811985627
 30
0.0
 10
653.5952986334
 20
148.9422460472
 30
0.0
 10
652.7231073036
 20
148.7764372516
 30
0.0
 10
651.5666497635
 20
148.2362072961
 30
0.0
 10
650.6937539649
 20
147.4400511398
 30
0.0
 10
650.3544478769
 20
146.7578466314
 30
0.0
 10
650.2617557137
 20
146.4119147687
 30
0.0
  0
SPLINE
  5
72E
100
AcDbEntity
  8
RUNDUNGEN
100
AcDbSpline
 62
7
  6
CONTINUOUS
 70
0
 71
3
 72
9
 73
5
 74
0
 42
0.0000001
 43
0.0000001
 44
0.0000000001
 40
0.0
 40
0.0
 40
0.0
 40
0.0
 40
0.5194633855
 40
1.0
 40
1.0
 40
1.0
 40
1.0
 10
680.8388274997
 20
73.466243681
 30
0.0
 10
681.0720651765
 20
73.0576512911
 30
0.0
 10
681.4059285463
 20
72.1918369494
 30
0.0
 10
681.3697543669
 20
71.2552326593
 30
0.0
 10
681.2571111259
 20
70.8348423605
 30
0.0
  0
SPLINE
  5
72F
100
AcDbEntity
  8
RUNDUNGEN
100
AcDbSpline
 62
7
  6
CONTINUOUS
 70
0
 71
3
 72
10
 73
6
 74
0
 42
0.0000001
 43
0.0000001
 44
0.0000000001
 40
0.0
 40
0.0
 40
0.0
 40
0.0
 40
0.5349738236
 40
0.7734707683
 40
1.0
 40
1.0
 40
1.0
 40
1.0
 10
712.4831999052
 20
138.4590642798
 30
0.0
 10
712.6846243395
 20
138.2818530424
 30
0.0
 10
712.937265987
 20
137.9611796658
 30
0.0
 10
713.0574914458
 20
137.4674668821
 30
0.0
 10
713.0366767671
 20
137.229837375
 30
0.0
 10
713.0073399342
 20
137.1200891474
 30
0.0
  0
SPLINE
  5
730
100
AcDbEntity
  8
RUNDUNGEN
100
AcDbSpline
 62
7
  6
CONTINUOUS
 70
0
 71
3
 72
10
 73
6
 74
0
 42
0.0000001
 43
0.0000001
 44
0.0000000001
 40
0.0
 40
0.0
 40
0.0
 40
0.0
 40
0.480919237
 40
0.7459271749
 40
1.0
 40
1.0
 40
1.0
 40
1.0
 10
703.9381141054
 20
143.9162170597
 30
0.0
 10
704.3457031639
 20
144.1542105039
 30
0.0
 10
705.1434732579
 20
144.2384951951
 30
0.0
 10
706.0880464742
 20
143.9674839147
 30
0.0
 10
706.5313338795
 20
143.6954575046
 30
0.0
 10
706.7185458334
 20
143.5307502678
 30
0.0
  0
SPLINE
  5
731
100
AcDbEntity
  8
0
100
AcDbSpline
 62
7
  6
CONTINUOUS
 70
0
 71
3
 72
9
 73
5
 74
0
 42
0.0000001
 43
0.0000001
 44
0.0000000001
 40
0.0
 40
0.0
 40
0.0
 40
0.0
 40
0.2469303797
 40
1.0
 40
1.0
 40
1.0
 40
1.0
 10
665.3049387054
 20
152.6869572495
 30
0.0
 10
664.9519956919
 20
152.8968740583
 30
0.0
 10
663.5022653837
 20
153.7123122284
 30
0.0
 10
661.9754821879
 20
154.3897264714
 30
0.0
 10
660.7993740593
 20
154.8200780988
 30
0.0
  0
SPLINE
  5
732
100
AcDbEntity
  8
0
100
AcDbSpline
 62
7
  6
CONTINUOUS
 70
0
 71
3
 72
9
 73
5
 74
0
 42
0.0000001
 43
0.0000001
 44
0.0000000001
 40
0.0
 40
0.0
 40
0.0
 40
0.0
 40
0.2528805792
 40
1.0
 40
1.0
 40
1.0
 40
1.0
 10
655.9651762852
 20
156.1153974884
 30
0.0
 10
655.5509005581
 20
156.1877138872
 30
0.0
 10
653.9065081141
 20
156.4367448735
 30
0.0
 10
652.2390370066
 20
156.5369444833
 30
0.0
 10
650.9966824186
 20
156.5208429667
 30
0.0
  0
SPLINE
  5
733
100
AcDbEntity
  8
RUNDUNGEN
100
AcDbSpline
 62
7
  6
CONTINUOUS
 70
0
 71
3
 72
9
 73
5
 74
0
 42
0.0000001
 43
0.0000001
 44
0.0000000001
 40
0.0
 40
0.0
 40
0.0
 40
0.0
 40
0.2416515958
 40
1.0
 40
1.0
 40
1.0
 40
1.0
 10
608.40243456
 20
168.8667438623
 30
0.0
 10
609.58780887
 20
169.1044872759
 30
0.0
 10
614.5778058952
 20
169.633172937
 30
0.0
 10
619.7067960659
 20
168.5098135388
 30
0.0
 10
623.1408601265
 20
166.8968303148
 30
0.0
  0
SPLINE
  5
734
100
AcDbEntity
  8
0
100
AcDbSpline
 62
7
  6
CONTINUOUS
 70
0
 71
3
 72
11
 73
7
 74
0
 42
0.0000001
 43
0.0000001
 44
0.0000000001
 40
0.0
 40
0.0
 40
0.0
 40
0.0
 40
0.2880052506
 40
0.5553344723
 40
0.7905070702
 40
1.0
 40
1.0
 40
1.0
 40
1.0
 10
635.3635142815
 20
139.8160009746
 30
0.0
 10
635.2664496101
 20
139.842009375
 30
0.0
 10
635.07130542
 20
139.8671229892
 30
0.0
 10
634.7948508553
 20
139.8216258795
 30
0.0
 10
634.5727318309
 20
139.6951028579
 30
0.0
 10
634.4862605512
 20
139.5557340601
 30
0.0
 10
634.4673422295
 20
139.4851299223
 30
0.0
  0
SPLINE
  5
735
100
AcDbEntity
  8
0
100
AcDbSpline
 62
7
  6
CONTINUOUS
 70
0
 71
3
 72
11
 73
7
 74
0
 42
0.0000001
 43
0.0000001
 44
0.0000000001
 40
0.0
 40
0.0
 40
0.0
 40
0.0
 40
0.2879697432
 40
0.5553440702
 40
0.7905331502
 40
1.0
 40
1.0
 40
1.0
 40
1.0
 10
638.4624810953
 20
135.5596375401
 30
0.0
 10
638.5110077875
 20
135.5466348521
 30
0.0
 10
638.608579225
 20
135.5340885927
 30
0.0
 10
638.7468239555
 20
135.5567971932
 30
0.0
 10
638.8578702339
 20
135.6200994055
 30
0.0
 10
638.9011090718
 20
135.6897751449
 30
0.0
 10
638.9105671213
 20
135.7250730662
 30
0.0
  0
SPLINE
  5
736
100
AcDbEntity
  8
0
100
AcDbSpline
 62
7
  6
CONTINUOUS
 70
0
 71
3
 72
11
 73
7
 74
0
 42
0.0000001
 43
0.0000001
 44
0.0000000001
 40
0.0
 40
0.0
 40
0.0
 40
0.0
 40
0.2879697432
 40
0.5553440702
 40
0.7905331502
 40
1.0
 40
1.0
 40
1.0
 40
1.0
 10
637.7487315579
 20
132.8958880027
 30
0.0
 10
637.7972582501
 20
132.8828853147
 30
0.0
 10
637.8948296876
 20
132.8703390553
 30
0.0
 10
638.0330744181
 20
132.8930476558
 30
0.0
 10
638.1441206965
 20
132.9563498682
 30
0.0
 10
638.1873595344
 20
133.0260256075
 30
0.0
 10
638.1968175839
 20
133.0613235289
 30
0.0
  0
SPLINE
  5
737
100
AcDbEntity
  8
0
100
AcDbSpline
 62
7
  6
CONTINUOUS
 70
0
 71
3
 72
9
 73
5
 74
0
 42
0.0000001
 43
0.0000001
 44
0.0000000001
 40
0.0
 40
0.0
 40
0.0
 40
0.0
 40
0.5597866015
 40
1.0
 40
1.0
 40
1.0
 40
1.0
 10
637.3819028984
 20
137.7049263925
 30
0.0
 10
637.3448906835
 20
137.7148437856
 30
0.0
 10
637.272276541
 20
137.7192296061
 30
0.0
 10
637.2104674766
 20
137.6678584037
 30
0.0
 10
637.202668488
 20
137.638752182
 30
0.0
  0
SPLINE
  5
738
100
AcDbEntity
  8
0
100
AcDbSpline
 62
7
  6
CONTINUOUS
 70
0
 71
3
 72
9
 73
5
 74
0
 42
0.0000001
 43
0.0000001
 44
0.0000000001
 40
0.0
 40
0.0
 40
0.0
 40
0.0
 40
0.5597866015
 40
1.0
 40
1.0
 40
1.0
 40
1.0
 10
636.668153361
 20
135.0411768551
 30
0.0
 10
636.6311411461
 20
135.0510942482
 30
0.0
 10
636.5585270037
 20
135.0554800687
 30
0.0
 10
636.4967179392
 20
135.0041088663
 30
0.0
 10
636.4889189506
 20
134.9750026447
 30
0.0
  0
SPLINE
  5
739
100
AcDbEntity
  8
0
100
AcDbSpline
 62
7
  6
CONTINUOUS
 70
0
 71
3
 72
9
 73
5
 74
0
 42
0.0000001
 43
0.0000001
 44
0.0000000001
 40
0.0
 40
0.0
 40
0.0
 40
0.0
 40
0.5597866015
 40
1.0
 40
1.0
 40
1.0
 40
1.0
 10
637.3313649982
 20
134.5779700176
 30
0.0
 10
637.368377213
 20
134.5680526245
 30
0.0
 10
637.4409913555
 20
134.563666804
 30
0.0
 10
637.50280042
 20
134.6150380064
 30
0.0
 10
637.5105994085
 20
134.644144228
 30
0.0
  0
SPLINE
  5
73A
100
AcDbEntity
  8
0
100
AcDbSpline
 62
7
  6
CONTINUOUS
 70
0
 71
3
 72
11
 73
7
 74
0
 42
0.0000001
 43
0.0000001
 44
0.0000000001
 40
0.0
 40
0.0
 40
0.0
 40
0.0
 40
0.2880001164
 40
0.5553425139
 40
0.7905343079
 40
1.0
 40
1.0
 40
1.0
 40
1.0
 10
648.577198153
 20
133.3477629847
 30
0.0
 10
648.7524236062
 20
133.300811466
 30
0.0
 10
649.1047120846
 20
133.2555062878
 30
0.0
 10
649.6038331012
 20
133.3375421207
 30
0.0
 10
650.0047759874
 20
133.5660543819
 30
0.0
 10
650.1608658625
 20
133.8176400322
 30
0.0
 10
650.1950142249
 20
133.9450834558
 30
0.0
  0
SPLINE
  5
73B
100
AcDbEntity
  8
0
100
AcDbSpline
 62
7
  6
CONTINUOUS
 70
0
 71
3
 72
8
 73
4
 74
0
 42
0.0000001
 43
0.0000001
 44
0.0000000001
 40
0.0
 40
0.0
 40
0.0
 40
0.0
 40
1.0
 40
1.0
 40
1.0
 40
1.0
 10
668.0723595862
 20
131.0041089874
 30
0.0
 10
667.9834168032
 20
131.0599760242
 30
0.0
 10
667.8846024213
 20
131.1020016706
 30
0.0
 10
667.7831482726
 20
131.1291862278
 30
0.0
  0
SPLINE
  5
73C
100
AcDbEntity
  8
0
100
AcDbSpline
 62
7
  6
CONTINUOUS
 70
0
 71
3
 72
11
 73
7
 74
0
 42
0.0000001
 43
0.0000001
 44
0.0000000001
 40
0.0
 40
0.0
 40
0.0
 40
0.0
 40
0.2779817175
 40
0.5346952233
 40
0.772857858
 40
1.0
 40
1.0
 40
1.0
 40
1.0
 10
666.4354783013
 20
125.0777944343
 30
0.0
 10
666.7378756301
 20
125.1500340895
 30
0.0
 10
667.308708578
 20
125.3450563337
 30
0.0
 10
668.0490299004
 20
125.8081037886
 30
0.0
 10
668.6017461377
 20
126.4120182018
 30
0.0
 10
668.8217754939
 20
126.8954156984
 30
0.0
 10
668.8875272267
 20
127.1408045056
 30
0.0
  0
SPLINE
  5
73D
100
AcDbEntity
  8
0
100
AcDbSpline
 62
7
  6
CONTINUOUS
 70
0
 71
3
 72
9
 73
5
 74
0
 42
0.0000001
 43
0.0000001
 44
0.0000000001
 40
0.0
 40
0.0
 40
0.0
 40
0.0
 40
0.2591205677
 40
1.0
 40
1.0
 40
1.0
 40
1.0
 10
666.1917315684
 20
125.0842759096
 30
0.0
 10
666.2121866604
 20
125.0787949842
 30
0.0
 10
666.2921962464
 20
125.0621952067
 30
0.0
 10
666.3765869155
 20
125.0637258794
 30
0.0
 10
666.4354783013
 20
125.0777944343
 30
0.0
  0
SPLINE
  5
73E
100
AcDbEntity
  8
RUNDUNGEN
100
AcDbSpline
 62
7
  6
CONTINUOUS
 70
0
 71
3
 72
11
 73
7
 74
0
 42
0.0000001
 43
0.0000001
 44
0.0000000001
 40
0.0
 40
0.0
 40
0.0
 40
0.0
 40
0.287975155
 40
0.5553539353
 40
0.7905396327
 40
1.0
 40
1.0
 40
1.0
 40
1.0
 10
601.2028383144
 20
75.3689383199
 30
0.0
 10
601.265053205
 20
75.3522678903
 30
0.0
 10
601.3901471835
 20
75.3361831671
 30
0.0
 10
601.567385364
 20
75.3652984059
 30
0.0
 10
601.7097504504
 20
75.4464563686
 30
0.0
 10
601.7651822466
 20
75.5357827937
 30
0.0
 10
601.7773075785
 20
75.5810351483
 30
0.0
  0
SPLINE
  5
73F
100
AcDbEntity
  8
RUNDUNGEN
100
AcDbSpline
 62
7
  6
CONTINUOUS
 70
0
 71
3
 72
13
 73
9
 74
0
 42
0.0000001
 43
0.0000001
 44
0.0000000001
 40
0.0
 40
0.0
 40
0.0
 40
0.0
 40
0.1034546064
 40
0.2106689685
 40
0.3244963058
 40
0.4464318167
 40
0.7129512659
 40
1.0
 40
1.0
 40
1.0
 40
1.0
 10
593.124619176
 20
81.9257954598
 30
0.0
 10
593.0525227562
 20
81.6567279578
 30
0.0
 10
592.983045202
 20
81.0850972099
 30
0.0
 10
593.1153525724
 20
80.2121051444
 30
0.0
 10
593.4722313812
 20
79.351552451
 30
0.0
 10
594.2460915366
 20
78.2323059187
 30
0.0
 10
595.6805427664
 20
77.0569851628
 30
0.0
 10
597.0755339125
 20
76.4748462014
 30
0.0
 10
597.8220979224
 20
76.2748049778
 30
0.0
  0
SPLINE
  5
740
100
AcDbEntity
  8
RUNDUNGEN
100
AcDbSpline
 62
7
  6
CONTINUOUS
 70
0
 71
3
 72
10
 73
6
 74
0
 42
0.0000001
 43
0.0000001
 44
0.0000000001
 40
0.0
 40
0.0
 40
0.0
 40
0.0
 40
0.4808964563
 40
0.7459158441
 40
1.0
 40
1.0
 40
1.0
 40
1.0
 10
605.187286567
 20
155.4829753529
 30
0.0
 10
605.4154120314
 20
155.0833386822
 30
0.0
 10
606.0479190468
 20
154.623258016
 30
0.0
 10
606.9776084324
 20
154.3915961264
 30
0.0
 10
607.4845454014
 20
154.4051823461
 30
0.0
 10
607.7229280252
 20
154.4529933188
 30
0.0
  0
SPLINE
  5
741
100
AcDbEntity
  8
RUNDUNGEN
100
AcDbSpline
 62
7
  6
CONTINUOUS
 70
0
 71
3
 72
9
 73
5
 74
0
 42
0.0000001
 43
0.0000001
 44
0.0000000001
 40
0.0
 40
0.0
 40
0.0
 40
0.0
 40
0.5194816466
 40
1.0
 40
1.0
 40
1.0
 40
1.0
 10
711.5327780352
 20
133.0143789965
 30
0.0
 10
711.6683297257
 20
133.0935283579
 30
0.0
 10
711.9092271155
 20
133.2880292262
 30
0.0
 10
712.0548001491
 20
133.5648016639
 30
0.0
 10
712.0922875035
 20
133.7050733698
 30
0.0
  0
SPLINE
  5
742
100
AcDbEntity
  8
RUNDUNGEN
100
AcDbSpline
 62
7
  6
CONTINUOUS
 70
0
 71
3
 72
13
 73
9
 74
0
 42
0.0000001
 43
0.0000001
 44
0.0000000001
 40
0.0
 40
0.0
 40
0.0
 40
0.0
 40
0.2870489714
 40
0.5535683803
 40
0.6755038887
 40
0.7893312167
 40
0.8965454657
 40
1.0
 40
1.0
 40
1.0
 40
1.0
 10
671.2324607204
 20
56.60455755
 30
0.0
 10
671.979025347
 20
56.4045161612
 30
0.0
 10
673.4781931992
 20
56.2111677661
 30
0.0
 10
675.3081252162
 20
56.5118003957
 30
0.0
 10
676.5379307498
 20
57.0941665495
 30
0.0
 10
677.2772726837
 20
57.6609877681
 30
0.0
 10
677.8283497711
 20
58.3508670807
 30
0.0
 10
678.0539955199
 20
58.8806521766
 30
0.0
 10
678.1260918895
 20
59.1497194908
 30
0.0
  0
SPLINE
  5
743
100
AcDbEntity
  8
RUNDUNGEN
100
AcDbSpline
 62
7
  6
CONTINUOUS
 70
0
 71
3
 72
11
 73
7
 74
0
 42
0.0000001
 43
0.0000001
 44
0.0000000001
 40
0.0
 40
0.0
 40
0.0
 40
0.0
 40
0.2094711443
 40
0.4446658249
 40
0.7120384825
 40
1.0
 40
1.0
 40
1.0
 40
1.0
 10
667.4602637662
 20
57.9813400814
 30
0.0
 10
667.4481378146
 20
57.936085414
 30
0.0
 10
667.4514825413
 20
57.8310055117
 30
0.0
 10
667.5342003275
 20
57.6895376385
 30
0.0
 10
667.6731353224
 20
57.5757080108
 30
0.0
 10
667.7895084054
 20
57.5270938424
 30
0.0
 10
667.8517203284
 20
57.5104242079
 30
0.0
  0
SPLINE
  5
744
100
AcDbEntity
  8
RUNDUNGEN
100
AcDbSpline
 62
7
  6
CONTINUOUS
 70
0
 71
3
 72
9
 73
5
 74
0
 42
0.0000001
 43
0.0000001
 44
0.0000000001
 40
0.0
 40
0.0
 40
0.0
 40
0.0
 40
0.4729729907
 40
1.0
 40
1.0
 40
1.0
 40
1.0
 10
651.12892346
 20
75.0011103794
 30
0.0
 10
651.5806400686
 20
74.2097803886
 30
0.0
 10
652.9903875558
 20
72.7947213834
 30
0.0
 10
654.7839981867
 20
71.9926719162
 30
0.0
 10
655.7647181736
 20
71.7298887877
 30
0.0
  0
SPLINE
  5
745
100
AcDbEntity
  8
RUNDUNGEN
100
AcDbSpline
 62
7
  6
CONTINUOUS
 70
0
 71
3
 72
9
 73
5
 74
0
 42
0.0000001
 43
0.0000001
 44
0.0000000001
 40
0.0
 40
0.0
 40
0.0
 40
0.0
 40
0.5270273161
 40
1.0
 40
1.0
 40
1.0
 40
1.0
 10
618.780221526
 20
81.6398547969
 30
0.0
 10
619.760942085
 20
81.3770715151
 30
0.0
 10
621.715279297
 20
81.1748615787
 30
0.0
 10
623.6436857662
 20
81.6954651669
 30
0.0
 10
624.4305483105
 20
82.1549184399
 30
0.0
  0
SPLINE
  5
746
100
AcDbEntity
  8
RUNDUNGEN
100
AcDbSpline
 62
7
  6
CONTINUOUS
 70
0
 71
3
 72
13
 73
9
 74
0
 42
0.0000001
 43
0.0000001
 44
0.0000000001
 40
0.0
 40
0.0
 40
0.0
 40
0.0
 40
0.1034546064
 40
0.2106689685
 40
0.3244963058
 40
0.4464318167
 40
0.7129512659
 40
1.0
 40
1.0
 40
1.0
 40
1.0
 10
603.3329155446
 20
81.3866431144
 30
0.0
 10
603.4050119645
 20
81.6557106164
 30
0.0
 10
603.6306580115
 20
82.1854961427
 30
0.0
 10
604.1817355882
 20
82.8753757636
 30
0.0
 10
604.9210780494
 20
83.4421968529
 30
0.0
 10
606.150883869
 20
84.0245627053
 30
0.0
 10
607.9808154525
 20
84.3251947227
 30
0.0
 10
609.4799827037
 20
84.1318462787
 30
0.0
 10
610.2265467137
 20
83.9318050552
 30
0.0
  0
SPLINE
  5
747
100
AcDbEntity
  8
RUNDUNGEN
100
AcDbSpline
 62
7
  6
CONTINUOUS
 70
0
 71
3
 72
13
 73
9
 74
0
 42
0.0000001
 43
0.0000001
 44
0.0000000001
 40
0.0
 40
0.0
 40
0.0
 40
0.0
 40
0.2870489714
 40
0.5535683803
 40
0.6755038887
 40
0.7893312167
 40
0.8965454657
 40
1.0
 40
1.0
 40
1.0
 40
1.0
 10
664.3183929859
 20
69.4379385294
 30
0.0
 10
665.0649576125
 20
69.2378971406
 30
0.0
 10
666.4599492546
 20
68.6557578365
 30
0.0
 10
667.8944005537
 20
67.4804363336
 30
0.0
 10
668.6682603106
 20
66.3611896832
 30
0.0
 10
669.0251385982
 20
65.5006371415
 30
0.0
 10
669.157445699
 20
64.6276455876
 30
0.0
 10
669.0879681018
 20
64.0560153616
 30
0.0
 10
669.0158717323
 20
63.7869480475
 30
0.0
  0
SPLINE
  5
748
100
AcDbEntity
  8
RUNDUNGEN
100
AcDbSpline
 62
7
  6
CONTINUOUS
 70
0
 71
3
 72
13
 73
9
 74
0
 42
0.0000001
 43
0.0000001
 44
0.0000000001
 40
0.0
 40
0.0
 40
0.0
 40
0.0
 40
0.2360077347
 40
0.3661261322
 40
0.5000000765
 40
0.633874052
 40
0.7639924192
 40
1.0
 40
1.0
 40
1.0
 40
1.0
 10
633.3491536477
 20
87.3625400794
 30
0.0
 10
634.3175974353
 20
87.9280196173
 30
0.0
 10
636.0668602117
 20
88.3993049163
 30
0.0
 10
638.4461556179
 20
88.384003443
 30
0.0
 10
640.3173626556
 20
88.0485615201
 30
0.0
 10
642.1055961769
 20
87.4034588999
 30
0.0
 10
644.1737763048
 20
86.2270625705
 30
0.0
 10
645.4530387008
 20
84.9442865849
 30
0.0
 10
646.0089954915
 20
83.9703456811
 30
0.0
  0
SPLINE
  5
749
100
AcDbEntity
  8
RUNDUNGEN
100
AcDbSpline
 62
7
  6
CONTINUOUS
 70
0
 71
3
 72
9
 73
5
 74
0
 42
0.0000001
 43
0.0000001
 44
0.0000000001
 40
0.0
 40
0.0
 40
0.0
 40
0.0
 40
0.5177253986
 40
1.0
 40
1.0
 40
1.0
 40
1.0
 10
621.2673976009
 20
109.3053766055
 30
0.0
 10
622.3566258057
 20
109.9413828145
 30
0.0
 10
624.3233996265
 20
111.4381019509
 30
0.0
 10
625.7524263219
 20
113.4724797933
 30
0.0
 10
626.2509751119
 20
114.5364142125
 30
0.0
  0
SPLINE
  5
74A
100
AcDbEntity
  8
RUNDUNGEN
100
AcDbSpline
 62
7
  6
CONTINUOUS
 70
0
 71
3
 72
11
 73
7
 74
0
 42
0.0000001
 43
0.0000001
 44
0.0000000001
 40
0.0
 40
0.0
 40
0.0
 40
0.0
 40
0.2660806569
 40
0.5190943725
 40
0.7622194677
 40
1.0
 40
1.0
 40
1.0
 40
1.0
 10
624.5512050257
 20
121.5607127574
 30
0.0
 10
624.9513497773
 20
120.8597278111
 30
0.0
 10
625.6257325519
 20
119.4268748225
 30
0.0
 10
626.2213988051
 20
117.1786156101
 30
0.0
 10
626.3563872093
 20
114.9411294354
 30
0.0
 10
626.1321710501
 20
113.4861013045
 30
0.0
 10
625.9454836274
 20
112.7893744544
 30
0.0
  0
SPLINE
  5
74B
100
AcDbEntity
  8
RUNDUNGEN
100
AcDbSpline
 62
7
  6
CONTINUOUS
 70
0
 71
3
 72
10
 73
6
 74
0
 42
0.0000001
 43
0.0000001
 44
0.0000000001
 40
0.0
 40
0.0
 40
0.0
 40
0.0
 40
0.2540843695
 40
0.5191023225
 40
1.0
 40
1.0
 40
1.0
 40
1.0
 10
612.4728510348
 20
155.4056568795
 30
0.0
 10
612.8701557261
 20
155.4853418978
 30
0.0
 10
613.7150486957
 20
155.5079852209
 30
0.0
 10
615.2645310183
 20
155.1218834569
 30
0.0
 10
616.318710074
 20
154.3550829391
 30
0.0
 10
616.6989201318
 20
153.6890201559
 30
0.0
  0
SPLINE
  5
74C
100
AcDbEntity
  8
RUNDUNGEN
100
AcDbSpline
 62
7
  6
CONTINUOUS
 70
0
 71
3
 72
9
 73
5
 74
0
 42
0.0000001
 43
0.0000001
 44
0.0000000001
 40
0.0
 40
0.0
 40
0.0
 40
0.0
 40
0.5194813996
 40
1.0
 40
1.0
 40
1.0
 40
1.0
 10
619.0832108114
 20
149.5121519921
 30
0.0
 10
619.2096545458
 20
149.2906442652
 30
0.0
 10
619.3906263931
 20
148.8212288818
 30
0.0
 10
619.3706382534
 20
148.313486132
 30
0.0
 10
619.3094423685
 20
148.0856347867
 30
0.0
  0
SPLINE
  5
74D
100
AcDbEntity
  8
RUNDUNGEN
100
AcDbSpline
 62
7
  6
CONTINUOUS
 70
0
 71
3
 72
11
 73
7
 74
0
 42
0.0000001
 43
0.0000001
 44
0.0000000001
 40
0.0
 40
0.0
 40
0.0
 40
0.0
 40
0.2524374527
 40
0.5157480209
 40
0.7702932627
 40
1.0
 40
1.0
 40
1.0
 40
1.0
 10
682.9668688846
 20
137.6979216583
 30
0.0
 10
683.5285013388
 20
137.2038029457
 30
0.0
 10
684.8529955425
 20
136.38738824
 30
0.0
 10
687.0747197075
 20
135.7585664493
 30
0.0
 10
689.3178869399
 20
135.7472069994
 30
0.0
 10
690.7203402923
 20
136.1982878171
 30
0.0
 10
691.3081640685
 20
136.5415212826
 30
0.0
  0
SPLINE
  5
74E
100
AcDbEntity
  8
0
100
AcDbSpline
 62
7
  6
CONTINUOUS
 70
0
 71
3
 72
9
 73
5
 74
0
 42
0.0000001
 43
0.0000001
 44
0.0000000001
 40
0.0
 40
0.0
 40
0.0
 40
0.0
 40
0.4402133985
 40
1.0
 40
1.0
 40
1.0
 40
1.0
 10
637.9531241217
 20
136.2956689412
 30
0.0
 10
637.9609231103
 20
136.3247751629
 30
0.0
 10
637.9330804915
 20
136.4001684614
 30
0.0
 10
637.8680018892
 20
136.4326773007
 30
0.0
 10
637.8309896743
 20
136.4425946938
 30
0.0
  0
SPLINE
  5
74F
100
AcDbEntity
  8
0
100
AcDbSpline
 62
7
  6
CONTINUOUS
 70
0
 71
3
 72
11
 73
7
 74
0
 42
0.0000001
 43
0.0000001
 44
0.0000000001
 40
0.0
 40
0.0
 40
0.0
 40
0.0
 40
0.2094656921
 40
0.4446574861
 40
0.7119998836
 40
1.0
 40
1.0
 40
1.0
 40
1.0
 10
650.1950142249
 20
133.9450834558
 30
0.0
 10
650.2291625873
 20
134.0725268794
 30
0.0
 10
650.2197776154
 20
134.3684513814
 30
0.0
 10
649.9868070211
 20
134.7668202478
 30
0.0
 10
649.5955734576
 20
135.0874258713
 30
0.0
 10
649.2678300968
 20
135.2243346753
 30
0.0
 10
649.0926046436
 20
135.271286194
 30
0.0
  0
SPLINE
  5
750
100
AcDbEntity
  8
0
100
AcDbSpline
 62
7
  6
CONTINUOUS
 70
0
 71
3
 72
9
 73
5
 74
0
 42
0.0000001
 43
0.0000001
 44
0.0000000001
 40
0.0
 40
0.0
 40
0.0
 40
0.0
 40
0.4402133985
 40
1.0
 40
1.0
 40
1.0
 40
1.0
 10
636.9028936823
 20
136.5199773763
 30
0.0
 10
636.8950946937
 20
136.4908711547
 30
0.0
 10
636.9229373125
 20
136.4154778562
 30
0.0
 10
636.9880159148
 20
136.3829690169
 30
0.0
 10
637.0250281297
 20
136.3730516238
 30
0.0
  0
SPLINE
  5
751
100
AcDbEntity
  8
0
100
AcDbSpline
 62
7
  6
CONTINUOUS
 70
0
 71
3
 72
11
 73
7
 74
0
 42
0.0000001
 43
0.0000001
 44
0.0000000001
 40
0.0
 40
0.0
 40
0.0
 40
0.0
 40
0.2094929298
 40
0.4446655277
 40
0.7119947494
 40
1.0
 40
1.0
 40
1.0
 40
1.0
 10
632.8970932473
 20
133.6248809401
 30
0.0
 10
632.8781749256
 20
133.5542768023
 30
0.0
 10
632.8833768516
 20
133.3903442431
 30
0.0
 10
633.0124760586
 20
133.1697125801
 30
0.0
 10
633.2291441797
 20
132.9920836449
 30
0.0
 10
633.4107008129
 20
132.9162605778
 30
0.0
 10
633.5077654843
 20
132.8902521775
 30
0.0
  0
SPLINE
  5
752
100
AcDbEntity
  8
0
100
AcDbSpline
 62
7
  6
CONTINUOUS
 70
0
 71
3
 72
9
 73
5
 74
0
 42
0.0000001
 43
0.0000001
 44
0.0000000001
 40
0.0
 40
0.0
 40
0.0
 40
0.0
 40
0.471076254
 40
1.0
 40
1.0
 40
1.0
 40
1.0
 10
638.6250673064
 20
134.6595732513
 30
0.0
 10
638.6345253559
 20
134.6948711726
 30
0.0
 10
638.6320050473
 20
134.7767424487
 30
0.0
 10
638.591429504
 20
134.8459406795
 30
0.0
 10
638.5652009016
 20
134.8774932613
 30
0.0
  0
SPLINE
  5
753
100
AcDbEntity
  8
0
100
AcDbSpline
 62
7
  6
CONTINUOUS
 70
0
 71
3
 72
8
 73
4
 74
0
 42
0.0000001
 43
0.0000001
 44
0.0000000001
 40
0.0
 40
0.0
 40
0.0
 40
0.0
 40
1.0
 40
1.0
 40
1.0
 40
1.0
 10
638.5652009016
 20
134.8774932613
 30
0.0
 10
638.5506406757
 20
134.8950089761
 30
0.0
 10
638.5343564192
 20
134.9111806864
 30
0.0
 10
638.5169839958
 20
134.9259115844
 30
0.0
  0
SPLINE
  5
754
100
AcDbEntity
  8
0
100
AcDbSpline
 62
7
  6
CONTINUOUS
 70
0
 71
3
 72
9
 73
5
 74
0
 42
0.0000001
 43
0.0000001
 44
0.0000000001
 40
0.0
 40
0.0
 40
0.0
 40
0.0
 40
0.241609722
 40
1.0
 40
1.0
 40
1.0
 40
1.0
 10
638.5169839958
 20
134.9259115844
 30
0.0
 10
638.5033095922
 20
134.9375067569
 30
0.0
 10
638.443748528
 20
134.9819514602
 30
0.0
 10
638.374090042
 20
135.0123222215
 30
0.0
 10
638.3197311878
 20
135.0268876326
 30
0.0
  0
SPLINE
  5
755
100
AcDbEntity
  8
0
100
AcDbSpline
 62
7
  6
CONTINUOUS
 70
0
 71
3
 72
9
 73
5
 74
0
 42
0.0000001
 43
0.0000001
 44
0.0000000001
 40
0.0
 40
0.0
 40
0.0
 40
0.0
 40
0.7407738242
 40
1.0
 40
1.0
 40
1.0
 40
1.0
 10
633.0160515035
 20
134.0688391963
 30
0.0
 10
633.0019475699
 20
134.0162025993
 30
0.0
 10
632.9985440393
 20
133.9399968016
 30
0.0
 10
633.0137350136
 20
133.8679890328
 30
0.0
 10
633.0187743248
 20
133.8495975203
 30
0.0
  0
SPLINE
  5
756
100
AcDbEntity
  8
0
100
AcDbSpline
 62
7
  6
CONTINUOUS
 70
0
 71
3
 72
9
 73
5
 74
0
 42
0.0000001
 43
0.0000001
 44
0.0000000001
 40
0.0
 40
0.0
 40
0.0
 40
0.0
 40
0.238285514
 40
1.0
 40
1.0
 40
1.0
 40
1.0
 10
633.0187743248
 20
133.8495975203
 30
0.0
 10
633.0239643752
 20
133.8306558686
 30
0.0
 10
633.0507104096
 20
133.7525343824
 30
0.0
 10
633.0956514476
 20
133.6812783603
 30
0.0
 10
633.135784313
 20
133.6329991764
 30
0.0
  0
SPLINE
  5
757
100
AcDbEntity
  8
0
100
AcDbSpline
 62
7
  6
CONTINUOUS
 70
0
 71
3
 72
9
 73
5
 74
0
 42
0.0000001
 43
0.0000001
 44
0.0000000001
 40
0.0
 40
0.0
 40
0.0
 40
0.0
 40
0.2355596553
 40
1.0
 40
1.0
 40
1.0
 40
1.0
 10
633.135784313
 20
133.6329991764
 30
0.0
 10
633.1648892066
 20
133.597986463
 30
0.0
 10
633.3025177088
 20
133.4612017262
 30
0.0
 10
633.4840038381
 20
133.3724521163
 30
0.0
 10
633.6267237406
 20
133.3342104337
 30
0.0
  0
SPLINE
  5
758
100
AcDbEntity
  8
0
100
AcDbSpline
 62
7
  6
CONTINUOUS
 70
0
 71
3
 72
11
 73
7
 74
0
 42
0.0000001
 43
0.0000001
 44
0.0000000001
 40
0.0
 40
0.0
 40
0.0
 40
0.0
 40
0.2880052506
 40
0.5553344723
 40
0.7905070702
 40
1.0
 40
1.0
 40
1.0
 40
1.0
 10
639.5351426404
 20
131.275221336
 30
0.0
 10
639.6322073118
 20
131.2492129357
 30
0.0
 10
639.8273515019
 20
131.2240993214
 30
0.0
 10
640.1038060666
 20
131.2695964312
 30
0.0
 10
640.325925091
 20
131.3961194527
 30
0.0
 10
640.4123963707
 20
131.5354882505
 30
0.0
 10
640.4313146924
 20
131.6060923883
 30
0.0
  0
SPLINE
  5
759
100
AcDbEntity
  8
RUNDUNGEN
100
AcDbSpline
 62
7
  6
CONTINUOUS
 70
0
 71
3
 72
11
 73
7
 74
0
 42
0.0000001
 43
0.0000001
 44
0.0000000001
 40
0.0
 40
0.0
 40
0.0
 40
0.0
 40
0.2377805525
 40
0.4809056656
 40
0.7339193662
 40
1.0
 40
1.0
 40
1.0
 40
1.0
 10
625.9454836274
 20
112.7893744544
 30
0.0
 10
625.7587962128
 20
112.0926476346
 30
0.0
 10
625.2254588676
 20
110.7204483683
 30
0.0
 10
623.9898123351
 20
108.8502230152
 30
0.0
 10
622.3498208054
 20
107.2010068813
 30
0.0
 10
621.0493619346
 20
106.2973114037
 30
0.0
 10
620.3523340914
 20
105.890313096
 30
0.0
  0
SPLINE
  5
75A
100
AcDbEntity
  8
0
100
AcDbSpline
 62
7
  6
CONTINUOUS
 70
0
 71
3
 72
11
 73
7
 74
0
 42
0.0000001
 43
0.0000001
 44
0.0000000001
 40
0.0
 40
0.0
 40
0.0
 40
0.0
 40
0.2879697432
 40
0.5553440702
 40
0.7905331502
 40
1.0
 40
1.0
 40
1.0
 40
1.0
 10
636.4361758266
 20
135.5315847706
 30
0.0
 10
636.3876491344
 20
135.5445874585
 30
0.0
 10
636.2900776969
 20
135.557133718
 30
0.0
 10
636.1518329664
 20
135.5344251175
 30
0.0
 10
636.040786688
 20
135.4711229051
 30
0.0
 10
635.9975478501
 20
135.4014471658
 30
0.0
 10
635.9880898006
 20
135.3661492444
 30
0.0
  0
SPLINE
  5
75B
100
AcDbEntity
  8
0
100
AcDbSpline
 62
7
  6
CONTINUOUS
 70
0
 71
3
 72
11
 73
7
 74
0
 42
0.0000001
 43
0.0000001
 44
0.0000000001
 40
0.0
 40
0.0
 40
0.0
 40
0.0
 40
0.2879697432
 40
0.5553440702
 40
0.7905331502
 40
1.0
 40
1.0
 40
1.0
 40
1.0
 10
637.149925364
 20
138.1953343079
 30
0.0
 10
637.1013986718
 20
138.2083369959
 30
0.0
 10
637.0038272343
 20
138.2208832554
 30
0.0
 10
636.8655825038
 20
138.1981746548
 30
0.0
 10
636.7545362254
 20
138.1348724425
 30
0.0
 10
636.7112973875
 20
138.0651967031
 30
0.0
 10
636.701839338
 20
138.0298987818
 30
0.0
  0
SPLINE
  5
75C
100
AcDbEntity
  8
0
100
AcDbSpline
 62
7
  6
CONTINUOUS
 70
0
 71
3
 72
9
 73
5
 74
0
 42
0.0000001
 43
0.0000001
 44
0.0000000001
 40
0.0
 40
0.0
 40
0.0
 40
0.0
 40
0.5597866015
 40
1.0
 40
1.0
 40
1.0
 40
1.0
 10
637.5672919237
 20
136.5132522931
 30
0.0
 10
637.5302797089
 20
136.5231696862
 30
0.0
 10
637.4576655664
 20
136.5275555066
 30
0.0
 10
637.3958565019
 20
136.4761843043
 30
0.0
 10
637.3880575133
 20
136.4470780826
 30
0.0
  0
SPLINE
  5
75D
100
AcDbEntity
  8
0
100
AcDbSpline
 62
7
  6
CONTINUOUS
 70
0
 71
3
 72
9
 73
5
 74
0
 42
0.0000001
 43
0.0000001
 44
0.0000000001
 40
0.0
 40
0.0
 40
0.0
 40
0.0
 40
0.5597866015
 40
1.0
 40
1.0
 40
1.0
 40
1.0
 10
638.2305035609
 20
136.0500454555
 30
0.0
 10
638.2675157758
 20
136.0401280624
 30
0.0
 10
638.3401299182
 20
136.035742242
 30
0.0
 10
638.4019389827
 20
136.0871134443
 30
0.0
 10
638.4097379713
 20
136.116219666
 30
0.0
  0
SPLINE
  5
75E
100
AcDbEntity
  8
0
100
AcDbSpline
 62
7
  6
CONTINUOUS
 70
0
 71
3
 72
9
 73
5
 74
0
 42
0.0000001
 43
0.0000001
 44
0.0000000001
 40
0.0
 40
0.0
 40
0.0
 40
0.0
 40
0.5597866015
 40
1.0
 40
1.0
 40
1.0
 40
1.0
 10
637.5167540235
 20
133.3862959181
 30
0.0
 10
637.5537662384
 20
133.3763785251
 30
0.0
 10
637.6263803808
 20
133.3719927046
 30
0.0
 10
637.6881894453
 20
133.423363907
 30
0.0
 10
637.6959884339
 20
133.4524701286
 30
0.0
  0
SPLINE
  5
75F
100
AcDbEntity
  8
RUNDUNGEN
100
AcDbSpline
 62
7
  6
CONTINUOUS
 70
0
 71
3
 72
9
 73
5
 74
0
 42
0.0000001
 43
0.0000001
 44
0.0000000001
 40
0.0
 40
0.0
 40
0.0
 40
0.0
 40
0.4805366145
 40
1.0
 40
1.0
 40
1.0
 40
1.0
 10
680.3420476164
 20
67.4197788511
 30
0.0
 10
680.4546908575
 20
67.8401691498
 30
0.0
 10
680.4908650369
 20
68.77677344
 30
0.0
 10
680.1570016671
 20
69.6425877817
 30
0.0
 10
679.9237639903
 20
70.0511801715
 30
0.0
  0
SPLINE
  5
760
100
AcDbEntity
  8
0
100
AcDbSpline
 62
7
  6
CONTINUOUS
 70
0
 71
3
 72
11
 73
7
 74
0
 42
0.0000001
 43
0.0000001
 44
0.0000000001
 40
0.0
 40
0.0
 40
0.0
 40
0.0
 40
0.2865059912
 40
0.5484241175
 40
0.7833822346
 40
1.0
 40
1.0
 40
1.0
 40
1.0
 10
649.1656215975
 20
132.4188526999
 30
0.0
 10
649.4206365387
 20
132.4103003259
 30
0.0
 10
649.9132446475
 20
132.4483975296
 30
0.0
 10
650.5798284691
 20
132.6845857536
 30
0.0
 10
651.0910352077
 20
133.0850136049
 30
0.0
 10
651.2879265501
 20
133.4529424986
 30
0.0
 10
651.3378291412
 20
133.6392933197
 30
0.0
  0
SPLINE
  5
761
100
AcDbEntity
  8
0
100
AcDbSpline
 62
7
  6
CONTINUOUS
 70
0
 71
3
 72
8
 73
4
 74
0
 42
0.0000001
 43
0.0000001
 44
0.0000000001
 40
0.0
 40
0.0
 40
0.0
 40
0.0
 40
1.0
 40
1.0
 40
1.0
 40
1.0
 10
665.9273994754
 20
124.2034374306
 30
0.0
 10
666.0288536241
 20
124.1762528734
 30
0.0
 10
666.1354422123
 20
124.1632409598
 30
0.0
 10
666.2404024403
 20
124.1671518415
 30
0.0
  0
SPLINE
  5
762
100
AcDbEntity
  8
0
100
AcDbSpline
 62
7
  6
CONTINUOUS
 70
0
 71
3
 72
11
 73
7
 74
0
 42
0.0000001
 43
0.0000001
 44
0.0000000001
 40
0.0
 40
0.0
 40
0.0
 40
0.0
 40
0.2847819434
 40
0.5451774547
 40
0.7807010719
 40
1.0
 40
1.0
 40
1.0
 40
1.0
 10
666.2404024403
 20
124.1671518415
 30
0.0
 10
666.7278881877
 20
124.1853158554
 30
0.0
 10
667.6621465536
 20
124.3198313377
 30
0.0
 10
668.910809639
 20
124.8446637677
 30
0.0
 10
669.8586223088
 20
125.6584769113
 30
0.0
 10
670.2253331867
 20
126.3744022069
 30
0.0
 10
670.3225594245
 20
126.737255466
 30
0.0
  0
SPLINE
  5
763
100
AcDbEntity
  8
0
100
AcDbSpline
 62
7
  6
CONTINUOUS
 70
0
 71
3
 72
9
 73
5
 74
0
 42
0.0000001
 43
0.0000001
 44
0.0000000001
 40
0.0
 40
0.0
 40
0.0
 40
0.0
 40
0.239729366
 40
1.0
 40
1.0
 40
1.0
 40
1.0
 10
667.7954956016
 20
130.1534480982
 30
0.0
 10
667.7812647464
 20
130.1669222969
 30
0.0
 10
667.7178727154
 20
130.2188092849
 30
0.0
 10
667.6411979166
 20
130.2536223032
 30
0.0
 10
667.5811640012
 20
130.2697083424
 30
0.0
  0
SPLINE
  5
764
100
AcDbEntity
  8
RUNDUNGEN
100
AcDbSpline
 62
7
  6
CONTINUOUS
 70
0
 71
3
 72
10
 73
6
 74
0
 42
0.0000001
 43
0.0000001
 44
0.0000000001
 40
0.0
 40
0.0
 40
0.0
 40
0.0
 40
0.2265442065
 40
0.4650409693
 40
1.0
 40
1.0
 40
1.0
 40
1.0
 10
712.0922875035
 20
133.7050733698
 30
0.0
 10
712.1216189626
 20
133.8148270151
 30
0.0
 10
712.1424221661
 20
134.0524574367
 30
0.0
 10
712.0221772785
 20
134.54614778
 30
0.0
 10
711.7695487656
 20
134.8668001471
 30
0.0
 10
711.5681363957
 20
135.0440007704
 30
0.0
  0
SPLINE
  5
765
100
AcDbEntity
  8
RUNDUNGEN
100
AcDbSpline
 62
7
  6
CONTINUOUS
 70
0
 71
3
 72
9
 73
5
 74
0
 42
0.0000001
 43
0.0000001
 44
0.0000000001
 40
0.0
 40
0.0
 40
0.0
 40
0.0
 40
0.5194635499
 40
1.0
 40
1.0
 40
1.0
 40
1.0
 10
597.0185198095
 20
92.2655733981
 30
0.0
 10
596.6122337325
 20
92.0283407718
 30
0.0
 10
595.8901924145
 20
91.4454551888
 30
0.0
 10
595.4532181055
 20
90.6162449752
 30
0.0
 10
595.340574903
 20
90.1958548201
 30
0.0
  0
SPLINE
  5
766
100
AcDbEntity
  8
RUNDUNGEN
100
AcDbSpline
 62
7
  6
CONTINUOUS
 70
0
 71
3
 72
10
 73
6
 74
0
 42
0.0000001
 43
0.0000001
 44
0.0000000001
 40
0.0
 40
0.0
 40
0.0
 40
0.0
 40
0.5349741761
 40
0.7734715455
 40
1.0
 40
1.0
 40
1.0
 40
1.0
 10
612.733979623
 20
145.6744907372
 30
0.0
 10
612.4775061044
 20
145.6230513823
 30
0.0
 10
612.1078452913
 20
145.4754408212
 30
0.0
 10
611.7656440099
 20
145.1171585555
 30
0.0
 10
611.6673787363
 20
144.9063560564
 30
0.0
 10
611.6386506171
 20
144.7993830333
 30
0.0
  0
SPLINE
  5
767
100
AcDbEntity
  8
0
100
AcDbSpline
 62
7
  6
CONTINUOUS
 70
0
 71
3
 72
9
 73
5
 74
0
 42
0.0000001
 43
0.0000001
 44
0.0000000001
 40
0.0
 40
0.0
 40
0.0
 40
0.0
 40
0.4402133985
 40
1.0
 40
1.0
 40
1.0
 40
1.0
 10
637.0218519385
 20
136.9639356326
 30
0.0
 10
637.0140529499
 20
136.9348294109
 30
0.0
 10
637.0418955688
 20
136.8594361124
 30
0.0
 10
637.106974171
 20
136.8269272731
 30
0.0
 10
637.1439863859
 20
136.81700988
 30
0.0
  0
SPLINE
  5
768
100
AcDbEntity
  8
0
100
AcDbSpline
 62
7
  6
CONTINUOUS
 70
0
 71
3
 72
9
 73
5
 74
0
 42
0.0000001
 43
0.0000001
 44
0.0000000001
 40
0.0
 40
0.0
 40
0.0
 40
0.0
 40
0.471076254
 40
1.0
 40
1.0
 40
1.0
 40
1.0
 10
639.3388168437
 20
137.3233227887
 30
0.0
 10
639.3482748933
 20
137.35862071
 30
0.0
 10
639.3457545847
 20
137.4404919861
 30
0.0
 10
639.3051790414
 20
137.5096902169
 30
0.0
 10
639.278950439
 20
137.5412427986
 30
0.0
  0
SPLINE
  5
769
100
AcDbEntity
  8
0
100
AcDbSpline
 62
7
  6
CONTINUOUS
 70
0
 71
3
 72
8
 73
4
 74
0
 42
0.0000001
 43
0.0000001
 44
0.0000000001
 40
0.0
 40
0.0
 40
0.0
 40
0.0
 40
1.0
 40
1.0
 40
1.0
 40
1.0
 10
639.278950439
 20
137.5412427986
 30
0.0
 10
639.2643902131
 20
137.5587585135
 30
0.0
 10
639.2481059565
 20
137.5749302238
 30
0.0
 10
639.2307335332
 20
137.5896611218
 30
0.0
  0
SPLINE
  5
76A
100
AcDbEntity
  8
0
100
AcDbSpline
 62
7
  6
CONTINUOUS
 70
0
 71
3
 72
9
 73
5
 74
0
 42
0.0000001
 43
0.0000001
 44
0.0000000001
 40
0.0
 40
0.0
 40
0.0
 40
0.0
 40
0.241609722
 40
1.0
 40
1.0
 40
1.0
 40
1.0
 10
639.2307335332
 20
137.5896611218
 30
0.0
 10
639.2170591296
 20
137.6012562943
 30
0.0
 10
639.1574980653
 20
137.6457009976
 30
0.0
 10
639.0878395793
 20
137.6760717589
 30
0.0
 10
639.0334807252
 20
137.69063717
 30
0.0
  0
SPLINE
  5
76B
100
AcDbEntity
  8
BEZUGSACHSEN
100
AcDbSpline
 62
7
  6
CONTINUOUS
 70
0
 71
3
 72
19
 73
15
 74
0
 42
0.0000001
 43
0.0000001
 44
0.0000000001
 40
0.0
 40
0.0
 40
0.0
 40
0.0
 40
0.0517263209
 40
0.1053355973
 40
0.1622490903
 40
0.223216447
 40
0.356475981
 40
0.5
 40
0.643524019
 40
0.776783553
 40
0.8377509097
 40
0.8946644027
 40
0.9482736791
 40
1.0
 40
1.0
 40
1.0
 40
1.0
 10
650.2617557137
 20
146.4119147687
 30
0.0
 10
650.1956687226
 20
146.1652747603
 30
0.0
 10
650.1319993603
 20
145.6412753135
 30
0.0
 10
650.2532435324
 20
144.841025002
 30
0.0
 10
650.5804422738
 20
144.052187842
 30
0.0
 10
651.2896817269
 20
143.0262403034
 30
0.0
 10
652.6055861093
 20
141.9486186886
 30
0.0
 10
654.5430238183
 20
141.1394566777
 30
0.0
 10
656.625475098
 20
140.8714926804
 30
0.0
 10
658.3038925295
 20
141.1467881833
 30
0.0
 10
659.4310856826
 20
141.6806650881
 30
0.0
 10
660.1088666847
 20
142.2002187374
 30
0.0
 10
660.6139923736
 20
142.8326337505
 30
0.0
 10
660.8208528118
 20
143.3182652642
 30
0.0
 10
660.8869398028
 20
143.5649052726
 30
0.0
  0
SPLINE
  5
76C
100
AcDbEntity
  8
RUNDUNGEN
100
AcDbSpline
 62
7
  6
CONTINUOUS
 70
0
 71
3
 72
11
 73
7
 74
0
 42
0.0000001
 43
0.0000001
 44
0.0000000001
 40
0.0
 40
0.0
 40
0.0
 40
0.0
 40
0.2794012361
 40
0.5367224514
 40
0.7743079693
 40
1.0
 40
1.0
 40
1.0
 40
1.0
 10
605.6949472733
 20
165.0921846695
 30
0.0
 10
605.2809776134
 20
165.0091572585
 30
0.0
 10
604.4978091507
 20
164.7715733975
 30
0.0
 10
603.4770387358
 20
164.1743876925
 30
0.0
 10
602.7137333278
 20
163.3753053919
 30
0.0
 10
602.4121045415
 20
162.7261384022
 30
0.0
 10
602.3238978891
 20
162.3966905844
 30
0.0
  0
SPLINE
  5
76D
100
AcDbEntity
  8
RUNDUNGEN
100
AcDbSpline
 62
7
  6
CONTINUOUS
 70
0
 71
3
 72
9
 73
5
 74
0
 42
0.0000001
 43
0.0000001
 44
0.0000000001
 40
0.0
 40
0.0
 40
0.0
 40
0.0
 40
0.5089429305
 40
1.0
 40
1.0
 40
1.0
 40
1.0
 10
622.8598961142
 20
163.1725764914
 30
0.0
 10
620.4760128164
 20
164.3785044491
 30
0.0
 10
615.3799614295
 20
165.9869735569
 30
0.0
 10
610.0147002676
 20
165.9585716111
 30
0.0
 10
607.4873710505
 20
165.4516803528
 30
0.0
  0
SPLINE
  5
76E
100
AcDbEntity
  8
0
100
AcDbSpline
 62
7
  6
CONTINUOUS
 70
0
 71
3
 72
9
 73
5
 74
0
 42
0.0000001
 43
0.0000001
 44
0.0000000001
 40
0.0
 40
0.0
 40
0.0
 40
0.0
 40
0.2415905642
 40
1.0
 40
1.0
 40
1.0
 40
1.0
 10
667.9146775324
 20
146.7205642623
 30
0.0
 10
667.3507491867
 20
147.2167028777
 30
0.0
 10
664.9102161996
 20
149.1481116907
 30
0.0
 10
662.0986415573
 20
150.5947651493
 30
0.0
 10
659.8843105498
 20
151.4050145893
 30
0.0
  0
SPLINE
  5
76F
100
AcDbEntity
  8
0
100
AcDbSpline
 62
7
  6
CONTINUOUS
 70
0
 71
3
 72
9
 73
5
 74
0
 42
0.0000001
 43
0.0000001
 44
0.0000000001
 40
0.0
 40
0.0
 40
0.0
 40
0.0
 40
0.2578604761
 40
1.0
 40
1.0
 40
1.0
 40
1.0
 10
655.0501127757
 20
152.7003339789
 30
0.0
 10
654.2604680787
 20
152.8381751729
 30
0.0
 10
651.1780750486
 20
153.241367891
 30
0.0
 10
648.0153549298
 20
153.1123340611
 30
0.0
 10
645.7533858035
 20
152.6586644843
 30
0.0
  0
SPLINE
  5
770
100
AcDbEntity
  8
RUNDUNGEN
100
AcDbSpline
 62
7
  6
CONTINUOUS
 70
0
 71
3
 72
10
 73
6
 74
0
 42
0.0000001
 43
0.0000001
 44
0.0000000001
 40
0.0
 40
0.0
 40
0.0
 40
0.0
 40
0.2540840964
 40
0.5191023951
 40
1.0
 40
1.0
 40
1.0
 40
1.0
 10
705.8034823239
 20
140.1156867584
 30
0.0
 10
705.6162619416
 20
140.2804014104
 30
0.0
 10
705.1729530377
 20
140.552436249
 30
0.0
 10
704.2283732651
 20
140.8234312384
 30
0.0
 10
703.430621589
 20
140.7391364459
 30
0.0
 10
703.0230505959
 20
140.5011535503
 30
0.0
  0
SPLINE
  5
771
100
AcDbEntity
  8
0
100
AcDbSpline
 62
7
  6
CONTINUOUS
 70
0
 71
3
 72
11
 73
7
 74
0
 42
0.0000001
 43
0.0000001
 44
0.0000000001
 40
0.0
 40
0.0
 40
0.0
 40
0.0
 40
0.227142142
 40
0.4653047767
 40
0.7220182825
 40
1.0
 40
1.0
 40
1.0
 40
1.0
 10
668.8875272267
 20
127.1408045056
 30
0.0
 10
668.9532789594
 20
127.3861933127
 30
0.0
 10
669.0044266955
 20
127.914842503
 30
0.0
 10
668.8277175996
 20
128.7142058453
 30
0.0
 10
668.4181042549
 20
129.4853773655
 30
0.0
 10
668.0212595428
 20
129.9396880573
 30
0.0
 10
667.7954956016
 20
130.1534480982
 30
0.0
  0
SPLINE
  5
772
100
AcDbEntity
  8
0
100
AcDbSpline
 62
7
  6
CONTINUOUS
 70
0
 71
3
 72
8
 73
4
 74
0
 42
0.0000001
 43
0.0000001
 44
0.0000000001
 40
0.0
 40
0.0
 40
0.0
 40
0.0
 40
1.0
 40
1.0
 40
1.0
 40
1.0
 10
666.0463577316
 20
124.6473956869
 30
0.0
 10
666.1478118804
 20
124.6202111296
 30
0.0
 10
666.2544004686
 20
124.6071992161
 30
0.0
 10
666.3593606965
 20
124.6111100977
 30
0.0
  0
SPLINE
  5
773
100
AcDbEntity
  8
0
100
AcDbSpline
 62
7
  6
CONTINUOUS
 70
0
 71
3
 72
17
 73
13
 74
0
 42
0.0000001
 43
0.0000001
 44
0.0000000001
 40
0.0
 40
0.0
 40
0.0
 40
0.0
 40
0.0517921087
 40
0.1054769531
 40
0.2228492041
 40
0.356284866
 40
0.5
 40
0.643715134
 40
0.7771507959
 40
0.8945230469
 40
0.9482078913
 40
1.0
 40
1.0
 40
1.0
 40
1.0
 10
652.4545718179
 20
130.5398373212
 30
0.0
 10
652.4101015199
 20
130.3738719098
 30
0.0
 10
652.3673079625
 20
130.0212312218
 30
0.0
 10
652.4789627891
 20
129.2826328049
 30
0.0
 10
653.0010162056
 20
128.3776898752
 30
0.0
 10
654.0312510098
 20
127.5377439643
 30
0.0
 10
655.3354492493
 20
126.9911260174
 30
0.0
 10
656.7382270297
 20
126.8124119258
 30
0.0
 10
658.0504094974
 20
127.0247090204
 30
0.0
 10
658.9549924831
 20
127.5473858783
 30
0.0
 10
659.4209876079
 20
128.1312034571
 30
0.0
 10
659.560247644
 20
128.45799603
 30
0.0
 10
659.604717942
 20
128.6239614415
 30
0.0
  0
SPLINE
  5
774
100
AcDbEntity
  8
0
100
AcDbSpline
 62
7
  6
CONTINUOUS
 70
0
 71
3
 72
9
 73
5
 74
0
 42
0.0000001
 43
0.0000001
 44
0.0000000001
 40
0.0
 40
0.0
 40
0.0
 40
0.0
 40
0.4402133985
 40
1.0
 40
1.0
 40
1.0
 40
1.0
 10
636.1891441449
 20
133.856227839
 30
0.0
 10
636.1813451563
 20
133.8271216173
 30
0.0
 10
636.2091877752
 20
133.7517283188
 30
0.0
 10
636.2742663774
 20
133.7192194795
 30
0.0
 10
636.3112785923
 20
133.7093020864
 30
0.0
  0
SPLINE
  5
775
100
AcDbEntity
  8
0
100
AcDbSpline
 62
7
  6
CONTINUOUS
 70
0
 71
3
 72
11
 73
7
 74
0
 42
0.0000001
 43
0.0000001
 44
0.0000000001
 40
0.0
 40
0.0
 40
0.0
 40
0.0
 40
0.2816347582
 40
0.5420479832
 40
0.7798483853
 40
1.0
 40
1.0
 40
1.0
 40
1.0
 10
666.3593606965
 20
124.6111100977
 30
0.0
 10
666.7996467904
 20
124.627515424
 30
0.0
 10
667.6473605928
 20
124.7409395389
 30
0.0
 10
668.8008701046
 20
125.1736988046
 30
0.0
 10
669.7234046549
 20
125.8427508062
 30
0.0
 10
670.1465025158
 20
126.4422999707
 30
0.0
 10
670.2889450102
 20
126.7558701496
 30
0.0
  0
SPLINE
  5
776
100
AcDbEntity
  8
0
100
AcDbSpline
 62
7
  6
CONTINUOUS
 70
0
 71
3
 72
9
 73
5
 74
0
 42
0.0000001
 43
0.0000001
 44
0.0000000001
 40
0.0
 40
0.0
 40
0.0
 40
0.0
 40
0.2591205677
 40
1.0
 40
1.0
 40
1.0
 40
1.0
 10
667.7001222574
 20
130.7136665986
 30
0.0
 10
667.7205773494
 20
130.7081856732
 30
0.0
 10
667.7981675722
 20
130.6825567093
 30
0.0
 10
667.8704866991
 20
130.6390357732
 30
0.0
 10
667.9144538579
 20
130.5974063545
 30
0.0
  0
SPLINE
  5
777
100
AcDbEntity
  8
0
100
AcDbSpline
 62
7
  6
CONTINUOUS
 70
0
 71
3
 72
11
 73
7
 74
0
 42
0.0000001
 43
0.0000001
 44
0.0000000001
 40
0.0
 40
0.0
 40
0.0
 40
0.0
 40
0.2779697373
 40
0.5346991835
 40
0.7728568778
 40
1.0
 40
1.0
 40
1.0
 40
1.0
 10
667.9144538579
 20
130.5974063545
 30
0.0
 10
668.1402088781
 20
130.3836547601
 30
0.0
 10
668.5370441134
 20
129.9293318681
 30
0.0
 10
668.946703494
 20
129.1581793692
 30
0.0
 10
669.1233917986
 20
128.3587940478
 30
0.0
 10
669.0722603263
 20
127.8301474538
 30
0.0
 10
669.0065080742
 20
127.5847567085
 30
0.0
  0
SPLINE
  5
778
100
AcDbEntity
  8
0
100
AcDbSpline
 62
7
  6
CONTINUOUS
 70
0
 71
3
 72
9
 73
5
 74
0
 42
0.0000001
 43
0.0000001
 44
0.0000000001
 40
0.0
 40
0.0
 40
0.0
 40
0.0
 40
0.4402133985
 40
1.0
 40
1.0
 40
1.0
 40
1.0
 10
636.3081024011
 20
134.3001860952
 30
0.0
 10
636.3003034125
 20
134.2710798735
 30
0.0
 10
636.3281460314
 20
134.195686575
 30
0.0
 10
636.3932246337
 20
134.1631777358
 30
0.0
 10
636.4302368485
 20
134.1532603427
 30
0.0
  0
SPLINE
  5
779
100
AcDbEntity
  8
0
100
AcDbSpline
 62
7
  6
CONTINUOUS
 70
0
 71
3
 72
9
 73
5
 74
0
 42
0.0000001
 43
0.0000001
 44
0.0000000001
 40
0.0
 40
0.0
 40
0.0
 40
0.0
 40
0.5
 40
1.0
 40
1.0
 40
1.0
 40
1.0
 10
652.5178123056
 20
130.6697874268
 30
0.0
 10
652.3872865574
 20
129.2310317803
 30
0.0
 10
655.2445535104
 20
126.6518985017
 30
0.0
 10
659.0085859164
 20
127.4568599642
 30
0.0
 10
659.6149251258
 20
128.7681217781
 30
0.0
  0
SPLINE
  5
77A
100
AcDbEntity
  8
0
100
AcDbSpline
 62
7
  6
CONTINUOUS
 70
0
 71
3
 72
9
 73
5
 74
0
 42
0.0000001
 43
0.0000001
 44
0.0000000001
 40
0.0
 40
0.0
 40
0.0
 40
0.0
 40
0.5403772208
 40
1.0
 40
1.0
 40
1.0
 40
1.0
 10
649.2845798537
 20
132.8628109561
 30
0.0
 10
649.6755014781
 20
132.8497007128
 30
0.0
 10
650.413065539
 20
132.9426482671
 30
0.0
 10
651.0497040704
 20
133.3737236973
 30
0.0
 10
651.2451981622
 20
133.6429149994
 30
0.0
  0
SPLINE
  5
77B
100
AcDbEntity
  8
0
100
AcDbSpline
 62
7
  6
CONTINUOUS
 70
0
 71
3
 72
8
 73
4
 74
0
 42
0.0000001
 43
0.0000001
 44
0.0000000001
 40
0.0
 40
0.0
 40
0.0
 40
0.0
 40
1.0
 40
1.0
 40
1.0
 40
1.0
 10
651.2451981622
 20
133.6429149994
 30
0.0
 10
651.2941366476
 20
133.7103022769
 30
0.0
 10
651.3373698724
 20
133.7822905863
 30
0.0
 10
651.3732989257
 20
133.8574246241
 30
0.0
  0
SPLINE
  5
77C
100
AcDbEntity
  8
0
100
AcDbSpline
 62
7
  6
CONTINUOUS
 70
0
 71
3
 72
11
 73
7
 74
0
 42
0.0000001
 43
0.0000001
 44
0.0000000001
 40
0.0
 40
0.0
 40
0.0
 40
0.0
 40
0.2880066977
 40
0.5553334191
 40
0.790532629
 40
1.0
 40
1.0
 40
1.0
 40
1.0
 10
649.2115628998
 20
135.7152444502
 30
0.0
 10
649.3867916898
 20
135.6682920374
 30
0.0
 10
649.7145389442
 20
135.5314013284
 30
0.0
 10
650.1057363901
 20
135.2107542852
 30
0.0
 10
650.3387130551
 20
134.8124121881
 30
0.0
 10
650.3481444656
 20
134.5164793808
 30
0.0
 10
650.3139959595
 20
134.3890354211
 30
0.0
  0
SPLINE
  5
77D
100
AcDbEntity
  8
0
100
AcDbSpline
 62
7
  6
CONTINUOUS
 70
0
 71
3
 72
9
 73
5
 74
0
 42
0.0000001
 43
0.0000001
 44
0.0000000001
 40
0.0
 40
0.0
 40
0.0
 40
0.0
 40
0.5597866015
 40
1.0
 40
1.0
 40
1.0
 40
1.0
 10
637.6357122797
 20
133.8302541744
 30
0.0
 10
637.6727244946
 20
133.8203367813
 30
0.0
 10
637.7453386371
 20
133.8159509608
 30
0.0
 10
637.8071477016
 20
133.8673221632
 30
0.0
 10
637.8149466901
 20
133.8964283848
 30
0.0
  0
SPLINE
  5
77E
100
AcDbEntity
  8
0
100
AcDbSpline
 62
7
  6
CONTINUOUS
 70
0
 71
3
 72
9
 73
5
 74
0
 42
0.0000001
 43
0.0000001
 44
0.0000000001
 40
0.0
 40
0.0
 40
0.0
 40
0.0
 40
0.4402133985
 40
1.0
 40
1.0
 40
1.0
 40
1.0
 10
637.5070157696
 20
136.8910363388
 30
0.0
 10
637.5148147582
 20
136.9201425605
 30
0.0
 10
637.5766238226
 20
136.9715137629
 30
0.0
 10
637.6492379651
 20
136.9671279424
 30
0.0
 10
637.68625018
 20
136.9572105493
 30
0.0
  0
SPLINE
  5
77F
100
AcDbEntity
  8
RUNDUNGEN
100
AcDbSpline
 62
7
  6
CONTINUOUS
 70
0
 71
3
 72
11
 73
7
 74
0
 42
0.0000001
 43
0.0000001
 44
0.0000000001
 40
0.0
 40
0.0
 40
0.0
 40
0.0
 40
0.2256778953
 40
0.4632795617
 40
0.7206246471
 40
1.0
 40
1.0
 40
1.0
 40
1.0
 10
619.3094423685
 20
148.0856347867
 30
0.0
 10
619.2615590143
 20
147.9073501408
 30
0.0
 10
619.0979589218
 20
147.5561059333
 30
0.0
 10
618.6845501945
 20
147.1237746918
 30
0.0
 10
618.1319039662
 20
146.800666776
 30
0.0
 10
617.7079674914
 20
146.6720936423
 30
0.0
 10
617.4839026326
 20
146.6271542979
 30
0.0
  0
SPLINE
  5
780
100
AcDbEntity
  8
0
100
AcDbSpline
 62
7
  6
CONTINUOUS
 70
0
 71
3
 72
9
 73
5
 74
0
 42
0.0000001
 43
0.0000001
 44
0.0000000001
 40
0.0
 40
0.0
 40
0.0
 40
0.0
 40
0.5597866015
 40
1.0
 40
1.0
 40
1.0
 40
1.0
 10
637.9499479305
 20
136.88655295
 30
0.0
 10
637.9869601454
 20
136.8766355569
 30
0.0
 10
638.0520387477
 20
136.8441267176
 30
0.0
 10
638.0798813665
 20
136.7687334191
 30
0.0
 10
638.072082378
 20
136.7396271975
 30
0.0
  0
SPLINE
  5
781
100
AcDbEntity
  8
0
100
AcDbSpline
 62
7
  6
CONTINUOUS
 70
0
 71
3
 72
9
 73
5
 74
0
 42
0.0000001
 43
0.0000001
 44
0.0000000001
 40
0.0
 40
0.0
 40
0.0
 40
0.0
 40
0.5597866015
 40
1.0
 40
1.0
 40
1.0
 40
1.0
 10
638.3494618171
 20
136.4940037118
 30
0.0
 10
638.386474032
 20
136.4840863187
 30
0.0
 10
638.4590881745
 20
136.4797004982
 30
0.0
 10
638.5208972389
 20
136.5310717006
 30
0.0
 10
638.5286962275
 20
136.5601779222
 30
0.0
  0
SPLINE
  5
782
100
AcDbEntity
  8
0
100
AcDbSpline
 62
7
  6
CONTINUOUS
 70
0
 71
3
 72
11
 73
7
 74
0
 42
0.0000001
 43
0.0000001
 44
0.0000000001
 40
0.0
 40
0.0
 40
0.0
 40
0.0
 40
0.2876567391
 40
0.555407049
 40
0.7907201247
 40
1.0
 40
1.0
 40
1.0
 40
1.0
 10
639.1524389815
 20
138.1345954262
 30
0.0
 10
639.2009059062
 20
138.1216087529
 30
0.0
 10
639.291553802
 20
138.0835156096
 30
0.0
 10
639.4002485386
 20
137.9950207079
 30
0.0
 10
639.4643882503
 20
137.8844341223
 30
0.0
 10
639.4672233381
 20
137.8025423497
 30
0.0
 10
639.4577751
 20
137.7672810449
 30
0.0
  0
SPLINE
  5
783
100
AcDbEntity
  8
0
100
AcDbSpline
 62
7
  6
CONTINUOUS
 70
0
 71
3
 72
9
 73
5
 74
0
 42
0.0000001
 43
0.0000001
 44
0.0000000001
 40
0.0
 40
0.0
 40
0.0
 40
0.0
 40
0.5531686664
 40
1.0
 40
1.0
 40
1.0
 40
1.0
 10
638.5366667913
 20
135.4340767634
 30
0.0
 10
638.6051541644
 20
135.4005177633
 30
0.0
 10
638.722379949
 20
135.3144039936
 30
0.0
 10
638.7599704556
 20
135.1630386585
 30
0.0
 10
638.7440255626
 20
135.1035315075
 30
0.0
  0
SPLINE
  5
784
100
AcDbEntity
  8
0
100
AcDbSpline
 62
7
  6
CONTINUOUS
 70
0
 71
3
 72
9
 73
5
 74
0
 42
0.0000001
 43
0.0000001
 44
0.0000000001
 40
0.0
 40
0.0
 40
0.0
 40
0.0
 40
0.4575243679
 40
1.0
 40
1.0
 40
1.0
 40
1.0
 10
636.1070480568
 20
135.8101075006
 30
0.0
 10
636.1197693258
 20
135.8575839229
 30
0.0
 10
636.1919639782
 20
135.9500740626
 30
0.0
 10
636.299386966
 20
135.9831110125
 30
0.0
 10
636.3572161161
 20
135.9903252637
 30
0.0
  0
SPLINE
  5
785
100
AcDbEntity
  8
0
100
AcDbSpline
 62
7
  6
CONTINUOUS
 70
0
 71
3
 72
8
 73
4
 74
0
 42
0.0000001
 43
0.0000001
 44
0.0000000001
 40
0.0
 40
0.0
 40
0.0
 40
0.0
 40
1.0
 40
1.0
 40
1.0
 40
1.0
 10
636.3572161161
 20
135.9903252637
 30
0.0
 10
636.4228636677
 20
135.9985148693
 30
0.0
 10
636.4912318971
 20
135.9926655658
 30
0.0
 10
636.5551340828
 20
135.9755430268
 30
0.0
  0
SPLINE
  5
786
100
AcDbEntity
  8
0
100
AcDbSpline
 62
7
  6
CONTINUOUS
 70
0
 71
3
 72
11
 73
7
 74
0
 42
0.0000001
 43
0.0000001
 44
0.0000000001
 40
0.0
 40
0.0
 40
0.0
 40
0.0
 40
0.2092798753
 40
0.444592951
 40
0.7123432609
 40
1.0
 40
1.0
 40
1.0
 40
1.0
 10
636.8207975942
 20
138.473857038
 30
0.0
 10
636.8302458324
 20
138.5091183429
 30
0.0
 10
636.8736469767
 20
138.5786211544
 30
0.0
 10
636.9844868893
 20
138.642322091
 30
0.0
 10
637.1228667432
 20
138.6646135557
 30
0.0
 10
637.2204166954
 20
138.6522792375
 30
0.0
 10
637.2688836202
 20
138.6392925642
 30
0.0
  0
SPLINE
  5
787
100
AcDbEntity
  8
0
100
AcDbSpline
 62
7
  6
CONTINUOUS
 70
0
 71
3
 72
9
 73
5
 74
0
 42
0.0000001
 43
0.0000001
 44
0.0000000001
 40
0.0
 40
0.0
 40
0.0
 40
0.0
 40
0.538986273
 40
1.0
 40
1.0
 40
1.0
 40
1.0
 10
639.6541008966
 20
131.7191795922
 30
0.0
 10
639.7968207991
 20
131.6809379096
 30
0.0
 10
640.0780000642
 20
131.6592955748
 30
0.0
 10
640.3484277414
 20
131.7726846535
 30
0.0
 10
640.4382940782
 20
131.8615431942
 30
0.0
  0
SPLINE
  5
788
100
AcDbEntity
  8
0
100
AcDbSpline
 62
7
  6
CONTINUOUS
 70
0
 71
3
 72
9
 73
5
 74
0
 42
0.0000001
 43
0.0000001
 44
0.0000000001
 40
0.0
 40
0.0
 40
0.0
 40
0.0
 40
0.2592261758
 40
1.0
 40
1.0
 40
1.0
 40
1.0
 10
640.4382940782
 20
131.8615431942
 30
0.0
 10
640.4518540059
 20
131.8749510556
 30
0.0
 10
640.50101366
 20
131.9297161255
 30
0.0
 10
640.5361690149
 20
131.9974140475
 30
0.0
 10
640.5502729486
 20
132.0500506445
 30
0.0
  0
SPLINE
  5
789
100
AcDbEntity
  8
RUNDUNGEN
100
AcDbSpline
 62
7
  6
CONTINUOUS
 70
0
 71
3
 72
9
 73
5
 74
0
 42
0.0000001
 43
0.0000001
 44
0.0000000001
 40
0.0
 40
0.0
 40
0.0
 40
0.0
 40
0.4963806263
 40
1.0
 40
1.0
 40
1.0
 40
1.0
 10
639.4799025834
 20
151.4004295928
 30
0.0
 10
638.4283058139
 20
151.1895171378
 30
0.0
 10
636.1997568707
 20
151.2755485215
 30
0.0
 10
634.1629347625
 20
152.1699168973
 30
0.0
 10
633.2868671572
 20
152.8153942111
 30
0.0
  0
SPLINE
  5
78A
100
AcDbEntity
  8
RUNDUNGEN
100
AcDbSpline
 62
7
  6
CONTINUOUS
 70
0
 71
3
 72
11
 73
7
 74
0
 42
0.0000001
 43
0.0000001
 44
0.0000000001
 40
0.0
 40
0.0
 40
0.0
 40
0.0
 40
0.2660806569
 40
0.5190943725
 40
0.7622194677
 40
1.0
 40
1.0
 40
1.0
 40
1.0
 10
666.5284579039
 20
93.5174580109
 30
0.0
 10
666.1283131523
 20
94.2184429571
 30
0.0
 10
665.4539303777
 20
95.6512959458
 30
0.0
 10
664.8582641245
 20
97.8995551581
 30
0.0
 10
664.7232757203
 20
100.1370413328
 30
0.0
 10
664.9474918795
 20
101.5920694637
 30
0.0
 10
665.1341793022
 20
102.2887963138
 30
0.0
  0
SPLINE
  5
78B
100
AcDbEntity
  8
RUNDUNGEN
100
AcDbSpline
 62
7
  6
CONTINUOUS
 70
0
 71
3
 72
11
 73
7
 74
0
 42
0.0000001
 43
0.0000001
 44
0.0000000001
 40
0.0
 40
0.0
 40
0.0
 40
0.0
 40
0.2297109036
 40
0.4842558674
 40
0.7475645357
 40
1.0
 40
1.0
 40
1.0
 40
1.0
 10
690.393100559
 20
133.1264577731
 30
0.0
 10
689.8052661224
 20
132.7832180829
 30
0.0
 10
688.4027988344
 20
132.3321378531
 30
0.0
 10
686.1596261926
 20
132.3435083682
 30
0.0
 10
683.9379163601
 20
132.9723334616
 30
0.0
 10
682.6134334043
 20
133.7887433293
 30
0.0
 10
682.0518053751
 20
134.2828581488
 30
0.0
  0
SPLINE
  5
78C
100
AcDbEntity
  8
KONSTRUKTIONSELEMENTE
100
AcDbSpline
 62
7
  6
CONTINUOUS
 70
0
 71
3
 72
15
 73
11
 74
0
 42
0.0000001
 43
0.0000001
 44
0.0000000001
 40
0.0
 40
0.0
 40
0.0
 40
0.0
 40
0.0624946376
 40
0.1250023376
 40
0.2497593649
 40
0.3747328447
 40
0.4997829526
 40
0.6248643907
 40
0.7499620208
 40
1.0
 40
1.0
 40
1.0
 40
1.0
 10
641.3245803966
 20
174.6459297637
 30
0.0
 10
641.4264522308
 20
175.0261206247
 30
0.0
 10
641.7154951066
 20
175.7663085013
 30
0.0
 10
642.5809993
 20
177.0904063138
 30
0.0
 10
644.0630804266
 20
178.4277202414
 30
0.0
 10
646.127332291
 20
179.5933251299
 30
0.0
 10
648.3410133368
 20
180.4379504872
 30
0.0
 10
650.6352170269
 20
181.0225460631
 30
0.0
 10
653.7514196566
 20
181.5072536884
 30
0.0
 10
656.1256599709
 20
181.5763874805
 30
0.0
 10
657.6990086823
 20
181.5091569963
 30
0.0
  0
SPLINE
  5
78D
100
AcDbEntity
  8
KONSTRUKTIONSELEMENTE
100
AcDbSpline
 62
7
  6
CONTINUOUS
 70
0
 71
3
 72
9
 73
5
 74
0
 42
0.0000001
 43
0.0000001
 44
0.0000000001
 40
0.0
 40
0.0
 40
0.0
 40
0.0
 40
0.5000902521
 40
1.0
 40
1.0
 40
1.0
 40
1.0
 10
639.0205437481
 20
168.7410545864
 30
0.0
 10
639.3877055463
 20
169.273100506
 30
0.0
 10
640.0516882873
 20
170.388745201
 30
0.0
 10
640.510282996
 20
171.606930492
 30
0.0
 10
640.6775327839
 20
172.231115198
 30
0.0
  0
SPLINE
  5
78E
100
AcDbEntity
  8
KONSTRUKTIONSELEMENTE
100
AcDbSpline
 62
7
  6
CONTINUOUS
 70
0
 71
3
 72
9
 73
5
 74
0
 42
0.0000001
 43
0.0000001
 44
0.0000000001
 40
0.0
 40
0.0
 40
0.0
 40
0.0
 40
0.4999097479
 40
1.0
 40
1.0
 40
1.0
 40
1.0
 10
682.0967205502
 20
161.1328772848
 30
0.0
 10
681.9294707623
 20
160.5086925789
 30
0.0
 10
681.7175327846
 20
159.224415816
 30
0.0
 10
681.7347363585
 20
157.926247798
 30
0.0
 10
681.7866848432
 20
157.2819016166
 30
0.0
  0
SPLINE
  5
78F
100
AcDbEntity
  8
KONSTRUKTIONSELEMENTE
100
AcDbSpline
 62
7
  6
CONTINUOUS
 70
0
 71
3
 72
15
 73
11
 74
0
 42
0.0000001
 43
0.0000001
 44
0.0000000001
 40
0.0
 40
0.0
 40
0.0
 40
0.0
 40
0.2500415702
 40
0.3751416148
 40
0.5002258421
 40
0.6252778246
 40
0.7502487062
 40
0.8750031602
 40
0.9375084728
 40
1.0
 40
1.0
 40
1.0
 40
1.0
 10
671.9947109114
 20
177.6786351288
 30
0.0
 10
673.3909062388
 20
176.9501735764
 30
0.0
 10
675.412520069
 20
175.7031554228
 30
0.0
 10
677.8689212796
 20
173.725250908
 30
0.0
 10
679.5634792948
 20
172.0718270751
 30
0.0
 10
681.0582604558
 20
170.2334940891
 30
0.0
 10
682.2631167907
 20
168.1919273604
 30
0.0
 10
682.8779360799
 20
166.2927750463
 30
0.0
 10
682.9654104991
 20
164.7133706469
 30
0.0
 10
682.8456349328
 20
163.9278638111
 30
0.0
 10
682.743768163
 20
163.5476918506
 30
0.0
  0
SPLINE
  5
790
100
AcDbEntity
  8
RUNDUNGEN
100
AcDbSpline
 62
7
  6
CONTINUOUS
 70
0
 71
3
 72
9
 73
5
 74
0
 42
0.0000001
 43
0.0000001
 44
0.0000000001
 40
0.0
 40
0.0
 40
0.0
 40
0.0
 40
0.4907112898
 40
1.0
 40
1.0
 40
1.0
 40
1.0
 10
658.3534724888
 20
207.3529943744
 30
0.0
 10
657.1851866491
 20
207.6660356216
 30
0.0
 10
654.7775238124
 20
208.197499387
 30
0.0
 10
652.3766586382
 20
208.7572308447
 30
0.0
 10
651.1641436608
 20
209.0821232537
 30
0.0
  0
SPLINE
  5
791
100
AcDbEntity
  8
RUNDUNGEN
100
AcDbSpline
 62
7
  6
CONTINUOUS
 70
0
 71
3
 72
15
 73
11
 74
0
 42
0.0000001
 43
0.0000001
 44
0.0000000001
 40
0.0
 40
0.0
 40
0.0
 40
0.0
 40
0.0570233419
 40
0.1293586796
 40
0.2242107455
 40
0.3430879243
 40
0.4844660151
 40
0.6447708672
 40
0.8187803679
 40
1.0
 40
1.0
 40
1.0
 40
1.0
 10
702.293192351
 20
176.3884894207
 30
0.0
 10
702.325737661
 20
176.5099501714
 30
0.0
 10
702.3022350616
 20
176.8116809967
 30
0.0
 10
702.0400972714
 20
177.2413219228
 30
0.0
 10
701.5905913424
 20
177.6883668069
 30
0.0
 10
700.9529658646
 20
178.1470858557
 30
0.0
 10
700.1444084404
 20
178.6038937792
 30
0.0
 10
699.1894935039
 20
179.0406711528
 30
0.0
 10
698.1238167335
 20
179.4388668299
 30
0.0
 10
697.3732704794
 20
179.6653064681
 30
0.0
 10
696.987269382
 20
179.7687351504
 30
0.0
  0
SPLINE
  5
792
100
AcDbEntity
  8
KONSTRUKTIONSELEMENTE
100
AcDbSpline
 62
7
  6
CONTINUOUS
 70
0
 71
3
 72
20
 73
16
 74
0
 42
0.0000001
 43
0.0000001
 44
0.0000000001
 40
0.0
 40
0.0
 40
0.0
 40
0.0
 40
0.1925074097
 40
0.3784599411
 40
0.5508798646
 40
0.6298138988
 40
0.7027736029
 40
0.7689728188
 40
0.8277038991
 40
0.8783417129
 40
0.9203734727
 40
0.9534317115
 40
0.9665361599
 40
0.9773699474
 40
1.0
 40
1.0
 40
1.0
 40
1.0
 10
639.0205437481
 20
168.7410545864
 30
0.0
 10
638.3369885899
 20
167.7505301511
 30
0.0
 10
637.0440757543
 20
165.7676922794
 30
0.0
 10
635.2910061193
 20
162.8023886141
 30
0.0
 10
633.990366391
 20
160.3968990414
 30
0.0
 10
633.0767494838
 20
158.5868152512
 30
0.0
 10
632.4855355229
 20
157.3581013815
 30
0.0
 10
631.9717775877
 20
156.2326538504
 30
0.0
 10
631.5391052573
 20
155.223587614
 30
0.0
 10
631.1904153083
 20
154.3441712261
 30
0.0
 10
630.9282278122
 20
153.6009803142
 30
0.0
 10
630.7721508476
 20
153.076288732
 30
0.0
 10
630.6968895417
 20
152.7205057244
 30
0.0
 10
630.6565518053
 20
152.4541328439
 30
0.0
 10
630.6582370477
 20
152.1397014302
 30
0.0
 10
630.794891598
 20
152.1030849538
 30
0.0
  0
SPLINE
  5
793
100
AcDbEntity
  8
KONSTRUKTIONSELEMENTE
100
AcDbSpline
 62
7
  6
CONTINUOUS
 70
0
 71
3
 72
20
 73
16
 74
0
 42
0.0000001
 43
0.0000001
 44
0.0000000001
 40
0.0
 40
0.0
 40
0.0
 40
0.0
 40
0.0226300526
 40
0.0334638401
 40
0.0465682885
 40
0.0796265273
 40
0.1216582871
 40
0.1722961009
 40
0.2310271812
 40
0.2972263971
 40
0.3701861012
 40
0.4491201354
 40
0.6215400589
 40
0.8074925903
 40
1.0
 40
1.0
 40
1.0
 40
1.0
 10
680.5913237516
 20
138.7601711723
 30
0.0
 10
680.7279783019
 20
138.7235546959
 30
0.0
 10
680.8866534715
 20
138.9950176668
 30
0.0
 10
680.9849064073
 20
139.2458722163
 30
0.0
 10
681.0976197082
 20
139.5916199921
 30
0.0
 10
681.224798883
 20
140.1240547138
 30
0.0
 10
681.3693333068
 20
140.8987706713
 30
0.0
 10
681.5070671469
 20
141.8347125783
 30
0.0
 10
681.6368950355
 20
142.9249257383
 30
0.0
 10
681.7546913777
 20
144.1564708584
 30
0.0
 10
681.8570420033
 20
145.5161752641
 30
0.0
 10
681.9708684475
 20
147.540562263
 30
0.0
 10
682.0472261879
 20
150.2740972056
 30
0.0
 10
682.0116751821
 20
153.7186603271
 30
0.0
 10
681.8833987575
 20
156.0823047135
 30
0.0
 10
681.7866848432
 20
157.2819016166
 30
0.0
  0
SPLINE
  5
794
100
AcDbEntity
  8
RUNDUNGEN
100
AcDbSpline
 62
7
  6
CONTINUOUS
 70
0
 71
3
 72
9
 73
5
 74
0
 42
0.0000001
 43
0.0000001
 44
0.0000000001
 40
0.0
 40
0.0
 40
0.0
 40
0.0
 40
0.5098814585
 40
1.0
 40
1.0
 40
1.0
 40
1.0
 10
647.0225452062
 20
210.191861215
 30
0.0
 10
646.3925811438
 20
210.3606595879
 30
0.0
 10
645.1659963307
 20
210.7253848058
 30
0.0
 10
643.9533525532
 20
211.1323193376
 30
0.0
 10
643.3569104095
 20
211.3253752629
 30
0.0
  0
SPLINE
  5
795
100
AcDbEntity
  8
RUNDUNGEN
100
AcDbSpline
 62
7
  6
CONTINUOUS
 70
0
 71
3
 72
15
 73
11
 74
0
 42
0.0000001
 43
0.0000001
 44
0.0000000001
 40
0.0
 40
0.0
 40
0.0
 40
0.0
 40
0.0570233419
 40
0.1293586796
 40
0.2242107455
 40
0.3430879243
 40
0.4844660151
 40
0.6447708672
 40
0.8187803679
 40
1.0
 40
1.0
 40
1.0
 40
1.0
 10
700.2602168824
 20
168.8013216816
 30
0.0
 10
700.2927621925
 20
168.9227824323
 30
0.0
 10
700.269259593
 20
169.2245132575
 30
0.0
 10
700.0071218029
 20
169.6541541837
 30
0.0
 10
699.5576158739
 20
170.1011990678
 30
0.0
 10
698.9199903961
 20
170.5599181166
 30
0.0
 10
698.1114329718
 20
171.0167260401
 30
0.0
 10
697.1565180354
 20
171.4535034137
 30
0.0
 10
696.090841265
 20
171.8516990908
 30
0.0
 10
695.3402950109
 20
172.0781387289
 30
0.0
 10
694.9542939134
 20
172.1815674113
 30
0.0
  0
SPLINE
  5
796
100
AcDbEntity
  8
RUNDUNGEN
100
AcDbSpline
 62
7
  6
CONTINUOUS
 70
0
 71
3
 72
9
 73
5
 74
0
 42
0.0000001
 43
0.0000001
 44
0.0000000001
 40
0.0
 40
0.0
 40
0.0
 40
0.0
 40
0.4901185419
 40
1.0
 40
1.0
 40
1.0
 40
1.0
 10
699.3234413671
 20
196.3291884828
 30
0.0
 10
698.7103792758
 20
196.4602182351
 30
0.0
 10
697.4567315298
 20
196.714124514
 30
0.0
 10
696.2121151548
 20
197.0115556712
 30
0.0
 10
695.5821510082
 20
197.1803540555
 30
0.0
  0
SPLINE
  5
797
100
AcDbEntity
  8
RUNDUNGEN
100
AcDbSpline
 62
7
  6
CONTINUOUS
 70
0
 71
3
 72
15
 73
11
 74
0
 42
0.0000001
 43
0.0000001
 44
0.0000000001
 40
0.0
 40
0.0
 40
0.0
 40
0.0
 40
0.1812196321
 40
0.3552291328
 40
0.5155339849
 40
0.6569120757
 40
0.7757892545
 40
0.8706413204
 40
0.9429766581
 40
1.0
 40
1.0
 40
1.0
 40
1.0
 10
635.0668926835
 20
188.2283482076
 30
0.0
 10
634.6808915861
 20
188.33177689
 30
0.0
 10
633.9176796443
 20
188.510947538
 30
0.0
 10
632.7956786503
 20
188.6989383511
 30
0.0
 10
631.7503093701
 20
188.798135518
 30
0.0
 10
630.8216741385
 20
188.8068069637
 30
0.0
 10
630.0401147522
 20
188.7283573532
 30
0.0
 10
629.4273087565
 20
188.5659580914
 30
0.0
 10
628.9854703079
 20
188.3249470299
 30
0.0
 10
628.8142510471
 20
188.0753917699
 30
0.0
 10
628.781705737
 20
187.9539310192
 30
0.0
  0
SPLINE
  5
798
100
AcDbEntity
  8
RUNDUNGEN
100
AcDbSpline
 62
7
  6
CONTINUOUS
 70
0
 71
3
 72
15
 73
11
 74
0
 42
0.0000001
 43
0.0000001
 44
0.0000000001
 40
0.0
 40
0.0
 40
0.0
 40
0.0
 40
0.0570233419
 40
0.1293586796
 40
0.2242107455
 40
0.3430879243
 40
0.4844660151
 40
0.6447708672
 40
0.8187803679
 40
1.0
 40
1.0
 40
1.0
 40
1.0
 10
630.8146812056
 20
195.5410987583
 30
0.0
 10
630.8472265156
 20
195.662559509
 30
0.0
 10
631.0184457764
 20
195.912114769
 30
0.0
 10
631.4602842251
 20
196.1531258305
 30
0.0
 10
632.0730902207
 20
196.3155250923
 30
0.0
 10
632.854649607
 20
196.3939747028
 30
0.0
 10
633.7832848386
 20
196.3853032571
 30
0.0
 10
634.8286541188
 20
196.2861060902
 30
0.0
 10
635.9506551128
 20
196.0981152771
 30
0.0
 10
636.7138670546
 20
195.9189446291
 30
0.0
 10
637.0998681521
 20
195.8155159468
 30
0.0
  0
SPLINE
  5
799
100
AcDbEntity
  8
RUNDUNGEN
100
AcDbSpline
 62
7
  6
CONTINUOUS
 70
0
 71
3
 72
9
 73
5
 74
0
 42
0.0000001
 43
0.0000001
 44
0.0000000001
 40
0.0
 40
0.0
 40
0.0
 40
0.0
 40
0.5092886403
 40
1.0
 40
1.0
 40
1.0
 40
1.0
 10
691.440553159
 20
198.2900918546
 30
0.0
 10
690.228037203
 20
198.6149845258
 30
0.0
 10
687.8689590664
 20
199.3306763027
 30
0.0
 10
685.5181276797
 20
200.0742469533
 30
0.0
 10
684.3498405702
 20
200.3872885408
 30
0.0
  0
SPLINE
  5
79A
100
AcDbEntity
  8
0
100
AcDbSpline
 62
7
  6
CONTINUOUS
 70
0
 71
3
 72
20
 73
16
 74
0
 42
0.0000001
 43
0.0000001
 44
0.0000000001
 40
0.0
 40
0.0
 40
0.0
 40
0.0
 40
0.0226300526
 40
0.0334638401
 40
0.0465682885
 40
0.0796265273
 40
0.1216582871
 40
0.1722961009
 40
0.2310271812
 40
0.2972263971
 40
0.3701861012
 40
0.4491201354
 40
0.6215400589
 40
0.8074925903
 40
1.0
 40
1.0
 40
1.0
 40
1.0
 10
802.9095565912
 20
138.7601711723
 30
0.0
 10
802.7729020408
 20
138.7235546959
 30
0.0
 10
802.6142268713
 20
138.9950176668
 30
0.0
 10
802.5159739355
 20
139.2458722163
 30
0.0
 10
802.4032606345
 20
139.5916199921
 30
0.0
 10
802.2760814597
 20
140.1240547138
 30
0.0
 10
802.131547036
 20
140.8987706713
 30
0.0
 10
801.9938131958
 20
141.8347125783
 30
0.0
 10
801.8639853073
 20
142.9249257383
 30
0.0
 10
801.7461889651
 20
144.1564708584
 30
0.0
 10
801.6438383394
 20
145.5161752641
 30
0.0
 10
801.5300118952
 20
147.540562263
 30
0.0
 10
801.4536541548
 20
150.2740972056
 30
0.0
 10
801.4892051606
 20
153.7186603271
 30
0.0
 10
801.6174815853
 20
156.0823047135
 30
0.0
 10
801.7141954996
 20
157.2819016166
 30
0.0
  0
SPLINE
  5
79B
100
AcDbEntity
  8
0
100
AcDbSpline
 62
7
  6
CONTINUOUS
 70
0
 71
3
 72
20
 73
16
 74
0
 42
0.0000001
 43
0.0000001
 44
0.0000000001
 40
0.0
 40
0.0
 40
0.0
 40
0.0
 40
0.1925074097
 40
0.3784599411
 40
0.5508798646
 40
0.6298138988
 40
0.7027736029
 40
0.7689728188
 40
0.8277038991
 40
0.8783417129
 40
0.9203734727
 40
0.9534317115
 40
0.9665361599
 40
0.9773699474
 40
1.0
 40
1.0
 40
1.0
 40
1.0
 10
844.4803365946
 20
168.7410545864
 30
0.0
 10
845.1638917529
 20
167.7505301511
 30
0.0
 10
846.4568045885
 20
165.7676922794
 30
0.0
 10
848.2098742234
 20
162.8023886141
 30
0.0
 10
849.5105139518
 20
160.3968990414
 30
0.0
 10
850.4241308589
 20
158.5868152512
 30
0.0
 10
851.0153448198
 20
157.3581013815
 30
0.0
 10
851.5291027551
 20
156.2326538504
 30
0.0
 10
851.9617750855
 20
155.223587614
 30
0.0
 10
852.3104650344
 20
154.3441712261
 30
0.0
 10
852.5726525305
 20
153.6009803142
 30
0.0
 10
852.7287294952
 20
153.076288732
 30
0.0
 10
852.8039908011
 20
152.7205057244
 30
0.0
 10
852.8443285374
 20
152.4541328439
 30
0.0
 10
852.8426432951
 20
152.1397014302
 30
0.0
 10
852.7059887448
 20
152.1030849538
 30
0.0
  0
SPLINE
  5
79C
100
AcDbEntity
  8
0
100
AcDbSpline
 62
7
  6
CONTINUOUS
 70
0
 71
3
 72
9
 73
5
 74
0
 42
0.0000001
 43
0.0000001
 44
0.0000000001
 40
0.0
 40
0.0
 40
0.0
 40
0.0
 40
0.4907112898
 40
1.0
 40
1.0
 40
1.0
 40
1.0
 10
825.147407854
 20
207.3529943744
 30
0.0
 10
826.3156936936
 20
207.6660356216
 30
0.0
 10
828.7233565304
 20
208.197499387
 30
0.0
 10
831.1242217045
 20
208.7572308447
 30
0.0
 10
832.3367366819
 20
209.0821232537
 30
0.0
  0
SPLINE
  5
79D
100
AcDbEntity
  8
0
100
AcDbSpline
 62
7
  6
CONTINUOUS
 70
0
 71
3
 72
9
 73
5
 74
0
 42
0.0000001
 43
0.0000001
 44
0.0000000001
 40
0.0
 40
0.0
 40
0.0
 40
0.0
 40
0.4999097479
 40
1.0
 40
1.0
 40
1.0
 40
1.0
 10
801.4041597925
 20
161.1328772848
 30
0.0
 10
801.5714095804
 20
160.5086925789
 30
0.0
 10
801.7833475582
 20
159.224415816
 30
0.0
 10
801.7661439843
 20
157.926247798
 30
0.0
 10
801.7141954996
 20
157.2819016166
 30
0.0
  0
SPLINE
  5
79E
100
AcDbEntity
  8
0
100
AcDbSpline
 62
7
  6
CONTINUOUS
 70
0
 71
3
 72
15
 73
11
 74
0
 42
0.0000001
 43
0.0000001
 44
0.0000000001
 40
0.0
 40
0.0
 40
0.0
 40
0.0
 40
0.2500415702
 40
0.3751416148
 40
0.5002258421
 40
0.6252778246
 40
0.7502487062
 40
0.8750031602
 40
0.9375084728
 40
1.0
 40
1.0
 40
1.0
 40
1.0
 10
811.5061694313
 20
177.6786351288
 30
0.0
 10
810.1099741039
 20
176.9501735764
 30
0.0
 10
808.0883602737
 20
175.7031554228
 30
0.0
 10
805.6319590632
 20
173.725250908
 30
0.0
 10
803.9374010479
 20
172.0718270751
 30
0.0
 10
802.442619887
 20
170.2334940891
 30
0.0
 10
801.2377635521
 20
168.1919273604
 30
0.0
 10
800.6229442628
 20
166.2927750463
 30
0.0
 10
800.5354698436
 20
164.7133706469
 30
0.0
 10
800.65524541
 20
163.9278638111
 30
0.0
 10
800.7571121798
 20
163.5476918506
 30
0.0
  0
SPLINE
  5
79F
100
AcDbEntity
  8
0
100
AcDbSpline
 62
7
  6
CONTINUOUS
 70
0
 71
3
 72
15
 73
11
 74
0
 42
0.0000001
 43
0.0000001
 44
0.0000000001
 40
0.0
 40
0.0
 40
0.0
 40
0.0
 40
0.0624946376
 40
0.1250023376
 40
0.2497593649
 40
0.3747328447
 40
0.4997829526
 40
0.6248643907
 40
0.7499620208
 40
1.0
 40
1.0
 40
1.0
 40
1.0
 10
842.1762999461
 20
174.6459297637
 30
0.0
 10
842.074428112
 20
175.0261206247
 30
0.0
 10
841.7853852362
 20
175.7663085013
 30
0.0
 10
840.9198810427
 20
177.0904063138
 30
0.0
 10
839.4377999161
 20
178.4277202414
 30
0.0
 10
837.3735480518
 20
179.5933251299
 30
0.0
 10
835.1598670059
 20
180.4379504872
 30
0.0
 10
832.8656633159
 20
181.0225460631
 30
0.0
 10
829.7494606862
 20
181.5072536884
 30
0.0
 10
827.3752203719
 20
181.5763874805
 30
0.0
 10
825.8018716604
 20
181.5091569963
 30
0.0
  0
SPLINE
  5
7A0
100
AcDbEntity
  8
0
100
AcDbSpline
 62
7
  6
CONTINUOUS
 70
0
 71
3
 72
9
 73
5
 74
0
 42
0.0000001
 43
0.0000001
 44
0.0000000001
 40
0.0
 40
0.0
 40
0.0
 40
0.0
 40
0.5000902521
 40
1.0
 40
1.0
 40
1.0
 40
1.0
 10
844.4803365946
 20
168.7410545864
 30
0.0
 10
844.1131747965
 20
169.273100506
 30
0.0
 10
843.4491920555
 20
170.388745201
 30
0.0
 10
842.9905973468
 20
171.606930492
 30
0.0
 10
842.8233475589
 20
172.231115198
 30
0.0
  0
SPLINE
  5
7A1
100
AcDbEntity
  8
0
100
AcDbSpline
 62
7
  6
CONTINUOUS
 70
0
 71
3
 72
9
 73
5
 74
0
 42
0.0000001
 43
0.0000001
 44
0.0000000001
 40
0.0
 40
0.0
 40
0.0
 40
0.0
 40
0.5092886403
 40
1.0
 40
1.0
 40
1.0
 40
1.0
 10
792.0603271837
 20
198.2900918546
 30
0.0
 10
793.2728431398
 20
198.6149845258
 30
0.0
 10
795.6319212763
 20
199.3306763027
 30
0.0
 10
797.9827526631
 20
200.0742469533
 30
0.0
 10
799.1510397725
 20
200.3872885408
 30
0.0
  0
SPLINE
  5
7A2
100
AcDbEntity
  8
0
100
AcDbSpline
 62
7
  6
CONTINUOUS
 70
0
 71
3
 72
9
 73
5
 74
0
 42
0.0000001
 43
0.0000001
 44
0.0000000001
 40
0.0
 40
0.0
 40
0.0
 40
0.0
 40
0.4901185419
 40
1.0
 40
1.0
 40
1.0
 40
1.0
 10
784.1774389756
 20
196.3291884828
 30
0.0
 10
784.790501067
 20
196.4602182351
 30
0.0
 10
786.0441488129
 20
196.714124514
 30
0.0
 10
787.288765188
 20
197.0115556712
 30
0.0
 10
787.9187293345
 20
197.1803540555
 30
0.0
  0
SPLINE
  5
7A3
100
AcDbEntity
  8
0
100
AcDbSpline
 62
7
  6
CONTINUOUS
 70
0
 71
3
 72
9
 73
5
 74
0
 42
0.0000001
 43
0.0000001
 44
0.0000000001
 40
0.0
 40
0.0
 40
0.0
 40
0.0
 40
0.5098814585
 40
1.0
 40
1.0
 40
1.0
 40
1.0
 10
836.4783351366
 20
210.191861215
 30
0.0
 10
837.108299199
 20
210.3606595879
 30
0.0
 10
838.334884012
 20
210.7253848058
 30
0.0
 10
839.5475277895
 20
211.1323193376
 30
0.0
 10
840.1439699333
 20
211.3253752629
 30
0.0
  0
SPLINE
  5
7A4
100
AcDbEntity
  8
0
100
AcDbSpline
 62
7
  6
CONTINUOUS
 70
0
 71
3
 72
15
 73
11
 74
0
 42
0.0000001
 43
0.0000001
 44
0.0000000001
 40
0.0
 40
0.0
 40
0.0
 40
0.0
 40
0.0570233419
 40
0.1293586796
 40
0.2242107455
 40
0.3430879243
 40
0.4844660151
 40
0.6447708672
 40
0.8187803679
 40
1.0
 40
1.0
 40
1.0
 40
1.0
 10
852.6861991372
 20
195.5410987583
 30
0.0
 10
852.6536538271
 20
195.662559509
 30
0.0
 10
852.4824345663
 20
195.912114769
 30
0.0
 10
852.0405961177
 20
196.1531258305
 30
0.0
 10
851.427790122
 20
196.3155250923
 30
0.0
 10
850.6462307357
 20
196.3939747028
 30
0.0
 10
849.7175955041
 20
196.3853032571
 30
0.0
 10
848.6722262239
 20
196.2861060902
 30
0.0
 10
847.55022523
 20
196.0981152771
 30
0.0
 10
846.7870132881
 20
195.9189446291
 30
0.0
 10
846.4010121907
 20
195.8155159468
 30
0.0
  0
SPLINE
  5
7A5
100
AcDbEntity
  8
0
100
AcDbSpline
 62
7
  6
CONTINUOUS
 70
0
 71
3
 72
15
 73
11
 74
0
 42
0.0000001
 43
0.0000001
 44
0.0000000001
 40
0.0
 40
0.0
 40
0.0
 40
0.0
 40
0.1812196321
 40
0.3552291328
 40
0.5155339849
 40
0.6569120757
 40
0.7757892545
 40
0.8706413204
 40
0.9429766581
 40
1.0
 40
1.0
 40
1.0
 40
1.0
 10
848.4339876592
 20
188.2283482076
 30
0.0
 10
848.8199887567
 20
188.33177689
 30
0.0
 10
849.5832006985
 20
188.510947538
 30
0.0
 10
850.7052016925
 20
188.6989383511
 30
0.0
 10
851.7505709727
 20
188.798135518
 30
0.0
 10
852.6792062043
 20
188.8068069637
 30
0.0
 10
853.4607655905
 20
188.7283573532
 30
0.0
 10
854.0735715862
 20
188.5659580914
 30
0.0
 10
854.5154100349
 20
188.3249470299
 30
0.0
 10
854.6866292957
 20
188.0753917699
 30
0.0
 10
854.7191746057
 20
187.9539310192
 30
0.0
  0
SPLINE
  5
7A6
100
AcDbEntity
  8
0
100
AcDbSpline
 62
7
  6
CONTINUOUS
 70
0
 71
3
 72
15
 73
11
 74
0
 42
0.0000001
 43
0.0000001
 44
0.0000000001
 40
0.0
 40
0.0
 40
0.0
 40
0.0
 40
0.0570233419
 40
0.1293586796
 40
0.2242107455
 40
0.3430879243
 40
0.4844660151
 40
0.6447708672
 40
0.8187803679
 40
1.0
 40
1.0
 40
1.0
 40
1.0
 10
783.2406634603
 20
168.8013216816
 30
0.0
 10
783.2081181503
 20
168.9227824323
 30
0.0
 10
783.2316207497
 20
169.2245132575
 30
0.0
 10
783.4937585399
 20
169.6541541837
 30
0.0
 10
783.9432644688
 20
170.1011990678
 30
0.0
 10
784.5808899467
 20
170.5599181166
 30
0.0
 10
785.3894473709
 20
171.0167260401
 30
0.0
 10
786.3443623074
 20
171.4535034137
 30
0.0
 10
787.4100390778
 20
171.8516990908
 30
0.0
 10
788.1605853319
 20
172.0781387289
 30
0.0
 10
788.5465864293
 20
172.1815674113
 30
0.0
  0
SPLINE
  5
7A7
100
AcDbEntity
  8
0
100
AcDbSpline
 62
7
  6
CONTINUOUS
 70
0
 71
3
 72
15
 73
11
 74
0
 42
0.0000001
 43
0.0000001
 44
0.0000000001
 40
0.0
 40
0.0
 40
0.0
 40
0.0
 40
0.0570233419
 40
0.1293586796
 40
0.2242107455
 40
0.3430879243
 40
0.4844660151
 40
0.6447708672
 40
0.8187803679
 40
1.0
 40
1.0
 40
1.0
 40
1.0
 10
781.2076879918
 20
176.3884894207
 30
0.0
 10
781.1751426817
 20
176.5099501714
 30
0.0
 10
781.1986452812
 20
176.8116809967
 30
0.0
 10
781.4607830714
 20
177.2413219228
 30
0.0
 10
781.9102890003
 20
177.6883668069
 30
0.0
 10
782.5479144782
 20
178.1470858557
 30
0.0
 10
783.3564719024
 20
178.6038937792
 30
0.0
 10
784.3113868388
 20
179.0406711528
 30
0.0
 10
785.3770636092
 20
179.4388668299
 30
0.0
 10
786.1276098633
 20
179.6653064681
 30
0.0
 10
786.5136109608
 20
179.7687351504
 30
0.0
  0
SPLINE
  5
7A8
100
AcDbEntity
  8
KONSTRUKTIONSELEMENTE
100
AcDbSpline
 62
7
  6
CONTINUOUS
 70
0
 71
3
 72
11
 73
7
 74
0
 42
0.0000001
 43
0.0000001
 44
0.0000000001
 40
0.0
 40
0.0
 40
0.0
 40
0.0
 40
0.2193102634
 40
0.4447591571
 40
0.7096345186
 40
1.0
 40
1.0
 40
1.0
 40
1.0
 10
353.724306105
 20
181.0596752861
 30
0.0
 10
353.4583643222
 20
181.2254881166
 30
0.0
 10
352.9022003042
 20
181.5368526428
 30
0.0
 10
351.9299649483
 20
181.8611595926
 30
0.0
 10
350.7817634329
 20
181.830563134
 30
0.0
 10
350.0520201477
 20
181.4222895034
 30
0.0
 10
349.7538352864
 20
181.1337420042
 30
0.0
  0
SPLINE
  5
7A9
100
AcDbEntity
  8
KONSTRUKTIONSELEMENTE
100
AcDbSpline
 62
7
  6
CONTINUOUS
 70
0
 71
3
 72
25
 73
21
 74
0
 42
0.0000001
 43
0.0000001
 44
0.0000000001
 40
0.0
 40
0.0
 40
0.0
 40
0.0
 40
0.0139556627
 40
0.0215641577
 40
0.0229744644
 40
0.0230439997
 40
0.0271929754
 40
0.0360330942
 40
0.0489380107
 40
0.0654456056
 40
0.085103462
 40
0.1324479604
 40
0.1889354145
 40
0.2529517006
 40
0.323314794
 40
0.3989389876
 40
0.4788786837
 40
0.6480928262
 40
0.8241941934
 40
1.0
 40
1.0
 40
1.0
 40
1.0
 10
353.474364736
 20
179.5727926847
 30
0.0
 10
353.4698295373
 20
179.5982625392
 30
0.0
 10
353.4567860761
 20
179.64678763
 30
0.0
 10
353.4557541499
 20
179.6669173039
 30
0.0
 10
353.442668219
 20
179.6990037257
 30
0.0
 10
353.449103983
 20
179.6901575442
 30
0.0
 10
353.454152985
 20
179.6663654901
 30
0.0
 10
353.4770514748
 20
179.623660007
 30
0.0
 10
353.507410068
 20
179.5597871001
 30
0.0
 10
353.5508653695
 20
179.4797474172
 30
0.0
 10
353.6270701739
 20
179.3450357431
 30
0.0
 10
353.7475720339
 20
179.1502668146
 30
0.0
 10
353.9200951708
 20
178.8912890548
 30
0.0
 10
354.12538827
 20
178.6030455191
 30
0.0
 10
354.3592745583
 20
178.2917965613
 30
0.0
 10
354.6186338264
 20
177.9629065682
 30
0.0
 10
355.0011553175
 20
177.4979377369
 30
0.0
 10
355.5197030657
 20
176.9039091374
 30
0.0
 10
356.1796986587
 20
176.1982598217
 30
0.0
 10
356.6409565115
 20
175.7367399256
 30
0.0
 10
356.8753630989
 20
175.5103205489
 30
0.0
  0
SPLINE
  5
7AA
100
AcDbEntity
  8
KONSTRUKTIONSELEMENTE
100
AcDbSpline
 62
7
  6
CONTINUOUS
 70
0
 71
3
 72
17
 73
13
 74
0
 42
0.0000001
 43
0.0000001
 44
0.0000000001
 40
0.0
 40
0.0
 40
0.0
 40
0.0
 40
0.0672998635
 40
0.1329602329
 40
0.1944855734
 40
0.2504309869
 40
0.3502866628
 40
0.4545528348
 40
0.5743822025
 40
0.7091855667
 40
0.853565524
 40
1.0
 40
1.0
 40
1.0
 40
1.0
 10
349.7538352864
 20
181.1337420042
 30
0.0
 10
349.5817898896
 20
180.9672571305
 30
0.0
 10
349.2884555468
 20
180.5859335367
 30
0.0
 10
349.0383458888
 20
179.9312469017
 30
0.0
 10
348.9739551881
 20
179.2763171271
 30
0.0
 10
349.068090263
 20
178.5039132602
 30
0.0
 10
349.4082311473
 20
177.6325595795
 30
0.0
 10
349.9935850373
 20
176.6385658877
 30
0.0
 10
350.737582506
 20
175.5992532846
 30
0.0
 10
351.6338668962
 20
174.4978305797
 30
0.0
 10
352.6473992952
 20
173.3722751011
 30
0.0
 10
353.3743300183
 20
172.6355815995
 30
0.0
 10
353.7490034412
 20
172.2736748639
 30
0.0
  0
SPLINE
  5
7AB
100
AcDbEntity
  8
KONSTRUKTIONSELEMENTE
100
AcDbSpline
 62
7
  6
CONTINUOUS
 70
0
 71
3
 72
13
 73
9
 74
0
 42
0.0000001
 43
0.0000001
 44
0.0000000001
 40
0.0
 40
0.0
 40
0.0
 40
0.0
 40
0.147827563
 40
0.2910391013
 40
0.5396303344
 40
0.6488307226
 40
0.7583173339
 40
1.0
 40
1.0
 40
1.0
 40
1.0
 10
371.4771329715
 20
159.3814818988
 30
0.0
 10
371.6678407494
 20
159.5660259837
 30
0.0
 10
371.9858222871
 20
159.9944628612
 30
0.0
 10
372.2958058536
 20
160.927296081
 30
0.0
 10
372.2097917469
 20
161.8600637176
 30
0.0
 10
371.911018903
 20
162.644067554
 30
0.0
 10
371.5425157887
 20
163.3852572618
 30
0.0
 10
371.1981539226
 20
163.9154558351
 30
0.0
 10
370.9492409233
 20
164.2708187606
 30
0.0
  0
SPLINE
  5
7AC
100
AcDbEntity
  8
KONSTRUKTIONSELEMENTE
100
AcDbSpline
 62
7
  6
CONTINUOUS
 70
0
 71
3
 72
19
 73
15
 74
0
 42
0.0000001
 43
0.0000001
 44
0.0000000001
 40
0.0
 40
0.0
 40
0.0
 40
0.0
 40
0.186931947
 40
0.3655432537
 40
0.5317545855
 40
0.6818380102
 40
0.7494939838
 40
0.8113676119
 40
0.866702645
 40
0.9144809375
 40
0.9535989404
 40
0.9694074678
 40
0.9823674488
 40
1.0
 40
1.0
 40
1.0
 40
1.0
 10
367.4819648167
 20
165.2651300205
 30
0.0
 10
367.6363095588
 20
165.116044448
 30
0.0
 10
367.941556779
 20
164.8280324021
 30
0.0
 10
368.3958755709
 20
164.4202216463
 30
0.0
 10
368.8290575608
 20
164.052529253
 30
0.0
 10
369.1740064847
 20
163.7779365953
 30
0.0
 10
369.4308085958
 20
163.5854505252
 30
0.0
 10
369.6034787491
 20
163.4617323288
 30
0.0
 10
369.759548931
 20
163.3554179093
 30
0.0
 10
369.8985898325
 20
163.2665167312
 30
0.0
 10
369.9958817697
 20
163.2077050518
 30
0.0
 10
370.0703227554
 20
163.1673288531
 30
0.0
 10
370.1012960394
 20
163.1487013615
 30
0.0
 10
370.1829815752
 20
163.1133893082
 30
0.0
 10
370.1638872212
 20
163.1201064824
 30
0.0
  0
SPLINE
  5
7AD
100
AcDbEntity
  8
KONSTRUKTIONSELEMENTE
100
AcDbSpline
 62
7
  6
CONTINUOUS
 70
0
 71
3
 72
9
 73
5
 74
0
 42
0.0000001
 43
0.0000001
 44
0.0000000001
 40
0.0
 40
0.0
 40
0.0
 40
0.0
 40
0.5263197575
 40
1.0
 40
1.0
 40
1.0
 40
1.0
 10
364.355605159
 20
162.0284843355
 30
0.0
 10
364.7446926638
 20
161.6526546658
 30
0.0
 10
365.5017882504
 20
160.9568081685
 30
0.0
 10
366.2993361275
 20
160.3068177905
 30
0.0
 10
366.6900685694
 20
160.0163757042
 30
0.0
  0
SPLINE
  5
7AE
100
AcDbEntity
  8
KONSTRUKTIONSELEMENTE
100
AcDbSpline
 62
7
  6
CONTINUOUS
 70
0
 71
3
 72
14
 73
10
 74
0
 42
0.0000001
 43
0.0000001
 44
0.0000000001
 40
0.0
 40
0.0
 40
0.0
 40
0.0
 40
0.238355881
 40
0.3472682142
 40
0.4568467248
 40
0.5760006498
 40
0.7088709196
 40
0.852214807
 40
1.0
 40
1.0
 40
1.0
 40
1.0
 10
366.7209823027
 20
159.9934553715
 30
0.0
 10
367.0566681255
 20
159.7452086279
 30
0.0
 10
367.5602050327
 20
159.4005001925
 30
0.0
 10
368.2690405491
 20
159.0272806735
 30
0.0
 10
368.820045232
 20
158.8077094808
 30
0.0
 10
369.4432182956
 20
158.6739586479
 30
0.0
 10
370.1434352174
 20
158.6840810458
 30
0.0
 10
370.8641741132
 20
158.9040795696
 30
0.0
 10
371.2911085609
 20
159.2014698143
 30
0.0
 10
371.4771329715
 20
159.3814818988
 30
0.0
  0
SPLINE
  5
7AF
100
AcDbEntity
  8
KONSTRUKTIONSELEMENTE
100
AcDbSpline
 62
7
  6
CONTINUOUS
 70
0
 71
3
 72
13
 73
9
 74
0
 42
0.0000001
 43
0.0000001
 44
0.0000000001
 40
0.0
 40
0.0
 40
0.0
 40
0.0
 40
0.2266749134
 40
0.4472161745
 40
0.5713587125
 40
0.7075537383
 40
0.8520150675
 40
1.0
 40
1.0
 40
1.0
 40
1.0
 10
322.9605590613
 20
210.8846462015
 30
0.0
 10
322.6656649772
 20
211.0850775104
 30
0.0
 10
322.0672731817
 20
211.4569275875
 30
0.0
 10
321.225334834
 20
211.7990356469
 30
0.0
 10
320.4713493323
 20
211.9045670073
 30
0.0
 10
319.8304050976
 20
211.8507940889
 30
0.0
 10
319.187739822
 20
211.6215883206
 30
0.0
 10
318.8084188196
 20
211.3481762263
 30
0.0
 10
318.6411369142
 20
211.1863008875
 30
0.0
  0
SPLINE
  5
7B0
100
AcDbEntity
  8
KONSTRUKTIONSELEMENTE
100
AcDbSpline
 62
7
  6
CONTINUOUS
 70
0
 71
3
 72
25
 73
21
 74
0
 42
0.0000001
 43
0.0000001
 44
0.0000000001
 40
0.0
 40
0.0
 40
0.0
 40
0.0
 40
0.0139556627
 40
0.0215641577
 40
0.0229744644
 40
0.0230439997
 40
0.0271929754
 40
0.0360330942
 40
0.0489380107
 40
0.0654456056
 40
0.085103462
 40
0.1324479604
 40
0.1889354145
 40
0.2529517006
 40
0.323314794
 40
0.3989389876
 40
0.4788786837
 40
0.6480928262
 40
0.8241941934
 40
1.0
 40
1.0
 40
1.0
 40
1.0
 10
322.3616663638
 20
209.625351568
 30
0.0
 10
322.3571311651
 20
209.6508214224
 30
0.0
 10
322.3440877039
 20
209.6993465132
 30
0.0
 10
322.3430557777
 20
209.7194761872
 30
0.0
 10
322.3299698468
 20
209.7515626089
 30
0.0
 10
322.3364056107
 20
209.7427164274
 30
0.0
 10
322.3414546128
 20
209.7189243733
 30
0.0
 10
322.3643531026
 20
209.6762188903
 30
0.0
 10
322.3947116958
 20
209.6123459834
 30
0.0
 10
322.4381669973
 20
209.5323063004
 30
0.0
 10
322.5143718017
 20
209.3975946263
 30
0.0
 10
322.6348736617
 20
209.2028256978
 30
0.0
 10
322.8073967985
 20
208.9438479381
 30
0.0
 10
323.0126898978
 20
208.6556044024
 30
0.0
 10
323.2465761861
 20
208.3443554445
 30
0.0
 10
323.5059354542
 20
208.0154654515
 30
0.0
 10
323.8884569453
 20
207.5504966201
 30
0.0
 10
324.4070046935
 20
206.9564680207
 30
0.0
 10
325.0670002865
 20
206.250818705
 30
0.0
 10
325.5282581393
 20
205.7892988088
 30
0.0
 10
325.7626647267
 20
205.5628794322
 30
0.0
  0
SPLINE
  5
7B1
100
AcDbEntity
  8
KONSTRUKTIONSELEMENTE
100
AcDbSpline
 62
7
  6
CONTINUOUS
 70
0
 71
3
 72
17
 73
13
 74
0
 42
0.0000001
 43
0.0000001
 44
0.0000000001
 40
0.0
 40
0.0
 40
0.0
 40
0.0
 40
0.0672998635
 40
0.1329602329
 40
0.1944855734
 40
0.2504309869
 40
0.3502866628
 40
0.4545528348
 40
0.5743822025
 40
0.7091855667
 40
0.853565524
 40
1.0
 40
1.0
 40
1.0
 40
1.0
 10
318.6411369142
 20
211.1863008875
 30
0.0
 10
318.4690915174
 20
211.0198160138
 30
0.0
 10
318.1757571746
 20
210.6384924199
 30
0.0
 10
317.9256475166
 20
209.983805785
 30
0.0
 10
317.8612568159
 20
209.3288760104
 30
0.0
 10
317.9553918908
 20
208.5564721434
 30
0.0
 10
318.2955327751
 20
207.6851184628
 30
0.0
 10
318.880886665
 20
206.691124771
 30
0.0
 10
319.6248841338
 20
205.6518121678
 30
0.0
 10
320.521168524
 20
204.550389463
 30
0.0
 10
321.534700923
 20
203.4248339844
 30
0.0
 10
322.2616316461
 20
202.6881404827
 30
0.0
 10
322.636305069
 20
202.3262337471
 30
0.0
  0
SPLINE
  5
7B2
100
AcDbEntity
  8
KONSTRUKTIONSELEMENTE
100
AcDbSpline
 62
7
  6
CONTINUOUS
 70
0
 71
3
 72
13
 73
9
 74
0
 42
0.0000001
 43
0.0000001
 44
0.0000000001
 40
0.0
 40
0.0
 40
0.0
 40
0.0
 40
0.1478830584
 40
0.2925777243
 40
0.4291426403
 40
0.5544682928
 40
0.7758011155
 40
1.0
 40
1.0
 40
1.0
 40
1.0
 10
340.3644345993
 20
189.4340407821
 30
0.0
 10
340.5276630133
 20
189.5919936387
 30
0.0
 10
340.8087893111
 20
189.9514747736
 30
0.0
 10
341.0599146227
 20
190.5692373862
 30
0.0
 10
341.1428364164
 20
191.1942391126
 30
0.0
 10
341.0786668974
 20
191.9385107391
 30
0.0
 10
340.7853925279
 20
192.7756455775
 30
0.0
 10
340.450835689
 20
193.3738107975
 30
0.0
 10
340.2700599707
 20
193.6669009344
 30
0.0
  0
SPLINE
  5
7B3
100
AcDbEntity
  8
KONSTRUKTIONSELEMENTE
100
AcDbSpline
 62
7
  6
CONTINUOUS
 70
0
 71
3
 72
19
 73
15
 74
0
 42
0.0000001
 43
0.0000001
 44
0.0000000001
 40
0.0
 40
0.0
 40
0.0
 40
0.0
 40
0.186931947
 40
0.3655432537
 40
0.5317545855
 40
0.6818380102
 40
0.7494939838
 40
0.8113676119
 40
0.866702645
 40
0.9144809375
 40
0.9535989404
 40
0.9694074678
 40
0.9823674488
 40
1.0
 40
1.0
 40
1.0
 40
1.0
 10
336.3692664445
 20
195.3176889038
 30
0.0
 10
336.5236111866
 20
195.1686033313
 30
0.0
 10
336.8288584068
 20
194.8805912854
 30
0.0
 10
337.2831771987
 20
194.4727805295
 30
0.0
 10
337.7163591886
 20
194.1050881362
 30
0.0
 10
338.0613081125
 20
193.8304954785
 30
0.0
 10
338.3181102236
 20
193.6380094085
 30
0.0
 10
338.4907803769
 20
193.514291212
 30
0.0
 10
338.6468505588
 20
193.4079767925
 30
0.0
 10
338.7858914603
 20
193.3190756144
 30
0.0
 10
338.8831833975
 20
193.260263935
 30
0.0
 10
338.9576243832
 20
193.2198877364
 30
0.0
 10
338.9885976672
 20
193.2012602448
 30
0.0
 10
339.070283203
 20
193.1659481914
 30
0.0
 10
339.051188849
 20
193.1726653657
 30
0.0
  0
SPLINE
  5
7B4
100
AcDbEntity
  8
KONSTRUKTIONSELEMENTE
100
AcDbSpline
 62
7
  6
CONTINUOUS
 70
0
 71
3
 72
14
 73
10
 74
0
 42
0.0000001
 43
0.0000001
 44
0.0000000001
 40
0.0
 40
0.0
 40
0.0
 40
0.0
 40
0.2853075585
 40
0.4098818106
 40
0.5208692916
 40
0.6238507303
 40
0.7336576496
 40
0.8616333138
 40
1.0
 40
1.0
 40
1.0
 40
1.0
 10
333.2429067868
 20
192.0810432187
 30
0.0
 10
333.8150659167
 20
191.5283799384
 30
0.0
 10
334.6654239726
 20
190.7617472146
 30
0.0
 10
335.8191332367
 20
189.8784044494
 30
0.0
 10
336.6088515813
 20
189.3593553639
 30
0.0
 10
337.4152718793
 20
188.9473248076
 30
0.0
 10
338.3421777801
 20
188.6924868141
 30
0.0
 10
339.4164017801
 20
188.7737208634
 30
0.0
 10
340.087195539
 20
189.1657621138
 30
0.0
 10
340.3644345993
 20
189.4340407821
 30
0.0
  0
SPLINE
  5
7B5
100
AcDbEntity
  8
KONSTRUKTIONSELEMENTE
100
AcDbSpline
 62
7
  6
CONTINUOUS
 70
0
 71
3
 72
9
 73
5
 74
0
 42
0.0000001
 43
0.0000001
 44
0.0000000001
 40
0.0
 40
0.0
 40
0.0
 40
0.0
 40
0.4992056363
 40
1.0
 40
1.0
 40
1.0
 40
1.0
 10
358.3623947045
 20
180.1595136655
 30
0.0
 10
358.3621155413
 20
179.3423111924
 30
0.0
 10
358.0943150121
 20
177.694513931
 30
0.0
 10
357.3164441829
 20
176.2183272448
 30
0.0
 10
356.8255533308
 20
175.5617424569
 30
0.0
  0
SPLINE
  5
7B6
100
AcDbEntity
  8
KONSTRUKTIONSELEMENTE
100
AcDbSpline
 62
7
  6
CONTINUOUS
 70
0
 71
3
 72
11
 73
7
 74
0
 42
0.0000001
 43
0.0000001
 44
0.0000000001
 40
0.0
 40
0.0
 40
0.0
 40
0.0
 40
0.2503834639
 40
0.5009562809
 40
0.7509829001
 40
1.0
 40
1.0
 40
1.0
 40
1.0
 10
353.1599043675
 20
172.849855267
 30
0.0
 10
352.4507443973
 20
172.5917743777
 30
0.0
 10
350.9515387161
 20
172.2722550873
 30
0.0
 10
348.6652223713
 20
172.4273388204
 30
0.0
 10
346.5117188855
 20
173.1994306742
 30
0.0
 10
345.2732234863
 20
174.0942130578
 30
0.0
 10
344.7333919811
 20
174.6156502506
 30
0.0
  0
SPLINE
  5
7B7
100
AcDbEntity
  8
KONSTRUKTIONSELEMENTE
100
AcDbSpline
 62
7
  6
CONTINUOUS
 70
0
 71
3
 72
11
 73
7
 74
0
 42
0.0000001
 43
0.0000001
 44
0.0000000001
 40
0.0
 40
0.0
 40
0.0
 40
0.0
 40
0.2497701922
 40
0.5003846994
 40
0.7507632035
 40
1.0
 40
1.0
 40
1.0
 40
1.0
 10
334.9767427589
 20
196.6652461478
 30
0.0
 10
335.7355673906
 20
197.2164888851
 30
0.0
 10
337.4666330181
 20
198.0573724281
 30
0.0
 10
340.3250541807
 20
198.3552322303
 30
0.0
 10
343.1148455229
 20
197.6723939731
 30
0.0
 10
344.7117193157
 20
196.602353802
 30
0.0
 10
345.3848779046
 20
195.9521325358
 30
0.0
  0
SPLINE
  5
7B8
100
AcDbEntity
  8
KONSTRUKTIONSELEMENTE
100
AcDbSpline
 62
7
  6
CONTINUOUS
 70
0
 71
3
 72
9
 73
5
 74
0
 42
0.0000001
 43
0.0000001
 44
0.0000000001
 40
0.0
 40
0.0
 40
0.0
 40
0.0
 40
0.5052259423
 40
1.0
 40
1.0
 40
1.0
 40
1.0
 10
337.253149921
 20
188.097486464
 30
0.0
 10
337.0508496361
 20
188.2928935338
 30
0.0
 10
336.6972350709
 20
188.7315293
 30
0.0
 10
336.4662430631
 20
189.2457851436
 30
0.0
 10
336.387340964
 20
189.5096875651
 30
0.0
  0
SPLINE
  5
7B9
100
AcDbEntity
  8
KONSTRUKTIONSELEMENTE
100
AcDbSpline
 62
7
  6
CONTINUOUS
 70
0
 71
3
 72
11
 73
7
 74
0
 42
0.0000001
 43
0.0000001
 44
0.0000000001
 40
0.0
 40
0.0
 40
0.0
 40
0.0
 40
0.2519918144
 40
0.5048009909
 40
0.755086504
 40
1.0
 40
1.0
 40
1.0
 40
1.0
 10
338.5247238724
 20
193.4991053032
 30
0.0
 10
338.8415762484
 20
193.611533725
 30
0.0
 10
339.5111159863
 20
193.7491274882
 30
0.0
 10
340.5281926939
 20
193.6763892842
 30
0.0
 10
341.4789308734
 20
193.3346384441
 30
0.0
 10
342.0234919216
 20
192.9425048482
 30
0.0
 10
342.2585182469
 20
192.7154868507
 30
0.0
  0
SPLINE
  5
7BA
100
AcDbEntity
  8
KONSTRUKTIONSELEMENTE
100
AcDbSpline
 62
7
  6
CONTINUOUS
 70
0
 71
3
 72
9
 73
5
 74
0
 42
0.0000001
 43
0.0000001
 44
0.0000000001
 40
0.0
 40
0.0
 40
0.0
 40
0.0
 40
0.5069780116
 40
1.0
 40
1.0
 40
1.0
 40
1.0
 10
352.8651199647
 20
182.4702963223
 30
0.0
 10
353.1772168737
 20
182.1688338576
 30
0.0
 10
353.6841005041
 20
181.4473471836
 30
0.0
 10
353.8624489836
 20
180.5825810223
 30
0.0
 10
353.8623411039
 20
180.1606086938
 30
0.0
  0
SPLINE
  5
7BB
100
AcDbEntity
  8
KONSTRUKTIONSELEMENTE
100
AcDbSpline
 62
7
  6
CONTINUOUS
 70
0
 71
3
 72
9
 73
5
 74
0
 42
0.0000001
 43
0.0000001
 44
0.0000000001
 40
0.0
 40
0.0
 40
0.0
 40
0.0
 40
0.5012207597
 40
1.0
 40
1.0
 40
1.0
 40
1.0
 10
334.1267902633
 20
184.8608407789
 30
0.0
 10
333.386937456
 20
185.5754837131
 30
0.0
 10
332.1790836247
 20
187.3107727865
 30
0.0
 10
331.7555255016
 20
189.3846415529
 30
0.0
 10
331.7558751812
 20
190.4082691208
 30
0.0
  0
SPLINE
  5
7BC
100
AcDbEntity
  8
KONSTRUKTIONSELEMENTE
100
AcDbSpline
 62
7
  6
CONTINUOUS
 70
0
 71
3
 72
9
 73
5
 74
0
 42
0.0000001
 43
0.0000001
 44
0.0000000001
 40
0.0
 40
0.0
 40
0.0
 40
0.0
 40
0.50530061
 40
1.0
 40
1.0
 40
1.0
 40
1.0
 10
349.8532474851
 20
176.8924457493
 30
0.0
 10
349.4914955958
 20
176.942600588
 30
0.0
 10
348.7861874173
 20
177.1499348236
 30
0.0
 10
348.1751261543
 20
177.5595234238
 30
0.0
 10
347.9126406421
 20
177.8023059864
 30
0.0
  0
SPLINE
  5
7BD
100
AcDbEntity
  8
KONSTRUKTIONSELEMENTE
100
AcDbSpline
 62
7
  6
CONTINUOUS
 70
0
 71
3
 72
9
 73
5
 74
0
 42
0.0000001
 43
0.0000001
 44
0.0000000001
 40
0.0
 40
0.0
 40
0.0
 40
0.0
 40
0.5012063269
 40
1.0
 40
1.0
 40
1.0
 40
1.0
 10
356.0479343438
 20
185.6518589955
 30
0.0
 10
356.7713345143
 20
184.9388966732
 30
0.0
 10
357.950045685
 20
183.2176258515
 30
0.0
 10
358.3627400019
 20
181.1703128689
 30
0.0
 10
358.3623947045
 20
180.1595136655
 30
0.0
  0
SPLINE
  5
7BE
100
AcDbEntity
  8
KONSTRUKTIONSELEMENTE
100
AcDbSpline
 62
7
  6
CONTINUOUS
 70
0
 71
3
 72
9
 73
5
 74
0
 42
0.0000001
 43
0.0000001
 44
0.0000000001
 40
0.0
 40
0.0
 40
0.0
 40
0.0
 40
0.4046530715
 40
1.0
 40
1.0
 40
1.0
 40
1.0
 10
378.8588390836
 20
158.8512998299
 30
0.0
 10
378.8588390836
 20
158.9037177083
 30
0.0
 10
378.8948471032
 20
159.0313407437
 30
0.0
 10
378.9502462987
 20
159.1479293492
 30
0.0
 10
378.9864891774
 20
159.2160023963
 30
0.0
  0
SPLINE
  5
7BF
100
AcDbEntity
  8
KONSTRUKTIONSELEMENTE
100
AcDbSpline
 62
7
  6
CONTINUOUS
 70
0
 71
3
 72
10
 73
6
 74
0
 42
0.0000001
 43
0.0000001
 44
0.0000000001
 40
0.0
 40
0.0
 40
0.0
 40
0.0
 40
0.371444044
 40
0.6586206829
 40
1.0
 40
1.0
 40
1.0
 40
1.0
 10
381.9150243557
 20
162.2463766649
 30
0.0
 10
381.9660342135
 20
162.2757754237
 30
0.0
 10
382.0603277512
 20
162.3250124426
 30
0.0
 10
382.2013204438
 20
162.3814032057
 30
0.0
 10
382.3222531072
 20
162.3946362932
 30
0.0
 10
382.3619806779
 20
162.3578994293
 30
0.0
  0
SPLINE
  5
7C0
100
AcDbEntity
  8
KONSTRUKTIONSELEMENTE
100
AcDbSpline
 62
7
  6
CONTINUOUS
 70
0
 71
3
 72
21
 73
17
 74
0
 42
0.0000001
 43
0.0000001
 44
0.0000000001
 40
0.0
 40
0.0
 40
0.0
 40
0.0
 40
0.0294220707
 40
0.0723221796
 40
0.128270212
 40
0.1957493625
 40
0.3569194901
 40
0.5354427485
 40
0.7081562347
 40
0.7852637376
 40
0.8528295098
 40
0.9088459223
 40
0.951807463
 40
0.968259586
 40
0.9814568991
 40
1.0
 40
1.0
 40
1.0
 40
1.0
 10
382.0408195989
 20
162.6078696903
 30
0.0
 10
382.0408195989
 20
162.5577191963
 30
0.0
 10
382.0076693903
 20
162.4361373292
 30
0.0
 10
381.9156104697
 20
162.2382858047
 30
0.0
 10
381.7693492118
 20
161.9945778502
 30
0.0
 10
381.4922978916
 20
161.5963079925
 30
0.0
 10
381.0526671417
 20
161.0579053519
 30
0.0
 10
380.4558211901
 20
160.419690138
 30
0.0
 10
379.9233505104
 20
159.9190291855
 30
0.0
 10
379.5070225099
 20
159.5733325193
 30
0.0
 10
379.233019011
 20
159.3681855567
 30
0.0
 10
378.9945002116
 20
159.2138011036
 30
0.0
 10
378.8192646263
 20
159.1231012177
 30
0.0
 10
378.7009321889
 20
159.0841571385
 30
0.0
 10
378.6211174325
 20
159.0693926458
 30
0.0
 10
378.5608839856
 20
159.0798110651
 30
0.0
 10
378.5376780045
 20
159.101270091
 30
0.0
  0
SPLINE
  5
7C1
100
AcDbEntity
  8
KONSTRUKTIONSELEMENTE
100
AcDbSpline
 62
7
  6
CONTINUOUS
 70
0
 71
3
 72
9
 73
5
 74
0
 42
0.0000001
 43
0.0000001
 44
0.0000000001
 40
0.0
 40
0.0
 40
0.0
 40
0.0
 40
0.5061516998
 40
1.0
 40
1.0
 40
1.0
 40
1.0
 10
382.9202482128
 20
154.8675226922
 30
0.0
 10
383.3270110561
 20
154.4746199567
 30
0.0
 10
383.9884411393
 20
153.5326475503
 30
0.0
 10
384.221615293
 20
152.403903178
 30
0.0
 10
384.2219440549
 20
151.852116241
 30
0.0
  0
SPLINE
  5
7C2
100
AcDbEntity
  8
KONSTRUKTIONSELEMENTE
100
AcDbSpline
 62
7
  6
CONTINUOUS
 70
0
 71
3
 72
9
 73
5
 74
0
 42
0.0000001
 43
0.0000001
 44
0.0000000001
 40
0.0
 40
0.0
 40
0.0
 40
0.0
 40
0.4991681509
 40
1.0
 40
1.0
 40
1.0
 40
1.0
 10
389.2219635089
 20
151.848275649
 30
0.0
 10
389.2216302668
 20
150.8792383146
 30
0.0
 10
388.9057664781
 20
148.9252762078
 30
0.0
 10
387.9880446082
 20
147.1726614628
 30
0.0
 10
387.4085830956
 20
146.391938887
 30
0.0
  0
SPLINE
  5
7C3
100
AcDbEntity
  8
KONSTRUKTIONSELEMENTE
100
AcDbSpline
 62
7
  6
CONTINUOUS
 70
0
 71
3
 72
9
 73
5
 74
0
 42
0.0000001
 43
0.0000001
 44
0.0000000001
 40
0.0
 40
0.0
 40
0.0
 40
0.0
 40
0.500997652
 40
1.0
 40
1.0
 40
1.0
 40
1.0
 10
376.9825718763
 20
142.9173664051
 30
0.0
 10
376.2299836835
 20
143.1325553465
 30
0.0
 10
374.7743141347
 20
143.7462764822
 30
0.0
 10
373.5107958592
 20
144.6953975384
 30
0.0
 10
372.9500425981
 20
145.2370435955
 30
0.0
  0
SPLINE
  5
7C4
100
AcDbEntity
  8
KONSTRUKTIONSELEMENTE
100
AcDbSpline
 62
7
  6
CONTINUOUS
 70
0
 71
3
 72
9
 73
5
 74
0
 42
0.0000001
 43
0.0000001
 44
0.0000000001
 40
0.0
 40
0.0
 40
0.0
 40
0.0
 40
0.5012747397
 40
1.0
 40
1.0
 40
1.0
 40
1.0
 10
386.4567313039
 20
158.402612647
 30
0.0
 10
387.3208988817
 20
157.5520935149
 30
0.0
 10
388.7291706399
 20
155.4983552374
 30
0.0
 10
389.2223783565
 20
153.0546137954
 30
0.0
 10
389.2219635089
 20
151.848275649
 30
0.0
  0
SPLINE
  5
7C5
100
AcDbEntity
  8
KONSTRUKTIONSELEMENTE
100
AcDbSpline
 62
7
  6
CONTINUOUS
 70
0
 71
3
 72
9
 73
5
 74
0
 42
0.0000001
 43
0.0000001
 44
0.0000000001
 40
0.0
 40
0.0
 40
0.0
 40
0.0
 40
0.2525204064
 40
1.0
 40
1.0
 40
1.0
 40
1.0
 10
377.5183932325
 20
148.0544116329
 30
0.0
 10
377.423495371
 20
148.1027566588
 30
0.0
 10
377.05446563
 20
148.3071956055
 30
0.0
 10
376.7135552086
 20
148.5625828498
 30
0.0
 10
376.4827855719
 20
148.7773663559
 30
0.0
  0
SPLINE
  5
7C6
100
AcDbEntity
  8
KONSTRUKTIONSELEMENTE
100
AcDbSpline
 62
7
  6
CONTINUOUS
 70
0
 71
3
 72
11
 73
7
 74
0
 42
0.0000001
 43
0.0000001
 44
0.0000000001
 40
0.0
 40
0.0
 40
0.0
 40
0.0
 40
0.2507528382
 40
0.5034086137
 40
0.7541779598
 40
1.0
 40
1.0
 40
1.0
 40
1.0
 10
369.1527631068
 20
163.7987250844
 30
0.0
 10
369.5828411301
 20
164.0114224007
 30
0.0
 10
370.5186626288
 20
164.3057080908
 30
0.0
 10
371.9831116386
 20
164.3069790738
 30
0.0
 10
373.373067862
 20
163.876201976
 30
0.0
 10
374.1673657444
 20
163.3221579228
 30
0.0
 10
374.5056775167
 20
162.9953738447
 30
0.0
  0
SPLINE
  5
7C7
100
AcDbEntity
  8
KONSTRUKTIONSELEMENTE
100
AcDbSpline
 62
7
  6
CONTINUOUS
 70
0
 71
3
 72
9
 73
5
 74
0
 42
0.0000001
 43
0.0000001
 44
0.0000000001
 40
0.0
 40
0.0
 40
0.0
 40
0.0
 40
0.5012894406
 40
1.0
 40
1.0
 40
1.0
 40
1.0
 10
364.5354719019
 20
153.364894748
 30
0.0
 10
363.6530192284
 20
154.2172785759
 30
0.0
 10
362.2123580155
 20
156.2865796242
 30
0.0
 10
361.7070698112
 20
158.7598277225
 30
0.0
 10
361.7074895588
 20
159.9804147746
 30
0.0
  0
SPLINE
  5
7C8
100
AcDbEntity
  8
KONSTRUKTIONSELEMENTE
100
AcDbSpline
 62
7
  6
CONTINUOUS
 70
0
 71
3
 72
11
 73
7
 74
0
 42
0.0000001
 43
0.0000001
 44
0.0000000001
 40
0.0
 40
0.0
 40
0.0
 40
0.0
 40
0.2496929416
 40
0.500340108
 40
0.7507767759
 40
1.0
 40
1.0
 40
1.0
 40
1.0
 10
365.3683322251
 20
167.30752267
 30
0.0
 10
366.2730328707
 20
167.9982624621
 30
0.0
 10
368.3548021335
 20
169.0626365982
 30
0.0
 10
371.8215249151
 20
169.4746836391
 30
0.0
 10
375.2179785482
 20
168.6751719215
 30
0.0
 10
377.1622616629
 20
167.3809519645
 30
0.0
 10
377.9794104697
 20
166.5916468281
 30
0.0
  0
SPLINE
  5
7C9
100
AcDbEntity
  8
KONSTRUKTIONSELEMENTE
100
AcDbSpline
 62
7
  6
CONTINUOUS
 70
0
 71
3
 72
9
 73
5
 74
0
 42
0.0000001
 43
0.0000001
 44
0.0000000001
 40
0.0
 40
0.0
 40
0.0
 40
0.0
 40
0.5061516998
 40
1.0
 40
1.0
 40
1.0
 40
1.0
 10
368.009204855
 20
156.9611677314
 30
0.0
 10
367.6024420117
 20
157.3540704669
 30
0.0
 10
366.9410119284
 20
158.2960428732
 30
0.0
 10
366.7078377747
 20
159.4247872456
 30
0.0
 10
366.7075090129
 20
159.9765741826
 30
0.0
  0
SPLINE
  5
7CA
100
AcDbEntity
  8
KONSTRUKTIONSELEMENTE
100
AcDbSpline
 62
7
  6
CONTINUOUS
 70
0
 71
3
 72
21
 73
17
 74
0
 42
0.0000001
 43
0.0000001
 44
0.0000000001
 40
0.0
 40
0.0
 40
0.0
 40
0.0
 40
0.0294220707
 40
0.0723221796
 40
0.128270212
 40
0.1957493625
 40
0.3569194901
 40
0.5354427485
 40
0.7081562347
 40
0.7852637376
 40
0.8528295098
 40
0.9088459223
 40
0.951807463
 40
0.968259586
 40
0.9814568991
 40
1.0
 40
1.0
 40
1.0
 40
1.0
 10
382.3943729895
 20
162.2663633394
 30
0.0
 10
382.3943729895
 20
162.2162128453
 30
0.0
 10
382.3612227809
 20
162.0946309783
 30
0.0
 10
382.2691638603
 20
161.8967794538
 30
0.0
 10
382.1229026024
 20
161.6530714992
 30
0.0
 10
381.8458512822
 20
161.2548016416
 30
0.0
 10
381.4062205323
 20
160.716399001
 30
0.0
 10
380.8093745807
 20
160.0781837871
 30
0.0
 10
380.276903901
 20
159.5775228346
 30
0.0
 10
379.8605759005
 20
159.2318261684
 30
0.0
 10
379.5865724016
 20
159.0266792057
 30
0.0
 10
379.3480536022
 20
158.8722947526
 30
0.0
 10
379.1728180169
 20
158.7815948667
 30
0.0
 10
379.0544855795
 20
158.7426507875
 30
0.0
 10
378.9746708231
 20
158.7278862948
 30
0.0
 10
378.9144373762
 20
158.7383047142
 30
0.0
 10
378.8912313951
 20
158.75976374
 30
0.0
  0
SPLINE
  5
7CB
100
AcDbEntity
  8
KONSTRUKTIONSELEMENTE
100
AcDbSpline
 62
7
  6
CONTINUOUS
 70
0
 71
3
 72
9
 73
5
 74
0
 42
0.0000001
 43
0.0000001
 44
0.0000000001
 40
0.0
 40
0.0
 40
0.0
 40
0.0
 40
0.4046530715
 40
1.0
 40
1.0
 40
1.0
 40
1.0
 10
317.6941025109
 20
217.9318985436
 30
0.0
 10
317.6941025109
 20
217.9843164219
 30
0.0
 10
317.7301105306
 20
218.1119394573
 30
0.0
 10
317.785509726
 20
218.2285280628
 30
0.0
 10
317.8217526047
 20
218.29660111
 30
0.0
  0
SPLINE
  5
7CC
100
AcDbEntity
  8
KONSTRUKTIONSELEMENTE
100
AcDbSpline
 62
7
  6
CONTINUOUS
 70
0
 71
3
 72
10
 73
6
 74
0
 42
0.0000001
 43
0.0000001
 44
0.0000000001
 40
0.0
 40
0.0
 40
0.0
 40
0.0
 40
0.371444044
 40
0.6586206829
 40
1.0
 40
1.0
 40
1.0
 40
1.0
 10
320.750287783
 20
221.3269753786
 30
0.0
 10
320.8012976409
 20
221.3563741374
 30
0.0
 10
320.8955911786
 20
221.4056111563
 30
0.0
 10
321.0365838712
 20
221.4620019193
 30
0.0
 10
321.1575165346
 20
221.4752350069
 30
0.0
 10
321.1972441053
 20
221.4384981429
 30
0.0
  0
SPLINE
  5
7CD
100
AcDbEntity
  8
KONSTRUKTIONSELEMENTE
100
AcDbSpline
 62
7
  6
CONTINUOUS
 70
0
 71
3
 72
21
 73
17
 74
0
 42
0.0000001
 43
0.0000001
 44
0.0000000001
 40
0.0
 40
0.0
 40
0.0
 40
0.0
 40
0.0294220707
 40
0.0723221796
 40
0.128270212
 40
0.1957493625
 40
0.3569194901
 40
0.5354427485
 40
0.7081562347
 40
0.7852637376
 40
0.8528295098
 40
0.9088459223
 40
0.951807463
 40
0.968259586
 40
0.9814568991
 40
1.0
 40
1.0
 40
1.0
 40
1.0
 10
320.8760830263
 20
221.688468404
 30
0.0
 10
320.8760830263
 20
221.63831791
 30
0.0
 10
320.8429328177
 20
221.5167360429
 30
0.0
 10
320.750873897
 20
221.3188845184
 30
0.0
 10
320.6046126392
 20
221.0751765638
 30
0.0
 10
320.327561319
 20
220.6769067062
 30
0.0
 10
319.8879305691
 20
220.1385040656
 30
0.0
 10
319.2910846174
 20
219.5002888517
 30
0.0
 10
318.7586139378
 20
218.9996278992
 30
0.0
 10
318.3422859372
 20
218.653931233
 30
0.0
 10
318.0682824383
 20
218.4487842703
 30
0.0
 10
317.8297636389
 20
218.2943998172
 30
0.0
 10
317.6545280537
 20
218.2036999314
 30
0.0
 10
317.5361956162
 20
218.1647558522
 30
0.0
 10
317.4563808598
 20
218.1499913594
 30
0.0
 10
317.3961474129
 20
218.1604097788
 30
0.0
 10
317.3729414319
 20
218.1818688047
 30
0.0
  0
SPLINE
  5
7CE
100
AcDbEntity
  8
KONSTRUKTIONSELEMENTE
100
AcDbSpline
 62
7
  6
CONTINUOUS
 70
0
 71
3
 72
9
 73
5
 74
0
 42
0.0000001
 43
0.0000001
 44
0.0000000001
 40
0.0
 40
0.0
 40
0.0
 40
0.0
 40
0.5061516998
 40
1.0
 40
1.0
 40
1.0
 40
1.0
 10
321.7555116401
 20
213.9481214059
 30
0.0
 10
322.1622744834
 20
213.5552186703
 30
0.0
 10
322.8237045667
 20
212.613246264
 30
0.0
 10
323.0568787204
 20
211.4845018916
 30
0.0
 10
323.0572074822
 20
210.9327149546
 30
0.0
  0
SPLINE
  5
7CF
100
AcDbEntity
  8
KONSTRUKTIONSELEMENTE
100
AcDbSpline
 62
7
  6
CONTINUOUS
 70
0
 71
3
 72
9
 73
5
 74
0
 42
0.0000001
 43
0.0000001
 44
0.0000000001
 40
0.0
 40
0.0
 40
0.0
 40
0.0
 40
0.4990961922
 40
1.0
 40
1.0
 40
1.0
 40
1.0
 10
328.0572269363
 20
210.9288743627
 30
0.0
 10
328.0568784383
 20
209.9154744505
 30
0.0
 10
327.7108700884
 20
207.8705297183
 30
0.0
 10
326.7088585103
 20
206.0559533035
 30
0.0
 10
326.079151422
 20
205.2572662929
 30
0.0
  0
SPLINE
  5
7D0
100
AcDbEntity
  8
KONSTRUKTIONSELEMENTE
100
AcDbSpline
 62
7
  6
CONTINUOUS
 70
0
 71
3
 72
11
 73
7
 74
0
 42
0.0000001
 43
0.0000001
 44
0.0000000001
 40
0.0
 40
0.0
 40
0.0
 40
0.0
 40
0.250262514
 40
0.5008853759
 40
0.7509951573
 40
1.0
 40
1.0
 40
1.0
 40
1.0
 10
322.4890887653
 20
202.4688903282
 30
0.0
 10
321.6146593586
 20
202.0779322841
 30
0.0
 10
319.7360432219
 20
201.5541883034
 30
0.0
 10
316.8221949168
 20
201.6230697289
 30
0.0
 10
314.0572757417
 20
202.5312387274
 30
0.0
 10
312.4707812322
 20
203.6555241036
 30
0.0
 10
311.7853060254
 20
204.3176423092
 30
0.0
  0
SPLINE
  5
7D1
100
AcDbEntity
  8
KONSTRUKTIONSELEMENTE
100
AcDbSpline
 62
7
  6
CONTINUOUS
 70
0
 71
3
 72
9
 73
5
 74
0
 42
0.0000001
 43
0.0000001
 44
0.0000000001
 40
0.0
 40
0.0
 40
0.0
 40
0.0
 40
0.5012747397
 40
1.0
 40
1.0
 40
1.0
 40
1.0
 10
325.2919947313
 20
217.4832113607
 30
0.0
 10
326.1561623091
 20
216.6326922286
 30
0.0
 10
327.5644340673
 20
214.5789539511
 30
0.0
 10
328.0576417838
 20
212.1352125091
 30
0.0
 10
328.0572269363
 20
210.9288743627
 30
0.0
  0
SPLINE
  5
7D2
100
AcDbEntity
  8
KONSTRUKTIONSELEMENTE
100
AcDbSpline
 62
7
  6
CONTINUOUS
 70
0
 71
3
 72
9
 73
5
 74
0
 42
0.0000001
 43
0.0000001
 44
0.0000000001
 40
0.0
 40
0.0
 40
0.0
 40
0.0
 40
0.5050460752
 40
1.0
 40
1.0
 40
1.0
 40
1.0
 10
318.9312476923
 20
206.6400239852
 30
0.0
 10
318.2776723189
 20
206.5819240365
 30
0.0
 10
316.9450705954
 20
206.7360069675
 30
0.0
 10
315.7887590695
 20
207.4198625502
 30
0.0
 10
315.3180489993
 20
207.8579650696
 30
0.0
  0
SPLINE
  5
7D3
100
AcDbEntity
  8
KONSTRUKTIONSELEMENTE
100
AcDbSpline
 62
7
  6
CONTINUOUS
 70
0
 71
3
 72
11
 73
7
 74
0
 42
0.0000001
 43
0.0000001
 44
0.0000000001
 40
0.0
 40
0.0
 40
0.0
 40
0.0
 40
0.2485637571
 40
0.501292539
 40
0.7532605035
 40
1.0
 40
1.0
 40
1.0
 40
1.0
 10
307.1953773691
 20
222.3811576999
 30
0.0
 10
307.6301943263
 20
222.7215840244
 30
0.0
 10
308.6430932831
 20
223.2495382139
 30
0.0
 10
310.3370417711
 20
223.4618384217
 30
0.0
 10
311.9975323868
 20
223.082394321
 30
0.0
 10
312.9466634267
 20
222.4568153951
 30
0.0
 10
313.340940944
 20
222.0759725584
 30
0.0
  0
SPLINE
  5
7D4
100
AcDbEntity
  8
KONSTRUKTIONSELEMENTE
100
AcDbSpline
 62
7
  6
CONTINUOUS
 70
0
 71
3
 72
9
 73
5
 74
0
 42
0.0000001
 43
0.0000001
 44
0.0000000001
 40
0.0
 40
0.0
 40
0.0
 40
0.0
 40
0.5012633742
 40
1.0
 40
1.0
 40
1.0
 40
1.0
 10
303.3707353293
 20
212.4454934617
 30
0.0
 10
302.5699817718
 20
213.2189620034
 30
0.0
 10
301.2362745709
 20
215.0630222964
 30
0.0
 10
300.6531016396
 20
217.264981456
 30
0.0
 10
300.5689209837
 20
218.3694765065
 30
0.0
  0
SPLINE
  5
7D5
100
AcDbEntity
  8
KONSTRUKTIONSELEMENTE
100
AcDbSpline
 62
7
  6
CONTINUOUS
 70
0
 71
3
 72
13
 73
9
 74
0
 42
0.0000001
 43
0.0000001
 44
0.0000000001
 40
0.0
 40
0.0
 40
0.0
 40
0.0
 40
0.1246963396
 40
0.2498404566
 40
0.4998337411
 40
0.7499191514
 40
0.8751969283
 40
1.0
 40
1.0
 40
1.0
 40
1.0
 10
303.0081713119
 20
225.3021398243
 30
0.0
 10
303.4406906743
 20
225.7684823102
 30
0.0
 10
304.4055875498
 20
226.6171251081
 30
0.0
 10
306.6284790011
 20
227.8931952212
 30
0.0
 10
309.824794592
 20
228.6224661254
 30
0.0
 10
313.0559401294
 20
228.0646091896
 30
0.0
 10
315.34586615
 20
226.9096471902
 30
0.0
 10
316.3568068242
 20
226.1145111725
 30
0.0
 10
316.8146738971
 20
225.6722455418
 30
0.0
  0
SPLINE
  5
7D6
100
AcDbEntity
  8
KONSTRUKTIONSELEMENTE
100
AcDbSpline
 62
7
  6
CONTINUOUS
 70
0
 71
3
 72
21
 73
17
 74
0
 42
0.0000001
 43
0.0000001
 44
0.0000000001
 40
0.0
 40
0.0
 40
0.0
 40
0.0
 40
0.0294220707
 40
0.0723221796
 40
0.128270212
 40
0.1957493625
 40
0.3569194901
 40
0.5354427485
 40
0.7081562347
 40
0.7852637376
 40
0.8528295098
 40
0.9088459223
 40
0.951807463
 40
0.968259586
 40
0.9814568991
 40
1.0
 40
1.0
 40
1.0
 40
1.0
 10
321.2296364169
 20
221.3469620531
 30
0.0
 10
321.2296364169
 20
221.296811559
 30
0.0
 10
321.1964862083
 20
221.175229692
 30
0.0
 10
321.1044272876
 20
220.9773781674
 30
0.0
 10
320.9581660298
 20
220.7336702129
 30
0.0
 10
320.6811147096
 20
220.3354003552
 30
0.0
 10
320.2414839597
 20
219.7969977146
 30
0.0
 10
319.644638008
 20
219.1587825008
 30
0.0
 10
319.1121673284
 20
218.6581215483
 30
0.0
 10
318.6958393278
 20
218.3124248821
 30
0.0
 10
318.4218358289
 20
218.1072779194
 30
0.0
 10
318.1833170295
 20
217.9528934663
 30
0.0
 10
318.0080814443
 20
217.8621935804
 30
0.0
 10
317.8897490068
 20
217.8232495012
 30
0.0
 10
317.8099342504
 20
217.8084850085
 30
0.0
 10
317.7497008035
 20
217.8189034279
 30
0.0
 10
317.7264948225
 20
217.8403624537
 30
0.0
  0
SPLINE
  5
7D7
100
AcDbEntity
  8
KONSTRUKTIONSELEMENTE
100
AcDbSpline
 62
7
  6
CONTINUOUS
 70
0
 71
3
 72
14
 73
10
 74
0
 42
0.0000001
 43
0.0000001
 44
0.0000000001
 40
0.0
 40
0.0
 40
0.0
 40
0.0
 40
0.2479002329
 40
0.3612118633
 40
0.4721190687
 40
0.5867536955
 40
0.7119428874
 40
0.8511057378
 40
1.0
 40
1.0
 40
1.0
 40
1.0
 10
283.3603983371
 20
253.873387153
 30
0.0
 10
282.6935191988
 20
254.2686134246
 30
0.0
 10
281.6972887744
 20
254.8081476551
 30
0.0
 10
280.328334273
 20
255.3649307901
 30
0.0
 10
279.3106116722
 20
255.6678833363
 30
0.0
 10
278.2221545617
 20
255.8359690586
 30
0.0
 10
277.0280634965
 20
255.7890789016
 30
0.0
 10
275.7751892393
 20
255.4096892317
 30
0.0
 10
275.0179426018
 20
254.8872764217
 30
0.0
 10
274.6829584864
 20
254.5639042293
 30
0.0
  0
SPLINE
  5
7D8
100
AcDbEntity
  8
KONSTRUKTIONSELEMENTE
100
AcDbSpline
 62
7
  6
CONTINUOUS
 70
0
 71
3
 72
17
 73
13
 74
0
 42
0.0000001
 43
0.0000001
 44
0.0000000001
 40
0.0
 40
0.0
 40
0.0
 40
0.0
 40
0.1665904769
 40
0.3220875148
 40
0.4627581109
 40
0.5860316404
 40
0.6917370756
 40
0.7849276447
 40
0.8315020862
 40
0.8821153218
 40
0.9388212077
 40
1.0
 40
1.0
 40
1.0
 40
1.0
 10
291.830950536
 20
225.7572292907
 30
0.0
 10
292.812776109
 20
224.8261819675
 30
0.0
 10
294.7408568201
 20
223.0571284863
 30
0.0
 10
297.604601968
 20
220.6211425646
 30
0.0
 10
300.2964643459
 20
218.5310646297
 30
0.0
 10
302.7721793719
 20
216.8276202882
 30
0.0
 10
305.0437918666
 20
215.5237998456
 30
0.0
 10
306.9019964035
 20
214.7633677937
 30
0.0
 10
308.4260718023
 20
214.467536611
 30
0.0
 10
309.6867435429
 20
214.4683258344
 30
0.0
 10
311.0267404234
 20
214.8307393195
 30
0.0
 10
311.8402135844
 20
215.3786179566
 30
0.0
 10
312.1977213461
 20
215.7237330333
 30
0.0
  0
SPLINE
  5
7D9
100
AcDbEntity
  8
KONSTRUKTIONSELEMENTE
100
AcDbSpline
 62
7
  6
CONTINUOUS
 70
0
 71
3
 72
15
 73
11
 74
0
 42
0.0000001
 43
0.0000001
 44
0.0000000001
 40
0.0
 40
0.0
 40
0.0
 40
0.0
 40
0.1102229893
 40
0.1527872123
 40
0.1727964833
 40
0.2483278758
 40
0.3734146022
 40
0.5432949048
 40
0.7534214078
 40
1.0
 40
1.0
 40
1.0
 40
1.0
 10
280.3224512203
 20
251.1326915589
 30
0.0
 10
280.3241226871
 20
251.1708405386
 30
0.0
 10
280.3277709194
 20
251.1984224811
 30
0.0
 10
280.3163216011
 20
251.3091765829
 30
0.0
 10
280.3270271463
 20
251.2437920931
 30
0.0
 10
280.3423242314
 20
251.1827674598
 30
0.0
 10
280.3790345516
 20
251.0516383466
 30
0.0
 10
280.4335024142
 20
250.8887739829
 30
0.0
 10
280.5094865802
 20
250.6840637342
 30
0.0
 10
280.5698331399
 20
250.5381267192
 30
0.0
 10
280.6034658546
 20
250.4596016294
 30
0.0
  0
SPLINE
  5
7DA
100
AcDbEntity
  8
KONSTRUKTIONSELEMENTE
100
AcDbSpline
 62
7
  6
CONTINUOUS
 70
0
 71
3
 72
9
 73
5
 74
0
 42
0.0000001
 43
0.0000001
 44
0.0000000001
 40
0.0
 40
0.0
 40
0.0
 40
0.0
 40
0.4771481899
 40
1.0
 40
1.0
 40
1.0
 40
1.0
 10
302.758306571
 20
225.5003085977
 30
0.0
 10
302.0666333768
 20
226.439116727
 30
0.0
 10
300.5658756565
 20
228.3691120897
 30
0.0
 10
298.9904624094
 20
230.2381823343
 30
0.0
 10
298.1504894785
 20
231.201086837
 30
0.0
  0
SPLINE
  5
7DB
100
AcDbEntity
  8
KONSTRUKTIONSELEMENTE
100
AcDbSpline
 62
7
  6
CONTINUOUS
 70
0
 71
3
 72
14
 73
10
 74
0
 42
0.0000001
 43
0.0000001
 44
0.0000000001
 40
0.0
 40
0.0
 40
0.0
 40
0.0
 40
0.1487404688
 40
0.2875750519
 40
0.4123541879
 40
0.5266639648
 40
0.6374661507
 40
0.7509942026
 40
1.0
 40
1.0
 40
1.0
 40
1.0
 10
274.6829584864
 20
254.5639042293
 30
0.0
 10
274.3444572147
 20
254.2371367996
 30
0.0
 10
273.791728118
 20
253.4898343684
 30
0.0
 10
273.3706258221
 20
252.2372555807
 30
0.0
 10
273.2880897423
 20
251.0345582027
 30
0.0
 10
273.4268466779
 20
249.9318533638
 30
0.0
 10
273.7027480723
 20
248.8945356517
 30
0.0
 10
274.2257605732
 20
247.4899927828
 30
0.0
 10
274.7423978357
 20
246.4623788303
 30
0.0
 10
275.1229405682
 20
245.7727628207
 30
0.0
  0
SPLINE
  5
7DC
100
AcDbEntity
  8
KONSTRUKTIONSELEMENTE
100
AcDbSpline
 62
7
  6
CONTINUOUS
 70
0
 71
3
 72
14
 73
10
 74
0
 42
0.0000001
 43
0.0000001
 44
0.0000000001
 40
0.0
 40
0.0
 40
0.0
 40
0.0
 40
0.3474108623
 40
0.5045669118
 40
0.6469811233
 40
0.7717448826
 40
0.8755670802
 40
0.9540778989
 40
1.0
 40
1.0
 40
1.0
 40
1.0
 10
297.2180020104
 20
230.2993940581
 30
0.0
 10
298.4695788629
 20
229.128833617
 30
0.0
 10
300.3258341679
 20
227.4685321357
 30
0.0
 10
302.7968776237
 20
225.4483279615
 30
0.0
 10
304.4616217842
 20
224.1786834035
 30
0.0
 10
305.9614325617
 20
223.129264744
 30
0.0
 10
307.2466843498
 20
222.3250623276
 30
0.0
 10
308.2415914244
 20
221.7972150432
 30
0.0
 10
308.8098425033
 20
221.5586360319
 30
0.0
 10
309.0272329664
 20
221.4949782623
 30
0.0
  0
SPLINE
  5
7DD
100
AcDbEntity
  8
KONSTRUKTIONSELEMENTE
100
AcDbSpline
 62
7
  6
CONTINUOUS
 70
0
 71
3
 72
12
 73
8
 74
0
 42
0.0000001
 43
0.0000001
 44
0.0000000001
 40
0.0
 40
0.0
 40
0.0
 40
0.0
 40
0.1499009536
 40
0.2935594572
 40
0.5479540344
 40
0.7732527962
 40
1.0
 40
1.0
 40
1.0
 40
1.0
 10
312.1977213461
 20
215.7237330333
 30
0.0
 10
312.4607417589
 20
215.9776360802
 30
0.0
 10
312.9132484187
 20
216.5444673565
 30
0.0
 10
313.472793357
 20
217.7704041713
 30
0.0
 10
313.6408956033
 20
219.320145286
 30
0.0
 10
313.3182930607
 20
221.0243772906
 30
0.0
 10
312.9351836142
 20
222.0617818653
 30
0.0
 10
312.7178835648
 20
222.570286826
 30
0.0
  0
SPLINE
  5
7DE
100
AcDbEntity
  8
KONSTRUKTIONSELEMENTE
100
AcDbSpline
 62
7
  6
CONTINUOUS
 70
0
 71
3
 72
9
 73
5
 74
0
 42
0.0000001
 43
0.0000001
 44
0.0000000001
 40
0.0
 40
0.0
 40
0.0
 40
0.0
 40
0.4727721539
 40
1.0
 40
1.0
 40
1.0
 40
1.0
 10
309.3431999733
 20
228.3315683444
 30
0.0
 10
308.4002663292
 20
229.6789512069
 30
0.0
 10
306.2948142122
 20
232.4514025087
 30
0.0
 10
304.0459982023
 20
235.1070316713
 30
0.0
 10
302.8301023893
 20
236.4800167776
 30
0.0
  0
SPLINE
  5
7DF
100
AcDbEntity
  8
0
100
AcDbSpline
 62
7
  6
CONTINUOUS
 70
0
 71
3
 72
10
 73
6
 74
0
 42
0.0000001
 43
0.0000001
 44
0.0000000001
 40
0.0
 40
0.0
 40
0.0
 40
0.0
 40
0.2390100379
 40
0.4878383095
 40
1.0
 40
1.0
 40
1.0
 40
1.0
 10
246.595933246
 20
139.2216690477
 30
0.0
 10
247.2119772434
 20
138.9075455038
 30
0.0
 10
248.5235003919
 20
138.3695494884
 30
0.0
 10
251.3228657485
 20
137.6212651609
 30
0.0
 10
253.5354380257
 20
137.4082376649
 30
0.0
 10
255.0172339039
 20
137.4082376649
 30
0.0
  0
SPLINE
  5
7E0
100
AcDbEntity
  8
0
100
AcDbSpline
 62
7
  6
CONTINUOUS
 70
0
 71
3
 72
11
 73
7
 74
0
 42
0.0000001
 43
0.0000001
 44
0.0000000001
 40
0.0
 40
0.0
 40
0.0
 40
0.0
 40
0.2513517818
 40
0.5016718466
 40
0.7510916515
 40
1.0
 40
1.0
 40
1.0
 40
1.0
 10
246.5959388156
 20
139.2216743599
 30
0.0
 10
245.1433290073
 20
139.9624142848
 30
0.0
 10
242.4278976652
 20
141.8394004281
 30
0.0
 10
239.2741517634
 20
145.6308779082
 30
0.0
 10
237.2738365449
 20
150.1227119001
 30
0.0
 10
236.8172339039
 20
153.3733649961
 30
0.0
 10
236.8172339039
 20
154.9880877033
 30
0.0
  0
SPLINE
  5
7E1
100
AcDbEntity
  8
RUNDUNGEN
100
AcDbSpline
 62
7
  6
CONTINUOUS
 70
0
 71
3
 72
10
 73
6
 74
0
 42
0.0000001
 43
0.0000001
 44
0.0000000001
 40
0.0
 40
0.0
 40
0.0
 40
0.0
 40
0.2390100379
 40
0.4878383095
 40
1.0
 40
1.0
 40
1.0
 40
1.0
 10
266.0385345619
 20
139.2216690477
 30
0.0
 10
265.4224905645
 20
138.9075455038
 30
0.0
 10
264.110967416
 20
138.3695494884
 30
0.0
 10
261.3116020594
 20
137.6212651609
 30
0.0
 10
259.0990297821
 20
137.4082376649
 30
0.0
 10
257.6172339039
 20
137.4082376649
 30
0.0
  0
SPLINE
  5
7E2
100
AcDbEntity
  8
RUNDUNGEN
100
AcDbSpline
 62
7
  6
CONTINUOUS
 70
0
 71
3
 72
11
 73
7
 74
0
 42
0.0000001
 43
0.0000001
 44
0.0000000001
 40
0.0
 40
0.0
 40
0.0
 40
0.0
 40
0.2513517818
 40
0.5016718466
 40
0.7510916515
 40
1.0
 40
1.0
 40
1.0
 40
1.0
 10
266.0385289923
 20
139.2216743599
 30
0.0
 10
267.4911388006
 20
139.9624142848
 30
0.0
 10
270.2065701427
 20
141.8394004281
 30
0.0
 10
273.3603160445
 20
145.6308779082
 30
0.0
 10
275.360631263
 20
150.1227119001
 30
0.0
 10
275.8172339039
 20
153.3733649961
 30
0.0
 10
275.8172339039
 20
154.9880877033
 30
0.0
  0
SPLINE
  5
7E3
100
AcDbEntity
  8
BEZUGSACHSEN
100
AcDbSpline
 62
7
  6
CONTINUOUS
 70
0
 71
3
 72
19
 73
15
 74
0
 42
0.0000001
 43
0.0000001
 44
0.0000000001
 40
0.0
 40
0.0
 40
0.0
 40
0.0
 40
0.0615778188
 40
0.1233173652
 40
0.1853624895
 40
0.2478005785
 40
0.3733221741
 40
0.5
 40
0.6266778259
 40
0.7521994215
 40
0.8146375105
 40
0.8766826348
 40
0.9384221812
 40
1.0
 40
1.0
 40
1.0
 40
1.0
 10
247.0672339039
 20
175.6787454144
 30
0.0
 10
247.0672339039
 20
175.0946894629
 30
0.0
 10
247.1868879828
 20
173.9215731255
 30
0.0
 10
247.7178367513
 20
172.2336004931
 30
0.0
 10
248.5801787286
 20
170.677954278
 30
0.0
 10
250.1242169409
 20
168.8610678133
 30
0.0
 10
252.7029655685
 20
167.202045703
 30
0.0
 10
256.3172339039
 20
166.5138654442
 30
0.0
 10
259.9315022394
 20
167.202045703
 30
0.0
 10
262.510250867
 20
168.8610678133
 30
0.0
 10
264.0542890793
 20
170.677954278
 30
0.0
 10
264.9166310566
 20
172.2336004931
 30
0.0
 10
265.4475798251
 20
173.9215731255
 30
0.0
 10
265.5672339039
 20
175.0946894629
 30
0.0
 10
265.5672339039
 20
175.6787454144
 30
0.0
  0
SPLINE
  5
7E4
100
AcDbEntity
  8
KONSTRUKTIONSELEMENTE
100
AcDbSpline
 62
7
  6
CONTINUOUS
 70
0
 71
3
 72
13
 73
9
 74
0
 42
0.0000001
 43
0.0000001
 44
0.0000000001
 40
0.0
 40
0.0
 40
0.0
 40
0.0
 40
0.1120314022
 40
0.2284886538
 40
0.3494823057
 40
0.474756652
 40
0.7342768957
 40
1.0
 40
1.0
 40
1.0
 40
1.0
 10
275.8172339039
 20
168.7410545864
 30
0.0
 10
275.8172339039
 20
167.7279475346
 30
0.0
 10
275.5893606056
 20
165.6556172194
 30
0.0
 10
274.5873304439
 20
162.6355962079
 30
0.0
 10
272.9329932622
 20
159.7766096635
 30
0.0
 10
269.8938464808
 20
156.3241781799
 30
0.0
 10
264.7897921877
 20
153.1192378842
 30
0.0
 10
260.0195418793
 20
152.1586644404
 30
0.0
 10
257.6172339039
 20
152.1030849538
 30
0.0
  0
SPLINE
  5
7E5
100
AcDbEntity
  8
0
100
AcDbSpline
 62
7
  6
CONTINUOUS
 70
0
 71
3
 72
8
 73
4
 74
0
 42
0.0000001
 43
0.0000001
 44
0.0000000001
 40
0.0
 40
0.0
 40
0.0
 40
0.0
 40
1.0
 40
1.0
 40
1.0
 40
1.0
 10
236.8172339039
 20
188.2283482076
 30
0.0
 10
236.8172339039
 20
188.3036605149
 30
0.0
 10
236.8428593857
 20
188.3822472317
 30
0.0
 10
236.8870605229
 20
188.4432243019
 30
0.0
  0
SPLINE
  5
7E6
100
AcDbEntity
  8
RUNDUNGEN
100
AcDbSpline
 62
7
  6
CONTINUOUS
 70
0
 71
3
 72
8
 73
4
 74
0
 42
0.0000001
 43
0.0000001
 44
0.0000000001
 40
0.0
 40
0.0
 40
0.0
 40
0.0
 40
1.0
 40
1.0
 40
1.0
 40
1.0
 10
275.8172339039
 20
188.2283482076
 30
0.0
 10
275.8172339039
 20
188.3036605149
 30
0.0
 10
275.7916084222
 20
188.3822472317
 30
0.0
 10
275.747407285
 20
188.4432243019
 30
0.0
  0
SPLINE
  5
7E7
100
AcDbEntity
  8
0
100
AcDbSpline
 62
7
  6
CONTINUOUS
 70
0
 71
3
 72
13
 73
9
 74
0
 42
0.0000001
 43
0.0000001
 44
0.0000000001
 40
0.0
 40
0.0
 40
0.0
 40
0.0
 40
0.1120314022
 40
0.2284886538
 40
0.3494823057
 40
0.474756652
 40
0.7342768957
 40
1.0
 40
1.0
 40
1.0
 40
1.0
 10
236.8172339039
 20
168.7410545864
 30
0.0
 10
236.8172339039
 20
167.7279475346
 30
0.0
 10
237.0451072023
 20
165.6556172194
 30
0.0
 10
238.047137364
 20
162.6355962079
 30
0.0
 10
239.7014745457
 20
159.7766096635
 30
0.0
 10
242.7406213271
 20
156.3241781799
 30
0.0
 10
247.8446756202
 20
153.1192378842
 30
0.0
 10
252.6149259286
 20
152.1586644404
 30
0.0
 10
255.0172339039
 20
152.1030849538
 30
0.0
  0
SPLINE
  5
7E8
100
AcDbEntity
  8
BEZUGSACHSEN
100
AcDbSpline
 62
7
  6
CONTINUOUS
 70
0
 71
3
 72
19
 73
15
 74
0
 42
0.0000001
 43
0.0000001
 44
0.0000000001
 40
0.0
 40
0.0
 40
0.0
 40
0.0
 40
0.0615778188
 40
0.1233173652
 40
0.1853624895
 40
0.2478005785
 40
0.3733221741
 40
0.5
 40
0.6266778259
 40
0.7521994215
 40
0.8146375105
 40
0.8766826348
 40
0.9384221812
 40
1.0
 40
1.0
 40
1.0
 40
1.0
 10
265.5672339039
 20
175.6787454144
 30
0.0
 10
265.5672339039
 20
176.262801366
 30
0.0
 10
265.4475798251
 20
177.4359177034
 30
0.0
 10
264.9166310566
 20
179.1238903358
 30
0.0
 10
264.0542890793
 20
180.6795365509
 30
0.0
 10
262.510250867
 20
182.4964230156
 30
0.0
 10
259.9315022394
 20
184.1554451259
 30
0.0
 10
256.3172339039
 20
184.8436253847
 30
0.0
 10
252.7029655685
 20
184.1554451259
 30
0.0
 10
250.1242169409
 20
182.4964230156
 30
0.0
 10
248.5801787286
 20
180.6795365509
 30
0.0
 10
247.7178367513
 20
179.1238903358
 30
0.0
 10
247.1868879828
 20
177.4359177034
 30
0.0
 10
247.0672339039
 20
176.262801366
 30
0.0
 10
247.0672339039
 20
175.6787454144
 30
0.0
  0
SPLINE
  5
7E9
100
AcDbEntity
  8
0
100
AcDbSpline
 62
7
  6
CONTINUOUS
 70
0
 71
3
 72
9
 73
5
 74
0
 42
0.0000001
 43
0.0000001
 44
0.0000000001
 40
0.0
 40
0.0
 40
0.0
 40
0.0
 40
0.5000000006
 40
1.0
 40
1.0
 40
1.0
 40
1.0
 10
259.6489520888
 20
253.0715429038
 30
0.0
 10
260.0715224423
 20
249.7809181055
 30
0.0
 10
260.5238395097
 20
243.1397683357
 30
0.0
 10
260.0715224413
 20
236.4986185661
 30
0.0
 10
259.6489520888
 20
233.2079937759
 30
0.0
  0
SPLINE
  5
7EA
100
AcDbEntity
  8
0
100
AcDbSpline
 62
7
  6
CONTINUOUS
 70
0
 71
3
 72
9
 73
5
 74
0
 42
0.0000001
 43
0.0000001
 44
0.0000000001
 40
0.0
 40
0.0
 40
0.0
 40
0.0
 40
0.5000000006
 40
1.0
 40
1.0
 40
1.0
 40
1.0
 10
259.6489520888
 20
264.5397683399
 30
0.0
 10
260.0665924877
 20
262.6620899155
 30
0.0
 10
260.5287694643
 20
258.8056556194
 30
0.0
 10
260.0665924867
 20
254.9492213236
 30
0.0
 10
259.6489520888
 20
253.0715429038
 30
0.0
  0
SPLINE
  5
7EB
100
AcDbEntity
  8
0
100
AcDbSpline
 62
7
  6
CONTINUOUS
 70
0
 71
3
 72
13
 73
9
 74
0
 42
0.0000001
 43
0.0000001
 44
0.0000000001
 40
0.0
 40
0.0
 40
0.0
 40
0.0
 40
0.0534104136
 40
0.1290200267
 40
0.2292800029
 40
0.3525017855
 40
0.6537402166
 40
1.0
 40
1.0
 40
1.0
 40
1.0
 10
236.8870605229
 20
188.4432243019
 30
0.0
 10
236.9508097695
 20
188.5311686974
 30
0.0
 10
237.1861076258
 20
188.6771253396
 30
0.0
 10
237.6423077411
 20
188.7773298847
 30
0.0
 10
238.2521574927
 20
188.8116427705
 30
0.0
 10
239.3186902008
 20
188.7543497863
 30
0.0
 10
240.8686395083
 20
188.4934625032
 30
0.0
 10
242.1436022335
 20
188.1590890764
 30
0.0
 10
242.8172339039
 20
187.9539310192
 30
0.0
  0
SPLINE
  5
7EC
100
AcDbEntity
  8
BEZUGSACHSEN
100
AcDbSpline
 62
7
  6
CONTINUOUS
 70
0
 71
3
 72
19
 73
15
 74
0
 42
0.0000001
 43
0.0000001
 44
0.0000000001
 40
0.0
 40
0.0
 40
0.0
 40
0.0
 40
0.0615637168
 40
0.1233167015
 40
0.1853986847
 40
0.2478631715
 40
0.3734162268
 40
0.5
 40
0.6265837732
 40
0.7521368285
 40
0.8146013153
 40
0.8766832985
 40
0.9384362832
 40
1.0
 40
1.0
 40
1.0
 40
1.0
 10
265.5221837878
 20
175.8857597591
 30
0.0
 10
265.4663025414
 20
176.4310594628
 30
0.0
 10
265.2495831135
 20
177.5154705533
 30
0.0
 10
264.6227109925
 20
179.052626687
 30
0.0
 10
263.7150138702
 20
180.4531116479
 30
0.0
 10
262.1732421184
 20
182.0746770224
 30
0.0
 10
259.7062710618
 20
183.5381899782
 30
0.0
 10
256.3172339039
 20
184.1426722694
 30
0.0
 10
252.9281967461
 20
183.5381899782
 30
0.0
 10
250.4612256894
 20
182.0746770224
 30
0.0
 10
248.9194539377
 20
180.4531116479
 30
0.0
 10
248.0117568154
 20
179.052626687
 30
0.0
 10
247.3848846944
 20
177.5154705533
 30
0.0
 10
247.1681652664
 20
176.4310594628
 30
0.0
 10
247.1122840201
 20
175.8857597591
 30
0.0
  0
SPLINE
  5
7ED
100
AcDbEntity
  8
KONSTRUKTIONSELEMENTE
100
AcDbSpline
 62
7
  6
CONTINUOUS
 70
0
 71
3
 72
15
 73
11
 74
0
 42
0.0000001
 43
0.0000001
 44
0.0000000001
 40
0.0
 40
0.0
 40
0.0
 40
0.0
 40
0.1247880654
 40
0.2495804245
 40
0.3744150683
 40
0.4993275685
 40
0.6243611639
 40
0.7495233807
 40
0.8747730249
 40
1.0
 40
1.0
 40
1.0
 40
1.0
 10
257.6172339039
 20
138.7601711723
 30
0.0
 10
258.726036192
 20
138.734518066
 30
0.0
 10
260.9544064407
 20
138.8943958405
 30
0.0
 10
264.1867071574
 20
139.7635955445
 30
0.0
 10
267.1973809317
 20
141.2312258273
 30
0.0
 10
269.8773476806
 20
143.2428420423
 30
0.0
 10
272.1351331575
 20
145.7222162635
 30
0.0
 10
273.8992093145
 20
148.5769206097
 30
0.0
 10
275.1219012598
 20
151.7017765296
 30
0.0
 10
275.5620550848
 20
153.8972012477
 30
0.0
 10
275.6881703994
 20
155.0030329987
 30
0.0
  0
SPLINE
  5
7EE
100
AcDbEntity
  8
0
100
AcDbSpline
 62
7
  6
CONTINUOUS
 70
0
 71
3
 72
20
 73
16
 74
0
 42
0.0000001
 43
0.0000001
 44
0.0000000001
 40
0.0
 40
0.0
 40
0.0
 40
0.0
 40
0.2532674299
 40
0.3795173608
 40
0.5047046886
 40
0.5669050968
 40
0.6287215934
 40
0.6901357528
 40
0.7511762438
 40
0.8120168076
 40
0.8427182695
 40
0.8736845401
 40
0.9049873693
 40
0.9365825082
 40
1.0
 40
1.0
 40
1.0
 40
1.0
 10
255.0172367162
 20
153.4550184612
 30
0.0
 10
253.2823694564
 20
153.4550181596
 30
0.0
 10
250.6512006744
 20
153.8754809789
 30
0.0
 10
247.4878237807
 20
155.3061724332
 30
0.0
 10
245.7324680076
 20
156.5813817601
 30
0.0
 10
244.5603557122
 20
157.8286680638
 30
0.0
 10
243.8296480581
 20
158.8739977322
 30
0.0
 10
243.2914155983
 20
160.0243797947
 30
0.0
 10
243.0116081545
 20
161.260043559
 30
0.0
 10
243.0890616793
 20
162.3278500636
 30
0.0
 10
243.4128207573
 20
163.1101436407
 30
0.0
 10
243.8007886551
 20
163.6248815218
 30
0.0
 10
244.3182155918
 20
164.0196705207
 30
0.0
 10
245.1219151188
 20
164.3590763812
 30
0.0
 10
245.7829697965
 20
164.4257095382
 30
0.0
 10
246.2173759505
 20
164.4257095382
 30
0.0
  0
SPLINE
  5
7EF
100
AcDbEntity
  8
RUNDUNGEN
100
AcDbSpline
 62
7
  6
CONTINUOUS
 70
0
 71
3
 72
20
 73
16
 74
0
 42
0.0000001
 43
0.0000001
 44
0.0000000001
 40
0.0
 40
0.0
 40
0.0
 40
0.0
 40
0.2532674299
 40
0.3795173608
 40
0.5047046886
 40
0.5669050968
 40
0.6287215934
 40
0.6901357528
 40
0.7511762438
 40
0.8120168076
 40
0.8427182695
 40
0.8736845401
 40
0.9049873693
 40
0.9365825082
 40
1.0
 40
1.0
 40
1.0
 40
1.0
 10
257.6172310917
 20
153.4550184612
 30
0.0
 10
259.3520983515
 20
153.4550181596
 30
0.0
 10
261.9832671335
 20
153.8754809789
 30
0.0
 10
265.1466440272
 20
155.3061724332
 30
0.0
 10
266.9019998003
 20
156.5813817601
 30
0.0
 10
268.0741120957
 20
157.8286680638
 30
0.0
 10
268.8048197498
 20
158.8739977322
 30
0.0
 10
269.3430522096
 20
160.0243797947
 30
0.0
 10
269.6228596534
 20
161.260043559
 30
0.0
 10
269.5454061286
 20
162.3278500636
 30
0.0
 10
269.2216470506
 20
163.1101436407
 30
0.0
 10
268.8336791528
 20
163.6248815218
 30
0.0
 10
268.3162522161
 20
164.0196705207
 30
0.0
 10
267.5125526891
 20
164.3590763812
 30
0.0
 10
266.8514980114
 20
164.4257095382
 30
0.0
 10
266.4170918573
 20
164.4257095382
 30
0.0
  0
SPLINE
  5
7F0
100
AcDbEntity
  8
0
100
AcDbSpline
 62
7
  6
CONTINUOUS
 70
0
 71
3
 72
13
 73
9
 74
0
 42
0.0000001
 43
0.0000001
 44
0.0000000001
 40
0.0
 40
0.0
 40
0.0
 40
0.0
 40
0.3462597834
 40
0.6474982145
 40
0.7707199971
 40
0.8709799733
 40
0.9465895864
 40
1.0
 40
1.0
 40
1.0
 40
1.0
 10
248.3172339039
 20
195.5410987583
 30
0.0
 10
247.6436022335
 20
195.7462568155
 30
0.0
 10
246.3686395083
 20
196.0806302423
 30
0.0
 10
244.8186902008
 20
196.3415175254
 30
0.0
 10
243.7521574927
 20
196.3988105096
 30
0.0
 10
243.1423077411
 20
196.3644976238
 30
0.0
 10
242.6861076258
 20
196.2642930788
 30
0.0
 10
242.4508097695
 20
196.1183364366
 30
0.0
 10
242.3870605229
 20
196.0303920411
 30
0.0
  0
SPLINE
  5
7F1
100
AcDbEntity
  8
0
100
AcDbSpline
 62
7
  6
CONTINUOUS
 70
0
 71
3
 72
13
 73
9
 74
0
 42
0.0000001
 43
0.0000001
 44
0.0000000001
 40
0.0
 40
0.0
 40
0.0
 40
0.0
 40
0.1243404892
 40
0.2494444692
 40
0.5
 40
0.7505555308
 40
0.8756595108
 40
1.0
 40
1.0
 40
1.0
 40
1.0
 10
245.8283451207
 20
154.5600096994
 30
0.0
 10
246.5178902434
 20
153.8988625544
 30
0.0
 10
248.036013781
 20
152.7051433366
 30
0.0
 10
251.4704413209
 20
150.9426095861
 30
0.0
 10
256.3172339039
 20
150.0136068406
 30
0.0
 10
261.164026487
 20
150.9426095861
 30
0.0
 10
264.5984540269
 20
152.7051433366
 30
0.0
 10
266.1165775645
 20
153.8988625544
 30
0.0
 10
266.8061226872
 20
154.5600096994
 30
0.0
  0
SPLINE
  5
7F2
100
AcDbEntity
  8
RUNDUNGEN
100
AcDbSpline
 62
7
  6
CONTINUOUS
 70
0
 71
3
 72
13
 73
9
 74
0
 42
0.0000001
 43
0.0000001
 44
0.0000000001
 40
0.0
 40
0.0
 40
0.0
 40
0.0
 40
0.0534104136
 40
0.1290200267
 40
0.2292800029
 40
0.3525017855
 40
0.6537402166
 40
1.0
 40
1.0
 40
1.0
 40
1.0
 10
275.747407285
 20
188.4432243019
 30
0.0
 10
275.6836580384
 20
188.5311686974
 30
0.0
 10
275.4483601821
 20
188.6771253396
 30
0.0
 10
274.9921600668
 20
188.7773298847
 30
0.0
 10
274.3823103152
 20
188.8116427705
 30
0.0
 10
273.3157776071
 20
188.7543497863
 30
0.0
 10
271.7658282996
 20
188.4934625032
 30
0.0
 10
270.4908655743
 20
188.1590890764
 30
0.0
 10
269.8172339039
 20
187.9539310192
 30
0.0
  0
SPLINE
  5
7F3
100
AcDbEntity
  8
0
100
AcDbSpline
 62
7
  6
CONTINUOUS
 70
0
 71
3
 72
15
 73
11
 74
0
 42
0.0000001
 43
0.0000001
 44
0.0000000001
 40
0.0
 40
0.0
 40
0.0
 40
0.0
 40
0.1247864889
 40
0.2495786939
 40
0.3744233655
 40
0.4993675364
 40
0.6244502772
 40
0.7496647196
 40
0.8749153133
 40
1.0
 40
1.0
 40
1.0
 40
1.0
 10
255.0172339039
 20
138.7601711723
 30
0.0
 10
253.8138886016
 20
138.732330731
 30
0.0
 10
251.3939071239
 20
138.9256644354
 30
0.0
 10
247.9064619232
 20
139.9559099315
 30
0.0
 10
244.7029157493
 20
141.6827059811
 30
0.0
 10
241.9192778127
 20
144.0301498519
 30
0.0
 10
239.6653963849
 20
146.8935510379
 30
0.0
 10
238.0214820773
 20
150.1479378434
 30
0.0
 10
237.0328486507
 20
153.6546021527
 30
0.0
 10
236.8172339039
 20
156.0753579403
 30
0.0
 10
236.8172339039
 20
157.2819016166
 30
0.0
  0
SPLINE
  5
7F4
100
AcDbEntity
  8
RUNDUNGEN
100
AcDbSpline
 62
7
  6
CONTINUOUS
 70
0
 71
3
 72
13
 73
9
 74
0
 42
0.0000001
 43
0.0000001
 44
0.0000000001
 40
0.0
 40
0.0
 40
0.0
 40
0.0
 40
0.3462597834
 40
0.6474982145
 40
0.7707199971
 40
0.8709799733
 40
0.9465895864
 40
1.0
 40
1.0
 40
1.0
 40
1.0
 10
264.3172339039
 20
195.5410987583
 30
0.0
 10
264.9908655743
 20
195.7462568155
 30
0.0
 10
266.2658282996
 20
196.0806302423
 30
0.0
 10
267.8157776071
 20
196.3415175254
 30
0.0
 10
268.8823103152
 20
196.3988105096
 30
0.0
 10
269.4921600668
 20
196.3644976238
 30
0.0
 10
269.9483601821
 20
196.2642930788
 30
0.0
 10
270.1836580384
 20
196.1183364366
 30
0.0
 10
270.247407285
 20
196.0303920411
 30
0.0
  0
SPLINE
  5
7F5
100
AcDbEntity
  8
0
100
AcDbSpline
 62
7
  6
CONTINUOUS
 70
0
 71
3
 72
9
 73
5
 74
0
 42
0.0000001
 43
0.0000001
 44
0.0000000001
 40
0.0
 40
0.0
 40
0.0
 40
0.0
 40
0.5000000006
 40
1.0
 40
1.0
 40
1.0
 40
1.0
 10
252.985515719
 20
264.5397683399
 30
0.0
 10
252.5678753202
 20
262.6620899155
 30
0.0
 10
252.1056983436
 20
258.8056556194
 30
0.0
 10
252.5678753212
 20
254.9492213236
 30
0.0
 10
252.985515719
 20
253.0715429038
 30
0.0
  0
SPLINE
  5
7F6
100
AcDbEntity
  8
0
100
AcDbSpline
 62
7
  6
CONTINUOUS
 70
0
 71
3
 72
9
 73
5
 74
0
 42
0.0000001
 43
0.0000001
 44
0.0000000001
 40
0.0
 40
0.0
 40
0.0
 40
0.0
 40
0.5000000006
 40
1.0
 40
1.0
 40
1.0
 40
1.0
 10
252.985515719
 20
253.0715429038
 30
0.0
 10
252.5629453656
 20
249.7809181055
 30
0.0
 10
252.1106282982
 20
243.1397683357
 30
0.0
 10
252.5629453666
 20
236.4986185661
 30
0.0
 10
252.985515719
 20
233.2079937759
 30
0.0
  0
SPLINE
  5
7F7
100
AcDbEntity
  8
BEZUGSACHSEN
100
AcDbSpline
 62
7
  6
CONTINUOUS
 70
0
 71
3
 72
16
 73
12
 74
0
 42
0.0000001
 43
0.0000001
 44
0.0000000001
 40
0.0
 40
0.0
 40
0.0
 40
0.0
 40
0.3548296985
 40
0.5222347141
 40
0.6725064419
 40
0.7989201634
 40
0.8514914073
 40
0.8963100518
 40
0.9331359085
 40
0.9620620535
 40
1.0
 40
1.0
 40
1.0
 40
1.0
 10
386.776086986
 20
146.979968782
 30
0.0
 10
386.2015077614
 20
147.5349696943
 30
0.0
 10
385.3878756202
 20
148.3860983187
 30
0.0
 10
384.4112493992
 20
149.5435687854
 30
0.0
 10
383.8045750589
 20
150.3388566662
 30
0.0
 10
383.3917334705
 20
150.9554633639
 30
0.0
 10
383.1442323366
 20
151.3949502221
 30
0.0
 10
383.0131441573
 20
151.6668285028
 30
0.0
 10
382.9268156005
 20
151.9028645599
 30
0.0
 10
382.8747619515
 20
152.1250751377
 30
0.0
 10
382.8935212655
 20
152.2999482148
 30
0.0
 10
382.9549421515
 20
152.3593010559
 30
0.0
  0
SPLINE
  5
7F8
100
AcDbEntity
  8
0
100
AcDbSpline
 62
7
  6
CONTINUOUS
 70
0
 71
3
 72
11
 73
7
 74
0
 42
0.0000001
 43
0.0000001
 44
0.0000000001
 40
0.0
 40
0.0
 40
0.0
 40
0.0
 40
0.3289144544
 40
0.6081940373
 40
0.8326117125
 40
1.0
 40
1.0
 40
1.0
 40
1.0
 10
432.5182944423
 20
102.987292303
 30
0.0
 10
432.1675698904
 20
103.2550417037
 30
0.0
 10
431.5083695608
 20
103.7363192619
 30
0.0
 10
430.5674044805
 20
104.340658246
 30
0.0
 10
429.7706143979
 20
104.7605146423
 30
0.0
 10
429.2725620191
 20
104.9429288543
 30
0.0
 10
429.0522128035
 20
104.9861845816
 30
0.0
  0
SPLINE
  5
7F9
100
AcDbEntity
  8
0
100
AcDbSpline
 62
7
  6
CONTINUOUS
 70
0
 71
3
 72
9
 73
5
 74
0
 42
0.0000001
 43
0.0000001
 44
0.0000000001
 40
0.0
 40
0.0
 40
0.0
 40
0.0
 40
0.5755211125
 40
1.0
 40
1.0
 40
1.0
 40
1.0
 10
429.0522128035
 20
104.9861845816
 30
0.0
 10
428.9233759886
 20
105.0114759362
 30
0.0
 10
428.6929990266
 20
105.0397781935
 30
0.0
 10
428.4644155365
 20
104.951501919
 30
0.0
 10
428.3947924248
 20
104.8841950905
 30
0.0
  0
SPLINE
  5
7FA
100
AcDbEntity
  8
0
100
AcDbSpline
 62
7
  6
CONTINUOUS
 70
0
 71
3
 72
13
 73
9
 74
0
 42
0.0000001
 43
0.0000001
 44
0.0000000001
 40
0.0
 40
0.0
 40
0.0
 40
0.0
 40
0.3704485479
 40
0.6552555728
 40
0.7661428306
 40
0.857785806
 40
0.9335991113
 40
1.0
 40
1.0
 40
1.0
 40
1.0
 10
408.9900682219
 20
125.4314288579
 30
0.0
 10
408.7028186383
 20
125.602698598
 30
0.0
 10
408.1841157911
 20
125.8879103062
 30
0.0
 10
407.5402344084
 20
126.1511575842
 30
0.0
 10
407.1089143179
 20
126.2442636016
 30
0.0
 10
406.856364369
 20
126.2566112778
 30
0.0
 10
406.6462078617
 20
126.2158031161
 30
0.0
 10
406.5336132448
 20
126.1463285776
 30
0.0
 10
406.4905108666
 20
126.1046676773
 30
0.0
  0
SPLINE
  5
7FB
100
AcDbEntity
  8
RUNDUNGEN
100
AcDbSpline
 62
7
  6
CONTINUOUS
 70
0
 71
3
 72
12
 73
8
 74
0
 42
0.0000001
 43
0.0000001
 44
0.0000000001
 40
0.0
 40
0.0
 40
0.0
 40
0.0
 40
0.0611670511
 40
0.1416527351
 40
0.3611634952
 40
0.6520783701
 40
1.0
 40
1.0
 40
1.0
 40
1.0
 10
457.4891131515
 20
75.1449522972
 30
0.0
 10
457.4891131515
 20
75.223479543
 30
0.0
 10
457.4570688197
 20
75.4047205947
 30
0.0
 10
457.3017022466
 20
75.8422027832
 30
0.0
 10
456.9347740774
 20
76.5106084597
 30
0.0
 10
456.3168136644
 20
77.4230280596
 30
0.0
 10
455.8120347352
 20
78.0704726984
 30
0.0
 10
455.5291876937
 20
78.4161738888
 30
0.0
  0
SPLINE
  5
7FC
100
AcDbEntity
  8
RUNDUNGEN
100
AcDbSpline
 62
7
  6
CONTINUOUS
 70
0
 71
3
 72
11
 73
7
 74
0
 42
0.0000001
 43
0.0000001
 44
0.0000000001
 40
0.0
 40
0.0
 40
0.0
 40
0.0
 40
0.1348728247
 40
0.3687918423
 40
0.6717877543
 40
1.0
 40
1.0
 40
1.0
 40
1.0
 10
468.0957148693
 20
60.9254877173
 30
0.0
 10
468.0957148693
 20
60.9522101016
 30
0.0
 10
468.0596508782
 20
61.0205074108
 30
0.0
 10
467.9867036409
 20
61.1290949898
 30
0.0
 10
467.8754529067
 20
61.2611604203
 30
0.0
 10
467.7889337196
 20
61.3512250754
 30
0.0
 10
467.7421614787
 20
61.3964035908
 30
0.0
  0
SPLINE
  5
7FD
100
AcDbEntity
  8
RUNDUNGEN
100
AcDbSpline
 62
7
  6
CONTINUOUS
 70
0
 71
3
 72
11
 73
7
 74
0
 42
0.0000001
 43
0.0000001
 44
0.0000000001
 40
0.0
 40
0.0
 40
0.0
 40
0.0
 40
0.3831244728
 40
0.676832621
 40
0.8769472189
 40
1.0
 40
1.0
 40
1.0
 40
1.0
 10
378.8298159401
 20
143.9162170597
 30
0.0
 10
378.7625219463
 20
143.9639710364
 30
0.0
 10
378.6414615132
 20
144.0453496483
 30
0.0
 10
378.4727594831
 20
144.1324059476
 30
0.0
 10
378.3481699671
 20
144.1769879344
 30
0.0
 10
378.2705352686
 20
144.1655868982
 30
0.0
 10
378.2514783778
 20
144.1471686966
 30
0.0
  0
SPLINE
  5
7FE
100
AcDbEntity
  8
RUNDUNGEN
100
AcDbSpline
 62
7
  6
CONTINUOUS
 70
0
 71
3
 72
11
 73
7
 74
0
 42
0.0000001
 43
0.0000001
 44
0.0000000001
 40
0.0
 40
0.0
 40
0.0
 40
0.0
 40
0.3491780237
 40
0.6246305336
 40
0.8340634718
 40
1.0
 40
1.0
 40
1.0
 40
1.0
 10
379.4559110752
 20
168.8667438623
 30
0.0
 10
379.2233968674
 20
168.9697912238
 30
0.0
 10
378.7989589738
 20
169.1372067976
 30
0.0
 10
378.205179102
 20
169.2769561571
 30
0.0
 10
377.7234007511
 20
169.2785998006
 30
0.0
 10
377.4631100431
 20
169.153989288
 30
0.0
 10
377.3762342457
 20
169.069965881
 30
0.0
  0
SPLINE
  5
7FF
100
AcDbEntity
  8
RUNDUNGEN
100
AcDbSpline
 62
7
  6
CONTINUOUS
 70
0
 71
3
 72
12
 73
8
 74
0
 42
0.0000001
 43
0.0000001
 44
0.0000000001
 40
0.0
 40
0.0
 40
0.0
 40
0.0
 40
0.2854431775
 40
0.5742965999
 40
0.8242066349
 40
0.9230746905
 40
1.0
 40
1.0
 40
1.0
 40
1.0
 10
386.1759171686
 20
163.1810985897
 30
0.0
 10
385.6940383262
 20
163.7700603427
 30
0.0
 10
384.6730576324
 20
164.9135085271
 30
0.0
 10
383.1008643437
 20
166.4498746022
 30
0.0
 10
381.7986530448
 20
167.5481345962
 30
0.0
 10
380.8643154744
 20
168.1931807616
 30
0.0
 10
380.4545610875
 20
168.4241547843
 30
0.0
 10
380.2670706505
 20
168.507248179
 30
0.0
  0
SPLINE
  5
800
100
AcDbEntity
  8
RUNDUNGEN
100
AcDbSpline
 62
7
  6
CONTINUOUS
 70
0
 71
3
 72
11
 73
7
 74
0
 42
0.0000001
 43
0.0000001
 44
0.0000000001
 40
0.0
 40
0.0
 40
0.0
 40
0.0
 40
0.2855242273
 40
0.5744465678
 40
0.8243990606
 40
1.0
 40
1.0
 40
1.0
 40
1.0
 10
399.1216621939
 20
147.3585556301
 30
0.0
 10
398.9650421528
 20
147.5499797099
 30
0.0
 10
398.6331848178
 20
147.9213319117
 30
0.0
 10
398.1223242664
 20
148.42187511
 30
0.0
 10
397.6478831495
 20
148.8181850179
 30
0.0
 10
397.3403536897
 20
149.0279216789
 30
0.0
 10
397.2012870755
 20
149.0895542467
 30
0.0
  0
SPLINE
  5
801
100
AcDbEntity
  8
RUNDUNGEN
100
AcDbSpline
 62
7
  6
CONTINUOUS
 70
0
 71
3
 72
9
 73
5
 74
0
 42
0.0000001
 43
0.0000001
 44
0.0000000001
 40
0.0
 40
0.0
 40
0.0
 40
0.0
 40
0.5394967057
 40
1.0
 40
1.0
 40
1.0
 40
1.0
 10
455.2912787159
 20
93.6109183296
 30
0.0
 10
454.8778025017
 20
94.0103056834
 30
0.0
 10
454.0911974983
 20
94.729888388
 30
0.0
 10
453.2579740125
 20
95.3966605837
 30
0.0
 10
452.8577999898
 20
95.6806369075
 30
0.0
  0
SPLINE
  5
802
100
AcDbEntity
  8
RUNDUNGEN
100
AcDbSpline
 62
7
  6
CONTINUOUS
 70
0
 71
3
 72
14
 73
10
 74
0
 42
0.0000001
 43
0.0000001
 44
0.0000000001
 40
0.0
 40
0.0
 40
0.0
 40
0.0
 40
0.0546649946
 40
0.135537574
 40
0.2415139539
 40
0.369373436
 40
0.5146685565
 40
0.6721260619
 40
1.0
 40
1.0
 40
1.0
 40
1.0
 10
468.0957148693
 20
79.6898684873
 30
0.0
 10
468.0957148693
 20
79.8199695445
 30
0.0
 10
468.0045881176
 20
80.1375225674
 30
0.0
 10
467.7544427941
 20
80.6534544477
 30
0.0
 10
467.3594355757
 20
81.292149363
 30
0.0
 10
466.8346762915
 20
82.0262446259
 30
0.0
 10
466.1974018714
 20
82.8295001056
 30
0.0
 10
465.2166200337
 20
83.9658482257
 30
0.0
 10
464.4143302628
 20
84.7987272258
 30
0.0
 10
463.8530741822
 20
85.3408589692
 30
0.0
  0
SPLINE
  5
803
100
AcDbEntity
  8
RUNDUNGEN
100
AcDbSpline
 62
7
  6
CONTINUOUS
 70
0
 71
3
 72
11
 73
7
 74
0
 42
0.0000001
 43
0.0000001
 44
0.0000000001
 40
0.0
 40
0.0
 40
0.0
 40
0.0
 40
0.1013338534
 40
0.3117452188
 40
0.6223535491
 40
1.0
 40
1.0
 40
1.0
 40
1.0
 10
464.5537011284
 20
75.3506269004
 30
0.0
 10
464.5431326623
 20
75.3408561579
 30
0.0
 10
464.4899451881
 20
75.3547723927
 30
0.0
 10
464.4209310237
 20
75.3989839526
 30
0.0
 10
464.3165865617
 20
75.4781209909
 30
0.0
 10
464.2452079373
 20
75.5437693779
 30
0.0
 10
464.2066275728
 20
75.5810351483
 30
0.0
  0
SPLINE
  5
804
100
AcDbEntity
  8
0
100
AcDbSpline
 62
7
  6
CONTINUOUS
 70
0
 71
3
 72
9
 73
5
 74
0
 42
0.0000001
 43
0.0000001
 44
0.0000000001
 40
0.0
 40
0.0
 40
0.0
 40
0.0
 40
0.4519564197
 40
1.0
 40
1.0
 40
1.0
 40
1.0
 10
406.0389201255
 20
126.572178387
 30
0.0
 10
405.9811373199
 20
126.5163280184
 30
0.0
 10
405.8884285548
 20
126.3553174798
 30
0.0
 10
405.8703181249
 20
126.1750245349
 30
0.0
 10
405.8703181249
 20
126.0775768633
 30
0.0
  0
SPLINE
  5
805
100
AcDbEntity
  8
0
100
AcDbSpline
 62
7
  6
CONTINUOUS
 70
0
 71
3
 72
9
 73
5
 74
0
 42
0.0000001
 43
0.0000001
 44
0.0000000001
 40
0.0
 40
0.0
 40
0.0
 40
0.0
 40
0.4519406227
 40
1.0
 40
1.0
 40
1.0
 40
1.0
 10
427.9431819541
 20
105.3516855285
 30
0.0
 10
427.890899974
 20
105.3011577403
 30
0.0
 10
427.8070059416
 20
105.1554835984
 30
0.0
 10
427.7906283417
 20
104.9923547257
 30
0.0
 10
427.7906283417
 20
104.9041831047
 30
0.0
  0
SPLINE
  5
806
100
AcDbEntity
  8
RUNDUNGEN
100
AcDbSpline
 62
7
  6
CONTINUOUS
 70
0
 71
3
 72
9
 73
5
 74
0
 42
0.0000001
 43
0.0000001
 44
0.0000000001
 40
0.0
 40
0.0
 40
0.0
 40
0.0
 40
0.2218387009
 40
1.0
 40
1.0
 40
1.0
 40
1.0
 10
468.0215388202
 20
59.8021615101
 30
0.0
 10
468.0339620116
 20
59.8141730715
 30
0.0
 10
468.0829896842
 20
59.8759795572
 30
0.0
 10
468.0957148693
 20
59.9590051142
 30
0.0
 10
468.0957148693
 20
60.0196210595
 30
0.0
  0
SPLINE
  5
807
100
AcDbEntity
  8
RUNDUNGEN
100
AcDbSpline
 62
7
  6
CONTINUOUS
 70
0
 71
3
 72
16
 73
12
 74
0
 42
0.0000001
 43
0.0000001
 44
0.0000000001
 40
0.0
 40
0.0
 40
0.0
 40
0.0
 40
0.0406934868
 40
0.0688788418
 40
0.1037507063
 40
0.1946661649
 40
0.3133767106
 40
0.4573894853
 40
0.622964099
 40
0.8055827269
 40
1.0
 40
1.0
 40
1.0
 40
1.0
 10
464.4860049142
 20
56.3870980006
 30
0.0
 10
464.4358960487
 20
56.3386494423
 30
0.0
 10
464.3066265725
 20
56.3095937316
 30
0.0
 10
464.132369804
 20
56.3343809864
 30
0.0
 10
463.8775388748
 20
56.4084304219
 30
0.0
 10
463.4993089917
 20
56.5916897958
 30
0.0
 10
462.9832912046
 20
56.9098435387
 30
0.0
 10
462.387693234
 20
57.3390067375
 30
0.0
 10
461.7295544535
 20
57.8662960561
 30
0.0
 10
461.0287246982
 20
58.4770558922
 30
0.0
 10
460.5570529783
 20
58.9183679862
 30
0.0
 10
460.3175402763
 20
59.1497194908
 30
0.0
  0
SPLINE
  5
808
100
AcDbEntity
  8
RUNDUNGEN
100
AcDbSpline
 62
7
  6
CONTINUOUS
 70
0
 71
3
 72
12
 73
8
 74
0
 42
0.0000001
 43
0.0000001
 44
0.0000000001
 40
0.0
 40
0.0
 40
0.0
 40
0.0
 40
0.1229684411
 40
0.2119574676
 40
0.3236052604
 40
0.6170597271
 40
1.0
 40
1.0
 40
1.0
 40
1.0
 10
390.9571407244
 20
135.8486697062
 30
0.0
 10
390.8999639958
 20
135.793424961
 30
0.0
 10
390.7452916546
 20
135.7691441474
 30
0.0
 10
390.5432012732
 20
135.810035185
 30
0.0
 10
390.2390251417
 20
135.914934482
 30
0.0
 10
389.7888673799
 20
136.1563024043
 30
0.0
 10
389.4240136376
 20
136.3982345182
 30
0.0
 10
389.2220966605
 20
136.5415212826
 30
0.0
  0
SPLINE
  5
809
100
AcDbEntity
  8
RUNDUNGEN
100
AcDbSpline
 62
7
  6
CONTINUOUS
 70
0
 71
3
 72
12
 73
8
 74
0
 42
0.0000001
 43
0.0000001
 44
0.0000000001
 40
0.0
 40
0.0
 40
0.0
 40
0.0
 40
0.1048397813
 40
0.1937661804
 40
0.3092677593
 40
0.6142494036
 40
1.0
 40
1.0
 40
1.0
 40
1.0
 10
390.2441638431
 20
157.846039722
 30
0.0
 10
390.2749754385
 20
157.8758525746
 30
0.0
 10
390.2673645354
 20
157.9731382632
 30
0.0
 10
390.2259971371
 20
158.0868460935
 30
0.0
 10
390.1334700439
 20
158.2767419648
 30
0.0
 10
389.9528235863
 20
158.5515752234
 30
0.0
 10
389.7801404073
 20
158.7759464012
 30
0.0
 10
389.6802463589
 20
158.8980388624
 30
0.0
  0
SPLINE
  5
80A
100
AcDbEntity
  8
RUNDUNGEN
100
AcDbSpline
 62
7
  6
CONTINUOUS
 70
0
 71
3
 72
9
 73
5
 74
0
 42
0.0000001
 43
0.0000001
 44
0.0000000001
 40
0.0
 40
0.0
 40
0.0
 40
0.0
 40
0.2218259981
 40
1.0
 40
1.0
 40
1.0
 40
1.0
 10
457.4087630625
 20
84.8193405982
 30
0.0
 10
457.4222208764
 20
84.8323516748
 30
0.0
 10
457.4753328546
 20
84.8993080207
 30
0.0
 10
457.4891131515
 20
84.9892513541
 30
0.0
 10
457.4891131515
 20
85.0549183063
 30
0.0
  0
SPLINE
  5
80B
100
AcDbEntity
  8
RUNDUNGEN
100
AcDbSpline
 62
7
  6
CONTINUOUS
 70
0
 71
3
 72
10
 73
6
 74
0
 42
0.0000001
 43
0.0000001
 44
0.0000000001
 40
0.0
 40
0.0
 40
0.0
 40
0.0
 40
0.3560986692
 40
0.6380542507
 40
1.0
 40
1.0
 40
1.0
 40
1.0
 10
453.8732291566
 20
81.4042770887
 30
0.0
 10
453.7916221876
 20
81.3253790944
 30
0.0
 10
453.5497284882
 20
81.3230300533
 30
0.0
 10
453.2550950132
 20
81.4170477115
 30
0.0
 10
453.0649672936
 20
81.5020593563
 30
0.0
 10
452.961908863
 20
81.5539260143
 30
0.0
  0
SPLINE
  5
80C
100
AcDbEntity
  8
BEZUGSACHSEN
100
AcDbSpline
 62
7
  6
CONTINUOUS
 70
0
 71
3
 72
15
 73
11
 74
0
 42
0.0000001
 43
0.0000001
 44
0.0000000001
 40
0.0
 40
0.0
 40
0.0
 40
0.0
 40
0.0406872048
 40
0.0688708701
 40
0.1037373065
 40
0.1946522288
 40
0.3133671932
 40
0.4573948603
 40
0.6229776034
 40
1.0
 40
1.0
 40
1.0
 40
1.0
 10
390.5972318205
 20
144.4476460043
 30
0.0
 10
390.5512955433
 20
144.4032564043
 30
0.0
 10
390.4328713292
 20
144.3765185047
 30
0.0
 10
390.2731434419
 20
144.3992185957
 30
0.0
 10
390.0395629541
 20
144.4670395979
 30
0.0
 10
389.6928614212
 20
144.6350232589
 30
0.0
 10
389.2198388455
 20
144.926649681
 30
0.0
 10
388.6738384621
 20
145.3200429402
 30
0.0
 10
387.8324207544
 20
145.9943791906
 30
0.0
 10
387.2018351574
 20
146.5687276278
 30
0.0
 10
386.776086986
 20
146.979968782
 30
0.0
  0
SPLINE
  5
80D
100
AcDbEntity
  8
0
100
AcDbSpline
 62
7
  6
CONTINUOUS
 70
0
 71
3
 72
11
 73
7
 74
0
 42
0.0000001
 43
0.0000001
 44
0.0000000001
 40
0.0
 40
0.0
 40
0.0
 40
0.0
 40
0.176112773
 40
0.3892178591
 40
0.6608267208
 40
1.0
 40
1.0
 40
1.0
 40
1.0
 10
379.5988022407
 20
156.299974415
 30
0.0
 10
379.6826484596
 20
156.3809502679
 30
0.0
 10
379.9200130558
 20
156.5078610166
 30
0.0
 10
380.3632829138
 20
156.5398037584
 30
0.0
 10
380.9038445842
 20
156.4494806474
 30
0.0
 10
381.2890170152
 20
156.322710097
 30
0.0
 10
381.4988816879
 20
156.2430070386
 30
0.0
  0
SPLINE
  5
80E
100
AcDbEntity
  8
RUNDUNGEN
100
AcDbSpline
 62
7
  6
CONTINUOUS
 70
0
 71
3
 72
10
 73
6
 74
0
 42
0.0000001
 43
0.0000001
 44
0.0000000001
 40
0.0
 40
0.0
 40
0.0
 40
0.0
 40
0.5672539817
 40
0.803071974
 40
1.0
 40
1.0
 40
1.0
 40
1.0
 10
379.0460443672
 20
155.9441538838
 30
0.0
 10
378.0459966226
 20
157.1664318115
 30
0.0
 10
376.6781798883
 20
158.9396472201
 30
0.0
 10
375.1507290101
 20
161.2684025571
 30
0.0
 10
374.5574076352
 20
162.3190122339
 30
0.0
 10
374.3148067308
 20
162.810672017
 30
0.0
  0
SPLINE
  5
80F
100
AcDbEntity
  8
RUNDUNGEN
100
AcDbSpline
 62
7
  6
CONTINUOUS
 70
0
 71
3
 72
9
 73
5
 74
0
 42
0.0000001
 43
0.0000001
 44
0.0000000001
 40
0.0
 40
0.0
 40
0.0
 40
0.0
 40
0.2592737009
 40
1.0
 40
1.0
 40
1.0
 40
1.0
 10
374.2737608494
 20
162.8945763457
 30
0.0
 10
374.2538891495
 20
162.9355561989
 30
0.0
 10
374.1780611838
 20
163.0940052994
 30
0.0
 10
374.1055823732
 20
163.2540688271
 30
0.0
 10
374.0542421438
 20
163.3736269605
 30
0.0
  0
SPLINE
  5
810
100
AcDbEntity
  8
0
100
AcDbSpline
 62
7
  6
CONTINUOUS
 70
0
 71
3
 72
15
 73
11
 74
0
 42
0.0000001
 43
0.0000001
 44
0.0000000001
 40
0.0
 40
0.0
 40
0.0
 40
0.0
 40
0.2018499553
 40
0.3828567064
 40
0.5413894942
 40
0.6765595027
 40
0.7880615151
 40
0.8765600154
 40
0.9448337862
 40
1.0
 40
1.0
 40
1.0
 40
1.0
 10
378.3735081945
 20
146.7205642623
 30
0.0
 10
378.1165233596
 20
147.1031284059
 30
0.0
 10
377.6408345751
 20
147.8367893908
 30
0.0
 10
377.0115426505
 20
148.9011969199
 30
0.0
 10
376.5092544747
 20
149.8623999195
 30
0.0
 10
376.1384178674
 20
150.7109838021
 30
0.0
 10
375.9005388691
 20
151.4403427072
 30
0.0
 10
375.7980946384
 20
152.0471171328
 30
0.0
 10
375.8302011334
 20
152.5378730735
 30
0.0
 10
375.9726668128
 20
152.7974110085
 30
0.0
 10
376.0632683348
 20
152.8849109055
 30
0.0
  0
SPLINE
  5
811
100
AcDbEntity
  8
RUNDUNGEN
100
AcDbSpline
 62
7
  6
CONTINUOUS
 70
0
 71
3
 72
10
 73
6
 74
0
 42
0.0000001
 43
0.0000001
 44
0.0000000001
 40
0.0
 40
0.0
 40
0.0
 40
0.0
 40
0.6785007132
 40
0.878750155
 40
1.0
 40
1.0
 40
1.0
 40
1.0
 10
374.9469856788
 20
140.1156867584
 30
0.0
 10
374.8609908936
 20
140.2437041231
 30
0.0
 10
374.7551619545
 20
140.4172059156
 30
0.0
 10
374.6828818949
 20
140.6313733541
 30
0.0
 10
374.6961744931
 20
140.7130606662
 30
0.0
 10
374.7160233518
 20
140.7321798039
 30
0.0
  0
SPLINE
  5
812
100
AcDbEntity
  8
RUNDUNGEN
100
AcDbSpline
 62
7
  6
CONTINUOUS
 70
0
 71
3
 72
11
 73
7
 74
0
 42
0.0000001
 43
0.0000001
 44
0.0000000001
 40
0.0
 40
0.0
 40
0.0
 40
0.0
 40
0.2283935121
 40
0.4975019968
 40
0.7679047943
 40
1.0
 40
1.0
 40
1.0
 40
1.0
 10
380.3234714013
 20
133.0143789965
 30
0.0
 10
380.1472137033
 20
133.1394571133
 30
0.0
 10
379.7834877837
 20
133.4400296847
 30
0.0
 10
379.259548631
 20
133.9441776211
 30
0.0
 10
378.7690612924
 20
134.4856963805
 30
0.0
 10
378.4763251921
 20
134.8616851032
 30
0.0
 10
378.3538558953
 20
135.0440007704
 30
0.0
  0
SPLINE
  5
813
100
AcDbEntity
  8
RUNDUNGEN
100
AcDbSpline
 62
7
  6
CONTINUOUS
 70
0
 71
3
 72
9
 73
5
 74
0
 42
0.0000001
 43
0.0000001
 44
0.0000000001
 40
0.0
 40
0.0
 40
0.0
 40
0.0
 40
0.2538116
 40
1.0
 40
1.0
 40
1.0
 40
1.0
 10
451.7557448099
 20
67.4197788511
 30
0.0
 10
451.5375776995
 20
67.6305120975
 30
0.0
 10
450.6903828554
 20
68.4734048384
 30
0.0
 10
449.8869573211
 20
69.3610034886
 30
0.0
 10
449.3222660839
 20
70.0511801715
 30
0.0
  0
SPLINE
  5
814
100
AcDbEntity
  8
RUNDUNGEN
100
AcDbSpline
 62
7
  6
CONTINUOUS
 70
0
 71
3
 72
9
 73
5
 74
0
 42
0.0000001
 43
0.0000001
 44
0.0000000001
 40
0.0
 40
0.0
 40
0.0
 40
0.0
 40
0.2929719792
 40
1.0
 40
1.0
 40
1.0
 40
1.0
 10
457.4891131515
 20
87.3468685646
 30
0.0
 10
457.4891131515
 20
87.369623232
 30
0.0
 10
457.4931654458
 20
87.446659611
 30
0.0
 10
457.5238106869
 20
87.5261577604
 30
0.0
 10
457.5632891133
 20
87.5643280737
 30
0.0
  0
SPLINE
  5
815
100
AcDbEntity
  8
RUNDUNGEN
100
AcDbSpline
 62
7
  6
CONTINUOUS
 70
0
 71
3
 72
9
 73
5
 74
0
 42
0.0000001
 43
0.0000001
 44
0.0000000001
 40
0.0
 40
0.0
 40
0.0
 40
0.0
 40
0.5354314211
 40
1.0
 40
1.0
 40
1.0
 40
1.0
 10
458.1962199327
 20
81.3866431144
 30
0.0
 10
457.8068039595
 20
81.7627900601
 30
0.0
 10
457.0614336147
 20
82.4467945626
 30
0.0
 10
456.2747648495
 20
83.0840617848
 30
0.0
 10
455.8952867251
 20
83.360958677
 30
0.0
  0
SPLINE
  5
816
100
AcDbEntity
  8
RUNDUNGEN
100
AcDbSpline
 62
7
  6
CONTINUOUS
 70
0
 71
3
 72
14
 73
10
 74
0
 42
0.0000001
 43
0.0000001
 44
0.0000000001
 40
0.0
 40
0.0
 40
0.0
 40
0.0
 40
0.3278736629
 40
0.4853311912
 40
0.6306263484
 40
0.7584858509
 40
0.8644622694
 40
0.9453349565
 40
1.0
 40
1.0
 40
1.0
 40
1.0
 10
461.7317538386
 20
67.2020115569
 30
0.0
 10
461.1704982295
 20
67.7441428449
 30
0.0
 10
460.3682088614
 20
68.5770213936
 30
0.0
 10
459.3874272785
 20
69.7133690539
 30
0.0
 10
458.7501526811
 20
70.5166246366
 30
0.0
 10
458.2253932082
 20
71.2507200412
 30
0.0
 10
457.8303856704
 20
71.8894152293
 30
0.0
 10
457.5802400887
 20
72.4053474907
 30
0.0
 10
457.4891131515
 20
72.7229008653
 30
0.0
 10
457.4891131515
 20
72.8530020389
 30
0.0
  0
SPLINE
  5
817
100
AcDbEntity
  8
RUNDUNGEN
100
AcDbSpline
 62
7
  6
CONTINUOUS
 70
0
 71
3
 72
14
 73
10
 74
0
 42
0.0000001
 43
0.0000001
 44
0.0000000001
 40
0.0
 40
0.0
 40
0.0
 40
0.0
 40
0.2012572755
 40
0.3857885782
 40
0.5499429929
 40
0.6908692169
 40
0.8063236823
 40
0.8952180933
 40
1.0
 40
1.0
 40
1.0
 40
1.0
 10
448.1907065415
 20
87.3854091905
 30
0.0
 10
447.9768365708
 20
87.6468052549
 30
0.0
 10
447.5743430883
 20
88.1541625967
 30
0.0
 10
447.0268100908
 20
88.8969965816
 30
0.0
 10
446.5684109076
 20
89.5803903752
 30
0.0
 10
446.2084887513
 20
90.1847198456
 30
0.0
 10
445.9515977534
 20
90.7140287574
 30
0.0
 10
445.7818819171
 20
91.1802097495
 30
0.0
 10
445.7509479536
 20
91.5794178331
 30
0.0
 10
445.8774576258
 20
91.7015445326
 30
0.0
  0
SPLINE
  5
818
100
AcDbEntity
  8
RUNDUNGEN
100
AcDbSpline
 62
7
  6
CONTINUOUS
 70
0
 71
3
 72
11
 73
7
 74
0
 42
0.0000001
 43
0.0000001
 44
0.0000000001
 40
0.0
 40
0.0
 40
0.0
 40
0.0
 40
0.2170485118
 40
0.4713284978
 40
0.7403269935
 40
1.0
 40
1.0
 40
1.0
 40
1.0
 10
433.6580765081
 20
109.3053766055
 30
0.0
 10
432.3241620077
 20
110.2519651261
 30
0.0
 10
429.5467024859
 20
112.474576817
 30
0.0
 10
425.4284906195
 20
116.2419316454
 30
0.0
 10
421.3020168245
 20
120.4632109052
 30
0.0
 10
418.674047644
 20
123.4612474304
 30
0.0
 10
417.4348850012
 20
124.9757762668
 30
0.0
  0
SPLINE
  5
819
100
AcDbEntity
  8
RUNDUNGEN
100
AcDbSpline
 62
7
  6
CONTINUOUS
 70
0
 71
3
 72
11
 73
7
 74
0
 42
0.0000001
 43
0.0000001
 44
0.0000000001
 40
0.0
 40
0.0
 40
0.0
 40
0.0
 40
0.2596730065
 40
0.5286715022
 40
0.7829514882
 40
1.0
 40
1.0
 40
1.0
 40
1.0
 10
430.1225426021
 20
93.5174580109
 30
0.0
 10
428.8833799593
 20
95.0319868473
 30
0.0
 10
426.2554107788
 20
98.0300233725
 30
0.0
 10
422.1289369838
 20
102.2513026323
 30
0.0
 10
418.0107251174
 20
106.0186574607
 30
0.0
 10
415.2332655956
 20
108.2412691516
 30
0.0
 10
413.8993510952
 20
109.1878576722
 30
0.0
  0
SPLINE
  5
81A
100
AcDbEntity
  8
RUNDUNGEN
100
AcDbSpline
 62
7
  6
CONTINUOUS
 70
0
 71
3
 72
13
 73
9
 74
0
 42
0.0000001
 43
0.0000001
 44
0.0000000001
 40
0.0
 40
0.0
 40
0.0
 40
0.0
 40
0.3856974312
 40
0.5498575693
 40
0.6907703348
 40
0.8062569901
 40
0.8951722101
 40
1.0
 40
1.0
 40
1.0
 40
1.0
 10
388.4336440081
 20
157.1040836654
 30
0.0
 10
388.2671557888
 20
157.3075688257
 30
0.0
 10
388.0374644009
 20
157.6040994617
 30
0.0
 10
387.7746746675
 20
157.9956076943
 30
0.0
 10
387.6284937974
 20
158.2411284988
 30
0.0
 10
387.524085041
 20
158.4561285692
 30
0.0
 10
387.4551104421
 20
158.6455559878
 30
0.0
 10
387.4424257184
 20
158.8077165531
 30
0.0
 10
387.4937751331
 20
158.8574092541
 30
0.0
  0
SPLINE
  5
81B
100
AcDbEntity
  8
RUNDUNGEN
100
AcDbSpline
 62
7
  6
CONTINUOUS
 70
0
 71
3
 72
12
 73
8
 74
0
 42
0.0000001
 43
0.0000001
 44
0.0000000001
 40
0.0
 40
0.0
 40
0.0
 40
0.0
 40
0.0769163679
 40
0.1757857774
 40
0.42568196
 40
0.7145393197
 40
1.0
 40
1.0
 40
1.0
 40
1.0
 10
395.0517142009
 20
150.0422178073
 30
0.0
 10
394.9501686989
 20
150.0872214918
 30
0.0
 10
394.7282307456
 20
150.2123315521
 30
0.0
 10
394.2221465122
 20
150.5616984667
 30
0.0
 10
393.5167968774
 20
151.156589105
 30
0.0
 10
392.6651748593
 20
151.98878398
 30
0.0
 10
392.1121226806
 20
152.6081750322
 30
0.0
 10
391.8510890036
 20
152.9272155015
 30
0.0
  0
SPLINE
  5
81C
100
AcDbEntity
  8
RUNDUNGEN
100
AcDbSpline
 62
7
  6
CONTINUOUS
 70
0
 71
3
 72
11
 73
7
 74
0
 42
0.0000001
 43
0.0000001
 44
0.0000000001
 40
0.0
 40
0.0
 40
0.0
 40
0.0
 40
0.3776464509
 40
0.6882547812
 40
0.8986661466
 40
1.0
 40
1.0
 40
1.0
 40
1.0
 10
467.7421614787
 20
78.9960986578
 30
0.0
 10
467.7807418432
 20
78.9588328874
 30
0.0
 10
467.8521204676
 20
78.8931845003
 30
0.0
 10
467.9564649296
 20
78.8140474621
 30
0.0
 10
468.0254790941
 20
78.7698359022
 30
0.0
 10
468.0786665683
 20
78.7559196673
 30
0.0
 10
468.0892350343
 20
78.7656904099
 30
0.0
  0
SPLINE
  5
81D
100
AcDbEntity
  8
RUNDUNGEN
100
AcDbSpline
 62
7
  6
CONTINUOUS
 70
0
 71
3
 72
12
 73
8
 74
0
 42
0.0000001
 43
0.0000001
 44
0.0000000001
 40
0.0
 40
0.0
 40
0.0
 40
0.0
 40
0.3829279487
 40
0.6763788394
 40
0.7880316563
 40
0.8770245698
 40
1.0
 40
1.0
 40
1.0
 40
1.0
 10
455.5291876937
 20
85.5699819493
 30
0.0
 10
455.7479165807
 20
85.4147649144
 30
0.0
 10
456.1431528247
 20
85.1526849974
 30
0.0
 10
456.6307918753
 20
84.8912118748
 30
0.0
 10
456.9603124023
 20
84.7775623645
 30
0.0
 10
457.1792263753
 20
84.7332566967
 30
0.0
 10
457.3468385929
 20
84.7594717351
 30
0.0
 10
457.4087630625
 20
84.8193405982
 30
0.0
  0
SPLINE
  5
81E
100
AcDbEntity
  8
0
100
AcDbSpline
 62
7
  6
CONTINUOUS
 70
0
 71
3
 72
13
 73
9
 74
0
 42
0.0000001
 43
0.0000001
 44
0.0000000001
 40
0.0
 40
0.0
 40
0.0
 40
0.0
 40
0.3704485479
 40
0.6552555728
 40
0.7661428306
 40
0.857785806
 40
0.9335991113
 40
1.0
 40
1.0
 40
1.0
 40
1.0
 10
408.6634553486
 20
125.8652776267
 30
0.0
 10
408.3618432859
 20
126.0451108538
 30
0.0
 10
407.8172052963
 20
126.3445831474
 30
0.0
 10
407.1411298444
 20
126.6209927893
 30
0.0
 10
406.6882437494
 20
126.7187541075
 30
0.0
 10
406.4230663031
 20
126.7317191675
 30
0.0
 10
406.2024019704
 20
126.6888705978
 30
0.0
 10
406.0841776226
 20
126.6159223324
 30
0.0
 10
406.0389201255
 20
126.572178387
 30
0.0
  0
SPLINE
  5
81F
100
AcDbEntity
  8
RUNDUNGEN
100
AcDbSpline
 62
7
  6
CONTINUOUS
 70
0
 71
3
 72
16
 73
12
 74
0
 42
0.0000001
 43
0.0000001
 44
0.0000000001
 40
0.0
 40
0.0
 40
0.0
 40
0.0
 40
0.1944172731
 40
0.377035901
 40
0.5426105147
 40
0.6866232894
 40
0.8053338351
 40
0.8962492937
 40
0.9311211582
 40
0.9593065132
 40
1.0
 40
1.0
 40
1.0
 40
1.0
 10
463.8530741822
 20
62.5647830002
 30
0.0
 10
464.0925868842
 20
62.3334314956
 30
0.0
 10
464.5642586042
 20
61.8921194016
 30
0.0
 10
465.2650883595
 20
61.2813595656
 30
0.0
 10
465.9232271399
 20
60.754070247
 30
0.0
 10
466.5188251106
 20
60.3249070482
 30
0.0
 10
467.0348428976
 20
60.0067533053
 30
0.0
 10
467.4130727807
 20
59.8234939314
 30
0.0
 10
467.66790371
 20
59.7494444959
 30
0.0
 10
467.8421604785
 20
59.7246572411
 30
0.0
 10
467.9714299547
 20
59.7537129518
 30
0.0
 10
468.0215388202
 20
59.8021615101
 30
0.0
  0
SPLINE
  5
820
100
AcDbEntity
  8
RUNDUNGEN
100
AcDbSpline
 62
7
  6
CONTINUOUS
 70
0
 71
3
 72
9
 73
5
 74
0
 42
0.0000001
 43
0.0000001
 44
0.0000000001
 40
0.0
 40
0.0
 40
0.0
 40
0.0
 40
0.2406098632
 40
1.0
 40
1.0
 40
1.0
 40
1.0
 10
452.8577999898
 20
73.466243681
 30
0.0
 10
453.0398877556
 20
73.2436924497
 30
0.0
 10
453.8125782706
 20
72.3318606786
 30
0.0
 10
454.6385277091
 20
71.4653514162
 30
0.0
 10
455.2912787159
 20
70.8348423605
 30
0.0
  0
SPLINE
  5
821
100
AcDbEntity
  8
RUNDUNGEN
100
AcDbSpline
 62
7
  6
CONTINUOUS
 70
0
 71
3
 72
11
 73
7
 74
0
 42
0.0000001
 43
0.0000001
 44
0.0000000001
 40
0.0
 40
0.0
 40
0.0
 40
0.0
 40
0.2321082203
 40
0.5025207165
 40
0.7716173832
 40
1.0
 40
1.0
 40
1.0
 40
1.0
 10
381.8893898012
 20
138.4590642798
 30
0.0
 10
382.0118659654
 20
138.2767383894
 30
0.0
 10
382.3046169372
 20
137.9007338489
 30
0.0
 10
382.7951131353
 20
137.3592092113
 30
0.0
 10
383.3190458434
 20
136.8550723351
 30
0.0
 10
383.6827560175
 20
136.554514656
 30
0.0
 10
383.8590053072
 20
136.429442506
 30
0.0
  0
SPLINE
  5
822
100
AcDbEntity
  8
0
100
AcDbSpline
 62
7
  6
CONTINUOUS
 70
0
 71
3
 72
15
 73
11
 74
0
 42
0.0000001
 43
0.0000001
 44
0.0000000001
 40
0.0
 40
0.0
 40
0.0
 40
0.0
 40
0.2018499553
 40
0.3828567064
 40
0.5413894942
 40
0.6765595027
 40
0.7880615151
 40
0.8765600154
 40
0.9448337862
 40
1.0
 40
1.0
 40
1.0
 40
1.0
 10
381.9090421005
 20
150.1356277717
 30
0.0
 10
381.6520572655
 20
150.5181919153
 30
0.0
 10
381.1763684811
 20
151.2518529002
 30
0.0
 10
380.5470765565
 20
152.3162604294
 30
0.0
 10
380.0447883806
 20
153.2774634289
 30
0.0
 10
379.6739517734
 20
154.1260473116
 30
0.0
 10
379.436072775
 20
154.8554062167
 30
0.0
 10
379.3336285443
 20
155.4621806422
 30
0.0
 10
379.3657350393
 20
155.952936583
 30
0.0
 10
379.5082007187
 20
156.2124745179
 30
0.0
 10
379.5988022407
 20
156.299974415
 30
0.0
  0
SPLINE
  5
823
100
AcDbEntity
  8
RUNDUNGEN
100
AcDbSpline
 62
7
  6
CONTINUOUS
 70
0
 71
3
 72
9
 73
5
 74
0
 42
0.0000001
 43
0.0000001
 44
0.0000000001
 40
0.0
 40
0.0
 40
0.0
 40
0.0
 40
0.6294496393
 40
1.0
 40
1.0
 40
1.0
 40
1.0
 10
390.0188603053
 20
157.8680568283
 30
0.0
 10
390.0637849309
 20
157.8481468014
 30
0.0
 10
390.1343127338
 20
157.8178719307
 30
0.0
 10
390.2233748185
 20
157.8259245636
 30
0.0
 10
390.2441638431
 20
157.846039722
 30
0.0
  0
SPLINE
  5
824
100
AcDbEntity
  8
0
100
AcDbSpline
 62
7
  6
CONTINUOUS
 70
0
 71
3
 72
9
 73
5
 74
0
 42
0.0000001
 43
0.0000001
 44
0.0000000001
 40
0.0
 40
0.0
 40
0.0
 40
0.0
 40
0.4519564197
 40
1.0
 40
1.0
 40
1.0
 40
1.0
 10
406.4905108666
 20
126.1046676773
 30
0.0
 10
406.4354796231
 20
126.05147685
 30
0.0
 10
406.3471855611
 20
125.8981334799
 30
0.0
 10
406.3299375327
 20
125.7264259133
 30
0.0
 10
406.3299375327
 20
125.6336186071
 30
0.0
  0
SPLINE
  5
825
100
AcDbEntity
  8
0
100
AcDbSpline
 62
7
  6
CONTINUOUS
 70
0
 71
3
 72
9
 73
5
 74
0
 42
0.0000001
 43
0.0000001
 44
0.0000000001
 40
0.0
 40
0.0
 40
0.0
 40
0.0
 40
0.4520461653
 40
1.0
 40
1.0
 40
1.0
 40
1.0
 10
428.3947924248
 20
104.8841950905
 30
0.0
 10
428.3452558632
 20
104.836306555
 30
0.0
 10
428.26581049
 20
104.6982804609
 30
0.0
 10
428.2502477495
 20
104.5437426699
 30
0.0
 10
428.2502477495
 20
104.4602248485
 30
0.0
  0
SPLINE
  5
826
100
AcDbEntity
  8
BEZUGSACHSEN
100
AcDbSpline
 62
7
  6
CONTINUOUS
 70
0
 71
3
 72
15
 73
11
 74
0
 42
0.0000001
 43
0.0000001
 44
0.0000000001
 40
0.0
 40
0.0
 40
0.0
 40
0.0
 40
0.3794262398
 40
0.5445784805
 40
0.6876534149
 40
0.8053423535
 40
0.8955272514
 40
0.9302589229
 40
0.9585053325
 40
1.0
 40
1.0
 40
1.0
 40
1.0
 10
388.4175230045
 20
148.1084685083
 30
0.0
 10
388.7836092426
 20
147.6924578806
 30
0.0
 10
389.2924864001
 20
147.0799297962
 30
0.0
 10
389.8838162134
 20
146.267830972
 30
0.0
 10
390.2234582027
 20
145.7461251627
 30
0.0
 10
390.4710181901
 20
145.2968386866
 30
0.0
 10
390.6091970543
 20
144.9690278024
 30
0.0
 10
390.6599086195
 20
144.749796269
 30
0.0
 10
390.6723301579
 20
144.598910492
 30
0.0
 10
390.6408119434
 20
144.4897587818
 30
0.0
 10
390.5972318205
 20
144.4476460043
 30
0.0
  0
SPLINE
  5
827
100
AcDbEntity
  8
0
100
AcDbSpline
 62
7
  6
CONTINUOUS
 70
0
 71
3
 72
10
 73
6
 74
0
 42
0.0000001
 43
0.0000001
 44
0.0000000001
 40
0.0
 40
0.0
 40
0.0
 40
0.0
 40
0.5856523198
 40
0.8156449048
 40
1.0
 40
1.0
 40
1.0
 40
1.0
 10
432.2957887396
 20
103.3494209734
 30
0.0
 10
431.6951228239
 20
103.8079800851
 30
0.0
 10
430.837039695
 20
104.422466707
 30
0.0
 10
429.7151402049
 20
105.0614349583
 30
0.0
 10
429.2256407168
 20
105.2810751808
 30
0.0
 10
429.0007725307
 20
105.358678753
 30
0.0
  0
SPLINE
  5
828
100
AcDbEntity
  8
0
100
AcDbSpline
 62
7
  6
CONTINUOUS
 70
0
 71
3
 72
9
 73
5
 74
0
 42
0.0000001
 43
0.0000001
 44
0.0000000001
 40
0.0
 40
0.0
 40
0.0
 40
0.0
 40
0.266391436
 40
1.0
 40
1.0
 40
1.0
 40
1.0
 10
429.0007725307
 20
105.358678753
 30
0.0
 10
428.973214614
 20
105.3681891814
 30
0.0
 10
428.8693546609
 20
105.4026572166
 30
0.0
 10
428.7637225194
 20
105.4320195144
 30
0.0
 10
428.6853277772
 20
105.4493301549
 30
0.0
  0
SPLINE
  5
829
100
AcDbEntity
  8
0
100
AcDbSpline
 62
7
  6
CONTINUOUS
 70
0
 71
3
 72
10
 73
6
 74
0
 42
0.0000001
 43
0.0000001
 44
0.0000000001
 40
0.0
 40
0.0
 40
0.0
 40
0.0
 40
0.3160994782
 40
0.5812200367
 40
1.0
 40
1.0
 40
1.0
 40
1.0
 10
428.6853277772
 20
105.4493301549
 30
0.0
 10
428.6058506932
 20
105.4668797915
 30
0.0
 10
428.4571699632
 20
105.4909189044
 30
0.0
 10
428.2003168014
 20
105.4924457569
 30
0.0
 10
428.0207193608
 20
105.4266213602
 30
0.0
 10
427.9431819541
 20
105.3516855285
 30
0.0
  0
SPLINE
  5
82A
100
AcDbEntity
  8
RUNDUNGEN
100
AcDbSpline
 62
7
  6
CONTINUOUS
 70
0
 71
3
 72
10
 73
6
 74
0
 42
0.0000001
 43
0.0000001
 44
0.0000000001
 40
0.0
 40
0.0
 40
0.0
 40
0.0
 40
0.3698698647
 40
0.647960795
 40
1.0
 40
1.0
 40
1.0
 40
1.0
 10
387.4937751331
 20
158.8574092541
 30
0.0
 10
387.5284212216
 20
158.8909375373
 30
0.0
 10
387.6260352643
 20
158.9004735075
 30
0.0
 10
387.7498123469
 20
158.8692118013
 30
0.0
 10
387.8273341754
 20
158.839313542
 30
0.0
 10
387.8692874307
 20
158.8207203889
 30
0.0
  0
SPLINE
  5
82B
100
AcDbEntity
  8
RUNDUNGEN
100
AcDbSpline
 62
7
  6
CONTINUOUS
 70
0
 71
3
 72
11
 73
7
 74
0
 42
0.0000001
 43
0.0000001
 44
0.0000000001
 40
0.0
 40
0.0
 40
0.0
 40
0.0
 40
0.1663336643
 40
0.3759469007
 40
0.6511753727
 40
1.0
 40
1.0
 40
1.0
 40
1.0
 10
377.3762342457
 20
169.069965881
 30
0.0
 10
377.2898413166
 20
168.9864094884
 30
0.0
 10
377.15719131
 20
168.732355636
 30
0.0
 10
377.1410808671
 20
168.254477002
 30
0.0
 10
377.2578349922
 20
167.6609366999
 30
0.0
 10
377.408250151
 20
167.2344632422
 30
0.0
 10
377.5018838639
 20
167.0004473188
 30
0.0
  0
SPLINE
  5
82C
100
AcDbEntity
  8
RUNDUNGEN
100
AcDbSpline
 62
7
  6
CONTINUOUS
 70
0
 71
3
 72
10
 73
6
 74
0
 42
0.0000001
 43
0.0000001
 44
0.0000000001
 40
0.0
 40
0.0
 40
0.0
 40
0.0
 40
0.1212916442
 40
0.3215845226
 40
1.0
 40
1.0
 40
1.0
 40
1.0
 10
378.2514783778
 20
144.1471686966
 30
0.0
 10
378.2316577339
 20
144.1280123391
 30
0.0
 10
378.2184512562
 20
144.0463243319
 30
0.0
 10
378.2907280985
 20
143.832199494
 30
0.0
 10
378.396547958
 20
143.6587331574
 30
0.0
 10
378.4825195847
 20
143.5307502678
 30
0.0
  0
SPLINE
  5
82D
100
AcDbEntity
  8
RUNDUNGEN
100
AcDbSpline
 62
7
  6
CONTINUOUS
 70
0
 71
3
 72
14
 73
10
 74
0
 42
0.0000001
 43
0.0000001
 44
0.0000000001
 40
0.0
 40
0.0
 40
0.0
 40
0.0
 40
0.0563083523
 40
0.1252818743
 40
0.2140273503
 40
0.3253679894
 40
0.4601495001
 40
0.6181802666
 40
1.0
 40
1.0
 40
1.0
 40
1.0
 10
445.8774576258
 20
91.7015445326
 30
0.0
 10
445.9124788299
 20
91.7353524146
 30
0.0
 10
446.0133088988
 20
91.7874450697
 30
0.0
 10
446.2010827045
 20
91.7967238301
 30
0.0
 10
446.4307776122
 20
91.7534244939
 30
0.0
 10
446.7047981243
 20
91.6578670432
 30
0.0
 10
447.02206799
 20
91.5106650644
 30
0.0
 10
447.5326287328
 20
91.2281042817
 30
0.0
 10
447.9215238766
 20
90.9686242431
 30
0.0
 10
448.1907065415
 20
90.7776035889
 30
0.0
  0
SPLINE
  5
82E
100
AcDbEntity
  8
RUNDUNGEN
100
AcDbSpline
 62
7
  6
CONTINUOUS
 70
0
 71
3
 72
16
 73
12
 74
0
 42
0.0000001
 43
0.0000001
 44
0.0000000001
 40
0.0
 40
0.0
 40
0.0
 40
0.0
 40
0.0406934243
 40
0.0688787598
 40
0.1037505872
 40
0.1946660079
 40
0.3133765043
 40
0.457389213
 40
0.6229638074
 40
0.8055826256
 40
1.0
 40
1.0
 40
1.0
 40
1.0
 10
457.5632891133
 20
87.5643280737
 30
0.0
 10
457.6133979251
 20
87.6127765358
 30
0.0
 10
457.7426671511
 20
87.6418324235
 30
0.0
 10
457.9169237519
 20
87.6170451824
 30
0.0
 10
458.1717545885
 20
87.5429960522
 30
0.0
 10
458.5499843117
 20
87.3597367341
 30
0.0
 10
459.0660019388
 20
87.0415832413
 30
0.0
 10
459.6615997749
 20
86.6124202068
 30
0.0
 10
460.3197387558
 20
86.0851308236
 30
0.0
 10
461.0205688977
 20
85.474370686
 30
0.0
 10
461.4922410063
 20
85.0330582543
 30
0.0
 10
461.7317538386
 20
84.8017066239
 30
0.0
  0
SPLINE
  5
82F
100
AcDbEntity
  8
BEZUGSACHSEN
100
AcDbSpline
 62
7
  6
CONTINUOUS
 70
0
 71
3
 72
12
 73
8
 74
0
 42
0.0000001
 43
0.0000001
 44
0.0000000001
 40
0.0
 40
0.0
 40
0.0
 40
0.0
 40
0.1339254882
 40
0.224551911
 40
0.3357033967
 40
0.6239583049
 40
1.0
 40
1.0
 40
1.0
 40
1.0
 10
382.9549421515
 20
152.3593010559
 30
0.0
 10
382.9977034526
 20
152.4006225813
 30
0.0
 10
383.1050209502
 20
152.4287826876
 30
0.0
 10
383.2521507324
 20
152.4128040184
 30
0.0
 10
383.4639735761
 20
152.357826193
 30
0.0
 10
383.7786262726
 20
152.2145471504
 30
0.0
 10
384.0329271112
 20
152.0646032741
 30
0.0
 10
384.1737908084
 20
151.974964265
 30
0.0
  0
SPLINE
  5
830
100
AcDbEntity
  8
RUNDUNGEN
100
AcDbSpline
 62
7
  6
CONTINUOUS
 70
0
 71
3
 72
11
 73
7
 74
0
 42
0.0000001
 43
0.0000001
 44
0.0000000001
 40
0.0
 40
0.0
 40
0.0
 40
0.0
 40
0.2170485118
 40
0.4713284978
 40
0.7403269935
 40
1.0
 40
1.0
 40
1.0
 40
1.0
 10
417.4348850012
 20
112.6029211817
 30
0.0
 10
418.7687995016
 20
111.656332661
 30
0.0
 10
421.5462590234
 20
109.4337209701
 30
0.0
 10
425.6644708897
 20
105.6663661418
 30
0.0
 10
429.7909446847
 20
101.445086882
 30
0.0
 10
432.4189138653
 20
98.4470503567
 30
0.0
 10
433.6580765081
 20
96.9325215203
 30
0.0
  0
SPLINE
  5
831
100
AcDbEntity
  8
RUNDUNGEN
100
AcDbSpline
 62
7
  6
CONTINUOUS
 70
0
 71
3
 72
12
 73
8
 74
0
 42
0.0000001
 43
0.0000001
 44
0.0000000001
 40
0.0
 40
0.0
 40
0.0
 40
0.0
 40
0.3838855418
 40
0.6782978225
 40
0.7901167575
 40
0.8789021861
 40
1.0
 40
1.0
 40
1.0
 40
1.0
 10
390.2639857265
 20
137.6979216583
 30
0.0
 10
390.4101638135
 20
137.4803115621
 30
0.0
 10
390.6565689804
 20
137.0874922628
 30
0.0
 10
390.9009390996
 20
136.6051491956
 30
0.0
 10
391.0053371276
 20
136.2809471967
 30
0.0
 10
391.0443885084
 20
136.068402827
 30
0.0
 10
391.0166115461
 20
135.9061310279
 30
0.0
 10
390.9571407244
 20
135.8486697062
 30
0.0
  0
SPLINE
  5
832
100
AcDbEntity
  8
0
100
AcDbSpline
 62
7
  6
CONTINUOUS
 70
0
 71
3
 72
9
 73
5
 74
0
 42
0.0000001
 43
0.0000001
 44
0.0000000001
 40
0.0
 40
0.0
 40
0.0
 40
0.0
 40
0.2853597975
 40
1.0
 40
1.0
 40
1.0
 40
1.0
 10
428.4061375592
 20
104.9582367785
 30
0.0
 10
428.3570677753
 20
104.9728664022
 30
0.0
 10
428.1840530137
 20
105.0195507612
 30
0.0
 10
428.0041904513
 20
105.0479934693
 30
0.0
 10
427.8759853542
 20
105.0453129237
 30
0.0
  0
SPLINE
  5
833
100
AcDbEntity
  8
0
100
AcDbSpline
 62
7
  6
CONTINUOUS
 70
0
 71
3
 72
8
 73
4
 74
0
 42
0.0000001
 43
0.0000001
 44
0.0000000001
 40
0.0
 40
0.0
 40
0.0
 40
0.0
 40
1.0
 40
1.0
 40
1.0
 40
1.0
 10
427.8759853542
 20
105.0453129237
 30
0.0
 10
427.8502076813
 20
105.0447739574
 30
0.0
 10
427.8244224234
 20
105.0432418836
 30
0.0
 10
427.7987853077
 20
105.0405001322
 30
0.0
  0
SPLINE
  5
834
100
AcDbEntity
  8
0
100
AcDbSpline
 62
7
  6
CONTINUOUS
 70
0
 71
3
 72
9
 73
5
 74
0
 42
0.0000001
 43
0.0000001
 44
0.0000000001
 40
0.0
 40
0.0
 40
0.0
 40
0.0
 40
0.2920093717
 40
1.0
 40
1.0
 40
1.0
 40
1.0
 10
406.5068758054
 20
126.2100168426
 30
0.0
 10
406.4478433987
 20
126.2256560819
 30
0.0
 10
406.2446357265
 20
126.2725083302
 30
0.0
 10
406.0306706558
 20
126.2924642383
 30
0.0
 10
405.8844411038
 20
126.2692262706
 30
0.0
  0
SPLINE
  5
835
100
AcDbEntity
  8
0
100
AcDbSpline
 62
7
  6
CONTINUOUS
 70
0
 71
3
 72
11
 73
7
 74
0
 42
0.0000001
 43
0.0000001
 44
0.0000000001
 40
0.0
 40
0.0
 40
0.0
 40
0.0
 40
0.2454741303
 40
0.4930871318
 40
0.74439517
 40
1.0
 40
1.0
 40
1.0
 40
1.0
 10
223.8172339039
 20
343.4464224523
 30
0.0
 10
223.8172339039
 20
345.9639068728
 30
0.0
 10
224.4736854616
 20
351.044306391
 30
0.0
 10
227.3726421212
 20
358.1929833009
 30
0.0
 10
232.0237271516
 20
364.4753114405
 30
0.0
 10
236.0962301901
 20
367.8046701516
 30
0.0
 10
238.3100820449
 20
369.2084142076
 30
0.0
  0
SPLINE
  5
836
100
AcDbEntity
  8
0
100
AcDbSpline
 62
7
  6
CONTINUOUS
 70
0
 71
3
 72
11
 73
7
 74
0
 42
0.0000001
 43
0.0000001
 44
0.0000000001
 40
0.0
 40
0.0
 40
0.0
 40
0.0
 40
0.2556050303
 40
0.5069132145
 40
0.7545261816
 40
1.0
 40
1.0
 40
1.0
 40
1.0
 10
274.3243379738
 20
369.2084436921
 30
0.0
 10
276.5381983342
 20
367.8047003636
 30
0.0
 10
280.6107163937
 20
364.4753387016
 30
0.0
 10
285.2618176549
 20
358.1930006069
 30
0.0
 10
288.1607812928
 20
351.044313356
 30
0.0
 10
288.8172339039
 20
345.9639082247
 30
0.0
 10
288.8172339039
 20
343.4464224523
 30
0.0
  0
SPLINE
  5
837
100
AcDbEntity
  8
0
100
AcDbSpline
 62
7
  6
CONTINUOUS
 70
0
 71
3
 72
15
 73
11
 74
0
 42
0.0000001
 43
0.0000001
 44
0.0000000001
 40
0.0
 40
0.0
 40
0.0
 40
0.0
 40
0.1240332942
 40
0.2481877412
 40
0.372577652
 40
0.4972918131
 40
0.6223888863
 40
0.7478910697
 40
0.8737801798
 40
1.0
 40
1.0
 40
1.0
 40
1.0
 10
197.8172339039
 20
343.4464224523
 30
0.0
 10
197.8172339039
 20
346.4363223725
 30
0.0
 10
198.3033898116
 20
352.4303050344
 30
0.0
 10
200.4714950632
 20
361.184265131
 30
0.0
 10
204.0216719095
 20
369.4945206709
 30
0.0
 10
208.861770858
 20
377.1515035694
 30
0.0
 10
214.8673270951
 20
383.9680583472
 30
0.0
 10
221.8871746401
 20
389.7790444375
 30
0.0
 10
229.7433899855
 20
394.4449609896
 30
0.0
 10
235.4099463215
 20
396.7183240262
 30
0.0
 10
238.3120963891
 20
397.6320993466
 30
0.0
  0
SPLINE
  5
838
100
AcDbEntity
  8
0
100
AcDbSpline
 62
7
  6
CONTINUOUS
 70
0
 71
3
 72
15
 73
11
 74
0
 42
0.0000001
 43
0.0000001
 44
0.0000000001
 40
0.0
 40
0.0
 40
0.0
 40
0.0
 40
0.1262198835
 40
0.2521089936
 40
0.3776111234
 40
0.5027081152
 40
0.6274222582
 40
0.7518120876
 40
0.8759664713
 40
1.0
 40
1.0
 40
1.0
 40
1.0
 10
274.3219169784
 20
397.6322439368
 30
0.0
 10
277.224095232
 20
396.7184864332
 30
0.0
 10
282.890705186
 20
394.4451441773
 30
0.0
 10
290.7470060675
 20
389.7792532812
 30
0.0
 10
297.7669279878
 20
383.9682669635
 30
0.0
 10
303.772554145
 20
377.1516989501
 30
0.0
 10
308.6127123701
 20
369.4946874834
 30
0.0
 10
312.1629337251
 20
361.1843901615
 30
0.0
 10
314.3310706914
 20
352.4303741568
 30
0.0
 10
314.8172339039
 20
346.4363476864
 30
0.0
 10
314.8172339039
 20
343.4464224523
 30
0.0
  0
SPLINE
  5
839
100
AcDbEntity
  8
0
100
AcDbSpline
 62
7
  6
CONTINUOUS
 70
0
 71
3
 72
15
 73
11
 74
0
 42
0.0000001
 43
0.0000001
 44
0.0000000001
 40
0.0
 40
0.0
 40
0.0
 40
0.0
 40
0.1238822635
 40
0.2479169902
 40
0.3722408425
 40
0.4969548797
 40
0.6221141048
 40
0.7477192114
 40
0.8737156515
 40
1.0
 40
1.0
 40
1.0
 40
1.0
 10
314.8172339039
 20
271.0019854806
 30
0.0
 10
314.8172339039
 20
267.655874131
 30
0.0
 10
314.2075399505
 20
260.9437572192
 30
0.0
 10
311.4946996772
 20
251.2080679626
 30
0.0
 10
307.0726310623
 20
242.0924082259
 30
0.0
 10
301.0848917824
 20
233.8838512172
 30
0.0
 10
293.7233144366
 20
226.8321710073
 30
0.0
 10
285.2185757997
 20
221.1496274243
 30
0.0
 10
275.8381855265
 20
217.0051773623
 30
0.0
 10
269.1878619359
 20
215.3482112421
 30
0.0
 10
265.8198265184
 20
214.8085739856
 30
0.0
  0
SPLINE
  5
83A
100
AcDbEntity
  8
0
100
AcDbSpline
 62
7
  6
CONTINUOUS
 70
0
 71
3
 72
15
 73
11
 74
0
 42
0.0000001
 43
0.0000001
 44
0.0000000001
 40
0.0
 40
0.0
 40
0.0
 40
0.0
 40
0.1262844527
 40
0.2522809289
 40
0.3778860032
 40
0.5030451388
 40
0.6277590962
 40
0.7520829371
 40
0.8761175357
 40
1.0
 40
1.0
 40
1.0
 40
1.0
 10
246.814956096
 20
214.8085246152
 30
0.0
 10
243.4469023486
 20
215.348149793
 30
0.0
 10
236.7965393202
 20
217.0050840176
 30
0.0
 10
227.4160916406
 20
221.1495135911
 30
0.0
 10
218.9113019461
 20
226.8320491079
 30
0.0
 10
211.5496791009
 20
233.8837320858
 30
0.0
 10
205.5618980471
 20
242.0923021189
 30
0.0
 10
201.139796622
 20
251.207984082
 30
0.0
 10
198.4269339457
 20
260.943710251
 30
0.0
 10
197.8172339039
 20
267.6558555878
 30
0.0
 10
197.8172339039
 20
271.0019854806
 30
0.0
  0
SPLINE
  5
83B
100
AcDbEntity
  8
0
100
AcDbSpline
 62
7
  6
CONTINUOUS
 70
0
 71
3
 72
15
 73
11
 74
0
 42
0.0000001
 43
0.0000001
 44
0.0000000001
 40
0.0
 40
0.0
 40
0.0
 40
0.0
 40
0.1215738615
 40
0.2436012185
 40
0.3664971357
 40
0.4905648449
 40
0.6159815311
 40
0.7427821719
 40
0.8708633871
 40
1.0
 40
1.0
 40
1.0
 40
1.0
 10
288.8172339039
 20
271.0019854806
 30
0.0
 10
288.8172339039
 20
269.3743641246
 30
0.0
 10
288.545480934
 20
266.1066188845
 30
0.0
 10
287.3317898865
 20
261.3304566084
 30
0.0
 10
285.3378413621
 20
256.7861867479
 30
0.0
 10
282.6074515603
 20
252.5888382544
 30
0.0
 10
279.2034864601
 20
248.8459685975
 30
0.0
 10
275.2067982403
 20
245.6571060982
 30
0.0
 10
270.7179870902
 20
243.1097278767
 30
0.0
 10
267.4803570009
 20
241.8895235899
 30
0.0
 10
265.8204994018
 20
241.4059253386
 30
0.0
  0
SPLINE
  5
83C
100
AcDbEntity
  8
0
100
AcDbSpline
 62
7
  6
CONTINUOUS
 70
0
 71
3
 72
15
 73
11
 74
0
 42
0.0000001
 43
0.0000001
 44
0.0000000001
 40
0.0
 40
0.0
 40
0.0
 40
0.0
 40
0.1291365882
 40
0.2572178515
 40
0.3840185648
 40
0.5094353233
 40
0.6335030864
 40
0.7563990112
 40
0.8784262945
 40
1.0
 40
1.0
 40
1.0
 40
1.0
 10
246.8137571309
 20
241.4059862625
 30
0.0
 10
245.1539116394
 20
241.889591145
 30
0.0
 10
241.9163079248
 20
243.1098126719
 30
0.0
 10
237.4275330857
 20
245.6571993422
 30
0.0
 10
233.4308798331
 20
248.8460651664
 30
0.0
 10
230.0269474194
 20
252.5889304126
 30
0.0
 10
227.2965847535
 20
256.7862658822
 30
0.0
 10
225.3026595182
 20
261.3305159691
 30
0.0
 10
224.0889831745
 20
266.1066508348
 30
0.0
 10
223.8172339039
 20
269.3743751004
 30
0.0
 10
223.8172339039
 20
271.0019854806
 30
0.0
  0
ELLIPSE
  5
83D
100
AcDbEntity
  8
RUNDUNGEN
100
AcDbEllipse
 62
7
  6
CONTINUOUS
 10
641.1672996472
 20
205.7463584258
 30
0.0
 11
13.5917808382
 21
-4.203350773
 31
0.0
 40
0.4203155586
 41
1.5396153878
 42
1.5416988386
  0
ELLIPSE
  5
83E
100
AcDbEntity
  8
RUNDUNGEN
100
AcDbEllipse
 62
7
  6
CONTINUOUS
 10
698.4301916186
 20
190.4028127658
 30
0.0
 11
13.872502875
 21
-3.1556818687
 31
0.0
 40
0.4203155586
 41
1.5998770104
 42
1.6019772748
  0
ELLIPSE
  5
83F
100
AcDbEntity
  8
0
100
AcDbEllipse
 62
7
  6
CONTINUOUS
 10
785.0706887242
 20
190.4028127658
 30
0.0
 11
13.872502875
 21
3.1556818687
 31
0.0
 40
0.4203155586
 41
1.5396153787
 42
1.5417156432
  0
ELLIPSE
  5
840
100
AcDbEntity
  8
0
100
AcDbEllipse
 62
7
  6
CONTINUOUS
 10
842.3335806956
 20
205.7463584258
 30
0.0
 11
13.5917808382
 21
4.203350773
 31
0.0
 40
0.4203155586
 41
1.599893815
 42
1.6019772658
  0
ELLIPSE
  5
841
100
AcDbEntity
  8
0
100
AcDbEllipse
 62
7
  6
CONTINUOUS
 10
248.1950247253
 20
203.6484862512
 30
0.0
 11
0.3665992131
 21
7.9984660413
 31
0.0
 40
0.427321232
 41
-1.2894137339
 42
0.0189671095
  0
ELLIPSE
  5
842
100
AcDbEntity
  8
RUNDUNGEN
100
AcDbEllipse
 62
7
  6
CONTINUOUS
 10
264.4394430826
 20
203.6484862512
 30
0.0
 11
-0.3665992131
 21
7.9984660413
 31
0.0
 40
0.427321232
 41
-0.0189671095
 42
1.2894137339
  0
ENDSEC
  0
SECTION
  2
OBJECTS
  0
DICTIONARY
  5
C
100
AcDbDictionary
280
0
281
1
  3
ACAD_GROUP
350
D
  3
ACAD_MLINESTYLE
350
17
  3
ACAD_LAYOUT
350
1A
  3
ACAD_PLOTSETTINGS
350
19
  3
ACAD_PLOTSTYLENAME
350
E
  0
DICTIONARY
  5
D
102
{ACAD_REACTORS
330
C
102
}
100
AcDbDictionary
280
0
281
1
  0
ACDBDICTIONARYWDFLT
  5
E
102
{ACAD_REACTORS
330
C
102
}
100
AcDbDictionary
281
1
  3
Normal
350
F
100
AcDbDictionaryWithDefault
340
F
  0
DICTIONARY
  5
17
102
{ACAD_REACTORS
330
C
102
}
100
AcDbDictionary
280
0
281
1
  3
Standard
350
18
  0
DICTIONARY
  5
19
102
{ACAD_REACTORS
330
C
102
}
100
AcDbDictionary
281
1
  0
DICTIONARY
  5
1A
102
{ACAD_REACTORS
330
C
102
}
100
AcDbDictionary
281
1
  3
Model
350
843
  3
Layout1
350
844
  0
ACDBPLACEHOLDER
  5
F
102
{ACAD_REACTORS
330
E
102
}
  0
MLINESTYLE
  5
18
102
{ACAD_REACTORS
330
17
102
}
100
AcDbMlineStyle
  2
STANDARD
 70
0
  3

 62
256
 51
90.0
 52
90.0
 71
2
 49
0.5
 62
256
  6
BYLAYER
 49
-0.5
 62
256
  6
BYLAYER
  0
LAYOUT
  5
843
102
{ACAD_REACTORS
330
1A
102
}
100
AcDbPlotSettings
  1

  2
none_device
  4
ISO_A0_(1189.00_x_841.00_MM)
  6

 40
0.0
 41
0.0
 42
0.0
 43
0.0
 44
1189.0
 45
841.0
 46
0.0
 47
0.0
 48
0.0
 49
0.0
140
0.0
141
0.0
142
1.0
143
1.0
 70
1024
 72
1
 73
0
 74
0
  7

 75
0
147
1.0
148
0.0
149
0.0
100
AcDbLayout
  1
Model
 70
0
 71
0
 10
0.0
 20
0.0
 11
1189.0
 21
841.0
 12
0.0
 22
0.0
 32
0.0
 14
0.0
 24
0.0
 34
0.0
 15
0.0
 25
0.0
 35
0.0
146
0.0
 13
0.0
 23
0.0
 33
0.0
 16
1.0
 26
0.0
 36
0.0
 17
0.0
 27
1.0
 37
0.0
 76
0
330
20A
345
0
346
0
  0
LAYOUT
  5
844
102
{ACAD_REACTORS
330
1A
102
}
100
AcDbPlotSettings
  1

  2
none_device
  4
ISO_A0_(1189.00_x_841.00_MM)
  6

 40
0.0
 41
0.0
 42
0.0
 43
0.0
 44
1189.0
 45
841.0
 46
0.0
 47
0.0
 48
0.0
 49
0.0
140
0.0
141
0.0
142
1.0
143
1.0
 70
0
 72
1
 73
0
 74
0
  7

 75
0
147
1.0
148
0.0
149
0.0
100
AcDbLayout
  1
Layout1
 70
0
 71
1
 10
0.0
 20
0.0
 11
1189.0
 21
841.0
 12
0.0
 22
0.0
 32
0.0
 14
0.0
 24
0.0
 34
0.0
 15
0.0
 25
0.0
 35
0.0
146
0.0
 13
0.0
 23
0.0
 33
0.0
 16
1.0
 26
0.0
 36
0.0
 17
0.0
 27
1.0
 37
0.0
 76
0
330
20B
345
0
346
0
  0
ENDSEC
  0
EOF
