999
DXF file: ISAK-RG-2-13_140_7903197_M34586-P-4.dxf
999
Pro/ENGINEER 2010140 by Parametric Technology Corporation
  0
SECTION
  2
HEADER
  9
$ACADVER
  1
AC1015
  9
$DWGCODEPAGE
  3
ANSI_1252
  9
$EXTMAX
 10
1189.0
 20
841.0
 30
0.0
  9
$EXTMIN
 10
0.0
 20
0.0
 30
0.0
  9
$LIMMIN
 10
0.0
 20
0.0
  9
$LIMMAX
 10
1189.0
 20
841.0
  9
$VIEWCTR
 10
594.5
 20
420.5
  9
$VIEWSIZE
 40
841.0
  9
$CLAYER
  8
0
  9
$LTSCALE
 40
65.395
  9
$CELTYPE
  6
BYLAYER
  9
$DIMSCALE
 40
1.0
  9
$DIMASZ
 40
3.5
  9
$DIMEXO
 40
7.43125
  9
$DIMDLI
 40
45.182
  9
$DIMEXE
 40
21.402
  9
$DIMCEN
 40
10.701
  9
$DIMLFAC
 40
1.0
  9
$DIMBLK
  1
_FILLED
  9
$DIMTXT
 40
3.5
  9
$DIMTOL
 70
1
  9
$DIMLIM
 70
0
  9
$DIMTFAC
 40
1.0
  9
$DIMTP
 40
0.005
  9
$DIMTM
 40
0.005
  9
$PDMODE
 70
3
  9
$PDSIZE
 40
0.3125
  9
$HANDSEED
  5
846
  9
$TILEMODE
 70
1
  9
$MEASUREMENT
 70
1
  9
$INSUNITS
 70
4
  0
ENDSEC
  0
SECTION
  2
CLASSES
  0
CLASS
  1
ACDBDICTIONARYWDFLT
  2
AcDbDictionaryWithDefault
  3
AutoCAD 2000
 90
0
280
0
281
0
  0
CLASS
  1
ACDBPLACEHOLDER
  2
AcDbPlaceHolder
  3
AutoCAD 2000
 90
0
280
0
281
0
  0
CLASS
  1
LAYOUT
  2
AcDbLayout
  3
AutoCAD 2000
 90
0
280
0
281
0
  0
ENDSEC
  0
SECTION
  2
TABLES
  0
TABLE
  2
VPORT
  5
8
100
AcDbSymbolTable
 70
2
  0
VPORT
  5
1F4
100
AcDbSymbolTableRecord
100
AcDbViewportTableRecord
  2
*ACTIVE
 70
0
 10
0.0
 20
0.0
 11
1.0
 21
1.0
 12
594.5
 22
420.5
 13
0.0
 23
0.0
 14
1.0
 24
1.0
 15
0.0
 25
0.0
 16
0.0
 26
0.0
 36
1.0
 17
0.0
 27
0.0
 37
0.0
 40
841.0
 41
1.4137931034
 42
50.0
 43
0.0
 44
0.0
 50
0.0
 51
0.0
 71
0
 72
100
 73
1
 74
1
 75
0
 76
0
 77
0
 78
0
  0
ENDTAB
  0
TABLE
  2
LTYPE
  5
5
100
AcDbSymbolTable
 70
6
  0
LTYPE
  5
14
100
AcDbSymbolTableRecord
100
AcDbLinetypeTableRecord
  2
BYBLOCK
 70
0
  3

 72
65
 73
0
 40
0.0
  0
LTYPE
  5
15
100
AcDbSymbolTableRecord
100
AcDbLinetypeTableRecord
  2
BYLAYER
 70
0
  3

 72
65
 73
0
 40
0.0
  0
LTYPE
  5
16
100
AcDbSymbolTableRecord
100
AcDbLinetypeTableRecord
  2
CONTINUOUS
 70
64
  3
Solid line
 72
65
 73
0
 40
0.0
  0
LTYPE
  5
1F5
100
AcDbSymbolTableRecord
100
AcDbLinetypeTableRecord
  2
CENTER
 70
64
  3
____ _ ____ _ ____ _ ____ _ ____ _ ____ _ ____
 72
65
 73
4
 40
0.6
 49
0.375
 74
0
 49
-0.075
 74
0
 49
0.075
 74
0
 49
-0.075
 74
0
  0
LTYPE
  5
1F6
100
AcDbSymbolTableRecord
100
AcDbLinetypeTableRecord
  2
HIDDEN
 70
64
  3
- - - - - - - - - - - - - - - - - - - -
 72
65
 73
2
 40
0.2
 49
0.1
 74
0
 49
-0.1
 74
0
  0
LTYPE
  5
1F7
100
AcDbSymbolTableRecord
100
AcDbLinetypeTableRecord
  2
PHANTOM
 70
64
  3
_____ _ _ _____ _ _ _____ _ _ _____
 72
65
 73
6
 40
0.8
 49
0.45
 74
0
 49
-0.05
 74
0
 49
0.1
 74
0
 49
-0.05
 74
0
 49
0.1
 74
0
 49
-0.05
 74
0
  0
LTYPE
  5
1F8
100
AcDbSymbolTableRecord
100
AcDbLinetypeTableRecord
  2
DOT
 70
64
  3
. . . . . . . . . . . . . . . . . . . .
 72
65
 73
2
 40
0.2
 49
0.1
 74
0
 49
-0.1
 74
0
  0
LTYPE
  5
1F9
100
AcDbSymbolTableRecord
100
AcDbLinetypeTableRecord
  2
DASHED
 70
64
  3
- - - - - - - - - - - - - - - - - - - -
 72
65
 73
2
 40
0.2
 49
0.1
 74
0
 49
-0.1
 74
0
  0
ENDTAB
  0
TABLE
  2
LAYER
  5
2
100
AcDbSymbolTable
 70
36
  0
LAYER
  5
10
100
AcDbSymbolTableRecord
100
AcDbLayerTableRecord
  2
0
 70
0
 62
7
  6
CONTINUOUS
370
-3
390
F
  0
LAYER
  5
1FA
100
AcDbSymbolTableRecord
100
AcDbLayerTableRecord
  2
DEFAULT_1
 70
0
 62
7
  6
CENTER
370
-3
390
F
  0
LAYER
  5
1FB
100
AcDbSymbolTableRecord
100
AcDbLayerTableRecord
  2
DEFAULT_2
 70
0
 62
8
  6
HIDDEN
370
-3
390
F
  0
LAYER
  5
1FC
100
AcDbSymbolTableRecord
100
AcDbLayerTableRecord
  2
DEFAULT_3
 70
0
 62
7
  6
PHANTOM
370
-3
390
F
  0
LAYER
  5
1FD
100
AcDbSymbolTableRecord
100
AcDbLayerTableRecord
  2
BEZUGSACHSEN
 70
0
 62
7
  6
CONTINUOUS
370
-3
390
F
  0
LAYER
  5
1FE
100
AcDbSymbolTableRecord
100
AcDbLayerTableRecord
  2
BEZUGSEBENEN
 70
0
 62
7
  6
CONTINUOUS
370
-3
390
F
  0
LAYER
  5
1FF
100
AcDbSymbolTableRecord
100
AcDbLayerTableRecord
  2
BG_STARTBEZUEGE
 70
0
 62
7
  6
CONTINUOUS
370
-3
390
F
  0
LAYER
  5
200
100
AcDbSymbolTableRecord
100
AcDbLayerTableRecord
  2
FASEN
 70
0
 62
7
  6
CONTINUOUS
370
-3
390
F
  0
LAYER
  5
201
100
AcDbSymbolTableRecord
100
AcDbLayerTableRecord
  2
HILFEN
 70
0
 62
7
  6
CONTINUOUS
370
-3
390
F
  0
LAYER
  5
202
100
AcDbSymbolTableRecord
100
AcDbLayerTableRecord
  2
KONSTRUKTIONSELEMENTE
 70
0
 62
7
  6
CONTINUOUS
370
-3
390
F
  0
LAYER
  5
203
100
AcDbSymbolTableRecord
100
AcDbLayerTableRecord
  2
NORM
 70
0
 62
7
  6
CONTINUOUS
370
-3
390
F
  0
LAYER
  5
204
100
AcDbSymbolTableRecord
100
AcDbLayerTableRecord
  2
PLATZIERUNG
 70
0
 62
7
  6
CONTINUOUS
370
-3
390
F
  0
LAYER
  5
205
100
AcDbSymbolTableRecord
100
AcDbLayerTableRecord
  2
RUNDUNGEN
 70
0
 62
7
  6
CONTINUOUS
370
-3
390
F
  0
LAYER
  5
206
100
AcDbSymbolTableRecord
100
AcDbLayerTableRecord
  2
TEIL_STARTBEZUEGE
 70
0
 62
7
  6
CONTINUOUS
370
-3
390
F
  0
LAYER
  5
207
100
AcDbSymbolTableRecord
100
AcDbLayerTableRecord
  2
T_STARTBEZUEGE
 70
0
 62
7
  6
CONTINUOUS
370
-3
390
F
  0
LAYER
  5
208
100
AcDbSymbolTableRecord
100
AcDbLayerTableRecord
  2
ZEICHNUNGSBEMASSUNGEN
 70
0
 62
7
  6
CONTINUOUS
370
-3
390
F
  0
ENDTAB
  0
TABLE
  2
STYLE
  5
3
100
AcDbSymbolTable
 70
1
  0
STYLE
  5
11
100
AcDbSymbolTableRecord
100
AcDbTextStyleTableRecord
  2
STANDARD
 70
0
 40
0.0
 41
0.7
 50
0.0
 71
0
 42
0.2
  3
txt
  4

  0
STYLE
  5
209
100
AcDbSymbolTableRecord
100
AcDbTextStyleTableRecord
  2
TEXTSTYLE_1
 70
0
 40
0.0
 41
0.8
 50
0.0
 71
0
 42
0.2
  3
gdt
  4

  0
ENDTAB
  0
TABLE
  2
VIEW
  5
6
100
AcDbSymbolTable
 70
0
  0
ENDTAB
  0
TABLE
  2
UCS
  5
7
100
AcDbSymbolTable
 70
0
  0
ENDTAB
  0
TABLE
  2
APPID
  5
9
100
AcDbSymbolTable
 70
1
  0
APPID
  5
20A
100
AcDbSymbolTableRecord
100
AcDbRegAppTableRecord
  2
ACAD
 70
0
  0
ENDTAB
  0
TABLE
  2
BLOCK_RECORD
  5
1
100
AcDbSymbolTable
 70
0
  0
BLOCK_RECORD
  5
20B
100
AcDbSymbolTableRecord
100
AcDbBlockTableRecord
  2
*Model_Space
  0
BLOCK_RECORD
  5
20C
100
AcDbSymbolTableRecord
100
AcDbBlockTableRecord
  2
*Paper_Space
  0
ENDTAB
  0
TABLE
  2
DIMSTYLE
  5
A
100
AcDbSymbolTable
 70
1
100
AcDbDimStyleTable
 71
0
  0
DIMSTYLE
105
20D
100
AcDbSymbolTableRecord
100
AcDbDimStyleTableRecord
  2
STANDARD
 70
0
  3

  4

 40
1.0
 41
3.5
 42
0.0625
 43
0.38
 44
0.18
 45
0.0
 46
0.0
 47
0.005
 48
0.005
140
3.5
141
0.09
142
0.0
143
25.4
144
1.0
145
0.0
146
1.0
147
0.09
 71
1.0
 72
0.0
 73
0
 74
0
 75
0
 76
0
 77
1
 78
8
170
0
171
2
172
0
173
0
174
0
175
0
176
0
177
0
178
5
270
2
271
3
272
3
273
2
274
2
275
0
280
0
281
0
282
0
283
1
284
8
285
0
286
0
287
3
288
0
340
11
  0
ENDTAB
  0
ENDSEC
  0
SECTION
  2
BLOCKS
  0
BLOCK
  5
20
100
AcDbEntity
  8
0
100
AcDbBlockBegin
  2
*Model_Space
 70
0
 10
0.0
 20
0.0
 30
0.0
  3
*Model_Space
  1

  0
ENDBLK
  5
21
100
AcDbEntity
  8
0
100
AcDbBlockEnd
  0
BLOCK
  5
1C
100
AcDbEntity
  8
0
100
AcDbBlockBegin
  2
*Paper_Space
 70
0
 10
0.0
 20
0.0
 30
0.0
  3
*Paper_Space
  1

  0
ENDBLK
  5
1D
100
AcDbEntity
  8
0
100
AcDbBlockEnd
  0
ENDSEC
  0
SECTION
  2
ENTITIES
  0
MTEXT
  5
20E
100
AcDbEntity
  8
0
100
AcDbMText
 62
5
  6
CONTINUOUS
  7
STANDARD
 71
1
 72
1
 10
703.7647486662
 20
544.3681989887
 30
0.0
 11
0.0
 21
1.0
 31
0.0
 44
0.9
  1
RUD
 40
11.0
 41
29.3333333333
  0
MTEXT
  5
20F
100
AcDbEntity
  8
0
100
AcDbMText
 62
5
  6
CONTINUOUS
  7
STANDARD
 71
1
 72
1
 10
876.1098028988
 20
490.9391350727
 30
0.0
 11
0.0
 21
1.0
 31
0.0
 44
0.9
  1
ISAK-RG 1-13/140
 40
11.0
 41
129.9047619048
  0
MTEXT
  5
210
100
AcDbEntity
  8
0
100
AcDbMText
 62
5
  6
CONTINUOUS
  7
STANDARD
 71
1
 72
1
 10
348.0285104643
 20
464.9527287511
 30
0.0
 11
0.0
 21
1.0
 31
0.0
 44
0.9
  1
RUD ISAK-RG 2-13/140
 40
11.0
 41
168.1428571429
  0
LINE
  5
211
100
AcDbEntity
  8
0
100
AcDbLine
 62
7
  6
CONTINUOUS
 10
0.0
 20
0.0
 11
0.0
 21
841.0
  0
LINE
  5
212
100
AcDbEntity
  8
0
100
AcDbLine
 62
7
  6
CONTINUOUS
 10
0.0
 20
0.0
 11
1189.0
 21
0.0
  0
LINE
  5
213
100
AcDbEntity
  8
0
100
AcDbLine
 62
7
  6
CONTINUOUS
 10
0.0
 20
841.0
 11
1189.0
 21
841.0
  0
LINE
  5
214
100
AcDbEntity
  8
0
100
AcDbLine
 62
7
  6
CONTINUOUS
 10
1189.0
 20
0.0
 11
1189.0
 21
841.0
  0
LINE
  5
215
100
AcDbEntity
  8
RUNDUNGEN
100
AcDbLine
 62
7
  6
CONTINUOUS
 10
657.949671218
 20
129.5668605073
 11
661.33041161
 21
128.6609938495
  0
LINE
  5
216
100
AcDbEntity
  8
RUNDUNGEN
100
AcDbLine
 62
7
  6
CONTINUOUS
 10
727.9792936239
 20
110.8024797374
 11
731.360034016
 21
109.8966130795
  0
LINE
  5
217
100
AcDbEntity
  8
RUNDUNGEN
100
AcDbLine
 62
7
  6
CONTINUOUS
 10
670.3541200093
 20
137.2238605847
 11
678.9077948216
 21
134.9319103264
  0
LINE
  5
218
100
AcDbEntity
  8
RUNDUNGEN
100
AcDbLine
 62
7
  6
CONTINUOUS
 10
715.8922914691
 20
125.0219443172
 11
724.4459662815
 21
122.7299940589
  0
LINE
  5
219
100
AcDbEntity
  8
0
100
AcDbLine
 62
7
  6
CONTINUOUS
 10
693.6353387799
 20
186.182307707
 11
699.662715936
 21
184.5672768655
  0
LINE
  5
21A
100
AcDbEntity
  8
0
100
AcDbLine
 62
7
  6
CONTINUOUS
 10
702.8594877294
 20
183.7107044451
 11
704.0649631606
 21
183.3876982768
  0
LINE
  5
21B
100
AcDbEntity
  8
0
100
AcDbLine
 62
7
  6
CONTINUOUS
 10
709.8072377386
 20
181.8490604409
 11
711.199200868
 21
181.4760850445
  0
LINE
  5
21C
100
AcDbEntity
  8
0
100
AcDbLine
 62
7
  6
CONTINUOUS
 10
721.6876770933
 20
178.6657063101
 11
726.054972771
 21
177.4954929601
  0
LINE
  5
21D
100
AcDbEntity
  8
0
100
AcDbLine
 62
7
  6
CONTINUOUS
 10
693.7542970361
 20
186.6262659632
 11
699.7816741922
 21
185.0112351217
  0
LINE
  5
21E
100
AcDbEntity
  8
0
100
AcDbLine
 62
7
  6
CONTINUOUS
 10
702.9784459856
 20
184.1546627013
 11
704.1839214168
 21
183.831656533
  0
LINE
  5
21F
100
AcDbEntity
  8
0
100
AcDbLine
 62
7
  6
CONTINUOUS
 10
709.9261959948
 20
182.2930186971
 11
710.955668726
 21
182.0171723102
  0
LINE
  5
220
100
AcDbEntity
  8
0
100
AcDbLine
 62
7
  6
CONTINUOUS
 10
721.8066353496
 20
179.1096645663
 11
726.1739310272
 21
177.9394512164
  0
LINE
  5
221
100
AcDbEntity
  8
0
100
AcDbLine
 62
7
  6
CONTINUOUS
 10
726.319304864
 20
178.3763314391
 11
723.131069037
 21
179.2306166542
  0
LINE
  5
222
100
AcDbEntity
  8
0
100
AcDbLine
 62
7
  6
CONTINUOUS
 10
697.8763048535
 20
186.1879435322
 11
695.9927494922
 21
186.6926406702
  0
LINE
  5
223
100
AcDbEntity
  8
0
100
AcDbLine
 62
7
  6
CONTINUOUS
 10
696.4388518879
 20
187.0013576159
 11
697.6443273191
 21
186.6783514477
  0
LINE
  5
224
100
AcDbEntity
  8
0
100
AcDbLine
 62
7
  6
CONTINUOUS
 10
696.5578101441
 20
187.4453158722
 11
697.7632855753
 21
187.1223097039
  0
LINE
  5
225
100
AcDbEntity
  8
0
100
AcDbLine
 62
7
  6
CONTINUOUS
 10
697.4589382937
 20
187.8700255471
 11
697.1952405432
 21
187.9406831464
  0
LINE
  5
226
100
AcDbEntity
  8
0
100
AcDbLine
 62
7
  6
CONTINUOUS
 10
698.0012020878
 20
188.0102262163
 11
697.6809976764
 21
188.0960247298
  0
LINE
  5
227
100
AcDbEntity
  8
0
100
AcDbLine
 62
7
  6
CONTINUOUS
 10
697.115931068
 20
188.2474338712
 11
696.7957266566
 21
188.3332323846
  0
LINE
  5
228
100
AcDbEntity
  8
0
100
AcDbLine
 62
7
  6
CONTINUOUS
 10
696.5637491222
 20
188.8236403001
 11
697.2229934986
 21
188.6469963018
  0
LINE
  5
229
100
AcDbEntity
  8
0
100
AcDbLine
 62
7
  6
CONTINUOUS
 10
697.788060107
 20
188.4955871604
 11
698.4473044834
 21
188.3189431621
  0
LINE
  5
22A
100
AcDbEntity
  8
0
100
AcDbLine
 62
7
  6
CONTINUOUS
 10
845.0506930935
 20
190.7002931944
 11
850.1524642062
 21
192.067308644
  0
LINE
  5
22B
100
AcDbEntity
  8
0
100
AcDbLine
 62
7
  6
CONTINUOUS
 10
899.8363232106
 20
205.3800585411
 11
904.9380943234
 21
206.7470739907
  0
LINE
  5
22C
100
AcDbEntity
  8
BEZUGSACHSEN
100
AcDbLine
 62
7
  6
CONTINUOUS
 10
878.9781819966
 20
212.4473877527
 11
864.6824797675
 21
208.6168658852
  0
LINE
  5
22D
100
AcDbEntity
  8
0
100
AcDbLine
 62
7
  6
CONTINUOUS
 10
704.9604015889
 20
186.7295199864
 11
707.974090167
 21
185.9220045657
  0
LINE
  5
22E
100
AcDbEntity
  8
0
100
AcDbLine
 62
7
  6
CONTINUOUS
 10
696.6827073784
 20
189.2675985563
 11
697.3419517548
 21
189.090954558
  0
LINE
  5
22F
100
AcDbEntity
  8
0
100
AcDbLine
 62
7
  6
CONTINUOUS
 10
697.9070183632
 20
188.9395454166
 11
698.5662627396
 21
188.7629014183
  0
LINE
  5
230
100
AcDbEntity
  8
0
100
AcDbLine
 62
7
  6
CONTINUOUS
 10
698.5900543909
 20
188.8516930696
 11
697.9308100145
 21
189.0283370679
  0
LINE
  5
231
100
AcDbEntity
  8
0
100
AcDbLine
 62
7
  6
CONTINUOUS
 10
697.3657434061
 20
189.1797462093
 11
696.7064990296
 21
189.3563902075
  0
LINE
  5
232
100
AcDbEntity
  8
0
100
AcDbLine
 62
7
  6
CONTINUOUS
 10
705.0793598452
 20
187.1734782427
 11
708.0930484232
 21
186.365962822
  0
LINE
  5
233
100
AcDbEntity
  8
0
100
AcDbLine
 62
7
  6
CONTINUOUS
 10
697.1526014253
 20
189.6651071533
 11
697.4728058367
 21
189.5793086399
  0
LINE
  5
234
100
AcDbEntity
  8
0
100
AcDbLine
 62
7
  6
CONTINUOUS
 10
698.0378724451
 20
189.4278994985
 11
698.3580768565
 21
189.342100985
  0
LINE
  5
235
100
AcDbEntity
  8
0
100
AcDbLine
 62
7
  6
CONTINUOUS
 10
708.7047714486
 20
186.6398185142
 11
705.1888014409
 21
187.5819198384
  0
LINE
  5
236
100
AcDbEntity
  8
0
100
AcDbLine
 62
7
  6
CONTINUOUS
 10
697.6948652193
 20
189.8053078226
 11
697.9585629699
 21
189.7346502233
  0
LINE
  5
237
100
AcDbEntity
  8
0
100
AcDbLine
 62
7
  6
CONTINUOUS
 10
697.2715596815
 20
190.1090654096
 11
697.5917640929
 21
190.0232668961
  0
LINE
  5
238
100
AcDbEntity
  8
0
100
AcDbLine
 62
7
  6
CONTINUOUS
 10
698.1568307013
 20
189.8718577547
 11
698.4770351127
 21
189.7860592413
  0
LINE
  5
239
100
AcDbEntity
  8
0
100
AcDbLine
 62
7
  6
CONTINUOUS
 10
697.8138234755
 20
190.2492660788
 11
698.0775212261
 21
190.1786084795
  0
LINE
  5
23A
100
AcDbEntity
  8
0
100
AcDbLine
 62
7
  6
CONTINUOUS
 10
724.3206515993
 20
183.6701992165
 11
723.1151761681
 21
183.9932053848
  0
LINE
  5
23B
100
AcDbEntity
  8
0
100
AcDbLine
 62
7
  6
CONTINUOUS
 10
705.504358061
 20
188.7595931772
 11
704.2988826298
 21
189.0825993455
  0
LINE
  5
23C
100
AcDbEntity
  8
0
100
AcDbLine
 62
7
  6
CONTINUOUS
 10
698.7149516252
 20
190.6739757537
 11
697.509476194
 21
190.996981922
  0
LINE
  5
23D
100
AcDbEntity
  8
0
100
AcDbLine
 62
7
  6
CONTINUOUS
 10
697.2774986595
 20
191.4873898374
 11
699.1610540208
 21
190.9826926995
  0
LINE
  5
23E
100
AcDbEntity
  8
0
100
AcDbLine
 62
7
  6
CONTINUOUS
 10
723.3150260386
 20
184.7390552553
 11
727.7087372967
 21
183.5617638719
  0
LINE
  5
23F
100
AcDbEntity
  8
0
100
AcDbLine
 62
7
  6
CONTINUOUS
 10
704.4987325002
 20
189.8284492159
 11
709.2201779391
 21
188.5633417235
  0
LINE
  5
240
100
AcDbEntity
  8
0
100
AcDbLine
 62
7
  6
CONTINUOUS
 10
697.3964569158
 20
191.9313480937
 11
699.280012277
 21
191.4266509557
  0
LINE
  5
241
100
AcDbEntity
  8
0
100
AcDbLine
 62
7
  6
CONTINUOUS
 10
723.4339842948
 20
185.1830135115
 11
727.827695553
 21
184.0057221281
  0
LINE
  5
242
100
AcDbEntity
  8
0
100
AcDbLine
 62
7
  6
CONTINUOUS
 10
704.6176907565
 20
190.2724074722
 11
709.3391361954
 21
189.0072999797
  0
LINE
  5
243
100
AcDbEntity
  8
0
100
AcDbLine
 62
7
  6
CONTINUOUS
 10
727.9107215682
 20
184.4212417573
 11
723.5434258905
 21
185.5914551073
  0
LINE
  5
244
100
AcDbEntity
  8
0
100
AcDbLine
 62
7
  6
CONTINUOUS
 10
720.9064483847
 20
186.2980311004
 11
719.7009729535
 21
186.6210372687
  0
LINE
  5
245
100
AcDbEntity
  8
0
100
AcDbLine
 62
7
  6
CONTINUOUS
 10
714.9617776918
 20
187.8909008118
 11
713.7563022606
 21
188.2139069801
  0
LINE
  5
246
100
AcDbEntity
  8
0
100
AcDbLine
 62
7
  6
CONTINUOUS
 10
709.4366819655
 20
189.3713457498
 11
704.7152365266
 21
190.6364532423
  0
LINE
  5
247
100
AcDbEntity
  8
0
100
AcDbLine
 62
7
  6
CONTINUOUS
 10
701.5184647331
 20
191.4930256627
 11
695.4910875771
 21
193.1080565041
  0
LINE
  5
248
100
AcDbEntity
  8
RUNDUNGEN
100
AcDbLine
 62
7
  6
CONTINUOUS
 10
745.7643815853
 20
190.7002931944
 11
740.7188970472
 21
192.0522267018
  0
LINE
  5
249
100
AcDbEntity
  8
0
100
AcDbLine
 62
7
  6
CONTINUOUS
 10
740.7188970472
 20
192.0522267018
 11
740.6626104726
 21
192.067308644
  0
LINE
  5
24A
100
AcDbEntity
  8
0
100
AcDbLine
 62
7
  6
CONTINUOUS
 10
690.9787514682
 20
205.3800585411
 11
690.9224648936
 21
205.3951404833
  0
LINE
  5
24B
100
AcDbEntity
  8
RUNDUNGEN
100
AcDbLine
 62
7
  6
CONTINUOUS
 10
690.9224648936
 20
205.3951404833
 11
685.8769803554
 21
206.7470739907
  0
LINE
  5
24C
100
AcDbEntity
  8
BEZUGSACHSEN
100
AcDbLine
 62
7
  6
CONTINUOUS
 10
877.7188629409
 20
217.1472304514
 11
863.4231607118
 21
213.3167085839
  0
LINE
  5
24D
100
AcDbEntity
  8
BEZUGSACHSEN
100
AcDbLine
 62
7
  6
CONTINUOUS
 10
875.4881715746
 20
225.4722839664
 11
861.1924693455
 21
221.6417620989
  0
LINE
  5
24E
100
AcDbEntity
  8
BEZUGSACHSEN
100
AcDbLine
 62
7
  6
CONTINUOUS
 10
874.2288525189
 20
230.1721266651
 11
859.9331502899
 21
226.3416047976
  0
LINE
  5
24F
100
AcDbEntity
  8
0
100
AcDbLine
 62
7
  6
CONTINUOUS
 10
895.6206086997
 20
241.5204037371
 11
872.8247591993
 21
235.4122742727
  0
LINE
  5
250
100
AcDbEntity
  8
0
100
AcDbLine
 62
7
  6
CONTINUOUS
 10
858.5290569702
 20
231.5817524052
 11
835.7332074698
 21
225.4736229408
  0
LINE
  5
251
100
AcDbEntity
  8
BEZUGSACHSEN
100
AcDbLine
 62
7
  6
CONTINUOUS
 10
711.8368926822
 20
212.4473877527
 11
726.1325949113
 21
208.6168658852
  0
LINE
  5
252
100
AcDbEntity
  8
BEZUGSACHSEN
100
AcDbLine
 62
7
  6
CONTINUOUS
 10
713.0962117379
 20
217.1472304514
 11
727.3919139669
 21
213.3167085839
  0
LINE
  5
253
100
AcDbEntity
  8
BEZUGSACHSEN
100
AcDbLine
 62
7
  6
CONTINUOUS
 10
715.3269031042
 20
225.4722839664
 11
729.6226053333
 21
221.6417620989
  0
LINE
  5
254
100
AcDbEntity
  8
RUNDUNGEN
100
AcDbLine
 62
7
  6
CONTINUOUS
 10
742.1793786707
 20
187.5749136783
 11
728.042250828
 21
200.0126197918
  0
LINE
  5
255
100
AcDbEntity
  8
RUNDUNGEN
100
AcDbLine
 62
7
  6
CONTINUOUS
 10
662.8699516234
 20
213.0580906097
 11
665.3148598626
 21
208.7750308824
  0
LINE
  5
256
100
AcDbEntity
  8
RUNDUNGEN
100
AcDbLine
 62
7
  6
CONTINUOUS
 10
671.9019680113
 20
197.2355476502
 11
684.6787783213
 21
174.8527682869
  0
LINE
  5
257
100
AcDbEntity
  8
RUNDUNGEN
100
AcDbLine
 62
7
  6
CONTINUOUS
 10
706.136568787
 20
137.2624012106
 11
711.2564967556
 21
128.2931659089
  0
LINE
  5
258
100
AcDbEntity
  8
0
100
AcDbLine
 62
7
  6
CONTINUOUS
 10
833.7002320012
 20
233.0607906799
 11
858.0873225615
 21
239.5952919013
  0
LINE
  5
259
100
AcDbEntity
  8
0
100
AcDbLine
 62
7
  6
CONTINUOUS
 10
869.2005426708
 20
242.5730702549
 11
893.5876332312
 21
249.1075714763
  0
LINE
  5
25A
100
AcDbEntity
  8
RUNDUNGEN
100
AcDbLine
 62
7
  6
CONTINUOUS
 10
672.8615529186
 20
198.9665462667
 11
677.6114759281
 21
199.9192098274
  0
LINE
  5
25B
100
AcDbEntity
  8
RUNDUNGEN
100
AcDbLine
 62
7
  6
CONTINUOUS
 10
705.8809590991
 20
205.9507200138
 11
699.607475879
 21
204.6924851223
  0
LINE
  5
25C
100
AcDbEntity
  8
RUNDUNGEN
100
AcDbLine
 62
7
  6
CONTINUOUS
 10
673.7766164281
 20
202.3816097762
 11
678.5265394376
 21
203.3342733368
  0
LINE
  5
25D
100
AcDbEntity
  8
RUNDUNGEN
100
AcDbLine
 62
7
  6
CONTINUOUS
 10
672.6004243304
 20
208.697712409
 11
667.8505013208
 21
207.7450488483
  0
LINE
  5
25E
100
AcDbEntity
  8
0
100
AcDbLine
 62
7
  6
CONTINUOUS
 10
754.7484487023
 20
236.1570733104
 11
755.3051720188
 21
236.1444680902
  0
LINE
  5
25F
100
AcDbEntity
  8
0
100
AcDbLine
 62
7
  6
CONTINUOUS
 10
747.1487166207
 20
239.1493937964
 11
746.5919933072
 21
239.1619990277
  0
LINE
  5
260
100
AcDbEntity
  8
0
100
AcDbLine
 62
7
  6
CONTINUOUS
 10
755.4758824533
 20
236.7815681054
 11
754.7885127108
 21
236.8291799419
  0
LINE
  5
261
100
AcDbEntity
  8
0
100
AcDbLine
 62
7
  6
CONTINUOUS
 10
746.3871407869
 20
238.3974790139
 11
747.0745097848
 21
238.3498673889
  0
LINE
  5
262
100
AcDbEntity
  8
0
100
AcDbLine
 62
7
  6
CONTINUOUS
 10
754.711174032
 20
241.7663633611
 11
755.3985437745
 21
241.7187515247
  0
LINE
  5
263
100
AcDbEntity
  8
0
100
AcDbLine
 62
7
  6
CONTINUOUS
 10
755.6998991221
 20
242.3208452573
 11
754.7512395118
 21
242.4384695028
  0
LINE
  5
264
100
AcDbEntity
  8
BEZUGSACHSEN
100
AcDbLine
 62
7
  6
CONTINUOUS
 10
716.5862221598
 20
230.1721266651
 11
730.8819243889
 21
226.3416047976
  0
LINE
  5
265
100
AcDbEntity
  8
RUNDUNGEN
100
AcDbLine
 62
7
  6
CONTINUOUS
 10
695.1944659791
 20
241.5204037371
 11
717.9903154795
 21
235.4122742727
  0
LINE
  5
266
100
AcDbEntity
  8
RUNDUNGEN
100
AcDbLine
 62
7
  6
CONTINUOUS
 10
732.2860177086
 20
231.5817524052
 11
755.081867209
 21
225.4736229408
  0
LINE
  5
267
100
AcDbEntity
  8
RUNDUNGEN
100
AcDbLine
 62
7
  6
CONTINUOUS
 10
757.1148426776
 20
233.0607906799
 11
732.7277521172
 21
239.5952919013
  0
LINE
  5
268
100
AcDbEntity
  8
RUNDUNGEN
100
AcDbLine
 62
7
  6
CONTINUOUS
 10
721.6145320079
 20
242.5730702549
 11
697.2274414476
 21
249.1075714763
  0
LINE
  5
269
100
AcDbEntity
  8
0
100
AcDbLine
 62
7
  6
CONTINUOUS
 10
701.1498763116
 20
250.5187674979
 11
701.8984688269
 21
250.3181827379
  0
LINE
  5
26A
100
AcDbEntity
  8
0
100
AcDbLine
 62
7
  6
CONTINUOUS
 10
705.0176041887
 20
249.4824129367
 11
705.8909623612
 21
249.2483973196
  0
LINE
  5
26B
100
AcDbEntity
  8
0
100
AcDbLine
 62
7
  6
CONTINUOUS
 10
708.8853320658
 20
248.4460583755
 11
709.3843939807
 21
248.3123351384
  0
LINE
  5
26C
100
AcDbEntity
  8
0
100
AcDbLine
 62
7
  6
CONTINUOUS
 10
712.3787640422
 20
247.5099960986
 11
715.3731341037
 21
246.7076570588
  0
LINE
  5
26D
100
AcDbEntity
  8
0
100
AcDbLine
 62
7
  6
CONTINUOUS
 10
735.2822787935
 20
241.3730178171
 11
736.0661513873
 21
241.1629797887
  0
LINE
  5
26E
100
AcDbEntity
  8
0
100
AcDbLine
 62
7
  6
CONTINUOUS
 10
737.1113147832
 20
240.8829291008
 11
737.8951873769
 21
240.6728910723
  0
LINE
  5
26F
100
AcDbEntity
  8
0
100
AcDbLine
 62
7
  6
CONTINUOUS
 10
741.1613232463
 20
239.7977326037
 11
742.0758415215
 21
239.5526881704
  0
LINE
  5
270
100
AcDbEntity
  8
0
100
AcDbLine
 62
7
  6
CONTINUOUS
 10
745.2113318963
 20
238.7125360566
 11
746.3871407869
 21
238.3974790139
  0
LINE
  5
271
100
AcDbEntity
  8
0
100
AcDbLine
 62
7
  6
CONTINUOUS
 10
750.04521314
 20
237.4173014811
 11
750.8290857337
 21
237.2072634526
  0
LINE
  5
272
100
AcDbEntity
  8
0
100
AcDbLine
 62
7
  6
CONTINUOUS
 10
753.7032847456
 20
236.4371241485
 11
754.7484487023
 21
236.1570733104
  0
LINE
  5
273
100
AcDbEntity
  8
0
100
AcDbLine
 62
7
  6
CONTINUOUS
 10
754.7885127108
 20
236.8291799419
 11
754.0046401171
 21
237.0392179703
  0
LINE
  5
274
100
AcDbEntity
  8
0
100
AcDbLine
 62
7
  6
CONTINUOUS
 10
746.5919933072
 20
239.1619990277
 11
745.4161844166
 21
239.4770560704
  0
LINE
  5
275
100
AcDbEntity
  8
0
100
AcDbLine
 62
7
  6
CONTINUOUS
 10
715.577986624
 20
247.4721770726
 11
713.3322090778
 21
248.0739313524
  0
LINE
  5
276
100
AcDbEntity
  8
0
100
AcDbLine
 62
7
  6
CONTINUOUS
 10
709.589246501
 20
249.0768551522
 11
709.0901845861
 21
249.2105783893
  0
LINE
  5
277
100
AcDbEntity
  8
0
100
AcDbLine
 62
7
  6
CONTINUOUS
 10
752.9030388129
 20
238.1538012313
 11
752.2498111531
 21
238.3288330553
  0
LINE
  5
278
100
AcDbEntity
  8
0
100
AcDbLine
 62
7
  6
CONTINUOUS
 10
746.9393368557
 20
240.9808855243
 11
748.1151457462
 21
240.6658284816
  0
LINE
  5
279
100
AcDbEntity
  8
0
100
AcDbLine
 62
7
  6
CONTINUOUS
 10
702.6154526599
 20
252.9940028309
 11
704.7364647273
 21
252.4256793603
  0
LINE
  5
27A
100
AcDbEntity
  8
0
100
AcDbLine
 62
7
  6
CONTINUOUS
 10
738.6121712099
 20
243.3487111652
 11
740.8331434965
 21
242.7536034346
  0
LINE
  5
27B
100
AcDbEntity
  8
0
100
AcDbLine
 62
7
  6
CONTINUOUS
 10
754.7157020243
 20
239.1703514192
 11
755.238283255
 21
239.0303262004
  0
LINE
  5
27C
100
AcDbEntity
  8
0
100
AcDbLine
 62
7
  6
CONTINUOUS
 10
755.374851586
 20
239.5400061501
 11
754.8522703552
 21
239.6800313689
  0
LINE
  5
27D
100
AcDbEntity
  8
0
100
AcDbLine
 62
7
  6
CONTINUOUS
 10
749.1038708363
 20
241.2203103777
 11
747.1441893521
 21
241.7454054489
  0
LINE
  5
27E
100
AcDbEntity
  8
0
100
AcDbLine
 62
7
  6
CONTINUOUS
 10
741.299286982
 20
243.4481106497
 11
738.8170237063
 21
244.1132310898
  0
LINE
  5
27F
100
AcDbEntity
  8
0
100
AcDbLine
 62
7
  6
CONTINUOUS
 10
705.1908480027
 20
253.1233377141
 11
702.8203051563
 21
253.7585227554
  0
LINE
  5
280
100
AcDbEntity
  8
0
100
AcDbLine
 62
7
  6
CONTINUOUS
 10
748.6272769872
 20
242.577128293
 11
749.4111495809
 21
242.3670902646
  0
LINE
  5
281
100
AcDbEntity
  8
0
100
AcDbLine
 62
7
  6
CONTINUOUS
 10
753.2340097939
 20
241.4793266712
 11
753.8872359586
 21
241.3042952479
  0
LINE
  5
282
100
AcDbEntity
  8
0
100
AcDbLine
 62
7
  6
CONTINUOUS
 10
708.2956472933
 20
248.7406322769
 11
708.8853320658
 21
248.4460583755
  0
LINE
  5
283
100
AcDbEntity
  8
0
100
AcDbLine
 62
7
  6
CONTINUOUS
 10
706.3386095851
 20
255.4105945951
 11
705.7489244527
 21
255.7051685811
  0
LINE
  5
284
100
AcDbEntity
  8
0
100
AcDbLine
 62
7
  6
CONTINUOUS
 10
709.0901845861
 20
249.2105783893
 11
708.6252654678
 21
249.4717214225
  0
LINE
  5
285
100
AcDbEntity
  8
0
100
AcDbLine
 62
7
  6
CONTINUOUS
 10
705.7029793393
 20
255.0346378825
 11
706.0431335142
 21
254.8069255151
  0
LINE
  5
286
100
AcDbEntity
  8
RUNDUNGEN
100
AcDbLine
 62
7
  6
CONTINUOUS
 10
742.398633744
 20
191.6021426104
 11
743.0944421802
 21
190.9899771878
  0
LINE
  5
287
100
AcDbEntity
  8
RUNDUNGEN
100
AcDbLine
 62
7
  6
CONTINUOUS
 10
771.6957096913
 20
188.3360562999
 11
765.9310556195
 21
193.4077422879
  0
LINE
  5
288
100
AcDbEntity
  8
RUNDUNGEN
100
AcDbLine
 62
7
  6
CONTINUOUS
 10
679.210784107
 20
202.8042075216
 11
676.8264934274
 21
206.9810756854
  0
LINE
  5
289
100
AcDbEntity
  8
RUNDUNGEN
100
AcDbLine
 62
7
  6
CONTINUOUS
 10
740.0513372858
 20
123.343235701
 11
726.6560311994
 21
146.8095135404
  0
LINE
  5
28A
100
AcDbEntity
  8
RUNDUNGEN
100
AcDbLine
 62
7
  6
CONTINUOUS
 10
740.9664007953
 20
126.7582992105
 11
727.5710947089
 21
150.2245770498
  0
LINE
  5
28B
100
AcDbEntity
  8
0
100
AcDbLine
 62
7
  6
CONTINUOUS
 10
835.105350375
 20
250.472409585
 11
839.2469482242
 21
251.5821473841
  0
LINE
  5
28C
100
AcDbEntity
  8
0
100
AcDbLine
 62
7
  6
CONTINUOUS
 10
879.5233577224
 20
262.3741787832
 11
883.664956177
 21
263.4839167445
  0
LINE
  5
28D
100
AcDbEntity
  8
0
100
AcDbLine
 62
7
  6
CONTINUOUS
 10
872.3341089918
 20
260.6450713659
 11
846.3375739676
 21
253.6793208002
  0
LINE
  5
28E
100
AcDbEntity
  8
RUNDUNGEN
100
AcDbLine
 62
7
  6
CONTINUOUS
 10
667.6149443461
 20
218.7437358823
 11
665.8225205689
 21
218.3842401991
  0
LINE
  5
28F
100
AcDbEntity
  8
RUNDUNGEN
100
AcDbLine
 62
7
  6
CONTINUOUS
 10
668.5300078556
 20
222.1587993918
 11
666.7375840784
 21
221.7993037085
  0
LINE
  5
290
100
AcDbEntity
  8
0
100
AcDbLine
 62
7
  6
CONTINUOUS
 10
755.3051720188
 20
236.1444680902
 11
755.8960374239
 21
236.2592828797
  0
LINE
  5
291
100
AcDbEntity
  8
0
100
AcDbLine
 62
7
  6
CONTINUOUS
 10
755.771315899
 20
236.8389752831
 11
755.4758824533
 21
236.7815681054
  0
LINE
  5
292
100
AcDbEntity
  8
0
100
AcDbLine
 62
7
  6
CONTINUOUS
 10
747.0745097848
 20
238.3498673889
 11
747.6653759376
 21
238.4646819782
  0
LINE
  5
293
100
AcDbEntity
  8
0
100
AcDbLine
 62
7
  6
CONTINUOUS
 10
754.7512395118
 20
242.4384695028
 11
754.1603726204
 21
242.3236551473
  0
LINE
  5
294
100
AcDbEntity
  8
0
100
AcDbLine
 62
7
  6
CONTINUOUS
 10
741.6853002556
 20
242.798405381
 11
742.2761663994
 21
242.9132199368
  0
LINE
  5
295
100
AcDbEntity
  8
0
100
AcDbLine
 62
7
  6
CONTINUOUS
 10
746.1286402334
 20
244.7488880161
 11
745.5377748372
 21
244.63407326
  0
LINE
  5
296
100
AcDbEntity
  8
0
100
AcDbLine
 62
7
  6
CONTINUOUS
 10
705.5992863431
 20
253.1504653216
 11
705.1908480027
 21
253.1233377141
  0
LINE
  5
297
100
AcDbEntity
  8
0
100
AcDbLine
 62
7
  6
CONTINUOUS
 10
756.2270083451
 20
239.5848080965
 11
755.374851586
 21
239.5400061501
  0
LINE
  5
298
100
AcDbEntity
  8
0
100
AcDbLine
 62
7
  6
CONTINUOUS
 10
741.7253653616
 20
243.4705116229
 11
741.299286982
 21
243.4481106497
  0
LINE
  5
299
100
AcDbEntity
  8
0
100
AcDbLine
 62
7
  6
CONTINUOUS
 10
716.1111899077
 20
247.4658740142
 11
715.577986624
 21
247.4721770726
  0
LINE
  5
29A
100
AcDbEntity
  8
0
100
AcDbLine
 62
7
  6
CONTINUOUS
 10
710.1224504986
 20
249.0705519026
 11
709.589246501
 21
249.0768551522
  0
LINE
  5
29B
100
AcDbEntity
  8
0
100
AcDbLine
 62
7
  6
CONTINUOUS
 10
746.0544334185
 20
243.9493616867
 11
746.6111574796
 21
243.9367562551
  0
LINE
  5
29C
100
AcDbEntity
  8
0
100
AcDbLine
 62
7
  6
CONTINUOUS
 10
715.3731341037
 20
246.7076570588
 11
716.0311037615
 21
246.6679229632
  0
LINE
  5
29D
100
AcDbEntity
  8
0
100
AcDbLine
 62
7
  6
CONTINUOUS
 10
709.3843939807
 20
248.3123351384
 11
710.0423629246
 21
248.2726012341
  0
LINE
  5
29E
100
AcDbEntity
  8
0
100
AcDbLine
 62
7
  6
CONTINUOUS
 10
746.816009976
 20
244.7012761796
 11
746.1286402334
 21
244.7488880161
  0
LINE
  5
29F
100
AcDbEntity
  8
0
100
AcDbLine
 62
7
  6
CONTINUOUS
 10
714.5271821408
 20
252.5336315371
 11
716.7729596869
 21
251.9318772572
  0
LINE
  5
2A0
100
AcDbEntity
  8
0
100
AcDbLine
 62
7
  6
CONTINUOUS
 10
746.6111574796
 20
243.9367562551
 11
747.7869663701
 21
243.6216992124
  0
LINE
  5
2A1
100
AcDbEntity
  8
0
100
AcDbLine
 62
7
  6
CONTINUOUS
 10
703.3324364929
 20
255.6698229238
 11
705.7029793393
 21
255.0346378825
  0
LINE
  5
2A2
100
AcDbEntity
  8
0
100
AcDbLine
 62
7
  6
CONTINUOUS
 10
739.3291550429
 20
246.0245312582
 11
741.8114183186
 21
245.359410818
  0
LINE
  5
2A3
100
AcDbEntity
  8
0
100
AcDbLine
 62
7
  6
CONTINUOUS
 10
755.3985437745
 20
241.7187515247
 11
755.9211250053
 21
241.5787263059
  0
LINE
  5
2A4
100
AcDbEntity
  8
0
100
AcDbLine
 62
7
  6
CONTINUOUS
 10
755.9611904851
 20
242.2508324476
 11
755.6998991221
 21
242.3208452573
  0
LINE
  5
2A5
100
AcDbEntity
  8
0
100
AcDbLine
 62
7
  6
CONTINUOUS
 10
752.4337638134
 20
243.1960035756
 11
751.6498912197
 21
243.4060416041
  0
LINE
  5
2A6
100
AcDbEntity
  8
0
100
AcDbLine
 62
7
  6
CONTINUOUS
 10
747.9918188665
 20
244.3862191369
 11
746.816009976
 21
244.7012761796
  0
LINE
  5
2A7
100
AcDbEntity
  8
0
100
AcDbLine
 62
7
  6
CONTINUOUS
 10
741.8514834246
 20
246.0315170599
 11
738.7159928629
 21
246.8716692237
  0
LINE
  5
2A8
100
AcDbEntity
  8
0
100
AcDbLine
 62
7
  6
CONTINUOUS
 10
737.6708294669
 20
247.1517199117
 11
736.8869568732
 21
247.3617579401
  0
LINE
  5
2A9
100
AcDbEntity
  8
0
100
AcDbLine
 62
7
  6
CONTINUOUS
 10
716.9778121833
 20
252.6963971818
 11
713.9834421218
 21
253.4987362216
  0
LINE
  5
2AA
100
AcDbEntity
  8
0
100
AcDbLine
 62
7
  6
CONTINUOUS
 10
712.9853190059
 20
253.7661825044
 11
712.2367264906
 21
253.9667672644
  0
LINE
  5
2AB
100
AcDbEntity
  8
0
100
AcDbLine
 62
7
  6
CONTINUOUS
 10
709.2423564291
 20
254.7691063042
 11
708.4937635567
 21
254.9696911598
  0
LINE
  5
2AC
100
AcDbEntity
  8
0
100
AcDbLine
 62
7
  6
CONTINUOUS
 10
705.7489244527
 20
255.7051685811
 11
702.7545543912
 21
256.5075076209
  0
LINE
  5
2AD
100
AcDbEntity
  8
RUNDUNGEN
100
AcDbLine
 62
7
  6
CONTINUOUS
 10
755.7097243038
 20
250.472409585
 11
751.5681264546
 21
251.5821473841
  0
LINE
  5
2AE
100
AcDbEntity
  8
RUNDUNGEN
100
AcDbLine
 62
7
  6
CONTINUOUS
 10
711.2917169564
 20
262.3741787832
 11
707.1501185017
 21
263.4839167445
  0
LINE
  5
2AF
100
AcDbEntity
  8
RUNDUNGEN
100
AcDbLine
 62
7
  6
CONTINUOUS
 10
718.4809656869
 20
260.6450713659
 11
744.4775007112
 21
253.6793208002
  0
LINE
  5
2B0
100
AcDbEntity
  8
0
100
AcDbLine
 62
7
  6
CONTINUOUS
 10
756.8415659299
 20
241.8783682272
 11
755.9611904851
 21
242.2508324476
  0
LINE
  5
2B1
100
AcDbEntity
  8
0
100
AcDbLine
 62
7
  6
CONTINUOUS
 10
755.238283255
 20
239.0303262004
 11
755.988013766
 21
238.6928681845
  0
LINE
  5
2B2
100
AcDbEntity
  8
0
100
AcDbLine
 62
7
  6
CONTINUOUS
 10
744.5922463223
 20
239.0149878791
 11
745.2113318963
 21
238.7125360566
  0
LINE
  5
2B3
100
AcDbEntity
  8
0
100
AcDbLine
 62
7
  6
CONTINUOUS
 10
754.0046401171
 20
237.0392179703
 11
753.3855560352
 21
237.3416693811
  0
LINE
  5
2B4
100
AcDbEntity
  8
0
100
AcDbLine
 62
7
  6
CONTINUOUS
 10
742.4705682541
 20
245.7290654488
 11
741.8514834246
 21
246.0315170599
  0
LINE
  5
2B5
100
AcDbEntity
  8
0
100
AcDbLine
 62
7
  6
CONTINUOUS
 10
748.610903696
 20
244.0837675259
 11
747.9918188665
 21
244.3862191369
  0
LINE
  5
2B6
100
AcDbEntity
  8
0
100
AcDbLine
 62
7
  6
CONTINUOUS
 10
755.9211250053
 20
241.5787263059
 11
756.5402105824
 21
241.2762744946
  0
LINE
  5
2B7
100
AcDbEntity
  8
0
100
AcDbLine
 62
7
  6
CONTINUOUS
 10
717.5674976727
 20
252.4018231002
 11
716.9778121833
 21
252.6963971818
  0
LINE
  5
2B8
100
AcDbEntity
  8
0
100
AcDbLine
 62
7
  6
CONTINUOUS
 10
745.4161844166
 20
239.4770560704
 11
744.927744521
 21
239.7445014769
  0
LINE
  5
2B9
100
AcDbEntity
  8
0
100
AcDbLine
 62
7
  6
CONTINUOUS
 10
753.2148456006
 20
236.7045693658
 11
753.7032847456
 21
236.4371241485
  0
LINE
  5
2BA
100
AcDbEntity
  8
0
100
AcDbLine
 62
7
  6
CONTINUOUS
 10
747.7869663701
 20
243.6216992124
 11
748.2754055182
 21
243.3542540062
  0
LINE
  5
2BB
100
AcDbEntity
  8
0
100
AcDbLine
 62
7
  6
CONTINUOUS
 10
716.7729596869
 20
251.9318772572
 11
717.2378788052
 21
251.670734224
  0
LINE
  5
2BC
100
AcDbEntity
  8
0
100
AcDbLine
 62
7
  6
CONTINUOUS
 10
741.8114183186
 20
245.359410818
 11
742.1692125327
 21
245.1269718164
  0
LINE
  5
2BD
100
AcDbEntity
  8
0
100
AcDbLine
 62
7
  6
CONTINUOUS
 10
756.9366733764
 20
238.575243939
 11
756.3517313772
 21
239.0051153371
  0
LINE
  5
2BE
100
AcDbEntity
  8
0
100
AcDbLine
 62
7
  6
CONTINUOUS
 10
744.1379492659
 20
239.4098531062
 11
744.5922463223
 21
239.0149878791
  0
LINE
  5
2BF
100
AcDbEntity
  8
0
100
AcDbLine
 62
7
  6
CONTINUOUS
 10
752.7605470491
 20
237.0994349935
 11
753.2148456006
 21
236.7045693658
  0
LINE
  5
2C0
100
AcDbEntity
  8
0
100
AcDbLine
 62
7
  6
CONTINUOUS
 10
753.3855560352
 20
237.3416693811
 11
753.1584067549
 21
237.5391021782
  0
LINE
  5
2C1
100
AcDbEntity
  8
RUNDUNGEN
100
AcDbLine
 62
7
  6
CONTINUOUS
 10
772.6107732007
 20
191.7511198093
 11
766.846119129
 21
196.8228057974
  0
LINE
  5
2C2
100
AcDbEntity
  8
0
100
AcDbLine
 62
7
  6
CONTINUOUS
 10
707.8648695529
 20
249.1291955223
 11
708.2956472933
 21
248.7406322769
  0
LINE
  5
2C3
100
AcDbEntity
  8
0
100
AcDbLine
 62
7
  6
CONTINUOUS
 10
717.9982747082
 20
252.0132600795
 11
717.5674976727
 21
252.4018231002
  0
LINE
  5
2C4
100
AcDbEntity
  8
0
100
AcDbLine
 62
7
  6
CONTINUOUS
 10
708.6252654678
 20
249.4717214225
 11
708.3192533995
 21
249.8268538665
  0
LINE
  5
2C5
100
AcDbEntity
  8
0
100
AcDbLine
 62
7
  6
CONTINUOUS
 10
717.2378788052
 20
251.670734224
 11
717.5438908974
 21
251.3156018692
  0
LINE
  5
2C6
100
AcDbEntity
  8
0
100
AcDbLine
 62
7
  6
CONTINUOUS
 10
706.7352448948
 20
254.8946114914
 11
706.3386095851
 21
255.4105945951
  0
LINE
  5
2C7
100
AcDbEntity
  8
0
100
AcDbLine
 62
7
  6
CONTINUOUS
 10
707.974090167
 20
185.9220045657
 11
709.8072377386
 21
181.8490604409
  0
LINE
  5
2C8
100
AcDbEntity
  8
0
100
AcDbLine
 62
7
  6
CONTINUOUS
 10
708.0930484232
 20
186.365962822
 11
709.9261959948
 21
182.2930186971
  0
LINE
  5
2C9
100
AcDbEntity
  8
0
100
AcDbLine
 62
7
  6
CONTINUOUS
 10
711.199200868
 20
181.4760850445
 11
709.293194893
 21
185.7109082294
  0
LINE
  5
2CA
100
AcDbEntity
  8
0
100
AcDbLine
 62
7
  6
CONTINUOUS
 10
716.0311037615
 20
246.6679229632
 11
716.5984491369
 21
246.7890399257
  0
LINE
  5
2CB
100
AcDbEntity
  8
0
100
AcDbLine
 62
7
  6
CONTINUOUS
 10
710.0423629246
 20
248.2726012341
 11
710.6097090139
 21
248.3937180054
  0
LINE
  5
2CC
100
AcDbEntity
  8
0
100
AcDbLine
 62
7
  6
CONTINUOUS
 10
705.5533415866
 20
252.4799345274
 11
706.12068731
 21
252.6010513608
  0
LINE
  5
2CD
100
AcDbEntity
  8
0
100
AcDbLine
 62
7
  6
CONTINUOUS
 10
749.0652015089
 20
243.688902132
 11
748.610903696
 21
244.0837675259
  0
LINE
  5
2CE
100
AcDbEntity
  8
0
100
AcDbLine
 62
7
  6
CONTINUOUS
 10
757.2958629952
 20
241.4835030335
 11
756.8415659299
 21
241.8783682272
  0
LINE
  5
2CF
100
AcDbEntity
  8
0
100
AcDbLine
 62
7
  6
CONTINUOUS
 10
744.927744521
 20
239.7445014769
 11
744.6040924136
 21
240.1043605552
  0
LINE
  5
2D0
100
AcDbEntity
  8
0
100
AcDbLine
 62
7
  6
CONTINUOUS
 10
752.4368949297
 20
237.4592940272
 11
752.7605470491
 21
237.0994349935
  0
LINE
  5
2D1
100
AcDbEntity
  8
0
100
AcDbLine
 62
7
  6
CONTINUOUS
 10
748.2754055182
 20
243.3542540062
 11
748.5990576496
 21
242.9943950171
  0
LINE
  5
2D2
100
AcDbEntity
  8
0
100
AcDbLine
 62
7
  6
CONTINUOUS
 10
755.988013766
 20
238.6928681845
 11
756.3116658974
 21
238.3330091954
  0
LINE
  5
2D3
100
AcDbEntity
  8
0
100
AcDbLine
 62
7
  6
CONTINUOUS
 10
756.5402105824
 20
241.2762744946
 11
756.8638627138
 21
240.9164155055
  0
LINE
  5
2D4
100
AcDbEntity
  8
0
100
AcDbLine
 62
7
  6
CONTINUOUS
 10
742.8907239842
 20
245.2067800675
 11
742.4705682541
 21
245.7290654488
  0
LINE
  5
2D5
100
AcDbEntity
  8
0
100
AcDbLine
 62
7
  6
CONTINUOUS
 10
707.5023766948
 20
249.7725985624
 11
707.8648695529
 21
249.1291955223
  0
LINE
  5
2D6
100
AcDbEntity
  8
0
100
AcDbLine
 62
7
  6
CONTINUOUS
 10
706.0431335142
 20
254.8069255151
 11
706.2243803062
 21
254.4852239217
  0
LINE
  5
2D7
100
AcDbEntity
  8
0
100
AcDbLine
 62
7
  6
CONTINUOUS
 10
718.3607675782
 20
251.3698570841
 11
717.9982747082
 21
252.0132600795
  0
LINE
  5
2D8
100
AcDbEntity
  8
RUNDUNGEN
100
AcDbLine
 62
7
  6
CONTINUOUS
 10
685.8769803501
 20
206.7470740085
 11
682.6049110874
 21
217.7177650677
  0
LINE
  5
2D9
100
AcDbEntity
  8
0
100
AcDbLine
 62
7
  6
CONTINUOUS
 10
836.731652446
 20
198.5651557301
 11
845.0506930935
 21
190.7002931944
  0
LINE
  5
2DA
100
AcDbEntity
  8
0
100
AcDbLine
 62
7
  6
CONTINUOUS
 10
743.7519356305
 20
240.0595585196
 11
744.1379492659
 21
239.4098531062
  0
LINE
  5
2DB
100
AcDbEntity
  8
0
100
AcDbLine
 62
7
  6
CONTINUOUS
 10
742.1692125327
 20
245.1269718164
 11
742.3622193564
 21
244.802119132
  0
LINE
  5
2DC
100
AcDbEntity
  8
0
100
AcDbLine
 62
7
  6
CONTINUOUS
 10
749.4512151563
 20
243.0391967632
 11
749.0652015089
 21
243.688902132
  0
LINE
  5
2DD
100
AcDbEntity
  8
0
100
AcDbLine
 62
7
  6
CONTINUOUS
 10
753.1584067549
 20
237.5391021782
 11
752.9653995814
 21
237.863955052
  0
LINE
  5
2DE
100
AcDbEntity
  8
0
100
AcDbLine
 62
7
  6
CONTINUOUS
 10
757.6818773902
 20
240.8337974644
 11
757.2958629952
 21
241.4835030335
  0
LINE
  5
2DF
100
AcDbEntity
  8
0
100
AcDbLine
 62
7
  6
CONTINUOUS
 10
706.9729728216
 20
254.2846391618
 11
706.7352448948
 21
254.8946114914
  0
LINE
  5
2E0
100
AcDbEntity
  8
0
100
AcDbLine
 62
7
  6
CONTINUOUS
 10
708.3192533995
 20
249.8268538665
 11
708.1721483333
 21
250.275975543
  0
LINE
  5
2E1
100
AcDbEntity
  8
0
100
AcDbLine
 62
7
  6
CONTINUOUS
 10
717.5438908974
 20
251.3156018692
 11
717.6909958679
 21
250.8664798357
  0
LINE
  5
2E2
100
AcDbEntity
  8
0
100
AcDbLine
 62
7
  6
CONTINUOUS
 10
705.8909623612
 20
249.2483973196
 11
705.5533415866
 21
252.4799345274
  0
LINE
  5
2E3
100
AcDbEntity
  8
0
100
AcDbLine
 62
7
  6
CONTINUOUS
 10
704.7364647273
 20
252.4256793603
 11
705.0176041887
 21
249.4824129367
  0
LINE
  5
2E4
100
AcDbEntity
  8
0
100
AcDbLine
 62
7
  6
CONTINUOUS
 10
693.4075373394
 20
615.7458751764
 11
693.4075373394
 21
495.7458751764
  0
LINE
  5
2E5
100
AcDbEntity
  8
0
100
AcDbLine
 62
7
  6
CONTINUOUS
 10
693.4673855335
 20
286.5000493054
 11
693.4673855335
 21
263.5635984333
  0
LINE
  5
2E6
100
AcDbEntity
  8
0
100
AcDbLine
 62
7
  6
CONTINUOUS
 10
734.2770206242
 20
317.8318238694
 11
724.7991600974
 21
317.8318238694
  0
LINE
  5
2E7
100
AcDbEntity
  8
0
100
AcDbLine
 62
7
  6
CONTINUOUS
 10
856.5380540546
 20
317.8318238694
 11
866.0159145814
 21
317.8318238694
  0
LINE
  5
2E8
100
AcDbEntity
  8
0
100
AcDbLine
 62
7
  6
CONTINUOUS
 10
767.5991600974
 20
306.3635984333
 11
759.3910921077
 21
311.1025286967
  0
LINE
  5
2E9
100
AcDbEntity
  8
0
100
AcDbLine
 62
7
  6
CONTINUOUS
 10
743.1460915764
 20
244.5920812037
 11
742.8907239842
 21
245.2067800675
  0
LINE
  5
2EA
100
AcDbEntity
  8
0
100
AcDbLine
 62
7
  6
CONTINUOUS
 10
744.6040924136
 20
240.1043605552
 11
744.4452280464
 21
240.5566331269
  0
LINE
  5
2EB
100
AcDbEntity
  8
0
100
AcDbLine
 62
7
  6
CONTINUOUS
 10
752.2780313101
 20
237.9115663986
 11
752.4368949297
 21
237.4592940272
  0
LINE
  5
2EC
100
AcDbEntity
  8
0
100
AcDbLine
 62
7
  6
CONTINUOUS
 10
707.3894140922
 20
250.3491402199
 11
707.5023766948
 21
249.7725985624
  0
LINE
  5
2ED
100
AcDbEntity
  8
0
100
AcDbLine
 62
7
  6
CONTINUOUS
 10
718.4737305617
 20
250.7933154202
 11
718.3607675782
 21
251.3698570841
  0
LINE
  5
2EE
100
AcDbEntity
  8
0
100
AcDbLine
 62
7
  6
CONTINUOUS
 10
706.2243803062
 20
254.4852239217
 11
706.2467193583
 21
254.069533198
  0
LINE
  5
2EF
100
AcDbEntity
  8
0
100
AcDbLine
 62
7
  6
CONTINUOUS
 10
706.9953118736
 20
253.868948438
 11
706.9729728216
 21
254.2846391618
  0
LINE
  5
2F0
100
AcDbEntity
  8
0
100
AcDbLine
 62
7
  6
CONTINUOUS
 10
708.1721483333
 20
250.275975543
 11
708.1839517209
 21
250.8190861585
  0
LINE
  5
2F1
100
AcDbEntity
  8
0
100
AcDbLine
 62
7
  6
CONTINUOUS
 10
689.2010540277
 20
247.641432492
 11
688.5117157832
 21
239.7622603027
  0
LINE
  5
2F2
100
AcDbEntity
  8
0
100
AcDbLine
 62
7
  6
CONTINUOUS
 10
779.0673855335
 20
286.5000493054
 11
767.5991600974
 21
306.3635984333
  0
LINE
  5
2F3
100
AcDbEntity
  8
0
100
AcDbLine
 62
7
  6
CONTINUOUS
 10
757.0955384911
 20
238.122971167
 11
756.9366733764
 21
238.575243939
  0
LINE
  5
2F4
100
AcDbEntity
  8
0
100
AcDbLine
 62
7
  6
CONTINUOUS
 10
756.8638627138
 20
240.9164155055
 11
757.0227263334
 21
240.4641431341
  0
LINE
  5
2F5
100
AcDbEntity
  8
0
100
AcDbLine
 62
7
  6
CONTINUOUS
 10
743.6272133699
 20
240.6392511679
 11
743.7519356305
 21
240.0595585196
  0
LINE
  5
2F6
100
AcDbEntity
  8
0
100
AcDbLine
 62
7
  6
CONTINUOUS
 10
752.9653995814
 20
237.863955052
 11
752.9030388129
 21
238.1538012313
  0
LINE
  5
2F7
100
AcDbEntity
  8
0
100
AcDbLine
 62
7
  6
CONTINUOUS
 10
742.3622193564
 20
244.802119132
 11
742.3904384159
 21
244.384852865
  0
LINE
  5
2F8
100
AcDbEntity
  8
0
100
AcDbLine
 62
7
  6
CONTINUOUS
 10
743.1743110096
 20
244.1748148366
 11
743.1460915764
 21
244.5920812037
  0
LINE
  5
2F9
100
AcDbEntity
  8
0
100
AcDbLine
 62
7
  6
CONTINUOUS
 10
748.5990576496
 20
242.9943950171
 11
748.6272769872
 21
242.577128293
  0
LINE
  5
2FA
100
AcDbEntity
  8
0
100
AcDbLine
 62
7
  6
CONTINUOUS
 10
725.4075373394
 20
615.7458751764
 11
725.4075373394
 21
495.7458751764
  0
LINE
  5
2FB
100
AcDbEntity
  8
0
100
AcDbLine
 62
7
  6
CONTINUOUS
 10
717.6909958679
 20
250.8664798357
 11
717.6791924803
 21
250.3233692202
  0
LINE
  5
2FC
100
AcDbEntity
  8
0
100
AcDbLine
 62
7
  6
CONTINUOUS
 10
707.4353588486
 20
251.0196710141
 11
707.3894140922
 21
250.3491402199
  0
LINE
  5
2FD
100
AcDbEntity
  8
0
100
AcDbLine
 62
7
  6
CONTINUOUS
 10
718.4277849957
 20
250.1227844603
 11
718.4737305617
 21
250.7933154202
  0
LINE
  5
2FE
100
AcDbEntity
  8
RUNDUNGEN
100
AcDbLine
 62
7
  6
CONTINUOUS
 10
662.4516679972
 20
215.6894919302
 11
663.3667315067
 21
219.1045554396
  0
LINE
  5
2FF
100
AcDbEntity
  8
RUNDUNGEN
100
AcDbLine
 62
7
  6
CONTINUOUS
 10
653.2521924716
 20
135.2178509893
 11
656.383211708
 21
146.9029738591
  0
LINE
  5
300
100
AcDbEntity
  8
RUNDUNGEN
100
AcDbLine
 62
7
  6
CONTINUOUS
 10
671.7660258328
 20
198.0907530793
 11
672.6810893422
 21
201.5058165888
  0
LINE
  5
301
100
AcDbEntity
  8
0
100
AcDbLine
 62
7
  6
CONTINUOUS
 10
689.2010540277
 20
247.641432492
 11
693.4673855335
 21
263.5635984333
  0
LINE
  5
302
100
AcDbEntity
  8
RUNDUNGEN
100
AcDbLine
 62
7
  6
CONTINUOUS
 10
682.6049110874
 20
217.7177650677
 11
693.6694252656
 21
259.0110941415
  0
LINE
  5
303
100
AcDbEntity
  8
RUNDUNGEN
100
AcDbLine
 62
7
  6
CONTINUOUS
 10
661.9048808741
 20
128.8730906778
 11
663.4604888402
 21
134.6786986439
  0
LINE
  5
304
100
AcDbEntity
  8
0
100
AcDbLine
 62
7
  6
CONTINUOUS
 10
811.7476891453
 20
263.5635984333
 11
823.2159145814
 21
243.7000493054
  0
LINE
  5
305
100
AcDbEntity
  8
0
100
AcDbLine
 62
7
  6
CONTINUOUS
 10
756.3116658974
 20
238.3330091954
 11
756.4363888816
 21
237.7533162576
  0
LINE
  5
306
100
AcDbEntity
  8
0
100
AcDbLine
 62
7
  6
CONTINUOUS
 10
742.0758415215
 20
239.5526881704
 11
741.6853002556
 21
242.798405381
  0
LINE
  5
307
100
AcDbEntity
  8
0
100
AcDbLine
 62
7
  6
CONTINUOUS
 10
740.8331434965
 20
242.7536034346
 11
741.1613232463
 21
239.7977326037
  0
LINE
  5
308
100
AcDbEntity
  8
0
100
AcDbLine
 62
7
  6
CONTINUOUS
 10
752.2498111531
 20
238.3288330553
 11
752.2780313101
 21
237.9115663986
  0
LINE
  5
309
100
AcDbEntity
  8
0
100
AcDbLine
 62
7
  6
CONTINUOUS
 10
744.4452280464
 20
240.5566331269
 11
744.4511506958
 21
241.1013194815
  0
LINE
  5
30A
100
AcDbEntity
  8
0
100
AcDbLine
 62
7
  6
CONTINUOUS
 10
757.0896150463
 20
237.5782848343
 11
757.0955384911
 21
238.122971167
  0
LINE
  5
30B
100
AcDbEntity
  8
0
100
AcDbLine
 62
7
  6
CONTINUOUS
 10
757.6759539932
 20
240.2891113102
 11
757.6818773902
 21
240.8337974644
  0
LINE
  5
30C
100
AcDbEntity
  8
0
100
AcDbLine
 62
7
  6
CONTINUOUS
 10
743.6672781021
 20
241.3113575099
 11
743.6272133699
 21
240.6392511679
  0
LINE
  5
30D
100
AcDbEntity
  8
0
100
AcDbLine
 62
7
  6
CONTINUOUS
 10
749.4111495809
 20
242.3670902646
 11
749.4512151563
 21
243.0391967632
  0
LINE
  5
30E
100
AcDbEntity
  8
0
100
AcDbLine
 62
7
  6
CONTINUOUS
 10
702.7545543912
 20
256.5075076209
 11
701.1498763116
 21
250.5187674979
  0
LINE
  5
30F
100
AcDbEntity
  8
0
100
AcDbLine
 62
7
  6
CONTINUOUS
 10
701.8984688269
 20
250.3181827379
 11
702.6154526599
 21
252.9940028309
  0
LINE
  5
310
100
AcDbEntity
  8
0
100
AcDbLine
 62
7
  6
CONTINUOUS
 10
702.8203051563
 20
253.7585227554
 11
703.3324364929
 21
255.6698229238
  0
LINE
  5
311
100
AcDbEntity
  8
0
100
AcDbLine
 62
7
  6
CONTINUOUS
 10
706.2467193583
 20
254.069533198
 11
706.1442930144
 21
253.6872728787
  0
LINE
  5
312
100
AcDbEntity
  8
0
100
AcDbLine
 62
7
  6
CONTINUOUS
 10
706.8587434471
 20
253.3592681314
 11
706.9953118736
 21
253.868948438
  0
LINE
  5
313
100
AcDbEntity
  8
0
100
AcDbLine
 62
7
  6
CONTINUOUS
 10
708.4937635567
 20
254.9696911598
 11
707.4353588486
 21
251.0196710141
  0
LINE
  5
314
100
AcDbEntity
  8
KONSTRUKTIONSELEMENTE
100
AcDbLine
 62
7
  6
CONTINUOUS
 10
700.8051060795
 20
225.5231707275
 11
701.4521536922
 21
227.9379852932
  0
LINE
  5
315
100
AcDbEntity
  8
0
100
AcDbLine
 62
7
  6
CONTINUOUS
 10
708.1839517209
 20
250.8190861585
 11
709.2423564291
 21
254.7691063042
  0
LINE
  5
316
100
AcDbEntity
  8
0
100
AcDbLine
 62
7
  6
CONTINUOUS
 10
694.5949155251
 20
192.7771854518
 11
693.0246665429
 21
186.9169364696
  0
LINE
  5
317
100
AcDbEntity
  8
0
100
AcDbLine
 62
7
  6
CONTINUOUS
 10
712.2367264906
 20
253.9667672644
 11
711.1783217824
 21
250.0167471187
  0
LINE
  5
318
100
AcDbEntity
  8
0
100
AcDbLine
 62
7
  6
CONTINUOUS
 10
711.9269142978
 20
249.8161623587
 11
712.9853190059
 21
253.7661825044
  0
LINE
  5
319
100
AcDbEntity
  8
0
100
AcDbLine
 62
7
  6
CONTINUOUS
 10
695.6874133737
 20
187.0599550515
 11
696.2346213524
 21
189.1021630302
  0
LINE
  5
31A
100
AcDbEntity
  8
0
100
AcDbLine
 62
7
  6
CONTINUOUS
 10
696.4011629111
 20
189.7237045889
 11
696.9483708898
 21
191.7659125675
  0
LINE
  5
31B
100
AcDbEntity
  8
0
100
AcDbLine
 62
7
  6
CONTINUOUS
 10
713.9834421218
 20
253.4987362216
 11
712.3787640422
 21
247.5099960986
  0
LINE
  5
31C
100
AcDbEntity
  8
0
100
AcDbLine
 62
7
  6
CONTINUOUS
 10
697.3302417836
 20
190.9308077116
 11
697.0304669779
 21
189.8120329059
  0
LINE
  5
31D
100
AcDbEntity
  8
0
100
AcDbLine
 62
7
  6
CONTINUOUS
 10
696.6164922462
 20
188.2670581742
 11
696.3167174405
 21
187.1482833685
  0
LINE
  5
31E
100
AcDbEntity
  8
0
100
AcDbLine
 62
7
  6
CONTINUOUS
 10
697.0731060957
 20
188.0876088989
 11
697.115931068
 21
188.2474338712
  0
LINE
  5
31F
100
AcDbEntity
  8
0
100
AcDbLine
 62
7
  6
CONTINUOUS
 10
697.2229934986
 20
188.6469963018
 11
697.3657434061
 21
189.1797462093
  0
LINE
  5
320
100
AcDbEntity
  8
0
100
AcDbLine
 62
7
  6
CONTINUOUS
 10
697.4728058367
 20
189.5793086399
 11
697.6345890652
 21
190.1830918683
  0
LINE
  5
321
100
AcDbEntity
  8
0
100
AcDbLine
 62
7
  6
CONTINUOUS
 10
713.3322090778
 20
248.0739313524
 11
714.5271821408
 21
252.5336315371
  0
LINE
  5
322
100
AcDbEntity
  8
0
100
AcDbLine
 62
7
  6
CONTINUOUS
 10
697.9308100145
 20
189.0283370679
 11
697.788060107
 21
188.4955871604
  0
LINE
  5
323
100
AcDbEntity
  8
0
100
AcDbLine
 62
7
  6
CONTINUOUS
 10
698.1996556735
 20
190.031682727
 11
698.0378724451
 21
189.4278994985
  0
LINE
  5
324
100
AcDbEntity
  8
0
100
AcDbLine
 62
7
  6
CONTINUOUS
 10
697.6809976764
 20
188.0960247298
 11
697.6381727041
 21
187.9361997576
  0
LINE
  5
325
100
AcDbEntity
  8
0
100
AcDbLine
 62
7
  6
CONTINUOUS
 10
697.8235617295
 20
186.7445256581
 11
698.1233365352
 21
187.8633004638
  0
LINE
  5
326
100
AcDbEntity
  8
0
100
AcDbLine
 62
7
  6
CONTINUOUS
 10
698.5373112669
 20
189.4082751955
 11
698.8370860726
 21
190.5270500012
  0
LINE
  5
327
100
AcDbEntity
  8
0
100
AcDbLine
 62
7
  6
CONTINUOUS
 10
699.5853483955
 20
191.0593365744
 11
699.0381404169
 21
189.0171285957
  0
LINE
  5
328
100
AcDbEntity
  8
0
100
AcDbLine
 62
7
  6
CONTINUOUS
 10
698.8715988582
 20
188.395587037
 11
698.3243908795
 21
186.3533790584
  0
LINE
  5
329
100
AcDbEntity
  8
0
100
AcDbLine
 62
7
  6
CONTINUOUS
 10
768.0827012731
 20
443.9963416357
 11
725.1489692934
 21
283.765472529
  0
LINE
  5
32A
100
AcDbEntity
  8
0
100
AcDbLine
 62
7
  6
CONTINUOUS
 10
866.0159145814
 20
317.8318238694
 11
885.8794637093
 21
306.3635984333
  0
LINE
  5
32B
100
AcDbEntity
  8
0
100
AcDbLine
 62
7
  6
CONTINUOUS
 10
827.4822460871
 20
227.7778833641
 11
830.8248477502
 21
220.6096509651
  0
LINE
  5
32C
100
AcDbEntity
  8
0
100
AcDbLine
 62
7
  6
CONTINUOUS
 10
779.0673855335
 20
263.5635984333
 11
779.0673855335
 21
286.5000493054
  0
LINE
  5
32D
100
AcDbEntity
  8
0
100
AcDbLine
 62
7
  6
CONTINUOUS
 10
717.6791924803
 20
250.3233692202
 11
717.1670611915
 21
248.4120692304
  0
LINE
  5
32E
100
AcDbEntity
  8
0
100
AcDbLine
 62
7
  6
CONTINUOUS
 10
700.5588879879
 20
184.8981479178
 11
702.1291369702
 21
190.7583969
  0
LINE
  5
32F
100
AcDbEntity
  8
0
100
AcDbLine
 62
7
  6
CONTINUOUS
 10
717.9156537069
 20
248.2114844704
 11
718.4277849957
 21
250.1227844603
  0
LINE
  5
330
100
AcDbEntity
  8
0
100
AcDbLine
 62
7
  6
CONTINUOUS
 10
704.7152365266
 20
190.6364532423
 11
704.4987325002
 21
189.8284492159
  0
LINE
  5
331
100
AcDbEntity
  8
0
100
AcDbLine
 62
7
  6
CONTINUOUS
 10
704.2988826298
 20
189.0825993455
 11
702.8594877294
 21
183.7107044451
  0
LINE
  5
332
100
AcDbEntity
  8
0
100
AcDbLine
 62
7
  6
CONTINUOUS
 10
714.3668488481
 20
221.8893127047
 11
710.5133578361
 21
207.5078884614
  0
LINE
  5
333
100
AcDbEntity
  8
KONSTRUKTIONSELEMENTE
100
AcDbLine
 62
7
  6
CONTINUOUS
 10
714.3668488481
 20
221.8893127047
 11
718.8185364238
 21
238.5032369168
  0
LINE
  5
334
100
AcDbEntity
  8
0
100
AcDbLine
 62
7
  6
CONTINUOUS
 10
704.0649631606
 20
183.3876982768
 11
705.0793598452
 21
187.1734782427
  0
LINE
  5
335
100
AcDbEntity
  8
0
100
AcDbLine
 62
7
  6
CONTINUOUS
 10
705.1888014409
 20
187.5819198384
 11
705.504358061
 21
188.7595931772
  0
LINE
  5
336
100
AcDbEntity
  8
0
100
AcDbLine
 62
7
  6
CONTINUOUS
 10
707.974090167
 20
185.9220045657
 11
708.0930484232
 21
186.365962822
  0
LINE
  5
337
100
AcDbEntity
  8
KONSTRUKTIONSELEMENTE
100
AcDbLine
 62
7
  6
CONTINUOUS
 10
720.3533328824
 20
229.1627323892
 11
720.4646381768
 21
229.5781294031
  0
LINE
  5
338
100
AcDbEntity
  8
KONSTRUKTIONSELEMENTE
100
AcDbLine
 62
7
  6
CONTINUOUS
 10
728.1886392511
 20
258.4044938503
 11
728.51719706
 21
259.6306882863
  0
LINE
  5
339
100
AcDbEntity
  8
0
100
AcDbLine
 62
7
  6
CONTINUOUS
 10
709.293194893
 20
185.7109082294
 11
709.4121531493
 21
186.1548664856
  0
LINE
  5
33A
100
AcDbEntity
  8
KONSTRUKTIONSELEMENTE
100
AcDbLine
 62
7
  6
CONTINUOUS
 10
713.3011021549
 20
198.9797457025
 11
716.569929231
 21
211.1791744317
  0
LINE
  5
33B
100
AcDbEntity
  8
KONSTRUKTIONSELEMENTE
100
AcDbLine
 62
7
  6
CONTINUOUS
 10
729.1317008686
 20
258.0603444161
 11
731.9760235132
 21
268.6755010391
  0
LINE
  5
33C
100
AcDbEntity
  8
0
100
AcDbLine
 62
7
  6
CONTINUOUS
 10
710.4415692551
 20
187.6810909506
 11
710.3226109989
 21
187.2371326943
  0
LINE
  5
33D
100
AcDbEntity
  8
KONSTRUKTIONSELEMENTE
100
AcDbLine
 62
7
  6
CONTINUOUS
 10
721.5607401652
 20
228.8392085828
 11
725.6165598005
 21
243.9757335282
  0
LINE
  5
33E
100
AcDbEntity
  8
0
100
AcDbLine
 62
7
  6
CONTINUOUS
 10
709.8072377386
 20
181.8490604409
 11
709.9261959948
 21
182.2930186971
  0
LINE
  5
33F
100
AcDbEntity
  8
0
100
AcDbLine
 62
7
  6
CONTINUOUS
 10
713.7563022606
 20
188.2139069801
 11
712.5821451134
 21
183.8318928507
  0
LINE
  5
340
100
AcDbEntity
  8
0
100
AcDbLine
 62
7
  6
CONTINUOUS
 10
713.7876205446
 20
183.5088866824
 11
714.9617776918
 21
187.8909008118
  0
LINE
  5
341
100
AcDbEntity
  8
KONSTRUKTIONSELEMENTE
100
AcDbLine
 62
7
  6
CONTINUOUS
 10
725.9074063835
 20
227.6745228799
 11
729.9632260189
 21
242.8110478252
  0
LINE
  5
342
100
AcDbEntity
  8
KONSTRUKTIONSELEMENTE
100
AcDbLine
 62
7
  6
CONTINUOUS
 10
718.1307312863
 20
197.6856504769
 11
721.3995583625
 21
209.8850792062
  0
LINE
  5
343
100
AcDbEntity
  8
KONSTRUKTIONSELEMENTE
100
AcDbLine
 62
7
  6
CONTINUOUS
 10
733.96133
 20
256.7662491906
 11
736.8056526447
 21
267.3814058136
  0
LINE
  5
344
100
AcDbEntity
  8
KONSTRUKTIONSELEMENTE
100
AcDbLine
 62
7
  6
CONTINUOUS
 10
735.2786778441
 20
257.8189549706
 11
734.9501200351
 21
256.5927605345
  0
LINE
  5
345
100
AcDbEntity
  8
KONSTRUKTIONSELEMENTE
100
AcDbLine
 62
7
  6
CONTINUOUS
 10
727.2261189608
 20
227.7663960874
 11
727.1148136664
 21
227.3509990735
  0
LINE
  5
346
100
AcDbEntity
  8
0
100
AcDbLine
 62
7
  6
CONTINUOUS
 10
719.7009729535
 20
186.6210372687
 11
718.5268158063
 21
182.2390231393
  0
LINE
  5
347
100
AcDbEntity
  8
0
100
AcDbLine
 62
7
  6
CONTINUOUS
 10
724.8090600652
 20
203.6773665939
 11
728.6625510772
 21
218.0587908372
  0
LINE
  5
348
100
AcDbEntity
  8
KONSTRUKTIONSELEMENTE
100
AcDbLine
 62
7
  6
CONTINUOUS
 10
728.6625510772
 20
218.0587908372
 11
733.1142386842
 21
234.672715166
  0
LINE
  5
349
100
AcDbEntity
  8
0
100
AcDbLine
 62
7
  6
CONTINUOUS
 10
736.8869568732
 20
247.3617579401
 11
735.2822787935
 21
241.3730178171
  0
LINE
  5
34A
100
AcDbEntity
  8
0
100
AcDbLine
 62
7
  6
CONTINUOUS
 10
719.7322912376
 20
181.916016971
 11
720.9064483847
 21
186.2980311004
  0
LINE
  5
34B
100
AcDbEntity
  8
0
100
AcDbLine
 62
7
  6
CONTINUOUS
 10
736.0661513873
 20
241.1629797887
 11
737.6708294669
 21
247.1517199117
  0
LINE
  5
34C
100
AcDbEntity
  8
0
100
AcDbLine
 62
7
  6
CONTINUOUS
 10
738.7159928629
 20
246.8716692237
 11
737.1113147832
 21
240.8829291008
  0
LINE
  5
34D
100
AcDbEntity
  8
0
100
AcDbLine
 62
7
  6
CONTINUOUS
 10
704.9356109695
 20
306.3635984333
 11
693.4673855335
 21
286.5000493054
  0
LINE
  5
34E
100
AcDbEntity
  8
0
100
AcDbLine
 62
7
  6
CONTINUOUS
 10
827.4822460871
 20
227.7778833641
 11
823.2159145814
 21
243.7000493054
  0
LINE
  5
34F
100
AcDbEntity
  8
0
100
AcDbLine
 62
7
  6
CONTINUOUS
 10
836.731652446
 20
198.5651557301
 11
825.6671382678
 21
239.8584848039
  0
LINE
  5
350
100
AcDbEntity
  8
0
100
AcDbLine
 62
7
  6
CONTINUOUS
 10
737.8951873769
 20
240.6728910723
 11
738.6121712099
 21
243.3487111652
  0
LINE
  5
351
100
AcDbEntity
  8
0
100
AcDbLine
 62
7
  6
CONTINUOUS
 10
738.8170237063
 20
244.1132310898
 11
739.3291550429
 21
246.0245312582
  0
LINE
  5
352
100
AcDbEntity
  8
0
100
AcDbLine
 62
7
  6
CONTINUOUS
 10
723.5434258905
 20
185.5914551073
 11
723.3150260386
 21
184.7390552553
  0
LINE
  5
353
100
AcDbEntity
  8
0
100
AcDbLine
 62
7
  6
CONTINUOUS
 10
723.1151761681
 20
183.9932053848
 11
721.6876770933
 21
178.6657063101
  0
LINE
  5
354
100
AcDbEntity
  8
0
100
AcDbLine
 62
7
  6
CONTINUOUS
 10
723.131069037
 20
179.2306166542
 11
724.3206515993
 21
183.6701992165
  0
LINE
  5
355
100
AcDbEntity
  8
0
100
AcDbLine
 62
7
  6
CONTINUOUS
 10
793.1967727566
 20
437.267046463
 11
750.263040777
 21
277.0361773563
  0
LINE
  5
356
100
AcDbEntity
  8
0
100
AcDbLine
 62
7
  6
CONTINUOUS
 10
742.3904384159
 20
244.384852865
 11
742.2880120721
 21
244.0025925458
  0
LINE
  5
357
100
AcDbEntity
  8
0
100
AcDbLine
 62
7
  6
CONTINUOUS
 10
743.0377425831
 20
243.6651345299
 11
743.1743110096
 21
244.1748148366
  0
LINE
  5
358
100
AcDbEntity
  8
0
100
AcDbLine
 62
7
  6
CONTINUOUS
 10
744.1794093909
 20
243.2226574998
 11
743.6672781021
 21
241.3113575099
  0
LINE
  5
359
100
AcDbEntity
  8
0
100
AcDbLine
 62
7
  6
CONTINUOUS
 10
744.4511506958
 20
241.1013194815
 11
744.9632819846
 21
243.0126194713
  0
LINE
  5
35A
100
AcDbEntity
  8
0
100
AcDbLine
 62
7
  6
CONTINUOUS
 10
729.1340813698
 20
180.876812238
 11
729.0151231136
 21
180.4328539817
  0
LINE
  5
35B
100
AcDbEntity
  8
0
100
AcDbLine
 62
7
  6
CONTINUOUS
 10
747.1441893521
 20
241.7454054489
 11
746.9393368557
 21
240.9808855243
  0
LINE
  5
35C
100
AcDbEntity
  8
0
100
AcDbLine
 62
7
  6
CONTINUOUS
 10
748.1151457462
 20
240.6658284816
 11
747.8420090366
 21
239.6464684037
  0
LINE
  5
35D
100
AcDbEntity
  8
0
100
AcDbLine
 62
7
  6
CONTINUOUS
 10
748.5917395475
 20
239.3090103878
 11
749.1038708363
 21
241.2203103777
  0
LINE
  5
35E
100
AcDbEntity
  8
KONSTRUKTIONSELEMENTE
100
AcDbLine
 62
7
  6
CONTINUOUS
 10
742.2242938458
 20
214.4249328143
 11
742.8713414585
 21
216.8397473801
  0
LINE
  5
35F
100
AcDbEntity
  8
0
100
AcDbLine
 62
7
  6
CONTINUOUS
 10
750.6270240469
 20
242.7241397205
 11
750.3538872894
 21
241.7047794641
  0
LINE
  5
360
100
AcDbEntity
  8
0
100
AcDbLine
 62
7
  6
CONTINUOUS
 10
751.3767545578
 20
242.3866817046
 11
750.04521314
 21
237.4173014811
  0
LINE
  5
361
100
AcDbEntity
  8
0
100
AcDbLine
 62
7
  6
CONTINUOUS
 10
750.8290857337
 20
237.2072634526
 11
752.4337638134
 21
243.1960035756
  0
LINE
  5
362
100
AcDbEntity
  8
0
100
AcDbLine
 62
7
  6
CONTINUOUS
 10
754.8522703552
 20
239.6800313689
 11
754.7157020243
 21
239.1703514192
  0
LINE
  5
363
100
AcDbEntity
  8
0
100
AcDbLine
 62
7
  6
CONTINUOUS
 10
757.0227263334
 20
240.4641431341
 11
756.9544420723
 21
240.2093028023
  0
LINE
  5
364
100
AcDbEntity
  8
0
100
AcDbLine
 62
7
  6
CONTINUOUS
 10
756.4363888816
 20
237.7533162576
 11
756.2998205507
 21
237.2436363078
  0
LINE
  5
365
100
AcDbEntity
  8
0
100
AcDbLine
 62
7
  6
CONTINUOUS
 10
757.6076697321
 20
240.0342709784
 11
757.6759539932
 21
240.2891113102
  0
LINE
  5
366
100
AcDbEntity
  8
0
100
AcDbLine
 62
7
  6
CONTINUOUS
 10
756.9530467154
 20
237.0686048846
 11
757.0896150463
 21
237.5782848343
  0
LINE
  5
367
100
AcDbEntity
  8
0
100
AcDbLine
 62
7
  6
CONTINUOUS
 10
711.631438227
 20
249.2124932787
 11
711.9269142978
 21
249.8161623587
  0
LINE
  5
368
100
AcDbEntity
  8
0
100
AcDbLine
 62
7
  6
CONTINUOUS
 10
717.62017835
 20
247.6078151991
 11
717.9156537069
 21
248.2114844704
  0
LINE
  5
369
100
AcDbEntity
  8
0
100
AcDbLine
 62
7
  6
CONTINUOUS
 10
711.1783217824
 20
250.0167471187
 11
710.9169877943
 21
249.5404980261
  0
LINE
  5
36A
100
AcDbEntity
  8
0
100
AcDbLine
 62
7
  6
CONTINUOUS
 10
717.1670611915
 20
248.4120692304
 11
716.9057279173
 21
247.9358199464
  0
LINE
  5
36B
100
AcDbEntity
  8
0
100
AcDbLine
 62
7
  6
CONTINUOUS
 10
706.1442930144
 20
253.6872728787
 11
705.917101466
 21
253.3384436779
  0
LINE
  5
36C
100
AcDbEntity
  8
0
100
AcDbLine
 62
7
  6
CONTINUOUS
 10
848.590780833
 20
214.4249328143
 11
847.9437332202
 21
216.8397473801
  0
LINE
  5
36D
100
AcDbEntity
  8
0
100
AcDbLine
 62
7
  6
CONTINUOUS
 10
840.5671486555
 20
276.9797683277
 11
797.6031871685
 21
437.3234554916
  0
LINE
  5
36E
100
AcDbEntity
  8
0
100
AcDbLine
 62
7
  6
CONTINUOUS
 10
811.7476891453
 20
263.5635984333
 11
811.7476891453
 21
286.5000493054
  0
LINE
  5
36F
100
AcDbEntity
  8
RUNDUNGEN
100
AcDbLine
 62
7
  6
CONTINUOUS
 10
729.1434450278
 20
117.079003577
 11
727.5878370617
 21
111.2733956109
  0
LINE
  5
370
100
AcDbEntity
  8
RUNDUNGEN
100
AcDbLine
 62
7
  6
CONTINUOUS
 10
754.0834222328
 20
198.5651557301
 11
765.1479364109
 21
239.8584848039
  0
LINE
  5
371
100
AcDbEntity
  8
0
100
AcDbLine
 62
7
  6
CONTINUOUS
 10
763.3328285917
 20
227.7778833641
 11
767.5991600974
 21
243.7000493054
  0
LINE
  5
372
100
AcDbEntity
  8
RUNDUNGEN
100
AcDbLine
 62
7
  6
CONTINUOUS
 10
738.253665185
 20
112.4417750203
 11
741.3846844215
 21
124.12689789
  0
LINE
  5
373
100
AcDbEntity
  8
0
100
AcDbLine
 62
7
  6
CONTINUOUS
 10
744.4807655817
 20
243.824751389
 11
744.1794093909
 21
243.2226574998
  0
LINE
  5
374
100
AcDbEntity
  8
0
100
AcDbLine
 62
7
  6
CONTINUOUS
 10
706.6315518986
 20
253.0104389305
 11
706.8587434471
 21
253.3592681314
  0
LINE
  5
375
100
AcDbEntity
  8
0
100
AcDbLine
 62
7
  6
CONTINUOUS
 10
885.8794637093
 20
306.3635984333
 11
897.3476891453
 21
286.5000493054
  0
LINE
  5
376
100
AcDbEntity
  8
0
100
AcDbLine
 62
7
  6
CONTINUOUS
 10
866.0060146136
 20
203.6773665939
 11
857.7008359946
 21
234.672715166
  0
LINE
  5
377
100
AcDbEntity
  8
0
100
AcDbLine
 62
7
  6
CONTINUOUS
 10
880.3017168427
 20
207.5078884614
 11
871.9965382549
 21
238.5032369168
  0
LINE
  5
378
100
AcDbEntity
  8
RUNDUNGEN
100
AcDbLine
 62
7
  6
CONTINUOUS
 10
772.2196662996
 20
186.9963407187
 11
773.1347298091
 21
190.4114042282
  0
LINE
  5
379
100
AcDbEntity
  8
0
100
AcDbLine
 62
7
  6
CONTINUOUS
 10
763.3328285917
 20
227.7778833641
 11
759.9902269286
 21
220.6096509651
  0
LINE
  5
37A
100
AcDbEntity
  8
0
100
AcDbLine
 62
7
  6
CONTINUOUS
 10
744.9632819846
 20
243.0126194713
 11
745.230495997
 21
243.4872930162
  0
LINE
  5
37B
100
AcDbEntity
  8
0
100
AcDbLine
 62
7
  6
CONTINUOUS
 10
748.3245262588
 20
238.8343365534
 11
748.5917395475
 21
239.3090103878
  0
LINE
  5
37C
100
AcDbEntity
  8
0
100
AcDbLine
 62
7
  6
CONTINUOUS
 10
753.5012230587
 20
241.9540004164
 11
753.2340097939
 21
241.4793266712
  0
LINE
  5
37D
100
AcDbEntity
  8
0
100
AcDbLine
 62
7
  6
CONTINUOUS
 10
757.3404564672
 20
239.5595972332
 11
757.6076697321
 21
240.0342709784
  0
LINE
  5
37E
100
AcDbEntity
  8
0
100
AcDbLine
 62
7
  6
CONTINUOUS
 10
742.2880120721
 20
244.0025925458
 11
742.0549405162
 21
243.6553388882
  0
LINE
  5
37F
100
AcDbEntity
  8
0
100
AcDbLine
 62
7
  6
CONTINUOUS
 10
742.8046706534
 20
243.3178809725
 11
743.0377425831
 21
243.6651345299
  0
LINE
  5
380
100
AcDbEntity
  8
0
100
AcDbLine
 62
7
  6
CONTINUOUS
 10
711.2453392716
 20
248.7696747626
 11
711.631438227
 21
249.2124932787
  0
LINE
  5
381
100
AcDbEntity
  8
0
100
AcDbLine
 62
7
  6
CONTINUOUS
 10
717.2340786807
 20
247.1649968743
 11
717.62017835
 21
247.6078151991
  0
LINE
  5
382
100
AcDbEntity
  8
0
100
AcDbLine
 62
7
  6
CONTINUOUS
 10
724.7991600974
 20
317.8318238694
 11
704.9356109695
 21
306.3635984333
  0
LINE
  5
383
100
AcDbEntity
  8
0
100
AcDbLine
 62
7
  6
CONTINUOUS
 10
865.681220139
 20
283.7090635003
 11
822.717258652
 21
444.0527506643
  0
LINE
  5
384
100
AcDbEntity
  8
0
100
AcDbLine
 62
7
  6
CONTINUOUS
 10
890.0099685993
 20
225.5231707275
 11
889.3629209866
 21
227.9379852932
  0
LINE
  5
385
100
AcDbEntity
  8
0
100
AcDbLine
 62
7
  6
CONTINUOUS
 10
865.4075373394
 20
495.7458751764
 11
865.4075373394
 21
615.7458751764
  0
LINE
  5
386
100
AcDbEntity
  8
0
100
AcDbLine
 62
7
  6
CONTINUOUS
 10
767.5991600974
 20
243.7000493054
 11
779.0673855335
 21
263.5635984333
  0
LINE
  5
387
100
AcDbEntity
  8
0
100
AcDbLine
 62
7
  6
CONTINUOUS
 10
811.7476891453
 20
286.5000493054
 11
823.2159145814
 21
306.3635984333
  0
LINE
  5
388
100
AcDbEntity
  8
0
100
AcDbLine
 62
7
  6
CONTINUOUS
 10
747.8420090366
 20
239.6464684037
 11
747.6089371069
 21
239.2992148463
  0
LINE
  5
389
100
AcDbEntity
  8
0
100
AcDbLine
 62
7
  6
CONTINUOUS
 10
756.7199755093
 20
236.7213510376
 11
756.9530467154
 21
237.0686048846
  0
LINE
  5
38A
100
AcDbEntity
  8
0
100
AcDbLine
 62
7
  6
CONTINUOUS
 10
744.878624528
 20
244.2644187294
 11
744.4807655817
 21
243.824751389
  0
LINE
  5
38B
100
AcDbEntity
  8
0
100
AcDbLine
 62
7
  6
CONTINUOUS
 10
710.9169877943
 20
249.5404980261
 11
710.5650309456
 21
249.2250995867
  0
LINE
  5
38C
100
AcDbEntity
  8
0
100
AcDbLine
 62
7
  6
CONTINUOUS
 10
716.9057279173
 20
247.9358199464
 11
716.5537703547
 21
247.6204216983
  0
LINE
  5
38D
100
AcDbEntity
  8
0
100
AcDbLine
 62
7
  6
CONTINUOUS
 10
706.12068731
 20
252.6010513608
 11
706.6315518986
 21
253.0104389305
  0
LINE
  5
38E
100
AcDbEntity
  8
0
100
AcDbLine
 62
7
  6
CONTINUOUS
 10
908.2101635914
 20
217.7177650677
 11
897.1456494132
 21
259.0110941415
  0
LINE
  5
38F
100
AcDbEntity
  8
0
100
AcDbLine
 62
7
  6
CONTINUOUS
 10
901.6140206511
 20
247.641432492
 11
897.3476891453
 21
263.5635984333
  0
LINE
  5
390
100
AcDbEntity
  8
0
100
AcDbLine
 62
7
  6
CONTINUOUS
 10
901.6140206511
 20
247.641432492
 11
902.3033588956
 21
239.7622603027
  0
LINE
  5
391
100
AcDbEntity
  8
0
100
AcDbLine
 62
7
  6
CONTINUOUS
 10
756.9544420723
 20
240.2093028023
 11
756.5565838735
 21
239.7696352617
  0
LINE
  5
392
100
AcDbEntity
  8
0
100
AcDbLine
 62
7
  6
CONTINUOUS
 10
756.2998205507
 20
237.2436363078
 11
756.1008899562
 21
237.0238029381
  0
LINE
  5
393
100
AcDbEntity
  8
0
100
AcDbLine
 62
7
  6
CONTINUOUS
 10
745.230495997
 20
243.4872930162
 11
745.5942129562
 21
243.7995407261
  0
LINE
  5
394
100
AcDbEntity
  8
0
100
AcDbLine
 62
7
  6
CONTINUOUS
 10
742.2761663994
 20
242.9132199368
 11
742.8046706534
 21
243.3178809725
  0
LINE
  5
395
100
AcDbEntity
  8
0
100
AcDbLine
 62
7
  6
CONTINUOUS
 10
705.917101466
 20
253.3384436779
 11
705.5992863431
 21
253.1504653216
  0
LINE
  5
396
100
AcDbEntity
  8
0
100
AcDbLine
 62
7
  6
CONTINUOUS
 10
710.6097090139
 20
248.3937180054
 11
711.2453392716
 21
248.7696747626
  0
LINE
  5
397
100
AcDbEntity
  8
0
100
AcDbLine
 62
7
  6
CONTINUOUS
 10
716.5984491369
 20
246.7890399257
 11
717.2340786807
 21
247.1649968743
  0
LINE
  5
398
100
AcDbEntity
  8
0
100
AcDbLine
 62
7
  6
CONTINUOUS
 10
897.3476891453
 20
286.5000493054
 11
897.3476891453
 21
263.5635984333
  0
LINE
  5
399
100
AcDbEntity
  8
0
100
AcDbLine
 62
7
  6
CONTINUOUS
 10
897.4075373394
 20
495.7458751764
 11
897.4075373394
 21
615.7458751764
  0
LINE
  5
39A
100
AcDbEntity
  8
0
100
AcDbLine
 62
7
  6
CONTINUOUS
 10
753.8872359586
 20
241.3042952479
 11
754.2509535697
 21
241.6165424005
  0
LINE
  5
39B
100
AcDbEntity
  8
0
100
AcDbLine
 62
7
  6
CONTINUOUS
 10
756.9767388561
 20
239.2473500806
 11
757.3404564672
 21
239.5595972332
  0
LINE
  5
39C
100
AcDbEntity
  8
0
100
AcDbLine
 62
7
  6
CONTINUOUS
 10
756.3562578982
 20
236.409103885
 11
756.7199755093
 21
236.7213510376
  0
LINE
  5
39D
100
AcDbEntity
  8
0
100
AcDbLine
 62
7
  6
CONTINUOUS
 10
751.6498912197
 20
243.4060416041
 11
750.6270240469
 21
242.7241397205
  0
LINE
  5
39E
100
AcDbEntity
  8
0
100
AcDbLine
 62
7
  6
CONTINUOUS
 10
750.3538872894
 20
241.7047794641
 11
751.3767545578
 21
242.3866817046
  0
LINE
  5
39F
100
AcDbEntity
  8
0
100
AcDbLine
 62
7
  6
CONTINUOUS
 10
823.2159145814
 20
306.3635984333
 11
831.4239825711
 21
311.1025286967
  0
LINE
  5
3A0
100
AcDbEntity
  8
0
100
AcDbLine
 62
7
  6
CONTINUOUS
 10
742.0549405162
 20
243.6553388882
 11
741.7253653616
 21
243.4705116229
  0
LINE
  5
3A1
100
AcDbEntity
  8
0
100
AcDbLine
 62
7
  6
CONTINUOUS
 10
745.5377748372
 20
244.63407326
 11
744.878624528
 21
244.2644187294
  0
LINE
  5
3A2
100
AcDbEntity
  8
0
100
AcDbLine
 62
7
  6
CONTINUOUS
 10
710.5650309456
 20
249.2250995867
 11
710.1224504986
 21
249.0705519026
  0
LINE
  5
3A3
100
AcDbEntity
  8
RUNDUNGEN
100
AcDbLine
 62
7
  6
CONTINUOUS
 10
754.0834222328
 20
198.5651557301
 11
745.7643815853
 21
190.7002931944
  0
LINE
  5
3A4
100
AcDbEntity
  8
0
100
AcDbLine
 62
7
  6
CONTINUOUS
 10
754.1603726204
 20
242.3236551473
 11
753.5012230587
 21
241.9540004164
  0
LINE
  5
3A5
100
AcDbEntity
  8
0
100
AcDbLine
 62
7
  6
CONTINUOUS
 10
747.6653759376
 20
238.4646819782
 11
748.3245262588
 21
238.8343365534
  0
LINE
  5
3A6
100
AcDbEntity
  8
0
100
AcDbLine
 62
7
  6
CONTINUOUS
 10
756.5565838735
 20
239.7696352617
 11
756.2270083451
 21
239.5848080965
  0
LINE
  5
3A7
100
AcDbEntity
  8
0
100
AcDbLine
 62
7
  6
CONTINUOUS
 10
756.1008899562
 20
237.0238029381
 11
755.771315899
 21
236.8389752831
  0
LINE
  5
3A8
100
AcDbEntity
  8
0
100
AcDbLine
 62
7
  6
CONTINUOUS
 10
756.3517313772
 20
239.0051153371
 11
756.9767388561
 21
239.2473500806
  0
LINE
  5
3A9
100
AcDbEntity
  8
0
100
AcDbLine
 62
7
  6
CONTINUOUS
 10
716.5537703547
 20
247.6204216983
 11
716.1111899077
 21
247.4658740142
  0
LINE
  5
3AA
100
AcDbEntity
  8
0
100
AcDbLine
 62
7
  6
CONTINUOUS
 10
745.5942129562
 20
243.7995407261
 11
746.0544334185
 21
243.9493616867
  0
LINE
  5
3AB
100
AcDbEntity
  8
0
100
AcDbLine
 62
7
  6
CONTINUOUS
 10
754.2509535697
 20
241.6165424005
 11
754.711174032
 21
241.7663633611
  0
LINE
  5
3AC
100
AcDbEntity
  8
0
100
AcDbLine
 62
7
  6
CONTINUOUS
 10
747.6089371069
 20
239.2992148463
 11
747.1487166207
 21
239.1493937964
  0
LINE
  5
3AD
100
AcDbEntity
  8
0
100
AcDbLine
 62
7
  6
CONTINUOUS
 10
904.9380943287
 20
206.7470740085
 11
908.2101635914
 21
217.7177650677
  0
LINE
  5
3AE
100
AcDbEntity
  8
RUNDUNGEN
100
AcDbLine
 62
7
  6
CONTINUOUS
 10
681.3949708965
 20
162.597432135
 11
658.0611566145
 21
148.972692437
  0
LINE
  5
3AF
100
AcDbEntity
  8
RUNDUNGEN
100
AcDbLine
 62
7
  6
CONTINUOUS
 10
680.479907387
 20
159.1823686255
 11
657.146093105
 21
145.5576289276
  0
LINE
  5
3B0
100
AcDbEntity
  8
RUNDUNGEN
100
AcDbLine
 62
7
  6
CONTINUOUS
 10
751.4357373641
 20
189.8335768121
 11
764.065687401
 21
197.2082725893
  0
LINE
  5
3B1
100
AcDbEntity
  8
0
100
AcDbLine
 62
7
  6
CONTINUOUS
 10
755.8960374239
 20
236.2592828797
 11
756.3562578982
 21
236.409103885
  0
LINE
  5
3B2
100
AcDbEntity
  8
RUNDUNGEN
100
AcDbLine
 62
7
  6
CONTINUOUS
 10
750.5206738546
 20
186.4185133026
 11
763.1506238915
 21
193.7932090798
  0
LINE
  5
3B3
100
AcDbEntity
  8
RUNDUNGEN
100
AcDbLine
 62
7
  6
CONTINUOUS
 10
684.5581216061
 20
135.4469739694
 11
693.4767269432
 21
140.6545956089
  0
LINE
  5
3B4
100
AcDbEntity
  8
RUNDUNGEN
100
AcDbLine
 62
7
  6
CONTINUOUS
 10
730.8549021338
 20
162.4799132017
 11
771.6603513308
 21
186.3064345261
  0
LINE
  5
3B5
100
AcDbEntity
  8
0
100
AcDbLine
 62
7
  6
CONTINUOUS
 10
539.3840607892
 20
151.1611779273
 11
539.4622938774
 21
151.1697267566
  0
LINE
  5
3B6
100
AcDbEntity
  8
0
100
AcDbLine
 62
7
  6
CONTINUOUS
 10
503.6799708024
 20
180.5593139963
 11
503.7463176391
 21
180.5741259253
  0
LINE
  5
3B7
100
AcDbEntity
  8
0
100
AcDbLine
 62
7
  6
CONTINUOUS
 10
502.3645999824
 20
181.9823355519
 11
502.2982531422
 21
181.9675236269
  0
LINE
  5
3B8
100
AcDbEntity
  8
0
100
AcDbLine
 62
7
  6
CONTINUOUS
 10
502.8762158447
 20
180.6709935546
 11
502.9552305465
 21
180.6873191605
  0
LINE
  5
3B9
100
AcDbEntity
  8
0
100
AcDbLine
 62
7
  6
CONTINUOUS
 10
501.9569800987
 20
181.2572343649
 11
502.2730389061
 21
181.3225367887
  0
LINE
  5
3BA
100
AcDbEntity
  8
0
100
AcDbLine
 62
7
  6
CONTINUOUS
 10
502.3520536079
 20
181.3388623946
 11
502.4837447651
 21
181.3660717353
  0
LINE
  5
3BB
100
AcDbEntity
  8
0
100
AcDbLine
 62
7
  6
CONTINUOUS
 10
502.2252403284
 20
181.6453045871
 11
502.0935491712
 21
181.6180952465
  0
LINE
  5
3BC
100
AcDbEntity
  8
0
100
AcDbLine
 62
7
  6
CONTINUOUS
 10
502.0145344693
 20
181.6017696405
 11
501.7906594776
 21
181.5555137564
  0
LINE
  5
3BD
100
AcDbEntity
  8
0
100
AcDbLine
 62
7
  6
CONTINUOUS
 10
517.9728674549
 20
171.8428025406
 11
518.0511005431
 21
171.8513513699
  0
LINE
  5
3BE
100
AcDbEntity
  8
0
100
AcDbLine
 62
7
  6
CONTINUOUS
 10
500.9302793567
 20
182.8746429169
 11
500.8512646549
 21
182.858317311
  0
LINE
  5
3BF
100
AcDbEntity
  8
0
100
AcDbLine
 62
7
  6
CONTINUOUS
 10
494.7353828337
 20
189.7742535659
 11
494.637591482
 21
189.763567521
  0
LINE
  5
3C0
100
AcDbEntity
  8
0
100
AcDbLine
 62
7
  6
CONTINUOUS
 10
493.366303636
 20
191.3069729954
 11
493.4640949877
 21
191.3176589901
  0
LINE
  5
3C1
100
AcDbEntity
  8
0
100
AcDbLine
 62
7
  6
CONTINUOUS
 10
494.3088620878
 20
196.1655001013
 11
494.2110707361
 21
196.1548140564
  0
LINE
  5
3C2
100
AcDbEntity
  8
0
100
AcDbLine
 62
7
  6
CONTINUOUS
 10
494.3088620878
 20
196.7262745653
 11
494.2110707361
 21
196.715588721
  0
LINE
  5
3C3
100
AcDbEntity
  8
0
100
AcDbLine
 62
7
  6
CONTINUOUS
 10
494.3088620878
 20
197.7426786574
 11
494.2110707361
 21
197.7319926125
  0
LINE
  5
3C4
100
AcDbEntity
  8
0
100
AcDbLine
 62
7
  6
CONTINUOUS
 10
494.3088620878
 20
198.3034531214
 11
494.2110707361
 21
198.2927670765
  0
LINE
  5
3C5
100
AcDbEntity
  8
0
100
AcDbLine
 62
7
  6
CONTINUOUS
 10
354.744164293
 20
190.7002931944
 11
352.144164293
 21
190.7002931944
  0
LINE
  5
3C6
100
AcDbEntity
  8
0
100
AcDbLine
 62
7
  6
CONTINUOUS
 10
525.3392126454
 20
159.2858320236
 11
525.4386596053
 21
159.2620007702
  0
LINE
  5
3C7
100
AcDbEntity
  8
0
100
AcDbLine
 62
7
  6
CONTINUOUS
 10
525.2570223146
 20
159.4890689438
 11
525.117796548
 21
159.522432704
  0
LINE
  5
3C8
100
AcDbEntity
  8
0
100
AcDbLine
 62
7
  6
CONTINUOUS
 10
524.3116898
 20
160.4497703793
 11
524.4509155665
 21
160.4164066191
  0
LINE
  5
3C9
100
AcDbEntity
  8
0
100
AcDbLine
 62
7
  6
CONTINUOUS
 10
524.2294994974
 20
160.653007267
 11
524.1300525375
 21
160.6768385204
  0
LINE
  5
3CA
100
AcDbEntity
  8
0
100
AcDbLine
 62
7
  6
CONTINUOUS
 10
524.1467825554
 20
160.8930786566
 11
524.2462294868
 21
160.86924741
  0
LINE
  5
3CB
100
AcDbEntity
  8
0
100
AcDbLine
 62
7
  6
CONTINUOUS
 10
523.6264990232
 20
161.2380074504
 11
523.7458353864
 21
161.2094099436
  0
LINE
  5
3CC
100
AcDbEntity
  8
0
100
AcDbLine
 62
7
  6
CONTINUOUS
 10
523.5244193172
 20
161.4460105915
 11
523.4448617607
 21
161.4650755915
  0
LINE
  5
3CD
100
AcDbEntity
  8
0
100
AcDbLine
 62
7
  6
CONTINUOUS
 10
526.3565852851
 20
159.0545881176
 11
526.2533853893
 21
159.0808699139
  0
LINE
  5
3CE
100
AcDbEntity
  8
0
100
AcDbLine
 62
7
  6
CONTINUOUS
 10
524.8482595266
 20
160.7475241863
 11
524.951459264
 21
160.7212424708
  0
LINE
  5
3CF
100
AcDbEntity
  8
0
100
AcDbLine
 62
7
  6
CONTINUOUS
 10
352.144164293
 20
206.7470739907
 11
354.744164293
 21
206.7470739907
  0
LINE
  5
3D0
100
AcDbEntity
  8
0
100
AcDbLine
 62
7
  6
CONTINUOUS
 10
495.1889842531
 20
194.3340117587
 11
494.9934015497
 21
194.3476881481
  0
LINE
  5
3D1
100
AcDbEntity
  8
0
100
AcDbLine
 62
7
  6
CONTINUOUS
 10
495.0287568888
 20
189.2104886821
 11
495.2243395922
 21
189.1617639388
  0
LINE
  5
3D2
100
AcDbEntity
  8
0
100
AcDbLine
 62
7
  6
CONTINUOUS
 10
494.569137481
 20
189.5726438683
 11
494.5353701869
 21
189.5810561847
  0
LINE
  5
3D3
100
AcDbEntity
  8
0
100
AcDbLine
 62
7
  6
CONTINUOUS
 10
495.0287568888
 20
190.0166021245
 11
494.8331741854
 21
190.0653268929
  0
LINE
  5
3D4
100
AcDbEntity
  8
0
100
AcDbLine
 62
7
  6
CONTINUOUS
 10
497.0470201751
 20
191.5929798421
 11
497.2426029042
 21
191.5442550489
  0
LINE
  5
3D5
100
AcDbEntity
  8
0
100
AcDbLine
 62
7
  6
CONTINUOUS
 10
496.7536460858
 20
192.0165510677
 11
496.6558547341
 21
192.0409134018
  0
LINE
  5
3D6
100
AcDbEntity
  8
0
100
AcDbLine
 62
7
  6
CONTINUOUS
 10
503.5528255283
 20
180.5969549207
 11
503.6799708024
 21
180.5593139963
  0
LINE
  5
3D7
100
AcDbEntity
  8
0
100
AcDbLine
 62
7
  6
CONTINUOUS
 10
503.4819332022
 20
180.7902107789
 11
503.3547879281
 21
180.8278517034
  0
LINE
  5
3D8
100
AcDbEntity
  8
0
100
AcDbLine
 62
7
  6
CONTINUOUS
 10
502.8868173877
 20
181.2075685728
 11
502.7596721136
 21
181.2452094972
  0
LINE
  5
3D9
100
AcDbEntity
  8
0
100
AcDbLine
 62
7
  6
CONTINUOUS
 10
502.4032044276
 20
181.6608237125
 11
502.5515406212
 21
181.6169092887
  0
LINE
  5
3DA
100
AcDbEntity
  8
0
100
AcDbLine
 62
7
  6
CONTINUOUS
 10
502.5626375549
 20
181.7514388016
 11
502.689782829
 21
181.7137978772
  0
LINE
  5
3DB
100
AcDbEntity
  8
0
100
AcDbLine
 62
7
  6
CONTINUOUS
 10
502.4917452565
 20
181.9446946275
 11
502.3645999824
 21
181.9823355519
  0
LINE
  5
3DC
100
AcDbEntity
  8
0
100
AcDbLine
 62
7
  6
CONTINUOUS
 10
501.6774008669
 20
182.5992227681
 11
502.2919364392
 21
182.4172916094
  0
LINE
  5
3DD
100
AcDbEntity
  8
0
100
AcDbLine
 62
7
  6
CONTINUOUS
 10
502.0938988667
 20
182.6481883597
 11
501.3734089397
 21
182.8614869434
  0
LINE
  5
3DE
100
AcDbEntity
  8
0
100
AcDbLine
 62
7
  6
CONTINUOUS
 10
526.4293213536
 20
158.8591979451
 11
526.5601985363
 21
158.8187929805
  0
LINE
  5
3DF
100
AcDbEntity
  8
0
100
AcDbLine
 62
7
  6
CONTINUOUS
 10
524.7755233244
 20
160.9429144086
 11
524.6446461386
 21
160.983319377
  0
LINE
  5
3E0
100
AcDbEntity
  8
0
100
AcDbLine
 62
7
  6
CONTINUOUS
 10
528.5378100135
 20
158.4642025902
 11
528.2425427723
 21
158.5622169142
  0
LINE
  5
3E1
100
AcDbEntity
  8
0
100
AcDbLine
 62
7
  6
CONTINUOUS
 10
528.5985949649
 20
158.5229163447
 11
534.1099468861
 21
156.693416295
  0
LINE
  5
3E2
100
AcDbEntity
  8
0
100
AcDbLine
 62
7
  6
CONTINUOUS
 10
534.1099468861
 20
157.2110543852
 11
527.7820983839
 21
159.3115914792
  0
LINE
  5
3E3
100
AcDbEntity
  8
0
100
AcDbLine
 62
7
  6
CONTINUOUS
 10
539.2275946128
 20
151.2281964383
 11
539.3840607892
 21
151.1611779273
  0
LINE
  5
3E4
100
AcDbEntity
  8
0
100
AcDbLine
 62
7
  6
CONTINUOUS
 10
539.1493615041
 20
151.5000349211
 11
538.9928953414
 21
151.5670534389
  0
LINE
  5
3E5
100
AcDbEntity
  8
0
100
AcDbLine
 62
7
  6
CONTINUOUS
 10
343.3443063396
 20
217.7177650677
 11
363.5440222464
 21
217.7177650677
  0
LINE
  5
3E6
100
AcDbEntity
  8
0
100
AcDbLine
 62
7
  6
CONTINUOUS
 10
494.6022361429
 20
195.7068805297
 11
494.7000274946
 21
195.6825180954
  0
LINE
  5
3E7
100
AcDbEntity
  8
0
100
AcDbLine
 62
7
  6
CONTINUOUS
 10
493.0375742418
 20
196.3069690145
 11
492.8419915384
 21
196.3556937828
  0
LINE
  5
3E8
100
AcDbEntity
  8
0
100
AcDbLine
 62
7
  6
CONTINUOUS
 10
494.6022361429
 20
196.2676549938
 11
494.7000274946
 21
196.24329276
  0
LINE
  5
3E9
100
AcDbEntity
  8
0
100
AcDbLine
 62
7
  6
CONTINUOUS
 10
494.6022361429
 20
197.2840588853
 11
494.7000274946
 21
197.2596966515
  0
LINE
  5
3EA
100
AcDbEntity
  8
0
100
AcDbLine
 62
7
  6
CONTINUOUS
 10
494.6022361429
 20
197.8448337504
 11
494.7000274946
 21
197.8204711155
  0
LINE
  5
3EB
100
AcDbEntity
  8
0
100
AcDbLine
 62
7
  6
CONTINUOUS
 10
496.9845841625
 20
187.1811109531
 11
497.2779582432
 21
187.0729754093
  0
LINE
  5
3EC
100
AcDbEntity
  8
0
100
AcDbLine
 62
7
  6
CONTINUOUS
 10
517.8164012785
 20
171.9098210516
 11
517.9728674549
 21
171.8428025406
  0
LINE
  5
3ED
100
AcDbEntity
  8
0
100
AcDbLine
 62
7
  6
CONTINUOUS
 10
517.7381681697
 20
172.1816595344
 11
517.581702007
 21
172.2486780522
  0
LINE
  5
3EE
100
AcDbEntity
  8
0
100
AcDbLine
 62
7
  6
CONTINUOUS
 10
494.637591482
 20
189.763567521
 11
494.4420087786
 21
189.8473406433
  0
LINE
  5
3EF
100
AcDbEntity
  8
0
100
AcDbLine
 62
7
  6
CONTINUOUS
 10
495.4199222956
 20
189.4635233608
 11
495.615504999
 21
189.3797502135
  0
LINE
  5
3F0
100
AcDbEntity
  8
0
100
AcDbLine
 62
7
  6
CONTINUOUS
 10
496.8514374375
 20
191.6767529723
 11
497.0470201751
 21
191.5929798421
  0
LINE
  5
3F1
100
AcDbEntity
  8
0
100
AcDbLine
 62
7
  6
CONTINUOUS
 10
495.2867756048
 20
193.9942137134
 11
495.4823583082
 21
193.9104406664
  0
LINE
  5
3F2
100
AcDbEntity
  8
0
100
AcDbLine
 62
7
  6
CONTINUOUS
 10
493.3309482969
 20
195.8483494429
 11
493.5265310003
 21
195.7645762956
  0
LINE
  5
3F3
100
AcDbEntity
  8
0
100
AcDbLine
 62
7
  6
CONTINUOUS
 10
525.1994603346
 20
159.3560301634
 11
525.3392126454
 21
159.2858320236
  0
LINE
  5
3F4
100
AcDbEntity
  8
0
100
AcDbLine
 62
7
  6
CONTINUOUS
 10
524.3692518189
 20
160.5828091278
 11
524.2294994974
 21
160.653007267
  0
LINE
  5
3F5
100
AcDbEntity
  8
0
100
AcDbLine
 62
7
  6
CONTINUOUS
 10
523.6641716103
 20
161.3758124592
 11
523.5244193172
 21
161.4460105915
  0
LINE
  5
3F6
100
AcDbEntity
  8
0
100
AcDbLine
 62
7
  6
CONTINUOUS
 10
350.194164293
 20
239.7622603027
 11
356.694164293
 21
239.7622603027
  0
LINE
  5
3F7
100
AcDbEntity
  8
0
100
AcDbLine
 62
7
  6
CONTINUOUS
 10
356.694164293
 20
247.641432492
 11
350.194164293
 21
247.641432492
  0
LINE
  5
3F8
100
AcDbEntity
  8
RUNDUNGEN
100
AcDbLine
 62
7
  6
CONTINUOUS
 10
494.3282174646
 20
202.3816097762
 11
492.1786445899
 21
203.3342733368
  0
LINE
  5
3F9
100
AcDbEntity
  8
RUNDUNGEN
100
AcDbLine
 62
7
  6
CONTINUOUS
 10
484.9962178197
 20
212.1127759184
 11
487.1457906944
 21
211.1601123578
  0
LINE
  5
3FA
100
AcDbEntity
  8
RUNDUNGEN
100
AcDbLine
 62
7
  6
CONTINUOUS
 10
476.5828414642
 20
222.1587993918
 11
477.3940010395
 21
221.7993037085
  0
LINE
  5
3FB
100
AcDbEntity
  8
0
100
AcDbLine
 62
7
  6
CONTINUOUS
 10
493.1707209326
 20
191.7762786619
 11
492.8773468775
 21
191.9194626225
  0
LINE
  5
3FC
100
AcDbEntity
  8
0
100
AcDbLine
 62
7
  6
CONTINUOUS
 10
503.4072636557
 20
180.6745016999
 11
503.5528255283
 21
180.5969549207
  0
LINE
  5
3FD
100
AcDbEntity
  8
0
100
AcDbLine
 62
7
  6
CONTINUOUS
 10
502.6373071257
 20
181.8671478524
 11
502.4917452565
 21
181.9446946275
  0
LINE
  5
3FE
100
AcDbEntity
  8
0
100
AcDbLine
 62
7
  6
CONTINUOUS
 10
503.3547879281
 20
180.8278517034
 11
503.2304168571
 21
180.899125015
  0
LINE
  5
3FF
100
AcDbEntity
  8
0
100
AcDbLine
 62
7
  6
CONTINUOUS
 10
502.689782829
 20
181.7137978772
 11
502.8141539
 21
181.6425245656
  0
LINE
  5
400
100
AcDbEntity
  8
0
100
AcDbLine
 62
7
  6
CONTINUOUS
 10
503.1589877043
 20
182.2492100345
 11
503.250567075
 21
182.1958425586
  0
LINE
  5
401
100
AcDbEntity
  8
0
100
AcDbLine
 62
7
  6
CONTINUOUS
 10
502.8670810882
 20
182.7003430816
 11
502.7755017176
 21
182.7537105576
  0
LINE
  5
402
100
AcDbEntity
  8
0
100
AcDbLine
 62
7
  6
CONTINUOUS
 10
502.9365883421
 20
183.3105112959
 11
512.8967434505
 21
177.3354100382
  0
LINE
  5
403
100
AcDbEntity
  8
0
100
AcDbLine
 62
7
  6
CONTINUOUS
 10
512.8967434505
 20
177.701435442
 11
501.9365883421
 21
184.2764371222
  0
LINE
  5
404
100
AcDbEntity
  8
0
100
AcDbLine
 62
7
  6
CONTINUOUS
 10
525.117796548
 20
159.522432704
 11
525.0178230332
 21
159.5830983363
  0
LINE
  5
405
100
AcDbEntity
  8
0
100
AcDbLine
 62
7
  6
CONTINUOUS
 10
524.4509155665
 20
160.4164066191
 11
524.5508890529
 21
160.3557409936
  0
LINE
  5
406
100
AcDbEntity
  8
0
100
AcDbLine
 62
7
  6
CONTINUOUS
 10
523.7458353864
 20
161.2094099436
 11
523.8458089012
 21
161.1487443113
  0
LINE
  5
407
100
AcDbEntity
  8
0
100
AcDbLine
 62
7
  6
CONTINUOUS
 10
496.6912100731
 20
187.6747790244
 11
496.3978359495
 21
187.85301143
  0
LINE
  5
408
100
AcDbEntity
  8
0
100
AcDbLine
 62
7
  6
CONTINUOUS
 10
494.637591482
 20
189.4481317973
 11
495.0287568888
 21
189.2104886821
  0
LINE
  5
409
100
AcDbEntity
  8
0
100
AcDbLine
 62
7
  6
CONTINUOUS
 10
494.9603028878
 20
189.3350008158
 11
494.569137481
 21
189.5726438683
  0
LINE
  5
40A
100
AcDbEntity
  8
0
100
AcDbLine
 62
7
  6
CONTINUOUS
 10
495.4199222956
 20
189.7789590721
 11
495.0287568888
 21
190.0166021245
  0
LINE
  5
40B
100
AcDbEntity
  8
0
100
AcDbLine
 62
7
  6
CONTINUOUS
 10
493.4640949877
 20
191.3176589901
 11
493.6596776911
 21
191.1988374639
  0
LINE
  5
40C
100
AcDbEntity
  8
0
100
AcDbLine
 62
7
  6
CONTINUOUS
 10
496.6558547341
 20
192.0409134018
 11
496.4602719622
 21
192.1597350945
  0
LINE
  5
40D
100
AcDbEntity
  8
0
100
AcDbLine
 62
7
  6
CONTINUOUS
 10
492.9691202408
 20
195.6253677057
 11
492.9278523786
 21
195.6504389942
  0
LINE
  5
40E
100
AcDbEntity
  8
0
100
AcDbLine
 62
7
  6
CONTINUOUS
 10
493.4287396486
 20
196.069325962
 11
493.0375742418
 21
196.3069690145
  0
LINE
  5
40F
100
AcDbEntity
  8
0
100
AcDbLine
 62
7
  6
CONTINUOUS
 10
494.7000274946
 20
195.6825180954
 11
494.7978188463
 21
195.6231073824
  0
LINE
  5
410
100
AcDbEntity
  8
0
100
AcDbLine
 62
7
  6
CONTINUOUS
 10
494.6022361429
 20
195.9872677618
 11
494.3088620878
 21
196.1655001013
  0
LINE
  5
411
100
AcDbEntity
  8
0
100
AcDbLine
 62
7
  6
CONTINUOUS
 10
526.2280697888
 20
158.9882716925
 11
526.4293213536
 21
158.8591979451
  0
LINE
  5
412
100
AcDbEntity
  8
0
100
AcDbLine
 62
7
  6
CONTINUOUS
 10
524.9767748861
 20
160.813840665
 11
524.7755233244
 21
160.9429144086
  0
LINE
  5
413
100
AcDbEntity
  8
0
100
AcDbLine
 62
7
  6
CONTINUOUS
 10
526.2533853893
 20
159.0808699139
 11
526.0798112761
 21
159.1958204045
  0
LINE
  5
414
100
AcDbEntity
  8
0
100
AcDbLine
 62
7
  6
CONTINUOUS
 10
524.951459264
 20
160.7212424708
 11
525.1250335356
 21
160.6062918993
  0
LINE
  5
415
100
AcDbEntity
  8
RUNDUNGEN
100
AcDbLine
 62
7
  6
CONTINUOUS
 10
511.0262814843
 20
162.4799132017
 11
477.4504017903
 21
186.3064345261
  0
LINE
  5
416
100
AcDbEntity
  8
RUNDUNGEN
100
AcDbLine
 62
7
  6
CONTINUOUS
 10
552.6561180827
 20
138.8620374789
 11
545.3176369305
 21
144.0696591184
  0
LINE
  5
417
100
AcDbEntity
  8
RUNDUNGEN
100
AcDbLine
 62
7
  6
CONTINUOUS
 10
514.5618153902
 20
165.8949767112
 11
480.9859356962
 21
189.7214980355
  0
LINE
  5
418
100
AcDbEntity
  8
0
100
AcDbLine
 62
7
  6
CONTINUOUS
 10
294.944164293
 20
324.2940410101
 11
294.944164293
 21
396.7384779818
  0
LINE
  5
419
100
AcDbEntity
  8
0
100
AcDbLine
 62
7
  6
CONTINUOUS
 10
348.9642250533
 20
263.5635984333
 11
357.9241035327
 21
263.5635984333
  0
LINE
  5
41A
100
AcDbEntity
  8
0
100
AcDbLine
 62
7
  6
CONTINUOUS
 10
345.444164293
 20
264.9405417807
 11
345.6199390604
 21
264.9405417807
  0
LINE
  5
41B
100
AcDbEntity
  8
RUNDUNGEN
100
AcDbLine
 62
7
  6
CONTINUOUS
 10
361.2683895256
 20
264.9405417807
 11
361.444164293
 21
264.9405417807
  0
LINE
  5
41C
100
AcDbEntity
  8
0
100
AcDbLine
 62
7
  6
CONTINUOUS
 10
494.7000274946
 20
196.24329276
 11
494.7978188463
 21
196.1838818465
  0
LINE
  5
41D
100
AcDbEntity
  8
0
100
AcDbLine
 62
7
  6
CONTINUOUS
 10
494.5044447912
 20
196.6074531393
 11
494.3088620878
 21
196.7262745653
  0
LINE
  5
41E
100
AcDbEntity
  8
0
100
AcDbLine
 62
7
  6
CONTINUOUS
 10
494.7000274946
 20
197.2596966515
 11
494.7978188463
 21
197.200285738
  0
LINE
  5
41F
100
AcDbEntity
  8
0
100
AcDbLine
 62
7
  6
CONTINUOUS
 10
494.6022361429
 20
197.5644463178
 11
494.3088620878
 21
197.7426786574
  0
LINE
  5
420
100
AcDbEntity
  8
0
100
AcDbLine
 62
7
  6
CONTINUOUS
 10
494.7000274946
 20
197.8204711155
 11
494.7978188463
 21
197.7610606031
  0
LINE
  5
421
100
AcDbEntity
  8
0
100
AcDbLine
 62
7
  6
CONTINUOUS
 10
494.5044447912
 20
198.1846316954
 11
494.3088620878
 21
198.3034531214
  0
LINE
  5
422
100
AcDbEntity
  8
0
100
AcDbLine
 62
7
  6
CONTINUOUS
 10
493.5618863394
 20
191.5035871302
 11
493.1707209326
 21
191.7762786619
  0
LINE
  5
423
100
AcDbEntity
  8
RUNDUNGEN
100
AcDbLine
 62
7
  6
CONTINUOUS
 10
486.3490270496
 20
189.8335768121
 11
475.9567463291
 21
197.2082725893
  0
LINE
  5
424
100
AcDbEntity
  8
RUNDUNGEN
100
AcDbLine
 62
7
  6
CONTINUOUS
 10
530.7850068971
 20
162.597432135
 11
549.9847303789
 21
148.972692437
  0
LINE
  5
425
100
AcDbEntity
  8
0
100
AcDbLine
 62
7
  6
CONTINUOUS
 10
526.642971978
 20
159.9016285981
 11
526.7523459735
 21
159.8234100328
  0
LINE
  5
426
100
AcDbEntity
  8
0
100
AcDbLine
 62
7
  6
CONTINUOUS
 10
526.4526006389
 20
160.2730764364
 11
526.3432266433
 21
160.3512950016
  0
LINE
  5
427
100
AcDbEntity
  8
0
100
AcDbLine
 62
7
  6
CONTINUOUS
 10
495.615504999
 20
189.3797502135
 11
495.908879191
 21
189.1664692625
  0
LINE
  5
428
100
AcDbEntity
  8
0
100
AcDbLine
 62
7
  6
CONTINUOUS
 10
496.5580633824
 20
191.8900337409
 11
496.8514374375
 21
191.6767529723
  0
LINE
  5
429
100
AcDbEntity
  8
0
100
AcDbLine
 62
7
  6
CONTINUOUS
 10
495.4823583082
 20
194.1207311405
 11
495.1889842531
 21
194.3340117587
  0
LINE
  5
42A
100
AcDbEntity
  8
0
100
AcDbLine
 62
7
  6
CONTINUOUS
 10
493.5265310003
 20
195.7645762956
 11
493.8199050554
 21
195.5512954769
  0
LINE
  5
42B
100
AcDbEntity
  8
0
100
AcDbLine
 62
7
  6
CONTINUOUS
 10
524.9790973504
 20
159.5189620691
 11
525.1994603346
 21
159.3560301634
  0
LINE
  5
42C
100
AcDbEntity
  8
0
100
AcDbLine
 62
7
  6
CONTINUOUS
 10
524.5896147498
 20
160.4198772446
 11
524.3692518189
 21
160.5828091278
  0
LINE
  5
42D
100
AcDbEntity
  8
0
100
AcDbLine
 62
7
  6
CONTINUOUS
 10
523.8845345981
 20
161.2128805623
 11
523.6641716103
 21
161.3758124592
  0
LINE
  5
42E
100
AcDbEntity
  8
0
100
AcDbLine
 62
7
  6
CONTINUOUS
 10
496.4956273012
 20
187.5482617731
 11
496.9845841625
 21
187.1811109531
  0
LINE
  5
42F
100
AcDbEntity
  8
0
100
AcDbLine
 62
7
  6
CONTINUOUS
 10
503.1824866259
 20
180.8444072231
 11
503.4072636557
 21
180.6745016999
  0
LINE
  5
430
100
AcDbEntity
  8
0
100
AcDbLine
 62
7
  6
CONTINUOUS
 10
502.8620841451
 20
181.6972423413
 11
502.6373071257
 21
181.8671478524
  0
LINE
  5
431
100
AcDbEntity
  8
0
100
AcDbLine
 62
7
  6
CONTINUOUS
 10
525.0178230332
 20
159.5830983363
 11
524.8775441852
 21
159.6901308475
  0
LINE
  5
432
100
AcDbEntity
  8
0
100
AcDbLine
 62
7
  6
CONTINUOUS
 10
524.5508890529
 20
160.3557409936
 11
524.6911679008
 21
160.2487084824
  0
LINE
  5
433
100
AcDbEntity
  8
0
100
AcDbLine
 62
7
  6
CONTINUOUS
 10
523.8458089012
 20
161.1487443113
 11
523.9860877492
 21
161.0417118001
  0
LINE
  5
434
100
AcDbEntity
  8
0
100
AcDbLine
 62
7
  6
CONTINUOUS
 10
503.2304168571
 20
180.899125015
 11
503.0876291911
 21
181.0103041774
  0
LINE
  5
435
100
AcDbEntity
  8
0
100
AcDbLine
 62
7
  6
CONTINUOUS
 10
502.8141539
 20
181.6425245656
 11
502.956941566
 21
181.5313454032
  0
LINE
  5
436
100
AcDbEntity
  8
0
100
AcDbLine
 62
7
  6
CONTINUOUS
 10
538.91466226
 20
151.4743884334
 11
539.2275946128
 21
151.2281964383
  0
LINE
  5
437
100
AcDbEntity
  8
0
100
AcDbLine
 62
7
  6
CONTINUOUS
 10
495.1124785644
 20
189.215280239
 11
494.9603028878
 21
189.3350008158
  0
LINE
  5
438
100
AcDbEntity
  8
0
100
AcDbLine
 62
7
  6
CONTINUOUS
 10
517.5034689257
 20
172.1560130467
 11
517.8164012785
 21
171.9098210516
  0
LINE
  5
439
100
AcDbEntity
  8
0
100
AcDbLine
 62
7
  6
CONTINUOUS
 10
495.8110878394
 20
189.4712189288
 11
495.4199222956
 21
189.7789590721
  0
LINE
  5
43A
100
AcDbEntity
  8
0
100
AcDbLine
 62
7
  6
CONTINUOUS
 10
493.6596776911
 20
191.1988374639
 11
493.8552603945
 21
191.0449674584
  0
LINE
  5
43B
100
AcDbEntity
  8
0
100
AcDbLine
 62
7
  6
CONTINUOUS
 10
496.4602719622
 20
192.1597350945
 11
496.2646892588
 21
192.3136049996
  0
LINE
  5
43C
100
AcDbEntity
  8
0
100
AcDbLine
 62
7
  6
CONTINUOUS
 10
495.4823583082
 20
193.9104406664
 11
495.873523852
 21
193.6027005231
  0
LINE
  5
43D
100
AcDbEntity
  8
0
100
AcDbLine
 62
7
  6
CONTINUOUS
 10
494.7978188463
 20
195.6231073824
 11
494.9934015497
 21
195.4692372767
  0
LINE
  5
43E
100
AcDbEntity
  8
0
100
AcDbLine
 62
7
  6
CONTINUOUS
 10
494.7978188463
 20
196.1838818465
 11
494.9934015497
 21
196.0300119413
  0
LINE
  5
43F
100
AcDbEntity
  8
0
100
AcDbLine
 62
7
  6
CONTINUOUS
 10
494.7978188463
 20
197.200285738
 11
494.9934015497
 21
197.0464160333
  0
LINE
  5
440
100
AcDbEntity
  8
0
100
AcDbLine
 62
7
  6
CONTINUOUS
 10
525.9841212905
 20
159.1918909699
 11
526.2280697888
 21
158.9882716925
  0
LINE
  5
441
100
AcDbEntity
  8
0
100
AcDbLine
 62
7
  6
CONTINUOUS
 10
525.2207235335
 20
160.6102213184
 11
524.9767748861
 21
160.813840665
  0
LINE
  5
442
100
AcDbEntity
  8
0
100
AcDbLine
 62
7
  6
CONTINUOUS
 10
524.6911679008
 20
160.2487084824
 11
524.8115573739
 21
160.1464422178
  0
LINE
  5
443
100
AcDbEntity
  8
0
100
AcDbLine
 62
7
  6
CONTINUOUS
 10
524.7701989309
 20
160.2664778545
 11
524.5896147498
 21
160.4198772446
  0
LINE
  5
444
100
AcDbEntity
  8
0
100
AcDbLine
 62
7
  6
CONTINUOUS
 10
526.0798112761
 20
159.1958204045
 11
525.9264047134
 21
159.3268588576
  0
LINE
  5
445
100
AcDbEntity
  8
0
100
AcDbLine
 62
7
  6
CONTINUOUS
 10
525.1250335356
 20
160.6062918993
 11
525.2784400983
 21
160.4752534462
  0
LINE
  5
446
100
AcDbEntity
  8
RUNDUNGEN
100
AcDbLine
 62
7
  6
CONTINUOUS
 10
372.8704562995
 20
241.7407195254
 11
367.3704562995
 21
249.3278872645
  0
LINE
  5
447
100
AcDbEntity
  8
0
100
AcDbLine
 62
7
  6
CONTINUOUS
 10
320.944164293
 20
324.2940410101
 11
320.944164293
 21
396.7384779818
  0
LINE
  5
448
100
AcDbEntity
  8
0
100
AcDbLine
 62
7
  6
CONTINUOUS
 10
350.1124461081
 20
286.5000493054
 11
356.7758824779
 21
286.5000493054
  0
LINE
  5
449
100
AcDbEntity
  8
0
100
AcDbLine
 62
7
  6
CONTINUOUS
 10
494.7978188463
 20
197.7610606031
 11
494.9934015497
 21
197.6071904974
  0
LINE
  5
44A
100
AcDbEntity
  8
0
100
AcDbLine
 62
7
  6
CONTINUOUS
 10
494.9934015497
 20
196.2052541368
 11
494.5044447912
 21
196.6074531393
  0
LINE
  5
44B
100
AcDbEntity
  8
0
100
AcDbLine
 62
7
  6
CONTINUOUS
 10
494.9934015497
 20
197.7824326929
 11
494.5044447912
 21
198.1846316954
  0
LINE
  5
44C
100
AcDbEntity
  8
0
100
AcDbLine
 62
7
  6
CONTINUOUS
 10
538.9928953414
 20
151.5670534389
 11
538.7581960425
 21
151.7657168499
  0
LINE
  5
44D
100
AcDbEntity
  8
0
100
AcDbLine
 62
7
  6
CONTINUOUS
 10
496.3978359495
 20
187.85301143
 11
496.1044618944
 21
188.1013406026
  0
LINE
  5
44E
100
AcDbEntity
  8
0
100
AcDbLine
 62
7
  6
CONTINUOUS
 10
494.4420087786
 20
189.8473406433
 11
494.1486347235
 21
190.0956698158
  0
LINE
  5
44F
100
AcDbEntity
  8
0
100
AcDbLine
 62
7
  6
CONTINUOUS
 10
493.8552603945
 20
191.2552579326
 11
493.5618863394
 21
191.5035871302
  0
LINE
  5
450
100
AcDbEntity
  8
0
100
AcDbLine
 62
7
  6
CONTINUOUS
 10
517.581702007
 20
172.2486780522
 11
517.3470027082
 21
172.4473414632
  0
LINE
  5
451
100
AcDbEntity
  8
0
100
AcDbLine
 62
7
  6
CONTINUOUS
 10
496.2646892588
 20
192.1383629546
 11
496.5580633824
 21
191.8900337409
  0
LINE
  5
452
100
AcDbEntity
  8
0
100
AcDbLine
 62
7
  6
CONTINUOUS
 10
496.1044618944
 20
187.8910501285
 11
496.4956273012
 21
187.5482617731
  0
LINE
  5
453
100
AcDbEntity
  8
0
100
AcDbLine
 62
7
  6
CONTINUOUS
 10
494.2464260752
 20
189.7909201495
 11
494.637591482
 21
189.4481317973
  0
LINE
  5
454
100
AcDbEntity
  8
0
100
AcDbLine
 62
7
  6
CONTINUOUS
 10
493.0303719416
 20
195.5716912677
 11
492.9691202408
 21
195.6253677057
  0
LINE
  5
455
100
AcDbEntity
  8
0
100
AcDbLine
 62
7
  6
CONTINUOUS
 10
495.873523852
 20
193.7779425181
 11
495.4823583082
 21
194.1207311405
  0
LINE
  5
456
100
AcDbEntity
  8
0
100
AcDbLine
 62
7
  6
CONTINUOUS
 10
493.8199050554
 20
195.7265376724
 11
493.4287396486
 21
196.069325962
  0
LINE
  5
457
100
AcDbEntity
  8
0
100
AcDbLine
 62
7
  6
CONTINUOUS
 10
524.758207822
 20
159.7187283543
 11
524.9790973504
 21
159.5189620691
  0
LINE
  5
458
100
AcDbEntity
  8
0
100
AcDbLine
 62
7
  6
CONTINUOUS
 10
524.1054241124
 20
161.0131142933
 11
523.8845345981
 21
161.2128805623
  0
LINE
  5
459
100
AcDbEntity
  8
0
100
AcDbLine
 62
7
  6
CONTINUOUS
 10
502.960483917
 20
181.0479451018
 11
503.1824866259
 21
180.8444072231
  0
LINE
  5
45A
100
AcDbEntity
  8
0
100
AcDbLine
 62
7
  6
CONTINUOUS
 10
503.0840868401
 20
181.4937044788
 11
502.8620841451
 21
181.6972423413
  0
LINE
  5
45B
100
AcDbEntity
  8
0
100
AcDbLine
 62
7
  6
CONTINUOUS
 10
524.8775441852
 20
159.6901308475
 11
524.716849365
 21
159.8387640201
  0
LINE
  5
45C
100
AcDbEntity
  8
0
100
AcDbLine
 62
7
  6
CONTINUOUS
 10
523.9860877492
 20
161.0417118001
 11
524.1467825554
 21
160.8930786566
  0
LINE
  5
45D
100
AcDbEntity
  8
0
100
AcDbLine
 62
7
  6
CONTINUOUS
 10
525.7955275275
 20
159.3672638261
 11
525.9841212905
 21
159.1918909699
  0
LINE
  5
45E
100
AcDbEntity
  8
0
100
AcDbLine
 62
7
  6
CONTINUOUS
 10
525.4093172842
 20
160.4348484778
 11
525.2207235335
 21
160.6102213184
  0
LINE
  5
45F
100
AcDbEntity
  8
0
100
AcDbLine
 62
7
  6
CONTINUOUS
 10
502.956941566
 20
181.5313454032
 11
503.1181458271
 21
181.3802603902
  0
LINE
  5
460
100
AcDbEntity
  8
RUNDUNGEN
100
AcDbLine
 62
7
  6
CONTINUOUS
 10
557.4444706653
 20
112.4417750203
 11
548.882675199
 21
120.7118343806
  0
LINE
  5
461
100
AcDbEntity
  8
KONSTRUKTIONSELEMENTE
100
AcDbLine
 62
7
  6
CONTINUOUS
 10
470.0769729871
 20
198.529099125
 11
461.662402291
 21
206.6569502775
  0
LINE
  5
462
100
AcDbEntity
  8
KONSTRUKTIONSELEMENTE
100
AcDbLine
 62
7
  6
CONTINUOUS
 10
408.9122364144
 20
257.6096978387
 11
400.4976657183
 21
265.7375489912
  0
LINE
  5
463
100
AcDbEntity
  8
KONSTRUKTIONSELEMENTE
100
AcDbLine
 62
7
  6
CONTINUOUS
 10
441.8603223701
 20
227.9077057801
 11
431.2537206523
 21
238.1528963085
  0
LINE
  5
464
100
AcDbEntity
  8
RUNDUNGEN
100
AcDbLine
 62
7
  6
CONTINUOUS
 10
560.9800045712
 20
115.8568385297
 11
552.4182091049
 21
124.12689789
  0
LINE
  5
465
100
AcDbEntity
  8
KONSTRUKTIONSELEMENTE
100
AcDbLine
 62
7
  6
CONTINUOUS
 10
473.5507059401
 20
202.1253721084
 11
465.136135244
 21
210.2532232609
  0
LINE
  5
466
100
AcDbEntity
  8
KONSTRUKTIONSELEMENTE
100
AcDbLine
 62
7
  6
CONTINUOUS
 10
412.3859693675
 20
261.2059708221
 11
405.5526439549
 21
267.8064563175
  0
LINE
  5
467
100
AcDbEntity
  8
RUNDUNGEN
100
AcDbLine
 62
7
  6
CONTINUOUS
 10
558.8586842277
 20
120.4940670864
 11
564.8690918678
 21
114.6884591203
  0
LINE
  5
468
100
AcDbEntity
  8
KONSTRUKTIONSELEMENTE
100
AcDbLine
 62
7
  6
CONTINUOUS
 10
444.9866820278
 20
231.1443514651
 11
434.38008031
 21
241.3895419935
  0
LINE
  5
469
100
AcDbEntity
  8
KONSTRUKTIONSELEMENTE
100
AcDbLine
 62
7
  6
CONTINUOUS
 10
419.763235458
 20
255.6182892766
 11
430.3698371758
 21
245.3730987482
  0
LINE
  5
46A
100
AcDbEntity
  8
KONSTRUKTIONSELEMENTE
100
AcDbLine
 62
7
  6
CONTINUOUS
 10
450.8759338302
 20
225.5657303934
 11
461.482535548
 21
215.320539865
  0
LINE
  5
46B
100
AcDbEntity
  8
0
100
AcDbLine
 62
7
  6
CONTINUOUS
 10
491.5774739978
 20
186.6474113744
 11
498.7546078268
 21
179.7148324502
  0
LINE
  5
46C
100
AcDbEntity
  8
0
100
AcDbLine
 62
7
  6
CONTINUOUS
 10
498.294988419
 20
180.288200229
 11
491.9310273884
 21
186.435314546
  0
LINE
  5
46D
100
AcDbEntity
  8
0
100
AcDbLine
 62
7
  6
CONTINUOUS
 10
540.4739079168
 20
143.04054967
 11
523.5033451683
 21
159.4328545154
  0
LINE
  5
46E
100
AcDbEntity
  8
0
100
AcDbLine
 62
7
  6
CONTINUOUS
 10
519.2607044812
 20
163.5309307268
 11
502.2901417327
 21
179.9232355722
  0
LINE
  5
46F
100
AcDbEntity
  8
0
100
AcDbLine
 62
7
  6
CONTINUOUS
 10
540.1203545262
 20
143.5114655435
 11
534.4635002767
 21
148.9755671587
  0
LINE
  5
470
100
AcDbEntity
  8
0
100
AcDbLine
 62
7
  6
CONTINUOUS
 10
533.6503274784
 20
149.7610317658
 11
525.3771781385
 21
157.752280378
  0
LINE
  5
471
100
AcDbEntity
  8
0
100
AcDbLine
 62
7
  6
CONTINUOUS
 10
524.9175587307
 20
158.1962386342
 11
523.5033451683
 21
159.562264038
  0
LINE
  5
472
100
AcDbEntity
  8
0
100
AcDbLine
 62
7
  6
CONTINUOUS
 10
518.9071510906
 20
164.0018466003
 11
513.2502968411
 21
169.4659482154
  0
LINE
  5
473
100
AcDbEntity
  8
0
100
AcDbLine
 62
7
  6
CONTINUOUS
 10
512.6492560771
 20
170.046509012
 11
503.4568679217
 21
178.9256741366
  0
LINE
  5
474
100
AcDbEntity
  8
0
100
AcDbLine
 62
7
  6
CONTINUOUS
 10
502.9972485139
 20
179.3696323929
 11
502.2901417327
 21
180.0526450947
  0
LINE
  5
475
100
AcDbEntity
  8
0
100
AcDbLine
 62
7
  6
CONTINUOUS
 10
491.9310273884
 20
191.352876403
 11
498.294988419
 21
185.205762086
  0
LINE
  5
476
100
AcDbEntity
  8
0
100
AcDbLine
 62
7
  6
CONTINUOUS
 10
498.7546078268
 20
184.8912133523
 11
491.5774739978
 21
191.8237922765
  0
LINE
  5
477
100
AcDbEntity
  8
0
100
AcDbLine
 62
7
  6
CONTINUOUS
 10
493.8552603945
 20
190.1687571829
 11
494.2464260752
 21
189.7909201495
  0
LINE
  5
478
100
AcDbEntity
  8
KONSTRUKTIONSELEMENTE
100
AcDbLine
 62
7
  6
CONTINUOUS
 10
422.8895951157
 20
258.8549349617
 11
433.4961968335
 21
248.6097444333
  0
LINE
  5
479
100
AcDbEntity
  8
KONSTRUKTIONSELEMENTE
100
AcDbLine
 62
7
  6
CONTINUOUS
 10
454.002293488
 20
228.8023760784
 11
464.6088952058
 21
218.55718555
  0
LINE
  5
47A
100
AcDbEntity
  8
0
100
AcDbLine
 62
7
  6
CONTINUOUS
 10
494.1486347235
 20
190.0956698158
 11
493.9530520201
 21
190.2845882002
  0
LINE
  5
47B
100
AcDbEntity
  8
0
100
AcDbLine
 62
7
  6
CONTINUOUS
 10
495.908879191
 20
189.1664692625
 11
496.2022532461
 21
188.8830916859
  0
LINE
  5
47C
100
AcDbEntity
  8
0
100
AcDbLine
 62
7
  6
CONTINUOUS
 10
496.3000445978
 20
188.9989229679
 11
495.8110878394
 21
189.4712189288
  0
LINE
  5
47D
100
AcDbEntity
  8
KONSTRUKTIONSELEMENTE
100
AcDbLine
 62
7
  6
CONTINUOUS
 10
464.4028979903
 20
221.7325825992
 11
455.002427274
 21
230.8127400434
  0
LINE
  5
47E
100
AcDbEntity
  8
KONSTRUKTIONSELEMENTE
100
AcDbLine
 62
7
  6
CONTINUOUS
 10
433.4961968335
 20
251.586163452
 11
424.3485122353
 21
260.4221482562
  0
LINE
  5
47F
100
AcDbEntity
  8
KONSTRUKTIONSELEMENTE
100
AcDbLine
 62
7
  6
CONTINUOUS
 10
439.3854486359
 20
246.0075423802
 11
449.9920503537
 21
235.7623518518
  0
LINE
  5
480
100
AcDbEntity
  8
0
100
AcDbLine
 62
7
  6
CONTINUOUS
 10
493.4287396486
 20
194.1767116946
 11
494.2110707361
 21
193.4210378925
  0
LINE
  5
481
100
AcDbEntity
  8
0
100
AcDbLine
 62
7
  6
CONTINUOUS
 10
493.5265310003
 20
194.2925429766
 11
497.3403942644
 21
190.6086339518
  0
LINE
  5
482
100
AcDbEntity
  8
RUNDUNGEN
100
AcDbLine
 62
7
  6
CONTINUOUS
 10
561.3335579618
 20
128.8730906778
 11
555.3231503217
 21
134.6786986439
  0
LINE
  5
483
100
AcDbEntity
  8
0
100
AcDbLine
 62
7
  6
CONTINUOUS
 10
497.3403942644
 20
190.818924426
 11
492.7442001867
 21
195.2585069883
  0
LINE
  5
484
100
AcDbEntity
  8
0
100
AcDbLine
 62
7
  6
CONTINUOUS
 10
515.6258748087
 20
173.7453198498
 11
515.9388071341
 21
173.4430504348
  0
LINE
  5
485
100
AcDbEntity
  8
0
100
AcDbLine
 62
7
  6
CONTINUOUS
 10
537.037068143
 20
153.0636952365
 11
537.3500004685
 21
152.7614258215
  0
LINE
  5
486
100
AcDbEntity
  8
KONSTRUKTIONSELEMENTE
100
AcDbLine
 62
7
  6
CONTINUOUS
 10
410.4678713331
 20
275.3680280879
 11
414.4983799858
 21
271.4748556871
  0
LINE
  5
487
100
AcDbEntity
  8
KONSTRUKTIONSELEMENTE
100
AcDbLine
 62
7
  6
CONTINUOUS
 10
414.8519333764
 20
271.1333493362
 11
418.8824420292
 21
267.2401769354
  0
LINE
  5
488
100
AcDbEntity
  8
KONSTRUKTIONSELEMENTE
100
AcDbLine
 62
7
  6
CONTINUOUS
 10
471.6326079057
 20
216.2874293742
 11
475.6631165585
 21
212.3942569734
  0
LINE
  5
489
100
AcDbEntity
  8
KONSTRUKTIONSELEMENTE
100
AcDbLine
 62
7
  6
CONTINUOUS
 10
476.0166699491
 20
212.0527506225
 11
480.0471786018
 21
208.1595782217
  0
LINE
  5
48A
100
AcDbEntity
  8
0
100
AcDbLine
 62
7
  6
CONTINUOUS
 10
515.0000099387
 20
174.5741687373
 11
515.6258748087
 21
173.9696296956
  0
LINE
  5
48B
100
AcDbEntity
  8
0
100
AcDbLine
 62
7
  6
CONTINUOUS
 10
515.9388071341
 20
173.6673602806
 11
517.5034689257
 21
172.1560130467
  0
LINE
  5
48C
100
AcDbEntity
  8
0
100
AcDbLine
 62
7
  6
CONTINUOUS
 10
536.411203273
 20
153.892544124
 11
537.037068143
 21
153.2880050823
  0
LINE
  5
48D
100
AcDbEntity
  8
0
100
AcDbLine
 62
7
  6
CONTINUOUS
 10
537.3500004685
 20
152.9857356673
 11
538.91466226
 21
151.4743884334
  0
LINE
  5
48E
100
AcDbEntity
  8
0
100
AcDbLine
 62
7
  6
CONTINUOUS
 10
494.7978188463
 20
194.1160255842
 11
495.1889842531
 21
193.7381888154
  0
LINE
  5
48F
100
AcDbEntity
  8
0
100
AcDbLine
 62
7
  6
CONTINUOUS
 10
538.7581960425
 20
151.7657168499
 11
537.3500004685
 21
153.1259293234
  0
LINE
  5
490
100
AcDbEntity
  8
0
100
AcDbLine
 62
7
  6
CONTINUOUS
 10
537.037068143
 20
153.4281987384
 11
536.411203273
 21
154.0327377801
  0
LINE
  5
491
100
AcDbEntity
  8
0
100
AcDbLine
 62
7
  6
CONTINUOUS
 10
517.3470027082
 20
172.4473414632
 11
515.9388071341
 21
173.8075539367
  0
LINE
  5
492
100
AcDbEntity
  8
0
100
AcDbLine
 62
7
  6
CONTINUOUS
 10
515.6258748087
 20
174.1098233517
 11
515.0000099387
 21
174.7143623934
  0
LINE
  5
493
100
AcDbEntity
  8
0
100
AcDbLine
 62
7
  6
CONTINUOUS
 10
539.5405269657
 20
151.2623917755
 11
539.2275946128
 21
151.564661217
  0
LINE
  5
494
100
AcDbEntity
  8
0
100
AcDbLine
 62
7
  6
CONTINUOUS
 10
518.1293336313
 20
171.9440163888
 11
517.8164012785
 21
172.2462858303
  0
LINE
  5
495
100
AcDbEntity
  8
0
100
AcDbLine
 62
7
  6
CONTINUOUS
 10
537.3500004685
 20
153.4343553387
 11
537.037068143
 21
153.7366247538
  0
LINE
  5
496
100
AcDbEntity
  8
0
100
AcDbLine
 62
7
  6
CONTINUOUS
 10
515.9388071341
 20
174.115979952
 11
515.6258748087
 21
174.4182493671
  0
LINE
  5
497
100
AcDbEntity
  8
0
100
AcDbLine
 62
7
  6
CONTINUOUS
 10
493.8199050554
 20
195.5512954769
 11
494.0154880328
 21
195.3623768279
  0
LINE
  5
498
100
AcDbEntity
  8
0
100
AcDbLine
 62
7
  6
CONTINUOUS
 10
495.873523852
 20
193.6027005231
 11
496.2646892588
 21
193.2248637544
  0
LINE
  5
499
100
AcDbEntity
  8
0
100
AcDbLine
 62
7
  6
CONTINUOUS
 10
494.0154880328
 20
195.5376190234
 11
493.8199050554
 21
195.7265376724
  0
LINE
  5
49A
100
AcDbEntity
  8
0
100
AcDbLine
 62
7
  6
CONTINUOUS
 10
496.2646892588
 20
193.4001057493
 11
495.873523852
 21
193.7779425181
  0
LINE
  5
49B
100
AcDbEntity
  8
0
100
AcDbLine
 62
7
  6
CONTINUOUS
 10
513.2502968411
 20
177.2305195685
 11
518.9071510906
 21
171.7664179534
  0
LINE
  5
49C
100
AcDbEntity
  8
0
100
AcDbLine
 62
7
  6
CONTINUOUS
 10
534.4635002767
 20
156.7401385117
 11
540.1203545262
 21
151.2760368966
  0
LINE
  5
49D
100
AcDbEntity
  8
0
100
AcDbLine
 62
7
  6
CONTINUOUS
 10
494.2110707361
 20
195.6641363502
 11
497.3403942644
 21
192.6414419354
  0
LINE
  5
49E
100
AcDbEntity
  8
0
100
AcDbLine
 62
7
  6
CONTINUOUS
 10
540.4739079168
 20
151.0639400682
 11
534.1099468861
 21
157.2110543852
  0
LINE
  5
49F
100
AcDbEntity
  8
0
100
AcDbLine
 62
7
  6
CONTINUOUS
 10
519.2607044812
 20
171.554321125
 11
512.8967434505
 21
177.701435442
  0
LINE
  5
4A0
100
AcDbEntity
  8
0
100
AcDbLine
 62
7
  6
CONTINUOUS
 10
494.5044447912
 20
195.5560007686
 11
494.2110707361
 21
195.8393783452
  0
LINE
  5
4A1
100
AcDbEntity
  8
0
100
AcDbLine
 62
7
  6
CONTINUOUS
 10
497.3403942644
 20
192.8166839304
 11
494.895610198
 21
195.1781639998
  0
LINE
  5
4A2
100
AcDbEntity
  8
0
100
AcDbLine
 62
7
  6
CONTINUOUS
 10
494.9934015497
 20
195.4692372767
 11
497.3403942644
 21
193.2022163995
  0
LINE
  5
4A3
100
AcDbEntity
  8
0
100
AcDbLine
 62
7
  6
CONTINUOUS
 10
497.3403942644
 20
193.3774585949
 11
494.9934015497
 21
195.6444794722
  0
LINE
  5
4A4
100
AcDbEntity
  8
0
100
AcDbLine
 62
7
  6
CONTINUOUS
 10
494.9934015497
 20
196.0300119413
 11
497.3403942644
 21
193.762991064
  0
LINE
  5
4A5
100
AcDbEntity
  8
0
100
AcDbLine
 62
7
  6
CONTINUOUS
 10
497.3403942644
 20
193.9382332595
 11
494.9934015497
 21
196.2052541368
  0
LINE
  5
4A6
100
AcDbEntity
  8
0
100
AcDbLine
 62
7
  6
CONTINUOUS
 10
494.2110707361
 20
197.2413147058
 11
497.3403942644
 21
194.218620291
  0
LINE
  5
4A7
100
AcDbEntity
  8
0
100
AcDbLine
 62
7
  6
CONTINUOUS
 10
497.3403942644
 20
194.3938624865
 11
494.895610198
 21
196.7553425559
  0
LINE
  5
4A8
100
AcDbEntity
  8
0
100
AcDbLine
 62
7
  6
CONTINUOUS
 10
494.5044447912
 20
197.1331793247
 11
494.2110707361
 21
197.4165569013
  0
LINE
  5
4A9
100
AcDbEntity
  8
0
100
AcDbLine
 62
7
  6
CONTINUOUS
 10
494.9934015497
 20
197.0464160333
 11
497.3403942644
 21
194.7793951561
  0
LINE
  5
4AA
100
AcDbEntity
  8
0
100
AcDbLine
 62
7
  6
CONTINUOUS
 10
497.3403942644
 20
194.9546369505
 11
494.9934015497
 21
197.2216578277
  0
LINE
  5
4AB
100
AcDbEntity
  8
0
100
AcDbLine
 62
7
  6
CONTINUOUS
 10
494.9934015497
 20
197.6071904974
 11
497.3403942644
 21
195.3401696201
  0
LINE
  5
4AC
100
AcDbEntity
  8
0
100
AcDbLine
 62
7
  6
CONTINUOUS
 10
497.3403942644
 20
195.5154118156
 11
494.9934015497
 21
197.7824326929
  0
LINE
  5
4AD
100
AcDbEntity
  8
KONSTRUKTIONSELEMENTE
100
AcDbLine
 62
7
  6
CONTINUOUS
 10
442.5118082937
 20
249.2441880653
 11
453.1184100115
 21
238.9989975369
  0
LINE
  5
4AE
100
AcDbEntity
  8
RUNDUNGEN
100
AcDbLine
 62
7
  6
CONTINUOUS
 10
564.8690918678
 20
132.2881541873
 11
558.8586842277
 21
138.0937621534
  0
LINE
  5
4AF
100
AcDbEntity
  8
KONSTRUKTIONSELEMENTE
100
AcDbLine
 62
7
  6
CONTINUOUS
 10
413.9416042861
 20
278.9643010713
 11
417.9721129389
 21
275.0711286705
  0
LINE
  5
4B0
100
AcDbEntity
  8
KONSTRUKTIONSELEMENTE
100
AcDbLine
 62
7
  6
CONTINUOUS
 10
418.3256663295
 20
274.7296223195
 11
422.3561749822
 21
270.8364499187
  0
LINE
  5
4B1
100
AcDbEntity
  8
KONSTRUKTIONSELEMENTE
100
AcDbLine
 62
7
  6
CONTINUOUS
 10
475.1063408587
 20
219.8837023576
 11
479.1368495115
 21
215.9905299568
  0
LINE
  5
4B2
100
AcDbEntity
  8
KONSTRUKTIONSELEMENTE
100
AcDbLine
 62
7
  6
CONTINUOUS
 10
479.4904029021
 20
215.6490236059
 11
483.5209115549
 21
211.7558512051
  0
LINE
  5
4B3
100
AcDbEntity
  8
0
100
AcDbLine
 62
7
  6
CONTINUOUS
 10
502.7596721136
 20
181.2452094972
 11
502.960483917
 21
181.0479451018
  0
LINE
  5
4B4
100
AcDbEntity
  8
0
100
AcDbLine
 62
7
  6
CONTINUOUS
 10
503.0876291911
 20
181.0103041774
 11
502.8868173877
 21
181.2075685728
  0
LINE
  5
4B5
100
AcDbEntity
  8
0
100
AcDbLine
 62
7
  6
CONTINUOUS
 10
524.5169023408
 20
159.9600952834
 11
524.758207822
 21
159.7187283543
  0
LINE
  5
4B6
100
AcDbEntity
  8
0
100
AcDbLine
 62
7
  6
CONTINUOUS
 10
525.0115044034
 20
160.0251109532
 11
524.7701989309
 21
160.2664778545
  0
LINE
  5
4B7
100
AcDbEntity
  8
0
100
AcDbLine
 62
7
  6
CONTINUOUS
 10
525.9264047134
 20
159.3268588576
 11
525.6045719259
 21
159.649358145
  0
LINE
  5
4B8
100
AcDbEntity
  8
0
100
AcDbLine
 62
7
  6
CONTINUOUS
 10
525.2784400983
 20
160.4752534462
 11
525.6002728013
 21
160.1527541466
  0
LINE
  5
4B9
100
AcDbEntity
  8
0
100
AcDbLine
 62
7
  6
CONTINUOUS
 10
502.9395797934
 20
182.4707441911
 11
503.1589877043
 21
182.2492100345
  0
LINE
  5
4BA
100
AcDbEntity
  8
0
100
AcDbLine
 62
7
  6
CONTINUOUS
 10
503.086489182
 20
182.4788086845
 11
502.8670810882
 21
182.7003430816
  0
LINE
  5
4BB
100
AcDbEntity
  8
0
100
AcDbLine
 62
7
  6
CONTINUOUS
 10
503.3245061857
 20
181.250260701
 11
503.0840868401
 21
181.4937044788
  0
LINE
  5
4BC
100
AcDbEntity
  8
0
100
AcDbLine
 62
7
  6
CONTINUOUS
 10
524.716849365
 20
159.8387640201
 11
524.5760439764
 21
159.9826309068
  0
LINE
  5
4BD
100
AcDbEntity
  8
0
100
AcDbLine
 62
7
  6
CONTINUOUS
 10
524.8115573739
 20
160.1464422178
 11
524.9523628047
 21
160.0025752696
  0
LINE
  5
4BE
100
AcDbEntity
  8
0
100
AcDbLine
 62
7
  6
CONTINUOUS
 10
524.2462294868
 20
160.86924741
 11
524.1054241124
 21
161.0131142933
  0
LINE
  5
4BF
100
AcDbEntity
  8
0
100
AcDbLine
 62
7
  6
CONTINUOUS
 10
503.1181458271
 20
181.3802603902
 11
503.2581593455
 21
181.235448776
  0
LINE
  5
4C0
100
AcDbEntity
  8
0
100
AcDbLine
 62
7
  6
CONTINUOUS
 10
350.194164293
 20
239.7622603027
 11
348.7072500036
 21
259.0110941415
  0
LINE
  5
4C1
100
AcDbEntity
  8
0
100
AcDbLine
 62
7
  6
CONTINUOUS
 10
350.194164293
 20
247.641432492
 11
348.9642250533
 21
263.5635984333
  0
LINE
  5
4C2
100
AcDbEntity
  8
0
100
AcDbLine
 62
7
  6
CONTINUOUS
 10
333.944164293
 20
208.2801432328
 11
333.944164293
 21
241.5204037371
  0
LINE
  5
4C3
100
AcDbEntity
  8
0
100
AcDbLine
 62
7
  6
CONTINUOUS
 10
337.444164293
 20
409.7458751764
 11
337.444164293
 21
701.7458751764
  0
LINE
  5
4C4
100
AcDbEntity
  8
0
100
AcDbLine
 62
7
  6
CONTINUOUS
 10
339.444164293
 20
258.9404920471
 11
339.444164293
 21
249.2262081899
  0
LINE
  5
4C5
100
AcDbEntity
  8
0
100
AcDbLine
 62
7
  6
CONTINUOUS
 10
343.944164293
 20
277.4721846663
 11
343.944164293
 21
264.7427284412
  0
LINE
  5
4C6
100
AcDbEntity
  8
BEZUGSACHSEN
100
AcDbLine
 62
7
  6
CONTINUOUS
 10
343.944164293
 20
277.4721846663
 11
343.944164293
 21
302.9050377014
  0
LINE
  5
4C7
100
AcDbEntity
  8
0
100
AcDbLine
 62
7
  6
CONTINUOUS
 10
350.1124461081
 20
306.3635984333
 11
356.7758824779
 21
306.3635984333
  0
LINE
  5
4C8
100
AcDbEntity
  8
0
100
AcDbLine
 62
7
  6
CONTINUOUS
 10
349.4639064015
 20
317.8318238694
 11
357.4244221845
 21
317.8318238694
  0
LINE
  5
4C9
100
AcDbEntity
  8
RUNDUNGEN
100
AcDbLine
 62
7
  6
CONTINUOUS
 10
552.4182091049
 20
146.9029738591
 11
560.9800045712
 21
138.6329144987
  0
LINE
  5
4CA
100
AcDbEntity
  8
0
100
AcDbLine
 62
7
  6
CONTINUOUS
 10
525.5994239336
 20
159.5728478728
 11
525.7955275275
 21
159.3672638261
  0
LINE
  5
4CB
100
AcDbEntity
  8
0
100
AcDbLine
 62
7
  6
CONTINUOUS
 10
525.6054207743
 20
160.2292645025
 11
525.4093172842
 21
160.4348484778
  0
LINE
  5
4CC
100
AcDbEntity
  8
0
100
AcDbLine
 62
7
  6
CONTINUOUS
 10
493.4640949877
 20
190.5816423682
 11
493.8552603945
 21
190.1687571829
  0
LINE
  5
4CD
100
AcDbEntity
  8
0
100
AcDbLine
 62
7
  6
CONTINUOUS
 10
493.4287396486
 20
194.9477767832
 11
493.8199050554
 21
194.5348915854
  0
LINE
  5
4CE
100
AcDbEntity
  8
0
100
AcDbLine
 62
7
  6
CONTINUOUS
 10
494.4066534395
 20
195.1247337754
 11
494.0154880328
 21
195.5376190234
  0
LINE
  5
4CF
100
AcDbEntity
  8
0
100
AcDbLine
 62
7
  6
CONTINUOUS
 10
501.6984756619
 20
181.5364672168
 11
501.9569800987
 21
181.2572343649
  0
LINE
  5
4D0
100
AcDbEntity
  8
0
100
AcDbLine
 62
7
  6
CONTINUOUS
 10
501.1959371567
 20
182.4860069287
 11
502.0145344693
 21
181.6017696405
  0
LINE
  5
4D1
100
AcDbEntity
  8
0
100
AcDbLine
 62
7
  6
CONTINUOUS
 10
502.2730389061
 20
181.3225367887
 11
502.8762158447
 21
180.6709935546
  0
LINE
  5
4D2
100
AcDbEntity
  8
0
100
AcDbLine
 62
7
  6
CONTINUOUS
 10
502.9552305465
 20
180.6873191605
 11
502.3520536079
 21
181.3388623946
  0
LINE
  5
4D3
100
AcDbEntity
  8
0
100
AcDbLine
 62
7
  6
CONTINUOUS
 10
502.0935491712
 20
181.6180952465
 11
500.9302793567
 21
182.8746429169
  0
LINE
  5
4D4
100
AcDbEntity
  8
0
100
AcDbLine
 62
7
  6
CONTINUOUS
 10
502.4837447651
 20
181.3660717353
 11
502.2252403284
 21
181.6453045871
  0
LINE
  5
4D5
100
AcDbEntity
  8
0
100
AcDbLine
 62
7
  6
CONTINUOUS
 10
493.9530520201
 20
190.2845882002
 11
493.6596776911
 21
190.6030144454
  0
LINE
  5
4D6
100
AcDbEntity
  8
0
100
AcDbLine
 62
7
  6
CONTINUOUS
 10
496.5580633824
 20
193.0816798279
 11
496.2646892588
 21
193.4001057493
  0
LINE
  5
4D7
100
AcDbEntity
  8
0
100
AcDbLine
 62
7
  6
CONTINUOUS
 10
526.4336829662
 20
160.1297358215
 11
526.642971978
 21
159.9016285981
  0
LINE
  5
4D8
100
AcDbEntity
  8
0
100
AcDbLine
 62
7
  6
CONTINUOUS
 10
526.6618897936
 20
160.0449689985
 11
526.4526006389
 21
160.2730764364
  0
LINE
  5
4D9
100
AcDbEntity
  8
0
100
AcDbLine
 62
7
  6
CONTINUOUS
 10
524.2148755577
 20
160.2894297519
 11
524.5169023408
 21
159.9600952834
  0
LINE
  5
4DA
100
AcDbEntity
  8
0
100
AcDbLine
 62
7
  6
CONTINUOUS
 10
525.4661850006
 20
159.719974248
 11
525.5994239336
 21
159.5728478728
  0
LINE
  5
4DB
100
AcDbEntity
  8
0
100
AcDbLine
 62
7
  6
CONTINUOUS
 10
525.738659885
 20
160.0821379627
 11
525.6054207743
 21
160.2292645025
  0
LINE
  5
4DC
100
AcDbEntity
  8
0
100
AcDbLine
 62
7
  6
CONTINUOUS
 10
496.6912100731
 20
188.5509893751
 11
496.3000445978
 21
188.9989229679
  0
LINE
  5
4DD
100
AcDbEntity
  8
0
100
AcDbLine
 62
7
  6
CONTINUOUS
 10
494.0154880328
 20
195.3623768279
 11
494.4066534395
 21
194.9144433013
  0
LINE
  5
4DE
100
AcDbEntity
  8
0
100
AcDbLine
 62
7
  6
CONTINUOUS
 10
496.2646892588
 20
193.2248637544
 11
496.4602719622
 21
193.0008968908
  0
LINE
  5
4DF
100
AcDbEntity
  8
0
100
AcDbLine
 62
7
  6
CONTINUOUS
 10
494.9934015497
 20
195.6444794722
 11
494.7978188463
 21
195.8684461352
  0
LINE
  5
4E0
100
AcDbEntity
  8
0
100
AcDbLine
 62
7
  6
CONTINUOUS
 10
494.9934015497
 20
197.2216578277
 11
494.7978188463
 21
197.4456248919
  0
LINE
  5
4E1
100
AcDbEntity
  8
0
100
AcDbLine
 62
7
  6
CONTINUOUS
 10
523.9327382255
 20
160.6139979042
 11
524.2148755577
 21
160.2894297519
  0
LINE
  5
4E2
100
AcDbEntity
  8
0
100
AcDbLine
 62
7
  6
CONTINUOUS
 10
524.1127958589
 20
160.4974328913
 11
524.0321851925
 21
160.5901666491
  0
LINE
  5
4E3
100
AcDbEntity
  8
0
100
AcDbLine
 62
7
  6
CONTINUOUS
 10
524.5760439764
 20
159.9826309068
 11
524.4551279769
 21
160.1217315435
  0
LINE
  5
4E4
100
AcDbEntity
  8
0
100
AcDbLine
 62
7
  6
CONTINUOUS
 10
524.9523628047
 20
160.0025752696
 11
525.0732788042
 21
159.8634746329
  0
LINE
  5
4E5
100
AcDbEntity
  8
0
100
AcDbLine
 62
7
  6
CONTINUOUS
 10
525.2130311257
 20
159.7932764937
 11
525.0115044034
 21
160.0251109532
  0
LINE
  5
4E6
100
AcDbEntity
  8
0
100
AcDbLine
 62
7
  6
CONTINUOUS
 10
525.2625716425
 20
159.9557694604
 11
525.4661850006
 21
159.719974248
  0
LINE
  5
4E7
100
AcDbEntity
  8
0
100
AcDbLine
 62
7
  6
CONTINUOUS
 10
525.9422731146
 20
159.8463428528
 11
525.738659885
 21
160.0821379627
  0
LINE
  5
4E8
100
AcDbEntity
  8
0
100
AcDbLine
 62
7
  6
CONTINUOUS
 10
501.3734089397
 20
182.8614869434
 11
502.4032044276
 21
181.6608237125
  0
LINE
  5
4E9
100
AcDbEntity
  8
0
100
AcDbLine
 62
7
  6
CONTINUOUS
 10
502.3111212098
 20
181.8603530377
 11
501.6774008669
 21
182.5992227681
  0
LINE
  5
4EA
100
AcDbEntity
  8
0
100
AcDbLine
 62
7
  6
CONTINUOUS
 10
503.2581593455
 20
181.235448776
 11
503.3373743745
 21
181.1430900758
  0
LINE
  5
4EB
100
AcDbEntity
  8
0
100
AcDbLine
 62
7
  6
CONTINUOUS
 10
502.2919364392
 20
182.4172916094
 11
502.0938988667
 21
182.6481883597
  0
LINE
  5
4EC
100
AcDbEntity
  8
0
100
AcDbLine
 62
7
  6
CONTINUOUS
 10
503.4829362437
 20
181.0655433007
 11
503.3245061857
 21
181.250260701
  0
LINE
  5
4ED
100
AcDbEntity
  8
0
100
AcDbLine
 62
7
  6
CONTINUOUS
 10
525.6045719259
 20
159.649358145
 11
525.3657714591
 21
159.9294877045
  0
LINE
  5
4EE
100
AcDbEntity
  8
0
100
AcDbLine
 62
7
  6
CONTINUOUS
 10
525.6002728013
 20
160.1527541466
 11
525.8390733772
 21
159.8726245683
  0
LINE
  5
4EF
100
AcDbEntity
  8
0
100
AcDbLine
 62
7
  6
CONTINUOUS
 10
496.2022532461
 20
188.8830916859
 11
496.4956273012
 21
188.5296173515
  0
LINE
  5
4F0
100
AcDbEntity
  8
0
100
AcDbLine
 62
7
  6
CONTINUOUS
 10
493.8199050554
 20
194.7101336806
 11
493.5265310003
 21
195.063608015
  0
LINE
  5
4F1
100
AcDbEntity
  8
0
100
AcDbLine
 62
7
  6
CONTINUOUS
 10
494.7000274946
 20
194.771259441
 11
494.4066534395
 21
195.1247337754
  0
LINE
  5
4F2
100
AcDbEntity
  8
0
100
AcDbLine
 62
7
  6
CONTINUOUS
 10
496.8514374375
 20
192.7282052929
 11
496.5580633824
 21
193.0816798279
  0
LINE
  5
4F3
100
AcDbEntity
  8
0
100
AcDbLine
 62
7
  6
CONTINUOUS
 10
523.6704902878
 20
160.9337998052
 11
523.9327382255
 21
160.6139979042
  0
LINE
  5
4F4
100
AcDbEntity
  8
RUNDUNGEN
100
AcDbLine
 62
7
  6
CONTINUOUS
 10
546.4491964729
 20
123.343235701
 11
527.2494729912
 21
146.8095135404
  0
LINE
  5
4F5
100
AcDbEntity
  8
RUNDUNGEN
100
AcDbLine
 62
7
  6
CONTINUOUS
 10
476.2543240433
 20
209.1367827225
 11
476.1729747563
 21
209.2362094134
  0
LINE
  5
4F6
100
AcDbEntity
  8
RUNDUNGEN
100
AcDbLine
 62
7
  6
CONTINUOUS
 10
549.9847303789
 20
126.7582992105
 11
530.7850068971
 21
150.2245770498
  0
LINE
  5
4F7
100
AcDbEntity
  8
RUNDUNGEN
100
AcDbLine
 62
7
  6
CONTINUOUS
 10
488.9780193926
 20
206.2192710311
 11
485.5605743971
 21
210.3961391949
  0
LINE
  5
4F8
100
AcDbEntity
  8
0
100
AcDbLine
 62
7
  6
CONTINUOUS
 10
524.0321851925
 20
160.5901666491
 11
523.8102425898
 21
160.8636016707
  0
LINE
  5
4F9
100
AcDbEntity
  8
0
100
AcDbLine
 62
7
  6
CONTINUOUS
 10
492.7442001867
 20
195.0482165141
 11
493.4287396486
 21
194.1767116946
  0
LINE
  5
4FA
100
AcDbEntity
  8
RUNDUNGEN
100
AcDbLine
 62
7
  6
CONTINUOUS
 10
475.4807862843
 20
188.3360562999
 11
472.0739160678
 21
193.4077422879
  0
LINE
  5
4FB
100
AcDbEntity
  8
KONSTRUKTIONSELEMENTE
100
AcDbLine
 62
7
  6
CONTINUOUS
 10
357.3981771874
 20
317.8934026875
 11
362.172503791
 21
306.7823024531
  0
LINE
  5
4FC
100
AcDbEntity
  8
0
100
AcDbLine
 62
7
  6
CONTINUOUS
 10
357.4246035013
 20
317.8319017794
 11
357.3981771874
 21
317.8934026875
  0
LINE
  5
4FD
100
AcDbEntity
  8
0
100
AcDbLine
 62
7
  6
CONTINUOUS
 10
357.3543874001
 20
278.7763386683
 11
357.9241035327
 21
263.5635984333
  0
LINE
  5
4FE
100
AcDbEntity
  8
0
100
AcDbLine
 62
7
  6
CONTINUOUS
 10
350.194164293
 20
247.641432492
 11
350.194164293
 21
239.7622603027
  0
LINE
  5
4FF
100
AcDbEntity
  8
0
100
AcDbLine
 62
7
  6
CONTINUOUS
 10
356.694164293
 20
247.641432492
 11
356.694164293
 21
239.7622603027
  0
LINE
  5
500
100
AcDbEntity
  8
RUNDUNGEN
100
AcDbLine
 62
7
  6
CONTINUOUS
 10
362.944164293
 20
277.4721846663
 11
362.944164293
 21
264.7427284412
  0
LINE
  5
501
100
AcDbEntity
  8
BEZUGSACHSEN
100
AcDbLine
 62
7
  6
CONTINUOUS
 10
362.944164293
 20
277.4721846663
 11
362.944164293
 21
302.9050377014
  0
LINE
  5
502
100
AcDbEntity
  8
0
100
AcDbLine
 62
7
  6
CONTINUOUS
 10
349.5339411859
 20
278.7763386683
 11
348.9642250533
 21
263.5635984333
  0
LINE
  5
503
100
AcDbEntity
  8
RUNDUNGEN
100
AcDbLine
 62
7
  6
CONTINUOUS
 10
483.3028475576
 20
216.4731541192
 11
486.8071767479
 21
212.1900943919
  0
LINE
  5
504
100
AcDbEntity
  8
RUNDUNGEN
100
AcDbLine
 62
7
  6
CONTINUOUS
 10
496.2485925829
 20
200.6506111596
 11
514.5618153902
 21
178.2678317963
  0
LINE
  5
505
100
AcDbEntity
  8
RUNDUNGEN
100
AcDbLine
 62
7
  6
CONTINUOUS
 10
545.3176369305
 20
140.67746472
 11
552.6561180827
 21
131.7082294183
  0
LINE
  5
506
100
AcDbEntity
  8
0
100
AcDbLine
 62
7
  6
CONTINUOUS
 10
524.9458869513
 20
160.3547789484
 11
525.2625716425
 21
159.9557694604
  0
LINE
  5
507
100
AcDbEntity
  8
0
100
AcDbLine
 62
7
  6
CONTINUOUS
 10
525.3657714591
 20
159.9294877045
 11
525.1194611437
 21
160.2398284174
  0
LINE
  5
508
100
AcDbEntity
  8
0
100
AcDbLine
 62
7
  6
CONTINUOUS
 10
525.8390733772
 20
159.8726245683
 11
526.0853836926
 21
159.5622838554
  0
LINE
  5
509
100
AcDbEntity
  8
0
100
AcDbLine
 62
7
  6
CONTINUOUS
 10
526.2589578059
 20
159.4473333648
 11
525.9422731146
 21
159.8463428528
  0
LINE
  5
50A
100
AcDbEntity
  8
0
100
AcDbLine
 62
7
  6
CONTINUOUS
 10
494.2110707361
 20
193.4210378925
 11
493.5265310003
 21
194.2925429766
  0
LINE
  5
50B
100
AcDbEntity
  8
0
100
AcDbLine
 62
7
  6
CONTINUOUS
 10
502.8117510702
 20
182.6389111123
 11
502.9395797934
 21
182.4707441911
  0
LINE
  5
50C
100
AcDbEntity
  8
0
100
AcDbLine
 62
7
  6
CONTINUOUS
 10
503.2143179052
 20
182.3106417633
 11
503.086489182
 21
182.4788086845
  0
LINE
  5
50D
100
AcDbEntity
  8
0
100
AcDbLine
 62
7
  6
CONTINUOUS
 10
493.0729295809
 20
191.0996727906
 11
493.4640949877
 21
190.5816423682
  0
LINE
  5
50E
100
AcDbEntity
  8
0
100
AcDbLine
 62
7
  6
CONTINUOUS
 10
497.0823755142
 20
188.032958857
 11
496.6912100731
 21
188.5509893751
  0
LINE
  5
50F
100
AcDbEntity
  8
0
100
AcDbLine
 62
7
  6
CONTINUOUS
 10
493.0375742418
 20
195.4658072181
 11
493.4287396486
 21
194.9477767832
  0
LINE
  5
510
100
AcDbEntity
  8
0
100
AcDbLine
 62
7
  6
CONTINUOUS
 10
494.4066534395
 20
194.9144433013
 11
494.6022361429
 21
194.6554280587
  0
LINE
  5
511
100
AcDbEntity
  8
0
100
AcDbLine
 62
7
  6
CONTINUOUS
 10
494.3088620878
 20
195.8150159108
 11
494.5044447912
 21
195.5560007686
  0
LINE
  5
512
100
AcDbEntity
  8
0
100
AcDbLine
 62
7
  6
CONTINUOUS
 10
496.4602719622
 20
193.0008968908
 11
496.6558547341
 21
192.7418816824
  0
LINE
  5
513
100
AcDbEntity
  8
0
100
AcDbLine
 62
7
  6
CONTINUOUS
 10
494.895610198
 20
195.1781639998
 11
494.7000274946
 21
195.4371791421
  0
LINE
  5
514
100
AcDbEntity
  8
0
100
AcDbLine
 62
7
  6
CONTINUOUS
 10
494.3088620878
 20
196.3757905754
 11
494.6022361429
 21
195.9872677618
  0
LINE
  5
515
100
AcDbEntity
  8
0
100
AcDbLine
 62
7
  6
CONTINUOUS
 10
494.7978188463
 20
195.8684461352
 11
494.7000274946
 21
195.9979538066
  0
LINE
  5
516
100
AcDbEntity
  8
0
100
AcDbLine
 62
7
  6
CONTINUOUS
 10
494.3088620878
 20
197.3921946675
 11
494.5044447912
 21
197.1331793247
  0
LINE
  5
517
100
AcDbEntity
  8
0
100
AcDbLine
 62
7
  6
CONTINUOUS
 10
494.895610198
 20
196.7553425559
 11
494.7000274946
 21
197.0143578987
  0
LINE
  5
518
100
AcDbEntity
  8
0
100
AcDbLine
 62
7
  6
CONTINUOUS
 10
494.3088620878
 20
197.9529691315
 11
494.6022361429
 21
197.5644463178
  0
LINE
  5
519
100
AcDbEntity
  8
0
100
AcDbLine
 62
7
  6
CONTINUOUS
 10
494.7978188463
 20
197.4456248919
 11
494.7000274946
 21
197.5751323627
  0
LINE
  5
51A
100
AcDbEntity
  8
0
100
AcDbLine
 62
7
  6
CONTINUOUS
 10
501.9365883421
 20
184.2764371222
 11
505.7903857376
 21
179.1573331562
  0
LINE
  5
51B
100
AcDbEntity
  8
0
100
AcDbLine
 62
7
  6
CONTINUOUS
 10
506.1169986109
 20
178.7234843874
 11
512.6492560771
 21
170.046509012
  0
LINE
  5
51C
100
AcDbEntity
  8
0
100
AcDbLine
 62
7
  6
CONTINUOUS
 10
512.8967434505
 20
170.0801661881
 11
502.9365883421
 21
183.3105112959
  0
LINE
  5
51D
100
AcDbEntity
  8
0
100
AcDbLine
 62
7
  6
CONTINUOUS
 10
523.8102425898
 20
160.8636016707
 11
523.7092158665
 21
160.9979361873
  0
LINE
  5
51E
100
AcDbEntity
  8
0
100
AcDbLine
 62
7
  6
CONTINUOUS
 10
524.4551279769
 20
160.1217315435
 11
524.3541013101
 21
160.2560659951
  0
LINE
  5
51F
100
AcDbEntity
  8
0
100
AcDbLine
 62
7
  6
CONTINUOUS
 10
525.0732788042
 20
159.8634746329
 11
525.1743054288
 21
159.7291402428
  0
LINE
  5
520
100
AcDbEntity
  8
0
100
AcDbLine
 62
7
  6
CONTINUOUS
 10
503.3373743745
 20
181.1430900758
 11
503.4350059986
 21
181.010825525
  0
LINE
  5
521
100
AcDbEntity
  8
0
100
AcDbLine
 62
7
  6
CONTINUOUS
 10
525.1194611437
 20
160.2398284174
 11
524.9360153063
 21
160.4917115706
  0
LINE
  5
522
100
AcDbEntity
  8
0
100
AcDbLine
 62
7
  6
CONTINUOUS
 10
526.0853836926
 20
159.5622838554
 11
526.268829421
 21
159.3104007209
  0
LINE
  5
523
100
AcDbEntity
  8
0
100
AcDbLine
 62
7
  6
CONTINUOUS
 10
523.5087422962
 20
161.1561018274
 11
523.6704902878
 21
160.9337998052
  0
LINE
  5
524
100
AcDbEntity
  8
0
100
AcDbLine
 62
7
  6
CONTINUOUS
 10
525.3747790131
 20
159.5709745736
 11
525.2130311257
 21
159.7932764937
  0
LINE
  5
525
100
AcDbEntity
  8
0
100
AcDbLine
 62
7
  6
CONTINUOUS
 10
524.7976283809
 20
160.5623276737
 11
524.9458869513
 21
160.3547789484
  0
LINE
  5
526
100
AcDbEntity
  8
0
100
AcDbLine
 62
7
  6
CONTINUOUS
 10
526.4072165047
 20
159.239784537
 11
526.2589578059
 21
159.4473333648
  0
LINE
  5
527
100
AcDbEntity
  8
0
100
AcDbLine
 62
7
  6
CONTINUOUS
 10
503.6385921263
 20
180.8471934809
 11
503.4829362437
 21
181.0655433007
  0
LINE
  5
528
100
AcDbEntity
  8
0
100
AcDbLine
 62
7
  6
CONTINUOUS
 10
494.9934015497
 20
194.3476881481
 11
494.7000274946
 21
194.771259441
  0
LINE
  5
529
100
AcDbEntity
  8
RUNDUNGEN
100
AcDbLine
 62
7
  6
CONTINUOUS
 10
479.0163201902
 20
191.7511198093
 11
475.6094499738
 21
196.8228057974
  0
LINE
  5
52A
100
AcDbEntity
  8
RUNDUNGEN
100
AcDbLine
 62
7
  6
CONTINUOUS
 10
478.6845644713
 20
195.2725253288
 11
475.5004385836
 21
200.0126197918
  0
LINE
  5
52B
100
AcDbEntity
  8
RUNDUNGEN
100
AcDbLine
 62
7
  6
CONTINUOUS
 10
479.0359724895
 20
203.4276833012
 11
487.3909161156
 21
190.9899771878
  0
LINE
  5
52C
100
AcDbEntity
  8
0
100
AcDbLine
 62
7
  6
CONTINUOUS
 10
493.6596776911
 20
190.6030144454
 11
493.4640949877
 21
190.8970780919
  0
LINE
  5
52D
100
AcDbEntity
  8
0
100
AcDbLine
 62
7
  6
CONTINUOUS
 10
496.4956273012
 20
188.5296173515
 11
496.6912100731
 21
188.2355536639
  0
LINE
  5
52E
100
AcDbEntity
  8
0
100
AcDbLine
 62
7
  6
CONTINUOUS
 10
493.5265310003
 20
195.063608015
 11
493.3309482969
 21
195.3576716365
  0
LINE
  5
52F
100
AcDbEntity
  8
0
100
AcDbLine
 62
7
  6
CONTINUOUS
 10
497.0470201751
 20
192.4341416384
 11
496.8514374375
 21
192.7282052929
  0
LINE
  5
530
100
AcDbEntity
  8
0
100
AcDbLine
 62
7
  6
CONTINUOUS
 10
500.8512646549
 20
182.858317311
 11
501.6984756619
 21
181.5364672168
  0
LINE
  5
531
100
AcDbEntity
  8
0
100
AcDbLine
 62
7
  6
CONTINUOUS
 10
501.7906594776
 20
181.5555137564
 11
501.1959371567
 21
182.4860069287
  0
LINE
  5
532
100
AcDbEntity
  8
RUNDUNGEN
100
AcDbLine
 62
7
  6
CONTINUOUS
 10
367.444164293
 20
258.9404920471
 11
367.444164293
 21
249.2262081899
  0
LINE
  5
533
100
AcDbEntity
  8
0
100
AcDbLine
 62
7
  6
CONTINUOUS
 10
369.444164293
 20
409.7458751764
 11
369.444164293
 21
701.7458751764
  0
LINE
  5
534
100
AcDbEntity
  8
RUNDUNGEN
100
AcDbLine
 62
7
  6
CONTINUOUS
 10
372.944164293
 20
208.2801432328
 11
372.944164293
 21
210.5739571461
  0
LINE
  5
535
100
AcDbEntity
  8
KONSTRUKTIONSELEMENTE
100
AcDbLine
 62
7
  6
CONTINUOUS
 10
372.944164293
 20
208.2801432328
 11
372.944164293
 21
224.3269240292
  0
LINE
  5
536
100
AcDbEntity
  8
RUNDUNGEN
100
AcDbLine
 62
7
  6
CONTINUOUS
 10
372.944164293
 20
222.0331101159
 11
372.944164293
 21
241.5204037371
  0
LINE
  5
537
100
AcDbEntity
  8
0
100
AcDbLine
 62
7
  6
CONTINUOUS
 10
385.944164293
 20
396.7384779818
 11
385.944164293
 21
324.2940410101
  0
LINE
  5
538
100
AcDbEntity
  8
0
100
AcDbLine
 62
7
  6
CONTINUOUS
 10
356.694164293
 20
247.641432492
 11
357.9241035327
 21
263.5635984333
  0
LINE
  5
539
100
AcDbEntity
  8
RUNDUNGEN
100
AcDbLine
 62
7
  6
CONTINUOUS
 10
356.694164293
 20
239.7622603027
 11
358.1810785824
 21
259.0110941415
  0
LINE
  5
53A
100
AcDbEntity
  8
0
100
AcDbLine
 62
7
  6
CONTINUOUS
 10
526.333767807
 20
160.2796246942
 11
526.4336829662
 21
160.1297358215
  0
LINE
  5
53B
100
AcDbEntity
  8
0
100
AcDbLine
 62
7
  6
CONTINUOUS
 10
526.7618049528
 20
159.8950801259
 11
526.6618897936
 21
160.0449689985
  0
LINE
  5
53C
100
AcDbEntity
  8
0
100
AcDbLine
 62
7
  6
CONTINUOUS
 10
524.7197440878
 20
160.681207748
 11
524.7976283809
 21
160.5623276737
  0
LINE
  5
53D
100
AcDbEntity
  8
0
100
AcDbLine
 62
7
  6
CONTINUOUS
 10
526.48510062
 20
159.1209046273
 11
526.4072165047
 21
159.239784537
  0
LINE
  5
53E
100
AcDbEntity
  8
0
100
AcDbLine
 62
7
  6
CONTINUOUS
 10
523.7092158665
 20
160.9979361873
 11
523.6280786595
 21
161.1275043206
  0
LINE
  5
53F
100
AcDbEntity
  8
0
100
AcDbLine
 62
7
  6
CONTINUOUS
 10
525.1743054288
 20
159.7291402428
 11
525.2554426498
 21
159.5995720804
  0
LINE
  5
540
100
AcDbEntity
  8
0
100
AcDbLine
 62
7
  6
CONTINUOUS
 10
527.7820983839
 20
159.3115914792
 11
529.4227191287
 21
156.6414765029
  0
LINE
  5
541
100
AcDbEntity
  8
0
100
AcDbLine
 62
7
  6
CONTINUOUS
 10
529.6452248313
 20
156.2793478325
 11
533.6503274784
 21
149.7610317658
  0
LINE
  5
542
100
AcDbEntity
  8
0
100
AcDbLine
 62
7
  6
CONTINUOUS
 10
534.1099468861
 20
149.553175256
 11
528.5985949649
 21
158.5229163447
  0
LINE
  5
543
100
AcDbEntity
  8
0
100
AcDbLine
 62
7
  6
CONTINUOUS
 10
503.4350059986
 20
181.010825525
 11
503.5114468522
 21
180.8848344053
  0
LINE
  5
544
100
AcDbEntity
  8
0
100
AcDbLine
 62
7
  6
CONTINUOUS
 10
492.8773468775
 20
191.428784816
 11
493.0729295809
 21
191.0996727906
  0
LINE
  5
545
100
AcDbEntity
  8
0
100
AcDbLine
 62
7
  6
CONTINUOUS
 10
496.7689165337
 20
187.3430527378
 11
496.6337306635
 21
187.5705334348
  0
LINE
  5
546
100
AcDbEntity
  8
0
100
AcDbLine
 62
7
  6
CONTINUOUS
 10
497.2779582432
 20
187.7038468318
 11
497.0823755142
 21
188.032958857
  0
LINE
  5
547
100
AcDbEntity
  8
0
100
AcDbLine
 62
7
  6
CONTINUOUS
 10
492.8419915384
 20
195.7949192185
 11
493.0375742418
 21
195.4658072181
  0
LINE
  5
548
100
AcDbEntity
  8
0
100
AcDbLine
 62
7
  6
CONTINUOUS
 10
496.7145050211
 20
191.7763018264
 11
496.6432364504
 21
191.8962272603
  0
LINE
  5
549
100
AcDbEntity
  8
0
100
AcDbLine
 62
7
  6
CONTINUOUS
 10
494.7000274946
 20
195.9979538066
 11
494.6022361429
 21
196.1625097567
  0
LINE
  5
54A
100
AcDbEntity
  8
0
100
AcDbLine
 62
7
  6
CONTINUOUS
 10
496.6558547341
 20
192.7418816824
 11
496.7536460858
 21
192.577325632
  0
LINE
  5
54B
100
AcDbEntity
  8
0
100
AcDbLine
 62
7
  6
CONTINUOUS
 10
497.2426029042
 20
192.1050296132
 11
497.0470201751
 21
192.4341416384
  0
LINE
  5
54C
100
AcDbEntity
  8
0
100
AcDbLine
 62
7
  6
CONTINUOUS
 10
494.7000274946
 20
197.5751323627
 11
494.6022361429
 21
197.7396885133
  0
LINE
  5
54D
100
AcDbEntity
  8
0
100
AcDbLine
 62
7
  6
CONTINUOUS
 10
523.4071891452
 20
161.3272705896
 11
523.5087422962
 21
161.1561018274
  0
LINE
  5
54E
100
AcDbEntity
  8
0
100
AcDbLine
 62
7
  6
CONTINUOUS
 10
525.4763321782
 20
159.3998057952
 11
525.3747790131
 21
159.5709745736
  0
LINE
  5
54F
100
AcDbEntity
  8
0
100
AcDbLine
 62
7
  6
CONTINUOUS
 10
524.6343501538
 20
160.8302988328
 11
524.7197440878
 21
160.681207748
  0
LINE
  5
550
100
AcDbEntity
  8
0
100
AcDbLine
 62
7
  6
CONTINUOUS
 10
526.5704946579
 20
158.9718134711
 11
526.48510062
 21
159.1209046273
  0
LINE
  5
551
100
AcDbEntity
  8
0
100
AcDbLine
 62
7
  6
CONTINUOUS
 10
503.7334495611
 20
180.6812965267
 11
503.6385921263
 21
180.8471934809
  0
LINE
  5
552
100
AcDbEntity
  8
KONSTRUKTIONSELEMENTE
100
AcDbLine
 62
7
  6
CONTINUOUS
 10
414.8541828508
 20
271.1332034943
 11
414.8210329
 21
271.2239540731
  0
LINE
  5
553
100
AcDbEntity
  8
KONSTRUKTIONSELEMENTE
100
AcDbLine
 62
7
  6
CONTINUOUS
 10
417.9698634645
 20
275.0712745124
 11
418.0030134153
 21
274.9805239335
  0
LINE
  5
554
100
AcDbEntity
  8
KONSTRUKTIONSELEMENTE
100
AcDbLine
 62
7
  6
CONTINUOUS
 10
418.3234168551
 20
274.7297681614
 11
418.3565668059
 21
274.6390175826
  0
LINE
  5
555
100
AcDbEntity
  8
KONSTRUKTIONSELEMENTE
100
AcDbLine
 62
7
  6
CONTINUOUS
 10
349.4901513985
 20
317.8934026875
 11
349.4637250847
 21
317.8319017794
  0
LINE
  5
556
100
AcDbEntity
  8
0
100
AcDbLine
 62
7
  6
CONTINUOUS
 10
344.7158247949
 20
306.7823024531
 11
349.4901513985
 21
317.8934026875
  0
LINE
  5
557
100
AcDbEntity
  8
0
100
AcDbLine
 62
7
  6
CONTINUOUS
 10
524.3541013101
 20
160.2560659951
 11
524.3132694362
 21
160.3392672495
  0
LINE
  5
558
100
AcDbEntity
  8
0
100
AcDbLine
 62
7
  6
CONTINUOUS
 10
493.4640949877
 20
190.8970780919
 11
493.366303636
 21
191.0966825212
  0
LINE
  5
559
100
AcDbEntity
  8
0
100
AcDbLine
 62
7
  6
CONTINUOUS
 10
494.6022361429
 20
194.6554280587
 11
494.7978188463
 21
194.2562192002
  0
LINE
  5
55A
100
AcDbEntity
  8
0
100
AcDbLine
 62
7
  6
CONTINUOUS
 10
494.2110707361
 20
196.0146203401
 11
494.3088620878
 21
195.8150159108
  0
LINE
  5
55B
100
AcDbEntity
  8
0
100
AcDbLine
 62
7
  6
CONTINUOUS
 10
494.7000274946
 20
195.4371791421
 11
494.6022361429
 21
195.6367835713
  0
LINE
  5
55C
100
AcDbEntity
  8
0
100
AcDbLine
 62
7
  6
CONTINUOUS
 10
494.2110707361
 20
196.5753950047
 11
494.3088620878
 21
196.3757905754
  0
LINE
  5
55D
100
AcDbEntity
  8
0
100
AcDbLine
 62
7
  6
CONTINUOUS
 10
494.2110707361
 20
197.5917990967
 11
494.3088620878
 21
197.3921946675
  0
LINE
  5
55E
100
AcDbEntity
  8
0
100
AcDbLine
 62
7
  6
CONTINUOUS
 10
494.7000274946
 20
197.0143578987
 11
494.6022361429
 21
197.213962328
  0
LINE
  5
55F
100
AcDbEntity
  8
0
100
AcDbLine
 62
7
  6
CONTINUOUS
 10
494.2110707361
 20
198.1525735608
 11
494.3088620878
 21
197.9529691315
  0
LINE
  5
560
100
AcDbEntity
  8
0
100
AcDbLine
 62
7
  6
CONTINUOUS
 10
524.9360153063
 20
160.4917115706
 11
524.8356017155
 21
160.7012250892
  0
LINE
  5
561
100
AcDbEntity
  8
0
100
AcDbLine
 62
7
  6
CONTINUOUS
 10
526.268829421
 20
159.3104007209
 11
526.3692430962
 21
159.1008872147
  0
LINE
  5
562
100
AcDbEntity
  8
0
100
AcDbLine
 62
7
  6
CONTINUOUS
 10
492.7795555258
 20
191.6634376744
 11
492.8773468775
 21
191.428784816
  0
LINE
  5
563
100
AcDbEntity
  8
0
100
AcDbLine
 62
7
  6
CONTINUOUS
 10
496.6912100731
 20
188.2355536639
 11
496.7890014248
 21
188.0009008055
  0
LINE
  5
564
100
AcDbEntity
  8
0
100
AcDbLine
 62
7
  6
CONTINUOUS
 10
497.3403942644
 20
191.8703767967
 11
497.2426029042
 21
192.1050296132
  0
LINE
  5
565
100
AcDbEntity
  8
KONSTRUKTIONSELEMENTE
100
AcDbLine
 62
7
  6
CONTINUOUS
 10
476.0189194234
 20
212.0526047806
 11
475.9857694726
 21
212.1433553594
  0
LINE
  5
566
100
AcDbEntity
  8
KONSTRUKTIONSELEMENTE
100
AcDbLine
 62
7
  6
CONTINUOUS
 10
479.1346000371
 20
215.9906757987
 11
479.1677499879
 21
215.8999252198
  0
LINE
  5
567
100
AcDbEntity
  8
KONSTRUKTIONSELEMENTE
100
AcDbLine
 62
7
  6
CONTINUOUS
 10
479.4881534277
 20
215.6491694477
 11
479.5213033785
 21
215.5584188689
  0
LINE
  5
568
100
AcDbEntity
  8
0
100
AcDbLine
 62
7
  6
CONTINUOUS
 10
411.944164293
 20
396.7384779818
 11
411.944164293
 21
324.2940410101
  0
LINE
  5
569
100
AcDbEntity
  8
0
100
AcDbLine
 62
7
  6
CONTINUOUS
 10
493.3309482969
 20
195.3576716365
 11
493.2331569452
 21
195.6273729239
  0
LINE
  5
56A
100
AcDbEntity
  8
0
100
AcDbLine
 62
7
  6
CONTINUOUS
 10
497.3757496035
 20
187.4341455862
 11
497.2779582432
 21
187.7038468318
  0
LINE
  5
56B
100
AcDbEntity
  8
0
100
AcDbLine
 62
7
  6
CONTINUOUS
 10
496.7536460858
 20
192.577325632
 11
496.8514374375
 21
192.3076244449
  0
LINE
  5
56C
100
AcDbEntity
  8
0
100
AcDbLine
 62
7
  6
CONTINUOUS
 10
502.7755017176
 20
182.7537105576
 11
502.8117510702
 21
182.6389111123
  0
LINE
  5
56D
100
AcDbEntity
  8
0
100
AcDbLine
 62
7
  6
CONTINUOUS
 10
503.250567075
 20
182.1958425586
 11
503.2143179052
 21
182.3106417633
  0
LINE
  5
56E
100
AcDbEntity
  8
0
100
AcDbLine
 62
7
  6
CONTINUOUS
 10
502.5515406212
 20
181.6169092887
 11
502.5174815129
 21
181.7303534132
  0
LINE
  5
56F
100
AcDbEntity
  8
0
100
AcDbLine
 62
7
  6
CONTINUOUS
 10
492.7442001867
 20
196.1347172638
 11
492.8419915384
 21
195.7949192185
  0
LINE
  5
570
100
AcDbEntity
  8
0
100
AcDbLine
 62
7
  6
CONTINUOUS
 10
339.5178722865
 20
249.3278872645
 11
334.0178722865
 21
241.7407195254
  0
LINE
  5
571
100
AcDbEntity
  8
0
100
AcDbLine
 62
7
  6
CONTINUOUS
 10
503.5114468522
 20
180.8848344053
 11
503.5270892442
 21
180.8112961674
  0
LINE
  5
572
100
AcDbEntity
  8
0
100
AcDbLine
 62
7
  6
CONTINUOUS
 10
523.6280786595
 20
161.1275043206
 11
523.6071361748
 21
161.205939325
  0
LINE
  5
573
100
AcDbEntity
  8
0
100
AcDbLine
 62
7
  6
CONTINUOUS
 10
524.0709108965
 20
160.6543028983
 11
524.1127958589
 21
160.4974328913
  0
LINE
  5
574
100
AcDbEntity
  8
0
100
AcDbLine
 62
7
  6
CONTINUOUS
 10
524.3132694362
 20
160.3392672495
 11
524.2923269515
 21
160.4177022538
  0
LINE
  5
575
100
AcDbEntity
  8
0
100
AcDbLine
 62
7
  6
CONTINUOUS
 10
525.2554426498
 20
159.5995720804
 11
525.2763851346
 21
159.5211370761
  0
LINE
  5
576
100
AcDbEntity
  8
0
100
AcDbLine
 62
7
  6
CONTINUOUS
 10
524.611820777
 20
160.9209323174
 11
524.6343501538
 21
160.8302988328
  0
LINE
  5
577
100
AcDbEntity
  8
0
100
AcDbLine
 62
7
  6
CONTINUOUS
 10
526.593024047
 20
158.8811799709
 11
526.5704946579
 21
158.9718134711
  0
LINE
  5
578
100
AcDbEntity
  8
0
100
AcDbLine
 62
7
  6
CONTINUOUS
 10
523.3857201198
 20
161.4425399694
 11
523.4071891452
 21
161.3272705896
  0
LINE
  5
579
100
AcDbEntity
  8
0
100
AcDbLine
 62
7
  6
CONTINUOUS
 10
525.4978012569
 20
159.2845363929
 11
525.4763321782
 21
159.3998057952
  0
LINE
  5
57A
100
AcDbEntity
  8
0
100
AcDbLine
 62
7
  6
CONTINUOUS
 10
502.2982531422
 20
181.9675236269
 11
502.3111212098
 21
181.8603530377
  0
LINE
  5
57B
100
AcDbEntity
  8
0
100
AcDbLine
 62
7
  6
CONTINUOUS
 10
503.7463176391
 20
180.5741259253
 11
503.7334495611
 21
180.6812965267
  0
LINE
  5
57C
100
AcDbEntity
  8
0
100
AcDbLine
 62
7
  6
CONTINUOUS
 10
491.5774739978
 20
191.8237922765
 11
491.5774739978
 21
186.6474113744
  0
LINE
  5
57D
100
AcDbEntity
  8
0
100
AcDbLine
 62
7
  6
CONTINUOUS
 10
491.9310273884
 20
186.435314546
 11
491.9310273884
 21
191.352876403
  0
LINE
  5
57E
100
AcDbEntity
  8
0
100
AcDbLine
 62
7
  6
CONTINUOUS
 10
492.7442001867
 20
196.2048141219
 11
492.7442001867
 21
196.1347172638
  0
LINE
  5
57F
100
AcDbEntity
  8
0
100
AcDbLine
 62
7
  6
CONTINUOUS
 10
492.7442001867
 20
195.2585069883
 11
492.7442001867
 21
195.0482165141
  0
LINE
  5
580
100
AcDbEntity
  8
0
100
AcDbLine
 62
7
  6
CONTINUOUS
 10
492.7795555258
 20
191.8386797194
 11
492.7795555258
 21
191.6634376744
  0
LINE
  5
581
100
AcDbEntity
  8
0
100
AcDbLine
 62
7
  6
CONTINUOUS
 10
493.2331569452
 20
195.6273729239
 11
493.2331569452
 21
195.7675665399
  0
LINE
  5
582
100
AcDbEntity
  8
0
100
AcDbLine
 62
7
  6
CONTINUOUS
 10
493.366303636
 20
191.0966825212
 11
493.366303636
 21
191.3069729954
  0
LINE
  5
583
100
AcDbEntity
  8
0
100
AcDbLine
 62
7
  6
CONTINUOUS
 10
493.8199050554
 20
194.5348915854
 11
493.8199050554
 21
194.7101336806
  0
LINE
  5
584
100
AcDbEntity
  8
0
100
AcDbLine
 62
7
  6
CONTINUOUS
 10
493.8552603945
 20
191.0449674584
 11
493.8552603945
 21
191.2552579326
  0
LINE
  5
585
100
AcDbEntity
  8
0
100
AcDbLine
 62
7
  6
CONTINUOUS
 10
494.2110707361
 20
198.2927670765
 11
494.2110707361
 21
198.1525735608
  0
LINE
  5
586
100
AcDbEntity
  8
0
100
AcDbLine
 62
7
  6
CONTINUOUS
 10
494.2110707361
 20
197.7319926125
 11
494.2110707361
 21
197.5917990967
  0
LINE
  5
587
100
AcDbEntity
  8
0
100
AcDbLine
 62
7
  6
CONTINUOUS
 10
494.2110707361
 20
197.4165569013
 11
494.2110707361
 21
197.2413147058
  0
LINE
  5
588
100
AcDbEntity
  8
0
100
AcDbLine
 62
7
  6
CONTINUOUS
 10
494.2110707361
 20
196.715588721
 11
494.2110707361
 21
196.5753950047
  0
LINE
  5
589
100
AcDbEntity
  8
0
100
AcDbLine
 62
7
  6
CONTINUOUS
 10
494.2110707361
 20
196.1548140564
 11
494.2110707361
 21
196.0146203401
  0
LINE
  5
58A
100
AcDbEntity
  8
0
100
AcDbLine
 62
7
  6
CONTINUOUS
 10
494.2110707361
 20
195.8393783452
 11
494.2110707361
 21
195.6641363502
  0
LINE
  5
58B
100
AcDbEntity
  8
0
100
AcDbLine
 62
7
  6
CONTINUOUS
 10
494.6022361429
 20
195.6367835713
 11
494.6022361429
 21
195.7068805297
  0
LINE
  5
58C
100
AcDbEntity
  8
0
100
AcDbLine
 62
7
  6
CONTINUOUS
 10
494.6022361429
 20
196.1625097567
 11
494.6022361429
 21
196.2676549938
  0
LINE
  5
58D
100
AcDbEntity
  8
0
100
AcDbLine
 62
7
  6
CONTINUOUS
 10
494.6022361429
 20
197.213962328
 11
494.6022361429
 21
197.2840588853
  0
LINE
  5
58E
100
AcDbEntity
  8
0
100
AcDbLine
 62
7
  6
CONTINUOUS
 10
494.6022361429
 20
197.7396885133
 11
494.6022361429
 21
197.8448337504
  0
LINE
  5
58F
100
AcDbEntity
  8
0
100
AcDbLine
 62
7
  6
CONTINUOUS
 10
494.7353828337
 20
189.98454404
 11
494.7353828337
 21
189.7742535659
  0
LINE
  5
590
100
AcDbEntity
  8
0
100
AcDbLine
 62
7
  6
CONTINUOUS
 10
494.7978188463
 20
194.2562192002
 11
494.7978188463
 21
194.1160255842
  0
LINE
  5
591
100
AcDbEntity
  8
0
100
AcDbLine
 62
7
  6
CONTINUOUS
 10
495.1889842531
 20
193.7381888154
 11
495.1889842531
 21
193.8783824314
  0
LINE
  5
592
100
AcDbEntity
  8
0
100
AcDbLine
 62
7
  6
CONTINUOUS
 10
495.3221309439
 20
189.2074984127
 11
495.3221309439
 21
189.4177888869
  0
LINE
  5
593
100
AcDbEntity
  8
0
100
AcDbLine
 62
7
  6
CONTINUOUS
 10
496.1044618944
 20
188.1013406026
 11
496.1044618944
 21
187.8910501285
  0
LINE
  5
594
100
AcDbEntity
  8
0
100
AcDbLine
 62
7
  6
CONTINUOUS
 10
496.2646892588
 20
192.3136049996
 11
496.2646892588
 21
192.1383629546
  0
LINE
  5
595
100
AcDbEntity
  8
0
100
AcDbLine
 62
7
  6
CONTINUOUS
 10
496.7890014248
 20
188.0009008055
 11
496.7890014248
 21
187.7205134732
  0
LINE
  5
596
100
AcDbEntity
  8
0
100
AcDbLine
 62
7
  6
CONTINUOUS
 10
496.8514374375
 20
192.3076244449
 11
496.8514374375
 21
192.0973339708
  0
LINE
  5
597
100
AcDbEntity
  8
0
100
AcDbLine
 62
7
  6
CONTINUOUS
 10
497.3403942644
 20
190.6086339518
 11
497.3403942644
 21
190.818924426
  0
LINE
  5
598
100
AcDbEntity
  8
0
100
AcDbLine
 62
7
  6
CONTINUOUS
 10
497.3403942644
 20
191.5899894644
 11
497.3403942644
 21
191.8703767967
  0
LINE
  5
599
100
AcDbEntity
  8
0
100
AcDbLine
 62
7
  6
CONTINUOUS
 10
497.3403942644
 20
192.6414419354
 11
497.3403942644
 21
192.8166839304
  0
LINE
  5
59A
100
AcDbEntity
  8
0
100
AcDbLine
 62
7
  6
CONTINUOUS
 10
497.3403942644
 20
193.2022163995
 11
497.3403942644
 21
193.3774585949
  0
LINE
  5
59B
100
AcDbEntity
  8
0
100
AcDbLine
 62
7
  6
CONTINUOUS
 10
497.3403942644
 20
194.218620291
 11
497.3403942644
 21
194.3938624865
  0
LINE
  5
59C
100
AcDbEntity
  8
0
100
AcDbLine
 62
7
  6
CONTINUOUS
 10
497.3403942644
 20
193.762991064
 11
497.3403942644
 21
193.9382332595
  0
LINE
  5
59D
100
AcDbEntity
  8
0
100
AcDbLine
 62
7
  6
CONTINUOUS
 10
497.3403942644
 20
194.7793951561
 11
497.3403942644
 21
194.9546369505
  0
LINE
  5
59E
100
AcDbEntity
  8
0
100
AcDbLine
 62
7
  6
CONTINUOUS
 10
497.3403942644
 20
195.3401696201
 11
497.3403942644
 21
195.5154118156
  0
LINE
  5
59F
100
AcDbEntity
  8
0
100
AcDbLine
 62
7
  6
CONTINUOUS
 10
497.3757496035
 20
187.1537582539
 11
497.3757496035
 21
187.4341455862
  0
LINE
  5
5A0
100
AcDbEntity
  8
0
100
AcDbLine
 62
7
  6
CONTINUOUS
 10
498.294988419
 20
180.1587907065
 11
498.294988419
 21
185.205762086
  0
LINE
  5
5A1
100
AcDbEntity
  8
0
100
AcDbLine
 62
7
  6
CONTINUOUS
 10
498.7546078268
 20
179.7148324502
 11
498.7546078268
 21
184.8912133523
  0
LINE
  5
5A2
100
AcDbEntity
  8
0
100
AcDbLine
 62
7
  6
CONTINUOUS
 10
502.2901417327
 20
180.0526450947
 11
502.2901417327
 21
179.9232355722
  0
LINE
  5
5A3
100
AcDbEntity
  8
0
100
AcDbLine
 62
7
  6
CONTINUOUS
 10
512.7906774334
 20
169.7804969491
 11
512.7906774334
 21
169.9777142829
  0
LINE
  5
5A4
100
AcDbEntity
  8
0
100
AcDbLine
 62
7
  6
CONTINUOUS
 10
512.8967434505
 20
177.3354100382
 11
512.8967434505
 21
170.0801661881
  0
LINE
  5
5A5
100
AcDbEntity
  8
0
100
AcDbLine
 62
7
  6
CONTINUOUS
 10
513.2502968411
 20
169.4659482154
 11
513.2502968411
 21
177.2305195685
  0
LINE
  5
5A6
100
AcDbEntity
  8
0
100
AcDbLine
 62
7
  6
CONTINUOUS
 10
515.0000099387
 20
174.7143623934
 11
515.0000099387
 21
174.5741687373
  0
LINE
  5
5A7
100
AcDbEntity
  8
0
100
AcDbLine
 62
7
  6
CONTINUOUS
 10
515.6258748087
 20
174.4182493671
 11
515.6258748087
 21
174.1098233517
  0
LINE
  5
5A8
100
AcDbEntity
  8
0
100
AcDbLine
 62
7
  6
CONTINUOUS
 10
515.6258748087
 20
173.9696296956
 11
515.6258748087
 21
173.7453198498
  0
LINE
  5
5A9
100
AcDbEntity
  8
0
100
AcDbLine
 62
7
  6
CONTINUOUS
 10
515.9388071341
 20
173.8075539367
 11
515.9388071341
 21
174.115979952
  0
LINE
  5
5AA
100
AcDbEntity
  8
0
100
AcDbLine
 62
7
  6
CONTINUOUS
 10
515.9388071341
 20
173.4430504348
 11
515.9388071341
 21
173.6673602806
  0
LINE
  5
5AB
100
AcDbEntity
  8
0
100
AcDbLine
 62
7
  6
CONTINUOUS
 10
518.9071510906
 20
171.7664179534
 11
518.9071510906
 21
164.0018466003
  0
LINE
  5
5AC
100
AcDbEntity
  8
0
100
AcDbLine
 62
7
  6
CONTINUOUS
 10
519.2607044812
 20
163.5309307268
 11
519.2607044812
 21
171.554321125
  0
LINE
  5
5AD
100
AcDbEntity
  8
0
100
AcDbLine
 62
7
  6
CONTINUOUS
 10
523.5033451683
 20
159.562264038
 11
523.5033451683
 21
159.4328545154
  0
LINE
  5
5AE
100
AcDbEntity
  8
0
100
AcDbLine
 62
7
  6
CONTINUOUS
 10
534.003880869
 20
149.2901158923
 11
534.003880869
 21
149.4507233507
  0
LINE
  5
5AF
100
AcDbEntity
  8
0
100
AcDbLine
 62
7
  6
CONTINUOUS
 10
534.1099468861
 20
156.693416295
 11
534.1099468861
 21
149.553175256
  0
LINE
  5
5B0
100
AcDbEntity
  8
0
100
AcDbLine
 62
7
  6
CONTINUOUS
 10
534.4635002767
 20
148.9755671587
 11
534.4635002767
 21
156.7401385117
  0
LINE
  5
5B1
100
AcDbEntity
  8
0
100
AcDbLine
 62
7
  6
CONTINUOUS
 10
536.411203273
 20
154.0327377801
 11
536.411203273
 21
153.892544124
  0
LINE
  5
5B2
100
AcDbEntity
  8
0
100
AcDbLine
 62
7
  6
CONTINUOUS
 10
537.037068143
 20
153.7366247538
 11
537.037068143
 21
153.4281987384
  0
LINE
  5
5B3
100
AcDbEntity
  8
0
100
AcDbLine
 62
7
  6
CONTINUOUS
 10
537.037068143
 20
153.2880050823
 11
537.037068143
 21
153.0636952365
  0
LINE
  5
5B4
100
AcDbEntity
  8
0
100
AcDbLine
 62
7
  6
CONTINUOUS
 10
537.3500004685
 20
152.7614258215
 11
537.3500004685
 21
152.9857356673
  0
LINE
  5
5B5
100
AcDbEntity
  8
0
100
AcDbLine
 62
7
  6
CONTINUOUS
 10
537.3500004685
 20
153.1259293234
 11
537.3500004685
 21
153.4343553387
  0
LINE
  5
5B6
100
AcDbEntity
  8
0
100
AcDbLine
 62
7
  6
CONTINUOUS
 10
540.1203545262
 20
151.2760368966
 11
540.1203545262
 21
143.5114655435
  0
LINE
  5
5B7
100
AcDbEntity
  8
0
100
AcDbLine
 62
7
  6
CONTINUOUS
 10
540.4739079168
 20
143.04054967
 11
540.4739079168
 21
151.0639400682
  0
LINE
  5
5B8
100
AcDbEntity
  8
RUNDUNGEN
100
AcDbLine
 62
7
  6
CONTINUOUS
 10
554.6160435405
 20
140.6389240941
 11
554.6160435405
 21
138.3469738359
  0
LINE
  5
5B9
100
AcDbEntity
  8
RUNDUNGEN
100
AcDbLine
 62
7
  6
CONTINUOUS
 10
554.6160435405
 20
128.4370078267
 11
554.6160435405
 21
126.1450575684
  0
LINE
  5
5BA
100
AcDbEntity
  8
RUNDUNGEN
100
AcDbLine
 62
7
  6
CONTINUOUS
 10
565.2226452583
 20
132.9819240168
 11
565.2226452583
 21
132.0760573589
  0
LINE
  5
5BB
100
AcDbEntity
  8
RUNDUNGEN
100
AcDbLine
 62
7
  6
CONTINUOUS
 10
565.2226452583
 20
114.2175432468
 11
565.2226452583
 21
113.311676589
  0
LINE
  5
5BC
100
AcDbEntity
  8
0
100
AcDbLine
 62
7
  6
CONTINUOUS
 10
526.3432266433
 20
160.3512950016
 11
526.333767807
 21
160.2796246942
  0
LINE
  5
5BD
100
AcDbEntity
  8
0
100
AcDbLine
 62
7
  6
CONTINUOUS
 10
526.7523459735
 20
159.8234100328
 11
526.7618049528
 21
159.8950801259
  0
LINE
  5
5BE
100
AcDbEntity
  8
0
100
AcDbLine
 62
7
  6
CONTINUOUS
 10
524.8356017155
 20
160.7012250892
 11
524.8482595266
 21
160.7475241863
  0
LINE
  5
5BF
100
AcDbEntity
  8
0
100
AcDbLine
 62
7
  6
CONTINUOUS
 10
526.3692430962
 20
159.1008872147
 11
526.3565852851
 21
159.0545881176
  0
LINE
  5
5C0
100
AcDbEntity
  8
0
100
AcDbLine
 62
7
  6
CONTINUOUS
 10
492.8419915384
 20
196.3556937828
 11
492.7442001867
 21
196.2048141219
  0
LINE
  5
5C1
100
AcDbEntity
  8
RUNDUNGEN
100
AcDbLine
 62
7
  6
CONTINUOUS
 10
473.3315429708
 20
221.2303649539
 11
474.5035062094
 21
222.3623945135
  0
LINE
  5
5C2
100
AcDbEntity
  8
0
100
AcDbLine
 62
7
  6
CONTINUOUS
 10
476.7255999842
 20
209.5920003251
 11
473.1900660782
 21
206.1769368157
  0
LINE
  5
5C3
100
AcDbEntity
  8
0
100
AcDbLine
 62
7
  6
CONTINUOUS
 10
524.6446461386
 20
160.983319377
 11
524.611820777
 21
160.9209323174
  0
LINE
  5
5C4
100
AcDbEntity
  8
0
100
AcDbLine
 62
7
  6
CONTINUOUS
 10
495.1889842531
 20
193.8783824314
 11
495.2867756048
 21
193.9942137134
  0
LINE
  5
5C5
100
AcDbEntity
  8
RUNDUNGEN
100
AcDbLine
 62
7
  6
CONTINUOUS
 10
487.3710520136
 20
211.1380562196
 11
486.0207220926
 21
209.8337376749
  0
LINE
  5
5C6
100
AcDbEntity
  8
RUNDUNGEN
100
AcDbLine
 62
7
  6
CONTINUOUS
 10
475.3784127232
 20
197.4392374997
 11
471.8428788173
 21
194.0241739903
  0
LINE
  5
5C7
100
AcDbEntity
  8
0
100
AcDbLine
 62
7
  6
CONTINUOUS
 10
494.3088620878
 20
198.3034531214
 11
494.2110707361
 21
198.2089939292
  0
LINE
  5
5C8
100
AcDbEntity
  8
0
100
AcDbLine
 62
7
  6
CONTINUOUS
 10
494.5044447912
 20
198.1846316954
 11
494.2875028351
 21
197.9750818571
  0
LINE
  5
5C9
100
AcDbEntity
  8
0
100
AcDbLine
 62
7
  6
CONTINUOUS
 10
494.3088620878
 20
197.7426786574
 11
494.2110707361
 21
197.6482194652
  0
LINE
  5
5CA
100
AcDbEntity
  8
0
100
AcDbLine
 62
7
  6
CONTINUOUS
 10
494.6022361429
 20
197.8448337504
 11
494.4798096653
 21
197.7265788539
  0
LINE
  5
5CB
100
AcDbEntity
  8
0
100
AcDbLine
 62
7
  6
CONTINUOUS
 10
493.0375742418
 20
196.3069690145
 11
492.7692248583
 21
196.0477634144
  0
LINE
  5
5CC
100
AcDbEntity
  8
0
100
AcDbLine
 62
7
  6
CONTINUOUS
 10
494.6022361429
 20
197.7396885133
 11
494.5257195725
 21
197.6657791818
  0
LINE
  5
5CD
100
AcDbEntity
  8
0
100
AcDbLine
 62
7
  6
CONTINUOUS
 10
494.6022361429
 20
197.5644463178
 11
494.3643916775
 21
197.334706206
  0
LINE
  5
5CE
100
AcDbEntity
  8
0
100
AcDbLine
 62
7
  6
CONTINUOUS
 10
494.7000274946
 20
197.5751323627
 11
494.3939614795
 21
197.2794952942
  0
LINE
  5
5CF
100
AcDbEntity
  8
0
100
AcDbLine
 62
7
  6
CONTINUOUS
 10
494.9934015497
 20
197.7824326929
 11
494.8934146968
 21
197.6858528093
  0
LINE
  5
5D0
100
AcDbEntity
  8
0
100
AcDbLine
 62
7
  6
CONTINUOUS
 10
494.6022361429
 20
197.2840588853
 11
494.4762515513
 21
197.1623671145
  0
LINE
  5
5D1
100
AcDbEntity
  8
0
100
AcDbLine
 62
7
  6
CONTINUOUS
 10
494.7978188463
 20
197.4456248919
 11
494.6159041173
 21
197.269908757
  0
LINE
  5
5D2
100
AcDbEntity
  8
0
100
AcDbLine
 62
7
  6
CONTINUOUS
 10
494.5044447912
 20
197.1331793247
 11
494.4067096353
 21
197.0387744135
  0
LINE
  5
5D3
100
AcDbEntity
  8
0
100
AcDbLine
 62
7
  6
CONTINUOUS
 10
494.6022361429
 20
197.213962328
 11
494.5112787784
 21
197.1261042605
  0
LINE
  5
5D4
100
AcDbEntity
  8
0
100
AcDbLine
 62
7
  6
CONTINUOUS
 10
493.4287396486
 20
196.069325962
 11
492.9691202408
 21
195.6253677057
  0
LINE
  5
5D5
100
AcDbEntity
  8
0
100
AcDbLine
 62
7
  6
CONTINUOUS
 10
493.2331569452
 20
195.7675665399
 11
492.9949710737
 21
195.5374966551
  0
LINE
  5
5D6
100
AcDbEntity
  8
0
100
AcDbLine
 62
7
  6
CONTINUOUS
 10
494.3088620878
 20
196.7262745653
 11
494.2110707361
 21
196.6318153731
  0
LINE
  5
5D7
100
AcDbEntity
  8
0
100
AcDbLine
 62
7
  6
CONTINUOUS
 10
493.2331569452
 20
195.6273729239
 11
493.0512423665
 21
195.4516569342
  0
LINE
  5
5D8
100
AcDbEntity
  8
0
100
AcDbLine
 62
7
  6
CONTINUOUS
 10
494.7000274946
 20
197.0143578987
 11
494.5730306036
 21
196.8916883218
  0
LINE
  5
5D9
100
AcDbEntity
  8
0
100
AcDbLine
 62
7
  6
CONTINUOUS
 10
494.9934015497
 20
197.2216578277
 11
494.8934148087
 21
197.1250780523
  0
LINE
  5
5DA
100
AcDbEntity
  8
0
100
AcDbLine
 62
7
  6
CONTINUOUS
 10
494.5044447912
 20
196.6074531393
 11
494.2875028351
 21
196.397903301
  0
LINE
  5
5DB
100
AcDbEntity
  8
0
100
AcDbLine
 62
7
  6
CONTINUOUS
 10
493.3309482969
 20
195.3576716365
 11
493.2085219037
 21
195.2394168214
  0
LINE
  5
5DC
100
AcDbEntity
  8
0
100
AcDbLine
 62
7
  6
CONTINUOUS
 10
493.8199050554
 20
195.7265376724
 11
493.716390217
 21
195.6265500166
  0
LINE
  5
5DD
100
AcDbEntity
  8
0
100
AcDbLine
 62
7
  6
CONTINUOUS
 10
494.895610198
 20
196.7553425559
 11
494.8048981626
 21
196.6677214582
  0
LINE
  5
5DE
100
AcDbEntity
  8
0
100
AcDbLine
 62
7
  6
CONTINUOUS
 10
494.3088620878
 20
196.1655001013
 11
494.2110707361
 21
196.0710409091
  0
LINE
  5
5DF
100
AcDbEntity
  8
0
100
AcDbLine
 62
7
  6
CONTINUOUS
 10
494.6022361429
 20
196.2676549938
 11
494.4798097529
 21
196.1494001818
  0
LINE
  5
5E0
100
AcDbEntity
  8
0
100
AcDbLine
 62
7
  6
CONTINUOUS
 10
494.6022361429
 20
196.1625097567
 11
494.5257196601
 21
196.0886005098
  0
LINE
  5
5E1
100
AcDbEntity
  8
0
100
AcDbLine
 62
7
  6
CONTINUOUS
 10
494.0154880328
 20
195.5376190234
 11
493.9211417631
 21
195.4464875249
  0
LINE
  5
5E2
100
AcDbEntity
  8
0
100
AcDbLine
 62
7
  6
CONTINUOUS
 10
493.5265310003
 20
195.063608015
 11
493.4180600473
 21
194.9588331201
  0
LINE
  5
5E3
100
AcDbEntity
  8
0
100
AcDbLine
 62
7
  6
CONTINUOUS
 10
494.6022361429
 20
195.9872677618
 11
494.3643915773
 21
195.7575275531
  0
LINE
  5
5E4
100
AcDbEntity
  8
0
100
AcDbLine
 62
7
  6
CONTINUOUS
 10
494.7000274946
 20
195.9979538066
 11
494.39396143
 21
195.7023166903
  0
LINE
  5
5E5
100
AcDbEntity
  8
0
100
AcDbLine
 62
7
  6
CONTINUOUS
 10
494.9934015497
 20
196.2052541368
 11
494.8934146383
 21
196.1086741967
  0
LINE
  5
5E6
100
AcDbEntity
  8
0
100
AcDbLine
 62
7
  6
CONTINUOUS
 10
494.6022361429
 20
195.7068805297
 11
494.4762514511
 21
195.5851886621
  0
LINE
  5
5E7
100
AcDbEntity
  8
0
100
AcDbLine
 62
7
  6
CONTINUOUS
 10
494.7978188463
 20
195.8684461352
 11
494.6159043178
 21
195.6927301939
  0
LINE
  5
5E8
100
AcDbEntity
  8
0
100
AcDbLine
 62
7
  6
CONTINUOUS
 10
494.5044447912
 20
195.5560007686
 11
494.4067097356
 21
195.4615959542
  0
LINE
  5
5E9
100
AcDbEntity
  8
0
100
AcDbLine
 62
7
  6
CONTINUOUS
 10
494.6022361429
 20
195.6367835713
 11
494.5112788787
 21
195.5489256007
  0
LINE
  5
5EA
100
AcDbEntity
  8
0
100
AcDbLine
 62
7
  6
CONTINUOUS
 10
493.8199050554
 20
194.7101336806
 11
493.7323366367
 21
194.6255490834
  0
LINE
  5
5EB
100
AcDbEntity
  8
0
100
AcDbLine
 62
7
  6
CONTINUOUS
 10
494.7000274946
 20
195.4371791421
 11
494.5730308112
 21
195.3145097657
  0
LINE
  5
5EC
100
AcDbEntity
  8
0
100
AcDbLine
 62
7
  6
CONTINUOUS
 10
493.5265310003
 20
194.2925429766
 11
493.4180600222
 21
194.1877680575
  0
LINE
  5
5ED
100
AcDbEntity
  8
0
100
AcDbLine
 62
7
  6
CONTINUOUS
 10
494.4066534395
 20
195.1247337754
 11
494.3015713572
 21
195.0232322782
  0
LINE
  5
5EE
100
AcDbEntity
  8
0
100
AcDbLine
 62
7
  6
CONTINUOUS
 10
494.9934015497
 20
195.6444794722
 11
494.8934146968
 21
195.5478995887
  0
LINE
  5
5EF
100
AcDbEntity
  8
0
100
AcDbLine
 62
7
  6
CONTINUOUS
 10
494.895610198
 20
195.1781639998
 11
494.8048982664
 21
195.0905430023
  0
LINE
  5
5F0
100
AcDbEntity
  8
0
100
AcDbLine
 62
7
  6
CONTINUOUS
 10
494.7000274946
 20
194.771259441
 11
494.5915564664
 21
194.6664844734
  0
LINE
  5
5F1
100
AcDbEntity
  8
RUNDUNGEN
100
AcDbLine
 62
7
  6
CONTINUOUS
 10
565.2160054757
 20
132.0579117723
 11
565.2226452583
 21
132.0760573589
  0
LINE
  5
5F2
100
AcDbEntity
  8
0
100
AcDbLine
 62
7
  6
CONTINUOUS
 10
526.5601985363
 20
158.8187929805
 11
526.593024047
 21
158.8811799709
  0
LINE
  5
5F3
100
AcDbEntity
  8
0
100
AcDbLine
 62
7
  6
CONTINUOUS
 10
523.6071361748
 20
161.205939325
 11
523.6264990232
 21
161.2380074504
  0
LINE
  5
5F4
100
AcDbEntity
  8
0
100
AcDbLine
 62
7
  6
CONTINUOUS
 10
524.2923269515
 20
160.4177022538
 11
524.3116898
 21
160.4497703793
  0
LINE
  5
5F5
100
AcDbEntity
  8
0
100
AcDbLine
 62
7
  6
CONTINUOUS
 10
525.2763851346
 20
159.5211370761
 11
525.2570223146
 21
159.4890689438
  0
LINE
  5
5F6
100
AcDbEntity
  8
0
100
AcDbLine
 62
7
  6
CONTINUOUS
 10
518.0511005431
 20
171.8513513699
 11
518.1293336313
 21
171.9440163888
  0
LINE
  5
5F7
100
AcDbEntity
  8
0
100
AcDbLine
 62
7
  6
CONTINUOUS
 10
494.9934015497
 20
194.3476881481
 11
494.7978188463
 21
194.1587697637
  0
LINE
  5
5F8
100
AcDbEntity
  8
0
100
AcDbLine
 62
7
  6
CONTINUOUS
 10
491.9310273884
 20
191.352876403
 11
491.5774739978
 21
191.011370052
  0
LINE
  5
5F9
100
AcDbEntity
  8
0
100
AcDbLine
 62
7
  6
CONTINUOUS
 10
495.1889842531
 20
194.3340117587
 11
494.877696137
 21
194.0333305279
  0
LINE
  5
5FA
100
AcDbEntity
  8
0
100
AcDbLine
 62
7
  6
CONTINUOUS
 10
492.8773468775
 20
191.9194626225
 11
492.7863895631
 21
191.8316046034
  0
LINE
  5
5FB
100
AcDbEntity
  8
0
100
AcDbLine
 62
7
  6
CONTINUOUS
 10
495.2867756048
 20
193.9942137134
 11
495.1082499218
 21
193.8217711455
  0
LINE
  5
5FC
100
AcDbEntity
  8
0
100
AcDbLine
 62
7
  6
CONTINUOUS
 10
495.1889842531
 20
193.8783824314
 11
495.1189295482
 21
193.8107147827
  0
LINE
  5
5FD
100
AcDbEntity
  8
0
100
AcDbLine
 62
7
  6
CONTINUOUS
 10
495.4823583082
 20
194.1207311405
 11
495.3315314956
 21
193.9750436269
  0
LINE
  5
5FE
100
AcDbEntity
  8
0
100
AcDbLine
 62
7
  6
CONTINUOUS
 10
493.1707209326
 20
191.7762786619
 11
492.8582955646
 21
191.4744989302
  0
LINE
  5
5FF
100
AcDbEntity
  8
0
100
AcDbLine
 62
7
  6
CONTINUOUS
 10
497.3403942644
 20
195.5154118156
 11
497.2528257956
 21
195.43082717
  0
LINE
  5
600
100
AcDbEntity
  8
0
100
AcDbLine
 62
7
  6
CONTINUOUS
 10
495.873523852
 20
193.7779425181
 11
495.7735370878
 21
193.6813627203
  0
LINE
  5
601
100
AcDbEntity
  8
0
100
AcDbLine
 62
7
  6
CONTINUOUS
 10
493.5618863394
 20
191.5035871302
 11
493.1022669316
 21
191.059628874
  0
LINE
  5
602
100
AcDbEntity
  8
0
100
AcDbLine
 62
7
  6
CONTINUOUS
 10
493.366303636
 20
191.3069729954
 11
493.1109454191
 21
191.0603158988
  0
LINE
  5
603
100
AcDbEntity
  8
0
100
AcDbLine
 62
7
  6
CONTINUOUS
 10
497.3403942644
 20
194.9546369505
 11
497.2528259961
 21
194.8700524985
  0
LINE
  5
604
100
AcDbEntity
  8
0
100
AcDbLine
 62
7
  6
CONTINUOUS
 10
493.366303636
 20
191.0966825212
 11
493.1979673053
 21
190.9340821119
  0
LINE
  5
605
100
AcDbEntity
  8
0
100
AcDbLine
 62
7
  6
CONTINUOUS
 10
493.4640949877
 20
190.8970780919
 11
493.3263652612
 21
190.7640413921
  0
LINE
  5
606
100
AcDbEntity
  8
0
100
AcDbLine
 62
7
  6
CONTINUOUS
 10
493.8552603945
 20
191.2552579326
 11
493.7352762274
 21
191.1393621268
  0
LINE
  5
607
100
AcDbEntity
  8
0
100
AcDbLine
 62
7
  6
CONTINUOUS
 10
496.2646892588
 20
193.4001057493
 11
496.1771208902
 21
193.3155212005
  0
LINE
  5
608
100
AcDbEntity
  8
0
100
AcDbLine
 62
7
  6
CONTINUOUS
 10
497.3403942644
 20
194.3938624865
 11
497.2528257956
 21
194.3092778409
  0
LINE
  5
609
100
AcDbEntity
  8
0
100
AcDbLine
 62
7
  6
CONTINUOUS
 10
493.6596776911
 20
190.6030144454
 11
493.5478178235
 21
190.4949661105
  0
LINE
  5
60A
100
AcDbEntity
  8
0
100
AcDbLine
 62
7
  6
CONTINUOUS
 10
497.3403942644
 20
193.9382332595
 11
497.2528257956
 21
193.8536486139
  0
LINE
  5
60B
100
AcDbEntity
  8
0
100
AcDbLine
 62
7
  6
CONTINUOUS
 10
496.5580633824
 20
193.0816798279
 11
496.4671060155
 21
192.9938217582
  0
LINE
  5
60C
100
AcDbEntity
  8
0
100
AcDbLine
 62
7
  6
CONTINUOUS
 10
493.9530520201
 20
190.2845882002
 11
493.8445810325
 21
190.1798132719
  0
LINE
  5
60D
100
AcDbEntity
  8
0
100
AcDbLine
 62
7
  6
CONTINUOUS
 10
497.3403942644
 20
193.3774585949
 11
497.2528257956
 21
193.2928739494
  0
LINE
  5
60E
100
AcDbEntity
  8
0
100
AcDbLine
 62
7
  6
CONTINUOUS
 10
496.8514374375
 20
192.7282052929
 11
496.7254527957
 21
192.6065134737
  0
LINE
  5
60F
100
AcDbEntity
  8
0
100
AcDbLine
 62
7
  6
CONTINUOUS
 10
494.1486347235
 20
190.0956698158
 11
494.0333859445
 21
189.9843480438
  0
LINE
  5
610
100
AcDbEntity
  8
0
100
AcDbLine
 62
7
  6
CONTINUOUS
 10
496.4602719622
 20
192.1597350945
 11
496.3484120633
 21
192.0516867293
  0
LINE
  5
611
100
AcDbEntity
  8
0
100
AcDbLine
 62
7
  6
CONTINUOUS
 10
497.3403942644
 20
192.8166839304
 11
497.2528258959
 21
192.7320993816
  0
LINE
  5
612
100
AcDbEntity
  8
0
100
AcDbLine
 62
7
  6
CONTINUOUS
 10
497.0470201751
 20
192.4341416384
 11
496.8514374375
 21
192.2452232209
  0
LINE
  5
613
100
AcDbEntity
  8
0
100
AcDbLine
 62
7
  6
CONTINUOUS
 10
496.6558547341
 20
192.0409134018
 11
496.5298700923
 21
191.9192215826
  0
LINE
  5
614
100
AcDbEntity
  8
0
100
AcDbLine
 62
7
  6
CONTINUOUS
 10
494.4420087786
 20
189.8473406433
 11
494.3126352286
 21
189.7223753901
  0
LINE
  5
615
100
AcDbEntity
  8
0
100
AcDbLine
 62
7
  6
CONTINUOUS
 10
496.7536460858
 20
192.0165510677
 11
496.5892451708
 21
191.8577519781
  0
LINE
  5
616
100
AcDbEntity
  8
0
100
AcDbLine
 62
7
  6
CONTINUOUS
 10
496.8514374375
 20
192.0973339708
 11
496.5960792081
 21
191.8506768621
  0
LINE
  5
617
100
AcDbEntity
  8
0
100
AcDbLine
 62
7
  6
CONTINUOUS
 10
494.8331741854
 20
190.0653268929
 11
494.7422168961
 21
189.9774688981
  0
LINE
  5
618
100
AcDbEntity
  8
0
100
AcDbLine
 62
7
  6
CONTINUOUS
 10
494.637591482
 20
189.763567521
 11
494.466368554
 21
189.5981788728
  0
LINE
  5
619
100
AcDbEntity
  8
0
100
AcDbLine
 62
7
  6
CONTINUOUS
 10
494.7353828337
 20
189.7742535659
 11
494.5118417915
 21
189.5583295
  0
LINE
  5
61A
100
AcDbEntity
  8
0
100
AcDbLine
 62
7
  6
CONTINUOUS
 10
495.0287568888
 20
190.0166021245
 11
494.569137481
 21
189.5726438683
  0
LINE
  5
61B
100
AcDbEntity
  8
0
100
AcDbLine
 62
7
  6
CONTINUOUS
 10
497.2426029042
 20
192.1050296132
 11
496.8262326785
 21
191.7028468589
  0
LINE
  5
61C
100
AcDbEntity
  8
0
100
AcDbLine
 62
7
  6
CONTINUOUS
 10
497.3403942644
 20
191.8703767967
 11
497.0500087065
 21
191.5898858867
  0
LINE
  5
61D
100
AcDbEntity
  8
0
100
AcDbLine
 62
7
  6
CONTINUOUS
 10
491.9310273884
 20
186.435314546
 11
491.8640400903
 21
186.3706097848
  0
LINE
  5
61E
100
AcDbEntity
  8
0
100
AcDbLine
 62
7
  6
CONTINUOUS
 10
495.4199222956
 20
189.7789590721
 11
494.9603028878
 21
189.3350008158
  0
LINE
  5
61F
100
AcDbEntity
  8
0
100
AcDbLine
 62
7
  6
CONTINUOUS
 10
495.3221309439
 20
189.4177888869
 11
495.0913693371
 21
189.1948902911
  0
LINE
  5
620
100
AcDbEntity
  8
0
100
AcDbLine
 62
7
  6
CONTINUOUS
 10
495.8110878394
 20
189.4712189288
 11
495.6642006334
 21
189.3293367831
  0
LINE
  5
621
100
AcDbEntity
  8
0
100
AcDbLine
 62
7
  6
CONTINUOUS
 10
497.3403942644
 20
190.818924426
 11
497.235312182
 21
190.7174229287
  0
LINE
  5
622
100
AcDbEntity
  8
0
100
AcDbLine
 62
7
  6
CONTINUOUS
 10
496.3000445978
 20
188.9989229679
 11
496.1915736198
 21
188.8941480487
  0
LINE
  5
623
100
AcDbEntity
  8
0
100
AcDbLine
 62
7
  6
CONTINUOUS
 10
496.6912100731
 20
188.5509893751
 11
496.5634749337
 21
188.427606705
  0
LINE
  5
624
100
AcDbEntity
  8
0
100
AcDbLine
 62
7
  6
CONTINUOUS
 10
496.3978359495
 20
187.85301143
 11
496.2789311486
 21
187.738158212
  0
LINE
  5
625
100
AcDbEntity
  8
0
100
AcDbLine
 62
7
  6
CONTINUOUS
 10
496.6912100731
 20
187.6747790244
 11
496.5268091605
 21
187.515979937
  0
LINE
  5
626
100
AcDbEntity
  8
0
100
AcDbLine
 62
7
  6
CONTINUOUS
 10
497.0823755142
 20
188.032958857
 11
496.7890014248
 21
187.7495812473
  0
LINE
  5
627
100
AcDbEntity
  8
0
100
AcDbLine
 62
7
  6
CONTINUOUS
 10
496.7890014248
 20
187.7205134732
 11
496.5603553899
 21
187.499658363
  0
LINE
  5
628
100
AcDbEntity
  8
0
100
AcDbLine
 62
7
  6
CONTINUOUS
 10
497.2779582432
 20
187.7038468318
 11
496.8451639386
 21
187.2857996354
  0
LINE
  5
629
100
AcDbEntity
  8
0
100
AcDbLine
 62
7
  6
CONTINUOUS
 10
497.3757496035
 20
187.4341455862
 11
497.0781026611
 21
187.1466407174
  0
LINE
  5
62A
100
AcDbEntity
  8
0
100
AcDbLine
 62
7
  6
CONTINUOUS
 10
498.7546078268
 20
184.8912133523
 11
498.294988419
 21
184.447255096
  0
LINE
  5
62B
100
AcDbEntity
  8
0
100
AcDbLine
 62
7
  6
CONTINUOUS
 10
500.9302793567
 20
182.8746429169
 11
500.8812450042
 21
182.8272793694
  0
LINE
  5
62C
100
AcDbEntity
  8
0
100
AcDbLine
 62
7
  6
CONTINUOUS
 10
498.294988419
 20
180.288200229
 11
498.2280011209
 21
180.2234954677
  0
LINE
  5
62D
100
AcDbEntity
  8
0
100
AcDbLine
 62
7
  6
CONTINUOUS
 10
501.1959371567
 20
182.4860069287
 11
501.1304384286
 21
182.4227400156
  0
LINE
  5
62E
100
AcDbEntity
  8
0
100
AcDbLine
 62
7
  6
CONTINUOUS
 10
501.6774008669
 20
182.5992227681
 11
501.634167382
 21
182.5574624284
  0
LINE
  5
62F
100
AcDbEntity
  8
0
100
AcDbLine
 62
7
  6
CONTINUOUS
 10
502.0938988667
 20
182.6481883597
 11
501.9573916014
 21
182.5163324668
  0
LINE
  5
630
100
AcDbEntity
  8
0
100
AcDbLine
 62
7
  6
CONTINUOUS
 10
502.9365883421
 20
183.3105112959
 11
502.7786278281
 21
183.1579331559
  0
LINE
  5
631
100
AcDbEntity
  8
0
100
AcDbLine
 62
7
  6
CONTINUOUS
 10
502.8670810882
 20
182.7003430816
 11
502.807759831
 21
182.6430431472
  0
LINE
  5
632
100
AcDbEntity
  8
0
100
AcDbLine
 62
7
  6
CONTINUOUS
 10
501.7906594776
 20
181.5555137564
 11
501.7334527349
 21
181.5002562862
  0
LINE
  5
633
100
AcDbEntity
  8
0
100
AcDbLine
 62
7
  6
CONTINUOUS
 10
502.3645999824
 20
181.9823355519
 11
502.3035546703
 21
181.9233703084
  0
LINE
  5
634
100
AcDbEntity
  8
0
100
AcDbLine
 62
7
  6
CONTINUOUS
 10
502.0145344693
 20
181.6017696405
 11
501.8183970592
 21
181.4123154506
  0
LINE
  5
635
100
AcDbEntity
  8
0
100
AcDbLine
 62
7
  6
CONTINUOUS
 10
502.3111212098
 20
181.8603530377
 11
502.259053621
 21
181.810059609
  0
LINE
  5
636
100
AcDbEntity
  8
0
100
AcDbLine
 62
7
  6
CONTINUOUS
 10
502.0935491712
 20
181.6180952465
 11
501.8483774086
 21
181.3812775091
  0
LINE
  5
637
100
AcDbEntity
  8
0
100
AcDbLine
 62
7
  6
CONTINUOUS
 10
502.4917452565
 20
181.9446946275
 11
502.3040904746
 21
181.7634340272
  0
LINE
  5
638
100
AcDbEntity
  8
0
100
AcDbLine
 62
7
  6
CONTINUOUS
 10
503.086489182
 20
182.4788086845
 11
503.0064591383
 21
182.4015055984
  0
LINE
  5
639
100
AcDbEntity
  8
0
100
AcDbLine
 62
7
  6
CONTINUOUS
 10
502.2252403284
 20
181.6453045871
 11
501.8983446527
 21
181.3295476115
  0
LINE
  5
63A
100
AcDbEntity
  8
0
100
AcDbLine
 62
7
  6
CONTINUOUS
 10
502.6373071257
 20
181.8671478524
 11
502.4130993318
 21
181.6505797539
  0
LINE
  5
63B
100
AcDbEntity
  8
0
100
AcDbLine
 62
7
  6
CONTINUOUS
 10
502.5174815129
 20
181.7303534132
 11
502.4355771538
 21
181.6512398774
  0
LINE
  5
63C
100
AcDbEntity
  8
0
100
AcDbLine
 62
7
  6
CONTINUOUS
 10
503.2143179052
 20
182.3106417633
 11
503.1549966736
 21
182.2533418536
  0
LINE
  5
63D
100
AcDbEntity
  8
0
100
AcDbLine
 62
7
  6
CONTINUOUS
 10
502.3520536079
 20
181.3388623946
 11
502.3030192554
 21
181.2914988471
  0
LINE
  5
63E
100
AcDbEntity
  8
0
100
AcDbLine
 62
7
  6
CONTINUOUS
 10
502.8620841451
 20
181.6972423413
 11
502.8099460718
 21
181.6468808298
  0
LINE
  5
63F
100
AcDbEntity
  8
0
100
AcDbLine
 62
7
  6
CONTINUOUS
 10
503.0840868401
 20
181.4937044788
 11
503.0371202925
 21
181.4483382775
  0
LINE
  5
640
100
AcDbEntity
  8
0
100
AcDbLine
 62
7
  6
CONTINUOUS
 10
502.8868173877
 20
181.2075685728
 11
502.8398508401
 21
181.1622023715
  0
LINE
  5
641
100
AcDbEntity
  8
0
100
AcDbLine
 62
7
  6
CONTINUOUS
 10
503.3245061857
 20
181.250260701
 11
503.2827111674
 21
181.2098898133
  0
LINE
  5
642
100
AcDbEntity
  8
0
100
AcDbLine
 62
7
  6
CONTINUOUS
 10
503.0876291911
 20
181.0103041774
 11
503.0406626435
 21
180.9649379761
  0
LINE
  5
643
100
AcDbEntity
  8
0
100
AcDbLine
 62
7
  6
CONTINUOUS
 10
503.2304168571
 20
180.899125015
 11
503.178278783
 21
180.8487635027
  0
LINE
  5
644
100
AcDbEntity
  8
0
100
AcDbLine
 62
7
  6
CONTINUOUS
 10
503.4829362437
 20
181.0655433007
 11
503.4307981705
 21
181.0151817893
  0
LINE
  5
645
100
AcDbEntity
  8
0
100
AcDbLine
 62
7
  6
CONTINUOUS
 10
503.3547879281
 20
180.8278517034
 11
503.2887618473
 21
180.7640754067
  0
LINE
  5
646
100
AcDbEntity
  8
0
100
AcDbLine
 62
7
  6
CONTINUOUS
 10
503.4819332022
 20
180.7902107789
 11
503.385484827
 21
180.6970488025
  0
LINE
  5
647
100
AcDbEntity
  8
0
100
AcDbLine
 62
7
  6
CONTINUOUS
 10
503.4931924347
 20
180.7785543637
 11
503.3967440595
 21
180.6853923872
  0
LINE
  5
648
100
AcDbEntity
  8
0
100
AcDbLine
 62
7
  6
CONTINUOUS
 10
503.6385921263
 20
180.8471934809
 11
503.4326255946
 21
180.6482450886
  0
LINE
  5
649
100
AcDbEntity
  8
0
100
AcDbLine
 62
7
  6
CONTINUOUS
 10
503.7334495611
 20
180.6812965267
 11
503.6242437394
 21
180.5758118031
  0
LINE
  5
64A
100
AcDbEntity
  8
0
100
AcDbLine
 62
7
  6
CONTINUOUS
 10
502.9972485139
 20
179.3696323929
 11
502.9302612158
 21
179.3049276316
  0
LINE
  5
64B
100
AcDbEntity
  8
0
100
AcDbLine
 62
7
  6
CONTINUOUS
 10
503.2263394547
 20
179.018938014
 11
503.6175503992
 21
179.3968187688
  0
LINE
  5
64C
100
AcDbEntity
  8
0
100
AcDbLine
 62
7
  6
CONTINUOUS
 10
503.4568679217
 20
178.9256741366
 11
503.3898806236
 21
178.8609693753
  0
LINE
  5
64D
100
AcDbEntity
  8
0
100
AcDbLine
 62
7
  6
CONTINUOUS
 10
505.7903857376
 20
179.1573331562
 11
505.6276753417
 21
179.0001669826
  0
LINE
  5
64E
100
AcDbEntity
  8
0
100
AcDbLine
 62
7
  6
CONTINUOUS
 10
493.2331569452
 20
195.7675665399
 11
493.3309482969
 21
195.8483494429
  0
LINE
  5
64F
100
AcDbEntity
  8
0
100
AcDbLine
 62
7
  6
CONTINUOUS
 10
492.8773468775
 20
191.9194626225
 11
492.7795555258
 21
191.8386797194
  0
LINE
  5
650
100
AcDbEntity
  8
0
100
AcDbLine
 62
7
  6
CONTINUOUS
 10
496.8514374375
 20
192.0973339708
 11
496.7536460858
 21
192.0165510677
  0
LINE
  5
651
100
AcDbEntity
  8
0
100
AcDbLine
 62
7
  6
CONTINUOUS
 10
494.8331741854
 20
190.0653268929
 11
494.7353828337
 21
189.98454404
  0
LINE
  5
652
100
AcDbEntity
  8
0
100
AcDbLine
 62
7
  6
CONTINUOUS
 10
497.2779582432
 20
187.0729754093
 11
497.3757496035
 21
187.1537582539
  0
LINE
  5
653
100
AcDbEntity
  8
0
100
AcDbLine
 62
7
  6
CONTINUOUS
 10
512.8967434505
 20
177.701435442
 11
512.6629848173
 21
177.475641941
  0
LINE
  5
654
100
AcDbEntity
  8
0
100
AcDbLine
 62
7
  6
CONTINUOUS
 10
513.2502968411
 20
177.2305195685
 11
512.8967434505
 21
176.8890132175
  0
LINE
  5
655
100
AcDbEntity
  8
0
100
AcDbLine
 62
7
  6
CONTINUOUS
 10
515.6258748087
 20
174.1098233517
 11
515.5558200838
 21
174.0421556836
  0
LINE
  5
656
100
AcDbEntity
  8
0
100
AcDbLine
 62
7
  6
CONTINUOUS
 10
515.9388071341
 20
174.115979952
 11
515.6258748087
 21
173.813710537
  0
LINE
  5
657
100
AcDbEntity
  8
0
100
AcDbLine
 62
7
  6
CONTINUOUS
 10
515.9388071341
 20
173.8075539367
 11
515.7458203851
 21
173.6211430516
  0
LINE
  5
658
100
AcDbEntity
  8
0
100
AcDbLine
 62
7
  6
CONTINUOUS
 10
515.9388071341
 20
173.6673602806
 11
515.8267195762
 21
173.5590920136
  0
LINE
  5
659
100
AcDbEntity
  8
0
100
AcDbLine
 62
7
  6
CONTINUOUS
 10
512.6492560771
 20
170.046509012
 11
512.582268779
 21
169.9818042508
  0
LINE
  5
65A
100
AcDbEntity
  8
0
100
AcDbLine
 62
7
  6
CONTINUOUS
 10
512.8967434505
 20
170.0801661881
 11
512.6885902294
 21
169.879105616
  0
LINE
  5
65B
100
AcDbEntity
  8
0
100
AcDbLine
 62
7
  6
CONTINUOUS
 10
513.2502968411
 20
169.4659482154
 11
513.183309543
 21
169.4012434541
  0
LINE
  5
65C
100
AcDbEntity
  8
0
100
AcDbLine
 62
7
  6
CONTINUOUS
 10
517.3470027082
 20
172.4473414632
 11
517.2744331317
 21
172.3772446352
  0
LINE
  5
65D
100
AcDbEntity
  8
0
100
AcDbLine
 62
7
  6
CONTINUOUS
 10
517.581702007
 20
172.2486780522
 11
517.4949252346
 21
172.1648581266
  0
LINE
  5
65E
100
AcDbEntity
  8
0
100
AcDbLine
 62
7
  6
CONTINUOUS
 10
517.7381681697
 20
172.1816595344
 11
517.6181839986
 21
172.0657637247
  0
LINE
  5
65F
100
AcDbEntity
  8
0
100
AcDbLine
 62
7
  6
CONTINUOUS
 10
517.8164012785
 20
172.2462858303
 11
517.6244265874
 21
172.0608525182
  0
LINE
  5
660
100
AcDbEntity
  8
0
100
AcDbLine
 62
7
  6
CONTINUOUS
 10
518.1293336313
 20
171.9440163888
 11
518.0425568486
 21
171.8601964533
  0
LINE
  5
661
100
AcDbEntity
  8
0
100
AcDbLine
 62
7
  6
CONTINUOUS
 10
519.2607044812
 20
171.554321125
 11
518.9071510906
 21
171.212814774
  0
LINE
  5
662
100
AcDbEntity
  8
0
100
AcDbLine
 62
7
  6
CONTINUOUS
 10
518.9071510906
 20
164.0018466003
 11
518.8401637925
 21
163.937141839
  0
LINE
  5
663
100
AcDbEntity
  8
0
100
AcDbLine
 62
7
  6
CONTINUOUS
 10
523.4448617607
 20
161.4650755915
 11
523.391180367
 21
161.4132233469
  0
LINE
  5
664
100
AcDbEntity
  8
0
100
AcDbLine
 62
7
  6
CONTINUOUS
 10
523.5244193172
 20
161.4460105915
 11
523.4044386227
 21
161.33011814
  0
LINE
  5
665
100
AcDbEntity
  8
0
100
AcDbLine
 62
7
  6
CONTINUOUS
 10
523.6641716103
 20
161.3758124592
 11
523.4739744702
 21
161.1920961295
  0
LINE
  5
666
100
AcDbEntity
  8
0
100
AcDbLine
 62
7
  6
CONTINUOUS
 10
523.6004576635
 20
161.2128534286
 11
523.5246520548
 21
161.1396308333
  0
LINE
  5
667
100
AcDbEntity
  8
0
100
AcDbLine
 62
7
  6
CONTINUOUS
 10
523.6071361748
 20
161.205939325
 11
523.531330566
 21
161.1327167297
  0
LINE
  5
668
100
AcDbEntity
  8
0
100
AcDbLine
 62
7
  6
CONTINUOUS
 10
523.6280786595
 20
161.1275043206
 11
523.5702163266
 21
161.0716135989
  0
LINE
  5
669
100
AcDbEntity
  8
0
100
AcDbLine
 62
7
  6
CONTINUOUS
 10
523.8845345981
 20
161.2128805623
 11
523.8324518787
 21
161.1625725185
  0
LINE
  5
66A
100
AcDbEntity
  8
0
100
AcDbLine
 62
7
  6
CONTINUOUS
 10
523.7092158665
 20
160.9979361873
 11
523.6571331427
 21
160.9476281393
  0
LINE
  5
66B
100
AcDbEntity
  8
0
100
AcDbLine
 62
7
  6
CONTINUOUS
 10
523.8102425898
 20
160.8636016707
 11
523.7730229115
 21
160.8276502222
  0
LINE
  5
66C
100
AcDbEntity
  8
0
100
AcDbLine
 62
7
  6
CONTINUOUS
 10
517.8164012785
 20
172.2462858303
 11
517.7381681697
 21
172.1816595344
  0
LINE
  5
66D
100
AcDbEntity
  8
0
100
AcDbLine
 62
7
  6
CONTINUOUS
 10
497.2426029042
 20
191.5442550489
 11
497.3403942644
 21
191.5899894644
  0
LINE
  5
66E
100
AcDbEntity
  8
0
100
AcDbLine
 62
7
  6
CONTINUOUS
 10
495.3221309439
 20
189.4177888869
 11
495.4199222956
 21
189.4635233608
  0
LINE
  5
66F
100
AcDbEntity
  8
0
100
AcDbLine
 62
7
  6
CONTINUOUS
 10
495.2243395922
 20
189.1617639388
 11
495.3221309439
 21
189.2074984127
  0
LINE
  5
670
100
AcDbEntity
  8
0
100
AcDbLine
 62
7
  6
CONTINUOUS
 10
496.7890014248
 20
187.7205134732
 11
496.6912100731
 21
187.6747790244
  0
LINE
  5
671
100
AcDbEntity
  8
0
100
AcDbLine
 62
7
  6
CONTINUOUS
 10
502.5174815129
 20
181.7303534132
 11
502.5626375549
 21
181.7514388016
  0
LINE
  5
672
100
AcDbEntity
  8
0
100
AcDbLine
 62
7
  6
CONTINUOUS
 10
503.5270892442
 20
180.8112961674
 11
503.4819332022
 21
180.7902107789
  0
LINE
  5
673
100
AcDbEntity
  8
0
100
AcDbLine
 62
7
  6
CONTINUOUS
 10
539.4622938774
 20
151.1697267566
 11
539.5405269657
 21
151.2623917755
  0
LINE
  5
674
100
AcDbEntity
  8
0
100
AcDbLine
 62
7
  6
CONTINUOUS
 10
524.1054241124
 20
161.0131142933
 11
524.0579783337
 21
160.9672851903
  0
LINE
  5
675
100
AcDbEntity
  8
0
100
AcDbLine
 62
7
  6
CONTINUOUS
 10
524.0321851925
 20
160.5901666491
 11
523.9926470446
 21
160.5519757308
  0
LINE
  5
676
100
AcDbEntity
  8
0
100
AcDbLine
 62
7
  6
CONTINUOUS
 10
524.1300525375
 20
160.6768385204
 11
524.0782531728
 21
160.6268041763
  0
LINE
  5
677
100
AcDbEntity
  8
0
100
AcDbLine
 62
7
  6
CONTINUOUS
 10
524.2294994974
 20
160.653007267
 11
524.1037010506
 21
160.5314952983
  0
LINE
  5
678
100
AcDbEntity
  8
0
100
AcDbLine
 62
7
  6
CONTINUOUS
 10
524.1127958589
 20
160.4974328913
 11
524.0778946516
 21
160.4637209138
  0
LINE
  5
679
100
AcDbEntity
  8
0
100
AcDbLine
 62
7
  6
CONTINUOUS
 10
524.3692518189
 20
160.5828091278
 11
524.1427872039
 21
160.3640611075
  0
LINE
  5
67A
100
AcDbEntity
  8
0
100
AcDbLine
 62
7
  6
CONTINUOUS
 10
524.7755233244
 20
160.9429144086
 11
524.6462166399
 21
160.8180137424
  0
LINE
  5
67B
100
AcDbEntity
  8
0
100
AcDbLine
 62
7
  6
CONTINUOUS
 10
524.2856484403
 20
160.4246163575
 11
524.1814830015
 21
160.32400027
  0
LINE
  5
67C
100
AcDbEntity
  8
0
100
AcDbLine
 62
7
  6
CONTINUOUS
 10
524.2923269515
 20
160.4177022538
 11
524.1881615128
 21
160.3170861663
  0
LINE
  5
67D
100
AcDbEntity
  8
0
100
AcDbLine
 62
7
  6
CONTINUOUS
 10
524.3132694362
 20
160.3392672495
 11
524.2374638275
 21
160.2660446542
  0
LINE
  5
67E
100
AcDbEntity
  8
0
100
AcDbLine
 62
7
  6
CONTINUOUS
 10
524.8482595266
 20
160.7475241863
 11
524.7486366948
 21
160.6512959202
  0
LINE
  5
67F
100
AcDbEntity
  8
0
100
AcDbLine
 62
7
  6
CONTINUOUS
 10
524.3541013101
 20
160.2560659951
 11
524.2987479035
 21
160.2025987101
  0
LINE
  5
680
100
AcDbEntity
  8
0
100
AcDbLine
 62
7
  6
CONTINUOUS
 10
524.8356017155
 20
160.7012250892
 11
524.7656627573
 21
160.6336692432
  0
LINE
  5
681
100
AcDbEntity
  8
0
100
AcDbLine
 62
7
  6
CONTINUOUS
 10
524.9767748861
 20
160.813840665
 11
524.8956297527
 21
160.735460485
  0
LINE
  5
682
100
AcDbEntity
  8
0
100
AcDbLine
 62
7
  6
CONTINUOUS
 10
524.5896147498
 20
160.4198772446
 11
524.5375320304
 21
160.3695692008
  0
LINE
  5
683
100
AcDbEntity
  8
0
100
AcDbLine
 62
7
  6
CONTINUOUS
 10
524.4551279769
 20
160.1217315435
 11
524.4063159468
 21
160.074582743
  0
LINE
  5
684
100
AcDbEntity
  8
0
100
AcDbLine
 62
7
  6
CONTINUOUS
 10
524.9360153063
 20
160.4917115706
 11
524.883977385
 21
160.4414467985
  0
LINE
  5
685
100
AcDbEntity
  8
0
100
AcDbLine
 62
7
  6
CONTINUOUS
 10
524.7701989309
 20
160.2664778545
 11
524.7204346819
 21
160.2184092811
  0
LINE
  5
686
100
AcDbEntity
  8
0
100
AcDbLine
 62
7
  6
CONTINUOUS
 10
525.2207235335
 20
160.6102213184
 11
525.1692569678
 21
160.5605084334
  0
LINE
  5
687
100
AcDbEntity
  8
0
100
AcDbLine
 62
7
  6
CONTINUOUS
 10
524.5760439764
 20
159.9826309068
 11
524.5341873574
 21
159.9422005175
  0
LINE
  5
688
100
AcDbEntity
  8
0
100
AcDbLine
 62
7
  6
CONTINUOUS
 10
525.1194611437
 20
160.2398284174
 11
525.0728523804
 21
160.1948078091
  0
LINE
  5
689
100
AcDbEntity
  8
0
100
AcDbLine
 62
7
  6
CONTINUOUS
 10
524.716849365
 20
159.8387640201
 11
524.6740405292
 21
159.79741386
  0
LINE
  5
68A
100
AcDbEntity
  8
0
100
AcDbLine
 62
7
  6
CONTINUOUS
 10
525.4093172842
 20
160.4348484778
 11
525.3618013091
 21
160.3889515703
  0
LINE
  5
68B
100
AcDbEntity
  8
0
100
AcDbLine
 62
7
  6
CONTINUOUS
 10
525.0115044034
 20
160.0251109532
 11
524.9686955655
 21
159.983760791
  0
LINE
  5
68C
100
AcDbEntity
  8
0
100
AcDbLine
 62
7
  6
CONTINUOUS
 10
524.8775441852
 20
159.6901308475
 11
524.8300984066
 21
159.6443017446
  0
LINE
  5
68D
100
AcDbEntity
  8
0
100
AcDbLine
 62
7
  6
CONTINUOUS
 10
525.6054207743
 20
160.2292645025
 11
525.5645253877
 21
160.1897625924
  0
LINE
  5
68E
100
AcDbEntity
  8
0
100
AcDbLine
 62
7
  6
CONTINUOUS
 10
525.2130311257
 20
159.7932764937
 11
525.1609484064
 21
159.74296845
  0
LINE
  5
68F
100
AcDbEntity
  8
0
100
AcDbLine
 62
7
  6
CONTINUOUS
 10
525.3657714591
 20
159.9294877045
 11
525.3255163745
 21
159.8906042787
  0
LINE
  5
690
100
AcDbEntity
  8
0
100
AcDbLine
 62
7
  6
CONTINUOUS
 10
525.0178230332
 20
159.5830983363
 11
524.965740313
 21
159.5327902918
  0
LINE
  5
691
100
AcDbEntity
  8
0
100
AcDbLine
 62
7
  6
CONTINUOUS
 10
525.117796548
 20
159.522432704
 11
525.0556246964
 21
159.4623793069
  0
LINE
  5
692
100
AcDbEntity
  8
0
100
AcDbLine
 62
7
  6
CONTINUOUS
 10
525.738659885
 20
160.0821379627
 11
525.7023553704
 21
160.0470704944
  0
LINE
  5
693
100
AcDbEntity
  8
0
100
AcDbLine
 62
7
  6
CONTINUOUS
 10
525.2570223146
 20
159.4890689438
 11
525.1607645023
 21
159.3960910369
  0
LINE
  5
694
100
AcDbEntity
  8
0
100
AcDbLine
 62
7
  6
CONTINUOUS
 10
525.3747790131
 20
159.5709745736
 11
525.1766742437
 21
159.3796200606
  0
LINE
  5
695
100
AcDbEntity
  8
0
100
AcDbLine
 62
7
  6
CONTINUOUS
 10
525.6045719259
 20
159.649358145
 11
525.5682674529
 21
159.6142907168
  0
LINE
  5
696
100
AcDbEntity
  8
0
100
AcDbLine
 62
7
  6
CONTINUOUS
 10
525.4763321782
 20
159.3998057952
 11
525.3484438607
 21
159.2762751664
  0
LINE
  5
697
100
AcDbEntity
  8
0
100
AcDbLine
 62
7
  6
CONTINUOUS
 10
525.9422731146
 20
159.8463428528
 11
525.9020180508
 21
159.807459447
  0
LINE
  5
698
100
AcDbEntity
  8
0
100
AcDbLine
 62
7
  6
CONTINUOUS
 10
526.4526006389
 20
160.2730764364
 11
526.3829679951
 21
160.2058164674
  0
LINE
  5
699
100
AcDbEntity
  8
0
100
AcDbLine
 62
7
  6
CONTINUOUS
 10
526.6618897936
 20
160.0449689985
 11
526.5861901545
 21
159.9718487621
  0
LINE
  5
69A
100
AcDbEntity
  8
0
100
AcDbLine
 62
7
  6
CONTINUOUS
 10
525.9264047134
 20
159.3268588576
 11
525.888819657
 21
159.290554481
  0
LINE
  5
69B
100
AcDbEntity
  8
0
100
AcDbLine
 62
7
  6
CONTINUOUS
 10
524.9175587307
 20
158.1962386342
 11
524.8505714326
 21
158.1315338729
  0
LINE
  5
69C
100
AcDbEntity
  8
0
100
AcDbLine
 62
7
  6
CONTINUOUS
 10
526.2589578059
 20
159.4473333648
 11
526.2062093315
 21
159.3963822511
  0
LINE
  5
69D
100
AcDbEntity
  8
0
100
AcDbLine
 62
7
  6
CONTINUOUS
 10
526.7618049528
 20
159.8950801259
 11
526.7210980433
 21
159.8557602707
  0
LINE
  5
69E
100
AcDbEntity
  8
0
100
AcDbLine
 62
7
  6
CONTINUOUS
 10
526.0798112761
 20
159.1958204045
 11
526.028344709
 21
159.1461075181
  0
LINE
  5
69F
100
AcDbEntity
  8
0
100
AcDbLine
 62
7
  6
CONTINUOUS
 10
526.4072165047
 20
159.239784537
 11
526.3357557298
 21
159.170758729
  0
LINE
  5
6A0
100
AcDbEntity
  8
0
100
AcDbLine
 62
7
  6
CONTINUOUS
 10
526.2533853893
 20
159.0808699139
 11
526.1940176398
 21
159.0235250713
  0
LINE
  5
6A1
100
AcDbEntity
  8
0
100
AcDbLine
 62
7
  6
CONTINUOUS
 10
526.3565852851
 20
159.0545881176
 11
526.2569624302
 21
158.9583598291
  0
LINE
  5
6A2
100
AcDbEntity
  8
0
100
AcDbLine
 62
7
  6
CONTINUOUS
 10
526.48510062
 20
159.1209046273
 11
526.300017244
 21
158.9421278144
  0
LINE
  5
6A3
100
AcDbEntity
  8
0
100
AcDbLine
 62
7
  6
CONTINUOUS
 10
525.1630037884
 20
157.8297473915
 11
525.5217923683
 21
158.1763105469
  0
LINE
  5
6A4
100
AcDbEntity
  8
0
100
AcDbLine
 62
7
  6
CONTINUOUS
 10
526.5704946579
 20
158.9718134711
 11
526.441187929
 21
158.8469127622
  0
LINE
  5
6A5
100
AcDbEntity
  8
0
100
AcDbLine
 62
7
  6
CONTINUOUS
 10
525.3771781385
 20
157.752280378
 11
525.3101908404
 21
157.6875756167
  0
LINE
  5
6A6
100
AcDbEntity
  8
0
100
AcDbLine
 62
7
  6
CONTINUOUS
 10
526.593024047
 20
158.8811799709
 11
526.5448677592
 21
158.8346645688
  0
LINE
  5
6A7
100
AcDbEntity
  8
0
100
AcDbLine
 62
7
  6
CONTINUOUS
 10
528.5985949649
 20
158.5229163447
 11
528.3903087694
 21
158.3217273292
  0
LINE
  5
6A8
100
AcDbEntity
  8
0
100
AcDbLine
 62
7
  6
CONTINUOUS
 10
529.4227191287
 20
156.6414765029
 11
529.3072439173
 21
156.5299360139
  0
LINE
  5
6A9
100
AcDbEntity
  8
0
100
AcDbLine
 62
7
  6
CONTINUOUS
 10
534.1099468861
 20
157.2110543852
 11
533.7111124298
 21
156.8258098834
  0
LINE
  5
6AA
100
AcDbEntity
  8
0
100
AcDbLine
 62
7
  6
CONTINUOUS
 10
534.4635002767
 20
156.7401385117
 11
534.1099468861
 21
156.3986321608
  0
LINE
  5
6AB
100
AcDbEntity
  8
0
100
AcDbLine
 62
7
  6
CONTINUOUS
 10
537.037068143
 20
153.4281987384
 11
536.9670134181
 21
153.3605310703
  0
LINE
  5
6AC
100
AcDbEntity
  8
0
100
AcDbLine
 62
7
  6
CONTINUOUS
 10
537.3500004685
 20
153.4343553387
 11
537.037068143
 21
153.1320859237
  0
LINE
  5
6AD
100
AcDbEntity
  8
0
100
AcDbLine
 62
7
  6
CONTINUOUS
 10
533.6503274784
 20
149.7610317658
 11
533.5833401803
 21
149.6963270046
  0
LINE
  5
6AE
100
AcDbEntity
  8
0
100
AcDbLine
 62
7
  6
CONTINUOUS
 10
537.3500004685
 20
153.1259293234
 11
537.1570137194
 21
152.9395184383
  0
LINE
  5
6AF
100
AcDbEntity
  8
0
100
AcDbLine
 62
7
  6
CONTINUOUS
 10
537.3500004685
 20
152.9857356673
 11
537.2379129106
 21
152.8774674003
  0
LINE
  5
6B0
100
AcDbEntity
  8
0
100
AcDbLine
 62
7
  6
CONTINUOUS
 10
534.1099468861
 20
149.553175256
 11
533.9207443309
 21
149.3704196215
  0
LINE
  5
6B1
100
AcDbEntity
  8
0
100
AcDbLine
 62
7
  6
CONTINUOUS
 10
534.4635002767
 20
148.9755671587
 11
534.3965129786
 21
148.9108623974
  0
LINE
  5
6B2
100
AcDbEntity
  8
0
100
AcDbLine
 62
7
  6
CONTINUOUS
 10
538.7581960425
 20
151.7657168499
 11
538.6856264661
 21
151.6956200219
  0
LINE
  5
6B3
100
AcDbEntity
  8
0
100
AcDbLine
 62
7
  6
CONTINUOUS
 10
538.9928953414
 20
151.5670534389
 11
538.9061185689
 21
151.4832335133
  0
LINE
  5
6B4
100
AcDbEntity
  8
0
100
AcDbLine
 62
7
  6
CONTINUOUS
 10
539.1493615041
 20
151.5000349211
 11
539.0293773329
 21
151.3841391114
  0
LINE
  5
6B5
100
AcDbEntity
  8
0
100
AcDbLine
 62
7
  6
CONTINUOUS
 10
539.2275946128
 20
151.564661217
 11
539.0356199218
 21
151.3792279049
  0
LINE
  5
6B6
100
AcDbEntity
  8
0
100
AcDbLine
 62
7
  6
CONTINUOUS
 10
539.5405269656
 20
151.2623917755
 11
539.4537501829
 21
151.17857184
  0
LINE
  5
6B7
100
AcDbEntity
  8
0
100
AcDbLine
 62
7
  6
CONTINUOUS
 10
540.4739079168
 20
151.0639400682
 11
540.1203545262
 21
150.7224337172
  0
LINE
  5
6B8
100
AcDbEntity
  8
0
100
AcDbLine
 62
7
  6
CONTINUOUS
 10
523.4448617607
 20
161.4650755915
 11
523.3857201198
 21
161.4425399694
  0
LINE
  5
6B9
100
AcDbEntity
  8
0
100
AcDbLine
 62
7
  6
CONTINUOUS
 10
540.1203545262
 20
143.5114655435
 11
540.0533672281
 21
143.4467607822
  0
LINE
  5
6BA
100
AcDbEntity
  8
RUNDUNGEN
100
AcDbLine
 62
7
  6
CONTINUOUS
 10
551.0001683958
 20
134.6963380103
 11
554.5357023018
 21
138.1114015198
  0
LINE
  5
6BB
100
AcDbEntity
  8
0
100
AcDbLine
 62
7
  6
CONTINUOUS
 10
539.2275946128
 20
151.564661217
 11
539.1493615041
 21
151.5000349211
  0
LINE
  5
6BC
100
AcDbEntity
  8
0
100
AcDbLine
 62
7
  6
CONTINUOUS
 10
524.1300525375
 20
160.6768385204
 11
524.0709108965
 21
160.6543028983
  0
LINE
  5
6BD
100
AcDbEntity
  8
0
100
AcDbLine
 62
7
  6
CONTINUOUS
 10
525.4386596053
 20
159.2620007702
 11
525.4978012569
 21
159.2845363929
  0
LINE
  5
6BE
100
AcDbEntity
  8
RUNDUNGEN
100
AcDbLine
 62
7
  6
CONTINUOUS
 10
561.6809312571
 20
128.6428729021
 11
565.2164651631
 21
132.0579364115
  0
LINE
  5
6BF
100
AcDbEntity
  8
RUNDUNGEN
100
AcDbLine
 62
7
  6
CONTINUOUS
 10
561.6129502089
 20
109.6791617108
 11
565.1484841149
 21
113.0942252203
  0
ARC
  5
6C0
100
AcDbEntity
  8
KONSTRUKTIONSELEMENTE
100
AcDbCircle
 62
7
  6
CONTINUOUS
 10
705.7008563069
 20
160.9559837847
 40
46.8
100
AcDbArc
 50
41.6553646926
 51
65.9022287256
  0
ARC
  5
6C1
100
AcDbEntity
  8
KONSTRUKTIONSELEMENTE
100
AcDbCircle
 62
7
  6
CONTINUOUS
 10
705.7008563069
 20
160.9559837847
 40
46.8
100
AcDbArc
 50
84.0977712744
 51
108.3446353074
  0
ARC
  5
6C2
100
AcDbEntity
  8
BEZUGSACHSEN
100
AcDbCircle
 62
7
  6
CONTINUOUS
 10
736.2673855335
 20
275.0318238694
 40
18.5
100
AcDbArc
 50
119.6562818467
 51
30.3437181533
  0
ARC
  5
6C3
100
AcDbEntity
  8
0
100
AcDbCircle
 62
7
  6
CONTINUOUS
 10
737.6908902815
 20
280.344415914
 40
13.0
100
AcDbArc
 50
165.0
 51
345.0
  0
ARC
  5
6C4
100
AcDbEntity
  8
KONSTRUKTIONSELEMENTE
100
AcDbCircle
 62
7
  6
CONTINUOUS
 10
729.8581750104
 20
251.6637401746
 40
9.5600220346
100
AcDbArc
 50
235.2472929192
 51
242.2525711219
  0
ARC
  5
6C5
100
AcDbEntity
  8
KONSTRUKTIONSELEMENTE
100
AcDbCircle
 62
7
  6
CONTINUOUS
 10
730.1363521077
 20
251.470127531
 40
9.440483902
100
AcDbArc
 50
267.7159617125
 51
274.8017277657
  0
ARC
  5
6C6
100
AcDbEntity
  8
RUNDUNGEN
100
AcDbCircle
 62
7
  6
CONTINUOUS
 10
701.3968318759
 20
256.9405417807
 40
8.0
100
AcDbArc
 50
87.037384222
 51
165.0
  0
ARC
  5
6C7
100
AcDbEntity
  8
RUNDUNGEN
100
AcDbCircle
 62
7
  6
CONTINUOUS
 10
757.4205298006
 20
241.9290371648
 40
8.0
100
AcDbArc
 50
345.0
 51
62.962615778
  0
ARC
  5
6C8
100
AcDbEntity
  8
KONSTRUKTIONSELEMENTE
100
AcDbCircle
 62
7
  6
CONTINUOUS
 10
725.9663875384
 20
236.5879759831
 40
7.4
100
AcDbArc
 50
345.0000004677
 51
165.0
  0
ARC
  5
6C9
100
AcDbEntity
  8
BEZUGSACHSEN
100
AcDbCircle
 62
7
  6
CONTINUOUS
 10
717.069941505
 20
204.404987601
 40
6.5895200498
100
AcDbArc
 50
234.8584610793
 51
235.1295722559
  0
ARC
  5
6CA
100
AcDbEntity
  8
BEZUGSACHSEN
100
AcDbCircle
 62
7
  6
CONTINUOUS
 10
717.5794416158
 20
204.2684674562
 40
6.5895200482
100
AcDbArc
 50
274.8704277442
 51
275.1415389209
  0
ARC
  5
6CB
100
AcDbEntity
  8
RUNDUNGEN
100
AcDbCircle
 62
7
  6
CONTINUOUS
 10
701.470388991
 20
258.4673251113
 40
6.4714578049
100
AcDbArc
 50
72.1292556972
 51
86.9891141635
  0
ARC
  5
6CC
100
AcDbEntity
  8
RUNDUNGEN
100
AcDbCircle
 62
7
  6
CONTINUOUS
 10
758.1202245187
 20
243.2880647745
 40
6.4714411919
100
AcDbArc
 50
63.010864413
 51
77.8686453501
  0
ARC
  5
6CD
100
AcDbEntity
  8
RUNDUNGEN
100
AcDbCircle
 62
7
  6
CONTINUOUS
 10
677.8735590657
 20
206.6031676785
 40
3.3334747012
100
AcDbArc
 50
281.2964744357
 51
287.2123623221
  0
CIRCLE
  5
6CE
100
AcDbEntity
  8
BEZUGSACHSEN
100
AcDbCircle
 62
7
  6
CONTINUOUS
 10
697.5976332088
 20
225.7614447847
 40
3.0
  0
ARC
  5
6CF
100
AcDbEntity
  8
0
100
AcDbCircle
 62
7
  6
CONTINUOUS
 10
727.8964935048
 20
181.1929859368
 40
2.7679754318
100
AcDbArc
 50
335.5636876715
 51
340.3957076166
  0
ARC
  5
6D0
100
AcDbEntity
  8
KONSTRUKTIONSELEMENTE
100
AcDbCircle
 62
7
  6
CONTINUOUS
 10
715.7159167206
 20
198.3326980897
 40
2.5
100
AcDbArc
 50
165.0
 51
345.0
  0
ARC
  5
6D1
100
AcDbEntity
  8
KONSTRUKTIONSELEMENTE
100
AcDbCircle
 62
7
  6
CONTINUOUS
 10
731.5465154343
 20
257.4132968034
 40
2.5
100
AcDbArc
 50
343.1688338955
 51
345.0
  0
ARC
  5
6D2
100
AcDbEntity
  8
KONSTRUKTIONSELEMENTE
100
AcDbCircle
 62
7
  6
CONTINUOUS
 10
731.5465154343
 20
257.4132968034
 40
2.5
100
AcDbArc
 50
165.0
 51
166.8311661045
  0
ARC
  5
6D3
100
AcDbEntity
  8
0
100
AcDbCircle
 62
7
  6
CONTINUOUS
 10
698.4256897624
 20
188.2393988399
 40
0.5420477023
100
AcDbArc
 50
63.8903114982
 51
74.9692795104
  0
ARC
  5
6D4
100
AcDbEntity
  8
0
100
AcDbCircle
 62
7
  6
CONTINUOUS
 10
780.6548517685
 20
440.688103078
 40
13.0
100
AcDbArc
 50
345.0
 51
165.0
  0
ARC
  5
6D5
100
AcDbEntity
  8
KONSTRUKTIONSELEMENTE
100
AcDbCircle
 62
7
  6
CONTINUOUS
 10
885.1142183719
 20
160.9559837847
 40
46.8
100
AcDbArc
 50
114.0977712744
 51
138.3446353074
  0
ARC
  5
6D6
100
AcDbEntity
  8
KONSTRUKTIONSELEMENTE
100
AcDbCircle
 62
7
  6
CONTINUOUS
 10
885.1142183719
 20
160.9559837847
 40
46.8
100
AcDbArc
 50
71.6553646926
 51
95.9022287256
  0
ARC
  5
6D7
100
AcDbEntity
  8
BEZUGSACHSEN
100
AcDbCircle
 62
7
  6
CONTINUOUS
 10
854.5476891453
 20
275.0318238694
 40
18.5
100
AcDbArc
 50
149.6562818467
 51
60.3437181533
  0
ARC
  5
6D8
100
AcDbEntity
  8
0
100
AcDbCircle
 62
7
  6
CONTINUOUS
 10
853.1241843973
 20
280.344415914
 40
13.0
100
AcDbArc
 50
195.0
 51
15.0
  0
ARC
  5
6D9
100
AcDbEntity
  8
0
100
AcDbCircle
 62
7
  6
CONTINUOUS
 10
833.3945448782
 20
241.9290371648
 40
8.0
100
AcDbArc
 50
117.037384222
 51
195.0
  0
ARC
  5
6DA
100
AcDbEntity
  8
0
100
AcDbCircle
 62
7
  6
CONTINUOUS
 10
889.4182428029
 20
256.9405417807
 40
8.0
100
AcDbArc
 50
15.0
 51
92.962615778
  0
ARC
  5
6DB
100
AcDbEntity
  8
0
100
AcDbCircle
 62
7
  6
CONTINUOUS
 10
864.8486871404
 20
236.5879759831
 40
7.4
100
AcDbArc
 50
15.0
 51
194.9999995323
  0
ARC
  5
6DC
100
AcDbEntity
  8
0
100
AcDbCircle
 62
7
  6
CONTINUOUS
 10
889.3446856877
 20
258.4673251113
 40
6.4714578049
100
AcDbArc
 50
93.0108858365
 51
107.8707443028
  0
ARC
  5
6DD
100
AcDbEntity
  8
0
100
AcDbCircle
 62
7
  6
CONTINUOUS
 10
832.6948501601
 20
243.2880647745
 40
6.4714411919
100
AcDbArc
 50
102.1313546499
 51
116.989135587
  0
CIRCLE
  5
6DE
100
AcDbEntity
  8
BEZUGSACHSEN
100
AcDbCircle
 62
7
  6
CONTINUOUS
 10
893.2174414699
 20
225.7614447847
 40
3.0
  0
ARC
  5
6DF
100
AcDbEntity
  8
0
100
AcDbCircle
 62
7
  6
CONTINUOUS
 10
795.4075373394
 20
495.7458751764
 40
102.0
100
AcDbArc
 50
180.0
 51
247.6761185052
  0
ARC
  5
6E0
100
AcDbEntity
  8
0
100
AcDbCircle
 62
7
  6
CONTINUOUS
 10
795.4075373394
 20
495.7458751764
 40
102.0
100
AcDbArc
 50
262.3234064807
 51
277.6765935193
  0
ARC
  5
6E1
100
AcDbEntity
  8
0
100
AcDbCircle
 62
7
  6
CONTINUOUS
 10
795.4075373394
 20
495.7458751764
 40
102.0
100
AcDbArc
 50
292.3238814948
 51
360.0
  0
ARC
  5
6E2
100
AcDbEntity
  8
0
100
AcDbCircle
 62
7
  6
CONTINUOUS
 10
795.4075373394
 20
615.7458751764
 40
102.0
100
AcDbArc
 50
0.0
 51
180.0
  0
ARC
  5
6E3
100
AcDbEntity
  8
0
100
AcDbCircle
 62
7
  6
CONTINUOUS
 10
795.4075373394
 20
495.7458751764
 40
70.0
100
AcDbArc
 50
180.0
 51
244.2961183393
  0
ARC
  5
6E4
100
AcDbEntity
  8
0
100
AcDbCircle
 62
7
  6
CONTINUOUS
 10
795.4075373394
 20
495.7458751764
 40
70.0
100
AcDbArc
 50
265.704246035
 51
274.295753965
  0
ARC
  5
6E5
100
AcDbEntity
  8
0
100
AcDbCircle
 62
7
  6
CONTINUOUS
 10
795.4075373394
 20
495.7458751764
 40
70.0
100
AcDbArc
 50
295.7038816607
 51
360.0
  0
ARC
  5
6E6
100
AcDbEntity
  8
0
100
AcDbCircle
 62
7
  6
CONTINUOUS
 10
795.4075373394
 20
615.7458751764
 40
70.0
100
AcDbArc
 50
0.0
 51
180.0
  0
ARC
  5
6E7
100
AcDbEntity
  8
0
100
AcDbCircle
 62
7
  6
CONTINUOUS
 10
810.1602229102
 20
440.688103078
 40
13.0
100
AcDbArc
 50
15.0
 51
195.0
  0
ARC
  5
6E8
100
AcDbEntity
  8
0
100
AcDbCircle
 62
7
  6
CONTINUOUS
 10
251.7406615536
 20
274.7494046282
 40
105.6904692247
100
AcDbArc
 50
2.1835666675
 51
6.3833300265
  0
ARC
  5
6E9
100
AcDbEntity
  8
0
100
AcDbCircle
 62
7
  6
CONTINUOUS
 10
455.1476670324
 20
274.7494046282
 40
105.6904692248
100
AcDbArc
 50
173.6166699735
 51
177.8164333325
  0
ARC
  5
6EA
100
AcDbEntity
  8
0
100
AcDbCircle
 62
7
  6
CONTINUOUS
 10
353.444164293
 20
261.5924619759
 40
56.2123557853
100
AcDbArc
 50
268.674825962
 51
271.325174038
  0
ARC
  5
6EB
100
AcDbEntity
  8
0
100
AcDbCircle
 62
7
  6
CONTINUOUS
 10
353.444164293
 20
135.8549052092
 40
56.2123557853
100
AcDbArc
 50
88.674825962
 51
91.325174038
  0
ARC
  5
6EC
100
AcDbEntity
  8
KONSTRUKTIONSELEMENTE
100
AcDbCircle
 62
7
  6
CONTINUOUS
 10
410.463548835
 20
227.7507699343
 40
33.1455707141
100
AcDbArc
 50
44.5353474264
 51
45.9812535784
  0
ARC
  5
6ED
100
AcDbEntity
  8
KONSTRUKTIONSELEMENTE
100
AcDbCircle
 62
7
  6
CONTINUOUS
 10
352.8166054933
 20
210.5707904407
 40
20.1275590488
100
AcDbArc
 50
353.5080291163
 51
0.009014449
  0
ARC
  5
6EE
100
AcDbEntity
  8
0
100
AcDbCircle
 62
7
  6
CONTINUOUS
 10
353.444164293
 20
701.7458751764
 40
16.0
100
AcDbArc
 50
0.0
 51
180.0
  0
ARC
  5
6EF
100
AcDbEntity
  8
0
100
AcDbCircle
 62
7
  6
CONTINUOUS
 10
353.444164293
 20
409.7458751764
 40
16.0
100
AcDbArc
 50
180.0
 51
360.0
  0
ARC
  5
6F0
100
AcDbEntity
  8
KONSTRUKTIONSELEMENTE
100
AcDbCircle
 62
7
  6
CONTINUOUS
 10
473.1645498846
 20
225.8836062852
 40
15.6688141189
100
AcDbArc
 50
233.3753354951
 51
233.5160582161
  0
ARC
  5
6F1
100
AcDbEntity
  8
RUNDUNGEN
100
AcDbCircle
 62
7
  6
CONTINUOUS
 10
483.6276752148
 20
222.1160635403
 40
13.5888666573
100
AcDbArc
 50
205.8708981958
 51
206.2647342943
  0
ARC
  5
6F2
100
AcDbEntity
  8
KONSTRUKTIONSELEMENTE
100
AcDbCircle
 62
7
  6
CONTINUOUS
 10
413.2019713342
 20
254.0487869808
 40
12.2468399697
100
AcDbArc
 50
55.2809419386
 51
55.5610984191
  0
ARC
  5
6F3
100
AcDbEntity
  8
KONSTRUKTIONSELEMENTE
100
AcDbCircle
 62
7
  6
CONTINUOUS
 10
413.392261285
 20
254.3262107912
 40
11.9104261863
100
AcDbArc
 50
55.5613249795
 51
55.7966521659
  0
ARC
  5
6F4
100
AcDbEntity
  8
KONSTRUKTIONSELEMENTE
100
AcDbCircle
 62
7
  6
CONTINUOUS
 10
476.8001924387
 20
205.6241447654
 40
9.7912946396
100
AcDbArc
 50
275.8789018395
 51
278.3981303415
  0
ARC
  5
6F5
100
AcDbEntity
  8
BEZUGSACHSEN
100
AcDbCircle
 62
7
  6
CONTINUOUS
 10
353.444164293
 20
303.0318238694
 40
9.5
100
AcDbArc
 50
0.0
 51
23.2527041394
  0
ARC
  5
6F6
100
AcDbEntity
  8
BEZUGSACHSEN
100
AcDbCircle
 62
7
  6
CONTINUOUS
 10
353.444164293
 20
303.0318238694
 40
9.5
100
AcDbArc
 50
156.7472958606
 51
180.0
  0
ARC
  5
6F7
100
AcDbEntity
  8
KONSTRUKTIONSELEMENTE
100
AcDbCircle
 62
7
  6
CONTINUOUS
 10
477.0233799546
 20
205.0291250787
 40
9.3523666136
100
AcDbArc
 50
45.4559945702
 51
45.9929150436
  0
ARC
  5
6F8
100
AcDbEntity
  8
KONSTRUKTIONSELEMENTE
100
AcDbCircle
 62
7
  6
CONTINUOUS
 10
415.8586433866
 20
264.1097237971
 40
9.3523666071
100
AcDbArc
 50
45.45599457
 51
45.9929150438
  0
ARC
  5
6F9
100
AcDbEntity
  8
KONSTRUKTIONSELEMENTE
100
AcDbCircle
 62
7
  6
CONTINUOUS
 10
467.9472751845
 20
213.2671705813
 40
9.1128567777
100
AcDbArc
 50
155.3174888113
 51
179.9666787515
  0
ARC
  5
6FA
100
AcDbEntity
  8
BEZUGSACHSEN
100
AcDbCircle
 62
7
  6
CONTINUOUS
 10
354.0312127955
 20
228.2946525772
 40
8.6630364533
100
AcDbArc
 50
4.4686945854
 51
5.8512461556
  0
ARC
  5
6FB
100
AcDbEntity
  8
BEZUGSACHSEN
100
AcDbCircle
 62
7
  6
CONTINUOUS
 10
352.8571157905
 20
228.2946525772
 40
8.6630364534
100
AcDbArc
 50
174.1487538444
 51
175.5313054146
  0
ARC
  5
6FC
100
AcDbEntity
  8
BEZUGSACHSEN
100
AcDbCircle
 62
7
  6
CONTINUOUS
 10
354.0512314972
 20
228.2961486416
 40
8.6429620428
100
AcDbArc
 50
2.1757275003
 51
4.469146884
  0
ARC
  5
6FD
100
AcDbEntity
  8
BEZUGSACHSEN
100
AcDbCircle
 62
7
  6
CONTINUOUS
 10
352.8370970887
 20
228.2961486416
 40
8.6429620428
100
AcDbArc
 50
175.530853116
 51
177.8242724997
  0
ARC
  5
6FE
100
AcDbEntity
  8
KONSTRUKTIONSELEMENTE
100
AcDbCircle
 62
7
  6
CONTINUOUS
 10
447.6733280543
 20
233.3618471487
 40
7.8374984542
100
AcDbArc
 50
45.416289493
 51
45.9929054454
  0
ARC
  5
6FF
100
AcDbEntity
  8
KONSTRUKTIONSELEMENTE
100
AcDbCircle
 62
7
  6
CONTINUOUS
 10
436.5245987169
 20
243.6956771867
 40
7.6417945598
100
AcDbArc
 50
159.7236942383
 51
179.9651547733
  0
ARC
  5
700
100
AcDbEntity
  8
BEZUGSACHSEN
100
AcDbCircle
 62
7
  6
CONTINUOUS
 10
477.2897255671
 20
198.9643478176
 40
7.4707268719
100
AcDbArc
 50
57.129249783
 51
57.5274853486
  0
ARC
  5
701
100
AcDbEntity
  8
0
100
AcDbCircle
 62
7
  6
CONTINUOUS
 10
345.444164293
 20
258.9405417807
 40
6.0
100
AcDbArc
 50
90.0
 51
180.0
  0
ARC
  5
702
100
AcDbEntity
  8
RUNDUNGEN
100
AcDbCircle
 62
7
  6
CONTINUOUS
 10
361.444164293
 20
258.9405417807
 40
6.0
100
AcDbArc
 50
0.0
 51
90.0
  0
ARC
  5
703
100
AcDbEntity
  8
KONSTRUKTIONSELEMENTE
100
AcDbCircle
 62
7
  6
CONTINUOUS
 10
476.5990979835
 20
205.2813804932
 40
4.3878335172
100
AcDbArc
 50
225.9937050332
 51
227.055559899
  0
ARC
  5
704
100
AcDbEntity
  8
KONSTRUKTIONSELEMENTE
100
AcDbCircle
 62
7
  6
CONTINUOUS
 10
415.4343614089
 20
264.3619792049
 40
4.3878335145
100
AcDbArc
 50
225.9937050329
 51
227.0555598993
  0
ARC
  5
705
100
AcDbEntity
  8
KONSTRUKTIONSELEMENTE
100
AcDbCircle
 62
7
  6
CONTINUOUS
 10
477.2299294056
 20
205.1471125464
 40
4.1189460881
100
AcDbArc
 50
336.8721362905
 51
359.9590929182
  0
ARC
  5
706
100
AcDbEntity
  8
KONSTRUKTIONSELEMENTE
100
AcDbCircle
 62
7
  6
CONTINUOUS
 10
416.0699529626
 20
264.2264011087
 40
4.1141852318
100
AcDbArc
 50
334.689527825
 51
359.9772912731
  0
ARC
  5
707
100
AcDbEntity
  8
KONSTRUKTIONSELEMENTE
100
AcDbCircle
 62
7
  6
CONTINUOUS
 10
467.9187986125
 20
213.271063856
 40
4.0843599359
100
AcDbArc
 50
179.6607782887
 51
180.0341463984
  0
ARC
  5
708
100
AcDbEntity
  8
KONSTRUKTIONSELEMENTE
100
AcDbCircle
 62
7
  6
CONTINUOUS
 10
447.3226793689
 20
233.5628466263
 40
3.3624399507
100
AcDbArc
 50
225.9940708965
 51
227.2341816412
  0
ARC
  5
709
100
AcDbEntity
  8
0
100
AcDbCircle
 62
7
  6
CONTINUOUS
 10
502.8186088469
 20
176.4352253001
 40
3.173355384
100
AcDbArc
 50
73.4283765074
 51
74.5640250657
  0
ARC
  5
70A
100
AcDbEntity
  8
0
100
AcDbCircle
 62
7
  6
CONTINUOUS
 10
524.629269725
 20
155.2207467593
 40
3.1614865902
100
AcDbArc
 50
72.1838779465
 51
73.3886854488
  0
ARC
  5
70B
100
AcDbEntity
  8
KONSTRUKTIONSELEMENTE
100
AcDbCircle
 62
7
  6
CONTINUOUS
 10
447.8605923702
 20
233.4540312251
 40
3.1286794214
100
AcDbArc
 50
342.3964861857
 51
359.9749659755
  0
ARC
  5
70C
100
AcDbEntity
  8
0
100
AcDbCircle
 62
7
  6
CONTINUOUS
 10
502.8744346055
 20
176.6361748315
 40
2.9647957642
100
AcDbArc
 50
74.5703450301
 51
75.1594777198
  0
SPLINE
  5
70D
100
AcDbEntity
  8
KONSTRUKTIONSELEMENTE
100
AcDbSpline
 62
7
  6
CONTINUOUS
 70
0
 71
3
 72
11
 73
7
 74
0
 42
0.0000001
 43
0.0000001
 44
0.0000000001
 40
0.0
 40
0.0
 40
0.0
 40
0.0
 40
0.2390759488
 40
0.4845199689
 40
0.7382329877
 40
1.0
 40
1.0
 40
1.0
 40
1.0
 10
717.3104633451
 20
232.9151685335
 30
0.0
 10
717.6582614305
 20
233.300455032
 30
0.0
 10
718.4752216407
 20
233.9855487866
 30
0.0
 10
719.9290277899
 20
234.6911215147
 30
0.0
 10
721.5450711326
 20
235.083237779
 30
0.0
 10
722.6701269119
 20
235.1367961766
 30
0.0
 10
723.2380090582
 20
235.1147500957
 30
0.0
  0
SPLINE
  5
70E
100
AcDbEntity
  8
KONSTRUKTIONSELEMENTE
100
AcDbSpline
 62
7
  6
CONTINUOUS
 70
0
 71
3
 72
11
 73
7
 74
0
 42
0.0000001
 43
0.0000001
 44
0.0000000001
 40
0.0
 40
0.0
 40
0.0
 40
0.0
 40
0.2617931805
 40
0.5155111137
 40
0.7609431338
 40
1.0
 40
1.0
 40
1.0
 40
1.0
 10
727.5908558904
 20
233.9488547261
 30
0.0
 10
728.0939829668
 20
233.6839479797
 30
0.0
 10
729.042112239
 20
233.0749407817
 30
0.0
 10
730.2462530731
 20
231.9269284827
 30
0.0
 10
731.1527980274
 20
230.5884368902
 30
0.0
 10
731.5179218211
 20
229.5862914728
 30
0.0
 10
731.6264450104
 20
229.0785361561
 30
0.0
  0
SPLINE
  5
70F
100
AcDbEntity
  8
KONSTRUKTIONSELEMENTE
100
AcDbSpline
 62
7
  6
CONTINUOUS
 70
0
 71
3
 72
10
 73
6
 74
0
 42
0.0000001
 43
0.0000001
 44
0.0000000001
 40
0.0
 40
0.0
 40
0.0
 40
0.0
 40
0.3116645009
 40
0.6060899939
 40
1.0
 40
1.0
 40
1.0
 40
1.0
 10
720.4646381768
 20
229.5781294031
 30
0.0
 10
720.5156656059
 20
229.768566361
 30
0.0
 10
720.7929105729
 20
230.0787039605
 30
0.0
 10
721.3469416851
 20
230.3794302466
 30
0.0
 10
721.771307333
 20
230.5011540047
 30
0.0
 10
722.0162536873
 20
230.5469042562
 30
0.0
  0
SPLINE
  5
710
100
AcDbEntity
  8
KONSTRUKTIONSELEMENTE
100
AcDbSpline
 62
7
  6
CONTINUOUS
 70
0
 71
3
 72
10
 73
6
 74
0
 42
0.0000001
 43
0.0000001
 44
0.0000000001
 40
0.0
 40
0.0
 40
0.0
 40
0.0
 40
0.3939255147
 40
0.6883533687
 40
1.0
 40
1.0
 40
1.0
 40
1.0
 10
726.3665625228
 20
229.3813583934
 30
0.0
 10
726.5558639698
 20
229.2192499621
 30
0.0
 10
726.862563449
 20
228.9016011052
 30
0.0
 10
727.1921222017
 20
228.3641128106
 30
0.0
 10
727.2771506494
 20
227.956848942
 30
0.0
 10
727.2261189608
 20
227.7663960874
 30
0.0
  0
SPLINE
  5
711
100
AcDbEntity
  8
KONSTRUKTIONSELEMENTE
100
AcDbSpline
 62
7
  6
CONTINUOUS
 70
0
 71
3
 72
12
 73
8
 74
0
 42
0.0000001
 43
0.0000001
 44
0.0000000001
 40
0.0
 40
0.0
 40
0.0
 40
0.0
 40
0.119660423
 40
0.239791031
 40
0.4831782475
 40
0.7358868616
 40
1.0
 40
1.0
 40
1.0
 40
1.0
 10
724.22869723
 20
260.9959717305
 30
0.0
 10
724.3301575736
 20
261.3209386914
 30
0.0
 10
724.5994742789
 20
261.9536418426
 30
0.0
 10
725.3777784624
 20
263.0955247219
 30
0.0
 10
726.7589798818
 20
264.2387897865
 30
0.0
 10
728.8024923615
 20
265.0304280285
 30
0.0
 10
730.2828753145
 20
265.1833053211
 30
0.0
 10
731.0342263415
 20
265.173896762
 30
0.0
  0
SPLINE
  5
712
100
AcDbEntity
  8
KONSTRUKTIONSELEMENTE
100
AcDbSpline
 62
7
  6
CONTINUOUS
 70
0
 71
3
 72
12
 73
8
 74
0
 42
0.0000001
 43
0.0000001
 44
0.0000000001
 40
0.0
 40
0.0
 40
0.0
 40
0.0
 40
0.2641163723
 40
0.5168081693
 40
0.7601760549
 40
0.8803250158
 40
1.0
 40
1.0
 40
1.0
 40
1.0
 10
735.8712794863
 20
263.8775563686
 30
0.0
 10
736.5265718052
 20
263.5099905107
 30
0.0
 10
737.731977319
 20
262.6374419909
 30
0.0
 10
739.1054924601
 20
260.9302312094
 30
0.0
 10
739.7300189786
 20
259.2497894994
 30
0.0
 10
739.8329681566
 20
257.8718283443
 30
0.0
 10
739.7498679948
 20
257.1892147068
 30
0.0
 10
739.6752591396
 20
256.8570472476
 30
0.0
  0
SPLINE
  5
713
100
AcDbEntity
  8
KONSTRUKTIONSELEMENTE
100
AcDbSpline
 62
7
  6
CONTINUOUS
 70
0
 71
3
 72
10
 73
6
 74
0
 42
0.0000001
 43
0.0000001
 44
0.0000000001
 40
0.0
 40
0.0
 40
0.0
 40
0.0
 40
0.3192646009
 40
0.6086079864
 40
1.0
 40
1.0
 40
1.0
 40
1.0
 10
728.51719706
 20
259.6306882863
 30
0.0
 10
728.5616465847
 20
259.7965761706
 30
0.0
 10
728.7818657057
 20
260.0697382552
 30
0.0
 10
729.2370142595
 20
260.3550098753
 30
0.0
 10
729.5851065969
 20
260.4822939623
 30
0.0
 10
729.78857702
 20
260.5363898094
 30
0.0
  0
SPLINE
  5
714
100
AcDbEntity
  8
KONSTRUKTIONSELEMENTE
100
AcDbSpline
 62
7
  6
CONTINUOUS
 70
0
 71
3
 72
10
 73
6
 74
0
 42
0.0000001
 43
0.0000001
 44
0.0000000001
 40
0.0
 40
0.0
 40
0.0
 40
0.0
 40
0.3914026107
 40
0.6807340322
 40
1.0
 40
1.0
 40
1.0
 40
1.0
 10
734.6305560989
 20
259.2389311033
 30
0.0
 10
734.7797097713
 20
259.0903490729
 30
0.0
 10
735.0174729685
 20
258.8060656345
 30
0.0
 10
735.2690355287
 20
258.3314872251
 30
0.0
 10
735.3231247832
 20
257.9848332057
 30
0.0
 10
735.2786778441
 20
257.8189549706
 30
0.0
  0
SPLINE
  5
715
100
AcDbEntity
  8
KONSTRUKTIONSELEMENTE
100
AcDbSpline
 62
7
  6
CONTINUOUS
 70
0
 71
3
 72
9
 73
5
 74
0
 42
0.0000001
 43
0.0000001
 44
0.0000000001
 40
0.0
 40
0.0
 40
0.0
 40
0.0
 40
0.4878890232
 40
1.0
 40
1.0
 40
1.0
 40
1.0
 10
753.901229685
 20
269.436534052
 30
0.0
 10
751.9560995585
 20
268.7351689629
 30
0.0
 10
747.7849661381
 20
267.7835180465
 30
0.0
 10
743.5183882821
 20
267.7054257738
 30
0.0
 10
741.3538895477
 20
267.8649519049
 30
0.0
  0
SPLINE
  5
716
100
AcDbEntity
  8
KONSTRUKTIONSELEMENTE
100
AcDbSpline
 62
7
  6
CONTINUOUS
 70
0
 71
3
 72
9
 73
5
 74
0
 42
0.0000001
 43
0.0000001
 44
0.0000000001
 40
0.0
 40
0.0
 40
0.0
 40
0.0
 40
0.5121260224
 40
1.0
 40
1.0
 40
1.0
 40
1.0
 10
728.2985930637
 20
271.3588841102
 30
0.0
 10
726.3403602806
 20
272.3034095334
 30
0.0
 10
722.6770479849
 20
274.5062565575
 30
0.0
 10
719.5345588818
 20
277.4203780462
 30
0.0
 10
718.1984786875
 20
279.0029747376
 30
0.0
  0
SPLINE
  5
717
100
AcDbEntity
  8
KONSTRUKTIONSELEMENTE
100
AcDbSpline
 62
7
  6
CONTINUOUS
 70
0
 71
3
 72
9
 73
5
 74
0
 42
0.0000001
 43
0.0000001
 44
0.0000000001
 40
0.0
 40
0.0
 40
0.0
 40
0.0
 40
0.2348418344
 40
1.0
 40
1.0
 40
1.0
 40
1.0
 10
754.6111157547
 20
277.505643326
 30
0.0
 10
754.2611323969
 20
277.2859869745
 30
0.0
 10
752.7295145094
 20
276.4168266827
 30
0.0
 10
751.0552456702
 20
275.8109519391
 30
0.0
 10
749.7508908712
 20
275.4775361286
 30
0.0
  0
SPLINE
  5
718
100
AcDbEntity
  8
KONSTRUKTIONSELEMENTE
100
AcDbSpline
 62
7
  6
CONTINUOUS
 70
0
 71
3
 72
9
 73
5
 74
0
 42
0.0000001
 43
0.0000001
 44
0.0000000001
 40
0.0
 40
0.0
 40
0.0
 40
0.0
 40
0.2654819976
 40
1.0
 40
1.0
 40
1.0
 40
1.0
 10
724.8130800339
 20
282.1596686796
 30
0.0
 10
724.4790075722
 20
282.4861207631
 30
0.0
 10
723.2634293749
 20
283.7577184834
 30
0.0
 10
722.2223566576
 20
285.2042269009
 30
0.0
 10
721.6179382595
 20
286.3464924795
 30
0.0
  0
SPLINE
  5
719
100
AcDbEntity
  8
0
100
AcDbSpline
 62
7
  6
CONTINUOUS
 70
0
 71
3
 72
11
 73
7
 74
0
 42
0.0000001
 43
0.0000001
 44
0.0000000001
 40
0.0
 40
0.0
 40
0.0
 40
0.0
 40
0.2192989281
 40
0.4548225453
 40
0.7152180566
 40
1.0
 40
1.0
 40
1.0
 40
1.0
 10
730.4501327201
 20
180.0293109955
 30
0.0
 10
730.5473589578
 20
180.3921642546
 30
0.0
 10
730.5877406695
 20
181.1955291868
 30
0.0
 10
730.1738173912
 20
182.3742183781
 30
0.0
 10
729.3548596535
 20
183.4530681378
 30
0.0
 10
728.613025916
 20
184.0366911457
 30
0.0
 10
728.1999328818
 20
184.2961645169
 30
0.0
  0
SPLINE
  5
71A
100
AcDbEntity
  8
0
100
AcDbSpline
 62
7
  6
CONTINUOUS
 70
0
 71
3
 72
15
 73
11
 74
0
 42
0.0000001
 43
0.0000001
 44
0.0000000001
 40
0.0
 40
0.0
 40
0.0
 40
0.0
 40
0.1047415988
 40
0.222328371
 40
0.3560160977
 40
0.5
 40
0.6439839023
 40
0.777671629
 40
0.8952584012
 40
1.0
 40
1.0
 40
1.0
 40
1.0
 10
713.7876205446
 20
183.5088866824
 30
0.0
 10
713.7281227785
 20
183.2868379962
 30
0.0
 10
713.7445691611
 20
182.771280592
 30
0.0
 10
714.1502637898
 20
182.0772238351
 30
0.0
 10
714.8325304019
 20
181.5186220626
 30
0.0
 10
715.6971599162
 20
181.1569941127
 30
0.0
 10
716.6267650154
 20
181.0378583469
 30
0.0
 10
717.4969261198
 20
181.1804883664
 30
0.0
 10
718.1952963529
 20
181.5787118352
 30
0.0
 10
718.4673180402
 20
182.016974453
 30
0.0
 10
718.5268158063
 20
182.2390231393
 30
0.0
  0
SPLINE
  5
71B
100
AcDbEntity
  8
0
100
AcDbSpline
 62
7
  6
CONTINUOUS
 70
0
 71
3
 72
11
 73
7
 74
0
 42
0.0000001
 43
0.0000001
 44
0.0000000001
 40
0.0
 40
0.0
 40
0.0
 40
0.0
 40
0.2094689415
 40
0.4446609502
 40
0.7120169424
 40
1.0
 40
1.0
 40
1.0
 40
1.0
 10
711.4654024368
 20
186.9313488492
 30
0.0
 10
711.5281986237
 20
187.1658481159
 30
0.0
 10
711.5106217536
 20
187.7103189411
 30
0.0
 10
711.0820198711
 20
188.4432776527
 30
0.0
 10
710.3620633589
 20
189.0330608306
 30
0.0
 10
709.7590643755
 20
189.2849636434
 30
0.0
 10
709.4366819655
 20
189.3713457498
 30
0.0
  0
SPLINE
  5
71C
100
AcDbEntity
  8
0
100
AcDbSpline
 62
7
  6
CONTINUOUS
 70
0
 71
3
 72
9
 73
5
 74
0
 42
0.0000001
 43
0.0000001
 44
0.0000000001
 40
0.0
 40
0.0
 40
0.0
 40
0.0
 40
0.4402133985
 40
1.0
 40
1.0
 40
1.0
 40
1.0
 10
697.0731060957
 20
188.0876088989
 30
0.0
 10
697.0653071072
 20
188.0585026773
 30
0.0
 10
697.093149726
 20
187.9831093788
 30
0.0
 10
697.1582283283
 20
187.9506005395
 30
0.0
 10
697.1952405432
 20
187.9406831464
 30
0.0
  0
SPLINE
  5
71D
100
AcDbEntity
  8
0
100
AcDbSpline
 62
7
  6
CONTINUOUS
 70
0
 71
3
 72
9
 73
5
 74
0
 42
0.0000001
 43
0.0000001
 44
0.0000000001
 40
0.0
 40
0.0
 40
0.0
 40
0.0
 40
0.4402133985
 40
1.0
 40
1.0
 40
1.0
 40
1.0
 10
698.1233365352
 20
187.8633004638
 30
0.0
 10
698.1311355238
 20
187.8924066855
 30
0.0
 10
698.1032929049
 20
187.967799984
 30
0.0
 10
698.0382143027
 20
188.0003088233
 30
0.0
 10
698.0012020878
 20
188.0102262163
 30
0.0
  0
SPLINE
  5
71E
100
AcDbEntity
  8
0
100
AcDbSpline
 62
7
  6
CONTINUOUS
 70
0
 71
3
 72
9
 73
5
 74
0
 42
0.0000001
 43
0.0000001
 44
0.0000000001
 40
0.0
 40
0.0
 40
0.0
 40
0.0
 40
0.4402133985
 40
1.0
 40
1.0
 40
1.0
 40
1.0
 10
698.8370860726
 20
190.5270500012
 30
0.0
 10
698.8448850612
 20
190.5561562228
 30
0.0
 10
698.8170424423
 20
190.6315495214
 30
0.0
 10
698.75196384
 20
190.6640583606
 30
0.0
 10
698.7149516252
 20
190.6739757537
 30
0.0
  0
SPLINE
  5
71F
100
AcDbEntity
  8
0
100
AcDbSpline
 62
7
  6
CONTINUOUS
 70
0
 71
3
 72
11
 73
7
 74
0
 42
0.0000001
 43
0.0000001
 44
0.0000000001
 40
0.0
 40
0.0
 40
0.0
 40
0.0
 40
0.2094668498
 40
0.4446559298
 40
0.7120302568
 40
1.0
 40
1.0
 40
1.0
 40
1.0
 10
696.4011629111
 20
189.7237045889
 30
0.0
 10
696.3917048616
 20
189.6884066675
 30
0.0
 10
696.394312924
 20
189.6064462883
 30
0.0
 10
696.4588307159
 20
189.4961018251
 30
0.0
 10
696.5671998642
 20
189.4073132349
 30
0.0
 10
696.6579723374
 20
189.3693928955
 30
0.0
 10
696.7064990296
 20
189.3563902075
 30
0.0
  0
SPLINE
  5
720
100
AcDbEntity
  8
0
100
AcDbSpline
 62
7
  6
CONTINUOUS
 70
0
 71
3
 72
11
 73
7
 74
0
 42
0.0000001
 43
0.0000001
 44
0.0000000001
 40
0.0
 40
0.0
 40
0.0
 40
0.0
 40
0.2094668498
 40
0.4446559298
 40
0.7120302568
 40
1.0
 40
1.0
 40
1.0
 40
1.0
 10
695.6874133737
 20
187.0599550515
 30
0.0
 10
695.6779553242
 20
187.0246571302
 30
0.0
 10
695.6805633866
 20
186.9426967509
 30
0.0
 10
695.7450811785
 20
186.8323522877
 30
0.0
 10
695.8534503268
 20
186.7435636975
 30
0.0
 10
695.9442228001
 20
186.7056433581
 30
0.0
 10
695.9927494922
 20
186.6926406702
 30
0.0
  0
SPLINE
  5
721
100
AcDbEntity
  8
0
100
AcDbSpline
 62
7
  6
CONTINUOUS
 70
0
 71
3
 72
9
 73
5
 74
0
 42
0.0000001
 43
0.0000001
 44
0.0000000001
 40
0.0
 40
0.0
 40
0.0
 40
0.0
 40
0.2432035461
 40
1.0
 40
1.0
 40
1.0
 40
1.0
 10
702.1291369702
 20
190.7583969
 30
0.0
 10
702.1347383065
 20
190.7793013717
 30
0.0
 10
702.1506229952
 20
190.8671742069
 30
0.0
 10
702.1357176006
 20
190.959298896
 30
0.0
 10
702.1118274007
 20
191.0222638992
 30
0.0
  0
SPLINE
  5
722
100
AcDbEntity
  8
0
100
AcDbSpline
 62
7
  6
CONTINUOUS
 70
0
 71
3
 72
9
 73
5
 74
0
 42
0.0000001
 43
0.0000001
 44
0.0000000001
 40
0.0
 40
0.0
 40
0.0
 40
0.0
 40
0.2401326547
 40
1.0
 40
1.0
 40
1.0
 40
1.0
 10
702.1118274007
 20
191.0222638992
 30
0.0
 10
702.1061285452
 20
191.0372838008
 30
0.0
 10
702.0794979108
 20
191.0987251979
 30
0.0
 10
702.0418705007
 20
191.1551341562
 30
0.0
 10
702.0093747208
 20
191.1942260506
 30
0.0
  0
SPLINE
  5
723
100
AcDbEntity
  8
0
100
AcDbSpline
 62
7
  6
CONTINUOUS
 70
0
 71
3
 72
9
 73
5
 74
0
 42
0.0000001
 43
0.0000001
 44
0.0000000001
 40
0.0
 40
0.0
 40
0.0
 40
0.0
 40
0.2356425559
 40
1.0
 40
1.0
 40
1.0
 40
1.0
 10
702.0093747208
 20
191.1942260506
 30
0.0
 10
701.980259857
 20
191.2292507579
 30
0.0
 10
701.8427180124
 20
191.3661215897
 30
0.0
 10
701.661167821
 20
191.4547884855
 30
0.0
 10
701.5184647331
 20
191.4930256627
 30
0.0
  0
SPLINE
  5
724
100
AcDbEntity
  8
RUNDUNGEN
100
AcDbSpline
 62
7
  6
CONTINUOUS
 70
0
 71
3
 72
10
 73
6
 74
0
 42
0.0000001
 43
0.0000001
 44
0.0000000001
 40
0.0
 40
0.0
 40
0.0
 40
0.0
 40
0.2265435863
 40
0.4650408478
 40
1.0
 40
1.0
 40
1.0
 40
1.0
 10
672.6813032398
 20
201.5065546125
 30
0.0
 10
672.7100391947
 20
201.6135289511
 30
0.0
 10
672.8083154324
 20
201.8243251016
 30
0.0
 10
673.1505221564
 20
202.1825755904
 30
0.0
 10
673.5201595952
 20
202.3301737678
 30
0.0
 10
673.7766164281
 20
202.3816097762
 30
0.0
  0
SPLINE
  5
725
100
AcDbEntity
  8
RUNDUNGEN
100
AcDbSpline
 62
7
  6
CONTINUOUS
 70
0
 71
3
 72
9
 73
5
 74
0
 42
0.0000001
 43
0.0000001
 44
0.0000000001
 40
0.0
 40
0.0
 40
0.0
 40
0.0
 40
0.4805181646
 40
1.0
 40
1.0
 40
1.0
 40
1.0
 10
671.7662239127
 20
198.0914385628
 30
0.0
 10
671.7295102017
 20
197.9547301129
 30
0.0
 10
671.7175215108
 20
197.6500916782
 30
0.0
 10
671.8261033893
 20
197.3684494507
 30
0.0
 10
671.9019680113
 20
197.2355476502
 30
0.0
  0
SPLINE
  5
726
100
AcDbEntity
  8
RUNDUNGEN
100
AcDbSpline
 62
7
  6
CONTINUOUS
 70
0
 71
3
 72
11
 73
7
 74
0
 42
0.0000001
 43
0.0000001
 44
0.0000000001
 40
0.0
 40
0.0
 40
0.0
 40
0.0
 40
0.2256920307
 40
0.4632775486
 40
0.7205987639
 40
1.0
 40
1.0
 40
1.0
 40
1.0
 10
663.3665346941
 20
219.1038096233
 30
0.0
 10
663.4547413465
 20
219.4332574412
 30
0.0
 10
663.7563701329
 20
220.0824244309
 30
0.0
 10
664.5196755409
 20
220.8815067315
 30
0.0
 10
665.5404459558
 20
221.4786924365
 30
0.0
 10
666.3236144184
 20
221.7162762974
 30
0.0
 10
666.7375840784
 20
221.7993037085
 30
0.0
  0
SPLINE
  5
727
100
AcDbEntity
  8
RUNDUNGEN
100
AcDbSpline
 62
7
  6
CONTINUOUS
 70
0
 71
3
 72
9
 73
5
 74
0
 42
0.0000001
 43
0.0000001
 44
0.0000000001
 40
0.0
 40
0.0
 40
0.0
 40
0.0
 40
0.4805190228
 40
1.0
 40
1.0
 40
1.0
 40
1.0
 10
662.4514711847
 20
215.6887461139
 30
0.0
 10
662.3389451168
 20
215.2684663899
 30
0.0
 10
662.3029939888
 20
214.3321301311
 30
0.0
 10
662.6367710005
 20
213.4665830508
 30
0.0
 10
662.8699516234
 20
213.0580906097
 30
0.0
  0
SPLINE
  5
728
100
AcDbEntity
  8
RUNDUNGEN
100
AcDbSpline
 62
7
  6
CONTINUOUS
 70
0
 71
3
 72
11
 73
7
 74
0
 42
0.0000001
 43
0.0000001
 44
0.0000000001
 40
0.0
 40
0.0
 40
0.0
 40
0.0
 40
0.2377805525
 40
0.4809056656
 40
0.7339193662
 40
1.0
 40
1.0
 40
1.0
 40
1.0
 10
725.2617525978
 20
155.5808518433
 30
0.0
 10
725.4484400124
 20
156.2775786631
 30
0.0
 10
725.9817773576
 20
157.6497779294
 30
0.0
 10
727.2174238901
 20
159.5200032826
 30
0.0
 10
728.8574154198
 20
161.1692194165
 30
0.0
 10
730.1578742906
 20
162.072914894
 30
0.0
 10
730.8549021338
 20
162.4799132017
 30
0.0
  0
SPLINE
  5
729
100
AcDbEntity
  8
RUNDUNGEN
100
AcDbSpline
 62
7
  6
CONTINUOUS
 70
0
 71
3
 72
9
 73
5
 74
0
 42
0.0000001
 43
0.0000001
 44
0.0000000001
 40
0.0
 40
0.0
 40
0.0
 40
0.0
 40
0.4822746168
 40
1.0
 40
1.0
 40
1.0
 40
1.0
 10
725.8707056738
 20
157.2465410703
 30
0.0
 10
725.770499046
 20
156.0758777883
 30
0.0
 10
725.9908885808
 20
153.5995548704
 30
0.0
 10
726.9458016035
 20
151.31998328
 30
0.0
 10
727.5710947089
 20
150.2245770498
 30
0.0
  0
SPLINE
  5
72A
100
AcDbEntity
  8
RUNDUNGEN
100
AcDbSpline
 62
7
  6
CONTINUOUS
 70
0
 71
3
 72
9
 73
5
 74
0
 42
0.0000001
 43
0.0000001
 44
0.0000000001
 40
0.0
 40
0.0
 40
0.0
 40
0.0
 40
0.4805364501
 40
1.0
 40
1.0
 40
1.0
 40
1.0
 10
656.383211708
 20
146.9029738591
 30
0.0
 10
656.4958549106
 20
147.3233640141
 30
0.0
 10
656.9328292195
 20
148.1525742277
 30
0.0
 10
657.6548705375
 20
148.7354598108
 30
0.0
 10
658.0611566145
 20
148.972692437
 30
0.0
  0
SPLINE
  5
72B
100
AcDbEntity
  8
BEZUGSACHSEN
100
AcDbSpline
 62
7
  6
CONTINUOUS
 70
0
 71
3
 72
9
 73
5
 74
0
 42
0.0000001
 43
0.0000001
 44
0.0000000001
 40
0.0
 40
0.0
 40
0.0
 40
0.0
 40
0.4744816413
 40
1.0
 40
1.0
 40
1.0
 40
1.0
 10
711.4285094059
 20
201.2531060811
 30
0.0
 10
711.593784101
 20
200.8196458373
 30
0.0
 10
712.118019524
 20
199.9704152994
 30
0.0
 10
712.8568756925
 20
199.3122645196
 30
0.0
 10
713.2770252828
 20
199.0165220477
 30
0.0
  0
SPLINE
  5
72C
100
AcDbEntity
  8
BEZUGSACHSEN
100
AcDbSpline
 62
7
  6
CONTINUOUS
 70
0
 71
3
 72
9
 73
5
 74
0
 42
0.0000001
 43
0.0000001
 44
0.0000000001
 40
0.0
 40
0.0
 40
0.0
 40
0.0
 40
0.5255183587
 40
1.0
 40
1.0
 40
1.0
 40
1.0
 10
718.1699706419
 20
197.7054612901
 30
0.0
 10
718.6817020964
 20
197.7515069886
 30
0.0
 10
719.6506456979
 20
197.9520541992
 30
0.0
 10
720.5292621608
 20
198.4253917072
 30
0.0
 10
720.8891243672
 20
198.7181419423
 30
0.0
  0
SPLINE
  5
72D
100
AcDbEntity
  8
BEZUGSACHSEN
100
AcDbSpline
 62
7
  6
CONTINUOUS
 70
0
 71
3
 72
11
 73
7
 74
0
 42
0.0000001
 43
0.0000001
 44
0.0000000001
 40
0.0
 40
0.0
 40
0.0
 40
0.0
 40
0.2211899434
 40
0.4572145773
 40
0.7166495597
 40
1.0
 40
1.0
 40
1.0
 40
1.0
 10
721.0145130984
 20
196.8569608021
 30
0.0
 10
721.1072052617
 20
197.2028926648
 30
0.0
 10
721.154459824
 20
197.9633521436
 30
0.0
 10
720.7965879658
 20
199.0892914996
 30
0.0
 10
720.0651813354
 20
200.135373135
 30
0.0
 10
719.3927458845
 20
200.7150634291
 30
0.0
 10
719.0163409204
 20
200.9773594271
 30
0.0
  0
SPLINE
  5
72E
100
AcDbEntity
  8
BEZUGSACHSEN
100
AcDbSpline
 62
7
  6
CONTINUOUS
 70
0
 71
3
 72
11
 73
7
 74
0
 42
0.0000001
 43
0.0000001
 44
0.0000000001
 40
0.0
 40
0.0
 40
0.0
 40
0.0
 40
0.2833504403
 40
0.5427854227
 40
0.7788100566
 40
1.0
 40
1.0
 40
1.0
 40
1.0
 10
714.1799961891
 20
202.2732540922
 30
0.0
 10
713.722871929
 20
202.2343015767
 30
0.0
 10
712.8506805991
 20
202.0684927811
 30
0.0
 10
711.694223059
 20
201.5282628256
 30
0.0
 10
710.8213272604
 20
200.7321066693
 30
0.0
 10
710.4820211725
 20
200.0499021609
 30
0.0
 10
710.3893290092
 20
199.7039702982
 30
0.0
  0
SPLINE
  5
72F
100
AcDbEntity
  8
RUNDUNGEN
100
AcDbSpline
 62
7
  6
CONTINUOUS
 70
0
 71
3
 72
9
 73
5
 74
0
 42
0.0000001
 43
0.0000001
 44
0.0000000001
 40
0.0
 40
0.0
 40
0.0
 40
0.0
 40
0.5194633855
 40
1.0
 40
1.0
 40
1.0
 40
1.0
 10
740.9664007953
 20
126.7582992105
 30
0.0
 10
741.1996384721
 20
126.3497068206
 30
0.0
 10
741.5335018419
 20
125.4838924789
 30
0.0
 10
741.4973276625
 20
124.5472881888
 30
0.0
 10
741.3846844215
 20
124.12689789
 30
0.0
  0
SPLINE
  5
730
100
AcDbEntity
  8
RUNDUNGEN
100
AcDbSpline
 62
7
  6
CONTINUOUS
 70
0
 71
3
 72
10
 73
6
 74
0
 42
0.0000001
 43
0.0000001
 44
0.0000000001
 40
0.0
 40
0.0
 40
0.0
 40
0.0
 40
0.5349738236
 40
0.7734707683
 40
1.0
 40
1.0
 40
1.0
 40
1.0
 10
772.6107732007
 20
191.7511198093
 30
0.0
 10
772.8121976351
 20
191.5739085719
 30
0.0
 10
773.0648392826
 20
191.2532351953
 30
0.0
 10
773.1850647414
 20
190.7595224116
 30
0.0
 10
773.1642500627
 20
190.5218929045
 30
0.0
 10
773.1349132298
 20
190.4121446769
 30
0.0
  0
SPLINE
  5
731
100
AcDbEntity
  8
RUNDUNGEN
100
AcDbSpline
 62
7
  6
CONTINUOUS
 70
0
 71
3
 72
10
 73
6
 74
0
 42
0.0000001
 43
0.0000001
 44
0.0000000001
 40
0.0
 40
0.0
 40
0.0
 40
0.0
 40
0.480919237
 40
0.7459271749
 40
1.0
 40
1.0
 40
1.0
 40
1.0
 10
764.065687401
 20
197.2082725893
 30
0.0
 10
764.4732764595
 20
197.4462660334
 30
0.0
 10
765.2710465535
 20
197.5305507246
 30
0.0
 10
766.2156197698
 20
197.2595394442
 30
0.0
 10
766.6589071751
 20
196.9875130341
 30
0.0
 10
766.846119129
 20
196.8228057974
 30
0.0
  0
SPLINE
  5
732
100
AcDbEntity
  8
0
100
AcDbSpline
 62
7
  6
CONTINUOUS
 70
0
 71
3
 72
9
 73
5
 74
0
 42
0.0000001
 43
0.0000001
 44
0.0000000001
 40
0.0
 40
0.0
 40
0.0
 40
0.0
 40
0.2469303797
 40
1.0
 40
1.0
 40
1.0
 40
1.0
 10
725.432512001
 20
205.9790127791
 30
0.0
 10
725.0795689874
 20
206.1889295878
 30
0.0
 10
723.6298386792
 20
207.0043677579
 30
0.0
 10
722.1030554835
 20
207.6817820009
 30
0.0
 10
720.9269473549
 20
208.1121336283
 30
0.0
  0
SPLINE
  5
733
100
AcDbEntity
  8
0
100
AcDbSpline
 62
7
  6
CONTINUOUS
 70
0
 71
3
 72
9
 73
5
 74
0
 42
0.0000001
 43
0.0000001
 44
0.0000000001
 40
0.0
 40
0.0
 40
0.0
 40
0.0
 40
0.2528805792
 40
1.0
 40
1.0
 40
1.0
 40
1.0
 10
716.0927495808
 20
209.4074530179
 30
0.0
 10
715.6784738537
 20
209.4797694167
 30
0.0
 10
714.0340814097
 20
209.728800403
 30
0.0
 10
712.3666103022
 20
209.8290000128
 30
0.0
 10
711.1242557142
 20
209.8128984962
 30
0.0
  0
SPLINE
  5
734
100
AcDbEntity
  8
RUNDUNGEN
100
AcDbSpline
 62
7
  6
CONTINUOUS
 70
0
 71
3
 72
9
 73
5
 74
0
 42
0.0000001
 43
0.0000001
 44
0.0000000001
 40
0.0
 40
0.0
 40
0.0
 40
0.0
 40
0.2416515958
 40
1.0
 40
1.0
 40
1.0
 40
1.0
 10
668.5300078556
 20
222.1587993918
 30
0.0
 10
669.7153821656
 20
222.3965428054
 30
0.0
 10
674.7053791908
 20
222.9252284665
 30
0.0
 10
679.8343693615
 20
221.8018690684
 30
0.0
 10
683.268433422
 20
220.1888858443
 30
0.0
  0
SPLINE
  5
735
100
AcDbEntity
  8
0
100
AcDbSpline
 62
7
  6
CONTINUOUS
 70
0
 71
3
 72
11
 73
7
 74
0
 42
0.0000001
 43
0.0000001
 44
0.0000000001
 40
0.0
 40
0.0
 40
0.0
 40
0.0
 40
0.2880052506
 40
0.5553344723
 40
0.7905070702
 40
1.0
 40
1.0
 40
1.0
 40
1.0
 10
695.4910875771
 20
193.1080565041
 30
0.0
 10
695.3940229057
 20
193.1340649045
 30
0.0
 10
695.1988787156
 20
193.1591785188
 30
0.0
 10
694.9224241509
 20
193.113681409
 30
0.0
 10
694.7003051265
 20
192.9871583875
 30
0.0
 10
694.6138338468
 20
192.8477895896
 30
0.0
 10
694.5949155251
 20
192.7771854518
 30
0.0
  0
SPLINE
  5
736
100
AcDbEntity
  8
0
100
AcDbSpline
 62
7
  6
CONTINUOUS
 70
0
 71
3
 72
11
 73
7
 74
0
 42
0.0000001
 43
0.0000001
 44
0.0000000001
 40
0.0
 40
0.0
 40
0.0
 40
0.0
 40
0.2879697432
 40
0.5553440702
 40
0.7905331502
 40
1.0
 40
1.0
 40
1.0
 40
1.0
 10
698.5900543909
 20
188.8516930696
 30
0.0
 10
698.6385810831
 20
188.8386903816
 30
0.0
 10
698.7361525205
 20
188.8261441222
 30
0.0
 10
698.874397251
 20
188.8488527227
 30
0.0
 10
698.9854435295
 20
188.912154935
 30
0.0
 10
699.0286823674
 20
188.9818306744
 30
0.0
 10
699.0381404169
 20
189.0171285957
 30
0.0
  0
SPLINE
  5
737
100
AcDbEntity
  8
0
100
AcDbSpline
 62
7
  6
CONTINUOUS
 70
0
 71
3
 72
11
 73
7
 74
0
 42
0.0000001
 43
0.0000001
 44
0.0000000001
 40
0.0
 40
0.0
 40
0.0
 40
0.0
 40
0.2879697432
 40
0.5553440702
 40
0.7905331502
 40
1.0
 40
1.0
 40
1.0
 40
1.0
 10
697.8763048535
 20
186.1879435322
 30
0.0
 10
697.9248315457
 20
186.1749408442
 30
0.0
 10
698.0224029832
 20
186.1623945848
 30
0.0
 10
698.1606477137
 20
186.1851031853
 30
0.0
 10
698.2716939921
 20
186.2484053977
 30
0.0
 10
698.31493283
 20
186.318081137
 30
0.0
 10
698.3243908795
 20
186.3533790584
 30
0.0
  0
SPLINE
  5
738
100
AcDbEntity
  8
0
100
AcDbSpline
 62
7
  6
CONTINUOUS
 70
0
 71
3
 72
9
 73
5
 74
0
 42
0.0000001
 43
0.0000001
 44
0.0000000001
 40
0.0
 40
0.0
 40
0.0
 40
0.0
 40
0.5597866015
 40
1.0
 40
1.0
 40
1.0
 40
1.0
 10
697.509476194
 20
190.996981922
 30
0.0
 10
697.4724639791
 20
191.0068993151
 30
0.0
 10
697.3998498366
 20
191.0112851356
 30
0.0
 10
697.3380407721
 20
190.9599139332
 30
0.0
 10
697.3302417836
 20
190.9308077116
 30
0.0
  0
SPLINE
  5
739
100
AcDbEntity
  8
0
100
AcDbSpline
 62
7
  6
CONTINUOUS
 70
0
 71
3
 72
9
 73
5
 74
0
 42
0.0000001
 43
0.0000001
 44
0.0000000001
 40
0.0
 40
0.0
 40
0.0
 40
0.0
 40
0.5597866015
 40
1.0
 40
1.0
 40
1.0
 40
1.0
 10
696.7957266566
 20
188.3332323846
 30
0.0
 10
696.7587144417
 20
188.3431497777
 30
0.0
 10
696.6861002992
 20
188.3475355982
 30
0.0
 10
696.6242912348
 20
188.2961643958
 30
0.0
 10
696.6164922462
 20
188.2670581742
 30
0.0
  0
SPLINE
  5
73A
100
AcDbEntity
  8
0
100
AcDbSpline
 62
7
  6
CONTINUOUS
 70
0
 71
3
 72
9
 73
5
 74
0
 42
0.0000001
 43
0.0000001
 44
0.0000000001
 40
0.0
 40
0.0
 40
0.0
 40
0.0
 40
0.5597866015
 40
1.0
 40
1.0
 40
1.0
 40
1.0
 10
697.4589382937
 20
187.8700255471
 30
0.0
 10
697.4959505086
 20
187.860108154
 30
0.0
 10
697.5685646511
 20
187.8557223335
 30
0.0
 10
697.6303737155
 20
187.9070935359
 30
0.0
 10
697.6381727041
 20
187.9361997576
 30
0.0
  0
SPLINE
  5
73B
100
AcDbEntity
  8
0
100
AcDbSpline
 62
7
  6
CONTINUOUS
 70
0
 71
3
 72
11
 73
7
 74
0
 42
0.0000001
 43
0.0000001
 44
0.0000000001
 40
0.0
 40
0.0
 40
0.0
 40
0.0
 40
0.2880001164
 40
0.5553425139
 40
0.7905343079
 40
1.0
 40
1.0
 40
1.0
 40
1.0
 10
708.7047714486
 20
186.6398185142
 30
0.0
 10
708.8799969018
 20
186.5928669956
 30
0.0
 10
709.2322853802
 20
186.5475618173
 30
0.0
 10
709.7314063967
 20
186.6295976502
 30
0.0
 10
710.1323492829
 20
186.8581099114
 30
0.0
 10
710.288439158
 20
187.1096955617
 30
0.0
 10
710.3225875205
 20
187.2371389853
 30
0.0
  0
SPLINE
  5
73C
100
AcDbEntity
  8
0
100
AcDbSpline
 62
7
  6
CONTINUOUS
 70
0
 71
3
 72
8
 73
4
 74
0
 42
0.0000001
 43
0.0000001
 44
0.0000000001
 40
0.0
 40
0.0
 40
0.0
 40
0.0
 40
1.0
 40
1.0
 40
1.0
 40
1.0
 10
728.1999328818
 20
184.2961645169
 30
0.0
 10
728.1109900988
 20
184.3520315537
 30
0.0
 10
728.0121757169
 20
184.3940572001
 30
0.0
 10
727.9107215682
 20
184.4212417573
 30
0.0
  0
SPLINE
  5
73D
100
AcDbEntity
  8
0
100
AcDbSpline
 62
7
  6
CONTINUOUS
 70
0
 71
3
 72
11
 73
7
 74
0
 42
0.0000001
 43
0.0000001
 44
0.0000000001
 40
0.0
 40
0.0
 40
0.0
 40
0.0
 40
0.2779817175
 40
0.5346952233
 40
0.772857858
 40
1.0
 40
1.0
 40
1.0
 40
1.0
 10
726.5630515969
 20
178.3698499638
 30
0.0
 10
726.8654489256
 20
178.442089619
 30
0.0
 10
727.4362818736
 20
178.6371118632
 30
0.0
 10
728.176603196
 20
179.1001593181
 30
0.0
 10
728.7293194332
 20
179.7040737313
 30
0.0
 10
728.9493487895
 20
180.1874712279
 30
0.0
 10
729.0151005222
 20
180.4328600351
 30
0.0
  0
SPLINE
  5
73E
100
AcDbEntity
  8
0
100
AcDbSpline
 62
7
  6
CONTINUOUS
 70
0
 71
3
 72
9
 73
5
 74
0
 42
0.0000001
 43
0.0000001
 44
0.0000000001
 40
0.0
 40
0.0
 40
0.0
 40
0.0
 40
0.2591205677
 40
1.0
 40
1.0
 40
1.0
 40
1.0
 10
726.319304864
 20
178.3763314391
 30
0.0
 10
726.339759956
 20
178.3708505137
 30
0.0
 10
726.419769542
 20
178.3542507362
 30
0.0
 10
726.5041602111
 20
178.3557814089
 30
0.0
 10
726.5630515969
 20
178.3698499638
 30
0.0
  0
SPLINE
  5
73F
100
AcDbEntity
  8
RUNDUNGEN
100
AcDbSpline
 62
7
  6
CONTINUOUS
 70
0
 71
3
 72
11
 73
7
 74
0
 42
0.0000001
 43
0.0000001
 44
0.0000000001
 40
0.0
 40
0.0
 40
0.0
 40
0.0
 40
0.287975155
 40
0.5553539353
 40
0.7905396327
 40
1.0
 40
1.0
 40
1.0
 40
1.0
 10
661.33041161
 20
128.6609938495
 30
0.0
 10
661.3926265006
 20
128.6443234198
 30
0.0
 10
661.5177204791
 20
128.6282386966
 30
0.0
 10
661.6949586595
 20
128.6573539354
 30
0.0
 10
661.837323746
 20
128.7385118981
 30
0.0
 10
661.8927555422
 20
128.8278383233
 30
0.0
 10
661.9048808741
 20
128.8730906778
 30
0.0
  0
SPLINE
  5
740
100
AcDbEntity
  8
RUNDUNGEN
100
AcDbSpline
 62
7
  6
CONTINUOUS
 70
0
 71
3
 72
13
 73
9
 74
0
 42
0.0000001
 43
0.0000001
 44
0.0000000001
 40
0.0
 40
0.0
 40
0.0
 40
0.0
 40
0.1034546064
 40
0.2106689685
 40
0.3244963058
 40
0.4464318167
 40
0.7129512659
 40
1.0
 40
1.0
 40
1.0
 40
1.0
 10
653.2521924716
 20
135.2178509893
 30
0.0
 10
653.1800960517
 20
134.9487834873
 30
0.0
 10
653.1106184976
 20
134.3771527394
 30
0.0
 10
653.242925868
 20
133.5041606739
 30
0.0
 10
653.5998046768
 20
132.6436079805
 30
0.0
 10
654.3736648322
 20
131.5243614482
 30
0.0
 10
655.808116062
 20
130.3490406923
 30
0.0
 10
657.203107208
 20
129.7669017309
 30
0.0
 10
657.949671218
 20
129.5668605073
 30
0.0
  0
SPLINE
  5
741
100
AcDbEntity
  8
RUNDUNGEN
100
AcDbSpline
 62
7
  6
CONTINUOUS
 70
0
 71
3
 72
10
 73
6
 74
0
 42
0.0000001
 43
0.0000001
 44
0.0000000001
 40
0.0
 40
0.0
 40
0.0
 40
0.0
 40
0.4808964563
 40
0.7459158441
 40
1.0
 40
1.0
 40
1.0
 40
1.0
 10
665.3148598626
 20
208.7750308824
 30
0.0
 10
665.5429853269
 20
208.3753942117
 30
0.0
 10
666.1754923424
 20
207.9153135455
 30
0.0
 10
667.1051817279
 20
207.6836516559
 30
0.0
 10
667.612118697
 20
207.6972378756
 30
0.0
 10
667.8505013208
 20
207.7450488483
 30
0.0
  0
SPLINE
  5
742
100
AcDbEntity
  8
RUNDUNGEN
100
AcDbSpline
 62
7
  6
CONTINUOUS
 70
0
 71
3
 72
9
 73
5
 74
0
 42
0.0000001
 43
0.0000001
 44
0.0000000001
 40
0.0
 40
0.0
 40
0.0
 40
0.0
 40
0.5194816466
 40
1.0
 40
1.0
 40
1.0
 40
1.0
 10
771.6603513308
 20
186.3064345261
 30
0.0
 10
771.7959030212
 20
186.3855838874
 30
0.0
 10
772.0368004111
 20
186.5800847557
 30
0.0
 10
772.1823734447
 20
186.8568571935
 30
0.0
 10
772.2198607991
 20
186.9971288993
 30
0.0
  0
SPLINE
  5
743
100
AcDbEntity
  8
RUNDUNGEN
100
AcDbSpline
 62
7
  6
CONTINUOUS
 70
0
 71
3
 72
13
 73
9
 74
0
 42
0.0000001
 43
0.0000001
 44
0.0000000001
 40
0.0
 40
0.0
 40
0.0
 40
0.0
 40
0.2870489714
 40
0.5535683803
 40
0.6755038887
 40
0.7893312167
 40
0.8965454657
 40
1.0
 40
1.0
 40
1.0
 40
1.0
 10
731.360034016
 20
109.8966130795
 30
0.0
 10
732.1065986426
 20
109.6965716907
 30
0.0
 10
733.6057664947
 20
109.5032232956
 30
0.0
 10
735.4356985117
 20
109.8038559252
 30
0.0
 10
736.6655040454
 20
110.3862220791
 30
0.0
 10
737.4048459793
 20
110.9530432976
 30
0.0
 10
737.9559230667
 20
111.6429226102
 30
0.0
 10
738.1815688155
 20
112.1727077061
 30
0.0
 10
738.253665185
 20
112.4417750203
 30
0.0
  0
SPLINE
  5
744
100
AcDbEntity
  8
RUNDUNGEN
100
AcDbSpline
 62
7
  6
CONTINUOUS
 70
0
 71
3
 72
11
 73
7
 74
0
 42
0.0000001
 43
0.0000001
 44
0.0000000001
 40
0.0
 40
0.0
 40
0.0
 40
0.0
 40
0.2094711443
 40
0.4446658249
 40
0.7120384825
 40
1.0
 40
1.0
 40
1.0
 40
1.0
 10
727.5878370617
 20
111.2733956109
 30
0.0
 10
727.5757111102
 20
111.2281409435
 30
0.0
 10
727.5790558369
 20
111.1230610412
 30
0.0
 10
727.6617736231
 20
110.981593168
 30
0.0
 10
727.800708618
 20
110.8677635403
 30
0.0
 10
727.917081701
 20
110.8191493719
 30
0.0
 10
727.9792936239
 20
110.8024797374
 30
0.0
  0
SPLINE
  5
745
100
AcDbEntity
  8
RUNDUNGEN
100
AcDbSpline
 62
7
  6
CONTINUOUS
 70
0
 71
3
 72
9
 73
5
 74
0
 42
0.0000001
 43
0.0000001
 44
0.0000000001
 40
0.0
 40
0.0
 40
0.0
 40
0.0
 40
0.4729729907
 40
1.0
 40
1.0
 40
1.0
 40
1.0
 10
711.2564967556
 20
128.2931659089
 30
0.0
 10
711.7082133641
 20
127.5018359181
 30
0.0
 10
713.1179608514
 20
126.0867769129
 30
0.0
 10
714.9115714822
 20
125.2847274457
 30
0.0
 10
715.8922914691
 20
125.0219443172
 30
0.0
  0
SPLINE
  5
746
100
AcDbEntity
  8
RUNDUNGEN
100
AcDbSpline
 62
7
  6
CONTINUOUS
 70
0
 71
3
 72
9
 73
5
 74
0
 42
0.0000001
 43
0.0000001
 44
0.0000000001
 40
0.0
 40
0.0
 40
0.0
 40
0.0
 40
0.5270273161
 40
1.0
 40
1.0
 40
1.0
 40
1.0
 10
678.9077948216
 20
134.9319103264
 30
0.0
 10
679.8885153806
 20
134.6691270446
 30
0.0
 10
681.8428525926
 20
134.4669171083
 30
0.0
 10
683.7712590618
 20
134.9875206964
 30
0.0
 10
684.5581216061
 20
135.4469739694
 30
0.0
  0
SPLINE
  5
747
100
AcDbEntity
  8
RUNDUNGEN
100
AcDbSpline
 62
7
  6
CONTINUOUS
 70
0
 71
3
 72
13
 73
9
 74
0
 42
0.0000001
 43
0.0000001
 44
0.0000000001
 40
0.0
 40
0.0
 40
0.0
 40
0.0
 40
0.1034546064
 40
0.2106689685
 40
0.3244963058
 40
0.4464318167
 40
0.7129512659
 40
1.0
 40
1.0
 40
1.0
 40
1.0
 10
663.4604888402
 20
134.6786986439
 30
0.0
 10
663.53258526
 20
134.9477661459
 30
0.0
 10
663.7582313071
 20
135.4775516722
 30
0.0
 10
664.3093088837
 20
136.1674312931
 30
0.0
 10
665.0486513449
 20
136.7342523824
 30
0.0
 10
666.2784571646
 20
137.3166182348
 30
0.0
 10
668.1083887481
 20
137.6172502522
 30
0.0
 10
669.6075559993
 20
137.4239018082
 30
0.0
 10
670.3541200093
 20
137.2238605847
 30
0.0
  0
SPLINE
  5
748
100
AcDbEntity
  8
RUNDUNGEN
100
AcDbSpline
 62
7
  6
CONTINUOUS
 70
0
 71
3
 72
13
 73
9
 74
0
 42
0.0000001
 43
0.0000001
 44
0.0000000001
 40
0.0
 40
0.0
 40
0.0
 40
0.0
 40
0.2870489714
 40
0.5535683803
 40
0.6755038887
 40
0.7893312167
 40
0.8965454657
 40
1.0
 40
1.0
 40
1.0
 40
1.0
 10
724.4459662815
 20
122.7299940589
 30
0.0
 10
725.1925309081
 20
122.5299526701
 30
0.0
 10
726.5875225502
 20
121.947813366
 30
0.0
 10
728.0219738493
 20
120.7724918631
 30
0.0
 10
728.7958336062
 20
119.6532452127
 30
0.0
 10
729.1527118938
 20
118.792692671
 30
0.0
 10
729.2850189946
 20
117.9197011171
 30
0.0
 10
729.2155413974
 20
117.3480708911
 30
0.0
 10
729.1434450278
 20
117.079003577
 30
0.0
  0
SPLINE
  5
749
100
AcDbEntity
  8
RUNDUNGEN
100
AcDbSpline
 62
7
  6
CONTINUOUS
 70
0
 71
3
 72
13
 73
9
 74
0
 42
0.0000001
 43
0.0000001
 44
0.0000000001
 40
0.0
 40
0.0
 40
0.0
 40
0.0
 40
0.2360077347
 40
0.3661261322
 40
0.5000000765
 40
0.633874052
 40
0.7639924192
 40
1.0
 40
1.0
 40
1.0
 40
1.0
 10
693.4767269432
 20
140.6545956089
 30
0.0
 10
694.4451707308
 20
141.2200751468
 30
0.0
 10
696.1944335073
 20
141.6913604458
 30
0.0
 10
698.5737289135
 20
141.6760589725
 30
0.0
 10
700.4449359512
 20
141.3406170496
 30
0.0
 10
702.2331694725
 20
140.6955144294
 30
0.0
 10
704.3013496004
 20
139.5191181
 30
0.0
 10
705.5806119964
 20
138.2363421144
 30
0.0
 10
706.136568787
 20
137.2624012106
 30
0.0
  0
SPLINE
  5
74A
100
AcDbEntity
  8
RUNDUNGEN
100
AcDbSpline
 62
7
  6
CONTINUOUS
 70
0
 71
3
 72
9
 73
5
 74
0
 42
0.0000001
 43
0.0000001
 44
0.0000000001
 40
0.0
 40
0.0
 40
0.0
 40
0.0
 40
0.5177253986
 40
1.0
 40
1.0
 40
1.0
 40
1.0
 10
681.3949708965
 20
162.597432135
 30
0.0
 10
682.4841991013
 20
163.233438344
 30
0.0
 10
684.4509729221
 20
164.7301574804
 30
0.0
 10
685.8799996175
 20
166.7645353228
 30
0.0
 10
686.3785484075
 20
167.828469742
 30
0.0
  0
SPLINE
  5
74B
100
AcDbEntity
  8
RUNDUNGEN
100
AcDbSpline
 62
7
  6
CONTINUOUS
 70
0
 71
3
 72
11
 73
7
 74
0
 42
0.0000001
 43
0.0000001
 44
0.0000000001
 40
0.0
 40
0.0
 40
0.0
 40
0.0
 40
0.2660806569
 40
0.5190943725
 40
0.7622194677
 40
1.0
 40
1.0
 40
1.0
 40
1.0
 10
684.6787783213
 20
174.8527682869
 30
0.0
 10
685.0789230729
 20
174.1517833406
 30
0.0
 10
685.7533058475
 20
172.718930352
 30
0.0
 10
686.3489721007
 20
170.4706711396
 30
0.0
 10
686.4839605049
 20
168.2331849649
 30
0.0
 10
686.2597443457
 20
166.778156834
 30
0.0
 10
686.073056923
 20
166.0814299839
 30
0.0
  0
SPLINE
  5
74C
100
AcDbEntity
  8
RUNDUNGEN
100
AcDbSpline
 62
7
  6
CONTINUOUS
 70
0
 71
3
 72
10
 73
6
 74
0
 42
0.0000001
 43
0.0000001
 44
0.0000000001
 40
0.0
 40
0.0
 40
0.0
 40
0.0
 40
0.2540843695
 40
0.5191023225
 40
1.0
 40
1.0
 40
1.0
 40
1.0
 10
672.6004243304
 20
208.697712409
 30
0.0
 10
672.9977290217
 20
208.7773974273
 30
0.0
 10
673.8426219913
 20
208.8000407504
 30
0.0
 10
675.3921043139
 20
208.4139389864
 30
0.0
 10
676.4462833696
 20
207.6471384686
 30
0.0
 10
676.8264934274
 20
206.9810756854
 30
0.0
  0
SPLINE
  5
74D
100
AcDbEntity
  8
RUNDUNGEN
100
AcDbSpline
 62
7
  6
CONTINUOUS
 70
0
 71
3
 72
9
 73
5
 74
0
 42
0.0000001
 43
0.0000001
 44
0.0000000001
 40
0.0
 40
0.0
 40
0.0
 40
0.0
 40
0.5194813996
 40
1.0
 40
1.0
 40
1.0
 40
1.0
 10
679.210784107
 20
202.8042075216
 30
0.0
 10
679.3372278414
 20
202.5826997947
 30
0.0
 10
679.5181996887
 20
202.1132844113
 30
0.0
 10
679.498211549
 20
201.6055416615
 30
0.0
 10
679.437015664
 20
201.3776903162
 30
0.0
  0
SPLINE
  5
74E
100
AcDbEntity
  8
RUNDUNGEN
100
AcDbSpline
 62
7
  6
CONTINUOUS
 70
0
 71
3
 72
11
 73
7
 74
0
 42
0.0000001
 43
0.0000001
 44
0.0000000001
 40
0.0
 40
0.0
 40
0.0
 40
0.0
 40
0.2524374527
 40
0.5157480209
 40
0.7702932627
 40
1.0
 40
1.0
 40
1.0
 40
1.0
 10
743.0944421802
 20
190.9899771878
 30
0.0
 10
743.6560746343
 20
190.4958584752
 30
0.0
 10
744.9805688381
 20
189.6794437695
 30
0.0
 10
747.2022930031
 20
189.0506219788
 30
0.0
 10
749.4454602355
 20
189.0392625289
 30
0.0
 10
750.8479135878
 20
189.4903433466
 30
0.0
 10
751.4357373641
 20
189.8335768121
 30
0.0
  0
SPLINE
  5
74F
100
AcDbEntity
  8
0
100
AcDbSpline
 62
7
  6
CONTINUOUS
 70
0
 71
3
 72
9
 73
5
 74
0
 42
0.0000001
 43
0.0000001
 44
0.0000000001
 40
0.0
 40
0.0
 40
0.0
 40
0.0
 40
0.4402133985
 40
1.0
 40
1.0
 40
1.0
 40
1.0
 10
698.0806974173
 20
189.5877244707
 30
0.0
 10
698.0884964059
 20
189.6168306924
 30
0.0
 10
698.060653787
 20
189.6922239909
 30
0.0
 10
697.9955751848
 20
189.7247328302
 30
0.0
 10
697.9585629699
 20
189.7346502233
 30
0.0
  0
SPLINE
  5
750
100
AcDbEntity
  8
0
100
AcDbSpline
 62
7
  6
CONTINUOUS
 70
0
 71
3
 72
11
 73
7
 74
0
 42
0.0000001
 43
0.0000001
 44
0.0000000001
 40
0.0
 40
0.0
 40
0.0
 40
0.0
 40
0.2094656921
 40
0.4446574861
 40
0.7119998836
 40
1.0
 40
1.0
 40
1.0
 40
1.0
 10
710.3225875205
 20
187.2371389853
 30
0.0
 10
710.3567358829
 20
187.3645824089
 30
0.0
 10
710.347350911
 20
187.6605069109
 30
0.0
 10
710.1143803167
 20
188.0588757773
 30
0.0
 10
709.7231467532
 20
188.3794814008
 30
0.0
 10
709.3954033924
 20
188.5163902048
 30
0.0
 10
709.2201779391
 20
188.5633417235
 30
0.0
  0
SPLINE
  5
751
100
AcDbEntity
  8
0
100
AcDbSpline
 62
7
  6
CONTINUOUS
 70
0
 71
3
 72
9
 73
5
 74
0
 42
0.0000001
 43
0.0000001
 44
0.0000000001
 40
0.0
 40
0.0
 40
0.0
 40
0.0
 40
0.4402133985
 40
1.0
 40
1.0
 40
1.0
 40
1.0
 10
697.0304669779
 20
189.8120329059
 30
0.0
 10
697.0226679893
 20
189.7829266842
 30
0.0
 10
697.0505106081
 20
189.7075333857
 30
0.0
 10
697.1155892104
 20
189.6750245464
 30
0.0
 10
697.1526014253
 20
189.6651071533
 30
0.0
  0
SPLINE
  5
752
100
AcDbEntity
  8
0
100
AcDbSpline
 62
7
  6
CONTINUOUS
 70
0
 71
3
 72
11
 73
7
 74
0
 42
0.0000001
 43
0.0000001
 44
0.0000000001
 40
0.0
 40
0.0
 40
0.0
 40
0.0
 40
0.2094929298
 40
0.4446655277
 40
0.7119947494
 40
1.0
 40
1.0
 40
1.0
 40
1.0
 10
693.0246665429
 20
186.9169364696
 30
0.0
 10
693.0057482212
 20
186.8463323318
 30
0.0
 10
693.0109501471
 20
186.6823997726
 30
0.0
 10
693.1400493542
 20
186.4617681096
 30
0.0
 10
693.3567174753
 20
186.2841391744
 30
0.0
 10
693.5382741085
 20
186.2083161073
 30
0.0
 10
693.6353387799
 20
186.182307707
 30
0.0
  0
SPLINE
  5
753
100
AcDbEntity
  8
0
100
AcDbSpline
 62
7
  6
CONTINUOUS
 70
0
 71
3
 72
9
 73
5
 74
0
 42
0.0000001
 43
0.0000001
 44
0.0000000001
 40
0.0
 40
0.0
 40
0.0
 40
0.0
 40
0.471076254
 40
1.0
 40
1.0
 40
1.0
 40
1.0
 10
698.7526406019
 20
187.9516287808
 30
0.0
 10
698.7620986514
 20
187.9869267021
 30
0.0
 10
698.7595783428
 20
188.0687979782
 30
0.0
 10
698.7190027996
 20
188.137996209
 30
0.0
 10
698.6927741972
 20
188.1695487908
 30
0.0
  0
SPLINE
  5
754
100
AcDbEntity
  8
0
100
AcDbSpline
 62
7
  6
CONTINUOUS
 70
0
 71
3
 72
8
 73
4
 74
0
 42
0.0000001
 43
0.0000001
 44
0.0000000001
 40
0.0
 40
0.0
 40
0.0
 40
0.0
 40
1.0
 40
1.0
 40
1.0
 40
1.0
 10
698.6927741972
 20
188.1695487908
 30
0.0
 10
698.6782139713
 20
188.1870645056
 30
0.0
 10
698.6619297147
 20
188.2032362159
 30
0.0
 10
698.6445572914
 20
188.2179671139
 30
0.0
  0
SPLINE
  5
755
100
AcDbEntity
  8
0
100
AcDbSpline
 62
7
  6
CONTINUOUS
 70
0
 71
3
 72
9
 73
5
 74
0
 42
0.0000001
 43
0.0000001
 44
0.0000000001
 40
0.0
 40
0.0
 40
0.0
 40
0.0
 40
0.241609722
 40
1.0
 40
1.0
 40
1.0
 40
1.0
 10
698.6445572914
 20
188.2179671139
 30
0.0
 10
698.6308828877
 20
188.2295622864
 30
0.0
 10
698.5713218235
 20
188.2740069897
 30
0.0
 10
698.5016633375
 20
188.3043777511
 30
0.0
 10
698.4473044834
 20
188.3189431621
 30
0.0
  0
SPLINE
  5
756
100
AcDbEntity
  8
0
100
AcDbSpline
 62
7
  6
CONTINUOUS
 70
0
 71
3
 72
9
 73
5
 74
0
 42
0.0000001
 43
0.0000001
 44
0.0000000001
 40
0.0
 40
0.0
 40
0.0
 40
0.0
 40
0.7407738242
 40
1.0
 40
1.0
 40
1.0
 40
1.0
 10
693.1436247991
 20
187.3608947258
 30
0.0
 10
693.1295208654
 20
187.3082581288
 30
0.0
 10
693.1261173349
 20
187.2320523311
 30
0.0
 10
693.1413083092
 20
187.1600445623
 30
0.0
 10
693.1463476204
 20
187.1416530498
 30
0.0
  0
SPLINE
  5
757
100
AcDbEntity
  8
0
100
AcDbSpline
 62
7
  6
CONTINUOUS
 70
0
 71
3
 72
9
 73
5
 74
0
 42
0.0000001
 43
0.0000001
 44
0.0000000001
 40
0.0
 40
0.0
 40
0.0
 40
0.0
 40
0.238285514
 40
1.0
 40
1.0
 40
1.0
 40
1.0
 10
693.1463476204
 20
187.1416530498
 30
0.0
 10
693.1515376708
 20
187.1227113981
 30
0.0
 10
693.1782837052
 20
187.0445899119
 30
0.0
 10
693.2232247432
 20
186.9733338898
 30
0.0
 10
693.2633576085
 20
186.9250547059
 30
0.0
  0
SPLINE
  5
758
100
AcDbEntity
  8
0
100
AcDbSpline
 62
7
  6
CONTINUOUS
 70
0
 71
3
 72
9
 73
5
 74
0
 42
0.0000001
 43
0.0000001
 44
0.0000000001
 40
0.0
 40
0.0
 40
0.0
 40
0.0
 40
0.2355596553
 40
1.0
 40
1.0
 40
1.0
 40
1.0
 10
693.2633576085
 20
186.9250547059
 30
0.0
 10
693.2924625022
 20
186.8900419925
 30
0.0
 10
693.4300910044
 20
186.7532572557
 30
0.0
 10
693.6115771336
 20
186.6645076458
 30
0.0
 10
693.7542970361
 20
186.6262659632
 30
0.0
  0
SPLINE
  5
759
100
AcDbEntity
  8
0
100
AcDbSpline
 62
7
  6
CONTINUOUS
 70
0
 71
3
 72
11
 73
7
 74
0
 42
0.0000001
 43
0.0000001
 44
0.0000000001
 40
0.0
 40
0.0
 40
0.0
 40
0.0
 40
0.2880052506
 40
0.5553344723
 40
0.7905070702
 40
1.0
 40
1.0
 40
1.0
 40
1.0
 10
699.662715936
 20
184.5672768655
 30
0.0
 10
699.7597806074
 20
184.5412684652
 30
0.0
 10
699.9549247975
 20
184.5161548509
 30
0.0
 10
700.2313793622
 20
184.5616519607
 30
0.0
 10
700.4534983866
 20
184.6881749822
 30
0.0
 10
700.5399696662
 20
184.82754378
 30
0.0
 10
700.5588879879
 20
184.8981479178
 30
0.0
  0
SPLINE
  5
75A
100
AcDbEntity
  8
RUNDUNGEN
100
AcDbSpline
 62
7
  6
CONTINUOUS
 70
0
 71
3
 72
11
 73
7
 74
0
 42
0.0000001
 43
0.0000001
 44
0.0000000001
 40
0.0
 40
0.0
 40
0.0
 40
0.0
 40
0.2377805525
 40
0.4809056656
 40
0.7339193662
 40
1.0
 40
1.0
 40
1.0
 40
1.0
 10
686.073056923
 20
166.0814299839
 30
0.0
 10
685.8863695083
 20
165.3847031641
 30
0.0
 10
685.3530321632
 20
164.0125038978
 30
0.0
 10
684.1173856307
 20
162.1422785447
 30
0.0
 10
682.4773941009
 20
160.4930624108
 30
0.0
 10
681.1769352302
 20
159.5893669332
 30
0.0
 10
680.479907387
 20
159.1823686255
 30
0.0
  0
SPLINE
  5
75B
100
AcDbEntity
  8
0
100
AcDbSpline
 62
7
  6
CONTINUOUS
 70
0
 71
3
 72
11
 73
7
 74
0
 42
0.0000001
 43
0.0000001
 44
0.0000000001
 40
0.0
 40
0.0
 40
0.0
 40
0.0
 40
0.2879697432
 40
0.5553440702
 40
0.7905331502
 40
1.0
 40
1.0
 40
1.0
 40
1.0
 10
696.5637491222
 20
188.8236403001
 30
0.0
 10
696.51522243
 20
188.8366429881
 30
0.0
 10
696.4176509925
 20
188.8491892475
 30
0.0
 10
696.279406262
 20
188.826480647
 30
0.0
 10
696.1683599836
 20
188.7631784346
 30
0.0
 10
696.1251211457
 20
188.6935026953
 30
0.0
 10
696.1156630962
 20
188.6582047739
 30
0.0
  0
SPLINE
  5
75C
100
AcDbEntity
  8
0
100
AcDbSpline
 62
7
  6
CONTINUOUS
 70
0
 71
3
 72
11
 73
7
 74
0
 42
0.0000001
 43
0.0000001
 44
0.0000000001
 40
0.0
 40
0.0
 40
0.0
 40
0.0
 40
0.2879697432
 40
0.5553440702
 40
0.7905331502
 40
1.0
 40
1.0
 40
1.0
 40
1.0
 10
697.2774986595
 20
191.4873898374
 30
0.0
 10
697.2289719673
 20
191.5003925254
 30
0.0
 10
697.1314005299
 20
191.5129387849
 30
0.0
 10
696.9931557994
 20
191.4902301843
 30
0.0
 10
696.8821095209
 20
191.426927972
 30
0.0
 10
696.8388706831
 20
191.3572522326
 30
0.0
 10
696.8294126335
 20
191.3219543113
 30
0.0
  0
SPLINE
  5
75D
100
AcDbEntity
  8
0
100
AcDbSpline
 62
7
  6
CONTINUOUS
 70
0
 71
3
 72
9
 73
5
 74
0
 42
0.0000001
 43
0.0000001
 44
0.0000000001
 40
0.0
 40
0.0
 40
0.0
 40
0.0
 40
0.5597866015
 40
1.0
 40
1.0
 40
1.0
 40
1.0
 10
697.6948652193
 20
189.8053078226
 30
0.0
 10
697.6578530044
 20
189.8152252157
 30
0.0
 10
697.585238862
 20
189.8196110361
 30
0.0
 10
697.5234297975
 20
189.7682398338
 30
0.0
 10
697.5156308089
 20
189.7391336121
 30
0.0
  0
SPLINE
  5
75E
100
AcDbEntity
  8
0
100
AcDbSpline
 62
7
  6
CONTINUOUS
 70
0
 71
3
 72
9
 73
5
 74
0
 42
0.0000001
 43
0.0000001
 44
0.0000000001
 40
0.0
 40
0.0
 40
0.0
 40
0.0
 40
0.5597866015
 40
1.0
 40
1.0
 40
1.0
 40
1.0
 10
698.3580768565
 20
189.342100985
 30
0.0
 10
698.3950890714
 20
189.3321835919
 30
0.0
 10
698.4677032138
 20
189.3277977715
 30
0.0
 10
698.5295122783
 20
189.3791689738
 30
0.0
 10
698.5373112669
 20
189.4082751955
 30
0.0
  0
SPLINE
  5
75F
100
AcDbEntity
  8
0
100
AcDbSpline
 62
7
  6
CONTINUOUS
 70
0
 71
3
 72
9
 73
5
 74
0
 42
0.0000001
 43
0.0000001
 44
0.0000000001
 40
0.0
 40
0.0
 40
0.0
 40
0.0
 40
0.5597866015
 40
1.0
 40
1.0
 40
1.0
 40
1.0
 10
697.6443273191
 20
186.6783514477
 30
0.0
 10
697.681339534
 20
186.6684340546
 30
0.0
 10
697.7539536764
 20
186.6640482341
 30
0.0
 10
697.8157627409
 20
186.7154194365
 30
0.0
 10
697.8235617295
 20
186.7445256581
 30
0.0
  0
SPLINE
  5
760
100
AcDbEntity
  8
RUNDUNGEN
100
AcDbSpline
 62
7
  6
CONTINUOUS
 70
0
 71
3
 72
9
 73
5
 74
0
 42
0.0000001
 43
0.0000001
 44
0.0000000001
 40
0.0
 40
0.0
 40
0.0
 40
0.0
 40
0.4805366145
 40
1.0
 40
1.0
 40
1.0
 40
1.0
 10
740.469620912
 20
120.7118343806
 30
0.0
 10
740.5822641531
 20
121.1322246793
 30
0.0
 10
740.6184383324
 20
122.0688289695
 30
0.0
 10
740.2845749626
 20
122.9346433112
 30
0.0
 10
740.0513372858
 20
123.343235701
 30
0.0
  0
SPLINE
  5
761
100
AcDbEntity
  8
0
100
AcDbSpline
 62
7
  6
CONTINUOUS
 70
0
 71
3
 72
11
 73
7
 74
0
 42
0.0000001
 43
0.0000001
 44
0.0000000001
 40
0.0
 40
0.0
 40
0.0
 40
0.0
 40
0.2865059912
 40
0.5484241175
 40
0.7833822346
 40
1.0
 40
1.0
 40
1.0
 40
1.0
 10
709.293194893
 20
185.7109082294
 30
0.0
 10
709.5482098342
 20
185.7023558554
 30
0.0
 10
710.040817943
 20
185.7404530591
 30
0.0
 10
710.7074017647
 20
185.9766412831
 30
0.0
 10
711.2186085032
 20
186.3770691344
 30
0.0
 10
711.4154998457
 20
186.7449980281
 30
0.0
 10
711.4654024368
 20
186.9313488492
 30
0.0
  0
SPLINE
  5
762
100
AcDbEntity
  8
0
100
AcDbSpline
 62
7
  6
CONTINUOUS
 70
0
 71
3
 72
8
 73
4
 74
0
 42
0.0000001
 43
0.0000001
 44
0.0000000001
 40
0.0
 40
0.0
 40
0.0
 40
0.0
 40
1.0
 40
1.0
 40
1.0
 40
1.0
 10
726.054972771
 20
177.4954929601
 30
0.0
 10
726.1564269197
 20
177.4683084029
 30
0.0
 10
726.2630155079
 20
177.4552964894
 30
0.0
 10
726.3679757359
 20
177.459207371
 30
0.0
  0
SPLINE
  5
763
100
AcDbEntity
  8
0
100
AcDbSpline
 62
7
  6
CONTINUOUS
 70
0
 71
3
 72
11
 73
7
 74
0
 42
0.0000001
 43
0.0000001
 44
0.0000000001
 40
0.0
 40
0.0
 40
0.0
 40
0.0
 40
0.2847819434
 40
0.5451774547
 40
0.7807010719
 40
1.0
 40
1.0
 40
1.0
 40
1.0
 10
726.3679757359
 20
177.459207371
 30
0.0
 10
726.8554614832
 20
177.4773713849
 30
0.0
 10
727.7897198492
 20
177.6118868672
 30
0.0
 10
729.0383829345
 20
178.1367192972
 30
0.0
 10
729.9861956044
 20
178.9505324408
 30
0.0
 10
730.3529064823
 20
179.6664577364
 30
0.0
 10
730.4501327201
 20
180.0293109955
 30
0.0
  0
SPLINE
  5
764
100
AcDbEntity
  8
0
100
AcDbSpline
 62
7
  6
CONTINUOUS
 70
0
 71
3
 72
9
 73
5
 74
0
 42
0.0000001
 43
0.0000001
 44
0.0000000001
 40
0.0
 40
0.0
 40
0.0
 40
0.0
 40
0.239729366
 40
1.0
 40
1.0
 40
1.0
 40
1.0
 10
727.9230688972
 20
183.4455036277
 30
0.0
 10
727.9088380419
 20
183.4589778264
 30
0.0
 10
727.845446011
 20
183.5108648144
 30
0.0
 10
727.7687712122
 20
183.5456778327
 30
0.0
 10
727.7087372967
 20
183.5617638719
 30
0.0
  0
SPLINE
  5
765
100
AcDbEntity
  8
RUNDUNGEN
100
AcDbSpline
 62
7
  6
CONTINUOUS
 70
0
 71
3
 72
10
 73
6
 74
0
 42
0.0000001
 43
0.0000001
 44
0.0000000001
 40
0.0
 40
0.0
 40
0.0
 40
0.0
 40
0.2265442065
 40
0.4650409693
 40
1.0
 40
1.0
 40
1.0
 40
1.0
 10
772.2198607991
 20
186.9971288993
 30
0.0
 10
772.2491922581
 20
187.1068825446
 30
0.0
 10
772.2699954617
 20
187.3445129662
 30
0.0
 10
772.1497505741
 20
187.8382033095
 30
0.0
 10
771.8971220612
 20
188.1588556766
 30
0.0
 10
771.6957096913
 20
188.3360562999
 30
0.0
  0
SPLINE
  5
766
100
AcDbEntity
  8
RUNDUNGEN
100
AcDbSpline
 62
7
  6
CONTINUOUS
 70
0
 71
3
 72
9
 73
5
 74
0
 42
0.0000001
 43
0.0000001
 44
0.0000000001
 40
0.0
 40
0.0
 40
0.0
 40
0.0
 40
0.5194635499
 40
1.0
 40
1.0
 40
1.0
 40
1.0
 10
657.146093105
 20
145.5576289276
 30
0.0
 10
656.739807028
 20
145.3203963013
 30
0.0
 10
656.0177657101
 20
144.7375107183
 30
0.0
 10
655.5807914011
 20
143.9083005047
 30
0.0
 10
655.4681481986
 20
143.4879103496
 30
0.0
  0
SPLINE
  5
767
100
AcDbEntity
  8
RUNDUNGEN
100
AcDbSpline
 62
7
  6
CONTINUOUS
 70
0
 71
3
 72
10
 73
6
 74
0
 42
0.0000001
 43
0.0000001
 44
0.0000000001
 40
0.0
 40
0.0
 40
0.0
 40
0.0
 40
0.5349741761
 40
0.7734715455
 40
1.0
 40
1.0
 40
1.0
 40
1.0
 10
672.8615529186
 20
198.9665462667
 30
0.0
 10
672.6050793999
 20
198.9151069118
 30
0.0
 10
672.2354185869
 20
198.7674963507
 30
0.0
 10
671.8932173054
 20
198.409214085
 30
0.0
 10
671.7949520319
 20
198.1984115859
 30
0.0
 10
671.7662239127
 20
198.0914385628
 30
0.0
  0
SPLINE
  5
768
100
AcDbEntity
  8
0
100
AcDbSpline
 62
7
  6
CONTINUOUS
 70
0
 71
3
 72
9
 73
5
 74
0
 42
0.0000001
 43
0.0000001
 44
0.0000000001
 40
0.0
 40
0.0
 40
0.0
 40
0.0
 40
0.4402133985
 40
1.0
 40
1.0
 40
1.0
 40
1.0
 10
697.1494252341
 20
190.2559911621
 30
0.0
 10
697.1416262455
 20
190.2268849404
 30
0.0
 10
697.1694688643
 20
190.1514916419
 30
0.0
 10
697.2345474666
 20
190.1189828026
 30
0.0
 10
697.2715596815
 20
190.1090654096
 30
0.0
  0
SPLINE
  5
769
100
AcDbEntity
  8
0
100
AcDbSpline
 62
7
  6
CONTINUOUS
 70
0
 71
3
 72
9
 73
5
 74
0
 42
0.0000001
 43
0.0000001
 44
0.0000000001
 40
0.0
 40
0.0
 40
0.0
 40
0.0
 40
0.471076254
 40
1.0
 40
1.0
 40
1.0
 40
1.0
 10
699.4663901393
 20
190.6153783182
 30
0.0
 10
699.4758481888
 20
190.6506762395
 30
0.0
 10
699.4733278802
 20
190.7325475156
 30
0.0
 10
699.4327523369
 20
190.8017457464
 30
0.0
 10
699.4065237346
 20
190.8332983281
 30
0.0
  0
SPLINE
  5
76A
100
AcDbEntity
  8
0
100
AcDbSpline
 62
7
  6
CONTINUOUS
 70
0
 71
3
 72
8
 73
4
 74
0
 42
0.0000001
 43
0.0000001
 44
0.0000000001
 40
0.0
 40
0.0
 40
0.0
 40
0.0
 40
1.0
 40
1.0
 40
1.0
 40
1.0
 10
699.4065237346
 20
190.8332983281
 30
0.0
 10
699.3919635086
 20
190.850814043
 30
0.0
 10
699.3756792521
 20
190.8669857533
 30
0.0
 10
699.3583068288
 20
190.8817166513
 30
0.0
  0
SPLINE
  5
76B
100
AcDbEntity
  8
0
100
AcDbSpline
 62
7
  6
CONTINUOUS
 70
0
 71
3
 72
9
 73
5
 74
0
 42
0.0000001
 43
0.0000001
 44
0.0000000001
 40
0.0
 40
0.0
 40
0.0
 40
0.0
 40
0.241609722
 40
1.0
 40
1.0
 40
1.0
 40
1.0
 10
699.3583068288
 20
190.8817166513
 30
0.0
 10
699.3446324251
 20
190.8933118238
 30
0.0
 10
699.2850713609
 20
190.9377565271
 30
0.0
 10
699.2154128749
 20
190.9681272884
 30
0.0
 10
699.1610540208
 20
190.9826926995
 30
0.0
  0
SPLINE
  5
76C
100
AcDbEntity
  8
BEZUGSACHSEN
100
AcDbSpline
 62
7
  6
CONTINUOUS
 70
0
 71
3
 72
19
 73
15
 74
0
 42
0.0000001
 43
0.0000001
 44
0.0000000001
 40
0.0
 40
0.0
 40
0.0
 40
0.0
 40
0.0517263209
 40
0.1053355973
 40
0.1622490903
 40
0.223216447
 40
0.356475981
 40
0.5
 40
0.643524019
 40
0.776783553
 40
0.8377509097
 40
0.8946644027
 40
0.9482736791
 40
1.0
 40
1.0
 40
1.0
 40
1.0
 10
710.3893290092
 20
199.7039702982
 30
0.0
 10
710.3232420182
 20
199.4573302898
 30
0.0
 10
710.2595726559
 20
198.933330843
 30
0.0
 10
710.380816828
 20
198.1330805315
 30
0.0
 10
710.7080155693
 20
197.3442433715
 30
0.0
 10
711.4172550225
 20
196.3182958329
 30
0.0
 10
712.7331594049
 20
195.2406742181
 30
0.0
 10
714.6705971139
 20
194.4315122072
 30
0.0
 10
716.7530483936
 20
194.1635482099
 30
0.0
 10
718.4314658251
 20
194.4388437128
 30
0.0
 10
719.5586589782
 20
194.9727206176
 30
0.0
 10
720.2364399802
 20
195.492274267
 30
0.0
 10
720.7415656692
 20
196.12468928
 30
0.0
 10
720.9484261073
 20
196.6103207937
 30
0.0
 10
721.0145130984
 20
196.8569608021
 30
0.0
  0
SPLINE
  5
76D
100
AcDbEntity
  8
RUNDUNGEN
100
AcDbSpline
 62
7
  6
CONTINUOUS
 70
0
 71
3
 72
11
 73
7
 74
0
 42
0.0000001
 43
0.0000001
 44
0.0000000001
 40
0.0
 40
0.0
 40
0.0
 40
0.0
 40
0.2794012361
 40
0.5367224514
 40
0.7743079693
 40
1.0
 40
1.0
 40
1.0
 40
1.0
 10
665.8225205689
 20
218.3842401991
 30
0.0
 10
665.4085509089
 20
218.301212788
 30
0.0
 10
664.6253824463
 20
218.063628927
 30
0.0
 10
663.6046120314
 20
217.466443222
 30
0.0
 10
662.8413066234
 20
216.6673609214
 30
0.0
 10
662.5396778371
 20
216.0181939317
 30
0.0
 10
662.4514711847
 20
215.6887461139
 30
0.0
  0
SPLINE
  5
76E
100
AcDbEntity
  8
RUNDUNGEN
100
AcDbSpline
 62
7
  6
CONTINUOUS
 70
0
 71
3
 72
9
 73
5
 74
0
 42
0.0000001
 43
0.0000001
 44
0.0000000001
 40
0.0
 40
0.0
 40
0.0
 40
0.0
 40
0.5089429305
 40
1.0
 40
1.0
 40
1.0
 40
1.0
 10
682.9874694098
 20
216.4646320209
 30
0.0
 10
680.603586112
 20
217.6705599787
 30
0.0
 10
675.5075347251
 20
219.2790290864
 30
0.0
 10
670.1422735632
 20
219.2506271406
 30
0.0
 10
667.6149443461
 20
218.7437358823
 30
0.0
  0
SPLINE
  5
76F
100
AcDbEntity
  8
0
100
AcDbSpline
 62
7
  6
CONTINUOUS
 70
0
 71
3
 72
9
 73
5
 74
0
 42
0.0000001
 43
0.0000001
 44
0.0000000001
 40
0.0
 40
0.0
 40
0.0
 40
0.0
 40
0.2415905642
 40
1.0
 40
1.0
 40
1.0
 40
1.0
 10
728.042250828
 20
200.0126197918
 30
0.0
 10
727.4783224823
 20
200.5087584072
 30
0.0
 10
725.0377894951
 20
202.4401672202
 30
0.0
 10
722.2262148529
 20
203.8868206788
 30
0.0
 10
720.0118838454
 20
204.6970701188
 30
0.0
  0
SPLINE
  5
770
100
AcDbEntity
  8
0
100
AcDbSpline
 62
7
  6
CONTINUOUS
 70
0
 71
3
 72
9
 73
5
 74
0
 42
0.0000001
 43
0.0000001
 44
0.0000000001
 40
0.0
 40
0.0
 40
0.0
 40
0.0
 40
0.2578604761
 40
1.0
 40
1.0
 40
1.0
 40
1.0
 10
715.1776860713
 20
205.9923895085
 30
0.0
 10
714.3880413743
 20
206.1302307024
 30
0.0
 10
711.3056483442
 20
206.5334234205
 30
0.0
 10
708.1429282253
 20
206.4043895906
 30
0.0
 10
705.8809590991
 20
205.9507200138
 30
0.0
  0
SPLINE
  5
771
100
AcDbEntity
  8
RUNDUNGEN
100
AcDbSpline
 62
7
  6
CONTINUOUS
 70
0
 71
3
 72
10
 73
6
 74
0
 42
0.0000001
 43
0.0000001
 44
0.0000000001
 40
0.0
 40
0.0
 40
0.0
 40
0.0
 40
0.2540840964
 40
0.5191023951
 40
1.0
 40
1.0
 40
1.0
 40
1.0
 10
765.9310556195
 20
193.4077422879
 30
0.0
 10
765.7438352372
 20
193.5724569399
 30
0.0
 10
765.3005263333
 20
193.8444917785
 30
0.0
 10
764.3559465606
 20
194.115486768
 30
0.0
 10
763.5581948846
 20
194.0311919754
 30
0.0
 10
763.1506238915
 20
193.7932090798
 30
0.0
  0
SPLINE
  5
772
100
AcDbEntity
  8
0
100
AcDbSpline
 62
7
  6
CONTINUOUS
 70
0
 71
3
 72
11
 73
7
 74
0
 42
0.0000001
 43
0.0000001
 44
0.0000000001
 40
0.0
 40
0.0
 40
0.0
 40
0.0
 40
0.227142142
 40
0.4653047767
 40
0.7220182825
 40
1.0
 40
1.0
 40
1.0
 40
1.0
 10
729.0151005222
 20
180.4328600351
 30
0.0
 10
729.080852255
 20
180.6782488423
 30
0.0
 10
729.1319999911
 20
181.2068980325
 30
0.0
 10
728.9552908952
 20
182.0062613748
 30
0.0
 10
728.5456775505
 20
182.777432895
 30
0.0
 10
728.1488328383
 20
183.2317435868
 30
0.0
 10
727.9230688972
 20
183.4455036277
 30
0.0
  0
SPLINE
  5
773
100
AcDbEntity
  8
0
100
AcDbSpline
 62
7
  6
CONTINUOUS
 70
0
 71
3
 72
8
 73
4
 74
0
 42
0.0000001
 43
0.0000001
 44
0.0000000001
 40
0.0
 40
0.0
 40
0.0
 40
0.0
 40
1.0
 40
1.0
 40
1.0
 40
1.0
 10
726.1739310272
 20
177.9394512164
 30
0.0
 10
726.2753851759
 20
177.9122666591
 30
0.0
 10
726.3819737641
 20
177.8992547456
 30
0.0
 10
726.4869339921
 20
177.9031656272
 30
0.0
  0
SPLINE
  5
774
100
AcDbEntity
  8
0
100
AcDbSpline
 62
7
  6
CONTINUOUS
 70
0
 71
3
 72
17
 73
13
 74
0
 42
0.0000001
 43
0.0000001
 44
0.0000000001
 40
0.0
 40
0.0
 40
0.0
 40
0.0
 40
0.0517921087
 40
0.1054769531
 40
0.2228492041
 40
0.356284866
 40
0.5
 40
0.643715134
 40
0.7771507959
 40
0.8945230469
 40
0.9482078913
 40
1.0
 40
1.0
 40
1.0
 40
1.0
 10
712.5821451134
 20
183.8318928507
 30
0.0
 10
712.5376748155
 20
183.6659274393
 30
0.0
 10
712.494881258
 20
183.3132867513
 30
0.0
 10
712.6065360847
 20
182.5746883344
 30
0.0
 10
713.1285895012
 20
181.6697454047
 30
0.0
 10
714.1588243053
 20
180.8297994938
 30
0.0
 10
715.4630225449
 20
180.2831815469
 30
0.0
 10
716.8658003253
 20
180.1044674553
 30
0.0
 10
718.177982793
 20
180.3167645499
 30
0.0
 10
719.0825657787
 20
180.8394414078
 30
0.0
 10
719.5485609034
 20
181.4232589866
 30
0.0
 10
719.6878209396
 20
181.7500515595
 30
0.0
 10
719.7322912376
 20
181.916016971
 30
0.0
  0
SPLINE
  5
775
100
AcDbEntity
  8
0
100
AcDbSpline
 62
7
  6
CONTINUOUS
 70
0
 71
3
 72
9
 73
5
 74
0
 42
0.0000001
 43
0.0000001
 44
0.0000000001
 40
0.0
 40
0.0
 40
0.0
 40
0.0
 40
0.4402133985
 40
1.0
 40
1.0
 40
1.0
 40
1.0
 10
696.3167174405
 20
187.1482833685
 30
0.0
 10
696.3089184519
 20
187.1191771468
 30
0.0
 10
696.3367610707
 20
187.0437838483
 30
0.0
 10
696.401839673
 20
187.011275009
 30
0.0
 10
696.4388518879
 20
187.0013576159
 30
0.0
  0
SPLINE
  5
776
100
AcDbEntity
  8
0
100
AcDbSpline
 62
7
  6
CONTINUOUS
 70
0
 71
3
 72
11
 73
7
 74
0
 42
0.0000001
 43
0.0000001
 44
0.0000000001
 40
0.0
 40
0.0
 40
0.0
 40
0.0
 40
0.2816347582
 40
0.5420479832
 40
0.7798483853
 40
1.0
 40
1.0
 40
1.0
 40
1.0
 10
726.4869339921
 20
177.9031656272
 30
0.0
 10
726.9272200859
 20
177.9195709535
 30
0.0
 10
727.7749338884
 20
178.0329950684
 30
0.0
 10
728.9284434002
 20
178.4657543341
 30
0.0
 10
729.8509779505
 20
179.1348063357
 30
0.0
 10
730.2740758113
 20
179.7343555002
 30
0.0
 10
730.4165183057
 20
180.0479256791
 30
0.0
  0
SPLINE
  5
777
100
AcDbEntity
  8
0
100
AcDbSpline
 62
7
  6
CONTINUOUS
 70
0
 71
3
 72
9
 73
5
 74
0
 42
0.0000001
 43
0.0000001
 44
0.0000000001
 40
0.0
 40
0.0
 40
0.0
 40
0.0
 40
0.2591205677
 40
1.0
 40
1.0
 40
1.0
 40
1.0
 10
727.827695553
 20
184.0057221281
 30
0.0
 10
727.848150645
 20
184.0002412027
 30
0.0
 10
727.9257408678
 20
183.9746122388
 30
0.0
 10
727.9980599947
 20
183.9310913027
 30
0.0
 10
728.0420271534
 20
183.889461884
 30
0.0
  0
SPLINE
  5
778
100
AcDbEntity
  8
0
100
AcDbSpline
 62
7
  6
CONTINUOUS
 70
0
 71
3
 72
11
 73
7
 74
0
 42
0.0000001
 43
0.0000001
 44
0.0000000001
 40
0.0
 40
0.0
 40
0.0
 40
0.0
 40
0.2779697373
 40
0.5346991835
 40
0.7728568778
 40
1.0
 40
1.0
 40
1.0
 40
1.0
 10
728.0420271534
 20
183.889461884
 30
0.0
 10
728.2677821737
 20
183.6757102896
 30
0.0
 10
728.6646174089
 20
183.2213873976
 30
0.0
 10
729.0742767895
 20
182.4502348987
 30
0.0
 10
729.2509650941
 20
181.6508495773
 30
0.0
 10
729.1998336218
 20
181.1222029833
 30
0.0
 10
729.1340813698
 20
180.876812238
 30
0.0
  0
SPLINE
  5
779
100
AcDbEntity
  8
0
100
AcDbSpline
 62
7
  6
CONTINUOUS
 70
0
 71
3
 72
9
 73
5
 74
0
 42
0.0000001
 43
0.0000001
 44
0.0000000001
 40
0.0
 40
0.0
 40
0.0
 40
0.0
 40
0.4402133985
 40
1.0
 40
1.0
 40
1.0
 40
1.0
 10
696.4356756967
 20
187.5922416247
 30
0.0
 10
696.4278767081
 20
187.5631354031
 30
0.0
 10
696.455719327
 20
187.4877421045
 30
0.0
 10
696.5207979292
 20
187.4552332653
 30
0.0
 10
696.5578101441
 20
187.4453158722
 30
0.0
  0
SPLINE
  5
77A
100
AcDbEntity
  8
0
100
AcDbSpline
 62
7
  6
CONTINUOUS
 70
0
 71
3
 72
9
 73
5
 74
0
 42
0.0000001
 43
0.0000001
 44
0.0000000001
 40
0.0
 40
0.0
 40
0.0
 40
0.0
 40
0.5
 40
1.0
 40
1.0
 40
1.0
 40
1.0
 10
712.6453856012
 20
183.9618429563
 30
0.0
 10
712.5148598529
 20
182.5230873098
 30
0.0
 10
715.372126806
 20
179.9439540312
 30
0.0
 10
719.136159212
 20
180.7489154937
 30
0.0
 10
719.7424984214
 20
182.0601773076
 30
0.0
  0
SPLINE
  5
77B
100
AcDbEntity
  8
0
100
AcDbSpline
 62
7
  6
CONTINUOUS
 70
0
 71
3
 72
9
 73
5
 74
0
 42
0.0000001
 43
0.0000001
 44
0.0000000001
 40
0.0
 40
0.0
 40
0.0
 40
0.0
 40
0.5403772208
 40
1.0
 40
1.0
 40
1.0
 40
1.0
 10
709.4121531493
 20
186.1548664856
 30
0.0
 10
709.8030747736
 20
186.1417562423
 30
0.0
 10
710.5406388346
 20
186.2347037966
 30
0.0
 10
711.177277366
 20
186.6657792268
 30
0.0
 10
711.3727714578
 20
186.9349705289
 30
0.0
  0
SPLINE
  5
77C
100
AcDbEntity
  8
0
100
AcDbSpline
 62
7
  6
CONTINUOUS
 70
0
 71
3
 72
8
 73
4
 74
0
 42
0.0000001
 43
0.0000001
 44
0.0000000001
 40
0.0
 40
0.0
 40
0.0
 40
0.0
 40
1.0
 40
1.0
 40
1.0
 40
1.0
 10
711.3727714578
 20
186.9349705289
 30
0.0
 10
711.4217099432
 20
187.0023578064
 30
0.0
 10
711.4649431679
 20
187.0743461158
 30
0.0
 10
711.5008722213
 20
187.1494801537
 30
0.0
  0
SPLINE
  5
77D
100
AcDbEntity
  8
0
100
AcDbSpline
 62
7
  6
CONTINUOUS
 70
0
 71
3
 72
11
 73
7
 74
0
 42
0.0000001
 43
0.0000001
 44
0.0000000001
 40
0.0
 40
0.0
 40
0.0
 40
0.0
 40
0.2880066977
 40
0.5553334191
 40
0.790532629
 40
1.0
 40
1.0
 40
1.0
 40
1.0
 10
709.3391361954
 20
189.0072999797
 30
0.0
 10
709.5143649854
 20
188.9603475669
 30
0.0
 10
709.8421122397
 20
188.8234568579
 30
0.0
 10
710.2333096857
 20
188.5028098147
 30
0.0
 10
710.4662863507
 20
188.1044677176
 30
0.0
 10
710.4757177612
 20
187.8085349103
 30
0.0
 10
710.4415692551
 20
187.6810909506
 30
0.0
  0
SPLINE
  5
77E
100
AcDbEntity
  8
0
100
AcDbSpline
 62
7
  6
CONTINUOUS
 70
0
 71
3
 72
9
 73
5
 74
0
 42
0.0000001
 43
0.0000001
 44
0.0000000001
 40
0.0
 40
0.0
 40
0.0
 40
0.0
 40
0.5597866015
 40
1.0
 40
1.0
 40
1.0
 40
1.0
 10
697.7632855753
 20
187.1223097039
 30
0.0
 10
697.8002977902
 20
187.1123923108
 30
0.0
 10
697.8729119327
 20
187.1080064903
 30
0.0
 10
697.9347209971
 20
187.1593776927
 30
0.0
 10
697.9425199857
 20
187.1884839143
 30
0.0
  0
SPLINE
  5
77F
100
AcDbEntity
  8
0
100
AcDbSpline
 62
7
  6
CONTINUOUS
 70
0
 71
3
 72
9
 73
5
 74
0
 42
0.0000001
 43
0.0000001
 44
0.0000000001
 40
0.0
 40
0.0
 40
0.0
 40
0.0
 40
0.4402133985
 40
1.0
 40
1.0
 40
1.0
 40
1.0
 10
697.6345890652
 20
190.1830918683
 30
0.0
 10
697.6423880537
 20
190.21219809
 30
0.0
 10
697.7041971182
 20
190.2635692924
 30
0.0
 10
697.7768112607
 20
190.2591834719
 30
0.0
 10
697.8138234755
 20
190.2492660788
 30
0.0
  0
SPLINE
  5
780
100
AcDbEntity
  8
RUNDUNGEN
100
AcDbSpline
 62
7
  6
CONTINUOUS
 70
0
 71
3
 72
11
 73
7
 74
0
 42
0.0000001
 43
0.0000001
 44
0.0000000001
 40
0.0
 40
0.0
 40
0.0
 40
0.0
 40
0.2256778953
 40
0.4632795617
 40
0.7206246471
 40
1.0
 40
1.0
 40
1.0
 40
1.0
 10
679.437015664
 20
201.3776903162
 30
0.0
 10
679.3891323098
 20
201.1994056703
 30
0.0
 10
679.2255322173
 20
200.8481614628
 30
0.0
 10
678.8121234901
 20
200.4158302213
 30
0.0
 10
678.2594772618
 20
200.0927223056
 30
0.0
 10
677.835540787
 20
199.9641491718
 30
0.0
 10
677.6114759281
 20
199.9192098274
 30
0.0
  0
SPLINE
  5
781
100
AcDbEntity
  8
0
100
AcDbSpline
 62
7
  6
CONTINUOUS
 70
0
 71
3
 72
9
 73
5
 74
0
 42
0.0000001
 43
0.0000001
 44
0.0000000001
 40
0.0
 40
0.0
 40
0.0
 40
0.0
 40
0.5597866015
 40
1.0
 40
1.0
 40
1.0
 40
1.0
 10
698.0775212261
 20
190.1786084795
 30
0.0
 10
698.114533441
 20
190.1686910864
 30
0.0
 10
698.1796120433
 20
190.1361822471
 30
0.0
 10
698.2074546621
 20
190.0607889486
 30
0.0
 10
698.1996556735
 20
190.031682727
 30
0.0
  0
SPLINE
  5
782
100
AcDbEntity
  8
0
100
AcDbSpline
 62
7
  6
CONTINUOUS
 70
0
 71
3
 72
9
 73
5
 74
0
 42
0.0000001
 43
0.0000001
 44
0.0000000001
 40
0.0
 40
0.0
 40
0.0
 40
0.0
 40
0.5597866015
 40
1.0
 40
1.0
 40
1.0
 40
1.0
 10
698.4770351127
 20
189.7860592413
 30
0.0
 10
698.5140473276
 20
189.7761418482
 30
0.0
 10
698.58666147
 20
189.7717560277
 30
0.0
 10
698.6484705345
 20
189.8231272301
 30
0.0
 10
698.6562695231
 20
189.8522334517
 30
0.0
  0
SPLINE
  5
783
100
AcDbEntity
  8
0
100
AcDbSpline
 62
7
  6
CONTINUOUS
 70
0
 71
3
 72
11
 73
7
 74
0
 42
0.0000001
 43
0.0000001
 44
0.0000000001
 40
0.0
 40
0.0
 40
0.0
 40
0.0
 40
0.2876567391
 40
0.555407049
 40
0.7907201247
 40
1.0
 40
1.0
 40
1.0
 40
1.0
 10
699.280012277
 20
191.4266509557
 30
0.0
 10
699.3284792018
 20
191.4136642824
 30
0.0
 10
699.4191270976
 20
191.3755711391
 30
0.0
 10
699.5278218342
 20
191.2870762374
 30
0.0
 10
699.5919615459
 20
191.1764896518
 30
0.0
 10
699.5947966337
 20
191.0945978792
 30
0.0
 10
699.5853483955
 20
191.0593365744
 30
0.0
  0
SPLINE
  5
784
100
AcDbEntity
  8
0
100
AcDbSpline
 62
7
  6
CONTINUOUS
 70
0
 71
3
 72
9
 73
5
 74
0
 42
0.0000001
 43
0.0000001
 44
0.0000000001
 40
0.0
 40
0.0
 40
0.0
 40
0.0
 40
0.5531686664
 40
1.0
 40
1.0
 40
1.0
 40
1.0
 10
698.6642400868
 20
188.7261322929
 30
0.0
 10
698.7327274599
 20
188.6925732928
 30
0.0
 10
698.8499532445
 20
188.6064595231
 30
0.0
 10
698.8875437512
 20
188.455094188
 30
0.0
 10
698.8715988582
 20
188.395587037
 30
0.0
  0
SPLINE
  5
785
100
AcDbEntity
  8
0
100
AcDbSpline
 62
7
  6
CONTINUOUS
 70
0
 71
3
 72
9
 73
5
 74
0
 42
0.0000001
 43
0.0000001
 44
0.0000000001
 40
0.0
 40
0.0
 40
0.0
 40
0.0
 40
0.4575243679
 40
1.0
 40
1.0
 40
1.0
 40
1.0
 10
696.2346213524
 20
189.1021630302
 30
0.0
 10
696.2473426214
 20
189.1496394524
 30
0.0
 10
696.3195372737
 20
189.2421295921
 30
0.0
 10
696.4269602616
 20
189.275166542
 30
0.0
 10
696.4847894116
 20
189.2823807932
 30
0.0
  0
SPLINE
  5
786
100
AcDbEntity
  8
0
100
AcDbSpline
 62
7
  6
CONTINUOUS
 70
0
 71
3
 72
8
 73
4
 74
0
 42
0.0000001
 43
0.0000001
 44
0.0000000001
 40
0.0
 40
0.0
 40
0.0
 40
0.0
 40
1.0
 40
1.0
 40
1.0
 40
1.0
 10
696.4847894116
 20
189.2823807932
 30
0.0
 10
696.5504369633
 20
189.2905703988
 30
0.0
 10
696.6188051927
 20
189.2847210953
 30
0.0
 10
696.6827073784
 20
189.2675985563
 30
0.0
  0
SPLINE
  5
787
100
AcDbEntity
  8
0
100
AcDbSpline
 62
7
  6
CONTINUOUS
 70
0
 71
3
 72
11
 73
7
 74
0
 42
0.0000001
 43
0.0000001
 44
0.0000000001
 40
0.0
 40
0.0
 40
0.0
 40
0.0
 40
0.2092798753
 40
0.444592951
 40
0.7123432609
 40
1.0
 40
1.0
 40
1.0
 40
1.0
 10
696.9483708898
 20
191.7659125675
 30
0.0
 10
696.9578191279
 20
191.8011738724
 30
0.0
 10
697.0012202722
 20
191.8706766839
 30
0.0
 10
697.1120601848
 20
191.9343776205
 30
0.0
 10
697.2504400388
 20
191.9566690852
 30
0.0
 10
697.347989991
 20
191.944334767
 30
0.0
 10
697.3964569158
 20
191.9313480937
 30
0.0
  0
SPLINE
  5
788
100
AcDbEntity
  8
0
100
AcDbSpline
 62
7
  6
CONTINUOUS
 70
0
 71
3
 72
9
 73
5
 74
0
 42
0.0000001
 43
0.0000001
 44
0.0000000001
 40
0.0
 40
0.0
 40
0.0
 40
0.0
 40
0.538986273
 40
1.0
 40
1.0
 40
1.0
 40
1.0
 10
699.7816741922
 20
185.0112351217
 30
0.0
 10
699.9243940947
 20
184.9729934391
 30
0.0
 10
700.2055733598
 20
184.9513511044
 30
0.0
 10
700.476001037
 20
185.064740183
 30
0.0
 10
700.5658673737
 20
185.1535987237
 30
0.0
  0
SPLINE
  5
789
100
AcDbEntity
  8
0
100
AcDbSpline
 62
7
  6
CONTINUOUS
 70
0
 71
3
 72
9
 73
5
 74
0
 42
0.0000001
 43
0.0000001
 44
0.0000000001
 40
0.0
 40
0.0
 40
0.0
 40
0.0
 40
0.2592261758
 40
1.0
 40
1.0
 40
1.0
 40
1.0
 10
700.5658673737
 20
185.1535987237
 30
0.0
 10
700.5794273015
 20
185.1670065851
 30
0.0
 10
700.6285869555
 20
185.221771655
 30
0.0
 10
700.6637423105
 20
185.289469577
 30
0.0
 10
700.6778462442
 20
185.342106174
 30
0.0
  0
SPLINE
  5
78A
100
AcDbEntity
  8
RUNDUNGEN
100
AcDbSpline
 62
7
  6
CONTINUOUS
 70
0
 71
3
 72
9
 73
5
 74
0
 42
0.0000001
 43
0.0000001
 44
0.0000000001
 40
0.0
 40
0.0
 40
0.0
 40
0.0
 40
0.4963806263
 40
1.0
 40
1.0
 40
1.0
 40
1.0
 10
699.607475879
 20
204.6924851223
 30
0.0
 10
698.5558791095
 20
204.4815726673
 30
0.0
 10
696.3273301663
 20
204.5676040511
 30
0.0
 10
694.2905080581
 20
205.4619724268
 30
0.0
 10
693.4144404528
 20
206.1074497406
 30
0.0
  0
SPLINE
  5
78B
100
AcDbEntity
  8
RUNDUNGEN
100
AcDbSpline
 62
7
  6
CONTINUOUS
 70
0
 71
3
 72
11
 73
7
 74
0
 42
0.0000001
 43
0.0000001
 44
0.0000000001
 40
0.0
 40
0.0
 40
0.0
 40
0.0
 40
0.2660806569
 40
0.5190943725
 40
0.7622194677
 40
1.0
 40
1.0
 40
1.0
 40
1.0
 10
726.6560311994
 20
146.8095135404
 30
0.0
 10
726.2558864479
 20
147.5104984866
 30
0.0
 10
725.5815036733
 20
148.9433514753
 30
0.0
 10
724.9858374201
 20
151.1916106876
 30
0.0
 10
724.8508490159
 20
153.4290968624
 30
0.0
 10
725.075065175
 20
154.8841249932
 30
0.0
 10
725.2617525978
 20
155.5808518433
 30
0.0
  0
SPLINE
  5
78C
100
AcDbEntity
  8
RUNDUNGEN
100
AcDbSpline
 62
7
  6
CONTINUOUS
 70
0
 71
3
 72
11
 73
7
 74
0
 42
0.0000001
 43
0.0000001
 44
0.0000000001
 40
0.0
 40
0.0
 40
0.0
 40
0.0
 40
0.2297109036
 40
0.4842558674
 40
0.7475645357
 40
1.0
 40
1.0
 40
1.0
 40
1.0
 10
750.5206738546
 20
186.4185133026
 30
0.0
 10
749.932839418
 20
186.0752736124
 30
0.0
 10
748.53037213
 20
185.6241933826
 30
0.0
 10
746.2871994882
 20
185.6355638977
 30
0.0
 10
744.0654896556
 20
186.2643889911
 30
0.0
 10
742.7410066999
 20
187.0807988588
 30
0.0
 10
742.1793786707
 20
187.5749136783
 30
0.0
  0
SPLINE
  5
78D
100
AcDbEntity
  8
KONSTRUKTIONSELEMENTE
100
AcDbSpline
 62
7
  6
CONTINUOUS
 70
0
 71
3
 72
15
 73
11
 74
0
 42
0.0000001
 43
0.0000001
 44
0.0000000001
 40
0.0
 40
0.0
 40
0.0
 40
0.0
 40
0.0624946376
 40
0.1250023376
 40
0.2497593649
 40
0.3747328447
 40
0.4997829526
 40
0.6248643907
 40
0.7499620208
 40
1.0
 40
1.0
 40
1.0
 40
1.0
 10
701.4521536922
 20
227.9379852932
 30
0.0
 10
701.5540255264
 20
228.3181761542
 30
0.0
 10
701.8430684022
 20
229.0583640308
 30
0.0
 10
702.7085725956
 20
230.3824618433
 30
0.0
 10
704.1906537222
 20
231.7197757709
 30
0.0
 10
706.2549055865
 20
232.8853806594
 30
0.0
 10
708.4685866324
 20
233.7300060167
 30
0.0
 10
710.7627903225
 20
234.3146015926
 30
0.0
 10
713.8789929522
 20
234.7993092179
 30
0.0
 10
716.2532332665
 20
234.86844301
 30
0.0
 10
717.8265819779
 20
234.8012125258
 30
0.0
  0
SPLINE
  5
78E
100
AcDbEntity
  8
KONSTRUKTIONSELEMENTE
100
AcDbSpline
 62
7
  6
CONTINUOUS
 70
0
 71
3
 72
9
 73
5
 74
0
 42
0.0000001
 43
0.0000001
 44
0.0000000001
 40
0.0
 40
0.0
 40
0.0
 40
0.0
 40
0.5000902521
 40
1.0
 40
1.0
 40
1.0
 40
1.0
 10
699.1481170437
 20
222.0331101159
 30
0.0
 10
699.5152788418
 20
222.5651560355
 30
0.0
 10
700.1792615828
 20
223.6808007305
 30
0.0
 10
700.6378562916
 20
224.8989860215
 30
0.0
 10
700.8051060795
 20
225.5231707275
 30
0.0
  0
SPLINE
  5
78F
100
AcDbEntity
  8
KONSTRUKTIONSELEMENTE
100
AcDbSpline
 62
7
  6
CONTINUOUS
 70
0
 71
3
 72
9
 73
5
 74
0
 42
0.0000001
 43
0.0000001
 44
0.0000000001
 40
0.0
 40
0.0
 40
0.0
 40
0.0
 40
0.4999097479
 40
1.0
 40
1.0
 40
1.0
 40
1.0
 10
742.2242938458
 20
214.4249328143
 30
0.0
 10
742.0570440579
 20
213.8007481084
 30
0.0
 10
741.8451060802
 20
212.5164713455
 30
0.0
 10
741.8623096541
 20
211.2183033275
 30
0.0
 10
741.9142581387
 20
210.5739571461
 30
0.0
  0
SPLINE
  5
790
100
AcDbEntity
  8
KONSTRUKTIONSELEMENTE
100
AcDbSpline
 62
7
  6
CONTINUOUS
 70
0
 71
3
 72
15
 73
11
 74
0
 42
0.0000001
 43
0.0000001
 44
0.0000000001
 40
0.0
 40
0.0
 40
0.0
 40
0.0
 40
0.2500415702
 40
0.3751416148
 40
0.5002258421
 40
0.6252778246
 40
0.7502487062
 40
0.8750031602
 40
0.9375084728
 40
1.0
 40
1.0
 40
1.0
 40
1.0
 10
732.122284207
 20
230.9706906583
 30
0.0
 10
733.5184795344
 20
230.2422291059
 30
0.0
 10
735.5400933646
 20
228.9952109523
 30
0.0
 10
737.9964945752
 20
227.0173064375
 30
0.0
 10
739.6910525904
 20
225.3638826046
 30
0.0
 10
741.1858337514
 20
223.5255496186
 30
0.0
 10
742.3906900863
 20
221.4839828899
 30
0.0
 10
743.0055093755
 20
219.5848305758
 30
0.0
 10
743.0929837947
 20
218.0054261764
 30
0.0
 10
742.9732082284
 20
217.2199193406
 30
0.0
 10
742.8713414585
 20
216.8397473801
 30
0.0
  0
SPLINE
  5
791
100
AcDbEntity
  8
RUNDUNGEN
100
AcDbSpline
 62
7
  6
CONTINUOUS
 70
0
 71
3
 72
9
 73
5
 74
0
 42
0.0000001
 43
0.0000001
 44
0.0000000001
 40
0.0
 40
0.0
 40
0.0
 40
0.0
 40
0.4907112898
 40
1.0
 40
1.0
 40
1.0
 40
1.0
 10
718.4810457844
 20
260.6450499039
 30
0.0
 10
717.3127599447
 20
260.9580911512
 30
0.0
 10
714.9050971079
 20
261.4895549165
 30
0.0
 10
712.5042319338
 20
262.0492863742
 30
0.0
 10
711.2917169564
 20
262.3741787832
 30
0.0
  0
SPLINE
  5
792
100
AcDbEntity
  8
RUNDUNGEN
100
AcDbSpline
 62
7
  6
CONTINUOUS
 70
0
 71
3
 72
15
 73
11
 74
0
 42
0.0000001
 43
0.0000001
 44
0.0000000001
 40
0.0
 40
0.0
 40
0.0
 40
0.0
 40
0.0570233419
 40
0.1293586796
 40
0.2242107455
 40
0.3430879243
 40
0.4844660151
 40
0.6447708672
 40
0.8187803679
 40
1.0
 40
1.0
 40
1.0
 40
1.0
 10
762.4207656465
 20
229.6805449502
 30
0.0
 10
762.4533109566
 20
229.8020057009
 30
0.0
 10
762.4298083572
 20
230.1037365262
 30
0.0
 10
762.167670567
 20
230.5333774523
 30
0.0
 10
761.718164638
 20
230.9804223364
 30
0.0
 10
761.0805391602
 20
231.4391413852
 30
0.0
 10
760.271981736
 20
231.8959493087
 30
0.0
 10
759.3170667995
 20
232.3327266823
 30
0.0
 10
758.2513900291
 20
232.7309223594
 30
0.0
 10
757.500843775
 20
232.9573619976
 30
0.0
 10
757.1148426776
 20
233.0607906799
 30
0.0
  0
SPLINE
  5
793
100
AcDbEntity
  8
KONSTRUKTIONSELEMENTE
100
AcDbSpline
 62
7
  6
CONTINUOUS
 70
0
 71
3
 72
20
 73
16
 74
0
 42
0.0000001
 43
0.0000001
 44
0.0000000001
 40
0.0
 40
0.0
 40
0.0
 40
0.0
 40
0.1925074097
 40
0.3784599411
 40
0.5508798646
 40
0.6298138988
 40
0.7027736029
 40
0.7689728188
 40
0.8277038991
 40
0.8783417129
 40
0.9203734727
 40
0.9534317115
 40
0.9665361599
 40
0.9773699474
 40
1.0
 40
1.0
 40
1.0
 40
1.0
 10
699.1481170437
 20
222.0331101159
 30
0.0
 10
698.4645618855
 20
221.0425856806
 30
0.0
 10
697.1716490498
 20
219.0597478089
 30
0.0
 10
695.4185794149
 20
216.0944441437
 30
0.0
 10
694.1179396866
 20
213.688954571
 30
0.0
 10
693.2043227794
 20
211.8788707807
 30
0.0
 10
692.6131088185
 20
210.650156911
 30
0.0
 10
692.0993508833
 20
209.5247093799
 30
0.0
 10
691.6666785529
 20
208.5156431435
 30
0.0
 10
691.3179886039
 20
207.6362267556
 30
0.0
 10
691.0558011078
 20
206.8930358437
 30
0.0
 10
690.8997241432
 20
206.3683442615
 30
0.0
 10
690.8244628372
 20
206.0125612539
 30
0.0
 10
690.7841251009
 20
205.7461883734
 30
0.0
 10
690.7858103432
 20
205.4317569597
 30
0.0
 10
690.9224648936
 20
205.3951404833
 30
0.0
  0
SPLINE
  5
794
100
AcDbEntity
  8
KONSTRUKTIONSELEMENTE
100
AcDbSpline
 62
7
  6
CONTINUOUS
 70
0
 71
3
 72
20
 73
16
 74
0
 42
0.0000001
 43
0.0000001
 44
0.0000000001
 40
0.0
 40
0.0
 40
0.0
 40
0.0
 40
0.0226300526
 40
0.0334638401
 40
0.0465682885
 40
0.0796265273
 40
0.1216582871
 40
0.1722961009
 40
0.2310271812
 40
0.2972263971
 40
0.3701861012
 40
0.4491201354
 40
0.6215400589
 40
0.8074925903
 40
1.0
 40
1.0
 40
1.0
 40
1.0
 10
740.7188970472
 20
192.0522267018
 30
0.0
 10
740.8555515975
 20
192.0156102254
 30
0.0
 10
741.014226767
 20
192.2870731963
 30
0.0
 10
741.1124797029
 20
192.5379277458
 30
0.0
 10
741.2251930038
 20
192.8836755216
 30
0.0
 10
741.3523721786
 20
193.4161102433
 30
0.0
 10
741.4969066024
 20
194.1908262008
 30
0.0
 10
741.6346404425
 20
195.1267681078
 30
0.0
 10
741.764468331
 20
196.2169812678
 30
0.0
 10
741.8822646732
 20
197.4485263879
 30
0.0
 10
741.9846152989
 20
198.8082307936
 30
0.0
 10
742.0984417431
 20
200.8326177925
 30
0.0
 10
742.1747994835
 20
203.5661527351
 30
0.0
 10
742.1392484777
 20
207.0107158566
 30
0.0
 10
742.010972053
 20
209.374360243
 30
0.0
 10
741.9142581387
 20
210.5739571461
 30
0.0
  0
SPLINE
  5
795
100
AcDbEntity
  8
RUNDUNGEN
100
AcDbSpline
 62
7
  6
CONTINUOUS
 70
0
 71
3
 72
9
 73
5
 74
0
 42
0.0000001
 43
0.0000001
 44
0.0000000001
 40
0.0
 40
0.0
 40
0.0
 40
0.0
 40
0.5098814585
 40
1.0
 40
1.0
 40
1.0
 40
1.0
 10
707.1501185017
 20
263.4839167445
 30
0.0
 10
706.5201544393
 20
263.6527151174
 30
0.0
 10
705.2935696263
 20
264.0174403353
 30
0.0
 10
704.0809258488
 20
264.4243748671
 30
0.0
 10
703.4844837051
 20
264.6174307924
 30
0.0
  0
SPLINE
  5
796
100
AcDbEntity
  8
RUNDUNGEN
100
AcDbSpline
 62
7
  6
CONTINUOUS
 70
0
 71
3
 72
15
 73
11
 74
0
 42
0.0000001
 43
0.0000001
 44
0.0000000001
 40
0.0
 40
0.0
 40
0.0
 40
0.0
 40
0.0570233419
 40
0.1293586796
 40
0.2242107455
 40
0.3430879243
 40
0.4844660151
 40
0.6447708672
 40
0.8187803679
 40
1.0
 40
1.0
 40
1.0
 40
1.0
 10
760.387790178
 20
222.0933772111
 30
0.0
 10
760.4203354881
 20
222.2148379618
 30
0.0
 10
760.3968328886
 20
222.516568787
 30
0.0
 10
760.1346950984
 20
222.9462097132
 30
0.0
 10
759.6851891695
 20
223.3932545973
 30
0.0
 10
759.0475636916
 20
223.8519736461
 30
0.0
 10
758.2390062674
 20
224.3087815696
 30
0.0
 10
757.284091331
 20
224.7455589432
 30
0.0
 10
756.2184145606
 20
225.1437546203
 30
0.0
 10
755.4678683065
 20
225.3701942584
 30
0.0
 10
755.081867209
 20
225.4736229408
 30
0.0
  0
SPLINE
  5
797
100
AcDbEntity
  8
RUNDUNGEN
100
AcDbSpline
 62
7
  6
CONTINUOUS
 70
0
 71
3
 72
9
 73
5
 74
0
 42
0.0000001
 43
0.0000001
 44
0.0000000001
 40
0.0
 40
0.0
 40
0.0
 40
0.0
 40
0.4901185419
 40
1.0
 40
1.0
 40
1.0
 40
1.0
 10
759.4510146627
 20
249.6212440123
 30
0.0
 10
758.8379525713
 20
249.7522737646
 30
0.0
 10
757.5843048254
 20
250.0061800436
 30
0.0
 10
756.3396884504
 20
250.3036112007
 30
0.0
 10
755.7097243038
 20
250.472409585
 30
0.0
  0
SPLINE
  5
798
100
AcDbEntity
  8
RUNDUNGEN
100
AcDbSpline
 62
7
  6
CONTINUOUS
 70
0
 71
3
 72
15
 73
11
 74
0
 42
0.0000001
 43
0.0000001
 44
0.0000000001
 40
0.0
 40
0.0
 40
0.0
 40
0.0
 40
0.1812196321
 40
0.3552291328
 40
0.5155339849
 40
0.6569120757
 40
0.7757892545
 40
0.8706413204
 40
0.9429766581
 40
1.0
 40
1.0
 40
1.0
 40
1.0
 10
695.1944659791
 20
241.5204037371
 30
0.0
 10
694.8084648817
 20
241.6238324195
 30
0.0
 10
694.0452529398
 20
241.8030030675
 30
0.0
 10
692.9232519459
 20
241.9909938806
 30
0.0
 10
691.8778826657
 20
242.0901910475
 30
0.0
 10
690.9492474341
 20
242.0988624932
 30
0.0
 10
690.1676880478
 20
242.0204128827
 30
0.0
 10
689.5548820521
 20
241.8580136209
 30
0.0
 10
689.1130436035
 20
241.6170025594
 30
0.0
 10
688.9418243427
 20
241.3674472994
 30
0.0
 10
688.9092790326
 20
241.2459865487
 30
0.0
  0
SPLINE
  5
799
100
AcDbEntity
  8
RUNDUNGEN
100
AcDbSpline
 62
7
  6
CONTINUOUS
 70
0
 71
3
 72
15
 73
11
 74
0
 42
0.0000001
 43
0.0000001
 44
0.0000000001
 40
0.0
 40
0.0
 40
0.0
 40
0.0
 40
0.0570233419
 40
0.1293586796
 40
0.2242107455
 40
0.3430879243
 40
0.4844660151
 40
0.6447708672
 40
0.8187803679
 40
1.0
 40
1.0
 40
1.0
 40
1.0
 10
690.9422545011
 20
248.8331542878
 30
0.0
 10
690.9747998112
 20
248.9546150385
 30
0.0
 10
691.146019072
 20
249.2041702986
 30
0.0
 10
691.5878575206
 20
249.44518136
 30
0.0
 10
692.2006635163
 20
249.6075806218
 30
0.0
 10
692.9822229026
 20
249.6860302323
 30
0.0
 10
693.9108581342
 20
249.6773587866
 30
0.0
 10
694.9562274144
 20
249.5781616197
 30
0.0
 10
696.0782284084
 20
249.3901708066
 30
0.0
 10
696.8414403502
 20
249.2110001586
 30
0.0
 10
697.2274414476
 20
249.1075714763
 30
0.0
  0
SPLINE
  5
79A
100
AcDbEntity
  8
RUNDUNGEN
100
AcDbSpline
 62
7
  6
CONTINUOUS
 70
0
 71
3
 72
9
 73
5
 74
0
 42
0.0000001
 43
0.0000001
 44
0.0000000001
 40
0.0
 40
0.0
 40
0.0
 40
0.0
 40
0.5092886403
 40
1.0
 40
1.0
 40
1.0
 40
1.0
 10
751.5681264546
 20
251.5821473841
 30
0.0
 10
750.3556104986
 20
251.9070400553
 30
0.0
 10
747.996532362
 20
252.6227318322
 30
0.0
 10
745.6457009752
 20
253.3663024828
 30
0.0
 10
744.4774138658
 20
253.6793440703
 30
0.0
  0
SPLINE
  5
79B
100
AcDbEntity
  8
0
100
AcDbSpline
 62
7
  6
CONTINUOUS
 70
0
 71
3
 72
20
 73
16
 74
0
 42
0.0000001
 43
0.0000001
 44
0.0000000001
 40
0.0
 40
0.0
 40
0.0
 40
0.0
 40
0.0226300526
 40
0.0334638401
 40
0.0465682885
 40
0.0796265273
 40
0.1216582871
 40
0.1722961009
 40
0.2310271812
 40
0.2972263971
 40
0.3701861012
 40
0.4491201354
 40
0.6215400589
 40
0.8074925903
 40
1.0
 40
1.0
 40
1.0
 40
1.0
 10
850.0961776316
 20
192.0522267018
 30
0.0
 10
849.9595230813
 20
192.0156102254
 30
0.0
 10
849.8008479117
 20
192.2870731963
 30
0.0
 10
849.7025949759
 20
192.5379277458
 30
0.0
 10
849.589881675
 20
192.8836755216
 30
0.0
 10
849.4627025002
 20
193.4161102433
 30
0.0
 10
849.3181680764
 20
194.1908262008
 30
0.0
 10
849.1804342363
 20
195.1267681078
 30
0.0
 10
849.0506063477
 20
196.2169812678
 30
0.0
 10
848.9328100055
 20
197.4485263879
 30
0.0
 10
848.8304593799
 20
198.8082307936
 30
0.0
 10
848.7166329357
 20
200.8326177925
 30
0.0
 10
848.6402751953
 20
203.5661527351
 30
0.0
 10
848.6758262011
 20
207.0107158566
 30
0.0
 10
848.8041026257
 20
209.374360243
 30
0.0
 10
848.90081654
 20
210.5739571461
 30
0.0
  0
SPLINE
  5
79C
100
AcDbEntity
  8
0
100
AcDbSpline
 62
7
  6
CONTINUOUS
 70
0
 71
3
 72
20
 73
16
 74
0
 42
0.0000001
 43
0.0000001
 44
0.0000000001
 40
0.0
 40
0.0
 40
0.0
 40
0.0
 40
0.1925074097
 40
0.3784599411
 40
0.5508798646
 40
0.6298138988
 40
0.7027736029
 40
0.7689728188
 40
0.8277038991
 40
0.8783417129
 40
0.9203734727
 40
0.9534317115
 40
0.9665361599
 40
0.9773699474
 40
1.0
 40
1.0
 40
1.0
 40
1.0
 10
891.6669576351
 20
222.0331101159
 30
0.0
 10
892.3505127933
 20
221.0425856806
 30
0.0
 10
893.6434256289
 20
219.0597478089
 30
0.0
 10
895.3964952639
 20
216.0944441437
 30
0.0
 10
896.6971349922
 20
213.688954571
 30
0.0
 10
897.6107518994
 20
211.8788707807
 30
0.0
 10
898.2019658603
 20
210.650156911
 30
0.0
 10
898.7157237955
 20
209.5247093799
 30
0.0
 10
899.1483961259
 20
208.5156431435
 30
0.0
 10
899.4970860749
 20
207.6362267556
 30
0.0
 10
899.759273571
 20
206.8930358437
 30
0.0
 10
899.9153505356
 20
206.3683442615
 30
0.0
 10
899.9906118416
 20
206.0125612539
 30
0.0
 10
900.0309495779
 20
205.7461883734
 30
0.0
 10
900.0292643355
 20
205.4317569597
 30
0.0
 10
899.8926097852
 20
205.3951404833
 30
0.0
  0
SPLINE
  5
79D
100
AcDbEntity
  8
0
100
AcDbSpline
 62
7
  6
CONTINUOUS
 70
0
 71
3
 72
9
 73
5
 74
0
 42
0.0000001
 43
0.0000001
 44
0.0000000001
 40
0.0
 40
0.0
 40
0.0
 40
0.0
 40
0.4907112898
 40
1.0
 40
1.0
 40
1.0
 40
1.0
 10
872.3340288944
 20
260.6450499039
 30
0.0
 10
873.5023147341
 20
260.9580911512
 30
0.0
 10
875.9099775709
 20
261.4895549165
 30
0.0
 10
878.310842745
 20
262.0492863742
 30
0.0
 10
879.5233577224
 20
262.3741787832
 30
0.0
  0
SPLINE
  5
79E
100
AcDbEntity
  8
0
100
AcDbSpline
 62
7
  6
CONTINUOUS
 70
0
 71
3
 72
9
 73
5
 74
0
 42
0.0000001
 43
0.0000001
 44
0.0000000001
 40
0.0
 40
0.0
 40
0.0
 40
0.0
 40
0.4999097479
 40
1.0
 40
1.0
 40
1.0
 40
1.0
 10
848.590780833
 20
214.4249328143
 30
0.0
 10
848.7580306209
 20
213.8007481084
 30
0.0
 10
848.9699685986
 20
212.5164713455
 30
0.0
 10
848.9527650247
 20
211.2183033275
 30
0.0
 10
848.90081654
 20
210.5739571461
 30
0.0
  0
SPLINE
  5
79F
100
AcDbEntity
  8
0
100
AcDbSpline
 62
7
  6
CONTINUOUS
 70
0
 71
3
 72
15
 73
11
 74
0
 42
0.0000001
 43
0.0000001
 44
0.0000000001
 40
0.0
 40
0.0
 40
0.0
 40
0.0
 40
0.2500415702
 40
0.3751416148
 40
0.5002258421
 40
0.6252778246
 40
0.7502487062
 40
0.8750031602
 40
0.9375084728
 40
1.0
 40
1.0
 40
1.0
 40
1.0
 10
858.6927904718
 20
230.9706906583
 30
0.0
 10
857.2965951444
 20
230.2422291059
 30
0.0
 10
855.2749813142
 20
228.9952109523
 30
0.0
 10
852.8185801036
 20
227.0173064375
 30
0.0
 10
851.1240220884
 20
225.3638826046
 30
0.0
 10
849.6292409274
 20
223.5255496186
 30
0.0
 10
848.4243845925
 20
221.4839828899
 30
0.0
 10
847.8095653033
 20
219.5848305758
 30
0.0
 10
847.7220908841
 20
218.0054261764
 30
0.0
 10
847.8418664504
 20
217.2199193406
 30
0.0
 10
847.9437332202
 20
216.8397473801
 30
0.0
  0
SPLINE
  5
7A0
100
AcDbEntity
  8
0
100
AcDbSpline
 62
7
  6
CONTINUOUS
 70
0
 71
3
 72
15
 73
11
 74
0
 42
0.0000001
 43
0.0000001
 44
0.0000000001
 40
0.0
 40
0.0
 40
0.0
 40
0.0
 40
0.0624946376
 40
0.1250023376
 40
0.2497593649
 40
0.3747328447
 40
0.4997829526
 40
0.6248643907
 40
0.7499620208
 40
1.0
 40
1.0
 40
1.0
 40
1.0
 10
889.3629209866
 20
227.9379852932
 30
0.0
 10
889.2610491524
 20
228.3181761542
 30
0.0
 10
888.9720062766
 20
229.0583640308
 30
0.0
 10
888.1065020832
 20
230.3824618433
 30
0.0
 10
886.6244209566
 20
231.7197757709
 30
0.0
 10
884.5601690922
 20
232.8853806594
 30
0.0
 10
882.3464880464
 20
233.7300060167
 30
0.0
 10
880.0522843563
 20
234.3146015926
 30
0.0
 10
876.9360817266
 20
234.7993092179
 30
0.0
 10
874.5618414123
 20
234.86844301
 30
0.0
 10
872.9884927009
 20
234.8012125258
 30
0.0
  0
SPLINE
  5
7A1
100
AcDbEntity
  8
0
100
AcDbSpline
 62
7
  6
CONTINUOUS
 70
0
 71
3
 72
9
 73
5
 74
0
 42
0.0000001
 43
0.0000001
 44
0.0000000001
 40
0.0
 40
0.0
 40
0.0
 40
0.0
 40
0.5000902521
 40
1.0
 40
1.0
 40
1.0
 40
1.0
 10
891.6669576351
 20
222.0331101159
 30
0.0
 10
891.299795837
 20
222.5651560355
 30
0.0
 10
890.6358130959
 20
223.6808007305
 30
0.0
 10
890.1772183872
 20
224.8989860215
 30
0.0
 10
890.0099685993
 20
225.5231707275
 30
0.0
  0
SPLINE
  5
7A2
100
AcDbEntity
  8
0
100
AcDbSpline
 62
7
  6
CONTINUOUS
 70
0
 71
3
 72
9
 73
5
 74
0
 42
0.0000001
 43
0.0000001
 44
0.0000000001
 40
0.0
 40
0.0
 40
0.0
 40
0.0
 40
0.5092886403
 40
1.0
 40
1.0
 40
1.0
 40
1.0
 10
839.2469482242
 20
251.5821473841
 30
0.0
 10
840.4594641802
 20
251.9070400553
 30
0.0
 10
842.8185423168
 20
252.6227318322
 30
0.0
 10
845.1693737036
 20
253.3663024828
 30
0.0
 10
846.337660813
 20
253.6793440703
 30
0.0
  0
SPLINE
  5
7A3
100
AcDbEntity
  8
0
100
AcDbSpline
 62
7
  6
CONTINUOUS
 70
0
 71
3
 72
9
 73
5
 74
0
 42
0.0000001
 43
0.0000001
 44
0.0000000001
 40
0.0
 40
0.0
 40
0.0
 40
0.0
 40
0.4901185419
 40
1.0
 40
1.0
 40
1.0
 40
1.0
 10
831.3640600161
 20
249.6212440123
 30
0.0
 10
831.9771221074
 20
249.7522737646
 30
0.0
 10
833.2307698534
 20
250.0061800436
 30
0.0
 10
834.4753862284
 20
250.3036112007
 30
0.0
 10
835.105350375
 20
250.472409585
 30
0.0
  0
SPLINE
  5
7A4
100
AcDbEntity
  8
0
100
AcDbSpline
 62
7
  6
CONTINUOUS
 70
0
 71
3
 72
9
 73
5
 74
0
 42
0.0000001
 43
0.0000001
 44
0.0000000001
 40
0.0
 40
0.0
 40
0.0
 40
0.0
 40
0.5098814585
 40
1.0
 40
1.0
 40
1.0
 40
1.0
 10
883.664956177
 20
263.4839167445
 30
0.0
 10
884.2949202394
 20
263.6527151174
 30
0.0
 10
885.5215050525
 20
264.0174403353
 30
0.0
 10
886.73414883
 20
264.4243748671
 30
0.0
 10
887.3305909737
 20
264.6174307924
 30
0.0
  0
SPLINE
  5
7A5
100
AcDbEntity
  8
0
100
AcDbSpline
 62
7
  6
CONTINUOUS
 70
0
 71
3
 72
15
 73
11
 74
0
 42
0.0000001
 43
0.0000001
 44
0.0000000001
 40
0.0
 40
0.0
 40
0.0
 40
0.0
 40
0.0570233419
 40
0.1293586796
 40
0.2242107455
 40
0.3430879243
 40
0.4844660151
 40
0.6447708672
 40
0.8187803679
 40
1.0
 40
1.0
 40
1.0
 40
1.0
 10
899.8728201776
 20
248.8331542878
 30
0.0
 10
899.8402748676
 20
248.9546150385
 30
0.0
 10
899.6690556068
 20
249.2041702986
 30
0.0
 10
899.2272171581
 20
249.44518136
 30
0.0
 10
898.6144111625
 20
249.6075806218
 30
0.0
 10
897.8328517762
 20
249.6860302323
 30
0.0
 10
896.9042165446
 20
249.6773587866
 30
0.0
 10
895.8588472644
 20
249.5781616197
 30
0.0
 10
894.7368462704
 20
249.3901708066
 30
0.0
 10
893.9736343286
 20
249.2110001586
 30
0.0
 10
893.5876332312
 20
249.1075714763
 30
0.0
  0
SPLINE
  5
7A6
100
AcDbEntity
  8
0
100
AcDbSpline
 62
7
  6
CONTINUOUS
 70
0
 71
3
 72
15
 73
11
 74
0
 42
0.0000001
 43
0.0000001
 44
0.0000000001
 40
0.0
 40
0.0
 40
0.0
 40
0.0
 40
0.1812196321
 40
0.3552291328
 40
0.5155339849
 40
0.6569120757
 40
0.7757892545
 40
0.8706413204
 40
0.9429766581
 40
1.0
 40
1.0
 40
1.0
 40
1.0
 10
895.6206086997
 20
241.5204037371
 30
0.0
 10
896.0066097971
 20
241.6238324195
 30
0.0
 10
896.7698217389
 20
241.8030030675
 30
0.0
 10
897.8918227329
 20
241.9909938806
 30
0.0
 10
898.9371920131
 20
242.0901910475
 30
0.0
 10
899.8658272447
 20
242.0988624932
 30
0.0
 10
900.647386631
 20
242.0204128827
 30
0.0
 10
901.2601926267
 20
241.8580136209
 30
0.0
 10
901.7020310753
 20
241.6170025594
 30
0.0
 10
901.8732503361
 20
241.3674472994
 30
0.0
 10
901.9057956462
 20
241.2459865487
 30
0.0
  0
SPLINE
  5
7A7
100
AcDbEntity
  8
0
100
AcDbSpline
 62
7
  6
CONTINUOUS
 70
0
 71
3
 72
15
 73
11
 74
0
 42
0.0000001
 43
0.0000001
 44
0.0000000001
 40
0.0
 40
0.0
 40
0.0
 40
0.0
 40
0.0570233419
 40
0.1293586796
 40
0.2242107455
 40
0.3430879243
 40
0.4844660151
 40
0.6447708672
 40
0.8187803679
 40
1.0
 40
1.0
 40
1.0
 40
1.0
 10
830.4272845008
 20
222.0933772111
 30
0.0
 10
830.3947391907
 20
222.2148379618
 30
0.0
 10
830.4182417902
 20
222.516568787
 30
0.0
 10
830.6803795804
 20
222.9462097132
 30
0.0
 10
831.1298855093
 20
223.3932545973
 30
0.0
 10
831.7675109871
 20
223.8519736461
 30
0.0
 10
832.5760684114
 20
224.3087815696
 30
0.0
 10
833.5309833478
 20
224.7455589432
 30
0.0
 10
834.5966601182
 20
225.1437546203
 30
0.0
 10
835.3472063723
 20
225.3701942584
 30
0.0
 10
835.7332074698
 20
225.4736229408
 30
0.0
  0
SPLINE
  5
7A8
100
AcDbEntity
  8
0
100
AcDbSpline
 62
7
  6
CONTINUOUS
 70
0
 71
3
 72
15
 73
11
 74
0
 42
0.0000001
 43
0.0000001
 44
0.0000000001
 40
0.0
 40
0.0
 40
0.0
 40
0.0
 40
0.0570233419
 40
0.1293586796
 40
0.2242107455
 40
0.3430879243
 40
0.4844660151
 40
0.6447708672
 40
0.8187803679
 40
1.0
 40
1.0
 40
1.0
 40
1.0
 10
828.3943090323
 20
229.6805449502
 30
0.0
 10
828.3617637222
 20
229.8020057009
 30
0.0
 10
828.3852663216
 20
230.1037365262
 30
0.0
 10
828.6474041118
 20
230.5333774523
 30
0.0
 10
829.0969100408
 20
230.9804223364
 30
0.0
 10
829.7345355186
 20
231.4391413852
 30
0.0
 10
830.5430929428
 20
231.8959493087
 30
0.0
 10
831.4980078793
 20
232.3327266823
 30
0.0
 10
832.5636846497
 20
232.7309223594
 30
0.0
 10
833.3142309038
 20
232.9573619976
 30
0.0
 10
833.7002320012
 20
233.0607906799
 30
0.0
  0
SPLINE
  5
7A9
100
AcDbEntity
  8
KONSTRUKTIONSELEMENTE
100
AcDbSpline
 62
7
  6
CONTINUOUS
 70
0
 71
3
 72
11
 73
7
 74
0
 42
0.0000001
 43
0.0000001
 44
0.0000000001
 40
0.0
 40
0.0
 40
0.0
 40
0.0
 40
0.2193102634
 40
0.4447591571
 40
0.7096345186
 40
1.0
 40
1.0
 40
1.0
 40
1.0
 10
450.851236494
 20
234.3517308156
 30
0.0
 10
450.5852947112
 20
234.5175436461
 30
0.0
 10
450.0291306932
 20
234.8289081723
 30
0.0
 10
449.0568953374
 20
235.1532151221
 30
0.0
 10
447.908693822
 20
235.1226186635
 30
0.0
 10
447.1789505368
 20
234.7143450329
 30
0.0
 10
446.8807656754
 20
234.4257975337
 30
0.0
  0
SPLINE
  5
7AA
100
AcDbEntity
  8
KONSTRUKTIONSELEMENTE
100
AcDbSpline
 62
7
  6
CONTINUOUS
 70
0
 71
3
 72
25
 73
21
 74
0
 42
0.0000001
 43
0.0000001
 44
0.0000000001
 40
0.0
 40
0.0
 40
0.0
 40
0.0
 40
0.0139556627
 40
0.0215641577
 40
0.0229744644
 40
0.0230439997
 40
0.0271929754
 40
0.0360330942
 40
0.0489380107
 40
0.0654456056
 40
0.085103462
 40
0.1324479604
 40
0.1889354145
 40
0.2529517006
 40
0.323314794
 40
0.3989389876
 40
0.4788786837
 40
0.6480928262
 40
0.8241941934
 40
1.0
 40
1.0
 40
1.0
 40
1.0
 10
450.601295125
 20
232.8648482142
 30
0.0
 10
450.5967599263
 20
232.8903180687
 30
0.0
 10
450.5837164651
 20
232.9388431595
 30
0.0
 10
450.582684539
 20
232.9589728334
 30
0.0
 10
450.569598608
 20
232.9910592552
 30
0.0
 10
450.576034372
 20
232.9822130737
 30
0.0
 10
450.581083374
 20
232.9584210196
 30
0.0
 10
450.6039818639
 20
232.9157155365
 30
0.0
 10
450.634340457
 20
232.8518426296
 30
0.0
 10
450.6777957585
 20
232.7718029467
 30
0.0
 10
450.7540005629
 20
232.6370912726
 30
0.0
 10
450.8745024229
 20
232.4423223441
 30
0.0
 10
451.0470255598
 20
232.1833445843
 30
0.0
 10
451.252318659
 20
231.8951010486
 30
0.0
 10
451.4862049473
 20
231.5838520908
 30
0.0
 10
451.7455642154
 20
231.2549620977
 30
0.0
 10
452.1280857066
 20
230.7899932664
 30
0.0
 10
452.6466334547
 20
230.1959646669
 30
0.0
 10
453.3066290478
 20
229.4903153512
 30
0.0
 10
453.7678869005
 20
229.0287954551
 30
0.0
 10
454.002293488
 20
228.8023760784
 30
0.0
  0
SPLINE
  5
7AB
100
AcDbEntity
  8
KONSTRUKTIONSELEMENTE
100
AcDbSpline
 62
7
  6
CONTINUOUS
 70
0
 71
3
 72
17
 73
13
 74
0
 42
0.0000001
 43
0.0000001
 44
0.0000000001
 40
0.0
 40
0.0
 40
0.0
 40
0.0
 40
0.0672998635
 40
0.1329602329
 40
0.1944855734
 40
0.2504309869
 40
0.3502866628
 40
0.4545528348
 40
0.5743822025
 40
0.7091855667
 40
0.853565524
 40
1.0
 40
1.0
 40
1.0
 40
1.0
 10
446.8807656754
 20
234.4257975337
 30
0.0
 10
446.7087202787
 20
234.2593126601
 30
0.0
 10
446.4153859358
 20
233.8779890662
 30
0.0
 10
446.1652762778
 20
233.2233024312
 30
0.0
 10
446.1008855772
 20
232.5683726566
 30
0.0
 10
446.195020652
 20
231.7959687897
 30
0.0
 10
446.5351615363
 20
230.924615109
 30
0.0
 10
447.1205154263
 20
229.9306214172
 30
0.0
 10
447.864512895
 20
228.8913088141
 30
0.0
 10
448.7607972852
 20
227.7898861092
 30
0.0
 10
449.7743296843
 20
226.6643306306
 30
0.0
 10
450.5012604073
 20
225.927637129
 30
0.0
 10
450.8759338302
 20
225.5657303934
 30
0.0
  0
SPLINE
  5
7AC
100
AcDbEntity
  8
KONSTRUKTIONSELEMENTE
100
AcDbSpline
 62
7
  6
CONTINUOUS
 70
0
 71
3
 72
13
 73
9
 74
0
 42
0.0000001
 43
0.0000001
 44
0.0000000001
 40
0.0
 40
0.0
 40
0.0
 40
0.0
 40
0.147827563
 40
0.2910391013
 40
0.5396303344
 40
0.6488307226
 40
0.7583173339
 40
1.0
 40
1.0
 40
1.0
 40
1.0
 10
468.6040633605
 20
212.6735374283
 30
0.0
 10
468.7947711384
 20
212.8580815132
 30
0.0
 10
469.1127526761
 20
213.2865183907
 30
0.0
 10
469.4227362427
 20
214.2193516105
 30
0.0
 10
469.3367221359
 20
215.1521192471
 30
0.0
 10
469.0379492921
 20
215.9361230835
 30
0.0
 10
468.6694461777
 20
216.6773127913
 30
0.0
 10
468.3250843116
 20
217.2075113646
 30
0.0
 10
468.0761713123
 20
217.5628742901
 30
0.0
  0
SPLINE
  5
7AD
100
AcDbEntity
  8
KONSTRUKTIONSELEMENTE
100
AcDbSpline
 62
7
  6
CONTINUOUS
 70
0
 71
3
 72
19
 73
15
 74
0
 42
0.0000001
 43
0.0000001
 44
0.0000000001
 40
0.0
 40
0.0
 40
0.0
 40
0.0
 40
0.186931947
 40
0.3655432537
 40
0.5317545855
 40
0.6818380102
 40
0.7494939838
 40
0.8113676119
 40
0.866702645
 40
0.9144809375
 40
0.9535989404
 40
0.9694074678
 40
0.9823674488
 40
1.0
 40
1.0
 40
1.0
 40
1.0
 10
464.6088952058
 20
218.55718555
 30
0.0
 10
464.7632399478
 20
218.4080999775
 30
0.0
 10
465.068487168
 20
218.1200879316
 30
0.0
 10
465.52280596
 20
217.7122771758
 30
0.0
 10
465.9559879499
 20
217.3445847825
 30
0.0
 10
466.3009368737
 20
217.0699921248
 30
0.0
 10
466.5577389849
 20
216.8775060547
 30
0.0
 10
466.7304091382
 20
216.7537878583
 30
0.0
 10
466.88647932
 20
216.6474734388
 30
0.0
 10
467.0255202215
 20
216.5585722607
 30
0.0
 10
467.1228121588
 20
216.4997605813
 30
0.0
 10
467.1972531444
 20
216.4593843826
 30
0.0
 10
467.2282264284
 20
216.440756891
 30
0.0
 10
467.3099119642
 20
216.4054448377
 30
0.0
 10
467.2908176102
 20
216.4121620119
 30
0.0
  0
SPLINE
  5
7AE
100
AcDbEntity
  8
KONSTRUKTIONSELEMENTE
100
AcDbSpline
 62
7
  6
CONTINUOUS
 70
0
 71
3
 72
9
 73
5
 74
0
 42
0.0000001
 43
0.0000001
 44
0.0000000001
 40
0.0
 40
0.0
 40
0.0
 40
0.0
 40
0.5263197575
 40
1.0
 40
1.0
 40
1.0
 40
1.0
 10
461.482535548
 20
215.320539865
 30
0.0
 10
461.8716230529
 20
214.9447101954
 30
0.0
 10
462.6287186395
 20
214.2488636981
 30
0.0
 10
463.4262665166
 20
213.59887332
 30
0.0
 10
463.8169989585
 20
213.3084312337
 30
0.0
  0
SPLINE
  5
7AF
100
AcDbEntity
  8
KONSTRUKTIONSELEMENTE
100
AcDbSpline
 62
7
  6
CONTINUOUS
 70
0
 71
3
 72
14
 73
10
 74
0
 42
0.0000001
 43
0.0000001
 44
0.0000000001
 40
0.0
 40
0.0
 40
0.0
 40
0.0
 40
0.238355881
 40
0.3472682142
 40
0.4568467248
 40
0.5760006498
 40
0.7088709196
 40
0.852214807
 40
1.0
 40
1.0
 40
1.0
 40
1.0
 10
463.8479126917
 20
213.285510901
 30
0.0
 10
464.1835985145
 20
213.0372641574
 30
0.0
 10
464.6871354218
 20
212.692555722
 30
0.0
 10
465.3959709382
 20
212.319336203
 30
0.0
 10
465.946975621
 20
212.0997650103
 30
0.0
 10
466.5701486846
 20
211.9660141774
 30
0.0
 10
467.2703656064
 20
211.9761365753
 30
0.0
 10
467.9911045022
 20
212.1961350991
 30
0.0
 10
468.4180389499
 20
212.4935253438
 30
0.0
 10
468.6040633605
 20
212.6735374283
 30
0.0
  0
SPLINE
  5
7B0
100
AcDbEntity
  8
KONSTRUKTIONSELEMENTE
100
AcDbSpline
 62
7
  6
CONTINUOUS
 70
0
 71
3
 72
13
 73
9
 74
0
 42
0.0000001
 43
0.0000001
 44
0.0000000001
 40
0.0
 40
0.0
 40
0.0
 40
0.0
 40
0.2266749134
 40
0.4472161745
 40
0.5713587125
 40
0.7075537383
 40
0.8520150675
 40
1.0
 40
1.0
 40
1.0
 40
1.0
 10
420.0874894503
 20
264.176701731
 30
0.0
 10
419.7925953663
 20
264.3771330399
 30
0.0
 10
419.1942035707
 20
264.748983117
 30
0.0
 10
418.352265223
 20
265.0910911764
 30
0.0
 10
417.5982797214
 20
265.1966225369
 30
0.0
 10
416.9573354866
 20
265.1428496184
 30
0.0
 10
416.314670211
 20
264.9136438501
 30
0.0
 10
415.9353492086
 20
264.6402317558
 30
0.0
 10
415.7680673032
 20
264.478356417
 30
0.0
  0
SPLINE
  5
7B1
100
AcDbEntity
  8
KONSTRUKTIONSELEMENTE
100
AcDbSpline
 62
7
  6
CONTINUOUS
 70
0
 71
3
 72
25
 73
21
 74
0
 42
0.0000001
 43
0.0000001
 44
0.0000000001
 40
0.0
 40
0.0
 40
0.0
 40
0.0
 40
0.0139556627
 40
0.0215641577
 40
0.0229744644
 40
0.0230439997
 40
0.0271929754
 40
0.0360330942
 40
0.0489380107
 40
0.0654456056
 40
0.085103462
 40
0.1324479604
 40
0.1889354145
 40
0.2529517006
 40
0.323314794
 40
0.3989389876
 40
0.4788786837
 40
0.6480928262
 40
0.8241941934
 40
1.0
 40
1.0
 40
1.0
 40
1.0
 10
419.4885967528
 20
262.9174070975
 30
0.0
 10
419.4840615541
 20
262.9428769519
 30
0.0
 10
419.4710180929
 20
262.9914020427
 30
0.0
 10
419.4699861667
 20
263.0115317167
 30
0.0
 10
419.4569002358
 20
263.0436181385
 30
0.0
 10
419.4633359998
 20
263.0347719569
 30
0.0
 10
419.4683850018
 20
263.0109799028
 30
0.0
 10
419.4912834916
 20
262.9682744198
 30
0.0
 10
419.5216420848
 20
262.9044015129
 30
0.0
 10
419.5650973863
 20
262.82436183
 30
0.0
 10
419.6413021907
 20
262.6896501558
 30
0.0
 10
419.7618040507
 20
262.4948812273
 30
0.0
 10
419.9343271876
 20
262.2359034676
 30
0.0
 10
420.1396202868
 20
261.9476599319
 30
0.0
 10
420.3735065751
 20
261.636410974
 30
0.0
 10
420.6328658432
 20
261.307520981
 30
0.0
 10
421.0153873344
 20
260.8425521496
 30
0.0
 10
421.5339350825
 20
260.2485235502
 30
0.0
 10
422.1939306756
 20
259.5428742345
 30
0.0
 10
422.6551885283
 20
259.0813543383
 30
0.0
 10
422.8895951157
 20
258.8549349617
 30
0.0
  0
SPLINE
  5
7B2
100
AcDbEntity
  8
KONSTRUKTIONSELEMENTE
100
AcDbSpline
 62
7
  6
CONTINUOUS
 70
0
 71
3
 72
17
 73
13
 74
0
 42
0.0000001
 43
0.0000001
 44
0.0000000001
 40
0.0
 40
0.0
 40
0.0
 40
0.0
 40
0.0672998635
 40
0.1329602329
 40
0.1944855734
 40
0.2504309869
 40
0.3502866628
 40
0.4545528348
 40
0.5743822025
 40
0.7091855667
 40
0.853565524
 40
1.0
 40
1.0
 40
1.0
 40
1.0
 10
415.7680673032
 20
264.478356417
 30
0.0
 10
415.5960219064
 20
264.3118715433
 30
0.0
 10
415.3026875636
 20
263.9305479495
 30
0.0
 10
415.0525779056
 20
263.2758613145
 30
0.0
 10
414.9881872049
 20
262.6209315399
 30
0.0
 10
415.0823222798
 20
261.848527673
 30
0.0
 10
415.4224631641
 20
260.9771739923
 30
0.0
 10
416.0078170541
 20
259.9831803005
 30
0.0
 10
416.7518145228
 20
258.9438676973
 30
0.0
 10
417.648098913
 20
257.8424449925
 30
0.0
 10
418.6616313121
 20
256.7168895139
 30
0.0
 10
419.3885620351
 20
255.9801960122
 30
0.0
 10
419.763235458
 20
255.6182892766
 30
0.0
  0
SPLINE
  5
7B3
100
AcDbEntity
  8
KONSTRUKTIONSELEMENTE
100
AcDbSpline
 62
7
  6
CONTINUOUS
 70
0
 71
3
 72
13
 73
9
 74
0
 42
0.0000001
 43
0.0000001
 44
0.0000000001
 40
0.0
 40
0.0
 40
0.0
 40
0.0
 40
0.1478830584
 40
0.2925777243
 40
0.4291426403
 40
0.5544682928
 40
0.7758011155
 40
1.0
 40
1.0
 40
1.0
 40
1.0
 10
437.4913649883
 20
242.7260963116
 30
0.0
 10
437.6545934023
 20
242.8840491682
 30
0.0
 10
437.9357197002
 20
243.2435303031
 30
0.0
 10
438.1868450117
 20
243.8612929157
 30
0.0
 10
438.2697668054
 20
244.4862946421
 30
0.0
 10
438.2055972864
 20
245.2305662686
 30
0.0
 10
437.912322917
 20
246.067701107
 30
0.0
 10
437.577766078
 20
246.665866327
 30
0.0
 10
437.3969903597
 20
246.9589564639
 30
0.0
  0
SPLINE
  5
7B4
100
AcDbEntity
  8
KONSTRUKTIONSELEMENTE
100
AcDbSpline
 62
7
  6
CONTINUOUS
 70
0
 71
3
 72
19
 73
15
 74
0
 42
0.0000001
 43
0.0000001
 44
0.0000000001
 40
0.0
 40
0.0
 40
0.0
 40
0.0
 40
0.186931947
 40
0.3655432537
 40
0.5317545855
 40
0.6818380102
 40
0.7494939838
 40
0.8113676119
 40
0.866702645
 40
0.9144809375
 40
0.9535989404
 40
0.9694074678
 40
0.9823674488
 40
1.0
 40
1.0
 40
1.0
 40
1.0
 10
433.4961968335
 20
248.6097444333
 30
0.0
 10
433.6505415756
 20
248.4606588608
 30
0.0
 10
433.9557887958
 20
248.1726468149
 30
0.0
 10
434.4101075878
 20
247.764836059
 30
0.0
 10
434.8432895777
 20
247.3971436657
 30
0.0
 10
435.1882385015
 20
247.122551008
 30
0.0
 10
435.4450406127
 20
246.930064938
 30
0.0
 10
435.617710766
 20
246.8063467415
 30
0.0
 10
435.7737809478
 20
246.700032322
 30
0.0
 10
435.9128218493
 20
246.6111311439
 30
0.0
 10
436.0101137865
 20
246.5523194645
 30
0.0
 10
436.0845547722
 20
246.5119432659
 30
0.0
 10
436.1155280562
 20
246.4933157743
 30
0.0
 10
436.197213592
 20
246.4580037209
 30
0.0
 10
436.178119238
 20
246.4647208952
 30
0.0
  0
SPLINE
  5
7B5
100
AcDbEntity
  8
KONSTRUKTIONSELEMENTE
100
AcDbSpline
 62
7
  6
CONTINUOUS
 70
0
 71
3
 72
14
 73
10
 74
0
 42
0.0000001
 43
0.0000001
 44
0.0000000001
 40
0.0
 40
0.0
 40
0.0
 40
0.0
 40
0.2853075585
 40
0.4098818106
 40
0.5208692916
 40
0.6238507303
 40
0.7336576496
 40
0.8616333138
 40
1.0
 40
1.0
 40
1.0
 40
1.0
 10
430.3698371758
 20
245.3730987482
 30
0.0
 10
430.9419963057
 20
244.8204354679
 30
0.0
 10
431.7923543616
 20
244.0538027441
 30
0.0
 10
432.9460636258
 20
243.1704599789
 30
0.0
 10
433.7357819703
 20
242.6514108934
 30
0.0
 10
434.5422022683
 20
242.2393803372
 30
0.0
 10
435.4691081692
 20
241.9845423436
 30
0.0
 10
436.5433321692
 20
242.0657763929
 30
0.0
 10
437.214125928
 20
242.4578176433
 30
0.0
 10
437.4913649883
 20
242.7260963116
 30
0.0
  0
SPLINE
  5
7B6
100
AcDbEntity
  8
KONSTRUKTIONSELEMENTE
100
AcDbSpline
 62
7
  6
CONTINUOUS
 70
0
 71
3
 72
9
 73
5
 74
0
 42
0.0000001
 43
0.0000001
 44
0.0000000001
 40
0.0
 40
0.0
 40
0.0
 40
0.0
 40
0.4992056363
 40
1.0
 40
1.0
 40
1.0
 40
1.0
 10
455.4893250935
 20
233.451569195
 30
0.0
 10
455.4890459303
 20
232.6343667219
 30
0.0
 10
455.2212454011
 20
230.9865694605
 30
0.0
 10
454.4433745719
 20
229.5103827743
 30
0.0
 10
453.9524837198
 20
228.8537979864
 30
0.0
  0
SPLINE
  5
7B7
100
AcDbEntity
  8
KONSTRUKTIONSELEMENTE
100
AcDbSpline
 62
7
  6
CONTINUOUS
 70
0
 71
3
 72
11
 73
7
 74
0
 42
0.0000001
 43
0.0000001
 44
0.0000000001
 40
0.0
 40
0.0
 40
0.0
 40
0.0
 40
0.2503834639
 40
0.5009562809
 40
0.7509829001
 40
1.0
 40
1.0
 40
1.0
 40
1.0
 10
450.2868347566
 20
226.1419107965
 30
0.0
 10
449.5776747863
 20
225.8838299072
 30
0.0
 10
448.0784691051
 20
225.5643106168
 30
0.0
 10
445.7921527603
 20
225.7193943499
 30
0.0
 10
443.6386492746
 20
226.4914862037
 30
0.0
 10
442.4001538753
 20
227.3862685873
 30
0.0
 10
441.8603223701
 20
227.9077057801
 30
0.0
  0
SPLINE
  5
7B8
100
AcDbEntity
  8
KONSTRUKTIONSELEMENTE
100
AcDbSpline
 62
7
  6
CONTINUOUS
 70
0
 71
3
 72
11
 73
7
 74
0
 42
0.0000001
 43
0.0000001
 44
0.0000000001
 40
0.0
 40
0.0
 40
0.0
 40
0.0
 40
0.2497701922
 40
0.5003846994
 40
0.7507632035
 40
1.0
 40
1.0
 40
1.0
 40
1.0
 10
432.1036731479
 20
249.9573016773
 30
0.0
 10
432.8624977796
 20
250.5085444146
 30
0.0
 10
434.5935634071
 20
251.3494279576
 30
0.0
 10
437.4519845697
 20
251.6472877598
 30
0.0
 10
440.2417759119
 20
250.9644495026
 30
0.0
 10
441.8386497048
 20
249.8944093315
 30
0.0
 10
442.5118082937
 20
249.2441880653
 30
0.0
  0
SPLINE
  5
7B9
100
AcDbEntity
  8
KONSTRUKTIONSELEMENTE
100
AcDbSpline
 62
7
  6
CONTINUOUS
 70
0
 71
3
 72
9
 73
5
 74
0
 42
0.0000001
 43
0.0000001
 44
0.0000000001
 40
0.0
 40
0.0
 40
0.0
 40
0.0
 40
0.5052259423
 40
1.0
 40
1.0
 40
1.0
 40
1.0
 10
434.38008031
 20
241.3895419935
 30
0.0
 10
434.1777800252
 20
241.5849490633
 30
0.0
 10
433.82416546
 20
242.0235848295
 30
0.0
 10
433.5931734521
 20
242.5378406731
 30
0.0
 10
433.514271353
 20
242.8017430947
 30
0.0
  0
SPLINE
  5
7BA
100
AcDbEntity
  8
KONSTRUKTIONSELEMENTE
100
AcDbSpline
 62
7
  6
CONTINUOUS
 70
0
 71
3
 72
11
 73
7
 74
0
 42
0.0000001
 43
0.0000001
 44
0.0000000001
 40
0.0
 40
0.0
 40
0.0
 40
0.0
 40
0.2519918144
 40
0.5048009909
 40
0.755086504
 40
1.0
 40
1.0
 40
1.0
 40
1.0
 10
435.6516542614
 20
246.7911608327
 30
0.0
 10
435.9685066374
 20
246.9035892545
 30
0.0
 10
436.6380463753
 20
247.0411830177
 30
0.0
 10
437.6551230829
 20
246.9684448137
 30
0.0
 10
438.6058612624
 20
246.6266939737
 30
0.0
 10
439.1504223106
 20
246.2345603777
 30
0.0
 10
439.3854486359
 20
246.0075423802
 30
0.0
  0
SPLINE
  5
7BB
100
AcDbEntity
  8
KONSTRUKTIONSELEMENTE
100
AcDbSpline
 62
7
  6
CONTINUOUS
 70
0
 71
3
 72
9
 73
5
 74
0
 42
0.0000001
 43
0.0000001
 44
0.0000000001
 40
0.0
 40
0.0
 40
0.0
 40
0.0
 40
0.5069780116
 40
1.0
 40
1.0
 40
1.0
 40
1.0
 10
449.9920503537
 20
235.7623518518
 30
0.0
 10
450.3041472627
 20
235.4608893871
 30
0.0
 10
450.8110308931
 20
234.7394027131
 30
0.0
 10
450.9893793727
 20
233.8746365518
 30
0.0
 10
450.9892714929
 20
233.4526642233
 30
0.0
  0
SPLINE
  5
7BC
100
AcDbEntity
  8
KONSTRUKTIONSELEMENTE
100
AcDbSpline
 62
7
  6
CONTINUOUS
 70
0
 71
3
 72
9
 73
5
 74
0
 42
0.0000001
 43
0.0000001
 44
0.0000000001
 40
0.0
 40
0.0
 40
0.0
 40
0.0
 40
0.5012207597
 40
1.0
 40
1.0
 40
1.0
 40
1.0
 10
431.2537206523
 20
238.1528963085
 30
0.0
 10
430.513867845
 20
238.8675392427
 30
0.0
 10
429.3060140137
 20
240.602828316
 30
0.0
 10
428.8824558906
 20
242.6766970824
 30
0.0
 10
428.8828055703
 20
243.7003246503
 30
0.0
  0
SPLINE
  5
7BD
100
AcDbEntity
  8
KONSTRUKTIONSELEMENTE
100
AcDbSpline
 62
7
  6
CONTINUOUS
 70
0
 71
3
 72
9
 73
5
 74
0
 42
0.0000001
 43
0.0000001
 44
0.0000000001
 40
0.0
 40
0.0
 40
0.0
 40
0.0
 40
0.50530061
 40
1.0
 40
1.0
 40
1.0
 40
1.0
 10
446.9801778741
 20
230.1845012788
 30
0.0
 10
446.6184259848
 20
230.2346561175
 30
0.0
 10
445.9131178063
 20
230.4419903531
 30
0.0
 10
445.3020565433
 20
230.8515789533
 30
0.0
 10
445.0395710311
 20
231.0943615159
 30
0.0
  0
SPLINE
  5
7BE
100
AcDbEntity
  8
KONSTRUKTIONSELEMENTE
100
AcDbSpline
 62
7
  6
CONTINUOUS
 70
0
 71
3
 72
9
 73
5
 74
0
 42
0.0000001
 43
0.0000001
 44
0.0000000001
 40
0.0
 40
0.0
 40
0.0
 40
0.0
 40
0.5012063269
 40
1.0
 40
1.0
 40
1.0
 40
1.0
 10
453.1748647329
 20
238.943914525
 30
0.0
 10
453.8982649033
 20
238.2309522027
 30
0.0
 10
455.076976074
 20
236.509681381
 30
0.0
 10
455.4896703909
 20
234.4623683984
 30
0.0
 10
455.4893250935
 20
233.451569195
 30
0.0
  0
SPLINE
  5
7BF
100
AcDbEntity
  8
KONSTRUKTIONSELEMENTE
100
AcDbSpline
 62
7
  6
CONTINUOUS
 70
0
 71
3
 72
9
 73
5
 74
0
 42
0.0000001
 43
0.0000001
 44
0.0000000001
 40
0.0
 40
0.0
 40
0.0
 40
0.0
 40
0.4046530715
 40
1.0
 40
1.0
 40
1.0
 40
1.0
 10
475.9857694726
 20
212.1433553594
 30
0.0
 10
475.9857694726
 20
212.1957732378
 30
0.0
 10
476.0217774922
 20
212.3233962732
 30
0.0
 10
476.0771766877
 20
212.4399848787
 30
0.0
 10
476.1134195664
 20
212.5080579259
 30
0.0
  0
SPLINE
  5
7C0
100
AcDbEntity
  8
KONSTRUKTIONSELEMENTE
100
AcDbSpline
 62
7
  6
CONTINUOUS
 70
0
 71
3
 72
10
 73
6
 74
0
 42
0.0000001
 43
0.0000001
 44
0.0000000001
 40
0.0
 40
0.0
 40
0.0
 40
0.0
 40
0.371444044
 40
0.6586206829
 40
1.0
 40
1.0
 40
1.0
 40
1.0
 10
479.0419547447
 20
215.5384321944
 30
0.0
 10
479.0929646025
 20
215.5678309532
 30
0.0
 10
479.1872581402
 20
215.6170679721
 30
0.0
 10
479.3282508328
 20
215.6734587352
 30
0.0
 10
479.4491834963
 20
215.6866918227
 30
0.0
 10
479.488911067
 20
215.6499549588
 30
0.0
  0
SPLINE
  5
7C1
100
AcDbEntity
  8
KONSTRUKTIONSELEMENTE
100
AcDbSpline
 62
7
  6
CONTINUOUS
 70
0
 71
3
 72
21
 73
17
 74
0
 42
0.0000001
 43
0.0000001
 44
0.0000000001
 40
0.0
 40
0.0
 40
0.0
 40
0.0
 40
0.0294220707
 40
0.0723221796
 40
0.128270212
 40
0.1957493625
 40
0.3569194901
 40
0.5354427485
 40
0.7081562347
 40
0.7852637376
 40
0.8528295098
 40
0.9088459223
 40
0.951807463
 40
0.968259586
 40
0.9814568991
 40
1.0
 40
1.0
 40
1.0
 40
1.0
 10
479.1677499879
 20
215.8999252198
 30
0.0
 10
479.1677499879
 20
215.8497747258
 30
0.0
 10
479.1345997794
 20
215.7281928587
 30
0.0
 10
479.0425408587
 20
215.5303413342
 30
0.0
 10
478.8962796009
 20
215.2866333797
 30
0.0
 10
478.6192282806
 20
214.888363522
 30
0.0
 10
478.1795975307
 20
214.3499608814
 30
0.0
 10
477.5827515791
 20
213.7117456675
 30
0.0
 10
477.0502808995
 20
213.211084715
 30
0.0
 10
476.6339528989
 20
212.8653880488
 30
0.0
 10
476.3599494
 20
212.6602410862
 30
0.0
 10
476.1214306006
 20
212.5058566331
 30
0.0
 10
475.9461950154
 20
212.4151567472
 30
0.0
 10
475.8278625779
 20
212.376212668
 30
0.0
 10
475.7480478215
 20
212.3614481753
 30
0.0
 10
475.6878143746
 20
212.3718665946
 30
0.0
 10
475.6646083936
 20
212.3933256205
 30
0.0
  0
SPLINE
  5
7C2
100
AcDbEntity
  8
KONSTRUKTIONSELEMENTE
100
AcDbSpline
 62
7
  6
CONTINUOUS
 70
0
 71
3
 72
9
 73
5
 74
0
 42
0.0000001
 43
0.0000001
 44
0.0000000001
 40
0.0
 40
0.0
 40
0.0
 40
0.0
 40
0.5061516998
 40
1.0
 40
1.0
 40
1.0
 40
1.0
 10
480.0471786018
 20
208.1595782217
 30
0.0
 10
480.4539414451
 20
207.7666754862
 30
0.0
 10
481.1153715283
 20
206.8247030799
 30
0.0
 10
481.3485456821
 20
205.6959587075
 30
0.0
 10
481.3488744439
 20
205.1441717705
 30
0.0
  0
SPLINE
  5
7C3
100
AcDbEntity
  8
KONSTRUKTIONSELEMENTE
100
AcDbSpline
 62
7
  6
CONTINUOUS
 70
0
 71
3
 72
9
 73
5
 74
0
 42
0.0000001
 43
0.0000001
 44
0.0000000001
 40
0.0
 40
0.0
 40
0.0
 40
0.0
 40
0.4991681509
 40
1.0
 40
1.0
 40
1.0
 40
1.0
 10
486.348893898
 20
205.1403311785
 30
0.0
 10
486.3485606558
 20
204.1712938441
 30
0.0
 10
486.0326968671
 20
202.2173317373
 30
0.0
 10
485.1149749972
 20
200.4647169923
 30
0.0
 10
484.5355134846
 20
199.6839944165
 30
0.0
  0
SPLINE
  5
7C4
100
AcDbEntity
  8
KONSTRUKTIONSELEMENTE
100
AcDbSpline
 62
7
  6
CONTINUOUS
 70
0
 71
3
 72
9
 73
5
 74
0
 42
0.0000001
 43
0.0000001
 44
0.0000000001
 40
0.0
 40
0.0
 40
0.0
 40
0.0
 40
0.500997652
 40
1.0
 40
1.0
 40
1.0
 40
1.0
 10
474.1095022654
 20
196.2094219346
 30
0.0
 10
473.3569140725
 20
196.424610876
 30
0.0
 10
471.9012445237
 20
197.0383320117
 30
0.0
 10
470.6377262482
 20
197.9874530679
 30
0.0
 10
470.0769729871
 20
198.529099125
 30
0.0
  0
SPLINE
  5
7C5
100
AcDbEntity
  8
KONSTRUKTIONSELEMENTE
100
AcDbSpline
 62
7
  6
CONTINUOUS
 70
0
 71
3
 72
9
 73
5
 74
0
 42
0.0000001
 43
0.0000001
 44
0.0000000001
 40
0.0
 40
0.0
 40
0.0
 40
0.0
 40
0.5012747397
 40
1.0
 40
1.0
 40
1.0
 40
1.0
 10
483.5836616929
 20
211.6946681765
 30
0.0
 10
484.4478292707
 20
210.8441490444
 30
0.0
 10
485.8561010289
 20
208.7904107669
 30
0.0
 10
486.3493087455
 20
206.3466693249
 30
0.0
 10
486.348893898
 20
205.1403311785
 30
0.0
  0
SPLINE
  5
7C6
100
AcDbEntity
  8
KONSTRUKTIONSELEMENTE
100
AcDbSpline
 62
7
  6
CONTINUOUS
 70
0
 71
3
 72
9
 73
5
 74
0
 42
0.0000001
 43
0.0000001
 44
0.0000000001
 40
0.0
 40
0.0
 40
0.0
 40
0.0
 40
0.2525204064
 40
1.0
 40
1.0
 40
1.0
 40
1.0
 10
474.6453236216
 20
201.3464671624
 30
0.0
 10
474.5504257601
 20
201.3948121883
 30
0.0
 10
474.181396019
 20
201.599251135
 30
0.0
 10
473.8404855976
 20
201.8546383793
 30
0.0
 10
473.6097159609
 20
202.0694218854
 30
0.0
  0
SPLINE
  5
7C7
100
AcDbEntity
  8
KONSTRUKTIONSELEMENTE
100
AcDbSpline
 62
7
  6
CONTINUOUS
 70
0
 71
3
 72
11
 73
7
 74
0
 42
0.0000001
 43
0.0000001
 44
0.0000000001
 40
0.0
 40
0.0
 40
0.0
 40
0.0
 40
0.2507528382
 40
0.5034086137
 40
0.7541779598
 40
1.0
 40
1.0
 40
1.0
 40
1.0
 10
466.2796934958
 20
217.0907806139
 30
0.0
 10
466.7097715191
 20
217.3034779302
 30
0.0
 10
467.6455930178
 20
217.5977636203
 30
0.0
 10
469.1100420276
 20
217.5990346033
 30
0.0
 10
470.499998251
 20
217.1682575055
 30
0.0
 10
471.2942961335
 20
216.6142134523
 30
0.0
 10
471.6326079057
 20
216.2874293742
 30
0.0
  0
SPLINE
  5
7C8
100
AcDbEntity
  8
KONSTRUKTIONSELEMENTE
100
AcDbSpline
 62
7
  6
CONTINUOUS
 70
0
 71
3
 72
9
 73
5
 74
0
 42
0.0000001
 43
0.0000001
 44
0.0000000001
 40
0.0
 40
0.0
 40
0.0
 40
0.0
 40
0.5012894406
 40
1.0
 40
1.0
 40
1.0
 40
1.0
 10
461.662402291
 20
206.6569502775
 30
0.0
 10
460.7799496174
 20
207.5093341054
 30
0.0
 10
459.3392884045
 20
209.5786351537
 30
0.0
 10
458.8340002003
 20
212.051883252
 30
0.0
 10
458.8344199479
 20
213.2724703041
 30
0.0
  0
SPLINE
  5
7C9
100
AcDbEntity
  8
KONSTRUKTIONSELEMENTE
100
AcDbSpline
 62
7
  6
CONTINUOUS
 70
0
 71
3
 72
11
 73
7
 74
0
 42
0.0000001
 43
0.0000001
 44
0.0000000001
 40
0.0
 40
0.0
 40
0.0
 40
0.0
 40
0.2496929416
 40
0.500340108
 40
0.7507767759
 40
1.0
 40
1.0
 40
1.0
 40
1.0
 10
462.4952626141
 20
220.5995781995
 30
0.0
 10
463.3999632598
 20
221.2903179916
 30
0.0
 10
465.4817325225
 20
222.3546921277
 30
0.0
 10
468.9484553041
 20
222.7667391686
 30
0.0
 10
472.3449089372
 20
221.967227451
 30
0.0
 10
474.2891920519
 20
220.673007494
 30
0.0
 10
475.1063408587
 20
219.8837023576
 30
0.0
  0
SPLINE
  5
7CA
100
AcDbEntity
  8
KONSTRUKTIONSELEMENTE
100
AcDbSpline
 62
7
  6
CONTINUOUS
 70
0
 71
3
 72
9
 73
5
 74
0
 42
0.0000001
 43
0.0000001
 44
0.0000000001
 40
0.0
 40
0.0
 40
0.0
 40
0.0
 40
0.5061516998
 40
1.0
 40
1.0
 40
1.0
 40
1.0
 10
465.136135244
 20
210.2532232609
 30
0.0
 10
464.7293724007
 20
210.6461259964
 30
0.0
 10
464.0679423175
 20
211.5880984027
 30
0.0
 10
463.8347681637
 20
212.7168427751
 30
0.0
 10
463.8344394019
 20
213.2686297121
 30
0.0
  0
SPLINE
  5
7CB
100
AcDbEntity
  8
KONSTRUKTIONSELEMENTE
100
AcDbSpline
 62
7
  6
CONTINUOUS
 70
0
 71
3
 72
21
 73
17
 74
0
 42
0.0000001
 43
0.0000001
 44
0.0000000001
 40
0.0
 40
0.0
 40
0.0
 40
0.0
 40
0.0294220707
 40
0.0723221796
 40
0.128270212
 40
0.1957493625
 40
0.3569194901
 40
0.5354427485
 40
0.7081562347
 40
0.7852637376
 40
0.8528295098
 40
0.9088459223
 40
0.951807463
 40
0.968259586
 40
0.9814568991
 40
1.0
 40
1.0
 40
1.0
 40
1.0
 10
479.5213033785
 20
215.5584188689
 30
0.0
 10
479.5213033785
 20
215.5082683749
 30
0.0
 10
479.48815317
 20
215.3866865078
 30
0.0
 10
479.3960942493
 20
215.1888349833
 30
0.0
 10
479.2498329915
 20
214.9451270287
 30
0.0
 10
478.9727816712
 20
214.5468571711
 30
0.0
 10
478.5331509213
 20
214.0084545305
 30
0.0
 10
477.9363049697
 20
213.3702393166
 30
0.0
 10
477.4038342901
 20
212.8695783641
 30
0.0
 10
476.9875062895
 20
212.5238816979
 30
0.0
 10
476.7135027906
 20
212.3187347352
 30
0.0
 10
476.4749839912
 20
212.1643502821
 30
0.0
 10
476.2997484059
 20
212.0736503963
 30
0.0
 10
476.1814159685
 20
212.034706317
 30
0.0
 10
476.1016012121
 20
212.0199418243
 30
0.0
 10
476.0413677652
 20
212.0303602437
 30
0.0
 10
476.0181617842
 20
212.0518192696
 30
0.0
  0
SPLINE
  5
7CC
100
AcDbEntity
  8
KONSTRUKTIONSELEMENTE
100
AcDbSpline
 62
7
  6
CONTINUOUS
 70
0
 71
3
 72
9
 73
5
 74
0
 42
0.0000001
 43
0.0000001
 44
0.0000000001
 40
0.0
 40
0.0
 40
0.0
 40
0.0
 40
0.4046530715
 40
1.0
 40
1.0
 40
1.0
 40
1.0
 10
414.8210329
 20
271.2239540731
 30
0.0
 10
414.8210329
 20
271.2763719514
 30
0.0
 10
414.8570409196
 20
271.4039949868
 30
0.0
 10
414.9124401151
 20
271.5205835924
 30
0.0
 10
414.9486829938
 20
271.5886566395
 30
0.0
  0
SPLINE
  5
7CD
100
AcDbEntity
  8
KONSTRUKTIONSELEMENTE
100
AcDbSpline
 62
7
  6
CONTINUOUS
 70
0
 71
3
 72
10
 73
6
 74
0
 42
0.0000001
 43
0.0000001
 44
0.0000000001
 40
0.0
 40
0.0
 40
0.0
 40
0.0
 40
0.371444044
 40
0.6586206829
 40
1.0
 40
1.0
 40
1.0
 40
1.0
 10
417.8772181721
 20
274.6190309081
 30
0.0
 10
417.9282280299
 20
274.6484296669
 30
0.0
 10
418.0225215676
 20
274.6976666858
 30
0.0
 10
418.1635142602
 20
274.7540574488
 30
0.0
 10
418.2844469236
 20
274.7672905364
 30
0.0
 10
418.3241744943
 20
274.7305536725
 30
0.0
  0
SPLINE
  5
7CE
100
AcDbEntity
  8
KONSTRUKTIONSELEMENTE
100
AcDbSpline
 62
7
  6
CONTINUOUS
 70
0
 71
3
 72
21
 73
17
 74
0
 42
0.0000001
 43
0.0000001
 44
0.0000000001
 40
0.0
 40
0.0
 40
0.0
 40
0.0
 40
0.0294220707
 40
0.0723221796
 40
0.128270212
 40
0.1957493625
 40
0.3569194901
 40
0.5354427485
 40
0.7081562347
 40
0.7852637376
 40
0.8528295098
 40
0.9088459223
 40
0.951807463
 40
0.968259586
 40
0.9814568991
 40
1.0
 40
1.0
 40
1.0
 40
1.0
 10
418.0030134153
 20
274.9805239335
 30
0.0
 10
418.0030134153
 20
274.9303734395
 30
0.0
 10
417.9698632067
 20
274.8087915724
 30
0.0
 10
417.8778042861
 20
274.6109400479
 30
0.0
 10
417.7315430282
 20
274.3672320934
 30
0.0
 10
417.454491708
 20
273.9689622357
 30
0.0
 10
417.0148609581
 20
273.4305595951
 30
0.0
 10
416.4180150065
 20
272.7923443812
 30
0.0
 10
415.8855443268
 20
272.2916834287
 30
0.0
 10
415.4692163263
 20
271.9459867625
 30
0.0
 10
415.1952128274
 20
271.7408397998
 30
0.0
 10
414.956694028
 20
271.5864553467
 30
0.0
 10
414.7814584427
 20
271.4957554609
 30
0.0
 10
414.6631260053
 20
271.4568113817
 30
0.0
 10
414.5833112489
 20
271.442046889
 30
0.0
 10
414.523077802
 20
271.4524653083
 30
0.0
 10
414.4998718209
 20
271.4739243342
 30
0.0
  0
SPLINE
  5
7CF
100
AcDbEntity
  8
KONSTRUKTIONSELEMENTE
100
AcDbSpline
 62
7
  6
CONTINUOUS
 70
0
 71
3
 72
9
 73
5
 74
0
 42
0.0000001
 43
0.0000001
 44
0.0000000001
 40
0.0
 40
0.0
 40
0.0
 40
0.0
 40
0.5061516998
 40
1.0
 40
1.0
 40
1.0
 40
1.0
 10
418.8824420292
 20
267.2401769354
 30
0.0
 10
419.2892048725
 20
266.8472741998
 30
0.0
 10
419.9506349557
 20
265.9053017935
 30
0.0
 10
420.1838091094
 20
264.7765574212
 30
0.0
 10
420.1841378713
 20
264.2247704841
 30
0.0
  0
SPLINE
  5
7D0
100
AcDbEntity
  8
KONSTRUKTIONSELEMENTE
100
AcDbSpline
 62
7
  6
CONTINUOUS
 70
0
 71
3
 72
9
 73
5
 74
0
 42
0.0000001
 43
0.0000001
 44
0.0000000001
 40
0.0
 40
0.0
 40
0.0
 40
0.0
 40
0.4990961922
 40
1.0
 40
1.0
 40
1.0
 40
1.0
 10
425.1841573253
 20
264.2209298922
 30
0.0
 10
425.1838088273
 20
263.20752998
 30
0.0
 10
424.8378004775
 20
261.1625852478
 30
0.0
 10
423.8357888993
 20
259.3480088331
 30
0.0
 10
423.206081811
 20
258.5493218224
 30
0.0
  0
SPLINE
  5
7D1
100
AcDbEntity
  8
KONSTRUKTIONSELEMENTE
100
AcDbSpline
 62
7
  6
CONTINUOUS
 70
0
 71
3
 72
11
 73
7
 74
0
 42
0.0000001
 43
0.0000001
 44
0.0000000001
 40
0.0
 40
0.0
 40
0.0
 40
0.0
 40
0.250262514
 40
0.5008853759
 40
0.7509951573
 40
1.0
 40
1.0
 40
1.0
 40
1.0
 10
419.6160191543
 20
255.7609458577
 30
0.0
 10
418.7415897476
 20
255.3699878136
 30
0.0
 10
416.8629736109
 20
254.8462438329
 30
0.0
 10
413.9491253059
 20
254.9151252584
 30
0.0
 10
411.1842061307
 20
255.8232942569
 30
0.0
 10
409.5977116213
 20
256.9475796331
 30
0.0
 10
408.9122364144
 20
257.6096978387
 30
0.0
  0
SPLINE
  5
7D2
100
AcDbEntity
  8
KONSTRUKTIONSELEMENTE
100
AcDbSpline
 62
7
  6
CONTINUOUS
 70
0
 71
3
 72
9
 73
5
 74
0
 42
0.0000001
 43
0.0000001
 44
0.0000000001
 40
0.0
 40
0.0
 40
0.0
 40
0.0
 40
0.5012747397
 40
1.0
 40
1.0
 40
1.0
 40
1.0
 10
422.4189251203
 20
270.7752668902
 30
0.0
 10
423.2830926981
 20
269.9247477581
 30
0.0
 10
424.6913644563
 20
267.8710094806
 30
0.0
 10
425.1845721729
 20
265.4272680386
 30
0.0
 10
425.1841573253
 20
264.2209298922
 30
0.0
  0
SPLINE
  5
7D3
100
AcDbEntity
  8
KONSTRUKTIONSELEMENTE
100
AcDbSpline
 62
7
  6
CONTINUOUS
 70
0
 71
3
 72
9
 73
5
 74
0
 42
0.0000001
 43
0.0000001
 44
0.0000000001
 40
0.0
 40
0.0
 40
0.0
 40
0.0
 40
0.5050460752
 40
1.0
 40
1.0
 40
1.0
 40
1.0
 10
416.0581780813
 20
259.9320795147
 30
0.0
 10
415.4046027079
 20
259.873979566
 30
0.0
 10
414.0720009845
 20
260.028062497
 30
0.0
 10
412.9156894585
 20
260.7119180797
 30
0.0
 10
412.4449793883
 20
261.1500205991
 30
0.0
  0
SPLINE
  5
7D4
100
AcDbEntity
  8
KONSTRUKTIONSELEMENTE
100
AcDbSpline
 62
7
  6
CONTINUOUS
 70
0
 71
3
 72
11
 73
7
 74
0
 42
0.0000001
 43
0.0000001
 44
0.0000000001
 40
0.0
 40
0.0
 40
0.0
 40
0.0
 40
0.2485637571
 40
0.501292539
 40
0.7532605035
 40
1.0
 40
1.0
 40
1.0
 40
1.0
 10
404.3223077581
 20
275.6732132294
 30
0.0
 10
404.7571247153
 20
276.013639554
 30
0.0
 10
405.7700236722
 20
276.5415937434
 30
0.0
 10
407.4639721601
 20
276.7538939512
 30
0.0
 10
409.1244627758
 20
276.3744498505
 30
0.0
 10
410.0735938157
 20
275.7488709246
 30
0.0
 10
410.4678713331
 20
275.3680280879
 30
0.0
  0
SPLINE
  5
7D5
100
AcDbEntity
  8
KONSTRUKTIONSELEMENTE
100
AcDbSpline
 62
7
  6
CONTINUOUS
 70
0
 71
3
 72
9
 73
5
 74
0
 42
0.0000001
 43
0.0000001
 44
0.0000000001
 40
0.0
 40
0.0
 40
0.0
 40
0.0
 40
0.5012633742
 40
1.0
 40
1.0
 40
1.0
 40
1.0
 10
400.4976657183
 20
265.7375489912
 30
0.0
 10
399.6969121609
 20
266.5110175329
 30
0.0
 10
398.3632049599
 20
268.3550778259
 30
0.0
 10
397.7800320287
 20
270.5570369855
 30
0.0
 10
397.6958513728
 20
271.661532036
 30
0.0
  0
SPLINE
  5
7D6
100
AcDbEntity
  8
KONSTRUKTIONSELEMENTE
100
AcDbSpline
 62
7
  6
CONTINUOUS
 70
0
 71
3
 72
13
 73
9
 74
0
 42
0.0000001
 43
0.0000001
 44
0.0000000001
 40
0.0
 40
0.0
 40
0.0
 40
0.0
 40
0.1246963396
 40
0.2498404566
 40
0.4998337411
 40
0.7499191514
 40
0.8751969283
 40
1.0
 40
1.0
 40
1.0
 40
1.0
 10
400.1351017009
 20
278.5941953538
 30
0.0
 10
400.5676210633
 20
279.0605378397
 30
0.0
 10
401.5325179388
 20
279.9091806376
 30
0.0
 10
403.7554093901
 20
281.1852507507
 30
0.0
 10
406.951724981
 20
281.9145216549
 30
0.0
 10
410.1828705184
 20
281.3566647191
 30
0.0
 10
412.472796539
 20
280.2017027197
 30
0.0
 10
413.4837372132
 20
279.406566702
 30
0.0
 10
413.9416042861
 20
278.9643010713
 30
0.0
  0
SPLINE
  5
7D7
100
AcDbEntity
  8
KONSTRUKTIONSELEMENTE
100
AcDbSpline
 62
7
  6
CONTINUOUS
 70
0
 71
3
 72
21
 73
17
 74
0
 42
0.0000001
 43
0.0000001
 44
0.0000000001
 40
0.0
 40
0.0
 40
0.0
 40
0.0
 40
0.0294220707
 40
0.0723221796
 40
0.128270212
 40
0.1957493625
 40
0.3569194901
 40
0.5354427485
 40
0.7081562347
 40
0.7852637376
 40
0.8528295098
 40
0.9088459223
 40
0.951807463
 40
0.968259586
 40
0.9814568991
 40
1.0
 40
1.0
 40
1.0
 40
1.0
 10
418.3565668059
 20
274.6390175826
 30
0.0
 10
418.3565668059
 20
274.5888670885
 30
0.0
 10
418.3234165973
 20
274.4672852215
 30
0.0
 10
418.2313576767
 20
274.2694336969
 30
0.0
 10
418.0850964188
 20
274.0257257424
 30
0.0
 10
417.8080450986
 20
273.6274558847
 30
0.0
 10
417.3684143487
 20
273.0890532441
 30
0.0
 10
416.7715683971
 20
272.4508380303
 30
0.0
 10
416.2390977174
 20
271.9501770778
 30
0.0
 10
415.8227697169
 20
271.6044804116
 30
0.0
 10
415.548766218
 20
271.3993334489
 30
0.0
 10
415.3102474186
 20
271.2449489958
 30
0.0
 10
415.1350118333
 20
271.1542491099
 30
0.0
 10
415.0166793958
 20
271.1153050307
 30
0.0
 10
414.9368646395
 20
271.100540538
 30
0.0
 10
414.8766311926
 20
271.1109589574
 30
0.0
 10
414.8534252115
 20
271.1324179832
 30
0.0
  0
SPLINE
  5
7D8
100
AcDbEntity
  8
KONSTRUKTIONSELEMENTE
100
AcDbSpline
 62
7
  6
CONTINUOUS
 70
0
 71
3
 72
14
 73
10
 74
0
 42
0.0000001
 43
0.0000001
 44
0.0000000001
 40
0.0
 40
0.0
 40
0.0
 40
0.0
 40
0.2479002329
 40
0.3612118633
 40
0.4721190687
 40
0.5867536955
 40
0.7119428874
 40
0.8511057378
 40
1.0
 40
1.0
 40
1.0
 40
1.0
 10
380.4873287261
 20
307.1654426826
 30
0.0
 10
379.8204495878
 20
307.5606689541
 30
0.0
 10
378.8242191634
 20
308.1002031846
 30
0.0
 10
377.4552646621
 20
308.6569863196
 30
0.0
 10
376.4375420612
 20
308.9599388658
 30
0.0
 10
375.3490849507
 20
309.1280245881
 30
0.0
 10
374.1549938855
 20
309.0811344311
 30
0.0
 10
372.9021196284
 20
308.7017447612
 30
0.0
 10
372.1448729909
 20
308.1793319512
 30
0.0
 10
371.8098888754
 20
307.8559597588
 30
0.0
  0
SPLINE
  5
7D9
100
AcDbEntity
  8
KONSTRUKTIONSELEMENTE
100
AcDbSpline
 62
7
  6
CONTINUOUS
 70
0
 71
3
 72
17
 73
13
 74
0
 42
0.0000001
 43
0.0000001
 44
0.0000000001
 40
0.0
 40
0.0
 40
0.0
 40
0.0
 40
0.1665904769
 40
0.3220875148
 40
0.4627581109
 40
0.5860316404
 40
0.6917370756
 40
0.7849276447
 40
0.8315020862
 40
0.8821153218
 40
0.9388212077
 40
1.0
 40
1.0
 40
1.0
 40
1.0
 10
388.957880925
 20
279.0492848202
 30
0.0
 10
389.9397064981
 20
278.118237497
 30
0.0
 10
391.8677872091
 20
276.3491840158
 30
0.0
 10
394.731532357
 20
273.9131980941
 30
0.0
 10
397.4233947349
 20
271.8231201592
 30
0.0
 10
399.8991097609
 20
270.1196758177
 30
0.0
 10
402.1707222556
 20
268.8158553751
 30
0.0
 10
404.0289267926
 20
268.0554233232
 30
0.0
 10
405.5530021914
 20
267.7595921405
 30
0.0
 10
406.813673932
 20
267.7603813639
 30
0.0
 10
408.1536708124
 20
268.122794849
 30
0.0
 10
408.9671439734
 20
268.6706734861
 30
0.0
 10
409.3246517351
 20
269.0157885628
 30
0.0
  0
SPLINE
  5
7DA
100
AcDbEntity
  8
KONSTRUKTIONSELEMENTE
100
AcDbSpline
 62
7
  6
CONTINUOUS
 70
0
 71
3
 72
15
 73
11
 74
0
 42
0.0000001
 43
0.0000001
 44
0.0000000001
 40
0.0
 40
0.0
 40
0.0
 40
0.0
 40
0.1102229893
 40
0.1527872123
 40
0.1727964833
 40
0.2483278758
 40
0.3734146022
 40
0.5432949048
 40
0.7534214078
 40
1.0
 40
1.0
 40
1.0
 40
1.0
 10
377.4493816093
 20
304.4247470884
 30
0.0
 10
377.4510530761
 20
304.4628960681
 30
0.0
 10
377.4547013085
 20
304.4904780106
 30
0.0
 10
377.4432519901
 20
304.6012321124
 30
0.0
 10
377.4539575353
 20
304.5358476226
 30
0.0
 10
377.4692546205
 20
304.4748229893
 30
0.0
 10
377.5059649407
 20
304.3436938761
 30
0.0
 10
377.5604328032
 20
304.1808295124
 30
0.0
 10
377.6364169693
 20
303.9761192637
 30
0.0
 10
377.6967635289
 20
303.8301822487
 30
0.0
 10
377.7303962436
 20
303.7516571589
 30
0.0
  0
SPLINE
  5
7DB
100
AcDbEntity
  8
KONSTRUKTIONSELEMENTE
100
AcDbSpline
 62
7
  6
CONTINUOUS
 70
0
 71
3
 72
9
 73
5
 74
0
 42
0.0000001
 43
0.0000001
 44
0.0000000001
 40
0.0
 40
0.0
 40
0.0
 40
0.0
 40
0.4771481899
 40
1.0
 40
1.0
 40
1.0
 40
1.0
 10
399.8852369601
 20
278.7923641272
 30
0.0
 10
399.1935637658
 20
279.7311722565
 30
0.0
 10
397.6928060456
 20
281.6611676192
 30
0.0
 10
396.1173927984
 20
283.5302378638
 30
0.0
 10
395.2774198675
 20
284.4931423665
 30
0.0
  0
SPLINE
  5
7DC
100
AcDbEntity
  8
KONSTRUKTIONSELEMENTE
100
AcDbSpline
 62
7
  6
CONTINUOUS
 70
0
 71
3
 72
14
 73
10
 74
0
 42
0.0000001
 43
0.0000001
 44
0.0000000001
 40
0.0
 40
0.0
 40
0.0
 40
0.0
 40
0.1487404688
 40
0.2875750519
 40
0.4123541879
 40
0.5266639648
 40
0.6374661507
 40
0.7509942026
 40
1.0
 40
1.0
 40
1.0
 40
1.0
 10
371.8098888754
 20
307.8559597588
 30
0.0
 10
371.4713876037
 20
307.5291923291
 30
0.0
 10
370.9186585071
 20
306.7818898979
 30
0.0
 10
370.4975562111
 20
305.5293111102
 30
0.0
 10
370.4150201313
 20
304.3266137322
 30
0.0
 10
370.5537770669
 20
303.2239088933
 30
0.0
 10
370.8296784614
 20
302.1865911812
 30
0.0
 10
371.3526909622
 20
300.7820483123
 30
0.0
 10
371.8693282247
 20
299.7544343598
 30
0.0
 10
372.2498709572
 20
299.0648183502
 30
0.0
  0
SPLINE
  5
7DD
100
AcDbEntity
  8
KONSTRUKTIONSELEMENTE
100
AcDbSpline
 62
7
  6
CONTINUOUS
 70
0
 71
3
 72
14
 73
10
 74
0
 42
0.0000001
 43
0.0000001
 44
0.0000000001
 40
0.0
 40
0.0
 40
0.0
 40
0.0
 40
0.3474108623
 40
0.5045669118
 40
0.6469811233
 40
0.7717448826
 40
0.8755670802
 40
0.9540778989
 40
1.0
 40
1.0
 40
1.0
 40
1.0
 10
394.3449323995
 20
283.5914495876
 30
0.0
 10
395.5965092519
 20
282.4208891465
 30
0.0
 10
397.452764557
 20
280.7605876652
 30
0.0
 10
399.9238080127
 20
278.740383491
 30
0.0
 10
401.5885521733
 20
277.470738933
 30
0.0
 10
403.0883629507
 20
276.4213202735
 30
0.0
 10
404.3736147388
 20
275.6171178571
 30
0.0
 10
405.3685218134
 20
275.0892705727
 30
0.0
 10
405.9367728923
 20
274.8506915614
 30
0.0
 10
406.1541633554
 20
274.7870337919
 30
0.0
  0
SPLINE
  5
7DE
100
AcDbEntity
  8
KONSTRUKTIONSELEMENTE
100
AcDbSpline
 62
7
  6
CONTINUOUS
 70
0
 71
3
 72
12
 73
8
 74
0
 42
0.0000001
 43
0.0000001
 44
0.0000000001
 40
0.0
 40
0.0
 40
0.0
 40
0.0
 40
0.1499009536
 40
0.2935594572
 40
0.5479540344
 40
0.7732527962
 40
1.0
 40
1.0
 40
1.0
 40
1.0
 10
409.3246517351
 20
269.0157885628
 30
0.0
 10
409.587672148
 20
269.2696916097
 30
0.0
 10
410.0401788077
 20
269.836522886
 30
0.0
 10
410.599723746
 20
271.0624597008
 30
0.0
 10
410.7678259923
 20
272.6122008155
 30
0.0
 10
410.4452234497
 20
274.3164328201
 30
0.0
 10
410.0621140032
 20
275.3538373948
 30
0.0
 10
409.8448139538
 20
275.8623423555
 30
0.0
  0
SPLINE
  5
7DF
100
AcDbEntity
  8
KONSTRUKTIONSELEMENTE
100
AcDbSpline
 62
7
  6
CONTINUOUS
 70
0
 71
3
 72
9
 73
5
 74
0
 42
0.0000001
 43
0.0000001
 44
0.0000000001
 40
0.0
 40
0.0
 40
0.0
 40
0.0
 40
0.4727721539
 40
1.0
 40
1.0
 40
1.0
 40
1.0
 10
406.4701303623
 20
281.6236238739
 30
0.0
 10
405.5271967182
 20
282.9710067364
 30
0.0
 10
403.4217446013
 20
285.7434580382
 30
0.0
 10
401.1729285913
 20
288.3990872008
 30
0.0
 10
399.9570327783
 20
289.7720723071
 30
0.0
  0
SPLINE
  5
7E0
100
AcDbEntity
  8
0
100
AcDbSpline
 62
7
  6
CONTINUOUS
 70
0
 71
3
 72
10
 73
6
 74
0
 42
0.0000001
 43
0.0000001
 44
0.0000000001
 40
0.0
 40
0.0
 40
0.0
 40
0.0
 40
0.2390100379
 40
0.4878383095
 40
1.0
 40
1.0
 40
1.0
 40
1.0
 10
343.7228636351
 20
192.5137245772
 30
0.0
 10
344.3389076324
 20
192.1996010333
 30
0.0
 10
345.6504307809
 20
191.6616050179
 30
0.0
 10
348.4497961376
 20
190.9133206904
 30
0.0
 10
350.6623684148
 20
190.7002931944
 30
0.0
 10
352.144164293
 20
190.7002931944
 30
0.0
  0
SPLINE
  5
7E1
100
AcDbEntity
  8
0
100
AcDbSpline
 62
7
  6
CONTINUOUS
 70
0
 71
3
 72
11
 73
7
 74
0
 42
0.0000001
 43
0.0000001
 44
0.0000000001
 40
0.0
 40
0.0
 40
0.0
 40
0.0
 40
0.2513517818
 40
0.5016718466
 40
0.7510916515
 40
1.0
 40
1.0
 40
1.0
 40
1.0
 10
343.7228692046
 20
192.5137298894
 30
0.0
 10
342.2702593963
 20
193.2544698143
 30
0.0
 10
339.5548280543
 20
195.1314559576
 30
0.0
 10
336.4010821524
 20
198.9229334377
 30
0.0
 10
334.4007669339
 20
203.4147674296
 30
0.0
 10
333.944164293
 20
206.6654205256
 30
0.0
 10
333.944164293
 20
208.2801432328
 30
0.0
  0
SPLINE
  5
7E2
100
AcDbEntity
  8
RUNDUNGEN
100
AcDbSpline
 62
7
  6
CONTINUOUS
 70
0
 71
3
 72
10
 73
6
 74
0
 42
0.0000001
 43
0.0000001
 44
0.0000000001
 40
0.0
 40
0.0
 40
0.0
 40
0.0
 40
0.2390100379
 40
0.4878383095
 40
1.0
 40
1.0
 40
1.0
 40
1.0
 10
363.1654649509
 20
192.5137245772
 30
0.0
 10
362.5494209535
 20
192.1996010333
 30
0.0
 10
361.237897805
 20
191.6616050179
 30
0.0
 10
358.4385324484
 20
190.9133206904
 30
0.0
 10
356.2259601712
 20
190.7002931944
 30
0.0
 10
354.744164293
 20
190.7002931944
 30
0.0
  0
SPLINE
  5
7E3
100
AcDbEntity
  8
RUNDUNGEN
100
AcDbSpline
 62
7
  6
CONTINUOUS
 70
0
 71
3
 72
11
 73
7
 74
0
 42
0.0000001
 43
0.0000001
 44
0.0000000001
 40
0.0
 40
0.0
 40
0.0
 40
0.0
 40
0.2513517818
 40
0.5016718466
 40
0.7510916515
 40
1.0
 40
1.0
 40
1.0
 40
1.0
 10
363.1654593813
 20
192.5137298894
 30
0.0
 10
364.6180691896
 20
193.2544698143
 30
0.0
 10
367.3335005317
 20
195.1314559576
 30
0.0
 10
370.4872464335
 20
198.9229334377
 30
0.0
 10
372.487561652
 20
203.4147674296
 30
0.0
 10
372.944164293
 20
206.6654205256
 30
0.0
 10
372.944164293
 20
208.2801432328
 30
0.0
  0
SPLINE
  5
7E4
100
AcDbEntity
  8
BEZUGSACHSEN
100
AcDbSpline
 62
7
  6
CONTINUOUS
 70
0
 71
3
 72
19
 73
15
 74
0
 42
0.0000001
 43
0.0000001
 44
0.0000000001
 40
0.0
 40
0.0
 40
0.0
 40
0.0
 40
0.0615778188
 40
0.1233173652
 40
0.1853624895
 40
0.2478005785
 40
0.3733221741
 40
0.5
 40
0.6266778259
 40
0.7521994215
 40
0.8146375105
 40
0.8766826348
 40
0.9384221812
 40
1.0
 40
1.0
 40
1.0
 40
1.0
 10
344.194164293
 20
228.9708009439
 30
0.0
 10
344.194164293
 20
228.3867449924
 30
0.0
 10
344.3138183718
 20
227.213628655
 30
0.0
 10
344.8447671404
 20
225.5256560226
 30
0.0
 10
345.7071091177
 20
223.9700098075
 30
0.0
 10
347.25114733
 20
222.1531233428
 30
0.0
 10
349.8298959575
 20
220.4941012325
 30
0.0
 10
353.444164293
 20
219.8059209737
 30
0.0
 10
357.0584326284
 20
220.4941012325
 30
0.0
 10
359.637181256
 20
222.1531233428
 30
0.0
 10
361.1812194683
 20
223.9700098075
 30
0.0
 10
362.0435614456
 20
225.5256560226
 30
0.0
 10
362.5745102141
 20
227.213628655
 30
0.0
 10
362.694164293
 20
228.3867449924
 30
0.0
 10
362.694164293
 20
228.9708009439
 30
0.0
  0
SPLINE
  5
7E5
100
AcDbEntity
  8
KONSTRUKTIONSELEMENTE
100
AcDbSpline
 62
7
  6
CONTINUOUS
 70
0
 71
3
 72
13
 73
9
 74
0
 42
0.0000001
 43
0.0000001
 44
0.0000000001
 40
0.0
 40
0.0
 40
0.0
 40
0.0
 40
0.1120314022
 40
0.2284886538
 40
0.3494823057
 40
0.474756652
 40
0.7342768957
 40
1.0
 40
1.0
 40
1.0
 40
1.0
 10
372.944164293
 20
222.0331101159
 30
0.0
 10
372.944164293
 20
221.0200030641
 30
0.0
 10
372.7162909946
 20
218.9476727489
 30
0.0
 10
371.7142608329
 20
215.9276517374
 30
0.0
 10
370.0599236512
 20
213.0686651931
 30
0.0
 10
367.0207768698
 20
209.6162337094
 30
0.0
 10
361.9167225767
 20
206.4112934137
 30
0.0
 10
357.1464722683
 20
205.4507199699
 30
0.0
 10
354.744164293
 20
205.3951404833
 30
0.0
  0
SPLINE
  5
7E6
100
AcDbEntity
  8
0
100
AcDbSpline
 62
7
  6
CONTINUOUS
 70
0
 71
3
 72
8
 73
4
 74
0
 42
0.0000001
 43
0.0000001
 44
0.0000000001
 40
0.0
 40
0.0
 40
0.0
 40
0.0
 40
1.0
 40
1.0
 40
1.0
 40
1.0
 10
333.944164293
 20
241.5204037371
 30
0.0
 10
333.944164293
 20
241.5957160444
 30
0.0
 10
333.9697897747
 20
241.6743027612
 30
0.0
 10
334.0139909119
 20
241.7352798314
 30
0.0
  0
SPLINE
  5
7E7
100
AcDbEntity
  8
RUNDUNGEN
100
AcDbSpline
 62
7
  6
CONTINUOUS
 70
0
 71
3
 72
8
 73
4
 74
0
 42
0.0000001
 43
0.0000001
 44
0.0000000001
 40
0.0
 40
0.0
 40
0.0
 40
0.0
 40
1.0
 40
1.0
 40
1.0
 40
1.0
 10
372.944164293
 20
241.5204037371
 30
0.0
 10
372.944164293
 20
241.5957160444
 30
0.0
 10
372.9185388112
 20
241.6743027612
 30
0.0
 10
372.874337674
 20
241.7352798314
 30
0.0
  0
SPLINE
  5
7E8
100
AcDbEntity
  8
0
100
AcDbSpline
 62
7
  6
CONTINUOUS
 70
0
 71
3
 72
13
 73
9
 74
0
 42
0.0000001
 43
0.0000001
 44
0.0000000001
 40
0.0
 40
0.0
 40
0.0
 40
0.0
 40
0.1120314022
 40
0.2284886538
 40
0.3494823057
 40
0.474756652
 40
0.7342768957
 40
1.0
 40
1.0
 40
1.0
 40
1.0
 10
333.944164293
 20
222.0331101159
 30
0.0
 10
333.944164293
 20
221.0200030641
 30
0.0
 10
334.1720375913
 20
218.9476727489
 30
0.0
 10
335.174067753
 20
215.9276517374
 30
0.0
 10
336.8284049347
 20
213.0686651931
 30
0.0
 10
339.8675517161
 20
209.6162337094
 30
0.0
 10
344.9716060092
 20
206.4112934137
 30
0.0
 10
349.7418563176
 20
205.4507199699
 30
0.0
 10
352.144164293
 20
205.3951404833
 30
0.0
  0
SPLINE
  5
7E9
100
AcDbEntity
  8
BEZUGSACHSEN
100
AcDbSpline
 62
7
  6
CONTINUOUS
 70
0
 71
3
 72
19
 73
15
 74
0
 42
0.0000001
 43
0.0000001
 44
0.0000000001
 40
0.0
 40
0.0
 40
0.0
 40
0.0
 40
0.0615778188
 40
0.1233173652
 40
0.1853624895
 40
0.2478005785
 40
0.3733221741
 40
0.5
 40
0.6266778259
 40
0.7521994215
 40
0.8146375105
 40
0.8766826348
 40
0.9384221812
 40
1.0
 40
1.0
 40
1.0
 40
1.0
 10
362.694164293
 20
228.9708009439
 30
0.0
 10
362.694164293
 20
229.5548568955
 30
0.0
 10
362.5745102141
 20
230.7279732329
 30
0.0
 10
362.0435614456
 20
232.4159458653
 30
0.0
 10
361.1812194683
 20
233.9715920804
 30
0.0
 10
359.637181256
 20
235.7884785451
 30
0.0
 10
357.0584326284
 20
237.4475006554
 30
0.0
 10
353.444164293
 20
238.1356809142
 30
0.0
 10
349.8298959575
 20
237.4475006554
 30
0.0
 10
347.25114733
 20
235.7884785451
 30
0.0
 10
345.7071091177
 20
233.9715920804
 30
0.0
 10
344.8447671404
 20
232.4159458653
 30
0.0
 10
344.3138183718
 20
230.7279732329
 30
0.0
 10
344.194164293
 20
229.5548568955
 30
0.0
 10
344.194164293
 20
228.9708009439
 30
0.0
  0
SPLINE
  5
7EA
100
AcDbEntity
  8
0
100
AcDbSpline
 62
7
  6
CONTINUOUS
 70
0
 71
3
 72
9
 73
5
 74
0
 42
0.0000001
 43
0.0000001
 44
0.0000000001
 40
0.0
 40
0.0
 40
0.0
 40
0.0
 40
0.5000000006
 40
1.0
 40
1.0
 40
1.0
 40
1.0
 10
356.7758824779
 20
306.3635984333
 30
0.0
 10
357.1984528314
 20
303.072973635
 30
0.0
 10
357.6507698987
 20
296.4318238652
 30
0.0
 10
357.1984528303
 20
289.7906740956
 30
0.0
 10
356.7758824779
 20
286.5000493054
 30
0.0
  0
SPLINE
  5
7EB
100
AcDbEntity
  8
0
100
AcDbSpline
 62
7
  6
CONTINUOUS
 70
0
 71
3
 72
9
 73
5
 74
0
 42
0.0000001
 43
0.0000001
 44
0.0000000001
 40
0.0
 40
0.0
 40
0.0
 40
0.0
 40
0.5000000006
 40
1.0
 40
1.0
 40
1.0
 40
1.0
 10
356.7758824779
 20
317.8318238694
 30
0.0
 10
357.1935228767
 20
315.954145445
 30
0.0
 10
357.6556998533
 20
312.0977111489
 30
0.0
 10
357.1935228757
 20
308.2412768531
 30
0.0
 10
356.7758824779
 20
306.3635984333
 30
0.0
  0
SPLINE
  5
7EC
100
AcDbEntity
  8
0
100
AcDbSpline
 62
7
  6
CONTINUOUS
 70
0
 71
3
 72
13
 73
9
 74
0
 42
0.0000001
 43
0.0000001
 44
0.0000000001
 40
0.0
 40
0.0
 40
0.0
 40
0.0
 40
0.0534104136
 40
0.1290200267
 40
0.2292800029
 40
0.3525017855
 40
0.6537402166
 40
1.0
 40
1.0
 40
1.0
 40
1.0
 10
334.0139909119
 20
241.7352798314
 30
0.0
 10
334.0777401585
 20
241.8232242269
 30
0.0
 10
334.3130380148
 20
241.9691808691
 30
0.0
 10
334.7692381301
 20
242.0693854142
 30
0.0
 10
335.3790878817
 20
242.1036983
 30
0.0
 10
336.4456205898
 20
242.0464053158
 30
0.0
 10
337.9955698973
 20
241.7855180327
 30
0.0
 10
339.2705326226
 20
241.4511446059
 30
0.0
 10
339.944164293
 20
241.2459865487
 30
0.0
  0
SPLINE
  5
7ED
100
AcDbEntity
  8
BEZUGSACHSEN
100
AcDbSpline
 62
7
  6
CONTINUOUS
 70
0
 71
3
 72
19
 73
15
 74
0
 42
0.0000001
 43
0.0000001
 44
0.0000000001
 40
0.0
 40
0.0
 40
0.0
 40
0.0
 40
0.0615637168
 40
0.1233167015
 40
0.1853986847
 40
0.2478631715
 40
0.3734162268
 40
0.5
 40
0.6265837732
 40
0.7521368285
 40
0.8146013153
 40
0.8766832985
 40
0.9384362832
 40
1.0
 40
1.0
 40
1.0
 40
1.0
 10
362.6491141768
 20
229.1778152886
 30
0.0
 10
362.5932329305
 20
229.7231149923
 30
0.0
 10
362.3765135025
 20
230.8075260828
 30
0.0
 10
361.7496413816
 20
232.3446822165
 30
0.0
 10
360.8419442592
 20
233.7451671774
 30
0.0
 10
359.3001725075
 20
235.3667325519
 30
0.0
 10
356.8332014508
 20
236.8302455077
 30
0.0
 10
353.444164293
 20
237.4347277989
 30
0.0
 10
350.0551271351
 20
236.8302455077
 30
0.0
 10
347.5881560785
 20
235.3667325519
 30
0.0
 10
346.0463843268
 20
233.7451671774
 30
0.0
 10
345.1386872044
 20
232.3446822165
 30
0.0
 10
344.5118150834
 20
230.8075260828
 30
0.0
 10
344.2950956555
 20
229.7231149923
 30
0.0
 10
344.2392144091
 20
229.1778152886
 30
0.0
  0
SPLINE
  5
7EE
100
AcDbEntity
  8
KONSTRUKTIONSELEMENTE
100
AcDbSpline
 62
7
  6
CONTINUOUS
 70
0
 71
3
 72
15
 73
11
 74
0
 42
0.0000001
 43
0.0000001
 44
0.0000000001
 40
0.0
 40
0.0
 40
0.0
 40
0.0
 40
0.1247880654
 40
0.2495804245
 40
0.3744150683
 40
0.4993275685
 40
0.6243611639
 40
0.7495233807
 40
0.8747730249
 40
1.0
 40
1.0
 40
1.0
 40
1.0
 10
354.744164293
 20
192.0522267018
 30
0.0
 10
355.852966581
 20
192.0265735955
 30
0.0
 10
358.0813368298
 20
192.1864513701
 30
0.0
 10
361.3136375464
 20
193.055651074
 30
0.0
 10
364.3243113208
 20
194.5232813568
 30
0.0
 10
367.0042780696
 20
196.5348975718
 30
0.0
 10
369.2620635466
 20
199.014271793
 30
0.0
 10
371.0261397035
 20
201.8689761392
 30
0.0
 10
372.2488316488
 20
204.9938320591
 30
0.0
 10
372.6889854738
 20
207.1892567773
 30
0.0
 10
372.8151007884
 20
208.2950885282
 30
0.0
  0
SPLINE
  5
7EF
100
AcDbEntity
  8
0
100
AcDbSpline
 62
7
  6
CONTINUOUS
 70
0
 71
3
 72
20
 73
16
 74
0
 42
0.0000001
 43
0.0000001
 44
0.0000000001
 40
0.0
 40
0.0
 40
0.0
 40
0.0
 40
0.2532674299
 40
0.3795173608
 40
0.5047046886
 40
0.5669050968
 40
0.6287215934
 40
0.6901357528
 40
0.7511762438
 40
0.8120168076
 40
0.8427182695
 40
0.8736845401
 40
0.9049873693
 40
0.9365825082
 40
1.0
 40
1.0
 40
1.0
 40
1.0
 10
352.1441671053
 20
206.7470739907
 30
0.0
 10
350.4092998455
 20
206.7470736891
 30
0.0
 10
347.7781310634
 20
207.1675365084
 30
0.0
 10
344.6147541697
 20
208.5982279627
 30
0.0
 10
342.8593983966
 20
209.8734372896
 30
0.0
 10
341.6872861012
 20
211.1207235933
 30
0.0
 10
340.9565784471
 20
212.1660532617
 30
0.0
 10
340.4183459873
 20
213.3164353243
 30
0.0
 10
340.1385385435
 20
214.5520990886
 30
0.0
 10
340.2159920683
 20
215.6199055931
 30
0.0
 10
340.5397511464
 20
216.4021991702
 30
0.0
 10
340.9277190441
 20
216.9169370513
 30
0.0
 10
341.4451459808
 20
217.3117260502
 30
0.0
 10
342.2488455078
 20
217.6511319107
 30
0.0
 10
342.9099001855
 20
217.7177650677
 30
0.0
 10
343.3443063396
 20
217.7177650677
 30
0.0
  0
SPLINE
  5
7F0
100
AcDbEntity
  8
RUNDUNGEN
100
AcDbSpline
 62
7
  6
CONTINUOUS
 70
0
 71
3
 72
20
 73
16
 74
0
 42
0.0000001
 43
0.0000001
 44
0.0000000001
 40
0.0
 40
0.0
 40
0.0
 40
0.0
 40
0.2532674299
 40
0.3795173608
 40
0.5047046886
 40
0.5669050968
 40
0.6287215934
 40
0.6901357528
 40
0.7511762438
 40
0.8120168076
 40
0.8427182695
 40
0.8736845401
 40
0.9049873693
 40
0.9365825082
 40
1.0
 40
1.0
 40
1.0
 40
1.0
 10
354.7441614807
 20
206.7470739907
 30
0.0
 10
356.4790287405
 20
206.7470736891
 30
0.0
 10
359.1101975225
 20
207.1675365084
 30
0.0
 10
362.2735744162
 20
208.5982279627
 30
0.0
 10
364.0289301893
 20
209.8734372896
 30
0.0
 10
365.2010424848
 20
211.1207235933
 30
0.0
 10
365.9317501388
 20
212.1660532617
 30
0.0
 10
366.4699825987
 20
213.3164353242
 30
0.0
 10
366.7497900424
 20
214.5520990886
 30
0.0
 10
366.6723365176
 20
215.6199055931
 30
0.0
 10
366.3485774396
 20
216.4021991702
 30
0.0
 10
365.9606095418
 20
216.9169370513
 30
0.0
 10
365.4431826051
 20
217.3117260502
 30
0.0
 10
364.6394830781
 20
217.6511319107
 30
0.0
 10
363.9784284005
 20
217.7177650677
 30
0.0
 10
363.5440222464
 20
217.7177650677
 30
0.0
  0
SPLINE
  5
7F1
100
AcDbEntity
  8
0
100
AcDbSpline
 62
7
  6
CONTINUOUS
 70
0
 71
3
 72
13
 73
9
 74
0
 42
0.0000001
 43
0.0000001
 44
0.0000000001
 40
0.0
 40
0.0
 40
0.0
 40
0.0
 40
0.3462597834
 40
0.6474982145
 40
0.7707199971
 40
0.8709799733
 40
0.9465895864
 40
1.0
 40
1.0
 40
1.0
 40
1.0
 10
345.444164293
 20
248.8331542878
 30
0.0
 10
344.7705326226
 20
249.038312345
 30
0.0
 10
343.4955698973
 20
249.3726857719
 30
0.0
 10
341.9456205898
 20
249.6335730549
 30
0.0
 10
340.8790878817
 20
249.6908660391
 30
0.0
 10
340.2692381301
 20
249.6565531533
 30
0.0
 10
339.8130380148
 20
249.5563486083
 30
0.0
 10
339.5777401585
 20
249.4103919661
 30
0.0
 10
339.5139909119
 20
249.3224475706
 30
0.0
  0
SPLINE
  5
7F2
100
AcDbEntity
  8
0
100
AcDbSpline
 62
7
  6
CONTINUOUS
 70
0
 71
3
 72
13
 73
9
 74
0
 42
0.0000001
 43
0.0000001
 44
0.0000000001
 40
0.0
 40
0.0
 40
0.0
 40
0.0
 40
0.1243404892
 40
0.2494444692
 40
0.5
 40
0.7505555308
 40
0.8756595108
 40
1.0
 40
1.0
 40
1.0
 40
1.0
 10
342.9552755097
 20
207.8520652289
 30
0.0
 10
343.6448206325
 20
207.1909180839
 30
0.0
 10
345.16294417
 20
205.9971988661
 30
0.0
 10
348.5973717099
 20
204.2346651156
 30
0.0
 10
353.444164293
 20
203.3056623701
 30
0.0
 10
358.290956876
 20
204.2346651156
 30
0.0
 10
361.725384416
 20
205.9971988661
 30
0.0
 10
363.2435079535
 20
207.1909180839
 30
0.0
 10
363.9330530762
 20
207.8520652289
 30
0.0
  0
SPLINE
  5
7F3
100
AcDbEntity
  8
RUNDUNGEN
100
AcDbSpline
 62
7
  6
CONTINUOUS
 70
0
 71
3
 72
13
 73
9
 74
0
 42
0.0000001
 43
0.0000001
 44
0.0000000001
 40
0.0
 40
0.0
 40
0.0
 40
0.0
 40
0.0534104136
 40
0.1290200267
 40
0.2292800029
 40
0.3525017855
 40
0.6537402166
 40
1.0
 40
1.0
 40
1.0
 40
1.0
 10
372.874337674
 20
241.7352798314
 30
0.0
 10
372.8105884274
 20
241.8232242269
 30
0.0
 10
372.5752905711
 20
241.9691808691
 30
0.0
 10
372.1190904558
 20
242.0693854142
 30
0.0
 10
371.5092407042
 20
242.1036983
 30
0.0
 10
370.4427079961
 20
242.0464053158
 30
0.0
 10
368.8927586886
 20
241.7855180327
 30
0.0
 10
367.6177959634
 20
241.4511446059
 30
0.0
 10
366.944164293
 20
241.2459865487
 30
0.0
  0
SPLINE
  5
7F4
100
AcDbEntity
  8
0
100
AcDbSpline
 62
7
  6
CONTINUOUS
 70
0
 71
3
 72
15
 73
11
 74
0
 42
0.0000001
 43
0.0000001
 44
0.0000000001
 40
0.0
 40
0.0
 40
0.0
 40
0.0
 40
0.1247864889
 40
0.2495786939
 40
0.3744233655
 40
0.4993675364
 40
0.6244502772
 40
0.7496647196
 40
0.8749153133
 40
1.0
 40
1.0
 40
1.0
 40
1.0
 10
352.144164293
 20
192.0522267018
 30
0.0
 10
350.9408189907
 20
192.0243862605
 30
0.0
 10
348.5208375129
 20
192.2177199649
 30
0.0
 10
345.0333923122
 20
193.247965461
 30
0.0
 10
341.8298461383
 20
194.9747615106
 30
0.0
 10
339.0462082018
 20
197.3222053814
 30
0.0
 10
336.792326774
 20
200.1856065674
 30
0.0
 10
335.1484124663
 20
203.4399933729
 30
0.0
 10
334.1597790398
 20
206.9466576822
 30
0.0
 10
333.944164293
 20
209.3674134698
 30
0.0
 10
333.944164293
 20
210.5739571461
 30
0.0
  0
SPLINE
  5
7F5
100
AcDbEntity
  8
RUNDUNGEN
100
AcDbSpline
 62
7
  6
CONTINUOUS
 70
0
 71
3
 72
13
 73
9
 74
0
 42
0.0000001
 43
0.0000001
 44
0.0000000001
 40
0.0
 40
0.0
 40
0.0
 40
0.0
 40
0.3462597834
 40
0.6474982145
 40
0.7707199971
 40
0.8709799733
 40
0.9465895864
 40
1.0
 40
1.0
 40
1.0
 40
1.0
 10
361.444164293
 20
248.8331542878
 30
0.0
 10
362.1177959634
 20
249.038312345
 30
0.0
 10
363.3927586886
 20
249.3726857719
 30
0.0
 10
364.9427079961
 20
249.6335730549
 30
0.0
 10
366.0092407042
 20
249.6908660391
 30
0.0
 10
366.6190904558
 20
249.6565531533
 30
0.0
 10
367.0752905711
 20
249.5563486083
 30
0.0
 10
367.3105884274
 20
249.4103919661
 30
0.0
 10
367.374337674
 20
249.3224475706
 30
0.0
  0
SPLINE
  5
7F6
100
AcDbEntity
  8
0
100
AcDbSpline
 62
7
  6
CONTINUOUS
 70
0
 71
3
 72
9
 73
5
 74
0
 42
0.0000001
 43
0.0000001
 44
0.0000000001
 40
0.0
 40
0.0
 40
0.0
 40
0.0
 40
0.5000000006
 40
1.0
 40
1.0
 40
1.0
 40
1.0
 10
350.1124461081
 20
317.8318238694
 30
0.0
 10
349.6948057092
 20
315.954145445
 30
0.0
 10
349.2326287326
 20
312.0977111489
 30
0.0
 10
349.6948057102
 20
308.2412768531
 30
0.0
 10
350.1124461081
 20
306.3635984333
 30
0.0
  0
SPLINE
  5
7F7
100
AcDbEntity
  8
0
100
AcDbSpline
 62
7
  6
CONTINUOUS
 70
0
 71
3
 72
9
 73
5
 74
0
 42
0.0000001
 43
0.0000001
 44
0.0000000001
 40
0.0
 40
0.0
 40
0.0
 40
0.0
 40
0.5000000006
 40
1.0
 40
1.0
 40
1.0
 40
1.0
 10
350.1124461081
 20
306.3635984333
 30
0.0
 10
349.6898757546
 20
303.072973635
 30
0.0
 10
349.2375586872
 20
296.4318238652
 30
0.0
 10
349.6898757556
 20
289.7906740956
 30
0.0
 10
350.1124461081
 20
286.5000493054
 30
0.0
  0
SPLINE
  5
7F8
100
AcDbEntity
  8
BEZUGSACHSEN
100
AcDbSpline
 62
7
  6
CONTINUOUS
 70
0
 71
3
 72
16
 73
12
 74
0
 42
0.0000001
 43
0.0000001
 44
0.0000000001
 40
0.0
 40
0.0
 40
0.0
 40
0.0
 40
0.3548296985
 40
0.5222347141
 40
0.6725064419
 40
0.7989201634
 40
0.8514914073
 40
0.8963100518
 40
0.9331359085
 40
0.9620620535
 40
1.0
 40
1.0
 40
1.0
 40
1.0
 10
483.903017375
 20
200.2720243115
 30
0.0
 10
483.3284381504
 20
200.8270252238
 30
0.0
 10
482.5148060093
 20
201.6781538482
 30
0.0
 10
481.5381797883
 20
202.8356243149
 30
0.0
 10
480.9315054479
 20
203.6309121957
 30
0.0
 10
480.5186638596
 20
204.2475188934
 30
0.0
 10
480.2711627257
 20
204.6870057516
 30
0.0
 10
480.1400745463
 20
204.9588840323
 30
0.0
 10
480.0537459896
 20
205.1949200894
 30
0.0
 10
480.0016923405
 20
205.4171306672
 30
0.0
 10
480.0204516545
 20
205.5920037443
 30
0.0
 10
480.0818725405
 20
205.6513565854
 30
0.0
  0
SPLINE
  5
7F9
100
AcDbEntity
  8
0
100
AcDbSpline
 62
7
  6
CONTINUOUS
 70
0
 71
3
 72
11
 73
7
 74
0
 42
0.0000001
 43
0.0000001
 44
0.0000000001
 40
0.0
 40
0.0
 40
0.0
 40
0.0
 40
0.3289144544
 40
0.6081940373
 40
0.8326117125
 40
1.0
 40
1.0
 40
1.0
 40
1.0
 10
529.6452248313
 20
156.2793478325
 30
0.0
 10
529.2945002794
 20
156.5470972332
 30
0.0
 10
528.6352999499
 20
157.0283747914
 30
0.0
 10
527.6943348696
 20
157.6327137755
 30
0.0
 10
526.8975447869
 20
158.0525701718
 30
0.0
 10
526.3994924081
 20
158.2349843838
 30
0.0
 10
526.1791431925
 20
158.2782401111
 30
0.0
  0
SPLINE
  5
7FA
100
AcDbEntity
  8
0
100
AcDbSpline
 62
7
  6
CONTINUOUS
 70
0
 71
3
 72
9
 73
5
 74
0
 42
0.0000001
 43
0.0000001
 44
0.0000000001
 40
0.0
 40
0.0
 40
0.0
 40
0.0
 40
0.5755211125
 40
1.0
 40
1.0
 40
1.0
 40
1.0
 10
526.1791431925
 20
158.2782401111
 30
0.0
 10
526.0503063776
 20
158.3035314657
 30
0.0
 10
525.8199294157
 20
158.331833723
 30
0.0
 10
525.5913459255
 20
158.2435574485
 30
0.0
 10
525.5217228138
 20
158.17625062
 30
0.0
  0
SPLINE
  5
7FB
100
AcDbEntity
  8
0
100
AcDbSpline
 62
7
  6
CONTINUOUS
 70
0
 71
3
 72
13
 73
9
 74
0
 42
0.0000001
 43
0.0000001
 44
0.0000000001
 40
0.0
 40
0.0
 40
0.0
 40
0.0
 40
0.3704485479
 40
0.6552555728
 40
0.7661428306
 40
0.857785806
 40
0.9335991113
 40
1.0
 40
1.0
 40
1.0
 40
1.0
 10
506.1169986109
 20
178.7234843874
 30
0.0
 10
505.8297490274
 20
178.8947541275
 30
0.0
 10
505.3110461802
 20
179.1799658357
 30
0.0
 10
504.6671647974
 20
179.4432131137
 30
0.0
 10
504.235844707
 20
179.5363191311
 30
0.0
 10
503.9832947581
 20
179.5486668073
 30
0.0
 10
503.7731382508
 20
179.5078586456
 30
0.0
 10
503.6605436338
 20
179.4383841072
 30
0.0
 10
503.6174412556
 20
179.3967232068
 30
0.0
  0
SPLINE
  5
7FC
100
AcDbEntity
  8
RUNDUNGEN
100
AcDbSpline
 62
7
  6
CONTINUOUS
 70
0
 71
3
 72
12
 73
8
 74
0
 42
0.0000001
 43
0.0000001
 44
0.0000000001
 40
0.0
 40
0.0
 40
0.0
 40
0.0
 40
0.0611670511
 40
0.1416527351
 40
0.3611634952
 40
0.6520783701
 40
1.0
 40
1.0
 40
1.0
 40
1.0
 10
554.6160435405
 20
128.4370078267
 30
0.0
 10
554.6160435405
 20
128.5155350725
 30
0.0
 10
554.5839992087
 20
128.6967761242
 30
0.0
 10
554.4286326356
 20
129.1342583127
 30
0.0
 10
554.0617044664
 20
129.8026639892
 30
0.0
 10
553.4437440535
 20
130.7150835891
 30
0.0
 10
552.9389651242
 20
131.3625282279
 30
0.0
 10
552.6561180827
 20
131.7082294183
 30
0.0
  0
SPLINE
  5
7FD
100
AcDbEntity
  8
RUNDUNGEN
100
AcDbSpline
 62
7
  6
CONTINUOUS
 70
0
 71
3
 72
11
 73
7
 74
0
 42
0.0000001
 43
0.0000001
 44
0.0000000001
 40
0.0
 40
0.0
 40
0.0
 40
0.0
 40
0.1348728247
 40
0.3687918423
 40
0.6717877543
 40
1.0
 40
1.0
 40
1.0
 40
1.0
 10
565.2226452583
 20
114.2175432468
 30
0.0
 10
565.2226452583
 20
114.2442656311
 30
0.0
 10
565.1865812673
 20
114.3125629403
 30
0.0
 10
565.1136340299
 20
114.4211505193
 30
0.0
 10
565.0023832957
 20
114.5532159498
 30
0.0
 10
564.9158641086
 20
114.6432806049
 30
0.0
 10
564.8690918678
 20
114.6884591203
 30
0.0
  0
SPLINE
  5
7FE
100
AcDbEntity
  8
RUNDUNGEN
100
AcDbSpline
 62
7
  6
CONTINUOUS
 70
0
 71
3
 72
11
 73
7
 74
0
 42
0.0000001
 43
0.0000001
 44
0.0000000001
 40
0.0
 40
0.0
 40
0.0
 40
0.0
 40
0.3831244728
 40
0.676832621
 40
0.8769472189
 40
1.0
 40
1.0
 40
1.0
 40
1.0
 10
475.9567463291
 20
197.2082725893
 30
0.0
 10
475.8894523354
 20
197.256026566
 30
0.0
 10
475.7683919022
 20
197.3374051778
 30
0.0
 10
475.5996898721
 20
197.4244614771
 30
0.0
 10
475.4751003562
 20
197.4690434639
 30
0.0
 10
475.3974656577
 20
197.4576424277
 30
0.0
 10
475.3784087668
 20
197.4392242261
 30
0.0
  0
SPLINE
  5
7FF
100
AcDbEntity
  8
RUNDUNGEN
100
AcDbSpline
 62
7
  6
CONTINUOUS
 70
0
 71
3
 72
11
 73
7
 74
0
 42
0.0000001
 43
0.0000001
 44
0.0000000001
 40
0.0
 40
0.0
 40
0.0
 40
0.0
 40
0.3491780237
 40
0.6246305336
 40
0.8340634718
 40
1.0
 40
1.0
 40
1.0
 40
1.0
 10
476.5828414642
 20
222.1587993918
 30
0.0
 10
476.3503272565
 20
222.2618467533
 30
0.0
 10
475.9258893628
 20
222.4292623271
 30
0.0
 10
475.332109491
 20
222.5690116866
 30
0.0
 10
474.8503311401
 20
222.5706553301
 30
0.0
 10
474.5900404322
 20
222.4460448175
 30
0.0
 10
474.5031646347
 20
222.3620214105
 30
0.0
  0
SPLINE
  5
800
100
AcDbEntity
  8
RUNDUNGEN
100
AcDbSpline
 62
7
  6
CONTINUOUS
 70
0
 71
3
 72
12
 73
8
 74
0
 42
0.0000001
 43
0.0000001
 44
0.0000000001
 40
0.0
 40
0.0
 40
0.0
 40
0.0
 40
0.2854431775
 40
0.5742965999
 40
0.8242066349
 40
0.9230746905
 40
1.0
 40
1.0
 40
1.0
 40
1.0
 10
483.3028475576
 20
216.4731541192
 30
0.0
 10
482.8209687153
 20
217.0621158722
 30
0.0
 10
481.7999880214
 20
218.2055640566
 30
0.0
 10
480.2277947327
 20
219.7419301317
 30
0.0
 10
478.9255834338
 20
220.8401901257
 30
0.0
 10
477.9912458634
 20
221.4852362911
 30
0.0
 10
477.5814914765
 20
221.7162103138
 30
0.0
 10
477.3940010395
 20
221.7993037085
 30
0.0
  0
SPLINE
  5
801
100
AcDbEntity
  8
RUNDUNGEN
100
AcDbSpline
 62
7
  6
CONTINUOUS
 70
0
 71
3
 72
11
 73
7
 74
0
 42
0.0000001
 43
0.0000001
 44
0.0000000001
 40
0.0
 40
0.0
 40
0.0
 40
0.0
 40
0.2855242273
 40
0.5744465678
 40
0.8243990606
 40
1.0
 40
1.0
 40
1.0
 40
1.0
 10
496.2485925829
 20
200.6506111596
 30
0.0
 10
496.0919725419
 20
200.8420352394
 30
0.0
 10
495.7601152068
 20
201.2133874412
 30
0.0
 10
495.2492546554
 20
201.7139306395
 30
0.0
 10
494.7748135385
 20
202.1102405474
 30
0.0
 10
494.4672840788
 20
202.3199772084
 30
0.0
 10
494.3282174646
 20
202.3816097762
 30
0.0
  0
SPLINE
  5
802
100
AcDbEntity
  8
RUNDUNGEN
100
AcDbSpline
 62
7
  6
CONTINUOUS
 70
0
 71
3
 72
9
 73
5
 74
0
 42
0.0000001
 43
0.0000001
 44
0.0000000001
 40
0.0
 40
0.0
 40
0.0
 40
0.0
 40
0.5394967057
 40
1.0
 40
1.0
 40
1.0
 40
1.0
 10
552.4182091049
 20
146.9029738591
 30
0.0
 10
552.0047328907
 20
147.3023612129
 30
0.0
 10
551.2181278873
 20
148.0219439175
 30
0.0
 10
550.3849044016
 20
148.6887161132
 30
0.0
 10
549.9847303789
 20
148.972692437
 30
0.0
  0
SPLINE
  5
803
100
AcDbEntity
  8
RUNDUNGEN
100
AcDbSpline
 62
7
  6
CONTINUOUS
 70
0
 71
3
 72
14
 73
10
 74
0
 42
0.0000001
 43
0.0000001
 44
0.0000000001
 40
0.0
 40
0.0
 40
0.0
 40
0.0
 40
0.0546649946
 40
0.135537574
 40
0.2415139539
 40
0.369373436
 40
0.5146685565
 40
0.6721260619
 40
1.0
 40
1.0
 40
1.0
 40
1.0
 10
565.2226452583
 20
132.9819240168
 30
0.0
 10
565.2226452583
 20
133.112025074
 30
0.0
 10
565.1315185066
 20
133.4295780969
 30
0.0
 10
564.8813731831
 20
133.9455099772
 30
0.0
 10
564.4863659648
 20
134.5842048925
 30
0.0
 10
563.9616066805
 20
135.3183001554
 30
0.0
 10
563.3243322604
 20
136.1215556351
 30
0.0
 10
562.3435504227
 20
137.2579037552
 30
0.0
 10
561.5412606518
 20
138.0907827553
 30
0.0
 10
560.9800045712
 20
138.6329144987
 30
0.0
  0
SPLINE
  5
804
100
AcDbEntity
  8
RUNDUNGEN
100
AcDbSpline
 62
7
  6
CONTINUOUS
 70
0
 71
3
 72
11
 73
7
 74
0
 42
0.0000001
 43
0.0000001
 44
0.0000000001
 40
0.0
 40
0.0
 40
0.0
 40
0.0
 40
0.1013338534
 40
0.3117452188
 40
0.6223535491
 40
1.0
 40
1.0
 40
1.0
 40
1.0
 10
561.6806315174
 20
128.64268243
 30
0.0
 10
561.6700630514
 20
128.6329116874
 30
0.0
 10
561.6168755772
 20
128.6468279222
 30
0.0
 10
561.5478614127
 20
128.6910394821
 30
0.0
 10
561.4435169507
 20
128.7701765204
 30
0.0
 10
561.3721383263
 20
128.8358249074
 30
0.0
 10
561.3335579618
 20
128.8730906778
 30
0.0
  0
SPLINE
  5
805
100
AcDbEntity
  8
0
100
AcDbSpline
 62
7
  6
CONTINUOUS
 70
0
 71
3
 72
9
 73
5
 74
0
 42
0.0000001
 43
0.0000001
 44
0.0000000001
 40
0.0
 40
0.0
 40
0.0
 40
0.0
 40
0.4519564197
 40
1.0
 40
1.0
 40
1.0
 40
1.0
 10
503.1658505146
 20
179.8642339165
 30
0.0
 10
503.1080677089
 20
179.8083835479
 30
0.0
 10
503.0153589438
 20
179.6473730093
 30
0.0
 10
502.9972485139
 20
179.4670800644
 30
0.0
 10
502.9972485139
 20
179.3696323929
 30
0.0
  0
SPLINE
  5
806
100
AcDbEntity
  8
0
100
AcDbSpline
 62
7
  6
CONTINUOUS
 70
0
 71
3
 72
9
 73
5
 74
0
 42
0.0000001
 43
0.0000001
 44
0.0000000001
 40
0.0
 40
0.0
 40
0.0
 40
0.0
 40
0.4519406227
 40
1.0
 40
1.0
 40
1.0
 40
1.0
 10
525.0701123432
 20
158.6437410581
 30
0.0
 10
525.017830363
 20
158.5932132698
 30
0.0
 10
524.9339363306
 20
158.4475391279
 30
0.0
 10
524.9175587307
 20
158.2844102552
 30
0.0
 10
524.9175587307
 20
158.1962386342
 30
0.0
  0
SPLINE
  5
807
100
AcDbEntity
  8
RUNDUNGEN
100
AcDbSpline
 62
7
  6
CONTINUOUS
 70
0
 71
3
 72
9
 73
5
 74
0
 42
0.0000001
 43
0.0000001
 44
0.0000000001
 40
0.0
 40
0.0
 40
0.0
 40
0.0
 40
0.2218387009
 40
1.0
 40
1.0
 40
1.0
 40
1.0
 10
565.1484692092
 20
113.0942170396
 30
0.0
 10
565.1608924006
 20
113.106228601
 30
0.0
 10
565.2099200732
 20
113.1680350867
 30
0.0
 10
565.2226452583
 20
113.2510606437
 30
0.0
 10
565.2226452583
 20
113.311676589
 30
0.0
  0
SPLINE
  5
808
100
AcDbEntity
  8
RUNDUNGEN
100
AcDbSpline
 62
7
  6
CONTINUOUS
 70
0
 71
3
 72
16
 73
12
 74
0
 42
0.0000001
 43
0.0000001
 44
0.0000000001
 40
0.0
 40
0.0
 40
0.0
 40
0.0
 40
0.0406934868
 40
0.0688788418
 40
0.1037507063
 40
0.1946661649
 40
0.3133767106
 40
0.4573894853
 40
0.622964099
 40
0.8055827269
 40
1.0
 40
1.0
 40
1.0
 40
1.0
 10
561.6129353033
 20
109.6791535301
 30
0.0
 10
561.5628264378
 20
109.6307049718
 30
0.0
 10
561.4335569616
 20
109.6016492611
 30
0.0
 10
561.2593001931
 20
109.6264365159
 30
0.0
 10
561.0044692638
 20
109.7004859514
 30
0.0
 10
560.6262393807
 20
109.8837453253
 30
0.0
 10
560.1102215937
 20
110.2018990682
 30
0.0
 10
559.514623623
 20
110.631062267
 30
0.0
 10
558.8564848426
 20
111.1583515856
 30
0.0
 10
558.1556550873
 20
111.7691114217
 30
0.0
 10
557.6839833673
 20
112.2104235157
 30
0.0
 10
557.4444706653
 20
112.4417750203
 30
0.0
  0
SPLINE
  5
809
100
AcDbEntity
  8
RUNDUNGEN
100
AcDbSpline
 62
7
  6
CONTINUOUS
 70
0
 71
3
 72
12
 73
8
 74
0
 42
0.0000001
 43
0.0000001
 44
0.0000000001
 40
0.0
 40
0.0
 40
0.0
 40
0.0
 40
0.1229684411
 40
0.2119574676
 40
0.3236052604
 40
0.6170597271
 40
1.0
 40
1.0
 40
1.0
 40
1.0
 10
488.0840711134
 20
189.1407252357
 30
0.0
 10
488.0268943848
 20
189.0854804906
 30
0.0
 10
487.8722220436
 20
189.0611996769
 30
0.0
 10
487.6701316622
 20
189.1020907145
 30
0.0
 10
487.3659555308
 20
189.2069900116
 30
0.0
 10
486.9157977689
 20
189.4483579338
 30
0.0
 10
486.5509440267
 20
189.6902900477
 30
0.0
 10
486.3490270496
 20
189.8335768121
 30
0.0
  0
SPLINE
  5
80A
100
AcDbEntity
  8
RUNDUNGEN
100
AcDbSpline
 62
7
  6
CONTINUOUS
 70
0
 71
3
 72
12
 73
8
 74
0
 42
0.0000001
 43
0.0000001
 44
0.0000000001
 40
0.0
 40
0.0
 40
0.0
 40
0.0
 40
0.1048397813
 40
0.1937661804
 40
0.3092677593
 40
0.6142494036
 40
1.0
 40
1.0
 40
1.0
 40
1.0
 10
487.3710942321
 20
211.1380952515
 30
0.0
 10
487.4019058276
 20
211.1679081041
 30
0.0
 10
487.3942949244
 20
211.2651937927
 30
0.0
 10
487.3529275262
 20
211.378901623
 30
0.0
 10
487.2604004329
 20
211.5687974943
 30
0.0
 10
487.0797539753
 20
211.8436307529
 30
0.0
 10
486.9070707963
 20
212.0680019307
 30
0.0
 10
486.8071767479
 20
212.1900943919
 30
0.0
  0
SPLINE
  5
80B
100
AcDbEntity
  8
RUNDUNGEN
100
AcDbSpline
 62
7
  6
CONTINUOUS
 70
0
 71
3
 72
9
 73
5
 74
0
 42
0.0000001
 43
0.0000001
 44
0.0000000001
 40
0.0
 40
0.0
 40
0.0
 40
0.0
 40
0.2218259981
 40
1.0
 40
1.0
 40
1.0
 40
1.0
 10
554.5356934515
 20
138.1113961277
 30
0.0
 10
554.5491512654
 20
138.1244072043
 30
0.0
 10
554.6022632436
 20
138.1913635502
 30
0.0
 10
554.6160435405
 20
138.2813068836
 30
0.0
 10
554.6160435405
 20
138.3469738359
 30
0.0
  0
SPLINE
  5
80C
100
AcDbEntity
  8
RUNDUNGEN
100
AcDbSpline
 62
7
  6
CONTINUOUS
 70
0
 71
3
 72
10
 73
6
 74
0
 42
0.0000001
 43
0.0000001
 44
0.0000000001
 40
0.0
 40
0.0
 40
0.0
 40
0.0
 40
0.3560986692
 40
0.6380542507
 40
1.0
 40
1.0
 40
1.0
 40
1.0
 10
551.0001595456
 20
134.6963326182
 30
0.0
 10
550.9185525767
 20
134.6174346239
 30
0.0
 10
550.6766588772
 20
134.6150855828
 30
0.0
 10
550.3820254022
 20
134.709103241
 30
0.0
 10
550.1918976826
 20
134.7941148858
 30
0.0
 10
550.088839252
 20
134.8459815438
 30
0.0
  0
SPLINE
  5
80D
100
AcDbEntity
  8
BEZUGSACHSEN
100
AcDbSpline
 62
7
  6
CONTINUOUS
 70
0
 71
3
 72
15
 73
11
 74
0
 42
0.0000001
 43
0.0000001
 44
0.0000000001
 40
0.0
 40
0.0
 40
0.0
 40
0.0
 40
0.0406872048
 40
0.0688708701
 40
0.1037373065
 40
0.1946522288
 40
0.3133671932
 40
0.4573948603
 40
0.6229776034
 40
1.0
 40
1.0
 40
1.0
 40
1.0
 10
487.7241622095
 20
197.7397015338
 30
0.0
 10
487.6782259323
 20
197.6953119338
 30
0.0
 10
487.5598017182
 20
197.6685740342
 30
0.0
 10
487.4000738309
 20
197.6912741252
 30
0.0
 10
487.1664933432
 20
197.7590951274
 30
0.0
 10
486.8197918102
 20
197.9270787884
 30
0.0
 10
486.3467692345
 20
198.2187052105
 30
0.0
 10
485.8007688512
 20
198.6120984697
 30
0.0
 10
484.9593511434
 20
199.2864347201
 30
0.0
 10
484.3287655464
 20
199.8607831573
 30
0.0
 10
483.903017375
 20
200.2720243115
 30
0.0
  0
SPLINE
  5
80E
100
AcDbEntity
  8
0
100
AcDbSpline
 62
7
  6
CONTINUOUS
 70
0
 71
3
 72
11
 73
7
 74
0
 42
0.0000001
 43
0.0000001
 44
0.0000000001
 40
0.0
 40
0.0
 40
0.0
 40
0.0
 40
0.176112773
 40
0.3892178591
 40
0.6608267208
 40
1.0
 40
1.0
 40
1.0
 40
1.0
 10
476.7257326297
 20
209.5920299445
 30
0.0
 10
476.8095788486
 20
209.6730057974
 30
0.0
 10
477.0469434449
 20
209.7999165461
 30
0.0
 10
477.4902133028
 20
209.8318592879
 30
0.0
 10
478.0307749732
 20
209.741536177
 30
0.0
 10
478.4159474043
 20
209.6147656265
 30
0.0
 10
478.625812077
 20
209.5350625681
 30
0.0
  0
SPLINE
  5
80F
100
AcDbEntity
  8
RUNDUNGEN
100
AcDbSpline
 62
7
  6
CONTINUOUS
 70
0
 71
3
 72
10
 73
6
 74
0
 42
0.0000001
 43
0.0000001
 44
0.0000000001
 40
0.0
 40
0.0
 40
0.0
 40
0.0
 40
0.5672539817
 40
0.803071974
 40
1.0
 40
1.0
 40
1.0
 40
1.0
 10
476.1729747563
 20
209.2362094134
 30
0.0
 10
475.1729270116
 20
210.458487341
 30
0.0
 10
473.8051102773
 20
212.2317027496
 30
0.0
 10
472.2776593991
 20
214.5604580866
 30
0.0
 10
471.6843380242
 20
215.6110677634
 30
0.0
 10
471.4417371198
 20
216.1027275465
 30
0.0
  0
SPLINE
  5
810
100
AcDbEntity
  8
RUNDUNGEN
100
AcDbSpline
 62
7
  6
CONTINUOUS
 70
0
 71
3
 72
9
 73
5
 74
0
 42
0.0000001
 43
0.0000001
 44
0.0000000001
 40
0.0
 40
0.0
 40
0.0
 40
0.0
 40
0.2592737009
 40
1.0
 40
1.0
 40
1.0
 40
1.0
 10
471.4006912384
 20
216.1866318752
 30
0.0
 10
471.3808195386
 20
216.2276117284
 30
0.0
 10
471.3049915728
 20
216.3860608289
 30
0.0
 10
471.2325127622
 20
216.5461243566
 30
0.0
 10
471.1811725328
 20
216.66568249
 30
0.0
  0
SPLINE
  5
811
100
AcDbEntity
  8
0
100
AcDbSpline
 62
7
  6
CONTINUOUS
 70
0
 71
3
 72
15
 73
11
 74
0
 42
0.0000001
 43
0.0000001
 44
0.0000000001
 40
0.0
 40
0.0
 40
0.0
 40
0.0
 40
0.2018499553
 40
0.3828567064
 40
0.5413894942
 40
0.6765595027
 40
0.7880615151
 40
0.8765600154
 40
0.9448337862
 40
1.0
 40
1.0
 40
1.0
 40
1.0
 10
475.5004385836
 20
200.0126197918
 30
0.0
 10
475.2434537486
 20
200.3951839354
 30
0.0
 10
474.7677649642
 20
201.1288449203
 30
0.0
 10
474.1384730396
 20
202.1932524494
 30
0.0
 10
473.6361848637
 20
203.154455449
 30
0.0
 10
473.2653482565
 20
204.0030393316
 30
0.0
 10
473.0274692581
 20
204.7323982367
 30
0.0
 10
472.9250250274
 20
205.3391726623
 30
0.0
 10
472.9571315224
 20
205.829928603
 30
0.0
 10
473.0995972018
 20
206.089466538
 30
0.0
 10
473.1901987238
 20
206.176966435
 30
0.0
  0
SPLINE
  5
812
100
AcDbEntity
  8
RUNDUNGEN
100
AcDbSpline
 62
7
  6
CONTINUOUS
 70
0
 71
3
 72
10
 73
6
 74
0
 42
0.0000001
 43
0.0000001
 44
0.0000000001
 40
0.0
 40
0.0
 40
0.0
 40
0.0
 40
0.6785007132
 40
0.878750155
 40
1.0
 40
1.0
 40
1.0
 40
1.0
 10
472.0739160678
 20
193.4077422879
 30
0.0
 10
471.9879212826
 20
193.5357596526
 30
0.0
 10
471.8820923436
 20
193.7092614451
 30
0.0
 10
471.8098122839
 20
193.9234288836
 30
0.0
 10
471.8231048822
 20
194.0051161957
 30
0.0
 10
471.8429537409
 20
194.0242353334
 30
0.0
  0
SPLINE
  5
813
100
AcDbEntity
  8
RUNDUNGEN
100
AcDbSpline
 62
7
  6
CONTINUOUS
 70
0
 71
3
 72
11
 73
7
 74
0
 42
0.0000001
 43
0.0000001
 44
0.0000000001
 40
0.0
 40
0.0
 40
0.0
 40
0.0
 40
0.2283935121
 40
0.4975019968
 40
0.7679047943
 40
1.0
 40
1.0
 40
1.0
 40
1.0
 10
477.4504017903
 20
186.3064345261
 30
0.0
 10
477.2741440923
 20
186.4315126428
 30
0.0
 10
476.9104181727
 20
186.7320852142
 30
0.0
 10
476.38647902
 20
187.2362331506
 30
0.0
 10
475.8959916815
 20
187.77775191
 30
0.0
 10
475.6032555811
 20
188.1537406327
 30
0.0
 10
475.4807862843
 20
188.3360562999
 30
0.0
  0
SPLINE
  5
814
100
AcDbEntity
  8
RUNDUNGEN
100
AcDbSpline
 62
7
  6
CONTINUOUS
 70
0
 71
3
 72
9
 73
5
 74
0
 42
0.0000001
 43
0.0000001
 44
0.0000000001
 40
0.0
 40
0.0
 40
0.0
 40
0.0
 40
0.2538116
 40
1.0
 40
1.0
 40
1.0
 40
1.0
 10
548.882675199
 20
120.7118343806
 30
0.0
 10
548.6645080886
 20
120.922567627
 30
0.0
 10
547.8173132444
 20
121.7654603679
 30
0.0
 10
547.0138877101
 20
122.6530590181
 30
0.0
 10
546.4491964729
 20
123.343235701
 30
0.0
  0
SPLINE
  5
815
100
AcDbEntity
  8
RUNDUNGEN
100
AcDbSpline
 62
7
  6
CONTINUOUS
 70
0
 71
3
 72
9
 73
5
 74
0
 42
0.0000001
 43
0.0000001
 44
0.0000000001
 40
0.0
 40
0.0
 40
0.0
 40
0.0
 40
0.2929719792
 40
1.0
 40
1.0
 40
1.0
 40
1.0
 10
554.6160435405
 20
140.6389240941
 30
0.0
 10
554.6160435405
 20
140.6616787615
 30
0.0
 10
554.6200958348
 20
140.7387151405
 30
0.0
 10
554.650741076
 20
140.8182132899
 30
0.0
 10
554.6902195023
 20
140.8563836032
 30
0.0
  0
SPLINE
  5
816
100
AcDbEntity
  8
RUNDUNGEN
100
AcDbSpline
 62
7
  6
CONTINUOUS
 70
0
 71
3
 72
9
 73
5
 74
0
 42
0.0000001
 43
0.0000001
 44
0.0000000001
 40
0.0
 40
0.0
 40
0.0
 40
0.0
 40
0.5354314211
 40
1.0
 40
1.0
 40
1.0
 40
1.0
 10
555.3231503217
 20
134.6786986439
 30
0.0
 10
554.9337343485
 20
135.0548455896
 30
0.0
 10
554.1883640038
 20
135.7388500921
 30
0.0
 10
553.4016952385
 20
136.3761173143
 30
0.0
 10
553.0222171141
 20
136.6530142065
 30
0.0
  0
SPLINE
  5
817
100
AcDbEntity
  8
RUNDUNGEN
100
AcDbSpline
 62
7
  6
CONTINUOUS
 70
0
 71
3
 72
14
 73
10
 74
0
 42
0.0000001
 43
0.0000001
 44
0.0000000001
 40
0.0
 40
0.0
 40
0.0
 40
0.0
 40
0.3278736629
 40
0.4853311912
 40
0.6306263484
 40
0.7584858509
 40
0.8644622694
 40
0.9453349565
 40
1.0
 40
1.0
 40
1.0
 40
1.0
 10
558.8586842277
 20
120.4940670864
 30
0.0
 10
558.2974286186
 20
121.0361983744
 30
0.0
 10
557.4951392504
 20
121.8690769231
 30
0.0
 10
556.5143576675
 20
123.0054245834
 30
0.0
 10
555.8770830701
 20
123.8086801661
 30
0.0
 10
555.3523235972
 20
124.5427755707
 30
0.0
 10
554.9573160594
 20
125.1814707588
 30
0.0
 10
554.7071704777
 20
125.6974030202
 30
0.0
 10
554.6160435405
 20
126.0149563948
 30
0.0
 10
554.6160435405
 20
126.1450575684
 30
0.0
  0
SPLINE
  5
818
100
AcDbEntity
  8
RUNDUNGEN
100
AcDbSpline
 62
7
  6
CONTINUOUS
 70
0
 71
3
 72
14
 73
10
 74
0
 42
0.0000001
 43
0.0000001
 44
0.0000000001
 40
0.0
 40
0.0
 40
0.0
 40
0.0
 40
0.2012572755
 40
0.3857885782
 40
0.5499429929
 40
0.6908692169
 40
0.8063236823
 40
0.8952180933
 40
1.0
 40
1.0
 40
1.0
 40
1.0
 10
545.3176369305
 20
140.67746472
 30
0.0
 10
545.1037669598
 20
140.9388607844
 30
0.0
 10
544.7012734773
 20
141.4462181262
 30
0.0
 10
544.1537404798
 20
142.1890521112
 30
0.0
 10
543.6953412966
 20
142.8724459047
 30
0.0
 10
543.3354191403
 20
143.4767753751
 30
0.0
 10
543.0785281424
 20
144.0060842869
 30
0.0
 10
542.9088123061
 20
144.472265279
 30
0.0
 10
542.8778783426
 20
144.8714733626
 30
0.0
 10
543.0043880148
 20
144.9936000621
 30
0.0
  0
SPLINE
  5
819
100
AcDbEntity
  8
RUNDUNGEN
100
AcDbSpline
 62
7
  6
CONTINUOUS
 70
0
 71
3
 72
11
 73
7
 74
0
 42
0.0000001
 43
0.0000001
 44
0.0000000001
 40
0.0
 40
0.0
 40
0.0
 40
0.0
 40
0.2170485118
 40
0.4713284978
 40
0.7403269935
 40
1.0
 40
1.0
 40
1.0
 40
1.0
 10
530.7850068971
 20
162.597432135
 30
0.0
 10
529.4510923967
 20
163.5440206556
 30
0.0
 10
526.6736328749
 20
165.7666323465
 30
0.0
 10
522.5554210086
 20
169.5339871749
 30
0.0
 10
518.4289472136
 20
173.7552664347
 30
0.0
 10
515.800978033
 20
176.7533029599
 30
0.0
 10
514.5618153902
 20
178.2678317963
 30
0.0
  0
SPLINE
  5
81A
100
AcDbEntity
  8
RUNDUNGEN
100
AcDbSpline
 62
7
  6
CONTINUOUS
 70
0
 71
3
 72
11
 73
7
 74
0
 42
0.0000001
 43
0.0000001
 44
0.0000000001
 40
0.0
 40
0.0
 40
0.0
 40
0.0
 40
0.2596730065
 40
0.5286715022
 40
0.7829514882
 40
1.0
 40
1.0
 40
1.0
 40
1.0
 10
527.2494729912
 20
146.8095135404
 30
0.0
 10
526.0103103484
 20
148.3240423768
 30
0.0
 10
523.3823411678
 20
151.322078902
 30
0.0
 10
519.2558673728
 20
155.5433581618
 30
0.0
 10
515.1376555065
 20
159.3107129902
 30
0.0
 10
512.3601959847
 20
161.5333246811
 30
0.0
 10
511.0262814843
 20
162.4799132017
 30
0.0
  0
SPLINE
  5
81B
100
AcDbEntity
  8
RUNDUNGEN
100
AcDbSpline
 62
7
  6
CONTINUOUS
 70
0
 71
3
 72
13
 73
9
 74
0
 42
0.0000001
 43
0.0000001
 44
0.0000000001
 40
0.0
 40
0.0
 40
0.0
 40
0.0
 40
0.3856974312
 40
0.5498575693
 40
0.6907703348
 40
0.8062569901
 40
0.8951722101
 40
1.0
 40
1.0
 40
1.0
 40
1.0
 10
485.5605743971
 20
210.3961391949
 30
0.0
 10
485.3940861778
 20
210.5996243552
 30
0.0
 10
485.1643947899
 20
210.8961549912
 30
0.0
 10
484.9016050566
 20
211.2876632238
 30
0.0
 10
484.7554241865
 20
211.5331840283
 30
0.0
 10
484.65101543
 20
211.7481840987
 30
0.0
 10
484.5820408312
 20
211.9376115173
 30
0.0
 10
484.5693561075
 20
212.0997720826
 30
0.0
 10
484.6207055221
 20
212.1494647836
 30
0.0
  0
SPLINE
  5
81C
100
AcDbEntity
  8
RUNDUNGEN
100
AcDbSpline
 62
7
  6
CONTINUOUS
 70
0
 71
3
 72
12
 73
8
 74
0
 42
0.0000001
 43
0.0000001
 44
0.0000000001
 40
0.0
 40
0.0
 40
0.0
 40
0.0
 40
0.0769163679
 40
0.1757857774
 40
0.42568196
 40
0.7145393197
 40
1.0
 40
1.0
 40
1.0
 40
1.0
 10
492.1786445899
 20
203.3342733368
 30
0.0
 10
492.077099088
 20
203.3792770213
 30
0.0
 10
491.8551611346
 20
203.5043870816
 30
0.0
 10
491.3490769013
 20
203.8537539962
 30
0.0
 10
490.6437272664
 20
204.4486446345
 30
0.0
 10
489.7921052483
 20
205.2808395095
 30
0.0
 10
489.2390530696
 20
205.9002305617
 30
0.0
 10
488.9780193926
 20
206.2192710311
 30
0.0
  0
SPLINE
  5
81D
100
AcDbEntity
  8
RUNDUNGEN
100
AcDbSpline
 62
7
  6
CONTINUOUS
 70
0
 71
3
 72
11
 73
7
 74
0
 42
0.0000001
 43
0.0000001
 44
0.0000000001
 40
0.0
 40
0.0
 40
0.0
 40
0.0
 40
0.3776464509
 40
0.6882547812
 40
0.8986661466
 40
1.0
 40
1.0
 40
1.0
 40
1.0
 10
564.8690918678
 20
132.2881541873
 30
0.0
 10
564.9076722322
 20
132.2508884169
 30
0.0
 10
564.9790508567
 20
132.1852400298
 30
0.0
 10
565.0833953186
 20
132.1061029916
 30
0.0
 10
565.1524094831
 20
132.0618914317
 30
0.0
 10
565.2055969573
 20
132.0479751968
 30
0.0
 10
565.2161654233
 20
132.0577459394
 30
0.0
  0
SPLINE
  5
81E
100
AcDbEntity
  8
RUNDUNGEN
100
AcDbSpline
 62
7
  6
CONTINUOUS
 70
0
 71
3
 72
12
 73
8
 74
0
 42
0.0000001
 43
0.0000001
 44
0.0000000001
 40
0.0
 40
0.0
 40
0.0
 40
0.0
 40
0.3829279487
 40
0.6763788394
 40
0.7880316563
 40
0.8770245698
 40
1.0
 40
1.0
 40
1.0
 40
1.0
 10
552.6561180827
 20
138.8620374789
 30
0.0
 10
552.8748469698
 20
138.7068204439
 30
0.0
 10
553.2700832137
 20
138.4447405269
 30
0.0
 10
553.7577222644
 20
138.1832674043
 30
0.0
 10
554.0872427913
 20
138.069617894
 30
0.0
 10
554.3061567643
 20
138.0253122262
 30
0.0
 10
554.4737689819
 20
138.0515272646
 30
0.0
 10
554.5356934515
 20
138.1113961277
 30
0.0
  0
SPLINE
  5
81F
100
AcDbEntity
  8
0
100
AcDbSpline
 62
7
  6
CONTINUOUS
 70
0
 71
3
 72
13
 73
9
 74
0
 42
0.0000001
 43
0.0000001
 44
0.0000000001
 40
0.0
 40
0.0
 40
0.0
 40
0.0
 40
0.3704485479
 40
0.6552555728
 40
0.7661428306
 40
0.857785806
 40
0.9335991113
 40
1.0
 40
1.0
 40
1.0
 40
1.0
 10
505.7903857376
 20
179.1573331562
 30
0.0
 10
505.4887736749
 20
179.3371663833
 30
0.0
 10
504.9441356853
 20
179.6366386769
 30
0.0
 10
504.2680602334
 20
179.9130483188
 30
0.0
 10
503.8151741385
 20
180.010809637
 30
0.0
 10
503.5499966921
 20
180.023774697
 30
0.0
 10
503.3293323594
 20
179.9809261273
 30
0.0
 10
503.2111080116
 20
179.9079778619
 30
0.0
 10
503.1658505146
 20
179.8642339165
 30
0.0
  0
SPLINE
  5
820
100
AcDbEntity
  8
RUNDUNGEN
100
AcDbSpline
 62
7
  6
CONTINUOUS
 70
0
 71
3
 72
16
 73
12
 74
0
 42
0.0000001
 43
0.0000001
 44
0.0000000001
 40
0.0
 40
0.0
 40
0.0
 40
0.0
 40
0.1944172731
 40
0.377035901
 40
0.5426105147
 40
0.6866232894
 40
0.8053338351
 40
0.8962492937
 40
0.9311211582
 40
0.9593065132
 40
1.0
 40
1.0
 40
1.0
 40
1.0
 10
560.9800045712
 20
115.8568385297
 30
0.0
 10
561.2195172732
 20
115.6254870251
 30
0.0
 10
561.6911889932
 20
115.1841749311
 30
0.0
 10
562.3920187485
 20
114.5734150951
 30
0.0
 10
563.0501575289
 20
114.0461257765
 30
0.0
 10
563.6457554996
 20
113.6169625777
 30
0.0
 10
564.1617732866
 20
113.2988088348
 30
0.0
 10
564.5400031697
 20
113.1155494609
 30
0.0
 10
564.794834099
 20
113.0415000254
 30
0.0
 10
564.9690908675
 20
113.0167127706
 30
0.0
 10
565.0983603437
 20
113.0457684813
 30
0.0
 10
565.1484692092
 20
113.0942170396
 30
0.0
  0
SPLINE
  5
821
100
AcDbEntity
  8
RUNDUNGEN
100
AcDbSpline
 62
7
  6
CONTINUOUS
 70
0
 71
3
 72
9
 73
5
 74
0
 42
0.0000001
 43
0.0000001
 44
0.0000000001
 40
0.0
 40
0.0
 40
0.0
 40
0.0
 40
0.2406098632
 40
1.0
 40
1.0
 40
1.0
 40
1.0
 10
549.9847303789
 20
126.7582992105
 30
0.0
 10
550.1668181446
 20
126.5357479792
 30
0.0
 10
550.9395086597
 20
125.6239162081
 30
0.0
 10
551.7654580981
 20
124.7574069457
 30
0.0
 10
552.4182091049
 20
124.12689789
 30
0.0
  0
SPLINE
  5
822
100
AcDbEntity
  8
RUNDUNGEN
100
AcDbSpline
 62
7
  6
CONTINUOUS
 70
0
 71
3
 72
11
 73
7
 74
0
 42
0.0000001
 43
0.0000001
 44
0.0000000001
 40
0.0
 40
0.0
 40
0.0
 40
0.0
 40
0.2321082203
 40
0.5025207165
 40
0.7716173832
 40
1.0
 40
1.0
 40
1.0
 40
1.0
 10
479.0163201902
 20
191.7511198093
 30
0.0
 10
479.1387963544
 20
191.5687939189
 30
0.0
 10
479.4315473262
 20
191.1927893784
 30
0.0
 10
479.9220435243
 20
190.6512647408
 30
0.0
 10
480.4459762325
 20
190.1471278646
 30
0.0
 10
480.8096864065
 20
189.8465701855
 30
0.0
 10
480.9859356962
 20
189.7214980355
 30
0.0
  0
SPLINE
  5
823
100
AcDbEntity
  8
0
100
AcDbSpline
 62
7
  6
CONTINUOUS
 70
0
 71
3
 72
15
 73
11
 74
0
 42
0.0000001
 43
0.0000001
 44
0.0000000001
 40
0.0
 40
0.0
 40
0.0
 40
0.0
 40
0.2018499553
 40
0.3828567064
 40
0.5413894942
 40
0.6765595027
 40
0.7880615151
 40
0.8765600154
 40
0.9448337862
 40
1.0
 40
1.0
 40
1.0
 40
1.0
 10
479.0359724895
 20
203.4276833012
 30
0.0
 10
478.7789876545
 20
203.8102474448
 30
0.0
 10
478.3032988701
 20
204.5439084298
 30
0.0
 10
477.6740069455
 20
205.6083159589
 30
0.0
 10
477.1717187696
 20
206.5695189584
 30
0.0
 10
476.8008821624
 20
207.4181028411
 30
0.0
 10
476.5630031641
 20
208.1474617462
 30
0.0
 10
476.4605589334
 20
208.7542361717
 30
0.0
 10
476.4926654283
 20
209.2449921125
 30
0.0
 10
476.6351311077
 20
209.5045300474
 30
0.0
 10
476.7257326297
 20
209.5920299445
 30
0.0
  0
SPLINE
  5
824
100
AcDbEntity
  8
RUNDUNGEN
100
AcDbSpline
 62
7
  6
CONTINUOUS
 70
0
 71
3
 72
9
 73
5
 74
0
 42
0.0000001
 43
0.0000001
 44
0.0000000001
 40
0.0
 40
0.0
 40
0.0
 40
0.0
 40
0.6294496393
 40
1.0
 40
1.0
 40
1.0
 40
1.0
 10
487.1457906944
 20
211.1601123578
 30
0.0
 10
487.1907153199
 20
211.1402023309
 30
0.0
 10
487.2612431228
 20
211.1099274602
 30
0.0
 10
487.3503052075
 20
211.1179800931
 30
0.0
 10
487.3710942321
 20
211.1380952515
 30
0.0
  0
SPLINE
  5
825
100
AcDbEntity
  8
0
100
AcDbSpline
 62
7
  6
CONTINUOUS
 70
0
 71
3
 72
9
 73
5
 74
0
 42
0.0000001
 43
0.0000001
 44
0.0000000001
 40
0.0
 40
0.0
 40
0.0
 40
0.0
 40
0.4519564197
 40
1.0
 40
1.0
 40
1.0
 40
1.0
 10
503.6174412556
 20
179.3967232068
 30
0.0
 10
503.5624100121
 20
179.3435323796
 30
0.0
 10
503.4741159502
 20
179.1901890095
 30
0.0
 10
503.4568679217
 20
179.0184814428
 30
0.0
 10
503.4568679217
 20
178.9256741366
 30
0.0
  0
SPLINE
  5
826
100
AcDbEntity
  8
0
100
AcDbSpline
 62
7
  6
CONTINUOUS
 70
0
 71
3
 72
9
 73
5
 74
0
 42
0.0000001
 43
0.0000001
 44
0.0000000001
 40
0.0
 40
0.0
 40
0.0
 40
0.0
 40
0.4520461653
 40
1.0
 40
1.0
 40
1.0
 40
1.0
 10
525.5217228138
 20
158.17625062
 30
0.0
 10
525.4721862522
 20
158.1283620845
 30
0.0
 10
525.392740879
 20
157.9903359904
 30
0.0
 10
525.3771781385
 20
157.8357981994
 30
0.0
 10
525.3771781385
 20
157.752280378
 30
0.0
  0
SPLINE
  5
827
100
AcDbEntity
  8
BEZUGSACHSEN
100
AcDbSpline
 62
7
  6
CONTINUOUS
 70
0
 71
3
 72
15
 73
11
 74
0
 42
0.0000001
 43
0.0000001
 44
0.0000000001
 40
0.0
 40
0.0
 40
0.0
 40
0.0
 40
0.3794262398
 40
0.5445784805
 40
0.6876534149
 40
0.8053423535
 40
0.8955272514
 40
0.9302589229
 40
0.9585053325
 40
1.0
 40
1.0
 40
1.0
 40
1.0
 10
485.5444533935
 20
201.4005240378
 30
0.0
 10
485.9105396317
 20
200.9845134101
 30
0.0
 10
486.4194167891
 20
200.3719853257
 30
0.0
 10
487.0107466025
 20
199.5598865015
 30
0.0
 10
487.3503885917
 20
199.0381806922
 30
0.0
 10
487.5979485792
 20
198.5888942161
 30
0.0
 10
487.7361274433
 20
198.2610833319
 30
0.0
 10
487.7868390085
 20
198.0418517985
 30
0.0
 10
487.7992605469
 20
197.8909660215
 30
0.0
 10
487.7677423324
 20
197.7818143113
 30
0.0
 10
487.7241622095
 20
197.7397015338
 30
0.0
  0
SPLINE
  5
828
100
AcDbEntity
  8
0
100
AcDbSpline
 62
7
  6
CONTINUOUS
 70
0
 71
3
 72
10
 73
6
 74
0
 42
0.0000001
 43
0.0000001
 44
0.0000000001
 40
0.0
 40
0.0
 40
0.0
 40
0.0
 40
0.5856523198
 40
0.8156449048
 40
1.0
 40
1.0
 40
1.0
 40
1.0
 10
529.4227191287
 20
156.6414765029
 30
0.0
 10
528.8220532129
 20
157.1000356147
 30
0.0
 10
527.963970084
 20
157.7145222365
 30
0.0
 10
526.842070594
 20
158.3534904878
 30
0.0
 10
526.3525711059
 20
158.5731307103
 30
0.0
 10
526.1277029197
 20
158.6507342825
 30
0.0
  0
SPLINE
  5
829
100
AcDbEntity
  8
0
100
AcDbSpline
 62
7
  6
CONTINUOUS
 70
0
 71
3
 72
9
 73
5
 74
0
 42
0.0000001
 43
0.0000001
 44
0.0000000001
 40
0.0
 40
0.0
 40
0.0
 40
0.0
 40
0.266391436
 40
1.0
 40
1.0
 40
1.0
 40
1.0
 10
526.1277029197
 20
158.6507342825
 30
0.0
 10
526.100145003
 20
158.6602447109
 30
0.0
 10
525.9962850499
 20
158.6947127461
 30
0.0
 10
525.8906529085
 20
158.7240750439
 30
0.0
 10
525.8122581662
 20
158.7413856844
 30
0.0
  0
SPLINE
  5
82A
100
AcDbEntity
  8
0
100
AcDbSpline
 62
7
  6
CONTINUOUS
 70
0
 71
3
 72
10
 73
6
 74
0
 42
0.0000001
 43
0.0000001
 44
0.0000000001
 40
0.0
 40
0.0
 40
0.0
 40
0.0
 40
0.3160994782
 40
0.5812200367
 40
1.0
 40
1.0
 40
1.0
 40
1.0
 10
525.8122581662
 20
158.7413856844
 30
0.0
 10
525.7327810822
 20
158.758935321
 30
0.0
 10
525.5841003523
 20
158.7829744339
 30
0.0
 10
525.3272471904
 20
158.7845012864
 30
0.0
 10
525.1476497498
 20
158.7186768898
 30
0.0
 10
525.0701123432
 20
158.6437410581
 30
0.0
  0
SPLINE
  5
82B
100
AcDbEntity
  8
RUNDUNGEN
100
AcDbSpline
 62
7
  6
CONTINUOUS
 70
0
 71
3
 72
10
 73
6
 74
0
 42
0.0000001
 43
0.0000001
 44
0.0000000001
 40
0.0
 40
0.0
 40
0.0
 40
0.0
 40
0.3698698647
 40
0.647960795
 40
1.0
 40
1.0
 40
1.0
 40
1.0
 10
484.6207055221
 20
212.1494647836
 30
0.0
 10
484.6553516106
 20
212.1829930668
 30
0.0
 10
484.7529656533
 20
212.192529037
 30
0.0
 10
484.8767427359
 20
212.1612673308
 30
0.0
 10
484.9542645644
 20
212.1313690715
 30
0.0
 10
484.9962178197
 20
212.1127759184
 30
0.0
  0
SPLINE
  5
82C
100
AcDbEntity
  8
RUNDUNGEN
100
AcDbSpline
 62
7
  6
CONTINUOUS
 70
0
 71
3
 72
11
 73
7
 74
0
 42
0.0000001
 43
0.0000001
 44
0.0000000001
 40
0.0
 40
0.0
 40
0.0
 40
0.0
 40
0.1663336643
 40
0.3759469007
 40
0.6511753727
 40
1.0
 40
1.0
 40
1.0
 40
1.0
 10
474.5031646347
 20
222.3620214105
 30
0.0
 10
474.4167717057
 20
222.2784650179
 30
0.0
 10
474.284121699
 20
222.0244111655
 30
0.0
 10
474.2680112561
 20
221.5465325315
 30
0.0
 10
474.3847653813
 20
220.9529922294
 30
0.0
 10
474.53518054
 20
220.5265187717
 30
0.0
 10
474.6288142529
 20
220.2925028483
 30
0.0
  0
SPLINE
  5
82D
100
AcDbEntity
  8
RUNDUNGEN
100
AcDbSpline
 62
7
  6
CONTINUOUS
 70
0
 71
3
 72
10
 73
6
 74
0
 42
0.0000001
 43
0.0000001
 44
0.0000000001
 40
0.0
 40
0.0
 40
0.0
 40
0.0
 40
0.1212916442
 40
0.3215845226
 40
1.0
 40
1.0
 40
1.0
 40
1.0
 10
475.3784087668
 20
197.4392242261
 30
0.0
 10
475.3585881229
 20
197.4200678686
 30
0.0
 10
475.3453816453
 20
197.3383798614
 30
0.0
 10
475.4176584876
 20
197.1242550235
 30
0.0
 10
475.5234783471
 20
196.9507886869
 30
0.0
 10
475.6094499738
 20
196.8228057974
 30
0.0
  0
SPLINE
  5
82E
100
AcDbEntity
  8
RUNDUNGEN
100
AcDbSpline
 62
7
  6
CONTINUOUS
 70
0
 71
3
 72
14
 73
10
 74
0
 42
0.0000001
 43
0.0000001
 44
0.0000000001
 40
0.0
 40
0.0
 40
0.0
 40
0.0
 40
0.0563083523
 40
0.1252818743
 40
0.2140273503
 40
0.3253679894
 40
0.4601495001
 40
0.6181802666
 40
1.0
 40
1.0
 40
1.0
 40
1.0
 10
543.0043880148
 20
144.9936000621
 30
0.0
 10
543.0394092189
 20
145.0274079441
 30
0.0
 10
543.1402392878
 20
145.0795005992
 30
0.0
 10
543.3280130935
 20
145.0887793596
 30
0.0
 10
543.5577080012
 20
145.0454800234
 30
0.0
 10
543.8317285133
 20
144.9499225727
 30
0.0
 10
544.1489983791
 20
144.8027205939
 30
0.0
 10
544.6595591218
 20
144.5201598112
 30
0.0
 10
545.0484542656
 20
144.2606797726
 30
0.0
 10
545.3176369305
 20
144.0696591184
 30
0.0
  0
SPLINE
  5
82F
100
AcDbEntity
  8
RUNDUNGEN
100
AcDbSpline
 62
7
  6
CONTINUOUS
 70
0
 71
3
 72
16
 73
12
 74
0
 42
0.0000001
 43
0.0000001
 44
0.0000000001
 40
0.0
 40
0.0
 40
0.0
 40
0.0
 40
0.0406934243
 40
0.0688787598
 40
0.1037505872
 40
0.1946660079
 40
0.3133765043
 40
0.457389213
 40
0.6229638074
 40
0.8055826256
 40
1.0
 40
1.0
 40
1.0
 40
1.0
 10
554.6902195023
 20
140.8563836032
 30
0.0
 10
554.7403283142
 20
140.9048320653
 30
0.0
 10
554.8695975402
 20
140.933887953
 30
0.0
 10
555.043854141
 20
140.9091007119
 30
0.0
 10
555.2986849775
 20
140.8350515817
 30
0.0
 10
555.6769147007
 20
140.6517922636
 30
0.0
 10
556.1929323279
 20
140.3336387708
 30
0.0
 10
556.7885301639
 20
139.9044757363
 30
0.0
 10
557.4466691448
 20
139.3771863532
 30
0.0
 10
558.1474992867
 20
138.7664262155
 30
0.0
 10
558.6191713954
 20
138.3251137839
 30
0.0
 10
558.8586842277
 20
138.0937621534
 30
0.0
  0
SPLINE
  5
830
100
AcDbEntity
  8
BEZUGSACHSEN
100
AcDbSpline
 62
7
  6
CONTINUOUS
 70
0
 71
3
 72
12
 73
8
 74
0
 42
0.0000001
 43
0.0000001
 44
0.0000000001
 40
0.0
 40
0.0
 40
0.0
 40
0.0
 40
0.1339254882
 40
0.224551911
 40
0.3357033967
 40
0.6239583049
 40
1.0
 40
1.0
 40
1.0
 40
1.0
 10
480.0818725405
 20
205.6513565854
 30
0.0
 10
480.1246338416
 20
205.6926781108
 30
0.0
 10
480.2319513392
 20
205.7208382171
 30
0.0
 10
480.3790811215
 20
205.7048595479
 30
0.0
 10
480.5909039652
 20
205.6498817225
 30
0.0
 10
480.9055566617
 20
205.5066026799
 30
0.0
 10
481.1598575002
 20
205.3566588036
 30
0.0
 10
481.3007211974
 20
205.2670197945
 30
0.0
  0
SPLINE
  5
831
100
AcDbEntity
  8
RUNDUNGEN
100
AcDbSpline
 62
7
  6
CONTINUOUS
 70
0
 71
3
 72
11
 73
7
 74
0
 42
0.0000001
 43
0.0000001
 44
0.0000000001
 40
0.0
 40
0.0
 40
0.0
 40
0.0
 40
0.2170485118
 40
0.4713284978
 40
0.7403269935
 40
1.0
 40
1.0
 40
1.0
 40
1.0
 10
514.5618153902
 20
165.8949767112
 30
0.0
 10
515.8957298906
 20
164.9483881905
 30
0.0
 10
518.6731894124
 20
162.7257764996
 30
0.0
 10
522.7914012788
 20
158.9584216713
 30
0.0
 10
526.9178750737
 20
154.7371424115
 30
0.0
 10
529.5458442543
 20
151.7391058862
 30
0.0
 10
530.7850068971
 20
150.2245770498
 30
0.0
  0
SPLINE
  5
832
100
AcDbEntity
  8
RUNDUNGEN
100
AcDbSpline
 62
7
  6
CONTINUOUS
 70
0
 71
3
 72
12
 73
8
 74
0
 42
0.0000001
 43
0.0000001
 44
0.0000000001
 40
0.0
 40
0.0
 40
0.0
 40
0.0
 40
0.3838855418
 40
0.6782978225
 40
0.7901167575
 40
0.8789021861
 40
1.0
 40
1.0
 40
1.0
 40
1.0
 10
487.3909161156
 20
190.9899771878
 30
0.0
 10
487.5370942025
 20
190.7723670916
 30
0.0
 10
487.7834993694
 20
190.3795477924
 30
0.0
 10
488.0278694887
 20
189.8972047251
 30
0.0
 10
488.1322675167
 20
189.5730027263
 30
0.0
 10
488.1713188975
 20
189.3604583565
 30
0.0
 10
488.1435419352
 20
189.1981865574
 30
0.0
 10
488.0840711134
 20
189.1407252357
 30
0.0
  0
SPLINE
  5
833
100
AcDbEntity
  8
0
100
AcDbSpline
 62
7
  6
CONTINUOUS
 70
0
 71
3
 72
9
 73
5
 74
0
 42
0.0000001
 43
0.0000001
 44
0.0000000001
 40
0.0
 40
0.0
 40
0.0
 40
0.0
 40
0.2853597975
 40
1.0
 40
1.0
 40
1.0
 40
1.0
 10
525.5330679482
 20
158.250292308
 30
0.0
 10
525.4839981643
 20
158.2649219317
 30
0.0
 10
525.3109834027
 20
158.3116062908
 30
0.0
 10
525.1311208404
 20
158.3400489988
 30
0.0
 10
525.0029157432
 20
158.3373684532
 30
0.0
  0
SPLINE
  5
834
100
AcDbEntity
  8
0
100
AcDbSpline
 62
7
  6
CONTINUOUS
 70
0
 71
3
 72
8
 73
4
 74
0
 42
0.0000001
 43
0.0000001
 44
0.0000000001
 40
0.0
 40
0.0
 40
0.0
 40
0.0
 40
1.0
 40
1.0
 40
1.0
 40
1.0
 10
525.0029157432
 20
158.3373684532
 30
0.0
 10
524.9771380703
 20
158.3368294869
 30
0.0
 10
524.9513528125
 20
158.3352974131
 30
0.0
 10
524.9257156968
 20
158.3325556617
 30
0.0
  0
SPLINE
  5
835
100
AcDbEntity
  8
0
100
AcDbSpline
 62
7
  6
CONTINUOUS
 70
0
 71
3
 72
9
 73
5
 74
0
 42
0.0000001
 43
0.0000001
 44
0.0000000001
 40
0.0
 40
0.0
 40
0.0
 40
0.0
 40
0.2920093717
 40
1.0
 40
1.0
 40
1.0
 40
1.0
 10
503.6338061944
 20
179.5020723722
 30
0.0
 10
503.5747737877
 20
179.5177116114
 30
0.0
 10
503.3715661156
 20
179.5645638597
 30
0.0
 10
503.1576010448
 20
179.5845197678
 30
0.0
 10
503.0113714928
 20
179.5612818001
 30
0.0
  0
SPLINE
  5
836
100
AcDbEntity
  8
0
100
AcDbSpline
 62
7
  6
CONTINUOUS
 70
0
 71
3
 72
11
 73
7
 74
0
 42
0.0000001
 43
0.0000001
 44
0.0000000001
 40
0.0
 40
0.0
 40
0.0
 40
0.0
 40
0.2449766722
 40
0.4923857263
 40
0.743902958
 40
1.0
 40
1.0
 40
1.0
 40
1.0
 10
320.944164293
 20
396.7384779818
 30
0.0
 10
320.944164293
 20
399.4388617249
 30
0.0
 10
321.7013635313
 20
404.8953921522
 30
0.0
 10
325.0345991882
 20
412.4952169097
 30
0.0
 10
330.3481064843
 20
419.0259815158
 30
0.0
 10
334.9546642887
 20
422.3334815125
 30
0.0
 10
337.4395926828
 20
423.672979834
 30
0.0
  0
SPLINE
  5
837
100
AcDbEntity
  8
0
100
AcDbSpline
 62
7
  6
CONTINUOUS
 70
0
 71
3
 72
11
 73
7
 74
0
 42
0.0000001
 43
0.0000001
 44
0.0000000001
 40
0.0
 40
0.0
 40
0.0
 40
0.0
 40
0.2560971002
 40
0.5076144326
 40
0.7550235183
 40
1.0
 40
1.0
 40
1.0
 40
1.0
 10
369.449185457
 20
423.6727378582
 30
0.0
 10
371.9340568657
 20
422.3332235322
 30
0.0
 10
376.5404964007
 20
419.0257071508
 30
0.0
 10
381.853855401
 20
412.4949894932
 30
0.0
 10
385.1869894605
 20
404.8952624729
 30
0.0
 10
385.944164293
 20
399.4388182924
 30
0.0
 10
385.944164293
 20
396.7384779818
 30
0.0
  0
SPLINE
  5
838
100
AcDbEntity
  8
0
100
AcDbSpline
 62
7
  6
CONTINUOUS
 70
0
 71
3
 72
15
 73
11
 74
0
 42
0.0000001
 43
0.0000001
 44
0.0000000001
 40
0.0
 40
0.0
 40
0.0
 40
0.0
 40
0.1239959435
 40
0.2481202404
 40
0.372492434
 40
0.4972044883
 40
0.622314777
 40
0.7478414519
 40
0.8737586712
 40
1.0
 40
1.0
 40
1.0
 40
1.0
 10
294.944164293
 20
396.7384779818
 30
0.0
 10
294.944164293
 20
399.8134513323
 30
0.0
 10
295.4585318914
 20
405.9788312169
 30
0.0
 10
297.751272664
 20
414.9690231389
 30
0.0
 10
301.5016270069
 20
423.4768943584
 30
0.0
 10
306.6067106433
 20
431.2756386377
 30
0.0
 10
312.9278172257
 20
438.1639140814
 30
0.0
 10
320.2968515695
 20
443.9656063807
 30
0.0
 10
328.5167906433
 20
448.5336413862
 30
0.0
 10
334.4226788075
 20
450.6806359465
 30
0.0
 10
337.4398570244
 20
451.5158883053
 30
0.0
  0
SPLINE
  5
839
100
AcDbEntity
  8
0
100
AcDbSpline
 62
7
  6
CONTINUOUS
 70
0
 71
3
 72
15
 73
11
 74
0
 42
0.0000001
 43
0.0000001
 44
0.0000000001
 40
0.0
 40
0.0
 40
0.0
 40
0.0
 40
0.1262413898
 40
0.2521586112
 40
0.3776852258
 40
0.5027954261
 40
0.627507446
 40
0.7518795872
 40
0.8760038159
 40
1.0
 40
1.0
 40
1.0
 40
1.0
 10
369.4487950781
 20
451.5157973028
 30
0.0
 10
372.4659566551
 20
450.68053198
 30
0.0
 10
378.3718084938
 20
448.5335163925
 30
0.0
 10
386.5916895615
 20
443.965464121
 30
0.0
 10
393.9606621128
 20
438.1637683101
 30
0.0
 10
400.2817170135
 20
431.2755094099
 30
0.0
 10
405.386754862
 20
423.4767907749
 30
0.0
 10
409.13707679
 20
414.9689557901
 30
0.0
 10
411.4298002159
 20
405.9787998375
 30
0.0
 10
411.944164293
 20
399.8134434603
 30
0.0
 10
411.944164293
 20
396.7384779818
 30
0.0
  0
SPLINE
  5
83A
100
AcDbEntity
  8
0
100
AcDbSpline
 62
7
  6
CONTINUOUS
 70
0
 71
3
 72
15
 73
11
 74
0
 42
0.0000001
 43
0.0000001
 44
0.0000000001
 40
0.0
 40
0.0
 40
0.0
 40
0.0
 40
0.1238822635
 40
0.2479169902
 40
0.3722408425
 40
0.4969548797
 40
0.6221141048
 40
0.7477192114
 40
0.8737156515
 40
1.0
 40
1.0
 40
1.0
 40
1.0
 10
411.944164293
 20
324.2940410101
 30
0.0
 10
411.944164293
 20
320.9479296605
 30
0.0
 10
411.3344703395
 20
314.2358127487
 30
0.0
 10
408.6216300662
 20
304.5001234921
 30
0.0
 10
404.1995614513
 20
295.3844637554
 30
0.0
 10
398.2118221714
 20
287.1759067467
 30
0.0
 10
390.8502448256
 20
280.1242265368
 30
0.0
 10
382.3455061888
 20
274.4416829539
 30
0.0
 10
372.9651159155
 20
270.2972328918
 30
0.0
 10
366.3147923249
 20
268.6402667716
 30
0.0
 10
362.9467569074
 20
268.1006295151
 30
0.0
  0
SPLINE
  5
83B
100
AcDbEntity
  8
0
100
AcDbSpline
 62
7
  6
CONTINUOUS
 70
0
 71
3
 72
15
 73
11
 74
0
 42
0.0000001
 43
0.0000001
 44
0.0000000001
 40
0.0
 40
0.0
 40
0.0
 40
0.0
 40
0.1262844527
 40
0.2522809289
 40
0.3778860032
 40
0.5030451388
 40
0.6277590962
 40
0.7520829371
 40
0.8761175357
 40
1.0
 40
1.0
 40
1.0
 40
1.0
 10
343.9418864851
 20
268.1005801447
 30
0.0
 10
340.5738327376
 20
268.6402053225
 30
0.0
 10
333.9234697092
 20
270.2971395471
 30
0.0
 10
324.5430220296
 20
274.4415691206
 30
0.0
 10
316.0382323352
 20
280.1241046374
 30
0.0
 10
308.6766094899
 20
287.1757876154
 30
0.0
 10
302.6888284361
 20
295.3843576484
 30
0.0
 10
298.266727011
 20
304.5000396115
 30
0.0
 10
295.5538643348
 20
314.2357657805
 30
0.0
 10
294.944164293
 20
320.9479111173
 30
0.0
 10
294.944164293
 20
324.2940410101
 30
0.0
  0
SPLINE
  5
83C
100
AcDbEntity
  8
0
100
AcDbSpline
 62
7
  6
CONTINUOUS
 70
0
 71
3
 72
15
 73
11
 74
0
 42
0.0000001
 43
0.0000001
 44
0.0000000001
 40
0.0
 40
0.0
 40
0.0
 40
0.0
 40
0.1215738615
 40
0.2436012185
 40
0.3664971357
 40
0.4905648449
 40
0.6159815311
 40
0.7427821719
 40
0.8708633871
 40
1.0
 40
1.0
 40
1.0
 40
1.0
 10
385.944164293
 20
324.2940410101
 30
0.0
 10
385.944164293
 20
322.6664196541
 30
0.0
 10
385.6724113231
 20
319.398674414
 30
0.0
 10
384.4587202755
 20
314.6225121379
 30
0.0
 10
382.4647717512
 20
310.0782422774
 30
0.0
 10
379.7343819493
 20
305.8808937839
 30
0.0
 10
376.3304168491
 20
302.138024127
 30
0.0
 10
372.3337286293
 20
298.9491616277
 30
0.0
 10
367.8449174792
 20
296.4017834062
 30
0.0
 10
364.60728739
 20
295.1815791194
 30
0.0
 10
362.9474297908
 20
294.6979808681
 30
0.0
  0
SPLINE
  5
83D
100
AcDbEntity
  8
0
100
AcDbSpline
 62
7
  6
CONTINUOUS
 70
0
 71
3
 72
15
 73
11
 74
0
 42
0.0000001
 43
0.0000001
 44
0.0000000001
 40
0.0
 40
0.0
 40
0.0
 40
0.0
 40
0.1291365882
 40
0.2572178515
 40
0.3840185648
 40
0.5094353233
 40
0.6335030864
 40
0.7563990112
 40
0.8784262945
 40
1.0
 40
1.0
 40
1.0
 40
1.0
 10
343.9406875199
 20
294.698041792
 30
0.0
 10
342.2808420284
 20
295.1816466745
 30
0.0
 10
339.0432383138
 20
296.4018682014
 30
0.0
 10
334.5544634748
 20
298.9492548717
 30
0.0
 10
330.5578102221
 20
302.1381206959
 30
0.0
 10
327.1538778084
 20
305.8809859421
 30
0.0
 10
324.4235151425
 20
310.0783214117
 30
0.0
 10
322.4295899072
 20
314.6225714986
 30
0.0
 10
321.2159135636
 20
319.3987063643
 30
0.0
 10
320.944164293
 20
322.6664306299
 30
0.0
 10
320.944164293
 20
324.2940410101
 30
0.0
  0
ELLIPSE
  5
83E
100
AcDbEntity
  8
RUNDUNGEN
100
AcDbEllipse
 62
7
  6
CONTINUOUS
 10
701.2948729428
 20
259.0384139553
 30
0.0
 11
13.5917808382
 21
-4.203350773
 31
0.0
 40
0.4203155586
 41
1.5396153878
 42
1.5416988386
  0
ELLIPSE
  5
83F
100
AcDbEntity
  8
RUNDUNGEN
100
AcDbEllipse
 62
7
  6
CONTINUOUS
 10
758.5577649141
 20
243.6948682953
 30
0.0
 11
13.872502875
 21
-3.1556818687
 31
0.0
 40
0.4203155586
 41
1.5998770104
 42
1.6019772748
  0
ELLIPSE
  5
840
100
AcDbEntity
  8
0
100
AcDbEllipse
 62
7
  6
CONTINUOUS
 10
832.2573097646
 20
243.6948682953
 30
0.0
 11
13.872502875
 21
3.1556818687
 31
0.0
 40
0.4203155586
 41
1.5396153787
 42
1.5417156432
  0
ELLIPSE
  5
841
100
AcDbEntity
  8
0
100
AcDbEllipse
 62
7
  6
CONTINUOUS
 10
889.520201736
 20
259.0384139553
 30
0.0
 11
13.5917808382
 21
4.203350773
 31
0.0
 40
0.4203155586
 41
1.599893815
 42
1.6019772658
  0
ELLIPSE
  5
842
100
AcDbEntity
  8
0
100
AcDbEllipse
 62
7
  6
CONTINUOUS
 10
345.3219551144
 20
256.9405417807
 30
0.0
 11
0.3665992131
 21
7.9984660413
 31
0.0
 40
0.427321232
 41
-1.2894137339
 42
0.0189671095
  0
ELLIPSE
  5
843
100
AcDbEntity
  8
RUNDUNGEN
100
AcDbEllipse
 62
7
  6
CONTINUOUS
 10
361.5663734716
 20
256.9405417807
 30
0.0
 11
-0.3665992131
 21
7.9984660413
 31
0.0
 40
0.427321232
 41
-0.0189671095
 42
1.2894137339
  0
ENDSEC
  0
SECTION
  2
OBJECTS
  0
DICTIONARY
  5
C
100
AcDbDictionary
280
0
281
1
  3
ACAD_GROUP
350
D
  3
ACAD_MLINESTYLE
350
17
  3
ACAD_LAYOUT
350
1A
  3
ACAD_PLOTSETTINGS
350
19
  3
ACAD_PLOTSTYLENAME
350
E
  0
DICTIONARY
  5
D
102
{ACAD_REACTORS
330
C
102
}
100
AcDbDictionary
280
0
281
1
  0
ACDBDICTIONARYWDFLT
  5
E
102
{ACAD_REACTORS
330
C
102
}
100
AcDbDictionary
281
1
  3
Normal
350
F
100
AcDbDictionaryWithDefault
340
F
  0
DICTIONARY
  5
17
102
{ACAD_REACTORS
330
C
102
}
100
AcDbDictionary
280
0
281
1
  3
Standard
350
18
  0
DICTIONARY
  5
19
102
{ACAD_REACTORS
330
C
102
}
100
AcDbDictionary
281
1
  0
DICTIONARY
  5
1A
102
{ACAD_REACTORS
330
C
102
}
100
AcDbDictionary
281
1
  3
Model
350
844
  3
Layout1
350
845
  0
ACDBPLACEHOLDER
  5
F
102
{ACAD_REACTORS
330
E
102
}
  0
MLINESTYLE
  5
18
102
{ACAD_REACTORS
330
17
102
}
100
AcDbMlineStyle
  2
STANDARD
 70
0
  3

 62
256
 51
90.0
 52
90.0
 71
2
 49
0.5
 62
256
  6
BYLAYER
 49
-0.5
 62
256
  6
BYLAYER
  0
LAYOUT
  5
844
102
{ACAD_REACTORS
330
1A
102
}
100
AcDbPlotSettings
  1

  2
none_device
  4
ISO_A0_(1189.00_x_841.00_MM)
  6

 40
0.0
 41
0.0
 42
0.0
 43
0.0
 44
1189.0
 45
841.0
 46
0.0
 47
0.0
 48
0.0
 49
0.0
140
0.0
141
0.0
142
1.0
143
1.0
 70
1024
 72
1
 73
0
 74
0
  7

 75
0
147
1.0
148
0.0
149
0.0
100
AcDbLayout
  1
Model
 70
0
 71
0
 10
0.0
 20
0.0
 11
1189.0
 21
841.0
 12
0.0
 22
0.0
 32
0.0
 14
0.0
 24
0.0
 34
0.0
 15
0.0
 25
0.0
 35
0.0
146
0.0
 13
0.0
 23
0.0
 33
0.0
 16
1.0
 26
0.0
 36
0.0
 17
0.0
 27
1.0
 37
0.0
 76
0
330
20B
345
0
346
0
  0
LAYOUT
  5
845
102
{ACAD_REACTORS
330
1A
102
}
100
AcDbPlotSettings
  1

  2
none_device
  4
ISO_A0_(1189.00_x_841.00_MM)
  6

 40
0.0
 41
0.0
 42
0.0
 43
0.0
 44
1189.0
 45
841.0
 46
0.0
 47
0.0
 48
0.0
 49
0.0
140
0.0
141
0.0
142
1.0
143
1.0
 70
0
 72
1
 73
0
 74
0
  7

 75
0
147
1.0
148
0.0
149
0.0
100
AcDbLayout
  1
Layout1
 70
0
 71
1
 10
0.0
 20
0.0
 11
1189.0
 21
841.0
 12
0.0
 22
0.0
 32
0.0
 14
0.0
 24
0.0
 34
0.0
 15
0.0
 25
0.0
 35
0.0
146
0.0
 13
0.0
 23
0.0
 33
0.0
 16
1.0
 26
0.0
 36
0.0
 17
0.0
 27
1.0
 37
0.0
 76
0
330
20C
345
0
346
0
  0
ENDSEC
  0
EOF
