999
DXF file: ISAK-RG-2-10_250_7903203_M34586-P-10.dxf
999
Pro/ENGINEER 2010140 by Parametric Technology Corporation
  0
SECTION
  2
HEADER
  9
$ACADVER
  1
AC1015
  9
$DWGCODEPAGE
  3
ANSI_1252
  9
$EXTMAX
 10
1189.0
 20
841.0
 30
0.0
  9
$EXTMIN
 10
0.0
 20
0.0
 30
0.0
  9
$LIMMIN
 10
0.0
 20
0.0
  9
$LIMMAX
 10
1189.0
 20
841.0
  9
$VIEWCTR
 10
594.5
 20
420.5
  9
$VIEWSIZE
 40
841.0
  9
$CLAYER
  8
0
  9
$LTSCALE
 40
65.395
  9
$CELTYPE
  6
BYLAYER
  9
$DIMSCALE
 40
1.0
  9
$DIMASZ
 40
3.5
  9
$DIMEXO
 40
7.43125
  9
$DIMDLI
 40
45.182
  9
$DIMEXE
 40
21.402
  9
$DIMCEN
 40
10.701
  9
$DIMLFAC
 40
1.0
  9
$DIMBLK
  1
_FILLED
  9
$DIMTXT
 40
3.5
  9
$DIMTOL
 70
1
  9
$DIMLIM
 70
0
  9
$DIMTFAC
 40
1.0
  9
$DIMTP
 40
0.005
  9
$DIMTM
 40
0.005
  9
$PDMODE
 70
3
  9
$PDSIZE
 40
0.3125
  9
$HANDSEED
  5
831
  9
$TILEMODE
 70
1
  9
$MEASUREMENT
 70
1
  9
$INSUNITS
 70
4
  0
ENDSEC
  0
SECTION
  2
CLASSES
  0
CLASS
  1
ACDBDICTIONARYWDFLT
  2
AcDbDictionaryWithDefault
  3
AutoCAD 2000
 90
0
280
0
281
0
  0
CLASS
  1
ACDBPLACEHOLDER
  2
AcDbPlaceHolder
  3
AutoCAD 2000
 90
0
280
0
281
0
  0
CLASS
  1
LAYOUT
  2
AcDbLayout
  3
AutoCAD 2000
 90
0
280
0
281
0
  0
ENDSEC
  0
SECTION
  2
TABLES
  0
TABLE
  2
VPORT
  5
8
100
AcDbSymbolTable
 70
2
  0
VPORT
  5
1F4
100
AcDbSymbolTableRecord
100
AcDbViewportTableRecord
  2
*ACTIVE
 70
0
 10
0.0
 20
0.0
 11
1.0
 21
1.0
 12
594.5
 22
420.5
 13
0.0
 23
0.0
 14
1.0
 24
1.0
 15
0.0
 25
0.0
 16
0.0
 26
0.0
 36
1.0
 17
0.0
 27
0.0
 37
0.0
 40
841.0
 41
1.4137931034
 42
50.0
 43
0.0
 44
0.0
 50
0.0
 51
0.0
 71
0
 72
100
 73
1
 74
1
 75
0
 76
0
 77
0
 78
0
  0
ENDTAB
  0
TABLE
  2
LTYPE
  5
5
100
AcDbSymbolTable
 70
6
  0
LTYPE
  5
14
100
AcDbSymbolTableRecord
100
AcDbLinetypeTableRecord
  2
BYBLOCK
 70
0
  3

 72
65
 73
0
 40
0.0
  0
LTYPE
  5
15
100
AcDbSymbolTableRecord
100
AcDbLinetypeTableRecord
  2
BYLAYER
 70
0
  3

 72
65
 73
0
 40
0.0
  0
LTYPE
  5
16
100
AcDbSymbolTableRecord
100
AcDbLinetypeTableRecord
  2
CONTINUOUS
 70
64
  3
Solid line
 72
65
 73
0
 40
0.0
  0
LTYPE
  5
1F5
100
AcDbSymbolTableRecord
100
AcDbLinetypeTableRecord
  2
CENTER
 70
64
  3
____ _ ____ _ ____ _ ____ _ ____ _ ____ _ ____
 72
65
 73
4
 40
0.6
 49
0.375
 74
0
 49
-0.075
 74
0
 49
0.075
 74
0
 49
-0.075
 74
0
  0
LTYPE
  5
1F6
100
AcDbSymbolTableRecord
100
AcDbLinetypeTableRecord
  2
HIDDEN
 70
64
  3
- - - - - - - - - - - - - - - - - - - -
 72
65
 73
2
 40
0.2
 49
0.1
 74
0
 49
-0.1
 74
0
  0
LTYPE
  5
1F7
100
AcDbSymbolTableRecord
100
AcDbLinetypeTableRecord
  2
PHANTOM
 70
64
  3
_____ _ _ _____ _ _ _____ _ _ _____
 72
65
 73
6
 40
0.8
 49
0.45
 74
0
 49
-0.05
 74
0
 49
0.1
 74
0
 49
-0.05
 74
0
 49
0.1
 74
0
 49
-0.05
 74
0
  0
LTYPE
  5
1F8
100
AcDbSymbolTableRecord
100
AcDbLinetypeTableRecord
  2
DOT
 70
64
  3
. . . . . . . . . . . . . . . . . . . .
 72
65
 73
2
 40
0.2
 49
0.1
 74
0
 49
-0.1
 74
0
  0
LTYPE
  5
1F9
100
AcDbSymbolTableRecord
100
AcDbLinetypeTableRecord
  2
DASHED
 70
64
  3
- - - - - - - - - - - - - - - - - - - -
 72
65
 73
2
 40
0.2
 49
0.1
 74
0
 49
-0.1
 74
0
  0
ENDTAB
  0
TABLE
  2
LAYER
  5
2
100
AcDbSymbolTable
 70
36
  0
LAYER
  5
10
100
AcDbSymbolTableRecord
100
AcDbLayerTableRecord
  2
0
 70
0
 62
7
  6
CONTINUOUS
370
-3
390
F
  0
LAYER
  5
1FA
100
AcDbSymbolTableRecord
100
AcDbLayerTableRecord
  2
DEFAULT_1
 70
0
 62
7
  6
CENTER
370
-3
390
F
  0
LAYER
  5
1FB
100
AcDbSymbolTableRecord
100
AcDbLayerTableRecord
  2
DEFAULT_2
 70
0
 62
8
  6
HIDDEN
370
-3
390
F
  0
LAYER
  5
1FC
100
AcDbSymbolTableRecord
100
AcDbLayerTableRecord
  2
DEFAULT_3
 70
0
 62
7
  6
PHANTOM
370
-3
390
F
  0
LAYER
  5
1FD
100
AcDbSymbolTableRecord
100
AcDbLayerTableRecord
  2
BEZUGSACHSEN
 70
0
 62
7
  6
CONTINUOUS
370
-3
390
F
  0
LAYER
  5
1FE
100
AcDbSymbolTableRecord
100
AcDbLayerTableRecord
  2
BEZUGSEBENEN
 70
0
 62
7
  6
CONTINUOUS
370
-3
390
F
  0
LAYER
  5
1FF
100
AcDbSymbolTableRecord
100
AcDbLayerTableRecord
  2
BG_STARTBEZUEGE
 70
0
 62
7
  6
CONTINUOUS
370
-3
390
F
  0
LAYER
  5
200
100
AcDbSymbolTableRecord
100
AcDbLayerTableRecord
  2
FASEN
 70
0
 62
7
  6
CONTINUOUS
370
-3
390
F
  0
LAYER
  5
201
100
AcDbSymbolTableRecord
100
AcDbLayerTableRecord
  2
HILFEN
 70
0
 62
7
  6
CONTINUOUS
370
-3
390
F
  0
LAYER
  5
202
100
AcDbSymbolTableRecord
100
AcDbLayerTableRecord
  2
KONSTRUKTIONSELEMENTE
 70
0
 62
7
  6
CONTINUOUS
370
-3
390
F
  0
LAYER
  5
203
100
AcDbSymbolTableRecord
100
AcDbLayerTableRecord
  2
NORM
 70
0
 62
7
  6
CONTINUOUS
370
-3
390
F
  0
LAYER
  5
204
100
AcDbSymbolTableRecord
100
AcDbLayerTableRecord
  2
PLATZIERUNG
 70
0
 62
7
  6
CONTINUOUS
370
-3
390
F
  0
LAYER
  5
205
100
AcDbSymbolTableRecord
100
AcDbLayerTableRecord
  2
RUNDUNGEN
 70
0
 62
7
  6
CONTINUOUS
370
-3
390
F
  0
LAYER
  5
206
100
AcDbSymbolTableRecord
100
AcDbLayerTableRecord
  2
TEIL_STARTBEZUEGE
 70
0
 62
7
  6
CONTINUOUS
370
-3
390
F
  0
LAYER
  5
207
100
AcDbSymbolTableRecord
100
AcDbLayerTableRecord
  2
T_STARTBEZUEGE
 70
0
 62
7
  6
CONTINUOUS
370
-3
390
F
  0
ENDTAB
  0
TABLE
  2
STYLE
  5
3
100
AcDbSymbolTable
 70
1
  0
STYLE
  5
11
100
AcDbSymbolTableRecord
100
AcDbTextStyleTableRecord
  2
STANDARD
 70
0
 40
0.0
 41
0.7
 50
0.0
 71
0
 42
0.2
  3
txt
  4

  0
STYLE
  5
208
100
AcDbSymbolTableRecord
100
AcDbTextStyleTableRecord
  2
TEXTSTYLE_1
 70
0
 40
0.0
 41
0.8
 50
0.0
 71
0
 42
0.2
  3
gdt
  4

  0
ENDTAB
  0
TABLE
  2
VIEW
  5
6
100
AcDbSymbolTable
 70
0
  0
ENDTAB
  0
TABLE
  2
UCS
  5
7
100
AcDbSymbolTable
 70
0
  0
ENDTAB
  0
TABLE
  2
APPID
  5
9
100
AcDbSymbolTable
 70
1
  0
APPID
  5
209
100
AcDbSymbolTableRecord
100
AcDbRegAppTableRecord
  2
ACAD
 70
0
  0
ENDTAB
  0
TABLE
  2
BLOCK_RECORD
  5
1
100
AcDbSymbolTable
 70
0
  0
BLOCK_RECORD
  5
20A
100
AcDbSymbolTableRecord
100
AcDbBlockTableRecord
  2
*Model_Space
  0
BLOCK_RECORD
  5
20B
100
AcDbSymbolTableRecord
100
AcDbBlockTableRecord
  2
*Paper_Space
  0
ENDTAB
  0
TABLE
  2
DIMSTYLE
  5
A
100
AcDbSymbolTable
 70
1
100
AcDbDimStyleTable
 71
0
  0
DIMSTYLE
105
20C
100
AcDbSymbolTableRecord
100
AcDbDimStyleTableRecord
  2
STANDARD
 70
0
  3

  4

 40
1.0
 41
3.5
 42
0.0625
 43
0.38
 44
0.18
 45
0.0
 46
0.0
 47
0.005
 48
0.005
140
3.5
141
0.09
142
0.0
143
25.4
144
1.0
145
0.0
146
1.0
147
0.09
 71
1.0
 72
0.0
 73
0
 74
0
 75
0
 76
0
 77
1
 78
8
170
0
171
2
172
0
173
0
174
0
175
0
176
0
177
0
178
5
270
2
271
3
272
3
273
2
274
2
275
0
280
0
281
0
282
0
283
1
284
8
285
0
286
0
287
3
288
0
340
11
  0
ENDTAB
  0
ENDSEC
  0
SECTION
  2
BLOCKS
  0
BLOCK
  5
20
100
AcDbEntity
  8
0
100
AcDbBlockBegin
  2
*Model_Space
 70
0
 10
0.0
 20
0.0
 30
0.0
  3
*Model_Space
  1

  0
ENDBLK
  5
21
100
AcDbEntity
  8
0
100
AcDbBlockEnd
  0
BLOCK
  5
1C
100
AcDbEntity
  8
0
100
AcDbBlockBegin
  2
*Paper_Space
 70
0
 10
0.0
 20
0.0
 30
0.0
  3
*Paper_Space
  1

  0
ENDBLK
  5
1D
100
AcDbEntity
  8
0
100
AcDbBlockEnd
  0
ENDSEC
  0
SECTION
  2
ENTITIES
  0
MTEXT
  5
20D
100
AcDbEntity
  8
0
100
AcDbMText
 62
5
  6
CONTINUOUS
  7
STANDARD
 71
1
 72
1
 10
605.8467804512
 20
517.4542883344
 30
0.0
 11
0.0
 21
1.0
 31
0.0
 44
0.9
  1
RUD
 40
11.0
 41
29.3333333333
  0
MTEXT
  5
20E
100
AcDbEntity
  8
0
100
AcDbMText
 62
5
  6
CONTINUOUS
  7
STANDARD
 71
1
 72
1
 10
892.2479198903
 20
463.9624681931
 30
0.0
 11
0.0
 21
1.0
 31
0.0
 44
0.9
  1
ISAK-RG 2-10/250
 40
11.0
 41
134.619047619
  0
MTEXT
  5
20F
100
AcDbEntity
  8
0
100
AcDbMText
 62
5
  6
CONTINUOUS
  7
STANDARD
 71
1
 72
1
 10
278.5150212432
 20
441.9959867137
 30
0.0
 11
0.0
 21
1.0
 31
0.0
 44
0.9
  1
RUD ISAK-RG 2-10/250
 40
11.0
 41
170.5
  0
LINE
  5
210
100
AcDbEntity
  8
0
100
AcDbLine
 62
7
  6
CONTINUOUS
 10
0.0
 20
0.0
 11
0.0
 21
841.0
  0
LINE
  5
211
100
AcDbEntity
  8
0
100
AcDbLine
 62
7
  6
CONTINUOUS
 10
0.0
 20
0.0
 11
1189.0
 21
0.0
  0
LINE
  5
212
100
AcDbEntity
  8
0
100
AcDbLine
 62
7
  6
CONTINUOUS
 10
0.0
 20
841.0
 11
1189.0
 21
841.0
  0
LINE
  5
213
100
AcDbEntity
  8
0
100
AcDbLine
 62
7
  6
CONTINUOUS
 10
1189.0
 20
0.0
 11
1189.0
 21
841.0
  0
LINE
  5
214
100
AcDbEntity
  8
RUNDUNGEN
100
AcDbLine
 62
7
  6
CONTINUOUS
 10
623.7643210066
 20
51.7694297417
 11
626.0342466984
 21
51.1612049857
  0
LINE
  5
215
100
AcDbEntity
  8
RUNDUNGEN
100
AcDbLine
 62
7
  6
CONTINUOUS
 10
677.5180932396
 20
37.3661498818
 11
679.7880189314
 21
36.7579251258
  0
LINE
  5
216
100
AcDbEntity
  8
RUNDUNGEN
100
AcDbLine
 62
7
  6
CONTINUOUS
 10
633.5429911657
 20
57.9338526604
 11
640.1712069381
 21
56.1578275969
  0
LINE
  5
217
100
AcDbEntity
  8
RUNDUNGEN
100
AcDbLine
 62
7
  6
CONTINUOUS
 10
667.7734378452
 20
48.761832116
 11
674.4016536177
 21
46.9858070525
  0
LINE
  5
218
100
AcDbEntity
  8
0
100
AcDbLine
 62
7
  6
CONTINUOUS
 10
651.0763959567
 20
95.694737845
 11
655.7128399229
 21
94.4524064286
  0
LINE
  5
219
100
AcDbEntity
  8
0
100
AcDbLine
 62
7
  6
CONTINUOUS
 10
658.1718951486
 20
93.7935045667
 11
659.0991839419
 21
93.5450382834
  0
LINE
  5
21A
100
AcDbEntity
  8
0
100
AcDbLine
 62
7
  6
CONTINUOUS
 10
663.5163182326
 20
92.3614707173
 11
664.5870591014
 21
92.0745665662
  0
LINE
  5
21B
100
AcDbEntity
  8
0
100
AcDbLine
 62
7
  6
CONTINUOUS
 10
672.6551177363
 20
89.9127367705
 11
676.0145759498
 21
89.0125726552
  0
LINE
  5
21C
100
AcDbEntity
  8
0
100
AcDbLine
 62
7
  6
CONTINUOUS
 10
651.1679023077
 20
96.036244196
 11
655.8043462738
 21
94.7939127795
  0
LINE
  5
21D
100
AcDbEntity
  8
0
100
AcDbLine
 62
7
  6
CONTINUOUS
 10
658.2634014996
 20
94.1350109176
 11
659.1906902928
 21
93.8865446343
  0
LINE
  5
21E
100
AcDbEntity
  8
0
100
AcDbLine
 62
7
  6
CONTINUOUS
 10
663.6078245836
 20
92.7029770683
 11
664.3997266845
 21
92.4907875398
  0
LINE
  5
21F
100
AcDbEntity
  8
0
100
AcDbLine
 62
7
  6
CONTINUOUS
 10
672.7466240872
 20
90.2542431215
 11
676.1060823008
 21
89.3540790061
  0
LINE
  5
220
100
AcDbEntity
  8
0
100
AcDbLine
 62
7
  6
CONTINUOUS
 10
676.2179083291
 20
89.6901407159
 11
673.7654192314
 21
90.3472831891
  0
LINE
  5
221
100
AcDbEntity
  8
0
100
AcDbLine
 62
7
  6
CONTINUOUS
 10
654.3386775518
 20
95.6990730952
 11
652.8897888124
 21
96.0873016629
  0
LINE
  5
222
100
AcDbEntity
  8
0
100
AcDbLine
 62
7
  6
CONTINUOUS
 10
653.2329445013
 20
96.3247762366
 11
654.1602332945
 21
96.0763099533
  0
LINE
  5
223
100
AcDbEntity
  8
0
100
AcDbLine
 62
7
  6
CONTINUOUS
 10
653.3244508523
 20
96.6662825875
 11
654.2517396455
 21
96.4178163042
  0
LINE
  5
224
100
AcDbEntity
  8
0
100
AcDbLine
 62
7
  6
CONTINUOUS
 10
654.017626352
 20
96.9929823375
 11
653.8147819284
 21
97.0473343369
  0
LINE
  5
225
100
AcDbEntity
  8
0
100
AcDbLine
 62
7
  6
CONTINUOUS
 10
654.4347523474
 20
97.1008290061
 11
654.1884412617
 21
97.1668278626
  0
LINE
  5
226
100
AcDbEntity
  8
0
100
AcDbLine
 62
7
  6
CONTINUOUS
 10
653.7537746399
 20
97.2832964329
 11
653.5074635541
 21
97.3492952894
  0
LINE
  5
227
100
AcDbEntity
  8
0
100
AcDbLine
 62
7
  6
CONTINUOUS
 10
653.3290192969
 20
97.7265321474
 11
653.8361303557
 21
97.5906521488
  0
LINE
  5
228
100
AcDbEntity
  8
0
100
AcDbLine
 62
7
  6
CONTINUOUS
 10
654.2707969775
 20
97.4741835785
 11
654.7779080363
 21
97.3383035798
  0
LINE
  5
229
100
AcDbEntity
  8
0
100
AcDbLine
 62
7
  6
CONTINUOUS
 10
659.7879827329
 20
96.1156703677
 11
662.106204716
 21
95.4945046595
  0
LINE
  5
22A
100
AcDbEntity
  8
0
100
AcDbLine
 62
7
  6
CONTINUOUS
 10
653.4205256478
 20
98.0680384984
 11
653.9276367066
 21
97.9321584997
  0
LINE
  5
22B
100
AcDbEntity
  8
0
100
AcDbLine
 62
7
  6
CONTINUOUS
 10
654.3623033285
 20
97.8156899294
 11
654.8694143873
 21
97.6798099307
  0
LINE
  5
22C
100
AcDbEntity
  8
0
100
AcDbLine
 62
7
  6
CONTINUOUS
 10
654.8877156575
 20
97.7481112009
 11
654.3806045987
 21
97.8839911996
  0
LINE
  5
22D
100
AcDbEntity
  8
0
100
AcDbLine
 62
7
  6
CONTINUOUS
 10
653.9459379768
 20
98.0004597699
 11
653.438826918
 21
98.1363397686
  0
LINE
  5
22E
100
AcDbEntity
  8
0
100
AcDbLine
 62
7
  6
CONTINUOUS
 10
659.8794890838
 20
96.4571767187
 11
662.1977110669
 21
95.8360110104
  0
LINE
  5
22F
100
AcDbEntity
  8
0
100
AcDbLine
 62
7
  6
CONTINUOUS
 10
653.781982607
 20
98.3738143422
 11
654.0282936927
 21
98.3078154857
  0
LINE
  5
230
100
AcDbEntity
  8
0
100
AcDbLine
 62
7
  6
CONTINUOUS
 10
654.4629603145
 20
98.1913469154
 11
654.7092714002
 21
98.1253480589
  0
LINE
  5
231
100
AcDbEntity
  8
0
100
AcDbLine
 62
7
  6
CONTINUOUS
 10
662.6682672403
 20
96.0466692353
 11
659.9636749267
 21
96.7713625615
  0
LINE
  5
232
100
AcDbEntity
  8
0
100
AcDbLine
 62
7
  6
CONTINUOUS
 10
654.1991086024
 20
98.4816610109
 11
654.4019530259
 21
98.4273090114
  0
LINE
  5
233
100
AcDbEntity
  8
0
100
AcDbLine
 62
7
  6
CONTINUOUS
 10
653.8734889579
 20
98.7153206932
 11
654.1198000436
 21
98.6493218367
  0
LINE
  5
234
100
AcDbEntity
  8
0
100
AcDbLine
 62
7
  6
CONTINUOUS
 10
654.5544666655
 20
98.5328532664
 11
654.8007777512
 21
98.4668544099
  0
LINE
  5
235
100
AcDbEntity
  8
0
100
AcDbLine
 62
7
  6
CONTINUOUS
 10
654.2906149534
 20
98.8231673618
 11
654.4934593769
 21
98.7688153624
  0
LINE
  5
236
100
AcDbEntity
  8
0
100
AcDbLine
 62
7
  6
CONTINUOUS
 10
674.6804827409
 20
93.7623466986
 11
673.7531939476
 21
94.0108129819
  0
LINE
  5
237
100
AcDbEntity
  8
0
100
AcDbLine
 62
7
  6
CONTINUOUS
 10
660.2064107883
 20
97.6772651298
 11
659.2791219951
 21
97.9257314131
  0
LINE
  5
238
100
AcDbEntity
  8
0
100
AcDbLine
 62
7
  6
CONTINUOUS
 10
654.9837904531
 20
99.1498671118
 11
654.0565016598
 21
99.3983333951
  0
LINE
  5
239
100
AcDbEntity
  8
0
100
AcDbLine
 62
7
  6
CONTINUOUS
 10
653.8780574026
 20
99.7755702531
 11
655.326946142
 21
99.3873416855
  0
LINE
  5
23A
100
AcDbEntity
  8
0
100
AcDbLine
 62
7
  6
CONTINUOUS
 10
673.9069246172
 20
94.5845436515
 11
677.2867025081
 21
93.678934895
  0
LINE
  5
23B
100
AcDbEntity
  8
0
100
AcDbLine
 62
7
  6
CONTINUOUS
 10
659.4328526646
 20
98.4994620827
 11
663.0647337715
 21
97.5263024731
  0
LINE
  5
23C
100
AcDbEntity
  8
0
100
AcDbLine
 62
7
  6
CONTINUOUS
 10
653.9695637535
 20
100.1170766041
 11
655.418452493
 21
99.7288480364
  0
LINE
  5
23D
100
AcDbEntity
  8
0
100
AcDbLine
 62
7
  6
CONTINUOUS
 10
673.9984309682
 20
94.9260500024
 11
677.3782088591
 21
94.0204412459
  0
LINE
  5
23E
100
AcDbEntity
  8
0
100
AcDbLine
 62
7
  6
CONTINUOUS
 10
659.5243590156
 20
98.8409684337
 11
663.1562401224
 21
97.8678088241
  0
LINE
  5
23F
100
AcDbEntity
  8
0
100
AcDbLine
 62
7
  6
CONTINUOUS
 10
677.4420750246
 20
94.3400717299
 11
674.082616811
 21
95.2402358453
  0
LINE
  5
240
100
AcDbEntity
  8
0
100
AcDbLine
 62
7
  6
CONTINUOUS
 10
672.0541725758
 20
95.78375584
 11
671.1268837826
 21
96.0322221233
  0
LINE
  5
241
100
AcDbEntity
  8
0
100
AcDbLine
 62
7
  6
CONTINUOUS
 10
667.4813489659
 20
97.0090402334
 11
666.5540601727
 21
97.2575065167
  0
LINE
  5
242
100
AcDbEntity
  8
0
100
AcDbLine
 62
7
  6
CONTINUOUS
 10
663.2312753302
 20
98.1478440319
 11
659.5993942234
 21
99.1210036414
  0
LINE
  5
243
100
AcDbEntity
  8
0
100
AcDbLine
 62
7
  6
CONTINUOUS
 10
657.1403389977
 20
99.7799055033
 11
652.5038950315
 21
101.0222369198
  0
LINE
  5
244
100
AcDbEntity
  8
0
100
AcDbLine
 62
7
  6
CONTINUOUS
 10
859.886692861
 20
127.6557090386
 11
855.2845117919
 21
126.4225583378
  0
LINE
  5
245
100
AcDbEntity
  8
0
100
AcDbLine
 62
7
  6
CONTINUOUS
 10
818.3446653566
 20
116.5245563169
 11
813.7424842875
 21
115.291405616
  0
LINE
  5
246
100
AcDbEntity
  8
KONSTRUKTIONSELEMENTE
100
AcDbLine
 62
7
  6
CONTINUOUS
 10
695.5365992209
 20
115.291405616
 11
690.9706227793
 21
116.5148553162
  0
LINE
  5
247
100
AcDbEntity
  8
0
100
AcDbLine
 62
7
  6
CONTINUOUS
 10
690.9706227793
 20
116.5148553162
 11
690.9344181518
 21
116.5245563169
  0
LINE
  5
248
100
AcDbEntity
  8
0
100
AcDbLine
 62
7
  6
CONTINUOUS
 10
653.9945717165
 20
126.4225583378
 11
653.958367089
 21
126.4322593384
  0
LINE
  5
249
100
AcDbEntity
  8
KONSTRUKTIONSELEMENTE
100
AcDbLine
 62
7
  6
CONTINUOUS
 10
653.958367089
 20
126.4322593384
 11
649.3923906474
 21
127.6557090386
  0
LINE
  5
24A
100
AcDbEntity
  8
BEZUGSACHSEN
100
AcDbLine
 62
7
  6
CONTINUOUS
 10
840.1484088834
 20
133.1797162074
 11
828.0743360548
 21
129.9444781437
  0
LINE
  5
24B
100
AcDbEntity
  8
BEZUGSACHSEN
100
AcDbLine
 62
7
  6
CONTINUOUS
 10
839.1799925296
 20
136.7938952427
 11
827.105919701
 21
133.558657179
  0
LINE
  5
24C
100
AcDbEntity
  8
BEZUGSACHSEN
100
AcDbLine
 62
7
  6
CONTINUOUS
 10
837.4645908689
 20
143.1958613958
 11
825.3905180403
 21
139.960623332
  0
LINE
  5
24D
100
AcDbEntity
  8
BEZUGSACHSEN
100
AcDbLine
 62
7
  6
CONTINUOUS
 10
836.4961745151
 20
146.8100404311
 11
824.4221016865
 21
143.5748023673
  0
LINE
  5
24E
100
AcDbEntity
  8
0
100
AcDbLine
 62
7
  6
CONTINUOUS
 10
853.5263322776
 20
151.833360067
 11
843.0113517078
 21
149.0158795149
  0
LINE
  5
24F
100
AcDbEntity
  8
0
100
AcDbLine
 62
7
  6
CONTINUOUS
 10
817.6768731856
 20
142.2275264542
 11
807.1618926158
 21
139.4100459021
  0
LINE
  5
250
100
AcDbEntity
  8
0
100
AcDbLine
 62
7
  6
CONTINUOUS
 10
805.6377143131
 20
145.0983567675
 11
822.7917832538
 21
149.6947756871
  0
LINE
  5
251
100
AcDbEntity
  8
0
100
AcDbLine
 62
7
  6
CONTINUOUS
 10
834.8480850342
 20
152.9252520128
 11
852.0021539749
 21
157.5216709324
  0
LINE
  5
252
100
AcDbEntity
  8
RUNDUNGEN
100
AcDbLine
 62
7
  6
CONTINUOUS
 10
635.0729426229
 20
104.9414360909
 11
638.6577901773
 21
105.6604274575
  0
LINE
  5
253
100
AcDbEntity
  8
RUNDUNGEN
100
AcDbLine
 62
7
  6
CONTINUOUS
 10
660.5368872832
 20
110.2010571544
 11
656.0558278402
 21
109.3023179462
  0
LINE
  5
254
100
AcDbEntity
  8
RUNDUNGEN
100
AcDbLine
 62
7
  6
CONTINUOUS
 10
635.9880061324
 20
108.3564996004
 11
639.2431533019
 21
109.0093649388
  0
LINE
  5
255
100
AcDbEntity
  8
RUNDUNGEN
100
AcDbLine
 62
7
  6
CONTINUOUS
 10
661.4519507926
 20
113.6161206639
 11
656.9708913497
 21
112.7173814557
  0
LINE
  5
256
100
AcDbEntity
  8
RUNDUNGEN
100
AcDbLine
 62
7
  6
CONTINUOUS
 10
634.7782663597
 20
112.4566875206
 11
631.1934188053
 21
111.7376961541
  0
LINE
  5
257
100
AcDbEntity
  8
BEZUGSACHSEN
100
AcDbLine
 62
7
  6
CONTINUOUS
 10
669.130674625
 20
133.1797162074
 11
681.2047474536
 21
129.9444781437
  0
LINE
  5
258
100
AcDbEntity
  8
BEZUGSACHSEN
100
AcDbLine
 62
7
  6
CONTINUOUS
 10
670.0990909788
 20
136.7938952427
 11
682.1731638074
 21
133.558657179
  0
LINE
  5
259
100
AcDbEntity
  8
BEZUGSACHSEN
100
AcDbLine
 62
7
  6
CONTINUOUS
 10
671.8144926395
 20
143.1958613958
 11
683.8885654681
 21
139.960623332
  0
LINE
  5
25A
100
AcDbEntity
  8
BEZUGSACHSEN
100
AcDbLine
 62
7
  6
CONTINUOUS
 10
672.7829089933
 20
146.8100404311
 11
684.8569818219
 21
143.5748023673
  0
LINE
  5
25B
100
AcDbEntity
  8
RUNDUNGEN
100
AcDbLine
 62
7
  6
CONTINUOUS
 10
655.7527512308
 20
151.833360067
 11
666.2677318006
 21
149.0158795149
  0
LINE
  5
25C
100
AcDbEntity
  8
RUNDUNGEN
100
AcDbLine
 62
7
  6
CONTINUOUS
 10
691.6022103228
 20
142.2275264542
 11
702.1171908927
 21
139.4100459021
  0
LINE
  5
25D
100
AcDbEntity
  8
RUNDUNGEN
100
AcDbLine
 62
7
  6
CONTINUOUS
 10
703.6413691953
 20
145.0983567675
 11
686.4873002546
 21
149.6947756871
  0
LINE
  5
25E
100
AcDbEntity
  8
RUNDUNGEN
100
AcDbLine
 62
7
  6
CONTINUOUS
 10
674.4309984742
 20
152.9252520128
 11
657.2769295335
 21
157.5216709324
  0
LINE
  5
25F
100
AcDbEntity
  8
RUNDUNGEN
100
AcDbLine
 62
7
  6
CONTINUOUS
 10
686.2165981926
 20
97.777689721
 11
677.1578560798
 21
105.7474819879
  0
LINE
  5
260
100
AcDbEntity
  8
RUNDUNGEN
100
AcDbLine
 62
7
  6
CONTINUOUS
 10
678.0729195893
 20
109.1625454974
 11
687.1316617021
 21
101.1927532305
  0
LINE
  5
261
100
AcDbEntity
  8
0
100
AcDbLine
 62
7
  6
CONTINUOUS
 10
805.0565732541
 20
161.5055162436
 11
807.8223414309
 21
162.246601593
  0
LINE
  5
262
100
AcDbEntity
  8
0
100
AcDbLine
 62
7
  6
CONTINUOUS
 10
841.5360889803
 20
171.2801730227
 11
844.3018573794
 21
172.0212584317
  0
LINE
  5
263
100
AcDbEntity
  8
0
100
AcDbLine
 62
7
  6
CONTINUOUS
 10
836.1971003911
 20
169.9660823466
 11
813.1030865177
 21
163.7780599792
  0
LINE
  5
264
100
AcDbEntity
  8
RUNDUNGEN
100
AcDbLine
 62
7
  6
CONTINUOUS
 10
630.7810845963
 20
120.3339427638
 11
629.8848727077
 21
120.1541949222
  0
LINE
  5
265
100
AcDbEntity
  8
RUNDUNGEN
100
AcDbLine
 62
7
  6
CONTINUOUS
 10
631.6961481057
 20
123.7490062733
 11
630.7999362171
 21
123.5692584316
  0
LINE
  5
266
100
AcDbEntity
  8
0
100
AcDbLine
 62
7
  6
CONTINUOUS
 10
696.6217577484
 20
152.4053903971
 11
697.0761338199
 21
152.4936828163
  0
LINE
  5
267
100
AcDbEntity
  8
0
100
AcDbLine
 62
7
  6
CONTINUOUS
 10
692.4774556205
 20
155.8263161131
 11
692.931831685
 21
155.9146085065
  0
LINE
  5
268
100
AcDbEntity
  8
0
100
AcDbLine
 62
7
  6
CONTINUOUS
 10
664.7273109217
 20
163.7870502073
 11
664.4132218379
 21
163.7661890772
  0
LINE
  5
269
100
AcDbEntity
  8
0
100
AcDbLine
 62
7
  6
CONTINUOUS
 10
692.5082656869
 20
156.343165813
 11
692.180611413
 21
156.3259394646
  0
LINE
  5
26A
100
AcDbEntity
  8
0
100
AcDbLine
 62
7
  6
CONTINUOUS
 10
672.8109647629
 20
159.415599492
 11
672.4009314377
 21
159.4204465438
  0
LINE
  5
26B
100
AcDbEntity
  8
0
100
AcDbLine
 62
7
  6
CONTINUOUS
 10
668.2056241573
 20
160.6495967881
 11
667.7955902831
 21
160.6544439871
  0
LINE
  5
26C
100
AcDbEntity
  8
0
100
AcDbLine
 62
7
  6
CONTINUOUS
 10
696.6788228052
 20
153.0202262045
 11
696.2507025771
 21
153.0299196274
  0
LINE
  5
26D
100
AcDbEntity
  8
0
100
AcDbLine
 62
7
  6
CONTINUOUS
 10
695.8373190227
 20
156.7114015121
 11
696.2654398257
 21
156.7017079352
  0
LINE
  5
26E
100
AcDbEntity
  8
0
100
AcDbLine
 62
7
  6
CONTINUOUS
 10
672.2433998496
 20
158.8325306532
 11
672.7493785165
 21
158.8019751337
  0
LINE
  5
26F
100
AcDbEntity
  8
0
100
AcDbLine
 62
7
  6
CONTINUOUS
 10
667.638058695
 20
160.0665280965
 11
668.1440368129
 21
160.0359727241
  0
LINE
  5
270
100
AcDbEntity
  8
0
100
AcDbLine
 62
7
  6
CONTINUOUS
 10
702.7810143182
 20
151.28012787
 11
702.2524269862
 21
151.3167413723
  0
LINE
  5
271
100
AcDbEntity
  8
0
100
AcDbLine
 62
7
  6
CONTINUOUS
 10
696.093170989
 20
152.4420037368
 11
696.6217577484
 21
152.4053903971
  0
LINE
  5
272
100
AcDbEntity
  8
0
100
AcDbLine
 62
7
  6
CONTINUOUS
 10
702.6952856126
 20
154.9788359491
 11
703.2238717949
 21
154.9422227549
  0
LINE
  5
273
100
AcDbEntity
  8
0
100
AcDbLine
 62
7
  6
CONTINUOUS
 10
696.4229713954
 20
157.2896237572
 11
695.8943840634
 21
157.3262372594
  0
LINE
  5
274
100
AcDbEntity
  8
0
100
AcDbLine
 62
7
  6
CONTINUOUS
 10
702.1211506597
 20
150.826811452
 11
702.7502039482
 21
150.763278187
  0
LINE
  5
275
100
AcDbEntity
  8
0
100
AcDbLine
 62
7
  6
CONTINUOUS
 10
703.355148103
 20
155.4321526066
 11
702.7260948168
 21
155.4956858801
  0
LINE
  5
276
100
AcDbEntity
  8
0
100
AcDbLine
 62
7
  6
CONTINUOUS
 10
661.3057146075
 20
161.7632745809
 11
661.8813822518
 21
161.6090249005
  0
LINE
  5
277
100
AcDbEntity
  8
0
100
AcDbLine
 62
7
  6
CONTINUOUS
 10
664.279997345
 20
160.9663179234
 11
664.9516097797
 21
160.7863599138
  0
LINE
  5
278
100
AcDbEntity
  8
0
100
AcDbLine
 62
7
  6
CONTINUOUS
 10
667.2542800825
 20
160.1693612658
 11
667.638058695
 21
160.0665280965
  0
LINE
  5
279
100
AcDbEntity
  8
0
100
AcDbLine
 62
7
  6
CONTINUOUS
 10
669.9407292723
 20
159.4495293749
 11
672.2433998496
 21
158.8325306532
  0
LINE
  5
27A
100
AcDbEntity
  8
0
100
AcDbLine
 62
7
  6
CONTINUOUS
 10
687.5535321161
 20
154.7301930764
 11
688.1563301407
 21
154.5686738325
  0
LINE
  5
27B
100
AcDbEntity
  8
0
100
AcDbLine
 62
7
  6
CONTINUOUS
 10
688.9600607922
 20
154.3533148535
 11
689.5628588167
 21
154.1917956096
  0
LINE
  5
27C
100
AcDbEntity
  8
0
100
AcDbLine
 62
7
  6
CONTINUOUS
 10
692.0745173003
 20
153.5187987473
 11
692.7777818539
 21
153.3303595781
  0
LINE
  5
27D
100
AcDbEntity
  8
0
100
AcDbLine
 62
7
  6
CONTINUOUS
 10
695.1889739522
 20
152.6842826026
 11
696.093170989
 21
152.4420037368
  0
LINE
  5
27E
100
AcDbEntity
  8
0
100
AcDbLine
 62
7
  6
CONTINUOUS
 10
698.9062286286
 20
151.688247214
 11
699.5090266531
 21
151.5267279701
  0
LINE
  5
27F
100
AcDbEntity
  8
0
100
AcDbLine
 62
7
  6
CONTINUOUS
 10
696.2507025771
 20
153.0299196274
 11
695.3465055403
 21
153.2721984932
  0
LINE
  5
280
100
AcDbEntity
  8
0
100
AcDbLine
 62
7
  6
CONTINUOUS
 10
672.4009314377
 20
159.4204465438
 11
670.6739285047
 21
159.8831955851
  0
LINE
  5
281
100
AcDbEntity
  8
0
100
AcDbLine
 62
7
  6
CONTINUOUS
 10
667.7955902831
 20
160.6544439871
 11
667.4118116706
 21
160.7572771564
  0
LINE
  5
282
100
AcDbEntity
  8
0
100
AcDbLine
 62
7
  6
CONTINUOUS
 10
696.5178097659
 20
154.4286433432
 11
697.4220068027
 21
154.1863644774
  0
LINE
  5
283
100
AcDbEntity
  8
0
100
AcDbLine
 62
7
  6
CONTINUOUS
 10
662.4327428194
 20
163.666730552
 11
664.0638010992
 21
163.2296898031
  0
LINE
  5
284
100
AcDbEntity
  8
0
100
AcDbLine
 62
7
  6
CONTINUOUS
 10
690.1142193843
 20
156.2495012611
 11
691.8221470727
 21
155.7918634163
  0
LINE
  5
285
100
AcDbEntity
  8
0
100
AcDbLine
 62
7
  6
CONTINUOUS
 10
698.182336397
 20
154.6127610555
 11
696.6753413356
 21
155.0165591652
  0
LINE
  5
286
100
AcDbEntity
  8
0
100
AcDbLine
 62
7
  6
CONTINUOUS
 10
692.180611413
 20
156.3259394646
 11
690.271750954
 21
156.8374170831
  0
LINE
  5
287
100
AcDbEntity
  8
0
100
AcDbLine
 62
7
  6
CONTINUOUS
 10
664.4132218379
 20
163.7661890772
 11
662.5902743891
 21
164.254646374
  0
LINE
  5
288
100
AcDbEntity
  8
0
100
AcDbLine
 62
7
  6
CONTINUOUS
 10
697.815835727
 20
155.6561540324
 11
698.4186337516
 21
155.4946347885
  0
LINE
  5
289
100
AcDbEntity
  8
0
100
AcDbLine
 62
7
  6
CONTINUOUS
 10
671.5928627902
 20
163.312705027
 11
673.3198657231
 21
162.8499559858
  0
LINE
  5
28A
100
AcDbEntity
  8
0
100
AcDbLine
 62
7
  6
CONTINUOUS
 10
696.2654398257
 20
156.7017079352
 11
697.1696368625
 21
156.4594290694
  0
LINE
  5
28B
100
AcDbEntity
  8
0
100
AcDbLine
 62
7
  6
CONTINUOUS
 10
662.9841033869
 20
165.7244362034
 11
664.8070508358
 21
165.2359789067
  0
LINE
  5
28C
100
AcDbEntity
  8
0
100
AcDbLine
 62
7
  6
CONTINUOUS
 10
690.6655799519
 20
158.3072069126
 11
692.5744404109
 21
157.7957292941
  0
LINE
  5
28D
100
AcDbEntity
  8
0
100
AcDbLine
 62
7
  6
CONTINUOUS
 10
700.7430240964
 20
156.1320691247
 11
700.1402260718
 21
156.2935883686
  0
LINE
  5
28E
100
AcDbEntity
  8
0
100
AcDbLine
 62
7
  6
CONTINUOUS
 10
697.3271684322
 20
157.0473448913
 11
696.4229713954
 21
157.2896237572
  0
LINE
  5
28F
100
AcDbEntity
  8
0
100
AcDbLine
 62
7
  6
CONTINUOUS
 10
692.6052504774
 20
158.3125789941
 11
690.1940582354
 21
158.9586560081
  0
LINE
  5
290
100
AcDbEntity
  8
0
100
AcDbLine
 62
7
  6
CONTINUOUS
 10
689.3903275839
 20
159.1740149871
 11
688.7875295594
 21
159.335534231
  0
LINE
  5
291
100
AcDbEntity
  8
0
100
AcDbLine
 62
7
  6
CONTINUOUS
 10
673.4773972928
 20
163.4378718078
 11
671.1747267156
 21
164.0548705294
  0
LINE
  5
292
100
AcDbEntity
  8
0
100
AcDbLine
 62
7
  6
CONTINUOUS
 10
670.4071700395
 20
164.2605367209
 11
669.8315023951
 21
164.4147864013
  0
LINE
  5
293
100
AcDbEntity
  8
0
100
AcDbLine
 62
7
  6
CONTINUOUS
 10
667.5288318178
 20
165.031785123
 11
666.953163899
 21
165.1860348769
  0
LINE
  5
294
100
AcDbEntity
  8
0
100
AcDbLine
 62
7
  6
CONTINUOUS
 10
664.842382628
 20
165.7516170139
 11
662.5397120507
 21
166.3686157355
  0
LINE
  5
295
100
AcDbEntity
  8
RUNDUNGEN
100
AcDbLine
 62
7
  6
CONTINUOUS
 10
704.2225102543
 20
161.5055162436
 11
701.4567420775
 21
162.246601593
  0
LINE
  5
296
100
AcDbEntity
  8
RUNDUNGEN
100
AcDbLine
 62
7
  6
CONTINUOUS
 10
667.7429945281
 20
171.2801730227
 11
664.977226129
 21
172.0212584317
  0
LINE
  5
297
100
AcDbEntity
  8
RUNDUNGEN
100
AcDbLine
 62
7
  6
CONTINUOUS
 10
673.0819831173
 20
169.9660823466
 11
696.1759969907
 21
163.7780599792
  0
LINE
  5
298
100
AcDbEntity
  8
0
100
AcDbLine
 62
7
  6
CONTINUOUS
 10
701.5446078991
 20
151.0863166748
 11
702.1211506597
 21
150.826811452
  0
LINE
  5
299
100
AcDbEntity
  8
0
100
AcDbLine
 62
7
  6
CONTINUOUS
 10
703.9316908659
 20
155.1726473924
 11
703.355148103
 21
155.4321526066
  0
LINE
  5
29A
100
AcDbEntity
  8
0
100
AcDbLine
 62
7
  6
CONTINUOUS
 10
694.7128971457
 20
152.9168680541
 11
695.1889739522
 21
152.6842826026
  0
LINE
  5
29B
100
AcDbEntity
  8
0
100
AcDbLine
 62
7
  6
CONTINUOUS
 10
702.2524269862
 20
151.3167413723
 11
701.7763513272
 21
151.5493265071
  0
LINE
  5
29C
100
AcDbEntity
  8
0
100
AcDbLine
 62
7
  6
CONTINUOUS
 10
693.0813267113
 20
158.0799937052
 11
692.6052504774
 21
158.3125789941
  0
LINE
  5
29D
100
AcDbEntity
  8
0
100
AcDbLine
 62
7
  6
CONTINUOUS
 10
697.8032446661
 20
156.8147596025
 11
697.3271684322
 21
157.0473448913
  0
LINE
  5
29E
100
AcDbEntity
  8
0
100
AcDbLine
 62
7
  6
CONTINUOUS
 10
703.2238717949
 20
154.9422227549
 11
703.6999486036
 21
154.709637312
  0
LINE
  5
29F
100
AcDbEntity
  8
0
100
AcDbLine
 62
7
  6
CONTINUOUS
 10
666.8008124925
 20
160.395888596
 11
667.2542800825
 21
160.1693612658
  0
LINE
  5
2A0
100
AcDbEntity
  8
0
100
AcDbLine
 62
7
  6
CONTINUOUS
 10
665.2958504948
 20
165.5250896187
 11
664.842382628
 21
165.7516170139
  0
LINE
  5
2A1
100
AcDbEntity
  8
0
100
AcDbLine
 62
7
  6
CONTINUOUS
 10
673.9308654342
 20
163.2113443391
 11
673.4773972928
 21
163.4378718078
  0
LINE
  5
2A2
100
AcDbEntity
  8
0
100
AcDbLine
 62
7
  6
CONTINUOUS
 10
695.3465055403
 20
153.2721984932
 11
694.9708952606
 21
153.4778640108
  0
LINE
  5
2A3
100
AcDbEntity
  8
0
100
AcDbLine
 62
7
  6
CONTINUOUS
 10
697.1696368625
 20
156.4594290694
 11
697.5452465674
 21
156.2537637058
  0
LINE
  5
2A4
100
AcDbEntity
  8
0
100
AcDbLine
 62
7
  6
CONTINUOUS
 10
667.4118116706
 20
160.7572771564
 11
667.0542888687
 21
160.9580961489
  0
LINE
  5
2A5
100
AcDbEntity
  8
0
100
AcDbLine
 62
7
  6
CONTINUOUS
 10
673.3198657231
 20
162.8499559858
 11
673.6773885251
 21
162.6491369933
  0
LINE
  5
2A6
100
AcDbEntity
  8
0
100
AcDbLine
 62
7
  6
CONTINUOUS
 10
692.5744404109
 20
157.7957292941
 11
692.8495841616
 21
157.6169837018
  0
LINE
  5
2A7
100
AcDbEntity
  8
0
100
AcDbLine
 62
7
  6
CONTINUOUS
 10
664.8070508358
 20
165.2359789067
 11
665.0686293963
 21
165.0608680961
  0
LINE
  5
2A8
100
AcDbEntity
  8
RUNDUNGEN
100
AcDbLine
 62
7
  6
CONTINUOUS
 10
711.0817874598
 20
96.9279423594
 11
705.0426260513
 21
102.241137204
  0
LINE
  5
2A9
100
AcDbEntity
  8
RUNDUNGEN
100
AcDbLine
 62
7
  6
CONTINUOUS
 10
711.9968509693
 20
100.3430058689
 11
705.9576895608
 21
105.6562007135
  0
LINE
  5
2AA
100
AcDbEntity
  8
0
100
AcDbLine
 62
7
  6
CONTINUOUS
 10
666.46954441
 20
160.6946937317
 11
666.8008124925
 21
160.395888596
  0
LINE
  5
2AB
100
AcDbEntity
  8
RUNDUNGEN
100
AcDbLine
 62
7
  6
CONTINUOUS
 10
627.4243985864
 20
115.7157369311
 11
629.2429253759
 21
112.5299900265
  0
LINE
  5
2AC
100
AcDbEntity
  8
RUNDUNGEN
100
AcDbLine
 62
7
  6
CONTINUOUS
 10
634.3348003865
 20
103.6098986936
 11
644.1809208196
 21
86.3611851343
  0
LINE
  5
2AD
100
AcDbEntity
  8
RUNDUNGEN
100
AcDbLine
 62
7
  6
CONTINUOUS
 10
660.4892898676
 20
57.7917208222
 11
664.2074419117
 21
51.2781564173
  0
LINE
  5
2AE
100
AcDbEntity
  8
RUNDUNGEN
100
AcDbLine
 62
7
  6
CONTINUOUS
 10
639.888027238
 20
107.879656453
 11
638.029088742
 21
111.1361977333
  0
LINE
  5
2AF
100
AcDbEntity
  8
0
100
AcDbLine
 62
7
  6
CONTINUOUS
 10
702.7502039482
 20
150.763278187
 11
703.3313018103
 21
150.9226366512
  0
LINE
  5
2B0
100
AcDbEntity
  8
0
100
AcDbLine
 62
7
  6
CONTINUOUS
 10
702.7260948168
 20
155.4956858801
 11
702.1449981113
 21
155.3363271337
  0
LINE
  5
2B1
100
AcDbEntity
  8
0
100
AcDbLine
 62
7
  6
CONTINUOUS
 10
672.7493785165
 20
158.8019751337
 11
673.1856671101
 21
158.8951140779
  0
LINE
  5
2B2
100
AcDbEntity
  8
0
100
AcDbLine
 62
7
  6
CONTINUOUS
 10
668.1440368129
 20
160.0359727241
 11
668.5803259556
 21
160.1291115212
  0
LINE
  5
2B3
100
AcDbEntity
  8
0
100
AcDbLine
 62
7
  6
CONTINUOUS
 10
664.691979404
 20
163.2714120266
 11
665.1282682653
 21
163.3645508715
  0
LINE
  5
2B4
100
AcDbEntity
  8
0
100
AcDbLine
 62
7
  6
CONTINUOUS
 10
695.8943840634
 20
157.3262372594
 11
695.4400085737
 21
157.237944712
  0
LINE
  5
2B5
100
AcDbEntity
  8
0
100
AcDbLine
 62
7
  6
CONTINUOUS
 10
694.3635427094
 20
153.2205194137
 11
694.7128971457
 21
152.9168680541
  0
LINE
  5
2B6
100
AcDbEntity
  8
0
100
AcDbLine
 62
7
  6
CONTINUOUS
 10
698.1525996842
 20
156.5111081145
 11
697.8032446661
 21
156.8147596025
  0
LINE
  5
2B7
100
AcDbEntity
  8
0
100
AcDbLine
 62
7
  6
CONTINUOUS
 10
674.2621329745
 20
162.9125393762
 11
673.9308654342
 21
163.2113443391
  0
LINE
  5
2B8
100
AcDbEntity
  8
0
100
AcDbLine
 62
7
  6
CONTINUOUS
 10
701.1210427702
 20
151.514873776
 11
701.5446078991
 21
151.0863166748
  0
LINE
  5
2B9
100
AcDbEntity
  8
0
100
AcDbLine
 62
7
  6
CONTINUOUS
 10
704.3552571514
 20
154.7440900088
 11
703.9316908659
 21
155.1726473924
  0
LINE
  5
2BA
100
AcDbEntity
  8
0
100
AcDbLine
 62
7
  6
CONTINUOUS
 10
694.9708952606
 20
153.4778640108
 11
694.7220067899
 21
153.754595642
  0
LINE
  5
2BB
100
AcDbEntity
  8
0
100
AcDbLine
 62
7
  6
CONTINUOUS
 10
701.7763513272
 20
151.5493265071
 11
701.5274628382
 21
151.8260580697
  0
LINE
  5
2BC
100
AcDbEntity
  8
0
100
AcDbLine
 62
7
  6
CONTINUOUS
 10
697.5452465674
 20
156.2537637058
 11
697.7941350564
 21
155.9770321432
  0
LINE
  5
2BD
100
AcDbEntity
  8
0
100
AcDbLine
 62
7
  6
CONTINUOUS
 10
667.0542888687
 20
160.9580961489
 11
666.8189655881
 21
161.2311929984
  0
LINE
  5
2BE
100
AcDbEntity
  8
0
100
AcDbLine
 62
7
  6
CONTINUOUS
 10
673.6773885251
 20
162.6491369933
 11
673.912711824
 21
162.3760402124
  0
LINE
  5
2BF
100
AcDbEntity
  8
0
100
AcDbLine
 62
7
  6
CONTINUOUS
 10
665.600863048
 20
165.128298612
 11
665.2958504948
 21
165.5250896187
  0
LINE
  5
2C0
100
AcDbEntity
  8
RUNDUNGEN
100
AcDbLine
 62
7
  6
CONTINUOUS
 10
686.7257504864
 20
46.8250894739
 11
676.2534493299
 21
65.1707642178
  0
LINE
  5
2C1
100
AcDbEntity
  8
RUNDUNGEN
100
AcDbLine
 62
7
  6
CONTINUOUS
 10
649.5541830755
 20
111.9432975209
 11
648.9856899373
 21
112.9391999546
  0
LINE
  5
2C2
100
AcDbEntity
  8
RUNDUNGEN
100
AcDbLine
 62
7
  6
CONTINUOUS
 10
687.6408139959
 20
50.2401529833
 11
677.1685128394
 21
68.5858277273
  0
LINE
  5
2C3
100
AcDbEntity
  8
RUNDUNGEN
100
AcDbLine
 62
7
  6
CONTINUOUS
 10
650.469246585
 20
115.3583610304
 11
649.9007534468
 21
116.3542634641
  0
LINE
  5
2C4
100
AcDbEntity
  8
0
100
AcDbLine
 62
7
  6
CONTINUOUS
 10
686.2312277518
 20
215.3524400138
 11
679.5326952472
 21
215.3524400138
  0
LINE
  5
2C5
100
AcDbEntity
  8
0
100
AcDbLine
 62
7
  6
CONTINUOUS
 10
823.0478557566
 20
215.3524400138
 11
829.7463882612
 21
215.3524400138
  0
LINE
  5
2C6
100
AcDbEntity
  8
0
100
AcDbLine
 62
7
  6
CONTINUOUS
 10
713.2826952472
 20
206.3091547693
 11
707.4815959302
 21
209.6584210216
  0
LINE
  5
2C7
100
AcDbEntity
  8
0
100
AcDbLine
 62
7
  6
CONTINUOUS
 10
703.6999486036
 20
154.709637312
 11
703.9488370927
 21
154.4329057494
  0
LINE
  5
2C8
100
AcDbEntity
  8
0
100
AcDbLine
 62
7
  6
CONTINUOUS
 10
693.4044264677
 20
157.6783562469
 11
693.0813267113
 21
158.0799937052
  0
LINE
  5
2C9
100
AcDbEntity
  8
0
100
AcDbLine
 62
7
  6
CONTINUOUS
 10
666.1907874022
 20
161.1894706695
 11
666.46954441
 21
160.6946937317
  0
LINE
  5
2CA
100
AcDbEntity
  8
0
100
AcDbLine
 62
7
  6
CONTINUOUS
 10
665.0686293963
 20
165.0608680961
 11
665.2080081794
 21
164.8134795708
  0
LINE
  5
2CB
100
AcDbEntity
  8
0
100
AcDbLine
 62
7
  6
CONTINUOUS
 10
674.5408899915
 20
162.4177624727
 11
674.2621329745
 21
162.9125393762
  0
LINE
  5
2CC
100
AcDbEntity
  8
0
100
AcDbLine
 62
7
  6
CONTINUOUS
 10
662.106204716
 20
95.4945046595
 11
663.5163182326
 21
92.3614707173
  0
LINE
  5
2CD
100
AcDbEntity
  8
0
100
AcDbLine
 62
7
  6
CONTINUOUS
 10
662.1977110669
 20
95.8360110104
 11
663.6078245836
 21
92.7029770683
  0
LINE
  5
2CE
100
AcDbEntity
  8
0
100
AcDbLine
 62
7
  6
CONTINUOUS
 10
664.5870591014
 20
92.0745665662
 11
663.1209006591
 21
95.3321228623
  0
LINE
  5
2CF
100
AcDbEntity
  8
0
100
AcDbLine
 62
7
  6
CONTINUOUS
 10
807.3451420296
 20
121.339484906
 11
813.7424842875
 21
115.291405616
  0
LINE
  5
2D0
100
AcDbEntity
  8
0
100
AcDbLine
 62
7
  6
CONTINUOUS
 10
694.0666982237
 20
153.7201428766
 11
694.3635427094
 21
153.2205194137
  0
LINE
  5
2D1
100
AcDbEntity
  8
0
100
AcDbLine
 62
7
  6
CONTINUOUS
 10
692.8495841616
 20
157.6169837018
 11
692.998006409
 21
157.3671719875
  0
LINE
  5
2D2
100
AcDbEntity
  8
0
100
AcDbLine
 62
7
  6
CONTINUOUS
 10
698.4494441791
 20
156.0114846859
 11
698.1525996842
 21
156.5111081145
  0
LINE
  5
2D3
100
AcDbEntity
  8
0
100
AcDbLine
 62
7
  6
CONTINUOUS
 10
700.898409552
 20
151.8895913433
 11
701.1210427702
 21
151.514873776
  0
LINE
  5
2D4
100
AcDbEntity
  8
0
100
AcDbLine
 62
7
  6
CONTINUOUS
 10
704.5778903788
 20
154.3693724759
 11
704.3552571514
 21
154.7440900088
  0
LINE
  5
2D5
100
AcDbEntity
  8
0
100
AcDbLine
 62
7
  6
CONTINUOUS
 10
665.7836758237
 20
164.6592298904
 11
665.600863048
 21
165.128298612
  0
LINE
  5
2D6
100
AcDbEntity
  8
0
100
AcDbLine
 62
7
  6
CONTINUOUS
 10
666.8189655881
 20
161.2311929984
 11
666.7058417922
 21
161.5765675676
  0
LINE
  5
2D7
100
AcDbEntity
  8
RUNDUNGEN
100
AcDbLine
 62
7
  6
CONTINUOUS
 10
649.3923906474
 20
127.6557090386
 11
646.8761693803
 21
136.0921704768
  0
LINE
  5
2D8
100
AcDbEntity
  8
0
100
AcDbLine
 62
7
  6
CONTINUOUS
 10
593.6395417542
 20
638.1550071741
 11
593.6395417542
 21
428.1550071741
  0
LINE
  5
2D9
100
AcDbEntity
  8
0
100
AcDbLine
 62
7
  6
CONTINUOUS
 10
829.7463882612
 20
215.3524400138
 11
845.4098177721
 21
206.3091547693
  0
LINE
  5
2DA
100
AcDbEntity
  8
0
100
AcDbLine
 62
7
  6
CONTINUOUS
 10
722.3259804918
 20
190.6457252584
 11
713.2826952472
 21
206.3091547693
  0
LINE
  5
2DB
100
AcDbEntity
  8
0
100
AcDbLine
 62
7
  6
CONTINUOUS
 10
693.6008041461
 20
157.2056528207
 11
693.4044264677
 21
157.6783562469
  0
LINE
  5
2DC
100
AcDbEntity
  8
0
100
AcDbLine
 62
7
  6
CONTINUOUS
 10
694.7220067899
 20
153.754595642
 11
694.5998400915
 21
154.1023932496
  0
LINE
  5
2DD
100
AcDbEntity
  8
0
100
AcDbLine
 62
7
  6
CONTINUOUS
 10
701.5274628382
 20
151.8260580697
 11
701.2831283101
 21
152.5216536617
  0
LINE
  5
2DE
100
AcDbEntity
  8
0
100
AcDbLine
 62
7
  6
CONTINUOUS
 10
703.9488370927
 20
154.4329057494
 11
704.1931704159
 21
153.7373102597
  0
LINE
  5
2DF
100
AcDbEntity
  8
0
100
AcDbLine
 62
7
  6
CONTINUOUS
 10
673.912711824
 20
162.3760402124
 11
674.0258355463
 21
162.0306653687
  0
LINE
  5
2E0
100
AcDbEntity
  8
0
100
AcDbLine
 62
7
  6
CONTINUOUS
 10
666.1039191608
 20
161.6328312041
 11
666.1907874022
 21
161.1894706695
  0
LINE
  5
2E1
100
AcDbEntity
  8
0
100
AcDbLine
 62
7
  6
CONTINUOUS
 10
664.9516097797
 20
160.7863599138
 11
664.691979404
 21
163.2714120266
  0
LINE
  5
2E2
100
AcDbEntity
  8
0
100
AcDbLine
 62
7
  6
CONTINUOUS
 10
664.0638010992
 20
163.2296898031
 11
664.279997345
 21
160.9663179234
  0
LINE
  5
2E3
100
AcDbEntity
  8
0
100
AcDbLine
 62
7
  6
CONTINUOUS
 10
629.6395417542
 20
638.1550071741
 11
629.6395417542
 21
428.1550071741
  0
LINE
  5
2E4
100
AcDbEntity
  8
0
100
AcDbLine
 62
7
  6
CONTINUOUS
 10
693.9707868054
 20
154.1659265232
 11
694.0666982237
 21
153.7201428766
  0
LINE
  5
2E5
100
AcDbEntity
  8
0
100
AcDbLine
 62
7
  6
CONTINUOUS
 10
700.8024975587
 20
152.3353751439
 11
700.898409552
 21
151.8895913433
  0
LINE
  5
2E6
100
AcDbEntity
  8
0
100
AcDbLine
 62
7
  6
CONTINUOUS
 10
674.6277585258
 20
161.9744019332
 11
674.5408899915
 21
162.4177624727
  0
LINE
  5
2E7
100
AcDbEntity
  8
0
100
AcDbLine
 62
7
  6
CONTINUOUS
 10
665.2080081794
 20
164.8134795708
 11
665.2251869104
 21
164.4938134043
  0
LINE
  5
2E8
100
AcDbEntity
  8
0
100
AcDbLine
 62
7
  6
CONTINUOUS
 10
665.8008545547
 20
164.3395637239
 11
665.7836758237
 21
164.6592298904
  0
LINE
  5
2E9
100
AcDbEntity
  8
0
100
AcDbLine
 62
7
  6
CONTINUOUS
 10
654.8259804918
 20
190.6457252584
 11
654.8259804918
 21
172.5591547693
  0
LINE
  5
2EA
100
AcDbEntity
  8
0
100
AcDbLine
 62
7
  6
CONTINUOUS
 10
666.7058417922
 20
161.5765675676
 11
666.7149185973
 21
161.9942196309
  0
LINE
  5
2EB
100
AcDbEntity
  8
0
100
AcDbLine
 62
7
  6
CONTINUOUS
 10
652.1380883399
 20
162.5278046933
 11
651.8651269664
 21
154.7112136649
  0
LINE
  5
2EC
100
AcDbEntity
  8
0
100
AcDbLine
 62
7
  6
CONTINUOUS
 10
786.9531030166
 20
172.5591547693
 11
795.9963882612
 21
156.8957252584
  0
LINE
  5
2ED
100
AcDbEntity
  8
0
100
AcDbLine
 62
7
  6
CONTINUOUS
 10
798.684280413
 20
146.8643751824
 11
802.3561844435
 21
139.958528094
  0
LINE
  5
2EE
100
AcDbEntity
  8
0
100
AcDbLine
 62
7
  6
CONTINUOUS
 10
704.6738023905
 20
153.9235887439
 11
704.5778903788
 21
154.3693724759
  0
LINE
  5
2EF
100
AcDbEntity
  8
0
100
AcDbLine
 62
7
  6
CONTINUOUS
 10
692.7777818539
 20
153.3303595781
 11
692.4774556205
 21
155.8263161131
  0
LINE
  5
2F0
100
AcDbEntity
  8
0
100
AcDbLine
 62
7
  6
CONTINUOUS
 10
691.8221470727
 20
155.7918634163
 11
692.0745173003
 21
153.5187987473
  0
LINE
  5
2F1
100
AcDbEntity
  8
0
100
AcDbLine
 62
7
  6
CONTINUOUS
 10
692.998006409
 20
157.3671719875
 11
693.0197068657
 21
157.0462942282
  0
LINE
  5
2F2
100
AcDbEntity
  8
0
100
AcDbLine
 62
7
  6
CONTINUOUS
 10
693.6225048903
 20
156.8847749844
 11
693.6008041461
 21
157.2056528207
  0
LINE
  5
2F3
100
AcDbEntity
  8
0
100
AcDbLine
 62
7
  6
CONTINUOUS
 10
697.7941350564
 20
155.9770321432
 11
697.815835727
 21
155.6561540324
  0
LINE
  5
2F4
100
AcDbEntity
  8
0
100
AcDbLine
 62
7
  6
CONTINUOUS
 10
700.7807973894
 20
152.6562528262
 11
700.8024975587
 21
152.3353751439
  0
LINE
  5
2F5
100
AcDbEntity
  8
0
100
AcDbLine
 62
7
  6
CONTINUOUS
 10
704.6955024862
 20
153.6027107871
 11
704.6738023905
 21
153.9235887439
  0
LINE
  5
2F6
100
AcDbEntity
  8
0
100
AcDbLine
 62
7
  6
CONTINUOUS
 10
694.5998400915
 20
154.1023932496
 11
694.604394609
 21
154.5212570563
  0
LINE
  5
2F7
100
AcDbEntity
  8
0
100
AcDbLine
 62
7
  6
CONTINUOUS
 10
674.0258355463
 20
162.0306653687
 11
674.0167587412
 21
161.6130133054
  0
LINE
  5
2F8
100
AcDbEntity
  8
0
100
AcDbLine
 62
7
  6
CONTINUOUS
 10
666.1392506785
 20
162.1484693849
 11
666.1039191608
 21
161.6328312041
  0
LINE
  5
2F9
100
AcDbEntity
  8
0
100
AcDbLine
 62
7
  6
CONTINUOUS
 10
674.5924263856
 20
161.458763625
 11
674.6277585258
 21
161.9744019332
  0
LINE
  5
2FA
100
AcDbEntity
  8
0
100
AcDbLine
 62
7
  6
CONTINUOUS
 10
722.3259804918
 20
172.5591547693
 11
722.3259804918
 21
190.6457252584
  0
LINE
  5
2FB
100
AcDbEntity
  8
0
100
AcDbLine
 62
7
  6
CONTINUOUS
 10
694.0015965844
 20
154.6827763002
 11
693.9707868054
 21
154.1659265232
  0
LINE
  5
2FC
100
AcDbEntity
  8
0
100
AcDbLine
 62
7
  6
CONTINUOUS
 10
698.4186337516
 20
155.4946347885
 11
698.4494441791
 21
156.0114846859
  0
LINE
  5
2FD
100
AcDbEntity
  8
0
100
AcDbLine
 62
7
  6
CONTINUOUS
 10
700.8116066304
 20
153.1731028944
 11
700.7807973894
 21
152.6562528262
  0
LINE
  5
2FE
100
AcDbEntity
  8
0
100
AcDbLine
 62
7
  6
CONTINUOUS
 10
704.6646921323
 20
153.0858611641
 11
704.6955024862
 21
153.6027107871
  0
LINE
  5
2FF
100
AcDbEntity
  8
0
100
AcDbLine
 62
7
  6
CONTINUOUS
 10
704.1931704159
 20
153.7373102597
 11
704.1361059501
 21
153.1224743583
  0
LINE
  5
300
100
AcDbEntity
  8
0
100
AcDbLine
 62
7
  6
CONTINUOUS
 10
701.2831283101
 20
152.5216536617
 11
701.3401939624
 21
153.1364893922
  0
LINE
  5
301
100
AcDbEntity
  8
RUNDUNGEN
100
AcDbLine
 62
7
  6
CONTINUOUS
 10
627.0758288979
 20
117.9085713648
 11
627.9908924074
 21
121.3236348743
  0
LINE
  5
302
100
AcDbEntity
  8
RUNDUNGEN
100
AcDbLine
 62
7
  6
CONTINUOUS
 10
619.8497553846
 20
56.4785884767
 11
622.3064274967
 21
65.6470136166
  0
LINE
  5
303
100
AcDbEntity
  8
RUNDUNGEN
100
AcDbLine
 62
7
  6
CONTINUOUS
 10
634.23022948
 20
104.2677490237
 11
635.1452929895
 21
107.6828125332
  0
LINE
  5
304
100
AcDbEntity
  8
0
100
AcDbLine
 62
7
  6
CONTINUOUS
 10
652.1380883399
 20
162.5278046933
 11
654.8259804918
 21
172.5591547693
  0
LINE
  5
305
100
AcDbEntity
  8
RUNDUNGEN
100
AcDbLine
 62
7
  6
CONTINUOUS
 10
646.8761693803
 20
136.0921704768
 11
655.4177802116
 21
167.9698960774
  0
LINE
  5
306
100
AcDbEntity
  8
RUNDUNGEN
100
AcDbLine
 62
7
  6
CONTINUOUS
 10
626.6087159625
 20
51.3733018141
 11
627.7982985248
 21
55.8128843764
  0
LINE
  5
307
100
AcDbEntity
  8
0
100
AcDbLine
 62
7
  6
CONTINUOUS
 10
845.4098177721
 20
206.3091547693
 11
854.4531030166
 21
190.6457252584
  0
LINE
  5
308
100
AcDbEntity
  8
0
100
AcDbLine
 62
7
  6
CONTINUOUS
 10
798.684280413
 20
146.8643751824
 11
795.9963882612
 21
156.8957252584
  0
LINE
  5
309
100
AcDbEntity
  8
0
100
AcDbLine
 62
7
  6
CONTINUOUS
 10
807.3451420296
 20
121.339484906
 11
798.8035311984
 21
153.2172105066
  0
LINE
  5
30A
100
AcDbEntity
  8
0
100
AcDbLine
 62
7
  6
CONTINUOUS
 10
662.5397120507
 20
166.3686157355
 11
661.3057146075
 21
161.7632745809
  0
LINE
  5
30B
100
AcDbEntity
  8
0
100
AcDbLine
 62
7
  6
CONTINUOUS
 10
661.8813822518
 20
161.6090249005
 11
662.4327428194
 21
163.666730552
  0
LINE
  5
30C
100
AcDbEntity
  8
0
100
AcDbLine
 62
7
  6
CONTINUOUS
 10
662.5902743891
 20
164.254646374
 11
662.9841033869
 21
165.7244362034
  0
LINE
  5
30D
100
AcDbEntity
  8
0
100
AcDbLine
 62
7
  6
CONTINUOUS
 10
665.2251869104
 20
164.4938134043
 11
665.146421052
 21
164.1998552188
  0
LINE
  5
30E
100
AcDbEntity
  8
0
100
AcDbLine
 62
7
  6
CONTINUOUS
 10
665.6958334347
 20
163.9476195681
 11
665.8008545547
 21
164.3395637239
  0
LINE
  5
30F
100
AcDbEntity
  8
0
100
AcDbLine
 62
7
  6
CONTINUOUS
 10
666.953163899
 20
165.1860348769
 11
666.1392506785
 21
162.1484693849
  0
LINE
  5
310
100
AcDbEntity
  8
0
100
AcDbLine
 62
7
  6
CONTINUOUS
 10
666.7149185973
 20
161.9942196309
 11
667.5288318178
 21
165.031785123
  0
LINE
  5
311
100
AcDbEntity
  8
KONSTRUKTIONSELEMENTE
100
AcDbLine
 62
7
  6
CONTINUOUS
 10
662.5862283366
 20
141.9271811878
 11
663.6636920213
 21
145.9483304027
  0
LINE
  5
312
100
AcDbEntity
  8
0
100
AcDbLine
 62
7
  6
CONTINUOUS
 10
651.8145319146
 20
100.7677207257
 11
650.6066480821
 21
96.2598368932
  0
LINE
  5
313
100
AcDbEntity
  8
0
100
AcDbLine
 62
7
  6
CONTINUOUS
 10
669.8315023951
 20
164.4147864013
 11
669.0175891746
 21
161.3772209093
  0
LINE
  5
314
100
AcDbEntity
  8
0
100
AcDbLine
 62
7
  6
CONTINUOUS
 10
669.5932568189
 20
161.2229712289
 11
670.4071700395
 21
164.2605367209
  0
LINE
  5
315
100
AcDbEntity
  8
0
100
AcDbLine
 62
7
  6
CONTINUOUS
 10
652.654914875
 20
96.369851187
 11
653.0758440894
 21
97.9407804013
  0
LINE
  5
316
100
AcDbEntity
  8
0
100
AcDbLine
 62
7
  6
CONTINUOUS
 10
653.2039529807
 20
98.4188892927
 11
653.6248821951
 21
99.989818507
  0
LINE
  5
317
100
AcDbEntity
  8
0
100
AcDbLine
 62
7
  6
CONTINUOUS
 10
671.1747267156
 20
164.0548705294
 11
669.9407292723
 21
159.4495293749
  0
LINE
  5
318
100
AcDbEntity
  8
0
100
AcDbLine
 62
7
  6
CONTINUOUS
 10
653.9186290364
 20
99.3474301563
 11
653.6880330321
 21
98.4868341519
  0
LINE
  5
319
100
AcDbEntity
  8
0
100
AcDbLine
 62
7
  6
CONTINUOUS
 10
653.3695909308
 20
97.2983920506
 11
653.1389949264
 21
96.4377960462
  0
LINE
  5
31A
100
AcDbEntity
  8
0
100
AcDbLine
 62
7
  6
CONTINUOUS
 10
653.8361303557
 20
97.5906521488
 11
653.9459379768
 21
98.0004597699
  0
LINE
  5
31B
100
AcDbEntity
  8
0
100
AcDbLine
 62
7
  6
CONTINUOUS
 10
653.7208323535
 20
97.1603541466
 11
653.7537746399
 21
97.2832964329
  0
LINE
  5
31C
100
AcDbEntity
  8
0
100
AcDbLine
 62
7
  6
CONTINUOUS
 10
654.0282936927
 20
98.3078154857
 11
654.15274233
 21
98.772264123
  0
LINE
  5
31D
100
AcDbEntity
  8
0
100
AcDbLine
 62
7
  6
CONTINUOUS
 10
670.6739285047
 20
159.8831955851
 11
671.5928627902
 21
163.312705027
  0
LINE
  5
31E
100
AcDbEntity
  8
0
100
AcDbLine
 62
7
  6
CONTINUOUS
 10
654.5874089518
 20
98.6557955527
 11
654.4629603145
 21
98.1913469154
  0
LINE
  5
31F
100
AcDbEntity
  8
0
100
AcDbLine
 62
7
  6
CONTINUOUS
 10
654.3806045987
 20
97.8839911996
 11
654.2707969775
 21
97.4741835785
  0
LINE
  5
320
100
AcDbEntity
  8
0
100
AcDbLine
 62
7
  6
CONTINUOUS
 10
654.1884412617
 20
97.1668278626
 11
654.1554989753
 21
97.0438855763
  0
LINE
  5
321
100
AcDbEntity
  8
0
100
AcDbLine
 62
7
  6
CONTINUOUS
 10
714.5089865233
 20
320.8864724733
 11
679.0507773443
 21
188.5546342717
  0
LINE
  5
322
100
AcDbEntity
  8
0
100
AcDbLine
 62
7
  6
CONTINUOUS
 10
654.2981059179
 20
96.1272131921
 11
654.5287019223
 21
96.9878091965
  0
LINE
  5
323
100
AcDbEntity
  8
0
100
AcDbLine
 62
7
  6
CONTINUOUS
 10
654.8471440236
 20
98.1762512978
 11
655.077740028
 21
99.0368473021
  0
LINE
  5
324
100
AcDbEntity
  8
0
100
AcDbLine
 62
7
  6
CONTINUOUS
 10
655.6533264303
 20
99.4462985123
 11
655.2323972159
 21
97.875369298
  0
LINE
  5
325
100
AcDbEntity
  8
0
100
AcDbLine
 62
7
  6
CONTINUOUS
 10
655.1042883246
 20
97.3972604066
 11
654.6833591102
 21
95.8263311923
  0
LINE
  5
326
100
AcDbEntity
  8
0
100
AcDbLine
 62
7
  6
CONTINUOUS
 10
674.0167587412
 20
161.6130133054
 11
673.6229297802
 21
160.1432236132
  0
LINE
  5
327
100
AcDbEntity
  8
0
100
AcDbLine
 62
7
  6
CONTINUOUS
 10
656.4022030398
 20
94.7069226226
 11
657.6100868723
 21
99.2148064551
  0
LINE
  5
328
100
AcDbEntity
  8
0
100
AcDbLine
 62
7
  6
CONTINUOUS
 10
674.1985974245
 20
159.9889739328
 11
674.5924263856
 21
161.458763625
  0
LINE
  5
329
100
AcDbEntity
  8
KONSTRUKTIONSELEMENTE
100
AcDbLine
 62
7
  6
CONTINUOUS
 10
665.1867304272
 20
125.2221968631
 11
665.9228869908
 21
127.9695705607
  0
LINE
  5
32A
100
AcDbEntity
  8
0
100
AcDbLine
 62
7
  6
CONTINUOUS
 10
659.5993942234
 20
99.1210036414
 11
659.4328526646
 21
98.4994620827
  0
LINE
  5
32B
100
AcDbEntity
  8
0
100
AcDbLine
 62
7
  6
CONTINUOUS
 10
659.2791219951
 20
97.9257314131
 11
658.1718951486
 21
93.7935045667
  0
LINE
  5
32C
100
AcDbEntity
  8
0
100
AcDbLine
 62
7
  6
CONTINUOUS
 10
670.8791460956
 20
139.7051005714
 11
667.709482922
 21
127.8757565648
  0
LINE
  5
32D
100
AcDbEntity
  8
KONSTRUKTIONSELEMENTE
100
AcDbLine
 62
7
  6
CONTINUOUS
 10
670.8791460956
 20
139.7051005714
 11
674.3343803477
 21
152.6002103523
  0
LINE
  5
32E
100
AcDbEntity
  8
0
100
AcDbLine
 62
7
  6
CONTINUOUS
 10
659.0991839419
 20
93.5450382834
 11
659.8794890838
 21
96.4571767187
  0
LINE
  5
32F
100
AcDbEntity
  8
0
100
AcDbLine
 62
7
  6
CONTINUOUS
 10
659.9636749267
 20
96.7713625615
 11
660.2064107883
 21
97.6772651298
  0
LINE
  5
330
100
AcDbEntity
  8
KONSTRUKTIONSELEMENTE
100
AcDbLine
 62
7
  6
CONTINUOUS
 10
669.5333966455
 20
124.0575111602
 11
671.7869706473
 21
132.4679638334
  0
LINE
  5
331
100
AcDbEntity
  8
KONSTRUKTIONSELEMENTE
100
AcDbLine
 62
7
  6
CONTINUOUS
 10
677.5859555288
 20
154.1100700434
 11
678.3290966129
 21
156.8835103266
  0
LINE
  5
332
100
AcDbEntity
  8
0
100
AcDbLine
 62
7
  6
CONTINUOUS
 10
662.106204716
 20
95.4945046595
 11
662.1977110669
 21
95.8360110104
  0
LINE
  5
333
100
AcDbEntity
  8
KONSTRUKTIONSELEMENTE
100
AcDbLine
 62
7
  6
CONTINUOUS
 10
665.115051152
 20
103.7043179879
 11
670.9266404992
 21
125.3934647042
  0
LINE
  5
334
100
AcDbEntity
  8
KONSTRUKTIONSELEMENTE
100
AcDbLine
 62
7
  6
CONTINUOUS
 10
682.2686577488
 20
167.7224493402
 11
684.4893048732
 21
176.0100172341
  0
LINE
  5
335
100
AcDbEntity
  8
0
100
AcDbLine
 62
7
  6
CONTINUOUS
 10
663.1209006591
 20
95.3321228623
 11
663.2124070101
 21
95.6736292132
  0
LINE
  5
336
100
AcDbEntity
  8
KONSTRUKTIONSELEMENTE
100
AcDbLine
 62
7
  6
CONTINUOUS
 10
676.6466122984
 20
145.7747642507
 11
678.9877515691
 21
154.5120149562
  0
LINE
  5
337
100
AcDbEntity
  8
0
100
AcDbLine
 62
7
  6
CONTINUOUS
 10
664.004265553
 20
96.8476480324
 11
663.9127592021
 21
96.5061416815
  0
LINE
  5
338
100
AcDbEntity
  8
0
100
AcDbLine
 62
7
  6
CONTINUOUS
 10
663.5163182326
 20
92.3614707173
 11
663.6078245836
 21
92.7029770683
  0
LINE
  5
339
100
AcDbEntity
  8
0
100
AcDbLine
 62
7
  6
CONTINUOUS
 10
666.5540601727
 20
97.2575065167
 11
665.6508623671
 21
93.8867264172
  0
LINE
  5
33A
100
AcDbEntity
  8
0
100
AcDbLine
 62
7
  6
CONTINUOUS
 10
666.5781511604
 20
93.6382601339
 11
667.4813489659
 21
97.0090402334
  0
LINE
  5
33B
100
AcDbEntity
  8
KONSTRUKTIONSELEMENTE
100
AcDbLine
 62
7
  6
CONTINUOUS
 10
680.9932785167
 20
144.6100785477
 11
683.3344177874
 21
153.3473292533
  0
LINE
  5
33C
100
AcDbEntity
  8
KONSTRUKTIONSELEMENTE
100
AcDbLine
 62
7
  6
CONTINUOUS
 10
669.9446802835
 20
102.4102227624
 11
675.7562696306
 21
124.0993694787
  0
LINE
  5
33D
100
AcDbEntity
  8
KONSTRUKTIONSELEMENTE
100
AcDbLine
 62
7
  6
CONTINUOUS
 10
687.0982868803
 20
166.4283541147
 11
689.3189340046
 21
174.7159220086
  0
LINE
  5
33E
100
AcDbEntity
  8
KONSTRUKTIONSELEMENTE
100
AcDbLine
 62
7
  6
CONTINUOUS
 10
685.0905773969
 20
155.0717770108
 11
684.3474363128
 21
152.2983367277
  0
LINE
  5
33F
100
AcDbEntity
  8
KONSTRUKTIONSELEMENTE
100
AcDbLine
 62
7
  6
CONTINUOUS
 10
678.5484514313
 20
130.6562305177
 11
676.2948774295
 21
122.2457778444
  0
LINE
  5
340
100
AcDbEntity
  8
0
100
AcDbLine
 62
7
  6
CONTINUOUS
 10
671.1268837826
 20
96.0322221233
 11
670.223685977
 21
92.6614420237
  0
LINE
  5
341
100
AcDbEntity
  8
0
100
AcDbLine
 62
7
  6
CONTINUOUS
 10
688.7875295594
 20
159.335534231
 11
687.5535321161
 21
154.7301930764
  0
LINE
  5
342
100
AcDbEntity
  8
0
100
AcDbLine
 62
7
  6
CONTINUOUS
 10
679.7835557507
 20
124.640518501
 11
682.9532189242
 21
136.4698625076
  0
LINE
  5
343
100
AcDbEntity
  8
KONSTRUKTIONSELEMENTE
100
AcDbLine
 62
7
  6
CONTINUOUS
 10
682.9532189242
 20
136.4698625076
 11
686.4084531763
 21
149.3649722886
  0
LINE
  5
344
100
AcDbEntity
  8
0
100
AcDbLine
 62
7
  6
CONTINUOUS
 10
671.1509747703
 20
92.4129757404
 11
672.0541725758
 21
95.78375584
  0
LINE
  5
345
100
AcDbEntity
  8
0
100
AcDbLine
 62
7
  6
CONTINUOUS
 10
818.0329468251
 20
134.2477818912
 11
816.9554831404
 21
138.268931106
  0
LINE
  5
346
100
AcDbEntity
  8
0
100
AcDbLine
 62
7
  6
CONTINUOUS
 10
808.9779379858
 20
182.8606152794
 11
773.5197288067
 21
315.192453481
  0
LINE
  5
347
100
AcDbEntity
  8
0
100
AcDbLine
 62
7
  6
CONTINUOUS
 10
822.8706303321
 20
149.3649722886
 11
829.4955277577
 21
124.640518501
  0
LINE
  5
348
100
AcDbEntity
  8
0
100
AcDbLine
 62
7
  6
CONTINUOUS
 10
688.1563301407
 20
154.5686738325
 11
689.3903275839
 21
159.1740149871
  0
LINE
  5
349
100
AcDbEntity
  8
0
100
AcDbLine
 62
7
  6
CONTINUOUS
 10
690.1940582354
 20
158.9586560081
 11
688.9600607922
 21
154.3533148535
  0
LINE
  5
34A
100
AcDbEntity
  8
KONSTRUKTIONSELEMENTE
100
AcDbLine
 62
7
  6
CONTINUOUS
 10
681.3777002114
 20
123.828465839
 11
680.6415436478
 21
121.0810921415
  0
LINE
  5
34B
100
AcDbEntity
  8
0
100
AcDbLine
 62
7
  6
CONTINUOUS
 10
689.5628588167
 20
154.1917956096
 11
690.1142193843
 21
156.2495012611
  0
LINE
  5
34C
100
AcDbEntity
  8
0
100
AcDbLine
 62
7
  6
CONTINUOUS
 10
690.271750954
 20
156.8374170831
 11
690.6655799519
 21
158.3072069126
  0
LINE
  5
34D
100
AcDbEntity
  8
0
100
AcDbLine
 62
7
  6
CONTINUOUS
 10
674.082616811
 20
95.2402358453
 11
673.9069246172
 21
94.5845436515
  0
LINE
  5
34E
100
AcDbEntity
  8
0
100
AcDbLine
 62
7
  6
CONTINUOUS
 10
673.7531939476
 20
94.0108129819
 11
672.6551177363
 21
89.9127367705
  0
LINE
  5
34F
100
AcDbEntity
  8
0
100
AcDbLine
 62
7
  6
CONTINUOUS
 10
673.7654192314
 20
90.3472831891
 11
674.6804827409
 21
93.7623466986
  0
LINE
  5
350
100
AcDbEntity
  8
0
100
AcDbLine
 62
7
  6
CONTINUOUS
 10
693.0197068657
 20
157.0462942282
 11
692.9409410073
 21
156.7523360427
  0
LINE
  5
351
100
AcDbEntity
  8
0
100
AcDbLine
 62
7
  6
CONTINUOUS
 10
735.7593547017
 20
315.192453481
 11
700.3011455226
 21
182.8606152794
  0
LINE
  5
352
100
AcDbEntity
  8
0
100
AcDbLine
 62
7
  6
CONTINUOUS
 10
693.5174837703
 20
156.4928308285
 11
693.6225048903
 21
156.8847749844
  0
LINE
  5
353
100
AcDbEntity
  8
0
100
AcDbLine
 62
7
  6
CONTINUOUS
 10
694.3954255455
 20
156.1525659924
 11
694.0015965844
 21
154.6827763002
  0
LINE
  5
354
100
AcDbEntity
  8
0
100
AcDbLine
 62
7
  6
CONTINUOUS
 10
694.604394609
 20
154.5212570563
 11
694.99822357
 21
155.9910467485
  0
LINE
  5
355
100
AcDbEntity
  8
0
100
AcDbLine
 62
7
  6
CONTINUOUS
 10
678.3831210259
 20
91.6135874843
 11
678.2916146749
 21
91.2720811333
  0
LINE
  5
356
100
AcDbEntity
  8
0
100
AcDbLine
 62
7
  6
CONTINUOUS
 10
696.6753413356
 20
155.0165591652
 11
696.5178097659
 21
154.4286433432
  0
LINE
  5
357
100
AcDbEntity
  8
KONSTRUKTIONSELEMENTE
100
AcDbLine
 62
7
  6
CONTINUOUS
 10
691.2461366833
 20
134.2477818912
 11
692.323600368
 21
138.268931106
  0
LINE
  5
358
100
AcDbEntity
  8
0
100
AcDbLine
 62
7
  6
CONTINUOUS
 10
697.4220068027
 20
154.1863644774
 11
697.211964673
 21
153.4024765775
  0
LINE
  5
359
100
AcDbEntity
  8
0
100
AcDbLine
 62
7
  6
CONTINUOUS
 10
697.7885074359
 20
153.1429713633
 11
698.182336397
 21
154.6127610555
  0
LINE
  5
35A
100
AcDbEntity
  8
0
100
AcDbLine
 62
7
  6
CONTINUOUS
 10
699.3536412159
 20
155.7692058201
 11
699.1435990494
 21
154.985317783
  0
LINE
  5
35B
100
AcDbEntity
  8
0
100
AcDbLine
 62
7
  6
CONTINUOUS
 10
699.9301839789
 20
155.5097006059
 11
698.9062286286
 21
151.688247214
  0
LINE
  5
35C
100
AcDbEntity
  8
0
100
AcDbLine
 62
7
  6
CONTINUOUS
 10
699.5090266531
 20
151.5267279701
 11
700.7430240964
 21
156.1320691247
  0
LINE
  5
35D
100
AcDbEntity
  8
0
100
AcDbLine
 62
7
  6
CONTINUOUS
 10
701.047903985
 20
154.0549766274
 11
700.8116066304
 21
153.1731028944
  0
LINE
  5
35E
100
AcDbEntity
  8
0
100
AcDbLine
 62
7
  6
CONTINUOUS
 10
701.3401939624
 20
153.1364893922
 11
701.5239807937
 21
153.8223911845
  0
LINE
  5
35F
100
AcDbEntity
  8
0
100
AcDbLine
 62
7
  6
CONTINUOUS
 10
704.1361059501
 20
153.1224743583
 11
703.9523191187
 21
152.436572566
  0
LINE
  5
360
100
AcDbEntity
  8
0
100
AcDbLine
 62
7
  6
CONTINUOUS
 10
704.4283947777
 20
152.2039874312
 11
704.6646921323
 21
153.0858611641
  0
LINE
  5
361
100
AcDbEntity
  8
RUNDUNGEN
100
AcDbLine
 62
7
  6
CONTINUOUS
 10
678.3162192397
 20
42.2766483176
 11
677.1266366774
 21
37.8370657553
  0
LINE
  5
362
100
AcDbEntity
  8
RUNDUNGEN
100
AcDbLine
 62
7
  6
CONTINUOUS
 10
701.9339414788
 20
121.339484906
 11
710.47555231
 21
153.2172105066
  0
LINE
  5
363
100
AcDbEntity
  8
0
100
AcDbLine
 62
7
  6
CONTINUOUS
 10
710.5948030954
 20
146.8643751824
 11
713.2826952472
 21
156.8957252584
  0
LINE
  5
364
100
AcDbEntity
  8
0
100
AcDbLine
 62
7
  6
CONTINUOUS
 10
663.8692657363
 20
206.3091547693
 11
654.8259804918
 21
190.6457252584
  0
LINE
  5
365
100
AcDbEntity
  8
0
100
AcDbLine
 62
7
  6
CONTINUOUS
 10
841.5696005864
 20
127.8757565648
 11
834.9447031607
 21
152.6002103523
  0
LINE
  5
366
100
AcDbEntity
  8
0
100
AcDbLine
 62
7
  6
CONTINUOUS
 10
830.2283061641
 20
188.5546342717
 11
794.7700969851
 21
320.8864724733
  0
LINE
  5
367
100
AcDbEntity
  8
0
100
AcDbLine
 62
7
  6
CONTINUOUS
 10
846.6928551719
 20
141.9271811878
 11
845.6153914871
 21
145.9483304027
  0
LINE
  5
368
100
AcDbEntity
  8
0
100
AcDbLine
 62
7
  6
CONTINUOUS
 10
853.8613032968
 20
167.9698960774
 11
862.4029141281
 21
136.0921704768
  0
LINE
  5
369
100
AcDbEntity
  8
0
100
AcDbLine
 62
7
  6
CONTINUOUS
 10
786.9531030166
 20
172.5591547693
 11
786.9531030166
 21
190.6457252584
  0
LINE
  5
36A
100
AcDbEntity
  8
RUNDUNGEN
100
AcDbLine
 62
7
  6
CONTINUOUS
 10
685.5327115723
 20
38.8788934097
 11
687.9893836844
 21
48.0473185496
  0
LINE
  5
36B
100
AcDbEntity
  8
RUNDUNGEN
100
AcDbLine
 62
7
  6
CONTINUOUS
 10
711.4747549161
 20
95.9231556736
 11
712.3898184256
 21
99.338219183
  0
LINE
  5
36C
100
AcDbEntity
  8
0
100
AcDbLine
 62
7
  6
CONTINUOUS
 10
669.3660357204
 20
160.7587497064
 11
669.5932568189
 21
161.2229712289
  0
LINE
  5
36D
100
AcDbEntity
  8
0
100
AcDbLine
 62
7
  6
CONTINUOUS
 10
673.971376875
 20
159.5247522631
 11
674.1985974245
 21
159.9889739328
  0
LINE
  5
36E
100
AcDbEntity
  8
0
100
AcDbLine
 62
7
  6
CONTINUOUS
 10
669.0175891746
 20
161.3772209093
 11
668.8166233377
 21
161.0109853571
  0
LINE
  5
36F
100
AcDbEntity
  8
0
100
AcDbLine
 62
7
  6
CONTINUOUS
 10
673.6229297802
 20
160.1432236132
 11
673.4219644923
 21
159.7769879139
  0
LINE
  5
370
100
AcDbEntity
  8
0
100
AcDbLine
 62
7
  6
CONTINUOUS
 10
857.1409951685
 20
162.5278046933
 11
854.4531030166
 21
172.5591547693
  0
LINE
  5
371
100
AcDbEntity
  8
0
100
AcDbLine
 62
7
  6
CONTINUOUS
 10
701.5239807937
 20
153.8223911845
 11
701.7819783176
 21
154.3833872352
  0
LINE
  5
372
100
AcDbEntity
  8
0
100
AcDbLine
 62
7
  6
CONTINUOUS
 10
703.9523191187
 20
152.436572566
 11
703.6943204083
 21
151.8755766861
  0
LINE
  5
373
100
AcDbEntity
  8
0
100
AcDbLine
 62
7
  6
CONTINUOUS
 10
694.6271684562
 20
156.6155761932
 11
694.3954255455
 21
156.1525659924
  0
LINE
  5
374
100
AcDbEntity
  8
0
100
AcDbLine
 62
7
  6
CONTINUOUS
 10
701.279647397
 20
154.5179863997
 11
701.047903985
 21
154.0549766274
  0
LINE
  5
375
100
AcDbEntity
  8
0
100
AcDbLine
 62
7
  6
CONTINUOUS
 10
704.1966524787
 20
151.7409772135
 11
704.4283947777
 21
152.2039874312
  0
LINE
  5
376
100
AcDbEntity
  8
0
100
AcDbLine
 62
7
  6
CONTINUOUS
 10
694.99822357
 20
155.9910467485
 11
695.2037111456
 21
156.3560707045
  0
LINE
  5
377
100
AcDbEntity
  8
0
100
AcDbLine
 62
7
  6
CONTINUOUS
 10
697.5830204169
 20
152.7779471846
 11
697.7885074359
 21
153.1429713633
  0
LINE
  5
378
100
AcDbEntity
  8
0
100
AcDbLine
 62
7
  6
CONTINUOUS
 10
665.146421052
 20
164.1998552188
 11
664.9717107512
 21
163.9316055634
  0
LINE
  5
379
100
AcDbEntity
  8
0
100
AcDbLine
 62
7
  6
CONTINUOUS
 10
665.5211231339
 20
163.6793699126
 11
665.6958334347
 21
163.9476195681
  0
LINE
  5
37A
100
AcDbEntity
  8
0
100
AcDbLine
 62
7
  6
CONTINUOUS
 10
857.1409951685
 20
162.5278046933
 11
857.413956542
 21
154.7112136649
  0
LINE
  5
37B
100
AcDbEntity
  8
0
100
AcDbLine
 62
7
  6
CONTINUOUS
 10
854.4531030166
 20
190.6457252584
 11
854.4531030166
 21
172.5591547693
  0
LINE
  5
37C
100
AcDbEntity
  8
0
100
AcDbLine
 62
7
  6
CONTINUOUS
 10
710.5948030954
 20
146.8643751824
 11
706.9228990649
 21
139.958528094
  0
LINE
  5
37D
100
AcDbEntity
  8
0
100
AcDbLine
 62
7
  6
CONTINUOUS
 10
713.2826952472
 20
156.8957252584
 11
722.3259804918
 21
172.5591547693
  0
LINE
  5
37E
100
AcDbEntity
  8
0
100
AcDbLine
 62
7
  6
CONTINUOUS
 10
692.9409410073
 20
156.7523360427
 11
692.7617089809
 21
156.4852979801
  0
LINE
  5
37F
100
AcDbEntity
  8
0
100
AcDbLine
 62
7
  6
CONTINUOUS
 10
693.3382514564
 20
156.2257928429
 11
693.5174837703
 21
156.4928308285
  0
LINE
  5
380
100
AcDbEntity
  8
0
100
AcDbLine
 62
7
  6
CONTINUOUS
 10
697.211964673
 20
153.4024765775
 11
697.0327323591
 21
153.1354385918
  0
LINE
  5
381
100
AcDbEntity
  8
0
100
AcDbLine
 62
7
  6
CONTINUOUS
 10
701.4588792096
 20
154.7850248139
 11
701.279647397
 21
154.5179863997
  0
LINE
  5
382
100
AcDbEntity
  8
0
100
AcDbLine
 62
7
  6
CONTINUOUS
 10
704.0174207396
 20
151.4739390738
 11
704.1966524787
 21
151.7409772135
  0
LINE
  5
383
100
AcDbEntity
  8
0
100
AcDbLine
 62
7
  6
CONTINUOUS
 10
669.0691256238
 20
160.4182222675
 11
669.3660357204
 21
160.7587497064
  0
LINE
  5
384
100
AcDbEntity
  8
0
100
AcDbLine
 62
7
  6
CONTINUOUS
 10
673.6744662294
 20
159.1842249714
 11
673.971376875
 21
159.5247522631
  0
LINE
  5
385
100
AcDbEntity
  8
0
100
AcDbLine
 62
7
  6
CONTINUOUS
 10
879.6395417542
 20
428.1550071741
 11
879.6395417542
 21
638.1550071741
  0
LINE
  5
386
100
AcDbEntity
  8
0
100
AcDbLine
 62
7
  6
CONTINUOUS
 10
786.9531030166
 20
190.6457252584
 11
795.9963882612
 21
206.3091547693
  0
LINE
  5
387
100
AcDbEntity
  8
0
100
AcDbLine
 62
7
  6
CONTINUOUS
 10
694.9331219859
 20
156.9536803779
 11
694.6271684562
 21
156.6155761932
  0
LINE
  5
388
100
AcDbEntity
  8
0
100
AcDbLine
 62
7
  6
CONTINUOUS
 10
701.7648333142
 20
155.1231288446
 11
701.4588792096
 21
154.7850248139
  0
LINE
  5
389
100
AcDbEntity
  8
0
100
AcDbLine
 62
7
  6
CONTINUOUS
 10
703.7114666167
 20
151.1358349745
 11
704.0174207396
 21
151.4739390738
  0
LINE
  5
38A
100
AcDbEntity
  8
0
100
AcDbLine
 62
7
  6
CONTINUOUS
 10
668.8166233377
 20
161.0109853571
 11
668.5459685211
 21
160.7684439572
  0
LINE
  5
38B
100
AcDbEntity
  8
0
100
AcDbLine
 62
7
  6
CONTINUOUS
 10
673.4219644923
 20
159.7769879139
 11
673.1513091267
 21
159.5344466611
  0
LINE
  5
38C
100
AcDbEntity
  8
0
100
AcDbLine
 62
7
  6
CONTINUOUS
 10
679.5326952472
 20
215.3524400138
 11
663.8692657363
 21
206.3091547693
  0
LINE
  5
38D
100
AcDbEntity
  8
0
100
AcDbLine
 62
7
  6
CONTINUOUS
 10
915.6395417542
 20
428.1550071741
 11
915.6395417542
 21
638.1550071741
  0
LINE
  5
38E
100
AcDbEntity
  8
0
100
AcDbLine
 62
7
  6
CONTINUOUS
 10
695.2037111456
 20
156.3560707045
 11
695.4834094872
 21
156.5961891934
  0
LINE
  5
38F
100
AcDbEntity
  8
0
100
AcDbLine
 62
7
  6
CONTINUOUS
 10
701.7819783176
 20
154.3833872352
 11
702.3413760771
 21
154.8636236304
  0
LINE
  5
390
100
AcDbEntity
  8
0
100
AcDbLine
 62
7
  6
CONTINUOUS
 10
703.6943204083
 20
151.8755766861
 11
703.1349238537
 21
151.3953401887
  0
LINE
  5
391
100
AcDbEntity
  8
0
100
AcDbLine
 62
7
  6
CONTINUOUS
 10
665.1282682653
 20
163.3645508715
 11
665.5211231339
 21
163.6793699126
  0
LINE
  5
392
100
AcDbEntity
  8
0
100
AcDbLine
 62
7
  6
CONTINUOUS
 10
859.886692861
 20
127.6557090386
 11
862.4029141281
 21
136.0921704768
  0
LINE
  5
393
100
AcDbEntity
  8
RUNDUNGEN
100
AcDbLine
 62
7
  6
CONTINUOUS
 10
695.5365992209
 20
115.291405616
 11
701.9339414788
 21
121.339484906
  0
LINE
  5
394
100
AcDbEntity
  8
0
100
AcDbLine
 62
7
  6
CONTINUOUS
 10
692.931831685
 20
155.9146085065
 11
693.3382514564
 21
156.2257928429
  0
LINE
  5
395
100
AcDbEntity
  8
0
100
AcDbLine
 62
7
  6
CONTINUOUS
 10
700.1402260718
 20
156.2935883686
 11
699.3536412159
 21
155.7692058201
  0
LINE
  5
396
100
AcDbEntity
  8
0
100
AcDbLine
 62
7
  6
CONTINUOUS
 10
699.1435990494
 20
154.985317783
 11
699.9301839789
 21
155.5097006059
  0
LINE
  5
397
100
AcDbEntity
  8
0
100
AcDbLine
 62
7
  6
CONTINUOUS
 10
664.9717107512
 20
163.9316055634
 11
664.7273109217
 21
163.7870502073
  0
LINE
  5
398
100
AcDbEntity
  8
0
100
AcDbLine
 62
7
  6
CONTINUOUS
 10
668.5803259556
 20
160.1291115212
 11
669.0691256238
 21
160.4182222675
  0
LINE
  5
399
100
AcDbEntity
  8
0
100
AcDbLine
 62
7
  6
CONTINUOUS
 10
673.1856671101
 20
158.8951140779
 11
673.6744662294
 21
159.1842249714
  0
LINE
  5
39A
100
AcDbEntity
  8
0
100
AcDbLine
 62
7
  6
CONTINUOUS
 10
795.9963882612
 20
206.3091547693
 11
801.7974875782
 21
209.6584210216
  0
LINE
  5
39B
100
AcDbEntity
  8
0
100
AcDbLine
 62
7
  6
CONTINUOUS
 10
692.7617089809
 20
156.4852979801
 11
692.5082656869
 21
156.343165813
  0
LINE
  5
39C
100
AcDbEntity
  8
0
100
AcDbLine
 62
7
  6
CONTINUOUS
 10
695.4400085737
 20
157.237944712
 11
694.9331219859
 21
156.9536803779
  0
LINE
  5
39D
100
AcDbEntity
  8
0
100
AcDbLine
 62
7
  6
CONTINUOUS
 10
702.1449981113
 20
155.3363271337
 11
701.7648333142
 21
155.1231288446
  0
LINE
  5
39E
100
AcDbEntity
  8
0
100
AcDbLine
 62
7
  6
CONTINUOUS
 10
697.0761338199
 20
152.4936828163
 11
697.5830204169
 21
152.7779471846
  0
LINE
  5
39F
100
AcDbEntity
  8
0
100
AcDbLine
 62
7
  6
CONTINUOUS
 10
703.3313018103
 20
150.9226366512
 11
703.7114666167
 21
151.1358349745
  0
LINE
  5
3A0
100
AcDbEntity
  8
0
100
AcDbLine
 62
7
  6
CONTINUOUS
 10
668.5459685211
 20
160.7684439572
 11
668.2056241573
 21
160.6495967881
  0
LINE
  5
3A1
100
AcDbEntity
  8
0
100
AcDbLine
 62
7
  6
CONTINUOUS
 10
673.1513091267
 20
159.5344466611
 11
672.8109647629
 21
159.415599492
  0
LINE
  5
3A2
100
AcDbEntity
  8
RUNDUNGEN
100
AcDbLine
 62
7
  6
CONTINUOUS
 10
641.9468311283
 20
78.0234488978
 11
623.7047149188
 21
67.3717790982
  0
LINE
  5
3A3
100
AcDbEntity
  8
RUNDUNGEN
100
AcDbLine
 62
7
  6
CONTINUOUS
 10
641.0317676189
 20
74.6083853883
 11
622.7896514093
 21
63.9567155888
  0
LINE
  5
3A4
100
AcDbEntity
  8
RUNDUNGEN
100
AcDbLine
 62
7
  6
CONTINUOUS
 10
694.082741022
 20
100.2290862508
 11
703.8723657648
 21
105.9453008074
  0
LINE
  5
3A5
100
AcDbEntity
  8
RUNDUNGEN
100
AcDbLine
 62
7
  6
CONTINUOUS
 10
693.1676775126
 20
96.8140227413
 11
702.9573022553
 21
102.5302372979
  0
LINE
  5
3A6
100
AcDbEntity
  8
0
100
AcDbLine
 62
7
  6
CONTINUOUS
 10
695.4834094872
 20
156.5961891934
 11
695.8373190227
 21
156.7114015121
  0
LINE
  5
3A7
100
AcDbEntity
  8
0
100
AcDbLine
 62
7
  6
CONTINUOUS
 10
697.0327323591
 20
153.1354385918
 11
696.6788228052
 21
153.0202262045
  0
LINE
  5
3A8
100
AcDbEntity
  8
0
100
AcDbLine
 62
7
  6
CONTINUOUS
 10
702.3413760771
 20
154.8636236304
 11
702.6952856126
 21
154.9788359491
  0
LINE
  5
3A9
100
AcDbEntity
  8
0
100
AcDbLine
 62
7
  6
CONTINUOUS
 10
703.1349238537
 20
151.3953401887
 11
702.7810143182
 21
151.28012787
  0
LINE
  5
3AA
100
AcDbEntity
  8
RUNDUNGEN
100
AcDbLine
 62
7
  6
CONTINUOUS
 10
644.517612157
 20
56.5540303992
 11
650.9944084848
 21
60.3358666209
  0
LINE
  5
3AB
100
AcDbEntity
  8
RUNDUNGEN
100
AcDbLine
 62
7
  6
CONTINUOUS
 10
679.4026025307
 20
76.9235639638
 11
711.0552686895
 21
95.4057260291
  0
LINE
  5
3AC
100
AcDbEntity
  8
0
100
AcDbLine
 62
7
  6
CONTINUOUS
 10
446.9388077277
 20
68.6612981555
 11
446.9989870263
 21
68.667874178
  0
LINE
  5
3AD
100
AcDbEntity
  8
0
100
AcDbLine
 62
7
  6
CONTINUOUS
 10
417.3343229481
 20
93.3900646124
 11
417.3811387979
 21
93.3971421206
  0
LINE
  5
3AE
100
AcDbEntity
  8
0
100
AcDbLine
 62
7
  6
CONTINUOUS
 10
416.4625604153
 20
94.3395423716
 11
416.4157445632
 21
94.3324648661
  0
LINE
  5
3AF
100
AcDbEntity
  8
0
100
AcDbLine
 62
7
  6
CONTINUOUS
 10
428.4698529421
 20
86.5009385674
 11
428.5300322407
 21
86.5075145899
  0
LINE
  5
3B0
100
AcDbEntity
  8
0
100
AcDbLine
 62
7
  6
CONTINUOUS
 10
411.5171710119
 20
99.4034830161
 11
411.4419468952
 21
99.3952629816
  0
LINE
  5
3B1
100
AcDbEntity
  8
0
100
AcDbLine
 62
7
  6
CONTINUOUS
 10
410.4640331675
 20
100.5824979618
 11
410.5392572842
 21
100.5907179578
  0
LINE
  5
3B2
100
AcDbEntity
  8
0
100
AcDbLine
 62
7
  6
CONTINUOUS
 10
411.2162745451
 20
104.2935567855
 11
411.1410504284
 21
104.285336751
  0
LINE
  5
3B3
100
AcDbEntity
  8
0
100
AcDbLine
 62
7
  6
CONTINUOUS
 10
411.2162745451
 20
104.7249217578
 11
411.1410504284
 21
104.7167018776
  0
LINE
  5
3B4
100
AcDbEntity
  8
0
100
AcDbLine
 62
7
  6
CONTINUOUS
 10
411.2162745451
 20
105.5067710594
 11
411.1410504284
 21
105.4985510249
  0
LINE
  5
3B5
100
AcDbEntity
  8
0
100
AcDbLine
 62
7
  6
CONTINUOUS
 10
411.2162745451
 20
105.9381360318
 11
411.1410504284
 21
105.9299159972
  0
LINE
  5
3B6
100
AcDbEntity
  8
0
100
AcDbLine
 62
7
  6
CONTINUOUS
 10
416.7634017951
 20
93.5041265008
 11
416.8234512827
 21
93.5069803732
  0
LINE
  5
3B7
100
AcDbEntity
  8
0
100
AcDbLine
 62
7
  6
CONTINUOUS
 10
416.1269978314
 20
93.9277936401
 11
416.3671957821
 21
93.9392091298
  0
LINE
  5
3B8
100
AcDbEntity
  8
0
100
AcDbLine
 62
7
  6
CONTINUOUS
 10
416.4272452698
 20
93.9420630023
 11
416.5273277397
 21
93.9468194559
  0
LINE
  5
3B9
100
AcDbEntity
  8
0
100
AcDbLine
 62
7
  6
CONTINUOUS
 10
416.1973931825
 20
94.1256731386
 11
416.027252965
 21
94.1175871666
  0
LINE
  5
3BA
100
AcDbEntity
  8
0
100
AcDbLine
 62
7
  6
CONTINUOUS
 10
416.3575251401
 20
94.1332834647
 11
416.2574426702
 21
94.1285270111
  0
LINE
  5
3BB
100
AcDbEntity
  8
0
100
AcDbLine
 62
7
  6
CONTINUOUS
 10
415.4933310709
 20
94.9676149417
 11
415.4332815833
 21
94.9647610692
  0
LINE
  5
3BC
100
AcDbEntity
  8
0
100
AcDbLine
 62
7
  6
CONTINUOUS
 10
436.4716474431
 20
75.0100348497
 11
436.4141118672
 21
75.0147647295
  0
LINE
  5
3BD
100
AcDbEntity
  8
0
100
AcDbLine
 62
7
  6
CONTINUOUS
 10
435.4340612791
 20
76.1387011345
 11
435.4915967606
 21
76.1339712948
  0
LINE
  5
3BE
100
AcDbEntity
  8
0
100
AcDbLine
 62
7
  6
CONTINUOUS
 10
435.8890450263
 20
75.0565805405
 11
435.9484612575
 21
75.048529169
  0
LINE
  5
3BF
100
AcDbEntity
  8
0
100
AcDbLine
 62
7
  6
CONTINUOUS
 10
435.8226761965
 20
75.2021068466
 11
435.7394934592
 21
75.2133787686
  0
LINE
  5
3C0
100
AcDbEntity
  8
0
100
AcDbLine
 62
7
  6
CONTINUOUS
 10
435.1888202223
 20
75.8341305582
 11
435.2720029596
 21
75.8228586362
  0
LINE
  5
3C1
100
AcDbEntity
  8
0
100
AcDbLine
 62
7
  6
CONTINUOUS
 10
435.1224514118
 20
75.9796568426
 11
435.0630351805
 21
75.9877082141
  0
LINE
  5
3C2
100
AcDbEntity
  8
0
100
AcDbLine
 62
7
  6
CONTINUOUS
 10
435.0523153713
 20
76.1530002496
 11
435.1117315856
 21
76.1449488804
  0
LINE
  5
3C3
100
AcDbEntity
  8
0
100
AcDbLine
 62
7
  6
CONTINUOUS
 10
434.7207479429
 20
76.3617696109
 11
434.7920474272
 21
76.3521079641
  0
LINE
  5
3C4
100
AcDbEntity
  8
0
100
AcDbLine
 62
7
  6
CONTINUOUS
 10
434.6424958794
 20
76.5089061705
 11
434.5949629012
 21
76.5153472667
  0
LINE
  5
3C5
100
AcDbEntity
  8
0
100
AcDbLine
 62
7
  6
CONTINUOUS
 10
436.5387760718
 20
74.8635205979
 11
436.6128052526
 21
74.8517950124
  0
LINE
  5
3C6
100
AcDbEntity
  8
0
100
AcDbLine
 62
7
  6
CONTINUOUS
 10
435.3669325735
 20
76.2852154052
 11
435.2929033904
 21
76.2969409933
  0
LINE
  5
3C7
100
AcDbEntity
  8
0
100
AcDbLine
 62
7
  6
CONTINUOUS
 10
284.6941280256
 20
115.291405616
 11
282.8941280256
 21
115.291405616
  0
LINE
  5
3C8
100
AcDbEntity
  8
0
100
AcDbLine
 62
7
  6
CONTINUOUS
 10
282.8941280256
 20
127.6557090386
 11
284.6941280256
 21
127.6557090386
  0
LINE
  5
3C9
100
AcDbEntity
  8
0
100
AcDbLine
 62
7
  6
CONTINUOUS
 10
411.742843362
 20
98.9698177209
 11
411.8932915954
 21
98.9323371491
  0
LINE
  5
3CA
100
AcDbEntity
  8
0
100
AcDbLine
 62
7
  6
CONTINUOUS
 10
411.3892899714
 20
99.2483986333
 11
411.3633151297
 21
99.254869646
  0
LINE
  5
3CB
100
AcDbEntity
  8
0
100
AcDbLine
 62
7
  6
CONTINUOUS
 10
411.742843362
 20
99.5899049843
 11
411.5923951286
 21
99.6273855753
  0
LINE
  5
3CC
100
AcDbEntity
  8
0
100
AcDbLine
 62
7
  6
CONTINUOUS
 10
411.4419468952
 20
103.9407724997
 11
411.5171710119
 21
103.9220321656
  0
LINE
  5
3CD
100
AcDbEntity
  8
0
100
AcDbLine
 62
7
  6
CONTINUOUS
 10
411.4419468952
 20
104.3721374721
 11
411.5171710119
 21
104.3533972922
  0
LINE
  5
3CE
100
AcDbEntity
  8
0
100
AcDbLine
 62
7
  6
CONTINUOUS
 10
411.4419468952
 20
105.1539866194
 11
411.5171710119
 21
105.1352464396
  0
LINE
  5
3CF
100
AcDbEntity
  8
0
100
AcDbLine
 62
7
  6
CONTINUOUS
 10
411.4419468952
 20
105.5853519002
 11
411.5171710119
 21
105.5666114119
  0
LINE
  5
3D0
100
AcDbEntity
  8
0
100
AcDbLine
 62
7
  6
CONTINUOUS
 10
438.8106708879
 20
74.1615357786
 11
442.8931537925
 21
72.8063505567
  0
LINE
  5
3D1
100
AcDbEntity
  8
0
100
AcDbLine
 62
7
  6
CONTINUOUS
 10
442.5396004019
 20
72.9824822959
 11
438.3502203043
 21
74.3731521726
  0
LINE
  5
3D2
100
AcDbEntity
  8
0
100
AcDbLine
 62
7
  6
CONTINUOUS
 10
442.8931537925
 20
73.3239886469
 11
437.994174307
 21
74.9502109132
  0
LINE
  5
3D3
100
AcDbEntity
  8
0
100
AcDbLine
 62
7
  6
CONTINUOUS
 10
275.9680364194
 20
136.0921704768
 11
291.6202196318
 21
136.0921704768
  0
LINE
  5
3D4
100
AcDbEntity
  8
0
100
AcDbLine
 62
7
  6
CONTINUOUS
 10
281.2948780256
 20
154.7112136649
 11
286.2933780256
 21
154.7112136649
  0
LINE
  5
3D5
100
AcDbEntity
  8
0
100
AcDbLine
 62
7
  6
CONTINUOUS
 10
417.2467752997
 20
93.4184166422
 11
417.3343229481
 21
93.3900646124
  0
LINE
  5
3D6
100
AcDbEntity
  8
0
100
AcDbLine
 62
7
  6
CONTINUOUS
 10
417.2036204612
 20
93.5435855744
 11
417.1160728129
 21
93.5719376043
  0
LINE
  5
3D7
100
AcDbEntity
  8
0
100
AcDbLine
 62
7
  6
CONTINUOUS
 10
416.8017678661
 20
93.8293949874
 11
416.7142202178
 21
93.8577470172
  0
LINE
  5
3D8
100
AcDbEntity
  8
0
100
AcDbLine
 62
7
  6
CONTINUOUS
 10
416.4789557378
 20
94.1340847533
 11
416.5810946887
 21
94.1010073761
  0
LINE
  5
3D9
100
AcDbEntity
  8
0
100
AcDbLine
 62
7
  6
CONTINUOUS
 10
416.5932628838
 20
94.1860214311
 11
416.6808105321
 21
94.1576694012
  0
LINE
  5
3DA
100
AcDbEntity
  8
0
100
AcDbLine
 62
7
  6
CONTINUOUS
 10
416.5501080636
 20
94.3111903418
 11
416.4625604153
 21
94.3395423716
  0
LINE
  5
3DB
100
AcDbEntity
  8
0
100
AcDbLine
 62
7
  6
CONTINUOUS
 10
416.0029616425
 20
94.7552461071
 11
416.4261086651
 21
94.6182112781
  0
LINE
  5
3DC
100
AcDbEntity
  8
0
100
AcDbLine
 62
7
  6
CONTINUOUS
 10
416.2954061966
 20
94.7717322187
 11
415.7993028282
 21
94.9323937302
  0
LINE
  5
3DD
100
AcDbEntity
  8
0
100
AcDbLine
 62
7
  6
CONTINUOUS
 10
413.2473258802
 20
97.4087579293
 11
413.47299825
 21
97.3255767418
  0
LINE
  5
3DE
100
AcDbEntity
  8
0
100
AcDbLine
 62
7
  6
CONTINUOUS
 10
413.2473258802
 20
100.8758547178
 11
413.47299825
 21
100.7926735592
  0
LINE
  5
3DF
100
AcDbEntity
  8
0
100
AcDbLine
 62
7
  6
CONTINUOUS
 10
410.3135849341
 20
104.302757895
 11
410.087912584
 21
104.3859390345
  0
LINE
  5
3E0
100
AcDbEntity
  8
0
100
AcDbLine
 62
7
  6
CONTINUOUS
 10
446.8184491304
 20
68.7128508562
 11
446.9388077277
 21
68.6612981555
  0
LINE
  5
3E1
100
AcDbEntity
  8
0
100
AcDbLine
 62
7
  6
CONTINUOUS
 10
446.758269816
 20
68.9219573814
 11
446.6379112293
 21
68.9735100875
  0
LINE
  5
3E2
100
AcDbEntity
  8
0
100
AcDbLine
 62
7
  6
CONTINUOUS
 10
428.3494943448
 20
86.5524912682
 11
428.4698529421
 21
86.5009385674
  0
LINE
  5
3E3
100
AcDbEntity
  8
0
100
AcDbLine
 62
7
  6
CONTINUOUS
 10
428.2893150304
 20
86.7615977934
 11
428.1689564437
 21
86.8131504994
  0
LINE
  5
3E4
100
AcDbEntity
  8
0
100
AcDbLine
 62
7
  6
CONTINUOUS
 10
411.4419468952
 20
99.3952629816
 11
411.2914986618
 21
99.4597038448
  0
LINE
  5
3E5
100
AcDbEntity
  8
0
100
AcDbLine
 62
7
  6
CONTINUOUS
 10
412.0437398287
 20
99.1644597814
 11
412.1941880621
 21
99.1000188989
  0
LINE
  5
3E6
100
AcDbEntity
  8
0
100
AcDbLine
 62
7
  6
CONTINUOUS
 10
413.0968776205
 20
101.1829384806
 11
412.9464293871
 21
101.2473793631
  0
LINE
  5
3E7
100
AcDbEntity
  8
0
100
AcDbLine
 62
7
  6
CONTINUOUS
 10
410.4640331675
 20
103.9956740805
 11
410.6144814009
 21
103.931233198
  0
LINE
  5
3E8
100
AcDbEntity
  8
0
100
AcDbLine
 62
7
  6
CONTINUOUS
 10
435.8020951252
 20
75.0956695021
 11
435.8890450263
 21
75.0565805405
  0
LINE
  5
3E9
100
AcDbEntity
  8
0
100
AcDbLine
 62
7
  6
CONTINUOUS
 10
435.209401319
 20
75.9405678825
 11
435.1224514118
 21
75.9796568426
  0
LINE
  5
3EA
100
AcDbEntity
  8
0
100
AcDbLine
 62
7
  6
CONTINUOUS
 10
434.7294457696
 20
76.4698172127
 11
434.6424958794
 21
76.5089061705
  0
LINE
  5
3EB
100
AcDbEntity
  8
0
100
AcDbLine
 62
7
  6
CONTINUOUS
 10
286.2933780256
 20
162.5278046933
 11
281.2948780256
 21
162.5278046933
  0
LINE
  5
3EC
100
AcDbEntity
  8
0
100
AcDbLine
 62
7
  6
CONTINUOUS
 10
280.0753717588
 20
172.5591547693
 11
287.5128842923
 21
172.5591547693
  0
LINE
  5
3ED
100
AcDbEntity
  8
RUNDUNGEN
100
AcDbLine
 62
7
  6
CONTINUOUS
 10
411.9405767552
 20
108.3564996004
 11
410.3182576045
 21
109.0754909669
  0
LINE
  5
3EE
100
AcDbEntity
  8
RUNDUNGEN
100
AcDbLine
 62
7
  6
CONTINUOUS
 10
400.269619092
 20
113.6161206639
 11
401.2506208243
 21
113.1813530808
  0
LINE
  5
3EF
100
AcDbEntity
  8
RUNDUNGEN
100
AcDbLine
 62
7
  6
CONTINUOUS
 10
406.0445165794
 20
115.3014364896
 11
406.379988288
 21
115.1527596635
  0
LINE
  5
3F0
100
AcDbEntity
  8
RUNDUNGEN
100
AcDbLine
 62
7
  6
CONTINUOUS
 10
398.1833716247
 20
123.7490062733
 11
398.5889514124
 21
123.5692584316
  0
LINE
  5
3F1
100
AcDbEntity
  8
0
100
AcDbLine
 62
7
  6
CONTINUOUS
 10
410.3135849341
 20
100.9435023207
 11
410.087912584
 21
101.0536438288
  0
LINE
  5
3F2
100
AcDbEntity
  8
0
100
AcDbLine
 62
7
  6
CONTINUOUS
 10
417.147678458
 20
93.4727475156
 11
417.2467752997
 21
93.4184166422
  0
LINE
  5
3F3
100
AcDbEntity
  8
0
100
AcDbLine
 62
7
  6
CONTINUOUS
 10
416.6492049031
 20
94.2568594711
 11
416.5501080636
 21
94.3111903418
  0
LINE
  5
3F4
100
AcDbEntity
  8
0
100
AcDbLine
 62
7
  6
CONTINUOUS
 10
435.7394934592
 20
75.2133787686
 11
435.6763100581
 21
75.2492471782
  0
LINE
  5
3F5
100
AcDbEntity
  8
0
100
AcDbLine
 62
7
  6
CONTINUOUS
 10
435.2720029596
 20
75.8228586362
 11
435.3351863437
 21
75.786990229
  0
LINE
  5
3F6
100
AcDbEntity
  8
0
100
AcDbLine
 62
7
  6
CONTINUOUS
 10
434.7920474272
 20
76.3521079641
 11
434.8552308283
 21
76.3162395546
  0
LINE
  5
3F7
100
AcDbEntity
  8
0
100
AcDbLine
 62
7
  6
CONTINUOUS
 10
416.9746731092
 20
94.520657347
 11
417.034664886
 21
94.4864689531
  0
LINE
  5
3F8
100
AcDbEntity
  8
0
100
AcDbLine
 62
7
  6
CONTINUOUS
 10
416.7750193822
 20
94.825101308
 11
416.7150276055
 21
94.8592897019
  0
LINE
  5
3F9
100
AcDbEntity
  8
0
100
AcDbLine
 62
7
  6
CONTINUOUS
 10
436.4148812117
 20
74.9357438328
 11
436.5387760718
 21
74.8635205979
  0
LINE
  5
3FA
100
AcDbEntity
  8
0
100
AcDbLine
 62
7
  6
CONTINUOUS
 10
435.4908274314
 20
76.2129921729
 11
435.3669325735
 21
76.2852154052
  0
LINE
  5
3FB
100
AcDbEntity
  8
0
100
AcDbLine
 62
7
  6
CONTINUOUS
 10
417.1160728129
 20
93.5719376043
 11
417.0315671925
 21
93.6215431547
  0
LINE
  5
3FC
100
AcDbEntity
  8
0
100
AcDbLine
 62
7
  6
CONTINUOUS
 10
416.6808105321
 20
94.1576694012
 11
416.7653161526
 21
94.1080638509
  0
LINE
  5
3FD
100
AcDbEntity
  8
0
100
AcDbLine
 62
7
  6
CONTINUOUS
 10
416.8519033953
 20
95.138580509
 11
416.7318338662
 21
95.2108855428
  0
LINE
  5
3FE
100
AcDbEntity
  8
0
100
AcDbLine
 62
7
  6
CONTINUOUS
 10
416.9727697692
 20
95.2553284611
 11
424.5083774817
 21
90.717437997
  0
LINE
  5
3FF
100
AcDbEntity
  8
0
100
AcDbLine
 62
7
  6
CONTINUOUS
 10
424.5083774817
 20
91.0823188961
 11
415.9696133151
 21
96.224303188
  0
LINE
  5
400
100
AcDbEntity
  8
0
100
AcDbLine
 62
7
  6
CONTINUOUS
 10
436.4141118672
 20
75.0147647295
 11
436.3067107109
 21
75.0799922134
  0
LINE
  5
401
100
AcDbEntity
  8
0
100
AcDbLine
 62
7
  6
CONTINUOUS
 10
435.4915967606
 20
76.1339712948
 11
435.5989980113
 21
76.0687437709
  0
LINE
  5
402
100
AcDbEntity
  8
0
100
AcDbLine
 62
7
  6
CONTINUOUS
 10
413.0216535038
 20
97.7885025995
 11
412.795981101
 21
97.92560445
  0
LINE
  5
403
100
AcDbEntity
  8
0
100
AcDbLine
 62
7
  6
CONTINUOUS
 10
411.4419468952
 20
99.1526201171
 11
411.742843362
 21
98.9698177209
  0
LINE
  5
404
100
AcDbEntity
  8
0
100
AcDbLine
 62
7
  6
CONTINUOUS
 10
411.6901864381
 20
99.0655962853
 11
411.3892899714
 21
99.2483986333
  0
LINE
  5
405
100
AcDbEntity
  8
0
100
AcDbLine
 62
7
  6
CONTINUOUS
 10
412.0437398287
 20
99.4071026362
 11
411.742843362
 21
99.5899049843
  0
LINE
  5
406
100
AcDbEntity
  8
0
100
AcDbLine
 62
7
  6
CONTINUOUS
 10
410.5392572842
 20
100.5907179578
 11
410.6897055176
 21
100.4993167837
  0
LINE
  5
407
100
AcDbEntity
  8
0
100
AcDbLine
 62
7
  6
CONTINUOUS
 10
413.0216535038
 20
101.0129565428
 11
413.2473258802
 21
100.8758547178
  0
LINE
  5
408
100
AcDbEntity
  8
0
100
AcDbLine
 62
7
  6
CONTINUOUS
 10
410.5392572842
 20
104.1656560954
 11
410.3135849341
 21
104.302757895
  0
LINE
  5
409
100
AcDbEntity
  8
0
100
AcDbLine
 62
7
  6
CONTINUOUS
 10
411.5171710119
 20
103.9220321656
 11
411.5923951286
 21
103.8763316172
  0
LINE
  5
40A
100
AcDbEntity
  8
0
100
AcDbLine
 62
7
  6
CONTINUOUS
 10
411.4419468952
 20
104.1564549859
 11
411.2162745451
 21
104.2935567855
  0
LINE
  5
40B
100
AcDbEntity
  8
0
100
AcDbLine
 62
7
  6
CONTINUOUS
 10
411.5171710119
 20
104.3533972922
 11
411.5923951286
 21
104.3076965895
  0
LINE
  5
40C
100
AcDbEntity
  8
0
100
AcDbLine
 62
7
  6
CONTINUOUS
 10
411.3667227785
 20
104.6335206609
 11
411.2162745451
 21
104.7249217578
  0
LINE
  5
40D
100
AcDbEntity
  8
0
100
AcDbLine
 62
7
  6
CONTINUOUS
 10
411.5171710119
 20
105.1352464396
 11
411.5923951286
 21
105.0895457368
  0
LINE
  5
40E
100
AcDbEntity
  8
0
100
AcDbLine
 62
7
  6
CONTINUOUS
 10
411.4419468952
 20
105.3696692598
 11
411.2162745451
 21
105.5067710594
  0
LINE
  5
40F
100
AcDbEntity
  8
0
100
AcDbLine
 62
7
  6
CONTINUOUS
 10
411.5171710119
 20
105.5666114119
 11
411.5923951286
 21
105.5209110177
  0
LINE
  5
410
100
AcDbEntity
  8
0
100
AcDbLine
 62
7
  6
CONTINUOUS
 10
411.3667227785
 20
105.8467349349
 11
411.2162745451
 21
105.9381360318
  0
LINE
  5
411
100
AcDbEntity
  8
0
100
AcDbLine
 62
7
  6
CONTINUOUS
 10
436.425445466
 20
75.7966823998
 11
436.4915159624
 21
75.7543535669
  0
LINE
  5
412
100
AcDbEntity
  8
0
100
AcDbLine
 62
7
  6
CONTINUOUS
 10
436.2566648771
 20
76.0779362159
 11
436.1905943808
 21
76.1202650488
  0
LINE
  5
413
100
AcDbEntity
  8
RUNDUNGEN
100
AcDbLine
 62
7
  6
CONTINUOUS
 10
423.9948688875
 20
76.9235639638
 11
397.9501583928
 21
95.4057260291
  0
LINE
  5
414
100
AcDbEntity
  8
0
100
AcDbLine
 62
7
  6
CONTINUOUS
 10
280.8723465103
 20
190.6457252584
 11
286.7159095408
 21
190.6457252584
  0
LINE
  5
415
100
AcDbEntity
  8
0
100
AcDbLine
 62
7
  6
CONTINUOUS
 10
280.8723465103
 20
206.3091547693
 11
286.7159095408
 21
206.3091547693
  0
LINE
  5
416
100
AcDbEntity
  8
0
100
AcDbLine
 62
7
  6
CONTINUOUS
 10
410.6144814009
 20
100.733739604
 11
410.3135849341
 21
100.9435023207
  0
LINE
  5
417
100
AcDbEntity
  8
RUNDUNGEN
100
AcDbLine
 62
7
  6
CONTINUOUS
 10
456.2347612299
 20
59.9690939087
 11
450.9054697116
 21
63.7509301304
  0
LINE
  5
418
100
AcDbEntity
  8
RUNDUNGEN
100
AcDbLine
 62
7
  6
CONTINUOUS
 10
427.5304027934
 20
80.3386274733
 11
401.4856922988
 21
98.8207895385
  0
LINE
  5
419
100
AcDbEntity
  8
RUNDUNGEN
100
AcDbLine
 62
7
  6
CONTINUOUS
 10
404.7550314009
 20
100.2290862508
 11
396.6998508042
 21
105.9453008074
  0
LINE
  5
41A
100
AcDbEntity
  8
RUNDUNGEN
100
AcDbLine
 62
7
  6
CONTINUOUS
 10
439.6977964236
 20
78.0234488978
 11
454.7079264741
 21
67.3717790982
  0
LINE
  5
41B
100
AcDbEntity
  8
0
100
AcDbLine
 62
7
  6
CONTINUOUS
 10
435.6600779013
 20
75.1968336416
 11
435.8020951252
 21
75.0956695021
  0
LINE
  5
41C
100
AcDbEntity
  8
0
100
AcDbLine
 62
7
  6
CONTINUOUS
 10
435.3514185101
 20
75.8394037547
 11
435.209401319
 21
75.9405678825
  0
LINE
  5
41D
100
AcDbEntity
  8
0
100
AcDbLine
 62
7
  6
CONTINUOUS
 10
434.8714629947
 20
76.3686530803
 11
434.7294457696
 21
76.4698172127
  0
LINE
  5
41E
100
AcDbEntity
  8
0
100
AcDbLine
 62
7
  6
CONTINUOUS
 10
412.1941880621
 20
99.1000188989
 11
412.4198605176
 21
98.9359566289
  0
LINE
  5
41F
100
AcDbEntity
  8
0
100
AcDbLine
 62
7
  6
CONTINUOUS
 10
412.9464293871
 20
101.2473793631
 11
412.4950846342
 21
101.5755036733
  0
LINE
  5
420
100
AcDbEntity
  8
0
100
AcDbLine
 62
7
  6
CONTINUOUS
 10
410.6144814009
 20
103.931233198
 11
411.0658263118
 21
103.6031087351
  0
LINE
  5
421
100
AcDbEntity
  8
0
100
AcDbLine
 62
7
  6
CONTINUOUS
 10
435.6763100581
 20
75.2492471782
 11
435.585592998
 21
75.316153174
  0
LINE
  5
422
100
AcDbEntity
  8
0
100
AcDbLine
 62
7
  6
CONTINUOUS
 10
435.3351863437
 20
75.786990229
 11
435.4259034038
 21
75.7200842332
  0
LINE
  5
423
100
AcDbEntity
  8
0
100
AcDbLine
 62
7
  6
CONTINUOUS
 10
434.8552308283
 20
76.3162395546
 11
434.9459478884
 21
76.2493335588
  0
LINE
  5
424
100
AcDbEntity
  8
0
100
AcDbLine
 62
7
  6
CONTINUOUS
 10
412.8712052177
 20
97.691181637
 11
413.2473258802
 21
97.4087579293
  0
LINE
  5
425
100
AcDbEntity
  8
0
100
AcDbLine
 62
7
  6
CONTINUOUS
 10
416.9963005407
 20
93.5884867975
 11
417.147678458
 21
93.4727475156
  0
LINE
  5
426
100
AcDbEntity
  8
0
100
AcDbLine
 62
7
  6
CONTINUOUS
 10
416.8005828135
 20
94.1411201972
 11
416.6492049031
 21
94.2568594711
  0
LINE
  5
427
100
AcDbEntity
  8
0
100
AcDbLine
 62
7
  6
CONTINUOUS
 10
446.5777319359
 20
68.902229314
 11
446.8184491304
 21
68.7128508562
  0
LINE
  5
428
100
AcDbEntity
  8
0
100
AcDbLine
 62
7
  6
CONTINUOUS
 10
417.0315671925
 20
93.6215431547
 11
416.9355123809
 21
93.6971275458
  0
LINE
  5
429
100
AcDbEntity
  8
0
100
AcDbLine
 62
7
  6
CONTINUOUS
 10
416.7653161526
 20
94.1080638509
 11
416.8613709642
 21
94.0324794597
  0
LINE
  5
42A
100
AcDbEntity
  8
0
100
AcDbLine
 62
7
  6
CONTINUOUS
 10
411.8072446509
 20
98.9735035339
 11
411.6901864381
 21
99.0655962853
  0
LINE
  5
42B
100
AcDbEntity
  8
0
100
AcDbLine
 62
7
  6
CONTINUOUS
 10
428.1087771503
 20
86.741869726
 11
428.3494943448
 21
86.5524912682
  0
LINE
  5
42C
100
AcDbEntity
  8
0
100
AcDbLine
 62
7
  6
CONTINUOUS
 10
412.3446364009
 20
99.1703794491
 11
412.0437398287
 21
99.4071026362
  0
LINE
  5
42D
100
AcDbEntity
  8
0
100
AcDbLine
 62
7
  6
CONTINUOUS
 10
410.6897055176
 20
100.4993167837
 11
410.840153751
 21
100.3809552411
  0
LINE
  5
42E
100
AcDbEntity
  8
0
100
AcDbLine
 62
7
  6
CONTINUOUS
 10
412.7207569843
 20
101.2496796405
 11
413.0216535038
 21
101.0129565428
  0
LINE
  5
42F
100
AcDbEntity
  8
0
100
AcDbLine
 62
7
  6
CONTINUOUS
 10
410.840153751
 20
103.9289330101
 11
410.5392572842
 21
104.1656560954
  0
LINE
  5
430
100
AcDbEntity
  8
0
100
AcDbLine
 62
7
  6
CONTINUOUS
 10
411.5923951286
 20
103.8763316172
 11
411.742843362
 21
103.7579699974
  0
LINE
  5
431
100
AcDbEntity
  8
0
100
AcDbLine
 62
7
  6
CONTINUOUS
 10
411.5923951286
 20
104.3076965895
 11
411.742843362
 21
104.189335124
  0
LINE
  5
432
100
AcDbEntity
  8
0
100
AcDbLine
 62
7
  6
CONTINUOUS
 10
436.257614374
 20
75.0614689688
 11
436.4148812117
 21
74.9357438328
  0
LINE
  5
433
100
AcDbEntity
  8
0
100
AcDbLine
 62
7
  6
CONTINUOUS
 10
435.6480943569
 20
76.0872670049
 11
435.4908274314
 21
76.2129921729
  0
LINE
  5
434
100
AcDbEntity
  8
0
100
AcDbLine
 62
7
  6
CONTINUOUS
 10
436.3067107109
 20
75.0799922134
 11
436.2073640258
 21
75.1614770626
  0
LINE
  5
435
100
AcDbEntity
  8
0
100
AcDbLine
 62
7
  6
CONTINUOUS
 10
435.5989980113
 20
76.0687437709
 11
435.6983446964
 21
75.9872589216
  0
LINE
  5
436
100
AcDbEntity
  8
0
100
AcDbLine
 62
7
  6
CONTINUOUS
 10
435.4259034038
 20
75.7200842332
 11
435.5047372278
 21
75.6547885103
  0
LINE
  5
437
100
AcDbEntity
  8
0
100
AcDbLine
 62
7
  6
CONTINUOUS
 10
435.4696692291
 20
75.7414601726
 11
435.3514185101
 21
75.8394037547
  0
LINE
  5
438
100
AcDbEntity
  8
0
100
AcDbLine
 62
7
  6
CONTINUOUS
 10
280.2508542467
 20
215.3524400138
 11
287.3374018044
 21
215.3524400138
  0
LINE
  5
439
100
AcDbEntity
  8
0
100
AcDbLine
 62
7
  6
CONTINUOUS
 10
411.5923951286
 20
105.0895457368
 11
411.742843362
 21
104.9711844256
  0
LINE
  5
43A
100
AcDbEntity
  8
0
100
AcDbLine
 62
7
  6
CONTINUOUS
 10
411.5923951286
 20
105.5209110177
 11
411.742843362
 21
105.4025493979
  0
LINE
  5
43B
100
AcDbEntity
  8
0
100
AcDbLine
 62
7
  6
CONTINUOUS
 10
411.742843362
 20
104.3241368128
 11
411.3667227785
 21
104.6335206609
  0
LINE
  5
43C
100
AcDbEntity
  8
0
100
AcDbLine
 62
7
  6
CONTINUOUS
 10
411.742843362
 20
105.5373510867
 11
411.3667227785
 21
105.8467349349
  0
LINE
  5
43D
100
AcDbEntity
  8
0
100
AcDbLine
 62
7
  6
CONTINUOUS
 10
446.6379112293
 20
68.9735100875
 11
446.4573733071
 21
69.126328096
  0
LINE
  5
43E
100
AcDbEntity
  8
0
100
AcDbLine
 62
7
  6
CONTINUOUS
 10
412.795981101
 20
97.92560445
 11
412.5703087509
 21
98.1166268905
  0
LINE
  5
43F
100
AcDbEntity
  8
0
100
AcDbLine
 62
7
  6
CONTINUOUS
 10
411.2914986618
 20
99.4597038448
 11
411.0658263118
 21
99.6507262853
  0
LINE
  5
440
100
AcDbEntity
  8
0
100
AcDbLine
 62
7
  6
CONTINUOUS
 10
410.840153751
 20
100.5427171443
 11
410.6144814009
 21
100.733739604
  0
LINE
  5
441
100
AcDbEntity
  8
0
100
AcDbLine
 62
7
  6
CONTINUOUS
 10
428.1689564437
 20
86.8131504994
 11
427.9884185215
 21
86.9659685079
  0
LINE
  5
442
100
AcDbEntity
  8
0
100
AcDbLine
 62
7
  6
CONTINUOUS
 10
412.4950846342
 20
101.4407020616
 11
412.7207569843
 21
101.2496796405
  0
LINE
  5
443
100
AcDbEntity
  8
0
100
AcDbLine
 62
7
  6
CONTINUOUS
 10
411.0658263118
 20
103.7379104239
 11
410.840153751
 21
103.9289330101
  0
LINE
  5
444
100
AcDbEntity
  8
0
100
AcDbLine
 62
7
  6
CONTINUOUS
 10
412.5703087509
 20
97.9548649873
 11
412.8712052177
 21
97.691181637
  0
LINE
  5
445
100
AcDbEntity
  8
0
100
AcDbLine
 62
7
  6
CONTINUOUS
 10
411.1410504284
 20
99.416303465
 11
411.4419468952
 21
99.1526201171
  0
LINE
  5
446
100
AcDbEntity
  8
0
100
AcDbLine
 62
7
  6
CONTINUOUS
 10
435.5142935137
 20
75.3258148207
 11
435.6600779013
 21
75.1968336416
  0
LINE
  5
447
100
AcDbEntity
  8
0
100
AcDbLine
 62
7
  6
CONTINUOUS
 10
435.0172473726
 20
76.239671912
 11
434.8714629947
 21
76.3686530803
  0
LINE
  5
448
100
AcDbEntity
  8
0
100
AcDbLine
 62
7
  6
CONTINUOUS
 10
412.1189639454
 20
101.7770464187
 11
412.4950846342
 21
101.4407020616
  0
LINE
  5
449
100
AcDbEntity
  8
0
100
AcDbLine
 62
7
  6
CONTINUOUS
 10
411.4419468952
 20
103.4015660529
 11
411.0658263118
 21
103.7379104239
  0
LINE
  5
44A
100
AcDbEntity
  8
0
100
AcDbLine
 62
7
  6
CONTINUOUS
 10
436.1333348428
 20
75.1732026507
 11
436.257614374
 21
75.0614689688
  0
LINE
  5
44B
100
AcDbEntity
  8
0
100
AcDbLine
 62
7
  6
CONTINUOUS
 10
435.7723738794
 20
75.9755333335
 11
435.6480943569
 21
76.0872670049
  0
LINE
  5
44C
100
AcDbEntity
  8
0
100
AcDbLine
 62
7
  6
CONTINUOUS
 10
435.585592998
 20
75.316153174
 11
435.4792255043
 21
75.4124865037
  0
LINE
  5
44D
100
AcDbEntity
  8
0
100
AcDbLine
 62
7
  6
CONTINUOUS
 10
434.9459478884
 20
76.2493335588
 11
435.0523153713
 21
76.1530002496
  0
LINE
  5
44E
100
AcDbEntity
  8
0
100
AcDbLine
 62
7
  6
CONTINUOUS
 10
412.4950846342
 20
101.5755036733
 11
412.0437398287
 21
101.9845089089
  0
LINE
  5
44F
100
AcDbEntity
  8
0
100
AcDbLine
 62
7
  6
CONTINUOUS
 10
411.0658263118
 20
103.6031087351
 11
411.5171710119
 21
103.1941036013
  0
LINE
  5
450
100
AcDbEntity
  8
0
100
AcDbLine
 62
7
  6
CONTINUOUS
 10
416.8479647326
 20
93.7254795757
 11
416.9963005407
 21
93.5884867975
  0
LINE
  5
451
100
AcDbEntity
  8
0
100
AcDbLine
 62
7
  6
CONTINUOUS
 10
416.9489186125
 20
94.0041274298
 11
416.8005828135
 21
94.1411201972
  0
LINE
  5
452
100
AcDbEntity
  8
0
100
AcDbLine
 62
7
  6
CONTINUOUS
 10
416.8613709642
 20
94.0324794597
 11
416.9689749669
 21
93.9309162277
  0
LINE
  5
453
100
AcDbEntity
  8
KONSTRUKTIONSELEMENTE
100
AcDbLine
 62
7
  6
CONTINUOUS
 10
391.5881019548
 20
103.2536714105
 11
383.1735312587
 21
111.381522563
  0
LINE
  5
454
100
AcDbEntity
  8
KONSTRUKTIONSELEMENTE
100
AcDbLine
 62
7
  6
CONTINUOUS
 10
330.4233653822
 20
162.3342701241
 11
322.0087946861
 21
170.4621212767
  0
LINE
  5
455
100
AcDbEntity
  8
RUNDUNGEN
100
AcDbLine
 62
7
  6
CONTINUOUS
 10
459.1566097598
 20
38.8788934097
 11
453.2002915065
 21
44.6322550402
  0
LINE
  5
456
100
AcDbEntity
  8
KONSTRUKTIONSELEMENTE
100
AcDbLine
 62
7
  6
CONTINUOUS
 10
363.3714513378
 20
132.6322780655
 11
352.76484962
 21
142.8774685939
  0
LINE
  5
457
100
AcDbEntity
  8
KONSTRUKTIONSELEMENTE
100
AcDbLine
 62
7
  6
CONTINUOUS
 10
395.0618349079
 20
106.8499443939
 11
386.6472642117
 21
114.9777955464
  0
LINE
  5
458
100
AcDbEntity
  8
KONSTRUKTIONSELEMENTE
100
AcDbLine
 62
7
  6
CONTINUOUS
 10
333.8970983352
 20
165.9305431075
 11
325.8433180477
 21
173.7098974866
  0
LINE
  5
459
100
AcDbEntity
  8
RUNDUNGEN
100
AcDbLine
 62
7
  6
CONTINUOUS
 10
462.6921436658
 20
42.2939569192
 11
456.7358254125
 21
48.0473185496
  0
LINE
  5
45A
100
AcDbEntity
  8
KONSTRUKTIONSELEMENTE
100
AcDbLine
 62
7
  6
CONTINUOUS
 10
366.4978109956
 20
135.8689237506
 11
355.8912092778
 21
146.114114279
  0
LINE
  5
45B
100
AcDbEntity
  8
KONSTRUKTIONSELEMENTE
100
AcDbLine
 62
7
  6
CONTINUOUS
 10
341.2743644258
 20
160.3428615621
 11
351.8809661436
 21
150.0976710337
  0
LINE
  5
45C
100
AcDbEntity
  8
KONSTRUKTIONSELEMENTE
100
AcDbLine
 62
7
  6
CONTINUOUS
 10
372.387062798
 20
130.2903026788
 11
382.9936645158
 21
120.0451121504
  0
LINE
  5
45D
100
AcDbEntity
  8
RUNDUNGEN
100
AcDbLine
 62
7
  6
CONTINUOUS
 10
461.2779301034
 20
45.691711827
 11
465.8741241811
 21
41.2521292647
  0
LINE
  5
45E
100
AcDbEntity
  8
0
100
AcDbLine
 62
7
  6
CONTINUOUS
 10
408.9520282956
 20
97.3087508042
 11
414.6088825451
 21
91.8446491891
  0
LINE
  5
45F
100
AcDbEntity
  8
0
100
AcDbLine
 62
7
  6
CONTINUOUS
 10
414.2553291545
 20
92.3155650626
 11
409.3055816862
 21
97.0966539758
  0
LINE
  5
460
100
AcDbEntity
  8
0
100
AcDbLine
 62
7
  6
CONTINUOUS
 10
447.8429012608
 20
62.3312426512
 11
435.1149791995
 21
74.6254712852
  0
LINE
  5
461
100
AcDbEntity
  8
0
100
AcDbLine
 62
7
  6
CONTINUOUS
 10
429.45812495
 20
80.0895729004
 11
416.0230961074
 21
93.0668142363
  0
LINE
  5
462
100
AcDbEntity
  8
0
100
AcDbLine
 62
7
  6
CONTINUOUS
 10
447.4893478702
 20
62.8021585247
 11
443.2467071831
 21
66.900234736
  0
LINE
  5
463
100
AcDbEntity
  8
0
100
AcDbLine
 62
7
  6
CONTINUOUS
 10
442.5396004019
 20
67.5832474379
 11
436.1756393713
 21
73.730361755
  0
LINE
  5
464
100
AcDbEntity
  8
0
100
AcDbLine
 62
7
  6
CONTINUOUS
 10
435.8220859807
 20
74.0718681059
 11
435.1149791995
 21
74.7548808078
  0
LINE
  5
465
100
AcDbEntity
  8
0
100
AcDbLine
 62
7
  6
CONTINUOUS
 10
429.1045715594
 20
80.5604887739
 11
424.8619308723
 21
84.6585649852
  0
LINE
  5
466
100
AcDbEntity
  8
0
100
AcDbLine
 62
7
  6
CONTINUOUS
 10
424.1548240911
 20
85.3415776871
 11
417.0837562792
 21
92.171704706
  0
LINE
  5
467
100
AcDbEntity
  8
0
100
AcDbLine
 62
7
  6
CONTINUOUS
 10
416.7302028886
 20
92.513211057
 11
416.0230961074
 21
93.1962237589
  0
LINE
  5
468
100
AcDbEntity
  8
0
100
AcDbLine
 62
7
  6
CONTINUOUS
 10
409.0166941924
 20
100.445561319
 11
408.9520282956
 21
100.5080237789
  0
LINE
  5
469
100
AcDbEntity
  8
0
100
AcDbLine
 62
7
  6
CONTINUOUS
 10
409.3055816862
 20
100.7201206073
 11
414.2553291545
 21
95.939031694
  0
LINE
  5
46A
100
AcDbEntity
  8
0
100
AcDbLine
 62
7
  6
CONTINUOUS
 10
414.6088825451
 20
95.7269348656
 11
408.9520282956
 21
101.1910364808
  0
LINE
  5
46B
100
AcDbEntity
  8
KONSTRUKTIONSELEMENTE
100
AcDbLine
 62
7
  6
CONTINUOUS
 10
344.4007240835
 20
163.5795072471
 11
355.0073258013
 21
153.3343167187
  0
LINE
  5
46C
100
AcDbEntity
  8
KONSTRUKTIONSELEMENTE
100
AcDbLine
 62
7
  6
CONTINUOUS
 10
375.5134224557
 20
133.5269483639
 11
386.1200241735
 21
123.2817578355
  0
LINE
  5
46D
100
AcDbEntity
  8
0
100
AcDbLine
 62
7
  6
CONTINUOUS
 10
410.840153751
 20
99.7069473368
 11
411.1410504284
 21
99.416303465
  0
LINE
  5
46E
100
AcDbEntity
  8
0
100
AcDbLine
 62
7
  6
CONTINUOUS
 10
411.0658263118
 20
99.6507262853
 11
410.9153780784
 21
99.7960481194
  0
LINE
  5
46F
100
AcDbEntity
  8
0
100
AcDbLine
 62
7
  6
CONTINUOUS
 10
412.4198605176
 20
98.9359566289
 11
412.6455328676
 21
98.7179738776
  0
LINE
  5
470
100
AcDbEntity
  8
0
100
AcDbLine
 62
7
  6
CONTINUOUS
 10
412.7207569843
 20
98.8070748638
 11
412.3446364009
 21
99.1703794491
  0
LINE
  5
471
100
AcDbEntity
  8
RUNDUNGEN
100
AcDbLine
 62
7
  6
CONTINUOUS
 10
462.3385902752
 20
51.3733018141
 11
457.7423961974
 21
55.8128843764
  0
LINE
  5
472
100
AcDbEntity
  8
KONSTRUKTIONSELEMENTE
100
AcDbLine
 62
7
  6
CONTINUOUS
 10
385.9140269581
 20
126.4571548847
 11
376.5135562417
 21
135.5373123289
  0
LINE
  5
473
100
AcDbEntity
  8
KONSTRUKTIONSELEMENTE
100
AcDbLine
 62
7
  6
CONTINUOUS
 10
355.0073258013
 20
156.3107357374
 11
345.859641203
 21
165.1467205417
  0
LINE
  5
474
100
AcDbEntity
  8
0
100
AcDbLine
 62
7
  6
CONTINUOUS
 10
410.5392572842
 20
102.7637195497
 11
411.1410504284
 21
102.1824320095
  0
LINE
  5
475
100
AcDbEntity
  8
KONSTRUKTIONSELEMENTE
100
AcDbLine
 62
7
  6
CONTINUOUS
 10
360.8965776037
 20
150.7321146657
 11
371.5031793215
 21
140.4869241373
  0
LINE
  5
476
100
AcDbEntity
  8
0
100
AcDbLine
 62
7
  6
CONTINUOUS
 10
410.6144814009
 20
102.8528205358
 11
413.5482223733
 21
100.0190443629
  0
LINE
  5
477
100
AcDbEntity
  8
0
100
AcDbLine
 62
7
  6
CONTINUOUS
 10
413.5482223733
 20
100.1808062661
 11
410.0126884674
 21
103.5958697755
  0
LINE
  5
478
100
AcDbEntity
  8
0
100
AcDbLine
 62
7
  6
CONTINUOUS
 10
411.4419468952
 20
102.4309946724
 11
412.1189639454
 21
101.7770464187
  0
LINE
  5
479
100
AcDbEntity
  8
0
100
AcDbLine
 62
7
  6
CONTINUOUS
 10
412.0437398287
 20
101.9845089089
 11
411.5171710119
 21
102.4931353284
  0
LINE
  5
47A
100
AcDbEntity
  8
0
100
AcDbLine
 62
7
  6
CONTINUOUS
 10
426.6644739834
 20
87.9644134207
 11
426.9051911569
 21
87.731898486
  0
LINE
  5
47B
100
AcDbEntity
  8
0
100
AcDbLine
 62
7
  6
CONTINUOUS
 10
445.133428769
 20
70.1247730087
 11
445.3741459424
 21
69.8922580741
  0
LINE
  5
47C
100
AcDbEntity
  8
0
100
AcDbLine
 62
7
  6
CONTINUOUS
 10
426.183039468
 20
88.601989488
 11
426.6644739834
 21
88.1369594559
  0
LINE
  5
47D
100
AcDbEntity
  8
0
100
AcDbLine
 62
7
  6
CONTINUOUS
 10
426.9051911569
 20
87.9044445212
 11
428.1087771503
 21
86.741869726
  0
LINE
  5
47E
100
AcDbEntity
  8
0
100
AcDbLine
 62
7
  6
CONTINUOUS
 10
444.6519942536
 20
70.762349076
 11
445.133428769
 21
70.2973190439
  0
LINE
  5
47F
100
AcDbEntity
  8
0
100
AcDbLine
 62
7
  6
CONTINUOUS
 10
445.3741459424
 20
70.0648041093
 11
446.5777319359
 21
68.902229314
  0
LINE
  5
480
100
AcDbEntity
  8
0
100
AcDbLine
 62
7
  6
CONTINUOUS
 10
446.4573733071
 20
69.126328096
 11
445.3741459424
 21
70.1726453832
  0
LINE
  5
481
100
AcDbEntity
  8
0
100
AcDbLine
 62
7
  6
CONTINUOUS
 10
445.133428769
 20
70.4051603178
 11
444.6519942536
 21
70.8701903499
  0
LINE
  5
482
100
AcDbEntity
  8
0
100
AcDbLine
 62
7
  6
CONTINUOUS
 10
427.9884185215
 20
86.9659685079
 11
426.9051911569
 21
88.0122857952
  0
LINE
  5
483
100
AcDbEntity
  8
0
100
AcDbLine
 62
7
  6
CONTINUOUS
 10
426.6644739834
 20
88.2448007298
 11
426.183039468
 21
88.7098307619
  0
LINE
  5
484
100
AcDbEntity
  8
0
100
AcDbLine
 62
7
  6
CONTINUOUS
 10
442.9578196894
 20
72.5785134851
 11
442.8931537925
 21
72.640975945
  0
LINE
  5
485
100
AcDbEntity
  8
0
100
AcDbLine
 62
7
  6
CONTINUOUS
 10
442.6323001043
 20
72.8929412594
 11
442.5396004019
 21
72.9824822959
  0
LINE
  5
486
100
AcDbEntity
  8
0
100
AcDbLine
 62
7
  6
CONTINUOUS
 10
424.5730433785
 20
90.3368437343
 11
424.5083774817
 21
90.3993061942
  0
LINE
  5
487
100
AcDbEntity
  8
0
100
AcDbLine
 62
7
  6
CONTINUOUS
 10
447.0591663249
 20
68.7391549618
 11
446.8184491304
 21
68.9716699168
  0
LINE
  5
488
100
AcDbEntity
  8
0
100
AcDbLine
 62
7
  6
CONTINUOUS
 10
428.5902115393
 20
86.5787953738
 11
428.3494943448
 21
86.8113103287
  0
LINE
  5
489
100
AcDbEntity
  8
0
100
AcDbLine
 62
7
  6
CONTINUOUS
 10
445.3741459424
 20
70.4098961643
 11
445.133428769
 21
70.6424110989
  0
LINE
  5
48A
100
AcDbEntity
  8
0
100
AcDbLine
 62
7
  6
CONTINUOUS
 10
426.9051911569
 20
88.2495365762
 11
426.6644739834
 21
88.4820515109
  0
LINE
  5
48B
100
AcDbEntity
  8
0
100
AcDbLine
 62
7
  6
CONTINUOUS
 10
411.5171710119
 20
103.1941036013
 11
412.0437398287
 21
102.6854771818
  0
LINE
  5
48C
100
AcDbEntity
  8
KONSTRUKTIONSELEMENTE
100
AcDbLine
 62
7
  6
CONTINUOUS
 10
331.9790003008
 20
180.0926003733
 11
336.0095089536
 21
176.1994279726
  0
LINE
  5
48D
100
AcDbEntity
  8
KONSTRUKTIONSELEMENTE
100
AcDbLine
 62
7
  6
CONTINUOUS
 10
336.3630623442
 20
175.8579216216
 11
340.3935709969
 21
171.9647492208
  0
LINE
  5
48E
100
AcDbEntity
  8
KONSTRUKTIONSELEMENTE
100
AcDbLine
 62
7
  6
CONTINUOUS
 10
393.1437368734
 20
121.0120016597
 11
397.1742455262
 21
117.1188292589
  0
LINE
  5
48F
100
AcDbEntity
  8
KONSTRUKTIONSELEMENTE
100
AcDbLine
 62
7
  6
CONTINUOUS
 10
397.5277989168
 20
116.7773229079
 11
401.5583075696
 21
112.8841505072
  0
LINE
  5
490
100
AcDbEntity
  8
0
100
AcDbLine
 62
7
  6
CONTINUOUS
 10
412.1189639454
 20
102.7476177993
 11
411.4419468952
 21
103.4015660529
  0
LINE
  5
491
100
AcDbEntity
  8
0
100
AcDbLine
 62
7
  6
CONTINUOUS
 10
424.8619308723
 20
90.6114030226
 11
429.1045715594
 21
86.5133268112
  0
LINE
  5
492
100
AcDbEntity
  8
0
100
AcDbLine
 62
7
  6
CONTINUOUS
 10
443.2467071831
 20
72.8530727734
 11
447.4893478702
 21
68.754996562
  0
LINE
  5
493
100
AcDbEntity
  8
0
100
AcDbLine
 62
7
  6
CONTINUOUS
 10
411.1410504284
 20
103.9078923616
 11
413.5482223733
 21
101.5827428118
  0
LINE
  5
494
100
AcDbEntity
  8
0
100
AcDbLine
 62
7
  6
CONTINUOUS
 10
447.8429012608
 20
68.5428997336
 11
442.8931537925
 21
73.3239886469
  0
LINE
  5
495
100
AcDbEntity
  8
0
100
AcDbLine
 62
7
  6
CONTINUOUS
 10
429.45812495
 20
86.3012299828
 11
424.5083774817
 21
91.0823188961
  0
LINE
  5
496
100
AcDbEntity
  8
0
100
AcDbLine
 62
7
  6
CONTINUOUS
 10
413.5482223733
 20
101.7175443464
 11
411.6676192453
 21
103.5340674767
  0
LINE
  5
497
100
AcDbEntity
  8
0
100
AcDbLine
 62
7
  6
CONTINUOUS
 10
411.3667227785
 20
103.824711145
 11
411.1410504284
 21
104.0426938962
  0
LINE
  5
498
100
AcDbEntity
  8
0
100
AcDbLine
 62
7
  6
CONTINUOUS
 10
411.742843362
 20
103.7579699974
 11
413.5482223733
 21
102.0141077841
  0
LINE
  5
499
100
AcDbEntity
  8
0
100
AcDbLine
 62
7
  6
CONTINUOUS
 10
413.5482223733
 20
102.148909473
 11
411.742843362
 21
103.8927716862
  0
LINE
  5
49A
100
AcDbEntity
  8
0
100
AcDbLine
 62
7
  6
CONTINUOUS
 10
411.742843362
 20
104.189335124
 11
413.5482223733
 21
102.4454729107
  0
LINE
  5
49B
100
AcDbEntity
  8
0
100
AcDbLine
 62
7
  6
CONTINUOUS
 10
413.5482223733
 20
102.5802745996
 11
411.742843362
 21
104.3241368128
  0
LINE
  5
49C
100
AcDbEntity
  8
0
100
AcDbLine
 62
7
  6
CONTINUOUS
 10
411.1410504284
 20
105.1211064813
 11
413.5482223733
 21
102.7959569315
  0
LINE
  5
49D
100
AcDbEntity
  8
0
100
AcDbLine
 62
7
  6
CONTINUOUS
 10
413.5482223733
 20
102.9307586203
 11
411.6676192453
 21
104.7472817506
  0
LINE
  5
49E
100
AcDbEntity
  8
0
100
AcDbLine
 62
7
  6
CONTINUOUS
 10
411.3667227785
 20
105.0379254189
 11
411.1410504284
 21
105.2559081701
  0
LINE
  5
49F
100
AcDbEntity
  8
0
100
AcDbLine
 62
7
  6
CONTINUOUS
 10
411.742843362
 20
104.9711844256
 11
413.5482223733
 21
103.2273222123
  0
LINE
  5
4A0
100
AcDbEntity
  8
0
100
AcDbLine
 62
7
  6
CONTINUOUS
 10
413.5482223733
 20
103.3621235926
 11
411.742843362
 21
105.1059858059
  0
LINE
  5
4A1
100
AcDbEntity
  8
0
100
AcDbLine
 62
7
  6
CONTINUOUS
 10
411.742843362
 20
105.4025493979
 11
413.5482223733
 21
103.6586871846
  0
LINE
  5
4A2
100
AcDbEntity
  8
0
100
AcDbLine
 62
7
  6
CONTINUOUS
 10
413.5482223733
 20
103.7934888735
 11
411.742843362
 21
105.5373510867
  0
LINE
  5
4A3
100
AcDbEntity
  8
0
100
AcDbLine
 62
7
  6
CONTINUOUS
 10
436.2073640258
 20
75.1614770626
 11
435.9917922721
 21
75.3709529698
  0
LINE
  5
4A4
100
AcDbEntity
  8
0
100
AcDbLine
 62
7
  6
CONTINUOUS
 10
435.6983446964
 20
75.9872589216
 11
435.9139164081
 21
75.777782991
  0
LINE
  5
4A5
100
AcDbEntity
  8
0
100
AcDbLine
 62
7
  6
CONTINUOUS
 10
435.3528587053
 20
75.4842233224
 11
435.5142935137
 21
75.3258148207
  0
LINE
  5
4A6
100
AcDbEntity
  8
0
100
AcDbLine
 62
7
  6
CONTINUOUS
 10
435.63110403
 20
75.5830516911
 11
435.4696692291
 21
75.7414601726
  0
LINE
  5
4A7
100
AcDbEntity
  8
0
100
AcDbLine
 62
7
  6
CONTINUOUS
 10
416.7142202178
 20
93.8577470172
 11
416.8479647326
 21
93.7254795757
  0
LINE
  5
4A8
100
AcDbEntity
  8
0
100
AcDbLine
 62
7
  6
CONTINUOUS
 10
416.9355123809
 20
93.6971275458
 11
416.8017678661
 21
93.8293949874
  0
LINE
  5
4A9
100
AcDbEntity
  8
0
100
AcDbLine
 62
7
  6
CONTINUOUS
 10
435.4792255043
 20
75.4124865037
 11
435.3847412829
 21
75.5072095364
  0
LINE
  5
4AA
100
AcDbEntity
  8
RUNDUNGEN
100
AcDbLine
 62
7
  6
CONTINUOUS
 10
465.8741241811
 20
54.7883653236
 11
461.2779301034
 21
59.2279478859
  0
LINE
  5
4AB
100
AcDbEntity
  8
KONSTRUKTIONSELEMENTE
100
AcDbLine
 62
7
  6
CONTINUOUS
 10
364.0229372614
 20
153.9687603507
 11
374.6295389792
 21
143.7235698223
  0
LINE
  5
4AC
100
AcDbEntity
  8
RUNDUNGEN
100
AcDbLine
 62
7
  6
CONTINUOUS
 10
456.7358254125
 20
65.6470136166
 11
462.6921436658
 21
59.8936519862
  0
LINE
  5
4AD
100
AcDbEntity
  8
KONSTRUKTIONSELEMENTE
100
AcDbLine
 62
7
  6
CONTINUOUS
 10
335.4527332538
 20
183.6888733567
 11
339.4832419066
 21
179.7957009559
  0
LINE
  5
4AE
100
AcDbEntity
  8
KONSTRUKTIONSELEMENTE
100
AcDbLine
 62
7
  6
CONTINUOUS
 10
339.8367952972
 20
179.454194605
 11
343.86730395
 21
175.5610222042
  0
LINE
  5
4AF
100
AcDbEntity
  8
KONSTRUKTIONSELEMENTE
100
AcDbLine
 62
7
  6
CONTINUOUS
 10
396.6174698265
 20
124.6082746431
 11
400.6479784792
 21
120.7151022423
  0
LINE
  5
4B0
100
AcDbEntity
  8
KONSTRUKTIONSELEMENTE
100
AcDbLine
 62
7
  6
CONTINUOUS
 10
401.0015318698
 20
120.3735958913
 11
405.0320405226
 21
116.4804234905
  0
LINE
  5
4B1
100
AcDbEntity
  8
0
100
AcDbLine
 62
7
  6
CONTINUOUS
 10
435.5047372278
 20
75.6547885103
 11
435.5992214792
 21
75.5600654352
  0
LINE
  5
4B2
100
AcDbEntity
  8
0
100
AcDbLine
 62
7
  6
CONTINUOUS
 10
435.1117315856
 20
76.1449488804
 11
435.0172473726
 21
76.239671912
  0
LINE
  5
4B3
100
AcDbEntity
  8
0
100
AcDbLine
 62
7
  6
CONTINUOUS
 10
416.8281329138
 20
94.6677230849
 11
416.9746731092
 21
94.520657347
  0
LINE
  5
4B4
100
AcDbEntity
  8
0
100
AcDbLine
 62
7
  6
CONTINUOUS
 10
416.9215597014
 20
94.6780354086
 11
416.7750193822
 21
94.825101308
  0
LINE
  5
4B5
100
AcDbEntity
  8
0
100
AcDbLine
 62
7
  6
CONTINUOUS
 10
436.0006161198
 20
75.308189437
 11
436.1333348428
 21
75.1732026507
  0
LINE
  5
4B6
100
AcDbEntity
  8
0
100
AcDbLine
 62
7
  6
CONTINUOUS
 10
435.9050925378
 20
75.8405465885
 11
435.7723738794
 21
75.9755333335
  0
LINE
  5
4B7
100
AcDbEntity
  8
0
100
AcDbLine
 62
7
  6
CONTINUOUS
 10
417.1088036392
 20
93.8411557787
 11
416.9489186125
 21
94.0041274298
  0
LINE
  5
4B8
100
AcDbEntity
  8
0
100
AcDbLine
 62
7
  6
CONTINUOUS
 10
411.5171710119
 20
102.4931353284
 11
411.0658263118
 21
102.9560611995
  0
LINE
  5
4B9
100
AcDbEntity
  8
0
100
AcDbLine
 62
7
  6
CONTINUOUS
 10
412.0437398287
 20
102.6854771818
 11
412.4950846342
 21
102.222551209
  0
LINE
  5
4BA
100
AcDbEntity
  8
0
100
AcDbLine
 62
7
  6
CONTINUOUS
 10
411.0658263118
 20
102.8212595878
 11
411.4419468952
 21
102.4309946724
  0
LINE
  5
4BB
100
AcDbEntity
  8
0
100
AcDbLine
 62
7
  6
CONTINUOUS
 10
412.4950846342
 20
102.3573528978
 11
412.1189639454
 21
102.7476177993
  0
LINE
  5
4BC
100
AcDbEntity
  8
0
100
AcDbLine
 62
7
  6
CONTINUOUS
 10
436.2810913493
 20
75.9468720129
 11
436.425445466
 21
75.7966823998
  0
LINE
  5
4BD
100
AcDbEntity
  8
0
100
AcDbLine
 62
7
  6
CONTINUOUS
 10
436.4010191058
 20
75.9277464486
 11
436.2566648771
 21
76.0779362159
  0
LINE
  5
4BE
100
AcDbEntity
  8
0
100
AcDbLine
 62
7
  6
CONTINUOUS
 10
416.9689749669
 20
93.9309162277
 11
417.0619877872
 21
93.8340782731
  0
LINE
  5
4BF
100
AcDbEntity
  8
0
100
AcDbLine
 62
7
  6
CONTINUOUS
 10
410.5392572842
 20
100.0245513255
 11
410.840153751
 21
99.7069473368
  0
LINE
  5
4C0
100
AcDbEntity
  8
0
100
AcDbLine
 62
7
  6
CONTINUOUS
 10
435.1482398063
 20
75.7030967439
 11
435.3528587053
 21
75.4842233224
  0
LINE
  5
4C1
100
AcDbEntity
  8
0
100
AcDbLine
 62
7
  6
CONTINUOUS
 10
435.9093239532
 20
75.4059316316
 11
436.0006161198
 21
75.308189437
  0
LINE
  5
4C2
100
AcDbEntity
  8
0
100
AcDbLine
 62
7
  6
CONTINUOUS
 10
435.9963848214
 20
75.7428042891
 11
435.9050925378
 21
75.8405465885
  0
LINE
  5
4C3
100
AcDbEntity
  8
0
100
AcDbLine
 62
7
  6
CONTINUOUS
 10
410.9153780784
 20
99.7960481194
 11
410.6897055176
 21
100.0409913849
  0
LINE
  5
4C4
100
AcDbEntity
  8
0
100
AcDbLine
 62
7
  6
CONTINUOUS
 10
410.840153751
 20
103.0662028726
 11
411.0658263118
 21
102.8212595878
  0
LINE
  5
4C5
100
AcDbEntity
  8
0
100
AcDbLine
 62
7
  6
CONTINUOUS
 10
412.7207569843
 20
102.112409778
 11
412.4950846342
 21
102.3573528978
  0
LINE
  5
4C6
100
AcDbEntity
  8
0
100
AcDbLine
 62
7
  6
CONTINUOUS
 10
415.9571952318
 20
94.1142576488
 11
416.1269978314
 21
93.9277936401
  0
LINE
  5
4C7
100
AcDbEntity
  8
0
100
AcDbLine
 62
7
  6
CONTINUOUS
 10
416.3671957821
 20
93.9392091298
 11
416.7634017951
 21
93.5041265008
  0
LINE
  5
4C8
100
AcDbEntity
  8
0
100
AcDbLine
 62
7
  6
CONTINUOUS
 10
415.6596849966
 20
94.7161424489
 11
416.1973931825
 21
94.1256731386
  0
LINE
  5
4C9
100
AcDbEntity
  8
0
100
AcDbLine
 62
7
  6
CONTINUOUS
 10
416.8234512827
 20
93.5069803732
 11
416.4272452698
 21
93.9420630023
  0
LINE
  5
4CA
100
AcDbEntity
  8
0
100
AcDbLine
 62
7
  6
CONTINUOUS
 10
416.2574426702
 20
94.1285270111
 11
415.4933310709
 21
94.9676149417
  0
LINE
  5
4CB
100
AcDbEntity
  8
0
100
AcDbLine
 62
7
  6
CONTINUOUS
 10
416.5273277397
 20
93.9468194559
 11
416.3575251401
 21
94.1332834647
  0
LINE
  5
4CC
100
AcDbEntity
  8
0
100
AcDbLine
 62
7
  6
CONTINUOUS
 10
435.7681660768
 20
75.5641715127
 11
435.9093239532
 21
75.4059316316
  0
LINE
  5
4CD
100
AcDbEntity
  8
0
100
AcDbLine
 62
7
  6
CONTINUOUS
 10
436.1375426156
 20
75.5845644704
 11
435.9963848214
 21
75.7428042891
  0
LINE
  5
4CE
100
AcDbEntity
  8
0
100
AcDbLine
 62
7
  6
CONTINUOUS
 10
434.9555041936
 20
75.9203598475
 11
435.1482398063
 21
75.7030967439
  0
LINE
  5
4CF
100
AcDbEntity
  8
0
100
AcDbLine
 62
7
  6
CONTINUOUS
 10
435.069987747
 20
75.8502333029
 11
435.0149204291
 21
75.9123084754
  0
LINE
  5
4D0
100
AcDbEntity
  8
0
100
AcDbLine
 62
7
  6
CONTINUOUS
 10
435.3847412829
 20
75.5072095364
 11
435.302140306
 21
75.6003222951
  0
LINE
  5
4D1
100
AcDbEntity
  8
0
100
AcDbLine
 62
7
  6
CONTINUOUS
 10
435.5992214792
 20
75.5600654352
 11
435.6818224561
 21
75.4669526766
  0
LINE
  5
4D2
100
AcDbEntity
  8
0
100
AcDbLine
 62
7
  6
CONTINUOUS
 10
435.7687723633
 20
75.4278637165
 11
435.63110403
 21
75.5830516911
  0
LINE
  5
4D3
100
AcDbEntity
  8
0
100
AcDbLine
 62
7
  6
CONTINUOUS
 10
435.9917922721
 20
75.3709529698
 11
435.8257016055
 21
75.559441653
  0
LINE
  5
4D4
100
AcDbEntity
  8
0
100
AcDbLine
 62
7
  6
CONTINUOUS
 10
435.9139164081
 20
75.777782991
 11
436.0800071341
 21
75.5892943101
  0
LINE
  5
4D5
100
AcDbEntity
  8
0
100
AcDbLine
 62
7
  6
CONTINUOUS
 10
413.0216535038
 20
98.4625105616
 11
412.7207569843
 21
98.8070748638
  0
LINE
  5
4D6
100
AcDbEntity
  8
0
100
AcDbLine
 62
7
  6
CONTINUOUS
 10
410.5392572842
 20
103.4107671624
 11
410.840153751
 21
103.0662028726
  0
LINE
  5
4D7
100
AcDbEntity
  8
0
100
AcDbLine
 62
7
  6
CONTINUOUS
 10
413.0216535038
 20
101.7678454758
 11
412.7207569843
 21
102.112409778
  0
LINE
  5
4D8
100
AcDbEntity
  8
0
100
AcDbLine
 62
7
  6
CONTINUOUS
 10
411.742843362
 20
103.8927716862
 11
411.5923951286
 21
104.0650537347
  0
LINE
  5
4D9
100
AcDbEntity
  8
0
100
AcDbLine
 62
7
  6
CONTINUOUS
 10
411.742843362
 20
105.1059858059
 11
411.5923951286
 21
105.2782681629
  0
LINE
  5
4DA
100
AcDbEntity
  8
0
100
AcDbLine
 62
7
  6
CONTINUOUS
 10
415.7993028282
 20
94.9323937302
 11
416.4789557378
 21
94.1340847533
  0
LINE
  5
4DB
100
AcDbEntity
  8
0
100
AcDbLine
 62
7
  6
CONTINUOUS
 10
416.4212096151
 20
94.2639790113
 11
416.0029616425
 21
94.7552461071
  0
LINE
  5
4DC
100
AcDbEntity
  8
0
100
AcDbLine
 62
7
  6
CONTINUOUS
 10
417.0619877872
 20
93.8340782731
 11
417.1142687746
 21
93.7726698968
  0
LINE
  5
4DD
100
AcDbEntity
  8
0
100
AcDbLine
 62
7
  6
CONTINUOUS
 10
416.4261086651
 20
94.6182112781
 11
416.2954061966
 21
94.7717322187
  0
LINE
  5
4DE
100
AcDbEntity
  8
0
100
AcDbLine
 62
7
  6
CONTINUOUS
 10
417.2133656141
 20
93.7183390262
 11
417.1088036392
 21
93.8411557787
  0
LINE
  5
4DF
100
AcDbEntity
  8
0
100
AcDbLine
 62
7
  6
CONTINUOUS
 10
434.7746518287
 20
76.1360126765
 11
434.9555041936
 21
75.9203598475
  0
LINE
  5
4E0
100
AcDbEntity
  8
0
100
AcDbLine
 62
7
  6
CONTINUOUS
 10
412.6455328676
 20
98.7179738776
 11
412.8712052177
 21
98.4460705434
  0
LINE
  5
4E1
100
AcDbEntity
  8
RUNDUNGEN
100
AcDbLine
 62
7
  6
CONTINUOUS
 10
451.1723925682
 20
46.8250894739
 11
436.1622625177
 21
65.1707642178
  0
LINE
  5
4E2
100
AcDbEntity
  8
RUNDUNGEN
100
AcDbLine
 62
7
  6
CONTINUOUS
 10
397.3355983117
 20
112.6254731722
 11
397.0789122061
 21
112.9391999546
  0
LINE
  5
4E3
100
AcDbEntity
  8
RUNDUNGEN
100
AcDbLine
 62
7
  6
CONTINUOUS
 10
298.6524759378
 20
151.9807175284
 11
295.2524759378
 21
157.6690283938
  0
LINE
  5
4E4
100
AcDbEntity
  8
0
100
AcDbLine
 62
7
  6
CONTINUOUS
 10
435.0149204291
 20
75.9123084754
 11
434.8616017242
 21
76.0969237181
  0
LINE
  5
4E5
100
AcDbEntity
  8
0
100
AcDbLine
 62
7
  6
CONTINUOUS
 10
411.0658263118
 20
102.9560611995
 11
410.6144814009
 21
103.4998681485
  0
LINE
  5
4E6
100
AcDbEntity
  8
0
100
AcDbLine
 62
7
  6
CONTINUOUS
 10
412.4950846342
 20
102.222551209
 11
412.9464293871
 21
101.6787444126
  0
LINE
  5
4E7
100
AcDbEntity
  8
0
100
AcDbLine
 62
7
  6
CONTINUOUS
 10
435.5437705401
 20
75.8364109114
 11
435.7681660768
 21
75.5641715127
  0
LINE
  5
4E8
100
AcDbEntity
  8
0
100
AcDbLine
 62
7
  6
CONTINUOUS
 10
435.8257016055
 20
75.559441653
 11
435.6511717436
 21
75.7711834075
  0
LINE
  5
4E9
100
AcDbEntity
  8
0
100
AcDbLine
 62
7
  6
CONTINUOUS
 10
436.0800071341
 20
75.5892943101
 11
436.254536996
 21
75.3775525555
  0
LINE
  5
4EA
100
AcDbEntity
  8
0
100
AcDbLine
 62
7
  6
CONTINUOUS
 10
436.3619381524
 20
75.3123250716
 11
436.1375426156
 21
75.5845644704
  0
LINE
  5
4EB
100
AcDbEntity
  8
RUNDUNGEN
100
AcDbLine
 62
7
  6
CONTINUOUS
 10
454.7079264741
 20
50.2401529833
 11
439.6977964236
 21
68.5858277273
  0
LINE
  5
4EC
100
AcDbEntity
  8
RUNDUNGEN
100
AcDbLine
 62
7
  6
CONTINUOUS
 10
407.856238222
 20
111.2947199625
 11
407.709646483
 21
111.4738872552
  0
LINE
  5
4ED
100
AcDbEntity
  8
RUNDUNGEN
100
AcDbLine
 62
7
  6
CONTINUOUS
 10
403.5129901774
 20
119.1308004406
 11
406.1195160215
 21
115.9450535359
  0
LINE
  5
4EE
100
AcDbEntity
  8
RUNDUNGEN
100
AcDbLine
 62
7
  6
CONTINUOUS
 10
413.4177883848
 20
107.024962203
 11
427.5304027934
 21
89.7762486438
  0
LINE
  5
4EF
100
AcDbEntity
  8
RUNDUNGEN
100
AcDbLine
 62
7
  6
CONTINUOUS
 10
450.9054697116
 20
61.2067843316
 11
456.2347612299
 21
54.6932199268
  0
LINE
  5
4F0
100
AcDbEntity
  8
0
100
AcDbLine
 62
7
  6
CONTINUOUS
 10
410.0126884674
 20
103.4341078723
 11
410.5392572842
 21
102.7637195497
  0
LINE
  5
4F1
100
AcDbEntity
  8
0
100
AcDbLine
 62
7
  6
CONTINUOUS
 10
411.1410504284
 20
102.1824320095
 11
410.6144814009
 21
102.8528205358
  0
LINE
  5
4F2
100
AcDbEntity
  8
0
100
AcDbLine
 62
7
  6
CONTINUOUS
 10
434.8616017242
 20
76.0969237181
 11
434.7908839147
 21
76.1884262896
  0
LINE
  5
4F3
100
AcDbEntity
  8
0
100
AcDbLine
 62
7
  6
CONTINUOUS
 10
435.302140306
 20
75.6003222951
 11
435.2314225351
 21
75.6918248231
  0
LINE
  5
4F4
100
AcDbEntity
  8
0
100
AcDbLine
 62
7
  6
CONTINUOUS
 10
435.6818224561
 20
75.4669526766
 11
435.7525401969
 21
75.3754501908
  0
LINE
  5
4F5
100
AcDbEntity
  8
0
100
AcDbLine
 62
7
  6
CONTINUOUS
 10
416.7415843713
 20
94.7806005903
 11
416.8281329138
 21
94.6677230849
  0
LINE
  5
4F6
100
AcDbEntity
  8
0
100
AcDbLine
 62
7
  6
CONTINUOUS
 10
417.008108244
 20
94.5651579032
 11
416.9215597014
 21
94.6780354086
  0
LINE
  5
4F7
100
AcDbEntity
  8
0
100
AcDbLine
 62
7
  6
CONTINUOUS
 10
435.6511717436
 20
75.7711834075
 11
435.5180683262
 21
75.9456806317
  0
LINE
  5
4F8
100
AcDbEntity
  8
0
100
AcDbLine
 62
7
  6
CONTINUOUS
 10
436.254536996
 20
75.3775525555
 11
436.3876403539
 21
75.203055329
  0
LINE
  5
4F9
100
AcDbEntity
  8
0
100
AcDbLine
 62
7
  6
CONTINUOUS
 10
410.2383608174
 20
100.4230362658
 11
410.5392572842
 21
100.0245513255
  0
LINE
  5
4FA
100
AcDbEntity
  8
0
100
AcDbLine
 62
7
  6
CONTINUOUS
 10
413.3225499969
 20
98.0640255477
 11
413.0216535038
 21
98.4625105616
  0
LINE
  5
4FB
100
AcDbEntity
  8
0
100
AcDbLine
 62
7
  6
CONTINUOUS
 10
410.3135849341
 20
103.7096308652
 11
410.5392572842
 21
103.4107671624
  0
LINE
  5
4FC
100
AcDbEntity
  8
0
100
AcDbLine
 62
7
  6
CONTINUOUS
 10
411.2162745451
 20
104.0239535621
 11
411.3667227785
 21
103.824711145
  0
LINE
  5
4FD
100
AcDbEntity
  8
0
100
AcDbLine
 62
7
  6
CONTINUOUS
 10
411.6676192453
 20
103.5340674767
 11
411.5171710119
 21
103.7333098938
  0
LINE
  5
4FE
100
AcDbEntity
  8
0
100
AcDbLine
 62
7
  6
CONTINUOUS
 10
413.2473258802
 20
101.4689817476
 11
413.0216535038
 21
101.7678454758
  0
LINE
  5
4FF
100
AcDbEntity
  8
0
100
AcDbLine
 62
7
  6
CONTINUOUS
 10
411.2162745451
 20
104.4553186887
 11
411.4419468952
 21
104.1564549859
  0
LINE
  5
500
100
AcDbEntity
  8
0
100
AcDbLine
 62
7
  6
CONTINUOUS
 10
411.5923951286
 20
104.0650537347
 11
411.5171710119
 21
104.1646750204
  0
LINE
  5
501
100
AcDbEntity
  8
0
100
AcDbLine
 62
7
  6
CONTINUOUS
 10
411.2162745451
 20
105.2371679903
 11
411.3667227785
 21
105.0379254189
  0
LINE
  5
502
100
AcDbEntity
  8
0
100
AcDbLine
 62
7
  6
CONTINUOUS
 10
411.6676192453
 20
104.7472817506
 11
411.5171710119
 21
104.946524322
  0
LINE
  5
503
100
AcDbEntity
  8
0
100
AcDbLine
 62
7
  6
CONTINUOUS
 10
411.2162745451
 20
105.6685329626
 11
411.4419468952
 21
105.3696692598
  0
LINE
  5
504
100
AcDbEntity
  8
0
100
AcDbLine
 62
7
  6
CONTINUOUS
 10
411.5923951286
 20
105.2782681629
 11
411.5171710119
 21
105.3778892943
  0
LINE
  5
505
100
AcDbEntity
  8
0
100
AcDbLine
 62
7
  6
CONTINUOUS
 10
415.9696133151
 20
96.224303188
 11
418.8876442151
 21
92.3446072147
  0
LINE
  5
506
100
AcDbEntity
  8
0
100
AcDbLine
 62
7
  6
CONTINUOUS
 10
419.1384623044
 20
92.0111296182
 11
424.1548240911
 21
85.3415776871
  0
LINE
  5
507
100
AcDbEntity
  8
0
100
AcDbLine
 62
7
  6
CONTINUOUS
 10
424.5083774817
 20
85.2362889445
 11
416.9727697692
 21
95.2553284611
  0
LINE
  5
508
100
AcDbEntity
  8
0
100
AcDbLine
 62
7
  6
CONTINUOUS
 10
435.4356000073
 20
75.9806592935
 11
435.5437705401
 21
75.8364109114
  0
LINE
  5
509
100
AcDbEntity
  8
0
100
AcDbLine
 62
7
  6
CONTINUOUS
 10
436.4701087672
 20
75.1680766272
 11
436.3619381524
 21
75.3123250716
  0
LINE
  5
50A
100
AcDbEntity
  8
0
100
AcDbLine
 62
7
  6
CONTINUOUS
 10
434.6607499512
 20
76.2879801457
 11
434.7746518287
 21
76.1360126765
  0
LINE
  5
50B
100
AcDbEntity
  8
0
100
AcDbLine
 62
7
  6
CONTINUOUS
 10
435.8826741713
 20
75.2758963141
 11
435.7687723633
 21
75.4278637165
  0
LINE
  5
50C
100
AcDbEntity
  8
0
100
AcDbLine
 62
7
  6
CONTINUOUS
 10
417.1142687746
 20
93.7726698968
 11
417.1780989532
 21
93.6852826798
  0
LINE
  5
50D
100
AcDbEntity
  8
0
100
AcDbLine
 62
7
  6
CONTINUOUS
 10
436.2028076169
 20
76.0547329473
 11
436.2810913493
 21
75.9468720129
  0
LINE
  5
50E
100
AcDbEntity
  8
0
100
AcDbLine
 62
7
  6
CONTINUOUS
 10
436.4793028382
 20
75.8198855141
 11
436.4010191058
 21
75.9277464486
  0
LINE
  5
50F
100
AcDbEntity
  8
0
100
AcDbLine
 62
7
  6
CONTINUOUS
 10
417.3148855793
 20
93.5742687317
 11
417.2133656141
 21
93.7183390262
  0
LINE
  5
510
100
AcDbEntity
  8
RUNDUNGEN
100
AcDbLine
 62
7
  6
CONTINUOUS
 10
396.4729467633
 20
96.9279423594
 11
392.9038446318
 21
102.241137204
  0
LINE
  5
511
100
AcDbEntity
  8
RUNDUNGEN
100
AcDbLine
 62
7
  6
CONTINUOUS
 10
400.0084806692
 20
100.3430058689
 11
396.4393785377
 21
105.6562007135
  0
LINE
  5
512
100
AcDbEntity
  8
RUNDUNGEN
100
AcDbLine
 62
7
  6
CONTINUOUS
 10
400.269619092
 20
109.1625454974
 11
405.6232722893
 21
101.1927532305
  0
LINE
  5
513
100
AcDbEntity
  8
KONSTRUKTIONSELEMENTE
100
AcDbLine
 62
7
  6
CONTINUOUS
 10
287.3373994441
 20
215.3524445353
 11
290.8860133368
 21
208.5544884647
  0
LINE
  5
514
100
AcDbEntity
  8
0
100
AcDbLine
 62
7
  6
CONTINUOUS
 10
236.7941280256
 20
220.4809545219
 11
236.7941280256
 21
283.2661332307
  0
LINE
  5
515
100
AcDbEntity
  8
0
100
AcDbLine
 62
7
  6
CONTINUOUS
 10
435.3772950796
 20
76.0644101161
 11
435.4356000073
 21
75.9806592935
  0
LINE
  5
516
100
AcDbEntity
  8
0
100
AcDbLine
 62
7
  6
CONTINUOUS
 10
436.5284135779
 20
75.0843259093
 11
436.4701087672
 21
75.1680766272
  0
LINE
  5
517
100
AcDbEntity
  8
0
100
AcDbLine
 62
7
  6
CONTINUOUS
 10
410.6897055176
 20
100.0409913849
 11
410.5392572842
 21
100.26719419
  0
LINE
  5
518
100
AcDbEntity
  8
0
100
AcDbLine
 62
7
  6
CONTINUOUS
 10
412.8712052177
 20
98.4460705434
 11
413.0216535038
 21
98.2198677068
  0
LINE
  5
519
100
AcDbEntity
  8
0
100
AcDbLine
 62
7
  6
CONTINUOUS
 10
410.6144814009
 20
103.4998681485
 11
410.4640331675
 21
103.7260709343
  0
LINE
  5
51A
100
AcDbEntity
  8
0
100
AcDbLine
 62
7
  6
CONTINUOUS
 10
412.9464293871
 20
101.6787444126
 11
413.0968776205
 21
101.4525416268
  0
LINE
  5
51B
100
AcDbEntity
  8
0
100
AcDbLine
 62
7
  6
CONTINUOUS
 10
434.7908839147
 20
76.1884262896
 11
434.7320494355
 21
76.278318499
  0
LINE
  5
51C
100
AcDbEntity
  8
0
100
AcDbLine
 62
7
  6
CONTINUOUS
 10
435.7525401969
 20
75.3754501908
 11
435.811374687
 21
75.2855579609
  0
LINE
  5
51D
100
AcDbEntity
  8
0
100
AcDbLine
 62
7
  6
CONTINUOUS
 10
410.087912584
 20
104.0624152281
 11
410.3135849341
 21
103.7096308652
  0
LINE
  5
51E
100
AcDbEntity
  8
0
100
AcDbLine
 62
7
  6
CONTINUOUS
 10
413.47299825
 20
101.1161973656
 11
413.2473258802
 21
101.4689817476
  0
LINE
  5
51F
100
AcDbEntity
  8
0
100
AcDbLine
 62
7
  6
CONTINUOUS
 10
434.5862650575
 20
76.4072996672
 11
434.6607499512
 21
76.2879801457
  0
LINE
  5
520
100
AcDbEntity
  8
0
100
AcDbLine
 62
7
  6
CONTINUOUS
 10
435.9571590746
 20
75.1565767818
 11
435.8826741713
 21
75.2758963141
  0
LINE
  5
521
100
AcDbEntity
  8
0
100
AcDbLine
 62
7
  6
CONTINUOUS
 10
435.3105510858
 20
76.1714139277
 11
435.3772950796
 21
76.0644101161
  0
LINE
  5
522
100
AcDbEntity
  8
0
100
AcDbLine
 62
7
  6
CONTINUOUS
 10
436.5951576364
 20
74.9773220565
 11
436.5284135779
 21
75.0843259093
  0
LINE
  5
523
100
AcDbEntity
  8
0
100
AcDbLine
 62
7
  6
CONTINUOUS
 10
437.994174307
 20
74.9502109132
 11
439.2619802091
 21
72.8954245017
  0
LINE
  5
524
100
AcDbEntity
  8
0
100
AcDbLine
 62
7
  6
CONTINUOUS
 10
439.434486535
 20
72.6158362352
 11
442.5396004019
 21
67.5832474379
  0
LINE
  5
525
100
AcDbEntity
  8
0
100
AcDbLine
 62
7
  6
CONTINUOUS
 10
442.8931537925
 20
67.544883826
 11
438.8106708879
 21
74.1615357786
  0
LINE
  5
526
100
AcDbEntity
  8
0
100
AcDbLine
 62
7
  6
CONTINUOUS
 10
415.4332815833
 20
94.9647610692
 11
415.9571952318
 21
94.1142576488
  0
LINE
  5
527
100
AcDbEntity
  8
0
100
AcDbLine
 62
7
  6
CONTINUOUS
 10
416.027252965
 20
94.1175871666
 11
415.6596849966
 21
94.7161424489
  0
LINE
  5
528
100
AcDbEntity
  8
0
100
AcDbLine
 62
7
  6
CONTINUOUS
 10
417.1780989532
 20
93.6852826798
 11
417.227337931
 21
93.6026207616
  0
LINE
  5
529
100
AcDbEntity
  8
0
100
AcDbLine
 62
7
  6
CONTINUOUS
 10
410.087912584
 20
100.6761993623
 11
410.2383608174
 21
100.4230362658
  0
LINE
  5
52A
100
AcDbEntity
  8
0
100
AcDbLine
 62
7
  6
CONTINUOUS
 10
413.0814277042
 20
97.5333285329
 11
412.9774385733
 21
97.7083136845
  0
LINE
  5
52B
100
AcDbEntity
  8
0
100
AcDbLine
 62
7
  6
CONTINUOUS
 10
413.47299825
 20
97.8108624514
 11
413.3225499969
 21
98.0640255477
  0
LINE
  5
52C
100
AcDbEntity
  8
0
100
AcDbLine
 62
7
  6
CONTINUOUS
 10
411.5171710119
 20
104.1646750204
 11
411.4419468952
 21
104.2912565205
  0
LINE
  5
52D
100
AcDbEntity
  8
0
100
AcDbLine
 62
7
  6
CONTINUOUS
 10
411.5171710119
 20
105.3778892943
 11
411.4419468952
 21
105.5044709487
  0
LINE
  5
52E
100
AcDbEntity
  8
0
100
AcDbLine
 62
7
  6
CONTINUOUS
 10
258.7941280256
 20
220.4809545219
 11
258.7941280256
 21
283.2661332307
  0
LINE
  5
52F
100
AcDbEntity
  8
0
100
AcDbLine
 62
7
  6
CONTINUOUS
 10
265.7941280256
 20
285.1550071741
 11
265.7941280256
 21
781.1550071741
  0
LINE
  5
530
100
AcDbEntity
  8
0
100
AcDbLine
 62
7
  6
CONTINUOUS
 10
268.8941280256
 20
128.7848618129
 11
268.8941280256
 21
138.9171317154
  0
LINE
  5
531
100
AcDbEntity
  8
0
100
AcDbLine
 62
7
  6
CONTINUOUS
 10
268.8941280256
 20
139.0249253294
 11
268.8941280256
 21
151.833360067
  0
LINE
  5
532
100
AcDbEntity
  8
0
100
AcDbLine
 62
7
  6
CONTINUOUS
 10
272.2941280256
 20
168.2875335003
 11
272.2941280256
 21
157.5993430928
  0
LINE
  5
533
100
AcDbEntity
  8
0
100
AcDbLine
 62
7
  6
CONTINUOUS
 10
417.3756737391
 20
93.4656279835
 11
417.3148855793
 21
93.5742687317
  0
LINE
  5
534
100
AcDbEntity
  8
0
100
AcDbLine
 62
7
  6
CONTINUOUS
 10
435.5180683262
 20
75.9456806317
 11
435.4344459437
 21
76.0991906954
  0
LINE
  5
535
100
AcDbEntity
  8
0
100
AcDbLine
 62
7
  6
CONTINUOUS
 10
436.3876403539
 20
75.203055329
 11
436.4712627785
 21
75.0495452888
  0
LINE
  5
536
100
AcDbEntity
  8
0
100
AcDbLine
 62
7
  6
CONTINUOUS
 10
435.2314225351
 20
75.6918248231
 11
435.2001217148
 21
75.7506794463
  0
LINE
  5
537
100
AcDbEntity
  8
0
100
AcDbLine
 62
7
  6
CONTINUOUS
 10
410.5392572842
 20
100.26719419
 11
410.4640331675
 21
100.4207360586
  0
LINE
  5
538
100
AcDbEntity
  8
0
100
AcDbLine
 62
7
  6
CONTINUOUS
 10
411.1410504284
 20
104.1774954308
 11
411.2162745451
 21
104.0239535621
  0
LINE
  5
539
100
AcDbEntity
  8
0
100
AcDbLine
 62
7
  6
CONTINUOUS
 10
411.5171710119
 20
103.7333098938
 11
411.4419468952
 21
103.8868517625
  0
LINE
  5
53A
100
AcDbEntity
  8
0
100
AcDbLine
 62
7
  6
CONTINUOUS
 10
411.1410504284
 20
104.6088605574
 11
411.2162745451
 21
104.4553186887
  0
LINE
  5
53B
100
AcDbEntity
  8
0
100
AcDbLine
 62
7
  6
CONTINUOUS
 10
411.1410504284
 20
105.390709859
 11
411.2162745451
 21
105.2371679903
  0
LINE
  5
53C
100
AcDbEntity
  8
0
100
AcDbLine
 62
7
  6
CONTINUOUS
 10
411.5171710119
 20
104.946524322
 11
411.4419468952
 21
105.1000661907
  0
LINE
  5
53D
100
AcDbEntity
  8
0
100
AcDbLine
 62
7
  6
CONTINUOUS
 10
411.1410504284
 20
105.8220748313
 11
411.2162745451
 21
105.6685329626
  0
LINE
  5
53E
100
AcDbEntity
  8
KONSTRUKTIONSELEMENTE
100
AcDbLine
 62
7
  6
CONTINUOUS
 10
336.3653118185
 20
175.8577757797
 11
336.3321618677
 21
175.9485263586
  0
LINE
  5
53F
100
AcDbEntity
  8
KONSTRUKTIONSELEMENTE
100
AcDbLine
 62
7
  6
CONTINUOUS
 10
339.4809924322
 20
179.7958467978
 11
339.5141423831
 21
179.705096219
  0
LINE
  5
540
100
AcDbEntity
  8
KONSTRUKTIONSELEMENTE
100
AcDbLine
 62
7
  6
CONTINUOUS
 10
339.8345458228
 20
179.4543404469
 11
339.8676957736
 21
179.363589868
  0
LINE
  5
541
100
AcDbEntity
  8
0
100
AcDbLine
 62
7
  6
CONTINUOUS
 10
281.2948780256
 20
154.7112136649
 11
279.6830265631
 21
167.9698960774
  0
LINE
  5
542
100
AcDbEntity
  8
0
100
AcDbLine
 62
7
  6
CONTINUOUS
 10
281.2948780256
 20
162.5278046933
 11
280.0753717588
 21
172.5591547693
  0
LINE
  5
543
100
AcDbEntity
  8
0
100
AcDbLine
 62
7
  6
CONTINUOUS
 10
287.3266629131
 20
182.7810159842
 11
287.5128842923
 21
172.5591547693
  0
LINE
  5
544
100
AcDbEntity
  8
0
100
AcDbLine
 62
7
  6
CONTINUOUS
 10
275.7941280256
 20
182.4135297962
 11
275.7941280256
 21
172.6705232121
  0
LINE
  5
545
100
AcDbEntity
  8
BEZUGSACHSEN
100
AcDbLine
 62
7
  6
CONTINUOUS
 10
275.7941280256
 20
182.4138533121
 11
275.7941280256
 21
204.8261056498
  0
LINE
  5
546
100
AcDbEntity
  8
0
100
AcDbLine
 62
7
  6
CONTINUOUS
 10
281.2948780256
 20
162.5278046933
 11
281.2948780256
 21
154.7112136649
  0
LINE
  5
547
100
AcDbEntity
  8
0
100
AcDbLine
 62
7
  6
CONTINUOUS
 10
286.2933780256
 20
162.5278046933
 11
286.2933780256
 21
154.7112136649
  0
LINE
  5
548
100
AcDbEntity
  8
RUNDUNGEN
100
AcDbLine
 62
7
  6
CONTINUOUS
 10
291.7941280256
 20
182.4135297962
 11
291.7941280256
 21
172.6705232121
  0
LINE
  5
549
100
AcDbEntity
  8
BEZUGSACHSEN
100
AcDbLine
 62
7
  6
CONTINUOUS
 10
291.7941280256
 20
182.4138533121
 11
291.7941280256
 21
204.8261056498
  0
LINE
  5
54A
100
AcDbEntity
  8
RUNDUNGEN
100
AcDbLine
 62
7
  6
CONTINUOUS
 10
295.2941280256
 20
168.2875335003
 11
295.2941280256
 21
157.5993430928
  0
LINE
  5
54B
100
AcDbEntity
  8
RUNDUNGEN
100
AcDbLine
 62
7
  6
CONTINUOUS
 10
298.6941280256
 20
128.7848618129
 11
298.6941280256
 21
130.9681124614
  0
LINE
  5
54C
100
AcDbEntity
  8
KONSTRUKTIONSELEMENTE
100
AcDbLine
 62
7
  6
CONTINUOUS
 10
298.6941280256
 20
128.7848618129
 11
298.6941280256
 21
138.9171317154
  0
LINE
  5
54D
100
AcDbEntity
  8
KONSTRUKTIONSELEMENTE
100
AcDbLine
 62
7
  6
CONTINUOUS
 10
298.6941280256
 20
139.0249253294
 11
298.6941280256
 21
141.2081759778
  0
LINE
  5
54E
100
AcDbEntity
  8
RUNDUNGEN
100
AcDbLine
 62
7
  6
CONTINUOUS
 10
298.6941280256
 20
139.0249253294
 11
298.6941280256
 21
151.833360067
  0
LINE
  5
54F
100
AcDbEntity
  8
0
100
AcDbLine
 62
7
  6
CONTINUOUS
 10
301.7941280256
 20
285.1550071741
 11
301.7941280256
 21
781.1550071741
  0
LINE
  5
550
100
AcDbEntity
  8
0
100
AcDbLine
 62
7
  6
CONTINUOUS
 10
280.261593138
 20
182.7810159842
 11
280.0753717588
 21
172.5591547693
  0
LINE
  5
551
100
AcDbEntity
  8
0
100
AcDbLine
 62
7
  6
CONTINUOUS
 10
410.0126884674
 20
100.8567015611
 11
410.087912584
 21
100.6761993623
  0
LINE
  5
552
100
AcDbEntity
  8
0
100
AcDbLine
 62
7
  6
CONTINUOUS
 10
413.0216535038
 20
98.2198677068
 11
413.0968776205
 21
98.0393655081
  0
LINE
  5
553
100
AcDbEntity
  8
KONSTRUKTIONSELEMENTE
100
AcDbLine
 62
7
  6
CONTINUOUS
 10
397.5300483912
 20
116.777177066
 11
397.4968984404
 21
116.8679276449
  0
LINE
  5
554
100
AcDbEntity
  8
KONSTRUKTIONSELEMENTE
100
AcDbLine
 62
7
  6
CONTINUOUS
 10
400.6457290049
 20
120.7152480842
 11
400.6788789557
 21
120.6244975053
  0
LINE
  5
555
100
AcDbEntity
  8
KONSTRUKTIONSELEMENTE
100
AcDbLine
 62
7
  6
CONTINUOUS
 10
400.9992823955
 20
120.3737417332
 11
401.0324323463
 21
120.2829911544
  0
LINE
  5
556
100
AcDbEntity
  8
0
100
AcDbLine
 62
7
  6
CONTINUOUS
 10
410.4640331675
 20
103.7260709343
 11
410.3888090508
 21
103.933533463
  0
LINE
  5
557
100
AcDbEntity
  8
0
100
AcDbLine
 62
7
  6
CONTINUOUS
 10
413.5482223733
 20
97.6033999548
 11
413.47299825
 21
97.8108624514
  0
LINE
  5
558
100
AcDbEntity
  8
0
100
AcDbLine
 62
7
  6
CONTINUOUS
 10
413.0968776205
 20
101.4525416268
 11
413.1721017371
 21
101.2450791752
  0
LINE
  5
559
100
AcDbEntity
  8
0
100
AcDbLine
 62
7
  6
CONTINUOUS
 10
308.7941280256
 20
283.2661332307
 11
308.7941280256
 21
220.4809545219
  0
LINE
  5
55A
100
AcDbEntity
  8
0
100
AcDbLine
 62
7
  6
CONTINUOUS
 10
286.2933780256
 20
162.5278046933
 11
287.5128842923
 21
172.5591547693
  0
LINE
  5
55B
100
AcDbEntity
  8
RUNDUNGEN
100
AcDbLine
 62
7
  6
CONTINUOUS
 10
286.2933780256
 20
154.7112136649
 11
287.905229488
 21
167.9698960774
  0
LINE
  5
55C
100
AcDbEntity
  8
0
100
AcDbLine
 62
7
  6
CONTINUOUS
 10
435.2852335838
 20
76.2411731889
 11
435.3105510858
 21
76.1714139277
  0
LINE
  5
55D
100
AcDbEntity
  8
0
100
AcDbLine
 62
7
  6
CONTINUOUS
 10
436.6204751471
 20
74.9075627848
 11
436.5951576364
 21
74.9773220565
  0
LINE
  5
55E
100
AcDbEntity
  8
0
100
AcDbLine
 62
7
  6
CONTINUOUS
 10
434.7320494355
 20
76.278318499
 11
434.7126318597
 21
76.335562848
  0
LINE
  5
55F
100
AcDbEntity
  8
0
100
AcDbLine
 62
7
  6
CONTINUOUS
 10
435.0311525997
 20
75.9647220005
 11
435.069987747
 21
75.8502333029
  0
LINE
  5
560
100
AcDbEntity
  8
0
100
AcDbLine
 62
7
  6
CONTINUOUS
 10
435.2001217148
 20
75.7506794463
 11
435.1807041391
 21
75.8079237953
  0
LINE
  5
561
100
AcDbEntity
  8
0
100
AcDbLine
 62
7
  6
CONTINUOUS
 10
435.811374687
 20
75.2855579609
 11
435.8307922627
 21
75.2283136118
  0
LINE
  5
562
100
AcDbEntity
  8
0
100
AcDbLine
 62
7
  6
CONTINUOUS
 10
416.7150276055
 20
94.8592897019
 11
416.7415843713
 21
94.7806005903
  0
LINE
  5
563
100
AcDbEntity
  8
0
100
AcDbLine
 62
7
  6
CONTINUOUS
 10
417.034664886
 20
94.4864689531
 11
417.008108244
 21
94.5651579032
  0
LINE
  5
564
100
AcDbEntity
  8
0
100
AcDbLine
 62
7
  6
CONTINUOUS
 10
410.0126884674
 20
104.2968380484
 11
410.087912584
 21
104.0624152281
  0
LINE
  5
565
100
AcDbEntity
  8
0
100
AcDbLine
 62
7
  6
CONTINUOUS
 10
413.5482223733
 20
100.8817745389
 11
413.47299825
 21
101.1161973656
  0
LINE
  5
566
100
AcDbEntity
  8
0
100
AcDbLine
 62
7
  6
CONTINUOUS
 10
330.7941280256
 20
283.2661332307
 11
330.7941280256
 21
220.4809545219
  0
LINE
  5
567
100
AcDbEntity
  8
0
100
AcDbLine
 62
7
  6
CONTINUOUS
 10
416.5810946887
 20
94.1010073761
 11
416.5610382508
 21
94.1742186052
  0
LINE
  5
568
100
AcDbEntity
  8
0
100
AcDbLine
 62
7
  6
CONTINUOUS
 10
434.5630803204
 20
76.4923610532
 11
434.5862650575
 21
76.4072996672
  0
LINE
  5
569
100
AcDbEntity
  8
0
100
AcDbLine
 62
7
  6
CONTINUOUS
 10
435.9803438444
 20
75.0715153842
 11
435.9571590746
 21
75.1565767818
  0
LINE
  5
56A
100
AcDbEntity
  8
0
100
AcDbLine
 62
7
  6
CONTINUOUS
 10
436.1905943808
 20
76.1202650488
 11
436.2028076169
 21
76.0547329473
  0
LINE
  5
56B
100
AcDbEntity
  8
0
100
AcDbLine
 62
7
  6
CONTINUOUS
 10
436.4915159624
 20
75.7543535669
 11
436.4793028382
 21
75.8198855141
  0
LINE
  5
56C
100
AcDbEntity
  8
0
100
AcDbLine
 62
7
  6
CONTINUOUS
 10
417.227337931
 20
93.6026207616
 11
417.2358450942
 21
93.5553884003
  0
LINE
  5
56D
100
AcDbEntity
  8
0
100
AcDbLine
 62
7
  6
CONTINUOUS
 10
416.4157445632
 20
94.3324648661
 11
416.4212096151
 21
94.2639790113
  0
LINE
  5
56E
100
AcDbEntity
  8
0
100
AcDbLine
 62
7
  6
CONTINUOUS
 10
417.3811387979
 20
93.3971421206
 11
417.3756737391
 21
93.4656279835
  0
LINE
  5
56F
100
AcDbEntity
  8
0
100
AcDbLine
 62
7
  6
CONTINUOUS
 10
276.7022427143
 20
208.5544884647
 11
280.250856607
 21
215.3524445353
  0
LINE
  5
570
100
AcDbEntity
  8
0
100
AcDbLine
 62
7
  6
CONTINUOUS
 10
435.4344459437
 20
76.0991906954
 11
435.4340612791
 21
76.1387011345
  0
LINE
  5
571
100
AcDbEntity
  8
0
100
AcDbLine
 62
7
  6
CONTINUOUS
 10
436.4712627785
 20
75.0495452888
 11
436.4716474431
 21
75.0100348497
  0
LINE
  5
572
100
AcDbEntity
  8
0
100
AcDbLine
 62
7
  6
CONTINUOUS
 10
408.9520282956
 20
101.1910364808
 11
408.9520282956
 21
97.3087508042
  0
LINE
  5
573
100
AcDbEntity
  8
0
100
AcDbLine
 62
7
  6
CONTINUOUS
 10
409.3055816862
 20
97.0966539758
 11
409.3055816862
 21
100.7201206073
  0
LINE
  5
574
100
AcDbEntity
  8
0
100
AcDbLine
 62
7
  6
CONTINUOUS
 10
410.0126884674
 20
103.5958697755
 11
410.0126884674
 21
103.4341078723
  0
LINE
  5
575
100
AcDbEntity
  8
0
100
AcDbLine
 62
7
  6
CONTINUOUS
 10
410.0126884674
 20
100.9915031342
 11
410.0126884674
 21
100.8567015611
  0
LINE
  5
576
100
AcDbEntity
  8
0
100
AcDbLine
 62
7
  6
CONTINUOUS
 10
410.4640331675
 20
100.4207360586
 11
410.4640331675
 21
100.5824979618
  0
LINE
  5
577
100
AcDbEntity
  8
0
100
AcDbLine
 62
7
  6
CONTINUOUS
 10
410.840153751
 20
100.3809552411
 11
410.840153751
 21
100.5427171443
  0
LINE
  5
578
100
AcDbEntity
  8
0
100
AcDbLine
 62
7
  6
CONTINUOUS
 10
411.1410504284
 20
105.9299159972
 11
411.1410504284
 21
105.8220748313
  0
LINE
  5
579
100
AcDbEntity
  8
0
100
AcDbLine
 62
7
  6
CONTINUOUS
 10
411.1410504284
 20
104.7167018776
 11
411.1410504284
 21
104.6088605574
  0
LINE
  5
57A
100
AcDbEntity
  8
0
100
AcDbLine
 62
7
  6
CONTINUOUS
 10
411.1410504284
 20
105.4985510249
 11
411.1410504284
 21
105.390709859
  0
LINE
  5
57B
100
AcDbEntity
  8
0
100
AcDbLine
 62
7
  6
CONTINUOUS
 10
411.1410504284
 20
105.2559081701
 11
411.1410504284
 21
105.1211064813
  0
LINE
  5
57C
100
AcDbEntity
  8
0
100
AcDbLine
 62
7
  6
CONTINUOUS
 10
411.1410504284
 20
104.285336751
 11
411.1410504284
 21
104.1774954308
  0
LINE
  5
57D
100
AcDbEntity
  8
0
100
AcDbLine
 62
7
  6
CONTINUOUS
 10
411.1410504284
 20
104.0426938962
 11
411.1410504284
 21
103.9078923616
  0
LINE
  5
57E
100
AcDbEntity
  8
0
100
AcDbLine
 62
7
  6
CONTINUOUS
 10
411.4419468952
 20
103.8868517625
 11
411.4419468952
 21
103.9407724997
  0
LINE
  5
57F
100
AcDbEntity
  8
0
100
AcDbLine
 62
7
  6
CONTINUOUS
 10
411.4419468952
 20
104.2912565205
 11
411.4419468952
 21
104.3721374721
  0
LINE
  5
580
100
AcDbEntity
  8
0
100
AcDbLine
 62
7
  6
CONTINUOUS
 10
411.4419468952
 20
105.1000661907
 11
411.4419468952
 21
105.1539866194
  0
LINE
  5
581
100
AcDbEntity
  8
0
100
AcDbLine
 62
7
  6
CONTINUOUS
 10
411.4419468952
 20
105.5044709487
 11
411.4419468952
 21
105.5853519002
  0
LINE
  5
582
100
AcDbEntity
  8
0
100
AcDbLine
 62
7
  6
CONTINUOUS
 10
411.5171710119
 20
99.5652449193
 11
411.5171710119
 21
99.4034830161
  0
LINE
  5
583
100
AcDbEntity
  8
0
100
AcDbLine
 62
7
  6
CONTINUOUS
 10
411.968515712
 20
98.9675175136
 11
411.968515712
 21
99.1292794168
  0
LINE
  5
584
100
AcDbEntity
  8
0
100
AcDbLine
 62
7
  6
CONTINUOUS
 10
412.5703087509
 20
98.1166268905
 11
412.5703087509
 21
97.9548649873
  0
LINE
  5
585
100
AcDbEntity
  8
0
100
AcDbLine
 62
7
  6
CONTINUOUS
 10
413.0968776205
 20
98.0393655081
 11
413.0968776205
 21
97.8236829448
  0
LINE
  5
586
100
AcDbEntity
  8
0
100
AcDbLine
 62
7
  6
CONTINUOUS
 10
413.5482223733
 20
97.3877173915
 11
413.5482223733
 21
97.6033999548
  0
LINE
  5
587
100
AcDbEntity
  8
0
100
AcDbLine
 62
7
  6
CONTINUOUS
 10
413.5482223733
 20
100.0190443629
 11
413.5482223733
 21
100.1808062661
  0
LINE
  5
588
100
AcDbEntity
  8
0
100
AcDbLine
 62
7
  6
CONTINUOUS
 10
413.5482223733
 20
101.5827428118
 11
413.5482223733
 21
101.7175443464
  0
LINE
  5
589
100
AcDbEntity
  8
0
100
AcDbLine
 62
7
  6
CONTINUOUS
 10
413.5482223733
 20
102.7959569315
 11
413.5482223733
 21
102.9307586203
  0
LINE
  5
58A
100
AcDbEntity
  8
0
100
AcDbLine
 62
7
  6
CONTINUOUS
 10
413.5482223733
 20
102.0141077841
 11
413.5482223733
 21
102.148909473
  0
LINE
  5
58B
100
AcDbEntity
  8
0
100
AcDbLine
 62
7
  6
CONTINUOUS
 10
413.5482223733
 20
102.4454729107
 11
413.5482223733
 21
102.5802745996
  0
LINE
  5
58C
100
AcDbEntity
  8
0
100
AcDbLine
 62
7
  6
CONTINUOUS
 10
413.5482223733
 20
103.2273222123
 11
413.5482223733
 21
103.3621235926
  0
LINE
  5
58D
100
AcDbEntity
  8
0
100
AcDbLine
 62
7
  6
CONTINUOUS
 10
413.5482223733
 20
103.6586871846
 11
413.5482223733
 21
103.7934888735
  0
LINE
  5
58E
100
AcDbEntity
  8
0
100
AcDbLine
 62
7
  6
CONTINUOUS
 10
414.2553291545
 20
92.18615554
 11
414.2553291545
 21
95.939031694
  0
LINE
  5
58F
100
AcDbEntity
  8
0
100
AcDbLine
 62
7
  6
CONTINUOUS
 10
414.6088825451
 20
91.8446491891
 11
414.6088825451
 21
95.7269348656
  0
LINE
  5
590
100
AcDbEntity
  8
0
100
AcDbLine
 62
7
  6
CONTINUOUS
 10
416.0230961074
 20
93.1962237589
 11
416.0230961074
 21
93.0668142363
  0
LINE
  5
591
100
AcDbEntity
  8
0
100
AcDbLine
 62
7
  6
CONTINUOUS
 10
424.5083774817
 20
84.8706618136
 11
424.5083774817
 21
90.717437997
  0
LINE
  5
592
100
AcDbEntity
  8
0
100
AcDbLine
 62
7
  6
CONTINUOUS
 10
424.8619308723
 20
84.6585649852
 11
424.8619308723
 21
90.6114030226
  0
LINE
  5
593
100
AcDbEntity
  8
0
100
AcDbLine
 62
7
  6
CONTINUOUS
 10
426.183039468
 20
88.7098307619
 11
426.183039468
 21
88.601989488
  0
LINE
  5
594
100
AcDbEntity
  8
0
100
AcDbLine
 62
7
  6
CONTINUOUS
 10
426.6644739834
 20
88.4820515109
 11
426.6644739834
 21
88.2448007298
  0
LINE
  5
595
100
AcDbEntity
  8
0
100
AcDbLine
 62
7
  6
CONTINUOUS
 10
426.6644739834
 20
88.1369594559
 11
426.6644739834
 21
87.9644134207
  0
LINE
  5
596
100
AcDbEntity
  8
0
100
AcDbLine
 62
7
  6
CONTINUOUS
 10
426.9051911569
 20
88.0122857952
 11
426.9051911569
 21
88.2495365762
  0
LINE
  5
597
100
AcDbEntity
  8
0
100
AcDbLine
 62
7
  6
CONTINUOUS
 10
426.9051911569
 20
87.731898486
 11
426.9051911569
 21
87.9044445212
  0
LINE
  5
598
100
AcDbEntity
  8
0
100
AcDbLine
 62
7
  6
CONTINUOUS
 10
429.1045715594
 20
80.4310792513
 11
429.1045715594
 21
86.5133268112
  0
LINE
  5
599
100
AcDbEntity
  8
0
100
AcDbLine
 62
7
  6
CONTINUOUS
 10
429.45812495
 20
80.0895729004
 11
429.45812495
 21
86.3012299828
  0
LINE
  5
59A
100
AcDbEntity
  8
0
100
AcDbLine
 62
7
  6
CONTINUOUS
 10
272.3357801133
 20
157.6690283938
 11
268.9357801133
 21
151.9807175284
  0
LINE
  5
59B
100
AcDbEntity
  8
0
100
AcDbLine
 62
7
  6
CONTINUOUS
 10
435.1149791995
 20
74.7548808078
 11
435.1149791995
 21
74.6254712852
  0
LINE
  5
59C
100
AcDbEntity
  8
0
100
AcDbLine
 62
7
  6
CONTINUOUS
 10
442.8931537925
 20
67.1123315644
 11
442.8931537925
 21
72.8063505567
  0
LINE
  5
59D
100
AcDbEntity
  8
0
100
AcDbLine
 62
7
  6
CONTINUOUS
 10
443.2467071831
 20
66.900234736
 11
443.2467071831
 21
72.8530727734
  0
LINE
  5
59E
100
AcDbEntity
  8
0
100
AcDbLine
 62
7
  6
CONTINUOUS
 10
444.6519942536
 20
70.8701903499
 11
444.6519942536
 21
70.762349076
  0
LINE
  5
59F
100
AcDbEntity
  8
0
100
AcDbLine
 62
7
  6
CONTINUOUS
 10
445.133428769
 20
70.6424110989
 11
445.133428769
 21
70.4051603178
  0
LINE
  5
5A0
100
AcDbEntity
  8
0
100
AcDbLine
 62
7
  6
CONTINUOUS
 10
445.133428769
 20
70.2973190439
 11
445.133428769
 21
70.1247730087
  0
LINE
  5
5A1
100
AcDbEntity
  8
0
100
AcDbLine
 62
7
  6
CONTINUOUS
 10
445.3741459424
 20
70.1726453832
 11
445.3741459424
 21
70.4098961643
  0
LINE
  5
5A2
100
AcDbEntity
  8
0
100
AcDbLine
 62
7
  6
CONTINUOUS
 10
445.3741459424
 20
69.8922580741
 11
445.3741459424
 21
70.0648041093
  0
LINE
  5
5A3
100
AcDbEntity
  8
0
100
AcDbLine
 62
7
  6
CONTINUOUS
 10
447.4893478702
 20
62.6727490021
 11
447.4893478702
 21
68.754996562
  0
LINE
  5
5A4
100
AcDbEntity
  8
0
100
AcDbLine
 62
7
  6
CONTINUOUS
 10
447.8429012608
 20
62.3312426512
 11
447.8429012608
 21
68.5428997336
  0
LINE
  5
5A5
100
AcDbEntity
  8
RUNDUNGEN
100
AcDbLine
 62
7
  6
CONTINUOUS
 10
457.7423961974
 20
61.3489161698
 11
457.7423961974
 21
59.5728911064
  0
LINE
  5
5A6
100
AcDbEntity
  8
RUNDUNGEN
100
AcDbLine
 62
7
  6
CONTINUOUS
 10
457.7423961974
 20
52.1768956255
 11
457.7423961974
 21
50.400870562
  0
LINE
  5
5A7
100
AcDbEntity
  8
RUNDUNGEN
100
AcDbLine
 62
7
  6
CONTINUOUS
 10
466.2276775717
 20
55.1844932512
 11
466.2276775717
 21
54.5762684952
  0
LINE
  5
5A8
100
AcDbEntity
  8
RUNDUNGEN
100
AcDbLine
 62
7
  6
CONTINUOUS
 10
466.2276775717
 20
40.7812133912
 11
466.2276775717
 21
40.1729886352
  0
LINE
  5
5A9
100
AcDbEntity
  8
0
100
AcDbLine
 62
7
  6
CONTINUOUS
 10
435.2929033904
 20
76.2969409933
 11
435.2852335838
 21
76.2411731889
  0
LINE
  5
5AA
100
AcDbEntity
  8
0
100
AcDbLine
 62
7
  6
CONTINUOUS
 10
436.6128052526
 20
74.8517950124
 11
436.6204751471
 21
74.9075627848
  0
LINE
  5
5AB
100
AcDbEntity
  8
0
100
AcDbLine
 62
7
  6
CONTINUOUS
 10
434.7126318597
 20
76.335562848
 11
434.7207479429
 21
76.3617696109
  0
LINE
  5
5AC
100
AcDbEntity
  8
0
100
AcDbLine
 62
7
  6
CONTINUOUS
 10
435.1807041391
 20
75.8079237953
 11
435.1888202223
 21
75.8341305582
  0
LINE
  5
5AD
100
AcDbEntity
  8
0
100
AcDbLine
 62
7
  6
CONTINUOUS
 10
435.8307922627
 20
75.2283136118
 11
435.8226761965
 21
75.2021068466
  0
LINE
  5
5AE
100
AcDbEntity
  8
0
100
AcDbLine
 62
7
  6
CONTINUOUS
 10
410.087912584
 20
104.3859390345
 11
410.0126884674
 21
104.2968380484
  0
LINE
  5
5AF
100
AcDbEntity
  8
0
100
AcDbLine
 62
7
  6
CONTINUOUS
 10
413.47299825
 20
100.7926735592
 11
413.5482223733
 21
100.8817745389
  0
LINE
  5
5B0
100
AcDbEntity
  8
RUNDUNGEN
100
AcDbLine
 62
7
  6
CONTINUOUS
 10
393.030576965
 20
120.4922945252
 11
393.3561771278
 21
120.8068001314
  0
LINE
  5
5B1
100
AcDbEntity
  8
0
100
AcDbLine
 62
7
  6
CONTINUOUS
 10
398.536839713
 20
113.7857832653
 11
395.0013058071
 21
110.3707197559
  0
LINE
  5
5B2
100
AcDbEntity
  8
RUNDUNGEN
100
AcDbLine
 62
7
  6
CONTINUOUS
 10
396.2661005998
 20
106.1185244903
 11
392.7305666939
 21
102.7034609808
  0
LINE
  5
5B3
100
AcDbEntity
  8
RUNDUNGEN
100
AcDbLine
 62
7
  6
CONTINUOUS
 10
406.5532662259
 20
115.1357934034
 11
406.3224447092
 21
114.9128369391
  0
LINE
  5
5B4
100
AcDbEntity
  8
0
100
AcDbLine
 62
7
  6
CONTINUOUS
 10
411.2162745451
 20
105.9381360318
 11
411.1410504284
 21
105.8654751147
  0
LINE
  5
5B5
100
AcDbEntity
  8
0
100
AcDbLine
 62
7
  6
CONTINUOUS
 10
411.3667227785
 20
105.8467349349
 11
411.1998443507
 21
105.6855427516
  0
LINE
  5
5B6
100
AcDbEntity
  8
0
100
AcDbLine
 62
7
  6
CONTINUOUS
 10
411.2162745451
 20
105.5067710594
 11
411.1410504284
 21
105.4341101424
  0
LINE
  5
5B7
100
AcDbEntity
  8
0
100
AcDbLine
 62
7
  6
CONTINUOUS
 10
411.4419468952
 20
105.5853519002
 11
411.3477726817
 21
105.4943865952
  0
LINE
  5
5B8
100
AcDbEntity
  8
0
100
AcDbLine
 62
7
  6
CONTINUOUS
 10
411.4419468952
 20
105.5044709487
 11
411.3830879949
 21
105.4476176167
  0
LINE
  5
5B9
100
AcDbEntity
  8
0
100
AcDbLine
 62
7
  6
CONTINUOUS
 10
410.3135849341
 20
104.302757895
 11
410.0767393414
 21
104.0739826201
  0
LINE
  5
5BA
100
AcDbEntity
  8
0
100
AcDbLine
 62
7
  6
CONTINUOUS
 10
411.4419468952
 20
105.3696692598
 11
411.2589896141
 21
105.1929460969
  0
LINE
  5
5BB
100
AcDbEntity
  8
0
100
AcDbLine
 62
7
  6
CONTINUOUS
 10
411.5171710119
 20
105.3778892943
 11
411.2817356156
 21
105.1504761647
  0
LINE
  5
5BC
100
AcDbEntity
  8
0
100
AcDbLine
 62
7
  6
CONTINUOUS
 10
411.742843362
 20
105.5373510867
 11
411.6659303982
 21
105.4630588687
  0
LINE
  5
5BD
100
AcDbEntity
  8
0
100
AcDbLine
 62
7
  6
CONTINUOUS
 10
411.4419468952
 20
105.1539866194
 11
411.3450356708
 21
105.0603775649
  0
LINE
  5
5BE
100
AcDbEntity
  8
0
100
AcDbLine
 62
7
  6
CONTINUOUS
 10
411.5923951286
 20
105.2782681629
 11
411.4524607217
 21
105.1431019053
  0
LINE
  5
5BF
100
AcDbEntity
  8
0
100
AcDbLine
 62
7
  6
CONTINUOUS
 10
411.3667227785
 20
105.0379254189
 11
411.2915418894
 21
104.9653062564
  0
LINE
  5
5C0
100
AcDbEntity
  8
0
100
AcDbLine
 62
7
  6
CONTINUOUS
 10
411.4419468952
 20
105.1000661907
 11
411.3719796918
 21
105.0324830619
  0
LINE
  5
5C1
100
AcDbEntity
  8
0
100
AcDbLine
 62
7
  6
CONTINUOUS
 10
410.5392572842
 20
104.1656560954
 11
410.2194666776
 21
103.8567620895
  0
LINE
  5
5C2
100
AcDbEntity
  8
0
100
AcDbLine
 62
7
  6
CONTINUOUS
 10
410.3888090508
 20
103.933533463
 11
410.2537863496
 21
103.8031115488
  0
LINE
  5
5C3
100
AcDbEntity
  8
0
100
AcDbLine
 62
7
  6
CONTINUOUS
 10
411.2162745451
 20
104.7249217578
 11
411.1410504284
 21
104.6522608408
  0
LINE
  5
5C4
100
AcDbEntity
  8
0
100
AcDbLine
 62
7
  6
CONTINUOUS
 10
411.5171710119
 20
104.946524322
 11
411.4194810957
 21
104.852163109
  0
LINE
  5
5C5
100
AcDbEntity
  8
0
100
AcDbLine
 62
7
  6
CONTINUOUS
 10
411.742843362
 20
105.1059858059
 11
411.6659304842
 21
105.0316936709
  0
LINE
  5
5C6
100
AcDbEntity
  8
0
100
AcDbLine
 62
7
  6
CONTINUOUS
 10
411.3667227785
 20
104.6335206609
 11
411.1998443507
 21
104.4723284777
  0
LINE
  5
5C7
100
AcDbEntity
  8
0
100
AcDbLine
 62
7
  6
CONTINUOUS
 10
410.4640331675
 20
103.7260709343
 11
410.3698589988
 21
103.6351056726
  0
LINE
  5
5C8
100
AcDbEntity
  8
0
100
AcDbLine
 62
7
  6
CONTINUOUS
 10
411.6676192453
 20
104.7472817506
 11
411.5978407565
 21
104.6798809062
  0
LINE
  5
5C9
100
AcDbEntity
  8
0
100
AcDbLine
 62
7
  6
CONTINUOUS
 10
411.2162745451
 20
104.2935567855
 11
411.1410504284
 21
104.2208958684
  0
LINE
  5
5CA
100
AcDbEntity
  8
0
100
AcDbLine
 62
7
  6
CONTINUOUS
 10
410.840153751
 20
103.9289330101
 11
410.7446016244
 21
103.8366367432
  0
LINE
  5
5CB
100
AcDbEntity
  8
0
100
AcDbLine
 62
7
  6
CONTINUOUS
 10
411.4419468952
 20
104.3721374721
 11
411.347772749
 21
104.2811722321
  0
LINE
  5
5CC
100
AcDbEntity
  8
0
100
AcDbLine
 62
7
  6
CONTINUOUS
 10
410.6144814009
 20
103.4998681485
 11
410.531042187
 21
103.4192720569
  0
LINE
  5
5CD
100
AcDbEntity
  8
0
100
AcDbLine
 62
7
  6
CONTINUOUS
 10
411.4419468952
 20
104.2912565205
 11
411.3830880623
 21
104.2344032536
  0
LINE
  5
5CE
100
AcDbEntity
  8
0
100
AcDbLine
 62
7
  6
CONTINUOUS
 10
411.4419468952
 20
104.1564549859
 11
411.258989537
 21
103.9797317485
  0
LINE
  5
5CF
100
AcDbEntity
  8
0
100
AcDbLine
 62
7
  6
CONTINUOUS
 10
411.0658263118
 20
103.7379104239
 11
410.9861995102
 21
103.6609968399
  0
LINE
  5
5D0
100
AcDbEntity
  8
0
100
AcDbLine
 62
7
  6
CONTINUOUS
 10
411.5171710119
 20
104.1646750204
 11
411.2817355776
 21
103.937261854
  0
LINE
  5
5D1
100
AcDbEntity
  8
0
100
AcDbLine
 62
7
  6
CONTINUOUS
 10
411.742843362
 20
104.3241368128
 11
411.6659303532
 21
104.2498445513
  0
LINE
  5
5D2
100
AcDbEntity
  8
0
100
AcDbLine
 62
7
  6
CONTINUOUS
 10
411.4419468952
 20
103.9407724997
 11
411.3450355938
 21
103.8471633708
  0
LINE
  5
5D3
100
AcDbEntity
  8
0
100
AcDbLine
 62
7
  6
CONTINUOUS
 10
411.5923951286
 20
104.0650537347
 11
411.4524608758
 21
103.929887626
  0
LINE
  5
5D4
100
AcDbEntity
  8
0
100
AcDbLine
 62
7
  6
CONTINUOUS
 10
411.3667227785
 20
103.824711145
 11
411.2915419665
 21
103.752092057
  0
LINE
  5
5D5
100
AcDbEntity
  8
0
100
AcDbLine
 62
7
  6
CONTINUOUS
 10
411.4419468952
 20
103.8868517625
 11
411.3719797688
 21
103.8192687081
  0
LINE
  5
5D6
100
AcDbEntity
  8
0
100
AcDbLine
 62
7
  6
CONTINUOUS
 10
411.5171710119
 20
103.7333098938
 11
411.4194812554
 21
103.6389488351
  0
LINE
  5
5D7
100
AcDbEntity
  8
0
100
AcDbLine
 62
7
  6
CONTINUOUS
 10
410.6144814009
 20
102.8528205358
 11
410.531042187
 21
102.7722244441
  0
LINE
  5
5D8
100
AcDbEntity
  8
0
100
AcDbLine
 62
7
  6
CONTINUOUS
 10
411.742843362
 20
103.8927716862
 11
411.6659303982
 21
103.8184794681
  0
LINE
  5
5D9
100
AcDbEntity
  8
0
100
AcDbLine
 62
7
  6
CONTINUOUS
 10
411.4419468952
 20
103.4015660529
 11
411.3675419095
 21
103.3296963556
  0
LINE
  5
5DA
100
AcDbEntity
  8
0
100
AcDbLine
 62
7
  6
CONTINUOUS
 10
411.0658263118
 20
102.9560611995
 11
410.9984659897
 21
102.8909961247
  0
LINE
  5
5DB
100
AcDbEntity
  8
0
100
AcDbLine
 62
7
  6
CONTINUOUS
 10
411.6676192453
 20
103.5340674767
 11
411.5978408364
 21
103.4666667094
  0
LINE
  5
5DC
100
AcDbEntity
  8
0
100
AcDbLine
 62
7
  6
CONTINUOUS
 10
409.3055816862
 20
100.7201206073
 11
408.9520282956
 21
100.3786142563
  0
LINE
  5
5DD
100
AcDbEntity
  8
0
100
AcDbLine
 62
7
  6
CONTINUOUS
 10
411.5171710119
 20
102.4931353284
 11
411.4472038663
 21
102.4255522555
  0
LINE
  5
5DE
100
AcDbEntity
  8
0
100
AcDbLine
 62
7
  6
CONTINUOUS
 10
410.087912584
 20
101.0536438288
 11
410.0179454191
 21
100.9860607372
  0
LINE
  5
5DF
100
AcDbEntity
  8
0
100
AcDbLine
 62
7
  6
CONTINUOUS
 10
412.1189639454
 20
102.7476177993
 11
412.0489968191
 21
102.6800347449
  0
LINE
  5
5E0
100
AcDbEntity
  8
0
100
AcDbLine
 62
7
  6
CONTINUOUS
 10
410.3135849341
 20
100.9435023207
 11
410.073257728
 21
100.7113640655
  0
LINE
  5
5E1
100
AcDbEntity
  8
0
100
AcDbLine
 62
7
  6
CONTINUOUS
 10
413.5482223733
 20
103.7934888735
 11
413.4808620127
 21
103.7284237615
  0
LINE
  5
5E2
100
AcDbEntity
  8
0
100
AcDbLine
 62
7
  6
CONTINUOUS
 10
428.5300322407
 20
86.5075145899
 11
428.5902115393
 21
86.5787953738
  0
LINE
  5
5E3
100
AcDbEntity
  8
0
100
AcDbLine
 62
7
  6
CONTINUOUS
 10
410.6144814009
 20
100.733739604
 11
410.2609280103
 21
100.3922332531
  0
LINE
  5
5E4
100
AcDbEntity
  8
0
100
AcDbLine
 62
7
  6
CONTINUOUS
 10
410.4640331675
 20
100.5824979618
 11
410.2676037699
 21
100.3927617337
  0
LINE
  5
5E5
100
AcDbEntity
  8
0
100
AcDbLine
 62
7
  6
CONTINUOUS
 10
412.0437398287
 20
101.9845089089
 11
411.9789863688
 21
101.9219618696
  0
LINE
  5
5E6
100
AcDbEntity
  8
0
100
AcDbLine
 62
7
  6
CONTINUOUS
 10
410.4640331675
 20
100.4207360586
 11
410.3345436824
 21
100.2956588207
  0
LINE
  5
5E7
100
AcDbEntity
  8
0
100
AcDbLine
 62
7
  6
CONTINUOUS
 10
412.4950846342
 20
102.3573528978
 11
412.4277242736
 21
102.2922877858
  0
LINE
  5
5E8
100
AcDbEntity
  8
0
100
AcDbLine
 62
7
  6
CONTINUOUS
 10
413.5482223733
 20
103.3621235926
 11
413.4808621668
 21
103.2970586296
  0
LINE
  5
5E9
100
AcDbEntity
  8
0
100
AcDbLine
 62
7
  6
CONTINUOUS
 10
410.5392572842
 20
100.26719419
 11
410.4333113407
 21
100.164858267
  0
LINE
  5
5EA
100
AcDbEntity
  8
0
100
AcDbLine
 62
7
  6
CONTINUOUS
 10
410.840153751
 20
100.5427171443
 11
410.7478582378
 21
100.4535665245
  0
LINE
  5
5EB
100
AcDbEntity
  8
0
100
AcDbLine
 62
7
  6
CONTINUOUS
 10
413.5482223733
 20
102.9307586203
 11
413.4808620127
 21
102.8656935083
  0
LINE
  5
5EC
100
AcDbEntity
  8
0
100
AcDbLine
 62
7
  6
CONTINUOUS
 10
412.7207569843
 20
102.112409778
 11
412.6462392652
 21
102.0404311885
  0
LINE
  5
5ED
100
AcDbEntity
  8
0
100
AcDbLine
 62
7
  6
CONTINUOUS
 10
410.6897055176
 20
100.0409913849
 11
410.6036594656
 21
99.9578772811
  0
LINE
  5
5EE
100
AcDbEntity
  8
0
100
AcDbLine
 62
7
  6
CONTINUOUS
 10
412.4950846342
 20
101.5755036733
 11
412.4277243122
 21
101.5104385986
  0
LINE
  5
5EF
100
AcDbEntity
  8
0
100
AcDbLine
 62
7
  6
CONTINUOUS
 10
413.5482223733
 20
102.5802745996
 11
413.4808620127
 21
102.5152094876
  0
LINE
  5
5F0
100
AcDbEntity
  8
0
100
AcDbLine
 62
7
  6
CONTINUOUS
 10
410.9153780784
 20
99.7960481194
 11
410.8319388572
 21
99.7154520207
  0
LINE
  5
5F1
100
AcDbEntity
  8
0
100
AcDbLine
 62
7
  6
CONTINUOUS
 10
413.0216535038
 20
101.7678454758
 11
412.9382142513
 21
101.6872493469
  0
LINE
  5
5F2
100
AcDbEntity
  8
0
100
AcDbLine
 62
7
  6
CONTINUOUS
 10
413.5482223733
 20
102.148909473
 11
413.4808620127
 21
102.083844361
  0
LINE
  5
5F3
100
AcDbEntity
  8
0
100
AcDbLine
 62
7
  6
CONTINUOUS
 10
411.0658263118
 20
99.6507262853
 11
410.9771734049
 21
99.5650941529
  0
LINE
  5
5F4
100
AcDbEntity
  8
0
100
AcDbLine
 62
7
  6
CONTINUOUS
 10
412.9464293871
 20
101.2473793631
 11
412.8464425789
 21
101.1507995228
  0
LINE
  5
5F5
100
AcDbEntity
  8
0
100
AcDbLine
 62
7
  6
CONTINUOUS
 10
413.2473258802
 20
101.4689817476
 11
413.1314874247
 21
101.3570903918
  0
LINE
  5
5F6
100
AcDbEntity
  8
0
100
AcDbLine
 62
7
  6
CONTINUOUS
 10
413.5482223733
 20
101.7175443464
 11
413.4808620898
 21
101.6524793088
  0
LINE
  5
5F7
100
AcDbEntity
  8
0
100
AcDbLine
 62
7
  6
CONTINUOUS
 10
411.2914986618
 20
99.4597038448
 11
411.1919805464
 21
99.363576727
  0
LINE
  5
5F8
100
AcDbEntity
  8
0
100
AcDbLine
 62
7
  6
CONTINUOUS
 10
413.0968776205
 20
101.1829384806
 11
412.973022221
 21
101.0633033515
  0
LINE
  5
5F9
100
AcDbEntity
  8
0
100
AcDbLine
 62
7
  6
CONTINUOUS
 10
413.1721017371
 20
101.2450791752
 11
412.9782791728
 21
101.0578609546
  0
LINE
  5
5FA
100
AcDbEntity
  8
0
100
AcDbLine
 62
7
  6
CONTINUOUS
 10
411.5923951286
 20
99.6273855753
 11
411.5224279829
 21
99.5598025024
  0
LINE
  5
5FB
100
AcDbEntity
  8
0
100
AcDbLine
 62
7
  6
CONTINUOUS
 10
411.4419468952
 20
99.3952629816
 11
411.3102369506
 21
99.2680409445
  0
LINE
  5
5FC
100
AcDbEntity
  8
0
100
AcDbLine
 62
7
  6
CONTINUOUS
 10
411.5171710119
 20
99.4034830161
 11
411.345216364
 21
99.2373875808
  0
LINE
  5
5FD
100
AcDbEntity
  8
0
100
AcDbLine
 62
7
  6
CONTINUOUS
 10
411.742843362
 20
99.5899049843
 11
411.3892899714
 21
99.2483986333
  0
LINE
  5
5FE
100
AcDbEntity
  8
0
100
AcDbLine
 62
7
  6
CONTINUOUS
 10
409.3055816862
 20
97.0966539758
 11
409.2385943881
 21
97.0319492146
  0
LINE
  5
5FF
100
AcDbEntity
  8
0
100
AcDbLine
 62
7
  6
CONTINUOUS
 10
413.47299825
 20
101.1161973656
 11
413.2361526566
 21
100.88742209
  0
LINE
  5
600
100
AcDbEntity
  8
0
100
AcDbLine
 62
7
  6
CONTINUOUS
 10
413.5482223733
 20
100.8817745389
 11
413.4647831591
 21
100.8011784471
  0
LINE
  5
601
100
AcDbEntity
  8
0
100
AcDbLine
 62
7
  6
CONTINUOUS
 10
412.0437398287
 20
99.4071026362
 11
411.6901864381
 21
99.0655962853
  0
LINE
  5
602
100
AcDbEntity
  8
0
100
AcDbLine
 62
7
  6
CONTINUOUS
 10
411.968515712
 20
99.1292794168
 11
411.7910067837
 21
98.9578189586
  0
LINE
  5
603
100
AcDbEntity
  8
0
100
AcDbLine
 62
7
  6
CONTINUOUS
 10
412.3446364009
 20
99.1703794491
 11
412.2316462425
 21
99.061239337
  0
LINE
  5
604
100
AcDbEntity
  8
0
100
AcDbLine
 62
7
  6
CONTINUOUS
 10
413.5482223733
 20
100.1808062661
 11
413.4673900022
 21
100.1027281913
  0
LINE
  5
605
100
AcDbEntity
  8
0
100
AcDbLine
 62
7
  6
CONTINUOUS
 10
412.7207569843
 20
98.8070748638
 11
412.6373177704
 21
98.7264787721
  0
LINE
  5
606
100
AcDbEntity
  8
0
100
AcDbLine
 62
7
  6
CONTINUOUS
 10
413.0216535038
 20
98.4625105616
 11
412.9233957042
 21
98.3676008154
  0
LINE
  5
607
100
AcDbEntity
  8
0
100
AcDbLine
 62
7
  6
CONTINUOUS
 10
412.795981101
 20
97.92560445
 11
412.7045158696
 21
97.8372558207
  0
LINE
  5
608
100
AcDbEntity
  8
0
100
AcDbLine
 62
7
  6
CONTINUOUS
 10
413.0216535038
 20
97.7885025995
 11
412.8951912633
 21
97.6663494554
  0
LINE
  5
609
100
AcDbEntity
  8
0
100
AcDbLine
 62
7
  6
CONTINUOUS
 10
413.3225499969
 20
98.0640255477
 11
413.0968776205
 21
97.846042771
  0
LINE
  5
60A
100
AcDbEntity
  8
0
100
AcDbLine
 62
7
  6
CONTINUOUS
 10
413.0968776205
 20
97.8236829448
 11
412.9209960551
 21
97.6537943985
  0
LINE
  5
60B
100
AcDbEntity
  8
0
100
AcDbLine
 62
7
  6
CONTINUOUS
 10
413.47299825
 20
97.8108624514
 11
413.1400795541
 21
97.4892876849
  0
LINE
  5
60C
100
AcDbEntity
  8
0
100
AcDbLine
 62
7
  6
CONTINUOUS
 10
413.5482223733
 20
97.6033999548
 11
413.3192631868
 21
97.3822423634
  0
LINE
  5
60D
100
AcDbEntity
  8
0
100
AcDbLine
 62
7
  6
CONTINUOUS
 10
414.6088825451
 20
95.7269348656
 11
414.2553291545
 21
95.3854285147
  0
LINE
  5
60E
100
AcDbEntity
  8
0
100
AcDbLine
 62
7
  6
CONTINUOUS
 10
415.4933310709
 20
94.9676149417
 11
415.46083976
 21
94.9362307453
  0
LINE
  5
60F
100
AcDbEntity
  8
0
100
AcDbLine
 62
7
  6
CONTINUOUS
 10
415.6596849966
 20
94.7161424489
 11
415.6137585704
 21
94.6717809277
  0
LINE
  5
610
100
AcDbEntity
  8
0
100
AcDbLine
 62
7
  6
CONTINUOUS
 10
416.0029616425
 20
94.7552461071
 11
415.9739654456
 21
94.7272379317
  0
LINE
  5
611
100
AcDbEntity
  8
0
100
AcDbLine
 62
7
  6
CONTINUOUS
 10
416.2954061966
 20
94.7717322187
 11
416.2091946024
 21
94.6884582134
  0
LINE
  5
612
100
AcDbEntity
  8
0
100
AcDbLine
 62
7
  6
CONTINUOUS
 10
416.9727697692
 20
95.2553284611
 11
416.8138571679
 21
95.1018306754
  0
LINE
  5
613
100
AcDbEntity
  8
0
100
AcDbLine
 62
7
  6
CONTINUOUS
 10
416.027252965
 20
94.1175871666
 11
415.9893464368
 21
94.080972272
  0
LINE
  5
614
100
AcDbEntity
  8
0
100
AcDbLine
 62
7
  6
CONTINUOUS
 10
416.7750193822
 20
94.825101308
 11
416.7354855481
 21
94.7869145567
  0
LINE
  5
615
100
AcDbEntity
  8
0
100
AcDbLine
 62
7
  6
CONTINUOUS
 10
414.2553291545
 20
92.3155650626
 11
414.1883418564
 21
92.2508603013
  0
LINE
  5
616
100
AcDbEntity
  8
0
100
AcDbLine
 62
7
  6
CONTINUOUS
 10
416.1973931825
 20
94.1256731386
 11
416.0674279387
 21
94.0001363531
  0
LINE
  5
617
100
AcDbEntity
  8
0
100
AcDbLine
 62
7
  6
CONTINUOUS
 10
416.4625604153
 20
94.3395423716
 11
416.4185704981
 21
94.2970513746
  0
LINE
  5
618
100
AcDbEntity
  8
0
100
AcDbLine
 62
7
  6
CONTINUOUS
 10
416.2574426702
 20
94.1285270111
 11
416.0949861154
 21
93.9716060291
  0
LINE
  5
619
100
AcDbEntity
  8
0
100
AcDbLine
 62
7
  6
CONTINUOUS
 10
416.4212096151
 20
94.2639790113
 11
416.3861751346
 21
94.2301383018
  0
LINE
  5
61A
100
AcDbEntity
  8
0
100
AcDbLine
 62
7
  6
CONTINUOUS
 10
416.3575251401
 20
94.1332834647
 11
416.1409164055
 21
93.9240554938
  0
LINE
  5
61B
100
AcDbEntity
  8
0
100
AcDbLine
 62
7
  6
CONTINUOUS
 10
416.9215597014
 20
94.6780354086
 11
416.8680744205
 21
94.6263725944
  0
LINE
  5
61C
100
AcDbEntity
  8
0
100
AcDbLine
 62
7
  6
CONTINUOUS
 10
416.5501080636
 20
94.3111903418
 11
416.4247994262
 21
94.1901514927
  0
LINE
  5
61D
100
AcDbEntity
  8
0
100
AcDbLine
 62
7
  6
CONTINUOUS
 10
416.5610382508
 20
94.1742186052
 11
416.5093112943
 21
94.124254202
  0
LINE
  5
61E
100
AcDbEntity
  8
0
100
AcDbLine
 62
7
  6
CONTINUOUS
 10
416.6492049031
 20
94.2568594711
 11
416.5848668304
 21
94.1947136651
  0
LINE
  5
61F
100
AcDbEntity
  8
0
100
AcDbLine
 62
7
  6
CONTINUOUS
 10
417.008108244
 20
94.5651579032
 11
416.9685744265
 21
94.5269711679
  0
LINE
  5
620
100
AcDbEntity
  8
0
100
AcDbLine
 62
7
  6
CONTINUOUS
 10
416.4272452698
 20
93.9420630023
 11
416.3947539588
 21
93.9106788059
  0
LINE
  5
621
100
AcDbEntity
  8
0
100
AcDbLine
 62
7
  6
CONTINUOUS
 10
416.8005828135
 20
94.1411201972
 11
416.7658201658
 21
94.107542058
  0
LINE
  5
622
100
AcDbEntity
  8
0
100
AcDbLine
 62
7
  6
CONTINUOUS
 10
416.9489186125
 20
94.0041274298
 11
416.9177953351
 21
93.9740646524
  0
LINE
  5
623
100
AcDbEntity
  8
0
100
AcDbLine
 62
7
  6
CONTINUOUS
 10
416.8017678661
 20
93.8293949874
 11
416.7706445888
 21
93.79933221
  0
LINE
  5
624
100
AcDbEntity
  8
0
100
AcDbLine
 62
7
  6
CONTINUOUS
 10
416.9355123809
 20
93.6971275458
 11
416.9043891035
 21
93.6670647684
  0
LINE
  5
625
100
AcDbEntity
  8
0
100
AcDbLine
 62
7
  6
CONTINUOUS
 10
417.1088036392
 20
93.8411557787
 11
417.0813197348
 21
93.8146083655
  0
LINE
  5
626
100
AcDbEntity
  8
0
100
AcDbLine
 62
7
  6
CONTINUOUS
 10
417.0315671925
 20
93.6215431547
 11
416.9968045441
 21
93.5879650148
  0
LINE
  5
627
100
AcDbEntity
  8
0
100
AcDbLine
 62
7
  6
CONTINUOUS
 10
417.2133656141
 20
93.7183390262
 11
417.1786029664
 21
93.684760887
  0
LINE
  5
628
100
AcDbEntity
  8
0
100
AcDbLine
 62
7
  6
CONTINUOUS
 10
417.1160728129
 20
93.5719376043
 11
417.0727180547
 21
93.5300601237
  0
LINE
  5
629
100
AcDbEntity
  8
0
100
AcDbLine
 62
7
  6
CONTINUOUS
 10
417.2036204612
 20
93.5435855744
 11
417.1392823875
 21
93.4814397674
  0
LINE
  5
62A
100
AcDbEntity
  8
0
100
AcDbLine
 62
7
  6
CONTINUOUS
 10
417.2132765476
 20
93.5335888582
 11
417.1489384738
 21
93.4714430512
  0
LINE
  5
62B
100
AcDbEntity
  8
0
100
AcDbLine
 62
7
  6
CONTINUOUS
 10
417.3148855793
 20
93.5742687317
 11
417.1872960822
 21
93.4510267413
  0
LINE
  5
62C
100
AcDbEntity
  8
0
100
AcDbLine
 62
7
  6
CONTINUOUS
 10
417.3756737391
 20
93.4656279835
 11
417.3067044578
 21
93.3990087734
  0
LINE
  5
62D
100
AcDbEntity
  8
0
100
AcDbLine
 62
7
  6
CONTINUOUS
 10
416.7302028886
 20
92.513211057
 11
416.6632155905
 21
92.4485062957
  0
LINE
  5
62E
100
AcDbEntity
  8
0
100
AcDbLine
 62
7
  6
CONTINUOUS
 10
416.890968082
 20
92.2285142822
 11
417.207358185
 21
92.5341236539
  0
LINE
  5
62F
100
AcDbEntity
  8
0
100
AcDbLine
 62
7
  6
CONTINUOUS
 10
417.0837562792
 20
92.171704706
 11
417.0167689811
 21
92.1069999448
  0
LINE
  5
630
100
AcDbEntity
  8
0
100
AcDbLine
 62
7
  6
CONTINUOUS
 10
418.8876442151
 20
92.3446072147
 11
418.7629112619
 21
92.2241244339
  0
LINE
  5
631
100
AcDbEntity
  8
0
100
AcDbLine
 62
7
  6
CONTINUOUS
 10
424.5083774817
 20
91.0823188961
 11
424.275690465
 21
90.8575604973
  0
LINE
  5
632
100
AcDbEntity
  8
0
100
AcDbLine
 62
7
  6
CONTINUOUS
 10
424.8619308723
 20
90.6114030226
 11
424.5083774817
 21
90.2698966716
  0
LINE
  5
633
100
AcDbEntity
  8
0
100
AcDbLine
 62
7
  6
CONTINUOUS
 10
426.6644739834
 20
88.2448007298
 11
426.6105857335
 21
88.1927486774
  0
LINE
  5
634
100
AcDbEntity
  8
0
100
AcDbLine
 62
7
  6
CONTINUOUS
 10
426.9051911569
 20
88.2495365762
 11
426.6644739834
 21
88.0170216416
  0
LINE
  5
635
100
AcDbEntity
  8
0
100
AcDbLine
 62
7
  6
CONTINUOUS
 10
426.9051911569
 20
88.0122857952
 11
426.7567398114
 21
87.8688928067
  0
LINE
  5
636
100
AcDbEntity
  8
0
100
AcDbLine
 62
7
  6
CONTINUOUS
 10
424.1548240911
 20
85.3415776871
 11
424.087836793
 21
85.2768729258
  0
LINE
  5
637
100
AcDbEntity
  8
0
100
AcDbLine
 62
7
  6
CONTINUOUS
 10
426.9051911569
 20
87.9044445212
 11
426.8189699585
 21
87.8211612389
  0
LINE
  5
638
100
AcDbEntity
  8
0
100
AcDbLine
 62
7
  6
CONTINUOUS
 10
424.5083774817
 20
85.2362889445
 11
424.3191149519
 21
85.0534753791
  0
LINE
  5
639
100
AcDbEntity
  8
0
100
AcDbLine
 62
7
  6
CONTINUOUS
 10
424.8619308723
 20
84.6585649852
 11
424.7949435742
 21
84.593860224
  0
LINE
  5
63A
100
AcDbEntity
  8
0
100
AcDbLine
 62
7
  6
CONTINUOUS
 10
427.9884185215
 20
86.9659685079
 11
427.9325957704
 21
86.912047871
  0
LINE
  5
63B
100
AcDbEntity
  8
0
100
AcDbLine
 62
7
  6
CONTINUOUS
 10
428.1689564437
 20
86.8131504994
 11
428.1022050803
 21
86.7486736336
  0
LINE
  5
63C
100
AcDbEntity
  8
0
100
AcDbLine
 62
7
  6
CONTINUOUS
 10
428.2893150304
 20
86.7615977934
 11
428.1970195141
 21
86.6724471706
  0
LINE
  5
63D
100
AcDbEntity
  8
0
100
AcDbLine
 62
7
  6
CONTINUOUS
 10
428.3494943448
 20
86.8113103287
 11
428.2018215056
 21
86.6686693194
  0
LINE
  5
63E
100
AcDbEntity
  8
0
100
AcDbLine
 62
7
  6
CONTINUOUS
 10
428.5902115393
 20
86.5787953738
 11
428.523460168
 21
86.5143185003
  0
LINE
  5
63F
100
AcDbEntity
  8
0
100
AcDbLine
 62
7
  6
CONTINUOUS
 10
429.45812495
 20
86.3012299828
 11
429.1045715594
 21
85.9597236319
  0
LINE
  5
640
100
AcDbEntity
  8
0
100
AcDbLine
 62
7
  6
CONTINUOUS
 10
410.3888090508
 20
103.933533463
 11
410.4640331675
 21
103.9956740805
  0
LINE
  5
641
100
AcDbEntity
  8
0
100
AcDbLine
 62
7
  6
CONTINUOUS
 10
410.087912584
 20
101.0536438288
 11
410.0126884674
 21
100.9915031342
  0
LINE
  5
642
100
AcDbEntity
  8
0
100
AcDbLine
 62
7
  6
CONTINUOUS
 10
413.1721017371
 20
101.2450791752
 11
413.0968776205
 21
101.1829384806
  0
LINE
  5
643
100
AcDbEntity
  8
0
100
AcDbLine
 62
7
  6
CONTINUOUS
 10
411.5923951286
 20
99.6273855753
 11
411.5171710119
 21
99.5652449193
  0
LINE
  5
644
100
AcDbEntity
  8
0
100
AcDbLine
 62
7
  6
CONTINUOUS
 10
413.47299825
 20
97.3255767418
 11
413.5482223733
 21
97.3877173915
  0
LINE
  5
645
100
AcDbEntity
  8
0
100
AcDbLine
 62
7
  6
CONTINUOUS
 10
446.9989870263
 20
68.667874178
 11
447.0591663249
 21
68.7391549618
  0
LINE
  5
646
100
AcDbEntity
  8
0
100
AcDbLine
 62
7
  6
CONTINUOUS
 10
429.1045715594
 20
80.5604887739
 11
429.0375842613
 21
80.4957840126
  0
LINE
  5
647
100
AcDbEntity
  8
0
100
AcDbLine
 62
7
  6
CONTINUOUS
 10
434.5949629012
 20
76.5153472667
 11
434.5669829722
 21
76.4883207307
  0
LINE
  5
648
100
AcDbEntity
  8
0
100
AcDbLine
 62
7
  6
CONTINUOUS
 10
434.6424958794
 20
76.5089061705
 11
434.5760613984
 21
76.4447353896
  0
LINE
  5
649
100
AcDbEntity
  8
0
100
AcDbLine
 62
7
  6
CONTINUOUS
 10
434.7294457696
 20
76.4698172127
 11
434.6157777843
 21
76.3600223702
  0
LINE
  5
64A
100
AcDbEntity
  8
0
100
AcDbLine
 62
7
  6
CONTINUOUS
 10
434.7034537615
 20
76.3450647144
 11
434.6528367793
 21
76.2961724641
  0
LINE
  5
64B
100
AcDbEntity
  8
0
100
AcDbLine
 62
7
  6
CONTINUOUS
 10
434.7126318597
 20
76.335562848
 11
434.6620148775
 21
76.2866705976
  0
LINE
  5
64C
100
AcDbEntity
  8
0
100
AcDbLine
 62
7
  6
CONTINUOUS
 10
434.7320494355
 20
76.278318499
 11
434.6999921965
 21
76.2473535839
  0
LINE
  5
64D
100
AcDbEntity
  8
0
100
AcDbLine
 62
7
  6
CONTINUOUS
 10
434.8714629947
 20
76.3686530803
 11
434.8368746319
 21
76.3352432874
  0
LINE
  5
64E
100
AcDbEntity
  8
0
100
AcDbLine
 62
7
  6
CONTINUOUS
 10
434.7908839147
 20
76.1884262896
 11
434.7562955499
 21
76.1550164947
  0
LINE
  5
64F
100
AcDbEntity
  8
0
100
AcDbLine
 62
7
  6
CONTINUOUS
 10
434.8616017242
 20
76.0969237181
 11
434.8361529204
 21
76.0723420612
  0
LINE
  5
650
100
AcDbEntity
  8
0
100
AcDbLine
 62
7
  6
CONTINUOUS
 10
435.0172473726
 20
76.239671912
 11
434.9851901336
 21
76.2087069969
  0
LINE
  5
651
100
AcDbEntity
  8
0
100
AcDbLine
 62
7
  6
CONTINUOUS
 10
435.3669325735
 20
76.2852154052
 11
435.2946047503
 21
76.2153520928
  0
LINE
  5
652
100
AcDbEntity
  8
0
100
AcDbLine
 62
7
  6
CONTINUOUS
 10
435.0149204291
 20
75.9123084754
 11
434.9882060639
 21
75.8865043801
  0
LINE
  5
653
100
AcDbEntity
  8
0
100
AcDbLine
 62
7
  6
CONTINUOUS
 10
435.1224514118
 20
75.9796568426
 11
435.04986827
 21
75.9095469114
  0
LINE
  5
654
100
AcDbEntity
  8
0
100
AcDbLine
 62
7
  6
CONTINUOUS
 10
435.069987747
 20
75.8502333029
 11
435.0458045055
 21
75.8268740854
  0
LINE
  5
655
100
AcDbEntity
  8
0
100
AcDbLine
 62
7
  6
CONTINUOUS
 10
435.4908274314
 20
76.2129921729
 11
435.3578476545
 21
76.0845435721
  0
LINE
  5
656
100
AcDbEntity
  8
0
100
AcDbLine
 62
7
  6
CONTINUOUS
 10
435.209401319
 20
75.9405678825
 11
435.0590965547
 21
75.7953846289
  0
LINE
  5
657
100
AcDbEntity
  8
0
100
AcDbLine
 62
7
  6
CONTINUOUS
 10
435.4340612791
 20
76.1387011345
 11
435.3675713834
 21
76.0744768271
  0
LINE
  5
658
100
AcDbEntity
  8
0
100
AcDbLine
 62
7
  6
CONTINUOUS
 10
435.4344459437
 20
76.0991906954
 11
435.3875004043
 21
76.0538447865
  0
LINE
  5
659
100
AcDbEntity
  8
0
100
AcDbLine
 62
7
  6
CONTINUOUS
 10
435.1715260409
 20
75.8174256618
 11
435.1023493154
 21
75.7506060761
  0
LINE
  5
65A
100
AcDbEntity
  8
0
100
AcDbLine
 62
7
  6
CONTINUOUS
 10
435.1807041391
 20
75.8079237953
 11
435.1115274136
 21
75.7411042096
  0
LINE
  5
65B
100
AcDbEntity
  8
0
100
AcDbLine
 62
7
  6
CONTINUOUS
 10
435.2001217148
 20
75.7506794463
 11
435.1495047326
 21
75.7017871959
  0
LINE
  5
65C
100
AcDbEntity
  8
0
100
AcDbLine
 62
7
  6
CONTINUOUS
 10
435.3514185101
 20
75.8394037547
 11
435.3168301473
 21
75.8059939618
  0
LINE
  5
65D
100
AcDbEntity
  8
0
100
AcDbLine
 62
7
  6
CONTINUOUS
 10
435.2314225351
 20
75.6918248231
 11
435.1940224242
 21
75.6556990901
  0
LINE
  5
65E
100
AcDbEntity
  8
0
100
AcDbLine
 62
7
  6
CONTINUOUS
 10
435.6480943569
 20
76.0872670049
 11
435.6134394291
 21
76.053792915
  0
LINE
  5
65F
100
AcDbEntity
  8
0
100
AcDbLine
 62
7
  6
CONTINUOUS
 10
435.5180683262
 20
75.9456806317
 11
435.4854540047
 21
75.9141776161
  0
LINE
  5
660
100
AcDbEntity
  8
0
100
AcDbLine
 62
7
  6
CONTINUOUS
 10
435.302140306
 20
75.6003222951
 11
435.2703636929
 21
75.5696284438
  0
LINE
  5
661
100
AcDbEntity
  8
0
100
AcDbLine
 62
7
  6
CONTINUOUS
 10
435.4696692291
 20
75.7414601726
 11
435.4363464282
 21
75.7092728187
  0
LINE
  5
662
100
AcDbEntity
  8
0
100
AcDbLine
 62
7
  6
CONTINUOUS
 10
435.7723738794
 20
75.9755333335
 11
435.7399358439
 21
75.9442005973
  0
LINE
  5
663
100
AcDbEntity
  8
0
100
AcDbLine
 62
7
  6
CONTINUOUS
 10
435.6511717436
 20
75.7711834075
 11
435.6282043451
 21
75.7489986042
  0
LINE
  5
664
100
AcDbEntity
  8
0
100
AcDbLine
 62
7
  6
CONTINUOUS
 10
435.3847412829
 20
75.5072095364
 11
435.3567613553
 21
75.4801830018
  0
LINE
  5
665
100
AcDbEntity
  8
0
100
AcDbLine
 62
7
  6
CONTINUOUS
 10
435.63110403
 20
75.5830516911
 11
435.6015779147
 21
75.5545316538
  0
LINE
  5
666
100
AcDbEntity
  8
0
100
AcDbLine
 62
7
  6
CONTINUOUS
 10
435.9050925378
 20
75.8405465885
 11
435.8782944161
 21
75.8146615907
  0
LINE
  5
667
100
AcDbEntity
  8
0
100
AcDbLine
 62
7
  6
CONTINUOUS
 10
435.4792255043
 20
75.4124865037
 11
435.4496993904
 21
75.3839664678
  0
LINE
  5
668
100
AcDbEntity
  8
0
100
AcDbLine
 62
7
  6
CONTINUOUS
 10
436.2566648771
 20
76.0779362159
 11
436.2172083869
 21
76.0398241731
  0
LINE
  5
669
100
AcDbEntity
  8
0
100
AcDbLine
 62
7
  6
CONTINUOUS
 10
435.9963848214
 20
75.7428042891
 11
435.9712005162
 21
75.7184781183
  0
LINE
  5
66A
100
AcDbEntity
  8
0
100
AcDbLine
 62
7
  6
CONTINUOUS
 10
435.8257016055
 20
75.559441653
 11
435.7983004224
 21
75.5329741425
  0
LINE
  5
66B
100
AcDbEntity
  8
0
100
AcDbLine
 62
7
  6
CONTINUOUS
 10
435.585592998
 20
75.316153174
 11
435.553535759
 21
75.2851882589
  0
LINE
  5
66C
100
AcDbEntity
  8
0
100
AcDbLine
 62
7
  6
CONTINUOUS
 10
435.7687723633
 20
75.4278637165
 11
435.7341840006
 21
75.3944539237
  0
LINE
  5
66D
100
AcDbEntity
  8
0
100
AcDbLine
 62
7
  6
CONTINUOUS
 10
435.6763100581
 20
75.2492471782
 11
435.6417216949
 21
75.2158373849
  0
LINE
  5
66E
100
AcDbEntity
  8
0
100
AcDbLine
 62
7
  6
CONTINUOUS
 10
436.4010191058
 20
75.9277464486
 11
436.3485342567
 21
75.8770499773
  0
LINE
  5
66F
100
AcDbEntity
  8
0
100
AcDbLine
 62
7
  6
CONTINUOUS
 10
435.7394934592
 20
75.2133787686
 11
435.6901420384
 21
75.1657089567
  0
LINE
  5
670
100
AcDbEntity
  8
0
100
AcDbLine
 62
7
  6
CONTINUOUS
 10
436.1375426156
 20
75.5845644704
 11
436.1101414469
 21
75.5580969738
  0
LINE
  5
671
100
AcDbEntity
  8
0
100
AcDbLine
 62
7
  6
CONTINUOUS
 10
435.8826741713
 20
75.2758963141
 11
435.832057189
 21
75.2270040637
  0
LINE
  5
672
100
AcDbEntity
  8
0
100
AcDbLine
 62
7
  6
CONTINUOUS
 10
435.9917922721
 20
75.3709529698
 11
435.9666079957
 21
75.3466268268
  0
LINE
  5
673
100
AcDbEntity
  8
0
100
AcDbLine
 62
7
  6
CONTINUOUS
 10
435.8226761965
 20
75.2021068466
 11
435.7505194429
 21
75.1324087748
  0
LINE
  5
674
100
AcDbEntity
  8
0
100
AcDbLine
 62
7
  6
CONTINUOUS
 10
436.4793028382
 20
75.8198855141
 11
436.4398463673
 21
75.7817734898
  0
LINE
  5
675
100
AcDbEntity
  8
0
100
AcDbLine
 62
7
  6
CONTINUOUS
 10
435.9571590746
 20
75.1565767818
 11
435.864881458
 21
75.0674434487
  0
LINE
  5
676
100
AcDbEntity
  8
0
100
AcDbLine
 62
7
  6
CONTINUOUS
 10
436.3619381524
 20
75.3123250716
 11
436.3287465921
 21
75.2802644863
  0
LINE
  5
677
100
AcDbEntity
  8
0
100
AcDbLine
 62
7
  6
CONTINUOUS
 10
436.2073640258
 20
75.1614770626
 11
436.1749259903
 21
75.1301443264
  0
LINE
  5
678
100
AcDbEntity
  8
0
100
AcDbLine
 62
7
  6
CONTINUOUS
 10
436.3067107109
 20
75.0799922134
 11
436.2720557822
 21
75.0465181228
  0
LINE
  5
679
100
AcDbEntity
  8
0
100
AcDbLine
 62
7
  6
CONTINUOUS
 10
436.4701087672
 20
75.1680766272
 11
436.4285576455
 21
75.1279413256
  0
LINE
  5
67A
100
AcDbEntity
  8
0
100
AcDbLine
 62
7
  6
CONTINUOUS
 10
436.4141118672
 20
75.0147647295
 11
436.3750231533
 21
74.9770079312
  0
LINE
  5
67B
100
AcDbEntity
  8
0
100
AcDbLine
 62
7
  6
CONTINUOUS
 10
436.5284135779
 20
75.0843259093
 11
436.4814680514
 21
75.0389800128
  0
LINE
  5
67C
100
AcDbEntity
  8
0
100
AcDbLine
 62
7
  6
CONTINUOUS
 10
436.4716474431
 20
75.0100348497
 11
436.4051575317
 21
74.9458105271
  0
LINE
  5
67D
100
AcDbEntity
  8
0
100
AcDbLine
 62
7
  6
CONTINUOUS
 10
436.5951576364
 20
74.9773220565
 11
436.5004634826
 21
74.8858545278
  0
LINE
  5
67E
100
AcDbEntity
  8
0
100
AcDbLine
 62
7
  6
CONTINUOUS
 10
436.6204751471
 20
74.9075627848
 11
436.5697931719
 21
74.858607756
  0
LINE
  5
67F
100
AcDbEntity
  8
0
100
AcDbLine
 62
7
  6
CONTINUOUS
 10
435.8220859807
 20
74.0718681059
 11
435.7550986826
 21
74.0071633446
  0
LINE
  5
680
100
AcDbEntity
  8
0
100
AcDbLine
 62
7
  6
CONTINUOUS
 10
435.9954312639
 20
73.7750198974
 11
436.2868810865
 21
74.056538808
  0
LINE
  5
681
100
AcDbEntity
  8
0
100
AcDbLine
 62
7
  6
CONTINUOUS
 10
436.1756393713
 20
73.730361755
 11
436.1086520731
 21
73.6656569937
  0
LINE
  5
682
100
AcDbEntity
  8
0
100
AcDbLine
 62
7
  6
CONTINUOUS
 10
438.8106708879
 20
74.1615357786
 11
438.6039743697
 21
73.9618822735
  0
LINE
  5
683
100
AcDbEntity
  8
0
100
AcDbLine
 62
7
  6
CONTINUOUS
 10
439.2619802091
 20
72.8954245017
 11
439.1728133724
 21
72.8092959513
  0
LINE
  5
684
100
AcDbEntity
  8
0
100
AcDbLine
 62
7
  6
CONTINUOUS
 10
442.8931537925
 20
73.3239886469
 11
442.5396004019
 21
72.9824822959
  0
LINE
  5
685
100
AcDbEntity
  8
0
100
AcDbLine
 62
7
  6
CONTINUOUS
 10
443.2467071831
 20
72.8530727734
 11
442.8931537925
 21
72.5115664224
  0
LINE
  5
686
100
AcDbEntity
  8
0
100
AcDbLine
 62
7
  6
CONTINUOUS
 10
445.133428769
 20
70.4051603178
 11
445.0795405191
 21
70.3531082655
  0
LINE
  5
687
100
AcDbEntity
  8
0
100
AcDbLine
 62
7
  6
CONTINUOUS
 10
445.3741459424
 20
70.4098961643
 11
445.133428769
 21
70.1773812296
  0
LINE
  5
688
100
AcDbEntity
  8
0
100
AcDbLine
 62
7
  6
CONTINUOUS
 10
442.5396004019
 20
67.5832474379
 11
442.4726131038
 21
67.5185426767
  0
LINE
  5
689
100
AcDbEntity
  8
0
100
AcDbLine
 62
7
  6
CONTINUOUS
 10
445.3741459424
 20
70.1726453832
 11
445.225694597
 21
70.0292523947
  0
LINE
  5
68A
100
AcDbEntity
  8
0
100
AcDbLine
 62
7
  6
CONTINUOUS
 10
445.3741459424
 20
70.0648041093
 11
445.2879247441
 21
69.981520827
  0
LINE
  5
68B
100
AcDbEntity
  8
0
100
AcDbLine
 62
7
  6
CONTINUOUS
 10
442.8931537925
 20
67.544883826
 11
442.669248266
 21
67.3286076952
  0
LINE
  5
68C
100
AcDbEntity
  8
0
100
AcDbLine
 62
7
  6
CONTINUOUS
 10
443.2467071831
 20
66.900234736
 11
443.179719885
 21
66.8355299748
  0
LINE
  5
68D
100
AcDbEntity
  8
0
100
AcDbLine
 62
7
  6
CONTINUOUS
 10
446.4573733071
 20
69.126328096
 11
446.401550556
 21
69.072407459
  0
LINE
  5
68E
100
AcDbEntity
  8
0
100
AcDbLine
 62
7
  6
CONTINUOUS
 10
446.6379112293
 20
68.9735100875
 11
446.5711598659
 21
68.9090332216
  0
LINE
  5
68F
100
AcDbEntity
  8
0
100
AcDbLine
 62
7
  6
CONTINUOUS
 10
446.758269816
 20
68.9219573814
 11
446.6659742997
 21
68.8328067586
  0
LINE
  5
690
100
AcDbEntity
  8
0
100
AcDbLine
 62
7
  6
CONTINUOUS
 10
446.8184491304
 20
68.9716699168
 11
446.6707762911
 21
68.8290289075
  0
LINE
  5
691
100
AcDbEntity
  8
0
100
AcDbLine
 62
7
  6
CONTINUOUS
 10
447.0591663249
 20
68.7391549618
 11
446.9924149536
 21
68.6746780883
  0
LINE
  5
692
100
AcDbEntity
  8
0
100
AcDbLine
 62
7
  6
CONTINUOUS
 10
447.8429012608
 20
68.5428997336
 11
447.4893478702
 21
68.2013933827
  0
LINE
  5
693
100
AcDbEntity
  8
0
100
AcDbLine
 62
7
  6
CONTINUOUS
 10
447.4893478702
 20
62.8021585247
 11
447.4223605721
 21
62.7374537634
  0
LINE
  5
694
100
AcDbEntity
  8
0
100
AcDbLine
 62
7
  6
CONTINUOUS
 10
428.3494943448
 20
86.8113103287
 11
428.2893150304
 21
86.7615977934
  0
LINE
  5
695
100
AcDbEntity
  8
0
100
AcDbLine
 62
7
  6
CONTINUOUS
 10
411.968515712
 20
99.1292794168
 11
412.0437398287
 21
99.1644597814
  0
LINE
  5
696
100
AcDbEntity
  8
0
100
AcDbLine
 62
7
  6
CONTINUOUS
 10
411.8932915954
 20
98.9323371491
 11
411.968515712
 21
98.9675175136
  0
LINE
  5
697
100
AcDbEntity
  8
0
100
AcDbLine
 62
7
  6
CONTINUOUS
 10
413.0968776205
 20
97.8236829448
 11
413.0216535038
 21
97.7885025995
  0
LINE
  5
698
100
AcDbEntity
  8
RUNDUNGEN
100
AcDbLine
 62
7
  6
CONTINUOUS
 10
454.7257695097
 20
56.537539143
 11
457.6805952445
 21
59.3916816324
  0
LINE
  5
699
100
AcDbEntity
  8
RUNDUNGEN
100
AcDbLine
 62
7
  6
CONTINUOUS
 10
462.6859635705
 20
51.1430840383
 11
466.2214974764
 21
54.5581475478
  0
LINE
  5
69A
100
AcDbEntity
  8
0
100
AcDbLine
 62
7
  6
CONTINUOUS
 10
446.8184491304
 20
68.9716699168
 11
446.758269816
 21
68.9219573814
  0
LINE
  5
69B
100
AcDbEntity
  8
0
100
AcDbLine
 62
7
  6
CONTINUOUS
 10
434.5949629012
 20
76.5153472667
 11
434.5630803204
 21
76.4923610532
  0
LINE
  5
69C
100
AcDbEntity
  8
0
100
AcDbLine
 62
7
  6
CONTINUOUS
 10
435.0630351805
 20
75.9877082141
 11
435.0311525997
 21
75.9647220005
  0
LINE
  5
69D
100
AcDbEntity
  8
0
100
AcDbLine
 62
7
  6
CONTINUOUS
 10
435.9484612575
 20
75.048529169
 11
435.9803438444
 21
75.0715153842
  0
LINE
  5
69E
100
AcDbEntity
  8
0
100
AcDbLine
 62
7
  6
CONTINUOUS
 10
416.5610382508
 20
94.1742186052
 11
416.5932628838
 21
94.1860214311
  0
LINE
  5
69F
100
AcDbEntity
  8
0
100
AcDbLine
 62
7
  6
CONTINUOUS
 10
417.2358450942
 20
93.5553884003
 11
417.2036204612
 21
93.5435855744
  0
LINE
  5
6A0
100
AcDbEntity
  8
RUNDUNGEN
100
AcDbLine
 62
7
  6
CONTINUOUS
 10
462.6303427129
 20
36.5767156519
 11
466.1658766188
 21
39.9917791613
  0
ARC
  5
6A1
100
AcDbEntity
  8
KONSTRUKTIONSELEMENTE
100
AcDbCircle
 62
7
  6
CONTINUOUS
 10
664.5733093042
 20
92.0232516244
 40
35.9892
100
AcDbArc
 50
42.8980709415
 51
64.9991254185
  0
ARC
  5
6A2
100
AcDbEntity
  8
KONSTRUKTIONSELEMENTE
100
AcDbCircle
 62
7
  6
CONTINUOUS
 10
664.5733093042
 20
92.0232516244
 40
35.9892
100
AcDbArc
 50
85.0008745815
 51
107.1019290585
  0
ARC
  5
6A3
100
AcDbEntity
  8
0
100
AcDbCircle
 62
7
  6
CONTINUOUS
 10
664.8465168133
 20
93.1688794447
 40
20.7886779367
100
AcDbArc
 50
81.796346105
 51
82.1071930506
  0
ARC
  5
6A4
100
AcDbEntity
  8
0
100
AcDbCircle
 62
7
  6
CONTINUOUS
 10
664.9095185753
 20
93.1519981855
 40
20.788677925
100
AcDbArc
 50
67.8928069493
 51
68.203653895
  0
ARC
  5
6A5
100
AcDbEntity
  8
BEZUGSACHSEN
100
AcDbCircle
 62
7
  6
CONTINUOUS
 10
688.5759804918
 20
181.6024400138
 40
15.25
100
AcDbArc
 50
121.1992889705
 51
28.8007110295
  0
ARC
  5
6A6
100
AcDbEntity
  8
0
100
AcDbCircle
 62
7
  6
CONTINUOUS
 10
725.1341706125
 20
318.0394629771
 40
11.0
100
AcDbArc
 50
345.0
 51
165.0
  0
ARC
  5
6A7
100
AcDbEntity
  8
0
100
AcDbCircle
 62
7
  6
CONTINUOUS
 10
689.6759614335
 20
185.7076247755
 40
11.0
100
AcDbArc
 50
165.0
 51
345.0
  0
ARC
  5
6A8
100
AcDbEntity
  8
RUNDUNGEN
100
AcDbCircle
 62
7
  6
CONTINUOUS
 10
661.6962980824
 20
166.2875722843
 40
6.5
100
AcDbArc
 50
95.0629909694
 51
165.0
  0
ARC
  5
6A9
100
AcDbEntity
  8
RUNDUNGEN
100
AcDbCircle
 62
7
  6
CONTINUOUS
 10
704.1970344392
 20
154.8995342998
 40
6.5
100
AcDbArc
 50
345.0
 51
54.9370090306
  0
ARC
  5
6AA
100
AcDbEntity
  8
KONSTRUKTIONSELEMENTE
100
AcDbCircle
 62
7
  6
CONTINUOUS
 10
680.371416762
 20
150.9825913204
 40
6.25
100
AcDbArc
 50
345.0
 51
165.0
  0
ARC
  5
6AB
100
AcDbEntity
  8
RUNDUNGEN
100
AcDbCircle
 62
7
  6
CONTINUOUS
 10
705.2448520066
 20
156.392558273
 40
4.6759818433
100
AcDbArc
 50
54.936435674
 51
57.105190896
  0
ARC
  5
6AC
100
AcDbEntity
  8
RUNDUNGEN
100
AcDbCircle
 62
7
  6
CONTINUOUS
 10
661.5353734371
 20
168.1044777571
 40
4.6759818434
100
AcDbArc
 50
92.8948091041
 51
95.063564326
  0
ARC
  5
6AD
100
AcDbEntity
  8
KONSTRUKTIONSELEMENTE
100
AcDbCircle
 62
7
  6
CONTINUOUS
 10
667.5298657177
 20
103.0572703752
 40
2.5
100
AcDbArc
 50
165.0
 51
345.0
  0
ARC
  5
6AE
100
AcDbEntity
  8
KONSTRUKTIONSELEMENTE
100
AcDbCircle
 62
7
  6
CONTINUOUS
 10
673.3570654062
 20
124.8046756784
 40
2.5
100
AcDbArc
 50
345.0
 51
165.0
  0
CIRCLE
  5
6AF
100
AcDbEntity
  8
BEZUGSACHSEN
100
AcDbCircle
 62
7
  6
CONTINUOUS
 10
659.5105707676
 20
143.0618840037
 40
2.5
  0
ARC
  5
6B0
100
AcDbEntity
  8
KONSTRUKTIONSELEMENTE
100
AcDbCircle
 62
7
  6
CONTINUOUS
 10
675.4522069698
 20
132.6238504428
 40
2.25
100
AcDbArc
 50
194.2743903904
 51
315.7256096096
  0
ARC
  5
6B1
100
AcDbEntity
  8
KONSTRUKTIONSELEMENTE
100
AcDbCircle
 62
7
  6
CONTINUOUS
 10
681.1738165169
 20
153.9771879735
 40
2.25
100
AcDbArc
 50
345.0
 51
165.0
  0
ARC
  5
6B2
100
AcDbEntity
  8
0
100
AcDbCircle
 62
7
  6
CONTINUOUS
 10
677.4311303604
 20
91.8567980219
 40
2.1292118708
100
AcDbArc
 50
335.5636876717
 51
340.3957076164
  0
ARC
  5
6B3
100
AcDbEntity
  8
0
100
AcDbCircle
 62
7
  6
CONTINUOUS
 10
654.7612813279
 20
97.2771156396
 40
0.416959771
100
AcDbArc
 50
63.8903114984
 51
74.9692795104
  0
ARC
  5
6B4
100
AcDbEntity
  8
KONSTRUKTIONSELEMENTE
100
AcDbCircle
 62
7
  6
CONTINUOUS
 10
844.7057742042
 20
92.0232516244
 40
35.9892
100
AcDbArc
 50
115.0008745815
 51
137.1019290585
  0
ARC
  5
6B5
100
AcDbEntity
  8
KONSTRUKTIONSELEMENTE
100
AcDbCircle
 62
7
  6
CONTINUOUS
 10
844.7057742042
 20
92.0232516244
 40
35.9892
100
AcDbArc
 50
72.8980709415
 51
94.9991254185
  0
ARC
  5
6B6
100
AcDbEntity
  8
BEZUGSACHSEN
100
AcDbCircle
 62
7
  6
CONTINUOUS
 10
820.7031030166
 20
181.6024400138
 40
15.25
100
AcDbArc
 50
151.1992889705
 51
58.8007110295
  0
ARC
  5
6B7
100
AcDbEntity
  8
0
100
AcDbCircle
 62
7
  6
CONTINUOUS
 10
784.1449128959
 20
318.0394629771
 40
11.0
100
AcDbArc
 50
15.0
 51
195.0
  0
ARC
  5
6B8
100
AcDbEntity
  8
0
100
AcDbCircle
 62
7
  6
CONTINUOUS
 10
819.6031220749
 20
185.7076247755
 40
11.0
100
AcDbArc
 50
195.0
 51
15.0
  0
ARC
  5
6B9
100
AcDbEntity
  8
0
100
AcDbCircle
 62
7
  6
CONTINUOUS
 10
805.0820490692
 20
154.8995342998
 40
6.5
100
AcDbArc
 50
125.0629909694
 51
195.0
  0
ARC
  5
6BA
100
AcDbEntity
  8
0
100
AcDbCircle
 62
7
  6
CONTINUOUS
 10
847.582785426
 20
166.2875722843
 40
6.5
100
AcDbArc
 50
15.0
 51
84.9370090306
  0
ARC
  5
6BB
100
AcDbEntity
  8
0
100
AcDbCircle
 62
7
  6
CONTINUOUS
 10
828.9076667464
 20
150.9825913204
 40
6.25
100
AcDbArc
 50
15.0
 51
195.0
  0
ARC
  5
6BC
100
AcDbEntity
  8
0
100
AcDbCircle
 62
7
  6
CONTINUOUS
 10
804.0342315018
 20
156.392558273
 40
4.6759818433
100
AcDbArc
 50
122.894809104
 51
125.063564326
  0
ARC
  5
6BD
100
AcDbEntity
  8
0
100
AcDbCircle
 62
7
  6
CONTINUOUS
 10
847.7437100713
 20
168.1044777571
 40
4.6759818434
100
AcDbArc
 50
84.936435674
 51
87.1051908959
  0
CIRCLE
  5
6BE
100
AcDbEntity
  8
BEZUGSACHSEN
100
AcDbCircle
 62
7
  6
CONTINUOUS
 10
849.7685127408
 20
143.0618840037
 40
2.5
  0
ARC
  5
6BF
100
AcDbEntity
  8
0
100
AcDbCircle
 62
7
  6
CONTINUOUS
 10
754.6395417542
 20
428.1550071741
 40
161.0
100
AcDbArc
 50
180.0
 51
251.0818470777
  0
ARC
  5
6C0
100
AcDbEntity
  8
0
100
AcDbCircle
 62
7
  6
CONTINUOUS
 10
754.6395417542
 20
428.1550071741
 40
161.0
100
AcDbArc
 50
258.9178995256
 51
281.0821004744
  0
ARC
  5
6C1
100
AcDbEntity
  8
0
100
AcDbCircle
 62
7
  6
CONTINUOUS
 10
754.6395417542
 20
428.1550071741
 40
161.0
100
AcDbArc
 50
288.9181529223
 51
360.0
  0
ARC
  5
6C2
100
AcDbEntity
  8
0
100
AcDbCircle
 62
7
  6
CONTINUOUS
 10
754.6395417542
 20
638.1550071741
 40
161.0
100
AcDbArc
 50
0.0
 51
180.0
  0
ARC
  5
6C3
100
AcDbEntity
  8
0
100
AcDbCircle
 62
7
  6
CONTINUOUS
 10
754.6395417542
 20
428.1550071741
 40
125.0
100
AcDbArc
 50
180.0
 51
249.9511179003
  0
ARC
  5
6C4
100
AcDbEntity
  8
0
100
AcDbCircle
 62
7
  6
CONTINUOUS
 10
754.6395417542
 20
428.1550071741
 40
125.0
100
AcDbArc
 50
260.0491856557
 51
279.9508143443
  0
ARC
  5
6C5
100
AcDbEntity
  8
0
100
AcDbCircle
 62
7
  6
CONTINUOUS
 10
754.6395417542
 20
428.1550071741
 40
125.0
100
AcDbArc
 50
290.0488820997
 51
360.0
  0
ARC
  5
6C6
100
AcDbEntity
  8
0
100
AcDbCircle
 62
7
  6
CONTINUOUS
 10
754.6395417542
 20
638.1550071741
 40
125.0
100
AcDbArc
 50
0.0
 51
180.0
  0
ARC
  5
6C7
100
AcDbEntity
  8
0
100
AcDbCircle
 62
7
  6
CONTINUOUS
 10
219.286254255
 20
181.4532398577
 40
68.0533628839
100
AcDbArc
 50
1.1179579149
 51
7.7631075426
  0
ARC
  5
6C8
100
AcDbEntity
  8
0
100
AcDbCircle
 62
7
  6
CONTINUOUS
 10
283.7941280256
 20
168.2862825104
 40
41.8636985428
100
AcDbArc
 50
268.7681409833
 51
271.2318590167
  0
ARC
  5
6C9
100
AcDbEntity
  8
0
100
AcDbCircle
 62
7
  6
CONTINUOUS
 10
283.7941280256
 20
74.6608321442
 40
41.8636985428
100
AcDbArc
 50
88.7681409833
 51
91.2318590167
  0
ARC
  5
6CA
100
AcDbEntity
  8
0
100
AcDbCircle
 62
7
  6
CONTINUOUS
 10
283.7941280256
 20
285.1550071741
 40
18.0
100
AcDbArc
 50
180.0
 51
360.0
  0
ARC
  5
6CB
100
AcDbEntity
  8
KONSTRUKTIONSELEMENTE
100
AcDbCircle
 62
7
  6
CONTINUOUS
 10
282.7617612888
 20
130.9585037154
 40
15.9323696342
100
AcDbArc
 50
352.2188103503
 51
0.0345548489
  0
ARC
  5
6CC
100
AcDbEntity
  8
0
100
AcDbCircle
 62
7
  6
CONTINUOUS
 10
282.8985111495
 20
140.1675859842
 40
12.5118777133
100
AcDbArc
 50
259.5268864296
 51
269.979928312
  0
ARC
  5
6CD
100
AcDbEntity
  8
RUNDUNGEN
100
AcDbCircle
 62
7
  6
CONTINUOUS
 10
284.6897449016
 20
140.1675859842
 40
12.5118777133
100
AcDbArc
 50
270.020071688
 51
280.4731135704
  0
ARC
  5
6CE
100
AcDbEntity
  8
BEZUGSACHSEN
100
AcDbCircle
 62
7
  6
CONTINUOUS
 10
283.7941280256
 20
204.8524400138
 40
8.0
100
AcDbArc
 50
0.0
 51
27.5650942734
  0
ARC
  5
6CF
100
AcDbEntity
  8
BEZUGSACHSEN
100
AcDbCircle
 62
7
  6
CONTINUOUS
 10
283.7941280256
 20
204.8524400138
 40
8.0
100
AcDbArc
 50
152.4349057266
 51
180.0
  0
ARC
  5
6D0
100
AcDbEntity
  8
BEZUGSACHSEN
100
AcDbCircle
 62
7
  6
CONTINUOUS
 10
284.2455683242
 20
145.2336439788
 40
6.6618750325
100
AcDbArc
 50
4.4686945854
 51
5.8512461556
  0
ARC
  5
6D1
100
AcDbEntity
  8
BEZUGSACHSEN
100
AcDbCircle
 62
7
  6
CONTINUOUS
 10
283.342687727
 20
145.2336439788
 40
6.6618750325
100
AcDbArc
 50
174.1487538444
 51
175.5313054146
  0
ARC
  5
6D2
100
AcDbEntity
  8
BEZUGSACHSEN
100
AcDbCircle
 62
7
  6
CONTINUOUS
 10
284.2609627059
 20
145.2347944523
 40
6.6464378106
100
AcDbArc
 50
2.1757275003
 51
4.4691468841
  0
ARC
  5
6D3
100
AcDbEntity
  8
BEZUGSACHSEN
100
AcDbCircle
 62
7
  6
CONTINUOUS
 10
283.3272933451
 20
145.2347944523
 40
6.6464378105
100
AcDbArc
 50
175.5308531159
 51
177.8242724997
  0
ARC
  5
6D4
100
AcDbEntity
  8
0
100
AcDbCircle
 62
7
  6
CONTINUOUS
 10
276.7941280256
 20
168.2875722843
 40
4.5
100
AcDbArc
 50
93.5269446663
 51
180.0
  0
ARC
  5
6D5
100
AcDbEntity
  8
RUNDUNGEN
100
AcDbCircle
 62
7
  6
CONTINUOUS
 10
290.7941280256
 20
168.2875722843
 40
4.5
100
AcDbArc
 50
0.0
 51
86.4730553337
  0
ARC
  5
6D6
100
AcDbEntity
  8
RUNDUNGEN
100
AcDbCircle
 62
7
  6
CONTINUOUS
 10
291.0107228975
 20
171.4916170453
 40
1.2889230205
100
AcDbArc
 50
95.5523309875
 51
99.6740715622
  0
ARC
  5
6D7
100
AcDbEntity
  8
0
100
AcDbCircle
 62
7
  6
CONTINUOUS
 10
276.5775331537
 20
171.4916170453
 40
1.2889230205
100
AcDbArc
 50
80.3259284378
 51
84.4476690125
  0
ARC
  5
6D8
100
AcDbEntity
  8
0
100
AcDbCircle
 62
7
  6
CONTINUOUS
 10
283.7941280256
 20
781.1550071741
 40
18.0
100
AcDbArc
 50
0.0
 51
180.0
  0
ARC
  5
6D9
100
AcDbEntity
  8
0
100
AcDbCircle
 62
7
  6
CONTINUOUS
 10
348.3020017961
 20
181.4532398577
 40
68.0533628839
100
AcDbArc
 50
172.2368924574
 51
178.8820420851
  0
ARC
  5
6DA
100
AcDbEntity
  8
KONSTRUKTIONSELEMENTE
100
AcDbCircle
 62
7
  6
CONTINUOUS
 10
331.974677803
 20
132.4753422201
 40
33.1455707137
100
AcDbArc
 50
44.5353474264
 51
45.9812535784
  0
ARC
  5
6DB
100
AcDbEntity
  8
0
100
AcDbCircle
 62
7
  6
CONTINUOUS
 10
419.7857581743
 20
121.265864537
 40
27.7883270007
100
AcDbArc
 50
212.7611859226
 51
213.1844850491
  0
ARC
  5
6DC
100
AcDbEntity
  8
KONSTRUKTIONSELEMENTE
100
AcDbCircle
 62
7
  6
CONTINUOUS
 10
394.6756788472
 20
130.6081785637
 40
15.6688141102
100
AcDbArc
 50
233.3753354951
 51
233.5160582161
  0
ARC
  5
6DD
100
AcDbEntity
  8
KONSTRUKTIONSELEMENTE
100
AcDbCircle
 62
7
  6
CONTINUOUS
 10
334.7131003066
 20
158.773359273
 40
12.2468399615
100
AcDbArc
 50
55.2809419385
 51
55.5610984191
  0
ARC
  5
6DE
100
AcDbEntity
  8
KONSTRUKTIONSELEMENTE
100
AcDbCircle
 62
7
  6
CONTINUOUS
 10
334.9033902626
 20
159.050783091
 40
11.9104261689
100
AcDbArc
 50
55.5613249793
 51
55.796652166
  0
ARC
  5
6DF
100
AcDbEntity
  8
KONSTRUKTIONSELEMENTE
100
AcDbCircle
 62
7
  6
CONTINUOUS
 10
398.2392343645
 20
110.1594915088
 40
9.5884911841
100
AcDbArc
 50
236.0268349388
 51
236.3676276842
  0
ARC
  5
6E0
100
AcDbEntity
  8
KONSTRUKTIONSELEMENTE
100
AcDbCircle
 62
7
  6
CONTINUOUS
 10
398.2032243497
 20
110.1095950453
 40
9.5269897232
100
AcDbArc
 50
226.0240797546
 51
236.038747037
  0
ARC
  5
6E1
100
AcDbEntity
  8
KONSTRUKTIONSELEMENTE
100
AcDbCircle
 62
7
  6
CONTINUOUS
 10
337.3697723482
 20
168.8342960763
 40
9.3523666158
100
AcDbArc
 50
45.4559945702
 51
45.9929150435
  0
ARC
  5
6E2
100
AcDbEntity
  8
KONSTRUKTIONSELEMENTE
100
AcDbCircle
 62
7
  6
CONTINUOUS
 10
398.5345089223
 20
109.7536973641
 40
9.3523666136
100
AcDbArc
 50
45.4559945701
 51
45.9929150436
  0
ARC
  5
6E3
100
AcDbEntity
  8
KONSTRUKTIONSELEMENTE
100
AcDbCircle
 62
7
  6
CONTINUOUS
 10
389.4584041523
 20
117.9917428668
 40
9.1128567777
100
AcDbArc
 50
155.3174888113
 51
179.9666787515
  0
ARC
  5
6E4
100
AcDbEntity
  8
KONSTRUKTIONSELEMENTE
100
AcDbCircle
 62
7
  6
CONTINUOUS
 10
328.2772623279
 20
177.0744087667
 40
9.0964505593
100
AcDbArc
 50
177.1004097402
 51
179.9796392337
  0
ARC
  5
6E5
100
AcDbEntity
  8
KONSTRUKTIONSELEMENTE
100
AcDbCircle
 62
7
  6
CONTINUOUS
 10
369.184457022
 20
138.0864194341
 40
7.8374984542
100
AcDbArc
 50
45.4162894929
 51
45.9929054454
  0
ARC
  5
6E6
100
AcDbEntity
  8
KONSTRUKTIONSELEMENTE
100
AcDbCircle
 62
7
  6
CONTINUOUS
 10
358.0357276846
 20
148.4202494722
 40
7.6417945598
100
AcDbArc
 50
159.7236942383
 51
179.9651547733
  0
ARC
  5
6E7
100
AcDbEntity
  8
KONSTRUKTIONSELEMENTE
100
AcDbCircle
 62
7
  6
CONTINUOUS
 10
398.246551276
 20
110.1736867393
 40
4.6043705747
100
AcDbArc
 50
242.0199750404
 51
243.5823552669
  0
ARC
  5
6E8
100
AcDbEntity
  8
KONSTRUKTIONSELEMENTE
100
AcDbCircle
 62
7
  6
CONTINUOUS
 10
398.1102269508
 20
110.0059527783
 40
4.3878335167
100
AcDbArc
 50
225.9937050332
 51
227.0555598991
  0
ARC
  5
6E9
100
AcDbEntity
  8
KONSTRUKTIONSELEMENTE
100
AcDbCircle
 62
7
  6
CONTINUOUS
 10
336.9454903778
 20
169.0865514916
 40
4.3878335162
100
AcDbArc
 50
225.9937050332
 51
227.0555598992
  0
ARC
  5
6EA
100
AcDbEntity
  8
KONSTRUKTIONSELEMENTE
100
AcDbCircle
 62
7
  6
CONTINUOUS
 10
337.5810819303
 20
168.9509733942
 40
4.1141852318
100
AcDbArc
 50
334.689527825
 51
359.9772912731
  0
ARC
  5
6EB
100
AcDbEntity
  8
KONSTRUKTIONSELEMENTE
100
AcDbCircle
 62
7
  6
CONTINUOUS
 10
389.4299275738
 20
117.9956361415
 40
4.0843599295
100
AcDbArc
 50
179.6607782886
 51
180.0341463988
  0
ARC
  5
6EC
100
AcDbEntity
  8
KONSTRUKTIONSELEMENTE
100
AcDbCircle
 62
7
  6
CONTINUOUS
 10
368.8338083365
 20
138.2874189116
 40
3.3624399505
100
AcDbArc
 50
225.9940708964
 51
227.2341816412
  0
ARC
  5
6ED
100
AcDbEntity
  8
KONSTRUKTIONSELEMENTE
100
AcDbCircle
 62
7
  6
CONTINUOUS
 10
369.3717213379
 20
138.1786035106
 40
3.1286794214
100
AcDbArc
 50
342.3964861857
 51
359.9749659755
  0
ARC
  5
6EE
100
AcDbEntity
  8
0
100
AcDbCircle
 62
7
  6
CONTINUOUS
 10
416.59008822
 20
90.2466810797
 40
2.4507200786
100
AcDbArc
 50
73.4227411234
 51
74.4713825168
  0
ARC
  5
6EF
100
AcDbEntity
  8
0
100
AcDbCircle
 62
7
  6
CONTINUOUS
 10
435.6001358852
 20
71.7833941481
 40
2.4315780457
100
AcDbArc
 50
72.2129098421
 51
73.4479689093
  0
ARC
  5
6F0
100
AcDbEntity
  8
0
100
AcDbCircle
 62
7
  6
CONTINUOUS
 10
416.6336696735
 20
90.4028928814
 40
2.2885428939
100
AcDbArc
 50
74.475629238
 51
75.1643956868
  0
SPLINE
  5
6F1
100
AcDbEntity
  8
KONSTRUKTIONSELEMENTE
100
AcDbSpline
 62
7
  6
CONTINUOUS
 70
0
 71
3
 72
10
 73
6
 74
0
 42
0.0000001
 43
0.0000001
 44
0.0000000001
 40
0.0
 40
0.0
 40
0.0
 40
0.0
 40
0.3192646009
 40
0.6086079864
 40
1.0
 40
1.0
 40
1.0
 40
1.0
 10
676.2948774295
 20
122.2457778444
 30
0.0
 10
676.2504279049
 20
122.0798899602
 30
0.0
 10
676.0302087839
 20
121.8067278755
 30
0.0
 10
675.57506023
 20
121.5214562555
 30
0.0
 10
675.2269678927
 20
121.3941721685
 30
0.0
 10
675.0234974696
 20
121.3400763214
 30
0.0
  0
SPLINE
  5
6F2
100
AcDbEntity
  8
KONSTRUKTIONSELEMENTE
100
AcDbSpline
 62
7
  6
CONTINUOUS
 70
0
 71
3
 72
10
 73
6
 74
0
 42
0.0000001
 43
0.0000001
 44
0.0000000001
 40
0.0
 40
0.0
 40
0.0
 40
0.0
 40
0.3914026107
 40
0.6807340322
 40
1.0
 40
1.0
 40
1.0
 40
1.0
 10
670.1815183906
 20
122.6375350274
 30
0.0
 10
670.0323647183
 20
122.7861170579
 30
0.0
 10
669.7946015211
 20
123.0704004963
 30
0.0
 10
669.5430389609
 20
123.5449789057
 30
0.0
 10
669.4889497064
 20
123.8916329251
 30
0.0
 10
669.5333966455
 20
124.0575111602
 30
0.0
  0
SPLINE
  5
6F3
100
AcDbEntity
  8
KONSTRUKTIONSELEMENTE
100
AcDbSpline
 62
7
  6
CONTINUOUS
 70
0
 71
3
 72
13
 73
9
 74
0
 42
0.0000001
 43
0.0000001
 44
0.0000000001
 40
0.0
 40
0.0
 40
0.0
 40
0.0
 40
0.1197290731
 40
0.2397365246
 40
0.3609040964
 40
0.4836831257
 40
0.7359942557
 40
1.0
 40
1.0
 40
1.0
 40
1.0
 10
680.6415436478
 20
121.0810921415
 30
0.0
 10
680.5511604909
 20
120.7437776077
 30
0.0
 10
680.2999933232
 20
120.0849959785
 30
0.0
 10
679.7310895759
 20
119.1915783889
 30
0.0
 10
678.9961409392
 20
118.4168196093
 30
0.0
 10
677.8222256442
 20
117.5586348001
 30
0.0
 10
676.0636727478
 20
116.8525801361
 30
0.0
 10
674.547813149
 20
116.692927722
 30
0.0
 10
673.777848148
 20
116.7025693688
 30
0.0
  0
SPLINE
  5
6F4
100
AcDbEntity
  8
KONSTRUKTIONSELEMENTE
100
AcDbSpline
 62
7
  6
CONTINUOUS
 70
0
 71
3
 72
13
 73
9
 74
0
 42
0.0000001
 43
0.0000001
 44
0.0000000001
 40
0.0
 40
0.0
 40
0.0
 40
0.0
 40
0.2640112835
 40
0.5163080567
 40
0.6390830379
 40
0.7602378991
 40
0.8802701562
 40
1.0
 40
1.0
 40
1.0
 40
1.0
 10
668.9407950032
 20
117.9989097622
 30
0.0
 10
668.2692638529
 20
118.3755842878
 30
0.0
 10
667.0365257893
 20
119.2717428707
 30
0.0
 10
665.8668930726
 20
120.7624044977
 30
0.0
 10
665.2795069451
 20
122.0923639938
 30
0.0
 10
665.030368899
 20
123.1307035127
 30
0.0
 10
664.984528346
 20
124.1888101328
 30
0.0
 10
665.0963563043
 20
124.8849160447
 30
0.0
 10
665.1867304272
 20
125.2221968631
 30
0.0
  0
SPLINE
  5
6F5
100
AcDbEntity
  8
KONSTRUKTIONSELEMENTE
100
AcDbSpline
 62
7
  6
CONTINUOUS
 70
0
 71
3
 72
9
 73
5
 74
0
 42
0.0000001
 43
0.0000001
 44
0.0000000001
 40
0.0
 40
0.0
 40
0.0
 40
0.0
 40
0.2444683944
 40
1.0
 40
1.0
 40
1.0
 40
1.0
 10
679.5637859818
 20
169.3181349139
 30
0.0
 10
679.8170924594
 20
169.419401573
 30
0.0
 10
680.8758644232
 20
169.7763464389
 30
0.0
 10
682.0051549103
 20
169.9090255081
 30
0.0
 10
682.8481753387
 20
169.8984690474
 30
0.0
  0
SPLINE
  5
6F6
100
AcDbEntity
  8
KONSTRUKTIONSELEMENTE
100
AcDbSpline
 62
7
  6
CONTINUOUS
 70
0
 71
3
 72
9
 73
5
 74
0
 42
0.0000001
 43
0.0000001
 44
0.0000000001
 40
0.0
 40
0.0
 40
0.0
 40
0.0
 40
0.2564950214
 40
1.0
 40
1.0
 40
1.0
 40
1.0
 10
687.6852284834
 20
168.6021286541
 30
0.0
 10
687.9349966286
 20
168.4620289766
 30
0.0
 10
688.8838008578
 20
167.873562899
 30
0.0
 10
689.7276705752
 20
167.1075642818
 30
0.0
 10
690.240813045
 20
166.4550359825
 30
0.0
  0
SPLINE
  5
6F7
100
AcDbEntity
  8
KONSTRUKTIONSELEMENTE
100
AcDbSpline
 62
7
  6
CONTINUOUS
 70
0
 71
3
 72
10
 73
6
 74
0
 42
0.0000001
 43
0.0000001
 44
0.0000000001
 40
0.0
 40
0.0
 40
0.0
 40
0.0
 40
0.3116645009
 40
0.6060899939
 40
1.0
 40
1.0
 40
1.0
 40
1.0
 10
684.3474363128
 20
152.2983367277
 30
0.0
 10
684.2964088837
 20
152.1078997697
 30
0.0
 10
684.0191639166
 20
151.7977621703
 30
0.0
 10
683.4651328044
 20
151.4970358842
 30
0.0
 10
683.0407671566
 20
151.375312126
 30
0.0
 10
682.7958208022
 20
151.3295618746
 30
0.0
  0
SPLINE
  5
6F8
100
AcDbEntity
  8
KONSTRUKTIONSELEMENTE
100
AcDbSpline
 62
7
  6
CONTINUOUS
 70
0
 71
3
 72
10
 73
6
 74
0
 42
0.0000001
 43
0.0000001
 44
0.0000000001
 40
0.0
 40
0.0
 40
0.0
 40
0.0
 40
0.3939255147
 40
0.6883533687
 40
1.0
 40
1.0
 40
1.0
 40
1.0
 10
678.4455119667
 20
152.4951077374
 30
0.0
 10
678.2562105198
 20
152.6572161686
 30
0.0
 10
677.9495110406
 20
152.9748650256
 30
0.0
 10
677.6199522879
 20
153.5123533202
 30
0.0
 10
677.5349238402
 20
153.9196171888
 30
0.0
 10
677.5859555288
 20
154.1100700434
 30
0.0
  0
SPLINE
  5
6F9
100
AcDbEntity
  8
KONSTRUKTIONSELEMENTE
100
AcDbSpline
 62
7
  6
CONTINUOUS
 70
0
 71
3
 72
9
 73
5
 74
0
 42
0.0000001
 43
0.0000001
 44
0.0000000001
 40
0.0
 40
0.0
 40
0.0
 40
0.0
 40
0.4887193927
 40
1.0
 40
1.0
 40
1.0
 40
1.0
 10
685.9881973494
 20
147.7554058257
 30
0.0
 10
685.3417456524
 20
147.3867405781
 30
0.0
 10
683.8876889271
 20
146.8519443879
 30
0.0
 10
682.352020723
 20
146.7315145833
 30
0.0
 10
681.5740654313
 20
146.761716035
 30
0.0
  0
SPLINE
  5
6FA
100
AcDbEntity
  8
KONSTRUKTIONSELEMENTE
100
AcDbSpline
 62
7
  6
CONTINUOUS
 70
0
 71
3
 72
9
 73
5
 74
0
 42
0.0000001
 43
0.0000001
 44
0.0000000001
 40
0.0
 40
0.0
 40
0.0
 40
0.0
 40
0.5112935852
 40
1.0
 40
1.0
 40
1.0
 40
1.0
 10
677.2212185992
 20
147.9276114046
 30
0.0
 10
676.5327030995
 20
148.2901289662
 30
0.0
 10
675.2634749234
 20
149.1613637582
 30
0.0
 10
674.2715841312
 20
150.3503132962
 30
0.0
 10
673.8958739454
 20
150.9921861111
 30
0.0
  0
SPLINE
  5
6FB
100
AcDbEntity
  8
KONSTRUKTIONSELEMENTE
100
AcDbSpline
 62
7
  6
CONTINUOUS
 70
0
 71
3
 72
9
 73
5
 74
0
 42
0.0000001
 43
0.0000001
 44
0.0000000001
 40
0.0
 40
0.0
 40
0.0
 40
0.0
 40
0.4883932588
 40
1.0
 40
1.0
 40
1.0
 40
1.0
 10
702.0685060458
 20
174.4817908269
 30
0.0
 10
700.0303715886
 20
173.8911953393
 30
0.0
 10
695.6828939835
 20
173.2469968345
 30
0.0
 10
691.3149414058
 20
173.5955019739
 30
0.0
 10
689.1293299597
 20
174.0006051517
 30
0.0
  0
SPLINE
  5
6FC
100
AcDbEntity
  8
KONSTRUKTIONSELEMENTE
100
AcDbSpline
 62
7
  6
CONTINUOUS
 70
0
 71
3
 72
9
 73
5
 74
0
 42
0.0000001
 43
0.0000001
 44
0.0000000001
 40
0.0
 40
0.0
 40
0.0
 40
0.0
 40
0.5116009649
 40
1.0
 40
1.0
 40
1.0
 40
1.0
 10
684.296483331
 20
175.2955000421
 30
0.0
 10
682.2019895489
 20
176.0371089274
 30
0.0
 10
678.2465152274
 20
177.9182875017
 30
0.0
 10
674.8045285472
 20
180.6481443385
 30
0.0
 10
673.3349451633
 20
182.1777112637
 30
0.0
  0
SPLINE
  5
6FD
100
AcDbEntity
  8
KONSTRUKTIONSELEMENTE
100
AcDbSpline
 62
7
  6
CONTINUOUS
 70
0
 71
3
 72
9
 73
5
 74
0
 42
0.0000001
 43
0.0000001
 44
0.0000000001
 40
0.0
 40
0.0
 40
0.0
 40
0.0
 40
0.2342381365
 40
1.0
 40
1.0
 40
1.0
 40
1.0
 10
703.8271365328
 20
181.6991592391
 30
0.0
 10
703.4817341705
 20
181.4951280188
 30
0.0
 10
701.9658977482
 20
180.6942842414
 30
0.0
 10
700.3109648963
 20
180.1712168873
 30
0.0
 10
699.0267334162
 20
179.9053411293
 30
0.0
  0
SPLINE
  5
6FE
100
AcDbEntity
  8
KONSTRUKTIONSELEMENTE
100
AcDbSpline
 62
7
  6
CONTINUOUS
 70
0
 71
3
 72
9
 73
5
 74
0
 42
0.0000001
 43
0.0000001
 44
0.0000000001
 40
0.0
 40
0.0
 40
0.0
 40
0.0
 40
0.2660085388
 40
1.0
 40
1.0
 40
1.0
 40
1.0
 10
678.6758858882
 20
185.3589057608
 30
0.0
 10
678.3358456767
 20
185.661872027
 30
0.0
 10
677.0995101256
 20
186.8457233021
 30
0.0
 10
676.0337432925
 20
188.2175193018
 30
0.0
 10
675.4163066081
 20
189.312031334
 30
0.0
  0
SPLINE
  5
6FF
100
AcDbEntity
  8
0
100
AcDbSpline
 62
7
  6
CONTINUOUS
 70
0
 71
3
 72
11
 73
7
 74
0
 42
0.0000001
 43
0.0000001
 44
0.0000000001
 40
0.0
 40
0.0
 40
0.0
 40
0.0
 40
0.2192989281
 40
0.4548225453
 40
0.7152180566
 40
1.0
 40
1.0
 40
1.0
 40
1.0
 10
679.3954682184
 20
90.9616634517
 30
0.0
 10
679.470257632
 20
91.2407813433
 30
0.0
 10
679.5013204872
 20
91.858754368
 30
0.0
 10
679.1829179654
 20
92.7654383613
 30
0.0
 10
678.5529504749
 20
93.5953227919
 30
0.0
 10
677.9823091384
 20
94.0442635672
 30
0.0
 10
677.6645452659
 20
94.2438584681
 30
0.0
  0
SPLINE
  5
700
100
AcDbEntity
  8
0
100
AcDbSpline
 62
7
  6
CONTINUOUS
 70
0
 71
3
 72
15
 73
11
 74
0
 42
0.0000001
 43
0.0000001
 44
0.0000000001
 40
0.0
 40
0.0
 40
0.0
 40
0.0
 40
0.1047415988
 40
0.222328371
 40
0.3560160977
 40
0.5
 40
0.6439839023
 40
0.777671629
 40
0.8952584012
 40
1.0
 40
1.0
 40
1.0
 40
1.0
 10
666.5781511604
 20
93.6382601339
 30
0.0
 10
666.5323836479
 20
93.4674534521
 30
0.0
 10
666.5450347115
 20
93.0708708335
 30
0.0
 10
666.8571075028
 20
92.5369810205
 30
0.0
 10
667.3819279736
 20
92.1072873494
 30
0.0
 10
668.0470276
 20
91.8291120033
 30
0.0
 10
668.7621084456
 20
91.7374691065
 30
0.0
 10
669.4314631413
 20
91.8471845062
 30
0.0
 10
669.9686710129
 20
92.1535102514
 30
0.0
 10
670.1779184646
 20
92.490635342
 30
0.0
 10
670.223685977
 20
92.6614420237
 30
0.0
  0
SPLINE
  5
701
100
AcDbEntity
  8
0
100
AcDbSpline
 62
7
  6
CONTINUOUS
 70
0
 71
3
 72
11
 73
7
 74
0
 42
0.0000001
 43
0.0000001
 44
0.0000000001
 40
0.0
 40
0.0
 40
0.0
 40
0.0
 40
0.2094689415
 40
0.4446609502
 40
0.7120169424
 40
1.0
 40
1.0
 40
1.0
 40
1.0
 10
664.7918295389
 20
96.2709233391
 30
0.0
 10
664.8401342981
 20
96.4513073904
 30
0.0
 10
664.8266136288
 20
96.8701311021
 30
0.0
 10
664.496919873
 20
97.4339454956
 30
0.0
 10
663.9431071714
 20
97.8876248632
 30
0.0
 10
663.4792617995
 20
98.0813962577
 30
0.0
 10
663.2312753302
 20
98.1478440319
 30
0.0
  0
SPLINE
  5
702
100
AcDbEntity
  8
0
100
AcDbSpline
 62
7
  6
CONTINUOUS
 70
0
 71
3
 72
9
 73
5
 74
0
 42
0.0000001
 43
0.0000001
 44
0.0000000001
 40
0.0
 40
0.0
 40
0.0
 40
0.0
 40
0.4402133985
 40
1.0
 40
1.0
 40
1.0
 40
1.0
 10
653.7208323535
 20
97.1603541466
 30
0.0
 10
653.7148331315
 20
97.1379647453
 30
0.0
 10
653.7362505306
 20
97.0799699003
 30
0.0
 10
653.7863109939
 20
97.0549631008
 30
0.0
 10
653.8147819284
 20
97.0473343369
 30
0.0
  0
SPLINE
  5
703
100
AcDbEntity
  8
0
100
AcDbSpline
 62
7
  6
CONTINUOUS
 70
0
 71
3
 72
9
 73
5
 74
0
 42
0.0000001
 43
0.0000001
 44
0.0000000001
 40
0.0
 40
0.0
 40
0.0
 40
0.0
 40
0.4402133985
 40
1.0
 40
1.0
 40
1.0
 40
1.0
 10
654.5287019223
 20
96.9878091965
 30
0.0
 10
654.5347011443
 20
97.0101985977
 30
0.0
 10
654.5132837452
 20
97.0681934428
 30
0.0
 10
654.4632232819
 20
97.0932002422
 30
0.0
 10
654.4347523474
 20
97.1008290061
 30
0.0
  0
SPLINE
  5
704
100
AcDbEntity
  8
0
100
AcDbSpline
 62
7
  6
CONTINUOUS
 70
0
 71
3
 72
9
 73
5
 74
0
 42
0.0000001
 43
0.0000001
 44
0.0000000001
 40
0.0
 40
0.0
 40
0.0
 40
0.0
 40
0.4402133985
 40
1.0
 40
1.0
 40
1.0
 40
1.0
 10
655.077740028
 20
99.0368473021
 30
0.0
 10
655.08373925
 20
99.0592367034
 30
0.0
 10
655.0623218509
 20
99.1172315484
 30
0.0
 10
655.0122613876
 20
99.1422383479
 30
0.0
 10
654.9837904531
 20
99.1498671118
 30
0.0
  0
SPLINE
  5
705
100
AcDbEntity
  8
0
100
AcDbSpline
 62
7
  6
CONTINUOUS
 70
0
 71
3
 72
11
 73
7
 74
0
 42
0.0000001
 43
0.0000001
 44
0.0000000001
 40
0.0
 40
0.0
 40
0.0
 40
0.0
 40
0.2094668498
 40
0.4446559298
 40
0.7120302568
 40
1.0
 40
1.0
 40
1.0
 40
1.0
 10
653.2039529807
 20
98.4188892927
 30
0.0
 10
653.196677558
 20
98.3917370455
 30
0.0
 10
653.1986837598
 20
98.3286905999
 30
0.0
 10
653.2483128306
 20
98.2438102436
 30
0.0
 10
653.3316737139
 20
98.175511328
 30
0.0
 10
653.4014986933
 20
98.1463418363
 30
0.0
 10
653.438826918
 20
98.1363397686
 30
0.0
  0
SPLINE
  5
706
100
AcDbEntity
  8
0
100
AcDbSpline
 62
7
  6
CONTINUOUS
 70
0
 71
3
 72
11
 73
7
 74
0
 42
0.0000001
 43
0.0000001
 44
0.0000000001
 40
0.0
 40
0.0
 40
0.0
 40
0.0
 40
0.2094668498
 40
0.4446559298
 40
0.7120302568
 40
1.0
 40
1.0
 40
1.0
 40
1.0
 10
652.654914875
 20
96.369851187
 30
0.0
 10
652.6476394523
 20
96.3426989398
 30
0.0
 10
652.6496456542
 20
96.2796524942
 30
0.0
 10
652.6992747249
 20
96.1947721379
 30
0.0
 10
652.7826356082
 20
96.1264732224
 30
0.0
 10
652.8524605876
 20
96.0973037306
 30
0.0
 10
652.8897888124
 20
96.0873016629
 30
0.0
  0
SPLINE
  5
707
100
AcDbEntity
  8
0
100
AcDbSpline
 62
7
  6
CONTINUOUS
 70
0
 71
3
 72
9
 73
5
 74
0
 42
0.0000001
 43
0.0000001
 44
0.0000000001
 40
0.0
 40
0.0
 40
0.0
 40
0.0
 40
0.2432035461
 40
1.0
 40
1.0
 40
1.0
 40
1.0
 10
657.6100868723
 20
99.2148064551
 30
0.0
 10
657.6143955925
 20
99.230886818
 30
0.0
 10
657.6266145839
 20
99.2984813065
 30
0.0
 10
657.6151488957
 20
99.369346452
 30
0.0
 10
657.5967718189
 20
99.4177810698
 30
0.0
  0
SPLINE
  5
708
100
AcDbEntity
  8
0
100
AcDbSpline
 62
7
  6
CONTINUOUS
 70
0
 71
3
 72
9
 73
5
 74
0
 42
0.0000001
 43
0.0000001
 44
0.0000000001
 40
0.0
 40
0.0
 40
0.0
 40
0.0
 40
0.2401326547
 40
1.0
 40
1.0
 40
1.0
 40
1.0
 10
657.5967718189
 20
99.4177810698
 30
0.0
 10
657.5923880839
 20
99.4293348403
 30
0.0
 10
657.5719029805
 20
99.4765974535
 30
0.0
 10
657.5429588189
 20
99.5199889599
 30
0.0
 10
657.5179620651
 20
99.5500596479
 30
0.0
  0
SPLINE
  5
709
100
AcDbEntity
  8
0
100
AcDbSpline
 62
7
  6
CONTINUOUS
 70
0
 71
3
 72
9
 73
5
 74
0
 42
0.0000001
 43
0.0000001
 44
0.0000000001
 40
0.0
 40
0.0
 40
0.0
 40
0.0
 40
0.2356425559
 40
1.0
 40
1.0
 40
1.0
 40
1.0
 10
657.5179620651
 20
99.5500596479
 30
0.0
 10
657.495566016
 20
99.5770017304
 30
0.0
 10
657.3897645971
 20
99.6822869856
 30
0.0
 10
657.2501106037
 20
99.7504922901
 30
0.0
 10
657.1403389977
 20
99.7799055033
 30
0.0
  0
SPLINE
  5
70A
100
AcDbEntity
  8
RUNDUNGEN
100
AcDbSpline
 62
7
  6
CONTINUOUS
 70
0
 71
3
 72
10
 73
6
 74
0
 42
0.0000001
 43
0.0000001
 44
0.0000000001
 40
0.0
 40
0.0
 40
0.0
 40
0.0
 40
0.2265435863
 40
0.4650408478
 40
1.0
 40
1.0
 40
1.0
 40
1.0
 10
635.145457526
 20
107.6833802437
 30
0.0
 10
635.1675621067
 20
107.7656681964
 30
0.0
 10
635.2431592127
 20
107.9278190815
 30
0.0
 10
635.5063951542
 20
108.2033963806
 30
0.0
 10
635.7907316456
 20
108.3169334401
 30
0.0
 10
635.9880061324
 20
108.3564996004
 30
0.0
  0
SPLINE
  5
70B
100
AcDbEntity
  8
RUNDUNGEN
100
AcDbSpline
 62
7
  6
CONTINUOUS
 70
0
 71
3
 72
9
 73
5
 74
0
 42
0.0000001
 43
0.0000001
 44
0.0000000001
 40
0.0
 40
0.0
 40
0.0
 40
0.0
 40
0.4805181646
 40
1.0
 40
1.0
 40
1.0
 40
1.0
 10
634.2303818491
 20
104.2682763187
 30
0.0
 10
634.2021405331
 20
104.1631159726
 30
0.0
 10
634.1929184631
 20
103.9287787151
 30
0.0
 10
634.276442985
 20
103.7121308478
 30
0.0
 10
634.3348003865
 20
103.6098986936
 30
0.0
  0
SPLINE
  5
70C
100
AcDbEntity
  8
RUNDUNGEN
100
AcDbSpline
 62
7
  6
CONTINUOUS
 70
0
 71
3
 72
11
 73
7
 74
0
 42
0.0000001
 43
0.0000001
 44
0.0000000001
 40
0.0
 40
0.0
 40
0.0
 40
0.0
 40
0.2256919297
 40
0.4632773963
 40
0.7205986282
 40
1.0
 40
1.0
 40
1.0
 40
1.0
 10
627.9907293861
 20
121.3230170972
 30
0.0
 10
628.0642352153
 20
121.5975564407
 30
0.0
 10
628.3155929159
 20
122.1385278363
 30
0.0
 10
628.9516804012
 20
122.8044284849
 30
0.0
 10
629.8023217559
 20
123.3020826082
 30
0.0
 10
630.4549616808
 20
123.5000689586
 30
0.0
 10
630.7999362171
 20
123.5692584316
 30
0.0
  0
SPLINE
  5
70D
100
AcDbEntity
  8
RUNDUNGEN
100
AcDbSpline
 62
7
  6
CONTINUOUS
 70
0
 71
3
 72
9
 73
5
 74
0
 42
0.0000001
 43
0.0000001
 44
0.0000000001
 40
0.0
 40
0.0
 40
0.0
 40
0.0
 40
0.4805188659
 40
1.0
 40
1.0
 40
1.0
 40
1.0
 10
627.0756658767
 20
117.9079535878
 30
0.0
 10
626.9818935263
 20
117.5577201466
 30
0.0
 10
626.9519331885
 20
116.7774385865
 30
0.0
 10
627.2300810167
 20
116.0561479713
 30
0.0
 10
627.4243985864
 20
115.7157369311
 30
0.0
  0
SPLINE
  5
70E
100
AcDbEntity
  8
RUNDUNGEN
100
AcDbSpline
 62
7
  6
CONTINUOUS
 70
0
 71
3
 72
11
 73
7
 74
0
 42
0.0000001
 43
0.0000001
 44
0.0000000001
 40
0.0
 40
0.0
 40
0.0
 40
0.0
 40
0.237780559
 40
0.4809056754
 40
0.7339193747
 40
1.0
 40
1.0
 40
1.0
 40
1.0
 10
675.2077403812
 20
71.7492679545
 30
0.0
 10
675.3477559462
 20
72.2718130828
 30
0.0
 10
675.7477589668
 20
73.3009625511
 30
0.0
 10
676.6744938888
 20
74.7036315712
 30
0.0
 10
677.9044875289
 20
75.9405436541
 30
0.0
 10
678.8798316657
 20
76.6183152432
 30
0.0
 10
679.4026025307
 20
76.9235639638
 30
0.0
  0
SPLINE
  5
70F
100
AcDbEntity
  8
RUNDUNGEN
100
AcDbSpline
 62
7
  6
CONTINUOUS
 70
0
 71
3
 72
9
 73
5
 74
0
 42
0.0000001
 43
0.0000001
 44
0.0000000001
 40
0.0
 40
0.0
 40
0.0
 40
0.0
 40
0.483225943
 40
1.0
 40
1.0
 40
1.0
 40
1.0
 10
675.8679062426
 20
73.4017055649
 30
0.0
 10
675.8459962471
 20
72.5909136734
 30
0.0
 10
676.0668178094
 20
70.899028958
 30
0.0
 10
676.7385016941
 20
69.3391334706
 30
0.0
 10
677.1685128394
 20
68.5858277273
 30
0.0
  0
SPLINE
  5
710
100
AcDbEntity
  8
RUNDUNGEN
100
AcDbSpline
 62
7
  6
CONTINUOUS
 70
0
 71
3
 72
9
 73
5
 74
0
 42
0.0000001
 43
0.0000001
 44
0.0000000001
 40
0.0
 40
0.0
 40
0.0
 40
0.0
 40
0.4805364547
 40
1.0
 40
1.0
 40
1.0
 40
1.0
 10
622.3064274967
 20
65.6470136166
 30
0.0
 10
622.4002968331
 20
65.9973387492
 30
0.0
 10
622.7644420923
 20
66.6883472602
 30
0.0
 10
623.3661431909
 20
67.1740852448
 30
0.0
 10
623.7047149188
 20
67.3717790982
 30
0.0
  0
SPLINE
  5
711
100
AcDbEntity
  8
BEZUGSACHSEN
100
AcDbSpline
 62
7
  6
CONTINUOUS
 70
0
 71
3
 72
9
 73
5
 74
0
 42
0.0000001
 43
0.0000001
 44
0.0000000001
 40
0.0
 40
0.0
 40
0.0
 40
0.0
 40
0.4742612099
 40
1.0
 40
1.0
 40
1.0
 40
1.0
 10
663.3313185756
 20
106.3123857839
 30
0.0
 10
663.4982298823
 20
105.8740474982
 30
0.0
 10
664.0302388491
 20
105.015569476
 30
0.0
 10
664.7805761035
 20
104.3528911335
 30
0.0
 10
665.2072199498
 20
104.0556950068
 30
0.0
  0
SPLINE
  5
712
100
AcDbEntity
  8
BEZUGSACHSEN
100
AcDbSpline
 62
7
  6
CONTINUOUS
 70
0
 71
3
 72
9
 73
5
 74
0
 42
0.0000001
 43
0.0000001
 44
0.0000000001
 40
0.0
 40
0.0
 40
0.0
 40
0.0
 40
0.5257387901
 40
1.0
 40
1.0
 40
1.0
 40
1.0
 10
670.0405482726
 20
102.7606085859
 30
0.0
 10
670.5586307452
 20
102.8046660585
 30
0.0
 10
671.5397810402
 20
103.0033937104
 30
0.0
 10
672.4297533316
 20
103.4808530028
 30
0.0
 10
672.7934719062
 20
103.7770094403
 30
0.0
  0
SPLINE
  5
713
100
AcDbEntity
  8
BEZUGSACHSEN
100
AcDbSpline
 62
7
  6
CONTINUOUS
 70
0
 71
3
 72
11
 73
7
 74
0
 42
0.0000001
 43
0.0000001
 44
0.0000000001
 40
0.0
 40
0.0
 40
0.0
 40
0.0
 40
0.2211778223
 40
0.4572018266
 40
0.7166414314
 40
1.0
 40
1.0
 40
1.0
 40
1.0
 10
672.9178051532
 20
101.9149659181
 30
0.0
 10
673.0105236686
 20
102.2609961284
 30
0.0
 10
673.05773499
 20
103.0217043132
 30
0.0
 10
672.6996135359
 20
104.1479797489
 30
0.0
 10
671.9676911
 20
105.1942712788
 30
0.0
 10
671.2948581444
 20
105.7739818882
 30
0.0
 10
670.9182697769
 20
106.0363098349
 30
0.0
  0
SPLINE
  5
714
100
AcDbEntity
  8
BEZUGSACHSEN
100
AcDbSpline
 62
7
  6
CONTINUOUS
 70
0
 71
3
 72
11
 73
7
 74
0
 42
0.0000001
 43
0.0000001
 44
0.0000000001
 40
0.0
 40
0.0
 40
0.0
 40
0.0
 40
0.2833585686
 40
0.5427981734
 40
0.7788221777
 40
1.0
 40
1.0
 40
1.0
 40
1.0
 10
666.0849414541
 20
107.3313962558
 30
0.0
 10
665.6276423877
 20
107.2925077735
 30
0.0
 10
664.755096651
 20
107.1268801368
 30
0.0
 10
663.598087463
 20
106.5867263101
 30
0.0
 10
662.7248074682
 20
105.7904038981
 30
0.0
 10
662.3853395795
 20
105.1080056246
 30
0.0
 10
662.292621064
 20
104.7619754142
 30
0.0
  0
SPLINE
  5
715
100
AcDbEntity
  8
RUNDUNGEN
100
AcDbSpline
 62
7
  6
CONTINUOUS
 70
0
 71
3
 72
9
 73
5
 74
0
 42
0.0000001
 43
0.0000001
 44
0.0000000001
 40
0.0
 40
0.0
 40
0.0
 40
0.0
 40
0.5194633901
 40
1.0
 40
1.0
 40
1.0
 40
1.0
 10
687.6408139959
 20
50.2401529833
 30
0.0
 10
687.8351787283
 20
49.8996593221
 30
0.0
 10
688.1133982022
 20
49.1781473698
 30
0.0
 10
688.083253051
 20
48.3976437952
 30
0.0
 10
687.9893836844
 20
48.0473185496
 30
0.0
  0
SPLINE
  5
716
100
AcDbEntity
  8
RUNDUNGEN
100
AcDbSpline
 62
7
  6
CONTINUOUS
 70
0
 71
3
 72
10
 73
6
 74
0
 42
0.0000001
 43
0.0000001
 44
0.0000000001
 40
0.0
 40
0.0
 40
0.0
 40
0.0
 40
0.5349737816
 40
0.7734707301
 40
1.0
 40
1.0
 40
1.0
 40
1.0
 10
711.9968509693
 20
100.3430058689
 30
0.0
 10
712.147919351
 20
100.2100973916
 30
0.0
 10
712.337400645
 20
99.9695922335
 30
0.0
 10
712.427569678
 20
99.5993074475
 30
0.0
 10
712.4119585524
 20
99.4210852217
 30
0.0
 10
712.3899558502
 20
99.3387740172
 30
0.0
  0
SPLINE
  5
717
100
AcDbEntity
  8
RUNDUNGEN
100
AcDbSpline
 62
7
  6
CONTINUOUS
 70
0
 71
3
 72
10
 73
6
 74
0
 42
0.0000001
 43
0.0000001
 44
0.0000000001
 40
0.0
 40
0.0
 40
0.0
 40
0.0
 40
0.4809192537
 40
0.7459271807
 40
1.0
 40
1.0
 40
1.0
 40
1.0
 10
703.8723657648
 20
105.9453008074
 30
0.0
 10
704.1780575695
 20
106.1237958968
 30
0.0
 10
704.7763851469
 20
106.1870094067
 30
0.0
 10
705.4848150618
 20
105.9837509508
 30
0.0
 10
705.8172805985
 20
105.7797311384
 30
0.0
 10
705.9576895608
 20
105.6562007135
 30
0.0
  0
SPLINE
  5
718
100
AcDbEntity
  8
0
100
AcDbSpline
 62
7
  6
CONTINUOUS
 70
0
 71
3
 72
9
 73
5
 74
0
 42
0.0000001
 43
0.0000001
 44
0.0000000001
 40
0.0
 40
0.0
 40
0.0
 40
0.0
 40
0.242001278
 40
1.0
 40
1.0
 40
1.0
 40
1.0
 10
678.0729195893
 20
109.1625454974
 30
0.0
 10
677.6933254608
 20
109.4965086804
 30
0.0
 10
676.0605611028
 20
110.8027592542
 30
0.0
 10
674.2003352511
 20
111.816339866
 30
0.0
 10
672.7331416585
 20
112.4123214362
 30
0.0
  0
SPLINE
  5
719
100
AcDbEntity
  8
0
100
AcDbSpline
 62
7
  6
CONTINUOUS
 70
0
 71
3
 72
9
 73
5
 74
0
 42
0.0000001
 43
0.0000001
 44
0.0000000001
 40
0.0
 40
0.0
 40
0.0
 40
0.0
 40
0.2575666797
 40
1.0
 40
1.0
 40
1.0
 40
1.0
 10
667.7012221007
 20
113.7606202181
 30
0.0
 10
667.1682652094
 20
113.8345054397
 30
0.0
 10
665.0894422699
 20
114.0410238038
 30
0.0
 10
662.9726025898
 20
113.9211086716
 30
0.0
 10
661.4519507926
 20
113.6161206639
 30
0.0
  0
SPLINE
  5
71A
100
AcDbEntity
  8
RUNDUNGEN
100
AcDbSpline
 62
7
  6
CONTINUOUS
 70
0
 71
3
 72
12
 73
8
 74
0
 42
0.0000001
 43
0.0000001
 44
0.0000000001
 40
0.0
 40
0.0
 40
0.0
 40
0.0
 40
0.2522581101
 40
0.5153826173
 40
0.6451774834
 40
0.7704539294
 40
1.0
 40
1.0
 40
1.0
 40
1.0
 10
631.6961481057
 20
123.7490062733
 30
0.0
 10
633.4075163169
 20
124.092245128
 30
0.0
 10
637.0352946693
 20
124.1964850794
 30
0.0
 10
641.4175146974
 20
123.0899124853
 30
0.0
 10
644.6496327733
 20
121.5077892957
 30
0.0
 10
647.4172757355
 20
119.6062616865
 30
0.0
 10
649.113357158
 20
117.7336466571
 30
0.0
 10
649.9007534468
 20
116.3542634641
 30
0.0
  0
SPLINE
  5
71B
100
AcDbEntity
  8
0
100
AcDbSpline
 62
7
  6
CONTINUOUS
 70
0
 71
3
 72
11
 73
7
 74
0
 42
0.0000001
 43
0.0000001
 44
0.0000000001
 40
0.0
 40
0.0
 40
0.0
 40
0.0
 40
0.2880052506
 40
0.5553344723
 40
0.7905070702
 40
1.0
 40
1.0
 40
1.0
 40
1.0
 10
652.5038950315
 20
101.0222369198
 30
0.0
 10
652.4292298996
 20
101.0422433816
 30
0.0
 10
652.2791189841
 20
101.0615615464
 30
0.0
 10
652.0664616267
 20
101.0265637697
 30
0.0
 10
651.8956008387
 20
100.9292383685
 30
0.0
 10
651.8290844697
 20
100.822031601
 30
0.0
 10
651.8145319146
 20
100.7677207257
 30
0.0
  0
SPLINE
  5
71C
100
AcDbEntity
  8
0
100
AcDbSpline
 62
7
  6
CONTINUOUS
 70
0
 71
3
 72
11
 73
7
 74
0
 42
0.0000001
 43
0.0000001
 44
0.0000000001
 40
0.0
 40
0.0
 40
0.0
 40
0.0
 40
0.2879697432
 40
0.5553440702
 40
0.7905331502
 40
1.0
 40
1.0
 40
1.0
 40
1.0
 10
654.8877156575
 20
97.7481112009
 30
0.0
 10
654.9250438822
 20
97.7381091332
 30
0.0
 10
655.0000988341
 20
97.7284581644
 30
0.0
 10
655.1064409345
 20
97.7459263187
 30
0.0
 10
655.1918611487
 20
97.7946203282
 30
0.0
 10
655.2251217932
 20
97.8482170508
 30
0.0
 10
655.2323972159
 20
97.875369298
 30
0.0
  0
SPLINE
  5
71D
100
AcDbEntity
  8
0
100
AcDbSpline
 62
7
  6
CONTINUOUS
 70
0
 71
3
 72
11
 73
7
 74
0
 42
0.0000001
 43
0.0000001
 44
0.0000000001
 40
0.0
 40
0.0
 40
0.0
 40
0.0
 40
0.2879697432
 40
0.5553440702
 40
0.7905331502
 40
1.0
 40
1.0
 40
1.0
 40
1.0
 10
654.3386775518
 20
95.6990730952
 30
0.0
 10
654.3760057766
 20
95.6890710276
 30
0.0
 10
654.4510607284
 20
95.6794200588
 30
0.0
 10
654.5574028288
 20
95.696888213
 30
0.0
 10
654.642823043
 20
95.7455822225
 30
0.0
 10
654.6760836875
 20
95.7991789451
 30
0.0
 10
654.6833591102
 20
95.8263311923
 30
0.0
  0
SPLINE
  5
71E
100
AcDbEntity
  8
0
100
AcDbSpline
 62
7
  6
CONTINUOUS
 70
0
 71
3
 72
9
 73
5
 74
0
 42
0.0000001
 43
0.0000001
 44
0.0000000001
 40
0.0
 40
0.0
 40
0.0
 40
0.0
 40
0.5597866015
 40
1.0
 40
1.0
 40
1.0
 40
1.0
 10
654.0565016598
 20
99.3983333951
 30
0.0
 10
654.0280307253
 20
99.405962159
 30
0.0
 10
653.9721736926
 20
99.4093358671
 30
0.0
 10
653.9246282584
 20
99.3698195575
 30
0.0
 10
653.9186290364
 20
99.3474301563
 30
0.0
  0
SPLINE
  5
71F
100
AcDbEntity
  8
0
100
AcDbSpline
 62
7
  6
CONTINUOUS
 70
0
 71
3
 72
9
 73
5
 74
0
 42
0.0000001
 43
0.0000001
 44
0.0000000001
 40
0.0
 40
0.0
 40
0.0
 40
0.0
 40
0.5597866015
 40
1.0
 40
1.0
 40
1.0
 40
1.0
 10
653.5074635541
 20
97.3492952894
 30
0.0
 10
653.4789926196
 20
97.3569240533
 30
0.0
 10
653.423135587
 20
97.3602977614
 30
0.0
 10
653.3755901528
 20
97.3207814519
 30
0.0
 10
653.3695909308
 20
97.2983920506
 30
0.0
  0
SPLINE
  5
720
100
AcDbEntity
  8
0
100
AcDbSpline
 62
7
  6
CONTINUOUS
 70
0
 71
3
 72
9
 73
5
 74
0
 42
0.0000001
 43
0.0000001
 44
0.0000000001
 40
0.0
 40
0.0
 40
0.0
 40
0.0
 40
0.5597866015
 40
1.0
 40
1.0
 40
1.0
 40
1.0
 10
654.017626352
 20
96.9929823375
 30
0.0
 10
654.0460972865
 20
96.9853535735
 30
0.0
 10
654.1019543191
 20
96.9819798655
 30
0.0
 10
654.1494997534
 20
97.021496175
 30
0.0
 10
654.1554989753
 20
97.0438855763
 30
0.0
  0
SPLINE
  5
721
100
AcDbEntity
  8
0
100
AcDbSpline
 62
7
  6
CONTINUOUS
 70
0
 71
3
 72
11
 73
7
 74
0
 42
0.0000001
 43
0.0000001
 44
0.0000000001
 40
0.0
 40
0.0
 40
0.0
 40
0.0
 40
0.2880001164
 40
0.5553425139
 40
0.7905343079
 40
1.0
 40
1.0
 40
1.0
 40
1.0
 10
662.6682672403
 20
96.0466692353
 30
0.0
 10
662.8030560505
 20
96.0105526824
 30
0.0
 10
663.0740471877
 20
95.9757025453
 30
0.0
 10
663.4579864312
 20
96.0388070321
 30
0.0
 10
663.766404036
 20
96.2145856946
 30
0.0
 10
663.8864731707
 20
96.408113118
 30
0.0
 10
663.9127411418
 20
96.5061465207
 30
0.0
  0
SPLINE
  5
722
100
AcDbEntity
  8
0
100
AcDbSpline
 62
7
  6
CONTINUOUS
 70
0
 71
3
 72
8
 73
4
 74
0
 42
0.0000001
 43
0.0000001
 44
0.0000000001
 40
0.0
 40
0.0
 40
0.0
 40
0.0
 40
1.0
 40
1.0
 40
1.0
 40
1.0
 10
677.6645452659
 20
94.2438584681
 30
0.0
 10
677.5961277405
 20
94.2868331118
 30
0.0
 10
677.5201166775
 20
94.3191605321
 30
0.0
 10
677.4420750246
 20
94.3400717299
 30
0.0
  0
SPLINE
  5
723
100
AcDbEntity
  8
0
100
AcDbSpline
 62
7
  6
CONTINUOUS
 70
0
 71
3
 72
11
 73
7
 74
0
 42
0.0000001
 43
0.0000001
 44
0.0000000001
 40
0.0
 40
0.0
 40
0.0
 40
0.0
 40
0.2779817175
 40
0.5346952233
 40
0.772857858
 40
1.0
 40
1.0
 40
1.0
 40
1.0
 10
676.4054058159
 20
89.6851549657
 30
0.0
 10
676.6380191457
 20
89.7407239312
 30
0.0
 10
677.0771214134
 20
89.8907410421
 30
0.0
 10
677.6465993537
 20
90.246931392
 30
0.0
 10
678.07176569
 20
90.7114809407
 30
0.0
 10
678.241019041
 20
91.0833251688
 30
0.0
 10
678.291597297
 20
91.2720857897
 30
0.0
  0
SPLINE
  5
724
100
AcDbEntity
  8
0
100
AcDbSpline
 62
7
  6
CONTINUOUS
 70
0
 71
3
 72
9
 73
5
 74
0
 42
0.0000001
 43
0.0000001
 44
0.0000000001
 40
0.0
 40
0.0
 40
0.0
 40
0.0
 40
0.2591205677
 40
1.0
 40
1.0
 40
1.0
 40
1.0
 10
676.2179083291
 20
89.6901407159
 30
0.0
 10
676.2336430152
 20
89.6859246195
 30
0.0
 10
676.2951888506
 20
89.6731555598
 30
0.0
 10
676.3601047499
 20
89.6743330004
 30
0.0
 10
676.4054058159
 20
89.6851549657
 30
0.0
  0
SPLINE
  5
725
100
AcDbEntity
  8
RUNDUNGEN
100
AcDbSpline
 62
7
  6
CONTINUOUS
 70
0
 71
3
 72
11
 73
7
 74
0
 42
0.0000001
 43
0.0000001
 44
0.0000000001
 40
0.0
 40
0.0
 40
0.0
 40
0.0
 40
0.2880068215
 40
0.5553366529
 40
0.7905059061
 40
1.0
 40
1.0
 40
1.0
 40
1.0
 10
626.0342466984
 20
51.1612049857
 30
0.0
 10
626.0964679892
 20
51.1445328411
 30
0.0
 10
626.2215609066
 20
51.128434903
 30
0.0
 10
626.3987754229
 20
51.1575988558
 30
0.0
 10
626.5411584081
 20
51.238704183
 30
0.0
 10
626.5965887642
 20
51.328042494
 30
0.0
 10
626.6087159625
 20
51.3733018141
 30
0.0
  0
SPLINE
  5
726
100
AcDbEntity
  8
RUNDUNGEN
100
AcDbSpline
 62
7
  6
CONTINUOUS
 70
0
 71
3
 72
13
 73
9
 74
0
 42
0.0000001
 43
0.0000001
 44
0.0000000001
 40
0.0
 40
0.0
 40
0.0
 40
0.0
 40
0.1034546555
 40
0.2106690395
 40
0.3244963599
 40
0.4464318111
 40
0.7129511617
 40
1.0
 40
1.0
 40
1.0
 40
1.0
 10
619.8497553846
 20
56.4785884767
 30
0.0
 10
619.7896750062
 20
56.2543654521
 30
0.0
 10
619.7317770811
 20
55.7780063233
 30
0.0
 10
619.8420333084
 20
55.0505128242
 30
0.0
 10
620.1394323787
 20
54.3333857401
 30
0.0
 10
620.7843156354
 20
53.4006806483
 30
0.0
 10
621.9796914725
 20
52.4212466807
 30
0.0
 10
623.1421841058
 20
51.9361308219
 30
0.0
 10
623.7643210066
 20
51.7694297417
 30
0.0
  0
SPLINE
  5
727
100
AcDbEntity
  8
RUNDUNGEN
100
AcDbSpline
 62
7
  6
CONTINUOUS
 70
0
 71
3
 72
10
 73
6
 74
0
 42
0.0000001
 43
0.0000001
 44
0.0000000001
 40
0.0
 40
0.0
 40
0.0
 40
0.0
 40
0.4808964563
 40
0.7459158441
 40
1.0
 40
1.0
 40
1.0
 40
1.0
 10
629.2429253759
 20
112.5299900265
 30
0.0
 10
629.4184065023
 20
112.2225772028
 30
0.0
 10
629.9049503604
 20
111.8686689981
 30
0.0
 10
630.6200960416
 20
111.6904675446
 30
0.0
 10
631.0100475562
 20
111.7009184828
 30
0.0
 10
631.1934188053
 20
111.7376961541
 30
0.0
  0
SPLINE
  5
728
100
AcDbEntity
  8
RUNDUNGEN
100
AcDbSpline
 62
7
  6
CONTINUOUS
 70
0
 71
3
 72
9
 73
5
 74
0
 42
0.0000001
 43
0.0000001
 44
0.0000000001
 40
0.0
 40
0.0
 40
0.0
 40
0.0
 40
0.5194816775
 40
1.0
 40
1.0
 40
1.0
 40
1.0
 10
711.0552686895
 20
95.4057260291
 30
0.0
 10
711.1569323564
 20
95.4650879911
 30
0.0
 10
711.3376052384
 20
95.6109634389
 30
0.0
 10
711.4467850027
 20
95.8185424686
 30
0.0
 10
711.4749005966
 20
95.9237461012
 30
0.0
  0
SPLINE
  5
729
100
AcDbEntity
  8
RUNDUNGEN
100
AcDbSpline
 62
7
  6
CONTINUOUS
 70
0
 71
3
 72
13
 73
9
 74
0
 42
0.0000001
 43
0.0000001
 44
0.0000000001
 40
0.0
 40
0.0
 40
0.0
 40
0.0
 40
0.2870490624
 40
0.5535683755
 40
0.6755038246
 40
0.7893311355
 40
0.8965454157
 40
1.0
 40
1.0
 40
1.0
 40
1.0
 10
679.7880189314
 20
36.7579251258
 30
0.0
 10
680.4101563176
 20
36.5912239156
 30
0.0
 10
681.6594628733
 20
36.4301002947
 30
0.0
 10
683.1844060424
 20
36.6806275562
 30
0.0
 10
684.2092436457
 20
37.1659324699
 30
0.0
 10
684.825361926
 20
37.6382833132
 30
0.0
 10
685.2845929828
 20
38.2131828079
 30
0.0
 10
685.4726312352
 20
38.6546705395
 30
0.0
 10
685.5327115723
 20
38.8788934097
 30
0.0
  0
SPLINE
  5
72A
100
AcDbEntity
  8
RUNDUNGEN
100
AcDbSpline
 62
7
  6
CONTINUOUS
 70
0
 71
3
 72
11
 73
7
 74
0
 42
0.0000001
 43
0.0000001
 44
0.0000000001
 40
0.0
 40
0.0
 40
0.0
 40
0.0
 40
0.2094942263
 40
0.444667264
 40
0.7119932261
 40
1.0
 40
1.0
 40
1.0
 40
1.0
 10
677.1266366774
 20
37.8370657553
 30
0.0
 10
677.1145094724
 20
37.7918064103
 30
0.0
 10
677.1178447779
 20
37.6867210877
 30
0.0
 10
677.2005997543
 20
37.5452904618
 30
0.0
 10
677.3394900753
 20
37.4314267063
 30
0.0
 10
677.4558719642
 20
37.3828220223
 30
0.0
 10
677.5180932396
 20
37.3661498818
 30
0.0
  0
SPLINE
  5
72B
100
AcDbEntity
  8
RUNDUNGEN
100
AcDbSpline
 62
7
  6
CONTINUOUS
 70
0
 71
3
 72
9
 73
5
 74
0
 42
0.0000001
 43
0.0000001
 44
0.0000000001
 40
0.0
 40
0.0
 40
0.0
 40
0.0
 40
0.4729729907
 40
1.0
 40
1.0
 40
1.0
 40
1.0
 10
664.2074419117
 20
51.2781564173
 30
0.0
 10
664.554916226
 20
50.6694410398
 30
0.0
 10
665.6393373701
 20
49.5809341127
 30
0.0
 10
667.0190378553
 20
48.9639729841
 30
0.0
 10
667.7734378452
 20
48.761832116
 30
0.0
  0
SPLINE
  5
72C
100
AcDbEntity
  8
RUNDUNGEN
100
AcDbSpline
 62
7
  6
CONTINUOUS
 70
0
 71
3
 72
9
 73
5
 74
0
 42
0.0000001
 43
0.0000001
 44
0.0000000001
 40
0.0
 40
0.0
 40
0.0
 40
0.0
 40
0.5270273161
 40
1.0
 40
1.0
 40
1.0
 40
1.0
 10
640.1712069381
 20
56.1578275969
 30
0.0
 10
640.9256073681
 20
55.9556866109
 30
0.0
 10
642.428943685
 20
55.800140506
 30
0.0
 10
643.9123332768
 20
56.2006048046
 30
0.0
 10
644.517612157
 20
56.5540303992
 30
0.0
  0
SPLINE
  5
72D
100
AcDbEntity
  8
RUNDUNGEN
100
AcDbSpline
 62
7
  6
CONTINUOUS
 70
0
 71
3
 72
13
 73
9
 74
0
 42
0.0000001
 43
0.0000001
 44
0.0000000001
 40
0.0
 40
0.0
 40
0.0
 40
0.0
 40
0.1034546555
 40
0.2106690395
 40
0.3244963599
 40
0.4464318111
 40
0.7129511617
 40
1.0
 40
1.0
 40
1.0
 40
1.0
 10
627.7982985248
 20
55.8128843764
 30
0.0
 10
627.8583789031
 20
56.037107401
 30
0.0
 10
628.0464173935
 20
56.4785954704
 30
0.0
 10
628.5056488369
 20
57.0534952081
 30
0.0
 10
629.1217675288
 20
57.5258459456
 30
0.0
 10
630.1466053575
 20
58.011150621
 30
0.0
 10
631.6715481833
 20
58.2616773997
 30
0.0
 10
632.9208542649
 20
58.1005537405
 30
0.0
 10
633.5429911657
 20
57.9338526604
 30
0.0
  0
SPLINE
  5
72E
100
AcDbEntity
  8
RUNDUNGEN
100
AcDbSpline
 62
7
  6
CONTINUOUS
 70
0
 71
3
 72
13
 73
9
 74
0
 42
0.0000001
 43
0.0000001
 44
0.0000000001
 40
0.0
 40
0.0
 40
0.0
 40
0.0
 40
0.2870490624
 40
0.5535683755
 40
0.6755038246
 40
0.7893311355
 40
0.8965454157
 40
1.0
 40
1.0
 40
1.0
 40
1.0
 10
674.4016536177
 20
46.9858070525
 30
0.0
 10
675.0237910039
 20
46.8191058423
 30
0.0
 10
676.1862840287
 20
46.3339897132
 30
0.0
 10
677.3816599218
 20
45.354555156
 30
0.0
 10
678.0265428641
 20
44.4218499704
 30
0.0
 10
678.3239415249
 20
43.7047230005
 30
0.0
 10
678.434197539
 20
42.9772299051
 30
0.0
 10
678.3762995767
 20
42.5008711878
 30
0.0
 10
678.3162192397
 20
42.2766483176
 30
0.0
  0
SPLINE
  5
72F
100
AcDbEntity
  8
RUNDUNGEN
100
AcDbSpline
 62
7
  6
CONTINUOUS
 70
0
 71
3
 72
13
 73
9
 74
0
 42
0.0000001
 43
0.0000001
 44
0.0000000001
 40
0.0
 40
0.0
 40
0.0
 40
0.0
 40
0.2360077172
 40
0.3661261163
 40
0.500000078
 40
0.6338740716
 40
0.7639924399
 40
1.0
 40
1.0
 40
1.0
 40
1.0
 10
650.9944084848
 20
60.3358666209
 30
0.0
 10
651.7207412723
 20
60.7599762433
 30
0.0
 10
653.0326882844
 20
61.1134402273
 30
0.0
 10
654.8171598478
 20
61.1019641623
 30
0.0
 10
656.2205652616
 20
60.850382706
 30
0.0
 10
657.5617405232
 20
60.3665556801
 30
0.0
 10
659.1128755941
 20
59.484258393
 30
0.0
 10
660.0723223107
 20
58.5221764367
 30
0.0
 10
660.4892898676
 20
57.7917208222
 30
0.0
  0
SPLINE
  5
730
100
AcDbEntity
  8
RUNDUNGEN
100
AcDbSpline
 62
7
  6
CONTINUOUS
 70
0
 71
3
 72
9
 73
5
 74
0
 42
0.0000001
 43
0.0000001
 44
0.0000000001
 40
0.0
 40
0.0
 40
0.0
 40
0.0
 40
0.5167739528
 40
1.0
 40
1.0
 40
1.0
 40
1.0
 10
641.9468311283
 20
78.0234488978
 30
0.0
 10
642.6958799949
 20
78.460822561
 30
0.0
 10
644.0575154278
 20
79.4758826717
 30
0.0
 10
645.0946922195
 20
80.8306758504
 30
0.0
 10
645.4811140727
 20
81.5437916852
 30
0.0
  0
SPLINE
  5
731
100
AcDbEntity
  8
RUNDUNGEN
100
AcDbSpline
 62
7
  6
CONTINUOUS
 70
0
 71
3
 72
11
 73
7
 74
0
 42
0.0000001
 43
0.0000001
 44
0.0000000001
 40
0.0
 40
0.0
 40
0.0
 40
0.0
 40
0.2660806488
 40
0.5190943636
 40
0.7622194616
 40
1.0
 40
1.0
 40
1.0
 40
1.0
 10
644.1809208196
 20
86.3611851343
 30
0.0
 10
644.4810293746
 20
85.8354464399
 30
0.0
 10
644.9868164527
 20
84.7608067179
 30
0.0
 10
645.4335661449
 20
83.0746123211
 30
0.0
 10
645.5348074617
 20
81.3964976697
 30
0.0
 10
645.3666453395
 20
80.3052265492
 30
0.0
 10
645.2266297683
 20
79.7826813976
 30
0.0
  0
SPLINE
  5
732
100
AcDbEntity
  8
RUNDUNGEN
100
AcDbSpline
 62
7
  6
CONTINUOUS
 70
0
 71
3
 72
10
 73
6
 74
0
 42
0.0000001
 43
0.0000001
 44
0.0000000001
 40
0.0
 40
0.0
 40
0.0
 40
0.0
 40
0.2540843695
 40
0.5191023225
 40
1.0
 40
1.0
 40
1.0
 40
1.0
 10
634.7782663597
 20
112.4566875206
 30
0.0
 10
635.083885353
 20
112.5179836885
 30
0.0
 10
635.7338030219
 20
112.5354016294
 30
0.0
 10
636.9257125009
 20
112.2384002725
 30
0.0
 10
637.7366194668
 20
111.6485537203
 30
0.0
 10
638.029088742
 20
111.1361977333
 30
0.0
  0
SPLINE
  5
733
100
AcDbEntity
  8
RUNDUNGEN
100
AcDbSpline
 62
7
  6
CONTINUOUS
 70
0
 71
3
 72
9
 73
5
 74
0
 42
0.0000001
 43
0.0000001
 44
0.0000000001
 40
0.0
 40
0.0
 40
0.0
 40
0.0
 40
0.5194825986
 40
1.0
 40
1.0
 40
1.0
 40
1.0
 10
639.888027238
 20
107.879656453
 30
0.0
 10
639.9852978795
 20
107.7092549791
 30
0.0
 10
640.1245133307
 20
107.3481414442
 30
0.0
 10
640.1091189747
 20
106.9575441858
 30
0.0
 10
640.0620308204
 20
106.7822666527
 30
0.0
  0
SPLINE
  5
734
100
AcDbEntity
  8
RUNDUNGEN
100
AcDbSpline
 62
7
  6
CONTINUOUS
 70
0
 71
3
 72
11
 73
7
 74
0
 42
0.0000001
 43
0.0000001
 44
0.0000000001
 40
0.0
 40
0.0
 40
0.0
 40
0.0
 40
0.2524375529
 40
0.5157480446
 40
0.7702932073
 40
1.0
 40
1.0
 40
1.0
 40
1.0
 10
687.1316617021
 20
101.1927532305
 30
0.0
 10
687.599688933
 20
100.7809874732
 30
0.0
 10
688.7034342086
 20
100.1006419046
 30
0.0
 10
690.5548709016
 20
99.5766239219
 30
0.0
 10
692.4241766562
 20
99.5671576763
 30
0.0
 10
693.5928877569
 20
99.9430582938
 30
0.0
 10
694.082741022
 20
100.2290862508
 30
0.0
  0
SPLINE
  5
735
100
AcDbEntity
  8
RUNDUNGEN
100
AcDbSpline
 62
7
  6
CONTINUOUS
 70
0
 71
3
 72
11
 73
7
 74
0
 42
0.0000001
 43
0.0000001
 44
0.0000000001
 40
0.0
 40
0.0
 40
0.0
 40
0.0
 40
0.2297109937
 40
0.4842558728
 40
0.7475644511
 40
1.0
 40
1.0
 40
1.0
 40
1.0
 10
650.469246585
 20
115.3583610304
 30
0.0
 10
650.7504631206
 20
114.8657179124
 30
0.0
 10
651.574656698
 20
113.9558174577
 30
0.0
 10
653.1982646714
 20
113.0293683663
 30
0.0
 10
655.0636558299
 20
112.5574713254
 30
0.0
 10
656.3596898526
 20
112.5947964384
 30
0.0
 10
656.9708913497
 20
112.7173814557
 30
0.0
  0
SPLINE
  5
736
100
AcDbEntity
  8
0
100
AcDbSpline
 62
7
  6
CONTINUOUS
 70
0
 71
3
 72
11
 73
7
 74
0
 42
0.0000001
 43
0.0000001
 44
0.0000000001
 40
0.0
 40
0.0
 40
0.0
 40
0.0
 40
0.2094656921
 40
0.4446574861
 40
0.7119998836
 40
1.0
 40
1.0
 40
1.0
 40
1.0
 10
663.9127411418
 20
96.5061465207
 30
0.0
 10
663.9390091129
 20
96.6041799235
 30
0.0
 10
663.9317899037
 20
96.8318141558
 30
0.0
 10
663.7525817542
 20
97.1382517453
 30
0.0
 10
663.4516328592
 20
97.3848714557
 30
0.0
 10
663.1995225817
 20
97.4901859203
 30
0.0
 10
663.0647337715
 20
97.5263024731
 30
0.0
  0
SPLINE
  5
737
100
AcDbEntity
  8
0
100
AcDbSpline
 62
7
  6
CONTINUOUS
 70
0
 71
3
 72
9
 73
5
 74
0
 42
0.0000001
 43
0.0000001
 44
0.0000000001
 40
0.0
 40
0.0
 40
0.0
 40
0.0
 40
0.4402133985
 40
1.0
 40
1.0
 40
1.0
 40
1.0
 10
653.6880330321
 20
98.4868341519
 30
0.0
 10
653.6820338101
 20
98.4644447506
 30
0.0
 10
653.7034512092
 20
98.4064499056
 30
0.0
 10
653.7535116725
 20
98.3814431062
 30
0.0
 10
653.781982607
 20
98.3738143422
 30
0.0
  0
SPLINE
  5
738
100
AcDbEntity
  8
0
100
AcDbSpline
 62
7
  6
CONTINUOUS
 70
0
 71
3
 72
11
 73
7
 74
0
 42
0.0000001
 43
0.0000001
 44
0.0000000001
 40
0.0
 40
0.0
 40
0.0
 40
0.0
 40
0.2094929298
 40
0.4446655277
 40
0.7119947494
 40
1.0
 40
1.0
 40
1.0
 40
1.0
 10
650.6066480821
 20
96.2598368932
 30
0.0
 10
650.5920955269
 20
96.205526018
 30
0.0
 10
650.5960970084
 20
96.0794240494
 30
0.0
 10
650.6954040908
 20
95.9097073855
 30
0.0
 10
650.8620718762
 20
95.7730697431
 30
0.0
 10
651.0017308248
 20
95.7147443068
 30
0.0
 10
651.0763959567
 20
95.694737845
 30
0.0
  0
SPLINE
  5
739
100
AcDbEntity
  8
0
100
AcDbSpline
 62
7
  6
CONTINUOUS
 70
0
 71
3
 72
9
 73
5
 74
0
 42
0.0000001
 43
0.0000001
 44
0.0000000001
 40
0.0
 40
0.0
 40
0.0
 40
0.0
 40
0.471076254
 40
1.0
 40
1.0
 40
1.0
 40
1.0
 10
655.0127819737
 20
97.0557540557
 30
0.0
 10
655.0200573964
 20
97.0829063029
 30
0.0
 10
655.0181186974
 20
97.1458842076
 30
0.0
 10
654.9869067411
 20
97.1991136158
 30
0.0
 10
654.9667308931
 20
97.2233848326
 30
0.0
  0
SPLINE
  5
73A
100
AcDbEntity
  8
0
100
AcDbSpline
 62
7
  6
CONTINUOUS
 70
0
 71
3
 72
8
 73
4
 74
0
 42
0.0000001
 43
0.0000001
 44
0.0000000001
 40
0.0
 40
0.0
 40
0.0
 40
0.0
 40
1.0
 40
1.0
 40
1.0
 40
1.0
 10
654.9667308931
 20
97.2233848326
 30
0.0
 10
654.9555307193
 20
97.2368584594
 30
0.0
 10
654.9430043681
 20
97.2492982366
 30
0.0
 10
654.9296409656
 20
97.2606296965
 30
0.0
  0
SPLINE
  5
73B
100
AcDbEntity
  8
0
100
AcDbSpline
 62
7
  6
CONTINUOUS
 70
0
 71
3
 72
9
 73
5
 74
0
 42
0.0000001
 43
0.0000001
 44
0.0000000001
 40
0.0
 40
0.0
 40
0.0
 40
0.0
 40
0.241609722
 40
1.0
 40
1.0
 40
1.0
 40
1.0
 10
654.9296409656
 20
97.2606296965
 30
0.0
 10
654.9191221935
 20
97.26954906
 30
0.0
 10
654.8733059903
 20
97.3037372933
 30
0.0
 10
654.8197225395
 20
97.3270994174
 30
0.0
 10
654.7779080363
 20
97.3383035798
 30
0.0
  0
SPLINE
  5
73C
100
AcDbEntity
  8
0
100
AcDbSpline
 62
7
  6
CONTINUOUS
 70
0
 71
3
 72
11
 73
7
 74
0
 42
0.0000001
 43
0.0000001
 44
0.0000000001
 40
0.0
 40
0.0
 40
0.0
 40
0.0
 40
0.2880052506
 40
0.5553344723
 40
0.7905070702
 40
1.0
 40
1.0
 40
1.0
 40
1.0
 10
655.7128399229
 20
94.4524064286
 30
0.0
 10
655.7875050548
 20
94.4323999668
 30
0.0
 10
655.9376159702
 20
94.4130818019
 30
0.0
 10
656.1502733277
 20
94.4480795787
 30
0.0
 10
656.3211341157
 20
94.5454049799
 30
0.0
 10
656.3876504846
 20
94.6526117474
 30
0.0
 10
656.4022030398
 20
94.7069226226
 30
0.0
  0
SPLINE
  5
73D
100
AcDbEntity
  8
0
100
AcDbSpline
 62
7
  6
CONTINUOUS
 70
0
 71
3
 72
9
 73
5
 74
0
 42
0.0000001
 43
0.0000001
 44
0.0000000001
 40
0.0
 40
0.0
 40
0.0
 40
0.0
 40
0.7407738242
 40
1.0
 40
1.0
 40
1.0
 40
1.0
 10
650.698154433
 20
96.6013432442
 30
0.0
 10
650.6873052533
 20
96.5608535542
 30
0.0
 10
650.6846871529
 20
96.5022337097
 30
0.0
 10
650.6963725177
 20
96.4468431184
 30
0.0
 10
650.7002489109
 20
96.4326958011
 30
0.0
  0
SPLINE
  5
73E
100
AcDbEntity
  8
0
100
AcDbSpline
 62
7
  6
CONTINUOUS
 70
0
 71
3
 72
9
 73
5
 74
0
 42
0.0000001
 43
0.0000001
 44
0.0000000001
 40
0.0
 40
0.0
 40
0.0
 40
0.0
 40
0.238285514
 40
1.0
 40
1.0
 40
1.0
 40
1.0
 10
650.7002489109
 20
96.4326958011
 30
0.0
 10
650.7042412574
 20
96.4181252998
 30
0.0
 10
650.72481513
 20
96.3580318489
 30
0.0
 10
650.7593851592
 20
96.3032195242
 30
0.0
 10
650.7902565941
 20
96.2660816904
 30
0.0
  0
SPLINE
  5
73F
100
AcDbEntity
  8
0
100
AcDbSpline
 62
7
  6
CONTINUOUS
 70
0
 71
3
 72
9
 73
5
 74
0
 42
0.0000001
 43
0.0000001
 44
0.0000000001
 40
0.0
 40
0.0
 40
0.0
 40
0.0
 40
0.2355596553
 40
1.0
 40
1.0
 40
1.0
 40
1.0
 10
650.7902565941
 20
96.2660816904
 30
0.0
 10
650.8126449739
 20
96.2391488339
 30
0.0
 10
650.9185130525
 20
96.1339298056
 30
0.0
 10
651.0581177673
 20
96.0656608749
 30
0.0
 10
651.1679023077
 20
96.036244196
 30
0.0
  0
SPLINE
  5
740
100
AcDbEntity
  8
0
100
AcDbSpline
 62
7
  6
CONTINUOUS
 70
0
 71
3
 72
11
 73
7
 74
0
 42
0.0000001
 43
0.0000001
 44
0.0000000001
 40
0.0
 40
0.0
 40
0.0
 40
0.0
 40
0.2879697432
 40
0.5553440702
 40
0.7905331502
 40
1.0
 40
1.0
 40
1.0
 40
1.0
 10
653.3290192969
 20
97.7265321474
 30
0.0
 10
653.2916910721
 20
97.7365342151
 30
0.0
 10
653.2166361202
 20
97.7461851839
 30
0.0
 10
653.1102940199
 20
97.7287170297
 30
0.0
 10
653.0248738057
 20
97.6800230202
 30
0.0
 10
652.9916131612
 20
97.6264262976
 30
0.0
 10
652.9843377384
 20
97.5992740504
 30
0.0
  0
SPLINE
  5
741
100
AcDbEntity
  8
RUNDUNGEN
100
AcDbSpline
 62
7
  6
CONTINUOUS
 70
0
 71
3
 72
11
 73
7
 74
0
 42
0.0000001
 43
0.0000001
 44
0.0000000001
 40
0.0
 40
0.0
 40
0.0
 40
0.0
 40
0.237780559
 40
0.4809056754
 40
0.7339193747
 40
1.0
 40
1.0
 40
1.0
 40
1.0
 10
645.2266297683
 20
79.7826813976
 30
0.0
 10
645.0866142033
 20
79.2601362693
 30
0.0
 10
644.6866111827
 20
78.230986801
 30
0.0
 10
643.7598762607
 20
76.828317781
 30
0.0
 10
642.5298826207
 20
75.591405698
 30
0.0
 10
641.5545384838
 20
74.9136341089
 30
0.0
 10
641.0317676189
 20
74.6083853883
 30
0.0
  0
SPLINE
  5
742
100
AcDbEntity
  8
0
100
AcDbSpline
 62
7
  6
CONTINUOUS
 70
0
 71
3
 72
11
 73
7
 74
0
 42
0.0000001
 43
0.0000001
 44
0.0000000001
 40
0.0
 40
0.0
 40
0.0
 40
0.0
 40
0.2879697432
 40
0.5553440702
 40
0.7905331502
 40
1.0
 40
1.0
 40
1.0
 40
1.0
 10
653.8780574026
 20
99.7755702531
 30
0.0
 10
653.8407291778
 20
99.7855723208
 30
0.0
 10
653.7656742259
 20
99.7952232896
 30
0.0
 10
653.6593321255
 20
99.7777551353
 30
0.0
 10
653.5739119114
 20
99.7290611258
 30
0.0
 10
653.5406512668
 20
99.6754644033
 30
0.0
 10
653.5333758441
 20
99.6483121561
 30
0.0
  0
SPLINE
  5
743
100
AcDbEntity
  8
0
100
AcDbSpline
 62
7
  6
CONTINUOUS
 70
0
 71
3
 72
9
 73
5
 74
0
 42
0.0000001
 43
0.0000001
 44
0.0000000001
 40
0.0
 40
0.0
 40
0.0
 40
0.0
 40
0.5597866015
 40
1.0
 40
1.0
 40
1.0
 40
1.0
 10
654.1991086024
 20
98.4816610109
 30
0.0
 10
654.1706376679
 20
98.4892897748
 30
0.0
 10
654.1147806352
 20
98.4926634829
 30
0.0
 10
654.067235201
 20
98.4531471734
 30
0.0
 10
654.061235979
 20
98.4307577721
 30
0.0
  0
SPLINE
  5
744
100
AcDbEntity
  8
0
100
AcDbSpline
 62
7
  6
CONTINUOUS
 70
0
 71
3
 72
9
 73
5
 74
0
 42
0.0000001
 43
0.0000001
 44
0.0000000001
 40
0.0
 40
0.0
 40
0.0
 40
0.0
 40
0.5597866015
 40
1.0
 40
1.0
 40
1.0
 40
1.0
 10
654.7092714002
 20
98.1253480589
 30
0.0
 10
654.7377423347
 20
98.117719295
 30
0.0
 10
654.7935993674
 20
98.114345587
 30
0.0
 10
654.8411448016
 20
98.1538618965
 30
0.0
 10
654.8471440236
 20
98.1762512978
 30
0.0
  0
SPLINE
  5
745
100
AcDbEntity
  8
RUNDUNGEN
100
AcDbSpline
 62
7
  6
CONTINUOUS
 70
0
 71
3
 72
9
 73
5
 74
0
 42
0.0000001
 43
0.0000001
 44
0.0000000001
 40
0.0
 40
0.0
 40
0.0
 40
0.0
 40
0.4805366099
 40
1.0
 40
1.0
 40
1.0
 40
1.0
 10
687.0743201749
 20
44.6322550402
 30
0.0
 10
687.1681895415
 20
44.9825802858
 30
0.0
 10
687.1983346928
 20
45.7630838603
 30
0.0
 10
686.9201152188
 20
46.4845958127
 30
0.0
 10
686.7257504864
 20
46.8250894739
 30
0.0
  0
SPLINE
  5
746
100
AcDbEntity
  8
0
100
AcDbSpline
 62
7
  6
CONTINUOUS
 70
0
 71
3
 72
9
 73
5
 74
0
 42
0.0000001
 43
0.0000001
 44
0.0000000001
 40
0.0
 40
0.0
 40
0.0
 40
0.0
 40
0.5597866015
 40
1.0
 40
1.0
 40
1.0
 40
1.0
 10
654.1602332945
 20
96.0763099533
 30
0.0
 10
654.1887042291
 20
96.0686811894
 30
0.0
 10
654.2445612617
 20
96.0653074813
 30
0.0
 10
654.2921066959
 20
96.1048237908
 30
0.0
 10
654.2981059179
 20
96.1272131921
 30
0.0
  0
SPLINE
  5
747
100
AcDbEntity
  8
RUNDUNGEN
100
AcDbSpline
 62
7
  6
CONTINUOUS
 70
0
 71
3
 72
10
 73
6
 74
0
 42
0.0000001
 43
0.0000001
 44
0.0000000001
 40
0.0
 40
0.0
 40
0.0
 40
0.0
 40
0.2265442612
 40
0.4650409816
 40
1.0
 40
1.0
 40
1.0
 40
1.0
 10
711.4749005966
 20
95.9237461012
 30
0.0
 10
711.4968992958
 20
96.0060613843
 30
0.0
 10
711.5125018466
 20
96.1842843155
 30
0.0
 10
711.4223183196
 20
96.5545523623
 30
0.0
 10
711.2328468295
 20
96.7950418109
 30
0.0
 10
711.0817874598
 20
96.9279423594
 30
0.0
  0
SPLINE
  5
748
100
AcDbEntity
  8
0
100
AcDbSpline
 62
7
  6
CONTINUOUS
 70
0
 71
3
 72
11
 73
7
 74
0
 42
0.0000001
 43
0.0000001
 44
0.0000000001
 40
0.0
 40
0.0
 40
0.0
 40
0.0
 40
0.2865059912
 40
0.5484241175
 40
0.7833822346
 40
1.0
 40
1.0
 40
1.0
 40
1.0
 10
663.1209006591
 20
95.3321228623
 30
0.0
 10
663.3170659985
 20
95.3255441131
 30
0.0
 10
663.695995313
 20
95.3548496544
 30
0.0
 10
664.2087520989
 20
95.5365329036
 30
0.0
 10
664.6019880516
 20
95.8445543277
 30
0.0
 10
664.7534429304
 20
96.1275765536
 30
0.0
 10
664.7918295389
 20
96.2709233391
 30
0.0
  0
SPLINE
  5
749
100
AcDbEntity
  8
0
100
AcDbSpline
 62
7
  6
CONTINUOUS
 70
0
 71
3
 72
9
 73
5
 74
0
 42
0.0000001
 43
0.0000001
 44
0.0000000001
 40
0.0
 40
0.0
 40
0.0
 40
0.0
 40
0.4402133985
 40
1.0
 40
1.0
 40
1.0
 40
1.0
 10
653.779539383
 20
98.8283405028
 30
0.0
 10
653.773540161
 20
98.8059511016
 30
0.0
 10
653.7949575601
 20
98.7479562566
 30
0.0
 10
653.8450180234
 20
98.7229494571
 30
0.0
 10
653.8734889579
 20
98.7153206932
 30
0.0
  0
SPLINE
  5
74A
100
AcDbEntity
  8
0
100
AcDbSpline
 62
7
  6
CONTINUOUS
 70
0
 71
3
 72
8
 73
4
 74
0
 42
0.0000001
 43
0.0000001
 44
0.0000000001
 40
0.0
 40
0.0
 40
0.0
 40
0.0
 40
1.0
 40
1.0
 40
1.0
 40
1.0
 10
676.0145759498
 20
89.0125726552
 30
0.0
 10
676.0926176027
 20
88.9916614573
 30
0.0
 10
676.1746088244
 20
88.981652293
 30
0.0
 10
676.2553474613
 20
88.9846606635
 30
0.0
  0
SPLINE
  5
74B
100
AcDbEntity
  8
0
100
AcDbSpline
 62
7
  6
CONTINUOUS
 70
0
 71
3
 72
11
 73
7
 74
0
 42
0.0000001
 43
0.0000001
 44
0.0000000001
 40
0.0
 40
0.0
 40
0.0
 40
0.0
 40
0.2847819434
 40
0.5451774547
 40
0.7807010719
 40
1.0
 40
1.0
 40
1.0
 40
1.0
 10
676.2553474613
 20
88.9846606635
 30
0.0
 10
676.6303364977
 20
88.9986329819
 30
0.0
 10
677.3489967792
 20
89.1021064299
 30
0.0
 10
678.3095068449
 20
89.5058236837
 30
0.0
 10
679.038593514
 20
90.1318337942
 30
0.0
 10
679.3206788047
 20
90.68254556
 30
0.0
 10
679.3954682184
 20
90.9616634517
 30
0.0
  0
SPLINE
  5
74C
100
AcDbEntity
  8
0
100
AcDbSpline
 62
7
  6
CONTINUOUS
 70
0
 71
3
 72
9
 73
5
 74
0
 42
0.0000001
 43
0.0000001
 44
0.0000000001
 40
0.0
 40
0.0
 40
0.0
 40
0.0
 40
0.239729366
 40
1.0
 40
1.0
 40
1.0
 40
1.0
 10
677.45157297
 20
93.5895039379
 30
0.0
 10
677.4406261583
 20
93.5998687062
 30
0.0
 10
677.3918630575
 20
93.6397817739
 30
0.0
 10
677.3328824431
 20
93.6665610187
 30
0.0
 10
677.2867025081
 20
93.678934895
 30
0.0
  0
SPLINE
  5
74D
100
AcDbEntity
  8
RUNDUNGEN
100
AcDbSpline
 62
7
  6
CONTINUOUS
 70
0
 71
3
 72
9
 73
5
 74
0
 42
0.0000001
 43
0.0000001
 44
0.0000000001
 40
0.0
 40
0.0
 40
0.0
 40
0.0
 40
0.5194635453
 40
1.0
 40
1.0
 40
1.0
 40
1.0
 10
622.7896514093
 20
63.9567155888
 30
0.0
 10
622.4510796815
 20
63.7590217354
 30
0.0
 10
621.8493785829
 20
63.2732837507
 30
0.0
 10
621.4852333236
 20
62.5822752397
 30
0.0
 10
621.3913639872
 20
62.2319501071
 30
0.0
  0
SPLINE
  5
74E
100
AcDbEntity
  8
RUNDUNGEN
100
AcDbSpline
 62
7
  6
CONTINUOUS
 70
0
 71
3
 72
10
 73
6
 74
0
 42
0.0000001
 43
0.0000001
 44
0.0000000001
 40
0.0
 40
0.0
 40
0.0
 40
0.0
 40
0.5349741761
 40
0.7734715455
 40
1.0
 40
1.0
 40
1.0
 40
1.0
 10
635.0729426229
 20
104.9414360909
 30
0.0
 10
634.8756553009
 20
104.9018673564
 30
0.0
 10
634.5913008293
 20
104.7883207709
 30
0.0
 10
634.3280690744
 20
104.5127190281
 30
0.0
 10
634.2524804024
 20
104.3505632595
 30
0.0
 10
634.2303818491
 20
104.2682763187
 30
0.0
  0
SPLINE
  5
74F
100
AcDbEntity
  8
0
100
AcDbSpline
 62
7
  6
CONTINUOUS
 70
0
 71
3
 72
9
 73
5
 74
0
 42
0.0000001
 43
0.0000001
 44
0.0000000001
 40
0.0
 40
0.0
 40
0.0
 40
0.0
 40
0.471076254
 40
1.0
 40
1.0
 40
1.0
 40
1.0
 10
655.5618200793
 20
99.1047921614
 30
0.0
 10
655.569095502
 20
99.1319444085
 30
0.0
 10
655.5671568031
 20
99.1949223132
 30
0.0
 10
655.5359448467
 20
99.2481517215
 30
0.0
 10
655.5157689988
 20
99.2724229383
 30
0.0
  0
SPLINE
  5
750
100
AcDbEntity
  8
0
100
AcDbSpline
 62
7
  6
CONTINUOUS
 70
0
 71
3
 72
8
 73
4
 74
0
 42
0.0000001
 43
0.0000001
 44
0.0000000001
 40
0.0
 40
0.0
 40
0.0
 40
0.0
 40
1.0
 40
1.0
 40
1.0
 40
1.0
 10
655.5157689988
 20
99.2724229383
 30
0.0
 10
655.504568825
 20
99.2858965651
 30
0.0
 10
655.4920424738
 20
99.2983363422
 30
0.0
 10
655.4786790712
 20
99.3096678022
 30
0.0
  0
SPLINE
  5
751
100
AcDbEntity
  8
0
100
AcDbSpline
 62
7
  6
CONTINUOUS
 70
0
 71
3
 72
9
 73
5
 74
0
 42
0.0000001
 43
0.0000001
 44
0.0000000001
 40
0.0
 40
0.0
 40
0.0
 40
0.0
 40
0.241609722
 40
1.0
 40
1.0
 40
1.0
 40
1.0
 10
655.4786790712
 20
99.3096678022
 30
0.0
 10
655.4681602992
 20
99.3185871657
 30
0.0
 10
655.422344096
 20
99.352775399
 30
0.0
 10
655.3687606452
 20
99.3761375231
 30
0.0
 10
655.326946142
 20
99.3873416855
 30
0.0
  0
SPLINE
  5
752
100
AcDbEntity
  8
RUNDUNGEN
100
AcDbSpline
 62
7
  6
CONTINUOUS
 70
0
 71
3
 72
11
 73
7
 74
0
 42
0.0000001
 43
0.0000001
 44
0.0000000001
 40
0.0
 40
0.0
 40
0.0
 40
0.0
 40
0.2794013718
 40
0.5367226037
 40
0.7743080703
 40
1.0
 40
1.0
 40
1.0
 40
1.0
 10
629.8848727077
 20
120.1541949222
 30
0.0
 10
629.5398981713
 20
120.0850054491
 30
0.0
 10
628.8872582464
 20
119.8870190988
 30
0.0
 10
628.0366168917
 20
119.3893649755
 30
0.0
 10
627.4005294064
 20
118.7234643268
 30
0.0
 10
627.1491717059
 20
118.1824929313
 30
0.0
 10
627.0756658767
 20
117.9079535878
 30
0.0
  0
SPLINE
  5
753
100
AcDbEntity
  8
RUNDUNGEN
100
AcDbSpline
 62
7
  6
CONTINUOUS
 70
0
 71
3
 72
12
 73
8
 74
0
 42
0.0000001
 43
0.0000001
 44
0.0000000001
 40
0.0
 40
0.0
 40
0.0
 40
0.0
 40
0.2295487337
 40
0.3548258227
 40
0.4846200261
 40
0.7477431889
 40
1.0
 40
1.0
 40
1.0
 40
1.0
 10
648.9856899373
 20
112.9391999546
 30
0.0
 10
648.1982845334
 20
114.318599116
 30
0.0
 10
646.5021802578
 20
116.1912269095
 30
0.0
 10
643.7345167159
 20
118.0927563299
 30
0.0
 10
640.5024020024
 20
119.6748645423
 30
0.0
 10
636.1202029714
 20
120.7814227161
 30
0.0
 10
632.4924439519
 20
120.6771798424
 30
0.0
 10
630.7810845963
 20
120.3339427638
 30
0.0
  0
SPLINE
  5
754
100
AcDbEntity
  8
0
100
AcDbSpline
 62
7
  6
CONTINUOUS
 70
0
 71
3
 72
9
 73
5
 74
0
 42
0.0000001
 43
0.0000001
 44
0.0000000001
 40
0.0
 40
0.0
 40
0.0
 40
0.0
 40
0.2419366003
 40
1.0
 40
1.0
 40
1.0
 40
1.0
 10
677.1578560798
 20
105.7474819879
 30
0.0
 10
676.7720570347
 20
106.0869041956
 30
0.0
 10
675.1111063767
 20
107.4136436338
 30
0.0
 10
673.2156773295
 20
108.4380173142
 30
0.0
 10
671.7209406728
 20
109.0364307785
 30
0.0
  0
SPLINE
  5
755
100
AcDbEntity
  8
0
100
AcDbSpline
 62
7
  6
CONTINUOUS
 70
0
 71
3
 72
9
 73
5
 74
0
 42
0.0000001
 43
0.0000001
 44
0.0000000001
 40
0.0
 40
0.0
 40
0.0
 40
0.0
 40
0.2576167678
 40
1.0
 40
1.0
 40
1.0
 40
1.0
 10
666.8898685392
 20
110.3309126553
 30
0.0
 10
666.3483373347
 20
110.4087695265
 30
0.0
 10
664.2359424698
 20
110.6281689558
 30
0.0
 10
662.0826983747
 20
110.5110912109
 30
0.0
 10
660.5368872832
 20
110.2010571544
 30
0.0
  0
SPLINE
  5
756
100
AcDbEntity
  8
RUNDUNGEN
100
AcDbSpline
 62
7
  6
CONTINUOUS
 70
0
 71
3
 72
10
 73
6
 74
0
 42
0.0000001
 43
0.0000001
 44
0.0000000001
 40
0.0
 40
0.0
 40
0.0
 40
0.0
 40
0.2540841022
 40
0.5191024011
 40
1.0
 40
1.0
 40
1.0
 40
1.0
 10
705.0426260513
 20
102.241137204
 30
0.0
 10
704.9022107613
 20
102.3646731959
 30
0.0
 10
704.5697290846
 20
102.568699338
 30
0.0
 10
703.8612942458
 20
102.7719455541
 30
0.0
 10
703.2629804966
 20
102.7087244676
 30
0.0
 10
702.9573022553
 20
102.5302372979
 30
0.0
  0
SPLINE
  5
757
100
AcDbEntity
  8
BEZUGSACHSEN
100
AcDbSpline
 62
7
  6
CONTINUOUS
 70
0
 71
3
 72
19
 73
15
 74
0
 42
0.0000001
 43
0.0000001
 44
0.0000000001
 40
0.0
 40
0.0
 40
0.0
 40
0.0
 40
0.0517279957
 40
0.105334459
 40
0.1622489926
 40
0.2232158543
 40
0.3564755372
 40
0.5
 40
0.6435244628
 40
0.7767841457
 40
0.8377510074
 40
0.894665541
 40
0.9482720043
 40
1.0
 40
1.0
 40
1.0
 40
1.0
 10
662.292621064
 20
104.7619754142
 30
0.0
 10
662.2265317956
 20
104.5153269064
 30
0.0
 10
662.1628467947
 20
103.9913314972
 30
0.0
 10
662.2841245005
 20
103.1910864218
 30
0.0
 10
662.6112836728
 20
102.4022449385
 30
0.0
 10
663.3205436564
 20
101.3763004257
 30
0.0
 10
664.6364341873
 20
100.2986627922
 30
0.0
 10
666.5738841644
 20
99.4894986472
 30
0.0
 10
668.6563471358
 20
99.221530364
 30
0.0
 10
670.3347605808
 20
99.4968466653
 30
0.0
 10
671.4619700009
 20
100.0307106844
 30
0.0
 10
672.1397188969
 20
100.5502878623
 30
0.0
 10
672.6448710087
 20
101.182681574
 30
0.0
 10
672.8517158847
 20
101.6683174103
 30
0.0
 10
672.9178051532
 20
101.9149659181
 30
0.0
  0
SPLINE
  5
758
100
AcDbEntity
  8
0
100
AcDbSpline
 62
7
  6
CONTINUOUS
 70
0
 71
3
 72
11
 73
7
 74
0
 42
0.0000001
 43
0.0000001
 44
0.0000000001
 40
0.0
 40
0.0
 40
0.0
 40
0.0
 40
0.227142142
 40
0.4653047767
 40
0.7220182825
 40
1.0
 40
1.0
 40
1.0
 40
1.0
 10
678.291597297
 20
91.2720857897
 30
0.0
 10
678.3421755529
 20
91.4608464107
 30
0.0
 10
678.3815199653
 20
91.8674996339
 30
0.0
 10
678.2455898915
 20
92.4823945126
 30
0.0
 10
677.9305027033
 20
93.0756033743
 30
0.0
 10
677.6252375401
 20
93.4250731372
 30
0.0
 10
677.45157297
 20
93.5895039379
 30
0.0
  0
SPLINE
  5
759
100
AcDbEntity
  8
0
100
AcDbSpline
 62
7
  6
CONTINUOUS
 70
0
 71
3
 72
17
 73
13
 74
0
 42
0.0000001
 43
0.0000001
 44
0.0000000001
 40
0.0
 40
0.0
 40
0.0
 40
0.0
 40
0.0517921087
 40
0.1054769531
 40
0.2228492041
 40
0.356284866
 40
0.5
 40
0.643715134
 40
0.7771507959
 40
0.8945230469
 40
0.9482078913
 40
1.0
 40
1.0
 40
1.0
 40
1.0
 10
665.6508623671
 20
93.8867264172
 30
0.0
 10
665.6166544456
 20
93.759060716
 30
0.0
 10
665.5837363245
 20
93.4877986484
 30
0.0
 10
665.6696246527
 20
92.91964602
 30
0.0
 10
666.0712042039
 20
92.2235360741
 30
0.0
 10
666.8636925147
 20
91.5774238349
 30
0.0
 10
667.8669219297
 20
91.1569484912
 30
0.0
 10
668.9459817609
 20
91.019476113
 30
0.0
 10
669.9553528898
 20
91.1827815704
 30
0.0
 10
670.6511859558
 20
91.5848406918
 30
0.0
 10
671.009643744
 20
92.0339311371
 30
0.0
 10
671.1167668488
 20
92.2853100393
 30
0.0
 10
671.1509747703
 20
92.4129757404
 30
0.0
  0
SPLINE
  5
75A
100
AcDbEntity
  8
0
100
AcDbSpline
 62
7
  6
CONTINUOUS
 70
0
 71
3
 72
9
 73
5
 74
0
 42
0.0000001
 43
0.0000001
 44
0.0000000001
 40
0.0
 40
0.0
 40
0.0
 40
0.0
 40
0.4402133985
 40
1.0
 40
1.0
 40
1.0
 40
1.0
 10
653.1389949264
 20
96.4377960462
 30
0.0
 10
653.1329957044
 20
96.4154066449
 30
0.0
 10
653.1544131035
 20
96.3574117999
 30
0.0
 10
653.2044735668
 20
96.3324050005
 30
0.0
 10
653.2329445013
 20
96.3247762366
 30
0.0
  0
SPLINE
  5
75B
100
AcDbEntity
  8
0
100
AcDbSpline
 62
7
  6
CONTINUOUS
 70
0
 71
3
 72
9
 73
5
 74
0
 42
0.0000001
 43
0.0000001
 44
0.0000000001
 40
0.0
 40
0.0
 40
0.0
 40
0.0
 40
0.4402133985
 40
1.0
 40
1.0
 40
1.0
 40
1.0
 10
653.2305012773
 20
96.7793023972
 30
0.0
 10
653.2245020553
 20
96.7569129959
 30
0.0
 10
653.2459194544
 20
96.6989181509
 30
0.0
 10
653.2959799177
 20
96.6739113514
 30
0.0
 10
653.3244508523
 20
96.6662825875
 30
0.0
  0
SPLINE
  5
75C
100
AcDbEntity
  8
0
100
AcDbSpline
 62
7
  6
CONTINUOUS
 70
0
 71
3
 72
9
 73
5
 74
0
 42
0.0000001
 43
0.0000001
 44
0.0000000001
 40
0.0
 40
0.0
 40
0.0
 40
0.0
 40
0.5
 40
1.0
 40
1.0
 40
1.0
 40
1.0
 10
665.6995088962
 20
93.9866880369
 30
0.0
 10
665.5991044744
 20
92.8799529241
 30
0.0
 10
667.7970021306
 20
90.8960042483
 30
0.0
 10
670.6924116737
 20
91.5152053733
 30
0.0
 10
671.1588264502
 20
92.5238683071
 30
0.0
  0
SPLINE
  5
75D
100
AcDbEntity
  8
0
100
AcDbSpline
 62
7
  6
CONTINUOUS
 70
0
 71
3
 72
8
 73
4
 74
0
 42
0.0000001
 43
0.0000001
 44
0.0000000001
 40
0.0
 40
0.0
 40
0.0
 40
0.0
 40
1.0
 40
1.0
 40
1.0
 40
1.0
 10
676.1060823008
 20
89.3540790061
 30
0.0
 10
676.1841239537
 20
89.3331678083
 30
0.0
 10
676.2661151754
 20
89.323158644
 30
0.0
 10
676.3468538122
 20
89.3261670145
 30
0.0
  0
SPLINE
  5
75E
100
AcDbEntity
  8
0
100
AcDbSpline
 62
7
  6
CONTINUOUS
 70
0
 71
3
 72
11
 73
7
 74
0
 42
0.0000001
 43
0.0000001
 44
0.0000000001
 40
0.0
 40
0.0
 40
0.0
 40
0.0
 40
0.2816347582
 40
0.5420479832
 40
0.7798483853
 40
1.0
 40
1.0
 40
1.0
 40
1.0
 10
676.3468538122
 20
89.3261670145
 30
0.0
 10
676.6855354229
 20
89.3387864962
 30
0.0
 10
677.3376229632
 20
89.4260358154
 30
0.0
 10
678.2249379723
 20
89.7589275582
 30
0.0
 10
678.9345799341
 20
90.2735829441
 30
0.0
 10
679.260039827
 20
90.7347746091
 30
0.0
 10
679.3696109766
 20
90.975982439
 30
0.0
  0
SPLINE
  5
75F
100
AcDbEntity
  8
0
100
AcDbSpline
 62
7
  6
CONTINUOUS
 70
0
 71
3
 72
9
 73
5
 74
0
 42
0.0000001
 43
0.0000001
 44
0.0000000001
 40
0.0
 40
0.0
 40
0.0
 40
0.0
 40
0.2591205677
 40
1.0
 40
1.0
 40
1.0
 40
1.0
 10
677.3782088591
 20
94.0204412459
 30
0.0
 10
677.3939435452
 20
94.0162251495
 30
0.0
 10
677.453628332
 20
93.9965105618
 30
0.0
 10
677.5092584296
 20
93.9630329187
 30
0.0
 10
677.543079321
 20
93.9310102889
 30
0.0
  0
SPLINE
  5
760
100
AcDbEntity
  8
0
100
AcDbSpline
 62
7
  6
CONTINUOUS
 70
0
 71
3
 72
11
 73
7
 74
0
 42
0.0000001
 43
0.0000001
 44
0.0000000001
 40
0.0
 40
0.0
 40
0.0
 40
0.0
 40
0.2779697373
 40
0.5346991835
 40
0.7728568778
 40
1.0
 40
1.0
 40
1.0
 40
1.0
 10
677.543079321
 20
93.9310102889
 30
0.0
 10
677.7167370288
 20
93.7665859855
 30
0.0
 10
678.0219949021
 20
93.4171068378
 30
0.0
 10
678.3371175026
 20
92.8239126079
 30
0.0
 10
678.473031583
 20
92.2090008222
 30
0.0
 10
678.4336996813
 20
91.8023495961
 30
0.0
 10
678.3831210259
 20
91.6135874843
 30
0.0
  0
SPLINE
  5
761
100
AcDbEntity
  8
0
100
AcDbSpline
 62
7
  6
CONTINUOUS
 70
0
 71
3
 72
9
 73
5
 74
0
 42
0.0000001
 43
0.0000001
 44
0.0000000001
 40
0.0
 40
0.0
 40
0.0
 40
0.0
 40
0.5403772208
 40
1.0
 40
1.0
 40
1.0
 40
1.0
 10
663.2124070101
 20
95.6736292132
 30
0.0
 10
663.5131159519
 20
95.6635444107
 30
0.0
 10
664.0804729219
 20
95.7350425294
 30
0.0
 10
664.5701948691
 20
96.0666390141
 30
0.0
 10
664.7205749397
 20
96.2737092465
 30
0.0
  0
SPLINE
  5
762
100
AcDbEntity
  8
0
100
AcDbSpline
 62
7
  6
CONTINUOUS
 70
0
 71
3
 72
8
 73
4
 74
0
 42
0.0000001
 43
0.0000001
 44
0.0000000001
 40
0.0
 40
0.0
 40
0.0
 40
0.0
 40
1.0
 40
1.0
 40
1.0
 40
1.0
 10
664.7205749397
 20
96.2737092465
 30
0.0
 10
664.7582199285
 20
96.3255456138
 30
0.0
 10
664.7914762552
 20
96.3809212364
 30
0.0
 10
664.8191139886
 20
96.4387166502
 30
0.0
  0
SPLINE
  5
763
100
AcDbEntity
  8
0
100
AcDbSpline
 62
7
  6
CONTINUOUS
 70
0
 71
3
 72
11
 73
7
 74
0
 42
0.0000001
 43
0.0000001
 44
0.0000000001
 40
0.0
 40
0.0
 40
0.0
 40
0.0
 40
0.2880066977
 40
0.5553334191
 40
0.790532629
 40
1.0
 40
1.0
 40
1.0
 40
1.0
 10
663.1562401224
 20
97.8678088241
 30
0.0
 10
663.2910314994
 20
97.8316915835
 30
0.0
 10
663.543144772
 20
97.726391038
 30
0.0
 10
663.8440658842
 20
97.4797394664
 30
0.0
 10
664.0232787035
 20
97.1733224686
 30
0.0
 10
664.0305336346
 20
96.9456818476
 30
0.0
 10
664.004265553
 20
96.8476480324
 30
0.0
  0
SPLINE
  5
764
100
AcDbEntity
  8
RUNDUNGEN
100
AcDbSpline
 62
7
  6
CONTINUOUS
 70
0
 71
3
 72
11
 73
7
 74
0
 42
0.0000001
 43
0.0000001
 44
0.0000000001
 40
0.0
 40
0.0
 40
0.0
 40
0.0
 40
0.2256927635
 40
0.4632951072
 40
0.7206222905
 40
1.0
 40
1.0
 40
1.0
 40
1.0
 10
640.0620308204
 20
106.7822666527
 30
0.0
 10
640.0251873752
 20
106.6451232825
 30
0.0
 10
639.8993272066
 20
106.3749434689
 30
0.0
 10
639.5813158431
 20
106.0424132246
 30
0.0
 10
639.1562266203
 20
105.7938884986
 30
0.0
 10
638.8301426036
 20
105.6949951496
 30
0.0
 10
638.6577901773
 20
105.6604274575
 30
0.0
  0
SPLINE
  5
765
100
AcDbEntity
  8
0
100
AcDbSpline
 62
7
  6
CONTINUOUS
 70
0
 71
3
 72
9
 73
5
 74
0
 42
0.0000001
 43
0.0000001
 44
0.0000000001
 40
0.0
 40
0.0
 40
0.0
 40
0.0
 40
0.5597866015
 40
1.0
 40
1.0
 40
1.0
 40
1.0
 10
654.2517396455
 20
96.4178163042
 30
0.0
 10
654.28021058
 20
96.4101875403
 30
0.0
 10
654.3360676127
 20
96.4068138322
 30
0.0
 10
654.3836130469
 20
96.4463301418
 30
0.0
 10
654.3896122689
 20
96.468719543
 30
0.0
  0
SPLINE
  5
766
100
AcDbEntity
  8
0
100
AcDbSpline
 62
7
  6
CONTINUOUS
 70
0
 71
3
 72
9
 73
5
 74
0
 42
0.0000001
 43
0.0000001
 44
0.0000000001
 40
0.0
 40
0.0
 40
0.0
 40
0.0
 40
0.4402133985
 40
1.0
 40
1.0
 40
1.0
 40
1.0
 10
654.15274233
 20
98.772264123
 30
0.0
 10
654.158741552
 20
98.7946535243
 30
0.0
 10
654.2062869862
 20
98.8341698338
 30
0.0
 10
654.2621440188
 20
98.8307961258
 30
0.0
 10
654.2906149534
 20
98.8231673618
 30
0.0
  0
SPLINE
  5
767
100
AcDbEntity
  8
0
100
AcDbSpline
 62
7
  6
CONTINUOUS
 70
0
 71
3
 72
9
 73
5
 74
0
 42
0.0000001
 43
0.0000001
 44
0.0000000001
 40
0.0
 40
0.0
 40
0.0
 40
0.0
 40
0.5597866015
 40
1.0
 40
1.0
 40
1.0
 40
1.0
 10
654.4934593769
 20
98.7688153624
 30
0.0
 10
654.5219303114
 20
98.7611865985
 30
0.0
 10
654.5719907747
 20
98.736179799
 30
0.0
 10
654.5934081738
 20
98.678184954
 30
0.0
 10
654.5874089518
 20
98.6557955527
 30
0.0
  0
SPLINE
  5
768
100
AcDbEntity
  8
0
100
AcDbSpline
 62
7
  6
CONTINUOUS
 70
0
 71
3
 72
9
 73
5
 74
0
 42
0.0000001
 43
0.0000001
 44
0.0000000001
 40
0.0
 40
0.0
 40
0.0
 40
0.0
 40
0.5597866015
 40
1.0
 40
1.0
 40
1.0
 40
1.0
 10
654.8007777512
 20
98.4668544099
 30
0.0
 10
654.8292486857
 20
98.459225646
 30
0.0
 10
654.8851057183
 20
98.4558519379
 30
0.0
 10
654.9326511526
 20
98.4953682474
 30
0.0
 10
654.9386503746
 20
98.5177576487
 30
0.0
  0
SPLINE
  5
769
100
AcDbEntity
  8
0
100
AcDbSpline
 62
7
  6
CONTINUOUS
 70
0
 71
3
 72
11
 73
7
 74
0
 42
0.0000001
 43
0.0000001
 44
0.0000000001
 40
0.0
 40
0.0
 40
0.0
 40
0.0
 40
0.2876567391
 40
0.555407049
 40
0.7907201247
 40
1.0
 40
1.0
 40
1.0
 40
1.0
 10
655.418452493
 20
99.7288480364
 30
0.0
 10
655.4557347428
 20
99.7188582877
 30
0.0
 10
655.5254638934
 20
99.6895558698
 30
0.0
 10
655.6090752292
 20
99.6214828685
 30
0.0
 10
655.658413469
 20
99.5364162642
 30
0.0
 10
655.6605943058
 20
99.473422593
 30
0.0
 10
655.6533264303
 20
99.4462985123
 30
0.0
  0
SPLINE
  5
76A
100
AcDbEntity
  8
0
100
AcDbSpline
 62
7
  6
CONTINUOUS
 70
0
 71
3
 72
9
 73
5
 74
0
 42
0.0000001
 43
0.0000001
 44
0.0000000001
 40
0.0
 40
0.0
 40
0.0
 40
0.0
 40
0.5531686664
 40
1.0
 40
1.0
 40
1.0
 40
1.0
 10
654.9447815774
 20
97.6515259881
 30
0.0
 10
654.9974641721
 20
97.6257113726
 30
0.0
 10
655.0876378526
 20
97.5594700113
 30
0.0
 10
655.1165536269
 20
97.4430351381
 30
0.0
 10
655.1042883246
 20
97.3972604066
 30
0.0
  0
SPLINE
  5
76B
100
AcDbEntity
  8
0
100
AcDbSpline
 62
7
  6
CONTINUOUS
 70
0
 71
3
 72
9
 73
5
 74
0
 42
0.0000001
 43
0.0000001
 44
0.0000000001
 40
0.0
 40
0.0
 40
0.0
 40
0.0
 40
0.4575243679
 40
1.0
 40
1.0
 40
1.0
 40
1.0
 10
653.0758440894
 20
97.9407804013
 30
0.0
 10
653.0856296809
 20
97.9773007261
 30
0.0
 10
653.1411640289
 20
98.0484469875
 30
0.0
 10
653.2237970965
 20
98.0738600259
 30
0.0
 10
653.2682810581
 20
98.0794094499
 30
0.0
  0
SPLINE
  5
76C
100
AcDbEntity
  8
0
100
AcDbSpline
 62
7
  6
CONTINUOUS
 70
0
 71
3
 72
8
 73
4
 74
0
 42
0.0000001
 43
0.0000001
 44
0.0000000001
 40
0.0
 40
0.0
 40
0.0
 40
0.0
 40
1.0
 40
1.0
 40
1.0
 40
1.0
 10
653.2682810581
 20
98.0794094499
 30
0.0
 10
653.3187791747
 20
98.0857091465
 30
0.0
 10
653.3713701204
 20
98.0812096823
 30
0.0
 10
653.4205256478
 20
98.0680384984
 30
0.0
  0
SPLINE
  5
76D
100
AcDbEntity
  8
0
100
AcDbSpline
 62
7
  6
CONTINUOUS
 70
0
 71
3
 72
11
 73
7
 74
0
 42
0.0000001
 43
0.0000001
 44
0.0000000001
 40
0.0
 40
0.0
 40
0.0
 40
0.0
 40
0.2092798753
 40
0.444592951
 40
0.7123432609
 40
1.0
 40
1.0
 40
1.0
 40
1.0
 10
653.6248821951
 20
99.989818507
 30
0.0
 10
653.6321500706
 20
100.0169425877
 30
0.0
 10
653.6655355662
 20
100.0704062888
 30
0.0
 10
653.7507970374
 20
100.1194070093
 30
0.0
 10
653.857243079
 20
100.1365542898
 30
0.0
 10
653.9322815037
 20
100.1270663528
 30
0.0
 10
653.9695637535
 20
100.1170766041
 30
0.0
  0
SPLINE
  5
76E
100
AcDbEntity
  8
RUNDUNGEN
100
AcDbSpline
 62
7
  6
CONTINUOUS
 70
0
 71
3
 72
11
 73
7
 74
0
 42
0.0000001
 43
0.0000001
 44
0.0000000001
 40
0.0
 40
0.0
 40
0.0
 40
0.0
 40
0.2660806488
 40
0.5190943636
 40
0.7622194616
 40
1.0
 40
1.0
 40
1.0
 40
1.0
 10
676.2534493299
 20
65.1707642178
 30
0.0
 10
675.9533407749
 20
65.6965029122
 30
0.0
 10
675.4475536968
 20
66.7711426343
 30
0.0
 10
675.0008040046
 20
68.4573370311
 30
0.0
 10
674.8995626878
 20
70.1354516824
 30
0.0
 10
675.06772481
 20
71.226722803
 30
0.0
 10
675.2077403812
 20
71.7492679545
 30
0.0
  0
SPLINE
  5
76F
100
AcDbEntity
  8
0
100
AcDbSpline
 62
7
  6
CONTINUOUS
 70
0
 71
3
 72
9
 73
5
 74
0
 42
0.0000001
 43
0.0000001
 44
0.0000000001
 40
0.0
 40
0.0
 40
0.0
 40
0.0
 40
0.538986273
 40
1.0
 40
1.0
 40
1.0
 40
1.0
 10
655.8043462738
 20
94.7939127795
 30
0.0
 10
655.9141308142
 20
94.7644961006
 30
0.0
 10
656.1304225566
 20
94.7478481507
 30
0.0
 10
656.3384438468
 20
94.8350705189
 30
0.0
 10
656.4075717981
 20
94.9034232425
 30
0.0
  0
SPLINE
  5
770
100
AcDbEntity
  8
0
100
AcDbSpline
 62
7
  6
CONTINUOUS
 70
0
 71
3
 72
9
 73
5
 74
0
 42
0.0000001
 43
0.0000001
 44
0.0000000001
 40
0.0
 40
0.0
 40
0.0
 40
0.0
 40
0.2592261758
 40
1.0
 40
1.0
 40
1.0
 40
1.0
 10
656.4075717981
 20
94.9034232425
 30
0.0
 10
656.4180025118
 20
94.9137369821
 30
0.0
 10
656.4558176303
 20
94.9558639589
 30
0.0
 10
656.482860211
 20
95.0079392836
 30
0.0
 10
656.4937093908
 20
95.0484289736
 30
0.0
  0
SPLINE
  5
771
100
AcDbEntity
  8
RUNDUNGEN
100
AcDbSpline
 62
7
  6
CONTINUOUS
 70
0
 71
3
 72
11
 73
7
 74
0
 42
0.0000001
 43
0.0000001
 44
0.0000000001
 40
0.0
 40
0.0
 40
0.0
 40
0.0
 40
0.2297109937
 40
0.4842558728
 40
0.7475644511
 40
1.0
 40
1.0
 40
1.0
 40
1.0
 10
693.1676775126
 20
96.8140227413
 30
0.0
 10
692.6778152898
 20
96.5279895539
 30
0.0
 10
691.5090924867
 20
96.1520894339
 30
0.0
 10
689.6397821902
 20
96.1615649721
 30
0.0
 10
687.7883575385
 20
96.685585726
 30
0.0
 10
686.6846217072
 20
97.3659272334
 30
0.0
 10
686.2165981926
 20
97.777689721
 30
0.0
  0
SPLINE
  5
772
100
AcDbEntity
  8
0
100
AcDbSpline
 62
7
  6
CONTINUOUS
 70
0
 71
3
 72
9
 73
5
 74
0
 42
0.0000001
 43
0.0000001
 44
0.0000000001
 40
0.0
 40
0.0
 40
0.0
 40
0.0
 40
0.4402133985
 40
1.0
 40
1.0
 40
1.0
 40
1.0
 10
654.4959026009
 20
98.3142892018
 30
0.0
 10
654.5019018228
 20
98.3366786031
 30
0.0
 10
654.4804844237
 20
98.3946734481
 30
0.0
 10
654.4304239605
 20
98.4196802475
 30
0.0
 10
654.4019530259
 20
98.4273090114
 30
0.0
  0
SPLINE
  5
773
100
AcDbEntity
  8
RUNDUNGEN
100
AcDbSpline
 62
7
  6
CONTINUOUS
 70
0
 71
3
 72
11
 73
7
 74
0
 42
0.0000001
 43
0.0000001
 44
0.0000000001
 40
0.0
 40
0.0
 40
0.0
 40
0.0
 40
0.2524375529
 40
0.5157480446
 40
0.7702932073
 40
1.0
 40
1.0
 40
1.0
 40
1.0
 10
656.0558278402
 20
109.3023179462
 30
0.0
 10
655.4446214899
 20
109.1797319555
 30
0.0
 10
654.1485772576
 20
109.1424080475
 30
0.0
 10
652.2831770567
 20
109.6143135089
 30
0.0
 10
650.6595776629
 20
110.540768377
 30
0.0
 10
649.8353944688
 20
111.4506634115
 30
0.0
 10
649.5541830755
 20
111.9432975209
 30
0.0
  0
SPLINE
  5
774
100
AcDbEntity
  8
KONSTRUKTIONSELEMENTE
100
AcDbSpline
 62
7
  6
CONTINUOUS
 70
0
 71
3
 72
9
 73
5
 74
0
 42
0.0000001
 43
0.0000001
 44
0.0000000001
 40
0.0
 40
0.0
 40
0.0
 40
0.0
 40
0.2519249475
 40
1.0
 40
1.0
 40
1.0
 40
1.0
 10
685.4914556286
 20
145.9426908499
 30
0.0
 10
686.0362143136
 20
145.6882644459
 30
0.0
 10
688.1715378686
 20
144.6224061828
 30
0.0
 10
690.1974578805
 20
143.3294201239
 30
0.0
 10
691.6022103228
 20
142.2275264542
 30
0.0
  0
SPLINE
  5
775
100
AcDbEntity
  8
RUNDUNGEN
100
AcDbSpline
 62
7
  6
CONTINUOUS
 70
0
 71
3
 72
15
 73
11
 74
0
 42
0.0000001
 43
0.0000001
 44
0.0000000001
 40
0.0
 40
0.0
 40
0.0
 40
0.0
 40
0.0506580437
 40
0.0823029949
 40
0.1197229212
 40
0.2136507622
 40
0.3333912895
 40
0.4767107866
 40
0.6395049098
 40
1.0
 40
1.0
 40
1.0
 40
1.0
 10
707.6759588201
 20
142.7689853616
 30
0.0
 10
707.6971828537
 20
142.8481945334
 30
0.0
 10
707.6764204483
 20
142.9911314567
 30
0.0
 10
707.5826728381
 20
143.1604888075
 30
0.0
 10
707.4182529992
 20
143.3685800004
 30
0.0
 10
707.1070141418
 20
143.6341916491
 30
0.0
 10
706.6203940556
 20
143.9473096708
 30
0.0
 10
706.0067658448
 20
144.2635014394
 30
0.0
 10
705.0136887139
 20
144.6870364713
 30
0.0
 10
704.2050411306
 20
144.9473213277
 30
0.0
 10
703.6413691953
 20
145.0983567675
 30
0.0
  0
SPLINE
  5
776
100
AcDbEntity
  8
KONSTRUKTIONSELEMENTE
100
AcDbSpline
 62
7
  6
CONTINUOUS
 70
0
 71
3
 72
9
 73
5
 74
0
 42
0.0000001
 43
0.0000001
 44
0.0000000001
 40
0.0
 40
0.0
 40
0.0
 40
0.0
 40
0.2481912135
 40
1.0
 40
1.0
 40
1.0
 40
1.0
 10
666.2677318006
 20
149.0158795149
 30
0.0
 10
666.8541913587
 20
149.0994577013
 30
0.0
 10
669.2279521328
 20
149.3581863905
 30
0.0
 10
671.6296925931
 20
149.3332420372
 30
0.0
 10
673.4173828
 20
149.1779289137
 30
0.0
  0
SPLINE
  5
777
100
AcDbEntity
  8
KONSTRUKTIONSELEMENTE
100
AcDbSpline
 62
7
  6
CONTINUOUS
 70
0
 71
3
 72
11
 73
7
 74
0
 42
0.0000001
 43
0.0000001
 44
0.0000000001
 40
0.0
 40
0.0
 40
0.0
 40
0.0
 40
0.2498418809
 40
0.4997992424
 40
0.7498631476
 40
1.0
 40
1.0
 40
1.0
 40
1.0
 10
663.6636920213
 20
145.9483304027
 30
0.0
 10
663.7525272789
 20
146.2798680976
 30
0.0
 10
664.0195768861
 20
146.9221613817
 30
0.0
 10
664.6360604273
 20
147.7571847958
 30
0.0
 10
665.3996494255
 20
148.4565560567
 30
0.0
 10
665.9718192365
 20
148.8411710637
 30
0.0
 10
666.2677318006
 20
149.0158795149
 30
0.0
  0
SPLINE
  5
778
100
AcDbEntity
  8
KONSTRUKTIONSELEMENTE
100
AcDbSpline
 62
7
  6
CONTINUOUS
 70
0
 71
3
 72
9
 73
5
 74
0
 42
0.0000001
 43
0.0000001
 44
0.0000000001
 40
0.0
 40
0.0
 40
0.0
 40
0.0
 40
0.5001839413
 40
1.0
 40
1.0
 40
1.0
 40
1.0
 10
661.0537440804
 20
139.0249253294
 30
0.0
 10
661.3973185588
 20
139.454664307
 30
0.0
 10
662.0236485647
 20
140.3664962308
 30
0.0
 10
662.4439310759
 20
141.3961205811
 30
0.0
 10
662.5862283366
 20
141.9271811878
 30
0.0
  0
SPLINE
  5
779
100
AcDbEntity
  8
KONSTRUKTIONSELEMENTE
100
AcDbSpline
 62
7
  6
CONTINUOUS
 70
0
 71
3
 72
9
 73
5
 74
0
 42
0.0000001
 43
0.0000001
 44
0.0000000001
 40
0.0
 40
0.0
 40
0.0
 40
0.0
 40
0.4998160587
 40
1.0
 40
1.0
 40
1.0
 40
1.0
 10
691.2461366833
 20
134.2477818912
 30
0.0
 10
691.1038394226
 20
133.7167212845
 30
0.0
 10
690.9530025789
 20
132.6148991852
 30
0.0
 10
691.0395043132
 20
131.5120645722
 30
0.0
 10
691.1221790508
 20
130.9681124614
 30
0.0
  0
SPLINE
  5
77A
100
AcDbEntity
  8
KONSTRUKTIONSELEMENTE
100
AcDbSpline
 62
7
  6
CONTINUOUS
 70
0
 71
3
 72
11
 73
7
 74
0
 42
0.0000001
 43
0.0000001
 44
0.0000000001
 40
0.0
 40
0.0
 40
0.0
 40
0.0
 40
0.2501369337
 40
0.5002009564
 40
0.7501583912
 40
1.0
 40
1.0
 40
1.0
 40
1.0
 10
691.6022103228
 20
142.2275264542
 30
0.0
 10
691.7711239499
 20
141.9282681179
 30
0.0
 10
692.0743301471
 20
141.3090965965
 30
0.0
 10
692.3859320614
 20
140.3216284334
 30
0.0
 10
692.5023104127
 20
139.2902352413
 30
0.0
 10
692.4124355289
 20
138.6004684398
 30
0.0
 10
692.323600368
 20
138.268931106
 30
0.0
  0
SPLINE
  5
77B
100
AcDbEntity
  8
KONSTRUKTIONSELEMENTE
100
AcDbSpline
 62
7
  6
CONTINUOUS
 70
0
 71
3
 72
9
 73
5
 74
0
 42
0.0000001
 43
0.0000001
 44
0.0000000001
 40
0.0
 40
0.0
 40
0.0
 40
0.0
 40
0.7206016381
 40
1.0
 40
1.0
 40
1.0
 40
1.0
 10
690.9706227793
 20
116.5148553162
 30
0.0
 10
690.9917939248
 20
116.5091825249
 30
0.0
 10
691.025506711
 20
116.5140292289
 30
0.0
 10
691.0506404714
 20
116.5311482837
 30
0.0
 10
691.0573370331
 20
116.5363805117
 30
0.0
  0
SPLINE
  5
77C
100
AcDbEntity
  8
KONSTRUKTIONSELEMENTE
100
AcDbSpline
 62
7
  6
CONTINUOUS
 70
0
 71
3
 72
18
 73
14
 74
0
 42
0.0000001
 43
0.0000001
 44
0.0000000001
 40
0.0
 40
0.0
 40
0.0
 40
0.0
 40
0.0122889573
 40
0.0325889573
 40
0.0613346189
 40
0.0984327877
 40
0.1435860424
 40
0.1963596956
 40
0.3225785801
 40
0.4720017517
 40
0.6387680168
 40
0.8167334978
 40
1.0
 40
1.0
 40
1.0
 40
1.0
 10
691.0573370331
 20
116.5363805117
 30
0.0
 10
691.1042491786
 20
116.5730344029
 30
0.0
 10
691.182061986
 20
116.7189285624
 30
0.0
 10
691.2711398325
 20
116.9992767477
 30
0.0
 10
691.3582129899
 20
117.4094832143
 30
0.0
 10
691.4399971139
 20
117.9404625568
 30
0.0
 10
691.5148274679
 20
118.5906504017
 30
0.0
 10
691.6076951388
 20
119.6725520291
 30
0.0
 10
691.6856853331
 20
121.2622418404
 30
0.0
 10
691.7098565235
 20
123.4057733212
 30
0.0
 10
691.6446909968
 20
125.799502196
 30
0.0
 10
691.4658133981
 20
128.3519384642
 30
0.0
 10
691.2555875948
 20
130.0903611527
 30
0.0
 10
691.1221790508
 20
130.9681124614
 30
0.0
  0
SPLINE
  5
77D
100
AcDbEntity
  8
RUNDUNGEN
100
AcDbSpline
 62
7
  6
CONTINUOUS
 70
0
 71
3
 72
9
 73
5
 74
0
 42
0.0000001
 43
0.0000001
 44
0.0000000001
 40
0.0
 40
0.0
 40
0.0
 40
0.0
 40
0.4924379896
 40
1.0
 40
1.0
 40
1.0
 40
1.0
 10
673.082047018
 20
169.9660652244
 30
0.0
 10
672.2102593803
 20
170.1996600179
 30
0.0
 10
670.423719502
 20
170.6106386985
 30
0.0
 10
668.6415569774
 20
171.0394039401
 30
0.0
 10
667.7429945281
 20
171.2801730227
 30
0.0
  0
SPLINE
  5
77E
100
AcDbEntity
  8
KONSTRUKTIONSELEMENTE
100
AcDbSpline
 62
7
  6
CONTINUOUS
 70
0
 71
3
 72
18
 73
14
 74
0
 42
0.0000001
 43
0.0000001
 44
0.0000000001
 40
0.0
 40
0.0
 40
0.0
 40
0.0
 40
0.1832665022
 40
0.3612319832
 40
0.5279982483
 40
0.6774214199
 40
0.8036403044
 40
0.8564139576
 40
0.9015672123
 40
0.9386653811
 40
0.9674110427
 40
0.9877110427
 40
1.0
 40
1.0
 40
1.0
 40
1.0
 10
661.0537440804
 20
139.0249253294
 30
0.0
 10
660.4993332378
 20
138.3314746698
 30
0.0
 10
659.4480610074
 20
136.9310693608
 30
0.0
 10
658.0169303287
 20
134.8100335103
 30
0.0
 10
656.7636308897
 20
132.7695862583
 30
0.0
 10
655.7127980143
 20
130.9011479469
 30
0.0
 10
654.985494598
 20
129.485441089
 30
0.0
 10
654.5249695466
 20
128.5020529598
 30
0.0
 10
654.2646806116
 20
127.9015585919
 30
0.0
 10
654.0700180694
 20
127.4008249304
 30
0.0
 10
653.9403224024
 20
127.0020391309
 30
0.0
 10
653.8772919878
 20
126.7147115572
 30
0.0
 10
653.8717327759
 20
126.5494571052
 30
0.0
 10
653.8940329401
 20
126.4942578315
 30
0.0
  0
SPLINE
  5
77F
100
AcDbEntity
  8
KONSTRUKTIONSELEMENTE
100
AcDbSpline
 62
7
  6
CONTINUOUS
 70
0
 71
3
 72
9
 73
5
 74
0
 42
0.0000001
 43
0.0000001
 44
0.0000000001
 40
0.0
 40
0.0
 40
0.0
 40
0.0
 40
0.2793983619
 40
1.0
 40
1.0
 40
1.0
 40
1.0
 10
653.8940329401
 20
126.4942578315
 30
0.0
 10
653.8972162187
 20
126.4863783083
 30
0.0
 10
653.9104231662
 20
126.4589858917
 30
0.0
 10
653.9371959435
 20
126.4379321298
 30
0.0
 10
653.958367089
 20
126.4322593384
 30
0.0
  0
SPLINE
  5
780
100
AcDbEntity
  8
RUNDUNGEN
100
AcDbSpline
 62
7
  6
CONTINUOUS
 70
0
 71
3
 72
15
 73
11
 74
0
 42
0.0000001
 43
0.0000001
 44
0.0000000001
 40
0.0
 40
0.0
 40
0.0
 40
0.0
 40
0.0506580437
 40
0.0823029949
 40
0.1197229212
 40
0.2136507622
 40
0.3333912895
 40
0.4767107866
 40
0.6395049098
 40
1.0
 40
1.0
 40
1.0
 40
1.0
 10
652.6181867216
 20
157.5216709324
 30
0.0
 10
652.6394107552
 20
157.6008801043
 30
0.0
 10
652.7288599874
 20
157.7142859082
 30
0.0
 10
652.8947264748
 20
157.8140798713
 30
0.0
 10
653.1411638287
 20
157.9120822112
 30
0.0
 10
653.5435104102
 20
157.9864892178
 30
0.0
 10
654.1214947776
 20
158.0143473359
 30
0.0
 10
654.811008281
 20
157.9813633345
 30
0.0
 10
655.8828058202
 20
157.8516168661
 30
0.0
 10
656.7132575982
 20
157.6727063723
 30
0.0
 10
657.2769295335
 20
157.5216709324
 30
0.0
  0
SPLINE
  5
781
100
AcDbEntity
  8
RUNDUNGEN
100
AcDbSpline
 62
7
  6
CONTINUOUS
 70
0
 71
3
 72
9
 73
5
 74
0
 42
0.0000001
 43
0.0000001
 44
0.0000000001
 40
0.0
 40
0.0
 40
0.0
 40
0.0
 40
0.2404036222
 40
1.0
 40
1.0
 40
1.0
 40
1.0
 10
707.784370169
 20
160.3188356067
 30
0.0
 10
707.6441817459
 20
160.4095072909
 30
0.0
 10
707.0412059261
 20
160.7558135656
 30
0.0
 10
706.3750519915
 20
160.9856617839
 30
0.0
 10
705.8607228309
 20
161.1029122512
 30
0.0
  0
SPLINE
  5
782
100
AcDbEntity
  8
RUNDUNGEN
100
AcDbSpline
 62
7
  6
CONTINUOUS
 70
0
 71
3
 72
9
 73
5
 74
0
 42
0.0000001
 43
0.0000001
 44
0.0000000001
 40
0.0
 40
0.0
 40
0.0
 40
0.0
 40
0.2515165758
 40
1.0
 40
1.0
 40
1.0
 40
1.0
 10
664.977226129
 20
172.0212584317
 30
0.0
 10
664.8407246878
 20
172.0578338835
 30
0.0
 10
664.2988423152
 20
172.2063671008
 30
0.0
 10
663.760374831
 20
172.3671280356
 30
0.0
 10
663.3585743669
 20
172.491271834
 30
0.0
  0
SPLINE
  5
783
100
AcDbEntity
  8
RUNDUNGEN
100
AcDbSpline
 62
7
  6
CONTINUOUS
 70
0
 71
3
 72
9
 73
5
 74
0
 42
0.0000001
 43
0.0000001
 44
0.0000000001
 40
0.0
 40
0.0
 40
0.0
 40
0.0
 40
0.2478013891
 40
1.0
 40
1.0
 40
1.0
 40
1.0
 10
705.8607228391
 20
161.1029122492
 30
0.0
 10
705.7248536258
 20
161.1338541714
 30
0.0
 10
705.1769200861
 20
161.2602923931
 30
0.0
 10
704.631086479
 20
161.3960385742
 30
0.0
 10
704.2225102543
 20
161.5055162436
 30
0.0
  0
SPLINE
  5
784
100
AcDbEntity
  8
RUNDUNGEN
100
AcDbSpline
 62
7
  6
CONTINUOUS
 70
0
 71
3
 72
15
 73
11
 74
0
 42
0.0000001
 43
0.0000001
 44
0.0000000001
 40
0.0
 40
0.0
 40
0.0
 40
0.0
 40
0.0506580437
 40
0.0823029949
 40
0.1197229212
 40
0.2136507622
 40
0.3333912895
 40
0.4767107866
 40
0.6395049098
 40
1.0
 40
1.0
 40
1.0
 40
1.0
 10
706.1517805174
 20
137.0806744962
 30
0.0
 10
706.173004551
 20
137.159883668
 30
0.0
 10
706.1522421456
 20
137.3028205913
 30
0.0
 10
706.0584945354
 20
137.4721779421
 30
0.0
 10
705.8940746965
 20
137.680269135
 30
0.0
 10
705.5828358391
 20
137.9458807837
 30
0.0
 10
705.0962157529
 20
138.2589988054
 30
0.0
 10
704.4825875421
 20
138.575190574
 30
0.0
 10
703.4895104112
 20
138.9987256059
 30
0.0
 10
702.6808628279
 20
139.2590104622
 30
0.0
 10
702.1171908927
 20
139.4100459021
 30
0.0
  0
SPLINE
  5
785
100
AcDbEntity
  8
RUNDUNGEN
100
AcDbSpline
 62
7
  6
CONTINUOUS
 70
0
 71
3
 72
9
 73
5
 74
0
 42
0.0000001
 43
0.0000001
 44
0.0000000001
 40
0.0
 40
0.0
 40
0.0
 40
0.0
 40
0.5075627293
 40
1.0
 40
1.0
 40
1.0
 40
1.0
 10
701.4567420775
 20
162.246601593
 30
0.0
 10
700.5581961384
 20
162.4873662518
 30
0.0
 10
698.800449603
 20
163.0071132892
 30
0.0
 10
697.047807337
 20
163.544459101
 30
0.0
 10
696.1760382249
 20
163.7780489306
 30
0.0
  0
SPLINE
  5
786
100
AcDbEntity
  8
RUNDUNGEN
100
AcDbSpline
 62
7
  6
CONTINUOUS
 70
0
 71
3
 72
15
 73
11
 74
0
 42
0.0000001
 43
0.0000001
 44
0.0000000001
 40
0.0
 40
0.0
 40
0.0
 40
0.0
 40
0.3604950902
 40
0.5232892134
 40
0.6666087105
 40
0.7863492378
 40
0.8802770788
 40
0.9176970051
 40
0.9493419563
 40
1.0
 40
1.0
 40
1.0
 40
1.0
 10
655.7527512308
 20
151.833360067
 30
0.0
 10
655.1890792955
 20
151.9843955069
 30
0.0
 10
654.3586275175
 20
152.1633060007
 30
0.0
 10
653.2868299783
 20
152.2930524691
 30
0.0
 10
652.597316475
 20
152.3260364705
 30
0.0
 10
652.0193321075
 20
152.2981783524
 30
0.0
 10
651.616985526
 20
152.2237713458
 30
0.0
 10
651.3705481721
 20
152.1257690058
 30
0.0
 10
651.2046816847
 20
152.0259750428
 30
0.0
 10
651.1152324526
 20
151.9125692388
 30
0.0
 10
651.0940084189
 20
151.833360067
 30
0.0
  0
SPLINE
  5
787
100
AcDbEntity
  8
RUNDUNGEN
100
AcDbSpline
 62
7
  6
CONTINUOUS
 70
0
 71
3
 72
9
 73
5
 74
0
 42
0.0000001
 43
0.0000001
 44
0.0000000001
 40
0.0
 40
0.0
 40
0.0
 40
0.0
 40
0.259310087
 40
1.0
 40
1.0
 40
1.0
 40
1.0
 10
663.3585743669
 20
172.491271834
 30
0.0
 10
663.1864382543
 20
172.5444565184
 30
0.0
 10
662.515534822
 20
172.7242273168
 30
0.0
 10
661.813189594
 20
172.800476545
 30
0.0
 10
661.299224862
 20
172.7744927518
 30
0.0
  0
SPLINE
  5
788
100
AcDbEntity
  8
0
100
AcDbSpline
 62
7
  6
CONTINUOUS
 70
0
 71
3
 72
9
 73
5
 74
0
 42
0.0000001
 43
0.0000001
 44
0.0000000001
 40
0.0
 40
0.0
 40
0.0
 40
0.0
 40
0.7206016381
 40
1.0
 40
1.0
 40
1.0
 40
1.0
 10
818.3084607291
 20
116.5148553162
 30
0.0
 10
818.2872895836
 20
116.5091825249
 30
0.0
 10
818.2535767974
 20
116.5140292289
 30
0.0
 10
818.228443037
 20
116.5311482837
 30
0.0
 10
818.2217464753
 20
116.5363805117
 30
0.0
  0
SPLINE
  5
789
100
AcDbEntity
  8
0
100
AcDbSpline
 62
7
  6
CONTINUOUS
 70
0
 71
3
 72
18
 73
14
 74
0
 42
0.0000001
 43
0.0000001
 44
0.0000000001
 40
0.0
 40
0.0
 40
0.0
 40
0.0
 40
0.0122889573
 40
0.0325889573
 40
0.0613346189
 40
0.0984327877
 40
0.1435860424
 40
0.1963596956
 40
0.3225785801
 40
0.4720017517
 40
0.6387680168
 40
0.8167334978
 40
1.0
 40
1.0
 40
1.0
 40
1.0
 10
818.2217464753
 20
116.5363805117
 30
0.0
 10
818.1748343298
 20
116.5730344029
 30
0.0
 10
818.0970215224
 20
116.7189285624
 30
0.0
 10
818.0079436759
 20
116.9992767477
 30
0.0
 10
817.9208705185
 20
117.4094832143
 30
0.0
 10
817.8390863945
 20
117.9404625568
 30
0.0
 10
817.7642560405
 20
118.5906504017
 30
0.0
 10
817.6713883696
 20
119.6725520291
 30
0.0
 10
817.5933981753
 20
121.2622418404
 30
0.0
 10
817.5692269849
 20
123.4057733212
 30
0.0
 10
817.6343925116
 20
125.799502196
 30
0.0
 10
817.8132701103
 20
128.3519384642
 30
0.0
 10
818.0234959136
 20
130.0903611527
 30
0.0
 10
818.1569044576
 20
130.9681124614
 30
0.0
  0
SPLINE
  5
78A
100
AcDbEntity
  8
0
100
AcDbSpline
 62
7
  6
CONTINUOUS
 70
0
 71
3
 72
18
 73
14
 74
0
 42
0.0000001
 43
0.0000001
 44
0.0000000001
 40
0.0
 40
0.0
 40
0.0
 40
0.0
 40
0.1832665022
 40
0.3612319832
 40
0.5279982483
 40
0.6774214199
 40
0.8036403044
 40
0.8564139576
 40
0.9015672123
 40
0.9386653811
 40
0.9674110427
 40
0.9877110427
 40
1.0
 40
1.0
 40
1.0
 40
1.0
 10
848.225339428
 20
139.0249253294
 30
0.0
 10
848.7797502706
 20
138.3314746698
 30
0.0
 10
849.831022501
 20
136.9310693608
 30
0.0
 10
851.2621531797
 20
134.8100335103
 30
0.0
 10
852.5154526187
 20
132.7695862583
 30
0.0
 10
853.5662854941
 20
130.9011479469
 30
0.0
 10
854.2935889104
 20
129.485441089
 30
0.0
 10
854.7541139618
 20
128.5020529598
 30
0.0
 10
855.0144028968
 20
127.9015585919
 30
0.0
 10
855.209065439
 20
127.4008249304
 30
0.0
 10
855.338761106
 20
127.0020391309
 30
0.0
 10
855.4017915206
 20
126.7147115572
 30
0.0
 10
855.4073507325
 20
126.5494571052
 30
0.0
 10
855.3850505683
 20
126.4942578315
 30
0.0
  0
SPLINE
  5
78B
100
AcDbEntity
  8
0
100
AcDbSpline
 62
7
  6
CONTINUOUS
 70
0
 71
3
 72
9
 73
5
 74
0
 42
0.0000001
 43
0.0000001
 44
0.0000000001
 40
0.0
 40
0.0
 40
0.0
 40
0.0
 40
0.2793983619
 40
1.0
 40
1.0
 40
1.0
 40
1.0
 10
855.3850505683
 20
126.4942578315
 30
0.0
 10
855.3818672897
 20
126.4863783083
 30
0.0
 10
855.3686603422
 20
126.4589858917
 30
0.0
 10
855.3418875649
 20
126.4379321298
 30
0.0
 10
855.3207164194
 20
126.4322593384
 30
0.0
  0
SPLINE
  5
78C
100
AcDbEntity
  8
0
100
AcDbSpline
 62
7
  6
CONTINUOUS
 70
0
 71
3
 72
9
 73
5
 74
0
 42
0.0000001
 43
0.0000001
 44
0.0000000001
 40
0.0
 40
0.0
 40
0.0
 40
0.0
 40
0.4998160587
 40
1.0
 40
1.0
 40
1.0
 40
1.0
 10
818.0329468251
 20
134.2477818912
 30
0.0
 10
818.1752440858
 20
133.7167212845
 30
0.0
 10
818.3260809295
 20
132.6148991852
 30
0.0
 10
818.2395791952
 20
131.5120645722
 30
0.0
 10
818.1569044576
 20
130.9681124614
 30
0.0
  0
SPLINE
  5
78D
100
AcDbEntity
  8
0
100
AcDbSpline
 62
7
  6
CONTINUOUS
 70
0
 71
3
 72
11
 73
7
 74
0
 42
0.0000001
 43
0.0000001
 44
0.0000000001
 40
0.0
 40
0.0
 40
0.0
 40
0.0
 40
0.2501369337
 40
0.5002009564
 40
0.7501583912
 40
1.0
 40
1.0
 40
1.0
 40
1.0
 10
817.6768731856
 20
142.2275264542
 30
0.0
 10
817.5079595585
 20
141.9282681179
 30
0.0
 10
817.2047533613
 20
141.3090965965
 30
0.0
 10
816.893151447
 20
140.3216284334
 30
0.0
 10
816.7767730957
 20
139.2902352413
 30
0.0
 10
816.8666479795
 20
138.6004684398
 30
0.0
 10
816.9554831404
 20
138.268931106
 30
0.0
  0
SPLINE
  5
78E
100
AcDbEntity
  8
0
100
AcDbSpline
 62
7
  6
CONTINUOUS
 70
0
 71
3
 72
11
 73
7
 74
0
 42
0.0000001
 43
0.0000001
 44
0.0000000001
 40
0.0
 40
0.0
 40
0.0
 40
0.0
 40
0.2498418809
 40
0.4997992424
 40
0.7498631476
 40
1.0
 40
1.0
 40
1.0
 40
1.0
 10
845.6153914871
 20
145.9483304027
 30
0.0
 10
845.5265562295
 20
146.2798680976
 30
0.0
 10
845.2595066223
 20
146.9221613817
 30
0.0
 10
844.6430230811
 20
147.7571847958
 30
0.0
 10
843.8794340829
 20
148.4565560567
 30
0.0
 10
843.3072642719
 20
148.8411710637
 30
0.0
 10
843.0113517078
 20
149.0158795149
 30
0.0
  0
SPLINE
  5
78F
100
AcDbEntity
  8
0
100
AcDbSpline
 62
7
  6
CONTINUOUS
 70
0
 71
3
 72
9
 73
5
 74
0
 42
0.0000001
 43
0.0000001
 44
0.0000000001
 40
0.0
 40
0.0
 40
0.0
 40
0.0
 40
0.5001839413
 40
1.0
 40
1.0
 40
1.0
 40
1.0
 10
848.225339428
 20
139.0249253294
 30
0.0
 10
847.8817649496
 20
139.454664307
 30
0.0
 10
847.2554349437
 20
140.3664962308
 30
0.0
 10
846.8351524326
 20
141.3961205811
 30
0.0
 10
846.6928551719
 20
141.9271811878
 30
0.0
  0
SPLINE
  5
790
100
AcDbEntity
  8
0
100
AcDbSpline
 62
7
  6
CONTINUOUS
 70
0
 71
3
 72
9
 73
5
 74
0
 42
0.0000001
 43
0.0000001
 44
0.0000000001
 40
0.0
 40
0.0
 40
0.0
 40
0.0
 40
0.2481912135
 40
1.0
 40
1.0
 40
1.0
 40
1.0
 10
843.0113517078
 20
149.0158795149
 30
0.0
 10
842.4248921497
 20
149.0994577013
 30
0.0
 10
840.0511313756
 20
149.3581863905
 30
0.0
 10
837.6493909153
 20
149.3332420372
 30
0.0
 10
835.8617007084
 20
149.1779289137
 30
0.0
  0
SPLINE
  5
791
100
AcDbEntity
  8
0
100
AcDbSpline
 62
7
  6
CONTINUOUS
 70
0
 71
3
 72
9
 73
5
 74
0
 42
0.0000001
 43
0.0000001
 44
0.0000000001
 40
0.0
 40
0.0
 40
0.0
 40
0.0
 40
0.2519249475
 40
1.0
 40
1.0
 40
1.0
 40
1.0
 10
823.7876278798
 20
145.9426908499
 30
0.0
 10
823.2428691948
 20
145.6882644459
 30
0.0
 10
821.1075456398
 20
144.6224061828
 30
0.0
 10
819.0816256279
 20
143.3294201239
 30
0.0
 10
817.6768731856
 20
142.2275264542
 30
0.0
  0
SPLINE
  5
792
100
AcDbEntity
  8
0
100
AcDbSpline
 62
7
  6
CONTINUOUS
 70
0
 71
3
 72
15
 73
11
 74
0
 42
0.0000001
 43
0.0000001
 44
0.0000000001
 40
0.0
 40
0.0
 40
0.0
 40
0.0
 40
0.0506580437
 40
0.0823029949
 40
0.1197229212
 40
0.2136507622
 40
0.3333912895
 40
0.4767107866
 40
0.6395049098
 40
1.0
 40
1.0
 40
1.0
 40
1.0
 10
803.127302991
 20
137.0806744962
 30
0.0
 10
803.1060789574
 20
137.159883668
 30
0.0
 10
803.1268413628
 20
137.3028205913
 30
0.0
 10
803.220588973
 20
137.4721779421
 30
0.0
 10
803.3850088119
 20
137.680269135
 30
0.0
 10
803.6962476693
 20
137.9458807837
 30
0.0
 10
804.1828677555
 20
138.2589988054
 30
0.0
 10
804.7964959663
 20
138.575190574
 30
0.0
 10
805.7895730972
 20
138.9987256059
 30
0.0
 10
806.5982206805
 20
139.2590104622
 30
0.0
 10
807.1618926158
 20
139.4100459021
 30
0.0
  0
SPLINE
  5
793
100
AcDbEntity
  8
0
100
AcDbSpline
 62
7
  6
CONTINUOUS
 70
0
 71
3
 72
9
 73
5
 74
0
 42
0.0000001
 43
0.0000001
 44
0.0000000001
 40
0.0
 40
0.0
 40
0.0
 40
0.0
 40
0.2404036222
 40
1.0
 40
1.0
 40
1.0
 40
1.0
 10
801.4947133394
 20
160.3188356067
 30
0.0
 10
801.6349017625
 20
160.4095072909
 30
0.0
 10
802.2378775823
 20
160.7558135656
 30
0.0
 10
802.9040315169
 20
160.9856617839
 30
0.0
 10
803.4183606775
 20
161.1029122512
 30
0.0
  0
SPLINE
  5
794
100
AcDbEntity
  8
0
100
AcDbSpline
 62
7
  6
CONTINUOUS
 70
0
 71
3
 72
9
 73
5
 74
0
 42
0.0000001
 43
0.0000001
 44
0.0000000001
 40
0.0
 40
0.0
 40
0.0
 40
0.0
 40
0.5075627293
 40
1.0
 40
1.0
 40
1.0
 40
1.0
 10
807.8223414309
 20
162.246601593
 30
0.0
 10
808.72088737
 20
162.4873662518
 30
0.0
 10
810.4786339054
 20
163.0071132892
 30
0.0
 10
812.2312761714
 20
163.544459101
 30
0.0
 10
813.1030452835
 20
163.7780489306
 30
0.0
  0
SPLINE
  5
795
100
AcDbEntity
  8
0
100
AcDbSpline
 62
7
  6
CONTINUOUS
 70
0
 71
3
 72
9
 73
5
 74
0
 42
0.0000001
 43
0.0000001
 44
0.0000000001
 40
0.0
 40
0.0
 40
0.0
 40
0.0
 40
0.4924379896
 40
1.0
 40
1.0
 40
1.0
 40
1.0
 10
836.1970364904
 20
169.9660652244
 30
0.0
 10
837.0688241281
 20
170.1996600179
 30
0.0
 10
838.8553640064
 20
170.6106386985
 30
0.0
 10
840.637526531
 20
171.0394039401
 30
0.0
 10
841.5360889803
 20
171.2801730227
 30
0.0
  0
SPLINE
  5
796
100
AcDbEntity
  8
0
100
AcDbSpline
 62
7
  6
CONTINUOUS
 70
0
 71
3
 72
15
 73
11
 74
0
 42
0.0000001
 43
0.0000001
 44
0.0000000001
 40
0.0
 40
0.0
 40
0.0
 40
0.0
 40
0.0506580437
 40
0.0823029949
 40
0.1197229212
 40
0.2136507622
 40
0.3333912895
 40
0.4767107866
 40
0.6395049098
 40
1.0
 40
1.0
 40
1.0
 40
1.0
 10
801.6031246883
 20
142.7689853616
 30
0.0
 10
801.5819006547
 20
142.8481945334
 30
0.0
 10
801.6026630601
 20
142.9911314567
 30
0.0
 10
801.6964106703
 20
143.1604888075
 30
0.0
 10
801.8608305092
 20
143.3685800004
 30
0.0
 10
802.1720693666
 20
143.6341916491
 30
0.0
 10
802.6586894528
 20
143.9473096708
 30
0.0
 10
803.2723176636
 20
144.2635014394
 30
0.0
 10
804.2653947945
 20
144.6870364713
 30
0.0
 10
805.0740423778
 20
144.9473213277
 30
0.0
 10
805.6377143131
 20
145.0983567675
 30
0.0
  0
SPLINE
  5
797
100
AcDbEntity
  8
0
100
AcDbSpline
 62
7
  6
CONTINUOUS
 70
0
 71
3
 72
9
 73
5
 74
0
 42
0.0000001
 43
0.0000001
 44
0.0000000001
 40
0.0
 40
0.0
 40
0.0
 40
0.0
 40
0.2478013891
 40
1.0
 40
1.0
 40
1.0
 40
1.0
 10
803.4183606693
 20
161.1029122492
 30
0.0
 10
803.5542298826
 20
161.1338541714
 30
0.0
 10
804.1021634223
 20
161.2602923931
 30
0.0
 10
804.6479970294
 20
161.3960385742
 30
0.0
 10
805.0565732541
 20
161.5055162436
 30
0.0
  0
SPLINE
  5
798
100
AcDbEntity
  8
0
100
AcDbSpline
 62
7
  6
CONTINUOUS
 70
0
 71
3
 72
9
 73
5
 74
0
 42
0.0000001
 43
0.0000001
 44
0.0000000001
 40
0.0
 40
0.0
 40
0.0
 40
0.0
 40
0.2515165758
 40
1.0
 40
1.0
 40
1.0
 40
1.0
 10
844.3018573794
 20
172.0212584317
 30
0.0
 10
844.4383588206
 20
172.0578338835
 30
0.0
 10
844.9802411932
 20
172.2063671008
 30
0.0
 10
845.5187086774
 20
172.3671280356
 30
0.0
 10
845.9205091415
 20
172.491271834
 30
0.0
  0
SPLINE
  5
799
100
AcDbEntity
  8
0
100
AcDbSpline
 62
7
  6
CONTINUOUS
 70
0
 71
3
 72
15
 73
11
 74
0
 42
0.0000001
 43
0.0000001
 44
0.0000000001
 40
0.0
 40
0.0
 40
0.0
 40
0.0
 40
0.0506580437
 40
0.0823029949
 40
0.1197229212
 40
0.2136507622
 40
0.3333912895
 40
0.4767107866
 40
0.6395049098
 40
1.0
 40
1.0
 40
1.0
 40
1.0
 10
856.6608967868
 20
157.5216709324
 30
0.0
 10
856.6396727532
 20
157.6008801043
 30
0.0
 10
856.550223521
 20
157.7142859082
 30
0.0
 10
856.3843570336
 20
157.8140798713
 30
0.0
 10
856.1379196797
 20
157.9120822112
 30
0.0
 10
855.7355730982
 20
157.9864892178
 30
0.0
 10
855.1575887308
 20
158.0143473359
 30
0.0
 10
854.4680752274
 20
157.9813633345
 30
0.0
 10
853.3962776882
 20
157.8516168661
 30
0.0
 10
852.5658259102
 20
157.6727063723
 30
0.0
 10
852.0021539749
 20
157.5216709324
 30
0.0
  0
SPLINE
  5
79A
100
AcDbEntity
  8
0
100
AcDbSpline
 62
7
  6
CONTINUOUS
 70
0
 71
3
 72
9
 73
5
 74
0
 42
0.0000001
 43
0.0000001
 44
0.0000000001
 40
0.0
 40
0.0
 40
0.0
 40
0.0
 40
0.259310087
 40
1.0
 40
1.0
 40
1.0
 40
1.0
 10
845.9205091415
 20
172.491271834
 30
0.0
 10
846.0926452541
 20
172.5444565184
 30
0.0
 10
846.7635486865
 20
172.7242273168
 30
0.0
 10
847.4658939144
 20
172.800476545
 30
0.0
 10
847.9798586464
 20
172.7744927518
 30
0.0
  0
SPLINE
  5
79B
100
AcDbEntity
  8
0
100
AcDbSpline
 62
7
  6
CONTINUOUS
 70
0
 71
3
 72
15
 73
11
 74
0
 42
0.0000001
 43
0.0000001
 44
0.0000000001
 40
0.0
 40
0.0
 40
0.0
 40
0.0
 40
0.3604950902
 40
0.5232892134
 40
0.6666087105
 40
0.7863492378
 40
0.8802770788
 40
0.9176970051
 40
0.9493419563
 40
1.0
 40
1.0
 40
1.0
 40
1.0
 10
853.5263322776
 20
151.833360067
 30
0.0
 10
854.0900042129
 20
151.9843955069
 30
0.0
 10
854.9204559909
 20
152.1633060007
 30
0.0
 10
855.9922535301
 20
152.2930524691
 30
0.0
 10
856.6817670334
 20
152.3260364705
 30
0.0
 10
857.2597514009
 20
152.2981783524
 30
0.0
 10
857.6620979824
 20
152.2237713458
 30
0.0
 10
857.9085353363
 20
152.1257690058
 30
0.0
 10
858.0744018237
 20
152.0259750428
 30
0.0
 10
858.1638510558
 20
151.9125692388
 30
0.0
 10
858.1850750895
 20
151.833360067
 30
0.0
  0
SPLINE
  5
79C
100
AcDbEntity
  8
KONSTRUKTIONSELEMENTE
100
AcDbSpline
 62
7
  6
CONTINUOUS
 70
0
 71
3
 72
11
 73
7
 74
0
 42
0.0000001
 43
0.0000001
 44
0.0000000001
 40
0.0
 40
0.0
 40
0.0
 40
0.0
 40
0.2193102634
 40
0.4447591571
 40
0.7096345186
 40
1.0
 40
1.0
 40
1.0
 40
1.0
 10
372.3623654618
 20
139.076303101
 30
0.0
 10
372.0964236789
 20
139.2421159316
 30
0.0
 10
371.540259661
 20
139.5534804577
 30
0.0
 10
370.5680243051
 20
139.8777874076
 30
0.0
 10
369.4198227897
 20
139.847190949
 30
0.0
 10
368.6900795045
 20
139.4389173183
 30
0.0
 10
368.3918946432
 20
139.1503698192
 30
0.0
  0
SPLINE
  5
79D
100
AcDbEntity
  8
KONSTRUKTIONSELEMENTE
100
AcDbSpline
 62
7
  6
CONTINUOUS
 70
0
 71
3
 72
25
 73
21
 74
0
 42
0.0000001
 43
0.0000001
 44
0.0000000001
 40
0.0
 40
0.0
 40
0.0
 40
0.0
 40
0.0139556627
 40
0.0215641577
 40
0.0229744644
 40
0.0230439997
 40
0.0271929754
 40
0.0360330942
 40
0.0489380107
 40
0.0654456056
 40
0.085103462
 40
0.1324479604
 40
0.1889354145
 40
0.2529517006
 40
0.323314794
 40
0.3989389876
 40
0.4788786837
 40
0.6480928262
 40
0.8241941934
 40
1.0
 40
1.0
 40
1.0
 40
1.0
 10
372.1124240928
 20
137.5894204997
 30
0.0
 10
372.1078888941
 20
137.6148903541
 30
0.0
 10
372.0948454329
 20
137.6634154449
 30
0.0
 10
372.0938135067
 20
137.6835451189
 30
0.0
 10
372.0807275757
 20
137.7156315407
 30
0.0
 10
372.0871633397
 20
137.7067853591
 30
0.0
 10
372.0922123418
 20
137.682993305
 30
0.0
 10
372.1151108316
 20
137.640287822
 30
0.0
 10
372.1454694248
 20
137.5764149151
 30
0.0
 10
372.1889247263
 20
137.4963752322
 30
0.0
 10
372.2651295307
 20
137.361663558
 30
0.0
 10
372.3856313906
 20
137.1668946295
 30
0.0
 10
372.5581545275
 20
136.9079168698
 30
0.0
 10
372.7634476267
 20
136.6196733341
 30
0.0
 10
372.9973339151
 20
136.3084243762
 30
0.0
 10
373.2566931832
 20
135.9795343832
 30
0.0
 10
373.6392146743
 20
135.5145655519
 30
0.0
 10
374.1577624225
 20
134.9205369524
 30
0.0
 10
374.8177580155
 20
134.2148876367
 30
0.0
 10
375.2790158683
 20
133.7533677405
 30
0.0
 10
375.5134224557
 20
133.5269483639
 30
0.0
  0
SPLINE
  5
79E
100
AcDbEntity
  8
KONSTRUKTIONSELEMENTE
100
AcDbSpline
 62
7
  6
CONTINUOUS
 70
0
 71
3
 72
17
 73
13
 74
0
 42
0.0000001
 43
0.0000001
 44
0.0000000001
 40
0.0
 40
0.0
 40
0.0
 40
0.0
 40
0.0672998635
 40
0.1329602329
 40
0.1944855734
 40
0.2504309869
 40
0.3502866628
 40
0.4545528348
 40
0.5743822025
 40
0.7091855667
 40
0.853565524
 40
1.0
 40
1.0
 40
1.0
 40
1.0
 10
368.3918946432
 20
139.1503698192
 30
0.0
 10
368.2198492464
 20
138.9838849455
 30
0.0
 10
367.9265149036
 20
138.6025613517
 30
0.0
 10
367.6764052456
 20
137.9478747167
 30
0.0
 10
367.6120145449
 20
137.2929449421
 30
0.0
 10
367.7061496198
 20
136.5205410752
 30
0.0
 10
368.0462905041
 20
135.6491873945
 30
0.0
 10
368.631644394
 20
134.6551937027
 30
0.0
 10
369.3756418628
 20
133.6158810995
 30
0.0
 10
370.271926253
 20
132.5144583947
 30
0.0
 10
371.285458652
 20
131.3889029161
 30
0.0
 10
372.0123893751
 20
130.6522094144
 30
0.0
 10
372.387062798
 20
130.2903026788
 30
0.0
  0
SPLINE
  5
79F
100
AcDbEntity
  8
KONSTRUKTIONSELEMENTE
100
AcDbSpline
 62
7
  6
CONTINUOUS
 70
0
 71
3
 72
13
 73
9
 74
0
 42
0.0000001
 43
0.0000001
 44
0.0000000001
 40
0.0
 40
0.0
 40
0.0
 40
0.0
 40
0.147827563
 40
0.2910391013
 40
0.5396303344
 40
0.6488307226
 40
0.7583173339
 40
1.0
 40
1.0
 40
1.0
 40
1.0
 10
390.1151923283
 20
117.3981097138
 30
0.0
 10
390.3059001061
 20
117.5826537987
 30
0.0
 10
390.6238816438
 20
118.0110906762
 30
0.0
 10
390.9338652104
 20
118.9439238959
 30
0.0
 10
390.8478511036
 20
119.8766915326
 30
0.0
 10
390.5490782598
 20
120.660695369
 30
0.0
 10
390.1805751455
 20
121.4018850768
 30
0.0
 10
389.8362132794
 20
121.9320836501
 30
0.0
 10
389.5873002801
 20
122.2874465756
 30
0.0
  0
SPLINE
  5
7A0
100
AcDbEntity
  8
KONSTRUKTIONSELEMENTE
100
AcDbSpline
 62
7
  6
CONTINUOUS
 70
0
 71
3
 72
19
 73
15
 74
0
 42
0.0000001
 43
0.0000001
 44
0.0000000001
 40
0.0
 40
0.0
 40
0.0
 40
0.0
 40
0.186931947
 40
0.3655432537
 40
0.5317545855
 40
0.6818380102
 40
0.7494939838
 40
0.8113676119
 40
0.866702645
 40
0.9144809375
 40
0.9535989404
 40
0.9694074678
 40
0.9823674488
 40
1.0
 40
1.0
 40
1.0
 40
1.0
 10
386.1200241735
 20
123.2817578355
 30
0.0
 10
386.2743689156
 20
123.132672263
 30
0.0
 10
386.5796161358
 20
122.8446602171
 30
0.0
 10
387.0339349277
 20
122.4368494612
 30
0.0
 10
387.4671169176
 20
122.0691570679
 30
0.0
 10
387.8120658415
 20
121.7945644102
 30
0.0
 10
388.0688679526
 20
121.6020783402
 30
0.0
 10
388.2415381059
 20
121.4783601437
 30
0.0
 10
388.3976082878
 20
121.3720457242
 30
0.0
 10
388.5366491893
 20
121.2831445461
 30
0.0
 10
388.6339411265
 20
121.2243328667
 30
0.0
 10
388.7083821122
 20
121.1839566681
 30
0.0
 10
388.7393553962
 20
121.1653291765
 30
0.0
 10
388.8210409319
 20
121.1300171231
 30
0.0
 10
388.801946578
 20
121.1367342974
 30
0.0
  0
SPLINE
  5
7A1
100
AcDbEntity
  8
KONSTRUKTIONSELEMENTE
100
AcDbSpline
 62
7
  6
CONTINUOUS
 70
0
 71
3
 72
9
 73
5
 74
0
 42
0.0000001
 43
0.0000001
 44
0.0000000001
 40
0.0
 40
0.0
 40
0.0
 40
0.0
 40
0.5263197575
 40
1.0
 40
1.0
 40
1.0
 40
1.0
 10
382.9936645158
 20
120.0451121504
 30
0.0
 10
383.3827520206
 20
119.6692824808
 30
0.0
 10
384.1398476072
 20
118.9734359835
 30
0.0
 10
384.9373954843
 20
118.3234456054
 30
0.0
 10
385.3281279262
 20
118.0330035192
 30
0.0
  0
SPLINE
  5
7A2
100
AcDbEntity
  8
KONSTRUKTIONSELEMENTE
100
AcDbSpline
 62
7
  6
CONTINUOUS
 70
0
 71
3
 72
14
 73
10
 74
0
 42
0.0000001
 43
0.0000001
 44
0.0000000001
 40
0.0
 40
0.0
 40
0.0
 40
0.0
 40
0.238355881
 40
0.3472682142
 40
0.4568467248
 40
0.5760006498
 40
0.7088709196
 40
0.852214807
 40
1.0
 40
1.0
 40
1.0
 40
1.0
 10
385.3590416595
 20
118.0100831865
 30
0.0
 10
385.6947274823
 20
117.7618364429
 30
0.0
 10
386.1982643895
 20
117.4171280075
 30
0.0
 10
386.9070999059
 20
117.0439084885
 30
0.0
 10
387.4581045888
 20
116.8243372957
 30
0.0
 10
388.0812776524
 20
116.6905864629
 30
0.0
 10
388.7814945742
 20
116.7007088608
 30
0.0
 10
389.50223347
 20
116.9207073845
 30
0.0
 10
389.9291679176
 20
117.2180976292
 30
0.0
 10
390.1151923283
 20
117.3981097138
 30
0.0
  0
SPLINE
  5
7A3
100
AcDbEntity
  8
KONSTRUKTIONSELEMENTE
100
AcDbSpline
 62
7
  6
CONTINUOUS
 70
0
 71
3
 72
13
 73
9
 74
0
 42
0.0000001
 43
0.0000001
 44
0.0000000001
 40
0.0
 40
0.0
 40
0.0
 40
0.0
 40
0.2266749134
 40
0.4472161745
 40
0.5713587125
 40
0.7075537383
 40
0.8520150675
 40
1.0
 40
1.0
 40
1.0
 40
1.0
 10
341.598618418
 20
168.9012740164
 30
0.0
 10
341.303724334
 20
169.1017053253
 30
0.0
 10
340.7053325385
 20
169.4735554024
 30
0.0
 10
339.8633941908
 20
169.8156634618
 30
0.0
 10
339.1094086891
 20
169.9211948223
 30
0.0
 10
338.4684644544
 20
169.8674219039
 30
0.0
 10
337.8257991788
 20
169.6382161356
 30
0.0
 10
337.4464781764
 20
169.3648040412
 30
0.0
 10
337.279196271
 20
169.2029287025
 30
0.0
  0
SPLINE
  5
7A4
100
AcDbEntity
  8
KONSTRUKTIONSELEMENTE
100
AcDbSpline
 62
7
  6
CONTINUOUS
 70
0
 71
3
 72
25
 73
21
 74
0
 42
0.0000001
 43
0.0000001
 44
0.0000000001
 40
0.0
 40
0.0
 40
0.0
 40
0.0
 40
0.0139556627
 40
0.0215641577
 40
0.0229744644
 40
0.0230439997
 40
0.0271929754
 40
0.0360330942
 40
0.0489380107
 40
0.0654456056
 40
0.085103462
 40
0.1324479604
 40
0.1889354145
 40
0.2529517006
 40
0.323314794
 40
0.3989389876
 40
0.4788786837
 40
0.6480928262
 40
0.8241941934
 40
1.0
 40
1.0
 40
1.0
 40
1.0
 10
340.9997257206
 20
167.641979383
 30
0.0
 10
340.9951905219
 20
167.6674492374
 30
0.0
 10
340.9821470606
 20
167.7159743282
 30
0.0
 10
340.9811151345
 20
167.7361040021
 30
0.0
 10
340.9680292035
 20
167.7681904239
 30
0.0
 10
340.9744649675
 20
167.7593442424
 30
0.0
 10
340.9795139695
 20
167.7355521883
 30
0.0
 10
341.0024124594
 20
167.6928467052
 30
0.0
 10
341.0327710526
 20
167.6289737983
 30
0.0
 10
341.0762263541
 20
167.5489341154
 30
0.0
 10
341.1524311585
 20
167.4142224413
 30
0.0
 10
341.2729330184
 20
167.2194535128
 30
0.0
 10
341.4454561553
 20
166.960475753
 30
0.0
 10
341.6507492545
 20
166.6722322174
 30
0.0
 10
341.8846355429
 20
166.3609832595
 30
0.0
 10
342.1439948109
 20
166.0320932665
 30
0.0
 10
342.5265163021
 20
165.5671244351
 30
0.0
 10
343.0450640503
 20
164.9730958356
 30
0.0
 10
343.7050596433
 20
164.26744652
 30
0.0
 10
344.1663174961
 20
163.8059266238
 30
0.0
 10
344.4007240835
 20
163.5795072471
 30
0.0
  0
SPLINE
  5
7A5
100
AcDbEntity
  8
KONSTRUKTIONSELEMENTE
100
AcDbSpline
 62
7
  6
CONTINUOUS
 70
0
 71
3
 72
17
 73
13
 74
0
 42
0.0000001
 43
0.0000001
 44
0.0000000001
 40
0.0
 40
0.0
 40
0.0
 40
0.0
 40
0.0672998635
 40
0.1329602329
 40
0.1944855734
 40
0.2504309869
 40
0.3502866628
 40
0.4545528348
 40
0.5743822025
 40
0.7091855667
 40
0.853565524
 40
1.0
 40
1.0
 40
1.0
 40
1.0
 10
337.279196271
 20
169.2029287025
 30
0.0
 10
337.1071508742
 20
169.0364438288
 30
0.0
 10
336.8138165314
 20
168.6551202349
 30
0.0
 10
336.5637068734
 20
168.0004336
 30
0.0
 10
336.4993161727
 20
167.3455038253
 30
0.0
 10
336.5934512475
 20
166.5730999584
 30
0.0
 10
336.9335921319
 20
165.7017462778
 30
0.0
 10
337.5189460218
 20
164.707752586
 30
0.0
 10
338.2629434906
 20
163.6684399828
 30
0.0
 10
339.1592278808
 20
162.5670172779
 30
0.0
 10
340.1727602798
 20
161.4414617993
 30
0.0
 10
340.8996910029
 20
160.7047682977
 30
0.0
 10
341.2743644258
 20
160.3428615621
 30
0.0
  0
SPLINE
  5
7A6
100
AcDbEntity
  8
KONSTRUKTIONSELEMENTE
100
AcDbSpline
 62
7
  6
CONTINUOUS
 70
0
 71
3
 72
13
 73
9
 74
0
 42
0.0000001
 43
0.0000001
 44
0.0000000001
 40
0.0
 40
0.0
 40
0.0
 40
0.0
 40
0.1478830584
 40
0.2925777243
 40
0.4291426403
 40
0.5544682928
 40
0.7758011155
 40
1.0
 40
1.0
 40
1.0
 40
1.0
 10
359.0024939561
 20
147.450668597
 30
0.0
 10
359.1657223701
 20
147.6086214537
 30
0.0
 10
359.4468486679
 20
147.9681025885
 30
0.0
 10
359.6979739795
 20
148.5858652011
 30
0.0
 10
359.7808957731
 20
149.2108669276
 30
0.0
 10
359.7167262541
 20
149.9551385541
 30
0.0
 10
359.4234518847
 20
150.7922733925
 30
0.0
 10
359.0888950458
 20
151.3904386125
 30
0.0
 10
358.9081193275
 20
151.6835287493
 30
0.0
  0
SPLINE
  5
7A7
100
AcDbEntity
  8
KONSTRUKTIONSELEMENTE
100
AcDbSpline
 62
7
  6
CONTINUOUS
 70
0
 71
3
 72
19
 73
15
 74
0
 42
0.0000001
 43
0.0000001
 44
0.0000000001
 40
0.0
 40
0.0
 40
0.0
 40
0.0
 40
0.186931947
 40
0.3655432537
 40
0.5317545855
 40
0.6818380102
 40
0.7494939838
 40
0.8113676119
 40
0.866702645
 40
0.9144809375
 40
0.9535989404
 40
0.9694074678
 40
0.9823674488
 40
1.0
 40
1.0
 40
1.0
 40
1.0
 10
355.0073258013
 20
153.3343167187
 30
0.0
 10
355.1616705434
 20
153.1852311462
 30
0.0
 10
355.4669177636
 20
152.8972191004
 30
0.0
 10
355.9212365555
 20
152.4894083445
 30
0.0
 10
356.3544185454
 20
152.1217159512
 30
0.0
 10
356.6993674693
 20
151.8471232935
 30
0.0
 10
356.9561695804
 20
151.6546372235
 30
0.0
 10
357.1288397337
 20
151.530919027
 30
0.0
 10
357.2849099156
 20
151.4246046075
 30
0.0
 10
357.4239508171
 20
151.3357034294
 30
0.0
 10
357.5212427543
 20
151.27689175
 30
0.0
 10
357.59568374
 20
151.2365155514
 30
0.0
 10
357.626657024
 20
151.2178880597
 30
0.0
 10
357.7083425597
 20
151.1825760064
 30
0.0
 10
357.6892482058
 20
151.1892931806
 30
0.0
  0
SPLINE
  5
7A8
100
AcDbEntity
  8
KONSTRUKTIONSELEMENTE
100
AcDbSpline
 62
7
  6
CONTINUOUS
 70
0
 71
3
 72
14
 73
10
 74
0
 42
0.0000001
 43
0.0000001
 44
0.0000000001
 40
0.0
 40
0.0
 40
0.0
 40
0.0
 40
0.2853075585
 40
0.4098818106
 40
0.5208692916
 40
0.6238507303
 40
0.7336576496
 40
0.8616333138
 40
1.0
 40
1.0
 40
1.0
 40
1.0
 10
351.8809661436
 20
150.0976710337
 30
0.0
 10
352.4531252734
 20
149.5450077534
 30
0.0
 10
353.3034833293
 20
148.7783750296
 30
0.0
 10
354.4571925935
 20
147.8950322643
 30
0.0
 10
355.246910938
 20
147.3759831788
 30
0.0
 10
356.053331236
 20
146.9639526226
 30
0.0
 10
356.9802371369
 20
146.7091146291
 30
0.0
 10
358.0544611369
 20
146.7903486784
 30
0.0
 10
358.7252548958
 20
147.1823899288
 30
0.0
 10
359.0024939561
 20
147.450668597
 30
0.0
  0
SPLINE
  5
7A9
100
AcDbEntity
  8
KONSTRUKTIONSELEMENTE
100
AcDbSpline
 62
7
  6
CONTINUOUS
 70
0
 71
3
 72
9
 73
5
 74
0
 42
0.0000001
 43
0.0000001
 44
0.0000000001
 40
0.0
 40
0.0
 40
0.0
 40
0.0
 40
0.4992056363
 40
1.0
 40
1.0
 40
1.0
 40
1.0
 10
377.0004540612
 20
138.1761414805
 30
0.0
 10
377.0001748981
 20
137.3589390073
 30
0.0
 10
376.7323743689
 20
135.711141746
 30
0.0
 10
375.9545035396
 20
134.2349550598
 30
0.0
 10
375.4636126875
 20
133.5783702718
 30
0.0
  0
SPLINE
  5
7AA
100
AcDbEntity
  8
KONSTRUKTIONSELEMENTE
100
AcDbSpline
 62
7
  6
CONTINUOUS
 70
0
 71
3
 72
11
 73
7
 74
0
 42
0.0000001
 43
0.0000001
 44
0.0000000001
 40
0.0
 40
0.0
 40
0.0
 40
0.0
 40
0.2503834639
 40
0.5009562809
 40
0.7509829001
 40
1.0
 40
1.0
 40
1.0
 40
1.0
 10
371.7979637243
 20
130.8664830819
 30
0.0
 10
371.0888037541
 20
130.6084021927
 30
0.0
 10
369.5895980729
 20
130.2888829023
 30
0.0
 10
367.3032817281
 20
130.4439666354
 30
0.0
 10
365.1497782423
 20
131.2160584892
 30
0.0
 10
363.9112828431
 20
132.1108408728
 30
0.0
 10
363.3714513378
 20
132.6322780655
 30
0.0
  0
SPLINE
  5
7AB
100
AcDbEntity
  8
KONSTRUKTIONSELEMENTE
100
AcDbSpline
 62
7
  6
CONTINUOUS
 70
0
 71
3
 72
11
 73
7
 74
0
 42
0.0000001
 43
0.0000001
 44
0.0000000001
 40
0.0
 40
0.0
 40
0.0
 40
0.0
 40
0.2497701922
 40
0.5003846994
 40
0.7507632035
 40
1.0
 40
1.0
 40
1.0
 40
1.0
 10
353.6148021157
 20
154.6818739628
 30
0.0
 10
354.3736267473
 20
155.2331167001
 30
0.0
 10
356.1046923749
 20
156.074000243
 30
0.0
 10
358.9631135374
 20
156.3718600452
 30
0.0
 10
361.7529048797
 20
155.6890217881
 30
0.0
 10
363.3497786725
 20
154.6189816169
 30
0.0
 10
364.0229372614
 20
153.9687603507
 30
0.0
  0
SPLINE
  5
7AC
100
AcDbEntity
  8
KONSTRUKTIONSELEMENTE
100
AcDbSpline
 62
7
  6
CONTINUOUS
 70
0
 71
3
 72
9
 73
5
 74
0
 42
0.0000001
 43
0.0000001
 44
0.0000000001
 40
0.0
 40
0.0
 40
0.0
 40
0.0
 40
0.5052259423
 40
1.0
 40
1.0
 40
1.0
 40
1.0
 10
355.8912092778
 20
146.114114279
 30
0.0
 10
355.6889089929
 20
146.3095213488
 30
0.0
 10
355.3352944277
 20
146.7481571149
 30
0.0
 10
355.1043024199
 20
147.2624129585
 30
0.0
 10
355.0254003208
 20
147.5263153801
 30
0.0
  0
SPLINE
  5
7AD
100
AcDbEntity
  8
KONSTRUKTIONSELEMENTE
100
AcDbSpline
 62
7
  6
CONTINUOUS
 70
0
 71
3
 72
11
 73
7
 74
0
 42
0.0000001
 43
0.0000001
 44
0.0000000001
 40
0.0
 40
0.0
 40
0.0
 40
0.0
 40
0.2519918144
 40
0.5048009909
 40
0.755086504
 40
1.0
 40
1.0
 40
1.0
 40
1.0
 10
357.1627832292
 20
151.5157331182
 30
0.0
 10
357.4796356052
 20
151.62816154
 30
0.0
 10
358.149175343
 20
151.7657553032
 30
0.0
 10
359.1662520507
 20
151.6930170991
 30
0.0
 10
360.1169902302
 20
151.3512662591
 30
0.0
 10
360.6615512784
 20
150.9591326631
 30
0.0
 10
360.8965776037
 20
150.7321146657
 30
0.0
  0
SPLINE
  5
7AE
100
AcDbEntity
  8
KONSTRUKTIONSELEMENTE
100
AcDbSpline
 62
7
  6
CONTINUOUS
 70
0
 71
3
 72
9
 73
5
 74
0
 42
0.0000001
 43
0.0000001
 44
0.0000000001
 40
0.0
 40
0.0
 40
0.0
 40
0.0
 40
0.5069780116
 40
1.0
 40
1.0
 40
1.0
 40
1.0
 10
371.5031793215
 20
140.4869241373
 30
0.0
 10
371.8152762305
 20
140.1854616726
 30
0.0
 10
372.3221598609
 20
139.4639749986
 30
0.0
 10
372.5005083404
 20
138.5992088373
 30
0.0
 10
372.5004004606
 20
138.1772365088
 30
0.0
  0
SPLINE
  5
7AF
100
AcDbEntity
  8
KONSTRUKTIONSELEMENTE
100
AcDbSpline
 62
7
  6
CONTINUOUS
 70
0
 71
3
 72
9
 73
5
 74
0
 42
0.0000001
 43
0.0000001
 44
0.0000000001
 40
0.0
 40
0.0
 40
0.0
 40
0.0
 40
0.5012207597
 40
1.0
 40
1.0
 40
1.0
 40
1.0
 10
352.76484962
 20
142.8774685939
 30
0.0
 10
352.0249968128
 20
143.5921115281
 30
0.0
 10
350.8171429815
 20
145.3274006015
 30
0.0
 10
350.3935848583
 20
147.4012693679
 30
0.0
 10
350.393934538
 20
148.4248969358
 30
0.0
  0
SPLINE
  5
7B0
100
AcDbEntity
  8
KONSTRUKTIONSELEMENTE
100
AcDbSpline
 62
7
  6
CONTINUOUS
 70
0
 71
3
 72
9
 73
5
 74
0
 42
0.0000001
 43
0.0000001
 44
0.0000000001
 40
0.0
 40
0.0
 40
0.0
 40
0.0
 40
0.50530061
 40
1.0
 40
1.0
 40
1.0
 40
1.0
 10
368.4913068419
 20
134.9090735642
 30
0.0
 10
368.1295549525
 20
134.9592284029
 30
0.0
 10
367.4242467741
 20
135.1665626386
 30
0.0
 10
366.8131855111
 20
135.5761512388
 30
0.0
 10
366.5506999989
 20
135.8189338014
 30
0.0
  0
SPLINE
  5
7B1
100
AcDbEntity
  8
KONSTRUKTIONSELEMENTE
100
AcDbSpline
 62
7
  6
CONTINUOUS
 70
0
 71
3
 72
9
 73
5
 74
0
 42
0.0000001
 43
0.0000001
 44
0.0000000001
 40
0.0
 40
0.0
 40
0.0
 40
0.0
 40
0.5012063269
 40
1.0
 40
1.0
 40
1.0
 40
1.0
 10
374.6859937006
 20
143.6684868105
 30
0.0
 10
375.4093938711
 20
142.9555244882
 30
0.0
 10
376.5881050417
 20
141.2342536665
 30
0.0
 10
377.0007993587
 20
139.1869406839
 30
0.0
 10
377.0004540612
 20
138.1761414805
 30
0.0
  0
SPLINE
  5
7B2
100
AcDbEntity
  8
KONSTRUKTIONSELEMENTE
100
AcDbSpline
 62
7
  6
CONTINUOUS
 70
0
 71
3
 72
9
 73
5
 74
0
 42
0.0000001
 43
0.0000001
 44
0.0000000001
 40
0.0
 40
0.0
 40
0.0
 40
0.0
 40
0.4046530715
 40
1.0
 40
1.0
 40
1.0
 40
1.0
 10
397.4968984404
 20
116.8679276449
 30
0.0
 10
397.4968984404
 20
116.9203455232
 30
0.0
 10
397.53290646
 20
117.0479685586
 30
0.0
 10
397.5883056555
 20
117.1645571641
 30
0.0
 10
397.6245485342
 20
117.2326302113
 30
0.0
  0
SPLINE
  5
7B3
100
AcDbEntity
  8
KONSTRUKTIONSELEMENTE
100
AcDbSpline
 62
7
  6
CONTINUOUS
 70
0
 71
3
 72
10
 73
6
 74
0
 42
0.0000001
 43
0.0000001
 44
0.0000000001
 40
0.0
 40
0.0
 40
0.0
 40
0.0
 40
0.371444044
 40
0.6586206829
 40
1.0
 40
1.0
 40
1.0
 40
1.0
 10
400.5530837125
 20
120.2630044798
 30
0.0
 10
400.6040935703
 20
120.2924032387
 30
0.0
 10
400.698387108
 20
120.3416402576
 30
0.0
 10
400.8393798006
 20
120.3980310206
 30
0.0
 10
400.960312464
 20
120.4112641082
 30
0.0
 10
401.0000400347
 20
120.3745272442
 30
0.0
  0
SPLINE
  5
7B4
100
AcDbEntity
  8
KONSTRUKTIONSELEMENTE
100
AcDbSpline
 62
7
  6
CONTINUOUS
 70
0
 71
3
 72
21
 73
17
 74
0
 42
0.0000001
 43
0.0000001
 44
0.0000000001
 40
0.0
 40
0.0
 40
0.0
 40
0.0
 40
0.0294220707
 40
0.0723221796
 40
0.128270212
 40
0.1957493625
 40
0.3569194901
 40
0.5354427485
 40
0.7081562347
 40
0.7852637376
 40
0.8528295098
 40
0.9088459223
 40
0.951807463
 40
0.968259586
 40
0.9814568991
 40
1.0
 40
1.0
 40
1.0
 40
1.0
 10
400.6788789557
 20
120.6244975053
 30
0.0
 10
400.6788789557
 20
120.5743470113
 30
0.0
 10
400.6457287471
 20
120.4527651442
 30
0.0
 10
400.5536698265
 20
120.2549136197
 30
0.0
 10
400.4074085686
 20
120.0112056651
 30
0.0
 10
400.1303572484
 20
119.6129358075
 30
0.0
 10
399.6907264985
 20
119.0745331669
 30
0.0
 10
399.0938805468
 20
118.436317953
 30
0.0
 10
398.5614098672
 20
117.9356570005
 30
0.0
 10
398.1450818666
 20
117.5899603343
 30
0.0
 10
397.8710783677
 20
117.3848133716
 30
0.0
 10
397.6325595684
 20
117.2304289185
 30
0.0
 10
397.4573239831
 20
117.1397290327
 30
0.0
 10
397.3389915456
 20
117.1007849534
 30
0.0
 10
397.2591767893
 20
117.0860204607
 30
0.0
 10
397.1989433424
 20
117.0964388801
 30
0.0
 10
397.1757373613
 20
117.117897906
 30
0.0
  0
SPLINE
  5
7B5
100
AcDbEntity
  8
KONSTRUKTIONSELEMENTE
100
AcDbSpline
 62
7
  6
CONTINUOUS
 70
0
 71
3
 72
9
 73
5
 74
0
 42
0.0000001
 43
0.0000001
 44
0.0000000001
 40
0.0
 40
0.0
 40
0.0
 40
0.0
 40
0.5061516998
 40
1.0
 40
1.0
 40
1.0
 40
1.0
 10
401.5583075696
 20
112.8841505072
 30
0.0
 10
401.9650704129
 20
112.4912477716
 30
0.0
 10
402.6265004961
 20
111.5492753653
 30
0.0
 10
402.8596746498
 20
110.4205309929
 30
0.0
 10
402.8600034117
 20
109.8687440559
 30
0.0
  0
SPLINE
  5
7B6
100
AcDbEntity
  8
KONSTRUKTIONSELEMENTE
100
AcDbSpline
 62
7
  6
CONTINUOUS
 70
0
 71
3
 72
9
 73
5
 74
0
 42
0.0000001
 43
0.0000001
 44
0.0000000001
 40
0.0
 40
0.0
 40
0.0
 40
0.0
 40
0.4991733573
 40
1.0
 40
1.0
 40
1.0
 40
1.0
 10
407.8600228657
 20
109.864903464
 30
0.0
 10
407.859690743
 20
108.8991214709
 30
0.0
 10
407.5459814538
 20
106.9518287101
 30
0.0
 10
406.6343094857
 20
105.2038532657
 30
0.0
 10
406.058469967
 20
104.4245378144
 30
0.0
  0
SPLINE
  5
7B7
100
AcDbEntity
  8
KONSTRUKTIONSELEMENTE
100
AcDbSpline
 62
7
  6
CONTINUOUS
 70
0
 71
3
 72
9
 73
5
 74
0
 42
0.0000001
 43
0.0000001
 44
0.0000000001
 40
0.0
 40
0.0
 40
0.0
 40
0.0
 40
0.5012747397
 40
1.0
 40
1.0
 40
1.0
 40
1.0
 10
405.0947906607
 20
116.419240462
 30
0.0
 10
405.9589582385
 20
115.5687213298
 30
0.0
 10
407.3672299967
 20
113.5149830524
 30
0.0
 10
407.8604377132
 20
111.0712416104
 30
0.0
 10
407.8600228657
 20
109.864903464
 30
0.0
  0
SPLINE
  5
7B8
100
AcDbEntity
  8
KONSTRUKTIONSELEMENTE
100
AcDbSpline
 62
7
  6
CONTINUOUS
 70
0
 71
3
 72
9
 73
5
 74
0
 42
0.0000001
 43
0.0000001
 44
0.0000000001
 40
0.0
 40
0.0
 40
0.0
 40
0.0
 40
0.7476746026
 40
1.0
 40
1.0
 40
1.0
 40
1.0
 10
402.8600034117
 20
109.8687440559
 30
0.0
 10
402.8602611826
 20
109.4361066493
 30
0.0
 10
402.7658883408
 20
108.8516752939
 30
0.0
 10
402.556022574
 20
108.3119897792
 30
0.0
 10
402.4961036497
 20
108.1788445611
 30
0.0
  0
SPLINE
  5
7B9
100
AcDbEntity
  8
KONSTRUKTIONSELEMENTE
100
AcDbSpline
 62
7
  6
CONTINUOUS
 70
0
 71
3
 72
9
 73
5
 74
0
 42
0.0000001
 43
0.0000001
 44
0.0000000001
 40
0.0
 40
0.0
 40
0.0
 40
0.0
 40
0.2524126325
 40
1.0
 40
1.0
 40
1.0
 40
1.0
 10
396.0863476855
 20
106.1075154644
 30
0.0
 10
395.9981838269
 20
106.1543555712
 30
0.0
 10
395.655046697
 20
106.351249534
 30
0.0
 10
395.3372885916
 20
106.5925442338
 30
0.0
 10
395.1208449287
 20
106.7939941709
 30
0.0
  0
SPLINE
  5
7BA
100
AcDbEntity
  8
KONSTRUKTIONSELEMENTE
100
AcDbSpline
 62
7
  6
CONTINUOUS
 70
0
 71
3
 72
11
 73
7
 74
0
 42
0.0000001
 43
0.0000001
 44
0.0000000001
 40
0.0
 40
0.0
 40
0.0
 40
0.0
 40
0.2507528382
 40
0.5034086137
 40
0.7541779598
 40
1.0
 40
1.0
 40
1.0
 40
1.0
 10
387.7908224636
 20
121.8153528994
 30
0.0
 10
388.2209004869
 20
122.0280502157
 30
0.0
 10
389.1567219856
 20
122.3223359058
 30
0.0
 10
390.6211709953
 20
122.3236068887
 30
0.0
 10
392.0111272188
 20
121.892829791
 30
0.0
 10
392.8054251012
 20
121.3387857378
 30
0.0
 10
393.1437368734
 20
121.0120016597
 30
0.0
  0
SPLINE
  5
7BB
100
AcDbEntity
  8
KONSTRUKTIONSELEMENTE
100
AcDbSpline
 62
7
  6
CONTINUOUS
 70
0
 71
3
 72
9
 73
5
 74
0
 42
0.0000001
 43
0.0000001
 44
0.0000000001
 40
0.0
 40
0.0
 40
0.0
 40
0.0
 40
0.5012894406
 40
1.0
 40
1.0
 40
1.0
 40
1.0
 10
383.1735312587
 20
111.381522563
 30
0.0
 10
382.2910785852
 20
112.2339063908
 30
0.0
 10
380.8504173723
 20
114.3032074391
 30
0.0
 10
380.345129168
 20
116.7764555375
 30
0.0
 10
380.3455489156
 20
117.9970425895
 30
0.0
  0
SPLINE
  5
7BC
100
AcDbEntity
  8
KONSTRUKTIONSELEMENTE
100
AcDbSpline
 62
7
  6
CONTINUOUS
 70
0
 71
3
 72
11
 73
7
 74
0
 42
0.0000001
 43
0.0000001
 44
0.0000000001
 40
0.0
 40
0.0
 40
0.0
 40
0.0
 40
0.2496929416
 40
0.500340108
 40
0.7507767759
 40
1.0
 40
1.0
 40
1.0
 40
1.0
 10
384.0063915819
 20
125.3241504849
 30
0.0
 10
384.9110922275
 20
126.0148902771
 30
0.0
 10
386.9928614903
 20
127.0792644132
 30
0.0
 10
390.4595842719
 20
127.4913114541
 30
0.0
 10
393.856037905
 20
126.6917997364
 30
0.0
 10
395.8003210196
 20
125.3975797795
 30
0.0
 10
396.6174698265
 20
124.6082746431
 30
0.0
  0
SPLINE
  5
7BD
100
AcDbEntity
  8
KONSTRUKTIONSELEMENTE
100
AcDbSpline
 62
7
  6
CONTINUOUS
 70
0
 71
3
 72
9
 73
5
 74
0
 42
0.0000001
 43
0.0000001
 44
0.0000000001
 40
0.0
 40
0.0
 40
0.0
 40
0.0
 40
0.5061516998
 40
1.0
 40
1.0
 40
1.0
 40
1.0
 10
386.6472642117
 20
114.9777955464
 30
0.0
 10
386.2405013684
 20
115.3706982819
 30
0.0
 10
385.5790712852
 20
116.3126706882
 30
0.0
 10
385.3458971315
 20
117.4414150606
 30
0.0
 10
385.3455683697
 20
117.9932019976
 30
0.0
  0
SPLINE
  5
7BE
100
AcDbEntity
  8
KONSTRUKTIONSELEMENTE
100
AcDbSpline
 62
7
  6
CONTINUOUS
 70
0
 71
3
 72
21
 73
17
 74
0
 42
0.0000001
 43
0.0000001
 44
0.0000000001
 40
0.0
 40
0.0
 40
0.0
 40
0.0
 40
0.0294220707
 40
0.0723221796
 40
0.128270212
 40
0.1957493625
 40
0.3569194901
 40
0.5354427485
 40
0.7081562347
 40
0.7852637376
 40
0.8528295098
 40
0.9088459223
 40
0.951807463
 40
0.968259586
 40
0.9814568991
 40
1.0
 40
1.0
 40
1.0
 40
1.0
 10
401.0324323463
 20
120.2829911544
 30
0.0
 10
401.0324323463
 20
120.2328406603
 30
0.0
 10
400.9992821377
 20
120.1112587933
 30
0.0
 10
400.9072232171
 20
119.9134072687
 30
0.0
 10
400.7609619592
 20
119.6696993142
 30
0.0
 10
400.483910639
 20
119.2714294565
 30
0.0
 10
400.0442798891
 20
118.7330268159
 30
0.0
 10
399.4474339374
 20
118.094811602
 30
0.0
 10
398.9149632578
 20
117.5941506496
 30
0.0
 10
398.4986352572
 20
117.2484539834
 30
0.0
 10
398.2246317583
 20
117.0433070207
 30
0.0
 10
397.986112959
 20
116.8889225676
 30
0.0
 10
397.8108773737
 20
116.7982226817
 30
0.0
 10
397.6925449362
 20
116.7592786025
 30
0.0
 10
397.6127301799
 20
116.7445141098
 30
0.0
 10
397.5524967329
 20
116.7549325292
 30
0.0
 10
397.5292907519
 20
116.776391555
 30
0.0
  0
SPLINE
  5
7BF
100
AcDbEntity
  8
KONSTRUKTIONSELEMENTE
100
AcDbSpline
 62
7
  6
CONTINUOUS
 70
0
 71
3
 72
9
 73
5
 74
0
 42
0.0000001
 43
0.0000001
 44
0.0000000001
 40
0.0
 40
0.0
 40
0.0
 40
0.0
 40
0.4046530715
 40
1.0
 40
1.0
 40
1.0
 40
1.0
 10
336.3321618677
 20
175.9485263586
 30
0.0
 10
336.3321618677
 20
176.0009442369
 30
0.0
 10
336.3681698873
 20
176.1285672723
 30
0.0
 10
336.4235690828
 20
176.2451558778
 30
0.0
 10
336.4598119615
 20
176.313228925
 30
0.0
  0
SPLINE
  5
7C0
100
AcDbEntity
  8
KONSTRUKTIONSELEMENTE
100
AcDbSpline
 62
7
  6
CONTINUOUS
 70
0
 71
3
 72
10
 73
6
 74
0
 42
0.0000001
 43
0.0000001
 44
0.0000000001
 40
0.0
 40
0.0
 40
0.0
 40
0.0
 40
0.371444044
 40
0.6586206829
 40
1.0
 40
1.0
 40
1.0
 40
1.0
 10
339.3883471398
 20
179.3436031935
 30
0.0
 10
339.4393569976
 20
179.3730019524
 30
0.0
 10
339.5336505354
 20
179.4222389713
 30
0.0
 10
339.674643228
 20
179.4786297343
 30
0.0
 10
339.7955758914
 20
179.4918628218
 30
0.0
 10
339.8353034621
 20
179.4551259579
 30
0.0
  0
SPLINE
  5
7C1
100
AcDbEntity
  8
KONSTRUKTIONSELEMENTE
100
AcDbSpline
 62
7
  6
CONTINUOUS
 70
0
 71
3
 72
21
 73
17
 74
0
 42
0.0000001
 43
0.0000001
 44
0.0000000001
 40
0.0
 40
0.0
 40
0.0
 40
0.0
 40
0.0294220707
 40
0.0723221796
 40
0.128270212
 40
0.1957493625
 40
0.3569194901
 40
0.5354427485
 40
0.7081562347
 40
0.7852637376
 40
0.8528295098
 40
0.9088459223
 40
0.951807463
 40
0.968259586
 40
0.9814568991
 40
1.0
 40
1.0
 40
1.0
 40
1.0
 10
339.5141423831
 20
179.705096219
 30
0.0
 10
339.5141423831
 20
179.6549457249
 30
0.0
 10
339.4809921745
 20
179.5333638579
 30
0.0
 10
339.3889332538
 20
179.3355123333
 30
0.0
 10
339.242671996
 20
179.0918043788
 30
0.0
 10
338.9656206757
 20
178.6935345212
 30
0.0
 10
338.5259899258
 20
178.1551318805
 30
0.0
 10
337.9291439742
 20
177.5169166667
 30
0.0
 10
337.3966732946
 20
177.0162557142
 30
0.0
 10
336.980345294
 20
176.670559048
 30
0.0
 10
336.7063417951
 20
176.4654120853
 30
0.0
 10
336.4678229957
 20
176.3110276322
 30
0.0
 10
336.2925874105
 20
176.2203277463
 30
0.0
 10
336.174254973
 20
176.1813836671
 30
0.0
 10
336.0944402166
 20
176.1666191744
 30
0.0
 10
336.0342067697
 20
176.1770375938
 30
0.0
 10
336.0110007887
 20
176.1984966196
 30
0.0
  0
SPLINE
  5
7C2
100
AcDbEntity
  8
KONSTRUKTIONSELEMENTE
100
AcDbSpline
 62
7
  6
CONTINUOUS
 70
0
 71
3
 72
9
 73
5
 74
0
 42
0.0000001
 43
0.0000001
 44
0.0000000001
 40
0.0
 40
0.0
 40
0.0
 40
0.0
 40
0.5061516998
 40
1.0
 40
1.0
 40
1.0
 40
1.0
 10
340.3935709969
 20
171.9647492208
 30
0.0
 10
340.8003338402
 20
171.5718464853
 30
0.0
 10
341.4617639235
 20
170.629874079
 30
0.0
 10
341.6949380772
 20
169.5011297066
 30
0.0
 10
341.695266839
 20
168.9493427696
 30
0.0
  0
SPLINE
  5
7C3
100
AcDbEntity
  8
KONSTRUKTIONSELEMENTE
100
AcDbSpline
 62
7
  6
CONTINUOUS
 70
0
 71
3
 72
9
 73
5
 74
0
 42
0.0000001
 43
0.0000001
 44
0.0000000001
 40
0.0
 40
0.0
 40
0.0
 40
0.0
 40
0.4990961922
 40
1.0
 40
1.0
 40
1.0
 40
1.0
 10
346.6952862931
 20
168.9455021777
 30
0.0
 10
346.6949377951
 20
167.9321022655
 30
0.0
 10
346.3489294452
 20
165.8871575332
 30
0.0
 10
345.3469178671
 20
164.0725811185
 30
0.0
 10
344.7172107788
 20
163.2738941079
 30
0.0
  0
SPLINE
  5
7C4
100
AcDbEntity
  8
KONSTRUKTIONSELEMENTE
100
AcDbSpline
 62
7
  6
CONTINUOUS
 70
0
 71
3
 72
11
 73
7
 74
0
 42
0.0000001
 43
0.0000001
 44
0.0000000001
 40
0.0
 40
0.0
 40
0.0
 40
0.0
 40
0.250262514
 40
0.5008853759
 40
0.7509951573
 40
1.0
 40
1.0
 40
1.0
 40
1.0
 10
341.127148122
 20
160.4855181432
 30
0.0
 10
340.2527187154
 20
160.0945600991
 30
0.0
 10
338.3741025787
 20
159.5708161183
 30
0.0
 10
335.4602542736
 20
159.6396975439
 30
0.0
 10
332.6953350985
 20
160.5478665424
 30
0.0
 10
331.108840589
 20
161.6721519186
 30
0.0
 10
330.4233653822
 20
162.3342701241
 30
0.0
  0
SPLINE
  5
7C5
100
AcDbEntity
  8
KONSTRUKTIONSELEMENTE
100
AcDbSpline
 62
7
  6
CONTINUOUS
 70
0
 71
3
 72
9
 73
5
 74
0
 42
0.0000001
 43
0.0000001
 44
0.0000000001
 40
0.0
 40
0.0
 40
0.0
 40
0.0
 40
0.5012747397
 40
1.0
 40
1.0
 40
1.0
 40
1.0
 10
343.9300540881
 20
175.4998391757
 30
0.0
 10
344.7942216658
 20
174.6493200435
 30
0.0
 10
346.202493424
 20
172.5955817661
 30
0.0
 10
346.6957011406
 20
170.151840324
 30
0.0
 10
346.6952862931
 20
168.9455021777
 30
0.0
  0
SPLINE
  5
7C6
100
AcDbEntity
  8
KONSTRUKTIONSELEMENTE
100
AcDbSpline
 62
7
  6
CONTINUOUS
 70
0
 71
3
 72
9
 73
5
 74
0
 42
0.0000001
 43
0.0000001
 44
0.0000000001
 40
0.0
 40
0.0
 40
0.0
 40
0.0
 40
0.5050460752
 40
1.0
 40
1.0
 40
1.0
 40
1.0
 10
337.5693070491
 20
164.6566518002
 30
0.0
 10
336.9157316756
 20
164.5985518514
 30
0.0
 10
335.5831299522
 20
164.7526347825
 30
0.0
 10
334.4268184263
 20
165.4364903652
 30
0.0
 10
333.956108356
 20
165.8745928845
 30
0.0
  0
SPLINE
  5
7C7
100
AcDbEntity
  8
KONSTRUKTIONSELEMENTE
100
AcDbSpline
 62
7
  6
CONTINUOUS
 70
0
 71
3
 72
11
 73
7
 74
0
 42
0.0000001
 43
0.0000001
 44
0.0000000001
 40
0.0
 40
0.0
 40
0.0
 40
0.0
 40
0.2482337156
 40
0.500955749
 40
0.7531052982
 40
1.0
 40
1.0
 40
1.0
 40
1.0
 10
325.7354786795
 20
180.3188635666
 30
0.0
 10
326.1679405114
 20
180.6773573568
 30
0.0
 10
327.1868218899
 20
181.2399192041
 30
0.0
 10
328.9093542102
 20
181.4851512398
 30
0.0
 10
330.6065475562
 20
181.1155354473
 30
0.0
 10
331.5771525237
 20
180.4807555195
 30
0.0
 10
331.9790003008
 20
180.0926003733
 30
0.0
  0
SPLINE
  5
7C8
100
AcDbEntity
  8
KONSTRUKTIONSELEMENTE
100
AcDbSpline
 62
7
  6
CONTINUOUS
 70
0
 71
3
 72
9
 73
5
 74
0
 42
0.0000001
 43
0.0000001
 44
0.0000000001
 40
0.0
 40
0.0
 40
0.0
 40
0.0
 40
0.5012894406
 40
1.0
 40
1.0
 40
1.0
 40
1.0
 10
322.0087946861
 20
170.4621212767
 30
0.0
 10
321.1263420125
 20
171.3145051045
 30
0.0
 10
319.6856807997
 20
173.3838061528
 30
0.0
 10
319.1803925954
 20
175.8570542512
 30
0.0
 10
319.180812343
 20
177.0776413032
 30
0.0
  0
SPLINE
  5
7C9
100
AcDbEntity
  8
KONSTRUKTIONSELEMENTE
100
AcDbSpline
 62
7
  6
CONTINUOUS
 70
0
 71
3
 72
13
 73
9
 74
0
 42
0.0000001
 43
0.0000001
 44
0.0000000001
 40
0.0
 40
0.0
 40
0.0
 40
0.0
 40
0.1246872084
 40
0.249825705
 40
0.49981089
 40
0.7499026556
 40
0.8751888276
 40
1.0
 40
1.0
 40
1.0
 40
1.0
 10
321.5996539265
 20
183.2681789886
 30
0.0
 10
322.0306250868
 20
183.7397201827
 30
0.0
 10
322.9939850064
 20
184.5987415959
 30
0.0
 10
325.2192348723
 20
185.8935023486
 30
0.0
 10
328.4272296829
 20
186.6404523726
 30
0.0
 10
331.6750100692
 20
186.0885425809
 30
0.0
 10
333.9768710383
 20
184.9314438817
 30
0.0
 10
334.9928043387
 20
184.1331305741
 30
0.0
 10
335.4527332538
 20
183.6888733567
 30
0.0
  0
SPLINE
  5
7CA
100
AcDbEntity
  8
KONSTRUKTIONSELEMENTE
100
AcDbSpline
 62
7
  6
CONTINUOUS
 70
0
 71
3
 72
21
 73
17
 74
0
 42
0.0000001
 43
0.0000001
 44
0.0000000001
 40
0.0
 40
0.0
 40
0.0
 40
0.0
 40
0.0294220707
 40
0.0723221796
 40
0.128270212
 40
0.1957493625
 40
0.3569194901
 40
0.5354427485
 40
0.7081562347
 40
0.7852637376
 40
0.8528295098
 40
0.9088459223
 40
0.951807463
 40
0.968259586
 40
0.9814568991
 40
1.0
 40
1.0
 40
1.0
 40
1.0
 10
339.8676957736
 20
179.363589868
 30
0.0
 10
339.8676957736
 20
179.313439374
 30
0.0
 10
339.8345455651
 20
179.1918575069
 30
0.0
 10
339.7424866444
 20
178.9940059824
 30
0.0
 10
339.5962253866
 20
178.7502980279
 30
0.0
 10
339.3191740663
 20
178.3520281702
 30
0.0
 10
338.8795433164
 20
177.8136255296
 30
0.0
 10
338.2826973648
 20
177.1754103157
 30
0.0
 10
337.7502266852
 20
176.6747493632
 30
0.0
 10
337.3338986846
 20
176.329052697
 30
0.0
 10
337.0598951857
 20
176.1239057344
 30
0.0
 10
336.8213763863
 20
175.9695212813
 30
0.0
 10
336.6461408011
 20
175.8788213954
 30
0.0
 10
336.5278083636
 20
175.8398773162
 30
0.0
 10
336.4479936072
 20
175.8251128235
 30
0.0
 10
336.3877601603
 20
175.8355312428
 30
0.0
 10
336.3645541793
 20
175.8569902687
 30
0.0
  0
SPLINE
  5
7CB
100
AcDbEntity
  8
KONSTRUKTIONSELEMENTE
100
AcDbSpline
 62
7
  6
CONTINUOUS
 70
0
 71
3
 72
14
 73
10
 74
0
 42
0.0000001
 43
0.0000001
 44
0.0000000001
 40
0.0
 40
0.0
 40
0.0
 40
0.0
 40
0.247344998
 40
0.3606117676
 40
0.4716979113
 40
0.5865550543
 40
0.7119067545
 40
0.8511632387
 40
1.0
 40
1.0
 40
1.0
 40
1.0
 10
304.9256426783
 20
207.8048208098
 30
0.0
 10
304.3565537956
 20
208.138333377
 30
0.0
 10
303.505888605
 20
208.5931498266
 30
0.0
 10
302.3367961002
 20
209.0609049715
 30
0.0
 10
301.4663260227
 20
209.3142070175
 30
0.0
 10
300.5355697143
 20
209.4507798051
 30
0.0
 10
299.5162833798
 20
209.4053890776
 30
0.0
 10
298.4489766691
 20
209.0769194056
 30
0.0
 10
297.8039093959
 20
208.6305649883
 30
0.0
 10
297.5187347635
 20
208.3544901503
 30
0.0
  0
SPLINE
  5
7CC
100
AcDbEntity
  8
KONSTRUKTIONSELEMENTE
100
AcDbSpline
 62
7
  6
CONTINUOUS
 70
0
 71
3
 72
17
 73
13
 74
0
 42
0.0000001
 43
0.0000001
 44
0.0000000001
 40
0.0
 40
0.0
 40
0.0
 40
0.0
 40
0.1669849889
 40
0.3234951497
 40
0.4654394939
 40
0.5898834044
 40
0.6962204806
 40
0.7889491303
 40
0.8346660533
 40
0.88416664
 40
0.9397641741
 40
1.0
 40
1.0
 40
1.0
 40
1.0
 10
311.9325895878
 20
183.8248716323
 30
0.0
 10
312.8124597027
 20
182.9786839884
 30
0.0
 10
314.5444887123
 20
181.3676146695
 30
0.0
 10
317.1217444456
 20
179.144621053
 30
0.0
 10
319.5506700529
 20
177.2302126978
 30
0.0
 10
321.7847788887
 20
175.6660575347
 30
0.0
 10
323.8258880184
 20
174.4673230392
 30
0.0
 10
325.4842612131
 20
173.763317335
 30
0.0
 10
326.8337927305
 20
173.4783670434
 30
0.0
 10
327.9457277434
 20
173.4593496193
 30
0.0
 10
329.1339056016
 20
173.7638551534
 30
0.0
 10
329.857214567
 20
174.2450517545
 30
0.0
 10
330.1735976884
 20
174.5513392327
 30
0.0
  0
SPLINE
  5
7CD
100
AcDbEntity
  8
KONSTRUKTIONSELEMENTE
100
AcDbSpline
 62
7
  6
CONTINUOUS
 70
0
 71
3
 72
14
 73
10
 74
0
 42
0.0000001
 43
0.0000001
 44
0.0000000001
 40
0.0
 40
0.0
 40
0.0
 40
0.0
 40
0.0216147703
 40
0.0473427882
 40
0.1167484995
 40
0.2262426976
 40
0.3722792405
 40
0.5514808577
 40
1.0
 40
1.0
 40
1.0
 40
1.0
 10
302.3489424858
 20
205.5160658169
 30
0.0
 10
302.3485635624
 20
205.5215052453
 30
0.0
 10
302.3458267852
 20
205.542949186
 30
0.0
 10
302.3528951848
 20
205.4922890228
 30
0.0
 10
302.3630736239
 20
205.4577607722
 30
0.0
 10
302.3849482736
 20
205.3701488459
 30
0.0
 10
302.4165213944
 20
205.2686517308
 30
0.0
 10
302.4800395606
 20
205.0823063598
 30
0.0
 10
302.5386697203
 20
204.9358829646
 30
0.0
 10
302.5826076389
 20
204.8316178213
 30
0.0
  0
SPLINE
  5
7CE
100
AcDbEntity
  8
KONSTRUKTIONSELEMENTE
100
AcDbSpline
 62
7
  6
CONTINUOUS
 70
0
 71
3
 72
9
 73
5
 74
0
 42
0.0000001
 43
0.0000001
 44
0.0000000001
 40
0.0
 40
0.0
 40
0.0
 40
0.0
 40
0.2326601938
 40
1.0
 40
1.0
 40
1.0
 40
1.0
 10
321.7648262894
 20
183.4122998679
 30
0.0
 10
321.4529128602
 20
183.8293397735
 30
0.0
 10
320.0892653152
 20
185.604587798
 30
0.0
 10
318.6458211028
 20
187.3177777619
 30
0.0
 10
317.5071207208
 20
188.6036579301
 30
0.0
  0
SPLINE
  5
7CF
100
AcDbEntity
  8
KONSTRUKTIONSELEMENTE
100
AcDbSpline
 62
7
  6
CONTINUOUS
 70
0
 71
3
 72
14
 73
10
 74
0
 42
0.0000001
 43
0.0000001
 44
0.0000000001
 40
0.0
 40
0.0
 40
0.0
 40
0.0
 40
0.1486768529
 40
0.2876295329
 40
0.4125201807
 40
0.5270219705
 40
0.6380202376
 40
0.7514956342
 40
1.0
 40
1.0
 40
1.0
 40
1.0
 10
297.5187347635
 20
208.3544901503
 30
0.0
 10
297.2306023014
 20
208.0755518656
 30
0.0
 10
296.7583170583
 20
207.4393760582
 30
0.0
 10
296.3952097861
 20
206.3720809104
 30
0.0
 10
296.3208596466
 20
205.3458516113
 30
0.0
 10
296.4319047617
 20
204.4033379971
 30
0.0
 10
296.6627560573
 20
203.5165820617
 30
0.0
 10
297.1018532506
 20
202.3173968627
 30
0.0
 10
297.5372818861
 20
201.4401803674
 30
0.0
 10
297.8582971739
 20
200.8517478228
 30
0.0
  0
SPLINE
  5
7D0
100
AcDbEntity
  8
KONSTRUKTIONSELEMENTE
100
AcDbSpline
 62
7
  6
CONTINUOUS
 70
0
 71
3
 72
14
 73
10
 74
0
 42
0.0000001
 43
0.0000001
 44
0.0000000001
 40
0.0
 40
0.0
 40
0.0
 40
0.0
 40
0.3511271397
 40
0.5101184518
 40
0.6539291876
 40
0.7793189679
 40
0.8826563999
 40
0.9590500044
 40
1.0
 40
1.0
 40
1.0
 40
1.0
 10
316.5746561368
 20
187.6880017641
 30
0.0
 10
317.7387054901
 20
186.5831657806
 30
0.0
 10
319.4676565627
 20
185.016509936
 30
0.0
 10
321.7724480428
 20
183.1128870126
 30
0.0
 10
323.3245036978
 20
181.919683684
 30
0.0
 10
324.7179430157
 20
180.9403732157
 30
0.0
 10
325.9016793394
 20
180.200113812
 30
0.0
 10
326.7957198196
 20
179.7329932762
 30
0.0
 10
327.2949693723
 20
179.5293265979
 30
0.0
 10
327.4761588176
 20
179.4823929073
 30
0.0
  0
SPLINE
  5
7D1
100
AcDbEntity
  8
KONSTRUKTIONSELEMENTE
100
AcDbSpline
 62
7
  6
CONTINUOUS
 70
0
 71
3
 72
13
 73
9
 74
0
 42
0.0000001
 43
0.0000001
 44
0.0000000001
 40
0.0
 40
0.0
 40
0.0
 40
0.0
 40
0.1498874791
 40
0.2919721285
 40
0.4218090472
 40
0.540761172
 40
0.7645766969
 40
1.0
 40
1.0
 40
1.0
 40
1.0
 10
330.1735976884
 20
174.5513392327
 30
0.0
 10
330.4259481983
 20
174.7956373512
 30
0.0
 10
330.8520931848
 20
175.345142846
 30
0.0
 10
331.2252969013
 20
176.2717236677
 30
0.0
 10
331.3627679389
 20
177.1842817901
 30
0.0
 10
331.3178692201
 20
178.2956681479
 30
0.0
 10
330.9837455795
 20
179.6204532741
 30
0.0
 10
330.5595627707
 20
180.6116615644
 30
0.0
 10
330.3204639572
 20
181.1088194885
 30
0.0
  0
SPLINE
  5
7D2
100
AcDbEntity
  8
KONSTRUKTIONSELEMENTE
100
AcDbSpline
 62
7
  6
CONTINUOUS
 70
0
 71
3
 72
9
 73
5
 74
0
 42
0.0000001
 43
0.0000001
 44
0.0000000001
 40
0.0
 40
0.0
 40
0.0
 40
0.0
 40
0.4764738732
 40
1.0
 40
1.0
 40
1.0
 40
1.0
 10
327.1335091774
 20
186.2402393369
 30
0.0
 10
326.30173249
 20
187.3878859867
 30
0.0
 10
324.4733498791
 20
189.7367815906
 30
0.0
 10
322.5320229475
 20
191.9920829865
 30
0.0
 10
321.4913495561
 20
193.1506620656
 30
0.0
  0
SPLINE
  5
7D3
100
AcDbEntity
  8
0
100
AcDbSpline
 62
7
  6
CONTINUOUS
 70
0
 71
3
 72
9
 73
5
 74
0
 42
0.0000001
 43
0.0000001
 44
0.0000000001
 40
0.0
 40
0.0
 40
0.0
 40
0.0
 40
0.4874263429
 40
1.0
 40
1.0
 40
1.0
 40
1.0
 10
276.1730700507
 20
116.7872741902
 30
0.0
 10
276.8420014874
 20
116.4297376699
 30
0.0
 10
278.3033022669
 20
115.8601268103
 30
0.0
 10
279.8334729511
 20
115.5456409678
 30
0.0
 10
280.6241759473
 20
115.4408380042
 30
0.0
  0
SPLINE
  5
7D4
100
AcDbEntity
  8
0
100
AcDbSpline
 62
7
  6
CONTINUOUS
 70
0
 71
3
 72
11
 73
7
 74
0
 42
0.0000001
 43
0.0000001
 44
0.0000000001
 40
0.0
 40
0.0
 40
0.0
 40
0.0
 40
0.2513556333
 40
0.5016708514
 40
0.7510886351
 40
1.0
 40
1.0
 40
1.0
 40
1.0
 10
276.1730789855
 20
116.7872902569
 30
0.0
 10
275.0872074994
 20
117.3677669963
 30
0.0
 10
273.0620998888
 20
118.8189991466
 30
0.0
 10
270.7170202081
 20
121.7098510711
 30
0.0
 10
269.232627243
 20
125.1114015832
 30
0.0
 10
268.8941280256
 20
127.5655472835
 30
0.0
 10
268.8941280256
 20
128.7848618129
 30
0.0
  0
SPLINE
  5
7D5
100
AcDbEntity
  8
RUNDUNGEN
100
AcDbSpline
 62
7
  6
CONTINUOUS
 70
0
 71
3
 72
9
 73
5
 74
0
 42
0.0000001
 43
0.0000001
 44
0.0000000001
 40
0.0
 40
0.0
 40
0.0
 40
0.0
 40
0.4874263429
 40
1.0
 40
1.0
 40
1.0
 40
1.0
 10
291.4151860004
 20
116.7872741902
 30
0.0
 10
290.7462545637
 20
116.4297376699
 30
0.0
 10
289.2849537842
 20
115.8601268103
 30
0.0
 10
287.7547831
 20
115.5456409678
 30
0.0
 10
286.9640801038
 20
115.4408380042
 30
0.0
  0
SPLINE
  5
7D6
100
AcDbEntity
  8
RUNDUNGEN
100
AcDbSpline
 62
7
  6
CONTINUOUS
 70
0
 71
3
 72
11
 73
7
 74
0
 42
0.0000001
 43
0.0000001
 44
0.0000000001
 40
0.0
 40
0.0
 40
0.0
 40
0.0
 40
0.2513556333
 40
0.5016708514
 40
0.7510886351
 40
1.0
 40
1.0
 40
1.0
 40
1.0
 10
291.4151770656
 20
116.7872902569
 30
0.0
 10
292.5010485517
 20
117.3677669963
 30
0.0
 10
294.5261561623
 20
118.8189991466
 30
0.0
 10
296.871235843
 20
121.7098510711
 30
0.0
 10
298.3556288081
 20
125.1114015832
 30
0.0
 10
298.6941280256
 20
127.5655472835
 30
0.0
 10
298.6941280256
 20
128.7848618129
 30
0.0
  0
SPLINE
  5
7D7
100
AcDbEntity
  8
BEZUGSACHSEN
100
AcDbSpline
 62
7
  6
CONTINUOUS
 70
0
 71
3
 72
19
 73
15
 74
0
 42
0.0000001
 43
0.0000001
 44
0.0000000001
 40
0.0
 40
0.0
 40
0.0
 40
0.0
 40
0.0615778188
 40
0.1233173652
 40
0.1853624895
 40
0.2478005785
 40
0.3733221741
 40
0.5
 40
0.6266778259
 40
0.7521994215
 40
0.8146375105
 40
0.8766826348
 40
0.9384221812
 40
1.0
 40
1.0
 40
1.0
 40
1.0
 10
276.6808780256
 20
145.7536020728
 30
0.0
 10
276.6808780256
 20
145.3044630461
 30
0.0
 10
276.7728920122
 20
144.4023365826
 30
0.0
 10
277.1811916152
 20
143.1042856283
 30
0.0
 10
277.8443325957
 20
141.9079936888
 30
0.0
 10
279.031697981
 20
140.5108079975
 30
0.0
 10
281.0147556756
 20
139.2350199947
 30
0.0
 10
283.7941280256
 20
138.7058093757
 30
0.0
 10
286.5735003755
 20
139.2350199947
 30
0.0
 10
288.5565580701
 20
140.5108079975
 30
0.0
 10
289.7439234554
 20
141.9079936888
 30
0.0
 10
290.4070644359
 20
143.1042856283
 30
0.0
 10
290.8153640389
 20
144.4023365826
 30
0.0
 10
290.9073780256
 20
145.3044630461
 30
0.0
 10
290.9073780256
 20
145.7536020728
 30
0.0
  0
SPLINE
  5
7D8
100
AcDbEntity
  8
KONSTRUKTIONSELEMENTE
100
AcDbSpline
 62
7
  6
CONTINUOUS
 70
0
 71
3
 72
15
 73
11
 74
0
 42
0.0000001
 43
0.0000001
 44
0.0000000001
 40
0.0
 40
0.0
 40
0.0
 40
0.0
 40
0.1084845917
 40
0.2226538062
 40
0.3424577975
 40
0.4674892935
 40
0.5969821857
 40
0.7298393436
 40
0.8646917104
 40
1.0
 40
1.0
 40
1.0
 40
1.0
 10
298.6941280256
 20
139.0249253294
 30
0.0
 10
298.6941280256
 20
138.2744502376
 30
0.0
 10
298.5224842815
 20
136.7297630397
 30
0.0
 10
297.7677668704
 20
134.4669887028
 30
0.0
 10
296.511899911
 20
132.3046877152
 30
0.0
 10
294.7859553429
 20
130.3523485579
 30
0.0
 10
292.6492575886
 20
128.7087489807
 30
0.0
 10
290.1854362628
 20
127.4573655692
 30
0.0
 10
287.4991147185
 20
126.6592764136
 30
0.0
 10
285.6299478072
 20
126.4523848873
 30
0.0
 10
284.6941280256
 20
126.4322593384
 30
0.0
  0
SPLINE
  5
7D9
100
AcDbEntity
  8
0
100
AcDbSpline
 62
7
  6
CONTINUOUS
 70
0
 71
3
 72
8
 73
4
 74
0
 42
0.0000001
 43
0.0000001
 44
0.0000000001
 40
0.0
 40
0.0
 40
0.0
 40
0.0
 40
1.0
 40
1.0
 40
1.0
 40
1.0
 10
268.8941280256
 20
151.833360067
 30
0.0
 10
268.8941280256
 20
151.8833086964
 30
0.0
 10
268.9084308561
 20
151.9349137108
 30
0.0
 10
268.9340551837
 20
151.9777886384
 30
0.0
  0
SPLINE
  5
7DA
100
AcDbEntity
  8
0
100
AcDbSpline
 62
7
  6
CONTINUOUS
 70
0
 71
3
 72
15
 73
11
 74
0
 42
0.0000001
 43
0.0000001
 44
0.0000000001
 40
0.0
 40
0.0
 40
0.0
 40
0.0
 40
0.1084845917
 40
0.2226538062
 40
0.3424577975
 40
0.4674892935
 40
0.5969821857
 40
0.7298393436
 40
0.8646917104
 40
1.0
 40
1.0
 40
1.0
 40
1.0
 10
268.8941280256
 20
139.0249253294
 30
0.0
 10
268.8941280256
 20
138.2744502376
 30
0.0
 10
269.0657717696
 20
136.7297630397
 30
0.0
 10
269.8204891808
 20
134.4669887028
 30
0.0
 10
271.0763561401
 20
132.3046877152
 30
0.0
 10
272.8023007082
 20
130.3523485579
 30
0.0
 10
274.9389984625
 20
128.7087489807
 30
0.0
 10
277.4028197883
 20
127.4573655692
 30
0.0
 10
280.0891413326
 20
126.6592764136
 30
0.0
 10
281.9583082439
 20
126.4523848873
 30
0.0
 10
282.8941280256
 20
126.4322593384
 30
0.0
  0
SPLINE
  5
7DB
100
AcDbEntity
  8
RUNDUNGEN
100
AcDbSpline
 62
7
  6
CONTINUOUS
 70
0
 71
3
 72
8
 73
4
 74
0
 42
0.0000001
 43
0.0000001
 44
0.0000000001
 40
0.0
 40
0.0
 40
0.0
 40
0.0
 40
1.0
 40
1.0
 40
1.0
 40
1.0
 10
298.6941280256
 20
151.833360067
 30
0.0
 10
298.6941280256
 20
151.8833086964
 30
0.0
 10
298.679825195
 20
151.9349137108
 30
0.0
 10
298.6542008674
 20
151.9777886384
 30
0.0
  0
SPLINE
  5
7DC
100
AcDbEntity
  8
BEZUGSACHSEN
100
AcDbSpline
 62
7
  6
CONTINUOUS
 70
0
 71
3
 72
19
 73
15
 74
0
 42
0.0000001
 43
0.0000001
 44
0.0000000001
 40
0.0
 40
0.0
 40
0.0
 40
0.0
 40
0.0615778188
 40
0.1233173652
 40
0.1853624895
 40
0.2478005785
 40
0.3733221741
 40
0.5
 40
0.6266778259
 40
0.7521994215
 40
0.8146375105
 40
0.8766826348
 40
0.9384221812
 40
1.0
 40
1.0
 40
1.0
 40
1.0
 10
290.9073780256
 20
145.7536020728
 30
0.0
 10
290.9073780256
 20
146.2027410995
 30
0.0
 10
290.8153640389
 20
147.104867563
 30
0.0
 10
290.4070644359
 20
148.4029185173
 30
0.0
 10
289.7439234554
 20
149.5992104568
 30
0.0
 10
288.5565580701
 20
150.9963961481
 30
0.0
 10
286.5735003755
 20
152.2721841509
 30
0.0
 10
283.7941280256
 20
152.8013947699
 30
0.0
 10
281.0147556756
 20
152.2721841509
 30
0.0
 10
279.031697981
 20
150.9963961481
 30
0.0
 10
277.8443325957
 20
149.5992104568
 30
0.0
 10
277.1811916152
 20
148.4029185173
 30
0.0
 10
276.7728920122
 20
147.104867563
 30
0.0
 10
276.6808780256
 20
146.2027410995
 30
0.0
 10
276.6808780256
 20
145.7536020728
 30
0.0
  0
SPLINE
  5
7DD
100
AcDbEntity
  8
RUNDUNGEN
100
AcDbSpline
 62
7
  6
CONTINUOUS
 70
0
 71
3
 72
14
 73
10
 74
0
 42
0.0000001
 43
0.0000001
 44
0.0000000001
 40
0.0
 40
0.0
 40
0.0
 40
0.0
 40
0.0530203222
 40
0.1277196065
 40
0.2271490675
 40
0.3499340678
 40
0.4928855102
 40
0.6519428582
 40
1.0
 40
1.0
 40
1.0
 40
1.0
 10
298.6542008674
 20
151.9777886384
 30
0.0
 10
298.6126257854
 20
152.0473525567
 30
0.0
 10
298.4468227802
 20
152.1705590757
 30
0.0
 10
298.1121546462
 20
152.2668782713
 30
0.0
 10
297.6593362902
 20
152.3183866526
 30
0.0
 10
297.1005874098
 20
152.3178654612
 30
0.0
 10
296.452700296
 20
152.2676207992
 30
0.0
 10
295.4681292295
 20
152.131078903
 30
0.0
 10
294.7091583189
 20
151.9666597157
 30
0.0
 10
294.1941280256
 20
151.833360067
 30
0.0
  0
SPLINE
  5
7DE
100
AcDbEntity
  8
0
100
AcDbSpline
 62
7
  6
CONTINUOUS
 70
0
 71
3
 72
14
 73
10
 74
0
 42
0.0000001
 43
0.0000001
 44
0.0000000001
 40
0.0
 40
0.0
 40
0.0
 40
0.0
 40
0.0530203222
 40
0.1277196065
 40
0.2271490675
 40
0.3499340678
 40
0.4928855102
 40
0.6519428582
 40
1.0
 40
1.0
 40
1.0
 40
1.0
 10
268.9340551837
 20
151.9777886384
 30
0.0
 10
268.9756302657
 20
152.0473525567
 30
0.0
 10
269.1414332709
 20
152.1705590757
 30
0.0
 10
269.476101405
 20
152.2668782713
 30
0.0
 10
269.9289197609
 20
152.3183866526
 30
0.0
 10
270.4876686413
 20
152.3178654612
 30
0.0
 10
271.1355557551
 20
152.2676207992
 30
0.0
 10
272.1201268217
 20
152.131078903
 30
0.0
 10
272.8790977323
 20
151.9666597157
 30
0.0
 10
273.3941280256
 20
151.833360067
 30
0.0
  0
SPLINE
  5
7DF
100
AcDbEntity
  8
0
100
AcDbSpline
 62
7
  6
CONTINUOUS
 70
0
 71
3
 72
9
 73
5
 74
0
 42
0.0000001
 43
0.0000001
 44
0.0000000001
 40
0.0
 40
0.0
 40
0.0
 40
0.0
 40
0.2398240227
 40
1.0
 40
1.0
 40
1.0
 40
1.0
 10
276.5110784965
 20
172.7786475459
 30
0.0
 10
276.5263444352
 20
172.7795845769
 30
0.0
 10
276.5900828438
 20
172.7820891295
 30
0.0
 10
276.653989671
 20
172.7791770613
 30
0.0
 10
276.7022427143
 20
172.7744927518
 30
0.0
  0
SPLINE
  5
7E0
100
AcDbEntity
  8
0
100
AcDbSpline
 62
7
  6
CONTINUOUS
 70
0
 71
3
 72
9
 73
5
 74
0
 42
0.0000001
 43
0.0000001
 44
0.0000000001
 40
0.0
 40
0.0
 40
0.0
 40
0.0
 40
0.5000000009
 40
1.0
 40
1.0
 40
1.0
 40
1.0
 10
286.7159095408
 20
206.3091547693
 30
0.0
 10
287.1195763472
 20
203.7216745097
 30
0.0
 10
287.5552272623
 20
198.4774400092
 30
0.0
 10
287.1195763458
 20
193.233205509
 30
0.0
 10
286.7159095408
 20
190.6457252584
 30
0.0
  0
SPLINE
  5
7E1
100
AcDbEntity
  8
0
100
AcDbSpline
 62
7
  6
CONTINUOUS
 70
0
 71
3
 72
11
 73
7
 74
0
 42
0.0000001
 43
0.0000001
 44
0.0000000001
 40
0.0
 40
0.0
 40
0.0
 40
0.0
 40
0.2517021932
 40
0.5000000008
 40
0.7482978086
 40
1.0
 40
1.0
 40
1.0
 40
1.0
 10
286.7159095408
 20
215.3524400138
 30
0.0
 10
286.9161351493
 20
214.6114488977
 30
0.0
 10
287.2288812794
 20
213.1142890893
 30
0.0
 10
287.3912926205
 20
210.8307973832
 30
0.0
 10
287.2288812827
 20
208.547305682
 30
0.0
 10
286.9161351478
 20
207.0501458798
 30
0.0
 10
286.7159095408
 20
206.3091547693
 30
0.0
  0
SPLINE
  5
7E2
100
AcDbEntity
  8
RUNDUNGEN
100
AcDbSpline
 62
7
  6
CONTINUOUS
 70
0
 71
3
 72
9
 73
5
 74
0
 42
0.0000001
 43
0.0000001
 44
0.0000000001
 40
0.0
 40
0.0
 40
0.0
 40
0.0
 40
0.2398240227
 40
1.0
 40
1.0
 40
1.0
 40
1.0
 10
291.0771775547
 20
172.7786475459
 30
0.0
 10
291.0619116159
 20
172.7795845769
 30
0.0
 10
290.9981732073
 20
172.7820891295
 30
0.0
 10
290.9342663801
 20
172.7791770613
 30
0.0
 10
290.8860133368
 20
172.7744927518
 30
0.0
  0
SPLINE
  5
7E3
100
AcDbEntity
  8
BEZUGSACHSEN
100
AcDbSpline
 62
7
  6
CONTINUOUS
 70
0
 71
3
 72
19
 73
15
 74
0
 42
0.0000001
 43
0.0000001
 44
0.0000000001
 40
0.0
 40
0.0
 40
0.0
 40
0.0
 40
0.0615637168
 40
0.1233167015
 40
0.1853986847
 40
0.2478631715
 40
0.3734162268
 40
0.5
 40
0.6265837732
 40
0.7521368285
 40
0.8146013153
 40
0.8766832985
 40
0.9384362832
 40
1.0
 40
1.0
 40
1.0
 40
1.0
 10
290.8727344862
 20
145.9127961039
 30
0.0
 10
290.8297618078
 20
146.332131576
 30
0.0
 10
290.6631045677
 20
147.1660437046
 30
0.0
 10
290.1810399067
 20
148.3481167714
 30
0.0
 10
289.4830208196
 20
149.4250897063
 30
0.0
 10
288.2973983425
 20
150.6720734793
 30
0.0
 10
286.4002975999
 20
151.7975149423
 30
0.0
 10
283.7941280256
 20
152.2623618243
 30
0.0
 10
281.1879584512
 20
151.7975149423
 30
0.0
 10
279.2908577086
 20
150.6720734793
 30
0.0
 10
278.1052352315
 20
149.4250897063
 30
0.0
 10
277.4072161444
 20
148.3481167714
 30
0.0
 10
276.9251514834
 20
147.1660437046
 30
0.0
 10
276.7584942433
 20
146.332131576
 30
0.0
 10
276.7155215649
 20
145.9127961039
 30
0.0
  0
SPLINE
  5
7E4
100
AcDbEntity
  8
0
100
AcDbSpline
 62
7
  6
CONTINUOUS
 70
0
 71
3
 72
14
 73
10
 74
0
 42
0.0000001
 43
0.0000001
 44
0.0000000001
 40
0.0
 40
0.0
 40
0.0
 40
0.0
 40
0.3480571418
 40
0.5071144898
 40
0.6500659322
 40
0.7728509325
 40
0.8722803935
 40
0.9469796778
 40
1.0
 40
1.0
 40
1.0
 40
1.0
 10
276.7941280256
 20
157.5216709324
 30
0.0
 10
276.2790977323
 20
157.6549705811
 30
0.0
 10
275.5201268217
 20
157.8193897684
 30
0.0
 10
274.5355557551
 20
157.9559316646
 30
0.0
 10
273.8876686413
 20
158.0061763266
 30
0.0
 10
273.3289197609
 20
158.006697518
 30
0.0
 10
272.876101405
 20
157.9551891367
 30
0.0
 10
272.5414332709
 20
157.8588699412
 30
0.0
 10
272.3756302657
 20
157.7356634221
 30
0.0
 10
272.3340551837
 20
157.6660995038
 30
0.0
  0
SPLINE
  5
7E5
100
AcDbEntity
  8
KONSTRUKTIONSELEMENTE
100
AcDbSpline
 62
7
  6
CONTINUOUS
 70
0
 71
3
 72
15
 73
11
 74
0
 42
0.0000001
 43
0.0000001
 44
0.0000000001
 40
0.0
 40
0.0
 40
0.0
 40
0.0
 40
0.124821211
 40
0.24969648
 40
0.3746520079
 40
0.4997008137
 40
0.6248494201
 40
0.7500472523
 40
0.8751730436
 40
1.0
 40
1.0
 40
1.0
 40
1.0
 10
284.6941280256
 20
116.5148553162
 30
0.0
 10
285.5368880405
 20
116.4967310917
 30
0.0
 10
287.2306053438
 20
116.6204089285
 30
0.0
 10
289.6878055086
 20
117.2819513114
 30
0.0
 10
291.9784435865
 20
118.3955763338
 30
0.0
 10
294.0210514131
 20
119.9193027106
 30
0.0
 10
295.7481176775
 20
121.7946598006
 30
0.0
 10
297.1079662424
 20
123.951110541
 30
0.0
 10
298.0675786028
 20
126.3089562461
 30
0.0
 10
298.4330774865
 20
127.9662138821
 30
0.0
 10
298.5474311258
 20
128.8014154095
 30
0.0
  0
SPLINE
  5
7E6
100
AcDbEntity
  8
0
100
AcDbSpline
 62
7
  6
CONTINUOUS
 70
0
 71
3
 72
19
 73
15
 74
0
 42
0.0000001
 43
0.0000001
 44
0.0000000001
 40
0.0
 40
0.0
 40
0.0
 40
0.0
 40
0.2532547504
 40
0.3791574958
 40
0.5039311022
 40
0.5659367976
 40
0.6276015936
 40
0.6889408453
 40
0.7500493489
 40
0.8111949111
 40
0.842151756
 40
0.8733867908
 40
0.9363342233
 40
1.0
 40
1.0
 40
1.0
 40
1.0
 10
280.6241757578
 20
127.864152218
 30
0.0
 10
279.4992654767
 20
128.0721319025
 30
0.0
 10
277.8402920185
 20
128.6249971
 30
0.0
 10
275.9208536719
 20
129.8657426785
 30
0.0
 10
274.8983699684
 20
130.8594123305
 30
0.0
 10
274.2506478804
 20
131.7795498372
 30
0.0
 10
273.8716971385
 20
132.5283295095
 30
0.0
 10
273.6300439492
 20
133.329699476
 30
0.0
 10
273.5707711504
 20
134.1652680698
 30
0.0
 10
273.7365185792
 20
134.8550369516
 30
0.0
 10
274.03144521
 20
135.3329947829
 30
0.0
 10
274.4348092148
 20
135.7366274362
 30
0.0
 10
275.1045746752
 20
136.0417755806
 30
0.0
 10
275.6804522627
 20
136.0921704768
 30
0.0
 10
275.9680364194
 20
136.0921704768
 30
0.0
  0
SPLINE
  5
7E7
100
AcDbEntity
  8
RUNDUNGEN
100
AcDbSpline
 62
7
  6
CONTINUOUS
 70
0
 71
3
 72
19
 73
15
 74
0
 42
0.0000001
 43
0.0000001
 44
0.0000000001
 40
0.0
 40
0.0
 40
0.0
 40
0.0
 40
0.2532547504
 40
0.3791574958
 40
0.5039311022
 40
0.5659367976
 40
0.6276015936
 40
0.6889408453
 40
0.7500493489
 40
0.8111949111
 40
0.842151756
 40
0.8733867908
 40
0.9363342233
 40
1.0
 40
1.0
 40
1.0
 40
1.0
 10
286.9640802933
 20
127.864152218
 30
0.0
 10
288.0889905744
 20
128.0721319025
 30
0.0
 10
289.7479640326
 20
128.6249971
 30
0.0
 10
291.6674023792
 20
129.8657426785
 30
0.0
 10
292.6898860827
 20
130.8594123305
 30
0.0
 10
293.3376081707
 20
131.7795498372
 30
0.0
 10
293.7165589126
 20
132.5283295095
 30
0.0
 10
293.9582121019
 20
133.329699476
 30
0.0
 10
294.0174849007
 20
134.1652680698
 30
0.0
 10
293.851737472
 20
134.8550369516
 30
0.0
 10
293.5568108411
 20
135.3329947829
 30
0.0
 10
293.1534468363
 20
135.7366274362
 30
0.0
 10
292.4836813759
 20
136.0417755806
 30
0.0
 10
291.9078037884
 20
136.0921704768
 30
0.0
 10
291.6202196318
 20
136.0921704768
 30
0.0
  0
SPLINE
  5
7E8
100
AcDbEntity
  8
0
100
AcDbSpline
 62
7
  6
CONTINUOUS
 70
0
 71
3
 72
15
 73
11
 74
0
 42
0.0000001
 43
0.0000001
 44
0.0000000001
 40
0.0
 40
0.0
 40
0.0
 40
0.0
 40
0.1237370085
 40
0.2484675528
 40
0.3740074793
 40
0.5
 40
0.6259925207
 40
0.7515324472
 40
0.8762629915
 40
1.0
 40
1.0
 40
1.0
 40
1.0
 10
273.8543401068
 20
129.5592208362
 30
0.0
 10
274.4198307469
 20
128.8002921835
 30
0.0
 10
275.7441728104
 20
127.4078336718
 30
0.0
 10
278.1659889372
 20
125.8390166511
 30
0.0
 10
280.9002506261
 20
124.8612865158
 30
0.0
 10
283.7941280256
 20
124.529660226
 30
0.0
 10
286.688005425
 20
124.8612865158
 30
0.0
 10
289.422267114
 20
125.8390166511
 30
0.0
 10
291.8440832407
 20
127.4078336718
 30
0.0
 10
293.1684253042
 20
128.8002921835
 30
0.0
 10
293.7339159443
 20
129.5592208362
 30
0.0
  0
SPLINE
  5
7E9
100
AcDbEntity
  8
0
100
AcDbSpline
 62
7
  6
CONTINUOUS
 70
0
 71
3
 72
15
 73
11
 74
0
 42
0.0000001
 43
0.0000001
 44
0.0000000001
 40
0.0
 40
0.0
 40
0.0
 40
0.0
 40
0.124897338
 40
0.2498549393
 40
0.3749060557
 40
0.500068381
 40
0.6253253237
 40
0.7505787772
 40
0.8755986442
 40
1.0
 40
1.0
 40
1.0
 40
1.0
 10
282.8941280256
 20
116.5148553162
 30
0.0
 10
281.9607742767
 20
116.4947828014
 30
0.0
 10
280.0834187661
 20
116.6510840534
 30
0.0
 10
277.3821994396
 20
117.4682494814
 30
0.0
 10
274.9077574034
 20
118.8313352482
 30
0.0
 10
272.7670163561
 20
120.6768856808
 30
0.0
 10
271.044031927
 20
122.9182180317
 30
0.0
 10
269.7970490501
 20
125.4529994263
 30
0.0
 10
269.0544239409
 20
128.1694608135
 30
0.0
 10
268.8941280256
 20
130.0382502159
 30
0.0
 10
268.8941280256
 20
130.9681124614
 30
0.0
  0
SPLINE
  5
7EA
100
AcDbEntity
  8
RUNDUNGEN
100
AcDbSpline
 62
7
  6
CONTINUOUS
 70
0
 71
3
 72
14
 73
10
 74
0
 42
0.0000001
 43
0.0000001
 44
0.0000000001
 40
0.0
 40
0.0
 40
0.0
 40
0.0
 40
0.3480571418
 40
0.5071144898
 40
0.6500659322
 40
0.7728509325
 40
0.8722803935
 40
0.9469796778
 40
1.0
 40
1.0
 40
1.0
 40
1.0
 10
290.7941280256
 20
157.5216709324
 30
0.0
 10
291.3091583189
 20
157.6549705811
 30
0.0
 10
292.0681292295
 20
157.8193897684
 30
0.0
 10
293.052700296
 20
157.9559316646
 30
0.0
 10
293.7005874098
 20
158.0061763266
 30
0.0
 10
294.2593362903
 20
158.006697518
 30
0.0
 10
294.7121546462
 20
157.9551891367
 30
0.0
 10
295.0468227802
 20
157.8588699412
 30
0.0
 10
295.2126257854
 20
157.7356634221
 30
0.0
 10
295.2542008674
 20
157.6660995038
 30
0.0
  0
SPLINE
  5
7EB
100
AcDbEntity
  8
0
100
AcDbSpline
 62
7
  6
CONTINUOUS
 70
0
 71
3
 72
11
 73
7
 74
0
 42
0.0000001
 43
0.0000001
 44
0.0000000001
 40
0.0
 40
0.0
 40
0.0
 40
0.0
 40
0.2517021932
 40
0.5000000008
 40
0.7482978086
 40
1.0
 40
1.0
 40
1.0
 40
1.0
 10
280.8723465103
 20
215.3524400138
 30
0.0
 10
280.6721209018
 20
214.6114488977
 30
0.0
 10
280.3593747717
 20
213.1142890893
 30
0.0
 10
280.1969634306
 20
210.8307973832
 30
0.0
 10
280.3593747684
 20
208.547305682
 30
0.0
 10
280.6721209033
 20
207.0501458798
 30
0.0
 10
280.8723465103
 20
206.3091547693
 30
0.0
  0
SPLINE
  5
7EC
100
AcDbEntity
  8
0
100
AcDbSpline
 62
7
  6
CONTINUOUS
 70
0
 71
3
 72
9
 73
5
 74
0
 42
0.0000001
 43
0.0000001
 44
0.0000000001
 40
0.0
 40
0.0
 40
0.0
 40
0.0
 40
0.5000000009
 40
1.0
 40
1.0
 40
1.0
 40
1.0
 10
280.8723465103
 20
206.3091547693
 30
0.0
 10
280.4686797039
 20
203.7216745097
 30
0.0
 10
280.0330287888
 20
198.4774400092
 30
0.0
 10
280.4686797053
 20
193.233205509
 30
0.0
 10
280.8723465103
 20
190.6457252584
 30
0.0
  0
SPLINE
  5
7ED
100
AcDbEntity
  8
BEZUGSACHSEN
100
AcDbSpline
 62
7
  6
CONTINUOUS
 70
0
 71
3
 72
17
 73
13
 74
0
 42
0.0000001
 43
0.0000001
 44
0.0000000001
 40
0.0
 40
0.0
 40
0.0
 40
0.0
 40
0.1780696982
 40
0.3548932684
 40
0.522293147
 40
0.6725562734
 40
0.7989590844
 40
0.8515244412
 40
0.8963357479
 40
0.9331521165
 40
0.9620727505
 40
1.0
 40
1.0
 40
1.0
 40
1.0
 10
405.0689512756
 20
105.3300294275
 30
0.0
 10
404.7805744829
 20
105.6085800192
 30
0.0
 10
404.2173261198
 20
106.1757467122
 30
0.0
 10
403.4220818091
 20
107.0424727411
 30
0.0
 10
402.7039886398
 20
107.8938425799
 30
0.0
 10
402.0972857951
 20
108.6891194366
 30
0.0
 10
401.6844560182
 20
109.3057564055
 30
0.0
 10
401.4369719634
 20
109.7452423448
 30
0.0
 10
401.3059062657
 20
110.0171088517
 30
0.0
 10
401.2196294299
 20
110.2531299881
 30
0.0
 10
401.1675813046
 20
110.4753161942
 30
0.0
 10
401.1864522103
 20
110.6501490447
 30
0.0
 10
401.2478820852
 20
110.7094693301
 30
0.0
  0
SPLINE
  5
7EE
100
AcDbEntity
  8
0
100
AcDbSpline
 62
7
  6
CONTINUOUS
 70
0
 71
3
 72
14
 73
10
 74
0
 42
0.0000001
 43
0.0000001
 44
0.0000000001
 40
0.0
 40
0.0
 40
0.0
 40
0.0
 40
0.3848342948
 40
0.5448011477
 40
0.6811680134
 40
0.7932471345
 40
0.881327789
 40
0.9478524789
 40
1.0
 40
1.0
 40
1.0
 40
1.0
 10
439.434486535
 20
72.6158362352
 30
0.0
 10
439.0676932886
 20
72.8950858632
 30
0.0
 10
438.5369201721
 20
73.2765417971
 30
0.0
 10
437.8392695089
 20
73.7005545687
 30
0.0
 10
437.4049124197
 20
73.9266110319
 30
0.0
 10
437.0309470145
 20
74.079681629
 30
0.0
 10
436.7198382542
 20
74.157746652
 30
0.0
 10
436.4682352227
 20
74.1631721328
 30
0.0
 10
436.3317371901
 20
74.0999084116
 30
0.0
 10
436.286824877
 20
74.0564903115
 30
0.0
  0
SPLINE
  5
7EF
100
AcDbEntity
  8
0
100
AcDbSpline
 62
7
  6
CONTINUOUS
 70
0
 71
3
 72
13
 73
9
 74
0
 42
0.0000001
 43
0.0000001
 44
0.0000000001
 40
0.0
 40
0.0
 40
0.0
 40
0.0
 40
0.3706048172
 40
0.6554979967
 40
0.7663831125
 40
0.8579849069
 40
0.9337145727
 40
1.0
 40
1.0
 40
1.0
 40
1.0
 10
419.1384623044
 20
92.0111296182
 30
0.0
 10
418.9164874825
 20
92.1437580326
 30
0.0
 10
418.5156721771
 20
92.3646592902
 30
0.0
 10
418.0181374651
 20
92.5687667772
 30
0.0
 10
417.6848616015
 20
92.6411995307
 30
0.0
 10
417.4897810914
 20
92.6510328013
 30
0.0
 10
417.3274758572
 20
92.619759305
 30
0.0
 10
417.2405278259
 20
92.5661919229
 30
0.0
 10
417.2072737708
 20
92.5340497734
 30
0.0
  0
SPLINE
  5
7F0
100
AcDbEntity
  8
RUNDUNGEN
100
AcDbSpline
 62
7
  6
CONTINUOUS
 70
0
 71
3
 72
12
 73
8
 74
0
 42
0.0000001
 43
0.0000001
 44
0.0000000001
 40
0.0
 40
0.0
 40
0.0
 40
0.0
 40
0.0611670511
 40
0.1416527351
 40
0.3611634952
 40
0.6520783701
 40
1.0
 40
1.0
 40
1.0
 40
1.0
 10
457.7423961974
 20
52.1768956255
 30
0.0
 10
457.7423961974
 20
52.2373011992
 30
0.0
 10
457.7177467114
 20
52.3767173928
 30
0.0
 10
457.5982339629
 20
52.7132421532
 30
0.0
 10
457.315981525
 20
53.2274003659
 30
0.0
 10
456.8406273612
 20
53.9292615966
 30
0.0
 10
456.4523358772
 20
54.4272959342
 30
0.0
 10
456.2347612299
 20
54.6932199268
 30
0.0
  0
SPLINE
  5
7F1
100
AcDbEntity
  8
RUNDUNGEN
100
AcDbSpline
 62
7
  6
CONTINUOUS
 70
0
 71
3
 72
11
 73
7
 74
0
 42
0.0000001
 43
0.0000001
 44
0.0000000001
 40
0.0
 40
0.0
 40
0.0
 40
0.0
 40
0.1348967641
 40
0.3688212487
 40
0.6717537487
 40
1.0
 40
1.0
 40
1.0
 40
1.0
 10
466.2276775717
 20
40.7812133912
 30
0.0
 10
466.2276775717
 20
40.807940503
 30
0.0
 10
466.1916105211
 20
40.8762438098
 30
0.0
 10
466.1186551806
 20
40.9848174965
 30
0.0
 10
466.0074196679
 20
41.1168882976
 30
0.0
 10
465.9209012408
 20
41.2069460947
 30
0.0
 10
465.8741241811
 20
41.2521292647
 30
0.0
  0
SPLINE
  5
7F2
100
AcDbEntity
  8
RUNDUNGEN
100
AcDbSpline
 62
7
  6
CONTINUOUS
 70
0
 71
3
 72
11
 73
7
 74
0
 42
0.0000001
 43
0.0000001
 44
0.0000000001
 40
0.0
 40
0.0
 40
0.0
 40
0.0
 40
0.3831246355
 40
0.676832755
 40
0.8769472571
 40
1.0
 40
1.0
 40
1.0
 40
1.0
 10
396.6998508042
 20
105.9453008074
 30
0.0
 10
396.6493802734
 20
105.9811163152
 30
0.0
 10
396.5585849014
 20
106.0421502971
 30
0.0
 10
396.4320583339
 20
106.107442538
 30
0.0
 10
396.3386161838
 20
106.1408789972
 30
0.0
 10
396.2803901502
 20
106.1323281279
 30
0.0
 10
396.2660975235
 20
106.1185144347
 30
0.0
  0
SPLINE
  5
7F3
100
AcDbEntity
  8
RUNDUNGEN
100
AcDbSpline
 62
7
  6
CONTINUOUS
 70
0
 71
3
 72
9
 73
5
 74
0
 42
0.0000001
 43
0.0000001
 44
0.0000000001
 40
0.0
 40
0.0
 40
0.0
 40
0.0
 40
0.5571940918
 40
1.0
 40
1.0
 40
1.0
 40
1.0
 10
398.1833716247
 20
123.7490062733
 30
0.0
 10
398.006768407
 20
123.8272745898
 30
0.0
 10
397.6838596273
 20
123.9547208085
 30
0.0
 10
397.3446504041
 20
124.0374024821
 30
0.0
 10
397.1920736562
 20
124.0543352108
 30
0.0
  0
SPLINE
  5
7F4
100
AcDbEntity
  8
RUNDUNGEN
100
AcDbSpline
 62
7
  6
CONTINUOUS
 70
0
 71
3
 72
12
 73
8
 74
0
 42
0.0000001
 43
0.0000001
 44
0.0000000001
 40
0.0
 40
0.0
 40
0.0
 40
0.0
 40
0.2854432875
 40
0.5742966057
 40
0.8242065645
 40
0.9230746476
 40
1.0
 40
1.0
 40
1.0
 40
1.0
 10
403.5129901774
 20
119.1308004406
 30
0.0
 10
403.1114243208
 20
119.6216020904
 30
0.0
 10
402.2606070549
 20
120.5744755777
 30
0.0
 10
400.9504460704
 20
121.854780506
 30
0.0
 10
399.8652702617
 20
122.7699969634
 30
0.0
 10
399.0866556447
 20
123.307535446
 30
0.0
 10
398.7451935302
 20
123.5000138975
 30
0.0
 10
398.5889514124
 20
123.5692584316
 30
0.0
  0
SPLINE
  5
7F5
100
AcDbEntity
  8
RUNDUNGEN
100
AcDbSpline
 62
7
  6
CONTINUOUS
 70
0
 71
3
 72
11
 73
7
 74
0
 42
0.0000001
 43
0.0000001
 44
0.0000000001
 40
0.0
 40
0.0
 40
0.0
 40
0.0
 40
0.2855242273
 40
0.5744465678
 40
0.8243990606
 40
1.0
 40
1.0
 40
1.0
 40
1.0
 10
413.4177883848
 20
107.024962203
 30
0.0
 10
413.2973114301
 20
107.1722114952
 30
0.0
 10
413.042036557
 20
107.457867035
 30
0.0
 10
412.649066902
 20
107.8429002644
 30
0.0
 10
412.2841121967
 20
108.1477540398
 30
0.0
 10
412.0475510738
 20
108.3090899329
 30
0.0
 10
411.9405767552
 20
108.3564996004
 30
0.0
  0
SPLINE
  5
7F6
100
AcDbEntity
  8
RUNDUNGEN
100
AcDbSpline
 62
7
  6
CONTINUOUS
 70
0
 71
3
 72
9
 73
5
 74
0
 42
0.0000001
 43
0.0000001
 44
0.0000000001
 40
0.0
 40
0.0
 40
0.0
 40
0.0
 40
0.5394967105
 40
1.0
 40
1.0
 40
1.0
 40
1.0
 10
456.7358254125
 20
65.6470136166
 30
0.0
 10
456.3912618976
 20
65.9798364144
 30
0.0
 10
455.735757728
 20
66.5794886681
 30
0.0
 10
455.0414048229
 20
67.1351321642
 30
0.0
 10
454.7079264741
 20
67.3717790982
 30
0.0
  0
SPLINE
  5
7F7
100
AcDbEntity
  8
RUNDUNGEN
100
AcDbSpline
 62
7
  6
CONTINUOUS
 70
0
 71
3
 72
14
 73
10
 74
0
 42
0.0000001
 43
0.0000001
 44
0.0000000001
 40
0.0
 40
0.0
 40
0.0
 40
0.0
 40
0.0546650285
 40
0.1355376427
 40
0.2415140182
 40
0.3693734414
 40
0.5146684856
 40
0.672125956
 40
1.0
 40
1.0
 40
1.0
 40
1.0
 10
466.2276775717
 20
55.1844932512
 30
0.0
 10
466.2276775717
 20
55.292910866
 30
0.0
 10
466.151738528
 20
55.5575385112
 30
0.0
 10
465.9432840211
 20
55.987481846
 30
0.0
 10
465.6141113314
 20
56.5197275394
 30
0.0
 10
465.1768120866
 20
57.1314733628
 30
0.0
 10
464.6457502857
 20
57.800852669
 30
0.0
 10
463.8284321191
 20
58.7478094475
 30
0.0
 10
463.1598572171
 20
59.4418753876
 30
0.0
 10
462.6921436658
 20
59.8936519862
 30
0.0
  0
SPLINE
  5
7F8
100
AcDbEntity
  8
RUNDUNGEN
100
AcDbSpline
 62
7
  6
CONTINUOUS
 70
0
 71
3
 72
8
 73
4
 74
0
 42
0.0000001
 43
0.0000001
 44
0.0000000001
 40
0.0
 40
0.0
 40
0.0
 40
0.0
 40
1.0
 40
1.0
 40
1.0
 40
1.0
 10
466.2213666001
 20
54.5580614706
 30
0.0
 10
466.2260230297
 20
54.5624859364
 30
0.0
 10
466.2276775717
 20
54.5698452379
 30
0.0
 10
466.2276775717
 20
54.5762684952
 30
0.0
  0
SPLINE
  5
7F9
100
AcDbEntity
  8
RUNDUNGEN
100
AcDbSpline
 62
7
  6
CONTINUOUS
 70
0
 71
3
 72
11
 73
7
 74
0
 42
0.0000001
 43
0.0000001
 44
0.0000000001
 40
0.0
 40
0.0
 40
0.0
 40
0.0
 40
0.1008954196
 40
0.3111966543
 40
0.6217757928
 40
1.0
 40
1.0
 40
1.0
 40
1.0
 10
462.6858326942
 20
51.1429979611
 30
0.0
 10
462.6754392694
 20
51.1331222931
 30
0.0
 10
462.6220702142
 20
51.1468709862
 30
0.0
 10
462.5532364955
 20
51.1910658588
 30
0.0
 10
462.4486859447
 20
51.2702231016
 30
0.0
 10
462.377246681
 20
51.3359625934
 30
0.0
 10
462.3385902752
 20
51.3733018141
 30
0.0
  0
SPLINE
  5
7FA
100
AcDbEntity
  8
0
100
AcDbSpline
 62
7
  6
CONTINUOUS
 70
0
 71
3
 72
9
 73
5
 74
0
 42
0.0000001
 43
0.0000001
 44
0.0000000001
 40
0.0
 40
0.0
 40
0.0
 40
0.0
 40
0.4519578096
 40
1.0
 40
1.0
 40
1.0
 40
1.0
 10
416.8598962548
 20
92.8936733777
 30
0.0
 10
416.815448027
 20
92.8507113516
 30
0.0
 10
416.7441345046
 20
92.7268569361
 30
0.0
 10
416.7302028886
 20
92.5881704822
 30
0.0
 10
416.7302028886
 20
92.513211057
 30
0.0
  0
SPLINE
  5
7FB
100
AcDbEntity
  8
0
100
AcDbSpline
 62
7
  6
CONTINUOUS
 70
0
 71
3
 72
9
 73
5
 74
0
 42
0.0000001
 43
0.0000001
 44
0.0000000001
 40
0.0
 40
0.0
 40
0.0
 40
0.0
 40
0.4520431102
 40
1.0
 40
1.0
 40
1.0
 40
1.0
 10
435.9394484589
 20
74.4161149156
 30
0.0
 10
435.8992270839
 20
74.3772316881
 30
0.0
 10
435.8347211442
 20
74.2651598114
 30
0.0
 10
435.8220859807
 20
74.1396814906
 30
0.0
 10
435.8220859807
 20
74.0718681059
 30
0.0
  0
SPLINE
  5
7FC
100
AcDbEntity
  8
RUNDUNGEN
100
AcDbSpline
 62
7
  6
CONTINUOUS
 70
0
 71
3
 72
9
 73
5
 74
0
 42
0.0000001
 43
0.0000001
 44
0.0000000001
 40
0.0
 40
0.0
 40
0.0
 40
0.0
 40
0.2218388199
 40
1.0
 40
1.0
 40
1.0
 40
1.0
 10
466.1658637665
 20
39.9917719559
 30
0.0
 10
466.1762164855
 20
40.0017815971
 30
0.0
 10
466.21707313
 20
40.0532870364
 30
0.0
 10
466.2276775717
 20
40.1224752161
 30
0.0
 10
466.2276775717
 20
40.1729886352
 30
0.0
  0
SPLINE
  5
7FD
100
AcDbEntity
  8
RUNDUNGEN
100
AcDbSpline
 62
7
  6
CONTINUOUS
 70
0
 71
3
 72
16
 73
12
 74
0
 42
0.0000001
 43
0.0000001
 44
0.0000000001
 40
0.0
 40
0.0
 40
0.0
 40
0.0
 40
0.0406935363
 40
0.0688789223
 40
0.1037508194
 40
0.194666286
 40
0.3133767797
 40
0.4573894856
 40
0.6229640379
 40
0.8055826945
 40
1.0
 40
1.0
 40
1.0
 40
1.0
 10
462.6303298606
 20
36.5767084465
 30
0.0
 10
462.5885723252
 20
36.53633471
 30
0.0
 10
462.4808475816
 20
36.5121219566
 30
0.0
 10
462.3356335107
 20
36.5327781645
 30
0.0
 10
462.1232743861
 20
36.5944862537
 30
0.0
 10
461.8080829175
 20
36.7472024167
 30
0.0
 10
461.378068326
 20
37.012330492
 30
0.0
 10
460.8817369828
 20
37.3699663148
 30
0.0
 10
460.3332881807
 20
37.8093739287
 30
0.0
 10
459.7492634716
 20
38.3183404017
 30
0.0
 10
459.3562036851
 20
38.6861004825
 30
0.0
 10
459.1566097598
 20
38.8788934097
 30
0.0
  0
SPLINE
  5
7FE
100
AcDbEntity
  8
RUNDUNGEN
100
AcDbSpline
 62
7
  6
CONTINUOUS
 70
0
 71
3
 72
12
 73
8
 74
0
 42
0.0000001
 43
0.0000001
 44
0.0000000001
 40
0.0
 40
0.0
 40
0.0
 40
0.0
 40
0.1229683891
 40
0.2119573972
 40
0.3236051429
 40
0.6170595586
 40
1.0
 40
1.0
 40
1.0
 40
1.0
 10
406.2009014098
 20
99.6517098908
 30
0.0
 10
406.1532541525
 20
99.6056726296
 30
0.0
 10
406.024360581
 20
99.5854386504
 30
0.0
 10
405.8559519985
 20
99.619514492
 30
0.0
 10
405.6024719415
 20
99.7069305053
 30
0.0
 10
405.2273404547
 20
99.9080704611
 30
0.0
 10
404.9232956167
 20
100.1096805655
 30
0.0
 10
404.7550314009
 20
100.2290862508
 30
0.0
  0
SPLINE
  5
7FF
100
AcDbEntity
  8
RUNDUNGEN
100
AcDbSpline
 62
7
  6
CONTINUOUS
 70
0
 71
3
 72
12
 73
8
 74
0
 42
0.0000001
 43
0.0000001
 44
0.0000000001
 40
0.0
 40
0.0
 40
0.0
 40
0.0
 40
0.1048397813
 40
0.1937661804
 40
0.3092677593
 40
0.6142494036
 40
1.0
 40
1.0
 40
1.0
 40
1.0
 10
406.5532987016
 20
115.135823428
 30
0.0
 10
406.5769999289
 20
115.1587563915
 30
0.0
 10
406.571145388
 20
115.2335915366
 30
0.0
 10
406.5393243124
 20
115.3210590983
 30
0.0
 10
406.4681496253
 20
115.4671328455
 30
0.0
 10
406.3291908118
 20
115.6785430444
 30
0.0
 10
406.1963575972
 20
115.8511362581
 30
0.0
 10
406.1195160215
 20
115.9450535359
 30
0.0
  0
SPLINE
  5
800
100
AcDbEntity
  8
RUNDUNGEN
100
AcDbSpline
 62
7
  6
CONTINUOUS
 70
0
 71
3
 72
9
 73
5
 74
0
 42
0.0000001
 43
0.0000001
 44
0.0000000001
 40
0.0
 40
0.0
 40
0.0
 40
0.0
 40
0.2218259981
 40
1.0
 40
1.0
 40
1.0
 40
1.0
 10
457.6805884367
 20
59.3916774847
 30
0.0
 10
457.6909406012
 20
59.4016860051
 30
0.0
 10
457.731795969
 20
59.4531908866
 30
0.0
 10
457.7423961974
 20
59.5223780661
 30
0.0
 10
457.7423961974
 20
59.5728911064
 30
0.0
  0
SPLINE
  5
801
100
AcDbEntity
  8
BEZUGSACHSEN
100
AcDbSpline
 62
7
  6
CONTINUOUS
 70
0
 71
3
 72
16
 73
12
 74
0
 42
0.0000001
 43
0.0000001
 44
0.0000000001
 40
0.0
 40
0.0
 40
0.0
 40
0.0
 40
0.0406937333
 40
0.0688807539
 40
0.1037548741
 40
0.1946723522
 40
0.3133808314
 40
0.4573937593
 40
0.6229678078
 40
0.805582656
 40
1.0
 40
1.0
 40
1.0
 40
1.0
 10
408.8900204659
 20
102.7975990211
 30
0.0
 10
408.8440596693
 20
102.7532165839
 30
0.0
 10
408.7255825099
 20
102.7265887973
 30
0.0
 10
408.5658342484
 20
102.7493039003
 30
0.0
 10
408.3322389583
 20
102.8172027834
 30
0.0
 10
407.9855294888
 20
102.9851935308
 30
0.0
 10
407.5125175942
 20
103.2768347021
 30
0.0
 10
406.9665630132
 20
103.6702333665
 30
0.0
 10
406.3632778213
 20
104.1535732797
 30
0.0
 10
405.7208619932
 20
104.713430079
 30
0.0
 10
405.2885030849
 20
105.1179586647
 30
0.0
 10
405.0689512756
 20
105.3300294275
 30
0.0
  0
SPLINE
  5
802
100
AcDbEntity
  8
0
100
AcDbSpline
 62
7
  6
CONTINUOUS
 70
0
 71
3
 72
11
 73
7
 74
0
 42
0.0000001
 43
0.0000001
 44
0.0000000001
 40
0.0
 40
0.0
 40
0.0
 40
0.0
 40
0.1659345516
 40
0.375397696
 40
0.6509059308
 40
1.0
 40
1.0
 40
1.0
 40
1.0
 10
398.5369391972
 20
113.7858054798
 30
0.0
 10
398.6093655717
 20
113.8557524319
 30
0.0
 10
398.8263054796
 20
113.9593919698
 30
0.0
 10
399.2277068755
 20
113.9579183243
 30
0.0
 10
399.7223669163
 20
113.8413888987
 30
0.0
 10
400.0759571902
 20
113.7019491739
 30
0.0
 10
400.269619092
 20
113.6161206639
 30
0.0
  0
SPLINE
  5
803
100
AcDbEntity
  8
RUNDUNGEN
100
AcDbSpline
 62
7
  6
CONTINUOUS
 70
0
 71
3
 72
15
 73
11
 74
0
 42
0.0000001
 43
0.0000001
 44
0.0000000001
 40
0.0
 40
0.0
 40
0.0
 40
0.0
 40
0.2012473044
 40
0.3857014681
 40
0.5498421266
 40
0.6907474574
 40
0.8062032579
 40
0.8540171421
 40
0.8951941155
 40
1.0
 40
1.0
 40
1.0
 40
1.0
 10
397.0789122061
 20
112.9391999546
 30
0.0
 10
396.7046493981
 20
113.3966312841
 30
0.0
 10
396.0004184549
 20
114.284130826
 30
0.0
 10
395.0423604511
 20
115.5846233769
 30
0.0
 10
394.2404185593
 20
116.7780508913
 30
0.0
 10
393.6101513324
 20
117.8421715371
 30
0.0
 10
393.2150348237
 20
118.6420322354
 30
0.0
 10
393.0028519543
 20
119.2095900787
 30
0.0
 10
392.8510958064
 20
119.7401076286
 30
0.0
 10
392.8090622842
 20
120.2780200336
 30
0.0
 10
393.0303093718
 20
120.492003528
 30
0.0
  0
SPLINE
  5
804
100
AcDbEntity
  8
0
100
AcDbSpline
 62
7
  6
CONTINUOUS
 70
0
 71
3
 72
14
 73
10
 74
0
 42
0.0000001
 43
0.0000001
 44
0.0000000001
 40
0.0
 40
0.0
 40
0.0
 40
0.0
 40
0.3806770524
 40
0.538023538
 40
0.6723230184
 40
0.7835193218
 40
0.8725223092
 40
0.9423439071
 40
1.0
 40
1.0
 40
1.0
 40
1.0
 10
396.4176263736
 20
106.2285265531
 30
0.0
 10
396.1043991311
 20
106.7153213097
 30
0.0
 10
395.681206304
 20
107.4172542658
 30
0.0
 10
395.2291774187
 20
108.3349229182
 30
0.0
 10
394.9989846215
 20
108.9033301114
 30
0.0
 10
394.8559837756
 20
109.3928273859
 30
0.0
 10
394.8016675863
 20
109.8019297724
 30
0.0
 10
394.836769966
 20
110.134567591
 30
0.0
 10
394.9383414653
 20
110.3098370522
 30
0.0
 10
395.0014052912
 20
110.3707419704
 30
0.0
  0
SPLINE
  5
805
100
AcDbEntity
  8
RUNDUNGEN
100
AcDbSpline
 62
7
  6
CONTINUOUS
 70
0
 71
3
 72
10
 73
6
 74
0
 42
0.0000001
 43
0.0000001
 44
0.0000000001
 40
0.0
 40
0.0
 40
0.0
 40
0.0
 40
0.6785007611
 40
0.8787501437
 40
1.0
 40
1.0
 40
1.0
 40
1.0
 10
392.9038446318
 20
102.241137204
 30
0.0
 10
392.8393485353
 20
102.3371502389
 30
0.0
 10
392.7599768154
 20
102.4672765868
 30
0.0
 10
392.7057667922
 20
102.6279021758
 30
0.0
 10
392.7157362538
 20
102.6891676604
 30
0.0
 10
392.7306229091
 20
102.7035070061
 30
0.0
  0
SPLINE
  5
806
100
AcDbEntity
  8
RUNDUNGEN
100
AcDbSpline
 62
7
  6
CONTINUOUS
 70
0
 71
3
 72
11
 73
7
 74
0
 42
0.0000001
 43
0.0000001
 44
0.0000000001
 40
0.0
 40
0.0
 40
0.0
 40
0.0
 40
0.2283935007
 40
0.4975020238
 40
0.7679048038
 40
1.0
 40
1.0
 40
1.0
 40
1.0
 10
397.9501583928
 20
95.4057260291
 30
0.0
 10
397.817965126
 20
95.4995346119
 30
0.0
 10
397.5451706688
 20
95.7249640495
 30
0.0
 10
397.1522163033
 20
96.1030750109
 30
0.0
 10
396.7843507959
 20
96.5092140879
 30
0.0
 10
396.5647987322
 20
96.7912056146
 30
0.0
 10
396.4729467633
 20
96.9279423594
 30
0.0
  0
SPLINE
  5
807
100
AcDbEntity
  8
RUNDUNGEN
100
AcDbSpline
 62
7
  6
CONTINUOUS
 70
0
 71
3
 72
9
 73
5
 74
0
 42
0.0000001
 43
0.0000001
 44
0.0000000001
 40
0.0
 40
0.0
 40
0.0
 40
0.0
 40
0.2538116446
 40
1.0
 40
1.0
 40
1.0
 40
1.0
 10
453.2002915065
 20
44.6322550402
 30
0.0
 10
453.0184855493
 20
44.8078661097
 30
0.0
 10
452.3124898483
 20
45.5102767298
 30
0.0
 10
451.642968571
 20
46.2499422725
 30
0.0
 10
451.1723925682
 20
46.8250894739
 30
0.0
  0
SPLINE
  5
808
100
AcDbEntity
  8
RUNDUNGEN
100
AcDbSpline
 62
7
  6
CONTINUOUS
 70
0
 71
3
 72
9
 73
5
 74
0
 42
0.0000001
 43
0.0000001
 44
0.0000000001
 40
0.0
 40
0.0
 40
0.0
 40
0.0
 40
0.2929719602
 40
1.0
 40
1.0
 40
1.0
 40
1.0
 10
457.7423961974
 20
61.3489161698
 30
0.0
 10
457.7423961974
 20
61.3678784368
 30
0.0
 10
457.7457731312
 20
61.4320755758
 30
0.0
 10
457.7713110397
 20
61.4983241614
 30
0.0
 10
457.8042098754
 20
61.5301327631
 30
0.0
  0
SPLINE
  5
809
100
AcDbEntity
  8
RUNDUNGEN
100
AcDbSpline
 62
7
  6
CONTINUOUS
 70
0
 71
3
 72
9
 73
5
 74
0
 42
0.0000001
 43
0.0000001
 44
0.0000000001
 40
0.0
 40
0.0
 40
0.0
 40
0.0
 40
0.5385571132
 40
1.0
 40
1.0
 40
1.0
 40
1.0
 10
457.7423961974
 20
55.8128843764
 30
0.0
 10
457.4024055828
 20
56.1412900918
 30
0.0
 10
456.7546849526
 20
56.7342422313
 30
0.0
 10
456.0691589564
 20
57.2843730449
 30
0.0
 10
455.739587364
 20
57.5197859483
 30
0.0
  0
SPLINE
  5
80A
100
AcDbEntity
  8
RUNDUNGEN
100
AcDbSpline
 62
7
  6
CONTINUOUS
 70
0
 71
3
 72
14
 73
10
 74
0
 42
0.0000001
 43
0.0000001
 44
0.0000000001
 40
0.0
 40
0.0
 40
0.0
 40
0.0
 40
0.327873784
 40
0.4853312748
 40
0.6306263543
 40
0.7584857965
 40
0.8644622094
 40
0.9453349233
 40
1.0
 40
1.0
 40
1.0
 40
1.0
 10
461.2779301034
 20
45.691711827
 30
0.0
 10
460.8102169232
 20
46.1434880671
 30
0.0
 10
460.1416423399
 20
46.8375536502
 30
0.0
 10
459.3243243744
 20
47.7845100657
 30
0.0
 10
458.7932624348
 20
48.4538894515
 30
0.0
 10
458.3559630402
 20
49.0656353882
 30
0.0
 10
458.0267900998
 20
49.5978812936
 30
0.0
 10
457.8183353898
 20
50.02782493
 30
0.0
 10
457.7423961974
 20
50.2924528516
 30
0.0
 10
457.7423961974
 20
50.400870562
 30
0.0
  0
SPLINE
  5
80B
100
AcDbEntity
  8
RUNDUNGEN
100
AcDbSpline
 62
7
  6
CONTINUOUS
 70
0
 71
3
 72
14
 73
10
 74
0
 42
0.0000001
 43
0.0000001
 44
0.0000000001
 40
0.0
 40
0.0
 40
0.0
 40
0.0
 40
0.2012572751
 40
0.3857885661
 40
0.5499429896
 40
0.6908692187
 40
0.8063236906
 40
0.8952181046
 40
1.0
 40
1.0
 40
1.0
 40
1.0
 10
450.9054697116
 20
61.2067843316
 30
0.0
 10
450.7450672271
 20
61.4028313878
 30
0.0
 10
450.4431971081
 20
61.7833493955
 30
0.0
 10
450.0325473514
 20
62.3404749094
 30
0.0
 10
449.6887479491
 20
62.85302028
 30
0.0
 10
449.4188063078
 20
63.3062674236
 30
0.0
 10
449.2261380613
 20
63.7032491545
 30
0.0
 10
449.0988511835
 20
64.0528849002
 30
0.0
 10
449.0756508413
 20
64.3522910323
 30
0.0
 10
449.1705331655
 20
64.4438859719
 30
0.0
  0
SPLINE
  5
80C
100
AcDbEntity
  8
RUNDUNGEN
100
AcDbSpline
 62
7
  6
CONTINUOUS
 70
0
 71
3
 72
11
 73
7
 74
0
 42
0.0000001
 43
0.0000001
 44
0.0000000001
 40
0.0
 40
0.0
 40
0.0
 40
0.0
 40
0.217048507
 40
0.4713284974
 40
0.7403269981
 40
1.0
 40
1.0
 40
1.0
 40
1.0
 10
439.6977964236
 20
78.0234488978
 30
0.0
 10
438.6973605707
 20
78.7333902724
 30
0.0
 10
436.6142659296
 20
80.400349037
 30
0.0
 10
433.5256070088
 20
83.225865174
 30
0.0
 10
430.4307516449
 20
86.3918246401
 30
0.0
 10
428.4597747591
 20
88.6403520366
 30
0.0
 10
427.5304027934
 20
89.7762486438
 30
0.0
  0
SPLINE
  5
80D
100
AcDbEntity
  8
RUNDUNGEN
100
AcDbSpline
 62
7
  6
CONTINUOUS
 70
0
 71
3
 72
11
 73
7
 74
0
 42
0.0000001
 43
0.0000001
 44
0.0000000001
 40
0.0
 40
0.0
 40
0.0
 40
0.0
 40
0.2596730019
 40
0.5286715026
 40
0.782951493
 40
1.0
 40
1.0
 40
1.0
 40
1.0
 10
436.1622625177
 20
65.1707642178
 30
0.0
 10
435.232890552
 20
66.306660825
 30
0.0
 10
433.2619136662
 20
68.5551882215
 30
0.0
 10
430.1670583023
 20
71.7211476876
 30
0.0
 10
427.0783993815
 20
74.5466638246
 30
0.0
 10
424.9953047404
 20
76.2136225892
 30
0.0
 10
423.9948688875
 20
76.9235639638
 30
0.0
  0
SPLINE
  5
80E
100
AcDbEntity
  8
RUNDUNGEN
100
AcDbSpline
 62
7
  6
CONTINUOUS
 70
0
 71
3
 72
12
 73
8
 74
0
 42
0.0000001
 43
0.0000001
 44
0.0000000001
 40
0.0
 40
0.0
 40
0.0
 40
0.0
 40
0.0769163679
 40
0.1757857774
 40
0.42568196
 40
0.7145393197
 40
1.0
 40
1.0
 40
1.0
 40
1.0
 10
410.3182576045
 20
109.0754909669
 30
0.0
 10
410.24014568
 20
109.1101091858
 30
0.0
 10
410.0694241774
 20
109.2063476937
 30
0.0
 10
409.6801286133
 20
109.4750914741
 30
0.0
 10
409.1375519711
 20
109.9326996574
 30
0.0
 10
408.482458111
 20
110.5728495613
 30
0.0
 10
408.0570333582
 20
111.0493042168
 30
0.0
 10
407.856238222
 20
111.2947199625
 30
0.0
  0
SPLINE
  5
80F
100
AcDbEntity
  8
RUNDUNGEN
100
AcDbSpline
 62
7
  6
CONTINUOUS
 70
0
 71
3
 72
11
 73
7
 74
0
 42
0.0000001
 43
0.0000001
 44
0.0000000001
 40
0.0
 40
0.0
 40
0.0
 40
0.0
 40
0.3782242072
 40
0.6888033457
 40
0.8991045804
 40
1.0
 40
1.0
 40
1.0
 40
1.0
 10
465.8741241811
 20
54.7883653236
 30
0.0
 10
465.9127805869
 20
54.7510261028
 30
0.0
 10
465.9842198506
 20
54.685286611
 30
0.0
 10
466.0887704014
 20
54.6061293683
 30
0.0
 10
466.1576041202
 20
54.5619344957
 30
0.0
 10
466.2109731753
 20
54.5481858026
 30
0.0
 10
466.2213666001
 20
54.5580614706
 30
0.0
  0
SPLINE
  5
810
100
AcDbEntity
  8
RUNDUNGEN
100
AcDbSpline
 62
7
  6
CONTINUOUS
 70
0
 71
3
 72
12
 73
8
 74
0
 42
0.0000001
 43
0.0000001
 44
0.0000000001
 40
0.0
 40
0.0
 40
0.0
 40
0.0
 40
0.3829279487
 40
0.6763788394
 40
0.7880316563
 40
0.8770245698
 40
1.0
 40
1.0
 40
1.0
 40
1.0
 10
456.2347612299
 20
59.9690939087
 30
0.0
 10
456.4030142199
 20
59.8496961895
 30
0.0
 10
456.7070420999
 20
59.6480962533
 30
0.0
 10
457.0821490619
 20
59.4469630821
 30
0.0
 10
457.3356263904
 20
59.3595403819
 30
0.0
 10
457.5040217542
 20
59.3254590989
 30
0.0
 10
457.6329542293
 20
59.3456245131
 30
0.0
 10
457.6805884367
 20
59.3916774847
 30
0.0
  0
SPLINE
  5
811
100
AcDbEntity
  8
RUNDUNGEN
100
AcDbSpline
 62
7
  6
CONTINUOUS
 70
0
 71
3
 72
16
 73
12
 74
0
 42
0.0000001
 43
0.0000001
 44
0.0000000001
 40
0.0
 40
0.0
 40
0.0
 40
0.0
 40
0.1944173055
 40
0.3770359621
 40
0.5426105144
 40
0.6866232203
 40
0.805333714
 40
0.8962491806
 40
0.9311210777
 40
0.9593064637
 40
1.0
 40
1.0
 40
1.0
 40
1.0
 10
462.6921436658
 20
42.2939569192
 30
0.0
 10
462.891737591
 20
42.101163992
 30
0.0
 10
463.2847973775
 20
41.7334039112
 30
0.0
 10
463.8688220867
 20
41.2244374382
 30
0.0
 10
464.4172708887
 20
40.7850298242
 30
0.0
 10
464.9136022319
 20
40.4273940015
 30
0.0
 10
465.3436168234
 20
40.1622659262
 30
0.0
 10
465.658808292
 20
40.0095497632
 30
0.0
 10
465.8711674166
 20
39.947841674
 30
0.0
 10
466.0163814875
 20
39.9271854661
 30
0.0
 10
466.1241062311
 20
39.9513982194
 30
0.0
 10
466.1658637665
 20
39.9917719559
 30
0.0
  0
SPLINE
  5
812
100
AcDbEntity
  8
RUNDUNGEN
100
AcDbSpline
 62
7
  6
CONTINUOUS
 70
0
 71
3
 72
9
 73
5
 74
0
 42
0.0000001
 43
0.0000001
 44
0.0000000001
 40
0.0
 40
0.0
 40
0.0
 40
0.0
 40
0.2406099096
 40
1.0
 40
1.0
 40
1.0
 40
1.0
 10
454.7079264741
 20
50.2401529833
 30
0.0
 10
454.8596663081
 20
50.0546935882
 30
0.0
 10
455.5035750741
 20
49.2948337818
 30
0.0
 10
456.1918662733
 20
48.5727427306
 30
0.0
 10
456.7358254125
 20
48.0473185496
 30
0.0
  0
SPLINE
  5
813
100
AcDbEntity
  8
RUNDUNGEN
100
AcDbSpline
 62
7
  6
CONTINUOUS
 70
0
 71
3
 72
11
 73
7
 74
0
 42
0.0000001
 43
0.0000001
 44
0.0000000001
 40
0.0
 40
0.0
 40
0.0
 40
0.0
 40
0.2321082131
 40
0.5025206982
 40
0.7716173963
 40
1.0
 40
1.0
 40
1.0
 40
1.0
 10
400.0084806692
 20
100.3430058689
 30
0.0
 10
400.1003377896
 20
100.2062614553
 30
0.0
 10
400.3199010071
 20
99.9242580575
 30
0.0
 10
400.6877731639
 20
99.5181145741
 30
0.0
 10
401.0807226957
 20
99.14001191
 30
0.0
 10
401.353505339
 20
98.9145936456
 30
0.0
 10
401.4856922988
 20
98.8207895385
 30
0.0
  0
SPLINE
  5
814
100
AcDbEntity
  8
0
100
AcDbSpline
 62
7
  6
CONTINUOUS
 70
0
 71
3
 72
15
 73
11
 74
0
 42
0.0000001
 43
0.0000001
 44
0.0000000001
 40
0.0
 40
0.0
 40
0.0
 40
0.0
 40
0.2018499553
 40
0.3828567064
 40
0.5413894942
 40
0.6765595027
 40
0.7880615151
 40
0.8765600154
 40
0.9448337862
 40
1.0
 40
1.0
 40
1.0
 40
1.0
 10
400.269619092
 20
109.1625454974
 30
0.0
 10
400.0768804658
 20
109.4494686051
 30
0.0
 10
399.7201138774
 20
109.9997143438
 30
0.0
 10
399.248144934
 20
110.7980199906
 30
0.0
 10
398.8714288021
 20
111.5189222403
 30
0.0
 10
398.5933013467
 20
112.1553601523
 30
0.0
 10
398.4148920979
 20
112.7023793311
 30
0.0
 10
398.3380589249
 20
113.1574601503
 30
0.0
 10
398.3621387961
 20
113.5255271058
 30
0.0
 10
398.4689880557
 20
113.720180557
 30
0.0
 10
398.5369391972
 20
113.7858054798
 30
0.0
  0
SPLINE
  5
815
100
AcDbEntity
  8
0
100
AcDbSpline
 62
7
  6
CONTINUOUS
 70
0
 71
3
 72
13
 73
9
 74
0
 42
0.0000001
 43
0.0000001
 44
0.0000000001
 40
0.0
 40
0.0
 40
0.0
 40
0.0
 40
0.3706048172
 40
0.6554979967
 40
0.7663831125
 40
0.8579849069
 40
0.9337145727
 40
1.0
 40
1.0
 40
1.0
 40
1.0
 10
418.8876442151
 20
92.3446072147
 30
0.0
 10
418.6545706521
 20
92.4838670498
 30
0.0
 10
418.2337145814
 20
92.7158133704
 30
0.0
 10
417.7113031338
 20
92.9301262317
 30
0.0
 10
417.361363477
 20
93.0061806229
 30
0.0
 10
417.1565289414
 20
93.016505557
 30
0.0
 10
416.9861084455
 20
92.9836683859
 30
0.0
 10
416.8948130127
 20
92.9274226347
 30
0.0
 10
416.8598962548
 20
92.8936733777
 30
0.0
  0
SPLINE
  5
816
100
AcDbEntity
  8
RUNDUNGEN
100
AcDbSpline
 62
7
  6
CONTINUOUS
 70
0
 71
3
 72
9
 73
5
 74
0
 42
0.0000001
 43
0.0000001
 44
0.0000000001
 40
0.0
 40
0.0
 40
0.0
 40
0.0
 40
0.6294496393
 40
1.0
 40
1.0
 40
1.0
 40
1.0
 10
406.379988288
 20
115.1527596635
 30
0.0
 10
406.4145456922
 20
115.1374442582
 30
0.0
 10
406.4687978483
 20
115.1141558962
 30
0.0
 10
406.5373071442
 20
115.1203502292
 30
0.0
 10
406.5532987016
 20
115.135823428
 30
0.0
  0
SPLINE
  5
817
100
AcDbEntity
  8
0
100
AcDbSpline
 62
7
  6
CONTINUOUS
 70
0
 71
3
 72
9
 73
5
 74
0
 42
0.0000001
 43
0.0000001
 44
0.0000000001
 40
0.0
 40
0.0
 40
0.0
 40
0.0
 40
0.4519578096
 40
1.0
 40
1.0
 40
1.0
 40
1.0
 10
417.2072737708
 20
92.5340497734
 30
0.0
 10
417.1649421253
 20
92.4931335581
 30
0.0
 10
417.0970244849
 20
92.3751769718
 30
0.0
 10
417.0837562792
 20
92.2430946348
 30
0.0
 10
417.0837562792
 20
92.171704706
 30
0.0
  0
SPLINE
  5
818
100
AcDbEntity
  8
0
100
AcDbSpline
 62
7
  6
CONTINUOUS
 70
0
 71
3
 72
9
 73
5
 74
0
 42
0.0000001
 43
0.0000001
 44
0.0000000001
 40
0.0
 40
0.0
 40
0.0
 40
0.0
 40
0.4520431102
 40
1.0
 40
1.0
 40
1.0
 40
1.0
 10
436.286824877
 20
74.0564903115
 30
0.0
 10
436.2487204165
 20
74.0196535696
 30
0.0
 10
436.1876095261
 20
73.9134802128
 30
0.0
 10
436.1756393713
 20
73.7946060142
 30
0.0
 10
436.1756393713
 20
73.730361755
 30
0.0
  0
SPLINE
  5
819
100
AcDbEntity
  8
BEZUGSACHSEN
100
AcDbSpline
 62
7
  6
CONTINUOUS
 70
0
 71
3
 72
16
 73
12
 74
0
 42
0.0000001
 43
0.0000001
 44
0.0000000001
 40
0.0
 40
0.0
 40
0.0
 40
0.0
 40
0.198897828
 40
0.3825467473
 40
0.5469229012
 40
0.688556658
 40
0.8047563545
 40
0.8939736478
 40
0.9285867443
 40
0.9570393344
 40
1.0
 40
1.0
 40
1.0
 40
1.0
 10
407.0355151121
 20
106.0820755035
 30
0.0
 10
407.2020193035
 20
105.885529707
 30
0.0
 10
407.5165549071
 20
105.5026119949
 30
0.0
 10
407.9466388505
 20
104.9395855948
 30
0.0
 10
408.3099240959
 20
104.4195511072
 30
0.0
 10
408.5986815244
 20
103.954681021
 30
0.0
 10
408.8061244475
 20
103.5555302704
 30
0.0
 10
408.9187704356
 20
103.2642454552
 30
0.0
 10
408.9566118808
 20
103.0695821254
 30
0.0
 10
408.9623306088
 20
102.9331123685
 30
0.0
 10
408.9300439432
 20
102.8362480351
 30
0.0
 10
408.8900204659
 20
102.7975990211
 30
0.0
  0
SPLINE
  5
81A
100
AcDbEntity
  8
0
100
AcDbSpline
 62
7
  6
CONTINUOUS
 70
0
 71
3
 72
14
 73
10
 74
0
 42
0.0000001
 43
0.0000001
 44
0.0000000001
 40
0.0
 40
0.0
 40
0.0
 40
0.0
 40
0.3848342948
 40
0.5448011477
 40
0.6811680134
 40
0.7932471345
 40
0.881327789
 40
0.9478524789
 40
1.0
 40
1.0
 40
1.0
 40
1.0
 10
439.2619802091
 20
72.8954245017
 30
0.0
 10
438.8748095601
 20
73.190187998
 30
0.0
 10
438.3145490482
 20
73.5928359282
 30
0.0
 10
437.5781400149
 20
74.0404049649
 30
0.0
 10
437.1196519763
 20
74.2790201204
 30
0.0
 10
436.7249107152
 20
74.4405946396
 30
0.0
 10
436.3965181349
 20
74.5229966083
 30
0.0
 10
436.1309371572
 20
74.5287235048
 30
0.0
 10
435.9868559005
 20
74.4619451324
 30
0.0
 10
435.9394484589
 20
74.4161149156
 30
0.0
  0
SPLINE
  5
81B
100
AcDbEntity
  8
RUNDUNGEN
100
AcDbSpline
 62
7
  6
CONTINUOUS
 70
0
 71
3
 72
10
 73
6
 74
0
 42
0.0000001
 43
0.0000001
 44
0.0000000001
 40
0.0
 40
0.0
 40
0.0
 40
0.0
 40
0.1212917484
 40
0.32158466
 40
1.0
 40
1.0
 40
1.0
 40
1.0
 10
396.2660975235
 20
106.1185144347
 30
0.0
 10
396.2512320744
 20
106.1041471138
 30
0.0
 10
396.2413273543
 20
106.0428811027
 30
0.0
 10
396.2955349442
 20
105.8822875358
 30
0.0
 10
396.3748998477
 20
105.7521878359
 30
0.0
 10
396.4393785377
 20
105.6562007135
 30
0.0
  0
SPLINE
  5
81C
100
AcDbEntity
  8
RUNDUNGEN
100
AcDbSpline
 62
7
  6
CONTINUOUS
 70
0
 71
3
 72
14
 73
10
 74
0
 42
0.0000001
 43
0.0000001
 44
0.0000000001
 40
0.0
 40
0.0
 40
0.0
 40
0.0
 40
0.0563083636
 40
0.1252819082
 40
0.2140274044
 40
0.325368063
 40
0.4601495838
 40
0.6181803343
 40
1.0
 40
1.0
 40
1.0
 40
1.0
 10
449.1705331655
 20
64.4438859719
 30
0.0
 10
449.1967990924
 20
64.4692418642
 30
0.0
 10
449.2724216948
 20
64.5083112843
 30
0.0
 10
449.413252065
 20
64.5152702903
 30
0.0
 10
449.5855232612
 20
64.4827957423
 30
0.0
 10
449.7910386426
 20
64.4111276168
 30
0.0
 10
450.0289910172
 20
64.3007261206
 30
0.0
 10
450.4119114879
 20
64.0888055656
 30
0.0
 10
450.7035827686
 20
63.8941955816
 30
0.0
 10
450.9054697116
 20
63.7509301304
 30
0.0
  0
SPLINE
  5
81D
100
AcDbEntity
  8
RUNDUNGEN
100
AcDbSpline
 62
7
  6
CONTINUOUS
 70
0
 71
3
 72
16
 73
12
 74
0
 42
0.0000001
 43
0.0000001
 44
0.0000000001
 40
0.0
 40
0.0
 40
0.0
 40
0.0
 40
0.0406934736
 40
0.0688788371
 40
0.1037506951
 40
0.1946661206
 40
0.3133765647
 40
0.4573892105
 40
0.6229637467
 40
0.8055825858
 40
1.0
 40
1.0
 40
1.0
 40
1.0
 10
457.8042098754
 20
61.5301327631
 30
0.0
 10
457.84596735
 20
61.5705064372
 30
0.0
 10
457.9536918812
 20
61.59471937
 30
0.0
 10
458.0989058111
 20
61.5740631979
 30
0.0
 10
458.3112648534
 20
61.512355372
 30
0.0
 10
458.6264561921
 20
61.3596392687
 30
0.0
 10
459.0564706652
 20
61.0945114023
 30
0.0
 10
459.5528019155
 20
60.7368757046
 30
0.0
 10
460.1012508979
 20
60.2974680318
 30
0.0
 10
460.6852759413
 20
59.7885012955
 30
0.0
 10
461.0783360586
 20
59.4207409286
 30
0.0
 10
461.2779301034
 20
59.2279478859
 30
0.0
  0
SPLINE
  5
81E
100
AcDbEntity
  8
BEZUGSACHSEN
100
AcDbSpline
 62
7
  6
CONTINUOUS
 70
0
 71
3
 72
13
 73
9
 74
0
 42
0.0000001
 43
0.0000001
 44
0.0000000001
 40
0.0
 40
0.0
 40
0.0
 40
0.0
 40
0.1226067082
 40
0.2115390607
 40
0.3232079208
 40
0.4584448908
 40
0.6169701465
 40
1.0
 40
1.0
 40
1.0
 40
1.0
 10
401.2478820852
 20
110.7094693301
 30
0.0
 10
401.3006858843
 20
110.7604597713
 30
0.0
 10
401.4438733225
 20
110.7823290572
 30
0.0
 10
401.6305505438
 20
110.7438992057
 30
0.0
 10
401.8220404411
 20
110.6776071681
 30
0.0
 10
402.0417507279
 20
110.5746254022
 30
0.0
 10
402.3963011715
 20
110.3777012275
 30
0.0
 10
402.6660731379
 20
110.1969156166
 30
0.0
 10
402.8528713307
 20
110.0638955583
 30
0.0
  0
SPLINE
  5
81F
100
AcDbEntity
  8
RUNDUNGEN
100
AcDbSpline
 62
7
  6
CONTINUOUS
 70
0
 71
3
 72
11
 73
7
 74
0
 42
0.0000001
 43
0.0000001
 44
0.0000000001
 40
0.0
 40
0.0
 40
0.0
 40
0.0
 40
0.217048507
 40
0.4713284974
 40
0.7403269981
 40
1.0
 40
1.0
 40
1.0
 40
1.0
 10
427.5304027934
 20
80.3386274733
 30
0.0
 10
428.5308386463
 20
79.6286860987
 30
0.0
 10
430.6139332874
 20
77.9617273341
 30
0.0
 10
433.7025922083
 20
75.1362111971
 30
0.0
 10
436.7974475722
 20
71.970251731
 30
0.0
 10
438.768424458
 20
69.7217243344
 30
0.0
 10
439.6977964236
 20
68.5858277273
 30
0.0
  0
SPLINE
  5
820
100
AcDbEntity
  8
RUNDUNGEN
100
AcDbSpline
 62
7
  6
CONTINUOUS
 70
0
 71
3
 72
13
 73
9
 74
0
 42
0.0000001
 43
0.0000001
 44
0.0000000001
 40
0.0
 40
0.0
 40
0.0
 40
0.0
 40
0.3838126006
 40
0.5428077377
 40
0.6783592868
 40
0.790156864
 40
0.8789253364
 40
1.0
 40
1.0
 40
1.0
 40
1.0
 10
405.6232722893
 20
101.1927532305
 30
0.0
 10
405.7450874227
 20
101.0114113929
 30
0.0
 10
405.9103366979
 20
100.7498074096
 30
0.0
 10
406.0892516412
 20
100.4072497897
 30
0.0
 10
406.1821866342
 20
100.1955864032
 30
0.0
 10
406.2410265572
 20
100.0119096789
 30
0.0
 10
406.2736218489
 20
99.8348319044
 30
0.0
 10
406.2504604006
 20
99.6995942881
 30
0.0
 10
406.2009014098
 20
99.6517098908
 30
0.0
  0
SPLINE
  5
821
100
AcDbEntity
  8
0
100
AcDbSpline
 62
7
  6
CONTINUOUS
 70
0
 71
3
 72
9
 73
5
 74
0
 42
0.0000001
 43
0.0000001
 44
0.0000000001
 40
0.0
 40
0.0
 40
0.0
 40
0.0
 40
0.2920315002
 40
1.0
 40
1.0
 40
1.0
 40
1.0
 10
436.2928582945
 20
74.1142110556
 30
0.0
 10
436.249337808
 20
74.1271366663
 30
0.0
 10
436.0994142319
 20
74.1667457735
 30
0.0
 10
435.9416507192
 20
74.1881658595
 30
0.0
 10
435.8321448271
 20
74.177123886
 30
0.0
  0
SPLINE
  5
822
100
AcDbEntity
  8
0
100
AcDbSpline
 62
7
  6
CONTINUOUS
 70
0
 71
3
 72
9
 73
5
 74
0
 42
0.0000001
 43
0.0000001
 44
0.0000000001
 40
0.0
 40
0.0
 40
0.0
 40
0.0
 40
0.2919766981
 40
1.0
 40
1.0
 40
1.0
 40
1.0
 10
417.2196430823
 20
92.615145973
 30
0.0
 10
417.1742723939
 20
92.6271609953
 30
0.0
 10
417.0180750268
 20
92.663160658
 30
0.0
 10
416.8536207474
 20
92.6784922158
 30
0.0
 10
416.7412136539
 20
92.660656833
 30
0.0
  0
SPLINE
  5
823
100
AcDbEntity
  8
0
100
AcDbSpline
 62
7
  6
CONTINUOUS
 70
0
 71
3
 72
11
 73
7
 74
0
 42
0.0000001
 43
0.0000001
 44
0.0000000001
 40
0.0
 40
0.0
 40
0.0
 40
0.0
 40
0.2467731108
 40
0.4949675672
 40
0.7457928785
 40
1.0
 40
1.0
 40
1.0
 40
1.0
 10
258.7941280256
 20
283.2661332307
 30
0.0
 10
258.7941280256
 20
284.7765567801
 30
0.0
 10
259.1002803633
 20
287.8147585454
 30
0.0
 10
260.4632705354
 20
292.2020281082
 30
0.0
 10
262.6862198845
 20
296.2741308019
 30
0.0
 10
264.6829725166
 20
298.6638994463
 30
0.0
 10
265.790238077
 20
299.7569983489
 30
0.0
  0
SPLINE
  5
824
100
AcDbEntity
  8
0
100
AcDbSpline
 62
7
  6
CONTINUOUS
 70
0
 71
3
 72
11
 73
7
 74
0
 42
0.0000001
 43
0.0000001
 44
0.0000000001
 40
0.0
 40
0.0
 40
0.0
 40
0.0
 40
0.2542076466
 40
0.5050331756
 40
0.753227438
 40
1.0
 40
1.0
 40
1.0
 40
1.0
 10
301.7975218197
 20
299.7574884865
 30
0.0
 10
302.9048617405
 20
298.664376616
 30
0.0
 10
304.9017551217
 20
296.2745643154
 30
0.0
 10
307.1248644908
 20
292.2023426708
 30
0.0
 10
308.487953565
 20
287.8149232017
 30
0.0
 10
308.7941280256
 20
284.7766105164
 30
0.0
 10
308.7941280256
 20
283.2661332307
 30
0.0
  0
SPLINE
  5
825
100
AcDbEntity
  8
0
100
AcDbSpline
 62
7
  6
CONTINUOUS
 70
0
 71
3
 72
15
 73
11
 74
0
 42
0.0000001
 43
0.0000001
 44
0.0000000001
 40
0.0
 40
0.0
 40
0.0
 40
0.0
 40
0.1241481772
 40
0.2483970661
 40
0.3728487041
 40
0.4975804143
 40
0.6226486387
 40
0.7480819676
 40
0.8738772879
 40
1.0
 40
1.0
 40
1.0
 40
1.0
 10
236.7941280256
 20
283.2661332307
 30
0.0
 10
236.7941280256
 20
285.5158989808
 30
0.0
 10
237.1362095501
 20
290.0246810411
 30
0.0
 10
238.6635472369
 20
296.6315919748
 30
0.0
 10
241.1698837415
 20
302.9453753051
 30
0.0
 10
244.5982127386
 20
308.82627589
 30
0.0
 10
248.8709273472
 20
314.1479480508
 30
0.0
 10
253.8934061401
 20
318.7970449688
 30
0.0
 10
259.5535509699
 20
322.6751670851
 30
0.0
 10
263.6697949965
 20
324.6923448805
 30
0.0
 10
265.78905285
 20
325.5481915936
 30
0.0
  0
SPLINE
  5
826
100
AcDbEntity
  8
0
100
AcDbSpline
 62
7
  6
CONTINUOUS
 70
0
 71
3
 72
15
 73
11
 74
0
 42
0.0000001
 43
0.0000001
 44
0.0000000001
 40
0.0
 40
0.0
 40
0.0
 40
0.0
 40
0.1261226994
 40
0.2519179556
 40
0.377351186
 40
0.5024193193
 40
0.6271509687
 40
0.7516026031
 40
0.8758515947
 40
1.0
 40
1.0
 40
1.0
 40
1.0
 10
301.7984253142
 20
325.5485069346
 30
0.0
 10
303.9177315962
 20
324.6926867567
 30
0.0
 10
308.0340701881
 20
322.6755425676
 30
0.0
 10
313.694355374
 20
318.7974437786
 30
0.0
 10
318.7169691864
 20
314.1483431771
 30
0.0
 10
322.9898017429
 20
308.8266357021
 30
0.0
 10
326.4182315723
 20
302.9456751496
 30
0.0
 10
328.9246472323
 20
296.6318090477
 30
0.0
 10
330.4520347653
 20
290.0247954936
 30
0.0
 10
330.7941280256
 20
285.5159377634
 30
0.0
 10
330.7941280256
 20
283.2661332307
 30
0.0
  0
SPLINE
  5
827
100
AcDbEntity
  8
0
100
AcDbSpline
 62
7
  6
CONTINUOUS
 70
0
 71
3
 72
15
 73
11
 74
0
 42
0.0000001
 43
0.0000001
 44
0.0000000001
 40
0.0
 40
0.0
 40
0.0
 40
0.0
 40
0.1239257334
 40
0.2479959173
 40
0.372343579
 40
0.4970654747
 40
0.6222155421
 40
0.7477961395
 40
0.8737567426
 40
1.0
 40
1.0
 40
1.0
 40
1.0
 10
330.7941280256
 20
220.4809545219
 30
0.0
 10
330.7941280256
 20
217.8063846588
 30
0.0
 10
330.309742677
 20
212.4416662079
 30
0.0
 10
328.1542433933
 20
204.6574220023
 30
0.0
 10
324.6399101551
 20
197.3635105808
 30
0.0
 10
319.8796313056
 20
190.7871365462
 30
0.0
 10
314.0244752814
 20
185.126118807
 30
0.0
 10
307.2559260281
 20
180.5489859833
 30
0.0
 10
299.7846666469
 20
177.1901616037
 30
0.0
 10
294.4826753389
 20
175.8277470471
 30
0.0
 10
291.7958457738
 20
175.375729499
 30
0.0
  0
SPLINE
  5
828
100
AcDbEntity
  8
0
100
AcDbSpline
 62
7
  6
CONTINUOUS
 70
0
 71
3
 72
15
 73
11
 74
0
 42
0.0000001
 43
0.0000001
 44
0.0000000001
 40
0.0
 40
0.0
 40
0.0
 40
0.0
 40
0.1262433502
 40
0.252203939
 40
0.3777844525
 40
0.5029344001
 40
0.6276561954
 40
0.7520038134
 40
0.8760740606
 40
1.0
 40
1.0
 40
1.0
 40
1.0
 10
275.792915558
 20
175.3756435709
 30
0.0
 10
273.1060571928
 20
175.827631531
 30
0.0
 10
267.8040107737
 20
177.1900156058
 30
0.0
 10
260.3326601951
 20
180.5487939442
 30
0.0
 10
253.5640297737
 20
185.1259153229
 30
0.0
 10
247.7087948629
 20
190.7869345207
 30
0.0
 10
242.9484476514
 20
197.3633321116
 30
0.0
 10
239.4340597817
 20
204.6572867572
 30
0.0
 10
237.2785222055
 20
212.4415922387
 30
0.0
 10
236.7941280256
 20
217.8063591169
 30
0.0
 10
236.7941280256
 20
220.4809545219
 30
0.0
  0
SPLINE
  5
829
100
AcDbEntity
  8
0
100
AcDbSpline
 62
7
  6
CONTINUOUS
 70
0
 71
3
 72
15
 73
11
 74
0
 42
0.0000001
 43
0.0000001
 44
0.0000000001
 40
0.0
 40
0.0
 40
0.0
 40
0.0
 40
0.1214679143
 40
0.2433953084
 40
0.3662108925
 40
0.4902252741
 40
0.6156304249
 40
0.7424746676
 40
0.870668771
 40
1.0
 40
1.0
 40
1.0
 40
1.0
 10
308.7941280256
 20
220.4809545219
 30
0.0
 10
308.7941280256
 20
219.2603347161
 30
0.0
 10
308.5949041177
 20
216.8098629858
 30
0.0
 10
307.7045525
 20
213.2234168783
 30
0.0
 10
306.2403489112
 20
209.801815798
 30
0.0
 10
304.2321229447
 20
206.6274472659
 30
0.0
 10
301.7231835341
 20
203.7780458177
 30
0.0
 10
298.7696964252
 20
201.3262246161
 30
0.0
 10
295.442113974
 20
199.3367947824
 30
0.0
 10
293.0341157145
 20
198.357270374
 30
0.0
 10
291.7968617832
 20
197.9594508067
 30
0.0
  0
SPLINE
  5
82A
100
AcDbEntity
  8
0
100
AcDbSpline
 62
7
  6
CONTINUOUS
 70
0
 71
3
 72
15
 73
11
 74
0
 42
0.0000001
 43
0.0000001
 44
0.0000000001
 40
0.0
 40
0.0
 40
0.0
 40
0.0
 40
0.1293312129
 40
0.2575253718
 40
0.3843696942
 40
0.509774926
 40
0.6337893614
 40
0.7566049592
 40
0.8785322719
 40
1.0
 40
1.0
 40
1.0
 40
1.0
 10
275.791082592
 20
197.9595518471
 30
0.0
 10
274.5538477706
 20
198.3573842894
 30
0.0
 10
272.1458864613
 20
199.3369245905
 30
0.0
 10
268.8183597734
 20
201.3263680064
 30
0.0
 10
265.8649253227
 20
203.778190496
 30
0.0
 10
263.3560347898
 20
206.6275826572
 30
0.0
 10
261.3478494408
 20
209.8019300507
 30
0.0
 10
259.8836779205
 20
213.2235004845
 30
0.0
 10
258.9933470235
 20
216.8099074538
 30
0.0
 10
258.7941280256
 20
219.2603498201
 30
0.0
 10
258.7941280256
 20
220.4809545219
 30
0.0
  0
ELLIPSE
  5
82B
100
AcDbEntity
  8
0
100
AcDbEllipse
 62
7
  6
CONTINUOUS
 10
282.8941280256
 20
126.5845415647
 30
0.0
 11
14.0
 21
-0.0
 31
0.0
 40
0.8066525678
 41
-1.7336547185
 42
-1.5707963268
  0
ELLIPSE
  5
82C
100
AcDbEntity
  8
RUNDUNGEN
100
AcDbEllipse
 62
7
  6
CONTINUOUS
 10
284.6941280256
 20
126.5845415647
 30
0.0
 11
14.0
 21
-0.0
 31
0.0
 40
0.8066525678
 41
-1.5707963268
 42
-1.4079379351
  0
ELLIPSE
  5
82D
100
AcDbEntity
  8
0
100
AcDbEllipse
 62
7
  6
CONTINUOUS
 10
276.3769136327
 20
166.2875722843
 30
0.0
 11
0.1626554851
 21
6.4994465885
 31
0.0
 40
0.5214561498
 41
-1.2959476913
 42
-0.0753166147
  0
ELLIPSE
  5
82E
100
AcDbEntity
  8
RUNDUNGEN
100
AcDbEllipse
 62
7
  6
CONTINUOUS
 10
291.2113424184
 20
166.2875722843
 30
0.0
 11
-0.1626554851
 21
6.4994465885
 31
0.0
 40
0.5214561498
 41
0.0753166147
 42
1.2959476913
  0
ENDSEC
  0
SECTION
  2
OBJECTS
  0
DICTIONARY
  5
C
100
AcDbDictionary
280
0
281
1
  3
ACAD_GROUP
350
D
  3
ACAD_MLINESTYLE
350
17
  3
ACAD_LAYOUT
350
1A
  3
ACAD_PLOTSETTINGS
350
19
  3
ACAD_PLOTSTYLENAME
350
E
  0
DICTIONARY
  5
D
102
{ACAD_REACTORS
330
C
102
}
100
AcDbDictionary
280
0
281
1
  0
ACDBDICTIONARYWDFLT
  5
E
102
{ACAD_REACTORS
330
C
102
}
100
AcDbDictionary
281
1
  3
Normal
350
F
100
AcDbDictionaryWithDefault
340
F
  0
DICTIONARY
  5
17
102
{ACAD_REACTORS
330
C
102
}
100
AcDbDictionary
280
0
281
1
  3
Standard
350
18
  0
DICTIONARY
  5
19
102
{ACAD_REACTORS
330
C
102
}
100
AcDbDictionary
281
1
  0
DICTIONARY
  5
1A
102
{ACAD_REACTORS
330
C
102
}
100
AcDbDictionary
281
1
  3
Model
350
82F
  3
Layout1
350
830
  0
ACDBPLACEHOLDER
  5
F
102
{ACAD_REACTORS
330
E
102
}
  0
MLINESTYLE
  5
18
102
{ACAD_REACTORS
330
17
102
}
100
AcDbMlineStyle
  2
STANDARD
 70
0
  3

 62
256
 51
90.0
 52
90.0
 71
2
 49
0.5
 62
256
  6
BYLAYER
 49
-0.5
 62
256
  6
BYLAYER
  0
LAYOUT
  5
82F
102
{ACAD_REACTORS
330
1A
102
}
100
AcDbPlotSettings
  1

  2
none_device
  4
ISO_A0_(1189.00_x_841.00_MM)
  6

 40
0.0
 41
0.0
 42
0.0
 43
0.0
 44
1189.0
 45
841.0
 46
0.0
 47
0.0
 48
0.0
 49
0.0
140
0.0
141
0.0
142
1.0
143
1.0
 70
1024
 72
1
 73
0
 74
0
  7

 75
0
147
1.0
148
0.0
149
0.0
100
AcDbLayout
  1
Model
 70
0
 71
0
 10
0.0
 20
0.0
 11
1189.0
 21
841.0
 12
0.0
 22
0.0
 32
0.0
 14
0.0
 24
0.0
 34
0.0
 15
0.0
 25
0.0
 35
0.0
146
0.0
 13
0.0
 23
0.0
 33
0.0
 16
1.0
 26
0.0
 36
0.0
 17
0.0
 27
1.0
 37
0.0
 76
0
330
20A
345
0
346
0
  0
LAYOUT
  5
830
102
{ACAD_REACTORS
330
1A
102
}
100
AcDbPlotSettings
  1

  2
none_device
  4
ISO_A0_(1189.00_x_841.00_MM)
  6

 40
0.0
 41
0.0
 42
0.0
 43
0.0
 44
1189.0
 45
841.0
 46
0.0
 47
0.0
 48
0.0
 49
0.0
140
0.0
141
0.0
142
1.0
143
1.0
 70
0
 72
1
 73
0
 74
0
  7

 75
0
147
1.0
148
0.0
149
0.0
100
AcDbLayout
  1
Layout1
 70
0
 71
1
 10
0.0
 20
0.0
 11
1189.0
 21
841.0
 12
0.0
 22
0.0
 32
0.0
 14
0.0
 24
0.0
 34
0.0
 15
0.0
 25
0.0
 35
0.0
146
0.0
 13
0.0
 23
0.0
 33
0.0
 16
1.0
 26
0.0
 36
0.0
 17
0.0
 27
1.0
 37
0.0
 76
0
330
20B
345
0
346
0
  0
ENDSEC
  0
EOF
