999
DXF file: ISAK-RG-2-10_190_7903200_M34586-P-7.dxf
999
Pro/ENGINEER 2010140 by Parametric Technology Corporation
  0
SECTION
  2
HEADER
  9
$ACADVER
  1
AC1015
  9
$DWGCODEPAGE
  3
ANSI_1252
  9
$EXTMAX
 10
1189.0
 20
841.0
 30
0.0
  9
$EXTMIN
 10
0.0
 20
0.0
 30
0.0
  9
$LIMMIN
 10
0.0
 20
0.0
  9
$LIMMAX
 10
1189.0
 20
841.0
  9
$VIEWCTR
 10
594.5
 20
420.5
  9
$VIEWSIZE
 40
841.0
  9
$CLAYER
  8
0
  9
$LTSCALE
 40
65.395
  9
$CELTYPE
  6
BYLAYER
  9
$DIMSCALE
 40
1.0
  9
$DIMASZ
 40
3.5
  9
$DIMEXO
 40
7.43125
  9
$DIMDLI
 40
45.182
  9
$DIMEXE
 40
21.402
  9
$DIMCEN
 40
10.701
  9
$DIMLFAC
 40
1.0
  9
$DIMBLK
  1
_FILLED
  9
$DIMTXT
 40
3.5
  9
$DIMTOL
 70
1
  9
$DIMLIM
 70
0
  9
$DIMTFAC
 40
1.0
  9
$DIMTP
 40
0.005
  9
$DIMTM
 40
0.005
  9
$PDMODE
 70
3
  9
$PDSIZE
 40
0.3125
  9
$HANDSEED
  5
831
  9
$TILEMODE
 70
1
  9
$MEASUREMENT
 70
1
  9
$INSUNITS
 70
4
  0
ENDSEC
  0
SECTION
  2
CLASSES
  0
CLASS
  1
ACDBDICTIONARYWDFLT
  2
AcDbDictionaryWithDefault
  3
AutoCAD 2000
 90
0
280
0
281
0
  0
CLASS
  1
ACDBPLACEHOLDER
  2
AcDbPlaceHolder
  3
AutoCAD 2000
 90
0
280
0
281
0
  0
CLASS
  1
LAYOUT
  2
AcDbLayout
  3
AutoCAD 2000
 90
0
280
0
281
0
  0
ENDSEC
  0
SECTION
  2
TABLES
  0
TABLE
  2
VPORT
  5
8
100
AcDbSymbolTable
 70
2
  0
VPORT
  5
1F4
100
AcDbSymbolTableRecord
100
AcDbViewportTableRecord
  2
*ACTIVE
 70
0
 10
0.0
 20
0.0
 11
1.0
 21
1.0
 12
594.5
 22
420.5
 13
0.0
 23
0.0
 14
1.0
 24
1.0
 15
0.0
 25
0.0
 16
0.0
 26
0.0
 36
1.0
 17
0.0
 27
0.0
 37
0.0
 40
841.0
 41
1.4137931034
 42
50.0
 43
0.0
 44
0.0
 50
0.0
 51
0.0
 71
0
 72
100
 73
1
 74
1
 75
0
 76
0
 77
0
 78
0
  0
ENDTAB
  0
TABLE
  2
LTYPE
  5
5
100
AcDbSymbolTable
 70
6
  0
LTYPE
  5
14
100
AcDbSymbolTableRecord
100
AcDbLinetypeTableRecord
  2
BYBLOCK
 70
0
  3

 72
65
 73
0
 40
0.0
  0
LTYPE
  5
15
100
AcDbSymbolTableRecord
100
AcDbLinetypeTableRecord
  2
BYLAYER
 70
0
  3

 72
65
 73
0
 40
0.0
  0
LTYPE
  5
16
100
AcDbSymbolTableRecord
100
AcDbLinetypeTableRecord
  2
CONTINUOUS
 70
64
  3
Solid line
 72
65
 73
0
 40
0.0
  0
LTYPE
  5
1F5
100
AcDbSymbolTableRecord
100
AcDbLinetypeTableRecord
  2
CENTER
 70
64
  3
____ _ ____ _ ____ _ ____ _ ____ _ ____ _ ____
 72
65
 73
4
 40
0.6
 49
0.375
 74
0
 49
-0.075
 74
0
 49
0.075
 74
0
 49
-0.075
 74
0
  0
LTYPE
  5
1F6
100
AcDbSymbolTableRecord
100
AcDbLinetypeTableRecord
  2
HIDDEN
 70
64
  3
- - - - - - - - - - - - - - - - - - - -
 72
65
 73
2
 40
0.2
 49
0.1
 74
0
 49
-0.1
 74
0
  0
LTYPE
  5
1F7
100
AcDbSymbolTableRecord
100
AcDbLinetypeTableRecord
  2
PHANTOM
 70
64
  3
_____ _ _ _____ _ _ _____ _ _ _____
 72
65
 73
6
 40
0.8
 49
0.45
 74
0
 49
-0.05
 74
0
 49
0.1
 74
0
 49
-0.05
 74
0
 49
0.1
 74
0
 49
-0.05
 74
0
  0
LTYPE
  5
1F8
100
AcDbSymbolTableRecord
100
AcDbLinetypeTableRecord
  2
DOT
 70
64
  3
. . . . . . . . . . . . . . . . . . . .
 72
65
 73
2
 40
0.2
 49
0.1
 74
0
 49
-0.1
 74
0
  0
LTYPE
  5
1F9
100
AcDbSymbolTableRecord
100
AcDbLinetypeTableRecord
  2
DASHED
 70
64
  3
- - - - - - - - - - - - - - - - - - - -
 72
65
 73
2
 40
0.2
 49
0.1
 74
0
 49
-0.1
 74
0
  0
ENDTAB
  0
TABLE
  2
LAYER
  5
2
100
AcDbSymbolTable
 70
36
  0
LAYER
  5
10
100
AcDbSymbolTableRecord
100
AcDbLayerTableRecord
  2
0
 70
0
 62
7
  6
CONTINUOUS
370
-3
390
F
  0
LAYER
  5
1FA
100
AcDbSymbolTableRecord
100
AcDbLayerTableRecord
  2
DEFAULT_1
 70
0
 62
7
  6
CENTER
370
-3
390
F
  0
LAYER
  5
1FB
100
AcDbSymbolTableRecord
100
AcDbLayerTableRecord
  2
DEFAULT_2
 70
0
 62
8
  6
HIDDEN
370
-3
390
F
  0
LAYER
  5
1FC
100
AcDbSymbolTableRecord
100
AcDbLayerTableRecord
  2
DEFAULT_3
 70
0
 62
7
  6
PHANTOM
370
-3
390
F
  0
LAYER
  5
1FD
100
AcDbSymbolTableRecord
100
AcDbLayerTableRecord
  2
BEZUGSACHSEN
 70
0
 62
7
  6
CONTINUOUS
370
-3
390
F
  0
LAYER
  5
1FE
100
AcDbSymbolTableRecord
100
AcDbLayerTableRecord
  2
BEZUGSEBENEN
 70
0
 62
7
  6
CONTINUOUS
370
-3
390
F
  0
LAYER
  5
1FF
100
AcDbSymbolTableRecord
100
AcDbLayerTableRecord
  2
BG_STARTBEZUEGE
 70
0
 62
7
  6
CONTINUOUS
370
-3
390
F
  0
LAYER
  5
200
100
AcDbSymbolTableRecord
100
AcDbLayerTableRecord
  2
FASEN
 70
0
 62
7
  6
CONTINUOUS
370
-3
390
F
  0
LAYER
  5
201
100
AcDbSymbolTableRecord
100
AcDbLayerTableRecord
  2
HILFEN
 70
0
 62
7
  6
CONTINUOUS
370
-3
390
F
  0
LAYER
  5
202
100
AcDbSymbolTableRecord
100
AcDbLayerTableRecord
  2
KONSTRUKTIONSELEMENTE
 70
0
 62
7
  6
CONTINUOUS
370
-3
390
F
  0
LAYER
  5
203
100
AcDbSymbolTableRecord
100
AcDbLayerTableRecord
  2
NORM
 70
0
 62
7
  6
CONTINUOUS
370
-3
390
F
  0
LAYER
  5
204
100
AcDbSymbolTableRecord
100
AcDbLayerTableRecord
  2
PLATZIERUNG
 70
0
 62
7
  6
CONTINUOUS
370
-3
390
F
  0
LAYER
  5
205
100
AcDbSymbolTableRecord
100
AcDbLayerTableRecord
  2
RUNDUNGEN
 70
0
 62
7
  6
CONTINUOUS
370
-3
390
F
  0
LAYER
  5
206
100
AcDbSymbolTableRecord
100
AcDbLayerTableRecord
  2
TEIL_STARTBEZUEGE
 70
0
 62
7
  6
CONTINUOUS
370
-3
390
F
  0
LAYER
  5
207
100
AcDbSymbolTableRecord
100
AcDbLayerTableRecord
  2
T_STARTBEZUEGE
 70
0
 62
7
  6
CONTINUOUS
370
-3
390
F
  0
ENDTAB
  0
TABLE
  2
STYLE
  5
3
100
AcDbSymbolTable
 70
1
  0
STYLE
  5
11
100
AcDbSymbolTableRecord
100
AcDbTextStyleTableRecord
  2
STANDARD
 70
0
 40
0.0
 41
0.7
 50
0.0
 71
0
 42
0.2
  3
txt
  4

  0
STYLE
  5
208
100
AcDbSymbolTableRecord
100
AcDbTextStyleTableRecord
  2
TEXTSTYLE_1
 70
0
 40
0.0
 41
0.8
 50
0.0
 71
0
 42
0.2
  3
gdt
  4

  0
ENDTAB
  0
TABLE
  2
VIEW
  5
6
100
AcDbSymbolTable
 70
0
  0
ENDTAB
  0
TABLE
  2
UCS
  5
7
100
AcDbSymbolTable
 70
0
  0
ENDTAB
  0
TABLE
  2
APPID
  5
9
100
AcDbSymbolTable
 70
1
  0
APPID
  5
209
100
AcDbSymbolTableRecord
100
AcDbRegAppTableRecord
  2
ACAD
 70
0
  0
ENDTAB
  0
TABLE
  2
BLOCK_RECORD
  5
1
100
AcDbSymbolTable
 70
0
  0
BLOCK_RECORD
  5
20A
100
AcDbSymbolTableRecord
100
AcDbBlockTableRecord
  2
*Model_Space
  0
BLOCK_RECORD
  5
20B
100
AcDbSymbolTableRecord
100
AcDbBlockTableRecord
  2
*Paper_Space
  0
ENDTAB
  0
TABLE
  2
DIMSTYLE
  5
A
100
AcDbSymbolTable
 70
1
100
AcDbDimStyleTable
 71
0
  0
DIMSTYLE
105
20C
100
AcDbSymbolTableRecord
100
AcDbDimStyleTableRecord
  2
STANDARD
 70
0
  3

  4

 40
1.0
 41
3.5
 42
0.0625
 43
0.38
 44
0.18
 45
0.0
 46
0.0
 47
0.005
 48
0.005
140
3.5
141
0.09
142
0.0
143
25.4
144
1.0
145
0.0
146
1.0
147
0.09
 71
1.0
 72
0.0
 73
0
 74
0
 75
0
 76
0
 77
1
 78
8
170
0
171
2
172
0
173
0
174
0
175
0
176
0
177
0
178
5
270
2
271
3
272
3
273
2
274
2
275
0
280
0
281
0
282
0
283
1
284
8
285
0
286
0
287
3
288
0
340
11
  0
ENDTAB
  0
ENDSEC
  0
SECTION
  2
BLOCKS
  0
BLOCK
  5
20
100
AcDbEntity
  8
0
100
AcDbBlockBegin
  2
*Model_Space
 70
0
 10
0.0
 20
0.0
 30
0.0
  3
*Model_Space
  1

  0
ENDBLK
  5
21
100
AcDbEntity
  8
0
100
AcDbBlockEnd
  0
BLOCK
  5
1C
100
AcDbEntity
  8
0
100
AcDbBlockBegin
  2
*Paper_Space
 70
0
 10
0.0
 20
0.0
 30
0.0
  3
*Paper_Space
  1

  0
ENDBLK
  5
1D
100
AcDbEntity
  8
0
100
AcDbBlockEnd
  0
ENDSEC
  0
SECTION
  2
ENTITIES
  0
MTEXT
  5
20D
100
AcDbEntity
  8
0
100
AcDbMText
 62
5
  6
CONTINUOUS
  7
STANDARD
 71
1
 72
1
 10
631.230030171
 20
524.4513977288
 30
0.0
 11
0.0
 21
1.0
 31
0.0
 44
0.9
  1
RUD
 40
11.0
 41
29.3333333333
  0
MTEXT
  5
20E
100
AcDbEntity
  8
0
100
AcDbMText
 62
5
  6
CONTINUOUS
  7
STANDARD
 71
1
 72
1
 10
853.8106872299
 20
475.9669741873
 30
0.0
 11
0.0
 21
1.0
 31
0.0
 44
0.9
  1
ISAK-RG 2-10/190
 40
11.0
 41
133.0476190476
  0
MTEXT
  5
20F
100
AcDbEntity
  8
0
100
AcDbMText
 62
5
  6
CONTINUOUS
  7
STANDARD
 71
1
 72
1
 10
313.1505548453
 20
446.0575303626
 30
0.0
 11
0.0
 21
1.0
 31
0.0
 44
0.9
  1
RUD ISAK-RG 2-10/190
 40
11.0
 41
168.9285714286
  0
LINE
  5
210
100
AcDbEntity
  8
0
100
AcDbLine
 62
7
  6
CONTINUOUS
 10
0.0
 20
0.0
 11
0.0
 21
841.0
  0
LINE
  5
211
100
AcDbEntity
  8
0
100
AcDbLine
 62
7
  6
CONTINUOUS
 10
0.0
 20
0.0
 11
1189.0
 21
0.0
  0
LINE
  5
212
100
AcDbEntity
  8
0
100
AcDbLine
 62
7
  6
CONTINUOUS
 10
0.0
 20
841.0
 11
1189.0
 21
841.0
  0
LINE
  5
213
100
AcDbEntity
  8
0
100
AcDbLine
 62
7
  6
CONTINUOUS
 10
1189.0
 20
0.0
 11
1189.0
 21
841.0
  0
LINE
  5
214
100
AcDbEntity
  8
RUNDUNGEN
100
AcDbLine
 62
7
  6
CONTINUOUS
 10
625.1863001999
 20
113.3767801463
 11
627.4562258917
 21
112.7685553903
  0
LINE
  5
215
100
AcDbEntity
  8
RUNDUNGEN
100
AcDbLine
 62
7
  6
CONTINUOUS
 10
678.9400724329
 20
98.9735002863
 11
681.2099981247
 21
98.3652755303
  0
LINE
  5
216
100
AcDbEntity
  8
RUNDUNGEN
100
AcDbLine
 62
7
  6
CONTINUOUS
 10
634.964970359
 20
119.5412030649
 11
641.5931861314
 21
117.7651780014
  0
LINE
  5
217
100
AcDbEntity
  8
RUNDUNGEN
100
AcDbLine
 62
7
  6
CONTINUOUS
 10
669.1954170386
 20
110.3691825206
 11
675.823632811
 21
108.5931574571
  0
LINE
  5
218
100
AcDbEntity
  8
0
100
AcDbLine
 62
7
  6
CONTINUOUS
 10
652.49837515
 20
157.3020882496
 11
657.1348191162
 21
156.0597568331
  0
LINE
  5
219
100
AcDbEntity
  8
0
100
AcDbLine
 62
7
  6
CONTINUOUS
 10
659.5938743419
 20
155.4008549712
 11
660.5211631352
 21
155.1523886879
  0
LINE
  5
21A
100
AcDbEntity
  8
0
100
AcDbLine
 62
7
  6
CONTINUOUS
 10
664.938297426
 20
153.9688211218
 11
666.0090382947
 21
153.6819169708
  0
LINE
  5
21B
100
AcDbEntity
  8
0
100
AcDbLine
 62
7
  6
CONTINUOUS
 10
674.0770969296
 20
151.5200871751
 11
677.4365551432
 21
150.6199230597
  0
LINE
  5
21C
100
AcDbEntity
  8
0
100
AcDbLine
 62
7
  6
CONTINUOUS
 10
652.589881501
 20
157.6435946005
 11
657.2263254672
 21
156.401263184
  0
LINE
  5
21D
100
AcDbEntity
  8
0
100
AcDbLine
 62
7
  6
CONTINUOUS
 10
659.6853806929
 20
155.7423613222
 11
660.6126694861
 21
155.4938950389
  0
LINE
  5
21E
100
AcDbEntity
  8
0
100
AcDbLine
 62
7
  6
CONTINUOUS
 10
665.0298037769
 20
154.3103274728
 11
665.8217058778
 21
154.0981379444
  0
LINE
  5
21F
100
AcDbEntity
  8
0
100
AcDbLine
 62
7
  6
CONTINUOUS
 10
674.1686032805
 20
151.861593526
 11
677.5280614941
 21
150.9614294107
  0
LINE
  5
220
100
AcDbEntity
  8
0
100
AcDbLine
 62
7
  6
CONTINUOUS
 10
677.6398875224
 20
151.2974911205
 11
675.1873984247
 21
151.9546335937
  0
LINE
  5
221
100
AcDbEntity
  8
0
100
AcDbLine
 62
7
  6
CONTINUOUS
 10
655.7606567451
 20
157.3064234998
 11
654.3117680057
 21
157.6946520674
  0
LINE
  5
222
100
AcDbEntity
  8
0
100
AcDbLine
 62
7
  6
CONTINUOUS
 10
654.6549236946
 20
157.9321266411
 11
655.5822124879
 21
157.6836603578
  0
LINE
  5
223
100
AcDbEntity
  8
0
100
AcDbLine
 62
7
  6
CONTINUOUS
 10
654.7464300456
 20
158.2736329921
 11
655.6737188388
 21
158.0251667088
  0
LINE
  5
224
100
AcDbEntity
  8
0
100
AcDbLine
 62
7
  6
CONTINUOUS
 10
655.4396055453
 20
158.600332742
 11
655.2367611218
 21
158.6546847415
  0
LINE
  5
225
100
AcDbEntity
  8
0
100
AcDbLine
 62
7
  6
CONTINUOUS
 10
655.8567315407
 20
158.7081794106
 11
655.610420455
 21
158.7741782672
  0
LINE
  5
226
100
AcDbEntity
  8
0
100
AcDbLine
 62
7
  6
CONTINUOUS
 10
655.1757538332
 20
158.8906468374
 11
654.9294427475
 21
158.9566456939
  0
LINE
  5
227
100
AcDbEntity
  8
0
100
AcDbLine
 62
7
  6
CONTINUOUS
 10
654.7509984902
 20
159.333882552
 11
655.258109549
 21
159.1980025533
  0
LINE
  5
228
100
AcDbEntity
  8
0
100
AcDbLine
 62
7
  6
CONTINUOUS
 10
655.6927761709
 20
159.081533983
 11
656.1998872297
 21
158.9456539843
  0
LINE
  5
229
100
AcDbEntity
  8
0
100
AcDbLine
 62
7
  6
CONTINUOUS
 10
661.2099619262
 20
157.7230207723
 11
663.5281839093
 21
157.101855064
  0
LINE
  5
22A
100
AcDbEntity
  8
0
100
AcDbLine
 62
7
  6
CONTINUOUS
 10
654.8425048412
 20
159.6753889029
 11
655.3496159
 21
159.5395089042
  0
LINE
  5
22B
100
AcDbEntity
  8
0
100
AcDbLine
 62
7
  6
CONTINUOUS
 10
655.7842825218
 20
159.4230403339
 11
656.2913935806
 21
159.2871603353
  0
LINE
  5
22C
100
AcDbEntity
  8
0
100
AcDbLine
 62
7
  6
CONTINUOUS
 10
656.3096948508
 20
159.3554616055
 11
655.802583792
 21
159.4913416041
  0
LINE
  5
22D
100
AcDbEntity
  8
0
100
AcDbLine
 62
7
  6
CONTINUOUS
 10
655.3679171702
 20
159.6078101744
 11
654.8608061114
 21
159.7436901731
  0
LINE
  5
22E
100
AcDbEntity
  8
0
100
AcDbLine
 62
7
  6
CONTINUOUS
 10
661.3014682772
 20
158.0645271232
 11
663.6196902602
 21
157.443361415
  0
LINE
  5
22F
100
AcDbEntity
  8
0
100
AcDbLine
 62
7
  6
CONTINUOUS
 10
655.2039618003
 20
159.9811647468
 11
655.450272886
 21
159.9151658903
  0
LINE
  5
230
100
AcDbEntity
  8
0
100
AcDbLine
 62
7
  6
CONTINUOUS
 10
655.8849395078
 20
159.79869732
 11
656.1312505935
 21
159.7326984635
  0
LINE
  5
231
100
AcDbEntity
  8
0
100
AcDbLine
 62
7
  6
CONTINUOUS
 10
664.0902464336
 20
157.6540196398
 11
661.38565412
 21
158.3787129661
  0
LINE
  5
232
100
AcDbEntity
  8
0
100
AcDbLine
 62
7
  6
CONTINUOUS
 10
655.6210877957
 20
160.0890114154
 11
655.8239322193
 21
160.034659416
  0
LINE
  5
233
100
AcDbEntity
  8
0
100
AcDbLine
 62
7
  6
CONTINUOUS
 10
655.2954681513
 20
160.3226710977
 11
655.541779237
 21
160.2566722412
  0
LINE
  5
234
100
AcDbEntity
  8
0
100
AcDbLine
 62
7
  6
CONTINUOUS
 10
655.9764458588
 20
160.1402036709
 11
656.2227569445
 21
160.0742048144
  0
LINE
  5
235
100
AcDbEntity
  8
0
100
AcDbLine
 62
7
  6
CONTINUOUS
 10
655.7125941467
 20
160.4305177664
 11
655.9154385702
 21
160.3761657669
  0
LINE
  5
236
100
AcDbEntity
  8
0
100
AcDbLine
 62
7
  6
CONTINUOUS
 10
676.1024619342
 20
155.3696971031
 11
675.1751731409
 21
155.6181633864
  0
LINE
  5
237
100
AcDbEntity
  8
0
100
AcDbLine
 62
7
  6
CONTINUOUS
 10
661.6283899816
 20
159.2846155344
 11
660.7011011884
 21
159.5330818177
  0
LINE
  5
238
100
AcDbEntity
  8
0
100
AcDbLine
 62
7
  6
CONTINUOUS
 10
656.4057696464
 20
160.7572175163
 11
655.4784808531
 21
161.0056837996
  0
LINE
  5
239
100
AcDbEntity
  8
0
100
AcDbLine
 62
7
  6
CONTINUOUS
 10
655.3000365959
 20
161.3829206577
 11
656.7489253353
 21
160.99469209
  0
LINE
  5
23A
100
AcDbEntity
  8
0
100
AcDbLine
 62
7
  6
CONTINUOUS
 10
675.3289038105
 20
156.191894056
 11
678.7086817014
 21
155.2862852995
  0
LINE
  5
23B
100
AcDbEntity
  8
0
100
AcDbLine
 62
7
  6
CONTINUOUS
 10
660.854831858
 20
160.1068124873
 11
664.4867129648
 21
159.1336528777
  0
LINE
  5
23C
100
AcDbEntity
  8
0
100
AcDbLine
 62
7
  6
CONTINUOUS
 10
655.3915429468
 20
161.7244270086
 11
656.8404316863
 21
161.3361984409
  0
LINE
  5
23D
100
AcDbEntity
  8
0
100
AcDbLine
 62
7
  6
CONTINUOUS
 10
675.4204101615
 20
156.5334004069
 11
678.8001880524
 21
155.6277916505
  0
LINE
  5
23E
100
AcDbEntity
  8
0
100
AcDbLine
 62
7
  6
CONTINUOUS
 10
660.9463382089
 20
160.4483188382
 11
664.5782193158
 21
159.4751592286
  0
LINE
  5
23F
100
AcDbEntity
  8
0
100
AcDbLine
 62
7
  6
CONTINUOUS
 10
678.8640542179
 20
155.9474221345
 11
675.5045960043
 21
156.8475862498
  0
LINE
  5
240
100
AcDbEntity
  8
0
100
AcDbLine
 62
7
  6
CONTINUOUS
 10
673.4761517691
 20
157.3911062445
 11
672.5488629759
 21
157.6395725278
  0
LINE
  5
241
100
AcDbEntity
  8
0
100
AcDbLine
 62
7
  6
CONTINUOUS
 10
668.9033281592
 20
158.6163906379
 11
667.976039366
 21
158.8648569212
  0
LINE
  5
242
100
AcDbEntity
  8
0
100
AcDbLine
 62
7
  6
CONTINUOUS
 10
664.6532545235
 20
159.7551944364
 11
661.0213734167
 21
160.728354046
  0
LINE
  5
243
100
AcDbEntity
  8
0
100
AcDbLine
 62
7
  6
CONTINUOUS
 10
658.562318191
 20
161.3872559079
 11
653.9258742248
 21
162.6295873243
  0
LINE
  5
244
100
AcDbEntity
  8
0
100
AcDbLine
 62
7
  6
CONTINUOUS
 10
845.7795293482
 20
189.2630594432
 11
841.1773482791
 21
188.0299087423
  0
LINE
  5
245
100
AcDbEntity
  8
0
100
AcDbLine
 62
7
  6
CONTINUOUS
 10
804.2375018437
 20
178.1319067214
 11
799.6353207747
 21
176.8987560205
  0
LINE
  5
246
100
AcDbEntity
  8
BEZUGSACHSEN
100
AcDbLine
 62
7
  6
CONTINUOUS
 10
826.0412453706
 20
194.787066612
 11
813.967172542
 21
191.5518285482
  0
LINE
  5
247
100
AcDbEntity
  8
BEZUGSACHSEN
100
AcDbLine
 62
7
  6
CONTINUOUS
 10
825.0728290168
 20
198.4012456473
 11
812.9987561882
 21
195.1660075835
  0
LINE
  5
248
100
AcDbEntity
  8
BEZUGSACHSEN
100
AcDbLine
 62
7
  6
CONTINUOUS
 10
823.3574273561
 20
204.8032118003
 11
811.2833545275
 21
201.5679737366
  0
LINE
  5
249
100
AcDbEntity
  8
RUNDUNGEN
100
AcDbLine
 62
7
  6
CONTINUOUS
 10
636.4949218163
 20
166.5487864954
 11
640.0797693706
 21
167.267777862
  0
LINE
  5
24A
100
AcDbEntity
  8
KONSTRUKTIONSELEMENTE
100
AcDbLine
 62
7
  6
CONTINUOUS
 10
696.9585784142
 20
176.8987560205
 11
692.3926019726
 21
178.1222057207
  0
LINE
  5
24B
100
AcDbEntity
  8
0
100
AcDbLine
 62
7
  6
CONTINUOUS
 10
692.3926019726
 20
178.1222057207
 11
692.3563973451
 21
178.1319067214
  0
LINE
  5
24C
100
AcDbEntity
  8
0
100
AcDbLine
 62
7
  6
CONTINUOUS
 10
655.4165509098
 20
188.0299087423
 11
655.3803462824
 21
188.039609743
  0
LINE
  5
24D
100
AcDbEntity
  8
KONSTRUKTIONSELEMENTE
100
AcDbLine
 62
7
  6
CONTINUOUS
 10
655.3803462824
 20
188.039609743
 11
650.8143698407
 21
189.2630594432
  0
LINE
  5
24E
100
AcDbEntity
  8
BEZUGSACHSEN
100
AcDbLine
 62
7
  6
CONTINUOUS
 10
670.5526538183
 20
194.787066612
 11
682.6267266469
 21
191.5518285482
  0
LINE
  5
24F
100
AcDbEntity
  8
BEZUGSACHSEN
100
AcDbLine
 62
7
  6
CONTINUOUS
 10
671.5210701721
 20
198.4012456473
 11
683.5951430007
 21
195.1660075835
  0
LINE
  5
250
100
AcDbEntity
  8
BEZUGSACHSEN
100
AcDbLine
 62
7
  6
CONTINUOUS
 10
673.2364718328
 20
204.8032118003
 11
685.3105446614
 21
201.5679737366
  0
LINE
  5
251
100
AcDbEntity
  8
RUNDUNGEN
100
AcDbLine
 62
7
  6
CONTINUOUS
 10
687.6385773859
 20
159.3850401256
 11
678.5798352732
 21
167.3548323925
  0
LINE
  5
252
100
AcDbEntity
  8
RUNDUNGEN
100
AcDbLine
 62
7
  6
CONTINUOUS
 10
679.4948987826
 20
170.7698959019
 11
688.5536408954
 21
162.800103635
  0
LINE
  5
253
100
AcDbEntity
  8
BEZUGSACHSEN
100
AcDbLine
 62
7
  6
CONTINUOUS
 10
822.3890110023
 20
208.4173908356
 11
810.3149381737
 21
205.1821527718
  0
LINE
  5
254
100
AcDbEntity
  8
0
100
AcDbLine
 62
7
  6
CONTINUOUS
 10
839.4191687648
 20
213.4407104715
 11
828.904188195
 21
210.6232299194
  0
LINE
  5
255
100
AcDbEntity
  8
0
100
AcDbLine
 62
7
  6
CONTINUOUS
 10
803.5697096727
 20
203.8348768587
 11
793.0547291029
 21
201.0173963066
  0
LINE
  5
256
100
AcDbEntity
  8
0
100
AcDbLine
 62
7
  6
CONTINUOUS
 10
791.5305508002
 20
206.705707172
 11
808.684619741
 21
211.3021260916
  0
LINE
  5
257
100
AcDbEntity
  8
0
100
AcDbLine
 62
7
  6
CONTINUOUS
 10
820.7409215214
 20
214.5326024174
 11
837.8949904621
 21
219.129021337
  0
LINE
  5
258
100
AcDbEntity
  8
RUNDUNGEN
100
AcDbLine
 62
7
  6
CONTINUOUS
 10
661.9588664765
 20
171.808407559
 11
657.4778070335
 21
170.9096683508
  0
LINE
  5
259
100
AcDbEntity
  8
RUNDUNGEN
100
AcDbLine
 62
7
  6
CONTINUOUS
 10
637.4099853257
 20
169.9638500049
 11
640.6651324952
 21
170.6167153433
  0
LINE
  5
25A
100
AcDbEntity
  8
RUNDUNGEN
100
AcDbLine
 62
7
  6
CONTINUOUS
 10
662.8739299859
 20
175.2234710684
 11
658.392870543
 21
174.3247318602
  0
LINE
  5
25B
100
AcDbEntity
  8
RUNDUNGEN
100
AcDbLine
 62
7
  6
CONTINUOUS
 10
636.200245553
 20
174.0640379252
 11
632.6153979986
 21
173.3450465586
  0
LINE
  5
25C
100
AcDbEntity
  8
RUNDUNGEN
100
AcDbLine
 62
7
  6
CONTINUOUS
 10
632.2030637896
 20
181.9412931684
 11
631.306851901
 21
181.7615453267
  0
LINE
  5
25D
100
AcDbEntity
  8
RUNDUNGEN
100
AcDbLine
 62
7
  6
CONTINUOUS
 10
633.1181272991
 20
185.3563566778
 11
632.2219154105
 21
185.1766088362
  0
LINE
  5
25E
100
AcDbEntity
  8
0
100
AcDbLine
 62
7
  6
CONTINUOUS
 10
698.1008019985
 20
214.627576609
 11
697.6726817704
 21
214.6372700319
  0
LINE
  5
25F
100
AcDbEntity
  8
0
100
AcDbLine
 62
7
  6
CONTINUOUS
 10
673.6653790429
 20
220.4398810578
 11
674.1713577098
 21
220.4093255383
  0
LINE
  5
260
100
AcDbEntity
  8
0
100
AcDbLine
 62
7
  6
CONTINUOUS
 10
704.2029935115
 20
212.8874782746
 11
703.6744061795
 21
212.9240917768
  0
LINE
  5
261
100
AcDbEntity
  8
0
100
AcDbLine
 62
7
  6
CONTINUOUS
 10
697.5151501823
 20
214.0493541413
 11
698.0437369418
 21
214.0127408017
  0
LINE
  5
262
100
AcDbEntity
  8
0
100
AcDbLine
 62
7
  6
CONTINUOUS
 10
704.1172648059
 20
216.5861863537
 11
704.6458509882
 21
216.5495731595
  0
LINE
  5
263
100
AcDbEntity
  8
0
100
AcDbLine
 62
7
  6
CONTINUOUS
 10
697.8449505887
 20
218.8969741617
 11
697.3163632567
 21
218.933587664
  0
LINE
  5
264
100
AcDbEntity
  8
0
100
AcDbLine
 62
7
  6
CONTINUOUS
 10
703.543129853
 20
212.4341618565
 11
704.1721831415
 21
212.3706285916
  0
LINE
  5
265
100
AcDbEntity
  8
0
100
AcDbLine
 62
7
  6
CONTINUOUS
 10
704.7771272963
 20
217.0395030111
 11
704.1480740101
 21
217.1030362847
  0
LINE
  5
266
100
AcDbEntity
  8
BEZUGSACHSEN
100
AcDbLine
 62
7
  6
CONTINUOUS
 10
674.2048881866
 20
208.4173908356
 11
686.2789610152
 21
205.1821527718
  0
LINE
  5
267
100
AcDbEntity
  8
RUNDUNGEN
100
AcDbLine
 62
7
  6
CONTINUOUS
 10
657.1747304241
 20
213.4407104715
 11
667.6897109939
 21
210.6232299194
  0
LINE
  5
268
100
AcDbEntity
  8
RUNDUNGEN
100
AcDbLine
 62
7
  6
CONTINUOUS
 10
693.0241895162
 20
203.8348768587
 11
703.539170086
 21
201.0173963066
  0
LINE
  5
269
100
AcDbEntity
  8
RUNDUNGEN
100
AcDbLine
 62
7
  6
CONTINUOUS
 10
705.0633483887
 20
206.705707172
 11
687.9092794479
 21
211.3021260916
  0
LINE
  5
26A
100
AcDbEntity
  8
RUNDUNGEN
100
AcDbLine
 62
7
  6
CONTINUOUS
 10
675.8529776675
 20
214.5326024174
 11
658.6989087268
 21
219.129021337
  0
LINE
  5
26B
100
AcDbEntity
  8
0
100
AcDbLine
 62
7
  6
CONTINUOUS
 10
662.7276938008
 20
223.3706249855
 11
663.3033614451
 21
223.2163753051
  0
LINE
  5
26C
100
AcDbEntity
  8
0
100
AcDbLine
 62
7
  6
CONTINUOUS
 10
665.7019765383
 20
222.5736683279
 11
666.373588973
 21
222.3937103184
  0
LINE
  5
26D
100
AcDbEntity
  8
0
100
AcDbLine
 62
7
  6
CONTINUOUS
 10
668.6762592758
 20
221.7767116703
 11
669.0600378883
 21
221.673878501
  0
LINE
  5
26E
100
AcDbEntity
  8
0
100
AcDbLine
 62
7
  6
CONTINUOUS
 10
671.3627084656
 20
221.0568797794
 11
673.6653790429
 21
220.4398810578
  0
LINE
  5
26F
100
AcDbEntity
  8
0
100
AcDbLine
 62
7
  6
CONTINUOUS
 10
688.9755113094
 20
216.3375434809
 11
689.578309334
 21
216.1760242371
  0
LINE
  5
270
100
AcDbEntity
  8
0
100
AcDbLine
 62
7
  6
CONTINUOUS
 10
690.3820399855
 20
215.9606652581
 11
690.9848380101
 21
215.7991460142
  0
LINE
  5
271
100
AcDbEntity
  8
0
100
AcDbLine
 62
7
  6
CONTINUOUS
 10
693.4964964936
 20
215.1261491518
 11
694.1997610472
 21
214.9377099826
  0
LINE
  5
272
100
AcDbEntity
  8
0
100
AcDbLine
 62
7
  6
CONTINUOUS
 10
696.6109531455
 20
214.2916330071
 11
697.5151501823
 21
214.0493541413
  0
LINE
  5
273
100
AcDbEntity
  8
0
100
AcDbLine
 62
7
  6
CONTINUOUS
 10
700.3282078219
 20
213.2955976185
 11
700.9310058465
 21
213.1340783746
  0
LINE
  5
274
100
AcDbEntity
  8
0
100
AcDbLine
 62
7
  6
CONTINUOUS
 10
697.6726817704
 20
214.6372700319
 11
696.7684847336
 21
214.8795488977
  0
LINE
  5
275
100
AcDbEntity
  8
0
100
AcDbLine
 62
7
  6
CONTINUOUS
 10
673.822910631
 20
221.0277969484
 11
672.0959076981
 21
221.4905459896
  0
LINE
  5
276
100
AcDbEntity
  8
0
100
AcDbLine
 62
7
  6
CONTINUOUS
 10
669.2175694764
 20
222.2617943916
 11
668.8337908639
 21
222.3646275609
  0
LINE
  5
277
100
AcDbEntity
  8
0
100
AcDbLine
 62
7
  6
CONTINUOUS
 10
697.9397889592
 20
216.0359937478
 11
698.8439859961
 21
215.7937148819
  0
LINE
  5
278
100
AcDbEntity
  8
0
100
AcDbLine
 62
7
  6
CONTINUOUS
 10
663.8547220127
 20
225.2740809565
 11
665.4857802925
 21
224.8370402076
  0
LINE
  5
279
100
AcDbEntity
  8
0
100
AcDbLine
 62
7
  6
CONTINUOUS
 10
691.5361985776
 20
217.8568516656
 11
693.244126266
 21
217.3992138208
  0
LINE
  5
27A
100
AcDbEntity
  8
0
100
AcDbLine
 62
7
  6
CONTINUOUS
 10
699.6043155903
 20
216.22011146
 11
698.0973205289
 21
216.6239095697
  0
LINE
  5
27B
100
AcDbEntity
  8
0
100
AcDbLine
 62
7
  6
CONTINUOUS
 10
693.6025906064
 20
217.9332898692
 11
691.6937301474
 21
218.4447674876
  0
LINE
  5
27C
100
AcDbEntity
  8
0
100
AcDbLine
 62
7
  6
CONTINUOUS
 10
665.8352010313
 20
225.3735394818
 11
664.0122535824
 21
225.8619967785
  0
LINE
  5
27D
100
AcDbEntity
  8
0
100
AcDbLine
 62
7
  6
CONTINUOUS
 10
699.2378149204
 20
217.2635044369
 11
699.8406129449
 21
217.101985193
  0
LINE
  5
27E
100
AcDbEntity
  8
0
100
AcDbLine
 62
7
  6
CONTINUOUS
 10
673.0148419835
 20
224.9200554316
 11
674.7418449164
 21
224.4573063904
  0
LINE
  5
27F
100
AcDbEntity
  8
0
100
AcDbLine
 62
7
  6
CONTINUOUS
 10
697.687419019
 20
218.3090583397
 11
698.5916160558
 21
218.0667794739
  0
LINE
  5
280
100
AcDbEntity
  8
0
100
AcDbLine
 62
7
  6
CONTINUOUS
 10
664.4060825803
 20
227.331786608
 11
666.2290300291
 21
226.8433293112
  0
LINE
  5
281
100
AcDbEntity
  8
0
100
AcDbLine
 62
7
  6
CONTINUOUS
 10
692.0875591452
 20
219.9145573171
 11
693.9964196042
 21
219.4030796987
  0
LINE
  5
282
100
AcDbEntity
  8
0
100
AcDbLine
 62
7
  6
CONTINUOUS
 10
702.1650032897
 20
217.7394195292
 11
701.5622052651
 21
217.9009387731
  0
LINE
  5
283
100
AcDbEntity
  8
0
100
AcDbLine
 62
7
  6
CONTINUOUS
 10
698.7491476256
 20
218.6546952959
 11
697.8449505887
 21
218.8969741617
  0
LINE
  5
284
100
AcDbEntity
  8
0
100
AcDbLine
 62
7
  6
CONTINUOUS
 10
694.0272296707
 20
219.9199293986
 11
691.6160374287
 21
220.5660064126
  0
LINE
  5
285
100
AcDbEntity
  8
0
100
AcDbLine
 62
7
  6
CONTINUOUS
 10
690.8123067772
 20
220.7813653916
 11
690.2095087527
 21
220.9428846355
  0
LINE
  5
286
100
AcDbEntity
  8
0
100
AcDbLine
 62
7
  6
CONTINUOUS
 10
674.8993764862
 20
225.0452222124
 11
672.5967059089
 21
225.662220934
  0
LINE
  5
287
100
AcDbEntity
  8
0
100
AcDbLine
 62
7
  6
CONTINUOUS
 10
671.8291492328
 20
225.8678871255
 11
671.2534815884
 21
226.0221368059
  0
LINE
  5
288
100
AcDbEntity
  8
0
100
AcDbLine
 62
7
  6
CONTINUOUS
 10
668.9508110112
 20
226.6391355275
 11
668.3751430923
 21
226.7933852815
  0
LINE
  5
289
100
AcDbEntity
  8
0
100
AcDbLine
 62
7
  6
CONTINUOUS
 10
666.2643618213
 20
227.3589674184
 11
663.961691244
 21
227.9759661401
  0
LINE
  5
28A
100
AcDbEntity
  8
0
100
AcDbLine
 62
7
  6
CONTINUOUS
 10
702.9665870924
 20
212.6936670793
 11
703.543129853
 21
212.4341618565
  0
LINE
  5
28B
100
AcDbEntity
  8
0
100
AcDbLine
 62
7
  6
CONTINUOUS
 10
696.134876339
 20
214.5242184586
 11
696.6109531455
 21
214.2916330071
  0
LINE
  5
28C
100
AcDbEntity
  8
0
100
AcDbLine
 62
7
  6
CONTINUOUS
 10
703.6744061795
 20
212.9240917768
 11
703.1983305205
 21
213.1566769117
  0
LINE
  5
28D
100
AcDbEntity
  8
0
100
AcDbLine
 62
7
  6
CONTINUOUS
 10
694.5033059046
 20
219.6873441097
 11
694.0272296707
 21
219.9199293986
  0
LINE
  5
28E
100
AcDbEntity
  8
0
100
AcDbLine
 62
7
  6
CONTINUOUS
 10
668.2227916858
 20
222.0032390005
 11
668.6762592758
 21
221.7767116703
  0
LINE
  5
28F
100
AcDbEntity
  8
0
100
AcDbLine
 62
7
  6
CONTINUOUS
 10
666.7178296881
 20
227.1324400232
 11
666.2643618213
 21
227.3589674184
  0
LINE
  5
290
100
AcDbEntity
  8
0
100
AcDbLine
 62
7
  6
CONTINUOUS
 10
675.3528446275
 20
224.8186947436
 11
674.8993764862
 21
225.0452222124
  0
LINE
  5
291
100
AcDbEntity
  8
0
100
AcDbLine
 62
7
  6
CONTINUOUS
 10
696.7684847336
 20
214.8795488977
 11
696.3928744539
 21
215.0852144153
  0
LINE
  5
292
100
AcDbEntity
  8
0
100
AcDbLine
 62
7
  6
CONTINUOUS
 10
668.8337908639
 20
222.3646275609
 11
668.476268062
 21
222.5654465535
  0
LINE
  5
293
100
AcDbEntity
  8
0
100
AcDbLine
 62
7
  6
CONTINUOUS
 10
674.7418449164
 20
224.4573063904
 11
675.0993677184
 21
224.2564873978
  0
LINE
  5
294
100
AcDbEntity
  8
0
100
AcDbLine
 62
7
  6
CONTINUOUS
 10
666.2290300291
 20
226.8433293112
 11
666.4906085896
 21
226.6682185007
  0
LINE
  5
295
100
AcDbEntity
  8
RUNDUNGEN
100
AcDbLine
 62
7
  6
CONTINUOUS
 10
712.5037666531
 20
158.535292764
 11
706.4646052446
 21
163.8484876086
  0
LINE
  5
296
100
AcDbEntity
  8
RUNDUNGEN
100
AcDbLine
 62
7
  6
CONTINUOUS
 10
713.4188301626
 20
161.9503562734
 11
707.3796687541
 21
167.263551118
  0
LINE
  5
297
100
AcDbEntity
  8
RUNDUNGEN
100
AcDbLine
 62
7
  6
CONTINUOUS
 10
628.8463777797
 20
177.3230873356
 11
630.6649045692
 21
174.137340431
  0
LINE
  5
298
100
AcDbEntity
  8
RUNDUNGEN
100
AcDbLine
 62
7
  6
CONTINUOUS
 10
635.7567795799
 20
165.2172490981
 11
645.602900013
 21
147.9685355389
  0
LINE
  5
299
100
AcDbEntity
  8
RUNDUNGEN
100
AcDbLine
 62
7
  6
CONTINUOUS
 10
661.9112690609
 20
119.3990712267
 11
665.629421105
 21
112.8855068218
  0
LINE
  5
29A
100
AcDbEntity
  8
RUNDUNGEN
100
AcDbLine
 62
7
  6
CONTINUOUS
 10
641.3100064313
 20
169.4870068575
 11
639.4510679353
 21
172.7435481378
  0
LINE
  5
29B
100
AcDbEntity
  8
RUNDUNGEN
100
AcDbLine
 62
7
  6
CONTINUOUS
 10
688.1477296797
 20
108.4324398784
 11
677.6754285232
 21
126.7781146223
  0
LINE
  5
29C
100
AcDbEntity
  8
RUNDUNGEN
100
AcDbLine
 62
7
  6
CONTINUOUS
 10
650.9761622689
 20
173.5506479255
 11
650.4076691306
 21
174.5465503592
  0
LINE
  5
29D
100
AcDbEntity
  8
0
100
AcDbLine
 62
7
  6
CONTINUOUS
 10
704.1721831415
 20
212.3706285916
 11
704.7532810037
 21
212.5299870557
  0
LINE
  5
29E
100
AcDbEntity
  8
0
100
AcDbLine
 62
7
  6
CONTINUOUS
 10
704.1480740101
 20
217.1030362847
 11
703.5669773046
 21
216.9436775382
  0
LINE
  5
29F
100
AcDbEntity
  8
0
100
AcDbLine
 62
7
  6
CONTINUOUS
 10
790.9494097413
 20
223.1128666481
 11
793.7151779181
 21
223.8539519976
  0
LINE
  5
2A0
100
AcDbEntity
  8
0
100
AcDbLine
 62
7
  6
CONTINUOUS
 10
827.4289254675
 20
232.8875234273
 11
830.1946938666
 21
233.6286088363
  0
LINE
  5
2A1
100
AcDbEntity
  8
0
100
AcDbLine
 62
7
  6
CONTINUOUS
 10
822.0899368783
 20
231.5734327511
 11
798.9959230049
 21
225.3854103838
  0
LINE
  5
2A2
100
AcDbEntity
  8
0
100
AcDbLine
 62
7
  6
CONTINUOUS
 10
698.0437369418
 20
214.0127408017
 11
698.4981130132
 21
214.1010332208
  0
LINE
  5
2A3
100
AcDbEntity
  8
0
100
AcDbLine
 62
7
  6
CONTINUOUS
 10
693.8994348138
 20
217.4336665176
 11
694.3538108784
 21
217.521958911
  0
LINE
  5
2A4
100
AcDbEntity
  8
0
100
AcDbLine
 62
7
  6
CONTINUOUS
 10
697.3163632567
 20
218.933587664
 11
696.861987767
 21
218.8452951165
  0
LINE
  5
2A5
100
AcDbEntity
  8
0
100
AcDbLine
 62
7
  6
CONTINUOUS
 10
666.149290115
 20
225.3944006119
 11
665.8352010313
 21
225.3735394818
  0
LINE
  5
2A6
100
AcDbEntity
  8
0
100
AcDbLine
 62
7
  6
CONTINUOUS
 10
693.9302448803
 20
217.9505162176
 11
693.6025906064
 21
217.9332898692
  0
LINE
  5
2A7
100
AcDbEntity
  8
0
100
AcDbLine
 62
7
  6
CONTINUOUS
 10
674.2329439562
 20
221.0229498965
 11
673.822910631
 21
221.0277969484
  0
LINE
  5
2A8
100
AcDbEntity
  8
0
100
AcDbLine
 62
7
  6
CONTINUOUS
 10
669.6276033506
 20
222.2569471927
 11
669.2175694764
 21
222.2617943916
  0
LINE
  5
2A9
100
AcDbEntity
  8
0
100
AcDbLine
 62
7
  6
CONTINUOUS
 10
697.2592982161
 20
218.3187519166
 11
697.687419019
 21
218.3090583397
  0
LINE
  5
2AA
100
AcDbEntity
  8
0
100
AcDbLine
 62
7
  6
CONTINUOUS
 10
669.0600378883
 20
221.673878501
 11
669.5660160062
 21
221.6433231286
  0
LINE
  5
2AB
100
AcDbEntity
  8
RUNDUNGEN
100
AcDbLine
 62
7
  6
CONTINUOUS
 10
705.6444894476
 20
223.1128666481
 11
702.8787212708
 21
223.8539519976
  0
LINE
  5
2AC
100
AcDbEntity
  8
RUNDUNGEN
100
AcDbLine
 62
7
  6
CONTINUOUS
 10
669.1649737214
 20
232.8875234273
 11
666.3992053223
 21
233.6286088363
  0
LINE
  5
2AD
100
AcDbEntity
  8
RUNDUNGEN
100
AcDbLine
 62
7
  6
CONTINUOUS
 10
674.5039623106
 20
231.5734327511
 11
697.597976184
 21
225.3854103838
  0
LINE
  5
2AE
100
AcDbEntity
  8
0
100
AcDbLine
 62
7
  6
CONTINUOUS
 10
705.3536700592
 20
216.7799977969
 11
704.7771272963
 21
217.0395030111
  0
LINE
  5
2AF
100
AcDbEntity
  8
0
100
AcDbLine
 62
7
  6
CONTINUOUS
 10
699.2252238595
 20
218.422110007
 11
698.7491476256
 21
218.6546952959
  0
LINE
  5
2B0
100
AcDbEntity
  8
0
100
AcDbLine
 62
7
  6
CONTINUOUS
 10
704.6458509882
 20
216.5495731595
 11
705.1219277969
 21
216.3169877165
  0
LINE
  5
2B1
100
AcDbEntity
  8
0
100
AcDbLine
 62
7
  6
CONTINUOUS
 10
698.5916160558
 20
218.0667794739
 11
698.9672257607
 21
217.8611141103
  0
LINE
  5
2B2
100
AcDbEntity
  8
0
100
AcDbLine
 62
7
  6
CONTINUOUS
 10
693.9964196042
 20
219.4030796987
 11
694.2715633549
 21
219.2243341064
  0
LINE
  5
2B3
100
AcDbEntity
  8
0
100
AcDbLine
 62
7
  6
CONTINUOUS
 10
695.7855219027
 20
214.8278698183
 11
696.134876339
 21
214.5242184586
  0
LINE
  5
2B4
100
AcDbEntity
  8
0
100
AcDbLine
 62
7
  6
CONTINUOUS
 10
699.5745788775
 20
218.1184585191
 11
699.2252238595
 21
218.422110007
  0
LINE
  5
2B5
100
AcDbEntity
  8
0
100
AcDbLine
 62
7
  6
CONTINUOUS
 10
667.8915236034
 20
222.3020441362
 11
668.2227916858
 21
222.0032390005
  0
LINE
  5
2B6
100
AcDbEntity
  8
0
100
AcDbLine
 62
7
  6
CONTINUOUS
 10
675.6841121678
 20
224.5198897808
 11
675.3528446275
 21
224.8186947436
  0
LINE
  5
2B7
100
AcDbEntity
  8
0
100
AcDbLine
 62
7
  6
CONTINUOUS
 10
668.476268062
 20
222.5654465535
 11
668.2409447814
 21
222.838543403
  0
LINE
  5
2B8
100
AcDbEntity
  8
0
100
AcDbLine
 62
7
  6
CONTINUOUS
 10
675.0993677184
 20
224.2564873978
 11
675.3346910173
 21
223.983390617
  0
LINE
  5
2B9
100
AcDbEntity
  8
0
100
AcDbLine
 62
7
  6
CONTINUOUS
 10
667.0228422413
 20
226.7356490165
 11
666.7178296881
 21
227.1324400232
  0
LINE
  5
2BA
100
AcDbEntity
  8
RUNDUNGEN
100
AcDbLine
 62
7
  6
CONTINUOUS
 10
689.0627931892
 20
111.8475033879
 11
678.5904920327
 21
130.1931781318
  0
LINE
  5
2BB
100
AcDbEntity
  8
RUNDUNGEN
100
AcDbLine
 62
7
  6
CONTINUOUS
 10
651.8912257783
 20
176.9657114349
 11
651.3227326401
 21
177.9616138686
  0
LINE
  5
2BC
100
AcDbEntity
  8
0
100
AcDbLine
 62
7
  6
CONTINUOUS
 10
663.5281839093
 20
157.101855064
 11
664.938297426
 21
153.9688211218
  0
LINE
  5
2BD
100
AcDbEntity
  8
0
100
AcDbLine
 62
7
  6
CONTINUOUS
 10
663.6196902602
 20
157.443361415
 11
665.0298037769
 21
154.3103274728
  0
LINE
  5
2BE
100
AcDbEntity
  8
0
100
AcDbLine
 62
7
  6
CONTINUOUS
 10
666.0090382947
 20
153.6819169708
 11
664.5428798524
 21
156.9394732668
  0
LINE
  5
2BF
100
AcDbEntity
  8
0
100
AcDbLine
 62
7
  6
CONTINUOUS
 10
674.1713577098
 20
220.4093255383
 11
674.6076463035
 21
220.5024644825
  0
LINE
  5
2C0
100
AcDbEntity
  8
0
100
AcDbLine
 62
7
  6
CONTINUOUS
 10
669.5660160062
 20
221.6433231286
 11
670.0023051489
 21
221.7364619257
  0
LINE
  5
2C1
100
AcDbEntity
  8
0
100
AcDbLine
 62
7
  6
CONTINUOUS
 10
666.1139585973
 20
224.8787624311
 11
666.5502474586
 21
224.971901276
  0
LINE
  5
2C2
100
AcDbEntity
  8
0
100
AcDbLine
 62
7
  6
CONTINUOUS
 10
702.5430219635
 20
213.1222241806
 11
702.9665870924
 21
212.6936670793
  0
LINE
  5
2C3
100
AcDbEntity
  8
0
100
AcDbLine
 62
7
  6
CONTINUOUS
 10
705.7772363447
 20
216.3514404133
 11
705.3536700592
 21
216.7799977969
  0
LINE
  5
2C4
100
AcDbEntity
  8
0
100
AcDbLine
 62
7
  6
CONTINUOUS
 10
696.3928744539
 20
215.0852144153
 11
696.1439859832
 21
215.3619460466
  0
LINE
  5
2C5
100
AcDbEntity
  8
0
100
AcDbLine
 62
7
  6
CONTINUOUS
 10
703.1983305205
 20
213.1566769117
 11
702.9494420315
 21
213.4334084743
  0
LINE
  5
2C6
100
AcDbEntity
  8
0
100
AcDbLine
 62
7
  6
CONTINUOUS
 10
698.9672257607
 20
217.8611141103
 11
699.2161142497
 21
217.5843825477
  0
LINE
  5
2C7
100
AcDbEntity
  8
0
100
AcDbLine
 62
7
  6
CONTINUOUS
 10
705.1219277969
 20
216.3169877165
 11
705.370816286
 21
216.0402561539
  0
LINE
  5
2C8
100
AcDbEntity
  8
0
100
AcDbLine
 62
7
  6
CONTINUOUS
 10
694.8264056611
 20
219.2857066515
 11
694.5033059046
 21
219.6873441097
  0
LINE
  5
2C9
100
AcDbEntity
  8
0
100
AcDbLine
 62
7
  6
CONTINUOUS
 10
667.6127665955
 20
222.7968210741
 11
667.8915236034
 21
222.3020441362
  0
LINE
  5
2CA
100
AcDbEntity
  8
0
100
AcDbLine
 62
7
  6
CONTINUOUS
 10
666.4906085896
 20
226.6682185007
 11
666.6299873727
 21
226.4208299754
  0
LINE
  5
2CB
100
AcDbEntity
  8
0
100
AcDbLine
 62
7
  6
CONTINUOUS
 10
675.9628691849
 20
224.0251128772
 11
675.6841121678
 21
224.5198897808
  0
LINE
  5
2CC
100
AcDbEntity
  8
RUNDUNGEN
100
AcDbLine
 62
7
  6
CONTINUOUS
 10
650.8143698407
 20
189.2630594432
 11
648.2981485736
 21
197.6995208813
  0
LINE
  5
2CD
100
AcDbEntity
  8
0
100
AcDbLine
 62
7
  6
CONTINUOUS
 10
687.6532069451
 20
276.9597904184
 11
680.9546744406
 21
276.9597904184
  0
LINE
  5
2CE
100
AcDbEntity
  8
0
100
AcDbLine
 62
7
  6
CONTINUOUS
 10
808.9406922437
 20
276.9597904184
 11
815.6392247483
 21
276.9597904184
  0
LINE
  5
2CF
100
AcDbEntity
  8
0
100
AcDbLine
 62
7
  6
CONTINUOUS
 10
714.7046744406
 20
267.9165051738
 11
708.9035751235
 21
271.2657714261
  0
LINE
  5
2D0
100
AcDbEntity
  8
0
100
AcDbLine
 62
7
  6
CONTINUOUS
 10
793.2379785168
 20
182.9468353105
 11
799.6353207747
 21
176.8987560205
  0
LINE
  5
2D1
100
AcDbEntity
  8
0
100
AcDbLine
 62
7
  6
CONTINUOUS
 10
695.488677417
 20
215.3274932812
 11
695.7855219027
 21
214.8278698183
  0
LINE
  5
2D2
100
AcDbEntity
  8
0
100
AcDbLine
 62
7
  6
CONTINUOUS
 10
694.2715633549
 20
219.2243341064
 11
694.4199856023
 21
218.9745223921
  0
LINE
  5
2D3
100
AcDbEntity
  8
0
100
AcDbLine
 62
7
  6
CONTINUOUS
 10
699.8714233724
 20
217.6188350905
 11
699.5745788775
 21
218.1184585191
  0
LINE
  5
2D4
100
AcDbEntity
  8
0
100
AcDbLine
 62
7
  6
CONTINUOUS
 10
702.3203887453
 20
213.4969417478
 11
702.5430219635
 21
213.1222241806
  0
LINE
  5
2D5
100
AcDbEntity
  8
0
100
AcDbLine
 62
7
  6
CONTINUOUS
 10
705.9998695722
 20
215.9767228804
 11
705.7772363447
 21
216.3514404133
  0
LINE
  5
2D6
100
AcDbEntity
  8
0
100
AcDbLine
 62
7
  6
CONTINUOUS
 10
667.205655017
 20
226.266580295
 11
667.0228422413
 21
226.7356490165
  0
LINE
  5
2D7
100
AcDbEntity
  8
0
100
AcDbLine
 62
7
  6
CONTINUOUS
 10
668.2409447814
 20
222.838543403
 11
668.1278209855
 21
223.1839179722
  0
LINE
  5
2D8
100
AcDbEntity
  8
0
100
AcDbLine
 62
7
  6
CONTINUOUS
 10
621.2969495944
 20
620.78458279
 11
621.2969495944
 21
460.78458279
  0
LINE
  5
2D9
100
AcDbEntity
  8
0
100
AcDbLine
 62
7
  6
CONTINUOUS
 10
695.0227833394
 20
218.8130032252
 11
694.8264056611
 21
219.2857066515
  0
LINE
  5
2DA
100
AcDbEntity
  8
0
100
AcDbLine
 62
7
  6
CONTINUOUS
 10
696.1439859832
 20
215.3619460466
 11
696.0218192849
 21
215.7097436542
  0
LINE
  5
2DB
100
AcDbEntity
  8
0
100
AcDbLine
 62
7
  6
CONTINUOUS
 10
675.3346910173
 20
223.983390617
 11
675.4478147397
 21
223.6380157733
  0
LINE
  5
2DC
100
AcDbEntity
  8
0
100
AcDbLine
 62
7
  6
CONTINUOUS
 10
667.5258983541
 20
223.2401816087
 11
667.6127665955
 21
222.7968210741
  0
LINE
  5
2DD
100
AcDbEntity
  8
0
100
AcDbLine
 62
7
  6
CONTINUOUS
 10
666.373588973
 20
222.3937103184
 11
666.1139585973
 21
224.8787624311
  0
LINE
  5
2DE
100
AcDbEntity
  8
0
100
AcDbLine
 62
7
  6
CONTINUOUS
 10
665.4857802925
 20
224.8370402076
 11
665.7019765383
 21
222.5736683279
  0
LINE
  5
2DF
100
AcDbEntity
  8
0
100
AcDbLine
 62
7
  6
CONTINUOUS
 10
666.6299873727
 20
226.4208299754
 11
666.6471661037
 21
226.1011638088
  0
LINE
  5
2E0
100
AcDbEntity
  8
0
100
AcDbLine
 62
7
  6
CONTINUOUS
 10
667.222833748
 20
225.9469141284
 11
667.205655017
 21
226.266580295
  0
LINE
  5
2E1
100
AcDbEntity
  8
0
100
AcDbLine
 62
7
  6
CONTINUOUS
 10
653.2969495944
 20
620.78458279
 11
653.2969495944
 21
460.78458279
  0
LINE
  5
2E2
100
AcDbEntity
  8
0
100
AcDbLine
 62
7
  6
CONTINUOUS
 10
656.2479596851
 20
252.2530756629
 11
656.2479596851
 21
234.1665051738
  0
LINE
  5
2E3
100
AcDbEntity
  8
0
100
AcDbLine
 62
7
  6
CONTINUOUS
 10
815.6392247483
 20
276.9597904184
 11
831.3026542592
 21
267.9165051738
  0
LINE
  5
2E4
100
AcDbEntity
  8
0
100
AcDbLine
 62
7
  6
CONTINUOUS
 10
723.7479596851
 20
252.2530756629
 11
714.7046744406
 21
267.9165051738
  0
LINE
  5
2E5
100
AcDbEntity
  8
0
100
AcDbLine
 62
7
  6
CONTINUOUS
 10
702.9494420315
 20
213.4334084743
 11
702.7051075034
 21
214.1290040662
  0
LINE
  5
2E6
100
AcDbEntity
  8
0
100
AcDbLine
 62
7
  6
CONTINUOUS
 10
705.370816286
 20
216.0402561539
 11
705.6151496092
 21
215.3446606642
  0
LINE
  5
2E7
100
AcDbEntity
  8
0
100
AcDbLine
 62
7
  6
CONTINUOUS
 10
695.3927659987
 20
215.7732769277
 11
695.488677417
 21
215.3274932812
  0
LINE
  5
2E8
100
AcDbEntity
  8
0
100
AcDbLine
 62
7
  6
CONTINUOUS
 10
676.0497377191
 20
223.5817523377
 11
675.9628691849
 21
224.0251128772
  0
LINE
  5
2E9
100
AcDbEntity
  8
0
100
AcDbLine
 62
7
  6
CONTINUOUS
 10
694.4199856023
 20
218.9745223921
 11
694.4416860591
 21
218.6536446328
  0
LINE
  5
2EA
100
AcDbEntity
  8
0
100
AcDbLine
 62
7
  6
CONTINUOUS
 10
695.0444840836
 20
218.4921253889
 11
695.0227833394
 21
218.8130032252
  0
LINE
  5
2EB
100
AcDbEntity
  8
0
100
AcDbLine
 62
7
  6
CONTINUOUS
 10
668.1278209855
 20
223.1839179722
 11
668.1368977906
 21
223.6015700355
  0
LINE
  5
2EC
100
AcDbEntity
  8
0
100
AcDbLine
 62
7
  6
CONTINUOUS
 10
675.4478147397
 20
223.6380157733
 11
675.4387379346
 21
223.2203637099
  0
LINE
  5
2ED
100
AcDbEntity
  8
0
100
AcDbLine
 62
7
  6
CONTINUOUS
 10
653.5600675333
 20
224.1351550978
 11
653.2871061597
 21
216.3185640694
  0
LINE
  5
2EE
100
AcDbEntity
  8
0
100
AcDbLine
 62
7
  6
CONTINUOUS
 10
667.5612298718
 20
223.7558197894
 11
667.5258983541
 21
223.2401816087
  0
LINE
  5
2EF
100
AcDbEntity
  8
0
100
AcDbLine
 62
7
  6
CONTINUOUS
 10
772.8459395038
 20
234.1665051738
 11
781.8892247483
 21
218.5030756629
  0
LINE
  5
2F0
100
AcDbEntity
  8
0
100
AcDbLine
 62
7
  6
CONTINUOUS
 10
784.5771169002
 20
208.4717255869
 11
788.2490209307
 21
201.5658784986
  0
LINE
  5
2F1
100
AcDbEntity
  8
0
100
AcDbLine
 62
7
  6
CONTINUOUS
 10
702.2244767521
 20
213.9427255484
 11
702.3203887453
 21
213.4969417478
  0
LINE
  5
2F2
100
AcDbEntity
  8
0
100
AcDbLine
 62
7
  6
CONTINUOUS
 10
706.0957815838
 20
215.5309391484
 11
705.9998695722
 21
215.9767228804
  0
LINE
  5
2F3
100
AcDbEntity
  8
0
100
AcDbLine
 62
7
  6
CONTINUOUS
 10
694.1997610472
 20
214.9377099826
 11
693.8994348138
 21
217.4336665176
  0
LINE
  5
2F4
100
AcDbEntity
  8
0
100
AcDbLine
 62
7
  6
CONTINUOUS
 10
693.244126266
 20
217.3992138208
 11
693.4964964936
 21
215.1261491518
  0
LINE
  5
2F5
100
AcDbEntity
  8
0
100
AcDbLine
 62
7
  6
CONTINUOUS
 10
699.2161142497
 20
217.5843825477
 11
699.2378149204
 21
217.2635044369
  0
LINE
  5
2F6
100
AcDbEntity
  8
0
100
AcDbLine
 62
7
  6
CONTINUOUS
 10
702.2027765827
 20
214.2636032307
 11
702.2244767521
 21
213.9427255484
  0
LINE
  5
2F7
100
AcDbEntity
  8
0
100
AcDbLine
 62
7
  6
CONTINUOUS
 10
706.1174816796
 20
215.2100611916
 11
706.0957815838
 21
215.5309391484
  0
LINE
  5
2F8
100
AcDbEntity
  8
0
100
AcDbLine
 62
7
  6
CONTINUOUS
 10
696.0218192849
 20
215.7097436542
 11
696.0263738023
 21
216.1286074608
  0
LINE
  5
2F9
100
AcDbEntity
  8
0
100
AcDbLine
 62
7
  6
CONTINUOUS
 10
676.0144055789
 20
223.0661140295
 11
676.0497377191
 21
223.5817523377
  0
LINE
  5
2FA
100
AcDbEntity
  8
RUNDUNGEN
100
AcDbLine
 62
7
  6
CONTINUOUS
 10
628.4978080912
 20
179.5159217693
 11
629.4128716007
 21
182.9309852788
  0
LINE
  5
2FB
100
AcDbEntity
  8
RUNDUNGEN
100
AcDbLine
 62
7
  6
CONTINUOUS
 10
621.2717345779
 20
118.0859388812
 11
623.72840669
 21
127.2543640211
  0
LINE
  5
2FC
100
AcDbEntity
  8
0
100
AcDbLine
 62
7
  6
CONTINUOUS
 10
723.7479596851
 20
234.1665051738
 11
723.7479596851
 21
252.2530756629
  0
LINE
  5
2FD
100
AcDbEntity
  8
0
100
AcDbLine
 62
7
  6
CONTINUOUS
 10
695.4235757777
 20
216.2901267047
 11
695.3927659987
 21
215.7732769277
  0
LINE
  5
2FE
100
AcDbEntity
  8
0
100
AcDbLine
 62
7
  6
CONTINUOUS
 10
699.8406129449
 20
217.101985193
 11
699.8714233724
 21
217.6188350905
  0
LINE
  5
2FF
100
AcDbEntity
  8
0
100
AcDbLine
 62
7
  6
CONTINUOUS
 10
702.2335858237
 20
214.780453299
 11
702.2027765827
 21
214.2636032307
  0
LINE
  5
300
100
AcDbEntity
  8
0
100
AcDbLine
 62
7
  6
CONTINUOUS
 10
706.0866713256
 20
214.6932115687
 11
706.1174816796
 21
215.2100611916
  0
LINE
  5
301
100
AcDbEntity
  8
0
100
AcDbLine
 62
7
  6
CONTINUOUS
 10
705.6151496092
 20
215.3446606642
 11
705.5580851434
 21
214.7298247629
  0
LINE
  5
302
100
AcDbEntity
  8
0
100
AcDbLine
 62
7
  6
CONTINUOUS
 10
702.7051075034
 20
214.1290040662
 11
702.7621731557
 21
214.7438397967
  0
LINE
  5
303
100
AcDbEntity
  8
RUNDUNGEN
100
AcDbLine
 62
7
  6
CONTINUOUS
 10
635.6522086733
 20
165.8750994282
 11
636.5672721828
 21
169.2901629377
  0
LINE
  5
304
100
AcDbEntity
  8
0
100
AcDbLine
 62
7
  6
CONTINUOUS
 10
653.5600675333
 20
224.1351550978
 11
656.2479596851
 21
234.1665051738
  0
LINE
  5
305
100
AcDbEntity
  8
RUNDUNGEN
100
AcDbLine
 62
7
  6
CONTINUOUS
 10
648.2981485736
 20
197.6995208813
 11
656.8397594049
 21
229.577246482
  0
LINE
  5
306
100
AcDbEntity
  8
RUNDUNGEN
100
AcDbLine
 62
7
  6
CONTINUOUS
 10
628.0306951558
 20
112.9806522187
 11
629.2202777181
 21
117.420234781
  0
LINE
  5
307
100
AcDbEntity
  8
0
100
AcDbLine
 62
7
  6
CONTINUOUS
 10
663.961691244
 20
227.9759661401
 11
662.7276938008
 21
223.3706249855
  0
LINE
  5
308
100
AcDbEntity
  8
0
100
AcDbLine
 62
7
  6
CONTINUOUS
 10
663.3033614451
 20
223.2163753051
 11
663.8547220127
 21
225.2740809565
  0
LINE
  5
309
100
AcDbEntity
  8
0
100
AcDbLine
 62
7
  6
CONTINUOUS
 10
664.0122535824
 20
225.8619967785
 11
664.4060825803
 21
227.331786608
  0
LINE
  5
30A
100
AcDbEntity
  8
0
100
AcDbLine
 62
7
  6
CONTINUOUS
 10
666.6471661037
 20
226.1011638088
 11
666.5684002453
 21
225.8072056233
  0
LINE
  5
30B
100
AcDbEntity
  8
0
100
AcDbLine
 62
7
  6
CONTINUOUS
 10
667.117812628
 20
225.5549699726
 11
667.222833748
 21
225.9469141284
  0
LINE
  5
30C
100
AcDbEntity
  8
0
100
AcDbLine
 62
7
  6
CONTINUOUS
 10
668.3751430923
 20
226.7933852815
 11
667.5612298718
 21
223.7558197894
  0
LINE
  5
30D
100
AcDbEntity
  8
0
100
AcDbLine
 62
7
  6
CONTINUOUS
 10
668.1368977906
 20
223.6015700355
 11
668.9508110112
 21
226.6391355275
  0
LINE
  5
30E
100
AcDbEntity
  8
KONSTRUKTIONSELEMENTE
100
AcDbLine
 62
7
  6
CONTINUOUS
 10
664.0082075299
 20
203.5345315924
 11
665.0856712146
 21
207.5556808072
  0
LINE
  5
30F
100
AcDbEntity
  8
0
100
AcDbLine
 62
7
  6
CONTINUOUS
 10
653.2365111079
 20
162.3750711303
 11
652.0286272754
 21
157.8671872978
  0
LINE
  5
310
100
AcDbEntity
  8
0
100
AcDbLine
 62
7
  6
CONTINUOUS
 10
671.2534815884
 20
226.0221368059
 11
670.4395683679
 21
222.9845713139
  0
LINE
  5
311
100
AcDbEntity
  8
0
100
AcDbLine
 62
7
  6
CONTINUOUS
 10
671.0152360122
 20
222.8303216335
 11
671.8291492328
 21
225.8678871255
  0
LINE
  5
312
100
AcDbEntity
  8
0
100
AcDbLine
 62
7
  6
CONTINUOUS
 10
654.0768940684
 20
157.9772015915
 11
654.4978232827
 21
159.5481308059
  0
LINE
  5
313
100
AcDbEntity
  8
0
100
AcDbLine
 62
7
  6
CONTINUOUS
 10
654.625932174
 20
160.0262396972
 11
655.0468613884
 21
161.5971689116
  0
LINE
  5
314
100
AcDbEntity
  8
0
100
AcDbLine
 62
7
  6
CONTINUOUS
 10
672.5967059089
 20
225.662220934
 11
671.3627084656
 21
221.0568797794
  0
LINE
  5
315
100
AcDbEntity
  8
0
100
AcDbLine
 62
7
  6
CONTINUOUS
 10
655.3406082298
 20
160.9547805608
 11
655.1100122254
 21
160.0941845564
  0
LINE
  5
316
100
AcDbEntity
  8
0
100
AcDbLine
 62
7
  6
CONTINUOUS
 10
654.7915701241
 20
158.9057424551
 11
654.5609741197
 21
158.0451464507
  0
LINE
  5
317
100
AcDbEntity
  8
0
100
AcDbLine
 62
7
  6
CONTINUOUS
 10
655.1428115468
 20
158.7677045511
 11
655.1757538332
 21
158.8906468374
  0
LINE
  5
318
100
AcDbEntity
  8
0
100
AcDbLine
 62
7
  6
CONTINUOUS
 10
655.258109549
 20
159.1980025533
 11
655.3679171702
 21
159.6078101744
  0
LINE
  5
319
100
AcDbEntity
  8
0
100
AcDbLine
 62
7
  6
CONTINUOUS
 10
655.450272886
 20
159.9151658903
 11
655.5747215233
 21
160.3796145276
  0
LINE
  5
31A
100
AcDbEntity
  8
0
100
AcDbLine
 62
7
  6
CONTINUOUS
 10
672.0959076981
 20
221.4905459896
 11
673.0148419835
 21
224.9200554316
  0
LINE
  5
31B
100
AcDbEntity
  8
0
100
AcDbLine
 62
7
  6
CONTINUOUS
 10
655.802583792
 20
159.4913416041
 11
655.6927761709
 21
159.081533983
  0
LINE
  5
31C
100
AcDbEntity
  8
0
100
AcDbLine
 62
7
  6
CONTINUOUS
 10
656.0093881451
 20
160.2631459573
 11
655.8849395078
 21
159.79869732
  0
LINE
  5
31D
100
AcDbEntity
  8
0
100
AcDbLine
 62
7
  6
CONTINUOUS
 10
655.610420455
 20
158.7741782672
 11
655.5774781687
 21
158.6512359808
  0
LINE
  5
31E
100
AcDbEntity
  8
0
100
AcDbLine
 62
7
  6
CONTINUOUS
 10
715.9309657167
 20
382.4938228778
 11
680.4727565376
 21
250.1619846762
  0
LINE
  5
31F
100
AcDbEntity
  8
0
100
AcDbLine
 62
7
  6
CONTINUOUS
 10
655.7200851112
 20
157.7345635966
 11
655.9506811156
 21
158.595159601
  0
LINE
  5
320
100
AcDbEntity
  8
0
100
AcDbLine
 62
7
  6
CONTINUOUS
 10
656.2691232169
 20
159.7836017023
 11
656.4997192213
 21
160.6441977067
  0
LINE
  5
321
100
AcDbEntity
  8
0
100
AcDbLine
 62
7
  6
CONTINUOUS
 10
657.0753056236
 20
161.0536489168
 11
656.6543764092
 21
159.4827197025
  0
LINE
  5
322
100
AcDbEntity
  8
0
100
AcDbLine
 62
7
  6
CONTINUOUS
 10
656.5262675179
 20
159.0046108112
 11
656.1053383036
 21
157.4336815968
  0
LINE
  5
323
100
AcDbEntity
  8
0
100
AcDbLine
 62
7
  6
CONTINUOUS
 10
784.5771169002
 20
208.4717255869
 11
781.8892247483
 21
218.5030756629
  0
LINE
  5
324
100
AcDbEntity
  8
0
100
AcDbLine
 62
7
  6
CONTINUOUS
 10
675.4387379346
 20
223.2203637099
 11
675.0449089735
 21
221.7505740177
  0
LINE
  5
325
100
AcDbEntity
  8
0
100
AcDbLine
 62
7
  6
CONTINUOUS
 10
657.8241822331
 20
156.3142730272
 11
659.0320660656
 21
160.8221568597
  0
LINE
  5
326
100
AcDbEntity
  8
0
100
AcDbLine
 62
7
  6
CONTINUOUS
 10
675.6205766178
 20
221.5963243373
 11
676.0144055789
 21
223.0661140295
  0
LINE
  5
327
100
AcDbEntity
  8
KONSTRUKTIONSELEMENTE
100
AcDbLine
 62
7
  6
CONTINUOUS
 10
666.6087096205
 20
186.8295472677
 11
667.3448661841
 21
189.5769209652
  0
LINE
  5
328
100
AcDbEntity
  8
0
100
AcDbLine
 62
7
  6
CONTINUOUS
 10
661.0213734167
 20
160.728354046
 11
660.854831858
 21
160.1068124873
  0
LINE
  5
329
100
AcDbEntity
  8
0
100
AcDbLine
 62
7
  6
CONTINUOUS
 10
660.7011011884
 20
159.5330818177
 11
659.5938743419
 21
155.4008549712
  0
LINE
  5
32A
100
AcDbEntity
  8
0
100
AcDbLine
 62
7
  6
CONTINUOUS
 10
672.3011252889
 20
201.3124509759
 11
669.1314621154
 21
189.4831069693
  0
LINE
  5
32B
100
AcDbEntity
  8
KONSTRUKTIONSELEMENTE
100
AcDbLine
 62
7
  6
CONTINUOUS
 10
672.3011252889
 20
201.3124509759
 11
675.756359541
 21
214.2075607569
  0
LINE
  5
32C
100
AcDbEntity
  8
0
100
AcDbLine
 62
7
  6
CONTINUOUS
 10
660.5211631352
 20
155.1523886879
 11
661.3014682772
 21
158.0645271232
  0
LINE
  5
32D
100
AcDbEntity
  8
0
100
AcDbLine
 62
7
  6
CONTINUOUS
 10
661.38565412
 20
158.3787129661
 11
661.6283899816
 21
159.2846155344
  0
LINE
  5
32E
100
AcDbEntity
  8
KONSTRUKTIONSELEMENTE
100
AcDbLine
 62
7
  6
CONTINUOUS
 10
670.9553758388
 20
185.6648615647
 11
673.2089498406
 21
194.075314238
  0
LINE
  5
32F
100
AcDbEntity
  8
KONSTRUKTIONSELEMENTE
100
AcDbLine
 62
7
  6
CONTINUOUS
 10
679.0079347221
 20
215.717420448
 11
679.7510758062
 21
218.4908607311
  0
LINE
  5
330
100
AcDbEntity
  8
0
100
AcDbLine
 62
7
  6
CONTINUOUS
 10
663.5281839093
 20
157.101855064
 11
663.6196902602
 21
157.443361415
  0
LINE
  5
331
100
AcDbEntity
  8
KONSTRUKTIONSELEMENTE
100
AcDbLine
 62
7
  6
CONTINUOUS
 10
666.5370303453
 20
165.3116683925
 11
672.3486196925
 21
187.0008151088
  0
LINE
  5
332
100
AcDbEntity
  8
KONSTRUKTIONSELEMENTE
100
AcDbLine
 62
7
  6
CONTINUOUS
 10
683.6906369421
 20
229.3297997447
 11
685.9112840665
 21
237.6173676386
  0
LINE
  5
333
100
AcDbEntity
  8
0
100
AcDbLine
 62
7
  6
CONTINUOUS
 10
664.5428798524
 20
156.9394732668
 11
664.6343862034
 21
157.2809796178
  0
LINE
  5
334
100
AcDbEntity
  8
KONSTRUKTIONSELEMENTE
100
AcDbLine
 62
7
  6
CONTINUOUS
 10
678.0685914918
 20
207.3821146552
 11
680.4097307624
 21
216.1193653608
  0
LINE
  5
335
100
AcDbEntity
  8
0
100
AcDbLine
 62
7
  6
CONTINUOUS
 10
665.4262447463
 20
158.454998437
 11
665.3347383954
 21
158.113492086
  0
LINE
  5
336
100
AcDbEntity
  8
0
100
AcDbLine
 62
7
  6
CONTINUOUS
 10
664.938297426
 20
153.9688211218
 11
665.0298037769
 21
154.3103274728
  0
LINE
  5
337
100
AcDbEntity
  8
0
100
AcDbLine
 62
7
  6
CONTINUOUS
 10
667.976039366
 20
158.8648569212
 11
667.0728415604
 21
155.4940768217
  0
LINE
  5
338
100
AcDbEntity
  8
0
100
AcDbLine
 62
7
  6
CONTINUOUS
 10
668.0001303537
 20
155.2456105384
 11
668.9033281592
 21
158.6163906379
  0
LINE
  5
339
100
AcDbEntity
  8
KONSTRUKTIONSELEMENTE
100
AcDbLine
 62
7
  6
CONTINUOUS
 10
682.4152577101
 20
206.2174289523
 11
684.7563969807
 21
214.9546796578
  0
LINE
  5
33A
100
AcDbEntity
  8
KONSTRUKTIONSELEMENTE
100
AcDbLine
 62
7
  6
CONTINUOUS
 10
671.3666594768
 20
164.0175731669
 11
677.1782488239
 21
185.7067198832
  0
LINE
  5
33B
100
AcDbEntity
  8
KONSTRUKTIONSELEMENTE
100
AcDbLine
 62
7
  6
CONTINUOUS
 10
688.5202660736
 20
228.0357045192
 11
690.740913198
 21
236.3232724131
  0
LINE
  5
33C
100
AcDbEntity
  8
KONSTRUKTIONSELEMENTE
100
AcDbLine
 62
7
  6
CONTINUOUS
 10
686.5125565902
 20
216.6791274154
 11
685.7694155061
 21
213.9056871322
  0
LINE
  5
33D
100
AcDbEntity
  8
KONSTRUKTIONSELEMENTE
100
AcDbLine
 62
7
  6
CONTINUOUS
 10
679.9704306246
 20
192.2635809222
 11
677.7168566228
 21
183.853128249
  0
LINE
  5
33E
100
AcDbEntity
  8
0
100
AcDbLine
 62
7
  6
CONTINUOUS
 10
672.5488629759
 20
157.6395725278
 11
671.6456651704
 21
154.2687924283
  0
LINE
  5
33F
100
AcDbEntity
  8
0
100
AcDbLine
 62
7
  6
CONTINUOUS
 10
690.2095087527
 20
220.9428846355
 11
688.9755113094
 21
216.3375434809
  0
LINE
  5
340
100
AcDbEntity
  8
0
100
AcDbLine
 62
7
  6
CONTINUOUS
 10
681.205534944
 20
186.2478689055
 11
684.3751981175
 21
198.0772129121
  0
LINE
  5
341
100
AcDbEntity
  8
KONSTRUKTIONSELEMENTE
100
AcDbLine
 62
7
  6
CONTINUOUS
 10
684.3751981175
 20
198.0772129121
 11
687.8304323697
 21
210.9723226931
  0
LINE
  5
342
100
AcDbEntity
  8
0
100
AcDbLine
 62
7
  6
CONTINUOUS
 10
672.5729539636
 20
154.020326145
 11
673.4761517691
 21
157.3911062445
  0
LINE
  5
343
100
AcDbEntity
  8
0
100
AcDbLine
 62
7
  6
CONTINUOUS
 10
689.578309334
 20
216.1760242371
 11
690.8123067772
 21
220.7813653916
  0
LINE
  5
344
100
AcDbEntity
  8
0
100
AcDbLine
 62
7
  6
CONTINUOUS
 10
691.6160374287
 20
220.5660064126
 11
690.3820399855
 21
215.9606652581
  0
LINE
  5
345
100
AcDbEntity
  8
KONSTRUKTIONSELEMENTE
100
AcDbLine
 62
7
  6
CONTINUOUS
 10
682.7996794047
 20
185.4358162436
 11
682.0635228411
 21
182.688442546
  0
LINE
  5
346
100
AcDbEntity
  8
0
100
AcDbLine
 62
7
  6
CONTINUOUS
 10
690.9848380101
 20
215.7991460142
 11
691.5361985776
 21
217.8568516656
  0
LINE
  5
347
100
AcDbEntity
  8
0
100
AcDbLine
 62
7
  6
CONTINUOUS
 10
691.6937301474
 20
218.4447674876
 11
692.0875591452
 21
219.9145573171
  0
LINE
  5
348
100
AcDbEntity
  8
0
100
AcDbLine
 62
7
  6
CONTINUOUS
 10
675.5045960043
 20
156.8475862498
 11
675.3289038105
 21
156.191894056
  0
LINE
  5
349
100
AcDbEntity
  8
0
100
AcDbLine
 62
7
  6
CONTINUOUS
 10
675.1751731409
 20
155.6181633864
 11
674.0770969296
 21
151.5200871751
  0
LINE
  5
34A
100
AcDbEntity
  8
0
100
AcDbLine
 62
7
  6
CONTINUOUS
 10
675.1873984247
 20
151.9546335937
 11
676.1024619342
 21
155.3696971031
  0
LINE
  5
34B
100
AcDbEntity
  8
0
100
AcDbLine
 62
7
  6
CONTINUOUS
 10
694.4416860591
 20
218.6536446328
 11
694.3629202006
 21
218.3596864473
  0
LINE
  5
34C
100
AcDbEntity
  8
0
100
AcDbLine
 62
7
  6
CONTINUOUS
 10
737.181333895
 20
376.7998038856
 11
701.723124716
 21
244.467965684
  0
LINE
  5
34D
100
AcDbEntity
  8
0
100
AcDbLine
 62
7
  6
CONTINUOUS
 10
694.9394629636
 20
218.1001812331
 11
695.0444840836
 21
218.4921253889
  0
LINE
  5
34E
100
AcDbEntity
  8
0
100
AcDbLine
 62
7
  6
CONTINUOUS
 10
695.8174047388
 20
217.7599163969
 11
695.4235757777
 21
216.2901267047
  0
LINE
  5
34F
100
AcDbEntity
  8
0
100
AcDbLine
 62
7
  6
CONTINUOUS
 10
696.0263738023
 20
216.1286074608
 11
696.4202027634
 21
217.598397153
  0
LINE
  5
350
100
AcDbEntity
  8
0
100
AcDbLine
 62
7
  6
CONTINUOUS
 10
831.3026542592
 20
267.9165051738
 11
840.3459395038
 21
252.2530756629
  0
LINE
  5
351
100
AcDbEntity
  8
0
100
AcDbLine
 62
7
  6
CONTINUOUS
 10
793.2379785168
 20
182.9468353105
 11
784.6963676855
 21
214.8245609111
  0
LINE
  5
352
100
AcDbEntity
  8
0
100
AcDbLine
 62
7
  6
CONTINUOUS
 10
803.9257833123
 20
195.8551322957
 11
802.8483196275
 21
199.8762815105
  0
LINE
  5
353
100
AcDbEntity
  8
0
100
AcDbLine
 62
7
  6
CONTINUOUS
 10
794.8707744729
 20
244.467965684
 11
759.4125652939
 21
376.7998038856
  0
LINE
  5
354
100
AcDbEntity
  8
0
100
AcDbLine
 62
7
  6
CONTINUOUS
 10
772.8459395038
 20
234.1665051738
 11
772.8459395038
 21
252.2530756629
  0
LINE
  5
355
100
AcDbEntity
  8
0
100
AcDbLine
 62
7
  6
CONTINUOUS
 10
679.8051002192
 20
153.2209378888
 11
679.7135938682
 21
152.8794315379
  0
LINE
  5
356
100
AcDbEntity
  8
0
100
AcDbLine
 62
7
  6
CONTINUOUS
 10
698.0973205289
 20
216.6239095697
 11
697.9397889592
 21
216.0359937478
  0
LINE
  5
357
100
AcDbEntity
  8
KONSTRUKTIONSELEMENTE
100
AcDbLine
 62
7
  6
CONTINUOUS
 10
692.6681158766
 20
195.8551322957
 11
693.7455795614
 21
199.8762815105
  0
LINE
  5
358
100
AcDbEntity
  8
0
100
AcDbLine
 62
7
  6
CONTINUOUS
 10
698.8439859961
 20
215.7937148819
 11
698.6339438663
 21
215.009826982
  0
LINE
  5
359
100
AcDbEntity
  8
0
100
AcDbLine
 62
7
  6
CONTINUOUS
 10
699.2104866293
 20
214.7503217678
 11
699.6043155903
 21
216.22011146
  0
LINE
  5
35A
100
AcDbEntity
  8
0
100
AcDbLine
 62
7
  6
CONTINUOUS
 10
700.7756204092
 20
217.3765562247
 11
700.5655782427
 21
216.5926681875
  0
LINE
  5
35B
100
AcDbEntity
  8
0
100
AcDbLine
 62
7
  6
CONTINUOUS
 10
701.3521631722
 20
217.1170510104
 11
700.3282078219
 21
213.2955976185
  0
LINE
  5
35C
100
AcDbEntity
  8
0
100
AcDbLine
 62
7
  6
CONTINUOUS
 10
700.9310058465
 20
213.1340783746
 11
702.1650032897
 21
217.7394195292
  0
LINE
  5
35D
100
AcDbEntity
  8
0
100
AcDbLine
 62
7
  6
CONTINUOUS
 10
702.4698831783
 20
215.662327032
 11
702.2335858237
 21
214.780453299
  0
LINE
  5
35E
100
AcDbEntity
  8
0
100
AcDbLine
 62
7
  6
CONTINUOUS
 10
702.7621731557
 20
214.7438397967
 11
702.945959987
 21
215.429741589
  0
LINE
  5
35F
100
AcDbEntity
  8
0
100
AcDbLine
 62
7
  6
CONTINUOUS
 10
705.5580851434
 20
214.7298247629
 11
705.374298312
 21
214.0439229706
  0
LINE
  5
360
100
AcDbEntity
  8
0
100
AcDbLine
 62
7
  6
CONTINUOUS
 10
705.8503739711
 20
213.8113378357
 11
706.0866713256
 21
214.6932115687
  0
LINE
  5
361
100
AcDbEntity
  8
RUNDUNGEN
100
AcDbLine
 62
7
  6
CONTINUOUS
 10
679.738198433
 20
103.8839987221
 11
678.5486158707
 21
99.4444161598
  0
LINE
  5
362
100
AcDbEntity
  8
RUNDUNGEN
100
AcDbLine
 62
7
  6
CONTINUOUS
 10
703.3559206721
 20
182.9468353105
 11
711.8975315034
 21
214.8245609111
  0
LINE
  5
363
100
AcDbEntity
  8
0
100
AcDbLine
 62
7
  6
CONTINUOUS
 10
712.0167822887
 20
208.4717255869
 11
714.7046744406
 21
218.5030756629
  0
LINE
  5
364
100
AcDbEntity
  8
RUNDUNGEN
100
AcDbLine
 62
7
  6
CONTINUOUS
 10
686.9546907656
 20
100.4862438143
 11
689.4113628777
 21
109.6546689542
  0
LINE
  5
365
100
AcDbEntity
  8
0
100
AcDbLine
 62
7
  6
CONTINUOUS
 10
670.7880149137
 20
222.3661001109
 11
671.0152360122
 21
222.8303216335
  0
LINE
  5
366
100
AcDbEntity
  8
0
100
AcDbLine
 62
7
  6
CONTINUOUS
 10
675.3933560683
 20
221.1321026677
 11
675.6205766178
 21
221.5963243373
  0
LINE
  5
367
100
AcDbEntity
  8
0
100
AcDbLine
 62
7
  6
CONTINUOUS
 10
665.2912449297
 20
267.9165051738
 11
656.2479596851
 21
252.2530756629
  0
LINE
  5
368
100
AcDbEntity
  8
0
100
AcDbLine
 62
7
  6
CONTINUOUS
 10
815.3883642449
 20
186.2478689055
 11
808.7634668192
 21
210.9723226931
  0
LINE
  5
369
100
AcDbEntity
  8
0
100
AcDbLine
 62
7
  6
CONTINUOUS
 10
827.4624370735
 20
189.4831069693
 11
820.8375396478
 21
214.2075607569
  0
LINE
  5
36A
100
AcDbEntity
  8
0
100
AcDbLine
 62
7
  6
CONTINUOUS
 10
816.1211426513
 20
250.1619846762
 11
780.6629334722
 21
382.4938228778
  0
LINE
  5
36B
100
AcDbEntity
  8
0
100
AcDbLine
 62
7
  6
CONTINUOUS
 10
832.585691659
 20
203.5345315924
 11
831.5082279743
 21
207.5556808072
  0
LINE
  5
36C
100
AcDbEntity
  8
RUNDUNGEN
100
AcDbLine
 62
7
  6
CONTINUOUS
 10
712.8967341094
 20
157.5305060781
 11
713.8117976189
 21
160.9455695876
  0
LINE
  5
36D
100
AcDbEntity
  8
0
100
AcDbLine
 62
7
  6
CONTINUOUS
 10
702.945959987
 20
215.429741589
 11
703.2039575109
 21
215.9907376397
  0
LINE
  5
36E
100
AcDbEntity
  8
0
100
AcDbLine
 62
7
  6
CONTINUOUS
 10
705.374298312
 20
214.0439229706
 11
705.1162996016
 21
213.4829270907
  0
LINE
  5
36F
100
AcDbEntity
  8
0
100
AcDbLine
 62
7
  6
CONTINUOUS
 10
696.0491476495
 20
218.2229265978
 11
695.8174047388
 21
217.7599163969
  0
LINE
  5
370
100
AcDbEntity
  8
0
100
AcDbLine
 62
7
  6
CONTINUOUS
 10
670.4395683679
 20
222.9845713139
 11
670.238602531
 21
222.6183357616
  0
LINE
  5
371
100
AcDbEntity
  8
0
100
AcDbLine
 62
7
  6
CONTINUOUS
 10
675.0449089735
 20
221.7505740177
 11
674.8439436856
 21
221.3843383184
  0
LINE
  5
372
100
AcDbEntity
  8
0
100
AcDbLine
 62
7
  6
CONTINUOUS
 10
666.5684002453
 20
225.8072056233
 11
666.3936899446
 21
225.5389559679
  0
LINE
  5
373
100
AcDbEntity
  8
0
100
AcDbLine
 62
7
  6
CONTINUOUS
 10
666.9431023273
 20
225.2867203172
 11
667.117812628
 21
225.5549699726
  0
LINE
  5
374
100
AcDbEntity
  8
0
100
AcDbLine
 62
7
  6
CONTINUOUS
 10
848.2957506152
 20
197.6995208813
 11
839.754139784
 21
229.577246482
  0
LINE
  5
375
100
AcDbEntity
  8
0
100
AcDbLine
 62
7
  6
CONTINUOUS
 10
843.0338316556
 20
224.1351550978
 11
840.3459395038
 21
234.1665051738
  0
LINE
  5
376
100
AcDbEntity
  8
0
100
AcDbLine
 62
7
  6
CONTINUOUS
 10
702.7016265903
 20
216.1253368043
 11
702.4698831783
 21
215.662327032
  0
LINE
  5
377
100
AcDbEntity
  8
0
100
AcDbLine
 62
7
  6
CONTINUOUS
 10
705.618631672
 20
213.3483276181
 11
705.8503739711
 21
213.8113378357
  0
LINE
  5
378
100
AcDbEntity
  8
0
100
AcDbLine
 62
7
  6
CONTINUOUS
 10
712.0167822887
 20
208.4717255869
 11
708.3448782582
 21
201.5658784986
  0
LINE
  5
379
100
AcDbEntity
  8
0
100
AcDbLine
 62
7
  6
CONTINUOUS
 10
696.4202027634
 20
217.598397153
 11
696.6256903389
 21
217.963421109
  0
LINE
  5
37A
100
AcDbEntity
  8
0
100
AcDbLine
 62
7
  6
CONTINUOUS
 10
699.0049996102
 20
214.3852975892
 11
699.2104866293
 21
214.7503217678
  0
LINE
  5
37B
100
AcDbEntity
  8
0
100
AcDbLine
 62
7
  6
CONTINUOUS
 10
694.3629202006
 20
218.3596864473
 11
694.1836881742
 21
218.0926483846
  0
LINE
  5
37C
100
AcDbEntity
  8
0
100
AcDbLine
 62
7
  6
CONTINUOUS
 10
694.7602306497
 20
217.8331432474
 11
694.9394629636
 21
218.1001812331
  0
LINE
  5
37D
100
AcDbEntity
  8
0
100
AcDbLine
 62
7
  6
CONTINUOUS
 10
843.0338316556
 20
224.1351550978
 11
843.3067930292
 21
216.3185640694
  0
LINE
  5
37E
100
AcDbEntity
  8
0
100
AcDbLine
 62
7
  6
CONTINUOUS
 10
840.3459395038
 20
252.2530756629
 11
840.3459395038
 21
234.1665051738
  0
LINE
  5
37F
100
AcDbEntity
  8
0
100
AcDbLine
 62
7
  6
CONTINUOUS
 10
843.2969495944
 20
460.78458279
 11
843.2969495944
 21
620.78458279
  0
LINE
  5
380
100
AcDbEntity
  8
0
100
AcDbLine
 62
7
  6
CONTINUOUS
 10
714.7046744406
 20
218.5030756629
 11
723.7479596851
 21
234.1665051738
  0
LINE
  5
381
100
AcDbEntity
  8
0
100
AcDbLine
 62
7
  6
CONTINUOUS
 10
698.6339438663
 20
215.009826982
 11
698.4547115524
 21
214.7427889964
  0
LINE
  5
382
100
AcDbEntity
  8
0
100
AcDbLine
 62
7
  6
CONTINUOUS
 10
702.8808584029
 20
216.3923752185
 11
702.7016265903
 21
216.1253368043
  0
LINE
  5
383
100
AcDbEntity
  8
0
100
AcDbLine
 62
7
  6
CONTINUOUS
 10
705.439399933
 20
213.0812894784
 11
705.618631672
 21
213.3483276181
  0
LINE
  5
384
100
AcDbEntity
  8
0
100
AcDbLine
 62
7
  6
CONTINUOUS
 10
670.4911048171
 20
222.025572672
 11
670.7880149137
 21
222.3661001109
  0
LINE
  5
385
100
AcDbEntity
  8
0
100
AcDbLine
 62
7
  6
CONTINUOUS
 10
675.0964454227
 20
220.7915753759
 11
675.3933560683
 21
221.1321026677
  0
LINE
  5
386
100
AcDbEntity
  8
0
100
AcDbLine
 62
7
  6
CONTINUOUS
 10
680.9546744406
 20
276.9597904184
 11
665.2912449297
 21
267.9165051738
  0
LINE
  5
387
100
AcDbEntity
  8
0
100
AcDbLine
 62
7
  6
CONTINUOUS
 10
772.8459395038
 20
252.2530756629
 11
781.8892247483
 21
267.9165051738
  0
LINE
  5
388
100
AcDbEntity
  8
0
100
AcDbLine
 62
7
  6
CONTINUOUS
 10
696.3551011792
 20
218.5610307825
 11
696.0491476495
 21
218.2229265978
  0
LINE
  5
389
100
AcDbEntity
  8
0
100
AcDbLine
 62
7
  6
CONTINUOUS
 10
703.1868125075
 20
216.7304792491
 11
702.8808584029
 21
216.3923752185
  0
LINE
  5
38A
100
AcDbEntity
  8
0
100
AcDbLine
 62
7
  6
CONTINUOUS
 10
705.13344581
 20
212.7431853791
 11
705.439399933
 21
213.0812894784
  0
LINE
  5
38B
100
AcDbEntity
  8
0
100
AcDbLine
 62
7
  6
CONTINUOUS
 10
670.238602531
 20
222.6183357616
 11
669.9679477144
 21
222.3757943617
  0
LINE
  5
38C
100
AcDbEntity
  8
0
100
AcDbLine
 62
7
  6
CONTINUOUS
 10
674.8439436856
 20
221.3843383184
 11
674.57328832
 21
221.1417970656
  0
LINE
  5
38D
100
AcDbEntity
  8
0
100
AcDbLine
 62
7
  6
CONTINUOUS
 10
666.5502474586
 20
224.971901276
 11
666.9431023273
 21
225.2867203172
  0
LINE
  5
38E
100
AcDbEntity
  8
0
100
AcDbLine
 62
7
  6
CONTINUOUS
 10
875.2969495944
 20
460.78458279
 11
875.2969495944
 21
620.78458279
  0
LINE
  5
38F
100
AcDbEntity
  8
0
100
AcDbLine
 62
7
  6
CONTINUOUS
 10
696.6256903389
 20
217.963421109
 11
696.9053886805
 21
218.2035395979
  0
LINE
  5
390
100
AcDbEntity
  8
0
100
AcDbLine
 62
7
  6
CONTINUOUS
 10
703.2039575109
 20
215.9907376397
 11
703.7633552704
 21
216.4709740349
  0
LINE
  5
391
100
AcDbEntity
  8
0
100
AcDbLine
 62
7
  6
CONTINUOUS
 10
705.1162996016
 20
213.4829270907
 11
704.5569030471
 21
213.0026905933
  0
LINE
  5
392
100
AcDbEntity
  8
0
100
AcDbLine
 62
7
  6
CONTINUOUS
 10
694.3538108784
 20
217.521958911
 11
694.7602306497
 21
217.8331432474
  0
LINE
  5
393
100
AcDbEntity
  8
0
100
AcDbLine
 62
7
  6
CONTINUOUS
 10
666.3936899446
 20
225.5389559679
 11
666.149290115
 21
225.3944006119
  0
LINE
  5
394
100
AcDbEntity
  8
0
100
AcDbLine
 62
7
  6
CONTINUOUS
 10
670.0023051489
 20
221.7364619257
 11
670.4911048171
 21
222.025572672
  0
LINE
  5
395
100
AcDbEntity
  8
0
100
AcDbLine
 62
7
  6
CONTINUOUS
 10
674.6076463035
 20
220.5024644825
 11
675.0964454227
 21
220.7915753759
  0
LINE
  5
396
100
AcDbEntity
  8
0
100
AcDbLine
 62
7
  6
CONTINUOUS
 10
845.7795293482
 20
189.2630594432
 11
848.2957506152
 21
197.6995208813
  0
LINE
  5
397
100
AcDbEntity
  8
RUNDUNGEN
100
AcDbLine
 62
7
  6
CONTINUOUS
 10
696.9585784142
 20
176.8987560205
 11
703.3559206721
 21
182.9468353105
  0
LINE
  5
398
100
AcDbEntity
  8
0
100
AcDbLine
 62
7
  6
CONTINUOUS
 10
701.5622052651
 20
217.9009387731
 11
700.7756204092
 21
217.3765562247
  0
LINE
  5
399
100
AcDbEntity
  8
0
100
AcDbLine
 62
7
  6
CONTINUOUS
 10
700.5655782427
 20
216.5926681875
 11
701.3521631722
 21
217.1170510104
  0
LINE
  5
39A
100
AcDbEntity
  8
0
100
AcDbLine
 62
7
  6
CONTINUOUS
 10
781.8892247483
 20
267.9165051738
 11
787.6903240654
 21
271.2657714261
  0
LINE
  5
39B
100
AcDbEntity
  8
0
100
AcDbLine
 62
7
  6
CONTINUOUS
 10
694.1836881742
 20
218.0926483846
 11
693.9302448803
 21
217.9505162176
  0
LINE
  5
39C
100
AcDbEntity
  8
0
100
AcDbLine
 62
7
  6
CONTINUOUS
 10
696.861987767
 20
218.8452951165
 11
696.3551011792
 21
218.5610307825
  0
LINE
  5
39D
100
AcDbEntity
  8
0
100
AcDbLine
 62
7
  6
CONTINUOUS
 10
703.5669773046
 20
216.9436775382
 11
703.1868125075
 21
216.7304792491
  0
LINE
  5
39E
100
AcDbEntity
  8
0
100
AcDbLine
 62
7
  6
CONTINUOUS
 10
698.4981130132
 20
214.1010332208
 11
699.0049996102
 21
214.3852975892
  0
LINE
  5
39F
100
AcDbEntity
  8
0
100
AcDbLine
 62
7
  6
CONTINUOUS
 10
704.7532810037
 20
212.5299870557
 11
705.13344581
 21
212.7431853791
  0
LINE
  5
3A0
100
AcDbEntity
  8
0
100
AcDbLine
 62
7
  6
CONTINUOUS
 10
669.9679477144
 20
222.3757943617
 11
669.6276033506
 21
222.2569471927
  0
LINE
  5
3A1
100
AcDbEntity
  8
0
100
AcDbLine
 62
7
  6
CONTINUOUS
 10
674.57328832
 20
221.1417970656
 11
674.2329439562
 21
221.0229498965
  0
LINE
  5
3A2
100
AcDbEntity
  8
0
100
AcDbLine
 62
7
  6
CONTINUOUS
 10
696.9053886805
 20
218.2035395979
 11
697.2592982161
 21
218.3187519166
  0
LINE
  5
3A3
100
AcDbEntity
  8
0
100
AcDbLine
 62
7
  6
CONTINUOUS
 10
698.4547115524
 20
214.7427889964
 11
698.1008019985
 21
214.627576609
  0
LINE
  5
3A4
100
AcDbEntity
  8
0
100
AcDbLine
 62
7
  6
CONTINUOUS
 10
703.7633552704
 20
216.4709740349
 11
704.1172648059
 21
216.5861863537
  0
LINE
  5
3A5
100
AcDbEntity
  8
0
100
AcDbLine
 62
7
  6
CONTINUOUS
 10
704.5569030471
 20
213.0026905933
 11
704.2029935115
 21
212.8874782746
  0
LINE
  5
3A6
100
AcDbEntity
  8
RUNDUNGEN
100
AcDbLine
 62
7
  6
CONTINUOUS
 10
643.3688103217
 20
139.6307993023
 11
625.1266941121
 21
128.9791295028
  0
LINE
  5
3A7
100
AcDbEntity
  8
RUNDUNGEN
100
AcDbLine
 62
7
  6
CONTINUOUS
 10
642.4537468122
 20
136.2157357929
 11
624.2116306026
 21
125.5640659933
  0
LINE
  5
3A8
100
AcDbEntity
  8
RUNDUNGEN
100
AcDbLine
 62
7
  6
CONTINUOUS
 10
695.5047202153
 20
161.8364366553
 11
705.2943449581
 21
167.5526512119
  0
LINE
  5
3A9
100
AcDbEntity
  8
RUNDUNGEN
100
AcDbLine
 62
7
  6
CONTINUOUS
 10
694.5896567059
 20
158.4213731458
 11
704.3792814486
 21
164.1375877025
  0
LINE
  5
3AA
100
AcDbEntity
  8
RUNDUNGEN
100
AcDbLine
 62
7
  6
CONTINUOUS
 10
645.9395913503
 20
118.1613808037
 11
652.4163876781
 21
121.9432170255
  0
LINE
  5
3AB
100
AcDbEntity
  8
RUNDUNGEN
100
AcDbLine
 62
7
  6
CONTINUOUS
 10
680.824581724
 20
138.5309143683
 11
712.4772478828
 21
157.0130764336
  0
LINE
  5
3AC
100
AcDbEntity
  8
0
100
AcDbLine
 62
7
  6
CONTINUOUS
 10
482.7680487991
 20
130.26864856
 11
482.8282280977
 21
130.2752245825
  0
LINE
  5
3AD
100
AcDbEntity
  8
0
100
AcDbLine
 62
7
  6
CONTINUOUS
 10
453.1635640195
 20
154.9974150169
 11
453.2103798693
 21
155.0044925252
  0
LINE
  5
3AE
100
AcDbEntity
  8
0
100
AcDbLine
 62
7
  6
CONTINUOUS
 10
452.2918014867
 20
155.9468927762
 11
452.2449856346
 21
155.9398152706
  0
LINE
  5
3AF
100
AcDbEntity
  8
0
100
AcDbLine
 62
7
  6
CONTINUOUS
 10
464.2990940135
 20
148.108288972
 11
464.3592733121
 21
148.1148649945
  0
LINE
  5
3B0
100
AcDbEntity
  8
0
100
AcDbLine
 62
7
  6
CONTINUOUS
 10
472.3008885145
 20
136.6173852543
 11
472.2433529386
 21
136.622115134
  0
LINE
  5
3B1
100
AcDbEntity
  8
0
100
AcDbLine
 62
7
  6
CONTINUOUS
 10
471.2633023505
 20
137.7460515391
 11
471.320837832
 21
137.7413216993
  0
LINE
  5
3B2
100
AcDbEntity
  8
0
100
AcDbLine
 62
7
  6
CONTINUOUS
 10
447.3464120833
 20
161.0108334206
 11
447.2711879666
 21
161.0026133861
  0
LINE
  5
3B3
100
AcDbEntity
  8
0
100
AcDbLine
 62
7
  6
CONTINUOUS
 10
446.2932742389
 20
162.1898483664
 11
446.3684983556
 21
162.1980683623
  0
LINE
  5
3B4
100
AcDbEntity
  8
0
100
AcDbLine
 62
7
  6
CONTINUOUS
 10
447.0455156166
 20
165.9009071901
 11
446.9702914999
 21
165.8926871555
  0
LINE
  5
3B5
100
AcDbEntity
  8
0
100
AcDbLine
 62
7
  6
CONTINUOUS
 10
447.0455156166
 20
166.3322721624
 11
446.9702914999
 21
166.3240522821
  0
LINE
  5
3B6
100
AcDbEntity
  8
0
100
AcDbLine
 62
7
  6
CONTINUOUS
 10
447.0455156166
 20
167.114121464
 11
446.9702914999
 21
167.1059014295
  0
LINE
  5
3B7
100
AcDbEntity
  8
0
100
AcDbLine
 62
7
  6
CONTINUOUS
 10
447.0455156166
 20
167.5454864363
 11
446.9702914999
 21
167.5372664018
  0
LINE
  5
3B8
100
AcDbEntity
  8
0
100
AcDbLine
 62
7
  6
CONTINUOUS
 10
452.5926428665
 20
155.1114769053
 11
452.6526923542
 21
155.1143307777
  0
LINE
  5
3B9
100
AcDbEntity
  8
0
100
AcDbLine
 62
7
  6
CONTINUOUS
 10
451.9562389028
 20
155.5351440446
 11
452.1964368535
 21
155.5465595344
  0
LINE
  5
3BA
100
AcDbEntity
  8
0
100
AcDbLine
 62
7
  6
CONTINUOUS
 10
452.2564863412
 20
155.5494134068
 11
452.3565688112
 21
155.5541698604
  0
LINE
  5
3BB
100
AcDbEntity
  8
0
100
AcDbLine
 62
7
  6
CONTINUOUS
 10
452.0266342539
 20
155.7330235431
 11
451.8564940364
 21
155.7249375711
  0
LINE
  5
3BC
100
AcDbEntity
  8
0
100
AcDbLine
 62
7
  6
CONTINUOUS
 10
452.1867662115
 20
155.7406338692
 11
452.0866837416
 21
155.7358774156
  0
LINE
  5
3BD
100
AcDbEntity
  8
0
100
AcDbLine
 62
7
  6
CONTINUOUS
 10
451.3225721424
 20
156.5749653462
 11
451.2625226547
 21
156.5721114738
  0
LINE
  5
3BE
100
AcDbEntity
  8
0
100
AcDbLine
 62
7
  6
CONTINUOUS
 10
471.7182860977
 20
136.6639309451
 11
471.777702329
 21
136.6558795736
  0
LINE
  5
3BF
100
AcDbEntity
  8
0
100
AcDbLine
 62
7
  6
CONTINUOUS
 10
471.651917268
 20
136.8094572512
 11
471.5687345306
 21
136.8207291731
  0
LINE
  5
3C0
100
AcDbEntity
  8
0
100
AcDbLine
 62
7
  6
CONTINUOUS
 10
471.0180612937
 20
137.4414809627
 11
471.101244031
 21
137.4302090408
  0
LINE
  5
3C1
100
AcDbEntity
  8
0
100
AcDbLine
 62
7
  6
CONTINUOUS
 10
470.9516924832
 20
137.5870072471
 11
470.892276252
 21
137.5950586186
  0
LINE
  5
3C2
100
AcDbEntity
  8
0
100
AcDbLine
 62
7
  6
CONTINUOUS
 10
470.8815564427
 20
137.7603506542
 11
470.940972657
 21
137.752299285
  0
LINE
  5
3C3
100
AcDbEntity
  8
0
100
AcDbLine
 62
7
  6
CONTINUOUS
 10
470.5499890143
 20
137.9691200154
 11
470.6212884986
 21
137.9594583687
  0
LINE
  5
3C4
100
AcDbEntity
  8
0
100
AcDbLine
 62
7
  6
CONTINUOUS
 10
470.4717369508
 20
138.116256575
 11
470.4242039726
 21
138.1226976713
  0
LINE
  5
3C5
100
AcDbEntity
  8
0
100
AcDbLine
 62
7
  6
CONTINUOUS
 10
472.3680171432
 20
136.4708710024
 11
472.442046324
 21
136.459145417
  0
LINE
  5
3C6
100
AcDbEntity
  8
0
100
AcDbLine
 62
7
  6
CONTINUOUS
 10
471.1961736449
 20
137.8925658097
 11
471.1221444619
 21
137.9042913978
  0
LINE
  5
3C7
100
AcDbEntity
  8
0
100
AcDbLine
 62
7
  6
CONTINUOUS
 10
320.523369097
 20
176.8987560205
 11
318.723369097
 21
176.8987560205
  0
LINE
  5
3C8
100
AcDbEntity
  8
0
100
AcDbLine
 62
7
  6
CONTINUOUS
 10
318.723369097
 20
189.2630594432
 11
320.523369097
 21
189.2630594432
  0
LINE
  5
3C9
100
AcDbEntity
  8
0
100
AcDbLine
 62
7
  6
CONTINUOUS
 10
447.5720844334
 20
160.5771681254
 11
447.7225326668
 21
160.5396875536
  0
LINE
  5
3CA
100
AcDbEntity
  8
0
100
AcDbLine
 62
7
  6
CONTINUOUS
 10
447.2185310428
 20
160.8557490379
 11
447.1925562011
 21
160.8622200505
  0
LINE
  5
3CB
100
AcDbEntity
  8
0
100
AcDbLine
 62
7
  6
CONTINUOUS
 10
447.5720844334
 20
161.1972553888
 11
447.4216362
 21
161.2347359799
  0
LINE
  5
3CC
100
AcDbEntity
  8
0
100
AcDbLine
 62
7
  6
CONTINUOUS
 10
447.2711879666
 20
165.5481229043
 11
447.3464120833
 21
165.5293825702
  0
LINE
  5
3CD
100
AcDbEntity
  8
0
100
AcDbLine
 62
7
  6
CONTINUOUS
 10
447.2711879666
 20
165.9794878766
 11
447.3464120833
 21
165.9607476968
  0
LINE
  5
3CE
100
AcDbEntity
  8
0
100
AcDbLine
 62
7
  6
CONTINUOUS
 10
447.2711879666
 20
166.7613370239
 11
447.3464120833
 21
166.7425968441
  0
LINE
  5
3CF
100
AcDbEntity
  8
0
100
AcDbLine
 62
7
  6
CONTINUOUS
 10
447.2711879666
 20
167.1927023048
 11
447.3464120833
 21
167.1739618164
  0
LINE
  5
3D0
100
AcDbEntity
  8
0
100
AcDbLine
 62
7
  6
CONTINUOUS
 10
453.0760163712
 20
155.0257670468
 11
453.1635640195
 21
154.9974150169
  0
LINE
  5
3D1
100
AcDbEntity
  8
0
100
AcDbLine
 62
7
  6
CONTINUOUS
 10
453.0328615327
 20
155.150935979
 11
452.9453138843
 21
155.1792880088
  0
LINE
  5
3D2
100
AcDbEntity
  8
0
100
AcDbLine
 62
7
  6
CONTINUOUS
 10
452.6310089376
 20
155.4367453919
 11
452.5434612892
 21
155.4650974218
  0
LINE
  5
3D3
100
AcDbEntity
  8
0
100
AcDbLine
 62
7
  6
CONTINUOUS
 10
452.3081968093
 20
155.7414351578
 11
452.4103357601
 21
155.7083577806
  0
LINE
  5
3D4
100
AcDbEntity
  8
0
100
AcDbLine
 62
7
  6
CONTINUOUS
 10
452.4225039552
 20
155.7933718356
 11
452.5100516036
 21
155.7650198058
  0
LINE
  5
3D5
100
AcDbEntity
  8
0
100
AcDbLine
 62
7
  6
CONTINUOUS
 10
452.379349135
 20
155.9185407463
 11
452.2918014867
 21
155.9468927762
  0
LINE
  5
3D6
100
AcDbEntity
  8
0
100
AcDbLine
 62
7
  6
CONTINUOUS
 10
451.8322027139
 20
156.3625965117
 11
452.2553497365
 21
156.2255616827
  0
LINE
  5
3D7
100
AcDbEntity
  8
0
100
AcDbLine
 62
7
  6
CONTINUOUS
 10
452.124647268
 20
156.3790826232
 11
451.6285438996
 21
156.5397441348
  0
LINE
  5
3D8
100
AcDbEntity
  8
0
100
AcDbLine
 62
7
  6
CONTINUOUS
 10
474.6399119593
 20
135.7688861832
 11
478.722394864
 21
134.4137009612
  0
LINE
  5
3D9
100
AcDbEntity
  8
0
100
AcDbLine
 62
7
  6
CONTINUOUS
 10
478.3688414734
 20
134.5898327005
 11
474.1794613757
 21
135.9805025771
  0
LINE
  5
3DA
100
AcDbEntity
  8
0
100
AcDbLine
 62
7
  6
CONTINUOUS
 10
478.722394864
 20
134.9313390514
 11
473.8234153784
 21
136.5575613178
  0
LINE
  5
3DB
100
AcDbEntity
  8
0
100
AcDbLine
 62
7
  6
CONTINUOUS
 10
482.6476902018
 20
130.3202012608
 11
482.7680487991
 21
130.26864856
  0
LINE
  5
3DC
100
AcDbEntity
  8
0
100
AcDbLine
 62
7
  6
CONTINUOUS
 10
482.5875108874
 20
130.529307786
 11
482.4671523007
 21
130.580860492
  0
LINE
  5
3DD
100
AcDbEntity
  8
0
100
AcDbLine
 62
7
  6
CONTINUOUS
 10
311.7972774908
 20
197.6995208813
 11
327.4494607032
 21
197.6995208813
  0
LINE
  5
3DE
100
AcDbEntity
  8
0
100
AcDbLine
 62
7
  6
CONTINUOUS
 10
317.124119097
 20
216.3185640694
 11
322.122619097
 21
216.3185640694
  0
LINE
  5
3DF
100
AcDbEntity
  8
0
100
AcDbLine
 62
7
  6
CONTINUOUS
 10
449.0765669516
 20
159.0161083338
 11
449.3022393214
 21
158.9329271463
  0
LINE
  5
3E0
100
AcDbEntity
  8
0
100
AcDbLine
 62
7
  6
CONTINUOUS
 10
449.0765669516
 20
162.4832051223
 11
449.3022393214
 21
162.4000239637
  0
LINE
  5
3E1
100
AcDbEntity
  8
0
100
AcDbLine
 62
7
  6
CONTINUOUS
 10
446.1428260055
 20
165.9101082995
 11
445.9171536555
 21
165.9932894391
  0
LINE
  5
3E2
100
AcDbEntity
  8
0
100
AcDbLine
 62
7
  6
CONTINUOUS
 10
464.1787354163
 20
148.1598416727
 11
464.2990940135
 21
148.108288972
  0
LINE
  5
3E3
100
AcDbEntity
  8
0
100
AcDbLine
 62
7
  6
CONTINUOUS
 10
464.1185561018
 20
148.3689481979
 11
463.9981975151
 21
148.420500904
  0
LINE
  5
3E4
100
AcDbEntity
  8
0
100
AcDbLine
 62
7
  6
CONTINUOUS
 10
447.2711879666
 20
161.0026133861
 11
447.1207397333
 21
161.0670542494
  0
LINE
  5
3E5
100
AcDbEntity
  8
0
100
AcDbLine
 62
7
  6
CONTINUOUS
 10
447.8729809002
 20
160.771810186
 11
448.0234291335
 21
160.7073693034
  0
LINE
  5
3E6
100
AcDbEntity
  8
0
100
AcDbLine
 62
7
  6
CONTINUOUS
 10
448.9261186919
 20
162.7902888851
 11
448.7756704585
 21
162.8547297676
  0
LINE
  5
3E7
100
AcDbEntity
  8
0
100
AcDbLine
 62
7
  6
CONTINUOUS
 10
446.2932742389
 20
165.6030244851
 11
446.4437224723
 21
165.5385836025
  0
LINE
  5
3E8
100
AcDbEntity
  8
RUNDUNGEN
100
AcDbLine
 62
7
  6
CONTINUOUS
 10
447.7698178267
 20
169.9638500049
 11
446.147498676
 21
170.6828413715
  0
LINE
  5
3E9
100
AcDbEntity
  8
RUNDUNGEN
100
AcDbLine
 62
7
  6
CONTINUOUS
 10
436.0988601634
 20
175.2234710684
 11
437.0798618957
 21
174.7887034854
  0
LINE
  5
3EA
100
AcDbEntity
  8
0
100
AcDbLine
 62
7
  6
CONTINUOUS
 10
471.6313361966
 20
136.7030199067
 11
471.7182860977
 21
136.6639309451
  0
LINE
  5
3EB
100
AcDbEntity
  8
0
100
AcDbLine
 62
7
  6
CONTINUOUS
 10
471.0386423904
 20
137.5479182871
 11
470.9516924832
 21
137.5870072471
  0
LINE
  5
3EC
100
AcDbEntity
  8
0
100
AcDbLine
 62
7
  6
CONTINUOUS
 10
470.558686841
 20
138.0771676173
 11
470.4717369508
 21
138.116256575
  0
LINE
  5
3ED
100
AcDbEntity
  8
0
100
AcDbLine
 62
7
  6
CONTINUOUS
 10
446.1428260055
 20
162.5508527252
 11
445.9171536555
 21
162.6609942334
  0
LINE
  5
3EE
100
AcDbEntity
  8
0
100
AcDbLine
 62
7
  6
CONTINUOUS
 10
471.5687345306
 20
136.8207291731
 11
471.5055511295
 21
136.8565975827
  0
LINE
  5
3EF
100
AcDbEntity
  8
0
100
AcDbLine
 62
7
  6
CONTINUOUS
 10
471.101244031
 20
137.4302090408
 11
471.1644274151
 21
137.3943406335
  0
LINE
  5
3F0
100
AcDbEntity
  8
0
100
AcDbLine
 62
7
  6
CONTINUOUS
 10
470.6212884986
 20
137.9594583687
 11
470.6844718997
 21
137.9235899591
  0
LINE
  5
3F1
100
AcDbEntity
  8
0
100
AcDbLine
 62
7
  6
CONTINUOUS
 10
472.2441222831
 20
136.5430942373
 11
472.3680171432
 21
136.4708710024
  0
LINE
  5
3F2
100
AcDbEntity
  8
0
100
AcDbLine
 62
7
  6
CONTINUOUS
 10
471.3200685028
 20
137.8203425775
 11
471.1961736449
 21
137.8925658097
  0
LINE
  5
3F3
100
AcDbEntity
  8
0
100
AcDbLine
 62
7
  6
CONTINUOUS
 10
322.122619097
 20
224.1351550978
 11
317.124119097
 21
224.1351550978
  0
LINE
  5
3F4
100
AcDbEntity
  8
0
100
AcDbLine
 62
7
  6
CONTINUOUS
 10
315.9046128303
 20
234.1665051738
 11
323.3421253637
 21
234.1665051738
  0
LINE
  5
3F5
100
AcDbEntity
  8
RUNDUNGEN
100
AcDbLine
 62
7
  6
CONTINUOUS
 10
441.8737576509
 20
176.9087868941
 11
442.2092293594
 21
176.7601100681
  0
LINE
  5
3F6
100
AcDbEntity
  8
RUNDUNGEN
100
AcDbLine
 62
7
  6
CONTINUOUS
 10
434.0126126961
 20
185.3563566778
 11
434.4181924838
 21
185.1766088362
  0
LINE
  5
3F7
100
AcDbEntity
  8
0
100
AcDbLine
 62
7
  6
CONTINUOUS
 10
452.9769195294
 20
155.0800979201
 11
453.0760163712
 21
155.0257670468
  0
LINE
  5
3F8
100
AcDbEntity
  8
0
100
AcDbLine
 62
7
  6
CONTINUOUS
 10
452.4784459745
 20
155.8642098757
 11
452.379349135
 21
155.9185407463
  0
LINE
  5
3F9
100
AcDbEntity
  8
0
100
AcDbLine
 62
7
  6
CONTINUOUS
 10
452.8039141807
 20
156.1280077515
 11
452.8639059574
 21
156.0938193576
  0
LINE
  5
3FA
100
AcDbEntity
  8
0
100
AcDbLine
 62
7
  6
CONTINUOUS
 10
452.6042604536
 20
156.4324517125
 11
452.5442686769
 21
156.4666401065
  0
LINE
  5
3FB
100
AcDbEntity
  8
0
100
AcDbLine
 62
7
  6
CONTINUOUS
 10
452.9453138843
 20
155.1792880088
 11
452.8608082639
 21
155.2288935592
  0
LINE
  5
3FC
100
AcDbEntity
  8
0
100
AcDbLine
 62
7
  6
CONTINUOUS
 10
452.5100516036
 20
155.7650198058
 11
452.594557224
 21
155.7154142554
  0
LINE
  5
3FD
100
AcDbEntity
  8
0
100
AcDbLine
 62
7
  6
CONTINUOUS
 10
452.6811444667
 20
156.7459309135
 11
452.5610749377
 21
156.8182359474
  0
LINE
  5
3FE
100
AcDbEntity
  8
0
100
AcDbLine
 62
7
  6
CONTINUOUS
 10
452.8020108406
 20
156.8626788656
 11
460.3376185531
 21
152.3247884015
  0
LINE
  5
3FF
100
AcDbEntity
  8
0
100
AcDbLine
 62
7
  6
CONTINUOUS
 10
460.3376185531
 20
152.6896693006
 11
451.7988543865
 21
157.8316535925
  0
LINE
  5
400
100
AcDbEntity
  8
0
100
AcDbLine
 62
7
  6
CONTINUOUS
 10
472.2433529386
 20
136.622115134
 11
472.1359517823
 21
136.6873426179
  0
LINE
  5
401
100
AcDbEntity
  8
0
100
AcDbLine
 62
7
  6
CONTINUOUS
 10
471.320837832
 20
137.7413216993
 11
471.4282390827
 21
137.6760941754
  0
LINE
  5
402
100
AcDbEntity
  8
0
100
AcDbLine
 62
7
  6
CONTINUOUS
 10
448.8508945752
 20
159.3958530041
 11
448.6252221724
 21
159.5329548546
  0
LINE
  5
403
100
AcDbEntity
  8
0
100
AcDbLine
 62
7
  6
CONTINUOUS
 10
447.2711879666
 20
160.7599705217
 11
447.5720844334
 21
160.5771681254
  0
LINE
  5
404
100
AcDbEntity
  8
0
100
AcDbLine
 62
7
  6
CONTINUOUS
 10
447.5194275096
 20
160.6729466898
 11
447.2185310428
 21
160.8557490379
  0
LINE
  5
405
100
AcDbEntity
  8
0
100
AcDbLine
 62
7
  6
CONTINUOUS
 10
447.8729809002
 20
161.0144530407
 11
447.5720844334
 21
161.1972553888
  0
LINE
  5
406
100
AcDbEntity
  8
0
100
AcDbLine
 62
7
  6
CONTINUOUS
 10
446.3684983556
 20
162.1980683623
 11
446.518946589
 21
162.1066671883
  0
LINE
  5
407
100
AcDbEntity
  8
0
100
AcDbLine
 62
7
  6
CONTINUOUS
 10
448.8508945752
 20
162.6203069474
 11
449.0765669516
 21
162.4832051223
  0
LINE
  5
408
100
AcDbEntity
  8
0
100
AcDbLine
 62
7
  6
CONTINUOUS
 10
446.3684983556
 20
165.7730064999
 11
446.1428260055
 21
165.9101082995
  0
LINE
  5
409
100
AcDbEntity
  8
0
100
AcDbLine
 62
7
  6
CONTINUOUS
 10
447.3464120833
 20
165.5293825702
 11
447.4216362
 21
165.4836820217
  0
LINE
  5
40A
100
AcDbEntity
  8
0
100
AcDbLine
 62
7
  6
CONTINUOUS
 10
447.2711879666
 20
165.7638053904
 11
447.0455156166
 21
165.9009071901
  0
LINE
  5
40B
100
AcDbEntity
  8
0
100
AcDbLine
 62
7
  6
CONTINUOUS
 10
447.3464120833
 20
165.9607476968
 11
447.4216362
 21
165.9150469941
  0
LINE
  5
40C
100
AcDbEntity
  8
0
100
AcDbLine
 62
7
  6
CONTINUOUS
 10
447.1959638499
 20
166.2408710655
 11
447.0455156166
 21
166.3322721624
  0
LINE
  5
40D
100
AcDbEntity
  8
0
100
AcDbLine
 62
7
  6
CONTINUOUS
 10
447.3464120833
 20
166.7425968441
 11
447.4216362
 21
166.6968961414
  0
LINE
  5
40E
100
AcDbEntity
  8
0
100
AcDbLine
 62
7
  6
CONTINUOUS
 10
447.2711879666
 20
166.9770196644
 11
447.0455156166
 21
167.114121464
  0
LINE
  5
40F
100
AcDbEntity
  8
0
100
AcDbLine
 62
7
  6
CONTINUOUS
 10
447.3464120833
 20
167.1739618164
 11
447.4216362
 21
167.1282614222
  0
LINE
  5
410
100
AcDbEntity
  8
0
100
AcDbLine
 62
7
  6
CONTINUOUS
 10
447.1959638499
 20
167.4540853394
 11
447.0455156166
 21
167.5454864363
  0
LINE
  5
411
100
AcDbEntity
  8
0
100
AcDbLine
 62
7
  6
CONTINUOUS
 10
472.2546865375
 20
137.4040328044
 11
472.3207570338
 21
137.3617039715
  0
LINE
  5
412
100
AcDbEntity
  8
0
100
AcDbLine
 62
7
  6
CONTINUOUS
 10
472.0859059485
 20
137.6852866205
 11
472.0198354522
 21
137.7276154534
  0
LINE
  5
413
100
AcDbEntity
  8
RUNDUNGEN
100
AcDbLine
 62
7
  6
CONTINUOUS
 10
459.8241099589
 20
138.5309143683
 11
433.7793994643
 21
157.0130764336
  0
LINE
  5
414
100
AcDbEntity
  8
RUNDUNGEN
100
AcDbLine
 62
7
  6
CONTINUOUS
 10
492.0640023013
 20
121.5764443132
 11
486.7347107831
 21
125.3582805349
  0
LINE
  5
415
100
AcDbEntity
  8
RUNDUNGEN
100
AcDbLine
 62
7
  6
CONTINUOUS
 10
463.3596438649
 20
141.9459778778
 11
437.3149333702
 21
160.4281399431
  0
LINE
  5
416
100
AcDbEntity
  8
RUNDUNGEN
100
AcDbLine
 62
7
  6
CONTINUOUS
 10
440.5842724724
 20
161.8364366553
 11
432.5290918757
 21
167.5526512119
  0
LINE
  5
417
100
AcDbEntity
  8
0
100
AcDbLine
 62
7
  6
CONTINUOUS
 10
471.4893189728
 20
136.8041840462
 11
471.6313361966
 21
136.7030199067
  0
LINE
  5
418
100
AcDbEntity
  8
0
100
AcDbLine
 62
7
  6
CONTINUOUS
 10
471.1806595815
 20
137.4467541592
 11
471.0386423904
 21
137.5479182871
  0
LINE
  5
419
100
AcDbEntity
  8
0
100
AcDbLine
 62
7
  6
CONTINUOUS
 10
470.7007040661
 20
137.9760034848
 11
470.558686841
 21
138.0771676173
  0
LINE
  5
41A
100
AcDbEntity
  8
0
100
AcDbLine
 62
7
  6
CONTINUOUS
 10
316.7015875817
 20
252.2530756629
 11
322.5451506123
 21
252.2530756629
  0
LINE
  5
41B
100
AcDbEntity
  8
0
100
AcDbLine
 62
7
  6
CONTINUOUS
 10
446.4437224723
 20
162.3410900085
 11
446.1428260055
 21
162.5508527252
  0
LINE
  5
41C
100
AcDbEntity
  8
RUNDUNGEN
100
AcDbLine
 62
7
  6
CONTINUOUS
 10
475.527037495
 20
139.6307993023
 11
490.5371675455
 21
128.9791295028
  0
LINE
  5
41D
100
AcDbEntity
  8
0
100
AcDbLine
 62
7
  6
CONTINUOUS
 10
448.0234291335
 20
160.7073693034
 11
448.249101589
 21
160.5433070334
  0
LINE
  5
41E
100
AcDbEntity
  8
0
100
AcDbLine
 62
7
  6
CONTINUOUS
 10
448.7756704585
 20
162.8547297676
 11
448.3243257057
 21
163.1828540779
  0
LINE
  5
41F
100
AcDbEntity
  8
0
100
AcDbLine
 62
7
  6
CONTINUOUS
 10
446.4437224723
 20
165.5385836025
 11
446.8950673832
 21
165.2104591396
  0
LINE
  5
420
100
AcDbEntity
  8
0
100
AcDbLine
 62
7
  6
CONTINUOUS
 10
471.5055511295
 20
136.8565975827
 11
471.4148340695
 21
136.9235035785
  0
LINE
  5
421
100
AcDbEntity
  8
0
100
AcDbLine
 62
7
  6
CONTINUOUS
 10
471.1644274151
 20
137.3943406335
 11
471.2551444752
 21
137.3274346377
  0
LINE
  5
422
100
AcDbEntity
  8
0
100
AcDbLine
 62
7
  6
CONTINUOUS
 10
470.6844718997
 20
137.9235899591
 11
470.7751889598
 21
137.8566839633
  0
LINE
  5
423
100
AcDbEntity
  8
0
100
AcDbLine
 62
7
  6
CONTINUOUS
 10
448.7004462891
 20
159.2985320415
 11
449.0765669516
 21
159.0161083338
  0
LINE
  5
424
100
AcDbEntity
  8
0
100
AcDbLine
 62
7
  6
CONTINUOUS
 10
452.8255416121
 20
155.1958372021
 11
452.9769195294
 21
155.0800979201
  0
LINE
  5
425
100
AcDbEntity
  8
0
100
AcDbLine
 62
7
  6
CONTINUOUS
 10
452.6298238849
 20
155.7484706018
 11
452.4784459745
 21
155.8642098757
  0
LINE
  5
426
100
AcDbEntity
  8
0
100
AcDbLine
 62
7
  6
CONTINUOUS
 10
482.4069730074
 20
130.5095797185
 11
482.6476902018
 21
130.3202012608
  0
LINE
  5
427
100
AcDbEntity
  8
0
100
AcDbLine
 62
7
  6
CONTINUOUS
 10
452.8608082639
 20
155.2288935592
 11
452.7647534523
 21
155.3044779504
  0
LINE
  5
428
100
AcDbEntity
  8
0
100
AcDbLine
 62
7
  6
CONTINUOUS
 10
452.594557224
 20
155.7154142554
 11
452.6906120356
 21
155.6398298642
  0
LINE
  5
429
100
AcDbEntity
  8
0
100
AcDbLine
 62
7
  6
CONTINUOUS
 10
447.6364857224
 20
160.5808539384
 11
447.5194275096
 21
160.6729466898
  0
LINE
  5
42A
100
AcDbEntity
  8
0
100
AcDbLine
 62
7
  6
CONTINUOUS
 10
463.9380182218
 20
148.3492201305
 11
464.1787354163
 21
148.1598416727
  0
LINE
  5
42B
100
AcDbEntity
  8
0
100
AcDbLine
 62
7
  6
CONTINUOUS
 10
448.1738774723
 20
160.7777298537
 11
447.8729809002
 21
161.0144530407
  0
LINE
  5
42C
100
AcDbEntity
  8
0
100
AcDbLine
 62
7
  6
CONTINUOUS
 10
446.518946589
 20
162.1066671883
 11
446.6693948224
 21
161.9883056456
  0
LINE
  5
42D
100
AcDbEntity
  8
0
100
AcDbLine
 62
7
  6
CONTINUOUS
 10
448.5499980557
 20
162.857030045
 11
448.8508945752
 21
162.6203069474
  0
LINE
  5
42E
100
AcDbEntity
  8
0
100
AcDbLine
 62
7
  6
CONTINUOUS
 10
446.6693948224
 20
165.5362834146
 11
446.3684983556
 21
165.7730064999
  0
LINE
  5
42F
100
AcDbEntity
  8
0
100
AcDbLine
 62
7
  6
CONTINUOUS
 10
447.4216362
 20
165.4836820217
 11
447.5720844334
 21
165.3653204019
  0
LINE
  5
430
100
AcDbEntity
  8
0
100
AcDbLine
 62
7
  6
CONTINUOUS
 10
447.4216362
 20
165.9150469941
 11
447.5720844334
 21
165.7966855285
  0
LINE
  5
431
100
AcDbEntity
  8
0
100
AcDbLine
 62
7
  6
CONTINUOUS
 10
447.4216362
 20
166.6968961414
 11
447.5720844334
 21
166.5785348301
  0
LINE
  5
432
100
AcDbEntity
  8
0
100
AcDbLine
 62
7
  6
CONTINUOUS
 10
447.4216362
 20
167.1282614222
 11
447.5720844334
 21
167.0098998024
  0
LINE
  5
433
100
AcDbEntity
  8
0
100
AcDbLine
 62
7
  6
CONTINUOUS
 10
472.0868554454
 20
136.6688193733
 11
472.2441222831
 21
136.5430942373
  0
LINE
  5
434
100
AcDbEntity
  8
0
100
AcDbLine
 62
7
  6
CONTINUOUS
 10
471.4773354283
 20
137.6946174094
 11
471.3200685028
 21
137.8203425775
  0
LINE
  5
435
100
AcDbEntity
  8
0
100
AcDbLine
 62
7
  6
CONTINUOUS
 10
472.1359517823
 20
136.6873426179
 11
472.0366050972
 21
136.7688274672
  0
LINE
  5
436
100
AcDbEntity
  8
0
100
AcDbLine
 62
7
  6
CONTINUOUS
 10
471.4282390827
 20
137.6760941754
 11
471.5275857678
 21
137.5946093262
  0
LINE
  5
437
100
AcDbEntity
  8
0
100
AcDbLine
 62
7
  6
CONTINUOUS
 10
447.5720844334
 20
165.9314872174
 11
447.1959638499
 21
166.2408710655
  0
LINE
  5
438
100
AcDbEntity
  8
0
100
AcDbLine
 62
7
  6
CONTINUOUS
 10
447.5720844334
 20
167.1447014913
 11
447.1959638499
 21
167.4540853394
  0
LINE
  5
439
100
AcDbEntity
  8
0
100
AcDbLine
 62
7
  6
CONTINUOUS
 10
471.2551444752
 20
137.3274346377
 11
471.3339782992
 21
137.2621389148
  0
LINE
  5
43A
100
AcDbEntity
  8
0
100
AcDbLine
 62
7
  6
CONTINUOUS
 10
471.2989103005
 20
137.3488105772
 11
471.1806595815
 21
137.4467541592
  0
LINE
  5
43B
100
AcDbEntity
  8
0
100
AcDbLine
 62
7
  6
CONTINUOUS
 10
482.4671523007
 20
130.580860492
 11
482.2866143785
 21
130.7336785005
  0
LINE
  5
43C
100
AcDbEntity
  8
0
100
AcDbLine
 62
7
  6
CONTINUOUS
 10
448.6252221724
 20
159.5329548546
 11
448.3995498224
 21
159.723977295
  0
LINE
  5
43D
100
AcDbEntity
  8
0
100
AcDbLine
 62
7
  6
CONTINUOUS
 10
447.1207397333
 20
161.0670542494
 11
446.8950673832
 21
161.2580766898
  0
LINE
  5
43E
100
AcDbEntity
  8
0
100
AcDbLine
 62
7
  6
CONTINUOUS
 10
446.6693948224
 20
162.1500675488
 11
446.4437224723
 21
162.3410900085
  0
LINE
  5
43F
100
AcDbEntity
  8
0
100
AcDbLine
 62
7
  6
CONTINUOUS
 10
463.9981975151
 20
148.420500904
 11
463.8176595929
 21
148.5733189125
  0
LINE
  5
440
100
AcDbEntity
  8
0
100
AcDbLine
 62
7
  6
CONTINUOUS
 10
448.3243257057
 20
163.0480524662
 11
448.5499980557
 21
162.857030045
  0
LINE
  5
441
100
AcDbEntity
  8
0
100
AcDbLine
 62
7
  6
CONTINUOUS
 10
446.8950673832
 20
165.3452608285
 11
446.6693948224
 21
165.5362834146
  0
LINE
  5
442
100
AcDbEntity
  8
0
100
AcDbLine
 62
7
  6
CONTINUOUS
 10
448.3995498224
 20
159.5622153918
 11
448.7004462891
 21
159.2985320415
  0
LINE
  5
443
100
AcDbEntity
  8
0
100
AcDbLine
 62
7
  6
CONTINUOUS
 10
446.9702914999
 20
161.0236538695
 11
447.2711879666
 21
160.7599705217
  0
LINE
  5
444
100
AcDbEntity
  8
0
100
AcDbLine
 62
7
  6
CONTINUOUS
 10
471.3435345852
 20
136.9331652253
 11
471.4893189728
 21
136.8041840462
  0
LINE
  5
445
100
AcDbEntity
  8
0
100
AcDbLine
 62
7
  6
CONTINUOUS
 10
470.8464884441
 20
137.8470223166
 11
470.7007040661
 21
137.9760034848
  0
LINE
  5
446
100
AcDbEntity
  8
KONSTRUKTIONSELEMENTE
100
AcDbLine
 62
7
  6
CONTINUOUS
 10
427.4173430263
 20
164.861021815
 11
419.0027723301
 21
172.9888729675
  0
LINE
  5
447
100
AcDbEntity
  8
KONSTRUKTIONSELEMENTE
100
AcDbLine
 62
7
  6
CONTINUOUS
 10
366.2526064536
 20
223.9416205287
 11
357.8380357575
 21
232.0694716812
  0
LINE
  5
448
100
AcDbEntity
  8
0
100
AcDbLine
 62
7
  6
CONTINUOUS
 10
316.7015875817
 20
267.9165051738
 11
322.5451506123
 21
267.9165051738
  0
LINE
  5
449
100
AcDbEntity
  8
0
100
AcDbLine
 62
7
  6
CONTINUOUS
 10
316.0800953181
 20
276.9597904184
 11
323.1666428759
 21
276.9597904184
  0
LINE
  5
44A
100
AcDbEntity
  8
0
100
AcDbLine
 62
7
  6
CONTINUOUS
 10
447.9482050169
 20
163.3843968233
 11
448.3243257057
 21
163.0480524662
  0
LINE
  5
44B
100
AcDbEntity
  8
0
100
AcDbLine
 62
7
  6
CONTINUOUS
 10
447.2711879666
 20
165.0089164575
 11
446.8950673832
 21
165.3452608285
  0
LINE
  5
44C
100
AcDbEntity
  8
0
100
AcDbLine
 62
7
  6
CONTINUOUS
 10
471.9625759142
 20
136.7805530552
 11
472.0868554454
 21
136.6688193733
  0
LINE
  5
44D
100
AcDbEntity
  8
0
100
AcDbLine
 62
7
  6
CONTINUOUS
 10
471.6016149508
 20
137.5828837381
 11
471.4773354283
 21
137.6946174094
  0
LINE
  5
44E
100
AcDbEntity
  8
0
100
AcDbLine
 62
7
  6
CONTINUOUS
 10
471.4148340695
 20
136.9235035785
 11
471.3084665757
 21
137.0198369082
  0
LINE
  5
44F
100
AcDbEntity
  8
0
100
AcDbLine
 62
7
  6
CONTINUOUS
 10
470.7751889598
 20
137.8566839633
 11
470.8815564427
 21
137.7603506542
  0
LINE
  5
450
100
AcDbEntity
  8
0
100
AcDbLine
 62
7
  6
CONTINUOUS
 10
448.3243257057
 20
163.1828540779
 11
447.8729809002
 21
163.5918593135
  0
LINE
  5
451
100
AcDbEntity
  8
0
100
AcDbLine
 62
7
  6
CONTINUOUS
 10
446.8950673832
 20
165.2104591396
 11
447.3464120833
 21
164.8014540058
  0
LINE
  5
452
100
AcDbEntity
  8
0
100
AcDbLine
 62
7
  6
CONTINUOUS
 10
452.677205804
 20
155.3328299802
 11
452.8255416121
 21
155.1958372021
  0
LINE
  5
453
100
AcDbEntity
  8
0
100
AcDbLine
 62
7
  6
CONTINUOUS
 10
452.7781596839
 20
155.6114778344
 11
452.6298238849
 21
155.7484706018
  0
LINE
  5
454
100
AcDbEntity
  8
0
100
AcDbLine
 62
7
  6
CONTINUOUS
 10
452.6906120356
 20
155.6398298642
 11
452.7982160383
 21
155.5382666323
  0
LINE
  5
455
100
AcDbEntity
  8
RUNDUNGEN
100
AcDbLine
 62
7
  6
CONTINUOUS
 10
494.9858508312
 20
100.4862438143
 11
489.029532578
 21
106.2396054447
  0
LINE
  5
456
100
AcDbEntity
  8
KONSTRUKTIONSELEMENTE
100
AcDbLine
 62
7
  6
CONTINUOUS
 10
399.2006924093
 20
194.2396284701
 11
388.5940906915
 21
204.4848189985
  0
LINE
  5
457
100
AcDbEntity
  8
KONSTRUKTIONSELEMENTE
100
AcDbLine
 62
7
  6
CONTINUOUS
 10
430.8910759793
 20
168.4572947984
 11
422.4765052832
 21
176.5851459509
  0
LINE
  5
458
100
AcDbEntity
  8
KONSTRUKTIONSELEMENTE
100
AcDbLine
 62
7
  6
CONTINUOUS
 10
369.7263394067
 20
227.5378935121
 11
361.6725591191
 21
235.3172478911
  0
LINE
  5
459
100
AcDbEntity
  8
RUNDUNGEN
100
AcDbLine
 62
7
  6
CONTINUOUS
 10
498.5213847372
 20
103.9013073237
 11
492.5650664839
 21
109.6546689542
  0
LINE
  5
45A
100
AcDbEntity
  8
KONSTRUKTIONSELEMENTE
100
AcDbLine
 62
7
  6
CONTINUOUS
 10
402.327052067
 20
197.4762741551
 11
391.7204503492
 21
207.7214646835
  0
LINE
  5
45B
100
AcDbEntity
  8
KONSTRUKTIONSELEMENTE
100
AcDbLine
 62
7
  6
CONTINUOUS
 10
377.1036054972
 20
221.9502119666
 11
387.710207215
 21
211.7050214382
  0
LINE
  5
45C
100
AcDbEntity
  8
KONSTRUKTIONSELEMENTE
100
AcDbLine
 62
7
  6
CONTINUOUS
 10
408.2163038694
 20
191.8976530834
 11
418.8229055872
 21
181.652462555
  0
LINE
  5
45D
100
AcDbEntity
  8
RUNDUNGEN
100
AcDbLine
 62
7
  6
CONTINUOUS
 10
497.1071711748
 20
107.2990622316
 11
501.7033652525
 21
102.8594796693
  0
LINE
  5
45E
100
AcDbEntity
  8
0
100
AcDbLine
 62
7
  6
CONTINUOUS
 10
444.781269367
 20
158.9161012088
 11
450.4381236165
 21
153.4519995936
  0
LINE
  5
45F
100
AcDbEntity
  8
0
100
AcDbLine
 62
7
  6
CONTINUOUS
 10
450.0845702259
 20
153.9229154671
 11
445.1348227576
 21
158.7040043804
  0
LINE
  5
460
100
AcDbEntity
  8
0
100
AcDbLine
 62
7
  6
CONTINUOUS
 10
483.6721423323
 20
123.9385930557
 11
470.9442202709
 21
136.2328216898
  0
LINE
  5
461
100
AcDbEntity
  8
0
100
AcDbLine
 62
7
  6
CONTINUOUS
 10
465.2873660214
 20
141.6969233049
 11
451.8523371789
 21
154.6741646409
  0
LINE
  5
462
100
AcDbEntity
  8
0
100
AcDbLine
 62
7
  6
CONTINUOUS
 10
483.3185889417
 20
124.4095089292
 11
479.0759482545
 21
128.5075851406
  0
LINE
  5
463
100
AcDbEntity
  8
0
100
AcDbLine
 62
7
  6
CONTINUOUS
 10
478.3688414734
 20
129.1905978425
 11
472.0048804427
 21
135.3377121595
  0
LINE
  5
464
100
AcDbEntity
  8
0
100
AcDbLine
 62
7
  6
CONTINUOUS
 10
471.6513270521
 20
135.6792185104
 11
470.9442202709
 21
136.3622312123
  0
LINE
  5
465
100
AcDbEntity
  8
0
100
AcDbLine
 62
7
  6
CONTINUOUS
 10
464.9338126308
 20
142.1678391784
 11
460.6911719437
 21
146.2659153898
  0
LINE
  5
466
100
AcDbEntity
  8
0
100
AcDbLine
 62
7
  6
CONTINUOUS
 10
459.9840651625
 20
146.9489280917
 11
452.9129973506
 21
153.7790551106
  0
LINE
  5
467
100
AcDbEntity
  8
0
100
AcDbLine
 62
7
  6
CONTINUOUS
 10
452.5594439601
 20
154.1205614615
 11
451.8523371789
 21
154.8035741634
  0
LINE
  5
468
100
AcDbEntity
  8
0
100
AcDbLine
 62
7
  6
CONTINUOUS
 10
444.8459352639
 20
162.0529117236
 11
444.781269367
 21
162.1153741834
  0
LINE
  5
469
100
AcDbEntity
  8
0
100
AcDbLine
 62
7
  6
CONTINUOUS
 10
445.1348227576
 20
162.3274710118
 11
450.0845702259
 21
157.5463820986
  0
LINE
  5
46A
100
AcDbEntity
  8
0
100
AcDbLine
 62
7
  6
CONTINUOUS
 10
450.4381236165
 20
157.3342852702
 11
444.781269367
 21
162.7983868853
  0
LINE
  5
46B
100
AcDbEntity
  8
KONSTRUKTIONSELEMENTE
100
AcDbLine
 62
7
  6
CONTINUOUS
 10
380.2299651549
 20
225.1868576517
 11
390.8365668727
 21
214.9416671233
  0
LINE
  5
46C
100
AcDbEntity
  8
KONSTRUKTIONSELEMENTE
100
AcDbLine
 62
7
  6
CONTINUOUS
 10
411.3426635271
 20
195.1342987684
 11
421.9492652449
 21
184.88910824
  0
LINE
  5
46D
100
AcDbEntity
  8
0
100
AcDbLine
 62
7
  6
CONTINUOUS
 10
446.6693948224
 20
161.3142977414
 11
446.9702914999
 21
161.0236538695
  0
LINE
  5
46E
100
AcDbEntity
  8
0
100
AcDbLine
 62
7
  6
CONTINUOUS
 10
446.8950673832
 20
161.2580766898
 11
446.7446191498
 21
161.4033985239
  0
LINE
  5
46F
100
AcDbEntity
  8
0
100
AcDbLine
 62
7
  6
CONTINUOUS
 10
448.249101589
 20
160.5433070334
 11
448.4747739391
 21
160.3253242822
  0
LINE
  5
470
100
AcDbEntity
  8
0
100
AcDbLine
 62
7
  6
CONTINUOUS
 10
448.5499980557
 20
160.4144252683
 11
448.1738774723
 21
160.7777298537
  0
LINE
  5
471
100
AcDbEntity
  8
RUNDUNGEN
100
AcDbLine
 62
7
  6
CONTINUOUS
 10
498.1678313466
 20
112.9806522187
 11
493.5716372689
 21
117.420234781
  0
LINE
  5
472
100
AcDbEntity
  8
KONSTRUKTIONSELEMENTE
100
AcDbLine
 62
7
  6
CONTINUOUS
 10
421.7432680295
 20
188.0645052892
 11
412.3427973132
 21
197.1446627334
  0
LINE
  5
473
100
AcDbEntity
  8
KONSTRUKTIONSELEMENTE
100
AcDbLine
 62
7
  6
CONTINUOUS
 10
390.8365668727
 20
217.918086142
 11
381.6888822744
 21
226.7540709462
  0
LINE
  5
474
100
AcDbEntity
  8
0
100
AcDbLine
 62
7
  6
CONTINUOUS
 10
446.3684983556
 20
164.3710699542
 11
446.9702914999
 21
163.7897824141
  0
LINE
  5
475
100
AcDbEntity
  8
KONSTRUKTIONSELEMENTE
100
AcDbLine
 62
7
  6
CONTINUOUS
 10
396.7258186751
 20
212.3394650702
 11
407.3324203929
 21
202.0942745418
  0
LINE
  5
476
100
AcDbEntity
  8
0
100
AcDbLine
 62
7
  6
CONTINUOUS
 10
446.4437224723
 20
164.4601709403
 11
449.3774634447
 21
161.6263947674
  0
LINE
  5
477
100
AcDbEntity
  8
0
100
AcDbLine
 62
7
  6
CONTINUOUS
 10
449.3774634447
 20
161.7881566706
 11
445.8419295388
 21
165.2032201801
  0
LINE
  5
478
100
AcDbEntity
  8
0
100
AcDbLine
 62
7
  6
CONTINUOUS
 10
447.2711879666
 20
164.0383450769
 11
447.9482050169
 21
163.3843968233
  0
LINE
  5
479
100
AcDbEntity
  8
0
100
AcDbLine
 62
7
  6
CONTINUOUS
 10
447.8729809002
 20
163.5918593135
 11
447.3464120833
 21
164.100485733
  0
LINE
  5
47A
100
AcDbEntity
  8
0
100
AcDbLine
 62
7
  6
CONTINUOUS
 10
462.4937150549
 20
149.5717638252
 11
462.7344322283
 21
149.3392488906
  0
LINE
  5
47B
100
AcDbEntity
  8
0
100
AcDbLine
 62
7
  6
CONTINUOUS
 10
480.9626698405
 20
131.7321234132
 11
481.2033870139
 21
131.4996084786
  0
LINE
  5
47C
100
AcDbEntity
  8
0
100
AcDbLine
 62
7
  6
CONTINUOUS
 10
462.0122805395
 20
150.2093398925
 11
462.4937150549
 21
149.7443098604
  0
LINE
  5
47D
100
AcDbEntity
  8
0
100
AcDbLine
 62
7
  6
CONTINUOUS
 10
462.7344322283
 20
149.5117949258
 11
463.9380182218
 21
148.3492201305
  0
LINE
  5
47E
100
AcDbEntity
  8
0
100
AcDbLine
 62
7
  6
CONTINUOUS
 10
480.4812353251
 20
132.3696994805
 11
480.9626698405
 21
131.9046694484
  0
LINE
  5
47F
100
AcDbEntity
  8
0
100
AcDbLine
 62
7
  6
CONTINUOUS
 10
481.2033870139
 20
131.6721545138
 11
482.4069730074
 21
130.5095797185
  0
LINE
  5
480
100
AcDbEntity
  8
0
100
AcDbLine
 62
7
  6
CONTINUOUS
 10
482.2866143785
 20
130.7336785005
 11
481.2033870139
 21
131.7799957877
  0
LINE
  5
481
100
AcDbEntity
  8
0
100
AcDbLine
 62
7
  6
CONTINUOUS
 10
480.9626698405
 20
132.0125107224
 11
480.4812353251
 21
132.4775407545
  0
LINE
  5
482
100
AcDbEntity
  8
0
100
AcDbLine
 62
7
  6
CONTINUOUS
 10
463.8176595929
 20
148.5733189125
 11
462.7344322283
 21
149.6196361997
  0
LINE
  5
483
100
AcDbEntity
  8
0
100
AcDbLine
 62
7
  6
CONTINUOUS
 10
462.4937150549
 20
149.8521511343
 11
462.0122805395
 21
150.3171811664
  0
LINE
  5
484
100
AcDbEntity
  8
0
100
AcDbLine
 62
7
  6
CONTINUOUS
 10
478.7870607608
 20
134.1858638897
 11
478.722394864
 21
134.2483263495
  0
LINE
  5
485
100
AcDbEntity
  8
0
100
AcDbLine
 62
7
  6
CONTINUOUS
 10
478.4615411757
 20
134.5002916639
 11
478.3688414734
 21
134.5898327005
  0
LINE
  5
486
100
AcDbEntity
  8
0
100
AcDbLine
 62
7
  6
CONTINUOUS
 10
460.40228445
 20
151.9441941389
 11
460.3376185531
 21
152.0066565987
  0
LINE
  5
487
100
AcDbEntity
  8
0
100
AcDbLine
 62
7
  6
CONTINUOUS
 10
482.8884073963
 20
130.3465053663
 11
482.6476902018
 21
130.5790203213
  0
LINE
  5
488
100
AcDbEntity
  8
0
100
AcDbLine
 62
7
  6
CONTINUOUS
 10
464.4194526107
 20
148.1861457783
 11
464.1787354163
 21
148.4186607333
  0
LINE
  5
489
100
AcDbEntity
  8
0
100
AcDbLine
 62
7
  6
CONTINUOUS
 10
481.2033870139
 20
132.0172465688
 11
480.9626698405
 21
132.2497615034
  0
LINE
  5
48A
100
AcDbEntity
  8
0
100
AcDbLine
 62
7
  6
CONTINUOUS
 10
462.7344322283
 20
149.8568869808
 11
462.4937150549
 21
150.0894019154
  0
LINE
  5
48B
100
AcDbEntity
  8
0
100
AcDbLine
 62
7
  6
CONTINUOUS
 10
447.3464120833
 20
164.8014540058
 11
447.8729809002
 21
164.2928275863
  0
LINE
  5
48C
100
AcDbEntity
  8
KONSTRUKTIONSELEMENTE
100
AcDbLine
 62
7
  6
CONTINUOUS
 10
367.8082413722
 20
241.6999507779
 11
371.838750025
 21
237.8067783771
  0
LINE
  5
48D
100
AcDbEntity
  8
KONSTRUKTIONSELEMENTE
100
AcDbLine
 62
7
  6
CONTINUOUS
 10
372.1923034156
 20
237.4652720262
 11
376.2228120684
 21
233.5720996254
  0
LINE
  5
48E
100
AcDbEntity
  8
KONSTRUKTIONSELEMENTE
100
AcDbLine
 62
7
  6
CONTINUOUS
 10
428.9729779449
 20
182.6193520642
 11
433.0034865976
 21
178.7261796634
  0
LINE
  5
48F
100
AcDbEntity
  8
KONSTRUKTIONSELEMENTE
100
AcDbLine
 62
7
  6
CONTINUOUS
 10
433.3570399882
 20
178.3846733125
 11
437.387548641
 21
174.4915009117
  0
LINE
  5
490
100
AcDbEntity
  8
0
100
AcDbLine
 62
7
  6
CONTINUOUS
 10
447.9482050169
 20
164.3549682038
 11
447.2711879666
 21
165.0089164575
  0
LINE
  5
491
100
AcDbEntity
  8
0
100
AcDbLine
 62
7
  6
CONTINUOUS
 10
460.6911719437
 20
152.2187534271
 11
464.9338126308
 21
148.1206772158
  0
LINE
  5
492
100
AcDbEntity
  8
0
100
AcDbLine
 62
7
  6
CONTINUOUS
 10
479.0759482545
 20
134.4604231779
 11
483.3185889417
 21
130.3623469666
  0
LINE
  5
493
100
AcDbEntity
  8
0
100
AcDbLine
 62
7
  6
CONTINUOUS
 10
446.9702914999
 20
165.5152427662
 11
449.3774634447
 21
163.1900932163
  0
LINE
  5
494
100
AcDbEntity
  8
0
100
AcDbLine
 62
7
  6
CONTINUOUS
 10
483.6721423323
 20
130.1502501382
 11
478.722394864
 21
134.9313390514
  0
LINE
  5
495
100
AcDbEntity
  8
0
100
AcDbLine
 62
7
  6
CONTINUOUS
 10
465.2873660214
 20
147.9085803874
 11
460.3376185531
 21
152.6896693006
  0
LINE
  5
496
100
AcDbEntity
  8
0
100
AcDbLine
 62
7
  6
CONTINUOUS
 10
449.3774634447
 20
163.3248947509
 11
447.4968603167
 21
165.1414178813
  0
LINE
  5
497
100
AcDbEntity
  8
0
100
AcDbLine
 62
7
  6
CONTINUOUS
 10
447.1959638499
 20
165.4320615495
 11
446.9702914999
 21
165.6500443008
  0
LINE
  5
498
100
AcDbEntity
  8
0
100
AcDbLine
 62
7
  6
CONTINUOUS
 10
447.5720844334
 20
165.3653204019
 11
449.3774634447
 21
163.6214581887
  0
LINE
  5
499
100
AcDbEntity
  8
0
100
AcDbLine
 62
7
  6
CONTINUOUS
 10
449.3774634447
 20
163.7562598775
 11
447.5720844334
 21
165.5001220908
  0
LINE
  5
49A
100
AcDbEntity
  8
0
100
AcDbLine
 62
7
  6
CONTINUOUS
 10
447.5720844334
 20
165.7966855285
 11
449.3774634447
 21
164.0528233153
  0
LINE
  5
49B
100
AcDbEntity
  8
0
100
AcDbLine
 62
7
  6
CONTINUOUS
 10
449.3774634447
 20
164.1876250041
 11
447.5720844334
 21
165.9314872174
  0
LINE
  5
49C
100
AcDbEntity
  8
0
100
AcDbLine
 62
7
  6
CONTINUOUS
 10
446.9702914999
 20
166.7284568858
 11
449.3774634447
 21
164.403307336
  0
LINE
  5
49D
100
AcDbEntity
  8
0
100
AcDbLine
 62
7
  6
CONTINUOUS
 10
449.3774634447
 20
164.5381090248
 11
447.4968603167
 21
166.3546321552
  0
LINE
  5
49E
100
AcDbEntity
  8
0
100
AcDbLine
 62
7
  6
CONTINUOUS
 10
447.1959638499
 20
166.6452758235
 11
446.9702914999
 21
166.8632585747
  0
LINE
  5
49F
100
AcDbEntity
  8
0
100
AcDbLine
 62
7
  6
CONTINUOUS
 10
447.5720844334
 20
166.5785348301
 11
449.3774634447
 21
164.8346726169
  0
LINE
  5
4A0
100
AcDbEntity
  8
0
100
AcDbLine
 62
7
  6
CONTINUOUS
 10
449.3774634447
 20
164.9694739972
 11
447.5720844334
 21
166.7133362104
  0
LINE
  5
4A1
100
AcDbEntity
  8
0
100
AcDbLine
 62
7
  6
CONTINUOUS
 10
447.5720844334
 20
167.0098998024
 11
449.3774634447
 21
165.2660375892
  0
LINE
  5
4A2
100
AcDbEntity
  8
0
100
AcDbLine
 62
7
  6
CONTINUOUS
 10
449.3774634447
 20
165.400839278
 11
447.5720844334
 21
167.1447014913
  0
LINE
  5
4A3
100
AcDbEntity
  8
RUNDUNGEN
100
AcDbLine
 62
7
  6
CONTINUOUS
 10
501.7033652525
 20
116.3957157281
 11
497.1071711748
 21
120.8352982904
  0
LINE
  5
4A4
100
AcDbEntity
  8
KONSTRUKTIONSELEMENTE
100
AcDbLine
 62
7
  6
CONTINUOUS
 10
399.8521783329
 20
215.5761107553
 11
410.4587800507
 21
205.3309202269
  0
LINE
  5
4A5
100
AcDbEntity
  8
RUNDUNGEN
100
AcDbLine
 62
7
  6
CONTINUOUS
 10
492.5650664839
 20
127.2543640211
 11
498.5213847372
 21
121.5010023907
  0
LINE
  5
4A6
100
AcDbEntity
  8
KONSTRUKTIONSELEMENTE
100
AcDbLine
 62
7
  6
CONTINUOUS
 10
371.2819743253
 20
245.2962237613
 11
375.312482978
 21
241.4030513605
  0
LINE
  5
4A7
100
AcDbEntity
  8
KONSTRUKTIONSELEMENTE
100
AcDbLine
 62
7
  6
CONTINUOUS
 10
375.6660363686
 20
241.0615450095
 11
379.6965450214
 21
237.1683726088
  0
LINE
  5
4A8
100
AcDbEntity
  8
KONSTRUKTIONSELEMENTE
100
AcDbLine
 62
7
  6
CONTINUOUS
 10
432.4467108979
 20
186.2156250476
 11
436.4772195507
 21
182.3224526468
  0
LINE
  5
4A9
100
AcDbEntity
  8
KONSTRUKTIONSELEMENTE
100
AcDbLine
 62
7
  6
CONTINUOUS
 10
436.8307729413
 20
181.9809462959
 11
440.861281594
 21
178.0877738951
  0
LINE
  5
4AA
100
AcDbEntity
  8
0
100
AcDbLine
 62
7
  6
CONTINUOUS
 10
472.0366050972
 20
136.7688274672
 11
471.8210333435
 21
136.9783033743
  0
LINE
  5
4AB
100
AcDbEntity
  8
0
100
AcDbLine
 62
7
  6
CONTINUOUS
 10
471.5275857678
 20
137.5946093262
 11
471.7431574795
 21
137.3851333955
  0
LINE
  5
4AC
100
AcDbEntity
  8
0
100
AcDbLine
 62
7
  6
CONTINUOUS
 10
471.1820997767
 20
137.091573727
 11
471.3435345852
 21
136.9331652253
  0
LINE
  5
4AD
100
AcDbEntity
  8
0
100
AcDbLine
 62
7
  6
CONTINUOUS
 10
471.4603451014
 20
137.1904020956
 11
471.2989103005
 21
137.3488105772
  0
LINE
  5
4AE
100
AcDbEntity
  8
0
100
AcDbLine
 62
7
  6
CONTINUOUS
 10
452.5434612892
 20
155.4650974218
 11
452.677205804
 21
155.3328299802
  0
LINE
  5
4AF
100
AcDbEntity
  8
0
100
AcDbLine
 62
7
  6
CONTINUOUS
 10
452.7647534523
 20
155.3044779504
 11
452.6310089376
 21
155.4367453919
  0
LINE
  5
4B0
100
AcDbEntity
  8
0
100
AcDbLine
 62
7
  6
CONTINUOUS
 10
471.3084665757
 20
137.0198369082
 11
471.2139823543
 21
137.114559941
  0
LINE
  5
4B1
100
AcDbEntity
  8
0
100
AcDbLine
 62
7
  6
CONTINUOUS
 10
471.3339782992
 20
137.2621389148
 11
471.4284625507
 21
137.1674158398
  0
LINE
  5
4B2
100
AcDbEntity
  8
0
100
AcDbLine
 62
7
  6
CONTINUOUS
 10
470.940972657
 20
137.752299285
 11
470.8464884441
 21
137.8470223166
  0
LINE
  5
4B3
100
AcDbEntity
  8
0
100
AcDbLine
 62
7
  6
CONTINUOUS
 10
452.6573739852
 20
156.2750734894
 11
452.8039141807
 21
156.1280077515
  0
LINE
  5
4B4
100
AcDbEntity
  8
0
100
AcDbLine
 62
7
  6
CONTINUOUS
 10
452.7508007729
 20
156.2853858132
 11
452.6042604536
 21
156.4324517125
  0
LINE
  5
4B5
100
AcDbEntity
  8
0
100
AcDbLine
 62
7
  6
CONTINUOUS
 10
471.8298571912
 20
136.9155398415
 11
471.9625759142
 21
136.7805530552
  0
LINE
  5
4B6
100
AcDbEntity
  8
0
100
AcDbLine
 62
7
  6
CONTINUOUS
 10
471.7343336092
 20
137.447896993
 11
471.6016149508
 21
137.5828837381
  0
LINE
  5
4B7
100
AcDbEntity
  8
0
100
AcDbLine
 62
7
  6
CONTINUOUS
 10
452.9380447107
 20
155.4485061832
 11
452.7781596839
 21
155.6114778344
  0
LINE
  5
4B8
100
AcDbEntity
  8
0
100
AcDbLine
 62
7
  6
CONTINUOUS
 10
447.3464120833
 20
164.100485733
 11
446.8950673832
 21
164.563411604
  0
LINE
  5
4B9
100
AcDbEntity
  8
0
100
AcDbLine
 62
7
  6
CONTINUOUS
 10
447.8729809002
 20
164.2928275863
 11
448.3243257057
 21
163.8299016135
  0
LINE
  5
4BA
100
AcDbEntity
  8
0
100
AcDbLine
 62
7
  6
CONTINUOUS
 10
446.8950673832
 20
164.4286099923
 11
447.2711879666
 21
164.0383450769
  0
LINE
  5
4BB
100
AcDbEntity
  8
0
100
AcDbLine
 62
7
  6
CONTINUOUS
 10
448.3243257057
 20
163.9647033023
 11
447.9482050169
 21
164.3549682038
  0
LINE
  5
4BC
100
AcDbEntity
  8
0
100
AcDbLine
 62
7
  6
CONTINUOUS
 10
472.1103324207
 20
137.5542224174
 11
472.2546865375
 21
137.4040328044
  0
LINE
  5
4BD
100
AcDbEntity
  8
0
100
AcDbLine
 62
7
  6
CONTINUOUS
 10
472.2302601772
 20
137.5350968531
 11
472.0859059485
 21
137.6852866205
  0
LINE
  5
4BE
100
AcDbEntity
  8
0
100
AcDbLine
 62
7
  6
CONTINUOUS
 10
452.7982160383
 20
155.5382666323
 11
452.8912288586
 21
155.4414286776
  0
LINE
  5
4BF
100
AcDbEntity
  8
0
100
AcDbLine
 62
7
  6
CONTINUOUS
 10
446.3684983556
 20
161.6319017301
 11
446.6693948224
 21
161.3142977414
  0
LINE
  5
4C0
100
AcDbEntity
  8
RUNDUNGEN
100
AcDbLine
 62
7
  6
CONTINUOUS
 10
334.4817170092
 20
213.5880679329
 11
331.0817170092
 21
219.2763787983
  0
LINE
  5
4C1
100
AcDbEntity
  8
0
100
AcDbLine
 62
7
  6
CONTINUOUS
 10
272.623369097
 20
282.0883049265
 11
272.623369097
 21
344.8734836353
  0
LINE
  5
4C2
100
AcDbEntity
  8
0
100
AcDbLine
 62
7
  6
CONTINUOUS
 10
470.9774808777
 20
137.3104471485
 11
471.1820997767
 21
137.091573727
  0
LINE
  5
4C3
100
AcDbEntity
  8
0
100
AcDbLine
 62
7
  6
CONTINUOUS
 10
471.7385650246
 20
137.0132820361
 11
471.8298571912
 21
136.9155398415
  0
LINE
  5
4C4
100
AcDbEntity
  8
0
100
AcDbLine
 62
7
  6
CONTINUOUS
 10
471.8256258928
 20
137.3501546937
 11
471.7343336092
 21
137.447896993
  0
LINE
  5
4C5
100
AcDbEntity
  8
0
100
AcDbLine
 62
7
  6
CONTINUOUS
 10
446.7446191498
 20
161.4033985239
 11
446.518946589
 21
161.6483417895
  0
LINE
  5
4C6
100
AcDbEntity
  8
0
100
AcDbLine
 62
7
  6
CONTINUOUS
 10
446.6693948224
 20
164.6735532771
 11
446.8950673832
 21
164.4286099923
  0
LINE
  5
4C7
100
AcDbEntity
  8
0
100
AcDbLine
 62
7
  6
CONTINUOUS
 10
448.5499980557
 20
163.7197601825
 11
448.3243257057
 21
163.9647033023
  0
LINE
  5
4C8
100
AcDbEntity
  8
0
100
AcDbLine
 62
7
  6
CONTINUOUS
 10
451.7864363032
 20
155.7216080534
 11
451.9562389028
 21
155.5351440446
  0
LINE
  5
4C9
100
AcDbEntity
  8
0
100
AcDbLine
 62
7
  6
CONTINUOUS
 10
452.1964368535
 20
155.5465595344
 11
452.5926428665
 21
155.1114769053
  0
LINE
  5
4CA
100
AcDbEntity
  8
0
100
AcDbLine
 62
7
  6
CONTINUOUS
 10
451.488926068
 20
156.3234928535
 11
452.0266342539
 21
155.7330235431
  0
LINE
  5
4CB
100
AcDbEntity
  8
0
100
AcDbLine
 62
7
  6
CONTINUOUS
 10
452.6526923542
 20
155.1143307777
 11
452.2564863412
 21
155.5494134068
  0
LINE
  5
4CC
100
AcDbEntity
  8
0
100
AcDbLine
 62
7
  6
CONTINUOUS
 10
452.0866837416
 20
155.7358774156
 11
451.3225721424
 21
156.5749653462
  0
LINE
  5
4CD
100
AcDbEntity
  8
0
100
AcDbLine
 62
7
  6
CONTINUOUS
 10
452.3565688112
 20
155.5541698604
 11
452.1867662115
 21
155.7406338692
  0
LINE
  5
4CE
100
AcDbEntity
  8
0
100
AcDbLine
 62
7
  6
CONTINUOUS
 10
471.5974071482
 20
137.1715219172
 11
471.7385650246
 21
137.0132820361
  0
LINE
  5
4CF
100
AcDbEntity
  8
0
100
AcDbLine
 62
7
  6
CONTINUOUS
 10
471.9667836871
 20
137.1919148749
 11
471.8256258928
 21
137.3501546937
  0
LINE
  5
4D0
100
AcDbEntity
  8
0
100
AcDbLine
 62
7
  6
CONTINUOUS
 10
470.784745265
 20
137.527710252
 11
470.9774808777
 21
137.3104471485
  0
LINE
  5
4D1
100
AcDbEntity
  8
0
100
AcDbLine
 62
7
  6
CONTINUOUS
 10
470.8992288184
 20
137.4575837075
 11
470.8441615005
 21
137.5196588799
  0
LINE
  5
4D2
100
AcDbEntity
  8
0
100
AcDbLine
 62
7
  6
CONTINUOUS
 10
471.2139823543
 20
137.114559941
 11
471.1313813774
 21
137.2076726996
  0
LINE
  5
4D3
100
AcDbEntity
  8
0
100
AcDbLine
 62
7
  6
CONTINUOUS
 10
471.4284625507
 20
137.1674158398
 11
471.5110635275
 21
137.0743030811
  0
LINE
  5
4D4
100
AcDbEntity
  8
0
100
AcDbLine
 62
7
  6
CONTINUOUS
 10
471.5980134347
 20
137.0352141211
 11
471.4603451014
 21
137.1904020956
  0
LINE
  5
4D5
100
AcDbEntity
  8
0
100
AcDbLine
 62
7
  6
CONTINUOUS
 10
471.8210333435
 20
136.9783033743
 11
471.6549426769
 21
137.1667920575
  0
LINE
  5
4D6
100
AcDbEntity
  8
0
100
AcDbLine
 62
7
  6
CONTINUOUS
 10
471.7431574795
 20
137.3851333955
 11
471.9092482055
 21
137.1966447146
  0
LINE
  5
4D7
100
AcDbEntity
  8
0
100
AcDbLine
 62
7
  6
CONTINUOUS
 10
448.8508945752
 20
160.0698609661
 11
448.5499980557
 21
160.4144252683
  0
LINE
  5
4D8
100
AcDbEntity
  8
0
100
AcDbLine
 62
7
  6
CONTINUOUS
 10
446.3684983556
 20
165.018117567
 11
446.6693948224
 21
164.6735532771
  0
LINE
  5
4D9
100
AcDbEntity
  8
0
100
AcDbLine
 62
7
  6
CONTINUOUS
 10
448.8508945752
 20
163.3751958804
 11
448.5499980557
 21
163.7197601825
  0
LINE
  5
4DA
100
AcDbEntity
  8
0
100
AcDbLine
 62
7
  6
CONTINUOUS
 10
447.5720844334
 20
165.5001220908
 11
447.4216362
 21
165.6724041393
  0
LINE
  5
4DB
100
AcDbEntity
  8
0
100
AcDbLine
 62
7
  6
CONTINUOUS
 10
447.5720844334
 20
166.7133362104
 11
447.4216362
 21
166.8856185675
  0
LINE
  5
4DC
100
AcDbEntity
  8
0
100
AcDbLine
 62
7
  6
CONTINUOUS
 10
451.6285438996
 20
156.5397441348
 11
452.3081968093
 21
155.7414351578
  0
LINE
  5
4DD
100
AcDbEntity
  8
0
100
AcDbLine
 62
7
  6
CONTINUOUS
 10
452.2504506865
 20
155.8713294158
 11
451.8322027139
 21
156.3625965117
  0
LINE
  5
4DE
100
AcDbEntity
  8
0
100
AcDbLine
 62
7
  6
CONTINUOUS
 10
452.8912288586
 20
155.4414286776
 11
452.943509846
 21
155.3800203014
  0
LINE
  5
4DF
100
AcDbEntity
  8
0
100
AcDbLine
 62
7
  6
CONTINUOUS
 10
452.2553497365
 20
156.2255616827
 11
452.124647268
 21
156.3790826232
  0
LINE
  5
4E0
100
AcDbEntity
  8
0
100
AcDbLine
 62
7
  6
CONTINUOUS
 10
453.0426066855
 20
155.3256894307
 11
452.9380447107
 21
155.4485061832
  0
LINE
  5
4E1
100
AcDbEntity
  8
0
100
AcDbLine
 62
7
  6
CONTINUOUS
 10
470.6038929001
 20
137.743363081
 11
470.784745265
 21
137.527710252
  0
LINE
  5
4E2
100
AcDbEntity
  8
0
100
AcDbLine
 62
7
  6
CONTINUOUS
 10
470.8441615005
 20
137.5196588799
 11
470.6908427956
 21
137.7042741226
  0
LINE
  5
4E3
100
AcDbEntity
  8
0
100
AcDbLine
 62
7
  6
CONTINUOUS
 10
448.4747739391
 20
160.3253242822
 11
448.7004462891
 21
160.053420948
  0
LINE
  5
4E4
100
AcDbEntity
  8
0
100
AcDbLine
 62
7
  6
CONTINUOUS
 10
446.8950673832
 20
164.563411604
 11
446.4437224723
 21
165.1072185531
  0
LINE
  5
4E5
100
AcDbEntity
  8
0
100
AcDbLine
 62
7
  6
CONTINUOUS
 10
448.3243257057
 20
163.8299016135
 11
448.7756704585
 21
163.2860948171
  0
LINE
  5
4E6
100
AcDbEntity
  8
0
100
AcDbLine
 62
7
  6
CONTINUOUS
 10
471.3730116115
 20
137.443761316
 11
471.5974071482
 21
137.1715219172
  0
LINE
  5
4E7
100
AcDbEntity
  8
0
100
AcDbLine
 62
7
  6
CONTINUOUS
 10
471.6549426769
 20
137.1667920575
 11
471.480412815
 21
137.3785338121
  0
LINE
  5
4E8
100
AcDbEntity
  8
0
100
AcDbLine
 62
7
  6
CONTINUOUS
 10
471.9092482055
 20
137.1966447146
 11
472.0837780675
 21
136.9849029601
  0
LINE
  5
4E9
100
AcDbEntity
  8
0
100
AcDbLine
 62
7
  6
CONTINUOUS
 10
472.1911792238
 20
136.9196754762
 11
471.9667836871
 21
137.1919148749
  0
LINE
  5
4EA
100
AcDbEntity
  8
RUNDUNGEN
100
AcDbLine
 62
7
  6
CONTINUOUS
 10
487.0016336396
 20
108.4324398784
 11
471.9915035891
 21
126.7781146223
  0
LINE
  5
4EB
100
AcDbEntity
  8
RUNDUNGEN
100
AcDbLine
 62
7
  6
CONTINUOUS
 10
433.1648393831
 20
174.2328235768
 11
432.9081532775
 21
174.5465503592
  0
LINE
  5
4EC
100
AcDbEntity
  8
RUNDUNGEN
100
AcDbLine
 62
7
  6
CONTINUOUS
 10
490.5371675455
 20
111.8475033879
 11
475.527037495
 21
130.1931781318
  0
LINE
  5
4ED
100
AcDbEntity
  8
RUNDUNGEN
100
AcDbLine
 62
7
  6
CONTINUOUS
 10
443.6854792934
 20
172.902070367
 11
443.5388875544
 21
173.0812376597
  0
LINE
  5
4EE
100
AcDbEntity
  8
RUNDUNGEN
100
AcDbLine
 62
7
  6
CONTINUOUS
 10
439.3422312489
 20
180.7381508451
 11
441.9487570929
 21
177.5524039405
  0
LINE
  5
4EF
100
AcDbEntity
  8
RUNDUNGEN
100
AcDbLine
 62
7
  6
CONTINUOUS
 10
449.2470294562
 20
168.6323126076
 11
463.3596438649
 21
151.3835990483
  0
LINE
  5
4F0
100
AcDbEntity
  8
RUNDUNGEN
100
AcDbLine
 62
7
  6
CONTINUOUS
 10
486.7347107831
 20
122.8141347362
 11
492.0640023013
 21
116.3005703313
  0
LINE
  5
4F1
100
AcDbEntity
  8
0
100
AcDbLine
 62
7
  6
CONTINUOUS
 10
445.8419295388
 20
165.0414582769
 11
446.3684983556
 21
164.3710699542
  0
LINE
  5
4F2
100
AcDbEntity
  8
0
100
AcDbLine
 62
7
  6
CONTINUOUS
 10
446.9702914999
 20
163.7897824141
 11
446.4437224723
 21
164.4601709403
  0
LINE
  5
4F3
100
AcDbEntity
  8
KONSTRUKTIONSELEMENTE
100
AcDbLine
 62
7
  6
CONTINUOUS
 10
323.1666405156
 20
276.9597949398
 11
326.7152544082
 21
270.1618388692
  0
LINE
  5
4F4
100
AcDbEntity
  8
0
100
AcDbLine
 62
7
  6
CONTINUOUS
 10
294.623369097
 20
282.0883049265
 11
294.623369097
 21
344.8734836353
  0
LINE
  5
4F5
100
AcDbEntity
  8
0
100
AcDbLine
 62
7
  6
CONTINUOUS
 10
470.6908427956
 20
137.7042741226
 11
470.6201249862
 21
137.7957766941
  0
LINE
  5
4F6
100
AcDbEntity
  8
0
100
AcDbLine
 62
7
  6
CONTINUOUS
 10
471.1313813774
 20
137.2076726996
 11
471.0606636066
 21
137.2991752277
  0
LINE
  5
4F7
100
AcDbEntity
  8
0
100
AcDbLine
 62
7
  6
CONTINUOUS
 10
471.5110635275
 20
137.0743030811
 11
471.5817812683
 21
136.9828005954
  0
LINE
  5
4F8
100
AcDbEntity
  8
0
100
AcDbLine
 62
7
  6
CONTINUOUS
 10
452.5708254427
 20
156.3879509949
 11
452.6573739852
 21
156.2750734894
  0
LINE
  5
4F9
100
AcDbEntity
  8
0
100
AcDbLine
 62
7
  6
CONTINUOUS
 10
452.8373493154
 20
156.1725083077
 11
452.7508007729
 21
156.2853858132
  0
LINE
  5
4FA
100
AcDbEntity
  8
0
100
AcDbLine
 62
7
  6
CONTINUOUS
 10
471.480412815
 20
137.3785338121
 11
471.3473093977
 21
137.5530310362
  0
LINE
  5
4FB
100
AcDbEntity
  8
0
100
AcDbLine
 62
7
  6
CONTINUOUS
 10
472.0837780675
 20
136.9849029601
 11
472.2168814253
 21
136.8104057336
  0
LINE
  5
4FC
100
AcDbEntity
  8
0
100
AcDbLine
 62
7
  6
CONTINUOUS
 10
446.0676018889
 20
162.0303866704
 11
446.3684983556
 21
161.6319017301
  0
LINE
  5
4FD
100
AcDbEntity
  8
0
100
AcDbLine
 62
7
  6
CONTINUOUS
 10
449.1517910683
 20
159.6713759522
 11
448.8508945752
 21
160.0698609661
  0
LINE
  5
4FE
100
AcDbEntity
  8
0
100
AcDbLine
 62
7
  6
CONTINUOUS
 10
446.1428260055
 20
165.3169812698
 11
446.3684983556
 21
165.018117567
  0
LINE
  5
4FF
100
AcDbEntity
  8
0
100
AcDbLine
 62
7
  6
CONTINUOUS
 10
447.0455156166
 20
165.6313039667
 11
447.1959638499
 21
165.4320615495
  0
LINE
  5
500
100
AcDbEntity
  8
0
100
AcDbLine
 62
7
  6
CONTINUOUS
 10
447.4968603167
 20
165.1414178813
 11
447.3464120833
 21
165.3406602984
  0
LINE
  5
501
100
AcDbEntity
  8
0
100
AcDbLine
 62
7
  6
CONTINUOUS
 10
449.0765669516
 20
163.0763321521
 11
448.8508945752
 21
163.3751958804
  0
LINE
  5
502
100
AcDbEntity
  8
0
100
AcDbLine
 62
7
  6
CONTINUOUS
 10
447.0455156166
 20
166.0626690932
 11
447.2711879666
 21
165.7638053904
  0
LINE
  5
503
100
AcDbEntity
  8
0
100
AcDbLine
 62
7
  6
CONTINUOUS
 10
447.4216362
 20
165.6724041393
 11
447.3464120833
 21
165.772025425
  0
LINE
  5
504
100
AcDbEntity
  8
0
100
AcDbLine
 62
7
  6
CONTINUOUS
 10
447.0455156166
 20
166.8445183948
 11
447.1959638499
 21
166.6452758235
  0
LINE
  5
505
100
AcDbEntity
  8
0
100
AcDbLine
 62
7
  6
CONTINUOUS
 10
447.4968603167
 20
166.3546321552
 11
447.3464120833
 21
166.5538747266
  0
LINE
  5
506
100
AcDbEntity
  8
0
100
AcDbLine
 62
7
  6
CONTINUOUS
 10
447.0455156166
 20
167.2758833672
 11
447.2711879666
 21
166.9770196644
  0
LINE
  5
507
100
AcDbEntity
  8
0
100
AcDbLine
 62
7
  6
CONTINUOUS
 10
447.4216362
 20
166.8856185675
 11
447.3464120833
 21
166.9852396989
  0
LINE
  5
508
100
AcDbEntity
  8
0
100
AcDbLine
 62
7
  6
CONTINUOUS
 10
451.7988543865
 20
157.8316535925
 11
454.7168852865
 21
153.9519576193
  0
LINE
  5
509
100
AcDbEntity
  8
0
100
AcDbLine
 62
7
  6
CONTINUOUS
 10
454.9677033758
 20
153.6184800227
 11
459.9840651625
 21
146.9489280917
  0
LINE
  5
50A
100
AcDbEntity
  8
0
100
AcDbLine
 62
7
  6
CONTINUOUS
 10
460.3376185531
 20
146.843639349
 11
452.8020108406
 21
156.8626788656
  0
LINE
  5
50B
100
AcDbEntity
  8
0
100
AcDbLine
 62
7
  6
CONTINUOUS
 10
471.2648410788
 20
137.588009698
 11
471.3730116115
 21
137.443761316
  0
LINE
  5
50C
100
AcDbEntity
  8
0
100
AcDbLine
 62
7
  6
CONTINUOUS
 10
472.2993498386
 20
136.7754270317
 11
472.1911792238
 21
136.9196754762
  0
LINE
  5
50D
100
AcDbEntity
  8
0
100
AcDbLine
 62
7
  6
CONTINUOUS
 10
470.4899910226
 20
137.8953305502
 11
470.6038929001
 21
137.743363081
  0
LINE
  5
50E
100
AcDbEntity
  8
0
100
AcDbLine
 62
7
  6
CONTINUOUS
 10
471.7119152427
 20
136.8832467187
 11
471.5980134347
 21
137.0352141211
  0
LINE
  5
50F
100
AcDbEntity
  8
0
100
AcDbLine
 62
7
  6
CONTINUOUS
 10
452.943509846
 20
155.3800203014
 11
453.0073400246
 21
155.2926330844
  0
LINE
  5
510
100
AcDbEntity
  8
0
100
AcDbLine
 62
7
  6
CONTINUOUS
 10
472.0320486883
 20
137.6620833519
 11
472.1103324207
 21
137.5542224174
  0
LINE
  5
511
100
AcDbEntity
  8
0
100
AcDbLine
 62
7
  6
CONTINUOUS
 10
472.3085439097
 20
137.4272359187
 11
472.2302601772
 21
137.5350968531
  0
LINE
  5
512
100
AcDbEntity
  8
0
100
AcDbLine
 62
7
  6
CONTINUOUS
 10
453.1441266507
 20
155.1816191363
 11
453.0426066855
 21
155.3256894307
  0
LINE
  5
513
100
AcDbEntity
  8
0
100
AcDbLine
 62
7
  6
CONTINUOUS
 10
471.206536151
 20
137.6717605206
 11
471.2648410788
 21
137.588009698
  0
LINE
  5
514
100
AcDbEntity
  8
0
100
AcDbLine
 62
7
  6
CONTINUOUS
 10
472.3576546494
 20
136.6916763139
 11
472.2993498386
 21
136.7754270317
  0
LINE
  5
515
100
AcDbEntity
  8
RUNDUNGEN
100
AcDbLine
 62
7
  6
CONTINUOUS
 10
432.3021878347
 20
158.535292764
 11
428.7330857032
 21
163.8484876086
  0
LINE
  5
516
100
AcDbEntity
  8
RUNDUNGEN
100
AcDbLine
 62
7
  6
CONTINUOUS
 10
435.8377217407
 20
161.9503562734
 11
432.2686196092
 21
167.263551118
  0
LINE
  5
517
100
AcDbEntity
  8
RUNDUNGEN
100
AcDbLine
 62
7
  6
CONTINUOUS
 10
436.0988601634
 20
170.7698959019
 11
441.4525133607
 21
162.800103635
  0
LINE
  5
518
100
AcDbEntity
  8
0
100
AcDbLine
 62
7
  6
CONTINUOUS
 10
446.518946589
 20
161.6483417895
 11
446.3684983556
 21
161.8745445945
  0
LINE
  5
519
100
AcDbEntity
  8
0
100
AcDbLine
 62
7
  6
CONTINUOUS
 10
448.7004462891
 20
160.053420948
 11
448.8508945752
 21
159.8272181114
  0
LINE
  5
51A
100
AcDbEntity
  8
0
100
AcDbLine
 62
7
  6
CONTINUOUS
 10
446.4437224723
 20
165.1072185531
 11
446.2932742389
 21
165.3334213388
  0
LINE
  5
51B
100
AcDbEntity
  8
0
100
AcDbLine
 62
7
  6
CONTINUOUS
 10
448.7756704585
 20
163.2860948171
 11
448.9261186919
 21
163.0598920314
  0
LINE
  5
51C
100
AcDbEntity
  8
0
100
AcDbLine
 62
7
  6
CONTINUOUS
 10
445.9171536555
 20
165.6697656327
 11
446.1428260055
 21
165.3169812698
  0
LINE
  5
51D
100
AcDbEntity
  8
0
100
AcDbLine
 62
7
  6
CONTINUOUS
 10
317.124119097
 20
216.3185640694
 11
315.5122676345
 21
229.577246482
  0
LINE
  5
51E
100
AcDbEntity
  8
0
100
AcDbLine
 62
7
  6
CONTINUOUS
 10
317.124119097
 20
224.1351550978
 11
315.9046128303
 21
234.1665051738
  0
LINE
  5
51F
100
AcDbEntity
  8
0
100
AcDbLine
 62
7
  6
CONTINUOUS
 10
323.1559039846
 20
244.3883663887
 11
323.3421253637
 21
234.1665051738
  0
LINE
  5
520
100
AcDbEntity
  8
0
100
AcDbLine
 62
7
  6
CONTINUOUS
 10
303.623369097
 20
349.78458279
 11
303.623369097
 21
731.78458279
  0
LINE
  5
521
100
AcDbEntity
  8
0
100
AcDbLine
 62
7
  6
CONTINUOUS
 10
304.723369097
 20
190.3922122174
 11
304.723369097
 21
200.5244821199
  0
LINE
  5
522
100
AcDbEntity
  8
0
100
AcDbLine
 62
7
  6
CONTINUOUS
 10
304.723369097
 20
200.6322757339
 11
304.723369097
 21
213.4407104715
  0
LINE
  5
523
100
AcDbEntity
  8
0
100
AcDbLine
 62
7
  6
CONTINUOUS
 10
308.123369097
 20
229.8948839048
 11
308.123369097
 21
219.2066934973
  0
LINE
  5
524
100
AcDbEntity
  8
0
100
AcDbLine
 62
7
  6
CONTINUOUS
 10
311.623369097
 20
244.0208802007
 11
311.623369097
 21
234.2778736166
  0
LINE
  5
525
100
AcDbEntity
  8
BEZUGSACHSEN
100
AcDbLine
 62
7
  6
CONTINUOUS
 10
311.623369097
 20
244.0212037167
 11
311.623369097
 21
266.4334560544
  0
LINE
  5
526
100
AcDbEntity
  8
0
100
AcDbLine
 62
7
  6
CONTINUOUS
 10
317.124119097
 20
224.1351550978
 11
317.124119097
 21
216.3185640694
  0
LINE
  5
527
100
AcDbEntity
  8
0
100
AcDbLine
 62
7
  6
CONTINUOUS
 10
316.0908342094
 20
244.3883663887
 11
315.9046128303
 21
234.1665051738
  0
LINE
  5
528
100
AcDbEntity
  8
0
100
AcDbLine
 62
7
  6
CONTINUOUS
 10
470.6201249862
 20
137.7957766941
 11
470.5612905069
 21
137.8856689035
  0
LINE
  5
529
100
AcDbEntity
  8
0
100
AcDbLine
 62
7
  6
CONTINUOUS
 10
471.5817812683
 20
136.9828005954
 11
471.6406157584
 21
136.8929083654
  0
LINE
  5
52A
100
AcDbEntity
  8
0
100
AcDbLine
 62
7
  6
CONTINUOUS
 10
449.3022393214
 20
162.7235477701
 11
449.0765669516
 21
163.0763321521
  0
LINE
  5
52B
100
AcDbEntity
  8
0
100
AcDbLine
 62
7
  6
CONTINUOUS
 10
470.4155061289
 20
138.0146500717
 11
470.4899910226
 21
137.8953305502
  0
LINE
  5
52C
100
AcDbEntity
  8
0
100
AcDbLine
 62
7
  6
CONTINUOUS
 10
471.786400146
 20
136.7639271863
 11
471.7119152427
 21
136.8832467187
  0
LINE
  5
52D
100
AcDbEntity
  8
0
100
AcDbLine
 62
7
  6
CONTINUOUS
 10
471.1397921572
 20
137.7787643322
 11
471.206536151
 21
137.6717605206
  0
LINE
  5
52E
100
AcDbEntity
  8
0
100
AcDbLine
 62
7
  6
CONTINUOUS
 10
472.4243987078
 20
136.5846724611
 11
472.3576546494
 21
136.6916763139
  0
LINE
  5
52F
100
AcDbEntity
  8
0
100
AcDbLine
 62
7
  6
CONTINUOUS
 10
473.8234153784
 20
136.5575613178
 11
475.0912212805
 21
134.5027749062
  0
LINE
  5
530
100
AcDbEntity
  8
0
100
AcDbLine
 62
7
  6
CONTINUOUS
 10
475.2637276064
 20
134.2231866397
 11
478.3688414734
 21
129.1905978425
  0
LINE
  5
531
100
AcDbEntity
  8
0
100
AcDbLine
 62
7
  6
CONTINUOUS
 10
478.722394864
 20
129.1522342305
 11
474.6399119593
 21
135.7688861832
  0
LINE
  5
532
100
AcDbEntity
  8
0
100
AcDbLine
 62
7
  6
CONTINUOUS
 10
451.2625226547
 20
156.5721114738
 11
451.7864363032
 21
155.7216080534
  0
LINE
  5
533
100
AcDbEntity
  8
0
100
AcDbLine
 62
7
  6
CONTINUOUS
 10
451.8564940364
 20
155.7249375711
 11
451.488926068
 21
156.3234928535
  0
LINE
  5
534
100
AcDbEntity
  8
0
100
AcDbLine
 62
7
  6
CONTINUOUS
 10
453.0073400246
 20
155.2926330844
 11
453.0565790024
 21
155.2099711661
  0
LINE
  5
535
100
AcDbEntity
  8
0
100
AcDbLine
 62
7
  6
CONTINUOUS
 10
445.9171536555
 20
162.2835497669
 11
446.0676018889
 21
162.0303866704
  0
LINE
  5
536
100
AcDbEntity
  8
0
100
AcDbLine
 62
7
  6
CONTINUOUS
 10
448.9106687757
 20
159.1406789374
 11
448.8066796447
 21
159.315664089
  0
LINE
  5
537
100
AcDbEntity
  8
0
100
AcDbLine
 62
7
  6
CONTINUOUS
 10
449.3022393214
 20
159.4182128559
 11
449.1517910683
 21
159.6713759522
  0
LINE
  5
538
100
AcDbEntity
  8
0
100
AcDbLine
 62
7
  6
CONTINUOUS
 10
447.3464120833
 20
165.772025425
 11
447.2711879666
 21
165.898606925
  0
LINE
  5
539
100
AcDbEntity
  8
0
100
AcDbLine
 62
7
  6
CONTINUOUS
 10
447.3464120833
 20
166.9852396989
 11
447.2711879666
 21
167.1118213532
  0
LINE
  5
53A
100
AcDbEntity
  8
0
100
AcDbLine
 62
7
  6
CONTINUOUS
 10
453.2049148106
 20
155.072978388
 11
453.1441266507
 21
155.1816191363
  0
LINE
  5
53B
100
AcDbEntity
  8
KONSTRUKTIONSELEMENTE
100
AcDbLine
 62
7
  6
CONTINUOUS
 10
372.19455289
 20
237.4651261843
 11
372.1614029391
 21
237.5558767631
  0
LINE
  5
53C
100
AcDbEntity
  8
KONSTRUKTIONSELEMENTE
100
AcDbLine
 62
7
  6
CONTINUOUS
 10
375.3102335037
 20
241.4031972024
 11
375.3433834545
 21
241.3124466235
  0
LINE
  5
53D
100
AcDbEntity
  8
KONSTRUKTIONSELEMENTE
100
AcDbLine
 62
7
  6
CONTINUOUS
 10
375.6637868943
 20
241.0616908514
 11
375.6969368451
 21
240.9709402726
  0
LINE
  5
53E
100
AcDbEntity
  8
0
100
AcDbLine
 62
7
  6
CONTINUOUS
 10
322.122619097
 20
224.1351550978
 11
322.122619097
 21
216.3185640694
  0
LINE
  5
53F
100
AcDbEntity
  8
RUNDUNGEN
100
AcDbLine
 62
7
  6
CONTINUOUS
 10
327.623369097
 20
244.0208802007
 11
327.623369097
 21
234.2778736166
  0
LINE
  5
540
100
AcDbEntity
  8
BEZUGSACHSEN
100
AcDbLine
 62
7
  6
CONTINUOUS
 10
327.623369097
 20
244.0212037167
 11
327.623369097
 21
266.4334560544
  0
LINE
  5
541
100
AcDbEntity
  8
RUNDUNGEN
100
AcDbLine
 62
7
  6
CONTINUOUS
 10
331.123369097
 20
229.8948839048
 11
331.123369097
 21
219.2066934973
  0
LINE
  5
542
100
AcDbEntity
  8
RUNDUNGEN
100
AcDbLine
 62
7
  6
CONTINUOUS
 10
334.523369097
 20
190.3922122174
 11
334.523369097
 21
192.5754628659
  0
LINE
  5
543
100
AcDbEntity
  8
KONSTRUKTIONSELEMENTE
100
AcDbLine
 62
7
  6
CONTINUOUS
 10
334.523369097
 20
190.3922122174
 11
334.523369097
 21
200.5244821199
  0
LINE
  5
544
100
AcDbEntity
  8
KONSTRUKTIONSELEMENTE
100
AcDbLine
 62
7
  6
CONTINUOUS
 10
334.523369097
 20
200.6322757339
 11
334.523369097
 21
202.8155263824
  0
LINE
  5
545
100
AcDbEntity
  8
RUNDUNGEN
100
AcDbLine
 62
7
  6
CONTINUOUS
 10
334.523369097
 20
200.6322757339
 11
334.523369097
 21
213.4407104715
  0
LINE
  5
546
100
AcDbEntity
  8
0
100
AcDbLine
 62
7
  6
CONTINUOUS
 10
335.623369097
 20
349.78458279
 11
335.623369097
 21
731.78458279
  0
LINE
  5
547
100
AcDbEntity
  8
0
100
AcDbLine
 62
7
  6
CONTINUOUS
 10
471.3473093977
 20
137.5530310362
 11
471.2636870151
 21
137.7065411
  0
LINE
  5
548
100
AcDbEntity
  8
0
100
AcDbLine
 62
7
  6
CONTINUOUS
 10
472.2168814253
 20
136.8104057336
 11
472.3005038499
 21
136.6568956933
  0
LINE
  5
549
100
AcDbEntity
  8
0
100
AcDbLine
 62
7
  6
CONTINUOUS
 10
471.0606636066
 20
137.2991752277
 11
471.0293627863
 21
137.3580298508
  0
LINE
  5
54A
100
AcDbEntity
  8
0
100
AcDbLine
 62
7
  6
CONTINUOUS
 10
446.3684983556
 20
161.8745445945
 11
446.2932742389
 21
162.0280864632
  0
LINE
  5
54B
100
AcDbEntity
  8
0
100
AcDbLine
 62
7
  6
CONTINUOUS
 10
446.9702914999
 20
165.7848458353
 11
447.0455156166
 21
165.6313039667
  0
LINE
  5
54C
100
AcDbEntity
  8
0
100
AcDbLine
 62
7
  6
CONTINUOUS
 10
447.3464120833
 20
165.3406602984
 11
447.2711879666
 21
165.494202167
  0
LINE
  5
54D
100
AcDbEntity
  8
0
100
AcDbLine
 62
7
  6
CONTINUOUS
 10
446.9702914999
 20
166.2162109619
 11
447.0455156166
 21
166.0626690932
  0
LINE
  5
54E
100
AcDbEntity
  8
0
100
AcDbLine
 62
7
  6
CONTINUOUS
 10
446.9702914999
 20
166.9980602635
 11
447.0455156166
 21
166.8445183948
  0
LINE
  5
54F
100
AcDbEntity
  8
0
100
AcDbLine
 62
7
  6
CONTINUOUS
 10
447.3464120833
 20
166.5538747266
 11
447.2711879666
 21
166.7074165952
  0
LINE
  5
550
100
AcDbEntity
  8
0
100
AcDbLine
 62
7
  6
CONTINUOUS
 10
446.9702914999
 20
167.4294252358
 11
447.0455156166
 21
167.2758833672
  0
LINE
  5
551
100
AcDbEntity
  8
0
100
AcDbLine
 62
7
  6
CONTINUOUS
 10
445.8419295388
 20
162.4640519656
 11
445.9171536555
 21
162.2835497669
  0
LINE
  5
552
100
AcDbEntity
  8
0
100
AcDbLine
 62
7
  6
CONTINUOUS
 10
448.8508945752
 20
159.8272181114
 11
448.9261186919
 21
159.6467159126
  0
LINE
  5
553
100
AcDbEntity
  8
0
100
AcDbLine
 62
7
  6
CONTINUOUS
 10
344.623369097
 20
344.8734836353
 11
344.623369097
 21
282.0883049265
  0
LINE
  5
554
100
AcDbEntity
  8
0
100
AcDbLine
 62
7
  6
CONTINUOUS
 10
366.623369097
 20
344.8734836353
 11
366.623369097
 21
282.0883049265
  0
LINE
  5
555
100
AcDbEntity
  8
0
100
AcDbLine
 62
7
  6
CONTINUOUS
 10
322.122619097
 20
224.1351550978
 11
323.3421253637
 21
234.1665051738
  0
LINE
  5
556
100
AcDbEntity
  8
RUNDUNGEN
100
AcDbLine
 62
7
  6
CONTINUOUS
 10
322.122619097
 20
216.3185640694
 11
323.7344705595
 21
229.577246482
  0
LINE
  5
557
100
AcDbEntity
  8
KONSTRUKTIONSELEMENTE
100
AcDbLine
 62
7
  6
CONTINUOUS
 10
433.3592894626
 20
178.3845274706
 11
433.3261395118
 21
178.4752780494
  0
LINE
  5
558
100
AcDbEntity
  8
KONSTRUKTIONSELEMENTE
100
AcDbLine
 62
7
  6
CONTINUOUS
 10
436.4749700763
 20
182.3225984887
 11
436.5081200271
 21
182.2318479098
  0
LINE
  5
559
100
AcDbEntity
  8
KONSTRUKTIONSELEMENTE
100
AcDbLine
 62
7
  6
CONTINUOUS
 10
436.8285234669
 20
181.9810921377
 11
436.8616734177
 21
181.8903415589
  0
LINE
  5
55A
100
AcDbEntity
  8
0
100
AcDbLine
 62
7
  6
CONTINUOUS
 10
446.2932742389
 20
165.3334213388
 11
446.2180501222
 21
165.5408838676
  0
LINE
  5
55B
100
AcDbEntity
  8
0
100
AcDbLine
 62
7
  6
CONTINUOUS
 10
449.3774634447
 20
159.2107503593
 11
449.3022393214
 21
159.4182128559
  0
LINE
  5
55C
100
AcDbEntity
  8
0
100
AcDbLine
 62
7
  6
CONTINUOUS
 10
448.9261186919
 20
163.0598920314
 11
449.0013428086
 21
162.8524295797
  0
LINE
  5
55D
100
AcDbEntity
  8
0
100
AcDbLine
 62
7
  6
CONTINUOUS
 10
452.5442686769
 20
156.4666401065
 11
452.5708254427
 21
156.3879509949
  0
LINE
  5
55E
100
AcDbEntity
  8
0
100
AcDbLine
 62
7
  6
CONTINUOUS
 10
452.8639059574
 20
156.0938193576
 11
452.8373493154
 21
156.1725083077
  0
LINE
  5
55F
100
AcDbEntity
  8
0
100
AcDbLine
 62
7
  6
CONTINUOUS
 10
445.8419295388
 20
165.9041884529
 11
445.9171536555
 21
165.6697656327
  0
LINE
  5
560
100
AcDbEntity
  8
0
100
AcDbLine
 62
7
  6
CONTINUOUS
 10
449.3774634447
 20
162.4891249435
 11
449.3022393214
 21
162.7235477701
  0
LINE
  5
561
100
AcDbEntity
  8
0
100
AcDbLine
 62
7
  6
CONTINUOUS
 10
471.1144746552
 20
137.8485235934
 11
471.1397921572
 21
137.7787643322
  0
LINE
  5
562
100
AcDbEntity
  8
0
100
AcDbLine
 62
7
  6
CONTINUOUS
 10
472.4497162185
 20
136.5149131893
 11
472.4243987078
 21
136.5846724611
  0
LINE
  5
563
100
AcDbEntity
  8
0
100
AcDbLine
 62
7
  6
CONTINUOUS
 10
470.5612905069
 20
137.8856689035
 11
470.5418729311
 21
137.9429132526
  0
LINE
  5
564
100
AcDbEntity
  8
0
100
AcDbLine
 62
7
  6
CONTINUOUS
 10
470.8603936712
 20
137.5720724051
 11
470.8992288184
 21
137.4575837075
  0
LINE
  5
565
100
AcDbEntity
  8
0
100
AcDbLine
 62
7
  6
CONTINUOUS
 10
471.0293627863
 20
137.3580298508
 11
471.0099452105
 21
137.4152741999
  0
LINE
  5
566
100
AcDbEntity
  8
0
100
AcDbLine
 62
7
  6
CONTINUOUS
 10
471.6406157584
 20
136.8929083654
 11
471.6600333342
 21
136.8356640163
  0
LINE
  5
567
100
AcDbEntity
  8
0
100
AcDbLine
 62
7
  6
CONTINUOUS
 10
452.4103357601
 20
155.7083577806
 11
452.3902793222
 21
155.7815690098
  0
LINE
  5
568
100
AcDbEntity
  8
0
100
AcDbLine
 62
7
  6
CONTINUOUS
 10
312.5314837858
 20
270.1618388692
 11
316.0800976784
 21
276.9597949398
  0
LINE
  5
569
100
AcDbEntity
  8
0
100
AcDbLine
 62
7
  6
CONTINUOUS
 10
470.3923213918
 20
138.0997114577
 11
470.4155061289
 21
138.0146500717
  0
LINE
  5
56A
100
AcDbEntity
  8
0
100
AcDbLine
 62
7
  6
CONTINUOUS
 10
471.8095849158
 20
136.6788657887
 11
471.786400146
 21
136.7639271863
  0
LINE
  5
56B
100
AcDbEntity
  8
0
100
AcDbLine
 62
7
  6
CONTINUOUS
 10
453.0565790024
 20
155.2099711661
 11
453.0650861657
 21
155.1627388048
  0
LINE
  5
56C
100
AcDbEntity
  8
0
100
AcDbLine
 62
7
  6
CONTINUOUS
 10
452.2449856346
 20
155.9398152706
 11
452.2504506865
 21
155.8713294158
  0
LINE
  5
56D
100
AcDbEntity
  8
0
100
AcDbLine
 62
7
  6
CONTINUOUS
 10
453.2103798693
 20
155.0044925252
 11
453.2049148106
 21
155.072978388
  0
LINE
  5
56E
100
AcDbEntity
  8
0
100
AcDbLine
 62
7
  6
CONTINUOUS
 10
308.1650211847
 20
219.2763787983
 11
304.7650211847
 21
213.5880679329
  0
LINE
  5
56F
100
AcDbEntity
  8
0
100
AcDbLine
 62
7
  6
CONTINUOUS
 10
472.0198354522
 20
137.7276154534
 11
472.0320486883
 21
137.6620833519
  0
LINE
  5
570
100
AcDbEntity
  8
0
100
AcDbLine
 62
7
  6
CONTINUOUS
 10
472.3207570338
 20
137.3617039715
 11
472.3085439097
 21
137.4272359187
  0
LINE
  5
571
100
AcDbEntity
  8
0
100
AcDbLine
 62
7
  6
CONTINUOUS
 10
444.781269367
 20
162.7983868853
 11
444.781269367
 21
158.9161012088
  0
LINE
  5
572
100
AcDbEntity
  8
0
100
AcDbLine
 62
7
  6
CONTINUOUS
 10
445.1348227576
 20
158.7040043804
 11
445.1348227576
 21
162.3274710118
  0
LINE
  5
573
100
AcDbEntity
  8
0
100
AcDbLine
 62
7
  6
CONTINUOUS
 10
445.8419295388
 20
165.2032201801
 11
445.8419295388
 21
165.0414582769
  0
LINE
  5
574
100
AcDbEntity
  8
0
100
AcDbLine
 62
7
  6
CONTINUOUS
 10
445.8419295388
 20
162.5988535387
 11
445.8419295388
 21
162.4640519656
  0
LINE
  5
575
100
AcDbEntity
  8
0
100
AcDbLine
 62
7
  6
CONTINUOUS
 10
446.2932742389
 20
162.0280864632
 11
446.2932742389
 21
162.1898483664
  0
LINE
  5
576
100
AcDbEntity
  8
0
100
AcDbLine
 62
7
  6
CONTINUOUS
 10
446.6693948224
 20
161.9883056456
 11
446.6693948224
 21
162.1500675488
  0
LINE
  5
577
100
AcDbEntity
  8
0
100
AcDbLine
 62
7
  6
CONTINUOUS
 10
446.9702914999
 20
167.5372664018
 11
446.9702914999
 21
167.4294252358
  0
LINE
  5
578
100
AcDbEntity
  8
0
100
AcDbLine
 62
7
  6
CONTINUOUS
 10
446.9702914999
 20
166.3240522821
 11
446.9702914999
 21
166.2162109619
  0
LINE
  5
579
100
AcDbEntity
  8
0
100
AcDbLine
 62
7
  6
CONTINUOUS
 10
446.9702914999
 20
167.1059014295
 11
446.9702914999
 21
166.9980602635
  0
LINE
  5
57A
100
AcDbEntity
  8
0
100
AcDbLine
 62
7
  6
CONTINUOUS
 10
446.9702914999
 20
166.8632585747
 11
446.9702914999
 21
166.7284568858
  0
LINE
  5
57B
100
AcDbEntity
  8
0
100
AcDbLine
 62
7
  6
CONTINUOUS
 10
446.9702914999
 20
165.8926871555
 11
446.9702914999
 21
165.7848458353
  0
LINE
  5
57C
100
AcDbEntity
  8
0
100
AcDbLine
 62
7
  6
CONTINUOUS
 10
446.9702914999
 20
165.6500443008
 11
446.9702914999
 21
165.5152427662
  0
LINE
  5
57D
100
AcDbEntity
  8
0
100
AcDbLine
 62
7
  6
CONTINUOUS
 10
447.2711879666
 20
165.494202167
 11
447.2711879666
 21
165.5481229043
  0
LINE
  5
57E
100
AcDbEntity
  8
0
100
AcDbLine
 62
7
  6
CONTINUOUS
 10
447.2711879666
 20
165.898606925
 11
447.2711879666
 21
165.9794878766
  0
LINE
  5
57F
100
AcDbEntity
  8
0
100
AcDbLine
 62
7
  6
CONTINUOUS
 10
447.2711879666
 20
166.7074165952
 11
447.2711879666
 21
166.7613370239
  0
LINE
  5
580
100
AcDbEntity
  8
0
100
AcDbLine
 62
7
  6
CONTINUOUS
 10
447.2711879666
 20
167.1118213532
 11
447.2711879666
 21
167.1927023048
  0
LINE
  5
581
100
AcDbEntity
  8
0
100
AcDbLine
 62
7
  6
CONTINUOUS
 10
447.3464120833
 20
161.1725953238
 11
447.3464120833
 21
161.0108334206
  0
LINE
  5
582
100
AcDbEntity
  8
0
100
AcDbLine
 62
7
  6
CONTINUOUS
 10
447.7977567835
 20
160.5748679182
 11
447.7977567835
 21
160.7366298214
  0
LINE
  5
583
100
AcDbEntity
  8
0
100
AcDbLine
 62
7
  6
CONTINUOUS
 10
448.3995498224
 20
159.723977295
 11
448.3995498224
 21
159.5622153918
  0
LINE
  5
584
100
AcDbEntity
  8
0
100
AcDbLine
 62
7
  6
CONTINUOUS
 10
448.9261186919
 20
159.6467159126
 11
448.9261186919
 21
159.4310333493
  0
LINE
  5
585
100
AcDbEntity
  8
0
100
AcDbLine
 62
7
  6
CONTINUOUS
 10
449.3774634447
 20
158.995067796
 11
449.3774634447
 21
159.2107503593
  0
LINE
  5
586
100
AcDbEntity
  8
0
100
AcDbLine
 62
7
  6
CONTINUOUS
 10
449.3774634447
 20
161.6263947674
 11
449.3774634447
 21
161.7881566706
  0
LINE
  5
587
100
AcDbEntity
  8
0
100
AcDbLine
 62
7
  6
CONTINUOUS
 10
449.3774634447
 20
163.6214581887
 11
449.3774634447
 21
163.7562598775
  0
LINE
  5
588
100
AcDbEntity
  8
0
100
AcDbLine
 62
7
  6
CONTINUOUS
 10
449.3774634447
 20
163.1900932163
 11
449.3774634447
 21
163.3248947509
  0
LINE
  5
589
100
AcDbEntity
  8
0
100
AcDbLine
 62
7
  6
CONTINUOUS
 10
449.3774634447
 20
164.8346726169
 11
449.3774634447
 21
164.9694739972
  0
LINE
  5
58A
100
AcDbEntity
  8
0
100
AcDbLine
 62
7
  6
CONTINUOUS
 10
449.3774634447
 20
164.403307336
 11
449.3774634447
 21
164.5381090248
  0
LINE
  5
58B
100
AcDbEntity
  8
0
100
AcDbLine
 62
7
  6
CONTINUOUS
 10
449.3774634447
 20
164.0528233153
 11
449.3774634447
 21
164.1876250041
  0
LINE
  5
58C
100
AcDbEntity
  8
0
100
AcDbLine
 62
7
  6
CONTINUOUS
 10
449.3774634447
 20
165.2660375892
 11
449.3774634447
 21
165.400839278
  0
LINE
  5
58D
100
AcDbEntity
  8
0
100
AcDbLine
 62
7
  6
CONTINUOUS
 10
450.0845702259
 20
153.7935059446
 11
450.0845702259
 21
157.5463820986
  0
LINE
  5
58E
100
AcDbEntity
  8
0
100
AcDbLine
 62
7
  6
CONTINUOUS
 10
450.4381236165
 20
153.4519995936
 11
450.4381236165
 21
157.3342852702
  0
LINE
  5
58F
100
AcDbEntity
  8
0
100
AcDbLine
 62
7
  6
CONTINUOUS
 10
451.8523371789
 20
154.8035741634
 11
451.8523371789
 21
154.6741646409
  0
LINE
  5
590
100
AcDbEntity
  8
0
100
AcDbLine
 62
7
  6
CONTINUOUS
 10
471.2636870151
 20
137.7065411
 11
471.2633023505
 21
137.7460515391
  0
LINE
  5
591
100
AcDbEntity
  8
0
100
AcDbLine
 62
7
  6
CONTINUOUS
 10
472.3005038499
 20
136.6568956933
 11
472.3008885145
 21
136.6173852543
  0
LINE
  5
592
100
AcDbEntity
  8
0
100
AcDbLine
 62
7
  6
CONTINUOUS
 10
460.3376185531
 20
146.4780122182
 11
460.3376185531
 21
152.3247884015
  0
LINE
  5
593
100
AcDbEntity
  8
0
100
AcDbLine
 62
7
  6
CONTINUOUS
 10
460.6911719437
 20
146.2659153898
 11
460.6911719437
 21
152.2187534271
  0
LINE
  5
594
100
AcDbEntity
  8
0
100
AcDbLine
 62
7
  6
CONTINUOUS
 10
462.0122805395
 20
150.3171811664
 11
462.0122805395
 21
150.2093398925
  0
LINE
  5
595
100
AcDbEntity
  8
0
100
AcDbLine
 62
7
  6
CONTINUOUS
 10
462.4937150549
 20
150.0894019154
 11
462.4937150549
 21
149.8521511343
  0
LINE
  5
596
100
AcDbEntity
  8
0
100
AcDbLine
 62
7
  6
CONTINUOUS
 10
462.4937150549
 20
149.7443098604
 11
462.4937150549
 21
149.5717638252
  0
LINE
  5
597
100
AcDbEntity
  8
0
100
AcDbLine
 62
7
  6
CONTINUOUS
 10
462.7344322283
 20
149.3392488906
 11
462.7344322283
 21
149.5117949258
  0
LINE
  5
598
100
AcDbEntity
  8
0
100
AcDbLine
 62
7
  6
CONTINUOUS
 10
462.7344322283
 20
149.6196361997
 11
462.7344322283
 21
149.8568869808
  0
LINE
  5
599
100
AcDbEntity
  8
0
100
AcDbLine
 62
7
  6
CONTINUOUS
 10
464.9338126308
 20
142.0384296559
 11
464.9338126308
 21
148.1206772158
  0
LINE
  5
59A
100
AcDbEntity
  8
0
100
AcDbLine
 62
7
  6
CONTINUOUS
 10
465.2873660214
 20
141.6969233049
 11
465.2873660214
 21
147.9085803874
  0
LINE
  5
59B
100
AcDbEntity
  8
0
100
AcDbLine
 62
7
  6
CONTINUOUS
 10
470.9442202709
 20
136.3622312123
 11
470.9442202709
 21
136.2328216898
  0
LINE
  5
59C
100
AcDbEntity
  8
0
100
AcDbLine
 62
7
  6
CONTINUOUS
 10
478.722394864
 20
128.719681969
 11
478.722394864
 21
134.4137009612
  0
LINE
  5
59D
100
AcDbEntity
  8
0
100
AcDbLine
 62
7
  6
CONTINUOUS
 10
479.0759482545
 20
128.5075851406
 11
479.0759482545
 21
134.4604231779
  0
LINE
  5
59E
100
AcDbEntity
  8
0
100
AcDbLine
 62
7
  6
CONTINUOUS
 10
480.4812353251
 20
132.4775407545
 11
480.4812353251
 21
132.3696994805
  0
LINE
  5
59F
100
AcDbEntity
  8
0
100
AcDbLine
 62
7
  6
CONTINUOUS
 10
480.9626698405
 20
132.2497615034
 11
480.9626698405
 21
132.0125107224
  0
LINE
  5
5A0
100
AcDbEntity
  8
0
100
AcDbLine
 62
7
  6
CONTINUOUS
 10
480.9626698405
 20
131.9046694484
 11
480.9626698405
 21
131.7321234132
  0
LINE
  5
5A1
100
AcDbEntity
  8
0
100
AcDbLine
 62
7
  6
CONTINUOUS
 10
481.2033870139
 20
131.4996084786
 11
481.2033870139
 21
131.6721545138
  0
LINE
  5
5A2
100
AcDbEntity
  8
0
100
AcDbLine
 62
7
  6
CONTINUOUS
 10
481.2033870139
 20
131.7799957877
 11
481.2033870139
 21
132.0172465688
  0
LINE
  5
5A3
100
AcDbEntity
  8
0
100
AcDbLine
 62
7
  6
CONTINUOUS
 10
483.3185889417
 20
124.2800994067
 11
483.3185889417
 21
130.3623469666
  0
LINE
  5
5A4
100
AcDbEntity
  8
0
100
AcDbLine
 62
7
  6
CONTINUOUS
 10
483.6721423323
 20
123.9385930557
 11
483.6721423323
 21
130.1502501382
  0
LINE
  5
5A5
100
AcDbEntity
  8
RUNDUNGEN
100
AcDbLine
 62
7
  6
CONTINUOUS
 10
493.5716372689
 20
122.9562665744
 11
493.5716372689
 21
121.1802415109
  0
LINE
  5
5A6
100
AcDbEntity
  8
RUNDUNGEN
100
AcDbLine
 62
7
  6
CONTINUOUS
 10
493.5716372689
 20
113.78424603
 11
493.5716372689
 21
112.0082209665
  0
LINE
  5
5A7
100
AcDbEntity
  8
RUNDUNGEN
100
AcDbLine
 62
7
  6
CONTINUOUS
 10
502.0569186431
 20
116.7918436557
 11
502.0569186431
 21
116.1836188997
  0
LINE
  5
5A8
100
AcDbEntity
  8
RUNDUNGEN
100
AcDbLine
 62
7
  6
CONTINUOUS
 10
502.0569186431
 20
102.3885637958
 11
502.0569186431
 21
101.7803390398
  0
LINE
  5
5A9
100
AcDbEntity
  8
0
100
AcDbLine
 62
7
  6
CONTINUOUS
 10
471.1221444619
 20
137.9042913978
 11
471.1144746552
 21
137.8485235934
  0
LINE
  5
5AA
100
AcDbEntity
  8
0
100
AcDbLine
 62
7
  6
CONTINUOUS
 10
472.442046324
 20
136.459145417
 11
472.4497162185
 21
136.5149131893
  0
LINE
  5
5AB
100
AcDbEntity
  8
0
100
AcDbLine
 62
7
  6
CONTINUOUS
 10
470.5418729311
 20
137.9429132526
 11
470.5499890143
 21
137.9691200154
  0
LINE
  5
5AC
100
AcDbEntity
  8
0
100
AcDbLine
 62
7
  6
CONTINUOUS
 10
471.0099452105
 20
137.4152741999
 11
471.0180612937
 21
137.4414809627
  0
LINE
  5
5AD
100
AcDbEntity
  8
0
100
AcDbLine
 62
7
  6
CONTINUOUS
 10
471.6600333342
 20
136.8356640163
 11
471.651917268
 21
136.8094572512
  0
LINE
  5
5AE
100
AcDbEntity
  8
RUNDUNGEN
100
AcDbLine
 62
7
  6
CONTINUOUS
 10
428.8598180365
 20
182.0996449297
 11
429.1854181992
 21
182.414150536
  0
LINE
  5
5AF
100
AcDbEntity
  8
0
100
AcDbLine
 62
7
  6
CONTINUOUS
 10
445.9171536555
 20
165.9932894391
 11
445.8419295388
 21
165.9041884529
  0
LINE
  5
5B0
100
AcDbEntity
  8
0
100
AcDbLine
 62
7
  6
CONTINUOUS
 10
449.3022393214
 20
162.4000239637
 11
449.3774634447
 21
162.4891249435
  0
LINE
  5
5B1
100
AcDbEntity
  8
0
100
AcDbLine
 62
7
  6
CONTINUOUS
 10
434.3660807844
 20
175.3931336699
 11
430.8305468785
 21
171.9780701604
  0
LINE
  5
5B2
100
AcDbEntity
  8
RUNDUNGEN
100
AcDbLine
 62
7
  6
CONTINUOUS
 10
432.0953416713
 20
167.7258748948
 11
428.5598077653
 21
164.3108113854
  0
LINE
  5
5B3
100
AcDbEntity
  8
RUNDUNGEN
100
AcDbLine
 62
7
  6
CONTINUOUS
 10
442.3825072973
 20
176.7431438079
 11
442.1516857806
 21
176.5201873437
  0
LINE
  5
5B4
100
AcDbEntity
  8
0
100
AcDbLine
 62
7
  6
CONTINUOUS
 10
447.0455156166
 20
167.5454864363
 11
446.9702914999
 21
167.4728255192
  0
LINE
  5
5B5
100
AcDbEntity
  8
0
100
AcDbLine
 62
7
  6
CONTINUOUS
 10
447.1959638499
 20
167.4540853394
 11
447.0290854221
 21
167.2928931561
  0
LINE
  5
5B6
100
AcDbEntity
  8
0
100
AcDbLine
 62
7
  6
CONTINUOUS
 10
447.0455156166
 20
167.114121464
 11
446.9702914999
 21
167.0414605469
  0
LINE
  5
5B7
100
AcDbEntity
  8
0
100
AcDbLine
 62
7
  6
CONTINUOUS
 10
447.2711879666
 20
167.1927023048
 11
447.1770137531
 21
167.1017369997
  0
LINE
  5
5B8
100
AcDbEntity
  8
0
100
AcDbLine
 62
7
  6
CONTINUOUS
 10
447.2711879666
 20
167.1118213532
 11
447.2123290663
 21
167.0549680213
  0
LINE
  5
5B9
100
AcDbEntity
  8
0
100
AcDbLine
 62
7
  6
CONTINUOUS
 10
446.1428260055
 20
165.9101082995
 11
445.9059804128
 21
165.6813330247
  0
LINE
  5
5BA
100
AcDbEntity
  8
0
100
AcDbLine
 62
7
  6
CONTINUOUS
 10
447.2711879666
 20
166.9770196644
 11
447.0882306855
 21
166.8002965014
  0
LINE
  5
5BB
100
AcDbEntity
  8
0
100
AcDbLine
 62
7
  6
CONTINUOUS
 10
447.3464120833
 20
166.9852396989
 11
447.1109766871
 21
166.7578265692
  0
LINE
  5
5BC
100
AcDbEntity
  8
0
100
AcDbLine
 62
7
  6
CONTINUOUS
 10
447.5720844334
 20
167.1447014913
 11
447.4951714696
 21
167.0704092732
  0
LINE
  5
5BD
100
AcDbEntity
  8
0
100
AcDbLine
 62
7
  6
CONTINUOUS
 10
447.2711879666
 20
166.7613370239
 11
447.1742767423
 21
166.6677279695
  0
LINE
  5
5BE
100
AcDbEntity
  8
0
100
AcDbLine
 62
7
  6
CONTINUOUS
 10
447.4216362
 20
166.8856185675
 11
447.2817017931
 21
166.7504523098
  0
LINE
  5
5BF
100
AcDbEntity
  8
0
100
AcDbLine
 62
7
  6
CONTINUOUS
 10
447.1959638499
 20
166.6452758235
 11
447.1207829608
 21
166.572656661
  0
LINE
  5
5C0
100
AcDbEntity
  8
0
100
AcDbLine
 62
7
  6
CONTINUOUS
 10
447.2711879666
 20
166.7074165952
 11
447.2012207632
 21
166.6398334664
  0
LINE
  5
5C1
100
AcDbEntity
  8
0
100
AcDbLine
 62
7
  6
CONTINUOUS
 10
446.3684983556
 20
165.7730064999
 11
446.0487077491
 21
165.464112494
  0
LINE
  5
5C2
100
AcDbEntity
  8
0
100
AcDbLine
 62
7
  6
CONTINUOUS
 10
446.2180501222
 20
165.5408838676
 11
446.083027421
 21
165.4104619533
  0
LINE
  5
5C3
100
AcDbEntity
  8
0
100
AcDbLine
 62
7
  6
CONTINUOUS
 10
447.0455156166
 20
166.3322721624
 11
446.9702914999
 21
166.2596112453
  0
LINE
  5
5C4
100
AcDbEntity
  8
0
100
AcDbLine
 62
7
  6
CONTINUOUS
 10
447.3464120833
 20
166.5538747266
 11
447.2487221671
 21
166.4595135135
  0
LINE
  5
5C5
100
AcDbEntity
  8
0
100
AcDbLine
 62
7
  6
CONTINUOUS
 10
447.5720844334
 20
166.7133362104
 11
447.4951715557
 21
166.6390440754
  0
LINE
  5
5C6
100
AcDbEntity
  8
0
100
AcDbLine
 62
7
  6
CONTINUOUS
 10
447.1959638499
 20
166.2408710655
 11
447.0290854221
 21
166.0796788822
  0
LINE
  5
5C7
100
AcDbEntity
  8
0
100
AcDbLine
 62
7
  6
CONTINUOUS
 10
446.2932742389
 20
165.3334213388
 11
446.1991000703
 21
165.2424560771
  0
LINE
  5
5C8
100
AcDbEntity
  8
0
100
AcDbLine
 62
7
  6
CONTINUOUS
 10
447.4968603167
 20
166.3546321552
 11
447.4270818279
 21
166.2872313108
  0
LINE
  5
5C9
100
AcDbEntity
  8
0
100
AcDbLine
 62
7
  6
CONTINUOUS
 10
447.0455156166
 20
165.9009071901
 11
446.9702914999
 21
165.828246273
  0
LINE
  5
5CA
100
AcDbEntity
  8
0
100
AcDbLine
 62
7
  6
CONTINUOUS
 10
446.6693948224
 20
165.5362834146
 11
446.5738426958
 21
165.4439871478
  0
LINE
  5
5CB
100
AcDbEntity
  8
0
100
AcDbLine
 62
7
  6
CONTINUOUS
 10
447.2711879666
 20
165.9794878766
 11
447.1770138204
 21
165.8885226366
  0
LINE
  5
5CC
100
AcDbEntity
  8
0
100
AcDbLine
 62
7
  6
CONTINUOUS
 10
446.4437224723
 20
165.1072185531
 11
446.3602832584
 21
165.0266224614
  0
LINE
  5
5CD
100
AcDbEntity
  8
0
100
AcDbLine
 62
7
  6
CONTINUOUS
 10
447.2711879666
 20
165.898606925
 11
447.2123291337
 21
165.8417536582
  0
LINE
  5
5CE
100
AcDbEntity
  8
0
100
AcDbLine
 62
7
  6
CONTINUOUS
 10
447.2711879666
 20
165.7638053904
 11
447.0882306084
 21
165.587082153
  0
LINE
  5
5CF
100
AcDbEntity
  8
0
100
AcDbLine
 62
7
  6
CONTINUOUS
 10
446.8950673832
 20
165.3452608285
 11
446.8154405816
 21
165.2683472444
  0
LINE
  5
5D0
100
AcDbEntity
  8
0
100
AcDbLine
 62
7
  6
CONTINUOUS
 10
447.3464120833
 20
165.772025425
 11
447.110976649
 21
165.5446122585
  0
LINE
  5
5D1
100
AcDbEntity
  8
0
100
AcDbLine
 62
7
  6
CONTINUOUS
 10
447.5720844334
 20
165.9314872174
 11
447.4951714246
 21
165.8571949558
  0
LINE
  5
5D2
100
AcDbEntity
  8
0
100
AcDbLine
 62
7
  6
CONTINUOUS
 10
447.2711879666
 20
165.5481229043
 11
447.1742766652
 21
165.4545137753
  0
LINE
  5
5D3
100
AcDbEntity
  8
0
100
AcDbLine
 62
7
  6
CONTINUOUS
 10
447.4216362
 20
165.6724041393
 11
447.2817019473
 21
165.5372380306
  0
LINE
  5
5D4
100
AcDbEntity
  8
0
100
AcDbLine
 62
7
  6
CONTINUOUS
 10
447.1959638499
 20
165.4320615495
 11
447.1207830379
 21
165.3594424615
  0
LINE
  5
5D5
100
AcDbEntity
  8
0
100
AcDbLine
 62
7
  6
CONTINUOUS
 10
447.2711879666
 20
165.494202167
 11
447.2012208403
 21
165.4266191127
  0
LINE
  5
5D6
100
AcDbEntity
  8
0
100
AcDbLine
 62
7
  6
CONTINUOUS
 10
447.3464120833
 20
165.3406602984
 11
447.2487223268
 21
165.2462992396
  0
LINE
  5
5D7
100
AcDbEntity
  8
0
100
AcDbLine
 62
7
  6
CONTINUOUS
 10
446.4437224723
 20
164.4601709403
 11
446.3602832584
 21
164.3795748487
  0
LINE
  5
5D8
100
AcDbEntity
  8
0
100
AcDbLine
 62
7
  6
CONTINUOUS
 10
447.5720844334
 20
165.5001220908
 11
447.4951714696
 21
165.4258298727
  0
LINE
  5
5D9
100
AcDbEntity
  8
0
100
AcDbLine
 62
7
  6
CONTINUOUS
 10
447.2711879666
 20
165.0089164575
 11
447.1967829809
 21
164.9370467602
  0
LINE
  5
5DA
100
AcDbEntity
  8
0
100
AcDbLine
 62
7
  6
CONTINUOUS
 10
446.8950673832
 20
164.563411604
 11
446.8277070611
 21
164.4983465293
  0
LINE
  5
5DB
100
AcDbEntity
  8
0
100
AcDbLine
 62
7
  6
CONTINUOUS
 10
447.4968603167
 20
165.1414178813
 11
447.4270819078
 21
165.074017114
  0
LINE
  5
5DC
100
AcDbEntity
  8
0
100
AcDbLine
 62
7
  6
CONTINUOUS
 10
445.1348227576
 20
162.3274710118
 11
444.781269367
 21
161.9859646609
  0
LINE
  5
5DD
100
AcDbEntity
  8
0
100
AcDbLine
 62
7
  6
CONTINUOUS
 10
447.3464120833
 20
164.100485733
 11
447.2764449377
 21
164.03290266
  0
LINE
  5
5DE
100
AcDbEntity
  8
0
100
AcDbLine
 62
7
  6
CONTINUOUS
 10
445.9171536555
 20
162.6609942334
 11
445.8471864906
 21
162.5934111418
  0
LINE
  5
5DF
100
AcDbEntity
  8
0
100
AcDbLine
 62
7
  6
CONTINUOUS
 10
447.9482050169
 20
164.3549682038
 11
447.8782378905
 21
164.2873851495
  0
LINE
  5
5E0
100
AcDbEntity
  8
0
100
AcDbLine
 62
7
  6
CONTINUOUS
 10
446.1428260055
 20
162.5508527252
 11
445.9024987994
 21
162.3187144701
  0
LINE
  5
5E1
100
AcDbEntity
  8
0
100
AcDbLine
 62
7
  6
CONTINUOUS
 10
449.3774634447
 20
165.400839278
 11
449.3101030841
 21
165.335774166
  0
LINE
  5
5E2
100
AcDbEntity
  8
0
100
AcDbLine
 62
7
  6
CONTINUOUS
 10
446.4437224723
 20
162.3410900085
 11
446.0901690817
 21
161.9995836576
  0
LINE
  5
5E3
100
AcDbEntity
  8
0
100
AcDbLine
 62
7
  6
CONTINUOUS
 10
446.2932742389
 20
162.1898483664
 11
446.0968448414
 21
162.0001121382
  0
LINE
  5
5E4
100
AcDbEntity
  8
0
100
AcDbLine
 62
7
  6
CONTINUOUS
 10
447.8729809002
 20
163.5918593135
 11
447.8082274402
 21
163.5293122741
  0
LINE
  5
5E5
100
AcDbEntity
  8
0
100
AcDbLine
 62
7
  6
CONTINUOUS
 10
446.2932742389
 20
162.0280864632
 11
446.1637847538
 21
161.9030092252
  0
LINE
  5
5E6
100
AcDbEntity
  8
0
100
AcDbLine
 62
7
  6
CONTINUOUS
 10
448.3243257057
 20
163.9647033023
 11
448.2569653451
 21
163.8996381904
  0
LINE
  5
5E7
100
AcDbEntity
  8
0
100
AcDbLine
 62
7
  6
CONTINUOUS
 10
449.3774634447
 20
164.9694739972
 11
449.3101032383
 21
164.9044090341
  0
LINE
  5
5E8
100
AcDbEntity
  8
0
100
AcDbLine
 62
7
  6
CONTINUOUS
 10
446.3684983556
 20
161.8745445945
 11
446.2625524122
 21
161.7722086715
  0
LINE
  5
5E9
100
AcDbEntity
  8
0
100
AcDbLine
 62
7
  6
CONTINUOUS
 10
446.6693948224
 20
162.1500675488
 11
446.5770993093
 21
162.060916929
  0
LINE
  5
5EA
100
AcDbEntity
  8
0
100
AcDbLine
 62
7
  6
CONTINUOUS
 10
449.3774634447
 20
164.5381090248
 11
449.3101030841
 21
164.4730439128
  0
LINE
  5
5EB
100
AcDbEntity
  8
0
100
AcDbLine
 62
7
  6
CONTINUOUS
 10
448.5499980557
 20
163.7197601825
 11
448.4754803366
 21
163.6477815931
  0
LINE
  5
5EC
100
AcDbEntity
  8
0
100
AcDbLine
 62
7
  6
CONTINUOUS
 10
446.518946589
 20
161.6483417895
 11
446.4329005371
 21
161.5652276857
  0
LINE
  5
5ED
100
AcDbEntity
  8
0
100
AcDbLine
 62
7
  6
CONTINUOUS
 10
448.3243257057
 20
163.1828540779
 11
448.2569653836
 21
163.1177890031
  0
LINE
  5
5EE
100
AcDbEntity
  8
0
100
AcDbLine
 62
7
  6
CONTINUOUS
 10
449.3774634447
 20
164.1876250041
 11
449.3101030841
 21
164.1225598921
  0
LINE
  5
5EF
100
AcDbEntity
  8
0
100
AcDbLine
 62
7
  6
CONTINUOUS
 10
446.7446191498
 20
161.4033985239
 11
446.6611799286
 21
161.3228024252
  0
LINE
  5
5F0
100
AcDbEntity
  8
0
100
AcDbLine
 62
7
  6
CONTINUOUS
 10
448.8508945752
 20
163.3751958804
 11
448.7674553227
 21
163.2945997515
  0
LINE
  5
5F1
100
AcDbEntity
  8
0
100
AcDbLine
 62
7
  6
CONTINUOUS
 10
449.3774634447
 20
163.7562598775
 11
449.3101030841
 21
163.6911947655
  0
LINE
  5
5F2
100
AcDbEntity
  8
0
100
AcDbLine
 62
7
  6
CONTINUOUS
 10
446.8950673832
 20
161.2580766898
 11
446.8064144763
 21
161.1724445574
  0
LINE
  5
5F3
100
AcDbEntity
  8
0
100
AcDbLine
 62
7
  6
CONTINUOUS
 10
448.7756704585
 20
162.8547297676
 11
448.6756836503
 21
162.7581499273
  0
LINE
  5
5F4
100
AcDbEntity
  8
0
100
AcDbLine
 62
7
  6
CONTINUOUS
 10
449.0765669516
 20
163.0763321521
 11
448.9607284962
 21
162.9644407963
  0
LINE
  5
5F5
100
AcDbEntity
  8
0
100
AcDbLine
 62
7
  6
CONTINUOUS
 10
449.3774634447
 20
163.3248947509
 11
449.3101031612
 21
163.2598297134
  0
LINE
  5
5F6
100
AcDbEntity
  8
0
100
AcDbLine
 62
7
  6
CONTINUOUS
 10
447.1207397333
 20
161.0670542494
 11
447.0212216179
 21
160.9709271315
  0
LINE
  5
5F7
100
AcDbEntity
  8
0
100
AcDbLine
 62
7
  6
CONTINUOUS
 10
448.9261186919
 20
162.7902888851
 11
448.8022632924
 21
162.670653756
  0
LINE
  5
5F8
100
AcDbEntity
  8
0
100
AcDbLine
 62
7
  6
CONTINUOUS
 10
449.0013428086
 20
162.8524295797
 11
448.8075202442
 21
162.6652113591
  0
LINE
  5
5F9
100
AcDbEntity
  8
0
100
AcDbLine
 62
7
  6
CONTINUOUS
 10
447.4216362
 20
161.2347359799
 11
447.3516690544
 21
161.1671529069
  0
LINE
  5
5FA
100
AcDbEntity
  8
0
100
AcDbLine
 62
7
  6
CONTINUOUS
 10
447.2711879666
 20
161.0026133861
 11
447.139478022
 21
160.875391349
  0
LINE
  5
5FB
100
AcDbEntity
  8
0
100
AcDbLine
 62
7
  6
CONTINUOUS
 10
447.3464120833
 20
161.0108334206
 11
447.1744574355
 21
160.8447379853
  0
LINE
  5
5FC
100
AcDbEntity
  8
0
100
AcDbLine
 62
7
  6
CONTINUOUS
 10
447.5720844334
 20
161.1972553888
 11
447.2185310428
 21
160.8557490379
  0
LINE
  5
5FD
100
AcDbEntity
  8
0
100
AcDbLine
 62
7
  6
CONTINUOUS
 10
445.1348227576
 20
158.7040043804
 11
445.0678354595
 21
158.6392996191
  0
LINE
  5
5FE
100
AcDbEntity
  8
0
100
AcDbLine
 62
7
  6
CONTINUOUS
 10
449.3022393214
 20
162.7235477701
 11
449.065393728
 21
162.4947724946
  0
LINE
  5
5FF
100
AcDbEntity
  8
0
100
AcDbLine
 62
7
  6
CONTINUOUS
 10
449.3774634447
 20
162.4891249435
 11
449.2940242306
 21
162.4085288516
  0
LINE
  5
600
100
AcDbEntity
  8
0
100
AcDbLine
 62
7
  6
CONTINUOUS
 10
447.8729809002
 20
161.0144530407
 11
447.5194275096
 21
160.6729466898
  0
LINE
  5
601
100
AcDbEntity
  8
0
100
AcDbLine
 62
7
  6
CONTINUOUS
 10
447.7977567835
 20
160.7366298214
 11
447.6202478552
 21
160.5651693631
  0
LINE
  5
602
100
AcDbEntity
  8
0
100
AcDbLine
 62
7
  6
CONTINUOUS
 10
448.1738774723
 20
160.7777298537
 11
448.0608873139
 21
160.6685897415
  0
LINE
  5
603
100
AcDbEntity
  8
0
100
AcDbLine
 62
7
  6
CONTINUOUS
 10
449.3774634447
 20
161.7881566706
 11
449.2966310736
 21
161.7100785958
  0
LINE
  5
604
100
AcDbEntity
  8
0
100
AcDbLine
 62
7
  6
CONTINUOUS
 10
448.5499980557
 20
160.4144252683
 11
448.4665588418
 21
160.3338291767
  0
LINE
  5
605
100
AcDbEntity
  8
0
100
AcDbLine
 62
7
  6
CONTINUOUS
 10
448.8508945752
 20
160.0698609661
 11
448.7526367756
 21
159.9749512199
  0
LINE
  5
606
100
AcDbEntity
  8
0
100
AcDbLine
 62
7
  6
CONTINUOUS
 10
448.6252221724
 20
159.5329548546
 11
448.533756941
 21
159.4446062253
  0
LINE
  5
607
100
AcDbEntity
  8
0
100
AcDbLine
 62
7
  6
CONTINUOUS
 10
448.8508945752
 20
159.3958530041
 11
448.7244323347
 21
159.2736998599
  0
LINE
  5
608
100
AcDbEntity
  8
0
100
AcDbLine
 62
7
  6
CONTINUOUS
 10
449.1517910683
 20
159.6713759522
 11
448.9261186919
 21
159.4533931755
  0
LINE
  5
609
100
AcDbEntity
  8
0
100
AcDbLine
 62
7
  6
CONTINUOUS
 10
448.9261186919
 20
159.4310333493
 11
448.7502371266
 21
159.261144803
  0
LINE
  5
60A
100
AcDbEntity
  8
0
100
AcDbLine
 62
7
  6
CONTINUOUS
 10
449.3022393214
 20
159.4182128559
 11
448.9693206256
 21
159.0966380895
  0
LINE
  5
60B
100
AcDbEntity
  8
0
100
AcDbLine
 62
7
  6
CONTINUOUS
 10
464.3592733121
 20
148.1148649945
 11
464.4194526107
 21
148.1861457783
  0
LINE
  5
60C
100
AcDbEntity
  8
0
100
AcDbLine
 62
7
  6
CONTINUOUS
 10
449.3774634447
 20
159.2107503593
 11
449.1485042582
 21
158.989592768
  0
LINE
  5
60D
100
AcDbEntity
  8
0
100
AcDbLine
 62
7
  6
CONTINUOUS
 10
450.4381236165
 20
157.3342852702
 11
450.0845702259
 21
156.9927789192
  0
LINE
  5
60E
100
AcDbEntity
  8
0
100
AcDbLine
 62
7
  6
CONTINUOUS
 10
451.3225721424
 20
156.5749653462
 11
451.2900808314
 21
156.5435811498
  0
LINE
  5
60F
100
AcDbEntity
  8
0
100
AcDbLine
 62
7
  6
CONTINUOUS
 10
451.488926068
 20
156.3234928535
 11
451.4429996418
 21
156.2791313323
  0
LINE
  5
610
100
AcDbEntity
  8
0
100
AcDbLine
 62
7
  6
CONTINUOUS
 10
451.8322027139
 20
156.3625965117
 11
451.803206517
 21
156.3345883362
  0
LINE
  5
611
100
AcDbEntity
  8
0
100
AcDbLine
 62
7
  6
CONTINUOUS
 10
452.124647268
 20
156.3790826232
 11
452.0384356738
 21
156.2958086179
  0
LINE
  5
612
100
AcDbEntity
  8
0
100
AcDbLine
 62
7
  6
CONTINUOUS
 10
452.8020108406
 20
156.8626788656
 11
452.6430982393
 21
156.7091810799
  0
LINE
  5
613
100
AcDbEntity
  8
0
100
AcDbLine
 62
7
  6
CONTINUOUS
 10
451.8564940364
 20
155.7249375711
 11
451.8185875083
 21
155.6883226766
  0
LINE
  5
614
100
AcDbEntity
  8
0
100
AcDbLine
 62
7
  6
CONTINUOUS
 10
452.6042604536
 20
156.4324517125
 11
452.5647266196
 21
156.3942649612
  0
LINE
  5
615
100
AcDbEntity
  8
0
100
AcDbLine
 62
7
  6
CONTINUOUS
 10
450.0845702259
 20
153.9229154671
 11
450.0175829278
 21
153.8582107059
  0
LINE
  5
616
100
AcDbEntity
  8
0
100
AcDbLine
 62
7
  6
CONTINUOUS
 10
452.0266342539
 20
155.7330235431
 11
451.8966690101
 21
155.6074867576
  0
LINE
  5
617
100
AcDbEntity
  8
0
100
AcDbLine
 62
7
  6
CONTINUOUS
 10
452.2918014867
 20
155.9468927762
 11
452.2478115695
 21
155.9044017791
  0
LINE
  5
618
100
AcDbEntity
  8
0
100
AcDbLine
 62
7
  6
CONTINUOUS
 10
452.0866837416
 20
155.7358774156
 11
451.9242271868
 21
155.5789564337
  0
LINE
  5
619
100
AcDbEntity
  8
0
100
AcDbLine
 62
7
  6
CONTINUOUS
 10
452.2504506865
 20
155.8713294158
 11
452.215416206
 21
155.8374887063
  0
LINE
  5
61A
100
AcDbEntity
  8
0
100
AcDbLine
 62
7
  6
CONTINUOUS
 10
452.1867662115
 20
155.7406338692
 11
451.970157477
 21
155.5314058983
  0
LINE
  5
61B
100
AcDbEntity
  8
0
100
AcDbLine
 62
7
  6
CONTINUOUS
 10
452.7508007729
 20
156.2853858132
 11
452.6973154919
 21
156.233722999
  0
LINE
  5
61C
100
AcDbEntity
  8
0
100
AcDbLine
 62
7
  6
CONTINUOUS
 10
452.379349135
 20
155.9185407463
 11
452.2540404977
 21
155.7975018972
  0
LINE
  5
61D
100
AcDbEntity
  8
0
100
AcDbLine
 62
7
  6
CONTINUOUS
 10
452.3902793222
 20
155.7815690098
 11
452.3385523657
 21
155.7316046066
  0
LINE
  5
61E
100
AcDbEntity
  8
0
100
AcDbLine
 62
7
  6
CONTINUOUS
 10
452.4784459745
 20
155.8642098757
 11
452.4141079019
 21
155.8020640697
  0
LINE
  5
61F
100
AcDbEntity
  8
0
100
AcDbLine
 62
7
  6
CONTINUOUS
 10
452.8373493154
 20
156.1725083077
 11
452.797815498
 21
156.1343215724
  0
LINE
  5
620
100
AcDbEntity
  8
0
100
AcDbLine
 62
7
  6
CONTINUOUS
 10
452.2564863412
 20
155.5494134068
 11
452.2239950303
 21
155.5180292104
  0
LINE
  5
621
100
AcDbEntity
  8
0
100
AcDbLine
 62
7
  6
CONTINUOUS
 10
452.6298238849
 20
155.7484706018
 11
452.5950612372
 21
155.7148924625
  0
LINE
  5
622
100
AcDbEntity
  8
0
100
AcDbLine
 62
7
  6
CONTINUOUS
 10
452.7781596839
 20
155.6114778344
 11
452.7470364065
 21
155.581415057
  0
LINE
  5
623
100
AcDbEntity
  8
0
100
AcDbLine
 62
7
  6
CONTINUOUS
 10
452.6310089376
 20
155.4367453919
 11
452.5998856602
 21
155.4066826145
  0
LINE
  5
624
100
AcDbEntity
  8
0
100
AcDbLine
 62
7
  6
CONTINUOUS
 10
452.7647534523
 20
155.3044779504
 11
452.733630175
 21
155.274415173
  0
LINE
  5
625
100
AcDbEntity
  8
0
100
AcDbLine
 62
7
  6
CONTINUOUS
 10
452.9380447107
 20
155.4485061832
 11
452.9105608062
 21
155.4219587701
  0
LINE
  5
626
100
AcDbEntity
  8
0
100
AcDbLine
 62
7
  6
CONTINUOUS
 10
452.8608082639
 20
155.2288935592
 11
452.8260456155
 21
155.1953154194
  0
LINE
  5
627
100
AcDbEntity
  8
0
100
AcDbLine
 62
7
  6
CONTINUOUS
 10
453.0426066855
 20
155.3256894307
 11
453.0078440378
 21
155.2921112915
  0
LINE
  5
628
100
AcDbEntity
  8
0
100
AcDbLine
 62
7
  6
CONTINUOUS
 10
452.9453138843
 20
155.1792880088
 11
452.9019591262
 21
155.1374105282
  0
LINE
  5
629
100
AcDbEntity
  8
0
100
AcDbLine
 62
7
  6
CONTINUOUS
 10
453.0328615327
 20
155.150935979
 11
452.9685234589
 21
155.0887901719
  0
LINE
  5
62A
100
AcDbEntity
  8
0
100
AcDbLine
 62
7
  6
CONTINUOUS
 10
453.042517619
 20
155.1409392628
 11
452.9781795453
 21
155.0787934557
  0
LINE
  5
62B
100
AcDbEntity
  8
0
100
AcDbLine
 62
7
  6
CONTINUOUS
 10
453.1441266507
 20
155.1816191363
 11
453.0165371537
 21
155.0583771459
  0
LINE
  5
62C
100
AcDbEntity
  8
0
100
AcDbLine
 62
7
  6
CONTINUOUS
 10
453.2049148106
 20
155.072978388
 11
453.1359455292
 21
155.0063591779
  0
LINE
  5
62D
100
AcDbEntity
  8
0
100
AcDbLine
 62
7
  6
CONTINUOUS
 10
452.5594439601
 20
154.1205614615
 11
452.4924566619
 21
154.0558567003
  0
LINE
  5
62E
100
AcDbEntity
  8
0
100
AcDbLine
 62
7
  6
CONTINUOUS
 10
452.7202091534
 20
153.8358646867
 11
453.0365992564
 21
154.1414740584
  0
LINE
  5
62F
100
AcDbEntity
  8
0
100
AcDbLine
 62
7
  6
CONTINUOUS
 10
452.9129973506
 20
153.7790551106
 11
452.8460100525
 21
153.7143503493
  0
LINE
  5
630
100
AcDbEntity
  8
0
100
AcDbLine
 62
7
  6
CONTINUOUS
 10
454.7168852865
 20
153.9519576193
 11
454.5921523333
 21
153.8314748384
  0
LINE
  5
631
100
AcDbEntity
  8
0
100
AcDbLine
 62
7
  6
CONTINUOUS
 10
460.3376185531
 20
152.6896693006
 11
460.1049315365
 21
152.4649109018
  0
LINE
  5
632
100
AcDbEntity
  8
0
100
AcDbLine
 62
7
  6
CONTINUOUS
 10
460.6911719437
 20
152.2187534271
 11
460.3376185531
 21
151.8772470762
  0
LINE
  5
633
100
AcDbEntity
  8
0
100
AcDbLine
 62
7
  6
CONTINUOUS
 10
462.4937150549
 20
149.8521511343
 11
462.4398268049
 21
149.800099082
  0
LINE
  5
634
100
AcDbEntity
  8
0
100
AcDbLine
 62
7
  6
CONTINUOUS
 10
462.7344322283
 20
149.8568869808
 11
462.4937150549
 21
149.6243720461
  0
LINE
  5
635
100
AcDbEntity
  8
0
100
AcDbLine
 62
7
  6
CONTINUOUS
 10
462.7344322283
 20
149.6196361997
 11
462.5859808829
 21
149.4762432112
  0
LINE
  5
636
100
AcDbEntity
  8
0
100
AcDbLine
 62
7
  6
CONTINUOUS
 10
459.9840651625
 20
146.9489280917
 11
459.9170778644
 21
146.8842233304
  0
LINE
  5
637
100
AcDbEntity
  8
0
100
AcDbLine
 62
7
  6
CONTINUOUS
 10
462.7344322283
 20
149.5117949258
 11
462.6482110299
 21
149.4285116435
  0
LINE
  5
638
100
AcDbEntity
  8
0
100
AcDbLine
 62
7
  6
CONTINUOUS
 10
460.3376185531
 20
146.843639349
 11
460.1483560234
 21
146.6608257836
  0
LINE
  5
639
100
AcDbEntity
  8
0
100
AcDbLine
 62
7
  6
CONTINUOUS
 10
460.6911719437
 20
146.2659153898
 11
460.6241846456
 21
146.2012106285
  0
LINE
  5
63A
100
AcDbEntity
  8
0
100
AcDbLine
 62
7
  6
CONTINUOUS
 10
463.8176595929
 20
148.5733189125
 11
463.7618368418
 21
148.5193982755
  0
LINE
  5
63B
100
AcDbEntity
  8
0
100
AcDbLine
 62
7
  6
CONTINUOUS
 10
463.9981975151
 20
148.420500904
 11
463.9314461517
 21
148.3560240381
  0
LINE
  5
63C
100
AcDbEntity
  8
0
100
AcDbLine
 62
7
  6
CONTINUOUS
 10
464.1185561018
 20
148.3689481979
 11
464.0262605856
 21
148.2797975751
  0
LINE
  5
63D
100
AcDbEntity
  8
0
100
AcDbLine
 62
7
  6
CONTINUOUS
 10
464.1787354163
 20
148.4186607333
 11
464.031062577
 21
148.276019724
  0
LINE
  5
63E
100
AcDbEntity
  8
0
100
AcDbLine
 62
7
  6
CONTINUOUS
 10
464.4194526107
 20
148.1861457783
 11
464.3527012394
 21
148.1216689048
  0
LINE
  5
63F
100
AcDbEntity
  8
0
100
AcDbLine
 62
7
  6
CONTINUOUS
 10
465.2873660214
 20
147.9085803874
 11
464.9338126308
 21
147.5670740364
  0
LINE
  5
640
100
AcDbEntity
  8
0
100
AcDbLine
 62
7
  6
CONTINUOUS
 10
446.2180501222
 20
165.5408838676
 11
446.2932742389
 21
165.6030244851
  0
LINE
  5
641
100
AcDbEntity
  8
0
100
AcDbLine
 62
7
  6
CONTINUOUS
 10
445.9171536555
 20
162.6609942334
 11
445.8419295388
 21
162.5988535387
  0
LINE
  5
642
100
AcDbEntity
  8
0
100
AcDbLine
 62
7
  6
CONTINUOUS
 10
449.0013428086
 20
162.8524295797
 11
448.9261186919
 21
162.7902888851
  0
LINE
  5
643
100
AcDbEntity
  8
0
100
AcDbLine
 62
7
  6
CONTINUOUS
 10
447.4216362
 20
161.2347359799
 11
447.3464120833
 21
161.1725953238
  0
LINE
  5
644
100
AcDbEntity
  8
0
100
AcDbLine
 62
7
  6
CONTINUOUS
 10
449.3022393214
 20
158.9329271463
 11
449.3774634447
 21
158.995067796
  0
LINE
  5
645
100
AcDbEntity
  8
0
100
AcDbLine
 62
7
  6
CONTINUOUS
 10
482.8282280977
 20
130.2752245825
 11
482.8884073963
 21
130.3465053663
  0
LINE
  5
646
100
AcDbEntity
  8
0
100
AcDbLine
 62
7
  6
CONTINUOUS
 10
464.9338126308
 20
142.1678391784
 11
464.8668253327
 21
142.1031344171
  0
LINE
  5
647
100
AcDbEntity
  8
0
100
AcDbLine
 62
7
  6
CONTINUOUS
 10
470.4242039726
 20
138.1226976713
 11
470.3962240436
 21
138.0956711353
  0
LINE
  5
648
100
AcDbEntity
  8
0
100
AcDbLine
 62
7
  6
CONTINUOUS
 10
470.4717369508
 20
138.116256575
 11
470.4053024699
 21
138.0520857941
  0
LINE
  5
649
100
AcDbEntity
  8
0
100
AcDbLine
 62
7
  6
CONTINUOUS
 10
470.558686841
 20
138.0771676173
 11
470.4450188558
 21
137.9673727747
  0
LINE
  5
64A
100
AcDbEntity
  8
0
100
AcDbLine
 62
7
  6
CONTINUOUS
 10
470.532694833
 20
137.952415119
 11
470.4820778507
 21
137.9035228686
  0
LINE
  5
64B
100
AcDbEntity
  8
0
100
AcDbLine
 62
7
  6
CONTINUOUS
 10
470.5418729311
 20
137.9429132526
 11
470.4912559489
 21
137.8940210022
  0
LINE
  5
64C
100
AcDbEntity
  8
0
100
AcDbLine
 62
7
  6
CONTINUOUS
 10
470.5612905069
 20
137.8856689035
 11
470.5292332679
 21
137.8547039884
  0
LINE
  5
64D
100
AcDbEntity
  8
0
100
AcDbLine
 62
7
  6
CONTINUOUS
 10
470.7007040661
 20
137.9760034848
 11
470.6661157034
 21
137.9425936919
  0
LINE
  5
64E
100
AcDbEntity
  8
0
100
AcDbLine
 62
7
  6
CONTINUOUS
 10
470.6201249862
 20
137.7957766941
 11
470.5855366213
 21
137.7623668992
  0
LINE
  5
64F
100
AcDbEntity
  8
0
100
AcDbLine
 62
7
  6
CONTINUOUS
 10
470.6908427956
 20
137.7042741226
 11
470.6653939918
 21
137.6796924657
  0
LINE
  5
650
100
AcDbEntity
  8
0
100
AcDbLine
 62
7
  6
CONTINUOUS
 10
470.8464884441
 20
137.8470223166
 11
470.8144312051
 21
137.8160574015
  0
LINE
  5
651
100
AcDbEntity
  8
0
100
AcDbLine
 62
7
  6
CONTINUOUS
 10
471.1961736449
 20
137.8925658097
 11
471.1238458217
 21
137.8227024973
  0
LINE
  5
652
100
AcDbEntity
  8
0
100
AcDbLine
 62
7
  6
CONTINUOUS
 10
470.8441615005
 20
137.5196588799
 11
470.8174471353
 21
137.4938547846
  0
LINE
  5
653
100
AcDbEntity
  8
0
100
AcDbLine
 62
7
  6
CONTINUOUS
 10
470.9516924832
 20
137.5870072471
 11
470.8791093414
 21
137.5168973159
  0
LINE
  5
654
100
AcDbEntity
  8
0
100
AcDbLine
 62
7
  6
CONTINUOUS
 10
470.8992288184
 20
137.4575837075
 11
470.875045577
 21
137.43422449
  0
LINE
  5
655
100
AcDbEntity
  8
0
100
AcDbLine
 62
7
  6
CONTINUOUS
 10
471.3200685028
 20
137.8203425775
 11
471.1870887259
 21
137.6918939766
  0
LINE
  5
656
100
AcDbEntity
  8
0
100
AcDbLine
 62
7
  6
CONTINUOUS
 10
471.0386423904
 20
137.5479182871
 11
470.8883376262
 21
137.4027350335
  0
LINE
  5
657
100
AcDbEntity
  8
0
100
AcDbLine
 62
7
  6
CONTINUOUS
 10
471.2633023505
 20
137.7460515391
 11
471.1968124548
 21
137.6818272317
  0
LINE
  5
658
100
AcDbEntity
  8
0
100
AcDbLine
 62
7
  6
CONTINUOUS
 10
471.2636870151
 20
137.7065411
 11
471.2167414757
 21
137.6611951911
  0
LINE
  5
659
100
AcDbEntity
  8
0
100
AcDbLine
 62
7
  6
CONTINUOUS
 10
471.0007671123
 20
137.4247760663
 11
470.9315903868
 21
137.3579564806
  0
LINE
  5
65A
100
AcDbEntity
  8
0
100
AcDbLine
 62
7
  6
CONTINUOUS
 10
471.0099452105
 20
137.4152741999
 11
470.940768485
 21
137.3484546142
  0
LINE
  5
65B
100
AcDbEntity
  8
0
100
AcDbLine
 62
7
  6
CONTINUOUS
 10
471.0293627863
 20
137.3580298508
 11
470.978745804
 21
137.3091376004
  0
LINE
  5
65C
100
AcDbEntity
  8
0
100
AcDbLine
 62
7
  6
CONTINUOUS
 10
471.1806595815
 20
137.4467541592
 11
471.1460712188
 21
137.4133443663
  0
LINE
  5
65D
100
AcDbEntity
  8
0
100
AcDbLine
 62
7
  6
CONTINUOUS
 10
471.0606636066
 20
137.2991752277
 11
471.0232634957
 21
137.2630494946
  0
LINE
  5
65E
100
AcDbEntity
  8
0
100
AcDbLine
 62
7
  6
CONTINUOUS
 10
471.4773354283
 20
137.6946174094
 11
471.4426805005
 21
137.6611433196
  0
LINE
  5
65F
100
AcDbEntity
  8
0
100
AcDbLine
 62
7
  6
CONTINUOUS
 10
471.3473093977
 20
137.5530310362
 11
471.3146950761
 21
137.5215280207
  0
LINE
  5
660
100
AcDbEntity
  8
0
100
AcDbLine
 62
7
  6
CONTINUOUS
 10
471.1313813774
 20
137.2076726996
 11
471.0996047643
 21
137.1769788483
  0
LINE
  5
661
100
AcDbEntity
  8
0
100
AcDbLine
 62
7
  6
CONTINUOUS
 10
471.2989103005
 20
137.3488105772
 11
471.2655874997
 21
137.3166232232
  0
LINE
  5
662
100
AcDbEntity
  8
0
100
AcDbLine
 62
7
  6
CONTINUOUS
 10
471.6016149508
 20
137.5828837381
 11
471.5691769153
 21
137.5515510018
  0
LINE
  5
663
100
AcDbEntity
  8
0
100
AcDbLine
 62
7
  6
CONTINUOUS
 10
471.480412815
 20
137.3785338121
 11
471.4574454166
 21
137.3563490087
  0
LINE
  5
664
100
AcDbEntity
  8
0
100
AcDbLine
 62
7
  6
CONTINUOUS
 10
471.2139823543
 20
137.114559941
 11
471.1860024268
 21
137.0875334063
  0
LINE
  5
665
100
AcDbEntity
  8
0
100
AcDbLine
 62
7
  6
CONTINUOUS
 10
471.4603451014
 20
137.1904020956
 11
471.4308189861
 21
137.1618820583
  0
LINE
  5
666
100
AcDbEntity
  8
0
100
AcDbLine
 62
7
  6
CONTINUOUS
 10
471.7343336092
 20
137.447896993
 11
471.7075354876
 21
137.4220119953
  0
LINE
  5
667
100
AcDbEntity
  8
0
100
AcDbLine
 62
7
  6
CONTINUOUS
 10
471.3084665757
 20
137.0198369082
 11
471.2789404619
 21
136.9913168723
  0
LINE
  5
668
100
AcDbEntity
  8
0
100
AcDbLine
 62
7
  6
CONTINUOUS
 10
472.0859059485
 20
137.6852866205
 11
472.0464494584
 21
137.6471745776
  0
LINE
  5
669
100
AcDbEntity
  8
0
100
AcDbLine
 62
7
  6
CONTINUOUS
 10
471.8256258928
 20
137.3501546937
 11
471.8004415876
 21
137.3258285229
  0
LINE
  5
66A
100
AcDbEntity
  8
0
100
AcDbLine
 62
7
  6
CONTINUOUS
 10
471.6549426769
 20
137.1667920575
 11
471.6275414938
 21
137.140324547
  0
LINE
  5
66B
100
AcDbEntity
  8
0
100
AcDbLine
 62
7
  6
CONTINUOUS
 10
471.4148340695
 20
136.9235035785
 11
471.3827768305
 21
136.8925386635
  0
LINE
  5
66C
100
AcDbEntity
  8
0
100
AcDbLine
 62
7
  6
CONTINUOUS
 10
471.5980134347
 20
137.0352141211
 11
471.563425072
 21
137.0018043282
  0
LINE
  5
66D
100
AcDbEntity
  8
0
100
AcDbLine
 62
7
  6
CONTINUOUS
 10
471.5055511295
 20
136.8565975827
 11
471.4709627663
 21
136.8231877894
  0
LINE
  5
66E
100
AcDbEntity
  8
0
100
AcDbLine
 62
7
  6
CONTINUOUS
 10
472.2302601772
 20
137.5350968531
 11
472.1777753281
 21
137.4844003819
  0
LINE
  5
66F
100
AcDbEntity
  8
0
100
AcDbLine
 62
7
  6
CONTINUOUS
 10
471.5687345306
 20
136.8207291731
 11
471.5193831098
 21
136.7730593612
  0
LINE
  5
670
100
AcDbEntity
  8
0
100
AcDbLine
 62
7
  6
CONTINUOUS
 10
471.9667836871
 20
137.1919148749
 11
471.9393825183
 21
137.1654473784
  0
LINE
  5
671
100
AcDbEntity
  8
0
100
AcDbLine
 62
7
  6
CONTINUOUS
 10
471.7119152427
 20
136.8832467187
 11
471.6612982604
 21
136.8343544683
  0
LINE
  5
672
100
AcDbEntity
  8
0
100
AcDbLine
 62
7
  6
CONTINUOUS
 10
471.8210333435
 20
136.9783033743
 11
471.7958490671
 21
136.9539772313
  0
LINE
  5
673
100
AcDbEntity
  8
0
100
AcDbLine
 62
7
  6
CONTINUOUS
 10
471.651917268
 20
136.8094572512
 11
471.5797605144
 21
136.7397591794
  0
LINE
  5
674
100
AcDbEntity
  8
0
100
AcDbLine
 62
7
  6
CONTINUOUS
 10
472.3085439097
 20
137.4272359187
 11
472.2690874387
 21
137.3891238944
  0
LINE
  5
675
100
AcDbEntity
  8
0
100
AcDbLine
 62
7
  6
CONTINUOUS
 10
471.786400146
 20
136.7639271863
 11
471.6941225294
 21
136.6747938533
  0
LINE
  5
676
100
AcDbEntity
  8
0
100
AcDbLine
 62
7
  6
CONTINUOUS
 10
472.1911792238
 20
136.9196754762
 11
472.1579876635
 21
136.8876148909
  0
LINE
  5
677
100
AcDbEntity
  8
0
100
AcDbLine
 62
7
  6
CONTINUOUS
 10
472.0366050972
 20
136.7688274672
 11
472.0041670617
 21
136.7374947309
  0
LINE
  5
678
100
AcDbEntity
  8
0
100
AcDbLine
 62
7
  6
CONTINUOUS
 10
472.1359517823
 20
136.6873426179
 11
472.1012968537
 21
136.6538685273
  0
LINE
  5
679
100
AcDbEntity
  8
0
100
AcDbLine
 62
7
  6
CONTINUOUS
 10
472.2993498386
 20
136.7754270317
 11
472.257798717
 21
136.7352917302
  0
LINE
  5
67A
100
AcDbEntity
  8
0
100
AcDbLine
 62
7
  6
CONTINUOUS
 10
472.2433529386
 20
136.622115134
 11
472.2042642248
 21
136.5843583358
  0
LINE
  5
67B
100
AcDbEntity
  8
0
100
AcDbLine
 62
7
  6
CONTINUOUS
 10
472.3576546494
 20
136.6916763139
 11
472.3107091228
 21
136.6463304174
  0
LINE
  5
67C
100
AcDbEntity
  8
0
100
AcDbLine
 62
7
  6
CONTINUOUS
 10
472.3008885145
 20
136.6173852543
 11
472.2343986031
 21
136.5531609316
  0
LINE
  5
67D
100
AcDbEntity
  8
0
100
AcDbLine
 62
7
  6
CONTINUOUS
 10
472.4243987078
 20
136.5846724611
 11
472.329704554
 21
136.4932049324
  0
LINE
  5
67E
100
AcDbEntity
  8
0
100
AcDbLine
 62
7
  6
CONTINUOUS
 10
472.4497162185
 20
136.5149131893
 11
472.3990342434
 21
136.4659581606
  0
LINE
  5
67F
100
AcDbEntity
  8
0
100
AcDbLine
 62
7
  6
CONTINUOUS
 10
471.6513270521
 20
135.6792185104
 11
471.584339754
 21
135.6145137492
  0
LINE
  5
680
100
AcDbEntity
  8
0
100
AcDbLine
 62
7
  6
CONTINUOUS
 10
471.8246723354
 20
135.3823703019
 11
472.1161221579
 21
135.6638892126
  0
LINE
  5
681
100
AcDbEntity
  8
0
100
AcDbLine
 62
7
  6
CONTINUOUS
 10
472.0048804427
 20
135.3377121595
 11
471.9378931446
 21
135.2730073982
  0
LINE
  5
682
100
AcDbEntity
  8
0
100
AcDbLine
 62
7
  6
CONTINUOUS
 10
474.6399119593
 20
135.7688861832
 11
474.4332154411
 21
135.569232678
  0
LINE
  5
683
100
AcDbEntity
  8
0
100
AcDbLine
 62
7
  6
CONTINUOUS
 10
475.0912212805
 20
134.5027749062
 11
475.0020544438
 21
134.4166463558
  0
LINE
  5
684
100
AcDbEntity
  8
0
100
AcDbLine
 62
7
  6
CONTINUOUS
 10
478.722394864
 20
134.9313390514
 11
478.3688414734
 21
134.5898327005
  0
LINE
  5
685
100
AcDbEntity
  8
0
100
AcDbLine
 62
7
  6
CONTINUOUS
 10
479.0759482545
 20
134.4604231779
 11
478.722394864
 21
134.118916827
  0
LINE
  5
686
100
AcDbEntity
  8
0
100
AcDbLine
 62
7
  6
CONTINUOUS
 10
480.9626698405
 20
132.0125107224
 11
480.9087815905
 21
131.96045867
  0
LINE
  5
687
100
AcDbEntity
  8
0
100
AcDbLine
 62
7
  6
CONTINUOUS
 10
481.2033870139
 20
132.0172465688
 11
480.9626698405
 21
131.7847316342
  0
LINE
  5
688
100
AcDbEntity
  8
0
100
AcDbLine
 62
7
  6
CONTINUOUS
 10
478.3688414734
 20
129.1905978425
 11
478.3018541753
 21
129.1258930812
  0
LINE
  5
689
100
AcDbEntity
  8
0
100
AcDbLine
 62
7
  6
CONTINUOUS
 10
481.2033870139
 20
131.7799957877
 11
481.0549356684
 21
131.6366027992
  0
LINE
  5
68A
100
AcDbEntity
  8
0
100
AcDbLine
 62
7
  6
CONTINUOUS
 10
481.2033870139
 20
131.6721545138
 11
481.1171658155
 21
131.5888712315
  0
LINE
  5
68B
100
AcDbEntity
  8
0
100
AcDbLine
 62
7
  6
CONTINUOUS
 10
478.722394864
 20
129.1522342305
 11
478.4984893374
 21
128.9359580997
  0
LINE
  5
68C
100
AcDbEntity
  8
0
100
AcDbLine
 62
7
  6
CONTINUOUS
 10
479.0759482545
 20
128.5075851406
 11
479.0089609564
 21
128.4428803793
  0
LINE
  5
68D
100
AcDbEntity
  8
0
100
AcDbLine
 62
7
  6
CONTINUOUS
 10
482.2866143785
 20
130.7336785005
 11
482.2307916274
 21
130.6797578635
  0
LINE
  5
68E
100
AcDbEntity
  8
0
100
AcDbLine
 62
7
  6
CONTINUOUS
 10
482.4671523007
 20
130.580860492
 11
482.4004009373
 21
130.5163836261
  0
LINE
  5
68F
100
AcDbEntity
  8
0
100
AcDbLine
 62
7
  6
CONTINUOUS
 10
482.5875108874
 20
130.529307786
 11
482.4952153712
 21
130.4401571632
  0
LINE
  5
690
100
AcDbEntity
  8
0
100
AcDbLine
 62
7
  6
CONTINUOUS
 10
482.6476902018
 20
130.5790203213
 11
482.5000173626
 21
130.436379312
  0
LINE
  5
691
100
AcDbEntity
  8
0
100
AcDbLine
 62
7
  6
CONTINUOUS
 10
482.8884073963
 20
130.3465053663
 11
482.821656025
 21
130.2820284928
  0
LINE
  5
692
100
AcDbEntity
  8
0
100
AcDbLine
 62
7
  6
CONTINUOUS
 10
483.6721423323
 20
130.1502501382
 11
483.3185889417
 21
129.8087437872
  0
LINE
  5
693
100
AcDbEntity
  8
0
100
AcDbLine
 62
7
  6
CONTINUOUS
 10
464.1787354163
 20
148.4186607333
 11
464.1185561018
 21
148.3689481979
  0
LINE
  5
694
100
AcDbEntity
  8
0
100
AcDbLine
 62
7
  6
CONTINUOUS
 10
447.7977567835
 20
160.7366298214
 11
447.8729809002
 21
160.771810186
  0
LINE
  5
695
100
AcDbEntity
  8
0
100
AcDbLine
 62
7
  6
CONTINUOUS
 10
447.7225326668
 20
160.5396875536
 11
447.7977567835
 21
160.5748679182
  0
LINE
  5
696
100
AcDbEntity
  8
0
100
AcDbLine
 62
7
  6
CONTINUOUS
 10
448.9261186919
 20
159.4310333493
 11
448.8508945752
 21
159.3958530041
  0
LINE
  5
697
100
AcDbEntity
  8
0
100
AcDbLine
 62
7
  6
CONTINUOUS
 10
452.3902793222
 20
155.7815690098
 11
452.4225039552
 21
155.7933718356
  0
LINE
  5
698
100
AcDbEntity
  8
0
100
AcDbLine
 62
7
  6
CONTINUOUS
 10
453.0650861657
 20
155.1627388048
 11
453.0328615327
 21
155.150935979
  0
LINE
  5
699
100
AcDbEntity
  8
0
100
AcDbLine
 62
7
  6
CONTINUOUS
 10
483.3185889417
 20
124.4095089292
 11
483.2516016436
 21
124.3448041679
  0
LINE
  5
69A
100
AcDbEntity
  8
RUNDUNGEN
100
AcDbLine
 62
7
  6
CONTINUOUS
 10
490.5550105811
 20
118.1448895475
 11
493.509836316
 21
120.999032037
  0
LINE
  5
69B
100
AcDbEntity
  8
RUNDUNGEN
100
AcDbLine
 62
7
  6
CONTINUOUS
 10
498.5152046419
 20
112.7504344429
 11
502.0507385478
 21
116.1654979523
  0
LINE
  5
69C
100
AcDbEntity
  8
0
100
AcDbLine
 62
7
  6
CONTINUOUS
 10
482.6476902018
 20
130.5790203213
 11
482.5875108874
 21
130.529307786
  0
LINE
  5
69D
100
AcDbEntity
  8
0
100
AcDbLine
 62
7
  6
CONTINUOUS
 10
470.4242039726
 20
138.1226976713
 11
470.3923213918
 21
138.0997114577
  0
LINE
  5
69E
100
AcDbEntity
  8
0
100
AcDbLine
 62
7
  6
CONTINUOUS
 10
470.892276252
 20
137.5950586186
 11
470.8603936712
 21
137.5720724051
  0
LINE
  5
69F
100
AcDbEntity
  8
0
100
AcDbLine
 62
7
  6
CONTINUOUS
 10
471.777702329
 20
136.6558795736
 11
471.8095849158
 21
136.6788657887
  0
LINE
  5
6A0
100
AcDbEntity
  8
RUNDUNGEN
100
AcDbLine
 62
7
  6
CONTINUOUS
 10
498.4595837843
 20
98.1840660564
 11
501.9951176902
 21
101.5991295659
  0
ARC
  5
6A1
100
AcDbEntity
  8
KONSTRUKTIONSELEMENTE
100
AcDbCircle
 62
7
  6
CONTINUOUS
 10
665.9952884975
 20
153.630602029
 40
35.9892
100
AcDbArc
 50
42.8980709415
 51
64.9991254185
  0
ARC
  5
6A2
100
AcDbEntity
  8
KONSTRUKTIONSELEMENTE
100
AcDbCircle
 62
7
  6
CONTINUOUS
 10
665.9952884975
 20
153.630602029
 40
35.9892
100
AcDbArc
 50
85.0008745815
 51
107.1019290585
  0
ARC
  5
6A3
100
AcDbEntity
  8
0
100
AcDbCircle
 62
7
  6
CONTINUOUS
 10
666.2684960083
 20
154.7762298607
 40
20.7886779251
100
AcDbArc
 50
81.7963461049
 51
82.1071930506
  0
ARC
  5
6A4
100
AcDbEntity
  8
0
100
AcDbCircle
 62
7
  6
CONTINUOUS
 10
666.3314977696
 20
154.7593485925
 40
20.7886779223
100
AcDbArc
 50
67.8928069493
 51
68.2036538951
  0
ARC
  5
6A5
100
AcDbEntity
  8
BEZUGSACHSEN
100
AcDbCircle
 62
7
  6
CONTINUOUS
 10
689.9979596851
 20
243.2097904184
 40
15.25
100
AcDbArc
 50
121.1992889705
 51
28.8007110295
  0
ARC
  5
6A6
100
AcDbEntity
  8
0
100
AcDbCircle
 62
7
  6
CONTINUOUS
 10
726.5561498058
 20
379.6468133817
 40
11.0
100
AcDbArc
 50
345.0
 51
165.0
  0
ARC
  5
6A7
100
AcDbEntity
  8
0
100
AcDbCircle
 62
7
  6
CONTINUOUS
 10
691.0979406268
 20
247.3149751801
 40
11.0
100
AcDbArc
 50
165.0
 51
345.0
  0
ARC
  5
6A8
100
AcDbEntity
  8
RUNDUNGEN
100
AcDbCircle
 62
7
  6
CONTINUOUS
 10
663.1182772758
 20
227.8949226888
 40
6.5
100
AcDbArc
 50
95.0629909694
 51
165.0
  0
ARC
  5
6A9
100
AcDbEntity
  8
RUNDUNGEN
100
AcDbCircle
 62
7
  6
CONTINUOUS
 10
705.6190136325
 20
216.5068847043
 40
6.5
100
AcDbArc
 50
345.0
 51
54.9370090306
  0
ARC
  5
6AA
100
AcDbEntity
  8
KONSTRUKTIONSELEMENTE
100
AcDbCircle
 62
7
  6
CONTINUOUS
 10
681.7933959554
 20
212.589941725
 40
6.25
100
AcDbArc
 50
345.0
 51
165.0
  0
ARC
  5
6AB
100
AcDbEntity
  8
RUNDUNGEN
100
AcDbCircle
 62
7
  6
CONTINUOUS
 10
706.6668311999
 20
217.9999086775
 40
4.6759818433
100
AcDbArc
 50
54.936435674
 51
57.105190896
  0
ARC
  5
6AC
100
AcDbEntity
  8
RUNDUNGEN
100
AcDbCircle
 62
7
  6
CONTINUOUS
 10
662.9573526304
 20
229.7118281616
 40
4.6759818434
100
AcDbArc
 50
92.8948091041
 51
95.063564326
  0
ARC
  5
6AD
100
AcDbEntity
  8
KONSTRUKTIONSELEMENTE
100
AcDbCircle
 62
7
  6
CONTINUOUS
 10
668.9518449111
 20
164.6646207797
 40
2.5
100
AcDbArc
 50
165.0
 51
345.0
  0
ARC
  5
6AE
100
AcDbEntity
  8
KONSTRUKTIONSELEMENTE
100
AcDbCircle
 62
7
  6
CONTINUOUS
 10
674.7790445995
 20
186.4120260829
 40
2.5
100
AcDbArc
 50
345.0
 51
165.0
  0
CIRCLE
  5
6AF
100
AcDbEntity
  8
BEZUGSACHSEN
100
AcDbCircle
 62
7
  6
CONTINUOUS
 10
660.9325499609
 20
204.6692344083
 40
2.5
  0
ARC
  5
6B0
100
AcDbEntity
  8
KONSTRUKTIONSELEMENTE
100
AcDbCircle
 62
7
  6
CONTINUOUS
 10
676.8741861631
 20
194.2312008473
 40
2.25
100
AcDbArc
 50
194.2743903904
 51
315.7256096096
  0
ARC
  5
6B1
100
AcDbEntity
  8
KONSTRUKTIONSELEMENTE
100
AcDbCircle
 62
7
  6
CONTINUOUS
 10
682.5957957102
 20
215.584538378
 40
2.25
100
AcDbArc
 50
345.0
 51
165.0
  0
ARC
  5
6B2
100
AcDbEntity
  8
0
100
AcDbCircle
 62
7
  6
CONTINUOUS
 10
678.8531095538
 20
153.4641484264
 40
2.1292118706
100
AcDbArc
 50
335.5636876715
 51
340.3957076166
  0
ARC
  5
6B3
100
AcDbEntity
  8
0
100
AcDbCircle
 62
7
  6
CONTINUOUS
 10
656.1832605212
 20
158.8844660441
 40
0.416959771
100
AcDbArc
 50
63.8903114983
 51
74.9692795105
  0
ARC
  5
6B4
100
AcDbEntity
  8
KONSTRUKTIONSELEMENTE
100
AcDbCircle
 62
7
  6
CONTINUOUS
 10
830.5986106914
 20
153.630602029
 40
35.9892
100
AcDbArc
 50
115.0008745815
 51
137.1019290585
  0
ARC
  5
6B5
100
AcDbEntity
  8
KONSTRUKTIONSELEMENTE
100
AcDbCircle
 62
7
  6
CONTINUOUS
 10
830.5986106914
 20
153.630602029
 40
35.9892
100
AcDbArc
 50
72.8980709415
 51
94.9991254185
  0
ARC
  5
6B6
100
AcDbEntity
  8
BEZUGSACHSEN
100
AcDbCircle
 62
7
  6
CONTINUOUS
 10
806.5959395038
 20
243.2097904184
 40
15.25
100
AcDbArc
 50
151.1992889705
 51
58.8007110295
  0
ARC
  5
6B7
100
AcDbEntity
  8
0
100
AcDbCircle
 62
7
  6
CONTINUOUS
 10
770.0377493831
 20
379.6468133817
 40
11.0
100
AcDbArc
 50
15.0
 51
195.0
  0
ARC
  5
6B8
100
AcDbEntity
  8
0
100
AcDbCircle
 62
7
  6
CONTINUOUS
 10
805.4959585621
 20
247.3149751801
 40
11.0
100
AcDbArc
 50
195.0
 51
15.0
  0
ARC
  5
6B9
100
AcDbEntity
  8
0
100
AcDbCircle
 62
7
  6
CONTINUOUS
 10
790.9748855564
 20
216.5068847043
 40
6.5
100
AcDbArc
 50
125.0629909694
 51
195.0
  0
ARC
  5
6BA
100
AcDbEntity
  8
0
100
AcDbCircle
 62
7
  6
CONTINUOUS
 10
833.4756219131
 20
227.8949226888
 40
6.5
100
AcDbArc
 50
15.0
 51
84.9370090306
  0
ARC
  5
6BB
100
AcDbEntity
  8
0
100
AcDbCircle
 62
7
  6
CONTINUOUS
 10
814.8005032335
 20
212.589941725
 40
6.25
100
AcDbArc
 50
15.0
 51
195.0
  0
ARC
  5
6BC
100
AcDbEntity
  8
0
100
AcDbCircle
 62
7
  6
CONTINUOUS
 10
789.927067989
 20
217.9999086775
 40
4.6759818433
100
AcDbArc
 50
122.894809104
 51
125.063564326
  0
ARC
  5
6BD
100
AcDbEntity
  8
0
100
AcDbCircle
 62
7
  6
CONTINUOUS
 10
833.6365465585
 20
229.7118281616
 40
4.6759818434
100
AcDbArc
 50
84.936435674
 51
87.1051908959
  0
CIRCLE
  5
6BE
100
AcDbEntity
  8
BEZUGSACHSEN
100
AcDbCircle
 62
7
  6
CONTINUOUS
 10
835.661349228
 20
204.6692344083
 40
2.5
  0
ARC
  5
6BF
100
AcDbEntity
  8
0
100
AcDbCircle
 62
7
  6
CONTINUOUS
 10
748.2969495944
 20
460.78458279
 40
127.0
100
AcDbArc
 50
180.0
 51
250.0306143891
  0
ARC
  5
6C0
100
AcDbEntity
  8
0
100
AcDbCircle
 62
7
  6
CONTINUOUS
 10
748.2969495944
 20
460.78458279
 40
127.0
100
AcDbArc
 50
259.9691585958
 51
280.0308414042
  0
ARC
  5
6C1
100
AcDbEntity
  8
0
100
AcDbCircle
 62
7
  6
CONTINUOUS
 10
748.2969495944
 20
460.78458279
 40
127.0
100
AcDbArc
 50
289.9693856109
 51
360.0
  0
ARC
  5
6C2
100
AcDbEntity
  8
0
100
AcDbCircle
 62
7
  6
CONTINUOUS
 10
748.2969495944
 20
620.78458279
 40
127.0
100
AcDbArc
 50
0.0
 51
180.0
  0
ARC
  5
6C3
100
AcDbEntity
  8
0
100
AcDbCircle
 62
7
  6
CONTINUOUS
 10
748.2969495944
 20
460.78458279
 40
95.0
100
AcDbArc
 50
180.0
 51
248.3498212958
  0
ARC
  5
6C4
100
AcDbEntity
  8
0
100
AcDbCircle
 62
7
  6
CONTINUOUS
 10
748.2969495944
 20
460.78458279
 40
95.0
100
AcDbArc
 50
261.6494574232
 51
278.3505425768
  0
ARC
  5
6C5
100
AcDbEntity
  8
0
100
AcDbCircle
 62
7
  6
CONTINUOUS
 10
748.2969495944
 20
460.78458279
 40
95.0
100
AcDbArc
 50
291.6501787042
 51
360.0
  0
ARC
  5
6C6
100
AcDbEntity
  8
0
100
AcDbCircle
 62
7
  6
CONTINUOUS
 10
748.2969495944
 20
620.78458279
 40
95.0
100
AcDbArc
 50
0.0
 51
180.0
  0
ARC
  5
6C7
100
AcDbEntity
  8
0
100
AcDbCircle
 62
7
  6
CONTINUOUS
 10
255.1154953264
 20
243.0605902622
 40
68.0533628839
100
AcDbArc
 50
1.1179579149
 51
7.7631075426
  0
ARC
  5
6C8
100
AcDbEntity
  8
0
100
AcDbCircle
 62
7
  6
CONTINUOUS
 10
319.623369097
 20
229.893632915
 40
41.8636985428
100
AcDbArc
 50
268.7681409833
 51
271.2318590167
  0
ARC
  5
6C9
100
AcDbEntity
  8
0
100
AcDbCircle
 62
7
  6
CONTINUOUS
 10
319.623369097
 20
136.2681825487
 40
41.8636985428
100
AcDbArc
 50
88.7681409833
 51
91.2318590167
  0
ARC
  5
6CA
100
AcDbEntity
  8
0
100
AcDbCircle
 62
7
  6
CONTINUOUS
 10
319.623369097
 20
349.78458279
 40
16.0
100
AcDbArc
 50
180.0
 51
360.0
  0
ARC
  5
6CB
100
AcDbEntity
  8
KONSTRUKTIONSELEMENTE
100
AcDbCircle
 62
7
  6
CONTINUOUS
 10
318.5910023602
 20
192.5658541199
 40
15.9323696342
100
AcDbArc
 50
352.2188103503
 51
0.0345548489
  0
ARC
  5
6CC
100
AcDbEntity
  8
0
100
AcDbCircle
 62
7
  6
CONTINUOUS
 10
318.7277522209
 20
201.7749363887
 40
12.5118777133
100
AcDbArc
 50
259.5268864296
 51
269.979928312
  0
ARC
  5
6CD
100
AcDbEntity
  8
RUNDUNGEN
100
AcDbCircle
 62
7
  6
CONTINUOUS
 10
320.5189859731
 20
201.7749363887
 40
12.5118777133
100
AcDbArc
 50
270.020071688
 51
280.4731135704
  0
ARC
  5
6CE
100
AcDbEntity
  8
BEZUGSACHSEN
100
AcDbCircle
 62
7
  6
CONTINUOUS
 10
319.623369097
 20
266.4597904184
 40
8.0
100
AcDbArc
 50
0.0
 51
27.5650942734
  0
ARC
  5
6CF
100
AcDbEntity
  8
BEZUGSACHSEN
100
AcDbCircle
 62
7
  6
CONTINUOUS
 10
319.623369097
 20
266.4597904184
 40
8.0
100
AcDbArc
 50
152.4349057266
 51
180.0
  0
ARC
  5
6D0
100
AcDbEntity
  8
BEZUGSACHSEN
100
AcDbCircle
 62
7
  6
CONTINUOUS
 10
320.0748093954
 20
206.8409943833
 40
6.6618750327
100
AcDbArc
 50
4.4686945854
 51
5.8512461556
  0
ARC
  5
6D1
100
AcDbEntity
  8
BEZUGSACHSEN
100
AcDbCircle
 62
7
  6
CONTINUOUS
 10
319.1719287986
 20
206.8409943833
 40
6.6618750327
100
AcDbArc
 50
174.1487538444
 51
175.5313054146
  0
ARC
  5
6D2
100
AcDbEntity
  8
BEZUGSACHSEN
100
AcDbCircle
 62
7
  6
CONTINUOUS
 10
320.0902037772
 20
206.8421448568
 40
6.6464378108
100
AcDbArc
 50
2.1757275003
 51
4.4691468841
  0
ARC
  5
6D3
100
AcDbEntity
  8
BEZUGSACHSEN
100
AcDbCircle
 62
7
  6
CONTINUOUS
 10
319.1565344168
 20
206.8421448568
 40
6.6464378108
100
AcDbArc
 50
175.5308531159
 51
177.8242724997
  0
ARC
  5
6D4
100
AcDbEntity
  8
0
100
AcDbCircle
 62
7
  6
CONTINUOUS
 10
312.623369097
 20
229.8949226888
 40
4.5
100
AcDbArc
 50
93.5269446663
 51
180.0
  0
ARC
  5
6D5
100
AcDbEntity
  8
RUNDUNGEN
100
AcDbCircle
 62
7
  6
CONTINUOUS
 10
326.623369097
 20
229.8949226888
 40
4.5
100
AcDbArc
 50
0.0
 51
86.4730553337
  0
ARC
  5
6D6
100
AcDbEntity
  8
RUNDUNGEN
100
AcDbCircle
 62
7
  6
CONTINUOUS
 10
326.8399639689
 20
233.0989674499
 40
1.2889230204
100
AcDbArc
 50
95.5523309875
 51
99.6740715622
  0
ARC
  5
6D7
100
AcDbEntity
  8
0
100
AcDbCircle
 62
7
  6
CONTINUOUS
 10
312.4067742251
 20
233.0989674499
 40
1.2889230205
100
AcDbArc
 50
80.3259284378
 51
84.4476690125
  0
ARC
  5
6D8
100
AcDbEntity
  8
0
100
AcDbCircle
 62
7
  6
CONTINUOUS
 10
319.623369097
 20
731.78458279
 40
16.0
100
AcDbArc
 50
0.0
 51
180.0
  0
ARC
  5
6D9
100
AcDbEntity
  8
0
100
AcDbCircle
 62
7
  6
CONTINUOUS
 10
384.1312428675
 20
243.0605902622
 40
68.0533628839
100
AcDbArc
 50
172.2368924574
 51
178.8820420851
  0
ARC
  5
6DA
100
AcDbEntity
  8
KONSTRUKTIONSELEMENTE
100
AcDbCircle
 62
7
  6
CONTINUOUS
 10
367.8039188744
 20
194.0826926245
 40
33.1455707138
100
AcDbArc
 50
44.5353474264
 51
45.9812535784
  0
ARC
  5
6DB
100
AcDbEntity
  8
0
100
AcDbCircle
 62
7
  6
CONTINUOUS
 10
455.6149992388
 20
182.873214937
 40
27.7883269923
100
AcDbArc
 50
212.7611859226
 51
213.1844850492
  0
ARC
  5
6DC
100
AcDbEntity
  8
KONSTRUKTIONSELEMENTE
100
AcDbCircle
 62
7
  6
CONTINUOUS
 10
430.5049198976
 20
192.2155289399
 40
15.668814075
100
AcDbArc
 50
233.375335495
 51
233.5160582164
  0
ARC
  5
6DD
100
AcDbEntity
  8
KONSTRUKTIONSELEMENTE
100
AcDbCircle
 62
7
  6
CONTINUOUS
 10
370.5423413717
 20
220.3807096685
 40
12.2468399726
100
AcDbArc
 50
55.2809419385
 51
55.5610984189
  0
ARC
  5
6DE
100
AcDbEntity
  8
KONSTRUKTIONSELEMENTE
100
AcDbCircle
 62
7
  6
CONTINUOUS
 10
370.7326313293
 20
220.6581334886
 40
11.9104261773
100
AcDbArc
 50
55.5613249795
 51
55.796652166
  0
ARC
  5
6DF
100
AcDbEntity
  8
KONSTRUKTIONSELEMENTE
100
AcDbCircle
 62
7
  6
CONTINUOUS
 10
434.0684754348
 20
171.7668419115
 40
9.5884911819
100
AcDbArc
 50
236.0268349387
 51
236.3676276842
  0
ARC
  5
6E0
100
AcDbEntity
  8
KONSTRUKTIONSELEMENTE
100
AcDbCircle
 62
7
  6
CONTINUOUS
 10
434.0324654211
 20
171.7169454498
 40
9.5269897232
100
AcDbArc
 50
226.0240797546
 51
236.038747037
  0
ARC
  5
6E1
100
AcDbEntity
  8
KONSTRUKTIONSELEMENTE
100
AcDbCircle
 62
7
  6
CONTINUOUS
 10
434.363749993
 20
171.3610477679
 40
9.3523666147
100
AcDbArc
 50
45.4559945702
 51
45.9929150436
  0
ARC
  5
6E2
100
AcDbEntity
  8
KONSTRUKTIONSELEMENTE
100
AcDbCircle
 62
7
  6
CONTINUOUS
 10
373.1990134242
 20
230.4416464855
 40
9.3523666093
100
AcDbArc
 50
45.4559945701
 51
45.9929150437
  0
ARC
  5
6E3
100
AcDbEntity
  8
KONSTRUKTIONSELEMENTE
100
AcDbCircle
 62
7
  6
CONTINUOUS
 10
425.2876452237
 20
179.5990932713
 40
9.1128567777
100
AcDbArc
 50
155.3174888113
 51
179.9666787515
  0
ARC
  5
6E4
100
AcDbEntity
  8
KONSTRUKTIONSELEMENTE
100
AcDbCircle
 62
7
  6
CONTINUOUS
 10
364.1065033996
 20
238.6817591712
 40
9.0964505595
100
AcDbArc
 50
177.1004097403
 51
179.9796392337
  0
ARC
  5
6E5
100
AcDbEntity
  8
KONSTRUKTIONSELEMENTE
100
AcDbCircle
 62
7
  6
CONTINUOUS
 10
405.0136980935
 20
199.6937698387
 40
7.8374984542
100
AcDbArc
 50
45.416289493
 51
45.9929054454
  0
ARC
  5
6E6
100
AcDbEntity
  8
KONSTRUKTIONSELEMENTE
100
AcDbCircle
 62
7
  6
CONTINUOUS
 10
393.864968756
 20
210.0275998767
 40
7.6417945598
100
AcDbArc
 50
159.7236942383
 51
179.9651547733
  0
ARC
  5
6E7
100
AcDbEntity
  8
KONSTRUKTIONSELEMENTE
100
AcDbCircle
 62
7
  6
CONTINUOUS
 10
434.0757923474
 20
171.7810371438
 40
4.6043705747
100
AcDbArc
 50
242.0199750404
 51
243.5823552669
  0
ARC
  5
6E8
100
AcDbEntity
  8
KONSTRUKTIONSELEMENTE
100
AcDbCircle
 62
7
  6
CONTINUOUS
 10
433.9394680223
 20
171.6133031828
 40
4.3878335167
100
AcDbArc
 50
225.9937050332
 51
227.0555598991
  0
ARC
  5
6E9
100
AcDbEntity
  8
KONSTRUKTIONSELEMENTE
100
AcDbCircle
 62
7
  6
CONTINUOUS
 10
372.7747314485
 20
230.6939018953
 40
4.387833515
100
AcDbArc
 50
225.993705033
 51
227.0555598993
  0
ARC
  5
6EA
100
AcDbEntity
  8
KONSTRUKTIONSELEMENTE
100
AcDbCircle
 62
7
  6
CONTINUOUS
 10
373.4103230017
 20
230.5583237987
 40
4.1141852318
100
AcDbArc
 50
334.689527825
 51
359.9772912731
  0
ARC
  5
6EB
100
AcDbEntity
  8
KONSTRUKTIONSELEMENTE
100
AcDbCircle
 62
7
  6
CONTINUOUS
 10
425.2591686517
 20
179.6029865461
 40
4.0843599359
100
AcDbArc
 50
179.6607782887
 51
180.0341463984
  0
ARC
  5
6EC
100
AcDbEntity
  8
KONSTRUKTIONSELEMENTE
100
AcDbCircle
 62
7
  6
CONTINUOUS
 10
404.6630494083
 20
199.8947693166
 40
3.3624399511
100
AcDbArc
 50
225.9940708966
 51
227.2341816412
  0
ARC
  5
6ED
100
AcDbEntity
  8
KONSTRUKTIONSELEMENTE
100
AcDbCircle
 62
7
  6
CONTINUOUS
 10
405.2009624093
 20
199.7859539151
 40
3.1286794214
100
AcDbArc
 50
342.3964861857
 51
359.9749659755
  0
ARC
  5
6EE
100
AcDbEntity
  8
0
100
AcDbCircle
 62
7
  6
CONTINUOUS
 10
452.4193292912
 20
151.8540314836
 40
2.4507200793
100
AcDbArc
 50
73.4227411234
 51
74.4713825165
  0
ARC
  5
6EF
100
AcDbEntity
  8
0
100
AcDbCircle
 62
7
  6
CONTINUOUS
 10
471.4293769567
 20
133.3907445526
 40
2.4315780457
100
AcDbArc
 50
72.2129098421
 51
73.4479689093
  0
ARC
  5
6F0
100
AcDbEntity
  8
0
100
AcDbCircle
 62
7
  6
CONTINUOUS
 10
452.4629107447
 20
152.010243285
 40
2.2885428948
100
AcDbArc
 50
74.4756292382
 51
75.1643956867
  0
SPLINE
  5
6F1
100
AcDbEntity
  8
KONSTRUKTIONSELEMENTE
100
AcDbSpline
 62
7
  6
CONTINUOUS
 70
0
 71
3
 72
10
 73
6
 74
0
 42
0.0000001
 43
0.0000001
 44
0.0000000001
 40
0.0
 40
0.0
 40
0.0
 40
0.0
 40
0.3192646009
 40
0.6086079864
 40
1.0
 40
1.0
 40
1.0
 40
1.0
 10
677.7168566228
 20
183.853128249
 30
0.0
 10
677.6724070982
 20
183.6872403647
 30
0.0
 10
677.4521879772
 20
183.4140782801
 30
0.0
 10
676.9970394233
 20
183.12880666
 30
0.0
 10
676.648947086
 20
183.001522573
 30
0.0
 10
676.4454766629
 20
182.9474267259
 30
0.0
  0
SPLINE
  5
6F2
100
AcDbEntity
  8
KONSTRUKTIONSELEMENTE
100
AcDbSpline
 62
7
  6
CONTINUOUS
 70
0
 71
3
 72
10
 73
6
 74
0
 42
0.0000001
 43
0.0000001
 44
0.0000000001
 40
0.0
 40
0.0
 40
0.0
 40
0.0
 40
0.3914026107
 40
0.6807340322
 40
1.0
 40
1.0
 40
1.0
 40
1.0
 10
671.6034975839
 20
184.244885432
 30
0.0
 10
671.4543439116
 20
184.3934674625
 30
0.0
 10
671.2165807144
 20
184.6777509008
 30
0.0
 10
670.9650181542
 20
185.1523293102
 30
0.0
 10
670.9109288997
 20
185.4989833296
 30
0.0
 10
670.9553758388
 20
185.6648615647
 30
0.0
  0
SPLINE
  5
6F3
100
AcDbEntity
  8
KONSTRUKTIONSELEMENTE
100
AcDbSpline
 62
7
  6
CONTINUOUS
 70
0
 71
3
 72
13
 73
9
 74
0
 42
0.0000001
 43
0.0000001
 44
0.0000000001
 40
0.0
 40
0.0
 40
0.0
 40
0.0
 40
0.1197290731
 40
0.2397365246
 40
0.3609040964
 40
0.4836831257
 40
0.7359942557
 40
1.0
 40
1.0
 40
1.0
 40
1.0
 10
682.0635228411
 20
182.688442546
 30
0.0
 10
681.9731396842
 20
182.3511280123
 30
0.0
 10
681.7219725165
 20
181.6923463831
 30
0.0
 10
681.1530687692
 20
180.7989287934
 30
0.0
 10
680.4181201326
 20
180.0241700139
 30
0.0
 10
679.2442048375
 20
179.1659852046
 30
0.0
 10
677.4856519411
 20
178.4599305407
 30
0.0
 10
675.9697923424
 20
178.3002781265
 30
0.0
 10
675.1998273413
 20
178.3099197734
 30
0.0
  0
SPLINE
  5
6F4
100
AcDbEntity
  8
KONSTRUKTIONSELEMENTE
100
AcDbSpline
 62
7
  6
CONTINUOUS
 70
0
 71
3
 72
13
 73
9
 74
0
 42
0.0000001
 43
0.0000001
 44
0.0000000001
 40
0.0
 40
0.0
 40
0.0
 40
0.0
 40
0.2640112835
 40
0.5163080567
 40
0.6390830379
 40
0.7602378991
 40
0.8802701562
 40
1.0
 40
1.0
 40
1.0
 40
1.0
 10
670.3627741966
 20
179.6062601667
 30
0.0
 10
669.6912430462
 20
179.9829346923
 30
0.0
 10
668.4585049826
 20
180.8790932752
 30
0.0
 10
667.288872266
 20
182.3697549022
 30
0.0
 10
666.7014861384
 20
183.6997143984
 30
0.0
 10
666.4523480923
 20
184.7380539173
 30
0.0
 10
666.4065075393
 20
185.7961605373
 30
0.0
 10
666.5183354976
 20
186.4922664492
 30
0.0
 10
666.6087096205
 20
186.8295472677
 30
0.0
  0
SPLINE
  5
6F5
100
AcDbEntity
  8
KONSTRUKTIONSELEMENTE
100
AcDbSpline
 62
7
  6
CONTINUOUS
 70
0
 71
3
 72
9
 73
5
 74
0
 42
0.0000001
 43
0.0000001
 44
0.0000000001
 40
0.0
 40
0.0
 40
0.0
 40
0.0
 40
0.2444683944
 40
1.0
 40
1.0
 40
1.0
 40
1.0
 10
680.9857651751
 20
230.9254853184
 30
0.0
 10
681.2390716527
 20
231.0267519775
 30
0.0
 10
682.2978436166
 20
231.3836968435
 30
0.0
 10
683.4271341036
 20
231.5163759127
 30
0.0
 10
684.270154532
 20
231.505819452
 30
0.0
  0
SPLINE
  5
6F6
100
AcDbEntity
  8
KONSTRUKTIONSELEMENTE
100
AcDbSpline
 62
7
  6
CONTINUOUS
 70
0
 71
3
 72
9
 73
5
 74
0
 42
0.0000001
 43
0.0000001
 44
0.0000000001
 40
0.0
 40
0.0
 40
0.0
 40
0.0
 40
0.2564950214
 40
1.0
 40
1.0
 40
1.0
 40
1.0
 10
689.1072076768
 20
230.2094790586
 30
0.0
 10
689.3569758219
 20
230.0693793812
 30
0.0
 10
690.3057800511
 20
229.4809133035
 30
0.0
 10
691.1496497685
 20
228.7149146864
 30
0.0
 10
691.6627922383
 20
228.0623863871
 30
0.0
  0
SPLINE
  5
6F7
100
AcDbEntity
  8
KONSTRUKTIONSELEMENTE
100
AcDbSpline
 62
7
  6
CONTINUOUS
 70
0
 71
3
 72
10
 73
6
 74
0
 42
0.0000001
 43
0.0000001
 44
0.0000000001
 40
0.0
 40
0.0
 40
0.0
 40
0.0
 40
0.3116645009
 40
0.6060899939
 40
1.0
 40
1.0
 40
1.0
 40
1.0
 10
685.7694155061
 20
213.9056871322
 30
0.0
 10
685.718388077
 20
213.7152501743
 30
0.0
 10
685.44114311
 20
213.4051125748
 30
0.0
 10
684.8871119978
 20
213.1043862887
 30
0.0
 10
684.4627463499
 20
212.9826625306
 30
0.0
 10
684.2177999956
 20
212.9369122791
 30
0.0
  0
SPLINE
  5
6F8
100
AcDbEntity
  8
KONSTRUKTIONSELEMENTE
100
AcDbSpline
 62
7
  6
CONTINUOUS
 70
0
 71
3
 72
10
 73
6
 74
0
 42
0.0000001
 43
0.0000001
 44
0.0000000001
 40
0.0
 40
0.0
 40
0.0
 40
0.0
 40
0.3939255147
 40
0.6883533687
 40
1.0
 40
1.0
 40
1.0
 40
1.0
 10
679.86749116
 20
214.102458142
 30
0.0
 10
679.6781897131
 20
214.2645665732
 30
0.0
 10
679.3714902339
 20
214.5822154301
 30
0.0
 10
679.0419314812
 20
215.1197037247
 30
0.0
 10
678.9569030335
 20
215.5269675934
 30
0.0
 10
679.0079347221
 20
215.717420448
 30
0.0
  0
SPLINE
  5
6F9
100
AcDbEntity
  8
KONSTRUKTIONSELEMENTE
100
AcDbSpline
 62
7
  6
CONTINUOUS
 70
0
 71
3
 72
9
 73
5
 74
0
 42
0.0000001
 43
0.0000001
 44
0.0000000001
 40
0.0
 40
0.0
 40
0.0
 40
0.0
 40
0.4887193927
 40
1.0
 40
1.0
 40
1.0
 40
1.0
 10
687.4101765427
 20
209.3627562303
 30
0.0
 10
686.7637248457
 20
208.9940909826
 30
0.0
 10
685.3096681204
 20
208.4592947924
 30
0.0
 10
683.7739999163
 20
208.3388649879
 30
0.0
 10
682.9960446247
 20
208.3690664396
 30
0.0
  0
SPLINE
  5
6FA
100
AcDbEntity
  8
KONSTRUKTIONSELEMENTE
100
AcDbSpline
 62
7
  6
CONTINUOUS
 70
0
 71
3
 72
9
 73
5
 74
0
 42
0.0000001
 43
0.0000001
 44
0.0000000001
 40
0.0
 40
0.0
 40
0.0
 40
0.0
 40
0.5112935852
 40
1.0
 40
1.0
 40
1.0
 40
1.0
 10
678.6431977925
 20
209.5349618092
 30
0.0
 10
677.9546822928
 20
209.8974793707
 30
0.0
 10
676.6854541167
 20
210.7687141627
 30
0.0
 10
675.6935633245
 20
211.9576637007
 30
0.0
 10
675.3178531387
 20
212.5995365156
 30
0.0
  0
SPLINE
  5
6FB
100
AcDbEntity
  8
KONSTRUKTIONSELEMENTE
100
AcDbSpline
 62
7
  6
CONTINUOUS
 70
0
 71
3
 72
9
 73
5
 74
0
 42
0.0000001
 43
0.0000001
 44
0.0000000001
 40
0.0
 40
0.0
 40
0.0
 40
0.0
 40
0.4883932588
 40
1.0
 40
1.0
 40
1.0
 40
1.0
 10
703.4904852391
 20
236.0891412314
 30
0.0
 10
701.4523507819
 20
235.4985457438
 30
0.0
 10
697.1048731768
 20
234.854347239
 30
0.0
 10
692.7369205991
 20
235.2028523785
 30
0.0
 10
690.551309153
 20
235.6079555562
 30
0.0
  0
SPLINE
  5
6FC
100
AcDbEntity
  8
KONSTRUKTIONSELEMENTE
100
AcDbSpline
 62
7
  6
CONTINUOUS
 70
0
 71
3
 72
9
 73
5
 74
0
 42
0.0000001
 43
0.0000001
 44
0.0000000001
 40
0.0
 40
0.0
 40
0.0
 40
0.0
 40
0.5116009649
 40
1.0
 40
1.0
 40
1.0
 40
1.0
 10
685.7184625243
 20
236.9028504467
 30
0.0
 10
683.6239687422
 20
237.6444593319
 30
0.0
 10
679.6684944207
 20
239.5256379063
 30
0.0
 10
676.2265077405
 20
242.2554947431
 30
0.0
 10
674.7569243566
 20
243.7850616682
 30
0.0
  0
SPLINE
  5
6FD
100
AcDbEntity
  8
KONSTRUKTIONSELEMENTE
100
AcDbSpline
 62
7
  6
CONTINUOUS
 70
0
 71
3
 72
9
 73
5
 74
0
 42
0.0000001
 43
0.0000001
 44
0.0000000001
 40
0.0
 40
0.0
 40
0.0
 40
0.0
 40
0.2342381365
 40
1.0
 40
1.0
 40
1.0
 40
1.0
 10
705.2491157261
 20
243.3065096436
 30
0.0
 10
704.9037133638
 20
243.1024784234
 30
0.0
 10
703.3878769415
 20
242.3016346459
 30
0.0
 10
701.7329440896
 20
241.7785672919
 30
0.0
 10
700.4487126096
 20
241.5126915338
 30
0.0
  0
SPLINE
  5
6FE
100
AcDbEntity
  8
KONSTRUKTIONSELEMENTE
100
AcDbSpline
 62
7
  6
CONTINUOUS
 70
0
 71
3
 72
9
 73
5
 74
0
 42
0.0000001
 43
0.0000001
 44
0.0000000001
 40
0.0
 40
0.0
 40
0.0
 40
0.0
 40
0.2660085388
 40
1.0
 40
1.0
 40
1.0
 40
1.0
 10
680.0978650815
 20
246.9662561654
 30
0.0
 10
679.75782487
 20
247.2692224315
 30
0.0
 10
678.5214893189
 20
248.4530737066
 30
0.0
 10
677.4557224859
 20
249.8248697064
 30
0.0
 10
676.8382858014
 20
250.9193817385
 30
0.0
  0
SPLINE
  5
6FF
100
AcDbEntity
  8
0
100
AcDbSpline
 62
7
  6
CONTINUOUS
 70
0
 71
3
 72
11
 73
7
 74
0
 42
0.0000001
 43
0.0000001
 44
0.0000000001
 40
0.0
 40
0.0
 40
0.0
 40
0.0
 40
0.2192989281
 40
0.4548225453
 40
0.7152180566
 40
1.0
 40
1.0
 40
1.0
 40
1.0
 10
680.8174474117
 20
152.5690138562
 30
0.0
 10
680.8922368253
 20
152.8481317478
 30
0.0
 10
680.9232996805
 20
153.4661047726
 30
0.0
 10
680.6048971587
 20
154.3727887658
 30
0.0
 10
679.9749296682
 20
155.2026731964
 30
0.0
 10
679.4042883317
 20
155.6516139717
 30
0.0
 10
679.0865244592
 20
155.8512088726
 30
0.0
  0
SPLINE
  5
700
100
AcDbEntity
  8
0
100
AcDbSpline
 62
7
  6
CONTINUOUS
 70
0
 71
3
 72
15
 73
11
 74
0
 42
0.0000001
 43
0.0000001
 44
0.0000000001
 40
0.0
 40
0.0
 40
0.0
 40
0.0
 40
0.1047415988
 40
0.222328371
 40
0.3560160977
 40
0.5
 40
0.6439839023
 40
0.777671629
 40
0.8952584012
 40
1.0
 40
1.0
 40
1.0
 40
1.0
 10
668.0001303537
 20
155.2456105384
 30
0.0
 10
667.9543628412
 20
155.0748038567
 30
0.0
 10
667.9670139048
 20
154.6782212381
 30
0.0
 10
668.2790866961
 20
154.1443314251
 30
0.0
 10
668.8039071669
 20
153.7146377539
 30
0.0
 10
669.4690067933
 20
153.4364624079
 30
0.0
 10
670.1840876389
 20
153.3448195111
 30
0.0
 10
670.8534423346
 20
153.4545349107
 30
0.0
 10
671.3906502062
 20
153.760860656
 30
0.0
 10
671.5998976579
 20
154.0979857466
 30
0.0
 10
671.6456651704
 20
154.2687924283
 30
0.0
  0
SPLINE
  5
701
100
AcDbEntity
  8
0
100
AcDbSpline
 62
7
  6
CONTINUOUS
 70
0
 71
3
 72
11
 73
7
 74
0
 42
0.0000001
 43
0.0000001
 44
0.0000000001
 40
0.0
 40
0.0
 40
0.0
 40
0.0
 40
0.2094689415
 40
0.4446609502
 40
0.7120169424
 40
1.0
 40
1.0
 40
1.0
 40
1.0
 10
666.2138087322
 20
157.8782737436
 30
0.0
 10
666.2621134914
 20
158.0586577949
 30
0.0
 10
666.2485928221
 20
158.4774815066
 30
0.0
 10
665.9188990663
 20
159.0412959002
 30
0.0
 10
665.3650863647
 20
159.4949752678
 30
0.0
 10
664.9012409928
 20
159.6887466622
 30
0.0
 10
664.6532545235
 20
159.7551944364
 30
0.0
  0
SPLINE
  5
702
100
AcDbEntity
  8
0
100
AcDbSpline
 62
7
  6
CONTINUOUS
 70
0
 71
3
 72
9
 73
5
 74
0
 42
0.0000001
 43
0.0000001
 44
0.0000000001
 40
0.0
 40
0.0
 40
0.0
 40
0.0
 40
0.4402133985
 40
1.0
 40
1.0
 40
1.0
 40
1.0
 10
655.1428115468
 20
158.7677045511
 30
0.0
 10
655.1368123248
 20
158.7453151498
 30
0.0
 10
655.1582297239
 20
158.6873203048
 30
0.0
 10
655.2082901872
 20
158.6623135054
 30
0.0
 10
655.2367611218
 20
158.6546847415
 30
0.0
  0
SPLINE
  5
703
100
AcDbEntity
  8
0
100
AcDbSpline
 62
7
  6
CONTINUOUS
 70
0
 71
3
 72
9
 73
5
 74
0
 42
0.0000001
 43
0.0000001
 44
0.0000000001
 40
0.0
 40
0.0
 40
0.0
 40
0.0
 40
0.4402133985
 40
1.0
 40
1.0
 40
1.0
 40
1.0
 10
655.9506811156
 20
158.595159601
 30
0.0
 10
655.9566803376
 20
158.6175490023
 30
0.0
 10
655.9352629385
 20
158.6755438473
 30
0.0
 10
655.8852024752
 20
158.7005506467
 30
0.0
 10
655.8567315407
 20
158.7081794106
 30
0.0
  0
SPLINE
  5
704
100
AcDbEntity
  8
0
100
AcDbSpline
 62
7
  6
CONTINUOUS
 70
0
 71
3
 72
9
 73
5
 74
0
 42
0.0000001
 43
0.0000001
 44
0.0000000001
 40
0.0
 40
0.0
 40
0.0
 40
0.0
 40
0.4402133985
 40
1.0
 40
1.0
 40
1.0
 40
1.0
 10
656.4997192213
 20
160.6441977067
 30
0.0
 10
656.5057184433
 20
160.666587108
 30
0.0
 10
656.4843010442
 20
160.724581953
 30
0.0
 10
656.4342405809
 20
160.7495887524
 30
0.0
 10
656.4057696464
 20
160.7572175163
 30
0.0
  0
SPLINE
  5
705
100
AcDbEntity
  8
0
100
AcDbSpline
 62
7
  6
CONTINUOUS
 70
0
 71
3
 72
11
 73
7
 74
0
 42
0.0000001
 43
0.0000001
 44
0.0000000001
 40
0.0
 40
0.0
 40
0.0
 40
0.0
 40
0.2094668498
 40
0.4446559298
 40
0.7120302568
 40
1.0
 40
1.0
 40
1.0
 40
1.0
 10
654.625932174
 20
160.0262396972
 30
0.0
 10
654.6186567513
 20
159.99908745
 30
0.0
 10
654.6206629531
 20
159.9360410044
 30
0.0
 10
654.6702920239
 20
159.8511606481
 30
0.0
 10
654.7536529072
 20
159.7828617326
 30
0.0
 10
654.8234778866
 20
159.7536922408
 30
0.0
 10
654.8608061114
 20
159.7436901731
 30
0.0
  0
SPLINE
  5
706
100
AcDbEntity
  8
0
100
AcDbSpline
 62
7
  6
CONTINUOUS
 70
0
 71
3
 72
11
 73
7
 74
0
 42
0.0000001
 43
0.0000001
 44
0.0000000001
 40
0.0
 40
0.0
 40
0.0
 40
0.0
 40
0.2094668498
 40
0.4446559298
 40
0.7120302568
 40
1.0
 40
1.0
 40
1.0
 40
1.0
 10
654.0768940684
 20
157.9772015915
 30
0.0
 10
654.0696186457
 20
157.9500493443
 30
0.0
 10
654.0716248475
 20
157.8870028988
 30
0.0
 10
654.1212539182
 20
157.8021225424
 30
0.0
 10
654.2046148015
 20
157.7338236269
 30
0.0
 10
654.2744397809
 20
157.7046541351
 30
0.0
 10
654.3117680057
 20
157.6946520674
 30
0.0
  0
SPLINE
  5
707
100
AcDbEntity
  8
0
100
AcDbSpline
 62
7
  6
CONTINUOUS
 70
0
 71
3
 72
9
 73
5
 74
0
 42
0.0000001
 43
0.0000001
 44
0.0000000001
 40
0.0
 40
0.0
 40
0.0
 40
0.0
 40
0.2432035461
 40
1.0
 40
1.0
 40
1.0
 40
1.0
 10
659.0320660656
 20
160.8221568597
 30
0.0
 10
659.0363747859
 20
160.8382372225
 30
0.0
 10
659.0485937772
 20
160.9058317111
 30
0.0
 10
659.037128089
 20
160.9766968565
 30
0.0
 10
659.0187510122
 20
161.0251314744
 30
0.0
  0
SPLINE
  5
708
100
AcDbEntity
  8
0
100
AcDbSpline
 62
7
  6
CONTINUOUS
 70
0
 71
3
 72
9
 73
5
 74
0
 42
0.0000001
 43
0.0000001
 44
0.0000000001
 40
0.0
 40
0.0
 40
0.0
 40
0.0
 40
0.2401326547
 40
1.0
 40
1.0
 40
1.0
 40
1.0
 10
659.0187510122
 20
161.0251314744
 30
0.0
 10
659.0143672772
 20
161.0366852449
 30
0.0
 10
658.9938821738
 20
161.083947858
 30
0.0
 10
658.9649380122
 20
161.1273393644
 30
0.0
 10
658.9399412584
 20
161.1574100524
 30
0.0
  0
SPLINE
  5
709
100
AcDbEntity
  8
0
100
AcDbSpline
 62
7
  6
CONTINUOUS
 70
0
 71
3
 72
9
 73
5
 74
0
 42
0.0000001
 43
0.0000001
 44
0.0000000001
 40
0.0
 40
0.0
 40
0.0
 40
0.0
 40
0.2356425559
 40
1.0
 40
1.0
 40
1.0
 40
1.0
 10
658.9399412584
 20
161.1574100524
 30
0.0
 10
658.9175452094
 20
161.1843521349
 30
0.0
 10
658.8117437904
 20
161.2896373901
 30
0.0
 10
658.6720897971
 20
161.3578426947
 30
0.0
 10
658.562318191
 20
161.3872559079
 30
0.0
  0
SPLINE
  5
70A
100
AcDbEntity
  8
RUNDUNGEN
100
AcDbSpline
 62
7
  6
CONTINUOUS
 70
0
 71
3
 72
10
 73
6
 74
0
 42
0.0000001
 43
0.0000001
 44
0.0000000001
 40
0.0
 40
0.0
 40
0.0
 40
0.0
 40
0.2265435863
 40
0.4650408478
 40
1.0
 40
1.0
 40
1.0
 40
1.0
 10
636.5674367193
 20
169.2907306483
 30
0.0
 10
636.5895413
 20
169.373018601
 30
0.0
 10
636.665138406
 20
169.535169486
 30
0.0
 10
636.9283743475
 20
169.8107467851
 30
0.0
 10
637.2127108389
 20
169.9242838446
 30
0.0
 10
637.4099853257
 20
169.9638500049
 30
0.0
  0
SPLINE
  5
70B
100
AcDbEntity
  8
RUNDUNGEN
100
AcDbSpline
 62
7
  6
CONTINUOUS
 70
0
 71
3
 72
9
 73
5
 74
0
 42
0.0000001
 43
0.0000001
 44
0.0000000001
 40
0.0
 40
0.0
 40
0.0
 40
0.0
 40
0.4805181646
 40
1.0
 40
1.0
 40
1.0
 40
1.0
 10
635.6523610425
 20
165.8756267232
 30
0.0
 10
635.6241197264
 20
165.7704663771
 30
0.0
 10
635.6148976564
 20
165.5361291196
 30
0.0
 10
635.6984221784
 20
165.3194812523
 30
0.0
 10
635.7567795799
 20
165.2172490981
 30
0.0
  0
SPLINE
  5
70C
100
AcDbEntity
  8
RUNDUNGEN
100
AcDbSpline
 62
7
  6
CONTINUOUS
 70
0
 71
3
 72
11
 73
7
 74
0
 42
0.0000001
 43
0.0000001
 44
0.0000000001
 40
0.0
 40
0.0
 40
0.0
 40
0.0
 40
0.2256919297
 40
0.4632773963
 40
0.7205986282
 40
1.0
 40
1.0
 40
1.0
 40
1.0
 10
629.4127085794
 20
182.9303675018
 30
0.0
 10
629.4862144086
 20
183.2049068453
 30
0.0
 10
629.7375721092
 20
183.7458782408
 30
0.0
 10
630.3736595945
 20
184.4117788895
 30
0.0
 10
631.2243009492
 20
184.9094330128
 30
0.0
 10
631.8769408741
 20
185.1074193631
 30
0.0
 10
632.2219154105
 20
185.1766088362
 30
0.0
  0
SPLINE
  5
70D
100
AcDbEntity
  8
RUNDUNGEN
100
AcDbSpline
 62
7
  6
CONTINUOUS
 70
0
 71
3
 72
9
 73
5
 74
0
 42
0.0000001
 43
0.0000001
 44
0.0000000001
 40
0.0
 40
0.0
 40
0.0
 40
0.0
 40
0.4805188659
 40
1.0
 40
1.0
 40
1.0
 40
1.0
 10
628.49764507
 20
179.5153039923
 30
0.0
 10
628.4038727196
 20
179.1650705512
 30
0.0
 10
628.3739123818
 20
178.384788991
 30
0.0
 10
628.6520602101
 20
177.6634983758
 30
0.0
 10
628.8463777797
 20
177.3230873356
 30
0.0
  0
SPLINE
  5
70E
100
AcDbEntity
  8
RUNDUNGEN
100
AcDbSpline
 62
7
  6
CONTINUOUS
 70
0
 71
3
 72
11
 73
7
 74
0
 42
0.0000001
 43
0.0000001
 44
0.0000000001
 40
0.0
 40
0.0
 40
0.0
 40
0.0
 40
0.237780559
 40
0.4809056754
 40
0.7339193747
 40
1.0
 40
1.0
 40
1.0
 40
1.0
 10
676.6297195745
 20
133.3566183591
 30
0.0
 10
676.7697351395
 20
133.8791634873
 30
0.0
 10
677.1697381601
 20
134.9083129556
 30
0.0
 10
678.0964730822
 20
136.3109819757
 30
0.0
 10
679.3264667222
 20
137.5478940587
 30
0.0
 10
680.301810859
 20
138.2256656477
 30
0.0
 10
680.824581724
 20
138.5309143683
 30
0.0
  0
SPLINE
  5
70F
100
AcDbEntity
  8
RUNDUNGEN
100
AcDbSpline
 62
7
  6
CONTINUOUS
 70
0
 71
3
 72
9
 73
5
 74
0
 42
0.0000001
 43
0.0000001
 44
0.0000000001
 40
0.0
 40
0.0
 40
0.0
 40
0.0
 40
0.483225943
 40
1.0
 40
1.0
 40
1.0
 40
1.0
 10
677.2898854359
 20
135.0090559694
 30
0.0
 10
677.2679754404
 20
134.1982640779
 30
0.0
 10
677.4887970027
 20
132.5063793625
 30
0.0
 10
678.1604808874
 20
130.9464838751
 30
0.0
 10
678.5904920327
 20
130.1931781318
 30
0.0
  0
SPLINE
  5
710
100
AcDbEntity
  8
RUNDUNGEN
100
AcDbSpline
 62
7
  6
CONTINUOUS
 70
0
 71
3
 72
9
 73
5
 74
0
 42
0.0000001
 43
0.0000001
 44
0.0000000001
 40
0.0
 40
0.0
 40
0.0
 40
0.0
 40
0.4805364547
 40
1.0
 40
1.0
 40
1.0
 40
1.0
 10
623.72840669
 20
127.2543640211
 30
0.0
 10
623.8222760264
 20
127.6046891537
 30
0.0
 10
624.1864212856
 20
128.2956976647
 30
0.0
 10
624.7881223843
 20
128.7814356494
 30
0.0
 10
625.1266941121
 20
128.9791295028
 30
0.0
  0
SPLINE
  5
711
100
AcDbEntity
  8
BEZUGSACHSEN
100
AcDbSpline
 62
7
  6
CONTINUOUS
 70
0
 71
3
 72
9
 73
5
 74
0
 42
0.0000001
 43
0.0000001
 44
0.0000000001
 40
0.0
 40
0.0
 40
0.0
 40
0.0
 40
0.4742612099
 40
1.0
 40
1.0
 40
1.0
 40
1.0
 10
664.7532977689
 20
167.9197361884
 30
0.0
 10
664.9202090756
 20
167.4813979027
 30
0.0
 10
665.4522180424
 20
166.6229198806
 30
0.0
 10
666.2025552969
 20
165.9602415381
 30
0.0
 10
666.6291991431
 20
165.6630454113
 30
0.0
  0
SPLINE
  5
712
100
AcDbEntity
  8
BEZUGSACHSEN
100
AcDbSpline
 62
7
  6
CONTINUOUS
 70
0
 71
3
 72
9
 73
5
 74
0
 42
0.0000001
 43
0.0000001
 44
0.0000000001
 40
0.0
 40
0.0
 40
0.0
 40
0.0
 40
0.5257387901
 40
1.0
 40
1.0
 40
1.0
 40
1.0
 10
671.462527466
 20
164.3679589905
 30
0.0
 10
671.9806099385
 20
164.412016463
 30
0.0
 10
672.9617602335
 20
164.6107441149
 30
0.0
 10
673.8517325249
 20
165.0882034073
 30
0.0
 10
674.2154510995
 20
165.3843598449
 30
0.0
  0
SPLINE
  5
713
100
AcDbEntity
  8
BEZUGSACHSEN
100
AcDbSpline
 62
7
  6
CONTINUOUS
 70
0
 71
3
 72
11
 73
7
 74
0
 42
0.0000001
 43
0.0000001
 44
0.0000000001
 40
0.0
 40
0.0
 40
0.0
 40
0.0
 40
0.2211778223
 40
0.4572018266
 40
0.7166414314
 40
1.0
 40
1.0
 40
1.0
 40
1.0
 10
674.3397843465
 20
163.5223163226
 30
0.0
 10
674.432502862
 20
163.868346533
 30
0.0
 10
674.4797141833
 20
164.6290547178
 30
0.0
 10
674.1215927292
 20
165.7553301535
 30
0.0
 10
673.3896702933
 20
166.8016216834
 30
0.0
 10
672.7168373377
 20
167.3813322927
 30
0.0
 10
672.3402489703
 20
167.6436602394
 30
0.0
  0
SPLINE
  5
714
100
AcDbEntity
  8
BEZUGSACHSEN
100
AcDbSpline
 62
7
  6
CONTINUOUS
 70
0
 71
3
 72
11
 73
7
 74
0
 42
0.0000001
 43
0.0000001
 44
0.0000000001
 40
0.0
 40
0.0
 40
0.0
 40
0.0
 40
0.2833585686
 40
0.5427981734
 40
0.7788221777
 40
1.0
 40
1.0
 40
1.0
 40
1.0
 10
667.5069206474
 20
168.9387466603
 30
0.0
 10
667.049621581
 20
168.899858178
 30
0.0
 10
666.1770758443
 20
168.7342305413
 30
0.0
 10
665.0200666563
 20
168.1940767146
 30
0.0
 10
664.1467866616
 20
167.3977543027
 30
0.0
 10
663.8073187728
 20
166.7153560291
 30
0.0
 10
663.7146002573
 20
166.3693258187
 30
0.0
  0
SPLINE
  5
715
100
AcDbEntity
  8
RUNDUNGEN
100
AcDbSpline
 62
7
  6
CONTINUOUS
 70
0
 71
3
 72
9
 73
5
 74
0
 42
0.0000001
 43
0.0000001
 44
0.0000000001
 40
0.0
 40
0.0
 40
0.0
 40
0.0
 40
0.5194633901
 40
1.0
 40
1.0
 40
1.0
 40
1.0
 10
689.0627931892
 20
111.8475033879
 30
0.0
 10
689.2571579216
 20
111.5070097267
 30
0.0
 10
689.5353773956
 20
110.7854977743
 30
0.0
 10
689.5052322443
 20
110.0049941998
 30
0.0
 10
689.4113628777
 20
109.6546689542
 30
0.0
  0
SPLINE
  5
716
100
AcDbEntity
  8
RUNDUNGEN
100
AcDbSpline
 62
7
  6
CONTINUOUS
 70
0
 71
3
 72
10
 73
6
 74
0
 42
0.0000001
 43
0.0000001
 44
0.0000000001
 40
0.0
 40
0.0
 40
0.0
 40
0.0
 40
0.5349737816
 40
0.7734707301
 40
1.0
 40
1.0
 40
1.0
 40
1.0
 10
713.4188301626
 20
161.9503562734
 30
0.0
 10
713.5698985444
 20
161.8174477961
 30
0.0
 10
713.7593798383
 20
161.5769426381
 30
0.0
 10
713.8495488713
 20
161.206657852
 30
0.0
 10
713.8339377458
 20
161.0284356263
 30
0.0
 10
713.8119350435
 20
160.9461244218
 30
0.0
  0
SPLINE
  5
717
100
AcDbEntity
  8
RUNDUNGEN
100
AcDbSpline
 62
7
  6
CONTINUOUS
 70
0
 71
3
 72
10
 73
6
 74
0
 42
0.0000001
 43
0.0000001
 44
0.0000000001
 40
0.0
 40
0.0
 40
0.0
 40
0.0
 40
0.4809192537
 40
0.7459271807
 40
1.0
 40
1.0
 40
1.0
 40
1.0
 10
705.2943449581
 20
167.5526512119
 30
0.0
 10
705.6000367628
 20
167.7311463014
 30
0.0
 10
706.1983643402
 20
167.7943598112
 30
0.0
 10
706.9067942551
 20
167.5911013553
 30
0.0
 10
707.2392597918
 20
167.3870815429
 30
0.0
 10
707.3796687541
 20
167.263551118
 30
0.0
  0
SPLINE
  5
718
100
AcDbEntity
  8
0
100
AcDbSpline
 62
7
  6
CONTINUOUS
 70
0
 71
3
 72
9
 73
5
 74
0
 42
0.0000001
 43
0.0000001
 44
0.0000000001
 40
0.0
 40
0.0
 40
0.0
 40
0.0
 40
0.242001278
 40
1.0
 40
1.0
 40
1.0
 40
1.0
 10
679.4948987826
 20
170.7698959019
 30
0.0
 10
679.1153046541
 20
171.1038590849
 30
0.0
 10
677.4825402961
 20
172.4101096587
 30
0.0
 10
675.6223144444
 20
173.4236902705
 30
0.0
 10
674.1551208518
 20
174.0196718407
 30
0.0
  0
SPLINE
  5
719
100
AcDbEntity
  8
0
100
AcDbSpline
 62
7
  6
CONTINUOUS
 70
0
 71
3
 72
9
 73
5
 74
0
 42
0.0000001
 43
0.0000001
 44
0.0000000001
 40
0.0
 40
0.0
 40
0.0
 40
0.0
 40
0.2575666797
 40
1.0
 40
1.0
 40
1.0
 40
1.0
 10
669.123201294
 20
175.3679706226
 30
0.0
 10
668.5902444027
 20
175.4418558442
 30
0.0
 10
666.5114214632
 20
175.6483742084
 30
0.0
 10
664.3945817831
 20
175.5284590762
 30
0.0
 10
662.8739299859
 20
175.2234710684
 30
0.0
  0
SPLINE
  5
71A
100
AcDbEntity
  8
RUNDUNGEN
100
AcDbSpline
 62
7
  6
CONTINUOUS
 70
0
 71
3
 72
12
 73
8
 74
0
 42
0.0000001
 43
0.0000001
 44
0.0000000001
 40
0.0
 40
0.0
 40
0.0
 40
0.0
 40
0.2522581101
 40
0.5153826173
 40
0.6451774834
 40
0.7704539294
 40
1.0
 40
1.0
 40
1.0
 40
1.0
 10
633.1181272991
 20
185.3563566778
 30
0.0
 10
634.8294955102
 20
185.6995955325
 30
0.0
 10
638.4572738626
 20
185.8038354839
 30
0.0
 10
642.8394938907
 20
184.6972628898
 30
0.0
 10
646.0716119667
 20
183.1151397003
 30
0.0
 10
648.8392549288
 20
181.213612091
 30
0.0
 10
650.5353363514
 20
179.3409970617
 30
0.0
 10
651.3227326401
 20
177.9616138686
 30
0.0
  0
SPLINE
  5
71B
100
AcDbEntity
  8
0
100
AcDbSpline
 62
7
  6
CONTINUOUS
 70
0
 71
3
 72
11
 73
7
 74
0
 42
0.0000001
 43
0.0000001
 44
0.0000000001
 40
0.0
 40
0.0
 40
0.0
 40
0.0
 40
0.2880052506
 40
0.5553344723
 40
0.7905070702
 40
1.0
 40
1.0
 40
1.0
 40
1.0
 10
653.9258742248
 20
162.6295873243
 30
0.0
 10
653.8512090929
 20
162.6495937861
 30
0.0
 10
653.7010981775
 20
162.668911951
 30
0.0
 10
653.48844082
 20
162.6339141742
 30
0.0
 10
653.317580032
 20
162.536588773
 30
0.0
 10
653.251063663
 20
162.4293820055
 30
0.0
 10
653.2365111079
 20
162.3750711303
 30
0.0
  0
SPLINE
  5
71C
100
AcDbEntity
  8
0
100
AcDbSpline
 62
7
  6
CONTINUOUS
 70
0
 71
3
 72
11
 73
7
 74
0
 42
0.0000001
 43
0.0000001
 44
0.0000000001
 40
0.0
 40
0.0
 40
0.0
 40
0.0
 40
0.2879697432
 40
0.5553440702
 40
0.7905331502
 40
1.0
 40
1.0
 40
1.0
 40
1.0
 10
656.3096948508
 20
159.3554616055
 30
0.0
 10
656.3470230756
 20
159.3454595378
 30
0.0
 10
656.4220780274
 20
159.335808569
 30
0.0
 10
656.5284201278
 20
159.3532767232
 30
0.0
 10
656.613840342
 20
159.4019707327
 30
0.0
 10
656.6471009865
 20
159.4555674553
 30
0.0
 10
656.6543764092
 20
159.4827197025
 30
0.0
  0
SPLINE
  5
71D
100
AcDbEntity
  8
0
100
AcDbSpline
 62
7
  6
CONTINUOUS
 70
0
 71
3
 72
11
 73
7
 74
0
 42
0.0000001
 43
0.0000001
 44
0.0000000001
 40
0.0
 40
0.0
 40
0.0
 40
0.0
 40
0.2879697432
 40
0.5553440702
 40
0.7905331502
 40
1.0
 40
1.0
 40
1.0
 40
1.0
 10
655.7606567451
 20
157.3064234998
 30
0.0
 10
655.7979849699
 20
157.2964214321
 30
0.0
 10
655.8730399218
 20
157.2867704633
 30
0.0
 10
655.9793820221
 20
157.3042386176
 30
0.0
 10
656.0648022363
 20
157.3529326271
 30
0.0
 10
656.0980628809
 20
157.4065293496
 30
0.0
 10
656.1053383036
 20
157.4336815968
 30
0.0
  0
SPLINE
  5
71E
100
AcDbEntity
  8
0
100
AcDbSpline
 62
7
  6
CONTINUOUS
 70
0
 71
3
 72
9
 73
5
 74
0
 42
0.0000001
 43
0.0000001
 44
0.0000000001
 40
0.0
 40
0.0
 40
0.0
 40
0.0
 40
0.5597866015
 40
1.0
 40
1.0
 40
1.0
 40
1.0
 10
655.4784808531
 20
161.0056837996
 30
0.0
 10
655.4500099186
 20
161.0133125635
 30
0.0
 10
655.394152886
 20
161.0166862716
 30
0.0
 10
655.3466074518
 20
160.9771699621
 30
0.0
 10
655.3406082298
 20
160.9547805608
 30
0.0
  0
SPLINE
  5
71F
100
AcDbEntity
  8
0
100
AcDbSpline
 62
7
  6
CONTINUOUS
 70
0
 71
3
 72
9
 73
5
 74
0
 42
0.0000001
 43
0.0000001
 44
0.0000000001
 40
0.0
 40
0.0
 40
0.0
 40
0.0
 40
0.5597866015
 40
1.0
 40
1.0
 40
1.0
 40
1.0
 10
654.9294427475
 20
158.9566456939
 30
0.0
 10
654.9009718129
 20
158.9642744579
 30
0.0
 10
654.8451147803
 20
158.9676481659
 30
0.0
 10
654.7975693461
 20
158.9281318564
 30
0.0
 10
654.7915701241
 20
158.9057424551
 30
0.0
  0
SPLINE
  5
720
100
AcDbEntity
  8
0
100
AcDbSpline
 62
7
  6
CONTINUOUS
 70
0
 71
3
 72
9
 73
5
 74
0
 42
0.0000001
 43
0.0000001
 44
0.0000000001
 40
0.0
 40
0.0
 40
0.0
 40
0.0
 40
0.5597866015
 40
1.0
 40
1.0
 40
1.0
 40
1.0
 10
655.4396055453
 20
158.600332742
 30
0.0
 10
655.4680764798
 20
158.5927039781
 30
0.0
 10
655.5239335125
 20
158.58933027
 30
0.0
 10
655.5714789467
 20
158.6288465795
 30
0.0
 10
655.5774781687
 20
158.6512359808
 30
0.0
  0
SPLINE
  5
721
100
AcDbEntity
  8
0
100
AcDbSpline
 62
7
  6
CONTINUOUS
 70
0
 71
3
 72
11
 73
7
 74
0
 42
0.0000001
 43
0.0000001
 44
0.0000000001
 40
0.0
 40
0.0
 40
0.0
 40
0.0
 40
0.2880001164
 40
0.5553425139
 40
0.7905343079
 40
1.0
 40
1.0
 40
1.0
 40
1.0
 10
664.0902464336
 20
157.6540196398
 30
0.0
 10
664.2250352438
 20
157.617903087
 30
0.0
 10
664.496026381
 20
157.5830529499
 30
0.0
 10
664.8799656245
 20
157.6461574367
 30
0.0
 10
665.1883832293
 20
157.8219360992
 30
0.0
 10
665.308452364
 20
158.0154635225
 30
0.0
 10
665.3347203351
 20
158.1134969253
 30
0.0
  0
SPLINE
  5
722
100
AcDbEntity
  8
0
100
AcDbSpline
 62
7
  6
CONTINUOUS
 70
0
 71
3
 72
8
 73
4
 74
0
 42
0.0000001
 43
0.0000001
 44
0.0000000001
 40
0.0
 40
0.0
 40
0.0
 40
0.0
 40
1.0
 40
1.0
 40
1.0
 40
1.0
 10
679.0865244592
 20
155.8512088726
 30
0.0
 10
679.0181069338
 20
155.8941835163
 30
0.0
 10
678.9420958708
 20
155.9265109366
 30
0.0
 10
678.8640542179
 20
155.9474221345
 30
0.0
  0
SPLINE
  5
723
100
AcDbEntity
  8
0
100
AcDbSpline
 62
7
  6
CONTINUOUS
 70
0
 71
3
 72
11
 73
7
 74
0
 42
0.0000001
 43
0.0000001
 44
0.0000000001
 40
0.0
 40
0.0
 40
0.0
 40
0.0
 40
0.2779817175
 40
0.5346952233
 40
0.772857858
 40
1.0
 40
1.0
 40
1.0
 40
1.0
 10
677.8273850093
 20
151.2925053702
 30
0.0
 10
678.059998339
 20
151.3480743358
 30
0.0
 10
678.4991006067
 20
151.4980914467
 30
0.0
 10
679.068578547
 20
151.8542817966
 30
0.0
 10
679.4937448834
 20
152.3188313453
 30
0.0
 10
679.6629982343
 20
152.6906755734
 30
0.0
 10
679.7135764903
 20
152.8794361943
 30
0.0
  0
SPLINE
  5
724
100
AcDbEntity
  8
0
100
AcDbSpline
 62
7
  6
CONTINUOUS
 70
0
 71
3
 72
9
 73
5
 74
0
 42
0.0000001
 43
0.0000001
 44
0.0000000001
 40
0.0
 40
0.0
 40
0.0
 40
0.0
 40
0.2591205677
 40
1.0
 40
1.0
 40
1.0
 40
1.0
 10
677.6398875224
 20
151.2974911205
 30
0.0
 10
677.6556222086
 20
151.293275024
 30
0.0
 10
677.7171680439
 20
151.2805059644
 30
0.0
 10
677.7820839433
 20
151.281683405
 30
0.0
 10
677.8273850093
 20
151.2925053702
 30
0.0
  0
SPLINE
  5
725
100
AcDbEntity
  8
RUNDUNGEN
100
AcDbSpline
 62
7
  6
CONTINUOUS
 70
0
 71
3
 72
11
 73
7
 74
0
 42
0.0000001
 43
0.0000001
 44
0.0000000001
 40
0.0
 40
0.0
 40
0.0
 40
0.0
 40
0.2880068215
 40
0.5553366529
 40
0.7905059061
 40
1.0
 40
1.0
 40
1.0
 40
1.0
 10
627.4562258917
 20
112.7685553903
 30
0.0
 10
627.5184471825
 20
112.7518832456
 30
0.0
 10
627.6435401
 20
112.7357853075
 30
0.0
 10
627.8207546162
 20
112.7649492604
 30
0.0
 10
627.9631376014
 20
112.8460545875
 30
0.0
 10
628.0185679575
 20
112.9353928985
 30
0.0
 10
628.0306951558
 20
112.9806522187
 30
0.0
  0
SPLINE
  5
726
100
AcDbEntity
  8
RUNDUNGEN
100
AcDbSpline
 62
7
  6
CONTINUOUS
 70
0
 71
3
 72
13
 73
9
 74
0
 42
0.0000001
 43
0.0000001
 44
0.0000000001
 40
0.0
 40
0.0
 40
0.0
 40
0.0
 40
0.1034546555
 40
0.2106690395
 40
0.3244963599
 40
0.4464318111
 40
0.7129511617
 40
1.0
 40
1.0
 40
1.0
 40
1.0
 10
621.2717345779
 20
118.0859388812
 30
0.0
 10
621.2116541996
 20
117.8617158567
 30
0.0
 10
621.1537562744
 20
117.3853567279
 30
0.0
 10
621.2640125018
 20
116.6578632287
 30
0.0
 10
621.561411572
 20
115.9407361447
 30
0.0
 10
622.2062948287
 20
115.0080310528
 30
0.0
 10
623.4016706658
 20
114.0285970852
 30
0.0
 10
624.5641632991
 20
113.5434812264
 30
0.0
 10
625.1863001999
 20
113.3767801463
 30
0.0
  0
SPLINE
  5
727
100
AcDbEntity
  8
RUNDUNGEN
100
AcDbSpline
 62
7
  6
CONTINUOUS
 70
0
 71
3
 72
10
 73
6
 74
0
 42
0.0000001
 43
0.0000001
 44
0.0000000001
 40
0.0
 40
0.0
 40
0.0
 40
0.0
 40
0.4808964563
 40
0.7459158441
 40
1.0
 40
1.0
 40
1.0
 40
1.0
 10
630.6649045692
 20
174.137340431
 30
0.0
 10
630.8403856956
 20
173.8299276074
 30
0.0
 10
631.3269295537
 20
173.4760194026
 30
0.0
 10
632.0420752349
 20
173.2978179491
 30
0.0
 10
632.4320267495
 20
173.3082688873
 30
0.0
 10
632.6153979986
 20
173.3450465586
 30
0.0
  0
SPLINE
  5
728
100
AcDbEntity
  8
RUNDUNGEN
100
AcDbSpline
 62
7
  6
CONTINUOUS
 70
0
 71
3
 72
9
 73
5
 74
0
 42
0.0000001
 43
0.0000001
 44
0.0000000001
 40
0.0
 40
0.0
 40
0.0
 40
0.0
 40
0.5194816775
 40
1.0
 40
1.0
 40
1.0
 40
1.0
 10
712.4772478828
 20
157.0130764336
 30
0.0
 10
712.5789115497
 20
157.0724383957
 30
0.0
 10
712.7595844317
 20
157.2183138435
 30
0.0
 10
712.868764196
 20
157.4258928731
 30
0.0
 10
712.8968797899
 20
157.5310965057
 30
0.0
  0
SPLINE
  5
729
100
AcDbEntity
  8
RUNDUNGEN
100
AcDbSpline
 62
7
  6
CONTINUOUS
 70
0
 71
3
 72
13
 73
9
 74
0
 42
0.0000001
 43
0.0000001
 44
0.0000000001
 40
0.0
 40
0.0
 40
0.0
 40
0.0
 40
0.2870490624
 40
0.5535683755
 40
0.6755038246
 40
0.7893311355
 40
0.8965454157
 40
1.0
 40
1.0
 40
1.0
 40
1.0
 10
681.2099981247
 20
98.3652755303
 30
0.0
 10
681.8321355109
 20
98.1985743201
 30
0.0
 10
683.0814420666
 20
98.0374506993
 30
0.0
 10
684.6063852357
 20
98.2879779607
 30
0.0
 10
685.631222839
 20
98.7732828744
 30
0.0
 10
686.2473411193
 20
99.2456337177
 30
0.0
 10
686.7065721761
 20
99.8205332124
 30
0.0
 10
686.8946104286
 20
100.262020944
 30
0.0
 10
686.9546907656
 20
100.4862438143
 30
0.0
  0
SPLINE
  5
72A
100
AcDbEntity
  8
RUNDUNGEN
100
AcDbSpline
 62
7
  6
CONTINUOUS
 70
0
 71
3
 72
11
 73
7
 74
0
 42
0.0000001
 43
0.0000001
 44
0.0000000001
 40
0.0
 40
0.0
 40
0.0
 40
0.0
 40
0.2094942263
 40
0.444667264
 40
0.7119932261
 40
1.0
 40
1.0
 40
1.0
 40
1.0
 10
678.5486158707
 20
99.4444161598
 30
0.0
 10
678.5364886658
 20
99.3991568148
 30
0.0
 10
678.5398239712
 20
99.2940714923
 30
0.0
 10
678.6225789476
 20
99.1526408664
 30
0.0
 10
678.7614692686
 20
99.0387771109
 30
0.0
 10
678.8778511575
 20
98.9901724268
 30
0.0
 10
678.9400724329
 20
98.9735002863
 30
0.0
  0
SPLINE
  5
72B
100
AcDbEntity
  8
RUNDUNGEN
100
AcDbSpline
 62
7
  6
CONTINUOUS
 70
0
 71
3
 72
9
 73
5
 74
0
 42
0.0000001
 43
0.0000001
 44
0.0000000001
 40
0.0
 40
0.0
 40
0.0
 40
0.0
 40
0.4729729907
 40
1.0
 40
1.0
 40
1.0
 40
1.0
 10
665.629421105
 20
112.8855068218
 30
0.0
 10
665.9768954193
 20
112.2767914444
 30
0.0
 10
667.0613165634
 20
111.1882845173
 30
0.0
 10
668.4410170486
 20
110.5713233886
 30
0.0
 10
669.1954170386
 20
110.3691825206
 30
0.0
  0
SPLINE
  5
72C
100
AcDbEntity
  8
RUNDUNGEN
100
AcDbSpline
 62
7
  6
CONTINUOUS
 70
0
 71
3
 72
9
 73
5
 74
0
 42
0.0000001
 43
0.0000001
 44
0.0000000001
 40
0.0
 40
0.0
 40
0.0
 40
0.0
 40
0.5270273161
 40
1.0
 40
1.0
 40
1.0
 40
1.0
 10
641.5931861314
 20
117.7651780014
 30
0.0
 10
642.3475865615
 20
117.5630370154
 30
0.0
 10
643.8509228784
 20
117.4074909106
 30
0.0
 10
645.3343124701
 20
117.8079552091
 30
0.0
 10
645.9395913503
 20
118.1613808037
 30
0.0
  0
SPLINE
  5
72D
100
AcDbEntity
  8
RUNDUNGEN
100
AcDbSpline
 62
7
  6
CONTINUOUS
 70
0
 71
3
 72
13
 73
9
 74
0
 42
0.0000001
 43
0.0000001
 44
0.0000000001
 40
0.0
 40
0.0
 40
0.0
 40
0.0
 40
0.1034546555
 40
0.2106690395
 40
0.3244963599
 40
0.4464318111
 40
0.7129511617
 40
1.0
 40
1.0
 40
1.0
 40
1.0
 10
629.2202777181
 20
117.420234781
 30
0.0
 10
629.2803580964
 20
117.6444578055
 30
0.0
 10
629.4683965869
 20
118.085945875
 30
0.0
 10
629.9276280302
 20
118.6608456127
 30
0.0
 10
630.5437467221
 20
119.1331963501
 30
0.0
 10
631.5685845508
 20
119.6185010255
 30
0.0
 10
633.0935273767
 20
119.8690278042
 30
0.0
 10
634.3428334582
 20
119.7079041451
 30
0.0
 10
634.964970359
 20
119.5412030649
 30
0.0
  0
SPLINE
  5
72E
100
AcDbEntity
  8
RUNDUNGEN
100
AcDbSpline
 62
7
  6
CONTINUOUS
 70
0
 71
3
 72
13
 73
9
 74
0
 42
0.0000001
 43
0.0000001
 44
0.0000000001
 40
0.0
 40
0.0
 40
0.0
 40
0.0
 40
0.2870490624
 40
0.5535683755
 40
0.6755038246
 40
0.7893311355
 40
0.8965454157
 40
1.0
 40
1.0
 40
1.0
 40
1.0
 10
675.823632811
 20
108.5931574571
 30
0.0
 10
676.4457701973
 20
108.4264562469
 30
0.0
 10
677.608263222
 20
107.9413401178
 30
0.0
 10
678.8036391151
 20
106.9619055605
 30
0.0
 10
679.4485220574
 20
106.029200375
 30
0.0
 10
679.7459207182
 20
105.312073405
 30
0.0
 10
679.8561767323
 20
104.5845803096
 30
0.0
 10
679.79827877
 20
104.1082215924
 30
0.0
 10
679.738198433
 20
103.8839987221
 30
0.0
  0
SPLINE
  5
72F
100
AcDbEntity
  8
RUNDUNGEN
100
AcDbSpline
 62
7
  6
CONTINUOUS
 70
0
 71
3
 72
13
 73
9
 74
0
 42
0.0000001
 43
0.0000001
 44
0.0000000001
 40
0.0
 40
0.0
 40
0.0
 40
0.0
 40
0.2360077172
 40
0.3661261163
 40
0.500000078
 40
0.6338740716
 40
0.7639924399
 40
1.0
 40
1.0
 40
1.0
 40
1.0
 10
652.4163876781
 20
121.9432170255
 30
0.0
 10
653.1427204656
 20
122.3673266479
 30
0.0
 10
654.4546674777
 20
122.7207906318
 30
0.0
 10
656.2391390411
 20
122.7093145668
 30
0.0
 10
657.642544455
 20
122.4577331106
 30
0.0
 10
658.9837197165
 20
121.9739060846
 30
0.0
 10
660.5348547875
 20
121.0916087975
 30
0.0
 10
661.494301504
 20
120.1295268412
 30
0.0
 10
661.9112690609
 20
119.3990712267
 30
0.0
  0
SPLINE
  5
730
100
AcDbEntity
  8
RUNDUNGEN
100
AcDbSpline
 62
7
  6
CONTINUOUS
 70
0
 71
3
 72
9
 73
5
 74
0
 42
0.0000001
 43
0.0000001
 44
0.0000000001
 40
0.0
 40
0.0
 40
0.0
 40
0.0
 40
0.5167739528
 40
1.0
 40
1.0
 40
1.0
 40
1.0
 10
643.3688103217
 20
139.6307993023
 30
0.0
 10
644.1178591883
 20
140.0681729655
 30
0.0
 10
645.4794946211
 20
141.0832330762
 30
0.0
 10
646.5166714129
 20
142.438026255
 30
0.0
 10
646.903093266
 20
143.1511420897
 30
0.0
  0
SPLINE
  5
731
100
AcDbEntity
  8
RUNDUNGEN
100
AcDbSpline
 62
7
  6
CONTINUOUS
 70
0
 71
3
 72
11
 73
7
 74
0
 42
0.0000001
 43
0.0000001
 44
0.0000000001
 40
0.0
 40
0.0
 40
0.0
 40
0.0
 40
0.2660806488
 40
0.5190943636
 40
0.7622194616
 40
1.0
 40
1.0
 40
1.0
 40
1.0
 10
645.602900013
 20
147.9685355389
 30
0.0
 10
645.9030085679
 20
147.4427968445
 30
0.0
 10
646.408795646
 20
146.3681571224
 30
0.0
 10
646.8555453382
 20
144.6819627256
 30
0.0
 10
646.956786655
 20
143.0038480743
 30
0.0
 10
646.7886245329
 20
141.9125769537
 30
0.0
 10
646.6486089616
 20
141.3900318021
 30
0.0
  0
SPLINE
  5
732
100
AcDbEntity
  8
RUNDUNGEN
100
AcDbSpline
 62
7
  6
CONTINUOUS
 70
0
 71
3
 72
10
 73
6
 74
0
 42
0.0000001
 43
0.0000001
 44
0.0000000001
 40
0.0
 40
0.0
 40
0.0
 40
0.0
 40
0.2540843695
 40
0.5191023225
 40
1.0
 40
1.0
 40
1.0
 40
1.0
 10
636.200245553
 20
174.0640379252
 30
0.0
 10
636.5058645463
 20
174.1253340931
 30
0.0
 10
637.1557822153
 20
174.1427520339
 30
0.0
 10
638.3476916942
 20
173.8457506771
 30
0.0
 10
639.1585986601
 20
173.2559041249
 30
0.0
 10
639.4510679353
 20
172.7435481378
 30
0.0
  0
SPLINE
  5
733
100
AcDbEntity
  8
RUNDUNGEN
100
AcDbSpline
 62
7
  6
CONTINUOUS
 70
0
 71
3
 72
9
 73
5
 74
0
 42
0.0000001
 43
0.0000001
 44
0.0000000001
 40
0.0
 40
0.0
 40
0.0
 40
0.0
 40
0.5194825986
 40
1.0
 40
1.0
 40
1.0
 40
1.0
 10
641.3100064313
 20
169.4870068575
 30
0.0
 10
641.4072770728
 20
169.3166053836
 30
0.0
 10
641.5464925241
 20
168.9554918487
 30
0.0
 10
641.531098168
 20
168.5648945904
 30
0.0
 10
641.4840100137
 20
168.3896170572
 30
0.0
  0
SPLINE
  5
734
100
AcDbEntity
  8
RUNDUNGEN
100
AcDbSpline
 62
7
  6
CONTINUOUS
 70
0
 71
3
 72
11
 73
7
 74
0
 42
0.0000001
 43
0.0000001
 44
0.0000000001
 40
0.0
 40
0.0
 40
0.0
 40
0.0
 40
0.2524375529
 40
0.5157480446
 40
0.7702932073
 40
1.0
 40
1.0
 40
1.0
 40
1.0
 10
688.5536408954
 20
162.800103635
 30
0.0
 10
689.0216681264
 20
162.3883378778
 30
0.0
 10
690.1254134019
 20
161.7079923091
 30
0.0
 10
691.9768500949
 20
161.1839743265
 30
0.0
 10
693.8461558495
 20
161.1745080808
 30
0.0
 10
695.0148669502
 20
161.5504086983
 30
0.0
 10
695.5047202153
 20
161.8364366553
 30
0.0
  0
SPLINE
  5
735
100
AcDbEntity
  8
RUNDUNGEN
100
AcDbSpline
 62
7
  6
CONTINUOUS
 70
0
 71
3
 72
11
 73
7
 74
0
 42
0.0000001
 43
0.0000001
 44
0.0000000001
 40
0.0
 40
0.0
 40
0.0
 40
0.0
 40
0.2297109937
 40
0.4842558728
 40
0.7475644511
 40
1.0
 40
1.0
 40
1.0
 40
1.0
 10
651.8912257783
 20
176.9657114349
 30
0.0
 10
652.1724423139
 20
176.4730683169
 30
0.0
 10
652.9966358914
 20
175.5631678622
 30
0.0
 10
654.6202438648
 20
174.6367187708
 30
0.0
 10
656.4856350233
 20
174.1648217299
 30
0.0
 10
657.781669046
 20
174.2021468429
 30
0.0
 10
658.392870543
 20
174.3247318602
 30
0.0
  0
SPLINE
  5
736
100
AcDbEntity
  8
0
100
AcDbSpline
 62
7
  6
CONTINUOUS
 70
0
 71
3
 72
11
 73
7
 74
0
 42
0.0000001
 43
0.0000001
 44
0.0000000001
 40
0.0
 40
0.0
 40
0.0
 40
0.0
 40
0.2094656921
 40
0.4446574861
 40
0.7119998836
 40
1.0
 40
1.0
 40
1.0
 40
1.0
 10
665.3347203351
 20
158.1134969253
 30
0.0
 10
665.3609883062
 20
158.211530328
 30
0.0
 10
665.353769097
 20
158.4391645603
 30
0.0
 10
665.1745609476
 20
158.7456021499
 30
0.0
 10
664.8736120526
 20
158.9922218603
 30
0.0
 10
664.621501775
 20
159.0975363248
 30
0.0
 10
664.4867129648
 20
159.1336528777
 30
0.0
  0
SPLINE
  5
737
100
AcDbEntity
  8
0
100
AcDbSpline
 62
7
  6
CONTINUOUS
 70
0
 71
3
 72
9
 73
5
 74
0
 42
0.0000001
 43
0.0000001
 44
0.0000000001
 40
0.0
 40
0.0
 40
0.0
 40
0.0
 40
0.4402133985
 40
1.0
 40
1.0
 40
1.0
 40
1.0
 10
655.1100122254
 20
160.0941845564
 30
0.0
 10
655.1040130034
 20
160.0717951552
 30
0.0
 10
655.1254304025
 20
160.0138003101
 30
0.0
 10
655.1754908658
 20
159.9887935107
 30
0.0
 10
655.2039618003
 20
159.9811647468
 30
0.0
  0
SPLINE
  5
738
100
AcDbEntity
  8
0
100
AcDbSpline
 62
7
  6
CONTINUOUS
 70
0
 71
3
 72
11
 73
7
 74
0
 42
0.0000001
 43
0.0000001
 44
0.0000000001
 40
0.0
 40
0.0
 40
0.0
 40
0.0
 40
0.2094929298
 40
0.4446655277
 40
0.7119947494
 40
1.0
 40
1.0
 40
1.0
 40
1.0
 10
652.0286272754
 20
157.8671872978
 30
0.0
 10
652.0140747202
 20
157.8128764226
 30
0.0
 10
652.0180762017
 20
157.6867744539
 30
0.0
 10
652.1173832841
 20
157.5170577901
 30
0.0
 10
652.2840510696
 20
157.3804201476
 30
0.0
 10
652.4237100182
 20
157.3220947114
 30
0.0
 10
652.49837515
 20
157.3020882496
 30
0.0
  0
SPLINE
  5
739
100
AcDbEntity
  8
0
100
AcDbSpline
 62
7
  6
CONTINUOUS
 70
0
 71
3
 72
9
 73
5
 74
0
 42
0.0000001
 43
0.0000001
 44
0.0000000001
 40
0.0
 40
0.0
 40
0.0
 40
0.0
 40
0.471076254
 40
1.0
 40
1.0
 40
1.0
 40
1.0
 10
656.434761167
 20
158.6631044602
 30
0.0
 10
656.4420365897
 20
158.6902567074
 30
0.0
 10
656.4400978908
 20
158.7532346121
 30
0.0
 10
656.4088859344
 20
158.8064640204
 30
0.0
 10
656.3887100864
 20
158.8307352371
 30
0.0
  0
SPLINE
  5
73A
100
AcDbEntity
  8
0
100
AcDbSpline
 62
7
  6
CONTINUOUS
 70
0
 71
3
 72
8
 73
4
 74
0
 42
0.0000001
 43
0.0000001
 44
0.0000000001
 40
0.0
 40
0.0
 40
0.0
 40
0.0
 40
1.0
 40
1.0
 40
1.0
 40
1.0
 10
656.3887100864
 20
158.8307352371
 30
0.0
 10
656.3775099126
 20
158.8442088639
 30
0.0
 10
656.3649835614
 20
158.8566486411
 30
0.0
 10
656.3516201589
 20
158.8679801011
 30
0.0
  0
SPLINE
  5
73B
100
AcDbEntity
  8
0
100
AcDbSpline
 62
7
  6
CONTINUOUS
 70
0
 71
3
 72
9
 73
5
 74
0
 42
0.0000001
 43
0.0000001
 44
0.0000000001
 40
0.0
 40
0.0
 40
0.0
 40
0.0
 40
0.241609722
 40
1.0
 40
1.0
 40
1.0
 40
1.0
 10
656.3516201589
 20
158.8679801011
 30
0.0
 10
656.3411013868
 20
158.8768994646
 30
0.0
 10
656.2952851836
 20
158.9110876979
 30
0.0
 10
656.2417017328
 20
158.934449822
 30
0.0
 10
656.1998872297
 20
158.9456539843
 30
0.0
  0
SPLINE
  5
73C
100
AcDbEntity
  8
0
100
AcDbSpline
 62
7
  6
CONTINUOUS
 70
0
 71
3
 72
11
 73
7
 74
0
 42
0.0000001
 43
0.0000001
 44
0.0000000001
 40
0.0
 40
0.0
 40
0.0
 40
0.0
 40
0.2880052506
 40
0.5553344723
 40
0.7905070702
 40
1.0
 40
1.0
 40
1.0
 40
1.0
 10
657.1348191162
 20
156.0597568331
 30
0.0
 10
657.2094842481
 20
156.0397503713
 30
0.0
 10
657.3595951636
 20
156.0204322065
 30
0.0
 10
657.572252521
 20
156.0554299832
 30
0.0
 10
657.743113309
 20
156.1527553844
 30
0.0
 10
657.809629678
 20
156.2599621519
 30
0.0
 10
657.8241822331
 20
156.3142730272
 30
0.0
  0
SPLINE
  5
73D
100
AcDbEntity
  8
0
100
AcDbSpline
 62
7
  6
CONTINUOUS
 70
0
 71
3
 72
9
 73
5
 74
0
 42
0.0000001
 43
0.0000001
 44
0.0000000001
 40
0.0
 40
0.0
 40
0.0
 40
0.0
 40
0.7407738242
 40
1.0
 40
1.0
 40
1.0
 40
1.0
 10
652.1201336263
 20
158.2086936487
 30
0.0
 10
652.1092844466
 20
158.1682039587
 30
0.0
 10
652.1066663462
 20
158.1095841143
 30
0.0
 10
652.118351711
 20
158.0541935229
 30
0.0
 10
652.1222281043
 20
158.0400462056
 30
0.0
  0
SPLINE
  5
73E
100
AcDbEntity
  8
0
100
AcDbSpline
 62
7
  6
CONTINUOUS
 70
0
 71
3
 72
9
 73
5
 74
0
 42
0.0000001
 43
0.0000001
 44
0.0000000001
 40
0.0
 40
0.0
 40
0.0
 40
0.0
 40
0.238285514
 40
1.0
 40
1.0
 40
1.0
 40
1.0
 10
652.1222281043
 20
158.0400462056
 30
0.0
 10
652.1262204507
 20
158.0254757043
 30
0.0
 10
652.1467943233
 20
157.9653822534
 30
0.0
 10
652.1813643525
 20
157.9105699287
 30
0.0
 10
652.2122357874
 20
157.8734320949
 30
0.0
  0
SPLINE
  5
73F
100
AcDbEntity
  8
0
100
AcDbSpline
 62
7
  6
CONTINUOUS
 70
0
 71
3
 72
9
 73
5
 74
0
 42
0.0000001
 43
0.0000001
 44
0.0000000001
 40
0.0
 40
0.0
 40
0.0
 40
0.0
 40
0.2355596553
 40
1.0
 40
1.0
 40
1.0
 40
1.0
 10
652.2122357874
 20
157.8734320949
 30
0.0
 10
652.2346241672
 20
157.8464992385
 30
0.0
 10
652.3404922458
 20
157.7412802102
 30
0.0
 10
652.4800969606
 20
157.6730112795
 30
0.0
 10
652.589881501
 20
157.6435946005
 30
0.0
  0
SPLINE
  5
740
100
AcDbEntity
  8
0
100
AcDbSpline
 62
7
  6
CONTINUOUS
 70
0
 71
3
 72
11
 73
7
 74
0
 42
0.0000001
 43
0.0000001
 44
0.0000000001
 40
0.0
 40
0.0
 40
0.0
 40
0.0
 40
0.2879697432
 40
0.5553440702
 40
0.7905331502
 40
1.0
 40
1.0
 40
1.0
 40
1.0
 10
654.7509984902
 20
159.333882552
 30
0.0
 10
654.7136702655
 20
159.3438846197
 30
0.0
 10
654.6386153136
 20
159.3535355885
 30
0.0
 10
654.5322732132
 20
159.3360674342
 30
0.0
 10
654.446852999
 20
159.2873734247
 30
0.0
 10
654.4135923545
 20
159.2337767021
 30
0.0
 10
654.4063169318
 20
159.2066244549
 30
0.0
  0
SPLINE
  5
741
100
AcDbEntity
  8
RUNDUNGEN
100
AcDbSpline
 62
7
  6
CONTINUOUS
 70
0
 71
3
 72
11
 73
7
 74
0
 42
0.0000001
 43
0.0000001
 44
0.0000000001
 40
0.0
 40
0.0
 40
0.0
 40
0.0
 40
0.237780559
 40
0.4809056754
 40
0.7339193747
 40
1.0
 40
1.0
 40
1.0
 40
1.0
 10
646.6486089616
 20
141.3900318021
 30
0.0
 10
646.5085933967
 20
140.8674866739
 30
0.0
 10
646.1085903761
 20
139.8383372056
 30
0.0
 10
645.181855454
 20
138.4356681855
 30
0.0
 10
643.951861814
 20
137.1987561025
 30
0.0
 10
642.9765176772
 20
136.5209845135
 30
0.0
 10
642.4537468122
 20
136.2157357929
 30
0.0
  0
SPLINE
  5
742
100
AcDbEntity
  8
0
100
AcDbSpline
 62
7
  6
CONTINUOUS
 70
0
 71
3
 72
11
 73
7
 74
0
 42
0.0000001
 43
0.0000001
 44
0.0000000001
 40
0.0
 40
0.0
 40
0.0
 40
0.0
 40
0.2879697432
 40
0.5553440702
 40
0.7905331502
 40
1.0
 40
1.0
 40
1.0
 40
1.0
 10
655.3000365959
 20
161.3829206577
 30
0.0
 10
655.2627083711
 20
161.3929227253
 30
0.0
 10
655.1876534192
 20
161.4025736941
 30
0.0
 10
655.0813113189
 20
161.3851055399
 30
0.0
 10
654.9958911047
 20
161.3364115304
 30
0.0
 10
654.9626304601
 20
161.2828148078
 30
0.0
 10
654.9553550374
 20
161.2556625606
 30
0.0
  0
SPLINE
  5
743
100
AcDbEntity
  8
0
100
AcDbSpline
 62
7
  6
CONTINUOUS
 70
0
 71
3
 72
9
 73
5
 74
0
 42
0.0000001
 43
0.0000001
 44
0.0000000001
 40
0.0
 40
0.0
 40
0.0
 40
0.0
 40
0.5597866015
 40
1.0
 40
1.0
 40
1.0
 40
1.0
 10
655.6210877957
 20
160.0890114154
 30
0.0
 10
655.5926168612
 20
160.0966401794
 30
0.0
 10
655.5367598286
 20
160.1000138874
 30
0.0
 10
655.4892143943
 20
160.0604975779
 30
0.0
 10
655.4832151723
 20
160.0381081766
 30
0.0
  0
SPLINE
  5
744
100
AcDbEntity
  8
0
100
AcDbSpline
 62
7
  6
CONTINUOUS
 70
0
 71
3
 72
9
 73
5
 74
0
 42
0.0000001
 43
0.0000001
 44
0.0000000001
 40
0.0
 40
0.0
 40
0.0
 40
0.0
 40
0.5597866015
 40
1.0
 40
1.0
 40
1.0
 40
1.0
 10
656.1312505935
 20
159.7326984635
 30
0.0
 10
656.1597215281
 20
159.7250696996
 30
0.0
 10
656.2155785607
 20
159.7216959915
 30
0.0
 10
656.2631239949
 20
159.761212301
 30
0.0
 10
656.2691232169
 20
159.7836017023
 30
0.0
  0
SPLINE
  5
745
100
AcDbEntity
  8
RUNDUNGEN
100
AcDbSpline
 62
7
  6
CONTINUOUS
 70
0
 71
3
 72
9
 73
5
 74
0
 42
0.0000001
 43
0.0000001
 44
0.0000000001
 40
0.0
 40
0.0
 40
0.0
 40
0.0
 40
0.4805366099
 40
1.0
 40
1.0
 40
1.0
 40
1.0
 10
688.4962993682
 20
106.2396054447
 30
0.0
 10
688.5901687349
 20
106.5899306903
 30
0.0
 10
688.6203138861
 20
107.3704342649
 30
0.0
 10
688.3420944121
 20
108.0919462172
 30
0.0
 10
688.1477296797
 20
108.4324398784
 30
0.0
  0
SPLINE
  5
746
100
AcDbEntity
  8
0
100
AcDbSpline
 62
7
  6
CONTINUOUS
 70
0
 71
3
 72
9
 73
5
 74
0
 42
0.0000001
 43
0.0000001
 44
0.0000000001
 40
0.0
 40
0.0
 40
0.0
 40
0.0
 40
0.5597866015
 40
1.0
 40
1.0
 40
1.0
 40
1.0
 10
655.5822124879
 20
157.6836603578
 30
0.0
 10
655.6106834224
 20
157.6760315939
 30
0.0
 10
655.666540455
 20
157.6726578858
 30
0.0
 10
655.7140858893
 20
157.7121741954
 30
0.0
 10
655.7200851112
 20
157.7345635966
 30
0.0
  0
SPLINE
  5
747
100
AcDbEntity
  8
RUNDUNGEN
100
AcDbSpline
 62
7
  6
CONTINUOUS
 70
0
 71
3
 72
10
 73
6
 74
0
 42
0.0000001
 43
0.0000001
 44
0.0000000001
 40
0.0
 40
0.0
 40
0.0
 40
0.0
 40
0.2265442612
 40
0.4650409816
 40
1.0
 40
1.0
 40
1.0
 40
1.0
 10
712.8968797899
 20
157.5310965057
 30
0.0
 10
712.9188784891
 20
157.6134117889
 30
0.0
 10
712.9344810399
 20
157.79163472
 30
0.0
 10
712.8442975129
 20
158.1619027669
 30
0.0
 10
712.6548260228
 20
158.4023922154
 30
0.0
 10
712.5037666531
 20
158.535292764
 30
0.0
  0
SPLINE
  5
748
100
AcDbEntity
  8
0
100
AcDbSpline
 62
7
  6
CONTINUOUS
 70
0
 71
3
 72
11
 73
7
 74
0
 42
0.0000001
 43
0.0000001
 44
0.0000000001
 40
0.0
 40
0.0
 40
0.0
 40
0.0
 40
0.2865059912
 40
0.5484241175
 40
0.7833822346
 40
1.0
 40
1.0
 40
1.0
 40
1.0
 10
664.5428798524
 20
156.9394732668
 30
0.0
 10
664.7390451918
 20
156.9328945176
 30
0.0
 10
665.1179745063
 20
156.9622000589
 30
0.0
 10
665.6307312922
 20
157.1438833081
 30
0.0
 10
666.0239672449
 20
157.4519047322
 30
0.0
 10
666.1754221237
 20
157.7349269582
 30
0.0
 10
666.2138087322
 20
157.8782737436
 30
0.0
  0
SPLINE
  5
749
100
AcDbEntity
  8
0
100
AcDbSpline
 62
7
  6
CONTINUOUS
 70
0
 71
3
 72
9
 73
5
 74
0
 42
0.0000001
 43
0.0000001
 44
0.0000000001
 40
0.0
 40
0.0
 40
0.0
 40
0.0
 40
0.4402133985
 40
1.0
 40
1.0
 40
1.0
 40
1.0
 10
655.2015185763
 20
160.4356909074
 30
0.0
 10
655.1955193543
 20
160.4133015061
 30
0.0
 10
655.2169367534
 20
160.3553066611
 30
0.0
 10
655.2669972167
 20
160.3302998616
 30
0.0
 10
655.2954681513
 20
160.3226710977
 30
0.0
  0
SPLINE
  5
74A
100
AcDbEntity
  8
0
100
AcDbSpline
 62
7
  6
CONTINUOUS
 70
0
 71
3
 72
8
 73
4
 74
0
 42
0.0000001
 43
0.0000001
 44
0.0000000001
 40
0.0
 40
0.0
 40
0.0
 40
0.0
 40
1.0
 40
1.0
 40
1.0
 40
1.0
 10
677.4365551432
 20
150.6199230597
 30
0.0
 10
677.514596796
 20
150.5990118619
 30
0.0
 10
677.5965880177
 20
150.5890026976
 30
0.0
 10
677.6773266546
 20
150.592011068
 30
0.0
  0
SPLINE
  5
74B
100
AcDbEntity
  8
0
100
AcDbSpline
 62
7
  6
CONTINUOUS
 70
0
 71
3
 72
11
 73
7
 74
0
 42
0.0000001
 43
0.0000001
 44
0.0000000001
 40
0.0
 40
0.0
 40
0.0
 40
0.0
 40
0.2847819434
 40
0.5451774547
 40
0.7807010719
 40
1.0
 40
1.0
 40
1.0
 40
1.0
 10
677.6773266546
 20
150.592011068
 30
0.0
 10
678.0523156911
 20
150.6059833865
 30
0.0
 10
678.7709759726
 20
150.7094568344
 30
0.0
 10
679.7314860382
 20
151.1131740882
 30
0.0
 10
680.4605727073
 20
151.7391841987
 30
0.0
 10
680.742657998
 20
152.2898959646
 30
0.0
 10
680.8174474117
 20
152.5690138562
 30
0.0
  0
SPLINE
  5
74C
100
AcDbEntity
  8
0
100
AcDbSpline
 62
7
  6
CONTINUOUS
 70
0
 71
3
 72
9
 73
5
 74
0
 42
0.0000001
 43
0.0000001
 44
0.0000000001
 40
0.0
 40
0.0
 40
0.0
 40
0.0
 40
0.239729366
 40
1.0
 40
1.0
 40
1.0
 40
1.0
 10
678.8735521633
 20
155.1968543425
 30
0.0
 10
678.8626053516
 20
155.2072191107
 30
0.0
 10
678.8138422509
 20
155.2471321784
 30
0.0
 10
678.7548616364
 20
155.2739114233
 30
0.0
 10
678.7086817014
 20
155.2862852995
 30
0.0
  0
SPLINE
  5
74D
100
AcDbEntity
  8
RUNDUNGEN
100
AcDbSpline
 62
7
  6
CONTINUOUS
 70
0
 71
3
 72
9
 73
5
 74
0
 42
0.0000001
 43
0.0000001
 44
0.0000000001
 40
0.0
 40
0.0
 40
0.0
 40
0.0
 40
0.5194635453
 40
1.0
 40
1.0
 40
1.0
 40
1.0
 10
624.2116306026
 20
125.5640659933
 30
0.0
 10
623.8730588748
 20
125.3663721399
 30
0.0
 10
623.2713577762
 20
124.8806341552
 30
0.0
 10
622.9072125169
 20
124.1896256443
 30
0.0
 10
622.8133431806
 20
123.8393005117
 30
0.0
  0
SPLINE
  5
74E
100
AcDbEntity
  8
RUNDUNGEN
100
AcDbSpline
 62
7
  6
CONTINUOUS
 70
0
 71
3
 72
10
 73
6
 74
0
 42
0.0000001
 43
0.0000001
 44
0.0000000001
 40
0.0
 40
0.0
 40
0.0
 40
0.0
 40
0.5349741761
 40
0.7734715455
 40
1.0
 40
1.0
 40
1.0
 40
1.0
 10
636.4949218163
 20
166.5487864954
 30
0.0
 10
636.2976344942
 20
166.5092177609
 30
0.0
 10
636.0132800226
 20
166.3956711754
 30
0.0
 10
635.7500482677
 20
166.1200694326
 30
0.0
 10
635.6744595957
 20
165.957913664
 30
0.0
 10
635.6523610425
 20
165.8756267232
 30
0.0
  0
SPLINE
  5
74F
100
AcDbEntity
  8
0
100
AcDbSpline
 62
7
  6
CONTINUOUS
 70
0
 71
3
 72
9
 73
5
 74
0
 42
0.0000001
 43
0.0000001
 44
0.0000000001
 40
0.0
 40
0.0
 40
0.0
 40
0.0
 40
0.471076254
 40
1.0
 40
1.0
 40
1.0
 40
1.0
 10
656.9837992726
 20
160.7121425659
 30
0.0
 10
656.9910746954
 20
160.7392948131
 30
0.0
 10
656.9891359964
 20
160.8022727178
 30
0.0
 10
656.9579240401
 20
160.8555021261
 30
0.0
 10
656.9377481921
 20
160.8797733428
 30
0.0
  0
SPLINE
  5
750
100
AcDbEntity
  8
0
100
AcDbSpline
 62
7
  6
CONTINUOUS
 70
0
 71
3
 72
8
 73
4
 74
0
 42
0.0000001
 43
0.0000001
 44
0.0000000001
 40
0.0
 40
0.0
 40
0.0
 40
0.0
 40
1.0
 40
1.0
 40
1.0
 40
1.0
 10
656.9377481921
 20
160.8797733428
 30
0.0
 10
656.9265480183
 20
160.8932469696
 30
0.0
 10
656.9140216671
 20
160.9056867468
 30
0.0
 10
656.9006582646
 20
160.9170182068
 30
0.0
  0
SPLINE
  5
751
100
AcDbEntity
  8
0
100
AcDbSpline
 62
7
  6
CONTINUOUS
 70
0
 71
3
 72
9
 73
5
 74
0
 42
0.0000001
 43
0.0000001
 44
0.0000000001
 40
0.0
 40
0.0
 40
0.0
 40
0.0
 40
0.241609722
 40
1.0
 40
1.0
 40
1.0
 40
1.0
 10
656.9006582646
 20
160.9170182068
 30
0.0
 10
656.8901394925
 20
160.9259375702
 30
0.0
 10
656.8443232893
 20
160.9601258035
 30
0.0
 10
656.7907398385
 20
160.9834879276
 30
0.0
 10
656.7489253353
 20
160.99469209
 30
0.0
  0
SPLINE
  5
752
100
AcDbEntity
  8
RUNDUNGEN
100
AcDbSpline
 62
7
  6
CONTINUOUS
 70
0
 71
3
 72
11
 73
7
 74
0
 42
0.0000001
 43
0.0000001
 44
0.0000000001
 40
0.0
 40
0.0
 40
0.0
 40
0.0
 40
0.2794013718
 40
0.5367226037
 40
0.7743080703
 40
1.0
 40
1.0
 40
1.0
 40
1.0
 10
631.306851901
 20
181.7615453267
 30
0.0
 10
630.9618773646
 20
181.6923558536
 30
0.0
 10
630.3092374398
 20
181.4943695033
 30
0.0
 10
629.458596085
 20
180.99671538
 30
0.0
 10
628.8225085998
 20
180.3308147314
 30
0.0
 10
628.5711508992
 20
179.7898433358
 30
0.0
 10
628.49764507
 20
179.5153039923
 30
0.0
  0
SPLINE
  5
753
100
AcDbEntity
  8
RUNDUNGEN
100
AcDbSpline
 62
7
  6
CONTINUOUS
 70
0
 71
3
 72
12
 73
8
 74
0
 42
0.0000001
 43
0.0000001
 44
0.0000000001
 40
0.0
 40
0.0
 40
0.0
 40
0.0
 40
0.2295487337
 40
0.3548258227
 40
0.4846200261
 40
0.7477431889
 40
1.0
 40
1.0
 40
1.0
 40
1.0
 10
650.4076691306
 20
174.5465503592
 30
0.0
 10
649.6202637267
 20
175.9259495205
 30
0.0
 10
647.9241594511
 20
177.7985773141
 30
0.0
 10
645.1564959092
 20
179.7001067344
 30
0.0
 10
641.9243811957
 20
181.2822149468
 30
0.0
 10
637.5421821647
 20
182.3887731206
 30
0.0
 10
633.9144231452
 20
182.2845302469
 30
0.0
 10
632.2030637896
 20
181.9412931684
 30
0.0
  0
SPLINE
  5
754
100
AcDbEntity
  8
0
100
AcDbSpline
 62
7
  6
CONTINUOUS
 70
0
 71
3
 72
9
 73
5
 74
0
 42
0.0000001
 43
0.0000001
 44
0.0000000001
 40
0.0
 40
0.0
 40
0.0
 40
0.0
 40
0.2419366003
 40
1.0
 40
1.0
 40
1.0
 40
1.0
 10
678.5798352732
 20
167.3548323925
 30
0.0
 10
678.194036228
 20
167.6942546002
 30
0.0
 10
676.53308557
 20
169.0209940384
 30
0.0
 10
674.6376565228
 20
170.0453677187
 30
0.0
 10
673.1429198661
 20
170.6437811831
 30
0.0
  0
SPLINE
  5
755
100
AcDbEntity
  8
0
100
AcDbSpline
 62
7
  6
CONTINUOUS
 70
0
 71
3
 72
9
 73
5
 74
0
 42
0.0000001
 43
0.0000001
 44
0.0000000001
 40
0.0
 40
0.0
 40
0.0
 40
0.0
 40
0.2576167678
 40
1.0
 40
1.0
 40
1.0
 40
1.0
 10
668.3118477325
 20
171.9382630598
 30
0.0
 10
667.770316528
 20
172.016119931
 30
0.0
 10
665.6579216631
 20
172.2355193603
 30
0.0
 10
663.504677568
 20
172.1184416154
 30
0.0
 10
661.9588664765
 20
171.808407559
 30
0.0
  0
SPLINE
  5
756
100
AcDbEntity
  8
RUNDUNGEN
100
AcDbSpline
 62
7
  6
CONTINUOUS
 70
0
 71
3
 72
10
 73
6
 74
0
 42
0.0000001
 43
0.0000001
 44
0.0000000001
 40
0.0
 40
0.0
 40
0.0
 40
0.0
 40
0.2540841022
 40
0.5191024011
 40
1.0
 40
1.0
 40
1.0
 40
1.0
 10
706.4646052446
 20
163.8484876086
 30
0.0
 10
706.3241899546
 20
163.9720236005
 30
0.0
 10
705.9917082779
 20
164.1760497425
 30
0.0
 10
705.2832734391
 20
164.3792959586
 30
0.0
 10
704.6849596899
 20
164.3160748721
 30
0.0
 10
704.3792814486
 20
164.1375877025
 30
0.0
  0
SPLINE
  5
757
100
AcDbEntity
  8
BEZUGSACHSEN
100
AcDbSpline
 62
7
  6
CONTINUOUS
 70
0
 71
3
 72
19
 73
15
 74
0
 42
0.0000001
 43
0.0000001
 44
0.0000000001
 40
0.0
 40
0.0
 40
0.0
 40
0.0
 40
0.0517279957
 40
0.105334459
 40
0.1622489926
 40
0.2232158543
 40
0.3564755372
 40
0.5
 40
0.6435244628
 40
0.7767841457
 40
0.8377510074
 40
0.894665541
 40
0.9482720043
 40
1.0
 40
1.0
 40
1.0
 40
1.0
 10
663.7146002573
 20
166.3693258187
 30
0.0
 10
663.6485109889
 20
166.1226773109
 30
0.0
 10
663.584825988
 20
165.5986819018
 30
0.0
 10
663.7061036938
 20
164.7984368263
 30
0.0
 10
664.0332628661
 20
164.0095953431
 30
0.0
 10
664.7425228498
 20
162.9836508302
 30
0.0
 10
666.0584133806
 20
161.9060131968
 30
0.0
 10
667.9958633578
 20
161.0968490517
 30
0.0
 10
670.0783263291
 20
160.8288807686
 30
0.0
 10
671.7567397741
 20
161.1041970698
 30
0.0
 10
672.8839491943
 20
161.638061089
 30
0.0
 10
673.5616980902
 20
162.1576382669
 30
0.0
 10
674.066850202
 20
162.7900319786
 30
0.0
 10
674.273695078
 20
163.2756678148
 30
0.0
 10
674.3397843465
 20
163.5223163226
 30
0.0
  0
SPLINE
  5
758
100
AcDbEntity
  8
0
100
AcDbSpline
 62
7
  6
CONTINUOUS
 70
0
 71
3
 72
11
 73
7
 74
0
 42
0.0000001
 43
0.0000001
 44
0.0000000001
 40
0.0
 40
0.0
 40
0.0
 40
0.0
 40
0.227142142
 40
0.4653047767
 40
0.7220182825
 40
1.0
 40
1.0
 40
1.0
 40
1.0
 10
679.7135764903
 20
152.8794361943
 30
0.0
 10
679.7641547462
 20
153.0681968152
 30
0.0
 10
679.8034991587
 20
153.4748500385
 30
0.0
 10
679.6675690849
 20
154.0897449171
 30
0.0
 10
679.3524818966
 20
154.6829537789
 30
0.0
 10
679.0472167334
 20
155.0324235418
 30
0.0
 10
678.8735521633
 20
155.1968543425
 30
0.0
  0
SPLINE
  5
759
100
AcDbEntity
  8
0
100
AcDbSpline
 62
7
  6
CONTINUOUS
 70
0
 71
3
 72
17
 73
13
 74
0
 42
0.0000001
 43
0.0000001
 44
0.0000000001
 40
0.0
 40
0.0
 40
0.0
 40
0.0
 40
0.0517921087
 40
0.1054769531
 40
0.2228492041
 40
0.356284866
 40
0.5
 40
0.643715134
 40
0.7771507959
 40
0.8945230469
 40
0.9482078913
 40
1.0
 40
1.0
 40
1.0
 40
1.0
 10
667.0728415604
 20
155.4940768217
 30
0.0
 10
667.0386336389
 20
155.3664111206
 30
0.0
 10
667.0057155178
 20
155.0951490529
 30
0.0
 10
667.091603846
 20
154.5269964246
 30
0.0
 10
667.4931833972
 20
153.8308864786
 30
0.0
 10
668.2856717081
 20
153.1847742395
 30
0.0
 10
669.2889011231
 20
152.7642988957
 30
0.0
 10
670.3679609542
 20
152.6268265176
 30
0.0
 10
671.3773320832
 20
152.7901319749
 30
0.0
 10
672.0731651491
 20
153.1921910964
 30
0.0
 10
672.4316229374
 20
153.6412815416
 30
0.0
 10
672.5387460421
 20
153.8926604439
 30
0.0
 10
672.5729539636
 20
154.020326145
 30
0.0
  0
SPLINE
  5
75A
100
AcDbEntity
  8
0
100
AcDbSpline
 62
7
  6
CONTINUOUS
 70
0
 71
3
 72
9
 73
5
 74
0
 42
0.0000001
 43
0.0000001
 44
0.0000000001
 40
0.0
 40
0.0
 40
0.0
 40
0.0
 40
0.4402133985
 40
1.0
 40
1.0
 40
1.0
 40
1.0
 10
654.5609741197
 20
158.0451464507
 30
0.0
 10
654.5549748977
 20
158.0227570495
 30
0.0
 10
654.5763922968
 20
157.9647622045
 30
0.0
 10
654.6264527601
 20
157.939755405
 30
0.0
 10
654.6549236946
 20
157.9321266411
 30
0.0
  0
SPLINE
  5
75B
100
AcDbEntity
  8
0
100
AcDbSpline
 62
7
  6
CONTINUOUS
 70
0
 71
3
 72
9
 73
5
 74
0
 42
0.0000001
 43
0.0000001
 44
0.0000000001
 40
0.0
 40
0.0
 40
0.0
 40
0.0
 40
0.4402133985
 40
1.0
 40
1.0
 40
1.0
 40
1.0
 10
654.6524804706
 20
158.3866528017
 30
0.0
 10
654.6464812487
 20
158.3642634004
 30
0.0
 10
654.6678986478
 20
158.3062685554
 30
0.0
 10
654.7179591111
 20
158.281261756
 30
0.0
 10
654.7464300456
 20
158.2736329921
 30
0.0
  0
SPLINE
  5
75C
100
AcDbEntity
  8
0
100
AcDbSpline
 62
7
  6
CONTINUOUS
 70
0
 71
3
 72
9
 73
5
 74
0
 42
0.0000001
 43
0.0000001
 44
0.0000000001
 40
0.0
 40
0.0
 40
0.0
 40
0.0
 40
0.5
 40
1.0
 40
1.0
 40
1.0
 40
1.0
 10
667.1214880895
 20
155.5940384414
 30
0.0
 10
667.0210836678
 20
154.4873033287
 30
0.0
 10
669.2189813239
 20
152.5033546528
 30
0.0
 10
672.114390867
 20
153.1225557778
 30
0.0
 10
672.5808056435
 20
154.1312187116
 30
0.0
  0
SPLINE
  5
75D
100
AcDbEntity
  8
0
100
AcDbSpline
 62
7
  6
CONTINUOUS
 70
0
 71
3
 72
8
 73
4
 74
0
 42
0.0000001
 43
0.0000001
 44
0.0000000001
 40
0.0
 40
0.0
 40
0.0
 40
0.0
 40
1.0
 40
1.0
 40
1.0
 40
1.0
 10
677.5280614941
 20
150.9614294107
 30
0.0
 10
677.606103147
 20
150.9405182128
 30
0.0
 10
677.6880943687
 20
150.9305090485
 30
0.0
 10
677.7688330056
 20
150.933517419
 30
0.0
  0
SPLINE
  5
75E
100
AcDbEntity
  8
0
100
AcDbSpline
 62
7
  6
CONTINUOUS
 70
0
 71
3
 72
11
 73
7
 74
0
 42
0.0000001
 43
0.0000001
 44
0.0000000001
 40
0.0
 40
0.0
 40
0.0
 40
0.0
 40
0.2816347582
 40
0.5420479832
 40
0.7798483853
 40
1.0
 40
1.0
 40
1.0
 40
1.0
 10
677.7688330056
 20
150.933517419
 30
0.0
 10
678.1075146162
 20
150.9461369008
 30
0.0
 10
678.7596021565
 20
151.0333862199
 30
0.0
 10
679.6469171656
 20
151.3662779628
 30
0.0
 10
680.3565591274
 20
151.8809333487
 30
0.0
 10
680.6820190204
 20
152.3421250137
 30
0.0
 10
680.7915901699
 20
152.5833328435
 30
0.0
  0
SPLINE
  5
75F
100
AcDbEntity
  8
0
100
AcDbSpline
 62
7
  6
CONTINUOUS
 70
0
 71
3
 72
9
 73
5
 74
0
 42
0.0000001
 43
0.0000001
 44
0.0000000001
 40
0.0
 40
0.0
 40
0.0
 40
0.0
 40
0.2591205677
 40
1.0
 40
1.0
 40
1.0
 40
1.0
 10
678.8001880524
 20
155.6277916505
 30
0.0
 10
678.8159227386
 20
155.623575554
 30
0.0
 10
678.8756075253
 20
155.6038609664
 30
0.0
 10
678.931237623
 20
155.5703833233
 30
0.0
 10
678.9650585143
 20
155.5383606934
 30
0.0
  0
SPLINE
  5
760
100
AcDbEntity
  8
0
100
AcDbSpline
 62
7
  6
CONTINUOUS
 70
0
 71
3
 72
11
 73
7
 74
0
 42
0.0000001
 43
0.0000001
 44
0.0000000001
 40
0.0
 40
0.0
 40
0.0
 40
0.0
 40
0.2779697373
 40
0.5346991835
 40
0.7728568778
 40
1.0
 40
1.0
 40
1.0
 40
1.0
 10
678.9650585143
 20
155.5383606934
 30
0.0
 10
679.1387162222
 20
155.3739363901
 30
0.0
 10
679.4439740954
 20
155.0244572424
 30
0.0
 10
679.7590966959
 20
154.4312630124
 30
0.0
 10
679.8950107764
 20
153.8163512268
 30
0.0
 10
679.8556788746
 20
153.4097000006
 30
0.0
 10
679.8051002192
 20
153.2209378888
 30
0.0
  0
SPLINE
  5
761
100
AcDbEntity
  8
0
100
AcDbSpline
 62
7
  6
CONTINUOUS
 70
0
 71
3
 72
9
 73
5
 74
0
 42
0.0000001
 43
0.0000001
 44
0.0000000001
 40
0.0
 40
0.0
 40
0.0
 40
0.0
 40
0.5403772208
 40
1.0
 40
1.0
 40
1.0
 40
1.0
 10
664.6343862034
 20
157.2809796178
 30
0.0
 10
664.9350951452
 20
157.2708948153
 30
0.0
 10
665.5024521152
 20
157.342392934
 30
0.0
 10
665.9921740624
 20
157.6739894187
 30
0.0
 10
666.142554133
 20
157.8810596511
 30
0.0
  0
SPLINE
  5
762
100
AcDbEntity
  8
0
100
AcDbSpline
 62
7
  6
CONTINUOUS
 70
0
 71
3
 72
8
 73
4
 74
0
 42
0.0000001
 43
0.0000001
 44
0.0000000001
 40
0.0
 40
0.0
 40
0.0
 40
0.0
 40
1.0
 40
1.0
 40
1.0
 40
1.0
 10
666.142554133
 20
157.8810596511
 30
0.0
 10
666.1801991218
 20
157.9328960184
 30
0.0
 10
666.2134554485
 20
157.988271641
 30
0.0
 10
666.2410931819
 20
158.0460670547
 30
0.0
  0
SPLINE
  5
763
100
AcDbEntity
  8
0
100
AcDbSpline
 62
7
  6
CONTINUOUS
 70
0
 71
3
 72
11
 73
7
 74
0
 42
0.0000001
 43
0.0000001
 44
0.0000000001
 40
0.0
 40
0.0
 40
0.0
 40
0.0
 40
0.2880066977
 40
0.5553334191
 40
0.790532629
 40
1.0
 40
1.0
 40
1.0
 40
1.0
 10
664.5782193158
 20
159.4751592286
 30
0.0
 10
664.7130106927
 20
159.439041988
 30
0.0
 10
664.9651239653
 20
159.3337414426
 30
0.0
 10
665.2660450775
 20
159.0870898709
 30
0.0
 10
665.4452578968
 20
158.7806728732
 30
0.0
 10
665.4525128279
 20
158.5530322521
 30
0.0
 10
665.4262447463
 20
158.454998437
 30
0.0
  0
SPLINE
  5
764
100
AcDbEntity
  8
RUNDUNGEN
100
AcDbSpline
 62
7
  6
CONTINUOUS
 70
0
 71
3
 72
11
 73
7
 74
0
 42
0.0000001
 43
0.0000001
 44
0.0000000001
 40
0.0
 40
0.0
 40
0.0
 40
0.0
 40
0.2256927635
 40
0.4632951072
 40
0.7206222905
 40
1.0
 40
1.0
 40
1.0
 40
1.0
 10
641.4840100137
 20
168.3896170572
 30
0.0
 10
641.4471665685
 20
168.2524736871
 30
0.0
 10
641.3213064
 20
167.9822938734
 30
0.0
 10
641.0032950364
 20
167.6497636291
 30
0.0
 10
640.5782058136
 20
167.4012389031
 30
0.0
 10
640.252121797
 20
167.3023455541
 30
0.0
 10
640.0797693706
 20
167.267777862
 30
0.0
  0
SPLINE
  5
765
100
AcDbEntity
  8
0
100
AcDbSpline
 62
7
  6
CONTINUOUS
 70
0
 71
3
 72
9
 73
5
 74
0
 42
0.0000001
 43
0.0000001
 44
0.0000000001
 40
0.0
 40
0.0
 40
0.0
 40
0.0
 40
0.5597866015
 40
1.0
 40
1.0
 40
1.0
 40
1.0
 10
655.6737188388
 20
158.0251667088
 30
0.0
 10
655.7021897733
 20
158.0175379448
 30
0.0
 10
655.758046806
 20
158.0141642368
 30
0.0
 10
655.8055922402
 20
158.0536805463
 30
0.0
 10
655.8115914622
 20
158.0760699476
 30
0.0
  0
SPLINE
  5
766
100
AcDbEntity
  8
0
100
AcDbSpline
 62
7
  6
CONTINUOUS
 70
0
 71
3
 72
9
 73
5
 74
0
 42
0.0000001
 43
0.0000001
 44
0.0000000001
 40
0.0
 40
0.0
 40
0.0
 40
0.0
 40
0.4402133985
 40
1.0
 40
1.0
 40
1.0
 40
1.0
 10
655.5747215233
 20
160.3796145276
 30
0.0
 10
655.5807207453
 20
160.4020039288
 30
0.0
 10
655.6282661795
 20
160.4415202384
 30
0.0
 10
655.6841232122
 20
160.4381465303
 30
0.0
 10
655.7125941467
 20
160.4305177664
 30
0.0
  0
SPLINE
  5
767
100
AcDbEntity
  8
0
100
AcDbSpline
 62
7
  6
CONTINUOUS
 70
0
 71
3
 72
9
 73
5
 74
0
 42
0.0000001
 43
0.0000001
 44
0.0000000001
 40
0.0
 40
0.0
 40
0.0
 40
0.0
 40
0.5597866015
 40
1.0
 40
1.0
 40
1.0
 40
1.0
 10
655.9154385702
 20
160.3761657669
 30
0.0
 10
655.9439095047
 20
160.368537003
 30
0.0
 10
655.993969968
 20
160.3435302036
 30
0.0
 10
656.0153873671
 20
160.2855353585
 30
0.0
 10
656.0093881451
 20
160.2631459573
 30
0.0
  0
SPLINE
  5
768
100
AcDbEntity
  8
0
100
AcDbSpline
 62
7
  6
CONTINUOUS
 70
0
 71
3
 72
9
 73
5
 74
0
 42
0.0000001
 43
0.0000001
 44
0.0000000001
 40
0.0
 40
0.0
 40
0.0
 40
0.0
 40
0.5597866015
 40
1.0
 40
1.0
 40
1.0
 40
1.0
 10
656.2227569445
 20
160.0742048144
 30
0.0
 10
656.251227879
 20
160.0665760505
 30
0.0
 10
656.3070849117
 20
160.0632023425
 30
0.0
 10
656.3546303459
 20
160.102718652
 30
0.0
 10
656.3606295679
 20
160.1251080532
 30
0.0
  0
SPLINE
  5
769
100
AcDbEntity
  8
0
100
AcDbSpline
 62
7
  6
CONTINUOUS
 70
0
 71
3
 72
11
 73
7
 74
0
 42
0.0000001
 43
0.0000001
 44
0.0000000001
 40
0.0
 40
0.0
 40
0.0
 40
0.0
 40
0.2876567391
 40
0.555407049
 40
0.7907201247
 40
1.0
 40
1.0
 40
1.0
 40
1.0
 10
656.8404316863
 20
161.3361984409
 30
0.0
 10
656.8777139361
 20
161.3262086922
 30
0.0
 10
656.9474430867
 20
161.2969062743
 30
0.0
 10
657.0310544225
 20
161.228833273
 30
0.0
 10
657.0803926623
 20
161.1437666687
 30
0.0
 10
657.0825734991
 20
161.0807729975
 30
0.0
 10
657.0753056236
 20
161.0536489168
 30
0.0
  0
SPLINE
  5
76A
100
AcDbEntity
  8
0
100
AcDbSpline
 62
7
  6
CONTINUOUS
 70
0
 71
3
 72
9
 73
5
 74
0
 42
0.0000001
 43
0.0000001
 44
0.0000000001
 40
0.0
 40
0.0
 40
0.0
 40
0.0
 40
0.5531686664
 40
1.0
 40
1.0
 40
1.0
 40
1.0
 10
656.3667607707
 20
159.2588763926
 30
0.0
 10
656.4194433654
 20
159.2330617772
 30
0.0
 10
656.5096170459
 20
159.1668204159
 30
0.0
 10
656.5385328203
 20
159.0503855427
 30
0.0
 10
656.5262675179
 20
159.0046108112
 30
0.0
  0
SPLINE
  5
76B
100
AcDbEntity
  8
0
100
AcDbSpline
 62
7
  6
CONTINUOUS
 70
0
 71
3
 72
9
 73
5
 74
0
 42
0.0000001
 43
0.0000001
 44
0.0000000001
 40
0.0
 40
0.0
 40
0.0
 40
0.0
 40
0.4575243679
 40
1.0
 40
1.0
 40
1.0
 40
1.0
 10
654.4978232827
 20
159.5481308059
 30
0.0
 10
654.5076088742
 20
159.5846511307
 30
0.0
 10
654.5631432222
 20
159.655797392
 30
0.0
 10
654.6457762898
 20
159.6812104304
 30
0.0
 10
654.6902602514
 20
159.6867598544
 30
0.0
  0
SPLINE
  5
76C
100
AcDbEntity
  8
0
100
AcDbSpline
 62
7
  6
CONTINUOUS
 70
0
 71
3
 72
8
 73
4
 74
0
 42
0.0000001
 43
0.0000001
 44
0.0000000001
 40
0.0
 40
0.0
 40
0.0
 40
0.0
 40
1.0
 40
1.0
 40
1.0
 40
1.0
 10
654.6902602514
 20
159.6867598544
 30
0.0
 10
654.740758368
 20
159.693059551
 30
0.0
 10
654.7933493137
 20
159.6885600868
 30
0.0
 10
654.8425048412
 20
159.6753889029
 30
0.0
  0
SPLINE
  5
76D
100
AcDbEntity
  8
0
100
AcDbSpline
 62
7
  6
CONTINUOUS
 70
0
 71
3
 72
11
 73
7
 74
0
 42
0.0000001
 43
0.0000001
 44
0.0000000001
 40
0.0
 40
0.0
 40
0.0
 40
0.0
 40
0.2092798753
 40
0.444592951
 40
0.7123432609
 40
1.0
 40
1.0
 40
1.0
 40
1.0
 10
655.0468613884
 20
161.5971689116
 30
0.0
 10
655.0541292639
 20
161.6242929922
 30
0.0
 10
655.0875147595
 20
161.6777566934
 30
0.0
 10
655.1727762308
 20
161.7267574138
 30
0.0
 10
655.2792222723
 20
161.7439046944
 30
0.0
 10
655.354260697
 20
161.7344167573
 30
0.0
 10
655.3915429468
 20
161.7244270086
 30
0.0
  0
SPLINE
  5
76E
100
AcDbEntity
  8
RUNDUNGEN
100
AcDbSpline
 62
7
  6
CONTINUOUS
 70
0
 71
3
 72
11
 73
7
 74
0
 42
0.0000001
 43
0.0000001
 44
0.0000000001
 40
0.0
 40
0.0
 40
0.0
 40
0.0
 40
0.2660806488
 40
0.5190943636
 40
0.7622194616
 40
1.0
 40
1.0
 40
1.0
 40
1.0
 10
677.6754285232
 20
126.7781146223
 30
0.0
 10
677.3753199682
 20
127.3038533167
 30
0.0
 10
676.8695328901
 20
128.3784930388
 30
0.0
 10
676.4227831979
 20
130.0646874356
 30
0.0
 10
676.3215418811
 20
131.742802087
 30
0.0
 10
676.4897040033
 20
132.8340732075
 30
0.0
 10
676.6297195745
 20
133.3566183591
 30
0.0
  0
SPLINE
  5
76F
100
AcDbEntity
  8
0
100
AcDbSpline
 62
7
  6
CONTINUOUS
 70
0
 71
3
 72
9
 73
5
 74
0
 42
0.0000001
 43
0.0000001
 44
0.0000000001
 40
0.0
 40
0.0
 40
0.0
 40
0.0
 40
0.538986273
 40
1.0
 40
1.0
 40
1.0
 40
1.0
 10
657.2263254672
 20
156.401263184
 30
0.0
 10
657.3361100075
 20
156.3718465051
 30
0.0
 10
657.5524017499
 20
156.3551985553
 30
0.0
 10
657.7604230401
 20
156.4424209234
 30
0.0
 10
657.8295509914
 20
156.5107736471
 30
0.0
  0
SPLINE
  5
770
100
AcDbEntity
  8
0
100
AcDbSpline
 62
7
  6
CONTINUOUS
 70
0
 71
3
 72
9
 73
5
 74
0
 42
0.0000001
 43
0.0000001
 44
0.0000000001
 40
0.0
 40
0.0
 40
0.0
 40
0.0
 40
0.2592261758
 40
1.0
 40
1.0
 40
1.0
 40
1.0
 10
657.8295509914
 20
156.5107736471
 30
0.0
 10
657.8399817051
 20
156.5210873866
 30
0.0
 10
657.8777968236
 20
156.5632143635
 30
0.0
 10
657.9048394043
 20
156.6152896881
 30
0.0
 10
657.9156885841
 20
156.6557793781
 30
0.0
  0
SPLINE
  5
771
100
AcDbEntity
  8
RUNDUNGEN
100
AcDbSpline
 62
7
  6
CONTINUOUS
 70
0
 71
3
 72
11
 73
7
 74
0
 42
0.0000001
 43
0.0000001
 44
0.0000000001
 40
0.0
 40
0.0
 40
0.0
 40
0.0
 40
0.2297109937
 40
0.4842558728
 40
0.7475644511
 40
1.0
 40
1.0
 40
1.0
 40
1.0
 10
694.5896567059
 20
158.4213731458
 30
0.0
 10
694.0997944831
 20
158.1353399584
 30
0.0
 10
692.93107168
 20
157.7594398384
 30
0.0
 10
691.0617613836
 20
157.7689153767
 30
0.0
 10
689.2103367318
 20
158.2929361305
 30
0.0
 10
688.1066009005
 20
158.973277638
 30
0.0
 10
687.6385773859
 20
159.3850401256
 30
0.0
  0
SPLINE
  5
772
100
AcDbEntity
  8
0
100
AcDbSpline
 62
7
  6
CONTINUOUS
 70
0
 71
3
 72
9
 73
5
 74
0
 42
0.0000001
 43
0.0000001
 44
0.0000000001
 40
0.0
 40
0.0
 40
0.0
 40
0.0
 40
0.4402133985
 40
1.0
 40
1.0
 40
1.0
 40
1.0
 10
655.9178817942
 20
159.9216396063
 30
0.0
 10
655.9238810162
 20
159.9440290076
 30
0.0
 10
655.9024636171
 20
160.0020238526
 30
0.0
 10
655.8524031538
 20
160.0270306521
 30
0.0
 10
655.8239322193
 20
160.034659416
 30
0.0
  0
SPLINE
  5
773
100
AcDbEntity
  8
RUNDUNGEN
100
AcDbSpline
 62
7
  6
CONTINUOUS
 70
0
 71
3
 72
11
 73
7
 74
0
 42
0.0000001
 43
0.0000001
 44
0.0000000001
 40
0.0
 40
0.0
 40
0.0
 40
0.0
 40
0.2524375529
 40
0.5157480446
 40
0.7702932073
 40
1.0
 40
1.0
 40
1.0
 40
1.0
 10
657.4778070335
 20
170.9096683508
 30
0.0
 10
656.8666006832
 20
170.78708236
 30
0.0
 10
655.5705564509
 20
170.749758452
 30
0.0
 10
653.70515625
 20
171.2216639135
 30
0.0
 10
652.0815568562
 20
172.1481187816
 30
0.0
 10
651.2573736621
 20
173.058013816
 30
0.0
 10
650.9761622689
 20
173.5506479255
 30
0.0
  0
SPLINE
  5
774
100
AcDbEntity
  8
KONSTRUKTIONSELEMENTE
100
AcDbSpline
 62
7
  6
CONTINUOUS
 70
0
 71
3
 72
9
 73
5
 74
0
 42
0.0000001
 43
0.0000001
 44
0.0000000001
 40
0.0
 40
0.0
 40
0.0
 40
0.0
 40
0.2519249475
 40
1.0
 40
1.0
 40
1.0
 40
1.0
 10
686.9134348219
 20
207.5500412545
 30
0.0
 10
687.4581935069
 20
207.2956148504
 30
0.0
 10
689.5935170619
 20
206.2297565874
 30
0.0
 10
691.6194370738
 20
204.9367705284
 30
0.0
 10
693.0241895162
 20
203.8348768587
 30
0.0
  0
SPLINE
  5
775
100
AcDbEntity
  8
RUNDUNGEN
100
AcDbSpline
 62
7
  6
CONTINUOUS
 70
0
 71
3
 72
15
 73
11
 74
0
 42
0.0000001
 43
0.0000001
 44
0.0000000001
 40
0.0
 40
0.0
 40
0.0
 40
0.0
 40
0.0506580437
 40
0.0823029949
 40
0.1197229212
 40
0.2136507622
 40
0.3333912895
 40
0.4767107866
 40
0.6395049098
 40
1.0
 40
1.0
 40
1.0
 40
1.0
 10
709.0979380134
 20
204.3763357661
 30
0.0
 10
709.119162047
 20
204.455544938
 30
0.0
 10
709.0983996416
 20
204.5984818612
 30
0.0
 10
709.0046520315
 20
204.767839212
 30
0.0
 10
708.8402321925
 20
204.975930405
 30
0.0
 10
708.5289933351
 20
205.2415420537
 30
0.0
 10
708.0423732489
 20
205.5546600754
 30
0.0
 10
707.4287450381
 20
205.8708518439
 30
0.0
 10
706.4356679072
 20
206.2943868759
 30
0.0
 10
705.6270203239
 20
206.5546717322
 30
0.0
 10
705.0633483887
 20
206.705707172
 30
0.0
  0
SPLINE
  5
776
100
AcDbEntity
  8
KONSTRUKTIONSELEMENTE
100
AcDbSpline
 62
7
  6
CONTINUOUS
 70
0
 71
3
 72
9
 73
5
 74
0
 42
0.0000001
 43
0.0000001
 44
0.0000000001
 40
0.0
 40
0.0
 40
0.0
 40
0.0
 40
0.2481912135
 40
1.0
 40
1.0
 40
1.0
 40
1.0
 10
667.6897109939
 20
210.6232299194
 30
0.0
 10
668.276170552
 20
210.7068081058
 30
0.0
 10
670.6499313261
 20
210.9655367951
 30
0.0
 10
673.0516717864
 20
210.9405924418
 30
0.0
 10
674.8393619933
 20
210.7852793183
 30
0.0
  0
SPLINE
  5
777
100
AcDbEntity
  8
KONSTRUKTIONSELEMENTE
100
AcDbSpline
 62
7
  6
CONTINUOUS
 70
0
 71
3
 72
11
 73
7
 74
0
 42
0.0000001
 43
0.0000001
 44
0.0000000001
 40
0.0
 40
0.0
 40
0.0
 40
0.0
 40
0.2498418809
 40
0.4997992424
 40
0.7498631476
 40
1.0
 40
1.0
 40
1.0
 40
1.0
 10
665.0856712146
 20
207.5556808072
 30
0.0
 10
665.1745064723
 20
207.8872185021
 30
0.0
 10
665.4415560795
 20
208.5295117862
 30
0.0
 10
666.0580396207
 20
209.3645352004
 30
0.0
 10
666.8216286188
 20
210.0639064612
 30
0.0
 10
667.3937984298
 20
210.4485214682
 30
0.0
 10
667.6897109939
 20
210.6232299194
 30
0.0
  0
SPLINE
  5
778
100
AcDbEntity
  8
KONSTRUKTIONSELEMENTE
100
AcDbSpline
 62
7
  6
CONTINUOUS
 70
0
 71
3
 72
9
 73
5
 74
0
 42
0.0000001
 43
0.0000001
 44
0.0000000001
 40
0.0
 40
0.0
 40
0.0
 40
0.0
 40
0.5001839413
 40
1.0
 40
1.0
 40
1.0
 40
1.0
 10
662.4757232737
 20
200.6322757339
 30
0.0
 10
662.8192977521
 20
201.0620147115
 30
0.0
 10
663.445627758
 20
201.9738466354
 30
0.0
 10
663.8659102692
 20
203.0034709856
 30
0.0
 10
664.0082075299
 20
203.5345315924
 30
0.0
  0
SPLINE
  5
779
100
AcDbEntity
  8
KONSTRUKTIONSELEMENTE
100
AcDbSpline
 62
7
  6
CONTINUOUS
 70
0
 71
3
 72
9
 73
5
 74
0
 42
0.0000001
 43
0.0000001
 44
0.0000000001
 40
0.0
 40
0.0
 40
0.0
 40
0.0
 40
0.4998160587
 40
1.0
 40
1.0
 40
1.0
 40
1.0
 10
692.6681158766
 20
195.8551322957
 30
0.0
 10
692.5258186159
 20
195.324071689
 30
0.0
 10
692.3749817722
 20
194.2222495897
 30
0.0
 10
692.4614835065
 20
193.1194149767
 30
0.0
 10
692.5441582441
 20
192.5754628659
 30
0.0
  0
SPLINE
  5
77A
100
AcDbEntity
  8
KONSTRUKTIONSELEMENTE
100
AcDbSpline
 62
7
  6
CONTINUOUS
 70
0
 71
3
 72
11
 73
7
 74
0
 42
0.0000001
 43
0.0000001
 44
0.0000000001
 40
0.0
 40
0.0
 40
0.0
 40
0.0
 40
0.2501369337
 40
0.5002009564
 40
0.7501583912
 40
1.0
 40
1.0
 40
1.0
 40
1.0
 10
693.0241895162
 20
203.8348768587
 30
0.0
 10
693.1931031432
 20
203.5356185225
 30
0.0
 10
693.4963093404
 20
202.916447001
 30
0.0
 10
693.8079112547
 20
201.928978838
 30
0.0
 10
693.924289606
 20
200.8975856458
 30
0.0
 10
693.8344147222
 20
200.2078188443
 30
0.0
 10
693.7455795614
 20
199.8762815105
 30
0.0
  0
SPLINE
  5
77B
100
AcDbEntity
  8
KONSTRUKTIONSELEMENTE
100
AcDbSpline
 62
7
  6
CONTINUOUS
 70
0
 71
3
 72
9
 73
5
 74
0
 42
0.0000001
 43
0.0000001
 44
0.0000000001
 40
0.0
 40
0.0
 40
0.0
 40
0.0
 40
0.7206016381
 40
1.0
 40
1.0
 40
1.0
 40
1.0
 10
692.3926019726
 20
178.1222057207
 30
0.0
 10
692.4137731181
 20
178.1165329294
 30
0.0
 10
692.4474859044
 20
178.1213796334
 30
0.0
 10
692.4726196647
 20
178.1384986882
 30
0.0
 10
692.4793162264
 20
178.1437309163
 30
0.0
  0
SPLINE
  5
77C
100
AcDbEntity
  8
KONSTRUKTIONSELEMENTE
100
AcDbSpline
 62
7
  6
CONTINUOUS
 70
0
 71
3
 72
18
 73
14
 74
0
 42
0.0000001
 43
0.0000001
 44
0.0000000001
 40
0.0
 40
0.0
 40
0.0
 40
0.0
 40
0.0122889573
 40
0.0325889573
 40
0.0613346189
 40
0.0984327877
 40
0.1435860424
 40
0.1963596956
 40
0.3225785801
 40
0.4720017517
 40
0.6387680168
 40
0.8167334978
 40
1.0
 40
1.0
 40
1.0
 40
1.0
 10
692.4793162264
 20
178.1437309163
 30
0.0
 10
692.526228372
 20
178.1803848074
 30
0.0
 10
692.6040411793
 20
178.3262789669
 30
0.0
 10
692.6931190259
 20
178.6066271522
 30
0.0
 10
692.7801921832
 20
179.0168336188
 30
0.0
 10
692.8619763072
 20
179.5478129613
 30
0.0
 10
692.9368066612
 20
180.1980008062
 30
0.0
 10
693.0296743322
 20
181.2799024336
 30
0.0
 10
693.1076645264
 20
182.8695922449
 30
0.0
 10
693.1318357168
 20
185.0131237258
 30
0.0
 10
693.0666701901
 20
187.4068526005
 30
0.0
 10
692.8877925914
 20
189.9592888688
 30
0.0
 10
692.6775667881
 20
191.6977115572
 30
0.0
 10
692.5441582441
 20
192.5754628659
 30
0.0
  0
SPLINE
  5
77D
100
AcDbEntity
  8
RUNDUNGEN
100
AcDbSpline
 62
7
  6
CONTINUOUS
 70
0
 71
3
 72
9
 73
5
 74
0
 42
0.0000001
 43
0.0000001
 44
0.0000000001
 40
0.0
 40
0.0
 40
0.0
 40
0.0
 40
0.4924379896
 40
1.0
 40
1.0
 40
1.0
 40
1.0
 10
674.5040262113
 20
231.573415629
 30
0.0
 10
673.6322385736
 20
231.8070104225
 30
0.0
 10
671.8456986953
 20
232.217989103
 30
0.0
 10
670.0635361707
 20
232.6467543446
 30
0.0
 10
669.1649737214
 20
232.8875234273
 30
0.0
  0
SPLINE
  5
77E
100
AcDbEntity
  8
KONSTRUKTIONSELEMENTE
100
AcDbSpline
 62
7
  6
CONTINUOUS
 70
0
 71
3
 72
18
 73
14
 74
0
 42
0.0000001
 43
0.0000001
 44
0.0000000001
 40
0.0
 40
0.0
 40
0.0
 40
0.0
 40
0.1832665022
 40
0.3612319832
 40
0.5279982483
 40
0.6774214199
 40
0.8036403044
 40
0.8564139576
 40
0.9015672123
 40
0.9386653811
 40
0.9674110427
 40
0.9877110427
 40
1.0
 40
1.0
 40
1.0
 40
1.0
 10
662.4757232737
 20
200.6322757339
 30
0.0
 10
661.9213124312
 20
199.9388250744
 30
0.0
 10
660.8700402007
 20
198.5384197653
 30
0.0
 10
659.438909522
 20
196.4173839148
 30
0.0
 10
658.185610083
 20
194.3769366628
 30
0.0
 10
657.1347772076
 20
192.5084983514
 30
0.0
 10
656.4074737913
 20
191.0927914936
 30
0.0
 10
655.9469487399
 20
190.1094033644
 30
0.0
 10
655.686659805
 20
189.5089089964
 30
0.0
 10
655.4919972627
 20
189.008175335
 30
0.0
 10
655.3623015957
 20
188.6093895355
 30
0.0
 10
655.2992711811
 20
188.3220619618
 30
0.0
 10
655.2937119692
 20
188.1568075097
 30
0.0
 10
655.3160121335
 20
188.101608236
 30
0.0
  0
SPLINE
  5
77F
100
AcDbEntity
  8
KONSTRUKTIONSELEMENTE
100
AcDbSpline
 62
7
  6
CONTINUOUS
 70
0
 71
3
 72
9
 73
5
 74
0
 42
0.0000001
 43
0.0000001
 44
0.0000000001
 40
0.0
 40
0.0
 40
0.0
 40
0.0
 40
0.2793983619
 40
1.0
 40
1.0
 40
1.0
 40
1.0
 10
655.3160121335
 20
188.101608236
 30
0.0
 10
655.319195412
 20
188.0937287128
 30
0.0
 10
655.3324023595
 20
188.0663362963
 30
0.0
 10
655.3591751368
 20
188.0452825343
 30
0.0
 10
655.3803462824
 20
188.039609743
 30
0.0
  0
SPLINE
  5
780
100
AcDbEntity
  8
RUNDUNGEN
100
AcDbSpline
 62
7
  6
CONTINUOUS
 70
0
 71
3
 72
15
 73
11
 74
0
 42
0.0000001
 43
0.0000001
 44
0.0000000001
 40
0.0
 40
0.0
 40
0.0
 40
0.0
 40
0.0506580437
 40
0.0823029949
 40
0.1197229212
 40
0.2136507622
 40
0.3333912895
 40
0.4767107866
 40
0.6395049098
 40
1.0
 40
1.0
 40
1.0
 40
1.0
 10
654.0401659149
 20
219.129021337
 30
0.0
 10
654.0613899486
 20
219.2082305088
 30
0.0
 10
654.1508391807
 20
219.3216363128
 30
0.0
 10
654.3167056681
 20
219.4214302758
 30
0.0
 10
654.563143022
 20
219.5194326157
 30
0.0
 10
654.9654896035
 20
219.5938396223
 30
0.0
 10
655.543473971
 20
219.6216977404
 30
0.0
 10
656.2329874743
 20
219.588713739
 30
0.0
 10
657.3047850135
 20
219.4589672706
 30
0.0
 10
658.1352367915
 20
219.2800567768
 30
0.0
 10
658.6989087268
 20
219.129021337
 30
0.0
  0
SPLINE
  5
781
100
AcDbEntity
  8
RUNDUNGEN
100
AcDbSpline
 62
7
  6
CONTINUOUS
 70
0
 71
3
 72
9
 73
5
 74
0
 42
0.0000001
 43
0.0000001
 44
0.0000000001
 40
0.0
 40
0.0
 40
0.0
 40
0.0
 40
0.2404036222
 40
1.0
 40
1.0
 40
1.0
 40
1.0
 10
709.2063493623
 20
221.9261860113
 30
0.0
 10
709.0661609392
 20
222.0168576954
 30
0.0
 10
708.4631851195
 20
222.3631639701
 30
0.0
 10
707.7970311848
 20
222.5930121884
 30
0.0
 10
707.2827020242
 20
222.7102626557
 30
0.0
  0
SPLINE
  5
782
100
AcDbEntity
  8
RUNDUNGEN
100
AcDbSpline
 62
7
  6
CONTINUOUS
 70
0
 71
3
 72
9
 73
5
 74
0
 42
0.0000001
 43
0.0000001
 44
0.0000000001
 40
0.0
 40
0.0
 40
0.0
 40
0.0
 40
0.2515165758
 40
1.0
 40
1.0
 40
1.0
 40
1.0
 10
666.3992053223
 20
233.6286088363
 30
0.0
 10
666.2627038811
 20
233.6651842881
 30
0.0
 10
665.7208215086
 20
233.8137175053
 30
0.0
 10
665.1823540243
 20
233.9744784401
 30
0.0
 10
664.7805535602
 20
234.0986222386
 30
0.0
  0
SPLINE
  5
783
100
AcDbEntity
  8
RUNDUNGEN
100
AcDbSpline
 62
7
  6
CONTINUOUS
 70
0
 71
3
 72
9
 73
5
 74
0
 42
0.0000001
 43
0.0000001
 44
0.0000000001
 40
0.0
 40
0.0
 40
0.0
 40
0.0
 40
0.2478013891
 40
1.0
 40
1.0
 40
1.0
 40
1.0
 10
707.2827020324
 20
222.7102626538
 30
0.0
 10
707.1468328191
 20
222.7412045759
 30
0.0
 10
706.5988992794
 20
222.8676427976
 30
0.0
 10
706.0530656723
 20
223.0033889787
 30
0.0
 10
705.6444894476
 20
223.1128666481
 30
0.0
  0
SPLINE
  5
784
100
AcDbEntity
  8
RUNDUNGEN
100
AcDbSpline
 62
7
  6
CONTINUOUS
 70
0
 71
3
 72
15
 73
11
 74
0
 42
0.0000001
 43
0.0000001
 44
0.0000000001
 40
0.0
 40
0.0
 40
0.0
 40
0.0
 40
0.0506580437
 40
0.0823029949
 40
0.1197229212
 40
0.2136507622
 40
0.3333912895
 40
0.4767107866
 40
0.6395049098
 40
1.0
 40
1.0
 40
1.0
 40
1.0
 10
707.5737597107
 20
198.6880249007
 30
0.0
 10
707.5949837444
 20
198.7672340725
 30
0.0
 10
707.5742213389
 20
198.9101709958
 30
0.0
 10
707.4804737288
 20
199.0795283466
 30
0.0
 10
707.3160538898
 20
199.2876195396
 30
0.0
 10
707.0048150324
 20
199.5532311883
 30
0.0
 10
706.5181949462
 20
199.86634921
 30
0.0
 10
705.9045667354
 20
200.1825409785
 30
0.0
 10
704.9114896045
 20
200.6060760104
 30
0.0
 10
704.1028420212
 20
200.8663608668
 30
0.0
 10
703.539170086
 20
201.0173963066
 30
0.0
  0
SPLINE
  5
785
100
AcDbEntity
  8
RUNDUNGEN
100
AcDbSpline
 62
7
  6
CONTINUOUS
 70
0
 71
3
 72
9
 73
5
 74
0
 42
0.0000001
 43
0.0000001
 44
0.0000000001
 40
0.0
 40
0.0
 40
0.0
 40
0.0
 40
0.5075627293
 40
1.0
 40
1.0
 40
1.0
 40
1.0
 10
702.8787212708
 20
223.8539519976
 30
0.0
 10
701.9801753318
 20
224.0947166563
 30
0.0
 10
700.2224287963
 20
224.6144636938
 30
0.0
 10
698.4697865303
 20
225.1518095055
 30
0.0
 10
697.5980174182
 20
225.3853993351
 30
0.0
  0
SPLINE
  5
786
100
AcDbEntity
  8
RUNDUNGEN
100
AcDbSpline
 62
7
  6
CONTINUOUS
 70
0
 71
3
 72
15
 73
11
 74
0
 42
0.0000001
 43
0.0000001
 44
0.0000000001
 40
0.0
 40
0.0
 40
0.0
 40
0.0
 40
0.3604950902
 40
0.5232892134
 40
0.6666087105
 40
0.7863492378
 40
0.8802770788
 40
0.9176970051
 40
0.9493419563
 40
1.0
 40
1.0
 40
1.0
 40
1.0
 10
657.1747304241
 20
213.4407104715
 30
0.0
 10
656.6110584888
 20
213.5917459114
 30
0.0
 10
655.7806067109
 20
213.7706564052
 30
0.0
 10
654.7088091716
 20
213.9004028736
 30
0.0
 10
654.0192956683
 20
213.933386875
 30
0.0
 10
653.4413113008
 20
213.9055287569
 30
0.0
 10
653.0389647193
 20
213.8311217503
 30
0.0
 10
652.7925273654
 20
213.7331194104
 30
0.0
 10
652.626660878
 20
213.6333254474
 30
0.0
 10
652.5372116459
 20
213.5199196434
 30
0.0
 10
652.5159876123
 20
213.4407104715
 30
0.0
  0
SPLINE
  5
787
100
AcDbEntity
  8
RUNDUNGEN
100
AcDbSpline
 62
7
  6
CONTINUOUS
 70
0
 71
3
 72
9
 73
5
 74
0
 42
0.0000001
 43
0.0000001
 44
0.0000000001
 40
0.0
 40
0.0
 40
0.0
 40
0.0
 40
0.259310087
 40
1.0
 40
1.0
 40
1.0
 40
1.0
 10
664.7805535602
 20
234.0986222386
 30
0.0
 10
664.6084174476
 20
234.1518069229
 30
0.0
 10
663.9375140153
 20
234.3315777214
 30
0.0
 10
663.2351687873
 20
234.4078269495
 30
0.0
 10
662.7212040553
 20
234.3818431563
 30
0.0
  0
SPLINE
  5
788
100
AcDbEntity
  8
0
100
AcDbSpline
 62
7
  6
CONTINUOUS
 70
0
 71
3
 72
9
 73
5
 74
0
 42
0.0000001
 43
0.0000001
 44
0.0000000001
 40
0.0
 40
0.0
 40
0.0
 40
0.0
 40
0.7206016381
 40
1.0
 40
1.0
 40
1.0
 40
1.0
 10
804.2012972163
 20
178.1222057207
 30
0.0
 10
804.1801260708
 20
178.1165329294
 30
0.0
 10
804.1464132845
 20
178.1213796334
 30
0.0
 10
804.1212795242
 20
178.1384986882
 30
0.0
 10
804.1145829625
 20
178.1437309163
 30
0.0
  0
SPLINE
  5
789
100
AcDbEntity
  8
0
100
AcDbSpline
 62
7
  6
CONTINUOUS
 70
0
 71
3
 72
18
 73
14
 74
0
 42
0.0000001
 43
0.0000001
 44
0.0000000001
 40
0.0
 40
0.0
 40
0.0
 40
0.0
 40
0.0122889573
 40
0.0325889573
 40
0.0613346189
 40
0.0984327877
 40
0.1435860424
 40
0.1963596956
 40
0.3225785801
 40
0.4720017517
 40
0.6387680168
 40
0.8167334978
 40
1.0
 40
1.0
 40
1.0
 40
1.0
 10
804.1145829625
 20
178.1437309163
 30
0.0
 10
804.0676708169
 20
178.1803848074
 30
0.0
 10
803.9898580096
 20
178.3262789669
 30
0.0
 10
803.900780163
 20
178.6066271522
 30
0.0
 10
803.8137070056
 20
179.0168336188
 30
0.0
 10
803.7319228817
 20
179.5478129613
 30
0.0
 10
803.6570925277
 20
180.1980008062
 30
0.0
 10
803.5642248567
 20
181.2799024336
 30
0.0
 10
803.4862346625
 20
182.8695922449
 30
0.0
 10
803.4620634721
 20
185.0131237258
 30
0.0
 10
803.5272289988
 20
187.4068526005
 30
0.0
 10
803.7061065975
 20
189.9592888688
 30
0.0
 10
803.9163324008
 20
191.6977115572
 30
0.0
 10
804.0497409448
 20
192.5754628659
 30
0.0
  0
SPLINE
  5
78A
100
AcDbEntity
  8
0
100
AcDbSpline
 62
7
  6
CONTINUOUS
 70
0
 71
3
 72
18
 73
14
 74
0
 42
0.0000001
 43
0.0000001
 44
0.0000000001
 40
0.0
 40
0.0
 40
0.0
 40
0.0
 40
0.1832665022
 40
0.3612319832
 40
0.5279982483
 40
0.6774214199
 40
0.8036403044
 40
0.8564139576
 40
0.9015672123
 40
0.9386653811
 40
0.9674110427
 40
0.9877110427
 40
1.0
 40
1.0
 40
1.0
 40
1.0
 10
834.1181759152
 20
200.6322757339
 30
0.0
 10
834.6725867577
 20
199.9388250744
 30
0.0
 10
835.7238589882
 20
198.5384197653
 30
0.0
 10
837.1549896669
 20
196.4173839148
 30
0.0
 10
838.4082891059
 20
194.3769366628
 30
0.0
 10
839.4591219813
 20
192.5084983514
 30
0.0
 10
840.1864253976
 20
191.0927914936
 30
0.0
 10
840.646950449
 20
190.1094033644
 30
0.0
 10
840.9072393839
 20
189.5089089964
 30
0.0
 10
841.1019019262
 20
189.008175335
 30
0.0
 10
841.2315975932
 20
188.6093895355
 30
0.0
 10
841.2946280078
 20
188.3220619618
 30
0.0
 10
841.3001872196
 20
188.1568075097
 30
0.0
 10
841.2778870554
 20
188.101608236
 30
0.0
  0
SPLINE
  5
78B
100
AcDbEntity
  8
0
100
AcDbSpline
 62
7
  6
CONTINUOUS
 70
0
 71
3
 72
9
 73
5
 74
0
 42
0.0000001
 43
0.0000001
 44
0.0000000001
 40
0.0
 40
0.0
 40
0.0
 40
0.0
 40
0.2793983619
 40
1.0
 40
1.0
 40
1.0
 40
1.0
 10
841.2778870554
 20
188.101608236
 30
0.0
 10
841.2747037769
 20
188.0937287128
 30
0.0
 10
841.2614968294
 20
188.0663362963
 30
0.0
 10
841.234724052
 20
188.0452825343
 30
0.0
 10
841.2135529065
 20
188.039609743
 30
0.0
  0
SPLINE
  5
78C
100
AcDbEntity
  8
0
100
AcDbSpline
 62
7
  6
CONTINUOUS
 70
0
 71
3
 72
9
 73
5
 74
0
 42
0.0000001
 43
0.0000001
 44
0.0000000001
 40
0.0
 40
0.0
 40
0.0
 40
0.0
 40
0.4998160587
 40
1.0
 40
1.0
 40
1.0
 40
1.0
 10
803.9257833123
 20
195.8551322957
 30
0.0
 10
804.068080573
 20
195.324071689
 30
0.0
 10
804.2189174167
 20
194.2222495897
 30
0.0
 10
804.1324156824
 20
193.1194149767
 30
0.0
 10
804.0497409448
 20
192.5754628659
 30
0.0
  0
SPLINE
  5
78D
100
AcDbEntity
  8
0
100
AcDbSpline
 62
7
  6
CONTINUOUS
 70
0
 71
3
 72
11
 73
7
 74
0
 42
0.0000001
 43
0.0000001
 44
0.0000000001
 40
0.0
 40
0.0
 40
0.0
 40
0.0
 40
0.2501369337
 40
0.5002009564
 40
0.7501583912
 40
1.0
 40
1.0
 40
1.0
 40
1.0
 10
803.5697096727
 20
203.8348768587
 30
0.0
 10
803.4007960457
 20
203.5356185225
 30
0.0
 10
803.0975898485
 20
202.916447001
 30
0.0
 10
802.7859879342
 20
201.928978838
 30
0.0
 10
802.6696095829
 20
200.8975856458
 30
0.0
 10
802.7594844667
 20
200.2078188443
 30
0.0
 10
802.8483196275
 20
199.8762815105
 30
0.0
  0
SPLINE
  5
78E
100
AcDbEntity
  8
0
100
AcDbSpline
 62
7
  6
CONTINUOUS
 70
0
 71
3
 72
11
 73
7
 74
0
 42
0.0000001
 43
0.0000001
 44
0.0000000001
 40
0.0
 40
0.0
 40
0.0
 40
0.0
 40
0.2498418809
 40
0.4997992424
 40
0.7498631476
 40
1.0
 40
1.0
 40
1.0
 40
1.0
 10
831.5082279743
 20
207.5556808072
 30
0.0
 10
831.4193927166
 20
207.8872185021
 30
0.0
 10
831.1523431094
 20
208.5295117862
 30
0.0
 10
830.5358595682
 20
209.3645352004
 30
0.0
 10
829.7722705701
 20
210.0639064612
 30
0.0
 10
829.2001007591
 20
210.4485214682
 30
0.0
 10
828.904188195
 20
210.6232299194
 30
0.0
  0
SPLINE
  5
78F
100
AcDbEntity
  8
0
100
AcDbSpline
 62
7
  6
CONTINUOUS
 70
0
 71
3
 72
9
 73
5
 74
0
 42
0.0000001
 43
0.0000001
 44
0.0000000001
 40
0.0
 40
0.0
 40
0.0
 40
0.0
 40
0.5001839413
 40
1.0
 40
1.0
 40
1.0
 40
1.0
 10
834.1181759152
 20
200.6322757339
 30
0.0
 10
833.7746014368
 20
201.0620147115
 30
0.0
 10
833.1482714309
 20
201.9738466354
 30
0.0
 10
832.7279889197
 20
203.0034709856
 30
0.0
 10
832.585691659
 20
203.5345315924
 30
0.0
  0
SPLINE
  5
790
100
AcDbEntity
  8
0
100
AcDbSpline
 62
7
  6
CONTINUOUS
 70
0
 71
3
 72
9
 73
5
 74
0
 42
0.0000001
 43
0.0000001
 44
0.0000000001
 40
0.0
 40
0.0
 40
0.0
 40
0.0
 40
0.2481912135
 40
1.0
 40
1.0
 40
1.0
 40
1.0
 10
828.904188195
 20
210.6232299194
 30
0.0
 10
828.3177286369
 20
210.7068081058
 30
0.0
 10
825.9439678628
 20
210.9655367951
 30
0.0
 10
823.5422274025
 20
210.9405924418
 30
0.0
 10
821.7545371956
 20
210.7852793183
 30
0.0
  0
SPLINE
  5
791
100
AcDbEntity
  8
0
100
AcDbSpline
 62
7
  6
CONTINUOUS
 70
0
 71
3
 72
9
 73
5
 74
0
 42
0.0000001
 43
0.0000001
 44
0.0000000001
 40
0.0
 40
0.0
 40
0.0
 40
0.0
 40
0.2519249475
 40
1.0
 40
1.0
 40
1.0
 40
1.0
 10
809.680464367
 20
207.5500412545
 30
0.0
 10
809.135705682
 20
207.2956148504
 30
0.0
 10
807.000382127
 20
206.2297565874
 30
0.0
 10
804.9744621151
 20
204.9367705284
 30
0.0
 10
803.5697096727
 20
203.8348768587
 30
0.0
  0
SPLINE
  5
792
100
AcDbEntity
  8
0
100
AcDbSpline
 62
7
  6
CONTINUOUS
 70
0
 71
3
 72
15
 73
11
 74
0
 42
0.0000001
 43
0.0000001
 44
0.0000000001
 40
0.0
 40
0.0
 40
0.0
 40
0.0
 40
0.0506580437
 40
0.0823029949
 40
0.1197229212
 40
0.2136507622
 40
0.3333912895
 40
0.4767107866
 40
0.6395049098
 40
1.0
 40
1.0
 40
1.0
 40
1.0
 10
789.0201394782
 20
198.6880249007
 30
0.0
 10
788.9989154445
 20
198.7672340725
 30
0.0
 10
789.01967785
 20
198.9101709958
 30
0.0
 10
789.1134254601
 20
199.0795283466
 30
0.0
 10
789.2778452991
 20
199.2876195396
 30
0.0
 10
789.5890841565
 20
199.5532311883
 30
0.0
 10
790.0757042427
 20
199.86634921
 30
0.0
 10
790.6893324535
 20
200.1825409785
 30
0.0
 10
791.6824095844
 20
200.6060760104
 30
0.0
 10
792.4910571677
 20
200.8663608668
 30
0.0
 10
793.0547291029
 20
201.0173963066
 30
0.0
  0
SPLINE
  5
793
100
AcDbEntity
  8
0
100
AcDbSpline
 62
7
  6
CONTINUOUS
 70
0
 71
3
 72
9
 73
5
 74
0
 42
0.0000001
 43
0.0000001
 44
0.0000000001
 40
0.0
 40
0.0
 40
0.0
 40
0.0
 40
0.2404036222
 40
1.0
 40
1.0
 40
1.0
 40
1.0
 10
787.3875498266
 20
221.9261860113
 30
0.0
 10
787.5277382496
 20
222.0168576954
 30
0.0
 10
788.1307140694
 20
222.3631639701
 30
0.0
 10
788.7968680041
 20
222.5930121884
 30
0.0
 10
789.3111971647
 20
222.7102626557
 30
0.0
  0
SPLINE
  5
794
100
AcDbEntity
  8
0
100
AcDbSpline
 62
7
  6
CONTINUOUS
 70
0
 71
3
 72
9
 73
5
 74
0
 42
0.0000001
 43
0.0000001
 44
0.0000000001
 40
0.0
 40
0.0
 40
0.0
 40
0.0
 40
0.5075627293
 40
1.0
 40
1.0
 40
1.0
 40
1.0
 10
793.7151779181
 20
223.8539519976
 30
0.0
 10
794.6137238571
 20
224.0947166563
 30
0.0
 10
796.3714703926
 20
224.6144636938
 30
0.0
 10
798.1241126586
 20
225.1518095055
 30
0.0
 10
798.9958817707
 20
225.3853993351
 30
0.0
  0
SPLINE
  5
795
100
AcDbEntity
  8
0
100
AcDbSpline
 62
7
  6
CONTINUOUS
 70
0
 71
3
 72
9
 73
5
 74
0
 42
0.0000001
 43
0.0000001
 44
0.0000000001
 40
0.0
 40
0.0
 40
0.0
 40
0.0
 40
0.4924379896
 40
1.0
 40
1.0
 40
1.0
 40
1.0
 10
822.0898729775
 20
231.573415629
 30
0.0
 10
822.9616606152
 20
231.8070104225
 30
0.0
 10
824.7482004936
 20
232.217989103
 30
0.0
 10
826.5303630182
 20
232.6467543446
 30
0.0
 10
827.4289254675
 20
232.8875234273
 30
0.0
  0
SPLINE
  5
796
100
AcDbEntity
  8
0
100
AcDbSpline
 62
7
  6
CONTINUOUS
 70
0
 71
3
 72
15
 73
11
 74
0
 42
0.0000001
 43
0.0000001
 44
0.0000000001
 40
0.0
 40
0.0
 40
0.0
 40
0.0
 40
0.0506580437
 40
0.0823029949
 40
0.1197229212
 40
0.2136507622
 40
0.3333912895
 40
0.4767107866
 40
0.6395049098
 40
1.0
 40
1.0
 40
1.0
 40
1.0
 10
787.4959611755
 20
204.3763357661
 30
0.0
 10
787.4747371419
 20
204.455544938
 30
0.0
 10
787.4954995473
 20
204.5984818612
 30
0.0
 10
787.5892471574
 20
204.767839212
 30
0.0
 10
787.7536669964
 20
204.975930405
 30
0.0
 10
788.0649058538
 20
205.2415420537
 30
0.0
 10
788.55152594
 20
205.5546600754
 30
0.0
 10
789.1651541508
 20
205.8708518439
 30
0.0
 10
790.1582312817
 20
206.2943868759
 30
0.0
 10
790.966878865
 20
206.5546717322
 30
0.0
 10
791.5305508002
 20
206.705707172
 30
0.0
  0
SPLINE
  5
797
100
AcDbEntity
  8
0
100
AcDbSpline
 62
7
  6
CONTINUOUS
 70
0
 71
3
 72
9
 73
5
 74
0
 42
0.0000001
 43
0.0000001
 44
0.0000000001
 40
0.0
 40
0.0
 40
0.0
 40
0.0
 40
0.2478013891
 40
1.0
 40
1.0
 40
1.0
 40
1.0
 10
789.3111971565
 20
222.7102626538
 30
0.0
 10
789.4470663698
 20
222.7412045759
 30
0.0
 10
789.9949999094
 20
222.8676427976
 30
0.0
 10
790.5408335166
 20
223.0033889787
 30
0.0
 10
790.9494097413
 20
223.1128666481
 30
0.0
  0
SPLINE
  5
798
100
AcDbEntity
  8
0
100
AcDbSpline
 62
7
  6
CONTINUOUS
 70
0
 71
3
 72
9
 73
5
 74
0
 42
0.0000001
 43
0.0000001
 44
0.0000000001
 40
0.0
 40
0.0
 40
0.0
 40
0.0
 40
0.2515165758
 40
1.0
 40
1.0
 40
1.0
 40
1.0
 10
830.1946938666
 20
233.6286088363
 30
0.0
 10
830.3311953077
 20
233.6651842881
 30
0.0
 10
830.8730776803
 20
233.8137175053
 30
0.0
 10
831.4115451646
 20
233.9744784401
 30
0.0
 10
831.8133456287
 20
234.0986222386
 30
0.0
  0
SPLINE
  5
799
100
AcDbEntity
  8
0
100
AcDbSpline
 62
7
  6
CONTINUOUS
 70
0
 71
3
 72
15
 73
11
 74
0
 42
0.0000001
 43
0.0000001
 44
0.0000000001
 40
0.0
 40
0.0
 40
0.0
 40
0.0
 40
0.0506580437
 40
0.0823029949
 40
0.1197229212
 40
0.2136507622
 40
0.3333912895
 40
0.4767107866
 40
0.6395049098
 40
1.0
 40
1.0
 40
1.0
 40
1.0
 10
842.553733274
 20
219.129021337
 30
0.0
 10
842.5325092403
 20
219.2082305088
 30
0.0
 10
842.4430600082
 20
219.3216363128
 30
0.0
 10
842.2771935208
 20
219.4214302758
 30
0.0
 10
842.0307561669
 20
219.5194326157
 30
0.0
 10
841.6284095854
 20
219.5938396223
 30
0.0
 10
841.0504252179
 20
219.6216977404
 30
0.0
 10
840.3609117146
 20
219.588713739
 30
0.0
 10
839.2891141753
 20
219.4589672706
 30
0.0
 10
838.4586623974
 20
219.2800567768
 30
0.0
 10
837.8949904621
 20
219.129021337
 30
0.0
  0
SPLINE
  5
79A
100
AcDbEntity
  8
0
100
AcDbSpline
 62
7
  6
CONTINUOUS
 70
0
 71
3
 72
9
 73
5
 74
0
 42
0.0000001
 43
0.0000001
 44
0.0000000001
 40
0.0
 40
0.0
 40
0.0
 40
0.0
 40
0.259310087
 40
1.0
 40
1.0
 40
1.0
 40
1.0
 10
831.8133456287
 20
234.0986222386
 30
0.0
 10
831.9854817413
 20
234.1518069229
 30
0.0
 10
832.6563851736
 20
234.3315777214
 30
0.0
 10
833.3587304016
 20
234.4078269495
 30
0.0
 10
833.8726951336
 20
234.3818431563
 30
0.0
  0
SPLINE
  5
79B
100
AcDbEntity
  8
0
100
AcDbSpline
 62
7
  6
CONTINUOUS
 70
0
 71
3
 72
15
 73
11
 74
0
 42
0.0000001
 43
0.0000001
 44
0.0000000001
 40
0.0
 40
0.0
 40
0.0
 40
0.0
 40
0.3604950902
 40
0.5232892134
 40
0.6666087105
 40
0.7863492378
 40
0.8802770788
 40
0.9176970051
 40
0.9493419563
 40
1.0
 40
1.0
 40
1.0
 40
1.0
 10
839.4191687648
 20
213.4407104715
 30
0.0
 10
839.9828407001
 20
213.5917459114
 30
0.0
 10
840.813292478
 20
213.7706564052
 30
0.0
 10
841.8850900173
 20
213.9004028736
 30
0.0
 10
842.5746035206
 20
213.933386875
 30
0.0
 10
843.1525878881
 20
213.9055287569
 30
0.0
 10
843.5549344696
 20
213.8311217503
 30
0.0
 10
843.8013718235
 20
213.7331194104
 30
0.0
 10
843.9672383108
 20
213.6333254474
 30
0.0
 10
844.056687543
 20
213.5199196434
 30
0.0
 10
844.0779115766
 20
213.4407104715
 30
0.0
  0
SPLINE
  5
79C
100
AcDbEntity
  8
KONSTRUKTIONSELEMENTE
100
AcDbSpline
 62
7
  6
CONTINUOUS
 70
0
 71
3
 72
11
 73
7
 74
0
 42
0.0000001
 43
0.0000001
 44
0.0000000001
 40
0.0
 40
0.0
 40
0.0
 40
0.0
 40
0.2193102634
 40
0.4447591571
 40
0.7096345186
 40
1.0
 40
1.0
 40
1.0
 40
1.0
 10
408.1916065332
 20
200.6836535056
 30
0.0
 10
407.9256647504
 20
200.8494663362
 30
0.0
 10
407.3695007324
 20
201.1608308623
 30
0.0
 10
406.3972653765
 20
201.4851378121
 30
0.0
 10
405.2490638612
 20
201.4545413535
 30
0.0
 10
404.519320576
 20
201.0462677229
 30
0.0
 10
404.2211357146
 20
200.7577202237
 30
0.0
  0
SPLINE
  5
79D
100
AcDbEntity
  8
KONSTRUKTIONSELEMENTE
100
AcDbSpline
 62
7
  6
CONTINUOUS
 70
0
 71
3
 72
25
 73
21
 74
0
 42
0.0000001
 43
0.0000001
 44
0.0000000001
 40
0.0
 40
0.0
 40
0.0
 40
0.0
 40
0.0139556627
 40
0.0215641577
 40
0.0229744644
 40
0.0230439997
 40
0.0271929754
 40
0.0360330942
 40
0.0489380107
 40
0.0654456056
 40
0.085103462
 40
0.1324479604
 40
0.1889354145
 40
0.2529517006
 40
0.323314794
 40
0.3989389876
 40
0.4788786837
 40
0.6480928262
 40
0.8241941934
 40
1.0
 40
1.0
 40
1.0
 40
1.0
 10
407.9416651642
 20
199.1967709042
 30
0.0
 10
407.9371299655
 20
199.2222407587
 30
0.0
 10
407.9240865043
 20
199.2707658495
 30
0.0
 10
407.9230545781
 20
199.2908955234
 30
0.0
 10
407.9099686472
 20
199.3229819452
 30
0.0
 10
407.9164044112
 20
199.3141357637
 30
0.0
 10
407.9214534132
 20
199.2903437096
 30
0.0
 10
407.944351903
 20
199.2476382265
 30
0.0
 10
407.9747104962
 20
199.1837653196
 30
0.0
 10
408.0181657977
 20
199.1037256367
 30
0.0
 10
408.0943706021
 20
198.9690139626
 30
0.0
 10
408.2148724621
 20
198.7742450341
 30
0.0
 10
408.387395599
 20
198.5152672743
 30
0.0
 10
408.5926886982
 20
198.2270237386
 30
0.0
 10
408.8265749865
 20
197.9157747808
 30
0.0
 10
409.0859342546
 20
197.5868847877
 30
0.0
 10
409.4684557457
 20
197.1219159564
 30
0.0
 10
409.9870034939
 20
196.5278873569
 30
0.0
 10
410.646999087
 20
195.8222380413
 30
0.0
 10
411.1082569397
 20
195.3607181451
 30
0.0
 10
411.3426635271
 20
195.1342987684
 30
0.0
  0
SPLINE
  5
79E
100
AcDbEntity
  8
KONSTRUKTIONSELEMENTE
100
AcDbSpline
 62
7
  6
CONTINUOUS
 70
0
 71
3
 72
17
 73
13
 74
0
 42
0.0000001
 43
0.0000001
 44
0.0000000001
 40
0.0
 40
0.0
 40
0.0
 40
0.0
 40
0.0672998635
 40
0.1329602329
 40
0.1944855734
 40
0.2504309869
 40
0.3502866628
 40
0.4545528348
 40
0.5743822025
 40
0.7091855667
 40
0.853565524
 40
1.0
 40
1.0
 40
1.0
 40
1.0
 10
404.2211357146
 20
200.7577202237
 30
0.0
 10
404.0490903178
 20
200.5912353501
 30
0.0
 10
403.755755975
 20
200.2099117562
 30
0.0
 10
403.505646317
 20
199.5552251212
 30
0.0
 10
403.4412556163
 20
198.9002953466
 30
0.0
 10
403.5353906912
 20
198.1278914797
 30
0.0
 10
403.8755315755
 20
197.256537799
 30
0.0
 10
404.4608854655
 20
196.2625441072
 30
0.0
 10
405.2048829342
 20
195.2232315041
 30
0.0
 10
406.1011673244
 20
194.1218087992
 30
0.0
 10
407.1146997234
 20
192.9962533206
 30
0.0
 10
407.8416304465
 20
192.259559819
 30
0.0
 10
408.2163038694
 20
191.8976530834
 30
0.0
  0
SPLINE
  5
79F
100
AcDbEntity
  8
KONSTRUKTIONSELEMENTE
100
AcDbSpline
 62
7
  6
CONTINUOUS
 70
0
 71
3
 72
13
 73
9
 74
0
 42
0.0000001
 43
0.0000001
 44
0.0000000001
 40
0.0
 40
0.0
 40
0.0
 40
0.0
 40
0.147827563
 40
0.2910391013
 40
0.5396303344
 40
0.6488307226
 40
0.7583173339
 40
1.0
 40
1.0
 40
1.0
 40
1.0
 10
425.9444333997
 20
179.0054601183
 30
0.0
 10
426.1351411776
 20
179.1900042032
 30
0.0
 10
426.4531227153
 20
179.6184410808
 30
0.0
 10
426.7631062818
 20
180.5512743005
 30
0.0
 10
426.6770921751
 20
181.4840419371
 30
0.0
 10
426.3783193312
 20
182.2680457735
 30
0.0
 10
426.0098162169
 20
183.0092354813
 30
0.0
 10
425.6654543508
 20
183.5394340546
 30
0.0
 10
425.4165413515
 20
183.8947969801
 30
0.0
  0
SPLINE
  5
7A0
100
AcDbEntity
  8
KONSTRUKTIONSELEMENTE
100
AcDbSpline
 62
7
  6
CONTINUOUS
 70
0
 71
3
 72
19
 73
15
 74
0
 42
0.0000001
 43
0.0000001
 44
0.0000000001
 40
0.0
 40
0.0
 40
0.0
 40
0.0
 40
0.186931947
 40
0.3655432537
 40
0.5317545855
 40
0.6818380102
 40
0.7494939838
 40
0.8113676119
 40
0.866702645
 40
0.9144809375
 40
0.9535989404
 40
0.9694074678
 40
0.9823674488
 40
1.0
 40
1.0
 40
1.0
 40
1.0
 10
421.9492652449
 20
184.88910824
 30
0.0
 10
422.103609987
 20
184.7400226675
 30
0.0
 10
422.4088572072
 20
184.4520106216
 30
0.0
 10
422.8631759991
 20
184.0441998658
 30
0.0
 10
423.296357989
 20
183.6765074725
 30
0.0
 10
423.6413069129
 20
183.4019148148
 30
0.0
 10
423.898109024
 20
183.2094287447
 30
0.0
 10
424.0707791774
 20
183.0857105483
 30
0.0
 10
424.2268493592
 20
182.9793961288
 30
0.0
 10
424.3658902607
 20
182.8904949507
 30
0.0
 10
424.4631821979
 20
182.8316832713
 30
0.0
 10
424.5376231836
 20
182.7913070726
 30
0.0
 10
424.5685964676
 20
182.772679581
 30
0.0
 10
424.6502820034
 20
182.7373675277
 30
0.0
 10
424.6311876494
 20
182.7440847019
 30
0.0
  0
SPLINE
  5
7A1
100
AcDbEntity
  8
KONSTRUKTIONSELEMENTE
100
AcDbSpline
 62
7
  6
CONTINUOUS
 70
0
 71
3
 72
9
 73
5
 74
0
 42
0.0000001
 43
0.0000001
 44
0.0000000001
 40
0.0
 40
0.0
 40
0.0
 40
0.0
 40
0.5263197575
 40
1.0
 40
1.0
 40
1.0
 40
1.0
 10
418.8229055872
 20
181.652462555
 30
0.0
 10
419.2119930921
 20
181.2766328854
 30
0.0
 10
419.9690886786
 20
180.5807863881
 30
0.0
 10
420.7666365557
 20
179.93079601
 30
0.0
 10
421.1573689976
 20
179.6403539237
 30
0.0
  0
SPLINE
  5
7A2
100
AcDbEntity
  8
KONSTRUKTIONSELEMENTE
100
AcDbSpline
 62
7
  6
CONTINUOUS
 70
0
 71
3
 72
14
 73
10
 74
0
 42
0.0000001
 43
0.0000001
 44
0.0000000001
 40
0.0
 40
0.0
 40
0.0
 40
0.0
 40
0.238355881
 40
0.3472682142
 40
0.4568467248
 40
0.5760006498
 40
0.7088709196
 40
0.852214807
 40
1.0
 40
1.0
 40
1.0
 40
1.0
 10
421.1882827309
 20
179.6174335911
 30
0.0
 10
421.5239685537
 20
179.3691868474
 30
0.0
 10
422.027505461
 20
179.024478412
 30
0.0
 10
422.7363409773
 20
178.651258893
 30
0.0
 10
423.2873456602
 20
178.4316877003
 30
0.0
 10
423.9105187238
 20
178.2979368674
 30
0.0
 10
424.6107356456
 20
178.3080592653
 30
0.0
 10
425.3314745414
 20
178.5280577891
 30
0.0
 10
425.7584089891
 20
178.8254480338
 30
0.0
 10
425.9444333997
 20
179.0054601183
 30
0.0
  0
SPLINE
  5
7A3
100
AcDbEntity
  8
KONSTRUKTIONSELEMENTE
100
AcDbSpline
 62
7
  6
CONTINUOUS
 70
0
 71
3
 72
13
 73
9
 74
0
 42
0.0000001
 43
0.0000001
 44
0.0000000001
 40
0.0
 40
0.0
 40
0.0
 40
0.0
 40
0.2266749134
 40
0.4472161745
 40
0.5713587125
 40
0.7075537383
 40
0.8520150675
 40
1.0
 40
1.0
 40
1.0
 40
1.0
 10
377.4278594895
 20
230.508624421
 30
0.0
 10
377.1329654054
 20
230.7090557299
 30
0.0
 10
376.5345736099
 20
231.080905807
 30
0.0
 10
375.6926352622
 20
231.4230138664
 30
0.0
 10
374.9386497606
 20
231.5285452269
 30
0.0
 10
374.2977055258
 20
231.4747723084
 30
0.0
 10
373.6550402502
 20
231.2455665401
 30
0.0
 10
373.2757192478
 20
230.9721544458
 30
0.0
 10
373.1084373424
 20
230.810279107
 30
0.0
  0
SPLINE
  5
7A4
100
AcDbEntity
  8
KONSTRUKTIONSELEMENTE
100
AcDbSpline
 62
7
  6
CONTINUOUS
 70
0
 71
3
 72
25
 73
21
 74
0
 42
0.0000001
 43
0.0000001
 44
0.0000000001
 40
0.0
 40
0.0
 40
0.0
 40
0.0
 40
0.0139556627
 40
0.0215641577
 40
0.0229744644
 40
0.0230439997
 40
0.0271929754
 40
0.0360330942
 40
0.0489380107
 40
0.0654456056
 40
0.085103462
 40
0.1324479604
 40
0.1889354145
 40
0.2529517006
 40
0.323314794
 40
0.3989389876
 40
0.4788786837
 40
0.6480928262
 40
0.8241941934
 40
1.0
 40
1.0
 40
1.0
 40
1.0
 10
376.828966792
 20
229.2493297875
 30
0.0
 10
376.8244315933
 20
229.2747996419
 30
0.0
 10
376.8113881321
 20
229.3233247327
 30
0.0
 10
376.8103562059
 20
229.3434544067
 30
0.0
 10
376.797270275
 20
229.3755408285
 30
0.0
 10
376.803706039
 20
229.3666946469
 30
0.0
 10
376.808755041
 20
229.3429025928
 30
0.0
 10
376.8316535308
 20
229.3001971098
 30
0.0
 10
376.862012124
 20
229.2363242029
 30
0.0
 10
376.9054674255
 20
229.15628452
 30
0.0
 10
376.9816722299
 20
229.0215728458
 30
0.0
 10
377.1021740899
 20
228.8268039173
 30
0.0
 10
377.2746972268
 20
228.5678261576
 30
0.0
 10
377.479990326
 20
228.2795826219
 30
0.0
 10
377.7138766143
 20
227.968333664
 30
0.0
 10
377.9732358824
 20
227.639443671
 30
0.0
 10
378.3557573735
 20
227.1744748397
 30
0.0
 10
378.8743051217
 20
226.5804462402
 30
0.0
 10
379.5343007147
 20
225.8747969245
 30
0.0
 10
379.9955585675
 20
225.4132770283
 30
0.0
 10
380.2299651549
 20
225.1868576517
 30
0.0
  0
SPLINE
  5
7A5
100
AcDbEntity
  8
KONSTRUKTIONSELEMENTE
100
AcDbSpline
 62
7
  6
CONTINUOUS
 70
0
 71
3
 72
17
 73
13
 74
0
 42
0.0000001
 43
0.0000001
 44
0.0000000001
 40
0.0
 40
0.0
 40
0.0
 40
0.0
 40
0.0672998635
 40
0.1329602329
 40
0.1944855734
 40
0.2504309869
 40
0.3502866628
 40
0.4545528348
 40
0.5743822025
 40
0.7091855667
 40
0.853565524
 40
1.0
 40
1.0
 40
1.0
 40
1.0
 10
373.1084373424
 20
230.810279107
 30
0.0
 10
372.9363919456
 20
230.6437942333
 30
0.0
 10
372.6430576028
 20
230.2624706395
 30
0.0
 10
372.3929479448
 20
229.6077840045
 30
0.0
 10
372.3285572441
 20
228.9528542299
 30
0.0
 10
372.422692319
 20
228.180450363
 30
0.0
 10
372.7628332033
 20
227.3090966823
 30
0.0
 10
373.3481870933
 20
226.3151029905
 30
0.0
 10
374.092184562
 20
225.2757903873
 30
0.0
 10
374.9884689522
 20
224.1743676825
 30
0.0
 10
376.0020013512
 20
223.0488122039
 30
0.0
 10
376.7289320743
 20
222.3121187022
 30
0.0
 10
377.1036054972
 20
221.9502119666
 30
0.0
  0
SPLINE
  5
7A6
100
AcDbEntity
  8
KONSTRUKTIONSELEMENTE
100
AcDbSpline
 62
7
  6
CONTINUOUS
 70
0
 71
3
 72
13
 73
9
 74
0
 42
0.0000001
 43
0.0000001
 44
0.0000000001
 40
0.0
 40
0.0
 40
0.0
 40
0.0
 40
0.1478830584
 40
0.2925777243
 40
0.4291426403
 40
0.5544682928
 40
0.7758011155
 40
1.0
 40
1.0
 40
1.0
 40
1.0
 10
394.8317350275
 20
209.0580190016
 30
0.0
 10
394.9949634415
 20
209.2159718582
 30
0.0
 10
395.2760897393
 20
209.5754529931
 30
0.0
 10
395.5272150509
 20
210.1932156057
 30
0.0
 10
395.6101368446
 20
210.8182173321
 30
0.0
 10
395.5459673256
 20
211.5624889586
 30
0.0
 10
395.2526929561
 20
212.399623797
 30
0.0
 10
394.9181361172
 20
212.997789017
 30
0.0
 10
394.7373603989
 20
213.2908791539
 30
0.0
  0
SPLINE
  5
7A7
100
AcDbEntity
  8
KONSTRUKTIONSELEMENTE
100
AcDbSpline
 62
7
  6
CONTINUOUS
 70
0
 71
3
 72
19
 73
15
 74
0
 42
0.0000001
 43
0.0000001
 44
0.0000000001
 40
0.0
 40
0.0
 40
0.0
 40
0.0
 40
0.186931947
 40
0.3655432537
 40
0.5317545855
 40
0.6818380102
 40
0.7494939838
 40
0.8113676119
 40
0.866702645
 40
0.9144809375
 40
0.9535989404
 40
0.9694074678
 40
0.9823674488
 40
1.0
 40
1.0
 40
1.0
 40
1.0
 10
390.8365668727
 20
214.9416671233
 30
0.0
 10
390.9909116148
 20
214.7925815508
 30
0.0
 10
391.296158835
 20
214.5045695049
 30
0.0
 10
391.7504776269
 20
214.096758749
 30
0.0
 10
392.1836596168
 20
213.7290663557
 30
0.0
 10
392.5286085407
 20
213.454473698
 30
0.0
 10
392.7854106518
 20
213.261987628
 30
0.0
 10
392.9580808051
 20
213.1382694315
 30
0.0
 10
393.114150987
 20
213.031955012
 30
0.0
 10
393.2531918885
 20
212.9430538339
 30
0.0
 10
393.3504838257
 20
212.8842421545
 30
0.0
 10
393.4249248114
 20
212.8438659559
 30
0.0
 10
393.4558980954
 20
212.8252384643
 30
0.0
 10
393.5375836312
 20
212.7899264109
 30
0.0
 10
393.5184892772
 20
212.7966435852
 30
0.0
  0
SPLINE
  5
7A8
100
AcDbEntity
  8
KONSTRUKTIONSELEMENTE
100
AcDbSpline
 62
7
  6
CONTINUOUS
 70
0
 71
3
 72
14
 73
10
 74
0
 42
0.0000001
 43
0.0000001
 44
0.0000000001
 40
0.0
 40
0.0
 40
0.0
 40
0.0
 40
0.2853075585
 40
0.4098818106
 40
0.5208692916
 40
0.6238507303
 40
0.7336576496
 40
0.8616333138
 40
1.0
 40
1.0
 40
1.0
 40
1.0
 10
387.710207215
 20
211.7050214382
 30
0.0
 10
388.2823663449
 20
211.1523581579
 30
0.0
 10
389.1327244008
 20
210.3857254341
 30
0.0
 10
390.286433665
 20
209.5023826689
 30
0.0
 10
391.0761520095
 20
208.9833335834
 30
0.0
 10
391.8825723075
 20
208.5713030272
 30
0.0
 10
392.8094782084
 20
208.3164650337
 30
0.0
 10
393.8837022083
 20
208.3976990829
 30
0.0
 10
394.5544959672
 20
208.7897403333
 30
0.0
 10
394.8317350275
 20
209.0580190016
 30
0.0
  0
SPLINE
  5
7A9
100
AcDbEntity
  8
KONSTRUKTIONSELEMENTE
100
AcDbSpline
 62
7
  6
CONTINUOUS
 70
0
 71
3
 72
9
 73
5
 74
0
 42
0.0000001
 43
0.0000001
 44
0.0000000001
 40
0.0
 40
0.0
 40
0.0
 40
0.0
 40
0.4992056363
 40
1.0
 40
1.0
 40
1.0
 40
1.0
 10
412.8296951327
 20
199.783491885
 30
0.0
 10
412.8294159695
 20
198.9662894119
 30
0.0
 10
412.5616154403
 20
197.3184921505
 30
0.0
 10
411.7837446111
 20
195.8423054643
 30
0.0
 10
411.292853759
 20
195.1857206764
 30
0.0
  0
SPLINE
  5
7AA
100
AcDbEntity
  8
KONSTRUKTIONSELEMENTE
100
AcDbSpline
 62
7
  6
CONTINUOUS
 70
0
 71
3
 72
11
 73
7
 74
0
 42
0.0000001
 43
0.0000001
 44
0.0000000001
 40
0.0
 40
0.0
 40
0.0
 40
0.0
 40
0.2503834639
 40
0.5009562809
 40
0.7509829001
 40
1.0
 40
1.0
 40
1.0
 40
1.0
 10
407.6272047958
 20
192.4738334865
 30
0.0
 10
406.9180448255
 20
192.2157525972
 30
0.0
 10
405.4188391443
 20
191.8962333068
 30
0.0
 10
403.1325227995
 20
192.0513170399
 30
0.0
 10
400.9790193137
 20
192.8234088938
 30
0.0
 10
399.7405239145
 20
193.7181912773
 30
0.0
 10
399.2006924093
 20
194.2396284701
 30
0.0
  0
SPLINE
  5
7AB
100
AcDbEntity
  8
KONSTRUKTIONSELEMENTE
100
AcDbSpline
 62
7
  6
CONTINUOUS
 70
0
 71
3
 72
11
 73
7
 74
0
 42
0.0000001
 43
0.0000001
 44
0.0000000001
 40
0.0
 40
0.0
 40
0.0
 40
0.0
 40
0.2497701922
 40
0.5003846994
 40
0.7507632035
 40
1.0
 40
1.0
 40
1.0
 40
1.0
 10
389.4440431871
 20
216.2892243673
 30
0.0
 10
390.2028678188
 20
216.8404671046
 30
0.0
 10
391.9339334463
 20
217.6813506476
 30
0.0
 10
394.7923546089
 20
217.9792104498
 30
0.0
 10
397.5821459511
 20
217.2963721926
 30
0.0
 10
399.179019744
 20
216.2263320215
 30
0.0
 10
399.8521783329
 20
215.5761107553
 30
0.0
  0
SPLINE
  5
7AC
100
AcDbEntity
  8
KONSTRUKTIONSELEMENTE
100
AcDbSpline
 62
7
  6
CONTINUOUS
 70
0
 71
3
 72
9
 73
5
 74
0
 42
0.0000001
 43
0.0000001
 44
0.0000000001
 40
0.0
 40
0.0
 40
0.0
 40
0.0
 40
0.5052259423
 40
1.0
 40
1.0
 40
1.0
 40
1.0
 10
391.7204503492
 20
207.7214646835
 30
0.0
 10
391.5181500643
 20
207.9168717533
 30
0.0
 10
391.1645354991
 20
208.3555075195
 30
0.0
 10
390.9335434913
 20
208.8697633631
 30
0.0
 10
390.8546413922
 20
209.1336657847
 30
0.0
  0
SPLINE
  5
7AD
100
AcDbEntity
  8
KONSTRUKTIONSELEMENTE
100
AcDbSpline
 62
7
  6
CONTINUOUS
 70
0
 71
3
 72
11
 73
7
 74
0
 42
0.0000001
 43
0.0000001
 44
0.0000000001
 40
0.0
 40
0.0
 40
0.0
 40
0.0
 40
0.2519918144
 40
0.5048009909
 40
0.755086504
 40
1.0
 40
1.0
 40
1.0
 40
1.0
 10
392.9920243006
 20
213.1230835227
 30
0.0
 10
393.3088766766
 20
213.2355119445
 30
0.0
 10
393.9784164145
 20
213.3731057077
 30
0.0
 10
394.9954931221
 20
213.3003675037
 30
0.0
 10
395.9462313016
 20
212.9586166637
 30
0.0
 10
396.4907923498
 20
212.5664830677
 30
0.0
 10
396.7258186751
 20
212.3394650702
 30
0.0
  0
SPLINE
  5
7AE
100
AcDbEntity
  8
KONSTRUKTIONSELEMENTE
100
AcDbSpline
 62
7
  6
CONTINUOUS
 70
0
 71
3
 72
9
 73
5
 74
0
 42
0.0000001
 43
0.0000001
 44
0.0000000001
 40
0.0
 40
0.0
 40
0.0
 40
0.0
 40
0.5069780116
 40
1.0
 40
1.0
 40
1.0
 40
1.0
 10
407.3324203929
 20
202.0942745418
 30
0.0
 10
407.6445173019
 20
201.7928120771
 30
0.0
 10
408.1514009323
 20
201.0713254031
 30
0.0
 10
408.3297494119
 20
200.2065592418
 30
0.0
 10
408.3296415321
 20
199.7845869133
 30
0.0
  0
SPLINE
  5
7AF
100
AcDbEntity
  8
KONSTRUKTIONSELEMENTE
100
AcDbSpline
 62
7
  6
CONTINUOUS
 70
0
 71
3
 72
9
 73
5
 74
0
 42
0.0000001
 43
0.0000001
 44
0.0000000001
 40
0.0
 40
0.0
 40
0.0
 40
0.0
 40
0.5012207597
 40
1.0
 40
1.0
 40
1.0
 40
1.0
 10
388.5940906915
 20
204.4848189985
 30
0.0
 10
387.8542378842
 20
205.1994619327
 30
0.0
 10
386.6463840529
 20
206.934751006
 30
0.0
 10
386.2228259298
 20
209.0086197724
 30
0.0
 10
386.2231756095
 20
210.0322473403
 30
0.0
  0
SPLINE
  5
7B0
100
AcDbEntity
  8
KONSTRUKTIONSELEMENTE
100
AcDbSpline
 62
7
  6
CONTINUOUS
 70
0
 71
3
 72
9
 73
5
 74
0
 42
0.0000001
 43
0.0000001
 44
0.0000000001
 40
0.0
 40
0.0
 40
0.0
 40
0.0
 40
0.50530061
 40
1.0
 40
1.0
 40
1.0
 40
1.0
 10
404.3205479133
 20
196.5164239688
 30
0.0
 10
403.958796024
 20
196.5665788075
 30
0.0
 10
403.2534878455
 20
196.7739130431
 30
0.0
 10
402.6424265825
 20
197.1835016433
 30
0.0
 10
402.3799410703
 20
197.4262842059
 30
0.0
  0
SPLINE
  5
7B1
100
AcDbEntity
  8
KONSTRUKTIONSELEMENTE
100
AcDbSpline
 62
7
  6
CONTINUOUS
 70
0
 71
3
 72
9
 73
5
 74
0
 42
0.0000001
 43
0.0000001
 44
0.0000000001
 40
0.0
 40
0.0
 40
0.0
 40
0.0
 40
0.5012063269
 40
1.0
 40
1.0
 40
1.0
 40
1.0
 10
410.515234772
 20
205.275837215
 30
0.0
 10
411.2386349425
 20
204.5628748927
 30
0.0
 10
412.4173461132
 20
202.841604071
 30
0.0
 10
412.8300404301
 20
200.7942910884
 30
0.0
 10
412.8296951327
 20
199.783491885
 30
0.0
  0
SPLINE
  5
7B2
100
AcDbEntity
  8
KONSTRUKTIONSELEMENTE
100
AcDbSpline
 62
7
  6
CONTINUOUS
 70
0
 71
3
 72
9
 73
5
 74
0
 42
0.0000001
 43
0.0000001
 44
0.0000000001
 40
0.0
 40
0.0
 40
0.0
 40
0.0
 40
0.4046530715
 40
1.0
 40
1.0
 40
1.0
 40
1.0
 10
433.3261395118
 20
178.4752780494
 30
0.0
 10
433.3261395118
 20
178.5276959278
 30
0.0
 10
433.3621475314
 20
178.6553189632
 30
0.0
 10
433.4175467269
 20
178.7719075687
 30
0.0
 10
433.4537896056
 20
178.8399806159
 30
0.0
  0
SPLINE
  5
7B3
100
AcDbEntity
  8
KONSTRUKTIONSELEMENTE
100
AcDbSpline
 62
7
  6
CONTINUOUS
 70
0
 71
3
 72
10
 73
6
 74
0
 42
0.0000001
 43
0.0000001
 44
0.0000000001
 40
0.0
 40
0.0
 40
0.0
 40
0.0
 40
0.371444044
 40
0.6586206829
 40
1.0
 40
1.0
 40
1.0
 40
1.0
 10
436.3823247839
 20
181.8703548844
 30
0.0
 10
436.4333346417
 20
181.8997536432
 30
0.0
 10
436.5276281794
 20
181.9489906621
 30
0.0
 10
436.668620872
 20
182.0053814252
 30
0.0
 10
436.7895535355
 20
182.0186145127
 30
0.0
 10
436.8292811062
 20
181.9818776488
 30
0.0
  0
SPLINE
  5
7B4
100
AcDbEntity
  8
KONSTRUKTIONSELEMENTE
100
AcDbSpline
 62
7
  6
CONTINUOUS
 70
0
 71
3
 72
21
 73
17
 74
0
 42
0.0000001
 43
0.0000001
 44
0.0000000001
 40
0.0
 40
0.0
 40
0.0
 40
0.0
 40
0.0294220707
 40
0.0723221796
 40
0.128270212
 40
0.1957493625
 40
0.3569194901
 40
0.5354427485
 40
0.7081562347
 40
0.7852637376
 40
0.8528295098
 40
0.9088459223
 40
0.951807463
 40
0.968259586
 40
0.9814568991
 40
1.0
 40
1.0
 40
1.0
 40
1.0
 10
436.5081200271
 20
182.2318479098
 30
0.0
 10
436.5081200271
 20
182.1816974158
 30
0.0
 10
436.4749698185
 20
182.0601155487
 30
0.0
 10
436.3829108979
 20
181.8622640242
 30
0.0
 10
436.23664964
 20
181.6185560697
 30
0.0
 10
435.9595983198
 20
181.220286212
 30
0.0
 10
435.5199675699
 20
180.6818835714
 30
0.0
 10
434.9231216183
 20
180.0436683575
 30
0.0
 10
434.3906509386
 20
179.543007405
 30
0.0
 10
433.9743229381
 20
179.1973107388
 30
0.0
 10
433.7003194392
 20
178.9921637762
 30
0.0
 10
433.4618006398
 20
178.8377793231
 30
0.0
 10
433.2865650545
 20
178.7470794372
 30
0.0
 10
433.1682326171
 20
178.708135358
 30
0.0
 10
433.0884178607
 20
178.6933708653
 30
0.0
 10
433.0281844138
 20
178.7037892846
 30
0.0
 10
433.0049784327
 20
178.7252483105
 30
0.0
  0
SPLINE
  5
7B5
100
AcDbEntity
  8
KONSTRUKTIONSELEMENTE
100
AcDbSpline
 62
7
  6
CONTINUOUS
 70
0
 71
3
 72
9
 73
5
 74
0
 42
0.0000001
 43
0.0000001
 44
0.0000000001
 40
0.0
 40
0.0
 40
0.0
 40
0.0
 40
0.5061516998
 40
1.0
 40
1.0
 40
1.0
 40
1.0
 10
437.387548641
 20
174.4915009117
 30
0.0
 10
437.7943114843
 20
174.0985981762
 30
0.0
 10
438.4557415675
 20
173.1566257699
 30
0.0
 10
438.6889157212
 20
172.0278813975
 30
0.0
 10
438.6892444831
 20
171.4760944605
 30
0.0
  0
SPLINE
  5
7B6
100
AcDbEntity
  8
KONSTRUKTIONSELEMENTE
100
AcDbSpline
 62
7
  6
CONTINUOUS
 70
0
 71
3
 72
9
 73
5
 74
0
 42
0.0000001
 43
0.0000001
 44
0.0000000001
 40
0.0
 40
0.0
 40
0.0
 40
0.0
 40
0.4991733573
 40
1.0
 40
1.0
 40
1.0
 40
1.0
 10
443.6892639371
 20
171.4722538685
 30
0.0
 10
443.6889318144
 20
170.5064718754
 30
0.0
 10
443.3752225252
 20
168.5591791146
 30
0.0
 10
442.4635505571
 20
166.8112036703
 30
0.0
 10
441.8877110385
 20
166.0318882189
 30
0.0
  0
SPLINE
  5
7B7
100
AcDbEntity
  8
KONSTRUKTIONSELEMENTE
100
AcDbSpline
 62
7
  6
CONTINUOUS
 70
0
 71
3
 72
9
 73
5
 74
0
 42
0.0000001
 43
0.0000001
 44
0.0000000001
 40
0.0
 40
0.0
 40
0.0
 40
0.0
 40
0.5012747397
 40
1.0
 40
1.0
 40
1.0
 40
1.0
 10
440.9240317321
 20
178.0265908665
 30
0.0
 10
441.7881993099
 20
177.1760717344
 30
0.0
 10
443.1964710681
 20
175.1223334569
 30
0.0
 10
443.6896787847
 20
172.6785920149
 30
0.0
 10
443.6892639371
 20
171.4722538685
 30
0.0
  0
SPLINE
  5
7B8
100
AcDbEntity
  8
KONSTRUKTIONSELEMENTE
100
AcDbSpline
 62
7
  6
CONTINUOUS
 70
0
 71
3
 72
9
 73
5
 74
0
 42
0.0000001
 43
0.0000001
 44
0.0000000001
 40
0.0
 40
0.0
 40
0.0
 40
0.0
 40
0.7476746026
 40
1.0
 40
1.0
 40
1.0
 40
1.0
 10
438.6892444831
 20
171.4760944605
 30
0.0
 10
438.6895022541
 20
171.0434570538
 30
0.0
 10
438.5951294122
 20
170.4590256985
 30
0.0
 10
438.3852636454
 20
169.9193401837
 30
0.0
 10
438.3253447211
 20
169.7861949657
 30
0.0
  0
SPLINE
  5
7B9
100
AcDbEntity
  8
KONSTRUKTIONSELEMENTE
100
AcDbSpline
 62
7
  6
CONTINUOUS
 70
0
 71
3
 72
9
 73
5
 74
0
 42
0.0000001
 43
0.0000001
 44
0.0000000001
 40
0.0
 40
0.0
 40
0.0
 40
0.0
 40
0.2524126325
 40
1.0
 40
1.0
 40
1.0
 40
1.0
 10
431.9155887569
 20
167.7148658689
 30
0.0
 10
431.8274248983
 20
167.7617059758
 30
0.0
 10
431.4842877685
 20
167.9585999385
 30
0.0
 10
431.1665296631
 20
168.1998946383
 30
0.0
 10
430.9500860001
 20
168.4013445754
 30
0.0
  0
SPLINE
  5
7BA
100
AcDbEntity
  8
KONSTRUKTIONSELEMENTE
100
AcDbSpline
 62
7
  6
CONTINUOUS
 70
0
 71
3
 72
11
 73
7
 74
0
 42
0.0000001
 43
0.0000001
 44
0.0000000001
 40
0.0
 40
0.0
 40
0.0
 40
0.0
 40
0.2507528382
 40
0.5034086137
 40
0.7541779598
 40
1.0
 40
1.0
 40
1.0
 40
1.0
 10
423.620063535
 20
183.4227033039
 30
0.0
 10
424.0501415583
 20
183.6354006202
 30
0.0
 10
424.985963057
 20
183.9296863103
 30
0.0
 10
426.4504120668
 20
183.9309572933
 30
0.0
 10
427.8403682902
 20
183.5001801955
 30
0.0
 10
428.6346661726
 20
182.9461361423
 30
0.0
 10
428.9729779449
 20
182.6193520642
 30
0.0
  0
SPLINE
  5
7BB
100
AcDbEntity
  8
KONSTRUKTIONSELEMENTE
100
AcDbSpline
 62
7
  6
CONTINUOUS
 70
0
 71
3
 72
9
 73
5
 74
0
 42
0.0000001
 43
0.0000001
 44
0.0000000001
 40
0.0
 40
0.0
 40
0.0
 40
0.0
 40
0.5012894406
 40
1.0
 40
1.0
 40
1.0
 40
1.0
 10
419.0027723301
 20
172.9888729675
 30
0.0
 10
418.1203196566
 20
173.8412567954
 30
0.0
 10
416.6796584437
 20
175.9105578437
 30
0.0
 10
416.1743702394
 20
178.383805942
 30
0.0
 10
416.174789987
 20
179.6043929941
 30
0.0
  0
SPLINE
  5
7BC
100
AcDbEntity
  8
KONSTRUKTIONSELEMENTE
100
AcDbSpline
 62
7
  6
CONTINUOUS
 70
0
 71
3
 72
11
 73
7
 74
0
 42
0.0000001
 43
0.0000001
 44
0.0000000001
 40
0.0
 40
0.0
 40
0.0
 40
0.0
 40
0.2496929416
 40
0.500340108
 40
0.7507767759
 40
1.0
 40
1.0
 40
1.0
 40
1.0
 10
419.8356326533
 20
186.9315008895
 30
0.0
 10
420.7403332989
 20
187.6222406816
 30
0.0
 10
422.8221025617
 20
188.6866148177
 30
0.0
 10
426.2888253433
 20
189.0986618586
 30
0.0
 10
429.6852789764
 20
188.299150141
 30
0.0
 10
431.6295620911
 20
187.004930184
 30
0.0
 10
432.4467108979
 20
186.2156250476
 30
0.0
  0
SPLINE
  5
7BD
100
AcDbEntity
  8
KONSTRUKTIONSELEMENTE
100
AcDbSpline
 62
7
  6
CONTINUOUS
 70
0
 71
3
 72
9
 73
5
 74
0
 42
0.0000001
 43
0.0000001
 44
0.0000000001
 40
0.0
 40
0.0
 40
0.0
 40
0.0
 40
0.5061516998
 40
1.0
 40
1.0
 40
1.0
 40
1.0
 10
422.4765052832
 20
176.5851459509
 30
0.0
 10
422.0697424399
 20
176.9780486864
 30
0.0
 10
421.4083123566
 20
177.9200210927
 30
0.0
 10
421.1751382029
 20
179.0487654651
 30
0.0
 10
421.1748094411
 20
179.6005524021
 30
0.0
  0
SPLINE
  5
7BE
100
AcDbEntity
  8
KONSTRUKTIONSELEMENTE
100
AcDbSpline
 62
7
  6
CONTINUOUS
 70
0
 71
3
 72
21
 73
17
 74
0
 42
0.0000001
 43
0.0000001
 44
0.0000000001
 40
0.0
 40
0.0
 40
0.0
 40
0.0
 40
0.0294220707
 40
0.0723221796
 40
0.128270212
 40
0.1957493625
 40
0.3569194901
 40
0.5354427485
 40
0.7081562347
 40
0.7852637376
 40
0.8528295098
 40
0.9088459223
 40
0.951807463
 40
0.968259586
 40
0.9814568991
 40
1.0
 40
1.0
 40
1.0
 40
1.0
 10
436.8616734177
 20
181.8903415589
 30
0.0
 10
436.8616734177
 20
181.8401910649
 30
0.0
 10
436.8285232091
 20
181.7186091978
 30
0.0
 10
436.7364642885
 20
181.5207576733
 30
0.0
 10
436.5902030306
 20
181.2770497187
 30
0.0
 10
436.3131517104
 20
180.8787798611
 30
0.0
 10
435.8735209605
 20
180.3403772205
 30
0.0
 10
435.2766750089
 20
179.7021620066
 30
0.0
 10
434.7442043292
 20
179.2015010541
 30
0.0
 10
434.3278763287
 20
178.8558043879
 30
0.0
 10
434.0538728298
 20
178.6506574252
 30
0.0
 10
433.8153540304
 20
178.4962729721
 30
0.0
 10
433.6401184451
 20
178.4055730863
 30
0.0
 10
433.5217860077
 20
178.366629007
 30
0.0
 10
433.4419712513
 20
178.3518645143
 30
0.0
 10
433.3817378044
 20
178.3622829337
 30
0.0
 10
433.3585318233
 20
178.3837419596
 30
0.0
  0
SPLINE
  5
7BF
100
AcDbEntity
  8
KONSTRUKTIONSELEMENTE
100
AcDbSpline
 62
7
  6
CONTINUOUS
 70
0
 71
3
 72
9
 73
5
 74
0
 42
0.0000001
 43
0.0000001
 44
0.0000000001
 40
0.0
 40
0.0
 40
0.0
 40
0.0
 40
0.4046530715
 40
1.0
 40
1.0
 40
1.0
 40
1.0
 10
372.1614029391
 20
237.5558767631
 30
0.0
 10
372.1614029391
 20
237.6082946414
 30
0.0
 10
372.1974109588
 20
237.7359176769
 30
0.0
 10
372.2528101542
 20
237.8525062824
 30
0.0
 10
372.2890530329
 20
237.9205793295
 30
0.0
  0
SPLINE
  5
7C0
100
AcDbEntity
  8
KONSTRUKTIONSELEMENTE
100
AcDbSpline
 62
7
  6
CONTINUOUS
 70
0
 71
3
 72
10
 73
6
 74
0
 42
0.0000001
 43
0.0000001
 44
0.0000000001
 40
0.0
 40
0.0
 40
0.0
 40
0.0
 40
0.371444044
 40
0.6586206829
 40
1.0
 40
1.0
 40
1.0
 40
1.0
 10
375.2175882113
 20
240.9509535981
 30
0.0
 10
375.2685980691
 20
240.9803523569
 30
0.0
 10
375.3628916068
 20
241.0295893758
 30
0.0
 10
375.5038842994
 20
241.0859801389
 30
0.0
 10
375.6248169628
 20
241.0992132264
 30
0.0
 10
375.6645445335
 20
241.0624763625
 30
0.0
  0
SPLINE
  5
7C1
100
AcDbEntity
  8
KONSTRUKTIONSELEMENTE
100
AcDbSpline
 62
7
  6
CONTINUOUS
 70
0
 71
3
 72
21
 73
17
 74
0
 42
0.0000001
 43
0.0000001
 44
0.0000000001
 40
0.0
 40
0.0
 40
0.0
 40
0.0
 40
0.0294220707
 40
0.0723221796
 40
0.128270212
 40
0.1957493625
 40
0.3569194901
 40
0.5354427485
 40
0.7081562347
 40
0.7852637376
 40
0.8528295098
 40
0.9088459223
 40
0.951807463
 40
0.968259586
 40
0.9814568991
 40
1.0
 40
1.0
 40
1.0
 40
1.0
 10
375.3433834545
 20
241.3124466235
 30
0.0
 10
375.3433834545
 20
241.2622961295
 30
0.0
 10
375.3102332459
 20
241.1407142624
 30
0.0
 10
375.2181743253
 20
240.9428627379
 30
0.0
 10
375.0719130674
 20
240.6991547834
 30
0.0
 10
374.7948617472
 20
240.3008849257
 30
0.0
 10
374.3552309973
 20
239.7624822851
 30
0.0
 10
373.7583850456
 20
239.1242670712
 30
0.0
 10
373.225914366
 20
238.6236061187
 30
0.0
 10
372.8095863654
 20
238.2779094525
 30
0.0
 10
372.5355828665
 20
238.0727624898
 30
0.0
 10
372.2970640672
 20
237.9183780367
 30
0.0
 10
372.1218284819
 20
237.8276781509
 30
0.0
 10
372.0034960444
 20
237.7887340717
 30
0.0
 10
371.9236812881
 20
237.773969579
 30
0.0
 10
371.8634478411
 20
237.7843879983
 30
0.0
 10
371.8402418601
 20
237.8058470242
 30
0.0
  0
SPLINE
  5
7C2
100
AcDbEntity
  8
KONSTRUKTIONSELEMENTE
100
AcDbSpline
 62
7
  6
CONTINUOUS
 70
0
 71
3
 72
9
 73
5
 74
0
 42
0.0000001
 43
0.0000001
 44
0.0000000001
 40
0.0
 40
0.0
 40
0.0
 40
0.0
 40
0.5061516998
 40
1.0
 40
1.0
 40
1.0
 40
1.0
 10
376.2228120684
 20
233.5720996254
 30
0.0
 10
376.6295749117
 20
233.1791968899
 30
0.0
 10
377.2910049949
 20
232.2372244835
 30
0.0
 10
377.5241791486
 20
231.1084801112
 30
0.0
 10
377.5245079104
 20
230.5566931741
 30
0.0
  0
SPLINE
  5
7C3
100
AcDbEntity
  8
KONSTRUKTIONSELEMENTE
100
AcDbSpline
 62
7
  6
CONTINUOUS
 70
0
 71
3
 72
9
 73
5
 74
0
 42
0.0000001
 43
0.0000001
 44
0.0000000001
 40
0.0
 40
0.0
 40
0.0
 40
0.0
 40
0.4990961922
 40
1.0
 40
1.0
 40
1.0
 40
1.0
 10
382.5245273645
 20
230.5528525822
 30
0.0
 10
382.5241788665
 20
229.53945267
 30
0.0
 10
382.1781705167
 20
227.4945079378
 30
0.0
 10
381.1761589385
 20
225.6799315231
 30
0.0
 10
380.5464518502
 20
224.8812445124
 30
0.0
  0
SPLINE
  5
7C4
100
AcDbEntity
  8
KONSTRUKTIONSELEMENTE
100
AcDbSpline
 62
7
  6
CONTINUOUS
 70
0
 71
3
 72
11
 73
7
 74
0
 42
0.0000001
 43
0.0000001
 44
0.0000000001
 40
0.0
 40
0.0
 40
0.0
 40
0.0
 40
0.250262514
 40
0.5008853759
 40
0.7509951573
 40
1.0
 40
1.0
 40
1.0
 40
1.0
 10
376.9563891935
 20
222.0928685477
 30
0.0
 10
376.0819597868
 20
221.7019105036
 30
0.0
 10
374.2033436501
 20
221.1781665229
 30
0.0
 10
371.289495345
 20
221.2470479484
 30
0.0
 10
368.5245761699
 20
222.1552169469
 30
0.0
 10
366.9380816605
 20
223.2795023231
 30
0.0
 10
366.2526064536
 20
223.9416205287
 30
0.0
  0
SPLINE
  5
7C5
100
AcDbEntity
  8
KONSTRUKTIONSELEMENTE
100
AcDbSpline
 62
7
  6
CONTINUOUS
 70
0
 71
3
 72
9
 73
5
 74
0
 42
0.0000001
 43
0.0000001
 44
0.0000000001
 40
0.0
 40
0.0
 40
0.0
 40
0.0
 40
0.5012747397
 40
1.0
 40
1.0
 40
1.0
 40
1.0
 10
379.7592951595
 20
237.1071895802
 30
0.0
 10
380.6234627373
 20
236.2566704481
 30
0.0
 10
382.0317344955
 20
234.2029321706
 30
0.0
 10
382.524942212
 20
231.7591907286
 30
0.0
 10
382.5245273645
 20
230.5528525822
 30
0.0
  0
SPLINE
  5
7C6
100
AcDbEntity
  8
KONSTRUKTIONSELEMENTE
100
AcDbSpline
 62
7
  6
CONTINUOUS
 70
0
 71
3
 72
9
 73
5
 74
0
 42
0.0000001
 43
0.0000001
 44
0.0000000001
 40
0.0
 40
0.0
 40
0.0
 40
0.0
 40
0.5050460752
 40
1.0
 40
1.0
 40
1.0
 40
1.0
 10
373.3985481205
 20
226.2640022047
 30
0.0
 10
372.7449727471
 20
226.205902256
 30
0.0
 10
371.4123710236
 20
226.3599851871
 30
0.0
 10
370.2560594977
 20
227.0438407697
 30
0.0
 10
369.7853494275
 20
227.4819432891
 30
0.0
  0
SPLINE
  5
7C7
100
AcDbEntity
  8
KONSTRUKTIONSELEMENTE
100
AcDbSpline
 62
7
  6
CONTINUOUS
 70
0
 71
3
 72
11
 73
7
 74
0
 42
0.0000001
 43
0.0000001
 44
0.0000000001
 40
0.0
 40
0.0
 40
0.0
 40
0.0
 40
0.2482337156
 40
0.500955749
 40
0.7531052982
 40
1.0
 40
1.0
 40
1.0
 40
1.0
 10
361.5647197509
 20
241.9262139712
 30
0.0
 10
361.9971815828
 20
242.2847077613
 30
0.0
 10
363.0160629613
 20
242.8472696086
 30
0.0
 10
364.7385952816
 20
243.0925016443
 30
0.0
 10
366.4357886276
 20
242.7228858518
 30
0.0
 10
367.4063935951
 20
242.088105924
 30
0.0
 10
367.8082413722
 20
241.6999507779
 30
0.0
  0
SPLINE
  5
7C8
100
AcDbEntity
  8
KONSTRUKTIONSELEMENTE
100
AcDbSpline
 62
7
  6
CONTINUOUS
 70
0
 71
3
 72
9
 73
5
 74
0
 42
0.0000001
 43
0.0000001
 44
0.0000000001
 40
0.0
 40
0.0
 40
0.0
 40
0.0
 40
0.5012894406
 40
1.0
 40
1.0
 40
1.0
 40
1.0
 10
357.8380357575
 20
232.0694716812
 30
0.0
 10
356.955583084
 20
232.9218555091
 30
0.0
 10
355.5149218711
 20
234.9911565574
 30
0.0
 10
355.0096336668
 20
237.4644046557
 30
0.0
 10
355.0100534144
 20
238.6849917078
 30
0.0
  0
SPLINE
  5
7C9
100
AcDbEntity
  8
KONSTRUKTIONSELEMENTE
100
AcDbSpline
 62
7
  6
CONTINUOUS
 70
0
 71
3
 72
13
 73
9
 74
0
 42
0.0000001
 43
0.0000001
 44
0.0000000001
 40
0.0
 40
0.0
 40
0.0
 40
0.0
 40
0.1246872084
 40
0.249825705
 40
0.49981089
 40
0.7499026556
 40
0.8751888276
 40
1.0
 40
1.0
 40
1.0
 40
1.0
 10
357.428894998
 20
244.8755293932
 30
0.0
 10
357.8598661582
 20
245.3470705872
 30
0.0
 10
358.8232260778
 20
246.2060920005
 30
0.0
 10
361.0484759437
 20
247.5008527531
 30
0.0
 10
364.2564707543
 20
248.2478027771
 30
0.0
 10
367.5042511406
 20
247.6958929854
 30
0.0
 10
369.8061121097
 20
246.5387942862
 30
0.0
 10
370.8220454102
 20
245.7404809786
 30
0.0
 10
371.2819743253
 20
245.2962237613
 30
0.0
  0
SPLINE
  5
7CA
100
AcDbEntity
  8
KONSTRUKTIONSELEMENTE
100
AcDbSpline
 62
7
  6
CONTINUOUS
 70
0
 71
3
 72
21
 73
17
 74
0
 42
0.0000001
 43
0.0000001
 44
0.0000000001
 40
0.0
 40
0.0
 40
0.0
 40
0.0
 40
0.0294220707
 40
0.0723221796
 40
0.128270212
 40
0.1957493625
 40
0.3569194901
 40
0.5354427485
 40
0.7081562347
 40
0.7852637376
 40
0.8528295098
 40
0.9088459223
 40
0.951807463
 40
0.968259586
 40
0.9814568991
 40
1.0
 40
1.0
 40
1.0
 40
1.0
 10
375.6969368451
 20
240.9709402726
 30
0.0
 10
375.6969368451
 20
240.9207897785
 30
0.0
 10
375.6637866365
 20
240.7992079115
 30
0.0
 10
375.5717277158
 20
240.6013563869
 30
0.0
 10
375.425466458
 20
240.3576484324
 30
0.0
 10
375.1484151378
 20
239.9593785747
 30
0.0
 10
374.7087843879
 20
239.4209759341
 30
0.0
 10
374.1119384362
 20
238.7827607203
 30
0.0
 10
373.5794677566
 20
238.2820997678
 30
0.0
 10
373.163139756
 20
237.9364031016
 30
0.0
 10
372.8891362571
 20
237.7312561389
 30
0.0
 10
372.6506174577
 20
237.5768716858
 30
0.0
 10
372.4753818725
 20
237.4861717999
 30
0.0
 10
372.357049435
 20
237.4472277207
 30
0.0
 10
372.2772346786
 20
237.432463228
 30
0.0
 10
372.2170012317
 20
237.4428816474
 30
0.0
 10
372.1937952507
 20
237.4643406732
 30
0.0
  0
SPLINE
  5
7CB
100
AcDbEntity
  8
KONSTRUKTIONSELEMENTE
100
AcDbSpline
 62
7
  6
CONTINUOUS
 70
0
 71
3
 72
14
 73
10
 74
0
 42
0.0000001
 43
0.0000001
 44
0.0000000001
 40
0.0
 40
0.0
 40
0.0
 40
0.0
 40
0.247344998
 40
0.3606117676
 40
0.4716979113
 40
0.5865550543
 40
0.7119067545
 40
0.8511632387
 40
1.0
 40
1.0
 40
1.0
 40
1.0
 10
340.7548837498
 20
269.4121712144
 30
0.0
 10
340.185794867
 20
269.7456837816
 30
0.0
 10
339.3351296765
 20
270.2005002311
 30
0.0
 10
338.1660371716
 20
270.668255376
 30
0.0
 10
337.2955670941
 20
270.921557422
 30
0.0
 10
336.3648107857
 20
271.0581302097
 30
0.0
 10
335.3455244513
 20
271.0127394822
 30
0.0
 10
334.2782177405
 20
270.6842698102
 30
0.0
 10
333.6331504673
 20
270.2379153929
 30
0.0
 10
333.347975835
 20
269.9618405549
 30
0.0
  0
SPLINE
  5
7CC
100
AcDbEntity
  8
KONSTRUKTIONSELEMENTE
100
AcDbSpline
 62
7
  6
CONTINUOUS
 70
0
 71
3
 72
17
 73
13
 74
0
 42
0.0000001
 43
0.0000001
 44
0.0000000001
 40
0.0
 40
0.0
 40
0.0
 40
0.0
 40
0.1669849889
 40
0.3234951497
 40
0.4654394939
 40
0.5898834044
 40
0.6962204806
 40
0.7889491303
 40
0.8346660533
 40
0.88416664
 40
0.9397641741
 40
1.0
 40
1.0
 40
1.0
 40
1.0
 10
347.7618306593
 20
245.4322220369
 30
0.0
 10
348.6417007741
 20
244.5860343929
 30
0.0
 10
350.3737297837
 20
242.9749650741
 30
0.0
 10
352.950985517
 20
240.7519714575
 30
0.0
 10
355.3799111243
 20
238.8375631023
 30
0.0
 10
357.6140199601
 20
237.2734079392
 30
0.0
 10
359.6551290898
 20
236.0746734437
 30
0.0
 10
361.3135022845
 20
235.3706677396
 30
0.0
 10
362.6630338019
 20
235.085717448
 30
0.0
 10
363.7749688148
 20
235.0667000239
 30
0.0
 10
364.9631466731
 20
235.3712055579
 30
0.0
 10
365.6864556384
 20
235.8524021591
 30
0.0
 10
366.0028387599
 20
236.1586896372
 30
0.0
  0
SPLINE
  5
7CD
100
AcDbEntity
  8
KONSTRUKTIONSELEMENTE
100
AcDbSpline
 62
7
  6
CONTINUOUS
 70
0
 71
3
 72
14
 73
10
 74
0
 42
0.0000001
 43
0.0000001
 44
0.0000000001
 40
0.0
 40
0.0
 40
0.0
 40
0.0
 40
0.0216147703
 40
0.0473427882
 40
0.1167484995
 40
0.2262426976
 40
0.3722792405
 40
0.5514808577
 40
1.0
 40
1.0
 40
1.0
 40
1.0
 10
338.1781835572
 20
267.1234162214
 30
0.0
 10
338.1778046338
 20
267.1288556498
 30
0.0
 10
338.1750678566
 20
267.1502995905
 30
0.0
 10
338.1821362562
 20
267.0996394273
 30
0.0
 10
338.1923146954
 20
267.0651111768
 30
0.0
 10
338.214189345
 20
266.9774992505
 30
0.0
 10
338.2457624658
 20
266.8760021354
 30
0.0
 10
338.3092806321
 20
266.6896567643
 30
0.0
 10
338.3679107918
 20
266.5432333692
 30
0.0
 10
338.4118487104
 20
266.4389682258
 30
0.0
  0
SPLINE
  5
7CE
100
AcDbEntity
  8
KONSTRUKTIONSELEMENTE
100
AcDbSpline
 62
7
  6
CONTINUOUS
 70
0
 71
3
 72
9
 73
5
 74
0
 42
0.0000001
 43
0.0000001
 44
0.0000000001
 40
0.0
 40
0.0
 40
0.0
 40
0.0
 40
0.2326601938
 40
1.0
 40
1.0
 40
1.0
 40
1.0
 10
357.5940673608
 20
245.0196502724
 30
0.0
 10
357.2821539316
 20
245.4366901781
 30
0.0
 10
355.9185063867
 20
247.2119382026
 30
0.0
 10
354.4750621742
 20
248.9251281664
 30
0.0
 10
353.3363617922
 20
250.2110083346
 30
0.0
  0
SPLINE
  5
7CF
100
AcDbEntity
  8
KONSTRUKTIONSELEMENTE
100
AcDbSpline
 62
7
  6
CONTINUOUS
 70
0
 71
3
 72
14
 73
10
 74
0
 42
0.0000001
 43
0.0000001
 44
0.0000000001
 40
0.0
 40
0.0
 40
0.0
 40
0.0
 40
0.1486768529
 40
0.2876295329
 40
0.4125201807
 40
0.5270219705
 40
0.6380202376
 40
0.7514956342
 40
1.0
 40
1.0
 40
1.0
 40
1.0
 10
333.347975835
 20
269.9618405549
 30
0.0
 10
333.0598433728
 20
269.6829022701
 30
0.0
 10
332.5875581298
 20
269.0467264628
 30
0.0
 10
332.2244508576
 20
267.979431315
 30
0.0
 10
332.150100718
 20
266.9532020159
 30
0.0
 10
332.2611458331
 20
266.0106884017
 30
0.0
 10
332.4919971287
 20
265.1239324662
 30
0.0
 10
332.931094322
 20
263.9247472673
 30
0.0
 10
333.3665229575
 20
263.0475307719
 30
0.0
 10
333.6875382453
 20
262.4590982274
 30
0.0
  0
SPLINE
  5
7D0
100
AcDbEntity
  8
KONSTRUKTIONSELEMENTE
100
AcDbSpline
 62
7
  6
CONTINUOUS
 70
0
 71
3
 72
14
 73
10
 74
0
 42
0.0000001
 43
0.0000001
 44
0.0000000001
 40
0.0
 40
0.0
 40
0.0
 40
0.0
 40
0.3511271397
 40
0.5101184518
 40
0.6539291876
 40
0.7793189679
 40
0.8826563999
 40
0.9590500044
 40
1.0
 40
1.0
 40
1.0
 40
1.0
 10
352.4038972082
 20
249.2953521687
 30
0.0
 10
353.5679465616
 20
248.1905161851
 30
0.0
 10
355.2968976341
 20
246.6238603405
 30
0.0
 10
357.6016891142
 20
244.7202374171
 30
0.0
 10
359.1537447692
 20
243.5270340885
 30
0.0
 10
360.5471840872
 20
242.5477236203
 30
0.0
 10
361.7309204108
 20
241.8074642165
 30
0.0
 10
362.624960891
 20
241.3403436807
 30
0.0
 10
363.1242104437
 20
241.1366770025
 30
0.0
 10
363.305399889
 20
241.0897433119
 30
0.0
  0
SPLINE
  5
7D1
100
AcDbEntity
  8
KONSTRUKTIONSELEMENTE
100
AcDbSpline
 62
7
  6
CONTINUOUS
 70
0
 71
3
 72
13
 73
9
 74
0
 42
0.0000001
 43
0.0000001
 44
0.0000000001
 40
0.0
 40
0.0
 40
0.0
 40
0.0
 40
0.1498874791
 40
0.2919721285
 40
0.4218090472
 40
0.540761172
 40
0.7645766969
 40
1.0
 40
1.0
 40
1.0
 40
1.0
 10
366.0028387599
 20
236.1586896372
 30
0.0
 10
366.2551892698
 20
236.4029877558
 30
0.0
 10
366.6813342562
 20
236.9524932505
 30
0.0
 10
367.0545379728
 20
237.8790740723
 30
0.0
 10
367.1920090103
 20
238.7916321947
 30
0.0
 10
367.1471102915
 20
239.9030185524
 30
0.0
 10
366.8129866509
 20
241.2278036787
 30
0.0
 10
366.3888038422
 20
242.219011969
 30
0.0
 10
366.1497050286
 20
242.716169893
 30
0.0
  0
SPLINE
  5
7D2
100
AcDbEntity
  8
KONSTRUKTIONSELEMENTE
100
AcDbSpline
 62
7
  6
CONTINUOUS
 70
0
 71
3
 72
9
 73
5
 74
0
 42
0.0000001
 43
0.0000001
 44
0.0000000001
 40
0.0
 40
0.0
 40
0.0
 40
0.0
 40
0.4764738732
 40
1.0
 40
1.0
 40
1.0
 40
1.0
 10
362.9627502488
 20
247.8475897414
 30
0.0
 10
362.1309735615
 20
248.9952363912
 30
0.0
 10
360.3025909506
 20
251.3441319952
 30
0.0
 10
358.3612640189
 20
253.5994333911
 30
0.0
 10
357.3205906276
 20
254.7580124702
 30
0.0
  0
SPLINE
  5
7D3
100
AcDbEntity
  8
0
100
AcDbSpline
 62
7
  6
CONTINUOUS
 70
0
 71
3
 72
9
 73
5
 74
0
 42
0.0000001
 43
0.0000001
 44
0.0000000001
 40
0.0
 40
0.0
 40
0.0
 40
0.0
 40
0.4874263429
 40
1.0
 40
1.0
 40
1.0
 40
1.0
 10
312.0023111221
 20
178.3946245948
 30
0.0
 10
312.6712425588
 20
178.0370880744
 30
0.0
 10
314.1325433384
 20
177.4674772148
 30
0.0
 10
315.6627140225
 20
177.1529913723
 30
0.0
 10
316.4534170187
 20
177.0481884087
 30
0.0
  0
SPLINE
  5
7D4
100
AcDbEntity
  8
0
100
AcDbSpline
 62
7
  6
CONTINUOUS
 70
0
 71
3
 72
11
 73
7
 74
0
 42
0.0000001
 43
0.0000001
 44
0.0000000001
 40
0.0
 40
0.0
 40
0.0
 40
0.0
 40
0.2513556333
 40
0.5016708514
 40
0.7510886351
 40
1.0
 40
1.0
 40
1.0
 40
1.0
 10
312.002320057
 20
178.3946406614
 30
0.0
 10
310.9164485708
 20
178.9751174008
 30
0.0
 10
308.8913409602
 20
180.4263495512
 30
0.0
 10
306.5462612796
 20
183.3172014756
 30
0.0
 10
305.0618683144
 20
186.7187519877
 30
0.0
 10
304.723369097
 20
189.172897688
 30
0.0
 10
304.723369097
 20
190.3922122174
 30
0.0
  0
SPLINE
  5
7D5
100
AcDbEntity
  8
RUNDUNGEN
100
AcDbSpline
 62
7
  6
CONTINUOUS
 70
0
 71
3
 72
9
 73
5
 74
0
 42
0.0000001
 43
0.0000001
 44
0.0000000001
 40
0.0
 40
0.0
 40
0.0
 40
0.0
 40
0.4874263429
 40
1.0
 40
1.0
 40
1.0
 40
1.0
 10
327.2444270719
 20
178.3946245948
 30
0.0
 10
326.5754956351
 20
178.0370880744
 30
0.0
 10
325.1141948556
 20
177.4674772148
 30
0.0
 10
323.5840241714
 20
177.1529913723
 30
0.0
 10
322.7933211752
 20
177.0481884087
 30
0.0
  0
SPLINE
  5
7D6
100
AcDbEntity
  8
RUNDUNGEN
100
AcDbSpline
 62
7
  6
CONTINUOUS
 70
0
 71
3
 72
11
 73
7
 74
0
 42
0.0000001
 43
0.0000001
 44
0.0000000001
 40
0.0
 40
0.0
 40
0.0
 40
0.0
 40
0.2513556333
 40
0.5016708514
 40
0.7510886351
 40
1.0
 40
1.0
 40
1.0
 40
1.0
 10
327.244418137
 20
178.3946406614
 30
0.0
 10
328.3302896232
 20
178.9751174008
 30
0.0
 10
330.3553972337
 20
180.4263495512
 30
0.0
 10
332.7004769144
 20
183.3172014756
 30
0.0
 10
334.1848698795
 20
186.7187519877
 30
0.0
 10
334.523369097
 20
189.172897688
 30
0.0
 10
334.523369097
 20
190.3922122174
 30
0.0
  0
SPLINE
  5
7D7
100
AcDbEntity
  8
BEZUGSACHSEN
100
AcDbSpline
 62
7
  6
CONTINUOUS
 70
0
 71
3
 72
19
 73
15
 74
0
 42
0.0000001
 43
0.0000001
 44
0.0000000001
 40
0.0
 40
0.0
 40
0.0
 40
0.0
 40
0.0615778188
 40
0.1233173652
 40
0.1853624895
 40
0.2478005785
 40
0.3733221741
 40
0.5
 40
0.6266778259
 40
0.7521994215
 40
0.8146375105
 40
0.8766826348
 40
0.9384221812
 40
1.0
 40
1.0
 40
1.0
 40
1.0
 10
312.510119097
 20
207.3609524773
 30
0.0
 10
312.510119097
 20
206.9118134506
 30
0.0
 10
312.6021330836
 20
206.0096869872
 30
0.0
 10
313.0104326866
 20
204.7116360328
 30
0.0
 10
313.6735736672
 20
203.5153440934
 30
0.0
 10
314.8609390524
 20
202.118158402
 30
0.0
 10
316.843996747
 20
200.8423703992
 30
0.0
 10
319.623369097
 20
200.3131597802
 30
0.0
 10
322.4027414469
 20
200.8423703992
 30
0.0
 10
324.3857991415
 20
202.118158402
 30
0.0
 10
325.5731645268
 20
203.5153440934
 30
0.0
 10
326.2363055073
 20
204.7116360328
 30
0.0
 10
326.6446051104
 20
206.0096869872
 30
0.0
 10
326.736619097
 20
206.9118134506
 30
0.0
 10
326.736619097
 20
207.3609524773
 30
0.0
  0
SPLINE
  5
7D8
100
AcDbEntity
  8
KONSTRUKTIONSELEMENTE
100
AcDbSpline
 62
7
  6
CONTINUOUS
 70
0
 71
3
 72
15
 73
11
 74
0
 42
0.0000001
 43
0.0000001
 44
0.0000000001
 40
0.0
 40
0.0
 40
0.0
 40
0.0
 40
0.1084845917
 40
0.2226538062
 40
0.3424577975
 40
0.4674892935
 40
0.5969821857
 40
0.7298393436
 40
0.8646917104
 40
1.0
 40
1.0
 40
1.0
 40
1.0
 10
334.523369097
 20
200.6322757339
 30
0.0
 10
334.523369097
 20
199.8818006421
 30
0.0
 10
334.3517253529
 20
198.3371134442
 30
0.0
 10
333.5970079418
 20
196.0743391073
 30
0.0
 10
332.3411409824
 20
193.9120381198
 30
0.0
 10
330.6151964143
 20
191.9596989625
 30
0.0
 10
328.47849866
 20
190.3160993853
 30
0.0
 10
326.0146773342
 20
189.0647159738
 30
0.0
 10
323.3283557899
 20
188.2666268182
 30
0.0
 10
321.4591888786
 20
188.0597352918
 30
0.0
 10
320.523369097
 20
188.039609743
 30
0.0
  0
SPLINE
  5
7D9
100
AcDbEntity
  8
0
100
AcDbSpline
 62
7
  6
CONTINUOUS
 70
0
 71
3
 72
8
 73
4
 74
0
 42
0.0000001
 43
0.0000001
 44
0.0000000001
 40
0.0
 40
0.0
 40
0.0
 40
0.0
 40
1.0
 40
1.0
 40
1.0
 40
1.0
 10
304.723369097
 20
213.4407104715
 30
0.0
 10
304.723369097
 20
213.4906591009
 30
0.0
 10
304.7376719275
 20
213.5422641154
 30
0.0
 10
304.7632962551
 20
213.5851390429
 30
0.0
  0
SPLINE
  5
7DA
100
AcDbEntity
  8
0
100
AcDbSpline
 62
7
  6
CONTINUOUS
 70
0
 71
3
 72
15
 73
11
 74
0
 42
0.0000001
 43
0.0000001
 44
0.0000000001
 40
0.0
 40
0.0
 40
0.0
 40
0.0
 40
0.1084845917
 40
0.2226538062
 40
0.3424577975
 40
0.4674892935
 40
0.5969821857
 40
0.7298393436
 40
0.8646917104
 40
1.0
 40
1.0
 40
1.0
 40
1.0
 10
304.723369097
 20
200.6322757339
 30
0.0
 10
304.723369097
 20
199.8818006421
 30
0.0
 10
304.8950128411
 20
198.3371134442
 30
0.0
 10
305.6497302522
 20
196.0743391073
 30
0.0
 10
306.9055972115
 20
193.9120381198
 30
0.0
 10
308.6315417796
 20
191.9596989625
 30
0.0
 10
310.7682395339
 20
190.3160993853
 30
0.0
 10
313.2320608597
 20
189.0647159738
 30
0.0
 10
315.9183824041
 20
188.2666268182
 30
0.0
 10
317.7875493154
 20
188.0597352918
 30
0.0
 10
318.723369097
 20
188.039609743
 30
0.0
  0
SPLINE
  5
7DB
100
AcDbEntity
  8
RUNDUNGEN
100
AcDbSpline
 62
7
  6
CONTINUOUS
 70
0
 71
3
 72
8
 73
4
 74
0
 42
0.0000001
 43
0.0000001
 44
0.0000000001
 40
0.0
 40
0.0
 40
0.0
 40
0.0
 40
1.0
 40
1.0
 40
1.0
 40
1.0
 10
334.523369097
 20
213.4407104715
 30
0.0
 10
334.523369097
 20
213.4906591009
 30
0.0
 10
334.5090662664
 20
213.5422641154
 30
0.0
 10
334.4834419389
 20
213.5851390429
 30
0.0
  0
SPLINE
  5
7DC
100
AcDbEntity
  8
BEZUGSACHSEN
100
AcDbSpline
 62
7
  6
CONTINUOUS
 70
0
 71
3
 72
19
 73
15
 74
0
 42
0.0000001
 43
0.0000001
 44
0.0000000001
 40
0.0
 40
0.0
 40
0.0
 40
0.0
 40
0.0615778188
 40
0.1233173652
 40
0.1853624895
 40
0.2478005785
 40
0.3733221741
 40
0.5
 40
0.6266778259
 40
0.7521994215
 40
0.8146375105
 40
0.8766826348
 40
0.9384221812
 40
1.0
 40
1.0
 40
1.0
 40
1.0
 10
326.736619097
 20
207.3609524773
 30
0.0
 10
326.736619097
 20
207.8100915041
 30
0.0
 10
326.6446051104
 20
208.7122179675
 30
0.0
 10
326.2363055073
 20
210.0102689219
 30
0.0
 10
325.5731645268
 20
211.2065608613
 30
0.0
 10
324.3857991415
 20
212.6037465526
 30
0.0
 10
322.4027414469
 20
213.8795345554
 30
0.0
 10
319.623369097
 20
214.4087451745
 30
0.0
 10
316.843996747
 20
213.8795345554
 30
0.0
 10
314.8609390524
 20
212.6037465526
 30
0.0
 10
313.6735736672
 20
211.2065608613
 30
0.0
 10
313.0104326866
 20
210.0102689219
 30
0.0
 10
312.6021330836
 20
208.7122179675
 30
0.0
 10
312.510119097
 20
207.8100915041
 30
0.0
 10
312.510119097
 20
207.3609524773
 30
0.0
  0
SPLINE
  5
7DD
100
AcDbEntity
  8
RUNDUNGEN
100
AcDbSpline
 62
7
  6
CONTINUOUS
 70
0
 71
3
 72
14
 73
10
 74
0
 42
0.0000001
 43
0.0000001
 44
0.0000000001
 40
0.0
 40
0.0
 40
0.0
 40
0.0
 40
0.0530203222
 40
0.1277196065
 40
0.2271490675
 40
0.3499340678
 40
0.4928855102
 40
0.6519428582
 40
1.0
 40
1.0
 40
1.0
 40
1.0
 10
334.4834419389
 20
213.5851390429
 30
0.0
 10
334.4418668569
 20
213.6547029612
 30
0.0
 10
334.2760638516
 20
213.7779094803
 30
0.0
 10
333.9413957176
 20
213.8742286758
 30
0.0
 10
333.4885773617
 20
213.9257370571
 30
0.0
 10
332.9298284812
 20
213.9252158657
 30
0.0
 10
332.2819413675
 20
213.8749712037
 30
0.0
 10
331.2973703009
 20
213.7384293075
 30
0.0
 10
330.5383993903
 20
213.5740101203
 30
0.0
 10
330.023369097
 20
213.4407104715
 30
0.0
  0
SPLINE
  5
7DE
100
AcDbEntity
  8
0
100
AcDbSpline
 62
7
  6
CONTINUOUS
 70
0
 71
3
 72
14
 73
10
 74
0
 42
0.0000001
 43
0.0000001
 44
0.0000000001
 40
0.0
 40
0.0
 40
0.0
 40
0.0
 40
0.0530203222
 40
0.1277196065
 40
0.2271490675
 40
0.3499340678
 40
0.4928855102
 40
0.6519428582
 40
1.0
 40
1.0
 40
1.0
 40
1.0
 10
304.7632962551
 20
213.5851390429
 30
0.0
 10
304.8048713371
 20
213.6547029612
 30
0.0
 10
304.9706743423
 20
213.7779094803
 30
0.0
 10
305.3053424764
 20
213.8742286758
 30
0.0
 10
305.7581608323
 20
213.9257370571
 30
0.0
 10
306.3169097127
 20
213.9252158657
 30
0.0
 10
306.9647968265
 20
213.8749712037
 30
0.0
 10
307.9493678931
 20
213.7384293075
 30
0.0
 10
308.7083388037
 20
213.5740101203
 30
0.0
 10
309.223369097
 20
213.4407104715
 30
0.0
  0
SPLINE
  5
7DF
100
AcDbEntity
  8
0
100
AcDbSpline
 62
7
  6
CONTINUOUS
 70
0
 71
3
 72
9
 73
5
 74
0
 42
0.0000001
 43
0.0000001
 44
0.0000000001
 40
0.0
 40
0.0
 40
0.0
 40
0.0
 40
0.2398240227
 40
1.0
 40
1.0
 40
1.0
 40
1.0
 10
312.3403195679
 20
234.3859979505
 30
0.0
 10
312.3555855067
 20
234.3869349814
 30
0.0
 10
312.4193239152
 20
234.3894395341
 30
0.0
 10
312.4832307424
 20
234.3865274659
 30
0.0
 10
312.5314837858
 20
234.3818431563
 30
0.0
  0
SPLINE
  5
7E0
100
AcDbEntity
  8
0
100
AcDbSpline
 62
7
  6
CONTINUOUS
 70
0
 71
3
 72
9
 73
5
 74
0
 42
0.0000001
 43
0.0000001
 44
0.0000000001
 40
0.0
 40
0.0
 40
0.0
 40
0.0
 40
0.5000000009
 40
1.0
 40
1.0
 40
1.0
 40
1.0
 10
322.5451506123
 20
267.9165051738
 30
0.0
 10
322.9488174186
 20
265.3290249142
 30
0.0
 10
323.3844683338
 20
260.0847904137
 30
0.0
 10
322.9488174172
 20
254.8405559135
 30
0.0
 10
322.5451506123
 20
252.2530756629
 30
0.0
  0
SPLINE
  5
7E1
100
AcDbEntity
  8
0
100
AcDbSpline
 62
7
  6
CONTINUOUS
 70
0
 71
3
 72
11
 73
7
 74
0
 42
0.0000001
 43
0.0000001
 44
0.0000000001
 40
0.0
 40
0.0
 40
0.0
 40
0.0
 40
0.2517021932
 40
0.5000000008
 40
0.7482978086
 40
1.0
 40
1.0
 40
1.0
 40
1.0
 10
322.5451506123
 20
276.9597904184
 30
0.0
 10
322.7453762207
 20
276.2187993023
 30
0.0
 10
323.0581223508
 20
274.7216394939
 30
0.0
 10
323.2205336919
 20
272.4381477877
 30
0.0
 10
323.0581223541
 20
270.1546560865
 30
0.0
 10
322.7453762192
 20
268.6574962844
 30
0.0
 10
322.5451506123
 20
267.9165051738
 30
0.0
  0
SPLINE
  5
7E2
100
AcDbEntity
  8
RUNDUNGEN
100
AcDbSpline
 62
7
  6
CONTINUOUS
 70
0
 71
3
 72
9
 73
5
 74
0
 42
0.0000001
 43
0.0000001
 44
0.0000000001
 40
0.0
 40
0.0
 40
0.0
 40
0.0
 40
0.2398240227
 40
1.0
 40
1.0
 40
1.0
 40
1.0
 10
326.9064186261
 20
234.3859979505
 30
0.0
 10
326.8911526873
 20
234.3869349814
 30
0.0
 10
326.8274142787
 20
234.3894395341
 30
0.0
 10
326.7635074516
 20
234.3865274659
 30
0.0
 10
326.7152544082
 20
234.3818431563
 30
0.0
  0
SPLINE
  5
7E3
100
AcDbEntity
  8
BEZUGSACHSEN
100
AcDbSpline
 62
7
  6
CONTINUOUS
 70
0
 71
3
 72
19
 73
15
 74
0
 42
0.0000001
 43
0.0000001
 44
0.0000000001
 40
0.0
 40
0.0
 40
0.0
 40
0.0
 40
0.0615637168
 40
0.1233167015
 40
0.1853986847
 40
0.2478631715
 40
0.3734162268
 40
0.5
 40
0.6265837732
 40
0.7521368285
 40
0.8146013153
 40
0.8766832985
 40
0.9384362832
 40
1.0
 40
1.0
 40
1.0
 40
1.0
 10
326.7019755576
 20
207.5201465084
 30
0.0
 10
326.6590028792
 20
207.9394819805
 30
0.0
 10
326.4923456391
 20
208.7733941091
 30
0.0
 10
326.0102809781
 20
209.955467176
 30
0.0
 10
325.312261891
 20
211.0324401108
 30
0.0
 10
324.1266394139
 20
212.2794238839
 30
0.0
 10
322.2295386714
 20
213.4048653469
 30
0.0
 10
319.623369097
 20
213.8697122288
 30
0.0
 10
317.0171995226
 20
213.4048653469
 30
0.0
 10
315.12009878
 20
212.2794238839
 30
0.0
 10
313.934476303
 20
211.0324401108
 30
0.0
 10
313.2364572159
 20
209.955467176
 30
0.0
 10
312.7543925548
 20
208.7733941091
 30
0.0
 10
312.5877353147
 20
207.9394819805
 30
0.0
 10
312.5447626363
 20
207.5201465084
 30
0.0
  0
SPLINE
  5
7E4
100
AcDbEntity
  8
0
100
AcDbSpline
 62
7
  6
CONTINUOUS
 70
0
 71
3
 72
14
 73
10
 74
0
 42
0.0000001
 43
0.0000001
 44
0.0000000001
 40
0.0
 40
0.0
 40
0.0
 40
0.0
 40
0.3480571418
 40
0.5071144898
 40
0.6500659322
 40
0.7728509325
 40
0.8722803935
 40
0.9469796778
 40
1.0
 40
1.0
 40
1.0
 40
1.0
 10
312.623369097
 20
219.129021337
 30
0.0
 10
312.1083388037
 20
219.2623209857
 30
0.0
 10
311.3493678931
 20
219.4267401729
 30
0.0
 10
310.3647968265
 20
219.5632820691
 30
0.0
 10
309.7169097127
 20
219.6135267311
 30
0.0
 10
309.1581608323
 20
219.6140479226
 30
0.0
 10
308.7053424764
 20
219.5625395412
 30
0.0
 10
308.3706743423
 20
219.4662203457
 30
0.0
 10
308.2048713371
 20
219.3430138266
 30
0.0
 10
308.1632962551
 20
219.2734499084
 30
0.0
  0
SPLINE
  5
7E5
100
AcDbEntity
  8
KONSTRUKTIONSELEMENTE
100
AcDbSpline
 62
7
  6
CONTINUOUS
 70
0
 71
3
 72
15
 73
11
 74
0
 42
0.0000001
 43
0.0000001
 44
0.0000000001
 40
0.0
 40
0.0
 40
0.0
 40
0.0
 40
0.124821211
 40
0.24969648
 40
0.3746520079
 40
0.4997008137
 40
0.6248494201
 40
0.7500472523
 40
0.8751730436
 40
1.0
 40
1.0
 40
1.0
 40
1.0
 10
320.523369097
 20
178.1222057207
 30
0.0
 10
321.3661291119
 20
178.1040814962
 30
0.0
 10
323.0598464153
 20
178.227759333
 30
0.0
 10
325.51704658
 20
178.889301716
 30
0.0
 10
327.8076846579
 20
180.0029267384
 30
0.0
 10
329.8502924846
 20
181.5266531152
 30
0.0
 10
331.5773587489
 20
183.4020102051
 30
0.0
 10
332.9372073139
 20
185.5584609455
 30
0.0
 10
333.8968196742
 20
187.9163066507
 30
0.0
 10
334.2623185579
 20
189.5735642866
 30
0.0
 10
334.3766721972
 20
190.408765814
 30
0.0
  0
SPLINE
  5
7E6
100
AcDbEntity
  8
0
100
AcDbSpline
 62
7
  6
CONTINUOUS
 70
0
 71
3
 72
19
 73
15
 74
0
 42
0.0000001
 43
0.0000001
 44
0.0000000001
 40
0.0
 40
0.0
 40
0.0
 40
0.0
 40
0.2532547504
 40
0.3791574958
 40
0.5039311022
 40
0.5659367976
 40
0.6276015936
 40
0.6889408453
 40
0.7500493489
 40
0.8111949111
 40
0.842151756
 40
0.8733867908
 40
0.9363342233
 40
1.0
 40
1.0
 40
1.0
 40
1.0
 10
316.4534168293
 20
189.4715026225
 30
0.0
 10
315.3285065481
 20
189.679482307
 30
0.0
 10
313.66953309
 20
190.2323475045
 30
0.0
 10
311.7500947434
 20
191.473093083
 30
0.0
 10
310.7276110399
 20
192.4667627351
 30
0.0
 10
310.0798889518
 20
193.3869002418
 30
0.0
 10
309.70093821
 20
194.135679914
 30
0.0
 10
309.4592850206
 20
194.9370498806
 30
0.0
 10
309.4000122218
 20
195.7726184743
 30
0.0
 10
309.5657596506
 20
196.4623873561
 30
0.0
 10
309.8606862814
 20
196.9403451875
 30
0.0
 10
310.2640502862
 20
197.3439778407
 30
0.0
 10
310.9338157466
 20
197.6491259851
 30
0.0
 10
311.5096933342
 20
197.6995208813
 30
0.0
 10
311.7972774908
 20
197.6995208813
 30
0.0
  0
SPLINE
  5
7E7
100
AcDbEntity
  8
RUNDUNGEN
100
AcDbSpline
 62
7
  6
CONTINUOUS
 70
0
 71
3
 72
19
 73
15
 74
0
 42
0.0000001
 43
0.0000001
 44
0.0000000001
 40
0.0
 40
0.0
 40
0.0
 40
0.0
 40
0.2532547504
 40
0.3791574958
 40
0.5039311022
 40
0.5659367976
 40
0.6276015936
 40
0.6889408453
 40
0.7500493489
 40
0.8111949111
 40
0.842151756
 40
0.8733867908
 40
0.9363342233
 40
1.0
 40
1.0
 40
1.0
 40
1.0
 10
322.7933213647
 20
189.4715026225
 30
0.0
 10
323.9182316459
 20
189.679482307
 30
0.0
 10
325.577205104
 20
190.2323475045
 30
0.0
 10
327.4966434506
 20
191.473093083
 30
0.0
 10
328.5191271541
 20
192.4667627351
 30
0.0
 10
329.1668492422
 20
193.3869002418
 30
0.0
 10
329.545799984
 20
194.135679914
 30
0.0
 10
329.7874531733
 20
194.9370498806
 30
0.0
 10
329.8467259722
 20
195.7726184743
 30
0.0
 10
329.6809785434
 20
196.4623873561
 30
0.0
 10
329.3860519125
 20
196.9403451875
 30
0.0
 10
328.9826879078
 20
197.3439778407
 30
0.0
 10
328.3129224473
 20
197.6491259851
 30
0.0
 10
327.7370448598
 20
197.6995208813
 30
0.0
 10
327.4494607032
 20
197.6995208813
 30
0.0
  0
SPLINE
  5
7E8
100
AcDbEntity
  8
0
100
AcDbSpline
 62
7
  6
CONTINUOUS
 70
0
 71
3
 72
15
 73
11
 74
0
 42
0.0000001
 43
0.0000001
 44
0.0000000001
 40
0.0
 40
0.0
 40
0.0
 40
0.0
 40
0.1237370085
 40
0.2484675528
 40
0.3740074793
 40
0.5
 40
0.6259925207
 40
0.7515324472
 40
0.8762629915
 40
1.0
 40
1.0
 40
1.0
 40
1.0
 10
309.6835811782
 20
191.1665712407
 30
0.0
 10
310.2490718184
 20
190.407642588
 30
0.0
 10
311.5734138818
 20
189.0151840764
 30
0.0
 10
313.9952300086
 20
187.4463670556
 30
0.0
 10
316.7294916975
 20
186.4686369204
 30
0.0
 10
319.623369097
 20
186.1370106305
 30
0.0
 10
322.5172464965
 20
186.4686369204
 30
0.0
 10
325.2515081854
 20
187.4463670556
 30
0.0
 10
327.6733243122
 20
189.0151840764
 30
0.0
 10
328.9976663756
 20
190.407642588
 30
0.0
 10
329.5631570158
 20
191.1665712407
 30
0.0
  0
SPLINE
  5
7E9
100
AcDbEntity
  8
0
100
AcDbSpline
 62
7
  6
CONTINUOUS
 70
0
 71
3
 72
15
 73
11
 74
0
 42
0.0000001
 43
0.0000001
 44
0.0000000001
 40
0.0
 40
0.0
 40
0.0
 40
0.0
 40
0.124897338
 40
0.2498549393
 40
0.3749060557
 40
0.500068381
 40
0.6253253237
 40
0.7505787772
 40
0.8755986442
 40
1.0
 40
1.0
 40
1.0
 40
1.0
 10
318.723369097
 20
178.1222057207
 30
0.0
 10
317.7900153481
 20
178.1021332059
 30
0.0
 10
315.9126598376
 20
178.2584344579
 30
0.0
 10
313.2114405111
 20
179.0755998859
 30
0.0
 10
310.7369984748
 20
180.4386856527
 30
0.0
 10
308.5962574275
 20
182.2842360854
 30
0.0
 10
306.8732729985
 20
184.5255684362
 30
0.0
 10
305.6262901215
 20
187.0603498309
 30
0.0
 10
304.8836650123
 20
189.776811218
 30
0.0
 10
304.723369097
 20
191.6456006204
 30
0.0
 10
304.723369097
 20
192.5754628659
 30
0.0
  0
SPLINE
  5
7EA
100
AcDbEntity
  8
RUNDUNGEN
100
AcDbSpline
 62
7
  6
CONTINUOUS
 70
0
 71
3
 72
14
 73
10
 74
0
 42
0.0000001
 43
0.0000001
 44
0.0000000001
 40
0.0
 40
0.0
 40
0.0
 40
0.0
 40
0.3480571418
 40
0.5071144898
 40
0.6500659322
 40
0.7728509325
 40
0.8722803935
 40
0.9469796778
 40
1.0
 40
1.0
 40
1.0
 40
1.0
 10
326.623369097
 20
219.129021337
 30
0.0
 10
327.1383993903
 20
219.2623209857
 30
0.0
 10
327.8973703009
 20
219.4267401729
 30
0.0
 10
328.8819413675
 20
219.5632820691
 30
0.0
 10
329.5298284812
 20
219.6135267311
 30
0.0
 10
330.0885773617
 20
219.6140479226
 30
0.0
 10
330.5413957176
 20
219.5625395412
 30
0.0
 10
330.8760638516
 20
219.4662203457
 30
0.0
 10
331.0418668569
 20
219.3430138266
 30
0.0
 10
331.0834419389
 20
219.2734499084
 30
0.0
  0
SPLINE
  5
7EB
100
AcDbEntity
  8
0
100
AcDbSpline
 62
7
  6
CONTINUOUS
 70
0
 71
3
 72
11
 73
7
 74
0
 42
0.0000001
 43
0.0000001
 44
0.0000000001
 40
0.0
 40
0.0
 40
0.0
 40
0.0
 40
0.2517021932
 40
0.5000000008
 40
0.7482978086
 40
1.0
 40
1.0
 40
1.0
 40
1.0
 10
316.7015875817
 20
276.9597904184
 30
0.0
 10
316.5013619733
 20
276.2187993023
 30
0.0
 10
316.1886158432
 20
274.7216394939
 30
0.0
 10
316.0262045021
 20
272.4381477877
 30
0.0
 10
316.1886158398
 20
270.1546560865
 30
0.0
 10
316.5013619748
 20
268.6574962844
 30
0.0
 10
316.7015875817
 20
267.9165051738
 30
0.0
  0
SPLINE
  5
7EC
100
AcDbEntity
  8
0
100
AcDbSpline
 62
7
  6
CONTINUOUS
 70
0
 71
3
 72
9
 73
5
 74
0
 42
0.0000001
 43
0.0000001
 44
0.0000000001
 40
0.0
 40
0.0
 40
0.0
 40
0.0
 40
0.5000000009
 40
1.0
 40
1.0
 40
1.0
 40
1.0
 10
316.7015875817
 20
267.9165051738
 30
0.0
 10
316.2979207754
 20
265.3290249142
 30
0.0
 10
315.8622698602
 20
260.0847904137
 30
0.0
 10
316.2979207768
 20
254.8405559135
 30
0.0
 10
316.7015875817
 20
252.2530756629
 30
0.0
  0
SPLINE
  5
7ED
100
AcDbEntity
  8
BEZUGSACHSEN
100
AcDbSpline
 62
7
  6
CONTINUOUS
 70
0
 71
3
 72
17
 73
13
 74
0
 42
0.0000001
 43
0.0000001
 44
0.0000000001
 40
0.0
 40
0.0
 40
0.0
 40
0.0
 40
0.1780696982
 40
0.3548932684
 40
0.522293147
 40
0.6725562734
 40
0.7989590844
 40
0.8515244412
 40
0.8963357479
 40
0.9331521165
 40
0.9620727505
 40
1.0
 40
1.0
 40
1.0
 40
1.0
 10
440.898192347
 20
166.9373798321
 30
0.0
 10
440.6098155544
 20
167.2159304238
 30
0.0
 10
440.0465671913
 20
167.7830971167
 30
0.0
 10
439.2513228805
 20
168.6498231456
 30
0.0
 10
438.5332297112
 20
169.5011929844
 30
0.0
 10
437.9265268665
 20
170.2964698411
 30
0.0
 10
437.5136970897
 20
170.91310681
 30
0.0
 10
437.2662130349
 20
171.3525927494
 30
0.0
 10
437.1351473371
 20
171.6244592562
 30
0.0
 10
437.0488705013
 20
171.8604803926
 30
0.0
 10
436.9968223761
 20
172.0826665987
 30
0.0
 10
437.0156932817
 20
172.2574994492
 30
0.0
 10
437.0771231567
 20
172.3168197346
 30
0.0
  0
SPLINE
  5
7EE
100
AcDbEntity
  8
0
100
AcDbSpline
 62
7
  6
CONTINUOUS
 70
0
 71
3
 72
14
 73
10
 74
0
 42
0.0000001
 43
0.0000001
 44
0.0000000001
 40
0.0
 40
0.0
 40
0.0
 40
0.0
 40
0.3848342948
 40
0.5448011477
 40
0.6811680134
 40
0.7932471345
 40
0.881327789
 40
0.9478524789
 40
1.0
 40
1.0
 40
1.0
 40
1.0
 10
475.2637276064
 20
134.2231866397
 30
0.0
 10
474.89693436
 20
134.5024362678
 30
0.0
 10
474.3661612435
 20
134.8838922016
 30
0.0
 10
473.6685105804
 20
135.3079049733
 30
0.0
 10
473.2341534912
 20
135.5339614364
 30
0.0
 10
472.8601880859
 20
135.6870320335
 30
0.0
 10
472.5490793257
 20
135.7650970565
 30
0.0
 10
472.2974762941
 20
135.7705225374
 30
0.0
 10
472.1609782615
 20
135.7072588161
 30
0.0
 10
472.1160659484
 20
135.663840716
 30
0.0
  0
SPLINE
  5
7EF
100
AcDbEntity
  8
0
100
AcDbSpline
 62
7
  6
CONTINUOUS
 70
0
 71
3
 72
13
 73
9
 74
0
 42
0.0000001
 43
0.0000001
 44
0.0000000001
 40
0.0
 40
0.0
 40
0.0
 40
0.0
 40
0.3706048172
 40
0.6554979967
 40
0.7663831125
 40
0.8579849069
 40
0.9337145727
 40
1.0
 40
1.0
 40
1.0
 40
1.0
 10
454.9677033758
 20
153.6184800227
 30
0.0
 10
454.745728554
 20
153.7511084371
 30
0.0
 10
454.3449132485
 20
153.9720096948
 30
0.0
 10
453.8473785365
 20
154.1761171817
 30
0.0
 10
453.5141026729
 20
154.2485499352
 30
0.0
 10
453.3190221628
 20
154.2583832059
 30
0.0
 10
453.1567169286
 20
154.2271097095
 30
0.0
 10
453.0697688973
 20
154.1735423275
 30
0.0
 10
453.0365148422
 20
154.141400178
 30
0.0
  0
SPLINE
  5
7F0
100
AcDbEntity
  8
RUNDUNGEN
100
AcDbSpline
 62
7
  6
CONTINUOUS
 70
0
 71
3
 72
12
 73
8
 74
0
 42
0.0000001
 43
0.0000001
 44
0.0000000001
 40
0.0
 40
0.0
 40
0.0
 40
0.0
 40
0.0611670511
 40
0.1416527351
 40
0.3611634952
 40
0.6520783701
 40
1.0
 40
1.0
 40
1.0
 40
1.0
 10
493.5716372689
 20
113.78424603
 30
0.0
 10
493.5716372689
 20
113.8446516038
 30
0.0
 10
493.5469877828
 20
113.9840677974
 30
0.0
 10
493.4274750343
 20
114.3205925578
 30
0.0
 10
493.1452225965
 20
114.8347507704
 30
0.0
 10
492.6698684327
 20
115.5366120011
 30
0.0
 10
492.2815769486
 20
116.0346463387
 30
0.0
 10
492.0640023013
 20
116.3005703313
 30
0.0
  0
SPLINE
  5
7F1
100
AcDbEntity
  8
RUNDUNGEN
100
AcDbSpline
 62
7
  6
CONTINUOUS
 70
0
 71
3
 72
11
 73
7
 74
0
 42
0.0000001
 43
0.0000001
 44
0.0000000001
 40
0.0
 40
0.0
 40
0.0
 40
0.0
 40
0.1348967641
 40
0.3688212487
 40
0.6717537487
 40
1.0
 40
1.0
 40
1.0
 40
1.0
 10
502.0569186431
 20
102.3885637958
 30
0.0
 10
502.0569186431
 20
102.4152909076
 30
0.0
 10
502.0208515925
 20
102.4835942144
 30
0.0
 10
501.9478962521
 20
102.592167901
 30
0.0
 10
501.8366607393
 20
102.7242387021
 30
0.0
 10
501.7501423122
 20
102.8142964992
 30
0.0
 10
501.7033652525
 20
102.8594796693
 30
0.0
  0
SPLINE
  5
7F2
100
AcDbEntity
  8
RUNDUNGEN
100
AcDbSpline
 62
7
  6
CONTINUOUS
 70
0
 71
3
 72
11
 73
7
 74
0
 42
0.0000001
 43
0.0000001
 44
0.0000000001
 40
0.0
 40
0.0
 40
0.0
 40
0.0
 40
0.3831246355
 40
0.676832755
 40
0.8769472571
 40
1.0
 40
1.0
 40
1.0
 40
1.0
 10
432.5290918757
 20
167.5526512119
 30
0.0
 10
432.4786213448
 20
167.5884667197
 30
0.0
 10
432.3878259729
 20
167.6495007017
 30
0.0
 10
432.2612994053
 20
167.7147929425
 30
0.0
 10
432.1678572553
 20
167.7482294017
 30
0.0
 10
432.1096312216
 20
167.7396785324
 30
0.0
 10
432.095338595
 20
167.7258648393
 30
0.0
  0
SPLINE
  5
7F3
100
AcDbEntity
  8
RUNDUNGEN
100
AcDbSpline
 62
7
  6
CONTINUOUS
 70
0
 71
3
 72
9
 73
5
 74
0
 42
0.0000001
 43
0.0000001
 44
0.0000000001
 40
0.0
 40
0.0
 40
0.0
 40
0.0
 40
0.5571940918
 40
1.0
 40
1.0
 40
1.0
 40
1.0
 10
434.0126126961
 20
185.3563566778
 30
0.0
 10
433.8360094784
 20
185.4346249944
 30
0.0
 10
433.5131006987
 20
185.5620712131
 30
0.0
 10
433.1738914755
 20
185.6447528866
 30
0.0
 10
433.0213147276
 20
185.6616856153
 30
0.0
  0
SPLINE
  5
7F4
100
AcDbEntity
  8
RUNDUNGEN
100
AcDbSpline
 62
7
  6
CONTINUOUS
 70
0
 71
3
 72
12
 73
8
 74
0
 42
0.0000001
 43
0.0000001
 44
0.0000000001
 40
0.0
 40
0.0
 40
0.0
 40
0.0
 40
0.2854432875
 40
0.5742966057
 40
0.8242065645
 40
0.9230746476
 40
1.0
 40
1.0
 40
1.0
 40
1.0
 10
439.3422312489
 20
180.7381508451
 30
0.0
 10
438.9406653923
 20
181.228952495
 30
0.0
 10
438.0898481263
 20
182.1818259823
 30
0.0
 10
436.7796871418
 20
183.4621309105
 30
0.0
 10
435.6945113331
 20
184.3773473679
 30
0.0
 10
434.9158967161
 20
184.9148858505
 30
0.0
 10
434.5744346016
 20
185.107364302
 30
0.0
 10
434.4181924838
 20
185.1766088362
 30
0.0
  0
SPLINE
  5
7F5
100
AcDbEntity
  8
RUNDUNGEN
100
AcDbSpline
 62
7
  6
CONTINUOUS
 70
0
 71
3
 72
11
 73
7
 74
0
 42
0.0000001
 43
0.0000001
 44
0.0000000001
 40
0.0
 40
0.0
 40
0.0
 40
0.0
 40
0.2855242273
 40
0.5744465678
 40
0.8243990606
 40
1.0
 40
1.0
 40
1.0
 40
1.0
 10
449.2470294562
 20
168.6323126076
 30
0.0
 10
449.1265525015
 20
168.7795618997
 30
0.0
 10
448.8712776284
 20
169.0652174396
 30
0.0
 10
448.4783079734
 20
169.450250669
 30
0.0
 10
448.1133532681
 20
169.7551044443
 30
0.0
 10
447.8767921453
 20
169.9164403374
 30
0.0
 10
447.7698178267
 20
169.9638500049
 30
0.0
  0
SPLINE
  5
7F6
100
AcDbEntity
  8
RUNDUNGEN
100
AcDbSpline
 62
7
  6
CONTINUOUS
 70
0
 71
3
 72
9
 73
5
 74
0
 42
0.0000001
 43
0.0000001
 44
0.0000000001
 40
0.0
 40
0.0
 40
0.0
 40
0.0
 40
0.5394967105
 40
1.0
 40
1.0
 40
1.0
 40
1.0
 10
492.5650664839
 20
127.2543640211
 30
0.0
 10
492.220502969
 20
127.5871868189
 30
0.0
 10
491.5649987994
 20
128.1868390726
 30
0.0
 10
490.8706458943
 20
128.7424825687
 30
0.0
 10
490.5371675455
 20
128.9791295028
 30
0.0
  0
SPLINE
  5
7F7
100
AcDbEntity
  8
RUNDUNGEN
100
AcDbSpline
 62
7
  6
CONTINUOUS
 70
0
 71
3
 72
14
 73
10
 74
0
 42
0.0000001
 43
0.0000001
 44
0.0000000001
 40
0.0
 40
0.0
 40
0.0
 40
0.0
 40
0.0546650285
 40
0.1355376427
 40
0.2415140182
 40
0.3693734414
 40
0.5146684856
 40
0.672125956
 40
1.0
 40
1.0
 40
1.0
 40
1.0
 10
502.0569186431
 20
116.7918436557
 30
0.0
 10
502.0569186431
 20
116.9002612706
 30
0.0
 10
501.9809795994
 20
117.1648889157
 30
0.0
 10
501.7725250925
 20
117.5948322505
 30
0.0
 10
501.4433524028
 20
118.127077944
 30
0.0
 10
501.006053158
 20
118.7388237673
 30
0.0
 10
500.4749913571
 20
119.4082030735
 30
0.0
 10
499.6576731905
 20
120.355159852
 30
0.0
 10
498.9890982886
 20
121.0492257921
 30
0.0
 10
498.5213847372
 20
121.5010023907
 30
0.0
  0
SPLINE
  5
7F8
100
AcDbEntity
  8
RUNDUNGEN
100
AcDbSpline
 62
7
  6
CONTINUOUS
 70
0
 71
3
 72
8
 73
4
 74
0
 42
0.0000001
 43
0.0000001
 44
0.0000000001
 40
0.0
 40
0.0
 40
0.0
 40
0.0
 40
1.0
 40
1.0
 40
1.0
 40
1.0
 10
502.0506076715
 20
116.1654118751
 30
0.0
 10
502.0552641011
 20
116.169836341
 30
0.0
 10
502.0569186431
 20
116.1771956425
 30
0.0
 10
502.0569186431
 20
116.1836188997
 30
0.0
  0
SPLINE
  5
7F9
100
AcDbEntity
  8
RUNDUNGEN
100
AcDbSpline
 62
7
  6
CONTINUOUS
 70
0
 71
3
 72
11
 73
7
 74
0
 42
0.0000001
 43
0.0000001
 44
0.0000000001
 40
0.0
 40
0.0
 40
0.0
 40
0.0
 40
0.1008954196
 40
0.3111966543
 40
0.6217757928
 40
1.0
 40
1.0
 40
1.0
 40
1.0
 10
498.5150737656
 20
112.7503483657
 30
0.0
 10
498.5046803408
 20
112.7404726977
 30
0.0
 10
498.4513112857
 20
112.7542213908
 30
0.0
 10
498.3824775669
 20
112.7984162634
 30
0.0
 10
498.2779270161
 20
112.8775735061
 30
0.0
 10
498.2064877524
 20
112.9433129979
 30
0.0
 10
498.1678313466
 20
112.9806522187
 30
0.0
  0
SPLINE
  5
7FA
100
AcDbEntity
  8
0
100
AcDbSpline
 62
7
  6
CONTINUOUS
 70
0
 71
3
 72
9
 73
5
 74
0
 42
0.0000001
 43
0.0000001
 44
0.0000000001
 40
0.0
 40
0.0
 40
0.0
 40
0.0
 40
0.4519578096
 40
1.0
 40
1.0
 40
1.0
 40
1.0
 10
452.6891373262
 20
154.5010237823
 30
0.0
 10
452.6446890984
 20
154.4580617562
 30
0.0
 10
452.573375576
 20
154.3342073406
 30
0.0
 10
452.5594439601
 20
154.1955208867
 30
0.0
 10
452.5594439601
 20
154.1205614615
 30
0.0
  0
SPLINE
  5
7FB
100
AcDbEntity
  8
0
100
AcDbSpline
 62
7
  6
CONTINUOUS
 70
0
 71
3
 72
9
 73
5
 74
0
 42
0.0000001
 43
0.0000001
 44
0.0000000001
 40
0.0
 40
0.0
 40
0.0
 40
0.0
 40
0.4520431102
 40
1.0
 40
1.0
 40
1.0
 40
1.0
 10
471.7686895304
 20
136.0234653201
 30
0.0
 10
471.7284681554
 20
135.9845820926
 30
0.0
 10
471.6639622156
 20
135.8725102159
 30
0.0
 10
471.6513270521
 20
135.7470318952
 30
0.0
 10
471.6513270521
 20
135.6792185104
 30
0.0
  0
SPLINE
  5
7FC
100
AcDbEntity
  8
RUNDUNGEN
100
AcDbSpline
 62
7
  6
CONTINUOUS
 70
0
 71
3
 72
9
 73
5
 74
0
 42
0.0000001
 43
0.0000001
 44
0.0000000001
 40
0.0
 40
0.0
 40
0.0
 40
0.0
 40
0.2218388199
 40
1.0
 40
1.0
 40
1.0
 40
1.0
 10
501.995104838
 20
101.5991223605
 30
0.0
 10
502.0054575569
 20
101.6091320017
 30
0.0
 10
502.0463142015
 20
101.660637441
 30
0.0
 10
502.0569186431
 20
101.7298256207
 30
0.0
 10
502.0569186431
 20
101.7803390398
 30
0.0
  0
SPLINE
  5
7FD
100
AcDbEntity
  8
RUNDUNGEN
100
AcDbSpline
 62
7
  6
CONTINUOUS
 70
0
 71
3
 72
16
 73
12
 74
0
 42
0.0000001
 43
0.0000001
 44
0.0000000001
 40
0.0
 40
0.0
 40
0.0
 40
0.0
 40
0.0406935363
 40
0.0688789223
 40
0.1037508194
 40
0.194666286
 40
0.3133767797
 40
0.4573894856
 40
0.6229640379
 40
0.8055826945
 40
1.0
 40
1.0
 40
1.0
 40
1.0
 10
498.459570932
 20
98.184058851
 30
0.0
 10
498.4178133966
 20
98.1436851145
 30
0.0
 10
498.310088653
 20
98.1194723612
 30
0.0
 10
498.1648745821
 20
98.1401285691
 30
0.0
 10
497.9525154575
 20
98.2018366583
 30
0.0
 10
497.6373239889
 20
98.3545528213
 30
0.0
 10
497.2073093974
 20
98.6196808966
 30
0.0
 10
496.7109780542
 20
98.9773167193
 30
0.0
 10
496.1625292521
 20
99.4167243333
 30
0.0
 10
495.578504543
 20
99.9256908062
 30
0.0
 10
495.1854447565
 20
100.2934508871
 30
0.0
 10
494.9858508312
 20
100.4862438143
 30
0.0
  0
SPLINE
  5
7FE
100
AcDbEntity
  8
RUNDUNGEN
100
AcDbSpline
 62
7
  6
CONTINUOUS
 70
0
 71
3
 72
12
 73
8
 74
0
 42
0.0000001
 43
0.0000001
 44
0.0000000001
 40
0.0
 40
0.0
 40
0.0
 40
0.0
 40
0.1229683891
 40
0.2119573972
 40
0.3236051429
 40
0.6170595586
 40
1.0
 40
1.0
 40
1.0
 40
1.0
 10
442.0301424812
 20
161.2590602953
 30
0.0
 10
441.982495224
 20
161.2130230341
 30
0.0
 10
441.8536016524
 20
161.192789055
 30
0.0
 10
441.68519307
 20
161.2268648965
 30
0.0
 10
441.431713013
 20
161.3142809099
 30
0.0
 10
441.0565815261
 20
161.5154208657
 30
0.0
 10
440.7525366881
 20
161.71703097
 30
0.0
 10
440.5842724724
 20
161.8364366553
 30
0.0
  0
SPLINE
  5
7FF
100
AcDbEntity
  8
RUNDUNGEN
100
AcDbSpline
 62
7
  6
CONTINUOUS
 70
0
 71
3
 72
12
 73
8
 74
0
 42
0.0000001
 43
0.0000001
 44
0.0000000001
 40
0.0
 40
0.0
 40
0.0
 40
0.0
 40
0.1048397813
 40
0.1937661804
 40
0.3092677593
 40
0.6142494036
 40
1.0
 40
1.0
 40
1.0
 40
1.0
 10
442.382539773
 20
176.7431738325
 30
0.0
 10
442.4062410003
 20
176.766106796
 30
0.0
 10
442.4003864594
 20
176.8409419411
 30
0.0
 10
442.3685653839
 20
176.9284095028
 30
0.0
 10
442.2973906968
 20
177.0744832501
 30
0.0
 10
442.1584318832
 20
177.285893449
 30
0.0
 10
442.0255986686
 20
177.4584866626
 30
0.0
 10
441.9487570929
 20
177.5524039405
 30
0.0
  0
SPLINE
  5
800
100
AcDbEntity
  8
RUNDUNGEN
100
AcDbSpline
 62
7
  6
CONTINUOUS
 70
0
 71
3
 72
9
 73
5
 74
0
 42
0.0000001
 43
0.0000001
 44
0.0000000001
 40
0.0
 40
0.0
 40
0.0
 40
0.0
 40
0.2218259981
 40
1.0
 40
1.0
 40
1.0
 40
1.0
 10
493.5098295081
 20
120.9990278892
 30
0.0
 10
493.5201816726
 20
121.0090364097
 30
0.0
 10
493.5610370405
 20
121.0605412912
 30
0.0
 10
493.5716372689
 20
121.1297284707
 30
0.0
 10
493.5716372689
 20
121.1802415109
 30
0.0
  0
SPLINE
  5
801
100
AcDbEntity
  8
BEZUGSACHSEN
100
AcDbSpline
 62
7
  6
CONTINUOUS
 70
0
 71
3
 72
16
 73
12
 74
0
 42
0.0000001
 43
0.0000001
 44
0.0000000001
 40
0.0
 40
0.0
 40
0.0
 40
0.0
 40
0.0406937333
 40
0.0688807539
 40
0.1037548741
 40
0.1946723522
 40
0.3133808314
 40
0.4573937593
 40
0.6229678078
 40
0.805582656
 40
1.0
 40
1.0
 40
1.0
 40
1.0
 10
444.7192615373
 20
164.4049494257
 30
0.0
 10
444.6733007407
 20
164.3605669885
 30
0.0
 10
444.5548235813
 20
164.3339392018
 30
0.0
 10
444.3950753198
 20
164.3566543048
 30
0.0
 10
444.1614800297
 20
164.424553188
 30
0.0
 10
443.8147705602
 20
164.5925439353
 30
0.0
 10
443.3417586657
 20
164.8841851066
 30
0.0
 10
442.7958040846
 20
165.277583771
 30
0.0
 10
442.1925188927
 20
165.7609236843
 30
0.0
 10
441.5501030646
 20
166.3207804835
 30
0.0
 10
441.1177441563
 20
166.7253090692
 30
0.0
 10
440.898192347
 20
166.9373798321
 30
0.0
  0
SPLINE
  5
802
100
AcDbEntity
  8
0
100
AcDbSpline
 62
7
  6
CONTINUOUS
 70
0
 71
3
 72
11
 73
7
 74
0
 42
0.0000001
 43
0.0000001
 44
0.0000000001
 40
0.0
 40
0.0
 40
0.0
 40
0.0
 40
0.1659345516
 40
0.375397696
 40
0.6509059308
 40
1.0
 40
1.0
 40
1.0
 40
1.0
 10
434.3661802686
 20
175.3931558844
 30
0.0
 10
434.4386066432
 20
175.4631028365
 30
0.0
 10
434.655546551
 20
175.5667423743
 30
0.0
 10
435.0569479469
 20
175.5652687288
 30
0.0
 10
435.5516079877
 20
175.4487393032
 30
0.0
 10
435.9051982616
 20
175.3092995784
 30
0.0
 10
436.0988601634
 20
175.2234710684
 30
0.0
  0
SPLINE
  5
803
100
AcDbEntity
  8
RUNDUNGEN
100
AcDbSpline
 62
7
  6
CONTINUOUS
 70
0
 71
3
 72
15
 73
11
 74
0
 42
0.0000001
 43
0.0000001
 44
0.0000000001
 40
0.0
 40
0.0
 40
0.0
 40
0.0
 40
0.2012473044
 40
0.3857014681
 40
0.5498421266
 40
0.6907474574
 40
0.8062032579
 40
0.8540171421
 40
0.8951941155
 40
1.0
 40
1.0
 40
1.0
 40
1.0
 10
432.9081532775
 20
174.5465503592
 30
0.0
 10
432.5338904695
 20
175.0039816886
 30
0.0
 10
431.8296595263
 20
175.8914812305
 30
0.0
 10
430.8716015225
 20
177.1919737815
 30
0.0
 10
430.0696596307
 20
178.3854012958
 30
0.0
 10
429.4393924038
 20
179.4495219416
 30
0.0
 10
429.0442758951
 20
180.2493826399
 30
0.0
 10
428.8320930257
 20
180.8169404833
 30
0.0
 10
428.6803368779
 20
181.3474580331
 30
0.0
 10
428.6383033556
 20
181.8853704382
 30
0.0
 10
428.8595504432
 20
182.0993539325
 30
0.0
  0
SPLINE
  5
804
100
AcDbEntity
  8
0
100
AcDbSpline
 62
7
  6
CONTINUOUS
 70
0
 71
3
 72
14
 73
10
 74
0
 42
0.0000001
 43
0.0000001
 44
0.0000000001
 40
0.0
 40
0.0
 40
0.0
 40
0.0
 40
0.3806770524
 40
0.538023538
 40
0.6723230184
 40
0.7835193218
 40
0.8725223092
 40
0.9423439071
 40
1.0
 40
1.0
 40
1.0
 40
1.0
 10
432.2468674451
 20
167.8358769577
 30
0.0
 10
431.9336402025
 20
168.3226717142
 30
0.0
 10
431.5104473754
 20
169.0246046703
 30
0.0
 10
431.0584184901
 20
169.9422733227
 30
0.0
 10
430.828225693
 20
170.5106805159
 30
0.0
 10
430.6852248471
 20
171.0001777905
 30
0.0
 10
430.6309086577
 20
171.4092801769
 30
0.0
 10
430.6660110375
 20
171.7419179956
 30
0.0
 10
430.7675825367
 20
171.9171874568
 30
0.0
 10
430.8306463627
 20
171.9780923749
 30
0.0
  0
SPLINE
  5
805
100
AcDbEntity
  8
RUNDUNGEN
100
AcDbSpline
 62
7
  6
CONTINUOUS
 70
0
 71
3
 72
10
 73
6
 74
0
 42
0.0000001
 43
0.0000001
 44
0.0000000001
 40
0.0
 40
0.0
 40
0.0
 40
0.0
 40
0.6785007611
 40
0.8787501437
 40
1.0
 40
1.0
 40
1.0
 40
1.0
 10
428.7330857032
 20
163.8484876086
 30
0.0
 10
428.6685896067
 20
163.9445006434
 30
0.0
 10
428.5892178868
 20
164.0746269913
 30
0.0
 10
428.5350078636
 20
164.2352525804
 30
0.0
 10
428.5449773253
 20
164.296518065
 30
0.0
 10
428.5598639806
 20
164.3108574107
 30
0.0
  0
SPLINE
  5
806
100
AcDbEntity
  8
RUNDUNGEN
100
AcDbSpline
 62
7
  6
CONTINUOUS
 70
0
 71
3
 72
11
 73
7
 74
0
 42
0.0000001
 43
0.0000001
 44
0.0000000001
 40
0.0
 40
0.0
 40
0.0
 40
0.0
 40
0.2283935007
 40
0.4975020238
 40
0.7679048038
 40
1.0
 40
1.0
 40
1.0
 40
1.0
 10
433.7793994643
 20
157.0130764336
 30
0.0
 10
433.6472061974
 20
157.1068850164
 30
0.0
 10
433.3744117403
 20
157.332314454
 30
0.0
 10
432.9814573747
 20
157.7104254154
 30
0.0
 10
432.6135918673
 20
158.1165644924
 30
0.0
 10
432.3940398036
 20
158.3985560191
 30
0.0
 10
432.3021878347
 20
158.535292764
 30
0.0
  0
SPLINE
  5
807
100
AcDbEntity
  8
RUNDUNGEN
100
AcDbSpline
 62
7
  6
CONTINUOUS
 70
0
 71
3
 72
9
 73
5
 74
0
 42
0.0000001
 43
0.0000001
 44
0.0000000001
 40
0.0
 40
0.0
 40
0.0
 40
0.0
 40
0.2538116446
 40
1.0
 40
1.0
 40
1.0
 40
1.0
 10
489.029532578
 20
106.2396054447
 30
0.0
 10
488.8477266207
 20
106.4152165142
 30
0.0
 10
488.1417309197
 20
107.1176271343
 30
0.0
 10
487.4722096425
 20
107.857292677
 30
0.0
 10
487.0016336396
 20
108.4324398784
 30
0.0
  0
SPLINE
  5
808
100
AcDbEntity
  8
RUNDUNGEN
100
AcDbSpline
 62
7
  6
CONTINUOUS
 70
0
 71
3
 72
9
 73
5
 74
0
 42
0.0000001
 43
0.0000001
 44
0.0000000001
 40
0.0
 40
0.0
 40
0.0
 40
0.0
 40
0.2929719602
 40
1.0
 40
1.0
 40
1.0
 40
1.0
 10
493.5716372689
 20
122.9562665744
 30
0.0
 10
493.5716372689
 20
122.9752288413
 30
0.0
 10
493.5750142027
 20
123.0394259803
 30
0.0
 10
493.6005521111
 20
123.1056745659
 30
0.0
 10
493.6334509469
 20
123.1374831676
 30
0.0
  0
SPLINE
  5
809
100
AcDbEntity
  8
RUNDUNGEN
100
AcDbSpline
 62
7
  6
CONTINUOUS
 70
0
 71
3
 72
9
 73
5
 74
0
 42
0.0000001
 43
0.0000001
 44
0.0000000001
 40
0.0
 40
0.0
 40
0.0
 40
0.0
 40
0.5385571132
 40
1.0
 40
1.0
 40
1.0
 40
1.0
 10
493.5716372689
 20
117.420234781
 30
0.0
 10
493.2316466542
 20
117.7486404963
 30
0.0
 10
492.583926024
 20
118.3415926358
 30
0.0
 10
491.8984000279
 20
118.8917234494
 30
0.0
 10
491.5688284354
 20
119.1271363529
 30
0.0
  0
SPLINE
  5
80A
100
AcDbEntity
  8
RUNDUNGEN
100
AcDbSpline
 62
7
  6
CONTINUOUS
 70
0
 71
3
 72
14
 73
10
 74
0
 42
0.0000001
 43
0.0000001
 44
0.0000000001
 40
0.0
 40
0.0
 40
0.0
 40
0.0
 40
0.327873784
 40
0.4853312748
 40
0.6306263543
 40
0.7584857965
 40
0.8644622094
 40
0.9453349233
 40
1.0
 40
1.0
 40
1.0
 40
1.0
 10
497.1071711748
 20
107.2990622316
 30
0.0
 10
496.6394579946
 20
107.7508384716
 30
0.0
 10
495.9708834113
 20
108.4449040547
 30
0.0
 10
495.1535654458
 20
109.3918604703
 30
0.0
 10
494.6225035062
 20
110.0612398561
 30
0.0
 10
494.1852041116
 20
110.6729857927
 30
0.0
 10
493.8560311713
 20
111.2052316982
 30
0.0
 10
493.6475764612
 20
111.6351753345
 30
0.0
 10
493.5716372689
 20
111.8998032562
 30
0.0
 10
493.5716372689
 20
112.0082209665
 30
0.0
  0
SPLINE
  5
80B
100
AcDbEntity
  8
RUNDUNGEN
100
AcDbSpline
 62
7
  6
CONTINUOUS
 70
0
 71
3
 72
14
 73
10
 74
0
 42
0.0000001
 43
0.0000001
 44
0.0000000001
 40
0.0
 40
0.0
 40
0.0
 40
0.0
 40
0.2012572751
 40
0.3857885661
 40
0.5499429896
 40
0.6908692187
 40
0.8063236906
 40
0.8952181046
 40
1.0
 40
1.0
 40
1.0
 40
1.0
 10
486.7347107831
 20
122.8141347362
 30
0.0
 10
486.5743082985
 20
123.0101817923
 30
0.0
 10
486.2724381796
 20
123.3906998001
 30
0.0
 10
485.8617884228
 20
123.9478253139
 30
0.0
 10
485.5179890206
 20
124.4603706846
 30
0.0
 10
485.2480473792
 20
124.9136178281
 30
0.0
 10
485.0553791328
 20
125.310599559
 30
0.0
 10
484.928092255
 20
125.6602353048
 30
0.0
 10
484.9048919127
 20
125.9596414369
 30
0.0
 10
484.9997742369
 20
126.0512363765
 30
0.0
  0
SPLINE
  5
80C
100
AcDbEntity
  8
RUNDUNGEN
100
AcDbSpline
 62
7
  6
CONTINUOUS
 70
0
 71
3
 72
11
 73
7
 74
0
 42
0.0000001
 43
0.0000001
 44
0.0000000001
 40
0.0
 40
0.0
 40
0.0
 40
0.0
 40
0.217048507
 40
0.4713284974
 40
0.7403269981
 40
1.0
 40
1.0
 40
1.0
 40
1.0
 10
475.527037495
 20
139.6307993023
 30
0.0
 10
474.5266016421
 20
140.3407406769
 30
0.0
 10
472.443507001
 20
142.0076994415
 30
0.0
 10
469.3548480802
 20
144.8332155785
 30
0.0
 10
466.2599927163
 20
147.9991750446
 30
0.0
 10
464.2890158305
 20
150.2477024412
 30
0.0
 10
463.3596438649
 20
151.3835990483
 30
0.0
  0
SPLINE
  5
80D
100
AcDbEntity
  8
RUNDUNGEN
100
AcDbSpline
 62
7
  6
CONTINUOUS
 70
0
 71
3
 72
11
 73
7
 74
0
 42
0.0000001
 43
0.0000001
 44
0.0000000001
 40
0.0
 40
0.0
 40
0.0
 40
0.0
 40
0.2596730019
 40
0.5286715026
 40
0.782951493
 40
1.0
 40
1.0
 40
1.0
 40
1.0
 10
471.9915035891
 20
126.7781146223
 30
0.0
 10
471.0621316235
 20
127.9140112295
 30
0.0
 10
469.0911547377
 20
130.162538626
 30
0.0
 10
465.9962993738
 20
133.3284980922
 30
0.0
 10
462.9076404529
 20
136.1540142292
 30
0.0
 10
460.8245458118
 20
137.8209729938
 30
0.0
 10
459.8241099589
 20
138.5309143683
 30
0.0
  0
SPLINE
  5
80E
100
AcDbEntity
  8
RUNDUNGEN
100
AcDbSpline
 62
7
  6
CONTINUOUS
 70
0
 71
3
 72
12
 73
8
 74
0
 42
0.0000001
 43
0.0000001
 44
0.0000000001
 40
0.0
 40
0.0
 40
0.0
 40
0.0
 40
0.0769163679
 40
0.1757857774
 40
0.42568196
 40
0.7145393197
 40
1.0
 40
1.0
 40
1.0
 40
1.0
 10
446.147498676
 20
170.6828413715
 30
0.0
 10
446.0693867514
 20
170.7174595903
 30
0.0
 10
445.8986652488
 20
170.8136980982
 30
0.0
 10
445.5093696847
 20
171.0824418786
 30
0.0
 10
444.9667930425
 20
171.540050062
 30
0.0
 10
444.3116991824
 20
172.1801999658
 30
0.0
 10
443.8862744296
 20
172.6566546214
 30
0.0
 10
443.6854792934
 20
172.902070367
 30
0.0
  0
SPLINE
  5
80F
100
AcDbEntity
  8
RUNDUNGEN
100
AcDbSpline
 62
7
  6
CONTINUOUS
 70
0
 71
3
 72
11
 73
7
 74
0
 42
0.0000001
 43
0.0000001
 44
0.0000000001
 40
0.0
 40
0.0
 40
0.0
 40
0.0
 40
0.3782242072
 40
0.6888033457
 40
0.8991045804
 40
1.0
 40
1.0
 40
1.0
 40
1.0
 10
501.7033652525
 20
116.3957157281
 30
0.0
 10
501.7420216584
 20
116.3583765074
 30
0.0
 10
501.8134609221
 20
116.2926370156
 30
0.0
 10
501.9180114728
 20
116.2134797728
 30
0.0
 10
501.9868451916
 20
116.1692849002
 30
0.0
 10
502.0402142468
 20
116.1555362071
 30
0.0
 10
502.0506076715
 20
116.1654118751
 30
0.0
  0
SPLINE
  5
810
100
AcDbEntity
  8
RUNDUNGEN
100
AcDbSpline
 62
7
  6
CONTINUOUS
 70
0
 71
3
 72
12
 73
8
 74
0
 42
0.0000001
 43
0.0000001
 44
0.0000000001
 40
0.0
 40
0.0
 40
0.0
 40
0.0
 40
0.3829279487
 40
0.6763788394
 40
0.7880316563
 40
0.8770245698
 40
1.0
 40
1.0
 40
1.0
 40
1.0
 10
492.0640023013
 20
121.5764443132
 30
0.0
 10
492.2322552914
 20
121.457046594
 30
0.0
 10
492.5362831713
 20
121.2554466579
 30
0.0
 10
492.9113901334
 20
121.0543134866
 30
0.0
 10
493.1648674618
 20
120.9668907864
 30
0.0
 10
493.3332628256
 20
120.9328095035
 30
0.0
 10
493.4621953007
 20
120.9529749176
 30
0.0
 10
493.5098295081
 20
120.9990278892
 30
0.0
  0
SPLINE
  5
811
100
AcDbEntity
  8
RUNDUNGEN
100
AcDbSpline
 62
7
  6
CONTINUOUS
 70
0
 71
3
 72
16
 73
12
 74
0
 42
0.0000001
 43
0.0000001
 44
0.0000000001
 40
0.0
 40
0.0
 40
0.0
 40
0.0
 40
0.1944173055
 40
0.3770359621
 40
0.5426105144
 40
0.6866232203
 40
0.805333714
 40
0.8962491806
 40
0.9311210777
 40
0.9593064637
 40
1.0
 40
1.0
 40
1.0
 40
1.0
 10
498.5213847372
 20
103.9013073237
 30
0.0
 10
498.7209786624
 20
103.7085143965
 30
0.0
 10
499.1140384489
 20
103.3407543157
 30
0.0
 10
499.6980631581
 20
102.8317878427
 30
0.0
 10
500.2465119602
 20
102.3923802288
 30
0.0
 10
500.7428433034
 20
102.034744406
 30
0.0
 10
501.1728578948
 20
101.7696163307
 30
0.0
 10
501.4880493635
 20
101.6169001677
 30
0.0
 10
501.700408488
 20
101.5551920785
 30
0.0
 10
501.845622559
 20
101.5345358706
 30
0.0
 10
501.9533473026
 20
101.558748624
 30
0.0
 10
501.995104838
 20
101.5991223605
 30
0.0
  0
SPLINE
  5
812
100
AcDbEntity
  8
RUNDUNGEN
100
AcDbSpline
 62
7
  6
CONTINUOUS
 70
0
 71
3
 72
9
 73
5
 74
0
 42
0.0000001
 43
0.0000001
 44
0.0000000001
 40
0.0
 40
0.0
 40
0.0
 40
0.0
 40
0.2406099096
 40
1.0
 40
1.0
 40
1.0
 40
1.0
 10
490.5371675455
 20
111.8475033879
 30
0.0
 10
490.6889073795
 20
111.6620439927
 30
0.0
 10
491.3328161456
 20
110.9021841864
 30
0.0
 10
492.0211073447
 20
110.1800931352
 30
0.0
 10
492.5650664839
 20
109.6546689542
 30
0.0
  0
SPLINE
  5
813
100
AcDbEntity
  8
RUNDUNGEN
100
AcDbSpline
 62
7
  6
CONTINUOUS
 70
0
 71
3
 72
11
 73
7
 74
0
 42
0.0000001
 43
0.0000001
 44
0.0000000001
 40
0.0
 40
0.0
 40
0.0
 40
0.0
 40
0.2321082131
 40
0.5025206982
 40
0.7716173963
 40
1.0
 40
1.0
 40
1.0
 40
1.0
 10
435.8377217407
 20
161.9503562734
 30
0.0
 10
435.929578861
 20
161.8136118598
 30
0.0
 10
436.1491420785
 20
161.531608462
 30
0.0
 10
436.5170142353
 20
161.1254649787
 30
0.0
 10
436.9099637671
 20
160.7473623146
 30
0.0
 10
437.1827464105
 20
160.5219440502
 30
0.0
 10
437.3149333702
 20
160.4281399431
 30
0.0
  0
SPLINE
  5
814
100
AcDbEntity
  8
0
100
AcDbSpline
 62
7
  6
CONTINUOUS
 70
0
 71
3
 72
15
 73
11
 74
0
 42
0.0000001
 43
0.0000001
 44
0.0000000001
 40
0.0
 40
0.0
 40
0.0
 40
0.0
 40
0.2018499553
 40
0.3828567064
 40
0.5413894942
 40
0.6765595027
 40
0.7880615151
 40
0.8765600154
 40
0.9448337862
 40
1.0
 40
1.0
 40
1.0
 40
1.0
 10
436.0988601634
 20
170.7698959019
 30
0.0
 10
435.9061215372
 20
171.0568190096
 30
0.0
 10
435.5493549489
 20
171.6070647483
 30
0.0
 10
435.0773860054
 20
172.4053703952
 30
0.0
 10
434.7006698735
 20
173.1262726448
 30
0.0
 10
434.4225424181
 20
173.7627105568
 30
0.0
 10
434.2441331693
 20
174.3097297357
 30
0.0
 10
434.1672999963
 20
174.7648105548
 30
0.0
 10
434.1913798675
 20
175.1328775104
 30
0.0
 10
434.2982291271
 20
175.3275309616
 30
0.0
 10
434.3661802686
 20
175.3931558844
 30
0.0
  0
SPLINE
  5
815
100
AcDbEntity
  8
0
100
AcDbSpline
 62
7
  6
CONTINUOUS
 70
0
 71
3
 72
13
 73
9
 74
0
 42
0.0000001
 43
0.0000001
 44
0.0000000001
 40
0.0
 40
0.0
 40
0.0
 40
0.0
 40
0.3706048172
 40
0.6554979967
 40
0.7663831125
 40
0.8579849069
 40
0.9337145727
 40
1.0
 40
1.0
 40
1.0
 40
1.0
 10
454.7168852865
 20
153.9519576193
 30
0.0
 10
454.4838117235
 20
154.0912174544
 30
0.0
 10
454.0629556528
 20
154.3231637749
 30
0.0
 10
453.5405442052
 20
154.5374766362
 30
0.0
 10
453.1906045484
 20
154.6135310274
 30
0.0
 10
452.9857700128
 20
154.6238559616
 30
0.0
 10
452.8153495169
 20
154.5910187904
 30
0.0
 10
452.7240540841
 20
154.5347730393
 30
0.0
 10
452.6891373262
 20
154.5010237823
 30
0.0
  0
SPLINE
  5
816
100
AcDbEntity
  8
RUNDUNGEN
100
AcDbSpline
 62
7
  6
CONTINUOUS
 70
0
 71
3
 72
9
 73
5
 74
0
 42
0.0000001
 43
0.0000001
 44
0.0000000001
 40
0.0
 40
0.0
 40
0.0
 40
0.0
 40
0.6294496393
 40
1.0
 40
1.0
 40
1.0
 40
1.0
 10
442.2092293594
 20
176.7601100681
 30
0.0
 10
442.2437867637
 20
176.7447946628
 30
0.0
 10
442.2980389198
 20
176.7215063007
 30
0.0
 10
442.3665482157
 20
176.7277006337
 30
0.0
 10
442.382539773
 20
176.7431738325
 30
0.0
  0
SPLINE
  5
817
100
AcDbEntity
  8
0
100
AcDbSpline
 62
7
  6
CONTINUOUS
 70
0
 71
3
 72
9
 73
5
 74
0
 42
0.0000001
 43
0.0000001
 44
0.0000000001
 40
0.0
 40
0.0
 40
0.0
 40
0.0
 40
0.4519578096
 40
1.0
 40
1.0
 40
1.0
 40
1.0
 10
453.0365148422
 20
154.141400178
 30
0.0
 10
452.9941831967
 20
154.1004839626
 30
0.0
 10
452.9262655563
 20
153.9825273764
 30
0.0
 10
452.9129973506
 20
153.8504450394
 30
0.0
 10
452.9129973506
 20
153.7790551106
 30
0.0
  0
SPLINE
  5
818
100
AcDbEntity
  8
0
100
AcDbSpline
 62
7
  6
CONTINUOUS
 70
0
 71
3
 72
9
 73
5
 74
0
 42
0.0000001
 43
0.0000001
 44
0.0000000001
 40
0.0
 40
0.0
 40
0.0
 40
0.0
 40
0.4520431102
 40
1.0
 40
1.0
 40
1.0
 40
1.0
 10
472.1160659484
 20
135.663840716
 30
0.0
 10
472.0779614879
 20
135.6270039742
 30
0.0
 10
472.0168505976
 20
135.5208306173
 30
0.0
 10
472.0048804427
 20
135.4019564187
 30
0.0
 10
472.0048804427
 20
135.3377121595
 30
0.0
  0
SPLINE
  5
819
100
AcDbEntity
  8
BEZUGSACHSEN
100
AcDbSpline
 62
7
  6
CONTINUOUS
 70
0
 71
3
 72
16
 73
12
 74
0
 42
0.0000001
 43
0.0000001
 44
0.0000000001
 40
0.0
 40
0.0
 40
0.0
 40
0.0
 40
0.198897828
 40
0.3825467473
 40
0.5469229012
 40
0.688556658
 40
0.8047563545
 40
0.8939736478
 40
0.9285867443
 40
0.9570393344
 40
1.0
 40
1.0
 40
1.0
 40
1.0
 10
442.8647561836
 20
167.689425908
 30
0.0
 10
443.0312603749
 20
167.4928801115
 30
0.0
 10
443.3457959786
 20
167.1099623994
 30
0.0
 10
443.7758799219
 20
166.5469359994
 30
0.0
 10
444.1391651673
 20
166.0269015117
 30
0.0
 10
444.4279225958
 20
165.5620314255
 30
0.0
 10
444.6353655189
 20
165.1628806749
 30
0.0
 10
444.748011507
 20
164.8715958597
 30
0.0
 10
444.7858529522
 20
164.67693253
 30
0.0
 10
444.7915716802
 20
164.5404627731
 30
0.0
 10
444.7592850147
 20
164.4435984397
 30
0.0
 10
444.7192615373
 20
164.4049494257
 30
0.0
  0
SPLINE
  5
81A
100
AcDbEntity
  8
0
100
AcDbSpline
 62
7
  6
CONTINUOUS
 70
0
 71
3
 72
14
 73
10
 74
0
 42
0.0000001
 43
0.0000001
 44
0.0000000001
 40
0.0
 40
0.0
 40
0.0
 40
0.0
 40
0.3848342948
 40
0.5448011477
 40
0.6811680134
 40
0.7932471345
 40
0.881327789
 40
0.9478524789
 40
1.0
 40
1.0
 40
1.0
 40
1.0
 10
475.0912212805
 20
134.5027749062
 30
0.0
 10
474.7040506315
 20
134.7975384025
 30
0.0
 10
474.1437901196
 20
135.2001863327
 30
0.0
 10
473.4073810863
 20
135.6477553694
 30
0.0
 10
472.9488930477
 20
135.886370525
 30
0.0
 10
472.5541517866
 20
136.0479450441
 30
0.0
 10
472.2257592063
 20
136.1303470128
 30
0.0
 10
471.9601782286
 20
136.1360739093
 30
0.0
 10
471.8160969719
 20
136.0692955369
 30
0.0
 10
471.7686895304
 20
136.0234653201
 30
0.0
  0
SPLINE
  5
81B
100
AcDbEntity
  8
RUNDUNGEN
100
AcDbSpline
 62
7
  6
CONTINUOUS
 70
0
 71
3
 72
10
 73
6
 74
0
 42
0.0000001
 43
0.0000001
 44
0.0000000001
 40
0.0
 40
0.0
 40
0.0
 40
0.0
 40
0.1212917484
 40
0.32158466
 40
1.0
 40
1.0
 40
1.0
 40
1.0
 10
432.095338595
 20
167.7258648393
 30
0.0
 10
432.0804731458
 20
167.7114975184
 30
0.0
 10
432.0705684257
 20
167.6502315072
 30
0.0
 10
432.1247760156
 20
167.4896379404
 30
0.0
 10
432.2041409191
 20
167.3595382405
 30
0.0
 10
432.2686196092
 20
167.263551118
 30
0.0
  0
SPLINE
  5
81C
100
AcDbEntity
  8
RUNDUNGEN
100
AcDbSpline
 62
7
  6
CONTINUOUS
 70
0
 71
3
 72
14
 73
10
 74
0
 42
0.0000001
 43
0.0000001
 44
0.0000000001
 40
0.0
 40
0.0
 40
0.0
 40
0.0
 40
0.0563083636
 40
0.1252819082
 40
0.2140274044
 40
0.325368063
 40
0.4601495838
 40
0.6181803343
 40
1.0
 40
1.0
 40
1.0
 40
1.0
 10
484.9997742369
 20
126.0512363765
 30
0.0
 10
485.0260401639
 20
126.0765922688
 30
0.0
 10
485.1016627662
 20
126.1156616889
 30
0.0
 10
485.2424931364
 20
126.1226206949
 30
0.0
 10
485.4147643327
 20
126.0901461469
 30
0.0
 10
485.620279714
 20
126.0184780213
 30
0.0
 10
485.8582320886
 20
125.9080765251
 30
0.0
 10
486.2411525593
 20
125.6961559701
 30
0.0
 10
486.53282384
 20
125.5015459861
 30
0.0
 10
486.7347107831
 20
125.3582805349
 30
0.0
  0
SPLINE
  5
81D
100
AcDbEntity
  8
RUNDUNGEN
100
AcDbSpline
 62
7
  6
CONTINUOUS
 70
0
 71
3
 72
16
 73
12
 74
0
 42
0.0000001
 43
0.0000001
 44
0.0000000001
 40
0.0
 40
0.0
 40
0.0
 40
0.0
 40
0.0406934736
 40
0.0688788371
 40
0.1037506951
 40
0.1946661206
 40
0.3133765647
 40
0.4573892105
 40
0.6229637467
 40
0.8055825858
 40
1.0
 40
1.0
 40
1.0
 40
1.0
 10
493.6334509469
 20
123.1374831676
 30
0.0
 10
493.6752084214
 20
123.1778568418
 30
0.0
 10
493.7829329526
 20
123.2020697745
 30
0.0
 10
493.9281468825
 20
123.1814136024
 30
0.0
 10
494.1405059248
 20
123.1197057765
 30
0.0
 10
494.4556972636
 20
122.9669896732
 30
0.0
 10
494.8857117366
 20
122.7018618069
 30
0.0
 10
495.382042987
 20
122.3442261092
 30
0.0
 10
495.9304919693
 20
121.9048184364
 30
0.0
 10
496.5145170128
 20
121.3958517001
 30
0.0
 10
496.90757713
 20
121.0280913331
 30
0.0
 10
497.1071711748
 20
120.8352982904
 30
0.0
  0
SPLINE
  5
81E
100
AcDbEntity
  8
BEZUGSACHSEN
100
AcDbSpline
 62
7
  6
CONTINUOUS
 70
0
 71
3
 72
13
 73
9
 74
0
 42
0.0000001
 43
0.0000001
 44
0.0000000001
 40
0.0
 40
0.0
 40
0.0
 40
0.0
 40
0.1226067082
 40
0.2115390607
 40
0.3232079208
 40
0.4584448908
 40
0.6169701465
 40
1.0
 40
1.0
 40
1.0
 40
1.0
 10
437.0771231567
 20
172.3168197346
 30
0.0
 10
437.1299269557
 20
172.3678101758
 30
0.0
 10
437.2731143939
 20
172.3896794617
 30
0.0
 10
437.4597916152
 20
172.3512496103
 30
0.0
 10
437.6512815125
 20
172.2849575726
 30
0.0
 10
437.8709917993
 20
172.1819758067
 30
0.0
 10
438.2255422429
 20
171.9850516321
 30
0.0
 10
438.4953142093
 20
171.8042660211
 30
0.0
 10
438.6821124021
 20
171.6712459629
 30
0.0
  0
SPLINE
  5
81F
100
AcDbEntity
  8
RUNDUNGEN
100
AcDbSpline
 62
7
  6
CONTINUOUS
 70
0
 71
3
 72
11
 73
7
 74
0
 42
0.0000001
 43
0.0000001
 44
0.0000000001
 40
0.0
 40
0.0
 40
0.0
 40
0.0
 40
0.217048507
 40
0.4713284974
 40
0.7403269981
 40
1.0
 40
1.0
 40
1.0
 40
1.0
 10
463.3596438649
 20
141.9459778778
 30
0.0
 10
464.3600797178
 20
141.2360365032
 30
0.0
 10
466.4431743588
 20
139.5690777386
 30
0.0
 10
469.5318332797
 20
136.7435616016
 30
0.0
 10
472.6266886436
 20
133.5776021355
 30
0.0
 10
474.5976655294
 20
131.329074739
 30
0.0
 10
475.527037495
 20
130.1931781318
 30
0.0
  0
SPLINE
  5
820
100
AcDbEntity
  8
RUNDUNGEN
100
AcDbSpline
 62
7
  6
CONTINUOUS
 70
0
 71
3
 72
13
 73
9
 74
0
 42
0.0000001
 43
0.0000001
 44
0.0000000001
 40
0.0
 40
0.0
 40
0.0
 40
0.0
 40
0.3838126006
 40
0.5428077377
 40
0.6783592868
 40
0.790156864
 40
0.8789253364
 40
1.0
 40
1.0
 40
1.0
 40
1.0
 10
441.4525133607
 20
162.800103635
 30
0.0
 10
441.5743284942
 20
162.6187617974
 30
0.0
 10
441.7395777693
 20
162.3571578141
 30
0.0
 10
441.9184927126
 20
162.0146001943
 30
0.0
 10
442.0114277056
 20
161.8029368077
 30
0.0
 10
442.0702676286
 20
161.6192600834
 30
0.0
 10
442.1028629203
 20
161.442182309
 30
0.0
 10
442.079701472
 20
161.3069446927
 30
0.0
 10
442.0301424812
 20
161.2590602953
 30
0.0
  0
SPLINE
  5
821
100
AcDbEntity
  8
0
100
AcDbSpline
 62
7
  6
CONTINUOUS
 70
0
 71
3
 72
9
 73
5
 74
0
 42
0.0000001
 43
0.0000001
 44
0.0000000001
 40
0.0
 40
0.0
 40
0.0
 40
0.0
 40
0.2920315002
 40
1.0
 40
1.0
 40
1.0
 40
1.0
 10
472.1220993659
 20
135.7215614601
 30
0.0
 10
472.0785788794
 20
135.7344870709
 30
0.0
 10
471.9286553033
 20
135.774096178
 30
0.0
 10
471.7708917906
 20
135.795516264
 30
0.0
 10
471.6613858985
 20
135.7844742905
 30
0.0
  0
SPLINE
  5
822
100
AcDbEntity
  8
0
100
AcDbSpline
 62
7
  6
CONTINUOUS
 70
0
 71
3
 72
9
 73
5
 74
0
 42
0.0000001
 43
0.0000001
 44
0.0000000001
 40
0.0
 40
0.0
 40
0.0
 40
0.0
 40
0.2919766981
 40
1.0
 40
1.0
 40
1.0
 40
1.0
 10
453.0488841538
 20
154.2224963775
 30
0.0
 10
453.0035134653
 20
154.2345113998
 30
0.0
 10
452.8473160982
 20
154.2705110626
 30
0.0
 10
452.6828618188
 20
154.2858426203
 30
0.0
 10
452.5704547253
 20
154.2680072375
 30
0.0
  0
SPLINE
  5
823
100
AcDbEntity
  8
0
100
AcDbSpline
 62
7
  6
CONTINUOUS
 70
0
 71
3
 72
11
 73
7
 74
0
 42
0.0000001
 43
0.0000001
 44
0.0000000001
 40
0.0
 40
0.0
 40
0.0
 40
0.0
 40
0.2459817353
 40
0.49379615
 40
0.7448877615
 40
1.0
 40
1.0
 40
1.0
 40
1.0
 10
294.623369097
 20
344.8734836353
 30
0.0
 10
294.623369097
 20
346.5969947673
 30
0.0
 10
295.0232586202
 20
350.0697000401
 30
0.0
 10
296.7972377632
 20
355.0244763308
 30
0.0
 10
299.669409266
 20
359.5099188638
 30
0.0
 10
302.2189037803
 20
362.0241713412
 30
0.0
 10
303.6197199699
 20
363.1344948914
 30
0.0
  0
SPLINE
  5
824
100
AcDbEntity
  8
0
100
AcDbSpline
 62
7
  6
CONTINUOUS
 70
0
 71
3
 72
11
 73
7
 74
0
 42
0.0000001
 43
0.0000001
 44
0.0000000001
 40
0.0
 40
0.0
 40
0.0
 40
0.0
 40
0.2551122821
 40
0.5062039715
 40
0.7540184117
 40
1.0
 40
1.0
 40
1.0
 40
1.0
 10
335.6275792362
 20
363.1340497748
 30
0.0
 10
337.0283146716
 20
362.0237212917
 30
0.0
 10
339.5776602411
 20
359.5094925991
 30
0.0
 10
342.4496470201
 20
355.0241472974
 30
0.0
 10
344.2235074302
 20
350.0695214351
 30
0.0
 10
344.623369097
 20
346.5969353778
 30
0.0
 10
344.623369097
 20
344.8734836353
 30
0.0
  0
SPLINE
  5
825
100
AcDbEntity
  8
0
100
AcDbSpline
 62
7
  6
CONTINUOUS
 70
0
 71
3
 72
15
 73
11
 74
0
 42
0.0000001
 43
0.0000001
 44
0.0000000001
 40
0.0
 40
0.0
 40
0.0
 40
0.0
 40
0.1241005111
 40
0.248310116
 40
0.3727369898
 40
0.49746302
 40
0.622545046
 40
0.748008201
 40
0.873841679
 40
1.0
 40
1.0
 40
1.0
 40
1.0
 10
272.623369097
 20
344.8734836353
 30
0.0
 10
272.623369097
 20
347.210566755
 30
0.0
 10
272.9926597059
 20
351.8951082182
 30
0.0
 10
274.640386657
 20
358.7467173633
 30
0.0
 10
277.3410082053
 20
365.2699842109
 30
0.0
 10
281.0281357432
 20
371.3092560056
 30
0.0
 10
285.6119213937
 20
376.7247449326
 30
0.0
 10
290.9830327474
 20
381.3922288158
 30
0.0
 10
297.0123952593
 20
385.2055729422
 30
0.0
 10
301.3770757835
 20
387.1211659488
 30
0.0
 10
303.6176566085
 20
387.9113526689
 30
0.0
  0
SPLINE
  5
826
100
AcDbEntity
  8
0
100
AcDbSpline
 62
7
  6
CONTINUOUS
 70
0
 71
3
 72
15
 73
11
 74
0
 42
0.0000001
 43
0.0000001
 44
0.0000000001
 40
0.0
 40
0.0
 40
0.0
 40
0.0
 40
0.1261583241
 40
0.2519917356
 40
0.3774547885
 40
0.502536714
 40
0.6272626761
 40
0.7516895445
 40
0.875899254
 40
1.0
 40
1.0
 40
1.0
 40
1.0
 10
335.6287813596
 20
387.9114573675
 30
0.0
 10
337.8693794369
 20
387.1212792936
 30
0.0
 10
342.2340977797
 20
385.2057087959
 30
0.0
 10
348.263511419
 20
381.3923749936
 30
0.0
 10
353.6346709537
 20
376.7248936137
 30
0.0
 10
358.2185034893
 20
371.3093983837
 30
0.0
 10
361.9056689559
 20
365.2701067154
 30
0.0
 10
364.6063243146
 20
358.7468100843
 30
0.0
 10
366.2540730502
 20
351.8951585472
 30
0.0
 10
366.623369097
 20
347.2105842984
 30
0.0
 10
366.623369097
 20
344.8734836353
 30
0.0
  0
SPLINE
  5
827
100
AcDbEntity
  8
0
100
AcDbSpline
 62
7
  6
CONTINUOUS
 70
0
 71
3
 72
15
 73
11
 74
0
 42
0.0000001
 43
0.0000001
 44
0.0000000001
 40
0.0
 40
0.0
 40
0.0
 40
0.0
 40
0.1239257334
 40
0.2479959173
 40
0.372343579
 40
0.4970654747
 40
0.6222155421
 40
0.7477961395
 40
0.8737567426
 40
1.0
 40
1.0
 40
1.0
 40
1.0
 10
366.623369097
 20
282.0883049265
 30
0.0
 10
366.623369097
 20
279.4137350633
 30
0.0
 10
366.1389837484
 20
274.0490166124
 30
0.0
 10
363.9834844648
 20
266.2647724068
 30
0.0
 10
360.4691512265
 20
258.9708609853
 30
0.0
 10
355.7088723771
 20
252.3944869508
 30
0.0
 10
349.8537163528
 20
246.7334692116
 30
0.0
 10
343.0851670996
 20
242.1563363878
 30
0.0
 10
335.6139077183
 20
238.7975120082
 30
0.0
 10
330.3119164103
 20
237.4350974517
 30
0.0
 10
327.6250868453
 20
236.9830799035
 30
0.0
  0
SPLINE
  5
828
100
AcDbEntity
  8
0
100
AcDbSpline
 62
7
  6
CONTINUOUS
 70
0
 71
3
 72
15
 73
11
 74
0
 42
0.0000001
 43
0.0000001
 44
0.0000000001
 40
0.0
 40
0.0
 40
0.0
 40
0.0
 40
0.1262433502
 40
0.252203939
 40
0.3777844525
 40
0.5029344001
 40
0.6276561954
 40
0.7520038134
 40
0.8760740606
 40
1.0
 40
1.0
 40
1.0
 40
1.0
 10
311.6221566294
 20
236.9829939754
 30
0.0
 10
308.9352982642
 20
237.4349819356
 30
0.0
 10
303.6332518451
 20
238.7973660103
 30
0.0
 10
296.1619012666
 20
242.1561443488
 30
0.0
 10
289.3932708452
 20
246.7332657275
 30
0.0
 10
283.5380359344
 20
252.3942849253
 30
0.0
 10
278.7776887229
 20
258.9706825161
 30
0.0
 10
275.2633008531
 20
266.2646371618
 30
0.0
 10
273.1077632769
 20
274.0489426432
 30
0.0
 10
272.623369097
 20
279.4137095214
 30
0.0
 10
272.623369097
 20
282.0883049265
 30
0.0
  0
SPLINE
  5
829
100
AcDbEntity
  8
0
100
AcDbSpline
 62
7
  6
CONTINUOUS
 70
0
 71
3
 72
15
 73
11
 74
0
 42
0.0000001
 43
0.0000001
 44
0.0000000001
 40
0.0
 40
0.0
 40
0.0
 40
0.0
 40
0.1214679143
 40
0.2433953084
 40
0.3662108925
 40
0.4902252741
 40
0.6156304249
 40
0.7424746676
 40
0.870668771
 40
1.0
 40
1.0
 40
1.0
 40
1.0
 10
344.623369097
 20
282.0883049265
 30
0.0
 10
344.623369097
 20
280.8676851207
 30
0.0
 10
344.4241451891
 20
278.4172133904
 30
0.0
 10
343.5337935714
 20
274.8307672828
 30
0.0
 10
342.0695899826
 20
271.4091662026
 30
0.0
 10
340.0613640162
 20
268.2347976705
 30
0.0
 10
337.5524246055
 20
265.3853962222
 30
0.0
 10
334.5989374966
 20
262.9335750207
 30
0.0
 10
331.2713550454
 20
260.944145187
 30
0.0
 10
328.8633567859
 20
259.9646207785
 30
0.0
 10
327.6261028546
 20
259.5668012112
 30
0.0
  0
SPLINE
  5
82A
100
AcDbEntity
  8
0
100
AcDbSpline
 62
7
  6
CONTINUOUS
 70
0
 71
3
 72
15
 73
11
 74
0
 42
0.0000001
 43
0.0000001
 44
0.0000000001
 40
0.0
 40
0.0
 40
0.0
 40
0.0
 40
0.1293312129
 40
0.2575253718
 40
0.3843696942
 40
0.509774926
 40
0.6337893614
 40
0.7566049592
 40
0.8785322719
 40
1.0
 40
1.0
 40
1.0
 40
1.0
 10
311.6203236634
 20
259.5669022517
 30
0.0
 10
310.3830888421
 20
259.964734694
 30
0.0
 10
307.9751275327
 20
260.9442749951
 30
0.0
 10
304.6476008448
 20
262.9337184109
 30
0.0
 10
301.6941663941
 20
265.3855409006
 30
0.0
 10
299.1852758612
 20
268.2349330618
 30
0.0
 10
297.1770905122
 20
271.4092804552
 30
0.0
 10
295.7129189919
 20
274.830850889
 30
0.0
 10
294.8225880949
 20
278.4172578584
 30
0.0
 10
294.623369097
 20
280.8677002246
 30
0.0
 10
294.623369097
 20
282.0883049265
 30
0.0
  0
ELLIPSE
  5
82B
100
AcDbEntity
  8
0
100
AcDbEllipse
 62
7
  6
CONTINUOUS
 10
318.723369097
 20
188.1918919692
 30
0.0
 11
14.0
 21
0.0
 31
0.0
 40
0.8066525678
 41
-1.7336547185
 42
-1.5707963268
  0
ELLIPSE
  5
82C
100
AcDbEntity
  8
RUNDUNGEN
100
AcDbEllipse
 62
7
  6
CONTINUOUS
 10
320.523369097
 20
188.1918919692
 30
0.0
 11
14.0
 21
-0.0
 31
0.0
 40
0.8066525678
 41
-1.5707963268
 42
-1.4079379351
  0
ELLIPSE
  5
82D
100
AcDbEntity
  8
0
100
AcDbEllipse
 62
7
  6
CONTINUOUS
 10
312.2061547042
 20
227.8949226888
 30
0.0
 11
0.1626554851
 21
6.4994465885
 31
0.0
 40
0.5214561498
 41
-1.2959476913
 42
-0.0753166147
  0
ELLIPSE
  5
82E
100
AcDbEntity
  8
RUNDUNGEN
100
AcDbEllipse
 62
7
  6
CONTINUOUS
 10
327.0405834898
 20
227.8949226888
 30
0.0
 11
-0.1626554851
 21
6.4994465885
 31
0.0
 40
0.5214561498
 41
0.0753166147
 42
1.2959476913
  0
ENDSEC
  0
SECTION
  2
OBJECTS
  0
DICTIONARY
  5
C
100
AcDbDictionary
280
0
281
1
  3
ACAD_GROUP
350
D
  3
ACAD_MLINESTYLE
350
17
  3
ACAD_LAYOUT
350
1A
  3
ACAD_PLOTSETTINGS
350
19
  3
ACAD_PLOTSTYLENAME
350
E
  0
DICTIONARY
  5
D
102
{ACAD_REACTORS
330
C
102
}
100
AcDbDictionary
280
0
281
1
  0
ACDBDICTIONARYWDFLT
  5
E
102
{ACAD_REACTORS
330
C
102
}
100
AcDbDictionary
281
1
  3
Normal
350
F
100
AcDbDictionaryWithDefault
340
F
  0
DICTIONARY
  5
17
102
{ACAD_REACTORS
330
C
102
}
100
AcDbDictionary
280
0
281
1
  3
Standard
350
18
  0
DICTIONARY
  5
19
102
{ACAD_REACTORS
330
C
102
}
100
AcDbDictionary
281
1
  0
DICTIONARY
  5
1A
102
{ACAD_REACTORS
330
C
102
}
100
AcDbDictionary
281
1
  3
Model
350
82F
  3
Layout1
350
830
  0
ACDBPLACEHOLDER
  5
F
102
{ACAD_REACTORS
330
E
102
}
  0
MLINESTYLE
  5
18
102
{ACAD_REACTORS
330
17
102
}
100
AcDbMlineStyle
  2
STANDARD
 70
0
  3

 62
256
 51
90.0
 52
90.0
 71
2
 49
0.5
 62
256
  6
BYLAYER
 49
-0.5
 62
256
  6
BYLAYER
  0
LAYOUT
  5
82F
102
{ACAD_REACTORS
330
1A
102
}
100
AcDbPlotSettings
  1

  2
none_device
  4
ISO_A0_(1189.00_x_841.00_MM)
  6

 40
0.0
 41
0.0
 42
0.0
 43
0.0
 44
1189.0
 45
841.0
 46
0.0
 47
0.0
 48
0.0
 49
0.0
140
0.0
141
0.0
142
1.0
143
1.0
 70
1024
 72
1
 73
0
 74
0
  7

 75
0
147
1.0
148
0.0
149
0.0
100
AcDbLayout
  1
Model
 70
0
 71
0
 10
0.0
 20
0.0
 11
1189.0
 21
841.0
 12
0.0
 22
0.0
 32
0.0
 14
0.0
 24
0.0
 34
0.0
 15
0.0
 25
0.0
 35
0.0
146
0.0
 13
0.0
 23
0.0
 33
0.0
 16
1.0
 26
0.0
 36
0.0
 17
0.0
 27
1.0
 37
0.0
 76
0
330
20A
345
0
346
0
  0
LAYOUT
  5
830
102
{ACAD_REACTORS
330
1A
102
}
100
AcDbPlotSettings
  1

  2
none_device
  4
ISO_A0_(1189.00_x_841.00_MM)
  6

 40
0.0
 41
0.0
 42
0.0
 43
0.0
 44
1189.0
 45
841.0
 46
0.0
 47
0.0
 48
0.0
 49
0.0
140
0.0
141
0.0
142
1.0
143
1.0
 70
0
 72
1
 73
0
 74
0
  7

 75
0
147
1.0
148
0.0
149
0.0
100
AcDbLayout
  1
Layout1
 70
0
 71
1
 10
0.0
 20
0.0
 11
1189.0
 21
841.0
 12
0.0
 22
0.0
 32
0.0
 14
0.0
 24
0.0
 34
0.0
 15
0.0
 25
0.0
 35
0.0
146
0.0
 13
0.0
 23
0.0
 33
0.0
 16
1.0
 26
0.0
 36
0.0
 17
0.0
 27
1.0
 37
0.0
 76
0
330
20B
345
0
346
0
  0
ENDSEC
  0
EOF
