999
DXF file: ISAK-RG-2-10_140_7903196_M34586-P-3.dxf
999
Pro/ENGINEER 2010140 by Parametric Technology Corporation
  0
SECTION
  2
HEADER
  9
$ACADVER
  1
AC1015
  9
$DWGCODEPAGE
  3
ANSI_1252
  9
$EXTMAX
 10
841.0
 20
594.0
 30
0.0
  9
$EXTMIN
 10
0.0
 20
0.0
 30
0.0
  9
$LIMMIN
 10
0.0
 20
0.0
  9
$LIMMAX
 10
841.0
 20
594.0
  9
$VIEWCTR
 10
420.5
 20
297.0
  9
$VIEWSIZE
 40
594.0
  9
$CLAYER
  8
0
  9
$LTSCALE
 40
46.255
  9
$CELTYPE
  6
BYLAYER
  9
$DIMSCALE
 40
1.0
  9
$DIMASZ
 40
3.5
  9
$DIMEXO
 40
5.25625
  9
$DIMDLI
 40
31.958
  9
$DIMEXE
 40
15.138
  9
$DIMCEN
 40
7.569
  9
$DIMLFAC
 40
1.0
  9
$DIMBLK
  1
_FILLED
  9
$DIMTXT
 40
3.5
  9
$DIMTOL
 70
1
  9
$DIMLIM
 70
0
  9
$DIMTFAC
 40
1.0
  9
$DIMTP
 40
0.005
  9
$DIMTM
 40
0.005
  9
$PDMODE
 70
3
  9
$PDSIZE
 40
0.3125
  9
$HANDSEED
  5
831
  9
$TILEMODE
 70
1
  9
$MEASUREMENT
 70
1
  9
$INSUNITS
 70
4
  0
ENDSEC
  0
SECTION
  2
CLASSES
  0
CLASS
  1
ACDBDICTIONARYWDFLT
  2
AcDbDictionaryWithDefault
  3
AutoCAD 2000
 90
0
280
0
281
0
  0
CLASS
  1
ACDBPLACEHOLDER
  2
AcDbPlaceHolder
  3
AutoCAD 2000
 90
0
280
0
281
0
  0
CLASS
  1
LAYOUT
  2
AcDbLayout
  3
AutoCAD 2000
 90
0
280
0
281
0
  0
ENDSEC
  0
SECTION
  2
TABLES
  0
TABLE
  2
VPORT
  5
8
100
AcDbSymbolTable
 70
2
  0
VPORT
  5
1F4
100
AcDbSymbolTableRecord
100
AcDbViewportTableRecord
  2
*ACTIVE
 70
0
 10
0.0
 20
0.0
 11
1.0
 21
1.0
 12
420.5
 22
297.0
 13
0.0
 23
0.0
 14
1.0
 24
1.0
 15
0.0
 25
0.0
 16
0.0
 26
0.0
 36
1.0
 17
0.0
 27
0.0
 37
0.0
 40
594.0
 41
1.4158249158
 42
50.0
 43
0.0
 44
0.0
 50
0.0
 51
0.0
 71
0
 72
100
 73
1
 74
1
 75
0
 76
0
 77
0
 78
0
  0
ENDTAB
  0
TABLE
  2
LTYPE
  5
5
100
AcDbSymbolTable
 70
6
  0
LTYPE
  5
14
100
AcDbSymbolTableRecord
100
AcDbLinetypeTableRecord
  2
BYBLOCK
 70
0
  3

 72
65
 73
0
 40
0.0
  0
LTYPE
  5
15
100
AcDbSymbolTableRecord
100
AcDbLinetypeTableRecord
  2
BYLAYER
 70
0
  3

 72
65
 73
0
 40
0.0
  0
LTYPE
  5
16
100
AcDbSymbolTableRecord
100
AcDbLinetypeTableRecord
  2
CONTINUOUS
 70
64
  3
Solid line
 72
65
 73
0
 40
0.0
  0
LTYPE
  5
1F5
100
AcDbSymbolTableRecord
100
AcDbLinetypeTableRecord
  2
CENTER
 70
64
  3
____ _ ____ _ ____ _ ____ _ ____ _ ____ _ ____
 72
65
 73
4
 40
0.6
 49
0.375
 74
0
 49
-0.075
 74
0
 49
0.075
 74
0
 49
-0.075
 74
0
  0
LTYPE
  5
1F6
100
AcDbSymbolTableRecord
100
AcDbLinetypeTableRecord
  2
HIDDEN
 70
64
  3
- - - - - - - - - - - - - - - - - - - -
 72
65
 73
2
 40
0.2
 49
0.1
 74
0
 49
-0.1
 74
0
  0
LTYPE
  5
1F7
100
AcDbSymbolTableRecord
100
AcDbLinetypeTableRecord
  2
PHANTOM
 70
64
  3
_____ _ _ _____ _ _ _____ _ _ _____
 72
65
 73
6
 40
0.8
 49
0.45
 74
0
 49
-0.05
 74
0
 49
0.1
 74
0
 49
-0.05
 74
0
 49
0.1
 74
0
 49
-0.05
 74
0
  0
LTYPE
  5
1F8
100
AcDbSymbolTableRecord
100
AcDbLinetypeTableRecord
  2
DOT
 70
64
  3
. . . . . . . . . . . . . . . . . . . .
 72
65
 73
2
 40
0.2
 49
0.1
 74
0
 49
-0.1
 74
0
  0
LTYPE
  5
1F9
100
AcDbSymbolTableRecord
100
AcDbLinetypeTableRecord
  2
DASHED
 70
64
  3
- - - - - - - - - - - - - - - - - - - -
 72
65
 73
2
 40
0.2
 49
0.1
 74
0
 49
-0.1
 74
0
  0
ENDTAB
  0
TABLE
  2
LAYER
  5
2
100
AcDbSymbolTable
 70
36
  0
LAYER
  5
10
100
AcDbSymbolTableRecord
100
AcDbLayerTableRecord
  2
0
 70
0
 62
7
  6
CONTINUOUS
370
-3
390
F
  0
LAYER
  5
1FA
100
AcDbSymbolTableRecord
100
AcDbLayerTableRecord
  2
DEFAULT_1
 70
0
 62
7
  6
CENTER
370
-3
390
F
  0
LAYER
  5
1FB
100
AcDbSymbolTableRecord
100
AcDbLayerTableRecord
  2
DEFAULT_2
 70
0
 62
8
  6
HIDDEN
370
-3
390
F
  0
LAYER
  5
1FC
100
AcDbSymbolTableRecord
100
AcDbLayerTableRecord
  2
DEFAULT_3
 70
0
 62
7
  6
PHANTOM
370
-3
390
F
  0
LAYER
  5
1FD
100
AcDbSymbolTableRecord
100
AcDbLayerTableRecord
  2
BEZUGSACHSEN
 70
0
 62
7
  6
CONTINUOUS
370
-3
390
F
  0
LAYER
  5
1FE
100
AcDbSymbolTableRecord
100
AcDbLayerTableRecord
  2
BEZUGSEBENEN
 70
0
 62
7
  6
CONTINUOUS
370
-3
390
F
  0
LAYER
  5
1FF
100
AcDbSymbolTableRecord
100
AcDbLayerTableRecord
  2
BG_STARTBEZUEGE
 70
0
 62
7
  6
CONTINUOUS
370
-3
390
F
  0
LAYER
  5
200
100
AcDbSymbolTableRecord
100
AcDbLayerTableRecord
  2
FASEN
 70
0
 62
7
  6
CONTINUOUS
370
-3
390
F
  0
LAYER
  5
201
100
AcDbSymbolTableRecord
100
AcDbLayerTableRecord
  2
HILFEN
 70
0
 62
7
  6
CONTINUOUS
370
-3
390
F
  0
LAYER
  5
202
100
AcDbSymbolTableRecord
100
AcDbLayerTableRecord
  2
KONSTRUKTIONSELEMENTE
 70
0
 62
7
  6
CONTINUOUS
370
-3
390
F
  0
LAYER
  5
203
100
AcDbSymbolTableRecord
100
AcDbLayerTableRecord
  2
NORM
 70
0
 62
7
  6
CONTINUOUS
370
-3
390
F
  0
LAYER
  5
204
100
AcDbSymbolTableRecord
100
AcDbLayerTableRecord
  2
PLATZIERUNG
 70
0
 62
7
  6
CONTINUOUS
370
-3
390
F
  0
LAYER
  5
205
100
AcDbSymbolTableRecord
100
AcDbLayerTableRecord
  2
RUNDUNGEN
 70
0
 62
7
  6
CONTINUOUS
370
-3
390
F
  0
LAYER
  5
206
100
AcDbSymbolTableRecord
100
AcDbLayerTableRecord
  2
TEIL_STARTBEZUEGE
 70
0
 62
7
  6
CONTINUOUS
370
-3
390
F
  0
LAYER
  5
207
100
AcDbSymbolTableRecord
100
AcDbLayerTableRecord
  2
T_STARTBEZUEGE
 70
0
 62
7
  6
CONTINUOUS
370
-3
390
F
  0
ENDTAB
  0
TABLE
  2
STYLE
  5
3
100
AcDbSymbolTable
 70
1
  0
STYLE
  5
11
100
AcDbSymbolTableRecord
100
AcDbTextStyleTableRecord
  2
STANDARD
 70
0
 40
0.0
 41
0.7
 50
0.0
 71
0
 42
0.2
  3
txt
  4

  0
STYLE
  5
208
100
AcDbSymbolTableRecord
100
AcDbTextStyleTableRecord
  2
TEXTSTYLE_1
 70
0
 40
0.0
 41
0.8
 50
0.0
 71
0
 42
0.2
  3
gdt
  4

  0
ENDTAB
  0
TABLE
  2
VIEW
  5
6
100
AcDbSymbolTable
 70
0
  0
ENDTAB
  0
TABLE
  2
UCS
  5
7
100
AcDbSymbolTable
 70
0
  0
ENDTAB
  0
TABLE
  2
APPID
  5
9
100
AcDbSymbolTable
 70
1
  0
APPID
  5
209
100
AcDbSymbolTableRecord
100
AcDbRegAppTableRecord
  2
ACAD
 70
0
  0
ENDTAB
  0
TABLE
  2
BLOCK_RECORD
  5
1
100
AcDbSymbolTable
 70
0
  0
BLOCK_RECORD
  5
20A
100
AcDbSymbolTableRecord
100
AcDbBlockTableRecord
  2
*Model_Space
  0
BLOCK_RECORD
  5
20B
100
AcDbSymbolTableRecord
100
AcDbBlockTableRecord
  2
*Paper_Space
  0
ENDTAB
  0
TABLE
  2
DIMSTYLE
  5
A
100
AcDbSymbolTable
 70
1
100
AcDbDimStyleTable
 71
0
  0
DIMSTYLE
105
20C
100
AcDbSymbolTableRecord
100
AcDbDimStyleTableRecord
  2
STANDARD
 70
0
  3

  4

 40
1.0
 41
3.5
 42
0.0625
 43
0.38
 44
0.18
 45
0.0
 46
0.0
 47
0.005
 48
0.005
140
3.5
141
0.09
142
0.0
143
25.4
144
1.0
145
0.0
146
1.0
147
0.09
 71
1.0
 72
0.0
 73
0
 74
0
 75
0
 76
0
 77
1
 78
8
170
0
171
2
172
0
173
0
174
0
175
0
176
0
177
0
178
5
270
2
271
3
272
3
273
2
274
2
275
0
280
0
281
0
282
0
283
1
284
8
285
0
286
0
287
3
288
0
340
11
  0
ENDTAB
  0
ENDSEC
  0
SECTION
  2
BLOCKS
  0
BLOCK
  5
20
100
AcDbEntity
  8
0
100
AcDbBlockBegin
  2
*Model_Space
 70
0
 10
0.0
 20
0.0
 30
0.0
  3
*Model_Space
  1

  0
ENDBLK
  5
21
100
AcDbEntity
  8
0
100
AcDbBlockEnd
  0
BLOCK
  5
1C
100
AcDbEntity
  8
0
100
AcDbBlockBegin
  2
*Paper_Space
 70
0
 10
0.0
 20
0.0
 30
0.0
  3
*Paper_Space
  1

  0
ENDBLK
  5
1D
100
AcDbEntity
  8
0
100
AcDbBlockEnd
  0
ENDSEC
  0
SECTION
  2
ENTITIES
  0
MTEXT
  5
20D
100
AcDbEntity
  8
0
100
AcDbMText
 62
5
  6
CONTINUOUS
  7
STANDARD
 71
1
 72
1
 10
489.83864858
 20
393.722468183
 30
0.0
 11
0.0
 21
1.0
 31
0.0
 44
0.9
  1
RUD
 40
11.0
 41
29.3333333333
  0
MTEXT
  5
20E
100
AcDbEntity
  8
0
100
AcDbMText
 62
5
  6
CONTINUOUS
  7
STANDARD
 71
1
 72
1
 10
656.3858624288
 20
341.0089061709
 30
0.0
 11
0.0
 21
1.0
 31
0.0
 44
0.9
  1
ISAK-RG 2-10/140
 40
11.0
 41
133.0476190476
  0
MTEXT
  5
20F
100
AcDbEntity
  8
0
100
AcDbMText
 62
5
  6
CONTINUOUS
  7
STANDARD
 71
1
 72
1
 10
182.8544610953
 20
327.7263493133
 30
0.0
 11
0.0
 21
1.0
 31
0.0
 44
0.9
  1
RUD ISAK-RG 2-10/140
 40
11.0
 41
168.9285714286
  0
LINE
  5
210
100
AcDbEntity
  8
0
100
AcDbLine
 62
7
  6
CONTINUOUS
 10
0.0
 20
0.0
 11
0.0
 21
594.0
  0
LINE
  5
211
100
AcDbEntity
  8
0
100
AcDbLine
 62
7
  6
CONTINUOUS
 10
0.0
 20
0.0
 11
841.0
 21
0.0
  0
LINE
  5
212
100
AcDbEntity
  8
0
100
AcDbLine
 62
7
  6
CONTINUOUS
 10
0.0
 20
594.0
 11
841.0
 21
594.0
  0
LINE
  5
213
100
AcDbEntity
  8
0
100
AcDbLine
 62
7
  6
CONTINUOUS
 10
841.0
 20
0.0
 11
841.0
 21
594.0
  0
LINE
  5
214
100
AcDbEntity
  8
RUNDUNGEN
100
AcDbLine
 62
7
  6
CONTINUOUS
 10
462.2161014014
 20
27.4338727453
 11
464.4860270932
 21
26.8256479893
  0
LINE
  5
215
100
AcDbEntity
  8
RUNDUNGEN
100
AcDbLine
 62
7
  6
CONTINUOUS
 10
515.9698736344
 20
13.0305928853
 11
518.2397993262
 21
12.4223681293
  0
LINE
  5
216
100
AcDbEntity
  8
RUNDUNGEN
100
AcDbLine
 62
7
  6
CONTINUOUS
 10
471.9947715605
 20
33.5982956639
 11
478.622987333
 21
31.8222706005
  0
LINE
  5
217
100
AcDbEntity
  8
RUNDUNGEN
100
AcDbLine
 62
7
  6
CONTINUOUS
 10
506.2252182401
 20
24.4262751196
 11
512.8534340125
 21
22.6502500561
  0
LINE
  5
218
100
AcDbEntity
  8
0
100
AcDbLine
 62
7
  6
CONTINUOUS
 10
489.5281763516
 20
71.3591808486
 11
494.1646203178
 21
70.1168494321
  0
LINE
  5
219
100
AcDbEntity
  8
0
100
AcDbLine
 62
7
  6
CONTINUOUS
 10
496.6236755435
 20
69.4579475702
 11
497.5509643367
 21
69.2094812869
  0
LINE
  5
21A
100
AcDbEntity
  8
0
100
AcDbLine
 62
7
  6
CONTINUOUS
 10
501.9680986275
 20
68.0259137209
 11
503.0388394963
 21
67.7390095698
  0
LINE
  5
21B
100
AcDbEntity
  8
0
100
AcDbLine
 62
7
  6
CONTINUOUS
 10
511.1068981311
 20
65.5771797741
 11
514.4663563447
 21
64.6770156587
  0
LINE
  5
21C
100
AcDbEntity
  8
0
100
AcDbLine
 62
7
  6
CONTINUOUS
 10
489.6196827025
 20
71.7006871996
 11
494.2561266687
 21
70.4583557831
  0
LINE
  5
21D
100
AcDbEntity
  8
0
100
AcDbLine
 62
7
  6
CONTINUOUS
 10
496.7151818944
 20
69.7994539212
 11
497.6424706877
 21
69.5509876379
  0
LINE
  5
21E
100
AcDbEntity
  8
0
100
AcDbLine
 62
7
  6
CONTINUOUS
 10
502.0596049784
 20
68.3674200718
 11
502.8515070793
 21
68.1552305434
  0
LINE
  5
21F
100
AcDbEntity
  8
0
100
AcDbLine
 62
7
  6
CONTINUOUS
 10
511.1984044821
 20
65.918686125
 11
514.5578626957
 21
65.0185220097
  0
LINE
  5
220
100
AcDbEntity
  8
0
100
AcDbLine
 62
7
  6
CONTINUOUS
 10
514.6696887239
 20
65.3545837195
 11
512.2171996263
 21
66.0117261927
  0
LINE
  5
221
100
AcDbEntity
  8
0
100
AcDbLine
 62
7
  6
CONTINUOUS
 10
492.7904579466
 20
71.3635160988
 11
491.3415692072
 21
71.7517446665
  0
LINE
  5
222
100
AcDbEntity
  8
0
100
AcDbLine
 62
7
  6
CONTINUOUS
 10
491.6847248962
 20
71.9892192401
 11
492.6120136894
 21
71.7407529568
  0
LINE
  5
223
100
AcDbEntity
  8
0
100
AcDbLine
 62
7
  6
CONTINUOUS
 10
491.7762312471
 20
72.3307255911
 11
492.7035200403
 21
72.0822593078
  0
LINE
  5
224
100
AcDbEntity
  8
0
100
AcDbLine
 62
7
  6
CONTINUOUS
 10
492.4694067468
 20
72.657425341
 11
492.2665623233
 21
72.7117773405
  0
LINE
  5
225
100
AcDbEntity
  8
0
100
AcDbLine
 62
7
  6
CONTINUOUS
 10
492.8865327422
 20
72.7652720097
 11
492.6402216565
 21
72.8312708662
  0
LINE
  5
226
100
AcDbEntity
  8
0
100
AcDbLine
 62
7
  6
CONTINUOUS
 10
492.2055550347
 20
72.9477394365
 11
491.959243949
 21
73.013738293
  0
LINE
  5
227
100
AcDbEntity
  8
0
100
AcDbLine
 62
7
  6
CONTINUOUS
 10
491.7807996918
 20
73.390975151
 11
492.2879107506
 21
73.2550951523
  0
LINE
  5
228
100
AcDbEntity
  8
0
100
AcDbLine
 62
7
  6
CONTINUOUS
 10
492.7225773724
 20
73.138626582
 11
493.2296884312
 21
73.0027465833
  0
LINE
  5
229
100
AcDbEntity
  8
0
100
AcDbLine
 62
7
  6
CONTINUOUS
 10
498.2397631277
 20
71.7801133713
 11
500.5579851108
 21
71.158947663
  0
LINE
  5
22A
100
AcDbEntity
  8
0
100
AcDbLine
 62
7
  6
CONTINUOUS
 10
491.8723060427
 20
73.7324815019
 11
492.3794171015
 21
73.5966015033
  0
LINE
  5
22B
100
AcDbEntity
  8
0
100
AcDbLine
 62
7
  6
CONTINUOUS
 10
492.8140837233
 20
73.480132933
 11
493.3211947821
 21
73.3442529343
  0
LINE
  5
22C
100
AcDbEntity
  8
0
100
AcDbLine
 62
7
  6
CONTINUOUS
 10
493.3394960523
 20
73.4125542045
 11
492.8323849935
 21
73.5484342032
  0
LINE
  5
22D
100
AcDbEntity
  8
0
100
AcDbLine
 62
7
  6
CONTINUOUS
 10
492.3977183717
 20
73.6649027735
 11
491.8906073129
 21
73.8007827721
  0
LINE
  5
22E
100
AcDbEntity
  8
0
100
AcDbLine
 62
7
  6
CONTINUOUS
 10
498.3312694787
 20
72.1216197222
 11
500.6494914618
 21
71.500454014
  0
LINE
  5
22F
100
AcDbEntity
  8
0
100
AcDbLine
 62
7
  6
CONTINUOUS
 10
492.2337630018
 20
74.0382573458
 11
492.4800740875
 21
73.9722584893
  0
LINE
  5
230
100
AcDbEntity
  8
0
100
AcDbLine
 62
7
  6
CONTINUOUS
 10
492.9147407094
 20
73.855789919
 11
493.1610517951
 21
73.7897910625
  0
LINE
  5
231
100
AcDbEntity
  8
0
100
AcDbLine
 62
7
  6
CONTINUOUS
 10
501.1200476352
 20
71.7111122388
 11
498.4154553216
 21
72.4358055651
  0
LINE
  5
232
100
AcDbEntity
  8
0
100
AcDbLine
 62
7
  6
CONTINUOUS
 10
492.6508889973
 20
74.1461040145
 11
492.8537334208
 21
74.091752015
  0
LINE
  5
233
100
AcDbEntity
  8
0
100
AcDbLine
 62
7
  6
CONTINUOUS
 10
492.3252693528
 20
74.3797636968
 11
492.5715804385
 21
74.3137648403
  0
LINE
  5
234
100
AcDbEntity
  8
0
100
AcDbLine
 62
7
  6
CONTINUOUS
 10
493.0062470603
 20
74.19729627
 11
493.252558146
 21
74.1312974135
  0
LINE
  5
235
100
AcDbEntity
  8
0
100
AcDbLine
 62
7
  6
CONTINUOUS
 10
492.7423953482
 20
74.4876103654
 11
492.9452397717
 21
74.4332583659
  0
LINE
  5
236
100
AcDbEntity
  8
0
100
AcDbLine
 62
7
  6
CONTINUOUS
 10
513.1322631357
 20
69.4267897021
 11
512.2049743425
 21
69.6752559854
  0
LINE
  5
237
100
AcDbEntity
  8
0
100
AcDbLine
 62
7
  6
CONTINUOUS
 10
498.6581911832
 20
73.3417081334
 11
497.7309023899
 21
73.5901744167
  0
LINE
  5
238
100
AcDbEntity
  8
0
100
AcDbLine
 62
7
  6
CONTINUOUS
 10
493.4355708479
 20
74.8143101153
 11
492.5082820547
 21
75.0627763986
  0
LINE
  5
239
100
AcDbEntity
  8
0
100
AcDbLine
 62
7
  6
CONTINUOUS
 10
492.3298377974
 20
75.4400132567
 11
493.7787265369
 21
75.051784689
  0
LINE
  5
23A
100
AcDbEntity
  8
0
100
AcDbLine
 62
7
  6
CONTINUOUS
 10
512.3587050121
 20
70.248986655
 11
515.738482903
 21
69.3433778986
  0
LINE
  5
23B
100
AcDbEntity
  8
0
100
AcDbLine
 62
7
  6
CONTINUOUS
 10
497.8846330595
 20
74.1639050863
 11
501.5165141664
 21
73.1907454767
  0
LINE
  5
23C
100
AcDbEntity
  8
0
100
AcDbLine
 62
7
  6
CONTINUOUS
 10
492.4213441484
 20
75.7815196076
 11
493.8702328878
 21
75.39329104
  0
LINE
  5
23D
100
AcDbEntity
  8
0
100
AcDbLine
 62
7
  6
CONTINUOUS
 10
512.450211363
 20
70.590493006
 11
515.8299892539
 21
69.6848842495
  0
LINE
  5
23E
100
AcDbEntity
  8
0
100
AcDbLine
 62
7
  6
CONTINUOUS
 10
497.9761394105
 20
74.5054114372
 11
501.6080205173
 21
73.5322518276
  0
LINE
  5
23F
100
AcDbEntity
  8
0
100
AcDbLine
 62
7
  6
CONTINUOUS
 10
515.8938554195
 20
70.0045147335
 11
512.5343972059
 21
70.9046788488
  0
LINE
  5
240
100
AcDbEntity
  8
0
100
AcDbLine
 62
7
  6
CONTINUOUS
 10
510.5059529707
 20
71.4481988436
 11
509.5786641774
 21
71.6966651269
  0
LINE
  5
241
100
AcDbEntity
  8
0
100
AcDbLine
 62
7
  6
CONTINUOUS
 10
505.9331293607
 20
72.673483237
 11
505.0058405675
 21
72.9219495203
  0
LINE
  5
242
100
AcDbEntity
  8
0
100
AcDbLine
 62
7
  6
CONTINUOUS
 10
501.6830557251
 20
73.8122870354
 11
498.0511746182
 21
74.785446645
  0
LINE
  5
243
100
AcDbEntity
  8
0
100
AcDbLine
 62
7
  6
CONTINUOUS
 10
495.5921193925
 20
75.4443485069
 11
490.9556754263
 21
76.6866799234
  0
LINE
  5
244
100
AcDbEntity
  8
0
100
AcDbLine
 62
7
  6
CONTINUOUS
 10
669.8683782946
 20
103.3201520422
 11
665.2661972255
 21
102.0870013413
  0
LINE
  5
245
100
AcDbEntity
  8
0
100
AcDbLine
 62
7
  6
CONTINUOUS
 10
628.3263507902
 20
92.1889993204
 11
623.7241697211
 21
90.9558486196
  0
LINE
  5
246
100
AcDbEntity
  8
BEZUGSACHSEN
100
AcDbLine
 62
7
  6
CONTINUOUS
 10
650.130094317
 20
108.844159211
 11
638.0560214884
 21
105.6089211472
  0
LINE
  5
247
100
AcDbEntity
  8
KONSTRUKTIONSELEMENTE
100
AcDbLine
 62
7
  6
CONTINUOUS
 10
533.9883796157
 20
90.9558486196
 11
529.4224031741
 21
92.1792983198
  0
LINE
  5
248
100
AcDbEntity
  8
0
100
AcDbLine
 62
7
  6
CONTINUOUS
 10
529.4224031741
 20
92.1792983198
 11
529.3861985467
 21
92.1889993204
  0
LINE
  5
249
100
AcDbEntity
  8
0
100
AcDbLine
 62
7
  6
CONTINUOUS
 10
492.4463521113
 20
102.0870013413
 11
492.4101474839
 21
102.096702342
  0
LINE
  5
24A
100
AcDbEntity
  8
KONSTRUKTIONSELEMENTE
100
AcDbLine
 62
7
  6
CONTINUOUS
 10
492.4101474839
 20
102.096702342
 11
487.8441710423
 21
103.3201520422
  0
LINE
  5
24B
100
AcDbEntity
  8
BEZUGSACHSEN
100
AcDbLine
 62
7
  6
CONTINUOUS
 10
649.1616779632
 20
112.4583382463
 11
637.0876051346
 21
109.2231001825
  0
LINE
  5
24C
100
AcDbEntity
  8
BEZUGSACHSEN
100
AcDbLine
 62
7
  6
CONTINUOUS
 10
647.4462763025
 20
118.8603043994
 11
635.3722034739
 21
115.6250663356
  0
LINE
  5
24D
100
AcDbEntity
  8
BEZUGSACHSEN
100
AcDbLine
 62
7
  6
CONTINUOUS
 10
646.4778599487
 20
122.4744834346
 11
634.4037871201
 21
119.2392453709
  0
LINE
  5
24E
100
AcDbEntity
  8
0
100
AcDbLine
 62
7
  6
CONTINUOUS
 10
663.5080177112
 20
127.4978030706
 11
652.9930371414
 21
124.6803225185
  0
LINE
  5
24F
100
AcDbEntity
  8
0
100
AcDbLine
 62
7
  6
CONTINUOUS
 10
627.6585586191
 20
117.8919694578
 11
617.1435780493
 21
115.0744889056
  0
LINE
  5
250
100
AcDbEntity
  8
RUNDUNGEN
100
AcDbLine
 62
7
  6
CONTINUOUS
 10
473.5247230178
 20
80.6058790945
 11
477.1095705722
 21
81.324870461
  0
LINE
  5
251
100
AcDbEntity
  8
RUNDUNGEN
100
AcDbLine
 62
7
  6
CONTINUOUS
 10
498.988667678
 20
85.865500158
 11
494.507608235
 21
84.9667609498
  0
LINE
  5
252
100
AcDbEntity
  8
RUNDUNGEN
100
AcDbLine
 62
7
  6
CONTINUOUS
 10
474.4397865273
 20
84.0209426039
 11
477.6949336967
 21
84.6738079423
  0
LINE
  5
253
100
AcDbEntity
  8
RUNDUNGEN
100
AcDbLine
 62
7
  6
CONTINUOUS
 10
499.9037311875
 20
89.2805636674
 11
495.4226717445
 21
88.3818244593
  0
LINE
  5
254
100
AcDbEntity
  8
RUNDUNGEN
100
AcDbLine
 62
7
  6
CONTINUOUS
 10
473.2300467545
 20
88.1211305242
 11
469.6451992002
 21
87.4021391576
  0
LINE
  5
255
100
AcDbEntity
  8
BEZUGSACHSEN
100
AcDbLine
 62
7
  6
CONTINUOUS
 10
507.5824550198
 20
108.844159211
 11
519.6565278485
 21
105.6089211472
  0
LINE
  5
256
100
AcDbEntity
  8
BEZUGSACHSEN
100
AcDbLine
 62
7
  6
CONTINUOUS
 10
508.5508713737
 20
112.4583382463
 11
520.6249442023
 21
109.2231001825
  0
LINE
  5
257
100
AcDbEntity
  8
BEZUGSACHSEN
100
AcDbLine
 62
7
  6
CONTINUOUS
 10
510.2662730343
 20
118.8603043994
 11
522.340345863
 21
115.6250663356
  0
LINE
  5
258
100
AcDbEntity
  8
RUNDUNGEN
100
AcDbLine
 62
7
  6
CONTINUOUS
 10
524.6683785875
 20
73.4421327246
 11
515.6096364747
 21
81.4119249915
  0
LINE
  5
259
100
AcDbEntity
  8
RUNDUNGEN
100
AcDbLine
 62
7
  6
CONTINUOUS
 10
516.5246999841
 20
84.826988501
 11
525.5834420969
 21
76.8571962341
  0
LINE
  5
25A
100
AcDbEntity
  8
RUNDUNGEN
100
AcDbLine
 62
7
  6
CONTINUOUS
 10
465.8761789813
 20
91.3801799347
 11
467.6947057708
 21
88.19443303
  0
LINE
  5
25B
100
AcDbEntity
  8
RUNDUNGEN
100
AcDbLine
 62
7
  6
CONTINUOUS
 10
472.7865807814
 20
79.2743416971
 11
482.6327012145
 21
62.0256281379
  0
LINE
  5
25C
100
AcDbEntity
  8
RUNDUNGEN
100
AcDbLine
 62
7
  6
CONTINUOUS
 10
498.9410702624
 20
33.4561638257
 11
502.6592223066
 21
26.9425994209
  0
LINE
  5
25D
100
AcDbEntity
  8
RUNDUNGEN
100
AcDbLine
 62
7
  6
CONTINUOUS
 10
478.3398076328
 20
83.5440994566
 11
476.4808691369
 21
86.8006407368
  0
LINE
  5
25E
100
AcDbEntity
  8
0
100
AcDbLine
 62
7
  6
CONTINUOUS
 10
615.6193997466
 20
120.7627997711
 11
632.7734686874
 21
125.3592186906
  0
LINE
  5
25F
100
AcDbEntity
  8
0
100
AcDbLine
 62
7
  6
CONTINUOUS
 10
644.8297704678
 20
128.5896950164
 11
661.9838394085
 21
133.186113936
  0
LINE
  5
260
100
AcDbEntity
  8
0
100
AcDbLine
 62
7
  6
CONTINUOUS
 10
615.0382586877
 20
137.1699592472
 11
617.8040268645
 21
137.9110445966
  0
LINE
  5
261
100
AcDbEntity
  8
0
100
AcDbLine
 62
7
  6
CONTINUOUS
 10
651.5177744139
 20
146.9446160263
 11
654.283542813
 21
147.6857014353
  0
LINE
  5
262
100
AcDbEntity
  8
0
100
AcDbLine
 62
7
  6
CONTINUOUS
 10
646.1787858247
 20
145.6305253502
 11
623.0847719513
 21
139.4425029828
  0
LINE
  5
263
100
AcDbEntity
  8
RUNDUNGEN
100
AcDbLine
 62
7
  6
CONTINUOUS
 10
469.2328649911
 20
95.9983857674
 11
468.3366531025
 21
95.8186379257
  0
LINE
  5
264
100
AcDbEntity
  8
RUNDUNGEN
100
AcDbLine
 62
7
  6
CONTINUOUS
 10
470.1479285006
 20
99.4134492768
 11
469.251716612
 21
99.2337014352
  0
LINE
  5
265
100
AcDbEntity
  8
0
100
AcDbLine
 62
7
  6
CONTINUOUS
 10
535.1306032
 20
128.684669208
 11
534.702482972
 21
128.6943626309
  0
LINE
  5
266
100
AcDbEntity
  8
0
100
AcDbLine
 62
7
  6
CONTINUOUS
 10
534.2890994176
 20
132.3758445157
 11
534.7172202205
 21
132.3661509387
  0
LINE
  5
267
100
AcDbEntity
  8
0
100
AcDbLine
 62
7
  6
CONTINUOUS
 10
510.6951802445
 20
134.4969736568
 11
511.2011589113
 21
134.4664181373
  0
LINE
  5
268
100
AcDbEntity
  8
0
100
AcDbLine
 62
7
  6
CONTINUOUS
 10
506.0898390899
 20
135.7309711
 11
506.5958172077
 21
135.7004157276
  0
LINE
  5
269
100
AcDbEntity
  8
0
100
AcDbLine
 62
7
  6
CONTINUOUS
 10
541.2327947131
 20
126.9445708736
 11
540.7042073811
 21
126.9811843758
  0
LINE
  5
26A
100
AcDbEntity
  8
0
100
AcDbLine
 62
7
  6
CONTINUOUS
 10
534.5449513839
 20
128.1064467403
 11
535.0735381433
 21
128.0698334007
  0
LINE
  5
26B
100
AcDbEntity
  8
0
100
AcDbLine
 62
7
  6
CONTINUOUS
 10
541.1470660075
 20
130.6432789527
 11
541.6756521897
 21
130.6066657585
  0
LINE
  5
26C
100
AcDbEntity
  8
0
100
AcDbLine
 62
7
  6
CONTINUOUS
 10
534.8747517903
 20
132.9540667607
 11
534.3461644583
 21
132.990680263
  0
LINE
  5
26D
100
AcDbEntity
  8
0
100
AcDbLine
 62
7
  6
CONTINUOUS
 10
540.5729310546
 20
126.4912544556
 11
541.2019843431
 21
126.4277211906
  0
LINE
  5
26E
100
AcDbEntity
  8
0
100
AcDbLine
 62
7
  6
CONTINUOUS
 10
541.8069284978
 20
131.0965956101
 11
541.1778752116
 21
131.1601288837
  0
LINE
  5
26F
100
AcDbEntity
  8
BEZUGSACHSEN
100
AcDbLine
 62
7
  6
CONTINUOUS
 10
511.2346893881
 20
122.4744834346
 11
523.3087622168
 21
119.2392453709
  0
LINE
  5
270
100
AcDbEntity
  8
RUNDUNGEN
100
AcDbLine
 62
7
  6
CONTINUOUS
 10
494.2045316256
 20
127.4978030706
 11
504.7195121954
 21
124.6803225185
  0
LINE
  5
271
100
AcDbEntity
  8
RUNDUNGEN
100
AcDbLine
 62
7
  6
CONTINUOUS
 10
530.0539907177
 20
117.8919694578
 11
540.5689712875
 21
115.0744889056
  0
LINE
  5
272
100
AcDbEntity
  8
RUNDUNGEN
100
AcDbLine
 62
7
  6
CONTINUOUS
 10
542.0931495902
 20
120.7627997711
 11
524.9390806494
 21
125.3592186906
  0
LINE
  5
273
100
AcDbEntity
  8
RUNDUNGEN
100
AcDbLine
 62
7
  6
CONTINUOUS
 10
512.8827788691
 20
128.5896950164
 11
495.7287099283
 21
133.186113936
  0
LINE
  5
274
100
AcDbEntity
  8
0
100
AcDbLine
 62
7
  6
CONTINUOUS
 10
499.7574950023
 20
137.4277175845
 11
500.3331626466
 21
137.2734679041
  0
LINE
  5
275
100
AcDbEntity
  8
0
100
AcDbLine
 62
7
  6
CONTINUOUS
 10
502.7317777398
 20
136.6307609269
 11
503.4033901745
 21
136.4508029174
  0
LINE
  5
276
100
AcDbEntity
  8
0
100
AcDbLine
 62
7
  6
CONTINUOUS
 10
505.7060604773
 20
135.8338042693
 11
506.0898390899
 21
135.7309711
  0
LINE
  5
277
100
AcDbEntity
  8
0
100
AcDbLine
 62
7
  6
CONTINUOUS
 10
508.3925096672
 20
135.1139723784
 11
510.6951802445
 21
134.4969736568
  0
LINE
  5
278
100
AcDbEntity
  8
0
100
AcDbLine
 62
7
  6
CONTINUOUS
 10
526.005312511
 20
130.39463608
 11
526.6081105355
 21
130.2331168361
  0
LINE
  5
279
100
AcDbEntity
  8
0
100
AcDbLine
 62
7
  6
CONTINUOUS
 10
527.411841187
 20
130.0177578571
 11
528.0146392116
 21
129.8562386132
  0
LINE
  5
27A
100
AcDbEntity
  8
0
100
AcDbLine
 62
7
  6
CONTINUOUS
 10
530.5262976952
 20
129.1832417509
 11
531.2295622488
 21
128.9948025817
  0
LINE
  5
27B
100
AcDbEntity
  8
0
100
AcDbLine
 62
7
  6
CONTINUOUS
 10
533.640754347
 20
128.3487256061
 11
534.5449513839
 21
128.1064467403
  0
LINE
  5
27C
100
AcDbEntity
  8
0
100
AcDbLine
 62
7
  6
CONTINUOUS
 10
537.3580090234
 20
127.3526902175
 11
537.960807048
 21
127.1911709737
  0
LINE
  5
27D
100
AcDbEntity
  8
0
100
AcDbLine
 62
7
  6
CONTINUOUS
 10
534.702482972
 20
128.6943626309
 11
533.7982859351
 21
128.9366414968
  0
LINE
  5
27E
100
AcDbEntity
  8
0
100
AcDbLine
 62
7
  6
CONTINUOUS
 10
510.8527118326
 20
135.0848895474
 11
509.1257088996
 21
135.5476385886
  0
LINE
  5
27F
100
AcDbEntity
  8
0
100
AcDbLine
 62
7
  6
CONTINUOUS
 10
506.247370678
 20
136.3188869907
 11
505.8635920654
 21
136.42172016
  0
LINE
  5
280
100
AcDbEntity
  8
0
100
AcDbLine
 62
7
  6
CONTINUOUS
 10
534.9695901608
 20
130.0930863468
 11
535.8737871976
 21
129.850807481
  0
LINE
  5
281
100
AcDbEntity
  8
0
100
AcDbLine
 62
7
  6
CONTINUOUS
 10
500.8845232142
 20
139.3311735555
 11
502.5155814941
 21
138.8941328067
  0
LINE
  5
282
100
AcDbEntity
  8
0
100
AcDbLine
 62
7
  6
CONTINUOUS
 10
528.5659997792
 20
131.9139442647
 11
530.2739274675
 21
131.4563064198
  0
LINE
  5
283
100
AcDbEntity
  8
0
100
AcDbLine
 62
7
  6
CONTINUOUS
 10
536.6341167919
 20
130.2772040591
 11
535.1271217305
 21
130.6810021688
  0
LINE
  5
284
100
AcDbEntity
  8
0
100
AcDbLine
 62
7
  6
CONTINUOUS
 10
530.6323918079
 20
131.9903824682
 11
528.7235313489
 21
132.5018600867
  0
LINE
  5
285
100
AcDbEntity
  8
0
100
AcDbLine
 62
7
  6
CONTINUOUS
 10
502.8650022328
 20
139.4306320808
 11
501.0420547839
 21
139.9190893775
  0
LINE
  5
286
100
AcDbEntity
  8
0
100
AcDbLine
 62
7
  6
CONTINUOUS
 10
536.2676161219
 20
131.3205970359
 11
536.8704141465
 21
131.1590777921
  0
LINE
  5
287
100
AcDbEntity
  8
0
100
AcDbLine
 62
7
  6
CONTINUOUS
 10
510.044643185
 20
138.9771480306
 11
511.771646118
 21
138.5143989894
  0
LINE
  5
288
100
AcDbEntity
  8
0
100
AcDbLine
 62
7
  6
CONTINUOUS
 10
534.7172202205
 20
132.3661509387
 11
535.6214172574
 21
132.1238720729
  0
LINE
  5
289
100
AcDbEntity
  8
0
100
AcDbLine
 62
7
  6
CONTINUOUS
 10
501.4358837818
 20
141.388879207
 11
503.2588312306
 21
140.9004219102
  0
LINE
  5
28A
100
AcDbEntity
  8
0
100
AcDbLine
 62
7
  6
CONTINUOUS
 10
529.1173603467
 20
133.9716499161
 11
531.0262208058
 21
133.4601722977
  0
LINE
  5
28B
100
AcDbEntity
  8
0
100
AcDbLine
 62
7
  6
CONTINUOUS
 10
539.1948044912
 20
131.7965121282
 11
538.5920064667
 21
131.9580313721
  0
LINE
  5
28C
100
AcDbEntity
  8
0
100
AcDbLine
 62
7
  6
CONTINUOUS
 10
535.7789488271
 20
132.7117878949
 11
534.8747517903
 21
132.9540667607
  0
LINE
  5
28D
100
AcDbEntity
  8
0
100
AcDbLine
 62
7
  6
CONTINUOUS
 10
531.0570308722
 20
133.9770219976
 11
528.6458386303
 21
134.6230990117
  0
LINE
  5
28E
100
AcDbEntity
  8
0
100
AcDbLine
 62
7
  6
CONTINUOUS
 10
527.8421079788
 20
134.8384579907
 11
527.2393099542
 21
134.9999772345
  0
LINE
  5
28F
100
AcDbEntity
  8
0
100
AcDbLine
 62
7
  6
CONTINUOUS
 10
511.9291776877
 20
139.1023148114
 11
509.6265071104
 21
139.719313533
  0
LINE
  5
290
100
AcDbEntity
  8
0
100
AcDbLine
 62
7
  6
CONTINUOUS
 10
508.8589504343
 20
139.9249797245
 11
508.28328279
 21
140.0792294049
  0
LINE
  5
291
100
AcDbEntity
  8
0
100
AcDbLine
 62
7
  6
CONTINUOUS
 10
505.9806122127
 20
140.6962281265
 11
505.4049442939
 21
140.8504778805
  0
LINE
  5
292
100
AcDbEntity
  8
0
100
AcDbLine
 62
7
  6
CONTINUOUS
 10
503.2941630229
 20
141.4160600175
 11
500.9914924456
 21
142.0330587391
  0
LINE
  5
293
100
AcDbEntity
  8
0
100
AcDbLine
 62
7
  6
CONTINUOUS
 10
539.9963882939
 20
126.7507596784
 11
540.5729310546
 21
126.4912544556
  0
LINE
  5
294
100
AcDbEntity
  8
0
100
AcDbLine
 62
7
  6
CONTINUOUS
 10
533.1646775406
 20
128.5813110576
 11
533.640754347
 21
128.3487256061
  0
LINE
  5
295
100
AcDbEntity
  8
0
100
AcDbLine
 62
7
  6
CONTINUOUS
 10
540.7042073811
 20
126.9811843758
 11
540.2281317221
 21
127.2137695107
  0
LINE
  5
296
100
AcDbEntity
  8
0
100
AcDbLine
 62
7
  6
CONTINUOUS
 10
505.2525928873
 20
136.0603315996
 11
505.7060604773
 21
135.8338042693
  0
LINE
  5
297
100
AcDbEntity
  8
0
100
AcDbLine
 62
7
  6
CONTINUOUS
 10
503.7476308897
 20
141.1895326223
 11
503.2941630229
 21
141.4160600175
  0
LINE
  5
298
100
AcDbEntity
  8
0
100
AcDbLine
 62
7
  6
CONTINUOUS
 10
512.382645829
 20
138.8757873426
 11
511.9291776877
 21
139.1023148114
  0
LINE
  5
299
100
AcDbEntity
  8
0
100
AcDbLine
 62
7
  6
CONTINUOUS
 10
533.7982859351
 20
128.9366414968
 11
533.4226756554
 21
129.1423070144
  0
LINE
  5
29A
100
AcDbEntity
  8
0
100
AcDbLine
 62
7
  6
CONTINUOUS
 10
505.8635920654
 20
136.42172016
 11
505.5060692635
 21
136.6225391525
  0
LINE
  5
29B
100
AcDbEntity
  8
0
100
AcDbLine
 62
7
  6
CONTINUOUS
 10
511.771646118
 20
138.5143989894
 11
512.1291689199
 21
138.3135799969
  0
LINE
  5
29C
100
AcDbEntity
  8
0
100
AcDbLine
 62
7
  6
CONTINUOUS
 10
503.2588312306
 20
140.9004219102
 11
503.5204097912
 21
140.7253110997
  0
LINE
  5
29D
100
AcDbEntity
  8
RUNDUNGEN
100
AcDbLine
 62
7
  6
CONTINUOUS
 10
549.5335678547
 20
72.592385363
 11
543.4944064462
 21
77.9055802076
  0
LINE
  5
29E
100
AcDbEntity
  8
RUNDUNGEN
100
AcDbLine
 62
7
  6
CONTINUOUS
 10
550.4486313641
 20
76.0074488725
 11
544.4094699556
 21
81.320643717
  0
LINE
  5
29F
100
AcDbEntity
  8
RUNDUNGEN
100
AcDbLine
 62
7
  6
CONTINUOUS
 10
525.1775308813
 20
22.4895324774
 11
514.7052297248
 21
40.8352072214
  0
LINE
  5
2A0
100
AcDbEntity
  8
RUNDUNGEN
100
AcDbLine
 62
7
  6
CONTINUOUS
 10
488.0059634704
 20
87.6077405245
 11
487.4374703322
 21
88.6036429582
  0
LINE
  5
2A1
100
AcDbEntity
  8
RUNDUNGEN
100
AcDbLine
 62
7
  6
CONTINUOUS
 10
526.0925943907
 20
25.9045959869
 11
515.6202932342
 21
44.2502707308
  0
LINE
  5
2A2
100
AcDbEntity
  8
RUNDUNGEN
100
AcDbLine
 62
7
  6
CONTINUOUS
 10
488.9210269799
 20
91.022804034
 11
488.3525338416
 21
92.0187064676
  0
LINE
  5
2A3
100
AcDbEntity
  8
0
100
AcDbLine
 62
7
  6
CONTINUOUS
 10
541.2019843431
 20
126.4277211906
 11
541.7830822052
 21
126.5870796547
  0
LINE
  5
2A4
100
AcDbEntity
  8
0
100
AcDbLine
 62
7
  6
CONTINUOUS
 10
541.1778752116
 20
131.1601288837
 11
540.5967785061
 21
131.0007701372
  0
LINE
  5
2A5
100
AcDbEntity
  8
0
100
AcDbLine
 62
7
  6
CONTINUOUS
 10
511.2011589113
 20
134.4664181373
 11
511.637447505
 21
134.5595570815
  0
LINE
  5
2A6
100
AcDbEntity
  8
0
100
AcDbLine
 62
7
  6
CONTINUOUS
 10
506.5958172077
 20
135.7004157276
 11
507.0321063504
 21
135.7935545247
  0
LINE
  5
2A7
100
AcDbEntity
  8
0
100
AcDbLine
 62
7
  6
CONTINUOUS
 10
535.0735381433
 20
128.0698334007
 11
535.5279142148
 21
128.1581258198
  0
LINE
  5
2A8
100
AcDbEntity
  8
0
100
AcDbLine
 62
7
  6
CONTINUOUS
 10
530.9292360153
 20
131.4907591166
 11
531.3836120799
 21
131.57905151
  0
LINE
  5
2A9
100
AcDbEntity
  8
0
100
AcDbLine
 62
7
  6
CONTINUOUS
 10
534.3461644583
 20
132.990680263
 11
533.8917889686
 21
132.9023877156
  0
LINE
  5
2AA
100
AcDbEntity
  8
0
100
AcDbLine
 62
7
  6
CONTINUOUS
 10
503.1790913166
 20
139.4514932109
 11
502.8650022328
 21
139.4306320808
  0
LINE
  5
2AB
100
AcDbEntity
  8
0
100
AcDbLine
 62
7
  6
CONTINUOUS
 10
530.9600460818
 20
132.0076088166
 11
530.6323918079
 21
131.9903824682
  0
LINE
  5
2AC
100
AcDbEntity
  8
0
100
AcDbLine
 62
7
  6
CONTINUOUS
 10
511.2627451577
 20
135.0800424955
 11
510.8527118326
 21
135.0848895474
  0
LINE
  5
2AD
100
AcDbEntity
  8
0
100
AcDbLine
 62
7
  6
CONTINUOUS
 10
506.6574045522
 20
136.3140397917
 11
506.247370678
 21
136.3188869907
  0
LINE
  5
2AE
100
AcDbEntity
  8
RUNDUNGEN
100
AcDbLine
 62
7
  6
CONTINUOUS
 10
542.6742906492
 20
137.1699592472
 11
539.9085224724
 21
137.9110445966
  0
LINE
  5
2AF
100
AcDbEntity
  8
RUNDUNGEN
100
AcDbLine
 62
7
  6
CONTINUOUS
 10
506.1947749229
 20
146.9446160263
 11
503.4290065238
 21
147.6857014353
  0
LINE
  5
2B0
100
AcDbEntity
  8
RUNDUNGEN
100
AcDbLine
 62
7
  6
CONTINUOUS
 10
511.5337635121
 20
145.6305253502
 11
534.6277773855
 21
139.4425029828
  0
LINE
  5
2B1
100
AcDbEntity
  8
0
100
AcDbLine
 62
7
  6
CONTINUOUS
 10
542.3834712608
 20
130.8370903959
 11
541.8069284978
 21
131.0965956101
  0
LINE
  5
2B2
100
AcDbEntity
  8
0
100
AcDbLine
 62
7
  6
CONTINUOUS
 10
531.5331071061
 20
133.7444367088
 11
531.0570308722
 21
133.9770219976
  0
LINE
  5
2B3
100
AcDbEntity
  8
0
100
AcDbLine
 62
7
  6
CONTINUOUS
 10
536.255025061
 20
132.479202606
 11
535.7789488271
 21
132.7117878949
  0
LINE
  5
2B4
100
AcDbEntity
  8
0
100
AcDbLine
 62
7
  6
CONTINUOUS
 10
541.6756521897
 20
130.6066657585
 11
542.1517289985
 21
130.3740803156
  0
LINE
  5
2B5
100
AcDbEntity
  8
0
100
AcDbLine
 62
7
  6
CONTINUOUS
 10
535.6214172574
 20
132.1238720729
 11
535.9970269622
 21
131.9182067094
  0
LINE
  5
2B6
100
AcDbEntity
  8
0
100
AcDbLine
 62
7
  6
CONTINUOUS
 10
531.0262208058
 20
133.4601722977
 11
531.3013645564
 21
133.2814267054
  0
LINE
  5
2B7
100
AcDbEntity
  8
0
100
AcDbLine
 62
7
  6
CONTINUOUS
 10
532.8153231042
 20
128.8849624173
 11
533.1646775406
 21
128.5813110576
  0
LINE
  5
2B8
100
AcDbEntity
  8
0
100
AcDbLine
 62
7
  6
CONTINUOUS
 10
536.6043800791
 20
132.1755511181
 11
536.255025061
 21
132.479202606
  0
LINE
  5
2B9
100
AcDbEntity
  8
0
100
AcDbLine
 62
7
  6
CONTINUOUS
 10
504.9213248049
 20
136.3591367353
 11
505.2525928873
 21
136.0603315996
  0
LINE
  5
2BA
100
AcDbEntity
  8
0
100
AcDbLine
 62
7
  6
CONTINUOUS
 10
512.7139133693
 20
138.5769823798
 11
512.382645829
 21
138.8757873426
  0
LINE
  5
2BB
100
AcDbEntity
  8
0
100
AcDbLine
 62
7
  6
CONTINUOUS
 10
505.5060692635
 20
136.6225391525
 11
505.270745983
 21
136.895636002
  0
LINE
  5
2BC
100
AcDbEntity
  8
0
100
AcDbLine
 62
7
  6
CONTINUOUS
 10
512.1291689199
 20
138.3135799969
 11
512.3644922188
 21
138.040483216
  0
LINE
  5
2BD
100
AcDbEntity
  8
0
100
AcDbLine
 62
7
  6
CONTINUOUS
 10
504.0526434429
 20
140.7927416155
 11
503.7476308897
 21
141.1895326223
  0
LINE
  5
2BE
100
AcDbEntity
  8
0
100
AcDbLine
 62
7
  6
CONTINUOUS
 10
500.5579851108
 20
71.158947663
 11
501.9680986275
 21
68.0259137209
  0
LINE
  5
2BF
100
AcDbEntity
  8
0
100
AcDbLine
 62
7
  6
CONTINUOUS
 10
500.6494914618
 20
71.500454014
 11
502.0596049784
 21
68.3674200718
  0
LINE
  5
2C0
100
AcDbEntity
  8
0
100
AcDbLine
 62
7
  6
CONTINUOUS
 10
503.0388394963
 20
67.7390095698
 11
501.572681054
 21
70.9965658659
  0
LINE
  5
2C1
100
AcDbEntity
  8
0
100
AcDbLine
 62
7
  6
CONTINUOUS
 10
503.1437597989
 20
138.9358550301
 11
503.5800486602
 21
139.0289938751
  0
LINE
  5
2C2
100
AcDbEntity
  8
0
100
AcDbLine
 62
7
  6
CONTINUOUS
 10
539.5728231651
 20
127.1793167796
 11
539.9963882939
 21
126.7507596784
  0
LINE
  5
2C3
100
AcDbEntity
  8
0
100
AcDbLine
 62
7
  6
CONTINUOUS
 10
542.8070375463
 20
130.4085330123
 11
542.3834712608
 21
130.8370903959
  0
LINE
  5
2C4
100
AcDbEntity
  8
0
100
AcDbLine
 62
7
  6
CONTINUOUS
 10
533.4226756554
 20
129.1423070144
 11
533.1737871848
 21
129.4190386456
  0
LINE
  5
2C5
100
AcDbEntity
  8
0
100
AcDbLine
 62
7
  6
CONTINUOUS
 10
540.2281317221
 20
127.2137695107
 11
539.979243233
 21
127.4905010733
  0
LINE
  5
2C6
100
AcDbEntity
  8
0
100
AcDbLine
 62
7
  6
CONTINUOUS
 10
535.9970269622
 20
131.9182067094
 11
536.2459154513
 21
131.6414751468
  0
LINE
  5
2C7
100
AcDbEntity
  8
0
100
AcDbLine
 62
7
  6
CONTINUOUS
 10
542.1517289985
 20
130.3740803156
 11
542.4006174875
 21
130.097348753
  0
LINE
  5
2C8
100
AcDbEntity
  8
0
100
AcDbLine
 62
7
  6
CONTINUOUS
 10
531.8562068626
 20
133.3427992505
 11
531.5331071061
 21
133.7444367088
  0
LINE
  5
2C9
100
AcDbEntity
  8
0
100
AcDbLine
 62
7
  6
CONTINUOUS
 10
504.642567797
 20
136.8539136731
 11
504.9213248049
 21
136.3591367353
  0
LINE
  5
2CA
100
AcDbEntity
  8
0
100
AcDbLine
 62
7
  6
CONTINUOUS
 10
503.5204097912
 20
140.7253110997
 11
503.6597885742
 21
140.4779225744
  0
LINE
  5
2CB
100
AcDbEntity
  8
0
100
AcDbLine
 62
7
  6
CONTINUOUS
 10
512.9926703864
 20
138.0822054762
 11
512.7139133693
 21
138.5769823798
  0
LINE
  5
2CC
100
AcDbEntity
  8
RUNDUNGEN
100
AcDbLine
 62
7
  6
CONTINUOUS
 10
487.8441710423
 20
103.3201520422
 11
485.3279497752
 21
111.7566134804
  0
LINE
  5
2CD
100
AcDbEntity
  8
0
100
AcDbLine
 62
7
  6
CONTINUOUS
 10
524.6830081467
 20
191.0168830174
 11
517.9844756421
 21
191.0168830174
  0
LINE
  5
2CE
100
AcDbEntity
  8
0
100
AcDbLine
 62
7
  6
CONTINUOUS
 10
633.0295411902
 20
191.0168830174
 11
639.7280736947
 21
191.0168830174
  0
LINE
  5
2CF
100
AcDbEntity
  8
0
100
AcDbLine
 62
7
  6
CONTINUOUS
 10
551.7344756421
 20
181.9735977728
 11
545.933376325
 21
185.3228640251
  0
LINE
  5
2D0
100
AcDbEntity
  8
0
100
AcDbLine
 62
7
  6
CONTINUOUS
 10
617.3268274632
 20
97.0039279095
 11
623.7241697211
 21
90.9558486196
  0
LINE
  5
2D1
100
AcDbEntity
  8
0
100
AcDbLine
 62
7
  6
CONTINUOUS
 10
532.5184786186
 20
129.3845858802
 11
532.8153231042
 21
128.8849624173
  0
LINE
  5
2D2
100
AcDbEntity
  8
0
100
AcDbLine
 62
7
  6
CONTINUOUS
 10
531.3013645564
 20
133.2814267054
 11
531.4497868038
 21
133.0316149911
  0
LINE
  5
2D3
100
AcDbEntity
  8
0
100
AcDbLine
 62
7
  6
CONTINUOUS
 10
536.9012245739
 20
131.6759276895
 11
536.6043800791
 21
132.1755511181
  0
LINE
  5
2D4
100
AcDbEntity
  8
0
100
AcDbLine
 62
7
  6
CONTINUOUS
 10
539.3501899468
 20
127.5540343468
 11
539.5728231651
 21
127.1793167796
  0
LINE
  5
2D5
100
AcDbEntity
  8
0
100
AcDbLine
 62
7
  6
CONTINUOUS
 10
543.0296707737
 20
130.0338154794
 11
542.8070375463
 21
130.4085330123
  0
LINE
  5
2D6
100
AcDbEntity
  8
0
100
AcDbLine
 62
7
  6
CONTINUOUS
 10
504.2354562185
 20
140.323672894
 11
504.0526434429
 21
140.7927416155
  0
LINE
  5
2D7
100
AcDbEntity
  8
0
100
AcDbLine
 62
7
  6
CONTINUOUS
 10
505.270745983
 20
136.895636002
 11
505.1576221871
 21
137.2410105712
  0
LINE
  5
2D8
100
AcDbEntity
  8
0
100
AcDbLine
 62
7
  6
CONTINUOUS
 10
512.3644922188
 20
138.040483216
 11
512.4776159412
 21
137.6951083723
  0
LINE
  5
2D9
100
AcDbEntity
  8
0
100
AcDbLine
 62
7
  6
CONTINUOUS
 10
503.4033901745
 20
136.4508029174
 11
503.1437597989
 21
138.9358550301
  0
LINE
  5
2DA
100
AcDbEntity
  8
0
100
AcDbLine
 62
7
  6
CONTINUOUS
 10
502.5155814941
 20
138.8941328067
 11
502.7317777398
 21
136.6307609269
  0
LINE
  5
2DB
100
AcDbEntity
  8
0
100
AcDbLine
 62
7
  6
CONTINUOUS
 10
482.8562746684
 20
470.6935297318
 11
482.8562746684
 21
350.6935297318
  0
LINE
  5
2DC
100
AcDbEntity
  8
0
100
AcDbLine
 62
7
  6
CONTINUOUS
 10
532.052584541
 20
132.8700958242
 11
531.8562068626
 21
133.3427992505
  0
LINE
  5
2DD
100
AcDbEntity
  8
0
100
AcDbLine
 62
7
  6
CONTINUOUS
 10
533.1737871848
 20
129.4190386456
 11
533.0516204864
 21
129.7668362532
  0
LINE
  5
2DE
100
AcDbEntity
  8
0
100
AcDbLine
 62
7
  6
CONTINUOUS
 10
539.979243233
 20
127.4905010733
 11
539.7349087049
 21
128.1860966652
  0
LINE
  5
2DF
100
AcDbEntity
  8
0
100
AcDbLine
 62
7
  6
CONTINUOUS
 10
504.5556995556
 20
137.2972742077
 11
504.642567797
 21
136.8539136731
  0
LINE
  5
2E0
100
AcDbEntity
  8
0
100
AcDbLine
 62
7
  6
CONTINUOUS
 10
513.0795389207
 20
137.6388449367
 11
512.9926703864
 21
138.0822054762
  0
LINE
  5
2E1
100
AcDbEntity
  8
0
100
AcDbLine
 62
7
  6
CONTINUOUS
 10
503.6597885742
 20
140.4779225744
 11
503.6769673052
 21
140.1582564079
  0
LINE
  5
2E2
100
AcDbEntity
  8
0
100
AcDbLine
 62
7
  6
CONTINUOUS
 10
504.2526349496
 20
140.0040067274
 11
504.2354562185
 21
140.323672894
  0
LINE
  5
2E3
100
AcDbEntity
  8
0
100
AcDbLine
 62
7
  6
CONTINUOUS
 10
493.2777608866
 20
166.3101682619
 11
493.2777608866
 21
148.2235977728
  0
LINE
  5
2E4
100
AcDbEntity
  8
0
100
AcDbLine
 62
7
  6
CONTINUOUS
 10
508.8562746684
 20
470.6935297318
 11
508.8562746684
 21
350.6935297318
  0
LINE
  5
2E5
100
AcDbEntity
  8
0
100
AcDbLine
 62
7
  6
CONTINUOUS
 10
505.1576221871
 20
137.2410105712
 11
505.1666989922
 21
137.6586626345
  0
LINE
  5
2E6
100
AcDbEntity
  8
0
100
AcDbLine
 62
7
  6
CONTINUOUS
 10
490.5898687348
 20
138.1922476969
 11
490.3169073613
 21
130.3756566685
  0
LINE
  5
2E7
100
AcDbEntity
  8
0
100
AcDbLine
 62
7
  6
CONTINUOUS
 10
560.7777608866
 20
166.3101682619
 11
551.7344756421
 21
181.9735977728
  0
LINE
  5
2E8
100
AcDbEntity
  8
0
100
AcDbLine
 62
7
  6
CONTINUOUS
 10
542.4006174875
 20
130.097348753
 11
542.6449508107
 21
129.4017532632
  0
LINE
  5
2E9
100
AcDbEntity
  8
0
100
AcDbLine
 62
7
  6
CONTINUOUS
 10
532.4225672002
 20
129.8303695267
 11
532.5184786186
 21
129.3845858802
  0
LINE
  5
2EA
100
AcDbEntity
  8
0
100
AcDbLine
 62
7
  6
CONTINUOUS
 10
539.2542779536
 20
127.9998181474
 11
539.3501899468
 21
127.5540343468
  0
LINE
  5
2EB
100
AcDbEntity
  8
0
100
AcDbLine
 62
7
  6
CONTINUOUS
 10
531.4497868038
 20
133.0316149911
 11
531.4714872606
 21
132.7107372318
  0
LINE
  5
2EC
100
AcDbEntity
  8
0
100
AcDbLine
 62
7
  6
CONTINUOUS
 10
532.0742852852
 20
132.5492179879
 11
532.052584541
 21
132.8700958242
  0
LINE
  5
2ED
100
AcDbEntity
  8
0
100
AcDbLine
 62
7
  6
CONTINUOUS
 10
536.2459154513
 20
131.6414751468
 11
536.2676161219
 21
131.3205970359
  0
LINE
  5
2EE
100
AcDbEntity
  8
0
100
AcDbLine
 62
7
  6
CONTINUOUS
 10
539.2325777843
 20
128.3206958297
 11
539.2542779536
 21
127.9998181474
  0
LINE
  5
2EF
100
AcDbEntity
  8
0
100
AcDbLine
 62
7
  6
CONTINUOUS
 10
512.4776159412
 20
137.6951083723
 11
512.4685391361
 21
137.277456309
  0
LINE
  5
2F0
100
AcDbEntity
  8
0
100
AcDbLine
 62
7
  6
CONTINUOUS
 10
504.5910310733
 20
137.8129123885
 11
504.5556995556
 21
137.2972742077
  0
LINE
  5
2F1
100
AcDbEntity
  8
0
100
AcDbLine
 62
7
  6
CONTINUOUS
 10
513.0442067804
 20
137.1232066286
 11
513.0795389207
 21
137.6388449367
  0
LINE
  5
2F2
100
AcDbEntity
  8
RUNDUNGEN
100
AcDbLine
 62
7
  6
CONTINUOUS
 10
465.5276092928
 20
93.5730143684
 11
466.4426728022
 21
96.9880778778
  0
LINE
  5
2F3
100
AcDbEntity
  8
RUNDUNGEN
100
AcDbLine
 62
7
  6
CONTINUOUS
 10
458.3015357795
 20
32.1430314803
 11
460.7582078916
 21
41.3114566202
  0
LINE
  5
2F4
100
AcDbEntity
  8
0
100
AcDbLine
 62
7
  6
CONTINUOUS
 10
639.7280736947
 20
191.0168830174
 11
655.3915032056
 21
181.9735977728
  0
LINE
  5
2F5
100
AcDbEntity
  8
0
100
AcDbLine
 62
7
  6
CONTINUOUS
 10
596.9347884502
 20
148.2235977728
 11
605.9780736947
 21
132.5601682619
  0
LINE
  5
2F6
100
AcDbEntity
  8
0
100
AcDbLine
 62
7
  6
CONTINUOUS
 10
608.6659658466
 20
122.528818186
 11
612.3378698771
 21
115.6229710976
  0
LINE
  5
2F7
100
AcDbEntity
  8
0
100
AcDbLine
 62
7
  6
CONTINUOUS
 10
543.1255827853
 20
129.5880317474
 11
543.0296707737
 21
130.0338154794
  0
LINE
  5
2F8
100
AcDbEntity
  8
0
100
AcDbLine
 62
7
  6
CONTINUOUS
 10
531.2295622488
 20
128.9948025817
 11
530.9292360153
 21
131.4907591166
  0
LINE
  5
2F9
100
AcDbEntity
  8
0
100
AcDbLine
 62
7
  6
CONTINUOUS
 10
530.2739274675
 20
131.4563064198
 11
530.5262976952
 21
129.1832417509
  0
LINE
  5
2FA
100
AcDbEntity
  8
0
100
AcDbLine
 62
7
  6
CONTINUOUS
 10
543.1472828811
 20
129.2671537907
 11
543.1255827853
 21
129.5880317474
  0
LINE
  5
2FB
100
AcDbEntity
  8
0
100
AcDbLine
 62
7
  6
CONTINUOUS
 10
533.0516204864
 20
129.7668362532
 11
533.0561750038
 21
130.1857000598
  0
LINE
  5
2FC
100
AcDbEntity
  8
0
100
AcDbLine
 62
7
  6
CONTINUOUS
 10
532.4533769793
 20
130.3472193037
 11
532.4225672002
 21
129.8303695267
  0
LINE
  5
2FD
100
AcDbEntity
  8
0
100
AcDbLine
 62
7
  6
CONTINUOUS
 10
536.8704141465
 20
131.1590777921
 11
536.9012245739
 21
131.6759276895
  0
LINE
  5
2FE
100
AcDbEntity
  8
0
100
AcDbLine
 62
7
  6
CONTINUOUS
 10
539.2633870252
 20
128.837545898
 11
539.2325777843
 21
128.3206958297
  0
LINE
  5
2FF
100
AcDbEntity
  8
RUNDUNGEN
100
AcDbLine
 62
7
  6
CONTINUOUS
 10
472.6820098749
 20
79.9321920273
 11
473.5970733843
 21
83.3472555367
  0
LINE
  5
300
100
AcDbEntity
  8
0
100
AcDbLine
 62
7
  6
CONTINUOUS
 10
490.5898687348
 20
138.1922476969
 11
493.2777608866
 21
148.2235977728
  0
LINE
  5
301
100
AcDbEntity
  8
RUNDUNGEN
100
AcDbLine
 62
7
  6
CONTINUOUS
 10
485.3279497752
 20
111.7566134804
 11
493.8695606064
 21
143.634339081
  0
LINE
  5
302
100
AcDbEntity
  8
RUNDUNGEN
100
AcDbLine
 62
7
  6
CONTINUOUS
 10
465.0604963573
 20
27.0377448177
 11
466.2500789196
 21
31.47732738
  0
LINE
  5
303
100
AcDbEntity
  8
0
100
AcDbLine
 62
7
  6
CONTINUOUS
 10
500.9914924456
 20
142.0330587391
 11
499.7574950023
 21
137.4277175845
  0
LINE
  5
304
100
AcDbEntity
  8
0
100
AcDbLine
 62
7
  6
CONTINUOUS
 10
500.3331626466
 20
137.2734679041
 11
500.8845232142
 21
139.3311735555
  0
LINE
  5
305
100
AcDbEntity
  8
0
100
AcDbLine
 62
7
  6
CONTINUOUS
 10
501.0420547839
 20
139.9190893775
 11
501.4358837818
 21
141.388879207
  0
LINE
  5
306
100
AcDbEntity
  8
0
100
AcDbLine
 62
7
  6
CONTINUOUS
 10
503.6769673052
 20
140.1582564079
 11
503.5982014468
 21
139.8642982224
  0
LINE
  5
307
100
AcDbEntity
  8
0
100
AcDbLine
 62
7
  6
CONTINUOUS
 10
504.1476138295
 20
139.6120625716
 11
504.2526349496
 21
140.0040067274
  0
LINE
  5
308
100
AcDbEntity
  8
0
100
AcDbLine
 62
7
  6
CONTINUOUS
 10
505.4049442939
 20
140.8504778805
 11
504.5910310733
 21
137.8129123885
  0
LINE
  5
309
100
AcDbEntity
  8
0
100
AcDbLine
 62
7
  6
CONTINUOUS
 10
505.1666989922
 20
137.6586626345
 11
505.9806122127
 21
140.6962281265
  0
LINE
  5
30A
100
AcDbEntity
  8
KONSTRUKTIONSELEMENTE
100
AcDbLine
 62
7
  6
CONTINUOUS
 10
501.0380087314
 20
117.5916241914
 11
502.1154724162
 21
121.6127734062
  0
LINE
  5
30B
100
AcDbEntity
  8
0
100
AcDbLine
 62
7
  6
CONTINUOUS
 10
490.2663123094
 20
76.4321637293
 11
489.0584284769
 21
71.9242798968
  0
LINE
  5
30C
100
AcDbEntity
  8
0
100
AcDbLine
 62
7
  6
CONTINUOUS
 10
508.28328279
 20
140.0792294049
 11
507.4693695694
 21
137.0416639129
  0
LINE
  5
30D
100
AcDbEntity
  8
0
100
AcDbLine
 62
7
  6
CONTINUOUS
 10
560.7777608866
 20
148.2235977728
 11
560.7777608866
 21
166.3101682619
  0
LINE
  5
30E
100
AcDbEntity
  8
0
100
AcDbLine
 62
7
  6
CONTINUOUS
 10
543.1164725272
 20
128.7503041677
 11
543.1472828811
 21
129.2671537907
  0
LINE
  5
30F
100
AcDbEntity
  8
0
100
AcDbLine
 62
7
  6
CONTINUOUS
 10
542.6449508107
 20
129.4017532632
 11
542.5878863449
 21
128.7869173619
  0
LINE
  5
310
100
AcDbEntity
  8
0
100
AcDbLine
 62
7
  6
CONTINUOUS
 10
539.7349087049
 20
128.1860966652
 11
539.7919743572
 21
128.8009323957
  0
LINE
  5
311
100
AcDbEntity
  8
0
100
AcDbLine
 62
7
  6
CONTINUOUS
 10
508.0450372138
 20
136.8874142325
 11
508.8589504343
 21
139.9249797245
  0
LINE
  5
312
100
AcDbEntity
  8
0
100
AcDbLine
 62
7
  6
CONTINUOUS
 10
491.1066952699
 20
72.0342941906
 11
491.5276244842
 21
73.6052234049
  0
LINE
  5
313
100
AcDbEntity
  8
0
100
AcDbLine
 62
7
  6
CONTINUOUS
 10
491.6557333756
 20
74.0833322962
 11
492.0766625899
 21
75.6542615106
  0
LINE
  5
314
100
AcDbEntity
  8
0
100
AcDbLine
 62
7
  6
CONTINUOUS
 10
509.6265071104
 20
139.719313533
 11
508.3925096672
 21
135.1139723784
  0
LINE
  5
315
100
AcDbEntity
  8
0
100
AcDbLine
 62
7
  6
CONTINUOUS
 10
492.3704094313
 20
75.0118731598
 11
492.1398134269
 21
74.1512771554
  0
LINE
  5
316
100
AcDbEntity
  8
0
100
AcDbLine
 62
7
  6
CONTINUOUS
 10
491.8213713256
 20
72.9628350542
 11
491.5907753212
 21
72.1022390498
  0
LINE
  5
317
100
AcDbEntity
  8
0
100
AcDbLine
 62
7
  6
CONTINUOUS
 10
492.1726127484
 20
72.8247971501
 11
492.2055550347
 21
72.9477394365
  0
LINE
  5
318
100
AcDbEntity
  8
0
100
AcDbLine
 62
7
  6
CONTINUOUS
 10
492.2879107506
 20
73.2550951523
 11
492.3977183717
 21
73.6649027735
  0
LINE
  5
319
100
AcDbEntity
  8
0
100
AcDbLine
 62
7
  6
CONTINUOUS
 10
492.4800740875
 20
73.9722584893
 11
492.6045227248
 21
74.4367071266
  0
LINE
  5
31A
100
AcDbEntity
  8
0
100
AcDbLine
 62
7
  6
CONTINUOUS
 10
509.1257088996
 20
135.5476385886
 11
510.044643185
 21
138.9771480306
  0
LINE
  5
31B
100
AcDbEntity
  8
0
100
AcDbLine
 62
7
  6
CONTINUOUS
 10
493.0391893467
 20
74.3202385563
 11
492.9147407094
 21
73.855789919
  0
LINE
  5
31C
100
AcDbEntity
  8
0
100
AcDbLine
 62
7
  6
CONTINUOUS
 10
492.8323849935
 20
73.5484342032
 11
492.7225773724
 21
73.138626582
  0
LINE
  5
31D
100
AcDbEntity
  8
0
100
AcDbLine
 62
7
  6
CONTINUOUS
 10
492.6402216565
 20
72.8312708662
 11
492.6072793702
 21
72.7083285798
  0
LINE
  5
31E
100
AcDbEntity
  8
0
100
AcDbLine
 62
7
  6
CONTINUOUS
 10
552.9607669182
 20
296.5509154768
 11
517.5025577391
 21
164.2190772752
  0
LINE
  5
31F
100
AcDbEntity
  8
0
100
AcDbLine
 62
7
  6
CONTINUOUS
 10
492.7498863128
 20
71.7916561956
 11
492.9804823172
 21
72.6522522
  0
LINE
  5
320
100
AcDbEntity
  8
0
100
AcDbLine
 62
7
  6
CONTINUOUS
 10
493.2989244185
 20
73.8406943013
 11
493.5295204228
 21
74.7012903057
  0
LINE
  5
321
100
AcDbEntity
  8
0
100
AcDbLine
 62
7
  6
CONTINUOUS
 10
494.1051068251
 20
75.1107415159
 11
493.6841776108
 21
73.5398123015
  0
LINE
  5
322
100
AcDbEntity
  8
0
100
AcDbLine
 62
7
  6
CONTINUOUS
 10
493.5560687195
 20
73.0617034102
 11
493.1351395051
 21
71.4907741958
  0
LINE
  5
323
100
AcDbEntity
  8
0
100
AcDbLine
 62
7
  6
CONTINUOUS
 10
512.4685391361
 20
137.277456309
 11
512.074710175
 21
135.8076666167
  0
LINE
  5
324
100
AcDbEntity
  8
0
100
AcDbLine
 62
7
  6
CONTINUOUS
 10
494.8539834347
 20
70.3713656262
 11
496.0618672672
 21
74.8792494587
  0
LINE
  5
325
100
AcDbEntity
  8
0
100
AcDbLine
 62
7
  6
CONTINUOUS
 10
512.6503778193
 20
135.6534169363
 11
513.0442067804
 21
137.1232066286
  0
LINE
  5
326
100
AcDbEntity
  8
KONSTRUKTIONSELEMENTE
100
AcDbLine
 62
7
  6
CONTINUOUS
 10
503.6385108221
 20
100.8866398667
 11
504.3746673856
 21
103.6340135642
  0
LINE
  5
327
100
AcDbEntity
  8
0
100
AcDbLine
 62
7
  6
CONTINUOUS
 10
498.0511746182
 20
74.785446645
 11
497.8846330595
 21
74.1639050863
  0
LINE
  5
328
100
AcDbEntity
  8
0
100
AcDbLine
 62
7
  6
CONTINUOUS
 10
497.7309023899
 20
73.5901744167
 11
496.6236755435
 21
69.4579475702
  0
LINE
  5
329
100
AcDbEntity
  8
0
100
AcDbLine
 62
7
  6
CONTINUOUS
 10
509.3309264905
 20
115.3695435749
 11
506.1612633169
 21
103.5401995683
  0
LINE
  5
32A
100
AcDbEntity
  8
KONSTRUKTIONSELEMENTE
100
AcDbLine
 62
7
  6
CONTINUOUS
 10
509.3309264905
 20
115.3695435749
 11
512.7861607426
 21
128.2646533559
  0
LINE
  5
32B
100
AcDbEntity
  8
0
100
AcDbLine
 62
7
  6
CONTINUOUS
 10
497.5509643367
 20
69.2094812869
 11
498.3312694787
 21
72.1216197222
  0
LINE
  5
32C
100
AcDbEntity
  8
0
100
AcDbLine
 62
7
  6
CONTINUOUS
 10
498.4154553216
 20
72.4358055651
 11
498.6581911832
 21
73.3417081334
  0
LINE
  5
32D
100
AcDbEntity
  8
KONSTRUKTIONSELEMENTE
100
AcDbLine
 62
7
  6
CONTINUOUS
 10
507.9851770404
 20
99.7219541637
 11
510.2387510421
 21
108.132406837
  0
LINE
  5
32E
100
AcDbEntity
  8
KONSTRUKTIONSELEMENTE
100
AcDbLine
 62
7
  6
CONTINUOUS
 10
516.0377359236
 20
129.774513047
 11
516.7808770077
 21
132.5479533301
  0
LINE
  5
32F
100
AcDbEntity
  8
0
100
AcDbLine
 62
7
  6
CONTINUOUS
 10
500.5579851108
 20
71.158947663
 11
500.6494914618
 21
71.500454014
  0
LINE
  5
330
100
AcDbEntity
  8
KONSTRUKTIONSELEMENTE
100
AcDbLine
 62
7
  6
CONTINUOUS
 10
503.5668315469
 20
79.3687609915
 11
509.378420894
 21
101.0579077078
  0
LINE
  5
331
100
AcDbEntity
  8
KONSTRUKTIONSELEMENTE
100
AcDbLine
 62
7
  6
CONTINUOUS
 10
520.7204381437
 20
143.3868923438
 11
522.9410852681
 21
151.6744602377
  0
LINE
  5
332
100
AcDbEntity
  8
0
100
AcDbLine
 62
7
  6
CONTINUOUS
 10
501.572681054
 20
70.9965658659
 11
501.6641874049
 21
71.3380722168
  0
LINE
  5
333
100
AcDbEntity
  8
KONSTRUKTIONSELEMENTE
100
AcDbLine
 62
7
  6
CONTINUOUS
 10
515.0983926933
 20
121.4392072542
 11
517.4395319639
 21
130.1764579598
  0
LINE
  5
334
100
AcDbEntity
  8
0
100
AcDbLine
 62
7
  6
CONTINUOUS
 10
502.4560459479
 20
72.512091036
 11
502.3645395969
 21
72.170584685
  0
LINE
  5
335
100
AcDbEntity
  8
0
100
AcDbLine
 62
7
  6
CONTINUOUS
 10
501.9680986275
 20
68.0259137209
 11
502.0596049784
 21
68.3674200718
  0
LINE
  5
336
100
AcDbEntity
  8
0
100
AcDbLine
 62
7
  6
CONTINUOUS
 10
505.0058405675
 20
72.9219495203
 11
504.102642762
 21
69.5511694207
  0
LINE
  5
337
100
AcDbEntity
  8
0
100
AcDbLine
 62
7
  6
CONTINUOUS
 10
505.0299315552
 20
69.3027031374
 11
505.9331293607
 21
72.673483237
  0
LINE
  5
338
100
AcDbEntity
  8
KONSTRUKTIONSELEMENTE
100
AcDbLine
 62
7
  6
CONTINUOUS
 10
519.4450589116
 20
120.2745215513
 11
521.7861981822
 21
129.0117722568
  0
LINE
  5
339
100
AcDbEntity
  8
KONSTRUKTIONSELEMENTE
100
AcDbLine
 62
7
  6
CONTINUOUS
 10
508.3964606783
 20
78.074665766
 11
514.2080500255
 21
99.7638124823
  0
LINE
  5
33A
100
AcDbEntity
  8
KONSTRUKTIONSELEMENTE
100
AcDbLine
 62
7
  6
CONTINUOUS
 10
525.5500672751
 20
142.0927971182
 11
527.7707143995
 21
150.3803650122
  0
LINE
  5
33B
100
AcDbEntity
  8
KONSTRUKTIONSELEMENTE
100
AcDbLine
 62
7
  6
CONTINUOUS
 10
523.5423577918
 20
130.7362200144
 11
522.7992167076
 21
127.9627797313
  0
LINE
  5
33C
100
AcDbEntity
  8
KONSTRUKTIONSELEMENTE
100
AcDbLine
 62
7
  6
CONTINUOUS
 10
517.0002318262
 20
106.3206735213
 11
514.7466578244
 21
97.910220848
  0
LINE
  5
33D
100
AcDbEntity
  8
0
100
AcDbLine
 62
7
  6
CONTINUOUS
 10
509.5786641774
 20
71.6966651269
 11
508.6754663719
 21
68.3258850273
  0
LINE
  5
33E
100
AcDbEntity
  8
0
100
AcDbLine
 62
7
  6
CONTINUOUS
 10
527.2393099542
 20
134.9999772345
 11
526.005312511
 21
130.39463608
  0
LINE
  5
33F
100
AcDbEntity
  8
0
100
AcDbLine
 62
7
  6
CONTINUOUS
 10
518.2353361455
 20
100.3049615046
 11
521.4049993191
 21
112.1343055112
  0
LINE
  5
340
100
AcDbEntity
  8
KONSTRUKTIONSELEMENTE
100
AcDbLine
 62
7
  6
CONTINUOUS
 10
521.4049993191
 20
112.1343055112
 11
524.8602335712
 21
125.0294152921
  0
LINE
  5
341
100
AcDbEntity
  8
0
100
AcDbLine
 62
7
  6
CONTINUOUS
 10
509.6027551651
 20
68.077418744
 11
510.5059529707
 21
71.4481988436
  0
LINE
  5
342
100
AcDbEntity
  8
0
100
AcDbLine
 62
7
  6
CONTINUOUS
 10
526.6081105355
 20
130.2331168361
 11
527.8421079788
 21
134.8384579907
  0
LINE
  5
343
100
AcDbEntity
  8
0
100
AcDbLine
 62
7
  6
CONTINUOUS
 10
502.3210461312
 20
181.9735977728
 11
493.2777608866
 21
166.3101682619
  0
LINE
  5
344
100
AcDbEntity
  8
0
100
AcDbLine
 62
7
  6
CONTINUOUS
 10
608.6659658466
 20
122.528818186
 11
605.9780736947
 21
132.5601682619
  0
LINE
  5
345
100
AcDbEntity
  8
0
100
AcDbLine
 62
7
  6
CONTINUOUS
 10
617.3268274632
 20
97.0039279095
 11
608.7852166319
 21
128.8816535102
  0
LINE
  5
346
100
AcDbEntity
  8
0
100
AcDbLine
 62
7
  6
CONTINUOUS
 10
528.6458386303
 20
134.6230990117
 11
527.411841187
 21
130.0177578571
  0
LINE
  5
347
100
AcDbEntity
  8
KONSTRUKTIONSELEMENTE
100
AcDbLine
 62
7
  6
CONTINUOUS
 10
519.8294806062
 20
99.4929088426
 11
519.0933240427
 21
96.745535145
  0
LINE
  5
348
100
AcDbEntity
  8
0
100
AcDbLine
 62
7
  6
CONTINUOUS
 10
528.0146392116
 20
129.8562386132
 11
528.5659997792
 21
131.9139442647
  0
LINE
  5
349
100
AcDbEntity
  8
0
100
AcDbLine
 62
7
  6
CONTINUOUS
 10
528.7235313489
 20
132.5018600867
 11
529.1173603467
 21
133.9716499161
  0
LINE
  5
34A
100
AcDbEntity
  8
0
100
AcDbLine
 62
7
  6
CONTINUOUS
 10
512.5343972059
 20
70.9046788488
 11
512.3587050121
 21
70.248986655
  0
LINE
  5
34B
100
AcDbEntity
  8
0
100
AcDbLine
 62
7
  6
CONTINUOUS
 10
512.2049743425
 20
69.6752559854
 11
511.1068981311
 21
65.5771797741
  0
LINE
  5
34C
100
AcDbEntity
  8
0
100
AcDbLine
 62
7
  6
CONTINUOUS
 10
512.2171996263
 20
66.0117261927
 11
513.1322631357
 21
69.4267897021
  0
LINE
  5
34D
100
AcDbEntity
  8
0
100
AcDbLine
 62
7
  6
CONTINUOUS
 10
531.4714872606
 20
132.7107372318
 11
531.3927214022
 21
132.4167790463
  0
LINE
  5
34E
100
AcDbEntity
  8
0
100
AcDbLine
 62
7
  6
CONTINUOUS
 10
574.2111350965
 20
290.8568964846
 11
538.7529259175
 21
158.525058283
  0
LINE
  5
34F
100
AcDbEntity
  8
0
100
AcDbLine
 62
7
  6
CONTINUOUS
 10
531.9692641651
 20
132.1572738321
 11
532.0742852852
 21
132.5492179879
  0
LINE
  5
350
100
AcDbEntity
  8
0
100
AcDbLine
 62
7
  6
CONTINUOUS
 10
532.8472059403
 20
131.8170089959
 11
532.4533769793
 21
130.3472193037
  0
LINE
  5
351
100
AcDbEntity
  8
0
100
AcDbLine
 62
7
  6
CONTINUOUS
 10
533.0561750038
 20
130.1857000598
 11
533.4500039649
 21
131.6554897521
  0
LINE
  5
352
100
AcDbEntity
  8
0
100
AcDbLine
 62
7
  6
CONTINUOUS
 10
516.8349014207
 20
67.2780304878
 11
516.7433950698
 21
66.9365241369
  0
LINE
  5
353
100
AcDbEntity
  8
0
100
AcDbLine
 62
7
  6
CONTINUOUS
 10
535.1271217305
 20
130.6810021688
 11
534.9695901608
 21
130.0930863468
  0
LINE
  5
354
100
AcDbEntity
  8
KONSTRUKTIONSELEMENTE
100
AcDbLine
 62
7
  6
CONTINUOUS
 10
529.6979170781
 20
109.9122248947
 11
530.7753807629
 21
113.9333741096
  0
LINE
  5
355
100
AcDbEntity
  8
0
100
AcDbLine
 62
7
  6
CONTINUOUS
 10
535.8737871976
 20
129.850807481
 11
535.6637450679
 21
129.0669195811
  0
LINE
  5
356
100
AcDbEntity
  8
0
100
AcDbLine
 62
7
  6
CONTINUOUS
 10
536.2402878308
 20
128.8074143668
 11
536.6341167919
 21
130.2772040591
  0
LINE
  5
357
100
AcDbEntity
  8
0
100
AcDbLine
 62
7
  6
CONTINUOUS
 10
537.8054216108
 20
131.4336488237
 11
537.5953794443
 21
130.6497607865
  0
LINE
  5
358
100
AcDbEntity
  8
0
100
AcDbLine
 62
7
  6
CONTINUOUS
 10
538.3819643737
 20
131.1741436095
 11
537.3580090234
 21
127.3526902175
  0
LINE
  5
359
100
AcDbEntity
  8
0
100
AcDbLine
 62
7
  6
CONTINUOUS
 10
537.960807048
 20
127.1911709737
 11
539.1948044912
 21
131.7965121282
  0
LINE
  5
35A
100
AcDbEntity
  8
0
100
AcDbLine
 62
7
  6
CONTINUOUS
 10
539.4996843798
 20
129.719419631
 11
539.2633870252
 21
128.837545898
  0
LINE
  5
35B
100
AcDbEntity
  8
0
100
AcDbLine
 62
7
  6
CONTINUOUS
 10
539.7919743572
 20
128.8009323957
 11
539.9757611886
 21
129.4868341881
  0
LINE
  5
35C
100
AcDbEntity
  8
0
100
AcDbLine
 62
7
  6
CONTINUOUS
 10
542.5878863449
 20
128.7869173619
 11
542.4040995136
 21
128.1010155696
  0
LINE
  5
35D
100
AcDbEntity
  8
0
100
AcDbLine
 62
7
  6
CONTINUOUS
 10
542.8801751726
 20
127.8684304347
 11
543.1164725272
 21
128.7503041677
  0
LINE
  5
35E
100
AcDbEntity
  8
RUNDUNGEN
100
AcDbLine
 62
7
  6
CONTINUOUS
 10
516.7679996345
 20
17.9410913211
 11
515.5784170722
 21
13.5015087588
  0
LINE
  5
35F
100
AcDbEntity
  8
0
100
AcDbLine
 62
7
  6
CONTINUOUS
 10
507.8178161153
 20
136.4231927099
 11
508.0450372138
 21
136.8874142325
  0
LINE
  5
360
100
AcDbEntity
  8
0
100
AcDbLine
 62
7
  6
CONTINUOUS
 10
512.4231572699
 20
135.1891952667
 11
512.6503778193
 21
135.6534169363
  0
LINE
  5
361
100
AcDbEntity
  8
0
100
AcDbLine
 62
7
  6
CONTINUOUS
 10
507.4693695694
 20
137.0416639129
 11
507.2684037326
 21
136.6754283607
  0
LINE
  5
362
100
AcDbEntity
  8
0
100
AcDbLine
 62
7
  6
CONTINUOUS
 10
628.0146322587
 20
109.9122248947
 11
626.9371685739
 21
113.9333741096
  0
LINE
  5
363
100
AcDbEntity
  8
0
100
AcDbLine
 62
7
  6
CONTINUOUS
 10
618.9596234193
 20
158.525058283
 11
583.5014142403
 21
290.8568964846
  0
LINE
  5
364
100
AcDbEntity
  8
0
100
AcDbLine
 62
7
  6
CONTINUOUS
 10
639.4772131913
 20
100.3049615046
 11
632.8523157656
 21
125.0294152921
  0
LINE
  5
365
100
AcDbEntity
  8
0
100
AcDbLine
 62
7
  6
CONTINUOUS
 10
596.9347884502
 20
148.2235977728
 11
596.9347884502
 21
166.3101682619
  0
LINE
  5
366
100
AcDbEntity
  8
RUNDUNGEN
100
AcDbLine
 62
7
  6
CONTINUOUS
 10
540.3857218737
 20
97.0039279095
 11
548.9273327049
 21
128.8816535102
  0
LINE
  5
367
100
AcDbEntity
  8
0
100
AcDbLine
 62
7
  6
CONTINUOUS
 10
549.0465834902
 20
122.528818186
 11
551.7344756421
 21
132.5601682619
  0
LINE
  5
368
100
AcDbEntity
  8
RUNDUNGEN
100
AcDbLine
 62
7
  6
CONTINUOUS
 10
523.9844919671
 20
14.5433364133
 11
526.4411640792
 21
23.7117615532
  0
LINE
  5
369
100
AcDbEntity
  8
RUNDUNGEN
100
AcDbLine
 62
7
  6
CONTINUOUS
 10
549.9265353109
 20
71.5875986771
 11
550.8415988204
 21
75.0026621866
  0
LINE
  5
36A
100
AcDbEntity
  8
0
100
AcDbLine
 62
7
  6
CONTINUOUS
 10
533.078948851
 20
132.2800191968
 11
532.8472059403
 21
131.8170089959
  0
LINE
  5
36B
100
AcDbEntity
  8
0
100
AcDbLine
 62
7
  6
CONTINUOUS
 10
512.074710175
 20
135.8076666167
 11
511.8737448872
 21
135.4414309174
  0
LINE
  5
36C
100
AcDbEntity
  8
0
100
AcDbLine
 62
7
  6
CONTINUOUS
 10
503.5982014468
 20
139.8642982224
 11
503.4234911461
 21
139.5960485669
  0
LINE
  5
36D
100
AcDbEntity
  8
0
100
AcDbLine
 62
7
  6
CONTINUOUS
 10
503.9729035288
 20
139.3438129162
 11
504.1476138295
 21
139.6120625716
  0
LINE
  5
36E
100
AcDbEntity
  8
0
100
AcDbLine
 62
7
  6
CONTINUOUS
 10
655.3915032056
 20
181.9735977728
 11
664.4347884502
 21
166.3101682619
  0
LINE
  5
36F
100
AcDbEntity
  8
0
100
AcDbLine
 62
7
  6
CONTINUOUS
 10
651.5512860199
 20
103.5401995683
 11
644.9263885943
 21
128.2646533559
  0
LINE
  5
370
100
AcDbEntity
  8
0
100
AcDbLine
 62
7
  6
CONTINUOUS
 10
640.2099915977
 20
164.2190772752
 11
604.7517824186
 21
296.5509154768
  0
LINE
  5
371
100
AcDbEntity
  8
0
100
AcDbLine
 62
7
  6
CONTINUOUS
 10
539.9757611886
 20
129.4868341881
 11
540.2337587125
 21
130.0478302388
  0
LINE
  5
372
100
AcDbEntity
  8
0
100
AcDbLine
 62
7
  6
CONTINUOUS
 10
542.4040995136
 20
128.1010155696
 11
542.1461008032
 21
127.5400196897
  0
LINE
  5
373
100
AcDbEntity
  8
0
100
AcDbLine
 62
7
  6
CONTINUOUS
 10
539.7314277918
 20
130.1824294033
 11
539.4996843798
 21
129.719419631
  0
LINE
  5
374
100
AcDbEntity
  8
0
100
AcDbLine
 62
7
  6
CONTINUOUS
 10
542.6484328735
 20
127.4054202171
 11
542.8801751726
 21
127.8684304347
  0
LINE
  5
375
100
AcDbEntity
  8
0
100
AcDbLine
 62
7
  6
CONTINUOUS
 10
533.4500039649
 20
131.6554897521
 11
533.6554915404
 21
132.0205137081
  0
LINE
  5
376
100
AcDbEntity
  8
0
100
AcDbLine
 62
7
  6
CONTINUOUS
 10
536.0348008118
 20
128.4423901882
 11
536.2402878308
 21
128.8074143668
  0
LINE
  5
377
100
AcDbEntity
  8
0
100
AcDbLine
 62
7
  6
CONTINUOUS
 10
531.3927214022
 20
132.4167790463
 11
531.2134893757
 21
132.1497409836
  0
LINE
  5
378
100
AcDbEntity
  8
0
100
AcDbLine
 62
7
  6
CONTINUOUS
 10
531.7900318512
 20
131.8902358464
 11
531.9692641651
 21
132.1572738321
  0
LINE
  5
379
100
AcDbEntity
  8
0
100
AcDbLine
 62
7
  6
CONTINUOUS
 10
507.5209060186
 20
136.0826652711
 11
507.8178161153
 21
136.4231927099
  0
LINE
  5
37A
100
AcDbEntity
  8
0
100
AcDbLine
 62
7
  6
CONTINUOUS
 10
512.1262466242
 20
134.8486679749
 11
512.4231572699
 21
135.1891952667
  0
LINE
  5
37B
100
AcDbEntity
  8
0
100
AcDbLine
 62
7
  6
CONTINUOUS
 10
517.9844756421
 20
191.0168830174
 11
502.3210461312
 21
181.9735977728
  0
LINE
  5
37C
100
AcDbEntity
  8
0
100
AcDbLine
 62
7
  6
CONTINUOUS
 10
656.6745406054
 20
117.5916241914
 11
655.5970769207
 21
121.6127734062
  0
LINE
  5
37D
100
AcDbEntity
  8
0
100
AcDbLine
 62
7
  6
CONTINUOUS
 10
672.3845995617
 20
111.7566134804
 11
663.8429887304
 21
143.634339081
  0
LINE
  5
37E
100
AcDbEntity
  8
0
100
AcDbLine
 62
7
  6
CONTINUOUS
 10
667.122680602
 20
138.1922476969
 11
664.4347884502
 21
148.2235977728
  0
LINE
  5
37F
100
AcDbEntity
  8
0
100
AcDbLine
 62
7
  6
CONTINUOUS
 10
549.0465834902
 20
122.528818186
 11
545.3746794598
 21
115.6229710976
  0
LINE
  5
380
100
AcDbEntity
  8
0
100
AcDbLine
 62
7
  6
CONTINUOUS
 10
551.7344756421
 20
132.5601682619
 11
560.7777608866
 21
148.2235977728
  0
LINE
  5
381
100
AcDbEntity
  8
0
100
AcDbLine
 62
7
  6
CONTINUOUS
 10
535.6637450679
 20
129.0669195811
 11
535.484512754
 21
128.7998815954
  0
LINE
  5
382
100
AcDbEntity
  8
0
100
AcDbLine
 62
7
  6
CONTINUOUS
 10
539.9106596044
 20
130.4494678175
 11
539.7314277918
 21
130.1824294033
  0
LINE
  5
383
100
AcDbEntity
  8
0
100
AcDbLine
 62
7
  6
CONTINUOUS
 10
542.4692011345
 20
127.1383820774
 11
542.6484328735
 21
127.4054202171
  0
LINE
  5
384
100
AcDbEntity
  8
0
100
AcDbLine
 62
7
  6
CONTINUOUS
 10
533.3849023808
 20
132.6181233815
 11
533.078948851
 21
132.2800191968
  0
LINE
  5
385
100
AcDbEntity
  8
0
100
AcDbLine
 62
7
  6
CONTINUOUS
 10
507.2684037326
 20
136.6754283607
 11
506.9977489159
 21
136.4328869608
  0
LINE
  5
386
100
AcDbEntity
  8
0
100
AcDbLine
 62
7
  6
CONTINUOUS
 10
511.8737448872
 20
135.4414309174
 11
511.6030895215
 21
135.1988896646
  0
LINE
  5
387
100
AcDbEntity
  8
0
100
AcDbLine
 62
7
  6
CONTINUOUS
 10
503.5800486602
 20
139.0289938751
 11
503.9729035288
 21
139.3438129162
  0
LINE
  5
388
100
AcDbEntity
  8
0
100
AcDbLine
 62
7
  6
CONTINUOUS
 10
667.122680602
 20
138.1922476969
 11
667.3956419756
 21
130.3756566685
  0
LINE
  5
389
100
AcDbEntity
  8
0
100
AcDbLine
 62
7
  6
CONTINUOUS
 10
648.8562746684
 20
350.6935297318
 11
648.8562746684
 21
470.6935297318
  0
LINE
  5
38A
100
AcDbEntity
  8
0
100
AcDbLine
 62
7
  6
CONTINUOUS
 10
664.4347884502
 20
166.3101682619
 11
664.4347884502
 21
148.2235977728
  0
LINE
  5
38B
100
AcDbEntity
  8
0
100
AcDbLine
 62
7
  6
CONTINUOUS
 10
596.9347884502
 20
166.3101682619
 11
605.9780736947
 21
181.9735977728
  0
LINE
  5
38C
100
AcDbEntity
  8
0
100
AcDbLine
 62
7
  6
CONTINUOUS
 10
540.216613709
 20
130.7875718482
 11
539.9106596044
 21
130.4494678175
  0
LINE
  5
38D
100
AcDbEntity
  8
0
100
AcDbLine
 62
7
  6
CONTINUOUS
 10
542.1632470115
 20
126.8002779781
 11
542.4692011345
 21
127.1383820774
  0
LINE
  5
38E
100
AcDbEntity
  8
0
100
AcDbLine
 62
7
  6
CONTINUOUS
 10
533.6554915404
 20
132.0205137081
 11
533.9351898821
 21
132.2606321969
  0
LINE
  5
38F
100
AcDbEntity
  8
0
100
AcDbLine
 62
7
  6
CONTINUOUS
 10
503.4234911461
 20
139.5960485669
 11
503.1790913166
 21
139.4514932109
  0
LINE
  5
390
100
AcDbEntity
  8
0
100
AcDbLine
 62
7
  6
CONTINUOUS
 10
674.8562746684
 20
350.6935297318
 11
674.8562746684
 21
470.6935297318
  0
LINE
  5
391
100
AcDbEntity
  8
0
100
AcDbLine
 62
7
  6
CONTINUOUS
 10
540.2337587125
 20
130.0478302388
 11
540.7931564719
 21
130.528066634
  0
LINE
  5
392
100
AcDbEntity
  8
0
100
AcDbLine
 62
7
  6
CONTINUOUS
 10
542.1461008032
 20
127.5400196897
 11
541.5867042486
 21
127.0597831923
  0
LINE
  5
393
100
AcDbEntity
  8
0
100
AcDbLine
 62
7
  6
CONTINUOUS
 10
531.3836120799
 20
131.57905151
 11
531.7900318512
 21
131.8902358464
  0
LINE
  5
394
100
AcDbEntity
  8
0
100
AcDbLine
 62
7
  6
CONTINUOUS
 10
538.5920064667
 20
131.9580313721
 11
537.8054216108
 21
131.4336488237
  0
LINE
  5
395
100
AcDbEntity
  8
0
100
AcDbLine
 62
7
  6
CONTINUOUS
 10
537.5953794443
 20
130.6497607865
 11
538.3819643737
 21
131.1741436095
  0
LINE
  5
396
100
AcDbEntity
  8
0
100
AcDbLine
 62
7
  6
CONTINUOUS
 10
507.0321063504
 20
135.7935545247
 11
507.5209060186
 21
136.0826652711
  0
LINE
  5
397
100
AcDbEntity
  8
0
100
AcDbLine
 62
7
  6
CONTINUOUS
 10
511.637447505
 20
134.5595570815
 11
512.1262466242
 21
134.8486679749
  0
LINE
  5
398
100
AcDbEntity
  8
0
100
AcDbLine
 62
7
  6
CONTINUOUS
 10
605.9780736947
 20
181.9735977728
 11
611.7791730118
 21
185.3228640251
  0
LINE
  5
399
100
AcDbEntity
  8
0
100
AcDbLine
 62
7
  6
CONTINUOUS
 10
531.2134893757
 20
132.1497409836
 11
530.9600460818
 21
132.0076088166
  0
LINE
  5
39A
100
AcDbEntity
  8
0
100
AcDbLine
 62
7
  6
CONTINUOUS
 10
533.8917889686
 20
132.9023877156
 11
533.3849023808
 21
132.6181233815
  0
LINE
  5
39B
100
AcDbEntity
  8
RUNDUNGEN
100
AcDbLine
 62
7
  6
CONTINUOUS
 10
533.9883796157
 20
90.9558486196
 11
540.3857218737
 21
97.0039279095
  0
LINE
  5
39C
100
AcDbEntity
  8
0
100
AcDbLine
 62
7
  6
CONTINUOUS
 10
540.5967785061
 20
131.0007701372
 11
540.216613709
 21
130.7875718482
  0
LINE
  5
39D
100
AcDbEntity
  8
0
100
AcDbLine
 62
7
  6
CONTINUOUS
 10
535.5279142148
 20
128.1581258198
 11
536.0348008118
 21
128.4423901882
  0
LINE
  5
39E
100
AcDbEntity
  8
0
100
AcDbLine
 62
7
  6
CONTINUOUS
 10
541.7830822052
 20
126.5870796547
 11
542.1632470115
 21
126.8002779781
  0
LINE
  5
39F
100
AcDbEntity
  8
0
100
AcDbLine
 62
7
  6
CONTINUOUS
 10
506.9977489159
 20
136.4328869608
 11
506.6574045522
 21
136.3140397917
  0
LINE
  5
3A0
100
AcDbEntity
  8
0
100
AcDbLine
 62
7
  6
CONTINUOUS
 10
511.6030895215
 20
135.1988896646
 11
511.2627451577
 21
135.0800424955
  0
LINE
  5
3A1
100
AcDbEntity
  8
0
100
AcDbLine
 62
7
  6
CONTINUOUS
 10
533.9351898821
 20
132.2606321969
 11
534.2890994176
 21
132.3758445157
  0
LINE
  5
3A2
100
AcDbEntity
  8
0
100
AcDbLine
 62
7
  6
CONTINUOUS
 10
669.8683782946
 20
103.3201520422
 11
672.3845995617
 21
111.7566134804
  0
LINE
  5
3A3
100
AcDbEntity
  8
RUNDUNGEN
100
AcDbLine
 62
7
  6
CONTINUOUS
 10
480.3986115232
 20
53.6878919014
 11
462.1564953136
 21
43.0362221018
  0
LINE
  5
3A4
100
AcDbEntity
  8
0
100
AcDbLine
 62
7
  6
CONTINUOUS
 10
535.484512754
 20
128.7998815954
 11
535.1306032
 21
128.684669208
  0
LINE
  5
3A5
100
AcDbEntity
  8
0
100
AcDbLine
 62
7
  6
CONTINUOUS
 10
540.7931564719
 20
130.528066634
 11
541.1470660075
 21
130.6432789527
  0
LINE
  5
3A6
100
AcDbEntity
  8
0
100
AcDbLine
 62
7
  6
CONTINUOUS
 10
541.5867042486
 20
127.0597831923
 11
541.2327947131
 21
126.9445708736
  0
LINE
  5
3A7
100
AcDbEntity
  8
RUNDUNGEN
100
AcDbLine
 62
7
  6
CONTINUOUS
 10
479.4835480137
 20
50.2728283919
 11
461.2414318042
 21
39.6211585923
  0
LINE
  5
3A8
100
AcDbEntity
  8
RUNDUNGEN
100
AcDbLine
 62
7
  6
CONTINUOUS
 10
532.5345214169
 20
75.8935292543
 11
542.3241461596
 21
81.609743811
  0
LINE
  5
3A9
100
AcDbEntity
  8
RUNDUNGEN
100
AcDbLine
 62
7
  6
CONTINUOUS
 10
531.6194579074
 20
72.4784657449
 11
541.4090826502
 21
78.1946803015
  0
LINE
  5
3AA
100
AcDbEntity
  8
RUNDUNGEN
100
AcDbLine
 62
7
  6
CONTINUOUS
 10
482.9693925518
 20
32.2184734028
 11
489.4461888796
 21
36.0003096245
  0
LINE
  5
3AB
100
AcDbEntity
  8
RUNDUNGEN
100
AcDbLine
 62
7
  6
CONTINUOUS
 10
517.8543829255
 20
52.5880069674
 11
549.5070490843
 21
71.0701690326
  0
LINE
  5
3AC
100
AcDbEntity
  8
0
100
AcDbLine
 62
7
  6
CONTINUOUS
 10
352.3720826001
 20
44.325741159
 11
352.4322618987
 21
44.3323171815
  0
LINE
  5
3AD
100
AcDbEntity
  8
0
100
AcDbLine
 62
7
  6
CONTINUOUS
 10
322.7675978205
 20
69.0545076159
 11
322.8144136703
 21
69.0615851242
  0
LINE
  5
3AE
100
AcDbEntity
  8
0
100
AcDbLine
 62
7
  6
CONTINUOUS
 10
321.8958352877
 20
70.0039853752
 11
321.8490194357
 21
69.9969078696
  0
LINE
  5
3AF
100
AcDbEntity
  8
0
100
AcDbLine
 62
7
  6
CONTINUOUS
 10
333.9031278145
 20
62.165381571
 11
333.9633071131
 21
62.1719575935
  0
LINE
  5
3B0
100
AcDbEntity
  8
0
100
AcDbLine
 62
7
  6
CONTINUOUS
 10
316.9504458844
 20
75.0679260196
 11
316.8752217677
 21
75.0597059851
  0
LINE
  5
3B1
100
AcDbEntity
  8
0
100
AcDbLine
 62
7
  6
CONTINUOUS
 10
315.8973080399
 20
76.2469409654
 11
315.9725321566
 21
76.2551609613
  0
LINE
  5
3B2
100
AcDbEntity
  8
0
100
AcDbLine
 62
7
  6
CONTINUOUS
 10
322.1966766675
 20
69.1685695043
 11
322.2567261552
 21
69.1714233768
  0
LINE
  5
3B3
100
AcDbEntity
  8
0
100
AcDbLine
 62
7
  6
CONTINUOUS
 10
321.5602727038
 20
69.5922366436
 11
321.8004706546
 21
69.6036521334
  0
LINE
  5
3B4
100
AcDbEntity
  8
0
100
AcDbLine
 62
7
  6
CONTINUOUS
 10
321.8605201422
 20
69.6065060058
 11
321.9606026122
 21
69.6112624595
  0
LINE
  5
3B5
100
AcDbEntity
  8
0
100
AcDbLine
 62
7
  6
CONTINUOUS
 10
321.6306680549
 20
69.7901161422
 11
321.4605278375
 21
69.7820301701
  0
LINE
  5
3B6
100
AcDbEntity
  8
0
100
AcDbLine
 62
7
  6
CONTINUOUS
 10
321.7908000125
 20
69.7977264682
 11
321.6907175426
 21
69.7929700146
  0
LINE
  5
3B7
100
AcDbEntity
  8
0
100
AcDbLine
 62
7
  6
CONTINUOUS
 10
320.9266059434
 20
70.6320579452
 11
320.8665564557
 21
70.6292040728
  0
LINE
  5
3B8
100
AcDbEntity
  8
0
100
AcDbLine
 62
7
  6
CONTINUOUS
 10
341.9049223155
 20
50.6744778533
 11
341.8473867397
 21
50.679207733
  0
LINE
  5
3B9
100
AcDbEntity
  8
0
100
AcDbLine
 62
7
  6
CONTINUOUS
 10
340.8673361515
 20
51.8031441381
 11
340.924871633
 21
51.7984142984
  0
LINE
  5
3BA
100
AcDbEntity
  8
0
100
AcDbLine
 62
7
  6
CONTINUOUS
 10
341.3223198987
 20
50.7210235441
 11
341.38173613
 21
50.7129721726
  0
LINE
  5
3BB
100
AcDbEntity
  8
0
100
AcDbLine
 62
7
  6
CONTINUOUS
 10
341.255951069
 20
50.8665498502
 11
341.1727683316
 21
50.8778217722
  0
LINE
  5
3BC
100
AcDbEntity
  8
0
100
AcDbLine
 62
7
  6
CONTINUOUS
 10
340.6220950947
 20
51.4985735618
 11
340.705277832
 21
51.4873016398
  0
LINE
  5
3BD
100
AcDbEntity
  8
0
100
AcDbLine
 62
7
  6
CONTINUOUS
 10
340.5557262842
 20
51.6440998461
 11
340.496310053
 21
51.6521512176
  0
LINE
  5
3BE
100
AcDbEntity
  8
0
100
AcDbLine
 62
7
  6
CONTINUOUS
 10
340.4855902438
 20
51.8174432532
 11
340.545006458
 21
51.809391884
  0
LINE
  5
3BF
100
AcDbEntity
  8
0
100
AcDbLine
 62
7
  6
CONTINUOUS
 10
340.1540228154
 20
52.0262126144
 11
340.2253222996
 21
52.0165509677
  0
LINE
  5
3C0
100
AcDbEntity
  8
0
100
AcDbLine
 62
7
  6
CONTINUOUS
 10
340.0757707518
 20
52.173349174
 11
340.0282377736
 21
52.1797902703
  0
LINE
  5
3C1
100
AcDbEntity
  8
0
100
AcDbLine
 62
7
  6
CONTINUOUS
 10
341.9720509442
 20
50.5279636014
 11
342.0460801251
 21
50.516238016
  0
LINE
  5
3C2
100
AcDbEntity
  8
0
100
AcDbLine
 62
7
  6
CONTINUOUS
 10
340.8002074459
 20
51.9496584088
 11
340.7261782629
 21
51.9613839969
  0
LINE
  5
3C3
100
AcDbEntity
  8
0
100
AcDbLine
 62
7
  6
CONTINUOUS
 10
316.6495494176
 20
79.9579997891
 11
316.5743253009
 21
79.9497797546
  0
LINE
  5
3C4
100
AcDbEntity
  8
0
100
AcDbLine
 62
7
  6
CONTINUOUS
 10
316.6495494176
 20
80.3893647614
 11
316.5743253009
 21
80.3811448811
  0
LINE
  5
3C5
100
AcDbEntity
  8
0
100
AcDbLine
 62
7
  6
CONTINUOUS
 10
316.6495494176
 20
81.171214063
 11
316.5743253009
 21
81.1629940285
  0
LINE
  5
3C6
100
AcDbEntity
  8
0
100
AcDbLine
 62
7
  6
CONTINUOUS
 10
316.6495494176
 20
81.6025790353
 11
316.5743253009
 21
81.5943590008
  0
LINE
  5
3C7
100
AcDbEntity
  8
0
100
AcDbLine
 62
7
  6
CONTINUOUS
 10
190.127402898
 20
90.9558486196
 11
188.327402898
 21
90.9558486196
  0
LINE
  5
3C8
100
AcDbEntity
  8
0
100
AcDbLine
 62
7
  6
CONTINUOUS
 10
344.2439457603
 20
49.8259787822
 11
348.326428665
 21
48.4707935602
  0
LINE
  5
3C9
100
AcDbEntity
  8
0
100
AcDbLine
 62
7
  6
CONTINUOUS
 10
347.9728752744
 20
48.6469252995
 11
343.7834951768
 21
50.0375951762
  0
LINE
  5
3CA
100
AcDbEntity
  8
0
100
AcDbLine
 62
7
  6
CONTINUOUS
 10
348.326428665
 20
48.9884316505
 11
343.4274491794
 21
50.6146539168
  0
LINE
  5
3CB
100
AcDbEntity
  8
0
100
AcDbLine
 62
7
  6
CONTINUOUS
 10
188.327402898
 20
103.3201520422
 11
190.127402898
 21
103.3201520422
  0
LINE
  5
3CC
100
AcDbEntity
  8
0
100
AcDbLine
 62
7
  6
CONTINUOUS
 10
181.4013112918
 20
111.7566134804
 11
197.0534945042
 21
111.7566134804
  0
LINE
  5
3CD
100
AcDbEntity
  8
0
100
AcDbLine
 62
7
  6
CONTINUOUS
 10
317.1761182344
 20
74.6342607244
 11
317.3265664678
 21
74.5967801526
  0
LINE
  5
3CE
100
AcDbEntity
  8
0
100
AcDbLine
 62
7
  6
CONTINUOUS
 10
316.8225648438
 20
74.9128416369
 11
316.7965900022
 21
74.9193126495
  0
LINE
  5
3CF
100
AcDbEntity
  8
0
100
AcDbLine
 62
7
  6
CONTINUOUS
 10
317.1761182344
 20
75.2543479878
 11
317.025670001
 21
75.2918285789
  0
LINE
  5
3D0
100
AcDbEntity
  8
0
100
AcDbLine
 62
7
  6
CONTINUOUS
 10
316.8752217677
 20
79.6052155033
 11
316.9504458844
 21
79.5864751692
  0
LINE
  5
3D1
100
AcDbEntity
  8
0
100
AcDbLine
 62
7
  6
CONTINUOUS
 10
316.8752217677
 20
80.0365804756
 11
316.9504458844
 21
80.0178402958
  0
LINE
  5
3D2
100
AcDbEntity
  8
0
100
AcDbLine
 62
7
  6
CONTINUOUS
 10
316.8752217677
 20
80.8184296229
 11
316.9504458844
 21
80.7996894431
  0
LINE
  5
3D3
100
AcDbEntity
  8
0
100
AcDbLine
 62
7
  6
CONTINUOUS
 10
316.8752217677
 20
81.2497949038
 11
316.9504458844
 21
81.2310544154
  0
LINE
  5
3D4
100
AcDbEntity
  8
0
100
AcDbLine
 62
7
  6
CONTINUOUS
 10
322.6800501722
 20
69.0828596458
 11
322.7675978205
 21
69.0545076159
  0
LINE
  5
3D5
100
AcDbEntity
  8
0
100
AcDbLine
 62
7
  6
CONTINUOUS
 10
322.6368953337
 20
69.208028578
 11
322.5493476853
 21
69.2363806079
  0
LINE
  5
3D6
100
AcDbEntity
  8
0
100
AcDbLine
 62
7
  6
CONTINUOUS
 10
322.2350427386
 20
69.4938379909
 11
322.1474950903
 21
69.5221900208
  0
LINE
  5
3D7
100
AcDbEntity
  8
0
100
AcDbLine
 62
7
  6
CONTINUOUS
 10
321.9122306103
 20
69.7985277568
 11
322.0143695612
 21
69.7654503796
  0
LINE
  5
3D8
100
AcDbEntity
  8
0
100
AcDbLine
 62
7
  6
CONTINUOUS
 10
322.0265377563
 20
69.8504644346
 11
322.1140854046
 21
69.8221124048
  0
LINE
  5
3D9
100
AcDbEntity
  8
0
100
AcDbLine
 62
7
  6
CONTINUOUS
 10
321.9833829361
 20
69.9756333453
 11
321.8958352877
 21
70.0039853752
  0
LINE
  5
3DA
100
AcDbEntity
  8
0
100
AcDbLine
 62
7
  6
CONTINUOUS
 10
321.436236515
 20
70.4196891107
 11
321.8593835375
 21
70.2826542817
  0
LINE
  5
3DB
100
AcDbEntity
  8
0
100
AcDbLine
 62
7
  6
CONTINUOUS
 10
321.728681069
 20
70.4361752223
 11
321.2325777006
 21
70.5968367338
  0
LINE
  5
3DC
100
AcDbEntity
  8
0
100
AcDbLine
 62
7
  6
CONTINUOUS
 10
318.6806007526
 20
73.0732009329
 11
318.9062731225
 21
72.9900197453
  0
LINE
  5
3DD
100
AcDbEntity
  8
0
100
AcDbLine
 62
7
  6
CONTINUOUS
 10
318.6806007526
 20
76.5402977213
 11
318.9062731225
 21
76.4571165627
  0
LINE
  5
3DE
100
AcDbEntity
  8
0
100
AcDbLine
 62
7
  6
CONTINUOUS
 10
352.2517240029
 20
44.3772938598
 11
352.3720826001
 21
44.325741159
  0
LINE
  5
3DF
100
AcDbEntity
  8
0
100
AcDbLine
 62
7
  6
CONTINUOUS
 10
352.1915446884
 20
44.586400385
 11
352.0711861017
 21
44.637953091
  0
LINE
  5
3E0
100
AcDbEntity
  8
0
100
AcDbLine
 62
7
  6
CONTINUOUS
 10
333.7827692173
 20
62.2169342718
 11
333.9031278145
 21
62.165381571
  0
LINE
  5
3E1
100
AcDbEntity
  8
0
100
AcDbLine
 62
7
  6
CONTINUOUS
 10
333.7225899029
 20
62.4260407969
 11
333.6022313161
 21
62.477593503
  0
LINE
  5
3E2
100
AcDbEntity
  8
0
100
AcDbLine
 62
7
  6
CONTINUOUS
 10
341.2353699976
 20
50.7601125057
 11
341.3223198987
 21
50.7210235441
  0
LINE
  5
3E3
100
AcDbEntity
  8
0
100
AcDbLine
 62
7
  6
CONTINUOUS
 10
340.6426761914
 20
51.6050108861
 11
340.5557262842
 21
51.6440998461
  0
LINE
  5
3E4
100
AcDbEntity
  8
0
100
AcDbLine
 62
7
  6
CONTINUOUS
 10
340.162720642
 20
52.1342602163
 11
340.0757707518
 21
52.173349174
  0
LINE
  5
3E5
100
AcDbEntity
  8
0
100
AcDbLine
 62
7
  6
CONTINUOUS
 10
186.728152898
 20
130.3756566685
 11
191.726652898
 21
130.3756566685
  0
LINE
  5
3E6
100
AcDbEntity
  8
0
100
AcDbLine
 62
7
  6
CONTINUOUS
 10
315.7468598066
 20
79.9672008986
 11
315.5211874565
 21
80.0503820381
  0
LINE
  5
3E7
100
AcDbEntity
  8
0
100
AcDbLine
 62
7
  6
CONTINUOUS
 10
316.8752217677
 20
75.0597059851
 11
316.7247735343
 21
75.1241468484
  0
LINE
  5
3E8
100
AcDbEntity
  8
0
100
AcDbLine
 62
7
  6
CONTINUOUS
 10
317.4770147012
 20
74.828902785
 11
317.6274629346
 21
74.7644619024
  0
LINE
  5
3E9
100
AcDbEntity
  8
0
100
AcDbLine
 62
7
  6
CONTINUOUS
 10
318.5301524929
 20
76.8473814841
 11
318.3797042595
 21
76.9118223667
  0
LINE
  5
3EA
100
AcDbEntity
  8
0
100
AcDbLine
 62
7
  6
CONTINUOUS
 10
315.8973080399
 20
79.6601170841
 11
316.0477562733
 21
79.5956762016
  0
LINE
  5
3EB
100
AcDbEntity
  8
RUNDUNGEN
100
AcDbLine
 62
7
  6
CONTINUOUS
 10
317.3738516277
 20
84.0209426039
 11
315.751532477
 21
84.7399339705
  0
LINE
  5
3EC
100
AcDbEntity
  8
RUNDUNGEN
100
AcDbLine
 62
7
  6
CONTINUOUS
 10
305.7028939644
 20
89.2805636674
 11
306.6838956967
 21
88.8457960844
  0
LINE
  5
3ED
100
AcDbEntity
  8
RUNDUNGEN
100
AcDbLine
 62
7
  6
CONTINUOUS
 10
311.4777914519
 20
90.9658794932
 11
311.8132631604
 21
90.8172026671
  0
LINE
  5
3EE
100
AcDbEntity
  8
0
100
AcDbLine
 62
7
  6
CONTINUOUS
 10
315.7468598066
 20
76.6079453243
 11
315.5211874565
 21
76.7180868324
  0
LINE
  5
3EF
100
AcDbEntity
  8
0
100
AcDbLine
 62
7
  6
CONTINUOUS
 10
322.5809533304
 20
69.1371905191
 11
322.6800501722
 21
69.0828596458
  0
LINE
  5
3F0
100
AcDbEntity
  8
0
100
AcDbLine
 62
7
  6
CONTINUOUS
 10
322.0824797755
 20
69.9213024747
 11
321.9833829361
 21
69.9756333453
  0
LINE
  5
3F1
100
AcDbEntity
  8
0
100
AcDbLine
 62
7
  6
CONTINUOUS
 10
341.1727683316
 20
50.8778217722
 11
341.1095849305
 21
50.9136901817
  0
LINE
  5
3F2
100
AcDbEntity
  8
0
100
AcDbLine
 62
7
  6
CONTINUOUS
 10
340.705277832
 20
51.4873016398
 11
340.7684612161
 21
51.4514332325
  0
LINE
  5
3F3
100
AcDbEntity
  8
0
100
AcDbLine
 62
7
  6
CONTINUOUS
 10
340.2253222996
 20
52.0165509677
 11
340.2885057007
 21
51.9806825581
  0
LINE
  5
3F4
100
AcDbEntity
  8
0
100
AcDbLine
 62
7
  6
CONTINUOUS
 10
322.4079479817
 20
70.1851003505
 11
322.4679397584
 21
70.1509119566
  0
LINE
  5
3F5
100
AcDbEntity
  8
0
100
AcDbLine
 62
7
  6
CONTINUOUS
 10
322.2082942546
 20
70.4895443116
 11
322.1483024779
 21
70.5237327055
  0
LINE
  5
3F6
100
AcDbEntity
  8
0
100
AcDbLine
 62
7
  6
CONTINUOUS
 10
341.8481560841
 20
50.6001868363
 11
341.9720509442
 21
50.5279636014
  0
LINE
  5
3F7
100
AcDbEntity
  8
0
100
AcDbLine
 62
7
  6
CONTINUOUS
 10
340.9241023038
 20
51.8774351765
 11
340.8002074459
 21
51.9496584088
  0
LINE
  5
3F8
100
AcDbEntity
  8
0
100
AcDbLine
 62
7
  6
CONTINUOUS
 10
341.8473867397
 20
50.679207733
 11
341.7399855833
 21
50.7444352169
  0
LINE
  5
3F9
100
AcDbEntity
  8
0
100
AcDbLine
 62
7
  6
CONTINUOUS
 10
340.924871633
 20
51.7984142984
 11
341.0322728837
 21
51.7331867744
  0
LINE
  5
3FA
100
AcDbEntity
  8
0
100
AcDbLine
 62
7
  6
CONTINUOUS
 10
191.726652898
 20
138.1922476969
 11
186.728152898
 21
138.1922476969
  0
LINE
  5
3FB
100
AcDbEntity
  8
0
100
AcDbLine
 62
7
  6
CONTINUOUS
 10
185.5086466313
 20
148.2235977728
 11
192.9461591647
 21
148.2235977728
  0
LINE
  5
3FC
100
AcDbEntity
  8
RUNDUNGEN
100
AcDbLine
 62
7
  6
CONTINUOUS
 10
303.6166464972
 20
99.4134492768
 11
304.0222262848
 21
99.2337014352
  0
LINE
  5
3FD
100
AcDbEntity
  8
0
100
AcDbLine
 62
7
  6
CONTINUOUS
 10
322.5493476853
 20
69.2363806079
 11
322.4648420649
 21
69.2859861582
  0
LINE
  5
3FE
100
AcDbEntity
  8
0
100
AcDbLine
 62
7
  6
CONTINUOUS
 10
322.1140854046
 20
69.8221124048
 11
322.198591025
 21
69.7725068544
  0
LINE
  5
3FF
100
AcDbEntity
  8
0
100
AcDbLine
 62
7
  6
CONTINUOUS
 10
322.2851782677
 20
70.8030235125
 11
322.1651087387
 21
70.8753285464
  0
LINE
  5
400
100
AcDbEntity
  8
0
100
AcDbLine
 62
7
  6
CONTINUOUS
 10
322.4060446417
 20
70.9197714647
 11
329.9416523541
 21
66.3818810005
  0
LINE
  5
401
100
AcDbEntity
  8
0
100
AcDbLine
 62
7
  6
CONTINUOUS
 10
329.9416523541
 20
66.7467618996
 11
321.4028881875
 21
71.8887461915
  0
LINE
  5
402
100
AcDbEntity
  8
0
100
AcDbLine
 62
7
  6
CONTINUOUS
 10
318.4549283762
 20
73.4529456031
 11
318.2292559735
 21
73.5900474536
  0
LINE
  5
403
100
AcDbEntity
  8
0
100
AcDbLine
 62
7
  6
CONTINUOUS
 10
316.8752217677
 20
74.8170631207
 11
317.1761182344
 21
74.6342607244
  0
LINE
  5
404
100
AcDbEntity
  8
0
100
AcDbLine
 62
7
  6
CONTINUOUS
 10
317.1234613106
 20
74.7300392888
 11
316.8225648438
 21
74.9128416369
  0
LINE
  5
405
100
AcDbEntity
  8
0
100
AcDbLine
 62
7
  6
CONTINUOUS
 10
317.4770147012
 20
75.0715456398
 11
317.1761182344
 21
75.2543479878
  0
LINE
  5
406
100
AcDbEntity
  8
0
100
AcDbLine
 62
7
  6
CONTINUOUS
 10
315.9725321566
 20
76.2551609613
 11
316.12298039
 21
76.1637597873
  0
LINE
  5
407
100
AcDbEntity
  8
0
100
AcDbLine
 62
7
  6
CONTINUOUS
 10
318.4549283762
 20
76.6773995464
 11
318.6806007526
 21
76.5402977213
  0
LINE
  5
408
100
AcDbEntity
  8
0
100
AcDbLine
 62
7
  6
CONTINUOUS
 10
315.9725321566
 20
79.830099099
 11
315.7468598066
 21
79.9672008986
  0
LINE
  5
409
100
AcDbEntity
  8
0
100
AcDbLine
 62
7
  6
CONTINUOUS
 10
316.9504458844
 20
79.5864751692
 11
317.025670001
 21
79.5407746207
  0
LINE
  5
40A
100
AcDbEntity
  8
0
100
AcDbLine
 62
7
  6
CONTINUOUS
 10
316.8752217677
 20
79.8208979895
 11
316.6495494176
 21
79.9579997891
  0
LINE
  5
40B
100
AcDbEntity
  8
0
100
AcDbLine
 62
7
  6
CONTINUOUS
 10
316.9504458844
 20
80.0178402958
 11
317.025670001
 21
79.9721395931
  0
LINE
  5
40C
100
AcDbEntity
  8
0
100
AcDbLine
 62
7
  6
CONTINUOUS
 10
316.799997651
 20
80.2979636645
 11
316.6495494176
 21
80.3893647614
  0
LINE
  5
40D
100
AcDbEntity
  8
0
100
AcDbLine
 62
7
  6
CONTINUOUS
 10
316.9504458844
 20
80.7996894431
 11
317.025670001
 21
80.7539887404
  0
LINE
  5
40E
100
AcDbEntity
  8
0
100
AcDbLine
 62
7
  6
CONTINUOUS
 10
316.8752217677
 20
81.0341122634
 11
316.6495494176
 21
81.171214063
  0
LINE
  5
40F
100
AcDbEntity
  8
0
100
AcDbLine
 62
7
  6
CONTINUOUS
 10
316.9504458844
 20
81.2310544154
 11
317.025670001
 21
81.1853540213
  0
LINE
  5
410
100
AcDbEntity
  8
0
100
AcDbLine
 62
7
  6
CONTINUOUS
 10
316.799997651
 20
81.5111779384
 11
316.6495494176
 21
81.6025790353
  0
LINE
  5
411
100
AcDbEntity
  8
0
100
AcDbLine
 62
7
  6
CONTINUOUS
 10
341.8587203385
 20
51.4611254034
 11
341.9247908348
 21
51.4187965705
  0
LINE
  5
412
100
AcDbEntity
  8
0
100
AcDbLine
 62
7
  6
CONTINUOUS
 10
341.6899397495
 20
51.7423792195
 11
341.6238692532
 21
51.7847080524
  0
LINE
  5
413
100
AcDbEntity
  8
0
100
AcDbLine
 62
7
  6
CONTINUOUS
 10
316.0477562733
 20
76.3981826076
 11
315.7468598066
 21
76.6079453243
  0
LINE
  5
414
100
AcDbEntity
  8
RUNDUNGEN
100
AcDbLine
 62
7
  6
CONTINUOUS
 10
329.4281437599
 20
52.5880069674
 11
303.3834332653
 21
71.0701690326
  0
LINE
  5
415
100
AcDbEntity
  8
RUNDUNGEN
100
AcDbLine
 62
7
  6
CONTINUOUS
 10
361.6680361023
 20
35.6335369122
 11
356.3387445841
 21
39.415373134
  0
LINE
  5
416
100
AcDbEntity
  8
RUNDUNGEN
100
AcDbLine
 62
7
  6
CONTINUOUS
 10
332.9636776659
 20
56.0030704768
 11
306.9189671712
 21
74.4852325421
  0
LINE
  5
417
100
AcDbEntity
  8
RUNDUNGEN
100
AcDbLine
 62
7
  6
CONTINUOUS
 10
310.1883062734
 20
75.8935292543
 11
302.1331256767
 21
81.609743811
  0
LINE
  5
418
100
AcDbEntity
  8
RUNDUNGEN
100
AcDbLine
 62
7
  6
CONTINUOUS
 10
345.1310712961
 20
53.6878919014
 11
360.1412013466
 21
43.0362221018
  0
LINE
  5
419
100
AcDbEntity
  8
0
100
AcDbLine
 62
7
  6
CONTINUOUS
 10
341.0933527738
 20
50.8612766452
 11
341.2353699976
 21
50.7601125057
  0
LINE
  5
41A
100
AcDbEntity
  8
0
100
AcDbLine
 62
7
  6
CONTINUOUS
 10
340.7846933825
 20
51.5038467582
 11
340.6426761914
 21
51.6050108861
  0
LINE
  5
41B
100
AcDbEntity
  8
0
100
AcDbLine
 62
7
  6
CONTINUOUS
 10
340.3047378671
 20
52.0330960838
 11
340.162720642
 21
52.1342602163
  0
LINE
  5
41C
100
AcDbEntity
  8
0
100
AcDbLine
 62
7
  6
CONTINUOUS
 10
317.6274629346
 20
74.7644619024
 11
317.85313539
 21
74.6003996324
  0
LINE
  5
41D
100
AcDbEntity
  8
0
100
AcDbLine
 62
7
  6
CONTINUOUS
 10
341.1095849305
 20
50.9136901817
 11
341.0188678705
 21
50.9805961776
  0
LINE
  5
41E
100
AcDbEntity
  8
0
100
AcDbLine
 62
7
  6
CONTINUOUS
 10
340.7684612161
 20
51.4514332325
 11
340.8591782762
 21
51.3845272367
  0
LINE
  5
41F
100
AcDbEntity
  8
0
100
AcDbLine
 62
7
  6
CONTINUOUS
 10
340.2885057007
 20
51.9806825581
 11
340.3792227608
 21
51.9137765623
  0
LINE
  5
420
100
AcDbEntity
  8
0
100
AcDbLine
 62
7
  6
CONTINUOUS
 10
186.3056213827
 20
166.3101682619
 11
192.1491844133
 21
166.3101682619
  0
LINE
  5
421
100
AcDbEntity
  8
0
100
AcDbLine
 62
7
  6
CONTINUOUS
 10
318.3797042595
 20
76.9118223667
 11
317.9283595067
 21
77.2399466769
  0
LINE
  5
422
100
AcDbEntity
  8
0
100
AcDbLine
 62
7
  6
CONTINUOUS
 10
316.0477562733
 20
79.5956762016
 11
316.4991011842
 21
79.2675517387
  0
LINE
  5
423
100
AcDbEntity
  8
0
100
AcDbLine
 62
7
  6
CONTINUOUS
 10
318.3044800902
 20
73.3556246406
 11
318.6806007526
 21
73.0732009329
  0
LINE
  5
424
100
AcDbEntity
  8
0
100
AcDbLine
 62
7
  6
CONTINUOUS
 10
322.4295754132
 20
69.2529298011
 11
322.5809533304
 21
69.1371905191
  0
LINE
  5
425
100
AcDbEntity
  8
0
100
AcDbLine
 62
7
  6
CONTINUOUS
 10
322.2338576859
 20
69.8055632008
 11
322.0824797755
 21
69.9213024747
  0
LINE
  5
426
100
AcDbEntity
  8
0
100
AcDbLine
 62
7
  6
CONTINUOUS
 10
352.0110068084
 20
44.5666723176
 11
352.2517240029
 21
44.3772938598
  0
LINE
  5
427
100
AcDbEntity
  8
0
100
AcDbLine
 62
7
  6
CONTINUOUS
 10
322.4648420649
 20
69.2859861582
 11
322.3687872533
 21
69.3615705494
  0
LINE
  5
428
100
AcDbEntity
  8
0
100
AcDbLine
 62
7
  6
CONTINUOUS
 10
322.198591025
 20
69.7725068544
 11
322.2946458366
 21
69.6969224633
  0
LINE
  5
429
100
AcDbEntity
  8
0
100
AcDbLine
 62
7
  6
CONTINUOUS
 10
317.2405195234
 20
74.6379465374
 11
317.1234613106
 21
74.7300392888
  0
LINE
  5
42A
100
AcDbEntity
  8
0
100
AcDbLine
 62
7
  6
CONTINUOUS
 10
333.5420520228
 20
62.4063127295
 11
333.7827692173
 21
62.2169342718
  0
LINE
  5
42B
100
AcDbEntity
  8
0
100
AcDbLine
 62
7
  6
CONTINUOUS
 10
317.7779112733
 20
74.8348224527
 11
317.4770147012
 21
75.0715456398
  0
LINE
  5
42C
100
AcDbEntity
  8
0
100
AcDbLine
 62
7
  6
CONTINUOUS
 10
316.12298039
 20
76.1637597873
 11
316.2734286234
 21
76.0453982446
  0
LINE
  5
42D
100
AcDbEntity
  8
0
100
AcDbLine
 62
7
  6
CONTINUOUS
 10
318.1540318568
 20
76.914122644
 11
318.4549283762
 21
76.6773995464
  0
LINE
  5
42E
100
AcDbEntity
  8
0
100
AcDbLine
 62
7
  6
CONTINUOUS
 10
316.2734286234
 20
79.5933760136
 11
315.9725321566
 21
79.830099099
  0
LINE
  5
42F
100
AcDbEntity
  8
0
100
AcDbLine
 62
7
  6
CONTINUOUS
 10
317.025670001
 20
79.5407746207
 11
317.1761182344
 21
79.422413001
  0
LINE
  5
430
100
AcDbEntity
  8
0
100
AcDbLine
 62
7
  6
CONTINUOUS
 10
317.025670001
 20
79.9721395931
 11
317.1761182344
 21
79.8537781276
  0
LINE
  5
431
100
AcDbEntity
  8
0
100
AcDbLine
 62
7
  6
CONTINUOUS
 10
317.025670001
 20
80.7539887404
 11
317.1761182344
 21
80.6356274291
  0
LINE
  5
432
100
AcDbEntity
  8
0
100
AcDbLine
 62
7
  6
CONTINUOUS
 10
317.025670001
 20
81.1853540213
 11
317.1761182344
 21
81.0669924015
  0
LINE
  5
433
100
AcDbEntity
  8
0
100
AcDbLine
 62
7
  6
CONTINUOUS
 10
341.6908892464
 20
50.7259119723
 11
341.8481560841
 21
50.6001868363
  0
LINE
  5
434
100
AcDbEntity
  8
0
100
AcDbLine
 62
7
  6
CONTINUOUS
 10
341.0813692294
 20
51.7517100084
 11
340.9241023038
 21
51.8774351765
  0
LINE
  5
435
100
AcDbEntity
  8
0
100
AcDbLine
 62
7
  6
CONTINUOUS
 10
341.7399855833
 20
50.7444352169
 11
341.6406388983
 21
50.8259200662
  0
LINE
  5
436
100
AcDbEntity
  8
0
100
AcDbLine
 62
7
  6
CONTINUOUS
 10
341.0322728837
 20
51.7331867744
 11
341.1316195688
 21
51.6517019252
  0
LINE
  5
437
100
AcDbEntity
  8
0
100
AcDbLine
 62
7
  6
CONTINUOUS
 10
317.1761182344
 20
79.9885798164
 11
316.799997651
 21
80.2979636645
  0
LINE
  5
438
100
AcDbEntity
  8
0
100
AcDbLine
 62
7
  6
CONTINUOUS
 10
317.1761182344
 20
81.2017940903
 11
316.799997651
 21
81.5111779384
  0
LINE
  5
439
100
AcDbEntity
  8
0
100
AcDbLine
 62
7
  6
CONTINUOUS
 10
340.8591782762
 20
51.3845272367
 11
340.9380121002
 21
51.3192315138
  0
LINE
  5
43A
100
AcDbEntity
  8
0
100
AcDbLine
 62
7
  6
CONTINUOUS
 10
340.9029441015
 20
51.4059031762
 11
340.7846933825
 21
51.5038467582
  0
LINE
  5
43B
100
AcDbEntity
  8
0
100
AcDbLine
 62
7
  6
CONTINUOUS
 10
352.0711861017
 20
44.637953091
 11
351.8906481795
 21
44.7907710995
  0
LINE
  5
43C
100
AcDbEntity
  8
0
100
AcDbLine
 62
7
  6
CONTINUOUS
 10
318.2292559735
 20
73.5900474536
 11
318.0035836234
 21
73.781069894
  0
LINE
  5
43D
100
AcDbEntity
  8
0
100
AcDbLine
 62
7
  6
CONTINUOUS
 10
316.7247735343
 20
75.1241468484
 11
316.4991011842
 21
75.3151692888
  0
LINE
  5
43E
100
AcDbEntity
  8
0
100
AcDbLine
 62
7
  6
CONTINUOUS
 10
316.2734286234
 20
76.2071601478
 11
316.0477562733
 21
76.3981826076
  0
LINE
  5
43F
100
AcDbEntity
  8
0
100
AcDbLine
 62
7
  6
CONTINUOUS
 10
333.6022313161
 20
62.477593503
 11
333.4216933939
 21
62.6304115115
  0
LINE
  5
440
100
AcDbEntity
  8
0
100
AcDbLine
 62
7
  6
CONTINUOUS
 10
317.9283595067
 20
77.1051450652
 11
318.1540318568
 21
76.914122644
  0
LINE
  5
441
100
AcDbEntity
  8
0
100
AcDbLine
 62
7
  6
CONTINUOUS
 10
316.4991011842
 20
79.4023534275
 11
316.2734286234
 21
79.5933760136
  0
LINE
  5
442
100
AcDbEntity
  8
0
100
AcDbLine
 62
7
  6
CONTINUOUS
 10
318.0035836234
 20
73.6193079908
 11
318.3044800902
 21
73.3556246406
  0
LINE
  5
443
100
AcDbEntity
  8
0
100
AcDbLine
 62
7
  6
CONTINUOUS
 10
316.5743253009
 20
75.0807464686
 11
316.8752217677
 21
74.8170631207
  0
LINE
  5
444
100
AcDbEntity
  8
0
100
AcDbLine
 62
7
  6
CONTINUOUS
 10
340.9475683862
 20
50.9902578243
 11
341.0933527738
 21
50.8612766452
  0
LINE
  5
445
100
AcDbEntity
  8
0
100
AcDbLine
 62
7
  6
CONTINUOUS
 10
340.4505222451
 20
51.9041149156
 11
340.3047378671
 21
52.0330960838
  0
LINE
  5
446
100
AcDbEntity
  8
0
100
AcDbLine
 62
7
  6
CONTINUOUS
 10
317.5522388179
 20
77.4414894223
 11
317.9283595067
 21
77.1051450652
  0
LINE
  5
447
100
AcDbEntity
  8
0
100
AcDbLine
 62
7
  6
CONTINUOUS
 10
341.5666097152
 20
50.8376456543
 11
341.6908892464
 21
50.7259119723
  0
LINE
  5
448
100
AcDbEntity
  8
0
100
AcDbLine
 62
7
  6
CONTINUOUS
 10
341.2056487518
 20
51.6399763371
 11
341.0813692294
 21
51.7517100084
  0
LINE
  5
449
100
AcDbEntity
  8
0
100
AcDbLine
 62
7
  6
CONTINUOUS
 10
341.0188678705
 20
50.9805961776
 11
340.9125003767
 21
51.0769295072
  0
LINE
  5
44A
100
AcDbEntity
  8
0
100
AcDbLine
 62
7
  6
CONTINUOUS
 10
340.3792227608
 20
51.9137765623
 11
340.4855902438
 21
51.8174432532
  0
LINE
  5
44B
100
AcDbEntity
  8
KONSTRUKTIONSELEMENTE
100
AcDbLine
 62
7
  6
CONTINUOUS
 10
297.0213768273
 20
78.918114414
 11
288.6068061312
 21
87.0459655666
  0
LINE
  5
44C
100
AcDbEntity
  8
KONSTRUKTIONSELEMENTE
100
AcDbLine
 62
7
  6
CONTINUOUS
 10
235.8566402546
 20
137.9987131277
 11
227.4420695585
 21
146.1265642802
  0
LINE
  5
44D
100
AcDbEntity
  8
RUNDUNGEN
100
AcDbLine
 62
7
  6
CONTINUOUS
 10
364.5898846323
 20
14.5433364133
 11
358.633566379
 21
20.2966980437
  0
LINE
  5
44E
100
AcDbEntity
  8
KONSTRUKTIONSELEMENTE
100
AcDbLine
 62
7
  6
CONTINUOUS
 10
268.8047262103
 20
108.2967210691
 11
258.1981244925
 21
118.5419115975
  0
LINE
  5
44F
100
AcDbEntity
  8
KONSTRUKTIONSELEMENTE
100
AcDbLine
 62
7
  6
CONTINUOUS
 10
300.4951097803
 20
82.5143873974
 11
292.0805390842
 21
90.6422385499
  0
LINE
  5
450
100
AcDbEntity
  8
KONSTRUKTIONSELEMENTE
100
AcDbLine
 62
7
  6
CONTINUOUS
 10
239.3303732077
 20
141.5949861111
 11
231.2765929201
 21
149.3743404901
  0
LINE
  5
451
100
AcDbEntity
  8
RUNDUNGEN
100
AcDbLine
 62
7
  6
CONTINUOUS
 10
368.1254185382
 20
17.9583999228
 11
362.1691002849
 21
23.7117615532
  0
LINE
  5
452
100
AcDbEntity
  8
KONSTRUKTIONSELEMENTE
100
AcDbLine
 62
7
  6
CONTINUOUS
 10
271.931085868
 20
111.5333667541
 11
261.3244841502
 21
121.7785572825
  0
LINE
  5
453
100
AcDbEntity
  8
KONSTRUKTIONSELEMENTE
100
AcDbLine
 62
7
  6
CONTINUOUS
 10
246.7076392982
 20
136.0073045656
 11
257.314241016
 21
125.7621140373
  0
LINE
  5
454
100
AcDbEntity
  8
KONSTRUKTIONSELEMENTE
100
AcDbLine
 62
7
  6
CONTINUOUS
 10
277.8203376704
 20
105.9547456824
 11
288.4269393882
 21
95.709555154
  0
LINE
  5
455
100
AcDbEntity
  8
RUNDUNGEN
100
AcDbLine
 62
7
  6
CONTINUOUS
 10
204.0857508102
 20
127.6451605319
 11
200.6857508102
 21
133.3334713973
  0
LINE
  5
456
100
AcDbEntity
  8
0
100
AcDbLine
 62
7
  6
CONTINUOUS
 10
142.227402898
 20
196.1453975255
 11
142.227402898
 21
258.9305762343
  0
LINE
  5
457
100
AcDbEntity
  8
0
100
AcDbLine
 62
7
  6
CONTINUOUS
 10
186.3056213827
 20
181.9735977728
 11
192.1491844133
 21
181.9735977728
  0
LINE
  5
458
100
AcDbEntity
  8
0
100
AcDbLine
 62
7
  6
CONTINUOUS
 10
185.6841291191
 20
191.0168830174
 11
192.7706766769
 21
191.0168830174
  0
LINE
  5
459
100
AcDbEntity
  8
0
100
AcDbLine
 62
7
  6
CONTINUOUS
 10
316.8752217677
 20
79.0660090565
 11
316.4991011842
 21
79.4023534275
  0
LINE
  5
45A
100
AcDbEntity
  8
0
100
AcDbLine
 62
7
  6
CONTINUOUS
 10
317.9283595067
 20
77.2399466769
 11
317.4770147012
 21
77.6489519125
  0
LINE
  5
45B
100
AcDbEntity
  8
0
100
AcDbLine
 62
7
  6
CONTINUOUS
 10
316.4991011842
 20
79.2675517387
 11
316.9504458844
 21
78.8585466048
  0
LINE
  5
45C
100
AcDbEntity
  8
0
100
AcDbLine
 62
7
  6
CONTINUOUS
 10
322.281239605
 20
69.3899225792
 11
322.4295754132
 21
69.2529298011
  0
LINE
  5
45D
100
AcDbEntity
  8
0
100
AcDbLine
 62
7
  6
CONTINUOUS
 10
322.3821934849
 20
69.6685704334
 11
322.2338576859
 21
69.8055632008
  0
LINE
  5
45E
100
AcDbEntity
  8
0
100
AcDbLine
 62
7
  6
CONTINUOUS
 10
322.2946458366
 20
69.6969224633
 11
322.4022498393
 21
69.5953592313
  0
LINE
  5
45F
100
AcDbEntity
  8
RUNDUNGEN
100
AcDbLine
 62
7
  6
CONTINUOUS
 10
366.7112049758
 20
21.3561548306
 11
371.3073990535
 21
16.9165722683
  0
LINE
  5
460
100
AcDbEntity
  8
0
100
AcDbLine
 62
7
  6
CONTINUOUS
 10
314.385303168
 20
72.9731938078
 11
320.0421574175
 21
67.5090921927
  0
LINE
  5
461
100
AcDbEntity
  8
0
100
AcDbLine
 62
7
  6
CONTINUOUS
 10
319.6886040269
 20
67.9800080662
 11
314.7388565586
 21
72.7610969794
  0
LINE
  5
462
100
AcDbEntity
  8
0
100
AcDbLine
 62
7
  6
CONTINUOUS
 10
353.2761761333
 20
37.9956856547
 11
340.5482540719
 21
50.2899142888
  0
LINE
  5
463
100
AcDbEntity
  8
0
100
AcDbLine
 62
7
  6
CONTINUOUS
 10
334.8913998224
 20
55.7540159039
 11
321.4563709799
 21
68.7312572399
  0
LINE
  5
464
100
AcDbEntity
  8
0
100
AcDbLine
 62
7
  6
CONTINUOUS
 10
352.9226227427
 20
38.4666015282
 11
348.6799820556
 21
42.5646777396
  0
LINE
  5
465
100
AcDbEntity
  8
0
100
AcDbLine
 62
7
  6
CONTINUOUS
 10
347.9728752744
 20
43.2476904415
 11
341.6089142437
 21
49.3948047585
  0
LINE
  5
466
100
AcDbEntity
  8
0
100
AcDbLine
 62
7
  6
CONTINUOUS
 10
341.2553608531
 20
49.7363111095
 11
340.5482540719
 21
50.4193238114
  0
LINE
  5
467
100
AcDbEntity
  8
0
100
AcDbLine
 62
7
  6
CONTINUOUS
 10
334.5378464318
 20
56.2249317774
 11
330.2952057447
 21
60.3230079888
  0
LINE
  5
468
100
AcDbEntity
  8
0
100
AcDbLine
 62
7
  6
CONTINUOUS
 10
329.5880989635
 20
61.0060206907
 11
322.5170311517
 21
67.8361477096
  0
LINE
  5
469
100
AcDbEntity
  8
0
100
AcDbLine
 62
7
  6
CONTINUOUS
 10
322.1634777611
 20
68.1776540606
 11
321.4563709799
 21
68.8606667624
  0
LINE
  5
46A
100
AcDbEntity
  8
0
100
AcDbLine
 62
7
  6
CONTINUOUS
 10
314.4499690649
 20
76.1100043226
 11
314.385303168
 21
76.1724667824
  0
LINE
  5
46B
100
AcDbEntity
  8
0
100
AcDbLine
 62
7
  6
CONTINUOUS
 10
314.7388565586
 20
76.3845636108
 11
319.6886040269
 21
71.6034746976
  0
LINE
  5
46C
100
AcDbEntity
  8
0
100
AcDbLine
 62
7
  6
CONTINUOUS
 10
320.0421574175
 20
71.3913778692
 11
314.385303168
 21
76.8554794843
  0
LINE
  5
46D
100
AcDbEntity
  8
KONSTRUKTIONSELEMENTE
100
AcDbLine
 62
7
  6
CONTINUOUS
 10
249.8339989559
 20
139.2439502507
 11
260.4406006737
 21
128.9987597223
  0
LINE
  5
46E
100
AcDbEntity
  8
KONSTRUKTIONSELEMENTE
100
AcDbLine
 62
7
  6
CONTINUOUS
 10
280.9466973282
 20
109.1913913674
 11
291.553299046
 21
98.9462008391
  0
LINE
  5
46F
100
AcDbEntity
  8
0
100
AcDbLine
 62
7
  6
CONTINUOUS
 10
316.2734286234
 20
75.3713903404
 11
316.5743253009
 21
75.0807464686
  0
LINE
  5
470
100
AcDbEntity
  8
0
100
AcDbLine
 62
7
  6
CONTINUOUS
 10
316.4991011842
 20
75.3151692888
 11
316.3486529508
 21
75.460491123
  0
LINE
  5
471
100
AcDbEntity
  8
0
100
AcDbLine
 62
7
  6
CONTINUOUS
 10
317.85313539
 20
74.6003996324
 11
318.0788077401
 21
74.3824168812
  0
LINE
  5
472
100
AcDbEntity
  8
0
100
AcDbLine
 62
7
  6
CONTINUOUS
 10
318.1540318568
 20
74.4715178673
 11
317.7779112733
 21
74.8348224527
  0
LINE
  5
473
100
AcDbEntity
  8
RUNDUNGEN
100
AcDbLine
 62
7
  6
CONTINUOUS
 10
367.7718651476
 20
27.0377448177
 11
363.1756710699
 21
31.47732738
  0
LINE
  5
474
100
AcDbEntity
  8
KONSTRUKTIONSELEMENTE
100
AcDbLine
 62
7
  6
CONTINUOUS
 10
291.3473018305
 20
102.1215978882
 11
281.9468311142
 21
111.2017553324
  0
LINE
  5
475
100
AcDbEntity
  8
KONSTRUKTIONSELEMENTE
100
AcDbLine
 62
7
  6
CONTINUOUS
 10
260.4406006737
 20
131.975178741
 11
251.2929160755
 21
140.8111635452
  0
LINE
  5
476
100
AcDbEntity
  8
0
100
AcDbLine
 62
7
  6
CONTINUOUS
 10
315.9725321566
 20
78.4281625532
 11
316.5743253009
 21
77.8468750131
  0
LINE
  5
477
100
AcDbEntity
  8
KONSTRUKTIONSELEMENTE
100
AcDbLine
 62
7
  6
CONTINUOUS
 10
266.3298524761
 20
126.3965576692
 11
276.9364541939
 21
116.1513671409
  0
LINE
  5
478
100
AcDbEntity
  8
0
100
AcDbLine
 62
7
  6
CONTINUOUS
 10
316.0477562733
 20
78.5172635393
 11
318.9814972457
 21
75.6834873664
  0
LINE
  5
479
100
AcDbEntity
  8
0
100
AcDbLine
 62
7
  6
CONTINUOUS
 10
318.9814972457
 20
75.8452492696
 11
315.4459633398
 21
79.2603127791
  0
LINE
  5
47A
100
AcDbEntity
  8
0
100
AcDbLine
 62
7
  6
CONTINUOUS
 10
316.8752217677
 20
78.0954376759
 11
317.5522388179
 21
77.4414894223
  0
LINE
  5
47B
100
AcDbEntity
  8
0
100
AcDbLine
 62
7
  6
CONTINUOUS
 10
317.4770147012
 20
77.6489519125
 11
316.9504458844
 21
78.157578332
  0
LINE
  5
47C
100
AcDbEntity
  8
0
100
AcDbLine
 62
7
  6
CONTINUOUS
 10
332.0977488559
 20
63.6288564242
 11
332.3384660293
 21
63.3963414896
  0
LINE
  5
47D
100
AcDbEntity
  8
0
100
AcDbLine
 62
7
  6
CONTINUOUS
 10
350.5667036415
 20
45.7892160122
 11
350.8074208149
 21
45.5567010776
  0
LINE
  5
47E
100
AcDbEntity
  8
0
100
AcDbLine
 62
7
  6
CONTINUOUS
 10
331.6163143405
 20
64.2664324915
 11
332.0977488559
 21
63.8014024594
  0
LINE
  5
47F
100
AcDbEntity
  8
0
100
AcDbLine
 62
7
  6
CONTINUOUS
 10
332.3384660293
 20
63.5688875248
 11
333.5420520228
 21
62.4063127295
  0
LINE
  5
480
100
AcDbEntity
  8
0
100
AcDbLine
 62
7
  6
CONTINUOUS
 10
350.0852691261
 20
46.4267920796
 11
350.5667036415
 21
45.9617620475
  0
LINE
  5
481
100
AcDbEntity
  8
0
100
AcDbLine
 62
7
  6
CONTINUOUS
 10
350.8074208149
 20
45.7292471128
 11
352.0110068084
 21
44.5666723176
  0
LINE
  5
482
100
AcDbEntity
  8
0
100
AcDbLine
 62
7
  6
CONTINUOUS
 10
351.8906481795
 20
44.7907710995
 11
350.8074208149
 21
45.8370883868
  0
LINE
  5
483
100
AcDbEntity
  8
0
100
AcDbLine
 62
7
  6
CONTINUOUS
 10
350.5667036415
 20
46.0696033214
 11
350.0852691261
 21
46.5346333535
  0
LINE
  5
484
100
AcDbEntity
  8
0
100
AcDbLine
 62
7
  6
CONTINUOUS
 10
333.4216933939
 20
62.6304115115
 11
332.3384660293
 21
63.6767287987
  0
LINE
  5
485
100
AcDbEntity
  8
0
100
AcDbLine
 62
7
  6
CONTINUOUS
 10
332.0977488559
 20
63.9092437334
 11
331.6163143405
 21
64.3742737655
  0
LINE
  5
486
100
AcDbEntity
  8
0
100
AcDbLine
 62
7
  6
CONTINUOUS
 10
348.3910945618
 20
48.2429564887
 11
348.326428665
 21
48.3054189486
  0
LINE
  5
487
100
AcDbEntity
  8
0
100
AcDbLine
 62
7
  6
CONTINUOUS
 10
348.0655749767
 20
48.5573842629
 11
347.9728752744
 21
48.6469252995
  0
LINE
  5
488
100
AcDbEntity
  8
0
100
AcDbLine
 62
7
  6
CONTINUOUS
 10
330.006318251
 20
66.0012867379
 11
329.9416523541
 21
66.0637491978
  0
LINE
  5
489
100
AcDbEntity
  8
0
100
AcDbLine
 62
7
  6
CONTINUOUS
 10
352.4924411974
 20
44.4035979653
 11
352.2517240029
 21
44.6361129203
  0
LINE
  5
48A
100
AcDbEntity
  8
0
100
AcDbLine
 62
7
  6
CONTINUOUS
 10
334.0234864118
 20
62.2432383773
 11
333.7827692173
 21
62.4757533323
  0
LINE
  5
48B
100
AcDbEntity
  8
0
100
AcDbLine
 62
7
  6
CONTINUOUS
 10
350.8074208149
 20
46.0743391678
 11
350.5667036415
 21
46.3068541025
  0
LINE
  5
48C
100
AcDbEntity
  8
0
100
AcDbLine
 62
7
  6
CONTINUOUS
 10
332.3384660293
 20
63.9139795798
 11
332.0977488559
 21
64.1464945144
  0
LINE
  5
48D
100
AcDbEntity
  8
0
100
AcDbLine
 62
7
  6
CONTINUOUS
 10
316.9504458844
 20
78.8585466048
 11
317.4770147012
 21
78.3499201853
  0
LINE
  5
48E
100
AcDbEntity
  8
KONSTRUKTIONSELEMENTE
100
AcDbLine
 62
7
  6
CONTINUOUS
 10
237.4122751733
 20
155.7570433769
 11
241.442783826
 21
151.8638709761
  0
LINE
  5
48F
100
AcDbEntity
  8
KONSTRUKTIONSELEMENTE
100
AcDbLine
 62
7
  6
CONTINUOUS
 10
241.7963372166
 20
151.5223646252
 11
245.8268458694
 21
147.6291922244
  0
LINE
  5
490
100
AcDbEntity
  8
KONSTRUKTIONSELEMENTE
100
AcDbLine
 62
7
  6
CONTINUOUS
 10
298.5770117459
 20
96.6764446632
 11
302.6075203987
 21
92.7832722624
  0
LINE
  5
491
100
AcDbEntity
  8
KONSTRUKTIONSELEMENTE
100
AcDbLine
 62
7
  6
CONTINUOUS
 10
302.9610737892
 20
92.4417659115
 11
306.991582442
 21
88.5485935107
  0
LINE
  5
492
100
AcDbEntity
  8
0
100
AcDbLine
 62
7
  6
CONTINUOUS
 10
317.5522388179
 20
78.4120608028
 11
316.8752217677
 21
79.0660090565
  0
LINE
  5
493
100
AcDbEntity
  8
0
100
AcDbLine
 62
7
  6
CONTINUOUS
 10
330.2952057447
 20
66.2758460262
 11
334.5378464318
 21
62.1777698148
  0
LINE
  5
494
100
AcDbEntity
  8
0
100
AcDbLine
 62
7
  6
CONTINUOUS
 10
348.6799820556
 20
48.517515777
 11
352.9226227427
 21
44.4194395656
  0
LINE
  5
495
100
AcDbEntity
  8
0
100
AcDbLine
 62
7
  6
CONTINUOUS
 10
316.5743253009
 20
79.5723353652
 11
318.9814972457
 21
77.2471858154
  0
LINE
  5
496
100
AcDbEntity
  8
0
100
AcDbLine
 62
7
  6
CONTINUOUS
 10
353.2761761333
 20
44.2073427372
 11
348.326428665
 21
48.9884316505
  0
LINE
  5
497
100
AcDbEntity
  8
0
100
AcDbLine
 62
7
  6
CONTINUOUS
 10
334.8913998224
 20
61.9656729864
 11
329.9416523541
 21
66.7467618996
  0
LINE
  5
498
100
AcDbEntity
  8
0
100
AcDbLine
 62
7
  6
CONTINUOUS
 10
318.9814972457
 20
77.3819873499
 11
317.1008941177
 21
79.1985104803
  0
LINE
  5
499
100
AcDbEntity
  8
0
100
AcDbLine
 62
7
  6
CONTINUOUS
 10
316.799997651
 20
79.4891541486
 11
316.5743253009
 21
79.7071368998
  0
LINE
  5
49A
100
AcDbEntity
  8
0
100
AcDbLine
 62
7
  6
CONTINUOUS
 10
317.1761182344
 20
79.422413001
 11
318.9814972457
 21
77.6785507877
  0
LINE
  5
49B
100
AcDbEntity
  8
0
100
AcDbLine
 62
7
  6
CONTINUOUS
 10
318.9814972457
 20
77.8133524765
 11
317.1761182344
 21
79.5572146898
  0
LINE
  5
49C
100
AcDbEntity
  8
0
100
AcDbLine
 62
7
  6
CONTINUOUS
 10
317.1761182344
 20
79.8537781276
 11
318.9814972457
 21
78.1099159143
  0
LINE
  5
49D
100
AcDbEntity
  8
0
100
AcDbLine
 62
7
  6
CONTINUOUS
 10
318.9814972457
 20
78.2447176031
 11
317.1761182344
 21
79.9885798164
  0
LINE
  5
49E
100
AcDbEntity
  8
0
100
AcDbLine
 62
7
  6
CONTINUOUS
 10
316.5743253009
 20
80.7855494849
 11
318.9814972457
 21
78.460399935
  0
LINE
  5
49F
100
AcDbEntity
  8
0
100
AcDbLine
 62
7
  6
CONTINUOUS
 10
318.9814972457
 20
78.5952016239
 11
317.1008941177
 21
80.4117247542
  0
LINE
  5
4A0
100
AcDbEntity
  8
0
100
AcDbLine
 62
7
  6
CONTINUOUS
 10
316.799997651
 20
80.7023684225
 11
316.5743253009
 21
80.9203511737
  0
LINE
  5
4A1
100
AcDbEntity
  8
0
100
AcDbLine
 62
7
  6
CONTINUOUS
 10
317.1761182344
 20
80.6356274291
 11
318.9814972457
 21
78.8917652159
  0
LINE
  5
4A2
100
AcDbEntity
  8
0
100
AcDbLine
 62
7
  6
CONTINUOUS
 10
318.9814972457
 20
79.0265665962
 11
317.1761182344
 21
80.7704288094
  0
LINE
  5
4A3
100
AcDbEntity
  8
0
100
AcDbLine
 62
7
  6
CONTINUOUS
 10
317.1761182344
 20
81.0669924015
 11
318.9814972457
 21
79.3231301882
  0
LINE
  5
4A4
100
AcDbEntity
  8
0
100
AcDbLine
 62
7
  6
CONTINUOUS
 10
318.9814972457
 20
79.457931877
 11
317.1761182344
 21
81.2017940903
  0
LINE
  5
4A5
100
AcDbEntity
  8
RUNDUNGEN
100
AcDbLine
 62
7
  6
CONTINUOUS
 10
371.3073990535
 20
30.4528083272
 11
366.7112049758
 21
34.8923908895
  0
LINE
  5
4A6
100
AcDbEntity
  8
KONSTRUKTIONSELEMENTE
100
AcDbLine
 62
7
  6
CONTINUOUS
 10
269.4562121339
 20
129.6332033543
 11
280.0628138517
 21
119.3880128259
  0
LINE
  5
4A7
100
AcDbEntity
  8
RUNDUNGEN
100
AcDbLine
 62
7
  6
CONTINUOUS
 10
362.1691002849
 20
41.3114566202
 11
368.1254185382
 21
35.5580949897
  0
LINE
  5
4A8
100
AcDbEntity
  8
KONSTRUKTIONSELEMENTE
100
AcDbLine
 62
7
  6
CONTINUOUS
 10
240.8860081263
 20
159.3533163603
 11
244.9165167791
 21
155.4601439595
  0
LINE
  5
4A9
100
AcDbEntity
  8
KONSTRUKTIONSELEMENTE
100
AcDbLine
 62
7
  6
CONTINUOUS
 10
245.2700701696
 20
155.1186376086
 11
249.3005788224
 21
151.2254652078
  0
LINE
  5
4AA
100
AcDbEntity
  8
KONSTRUKTIONSELEMENTE
100
AcDbLine
 62
7
  6
CONTINUOUS
 10
302.0507446989
 20
100.2727176466
 11
306.0812533517
 21
96.3795452458
  0
LINE
  5
4AB
100
AcDbEntity
  8
KONSTRUKTIONSELEMENTE
100
AcDbLine
 62
7
  6
CONTINUOUS
 10
306.4348067423
 20
96.0380388949
 11
310.465315395
 21
92.1448664941
  0
LINE
  5
4AC
100
AcDbEntity
  8
0
100
AcDbLine
 62
7
  6
CONTINUOUS
 10
341.6406388983
 20
50.8259200662
 11
341.4250671445
 21
51.0353959733
  0
LINE
  5
4AD
100
AcDbEntity
  8
0
100
AcDbLine
 62
7
  6
CONTINUOUS
 10
341.1316195688
 20
51.6517019252
 11
341.3471912805
 21
51.4422259945
  0
LINE
  5
4AE
100
AcDbEntity
  8
0
100
AcDbLine
 62
7
  6
CONTINUOUS
 10
340.7861335777
 20
51.148666326
 11
340.9475683862
 21
50.9902578243
  0
LINE
  5
4AF
100
AcDbEntity
  8
0
100
AcDbLine
 62
7
  6
CONTINUOUS
 10
341.0643789024
 20
51.2474946947
 11
340.9029441015
 21
51.4059031762
  0
LINE
  5
4B0
100
AcDbEntity
  8
0
100
AcDbLine
 62
7
  6
CONTINUOUS
 10
322.1474950903
 20
69.5221900208
 11
322.281239605
 21
69.3899225792
  0
LINE
  5
4B1
100
AcDbEntity
  8
0
100
AcDbLine
 62
7
  6
CONTINUOUS
 10
322.3687872533
 20
69.3615705494
 11
322.2350427386
 21
69.4938379909
  0
LINE
  5
4B2
100
AcDbEntity
  8
0
100
AcDbLine
 62
7
  6
CONTINUOUS
 10
340.9125003767
 20
51.0769295072
 11
340.8180161553
 21
51.17165254
  0
LINE
  5
4B3
100
AcDbEntity
  8
0
100
AcDbLine
 62
7
  6
CONTINUOUS
 10
340.9380121002
 20
51.3192315138
 11
341.0324963517
 21
51.2245084388
  0
LINE
  5
4B4
100
AcDbEntity
  8
0
100
AcDbLine
 62
7
  6
CONTINUOUS
 10
340.545006458
 20
51.809391884
 11
340.4505222451
 21
51.9041149156
  0
LINE
  5
4B5
100
AcDbEntity
  8
0
100
AcDbLine
 62
7
  6
CONTINUOUS
 10
322.2614077863
 20
70.3321660884
 11
322.4079479817
 21
70.1851003505
  0
LINE
  5
4B6
100
AcDbEntity
  8
0
100
AcDbLine
 62
7
  6
CONTINUOUS
 10
322.3548345739
 20
70.3424784122
 11
322.2082942546
 21
70.4895443116
  0
LINE
  5
4B7
100
AcDbEntity
  8
0
100
AcDbLine
 62
7
  6
CONTINUOUS
 10
341.4338909922
 20
50.9726324405
 11
341.5666097152
 21
50.8376456543
  0
LINE
  5
4B8
100
AcDbEntity
  8
0
100
AcDbLine
 62
7
  6
CONTINUOUS
 10
341.3383674102
 20
51.504989592
 11
341.2056487518
 21
51.6399763371
  0
LINE
  5
4B9
100
AcDbEntity
  8
0
100
AcDbLine
 62
7
  6
CONTINUOUS
 10
322.5420785117
 20
69.5055987822
 11
322.3821934849
 21
69.6685704334
  0
LINE
  5
4BA
100
AcDbEntity
  8
0
100
AcDbLine
 62
7
  6
CONTINUOUS
 10
316.9504458844
 20
78.157578332
 11
316.4991011842
 21
78.620504203
  0
LINE
  5
4BB
100
AcDbEntity
  8
0
100
AcDbLine
 62
7
  6
CONTINUOUS
 10
317.4770147012
 20
78.3499201853
 11
317.9283595067
 21
77.8869942125
  0
LINE
  5
4BC
100
AcDbEntity
  8
0
100
AcDbLine
 62
7
  6
CONTINUOUS
 10
316.4991011842
 20
78.4857025913
 11
316.8752217677
 21
78.0954376759
  0
LINE
  5
4BD
100
AcDbEntity
  8
0
100
AcDbLine
 62
7
  6
CONTINUOUS
 10
317.9283595067
 20
78.0217959014
 11
317.5522388179
 21
78.4120608028
  0
LINE
  5
4BE
100
AcDbEntity
  8
0
100
AcDbLine
 62
7
  6
CONTINUOUS
 10
341.7143662217
 20
51.6113150165
 11
341.8587203385
 21
51.4611254034
  0
LINE
  5
4BF
100
AcDbEntity
  8
0
100
AcDbLine
 62
7
  6
CONTINUOUS
 10
341.8342939783
 20
51.5921894521
 11
341.6899397495
 21
51.7423792195
  0
LINE
  5
4C0
100
AcDbEntity
  8
0
100
AcDbLine
 62
7
  6
CONTINUOUS
 10
322.4022498393
 20
69.5953592313
 11
322.4952626596
 21
69.4985212766
  0
LINE
  5
4C1
100
AcDbEntity
  8
0
100
AcDbLine
 62
7
  6
CONTINUOUS
 10
315.9725321566
 20
75.6889943291
 11
316.2734286234
 21
75.3713903404
  0
LINE
  5
4C2
100
AcDbEntity
  8
0
100
AcDbLine
 62
7
  6
CONTINUOUS
 10
340.5815146787
 20
51.3675397475
 11
340.7861335777
 21
51.148666326
  0
LINE
  5
4C3
100
AcDbEntity
  8
0
100
AcDbLine
 62
7
  6
CONTINUOUS
 10
341.3425988256
 20
51.0703746351
 11
341.4338909922
 21
50.9726324405
  0
LINE
  5
4C4
100
AcDbEntity
  8
0
100
AcDbLine
 62
7
  6
CONTINUOUS
 10
341.4296596938
 20
51.4072472927
 11
341.3383674102
 21
51.504989592
  0
LINE
  5
4C5
100
AcDbEntity
  8
0
100
AcDbLine
 62
7
  6
CONTINUOUS
 10
316.3486529508
 20
75.460491123
 11
316.12298039
 21
75.7054343885
  0
LINE
  5
4C6
100
AcDbEntity
  8
0
100
AcDbLine
 62
7
  6
CONTINUOUS
 10
316.2734286234
 20
78.7306458762
 11
316.4991011842
 21
78.4857025913
  0
LINE
  5
4C7
100
AcDbEntity
  8
0
100
AcDbLine
 62
7
  6
CONTINUOUS
 10
318.1540318568
 20
77.7768527815
 11
317.9283595067
 21
78.0217959014
  0
LINE
  5
4C8
100
AcDbEntity
  8
0
100
AcDbLine
 62
7
  6
CONTINUOUS
 10
321.3904701042
 20
69.7787006524
 11
321.5602727038
 21
69.5922366436
  0
LINE
  5
4C9
100
AcDbEntity
  8
0
100
AcDbLine
 62
7
  6
CONTINUOUS
 10
321.092959869
 20
70.3805854525
 11
321.6306680549
 21
69.7901161422
  0
LINE
  5
4CA
100
AcDbEntity
  8
0
100
AcDbLine
 62
7
  6
CONTINUOUS
 10
321.8004706546
 20
69.6036521334
 11
322.1966766675
 21
69.1685695043
  0
LINE
  5
4CB
100
AcDbEntity
  8
0
100
AcDbLine
 62
7
  6
CONTINUOUS
 10
322.2567261552
 20
69.1714233768
 11
321.8605201422
 21
69.6065060058
  0
LINE
  5
4CC
100
AcDbEntity
  8
0
100
AcDbLine
 62
7
  6
CONTINUOUS
 10
321.6907175426
 20
69.7929700146
 11
320.9266059434
 21
70.6320579452
  0
LINE
  5
4CD
100
AcDbEntity
  8
0
100
AcDbLine
 62
7
  6
CONTINUOUS
 10
321.9606026122
 20
69.6112624595
 11
321.7908000125
 21
69.7977264682
  0
LINE
  5
4CE
100
AcDbEntity
  8
KONSTRUKTIONSELEMENTE
100
AcDbLine
 62
7
  6
CONTINUOUS
 10
192.7706743166
 20
191.0168875389
 11
196.3192882092
 21
184.2189314683
  0
LINE
  5
4CF
100
AcDbEntity
  8
0
100
AcDbLine
 62
7
  6
CONTINUOUS
 10
164.227402898
 20
196.1453975255
 11
164.227402898
 21
258.9305762343
  0
LINE
  5
4D0
100
AcDbEntity
  8
0
100
AcDbLine
 62
7
  6
CONTINUOUS
 10
174.327402898
 20
104.4493048165
 11
174.327402898
 21
114.581574719
  0
LINE
  5
4D1
100
AcDbEntity
  8
0
100
AcDbLine
 62
7
  6
CONTINUOUS
 10
174.327402898
 20
114.6893683329
 11
174.327402898
 21
127.4978030706
  0
LINE
  5
4D2
100
AcDbEntity
  8
0
100
AcDbLine
 62
7
  6
CONTINUOUS
 10
176.227402898
 20
267.6935297318
 11
176.227402898
 21
553.6935297318
  0
LINE
  5
4D3
100
AcDbEntity
  8
0
100
AcDbLine
 62
7
  6
CONTINUOUS
 10
177.727402898
 20
143.9519765039
 11
177.727402898
 21
133.2637860963
  0
LINE
  5
4D4
100
AcDbEntity
  8
0
100
AcDbLine
 62
7
  6
CONTINUOUS
 10
341.2014409493
 20
51.2286145163
 11
341.3425988256
 21
51.0703746351
  0
LINE
  5
4D5
100
AcDbEntity
  8
0
100
AcDbLine
 62
7
  6
CONTINUOUS
 10
341.5708174881
 20
51.2490074739
 11
341.4296596938
 21
51.4072472927
  0
LINE
  5
4D6
100
AcDbEntity
  8
0
100
AcDbLine
 62
7
  6
CONTINUOUS
 10
340.3887790661
 20
51.584802851
 11
340.5815146787
 21
51.3675397475
  0
LINE
  5
4D7
100
AcDbEntity
  8
0
100
AcDbLine
 62
7
  6
CONTINUOUS
 10
340.5032626195
 20
51.5146763065
 11
340.4481953016
 21
51.5767514789
  0
LINE
  5
4D8
100
AcDbEntity
  8
0
100
AcDbLine
 62
7
  6
CONTINUOUS
 10
340.8180161553
 20
51.17165254
 11
340.7354151785
 21
51.2647652986
  0
LINE
  5
4D9
100
AcDbEntity
  8
0
100
AcDbLine
 62
7
  6
CONTINUOUS
 10
341.0324963517
 20
51.2245084388
 11
341.1150973286
 21
51.1313956801
  0
LINE
  5
4DA
100
AcDbEntity
  8
0
100
AcDbLine
 62
7
  6
CONTINUOUS
 10
341.2020472357
 20
51.0923067201
 11
341.0643789024
 21
51.2474946947
  0
LINE
  5
4DB
100
AcDbEntity
  8
0
100
AcDbLine
 62
7
  6
CONTINUOUS
 10
341.4250671445
 20
51.0353959733
 11
341.258976478
 21
51.2238846565
  0
LINE
  5
4DC
100
AcDbEntity
  8
0
100
AcDbLine
 62
7
  6
CONTINUOUS
 10
341.3471912805
 20
51.4422259945
 11
341.5132820066
 21
51.2537373137
  0
LINE
  5
4DD
100
AcDbEntity
  8
0
100
AcDbLine
 62
7
  6
CONTINUOUS
 10
318.4549283762
 20
74.1269535652
 11
318.1540318568
 21
74.4715178673
  0
LINE
  5
4DE
100
AcDbEntity
  8
0
100
AcDbLine
 62
7
  6
CONTINUOUS
 10
315.9725321566
 20
79.075210166
 11
316.2734286234
 21
78.7306458762
  0
LINE
  5
4DF
100
AcDbEntity
  8
0
100
AcDbLine
 62
7
  6
CONTINUOUS
 10
318.4549283762
 20
77.4322884794
 11
318.1540318568
 21
77.7768527815
  0
LINE
  5
4E0
100
AcDbEntity
  8
0
100
AcDbLine
 62
7
  6
CONTINUOUS
 10
317.1761182344
 20
79.5572146898
 11
317.025670001
 21
79.7294967383
  0
LINE
  5
4E1
100
AcDbEntity
  8
0
100
AcDbLine
 62
7
  6
CONTINUOUS
 10
317.1761182344
 20
80.7704288094
 11
317.025670001
 21
80.9427111665
  0
LINE
  5
4E2
100
AcDbEntity
  8
0
100
AcDbLine
 62
7
  6
CONTINUOUS
 10
321.2325777006
 20
70.5968367338
 11
321.9122306103
 21
69.7985277568
  0
LINE
  5
4E3
100
AcDbEntity
  8
0
100
AcDbLine
 62
7
  6
CONTINUOUS
 10
321.8544844875
 20
69.9284220149
 11
321.436236515
 21
70.4196891107
  0
LINE
  5
4E4
100
AcDbEntity
  8
0
100
AcDbLine
 62
7
  6
CONTINUOUS
 10
322.4952626596
 20
69.4985212766
 11
322.547543647
 21
69.4371129004
  0
LINE
  5
4E5
100
AcDbEntity
  8
0
100
AcDbLine
 62
7
  6
CONTINUOUS
 10
321.8593835375
 20
70.2826542817
 11
321.728681069
 21
70.4361752223
  0
LINE
  5
4E6
100
AcDbEntity
  8
0
100
AcDbLine
 62
7
  6
CONTINUOUS
 10
322.6466404865
 20
69.3827820298
 11
322.5420785117
 21
69.5055987822
  0
LINE
  5
4E7
100
AcDbEntity
  8
0
100
AcDbLine
 62
7
  6
CONTINUOUS
 10
340.2079267011
 20
51.8004556801
 11
340.3887790661
 21
51.584802851
  0
LINE
  5
4E8
100
AcDbEntity
  8
0
100
AcDbLine
 62
7
  6
CONTINUOUS
 10
340.4481953016
 20
51.5767514789
 11
340.2948765966
 21
51.7613667216
  0
LINE
  5
4E9
100
AcDbEntity
  8
0
100
AcDbLine
 62
7
  6
CONTINUOUS
 10
318.0788077401
 20
74.3824168812
 11
318.3044800902
 21
74.110513547
  0
LINE
  5
4EA
100
AcDbEntity
  8
0
100
AcDbLine
 62
7
  6
CONTINUOUS
 10
316.4991011842
 20
78.620504203
 11
316.0477562733
 21
79.1643111521
  0
LINE
  5
4EB
100
AcDbEntity
  8
0
100
AcDbLine
 62
7
  6
CONTINUOUS
 10
317.9283595067
 20
77.8869942125
 11
318.3797042595
 21
77.3431874161
  0
LINE
  5
4EC
100
AcDbEntity
  8
0
100
AcDbLine
 62
7
  6
CONTINUOUS
 10
340.9770454125
 20
51.500853915
 11
341.2014409493
 21
51.2286145163
  0
LINE
  5
4ED
100
AcDbEntity
  8
0
100
AcDbLine
 62
7
  6
CONTINUOUS
 10
341.258976478
 20
51.2238846565
 11
341.084446616
 21
51.4356264111
  0
LINE
  5
4EE
100
AcDbEntity
  8
0
100
AcDbLine
 62
7
  6
CONTINUOUS
 10
341.5132820066
 20
51.2537373137
 11
341.6878118685
 21
51.0419955591
  0
LINE
  5
4EF
100
AcDbEntity
  8
0
100
AcDbLine
 62
7
  6
CONTINUOUS
 10
341.7952130248
 20
50.9767680752
 11
341.5708174881
 21
51.2490074739
  0
LINE
  5
4F0
100
AcDbEntity
  8
RUNDUNGEN
100
AcDbLine
 62
7
  6
CONTINUOUS
 10
356.6056674406
 20
22.4895324774
 11
341.5955373901
 21
40.8352072214
  0
LINE
  5
4F1
100
AcDbEntity
  8
RUNDUNGEN
100
AcDbLine
 62
7
  6
CONTINUOUS
 10
302.7688731841
 20
88.2899161758
 11
302.5121870786
 21
88.6036429582
  0
LINE
  5
4F2
100
AcDbEntity
  8
RUNDUNGEN
100
AcDbLine
 62
7
  6
CONTINUOUS
 10
360.1412013466
 20
25.9045959869
 11
345.1310712961
 21
44.2502707308
  0
LINE
  5
4F3
100
AcDbEntity
  8
RUNDUNGEN
100
AcDbLine
 62
7
  6
CONTINUOUS
 10
313.2895130945
 20
86.959162966
 11
313.1429213554
 21
87.1383302588
  0
LINE
  5
4F4
100
AcDbEntity
  8
RUNDUNGEN
100
AcDbLine
 62
7
  6
CONTINUOUS
 10
308.9462650499
 20
94.7952434441
 11
311.5527908939
 21
91.6094965395
  0
LINE
  5
4F5
100
AcDbEntity
  8
RUNDUNGEN
100
AcDbLine
 62
7
  6
CONTINUOUS
 10
318.8510632572
 20
82.6894052066
 11
332.9636776659
 21
65.4406916474
  0
LINE
  5
4F6
100
AcDbEntity
  8
RUNDUNGEN
100
AcDbLine
 62
7
  6
CONTINUOUS
 10
356.3387445841
 20
36.8712273352
 11
361.6680361023
 21
30.3576629303
  0
LINE
  5
4F7
100
AcDbEntity
  8
0
100
AcDbLine
 62
7
  6
CONTINUOUS
 10
315.4459633398
 20
79.0985508759
 11
315.9725321566
 21
78.4281625532
  0
LINE
  5
4F8
100
AcDbEntity
  8
0
100
AcDbLine
 62
7
  6
CONTINUOUS
 10
316.5743253009
 20
77.8468750131
 11
316.0477562733
 21
78.5172635393
  0
LINE
  5
4F9
100
AcDbEntity
  8
0
100
AcDbLine
 62
7
  6
CONTINUOUS
 10
340.2948765966
 20
51.7613667216
 11
340.2241587872
 21
51.8528692932
  0
LINE
  5
4FA
100
AcDbEntity
  8
0
100
AcDbLine
 62
7
  6
CONTINUOUS
 10
340.7354151785
 20
51.2647652986
 11
340.6646974076
 21
51.3562678267
  0
LINE
  5
4FB
100
AcDbEntity
  8
0
100
AcDbLine
 62
7
  6
CONTINUOUS
 10
341.1150973286
 20
51.1313956801
 11
341.1858150694
 21
51.0398931944
  0
LINE
  5
4FC
100
AcDbEntity
  8
0
100
AcDbLine
 62
7
  6
CONTINUOUS
 10
322.1748592437
 20
70.4450435939
 11
322.2614077863
 21
70.3321660884
  0
LINE
  5
4FD
100
AcDbEntity
  8
0
100
AcDbLine
 62
7
  6
CONTINUOUS
 10
322.4413831164
 20
70.2296009067
 11
322.3548345739
 21
70.3424784122
  0
LINE
  5
4FE
100
AcDbEntity
  8
0
100
AcDbLine
 62
7
  6
CONTINUOUS
 10
341.084446616
 20
51.4356264111
 11
340.9513431987
 21
51.6101236352
  0
LINE
  5
4FF
100
AcDbEntity
  8
0
100
AcDbLine
 62
7
  6
CONTINUOUS
 10
315.6716356899
 20
76.0874792694
 11
315.9725321566
 21
75.6889943291
  0
LINE
  5
500
100
AcDbEntity
  8
0
100
AcDbLine
 62
7
  6
CONTINUOUS
 10
318.7558248693
 20
73.7284685512
 11
318.4549283762
 21
74.1269535652
  0
LINE
  5
501
100
AcDbEntity
  8
0
100
AcDbLine
 62
7
  6
CONTINUOUS
 10
315.7468598066
 20
79.3740738688
 11
315.9725321566
 21
79.075210166
  0
LINE
  5
502
100
AcDbEntity
  8
0
100
AcDbLine
 62
7
  6
CONTINUOUS
 10
316.6495494176
 20
79.6883965657
 11
316.799997651
 21
79.4891541486
  0
LINE
  5
503
100
AcDbEntity
  8
0
100
AcDbLine
 62
7
  6
CONTINUOUS
 10
317.1008941177
 20
79.1985104803
 11
316.9504458844
 21
79.3977528974
  0
LINE
  5
504
100
AcDbEntity
  8
0
100
AcDbLine
 62
7
  6
CONTINUOUS
 10
318.6806007526
 20
77.1334247511
 11
318.4549283762
 21
77.4322884794
  0
LINE
  5
505
100
AcDbEntity
  8
0
100
AcDbLine
 62
7
  6
CONTINUOUS
 10
316.6495494176
 20
80.1197616923
 11
316.8752217677
 21
79.8208979895
  0
LINE
  5
506
100
AcDbEntity
  8
0
100
AcDbLine
 62
7
  6
CONTINUOUS
 10
317.025670001
 20
79.7294967383
 11
316.9504458844
 21
79.829118024
  0
LINE
  5
507
100
AcDbEntity
  8
0
100
AcDbLine
 62
7
  6
CONTINUOUS
 10
316.6495494176
 20
80.9016109939
 11
316.799997651
 21
80.7023684225
  0
LINE
  5
508
100
AcDbEntity
  8
0
100
AcDbLine
 62
7
  6
CONTINUOUS
 10
317.1008941177
 20
80.4117247542
 11
316.9504458844
 21
80.6109673256
  0
LINE
  5
509
100
AcDbEntity
  8
0
100
AcDbLine
 62
7
  6
CONTINUOUS
 10
316.6495494176
 20
81.3329759662
 11
316.8752217677
 21
81.0341122634
  0
LINE
  5
50A
100
AcDbEntity
  8
0
100
AcDbLine
 62
7
  6
CONTINUOUS
 10
317.025670001
 20
80.9427111665
 11
316.9504458844
 21
81.0423322979
  0
LINE
  5
50B
100
AcDbEntity
  8
0
100
AcDbLine
 62
7
  6
CONTINUOUS
 10
321.4028881875
 20
71.8887461915
 11
324.3209190875
 21
68.0090502183
  0
LINE
  5
50C
100
AcDbEntity
  8
0
100
AcDbLine
 62
7
  6
CONTINUOUS
 10
324.5717371769
 20
67.6755726218
 11
329.5880989635
 21
61.0060206907
  0
LINE
  5
50D
100
AcDbEntity
  8
0
100
AcDbLine
 62
7
  6
CONTINUOUS
 10
329.9416523541
 20
60.900731948
 11
322.4060446417
 21
70.9197714647
  0
LINE
  5
50E
100
AcDbEntity
  8
RUNDUNGEN
100
AcDbLine
 62
7
  6
CONTINUOUS
 10
301.9062216358
 20
72.592385363
 11
298.3371195042
 21
77.9055802076
  0
LINE
  5
50F
100
AcDbEntity
  8
RUNDUNGEN
100
AcDbLine
 62
7
  6
CONTINUOUS
 10
305.4417555417
 20
76.0074488725
 11
301.8726534102
 21
81.320643717
  0
LINE
  5
510
100
AcDbEntity
  8
0
100
AcDbLine
 62
7
  6
CONTINUOUS
 10
186.728152898
 20
130.3756566685
 11
185.1163014355
 21
143.634339081
  0
LINE
  5
511
100
AcDbEntity
  8
0
100
AcDbLine
 62
7
  6
CONTINUOUS
 10
186.728152898
 20
138.1922476969
 11
185.5086466313
 21
148.2235977728
  0
LINE
  5
512
100
AcDbEntity
  8
0
100
AcDbLine
 62
7
  6
CONTINUOUS
 10
192.7599377856
 20
158.4454589877
 11
192.9461591647
 21
148.2235977728
  0
LINE
  5
513
100
AcDbEntity
  8
0
100
AcDbLine
 62
7
  6
CONTINUOUS
 10
181.227402898
 20
158.0779727997
 11
181.227402898
 21
148.3349662156
  0
LINE
  5
514
100
AcDbEntity
  8
BEZUGSACHSEN
100
AcDbLine
 62
7
  6
CONTINUOUS
 10
181.227402898
 20
158.0782963157
 11
181.227402898
 21
180.4905486534
  0
LINE
  5
515
100
AcDbEntity
  8
0
100
AcDbLine
 62
7
  6
CONTINUOUS
 10
186.728152898
 20
138.1922476969
 11
186.728152898
 21
130.3756566685
  0
LINE
  5
516
100
AcDbEntity
  8
0
100
AcDbLine
 62
7
  6
CONTINUOUS
 10
191.726652898
 20
138.1922476969
 11
191.726652898
 21
130.3756566685
  0
LINE
  5
517
100
AcDbEntity
  8
RUNDUNGEN
100
AcDbLine
 62
7
  6
CONTINUOUS
 10
197.227402898
 20
158.0779727997
 11
197.227402898
 21
148.3349662156
  0
LINE
  5
518
100
AcDbEntity
  8
BEZUGSACHSEN
100
AcDbLine
 62
7
  6
CONTINUOUS
 10
197.227402898
 20
158.0782963157
 11
197.227402898
 21
180.4905486534
  0
LINE
  5
519
100
AcDbEntity
  8
0
100
AcDbLine
 62
7
  6
CONTINUOUS
 10
185.6948680104
 20
158.4454589877
 11
185.5086466313
 21
148.2235977728
  0
LINE
  5
51A
100
AcDbEntity
  8
0
100
AcDbLine
 62
7
  6
CONTINUOUS
 10
341.6878118685
 20
51.0419955591
 11
341.8209152264
 21
50.8674983326
  0
LINE
  5
51B
100
AcDbEntity
  8
0
100
AcDbLine
 62
7
  6
CONTINUOUS
 10
340.8688748798
 20
51.645102297
 11
340.9770454125
 21
51.500853915
  0
LINE
  5
51C
100
AcDbEntity
  8
0
100
AcDbLine
 62
7
  6
CONTINUOUS
 10
341.9033836397
 20
50.8325196308
 11
341.7952130248
 21
50.9767680752
  0
LINE
  5
51D
100
AcDbEntity
  8
0
100
AcDbLine
 62
7
  6
CONTINUOUS
 10
340.0940248236
 20
51.9524231492
 11
340.2079267011
 21
51.8004556801
  0
LINE
  5
51E
100
AcDbEntity
  8
0
100
AcDbLine
 62
7
  6
CONTINUOUS
 10
341.3159490437
 20
50.9403393177
 11
341.2020472357
 21
51.0923067201
  0
LINE
  5
51F
100
AcDbEntity
  8
0
100
AcDbLine
 62
7
  6
CONTINUOUS
 10
322.547543647
 20
69.4371129004
 11
322.6113738256
 21
69.3497256834
  0
LINE
  5
520
100
AcDbEntity
  8
0
100
AcDbLine
 62
7
  6
CONTINUOUS
 10
341.6360824893
 20
51.7191759509
 11
341.7143662217
 21
51.6113150165
  0
LINE
  5
521
100
AcDbEntity
  8
0
100
AcDbLine
 62
7
  6
CONTINUOUS
 10
341.9125777107
 20
51.4843285177
 11
341.8342939783
 21
51.5921894521
  0
LINE
  5
522
100
AcDbEntity
  8
0
100
AcDbLine
 62
7
  6
CONTINUOUS
 10
322.7481604518
 20
69.2387117353
 11
322.6466404865
 21
69.3827820298
  0
LINE
  5
523
100
AcDbEntity
  8
0
100
AcDbLine
 62
7
  6
CONTINUOUS
 10
340.810569952
 20
51.7288531197
 11
340.8688748798
 21
51.645102297
  0
LINE
  5
524
100
AcDbEntity
  8
0
100
AcDbLine
 62
7
  6
CONTINUOUS
 10
341.9616884504
 20
50.7487689129
 11
341.9033836397
 21
50.8325196308
  0
LINE
  5
525
100
AcDbEntity
  8
RUNDUNGEN
100
AcDbLine
 62
7
  6
CONTINUOUS
 10
305.7028939644
 20
84.826988501
 11
311.0565471617
 21
76.8571962341
  0
LINE
  5
526
100
AcDbEntity
  8
0
100
AcDbLine
 62
7
  6
CONTINUOUS
 10
316.12298039
 20
75.7054343885
 11
315.9725321566
 21
75.9316371935
  0
LINE
  5
527
100
AcDbEntity
  8
0
100
AcDbLine
 62
7
  6
CONTINUOUS
 10
318.3044800902
 20
74.110513547
 11
318.4549283762
 21
73.8843107104
  0
LINE
  5
528
100
AcDbEntity
  8
0
100
AcDbLine
 62
7
  6
CONTINUOUS
 10
316.0477562733
 20
79.1643111521
 11
315.8973080399
 21
79.3905139378
  0
LINE
  5
529
100
AcDbEntity
  8
0
100
AcDbLine
 62
7
  6
CONTINUOUS
 10
318.3797042595
 20
77.3431874161
 11
318.5301524929
 21
77.1169846304
  0
LINE
  5
52A
100
AcDbEntity
  8
0
100
AcDbLine
 62
7
  6
CONTINUOUS
 10
340.2241587872
 20
51.8528692932
 11
340.1653243079
 21
51.9427615025
  0
LINE
  5
52B
100
AcDbEntity
  8
0
100
AcDbLine
 62
7
  6
CONTINUOUS
 10
341.1858150694
 20
51.0398931944
 11
341.2446495594
 21
50.9500009644
  0
LINE
  5
52C
100
AcDbEntity
  8
0
100
AcDbLine
 62
7
  6
CONTINUOUS
 10
315.5211874565
 20
79.7268582317
 11
315.7468598066
 21
79.3740738688
  0
LINE
  5
52D
100
AcDbEntity
  8
0
100
AcDbLine
 62
7
  6
CONTINUOUS
 10
318.9062731225
 20
76.7806403691
 11
318.6806007526
 21
77.1334247511
  0
LINE
  5
52E
100
AcDbEntity
  8
0
100
AcDbLine
 62
7
  6
CONTINUOUS
 10
320.8665564557
 20
70.6292040728
 11
321.3904701042
 21
69.7787006524
  0
LINE
  5
52F
100
AcDbEntity
  8
0
100
AcDbLine
 62
7
  6
CONTINUOUS
 10
321.4605278375
 20
69.7820301701
 11
321.092959869
 21
70.3805854525
  0
LINE
  5
530
100
AcDbEntity
  8
0
100
AcDbLine
 62
7
  6
CONTINUOUS
 10
315.5211874565
 20
76.3406423659
 11
315.6716356899
 21
76.0874792694
  0
LINE
  5
531
100
AcDbEntity
  8
0
100
AcDbLine
 62
7
  6
CONTINUOUS
 10
318.5147025767
 20
73.1977715365
 11
318.4107134457
 21
73.372756688
  0
LINE
  5
532
100
AcDbEntity
  8
KONSTRUKTIONSELEMENTE
100
AcDbLine
 62
7
  6
CONTINUOUS
 10
241.798586691
 20
151.5222187833
 11
241.7654367402
 21
151.6129693621
  0
LINE
  5
533
100
AcDbEntity
  8
RUNDUNGEN
100
AcDbLine
 62
7
  6
CONTINUOUS
 10
200.727402898
 20
143.9519765039
 11
200.727402898
 21
133.2637860963
  0
LINE
  5
534
100
AcDbEntity
  8
0
100
AcDbLine
 62
7
  6
CONTINUOUS
 10
202.227402898
 20
267.6935297318
 11
202.227402898
 21
553.6935297318
  0
LINE
  5
535
100
AcDbEntity
  8
RUNDUNGEN
100
AcDbLine
 62
7
  6
CONTINUOUS
 10
204.127402898
 20
104.4493048165
 11
204.127402898
 21
106.6325554649
  0
LINE
  5
536
100
AcDbEntity
  8
KONSTRUKTIONSELEMENTE
100
AcDbLine
 62
7
  6
CONTINUOUS
 10
204.127402898
 20
104.4493048165
 11
204.127402898
 21
114.581574719
  0
LINE
  5
537
100
AcDbEntity
  8
KONSTRUKTIONSELEMENTE
100
AcDbLine
 62
7
  6
CONTINUOUS
 10
204.127402898
 20
114.6893683329
 11
204.127402898
 21
116.8726189814
  0
LINE
  5
538
100
AcDbEntity
  8
RUNDUNGEN
100
AcDbLine
 62
7
  6
CONTINUOUS
 10
204.127402898
 20
114.6893683329
 11
204.127402898
 21
127.4978030706
  0
LINE
  5
539
100
AcDbEntity
  8
0
100
AcDbLine
 62
7
  6
CONTINUOUS
 10
214.227402898
 20
258.9305762343
 11
214.227402898
 21
196.1453975255
  0
LINE
  5
53A
100
AcDbEntity
  8
0
100
AcDbLine
 62
7
  6
CONTINUOUS
 10
191.726652898
 20
138.1922476969
 11
192.9461591647
 21
148.2235977728
  0
LINE
  5
53B
100
AcDbEntity
  8
RUNDUNGEN
100
AcDbLine
 62
7
  6
CONTINUOUS
 10
191.726652898
 20
130.3756566685
 11
193.3385043605
 21
143.634339081
  0
LINE
  5
53C
100
AcDbEntity
  8
0
100
AcDbLine
 62
7
  6
CONTINUOUS
 10
340.01953993
 20
52.0717426708
 11
340.0940248236
 21
51.9524231492
  0
LINE
  5
53D
100
AcDbEntity
  8
0
100
AcDbLine
 62
7
  6
CONTINUOUS
 10
341.390433947
 20
50.8210197853
 11
341.3159490437
 21
50.9403393177
  0
LINE
  5
53E
100
AcDbEntity
  8
0
100
AcDbLine
 62
7
  6
CONTINUOUS
 10
340.7438259582
 20
51.8358569313
 11
340.810569952
 21
51.7288531197
  0
LINE
  5
53F
100
AcDbEntity
  8
0
100
AcDbLine
 62
7
  6
CONTINUOUS
 10
342.0284325088
 20
50.6417650601
 11
341.9616884504
 21
50.7487689129
  0
LINE
  5
540
100
AcDbEntity
  8
0
100
AcDbLine
 62
7
  6
CONTINUOUS
 10
343.4274491794
 20
50.6146539168
 11
344.6952550815
 21
48.5598675052
  0
LINE
  5
541
100
AcDbEntity
  8
0
100
AcDbLine
 62
7
  6
CONTINUOUS
 10
344.8677614075
 20
48.2802792387
 11
347.9728752744
 21
43.2476904415
  0
LINE
  5
542
100
AcDbEntity
  8
0
100
AcDbLine
 62
7
  6
CONTINUOUS
 10
348.326428665
 20
43.2093268295
 11
344.2439457603
 21
49.8259787822
  0
LINE
  5
543
100
AcDbEntity
  8
0
100
AcDbLine
 62
7
  6
CONTINUOUS
 10
322.6113738256
 20
69.3497256834
 11
322.6606128034
 21
69.2670637652
  0
LINE
  5
544
100
AcDbEntity
  8
0
100
AcDbLine
 62
7
  6
CONTINUOUS
 10
318.9062731225
 20
73.4753054549
 11
318.7558248693
 21
73.7284685512
  0
LINE
  5
545
100
AcDbEntity
  8
0
100
AcDbLine
 62
7
  6
CONTINUOUS
 10
316.9504458844
 20
79.829118024
 11
316.8752217677
 21
79.955699524
  0
LINE
  5
546
100
AcDbEntity
  8
0
100
AcDbLine
 62
7
  6
CONTINUOUS
 10
316.9504458844
 20
81.0423322979
 11
316.8752217677
 21
81.1689139522
  0
LINE
  5
547
100
AcDbEntity
  8
0
100
AcDbLine
 62
7
  6
CONTINUOUS
 10
322.8089486116
 20
69.130070987
 11
322.7481604518
 21
69.2387117353
  0
LINE
  5
548
100
AcDbEntity
  8
0
100
AcDbLine
 62
7
  6
CONTINUOUS
 10
340.9513431987
 20
51.6101236352
 11
340.8677208161
 21
51.763633699
  0
LINE
  5
549
100
AcDbEntity
  8
0
100
AcDbLine
 62
7
  6
CONTINUOUS
 10
341.8209152264
 20
50.8674983326
 11
341.9045376509
 21
50.7139882923
  0
LINE
  5
54A
100
AcDbEntity
  8
0
100
AcDbLine
 62
7
  6
CONTINUOUS
 10
340.6646974076
 20
51.3562678267
 11
340.6333965873
 21
51.4151224498
  0
LINE
  5
54B
100
AcDbEntity
  8
0
100
AcDbLine
 62
7
  6
CONTINUOUS
 10
315.9725321566
 20
75.9316371935
 11
315.8973080399
 21
76.0851790622
  0
LINE
  5
54C
100
AcDbEntity
  8
0
100
AcDbLine
 62
7
  6
CONTINUOUS
 10
316.5743253009
 20
79.8419384343
 11
316.6495494176
 21
79.6883965657
  0
LINE
  5
54D
100
AcDbEntity
  8
0
100
AcDbLine
 62
7
  6
CONTINUOUS
 10
316.9504458844
 20
79.3977528974
 11
316.8752217677
 21
79.5512947661
  0
LINE
  5
54E
100
AcDbEntity
  8
0
100
AcDbLine
 62
7
  6
CONTINUOUS
 10
316.5743253009
 20
80.2733035609
 11
316.6495494176
 21
80.1197616923
  0
LINE
  5
54F
100
AcDbEntity
  8
0
100
AcDbLine
 62
7
  6
CONTINUOUS
 10
316.5743253009
 20
81.0551528625
 11
316.6495494176
 21
80.9016109939
  0
LINE
  5
550
100
AcDbEntity
  8
0
100
AcDbLine
 62
7
  6
CONTINUOUS
 10
316.9504458844
 20
80.6109673256
 11
316.8752217677
 21
80.7645091942
  0
LINE
  5
551
100
AcDbEntity
  8
0
100
AcDbLine
 62
7
  6
CONTINUOUS
 10
316.5743253009
 20
81.4865178349
 11
316.6495494176
 21
81.3329759662
  0
LINE
  5
552
100
AcDbEntity
  8
KONSTRUKTIONSELEMENTE
100
AcDbLine
 62
7
  6
CONTINUOUS
 10
244.9142673047
 20
155.4602898014
 11
244.9474172555
 21
155.3695392225
  0
LINE
  5
553
100
AcDbEntity
  8
KONSTRUKTIONSELEMENTE
100
AcDbLine
 62
7
  6
CONTINUOUS
 10
245.2678206953
 20
155.1187834504
 11
245.3009706461
 21
155.0280328716
  0
LINE
  5
554
100
AcDbEntity
  8
0
100
AcDbLine
 62
7
  6
CONTINUOUS
 10
236.227402898
 20
258.9305762343
 11
236.227402898
 21
196.1453975255
  0
LINE
  5
555
100
AcDbEntity
  8
0
100
AcDbLine
 62
7
  6
CONTINUOUS
 10
182.1355175868
 20
184.2189314683
 11
185.6841314794
 21
191.0168875389
  0
LINE
  5
556
100
AcDbEntity
  8
0
100
AcDbLine
 62
7
  6
CONTINUOUS
 10
315.4459633398
 20
76.5211445646
 11
315.5211874565
 21
76.3406423659
  0
LINE
  5
557
100
AcDbEntity
  8
0
100
AcDbLine
 62
7
  6
CONTINUOUS
 10
318.4549283762
 20
73.8843107104
 11
318.5301524929
 21
73.7038085117
  0
LINE
  5
558
100
AcDbEntity
  8
KONSTRUKTIONSELEMENTE
100
AcDbLine
 62
7
  6
CONTINUOUS
 10
302.9633232636
 20
92.4416200696
 11
302.9301733128
 21
92.5323706485
  0
LINE
  5
559
100
AcDbEntity
  8
KONSTRUKTIONSELEMENTE
100
AcDbLine
 62
7
  6
CONTINUOUS
 10
306.0790038773
 20
96.3796910877
 11
306.1121538281
 21
96.2889405089
  0
LINE
  5
55A
100
AcDbEntity
  8
KONSTRUKTIONSELEMENTE
100
AcDbLine
 62
7
  6
CONTINUOUS
 10
306.4325572679
 20
96.0381847368
 11
306.4657072187
 21
95.9474341579
  0
LINE
  5
55B
100
AcDbEntity
  8
0
100
AcDbLine
 62
7
  6
CONTINUOUS
 10
340.7185084562
 20
51.9056161924
 11
340.7438259582
 21
51.8358569313
  0
LINE
  5
55C
100
AcDbEntity
  8
0
100
AcDbLine
 62
7
  6
CONTINUOUS
 10
342.0537500196
 20
50.5720057883
 11
342.0284325088
 21
50.6417650601
  0
LINE
  5
55D
100
AcDbEntity
  8
0
100
AcDbLine
 62
7
  6
CONTINUOUS
 10
315.8973080399
 20
79.3905139378
 11
315.8220839233
 21
79.5979764666
  0
LINE
  5
55E
100
AcDbEntity
  8
0
100
AcDbLine
 62
7
  6
CONTINUOUS
 10
318.9814972457
 20
73.2678429583
 11
318.9062731225
 21
73.4753054549
  0
LINE
  5
55F
100
AcDbEntity
  8
0
100
AcDbLine
 62
7
  6
CONTINUOUS
 10
318.5301524929
 20
77.1169846304
 11
318.6053766096
 21
76.9095221787
  0
LINE
  5
560
100
AcDbEntity
  8
0
100
AcDbLine
 62
7
  6
CONTINUOUS
 10
340.1653243079
 20
51.9427615025
 11
340.1459067322
 21
52.0000058516
  0
LINE
  5
561
100
AcDbEntity
  8
0
100
AcDbLine
 62
7
  6
CONTINUOUS
 10
322.1483024779
 20
70.5237327055
 11
322.1748592437
 21
70.4450435939
  0
LINE
  5
562
100
AcDbEntity
  8
0
100
AcDbLine
 62
7
  6
CONTINUOUS
 10
322.4679397584
 20
70.1509119566
 11
322.4413831164
 21
70.2296009067
  0
LINE
  5
563
100
AcDbEntity
  8
0
100
AcDbLine
 62
7
  6
CONTINUOUS
 10
315.4459633398
 20
79.961281052
 11
315.5211874565
 21
79.7268582317
  0
LINE
  5
564
100
AcDbEntity
  8
0
100
AcDbLine
 62
7
  6
CONTINUOUS
 10
318.9814972457
 20
76.5462175425
 11
318.9062731225
 21
76.7806403691
  0
LINE
  5
565
100
AcDbEntity
  8
0
100
AcDbLine
 62
7
  6
CONTINUOUS
 10
177.7690549858
 20
133.3334713973
 11
174.3690549858
 21
127.6451605319
  0
LINE
  5
566
100
AcDbEntity
  8
0
100
AcDbLine
 62
7
  6
CONTINUOUS
 10
340.4644274722
 20
51.6291650041
 11
340.5032626195
 21
51.5146763065
  0
LINE
  5
567
100
AcDbEntity
  8
0
100
AcDbLine
 62
7
  6
CONTINUOUS
 10
340.6333965873
 20
51.4151224498
 11
340.6139790115
 21
51.4723667989
  0
LINE
  5
568
100
AcDbEntity
  8
0
100
AcDbLine
 62
7
  6
CONTINUOUS
 10
341.2446495594
 20
50.9500009644
 11
341.2640671352
 21
50.8927566154
  0
LINE
  5
569
100
AcDbEntity
  8
0
100
AcDbLine
 62
7
  6
CONTINUOUS
 10
322.0143695612
 20
69.7654503796
 11
321.9943131233
 21
69.8386616088
  0
LINE
  5
56A
100
AcDbEntity
  8
0
100
AcDbLine
 62
7
  6
CONTINUOUS
 10
339.9963551928
 20
52.1568040568
 11
340.01953993
 21
52.0717426708
  0
LINE
  5
56B
100
AcDbEntity
  8
0
100
AcDbLine
 62
7
  6
CONTINUOUS
 10
341.4136187169
 20
50.7359583877
 11
341.390433947
 21
50.8210197853
  0
LINE
  5
56C
100
AcDbEntity
  8
0
100
AcDbLine
 62
7
  6
CONTINUOUS
 10
341.6238692532
 20
51.7847080524
 11
341.6360824893
 21
51.7191759509
  0
LINE
  5
56D
100
AcDbEntity
  8
0
100
AcDbLine
 62
7
  6
CONTINUOUS
 10
341.9247908348
 20
51.4187965705
 11
341.9125777107
 21
51.4843285177
  0
LINE
  5
56E
100
AcDbEntity
  8
0
100
AcDbLine
 62
7
  6
CONTINUOUS
 10
322.6606128034
 20
69.2670637652
 11
322.6691199667
 21
69.2198314039
  0
LINE
  5
56F
100
AcDbEntity
  8
0
100
AcDbLine
 62
7
  6
CONTINUOUS
 10
321.8490194357
 20
69.9969078696
 11
321.8544844875
 21
69.9284220149
  0
LINE
  5
570
100
AcDbEntity
  8
0
100
AcDbLine
 62
7
  6
CONTINUOUS
 10
322.8144136703
 20
69.0615851242
 11
322.8089486116
 21
69.130070987
  0
LINE
  5
571
100
AcDbEntity
  8
0
100
AcDbLine
 62
7
  6
CONTINUOUS
 10
314.385303168
 20
76.8554794843
 11
314.385303168
 21
72.9731938078
  0
LINE
  5
572
100
AcDbEntity
  8
0
100
AcDbLine
 62
7
  6
CONTINUOUS
 10
314.7388565586
 20
72.7610969794
 11
314.7388565586
 21
76.3845636108
  0
LINE
  5
573
100
AcDbEntity
  8
0
100
AcDbLine
 62
7
  6
CONTINUOUS
 10
315.4459633398
 20
79.2603127791
 11
315.4459633398
 21
79.0985508759
  0
LINE
  5
574
100
AcDbEntity
  8
0
100
AcDbLine
 62
7
  6
CONTINUOUS
 10
315.4459633398
 20
76.6559461378
 11
315.4459633398
 21
76.5211445646
  0
LINE
  5
575
100
AcDbEntity
  8
0
100
AcDbLine
 62
7
  6
CONTINUOUS
 10
315.8973080399
 20
76.0851790622
 11
315.8973080399
 21
76.2469409654
  0
LINE
  5
576
100
AcDbEntity
  8
0
100
AcDbLine
 62
7
  6
CONTINUOUS
 10
316.2734286234
 20
76.0453982446
 11
316.2734286234
 21
76.2071601478
  0
LINE
  5
577
100
AcDbEntity
  8
0
100
AcDbLine
 62
7
  6
CONTINUOUS
 10
316.5743253009
 20
81.5943590008
 11
316.5743253009
 21
81.4865178349
  0
LINE
  5
578
100
AcDbEntity
  8
0
100
AcDbLine
 62
7
  6
CONTINUOUS
 10
316.5743253009
 20
81.1629940285
 11
316.5743253009
 21
81.0551528625
  0
LINE
  5
579
100
AcDbEntity
  8
0
100
AcDbLine
 62
7
  6
CONTINUOUS
 10
316.5743253009
 20
80.3811448811
 11
316.5743253009
 21
80.2733035609
  0
LINE
  5
57A
100
AcDbEntity
  8
0
100
AcDbLine
 62
7
  6
CONTINUOUS
 10
316.5743253009
 20
80.9203511737
 11
316.5743253009
 21
80.7855494849
  0
LINE
  5
57B
100
AcDbEntity
  8
0
100
AcDbLine
 62
7
  6
CONTINUOUS
 10
316.5743253009
 20
79.9497797546
 11
316.5743253009
 21
79.8419384343
  0
LINE
  5
57C
100
AcDbEntity
  8
0
100
AcDbLine
 62
7
  6
CONTINUOUS
 10
316.5743253009
 20
79.7071368998
 11
316.5743253009
 21
79.5723353652
  0
LINE
  5
57D
100
AcDbEntity
  8
0
100
AcDbLine
 62
7
  6
CONTINUOUS
 10
316.8752217677
 20
79.5512947661
 11
316.8752217677
 21
79.6052155033
  0
LINE
  5
57E
100
AcDbEntity
  8
0
100
AcDbLine
 62
7
  6
CONTINUOUS
 10
316.8752217677
 20
79.955699524
 11
316.8752217677
 21
80.0365804756
  0
LINE
  5
57F
100
AcDbEntity
  8
0
100
AcDbLine
 62
7
  6
CONTINUOUS
 10
316.8752217677
 20
80.7645091942
 11
316.8752217677
 21
80.8184296229
  0
LINE
  5
580
100
AcDbEntity
  8
0
100
AcDbLine
 62
7
  6
CONTINUOUS
 10
316.8752217677
 20
81.1689139522
 11
316.8752217677
 21
81.2497949038
  0
LINE
  5
581
100
AcDbEntity
  8
0
100
AcDbLine
 62
7
  6
CONTINUOUS
 10
316.9504458844
 20
75.2296879228
 11
316.9504458844
 21
75.0679260196
  0
LINE
  5
582
100
AcDbEntity
  8
0
100
AcDbLine
 62
7
  6
CONTINUOUS
 10
317.4017905845
 20
74.6319605172
 11
317.4017905845
 21
74.7937224204
  0
LINE
  5
583
100
AcDbEntity
  8
0
100
AcDbLine
 62
7
  6
CONTINUOUS
 10
318.0035836234
 20
73.781069894
 11
318.0035836234
 21
73.6193079908
  0
LINE
  5
584
100
AcDbEntity
  8
0
100
AcDbLine
 62
7
  6
CONTINUOUS
 10
318.5301524929
 20
73.7038085117
 11
318.5301524929
 21
73.4881259484
  0
LINE
  5
585
100
AcDbEntity
  8
0
100
AcDbLine
 62
7
  6
CONTINUOUS
 10
318.9814972457
 20
73.0521603951
 11
318.9814972457
 21
73.2678429583
  0
LINE
  5
586
100
AcDbEntity
  8
0
100
AcDbLine
 62
7
  6
CONTINUOUS
 10
318.9814972457
 20
75.6834873664
 11
318.9814972457
 21
75.8452492696
  0
LINE
  5
587
100
AcDbEntity
  8
0
100
AcDbLine
 62
7
  6
CONTINUOUS
 10
318.9814972457
 20
77.2471858154
 11
318.9814972457
 21
77.3819873499
  0
LINE
  5
588
100
AcDbEntity
  8
0
100
AcDbLine
 62
7
  6
CONTINUOUS
 10
318.9814972457
 20
77.6785507877
 11
318.9814972457
 21
77.8133524765
  0
LINE
  5
589
100
AcDbEntity
  8
0
100
AcDbLine
 62
7
  6
CONTINUOUS
 10
318.9814972457
 20
78.1099159143
 11
318.9814972457
 21
78.2447176031
  0
LINE
  5
58A
100
AcDbEntity
  8
0
100
AcDbLine
 62
7
  6
CONTINUOUS
 10
318.9814972457
 20
78.8917652159
 11
318.9814972457
 21
79.0265665962
  0
LINE
  5
58B
100
AcDbEntity
  8
0
100
AcDbLine
 62
7
  6
CONTINUOUS
 10
318.9814972457
 20
78.460399935
 11
318.9814972457
 21
78.5952016239
  0
LINE
  5
58C
100
AcDbEntity
  8
0
100
AcDbLine
 62
7
  6
CONTINUOUS
 10
318.9814972457
 20
79.3231301882
 11
318.9814972457
 21
79.457931877
  0
LINE
  5
58D
100
AcDbEntity
  8
0
100
AcDbLine
 62
7
  6
CONTINUOUS
 10
340.8677208161
 20
51.763633699
 11
340.8673361515
 21
51.8031441381
  0
LINE
  5
58E
100
AcDbEntity
  8
0
100
AcDbLine
 62
7
  6
CONTINUOUS
 10
341.9045376509
 20
50.7139882923
 11
341.9049223155
 21
50.6744778533
  0
LINE
  5
58F
100
AcDbEntity
  8
0
100
AcDbLine
 62
7
  6
CONTINUOUS
 10
319.6886040269
 20
67.8505985436
 11
319.6886040269
 21
71.6034746976
  0
LINE
  5
590
100
AcDbEntity
  8
0
100
AcDbLine
 62
7
  6
CONTINUOUS
 10
320.0421574175
 20
67.5090921927
 11
320.0421574175
 21
71.3913778692
  0
LINE
  5
591
100
AcDbEntity
  8
0
100
AcDbLine
 62
7
  6
CONTINUOUS
 10
321.4563709799
 20
68.8606667624
 11
321.4563709799
 21
68.7312572399
  0
LINE
  5
592
100
AcDbEntity
  8
0
100
AcDbLine
 62
7
  6
CONTINUOUS
 10
329.9416523541
 20
60.5351048172
 11
329.9416523541
 21
66.3818810005
  0
LINE
  5
593
100
AcDbEntity
  8
0
100
AcDbLine
 62
7
  6
CONTINUOUS
 10
330.2952057447
 20
60.3230079888
 11
330.2952057447
 21
66.2758460262
  0
LINE
  5
594
100
AcDbEntity
  8
0
100
AcDbLine
 62
7
  6
CONTINUOUS
 10
331.6163143405
 20
64.3742737655
 11
331.6163143405
 21
64.2664324915
  0
LINE
  5
595
100
AcDbEntity
  8
0
100
AcDbLine
 62
7
  6
CONTINUOUS
 10
332.0977488559
 20
64.1464945144
 11
332.0977488559
 21
63.9092437334
  0
LINE
  5
596
100
AcDbEntity
  8
0
100
AcDbLine
 62
7
  6
CONTINUOUS
 10
332.0977488559
 20
63.8014024594
 11
332.0977488559
 21
63.6288564242
  0
LINE
  5
597
100
AcDbEntity
  8
0
100
AcDbLine
 62
7
  6
CONTINUOUS
 10
332.3384660293
 20
63.6767287987
 11
332.3384660293
 21
63.9139795798
  0
LINE
  5
598
100
AcDbEntity
  8
0
100
AcDbLine
 62
7
  6
CONTINUOUS
 10
332.3384660293
 20
63.3963414896
 11
332.3384660293
 21
63.5688875248
  0
LINE
  5
599
100
AcDbEntity
  8
0
100
AcDbLine
 62
7
  6
CONTINUOUS
 10
334.5378464318
 20
56.0955222549
 11
334.5378464318
 21
62.1777698148
  0
LINE
  5
59A
100
AcDbEntity
  8
0
100
AcDbLine
 62
7
  6
CONTINUOUS
 10
334.8913998224
 20
55.7540159039
 11
334.8913998224
 21
61.9656729864
  0
LINE
  5
59B
100
AcDbEntity
  8
0
100
AcDbLine
 62
7
  6
CONTINUOUS
 10
340.5482540719
 20
50.4193238114
 11
340.5482540719
 21
50.2899142888
  0
LINE
  5
59C
100
AcDbEntity
  8
0
100
AcDbLine
 62
7
  6
CONTINUOUS
 10
348.326428665
 20
42.776774568
 11
348.326428665
 21
48.4707935602
  0
LINE
  5
59D
100
AcDbEntity
  8
0
100
AcDbLine
 62
7
  6
CONTINUOUS
 10
348.6799820556
 20
42.5646777396
 11
348.6799820556
 21
48.517515777
  0
LINE
  5
59E
100
AcDbEntity
  8
0
100
AcDbLine
 62
7
  6
CONTINUOUS
 10
350.0852691261
 20
46.5346333535
 11
350.0852691261
 21
46.4267920796
  0
LINE
  5
59F
100
AcDbEntity
  8
0
100
AcDbLine
 62
7
  6
CONTINUOUS
 10
350.5667036415
 20
46.3068541025
 11
350.5667036415
 21
46.0696033214
  0
LINE
  5
5A0
100
AcDbEntity
  8
0
100
AcDbLine
 62
7
  6
CONTINUOUS
 10
350.5667036415
 20
45.9617620475
 11
350.5667036415
 21
45.7892160122
  0
LINE
  5
5A1
100
AcDbEntity
  8
0
100
AcDbLine
 62
7
  6
CONTINUOUS
 10
350.8074208149
 20
45.8370883868
 11
350.8074208149
 21
46.0743391678
  0
LINE
  5
5A2
100
AcDbEntity
  8
0
100
AcDbLine
 62
7
  6
CONTINUOUS
 10
350.8074208149
 20
45.5567010776
 11
350.8074208149
 21
45.7292471128
  0
LINE
  5
5A3
100
AcDbEntity
  8
0
100
AcDbLine
 62
7
  6
CONTINUOUS
 10
352.9226227427
 20
38.3371920057
 11
352.9226227427
 21
44.4194395656
  0
LINE
  5
5A4
100
AcDbEntity
  8
0
100
AcDbLine
 62
7
  6
CONTINUOUS
 10
353.2761761333
 20
37.9956856547
 11
353.2761761333
 21
44.2073427372
  0
LINE
  5
5A5
100
AcDbEntity
  8
RUNDUNGEN
100
AcDbLine
 62
7
  6
CONTINUOUS
 10
363.1756710699
 20
37.0133591734
 11
363.1756710699
 21
35.2373341099
  0
LINE
  5
5A6
100
AcDbEntity
  8
RUNDUNGEN
100
AcDbLine
 62
7
  6
CONTINUOUS
 10
363.1756710699
 20
27.8413386291
 11
363.1756710699
 21
26.0653135656
  0
LINE
  5
5A7
100
AcDbEntity
  8
RUNDUNGEN
100
AcDbLine
 62
7
  6
CONTINUOUS
 10
371.6609524441
 20
30.8489362548
 11
371.6609524441
 21
30.2407114988
  0
LINE
  5
5A8
100
AcDbEntity
  8
RUNDUNGEN
100
AcDbLine
 62
7
  6
CONTINUOUS
 10
371.6609524441
 20
16.4456563948
 11
371.6609524441
 21
15.8374316388
  0
LINE
  5
5A9
100
AcDbEntity
  8
0
100
AcDbLine
 62
7
  6
CONTINUOUS
 10
340.7261782629
 20
51.9613839969
 11
340.7185084562
 21
51.9056161924
  0
LINE
  5
5AA
100
AcDbEntity
  8
0
100
AcDbLine
 62
7
  6
CONTINUOUS
 10
342.0460801251
 20
50.516238016
 11
342.0537500196
 21
50.5720057883
  0
LINE
  5
5AB
100
AcDbEntity
  8
0
100
AcDbLine
 62
7
  6
CONTINUOUS
 10
340.1459067322
 20
52.0000058516
 11
340.1540228154
 21
52.0262126144
  0
LINE
  5
5AC
100
AcDbEntity
  8
0
100
AcDbLine
 62
7
  6
CONTINUOUS
 10
340.6139790115
 20
51.4723667989
 11
340.6220950947
 21
51.4985735618
  0
LINE
  5
5AD
100
AcDbEntity
  8
0
100
AcDbLine
 62
7
  6
CONTINUOUS
 10
341.2640671352
 20
50.8927566154
 11
341.255951069
 21
50.8665498502
  0
LINE
  5
5AE
100
AcDbEntity
  8
0
100
AcDbLine
 62
7
  6
CONTINUOUS
 10
315.5211874565
 20
80.0503820381
 11
315.4459633398
 21
79.961281052
  0
LINE
  5
5AF
100
AcDbEntity
  8
RUNDUNGEN
100
AcDbLine
 62
7
  6
CONTINUOUS
 10
298.4638518375
 20
96.1567375287
 11
298.7894520003
 21
96.471243135
  0
LINE
  5
5B0
100
AcDbEntity
  8
0
100
AcDbLine
 62
7
  6
CONTINUOUS
 10
303.9701145854
 20
89.4502262689
 11
300.4345806795
 21
86.0351627594
  0
LINE
  5
5B1
100
AcDbEntity
  8
RUNDUNGEN
100
AcDbLine
 62
7
  6
CONTINUOUS
 10
301.6993754723
 20
81.7829674938
 11
298.1638415663
 21
78.3679039844
  0
LINE
  5
5B2
100
AcDbEntity
  8
RUNDUNGEN
100
AcDbLine
 62
7
  6
CONTINUOUS
 10
311.9865410983
 20
90.800236407
 11
311.7557195816
 21
90.5772799427
  0
LINE
  5
5B3
100
AcDbEntity
  8
0
100
AcDbLine
 62
7
  6
CONTINUOUS
 10
318.9062731225
 20
76.4571165627
 11
318.9814972457
 21
76.5462175425
  0
LINE
  5
5B4
100
AcDbEntity
  8
0
100
AcDbLine
 62
7
  6
CONTINUOUS
 10
316.6495494176
 20
81.6025790353
 11
316.5743253009
 21
81.5299181183
  0
LINE
  5
5B5
100
AcDbEntity
  8
0
100
AcDbLine
 62
7
  6
CONTINUOUS
 10
316.799997651
 20
81.5111779384
 11
316.6331192231
 21
81.3499857551
  0
LINE
  5
5B6
100
AcDbEntity
  8
0
100
AcDbLine
 62
7
  6
CONTINUOUS
 10
316.6495494176
 20
81.171214063
 11
316.5743253009
 21
81.0985531459
  0
LINE
  5
5B7
100
AcDbEntity
  8
0
100
AcDbLine
 62
7
  6
CONTINUOUS
 10
316.8752217677
 20
81.2497949038
 11
316.7810475541
 21
81.1588295988
  0
LINE
  5
5B8
100
AcDbEntity
  8
0
100
AcDbLine
 62
7
  6
CONTINUOUS
 10
316.8752217677
 20
81.1689139522
 11
316.8163628673
 21
81.1120606203
  0
LINE
  5
5B9
100
AcDbEntity
  8
0
100
AcDbLine
 62
7
  6
CONTINUOUS
 10
315.7468598066
 20
79.9672008986
 11
315.5100142138
 21
79.7384256237
  0
LINE
  5
5BA
100
AcDbEntity
  8
0
100
AcDbLine
 62
7
  6
CONTINUOUS
 10
316.8752217677
 20
81.0341122634
 11
316.6922644865
 21
80.8573891004
  0
LINE
  5
5BB
100
AcDbEntity
  8
0
100
AcDbLine
 62
7
  6
CONTINUOUS
 10
316.9504458844
 20
81.0423322979
 11
316.7150104881
 21
80.8149191682
  0
LINE
  5
5BC
100
AcDbEntity
  8
0
100
AcDbLine
 62
7
  6
CONTINUOUS
 10
317.1761182344
 20
81.2017940903
 11
317.0992052706
 21
81.1275018722
  0
LINE
  5
5BD
100
AcDbEntity
  8
0
100
AcDbLine
 62
7
  6
CONTINUOUS
 10
316.8752217677
 20
80.8184296229
 11
316.7783105433
 21
80.7248205685
  0
LINE
  5
5BE
100
AcDbEntity
  8
0
100
AcDbLine
 62
7
  6
CONTINUOUS
 10
317.025670001
 20
80.9427111665
 11
316.8857355941
 21
80.8075449088
  0
LINE
  5
5BF
100
AcDbEntity
  8
0
100
AcDbLine
 62
7
  6
CONTINUOUS
 10
316.799997651
 20
80.7023684225
 11
316.7248167618
 21
80.62974926
  0
LINE
  5
5C0
100
AcDbEntity
  8
0
100
AcDbLine
 62
7
  6
CONTINUOUS
 10
316.8752217677
 20
80.7645091942
 11
316.8052545642
 21
80.6969260654
  0
LINE
  5
5C1
100
AcDbEntity
  8
0
100
AcDbLine
 62
7
  6
CONTINUOUS
 10
315.9725321566
 20
79.830099099
 11
315.6527415501
 21
79.5212050931
  0
LINE
  5
5C2
100
AcDbEntity
  8
0
100
AcDbLine
 62
7
  6
CONTINUOUS
 10
315.8220839233
 20
79.5979764666
 11
315.687061222
 21
79.4675545524
  0
LINE
  5
5C3
100
AcDbEntity
  8
0
100
AcDbLine
 62
7
  6
CONTINUOUS
 10
316.6495494176
 20
80.3893647614
 11
316.5743253009
 21
80.3167038443
  0
LINE
  5
5C4
100
AcDbEntity
  8
0
100
AcDbLine
 62
7
  6
CONTINUOUS
 10
316.9504458844
 20
80.6109673256
 11
316.8527559681
 21
80.5166061125
  0
LINE
  5
5C5
100
AcDbEntity
  8
0
100
AcDbLine
 62
7
  6
CONTINUOUS
 10
317.1761182344
 20
80.7704288094
 11
317.0992053567
 21
80.6961366745
  0
LINE
  5
5C6
100
AcDbEntity
  8
0
100
AcDbLine
 62
7
  6
CONTINUOUS
 10
316.799997651
 20
80.2979636645
 11
316.6331192231
 21
80.1367714812
  0
LINE
  5
5C7
100
AcDbEntity
  8
0
100
AcDbLine
 62
7
  6
CONTINUOUS
 10
315.8973080399
 20
79.3905139378
 11
315.8031338713
 21
79.2995486762
  0
LINE
  5
5C8
100
AcDbEntity
  8
0
100
AcDbLine
 62
7
  6
CONTINUOUS
 10
317.1008941177
 20
80.4117247542
 11
317.031115629
 21
80.3443239098
  0
LINE
  5
5C9
100
AcDbEntity
  8
0
100
AcDbLine
 62
7
  6
CONTINUOUS
 10
316.6495494176
 20
79.9579997891
 11
316.5743253009
 21
79.885338872
  0
LINE
  5
5CA
100
AcDbEntity
  8
0
100
AcDbLine
 62
7
  6
CONTINUOUS
 10
316.2734286234
 20
79.5933760136
 11
316.1778764968
 21
79.5010797468
  0
LINE
  5
5CB
100
AcDbEntity
  8
0
100
AcDbLine
 62
7
  6
CONTINUOUS
 10
316.8752217677
 20
80.0365804756
 11
316.7810476215
 21
79.9456152356
  0
LINE
  5
5CC
100
AcDbEntity
  8
0
100
AcDbLine
 62
7
  6
CONTINUOUS
 10
316.0477562733
 20
79.1643111521
 11
315.9643170594
 21
79.0837150605
  0
LINE
  5
5CD
100
AcDbEntity
  8
0
100
AcDbLine
 62
7
  6
CONTINUOUS
 10
316.8752217677
 20
79.955699524
 11
316.8163629347
 21
79.8988462572
  0
LINE
  5
5CE
100
AcDbEntity
  8
0
100
AcDbLine
 62
7
  6
CONTINUOUS
 10
316.8752217677
 20
79.8208979895
 11
316.6922644094
 21
79.6441747521
  0
LINE
  5
5CF
100
AcDbEntity
  8
0
100
AcDbLine
 62
7
  6
CONTINUOUS
 10
316.4991011842
 20
79.4023534275
 11
316.4194743827
 21
79.3254398434
  0
LINE
  5
5D0
100
AcDbEntity
  8
0
100
AcDbLine
 62
7
  6
CONTINUOUS
 10
316.9504458844
 20
79.829118024
 11
316.71501045
 21
79.6017048576
  0
LINE
  5
5D1
100
AcDbEntity
  8
0
100
AcDbLine
 62
7
  6
CONTINUOUS
 10
317.1761182344
 20
79.9885798164
 11
317.0992052256
 21
79.9142875548
  0
LINE
  5
5D2
100
AcDbEntity
  8
0
100
AcDbLine
 62
7
  6
CONTINUOUS
 10
316.8752217677
 20
79.6052155033
 11
316.7783104662
 21
79.5116063744
  0
LINE
  5
5D3
100
AcDbEntity
  8
0
100
AcDbLine
 62
7
  6
CONTINUOUS
 10
317.025670001
 20
79.7294967383
 11
316.8857357483
 21
79.5943306296
  0
LINE
  5
5D4
100
AcDbEntity
  8
0
100
AcDbLine
 62
7
  6
CONTINUOUS
 10
316.799997651
 20
79.4891541486
 11
316.7248168389
 21
79.4165350605
  0
LINE
  5
5D5
100
AcDbEntity
  8
0
100
AcDbLine
 62
7
  6
CONTINUOUS
 10
316.8752217677
 20
79.5512947661
 11
316.8052546413
 21
79.4837117117
  0
LINE
  5
5D6
100
AcDbEntity
  8
0
100
AcDbLine
 62
7
  6
CONTINUOUS
 10
316.9504458844
 20
79.3977528974
 11
316.8527561278
 21
79.3033918386
  0
LINE
  5
5D7
100
AcDbEntity
  8
0
100
AcDbLine
 62
7
  6
CONTINUOUS
 10
316.0477562733
 20
78.5172635393
 11
315.9643170594
 21
78.4366674477
  0
LINE
  5
5D8
100
AcDbEntity
  8
0
100
AcDbLine
 62
7
  6
CONTINUOUS
 10
317.1761182344
 20
79.5572146898
 11
317.0992052706
 21
79.4829224717
  0
LINE
  5
5D9
100
AcDbEntity
  8
0
100
AcDbLine
 62
7
  6
CONTINUOUS
 10
316.8752217677
 20
79.0660090565
 11
316.800816782
 21
78.9941393592
  0
LINE
  5
5DA
100
AcDbEntity
  8
0
100
AcDbLine
 62
7
  6
CONTINUOUS
 10
316.4991011842
 20
78.620504203
 11
316.4317408621
 21
78.5554391283
  0
LINE
  5
5DB
100
AcDbEntity
  8
0
100
AcDbLine
 62
7
  6
CONTINUOUS
 10
317.1008941177
 20
79.1985104803
 11
317.0311157088
 21
79.131109713
  0
LINE
  5
5DC
100
AcDbEntity
  8
0
100
AcDbLine
 62
7
  6
CONTINUOUS
 10
314.7388565586
 20
76.3845636108
 11
314.385303168
 21
76.0430572599
  0
LINE
  5
5DD
100
AcDbEntity
  8
0
100
AcDbLine
 62
7
  6
CONTINUOUS
 10
316.9504458844
 20
78.157578332
 11
316.8804787387
 21
78.089995259
  0
LINE
  5
5DE
100
AcDbEntity
  8
0
100
AcDbLine
 62
7
  6
CONTINUOUS
 10
315.5211874565
 20
76.7180868324
 11
315.4512202916
 21
76.6505037408
  0
LINE
  5
5DF
100
AcDbEntity
  8
0
100
AcDbLine
 62
7
  6
CONTINUOUS
 10
317.5522388179
 20
78.4120608028
 11
317.4822716915
 21
78.3444777485
  0
LINE
  5
5E0
100
AcDbEntity
  8
0
100
AcDbLine
 62
7
  6
CONTINUOUS
 10
315.7468598066
 20
76.6079453243
 11
315.5065326005
 21
76.3758070691
  0
LINE
  5
5E1
100
AcDbEntity
  8
0
100
AcDbLine
 62
7
  6
CONTINUOUS
 10
318.9814972457
 20
79.457931877
 11
318.9141368851
 21
79.3928667651
  0
LINE
  5
5E2
100
AcDbEntity
  8
0
100
AcDbLine
 62
7
  6
CONTINUOUS
 10
316.0477562733
 20
76.3981826076
 11
315.6942028827
 21
76.0566762566
  0
LINE
  5
5E3
100
AcDbEntity
  8
0
100
AcDbLine
 62
7
  6
CONTINUOUS
 10
315.8973080399
 20
76.2469409654
 11
315.7008786424
 21
76.0572047372
  0
LINE
  5
5E4
100
AcDbEntity
  8
0
100
AcDbLine
 62
7
  6
CONTINUOUS
 10
317.4770147012
 20
77.6489519125
 11
317.4122612412
 21
77.5864048732
  0
LINE
  5
5E5
100
AcDbEntity
  8
0
100
AcDbLine
 62
7
  6
CONTINUOUS
 10
315.8973080399
 20
76.0851790622
 11
315.7678185548
 21
75.9601018243
  0
LINE
  5
5E6
100
AcDbEntity
  8
0
100
AcDbLine
 62
7
  6
CONTINUOUS
 10
317.9283595067
 20
78.0217959014
 11
317.8609991461
 21
77.9567307894
  0
LINE
  5
5E7
100
AcDbEntity
  8
0
100
AcDbLine
 62
7
  6
CONTINUOUS
 10
318.9814972457
 20
79.0265665962
 11
318.9141370393
 21
78.9615016331
  0
LINE
  5
5E8
100
AcDbEntity
  8
0
100
AcDbLine
 62
7
  6
CONTINUOUS
 10
315.9725321566
 20
75.9316371935
 11
315.8665862132
 21
75.8293012706
  0
LINE
  5
5E9
100
AcDbEntity
  8
0
100
AcDbLine
 62
7
  6
CONTINUOUS
 10
316.2734286234
 20
76.2071601478
 11
316.1811331103
 21
76.1180095281
  0
LINE
  5
5EA
100
AcDbEntity
  8
0
100
AcDbLine
 62
7
  6
CONTINUOUS
 10
318.9814972457
 20
78.5952016239
 11
318.9141368851
 21
78.5301365119
  0
LINE
  5
5EB
100
AcDbEntity
  8
0
100
AcDbLine
 62
7
  6
CONTINUOUS
 10
318.1540318568
 20
77.7768527815
 11
318.0795141376
 21
77.7048741921
  0
LINE
  5
5EC
100
AcDbEntity
  8
0
100
AcDbLine
 62
7
  6
CONTINUOUS
 10
316.12298039
 20
75.7054343885
 11
316.0369343381
 21
75.6223202847
  0
LINE
  5
5ED
100
AcDbEntity
  8
0
100
AcDbLine
 62
7
  6
CONTINUOUS
 10
317.9283595067
 20
77.2399466769
 11
317.8609991846
 21
77.1748816021
  0
LINE
  5
5EE
100
AcDbEntity
  8
0
100
AcDbLine
 62
7
  6
CONTINUOUS
 10
318.9814972457
 20
78.2447176031
 11
318.9141368851
 21
78.1796524911
  0
LINE
  5
5EF
100
AcDbEntity
  8
0
100
AcDbLine
 62
7
  6
CONTINUOUS
 10
316.3486529508
 20
75.460491123
 11
316.2652137296
 21
75.3798950243
  0
LINE
  5
5F0
100
AcDbEntity
  8
0
100
AcDbLine
 62
7
  6
CONTINUOUS
 10
318.4549283762
 20
77.4322884794
 11
318.3714891238
 21
77.3516923505
  0
LINE
  5
5F1
100
AcDbEntity
  8
0
100
AcDbLine
 62
7
  6
CONTINUOUS
 10
318.9814972457
 20
77.8133524765
 11
318.9141368851
 21
77.7482873645
  0
LINE
  5
5F2
100
AcDbEntity
  8
0
100
AcDbLine
 62
7
  6
CONTINUOUS
 10
316.4991011842
 20
75.3151692888
 11
316.4104482773
 21
75.2295371565
  0
LINE
  5
5F3
100
AcDbEntity
  8
0
100
AcDbLine
 62
7
  6
CONTINUOUS
 10
318.3797042595
 20
76.9118223667
 11
318.2797174513
 21
76.8152425263
  0
LINE
  5
5F4
100
AcDbEntity
  8
0
100
AcDbLine
 62
7
  6
CONTINUOUS
 10
318.6806007526
 20
77.1334247511
 11
318.5647622972
 21
77.0215333953
  0
LINE
  5
5F5
100
AcDbEntity
  8
0
100
AcDbLine
 62
7
  6
CONTINUOUS
 10
318.9814972457
 20
77.3819873499
 11
318.9141369622
 21
77.3169223124
  0
LINE
  5
5F6
100
AcDbEntity
  8
0
100
AcDbLine
 62
7
  6
CONTINUOUS
 10
316.7247735343
 20
75.1241468484
 11
316.6252554189
 21
75.0280197305
  0
LINE
  5
5F7
100
AcDbEntity
  8
0
100
AcDbLine
 62
7
  6
CONTINUOUS
 10
318.5301524929
 20
76.8473814841
 11
318.4062970935
 21
76.7277463551
  0
LINE
  5
5F8
100
AcDbEntity
  8
0
100
AcDbLine
 62
7
  6
CONTINUOUS
 10
318.6053766096
 20
76.9095221787
 11
318.4115540452
 21
76.7223039581
  0
LINE
  5
5F9
100
AcDbEntity
  8
0
100
AcDbLine
 62
7
  6
CONTINUOUS
 10
317.025670001
 20
75.2918285789
 11
316.9557028554
 21
75.2242455059
  0
LINE
  5
5FA
100
AcDbEntity
  8
0
100
AcDbLine
 62
7
  6
CONTINUOUS
 10
316.8752217677
 20
75.0597059851
 11
316.7435118231
 21
74.932483948
  0
LINE
  5
5FB
100
AcDbEntity
  8
0
100
AcDbLine
 62
7
  6
CONTINUOUS
 10
316.9504458844
 20
75.0679260196
 11
316.7784912365
 21
74.9018305843
  0
LINE
  5
5FC
100
AcDbEntity
  8
0
100
AcDbLine
 62
7
  6
CONTINUOUS
 10
317.1761182344
 20
75.2543479878
 11
316.8225648438
 21
74.9128416369
  0
LINE
  5
5FD
100
AcDbEntity
  8
0
100
AcDbLine
 62
7
  6
CONTINUOUS
 10
314.7388565586
 20
72.7610969794
 11
314.6718692605
 21
72.6963922181
  0
LINE
  5
5FE
100
AcDbEntity
  8
0
100
AcDbLine
 62
7
  6
CONTINUOUS
 10
318.9062731225
 20
76.7806403691
 11
318.669427529
 21
76.5518650936
  0
LINE
  5
5FF
100
AcDbEntity
  8
0
100
AcDbLine
 62
7
  6
CONTINUOUS
 10
318.9814972457
 20
76.5462175425
 11
318.8980580316
 21
76.4656214506
  0
LINE
  5
600
100
AcDbEntity
  8
0
100
AcDbLine
 62
7
  6
CONTINUOUS
 10
317.4770147012
 20
75.0715456398
 11
317.1234613106
 21
74.7300392888
  0
LINE
  5
601
100
AcDbEntity
  8
0
100
AcDbLine
 62
7
  6
CONTINUOUS
 10
317.4017905845
 20
74.7937224204
 11
317.2242816562
 21
74.6222619621
  0
LINE
  5
602
100
AcDbEntity
  8
0
100
AcDbLine
 62
7
  6
CONTINUOUS
 10
317.7779112733
 20
74.8348224527
 11
317.6649211149
 21
74.7256823406
  0
LINE
  5
603
100
AcDbEntity
  8
0
100
AcDbLine
 62
7
  6
CONTINUOUS
 10
318.9814972457
 20
75.8452492696
 11
318.9006648747
 21
75.7671711948
  0
LINE
  5
604
100
AcDbEntity
  8
0
100
AcDbLine
 62
7
  6
CONTINUOUS
 10
318.1540318568
 20
74.4715178673
 11
318.0705926429
 21
74.3909217757
  0
LINE
  5
605
100
AcDbEntity
  8
0
100
AcDbLine
 62
7
  6
CONTINUOUS
 10
318.4549283762
 20
74.1269535652
 11
318.3566705767
 21
74.0320438189
  0
LINE
  5
606
100
AcDbEntity
  8
0
100
AcDbLine
 62
7
  6
CONTINUOUS
 10
318.2292559735
 20
73.5900474536
 11
318.137790742
 21
73.5016988243
  0
LINE
  5
607
100
AcDbEntity
  8
0
100
AcDbLine
 62
7
  6
CONTINUOUS
 10
318.4549283762
 20
73.4529456031
 11
318.3284661357
 21
73.3307924589
  0
LINE
  5
608
100
AcDbEntity
  8
0
100
AcDbLine
 62
7
  6
CONTINUOUS
 10
318.7558248693
 20
73.7284685512
 11
318.5301524929
 21
73.5104857746
  0
LINE
  5
609
100
AcDbEntity
  8
0
100
AcDbLine
 62
7
  6
CONTINUOUS
 10
318.5301524929
 20
73.4881259484
 11
318.3542709276
 21
73.318237402
  0
LINE
  5
60A
100
AcDbEntity
  8
0
100
AcDbLine
 62
7
  6
CONTINUOUS
 10
318.9062731225
 20
73.4753054549
 11
318.5733544266
 21
73.1537306885
  0
LINE
  5
60B
100
AcDbEntity
  8
0
100
AcDbLine
 62
7
  6
CONTINUOUS
 10
318.9814972457
 20
73.2678429583
 11
318.7525380593
 21
73.046685367
  0
LINE
  5
60C
100
AcDbEntity
  8
0
100
AcDbLine
 62
7
  6
CONTINUOUS
 10
320.0421574175
 20
71.3913778692
 11
319.6886040269
 21
71.0498715182
  0
LINE
  5
60D
100
AcDbEntity
  8
0
100
AcDbLine
 62
7
  6
CONTINUOUS
 10
320.9266059434
 20
70.6320579452
 11
320.8941146324
 21
70.6006737488
  0
LINE
  5
60E
100
AcDbEntity
  8
0
100
AcDbLine
 62
7
  6
CONTINUOUS
 10
321.092959869
 20
70.3805854525
 11
321.0470334428
 21
70.3362239313
  0
LINE
  5
60F
100
AcDbEntity
  8
0
100
AcDbLine
 62
7
  6
CONTINUOUS
 10
321.436236515
 20
70.4196891107
 11
321.4072403181
 21
70.3916809352
  0
LINE
  5
610
100
AcDbEntity
  8
0
100
AcDbLine
 62
7
  6
CONTINUOUS
 10
321.728681069
 20
70.4361752223
 11
321.6424694748
 21
70.3529012169
  0
LINE
  5
611
100
AcDbEntity
  8
0
100
AcDbLine
 62
7
  6
CONTINUOUS
 10
322.4060446417
 20
70.9197714647
 11
322.2471320403
 21
70.7662736789
  0
LINE
  5
612
100
AcDbEntity
  8
0
100
AcDbLine
 62
7
  6
CONTINUOUS
 10
315.8220839233
 20
79.5979764666
 11
315.8973080399
 21
79.6601170841
  0
LINE
  5
613
100
AcDbEntity
  8
0
100
AcDbLine
 62
7
  6
CONTINUOUS
 10
315.5211874565
 20
76.7180868324
 11
315.4459633398
 21
76.6559461378
  0
LINE
  5
614
100
AcDbEntity
  8
0
100
AcDbLine
 62
7
  6
CONTINUOUS
 10
333.9633071131
 20
62.1719575935
 11
334.0234864118
 21
62.2432383773
  0
LINE
  5
615
100
AcDbEntity
  8
0
100
AcDbLine
 62
7
  6
CONTINUOUS
 10
321.4605278375
 20
69.7820301701
 11
321.4226213093
 21
69.7454152756
  0
LINE
  5
616
100
AcDbEntity
  8
0
100
AcDbLine
 62
7
  6
CONTINUOUS
 10
322.2082942546
 20
70.4895443116
 11
322.1687604206
 21
70.4513575602
  0
LINE
  5
617
100
AcDbEntity
  8
0
100
AcDbLine
 62
7
  6
CONTINUOUS
 10
319.6886040269
 20
67.9800080662
 11
319.6216167288
 21
67.9153033049
  0
LINE
  5
618
100
AcDbEntity
  8
0
100
AcDbLine
 62
7
  6
CONTINUOUS
 10
321.6306680549
 20
69.7901161422
 11
321.5007028111
 21
69.6645793566
  0
LINE
  5
619
100
AcDbEntity
  8
0
100
AcDbLine
 62
7
  6
CONTINUOUS
 10
321.8958352877
 20
70.0039853752
 11
321.8518453706
 21
69.9614943781
  0
LINE
  5
61A
100
AcDbEntity
  8
0
100
AcDbLine
 62
7
  6
CONTINUOUS
 10
321.6907175426
 20
69.7929700146
 11
321.5282609878
 21
69.6360490327
  0
LINE
  5
61B
100
AcDbEntity
  8
0
100
AcDbLine
 62
7
  6
CONTINUOUS
 10
321.8544844875
 20
69.9284220149
 11
321.819450007
 21
69.8945813054
  0
LINE
  5
61C
100
AcDbEntity
  8
0
100
AcDbLine
 62
7
  6
CONTINUOUS
 10
321.7908000125
 20
69.7977264682
 11
321.574191278
 21
69.5884984973
  0
LINE
  5
61D
100
AcDbEntity
  8
0
100
AcDbLine
 62
7
  6
CONTINUOUS
 10
322.3548345739
 20
70.3424784122
 11
322.3013492929
 21
70.290815598
  0
LINE
  5
61E
100
AcDbEntity
  8
0
100
AcDbLine
 62
7
  6
CONTINUOUS
 10
321.9833829361
 20
69.9756333453
 11
321.8580742987
 21
69.8545944962
  0
LINE
  5
61F
100
AcDbEntity
  8
0
100
AcDbLine
 62
7
  6
CONTINUOUS
 10
321.9943131233
 20
69.8386616088
 11
321.9425861668
 21
69.7886972056
  0
LINE
  5
620
100
AcDbEntity
  8
0
100
AcDbLine
 62
7
  6
CONTINUOUS
 10
322.0824797755
 20
69.9213024747
 11
322.0181417029
 21
69.8591566687
  0
LINE
  5
621
100
AcDbEntity
  8
0
100
AcDbLine
 62
7
  6
CONTINUOUS
 10
322.4413831164
 20
70.2296009067
 11
322.401849299
 21
70.1914141715
  0
LINE
  5
622
100
AcDbEntity
  8
0
100
AcDbLine
 62
7
  6
CONTINUOUS
 10
321.8605201422
 20
69.6065060058
 11
321.8280288313
 21
69.5751218095
  0
LINE
  5
623
100
AcDbEntity
  8
0
100
AcDbLine
 62
7
  6
CONTINUOUS
 10
322.2338576859
 20
69.8055632008
 11
322.1990950382
 21
69.7719850616
  0
LINE
  5
624
100
AcDbEntity
  8
0
100
AcDbLine
 62
7
  6
CONTINUOUS
 10
322.3821934849
 20
69.6685704334
 11
322.3510702076
 21
69.638507656
  0
LINE
  5
625
100
AcDbEntity
  8
0
100
AcDbLine
 62
7
  6
CONTINUOUS
 10
322.2350427386
 20
69.4938379909
 11
322.2039194612
 21
69.4637752135
  0
LINE
  5
626
100
AcDbEntity
  8
0
100
AcDbLine
 62
7
  6
CONTINUOUS
 10
322.3687872533
 20
69.3615705494
 11
322.337663976
 21
69.331507772
  0
LINE
  5
627
100
AcDbEntity
  8
0
100
AcDbLine
 62
7
  6
CONTINUOUS
 10
322.5420785117
 20
69.5055987822
 11
322.5145946072
 21
69.4790513691
  0
LINE
  5
628
100
AcDbEntity
  8
0
100
AcDbLine
 62
7
  6
CONTINUOUS
 10
322.4648420649
 20
69.2859861582
 11
322.4300794166
 21
69.2524080184
  0
LINE
  5
629
100
AcDbEntity
  8
0
100
AcDbLine
 62
7
  6
CONTINUOUS
 10
322.6466404865
 20
69.3827820298
 11
322.6118778388
 21
69.3492038905
  0
LINE
  5
62A
100
AcDbEntity
  8
0
100
AcDbLine
 62
7
  6
CONTINUOUS
 10
322.5493476853
 20
69.2363806079
 11
322.5059929272
 21
69.1945031272
  0
LINE
  5
62B
100
AcDbEntity
  8
0
100
AcDbLine
 62
7
  6
CONTINUOUS
 10
322.6368953337
 20
69.208028578
 11
322.5725572599
 21
69.1458827709
  0
LINE
  5
62C
100
AcDbEntity
  8
0
100
AcDbLine
 62
7
  6
CONTINUOUS
 10
322.64655142
 20
69.1980318618
 11
322.5822133463
 21
69.1358860547
  0
LINE
  5
62D
100
AcDbEntity
  8
0
100
AcDbLine
 62
7
  6
CONTINUOUS
 10
322.7481604518
 20
69.2387117353
 11
322.6205709547
 21
69.1154697449
  0
LINE
  5
62E
100
AcDbEntity
  8
0
100
AcDbLine
 62
7
  6
CONTINUOUS
 10
322.8089486116
 20
69.130070987
 11
322.7399793302
 21
69.0634517769
  0
LINE
  5
62F
100
AcDbEntity
  8
0
100
AcDbLine
 62
7
  6
CONTINUOUS
 10
322.1634777611
 20
68.1776540606
 11
322.096490463
 21
68.1129492993
  0
LINE
  5
630
100
AcDbEntity
  8
0
100
AcDbLine
 62
7
  6
CONTINUOUS
 10
322.3242429544
 20
67.8929572858
 11
322.6406330575
 21
68.1985666574
  0
LINE
  5
631
100
AcDbEntity
  8
0
100
AcDbLine
 62
7
  6
CONTINUOUS
 10
322.5170311517
 20
67.8361477096
 11
322.4500438536
 21
67.7714429483
  0
LINE
  5
632
100
AcDbEntity
  8
0
100
AcDbLine
 62
7
  6
CONTINUOUS
 10
324.3209190875
 20
68.0090502183
 11
324.1961861343
 21
67.8885674374
  0
LINE
  5
633
100
AcDbEntity
  8
0
100
AcDbLine
 62
7
  6
CONTINUOUS
 10
329.9416523541
 20
66.7467618996
 11
329.7089653375
 21
66.5220035008
  0
LINE
  5
634
100
AcDbEntity
  8
0
100
AcDbLine
 62
7
  6
CONTINUOUS
 10
330.2952057447
 20
66.2758460262
 11
329.9416523541
 21
65.9343396752
  0
LINE
  5
635
100
AcDbEntity
  8
0
100
AcDbLine
 62
7
  6
CONTINUOUS
 10
332.0977488559
 20
63.9092437334
 11
332.0438606059
 21
63.857191681
  0
LINE
  5
636
100
AcDbEntity
  8
0
100
AcDbLine
 62
7
  6
CONTINUOUS
 10
332.3384660293
 20
63.9139795798
 11
332.0977488559
 21
63.6814646452
  0
LINE
  5
637
100
AcDbEntity
  8
0
100
AcDbLine
 62
7
  6
CONTINUOUS
 10
332.3384660293
 20
63.6767287987
 11
332.1900146839
 21
63.5333358102
  0
LINE
  5
638
100
AcDbEntity
  8
0
100
AcDbLine
 62
7
  6
CONTINUOUS
 10
329.5880989635
 20
61.0060206907
 11
329.5211116654
 21
60.9413159294
  0
LINE
  5
639
100
AcDbEntity
  8
0
100
AcDbLine
 62
7
  6
CONTINUOUS
 10
332.3384660293
 20
63.5688875248
 11
332.2522448309
 21
63.4856042425
  0
LINE
  5
63A
100
AcDbEntity
  8
0
100
AcDbLine
 62
7
  6
CONTINUOUS
 10
329.9416523541
 20
60.900731948
 11
329.7523898244
 21
60.7179183826
  0
LINE
  5
63B
100
AcDbEntity
  8
0
100
AcDbLine
 62
7
  6
CONTINUOUS
 10
330.2952057447
 20
60.3230079888
 11
330.2282184466
 21
60.2583032275
  0
LINE
  5
63C
100
AcDbEntity
  8
0
100
AcDbLine
 62
7
  6
CONTINUOUS
 10
333.4216933939
 20
62.6304115115
 11
333.3658706429
 21
62.5764908745
  0
LINE
  5
63D
100
AcDbEntity
  8
0
100
AcDbLine
 62
7
  6
CONTINUOUS
 10
333.6022313161
 20
62.477593503
 11
333.5354799527
 21
62.4131166371
  0
LINE
  5
63E
100
AcDbEntity
  8
0
100
AcDbLine
 62
7
  6
CONTINUOUS
 10
333.7225899029
 20
62.4260407969
 11
333.6302943866
 21
62.3368901741
  0
LINE
  5
63F
100
AcDbEntity
  8
0
100
AcDbLine
 62
7
  6
CONTINUOUS
 10
333.7827692173
 20
62.4757533323
 11
333.635096378
 21
62.333112323
  0
LINE
  5
640
100
AcDbEntity
  8
0
100
AcDbLine
 62
7
  6
CONTINUOUS
 10
334.0234864118
 20
62.2432383773
 11
333.9567350404
 21
62.1787615038
  0
LINE
  5
641
100
AcDbEntity
  8
0
100
AcDbLine
 62
7
  6
CONTINUOUS
 10
334.8913998224
 20
61.9656729864
 11
334.5378464318
 21
61.6241666355
  0
LINE
  5
642
100
AcDbEntity
  8
0
100
AcDbLine
 62
7
  6
CONTINUOUS
 10
334.5378464318
 20
56.2249317774
 11
334.4708591337
 21
56.1602270162
  0
LINE
  5
643
100
AcDbEntity
  8
0
100
AcDbLine
 62
7
  6
CONTINUOUS
 10
318.6053766096
 20
76.9095221787
 11
318.5301524929
 21
76.8473814841
  0
LINE
  5
644
100
AcDbEntity
  8
0
100
AcDbLine
 62
7
  6
CONTINUOUS
 10
317.025670001
 20
75.2918285789
 11
316.9504458844
 21
75.2296879228
  0
LINE
  5
645
100
AcDbEntity
  8
0
100
AcDbLine
 62
7
  6
CONTINUOUS
 10
318.9062731225
 20
72.9900197453
 11
318.9814972457
 21
73.0521603951
  0
LINE
  5
646
100
AcDbEntity
  8
0
100
AcDbLine
 62
7
  6
CONTINUOUS
 10
317.4017905845
 20
74.7937224204
 11
317.4770147012
 21
74.828902785
  0
LINE
  5
647
100
AcDbEntity
  8
0
100
AcDbLine
 62
7
  6
CONTINUOUS
 10
317.3265664678
 20
74.5967801526
 11
317.4017905845
 21
74.6319605172
  0
LINE
  5
648
100
AcDbEntity
  8
0
100
AcDbLine
 62
7
  6
CONTINUOUS
 10
318.5301524929
 20
73.4881259484
 11
318.4549283762
 21
73.4529456031
  0
LINE
  5
649
100
AcDbEntity
  8
0
100
AcDbLine
 62
7
  6
CONTINUOUS
 10
352.4322618987
 20
44.3323171815
 11
352.4924411974
 21
44.4035979653
  0
LINE
  5
64A
100
AcDbEntity
  8
0
100
AcDbLine
 62
7
  6
CONTINUOUS
 10
340.0282377736
 20
52.1797902703
 11
340.0002578447
 21
52.1527637343
  0
LINE
  5
64B
100
AcDbEntity
  8
0
100
AcDbLine
 62
7
  6
CONTINUOUS
 10
340.0757707518
 20
52.173349174
 11
340.0093362709
 21
52.1091783931
  0
LINE
  5
64C
100
AcDbEntity
  8
0
100
AcDbLine
 62
7
  6
CONTINUOUS
 10
340.162720642
 20
52.1342602163
 11
340.0490526568
 21
52.0244653737
  0
LINE
  5
64D
100
AcDbEntity
  8
0
100
AcDbLine
 62
7
  6
CONTINUOUS
 10
340.136728634
 20
52.009507718
 11
340.0861116517
 21
51.9606154676
  0
LINE
  5
64E
100
AcDbEntity
  8
0
100
AcDbLine
 62
7
  6
CONTINUOUS
 10
340.1459067322
 20
52.0000058516
 11
340.0952897499
 21
51.9511136012
  0
LINE
  5
64F
100
AcDbEntity
  8
0
100
AcDbLine
 62
7
  6
CONTINUOUS
 10
340.1653243079
 20
51.9427615025
 11
340.1332670689
 21
51.9117965874
  0
LINE
  5
650
100
AcDbEntity
  8
0
100
AcDbLine
 62
7
  6
CONTINUOUS
 10
340.3047378671
 20
52.0330960838
 11
340.2701495044
 21
51.999686291
  0
LINE
  5
651
100
AcDbEntity
  8
0
100
AcDbLine
 62
7
  6
CONTINUOUS
 10
340.2241587872
 20
51.8528692932
 11
340.1895704223
 21
51.8194594983
  0
LINE
  5
652
100
AcDbEntity
  8
0
100
AcDbLine
 62
7
  6
CONTINUOUS
 10
340.2948765966
 20
51.7613667216
 11
340.2694277928
 21
51.7367850648
  0
LINE
  5
653
100
AcDbEntity
  8
0
100
AcDbLine
 62
7
  6
CONTINUOUS
 10
340.4505222451
 20
51.9041149156
 11
340.4184650061
 21
51.8731500005
  0
LINE
  5
654
100
AcDbEntity
  8
0
100
AcDbLine
 62
7
  6
CONTINUOUS
 10
340.8002074459
 20
51.9496584088
 11
340.7278796227
 21
51.8797950964
  0
LINE
  5
655
100
AcDbEntity
  8
0
100
AcDbLine
 62
7
  6
CONTINUOUS
 10
340.4481953016
 20
51.5767514789
 11
340.4214809364
 21
51.5509473837
  0
LINE
  5
656
100
AcDbEntity
  8
0
100
AcDbLine
 62
7
  6
CONTINUOUS
 10
340.5557262842
 20
51.6440998461
 11
340.4831431425
 21
51.5739899149
  0
LINE
  5
657
100
AcDbEntity
  8
0
100
AcDbLine
 62
7
  6
CONTINUOUS
 10
340.5032626195
 20
51.5146763065
 11
340.479079378
 21
51.491317089
  0
LINE
  5
658
100
AcDbEntity
  8
0
100
AcDbLine
 62
7
  6
CONTINUOUS
 10
340.9241023038
 20
51.8774351765
 11
340.7911225269
 21
51.7489865756
  0
LINE
  5
659
100
AcDbEntity
  8
0
100
AcDbLine
 62
7
  6
CONTINUOUS
 10
340.6426761914
 20
51.6050108861
 11
340.4923714272
 21
51.4598276325
  0
LINE
  5
65A
100
AcDbEntity
  8
0
100
AcDbLine
 62
7
  6
CONTINUOUS
 10
340.8673361515
 20
51.8031441381
 11
340.8008462559
 21
51.7389198307
  0
LINE
  5
65B
100
AcDbEntity
  8
0
100
AcDbLine
 62
7
  6
CONTINUOUS
 10
340.8677208161
 20
51.763633699
 11
340.8207752767
 21
51.7182877901
  0
LINE
  5
65C
100
AcDbEntity
  8
0
100
AcDbLine
 62
7
  6
CONTINUOUS
 10
340.6048009133
 20
51.4818686653
 11
340.5356241879
 21
51.4150490796
  0
LINE
  5
65D
100
AcDbEntity
  8
0
100
AcDbLine
 62
7
  6
CONTINUOUS
 10
340.6139790115
 20
51.4723667989
 11
340.544802286
 21
51.4055472132
  0
LINE
  5
65E
100
AcDbEntity
  8
0
100
AcDbLine
 62
7
  6
CONTINUOUS
 10
340.6333965873
 20
51.4151224498
 11
340.582779605
 21
51.3662301994
  0
LINE
  5
65F
100
AcDbEntity
  8
0
100
AcDbLine
 62
7
  6
CONTINUOUS
 10
340.7846933825
 20
51.5038467582
 11
340.7501050198
 21
51.4704369654
  0
LINE
  5
660
100
AcDbEntity
  8
0
100
AcDbLine
 62
7
  6
CONTINUOUS
 10
340.6646974076
 20
51.3562678267
 11
340.6272972967
 21
51.3201420937
  0
LINE
  5
661
100
AcDbEntity
  8
0
100
AcDbLine
 62
7
  6
CONTINUOUS
 10
341.0813692294
 20
51.7517100084
 11
341.0467143015
 21
51.7182359186
  0
LINE
  5
662
100
AcDbEntity
  8
0
100
AcDbLine
 62
7
  6
CONTINUOUS
 10
340.9513431987
 20
51.6101236352
 11
340.9187288771
 21
51.5786206197
  0
LINE
  5
663
100
AcDbEntity
  8
0
100
AcDbLine
 62
7
  6
CONTINUOUS
 10
340.7354151785
 20
51.2647652986
 11
340.7036385653
 21
51.2340714473
  0
LINE
  5
664
100
AcDbEntity
  8
0
100
AcDbLine
 62
7
  6
CONTINUOUS
 10
340.9029441015
 20
51.4059031762
 11
340.8696213007
 21
51.3737158222
  0
LINE
  5
665
100
AcDbEntity
  8
0
100
AcDbLine
 62
7
  6
CONTINUOUS
 10
341.2056487518
 20
51.6399763371
 11
341.1732107163
 21
51.6086436008
  0
LINE
  5
666
100
AcDbEntity
  8
0
100
AcDbLine
 62
7
  6
CONTINUOUS
 10
341.084446616
 20
51.4356264111
 11
341.0614792176
 21
51.4134416078
  0
LINE
  5
667
100
AcDbEntity
  8
0
100
AcDbLine
 62
7
  6
CONTINUOUS
 10
340.8180161553
 20
51.17165254
 11
340.7900362278
 21
51.1446260053
  0
LINE
  5
668
100
AcDbEntity
  8
0
100
AcDbLine
 62
7
  6
CONTINUOUS
 10
341.0643789024
 20
51.2474946947
 11
341.0348527871
 21
51.2189746574
  0
LINE
  5
669
100
AcDbEntity
  8
0
100
AcDbLine
 62
7
  6
CONTINUOUS
 10
341.3383674102
 20
51.504989592
 11
341.3115692886
 21
51.4791045943
  0
LINE
  5
66A
100
AcDbEntity
  8
0
100
AcDbLine
 62
7
  6
CONTINUOUS
 10
340.9125003767
 20
51.0769295072
 11
340.8829742629
 21
51.0484094713
  0
LINE
  5
66B
100
AcDbEntity
  8
0
100
AcDbLine
 62
7
  6
CONTINUOUS
 10
341.6899397495
 20
51.7423792195
 11
341.6504832594
 21
51.7042671766
  0
LINE
  5
66C
100
AcDbEntity
  8
0
100
AcDbLine
 62
7
  6
CONTINUOUS
 10
341.4296596938
 20
51.4072472927
 11
341.4044753886
 21
51.3829211219
  0
LINE
  5
66D
100
AcDbEntity
  8
0
100
AcDbLine
 62
7
  6
CONTINUOUS
 10
341.258976478
 20
51.2238846565
 11
341.2315752948
 21
51.1974171461
  0
LINE
  5
66E
100
AcDbEntity
  8
0
100
AcDbLine
 62
7
  6
CONTINUOUS
 10
341.0188678705
 20
50.9805961776
 11
340.9868106315
 21
50.9496312625
  0
LINE
  5
66F
100
AcDbEntity
  8
0
100
AcDbLine
 62
7
  6
CONTINUOUS
 10
341.2020472357
 20
51.0923067201
 11
341.167458873
 21
51.0588969272
  0
LINE
  5
670
100
AcDbEntity
  8
0
100
AcDbLine
 62
7
  6
CONTINUOUS
 10
341.1095849305
 20
50.9136901817
 11
341.0749965674
 21
50.8802803885
  0
LINE
  5
671
100
AcDbEntity
  8
0
100
AcDbLine
 62
7
  6
CONTINUOUS
 10
341.8342939783
 20
51.5921894521
 11
341.7818091291
 21
51.5414929809
  0
LINE
  5
672
100
AcDbEntity
  8
0
100
AcDbLine
 62
7
  6
CONTINUOUS
 10
341.1727683316
 20
50.8778217722
 11
341.1234169108
 21
50.8301519602
  0
LINE
  5
673
100
AcDbEntity
  8
0
100
AcDbLine
 62
7
  6
CONTINUOUS
 10
341.5708174881
 20
51.2490074739
 11
341.5434163194
 21
51.2225399774
  0
LINE
  5
674
100
AcDbEntity
  8
0
100
AcDbLine
 62
7
  6
CONTINUOUS
 10
341.3159490437
 20
50.9403393177
 11
341.2653320615
 21
50.8914470673
  0
LINE
  5
675
100
AcDbEntity
  8
0
100
AcDbLine
 62
7
  6
CONTINUOUS
 10
341.4250671445
 20
51.0353959733
 11
341.3998828682
 21
51.0110698303
  0
LINE
  5
676
100
AcDbEntity
  8
0
100
AcDbLine
 62
7
  6
CONTINUOUS
 10
341.255951069
 20
50.8665498502
 11
341.1837943154
 21
50.7968517784
  0
LINE
  5
677
100
AcDbEntity
  8
0
100
AcDbLine
 62
7
  6
CONTINUOUS
 10
341.9125777107
 20
51.4843285177
 11
341.8731212397
 21
51.4462164934
  0
LINE
  5
678
100
AcDbEntity
  8
0
100
AcDbLine
 62
7
  6
CONTINUOUS
 10
341.390433947
 20
50.8210197853
 11
341.2981563305
 21
50.7318864523
  0
LINE
  5
679
100
AcDbEntity
  8
0
100
AcDbLine
 62
7
  6
CONTINUOUS
 10
341.7952130248
 20
50.9767680752
 11
341.7620214645
 21
50.9447074899
  0
LINE
  5
67A
100
AcDbEntity
  8
0
100
AcDbLine
 62
7
  6
CONTINUOUS
 10
341.6406388983
 20
50.8259200662
 11
341.6082008627
 21
50.7945873299
  0
LINE
  5
67B
100
AcDbEntity
  8
0
100
AcDbLine
 62
7
  6
CONTINUOUS
 10
341.7399855833
 20
50.7444352169
 11
341.7053306547
 21
50.7109611264
  0
LINE
  5
67C
100
AcDbEntity
  8
0
100
AcDbLine
 62
7
  6
CONTINUOUS
 10
341.9033836397
 20
50.8325196308
 11
341.861832518
 21
50.7923843292
  0
LINE
  5
67D
100
AcDbEntity
  8
0
100
AcDbLine
 62
7
  6
CONTINUOUS
 10
341.8473867397
 20
50.679207733
 11
341.8082980258
 21
50.6414509348
  0
LINE
  5
67E
100
AcDbEntity
  8
0
100
AcDbLine
 62
7
  6
CONTINUOUS
 10
341.9616884504
 20
50.7487689129
 11
341.9147429239
 21
50.7034230164
  0
LINE
  5
67F
100
AcDbEntity
  8
0
100
AcDbLine
 62
7
  6
CONTINUOUS
 10
341.9049223155
 20
50.6744778533
 11
341.8384324041
 21
50.6102535307
  0
LINE
  5
680
100
AcDbEntity
  8
0
100
AcDbLine
 62
7
  6
CONTINUOUS
 10
342.0284325088
 20
50.6417650601
 11
341.9337383551
 21
50.5502975314
  0
LINE
  5
681
100
AcDbEntity
  8
0
100
AcDbLine
 62
7
  6
CONTINUOUS
 10
342.0537500196
 20
50.5720057883
 11
342.0030680444
 21
50.5230507596
  0
LINE
  5
682
100
AcDbEntity
  8
0
100
AcDbLine
 62
7
  6
CONTINUOUS
 10
341.2553608531
 20
49.7363111095
 11
341.188373555
 21
49.6716063482
  0
LINE
  5
683
100
AcDbEntity
  8
0
100
AcDbLine
 62
7
  6
CONTINUOUS
 10
341.4287061364
 20
49.4394629009
 11
341.7201559589
 21
49.7209818116
  0
LINE
  5
684
100
AcDbEntity
  8
0
100
AcDbLine
 62
7
  6
CONTINUOUS
 10
341.6089142437
 20
49.3948047585
 11
341.5419269456
 21
49.3300999972
  0
LINE
  5
685
100
AcDbEntity
  8
0
100
AcDbLine
 62
7
  6
CONTINUOUS
 10
344.2439457603
 20
49.8259787822
 11
344.0372492421
 21
49.6263252771
  0
LINE
  5
686
100
AcDbEntity
  8
0
100
AcDbLine
 62
7
  6
CONTINUOUS
 10
344.6952550815
 20
48.5598675052
 11
344.6060882448
 21
48.4737389548
  0
LINE
  5
687
100
AcDbEntity
  8
0
100
AcDbLine
 62
7
  6
CONTINUOUS
 10
348.326428665
 20
48.9884316505
 11
347.9728752744
 21
48.6469252995
  0
LINE
  5
688
100
AcDbEntity
  8
0
100
AcDbLine
 62
7
  6
CONTINUOUS
 10
348.6799820556
 20
48.517515777
 11
348.326428665
 21
48.176009426
  0
LINE
  5
689
100
AcDbEntity
  8
0
100
AcDbLine
 62
7
  6
CONTINUOUS
 10
350.5667036415
 20
46.0696033214
 11
350.5128153915
 21
46.017551269
  0
LINE
  5
68A
100
AcDbEntity
  8
0
100
AcDbLine
 62
7
  6
CONTINUOUS
 10
350.8074208149
 20
46.0743391678
 11
350.5667036415
 21
45.8418242332
  0
LINE
  5
68B
100
AcDbEntity
  8
0
100
AcDbLine
 62
7
  6
CONTINUOUS
 10
347.9728752744
 20
43.2476904415
 11
347.9058879763
 21
43.1829856802
  0
LINE
  5
68C
100
AcDbEntity
  8
0
100
AcDbLine
 62
7
  6
CONTINUOUS
 10
350.8074208149
 20
45.8370883868
 11
350.6589694695
 21
45.6936953983
  0
LINE
  5
68D
100
AcDbEntity
  8
0
100
AcDbLine
 62
7
  6
CONTINUOUS
 10
350.8074208149
 20
45.7292471128
 11
350.7211996165
 21
45.6459638305
  0
LINE
  5
68E
100
AcDbEntity
  8
0
100
AcDbLine
 62
7
  6
CONTINUOUS
 10
348.326428665
 20
43.2093268295
 11
348.1025231384
 21
42.9930506988
  0
LINE
  5
68F
100
AcDbEntity
  8
0
100
AcDbLine
 62
7
  6
CONTINUOUS
 10
348.6799820556
 20
42.5646777396
 11
348.6129947575
 21
42.4999729783
  0
LINE
  5
690
100
AcDbEntity
  8
0
100
AcDbLine
 62
7
  6
CONTINUOUS
 10
351.8906481795
 20
44.7907710995
 11
351.8348254284
 21
44.7368504625
  0
LINE
  5
691
100
AcDbEntity
  8
0
100
AcDbLine
 62
7
  6
CONTINUOUS
 10
352.0711861017
 20
44.637953091
 11
352.0044347383
 21
44.5734762252
  0
LINE
  5
692
100
AcDbEntity
  8
0
100
AcDbLine
 62
7
  6
CONTINUOUS
 10
352.1915446884
 20
44.586400385
 11
352.0992491722
 21
44.4972497622
  0
LINE
  5
693
100
AcDbEntity
  8
0
100
AcDbLine
 62
7
  6
CONTINUOUS
 10
352.2517240029
 20
44.6361129203
 11
352.1040511636
 21
44.493471911
  0
LINE
  5
694
100
AcDbEntity
  8
0
100
AcDbLine
 62
7
  6
CONTINUOUS
 10
352.4924411974
 20
44.4035979653
 11
352.425689826
 21
44.3391210919
  0
LINE
  5
695
100
AcDbEntity
  8
0
100
AcDbLine
 62
7
  6
CONTINUOUS
 10
333.7827692173
 20
62.4757533323
 11
333.7225899029
 21
62.4260407969
  0
LINE
  5
696
100
AcDbEntity
  8
0
100
AcDbLine
 62
7
  6
CONTINUOUS
 10
340.0282377736
 20
52.1797902703
 11
339.9963551928
 21
52.1568040568
  0
LINE
  5
697
100
AcDbEntity
  8
0
100
AcDbLine
 62
7
  6
CONTINUOUS
 10
340.496310053
 20
51.6521512176
 11
340.4644274722
 21
51.6291650041
  0
LINE
  5
698
100
AcDbEntity
  8
0
100
AcDbLine
 62
7
  6
CONTINUOUS
 10
321.9943131233
 20
69.8386616088
 11
322.0265377563
 21
69.8504644346
  0
LINE
  5
699
100
AcDbEntity
  8
0
100
AcDbLine
 62
7
  6
CONTINUOUS
 10
322.6691199667
 20
69.2198314039
 11
322.6368953337
 21
69.208028578
  0
LINE
  5
69A
100
AcDbEntity
  8
0
100
AcDbLine
 62
7
  6
CONTINUOUS
 10
353.2761761333
 20
44.2073427372
 11
352.9226227427
 21
43.8658363863
  0
LINE
  5
69B
100
AcDbEntity
  8
0
100
AcDbLine
 62
7
  6
CONTINUOUS
 10
352.9226227427
 20
38.4666015282
 11
352.8556354446
 21
38.401896767
  0
LINE
  5
69C
100
AcDbEntity
  8
RUNDUNGEN
100
AcDbLine
 62
7
  6
CONTINUOUS
 10
360.1590443821
 20
32.2019821465
 11
363.113870117
 21
35.056124636
  0
LINE
  5
69D
100
AcDbEntity
  8
0
100
AcDbLine
 62
7
  6
CONTINUOUS
 10
352.2517240029
 20
44.6361129203
 11
352.1915446884
 21
44.586400385
  0
LINE
  5
69E
100
AcDbEntity
  8
0
100
AcDbLine
 62
7
  6
CONTINUOUS
 10
341.38173613
 20
50.7129721726
 11
341.4136187169
 21
50.7359583877
  0
LINE
  5
69F
100
AcDbEntity
  8
RUNDUNGEN
100
AcDbLine
 62
7
  6
CONTINUOUS
 10
368.1192384429
 20
26.8075270419
 11
371.6547723488
 21
30.2225905514
  0
LINE
  5
6A0
100
AcDbEntity
  8
RUNDUNGEN
100
AcDbLine
 62
7
  6
CONTINUOUS
 10
368.0636175853
 20
12.2411586554
 11
371.5991514912
 21
15.6562221649
  0
ARC
  5
6A1
100
AcDbEntity
  8
KONSTRUKTIONSELEMENTE
100
AcDbCircle
 62
7
  6
CONTINUOUS
 10
503.0250896991
 20
67.687694628
 40
35.9892
100
AcDbArc
 50
42.8980709415
 51
64.9991254185
  0
ARC
  5
6A2
100
AcDbEntity
  8
KONSTRUKTIONSELEMENTE
100
AcDbCircle
 62
7
  6
CONTINUOUS
 10
503.0250896991
 20
67.687694628
 40
35.9892
100
AcDbArc
 50
85.0008745815
 51
107.1019290585
  0
ARC
  5
6A3
100
AcDbEntity
  8
0
100
AcDbCircle
 62
7
  6
CONTINUOUS
 10
503.298297209
 20
68.8333224538
 40
20.7886779311
100
AcDbArc
 50
81.796346105
 51
82.1071930506
  0
ARC
  5
6A4
100
AcDbEntity
  8
0
100
AcDbCircle
 62
7
  6
CONTINUOUS
 10
503.3612989683
 20
68.8164411844
 40
20.78867793
100
AcDbArc
 50
67.8928069494
 51
68.203653895
  0
ARC
  5
6A5
100
AcDbEntity
  8
BEZUGSACHSEN
100
AcDbCircle
 62
7
  6
CONTINUOUS
 10
527.0277608866
 20
157.2668830174
 40
15.25
100
AcDbArc
 50
121.1992889705
 51
28.8007110295
  0
ARC
  5
6A6
100
AcDbEntity
  8
0
100
AcDbCircle
 62
7
  6
CONTINUOUS
 10
528.1277418283
 20
161.3720677791
 40
11.0
100
AcDbArc
 50
165.0
 51
345.0
  0
ARC
  5
6A7
100
AcDbEntity
  8
RUNDUNGEN
100
AcDbCircle
 62
7
  6
CONTINUOUS
 10
500.1480784773
 20
141.9520152878
 40
6.5
100
AcDbArc
 50
95.0629909694
 51
165.0
  0
ARC
  5
6A8
100
AcDbEntity
  8
RUNDUNGEN
100
AcDbCircle
 62
7
  6
CONTINUOUS
 10
542.648814834
 20
130.5639773033
 40
6.5
100
AcDbArc
 50
345.0
 51
54.9370090306
  0
ARC
  5
6A9
100
AcDbEntity
  8
KONSTRUKTIONSELEMENTE
100
AcDbCircle
 62
7
  6
CONTINUOUS
 10
518.8231971569
 20
126.647034324
 40
6.25
100
AcDbArc
 50
345.0
 51
165.0
  0
ARC
  5
6AA
100
AcDbEntity
  8
RUNDUNGEN
100
AcDbCircle
 62
7
  6
CONTINUOUS
 10
543.6966324015
 20
132.0570012766
 40
4.6759818432
100
AcDbArc
 50
54.9364356739
 51
57.105190896
  0
ARC
  5
6AB
100
AcDbEntity
  8
RUNDUNGEN
100
AcDbCircle
 62
7
  6
CONTINUOUS
 10
499.987153832
 20
143.7689207605
 40
4.6759818436
100
AcDbArc
 50
92.8948091041
 51
95.063564326
  0
ARC
  5
6AC
100
AcDbEntity
  8
KONSTRUKTIONSELEMENTE
100
AcDbCircle
 62
7
  6
CONTINUOUS
 10
505.9816461126
 20
78.7217133787
 40
2.5
100
AcDbArc
 50
165.0
 51
345.0
  0
ARC
  5
6AD
100
AcDbEntity
  8
KONSTRUKTIONSELEMENTE
100
AcDbCircle
 62
7
  6
CONTINUOUS
 10
511.8088458011
 20
100.4691186819
 40
2.5
100
AcDbArc
 50
345.0
 51
165.0
  0
CIRCLE
  5
6AE
100
AcDbEntity
  8
BEZUGSACHSEN
100
AcDbCircle
 62
7
  6
CONTINUOUS
 10
497.9623511625
 20
118.7263270073
 40
2.5
  0
ARC
  5
6AF
100
AcDbEntity
  8
KONSTRUKTIONSELEMENTE
100
AcDbCircle
 62
7
  6
CONTINUOUS
 10
513.9039873647
 20
108.2882934463
 40
2.25
100
AcDbArc
 50
194.2743903904
 51
315.7256096096
  0
ARC
  5
6B0
100
AcDbEntity
  8
KONSTRUKTIONSELEMENTE
100
AcDbCircle
 62
7
  6
CONTINUOUS
 10
519.6255969117
 20
129.641630977
 40
2.25
100
AcDbArc
 50
345.0
 51
165.0
  0
ARC
  5
6B1
100
AcDbEntity
  8
0
100
AcDbCircle
 62
7
  6
CONTINUOUS
 10
515.8829107554
 20
67.5212410254
 40
2.1292118706
100
AcDbArc
 50
335.5636876714
 51
340.3957076166
  0
ARC
  5
6B2
100
AcDbEntity
  8
0
100
AcDbCircle
 62
7
  6
CONTINUOUS
 10
493.2130617227
 20
72.9415586431
 40
0.416959771
100
AcDbArc
 50
63.8903114983
 51
74.9692795104
  0
ARC
  5
6B3
100
AcDbEntity
  8
0
100
AcDbCircle
 62
7
  6
CONTINUOUS
 10
563.5859510074
 20
293.7039059807
 40
11.0
100
AcDbArc
 50
345.0
 51
165.0
  0
ARC
  5
6B4
100
AcDbEntity
  8
KONSTRUKTIONSELEMENTE
100
AcDbCircle
 62
7
  6
CONTINUOUS
 10
654.6874596378
 20
67.687694628
 40
35.9892
100
AcDbArc
 50
115.0008745815
 51
137.1019290585
  0
ARC
  5
6B5
100
AcDbEntity
  8
KONSTRUKTIONSELEMENTE
100
AcDbCircle
 62
7
  6
CONTINUOUS
 10
654.6874596378
 20
67.687694628
 40
35.9892
100
AcDbArc
 50
72.8980709415
 51
94.9991254185
  0
ARC
  5
6B6
100
AcDbEntity
  8
BEZUGSACHSEN
100
AcDbCircle
 62
7
  6
CONTINUOUS
 10
630.6847884502
 20
157.2668830174
 40
15.25
100
AcDbArc
 50
151.1992889705
 51
58.8007110295
  0
ARC
  5
6B7
100
AcDbEntity
  8
0
100
AcDbCircle
 62
7
  6
CONTINUOUS
 10
629.5848075085
 20
161.3720677791
 40
11.0
100
AcDbArc
 50
195.0
 51
15.0
  0
ARC
  5
6B8
100
AcDbEntity
  8
0
100
AcDbCircle
 62
7
  6
CONTINUOUS
 10
615.0637345028
 20
130.5639773033
 40
6.5
100
AcDbArc
 50
125.0629909694
 51
195.0
  0
ARC
  5
6B9
100
AcDbEntity
  8
0
100
AcDbCircle
 62
7
  6
CONTINUOUS
 10
657.5644708595
 20
141.9520152878
 40
6.5
100
AcDbArc
 50
15.0
 51
84.9370090306
  0
ARC
  5
6BA
100
AcDbEntity
  8
0
100
AcDbCircle
 62
7
  6
CONTINUOUS
 10
638.8893521799
 20
126.647034324
 40
6.25
100
AcDbArc
 50
15.0
 51
195.0
  0
ARC
  5
6BB
100
AcDbEntity
  8
0
100
AcDbCircle
 62
7
  6
CONTINUOUS
 10
614.0159169353
 20
132.0570012766
 40
4.6759818432
100
AcDbArc
 50
122.894809104
 51
125.0635643261
  0
ARC
  5
6BC
100
AcDbEntity
  8
0
100
AcDbCircle
 62
7
  6
CONTINUOUS
 10
657.7253955049
 20
143.7689207605
 40
4.6759818436
100
AcDbArc
 50
84.936435674
 51
87.1051908959
  0
CIRCLE
  5
6BD
100
AcDbEntity
  8
BEZUGSACHSEN
100
AcDbCircle
 62
7
  6
CONTINUOUS
 10
659.7501981744
 20
118.7263270073
 40
2.5
  0
ARC
  5
6BE
100
AcDbEntity
  8
0
100
AcDbCircle
 62
7
  6
CONTINUOUS
 10
578.8562746684
 20
350.6935297318
 40
96.0
100
AcDbArc
 50
180.0
 51
248.4197951239
  0
ARC
  5
6BF
100
AcDbEntity
  8
0
100
AcDbCircle
 62
7
  6
CONTINUOUS
 10
578.8562746684
 20
350.6935297318
 40
96.0
100
AcDbArc
 50
261.5810060806
 51
278.4189939194
  0
ARC
  5
6C0
100
AcDbEntity
  8
0
100
AcDbCircle
 62
7
  6
CONTINUOUS
 10
578.8562746684
 20
350.6935297318
 40
96.0
100
AcDbArc
 50
291.5802048761
 51
360.0
  0
ARC
  5
6C1
100
AcDbEntity
  8
0
100
AcDbCircle
 62
7
  6
CONTINUOUS
 10
578.8562746684
 20
470.6935297318
 40
96.0
100
AcDbArc
 50
0.0
 51
180.0
  0
ARC
  5
6C2
100
AcDbEntity
  8
0
100
AcDbCircle
 62
7
  6
CONTINUOUS
 10
578.8562746684
 20
350.6935297318
 40
70.0
100
AcDbArc
 50
180.0
 51
245.957844169
  0
ARC
  5
6C3
100
AcDbEntity
  8
0
100
AcDbCircle
 62
7
  6
CONTINUOUS
 10
578.8562746684
 20
350.6935297318
 40
70.0
100
AcDbArc
 50
264.0430471025
 51
275.9569528975
  0
ARC
  5
6C4
100
AcDbEntity
  8
0
100
AcDbCircle
 62
7
  6
CONTINUOUS
 10
578.8562746684
 20
350.6935297318
 40
70.0
100
AcDbArc
 50
294.042155831
 51
360.0
  0
ARC
  5
6C5
100
AcDbEntity
  8
0
100
AcDbCircle
 62
7
  6
CONTINUOUS
 10
578.8562746684
 20
470.6935297318
 40
70.0
100
AcDbArc
 50
0.0
 51
180.0
  0
ARC
  5
6C6
100
AcDbEntity
  8
0
100
AcDbCircle
 62
7
  6
CONTINUOUS
 10
594.1265983295
 20
293.7039059807
 40
11.0
100
AcDbArc
 50
15.0
 51
195.0
  0
ARC
  5
6C7
100
AcDbEntity
  8
0
100
AcDbCircle
 62
7
  6
CONTINUOUS
 10
124.7195291274
 20
157.1176828612
 40
68.0533628839
100
AcDbArc
 50
1.1179579149
 51
7.7631075426
  0
ARC
  5
6C8
100
AcDbEntity
  8
0
100
AcDbCircle
 62
7
  6
CONTINUOUS
 10
189.227402898
 20
143.950725514
 40
41.8636985428
100
AcDbArc
 50
268.7681409833
 51
271.2318590167
  0
ARC
  5
6C9
100
AcDbEntity
  8
0
100
AcDbCircle
 62
7
  6
CONTINUOUS
 10
189.227402898
 20
50.3252751477
 40
41.8636985428
100
AcDbArc
 50
88.7681409833
 51
91.2318590167
  0
ARC
  5
6CA
100
AcDbEntity
  8
KONSTRUKTIONSELEMENTE
100
AcDbCircle
 62
7
  6
CONTINUOUS
 10
188.1950361613
 20
106.6229467189
 40
15.9323696343
100
AcDbArc
 50
352.2188103503
 51
0.0345548489
  0
ARC
  5
6CB
100
AcDbEntity
  8
0
100
AcDbCircle
 62
7
  6
CONTINUOUS
 10
189.227402898
 20
267.6935297318
 40
13.0
100
AcDbArc
 50
180.0
 51
360.0
  0
ARC
  5
6CC
100
AcDbEntity
  8
0
100
AcDbCircle
 62
7
  6
CONTINUOUS
 10
188.3317860219
 20
115.8320289878
 40
12.5118777133
100
AcDbArc
 50
259.5268864296
 51
269.979928312
  0
ARC
  5
6CD
100
AcDbEntity
  8
RUNDUNGEN
100
AcDbCircle
 62
7
  6
CONTINUOUS
 10
190.1230197741
 20
115.8320289878
 40
12.5118777133
100
AcDbArc
 50
270.020071688
 51
280.4731135704
  0
ARC
  5
6CE
100
AcDbEntity
  8
BEZUGSACHSEN
100
AcDbCircle
 62
7
  6
CONTINUOUS
 10
189.227402898
 20
180.5168830174
 40
8.0
100
AcDbArc
 50
0.0
 51
27.5650942734
  0
ARC
  5
6CF
100
AcDbEntity
  8
BEZUGSACHSEN
100
AcDbCircle
 62
7
  6
CONTINUOUS
 10
189.227402898
 20
180.5168830174
 40
8.0
100
AcDbArc
 50
152.4349057266
 51
180.0
  0
ARC
  5
6D0
100
AcDbEntity
  8
BEZUGSACHSEN
100
AcDbCircle
 62
7
  6
CONTINUOUS
 10
189.6788431966
 20
120.8980869823
 40
6.6618750325
100
AcDbArc
 50
4.4686945854
 51
5.8512461556
  0
ARC
  5
6D1
100
AcDbEntity
  8
BEZUGSACHSEN
100
AcDbCircle
 62
7
  6
CONTINUOUS
 10
188.7759625994
 20
120.8980869823
 40
6.6618750325
100
AcDbArc
 50
174.1487538444
 51
175.5313054146
  0
ARC
  5
6D2
100
AcDbEntity
  8
BEZUGSACHSEN
100
AcDbCircle
 62
7
  6
CONTINUOUS
 10
189.6942375784
 20
120.8992374558
 40
6.6464378105
100
AcDbArc
 50
2.1757275003
 51
4.4691468841
  0
ARC
  5
6D3
100
AcDbEntity
  8
BEZUGSACHSEN
100
AcDbCircle
 62
7
  6
CONTINUOUS
 10
188.7605682176
 20
120.8992374558
 40
6.6464378106
100
AcDbArc
 50
175.5308531159
 51
177.8242724997
  0
ARC
  5
6D4
100
AcDbEntity
  8
0
100
AcDbCircle
 62
7
  6
CONTINUOUS
 10
182.227402898
 20
143.9520152878
 40
4.5
100
AcDbArc
 50
93.5269446663
 51
180.0
  0
ARC
  5
6D5
100
AcDbEntity
  8
RUNDUNGEN
100
AcDbCircle
 62
7
  6
CONTINUOUS
 10
196.227402898
 20
143.9520152878
 40
4.5
100
AcDbArc
 50
0.0
 51
86.4730553337
  0
ARC
  5
6D6
100
AcDbEntity
  8
RUNDUNGEN
100
AcDbCircle
 62
7
  6
CONTINUOUS
 10
196.4439977699
 20
147.1560600489
 40
1.2889230205
100
AcDbArc
 50
95.5523309875
 51
99.6740715621
  0
ARC
  5
6D7
100
AcDbEntity
  8
0
100
AcDbCircle
 62
7
  6
CONTINUOUS
 10
182.0108080261
 20
147.1560600489
 40
1.2889230205
100
AcDbArc
 50
80.3259284379
 51
84.4476690125
  0
ARC
  5
6D8
100
AcDbEntity
  8
0
100
AcDbCircle
 62
7
  6
CONTINUOUS
 10
189.227402898
 20
553.6935297318
 40
13.0
100
AcDbArc
 50
0.0
 51
180.0
  0
ARC
  5
6D9
100
AcDbEntity
  8
0
100
AcDbCircle
 62
7
  6
CONTINUOUS
 10
253.7352766686
 20
157.1176828612
 40
68.0533628839
100
AcDbArc
 50
172.2368924574
 51
178.8820420851
  0
ARC
  5
6DA
100
AcDbEntity
  8
KONSTRUKTIONSELEMENTE
100
AcDbCircle
 62
7
  6
CONTINUOUS
 10
237.4079526754
 20
108.1397852236
 40
33.1455707138
100
AcDbArc
 50
44.5353474264
 51
45.9812535784
  0
ARC
  5
6DB
100
AcDbEntity
  8
0
100
AcDbCircle
 62
7
  6
CONTINUOUS
 10
325.219033042
 20
96.9303075375
 40
27.788326995
100
AcDbArc
 50
212.7611859226
 51
213.1844850492
  0
ARC
  5
6DC
100
AcDbEntity
  8
KONSTRUKTIONSELEMENTE
100
AcDbCircle
 62
7
  6
CONTINUOUS
 10
300.1089537267
 20
106.2726215767
 40
15.668814122
100
AcDbArc
 50
233.3753354951
 51
233.516058216
  0
ARC
  5
6DD
100
AcDbEntity
  8
KONSTRUKTIONSELEMENTE
100
AcDbCircle
 62
7
  6
CONTINUOUS
 10
240.1463751687
 20
134.4378022615
 40
12.2468399798
100
AcDbArc
 50
55.2809419387
 51
55.561098419
  0
ARC
  5
6DE
100
AcDbEntity
  8
KONSTRUKTIONSELEMENTE
100
AcDbCircle
 62
7
  6
CONTINUOUS
 10
240.336665142
 20
134.7152261047
 40
11.9104261566
100
AcDbArc
 50
55.5613249792
 51
55.7966521662
  0
ARC
  5
6DF
100
AcDbEntity
  8
KONSTRUKTIONSELEMENTE
100
AcDbCircle
 62
7
  6
CONTINUOUS
 10
303.6725092389
 20
85.8239345152
 40
9.5884911875
100
AcDbArc
 50
236.0268349389
 51
236.3676276842
  0
ARC
  5
6E0
100
AcDbEntity
  8
KONSTRUKTIONSELEMENTE
100
AcDbCircle
 62
7
  6
CONTINUOUS
 10
303.6429645787
 20
85.7820310556
 40
9.5372310453
100
AcDbArc
 50
226.0294704665
 51
236.0333563251
  0
ARC
  5
6E1
100
AcDbEntity
  8
KONSTRUKTIONSELEMENTE
100
AcDbCircle
 62
7
  6
CONTINUOUS
 10
303.9677837948
 20
85.4181403677
 40
9.3523666136
100
AcDbArc
 50
45.4559945702
 51
45.9929150436
  0
ARC
  5
6E2
100
AcDbEntity
  8
KONSTRUKTIONSELEMENTE
100
AcDbCircle
 62
7
  6
CONTINUOUS
 10
242.8030472227
 20
144.498739082
 40
9.3523666128
100
AcDbArc
 50
45.4559945702
 51
45.9929150436
  0
ARC
  5
6E3
100
AcDbEntity
  8
KONSTRUKTIONSELEMENTE
100
AcDbCircle
 62
7
  6
CONTINUOUS
 10
294.8916790247
 20
93.6561858703
 40
9.1128567777
100
AcDbArc
 50
155.3174888113
 51
179.9666787515
  0
ARC
  5
6E4
100
AcDbEntity
  8
KONSTRUKTIONSELEMENTE
100
AcDbCircle
 62
7
  6
CONTINUOUS
 10
233.7105372005
 20
152.7388517703
 40
9.0964505595
100
AcDbArc
 50
177.1004097402
 51
179.9796392337
  0
ARC
  5
6E5
100
AcDbEntity
  8
KONSTRUKTIONSELEMENTE
100
AcDbCircle
 62
7
  6
CONTINUOUS
 10
274.6177318981
 20
113.7508624415
 40
7.837498449
100
AcDbArc
 50
45.4162894927
 51
45.9929054455
  0
ARC
  5
6E6
100
AcDbEntity
  8
KONSTRUKTIONSELEMENTE
100
AcDbCircle
 62
7
  6
CONTINUOUS
 10
263.4585268393
 20
124.0865689707
 40
7.6313179319
100
AcDbArc
 50
159.7096533879
 51
179.9791956236
  0
ARC
  5
6E7
100
AcDbEntity
  8
KONSTRUKTIONSELEMENTE
100
AcDbCircle
 62
7
  6
CONTINUOUS
 10
303.6798261485
 20
85.8381297431
 40
4.604370575
100
AcDbArc
 50
242.0199750404
 51
243.5823552669
  0
ARC
  5
6E8
100
AcDbEntity
  8
KONSTRUKTIONSELEMENTE
100
AcDbCircle
 62
7
  6
CONTINUOUS
 10
303.543501823
 20
85.6703957816
 40
4.3878335163
100
AcDbArc
 50
225.9937050332
 51
227.0555598991
  0
ARC
  5
6E9
100
AcDbEntity
  8
KONSTRUKTIONSELEMENTE
100
AcDbCircle
 62
7
  6
CONTINUOUS
 10
242.3787652505
 20
144.7509944954
 40
4.3878335166
100
AcDbArc
 50
225.9937050332
 51
227.0555598991
  0
ARC
  5
6EA
100
AcDbEntity
  8
KONSTRUKTIONSELEMENTE
100
AcDbCircle
 62
7
  6
CONTINUOUS
 10
243.0143568028
 20
144.6154163978
 40
4.1141852319
100
AcDbArc
 50
334.689527825
 51
359.9772912731
  0
ARC
  5
6EB
100
AcDbEntity
  8
KONSTRUKTIONSELEMENTE
100
AcDbCircle
 62
7
  6
CONTINUOUS
 10
304.181766405
 20
85.5344217628
 40
4.1115120645
100
AcDbArc
 50
335.7124157542
 51
359.9827938513
  0
ARC
  5
6EC
100
AcDbEntity
  8
KONSTRUKTIONSELEMENTE
100
AcDbCircle
 62
7
  6
CONTINUOUS
 10
294.8632024488
 20
93.6600791451
 40
4.084359932
100
AcDbArc
 50
179.6607782887
 51
180.0341463988
  0
ARC
  5
6ED
100
AcDbEntity
  8
KONSTRUKTIONSELEMENTE
100
AcDbCircle
 62
7
  6
CONTINUOUS
 10
274.2670832092
 20
113.9518619154
 40
3.3624399508
100
AcDbArc
 50
225.9940708965
 51
227.2341816412
  0
ARC
  5
6EE
100
AcDbEntity
  8
KONSTRUKTIONSELEMENTE
100
AcDbCircle
 62
7
  6
CONTINUOUS
 10
274.8049962103
 20
113.8430465142
 40
3.1286794214
100
AcDbArc
 50
342.3964861857
 51
359.9749659755
  0
ARC
  5
6EF
100
AcDbEntity
  8
0
100
AcDbCircle
 62
7
  6
CONTINUOUS
 10
322.0233630924
 20
65.9111240833
 40
2.4507200786
100
AcDbArc
 50
73.4227411232
 51
74.4713825166
  0
ARC
  5
6F0
100
AcDbEntity
  8
0
100
AcDbCircle
 62
7
  6
CONTINUOUS
 10
341.0334107577
 20
47.4478371517
 40
2.4315780457
100
AcDbArc
 50
72.2129098421
 51
73.4479689093
  0
ARC
  5
6F1
100
AcDbEntity
  8
0
100
AcDbCircle
 62
7
  6
CONTINUOUS
 10
322.066944546
 20
66.0673358853
 40
2.2885428935
100
AcDbArc
 50
74.4756292379
 51
75.1643956869
  0
SPLINE
  5
6F2
100
AcDbEntity
  8
KONSTRUKTIONSELEMENTE
100
AcDbSpline
 62
7
  6
CONTINUOUS
 70
0
 71
3
 72
10
 73
6
 74
0
 42
0.0000001
 43
0.0000001
 44
0.0000000001
 40
0.0
 40
0.0
 40
0.0
 40
0.0
 40
0.3192646009
 40
0.6086079864
 40
1.0
 40
1.0
 40
1.0
 40
1.0
 10
514.7466578244
 20
97.910220848
 30
0.0
 10
514.7022082998
 20
97.7443329637
 30
0.0
 10
514.4819891787
 20
97.4711708791
 30
0.0
 10
514.0268406249
 20
97.1858992591
 30
0.0
 10
513.6787482875
 20
97.058615172
 30
0.0
 10
513.4752778644
 20
97.0045193249
 30
0.0
  0
SPLINE
  5
6F3
100
AcDbEntity
  8
KONSTRUKTIONSELEMENTE
100
AcDbSpline
 62
7
  6
CONTINUOUS
 70
0
 71
3
 72
10
 73
6
 74
0
 42
0.0000001
 43
0.0000001
 44
0.0000000001
 40
0.0
 40
0.0
 40
0.0
 40
0.0
 40
0.3914026107
 40
0.6807340322
 40
1.0
 40
1.0
 40
1.0
 40
1.0
 10
508.6332987855
 20
98.301978031
 30
0.0
 10
508.4841451131
 20
98.4505600615
 30
0.0
 10
508.246381916
 20
98.7348434999
 30
0.0
 10
507.9948193557
 20
99.2094219093
 30
0.0
 10
507.9407301012
 20
99.5560759286
 30
0.0
 10
507.9851770404
 20
99.7219541637
 30
0.0
  0
SPLINE
  5
6F4
100
AcDbEntity
  8
KONSTRUKTIONSELEMENTE
100
AcDbSpline
 62
7
  6
CONTINUOUS
 70
0
 71
3
 72
13
 73
9
 74
0
 42
0.0000001
 43
0.0000001
 44
0.0000000001
 40
0.0
 40
0.0
 40
0.0
 40
0.0
 40
0.1197290731
 40
0.2397365246
 40
0.3609040964
 40
0.4836831257
 40
0.7359942557
 40
1.0
 40
1.0
 40
1.0
 40
1.0
 10
519.0933240427
 20
96.745535145
 30
0.0
 10
519.0029408858
 20
96.4082206113
 30
0.0
 10
518.7517737181
 20
95.7494389821
 30
0.0
 10
518.1828699708
 20
94.8560213924
 30
0.0
 10
517.4479213341
 20
94.0812626129
 30
0.0
 10
516.274006039
 20
93.2230778037
 30
0.0
 10
514.5154531426
 20
92.5170231397
 30
0.0
 10
512.9995935439
 20
92.3573707255
 30
0.0
 10
512.2296285429
 20
92.3670123724
 30
0.0
  0
SPLINE
  5
6F5
100
AcDbEntity
  8
KONSTRUKTIONSELEMENTE
100
AcDbSpline
 62
7
  6
CONTINUOUS
 70
0
 71
3
 72
13
 73
9
 74
0
 42
0.0000001
 43
0.0000001
 44
0.0000000001
 40
0.0
 40
0.0
 40
0.0
 40
0.0
 40
0.2640112835
 40
0.5163080567
 40
0.6390830379
 40
0.7602378991
 40
0.8802701562
 40
1.0
 40
1.0
 40
1.0
 40
1.0
 10
507.3925753981
 20
93.6633527657
 30
0.0
 10
506.7210442477
 20
94.0400272914
 30
0.0
 10
505.4883061841
 20
94.9361858742
 30
0.0
 10
504.3186734675
 20
96.4268475013
 30
0.0
 10
503.73128734
 20
97.7568069974
 30
0.0
 10
503.4821492938
 20
98.7951465163
 30
0.0
 10
503.4363087408
 20
99.8532531364
 30
0.0
 10
503.5481366991
 20
100.5493590482
 30
0.0
 10
503.6385108221
 20
100.8866398667
 30
0.0
  0
SPLINE
  5
6F6
100
AcDbEntity
  8
KONSTRUKTIONSELEMENTE
100
AcDbSpline
 62
7
  6
CONTINUOUS
 70
0
 71
3
 72
9
 73
5
 74
0
 42
0.0000001
 43
0.0000001
 44
0.0000000001
 40
0.0
 40
0.0
 40
0.0
 40
0.0
 40
0.2444683944
 40
1.0
 40
1.0
 40
1.0
 40
1.0
 10
518.0155663767
 20
144.9825779174
 30
0.0
 10
518.2688728542
 20
145.0838445765
 30
0.0
 10
519.3276448181
 20
145.4407894425
 30
0.0
 10
520.4569353052
 20
145.5734685117
 30
0.0
 10
521.2999557335
 20
145.562912051
 30
0.0
  0
SPLINE
  5
6F7
100
AcDbEntity
  8
KONSTRUKTIONSELEMENTE
100
AcDbSpline
 62
7
  6
CONTINUOUS
 70
0
 71
3
 72
9
 73
5
 74
0
 42
0.0000001
 43
0.0000001
 44
0.0000000001
 40
0.0
 40
0.0
 40
0.0
 40
0.0
 40
0.2564950214
 40
1.0
 40
1.0
 40
1.0
 40
1.0
 10
526.1370088783
 20
144.2665716576
 30
0.0
 10
526.3867770234
 20
144.1264719802
 30
0.0
 10
527.3355812526
 20
143.5380059025
 30
0.0
 10
528.1794509701
 20
142.7720072854
 30
0.0
 10
528.6925934398
 20
142.1194789861
 30
0.0
  0
SPLINE
  5
6F8
100
AcDbEntity
  8
KONSTRUKTIONSELEMENTE
100
AcDbSpline
 62
7
  6
CONTINUOUS
 70
0
 71
3
 72
10
 73
6
 74
0
 42
0.0000001
 43
0.0000001
 44
0.0000000001
 40
0.0
 40
0.0
 40
0.0
 40
0.0
 40
0.3116645009
 40
0.6060899939
 40
1.0
 40
1.0
 40
1.0
 40
1.0
 10
522.7992167076
 20
127.9627797313
 30
0.0
 10
522.7481892785
 20
127.7723427733
 30
0.0
 10
522.4709443115
 20
127.4622051738
 30
0.0
 10
521.9169131993
 20
127.1614788878
 30
0.0
 10
521.4925475514
 20
127.0397551296
 30
0.0
 10
521.2476011971
 20
126.9940048781
 30
0.0
  0
SPLINE
  5
6F9
100
AcDbEntity
  8
KONSTRUKTIONSELEMENTE
100
AcDbSpline
 62
7
  6
CONTINUOUS
 70
0
 71
3
 72
10
 73
6
 74
0
 42
0.0000001
 43
0.0000001
 44
0.0000000001
 40
0.0
 40
0.0
 40
0.0
 40
0.0
 40
0.3939255147
 40
0.6883533687
 40
1.0
 40
1.0
 40
1.0
 40
1.0
 10
516.8972923616
 20
128.159550741
 30
0.0
 10
516.7079909146
 20
128.3216591722
 30
0.0
 10
516.4012914354
 20
128.6393080291
 30
0.0
 10
516.0717326827
 20
129.1767963237
 30
0.0
 10
515.986704235
 20
129.5840601924
 30
0.0
 10
516.0377359236
 20
129.774513047
 30
0.0
  0
SPLINE
  5
6FA
100
AcDbEntity
  8
KONSTRUKTIONSELEMENTE
100
AcDbSpline
 62
7
  6
CONTINUOUS
 70
0
 71
3
 72
9
 73
5
 74
0
 42
0.0000001
 43
0.0000001
 44
0.0000000001
 40
0.0
 40
0.0
 40
0.0
 40
0.0
 40
0.4887193927
 40
1.0
 40
1.0
 40
1.0
 40
1.0
 10
524.4399777442
 20
123.4198488293
 30
0.0
 10
523.7935260472
 20
123.0511835817
 30
0.0
 10
522.3394693219
 20
122.5163873914
 30
0.0
 10
520.8038011178
 20
122.3959575869
 30
0.0
 10
520.0258458262
 20
122.4261590386
 30
0.0
  0
SPLINE
  5
6FB
100
AcDbEntity
  8
KONSTRUKTIONSELEMENTE
100
AcDbSpline
 62
7
  6
CONTINUOUS
 70
0
 71
3
 72
9
 73
5
 74
0
 42
0.0000001
 43
0.0000001
 44
0.0000000001
 40
0.0
 40
0.0
 40
0.0
 40
0.0
 40
0.5112935852
 40
1.0
 40
1.0
 40
1.0
 40
1.0
 10
515.6729989941
 20
123.5920544082
 30
0.0
 10
514.9844834944
 20
123.9545719697
 30
0.0
 10
513.7152553182
 20
124.8258067617
 30
0.0
 10
512.723364526
 20
126.0147562997
 30
0.0
 10
512.3476543402
 20
126.6566291146
 30
0.0
  0
SPLINE
  5
6FC
100
AcDbEntity
  8
KONSTRUKTIONSELEMENTE
100
AcDbSpline
 62
7
  6
CONTINUOUS
 70
0
 71
3
 72
9
 73
5
 74
0
 42
0.0000001
 43
0.0000001
 44
0.0000000001
 40
0.0
 40
0.0
 40
0.0
 40
0.0
 40
0.4883932588
 40
1.0
 40
1.0
 40
1.0
 40
1.0
 10
540.5202864407
 20
150.1462338304
 30
0.0
 10
538.4821519835
 20
149.5556383428
 30
0.0
 10
534.1346743783
 20
148.911439838
 30
0.0
 10
529.7667218006
 20
149.2599449775
 30
0.0
 10
527.5811103545
 20
149.6650481553
 30
0.0
  0
SPLINE
  5
6FD
100
AcDbEntity
  8
KONSTRUKTIONSELEMENTE
100
AcDbSpline
 62
7
  6
CONTINUOUS
 70
0
 71
3
 72
9
 73
5
 74
0
 42
0.0000001
 43
0.0000001
 44
0.0000000001
 40
0.0
 40
0.0
 40
0.0
 40
0.0
 40
0.5116009649
 40
1.0
 40
1.0
 40
1.0
 40
1.0
 10
522.7482637258
 20
150.9599430457
 30
0.0
 10
520.6537699437
 20
151.7015519309
 30
0.0
 10
516.6982956222
 20
153.5827305053
 30
0.0
 10
513.2563089421
 20
156.3125873421
 30
0.0
 10
511.7867255582
 20
157.8421542672
 30
0.0
  0
SPLINE
  5
6FE
100
AcDbEntity
  8
KONSTRUKTIONSELEMENTE
100
AcDbSpline
 62
7
  6
CONTINUOUS
 70
0
 71
3
 72
9
 73
5
 74
0
 42
0.0000001
 43
0.0000001
 44
0.0000000001
 40
0.0
 40
0.0
 40
0.0
 40
0.0
 40
0.2342381365
 40
1.0
 40
1.0
 40
1.0
 40
1.0
 10
542.2789169277
 20
157.3636022426
 30
0.0
 10
541.9335145653
 20
157.1595710224
 30
0.0
 10
540.4176781431
 20
156.3587272449
 30
0.0
 10
538.7627452911
 20
155.8356598909
 30
0.0
 10
537.4785138111
 20
155.5697841328
 30
0.0
  0
SPLINE
  5
6FF
100
AcDbEntity
  8
KONSTRUKTIONSELEMENTE
100
AcDbSpline
 62
7
  6
CONTINUOUS
 70
0
 71
3
 72
9
 73
5
 74
0
 42
0.0000001
 43
0.0000001
 44
0.0000000001
 40
0.0
 40
0.0
 40
0.0
 40
0.0
 40
0.2660085388
 40
1.0
 40
1.0
 40
1.0
 40
1.0
 10
517.127666283
 20
161.0233487644
 30
0.0
 10
516.7876260715
 20
161.3263150306
 30
0.0
 10
515.5512905204
 20
162.5101663056
 30
0.0
 10
514.4855236874
 20
163.8819623054
 30
0.0
 10
513.868087003
 20
164.9764743375
 30
0.0
  0
SPLINE
  5
700
100
AcDbEntity
  8
0
100
AcDbSpline
 62
7
  6
CONTINUOUS
 70
0
 71
3
 72
11
 73
7
 74
0
 42
0.0000001
 43
0.0000001
 44
0.0000000001
 40
0.0
 40
0.0
 40
0.0
 40
0.0
 40
0.2192989281
 40
0.4548225453
 40
0.7152180566
 40
1.0
 40
1.0
 40
1.0
 40
1.0
 10
517.8472486132
 20
66.6261064552
 30
0.0
 10
517.9220380269
 20
66.9052243468
 30
0.0
 10
517.953100882
 20
67.5231973716
 30
0.0
 10
517.6346983602
 20
68.4298813649
 30
0.0
 10
517.0047308697
 20
69.2597657954
 30
0.0
 10
516.4340895332
 20
69.7087065707
 30
0.0
 10
516.1163256607
 20
69.9083014716
 30
0.0
  0
SPLINE
  5
701
100
AcDbEntity
  8
0
100
AcDbSpline
 62
7
  6
CONTINUOUS
 70
0
 71
3
 72
17
 73
13
 74
0
 42
0.0000001
 43
0.0000001
 44
0.0000000001
 40
0.0
 40
0.0
 40
0.0
 40
0.0
 40
0.0517809237
 40
0.1054811646
 40
0.2228479209
 40
0.3562855052
 40
0.5
 40
0.6437144948
 40
0.7771520791
 40
0.8945188354
 40
0.9482190763
 40
1.0
 40
1.0
 40
1.0
 40
1.0
 10
505.0299315552
 20
69.3027031374
 30
0.0
 10
505.0072631342
 20
69.2181034384
 30
0.0
 10
504.9854849298
 20
69.0382994212
 30
0.0
 10
505.0423364132
 20
68.6617177071
 30
0.0
 10
505.3085406379
 20
68.2003044496
 30
0.0
 10
505.8338198702
 20
67.7720958742
 30
0.0
 10
506.4987567374
 20
67.4933637115
 30
0.0
 10
507.2139750377
 20
67.4022844117
 30
0.0
 10
507.8829844847
 20
67.5104842999
 30
0.0
 10
508.3442307346
 20
67.7769777902
 30
0.0
 10
508.5817564205
 20
68.0746813795
 30
0.0
 10
508.6527979509
 20
68.2412853283
 30
0.0
 10
508.6754663719
 20
68.3258850273
 30
0.0
  0
SPLINE
  5
702
100
AcDbEntity
  8
0
100
AcDbSpline
 62
7
  6
CONTINUOUS
 70
0
 71
3
 72
12
 73
8
 74
0
 42
0.0000001
 43
0.0000001
 44
0.0000000001
 40
0.0
 40
0.0
 40
0.0
 40
0.0
 40
0.1035930223
 40
0.210949621
 40
0.4457011106
 40
0.7125563401
 40
1.0
 40
1.0
 40
1.0
 40
1.0
 10
503.2436099338
 20
71.9353663427
 30
0.0
 10
503.2675439175
 20
72.0247428145
 30
0.0
 10
503.2905012465
 20
72.2146359094
 30
0.0
 10
503.2302760604
 20
72.6123103806
 30
0.0
 10
502.9490722222
 20
73.0995746626
 30
0.0
 10
502.3947662745
 20
73.5516810674
 30
0.0
 10
501.9310421943
 20
73.7458392612
 30
0.0
 10
501.6830557251
 20
73.8122870354
 30
0.0
  0
SPLINE
  5
703
100
AcDbEntity
  8
0
100
AcDbSpline
 62
7
  6
CONTINUOUS
 70
0
 71
3
 72
9
 73
5
 74
0
 42
0.0000001
 43
0.0000001
 44
0.0000000001
 40
0.0
 40
0.0
 40
0.0
 40
0.0
 40
0.4402133985
 40
1.0
 40
1.0
 40
1.0
 40
1.0
 10
492.1726127484
 20
72.8247971501
 30
0.0
 10
492.1666135264
 20
72.8024077489
 30
0.0
 10
492.1880309255
 20
72.7444129038
 30
0.0
 10
492.2380913888
 20
72.7194061044
 30
0.0
 10
492.2665623233
 20
72.7117773405
 30
0.0
  0
SPLINE
  5
704
100
AcDbEntity
  8
0
100
AcDbSpline
 62
7
  6
CONTINUOUS
 70
0
 71
3
 72
9
 73
5
 74
0
 42
0.0000001
 43
0.0000001
 44
0.0000000001
 40
0.0
 40
0.0
 40
0.0
 40
0.0
 40
0.4402133985
 40
1.0
 40
1.0
 40
1.0
 40
1.0
 10
492.9804823172
 20
72.6522522
 30
0.0
 10
492.9864815392
 20
72.6746416013
 30
0.0
 10
492.96506414
 20
72.7326364463
 30
0.0
 10
492.9150036768
 20
72.7576432458
 30
0.0
 10
492.8865327422
 20
72.7652720097
 30
0.0
  0
SPLINE
  5
705
100
AcDbEntity
  8
0
100
AcDbSpline
 62
7
  6
CONTINUOUS
 70
0
 71
3
 72
9
 73
5
 74
0
 42
0.0000001
 43
0.0000001
 44
0.0000000001
 40
0.0
 40
0.0
 40
0.0
 40
0.0
 40
0.4402133985
 40
1.0
 40
1.0
 40
1.0
 40
1.0
 10
493.5295204228
 20
74.7012903057
 30
0.0
 10
493.5355196448
 20
74.723679707
 30
0.0
 10
493.5141022457
 20
74.781674552
 30
0.0
 10
493.4640417824
 20
74.8066813514
 30
0.0
 10
493.4355708479
 20
74.8143101153
 30
0.0
  0
SPLINE
  5
706
100
AcDbEntity
  8
0
100
AcDbSpline
 62
7
  6
CONTINUOUS
 70
0
 71
3
 72
11
 73
7
 74
0
 42
0.0000001
 43
0.0000001
 44
0.0000000001
 40
0.0
 40
0.0
 40
0.0
 40
0.0
 40
0.2094668498
 40
0.4446559298
 40
0.7120302568
 40
1.0
 40
1.0
 40
1.0
 40
1.0
 10
491.6557333756
 20
74.0833322962
 30
0.0
 10
491.6484579529
 20
74.056180049
 30
0.0
 10
491.6504641547
 20
73.9931336035
 30
0.0
 10
491.7000932254
 20
73.9082532471
 30
0.0
 10
491.7834541087
 20
73.8399543316
 30
0.0
 10
491.8532790881
 20
73.8107848398
 30
0.0
 10
491.8906073129
 20
73.8007827721
 30
0.0
  0
SPLINE
  5
707
100
AcDbEntity
  8
0
100
AcDbSpline
 62
7
  6
CONTINUOUS
 70
0
 71
3
 72
11
 73
7
 74
0
 42
0.0000001
 43
0.0000001
 44
0.0000000001
 40
0.0
 40
0.0
 40
0.0
 40
0.0
 40
0.2094668498
 40
0.4446559298
 40
0.7120302568
 40
1.0
 40
1.0
 40
1.0
 40
1.0
 10
491.1066952699
 20
72.0342941906
 30
0.0
 10
491.0994198472
 20
72.0071419434
 30
0.0
 10
491.101426049
 20
71.9440954978
 30
0.0
 10
491.1510551197
 20
71.8592151415
 30
0.0
 10
491.234416003
 20
71.7909162259
 30
0.0
 10
491.3042409825
 20
71.7617467341
 30
0.0
 10
491.3415692072
 20
71.7517446665
 30
0.0
  0
SPLINE
  5
708
100
AcDbEntity
  8
0
100
AcDbSpline
 62
7
  6
CONTINUOUS
 70
0
 71
3
 72
9
 73
5
 74
0
 42
0.0000001
 43
0.0000001
 44
0.0000000001
 40
0.0
 40
0.0
 40
0.0
 40
0.0
 40
0.2432035461
 40
1.0
 40
1.0
 40
1.0
 40
1.0
 10
496.0618672672
 20
74.8792494587
 30
0.0
 10
496.0661759874
 20
74.8953298215
 30
0.0
 10
496.0783949787
 20
74.9629243101
 30
0.0
 10
496.0669292906
 20
75.0337894555
 30
0.0
 10
496.0485522137
 20
75.0822240734
 30
0.0
  0
SPLINE
  5
709
100
AcDbEntity
  8
0
100
AcDbSpline
 62
7
  6
CONTINUOUS
 70
0
 71
3
 72
9
 73
5
 74
0
 42
0.0000001
 43
0.0000001
 44
0.0000000001
 40
0.0
 40
0.0
 40
0.0
 40
0.0
 40
0.2401326547
 40
1.0
 40
1.0
 40
1.0
 40
1.0
 10
496.0485522137
 20
75.0822240734
 30
0.0
 10
496.0441684788
 20
75.0937778439
 30
0.0
 10
496.0236833753
 20
75.1410404571
 30
0.0
 10
495.9947392137
 20
75.1844319634
 30
0.0
 10
495.9697424599
 20
75.2145026514
 30
0.0
  0
SPLINE
  5
70A
100
AcDbEntity
  8
0
100
AcDbSpline
 62
7
  6
CONTINUOUS
 70
0
 71
3
 72
9
 73
5
 74
0
 42
0.0000001
 43
0.0000001
 44
0.0000000001
 40
0.0
 40
0.0
 40
0.0
 40
0.0
 40
0.2356425559
 40
1.0
 40
1.0
 40
1.0
 40
1.0
 10
495.9697424599
 20
75.2145026514
 30
0.0
 10
495.9473464109
 20
75.2414447339
 30
0.0
 10
495.8415449919
 20
75.3467299891
 30
0.0
 10
495.7018909986
 20
75.4149352937
 30
0.0
 10
495.5921193925
 20
75.4443485069
 30
0.0
  0
SPLINE
  5
70B
100
AcDbEntity
  8
RUNDUNGEN
100
AcDbSpline
 62
7
  6
CONTINUOUS
 70
0
 71
3
 72
11
 73
7
 74
0
 42
0.0000001
 43
0.0000001
 44
0.0000000001
 40
0.0
 40
0.0
 40
0.0
 40
0.0
 40
0.2256934588
 40
0.4632957354
 40
0.7206235605
 40
1.0
 40
1.0
 40
1.0
 40
1.0
 10
473.5972379209
 20
83.3478232473
 30
0.0
 10
473.6193425016
 20
83.4301112
 30
0.0
 10
473.694856974
 20
83.5922231382
 30
0.0
 10
473.8856646782
 20
83.7917467892
 30
0.0
 10
474.1407211397
 20
83.9408647665
 30
0.0
 10
474.3363740653
 20
84.0002017869
 30
0.0
 10
474.4397865273
 20
84.0209426039
 30
0.0
  0
SPLINE
  5
70C
100
AcDbEntity
  8
RUNDUNGEN
100
AcDbSpline
 62
7
  6
CONTINUOUS
 70
0
 71
3
 72
9
 73
5
 74
0
 42
0.0000001
 43
0.0000001
 44
0.0000000001
 40
0.0
 40
0.0
 40
0.0
 40
0.0
 40
0.4805181646
 40
1.0
 40
1.0
 40
1.0
 40
1.0
 10
472.682162244
 20
79.9327193222
 30
0.0
 10
472.6539209279
 20
79.8275589761
 30
0.0
 10
472.644698858
 20
79.5932217187
 30
0.0
 10
472.7282233799
 20
79.3765738514
 30
0.0
 10
472.7865807814
 20
79.2743416971
 30
0.0
  0
SPLINE
  5
70D
100
AcDbEntity
  8
RUNDUNGEN
100
AcDbSpline
 62
7
  6
CONTINUOUS
 70
0
 71
3
 72
11
 73
7
 74
0
 42
0.0000001
 43
0.0000001
 44
0.0000000001
 40
0.0
 40
0.0
 40
0.0
 40
0.0
 40
0.2256919297
 40
0.4632773963
 40
0.7205986282
 40
1.0
 40
1.0
 40
1.0
 40
1.0
 10
466.442509781
 20
96.9874601008
 30
0.0
 10
466.5160156102
 20
97.2619994443
 30
0.0
 10
466.7673733108
 20
97.8029708398
 30
0.0
 10
467.403460796
 20
98.4688714885
 30
0.0
 10
468.2541021508
 20
98.9665256118
 30
0.0
 10
468.9067420756
 20
99.1645119621
 30
0.0
 10
469.251716612
 20
99.2337014352
 30
0.0
  0
SPLINE
  5
70E
100
AcDbEntity
  8
RUNDUNGEN
100
AcDbSpline
 62
7
  6
CONTINUOUS
 70
0
 71
3
 72
10
 73
6
 74
0
 42
0.0000001
 43
0.0000001
 44
0.0000000001
 40
0.0
 40
0.0
 40
0.0
 40
0.0
 40
0.2382860828
 40
0.4819052527
 40
1.0
 40
1.0
 40
1.0
 40
1.0
 10
465.5274462715
 20
93.5723965914
 30
0.0
 10
465.4808207581
 20
93.398253425
 30
0.0
 10
465.4250024962
 20
93.0344595437
 30
0.0
 10
465.4703809867
 20
92.2749772191
 30
0.0
 10
465.6818614116
 20
91.7205909749
 30
0.0
 10
465.8761789813
 20
91.3801799347
 30
0.0
  0
SPLINE
  5
70F
100
AcDbEntity
  8
RUNDUNGEN
100
AcDbSpline
 62
7
  6
CONTINUOUS
 70
0
 71
3
 72
11
 73
7
 74
0
 42
0.0000001
 43
0.0000001
 44
0.0000000001
 40
0.0
 40
0.0
 40
0.0
 40
0.0
 40
0.237780559
 40
0.4809056754
 40
0.7339193747
 40
1.0
 40
1.0
 40
1.0
 40
1.0
 10
513.6595207761
 20
47.4137109581
 30
0.0
 10
513.799536341
 20
47.9362560864
 30
0.0
 10
514.1995393616
 20
48.9654055547
 30
0.0
 10
515.1262742837
 20
50.3680745747
 30
0.0
 10
516.3562679237
 20
51.6049866577
 30
0.0
 10
517.3316120606
 20
52.2827582468
 30
0.0
 10
517.8543829255
 20
52.5880069674
 30
0.0
  0
SPLINE
  5
710
100
AcDbEntity
  8
RUNDUNGEN
100
AcDbSpline
 62
7
  6
CONTINUOUS
 70
0
 71
3
 72
9
 73
5
 74
0
 42
0.0000001
 43
0.0000001
 44
0.0000000001
 40
0.0
 40
0.0
 40
0.0
 40
0.0
 40
0.483225943
 40
1.0
 40
1.0
 40
1.0
 40
1.0
 10
514.3196866375
 20
49.0661485684
 30
0.0
 10
514.297776642
 20
48.255356677
 30
0.0
 10
514.5185982042
 20
46.5634719616
 30
0.0
 10
515.190282089
 20
45.0035764741
 30
0.0
 10
515.6202932342
 20
44.2502707308
 30
0.0
  0
SPLINE
  5
711
100
AcDbEntity
  8
RUNDUNGEN
100
AcDbSpline
 62
7
  6
CONTINUOUS
 70
0
 71
3
 72
10
 73
6
 74
0
 42
0.0000001
 43
0.0000001
 44
0.0000000001
 40
0.0
 40
0.0
 40
0.0
 40
0.0
 40
0.2382826319
 40
0.4819247904
 40
1.0
 40
1.0
 40
1.0
 40
1.0
 10
460.7582078916
 20
41.3114566202
 30
0.0
 10
460.8048794239
 20
41.4856371501
 30
0.0
 10
460.9383547979
 20
41.8287611933
 30
0.0
 10
461.357479037
 20
42.4640159802
 30
0.0
 10
461.8179235858
 20
42.8385282484
 30
0.0
 10
462.1564953136
 20
43.0362221018
 30
0.0
  0
SPLINE
  5
712
100
AcDbEntity
  8
BEZUGSACHSEN
100
AcDbSpline
 62
7
  6
CONTINUOUS
 70
0
 71
3
 72
9
 73
5
 74
0
 42
0.0000001
 43
0.0000001
 44
0.0000000001
 40
0.0
 40
0.0
 40
0.0
 40
0.0
 40
0.4742612099
 40
1.0
 40
1.0
 40
1.0
 40
1.0
 10
501.7830989705
 20
81.9768287875
 30
0.0
 10
501.9500102771
 20
81.5384905018
 30
0.0
 10
502.482019244
 20
80.6800124796
 30
0.0
 10
503.2323564984
 20
80.0173341371
 30
0.0
 10
503.6590003446
 20
79.7201380104
 30
0.0
  0
SPLINE
  5
713
100
AcDbEntity
  8
BEZUGSACHSEN
100
AcDbSpline
 62
7
  6
CONTINUOUS
 70
0
 71
3
 72
9
 73
5
 74
0
 42
0.0000001
 43
0.0000001
 44
0.0000000001
 40
0.0
 40
0.0
 40
0.0
 40
0.0
 40
0.5257387901
 40
1.0
 40
1.0
 40
1.0
 40
1.0
 10
508.4923286675
 20
78.4250515895
 30
0.0
 10
509.01041114
 20
78.469109062
 30
0.0
 10
509.991561435
 20
78.667836714
 30
0.0
 10
510.8815337265
 20
79.1452960063
 30
0.0
 10
511.2452523011
 20
79.4414524439
 30
0.0
  0
SPLINE
  5
714
100
AcDbEntity
  8
BEZUGSACHSEN
100
AcDbSpline
 62
7
  6
CONTINUOUS
 70
0
 71
3
 72
11
 73
7
 74
0
 42
0.0000001
 43
0.0000001
 44
0.0000000001
 40
0.0
 40
0.0
 40
0.0
 40
0.0
 40
0.2211778223
 40
0.4572018266
 40
0.7166414314
 40
1.0
 40
1.0
 40
1.0
 40
1.0
 10
511.3695855481
 20
77.5794089216
 30
0.0
 10
511.4623040635
 20
77.925439132
 30
0.0
 10
511.5095153848
 20
78.6861473168
 30
0.0
 10
511.1513939307
 20
79.8124227525
 30
0.0
 10
510.4194714949
 20
80.8587142824
 30
0.0
 10
509.7466385392
 20
81.4384248917
 30
0.0
 10
509.3700501718
 20
81.7007528385
 30
0.0
  0
SPLINE
  5
715
100
AcDbEntity
  8
BEZUGSACHSEN
100
AcDbSpline
 62
7
  6
CONTINUOUS
 70
0
 71
3
 72
11
 73
7
 74
0
 42
0.0000001
 43
0.0000001
 44
0.0000000001
 40
0.0
 40
0.0
 40
0.0
 40
0.0
 40
0.2833585686
 40
0.5427981734
 40
0.7788221777
 40
1.0
 40
1.0
 40
1.0
 40
1.0
 10
504.5367218489
 20
82.9958392593
 30
0.0
 10
504.0794227826
 20
82.9569507771
 30
0.0
 10
503.2068770458
 20
82.7913231403
 30
0.0
 10
502.0498678578
 20
82.2511693136
 30
0.0
 10
501.1765878631
 20
81.4548469017
 30
0.0
 10
500.8371199743
 20
80.7724486281
 30
0.0
 10
500.7444014589
 20
80.4264184178
 30
0.0
  0
SPLINE
  5
716
100
AcDbEntity
  8
RUNDUNGEN
100
AcDbSpline
 62
7
  6
CONTINUOUS
 70
0
 71
3
 72
10
 73
6
 74
0
 42
0.0000001
 43
0.0000001
 44
0.0000000001
 40
0.0
 40
0.0
 40
0.0
 40
0.0
 40
0.5180750537
 40
0.7617172794
 40
1.0
 40
1.0
 40
1.0
 40
1.0
 10
526.0925943907
 20
25.9045959869
 30
0.0
 10
526.2869591231
 20
25.5641023257
 30
0.0
 10
526.4984596689
 20
25.0095429991
 30
0.0
 10
526.5438045803
 20
24.2498340974
 30
0.0
 10
526.487835629
 20
23.8859421482
 30
0.0
 10
526.4411640792
 20
23.7117615532
 30
0.0
  0
SPLINE
  5
717
100
AcDbEntity
  8
RUNDUNGEN
100
AcDbSpline
 62
7
  6
CONTINUOUS
 70
0
 71
3
 72
11
 73
7
 74
0
 42
0.0000001
 43
0.0000001
 44
0.0000000001
 40
0.0
 40
0.0
 40
0.0
 40
0.0
 40
0.2793755914
 40
0.5367190118
 40
0.774320888
 40
1.0
 40
1.0
 40
1.0
 40
1.0
 10
550.4486313641
 20
76.0074488725
 30
0.0
 10
550.527819934
 20
75.9377795471
 30
0.0
 10
550.6675972235
 20
75.7885583468
 30
0.0
 10
550.8139280479
 20
75.5318795066
 30
0.0
 10
550.8794020829
 20
75.2636753755
 30
0.0
 10
550.8637389473
 20
75.0855282253
 30
0.0
 10
550.841736245
 20
75.0032170208
 30
0.0
  0
SPLINE
  5
718
100
AcDbEntity
  8
RUNDUNGEN
100
AcDbSpline
 62
7
  6
CONTINUOUS
 70
0
 71
3
 72
10
 73
6
 74
0
 42
0.0000001
 43
0.0000001
 44
0.0000000001
 40
0.0
 40
0.0
 40
0.0
 40
0.0
 40
0.4809192537
 40
0.7459271807
 40
1.0
 40
1.0
 40
1.0
 40
1.0
 10
542.3241461596
 20
81.609743811
 30
0.0
 10
542.6298379643
 20
81.7882389004
 30
0.0
 10
543.2281655418
 20
81.8514524102
 30
0.0
 10
543.9365954566
 20
81.6481939543
 30
0.0
 10
544.2690609933
 20
81.4441741419
 30
0.0
 10
544.4094699556
 20
81.320643717
 30
0.0
  0
SPLINE
  5
719
100
AcDbEntity
  8
0
100
AcDbSpline
 62
7
  6
CONTINUOUS
 70
0
 71
3
 72
9
 73
5
 74
0
 42
0.0000001
 43
0.0000001
 44
0.0000000001
 40
0.0
 40
0.0
 40
0.0
 40
0.0
 40
0.242001278
 40
1.0
 40
1.0
 40
1.0
 40
1.0
 10
516.5246999841
 20
84.826988501
 30
0.0
 10
516.1451058557
 20
85.1609516839
 30
0.0
 10
514.5123414976
 20
86.4672022577
 30
0.0
 10
512.6521156459
 20
87.4807828696
 30
0.0
 10
511.1849220533
 20
88.0767644397
 30
0.0
  0
SPLINE
  5
71A
100
AcDbEntity
  8
0
100
AcDbSpline
 62
7
  6
CONTINUOUS
 70
0
 71
3
 72
9
 73
5
 74
0
 42
0.0000001
 43
0.0000001
 44
0.0000000001
 40
0.0
 40
0.0
 40
0.0
 40
0.0
 40
0.2575666797
 40
1.0
 40
1.0
 40
1.0
 40
1.0
 10
506.1530024955
 20
89.4250632216
 30
0.0
 10
505.6200456043
 20
89.4989484432
 30
0.0
 10
503.5412226648
 20
89.7054668074
 30
0.0
 10
501.4243829847
 20
89.5855516752
 30
0.0
 10
499.9037311875
 20
89.2805636674
 30
0.0
  0
SPLINE
  5
71B
100
AcDbEntity
  8
RUNDUNGEN
100
AcDbSpline
 62
7
  6
CONTINUOUS
 70
0
 71
3
 72
13
 73
9
 74
0
 42
0.0000001
 43
0.0000001
 44
0.0000000001
 40
0.0
 40
0.0
 40
0.0
 40
0.0
 40
0.2520973512
 40
0.3837531518
 40
0.5156914539
 40
0.6454036045
 40
0.7706002144
 40
1.0
 40
1.0
 40
1.0
 40
1.0
 10
470.1479285006
 20
99.4134492768
 30
0.0
 10
471.8592967117
 20
99.7566881315
 30
0.0
 10
474.5686022788
 20
99.8342183835
 30
0.0
 10
478.0885775222
 20
99.2017721682
 30
0.0
 10
480.6865302498
 20
98.3548766432
 30
0.0
 10
483.1015343987
 20
97.1720324456
 30
0.0
 10
485.8689908331
 20
95.2708123353
 30
0.0
 10
487.5651375529
 20
93.3980896607
 30
0.0
 10
488.3525338416
 20
92.0187064676
 30
0.0
  0
SPLINE
  5
71C
100
AcDbEntity
  8
0
100
AcDbSpline
 62
7
  6
CONTINUOUS
 70
0
 71
3
 72
11
 73
7
 74
0
 42
0.0000001
 43
0.0000001
 44
0.0000000001
 40
0.0
 40
0.0
 40
0.0
 40
0.0
 40
0.2880052506
 40
0.5553344723
 40
0.7905070702
 40
1.0
 40
1.0
 40
1.0
 40
1.0
 10
490.9556754263
 20
76.6866799234
 30
0.0
 10
490.8810102945
 20
76.7066863852
 30
0.0
 10
490.730899379
 20
76.72600455
 30
0.0
 10
490.5182420215
 20
76.6910067732
 30
0.0
 10
490.3473812335
 20
76.5936813721
 30
0.0
 10
490.2808648646
 20
76.4864746045
 30
0.0
 10
490.2663123094
 20
76.4321637293
 30
0.0
  0
SPLINE
  5
71D
100
AcDbEntity
  8
0
100
AcDbSpline
 62
7
  6
CONTINUOUS
 70
0
 71
3
 72
11
 73
7
 74
0
 42
0.0000001
 43
0.0000001
 44
0.0000000001
 40
0.0
 40
0.0
 40
0.0
 40
0.0
 40
0.2879697432
 40
0.5553440702
 40
0.7905331502
 40
1.0
 40
1.0
 40
1.0
 40
1.0
 10
493.3394960523
 20
73.4125542045
 30
0.0
 10
493.3768242771
 20
73.4025521368
 30
0.0
 10
493.451879229
 20
73.392901168
 30
0.0
 10
493.5582213294
 20
73.4103693223
 30
0.0
 10
493.6436415435
 20
73.4590633318
 30
0.0
 10
493.6769021881
 20
73.5126600543
 30
0.0
 10
493.6841776108
 20
73.5398123015
 30
0.0
  0
SPLINE
  5
71E
100
AcDbEntity
  8
0
100
AcDbSpline
 62
7
  6
CONTINUOUS
 70
0
 71
3
 72
11
 73
7
 74
0
 42
0.0000001
 43
0.0000001
 44
0.0000000001
 40
0.0
 40
0.0
 40
0.0
 40
0.0
 40
0.2879697432
 40
0.5553440702
 40
0.7905331502
 40
1.0
 40
1.0
 40
1.0
 40
1.0
 10
492.7904579466
 20
71.3635160988
 30
0.0
 10
492.8277861714
 20
71.3535140311
 30
0.0
 10
492.9028411233
 20
71.3438630623
 30
0.0
 10
493.0091832237
 20
71.3613312166
 30
0.0
 10
493.0946034379
 20
71.4100252261
 30
0.0
 10
493.1278640824
 20
71.4636219487
 30
0.0
 10
493.1351395051
 20
71.4907741958
 30
0.0
  0
SPLINE
  5
71F
100
AcDbEntity
  8
0
100
AcDbSpline
 62
7
  6
CONTINUOUS
 70
0
 71
3
 72
9
 73
5
 74
0
 42
0.0000001
 43
0.0000001
 44
0.0000000001
 40
0.0
 40
0.0
 40
0.0
 40
0.0
 40
0.5597866015
 40
1.0
 40
1.0
 40
1.0
 40
1.0
 10
492.5082820547
 20
75.0627763986
 30
0.0
 10
492.4798111202
 20
75.0704051626
 30
0.0
 10
492.4239540875
 20
75.0737788706
 30
0.0
 10
492.3764086533
 20
75.0342625611
 30
0.0
 10
492.3704094313
 20
75.0118731598
 30
0.0
  0
SPLINE
  5
720
100
AcDbEntity
  8
0
100
AcDbSpline
 62
7
  6
CONTINUOUS
 70
0
 71
3
 72
9
 73
5
 74
0
 42
0.0000001
 43
0.0000001
 44
0.0000000001
 40
0.0
 40
0.0
 40
0.0
 40
0.0
 40
0.5597866015
 40
1.0
 40
1.0
 40
1.0
 40
1.0
 10
491.959243949
 20
73.013738293
 30
0.0
 10
491.9307730145
 20
73.0213670569
 30
0.0
 10
491.8749159818
 20
73.0247407649
 30
0.0
 10
491.8273705476
 20
72.9852244554
 30
0.0
 10
491.8213713256
 20
72.9628350542
 30
0.0
  0
SPLINE
  5
721
100
AcDbEntity
  8
0
100
AcDbSpline
 62
7
  6
CONTINUOUS
 70
0
 71
3
 72
9
 73
5
 74
0
 42
0.0000001
 43
0.0000001
 44
0.0000000001
 40
0.0
 40
0.0
 40
0.0
 40
0.0
 40
0.5597866015
 40
1.0
 40
1.0
 40
1.0
 40
1.0
 10
492.4694067468
 20
72.657425341
 30
0.0
 10
492.4978776813
 20
72.6497965771
 30
0.0
 10
492.553734714
 20
72.646422869
 30
0.0
 10
492.6012801482
 20
72.6859391786
 30
0.0
 10
492.6072793702
 20
72.7083285798
 30
0.0
  0
SPLINE
  5
722
100
AcDbEntity
  8
0
100
AcDbSpline
 62
7
  6
CONTINUOUS
 70
0
 71
3
 72
11
 73
7
 74
0
 42
0.0000001
 43
0.0000001
 44
0.0000000001
 40
0.0
 40
0.0
 40
0.0
 40
0.0
 40
0.2880001164
 40
0.5553425139
 40
0.7905343079
 40
1.0
 40
1.0
 40
1.0
 40
1.0
 10
501.1200476352
 20
71.7111122388
 30
0.0
 10
501.2548364453
 20
71.674995686
 30
0.0
 10
501.5258275826
 20
71.6401455489
 30
0.0
 10
501.9097668261
 20
71.7032500357
 30
0.0
 10
502.2181844308
 20
71.8790286982
 30
0.0
 10
502.3382535655
 20
72.0725561215
 30
0.0
 10
502.3645215366
 20
72.1705895243
 30
0.0
  0
SPLINE
  5
723
100
AcDbEntity
  8
0
100
AcDbSpline
 62
7
  6
CONTINUOUS
 70
0
 71
3
 72
9
 73
5
 74
0
 42
0.0000001
 43
0.0000001
 44
0.0000000001
 40
0.0
 40
0.0
 40
0.0
 40
0.0
 40
0.2457811574
 40
1.0
 40
1.0
 40
1.0
 40
1.0
 10
516.1163256607
 20
69.9083014716
 30
0.0
 10
516.0994745912
 20
69.9188860215
 30
0.0
 10
516.029218055
 20
69.9592097116
 30
0.0
 10
515.9528395741
 20
69.9887099769
 30
0.0
 10
515.8938554195
 20
70.0045147335
 30
0.0
  0
SPLINE
  5
724
100
AcDbEntity
  8
0
100
AcDbSpline
 62
7
  6
CONTINUOUS
 70
0
 71
3
 72
11
 73
7
 74
0
 42
0.0000001
 43
0.0000001
 44
0.0000000001
 40
0.0
 40
0.0
 40
0.0
 40
0.0
 40
0.2779817175
 40
0.5346952233
 40
0.772857858
 40
1.0
 40
1.0
 40
1.0
 40
1.0
 10
514.8571862108
 20
65.3495979692
 30
0.0
 10
515.0897995406
 20
65.4051669348
 30
0.0
 10
515.5289018082
 20
65.5551840457
 30
0.0
 10
516.0983797485
 20
65.9113743956
 30
0.0
 10
516.5235460849
 20
66.3759239443
 30
0.0
 10
516.6927994359
 20
66.7477681724
 30
0.0
 10
516.7433776918
 20
66.9365287933
 30
0.0
  0
SPLINE
  5
725
100
AcDbEntity
  8
0
100
AcDbSpline
 62
7
  6
CONTINUOUS
 70
0
 71
3
 72
9
 73
5
 74
0
 42
0.0000001
 43
0.0000001
 44
0.0000000001
 40
0.0
 40
0.0
 40
0.0
 40
0.0
 40
0.2591205677
 40
1.0
 40
1.0
 40
1.0
 40
1.0
 10
514.6696887239
 20
65.3545837195
 30
0.0
 10
514.6854234101
 20
65.3503676231
 30
0.0
 10
514.7469692455
 20
65.3375985634
 30
0.0
 10
514.8118851448
 20
65.338776004
 30
0.0
 10
514.8571862108
 20
65.3495979692
 30
0.0
  0
SPLINE
  5
726
100
AcDbEntity
  8
RUNDUNGEN
100
AcDbSpline
 62
7
  6
CONTINUOUS
 70
0
 71
3
 72
11
 73
7
 74
0
 42
0.0000001
 43
0.0000001
 44
0.0000000001
 40
0.0
 40
0.0
 40
0.0
 40
0.0
 40
0.2880068215
 40
0.5553366529
 40
0.7905059061
 40
1.0
 40
1.0
 40
1.0
 40
1.0
 10
464.4860270932
 20
26.8256479893
 30
0.0
 10
464.548248384
 20
26.8089758447
 30
0.0
 10
464.6733413015
 20
26.7928779066
 30
0.0
 10
464.8505558178
 20
26.8220418594
 30
0.0
 10
464.992938803
 20
26.9031471866
 30
0.0
 10
465.048369159
 20
26.9924854975
 30
0.0
 10
465.0604963573
 20
27.0377448177
 30
0.0
  0
SPLINE
  5
727
100
AcDbEntity
  8
RUNDUNGEN
100
AcDbSpline
 62
7
  6
CONTINUOUS
 70
0
 71
3
 72
13
 73
9
 74
0
 42
0.0000001
 43
0.0000001
 44
0.0000000001
 40
0.0
 40
0.0
 40
0.0
 40
0.0
 40
0.1034546555
 40
0.2106690395
 40
0.3244963599
 40
0.4464318111
 40
0.7129511617
 40
1.0
 40
1.0
 40
1.0
 40
1.0
 10
458.3015357795
 20
32.1430314803
 30
0.0
 10
458.2414554011
 20
31.9188084557
 30
0.0
 10
458.183557476
 20
31.4424493269
 30
0.0
 10
458.2938137033
 20
30.7149558277
 30
0.0
 10
458.5912127735
 20
29.9978287437
 30
0.0
 10
459.2360960302
 20
29.0651236519
 30
0.0
 10
460.4314718674
 20
28.0856896842
 30
0.0
 10
461.5939645007
 20
27.6005738254
 30
0.0
 10
462.2161014014
 20
27.4338727453
 30
0.0
  0
SPLINE
  5
728
100
AcDbEntity
  8
RUNDUNGEN
100
AcDbSpline
 62
7
  6
CONTINUOUS
 70
0
 71
3
 72
10
 73
6
 74
0
 42
0.0000001
 43
0.0000001
 44
0.0000000001
 40
0.0
 40
0.0
 40
0.0
 40
0.0
 40
0.4808964563
 40
0.7459158441
 40
1.0
 40
1.0
 40
1.0
 40
1.0
 10
467.6947057708
 20
88.19443303
 30
0.0
 10
467.8701868972
 20
87.8870202064
 30
0.0
 10
468.3567307552
 20
87.5331120017
 30
0.0
 10
469.0718764364
 20
87.3549105481
 30
0.0
 10
469.4618279511
 20
87.3653614863
 30
0.0
 10
469.6451992002
 20
87.4021391576
 30
0.0
  0
SPLINE
  5
729
100
AcDbEntity
  8
RUNDUNGEN
100
AcDbSpline
 62
7
  6
CONTINUOUS
 70
0
 71
3
 72
9
 73
5
 74
0
 42
0.0000001
 43
0.0000001
 44
0.0000000001
 40
0.0
 40
0.0
 40
0.0
 40
0.0
 40
0.5194816775
 40
1.0
 40
1.0
 40
1.0
 40
1.0
 10
549.5070490843
 20
71.0701690326
 30
0.0
 10
549.6087127512
 20
71.1295309947
 30
0.0
 10
549.7893856332
 20
71.2754064425
 30
0.0
 10
549.8985653976
 20
71.4829854721
 30
0.0
 10
549.9266809914
 20
71.5881891048
 30
0.0
  0
SPLINE
  5
72A
100
AcDbEntity
  8
RUNDUNGEN
100
AcDbSpline
 62
7
  6
CONTINUOUS
 70
0
 71
3
 72
13
 73
9
 74
0
 42
0.0000001
 43
0.0000001
 44
0.0000000001
 40
0.0
 40
0.0
 40
0.0
 40
0.0
 40
0.2870490624
 40
0.5535683755
 40
0.6755038246
 40
0.7893311355
 40
0.8965454157
 40
1.0
 40
1.0
 40
1.0
 40
1.0
 10
518.2397993262
 20
12.4223681293
 30
0.0
 10
518.8619367124
 20
12.2556669191
 30
0.0
 10
520.1112432682
 20
12.0945432983
 30
0.0
 10
521.6361864373
 20
12.3450705597
 30
0.0
 10
522.6610240405
 20
12.8303754735
 30
0.0
 10
523.2771423209
 20
13.3027263168
 30
0.0
 10
523.7363733776
 20
13.8776258114
 30
0.0
 10
523.9244116301
 20
14.319113543
 30
0.0
 10
523.9844919671
 20
14.5433364133
 30
0.0
  0
SPLINE
  5
72B
100
AcDbEntity
  8
RUNDUNGEN
100
AcDbSpline
 62
7
  6
CONTINUOUS
 70
0
 71
3
 72
11
 73
7
 74
0
 42
0.0000001
 43
0.0000001
 44
0.0000000001
 40
0.0
 40
0.0
 40
0.0
 40
0.0
 40
0.2094942263
 40
0.444667264
 40
0.7119932261
 40
1.0
 40
1.0
 40
1.0
 40
1.0
 10
515.5784170722
 20
13.5015087588
 30
0.0
 10
515.5662898673
 20
13.4562494138
 30
0.0
 10
515.5696251727
 20
13.3511640913
 30
0.0
 10
515.6523801492
 20
13.2097334654
 30
0.0
 10
515.7912704702
 20
13.0958697099
 30
0.0
 10
515.9076523591
 20
13.0472650258
 30
0.0
 10
515.9698736344
 20
13.0305928853
 30
0.0
  0
SPLINE
  5
72C
100
AcDbEntity
  8
RUNDUNGEN
100
AcDbSpline
 62
7
  6
CONTINUOUS
 70
0
 71
3
 72
10
 73
6
 74
0
 42
0.0000001
 43
0.0000001
 44
0.0000000001
 40
0.0
 40
0.0
 40
0.0
 40
0.0
 40
0.47201694
 40
0.7322443513
 40
1.0
 40
1.0
 40
1.0
 40
1.0
 10
502.6592223066
 20
26.9425994209
 30
0.0
 10
503.0066966209
 20
26.3338840434
 30
0.0
 10
503.8064153109
 20
25.5321230071
 30
0.0
 10
505.0984994365
 20
24.7969814015
 30
0.0
 10
505.841169629
 20
24.5291806348
 30
0.0
 10
506.2252182401
 20
24.4262751196
 30
0.0
  0
SPLINE
  5
72D
100
AcDbEntity
  8
RUNDUNGEN
100
AcDbSpline
 62
7
  6
CONTINUOUS
 70
0
 71
3
 72
10
 73
6
 74
0
 42
0.0000001
 43
0.0000001
 44
0.0000000001
 40
0.0
 40
0.0
 40
0.0
 40
0.0
 40
0.2677558652
 40
0.5279833681
 40
1.0
 40
1.0
 40
1.0
 40
1.0
 10
478.622987333
 20
31.8222706005
 30
0.0
 10
479.0070362566
 20
31.7193650015
 30
0.0
 10
479.7841083659
 20
31.5799521317
 30
0.0
 10
481.270656868
 20
31.5705616569
 30
0.0
 10
482.3641136716
 20
31.8650478081
 30
0.0
 10
482.9693925518
 20
32.2184734028
 30
0.0
  0
SPLINE
  5
72E
100
AcDbEntity
  8
RUNDUNGEN
100
AcDbSpline
 62
7
  6
CONTINUOUS
 70
0
 71
3
 72
13
 73
9
 74
0
 42
0.0000001
 43
0.0000001
 44
0.0000000001
 40
0.0
 40
0.0
 40
0.0
 40
0.0
 40
0.1034546555
 40
0.2106690395
 40
0.3244963599
 40
0.4464318111
 40
0.7129511617
 40
1.0
 40
1.0
 40
1.0
 40
1.0
 10
466.2500789196
 20
31.47732738
 30
0.0
 10
466.310159298
 20
31.7015504045
 30
0.0
 10
466.4981977884
 20
32.143038474
 30
0.0
 10
466.9574292318
 20
32.7179382117
 30
0.0
 10
467.5735479237
 20
33.1902889491
 30
0.0
 10
468.5983857523
 20
33.6755936245
 30
0.0
 10
470.1233285782
 20
33.9261204032
 30
0.0
 10
471.3726346598
 20
33.7649967441
 30
0.0
 10
471.9947715605
 20
33.5982956639
 30
0.0
  0
SPLINE
  5
72F
100
AcDbEntity
  8
RUNDUNGEN
100
AcDbSpline
 62
7
  6
CONTINUOUS
 70
0
 71
3
 72
13
 73
9
 74
0
 42
0.0000001
 43
0.0000001
 44
0.0000000001
 40
0.0
 40
0.0
 40
0.0
 40
0.0
 40
0.2870490624
 40
0.5535683755
 40
0.6755038246
 40
0.7893311355
 40
0.8965454157
 40
1.0
 40
1.0
 40
1.0
 40
1.0
 10
512.8534340125
 20
22.6502500561
 30
0.0
 10
513.4755713988
 20
22.4835488459
 30
0.0
 10
514.6380644236
 20
21.9984327168
 30
0.0
 10
515.8334403166
 20
21.0189981595
 30
0.0
 10
516.4783232589
 20
20.086292974
 30
0.0
 10
516.7757219198
 20
19.369166004
 30
0.0
 10
516.8859779338
 20
18.6416729087
 30
0.0
 10
516.8280799715
 20
18.1653141914
 30
0.0
 10
516.7679996345
 20
17.9410913211
 30
0.0
  0
SPLINE
  5
730
100
AcDbEntity
  8
RUNDUNGEN
100
AcDbSpline
 62
7
  6
CONTINUOUS
 70
0
 71
3
 72
13
 73
9
 74
0
 42
0.0000001
 43
0.0000001
 44
0.0000000001
 40
0.0
 40
0.0
 40
0.0
 40
0.0
 40
0.2360077172
 40
0.3661261163
 40
0.500000078
 40
0.6338740716
 40
0.7639924399
 40
1.0
 40
1.0
 40
1.0
 40
1.0
 10
489.4461888796
 20
36.0003096245
 30
0.0
 10
490.1725216671
 20
36.4244192469
 30
0.0
 10
491.4844686793
 20
36.7778832308
 30
0.0
 10
493.2689402427
 20
36.7664071659
 30
0.0
 10
494.6723456565
 20
36.5148257096
 30
0.0
 10
496.013520918
 20
36.0309986836
 30
0.0
 10
497.564655989
 20
35.1487013966
 30
0.0
 10
498.5241027056
 20
34.1866194403
 30
0.0
 10
498.9410702624
 20
33.4561638257
 30
0.0
  0
SPLINE
  5
731
100
AcDbEntity
  8
RUNDUNGEN
100
AcDbSpline
 62
7
  6
CONTINUOUS
 70
0
 71
3
 72
9
 73
5
 74
0
 42
0.0000001
 43
0.0000001
 44
0.0000000001
 40
0.0
 40
0.0
 40
0.0
 40
0.0
 40
0.5167739528
 40
1.0
 40
1.0
 40
1.0
 40
1.0
 10
480.3986115232
 20
53.6878919014
 30
0.0
 10
481.1476603898
 20
54.1252655645
 30
0.0
 10
482.5092958227
 20
55.1403256752
 30
0.0
 10
483.5464726144
 20
56.495118854
 30
0.0
 10
483.9328944676
 20
57.2082346887
 30
0.0
  0
SPLINE
  5
732
100
AcDbEntity
  8
RUNDUNGEN
100
AcDbSpline
 62
7
  6
CONTINUOUS
 70
0
 71
3
 72
11
 73
7
 74
0
 42
0.0000001
 43
0.0000001
 44
0.0000000001
 40
0.0
 40
0.0
 40
0.0
 40
0.0
 40
0.2660806488
 40
0.5190943636
 40
0.7622194616
 40
1.0
 40
1.0
 40
1.0
 40
1.0
 10
482.6327012145
 20
62.0256281379
 30
0.0
 10
482.9328097695
 20
61.4998894435
 30
0.0
 10
483.4385968476
 20
60.4252497214
 30
0.0
 10
483.8853465398
 20
58.7390553246
 30
0.0
 10
483.9865878566
 20
57.0609406733
 30
0.0
 10
483.8184257344
 20
55.9696695527
 30
0.0
 10
483.6784101632
 20
55.4471244012
 30
0.0
  0
SPLINE
  5
733
100
AcDbEntity
  8
RUNDUNGEN
100
AcDbSpline
 62
7
  6
CONTINUOUS
 70
0
 71
3
 72
11
 73
7
 74
0
 42
0.0000001
 43
0.0000001
 44
0.0000000001
 40
0.0
 40
0.0
 40
0.0
 40
0.0
 40
0.2524507309
 40
0.5157647478
 40
0.7702968692
 40
1.0
 40
1.0
 40
1.0
 40
1.0
 10
473.2300467545
 20
88.1211305242
 30
0.0
 10
473.5356657478
 20
88.1824266921
 30
0.0
 10
474.183710917
 20
88.2010862236
 30
0.0
 10
475.116406788
 20
87.9651040001
 30
0.0
 10
475.9281934005
 20
87.5018908204
 30
0.0
 10
476.340265744
 20
87.0469537558
 30
0.0
 10
476.4808691369
 20
86.8006407368
 30
0.0
  0
SPLINE
  5
734
100
AcDbEntity
  8
RUNDUNGEN
100
AcDbSpline
 62
7
  6
CONTINUOUS
 70
0
 71
3
 72
9
 73
5
 74
0
 42
0.0000001
 43
0.0000001
 44
0.0000000001
 40
0.0
 40
0.0
 40
0.0
 40
0.0
 40
0.5194825986
 40
1.0
 40
1.0
 40
1.0
 40
1.0
 10
478.3398076328
 20
83.5440994566
 30
0.0
 10
478.4370782744
 20
83.3736979826
 30
0.0
 10
478.5762937256
 20
83.0125844477
 30
0.0
 10
478.5608993696
 20
82.6219871894
 30
0.0
 10
478.5138112152
 20
82.4467096563
 30
0.0
  0
SPLINE
  5
735
100
AcDbEntity
  8
RUNDUNGEN
100
AcDbSpline
 62
7
  6
CONTINUOUS
 70
0
 71
3
 72
11
 73
7
 74
0
 42
0.0000001
 43
0.0000001
 44
0.0000000001
 40
0.0
 40
0.0
 40
0.0
 40
0.0
 40
0.2524375529
 40
0.5157480446
 40
0.7702932073
 40
1.0
 40
1.0
 40
1.0
 40
1.0
 10
525.5834420969
 20
76.8571962341
 30
0.0
 10
526.0514693279
 20
76.4454304768
 30
0.0
 10
527.1552146034
 20
75.7650849082
 30
0.0
 10
529.0066512964
 20
75.2410669255
 30
0.0
 10
530.875957051
 20
75.2316006798
 30
0.0
 10
532.0446681518
 20
75.6075012974
 30
0.0
 10
532.5345214169
 20
75.8935292543
 30
0.0
  0
SPLINE
  5
736
100
AcDbEntity
  8
RUNDUNGEN
100
AcDbSpline
 62
7
  6
CONTINUOUS
 70
0
 71
3
 72
11
 73
7
 74
0
 42
0.0000001
 43
0.0000001
 44
0.0000000001
 40
0.0
 40
0.0
 40
0.0
 40
0.0
 40
0.2297109937
 40
0.4842558728
 40
0.7475644511
 40
1.0
 40
1.0
 40
1.0
 40
1.0
 10
488.9210269799
 20
91.022804034
 30
0.0
 10
489.2022435154
 20
90.530160916
 30
0.0
 10
490.0264370929
 20
89.6202604612
 30
0.0
 10
491.6500450663
 20
88.6938113698
 30
0.0
 10
493.5154362248
 20
88.2219143289
 30
0.0
 10
494.8114702475
 20
88.2592394419
 30
0.0
 10
495.4226717445
 20
88.3818244593
 30
0.0
  0
SPLINE
  5
737
100
AcDbEntity
  8
0
100
AcDbSpline
 62
7
  6
CONTINUOUS
 70
0
 71
3
 72
11
 73
7
 74
0
 42
0.0000001
 43
0.0000001
 44
0.0000000001
 40
0.0
 40
0.0
 40
0.0
 40
0.0
 40
0.2094656921
 40
0.4446574861
 40
0.7119998836
 40
1.0
 40
1.0
 40
1.0
 40
1.0
 10
502.3645215366
 20
72.1705895243
 30
0.0
 10
502.3907895077
 20
72.2686229271
 30
0.0
 10
502.3835702985
 20
72.4962571593
 30
0.0
 10
502.2043621491
 20
72.8026947489
 30
0.0
 10
501.9034132541
 20
73.0493144593
 30
0.0
 10
501.6513029765
 20
73.1546289239
 30
0.0
 10
501.5165141664
 20
73.1907454767
 30
0.0
  0
SPLINE
  5
738
100
AcDbEntity
  8
0
100
AcDbSpline
 62
7
  6
CONTINUOUS
 70
0
 71
3
 72
9
 73
5
 74
0
 42
0.0000001
 43
0.0000001
 44
0.0000000001
 40
0.0
 40
0.0
 40
0.0
 40
0.0
 40
0.4402133985
 40
1.0
 40
1.0
 40
1.0
 40
1.0
 10
492.1398134269
 20
74.1512771554
 30
0.0
 10
492.1338142049
 20
74.1288877542
 30
0.0
 10
492.155231604
 20
74.0708929092
 30
0.0
 10
492.2052920673
 20
74.0458861097
 30
0.0
 10
492.2337630018
 20
74.0382573458
 30
0.0
  0
SPLINE
  5
739
100
AcDbEntity
  8
0
100
AcDbSpline
 62
7
  6
CONTINUOUS
 70
0
 71
3
 72
11
 73
7
 74
0
 42
0.0000001
 43
0.0000001
 44
0.0000000001
 40
0.0
 40
0.0
 40
0.0
 40
0.0
 40
0.2094929298
 40
0.4446655277
 40
0.7119947494
 40
1.0
 40
1.0
 40
1.0
 40
1.0
 10
489.0584284769
 20
71.9242798968
 30
0.0
 10
489.0438759218
 20
71.8699690216
 30
0.0
 10
489.0478774033
 20
71.7438670529
 30
0.0
 10
489.1471844856
 20
71.5741503891
 30
0.0
 10
489.3138522711
 20
71.4375127466
 30
0.0
 10
489.4535112197
 20
71.3791873104
 30
0.0
 10
489.5281763516
 20
71.3591808486
 30
0.0
  0
SPLINE
  5
73A
100
AcDbEntity
  8
0
100
AcDbSpline
 62
7
  6
CONTINUOUS
 70
0
 71
3
 72
9
 73
5
 74
0
 42
0.0000001
 43
0.0000001
 44
0.0000000001
 40
0.0
 40
0.0
 40
0.0
 40
0.0
 40
0.471076254
 40
1.0
 40
1.0
 40
1.0
 40
1.0
 10
493.4645623685
 20
72.7201970592
 30
0.0
 10
493.4718377912
 20
72.7473493064
 30
0.0
 10
493.4698990923
 20
72.8103272111
 30
0.0
 10
493.4386871359
 20
72.8635566194
 30
0.0
 10
493.418511288
 20
72.8878278362
 30
0.0
  0
SPLINE
  5
73B
100
AcDbEntity
  8
0
100
AcDbSpline
 62
7
  6
CONTINUOUS
 70
0
 71
3
 72
8
 73
4
 74
0
 42
0.0000001
 43
0.0000001
 44
0.0000000001
 40
0.0
 40
0.0
 40
0.0
 40
0.0
 40
1.0
 40
1.0
 40
1.0
 40
1.0
 10
493.418511288
 20
72.8878278362
 30
0.0
 10
493.4073111141
 20
72.901301463
 30
0.0
 10
493.394784763
 20
72.9137412401
 30
0.0
 10
493.3814213604
 20
72.9250727001
 30
0.0
  0
SPLINE
  5
73C
100
AcDbEntity
  8
0
100
AcDbSpline
 62
7
  6
CONTINUOUS
 70
0
 71
3
 72
9
 73
5
 74
0
 42
0.0000001
 43
0.0000001
 44
0.0000000001
 40
0.0
 40
0.0
 40
0.0
 40
0.0
 40
0.241609722
 40
1.0
 40
1.0
 40
1.0
 40
1.0
 10
493.3814213604
 20
72.9250727001
 30
0.0
 10
493.3709025884
 20
72.9339920636
 30
0.0
 10
493.3250863851
 20
72.9681802969
 30
0.0
 10
493.2715029344
 20
72.991542421
 30
0.0
 10
493.2296884312
 20
73.0027465833
 30
0.0
  0
SPLINE
  5
73D
100
AcDbEntity
  8
0
100
AcDbSpline
 62
7
  6
CONTINUOUS
 70
0
 71
3
 72
11
 73
7
 74
0
 42
0.0000001
 43
0.0000001
 44
0.0000000001
 40
0.0
 40
0.0
 40
0.0
 40
0.0
 40
0.2880052506
 40
0.5553344723
 40
0.7905070702
 40
1.0
 40
1.0
 40
1.0
 40
1.0
 10
494.1646203178
 20
70.1168494321
 30
0.0
 10
494.2392854496
 20
70.0968429703
 30
0.0
 10
494.3893963651
 20
70.0775248055
 30
0.0
 10
494.6020537225
 20
70.1125225822
 30
0.0
 10
494.7729145106
 20
70.2098479834
 30
0.0
 10
494.8394308795
 20
70.317054751
 30
0.0
 10
494.8539834347
 20
70.3713656262
 30
0.0
  0
SPLINE
  5
73E
100
AcDbEntity
  8
0
100
AcDbSpline
 62
7
  6
CONTINUOUS
 70
0
 71
3
 72
9
 73
5
 74
0
 42
0.0000001
 43
0.0000001
 44
0.0000000001
 40
0.0
 40
0.0
 40
0.0
 40
0.0
 40
0.2445376398
 40
1.0
 40
1.0
 40
1.0
 40
1.0
 10
489.1499348279
 20
72.2657862477
 30
0.0
 10
489.1463525852
 20
72.2524171362
 30
0.0
 10
489.1355482868
 20
72.196735411
 30
0.0
 10
489.1407297906
 20
72.1383776105
 30
0.0
 10
489.1520293058
 20
72.0971388047
 30
0.0
  0
SPLINE
  5
73F
100
AcDbEntity
  8
0
100
AcDbSpline
 62
7
  6
CONTINUOUS
 70
0
 71
3
 72
9
 73
5
 74
0
 42
0.0000001
 43
0.0000001
 44
0.0000000001
 40
0.0
 40
0.0
 40
0.0
 40
0.0
 40
0.238285514
 40
1.0
 40
1.0
 40
1.0
 40
1.0
 10
489.1520293058
 20
72.0971388047
 30
0.0
 10
489.1560216523
 20
72.0825683034
 30
0.0
 10
489.1765955249
 20
72.0224748524
 30
0.0
 10
489.2111655541
 20
71.9676625277
 30
0.0
 10
489.242036989
 20
71.9305246939
 30
0.0
  0
SPLINE
  5
740
100
AcDbEntity
  8
0
100
AcDbSpline
 62
7
  6
CONTINUOUS
 70
0
 71
3
 72
9
 73
5
 74
0
 42
0.0000001
 43
0.0000001
 44
0.0000000001
 40
0.0
 40
0.0
 40
0.0
 40
0.0
 40
0.2355596553
 40
1.0
 40
1.0
 40
1.0
 40
1.0
 10
489.242036989
 20
71.9305246939
 30
0.0
 10
489.2644253687
 20
71.9035918375
 30
0.0
 10
489.3702934473
 20
71.7983728092
 30
0.0
 10
489.5098981621
 20
71.7301038785
 30
0.0
 10
489.6196827025
 20
71.7006871996
 30
0.0
  0
SPLINE
  5
741
100
AcDbEntity
  8
0
100
AcDbSpline
 62
7
  6
CONTINUOUS
 70
0
 71
3
 72
11
 73
7
 74
0
 42
0.0000001
 43
0.0000001
 44
0.0000000001
 40
0.0
 40
0.0
 40
0.0
 40
0.0
 40
0.2879697432
 40
0.5553440702
 40
0.7905331502
 40
1.0
 40
1.0
 40
1.0
 40
1.0
 10
491.7807996918
 20
73.390975151
 30
0.0
 10
491.743471467
 20
73.4009772187
 30
0.0
 10
491.6684165151
 20
73.4106281875
 30
0.0
 10
491.5620744147
 20
73.3931600332
 30
0.0
 10
491.4766542005
 20
73.3444660237
 30
0.0
 10
491.443393556
 20
73.2908693011
 30
0.0
 10
491.4361181333
 20
73.263717054
 30
0.0
  0
SPLINE
  5
742
100
AcDbEntity
  8
RUNDUNGEN
100
AcDbSpline
 62
7
  6
CONTINUOUS
 70
0
 71
3
 72
11
 73
7
 74
0
 42
0.0000001
 43
0.0000001
 44
0.0000000001
 40
0.0
 40
0.0
 40
0.0
 40
0.0
 40
0.237780559
 40
0.4809056754
 40
0.7339193747
 40
1.0
 40
1.0
 40
1.0
 40
1.0
 10
483.6784101632
 20
55.4471244012
 30
0.0
 10
483.5383945982
 20
54.9245792729
 30
0.0
 10
483.1383915776
 20
53.8954298046
 30
0.0
 10
482.2116566556
 20
52.4927607845
 30
0.0
 10
480.9816630155
 20
51.2558487016
 30
0.0
 10
480.0063188787
 20
50.5780771125
 30
0.0
 10
479.4835480137
 20
50.2728283919
 30
0.0
  0
SPLINE
  5
743
100
AcDbEntity
  8
0
100
AcDbSpline
 62
7
  6
CONTINUOUS
 70
0
 71
3
 72
11
 73
7
 74
0
 42
0.0000001
 43
0.0000001
 44
0.0000000001
 40
0.0
 40
0.0
 40
0.0
 40
0.0
 40
0.2879697432
 40
0.5553440702
 40
0.7905331502
 40
1.0
 40
1.0
 40
1.0
 40
1.0
 10
492.3298377974
 20
75.4400132567
 30
0.0
 10
492.2925095727
 20
75.4500153244
 30
0.0
 10
492.2174546208
 20
75.4596662932
 30
0.0
 10
492.1111125204
 20
75.4421981389
 30
0.0
 10
492.0256923062
 20
75.3935041294
 30
0.0
 10
491.9924316617
 20
75.3399074068
 30
0.0
 10
491.985156239
 20
75.3127551596
 30
0.0
  0
SPLINE
  5
744
100
AcDbEntity
  8
0
100
AcDbSpline
 62
7
  6
CONTINUOUS
 70
0
 71
3
 72
9
 73
5
 74
0
 42
0.0000001
 43
0.0000001
 44
0.0000000001
 40
0.0
 40
0.0
 40
0.0
 40
0.0
 40
0.5597866015
 40
1.0
 40
1.0
 40
1.0
 40
1.0
 10
492.6508889973
 20
74.1461040145
 30
0.0
 10
492.6224180627
 20
74.1537327784
 30
0.0
 10
492.5665610301
 20
74.1571064864
 30
0.0
 10
492.5190155959
 20
74.1175901769
 30
0.0
 10
492.5130163739
 20
74.0952007756
 30
0.0
  0
SPLINE
  5
745
100
AcDbEntity
  8
0
100
AcDbSpline
 62
7
  6
CONTINUOUS
 70
0
 71
3
 72
9
 73
5
 74
0
 42
0.0000001
 43
0.0000001
 44
0.0000000001
 40
0.0
 40
0.0
 40
0.0
 40
0.0
 40
0.5597866015
 40
1.0
 40
1.0
 40
1.0
 40
1.0
 10
493.1610517951
 20
73.7897910625
 30
0.0
 10
493.1895227296
 20
73.7821622986
 30
0.0
 10
493.2453797623
 20
73.7787885905
 30
0.0
 10
493.2929251965
 20
73.8183049001
 30
0.0
 10
493.2989244185
 20
73.8406943013
 30
0.0
  0
SPLINE
  5
746
100
AcDbEntity
  8
RUNDUNGEN
100
AcDbSpline
 62
7
  6
CONTINUOUS
 70
0
 71
3
 72
10
 73
6
 74
0
 42
0.0000001
 43
0.0000001
 44
0.0000000001
 40
0.0
 40
0.0
 40
0.0
 40
0.0
 40
0.2382827206
 40
0.4819249463
 40
1.0
 40
1.0
 40
1.0
 40
1.0
 10
525.5261005698
 20
20.2966980437
 30
0.0
 10
525.5727721195
 20
20.4708786387
 30
0.0
 10
525.6287410709
 20
20.8347705879
 30
0.0
 10
525.5833961594
 20
21.5944794897
 30
0.0
 10
525.3718956137
 20
22.1490388162
 30
0.0
 10
525.1775308813
 20
22.4895324774
 30
0.0
  0
SPLINE
  5
747
100
AcDbEntity
  8
0
100
AcDbSpline
 62
7
  6
CONTINUOUS
 70
0
 71
3
 72
9
 73
5
 74
0
 42
0.0000001
 43
0.0000001
 44
0.0000000001
 40
0.0
 40
0.0
 40
0.0
 40
0.0
 40
0.5597866015
 40
1.0
 40
1.0
 40
1.0
 40
1.0
 10
492.6120136894
 20
71.7407529568
 30
0.0
 10
492.6404846239
 20
71.7331241929
 30
0.0
 10
492.6963416566
 20
71.7297504849
 30
0.0
 10
492.7438870908
 20
71.7692667944
 30
0.0
 10
492.7498863128
 20
71.7916561956
 30
0.0
  0
SPLINE
  5
748
100
AcDbEntity
  8
RUNDUNGEN
100
AcDbSpline
 62
7
  6
CONTINUOUS
 70
0
 71
3
 72
11
 73
7
 74
0
 42
0.0000001
 43
0.0000001
 44
0.0000000001
 40
0.0
 40
0.0
 40
0.0
 40
0.0
 40
0.2256941656
 40
0.4632959394
 40
0.7206237852
 40
1.0
 40
1.0
 40
1.0
 40
1.0
 10
549.9266809914
 20
71.5881891048
 30
0.0
 10
549.9486796907
 20
71.6705043879
 30
0.0
 10
549.9643343247
 20
71.8486522747
 30
0.0
 10
549.8988495625
 20
72.1168437459
 30
0.0
 10
549.7525239232
 20
72.3735068406
 30
0.0
 10
549.6127540208
 20
72.5227181524
 30
0.0
 10
549.5335678547
 20
72.592385363
 30
0.0
  0
SPLINE
  5
749
100
AcDbEntity
  8
0
100
AcDbSpline
 62
7
  6
CONTINUOUS
 70
0
 71
3
 72
11
 73
7
 74
0
 42
0.0000001
 43
0.0000001
 44
0.0000000001
 40
0.0
 40
0.0
 40
0.0
 40
0.0
 40
0.2865059912
 40
0.5484241175
 40
0.7833822346
 40
1.0
 40
1.0
 40
1.0
 40
1.0
 10
501.572681054
 20
70.9965658659
 30
0.0
 10
501.7688463934
 20
70.9899871167
 30
0.0
 10
502.1477757078
 20
71.0192926579
 30
0.0
 10
502.6605324937
 20
71.2009759071
 30
0.0
 10
503.0537684464
 20
71.5089973312
 30
0.0
 10
503.2052233252
 20
71.7920195572
 30
0.0
 10
503.2436099338
 20
71.9353663427
 30
0.0
  0
SPLINE
  5
74A
100
AcDbEntity
  8
0
100
AcDbSpline
 62
7
  6
CONTINUOUS
 70
0
 71
3
 72
9
 73
5
 74
0
 42
0.0000001
 43
0.0000001
 44
0.0000000001
 40
0.0
 40
0.0
 40
0.0
 40
0.0
 40
0.4402133985
 40
1.0
 40
1.0
 40
1.0
 40
1.0
 10
492.2313197779
 20
74.4927835064
 30
0.0
 10
492.2253205559
 20
74.4703941051
 30
0.0
 10
492.246737955
 20
74.4123992601
 30
0.0
 10
492.2967984183
 20
74.3873924607
 30
0.0
 10
492.3252693528
 20
74.3797636968
 30
0.0
  0
SPLINE
  5
74B
100
AcDbEntity
  8
0
100
AcDbSpline
 62
7
  6
CONTINUOUS
 70
0
 71
3
 72
9
 73
5
 74
0
 42
0.0000001
 43
0.0000001
 44
0.0000000001
 40
0.0
 40
0.0
 40
0.0
 40
0.0
 40
0.2536121958
 40
1.0
 40
1.0
 40
1.0
 40
1.0
 10
514.4663563447
 20
64.6770156587
 30
0.0
 10
514.4861893782
 20
64.6717014134
 30
0.0
 10
514.5651140455
 20
64.6535904633
 30
0.0
 10
514.646741545
 20
64.6468536366
 30
0.0
 10
514.7071278561
 20
64.6491036671
 30
0.0
  0
SPLINE
  5
74C
100
AcDbEntity
  8
0
100
AcDbSpline
 62
7
  6
CONTINUOUS
 70
0
 71
3
 72
11
 73
7
 74
0
 42
0.0000001
 43
0.0000001
 44
0.0000000001
 40
0.0
 40
0.0
 40
0.0
 40
0.0
 40
0.2847819434
 40
0.5451774547
 40
0.7807010719
 40
1.0
 40
1.0
 40
1.0
 40
1.0
 10
514.7071278561
 20
64.6491036671
 30
0.0
 10
515.0821168926
 20
64.6630759855
 30
0.0
 10
515.8007771741
 20
64.7665494334
 30
0.0
 10
516.7612872397
 20
65.1702666872
 30
0.0
 10
517.4903739089
 20
65.7962767977
 30
0.0
 10
517.7724591996
 20
66.3469885636
 30
0.0
 10
517.8472486132
 20
66.6261064552
 30
0.0
  0
SPLINE
  5
74D
100
AcDbEntity
  8
0
100
AcDbSpline
 62
7
  6
CONTINUOUS
 70
0
 71
3
 72
9
 73
5
 74
0
 42
0.0000001
 43
0.0000001
 44
0.0000000001
 40
0.0
 40
0.0
 40
0.0
 40
0.0
 40
0.239729366
 40
1.0
 40
1.0
 40
1.0
 40
1.0
 10
515.9033533649
 20
69.2539469415
 30
0.0
 10
515.8924065531
 20
69.2643117097
 30
0.0
 10
515.8436434524
 20
69.3042247774
 30
0.0
 10
515.7846628379
 20
69.3310040223
 30
0.0
 10
515.738482903
 20
69.3433778986
 30
0.0
  0
SPLINE
  5
74E
100
AcDbEntity
  8
RUNDUNGEN
100
AcDbSpline
 62
7
  6
CONTINUOUS
 70
0
 71
3
 72
10
 73
6
 74
0
 42
0.0000001
 43
0.0000001
 44
0.0000000001
 40
0.0
 40
0.0
 40
0.0
 40
0.0
 40
0.5180752096
 40
0.7617173681
 40
1.0
 40
1.0
 40
1.0
 40
1.0
 10
461.2414318042
 20
39.6211585923
 30
0.0
 10
460.9028600763
 20
39.4234647389
 30
0.0
 10
460.4424155276
 20
39.0489524707
 30
0.0
 10
460.0232912884
 20
38.4136976838
 30
0.0
 10
459.8898159144
 20
38.0705736406
 30
0.0
 10
459.8431443821
 20
37.8963931107
 30
0.0
  0
SPLINE
  5
74F
100
AcDbEntity
  8
RUNDUNGEN
100
AcDbSpline
 62
7
  6
CONTINUOUS
 70
0
 71
3
 72
11
 73
7
 74
0
 42
0.0000001
 43
0.0000001
 44
0.0000000001
 40
0.0
 40
0.0
 40
0.0
 40
0.0
 40
0.2793752682
 40
0.5367194959
 40
0.7743217448
 40
1.0
 40
1.0
 40
1.0
 40
1.0
 10
473.5247230178
 20
80.6058790945
 30
0.0
 10
473.4213071066
 20
80.5851375856
 30
0.0
 10
473.2256418101
 20
80.5257952526
 30
0.0
 10
472.9705717631
 20
80.3766651373
 30
0.0
 10
472.7797668875
 20
80.1771230149
 30
0.0
 10
472.7042607972
 20
80.0150062631
 30
0.0
 10
472.682162244
 20
79.9327193222
 30
0.0
  0
SPLINE
  5
750
100
AcDbEntity
  8
0
100
AcDbSpline
 62
7
  6
CONTINUOUS
 70
0
 71
3
 72
9
 73
5
 74
0
 42
0.0000001
 43
0.0000001
 44
0.0000000001
 40
0.0
 40
0.0
 40
0.0
 40
0.0
 40
0.471076254
 40
1.0
 40
1.0
 40
1.0
 40
1.0
 10
494.0136004742
 20
74.7692351649
 30
0.0
 10
494.0208758969
 20
74.7963874121
 30
0.0
 10
494.018937198
 20
74.8593653168
 30
0.0
 10
493.9877252416
 20
74.9125947251
 30
0.0
 10
493.9675493936
 20
74.9368659418
 30
0.0
  0
SPLINE
  5
751
100
AcDbEntity
  8
0
100
AcDbSpline
 62
7
  6
CONTINUOUS
 70
0
 71
3
 72
8
 73
4
 74
0
 42
0.0000001
 43
0.0000001
 44
0.0000000001
 40
0.0
 40
0.0
 40
0.0
 40
0.0
 40
1.0
 40
1.0
 40
1.0
 40
1.0
 10
493.9675493936
 20
74.9368659418
 30
0.0
 10
493.9563492198
 20
74.9503395686
 30
0.0
 10
493.9438228686
 20
74.9627793458
 30
0.0
 10
493.9304594661
 20
74.9741108058
 30
0.0
  0
SPLINE
  5
752
100
AcDbEntity
  8
0
100
AcDbSpline
 62
7
  6
CONTINUOUS
 70
0
 71
3
 72
9
 73
5
 74
0
 42
0.0000001
 43
0.0000001
 44
0.0000000001
 40
0.0
 40
0.0
 40
0.0
 40
0.0
 40
0.241609722
 40
1.0
 40
1.0
 40
1.0
 40
1.0
 10
493.9304594661
 20
74.9741108058
 30
0.0
 10
493.919940694
 20
74.9830301693
 30
0.0
 10
493.8741244908
 20
75.0172184026
 30
0.0
 10
493.82054104
 20
75.0405805267
 30
0.0
 10
493.7787265369
 20
75.051784689
 30
0.0
  0
SPLINE
  5
753
100
AcDbEntity
  8
RUNDUNGEN
100
AcDbSpline
 62
7
  6
CONTINUOUS
 70
0
 71
3
 72
11
 73
7
 74
0
 42
0.0000001
 43
0.0000001
 44
0.0000000001
 40
0.0
 40
0.0
 40
0.0
 40
0.0
 40
0.2794013718
 40
0.5367226037
 40
0.7743080703
 40
1.0
 40
1.0
 40
1.0
 40
1.0
 10
468.3366531025
 20
95.8186379257
 30
0.0
 10
467.9916785661
 20
95.7494484527
 30
0.0
 10
467.3390386413
 20
95.5514621023
 30
0.0
 10
466.4883972865
 20
95.053807979
 30
0.0
 10
465.8523098013
 20
94.3879073304
 30
0.0
 10
465.6009521007
 20
93.8469359348
 30
0.0
 10
465.5274462715
 20
93.5723965914
 30
0.0
  0
SPLINE
  5
754
100
AcDbEntity
  8
RUNDUNGEN
100
AcDbSpline
 62
7
  6
CONTINUOUS
 70
0
 71
3
 72
13
 73
9
 74
0
 42
0.0000001
 43
0.0000001
 44
0.0000000001
 40
0.0
 40
0.0
 40
0.0
 40
0.0
 40
0.2294024489
 40
0.3545997024
 40
0.4843111916
 40
0.6162488545
 40
0.7479039449
 40
1.0
 40
1.0
 40
1.0
 40
1.0
 10
487.4374703322
 20
88.6036429582
 30
0.0
 10
486.6500649282
 20
89.9830421195
 30
0.0
 10
484.9538953479
 20
91.8557775451
 30
0.0
 10
482.1864183539
 20
93.7569995066
 30
0.0
 10
479.771414423
 20
94.9398334687
 30
0.0
 10
477.1734733092
 20
95.7867188485
 30
0.0
 10
473.6535150323
 20
96.4191550553
 30
0.0
 10
470.9442243467
 20
96.341622846
 30
0.0
 10
469.2328649911
 20
95.9983857674
 30
0.0
  0
SPLINE
  5
755
100
AcDbEntity
  8
0
100
AcDbSpline
 62
7
  6
CONTINUOUS
 70
0
 71
3
 72
9
 73
5
 74
0
 42
0.0000001
 43
0.0000001
 44
0.0000000001
 40
0.0
 40
0.0
 40
0.0
 40
0.0
 40
0.2419366003
 40
1.0
 40
1.0
 40
1.0
 40
1.0
 10
515.6096364747
 20
81.4119249915
 30
0.0
 10
515.2238374295
 20
81.7513471992
 30
0.0
 10
513.5628867715
 20
83.0780866374
 30
0.0
 10
511.6674577243
 20
84.1024603178
 30
0.0
 10
510.1727210676
 20
84.7008737821
 30
0.0
  0
SPLINE
  5
756
100
AcDbEntity
  8
0
100
AcDbSpline
 62
7
  6
CONTINUOUS
 70
0
 71
3
 72
9
 73
5
 74
0
 42
0.0000001
 43
0.0000001
 44
0.0000000001
 40
0.0
 40
0.0
 40
0.0
 40
0.0
 40
0.2576167678
 40
1.0
 40
1.0
 40
1.0
 40
1.0
 10
505.3416489341
 20
85.9953556588
 30
0.0
 10
504.8001177295
 20
86.0732125301
 30
0.0
 10
502.6877228647
 20
86.2926119593
 30
0.0
 10
500.5344787696
 20
86.1755342145
 30
0.0
 10
498.988667678
 20
85.865500158
 30
0.0
  0
SPLINE
  5
757
100
AcDbEntity
  8
RUNDUNGEN
100
AcDbSpline
 62
7
  6
CONTINUOUS
 70
0
 71
3
 72
10
 73
6
 74
0
 42
0.0000001
 43
0.0000001
 44
0.0000000001
 40
0.0
 40
0.0
 40
0.0
 40
0.0
 40
0.2540841022
 40
0.5191024011
 40
1.0
 40
1.0
 40
1.0
 40
1.0
 10
543.4944064462
 20
77.9055802076
 30
0.0
 10
543.3539911561
 20
78.0291161995
 30
0.0
 10
543.0215094794
 20
78.2331423415
 30
0.0
 10
542.3130746407
 20
78.4363885576
 30
0.0
 10
541.7147608914
 20
78.3731674712
 30
0.0
 10
541.4090826502
 20
78.1946803015
 30
0.0
  0
SPLINE
  5
758
100
AcDbEntity
  8
BEZUGSACHSEN
100
AcDbSpline
 62
7
  6
CONTINUOUS
 70
0
 71
3
 72
19
 73
15
 74
0
 42
0.0000001
 43
0.0000001
 44
0.0000000001
 40
0.0
 40
0.0
 40
0.0
 40
0.0
 40
0.0517279957
 40
0.105334459
 40
0.1622489926
 40
0.2232158543
 40
0.3564755372
 40
0.5
 40
0.6435244628
 40
0.7767841457
 40
0.8377510074
 40
0.894665541
 40
0.9482720043
 40
1.0
 40
1.0
 40
1.0
 40
1.0
 10
500.7444014589
 20
80.4264184178
 30
0.0
 10
500.6783121904
 20
80.17976991
 30
0.0
 10
500.6146271896
 20
79.6557745008
 30
0.0
 10
500.7359048953
 20
78.8555294253
 30
0.0
 10
501.0630640676
 20
78.0666879421
 30
0.0
 10
501.7723240513
 20
77.0407434292
 30
0.0
 10
503.0882145821
 20
75.9631057958
 30
0.0
 10
505.0256645593
 20
75.1539416507
 30
0.0
 10
507.1081275306
 20
74.8859733676
 30
0.0
 10
508.7865409756
 20
75.1612896688
 30
0.0
 10
509.9137503958
 20
75.695153688
 30
0.0
 10
510.5914992917
 20
76.2147308659
 30
0.0
 10
511.0966514036
 20
76.8471245776
 30
0.0
 10
511.3034962796
 20
77.3327604138
 30
0.0
 10
511.3695855481
 20
77.5794089216
 30
0.0
  0
SPLINE
  5
759
100
AcDbEntity
  8
0
100
AcDbSpline
 62
7
  6
CONTINUOUS
 70
0
 71
3
 72
11
 73
7
 74
0
 42
0.0000001
 43
0.0000001
 44
0.0000000001
 40
0.0
 40
0.0
 40
0.0
 40
0.0
 40
0.227142142
 40
0.4653047767
 40
0.7220182825
 40
1.0
 40
1.0
 40
1.0
 40
1.0
 10
516.7433776918
 20
66.9365287933
 30
0.0
 10
516.7939559478
 20
67.1252894142
 30
0.0
 10
516.8333003602
 20
67.5319426375
 30
0.0
 10
516.6973702864
 20
68.1468375162
 30
0.0
 10
516.3822830982
 20
68.7400463779
 30
0.0
 10
516.077017935
 20
69.0895161408
 30
0.0
 10
515.9033533649
 20
69.2539469415
 30
0.0
  0
SPLINE
  5
75A
100
AcDbEntity
  8
0
100
AcDbSpline
 62
7
  6
CONTINUOUS
 70
0
 71
3
 72
19
 73
15
 74
0
 42
0.0000001
 43
0.0000001
 44
0.0000000001
 40
0.0
 40
0.0
 40
0.0
 40
0.0
 40
0.0517234907
 40
0.1053372095
 40
0.1622487312
 40
0.2232163938
 40
0.3564752704
 40
0.5
 40
0.6435247296
 40
0.7767836062
 40
0.8377512688
 40
0.8946627905
 40
0.9482765093
 40
1.0
 40
1.0
 40
1.0
 40
1.0
 10
504.102642762
 20
69.5511694207
 30
0.0
 10
504.0684348405
 20
69.4235037196
 30
0.0
 10
504.0354912615
 20
69.1522524159
 30
0.0
 10
504.0982270169
 20
68.7380005939
 30
0.0
 10
504.2676324451
 20
68.3296648088
 30
0.0
 10
504.6347465379
 20
67.7985806627
 30
0.0
 10
505.315925394
 20
67.2407504253
 30
0.0
 10
506.3188313347
 20
66.8218729671
 30
0.0
 10
507.3968120861
 20
66.6831785166
 30
0.0
 10
508.2656453988
 20
66.8256842451
 30
0.0
 10
508.8491176022
 20
67.1020595608
 30
0.0
 10
509.1999948992
 20
67.3709860099
 30
0.0
 10
509.461451568
 20
67.6983707336
 30
0.0
 10
509.5685472436
 20
67.9497530429
 30
0.0
 10
509.6027551651
 20
68.077418744
 30
0.0
  0
SPLINE
  5
75B
100
AcDbEntity
  8
0
100
AcDbSpline
 62
7
  6
CONTINUOUS
 70
0
 71
3
 72
9
 73
5
 74
0
 42
0.0000001
 43
0.0000001
 44
0.0000000001
 40
0.0
 40
0.0
 40
0.0
 40
0.0
 40
0.4402133985
 40
1.0
 40
1.0
 40
1.0
 40
1.0
 10
491.5907753212
 20
72.1022390498
 30
0.0
 10
491.5847760992
 20
72.0798496485
 30
0.0
 10
491.6061934984
 20
72.0218548035
 30
0.0
 10
491.6562539616
 20
71.996848004
 30
0.0
 10
491.6847248962
 20
71.9892192401
 30
0.0
  0
SPLINE
  5
75C
100
AcDbEntity
  8
0
100
AcDbSpline
 62
7
  6
CONTINUOUS
 70
0
 71
3
 72
9
 73
5
 74
0
 42
0.0000001
 43
0.0000001
 44
0.0000000001
 40
0.0
 40
0.0
 40
0.0
 40
0.0
 40
0.4402133985
 40
1.0
 40
1.0
 40
1.0
 40
1.0
 10
491.6822816722
 20
72.4437454007
 30
0.0
 10
491.6762824502
 20
72.4213559994
 30
0.0
 10
491.6976998493
 20
72.3633611544
 30
0.0
 10
491.7477603126
 20
72.338354355
 30
0.0
 10
491.7762312471
 20
72.3307255911
 30
0.0
  0
SPLINE
  5
75D
100
AcDbEntity
  8
0
100
AcDbSpline
 62
7
  6
CONTINUOUS
 70
0
 71
3
 72
17
 73
13
 74
0
 42
0.0000001
 43
0.0000001
 44
0.0000000001
 40
0.0
 40
0.0
 40
0.0
 40
0.0
 40
0.0519082659
 40
0.1062678596
 40
0.2250851405
 40
0.3581749994
 40
0.5
 40
0.6418250006
 40
0.7749148595
 40
0.8937321404
 40
0.9480917341
 40
1.0
 40
1.0
 40
1.0
 40
1.0
 10
504.151289291
 20
69.6511310404
 30
0.0
 10
504.1400751146
 20
69.5275197228
 30
0.0
 10
504.1498566346
 20
69.2705282978
 30
0.0
 10
504.297504103
 20
68.74867678
 30
0.0
 10
504.7205829488
 20
68.1276690172
 30
0.0
 10
505.4791206994
 20
67.5499397442
 30
0.0
 10
506.4121011258
 20
67.1699605661
 30
0.0
 10
507.4100754653
 20
67.0325419741
 30
0.0
 10
508.3558530636
 20
67.1536013257
 30
0.0
 10
509.0327539733
 20
67.4798704013
 30
0.0
 10
509.4215461906
 20
67.8579833385
 30
0.0
 10
509.5585129479
 20
68.0756536811
 30
0.0
 10
509.610606845
 20
68.1883113106
 30
0.0
  0
SPLINE
  5
75E
100
AcDbEntity
  8
0
100
AcDbSpline
 62
7
  6
CONTINUOUS
 70
0
 71
3
 72
9
 73
5
 74
0
 42
0.0000001
 43
0.0000001
 44
0.0000000001
 40
0.0
 40
0.0
 40
0.0
 40
0.0
 40
0.2536121958
 40
1.0
 40
1.0
 40
1.0
 40
1.0
 10
514.5578626957
 20
65.0185220097
 30
0.0
 10
514.5776957292
 20
65.0132077644
 30
0.0
 10
514.6566203965
 20
64.9950968142
 30
0.0
 10
514.7382478959
 20
64.9883599875
 30
0.0
 10
514.7986342071
 20
64.990610018
 30
0.0
  0
SPLINE
  5
75F
100
AcDbEntity
  8
0
100
AcDbSpline
 62
7
  6
CONTINUOUS
 70
0
 71
3
 72
11
 73
7
 74
0
 42
0.0000001
 43
0.0000001
 44
0.0000000001
 40
0.0
 40
0.0
 40
0.0
 40
0.0
 40
0.2816347582
 40
0.5420479832
 40
0.7798483853
 40
1.0
 40
1.0
 40
1.0
 40
1.0
 10
514.7986342071
 20
64.990610018
 30
0.0
 10
515.1373158177
 20
65.0032294998
 30
0.0
 10
515.7894033581
 20
65.0904788189
 30
0.0
 10
516.6767183671
 20
65.4233705618
 30
0.0
 10
517.3863603289
 20
65.9380259477
 30
0.0
 10
517.7118202219
 20
66.3992176127
 30
0.0
 10
517.8213913714
 20
66.6404254425
 30
0.0
  0
SPLINE
  5
760
100
AcDbEntity
  8
0
100
AcDbSpline
 62
7
  6
CONTINUOUS
 70
0
 71
3
 72
9
 73
5
 74
0
 42
0.0000001
 43
0.0000001
 44
0.0000000001
 40
0.0
 40
0.0
 40
0.0
 40
0.0
 40
0.2591205677
 40
1.0
 40
1.0
 40
1.0
 40
1.0
 10
515.8299892539
 20
69.6848842495
 30
0.0
 10
515.8457239401
 20
69.680668153
 30
0.0
 10
515.9054087268
 20
69.6609535654
 30
0.0
 10
515.9610388245
 20
69.6274759223
 30
0.0
 10
515.9948597158
 20
69.5954532925
 30
0.0
  0
SPLINE
  5
761
100
AcDbEntity
  8
0
100
AcDbSpline
 62
7
  6
CONTINUOUS
 70
0
 71
3
 72
11
 73
7
 74
0
 42
0.0000001
 43
0.0000001
 44
0.0000000001
 40
0.0
 40
0.0
 40
0.0
 40
0.0
 40
0.2779697373
 40
0.5346991835
 40
0.7728568778
 40
1.0
 40
1.0
 40
1.0
 40
1.0
 10
515.9948597158
 20
69.5954532925
 30
0.0
 10
516.1685174237
 20
69.4310289891
 30
0.0
 10
516.473775297
 20
69.0815498414
 30
0.0
 10
516.7888978974
 20
68.4883556115
 30
0.0
 10
516.9248119779
 20
67.8734438258
 30
0.0
 10
516.8854800761
 20
67.4667925996
 30
0.0
 10
516.8349014207
 20
67.2780304878
 30
0.0
  0
SPLINE
  5
762
100
AcDbEntity
  8
0
100
AcDbSpline
 62
7
  6
CONTINUOUS
 70
0
 71
3
 72
11
 73
7
 74
0
 42
0.0000001
 43
0.0000001
 44
0.0000000001
 40
0.0
 40
0.0
 40
0.0
 40
0.0
 40
0.2782911642
 40
0.539206302
 40
0.7792454761
 40
1.0
 40
1.0
 40
1.0
 40
1.0
 10
501.6641874049
 20
71.3380722168
 30
0.0
 10
501.8202002388
 20
71.3328400524
 30
0.0
 10
502.1243172939
 20
71.3496575059
 30
0.0
 10
502.5503567648
 20
71.4614258933
 30
0.0
 10
502.9111067239
 20
71.6541095447
 30
0.0
 10
503.0995924427
 20
71.8379592599
 30
0.0
 10
503.1723553346
 20
71.9381522501
 30
0.0
  0
SPLINE
  5
763
100
AcDbEntity
  8
0
100
AcDbSpline
 62
7
  6
CONTINUOUS
 70
0
 71
3
 72
8
 73
4
 74
0
 42
0.0000001
 43
0.0000001
 44
0.0000000001
 40
0.0
 40
0.0
 40
0.0
 40
0.0
 40
1.0
 40
1.0
 40
1.0
 40
1.0
 10
503.1723553346
 20
71.9381522501
 30
0.0
 10
503.2100003234
 20
71.9899886174
 30
0.0
 10
503.2432566501
 20
72.04536424
 30
0.0
 10
503.2708943834
 20
72.1031596538
 30
0.0
  0
SPLINE
  5
764
100
AcDbEntity
  8
0
100
AcDbSpline
 62
7
  6
CONTINUOUS
 70
0
 71
3
 72
11
 73
7
 74
0
 42
0.0000001
 43
0.0000001
 44
0.0000000001
 40
0.0
 40
0.0
 40
0.0
 40
0.0
 40
0.2880066977
 40
0.5553334191
 40
0.790532629
 40
1.0
 40
1.0
 40
1.0
 40
1.0
 10
501.6080205173
 20
73.5322518276
 30
0.0
 10
501.7428118943
 20
73.496134587
 30
0.0
 10
501.9949251668
 20
73.3908340416
 30
0.0
 10
502.2958462791
 20
73.14418247
 30
0.0
 10
502.4750590983
 20
72.8377654722
 30
0.0
 10
502.4823140295
 20
72.6101248512
 30
0.0
 10
502.4560459479
 20
72.512091036
 30
0.0
  0
SPLINE
  5
765
100
AcDbEntity
  8
RUNDUNGEN
100
AcDbSpline
 62
7
  6
CONTINUOUS
 70
0
 71
3
 72
11
 73
7
 74
0
 42
0.0000001
 43
0.0000001
 44
0.0000000001
 40
0.0
 40
0.0
 40
0.0
 40
0.0
 40
0.2256927635
 40
0.4632951072
 40
0.7206222905
 40
1.0
 40
1.0
 40
1.0
 40
1.0
 10
478.5138112152
 20
82.4467096563
 30
0.0
 10
478.4769677701
 20
82.3095662861
 30
0.0
 10
478.3511076015
 20
82.0393864724
 30
0.0
 10
478.0330962379
 20
81.7068562281
 30
0.0
 10
477.6080070151
 20
81.4583315022
 30
0.0
 10
477.2819229985
 20
81.3594381531
 30
0.0
 10
477.1095705722
 20
81.324870461
 30
0.0
  0
SPLINE
  5
766
100
AcDbEntity
  8
0
100
AcDbSpline
 62
7
  6
CONTINUOUS
 70
0
 71
3
 72
9
 73
5
 74
0
 42
0.0000001
 43
0.0000001
 44
0.0000000001
 40
0.0
 40
0.0
 40
0.0
 40
0.0
 40
0.5597866015
 40
1.0
 40
1.0
 40
1.0
 40
1.0
 10
492.7035200403
 20
72.0822593078
 30
0.0
 10
492.7319909749
 20
72.0746305439
 30
0.0
 10
492.7878480075
 20
72.0712568358
 30
0.0
 10
492.8353934417
 20
72.1107731453
 30
0.0
 10
492.8413926637
 20
72.1331625466
 30
0.0
  0
SPLINE
  5
767
100
AcDbEntity
  8
0
100
AcDbSpline
 62
7
  6
CONTINUOUS
 70
0
 71
3
 72
9
 73
5
 74
0
 42
0.0000001
 43
0.0000001
 44
0.0000000001
 40
0.0
 40
0.0
 40
0.0
 40
0.0
 40
0.4402133985
 40
1.0
 40
1.0
 40
1.0
 40
1.0
 10
492.6045227248
 20
74.4367071266
 30
0.0
 10
492.6105219468
 20
74.4590965279
 30
0.0
 10
492.658067381
 20
74.4986128374
 30
0.0
 10
492.7139244137
 20
74.4952391293
 30
0.0
 10
492.7423953482
 20
74.4876103654
 30
0.0
  0
SPLINE
  5
768
100
AcDbEntity
  8
0
100
AcDbSpline
 62
7
  6
CONTINUOUS
 70
0
 71
3
 72
9
 73
5
 74
0
 42
0.0000001
 43
0.0000001
 44
0.0000000001
 40
0.0
 40
0.0
 40
0.0
 40
0.0
 40
0.5597866015
 40
1.0
 40
1.0
 40
1.0
 40
1.0
 10
492.9452397717
 20
74.4332583659
 30
0.0
 10
492.9737107063
 20
74.425629602
 30
0.0
 10
493.0237711695
 20
74.4006228026
 30
0.0
 10
493.0451885687
 20
74.3426279576
 30
0.0
 10
493.0391893467
 20
74.3202385563
 30
0.0
  0
SPLINE
  5
769
100
AcDbEntity
  8
0
100
AcDbSpline
 62
7
  6
CONTINUOUS
 70
0
 71
3
 72
9
 73
5
 74
0
 42
0.0000001
 43
0.0000001
 44
0.0000000001
 40
0.0
 40
0.0
 40
0.0
 40
0.0
 40
0.5597866015
 40
1.0
 40
1.0
 40
1.0
 40
1.0
 10
493.252558146
 20
74.1312974135
 30
0.0
 10
493.2810290805
 20
74.1236686495
 30
0.0
 10
493.3368861132
 20
74.1202949415
 30
0.0
 10
493.3844315474
 20
74.159811251
 30
0.0
 10
493.3904307694
 20
74.1822006523
 30
0.0
  0
SPLINE
  5
76A
100
AcDbEntity
  8
0
100
AcDbSpline
 62
7
  6
CONTINUOUS
 70
0
 71
3
 72
11
 73
7
 74
0
 42
0.0000001
 43
0.0000001
 44
0.0000000001
 40
0.0
 40
0.0
 40
0.0
 40
0.0
 40
0.2876567391
 40
0.555407049
 40
0.7907201247
 40
1.0
 40
1.0
 40
1.0
 40
1.0
 10
493.8702328878
 20
75.39329104
 30
0.0
 10
493.9075151376
 20
75.3833012912
 30
0.0
 10
493.9772442882
 20
75.3539988734
 30
0.0
 10
494.0608556241
 20
75.2859258721
 30
0.0
 10
494.1101938639
 20
75.2008592677
 30
0.0
 10
494.1123747006
 20
75.1378655965
 30
0.0
 10
494.1051068251
 20
75.1107415159
 30
0.0
  0
SPLINE
  5
76B
100
AcDbEntity
  8
0
100
AcDbSpline
 62
7
  6
CONTINUOUS
 70
0
 71
3
 72
9
 73
5
 74
0
 42
0.0000001
 43
0.0000001
 44
0.0000000001
 40
0.0
 40
0.0
 40
0.0
 40
0.0
 40
0.5531686664
 40
1.0
 40
1.0
 40
1.0
 40
1.0
 10
493.3965619723
 20
73.3159689917
 30
0.0
 10
493.449244567
 20
73.2901543762
 30
0.0
 10
493.5394182474
 20
73.2239130149
 30
0.0
 10
493.5683340218
 20
73.1074781417
 30
0.0
 10
493.5560687195
 20
73.0617034102
 30
0.0
  0
SPLINE
  5
76C
100
AcDbEntity
  8
0
100
AcDbSpline
 62
7
  6
CONTINUOUS
 70
0
 71
3
 72
9
 73
5
 74
0
 42
0.0000001
 43
0.0000001
 44
0.0000000001
 40
0.0
 40
0.0
 40
0.0
 40
0.0
 40
0.4575243679
 40
1.0
 40
1.0
 40
1.0
 40
1.0
 10
491.5276244842
 20
73.6052234049
 30
0.0
 10
491.5374100758
 20
73.6417437297
 30
0.0
 10
491.5929444238
 20
73.712889991
 30
0.0
 10
491.6755774913
 20
73.7383030294
 30
0.0
 10
491.7200614529
 20
73.7438524534
 30
0.0
  0
SPLINE
  5
76D
100
AcDbEntity
  8
0
100
AcDbSpline
 62
7
  6
CONTINUOUS
 70
0
 71
3
 72
9
 73
5
 74
0
 42
0.0000001
 43
0.0000001
 44
0.0000000001
 40
0.0
 40
0.0
 40
0.0
 40
0.0
 40
0.2441493338
 40
1.0
 40
1.0
 40
1.0
 40
1.0
 10
491.7200614529
 20
73.7438524534
 30
0.0
 10
491.7324330132
 20
73.7453958194
 30
0.0
 10
491.7834245443
 20
73.7489232193
 30
0.0
 10
491.8350237929
 20
73.7424712507
 30
0.0
 10
491.8723060427
 20
73.7324815019
 30
0.0
  0
SPLINE
  5
76E
100
AcDbEntity
  8
0
100
AcDbSpline
 62
7
  6
CONTINUOUS
 70
0
 71
3
 72
11
 73
7
 74
0
 42
0.0000001
 43
0.0000001
 44
0.0000000001
 40
0.0
 40
0.0
 40
0.0
 40
0.0
 40
0.2092798753
 40
0.444592951
 40
0.7123432609
 40
1.0
 40
1.0
 40
1.0
 40
1.0
 10
492.0766625899
 20
75.6542615106
 30
0.0
 10
492.0839304654
 20
75.6813855912
 30
0.0
 10
492.1173159611
 20
75.7348492924
 30
0.0
 10
492.2025774323
 20
75.7838500129
 30
0.0
 10
492.3090234738
 20
75.8009972934
 30
0.0
 10
492.3840618986
 20
75.7915093563
 30
0.0
 10
492.4213441484
 20
75.7815196076
 30
0.0
  0
SPLINE
  5
76F
100
AcDbEntity
  8
RUNDUNGEN
100
AcDbSpline
 62
7
  6
CONTINUOUS
 70
0
 71
3
 72
11
 73
7
 74
0
 42
0.0000001
 43
0.0000001
 44
0.0000000001
 40
0.0
 40
0.0
 40
0.0
 40
0.0
 40
0.2660806488
 40
0.5190943636
 40
0.7622194616
 40
1.0
 40
1.0
 40
1.0
 40
1.0
 10
514.7052297248
 20
40.8352072214
 30
0.0
 10
514.4051211698
 20
41.3609459158
 30
0.0
 10
513.8993340917
 20
42.4355856378
 30
0.0
 10
513.4525843995
 20
44.1217800346
 30
0.0
 10
513.3513430827
 20
45.799894686
 30
0.0
 10
513.5195052049
 20
46.8911658065
 30
0.0
 10
513.6595207761
 20
47.4137109581
 30
0.0
  0
SPLINE
  5
770
100
AcDbEntity
  8
0
100
AcDbSpline
 62
7
  6
CONTINUOUS
 70
0
 71
3
 72
9
 73
5
 74
0
 42
0.0000001
 43
0.0000001
 44
0.0000000001
 40
0.0
 40
0.0
 40
0.0
 40
0.0
 40
0.538986273
 40
1.0
 40
1.0
 40
1.0
 40
1.0
 10
494.2561266687
 20
70.4583557831
 30
0.0
 10
494.3659112091
 20
70.4289391041
 30
0.0
 10
494.5822029515
 20
70.4122911543
 30
0.0
 10
494.7902242416
 20
70.4995135225
 30
0.0
 10
494.859352193
 20
70.5678662461
 30
0.0
  0
SPLINE
  5
771
100
AcDbEntity
  8
0
100
AcDbSpline
 62
7
  6
CONTINUOUS
 70
0
 71
3
 72
9
 73
5
 74
0
 42
0.0000001
 43
0.0000001
 44
0.0000000001
 40
0.0
 40
0.0
 40
0.0
 40
0.0
 40
0.2592261758
 40
1.0
 40
1.0
 40
1.0
 40
1.0
 10
494.859352193
 20
70.5678662461
 30
0.0
 10
494.8697829066
 20
70.5781799857
 30
0.0
 10
494.9075980251
 20
70.6203069625
 30
0.0
 10
494.9346406059
 20
70.6723822871
 30
0.0
 10
494.9454897856
 20
70.7128719771
 30
0.0
  0
SPLINE
  5
772
100
AcDbEntity
  8
RUNDUNGEN
100
AcDbSpline
 62
7
  6
CONTINUOUS
 70
0
 71
3
 72
11
 73
7
 74
0
 42
0.0000001
 43
0.0000001
 44
0.0000000001
 40
0.0
 40
0.0
 40
0.0
 40
0.0
 40
0.2297109937
 40
0.4842558728
 40
0.7475644511
 40
1.0
 40
1.0
 40
1.0
 40
1.0
 10
531.6194579074
 20
72.4784657449
 30
0.0
 10
531.1295956846
 20
72.1924325575
 30
0.0
 10
529.9608728815
 20
71.8165324375
 30
0.0
 10
528.0915625851
 20
71.8260079757
 30
0.0
 10
526.2401379334
 20
72.3500287296
 30
0.0
 10
525.136402102
 20
73.030370237
 30
0.0
 10
524.6683785875
 20
73.4421327246
 30
0.0
  0
SPLINE
  5
773
100
AcDbEntity
  8
0
100
AcDbSpline
 62
7
  6
CONTINUOUS
 70
0
 71
3
 72
9
 73
5
 74
0
 42
0.0000001
 43
0.0000001
 44
0.0000000001
 40
0.0
 40
0.0
 40
0.0
 40
0.0
 40
0.4402133985
 40
1.0
 40
1.0
 40
1.0
 40
1.0
 10
492.9476829957
 20
73.9787322054
 30
0.0
 10
492.9536822177
 20
74.0011216066
 30
0.0
 10
492.9322648186
 20
74.0591164516
 30
0.0
 10
492.8822043553
 20
74.0841232511
 30
0.0
 10
492.8537334208
 20
74.091752015
 30
0.0
  0
SPLINE
  5
774
100
AcDbEntity
  8
RUNDUNGEN
100
AcDbSpline
 62
7
  6
CONTINUOUS
 70
0
 71
3
 72
11
 73
7
 74
0
 42
0.0000001
 43
0.0000001
 44
0.0000000001
 40
0.0
 40
0.0
 40
0.0
 40
0.0
 40
0.2524375529
 40
0.5157480446
 40
0.7702932073
 40
1.0
 40
1.0
 40
1.0
 40
1.0
 10
494.507608235
 20
84.9667609498
 30
0.0
 10
493.8964018847
 20
84.8441749591
 30
0.0
 10
492.6003576525
 20
84.806851051
 30
0.0
 10
490.7349574515
 20
85.2787565125
 30
0.0
 10
489.1113580578
 20
86.2052113806
 30
0.0
 10
488.2871748636
 20
87.115106415
 30
0.0
 10
488.0059634704
 20
87.6077405245
 30
0.0
  0
SPLINE
  5
775
100
AcDbEntity
  8
KONSTRUKTIONSELEMENTE
100
AcDbSpline
 62
7
  6
CONTINUOUS
 70
0
 71
3
 72
9
 73
5
 74
0
 42
0.0000001
 43
0.0000001
 44
0.0000000001
 40
0.0
 40
0.0
 40
0.0
 40
0.0
 40
0.5024826949
 40
1.0
 40
1.0
 40
1.0
 40
1.0
 10
523.9432360234
 20
121.6071338535
 30
0.0
 10
525.0302740549
 20
121.0994390062
 30
0.0
 10
527.1429679008
 20
119.9766851577
 30
0.0
 10
529.1193311447
 20
118.6251203217
 30
0.0
 10
530.0539907177
 20
117.8919694578
 30
0.0
  0
SPLINE
  5
776
100
AcDbEntity
  8
RUNDUNGEN
100
AcDbSpline
 62
7
  6
CONTINUOUS
 70
0
 71
3
 72
16
 73
12
 74
0
 42
0.0000001
 43
0.0000001
 44
0.0000000001
 40
0.0
 40
0.0
 40
0.0
 40
0.0
 40
0.0242874348
 40
0.0512771385
 40
0.082901453
 40
0.1202969766
 40
0.2141635644
 40
0.3338260053
 40
0.4770520394
 40
0.6397399996
 40
1.0
 40
1.0
 40
1.0
 40
1.0
 10
546.1277392149
 20
118.4334283651
 30
0.0
 10
546.1379214816
 20
118.4714291017
 30
0.0
 10
546.1440911047
 20
118.5563094895
 30
0.0
 10
546.1094065061
 20
118.6878146116
 30
0.0
 10
546.0345452815
 20
118.8253388357
 30
0.0
 10
545.8699612426
 20
119.0327039613
 30
0.0
 10
545.5588280288
 20
119.2987827498
 30
0.0
 10
545.0721624742
 20
119.6116997172
 30
0.0
 10
544.4585501329
 20
119.9279616584
 30
0.0
 10
543.4654663755
 20
120.3514673889
 30
0.0
 10
542.6568215255
 20
120.6117643312
 30
0.0
 10
542.0931495902
 20
120.7627997711
 30
0.0
  0
SPLINE
  5
777
100
AcDbEntity
  8
KONSTRUKTIONSELEMENTE
100
AcDbSpline
 62
7
  6
CONTINUOUS
 70
0
 71
3
 72
9
 73
5
 74
0
 42
0.0000001
 43
0.0000001
 44
0.0000000001
 40
0.0
 40
0.0
 40
0.0
 40
0.0
 40
0.4975177047
 40
1.0
 40
1.0
 40
1.0
 40
1.0
 10
504.7195121954
 20
124.6803225185
 30
0.0
 10
505.8955275037
 20
124.8479201392
 30
0.0
 10
508.2828907273
 20
125.0302276455
 30
0.0
 10
510.6739141738
 20
124.9462142151
 30
0.0
 10
511.8691631948
 20
124.8423719173
 30
0.0
  0
SPLINE
  5
778
100
AcDbEntity
  8
KONSTRUKTIONSELEMENTE
100
AcDbSpline
 62
7
  6
CONTINUOUS
 70
0
 71
3
 72
11
 73
7
 74
0
 42
0.0000001
 43
0.0000001
 44
0.0000000001
 40
0.0
 40
0.0
 40
0.0
 40
0.0
 40
0.2498418809
 40
0.4997992424
 40
0.7498631476
 40
1.0
 40
1.0
 40
1.0
 40
1.0
 10
502.1154724162
 20
121.6127734062
 30
0.0
 10
502.2043076738
 20
121.9443111012
 30
0.0
 10
502.471357281
 20
122.5866043853
 30
0.0
 10
503.0878408222
 20
123.4216277994
 30
0.0
 10
503.8514298204
 20
124.1209990602
 30
0.0
 10
504.4235996314
 20
124.5056140672
 30
0.0
 10
504.7195121954
 20
124.6803225185
 30
0.0
  0
SPLINE
  5
779
100
AcDbEntity
  8
KONSTRUKTIONSELEMENTE
100
AcDbSpline
 62
7
  6
CONTINUOUS
 70
0
 71
3
 72
9
 73
5
 74
0
 42
0.0000001
 43
0.0000001
 44
0.0000000001
 40
0.0
 40
0.0
 40
0.0
 40
0.0
 40
0.5001839413
 40
1.0
 40
1.0
 40
1.0
 40
1.0
 10
499.5055244752
 20
114.6893683329
 30
0.0
 10
499.8490989537
 20
115.1191073105
 30
0.0
 10
500.4754289596
 20
116.0309392344
 30
0.0
 10
500.8957114707
 20
117.0605635847
 30
0.0
 10
501.0380087314
 20
117.5916241914
 30
0.0
  0
SPLINE
  5
77A
100
AcDbEntity
  8
KONSTRUKTIONSELEMENTE
100
AcDbSpline
 62
7
  6
CONTINUOUS
 70
0
 71
3
 72
9
 73
5
 74
0
 42
0.0000001
 43
0.0000001
 44
0.0000000001
 40
0.0
 40
0.0
 40
0.0
 40
0.0
 40
0.4998160587
 40
1.0
 40
1.0
 40
1.0
 40
1.0
 10
529.6979170781
 20
109.9122248947
 30
0.0
 10
529.5556198174
 20
109.381164288
 30
0.0
 10
529.4047829737
 20
108.2793421887
 30
0.0
 10
529.491284708
 20
107.1765075758
 30
0.0
 10
529.5739594456
 20
106.6325554649
 30
0.0
  0
SPLINE
  5
77B
100
AcDbEntity
  8
KONSTRUKTIONSELEMENTE
100
AcDbSpline
 62
7
  6
CONTINUOUS
 70
0
 71
3
 72
11
 73
7
 74
0
 42
0.0000001
 43
0.0000001
 44
0.0000000001
 40
0.0
 40
0.0
 40
0.0
 40
0.0
 40
0.2501369337
 40
0.5002009564
 40
0.7501583912
 40
1.0
 40
1.0
 40
1.0
 40
1.0
 10
530.0539907177
 20
117.8919694578
 30
0.0
 10
530.2229043447
 20
117.5927111215
 30
0.0
 10
530.526110542
 20
116.9735396
 30
0.0
 10
530.8377124562
 20
115.986071437
 30
0.0
 10
530.9540908075
 20
114.9546782448
 30
0.0
 10
530.8642159237
 20
114.2649114434
 30
0.0
 10
530.7753807629
 20
113.9333741096
 30
0.0
  0
SPLINE
  5
77C
100
AcDbEntity
  8
KONSTRUKTIONSELEMENTE
100
AcDbSpline
 62
7
  6
CONTINUOUS
 70
0
 71
3
 72
9
 73
5
 74
0
 42
0.0000001
 43
0.0000001
 44
0.0000000001
 40
0.0
 40
0.0
 40
0.0
 40
0.0
 40
0.4749716346
 40
1.0
 40
1.0
 40
1.0
 40
1.0
 10
529.4224031741
 20
92.1792983198
 30
0.0
 10
529.4364784516
 20
92.1755268605
 30
0.0
 10
529.4687859419
 20
92.1750936191
 30
0.0
 10
529.4964248171
 20
92.1909063911
 30
0.0
 10
529.5091174279
 20
92.2008235153
 30
0.0
  0
SPLINE
  5
77D
100
AcDbEntity
  8
KONSTRUKTIONSELEMENTE
100
AcDbSpline
 62
7
  6
CONTINUOUS
 70
0
 71
3
 72
20
 73
16
 74
0
 42
0.0000001
 43
0.0000001
 44
0.0000000001
 40
0.0
 40
0.0
 40
0.0
 40
0.0
 40
0.0052706207
 40
0.0123641056
 40
0.0326624155
 40
0.0614056838
 40
0.098500764
 40
0.1436502594
 40
0.1964195188
 40
0.2562845615
 40
0.3226349797
 40
0.4720457108
 40
0.6387980916
 40
0.8167487559
 40
1.0
 40
1.0
 40
1.0
 40
1.0
 10
529.5091174279
 20
92.2008235153
 30
0.0
 10
529.5292392906
 20
92.2165453407
 30
0.0
 10
529.5679935089
 20
92.2636804712
 30
0.0
 10
529.6416405622
 20
92.4040210299
 30
0.0
 10
529.7227852054
 20
92.6653693669
 30
0.0
 10
529.810047197
 20
93.0732624109
 30
0.0
 10
529.8917606241
 20
93.6051481014
 30
0.0
 10
529.9665998289
 20
94.2550120516
 30
0.0
 10
530.0320529831
 20
95.0167621092
 30
0.0
 10
530.0859191777
 20
95.8823107139
 30
0.0
 10
530.1409432126
 20
97.2166374206
 30
0.0
 10
530.1615554792
 20
99.070252517
 30
0.0
 10
530.0964960118
 20
101.4639342581
 30
0.0
 10
529.9175863333
 20
104.016384783
 30
0.0
 10
529.7073679897
 20
105.7548041562
 30
0.0
 10
529.5739594456
 20
106.6325554649
 30
0.0
  0
SPLINE
  5
77E
100
AcDbEntity
  8
RUNDUNGEN
100
AcDbSpline
 62
7
  6
CONTINUOUS
 70
0
 71
3
 72
9
 73
5
 74
0
 42
0.0000001
 43
0.0000001
 44
0.0000000001
 40
0.0
 40
0.0
 40
0.0
 40
0.0
 40
0.4924379896
 40
1.0
 40
1.0
 40
1.0
 40
1.0
 10
511.5338274129
 20
145.630508228
 30
0.0
 10
510.6620397752
 20
145.8641030215
 30
0.0
 10
508.8754998968
 20
146.2750817021
 30
0.0
 10
507.0933373722
 20
146.7038469437
 30
0.0
 10
506.1947749229
 20
146.9446160263
 30
0.0
  0
SPLINE
  5
77F
100
AcDbEntity
  8
KONSTRUKTIONSELEMENTE
100
AcDbSpline
 62
7
  6
CONTINUOUS
 70
0
 71
3
 72
20
 73
16
 74
0
 42
0.0000001
 43
0.0000001
 44
0.0000000001
 40
0.0
 40
0.0
 40
0.0
 40
0.0
 40
0.1832512441
 40
0.3612019084
 40
0.5279542892
 40
0.6773650203
 40
0.7437154385
 40
0.8035804812
 40
0.8563497406
 40
0.901499236
 40
0.9385943162
 40
0.9673375845
 40
0.9876358944
 40
0.9947293793
 40
1.0
 40
1.0
 40
1.0
 40
1.0
 10
499.5055244752
 20
114.6893683329
 30
0.0
 10
498.9511136327
 20
113.9959176734
 30
0.0
 10
497.8998495201
 20
112.5955115055
 30
0.0
 10
496.4686839311
 20
110.4744793484
 30
0.0
 10
495.2154999091
 20
108.4340198857
 30
0.0
 10
494.3065431074
 20
106.8184359901
 30
0.0
 10
493.687031966
 20
105.6353631476
 30
0.0
 10
493.3009071567
 20
104.8588429705
 30
0.0
 10
492.9767162221
 20
104.1664214921
 30
0.0
 10
492.7165968996
 20
103.5662031999
 30
0.0
 10
492.521419958
 20
103.0647199665
 30
0.0
 10
492.3930445375
 20
102.6678432325
 30
0.0
 10
492.3326436915
 20
102.4009366118
 30
0.0
 10
492.3262536311
 20
102.2425745962
 30
0.0
 10
492.3362482035
 20
102.1823772666
 30
0.0
 10
492.345813335
 20
102.1587008351
 30
0.0
  0
SPLINE
  5
780
100
AcDbEntity
  8
KONSTRUKTIONSELEMENTE
100
AcDbSpline
 62
7
  6
CONTINUOUS
 70
0
 71
3
 72
9
 73
5
 74
0
 42
0.0000001
 43
0.0000001
 44
0.0000000001
 40
0.0
 40
0.0
 40
0.0
 40
0.0
 40
0.5250283654
 40
1.0
 40
1.0
 40
1.0
 40
1.0
 10
492.345813335
 20
102.1587008351
 30
0.0
 10
492.3518468963
 20
102.1437660481
 30
0.0
 10
492.3678764784
 20
102.1162523483
 30
0.0
 10
492.3960722065
 20
102.1004738012
 30
0.0
 10
492.4101474839
 20
102.096702342
 30
0.0
  0
SPLINE
  5
781
100
AcDbEntity
  8
RUNDUNGEN
100
AcDbSpline
 62
7
  6
CONTINUOUS
 70
0
 71
3
 72
16
 73
12
 74
0
 42
0.0000001
 43
0.0000001
 44
0.0000000001
 40
0.0
 40
0.0
 40
0.0
 40
0.0
 40
0.0242874348
 40
0.0512771385
 40
0.082901453
 40
0.1202969766
 40
0.2141635644
 40
0.3338260053
 40
0.4770520394
 40
0.6397399996
 40
1.0
 40
1.0
 40
1.0
 40
1.0
 10
491.0699671165
 20
133.186113936
 30
0.0
 10
491.0801493831
 20
133.2241146725
 30
0.0
 10
491.1172465268
 20
133.3007080562
 30
0.0
 10
491.2130368312
 20
133.3972525334
 30
0.0
 10
491.3466306656
 20
133.4789213928
 30
0.0
 10
491.5928471872
 20
133.5762128399
 30
0.0
 10
491.9953358485
 20
133.6510772233
 30
0.0
 10
492.5732590657
 20
133.678738489
 30
0.0
 10
493.2627939119
 20
133.6458231937
 30
0.0
 10
494.3345825391
 20
133.5160480362
 30
0.0
 10
495.1650379931
 20
133.3371493758
 30
0.0
 10
495.7287099283
 20
133.186113936
 30
0.0
  0
SPLINE
  5
782
100
AcDbEntity
  8
RUNDUNGEN
100
AcDbSpline
 62
7
  6
CONTINUOUS
 70
0
 71
3
 72
9
 73
5
 74
0
 42
0.0000001
 43
0.0000001
 44
0.0000000001
 40
0.0
 40
0.0
 40
0.0
 40
0.0
 40
0.2404036222
 40
1.0
 40
1.0
 40
1.0
 40
1.0
 10
546.2361505638
 20
135.9832786103
 30
0.0
 10
546.0959621408
 20
136.0739502944
 30
0.0
 10
545.492986321
 20
136.4202565692
 30
0.0
 10
544.8268323864
 20
136.6501047874
 30
0.0
 10
544.3125032257
 20
136.7673552547
 30
0.0
  0
SPLINE
  5
783
100
AcDbEntity
  8
RUNDUNGEN
100
AcDbSpline
 62
7
  6
CONTINUOUS
 70
0
 71
3
 72
9
 73
5
 74
0
 42
0.0000001
 43
0.0000001
 44
0.0000000001
 40
0.0
 40
0.0
 40
0.0
 40
0.0
 40
0.2515165758
 40
1.0
 40
1.0
 40
1.0
 40
1.0
 10
503.4290065238
 20
147.6857014353
 30
0.0
 10
503.2925050827
 20
147.7222768871
 30
0.0
 10
502.7506227101
 20
147.8708101043
 30
0.0
 10
502.2121552258
 20
148.0315710392
 30
0.0
 10
501.8103547617
 20
148.1557148376
 30
0.0
  0
SPLINE
  5
784
100
AcDbEntity
  8
RUNDUNGEN
100
AcDbSpline
 62
7
  6
CONTINUOUS
 70
0
 71
3
 72
9
 73
5
 74
0
 42
0.0000001
 43
0.0000001
 44
0.0000000001
 40
0.0
 40
0.0
 40
0.0
 40
0.0
 40
0.2478013891
 40
1.0
 40
1.0
 40
1.0
 40
1.0
 10
544.312503234
 20
136.7673552528
 30
0.0
 10
544.1766340207
 20
136.7982971749
 30
0.0
 10
543.628700481
 20
136.9247353966
 30
0.0
 10
543.0828668738
 20
137.0604815777
 30
0.0
 10
542.6742906492
 20
137.1699592472
 30
0.0
  0
SPLINE
  5
785
100
AcDbEntity
  8
RUNDUNGEN
100
AcDbSpline
 62
7
  6
CONTINUOUS
 70
0
 71
3
 72
16
 73
12
 74
0
 42
0.0000001
 43
0.0000001
 44
0.0000000001
 40
0.0
 40
0.0
 40
0.0
 40
0.0
 40
0.0242874348
 40
0.0512771385
 40
0.082901453
 40
0.1202969766
 40
0.2141635644
 40
0.3338260053
 40
0.4770520394
 40
0.6397399996
 40
1.0
 40
1.0
 40
1.0
 40
1.0
 10
544.6035609123
 20
112.7451174997
 30
0.0
 10
544.6137431789
 20
112.7831182363
 30
0.0
 10
544.619912802
 20
112.8679986241
 30
0.0
 10
544.5852282035
 20
112.9995037462
 30
0.0
 10
544.5103669788
 20
113.1370279702
 30
0.0
 10
544.3457829399
 20
113.3443930959
 30
0.0
 10
544.0346497261
 20
113.6104718844
 30
0.0
 10
543.5479841715
 20
113.9233888518
 30
0.0
 10
542.9343718302
 20
114.239650793
 30
0.0
 10
541.9412880728
 20
114.6631565234
 30
0.0
 10
541.1326432228
 20
114.9234534658
 30
0.0
 10
540.5689712875
 20
115.0744889056
 30
0.0
  0
SPLINE
  5
786
100
AcDbEntity
  8
RUNDUNGEN
100
AcDbSpline
 62
7
  6
CONTINUOUS
 70
0
 71
3
 72
9
 73
5
 74
0
 42
0.0000001
 43
0.0000001
 44
0.0000000001
 40
0.0
 40
0.0
 40
0.0
 40
0.0
 40
0.5075627293
 40
1.0
 40
1.0
 40
1.0
 40
1.0
 10
539.9085224724
 20
137.9110445966
 30
0.0
 10
539.0099765333
 20
138.1518092553
 30
0.0
 10
537.2522299979
 20
138.6715562928
 30
0.0
 10
535.4995877319
 20
139.2089021045
 30
0.0
 10
534.6278186197
 20
139.4424919341
 30
0.0
  0
SPLINE
  5
787
100
AcDbEntity
  8
RUNDUNGEN
100
AcDbSpline
 62
7
  6
CONTINUOUS
 70
0
 71
3
 72
16
 73
12
 74
0
 42
0.0000001
 43
0.0000001
 44
0.0000000001
 40
0.0
 40
0.0
 40
0.0
 40
0.0
 40
0.3602600004
 40
0.5229479606
 40
0.6661739947
 40
0.7858364356
 40
0.8797030234
 40
0.917098547
 40
0.9487228615
 40
0.9757125652
 40
1.0
 40
1.0
 40
1.0
 40
1.0
 10
494.2045316256
 20
127.4978030706
 30
0.0
 10
493.6408596904
 20
127.6488385104
 30
0.0
 10
492.8104042364
 20
127.8277371708
 30
0.0
 10
491.7386156092
 20
127.9575123283
 30
0.0
 10
491.049080763
 20
127.9904276236
 30
0.0
 10
490.4711575458
 20
127.9627663578
 30
0.0
 10
490.0686688845
 20
127.8879019745
 30
0.0
 10
489.8224523629
 20
127.7906105273
 30
0.0
 10
489.6888585286
 20
127.7089416679
 30
0.0
 10
489.5930682241
 20
127.6123971908
 30
0.0
 10
489.5559710805
 20
127.5358038071
 30
0.0
 10
489.5457888138
 20
127.4978030706
 30
0.0
  0
SPLINE
  5
788
100
AcDbEntity
  8
RUNDUNGEN
100
AcDbSpline
 62
7
  6
CONTINUOUS
 70
0
 71
3
 72
9
 73
5
 74
0
 42
0.0000001
 43
0.0000001
 44
0.0000000001
 40
0.0
 40
0.0
 40
0.0
 40
0.0
 40
0.259310087
 40
1.0
 40
1.0
 40
1.0
 40
1.0
 10
501.8103547617
 20
148.1557148376
 30
0.0
 10
501.6382186491
 20
148.208899522
 30
0.0
 10
500.9673152168
 20
148.3886703204
 30
0.0
 10
500.2649699889
 20
148.4649195485
 30
0.0
 10
499.7510052569
 20
148.4389357553
 30
0.0
  0
SPLINE
  5
789
100
AcDbEntity
  8
0
100
AcDbSpline
 62
7
  6
CONTINUOUS
 70
0
 71
3
 72
9
 73
5
 74
0
 42
0.0000001
 43
0.0000001
 44
0.0000000001
 40
0.0
 40
0.0
 40
0.0
 40
0.0
 40
0.4749716346
 40
1.0
 40
1.0
 40
1.0
 40
1.0
 10
628.2901461627
 20
92.1792983198
 30
0.0
 10
628.2760708853
 20
92.1755268605
 30
0.0
 10
628.2437633949
 20
92.1750936191
 30
0.0
 10
628.2161245197
 20
92.1909063911
 30
0.0
 10
628.2034319089
 20
92.2008235153
 30
0.0
  0
SPLINE
  5
78A
100
AcDbEntity
  8
0
100
AcDbSpline
 62
7
  6
CONTINUOUS
 70
0
 71
3
 72
20
 73
16
 74
0
 42
0.0000001
 43
0.0000001
 44
0.0000000001
 40
0.0
 40
0.0
 40
0.0
 40
0.0
 40
0.0052706207
 40
0.0123641056
 40
0.0326624155
 40
0.0614056838
 40
0.098500764
 40
0.1436502594
 40
0.1964195188
 40
0.2562845615
 40
0.3226349797
 40
0.4720457108
 40
0.6387980916
 40
0.8167487559
 40
1.0
 40
1.0
 40
1.0
 40
1.0
 10
628.2034319089
 20
92.2008235153
 30
0.0
 10
628.1833100463
 20
92.2165453407
 30
0.0
 10
628.1445558279
 20
92.2636804712
 30
0.0
 10
628.0709087747
 20
92.4040210299
 30
0.0
 10
627.9897641314
 20
92.6653693669
 30
0.0
 10
627.9025021398
 20
93.0732624109
 30
0.0
 10
627.8207887128
 20
93.6051481014
 30
0.0
 10
627.7459495079
 20
94.2550120516
 30
0.0
 10
627.6804963538
 20
95.0167621092
 30
0.0
 10
627.6266301591
 20
95.8823107139
 30
0.0
 10
627.5716061242
 20
97.2166374206
 30
0.0
 10
627.5509938577
 20
99.070252517
 30
0.0
 10
627.616053325
 20
101.4639342581
 30
0.0
 10
627.7949630036
 20
104.016384783
 30
0.0
 10
628.0051813472
 20
105.7548041562
 30
0.0
 10
628.1385898912
 20
106.6325554649
 30
0.0
  0
SPLINE
  5
78B
100
AcDbEntity
  8
0
100
AcDbSpline
 62
7
  6
CONTINUOUS
 70
0
 71
3
 72
20
 73
16
 74
0
 42
0.0000001
 43
0.0000001
 44
0.0000000001
 40
0.0
 40
0.0
 40
0.0
 40
0.0
 40
0.1832512441
 40
0.3612019084
 40
0.5279542892
 40
0.6773650203
 40
0.7437154385
 40
0.8035804812
 40
0.8563497406
 40
0.901499236
 40
0.9385943162
 40
0.9673375845
 40
0.9876358944
 40
0.9947293793
 40
1.0
 40
1.0
 40
1.0
 40
1.0
 10
658.2070248616
 20
114.6893683329
 30
0.0
 10
658.7614357041
 20
113.9959176734
 30
0.0
 10
659.8126998167
 20
112.5955115055
 30
0.0
 10
661.2438654057
 20
110.4744793484
 30
0.0
 10
662.4970494278
 20
108.4340198857
 30
0.0
 10
663.4060062294
 20
106.8184359901
 30
0.0
 10
664.0255173708
 20
105.6353631476
 30
0.0
 10
664.4116421802
 20
104.8588429705
 30
0.0
 10
664.7358331147
 20
104.1664214921
 30
0.0
 10
664.9959524372
 20
103.5662031999
 30
0.0
 10
665.1911293788
 20
103.0647199665
 30
0.0
 10
665.3195047993
 20
102.6678432325
 30
0.0
 10
665.3799056454
 20
102.4009366118
 30
0.0
 10
665.3862957057
 20
102.2425745962
 30
0.0
 10
665.3763011333
 20
102.1823772666
 30
0.0
 10
665.3667360018
 20
102.1587008351
 30
0.0
  0
SPLINE
  5
78C
100
AcDbEntity
  8
0
100
AcDbSpline
 62
7
  6
CONTINUOUS
 70
0
 71
3
 72
9
 73
5
 74
0
 42
0.0000001
 43
0.0000001
 44
0.0000000001
 40
0.0
 40
0.0
 40
0.0
 40
0.0
 40
0.5250283654
 40
1.0
 40
1.0
 40
1.0
 40
1.0
 10
665.3667360018
 20
102.1587008351
 30
0.0
 10
665.3607024405
 20
102.1437660481
 30
0.0
 10
665.3446728585
 20
102.1162523483
 30
0.0
 10
665.3164771304
 20
102.1004738012
 30
0.0
 10
665.3024018529
 20
102.096702342
 30
0.0
  0
SPLINE
  5
78D
100
AcDbEntity
  8
0
100
AcDbSpline
 62
7
  6
CONTINUOUS
 70
0
 71
3
 72
9
 73
5
 74
0
 42
0.0000001
 43
0.0000001
 44
0.0000000001
 40
0.0
 40
0.0
 40
0.0
 40
0.0
 40
0.4998160587
 40
1.0
 40
1.0
 40
1.0
 40
1.0
 10
628.0146322587
 20
109.9122248947
 30
0.0
 10
628.1569295194
 20
109.381164288
 30
0.0
 10
628.3077663631
 20
108.2793421887
 30
0.0
 10
628.2212646288
 20
107.1765075758
 30
0.0
 10
628.1385898912
 20
106.6325554649
 30
0.0
  0
SPLINE
  5
78E
100
AcDbEntity
  8
0
100
AcDbSpline
 62
7
  6
CONTINUOUS
 70
0
 71
3
 72
11
 73
7
 74
0
 42
0.0000001
 43
0.0000001
 44
0.0000000001
 40
0.0
 40
0.0
 40
0.0
 40
0.0
 40
0.2501369337
 40
0.5002009564
 40
0.7501583912
 40
1.0
 40
1.0
 40
1.0
 40
1.0
 10
627.6585586191
 20
117.8919694578
 30
0.0
 10
627.4896449921
 20
117.5927111215
 30
0.0
 10
627.1864387949
 20
116.9735396
 30
0.0
 10
626.8748368806
 20
115.986071437
 30
0.0
 10
626.7584585293
 20
114.9546782448
 30
0.0
 10
626.8483334131
 20
114.2649114434
 30
0.0
 10
626.9371685739
 20
113.9333741096
 30
0.0
  0
SPLINE
  5
78F
100
AcDbEntity
  8
0
100
AcDbSpline
 62
7
  6
CONTINUOUS
 70
0
 71
3
 72
11
 73
7
 74
0
 42
0.0000001
 43
0.0000001
 44
0.0000000001
 40
0.0
 40
0.0
 40
0.0
 40
0.0
 40
0.2498418809
 40
0.4997992424
 40
0.7498631476
 40
1.0
 40
1.0
 40
1.0
 40
1.0
 10
655.5970769207
 20
121.6127734062
 30
0.0
 10
655.508241663
 20
121.9443111012
 30
0.0
 10
655.2411920558
 20
122.5866043853
 30
0.0
 10
654.6247085146
 20
123.4216277994
 30
0.0
 10
653.8611195165
 20
124.1209990602
 30
0.0
 10
653.2889497055
 20
124.5056140672
 30
0.0
 10
652.9930371414
 20
124.6803225185
 30
0.0
  0
SPLINE
  5
790
100
AcDbEntity
  8
0
100
AcDbSpline
 62
7
  6
CONTINUOUS
 70
0
 71
3
 72
9
 73
5
 74
0
 42
0.0000001
 43
0.0000001
 44
0.0000000001
 40
0.0
 40
0.0
 40
0.0
 40
0.0
 40
0.5001839413
 40
1.0
 40
1.0
 40
1.0
 40
1.0
 10
658.2070248616
 20
114.6893683329
 30
0.0
 10
657.8634503832
 20
115.1191073105
 30
0.0
 10
657.2371203773
 20
116.0309392344
 30
0.0
 10
656.8168378661
 20
117.0605635847
 30
0.0
 10
656.6745406054
 20
117.5916241914
 30
0.0
  0
SPLINE
  5
791
100
AcDbEntity
  8
0
100
AcDbSpline
 62
7
  6
CONTINUOUS
 70
0
 71
3
 72
9
 73
5
 74
0
 42
0.0000001
 43
0.0000001
 44
0.0000000001
 40
0.0
 40
0.0
 40
0.0
 40
0.0
 40
0.4975177047
 40
1.0
 40
1.0
 40
1.0
 40
1.0
 10
652.9930371414
 20
124.6803225185
 30
0.0
 10
651.8170218332
 20
124.8479201392
 30
0.0
 10
649.4296586095
 20
125.0302276455
 30
0.0
 10
647.0386351631
 20
124.9462142151
 30
0.0
 10
645.843386142
 20
124.8423719173
 30
0.0
  0
SPLINE
  5
792
100
AcDbEntity
  8
0
100
AcDbSpline
 62
7
  6
CONTINUOUS
 70
0
 71
3
 72
9
 73
5
 74
0
 42
0.0000001
 43
0.0000001
 44
0.0000000001
 40
0.0
 40
0.0
 40
0.0
 40
0.0
 40
0.5024826949
 40
1.0
 40
1.0
 40
1.0
 40
1.0
 10
633.7693133134
 20
121.6071338535
 30
0.0
 10
632.682275282
 20
121.0994390062
 30
0.0
 10
630.569581436
 20
119.9766851577
 30
0.0
 10
628.5932181921
 20
118.6251203217
 30
0.0
 10
627.6585586191
 20
117.8919694578
 30
0.0
  0
SPLINE
  5
793
100
AcDbEntity
  8
0
100
AcDbSpline
 62
7
  6
CONTINUOUS
 70
0
 71
3
 72
16
 73
12
 74
0
 42
0.0000001
 43
0.0000001
 44
0.0000000001
 40
0.0
 40
0.0
 40
0.0
 40
0.0
 40
0.0242874348
 40
0.0512771385
 40
0.082901453
 40
0.1202969766
 40
0.2141635644
 40
0.3338260053
 40
0.4770520394
 40
0.6397399996
 40
1.0
 40
1.0
 40
1.0
 40
1.0
 10
613.1089884246
 20
112.7451174997
 30
0.0
 10
613.0988061579
 20
112.7831182363
 30
0.0
 10
613.0926365349
 20
112.8679986241
 30
0.0
 10
613.1273211334
 20
112.9995037462
 30
0.0
 10
613.202182358
 20
113.1370279702
 30
0.0
 10
613.366766397
 20
113.3443930959
 30
0.0
 10
613.6778996108
 20
113.6104718844
 30
0.0
 10
614.1645651653
 20
113.9233888518
 30
0.0
 10
614.7781775066
 20
114.239650793
 30
0.0
 10
615.7712612641
 20
114.6631565234
 30
0.0
 10
616.5799061141
 20
114.9234534658
 30
0.0
 10
617.1435780493
 20
115.0744889056
 30
0.0
  0
SPLINE
  5
794
100
AcDbEntity
  8
0
100
AcDbSpline
 62
7
  6
CONTINUOUS
 70
0
 71
3
 72
9
 73
5
 74
0
 42
0.0000001
 43
0.0000001
 44
0.0000000001
 40
0.0
 40
0.0
 40
0.0
 40
0.0
 40
0.2404036222
 40
1.0
 40
1.0
 40
1.0
 40
1.0
 10
611.476398773
 20
135.9832786103
 30
0.0
 10
611.6165871961
 20
136.0739502944
 30
0.0
 10
612.2195630158
 20
136.4202565692
 30
0.0
 10
612.8857169505
 20
136.6501047874
 30
0.0
 10
613.4000461111
 20
136.7673552547
 30
0.0
  0
SPLINE
  5
795
100
AcDbEntity
  8
0
100
AcDbSpline
 62
7
  6
CONTINUOUS
 70
0
 71
3
 72
9
 73
5
 74
0
 42
0.0000001
 43
0.0000001
 44
0.0000000001
 40
0.0
 40
0.0
 40
0.0
 40
0.0
 40
0.5075627293
 40
1.0
 40
1.0
 40
1.0
 40
1.0
 10
617.8040268645
 20
137.9110445966
 30
0.0
 10
618.7025728035
 20
138.1518092553
 30
0.0
 10
620.460319339
 20
138.6715562928
 30
0.0
 10
622.212961605
 20
139.2089021045
 30
0.0
 10
623.0847307171
 20
139.4424919341
 30
0.0
  0
SPLINE
  5
796
100
AcDbEntity
  8
0
100
AcDbSpline
 62
7
  6
CONTINUOUS
 70
0
 71
3
 72
9
 73
5
 74
0
 42
0.0000001
 43
0.0000001
 44
0.0000000001
 40
0.0
 40
0.0
 40
0.0
 40
0.0
 40
0.4924379896
 40
1.0
 40
1.0
 40
1.0
 40
1.0
 10
646.178721924
 20
145.630508228
 30
0.0
 10
647.0505095617
 20
145.8641030215
 30
0.0
 10
648.83704944
 20
146.2750817021
 30
0.0
 10
650.6192119646
 20
146.7038469437
 30
0.0
 10
651.5177744139
 20
146.9446160263
 30
0.0
  0
SPLINE
  5
797
100
AcDbEntity
  8
0
100
AcDbSpline
 62
7
  6
CONTINUOUS
 70
0
 71
3
 72
16
 73
12
 74
0
 42
0.0000001
 43
0.0000001
 44
0.0000000001
 40
0.0
 40
0.0
 40
0.0
 40
0.0
 40
0.0242874348
 40
0.0512771385
 40
0.082901453
 40
0.1202969766
 40
0.2141635644
 40
0.3338260053
 40
0.4770520394
 40
0.6397399996
 40
1.0
 40
1.0
 40
1.0
 40
1.0
 10
611.5848101219
 20
118.4334283651
 30
0.0
 10
611.5746278552
 20
118.4714291017
 30
0.0
 10
611.5684582322
 20
118.5563094895
 30
0.0
 10
611.6031428307
 20
118.6878146116
 30
0.0
 10
611.6780040553
 20
118.8253388357
 30
0.0
 10
611.8425880943
 20
119.0327039613
 30
0.0
 10
612.1537213081
 20
119.2987827498
 30
0.0
 10
612.6403868626
 20
119.6116997172
 30
0.0
 10
613.2539992039
 20
119.9279616584
 30
0.0
 10
614.2470829614
 20
120.3514673889
 30
0.0
 10
615.0557278114
 20
120.6117643312
 30
0.0
 10
615.6193997466
 20
120.7627997711
 30
0.0
  0
SPLINE
  5
798
100
AcDbEntity
  8
0
100
AcDbSpline
 62
7
  6
CONTINUOUS
 70
0
 71
3
 72
9
 73
5
 74
0
 42
0.0000001
 43
0.0000001
 44
0.0000000001
 40
0.0
 40
0.0
 40
0.0
 40
0.0
 40
0.2478013891
 40
1.0
 40
1.0
 40
1.0
 40
1.0
 10
613.4000461029
 20
136.7673552528
 30
0.0
 10
613.5359153162
 20
136.7982971749
 30
0.0
 10
614.0838488559
 20
136.9247353966
 30
0.0
 10
614.629682463
 20
137.0604815777
 30
0.0
 10
615.0382586877
 20
137.1699592472
 30
0.0
  0
SPLINE
  5
799
100
AcDbEntity
  8
0
100
AcDbSpline
 62
7
  6
CONTINUOUS
 70
0
 71
3
 72
9
 73
5
 74
0
 42
0.0000001
 43
0.0000001
 44
0.0000000001
 40
0.0
 40
0.0
 40
0.0
 40
0.0
 40
0.2515165758
 40
1.0
 40
1.0
 40
1.0
 40
1.0
 10
654.283542813
 20
147.6857014353
 30
0.0
 10
654.4200442542
 20
147.7222768871
 30
0.0
 10
654.9619266267
 20
147.8708101043
 30
0.0
 10
655.500394111
 20
148.0315710392
 30
0.0
 10
655.9021945751
 20
148.1557148376
 30
0.0
  0
SPLINE
  5
79A
100
AcDbEntity
  8
0
100
AcDbSpline
 62
7
  6
CONTINUOUS
 70
0
 71
3
 72
16
 73
12
 74
0
 42
0.0000001
 43
0.0000001
 44
0.0000000001
 40
0.0
 40
0.0
 40
0.0
 40
0.0
 40
0.0242874348
 40
0.0512771385
 40
0.082901453
 40
0.1202969766
 40
0.2141635644
 40
0.3338260053
 40
0.4770520394
 40
0.6397399996
 40
1.0
 40
1.0
 40
1.0
 40
1.0
 10
666.6425822204
 20
133.186113936
 30
0.0
 10
666.6323999537
 20
133.2241146725
 30
0.0
 10
666.5953028101
 20
133.3007080562
 30
0.0
 10
666.4995125056
 20
133.3972525334
 30
0.0
 10
666.3659186713
 20
133.4789213928
 30
0.0
 10
666.1197021497
 20
133.5762128399
 30
0.0
 10
665.7172134883
 20
133.6510772233
 30
0.0
 10
665.1392902712
 20
133.678738489
 30
0.0
 10
664.449755425
 20
133.6458231937
 30
0.0
 10
663.3779667977
 20
133.5160480362
 30
0.0
 10
662.5475113438
 20
133.3371493758
 30
0.0
 10
661.9838394085
 20
133.186113936
 30
0.0
  0
SPLINE
  5
79B
100
AcDbEntity
  8
0
100
AcDbSpline
 62
7
  6
CONTINUOUS
 70
0
 71
3
 72
9
 73
5
 74
0
 42
0.0000001
 43
0.0000001
 44
0.0000000001
 40
0.0
 40
0.0
 40
0.0
 40
0.0
 40
0.259310087
 40
1.0
 40
1.0
 40
1.0
 40
1.0
 10
655.9021945751
 20
148.1557148376
 30
0.0
 10
656.0743306877
 20
148.208899522
 30
0.0
 10
656.74523412
 20
148.3886703204
 30
0.0
 10
657.447579348
 20
148.4649195485
 30
0.0
 10
657.96154408
 20
148.4389357553
 30
0.0
  0
SPLINE
  5
79C
100
AcDbEntity
  8
0
100
AcDbSpline
 62
7
  6
CONTINUOUS
 70
0
 71
3
 72
16
 73
12
 74
0
 42
0.0000001
 43
0.0000001
 44
0.0000000001
 40
0.0
 40
0.0
 40
0.0
 40
0.0
 40
0.3602600004
 40
0.5229479606
 40
0.6661739947
 40
0.7858364356
 40
0.8797030234
 40
0.917098547
 40
0.9487228615
 40
0.9757125652
 40
1.0
 40
1.0
 40
1.0
 40
1.0
 10
663.5080177112
 20
127.4978030706
 30
0.0
 10
664.0716896465
 20
127.6488385104
 30
0.0
 10
664.9021451004
 20
127.8277371708
 30
0.0
 10
665.9739337276
 20
127.9575123283
 30
0.0
 10
666.6634685739
 20
127.9904276236
 30
0.0
 10
667.241391791
 20
127.9627663578
 30
0.0
 10
667.6438804524
 20
127.8879019745
 30
0.0
 10
667.890096974
 20
127.7906105273
 30
0.0
 10
668.0236908083
 20
127.7089416679
 30
0.0
 10
668.1194811127
 20
127.6123971908
 30
0.0
 10
668.1565782564
 20
127.5358038071
 30
0.0
 10
668.1667605231
 20
127.4978030706
 30
0.0
  0
SPLINE
  5
79D
100
AcDbEntity
  8
KONSTRUKTIONSELEMENTE
100
AcDbSpline
 62
7
  6
CONTINUOUS
 70
0
 71
3
 72
14
 73
10
 74
0
 42
0.0000001
 43
0.0000001
 44
0.0000000001
 40
0.0
 40
0.0
 40
0.0
 40
0.0
 40
0.2183594552
 40
0.3271656908
 40
0.4433163075
 40
0.5706940954
 40
0.7085256149
 40
0.8528448111
 40
1.0
 40
1.0
 40
1.0
 40
1.0
 10
277.7956403342
 20
114.7407461046
 30
0.0
 10
277.5296985514
 20
114.9065589352
 30
0.0
 10
277.1177438112
 20
115.1360206286
 30
0.0
 10
276.5245008039
 20
115.3693270533
 30
0.0
 10
276.031410855
 20
115.4896726295
 30
0.0
 10
275.4822348973
 20
115.5300166893
 30
0.0
 10
274.8950979625
 20
115.4458405025
 30
0.0
 10
274.3176028625
 20
115.2141328109
 30
0.0
 10
273.9769455284
 20
114.9616834208
 30
0.0
 10
273.8251695156
 20
114.8148128228
 30
0.0
  0
SPLINE
  5
79E
100
AcDbEntity
  8
KONSTRUKTIONSELEMENTE
100
AcDbSpline
 62
7
  6
CONTINUOUS
 70
0
 71
3
 72
28
 73
24
 74
0
 42
0.0000001
 43
0.0000001
 44
0.0000000001
 40
0.0
 40
0.0
 40
0.0
 40
0.0
 40
0.0139516498
 40
0.0185680024
 40
0.0215584049
 40
0.0229683062
 40
0.0231133966
 40
0.023324789
 40
0.0247636009
 40
0.0274726968
 40
0.0363102737
 40
0.0492114795
 40
0.0657143278
 40
0.0853665318
 40
0.1326974167
 40
0.1891686284
 40
0.2531665072
 40
0.3235093684
 40
0.399111817
 40
0.4790285272
 40
0.6481940138
 40
0.8242447447
 40
1.0
 40
1.0
 40
1.0
 40
1.0
 10
277.5456989652
 20
113.2538635033
 30
0.0
 10
277.5411637665
 20
113.2793333577
 30
0.0
 10
277.5338802409
 20
113.313618007
 30
0.0
 10
277.5236140745
 20
113.3511124819
 30
0.0
 10
277.5185030722
 20
113.3686196146
 30
0.0
 10
277.5164835765
 20
113.3746892758
 30
0.0
 10
277.5151768108
 20
113.3792208401
 30
0.0
 10
277.5171158919
 20
113.3740726499
 30
0.0
 10
277.519072982
 20
113.3691178863
 30
0.0
 10
277.5290747715
 20
113.3443049577
 30
0.0
 10
277.5470796511
 20
113.3051584361
 30
0.0
 10
277.5792696183
 20
113.240685925
 30
0.0
 10
277.6220163319
 20
113.1608782385
 30
0.0
 10
277.6985422322
 20
113.0260614354
 30
0.0
 10
277.8188471454
 20
112.8313569886
 30
0.0
 10
277.9914488658
 20
112.5723535001
 30
0.0
 10
278.1967164199
 20
112.2841183281
 30
0.0
 10
278.4306106158
 20
111.9728667812
 30
0.0
 10
278.6899675313
 20
111.6439775584
 30
0.0
 10
279.0724898757
 20
111.1790084477
 30
0.0
 10
279.5910371759
 20
110.5849799949
 30
0.0
 10
280.2510329225
 20
109.879330629
 30
0.0
 10
280.7122907407
 20
109.4178107441
 30
0.0
 10
280.9466973282
 20
109.1913913674
 30
0.0
  0
SPLINE
  5
79F
100
AcDbEntity
  8
KONSTRUKTIONSELEMENTE
100
AcDbSpline
 62
7
  6
CONTINUOUS
 70
0
 71
3
 72
17
 73
13
 74
0
 42
0.0000001
 43
0.0000001
 44
0.0000000001
 40
0.0
 40
0.0
 40
0.0
 40
0.0
 40
0.0672998635
 40
0.1329602329
 40
0.1944855734
 40
0.2504309869
 40
0.3502866628
 40
0.4545528348
 40
0.5743822025
 40
0.7091855667
 40
0.853565524
 40
1.0
 40
1.0
 40
1.0
 40
1.0
 10
273.8251695156
 20
114.8148128228
 30
0.0
 10
273.6531241189
 20
114.6483279491
 30
0.0
 10
273.359789776
 20
114.2670043552
 30
0.0
 10
273.109680118
 20
113.6123177203
 30
0.0
 10
273.0452894174
 20
112.9573879456
 30
0.0
 10
273.1394244922
 20
112.1849840787
 30
0.0
 10
273.4795653765
 20
111.3136303981
 30
0.0
 10
274.0649192665
 20
110.3196367063
 30
0.0
 10
274.8089167352
 20
109.2803241031
 30
0.0
 10
275.7052011254
 20
108.1789013982
 30
0.0
 10
276.7187335245
 20
107.0533459196
 30
0.0
 10
277.4456642475
 20
106.316652418
 30
0.0
 10
277.8203376704
 20
105.9547456824
 30
0.0
  0
SPLINE
  5
7A0
100
AcDbEntity
  8
KONSTRUKTIONSELEMENTE
100
AcDbSpline
 62
7
  6
CONTINUOUS
 70
0
 71
3
 72
13
 73
9
 74
0
 42
0.0000001
 43
0.0000001
 44
0.0000000001
 40
0.0
 40
0.0
 40
0.0
 40
0.0
 40
0.147827563
 40
0.2910391013
 40
0.5396303344
 40
0.6488307226
 40
0.7583173339
 40
1.0
 40
1.0
 40
1.0
 40
1.0
 10
295.5484672007
 20
93.0625527174
 30
0.0
 10
295.7391749786
 20
93.2470968022
 30
0.0
 10
296.0571565163
 20
93.6755336798
 30
0.0
 10
296.3671400829
 20
94.6083668995
 30
0.0
 10
296.2811259761
 20
95.5411345361
 30
0.0
 10
295.9823531323
 20
96.3251383725
 30
0.0
 10
295.6138500179
 20
97.0663280804
 30
0.0
 10
295.2694881518
 20
97.5965266537
 30
0.0
 10
295.0205751525
 20
97.9518895791
 30
0.0
  0
SPLINE
  5
7A1
100
AcDbEntity
  8
KONSTRUKTIONSELEMENTE
100
AcDbSpline
 62
7
  6
CONTINUOUS
 70
0
 71
3
 72
21
 73
17
 74
0
 42
0.0000001
 43
0.0000001
 44
0.0000000001
 40
0.0
 40
0.0
 40
0.0
 40
0.0
 40
0.1864112425
 40
0.364525022
 40
0.5302733672
 40
0.6799387301
 40
0.747406246
 40
0.8091075232
 40
0.8642884189
 40
0.9119336236
 40
0.9509426621
 40
0.9796295776
 40
0.9894492175
 40
0.9958898775
 40
0.9986057402
 40
1.0
 40
1.0
 40
1.0
 40
1.0
 10
291.553299046
 20
98.9462008391
 30
0.0
 10
291.707643788
 20
98.7971152665
 30
0.0
 10
292.0128923852
 20
98.5091026943
 30
0.0
 10
292.4672053461
 20
98.1012941675
 30
0.0
 10
292.9004064627
 20
97.7335944625
 30
0.0
 10
293.245302986
 20
97.4590218361
 30
0.0
 10
293.502199317
 20
97.2664997484
 30
0.0
 10
293.6746260432
 20
97.1428746075
 30
0.0
 10
293.831466718
 20
97.0362656498
 30
0.0
 10
293.9682077375
 20
96.948243653
 30
0.0
 10
294.0840782746
 20
96.8796020827
 30
0.0
 10
294.1585264888
 20
96.8381348961
 30
0.0
 10
294.2098109621
 20
96.8129818121
 30
0.0
 10
294.2224898635
 20
96.8065443687
 30
0.0
 10
294.2437903541
 20
96.7980343929
 30
0.0
 10
294.236735517
 20
96.8006446697
 30
0.0
 10
294.2352214504
 20
96.8011773009
 30
0.0
  0
SPLINE
  5
7A2
100
AcDbEntity
  8
KONSTRUKTIONSELEMENTE
100
AcDbSpline
 62
7
  6
CONTINUOUS
 70
0
 71
3
 72
9
 73
5
 74
0
 42
0.0000001
 43
0.0000001
 44
0.0000000001
 40
0.0
 40
0.0
 40
0.0
 40
0.0
 40
0.5263197575
 40
1.0
 40
1.0
 40
1.0
 40
1.0
 10
288.4269393882
 20
95.709555154
 30
0.0
 10
288.8160268931
 20
95.3337254844
 30
0.0
 10
289.5731224797
 20
94.6378789871
 30
0.0
 10
290.3706703568
 20
93.987888609
 30
0.0
 10
290.7614027987
 20
93.6974465228
 30
0.0
  0
SPLINE
  5
7A3
100
AcDbEntity
  8
KONSTRUKTIONSELEMENTE
100
AcDbSpline
 62
7
  6
CONTINUOUS
 70
0
 71
3
 72
14
 73
10
 74
0
 42
0.0000001
 43
0.0000001
 44
0.0000000001
 40
0.0
 40
0.0
 40
0.0
 40
0.0
 40
0.238355881
 40
0.3472682142
 40
0.4568467248
 40
0.5760006498
 40
0.7088709196
 40
0.852214807
 40
1.0
 40
1.0
 40
1.0
 40
1.0
 10
290.7923165319
 20
93.6745261901
 30
0.0
 10
291.1280023547
 20
93.4262794465
 30
0.0
 10
291.631539262
 20
93.0815710111
 30
0.0
 10
292.3403747784
 20
92.708351492
 30
0.0
 10
292.8913794612
 20
92.4887802993
 30
0.0
 10
293.5145525248
 20
92.3550294665
 30
0.0
 10
294.2147694466
 20
92.3651518644
 30
0.0
 10
294.9355083424
 20
92.5851503881
 30
0.0
 10
295.3624427901
 20
92.8825406328
 30
0.0
 10
295.5484672007
 20
93.0625527174
 30
0.0
  0
SPLINE
  5
7A4
100
AcDbEntity
  8
KONSTRUKTIONSELEMENTE
100
AcDbSpline
 62
7
  6
CONTINUOUS
 70
0
 71
3
 72
13
 73
9
 74
0
 42
0.0000001
 43
0.0000001
 44
0.0000000001
 40
0.0
 40
0.0
 40
0.0
 40
0.0
 40
0.2266749134
 40
0.4472161745
 40
0.5713587125
 40
0.7075537383
 40
0.8520150675
 40
1.0
 40
1.0
 40
1.0
 40
1.0
 10
247.0318932905
 20
144.56571702
 30
0.0
 10
246.7369992065
 20
144.7661483289
 30
0.0
 10
246.1386074109
 20
145.137998406
 30
0.0
 10
245.2966690632
 20
145.4801064654
 30
0.0
 10
244.5426835616
 20
145.5856378259
 30
0.0
 10
243.9017393268
 20
145.5318649074
 30
0.0
 10
243.2590740512
 20
145.3026591391
 30
0.0
 10
242.8797530488
 20
145.0292470448
 30
0.0
 10
242.7124711434
 20
144.867371706
 30
0.0
  0
SPLINE
  5
7A5
100
AcDbEntity
  8
KONSTRUKTIONSELEMENTE
100
AcDbSpline
 62
7
  6
CONTINUOUS
 70
0
 71
3
 72
28
 73
24
 74
0
 42
0.0000001
 43
0.0000001
 44
0.0000000001
 40
0.0
 40
0.0
 40
0.0
 40
0.0
 40
0.0139516498
 40
0.0185680024
 40
0.0215584049
 40
0.0229683062
 40
0.0231133966
 40
0.023324789
 40
0.0247636009
 40
0.0274726968
 40
0.0363102737
 40
0.0492114795
 40
0.0657143278
 40
0.0853665318
 40
0.1326974167
 40
0.1891686284
 40
0.2531665072
 40
0.3235093684
 40
0.399111817
 40
0.4790285272
 40
0.6481940138
 40
0.8242447447
 40
1.0
 40
1.0
 40
1.0
 40
1.0
 10
246.433000593
 20
143.3064223865
 30
0.0
 10
246.4284653943
 20
143.331892241
 30
0.0
 10
246.4211818687
 20
143.3661768902
 30
0.0
 10
246.4109157023
 20
143.4036713652
 30
0.0
 10
246.4058047
 20
143.4211784979
 30
0.0
 10
246.4037852043
 20
143.4272481591
 30
0.0
 10
246.4024784386
 20
143.4317797234
 30
0.0
 10
246.4044175197
 20
143.4266315331
 30
0.0
 10
246.4063746098
 20
143.4216767696
 30
0.0
 10
246.4163763993
 20
143.3968638409
 30
0.0
 10
246.4343812789
 20
143.3577173193
 30
0.0
 10
246.4665712461
 20
143.2932448082
 30
0.0
 10
246.5093179597
 20
143.2134371218
 30
0.0
 10
246.58584386
 20
143.0786203187
 30
0.0
 10
246.7061487732
 20
142.8839158719
 30
0.0
 10
246.8787504936
 20
142.6249123834
 30
0.0
 10
247.0840180477
 20
142.3366772113
 30
0.0
 10
247.3179122436
 20
142.0254256645
 30
0.0
 10
247.5772691591
 20
141.6965364417
 30
0.0
 10
247.9597915035
 20
141.231567331
 30
0.0
 10
248.4783388037
 20
140.6375388782
 30
0.0
 10
249.1383345503
 20
139.9318895122
 30
0.0
 10
249.5995923685
 20
139.4703696274
 30
0.0
 10
249.8339989559
 20
139.2439502507
 30
0.0
  0
SPLINE
  5
7A6
100
AcDbEntity
  8
KONSTRUKTIONSELEMENTE
100
AcDbSpline
 62
7
  6
CONTINUOUS
 70
0
 71
3
 72
17
 73
13
 74
0
 42
0.0000001
 43
0.0000001
 44
0.0000000001
 40
0.0
 40
0.0
 40
0.0
 40
0.0
 40
0.0672998635
 40
0.1329602329
 40
0.1944855734
 40
0.2504309869
 40
0.3502866628
 40
0.4545528348
 40
0.5743822025
 40
0.7091855667
 40
0.853565524
 40
1.0
 40
1.0
 40
1.0
 40
1.0
 10
242.7124711434
 20
144.867371706
 30
0.0
 10
242.5404257466
 20
144.7008868323
 30
0.0
 10
242.2470914038
 20
144.3195632385
 30
0.0
 10
241.9969817458
 20
143.6648766035
 30
0.0
 10
241.9325910451
 20
143.0099468289
 30
0.0
 10
242.02672612
 20
142.237542962
 30
0.0
 10
242.3668670043
 20
141.3661892813
 30
0.0
 10
242.9522208943
 20
140.3721955895
 30
0.0
 10
243.696218363
 20
139.3328829864
 30
0.0
 10
244.5925027532
 20
138.2314602815
 30
0.0
 10
245.6060351523
 20
137.1059048029
 30
0.0
 10
246.3329658753
 20
136.3692113013
 30
0.0
 10
246.7076392982
 20
136.0073045656
 30
0.0
  0
SPLINE
  5
7A7
100
AcDbEntity
  8
KONSTRUKTIONSELEMENTE
100
AcDbSpline
 62
7
  6
CONTINUOUS
 70
0
 71
3
 72
14
 73
10
 74
0
 42
0.0000001
 43
0.0000001
 44
0.0000000001
 40
0.0
 40
0.0
 40
0.0
 40
0.0
 40
0.1478176424
 40
0.2924483027
 40
0.4289528093
 40
0.5542230241
 40
0.6675850853
 40
0.7759002898
 40
1.0
 40
1.0
 40
1.0
 40
1.0
 10
264.4357688285
 20
123.1151116006
 30
0.0
 10
264.5989972425
 20
123.2730644572
 30
0.0
 10
264.8801371007
 20
123.6325502975
 30
0.0
 10
265.1312036003
 20
124.2502925025
 30
0.0
 10
265.2143229245
 20
124.8753627715
 30
0.0
 10
265.1638357139
 20
125.4531874584
 30
0.0
 10
265.0288084898
 20
125.970904713
 30
0.0
 10
264.7712998688
 20
126.6068553527
 30
0.0
 10
264.5221699182
 20
127.054881616
 30
0.0
 10
264.3413941999
 20
127.3479717529
 30
0.0
  0
SPLINE
  5
7A8
100
AcDbEntity
  8
KONSTRUKTIONSELEMENTE
100
AcDbSpline
 62
7
  6
CONTINUOUS
 70
0
 71
3
 72
21
 73
17
 74
0
 42
0.0000001
 43
0.0000001
 44
0.0000000001
 40
0.0
 40
0.0
 40
0.0
 40
0.0
 40
0.1864112425
 40
0.364525022
 40
0.5302733672
 40
0.6799387301
 40
0.747406246
 40
0.8091075232
 40
0.8642884189
 40
0.9119336236
 40
0.9509426621
 40
0.9796295776
 40
0.9894492175
 40
0.9958898775
 40
0.9986057402
 40
1.0
 40
1.0
 40
1.0
 40
1.0
 10
260.4406006737
 20
128.9987597223
 30
0.0
 10
260.5949454158
 20
128.8496741498
 30
0.0
 10
260.900194013
 20
128.5616615775
 30
0.0
 10
261.3545069739
 20
128.1538530507
 30
0.0
 10
261.7877080905
 20
127.7861533458
 30
0.0
 10
262.1326046138
 20
127.5115807194
 30
0.0
 10
262.3895009448
 20
127.3190586317
 30
0.0
 10
262.561927671
 20
127.1954334907
 30
0.0
 10
262.7187683458
 20
127.088824533
 30
0.0
 10
262.8555093653
 20
127.0008025363
 30
0.0
 10
262.9713799024
 20
126.932160966
 30
0.0
 10
263.0458281166
 20
126.8906937794
 30
0.0
 10
263.0971125899
 20
126.8655406954
 30
0.0
 10
263.1097914913
 20
126.859103252
 30
0.0
 10
263.1310919819
 20
126.8505932761
 30
0.0
 10
263.1240371447
 20
126.853203553
 30
0.0
 10
263.1225230782
 20
126.8537361842
 30
0.0
  0
SPLINE
  5
7A9
100
AcDbEntity
  8
KONSTRUKTIONSELEMENTE
100
AcDbSpline
 62
7
  6
CONTINUOUS
 70
0
 71
3
 72
14
 73
10
 74
0
 42
0.0000001
 43
0.0000001
 44
0.0000000001
 40
0.0
 40
0.0
 40
0.0
 40
0.0
 40
0.2853075585
 40
0.4098818106
 40
0.5208692916
 40
0.6238507303
 40
0.7336576496
 40
0.8616333138
 40
1.0
 40
1.0
 40
1.0
 40
1.0
 10
257.314241016
 20
125.7621140373
 30
0.0
 10
257.8864001459
 20
125.209450757
 30
0.0
 10
258.7367582018
 20
124.4428180332
 30
0.0
 10
259.890467466
 20
123.5594752679
 30
0.0
 10
260.6801858105
 20
123.0404261824
 30
0.0
 10
261.4866061085
 20
122.6283956262
 30
0.0
 10
262.4135120094
 20
122.3735576327
 30
0.0
 10
263.4877360094
 20
122.4547916819
 30
0.0
 10
264.1585297682
 20
122.8468329323
 30
0.0
 10
264.4357688285
 20
123.1151116006
 30
0.0
  0
SPLINE
  5
7AA
100
AcDbEntity
  8
KONSTRUKTIONSELEMENTE
100
AcDbSpline
 62
7
  6
CONTINUOUS
 70
0
 71
3
 72
9
 73
5
 74
0
 42
0.0000001
 43
0.0000001
 44
0.0000000001
 40
0.0
 40
0.0
 40
0.0
 40
0.0
 40
0.4992056363
 40
1.0
 40
1.0
 40
1.0
 40
1.0
 10
282.4337289337
 20
113.8405844841
 30
0.0
 10
282.4334497705
 20
113.0233820109
 30
0.0
 10
282.1656492413
 20
111.3755847496
 30
0.0
 10
281.3877784121
 20
109.8993980633
 30
0.0
 10
280.89688756
 20
109.2428132754
 30
0.0
  0
SPLINE
  5
7AB
100
AcDbEntity
  8
KONSTRUKTIONSELEMENTE
100
AcDbSpline
 62
7
  6
CONTINUOUS
 70
0
 71
3
 72
11
 73
7
 74
0
 42
0.0000001
 43
0.0000001
 44
0.0000000001
 40
0.0
 40
0.0
 40
0.0
 40
0.0
 40
0.2503834639
 40
0.5009562809
 40
0.7509829001
 40
1.0
 40
1.0
 40
1.0
 40
1.0
 10
277.2312385968
 20
106.5309260855
 30
0.0
 10
276.5220786265
 20
106.2728451963
 30
0.0
 10
275.0228729453
 20
105.9533259058
 30
0.0
 10
272.7365566005
 20
106.1084096389
 30
0.0
 10
270.5830531148
 20
106.8805014928
 30
0.0
 10
269.3445577155
 20
107.7752838764
 30
0.0
 10
268.8047262103
 20
108.2967210691
 30
0.0
  0
SPLINE
  5
7AC
100
AcDbEntity
  8
KONSTRUKTIONSELEMENTE
100
AcDbSpline
 62
7
  6
CONTINUOUS
 70
0
 71
3
 72
11
 73
7
 74
0
 42
0.0000001
 43
0.0000001
 44
0.0000000001
 40
0.0
 40
0.0
 40
0.0
 40
0.0
 40
0.2497701922
 40
0.5003846994
 40
0.7507632035
 40
1.0
 40
1.0
 40
1.0
 40
1.0
 10
259.0480769881
 20
130.3463169664
 30
0.0
 10
259.8069016198
 20
130.8975597037
 30
0.0
 10
261.5379672473
 20
131.7384432466
 30
0.0
 10
264.3963884099
 20
132.0363030488
 30
0.0
 10
267.1861797521
 20
131.3534647917
 30
0.0
 10
268.783053545
 20
130.2834246205
 30
0.0
 10
269.4562121339
 20
129.6332033543
 30
0.0
  0
SPLINE
  5
7AD
100
AcDbEntity
  8
KONSTRUKTIONSELEMENTE
100
AcDbSpline
 62
7
  6
CONTINUOUS
 70
0
 71
3
 72
9
 73
5
 74
0
 42
0.0000001
 43
0.0000001
 44
0.0000000001
 40
0.0
 40
0.0
 40
0.0
 40
0.0
 40
0.5052259423
 40
1.0
 40
1.0
 40
1.0
 40
1.0
 10
261.3244841502
 20
121.7785572825
 30
0.0
 10
261.1221838654
 20
121.9739643523
 30
0.0
 10
260.7685693001
 20
122.4126001185
 30
0.0
 10
260.5375772923
 20
122.9268559621
 30
0.0
 10
260.4586751932
 20
123.1907583837
 30
0.0
  0
SPLINE
  5
7AE
100
AcDbEntity
  8
KONSTRUKTIONSELEMENTE
100
AcDbSpline
 62
7
  6
CONTINUOUS
 70
0
 71
3
 72
9
 73
5
 74
0
 42
0.0000001
 43
0.0000001
 44
0.0000000001
 40
0.0
 40
0.0
 40
0.0
 40
0.0
 40
0.5069780116
 40
1.0
 40
1.0
 40
1.0
 40
1.0
 10
276.9364541939
 20
116.1513671409
 30
0.0
 10
277.2485511029
 20
115.8499046762
 30
0.0
 10
277.7554347333
 20
115.1284180021
 30
0.0
 10
277.9337832129
 20
114.2636518408
 30
0.0
 10
277.9336753331
 20
113.8416795123
 30
0.0
  0
SPLINE
  5
7AF
100
AcDbEntity
  8
KONSTRUKTIONSELEMENTE
100
AcDbSpline
 62
7
  6
CONTINUOUS
 70
0
 71
3
 72
11
 73
7
 74
0
 42
0.0000001
 43
0.0000001
 44
0.0000000001
 40
0.0
 40
0.0
 40
0.0
 40
0.0
 40
0.2519918144
 40
0.5048009909
 40
0.755086504
 40
1.0
 40
1.0
 40
1.0
 40
1.0
 10
262.5960581016
 20
127.1801761218
 30
0.0
 10
262.9129104776
 20
127.2926045435
 30
0.0
 10
263.5824502155
 20
127.4301983067
 30
0.0
 10
264.5995269231
 20
127.3574601027
 30
0.0
 10
265.5502651026
 20
127.0157092627
 30
0.0
 10
266.0948261508
 20
126.6235756667
 30
0.0
 10
266.3298524761
 20
126.3965576692
 30
0.0
  0
SPLINE
  5
7B0
100
AcDbEntity
  8
KONSTRUKTIONSELEMENTE
100
AcDbSpline
 62
7
  6
CONTINUOUS
 70
0
 71
3
 72
9
 73
5
 74
0
 42
0.0000001
 43
0.0000001
 44
0.0000000001
 40
0.0
 40
0.0
 40
0.0
 40
0.0
 40
0.50530061
 40
1.0
 40
1.0
 40
1.0
 40
1.0
 10
273.9245817143
 20
110.5735165678
 30
0.0
 10
273.562829825
 20
110.6236714065
 30
0.0
 10
272.8575216465
 20
110.8310056422
 30
0.0
 10
272.2464603835
 20
111.2405942423
 30
0.0
 10
271.9839748713
 20
111.4833768049
 30
0.0
  0
SPLINE
  5
7B1
100
AcDbEntity
  8
KONSTRUKTIONSELEMENTE
100
AcDbSpline
 62
7
  6
CONTINUOUS
 70
0
 71
3
 72
11
 73
7
 74
0
 42
0.0000001
 43
0.0000001
 44
0.0000000001
 40
0.0
 40
0.0
 40
0.0
 40
0.0
 40
0.2509365798
 40
0.5011818949
 40
0.7507345868
 40
1.0
 40
1.0
 40
1.0
 40
1.0
 10
258.1981244925
 20
118.5419115975
 30
0.0
 10
257.8258435428
 20
118.9015073814
 30
0.0
 10
257.1512741728
 20
119.6953281015
 30
0.0
 10
256.3971470249
 20
121.0592940011
 30
0.0
 10
255.9319589148
 20
122.5432981822
 30
0.0
 10
255.827033774
 20
123.5751942613
 30
0.0
 10
255.8272094105
 20
124.0893399393
 30
0.0
  0
SPLINE
  5
7B2
100
AcDbEntity
  8
KONSTRUKTIONSELEMENTE
100
AcDbSpline
 62
7
  6
CONTINUOUS
 70
0
 71
3
 72
9
 73
5
 74
0
 42
0.0000001
 43
0.0000001
 44
0.0000000001
 40
0.0
 40
0.0
 40
0.0
 40
0.0
 40
0.5012063269
 40
1.0
 40
1.0
 40
1.0
 40
1.0
 10
280.1192685731
 20
119.332929814
 30
0.0
 10
280.8426687435
 20
118.6199674918
 30
0.0
 10
282.0213799142
 20
116.89869667
 30
0.0
 10
282.4340742311
 20
114.8513836874
 30
0.0
 10
282.4337289337
 20
113.8405844841
 30
0.0
  0
SPLINE
  5
7B3
100
AcDbEntity
  8
KONSTRUKTIONSELEMENTE
100
AcDbSpline
 62
7
  6
CONTINUOUS
 70
0
 71
3
 72
9
 73
5
 74
0
 42
0.0000001
 43
0.0000001
 44
0.0000000001
 40
0.0
 40
0.0
 40
0.0
 40
0.0
 40
0.4046530715
 40
1.0
 40
1.0
 40
1.0
 40
1.0
 10
302.9301733128
 20
92.5323706485
 30
0.0
 10
302.9301733128
 20
92.5847885268
 30
0.0
 10
302.9661813324
 20
92.7124115622
 30
0.0
 10
303.0215805279
 20
92.8290001677
 30
0.0
 10
303.0578234066
 20
92.8970732149
 30
0.0
  0
SPLINE
  5
7B4
100
AcDbEntity
  8
KONSTRUKTIONSELEMENTE
100
AcDbSpline
 62
7
  6
CONTINUOUS
 70
0
 71
3
 72
10
 73
6
 74
0
 42
0.0000001
 43
0.0000001
 44
0.0000000001
 40
0.0
 40
0.0
 40
0.0
 40
0.0
 40
0.371444044
 40
0.6586206829
 40
1.0
 40
1.0
 40
1.0
 40
1.0
 10
305.9863585849
 20
95.9274474834
 30
0.0
 10
306.0373684427
 20
95.9568462423
 30
0.0
 10
306.1316619804
 20
96.0060832612
 30
0.0
 10
306.272654673
 20
96.0624740242
 30
0.0
 10
306.3935873365
 20
96.0757071117
 30
0.0
 10
306.4333149072
 20
96.0389702478
 30
0.0
  0
SPLINE
  5
7B5
100
AcDbEntity
  8
KONSTRUKTIONSELEMENTE
100
AcDbSpline
 62
7
  6
CONTINUOUS
 70
0
 71
3
 72
22
 73
18
 74
0
 42
0.0000001
 43
0.0000001
 44
0.0000000001
 40
0.0
 40
0.0
 40
0.0
 40
0.0
 40
0.0294212254
 40
0.0723201016
 40
0.1282665266
 40
0.1957437383
 40
0.356909235
 40
0.5354273641
 40
0.6239691462
 40
0.7081646199
 40
0.7852699074
 40
0.8528337383
 40
0.9088485413
 40
0.9518088476
 40
0.9682604979
 40
0.9814574319
 40
1.0
 40
1.0
 40
1.0
 40
1.0
 10
306.1121538281
 20
96.2889405089
 30
0.0
 10
306.1121538281
 20
96.2387900148
 30
0.0
 10
306.0790036132
 20
96.1172081686
 30
0.0
 10
305.9869447365
 20
95.9193564994
 30
0.0
 10
305.8406832398
 20
95.6756493322
 30
0.0
 10
305.5636335836
 20
95.2773739882
 30
0.0
 10
305.1239865069
 20
94.7390251774
 30
0.0
 10
304.6252420506
 20
94.2054397121
 30
0.0
 10
304.1950516534
 20
93.7888324336
 30
0.0
 10
303.8786201642
 20
93.5036505505
 30
0.0
 10
303.5783467349
 20
93.2544119813
 30
0.0
 10
303.3043553163
 20
93.0492545814
 30
0.0
 10
303.0658340473
 20
92.894872262
 30
0.0
 10
302.8905988879
 20
92.8041720083
 30
0.0
 10
302.7722664141
 20
92.7652279604
 30
0.0
 10
302.6924516632
 20
92.750463463
 30
0.0
 10
302.6322182148
 20
92.7608818837
 30
0.0
 10
302.6090122338
 20
92.7823409095
 30
0.0
  0
SPLINE
  5
7B6
100
AcDbEntity
  8
KONSTRUKTIONSELEMENTE
100
AcDbSpline
 62
7
  6
CONTINUOUS
 70
0
 71
3
 72
9
 73
5
 74
0
 42
0.0000001
 43
0.0000001
 44
0.0000000001
 40
0.0
 40
0.0
 40
0.0
 40
0.0
 40
0.5061516998
 40
1.0
 40
1.0
 40
1.0
 40
1.0
 10
306.991582442
 20
88.5485935107
 30
0.0
 10
307.3983452853
 20
88.1556907752
 30
0.0
 10
308.0597753685
 20
87.2137183689
 30
0.0
 10
308.2929495223
 20
86.0849739965
 30
0.0
 10
308.2932782841
 20
85.5331870595
 30
0.0
  0
SPLINE
  5
7B7
100
AcDbEntity
  8
KONSTRUKTIONSELEMENTE
100
AcDbSpline
 62
7
  6
CONTINUOUS
 70
0
 71
3
 72
9
 73
5
 74
0
 42
0.0000001
 43
0.0000001
 44
0.0000000001
 40
0.0
 40
0.0
 40
0.0
 40
0.0
 40
0.4991733573
 40
1.0
 40
1.0
 40
1.0
 40
1.0
 10
313.2932977382
 20
85.5293464675
 30
0.0
 10
313.2929656155
 20
84.5635644744
 30
0.0
 10
312.9792563262
 20
82.6162717137
 30
0.0
 10
312.0675843581
 20
80.8682962693
 30
0.0
 10
311.4917448395
 20
80.088980818
 30
0.0
  0
SPLINE
  5
7B8
100
AcDbEntity
  8
KONSTRUKTIONSELEMENTE
100
AcDbSpline
 62
7
  6
CONTINUOUS
 70
0
 71
3
 72
11
 73
7
 74
0
 42
0.0000001
 43
0.0000001
 44
0.0000000001
 40
0.0
 40
0.0
 40
0.0
 40
0.0
 40
0.2509991166
 40
0.5012371893
 40
0.7507683023
 40
1.0
 40
1.0
 40
1.0
 40
1.0
 10
310.5280655331
 20
92.0836834656
 30
0.0
 10
310.9629106217
 20
91.655706211
 30
0.0
 10
311.7502424821
 20
90.7138748518
 30
0.0
 10
312.6294031863
 20
89.1014175295
 30
0.0
 10
313.1713174482
 20
87.3510354065
 30
0.0
 10
313.2935060772
 20
86.1351770595
 30
0.0
 10
313.2932977382
 20
85.5293464675
 30
0.0
  0
SPLINE
  5
7B9
100
AcDbEntity
  8
KONSTRUKTIONSELEMENTE
100
AcDbSpline
 62
7
  6
CONTINUOUS
 70
0
 71
3
 72
9
 73
5
 74
0
 42
0.0000001
 43
0.0000001
 44
0.0000000001
 40
0.0
 40
0.0
 40
0.0
 40
0.0
 40
0.2524126325
 40
1.0
 40
1.0
 40
1.0
 40
1.0
 10
301.519622558
 20
81.771958468
 30
0.0
 10
301.4314586994
 20
81.8187985748
 30
0.0
 10
301.0883215695
 20
82.0156925375
 30
0.0
 10
300.7705634641
 20
82.2569872373
 30
0.0
 10
300.5541198011
 20
82.4584371744
 30
0.0
  0
SPLINE
  5
7BA
100
AcDbEntity
  8
KONSTRUKTIONSELEMENTE
100
AcDbSpline
 62
7
  6
CONTINUOUS
 70
0
 71
3
 72
11
 73
7
 74
0
 42
0.0000001
 43
0.0000001
 44
0.0000000001
 40
0.0
 40
0.0
 40
0.0
 40
0.0
 40
0.2507528382
 40
0.5034086137
 40
0.7541779598
 40
1.0
 40
1.0
 40
1.0
 40
1.0
 10
293.224097336
 20
97.479795903
 30
0.0
 10
293.6541753593
 20
97.6924932193
 30
0.0
 10
294.589996858
 20
97.9867789093
 30
0.0
 10
296.0544458678
 20
97.9880498923
 30
0.0
 10
297.4444020912
 20
97.5572727945
 30
0.0
 10
298.2386999737
 20
97.0032287414
 30
0.0
 10
298.5770117459
 20
96.6764446632
 30
0.0
  0
SPLINE
  5
7BB
100
AcDbEntity
  8
KONSTRUKTIONSELEMENTE
100
AcDbSpline
 62
7
  6
CONTINUOUS
 70
0
 71
3
 72
11
 73
7
 74
0
 42
0.0000001
 43
0.0000001
 44
0.0000000001
 40
0.0
 40
0.0
 40
0.0
 40
0.0
 40
0.2509930803
 40
0.501249827
 40
0.7507781035
 40
1.0
 40
1.0
 40
1.0
 40
1.0
 10
288.6068061312
 20
87.0459655666
 30
0.0
 10
288.1627322718
 20
87.4749079761
 30
0.0
 10
287.3581102201
 20
88.4216914144
 30
0.0
 10
286.4585884152
 20
90.0483569848
 30
0.0
 10
285.9037552062
 20
91.8179844108
 30
0.0
 10
285.7786129658
 20
93.0484340566
 30
0.0
 10
285.7788237881
 20
93.6614855931
 30
0.0
  0
SPLINE
  5
7BC
100
AcDbEntity
  8
KONSTRUKTIONSELEMENTE
100
AcDbSpline
 62
7
  6
CONTINUOUS
 70
0
 71
3
 72
15
 73
11
 74
0
 42
0.0000001
 43
0.0000001
 44
0.0000000001
 40
0.0
 40
0.0
 40
0.0
 40
0.0
 40
0.1246775817
 40
0.2497008934
 40
0.3749646148
 40
0.5003333456
 40
0.6256554896
 40
0.7507587796
 40
0.8756138354
 40
1.0
 40
1.0
 40
1.0
 40
1.0
 10
289.4396664543
 20
100.9885934885
 30
0.0
 10
289.8931880832
 20
101.3348576778
 30
0.0
 10
290.8662084827
 20
101.9478367008
 30
0.0
 10
292.4652885756
 20
102.5938283044
 30
0.0
 10
294.1564888403
 20
102.9497110494
 30
0.0
 10
295.8851035731
 20
103.0040586458
 30
0.0
 10
297.5958009637
 20
102.7550693603
 30
0.0
 10
299.2343724609
 20
102.2108132594
 30
0.0
 10
300.746744257
 20
101.3876492637
 30
0.0
 10
301.6412995625
 20
100.6682112783
 30
0.0
 10
302.0507446989
 20
100.2727176466
 30
0.0
  0
SPLINE
  5
7BD
100
AcDbEntity
  8
KONSTRUKTIONSELEMENTE
100
AcDbSpline
 62
7
  6
CONTINUOUS
 70
0
 71
3
 72
9
 73
5
 74
0
 42
0.0000001
 43
0.0000001
 44
0.0000000001
 40
0.0
 40
0.0
 40
0.0
 40
0.0
 40
0.5061516998
 40
1.0
 40
1.0
 40
1.0
 40
1.0
 10
292.0805390842
 20
90.6422385499
 30
0.0
 10
291.6737762409
 20
91.0351412855
 30
0.0
 10
291.0123461577
 20
91.9771136918
 30
0.0
 10
290.7791720039
 20
93.1058580641
 30
0.0
 10
290.7788432421
 20
93.6576450012
 30
0.0
  0
SPLINE
  5
7BE
100
AcDbEntity
  8
KONSTRUKTIONSELEMENTE
100
AcDbSpline
 62
7
  6
CONTINUOUS
 70
0
 71
3
 72
22
 73
18
 74
0
 42
0.0000001
 43
0.0000001
 44
0.0000000001
 40
0.0
 40
0.0
 40
0.0
 40
0.0
 40
0.0294212254
 40
0.0723201016
 40
0.1282665266
 40
0.1957437383
 40
0.356909235
 40
0.5354273641
 40
0.6239691462
 40
0.7081646199
 40
0.7852699074
 40
0.8528337383
 40
0.9088485413
 40
0.9518088476
 40
0.9682604979
 40
0.9814574319
 40
1.0
 40
1.0
 40
1.0
 40
1.0
 10
306.4657072187
 20
95.9474341579
 30
0.0
 10
306.4657072187
 20
95.8972836639
 30
0.0
 10
306.4325570038
 20
95.7757018177
 30
0.0
 10
306.3404981271
 20
95.5778501484
 30
0.0
 10
306.1942366304
 20
95.3341429813
 30
0.0
 10
305.9171869742
 20
94.9358676373
 30
0.0
 10
305.4775398975
 20
94.3975188264
 30
0.0
 10
304.9787954412
 20
93.8639333612
 30
0.0
 10
304.548605044
 20
93.4473260826
 30
0.0
 10
304.2321735548
 20
93.1621441995
 30
0.0
 10
303.9319001255
 20
92.9129056304
 30
0.0
 10
303.6579087069
 20
92.7077482305
 30
0.0
 10
303.4193874379
 20
92.5533659111
 30
0.0
 10
303.2441522785
 20
92.4626656573
 30
0.0
 10
303.1258198047
 20
92.4237216095
 30
0.0
 10
303.0460050538
 20
92.4089571121
 30
0.0
 10
302.9857716054
 20
92.4193755327
 30
0.0
 10
302.9625656244
 20
92.4408345586
 30
0.0
  0
SPLINE
  5
7BF
100
AcDbEntity
  8
KONSTRUKTIONSELEMENTE
100
AcDbSpline
 62
7
  6
CONTINUOUS
 70
0
 71
3
 72
9
 73
5
 74
0
 42
0.0000001
 43
0.0000001
 44
0.0000000001
 40
0.0
 40
0.0
 40
0.0
 40
0.0
 40
0.4046530715
 40
1.0
 40
1.0
 40
1.0
 40
1.0
 10
241.7654367402
 20
151.6129693621
 30
0.0
 10
241.7654367402
 20
151.6653872405
 30
0.0
 10
241.8014447598
 20
151.7930102759
 30
0.0
 10
241.8568439553
 20
151.9095988814
 30
0.0
 10
241.893086834
 20
151.9776719286
 30
0.0
  0
SPLINE
  5
7C0
100
AcDbEntity
  8
KONSTRUKTIONSELEMENTE
100
AcDbSpline
 62
7
  6
CONTINUOUS
 70
0
 71
3
 72
10
 73
6
 74
0
 42
0.0000001
 43
0.0000001
 44
0.0000000001
 40
0.0
 40
0.0
 40
0.0
 40
0.0
 40
0.371444044
 40
0.6586206829
 40
1.0
 40
1.0
 40
1.0
 40
1.0
 10
244.8216220123
 20
155.0080461971
 30
0.0
 10
244.8726318701
 20
155.0374449559
 30
0.0
 10
244.9669254078
 20
155.0866819748
 30
0.0
 10
245.1079181004
 20
155.1430727379
 30
0.0
 10
245.2288507638
 20
155.1563058254
 30
0.0
 10
245.2685783345
 20
155.1195689615
 30
0.0
  0
SPLINE
  5
7C1
100
AcDbEntity
  8
KONSTRUKTIONSELEMENTE
100
AcDbSpline
 62
7
  6
CONTINUOUS
 70
0
 71
3
 72
22
 73
18
 74
0
 42
0.0000001
 43
0.0000001
 44
0.0000000001
 40
0.0
 40
0.0
 40
0.0
 40
0.0
 40
0.0294212254
 40
0.0723201016
 40
0.1282665266
 40
0.1957437383
 40
0.356909235
 40
0.5354273641
 40
0.6239691462
 40
0.7081646199
 40
0.7852699074
 40
0.8528337383
 40
0.9088485413
 40
0.9518088476
 40
0.9682604979
 40
0.9814574319
 40
1.0
 40
1.0
 40
1.0
 40
1.0
 10
244.9474172555
 20
155.3695392225
 30
0.0
 10
244.9474172555
 20
155.3193887285
 30
0.0
 10
244.9142670406
 20
155.1978068823
 30
0.0
 10
244.8222081638
 20
154.999955213
 30
0.0
 10
244.6759466672
 20
154.7562480459
 30
0.0
 10
244.398897011
 20
154.3579727019
 30
0.0
 10
243.9592499343
 20
153.8196238911
 30
0.0
 10
243.4605054779
 20
153.2860384258
 30
0.0
 10
243.0303150807
 20
152.8694311473
 30
0.0
 10
242.7138835915
 20
152.5842492642
 30
0.0
 10
242.4136101622
 20
152.335010695
 30
0.0
 10
242.1396187437
 20
152.1298532951
 30
0.0
 10
241.9010974747
 20
151.9754709757
 30
0.0
 10
241.7258623153
 20
151.884770722
 30
0.0
 10
241.6075298415
 20
151.8458266741
 30
0.0
 10
241.5277150906
 20
151.8310621767
 30
0.0
 10
241.4674816422
 20
151.8414805973
 30
0.0
 10
241.4442756611
 20
151.8629396232
 30
0.0
  0
SPLINE
  5
7C2
100
AcDbEntity
  8
KONSTRUKTIONSELEMENTE
100
AcDbSpline
 62
7
  6
CONTINUOUS
 70
0
 71
3
 72
9
 73
5
 74
0
 42
0.0000001
 43
0.0000001
 44
0.0000000001
 40
0.0
 40
0.0
 40
0.0
 40
0.0
 40
0.5061516998
 40
1.0
 40
1.0
 40
1.0
 40
1.0
 10
245.8268458694
 20
147.6291922244
 30
0.0
 10
246.2336087127
 20
147.2362894889
 30
0.0
 10
246.8950387959
 20
146.2943170826
 30
0.0
 10
247.1282129496
 20
145.1655727102
 30
0.0
 10
247.1285417115
 20
144.6137857732
 30
0.0
  0
SPLINE
  5
7C3
100
AcDbEntity
  8
KONSTRUKTIONSELEMENTE
100
AcDbSpline
 62
7
  6
CONTINUOUS
 70
0
 71
3
 72
9
 73
5
 74
0
 42
0.0000001
 43
0.0000001
 44
0.0000000001
 40
0.0
 40
0.0
 40
0.0
 40
0.0
 40
0.4990961922
 40
1.0
 40
1.0
 40
1.0
 40
1.0
 10
252.1285611655
 20
144.6099451812
 30
0.0
 10
252.1282126675
 20
143.596545269
 30
0.0
 10
251.7822043177
 20
141.5516005368
 30
0.0
 10
250.7801927395
 20
139.7370241221
 30
0.0
 10
250.1504856512
 20
138.9383371114
 30
0.0
  0
SPLINE
  5
7C4
100
AcDbEntity
  8
KONSTRUKTIONSELEMENTE
100
AcDbSpline
 62
7
  6
CONTINUOUS
 70
0
 71
3
 72
11
 73
7
 74
0
 42
0.0000001
 43
0.0000001
 44
0.0000000001
 40
0.0
 40
0.0
 40
0.0
 40
0.0
 40
0.250262514
 40
0.5008853759
 40
0.7509951573
 40
1.0
 40
1.0
 40
1.0
 40
1.0
 10
246.5604229945
 20
136.1499611468
 30
0.0
 10
245.6859935878
 20
135.7590031026
 30
0.0
 10
243.8073774511
 20
135.2352591219
 30
0.0
 10
240.8935291461
 20
135.3041405474
 30
0.0
 10
238.1286099709
 20
136.2123095459
 30
0.0
 10
236.5421154615
 20
137.3365949222
 30
0.0
 10
235.8566402546
 20
137.9987131277
 30
0.0
  0
SPLINE
  5
7C5
100
AcDbEntity
  8
KONSTRUKTIONSELEMENTE
100
AcDbSpline
 62
7
  6
CONTINUOUS
 70
0
 71
3
 72
11
 73
7
 74
0
 42
0.0000001
 43
0.0000001
 44
0.0000000001
 40
0.0
 40
0.0
 40
0.0
 40
0.0
 40
0.2509991166
 40
0.5012371893
 40
0.7507683023
 40
1.0
 40
1.0
 40
1.0
 40
1.0
 10
249.3633289605
 20
151.1642821792
 30
0.0
 10
249.7981740491
 20
150.7363049247
 30
0.0
 10
250.5855059094
 20
149.7944735655
 30
0.0
 10
251.4646666137
 20
148.1820162432
 30
0.0
 10
252.0065808755
 20
146.4316341202
 30
0.0
 10
252.1287695046
 20
145.2157757731
 30
0.0
 10
252.1285611655
 20
144.6099451812
 30
0.0
  0
SPLINE
  5
7C6
100
AcDbEntity
  8
KONSTRUKTIONSELEMENTE
100
AcDbSpline
 62
7
  6
CONTINUOUS
 70
0
 71
3
 72
9
 73
5
 74
0
 42
0.0000001
 43
0.0000001
 44
0.0000000001
 40
0.0
 40
0.0
 40
0.0
 40
0.0
 40
0.5050460752
 40
1.0
 40
1.0
 40
1.0
 40
1.0
 10
243.0025819215
 20
140.3210948037
 30
0.0
 10
242.3490065481
 20
140.262994855
 30
0.0
 10
241.0164048247
 20
140.4170777861
 30
0.0
 10
239.8600932987
 20
141.1009333688
 30
0.0
 10
239.3893832285
 20
141.5390358881
 30
0.0
  0
SPLINE
  5
7C7
100
AcDbEntity
  8
KONSTRUKTIONSELEMENTE
100
AcDbSpline
 62
7
  6
CONTINUOUS
 70
0
 71
3
 72
11
 73
7
 74
0
 42
0.0000001
 43
0.0000001
 44
0.0000000001
 40
0.0
 40
0.0
 40
0.0
 40
0.0
 40
0.2482337156
 40
0.500955749
 40
0.7531052982
 40
1.0
 40
1.0
 40
1.0
 40
1.0
 10
231.168753552
 20
155.9833065702
 30
0.0
 10
231.6012153839
 20
156.3418003603
 30
0.0
 10
232.6200967623
 20
156.9043622076
 30
0.0
 10
234.3426290827
 20
157.1495942433
 30
0.0
 10
236.0398224287
 20
156.7799784509
 30
0.0
 10
237.0104273962
 20
156.145198523
 30
0.0
 10
237.4122751733
 20
155.7570433769
 30
0.0
  0
SPLINE
  5
7C8
100
AcDbEntity
  8
KONSTRUKTIONSELEMENTE
100
AcDbSpline
 62
7
  6
CONTINUOUS
 70
0
 71
3
 72
11
 73
7
 74
0
 42
0.0000001
 43
0.0000001
 44
0.0000000001
 40
0.0
 40
0.0
 40
0.0
 40
0.0
 40
0.2509930803
 40
0.501249827
 40
0.7507781035
 40
1.0
 40
1.0
 40
1.0
 40
1.0
 10
227.4420695585
 20
146.1265642802
 30
0.0
 10
226.9979956992
 20
146.5555066898
 30
0.0
 10
226.1933736475
 20
147.5022901281
 30
0.0
 10
225.2938518426
 20
149.1289556984
 30
0.0
 10
224.7390186336
 20
150.8985831245
 30
0.0
 10
224.6138763932
 20
152.1290327703
 30
0.0
 10
224.6140872154
 20
152.7420843068
 30
0.0
  0
SPLINE
  5
7C9
100
AcDbEntity
  8
KONSTRUKTIONSELEMENTE
100
AcDbSpline
 62
7
  6
CONTINUOUS
 70
0
 71
3
 72
15
 73
11
 74
0
 42
0.0000001
 43
0.0000001
 44
0.0000000001
 40
0.0
 40
0.0
 40
0.0
 40
0.0
 40
0.124380951
 40
0.2492120816
 40
0.3744063708
 40
0.4998133725
 40
0.625253779
 40
0.7505169462
 40
0.8754953896
 40
1.0
 40
1.0
 40
1.0
 40
1.0
 10
227.032928799
 20
158.9326219922
 30
0.0
 10
227.4638999592
 20
159.4041631862
 30
0.0
 10
228.4267721494
 20
160.263160238
 30
0.0
 10
230.1000060018
 20
161.2355586269
 30
0.0
 10
231.9382068071
 20
161.8591131546
 30
0.0
 10
233.8660061221
 20
162.1090828964
 30
0.0
 10
235.8056870734
 20
161.9758900139
 30
0.0
 10
237.6796181098
 20
161.4649722656
 30
0.0
 10
239.4106309796
 20
160.5958749503
 30
0.0
 10
240.4260792112
 20
159.7975735776
 30
0.0
 10
240.8860081263
 20
159.3533163603
 30
0.0
  0
SPLINE
  5
7CA
100
AcDbEntity
  8
KONSTRUKTIONSELEMENTE
100
AcDbSpline
 62
7
  6
CONTINUOUS
 70
0
 71
3
 72
22
 73
18
 74
0
 42
0.0000001
 43
0.0000001
 44
0.0000000001
 40
0.0
 40
0.0
 40
0.0
 40
0.0
 40
0.0294212254
 40
0.0723201016
 40
0.1282665266
 40
0.1957437383
 40
0.356909235
 40
0.5354273641
 40
0.6239691462
 40
0.7081646199
 40
0.7852699074
 40
0.8528337383
 40
0.9088485413
 40
0.9518088476
 40
0.9682604979
 40
0.9814574319
 40
1.0
 40
1.0
 40
1.0
 40
1.0
 10
245.3009706461
 20
155.0280328716
 30
0.0
 10
245.3009706461
 20
154.9778823776
 30
0.0
 10
245.2678204312
 20
154.8563005313
 30
0.0
 10
245.1757615544
 20
154.6584488621
 30
0.0
 10
245.0295000578
 20
154.414741695
 30
0.0
 10
244.7524504016
 20
154.016466351
 30
0.0
 10
244.3128033248
 20
153.4781175401
 30
0.0
 10
243.8140588685
 20
152.9445320748
 30
0.0
 10
243.3838684713
 20
152.5279247963
 30
0.0
 10
243.0674369821
 20
152.2427429132
 30
0.0
 10
242.7671635528
 20
151.9935043441
 30
0.0
 10
242.4931721343
 20
151.7883469442
 30
0.0
 10
242.2546508653
 20
151.6339646248
 30
0.0
 10
242.0794157058
 20
151.543264371
 30
0.0
 10
241.9610832321
 20
151.5043203232
 30
0.0
 10
241.8812684811
 20
151.4895558258
 30
0.0
 10
241.8210350328
 20
151.4999742464
 30
0.0
 10
241.7978290517
 20
151.5214332723
 30
0.0
  0
SPLINE
  5
7CB
100
AcDbEntity
  8
KONSTRUKTIONSELEMENTE
100
AcDbSpline
 62
7
  6
CONTINUOUS
 70
0
 71
3
 72
14
 73
10
 74
0
 42
0.0000001
 43
0.0000001
 44
0.0000000001
 40
0.0
 40
0.0
 40
0.0
 40
0.0
 40
0.247344998
 40
0.3606117676
 40
0.4716979113
 40
0.5865550543
 40
0.7119067545
 40
0.8511632387
 40
1.0
 40
1.0
 40
1.0
 40
1.0
 10
210.3589175508
 20
183.4692638134
 30
0.0
 10
209.789828668
 20
183.8027763806
 30
0.0
 10
208.9391634775
 20
184.2575928301
 30
0.0
 10
207.7700709726
 20
184.7253479751
 30
0.0
 10
206.8996008951
 20
184.978650021
 30
0.0
 10
205.9688445867
 20
185.1152228087
 30
0.0
 10
204.9495582523
 20
185.0698320812
 30
0.0
 10
203.8822515415
 20
184.7413624092
 30
0.0
 10
203.2371842683
 20
184.2950079919
 30
0.0
 10
202.952009636
 20
184.0189331539
 30
0.0
  0
SPLINE
  5
7CC
100
AcDbEntity
  8
KONSTRUKTIONSELEMENTE
100
AcDbSpline
 62
7
  6
CONTINUOUS
 70
0
 71
3
 72
17
 73
13
 74
0
 42
0.0000001
 43
0.0000001
 44
0.0000000001
 40
0.0
 40
0.0
 40
0.0
 40
0.0
 40
0.1669849889
 40
0.3234951497
 40
0.4654394939
 40
0.5898834044
 40
0.6962204806
 40
0.7889491303
 40
0.8346660533
 40
0.88416664
 40
0.9397641741
 40
1.0
 40
1.0
 40
1.0
 40
1.0
 10
217.3658644603
 20
159.4893146359
 30
0.0
 10
218.2457345751
 20
158.6431269919
 30
0.0
 10
219.9777635847
 20
157.0320576731
 30
0.0
 10
222.555019318
 20
154.8090640565
 30
0.0
 10
224.9839449253
 20
152.8946557013
 30
0.0
 10
227.2180537611
 20
151.3305005383
 30
0.0
 10
229.2591628908
 20
150.1317660427
 30
0.0
 10
230.9175360855
 20
149.4277603386
 30
0.0
 10
232.2670676029
 20
149.142810047
 30
0.0
 10
233.3790026158
 20
149.1237926229
 30
0.0
 10
234.5671804741
 20
149.428298157
 30
0.0
 10
235.2904894395
 20
149.9094947581
 30
0.0
 10
235.6068725609
 20
150.2157822363
 30
0.0
  0
SPLINE
  5
7CD
100
AcDbEntity
  8
KONSTRUKTIONSELEMENTE
100
AcDbSpline
 62
7
  6
CONTINUOUS
 70
0
 71
3
 72
14
 73
10
 74
0
 42
0.0000001
 43
0.0000001
 44
0.0000000001
 40
0.0
 40
0.0
 40
0.0
 40
0.0
 40
0.0216147703
 40
0.0473427882
 40
0.1167484995
 40
0.2262426976
 40
0.3722792405
 40
0.5514808577
 40
1.0
 40
1.0
 40
1.0
 40
1.0
 10
207.7822173582
 20
181.1805088205
 30
0.0
 10
207.7818384349
 20
181.1859482488
 30
0.0
 10
207.7791016576
 20
181.2073921895
 30
0.0
 10
207.7861700572
 20
181.1567320263
 30
0.0
 10
207.7963484964
 20
181.1222037758
 30
0.0
 10
207.8182231461
 20
181.0345918495
 30
0.0
 10
207.8497962668
 20
180.9330947344
 30
0.0
 10
207.9133144331
 20
180.7467493633
 30
0.0
 10
207.9719445928
 20
180.6003259682
 30
0.0
 10
208.0158825114
 20
180.4960608248
 30
0.0
  0
SPLINE
  5
7CE
100
AcDbEntity
  8
KONSTRUKTIONSELEMENTE
100
AcDbSpline
 62
7
  6
CONTINUOUS
 70
0
 71
3
 72
9
 73
5
 74
0
 42
0.0000001
 43
0.0000001
 44
0.0000000001
 40
0.0
 40
0.0
 40
0.0
 40
0.0
 40
0.4784052447
 40
1.0
 40
1.0
 40
1.0
 40
1.0
 10
227.1981011619
 20
159.0767428715
 30
0.0
 10
226.5567032526
 20
159.9343158339
 30
0.0
 10
225.169735714
 20
161.6924227617
 30
0.0
 10
223.7144555013
 20
163.393991905
 30
0.0
 10
222.9403955932
 20
164.2681009336
 30
0.0
  0
SPLINE
  5
7CF
100
AcDbEntity
  8
KONSTRUKTIONSELEMENTE
100
AcDbSpline
 62
7
  6
CONTINUOUS
 70
0
 71
3
 72
13
 73
9
 74
0
 42
0.0000001
 43
0.0000001
 44
0.0000000001
 40
0.0
 40
0.0
 40
0.0
 40
0.0
 40
0.1487171283
 40
0.2877074496
 40
0.4126319294
 40
0.5271647368
 40
0.7514283162
 40
1.0
 40
1.0
 40
1.0
 40
1.0
 10
202.952009636
 20
184.0189331539
 30
0.0
 10
202.6638771738
 20
183.7399948692
 30
0.0
 10
202.1915803376
 20
183.103817906
 30
0.0
 10
201.8285207714
 20
182.0365275142
 30
0.0
 10
201.7540192703
 20
181.0102831254
 30
0.0
 10
201.9016050791
 20
179.7633274844
 30
0.0
 10
202.4037436082
 20
178.2484730668
 30
0.0
 10
202.9705567585
 20
177.1046233709
 30
0.0
 10
203.2915720463
 20
176.5161908264
 30
0.0
  0
SPLINE
  5
7D0
100
AcDbEntity
  8
KONSTRUKTIONSELEMENTE
100
AcDbSpline
 62
7
  6
CONTINUOUS
 70
0
 71
3
 72
15
 73
11
 74
0
 42
0.0000001
 43
0.0000001
 44
0.0000000001
 40
0.0
 40
0.0
 40
0.0
 40
0.0
 40
0.3511165171
 40
0.5101030192
 40
0.6539094043
 40
0.7792953912
 40
0.8826296969
 40
0.9590209903
 40
0.9847209663
 40
1.0
 40
1.0
 40
1.0
 40
1.0
 10
222.0079310092
 20
163.3524447677
 30
0.0
 10
223.1719803626
 20
162.2476087842
 30
0.0
 10
224.9009307556
 20
160.6809852892
 30
0.0
 10
227.2057238957
 20
158.7772833412
 30
0.0
 10
228.757775411
 20
157.5842770827
 30
0.0
 10
230.1512273105
 20
156.604367674
 30
0.0
 10
231.3349288094
 20
155.8657660944
 30
0.0
 10
232.1672653698
 20
155.4273527701
 30
0.0
 10
232.6634453965
 20
155.2224397965
 30
0.0
 10
232.8418272505
 20
155.1643480773
 30
0.0
 10
232.9094336901
 20
155.1468359109
 30
0.0
  0
SPLINE
  5
7D1
100
AcDbEntity
  8
KONSTRUKTIONSELEMENTE
100
AcDbSpline
 62
7
  6
CONTINUOUS
 70
0
 71
3
 72
14
 73
10
 74
0
 42
0.0000001
 43
0.0000001
 44
0.0000000001
 40
0.0
 40
0.0
 40
0.0
 40
0.0
 40
0.1498411528
 40
0.2918818875
 40
0.4216786769
 40
0.5405940367
 40
0.6530458086
 40
0.7646494602
 40
1.0
 40
1.0
 40
1.0
 40
1.0
 10
235.6068725609
 20
150.2157822363
 30
0.0
 10
235.8592230708
 20
150.4600803548
 30
0.0
 10
236.2853655295
 20
151.0095851705
 30
0.0
 10
236.6585798213
 20
151.936168833
 30
0.0
 10
236.7960166728
 20
152.8487177723
 30
0.0
 10
236.761807354
 20
153.6983309708
 30
0.0
 10
236.6169666651
 20
154.4910298155
 30
0.0
 10
236.3139236676
 20
155.5257258685
 30
0.0
 10
235.9928376432
 20
156.276104568
 30
0.0
 10
235.7537388296
 20
156.773262492
 30
0.0
  0
SPLINE
  5
7D2
100
AcDbEntity
  8
KONSTRUKTIONSELEMENTE
100
AcDbSpline
 62
7
  6
CONTINUOUS
 70
0
 71
3
 72
9
 73
5
 74
0
 42
0.0000001
 43
0.0000001
 44
0.0000000001
 40
0.0
 40
0.0
 40
0.0
 40
0.0
 40
0.4764738732
 40
1.0
 40
1.0
 40
1.0
 40
1.0
 10
232.5667840498
 20
161.9046823404
 30
0.0
 10
231.7350073625
 20
163.0523289903
 30
0.0
 10
229.9066247516
 20
165.4012245942
 30
0.0
 10
227.9652978199
 20
167.6565259901
 30
0.0
 10
226.9246244286
 20
168.8151050692
 30
0.0
  0
SPLINE
  5
7D3
100
AcDbEntity
  8
0
100
AcDbSpline
 62
7
  6
CONTINUOUS
 70
0
 71
3
 72
9
 73
5
 74
0
 42
0.0000001
 43
0.0000001
 44
0.0000000001
 40
0.0
 40
0.0
 40
0.0
 40
0.0
 40
0.4874263429
 40
1.0
 40
1.0
 40
1.0
 40
1.0
 10
181.6063449231
 20
92.4517171938
 30
0.0
 10
182.2752763599
 20
92.0941806734
 30
0.0
 10
183.7365771394
 20
91.5245698138
 30
0.0
 10
185.2667478235
 20
91.2100839713
 30
0.0
 10
186.0574508198
 20
91.1052810077
 30
0.0
  0
SPLINE
  5
7D4
100
AcDbEntity
  8
0
100
AcDbSpline
 62
7
  6
CONTINUOUS
 70
0
 71
3
 72
11
 73
7
 74
0
 42
0.0000001
 43
0.0000001
 44
0.0000000001
 40
0.0
 40
0.0
 40
0.0
 40
0.0
 40
0.2513556333
 40
0.5016708514
 40
0.7510886351
 40
1.0
 40
1.0
 40
1.0
 40
1.0
 10
181.606353858
 20
92.4517332604
 30
0.0
 10
180.5204823718
 20
93.0322099999
 30
0.0
 10
178.4953747613
 20
94.4834421502
 30
0.0
 10
176.1502950806
 20
97.3742940746
 30
0.0
 10
174.6659021155
 20
100.7758445867
 30
0.0
 10
174.327402898
 20
103.2299902871
 30
0.0
 10
174.327402898
 20
104.4493048165
 30
0.0
  0
SPLINE
  5
7D5
100
AcDbEntity
  8
RUNDUNGEN
100
AcDbSpline
 62
7
  6
CONTINUOUS
 70
0
 71
3
 72
9
 73
5
 74
0
 42
0.0000001
 43
0.0000001
 44
0.0000000001
 40
0.0
 40
0.0
 40
0.0
 40
0.0
 40
0.4874263429
 40
1.0
 40
1.0
 40
1.0
 40
1.0
 10
196.8484608729
 20
92.4517171938
 30
0.0
 10
196.1795294361
 20
92.0941806734
 30
0.0
 10
194.7182286566
 20
91.5245698138
 30
0.0
 10
193.1880579725
 20
91.2100839713
 30
0.0
 10
192.3973549762
 20
91.1052810077
 30
0.0
  0
SPLINE
  5
7D6
100
AcDbEntity
  8
RUNDUNGEN
100
AcDbSpline
 62
7
  6
CONTINUOUS
 70
0
 71
3
 72
11
 73
7
 74
0
 42
0.0000001
 43
0.0000001
 44
0.0000000001
 40
0.0
 40
0.0
 40
0.0
 40
0.0
 40
0.2513556333
 40
0.5016708514
 40
0.7510886351
 40
1.0
 40
1.0
 40
1.0
 40
1.0
 10
196.848451938
 20
92.4517332604
 30
0.0
 10
197.9343234242
 20
93.0322099999
 30
0.0
 10
199.9594310347
 20
94.4834421502
 30
0.0
 10
202.3045107154
 20
97.3742940746
 30
0.0
 10
203.7889036805
 20
100.7758445867
 30
0.0
 10
204.127402898
 20
103.2299902871
 30
0.0
 10
204.127402898
 20
104.4493048165
 30
0.0
  0
SPLINE
  5
7D7
100
AcDbEntity
  8
BEZUGSACHSEN
100
AcDbSpline
 62
7
  6
CONTINUOUS
 70
0
 71
3
 72
21
 73
17
 74
0
 42
0.0000001
 43
0.0000001
 44
0.0000000001
 40
0.0
 40
0.0
 40
0.0
 40
0.0
 40
0.0615051333
 40
0.1231718031
 40
0.1851436903
 40
0.2475080782
 40
0.310295763
 40
0.3734717029
 40
0.5
 40
0.6265282971
 40
0.689704237
 40
0.7524919218
 40
0.8148563097
 40
0.8768281969
 40
0.9384948667
 40
1.0
 40
1.0
 40
1.0
 40
1.0
 10
182.114152898
 20
121.4180450764
 30
0.0
 10
182.114152898
 20
120.9689060496
 30
0.0
 10
182.2061447609
 20
120.0667875526
 30
0.0
 10
182.6145443033
 20
118.7687006116
 30
0.0
 10
183.2773160966
 20
117.5725416109
 30
0.0
 10
184.1684763575
 20
116.5250380124
 30
0.0
 10
185.2539787208
 20
115.6659780107
 30
0.0
 10
186.9010014011
 20
114.8158644701
 30
0.0
 10
189.227402898
 20
114.3679974932
 30
0.0
 10
191.5538043949
 20
114.8158644701
 30
0.0
 10
193.2008270752
 20
115.6659780107
 30
0.0
 10
194.2863294385
 20
116.5250380124
 30
0.0
 10
195.1774896994
 20
117.5725416109
 30
0.0
 10
195.8402614927
 20
118.7687006116
 30
0.0
 10
196.2486610351
 20
120.0667875526
 30
0.0
 10
196.340652898
 20
120.9689060496
 30
0.0
 10
196.340652898
 20
121.4180450764
 30
0.0
  0
SPLINE
  5
7D8
100
AcDbEntity
  8
KONSTRUKTIONSELEMENTE
100
AcDbSpline
 62
7
  6
CONTINUOUS
 70
0
 71
3
 72
15
 73
11
 74
0
 42
0.0000001
 43
0.0000001
 44
0.0000000001
 40
0.0
 40
0.0
 40
0.0
 40
0.0
 40
0.1084845917
 40
0.2226538062
 40
0.3424577975
 40
0.4674892935
 40
0.5969821857
 40
0.7298393436
 40
0.8646917104
 40
1.0
 40
1.0
 40
1.0
 40
1.0
 10
204.127402898
 20
114.6893683329
 30
0.0
 10
204.127402898
 20
113.9388932411
 30
0.0
 10
203.9557591539
 20
112.3942060433
 30
0.0
 10
203.2010417428
 20
110.1314317063
 30
0.0
 10
201.9451747834
 20
107.9691307188
 30
0.0
 10
200.2192302154
 20
106.0167915615
 30
0.0
 10
198.0825324611
 20
104.3731919843
 30
0.0
 10
195.6187111352
 20
103.1218085728
 30
0.0
 10
192.9323895909
 20
102.3237194172
 30
0.0
 10
191.0632226796
 20
102.1168278908
 30
0.0
 10
190.127402898
 20
102.096702342
 30
0.0
  0
SPLINE
  5
7D9
100
AcDbEntity
  8
0
100
AcDbSpline
 62
7
  6
CONTINUOUS
 70
0
 71
3
 72
8
 73
4
 74
0
 42
0.0000001
 43
0.0000001
 44
0.0000000001
 40
0.0
 40
0.0
 40
0.0
 40
0.0
 40
1.0
 40
1.0
 40
1.0
 40
1.0
 10
174.327402898
 20
127.4978030706
 30
0.0
 10
174.327402898
 20
127.5477516999
 30
0.0
 10
174.3417057285
 20
127.5993567144
 30
0.0
 10
174.3673300561
 20
127.642231642
 30
0.0
  0
SPLINE
  5
7DA
100
AcDbEntity
  8
0
100
AcDbSpline
 62
7
  6
CONTINUOUS
 70
0
 71
3
 72
15
 73
11
 74
0
 42
0.0000001
 43
0.0000001
 44
0.0000000001
 40
0.0
 40
0.0
 40
0.0
 40
0.0
 40
0.1084845917
 40
0.2226538062
 40
0.3424577975
 40
0.4674892935
 40
0.5969821857
 40
0.7298393436
 40
0.8646917104
 40
1.0
 40
1.0
 40
1.0
 40
1.0
 10
174.327402898
 20
114.6893683329
 30
0.0
 10
174.327402898
 20
113.9388932411
 30
0.0
 10
174.4990466421
 20
112.3942060433
 30
0.0
 10
175.2537640532
 20
110.1314317063
 30
0.0
 10
176.5096310126
 20
107.9691307188
 30
0.0
 10
178.2355755806
 20
106.0167915615
 30
0.0
 10
180.3722733349
 20
104.3731919843
 30
0.0
 10
182.8360946608
 20
103.1218085728
 30
0.0
 10
185.5224162051
 20
102.3237194172
 30
0.0
 10
187.3915831164
 20
102.1168278908
 30
0.0
 10
188.327402898
 20
102.096702342
 30
0.0
  0
SPLINE
  5
7DB
100
AcDbEntity
  8
RUNDUNGEN
100
AcDbSpline
 62
7
  6
CONTINUOUS
 70
0
 71
3
 72
8
 73
4
 74
0
 42
0.0000001
 43
0.0000001
 44
0.0000000001
 40
0.0
 40
0.0
 40
0.0
 40
0.0
 40
1.0
 40
1.0
 40
1.0
 40
1.0
 10
204.127402898
 20
127.4978030706
 30
0.0
 10
204.127402898
 20
127.5477516999
 30
0.0
 10
204.1131000675
 20
127.5993567144
 30
0.0
 10
204.0874757399
 20
127.642231642
 30
0.0
  0
SPLINE
  5
7DC
100
AcDbEntity
  8
BEZUGSACHSEN
100
AcDbSpline
 62
7
  6
CONTINUOUS
 70
0
 71
3
 72
21
 73
17
 74
0
 42
0.0000001
 43
0.0000001
 44
0.0000000001
 40
0.0
 40
0.0
 40
0.0
 40
0.0
 40
0.0615051333
 40
0.1231718031
 40
0.1851436903
 40
0.2475080782
 40
0.310295763
 40
0.3734717029
 40
0.5
 40
0.6265282971
 40
0.689704237
 40
0.7524919218
 40
0.8148563097
 40
0.8768281969
 40
0.9384948667
 40
1.0
 40
1.0
 40
1.0
 40
1.0
 10
196.340652898
 20
121.4180450764
 30
0.0
 10
196.340652898
 20
121.8671841031
 30
0.0
 10
196.2486610351
 20
122.7693026001
 30
0.0
 10
195.8402614927
 20
124.0673895411
 30
0.0
 10
195.1774896994
 20
125.2635485418
 30
0.0
 10
194.2863294385
 20
126.3110521403
 30
0.0
 10
193.2008270752
 20
127.170112142
 30
0.0
 10
191.5538043949
 20
128.0202256827
 30
0.0
 10
189.227402898
 20
128.4680926595
 30
0.0
 10
186.9010014011
 20
128.0202256827
 30
0.0
 10
185.2539787208
 20
127.170112142
 30
0.0
 10
184.1684763575
 20
126.3110521403
 30
0.0
 10
183.2773160966
 20
125.2635485418
 30
0.0
 10
182.6145443033
 20
124.0673895411
 30
0.0
 10
182.2061447609
 20
122.7693026001
 30
0.0
 10
182.114152898
 20
121.8671841031
 30
0.0
 10
182.114152898
 20
121.4180450764
 30
0.0
  0
SPLINE
  5
7DD
100
AcDbEntity
  8
RUNDUNGEN
100
AcDbSpline
 62
7
  6
CONTINUOUS
 70
0
 71
3
 72
15
 73
11
 74
0
 42
0.0000001
 43
0.0000001
 44
0.0000000001
 40
0.0
 40
0.0
 40
0.0
 40
0.0
 40
0.0530113035
 40
0.0874033997
 40
0.1278679807
 40
0.2272805288
 40
0.3500446435
 40
0.49297177
 40
0.6520020624
 40
1.0
 40
1.0
 40
1.0
 40
1.0
 10
204.0874757399
 20
127.642231642
 30
0.0
 10
204.0459006579
 20
127.7117955602
 30
0.0
 10
203.9320817006
 20
127.7969397839
 30
0.0
 10
203.7518488676
 20
127.8702473743
 30
0.0
 10
203.4931947078
 20
127.9385495368
 30
0.0
 10
203.0926265837
 20
127.9822531271
 30
0.0
 10
202.5338569919
 20
127.9825062481
 30
0.0
 10
201.8859768321
 20
127.9320016066
 30
0.0
 10
200.9014029573
 20
127.795564697
 30
0.0
 10
200.1424331913
 20
127.6311027193
 30
0.0
 10
199.627402898
 20
127.4978030706
 30
0.0
  0
SPLINE
  5
7DE
100
AcDbEntity
  8
0
100
AcDbSpline
 62
7
  6
CONTINUOUS
 70
0
 71
3
 72
15
 73
11
 74
0
 42
0.0000001
 43
0.0000001
 44
0.0000000001
 40
0.0
 40
0.0
 40
0.0
 40
0.0
 40
0.0530113035
 40
0.0874033997
 40
0.1278679807
 40
0.2272805288
 40
0.3500446435
 40
0.49297177
 40
0.6520020624
 40
1.0
 40
1.0
 40
1.0
 40
1.0
 10
174.3673300561
 20
127.642231642
 30
0.0
 10
174.4089051381
 20
127.7117955602
 30
0.0
 10
174.5227240954
 20
127.7969397839
 30
0.0
 10
174.7029569284
 20
127.8702473743
 30
0.0
 10
174.9616110882
 20
127.9385495368
 30
0.0
 10
175.3621792123
 20
127.9822531271
 30
0.0
 10
175.9209488041
 20
127.9825062481
 30
0.0
 10
176.5688289639
 20
127.9320016066
 30
0.0
 10
177.5534028387
 20
127.795564697
 30
0.0
 10
178.3123726047
 20
127.6311027193
 30
0.0
 10
178.827402898
 20
127.4978030706
 30
0.0
  0
SPLINE
  5
7DF
100
AcDbEntity
  8
0
100
AcDbSpline
 62
7
  6
CONTINUOUS
 70
0
 71
3
 72
9
 73
5
 74
0
 42
0.0000001
 43
0.0000001
 44
0.0000000001
 40
0.0
 40
0.0
 40
0.0
 40
0.0
 40
0.2398240227
 40
1.0
 40
1.0
 40
1.0
 40
1.0
 10
181.9443533689
 20
148.4430905495
 30
0.0
 10
181.9596193077
 20
148.4440275805
 30
0.0
 10
182.0233577162
 20
148.4465321331
 30
0.0
 10
182.0872645434
 20
148.4436200649
 30
0.0
 10
182.1355175868
 20
148.4389357553
 30
0.0
  0
SPLINE
  5
7E0
100
AcDbEntity
  8
0
100
AcDbSpline
 62
7
  6
CONTINUOUS
 70
0
 71
3
 72
11
 73
7
 74
0
 42
0.0000001
 43
0.0000001
 44
0.0000000001
 40
0.0
 40
0.0
 40
0.0
 40
0.0
 40
0.2501942666
 40
0.5000000009
 40
0.7498057354
 40
1.0
 40
1.0
 40
1.0
 40
1.0
 10
192.1491844133
 20
181.9735977728
 30
0.0
 10
192.351327488
 20
180.6778726671
 30
0.0
 10
192.6637351938
 20
178.0729174416
 30
0.0
 10
192.8241058674
 20
174.1418830027
 30
0.0
 10
192.6637351971
 20
170.2108485735
 30
0.0
 10
192.3513274864
 20
167.6058933577
 30
0.0
 10
192.1491844133
 20
166.3101682619
 30
0.0
  0
SPLINE
  5
7E1
100
AcDbEntity
  8
0
100
AcDbSpline
 62
7
  6
CONTINUOUS
 70
0
 71
3
 72
11
 73
7
 74
0
 42
0.0000001
 43
0.0000001
 44
0.0000000001
 40
0.0
 40
0.0
 40
0.0
 40
0.0
 40
0.2517021932
 40
0.5000000008
 40
0.7482978086
 40
1.0
 40
1.0
 40
1.0
 40
1.0
 10
192.1491844133
 20
191.0168830174
 30
0.0
 10
192.3494100217
 20
190.2758919013
 30
0.0
 10
192.6621561518
 20
188.7787320929
 30
0.0
 10
192.8245674929
 20
186.4952403867
 30
0.0
 10
192.6621561551
 20
184.2117486855
 30
0.0
 10
192.3494100202
 20
182.7145888834
 30
0.0
 10
192.1491844133
 20
181.9735977728
 30
0.0
  0
SPLINE
  5
7E2
100
AcDbEntity
  8
RUNDUNGEN
100
AcDbSpline
 62
7
  6
CONTINUOUS
 70
0
 71
3
 72
9
 73
5
 74
0
 42
0.0000001
 43
0.0000001
 44
0.0000000001
 40
0.0
 40
0.0
 40
0.0
 40
0.0
 40
0.2398240227
 40
1.0
 40
1.0
 40
1.0
 40
1.0
 10
196.5104524271
 20
148.4430905495
 30
0.0
 10
196.4951864883
 20
148.4440275805
 30
0.0
 10
196.4314480798
 20
148.4465321331
 30
0.0
 10
196.3675412526
 20
148.4436200649
 30
0.0
 10
196.3192882092
 20
148.4389357553
 30
0.0
  0
SPLINE
  5
7E3
100
AcDbEntity
  8
BEZUGSACHSEN
100
AcDbSpline
 62
7
  6
CONTINUOUS
 70
0
 71
3
 72
19
 73
15
 74
0
 42
0.0000001
 43
0.0000001
 44
0.0000000001
 40
0.0
 40
0.0
 40
0.0
 40
0.0
 40
0.0615637168
 40
0.1233167015
 40
0.1853986847
 40
0.2478631715
 40
0.3734162268
 40
0.5
 40
0.6265837732
 40
0.7521368285
 40
0.8146013153
 40
0.8766832985
 40
0.9384362832
 40
1.0
 40
1.0
 40
1.0
 40
1.0
 10
196.3060093587
 20
121.5772391074
 30
0.0
 10
196.2630366802
 20
121.9965745795
 30
0.0
 10
196.0963794402
 20
122.8304867081
 30
0.0
 10
195.6143147791
 20
124.012559775
 30
0.0
 10
194.916295692
 20
125.0895327099
 30
0.0
 10
193.730673215
 20
126.3365164829
 30
0.0
 10
191.8335724724
 20
127.4619579459
 30
0.0
 10
189.227402898
 20
127.9268048278
 30
0.0
 10
186.6212333236
 20
127.4619579459
 30
0.0
 10
184.7241325811
 20
126.3365164829
 30
0.0
 10
183.538510104
 20
125.0895327099
 30
0.0
 10
182.8404910169
 20
124.012559775
 30
0.0
 10
182.3584263559
 20
122.8304867081
 30
0.0
 10
182.1917691158
 20
121.9965745795
 30
0.0
 10
182.1487964373
 20
121.5772391074
 30
0.0
  0
SPLINE
  5
7E4
100
AcDbEntity
  8
0
100
AcDbSpline
 62
7
  6
CONTINUOUS
 70
0
 71
3
 72
15
 73
11
 74
0
 42
0.0000001
 43
0.0000001
 44
0.0000000001
 40
0.0
 40
0.0
 40
0.0
 40
0.0
 40
0.3479979376
 40
0.50702823
 40
0.6499553565
 40
0.7727194712
 40
0.8721320193
 40
0.9125966003
 40
0.9469886965
 40
1.0
 40
1.0
 40
1.0
 40
1.0
 10
182.227402898
 20
133.186113936
 30
0.0
 10
181.7123726047
 20
133.3194135847
 30
0.0
 10
180.9534028387
 20
133.4838755624
 30
0.0
 10
179.9688289639
 20
133.620312472
 30
0.0
 10
179.3209488041
 20
133.6708171135
 30
0.0
 10
178.7621792123
 20
133.6705639925
 30
0.0
 10
178.3616110882
 20
133.6268604022
 30
0.0
 10
178.1029569284
 20
133.5585582398
 30
0.0
 10
177.9227240954
 20
133.4852506493
 30
0.0
 10
177.8089051381
 20
133.4001064257
 30
0.0
 10
177.7673300561
 20
133.3305425074
 30
0.0
  0
SPLINE
  5
7E5
100
AcDbEntity
  8
KONSTRUKTIONSELEMENTE
100
AcDbSpline
 62
7
  6
CONTINUOUS
 70
0
 71
3
 72
15
 73
11
 74
0
 42
0.0000001
 43
0.0000001
 44
0.0000000001
 40
0.0
 40
0.0
 40
0.0
 40
0.0
 40
0.124821211
 40
0.24969648
 40
0.3746520079
 40
0.4997008137
 40
0.6248494201
 40
0.7500472523
 40
0.8751730436
 40
1.0
 40
1.0
 40
1.0
 40
1.0
 10
190.127402898
 20
92.1792983198
 30
0.0
 10
190.9701629129
 20
92.1611740952
 30
0.0
 10
192.6638802163
 20
92.2848519321
 30
0.0
 10
195.121080381
 20
92.946394315
 30
0.0
 10
197.4117184589
 20
94.0600193374
 30
0.0
 10
199.4543262856
 20
95.5837457142
 30
0.0
 10
201.1813925499
 20
97.4591028041
 30
0.0
 10
202.5412411149
 20
99.6155535445
 30
0.0
 10
203.5008534753
 20
101.9733992497
 30
0.0
 10
203.8663523589
 20
103.6306568857
 30
0.0
 10
203.9807059983
 20
104.4658584131
 30
0.0
  0
SPLINE
  5
7E6
100
AcDbEntity
  8
0
100
AcDbSpline
 62
7
  6
CONTINUOUS
 70
0
 71
3
 72
20
 73
16
 74
0
 42
0.0000001
 43
0.0000001
 44
0.0000000001
 40
0.0
 40
0.0
 40
0.0
 40
0.0
 40
0.2531695759
 40
0.3790299778
 40
0.5037616203
 40
0.5657464621
 40
0.627390519
 40
0.6887091411
 40
0.7497970927
 40
0.8109220905
 40
0.841868524
 40
0.8730930538
 40
0.9046131008
 40
0.9363556354
 40
1.0
 40
1.0
 40
1.0
 40
1.0
 10
186.0574506303
 20
103.5285952216
 30
0.0
 10
184.9325403491
 20
103.736574906
 30
0.0
 10
183.2735668534
 20
104.2894401345
 30
0.0
 10
181.3541286063
 20
105.530185631
 30
0.0
 10
180.3316446571
 20
106.5238554853
 30
0.0
 10
179.6839230685
 20
107.4439925809
 30
0.0
 10
179.3049708158
 20
108.1927734969
 30
0.0
 10
179.0633232569
 20
108.9941388285
 30
0.0
 10
179.0040295302
 20
109.82972465
 30
0.0
 10
179.1698421987
 20
110.5194398267
 30
0.0
 10
179.4646341812
 20
110.9975085001
 30
0.0
 10
179.7671501661
 20
111.2994630299
 30
0.0
 10
180.1344590825
 20
111.5242392479
 30
0.0
 10
180.6779605626
 20
111.7168214786
 30
0.0
 10
181.1137271352
 20
111.7566134804
 30
0.0
 10
181.4013112918
 20
111.7566134804
 30
0.0
  0
SPLINE
  5
7E7
100
AcDbEntity
  8
RUNDUNGEN
100
AcDbSpline
 62
7
  6
CONTINUOUS
 70
0
 71
3
 72
20
 73
16
 74
0
 42
0.0000001
 43
0.0000001
 44
0.0000000001
 40
0.0
 40
0.0
 40
0.0
 40
0.0
 40
0.2531695759
 40
0.3790299778
 40
0.5037616203
 40
0.5657464621
 40
0.627390519
 40
0.6887091411
 40
0.7497970927
 40
0.8109220905
 40
0.841868524
 40
0.8730930538
 40
0.9046131008
 40
0.9363556354
 40
1.0
 40
1.0
 40
1.0
 40
1.0
 10
192.3973551657
 20
103.5285952216
 30
0.0
 10
193.5222654469
 20
103.736574906
 30
0.0
 10
195.1812389426
 20
104.2894401345
 30
0.0
 10
197.1006771897
 20
105.530185631
 30
0.0
 10
198.1231611389
 20
106.5238554853
 30
0.0
 10
198.7708827275
 20
107.4439925809
 30
0.0
 10
199.1498349802
 20
108.1927734969
 30
0.0
 10
199.3914825391
 20
108.9941388285
 30
0.0
 10
199.4507762658
 20
109.82972465
 30
0.0
 10
199.2849635973
 20
110.5194398267
 30
0.0
 10
198.9901716148
 20
110.9975085001
 30
0.0
 10
198.6876556299
 20
111.2994630299
 30
0.0
 10
198.3203467135
 20
111.5242392479
 30
0.0
 10
197.7768452334
 20
111.7168214786
 30
0.0
 10
197.3410786608
 20
111.7566134804
 30
0.0
 10
197.0534945042
 20
111.7566134804
 30
0.0
  0
SPLINE
  5
7E8
100
AcDbEntity
  8
0
100
AcDbSpline
 62
7
  6
CONTINUOUS
 70
0
 71
3
 72
15
 73
11
 74
0
 42
0.0000001
 43
0.0000001
 44
0.0000000001
 40
0.0
 40
0.0
 40
0.0
 40
0.0
 40
0.1237370085
 40
0.2484675528
 40
0.3740074793
 40
0.5
 40
0.6259925207
 40
0.7515324472
 40
0.8762629915
 40
1.0
 40
1.0
 40
1.0
 40
1.0
 10
179.2876149792
 20
105.2236638398
 30
0.0
 10
179.8531056194
 20
104.464735187
 30
0.0
 10
181.1774476828
 20
103.0722766754
 30
0.0
 10
183.5992638096
 20
101.5034596546
 30
0.0
 10
186.3335254985
 20
100.5257295194
 30
0.0
 10
189.227402898
 20
100.1941032295
 30
0.0
 10
192.1212802975
 20
100.5257295194
 30
0.0
 10
194.8555419864
 20
101.5034596546
 30
0.0
 10
197.2773581132
 20
103.0722766754
 30
0.0
 10
198.6017001766
 20
104.464735187
 30
0.0
 10
199.1671908168
 20
105.2236638398
 30
0.0
  0
SPLINE
  5
7E9
100
AcDbEntity
  8
0
100
AcDbSpline
 62
7
  6
CONTINUOUS
 70
0
 71
3
 72
15
 73
11
 74
0
 42
0.0000001
 43
0.0000001
 44
0.0000000001
 40
0.0
 40
0.0
 40
0.0
 40
0.0
 40
0.124897338
 40
0.2498549393
 40
0.3749060557
 40
0.500068381
 40
0.6253253237
 40
0.7505787772
 40
0.8755986442
 40
1.0
 40
1.0
 40
1.0
 40
1.0
 10
188.327402898
 20
92.1792983198
 30
0.0
 10
187.3940491491
 20
92.1592258049
 30
0.0
 10
185.5166936386
 20
92.315527057
 30
0.0
 10
182.8154743121
 20
93.132692485
 30
0.0
 10
180.3410322759
 20
94.4957782518
 30
0.0
 10
178.2002912285
 20
96.3413286844
 30
0.0
 10
176.4773067995
 20
98.5826610353
 30
0.0
 10
175.2303239225
 20
101.1174424299
 30
0.0
 10
174.4876988133
 20
103.8339038171
 30
0.0
 10
174.327402898
 20
105.7026932194
 30
0.0
 10
174.327402898
 20
106.6325554649
 30
0.0
  0
SPLINE
  5
7EA
100
AcDbEntity
  8
RUNDUNGEN
100
AcDbSpline
 62
7
  6
CONTINUOUS
 70
0
 71
3
 72
15
 73
11
 74
0
 42
0.0000001
 43
0.0000001
 44
0.0000000001
 40
0.0
 40
0.0
 40
0.0
 40
0.0
 40
0.3479979376
 40
0.50702823
 40
0.6499553565
 40
0.7727194712
 40
0.8721320193
 40
0.9125966003
 40
0.9469886965
 40
1.0
 40
1.0
 40
1.0
 40
1.0
 10
196.227402898
 20
133.186113936
 30
0.0
 10
196.7424331913
 20
133.3194135847
 30
0.0
 10
197.5014029573
 20
133.4838755624
 30
0.0
 10
198.4859768321
 20
133.620312472
 30
0.0
 10
199.1338569919
 20
133.6708171135
 30
0.0
 10
199.6926265837
 20
133.6705639925
 30
0.0
 10
200.0931947078
 20
133.6268604022
 30
0.0
 10
200.3518488676
 20
133.5585582398
 30
0.0
 10
200.5320817006
 20
133.4852506493
 30
0.0
 10
200.6459006579
 20
133.4001064257
 30
0.0
 10
200.6874757399
 20
133.3305425074
 30
0.0
  0
SPLINE
  5
7EB
100
AcDbEntity
  8
0
100
AcDbSpline
 62
7
  6
CONTINUOUS
 70
0
 71
3
 72
11
 73
7
 74
0
 42
0.0000001
 43
0.0000001
 44
0.0000000001
 40
0.0
 40
0.0
 40
0.0
 40
0.0
 40
0.2517021932
 40
0.5000000008
 40
0.7482978086
 40
1.0
 40
1.0
 40
1.0
 40
1.0
 10
186.3056213827
 20
191.0168830174
 30
0.0
 10
186.1053957743
 20
190.2758919013
 30
0.0
 10
185.7926496442
 20
188.7787320929
 30
0.0
 10
185.6302383031
 20
186.4952403867
 30
0.0
 10
185.7926496409
 20
184.2117486855
 30
0.0
 10
186.1053957758
 20
182.7145888834
 30
0.0
 10
186.3056213827
 20
181.9735977728
 30
0.0
  0
SPLINE
  5
7EC
100
AcDbEntity
  8
0
100
AcDbSpline
 62
7
  6
CONTINUOUS
 70
0
 71
3
 72
11
 73
7
 74
0
 42
0.0000001
 43
0.0000001
 44
0.0000000001
 40
0.0
 40
0.0
 40
0.0
 40
0.0
 40
0.2501942666
 40
0.5000000009
 40
0.7498057354
 40
1.0
 40
1.0
 40
1.0
 40
1.0
 10
186.3056213827
 20
181.9735977728
 30
0.0
 10
186.1034783081
 20
180.6778726671
 30
0.0
 10
185.7910706023
 20
178.0729174416
 30
0.0
 10
185.6306999286
 20
174.1418830027
 30
0.0
 10
185.7910705989
 20
170.2108485735
 30
0.0
 10
186.1034783096
 20
167.6058933577
 30
0.0
 10
186.3056213827
 20
166.3101682619
 30
0.0
  0
SPLINE
  5
7ED
100
AcDbEntity
  8
BEZUGSACHSEN
100
AcDbSpline
 62
7
  6
CONTINUOUS
 70
0
 71
3
 72
19
 73
15
 74
0
 42
0.0000001
 43
0.0000001
 44
0.0000000001
 40
0.0
 40
0.0
 40
0.0
 40
0.0
 40
0.1778967633
 40
0.3545486088
 40
0.5217859147
 40
0.6719031109
 40
0.7384048785
 40
0.7982087468
 40
0.850723054
 40
0.8954908416
 40
0.9322714555
 40
0.9611640028
 40
0.9829539914
 40
1.0
 40
1.0
 40
1.0
 40
1.0
 10
310.502226148
 20
80.9944724311
 30
0.0
 10
310.2138493554
 20
81.2730230228
 30
0.0
 10
309.6506113907
 20
81.8401927266
 30
0.0
 10
308.8553213845
 20
82.7069055245
 30
0.0
 10
308.1373815965
 20
83.5583197745
 30
0.0
 10
307.6120116514
 20
84.2463145942
 30
0.0
 10
307.2590793611
 20
84.7598498843
 30
0.0
 10
307.0440854546
 20
85.1008816439
 30
0.0
 10
306.8701971878
 20
85.4094979517
 30
0.0
 10
306.7393702702
 20
85.6821337626
 30
0.0
 10
306.6523762897
 20
85.9159677065
 30
0.0
 10
306.6103112425
 20
86.109359031
 30
0.0
 10
306.611855748
 20
86.2644517519
 30
0.0
 10
306.6535210991
 20
86.3472255298
 30
0.0
 10
306.6811569577
 20
86.3739123336
 30
0.0
  0
SPLINE
  5
7EE
100
AcDbEntity
  8
0
100
AcDbSpline
 62
7
  6
CONTINUOUS
 70
0
 71
3
 72
15
 73
11
 74
0
 42
0.0000001
 43
0.0000001
 44
0.0000000001
 40
0.0
 40
0.0
 40
0.0
 40
0.0
 40
0.2025962441
 40
0.3848823736
 40
0.5448367242
 40
0.681192932
 40
0.7932632935
 40
0.8813370639
 40
0.9478565545
 40
1.0
 40
1.0
 40
1.0
 40
1.0
 10
344.8677614075
 20
48.2802792387
 30
0.0
 10
344.6746477911
 20
48.4273018627
 30
0.0
 10
344.3033478005
 20
48.7008847732
 30
0.0
 10
343.7628446346
 20
49.0671470755
 30
0.0
 10
343.2725263896
 20
49.3649785524
 30
0.0
 10
342.8381909339
 20
49.5910578853
 30
0.0
 10
342.4642211966
 20
49.7441239028
 30
0.0
 10
342.1531132495
 20
49.8221897854
 30
0.0
 10
341.9015100715
 20
49.8276151114
 30
0.0
 10
341.7650120625
 20
49.7643514152
 30
0.0
 10
341.7200997494
 20
49.720933315
 30
0.0
  0
SPLINE
  5
7EF
100
AcDbEntity
  8
0
100
AcDbSpline
 62
7
  6
CONTINUOUS
 70
0
 71
3
 72
13
 73
9
 74
0
 42
0.0000001
 43
0.0000001
 44
0.0000000001
 40
0.0
 40
0.0
 40
0.0
 40
0.0
 40
0.3706048172
 40
0.6554979967
 40
0.7663831125
 40
0.8579849069
 40
0.9337145727
 40
1.0
 40
1.0
 40
1.0
 40
1.0
 10
324.5717371769
 20
67.6755726218
 30
0.0
 10
324.349762355
 20
67.8082010361
 30
0.0
 10
323.9489470495
 20
68.0291022938
 30
0.0
 10
323.4514123375
 20
68.2332097807
 30
0.0
 10
323.1181364739
 20
68.3056425343
 30
0.0
 10
322.9230559638
 20
68.3154758049
 30
0.0
 10
322.7607507296
 20
68.2842023085
 30
0.0
 10
322.6738026984
 20
68.2306349265
 30
0.0
 10
322.6405486432
 20
68.198492777
 30
0.0
  0
SPLINE
  5
7F0
100
AcDbEntity
  8
RUNDUNGEN
100
AcDbSpline
 62
7
  6
CONTINUOUS
 70
0
 71
3
 72
12
 73
8
 74
0
 42
0.0000001
 43
0.0000001
 44
0.0000000001
 40
0.0
 40
0.0
 40
0.0
 40
0.0
 40
0.0611670511
 40
0.1416527351
 40
0.3611634952
 40
0.6520783701
 40
1.0
 40
1.0
 40
1.0
 40
1.0
 10
363.1756710699
 20
27.8413386291
 30
0.0
 10
363.1756710699
 20
27.9017442028
 30
0.0
 10
363.1510215839
 20
28.0411603964
 30
0.0
 10
363.0315088354
 20
28.3776851568
 30
0.0
 10
362.7492563975
 20
28.8918433694
 30
0.0
 10
362.2739022337
 20
29.5937046001
 30
0.0
 10
361.8856107497
 20
30.0917389377
 30
0.0
 10
361.6680361023
 20
30.3576629303
 30
0.0
  0
SPLINE
  5
7F1
100
AcDbEntity
  8
RUNDUNGEN
100
AcDbSpline
 62
7
  6
CONTINUOUS
 70
0
 71
3
 72
12
 73
8
 74
0
 42
0.0000001
 43
0.0000001
 44
0.0000000001
 40
0.0
 40
0.0
 40
0.0
 40
0.0
 40
0.0546596699
 40
0.1355811206
 40
0.3693205547
 40
0.6720134141
 40
1.0
 40
1.0
 40
1.0
 40
1.0
 10
371.6609524441
 20
16.4456563948
 30
0.0
 10
371.6609524441
 20
16.4564946955
 30
0.0
 10
371.6533484191
 20
16.4829569101
 30
0.0
 10
371.621393259
 20
16.5486816151
 30
0.0
 10
371.5507727995
 20
16.6496125079
 30
0.0
 10
371.4410935317
 20
16.7812099378
 30
0.0
 10
371.3541761132
 20
16.8713890983
 30
0.0
 10
371.3073990535
 20
16.9165722683
 30
0.0
  0
SPLINE
  5
7F2
100
AcDbEntity
  8
RUNDUNGEN
100
AcDbSpline
 62
7
  6
CONTINUOUS
 70
0
 71
3
 72
12
 73
8
 74
0
 42
0.0000001
 43
0.0000001
 44
0.0000000001
 40
0.0
 40
0.0
 40
0.0
 40
0.0
 40
0.3828843386
 40
0.6764082435
 40
0.7880579935
 40
0.8770244361
 40
1.0
 40
1.0
 40
1.0
 40
1.0
 10
302.1331256767
 20
81.609743811
 30
0.0
 10
302.0826551458
 20
81.6455593187
 30
0.0
 10
301.9914409094
 20
81.7060420566
 30
0.0
 10
301.878904211
 20
81.7663798818
 30
0.0
 10
301.8028562359
 20
81.7926208055
 30
0.0
 10
301.7523359432
 20
81.8028173173
 30
0.0
 10
301.7136650226
 20
81.7967711315
 30
0.0
 10
301.699372396
 20
81.7829574383
 30
0.0
  0
SPLINE
  5
7F3
100
AcDbEntity
  8
RUNDUNGEN
100
AcDbSpline
 62
7
  6
CONTINUOUS
 70
0
 71
3
 72
9
 73
5
 74
0
 42
0.0000001
 43
0.0000001
 44
0.0000000001
 40
0.0
 40
0.0
 40
0.0
 40
0.0
 40
0.5571940918
 40
1.0
 40
1.0
 40
1.0
 40
1.0
 10
303.6166464972
 20
99.4134492768
 30
0.0
 10
303.4400432794
 20
99.4917175934
 30
0.0
 10
303.1171344997
 20
99.6191638121
 30
0.0
 10
302.7779252765
 20
99.7018454857
 30
0.0
 10
302.6253485287
 20
99.7187782143
 30
0.0
  0
SPLINE
  5
7F4
100
AcDbEntity
  8
RUNDUNGEN
100
AcDbSpline
 62
7
  6
CONTINUOUS
 70
0
 71
3
 72
13
 73
9
 74
0
 42
0.0000001
 43
0.0000001
 44
0.0000000001
 40
0.0
 40
0.0
 40
0.0
 40
0.0
 40
0.2854214061
 40
0.5742525815
 40
0.7065661541
 40
0.8242200404
 40
0.9230805445
 40
1.0
 40
1.0
 40
1.0
 40
1.0
 10
308.9462650499
 20
94.7952434441
 30
0.0
 10
308.5446991933
 20
95.286045094
 30
0.0
 10
307.6937717274
 20
96.238511533
 30
0.0
 10
306.5709361652
 20
97.3376749711
 30
0.0
 10
305.6663470343
 20
98.1222044598
 30
0.0
 10
305.0568435596
 20
98.6017130326
 30
0.0
 10
304.5198943802
 20
98.9719212273
 30
0.0
 10
304.1784684027
 20
99.1644569011
 30
0.0
 10
304.0222262848
 20
99.2337014352
 30
0.0
  0
SPLINE
  5
7F5
100
AcDbEntity
  8
RUNDUNGEN
100
AcDbSpline
 62
7
  6
CONTINUOUS
 70
0
 71
3
 72
12
 73
8
 74
0
 42
0.0000001
 43
0.0000001
 44
0.0000000001
 40
0.0
 40
0.0
 40
0.0
 40
0.0
 40
0.2854603788
 40
0.5743181109
 40
0.8242147096
 40
0.923084168
 40
1.0
 40
1.0
 40
1.0
 40
1.0
 10
318.8510632572
 20
82.6894052066
 30
0.0
 10
318.7305863025
 20
82.8366544987
 30
0.0
 10
318.4753314535
 20
83.1225273535
 30
0.0
 10
318.0822749038
 20
83.5066175413
 30
0.0
 10
317.7567283934
 20
83.7811826715
 30
0.0
 10
317.5231511499
 20
83.9424290158
 30
0.0
 10
317.4207184559
 20
84.0001718173
 30
0.0
 10
317.3738516277
 20
84.0209426039
 30
0.0
  0
SPLINE
  5
7F6
100
AcDbEntity
  8
RUNDUNGEN
100
AcDbSpline
 62
7
  6
CONTINUOUS
 70
0
 71
3
 72
9
 73
5
 74
0
 42
0.0000001
 43
0.0000001
 44
0.0000000001
 40
0.0
 40
0.0
 40
0.0
 40
0.0
 40
0.5394967105
 40
1.0
 40
1.0
 40
1.0
 40
1.0
 10
362.1691002849
 20
41.3114566202
 30
0.0
 10
361.8245367701
 20
41.644279418
 30
0.0
 10
361.1690326004
 20
42.2439316717
 30
0.0
 10
360.4746796954
 20
42.7995751677
 30
0.0
 10
360.1412013466
 20
43.0362221018
 30
0.0
  0
SPLINE
  5
7F7
100
AcDbEntity
  8
RUNDUNGEN
100
AcDbSpline
 62
7
  6
CONTINUOUS
 70
0
 71
3
 72
15
 73
11
 74
0
 42
0.0000001
 43
0.0000001
 44
0.0000000001
 40
0.0
 40
0.0
 40
0.0
 40
0.0
 40
0.0242383956
 40
0.0548387036
 40
0.13569646
 40
0.2416533658
 40
0.3694892989
 40
0.5147576498
 40
0.6721861923
 40
1.0
 40
1.0
 40
1.0
 40
1.0
 10
371.6609524441
 20
30.8489362548
 30
0.0
 10
371.6609524441
 20
30.8970173038
 30
0.0
 10
371.6452783469
 20
31.0056426149
 30
0.0
 10
371.5662015848
 20
31.2633986608
 30
0.0
 10
371.3756143327
 20
31.6526078396
 30
0.0
 10
371.0477306563
 20
32.1839214773
 30
0.0
 10
370.6099727994
 20
32.7959989125
 30
0.0
 10
370.0790597398
 20
33.4652706674
 30
0.0
 10
369.2616846431
 20
34.4122686106
 30
0.0
 10
368.5931320896
 20
35.1063183911
 30
0.0
 10
368.1254185382
 20
35.5580949897
 30
0.0
  0
SPLINE
  5
7F8
100
AcDbEntity
  8
RUNDUNGEN
100
AcDbSpline
 62
7
  6
CONTINUOUS
 70
0
 71
3
 72
8
 73
4
 74
0
 42
0.0000001
 43
0.0000001
 44
0.0000000001
 40
0.0
 40
0.0
 40
0.0
 40
0.0
 40
1.0
 40
1.0
 40
1.0
 40
1.0
 10
371.6546414725
 20
30.2225044742
 30
0.0
 10
371.6592979021
 20
30.22692894
 30
0.0
 10
371.6609524441
 20
30.2342882415
 30
0.0
 10
371.6609524441
 20
30.2407114988
 30
0.0
  0
SPLINE
  5
7F9
100
AcDbEntity
  8
RUNDUNGEN
100
AcDbSpline
 62
7
  6
CONTINUOUS
 70
0
 71
3
 72
11
 73
7
 74
0
 42
0.0000001
 43
0.0000001
 44
0.0000000001
 40
0.0
 40
0.0
 40
0.0
 40
0.0
 40
0.1008954196
 40
0.3111966543
 40
0.6217757928
 40
1.0
 40
1.0
 40
1.0
 40
1.0
 10
368.1191075666
 20
26.8074409647
 30
0.0
 10
368.1087141419
 20
26.7975652967
 30
0.0
 10
368.0553450867
 20
26.8113139898
 30
0.0
 10
367.9865113679
 20
26.8555088624
 30
0.0
 10
367.8819608172
 20
26.9346661051
 30
0.0
 10
367.8105215534
 20
27.0004055969
 30
0.0
 10
367.7718651476
 20
27.0377448177
 30
0.0
  0
SPLINE
  5
7FA
100
AcDbEntity
  8
0
100
AcDbSpline
 62
7
  6
CONTINUOUS
 70
0
 71
3
 72
9
 73
5
 74
0
 42
0.0000001
 43
0.0000001
 44
0.0000000001
 40
0.0
 40
0.0
 40
0.0
 40
0.0
 40
0.4519578096
 40
1.0
 40
1.0
 40
1.0
 40
1.0
 10
322.2931711272
 20
68.5581163813
 30
0.0
 10
322.2487228994
 20
68.5151543552
 30
0.0
 10
322.1774093771
 20
68.3912999396
 30
0.0
 10
322.1634777611
 20
68.2526134858
 30
0.0
 10
322.1634777611
 20
68.1776540606
 30
0.0
  0
SPLINE
  5
7FB
100
AcDbEntity
  8
0
100
AcDbSpline
 62
7
  6
CONTINUOUS
 70
0
 71
3
 72
9
 73
5
 74
0
 42
0.0000001
 43
0.0000001
 44
0.0000000001
 40
0.0
 40
0.0
 40
0.0
 40
0.0
 40
0.4520431102
 40
1.0
 40
1.0
 40
1.0
 40
1.0
 10
341.3727233314
 20
50.0805579191
 30
0.0
 10
341.3325019564
 20
50.0416746916
 30
0.0
 10
341.2679960166
 20
49.9296028149
 30
0.0
 10
341.2553608531
 20
49.8041244942
 30
0.0
 10
341.2553608531
 20
49.7363111095
 30
0.0
  0
SPLINE
  5
7FC
100
AcDbEntity
  8
RUNDUNGEN
100
AcDbSpline
 62
7
  6
CONTINUOUS
 70
0
 71
3
 72
9
 73
5
 74
0
 42
0.0000001
 43
0.0000001
 44
0.0000000001
 40
0.0
 40
0.0
 40
0.0
 40
0.0
 40
0.2218388199
 40
1.0
 40
1.0
 40
1.0
 40
1.0
 10
371.599138639
 20
15.6562149595
 30
0.0
 10
371.6094913579
 20
15.6662246007
 30
0.0
 10
371.6503480025
 20
15.71773004
 30
0.0
 10
371.6609524441
 20
15.7869182197
 30
0.0
 10
371.6609524441
 20
15.8374316388
 30
0.0
  0
SPLINE
  5
7FD
100
AcDbEntity
  8
RUNDUNGEN
100
AcDbSpline
 62
7
  6
CONTINUOUS
 70
0
 71
3
 72
17
 73
13
 74
0
 42
0.0000001
 43
0.0000001
 44
0.0000000001
 40
0.0
 40
0.0
 40
0.0
 40
0.0
 40
0.0189539837
 40
0.0414302201
 40
0.0695939616
 40
0.1044390794
 40
0.195284729
 40
0.3139040609
 40
0.4578061746
 40
0.6232535765
 40
0.8057319941
 40
1.0
 40
1.0
 40
1.0
 40
1.0
 10
368.0636047331
 20
12.24115145
 30
0.0
 10
368.044140219
 20
12.2223319686
 30
0.0
 10
367.9904705737
 20
12.1922050248
 30
0.0
 10
367.8901396196
 20
12.1810407941
 30
0.0
 10
367.7683706581
 20
12.1969137225
 30
0.0
 10
367.5569951157
 20
12.2591841772
 30
0.0
 10
367.2411437356
 20
12.4115230342
 30
0.0
 10
366.8114216116
 20
12.6768183285
 30
0.0
 10
366.3149854513
 20
13.0343942218
 30
0.0
 10
365.7665714194
 20
13.4738217157
 30
0.0
 10
365.182535682
 20
13.9827818832
 30
0.0
 10
364.7894785575
 20
14.3505434861
 30
0.0
 10
364.5898846323
 20
14.5433364133
 30
0.0
  0
SPLINE
  5
7FE
100
AcDbEntity
  8
RUNDUNGEN
100
AcDbSpline
 62
7
  6
CONTINUOUS
 70
0
 71
3
 72
14
 73
10
 74
0
 42
0.0000001
 43
0.0000001
 44
0.0000000001
 40
0.0
 40
0.0
 40
0.0
 40
0.0
 40
0.0563087688
 40
0.1252728761
 40
0.2140080878
 40
0.3253374145
 40
0.4601132286
 40
0.6181517035
 40
1.0
 40
1.0
 40
1.0
 40
1.0
 10
311.6341762822
 20
75.3161528943
 30
0.0
 10
311.6122956015
 20
75.2950115596
 30
0.0
 10
311.5493017253
 20
75.2624065147
 30
0.0
 10
311.4319402705
 20
75.2565667082
 30
0.0
 10
311.2883833876
 20
75.2836072194
 30
0.0
 10
311.117115741
 20
75.3433147557
 30
0.0
 10
310.9188077823
 20
75.4353119839
 30
0.0
 10
310.5996656773
 20
75.6119274373
 30
0.0
 10
310.3565704891
 20
75.774123569
 30
0.0
 10
310.1883062734
 20
75.8935292543
 30
0.0
  0
SPLINE
  5
7FF
100
AcDbEntity
  8
RUNDUNGEN
100
AcDbSpline
 62
7
  6
CONTINUOUS
 70
0
 71
3
 72
13
 73
9
 74
0
 42
0.0000001
 43
0.0000001
 44
0.0000000001
 40
0.0
 40
0.0
 40
0.0
 40
0.0
 40
0.1048261079
 40
0.1937409091
 40
0.3092274242
 40
0.450140157
 40
0.6142997138
 40
1.0
 40
1.0
 40
1.0
 40
1.0
 10
311.9865735741
 20
90.8002664315
 30
0.0
 10
312.0102748014
 20
90.823199395
 30
0.0
 10
312.0044233186
 20
90.8980438595
 30
0.0
 10
311.9725890815
 20
90.9854713134
 30
0.0
 10
311.9244009337
 20
91.0847027167
 30
0.0
 10
311.8569328668
 20
91.198020311
 30
0.0
 10
311.7356447499
 20
91.3787179008
 30
0.0
 10
311.6296324696
 20
91.5155792616
 30
0.0
 10
311.5527908939
 20
91.6094965395
 30
0.0
  0
SPLINE
  5
800
100
AcDbEntity
  8
RUNDUNGEN
100
AcDbSpline
 62
7
  6
CONTINUOUS
 70
0
 71
3
 72
9
 73
5
 74
0
 42
0.0000001
 43
0.0000001
 44
0.0000000001
 40
0.0
 40
0.0
 40
0.0
 40
0.0
 40
0.2218259981
 40
1.0
 40
1.0
 40
1.0
 40
1.0
 10
363.1138633091
 20
35.0561204882
 30
0.0
 10
363.1242154737
 20
35.0661290087
 30
0.0
 10
363.1650708415
 20
35.1176338902
 30
0.0
 10
363.1756710699
 20
35.1868210697
 30
0.0
 10
363.1756710699
 20
35.2373341099
 30
0.0
  0
SPLINE
  5
801
100
AcDbEntity
  8
BEZUGSACHSEN
100
AcDbSpline
 62
7
  6
CONTINUOUS
 70
0
 71
3
 72
17
 73
13
 74
0
 42
0.0000001
 43
0.0000001
 44
0.0000000001
 40
0.0
 40
0.0
 40
0.0
 40
0.0
 40
0.0189512797
 40
0.0414288813
 40
0.0695943013
 40
0.1044416963
 40
0.1952895013
 40
0.3139070103
 40
0.4578095764
 40
0.62325674
 40
0.8057316444
 40
1.0
 40
1.0
 40
1.0
 40
1.0
 10
314.3232953383
 20
78.4620420247
 30
0.0
 10
314.3018747449
 20
78.4413570451
 30
0.0
 10
314.242833854
 20
78.4082437342
 30
0.0
 10
314.1324739247
 20
78.3959492384
 30
0.0
 10
313.9985186785
 20
78.4134102971
 30
0.0
 10
313.7660033778
 20
78.4819248742
 30
0.0
 10
313.4185693437
 20
78.6495025526
 30
0.0
 10
312.9458785598
 20
78.9413267867
 30
0.0
 10
312.3998088956
 20
79.334659843
 30
0.0
 10
311.7965618791
 20
79.8180215198
 30
0.0
 10
311.1541339429
 20
80.3778714163
 30
0.0
 10
310.7217779573
 20
80.7824016682
 30
0.0
 10
310.502226148
 20
80.9944724311
 30
0.0
  0
SPLINE
  5
802
100
AcDbEntity
  8
0
100
AcDbSpline
 62
7
  6
CONTINUOUS
 70
0
 71
3
 72
12
 73
8
 74
0
 42
0.0000001
 43
0.0000001
 44
0.0000000001
 40
0.0
 40
0.0
 40
0.0
 40
0.0
 40
0.1658116919
 40
0.2636046688
 40
0.3758601579
 40
0.6511644036
 40
1.0
 40
1.0
 40
1.0
 40
1.0
 10
303.9702140696
 20
89.4502484834
 30
0.0
 10
304.0426404442
 20
89.5201954355
 30
0.0
 10
304.1953507692
 20
89.5938304532
 30
0.0
 10
304.4221569636
 20
89.6216000146
 30
0.0
 10
304.7179718126
 20
89.610051862
 30
0.0
 10
305.1559412988
 20
89.5052148876
 30
0.0
 10
305.5092320626
 20
89.3663921774
 30
0.0
 10
305.7028939644
 20
89.2805636674
 30
0.0
  0
SPLINE
  5
803
100
AcDbEntity
  8
RUNDUNGEN
100
AcDbSpline
 62
7
  6
CONTINUOUS
 70
0
 71
3
 72
17
 73
13
 74
0
 42
0.0000001
 43
0.0000001
 44
0.0000000001
 40
0.0
 40
0.0
 40
0.0
 40
0.0
 40
0.2004376519
 40
0.3841497247
 40
0.5476300172
 40
0.6879684615
 40
0.8029597635
 40
0.8915101131
 40
0.9261316281
 40
0.9548846706
 40
0.9788562398
 40
1.0
 40
1.0
 40
1.0
 40
1.0
 10
302.5121870786
 20
88.6036429582
 30
0.0
 10
302.1379242706
 20
89.0610742877
 30
0.0
 10
301.4337048264
 20
89.9486020487
 30
0.0
 10
300.4756003804
 20
91.2489806287
 30
0.0
 10
299.6738009984
 20
92.4427578678
 30
0.0
 10
299.043111859
 20
93.5058431238
 30
0.0
 10
298.5957837762
 20
94.4166336134
 30
0.0
 10
298.3606746334
 20
95.0827671603
 30
0.0
 10
298.2882826482
 20
95.5262264606
 30
0.0
 10
298.2891340202
 20
95.7854074791
 30
0.0
 10
298.3421354121
 20
95.9997228215
 30
0.0
 10
298.418769091
 20
96.1131026702
 30
0.0
 10
298.4635842442
 20
96.1564465316
 30
0.0
  0
SPLINE
  5
804
100
AcDbEntity
  8
0
100
AcDbSpline
 62
7
  6
CONTINUOUS
 70
0
 71
3
 72
15
 73
11
 74
0
 42
0.0000001
 43
0.0000001
 44
0.0000000001
 40
0.0
 40
0.0
 40
0.0
 40
0.0
 40
0.2009938236
 40
0.380733903
 40
0.538065945
 40
0.6723530975
 40
0.7835391936
 40
0.872534011
 40
0.9423491996
 40
1.0
 40
1.0
 40
1.0
 40
1.0
 10
301.8509012461
 20
81.8929695567
 30
0.0
 10
301.6855050911
 20
82.1500161032
 30
0.0
 10
301.380281248
 20
82.6422322607
 30
0.0
 10
300.9792669002
 20
83.3558366004
 30
0.0
 10
300.6624795145
 20
83.9993875691
 30
0.0
 10
300.4322539393
 20
84.567768698
 30
0.0
 10
300.2892597249
 20
85.0572712457
 30
0.0
 10
300.2349422575
 20
85.4663726159
 30
0.0
 10
300.2700448803
 20
85.7990106279
 30
0.0
 10
300.3716163377
 20
85.9742800558
 30
0.0
 10
300.4346801637
 20
86.0351849739
 30
0.0
  0
SPLINE
  5
805
100
AcDbEntity
  8
RUNDUNGEN
100
AcDbSpline
 62
7
  6
CONTINUOUS
 70
0
 71
3
 72
12
 73
8
 74
0
 42
0.0000001
 43
0.0000001
 44
0.0000000001
 40
0.0
 40
0.0
 40
0.0
 40
0.0
 40
0.3839151376
 40
0.6784059315
 40
0.7902036726
 40
0.8789455224
 40
1.0
 40
1.0
 40
1.0
 40
1.0
 10
298.3371195042
 20
77.9055802076
 30
0.0
 10
298.3005668682
 20
77.9599948111
 30
0.0
 10
298.2389502552
 20
78.0582317578
 30
0.0
 10
298.1778453657
 20
78.1788498757
 30
0.0
 10
298.1517538919
 20
78.2599200298
 30
0.0
 10
298.1420253886
 20
78.3130516062
 30
0.0
 10
298.1490111263
 20
78.353610664
 30
0.0
 10
298.1638977816
 20
78.3679500097
 30
0.0
  0
SPLINE
  5
806
100
AcDbEntity
  8
RUNDUNGEN
100
AcDbSpline
 62
7
  6
CONTINUOUS
 70
0
 71
3
 72
11
 73
7
 74
0
 42
0.0000001
 43
0.0000001
 44
0.0000000001
 40
0.0
 40
0.0
 40
0.0
 40
0.0
 40
0.2283935007
 40
0.4975020238
 40
0.7679048038
 40
1.0
 40
1.0
 40
1.0
 40
1.0
 10
303.3834332653
 20
71.0701690326
 30
0.0
 10
303.2512399984
 20
71.1639776155
 30
0.0
 10
302.9784455413
 20
71.3894070531
 30
0.0
 10
302.5854911758
 20
71.7675180145
 30
0.0
 10
302.2176256683
 20
72.1736570915
 30
0.0
 10
301.9980736046
 20
72.4556486182
 30
0.0
 10
301.9062216358
 20
72.592385363
 30
0.0
  0
SPLINE
  5
807
100
AcDbEntity
  8
RUNDUNGEN
100
AcDbSpline
 62
7
  6
CONTINUOUS
 70
0
 71
3
 72
9
 73
5
 74
0
 42
0.0000001
 43
0.0000001
 44
0.0000000001
 40
0.0
 40
0.0
 40
0.0
 40
0.0
 40
0.50882034
 40
1.0
 40
1.0
 40
1.0
 40
1.0
 10
358.633566379
 20
20.2966980437
 30
0.0
 10
358.2690583309
 20
20.6487857813
 30
0.0
 10
357.5724355762
 20
21.3614028901
 30
0.0
 10
356.9154577116
 20
22.1109007447
 30
0.0
 10
356.6056674406
 20
22.4895324774
 30
0.0
  0
SPLINE
  5
808
100
AcDbEntity
  8
RUNDUNGEN
100
AcDbSpline
 62
7
  6
CONTINUOUS
 70
0
 71
3
 72
9
 73
5
 74
0
 42
0.0000001
 43
0.0000001
 44
0.0000000001
 40
0.0
 40
0.0
 40
0.0
 40
0.0
 40
0.2929719602
 40
1.0
 40
1.0
 40
1.0
 40
1.0
 10
363.1756710699
 20
37.0133591734
 30
0.0
 10
363.1756710699
 20
37.0323214404
 30
0.0
 10
363.1790480037
 20
37.0965185793
 30
0.0
 10
363.2045859121
 20
37.1627671649
 30
0.0
 10
363.2374847479
 20
37.1945757666
 30
0.0
  0
SPLINE
  5
809
100
AcDbEntity
  8
RUNDUNGEN
100
AcDbSpline
 62
7
  6
CONTINUOUS
 70
0
 71
3
 72
9
 73
5
 74
0
 42
0.0000001
 43
0.0000001
 44
0.0000000001
 40
0.0
 40
0.0
 40
0.0
 40
0.0
 40
0.5385571132
 40
1.0
 40
1.0
 40
1.0
 40
1.0
 10
363.1756710699
 20
31.47732738
 30
0.0
 10
362.8356804553
 20
31.8057330954
 30
0.0
 10
362.187959825
 20
32.3986852348
 30
0.0
 10
361.5024338289
 20
32.9488160484
 30
0.0
 10
361.1728622365
 20
33.1842289519
 30
0.0
  0
SPLINE
  5
80A
100
AcDbEntity
  8
RUNDUNGEN
100
AcDbSpline
 62
7
  6
CONTINUOUS
 70
0
 71
3
 72
15
 73
11
 74
0
 42
0.0000001
 43
0.0000001
 44
0.0000000001
 40
0.0
 40
0.0
 40
0.0
 40
0.0
 40
0.3278135477
 40
0.4852421108
 40
0.6305104969
 40
0.7583464491
 40
0.8643033922
 40
0.9451612484
 40
0.9757615911
 40
1.0
 40
1.0
 40
1.0
 40
1.0
 10
366.7112049758
 20
21.3561548306
 30
0.0
 10
366.2434917956
 20
21.8079310707
 30
0.0
 10
365.574939561
 20
22.5019804942
 30
0.0
 10
364.7575646647
 20
23.4489780744
 30
0.0
 10
364.2266514685
 20
24.1182499091
 30
0.0
 10
363.7888934553
 20
24.7303274566
 30
0.0
 10
363.461009547
 20
25.2616413088
 30
0.0
 10
363.2704220633
 20
25.6508507642
 30
0.0
 10
363.1913452217
 20
25.9086070886
 30
0.0
 10
363.1756710699
 20
26.0172324901
 30
0.0
 10
363.1756710699
 20
26.0653135656
 30
0.0
  0
SPLINE
  5
80B
100
AcDbEntity
  8
RUNDUNGEN
100
AcDbSpline
 62
7
  6
CONTINUOUS
 70
0
 71
3
 72
15
 73
11
 74
0
 42
0.0000001
 43
0.0000001
 44
0.0000000001
 40
0.0
 40
0.0
 40
0.0
 40
0.0
 40
0.2012405783
 40
0.3857565601
 40
0.5498973651
 40
0.6908119026
 40
0.8062567961
 40
0.854060597
 40
0.8952267976
 40
1.0
 40
1.0
 40
1.0
 40
1.0
 10
356.3387445841
 20
36.8712273352
 30
0.0
 10
356.1783420996
 20
37.0672743914
 30
0.0
 10
355.8764767771
 20
37.4477150674
 30
0.0
 10
355.4658076444
 20
38.005152968
 30
0.0
 10
355.1220676862
 20
38.516739962
 30
0.0
 10
354.851950068
 20
38.9728242599
 30
0.0
 10
354.6826381571
 20
39.3156431179
 30
0.0
 10
354.5917527617
 20
39.5588756122
 30
0.0
 10
354.5267725077
 20
39.7861998994
 30
0.0
 10
354.5089257138
 20
40.0167340359
 30
0.0
 10
354.6038080379
 20
40.1083289755
 30
0.0
  0
SPLINE
  5
80C
100
AcDbEntity
  8
RUNDUNGEN
100
AcDbSpline
 62
7
  6
CONTINUOUS
 70
0
 71
3
 72
12
 73
8
 74
0
 42
0.0000001
 43
0.0000001
 44
0.0000000001
 40
0.0
 40
0.0
 40
0.0
 40
0.0
 40
0.1026154206
 40
0.2170880099
 40
0.4713551709
 40
0.7403400996
 40
1.0
 40
1.0
 40
1.0
 40
1.0
 10
345.1310712961
 20
53.6878919014
 30
0.0
 10
344.6580649293
 20
54.0235523929
 30
0.0
 10
343.6778174833
 20
54.7625672735
 30
0.0
 10
341.6194251251
 20
56.4548067304
 30
0.0
 10
338.9589531789
 20
58.8908502744
 30
0.0
 10
335.8640064296
 20
62.0561149106
 30
0.0
 10
333.8930496315
 20
64.3047950402
 30
0.0
 10
332.9636776659
 20
65.4406916474
 30
0.0
  0
SPLINE
  5
80D
100
AcDbEntity
  8
RUNDUNGEN
100
AcDbSpline
 62
7
  6
CONTINUOUS
 70
0
 71
3
 72
12
 73
8
 74
0
 42
0.0000001
 43
0.0000001
 44
0.0000000001
 40
0.0
 40
0.0
 40
0.0
 40
0.0
 40
0.2596599004
 40
0.5286448291
 40
0.7829119901
 40
0.8973845794
 40
1.0
 40
1.0
 40
1.0
 40
1.0
 10
341.5955373901
 20
40.8352072214
 30
0.0
 10
340.6661654245
 20
41.9711038285
 30
0.0
 10
338.6952086264
 20
44.2197839581
 30
0.0
 10
335.6002618771
 20
47.3850485944
 30
0.0
 10
332.9397899309
 20
49.8210921383
 30
0.0
 10
330.8813975727
 20
51.5133315952
 30
0.0
 10
329.9011501267
 20
52.2523464758
 30
0.0
 10
329.4281437599
 20
52.5880069674
 30
0.0
  0
SPLINE
  5
80E
100
AcDbEntity
  8
RUNDUNGEN
100
AcDbSpline
 62
7
  6
CONTINUOUS
 70
0
 71
3
 72
12
 73
8
 74
0
 42
0.0000001
 43
0.0000001
 44
0.0000000001
 40
0.0
 40
0.0
 40
0.0
 40
0.0
 40
0.0769163679
 40
0.1757857774
 40
0.42568196
 40
0.7145393197
 40
1.0
 40
1.0
 40
1.0
 40
1.0
 10
315.751532477
 20
84.7399339705
 30
0.0
 10
315.6734205524
 20
84.7745521893
 30
0.0
 10
315.5026990499
 20
84.8707906972
 30
0.0
 10
315.1134034857
 20
85.1395344776
 30
0.0
 10
314.5708268435
 20
85.597142661
 30
0.0
 10
313.9157329834
 20
86.2372925649
 30
0.0
 10
313.4903082306
 20
86.7137472204
 30
0.0
 10
313.2895130945
 20
86.959162966
 30
0.0
  0
SPLINE
  5
80F
100
AcDbEntity
  8
RUNDUNGEN
100
AcDbSpline
 62
7
  6
CONTINUOUS
 70
0
 71
3
 72
11
 73
7
 74
0
 42
0.0000001
 43
0.0000001
 44
0.0000000001
 40
0.0
 40
0.0
 40
0.0
 40
0.0
 40
0.3782242072
 40
0.6888033457
 40
0.8991045804
 40
1.0
 40
1.0
 40
1.0
 40
1.0
 10
371.3073990535
 20
30.4528083272
 30
0.0
 10
371.3460554594
 20
30.4154691064
 30
0.0
 10
371.4174947231
 20
30.3497296146
 30
0.0
 10
371.5220452739
 20
30.2705723719
 30
0.0
 10
371.5908789926
 20
30.2263774993
 30
0.0
 10
371.6442480478
 20
30.2126288061
 30
0.0
 10
371.6546414725
 20
30.2225044742
 30
0.0
  0
SPLINE
  5
810
100
AcDbEntity
  8
RUNDUNGEN
100
AcDbSpline
 62
7
  6
CONTINUOUS
 70
0
 71
3
 72
14
 73
10
 74
0
 42
0.0000001
 43
0.0000001
 44
0.0000000001
 40
0.0
 40
0.0
 40
0.0
 40
0.0
 40
0.3818348225
 40
0.5398672732
 40
0.6746447813
 40
0.7859788682
 40
0.8747177379
 40
0.9436856704
 40
1.0
 40
1.0
 40
1.0
 40
1.0
 10
361.6680361023
 20
35.6335369122
 30
0.0
 10
361.8362890924
 20
35.514139193
 30
0.0
 10
362.0793673587
 20
35.3519535494
 30
0.0
 10
362.3984887651
 20
35.1753441756
 30
0.0
 10
362.5967889335
 20
35.0833464132
 30
0.0
 10
362.7680549611
 20
35.0236338241
 30
0.0
 10
362.9116110783
 20
34.9965861138
 30
0.0
 10
363.0289733989
 20
35.0023803822
 30
0.0
 10
363.0919876552
 20
35.0349710051
 30
0.0
 10
363.1138633091
 20
35.0561204882
 30
0.0
  0
SPLINE
  5
811
100
AcDbEntity
  8
RUNDUNGEN
100
AcDbSpline
 62
7
  6
CONTINUOUS
 70
0
 71
3
 72
17
 73
13
 74
0
 42
0.0000001
 43
0.0000001
 44
0.0000000001
 40
0.0
 40
0.0
 40
0.0
 40
0.0
 40
0.1942680059
 40
0.3767464235
 40
0.5421938254
 40
0.6860959391
 40
0.804715271
 40
0.8955609206
 40
0.9304060384
 40
0.9585697799
 40
0.9810460163
 40
1.0
 40
1.0
 40
1.0
 40
1.0
 10
368.1254185382
 20
17.9583999228
 30
0.0
 10
368.3250124635
 20
17.7656069956
 30
0.0
 10
368.7180695879
 20
17.3978453927
 30
0.0
 10
369.3021053253
 20
16.8888852251
 30
0.0
 10
369.8505193572
 20
16.4494577313
 30
0.0
 10
370.3469555175
 20
16.091881838
 30
0.0
 10
370.7766776416
 20
15.8265865437
 30
0.0
 10
371.0925290216
 20
15.6742476867
 30
0.0
 10
371.303904564
 20
15.611977232
 30
0.0
 10
371.4256735255
 20
15.5961043036
 30
0.0
 10
371.5260044797
 20
15.6072685343
 30
0.0
 10
371.5796741249
 20
15.6373954781
 30
0.0
 10
371.599138639
 20
15.6562149595
 30
0.0
  0
SPLINE
  5
812
100
AcDbEntity
  8
RUNDUNGEN
100
AcDbSpline
 62
7
  6
CONTINUOUS
 70
0
 71
3
 72
9
 73
5
 74
0
 42
0.0000001
 43
0.0000001
 44
0.0000000001
 40
0.0
 40
0.0
 40
0.0
 40
0.0
 40
0.49117966
 40
1.0
 40
1.0
 40
1.0
 40
1.0
 10
360.1412013466
 20
25.9045959869
 30
0.0
 10
360.4509916175
 20
25.5259642541
 30
0.0
 10
361.1079694821
 20
24.7764663995
 30
0.0
 10
361.8045922368
 20
24.0638492907
 30
0.0
 10
362.1691002849
 20
23.7117615532
 30
0.0
  0
SPLINE
  5
813
100
AcDbEntity
  8
RUNDUNGEN
100
AcDbSpline
 62
7
  6
CONTINUOUS
 70
0
 71
3
 72
11
 73
7
 74
0
 42
0.0000001
 43
0.0000001
 44
0.0000000001
 40
0.0
 40
0.0
 40
0.0
 40
0.0
 40
0.2321082131
 40
0.5025206982
 40
0.7716173963
 40
1.0
 40
1.0
 40
1.0
 40
1.0
 10
305.4417555417
 20
76.0074488725
 30
0.0
 10
305.533612662
 20
75.8707044588
 30
0.0
 10
305.7531758795
 20
75.5887010611
 30
0.0
 10
306.1210480364
 20
75.1825575777
 30
0.0
 10
306.5139975681
 20
74.8044549136
 30
0.0
 10
306.7867802115
 20
74.5790366492
 30
0.0
 10
306.9189671712
 20
74.4852325421
 30
0.0
  0
SPLINE
  5
814
100
AcDbEntity
  8
0
100
AcDbSpline
 62
7
  6
CONTINUOUS
 70
0
 71
3
 72
15
 73
11
 74
0
 42
0.0000001
 43
0.0000001
 44
0.0000000001
 40
0.0
 40
0.0
 40
0.0
 40
0.0
 40
0.2018499553
 40
0.3828567064
 40
0.5413894942
 40
0.6765595027
 40
0.7880615151
 40
0.8765600154
 40
0.9448337862
 40
1.0
 40
1.0
 40
1.0
 40
1.0
 10
305.7028939644
 20
84.826988501
 30
0.0
 10
305.5101553382
 20
85.1139116087
 30
0.0
 10
305.1533887499
 20
85.6641573473
 30
0.0
 10
304.6814198064
 20
86.4624629942
 30
0.0
 10
304.3047036745
 20
87.1833652439
 30
0.0
 10
304.0265762191
 20
87.8198031558
 30
0.0
 10
303.8481669704
 20
88.3668223347
 30
0.0
 10
303.7713337973
 20
88.8219031538
 30
0.0
 10
303.7954136686
 20
89.1899701094
 30
0.0
 10
303.9022629281
 20
89.3846235606
 30
0.0
 10
303.9702140696
 20
89.4502484834
 30
0.0
  0
SPLINE
  5
815
100
AcDbEntity
  8
0
100
AcDbSpline
 62
7
  6
CONTINUOUS
 70
0
 71
3
 72
13
 73
9
 74
0
 42
0.0000001
 43
0.0000001
 44
0.0000000001
 40
0.0
 40
0.0
 40
0.0
 40
0.0
 40
0.3706048172
 40
0.6554979967
 40
0.7663831125
 40
0.8579849069
 40
0.9337145727
 40
1.0
 40
1.0
 40
1.0
 40
1.0
 10
324.3209190875
 20
68.0090502183
 30
0.0
 10
324.0878455246
 20
68.1483100534
 30
0.0
 10
323.6669894538
 20
68.3802563739
 30
0.0
 10
323.1445780062
 20
68.5945692352
 30
0.0
 10
322.7946383494
 20
68.6706236264
 30
0.0
 10
322.5898038138
 20
68.6809485606
 30
0.0
 10
322.4193833179
 20
68.6481113894
 30
0.0
 10
322.3280878851
 20
68.5918656383
 30
0.0
 10
322.2931711272
 20
68.5581163813
 30
0.0
  0
SPLINE
  5
816
100
AcDbEntity
  8
RUNDUNGEN
100
AcDbSpline
 62
7
  6
CONTINUOUS
 70
0
 71
3
 72
9
 73
5
 74
0
 42
0.0000001
 43
0.0000001
 44
0.0000000001
 40
0.0
 40
0.0
 40
0.0
 40
0.0
 40
0.6294496393
 40
1.0
 40
1.0
 40
1.0
 40
1.0
 10
311.8132631604
 20
90.8172026671
 30
0.0
 10
311.8478205647
 20
90.8018872618
 30
0.0
 10
311.9020727208
 20
90.7785988998
 30
0.0
 10
311.9705820167
 20
90.7847932327
 30
0.0
 10
311.9865735741
 20
90.8002664315
 30
0.0
  0
SPLINE
  5
817
100
AcDbEntity
  8
0
100
AcDbSpline
 62
7
  6
CONTINUOUS
 70
0
 71
3
 72
9
 73
5
 74
0
 42
0.0000001
 43
0.0000001
 44
0.0000000001
 40
0.0
 40
0.0
 40
0.0
 40
0.0
 40
0.4519578096
 40
1.0
 40
1.0
 40
1.0
 40
1.0
 10
322.6405486432
 20
68.198492777
 30
0.0
 10
322.5982169977
 20
68.1575765617
 30
0.0
 10
322.5302993574
 20
68.0396199754
 30
0.0
 10
322.5170311517
 20
67.9075376384
 30
0.0
 10
322.5170311517
 20
67.8361477096
 30
0.0
  0
SPLINE
  5
818
100
AcDbEntity
  8
0
100
AcDbSpline
 62
7
  6
CONTINUOUS
 70
0
 71
3
 72
9
 73
5
 74
0
 42
0.0000001
 43
0.0000001
 44
0.0000000001
 40
0.0
 40
0.0
 40
0.0
 40
0.0
 40
0.4520431102
 40
1.0
 40
1.0
 40
1.0
 40
1.0
 10
341.7200997494
 20
49.720933315
 30
0.0
 10
341.6819952889
 20
49.6840965732
 30
0.0
 10
341.6208843986
 20
49.5779232163
 30
0.0
 10
341.6089142437
 20
49.4590490177
 30
0.0
 10
341.6089142437
 20
49.3948047585
 30
0.0
  0
SPLINE
  5
819
100
AcDbEntity
  8
BEZUGSACHSEN
100
AcDbSpline
 62
7
  6
CONTINUOUS
 70
0
 71
3
 72
16
 73
12
 74
0
 42
0.0000001
 43
0.0000001
 44
0.0000000001
 40
0.0
 40
0.0
 40
0.0
 40
0.0
 40
0.198897828
 40
0.3825467473
 40
0.5469229012
 40
0.688556658
 40
0.8047563545
 40
0.8939736478
 40
0.9285867443
 40
0.9570393344
 40
1.0
 40
1.0
 40
1.0
 40
1.0
 10
312.4687899846
 20
81.7465185071
 30
0.0
 10
312.6352941759
 20
81.5499727105
 30
0.0
 10
312.9498297796
 20
81.1670549984
 30
0.0
 10
313.379913723
 20
80.6040285984
 30
0.0
 10
313.7431989683
 20
80.0839941108
 30
0.0
 10
314.0319563969
 20
79.6191240245
 30
0.0
 10
314.23939932
 20
79.2199732739
 30
0.0
 10
314.352045308
 20
78.9286884587
 30
0.0
 10
314.3898867533
 20
78.734025129
 30
0.0
 10
314.3956054812
 20
78.5975553721
 30
0.0
 10
314.3633188157
 20
78.5006910387
 30
0.0
 10
314.3232953383
 20
78.4620420247
 30
0.0
  0
SPLINE
  5
81A
100
AcDbEntity
  8
0
100
AcDbSpline
 62
7
  6
CONTINUOUS
 70
0
 71
3
 72
15
 73
11
 74
0
 42
0.0000001
 43
0.0000001
 44
0.0000000001
 40
0.0
 40
0.0
 40
0.0
 40
0.0
 40
0.2025962441
 40
0.3848823736
 40
0.5448367242
 40
0.681192932
 40
0.7932632935
 40
0.8813370639
 40
0.9478565545
 40
1.0
 40
1.0
 40
1.0
 40
1.0
 10
344.6952550815
 20
48.5598675052
 30
0.0
 10
344.4914129309
 20
48.7150580528
 30
0.0
 10
344.0994851631
 20
49.0038400139
 30
0.0
 10
343.5289540435
 20
49.3904502218
 30
0.0
 10
343.011395896
 20
49.7048278919
 30
0.0
 10
342.5529306928
 20
49.9434671877
 30
0.0
 10
342.158184859
 20
50.1050368729
 30
0.0
 10
341.829793137
 20
50.1874397489
 30
0.0
 10
341.5642120047
 20
50.1931664819
 30
0.0
 10
341.420130773
 20
50.1263881359
 30
0.0
 10
341.3727233314
 20
50.0805579191
 30
0.0
  0
SPLINE
  5
81B
100
AcDbEntity
  8
RUNDUNGEN
100
AcDbSpline
 62
7
  6
CONTINUOUS
 70
0
 71
3
 72
12
 73
8
 74
0
 42
0.0000001
 43
0.0000001
 44
0.0000000001
 40
0.0
 40
0.0
 40
0.0
 40
0.0
 40
0.12109665
 40
0.2098669562
 40
0.3216786506
 40
0.6161507077
 40
1.0
 40
1.0
 40
1.0
 40
1.0
 10
301.699372396
 20
81.7829574383
 30
0.0
 10
301.6845069468
 20
81.7685901174
 30
0.0
 10
301.6775652523
 20
81.7280284907
 30
0.0
 10
301.6873115632
 20
81.6748931558
 30
0.0
 10
301.7134154241
 20
81.593836698
 30
0.0
 10
301.7745111122
 20
81.4732504269
 30
0.0
 10
301.8361124111
 20
81.3750409971
 30
0.0
 10
301.8726534102
 20
81.320643717
 30
0.0
  0
SPLINE
  5
81C
100
AcDbEntity
  8
RUNDUNGEN
100
AcDbSpline
 62
7
  6
CONTINUOUS
 70
0
 71
3
 72
14
 73
10
 74
0
 42
0.0000001
 43
0.0000001
 44
0.0000000001
 40
0.0
 40
0.0
 40
0.0
 40
0.0
 40
0.0563083636
 40
0.1252819082
 40
0.2140274044
 40
0.325368063
 40
0.4601495838
 40
0.6181803343
 40
1.0
 40
1.0
 40
1.0
 40
1.0
 10
354.6038080379
 20
40.1083289755
 30
0.0
 10
354.6300739649
 20
40.1336848678
 30
0.0
 10
354.7056965672
 20
40.1727542879
 30
0.0
 10
354.8465269374
 20
40.1797132939
 30
0.0
 10
355.0187981337
 20
40.1472387459
 30
0.0
 10
355.224313515
 20
40.0755706204
 30
0.0
 10
355.4622658896
 20
39.9651691241
 30
0.0
 10
355.8451863604
 20
39.7532485692
 30
0.0
 10
356.136857641
 20
39.5586385851
 30
0.0
 10
356.3387445841
 20
39.415373134
 30
0.0
  0
SPLINE
  5
81D
100
AcDbEntity
  8
RUNDUNGEN
100
AcDbSpline
 62
7
  6
CONTINUOUS
 70
0
 71
3
 72
17
 73
13
 74
0
 42
0.0000001
 43
0.0000001
 44
0.0000000001
 40
0.0
 40
0.0
 40
0.0
 40
0.0
 40
0.018953956
 40
0.0414301552
 40
0.0695938743
 40
0.1044389531
 40
0.1952845618
 40
0.3139038444
 40
0.4578058983
 40
0.6232532846
 40
0.805731885
 40
1.0
 40
1.0
 40
1.0
 40
1.0
 10
363.2374847479
 20
37.1945757666
 30
0.0
 10
363.256949235
 20
37.2133952204
 30
0.0
 10
363.3106187451
 20
37.2435221831
 30
0.0
 10
363.4109495735
 20
37.2546865428
 30
0.0
 10
363.5327184031
 20
37.2388136484
 30
0.0
 10
363.744093873
 20
37.1765434543
 30
0.0
 10
364.0599451169
 20
37.024204659
 30
0.0
 10
364.4896671252
 20
36.7589095727
 30
0.0
 10
364.9861031917
 20
36.4013338048
 30
0.0
 10
365.5345174042
 20
35.9619062519
 30
0.0
 10
366.1185534758
 20
35.4529458212
 30
0.0
 10
366.511610931
 20
35.0851839321
 30
0.0
 10
366.7112049758
 20
34.8923908895
 30
0.0
  0
SPLINE
  5
81E
100
AcDbEntity
  8
BEZUGSACHSEN
100
AcDbSpline
 62
7
  6
CONTINUOUS
 70
0
 71
3
 72
14
 73
10
 74
0
 42
0.0000001
 43
0.0000001
 44
0.0000000001
 40
0.0
 40
0.0
 40
0.0
 40
0.0
 40
0.0561014086
 40
0.1249434314
 40
0.2136389343
 40
0.3250103916
 40
0.4598871909
 40
0.6179902532
 40
1.0
 40
1.0
 40
1.0
 40
1.0
 10
306.6811569577
 20
86.3739123336
 30
0.0
 10
306.705383023
 20
86.3973064412
 30
0.0
 10
306.7753131404
 20
86.4332627522
 30
0.0
 10
306.9054890216
 20
86.439276059
 30
0.0
 10
307.0648107581
 20
86.4087676079
 30
0.0
 10
307.2549606874
 20
86.34189707
 30
0.0
 10
307.4751452506
 20
86.239120062
 30
0.0
 10
307.8294828705
 20
86.0421040056
 30
0.0
 10
308.0993480103
 20
85.8613586201
 30
0.0
 10
308.2861462031
 20
85.7283385619
 30
0.0
  0
SPLINE
  5
81F
100
AcDbEntity
  8
RUNDUNGEN
100
AcDbSpline
 62
7
  6
CONTINUOUS
 70
0
 71
3
 72
12
 73
8
 74
0
 42
0.0000001
 43
0.0000001
 44
0.0000000001
 40
0.0
 40
0.0
 40
0.0
 40
0.0
 40
0.1026154206
 40
0.2170880099
 40
0.4713551709
 40
0.7403400996
 40
1.0
 40
1.0
 40
1.0
 40
1.0
 10
332.9636776659
 20
56.0030704768
 30
0.0
 10
333.4366840326
 20
55.6674099852
 30
0.0
 10
334.4169314787
 20
54.9283951046
 30
0.0
 10
336.4753238368
 20
53.2361556477
 30
0.0
 10
339.1357957831
 20
50.8001121038
 30
0.0
 10
342.2307425324
 20
47.6348474676
 30
0.0
 10
344.2016993304
 20
45.386167338
 30
0.0
 10
345.1310712961
 20
44.2502707308
 30
0.0
  0
SPLINE
  5
820
100
AcDbEntity
  8
RUNDUNGEN
100
AcDbSpline
 62
7
  6
CONTINUOUS
 70
0
 71
3
 72
14
 73
10
 74
0
 42
0.0000001
 43
0.0000001
 44
0.0000000001
 40
0.0
 40
0.0
 40
0.0
 40
0.0
 40
0.3827717614
 40
0.5413357289
 40
0.6765196836
 40
0.7880140834
 40
0.8765418298
 40
0.9448217642
 40
1.0
 40
1.0
 40
1.0
 40
1.0
 10
311.0565471617
 20
76.8571962341
 30
0.0
 10
311.1783622952
 20
76.6758543965
 30
0.0
 10
311.3435703623
 20
76.4141570292
 30
0.0
 10
311.522579471
 20
76.0718128032
 30
0.0
 10
311.6153047318
 20
75.8596741303
 30
0.0
 10
311.6747360087
 20
75.6773375071
 30
0.0
 10
311.700422133
 20
75.5256480202
 30
0.0
 10
311.6923501217
 20
75.4029705488
 30
0.0
 10
311.656823577
 20
75.3380349392
 30
0.0
 10
311.6341762822
 20
75.3161528943
 30
0.0
  0
SPLINE
  5
821
100
AcDbEntity
  8
0
100
AcDbSpline
 62
7
  6
CONTINUOUS
 70
0
 71
3
 72
9
 73
5
 74
0
 42
0.0000001
 43
0.0000001
 44
0.0000000001
 40
0.0
 40
0.0
 40
0.0
 40
0.0
 40
0.5542155993
 40
1.0
 40
1.0
 40
1.0
 40
1.0
 10
341.726133167
 20
49.7786540591
 30
0.0
 10
341.6434203614
 20
49.8032198123
 30
0.0
 10
341.4916435829
 20
49.8397355581
 30
0.0
 10
341.3344720371
 20
49.8485297485
 30
0.0
 10
341.2654196995
 20
49.8415668895
 30
0.0
  0
SPLINE
  5
822
100
AcDbEntity
  8
0
100
AcDbSpline
 62
7
  6
CONTINUOUS
 70
0
 71
3
 72
9
 73
5
 74
0
 42
0.0000001
 43
0.0000001
 44
0.0000000001
 40
0.0
 40
0.0
 40
0.0
 40
0.0
 40
0.5538052583
 40
1.0
 40
1.0
 40
1.0
 40
1.0
 10
322.6529179548
 20
68.2795889765
 30
0.0
 10
322.5667180665
 20
68.3024163485
 30
0.0
 10
322.4084944363
 20
68.3349358901
 30
0.0
 10
322.2454451704
 20
68.336358369
 30
0.0
 10
322.1744885263
 20
68.3250998365
 30
0.0
  0
SPLINE
  5
823
100
AcDbEntity
  8
0
100
AcDbSpline
 62
7
  6
CONTINUOUS
 70
0
 71
3
 72
11
 73
7
 74
0
 42
0.0000001
 43
0.0000001
 44
0.0000000001
 40
0.0
 40
0.0
 40
0.0
 40
0.0
 40
0.2448982516
 40
0.4922408728
 40
0.7437542757
 40
1.0
 40
1.0
 40
1.0
 40
1.0
 10
164.227402898
 20
258.9305762343
 30
0.0
 10
164.227402898
 20
260.9407623222
 30
0.0
 10
164.7740636596
 20
265.0015097559
 30
0.0
 10
167.1849424335
 20
270.6854656359
 30
0.0
 10
171.0423858929
 20
275.6233841748
 30
0.0
 10
174.4028664436
 20
278.1775982292
 30
0.0
 10
176.222747852
 20
279.2321239351
 30
0.0
  0
SPLINE
  5
824
100
AcDbEntity
  8
0
100
AcDbSpline
 62
7
  6
CONTINUOUS
 70
0
 71
3
 72
11
 73
7
 74
0
 42
0.0000001
 43
0.0000001
 44
0.0000000001
 40
0.0
 40
0.0
 40
0.0
 40
0.0
 40
0.2562460817
 40
0.5077597256
 40
0.7551022565
 40
1.0
 40
1.0
 40
1.0
 40
1.0
 10
202.2316594428
 20
279.2323555191
 30
0.0
 10
204.051595439
 20
278.1778402579
 30
0.0
 10
207.4121859997
 20
275.6236306098
 30
0.0
 10
211.2697611824
 20
270.6856583837
 30
0.0
 10
213.6807235167
 20
265.0016141069
 30
0.0
 10
214.227402898
 20
260.9407954836
 30
0.0
 10
214.227402898
 20
258.9305762343
 30
0.0
  0
SPLINE
  5
825
100
AcDbEntity
  8
0
100
AcDbSpline
 62
7
  6
CONTINUOUS
 70
0
 71
3
 72
15
 73
11
 74
0
 42
0.0000001
 43
0.0000001
 44
0.0000000001
 40
0.0
 40
0.0
 40
0.0
 40
0.0
 40
0.1240318642
 40
0.2481857715
 40
0.372579125
 40
0.4973000324
 40
0.6224051704
 40
0.7479128094
 40
0.873798847
 40
1.0
 40
1.0
 40
1.0
 40
1.0
 10
142.227402898
 20
258.9305762343
 30
0.0
 10
142.227402898
 20
261.3961977631
 30
0.0
 10
142.638667877
 20
266.3396325047
 30
0.0
 10
144.4718392427
 20
273.5489953742
 30
0.0
 10
147.4707407279
 20
280.3732824332
 30
0.0
 10
151.5532186415
 20
286.6315539274
 30
0.0
 10
156.6089904173
 20
292.1628883306
 30
0.0
 10
162.5040016853
 20
296.8267482026
 30
0.0
 10
169.0814416672
 20
300.5054939315
 30
0.0
 10
173.8088838931
 20
302.2404889025
 30
0.0
 10
176.2245048601
 20
302.9176707312
 30
0.0
  0
SPLINE
  5
826
100
AcDbEntity
  8
0
100
AcDbSpline
 62
7
  6
CONTINUOUS
 70
0
 71
3
 72
15
 73
11
 74
0
 42
0.0000001
 43
0.0000001
 44
0.0000000001
 40
0.0
 40
0.0
 40
0.0
 40
0.0
 40
0.1262011965
 40
0.2520871925
 40
0.3775947371
 40
0.5026997746
 40
0.6274205985
 40
0.7518139295
 40
0.8759679196
 40
1.0
 40
1.0
 40
1.0
 40
1.0
 10
202.2295343082
 20
302.9178866096
 30
0.0
 10
204.6452006553
 20
302.2407397035
 30
0.0
 10
209.3727310918
 20
300.5057872645
 30
0.0
 10
215.9503093441
 20
296.8270868408
 30
0.0
 10
221.8454499622
 20
292.1632349489
 30
0.0
 10
226.9013404691
 20
286.6318806184
 30
0.0
 10
230.9839205464
 20
280.3735608586
 30
0.0
 10
233.9829019255
 20
273.5492000658
 30
0.0
 10
235.8161257965
 20
266.3397417246
 30
0.0
 10
236.227402898
 20
261.3962348912
 30
0.0
 10
236.227402898
 20
258.9305762343
 30
0.0
  0
SPLINE
  5
827
100
AcDbEntity
  8
0
100
AcDbSpline
 62
7
  6
CONTINUOUS
 70
0
 71
3
 72
15
 73
11
 74
0
 42
0.0000001
 43
0.0000001
 44
0.0000000001
 40
0.0
 40
0.0
 40
0.0
 40
0.0
 40
0.1239257334
 40
0.2479959173
 40
0.372343579
 40
0.4970654747
 40
0.6222155421
 40
0.7477961395
 40
0.8737567426
 40
1.0
 40
1.0
 40
1.0
 40
1.0
 10
236.227402898
 20
196.1453975255
 30
0.0
 10
236.227402898
 20
193.4708276624
 30
0.0
 10
235.7430175494
 20
188.1061092114
 30
0.0
 10
233.5875182658
 20
180.3218650059
 30
0.0
 10
230.0731850275
 20
173.0279535844
 30
0.0
 10
225.3129061781
 20
166.4515795498
 30
0.0
 10
219.4577501538
 20
160.7905618106
 30
0.0
 10
212.6892009006
 20
156.2134289868
 30
0.0
 10
205.2179415193
 20
152.8546046072
 30
0.0
 10
199.9159502113
 20
151.4921900507
 30
0.0
 10
197.2291206463
 20
151.0401725025
 30
0.0
  0
SPLINE
  5
828
100
AcDbEntity
  8
0
100
AcDbSpline
 62
7
  6
CONTINUOUS
 70
0
 71
3
 72
15
 73
11
 74
0
 42
0.0000001
 43
0.0000001
 44
0.0000000001
 40
0.0
 40
0.0
 40
0.0
 40
0.0
 40
0.1262433502
 40
0.252203939
 40
0.3777844525
 40
0.5029344001
 40
0.6276561954
 40
0.7520038134
 40
0.8760740606
 40
1.0
 40
1.0
 40
1.0
 40
1.0
 10
181.2261904304
 20
151.0400865745
 30
0.0
 10
178.5393320652
 20
151.4920745346
 30
0.0
 10
173.2372856461
 20
152.8544586094
 30
0.0
 10
165.7659350676
 20
156.2132369478
 30
0.0
 10
158.9973046462
 20
160.7903583265
 30
0.0
 10
153.1420697354
 20
166.4513775243
 30
0.0
 10
148.3817225239
 20
173.0277751151
 30
0.0
 10
144.8673346542
 20
180.3217297608
 30
0.0
 10
142.711797078
 20
188.1060352422
 30
0.0
 10
142.227402898
 20
193.4708021204
 30
0.0
 10
142.227402898
 20
196.1453975255
 30
0.0
  0
SPLINE
  5
829
100
AcDbEntity
  8
0
100
AcDbSpline
 62
7
  6
CONTINUOUS
 70
0
 71
3
 72
15
 73
11
 74
0
 42
0.0000001
 43
0.0000001
 44
0.0000000001
 40
0.0
 40
0.0
 40
0.0
 40
0.0
 40
0.1214679143
 40
0.2433953084
 40
0.3662108925
 40
0.4902252741
 40
0.6156304249
 40
0.7424746676
 40
0.870668771
 40
1.0
 40
1.0
 40
1.0
 40
1.0
 10
214.227402898
 20
196.1453975255
 30
0.0
 10
214.227402898
 20
194.9247777197
 30
0.0
 10
214.0281789902
 20
192.4743059894
 30
0.0
 10
213.1378273725
 20
188.8878598818
 30
0.0
 10
211.6736237837
 20
185.4662588016
 30
0.0
 10
209.6653978172
 20
182.2918902695
 30
0.0
 10
207.1564584065
 20
179.4424888213
 30
0.0
 10
204.2029712976
 20
176.9906676197
 30
0.0
 10
200.8753888464
 20
175.001237786
 30
0.0
 10
198.4673905869
 20
174.0217133775
 30
0.0
 10
197.2301366557
 20
173.6238938103
 30
0.0
  0
SPLINE
  5
82A
100
AcDbEntity
  8
0
100
AcDbSpline
 62
7
  6
CONTINUOUS
 70
0
 71
3
 72
15
 73
11
 74
0
 42
0.0000001
 43
0.0000001
 44
0.0000000001
 40
0.0
 40
0.0
 40
0.0
 40
0.0
 40
0.1293312129
 40
0.2575253718
 40
0.3843696942
 40
0.509774926
 40
0.6337893614
 40
0.7566049592
 40
0.8785322719
 40
1.0
 40
1.0
 40
1.0
 40
1.0
 10
181.2243574644
 20
173.6239948507
 30
0.0
 10
179.9871226431
 20
174.021827293
 30
0.0
 10
177.5791613337
 20
175.0013675941
 30
0.0
 10
174.2516346459
 20
176.9908110099
 30
0.0
 10
171.2982001952
 20
179.4426334996
 30
0.0
 10
168.7893096622
 20
182.2920256608
 30
0.0
 10
166.7811243132
 20
185.4663730542
 30
0.0
 10
165.3169527929
 20
188.887943488
 30
0.0
 10
164.4266218959
 20
192.4743504574
 30
0.0
 10
164.227402898
 20
194.9247928236
 30
0.0
 10
164.227402898
 20
196.1453975255
 30
0.0
  0
ELLIPSE
  5
82B
100
AcDbEntity
  8
0
100
AcDbEllipse
 62
7
  6
CONTINUOUS
 10
188.327402898
 20
102.2489845683
 30
0.0
 11
14.0
 21
-0.0
 31
0.0
 40
0.8066525678
 41
-1.7336547185
 42
-1.5707963268
  0
ELLIPSE
  5
82C
100
AcDbEntity
  8
RUNDUNGEN
100
AcDbEllipse
 62
7
  6
CONTINUOUS
 10
190.127402898
 20
102.2489845683
 30
0.0
 11
14.0
 21
-0.0
 31
0.0
 40
0.8066525678
 41
-1.5707963268
 42
-1.4079379351
  0
ELLIPSE
  5
82D
100
AcDbEntity
  8
0
100
AcDbEllipse
 62
7
  6
CONTINUOUS
 10
181.8101885052
 20
141.9520152878
 30
0.0
 11
0.1626554851
 21
6.4994465885
 31
0.0
 40
0.5214561498
 41
-1.2959476913
 42
-0.0753166147
  0
ELLIPSE
  5
82E
100
AcDbEntity
  8
RUNDUNGEN
100
AcDbEllipse
 62
7
  6
CONTINUOUS
 10
196.6446172908
 20
141.9520152878
 30
0.0
 11
-0.1626554851
 21
6.4994465885
 31
0.0
 40
0.5214561498
 41
0.0753166147
 42
1.2959476913
  0
ENDSEC
  0
SECTION
  2
OBJECTS
  0
DICTIONARY
  5
C
100
AcDbDictionary
280
0
281
1
  3
ACAD_GROUP
350
D
  3
ACAD_MLINESTYLE
350
17
  3
ACAD_LAYOUT
350
1A
  3
ACAD_PLOTSETTINGS
350
19
  3
ACAD_PLOTSTYLENAME
350
E
  0
DICTIONARY
  5
D
102
{ACAD_REACTORS
330
C
102
}
100
AcDbDictionary
280
0
281
1
  0
ACDBDICTIONARYWDFLT
  5
E
102
{ACAD_REACTORS
330
C
102
}
100
AcDbDictionary
281
1
  3
Normal
350
F
100
AcDbDictionaryWithDefault
340
F
  0
DICTIONARY
  5
17
102
{ACAD_REACTORS
330
C
102
}
100
AcDbDictionary
280
0
281
1
  3
Standard
350
18
  0
DICTIONARY
  5
19
102
{ACAD_REACTORS
330
C
102
}
100
AcDbDictionary
281
1
  0
DICTIONARY
  5
1A
102
{ACAD_REACTORS
330
C
102
}
100
AcDbDictionary
281
1
  3
Model
350
82F
  3
Layout1
350
830
  0
ACDBPLACEHOLDER
  5
F
102
{ACAD_REACTORS
330
E
102
}
  0
MLINESTYLE
  5
18
102
{ACAD_REACTORS
330
17
102
}
100
AcDbMlineStyle
  2
STANDARD
 70
0
  3

 62
256
 51
90.0
 52
90.0
 71
2
 49
0.5
 62
256
  6
BYLAYER
 49
-0.5
 62
256
  6
BYLAYER
  0
LAYOUT
  5
82F
102
{ACAD_REACTORS
330
1A
102
}
100
AcDbPlotSettings
  1

  2
none_device
  4
ISO_A1_(594.00_x_841.00_MM)
  6

 40
0.0
 41
0.0
 42
0.0
 43
0.0
 44
841.0
 45
594.0
 46
0.0
 47
0.0
 48
0.0
 49
0.0
140
0.0
141
0.0
142
1.0
143
1.0
 70
1024
 72
1
 73
0
 74
0
  7

 75
0
147
1.0
148
0.0
149
0.0
100
AcDbLayout
  1
Model
 70
0
 71
0
 10
0.0
 20
0.0
 11
841.0
 21
594.0
 12
0.0
 22
0.0
 32
0.0
 14
0.0
 24
0.0
 34
0.0
 15
0.0
 25
0.0
 35
0.0
146
0.0
 13
0.0
 23
0.0
 33
0.0
 16
1.0
 26
0.0
 36
0.0
 17
0.0
 27
1.0
 37
0.0
 76
0
330
20A
345
0
346
0
  0
LAYOUT
  5
830
102
{ACAD_REACTORS
330
1A
102
}
100
AcDbPlotSettings
  1

  2
none_device
  4
ISO_A1_(594.00_x_841.00_MM)
  6

 40
0.0
 41
0.0
 42
0.0
 43
0.0
 44
841.0
 45
594.0
 46
0.0
 47
0.0
 48
0.0
 49
0.0
140
0.0
141
0.0
142
1.0
143
1.0
 70
0
 72
1
 73
0
 74
0
  7

 75
0
147
1.0
148
0.0
149
0.0
100
AcDbLayout
  1
Layout1
 70
0
 71
1
 10
0.0
 20
0.0
 11
841.0
 21
594.0
 12
0.0
 22
0.0
 32
0.0
 14
0.0
 24
0.0
 34
0.0
 15
0.0
 25
0.0
 35
0.0
146
0.0
 13
0.0
 23
0.0
 33
0.0
 16
1.0
 26
0.0
 36
0.0
 17
0.0
 27
1.0
 37
0.0
 76
0
330
20B
345
0
346
0
  0
ENDSEC
  0
EOF
