999
DXF file: IBK-RG-2-8_7903076_M34553-P-2.dxf
999
Pro/ENGINEER 2010140 by Parametric Technology Corporation
  0
SECTION
  2
HEADER
  9
$ACADVER
  1
AC1015
  9
$DWGCODEPAGE
  3
ANSI_1252
  9
$EXTMAX
 10
420.0
 20
297.0
 30
0.0
  9
$EXTMIN
 10
0.0
 20
0.0
 30
0.0
  9
$LIMMIN
 10
0.0
 20
0.0
  9
$LIMMAX
 10
420.0
 20
297.0
  9
$VIEWCTR
 10
210.0
 20
148.5
  9
$VIEWSIZE
 40
297.0
  9
$CLAYER
  8
0
  9
$LTSCALE
 40
23.1
  9
$CELTYPE
  6
BYLAYER
  9
$DIMSCALE
 40
1.0
  9
$DIMASZ
 40
3.5
  9
$DIMEXO
 40
2.625
  9
$DIMDLI
 40
15.96
  9
$DIMEXE
 40
7.56
  9
$DIMCEN
 40
3.78
  9
$DIMLFAC
 40
1.0
  9
$DIMBLK
  1
_FILLED
  9
$DIMTXT
 40
3.5
  9
$DIMTOL
 70
1
  9
$DIMLIM
 70
0
  9
$DIMTFAC
 40
1.0
  9
$DIMTP
 40
0.005
  9
$DIMTM
 40
0.005
  9
$PDMODE
 70
3
  9
$PDSIZE
 40
0.3125
  9
$HANDSEED
  5
589
  9
$TILEMODE
 70
1
  9
$MEASUREMENT
 70
1
  9
$INSUNITS
 70
4
  0
ENDSEC
  0
SECTION
  2
CLASSES
  0
CLASS
  1
ACDBDICTIONARYWDFLT
  2
AcDbDictionaryWithDefault
  3
AutoCAD 2000
 90
0
280
0
281
0
  0
CLASS
  1
ACDBPLACEHOLDER
  2
AcDbPlaceHolder
  3
AutoCAD 2000
 90
0
280
0
281
0
  0
CLASS
  1
LAYOUT
  2
AcDbLayout
  3
AutoCAD 2000
 90
0
280
0
281
0
  0
ENDSEC
  0
SECTION
  2
TABLES
  0
TABLE
  2
VPORT
  5
8
100
AcDbSymbolTable
 70
2
  0
VPORT
  5
1F4
100
AcDbSymbolTableRecord
100
AcDbViewportTableRecord
  2
*ACTIVE
 70
0
 10
0.0
 20
0.0
 11
1.0
 21
1.0
 12
210.0
 22
148.5
 13
0.0
 23
0.0
 14
1.0
 24
1.0
 15
0.0
 25
0.0
 16
0.0
 26
0.0
 36
1.0
 17
0.0
 27
0.0
 37
0.0
 40
297.0
 41
1.4141414141
 42
50.0
 43
0.0
 44
0.0
 50
0.0
 51
0.0
 71
0
 72
100
 73
1
 74
1
 75
0
 76
0
 77
0
 78
0
  0
ENDTAB
  0
TABLE
  2
LTYPE
  5
5
100
AcDbSymbolTable
 70
6
  0
LTYPE
  5
14
100
AcDbSymbolTableRecord
100
AcDbLinetypeTableRecord
  2
BYBLOCK
 70
0
  3

 72
65
 73
0
 40
0.0
  0
LTYPE
  5
15
100
AcDbSymbolTableRecord
100
AcDbLinetypeTableRecord
  2
BYLAYER
 70
0
  3

 72
65
 73
0
 40
0.0
  0
LTYPE
  5
16
100
AcDbSymbolTableRecord
100
AcDbLinetypeTableRecord
  2
CONTINUOUS
 70
64
  3
Solid line
 72
65
 73
0
 40
0.0
  0
LTYPE
  5
1F5
100
AcDbSymbolTableRecord
100
AcDbLinetypeTableRecord
  2
CENTER
 70
64
  3
____ _ ____ _ ____ _ ____ _ ____ _ ____ _ ____
 72
65
 73
4
 40
0.6
 49
0.375
 74
0
 49
-0.075
 74
0
 49
0.075
 74
0
 49
-0.075
 74
0
  0
LTYPE
  5
1F6
100
AcDbSymbolTableRecord
100
AcDbLinetypeTableRecord
  2
HIDDEN
 70
64
  3
- - - - - - - - - - - - - - - - - - - -
 72
65
 73
2
 40
0.2
 49
0.1
 74
0
 49
-0.1
 74
0
  0
LTYPE
  5
1F7
100
AcDbSymbolTableRecord
100
AcDbLinetypeTableRecord
  2
PHANTOM
 70
64
  3
_____ _ _ _____ _ _ _____ _ _ _____
 72
65
 73
6
 40
0.8
 49
0.45
 74
0
 49
-0.05
 74
0
 49
0.1
 74
0
 49
-0.05
 74
0
 49
0.1
 74
0
 49
-0.05
 74
0
  0
LTYPE
  5
1F8
100
AcDbSymbolTableRecord
100
AcDbLinetypeTableRecord
  2
DOT
 70
64
  3
. . . . . . . . . . . . . . . . . . . .
 72
65
 73
2
 40
0.2
 49
0.1
 74
0
 49
-0.1
 74
0
  0
LTYPE
  5
1F9
100
AcDbSymbolTableRecord
100
AcDbLinetypeTableRecord
  2
DASHED
 70
64
  3
- - - - - - - - - - - - - - - - - - - -
 72
65
 73
2
 40
0.2
 49
0.1
 74
0
 49
-0.1
 74
0
  0
ENDTAB
  0
TABLE
  2
LAYER
  5
2
100
AcDbSymbolTable
 70
36
  0
LAYER
  5
10
100
AcDbSymbolTableRecord
100
AcDbLayerTableRecord
  2
0
 70
0
 62
7
  6
CONTINUOUS
370
-3
390
F
  0
LAYER
  5
1FA
100
AcDbSymbolTableRecord
100
AcDbLayerTableRecord
  2
DEFAULT_1
 70
0
 62
7
  6
CENTER
370
-3
390
F
  0
LAYER
  5
1FB
100
AcDbSymbolTableRecord
100
AcDbLayerTableRecord
  2
DEFAULT_2
 70
0
 62
8
  6
HIDDEN
370
-3
390
F
  0
LAYER
  5
1FC
100
AcDbSymbolTableRecord
100
AcDbLayerTableRecord
  2
DEFAULT_3
 70
0
 62
7
  6
PHANTOM
370
-3
390
F
  0
LAYER
  5
1FD
100
AcDbSymbolTableRecord
100
AcDbLayerTableRecord
  2
BEZUGSACHSEN
 70
0
 62
7
  6
CONTINUOUS
370
-3
390
F
  0
LAYER
  5
1FE
100
AcDbSymbolTableRecord
100
AcDbLayerTableRecord
  2
BEZUGSEBENEN
 70
0
 62
7
  6
CONTINUOUS
370
-3
390
F
  0
LAYER
  5
1FF
100
AcDbSymbolTableRecord
100
AcDbLayerTableRecord
  2
BG_STARTBEZUEGE
 70
0
 62
7
  6
CONTINUOUS
370
-3
390
F
  0
LAYER
  5
200
100
AcDbSymbolTableRecord
100
AcDbLayerTableRecord
  2
FASEN
 70
0
 62
7
  6
CONTINUOUS
370
-3
390
F
  0
LAYER
  5
201
100
AcDbSymbolTableRecord
100
AcDbLayerTableRecord
  2
HILFEN
 70
0
 62
7
  6
CONTINUOUS
370
-3
390
F
  0
LAYER
  5
202
100
AcDbSymbolTableRecord
100
AcDbLayerTableRecord
  2
KONSTRUKTIONSELEMENTE
 70
0
 62
7
  6
CONTINUOUS
370
-3
390
F
  0
LAYER
  5
203
100
AcDbSymbolTableRecord
100
AcDbLayerTableRecord
  2
NORM
 70
0
 62
7
  6
CONTINUOUS
370
-3
390
F
  0
LAYER
  5
204
100
AcDbSymbolTableRecord
100
AcDbLayerTableRecord
  2
PLATZIERUNG
 70
0
 62
7
  6
CONTINUOUS
370
-3
390
F
  0
LAYER
  5
205
100
AcDbSymbolTableRecord
100
AcDbLayerTableRecord
  2
RUNDUNGEN
 70
0
 62
7
  6
CONTINUOUS
370
-3
390
F
  0
LAYER
  5
206
100
AcDbSymbolTableRecord
100
AcDbLayerTableRecord
  2
TEIL_STARTBEZUEGE
 70
0
 62
7
  6
CONTINUOUS
370
-3
390
F
  0
LAYER
  5
207
100
AcDbSymbolTableRecord
100
AcDbLayerTableRecord
  2
T_STARTBEZUEGE
 70
0
 62
7
  6
CONTINUOUS
370
-3
390
F
  0
ENDTAB
  0
TABLE
  2
STYLE
  5
3
100
AcDbSymbolTable
 70
1
  0
STYLE
  5
11
100
AcDbSymbolTableRecord
100
AcDbTextStyleTableRecord
  2
STANDARD
 70
0
 40
0.0
 41
0.7
 50
0.0
 71
0
 42
0.2
  3
txt
  4

  0
STYLE
  5
208
100
AcDbSymbolTableRecord
100
AcDbTextStyleTableRecord
  2
TEXTSTYLE_1
 70
0
 40
0.0
 41
0.8
 50
0.0
 71
0
 42
0.2
  3
gdt
  4

  0
ENDTAB
  0
TABLE
  2
VIEW
  5
6
100
AcDbSymbolTable
 70
0
  0
ENDTAB
  0
TABLE
  2
UCS
  5
7
100
AcDbSymbolTable
 70
0
  0
ENDTAB
  0
TABLE
  2
APPID
  5
9
100
AcDbSymbolTable
 70
1
  0
APPID
  5
209
100
AcDbSymbolTableRecord
100
AcDbRegAppTableRecord
  2
ACAD
 70
0
  0
ENDTAB
  0
TABLE
  2
BLOCK_RECORD
  5
1
100
AcDbSymbolTable
 70
0
  0
BLOCK_RECORD
  5
20A
100
AcDbSymbolTableRecord
100
AcDbBlockTableRecord
  2
*Model_Space
  0
BLOCK_RECORD
  5
20B
100
AcDbSymbolTableRecord
100
AcDbBlockTableRecord
  2
*Paper_Space
  0
ENDTAB
  0
TABLE
  2
DIMSTYLE
  5
A
100
AcDbSymbolTable
 70
1
100
AcDbDimStyleTable
 71
0
  0
DIMSTYLE
105
20C
100
AcDbSymbolTableRecord
100
AcDbDimStyleTableRecord
  2
STANDARD
 70
0
  3

  4

 40
1.0
 41
3.5
 42
0.0625
 43
0.38
 44
0.18
 45
0.0
 46
0.0
 47
0.005
 48
0.005
140
3.5
141
0.09
142
0.0
143
25.4
144
1.0
145
0.0
146
1.0
147
0.09
 71
1.0
 72
0.0
 73
0
 74
0
 75
0
 76
0
 77
1
 78
8
170
0
171
2
172
0
173
0
174
0
175
0
176
0
177
0
178
5
270
2
271
3
272
3
273
2
274
2
275
0
280
0
281
0
282
0
283
1
284
8
285
0
286
0
287
3
288
0
340
11
  0
ENDTAB
  0
ENDSEC
  0
SECTION
  2
BLOCKS
  0
BLOCK
  5
20
100
AcDbEntity
  8
0
100
AcDbBlockBegin
  2
*Model_Space
 70
0
 10
0.0
 20
0.0
 30
0.0
  3
*Model_Space
  1

  0
ENDBLK
  5
21
100
AcDbEntity
  8
0
100
AcDbBlockEnd
  0
BLOCK
  5
1C
100
AcDbEntity
  8
0
100
AcDbBlockBegin
  2
*Paper_Space
 70
0
 10
0.0
 20
0.0
 30
0.0
  3
*Paper_Space
  1

  0
ENDBLK
  5
1D
100
AcDbEntity
  8
0
100
AcDbBlockEnd
  0
ENDSEC
  0
SECTION
  2
ENTITIES
  0
MTEXT
  5
20D
100
AcDbEntity
  8
0
100
AcDbMText
 62
5
  6
CONTINUOUS
  7
STANDARD
 71
1
 72
1
 10
331.0154898259
 20
170.9435724317
 30
0.0
 11
0.0
 21
1.0
 31
0.0
 44
0.9
  1
RUD
 40
5.0
 41
13.3333333333
  0
MTEXT
  5
20E
100
AcDbEntity
  8
0
100
AcDbMText
 62
5
  6
CONTINUOUS
  7
STANDARD
 71
1
 72
1
 10
389.5638030821
 20
159.3531413717
 30
0.0
 11
0.0
 21
1.0
 31
0.0
 44
0.9
  1
IBK-RG 2-8
 40
5.0
 41
38.8095238095
  0
MTEXT
  5
20F
100
AcDbEntity
  8
0
100
AcDbMText
 62
5
  6
CONTINUOUS
  7
STANDARD
 71
1
 72
1
 10
94.366675282
 20
151.3861307327
 30
0.0
 11
0.0
 21
1.0
 31
0.0
 44
0.9
  1
RUD IBK-RG 2-8
 40
5.0
 41
55.119047619
  0
LINE
  5
210
100
AcDbEntity
  8
0
100
AcDbLine
 62
7
  6
CONTINUOUS
 10
0.0
 20
0.0
 11
0.0
 21
297.0
  0
LINE
  5
211
100
AcDbEntity
  8
0
100
AcDbLine
 62
7
  6
CONTINUOUS
 10
0.0
 20
0.0
 11
420.0
 21
0.0
  0
LINE
  5
212
100
AcDbEntity
  8
0
100
AcDbLine
 62
7
  6
CONTINUOUS
 10
0.0
 20
297.0
 11
420.0
 21
297.0
  0
LINE
  5
213
100
AcDbEntity
  8
0
100
AcDbLine
 62
7
  6
CONTINUOUS
 10
420.0
 20
0.0
 11
420.0
 21
297.0
  0
LINE
  5
214
100
AcDbEntity
  8
RUNDUNGEN
100
AcDbLine
 62
7
  6
CONTINUOUS
 10
152.9838624885
 20
54.6204373576
 11
150.8707711798
 21
59.1519762928
  0
LINE
  5
215
100
AcDbEntity
  8
RUNDUNGEN
100
AcDbLine
 62
7
  6
CONTINUOUS
 10
213.5571871157
 20
88.383132106
 11
215.6702784244
 21
83.8515931708
  0
LINE
  5
216
100
AcDbEntity
  8
RUNDUNGEN
100
AcDbLine
 62
7
  6
CONTINUOUS
 10
226.3116517681
 20
88.8137470543
 11
224.1985604594
 21
93.3452859895
  0
LINE
  5
217
100
AcDbEntity
  8
KONSTRUKTIONSELEMENTE
100
AcDbLine
 62
7
  6
CONTINUOUS
 10
223.6419114399
 20
95.3476410227
 11
221.5288201312
 21
99.8791799579
  0
LINE
  5
218
100
AcDbEntity
  8
KONSTRUKTIONSELEMENTE
100
AcDbLine
 62
7
  6
CONTINUOUS
 10
224.0950653335
 20
95.5589501536
 11
221.9819740248
 21
100.0904890887
  0
LINE
  5
219
100
AcDbEntity
  8
0
100
AcDbLine
 62
7
  6
CONTINUOUS
 10
331.7789751504
 20
78.5309832354
 11
333.2824833437
 21
77.9837510061
  0
LINE
  5
21A
100
AcDbEntity
  8
0
100
AcDbLine
 62
7
  6
CONTINUOUS
 10
328.6237626355
 20
86.0625377885
 11
340.540706306
 21
81.725125009
  0
LINE
  5
21B
100
AcDbEntity
  8
0
100
AcDbLine
 62
7
  6
CONTINUOUS
 10
337.9684824116
 20
98.3141288532
 11
341.2574065843
 21
97.1170583515
  0
LINE
  5
21C
100
AcDbEntity
  8
0
100
AcDbLine
 62
7
  6
CONTINUOUS
 10
343.7768442354
 20
104.0391564075
 11
340.4879200626
 21
105.2362269091
  0
LINE
  5
21D
100
AcDbEntity
  8
0
100
AcDbLine
 62
7
  6
CONTINUOUS
 10
347.2628953141
 20
110.9280217433
 11
342.245527288
 21
112.7541943592
  0
LINE
  5
21E
100
AcDbEntity
  8
0
100
AcDbLine
 62
7
  6
CONTINUOUS
 10
351.5158282518
 20
124.5562448122
 11
347.7476445748
 21
125.9277515079
  0
LINE
  5
21F
100
AcDbEntity
  8
KONSTRUKTIONSELEMENTE
100
AcDbLine
 62
7
  6
CONTINUOUS
 10
305.5435519895
 20
139.0558928212
 11
300.3775976034
 21
136.6469687293
  0
LINE
  5
220
100
AcDbEntity
  8
KONSTRUKTIONSELEMENTE
100
AcDbLine
 62
7
  6
CONTINUOUS
 10
299.9244437099
 20
136.4356595984
 11
294.7584893238
 21
134.0267355065
  0
LINE
  5
221
100
AcDbEntity
  8
KONSTRUKTIONSELEMENTE
100
AcDbLine
 62
7
  6
CONTINUOUS
 10
227.1479284109
 20
102.4994131807
 11
221.9819740248
 21
100.0904890887
  0
LINE
  5
222
100
AcDbEntity
  8
KONSTRUKTIONSELEMENTE
100
AcDbLine
 62
7
  6
CONTINUOUS
 10
221.5288201312
 20
99.8791799579
 11
216.3628657451
 21
97.4702558659
  0
LINE
  5
223
100
AcDbEntity
  8
KONSTRUKTIONSELEMENTE
100
AcDbLine
 62
7
  6
CONTINUOUS
 10
268.178998629
 20
119.9222796713
 11
254.5843818235
 21
113.5830057452
  0
LINE
  5
224
100
AcDbEntity
  8
0
100
AcDbLine
 62
7
  6
CONTINUOUS
 10
356.3933533641
 20
137.957134921
 11
352.6251696871
 21
139.3286416166
  0
LINE
  5
225
100
AcDbEntity
  8
KONSTRUKTIONSELEMENTE
100
AcDbLine
 62
7
  6
CONTINUOUS
 10
302.0375350186
 20
131.9041206633
 11
299.9244437099
 21
136.4356595984
  0
LINE
  5
226
100
AcDbEntity
  8
KONSTRUKTIONSELEMENTE
100
AcDbLine
 62
7
  6
CONTINUOUS
 10
302.4906889121
 20
132.1154297941
 11
300.3775976034
 21
136.6469687293
  0
LINE
  5
227
100
AcDbEntity
  8
KONSTRUKTIONSELEMENTE
100
AcDbLine
 62
7
  6
CONTINUOUS
 10
307.6566432982
 20
134.524353886
 11
302.4906889121
 21
132.1154297941
  0
LINE
  5
228
100
AcDbEntity
  8
KONSTRUKTIONSELEMENTE
100
AcDbLine
 62
7
  6
CONTINUOUS
 10
302.0375350186
 20
131.9041206633
 11
296.8715806325
 21
129.4951965713
  0
LINE
  5
229
100
AcDbEntity
  8
KONSTRUKTIONSELEMENTE
100
AcDbLine
 62
7
  6
CONTINUOUS
 10
229.2610197196
 20
97.9678742455
 11
224.0950653335
 21
95.5589501536
  0
LINE
  5
22A
100
AcDbEntity
  8
KONSTRUKTIONSELEMENTE
100
AcDbLine
 62
7
  6
CONTINUOUS
 10
223.6419114399
 20
95.3476410227
 11
218.4759570538
 21
92.9387169308
  0
LINE
  5
22B
100
AcDbEntity
  8
KONSTRUKTIONSELEMENTE
100
AcDbLine
 62
7
  6
CONTINUOUS
 10
270.0807808069
 20
115.8438946296
 11
256.4861640013
 21
109.5046207035
  0
LINE
  5
22C
100
AcDbEntity
  8
KONSTRUKTIONSELEMENTE
100
AcDbLine
 62
7
  6
CONTINUOUS
 10
308.8101708868
 20
133.3520168601
 11
345.9053323933
 21
150.6497747511
  0
LINE
  5
22D
100
AcDbEntity
  8
RUNDUNGEN
100
AcDbLine
 62
7
  6
CONTINUOUS
 10
150.8707711798
 20
59.1519762928
 11
224.1986772691
 21
93.3453404588
  0
LINE
  5
22E
100
AcDbEntity
  8
KONSTRUKTIONSELEMENTE
100
AcDbLine
 62
7
  6
CONTINUOUS
 10
231.8643957382
 20
96.6440792064
 11
255.8435560707
 21
107.8257453056
  0
LINE
  5
22F
100
AcDbEntity
  8
KONSTRUKTIONSELEMENTE
100
AcDbLine
 62
7
  6
CONTINUOUS
 10
271.7419383679
 20
115.239282723
 11
295.7210987003
 21
126.4209488222
  0
LINE
  5
230
100
AcDbEntity
  8
KONSTRUKTIONSELEMENTE
100
AcDbLine
 62
7
  6
CONTINUOUS
 10
233.7661779161
 20
92.5656941648
 11
257.7453382485
 21
103.7473602639
  0
LINE
  5
231
100
AcDbEntity
  8
KONSTRUKTIONSELEMENTE
100
AcDbLine
 62
7
  6
CONTINUOUS
 10
273.6437205457
 20
111.1608976814
 11
297.6228808781
 21
122.3425637805
  0
LINE
  5
232
100
AcDbEntity
  8
RUNDUNGEN
100
AcDbLine
 62
7
  6
CONTINUOUS
 10
152.9838624885
 20
54.6204373576
 11
226.3117601926
 21
88.8137976135
  0
LINE
  5
233
100
AcDbEntity
  8
KONSTRUKTIONSELEMENTE
100
AcDbLine
 62
7
  6
CONTINUOUS
 10
311.4093382192
 20
127.9437609783
 11
348.4410419638
 21
145.2119280289
  0
LINE
  5
234
100
AcDbEntity
  8
KONSTRUKTIONSELEMENTE
100
AcDbLine
 62
7
  6
CONTINUOUS
 10
259.4444918335
 20
103.1604661943
 11
273.0391086391
 21
109.4997401204
  0
LINE
  5
235
100
AcDbEntity
  8
0
100
AcDbLine
 62
7
  6
CONTINUOUS
 10
367.785059841
 20
152.7295317254
 11
364.0168761639
 21
151.3580250297
  0
LINE
  5
236
100
AcDbEntity
  8
0
100
AcDbLine
 62
7
  6
CONTINUOUS
 10
365.3238050788
 20
147.7672673472
 11
369.0919887558
 21
149.1387740429
  0
LINE
  5
237
100
AcDbEntity
  8
0
100
AcDbLine
 62
7
  6
CONTINUOUS
 10
359.9639495615
 20
147.7672673472
 11
356.1957658845
 21
149.1387740429
  0
LINE
  5
238
100
AcDbEntity
  8
KONSTRUKTIONSELEMENTE
100
AcDbLine
 62
7
  6
CONTINUOUS
 10
222.3217832357
 20
84.6913160687
 11
233.1068459014
 21
89.7204733834
  0
LINE
  5
239
100
AcDbEntity
  8
KONSTRUKTIONSELEMENTE
100
AcDbLine
 62
7
  6
CONTINUOUS
 10
300.7174068143
 20
121.2477957093
 11
311.5024694801
 21
126.276953024
  0
LINE
  5
23A
100
AcDbEntity
  8
KONSTRUKTIONSELEMENTE
100
AcDbLine
 62
7
  6
CONTINUOUS
 10
261.3462740114
 20
99.0820811526
 11
274.9408908169
 21
105.4213550787
  0
LINE
  5
23B
100
AcDbEntity
  8
KONSTRUKTIONSELEMENTE
100
AcDbLine
 62
7
  6
CONTINUOUS
 10
224.4348745444
 20
80.1597771335
 11
235.2199372101
 21
85.1889344483
  0
LINE
  5
23C
100
AcDbEntity
  8
KONSTRUKTIONSELEMENTE
100
AcDbLine
 62
7
  6
CONTINUOUS
 10
302.830498123
 20
116.7162567741
 11
313.6155607888
 21
121.7454140888
  0
LINE
  5
23D
100
AcDbEntity
  8
0
100
AcDbLine
 62
7
  6
CONTINUOUS
 10
368.8944012762
 20
137.957134921
 11
372.6625849532
 21
139.3286416166
  0
LINE
  5
23E
100
AcDbEntity
  8
0
100
AcDbLine
 62
7
  6
CONTINUOUS
 10
357.5026947994
 20
152.7295317254
 11
361.2708784764
 21
151.3580250297
  0
LINE
  5
23F
100
AcDbEntity
  8
0
100
AcDbLine
 62
7
  6
CONTINUOUS
 10
324.6438773202
 20
155.1449526799
 11
324.6438773202
 21
200.1449526799
  0
LINE
  5
240
100
AcDbEntity
  8
KONSTRUKTIONSELEMENTE
100
AcDbLine
 62
7
  6
CONTINUOUS
 10
357.5026947994
 20
152.7295317254
 11
351.9539323111
 21
147.7461002771
  0
LINE
  5
241
100
AcDbEntity
  8
RUNDUNGEN
100
AcDbLine
 62
7
  6
CONTINUOUS
 10
396.5088936895
 20
103.0348464979
 11
391.9126270308
 21
106.891572156
  0
LINE
  5
242
100
AcDbEntity
  8
0
100
AcDbLine
 62
7
  6
CONTINUOUS
 10
373.7719263885
 20
124.5562448122
 11
377.5401100655
 21
125.9277515079
  0
LINE
  5
243
100
AcDbEntity
  8
0
100
AcDbLine
 62
7
  6
CONTINUOUS
 10
342.6438773202
 20
155.1449526799
 11
342.6438773202
 21
200.1449526799
  0
LINE
  5
244
100
AcDbEntity
  8
RUNDUNGEN
100
AcDbLine
 62
7
  6
CONTINUOUS
 10
337.9684824116
 20
98.3141288532
 11
340.3857951096
 21
108.6539123484
  0
LINE
  5
245
100
AcDbEntity
  8
0
100
AcDbLine
 62
7
  6
CONTINUOUS
 10
340.4879200626
 20
105.2362269091
 11
342.245527288
 21
112.7541943592
  0
LINE
  5
246
100
AcDbEntity
  8
RUNDUNGEN
100
AcDbLine
 62
7
  6
CONTINUOUS
 10
325.0850434029
 20
92.8861661934
 11
328.7788609508
 21
103.0348464979
  0
LINE
  5
247
100
AcDbEntity
  8
RUNDUNGEN
100
AcDbLine
 62
7
  6
CONTINUOUS
 10
333.3751276095
 20
106.891572156
 11
335.5824734813
 21
112.9562050957
  0
LINE
  5
248
100
AcDbEntity
  8
BEZUGSACHSEN
100
AcDbLine
 62
7
  6
CONTINUOUS
 10
350.2570402566
 20
145.2337838507
 11
342.2968394883
 21
123.3633119855
  0
LINE
  5
249
100
AcDbEntity
  8
RUNDUNGEN
100
AcDbLine
 62
7
  6
CONTINUOUS
 10
342.2967413496
 20
123.3630423517
 11
339.3630877855
 21
115.3028954279
  0
LINE
  5
24A
100
AcDbEntity
  8
RUNDUNGEN
100
AcDbLine
 62
7
  6
CONTINUOUS
 10
333.3751276095
 20
106.891572156
 11
328.7788609508
 21
103.0348464979
  0
LINE
  5
24B
100
AcDbEntity
  8
0
100
AcDbLine
 62
7
  6
CONTINUOUS
 10
378.0248593262
 20
110.9280217433
 11
383.0422273523
 21
112.7541943592
  0
LINE
  5
24C
100
AcDbEntity
  8
KONSTRUKTIONSELEMENTE
100
AcDbLine
 62
7
  6
CONTINUOUS
 10
367.785059841
 20
152.7295317254
 11
373.3338223292
 21
147.7461002771
  0
LINE
  5
24D
100
AcDbEntity
  8
0
100
AcDbLine
 62
7
  6
CONTINUOUS
 10
350.2895947836
 20
100.7352095762
 11
351.3314838496
 21
94.8263630581
  0
LINE
  5
24E
100
AcDbEntity
  8
0
100
AcDbLine
 62
7
  6
CONTINUOUS
 10
349.8735498386
 20
118.5548282692
 11
347.2628953141
 21
110.9280217433
  0
LINE
  5
24F
100
AcDbEntity
  8
0
100
AcDbLine
 62
7
  6
CONTINUOUS
 10
340.4879200626
 20
105.2362269091
 11
337.9684824116
 21
98.3141288532
  0
LINE
  5
250
100
AcDbEntity
  8
0
100
AcDbLine
 62
7
  6
CONTINUOUS
 10
343.7768442354
 20
104.0391564075
 11
341.2574065843
 21
97.1170583515
  0
LINE
  5
251
100
AcDbEntity
  8
BEZUGSACHSEN
100
AcDbLine
 62
7
  6
CONTINUOUS
 10
362.0031980164
 20
140.9585320592
 11
354.0429972481
 21
119.0880601939
  0
LINE
  5
252
100
AcDbEntity
  8
0
100
AcDbLine
 62
7
  6
CONTINUOUS
 10
354.0428991095
 20
119.0877905602
 11
351.1092455454
 21
111.0276436363
  0
LINE
  5
253
100
AcDbEntity
  8
0
100
AcDbLine
 62
7
  6
CONTINUOUS
 10
345.148066633
 20
120.2747634986
 11
342.245527288
 21
112.7541943592
  0
LINE
  5
254
100
AcDbEntity
  8
0
100
AcDbLine
 62
7
  6
CONTINUOUS
 10
343.7768442354
 20
104.0391564075
 11
347.2628953141
 21
110.9280217433
  0
LINE
  5
255
100
AcDbEntity
  8
0
100
AcDbLine
 62
7
  6
CONTINUOUS
 10
341.2574065843
 20
97.1170583515
 11
346.0519223423
 21
106.5916106921
  0
LINE
  5
256
100
AcDbEntity
  8
0
100
AcDbLine
 62
7
  6
CONTINUOUS
 10
384.7998345777
 20
105.2362269091
 11
381.5109104049
 21
104.0391564075
  0
LINE
  5
257
100
AcDbEntity
  8
0
100
AcDbLine
 62
7
  6
CONTINUOUS
 10
384.030348056
 20
97.1170583515
 11
387.3192722287
 21
98.3141288532
  0
LINE
  5
258
100
AcDbEntity
  8
0
100
AcDbLine
 62
7
  6
CONTINUOUS
 10
384.030348056
 20
97.1170583515
 11
379.235832298
 21
106.5916106921
  0
LINE
  5
259
100
AcDbEntity
  8
0
100
AcDbLine
 62
7
  6
CONTINUOUS
 10
381.5109104049
 20
104.0391564075
 11
378.0248593262
 21
110.9280217433
  0
LINE
  5
25A
100
AcDbEntity
  8
0
100
AcDbLine
 62
7
  6
CONTINUOUS
 10
377.6500883386
 20
84.6776827536
 11
373.9562707907
 21
94.8263630581
  0
LINE
  5
25B
100
AcDbEntity
  8
0
100
AcDbLine
 62
7
  6
CONTINUOUS
 10
372.7908139833
 20
106.7998425202
 11
374.9981598567
 21
100.7352095762
  0
LINE
  5
25C
100
AcDbEntity
  8
0
100
AcDbLine
 62
7
  6
CONTINUOUS
 10
371.2448565656
 20
119.0877877171
 11
374.1785090949
 21
111.0276436363
  0
LINE
  5
25D
100
AcDbEntity
  8
BEZUGSACHSEN
100
AcDbLine
 62
7
  6
CONTINUOUS
 10
371.2447573922
 20
119.0880601939
 11
363.2845566239
 21
140.9585320592
  0
LINE
  5
25E
100
AcDbEntity
  8
0
100
AcDbLine
 62
7
  6
CONTINUOUS
 10
362.9695654823
 20
143.9738192845
 11
364.0168761639
 21
151.3580250297
  0
LINE
  5
25F
100
AcDbEntity
  8
0
100
AcDbLine
 62
7
  6
CONTINUOUS
 10
350.2895947836
 20
100.7352095762
 11
352.496940657
 21
106.7998425202
  0
LINE
  5
260
100
AcDbEntity
  8
0
100
AcDbLine
 62
7
  6
CONTINUOUS
 10
351.3314838496
 20
94.8263630581
 11
347.6376663017
 21
84.6776827536
  0
LINE
  5
261
100
AcDbEntity
  8
0
100
AcDbLine
 62
7
  6
CONTINUOUS
 10
380.1396880073
 20
120.2747634986
 11
383.0422273523
 21
112.7541943592
  0
LINE
  5
262
100
AcDbEntity
  8
0
100
AcDbLine
 62
7
  6
CONTINUOUS
 10
381.5109104049
 20
104.0391564075
 11
384.030348056
 21
97.1170583515
  0
LINE
  5
263
100
AcDbEntity
  8
0
100
AcDbLine
 62
7
  6
CONTINUOUS
 10
384.7998345777
 20
105.2362269091
 11
387.3192722287
 21
98.3141288532
  0
LINE
  5
264
100
AcDbEntity
  8
RUNDUNGEN
100
AcDbLine
 62
7
  6
CONTINUOUS
 10
382.9910143255
 20
123.3630395087
 11
385.9246668548
 21
115.3028954279
  0
LINE
  5
265
100
AcDbEntity
  8
BEZUGSACHSEN
100
AcDbLine
 62
7
  6
CONTINUOUS
 10
382.990915152
 20
123.3633119855
 11
375.0307143837
 21
145.2337838507
  0
LINE
  5
266
100
AcDbEntity
  8
0
100
AcDbLine
 62
7
  6
CONTINUOUS
 10
375.4142048018
 20
118.5548282692
 11
378.0248593262
 21
110.9280217433
  0
LINE
  5
267
100
AcDbEntity
  8
0
100
AcDbLine
 62
7
  6
CONTINUOUS
 10
362.318189158
 20
143.9738192845
 11
361.2708784764
 21
151.3580250297
  0
LINE
  5
268
100
AcDbEntity
  8
0
100
AcDbLine
 62
7
  6
CONTINUOUS
 10
384.7470483344
 20
81.725125009
 11
396.6639920048
 21
86.0625377885
  0
LINE
  5
269
100
AcDbEntity
  8
0
100
AcDbLine
 62
7
  6
CONTINUOUS
 10
392.0052712966
 20
77.9837510061
 11
393.5087794899
 21
78.5309832354
  0
LINE
  5
26A
100
AcDbEntity
  8
RUNDUNGEN
100
AcDbLine
 62
7
  6
CONTINUOUS
 10
389.7052811574
 20
112.9562051001
 11
391.9126270308
 21
106.891572156
  0
LINE
  5
26B
100
AcDbEntity
  8
RUNDUNGEN
100
AcDbLine
 62
7
  6
CONTINUOUS
 10
400.2027112374
 20
92.8861661934
 11
396.5088936895
 21
103.0348464979
  0
LINE
  5
26C
100
AcDbEntity
  8
0
100
AcDbLine
 62
7
  6
CONTINUOUS
 10
384.7998345777
 20
105.2362269091
 11
383.0422273523
 21
112.7541943592
  0
LINE
  5
26D
100
AcDbEntity
  8
RUNDUNGEN
100
AcDbLine
 62
7
  6
CONTINUOUS
 10
387.3192722287
 20
98.3141288532
 11
384.9019595307
 21
108.6539123484
  0
LINE
  5
26E
100
AcDbEntity
  8
0
100
AcDbLine
 62
7
  6
CONTINUOUS
 10
382.6438773202
 20
200.1449526799
 11
382.6438773202
 21
155.1449526799
  0
LINE
  5
26F
100
AcDbEntity
  8
0
100
AcDbLine
 62
7
  6
CONTINUOUS
 10
373.9562707907
 20
94.8263630581
 11
374.9981598567
 21
100.7352095762
  0
LINE
  5
270
100
AcDbEntity
  8
0
100
AcDbLine
 62
7
  6
CONTINUOUS
 10
400.6438773202
 20
200.1449526799
 11
400.6438773202
 21
155.1449526799
  0
LINE
  5
271
100
AcDbEntity
  8
RUNDUNGEN
100
AcDbLine
 62
7
  6
CONTINUOUS
 10
73.2103529306
 20
54.6204373576
 11
75.8103529306
 21
54.6204373576
  0
LINE
  5
272
100
AcDbEntity
  8
RUNDUNGEN
100
AcDbLine
 62
7
  6
CONTINUOUS
 10
117.6103529306
 20
54.6204373576
 11
120.2103529306
 21
54.6204373576
  0
LINE
  5
273
100
AcDbEntity
  8
RUNDUNGEN
100
AcDbLine
 62
7
  6
CONTINUOUS
 10
79.8103529306
 20
58.8466199751
 11
85.2600630722
 21
58.8466199751
  0
LINE
  5
274
100
AcDbEntity
  8
RUNDUNGEN
100
AcDbLine
 62
7
  6
CONTINUOUS
 10
108.1606427891
 20
58.8466199751
 11
113.6103529306
 21
58.8466199751
  0
LINE
  5
275
100
AcDbEntity
  8
0
100
AcDbLine
 62
7
  6
CONTINUOUS
 10
116.1103529306
 20
77.3083083589
 11
116.4543411107
 21
77.3247804698
  0
LINE
  5
276
100
AcDbEntity
  8
0
100
AcDbLine
 62
7
  6
CONTINUOUS
 10
77.3103529306
 20
77.3083083589
 11
80.8708824222
 21
77.3083083589
  0
LINE
  5
277
100
AcDbEntity
  8
0
100
AcDbLine
 62
7
  6
CONTINUOUS
 10
112.5498234391
 20
77.3083083589
 11
116.1103529306
 21
77.3083083589
  0
LINE
  5
278
100
AcDbEntity
  8
0
100
AcDbLine
 62
7
  6
CONTINUOUS
 10
85.5205387424
 20
78.4561073198
 11
89.3605387424
 21
78.4561073198
  0
LINE
  5
279
100
AcDbEntity
  8
0
100
AcDbLine
 62
7
  6
CONTINUOUS
 10
91.3971797836
 20
78.4561073198
 11
92.1651797836
 21
78.4561073198
  0
LINE
  5
27A
100
AcDbEntity
  8
0
100
AcDbLine
 62
7
  6
CONTINUOUS
 10
95.8235429172
 20
78.4561073198
 11
96.7103529306
 21
78.4561073198
  0
LINE
  5
27B
100
AcDbEntity
  8
0
100
AcDbLine
 62
7
  6
CONTINUOUS
 10
103.3924880721
 20
78.4561073198
 11
106.1748617262
 21
78.4561073198
  0
LINE
  5
27C
100
AcDbEntity
  8
0
100
AcDbLine
 62
7
  6
CONTINUOUS
 10
106.1916909085
 20
78.7942019292
 11
104.1604880721
 21
78.7942019292
  0
LINE
  5
27D
100
AcDbEntity
  8
0
100
AcDbLine
 62
7
  6
CONTINUOUS
 10
85.5205387424
 20
78.8186304346
 11
89.3605387424
 21
78.8186304346
  0
LINE
  5
27E
100
AcDbEntity
  8
0
100
AcDbLine
 62
7
  6
CONTINUOUS
 10
91.3971797836
 20
78.8186304346
 11
92.1651797836
 21
78.8186304346
  0
LINE
  5
27F
100
AcDbEntity
  8
0
100
AcDbLine
 62
7
  6
CONTINUOUS
 10
95.8235429172
 20
78.8186304346
 11
96.2151002715
 21
78.8186304346
  0
LINE
  5
280
100
AcDbEntity
  8
0
100
AcDbLine
 62
7
  6
CONTINUOUS
 10
103.3924880721
 20
78.8186304346
 11
104.1604880721
 21
78.8186304346
  0
LINE
  5
281
100
AcDbEntity
  8
0
100
AcDbLine
 62
7
  6
CONTINUOUS
 10
88.0405387424
 20
78.8618208511
 11
86.8405387424
 21
78.8618208511
  0
LINE
  5
282
100
AcDbEntity
  8
0
100
AcDbLine
 62
7
  6
CONTINUOUS
 10
87.0565387424
 20
79.0139634253
 11
87.8245387424
 21
79.0139634253
  0
LINE
  5
283
100
AcDbEntity
  8
0
100
AcDbLine
 62
7
  6
CONTINUOUS
 10
87.0565387424
 20
79.3764865401
 11
87.8245387424
 21
79.3764865401
  0
LINE
  5
284
100
AcDbEntity
  8
0
100
AcDbLine
 62
7
  6
CONTINUOUS
 10
87.5245387424
 20
79.4196769566
 11
87.3565387424
 21
79.4196769566
  0
LINE
  5
285
100
AcDbEntity
  8
0
100
AcDbLine
 62
7
  6
CONTINUOUS
 10
87.8245387424
 20
79.5211053394
 11
87.6205387424
 21
79.5211053394
  0
LINE
  5
286
100
AcDbEntity
  8
0
100
AcDbLine
 62
7
  6
CONTINUOUS
 10
87.2605387424
 20
79.5211053394
 11
87.0565387424
 21
79.5211053394
  0
LINE
  5
287
100
AcDbEntity
  8
0
100
AcDbLine
 62
7
  6
CONTINUOUS
 10
86.8405387424
 20
79.6732479136
 11
87.2605387424
 21
79.6732479136
  0
LINE
  5
288
100
AcDbEntity
  8
0
100
AcDbLine
 62
7
  6
CONTINUOUS
 10
87.6205387424
 20
79.6732479136
 11
88.0405387424
 21
79.6732479136
  0
LINE
  5
289
100
AcDbEntity
  8
0
100
AcDbLine
 62
7
  6
CONTINUOUS
 10
92.1651797836
 20
79.7285827043
 11
94.0851797836
 21
79.7285827043
  0
LINE
  5
28A
100
AcDbEntity
  8
0
100
AcDbLine
 62
7
  6
CONTINUOUS
 10
88.0405387424
 20
79.8761046793
 11
87.6205387424
 21
79.8761046793
  0
LINE
  5
28B
100
AcDbEntity
  8
0
100
AcDbLine
 62
7
  6
CONTINUOUS
 10
87.2605387424
 20
79.8761046793
 11
86.8405387424
 21
79.8761046793
  0
LINE
  5
28C
100
AcDbEntity
  8
0
100
AcDbLine
 62
7
  6
CONTINUOUS
 10
87.0565387424
 20
80.0282472535
 11
87.2605387424
 21
80.0282472535
  0
LINE
  5
28D
100
AcDbEntity
  8
0
100
AcDbLine
 62
7
  6
CONTINUOUS
 10
87.6205387424
 20
80.0282472535
 11
87.8245387424
 21
80.0282472535
  0
LINE
  5
28E
100
AcDbEntity
  8
0
100
AcDbLine
 62
7
  6
CONTINUOUS
 10
94.4051797836
 20
80.0531535293
 11
92.1651797836
 21
80.0531535293
  0
LINE
  5
28F
100
AcDbEntity
  8
0
100
AcDbLine
 62
7
  6
CONTINUOUS
 10
87.3565387424
 20
80.1296756363
 11
87.5245387424
 21
80.1296756363
  0
LINE
  5
290
100
AcDbEntity
  8
0
100
AcDbLine
 62
7
  6
CONTINUOUS
 10
87.0565387424
 20
80.3907703683
 11
87.2605387424
 21
80.3907703683
  0
LINE
  5
291
100
AcDbEntity
  8
0
100
AcDbLine
 62
7
  6
CONTINUOUS
 10
87.6205387424
 20
80.3907703683
 11
87.8245387424
 21
80.3907703683
  0
LINE
  5
292
100
AcDbEntity
  8
0
100
AcDbLine
 62
7
  6
CONTINUOUS
 10
104.1604880721
 20
80.4846749762
 11
103.3924880721
 21
80.4846749762
  0
LINE
  5
293
100
AcDbEntity
  8
0
100
AcDbLine
 62
7
  6
CONTINUOUS
 10
87.3565387424
 20
80.4921987511
 11
87.5245387424
 21
80.4921987511
  0
LINE
  5
294
100
AcDbEntity
  8
0
100
AcDbLine
 62
7
  6
CONTINUOUS
 10
92.1651797836
 20
80.5015797066
 11
91.3971797836
 21
80.5015797066
  0
LINE
  5
295
100
AcDbEntity
  8
0
100
AcDbLine
 62
7
  6
CONTINUOUS
 10
87.8245387424
 20
80.5353891676
 11
87.5025269647
 21
80.5353891676
  0
LINE
  5
296
100
AcDbEntity
  8
0
100
AcDbLine
 62
7
  6
CONTINUOUS
 10
87.9603800637
 20
80.6875317418
 11
88.0405387424
 21
80.6875317418
  0
LINE
  5
297
100
AcDbEntity
  8
0
100
AcDbLine
 62
7
  6
CONTINUOUS
 10
103.3924880721
 20
80.7686744481
 11
105.2161374782
 21
80.7686744481
  0
LINE
  5
298
100
AcDbEntity
  8
0
100
AcDbLine
 62
7
  6
CONTINUOUS
 10
91.3971797836
 20
80.7855791785
 11
94.4051797836
 21
80.7855791785
  0
LINE
  5
299
100
AcDbEntity
  8
0
100
AcDbLine
 62
7
  6
CONTINUOUS
 10
104.0619508052
 20
81.0932452731
 11
103.3924880721
 21
81.0932452731
  0
LINE
  5
29A
100
AcDbEntity
  8
0
100
AcDbLine
 62
7
  6
CONTINUOUS
 10
101.7124880721
 20
81.0932452731
 11
100.9444880721
 21
81.0932452731
  0
LINE
  5
29B
100
AcDbEntity
  8
0
100
AcDbLine
 62
7
  6
CONTINUOUS
 10
94.308518601
 20
81.0932452731
 11
91.3971797836
 21
81.0932452731
  0
LINE
  5
29C
100
AcDbEntity
  8
0
100
AcDbLine
 62
7
  6
CONTINUOUS
 10
76.9663299565
 20
77.3247838099
 11
77.3103529306
 21
77.3083083589
  0
LINE
  5
29D
100
AcDbEntity
  8
RUNDUNGEN
100
AcDbLine
 62
7
  6
CONTINUOUS
 10
62.3982259674
 20
85.2102728562
 11
64.2910282074
 21
84.0678504331
  0
LINE
  5
29E
100
AcDbEntity
  8
RUNDUNGEN
100
AcDbLine
 62
7
  6
CONTINUOUS
 10
70.0841502145
 20
80.5713454412
 11
82.1246856869
 21
73.3041426562
  0
LINE
  5
29F
100
AcDbEntity
  8
RUNDUNGEN
100
AcDbLine
 62
7
  6
CONTINUOUS
 10
100.8061131521
 20
62.028753616
 11
104.8840346119
 21
59.567477516
  0
LINE
  5
2A0
100
AcDbEntity
  8
RUNDUNGEN
100
AcDbLine
 62
7
  6
CONTINUOUS
 10
73.5731939061
 20
83.2547742003
 11
71.4509610916
 21
84.5356720686
  0
LINE
  5
2A1
100
AcDbEntity
  8
BEZUGSACHSEN
100
AcDbLine
 62
7
  6
CONTINUOUS
 10
91.7103529306
 20
85.7630638117
 11
101.7103529306
 21
85.7630638117
  0
LINE
  5
2A2
100
AcDbEntity
  8
0
100
AcDbLine
 62
7
  6
CONTINUOUS
 10
112.5572288389
 20
77.3083084258
 11
112.5511771397
 21
77.3105541721
  0
LINE
  5
2A3
100
AcDbEntity
  8
RUNDUNGEN
100
AcDbLine
 62
7
  6
CONTINUOUS
 10
123.4869611078
 20
60.1284679002
 11
111.2960201744
 21
67.4864496201
  0
LINE
  5
2A4
100
AcDbEntity
  8
BEZUGSACHSEN
100
AcDbLine
 62
7
  6
CONTINUOUS
 10
91.7103529306
 20
90.6507727049
 11
101.7103529306
 21
90.6507727049
  0
LINE
  5
2A5
100
AcDbEntity
  8
RUNDUNGEN
100
AcDbLine
 62
7
  6
CONTINUOUS
 10
123.4869611078
 20
64.6600068354
 11
111.2960201744
 21
72.0179885553
  0
LINE
  5
2A6
100
AcDbEntity
  8
0
100
AcDbLine
 62
7
  6
CONTINUOUS
 10
94.0851797836
 20
79.7285827043
 11
95.8235429172
 21
78.4561073198
  0
LINE
  5
2A7
100
AcDbEntity
  8
0
100
AcDbLine
 62
7
  6
CONTINUOUS
 10
94.137027436
 20
80.0531535293
 11
95.8235429172
 21
78.8186304346
  0
LINE
  5
2A8
100
AcDbEntity
  8
0
100
AcDbLine
 62
7
  6
CONTINUOUS
 10
96.7103529306
 20
78.4561073198
 11
94.9028985988
 21
79.7791572059
  0
LINE
  5
2A9
100
AcDbEntity
  8
BEZUGSACHSEN
100
AcDbLine
 62
7
  6
CONTINUOUS
 10
91.7103529306
 20
95.5955563518
 11
101.7103529306
 21
95.5955563518
  0
LINE
  5
2AA
100
AcDbEntity
  8
BEZUGSACHSEN
100
AcDbLine
 62
7
  6
CONTINUOUS
 10
91.7103529306
 20
97.0630638117
 11
101.7103529306
 21
97.0630638117
  0
LINE
  5
2AB
100
AcDbEntity
  8
RUNDUNGEN
100
AcDbLine
 62
7
  6
CONTINUOUS
 10
132.3338031861
 20
86.8859119603
 11
126.4359084672
 21
88.6312198711
  0
LINE
  5
2AC
100
AcDbEntity
  8
0
100
AcDbLine
 62
7
  6
CONTINUOUS
 10
113.8728361372
 20
108.4437878464
 11
113.5959969289
 21
108.3675280005
  0
LINE
  5
2AD
100
AcDbEntity
  8
0
100
AcDbLine
 62
7
  6
CONTINUOUS
 10
113.8728361372
 20
108.5489932425
 11
113.5959969289
 21
108.4727333966
  0
LINE
  5
2AE
100
AcDbEntity
  8
0
100
AcDbLine
 62
7
  6
CONTINUOUS
 10
113.0423200963
 20
109.6928910903
 11
113.3191585126
 21
109.7691509362
  0
LINE
  5
2AF
100
AcDbEntity
  8
0
100
AcDbLine
 62
7
  6
CONTINUOUS
 10
113.8728361372
 20
110.0452447693
 11
113.5959969289
 21
109.9689849235
  0
LINE
  5
2B0
100
AcDbEntity
  8
0
100
AcDbLine
 62
7
  6
CONTINUOUS
 10
113.8728361372
 20
110.1504501654
 11
113.5959969289
 21
110.0741903195
  0
LINE
  5
2B1
100
AcDbEntity
  8
0
100
AcDbLine
 62
7
  6
CONTINUOUS
 10
107.6439654349
 20
108.5200476922
 11
107.3671270186
 21
108.4437878464
  0
LINE
  5
2B2
100
AcDbEntity
  8
0
100
AcDbLine
 62
7
  6
CONTINUOUS
 10
107.6439654349
 20
108.6252530883
 11
107.3671270186
 21
108.5489932425
  0
LINE
  5
2B3
100
AcDbEntity
  8
0
100
AcDbLine
 62
7
  6
CONTINUOUS
 10
113.665207127
 20
108.091434114
 11
114.0112549493
 21
108.1676939665
  0
LINE
  5
2B4
100
AcDbEntity
  8
0
100
AcDbLine
 62
7
  6
CONTINUOUS
 10
107.3671270186
 20
108.091434114
 11
107.7131752369
 21
108.1676939665
  0
LINE
  5
2B5
100
AcDbEntity
  8
RUNDUNGEN
100
AcDbLine
 62
7
  6
CONTINUOUS
 10
77.3103529306
 20
103.0348464979
 11
87.6998632827
 21
103.0348464979
  0
LINE
  5
2B6
100
AcDbEntity
  8
RUNDUNGEN
100
AcDbLine
 62
7
  6
CONTINUOUS
 10
105.7208425786
 20
103.0348464979
 11
116.1103529306
 21
103.0348464979
  0
LINE
  5
2B7
100
AcDbEntity
  8
RUNDUNGEN
100
AcDbLine
 62
7
  6
CONTINUOUS
 10
116.1103529306
 20
106.891572156
 11
100.8821180035
 21
106.891572156
  0
LINE
  5
2B8
100
AcDbEntity
  8
RUNDUNGEN
100
AcDbLine
 62
7
  6
CONTINUOUS
 10
92.5385878578
 20
106.891572156
 11
77.3103529306
 21
106.891572156
  0
LINE
  5
2B9
100
AcDbEntity
  8
0
100
AcDbLine
 62
7
  6
CONTINUOUS
 10
84.2747227271
 20
108.1676939665
 11
84.6720392422
 21
108.091434114
  0
LINE
  5
2BA
100
AcDbEntity
  8
0
100
AcDbLine
 62
7
  6
CONTINUOUS
 10
84.6720392422
 20
108.4437878464
 11
84.354186212
 21
108.5200476922
  0
LINE
  5
2BB
100
AcDbEntity
  8
0
100
AcDbLine
 62
7
  6
CONTINUOUS
 10
84.6720392422
 20
108.5489932425
 11
84.354186212
 21
108.6252530883
  0
LINE
  5
2BC
100
AcDbEntity
  8
RUNDUNGEN
100
AcDbLine
 62
7
  6
CONTINUOUS
 10
132.3338031861
 20
91.4174508954
 11
126.4359084672
 21
93.1627588063
  0
LINE
  5
2BD
100
AcDbEntity
  8
0
100
AcDbLine
 62
7
  6
CONTINUOUS
 10
83.9568692422
 20
108.3202136782
 11
84.2747227271
 21
108.1676939665
  0
LINE
  5
2BE
100
AcDbEntity
  8
0
100
AcDbLine
 62
7
  6
CONTINUOUS
 10
84.354186212
 20
108.5200476922
 11
84.115796212
 21
108.6725674373
  0
LINE
  5
2BF
100
AcDbEntity
  8
0
100
AcDbLine
 62
7
  6
CONTINUOUS
 10
84.354186212
 20
108.6252530883
 11
84.115796212
 21
108.7777728334
  0
LINE
  5
2C0
100
AcDbEntity
  8
RUNDUNGEN
100
AcDbLine
 62
7
  6
CONTINUOUS
 10
61.6748341446
 20
86.1798883622
 11
61.6748341446
 21
90.7114272974
  0
LINE
  5
2C1
100
AcDbEntity
  8
0
100
AcDbLine
 62
7
  6
CONTINUOUS
 10
113.0423200963
 20
111.2180882208
 11
113.3191585126
 21
111.2943480667
  0
LINE
  5
2C2
100
AcDbEntity
  8
0
100
AcDbLine
 62
7
  6
CONTINUOUS
 10
106.4674011757
 20
111.141828375
 11
106.744239988
 21
111.2180882208
  0
LINE
  5
2C3
100
AcDbEntity
  8
0
100
AcDbLine
 62
7
  6
CONTINUOUS
 10
89.1219857573
 20
108.5200476922
 11
88.8041327271
 21
108.4437878464
  0
LINE
  5
2C4
100
AcDbEntity
  8
0
100
AcDbLine
 62
7
  6
CONTINUOUS
 10
89.1219857573
 20
108.6252530883
 11
88.8041327271
 21
108.5489932425
  0
LINE
  5
2C5
100
AcDbEntity
  8
0
100
AcDbLine
 62
7
  6
CONTINUOUS
 10
85.307746212
 20
108.5200476922
 11
84.9898927271
 21
108.4437878464
  0
LINE
  5
2C6
100
AcDbEntity
  8
0
100
AcDbLine
 62
7
  6
CONTINUOUS
 10
85.307746212
 20
108.6252530883
 11
84.9898927271
 21
108.5489932425
  0
LINE
  5
2C7
100
AcDbEntity
  8
0
100
AcDbLine
 62
7
  6
CONTINUOUS
 10
113.3191585126
 20
111.5704418998
 11
112.9731098982
 21
111.494182054
  0
LINE
  5
2C8
100
AcDbEntity
  8
0
100
AcDbLine
 62
7
  6
CONTINUOUS
 10
113.3191585126
 20
111.6756472959
 11
112.9731098982
 21
111.59938745
  0
LINE
  5
2C9
100
AcDbEntity
  8
0
100
AcDbLine
 62
7
  6
CONTINUOUS
 10
106.744239988
 20
111.5704418998
 11
106.3981913736
 21
111.494182054
  0
LINE
  5
2CA
100
AcDbEntity
  8
0
100
AcDbLine
 62
7
  6
CONTINUOUS
 10
106.744239988
 20
111.6756472959
 11
106.3981913736
 21
111.59938745
  0
LINE
  5
2CB
100
AcDbEntity
  8
0
100
AcDbLine
 62
7
  6
CONTINUOUS
 10
88.8041327271
 20
108.091434114
 11
89.2014496969
 21
108.1676939665
  0
LINE
  5
2CC
100
AcDbEntity
  8
0
100
AcDbLine
 62
7
  6
CONTINUOUS
 10
84.9898927271
 20
108.091434114
 11
85.3872092422
 21
108.1676939665
  0
LINE
  5
2CD
100
AcDbEntity
  8
0
100
AcDbLine
 62
7
  6
CONTINUOUS
 10
79.7453127271
 20
108.091434114
 11
80.2220927271
 21
108.091434114
  0
LINE
  5
2CE
100
AcDbEntity
  8
0
100
AcDbLine
 62
7
  6
CONTINUOUS
 10
82.2086759846
 20
108.091434114
 11
82.7649194695
 21
108.091434114
  0
LINE
  5
2CF
100
AcDbEntity
  8
0
100
AcDbLine
 62
7
  6
CONTINUOUS
 10
84.6720392422
 20
108.091434114
 11
84.9898927271
 21
108.091434114
  0
LINE
  5
2D0
100
AcDbEntity
  8
0
100
AcDbLine
 62
7
  6
CONTINUOUS
 10
86.8970127271
 20
108.091434114
 11
88.8041327271
 21
108.091434114
  0
LINE
  5
2D1
100
AcDbEntity
  8
0
100
AcDbLine
 62
7
  6
CONTINUOUS
 10
101.4843049306
 20
108.091434114
 11
101.8995629511
 21
108.091434114
  0
LINE
  5
2D2
100
AcDbEntity
  8
0
100
AcDbLine
 62
7
  6
CONTINUOUS
 10
102.4532402786
 20
108.091434114
 11
102.868498299
 21
108.091434114
  0
LINE
  5
2D3
100
AcDbEntity
  8
0
100
AcDbLine
 62
7
  6
CONTINUOUS
 10
104.5987400838
 20
108.091434114
 11
105.0832079063
 21
108.091434114
  0
LINE
  5
2D4
100
AcDbEntity
  8
0
100
AcDbLine
 62
7
  6
CONTINUOUS
 10
106.744239988
 20
108.091434114
 11
107.3671270186
 21
108.091434114
  0
LINE
  5
2D5
100
AcDbEntity
  8
0
100
AcDbLine
 62
7
  6
CONTINUOUS
 10
113.2499491065
 20
108.091434114
 11
113.665207127
 21
108.091434114
  0
LINE
  5
2D6
100
AcDbEntity
  8
0
100
AcDbLine
 62
7
  6
CONTINUOUS
 10
113.5959969289
 20
108.3675280005
 11
113.3191585126
 21
108.3675280005
  0
LINE
  5
2D7
100
AcDbEntity
  8
0
100
AcDbLine
 62
7
  6
CONTINUOUS
 10
107.3671270186
 20
108.4437878464
 11
106.744239988
 21
108.4437878464
  0
LINE
  5
2D8
100
AcDbEntity
  8
0
100
AcDbLine
 62
7
  6
CONTINUOUS
 10
88.8041327271
 20
108.4437878464
 11
87.3737927271
 21
108.4437878464
  0
LINE
  5
2D9
100
AcDbEntity
  8
0
100
AcDbLine
 62
7
  6
CONTINUOUS
 10
84.9898927271
 20
108.4437878464
 11
84.6720392422
 21
108.4437878464
  0
LINE
  5
2DA
100
AcDbEntity
  8
0
100
AcDbLine
 62
7
  6
CONTINUOUS
 10
113.5959969289
 20
108.4727333966
 11
113.3191585126
 21
108.4727333966
  0
LINE
  5
2DB
100
AcDbEntity
  8
0
100
AcDbLine
 62
7
  6
CONTINUOUS
 10
107.3671270186
 20
108.5489932425
 11
106.744239988
 21
108.5489932425
  0
LINE
  5
2DC
100
AcDbEntity
  8
0
100
AcDbLine
 62
7
  6
CONTINUOUS
 10
88.8041327271
 20
108.5489932425
 11
87.3737927271
 21
108.5489932425
  0
LINE
  5
2DD
100
AcDbEntity
  8
0
100
AcDbLine
 62
7
  6
CONTINUOUS
 10
84.9898927271
 20
108.5489932425
 11
84.6720392422
 21
108.5489932425
  0
LINE
  5
2DE
100
AcDbEntity
  8
0
100
AcDbLine
 62
7
  6
CONTINUOUS
 10
107.2979172165
 20
109.6166312445
 11
107.9208042471
 21
109.6166312445
  0
LINE
  5
2DF
100
AcDbEntity
  8
0
100
AcDbLine
 62
7
  6
CONTINUOUS
 10
80.2220927271
 20
109.6928910903
 11
81.5729693559
 21
109.6928910903
  0
LINE
  5
2E0
100
AcDbEntity
  8
0
100
AcDbLine
 62
7
  6
CONTINUOUS
 10
102.868498299
 20
109.6928910903
 11
104.0450626572
 21
109.6928910903
  0
LINE
  5
2E1
100
AcDbEntity
  8
0
100
AcDbLine
 62
7
  6
CONTINUOUS
 10
113.3191585126
 20
109.7691509362
 11
113.5959969289
 21
109.7691509362
  0
LINE
  5
2E2
100
AcDbEntity
  8
0
100
AcDbLine
 62
7
  6
CONTINUOUS
 10
113.5959969289
 20
109.9689849235
 11
113.3191585126
 21
109.9689849235
  0
LINE
  5
2E3
100
AcDbEntity
  8
0
100
AcDbLine
 62
7
  6
CONTINUOUS
 10
108.3360622676
 20
109.9689849235
 11
107.2979172165
 21
109.9689849235
  0
LINE
  5
2E4
100
AcDbEntity
  8
0
100
AcDbLine
 62
7
  6
CONTINUOUS
 10
104.1834820634
 20
110.0452447693
 11
102.868498299
 21
110.0452447693
  0
LINE
  5
2E5
100
AcDbEntity
  8
0
100
AcDbLine
 62
7
  6
CONTINUOUS
 10
81.7318959846
 20
110.0452447693
 11
80.2220927271
 21
110.0452447693
  0
LINE
  5
2E6
100
AcDbEntity
  8
0
100
AcDbLine
 62
7
  6
CONTINUOUS
 10
113.5959969289
 20
110.0741903195
 11
113.3191585126
 21
110.0741903195
  0
LINE
  5
2E7
100
AcDbEntity
  8
0
100
AcDbLine
 62
7
  6
CONTINUOUS
 10
108.3360622676
 20
110.0741903195
 11
107.2979172165
 21
110.0741903195
  0
LINE
  5
2E8
100
AcDbEntity
  8
0
100
AcDbLine
 62
7
  6
CONTINUOUS
 10
104.1834820634
 20
110.1504501654
 11
102.868498299
 21
110.1504501654
  0
LINE
  5
2E9
100
AcDbEntity
  8
0
100
AcDbLine
 62
7
  6
CONTINUOUS
 10
81.7318959846
 20
110.1504501654
 11
80.2220927271
 21
110.1504501654
  0
LINE
  5
2EA
100
AcDbEntity
  8
0
100
AcDbLine
 62
7
  6
CONTINUOUS
 10
107.9208042471
 20
110.7605289321
 11
108.3360622676
 21
110.7605289321
  0
LINE
  5
2EB
100
AcDbEntity
  8
0
100
AcDbLine
 62
7
  6
CONTINUOUS
 10
87.3737927271
 20
111.2180882208
 11
88.8041327271
 21
111.2180882208
  0
LINE
  5
2EC
100
AcDbEntity
  8
0
100
AcDbLine
 62
7
  6
CONTINUOUS
 10
106.744239988
 20
111.2180882208
 11
107.3671270186
 21
111.2180882208
  0
LINE
  5
2ED
100
AcDbEntity
  8
0
100
AcDbLine
 62
7
  6
CONTINUOUS
 10
80.2220927271
 20
111.2943480667
 11
81.7318959846
 21
111.2943480667
  0
LINE
  5
2EE
100
AcDbEntity
  8
0
100
AcDbLine
 62
7
  6
CONTINUOUS
 10
102.868498299
 20
111.2943480667
 11
104.1834820634
 21
111.2943480667
  0
LINE
  5
2EF
100
AcDbEntity
  8
0
100
AcDbLine
 62
7
  6
CONTINUOUS
 10
113.3191585126
 20
111.2943480667
 11
113.5959969289
 21
111.2943480667
  0
LINE
  5
2F0
100
AcDbEntity
  8
0
100
AcDbLine
 62
7
  6
CONTINUOUS
 10
113.5959969289
 20
111.5704418998
 11
113.3191585126
 21
111.5704418998
  0
LINE
  5
2F1
100
AcDbEntity
  8
0
100
AcDbLine
 62
7
  6
CONTINUOUS
 10
107.3671270186
 20
111.5704418998
 11
106.744239988
 21
111.5704418998
  0
LINE
  5
2F2
100
AcDbEntity
  8
0
100
AcDbLine
 62
7
  6
CONTINUOUS
 10
104.1142724593
 20
111.5704418998
 11
102.4532402786
 21
111.5704418998
  0
LINE
  5
2F3
100
AcDbEntity
  8
0
100
AcDbLine
 62
7
  6
CONTINUOUS
 10
101.8995629511
 20
111.5704418998
 11
101.4843049306
 21
111.5704418998
  0
LINE
  5
2F4
100
AcDbEntity
  8
0
100
AcDbLine
 62
7
  6
CONTINUOUS
 10
88.8041327271
 20
111.5704418998
 11
86.8970127271
 21
111.5704418998
  0
LINE
  5
2F5
100
AcDbEntity
  8
0
100
AcDbLine
 62
7
  6
CONTINUOUS
 10
86.261306212
 20
111.5704418998
 11
85.784526212
 21
111.5704418998
  0
LINE
  5
2F6
100
AcDbEntity
  8
0
100
AcDbLine
 62
7
  6
CONTINUOUS
 10
83.877406212
 20
111.5704418998
 11
83.4006259846
 21
111.5704418998
  0
LINE
  5
2F7
100
AcDbEntity
  8
0
100
AcDbLine
 62
7
  6
CONTINUOUS
 10
81.6524327271
 20
111.5704418998
 11
79.7453127271
 21
111.5704418998
  0
LINE
  5
2F8
100
AcDbEntity
  8
0
100
AcDbLine
 62
7
  6
CONTINUOUS
 10
113.5959969289
 20
111.6756472959
 11
113.3191585126
 21
111.6756472959
  0
LINE
  5
2F9
100
AcDbEntity
  8
0
100
AcDbLine
 62
7
  6
CONTINUOUS
 10
107.3671270186
 20
111.6756472959
 11
106.744239988
 21
111.6756472959
  0
LINE
  5
2FA
100
AcDbEntity
  8
0
100
AcDbLine
 62
7
  6
CONTINUOUS
 10
104.1142724593
 20
111.6756472959
 11
102.4532402786
 21
111.6756472959
  0
LINE
  5
2FB
100
AcDbEntity
  8
0
100
AcDbLine
 62
7
  6
CONTINUOUS
 10
101.8995629511
 20
111.6756472959
 11
101.4843049306
 21
111.6756472959
  0
LINE
  5
2FC
100
AcDbEntity
  8
0
100
AcDbLine
 62
7
  6
CONTINUOUS
 10
88.8041327271
 20
111.6756472959
 11
86.8970127271
 21
111.6756472959
  0
LINE
  5
2FD
100
AcDbEntity
  8
0
100
AcDbLine
 62
7
  6
CONTINUOUS
 10
86.261306212
 20
111.6756472959
 11
85.784526212
 21
111.6756472959
  0
LINE
  5
2FE
100
AcDbEntity
  8
0
100
AcDbLine
 62
7
  6
CONTINUOUS
 10
83.877406212
 20
111.6756472959
 11
83.4006259846
 21
111.6756472959
  0
LINE
  5
2FF
100
AcDbEntity
  8
0
100
AcDbLine
 62
7
  6
CONTINUOUS
 10
81.6524327271
 20
111.6756472959
 11
79.7453127271
 21
111.6756472959
  0
LINE
  5
300
100
AcDbEntity
  8
0
100
AcDbLine
 62
7
  6
CONTINUOUS
 10
82.0497494695
 20
111.494182054
 11
81.6524327271
 21
111.5704418998
  0
LINE
  5
301
100
AcDbEntity
  8
0
100
AcDbLine
 62
7
  6
CONTINUOUS
 10
82.0497494695
 20
111.59938745
 11
81.6524327271
 21
111.6756472959
  0
LINE
  5
302
100
AcDbEntity
  8
0
100
AcDbLine
 62
7
  6
CONTINUOUS
 10
89.2014496969
 20
111.494182054
 11
88.8041327271
 21
111.5704418998
  0
LINE
  5
303
100
AcDbEntity
  8
0
100
AcDbLine
 62
7
  6
CONTINUOUS
 10
89.2014496969
 20
111.59938745
 11
88.8041327271
 21
111.6756472959
  0
LINE
  5
304
100
AcDbEntity
  8
0
100
AcDbLine
 62
7
  6
CONTINUOUS
 10
106.3981913736
 20
108.1676939665
 11
106.744239988
 21
108.091434114
  0
LINE
  5
305
100
AcDbEntity
  8
0
100
AcDbLine
 62
7
  6
CONTINUOUS
 10
112.9039004922
 20
108.1676939665
 11
113.2499491065
 21
108.091434114
  0
LINE
  5
306
100
AcDbEntity
  8
0
100
AcDbLine
 62
7
  6
CONTINUOUS
 10
104.4603206776
 20
111.494182054
 11
104.1142724593
 21
111.5704418998
  0
LINE
  5
307
100
AcDbEntity
  8
0
100
AcDbLine
 62
7
  6
CONTINUOUS
 10
104.4603206776
 20
111.59938745
 11
104.1142724593
 21
111.6756472959
  0
LINE
  5
308
100
AcDbEntity
  8
0
100
AcDbLine
 62
7
  6
CONTINUOUS
 10
88.8041327271
 20
111.2180882208
 11
89.1219857573
 21
111.141828375
  0
LINE
  5
309
100
AcDbEntity
  8
0
100
AcDbLine
 62
7
  6
CONTINUOUS
 10
106.744239988
 20
108.4437878464
 11
106.4674011757
 21
108.5200476922
  0
LINE
  5
30A
100
AcDbEntity
  8
0
100
AcDbLine
 62
7
  6
CONTINUOUS
 10
106.744239988
 20
108.5489932425
 11
106.4674011757
 21
108.6252530883
  0
LINE
  5
30B
100
AcDbEntity
  8
0
100
AcDbLine
 62
7
  6
CONTINUOUS
 10
113.3191585126
 20
108.3675280005
 11
113.0423200963
 21
108.4437878464
  0
LINE
  5
30C
100
AcDbEntity
  8
0
100
AcDbLine
 62
7
  6
CONTINUOUS
 10
113.3191585126
 20
108.4727333966
 11
113.0423200963
 21
108.5489932425
  0
LINE
  5
30D
100
AcDbEntity
  8
0
100
AcDbLine
 62
7
  6
CONTINUOUS
 10
81.7318959846
 20
111.2943480667
 11
81.9702859846
 21
111.2180882208
  0
LINE
  5
30E
100
AcDbEntity
  8
0
100
AcDbLine
 62
7
  6
CONTINUOUS
 10
89.5193027271
 20
111.3416623623
 11
89.2014496969
 21
111.494182054
  0
LINE
  5
30F
100
AcDbEntity
  8
0
100
AcDbLine
 62
7
  6
CONTINUOUS
 10
89.5193027271
 20
111.4468677584
 11
89.2014496969
 21
111.59938745
  0
LINE
  5
310
100
AcDbEntity
  8
0
100
AcDbLine
 62
7
  6
CONTINUOUS
 10
89.1219857573
 20
111.141828375
 11
89.3603757573
 21
110.9893086833
  0
LINE
  5
311
100
AcDbEntity
  8
0
100
AcDbLine
 62
7
  6
CONTINUOUS
 10
82.3676027271
 20
111.2654025164
 11
82.0497494695
 21
111.494182054
  0
LINE
  5
312
100
AcDbEntity
  8
0
100
AcDbLine
 62
7
  6
CONTINUOUS
 10
82.3676027271
 20
111.3706079125
 11
82.0497494695
 21
111.59938745
  0
LINE
  5
313
100
AcDbEntity
  8
0
100
AcDbLine
 62
7
  6
CONTINUOUS
 10
83.639016212
 20
108.6252530883
 11
83.9568692422
 21
108.3202136782
  0
LINE
  5
314
100
AcDbEntity
  8
0
100
AcDbLine
 62
7
  6
CONTINUOUS
 10
81.9702859846
 20
111.2180882208
 11
82.1292127271
 21
111.0655685291
  0
LINE
  5
315
100
AcDbEntity
  8
0
100
AcDbLine
 62
7
  6
CONTINUOUS
 10
82.6059927271
 20
110.9603631331
 11
82.3676027271
 21
111.2654025164
  0
LINE
  5
316
100
AcDbEntity
  8
0
100
AcDbLine
 62
7
  6
CONTINUOUS
 10
82.6059927271
 20
111.0655685291
 11
82.3676027271
 21
111.3706079125
  0
LINE
  5
317
100
AcDbEntity
  8
0
100
AcDbLine
 62
7
  6
CONTINUOUS
 10
84.115796212
 20
108.6725674373
 11
83.9568692422
 21
108.9013469748
  0
LINE
  5
318
100
AcDbEntity
  8
0
100
AcDbLine
 62
7
  6
CONTINUOUS
 10
84.115796212
 20
108.7777728334
 11
83.9568692422
 21
109.0065523709
  0
LINE
  5
319
100
AcDbEntity
  8
0
100
AcDbLine
 62
7
  6
CONTINUOUS
 10
69.8500951025
 20
120.2747634986
 11
72.0096986724
 21
112.7541943592
  0
LINE
  5
31A
100
AcDbEntity
  8
0
100
AcDbLine
 62
7
  6
CONTINUOUS
 10
69.8500951025
 20
118.5548282692
 11
72.0096986724
 21
110.9280217433
  0
LINE
  5
31B
100
AcDbEntity
  8
0
100
AcDbLine
 62
7
  6
CONTINUOUS
 10
72.0096986724
 20
104.0391564075
 11
73.7103529306
 21
97.1170583515
  0
LINE
  5
31C
100
AcDbEntity
  8
0
100
AcDbLine
 62
7
  6
CONTINUOUS
 10
72.0096986724
 20
105.2362269091
 11
73.7103529306
 21
98.3141288532
  0
LINE
  5
31D
100
AcDbEntity
  8
0
100
AcDbLine
 62
7
  6
CONTINUOUS
 10
68.1884941603
 20
124.5562448122
 11
68.1884941603
 21
125.9277515079
  0
LINE
  5
31E
100
AcDbEntity
  8
RUNDUNGEN
100
AcDbLine
 62
7
  6
CONTINUOUS
 10
69.2103529306
 20
56.3109104046
 11
69.2103529306
 21
63.6903913294
  0
LINE
  5
31F
100
AcDbEntity
  8
RUNDUNGEN
100
AcDbLine
 62
7
  6
CONTINUOUS
 10
69.8671326677
 20
80.862230093
 11
69.8671326677
 21
84.8944587905
  0
LINE
  5
320
100
AcDbEntity
  8
RUNDUNGEN
100
AcDbLine
 62
7
  6
CONTINUOUS
 10
79.7103529306
 20
115.3249325841
 11
113.7104983471
 21
115.3249325841
  0
LINE
  5
321
100
AcDbEntity
  8
0
100
AcDbLine
 62
7
  6
CONTINUOUS
 10
107.7131752369
 20
111.494182054
 11
107.3671270186
 21
111.5704418998
  0
LINE
  5
322
100
AcDbEntity
  8
0
100
AcDbLine
 62
7
  6
CONTINUOUS
 10
107.7131752369
 20
111.59938745
 11
107.3671270186
 21
111.6756472959
  0
LINE
  5
323
100
AcDbEntity
  8
0
100
AcDbLine
 62
7
  6
CONTINUOUS
 10
113.9420455432
 20
111.494182054
 11
113.5959969289
 21
111.5704418998
  0
LINE
  5
324
100
AcDbEntity
  8
0
100
AcDbLine
 62
7
  6
CONTINUOUS
 10
113.9420455432
 20
111.59938745
 11
113.5959969289
 21
111.6756472959
  0
LINE
  5
325
100
AcDbEntity
  8
0
100
AcDbLine
 62
7
  6
CONTINUOUS
 10
107.3671270186
 20
111.2180882208
 11
107.6439654349
 21
111.141828375
  0
LINE
  5
326
100
AcDbEntity
  8
0
100
AcDbLine
 62
7
  6
CONTINUOUS
 10
113.5959969289
 20
109.7691509362
 11
113.8728361372
 21
109.6928910903
  0
LINE
  5
327
100
AcDbEntity
  8
0
100
AcDbLine
 62
7
  6
CONTINUOUS
 10
113.3191585126
 20
109.9689849235
 11
113.0423200963
 21
110.0452447693
  0
LINE
  5
328
100
AcDbEntity
  8
0
100
AcDbLine
 62
7
  6
CONTINUOUS
 10
113.3191585126
 20
110.0741903195
 11
113.0423200963
 21
110.1504501654
  0
LINE
  5
329
100
AcDbEntity
  8
0
100
AcDbLine
 62
7
  6
CONTINUOUS
 10
113.5959969289
 20
111.2943480667
 11
113.8728361372
 21
111.2180882208
  0
LINE
  5
32A
100
AcDbEntity
  8
0
100
AcDbLine
 62
7
  6
CONTINUOUS
 10
104.1834820634
 20
111.2943480667
 11
104.3911110736
 21
111.2180882208
  0
LINE
  5
32B
100
AcDbEntity
  8
0
100
AcDbLine
 62
7
  6
CONTINUOUS
 10
106.1213529573
 20
108.3202136782
 11
106.3981913736
 21
108.1676939665
  0
LINE
  5
32C
100
AcDbEntity
  8
0
100
AcDbLine
 62
7
  6
CONTINUOUS
 10
113.0423200963
 20
108.4437878464
 11
112.765480888
 21
108.5963075381
  0
LINE
  5
32D
100
AcDbEntity
  8
0
100
AcDbLine
 62
7
  6
CONTINUOUS
 10
113.0423200963
 20
108.5489932425
 11
112.765480888
 21
108.7015129341
  0
LINE
  5
32E
100
AcDbEntity
  8
0
100
AcDbLine
 62
7
  6
CONTINUOUS
 10
107.9900140492
 20
111.3416623623
 11
107.7131752369
 21
111.494182054
  0
LINE
  5
32F
100
AcDbEntity
  8
0
100
AcDbLine
 62
7
  6
CONTINUOUS
 10
107.9900140492
 20
111.4468677584
 11
107.7131752369
 21
111.59938745
  0
LINE
  5
330
100
AcDbEntity
  8
0
100
AcDbLine
 62
7
  6
CONTINUOUS
 10
89.8371557573
 20
111.0366229789
 11
89.5193027271
 21
111.3416623623
  0
LINE
  5
331
100
AcDbEntity
  8
0
100
AcDbLine
 62
7
  6
CONTINUOUS
 10
89.8371557573
 20
111.141828375
 11
89.5193027271
 21
111.4468677584
  0
LINE
  5
332
100
AcDbEntity
  8
0
100
AcDbLine
 62
7
  6
CONTINUOUS
 10
89.3603757573
 20
110.9893086833
 11
89.5193027271
 21
110.7605289321
  0
LINE
  5
333
100
AcDbEntity
  8
0
100
AcDbLine
 62
7
  6
CONTINUOUS
 10
83.4800894695
 20
108.9302925251
 11
83.639016212
 21
108.6252530883
  0
LINE
  5
334
100
AcDbEntity
  8
0
100
AcDbLine
 62
7
  6
CONTINUOUS
 10
82.7220228082
 20
108.091434114
 11
82.0497494695
 21
109.7402053859
  0
LINE
  5
335
100
AcDbEntity
  8
0
100
AcDbLine
 62
7
  6
CONTINUOUS
 10
82.7649194695
 20
108.091434114
 11
82.0497494695
 21
109.845410782
  0
LINE
  5
336
100
AcDbEntity
  8
0
100
AcDbLine
 62
7
  6
CONTINUOUS
 10
81.5729693559
 20
109.6928910903
 11
82.2086759846
 21
108.091434114
  0
LINE
  5
337
100
AcDbEntity
  8
0
100
AcDbLine
 62
7
  6
CONTINUOUS
 10
82.1292127271
 20
111.0655685291
 11
82.2086759846
 21
110.8367889916
  0
LINE
  5
338
100
AcDbEntity
  8
0
100
AcDbLine
 62
7
  6
CONTINUOUS
 10
82.6854559846
 20
110.7315835955
 11
82.6059927271
 21
110.9603631331
  0
LINE
  5
339
100
AcDbEntity
  8
0
100
AcDbLine
 62
7
  6
CONTINUOUS
 10
82.6854559846
 20
110.8367889916
 11
82.6059927271
 21
111.0655685291
  0
LINE
  5
33A
100
AcDbEntity
  8
0
100
AcDbLine
 62
7
  6
CONTINUOUS
 10
72.0096986724
 20
104.0391564075
 11
72.0096986724
 21
112.7541943592
  0
LINE
  5
33B
100
AcDbEntity
  8
0
100
AcDbLine
 62
7
  6
CONTINUOUS
 10
73.7103529306
 20
81.725125009
 11
73.7103529306
 21
86.0625377885
  0
LINE
  5
33C
100
AcDbEntity
  8
RUNDUNGEN
100
AcDbLine
 62
7
  6
CONTINUOUS
 10
73.7103529306
 20
86.0625377885
 11
73.7103529306
 21
109.4696702942
  0
LINE
  5
33D
100
AcDbEntity
  8
RUNDUNGEN
100
AcDbLine
 62
7
  6
CONTINUOUS
 10
75.8103529306
 20
54.6204373576
 11
75.8103529306
 21
57.1561469281
  0
LINE
  5
33E
100
AcDbEntity
  8
0
100
AcDbLine
 62
7
  6
CONTINUOUS
 10
77.4015529306
 20
77.9837510061
 11
77.4015529306
 21
78.5309832354
  0
LINE
  5
33F
100
AcDbEntity
  8
0
100
AcDbLine
 62
7
  6
CONTINUOUS
 10
112.6270620759
 20
109.9979304737
 11
112.765480888
 21
109.9216706279
  0
LINE
  5
340
100
AcDbEntity
  8
0
100
AcDbLine
 62
7
  6
CONTINUOUS
 10
113.8728361372
 20
109.6928910903
 11
114.1496745534
 21
109.5403713986
  0
LINE
  5
341
100
AcDbEntity
  8
0
100
AcDbLine
 62
7
  6
CONTINUOUS
 10
114.2880941576
 20
109.7402053859
 11
114.1496745534
 21
109.8164652318
  0
LINE
  5
342
100
AcDbEntity
  8
0
100
AcDbLine
 62
7
  6
CONTINUOUS
 10
114.2880941576
 20
109.845410782
 11
114.1496745534
 21
109.9216706279
  0
LINE
  5
343
100
AcDbEntity
  8
0
100
AcDbLine
 62
7
  6
CONTINUOUS
 10
112.5578518778
 20
108.3964735241
 11
112.9039004922
 21
108.1676939665
  0
LINE
  5
344
100
AcDbEntity
  8
0
100
AcDbLine
 62
7
  6
CONTINUOUS
 10
114.2880941576
 20
111.2654025164
 11
113.9420455432
 21
111.494182054
  0
LINE
  5
345
100
AcDbEntity
  8
0
100
AcDbLine
 62
7
  6
CONTINUOUS
 10
114.2880941576
 20
111.3706079125
 11
113.9420455432
 21
111.59938745
  0
LINE
  5
346
100
AcDbEntity
  8
0
100
AcDbLine
 62
7
  6
CONTINUOUS
 10
106.4674011757
 20
108.5200476922
 11
106.2597721655
 21
108.6725674373
  0
LINE
  5
347
100
AcDbEntity
  8
0
100
AcDbLine
 62
7
  6
CONTINUOUS
 10
106.4674011757
 20
108.6252530883
 11
106.2597721655
 21
108.7777728334
  0
LINE
  5
348
100
AcDbEntity
  8
0
100
AcDbLine
 62
7
  6
CONTINUOUS
 10
107.6439654349
 20
111.141828375
 11
107.8515944451
 21
110.9893086833
  0
LINE
  5
349
100
AcDbEntity
  8
0
100
AcDbLine
 62
7
  6
CONTINUOUS
 10
104.7371594899
 20
111.2654025164
 11
104.4603206776
 21
111.494182054
  0
LINE
  5
34A
100
AcDbEntity
  8
0
100
AcDbLine
 62
7
  6
CONTINUOUS
 10
104.7371594899
 20
111.3706079125
 11
104.4603206776
 21
111.59938745
  0
LINE
  5
34B
100
AcDbEntity
  8
0
100
AcDbLine
 62
7
  6
CONTINUOUS
 10
105.844514145
 20
108.6252530883
 11
106.1213529573
 21
108.3202136782
  0
LINE
  5
34C
100
AcDbEntity
  8
0
100
AcDbLine
 62
7
  6
CONTINUOUS
 10
89.9960827271
 20
110.7315835955
 11
89.8371557573
 21
111.0366229789
  0
LINE
  5
34D
100
AcDbEntity
  8
0
100
AcDbLine
 62
7
  6
CONTINUOUS
 10
89.9960827271
 20
110.8367889916
 11
89.8371557573
 21
111.141828375
  0
LINE
  5
34E
100
AcDbEntity
  8
0
100
AcDbLine
 62
7
  6
CONTINUOUS
 10
83.9568692422
 20
108.9013469748
 11
83.877406212
 21
109.2063863582
  0
LINE
  5
34F
100
AcDbEntity
  8
0
100
AcDbLine
 62
7
  6
CONTINUOUS
 10
83.9568692422
 20
109.0065523709
 11
83.877406212
 21
109.3115917543
  0
LINE
  5
350
100
AcDbEntity
  8
0
100
AcDbLine
 62
7
  6
CONTINUOUS
 10
83.4006259846
 20
109.3115917543
 11
83.4800894695
 21
108.9302925251
  0
LINE
  5
351
100
AcDbEntity
  8
0
100
AcDbLine
 62
7
  6
CONTINUOUS
 10
79.7453127271
 20
111.6756472959
 11
79.7453127271
 21
108.091434114
  0
LINE
  5
352
100
AcDbEntity
  8
0
100
AcDbLine
 62
7
  6
CONTINUOUS
 10
80.2220927271
 20
108.091434114
 11
80.2220927271
 21
109.6928910903
  0
LINE
  5
353
100
AcDbEntity
  8
0
100
AcDbLine
 62
7
  6
CONTINUOUS
 10
80.2220927271
 20
110.0452447693
 11
80.2220927271
 21
111.2943480667
  0
LINE
  5
354
100
AcDbEntity
  8
0
100
AcDbLine
 62
7
  6
CONTINUOUS
 10
81.6524327271
 20
111.6756472959
 11
81.6524327271
 21
111.5704418998
  0
LINE
  5
355
100
AcDbEntity
  8
0
100
AcDbLine
 62
7
  6
CONTINUOUS
 10
81.7318959846
 20
110.1504501654
 11
81.7318959846
 21
110.0452447693
  0
LINE
  5
356
100
AcDbEntity
  8
0
100
AcDbLine
 62
7
  6
CONTINUOUS
 10
81.9702859846
 20
110.2267100112
 11
81.9702859846
 21
110.1215046151
  0
LINE
  5
357
100
AcDbEntity
  8
0
100
AcDbLine
 62
7
  6
CONTINUOUS
 10
82.0497494695
 20
111.59938745
 11
82.0497494695
 21
111.494182054
  0
LINE
  5
358
100
AcDbEntity
  8
0
100
AcDbLine
 62
7
  6
CONTINUOUS
 10
82.0497494695
 20
109.845410782
 11
82.0497494695
 21
109.7402053859
  0
LINE
  5
359
100
AcDbEntity
  8
0
100
AcDbLine
 62
7
  6
CONTINUOUS
 10
82.1292127271
 20
110.3792297029
 11
82.1292127271
 21
110.2740243068
  0
LINE
  5
35A
100
AcDbEntity
  8
0
100
AcDbLine
 62
7
  6
CONTINUOUS
 10
82.2086759846
 20
110.8367889916
 11
82.2086759846
 21
110.5028038444
  0
LINE
  5
35B
100
AcDbEntity
  8
0
100
AcDbLine
 62
7
  6
CONTINUOUS
 10
82.3676027271
 20
111.3706079125
 11
82.3676027271
 21
111.2654025164
  0
LINE
  5
35C
100
AcDbEntity
  8
0
100
AcDbLine
 62
7
  6
CONTINUOUS
 10
82.6059927271
 20
111.0655685291
 11
82.6059927271
 21
110.9603631331
  0
LINE
  5
35D
100
AcDbEntity
  8
0
100
AcDbLine
 62
7
  6
CONTINUOUS
 10
82.6854559846
 20
110.5317493946
 11
82.6854559846
 21
110.8367889916
  0
LINE
  5
35E
100
AcDbEntity
  8
0
100
AcDbLine
 62
7
  6
CONTINUOUS
 10
83.4006259846
 20
111.6756472959
 11
83.4006259846
 21
109.3115917543
  0
LINE
  5
35F
100
AcDbEntity
  8
0
100
AcDbLine
 62
7
  6
CONTINUOUS
 10
83.877406212
 20
109.2063863582
 11
83.877406212
 21
111.6756472959
  0
LINE
  5
360
100
AcDbEntity
  8
0
100
AcDbLine
 62
7
  6
CONTINUOUS
 10
83.9568692422
 20
109.0065523709
 11
83.9568692422
 21
108.9013469748
  0
LINE
  5
361
100
AcDbEntity
  8
0
100
AcDbLine
 62
7
  6
CONTINUOUS
 10
84.115796212
 20
108.7777728334
 11
84.115796212
 21
108.6725674373
  0
LINE
  5
362
100
AcDbEntity
  8
0
100
AcDbLine
 62
7
  6
CONTINUOUS
 10
84.354186212
 20
108.6252530883
 11
84.354186212
 21
108.5200476922
  0
LINE
  5
363
100
AcDbEntity
  8
0
100
AcDbLine
 62
7
  6
CONTINUOUS
 10
84.6720392422
 20
108.5489932425
 11
84.6720392422
 21
108.4437878464
  0
LINE
  5
364
100
AcDbEntity
  8
KONSTRUKTIONSELEMENTE
100
AcDbLine
 62
7
  6
CONTINUOUS
 10
84.7539708692
 20
95.5642901627
 11
84.7539708692
 21
99.1261010725
  0
LINE
  5
365
100
AcDbEntity
  8
0
100
AcDbLine
 62
7
  6
CONTINUOUS
 10
84.9898927271
 20
108.5489932425
 11
84.9898927271
 21
108.4437878464
  0
LINE
  5
366
100
AcDbEntity
  8
0
100
AcDbLine
 62
7
  6
CONTINUOUS
 10
113.0423200963
 20
110.0452447693
 11
112.765480888
 21
110.2740243068
  0
LINE
  5
367
100
AcDbEntity
  8
0
100
AcDbLine
 62
7
  6
CONTINUOUS
 10
113.0423200963
 20
110.1504501654
 11
112.765480888
 21
110.3792297029
  0
LINE
  5
368
100
AcDbEntity
  8
0
100
AcDbLine
 62
7
  6
CONTINUOUS
 10
114.5649325739
 20
109.5114258484
 11
114.2880941576
 21
109.7402053859
  0
LINE
  5
369
100
AcDbEntity
  8
0
100
AcDbLine
 62
7
  6
CONTINUOUS
 10
114.5649325739
 20
109.6166312445
 11
114.2880941576
 21
109.845410782
  0
LINE
  5
36A
100
AcDbEntity
  8
0
100
AcDbLine
 62
7
  6
CONTINUOUS
 10
113.8728361372
 20
111.2180882208
 11
114.1496745534
 21
110.9893086833
  0
LINE
  5
36B
100
AcDbEntity
  8
0
100
AcDbLine
 62
7
  6
CONTINUOUS
 10
104.3911110736
 20
111.2180882208
 11
104.5295304797
 21
111.0655685291
  0
LINE
  5
36C
100
AcDbEntity
  8
0
100
AcDbLine
 62
7
  6
CONTINUOUS
 10
108.2668528615
 20
111.0366229789
 11
107.9900140492
 21
111.3416623623
  0
LINE
  5
36D
100
AcDbEntity
  8
0
100
AcDbLine
 62
7
  6
CONTINUOUS
 10
108.2668528615
 20
111.141828375
 11
107.9900140492
 21
111.4468677584
  0
LINE
  5
36E
100
AcDbEntity
  8
0
100
AcDbLine
 62
7
  6
CONTINUOUS
 10
112.3502228676
 20
108.6252530883
 11
112.5578518778
 21
108.3964735241
  0
LINE
  5
36F
100
AcDbEntity
  8
0
100
AcDbLine
 62
7
  6
CONTINUOUS
 10
112.4194330657
 20
110.2267100112
 11
112.6270620759
 21
109.9979304737
  0
LINE
  5
370
100
AcDbEntity
  8
0
100
AcDbLine
 62
7
  6
CONTINUOUS
 10
104.9447883021
 20
110.9603631331
 11
104.7371594899
 21
111.2654025164
  0
LINE
  5
371
100
AcDbEntity
  8
0
100
AcDbLine
 62
7
  6
CONTINUOUS
 10
104.9447883021
 20
111.0655685291
 11
104.7371594899
 21
111.3706079125
  0
LINE
  5
372
100
AcDbEntity
  8
0
100
AcDbLine
 62
7
  6
CONTINUOUS
 10
89.5193027271
 20
110.7605289321
 11
89.5987657573
 21
110.4554895488
  0
LINE
  5
373
100
AcDbEntity
  8
0
100
AcDbLine
 62
7
  6
CONTINUOUS
 10
90.0755457573
 20
110.3502841527
 11
89.9960827271
 21
110.7315835955
  0
LINE
  5
374
100
AcDbEntity
  8
0
100
AcDbLine
 62
7
  6
CONTINUOUS
 10
90.0755457573
 20
110.4554895488
 11
89.9960827271
 21
110.8367889916
  0
LINE
  5
375
100
AcDbEntity
  8
0
100
AcDbLine
 62
7
  6
CONTINUOUS
 10
85.0405387424
 20
79.5819134266
 11
85.0405387424
 21
78.6589640855
  0
LINE
  5
376
100
AcDbEntity
  8
0
100
AcDbLine
 62
7
  6
CONTINUOUS
 10
85.307746212
 20
108.6252530883
 11
85.307746212
 21
108.5200476922
  0
LINE
  5
377
100
AcDbEntity
  8
0
100
AcDbLine
 62
7
  6
CONTINUOUS
 10
85.546136212
 20
108.7777728334
 11
85.546136212
 21
108.6725674373
  0
LINE
  5
378
100
AcDbEntity
  8
0
100
AcDbLine
 62
7
  6
CONTINUOUS
 10
85.7050627271
 20
109.0065523709
 11
85.7050627271
 21
108.9013469748
  0
LINE
  5
379
100
AcDbEntity
  8
0
100
AcDbLine
 62
7
  6
CONTINUOUS
 10
85.784526212
 20
111.6756472959
 11
85.784526212
 21
109.2063863582
  0
LINE
  5
37A
100
AcDbEntity
  8
0
100
AcDbLine
 62
7
  6
CONTINUOUS
 10
86.261306212
 20
109.3115917543
 11
86.261306212
 21
111.6756472959
  0
LINE
  5
37B
100
AcDbEntity
  8
0
100
AcDbLine
 62
7
  6
CONTINUOUS
 10
86.6005387424
 20
78.9632492339
 11
86.6005387424
 21
79.9343426456
  0
LINE
  5
37C
100
AcDbEntity
  8
0
100
AcDbLine
 62
7
  6
CONTINUOUS
 10
86.6005387424
 20
79.9775330621
 11
86.6005387424
 21
80.2199357725
  0
LINE
  5
37D
100
AcDbEntity
  8
0
100
AcDbLine
 62
7
  6
CONTINUOUS
 10
86.8970127271
 20
111.6756472959
 11
86.8970127271
 21
108.091434114
  0
LINE
  5
37E
100
AcDbEntity
  8
0
100
AcDbLine
 62
7
  6
CONTINUOUS
 10
86.9605387424
 20
80.3552888614
 11
86.9605387424
 21
80.0688186066
  0
LINE
  5
37F
100
AcDbEntity
  8
0
100
AcDbLine
 62
7
  6
CONTINUOUS
 10
86.9605387424
 20
79.4805339863
 11
86.9605387424
 21
79.0545347784
  0
LINE
  5
380
100
AcDbEntity
  8
0
100
AcDbLine
 62
7
  6
CONTINUOUS
 10
87.2605387424
 20
79.4602483097
 11
87.2605387424
 21
79.5211053394
  0
LINE
  5
381
100
AcDbEntity
  8
0
100
AcDbLine
 62
7
  6
CONTINUOUS
 10
87.2605387424
 20
79.6732479136
 11
87.2605387424
 21
79.8761046793
  0
LINE
  5
382
100
AcDbEntity
  8
0
100
AcDbLine
 62
7
  6
CONTINUOUS
 10
87.2605387424
 20
80.0282472535
 11
87.2605387424
 21
80.451627398
  0
LINE
  5
383
100
AcDbEntity
  8
0
100
AcDbLine
 62
7
  6
CONTINUOUS
 10
87.3737927271
 20
108.4437878464
 11
87.3737927271
 21
111.2180882208
  0
LINE
  5
384
100
AcDbEntity
  8
0
100
AcDbLine
 62
7
  6
CONTINUOUS
 10
87.6205387424
 20
79.8761046793
 11
87.6205387424
 21
79.6732479136
  0
LINE
  5
385
100
AcDbEntity
  8
0
100
AcDbLine
 62
7
  6
CONTINUOUS
 10
87.6205387424
 20
80.451627398
 11
87.6205387424
 21
80.0282472535
  0
LINE
  5
386
100
AcDbEntity
  8
0
100
AcDbLine
 62
7
  6
CONTINUOUS
 10
87.6205387424
 20
79.5211053394
 11
87.6205387424
 21
79.4602483097
  0
LINE
  5
387
100
AcDbEntity
  8
0
100
AcDbLine
 62
7
  6
CONTINUOUS
 10
87.7103529306
 20
229.0877278044
 11
87.7103529306
 21
126.2021775555
  0
LINE
  5
388
100
AcDbEntity
  8
0
100
AcDbLine
 62
7
  6
CONTINUOUS
 10
87.9205387424
 20
79.0545347784
 11
87.9205387424
 21
79.4805339863
  0
LINE
  5
389
100
AcDbEntity
  8
0
100
AcDbLine
 62
7
  6
CONTINUOUS
 10
87.9205387424
 20
80.0688186066
 11
87.9205387424
 21
80.4948178145
  0
LINE
  5
38A
100
AcDbEntity
  8
0
100
AcDbLine
 62
7
  6
CONTINUOUS
 10
88.2805387424
 20
80.7939190649
 11
88.2805387424
 21
79.9775330621
  0
LINE
  5
38B
100
AcDbEntity
  8
0
100
AcDbLine
 62
7
  6
CONTINUOUS
 10
88.2805387424
 20
79.9343426456
 11
88.2805387424
 21
78.9632492339
  0
LINE
  5
38C
100
AcDbEntity
  8
KONSTRUKTIONSELEMENTE
100
AcDbLine
 62
7
  6
CONTINUOUS
 10
88.7103529306
 20
116.2200340127
 11
88.7103529306
 21
121.9694191333
  0
LINE
  5
38D
100
AcDbEntity
  8
0
100
AcDbLine
 62
7
  6
CONTINUOUS
 10
88.8041327271
 20
111.6756472959
 11
88.8041327271
 21
111.5704418998
  0
LINE
  5
38E
100
AcDbEntity
  8
0
100
AcDbLine
 62
7
  6
CONTINUOUS
 10
88.8041327271
 20
108.5489932425
 11
88.8041327271
 21
108.4437878464
  0
LINE
  5
38F
100
AcDbEntity
  8
0
100
AcDbLine
 62
7
  6
CONTINUOUS
 10
89.1219857573
 20
108.6252530883
 11
89.1219857573
 21
108.5200476922
  0
LINE
  5
390
100
AcDbEntity
  8
0
100
AcDbLine
 62
7
  6
CONTINUOUS
 10
89.2014496969
 20
111.59938745
 11
89.2014496969
 21
111.494182054
  0
LINE
  5
391
100
AcDbEntity
  8
0
100
AcDbLine
 62
7
  6
CONTINUOUS
 10
89.3603757573
 20
108.7777728334
 11
89.3603757573
 21
108.6725674373
  0
LINE
  5
392
100
AcDbEntity
  8
0
100
AcDbLine
 62
7
  6
CONTINUOUS
 10
89.5193027271
 20
111.4468677584
 11
89.5193027271
 21
111.3416623623
  0
LINE
  5
393
100
AcDbEntity
  8
0
100
AcDbLine
 62
7
  6
CONTINUOUS
 10
89.5193027271
 20
109.0065523709
 11
89.5193027271
 21
108.9013469748
  0
LINE
  5
394
100
AcDbEntity
  8
0
100
AcDbLine
 62
7
  6
CONTINUOUS
 10
89.5987657573
 20
110.4554895488
 11
89.5987657573
 21
109.2063863582
  0
LINE
  5
395
100
AcDbEntity
  8
0
100
AcDbLine
 62
7
  6
CONTINUOUS
 10
89.8371557573
 20
111.141828375
 11
89.8371557573
 21
111.0366229789
  0
LINE
  5
396
100
AcDbEntity
  8
0
100
AcDbLine
 62
7
  6
CONTINUOUS
 10
89.8405387424
 20
78.6589640855
 11
89.8405387424
 21
80.8903885074
  0
LINE
  5
397
100
AcDbEntity
  8
0
100
AcDbLine
 62
7
  6
CONTINUOUS
 10
89.9960827271
 20
110.8367889916
 11
89.9960827271
 21
110.7315835955
  0
LINE
  5
398
100
AcDbEntity
  8
0
100
AcDbLine
 62
7
  6
CONTINUOUS
 10
90.0755457573
 20
109.3115917543
 11
90.0755457573
 21
110.4554895488
  0
LINE
  5
399
100
AcDbEntity
  8
0
100
AcDbLine
 62
7
  6
CONTINUOUS
 10
91.3971797836
 20
81.0932452731
 11
91.3971797836
 21
80.7855791785
  0
LINE
  5
39A
100
AcDbEntity
  8
0
100
AcDbLine
 62
7
  6
CONTINUOUS
 10
91.3971797836
 20
80.5015797066
 11
91.3971797836
 21
78.4561073198
  0
LINE
  5
39B
100
AcDbEntity
  8
0
100
AcDbLine
 62
7
  6
CONTINUOUS
 10
114.4957231678
 20
111.0366229789
 11
114.2880941576
 21
111.2654025164
  0
LINE
  5
39C
100
AcDbEntity
  8
0
100
AcDbLine
 62
7
  6
CONTINUOUS
 10
114.4957231678
 20
111.141828375
 11
114.2880941576
 21
111.3706079125
  0
LINE
  5
39D
100
AcDbEntity
  8
0
100
AcDbLine
 62
7
  6
CONTINUOUS
 10
112.765480888
 20
108.5963075381
 11
112.5578518778
 21
108.9013469748
  0
LINE
  5
39E
100
AcDbEntity
  8
0
100
AcDbLine
 62
7
  6
CONTINUOUS
 10
112.765480888
 20
108.7015129341
 11
112.5578518778
 21
109.0065523709
  0
LINE
  5
39F
100
AcDbEntity
  8
0
100
AcDbLine
 62
7
  6
CONTINUOUS
 10
114.1496745534
 20
109.5403713986
 11
114.3573035636
 21
109.2353319085
  0
LINE
  5
3A0
100
AcDbEntity
  8
0
100
AcDbLine
 62
7
  6
CONTINUOUS
 10
106.2597721655
 20
108.6725674373
 11
106.1213529573
 21
108.9013469748
  0
LINE
  5
3A1
100
AcDbEntity
  8
0
100
AcDbLine
 62
7
  6
CONTINUOUS
 10
106.2597721655
 20
108.7777728334
 11
106.1213529573
 21
109.0065523709
  0
LINE
  5
3A2
100
AcDbEntity
  8
0
100
AcDbLine
 62
7
  6
CONTINUOUS
 10
105.7060949369
 20
108.9302925251
 11
105.844514145
 21
108.6252530883
  0
LINE
  5
3A3
100
AcDbEntity
  8
0
100
AcDbLine
 62
7
  6
CONTINUOUS
 10
91.7103529306
 20
94.8246653679
 11
91.7103529306
 21
81.6227221382
  0
LINE
  5
3A4
100
AcDbEntity
  8
KONSTRUKTIONSELEMENTE
100
AcDbLine
 62
7
  6
CONTINUOUS
 10
91.7103529306
 20
94.8246653679
 11
91.7103529306
 21
104.8458808634
  0
LINE
  5
3A5
100
AcDbEntity
  8
0
100
AcDbLine
 62
7
  6
CONTINUOUS
 10
92.1651797836
 20
78.4561073198
 11
92.1651797836
 21
80.5015797066
  0
LINE
  5
3A6
100
AcDbEntity
  8
KONSTRUKTIONSELEMENTE
100
AcDbLine
 62
7
  6
CONTINUOUS
 10
93.2103529306
 20
97.0630638117
 11
93.2103529306
 21
101.4968058116
  0
LINE
  5
3A7
100
AcDbEntity
  8
KONSTRUKTIONSELEMENTE
100
AcDbLine
 62
7
  6
CONTINUOUS
 10
93.2103529306
 20
115.6301452072
 11
93.2103529306
 21
117.8624421234
  0
LINE
  5
3A8
100
AcDbEntity
  8
0
100
AcDbLine
 62
7
  6
CONTINUOUS
 10
94.0851797836
 20
79.7285827043
 11
94.0851797836
 21
80.0531535293
  0
LINE
  5
3A9
100
AcDbEntity
  8
KONSTRUKTIONSELEMENTE
100
AcDbLine
 62
7
  6
CONTINUOUS
 10
94.2103529306
 20
81.7717265376
 11
94.2103529306
 21
85.7630638117
  0
LINE
  5
3AA
100
AcDbEntity
  8
KONSTRUKTIONSELEMENTE
100
AcDbLine
 62
7
  6
CONTINUOUS
 10
94.2103529306
 20
97.0630638117
 11
94.2103529306
 21
100.8874637766
  0
LINE
  5
3AB
100
AcDbEntity
  8
KONSTRUKTIONSELEMENTE
100
AcDbLine
 62
7
  6
CONTINUOUS
 10
94.4603529306
 20
100.6698988691
 11
94.4603529306
 21
102.3359977216
  0
LINE
  5
3AC
100
AcDbEntity
  8
KONSTRUKTIONSELEMENTE
100
AcDbLine
 62
7
  6
CONTINUOUS
 10
94.4603529306
 20
115.3249325841
 11
94.4603529306
 21
117.2408003192
  0
LINE
  5
3AD
100
AcDbEntity
  8
0
100
AcDbLine
 62
7
  6
CONTINUOUS
 10
94.9028985988
 20
79.7791572059
 11
94.9028985988
 21
80.0437174971
  0
LINE
  5
3AE
100
AcDbEntity
  8
0
100
AcDbLine
 62
7
  6
CONTINUOUS
 10
95.8235429172
 20
78.4561073198
 11
95.8235429172
 21
78.8186304346
  0
LINE
  5
3AF
100
AcDbEntity
  8
0
100
AcDbLine
 62
7
  6
CONTINUOUS
 10
97.9251797836
 20
79.4246927294
 11
97.9251797836
 21
79.5864327021
  0
LINE
  5
3B0
100
AcDbEntity
  8
0
100
AcDbLine
 62
7
  6
CONTINUOUS
 10
86.1818427271
 20
108.9302925251
 11
86.261306212
 21
109.3115917543
  0
LINE
  5
3B1
100
AcDbEntity
  8
0
100
AcDbLine
 62
7
  6
CONTINUOUS
 10
89.9960827271
 20
108.9302925251
 11
90.0755457573
 21
109.3115917543
  0
LINE
  5
3B2
100
AcDbEntity
  8
0
100
AcDbLine
 62
7
  6
CONTINUOUS
 10
85.784526212
 20
109.3115917543
 11
85.7050627271
 21
109.0065523709
  0
LINE
  5
3B3
100
AcDbEntity
  8
0
100
AcDbLine
 62
7
  6
CONTINUOUS
 10
85.784526212
 20
109.2063863582
 11
85.7050627271
 21
108.9013469748
  0
LINE
  5
3B4
100
AcDbEntity
  8
0
100
AcDbLine
 62
7
  6
CONTINUOUS
 10
82.2086759846
 20
110.6080092404
 11
82.1292127271
 21
110.3792297029
  0
LINE
  5
3B5
100
AcDbEntity
  8
0
100
AcDbLine
 62
7
  6
CONTINUOUS
 10
82.2086759846
 20
110.5028038444
 11
82.1292127271
 21
110.2740243068
  0
LINE
  5
3B6
100
AcDbEntity
  8
0
100
AcDbLine
 62
7
  6
CONTINUOUS
 10
82.6059927271
 20
110.3029698571
 11
82.6854559846
 21
110.5317493946
  0
LINE
  5
3B7
100
AcDbEntity
  8
0
100
AcDbLine
 62
7
  6
CONTINUOUS
 10
112.765480888
 20
110.2740243068
 11
112.6270620759
 21
110.5028038444
  0
LINE
  5
3B8
100
AcDbEntity
  8
0
100
AcDbLine
 62
7
  6
CONTINUOUS
 10
112.765480888
 20
110.3792297029
 11
112.6270620759
 21
110.6080092404
  0
LINE
  5
3B9
100
AcDbEntity
  8
0
100
AcDbLine
 62
7
  6
CONTINUOUS
 10
114.1496745534
 20
110.9893086833
 11
114.2880941576
 21
110.7605289321
  0
LINE
  5
3BA
100
AcDbEntity
  8
0
100
AcDbLine
 62
7
  6
CONTINUOUS
 10
112.2810134615
 20
110.5317493946
 11
112.4194330657
 21
110.2267100112
  0
LINE
  5
3BB
100
AcDbEntity
  8
0
100
AcDbLine
 62
7
  6
CONTINUOUS
 10
105.0458464643
 20
108.091434114
 11
104.4603206776
 21
109.7402053859
  0
LINE
  5
3BC
100
AcDbEntity
  8
0
100
AcDbLine
 62
7
  6
CONTINUOUS
 10
105.0832079063
 20
108.091434114
 11
104.4603206776
 21
109.845410782
  0
LINE
  5
3BD
100
AcDbEntity
  8
0
100
AcDbLine
 62
7
  6
CONTINUOUS
 10
104.0450626572
 20
109.6928910903
 11
104.5987400838
 21
108.091434114
  0
LINE
  5
3BE
100
AcDbEntity
  8
0
100
AcDbLine
 62
7
  6
CONTINUOUS
 10
104.5295304797
 20
111.0655685291
 11
104.5987400838
 21
110.8367889916
  0
LINE
  5
3BF
100
AcDbEntity
  8
0
100
AcDbLine
 62
7
  6
CONTINUOUS
 10
105.0139981042
 20
110.7315835955
 11
104.9447883021
 21
110.9603631331
  0
LINE
  5
3C0
100
AcDbEntity
  8
0
100
AcDbLine
 62
7
  6
CONTINUOUS
 10
105.0139981042
 20
110.8367889916
 11
104.9447883021
 21
111.0655685291
  0
LINE
  5
3C1
100
AcDbEntity
  8
0
100
AcDbLine
 62
7
  6
CONTINUOUS
 10
107.8515944451
 20
110.9893086833
 11
107.9208042471
 21
110.7605289321
  0
LINE
  5
3C2
100
AcDbEntity
  8
0
100
AcDbLine
 62
7
  6
CONTINUOUS
 10
106.1213529573
 20
108.9013469748
 11
106.0521431553
 21
109.2063863582
  0
LINE
  5
3C3
100
AcDbEntity
  8
0
100
AcDbLine
 62
7
  6
CONTINUOUS
 10
106.1213529573
 20
109.0065523709
 11
106.0521431553
 21
109.3115917543
  0
LINE
  5
3C4
100
AcDbEntity
  8
KONSTRUKTIONSELEMENTE
100
AcDbLine
 62
7
  6
CONTINUOUS
 10
98.9603529306
 20
100.6698988691
 11
98.9603529306
 21
102.3359977216
  0
LINE
  5
3C5
100
AcDbEntity
  8
KONSTRUKTIONSELEMENTE
100
AcDbLine
 62
7
  6
CONTINUOUS
 10
98.9603529306
 20
115.3249325841
 11
98.9603529306
 21
117.2408003192
  0
LINE
  5
3C6
100
AcDbEntity
  8
KONSTRUKTIONSELEMENTE
100
AcDbLine
 62
7
  6
CONTINUOUS
 10
99.2103529306
 20
81.7717265376
 11
99.2103529306
 21
85.7630638117
  0
LINE
  5
3C7
100
AcDbEntity
  8
KONSTRUKTIONSELEMENTE
100
AcDbLine
 62
7
  6
CONTINUOUS
 10
99.2103529306
 20
97.0630638117
 11
99.2103529306
 21
100.8874637766
  0
LINE
  5
3C8
100
AcDbEntity
  8
KONSTRUKTIONSELEMENTE
100
AcDbLine
 62
7
  6
CONTINUOUS
 10
100.2103529306
 20
117.8624421234
 11
100.2103529306
 21
115.6301452072
  0
LINE
  5
3C9
100
AcDbEntity
  8
KONSTRUKTIONSELEMENTE
100
AcDbLine
 62
7
  6
CONTINUOUS
 10
100.2103529306
 20
101.4968058116
 11
100.2103529306
 21
97.0630638117
  0
LINE
  5
3CA
100
AcDbEntity
  8
0
100
AcDbLine
 62
7
  6
CONTINUOUS
 10
100.9444880721
 20
81.0932452731
 11
100.9444880721
 21
79.4246927294
  0
LINE
  5
3CB
100
AcDbEntity
  8
0
100
AcDbLine
 62
7
  6
CONTINUOUS
 10
101.4843049306
 20
111.6756472959
 11
101.4843049306
 21
108.091434114
  0
LINE
  5
3CC
100
AcDbEntity
  8
0
100
AcDbLine
 62
7
  6
CONTINUOUS
 10
101.7103529306
 20
81.6227221382
 11
101.7103529306
 21
94.8246653679
  0
LINE
  5
3CD
100
AcDbEntity
  8
KONSTRUKTIONSELEMENTE
100
AcDbLine
 62
7
  6
CONTINUOUS
 10
101.7103529306
 20
94.8246653679
 11
101.7103529306
 21
104.8458810544
  0
LINE
  5
3CE
100
AcDbEntity
  8
0
100
AcDbLine
 62
7
  6
CONTINUOUS
 10
101.7124880721
 20
79.4246927294
 11
101.7124880721
 21
81.0932452731
  0
LINE
  5
3CF
100
AcDbEntity
  8
0
100
AcDbLine
 62
7
  6
CONTINUOUS
 10
101.8995629511
 20
108.091434114
 11
101.8995629511
 21
111.6756472959
  0
LINE
  5
3D0
100
AcDbEntity
  8
0
100
AcDbLine
 62
7
  6
CONTINUOUS
 10
102.4532402786
 20
111.6756472959
 11
102.4532402786
 21
108.091434114
  0
LINE
  5
3D1
100
AcDbEntity
  8
0
100
AcDbLine
 62
7
  6
CONTINUOUS
 10
102.868498299
 20
108.091434114
 11
102.868498299
 21
109.6928910903
  0
LINE
  5
3D2
100
AcDbEntity
  8
0
100
AcDbLine
 62
7
  6
CONTINUOUS
 10
102.868498299
 20
110.0452447693
 11
102.868498299
 21
111.2943480667
  0
LINE
  5
3D3
100
AcDbEntity
  8
0
100
AcDbLine
 62
7
  6
CONTINUOUS
 10
103.3924880721
 20
81.0932452731
 11
103.3924880721
 21
80.7686744481
  0
LINE
  5
3D4
100
AcDbEntity
  8
0
100
AcDbLine
 62
7
  6
CONTINUOUS
 10
103.3924880721
 20
80.4846749762
 11
103.3924880721
 21
78.4561073198
  0
LINE
  5
3D5
100
AcDbEntity
  8
0
100
AcDbLine
 62
7
  6
CONTINUOUS
 10
104.1142724593
 20
111.6756472959
 11
104.1142724593
 21
111.5704418998
  0
LINE
  5
3D6
100
AcDbEntity
  8
0
100
AcDbLine
 62
7
  6
CONTINUOUS
 10
104.1604880721
 20
78.7942019292
 11
104.1604880721
 21
80.4846749762
  0
LINE
  5
3D7
100
AcDbEntity
  8
0
100
AcDbLine
 62
7
  6
CONTINUOUS
 10
104.1834820634
 20
110.1504501654
 11
104.1834820634
 21
110.0452447693
  0
LINE
  5
3D8
100
AcDbEntity
  8
0
100
AcDbLine
 62
7
  6
CONTINUOUS
 10
104.3911110736
 20
110.2267100112
 11
104.3911110736
 21
110.1215046151
  0
LINE
  5
3D9
100
AcDbEntity
  8
0
100
AcDbLine
 62
7
  6
CONTINUOUS
 10
104.4603206776
 20
111.59938745
 11
104.4603206776
 21
111.494182054
  0
LINE
  5
3DA
100
AcDbEntity
  8
0
100
AcDbLine
 62
7
  6
CONTINUOUS
 10
104.4603206776
 20
109.845410782
 11
104.4603206776
 21
109.7402053859
  0
LINE
  5
3DB
100
AcDbEntity
  8
0
100
AcDbLine
 62
7
  6
CONTINUOUS
 10
104.5295304797
 20
110.3792297029
 11
104.5295304797
 21
110.2740243068
  0
LINE
  5
3DC
100
AcDbEntity
  8
0
100
AcDbLine
 62
7
  6
CONTINUOUS
 10
104.5987400838
 20
110.8367889916
 11
104.5987400838
 21
110.5028038444
  0
LINE
  5
3DD
100
AcDbEntity
  8
0
100
AcDbLine
 62
7
  6
CONTINUOUS
 10
89.5987657573
 20
109.3115917543
 11
89.5193027271
 21
109.0065523709
  0
LINE
  5
3DE
100
AcDbEntity
  8
0
100
AcDbLine
 62
7
  6
CONTINUOUS
 10
89.5987657573
 20
109.2063863582
 11
89.5193027271
 21
108.9013469748
  0
LINE
  5
3DF
100
AcDbEntity
  8
0
100
AcDbLine
 62
7
  6
CONTINUOUS
 10
112.2118040555
 20
109.0065523709
 11
112.3502228676
 21
108.6252530883
  0
LINE
  5
3E0
100
AcDbEntity
  8
0
100
AcDbLine
 62
7
  6
CONTINUOUS
 10
114.703352178
 20
109.1301265124
 11
114.5649325739
 21
109.5114258484
  0
LINE
  5
3E1
100
AcDbEntity
  8
0
100
AcDbLine
 62
7
  6
CONTINUOUS
 10
114.703352178
 20
109.2353319085
 11
114.5649325739
 21
109.6166312445
  0
LINE
  5
3E2
100
AcDbEntity
  8
0
100
AcDbLine
 62
7
  6
CONTINUOUS
 10
114.6341419799
 20
110.655323536
 11
114.4957231678
 21
111.0366229789
  0
LINE
  5
3E3
100
AcDbEntity
  8
0
100
AcDbLine
 62
7
  6
CONTINUOUS
 10
114.6341419799
 20
110.7605289321
 11
114.4957231678
 21
111.141828375
  0
LINE
  5
3E4
100
AcDbEntity
  8
0
100
AcDbLine
 62
7
  6
CONTINUOUS
 10
105.6368851348
 20
109.3115917543
 11
105.7060949369
 21
108.9302925251
  0
LINE
  5
3E5
100
AcDbEntity
  8
0
100
AcDbLine
 62
7
  6
CONTINUOUS
 10
108.317575563
 20
110.7571734228
 11
108.2668528615
 21
111.0366229789
  0
LINE
  5
3E6
100
AcDbEntity
  8
0
100
AcDbLine
 62
7
  6
CONTINUOUS
 10
108.3360622676
 20
110.7605289321
 11
108.2668528615
 21
111.141828375
  0
LINE
  5
3E7
100
AcDbEntity
  8
KONSTRUKTIONSELEMENTE
100
AcDbLine
 62
7
  6
CONTINUOUS
 10
104.7103529306
 20
121.9694191333
 11
104.7103529306
 21
116.2194486799
  0
LINE
  5
3E8
100
AcDbEntity
  8
0
100
AcDbLine
 62
7
  6
CONTINUOUS
 10
104.7371594899
 20
111.3706079125
 11
104.7371594899
 21
111.2654025164
  0
LINE
  5
3E9
100
AcDbEntity
  8
0
100
AcDbLine
 62
7
  6
CONTINUOUS
 10
104.9447883021
 20
111.0655685291
 11
104.9447883021
 21
110.9603631331
  0
LINE
  5
3EA
100
AcDbEntity
  8
0
100
AcDbLine
 62
7
  6
CONTINUOUS
 10
105.0139981042
 20
110.5317493946
 11
105.0139981042
 21
110.8367889916
  0
LINE
  5
3EB
100
AcDbEntity
  8
0
100
AcDbLine
 62
7
  6
CONTINUOUS
 10
105.6368851348
 20
110.4554895488
 11
105.6368851348
 21
109.3115917543
  0
LINE
  5
3EC
100
AcDbEntity
  8
0
100
AcDbLine
 62
7
  6
CONTINUOUS
 10
105.7060949369
 20
110.8367889916
 11
105.7060949369
 21
110.7315835955
  0
LINE
  5
3ED
100
AcDbEntity
  8
0
100
AcDbLine
 62
7
  6
CONTINUOUS
 10
105.7103529306
 20
229.0877278044
 11
105.7103529306
 21
126.2021775555
  0
LINE
  5
3EE
100
AcDbEntity
  8
0
100
AcDbLine
 62
7
  6
CONTINUOUS
 10
105.844514145
 20
111.141828375
 11
105.844514145
 21
111.0366229789
  0
LINE
  5
3EF
100
AcDbEntity
  8
0
100
AcDbLine
 62
7
  6
CONTINUOUS
 10
106.0521431553
 20
109.2063863582
 11
106.0521431553
 21
110.4554895488
  0
LINE
  5
3F0
100
AcDbEntity
  8
0
100
AcDbLine
 62
7
  6
CONTINUOUS
 10
106.1213529573
 20
111.4468677584
 11
106.1213529573
 21
111.3416623623
  0
LINE
  5
3F1
100
AcDbEntity
  8
0
100
AcDbLine
 62
7
  6
CONTINUOUS
 10
106.1213529573
 20
109.0065523709
 11
106.1213529573
 21
108.9013469748
  0
LINE
  5
3F2
100
AcDbEntity
  8
0
100
AcDbLine
 62
7
  6
CONTINUOUS
 10
106.2597721655
 20
108.7777728334
 11
106.2597721655
 21
108.6725674373
  0
LINE
  5
3F3
100
AcDbEntity
  8
0
100
AcDbLine
 62
7
  6
CONTINUOUS
 10
106.3981913736
 20
111.59938745
 11
106.3981913736
 21
111.494182054
  0
LINE
  5
3F4
100
AcDbEntity
  8
0
100
AcDbLine
 62
7
  6
CONTINUOUS
 10
106.4674011757
 20
108.6252530883
 11
106.4674011757
 21
108.5200476922
  0
LINE
  5
3F5
100
AcDbEntity
  8
0
100
AcDbLine
 62
7
  6
CONTINUOUS
 10
106.744239988
 20
111.6756472959
 11
106.744239988
 21
111.5704418998
  0
LINE
  5
3F6
100
AcDbEntity
  8
0
100
AcDbLine
 62
7
  6
CONTINUOUS
 10
106.744239988
 20
108.5489932425
 11
106.744239988
 21
108.4437878464
  0
LINE
  5
3F7
100
AcDbEntity
  8
0
100
AcDbLine
 62
7
  6
CONTINUOUS
 10
107.2979172165
 20
110.0741903195
 11
107.2979172165
 21
109.6166312445
  0
LINE
  5
3F8
100
AcDbEntity
  8
0
100
AcDbLine
 62
7
  6
CONTINUOUS
 10
107.3671270186
 20
111.6756472959
 11
107.3671270186
 21
111.5704418998
  0
LINE
  5
3F9
100
AcDbEntity
  8
0
100
AcDbLine
 62
7
  6
CONTINUOUS
 10
107.3671270186
 20
108.5489932425
 11
107.3671270186
 21
108.4437878464
  0
LINE
  5
3FA
100
AcDbEntity
  8
0
100
AcDbLine
 62
7
  6
CONTINUOUS
 10
107.4665790744
 20
79.9623900864
 11
107.4665790744
 21
79.7814381886
  0
LINE
  5
3FB
100
AcDbEntity
  8
0
100
AcDbLine
 62
7
  6
CONTINUOUS
 10
107.6439654349
 20
108.6252530883
 11
107.6439654349
 21
108.5200476922
  0
LINE
  5
3FC
100
AcDbEntity
  8
0
100
AcDbLine
 62
7
  6
CONTINUOUS
 10
107.7131752369
 20
111.59938745
 11
107.7131752369
 21
111.494182054
  0
LINE
  5
3FD
100
AcDbEntity
  8
0
100
AcDbLine
 62
7
  6
CONTINUOUS
 10
107.8515944451
 20
108.7777728334
 11
107.8515944451
 21
108.6725674373
  0
LINE
  5
3FE
100
AcDbEntity
  8
0
100
AcDbLine
 62
7
  6
CONTINUOUS
 10
107.9208042471
 20
109.6166312445
 11
107.9208042471
 21
108.9013469748
  0
LINE
  5
3FF
100
AcDbEntity
  8
0
100
AcDbLine
 62
7
  6
CONTINUOUS
 10
107.9900140492
 20
111.4468677584
 11
107.9900140492
 21
111.3416623623
  0
LINE
  5
400
100
AcDbEntity
  8
0
100
AcDbLine
 62
7
  6
CONTINUOUS
 10
108.2668528615
 20
111.141828375
 11
108.2668528615
 21
111.0366229789
  0
LINE
  5
401
100
AcDbEntity
  8
0
100
AcDbLine
 62
7
  6
CONTINUOUS
 10
108.3360622676
 20
108.9302925251
 11
108.3360622676
 21
110.0741903195
  0
LINE
  5
402
100
AcDbEntity
  8
KONSTRUKTIONSELEMENTE
100
AcDbLine
 62
7
  6
CONTINUOUS
 10
108.6667349921
 20
95.5642901627
 11
108.6667349921
 21
99.1261010725
  0
LINE
  5
403
100
AcDbEntity
  8
0
100
AcDbLine
 62
7
  6
CONTINUOUS
 10
86.022916212
 20
108.6252530883
 11
86.1818427271
 21
108.9302925251
  0
LINE
  5
404
100
AcDbEntity
  8
0
100
AcDbLine
 62
7
  6
CONTINUOUS
 10
89.8371557573
 20
108.6252530883
 11
89.9960827271
 21
108.9302925251
  0
LINE
  5
405
100
AcDbEntity
  8
0
100
AcDbLine
 62
7
  6
CONTINUOUS
 10
85.7050627271
 20
109.0065523709
 11
85.546136212
 21
108.7777728334
  0
LINE
  5
406
100
AcDbEntity
  8
0
100
AcDbLine
 62
7
  6
CONTINUOUS
 10
85.7050627271
 20
108.9013469748
 11
85.546136212
 21
108.6725674373
  0
LINE
  5
407
100
AcDbEntity
  8
0
100
AcDbLine
 62
7
  6
CONTINUOUS
 10
82.3676027271
 20
109.9979304737
 11
82.6059927271
 21
110.3029698571
  0
LINE
  5
408
100
AcDbEntity
  8
0
100
AcDbLine
 62
7
  6
CONTINUOUS
 10
112.2118040555
 20
109.2353319085
 11
112.2118040555
 21
109.0065523709
  0
LINE
  5
409
100
AcDbEntity
  8
0
100
AcDbLine
 62
7
  6
CONTINUOUS
 10
112.2810134615
 20
110.7605289321
 11
112.2810134615
 21
110.5317493946
  0
LINE
  5
40A
100
AcDbEntity
  8
0
100
AcDbLine
 62
7
  6
CONTINUOUS
 10
112.3502228676
 20
109.6166312445
 11
112.3502228676
 21
109.5114258484
  0
LINE
  5
40B
100
AcDbEntity
  8
0
100
AcDbLine
 62
7
  6
CONTINUOUS
 10
112.4194330657
 20
111.141828375
 11
112.4194330657
 21
111.0366229789
  0
LINE
  5
40C
100
AcDbEntity
  8
0
100
AcDbLine
 62
7
  6
CONTINUOUS
 10
112.5578518778
 20
108.9013469748
 11
112.5578518778
 21
109.2353319085
  0
LINE
  5
40D
100
AcDbEntity
  8
0
100
AcDbLine
 62
7
  6
CONTINUOUS
 10
112.6270620759
 20
111.3706079125
 11
112.6270620759
 21
111.2654025164
  0
LINE
  5
40E
100
AcDbEntity
  8
0
100
AcDbLine
 62
7
  6
CONTINUOUS
 10
112.6270620759
 20
109.845410782
 11
112.6270620759
 21
109.7402053859
  0
LINE
  5
40F
100
AcDbEntity
  8
0
100
AcDbLine
 62
7
  6
CONTINUOUS
 10
112.6270620759
 20
110.5028038444
 11
112.6270620759
 21
110.7605289321
  0
LINE
  5
410
100
AcDbEntity
  8
0
100
AcDbLine
 62
7
  6
CONTINUOUS
 10
112.765480888
 20
110.3792297029
 11
112.765480888
 21
110.2740243068
  0
LINE
  5
411
100
AcDbEntity
  8
0
100
AcDbLine
 62
7
  6
CONTINUOUS
 10
112.765480888
 20
109.9216706279
 11
112.765480888
 21
109.8164652318
  0
LINE
  5
412
100
AcDbEntity
  8
0
100
AcDbLine
 62
7
  6
CONTINUOUS
 10
112.765480888
 20
108.7015129341
 11
112.765480888
 21
108.5963075381
  0
LINE
  5
413
100
AcDbEntity
  8
0
100
AcDbLine
 62
7
  6
CONTINUOUS
 10
112.9731098982
 20
111.59938745
 11
112.9731098982
 21
111.494182054
  0
LINE
  5
414
100
AcDbEntity
  8
0
100
AcDbLine
 62
7
  6
CONTINUOUS
 10
113.0423200963
 20
110.1504501654
 11
113.0423200963
 21
110.0452447693
  0
LINE
  5
415
100
AcDbEntity
  8
0
100
AcDbLine
 62
7
  6
CONTINUOUS
 10
113.0423200963
 20
108.5489932425
 11
113.0423200963
 21
108.4437878464
  0
LINE
  5
416
100
AcDbEntity
  8
0
100
AcDbLine
 62
7
  6
CONTINUOUS
 10
113.3191585126
 20
111.6756472959
 11
113.3191585126
 21
111.5704418998
  0
LINE
  5
417
100
AcDbEntity
  8
0
100
AcDbLine
 62
7
  6
CONTINUOUS
 10
113.3191585126
 20
110.0741903195
 11
113.3191585126
 21
109.9689849235
  0
LINE
  5
418
100
AcDbEntity
  8
0
100
AcDbLine
 62
7
  6
CONTINUOUS
 10
113.3191585126
 20
108.4727333966
 11
113.3191585126
 21
108.3675280005
  0
LINE
  5
419
100
AcDbEntity
  8
0
100
AcDbLine
 62
7
  6
CONTINUOUS
 10
113.5959969289
 20
111.6756472959
 11
113.5959969289
 21
111.5704418998
  0
LINE
  5
41A
100
AcDbEntity
  8
0
100
AcDbLine
 62
7
  6
CONTINUOUS
 10
113.5959969289
 20
110.0741903195
 11
113.5959969289
 21
109.9689849235
  0
LINE
  5
41B
100
AcDbEntity
  8
0
100
AcDbLine
 62
7
  6
CONTINUOUS
 10
113.5959969289
 20
108.4727333966
 11
113.5959969289
 21
108.3675280005
  0
LINE
  5
41C
100
AcDbEntity
  8
0
100
AcDbLine
 62
7
  6
CONTINUOUS
 10
113.8728361372
 20
110.1504501654
 11
113.8728361372
 21
110.0452447693
  0
LINE
  5
41D
100
AcDbEntity
  8
0
100
AcDbLine
 62
7
  6
CONTINUOUS
 10
113.8728361372
 20
108.5489932425
 11
113.8728361372
 21
108.4437878464
  0
LINE
  5
41E
100
AcDbEntity
  8
0
100
AcDbLine
 62
7
  6
CONTINUOUS
 10
113.9420455432
 20
111.59938745
 11
113.9420455432
 21
111.494182054
  0
LINE
  5
41F
100
AcDbEntity
  8
0
100
AcDbLine
 62
7
  6
CONTINUOUS
 10
114.1496745534
 20
110.3792297029
 11
114.1496745534
 21
110.2740243068
  0
LINE
  5
420
100
AcDbEntity
  8
0
100
AcDbLine
 62
7
  6
CONTINUOUS
 10
114.1496745534
 20
109.9216706279
 11
114.1496745534
 21
109.8164652318
  0
LINE
  5
421
100
AcDbEntity
  8
0
100
AcDbLine
 62
7
  6
CONTINUOUS
 10
114.1496745534
 20
108.7015129341
 11
114.1496745534
 21
108.5963075381
  0
LINE
  5
422
100
AcDbEntity
  8
0
100
AcDbLine
 62
7
  6
CONTINUOUS
 10
114.2880941576
 20
111.3706079125
 11
114.2880941576
 21
111.2654025164
  0
LINE
  5
423
100
AcDbEntity
  8
0
100
AcDbLine
 62
7
  6
CONTINUOUS
 10
114.2880941576
 20
110.7605289321
 11
114.2880941576
 21
110.5028038444
  0
LINE
  5
424
100
AcDbEntity
  8
0
100
AcDbLine
 62
7
  6
CONTINUOUS
 10
114.2880941576
 20
109.845410782
 11
114.2880941576
 21
109.7402053859
  0
LINE
  5
425
100
AcDbEntity
  8
0
100
AcDbLine
 62
7
  6
CONTINUOUS
 10
114.3573035636
 20
109.2353319085
 11
114.3573035636
 21
108.9013469748
  0
LINE
  5
426
100
AcDbEntity
  8
0
100
AcDbLine
 62
7
  6
CONTINUOUS
 10
114.4957231678
 20
111.141828375
 11
114.4957231678
 21
111.0366229789
  0
LINE
  5
427
100
AcDbEntity
  8
0
100
AcDbLine
 62
7
  6
CONTINUOUS
 10
114.5649325739
 20
109.6166312445
 11
114.5649325739
 21
109.5114258484
  0
LINE
  5
428
100
AcDbEntity
  8
0
100
AcDbLine
 62
7
  6
CONTINUOUS
 10
114.6341419799
 20
110.5317493946
 11
114.6341419799
 21
110.7605289321
  0
LINE
  5
429
100
AcDbEntity
  8
0
100
AcDbLine
 62
7
  6
CONTINUOUS
 10
114.703352178
 20
109.0065523709
 11
114.703352178
 21
109.2353319085
  0
LINE
  5
42A
100
AcDbEntity
  8
0
100
AcDbLine
 62
7
  6
CONTINUOUS
 10
116.0191529306
 20
78.5309832354
 11
116.0191529306
 21
77.9837510061
  0
LINE
  5
42B
100
AcDbEntity
  8
RUNDUNGEN
100
AcDbLine
 62
7
  6
CONTINUOUS
 10
117.6103529306
 20
57.1561469281
 11
117.6103529306
 21
54.6204373576
  0
LINE
  5
42C
100
AcDbEntity
  8
0
100
AcDbLine
 62
7
  6
CONTINUOUS
 10
105.7060949369
 20
110.8367889916
 11
105.6368851348
 21
110.4554895488
  0
LINE
  5
42D
100
AcDbEntity
  8
0
100
AcDbLine
 62
7
  6
CONTINUOUS
 10
105.7060949369
 20
110.7315835955
 11
105.6368851348
 21
110.3502841527
  0
LINE
  5
42E
100
AcDbEntity
  8
0
100
AcDbLine
 62
7
  6
CONTINUOUS
 10
106.0521431553
 20
110.4554895488
 11
106.1213529573
 21
110.7605289321
  0
LINE
  5
42F
100
AcDbEntity
  8
0
100
AcDbLine
 62
7
  6
CONTINUOUS
 10
108.2668528615
 20
108.6252530883
 11
108.3360622676
 21
108.9302925251
  0
LINE
  5
430
100
AcDbEntity
  8
0
100
AcDbLine
 62
7
  6
CONTINUOUS
 10
104.5987400838
 20
110.6080092404
 11
104.5295304797
 21
110.3792297029
  0
LINE
  5
431
100
AcDbEntity
  8
0
100
AcDbLine
 62
7
  6
CONTINUOUS
 10
104.5987400838
 20
110.5028038444
 11
104.5295304797
 21
110.2740243068
  0
LINE
  5
432
100
AcDbEntity
  8
0
100
AcDbLine
 62
7
  6
CONTINUOUS
 10
104.9447883021
 20
110.3029698571
 11
105.0139981042
 21
110.5317493946
  0
LINE
  5
433
100
AcDbEntity
  8
0
100
AcDbLine
 62
7
  6
CONTINUOUS
 10
89.5193027271
 20
109.0065523709
 11
89.3603757573
 21
108.7777728334
  0
LINE
  5
434
100
AcDbEntity
  8
0
100
AcDbLine
 62
7
  6
CONTINUOUS
 10
89.5193027271
 20
108.9013469748
 11
89.3603757573
 21
108.6725674373
  0
LINE
  5
435
100
AcDbEntity
  8
0
100
AcDbLine
 62
7
  6
CONTINUOUS
 10
82.1292127271
 20
110.3792297029
 11
81.9702859846
 21
110.2267100112
  0
LINE
  5
436
100
AcDbEntity
  8
0
100
AcDbLine
 62
7
  6
CONTINUOUS
 10
82.1292127271
 20
110.2740243068
 11
81.9702859846
 21
110.1215046151
  0
LINE
  5
437
100
AcDbEntity
  8
0
100
AcDbLine
 62
7
  6
CONTINUOUS
 10
85.7050627271
 20
108.3202136782
 11
86.022916212
 21
108.6252530883
  0
LINE
  5
438
100
AcDbEntity
  8
0
100
AcDbLine
 62
7
  6
CONTINUOUS
 10
119.7103529306
 20
86.0625377885
 11
119.7103529306
 21
81.725125009
  0
LINE
  5
439
100
AcDbEntity
  8
RUNDUNGEN
100
AcDbLine
 62
7
  6
CONTINUOUS
 10
119.7103529306
 20
86.0625377885
 11
119.7103529306
 21
109.4696702942
  0
LINE
  5
43A
100
AcDbEntity
  8
0
100
AcDbLine
 62
7
  6
CONTINUOUS
 10
121.4110071889
 20
104.0391564075
 11
121.4110071889
 21
112.7541943592
  0
LINE
  5
43B
100
AcDbEntity
  8
RUNDUNGEN
100
AcDbLine
 62
7
  6
CONTINUOUS
 10
124.2103529306
 20
56.3109104046
 11
124.2103529306
 21
63.6903913294
  0
LINE
  5
43C
100
AcDbEntity
  8
0
100
AcDbLine
 62
7
  6
CONTINUOUS
 10
107.9208042471
 20
109.0065523709
 11
107.8515944451
 21
108.7777728334
  0
LINE
  5
43D
100
AcDbEntity
  8
0
100
AcDbLine
 62
7
  6
CONTINUOUS
 10
107.9208042471
 20
108.9013469748
 11
107.8515944451
 21
108.6725674373
  0
LINE
  5
43E
100
AcDbEntity
  8
0
100
AcDbLine
 62
7
  6
CONTINUOUS
 10
112.4194330657
 20
111.141828375
 11
112.2810134615
 21
110.7605289321
  0
LINE
  5
43F
100
AcDbEntity
  8
0
100
AcDbLine
 62
7
  6
CONTINUOUS
 10
112.4194330657
 20
111.0366229789
 11
112.2810134615
 21
110.655323536
  0
LINE
  5
440
100
AcDbEntity
  8
0
100
AcDbLine
 62
7
  6
CONTINUOUS
 10
112.3502228676
 20
109.6166312445
 11
112.2118040555
 21
109.2353319085
  0
LINE
  5
441
100
AcDbEntity
  8
0
100
AcDbLine
 62
7
  6
CONTINUOUS
 10
112.3502228676
 20
109.5114258484
 11
112.2118040555
 21
109.1301265124
  0
LINE
  5
442
100
AcDbEntity
  8
0
100
AcDbLine
 62
7
  6
CONTINUOUS
 10
105.844514145
 20
111.141828375
 11
105.7060949369
 21
110.8367889916
  0
LINE
  5
443
100
AcDbEntity
  8
0
100
AcDbLine
 62
7
  6
CONTINUOUS
 10
105.844514145
 20
111.0366229789
 11
105.7060949369
 21
110.7315835955
  0
LINE
  5
444
100
AcDbEntity
  8
0
100
AcDbLine
 62
7
  6
CONTINUOUS
 10
106.1213529573
 20
110.7605289321
 11
106.2597721655
 21
110.9893086833
  0
LINE
  5
445
100
AcDbEntity
  8
0
100
AcDbLine
 62
7
  6
CONTINUOUS
 10
104.7371594899
 20
109.9979304737
 11
104.9447883021
 21
110.3029698571
  0
LINE
  5
446
100
AcDbEntity
  8
0
100
AcDbLine
 62
7
  6
CONTINUOUS
 10
89.5193027271
 20
108.3202136782
 11
89.8371557573
 21
108.6252530883
  0
LINE
  5
447
100
AcDbEntity
  8
0
100
AcDbLine
 62
7
  6
CONTINUOUS
 10
85.546136212
 20
108.7777728334
 11
85.307746212
 21
108.6252530883
  0
LINE
  5
448
100
AcDbEntity
  8
0
100
AcDbLine
 62
7
  6
CONTINUOUS
 10
85.546136212
 20
108.6725674373
 11
85.307746212
 21
108.5200476922
  0
LINE
  5
449
100
AcDbEntity
  8
0
100
AcDbLine
 62
7
  6
CONTINUOUS
 10
82.0497494695
 20
109.845410782
 11
82.3676027271
 21
109.9979304737
  0
LINE
  5
44A
100
AcDbEntity
  8
0
100
AcDbLine
 62
7
  6
CONTINUOUS
 10
125.2322117009
 20
124.5562448122
 11
125.2322117009
 21
125.9277515079
  0
LINE
  5
44B
100
AcDbEntity
  8
0
100
AcDbLine
 62
7
  6
CONTINUOUS
 10
121.4110071889
 20
105.2362269091
 11
119.7103529306
 21
98.3141288532
  0
LINE
  5
44C
100
AcDbEntity
  8
0
100
AcDbLine
 62
7
  6
CONTINUOUS
 10
121.4110071889
 20
104.0391564075
 11
119.7103529306
 21
97.1170583515
  0
LINE
  5
44D
100
AcDbEntity
  8
0
100
AcDbLine
 62
7
  6
CONTINUOUS
 10
123.5706107588
 20
118.5548282692
 11
121.4110071889
 21
110.9280217433
  0
LINE
  5
44E
100
AcDbEntity
  8
0
100
AcDbLine
 62
7
  6
CONTINUOUS
 10
123.5706107588
 20
120.2747634986
 11
121.4110071889
 21
112.7541943592
  0
LINE
  5
44F
100
AcDbEntity
  8
0
100
AcDbLine
 62
7
  6
CONTINUOUS
 10
114.5649325739
 20
108.6252530883
 11
114.703352178
 21
109.0065523709
  0
LINE
  5
450
100
AcDbEntity
  8
0
100
AcDbLine
 62
7
  6
CONTINUOUS
 10
114.4957231678
 20
110.2267100112
 11
114.6341419799
 21
110.5317493946
  0
LINE
  5
451
100
AcDbEntity
  8
0
100
AcDbLine
 62
7
  6
CONTINUOUS
 10
112.6270620759
 20
110.7605289321
 11
112.765480888
 21
110.9893086833
  0
LINE
  5
452
100
AcDbEntity
  8
0
100
AcDbLine
 62
7
  6
CONTINUOUS
 10
114.2880941576
 20
110.6080092404
 11
114.1496745534
 21
110.3792297029
  0
LINE
  5
453
100
AcDbEntity
  8
0
100
AcDbLine
 62
7
  6
CONTINUOUS
 10
114.2880941576
 20
110.5028038444
 11
114.1496745534
 21
110.2740243068
  0
LINE
  5
454
100
AcDbEntity
  8
0
100
AcDbLine
 62
7
  6
CONTINUOUS
 10
112.5578518778
 20
109.2353319085
 11
112.765480888
 21
109.5403713986
  0
LINE
  5
455
100
AcDbEntity
  8
0
100
AcDbLine
 62
7
  6
CONTINUOUS
 10
104.5295304797
 20
110.3792297029
 11
104.3911110736
 21
110.2267100112
  0
LINE
  5
456
100
AcDbEntity
  8
0
100
AcDbLine
 62
7
  6
CONTINUOUS
 10
104.5295304797
 20
110.2740243068
 11
104.3911110736
 21
110.1215046151
  0
LINE
  5
457
100
AcDbEntity
  8
0
100
AcDbLine
 62
7
  6
CONTINUOUS
 10
106.1213529573
 20
111.4468677584
 11
105.844514145
 21
111.141828375
  0
LINE
  5
458
100
AcDbEntity
  8
0
100
AcDbLine
 62
7
  6
CONTINUOUS
 10
106.1213529573
 20
111.3416623623
 11
105.844514145
 21
111.0366229789
  0
LINE
  5
459
100
AcDbEntity
  8
0
100
AcDbLine
 62
7
  6
CONTINUOUS
 10
107.9900140492
 20
108.3202136782
 11
108.2668528615
 21
108.6252530883
  0
LINE
  5
45A
100
AcDbEntity
  8
0
100
AcDbLine
 62
7
  6
CONTINUOUS
 10
89.3603757573
 20
108.7777728334
 11
89.1219857573
 21
108.6252530883
  0
LINE
  5
45B
100
AcDbEntity
  8
0
100
AcDbLine
 62
7
  6
CONTINUOUS
 10
89.3603757573
 20
108.6725674373
 11
89.1219857573
 21
108.5200476922
  0
LINE
  5
45C
100
AcDbEntity
  8
0
100
AcDbLine
 62
7
  6
CONTINUOUS
 10
85.3872092422
 20
108.1676939665
 11
85.7050627271
 21
108.3202136782
  0
LINE
  5
45D
100
AcDbEntity
  8
0
100
AcDbLine
 62
7
  6
CONTINUOUS
 10
89.2014496969
 20
108.1676939665
 11
89.5193027271
 21
108.3202136782
  0
LINE
  5
45E
100
AcDbEntity
  8
0
100
AcDbLine
 62
7
  6
CONTINUOUS
 10
81.9702859846
 20
110.2267100112
 11
81.7318959846
 21
110.1504501654
  0
LINE
  5
45F
100
AcDbEntity
  8
0
100
AcDbLine
 62
7
  6
CONTINUOUS
 10
81.9702859846
 20
110.1215046151
 11
81.7318959846
 21
110.0452447693
  0
LINE
  5
460
100
AcDbEntity
  8
RUNDUNGEN
100
AcDbLine
 62
7
  6
CONTINUOUS
 10
132.8455114625
 20
86.4704856246
 11
132.8455114625
 21
91.0020245598
  0
LINE
  5
461
100
AcDbEntity
  8
0
100
AcDbLine
 62
7
  6
CONTINUOUS
 10
114.3573035636
 20
109.0065523709
 11
114.1496745534
 21
108.7015129341
  0
LINE
  5
462
100
AcDbEntity
  8
0
100
AcDbLine
 62
7
  6
CONTINUOUS
 10
114.3573035636
 20
108.9013469748
 11
114.1496745534
 21
108.5963075381
  0
LINE
  5
463
100
AcDbEntity
  8
0
100
AcDbLine
 62
7
  6
CONTINUOUS
 10
112.6270620759
 20
111.3706079125
 11
112.4194330657
 21
111.141828375
  0
LINE
  5
464
100
AcDbEntity
  8
0
100
AcDbLine
 62
7
  6
CONTINUOUS
 10
112.6270620759
 20
111.2654025164
 11
112.4194330657
 21
111.0366229789
  0
LINE
  5
465
100
AcDbEntity
  8
0
100
AcDbLine
 62
7
  6
CONTINUOUS
 10
114.2880941576
 20
109.9979304737
 11
114.4957231678
 21
110.2267100112
  0
LINE
  5
466
100
AcDbEntity
  8
0
100
AcDbLine
 62
7
  6
CONTINUOUS
 10
114.3573035636
 20
108.3964735241
 11
114.5649325739
 21
108.6252530883
  0
LINE
  5
467
100
AcDbEntity
  8
0
100
AcDbLine
 62
7
  6
CONTINUOUS
 10
112.765480888
 20
110.9893086833
 11
113.0423200963
 21
111.2180882208
  0
LINE
  5
468
100
AcDbEntity
  8
0
100
AcDbLine
 62
7
  6
CONTINUOUS
 10
112.6270620759
 20
109.845410782
 11
112.3502228676
 21
109.6166312445
  0
LINE
  5
469
100
AcDbEntity
  8
0
100
AcDbLine
 62
7
  6
CONTINUOUS
 10
112.6270620759
 20
109.7402053859
 11
112.3502228676
 21
109.5114258484
  0
LINE
  5
46A
100
AcDbEntity
  8
0
100
AcDbLine
 62
7
  6
CONTINUOUS
 10
114.1496745534
 20
110.3792297029
 11
113.8728361372
 21
110.1504501654
  0
LINE
  5
46B
100
AcDbEntity
  8
0
100
AcDbLine
 62
7
  6
CONTINUOUS
 10
114.1496745534
 20
110.2740243068
 11
113.8728361372
 21
110.0452447693
  0
LINE
  5
46C
100
AcDbEntity
  8
0
100
AcDbLine
 62
7
  6
CONTINUOUS
 10
106.2597721655
 20
110.9893086833
 11
106.4674011757
 21
111.141828375
  0
LINE
  5
46D
100
AcDbEntity
  8
0
100
AcDbLine
 62
7
  6
CONTINUOUS
 10
107.8515944451
 20
108.7777728334
 11
107.6439654349
 21
108.6252530883
  0
LINE
  5
46E
100
AcDbEntity
  8
0
100
AcDbLine
 62
7
  6
CONTINUOUS
 10
107.8515944451
 20
108.6725674373
 11
107.6439654349
 21
108.5200476922
  0
LINE
  5
46F
100
AcDbEntity
  8
0
100
AcDbLine
 62
7
  6
CONTINUOUS
 10
112.9731098982
 20
111.59938745
 11
112.6270620759
 21
111.3706079125
  0
LINE
  5
470
100
AcDbEntity
  8
0
100
AcDbLine
 62
7
  6
CONTINUOUS
 10
112.9731098982
 20
111.494182054
 11
112.6270620759
 21
111.2654025164
  0
LINE
  5
471
100
AcDbEntity
  8
0
100
AcDbLine
 62
7
  6
CONTINUOUS
 10
106.3981913736
 20
111.59938745
 11
106.1213529573
 21
111.4468677584
  0
LINE
  5
472
100
AcDbEntity
  8
0
100
AcDbLine
 62
7
  6
CONTINUOUS
 10
106.3981913736
 20
111.494182054
 11
106.1213529573
 21
111.3416623623
  0
LINE
  5
473
100
AcDbEntity
  8
0
100
AcDbLine
 62
7
  6
CONTINUOUS
 10
104.4603206776
 20
109.845410782
 11
104.7371594899
 21
109.9979304737
  0
LINE
  5
474
100
AcDbEntity
  8
0
100
AcDbLine
 62
7
  6
CONTINUOUS
 10
107.7131752369
 20
108.1676939665
 11
107.9900140492
 21
108.3202136782
  0
LINE
  5
475
100
AcDbEntity
  8
0
100
AcDbLine
 62
7
  6
CONTINUOUS
 10
112.765480888
 20
109.9216706279
 11
112.6270620759
 21
109.845410782
  0
LINE
  5
476
100
AcDbEntity
  8
0
100
AcDbLine
 62
7
  6
CONTINUOUS
 10
112.765480888
 20
109.8164652318
 11
112.6270620759
 21
109.7402053859
  0
LINE
  5
477
100
AcDbEntity
  8
0
100
AcDbLine
 62
7
  6
CONTINUOUS
 10
112.765480888
 20
109.5403713986
 11
113.0423200963
 21
109.6928910903
  0
LINE
  5
478
100
AcDbEntity
  8
0
100
AcDbLine
 62
7
  6
CONTINUOUS
 10
114.1496745534
 20
109.9216706279
 11
114.2880941576
 21
109.9979304737
  0
LINE
  5
479
100
AcDbEntity
  8
0
100
AcDbLine
 62
7
  6
CONTINUOUS
 10
104.3911110736
 20
110.2267100112
 11
104.1834820634
 21
110.1504501654
  0
LINE
  5
47A
100
AcDbEntity
  8
0
100
AcDbLine
 62
7
  6
CONTINUOUS
 10
104.3911110736
 20
110.1215046151
 11
104.1834820634
 21
110.0452447693
  0
LINE
  5
47B
100
AcDbEntity
  8
0
100
AcDbLine
 62
7
  6
CONTINUOUS
 10
114.0112549493
 20
108.1676939665
 11
114.3573035636
 21
108.3964735241
  0
LINE
  5
47C
100
AcDbEntity
  8
0
100
AcDbLine
 62
7
  6
CONTINUOUS
 10
114.1496745534
 20
108.7015129341
 11
113.8728361372
 21
108.5489932425
  0
LINE
  5
47D
100
AcDbEntity
  8
0
100
AcDbLine
 62
7
  6
CONTINUOUS
 10
114.1496745534
 20
108.5963075381
 11
113.8728361372
 21
108.4437878464
  0
LINE
  5
47E
100
AcDbEntity
  8
RUNDUNGEN
100
AcDbLine
 62
7
  6
CONTINUOUS
 10
65.0188324878
 20
92.5809895027
 11
63.3805283992
 21
92.0961817497
  0
LINE
  5
47F
100
AcDbEntity
  8
RUNDUNGEN
100
AcDbLine
 62
7
  6
CONTINUOUS
 10
65.0188324878
 20
88.0494505675
 11
63.3805283992
 21
87.5646428145
  0
LINE
  5
480
100
AcDbEntity
  8
RUNDUNGEN
100
AcDbLine
 62
7
  6
CONTINUOUS
 10
68.6655041303
 20
84.7432415417
 11
65.9623023842
 21
83.9433087493
  0
LINE
  5
481
100
AcDbEntity
  8
RUNDUNGEN
100
AcDbLine
 62
7
  6
CONTINUOUS
 10
82.1246856869
 20
72.0179885553
 11
69.9337447535
 21
64.6600068354
  0
LINE
  5
482
100
AcDbEntity
  8
RUNDUNGEN
100
AcDbLine
 62
7
  6
CONTINUOUS
 10
82.1246856869
 20
67.4864496201
 11
69.9337447535
 21
60.1284679002
  0
LINE
  5
483
100
AcDbEntity
  8
RUNDUNGEN
100
AcDbLine
 62
7
  6
CONTINUOUS
 10
119.7103529306
 20
89.9876478468
 11
124.7646342905
 21
93.0382171224
  0
LINE
  5
484
100
AcDbEntity
  8
0
100
AcDbLine
 62
7
  6
CONTINUOUS
 10
80.8695287216
 20
77.3105541721
 11
80.8634770224
 21
77.3083084258
  0
LINE
  5
485
100
AcDbEntity
  8
RUNDUNGEN
100
AcDbLine
 62
7
  6
CONTINUOUS
 10
70.3788409441
 20
81.2776564287
 11
73.0820426902
 21
82.0775892212
  0
LINE
  5
486
100
AcDbEntity
  8
RUNDUNGEN
100
AcDbLine
 62
7
  6
CONTINUOUS
 10
119.7103529306
 20
85.4561089116
 11
124.7646342905
 21
88.5066781872
  0
LINE
  5
487
100
AcDbEntity
  8
RUNDUNGEN
100
AcDbLine
 62
7
  6
CONTINUOUS
 10
88.5366712494
 20
59.567477516
 11
92.6145927092
 21
62.028753616
  0
LINE
  5
488
100
AcDbEntity
  8
RUNDUNGEN
100
AcDbLine
 62
7
  6
CONTINUOUS
 10
111.2960201744
 20
73.3041426562
 11
132.6284939156
 21
86.1796009728
  0
ARC
  5
489
100
AcDbEntity
  8
KONSTRUKTIONSELEMENTE
100
AcDbCircle
 62
7
  6
CONTINUOUS
 10
220.3988701448
 20
88.8150164997
 40
9.55
100
AcDbArc
 50
115.0
 51
189.8048644765
  0
ARC
  5
48A
100
AcDbEntity
  8
KONSTRUKTIONSELEMENTE
100
AcDbCircle
 62
7
  6
CONTINUOUS
 10
220.3988701448
 20
88.8150164997
 40
9.55
100
AcDbArc
 50
220.1951355235
 51
295.0
  0
ARC
  5
48B
100
AcDbEntity
  8
KONSTRUKTIONSELEMENTE
100
AcDbCircle
 62
7
  6
CONTINUOUS
 10
231.1839328105
 20
93.8441738145
 40
9.55
100
AcDbArc
 50
295.0
 51
11.3702929546
  0
ARC
  5
48C
100
AcDbEntity
  8
KONSTRUKTIONSELEMENTE
100
AcDbCircle
 62
7
  6
CONTINUOUS
 10
231.1839328105
 20
93.8441738145
 40
9.55
100
AcDbArc
 50
38.6297070454
 51
115.0
  0
ARC
  5
48D
100
AcDbEntity
  8
KONSTRUKTIONSELEMENTE
100
AcDbCircle
 62
7
  6
CONTINUOUS
 10
220.3988701448
 20
88.8150164997
 40
4.55
100
AcDbArc
 50
115.0
 51
171.6416672297
  0
ARC
  5
48E
100
AcDbEntity
  8
KONSTRUKTIONSELEMENTE
100
AcDbCircle
 62
7
  6
CONTINUOUS
 10
220.3988701448
 20
88.8150164997
 40
4.55
100
AcDbArc
 50
238.3583327703
 51
295.0
  0
ARC
  5
48F
100
AcDbEntity
  8
KONSTRUKTIONSELEMENTE
100
AcDbCircle
 62
7
  6
CONTINUOUS
 10
231.1839328105
 20
93.8441738145
 40
4.55
100
AcDbArc
 50
295.0
 51
355.3477978529
  0
ARC
  5
490
100
AcDbEntity
  8
KONSTRUKTIONSELEMENTE
100
AcDbCircle
 62
7
  6
CONTINUOUS
 10
231.1839328105
 20
93.8441738145
 40
4.55
100
AcDbArc
 50
54.6522021471
 51
115.0
  0
ARC
  5
491
100
AcDbEntity
  8
KONSTRUKTIONSELEMENTE
100
AcDbCircle
 62
7
  6
CONTINUOUS
 10
232.8152868272
 20
94.6048866856
 40
2.25
100
AcDbArc
 50
115.0
 51
295.0
  0
ARC
  5
492
100
AcDbEntity
  8
KONSTRUKTIONSELEMENTE
100
AcDbCircle
 62
7
  6
CONTINUOUS
 10
257.9653279174
 20
106.3325434489
 40
8.0
100
AcDbArc
 50
115.0
 51
188.6357041722
  0
ARC
  5
493
100
AcDbEntity
  8
KONSTRUKTIONSELEMENTE
100
AcDbCircle
 62
7
  6
CONTINUOUS
 10
257.9653279174
 20
106.3325434489
 40
8.0
100
AcDbArc
 50
221.3642958278
 51
295.0
  0
ARC
  5
494
100
AcDbEntity
  8
KONSTRUKTIONSELEMENTE
100
AcDbCircle
 62
7
  6
CONTINUOUS
 10
257.9653279174
 20
106.3325434489
 40
3.5
100
AcDbArc
 50
115.0
 51
164.8461224921
  0
ARC
  5
495
100
AcDbEntity
  8
KONSTRUKTIONSELEMENTE
100
AcDbCircle
 62
7
  6
CONTINUOUS
 10
257.9653279174
 20
106.3325434489
 40
3.5
100
AcDbArc
 50
245.1538775079
 51
295.0
  0
ARC
  5
496
100
AcDbEntity
  8
KONSTRUKTIONSELEMENTE
100
AcDbCircle
 62
7
  6
CONTINUOUS
 10
256.8324431836
 20
105.8042706217
 40
2.25
100
AcDbArc
 50
295.0
 51
115.0
  0
ARC
  5
497
100
AcDbEntity
  8
KONSTRUKTIONSELEMENTE
100
AcDbCircle
 62
7
  6
CONTINUOUS
 10
298.7944937234
 20
125.3714961403
 40
9.55
100
AcDbArc
 50
115.0
 51
191.3702929546
  0
ARC
  5
498
100
AcDbEntity
  8
KONSTRUKTIONSELEMENTE
100
AcDbCircle
 62
7
  6
CONTINUOUS
 10
298.7944937234
 20
125.3714961403
 40
9.55
100
AcDbArc
 50
218.6297070454
 51
295.0
  0
ARC
  5
499
100
AcDbEntity
  8
KONSTRUKTIONSELEMENTE
100
AcDbCircle
 62
7
  6
CONTINUOUS
 10
271.559944723
 20
112.671817375
 40
8.0
100
AcDbArc
 50
295.0
 51
8.6357041722
  0
ARC
  5
49A
100
AcDbEntity
  8
KONSTRUKTIONSELEMENTE
100
AcDbCircle
 62
7
  6
CONTINUOUS
 10
271.559944723
 20
112.671817375
 40
8.0
100
AcDbArc
 50
41.3642958278
 51
115.0
  0
ARC
  5
49B
100
AcDbEntity
  8
KONSTRUKTIONSELEMENTE
100
AcDbCircle
 62
7
  6
CONTINUOUS
 10
298.7944937234
 20
125.3714961403
 40
4.55
100
AcDbArc
 50
115.0
 51
175.3477978529
  0
ARC
  5
49C
100
AcDbEntity
  8
KONSTRUKTIONSELEMENTE
100
AcDbCircle
 62
7
  6
CONTINUOUS
 10
298.7944937234
 20
125.3714961403
 40
4.55
100
AcDbArc
 50
234.6522021471
 51
295.0
  0
ARC
  5
49D
100
AcDbEntity
  8
KONSTRUKTIONSELEMENTE
100
AcDbCircle
 62
7
  6
CONTINUOUS
 10
271.559944723
 20
112.671817375
 40
3.5
100
AcDbArc
 50
295.0
 51
344.8461224921
  0
ARC
  5
49E
100
AcDbEntity
  8
KONSTRUKTIONSELEMENTE
100
AcDbCircle
 62
7
  6
CONTINUOUS
 10
271.559944723
 20
112.671817375
 40
3.5
100
AcDbArc
 50
65.1538775079
 51
115.0
  0
ARC
  5
49F
100
AcDbEntity
  8
KONSTRUKTIONSELEMENTE
100
AcDbCircle
 62
7
  6
CONTINUOUS
 10
296.7099858132
 20
124.3994741383
 40
2.25
100
AcDbArc
 50
295.0
 51
115.0
  0
ARC
  5
4A0
100
AcDbEntity
  8
KONSTRUKTIONSELEMENTE
100
AcDbCircle
 62
7
  6
CONTINUOUS
 10
272.6928294568
 20
113.2000902022
 40
2.25
100
AcDbArc
 50
115.0
 51
295.0
  0
ARC
  5
4A1
100
AcDbEntity
  8
0
100
AcDbCircle
 62
7
  6
CONTINUOUS
 10
337.1131089489
 20
88.5083083589
 40
11.2
100
AcDbArc
 50
263.4238135477
 51
340.0
  0
ARC
  5
4A2
100
AcDbEntity
  8
0
100
AcDbCircle
 62
7
  6
CONTINUOUS
 10
337.1131089489
 20
88.5083083589
 40
11.2
100
AcDbArc
 50
250.0
 51
259.3310985005
  0
ARC
  5
4A3
100
AcDbEntity
  8
RUNDUNGEN
100
AcDbCircle
 62
7
  6
CONTINUOUS
 10
335.6096007557
 20
89.0555405882
 40
11.2
100
AcDbArc
 50
160.0
 51
250.0
  0
CIRCLE
  5
4A4
100
AcDbEntity
  8
BEZUGSACHSEN
100
AcDbCircle
 62
7
  6
CONTINUOUS
 10
337.3190112536
 20
91.4130638117
 40
5.6906
  0
ARC
  5
4A5
100
AcDbEntity
  8
RUNDUNGEN
100
AcDbCircle
 62
7
  6
CONTINUOUS
 10
338.9653669177
 20
111.7249325841
 40
3.6
100
AcDbArc
 50
83.3859285006
 51
159.9999751696
  0
ARC
  5
4A6
100
AcDbEntity
  8
0
100
AcDbCircle
 62
7
  6
CONTINUOUS
 10
349.1140472222
 20
108.0311150362
 40
3.6
100
AcDbArc
 50
340.0
 51
56.6140714994
  0
ARC
  5
4A7
100
AcDbEntity
  8
RUNDUNGEN
100
AcDbCircle
 62
7
  6
CONTINUOUS
 10
337.9003942437
 20
113.3442831911
 40
2.3968216848
100
AcDbArc
 50
29.563274135
 51
33.0763393418
  0
ARC
  5
4A8
100
AcDbEntity
  8
KONSTRUKTIONSELEMENTE
100
AcDbCircle
 62
7
  6
CONTINUOUS
 10
309.5795563892
 20
130.400653455
 40
9.55
100
AcDbArc
 50
295.0
 51
6.6609039942
  0
ARC
  5
4A9
100
AcDbEntity
  8
KONSTRUKTIONSELEMENTE
100
AcDbCircle
 62
7
  6
CONTINUOUS
 10
309.5795563892
 20
130.400653455
 40
9.55
100
AcDbArc
 50
43.3390960058
 51
115.0
  0
ARC
  5
4AA
100
AcDbEntity
  8
KONSTRUKTIONSELEMENTE
100
AcDbCircle
 62
7
  6
CONTINUOUS
 10
309.5795563892
 20
130.400653455
 40
4.55
100
AcDbArc
 50
295.0
 51
343.7275989874
  0
ARC
  5
4AB
100
AcDbEntity
  8
KONSTRUKTIONSELEMENTE
100
AcDbCircle
 62
7
  6
CONTINUOUS
 10
309.5795563892
 20
130.400653455
 40
4.55
100
AcDbArc
 50
66.2724010126
 51
115.0
  0
ARC
  5
4AC
100
AcDbEntity
  8
KONSTRUKTIONSELEMENTE
100
AcDbCircle
 62
7
  6
CONTINUOUS
 10
310.078025672
 20
130.633093499
 40
3.0
100
AcDbArc
 50
115.0
 51
295.0
  0
ARC
  5
4AD
100
AcDbEntity
  8
RUNDUNGEN
100
AcDbCircle
 62
7
  6
CONTINUOUS
 10
389.6781538846
 20
89.0555405882
 40
11.2
100
AcDbArc
 50
290.0
 51
20.0
  0
ARC
  5
4AE
100
AcDbEntity
  8
0
100
AcDbCircle
 62
7
  6
CONTINUOUS
 10
388.1746456914
 20
88.5083083589
 40
11.2
100
AcDbArc
 50
200.0
 51
290.0
  0
ARC
  5
4AF
100
AcDbEntity
  8
RUNDUNGEN
100
AcDbCircle
 62
7
  6
CONTINUOUS
 10
389.9501306875
 20
88.576291725
 40
10.6489600174
100
AcDbArc
 50
299.3184681096
 51
303.0943592224
  0
ARC
  5
4B0
100
AcDbEntity
  8
RUNDUNGEN
100
AcDbCircle
 62
7
  6
CONTINUOUS
 10
390.1911283667
 20
88.2053948149
 40
10.2066433844
100
AcDbArc
 50
303.0978155992
 51
306.1037786302
  0
ARC
  5
4B1
100
AcDbEntity
  8
RUNDUNGEN
100
AcDbCircle
 62
7
  6
CONTINUOUS
 10
390.3476888163
 20
87.9877356785
 40
9.9385324294
100
AcDbArc
 50
306.1139388484
 51
306.7775108568
  0
CIRCLE
  5
4B2
100
AcDbEntity
  8
BEZUGSACHSEN
100
AcDbCircle
 62
7
  6
CONTINUOUS
 10
387.9687433867
 20
91.4130638117
 40
5.6906
  0
ARC
  5
4B3
100
AcDbEntity
  8
0
100
AcDbCircle
 62
7
  6
CONTINUOUS
 10
376.1737074181
 20
108.0311150362
 40
3.6
100
AcDbArc
 50
123.3863540691
 51
199.9999506524
  0
ARC
  5
4B4
100
AcDbEntity
  8
RUNDUNGEN
100
AcDbCircle
 62
7
  6
CONTINUOUS
 10
386.3223877226
 20
111.7249325841
 40
3.6
100
AcDbArc
 50
20.0000493476
 51
96.6136459309
  0
ARC
  5
4B5
100
AcDbEntity
  8
0
100
AcDbCircle
 62
7
  6
CONTINUOUS
 10
350.9707621271
 20
108.5870583306
 40
2.3968216849
100
AcDbArc
 50
106.9236606582
 51
110.4367258649
  0
ARC
  5
4B6
100
AcDbEntity
  8
RUNDUNGEN
100
AcDbCircle
 62
7
  6
CONTINUOUS
 10
387.3449312579
 20
113.3701006057
 40
2.3471789212
100
AcDbArc
 50
146.886498031
 51
150.4738884922
  0
ARC
  5
4B7
100
AcDbEntity
  8
0
100
AcDbCircle
 62
7
  6
CONTINUOUS
 10
374.3329000049
 20
108.6341085423
 40
2.3471789212
100
AcDbArc
 50
69.5261115078
 51
73.113501969
  0
ARC
  5
4B8
100
AcDbEntity
  8
BEZUGSACHSEN
100
AcDbCircle
 62
7
  6
CONTINUOUS
 10
369.1576355038
 20
143.096157955
 40
6.25
100
AcDbArc
 50
20.0
 51
48.0724869359
  0
ARC
  5
4B9
100
AcDbEntity
  8
BEZUGSACHSEN
100
AcDbCircle
 62
7
  6
CONTINUOUS
 10
369.1576355038
 20
143.096157955
 40
6.25
100
AcDbArc
 50
171.9275130641
 51
200.0
  0
ARC
  5
4BA
100
AcDbEntity
  8
BEZUGSACHSEN
100
AcDbCircle
 62
7
  6
CONTINUOUS
 10
356.1301191365
 20
143.096157955
 40
6.25
100
AcDbArc
 50
131.9275130641
 51
160.0
  0
ARC
  5
4BB
100
AcDbEntity
  8
BEZUGSACHSEN
100
AcDbCircle
 62
7
  6
CONTINUOUS
 10
356.1301191365
 20
143.096157955
 40
6.25
100
AcDbArc
 50
340.0
 51
8.0724869359
  0
ARC
  5
4BC
100
AcDbEntity
  8
0
100
AcDbCircle
 62
7
  6
CONTINUOUS
 10
362.6438773202
 20
155.1449526799
 40
38.0
100
AcDbArc
 50
302.540346164
 51
360.0
  0
ARC
  5
4BD
100
AcDbEntity
  8
0
100
AcDbCircle
 62
7
  6
CONTINUOUS
 10
362.6438773202
 20
155.1449526799
 40
38.0
100
AcDbArc
 50
256.424810215
 51
283.575189785
  0
ARC
  5
4BE
100
AcDbEntity
  8
0
100
AcDbCircle
 62
7
  6
CONTINUOUS
 10
362.6438773202
 20
155.1449526799
 40
38.0
100
AcDbArc
 50
209.5303729235
 51
237.459653836
  0
ARC
  5
4BF
100
AcDbEntity
  8
0
100
AcDbCircle
 62
7
  6
CONTINUOUS
 10
362.6438773202
 20
155.1449526799
 40
38.0
100
AcDbArc
 50
180.0
 51
200.4719026983
  0
ARC
  5
4C0
100
AcDbEntity
  8
0
100
AcDbCircle
 62
7
  6
CONTINUOUS
 10
362.6438773202
 20
200.1449526799
 40
38.0
100
AcDbArc
 50
0.0
 51
180.0
  0
ARC
  5
4C1
100
AcDbEntity
  8
0
100
AcDbCircle
 62
7
  6
CONTINUOUS
 10
362.6438773202
 20
155.1449526799
 40
20.0
100
AcDbArc
 50
314.3702783476
 51
360.0
  0
ARC
  5
4C2
100
AcDbEntity
  8
0
100
AcDbCircle
 62
7
  6
CONTINUOUS
 10
362.6438773202
 20
155.1449526799
 40
20.0
100
AcDbArc
 50
262.2722999419
 51
277.7277000581
  0
ARC
  5
4C3
100
AcDbEntity
  8
0
100
AcDbCircle
 62
7
  6
CONTINUOUS
 10
362.6438773202
 20
155.1449526799
 40
20.0
100
AcDbArc
 50
213.6310752081
 51
225.6297216524
  0
ARC
  5
4C4
100
AcDbEntity
  8
0
100
AcDbCircle
 62
7
  6
CONTINUOUS
 10
362.6438773202
 20
155.1449526799
 40
20.0
100
AcDbArc
 50
180.0
 51
196.3730306225
  0
ARC
  5
4C5
100
AcDbEntity
  8
0
100
AcDbCircle
 62
7
  6
CONTINUOUS
 10
362.6438773202
 20
200.1449526799
 40
20.0
100
AcDbArc
 50
0.0
 51
180.0
  0
ARC
  5
4C6
100
AcDbEntity
  8
KONSTRUKTIONSELEMENTE
100
AcDbCircle
 62
7
  6
CONTINUOUS
 10
347.2366449405
 20
147.9604422304
 40
3.0
100
AcDbArc
 50
295.0
 51
115.0
  0
ARC
  5
4C7
100
AcDbEntity
  8
0
100
AcDbCircle
 62
7
  6
CONTINUOUS
 10
611.9990496676
 20
271.8893229183
 40
563.4154383626
100
AcDbArc
 50
195.1590792466
 51
195.7923484161
  0
ARC
  5
4C8
100
AcDbEntity
  8
0
100
AcDbCircle
 62
7
  6
CONTINUOUS
 10
-398.6189589531
 20
266.3632054693
 40
542.7055030921
100
AcDbArc
 50
344.1955685069
 51
344.8530038304
  0
ARC
  5
4C9
100
AcDbEntity
  8
0
100
AcDbCircle
 62
7
  6
CONTINUOUS
 10
549.9709468563
 20
-4.2051380321
 40
499.0479943509
100
AcDbArc
 50
163.2847658201
 51
164.8847024513
  0
ARC
  5
4CA
100
AcDbEntity
  8
0
100
AcDbCircle
 62
7
  6
CONTINUOUS
 10
-356.5502409163
 20
-4.2051380096
 40
499.0479942692
100
AcDbArc
 50
15.1152975485
 51
16.71523418
  0
ARC
  5
4CB
100
AcDbEntity
  8
0
100
AcDbCircle
 62
7
  6
CONTINUOUS
 10
574.8111649732
 20
-9.2891296582
 40
469.4729387064
100
AcDbArc
 50
163.2606376952
 51
163.9797342519
  0
ARC
  5
4CC
100
AcDbEntity
  8
0
100
AcDbCircle
 62
7
  6
CONTINUOUS
 10
-379.4588432432
 20
-8.721363595
 40
467.4596484002
100
AcDbArc
 50
16.0187171982
 51
16.7409108548
  0
ARC
  5
4CD
100
AcDbEntity
  8
0
100
AcDbCircle
 62
7
  6
CONTINUOUS
 10
63.7336365548
 20
-7.6654394484
 40
163.764942969
100
AcDbArc
 50
73.2349461152
 51
75.1479618639
  0
ARC
  5
4CE
100
AcDbEntity
  8
0
100
AcDbCircle
 62
7
  6
CONTINUOUS
 10
129.6870656672
 20
-7.6654266801
 40
163.7649296937
100
AcDbArc
 50
104.8520380556
 51
106.7650539541
  0
ARC
  5
4CF
100
AcDbEntity
  8
KONSTRUKTIONSELEMENTE
100
AcDbCircle
 62
7
  6
CONTINUOUS
 10
96.7103529306
 20
53.2686884428
 40
28.79136
100
AcDbArc
 50
56.6430398452
 51
79.9991254185
  0
ARC
  5
4D0
100
AcDbEntity
  8
KONSTRUKTIONSELEMENTE
100
AcDbCircle
 62
7
  6
CONTINUOUS
 10
96.7103529306
 20
53.2686884428
 40
28.79136
100
AcDbArc
 50
100.0008745815
 51
123.3569601548
  0
ARC
  5
4D1
100
AcDbEntity
  8
0
100
AcDbCircle
 62
7
  6
CONTINUOUS
 10
96.7103529306
 20
229.1449526799
 40
9.0
100
AcDbArc
 50
0.0
 51
180.0
  0
ARC
  5
4D2
100
AcDbEntity
  8
0
100
AcDbCircle
 62
7
  6
CONTINUOUS
 10
96.7103529306
 20
126.1449526799
 40
9.0
100
AcDbArc
 50
180.0
 51
360.0
  0
ARC
  5
4D3
100
AcDbEntity
  8
0
100
AcDbCircle
 62
7
  6
CONTINUOUS
 10
105.1404643263
 20
82.5143244601
 40
3.8881104125
100
AcDbArc
 50
287.9326682405
 51
288.4510786557
  0
ARC
  5
4D4
100
AcDbEntity
  8
KONSTRUKTIONSELEMENTE
100
AcDbCircle
 62
7
  6
CONTINUOUS
 10
92.037875129
 20
121.9694372514
 40
3.3275221984
100
AcDbArc
 50
178.9389915301
 51
180.0003119718
  0
ARC
  5
4D5
100
AcDbEntity
  8
KONSTRUKTIONSELEMENTE
100
AcDbCircle
 62
7
  6
CONTINUOUS
 10
101.4029004476
 20
121.9694291586
 40
3.3074524831
100
AcDbArc
 50
359.9998263301
 51
1.0684135549
  0
ARC
  5
4D6
100
AcDbEntity
  8
KONSTRUKTIONSELEMENTE
100
AcDbCircle
 62
7
  6
CONTINUOUS
 10
96.7103529306
 20
81.7650164997
 40
2.5
100
AcDbArc
 50
180.0
 51
360.0
  0
ARC
  5
4D7
100
AcDbEntity
  8
KONSTRUKTIONSELEMENTE
100
AcDbCircle
 62
7
  6
CONTINUOUS
 10
96.7103529306
 20
100.8941738145
 40
2.5
100
AcDbArc
 50
0.0
 51
25.6521016995
  0
ARC
  5
4D8
100
AcDbEntity
  8
KONSTRUKTIONSELEMENTE
100
AcDbCircle
 62
7
  6
CONTINUOUS
 10
96.7103529306
 20
100.8941738145
 40
2.5
100
AcDbArc
 50
154.3478983005
 51
180.0
  0
ARC
  5
4D9
100
AcDbEntity
  8
KONSTRUKTIONSELEMENTE
100
AcDbCircle
 62
7
  6
CONTINUOUS
 10
96.7103529306
 20
118.3214961403
 40
2.5
100
AcDbArc
 50
200.3453724361
 51
339.6546275639
  0
ARC
  5
4DA
100
AcDbEntity
  8
KONSTRUKTIONSELEMENTE
100
AcDbCircle
 62
7
  6
CONTINUOUS
 10
96.7103529306
 20
100.5825434489
 40
2.25
100
AcDbArc
 50
180.0
 51
360.0
  0
ARC
  5
4DB
100
AcDbEntity
  8
BEZUGSACHSEN
100
AcDbCircle
 62
7
  6
CONTINUOUS
 10
82.0983685527
 20
95.0535810955
 40
1.5620953855
100
AcDbArc
 50
8.0482454837
 51
15.8969321236
  0
ARC
  5
4DC
100
AcDbEntity
  8
BEZUGSACHSEN
100
AcDbCircle
 62
7
  6
CONTINUOUS
 10
81.7223373086
 20
95.0535810955
 40
1.5620953855
100
AcDbArc
 50
164.1030678764
 51
171.9517545163
  0
ARC
  5
4DD
100
AcDbEntity
  8
BEZUGSACHSEN
100
AcDbCircle
 62
7
  6
CONTINUOUS
 10
82.1042108881
 20
95.054452084
 40
1.5561886503
100
AcDbArc
 50
4.8930271217
 51
8.0466091989
  0
ARC
  5
4DE
100
AcDbEntity
  8
BEZUGSACHSEN
100
AcDbCircle
 62
7
  6
CONTINUOUS
 10
81.7164949732
 20
95.054452084
 40
1.5561886503
100
AcDbArc
 50
171.9533908011
 51
175.1069728783
  0
ARC
  5
4DF
100
AcDbEntity
  8
0
100
AcDbCircle
 62
7
  6
CONTINUOUS
 10
87.0565129605
 20
79.5967168357
 40
0.220230297
100
AcDbArc
 50
263.3214693107
 51
270.006707515
  0
SPLINE
  5
4E0
100
AcDbEntity
  8
0
100
AcDbSpline
 62
7
  6
CONTINUOUS
 70
0
 71
3
 72
11
 73
7
 74
0
 42
0.0000001
 43
0.0000001
 44
0.0000000001
 40
0.0
 40
0.0
 40
0.0
 40
0.0
 40
0.2577328834
 40
0.5000000007
 40
0.7422671179
 40
1.0
 40
1.0
 40
1.0
 40
1.0
 10
364.0168761639
 20
151.3580250297
 30
0.0
 10
363.9687402624
 20
151.0186363395
 30
0.0
 10
363.9353553523
 20
150.3480734656
 30
0.0
 10
364.1394297246
 20
149.369410422
 30
0.0
 10
364.6121721627
 20
148.4885345584
 30
0.0
 10
365.0687759953
 20
147.9963130052
 30
0.0
 10
365.3238050788
 20
147.7672673472
 30
0.0
  0
SPLINE
  5
4E1
100
AcDbEntity
  8
0
100
AcDbSpline
 62
7
  6
CONTINUOUS
 70
0
 71
3
 72
9
 73
5
 74
0
 42
0.0000001
 43
0.0000001
 44
0.0000000001
 40
0.0
 40
0.0
 40
0.0
 40
0.0
 40
0.5000869397
 40
1.0
 40
1.0
 40
1.0
 40
1.0
 10
377.5401100655
 20
125.9277515079
 30
0.0
 10
378.0293957138
 20
125.0126643818
 30
0.0
 10
378.9562075909
 20
123.1546382615
 30
0.0
 10
379.7661890768
 20
121.2425107695
 30
0.0
 10
380.1396880073
 20
120.2747634986
 30
0.0
  0
SPLINE
  5
4E2
100
AcDbEntity
  8
0
100
AcDbSpline
 62
7
  6
CONTINUOUS
 70
0
 71
3
 72
11
 73
7
 74
0
 42
0.0000001
 43
0.0000001
 44
0.0000000001
 40
0.0
 40
0.0
 40
0.0
 40
0.0
 40
0.2500457849
 40
0.5000000008
 40
0.7499542166
 40
1.0
 40
1.0
 40
1.0
 40
1.0
 10
372.6625849532
 20
139.3286416166
 30
0.0
 10
373.2248806049
 20
138.2770074359
 30
0.0
 10
374.2811525338
 20
136.1366525404
 30
0.0
 10
375.6302658453
 20
132.8207070813
 30
0.0
 10
376.7282337444
 20
129.4133521747
 30
0.0
 10
377.294876105
 20
127.0947866993
 30
0.0
 10
377.5401100655
 20
125.9277515079
 30
0.0
  0
SPLINE
  5
4E3
100
AcDbEntity
  8
0
100
AcDbSpline
 62
7
  6
CONTINUOUS
 70
0
 71
3
 72
11
 73
7
 74
0
 42
0.0000001
 43
0.0000001
 44
0.0000000001
 40
0.0
 40
0.0
 40
0.0
 40
0.0
 40
0.2506004323
 40
0.5000000008
 40
0.7493995691
 40
1.0
 40
1.0
 40
1.0
 40
1.0
 10
369.0919887558
 20
149.1387740429
 30
0.0
 10
369.5444795798
 20
148.387070409
 30
0.0
 10
370.3824850294
 20
146.8467606752
 30
0.0
 10
371.4063356
 20
144.4262658171
 30
0.0
 10
372.1778846635
 20
141.9139407255
 30
0.0
 10
372.5260272532
 20
140.1953354984
 30
0.0
 10
372.6625849532
 20
139.3286416166
 30
0.0
  0
SPLINE
  5
4E4
100
AcDbEntity
  8
0
100
AcDbSpline
 62
7
  6
CONTINUOUS
 70
0
 71
3
 72
11
 73
7
 74
0
 42
0.0000001
 43
0.0000001
 44
0.0000000001
 40
0.0
 40
0.0
 40
0.0
 40
0.0
 40
0.2577328834
 40
0.5000000007
 40
0.7422671179
 40
1.0
 40
1.0
 40
1.0
 40
1.0
 10
367.785059841
 20
152.7295317254
 30
0.0
 10
368.0400889258
 20
152.5004860662
 30
0.0
 10
368.4966927575
 20
152.0082645095
 30
0.0
 10
368.9694351971
 20
151.1273886453
 30
0.0
 10
369.1735095701
 20
150.1487256032
 30
0.0
 10
369.1401246571
 20
149.4781627315
 30
0.0
 10
369.0919887558
 20
149.1387740429
 30
0.0
  0
SPLINE
  5
4E5
100
AcDbEntity
  8
RUNDUNGEN
100
AcDbSpline
 62
7
  6
CONTINUOUS
 70
0
 71
3
 72
9
 73
5
 74
0
 42
0.0000001
 43
0.0000001
 44
0.0000000001
 40
0.0
 40
0.0
 40
0.0
 40
0.0
 40
0.3793579043
 40
1.0
 40
1.0
 40
1.0
 40
1.0
 10
385.9077622756
 20
115.3009758919
 30
0.0
 10
385.896807592
 20
115.2997057477
 30
0.0
 10
385.8703961286
 20
115.2846425037
 30
0.0
 10
385.8486207391
 20
115.2659283815
 30
0.0
 10
385.8354153771
 20
115.2536343731
 30
0.0
  0
SPLINE
  5
4E6
100
AcDbEntity
  8
RUNDUNGEN
100
AcDbSpline
 62
7
  6
CONTINUOUS
 70
0
 71
3
 72
11
 73
7
 74
0
 42
0.0000001
 43
0.0000001
 44
0.0000000001
 40
0.0
 40
0.0
 40
0.0
 40
0.0
 40
0.1549838302
 40
0.373722752
 40
0.6560523468
 40
1.0
 40
1.0
 40
1.0
 40
1.0
 10
385.8354153771
 20
115.2536343731
 30
0.0
 10
385.8068273907
 20
115.2270193551
 30
0.0
 10
385.7433678339
 20
115.1571171004
 30
0.0
 10
385.6401028492
 20
115.0279935294
 30
0.0
 10
385.5146706936
 20
114.8557868404
 30
0.0
 10
385.4263362696
 20
114.7249515365
 30
0.0
 10
385.3789576597
 20
114.6523629422
 30
0.0
  0
SPLINE
  5
4E7
100
AcDbEntity
  8
RUNDUNGEN
100
AcDbSpline
 62
7
  6
CONTINUOUS
 70
0
 71
3
 72
20
 73
16
 74
0
 42
0.0000001
 43
0.0000001
 44
0.0000000001
 40
0.0
 40
0.0
 40
0.0
 40
0.0
 40
0.1321911901
 40
0.261980541
 40
0.3885473868
 40
0.5110491683
 40
0.6289220928
 40
0.6866661732
 40
0.7442850343
 40
0.7736372648
 40
0.8036535196
 40
0.834594567
 40
0.8665543043
 40
0.9325733822
 40
1.0
 40
1.0
 40
1.0
 40
1.0
 10
396.2979801891
 20
80.0273048215
 30
0.0
 10
396.6147141739
 20
80.2640631202
 30
0.0
 10
397.2151410339
 20
80.7715590955
 30
0.0
 10
397.9964651219
 20
81.6372487435
 30
0.0
 10
398.6171068788
 20
82.5927535649
 30
0.0
 10
399.0284482076
 20
83.618584732
 30
0.0
 10
399.1368269744
 20
84.5222503469
 30
0.0
 10
399.009083691
 20
85.2138820836
 30
0.0
 10
398.8169125361
 20
85.6104745421
 30
0.0
 10
398.5863738071
 20
85.8763100354
 30
0.0
 10
398.37136711
 20
86.0430228614
 30
0.0
 10
398.1193662067
 20
86.1650741788
 30
0.0
 10
397.7428710917
 20
86.259434427
 30
0.0
 10
397.2393125762
 20
86.2422244698
 30
0.0
 10
396.8535308432
 20
86.1315242839
 30
0.0
 10
396.6639920048
 20
86.0625377885
 30
0.0
  0
LINE
  5
4E8
100
AcDbEntity
  8
0
100
AcDbLine
 62
7
  6
CONTINUOUS
 10
378.7109717678
 20
101.0600385282
 11
374.9981598567
 21
100.7352095762
  0
LINE
  5
4E9
100
AcDbEntity
  8
0
100
AcDbLine
 62
7
  6
CONTINUOUS
 10
373.9562707907
 20
94.8263630581
 11
377.6690827018
 21
95.1511920101
  0
SPLINE
  5
4EA
100
AcDbEntity
  8
0
100
AcDbSpline
 62
7
  6
CONTINUOUS
 70
0
 71
3
 72
9
 73
5
 74
0
 42
0.0000001
 43
0.0000001
 44
0.0000000001
 40
0.0
 40
0.0
 40
0.0
 40
0.0
 40
0.1992237026
 40
1.0
 40
1.0
 40
1.0
 40
1.0
 10
374.1926926078
 20
111.0370392404
 30
0.0
 10
374.1945566603
 20
111.0382677197
 30
0.0
 10
374.2045709449
 20
111.0434327967
 30
0.0
 10
374.2158709697
 20
111.0453993752
 30
0.0
 10
374.2247831874
 20
111.0464447068
 30
0.0
  0
SPLINE
  5
4EB
100
AcDbEntity
  8
0
100
AcDbSpline
 62
7
  6
CONTINUOUS
 70
0
 71
3
 72
12
 73
8
 74
0
 42
0.0000001
 43
0.0000001
 44
0.0000000001
 40
0.0
 40
0.0
 40
0.0
 40
0.0
 40
0.0542729009
 40
0.1283319023
 40
0.3375862636
 40
0.6288814157
 40
1.0
 40
1.0
 40
1.0
 40
1.0
 10
374.2247831874
 20
111.0464447068
 30
0.0
 10
374.2393343152
 20
111.0481514372
 30
0.0
 10
374.2741351984
 20
111.0482933013
 30
0.0
 10
374.3649218628
 20
111.0402144071
 30
0.0
 10
374.5177974425
 20
111.0124072234
 30
0.0
 10
374.7467408518
 20
110.9580588436
 30
0.0
 10
374.918828004
 20
110.9091509376
 30
0.0
 10
375.0147008128
 20
110.8800819496
 30
0.0
  0
SPLINE
  5
4EC
100
AcDbEntity
  8
0
100
AcDbSpline
 62
7
  6
CONTINUOUS
 70
0
 71
3
 72
9
 73
5
 74
0
 42
0.0000001
 43
0.0000001
 44
0.0000000001
 40
0.0
 40
0.0
 40
0.0
 40
0.0
 40
0.5000869397
 40
1.0
 40
1.0
 40
1.0
 40
1.0
 10
373.7719263885
 20
124.5562448122
 30
0.0
 10
373.9853185029
 20
123.5407406519
 30
0.0
 10
374.4696555832
 20
121.5216668763
 30
0.0
 10
375.0782656269
 20
119.5362461732
 30
0.0
 10
375.4142048018
 20
118.5548282692
 30
0.0
  0
SPLINE
  5
4ED
100
AcDbEntity
  8
0
100
AcDbSpline
 62
7
  6
CONTINUOUS
 70
0
 71
3
 72
11
 73
7
 74
0
 42
0.0000001
 43
0.0000001
 44
0.0000000001
 40
0.0
 40
0.0
 40
0.0
 40
0.0
 40
0.2500457849
 40
0.5000000008
 40
0.7499542166
 40
1.0
 40
1.0
 40
1.0
 40
1.0
 10
368.8944012762
 20
137.957134921
 30
0.0
 10
369.1396352381
 20
136.7900997227
 30
0.0
 10
369.7062776038
 20
134.4715342404
 30
0.0
 10
370.8042455038
 20
131.064179327
 30
0.0
 10
372.1533588118
 20
127.7482338738
 30
0.0
 10
373.20963074
 20
125.6078789868
 30
0.0
 10
373.7719263885
 20
124.5562448122
 30
0.0
  0
SPLINE
  5
4EE
100
AcDbEntity
  8
0
100
AcDbSpline
 62
7
  6
CONTINUOUS
 70
0
 71
3
 72
11
 73
7
 74
0
 42
0.0000001
 43
0.0000001
 44
0.0000000001
 40
0.0
 40
0.0
 40
0.0
 40
0.0
 40
0.2506004323
 40
0.5000000008
 40
0.7493995691
 40
1.0
 40
1.0
 40
1.0
 40
1.0
 10
365.3238050788
 20
147.7672673472
 30
0.0
 10
365.4603627796
 20
146.9005734604
 30
0.0
 10
365.8085053736
 20
145.1819682284
 30
0.0
 10
366.5800544375
 20
142.6696431317
 30
0.0
 10
367.6039050052
 20
140.2491482777
 30
0.0
 10
368.4419104548
 20
138.7088385506
 30
0.0
 10
368.8944012762
 20
137.957134921
 30
0.0
  0
LINE
  5
4EF
100
AcDbEntity
  8
RUNDUNGEN
100
AcDbLine
 62
7
  6
CONTINUOUS
 10
388.8596520723
 20
104.7538560761
 11
391.9126270308
 21
106.891572156
  0
LINE
  5
4F0
100
AcDbEntity
  8
RUNDUNGEN
100
AcDbLine
 62
7
  6
CONTINUOUS
 10
396.5088936895
 20
103.0348464979
 11
393.455918731
 21
100.897130418
  0
SPLINE
  5
4F1
100
AcDbEntity
  8
0
100
AcDbSpline
 62
7
  6
CONTINUOUS
 70
0
 71
3
 72
22
 73
18
 74
0
 42
0.0000001
 43
0.0000001
 44
0.0000000001
 40
0.0
 40
0.0
 40
0.0
 40
0.0
 40
0.1326783965
 40
0.263459051
 40
0.3913746768
 40
0.5153371175
 40
0.575643447
 40
0.6346684792
 40
0.6924801705
 40
0.7495023058
 40
0.7781842674
 40
0.807305335
 40
0.8372294965
 40
0.8682440719
 40
0.9003591982
 40
0.9332757143
 40
1.0
 40
1.0
 40
1.0
 40
1.0
 10
390.2481380743
 20
77.5019179765
 30
0.0
 10
389.7992007007
 20
77.4173427233
 30
0.0
 10
388.8959902141
 20
77.305253791
 30
0.0
 10
387.5438297109
 20
77.3240321474
 30
0.0
 10
386.2396194478
 20
77.548721909
 30
0.0
 10
385.2247028498
 20
77.9314342491
 30
0.0
 10
384.5087129132
 20
78.3709982454
 30
0.0
 10
384.0410972009
 20
78.7672350186
 30
0.0
 10
383.6627375518
 20
79.2365179018
 30
0.0
 10
383.4544005285
 20
79.6935623917
 30
0.0
 10
383.387194994
 20
80.085374241
 30
0.0
 10
383.3968046771
 20
80.3896583422
 30
0.0
 10
383.4772956547
 20
80.6921406817
 30
0.0
 10
383.6322363411
 20
80.9760160872
 30
0.0
 10
383.8534298059
 20
81.2252167173
 30
0.0
 10
384.2153930407
 20
81.5020773316
 30
0.0
 10
384.5311603819
 20
81.6465482203
 30
0.0
 10
384.7470483344
 20
81.725125009
 30
0.0
  0
LINE
  5
4F2
100
AcDbEntity
  8
0
100
AcDbLine
 62
7
  6
CONTINUOUS
 10
347.6186719385
 20
95.1511920101
 11
351.3314838496
 21
94.8263630581
  0
LINE
  5
4F3
100
AcDbEntity
  8
0
100
AcDbLine
 62
7
  6
CONTINUOUS
 10
346.5767828725
 20
101.0600385282
 11
350.2895947836
 21
100.7352095762
  0
SPLINE
  5
4F4
100
AcDbEntity
  8
0
100
AcDbSpline
 62
7
  6
CONTINUOUS
 70
0
 71
3
 72
14
 73
10
 74
0
 42
0.0000001
 43
0.0000001
 44
0.0000000001
 40
0.0
 40
0.0
 40
0.0
 40
0.0
 40
0.4034424375
 40
0.5671700272
 40
0.7048913963
 40
0.8164732848
 40
0.9021444783
 40
0.9625856623
 40
1.0
 40
1.0
 40
1.0
 40
1.0
 10
350.2730538275
 20
110.8800819496
 30
0.0
 10
350.3815831243
 20
110.9129884312
 30
0.0
 10
350.5351248824
 20
110.9562707827
 30
0.0
 10
350.727887924
 20
111.0021694113
 30
0.0
 10
350.8416792912
 20
111.0255153411
 30
0.0
 10
350.9345423757
 20
111.0407338577
 30
0.0
 10
351.0069013735
 20
111.0481880669
 30
0.0
 10
351.0580947852
 20
111.0483147036
 30
0.0
 10
351.0862531832
 20
111.0428340191
 30
0.0
 10
351.0950397056
 20
111.0370539545
 30
0.0
  0
SPLINE
  5
4F5
100
AcDbEntity
  8
0
100
AcDbSpline
 62
7
  6
CONTINUOUS
 70
0
 71
3
 72
9
 73
5
 74
0
 42
0.0000001
 43
0.0000001
 44
0.0000000001
 40
0.0
 40
0.0
 40
0.0
 40
0.0
 40
0.4999130899
 40
1.0
 40
1.0
 40
1.0
 40
1.0
 10
345.148066633
 20
120.2747634986
 30
0.0
 10
345.5215655856
 20
121.2425108269
 30
0.0
 10
346.3315470757
 20
123.1546383174
 30
0.0
 10
347.2583589555
 20
125.012664436
 30
0.0
 10
347.7476445748
 20
125.9277515079
 30
0.0
  0
SPLINE
  5
4F6
100
AcDbEntity
  8
0
100
AcDbSpline
 62
7
  6
CONTINUOUS
 70
0
 71
3
 72
11
 73
7
 74
0
 42
0.0000001
 43
0.0000001
 44
0.0000000001
 40
0.0
 40
0.0
 40
0.0
 40
0.0
 40
0.2577328834
 40
0.5000000007
 40
0.7422671179
 40
1.0
 40
1.0
 40
1.0
 40
1.0
 10
356.1957658845
 20
149.1387740429
 30
0.0
 10
356.147629983
 20
149.4781627332
 30
0.0
 10
356.1142450728
 20
150.148725607
 30
0.0
 10
356.3183194451
 20
151.1273886507
 30
0.0
 10
356.7910618832
 20
152.0082645142
 30
0.0
 10
357.2476657158
 20
152.5004860674
 30
0.0
 10
357.5026947994
 20
152.7295317254
 30
0.0
  0
SPLINE
  5
4F7
100
AcDbEntity
  8
0
100
AcDbSpline
 62
7
  6
CONTINUOUS
 70
0
 71
3
 72
11
 73
7
 74
0
 42
0.0000001
 43
0.0000001
 44
0.0000000001
 40
0.0
 40
0.0
 40
0.0
 40
0.0
 40
0.2506004323
 40
0.5000000008
 40
0.7493995691
 40
1.0
 40
1.0
 40
1.0
 40
1.0
 10
352.6251696871
 20
139.3286416166
 30
0.0
 10
352.7617273879
 20
140.1953355034
 30
0.0
 10
353.1098699819
 20
141.9139407355
 30
0.0
 10
353.8814190457
 20
144.4262658321
 30
0.0
 10
354.9052696135
 20
146.8467606862
 30
0.0
 10
355.7432750631
 20
148.3870704133
 30
0.0
 10
356.1957658845
 20
149.1387740429
 30
0.0
  0
SPLINE
  5
4F8
100
AcDbEntity
  8
0
100
AcDbSpline
 62
7
  6
CONTINUOUS
 70
0
 71
3
 72
11
 73
7
 74
0
 42
0.0000001
 43
0.0000001
 44
0.0000000001
 40
0.0
 40
0.0
 40
0.0
 40
0.0
 40
0.2500457849
 40
0.5000000008
 40
0.7499542166
 40
1.0
 40
1.0
 40
1.0
 40
1.0
 10
347.7476445748
 20
125.9277515079
 30
0.0
 10
347.9928785367
 20
127.0947867061
 30
0.0
 10
348.5595209024
 20
129.4133521884
 30
0.0
 10
349.6574888025
 20
132.8207071018
 30
0.0
 10
351.0066021104
 20
136.136652555
 30
0.0
 10
352.0628740387
 20
138.277007442
 30
0.0
 10
352.6251696871
 20
139.3286416166
 30
0.0
  0
SPLINE
  5
4F9
100
AcDbEntity
  8
0
100
AcDbSpline
 62
7
  6
CONTINUOUS
 70
0
 71
3
 72
11
 73
7
 74
0
 42
0.0000001
 43
0.0000001
 44
0.0000000001
 40
0.0
 40
0.0
 40
0.0
 40
0.0
 40
0.2577328834
 40
0.5000000007
 40
0.7422671179
 40
1.0
 40
1.0
 40
1.0
 40
1.0
 10
359.9639495615
 20
147.7672673472
 30
0.0
 10
360.2189786463
 20
147.9963130064
 30
0.0
 10
360.6755824781
 20
148.4885345631
 30
0.0
 10
361.1483249177
 20
149.3694104273
 30
0.0
 10
361.3523992907
 20
150.3480734695
 30
0.0
 10
361.3190143776
 20
151.0186363412
 30
0.0
 10
361.2708784764
 20
151.3580250297
 30
0.0
  0
SPLINE
  5
4FA
100
AcDbEntity
  8
0
100
AcDbSpline
 62
7
  6
CONTINUOUS
 70
0
 71
3
 72
11
 73
7
 74
0
 42
0.0000001
 43
0.0000001
 44
0.0000000001
 40
0.0
 40
0.0
 40
0.0
 40
0.0
 40
0.2506004323
 40
0.5000000008
 40
0.7493995691
 40
1.0
 40
1.0
 40
1.0
 40
1.0
 10
356.3933533641
 20
137.957134921
 30
0.0
 10
356.8458441881
 20
138.7088385549
 30
0.0
 10
357.6838496377
 20
140.2491482886
 30
0.0
 10
358.7077002083
 20
142.6696431467
 30
0.0
 10
359.4792492718
 20
145.1819682384
 30
0.0
 10
359.8273918615
 20
146.9005734654
 30
0.0
 10
359.9639495615
 20
147.7672673472
 30
0.0
  0
SPLINE
  5
4FB
100
AcDbEntity
  8
0
100
AcDbSpline
 62
7
  6
CONTINUOUS
 70
0
 71
3
 72
11
 73
7
 74
0
 42
0.0000001
 43
0.0000001
 44
0.0000000001
 40
0.0
 40
0.0
 40
0.0
 40
0.0
 40
0.2500457849
 40
0.5000000008
 40
0.7499542166
 40
1.0
 40
1.0
 40
1.0
 40
1.0
 10
351.5158282518
 20
124.5562448122
 30
0.0
 10
352.0781239035
 20
125.6078789929
 30
0.0
 10
353.1343958324
 20
127.7482338884
 30
0.0
 10
354.4835091439
 20
131.0641793475
 30
0.0
 10
355.581477043
 20
134.4715342541
 30
0.0
 10
356.1481194036
 20
136.7900997295
 30
0.0
 10
356.3933533641
 20
137.957134921
 30
0.0
  0
SPLINE
  5
4FC
100
AcDbEntity
  8
0
100
AcDbSpline
 62
7
  6
CONTINUOUS
 70
0
 71
3
 72
9
 73
5
 74
0
 42
0.0000001
 43
0.0000001
 44
0.0000000001
 40
0.0
 40
0.0
 40
0.0
 40
0.0
 40
0.4999130899
 40
1.0
 40
1.0
 40
1.0
 40
1.0
 10
349.8735498386
 20
118.5548282692
 30
0.0
 10
350.2094890334
 20
119.5362462314
 30
0.0
 10
350.8180990728
 20
121.5216669359
 30
0.0
 10
351.3024361501
 20
123.5407407121
 30
0.0
 10
351.5158282518
 20
124.5562448122
 30
0.0
  0
LINE
  5
4FD
100
AcDbEntity
  8
RUNDUNGEN
100
AcDbLine
 62
7
  6
CONTINUOUS
 10
331.8318359093
 20
100.897130418
 11
328.7788609508
 21
103.0348464979
  0
LINE
  5
4FE
100
AcDbEntity
  8
RUNDUNGEN
100
AcDbLine
 62
7
  6
CONTINUOUS
 10
336.428102568
 20
104.7538560761
 11
333.3751276095
 21
106.891572156
  0
SPLINE
  5
4FF
100
AcDbEntity
  8
RUNDUNGEN
100
AcDbSpline
 62
7
  6
CONTINUOUS
 70
0
 71
3
 72
14
 73
10
 74
0
 42
0.0000001
 43
0.0000001
 44
0.0000000001
 40
0.0
 40
0.0
 40
0.0
 40
0.0
 40
0.4034424375
 40
0.5671700272
 40
0.7048913963
 40
0.8164732848
 40
0.9021444783
 40
0.9625856623
 40
1.0
 40
1.0
 40
1.0
 40
1.0
 10
339.9087969806
 20
114.6523629422
 30
0.0
 10
339.8468105945
 20
114.7473320568
 30
0.0
 10
339.7570121431
 20
114.8791830013
 30
0.0
 10
339.638850156
 20
115.0382490855
 30
0.0
 10
339.5666873859
 20
115.1292767863
 30
0.0
 10
339.5053324099
 20
115.2006260864
 30
0.0
 10
339.4546936751
 20
115.2528478092
 30
0.0
 10
339.415558647
 20
115.2858513093
 30
0.0
 10
339.3904651466
 20
115.2997527307
 30
0.0
 10
339.3800189261
 20
115.3009728121
 30
0.0
  0
SPLINE
  5
500
100
AcDbEntity
  8
RUNDUNGEN
100
AcDbSpline
 62
7
  6
CONTINUOUS
 70
0
 71
3
 72
22
 73
18
 74
0
 42
0.0000001
 43
0.0000001
 44
0.0000000001
 40
0.0
 40
0.0
 40
0.0
 40
0.0
 40
0.066723483
 40
0.0996406773
 40
0.1317577336
 40
0.162774446
 40
0.1927001729
 40
0.2218205399
 40
0.2505016883
 40
0.307523427
 40
0.3653347593
 40
0.4243597646
 40
0.484666165
 40
0.6086276771
 40
0.7365416586
 40
0.8673218656
 40
1.0
 40
1.0
 40
1.0
 40
1.0
 10
328.6237626355
 20
86.0625377885
 30
0.0
 10
328.4078772838
 20
86.1411136305
 30
0.0
 10
328.073122537
 20
86.2334122977
 30
0.0
 10
327.6178727927
 20
86.2539974578
 30
0.0
 10
327.2882322598
 20
86.2052600201
 30
0.0
 10
326.9870486143
 20
86.0873935463
 30
0.0
 10
326.7309530527
 20
85.9074009374
 30
0.0
 10
326.5280184023
 20
85.6804687171
 30
0.0
 10
326.3276536906
 20
85.33713023
 30
0.0
 10
326.1934834876
 20
84.8530972508
 30
0.0
 10
326.1816812266
 20
84.2504046256
 30
0.0
 10
326.2852050071
 20
83.646293897
 30
0.0
 10
326.5511425849
 20
82.8493435103
 30
0.0
 10
327.0826123865
 20
81.9038039416
 30
0.0
 10
327.9372619701
 20
80.893360764
 30
0.0
 10
328.9610009382
 20
80.0098296336
 30
0.0
 10
329.7249476501
 20
79.5151236825
 30
0.0
 10
330.1232167617
 20
79.2913411499
 30
0.0
  0
SPLINE
  5
501
100
AcDbEntity
  8
0
100
AcDbSpline
 62
7
  6
CONTINUOUS
 70
0
 71
3
 72
22
 73
18
 74
0
 42
0.0000001
 43
0.0000001
 44
0.0000000001
 40
0.0
 40
0.0
 40
0.0
 40
0.0
 40
0.066723483
 40
0.0996406773
 40
0.1317577336
 40
0.162774446
 40
0.1927001729
 40
0.2218205399
 40
0.2505016883
 40
0.307523427
 40
0.3653347593
 40
0.4243597646
 40
0.484666165
 40
0.6086276771
 40
0.7365416586
 40
0.8673218656
 40
1.0
 40
1.0
 40
1.0
 40
1.0
 10
340.540706306
 20
81.725125009
 30
0.0
 10
340.7565916577
 20
81.6465491669
 30
0.0
 10
341.072357111
 20
81.5020778445
 30
0.0
 10
341.4343305337
 20
81.2252180971
 30
0.0
 10
341.655522011
 20
80.9759942036
 30
0.0
 10
341.8104789601
 20
80.6921061307
 30
0.0
 10
341.8909625231
 20
80.389608739
 30
0.0
 10
341.9005502649
 20
80.0853246938
 30
0.0
 10
341.8333448135
 20
79.6935201995
 30
0.0
 10
341.6249947502
 20
79.2364864815
 30
0.0
 10
341.2466324548
 20
78.7672107979
 30
0.0
 10
340.7790137467
 20
78.3709789346
 30
0.0
 10
340.063023909
 20
77.9314208994
 30
0.0
 10
339.0481133015
 20
77.5487177705
 30
0.0
 10
337.7439133823
 20
77.3240315521
 30
0.0
 10
336.3917609712
 20
77.3052541636
 30
0.0
 10
335.488552982
 20
77.4173428997
 30
0.0
 10
335.0396165029
 20
77.5019179844
 30
0.0
  0
SPLINE
  5
502
100
AcDbEntity
  8
KONSTRUKTIONSELEMENTE
100
AcDbSpline
 62
7
  6
CONTINUOUS
 70
0
 71
3
 72
9
 73
5
 74
0
 42
0.0000001
 43
0.0000001
 44
0.0000000001
 40
0.0
 40
0.0
 40
0.0
 40
0.0
 40
0.4242533359
 40
1.0
 40
1.0
 40
1.0
 40
1.0
 10
100.2152070718
 20
97.5425965263
 30
0.0
 10
100.083138486
 20
97.4675240167
 30
0.0
 10
99.7553411601
 20
97.3199672056
 30
0.0
 10
99.4134236811
 20
97.211511444
 30
0.0
 10
99.2143462815
 20
97.1579363862
 30
0.0
  0
SPLINE
  5
503
100
AcDbEntity
  8
KONSTRUKTIONSELEMENTE
100
AcDbSpline
 62
7
  6
CONTINUOUS
 70
0
 71
3
 72
9
 73
5
 74
0
 42
0.0000001
 43
0.0000001
 44
0.0000000001
 40
0.0
 40
0.0
 40
0.0
 40
0.0
 40
0.5761243047
 40
1.0
 40
1.0
 40
1.0
 40
1.0
 10
94.2040843467
 20
97.1585893741
 30
0.0
 10
94.0050611336
 20
97.2121731743
 30
0.0
 10
93.6636324914
 20
97.3209675937
 30
0.0
 10
93.3359319546
 20
97.4680779395
 30
0.0
 10
93.2043149854
 20
97.5433942013
 30
0.0
  0
SPLINE
  5
504
100
AcDbEntity
  8
KONSTRUKTIONSELEMENTE
100
AcDbSpline
 62
7
  6
CONTINUOUS
 70
0
 71
3
 72
9
 73
5
 74
0
 42
0.0000001
 43
0.0000001
 44
0.0000000001
 40
0.0
 40
0.0
 40
0.0
 40
0.0
 40
0.4195809702
 40
1.0
 40
1.0
 40
1.0
 40
1.0
 10
100.2152070718
 20
116.1378000429
 30
0.0
 10
100.0533637878
 20
116.0458025295
 30
0.0
 10
99.6433092738
 20
115.8703107276
 30
0.0
 10
99.2156578457
 20
115.7488467378
 30
0.0
 10
98.9647525722
 20
115.6908306688
 30
0.0
  0
SPLINE
  5
505
100
AcDbEntity
  8
KONSTRUKTIONSELEMENTE
100
AcDbSpline
 62
7
  6
CONTINUOUS
 70
0
 71
3
 72
9
 73
5
 74
0
 42
0.0000001
 43
0.0000001
 44
0.0000000001
 40
0.0
 40
0.0
 40
0.0
 40
0.0
 40
0.5807845297
 40
1.0
 40
1.0
 40
1.0
 40
1.0
 10
94.4568037772
 20
115.6906655461
 30
0.0
 10
94.2053185863
 20
115.7488422775
 30
0.0
 10
93.7770275625
 20
115.8706059736
 30
0.0
 10
93.3660279469
 20
116.0460593785
 30
0.0
 10
93.2043149854
 20
116.1385977179
 30
0.0
  0
SPLINE
  5
506
100
AcDbEntity
  8
KONSTRUKTIONSELEMENTE
100
AcDbSpline
 62
7
  6
CONTINUOUS
 70
0
 71
3
 72
9
 73
5
 74
0
 42
0.0000001
 43
0.0000001
 44
0.0000000001
 40
0.0
 40
0.0
 40
0.0
 40
0.0
 40
0.2447942636
 40
1.0
 40
1.0
 40
1.0
 40
1.0
 10
108.710984608
 20
129.1492118088
 30
0.0
 10
108.4688302524
 20
129.0824326397
 30
0.0
 10
107.4766763379
 20
128.8203527255
 30
0.0
 10
106.4736478909
 20
128.5998675658
 30
0.0
 10
105.7124465924
 20
128.4545513821
 30
0.0
  0
SPLINE
  5
507
100
AcDbEntity
  8
KONSTRUKTIONSELEMENTE
100
AcDbSpline
 62
7
  6
CONTINUOUS
 70
0
 71
3
 72
9
 73
5
 74
0
 42
0.0000001
 43
0.0000001
 44
0.0000000001
 40
0.0
 40
0.0
 40
0.0
 40
0.0
 40
0.2550723643
 40
1.0
 40
1.0
 40
1.0
 40
1.0
 10
87.704124026
 20
128.4553458188
 30
0.0
 10
87.4472727164
 20
128.5044053804
 30
0.0
 10
86.4421457091
 20
128.7062118611
 30
0.0
 10
85.4446281794
 20
128.9465139171
 30
0.0
 10
84.7084344366
 20
129.1495689246
 30
0.0
  0
SPLINE
  5
508
100
AcDbEntity
  8
KONSTRUKTIONSELEMENTE
100
AcDbSpline
 62
7
  6
CONTINUOUS
 70
0
 71
3
 72
14
 73
10
 74
0
 42
0.0000001
 43
0.0000001
 44
0.0000000001
 40
0.0
 40
0.0
 40
0.0
 40
0.0
 40
0.1148517414
 40
0.2305578074
 40
0.3474649283
 40
0.4672517293
 40
0.5913851699
 40
0.7211208159
 40
1.0
 40
1.0
 40
1.0
 40
1.0
 10
73.3574959316
 20
140.6941112014
 30
0.0
 10
73.4509653062
 20
141.1338466016
 30
0.0
 10
73.7279037531
 20
141.9995636506
 30
0.0
 10
74.3697608774
 20
143.2056448382
 30
0.0
 10
75.2083516741
 20
144.3075371543
 30
0.0
 10
76.2134550664
 20
145.3050283902
 30
0.0
 10
77.3658652395
 20
146.2102796232
 30
0.0
 10
79.127895596
 20
147.3301886099
 30
0.0
 10
80.5841633816
 20
148.0106408802
 30
0.0
 10
81.5992572729
 20
148.4121217107
 30
0.0
  0
SPLINE
  5
509
100
AcDbEntity
  8
KONSTRUKTIONSELEMENTE
100
AcDbSpline
 62
7
  6
CONTINUOUS
 70
0
 71
3
 72
14
 73
10
 74
0
 42
0.0000001
 43
0.0000001
 44
0.0000000001
 40
0.0
 40
0.0
 40
0.0
 40
0.0
 40
0.2788805441
 40
0.4086175453
 40
0.5327483478
 40
0.6525299243
 40
0.7694257824
 40
0.8851148331
 40
1.0
 40
1.0
 40
1.0
 40
1.0
 10
111.8201537166
 20
148.4126374054
 30
0.0
 10
112.8354419367
 20
148.0111254139
 30
0.0
 10
114.2920564009
 20
147.3307114366
 30
0.0
 10
116.0543417586
 20
146.2105542322
 30
0.0
 10
117.2070824926
 20
145.3053404474
 30
0.0
 10
118.2120885555
 20
144.3075220325
 30
0.0
 10
119.0510069325
 20
143.2057626391
 30
0.0
 10
119.6929721789
 20
141.9994227393
 30
0.0
 10
119.9698364647
 20
141.1334495934
 30
0.0
 10
120.063297618
 20
140.6934999984
 30
0.0
  0
SPLINE
  5
50A
100
AcDbEntity
  8
0
100
AcDbSpline
 62
7
  6
CONTINUOUS
 70
0
 71
3
 72
21
 73
17
 74
0
 42
0.0000001
 43
0.0000001
 44
0.0000000001
 40
0.0
 40
0.0
 40
0.0
 40
0.0
 40
0.036429992
 40
0.0784508336
 40
0.1291527005
 40
0.1893637365
 40
0.258405048
 40
0.3346976463
 40
0.5
 40
0.6653023537
 40
0.741594952
 40
0.8106362635
 40
0.8708472995
 40
0.9215491664
 40
0.963570008
 40
1.0
 40
1.0
 40
1.0
 40
1.0
 10
97.9251797836
 20
79.4246927294
 30
0.0
 10
97.9251797836
 20
79.3821034634
 30
0.0
 10
97.9486683647
 20
79.2897068247
 30
0.0
 10
98.0423333361
 20
79.1679219325
 30
0.0
 10
98.1859712965
 20
79.0591536139
 30
0.0
 10
98.3749427467
 20
78.9647587012
 30
0.0
 10
98.6030783142
 20
78.8874453036
 30
0.0
 10
98.9581986302
 20
78.8088544272
 30
0.0
 10
99.4348339279
 20
78.7715169321
 30
0.0
 10
99.9114692255
 20
78.8088544272
 30
0.0
 10
100.2665895415
 20
78.8874453036
 30
0.0
 10
100.4947251091
 20
78.9647587012
 30
0.0
 10
100.6836965592
 20
79.0591536139
 30
0.0
 10
100.8273345196
 20
79.1679219325
 30
0.0
 10
100.920999491
 20
79.2897068247
 30
0.0
 10
100.9444880721
 20
79.3821034634
 30
0.0
 10
100.9444880721
 20
79.4246927294
 30
0.0
  0
SPLINE
  5
50B
100
AcDbEntity
  8
0
100
AcDbSpline
 62
7
  6
CONTINUOUS
 70
0
 71
3
 72
10
 73
6
 74
0
 42
0.0000001
 43
0.0000001
 44
0.0000000001
 40
0.0
 40
0.0
 40
0.0
 40
0.0
 40
0.367150173
 40
0.6634377986
 40
1.0
 40
1.0
 40
1.0
 40
1.0
 10
87.2605387424
 20
79.4602483097
 30
0.0
 10
87.2605387424
 20
79.4468594823
 30
0.0
 10
87.2871356824
 20
79.4297579094
 30
0.0
 10
87.32068553
 20
79.4218221328
 30
0.0
 10
87.3442653634
 20
79.4196769566
 30
0.0
 10
87.3565387424
 20
79.4196769566
 30
0.0
  0
SPLINE
  5
50C
100
AcDbEntity
  8
0
100
AcDbSpline
 62
7
  6
CONTINUOUS
 70
0
 71
3
 72
10
 73
6
 74
0
 42
0.0000001
 43
0.0000001
 44
0.0000000001
 40
0.0
 40
0.0
 40
0.0
 40
0.0
 40
0.367150173
 40
0.6634377986
 40
1.0
 40
1.0
 40
1.0
 40
1.0
 10
87.9205387424
 20
79.4805339863
 30
0.0
 10
87.9205387424
 20
79.4939228137
 30
0.0
 10
87.8939418025
 20
79.5110243866
 30
0.0
 10
87.8603919549
 20
79.5189601632
 30
0.0
 10
87.8368121214
 20
79.5211053394
 30
0.0
 10
87.8245387424
 20
79.5211053394
 30
0.0
  0
SPLINE
  5
50D
100
AcDbEntity
  8
RUNDUNGEN
100
AcDbSpline
 62
7
  6
CONTINUOUS
 70
0
 71
3
 72
11
 73
7
 74
0
 42
0.0000001
 43
0.0000001
 44
0.0000000001
 40
0.0
 40
0.0
 40
0.0
 40
0.0
 40
0.3030791508
 40
0.5650220415
 40
0.7926386338
 40
1.0
 40
1.0
 40
1.0
 40
1.0
 10
123.4869611078
 20
64.6600068354
 30
0.0
 10
123.5959694195
 20
64.5942136231
 30
0.0
 10
123.7917083771
 20
64.457879557
 30
0.0
 10
124.026729911
 20
64.2184299671
 30
0.0
 10
124.1752560725
 20
63.9614834195
 30
0.0
 10
124.2103529306
 20
63.7775045704
 30
0.0
 10
124.2103529306
 20
63.6903913294
 30
0.0
  0
SPLINE
  5
50E
100
AcDbEntity
  8
0
100
AcDbSpline
 62
7
  6
CONTINUOUS
 70
0
 71
3
 72
10
 73
6
 74
0
 42
0.0000001
 43
0.0000001
 44
0.0000000001
 40
0.0
 40
0.0
 40
0.0
 40
0.0
 40
0.367150173
 40
0.6634377986
 40
1.0
 40
1.0
 40
1.0
 40
1.0
 10
87.9205387424
 20
80.4948178145
 30
0.0
 10
87.9205387424
 20
80.5082066419
 30
0.0
 10
87.8939418025
 20
80.5253082148
 30
0.0
 10
87.8603919549
 20
80.5332439914
 30
0.0
 10
87.8368121214
 20
80.5353891676
 30
0.0
 10
87.8245387424
 20
80.5353891676
 30
0.0
  0
SPLINE
  5
50F
100
AcDbEntity
  8
RUNDUNGEN
100
AcDbSpline
 62
7
  6
CONTINUOUS
 70
0
 71
3
 72
11
 73
7
 74
0
 42
0.0000001
 43
0.0000001
 44
0.0000000001
 40
0.0
 40
0.0
 40
0.0
 40
0.0
 40
0.3281881354
 40
0.6017636227
 40
0.8201358694
 40
1.0
 40
1.0
 40
1.0
 40
1.0
 10
132.3338031861
 20
91.4174508954
 30
0.0
 10
132.4068823405
 20
91.3958252761
 30
0.0
 10
132.5388087097
 20
91.3477207228
 30
0.0
 10
132.7040877686
 20
91.250560967
 30
0.0
 10
132.8154496484
 20
91.1369521188
 30
0.0
 10
132.8454611655
 20
91.0440657854
 30
0.0
 10
132.8455027748
 20
91.0022978141
 30
0.0
  0
SPLINE
  5
510
100
AcDbEntity
  8
RUNDUNGEN
100
AcDbSpline
 62
7
  6
CONTINUOUS
 70
0
 71
3
 72
12
 73
8
 74
0
 42
0.0000001
 43
0.0000001
 44
0.0000000001
 40
0.0
 40
0.0
 40
0.0
 40
0.0
 40
0.0997216468
 40
0.21362328
 40
0.4719382376
 40
0.7453732001
 40
1.0
 40
1.0
 40
1.0
 40
1.0
 10
124.7646342905
 20
93.0382171224
 30
0.0
 10
124.8133552103
 20
93.0676231904
 30
0.0
 10
124.9238845009
 20
93.1204975578
 30
0.0
 10
125.1805714271
 20
93.2035974741
 30
0.0
 10
125.5472678135
 20
93.2595717224
 30
0.0
 10
125.9974026456
 20
93.2557241111
 30
0.0
 10
126.2965752946
 20
93.2039903474
 30
0.0
 10
126.4359084672
 20
93.1627588063
 30
0.0
  0
SPLINE
  5
511
100
AcDbEntity
  8
RUNDUNGEN
100
AcDbSpline
 62
7
  6
CONTINUOUS
 70
0
 71
3
 72
11
 73
7
 74
0
 42
0.0000001
 43
0.0000001
 44
0.0000000001
 40
0.0
 40
0.0
 40
0.0
 40
0.0
 40
0.2337956523
 40
0.485386077
 40
0.7444405093
 40
1.0
 40
1.0
 40
1.0
 40
1.0
 10
65.0188324878
 20
92.5809895027
 30
0.0
 10
65.6740471869
 20
92.7748809592
 30
0.0
 10
67.0624200638
 20
93.0849445104
 30
0.0
 10
69.2274562638
 20
93.3317919269
 30
0.0
 10
71.4697205146
 20
93.3702367773
 30
0.0
 10
72.9720734448
 20
93.2530613489
 30
0.0
 10
73.7126685998
 20
93.1561507411
 30
0.0
  0
SPLINE
  5
512
100
AcDbEntity
  8
0
100
AcDbSpline
 62
7
  6
CONTINUOUS
 70
0
 71
3
 72
11
 73
7
 74
0
 42
0.0000001
 43
0.0000001
 44
0.0000000001
 40
0.0
 40
0.0
 40
0.0
 40
0.0
 40
0.3670165724
 40
0.5076318286
 40
0.6631594479
 40
1.0
 40
1.0
 40
1.0
 40
1.0
 10
86.6005387424
 20
79.9775330621
 30
0.0
 10
86.6005387424
 20
79.9440581009
 30
0.0
 10
86.6527314967
 20
79.9105258018
 30
0.0
 10
86.7079790715
 20
79.8923159085
 30
0.0
 10
86.7649660237
 20
79.8794972849
 30
0.0
 10
86.8098160851
 20
79.8761046793
 30
0.0
 10
86.8405387424
 20
79.8761046793
 30
0.0
  0
SPLINE
  5
513
100
AcDbEntity
  8
0
100
AcDbSpline
 62
7
  6
CONTINUOUS
 70
0
 71
3
 72
11
 73
7
 74
0
 42
0.0000001
 43
0.0000001
 44
0.0000000001
 40
0.0
 40
0.0
 40
0.0
 40
0.0
 40
0.3670165724
 40
0.5076318286
 40
0.6631594479
 40
1.0
 40
1.0
 40
1.0
 40
1.0
 10
86.6005387424
 20
78.9632492339
 30
0.0
 10
86.6005387424
 20
78.9297742727
 30
0.0
 10
86.6527314967
 20
78.8962419736
 30
0.0
 10
86.7079790715
 20
78.8780320804
 30
0.0
 10
86.7649660237
 20
78.8652134568
 30
0.0
 10
86.8098160851
 20
78.8618208511
 30
0.0
 10
86.8405387424
 20
78.8618208511
 30
0.0
  0
SPLINE
  5
514
100
AcDbEntity
  8
0
100
AcDbSpline
 62
7
  6
CONTINUOUS
 70
0
 71
3
 72
11
 73
7
 74
0
 42
0.0000001
 43
0.0000001
 44
0.0000000001
 40
0.0
 40
0.0
 40
0.0
 40
0.0
 40
0.3670316713
 40
0.5076814991
 40
0.6631170396
 40
1.0
 40
1.0
 40
1.0
 40
1.0
 10
89.8405387424
 20
80.8903885074
 30
0.0
 10
89.8405387424
 20
80.9573405227
 30
0.0
 10
89.7361245575
 20
81.0243778818
 30
0.0
 10
89.6256555864
 20
81.0608406762
 30
0.0
 10
89.5116787062
 20
81.0864517444
 30
0.0
 10
89.4219911861
 20
81.0932452731
 30
0.0
 10
89.3605387424
 20
81.0932452731
 30
0.0
  0
SPLINE
  5
515
100
AcDbEntity
  8
RUNDUNGEN
100
AcDbSpline
 62
7
  6
CONTINUOUS
 70
0
 71
3
 72
11
 73
7
 74
0
 42
0.0000001
 43
0.0000001
 44
0.0000000001
 40
0.0
 40
0.0
 40
0.0
 40
0.0
 40
0.2073680663
 40
0.4349416349
 40
0.6970147995
 40
1.0
 40
1.0
 40
1.0
 40
1.0
 10
69.8671412303
 20
80.8624924779
 30
0.0
 10
69.8671165094
 20
80.8363400204
 30
0.0
 10
69.8775726241
 20
80.7810981333
 30
0.0
 10
69.9221276136
 20
80.7039189486
 30
0.0
 10
69.9926823767
 20
80.6320370773
 30
0.0
 10
70.0514357767
 20
80.5910906141
 30
0.0
 10
70.0841502145
 20
80.5713454412
 30
0.0
  0
SPLINE
  5
516
100
AcDbEntity
  8
RUNDUNGEN
100
AcDbSpline
 62
7
  6
CONTINUOUS
 70
0
 71
3
 72
13
 73
9
 74
0
 42
0.0000001
 43
0.0000001
 44
0.0000000001
 40
0.0
 40
0.0
 40
0.0
 40
0.0
 40
0.08776614
 40
0.1810035989
 40
0.2840502729
 40
0.3996815773
 40
0.6725569204
 40
1.0
 40
1.0
 40
1.0
 40
1.0
 10
61.6748360854
 20
90.7111218056
 30
0.0
 10
61.6748140896
 20
90.7792625943
 30
0.0
 10
61.6954837283
 20
90.9204964806
 30
0.0
 10
61.7857994795
 20
91.1240674622
 30
0.0
 10
61.9319533636
 20
91.3192398052
 30
0.0
 10
62.2129069438
 20
91.5798379359
 30
0.0
 10
62.6974303221
 20
91.8636074979
 30
0.0
 10
63.1367542782
 20
92.0240439917
 30
0.0
 10
63.3805283992
 20
92.0961817497
 30
0.0
  0
SPLINE
  5
517
100
AcDbEntity
  8
RUNDUNGEN
100
AcDbSpline
 62
7
  6
CONTINUOUS
 70
0
 71
3
 72
11
 73
7
 74
0
 42
0.0000001
 43
0.0000001
 44
0.0000000001
 40
0.0
 40
0.0
 40
0.0
 40
0.0
 40
0.2073673999
 40
0.4349663285
 40
0.6969833209
 40
1.0
 40
1.0
 40
1.0
 40
1.0
 10
61.6748360854
 20
86.1795828704
 30
0.0
 10
61.6748641993
 20
86.0924885824
 30
0.0
 10
61.7100616365
 20
85.9085840384
 30
0.0
 10
61.8585690262
 20
85.6516926391
 30
0.0
 10
62.0935895781
 20
85.4123552336
 30
0.0
 10
62.2892670013
 20
85.2760362854
 30
0.0
 10
62.3982259674
 20
85.2102728562
 30
0.0
  0
SPLINE
  5
518
100
AcDbEntity
  8
RUNDUNGEN
100
AcDbSpline
 62
7
  6
CONTINUOUS
 70
0
 71
3
 72
12
 73
8
 74
0
 42
0.0000001
 43
0.0000001
 44
0.0000000001
 40
0.0
 40
0.0
 40
0.0
 40
0.0
 40
0.1026559272
 40
0.2079973527
 40
0.435429803
 40
0.697163668
 40
1.0
 40
1.0
 40
1.0
 40
1.0
 10
109.1258447059
 20
70.3952963538
 30
0.0
 10
109.1258447136
 20
70.5247783649
 30
0.0
 10
109.1499639322
 20
70.7877197604
 30
0.0
 10
109.2964914708
 20
71.3196004353
 30
0.0
 10
109.6766413143
 20
71.980107939
 30
0.0
 10
110.3818039655
 20
72.6975149063
 30
0.0
 10
110.9689954346
 20
73.1067631372
 30
0.0
 10
111.2960201744
 20
73.3041426562
 30
0.0
  0
SPLINE
  5
519
100
AcDbEntity
  8
RUNDUNGEN
100
AcDbSpline
 62
7
  6
CONTINUOUS
 70
0
 71
3
 72
9
 73
5
 74
0
 42
0.0000001
 43
0.0000001
 44
0.0000000001
 40
0.0
 40
0.0
 40
0.0
 40
0.0
 40
0.2375463546
 40
1.0
 40
1.0
 40
1.0
 40
1.0
 10
110.3905280173
 20
72.6606821777
 30
0.0
 10
110.4576933785
 20
72.6038602925
 30
0.0
 10
110.7459921207
 20
72.3712351566
 30
0.0
 10
111.0542624699
 20
72.1639041807
 30
0.0
 10
111.2960201744
 20
72.0179885553
 30
0.0
  0
SPLINE
  5
51A
100
AcDbEntity
  8
RUNDUNGEN
100
AcDbSpline
 62
7
  6
CONTINUOUS
 70
0
 71
3
 72
11
 73
7
 74
0
 42
0.0000001
 43
0.0000001
 44
0.0000000001
 40
0.0
 40
0.0
 40
0.0
 40
0.0
 40
0.2073612865
 40
0.4349778056
 40
0.696920747
 40
1.0
 40
1.0
 40
1.0
 40
1.0
 10
69.2103529306
 20
63.6903913294
 30
0.0
 10
69.2103529306
 20
63.777504537
 30
0.0
 10
69.245449755
 20
63.9614833227
 30
0.0
 10
69.393975861
 20
64.2184298532
 30
0.0
 10
69.6289973989
 20
64.4578794892
 30
0.0
 10
69.8247364049
 20
64.5942136009
 30
0.0
 10
69.9337447535
 20
64.6600068354
 30
0.0
  0
SPLINE
  5
51B
100
AcDbEntity
  8
BEZUGSACHSEN
100
AcDbSpline
 62
7
  6
CONTINUOUS
 70
0
 71
3
 72
14
 73
10
 74
0
 42
0.0000001
 43
0.0000001
 44
0.0000000001
 40
0.0
 40
0.0
 40
0.0
 40
0.0
 40
0.0847693548
 40
0.1758010249
 40
0.2777560223
 40
0.3934558662
 40
0.5240265389
 40
0.669396616
 40
1.0
 40
1.0
 40
1.0
 40
1.0
 10
101.7103529306
 20
83.6634593215
 30
0.0
 10
101.7103529306
 20
83.7564285677
 30
0.0
 10
101.6790812523
 20
83.9503075973
 30
0.0
 10
101.5441669347
 20
84.2272117415
 30
0.0
 10
101.3271903884
 20
84.4902816712
 30
0.0
 10
101.0335251351
 20
84.7369272431
 30
0.0
 10
100.6679555306
 20
84.9646142582
 30
0.0
 10
100.0663629576
 20
85.250822298
 30
0.0
 10
99.5649669587
 20
85.4068008849
 30
0.0
 10
99.2127448686
 20
85.4928602024
 30
0.0
  0
SPLINE
  5
51C
100
AcDbEntity
  8
BEZUGSACHSEN
100
AcDbSpline
 62
7
  6
CONTINUOUS
 70
0
 71
3
 72
14
 73
10
 74
0
 42
0.0000001
 43
0.0000001
 44
0.0000000001
 40
0.0
 40
0.0
 40
0.0
 40
0.0
 40
0.330603384
 40
0.4759734611
 40
0.6065441338
 40
0.7222439777
 40
0.8241989751
 40
0.9152306452
 40
1.0
 40
1.0
 40
1.0
 40
1.0
 10
94.2079609926
 20
85.4928602024
 30
0.0
 10
93.8557389026
 20
85.4068008849
 30
0.0
 10
93.3543429037
 20
85.250822298
 30
0.0
 10
92.7527503307
 20
84.9646142582
 30
0.0
 10
92.3871807262
 20
84.7369272431
 30
0.0
 10
92.0935154729
 20
84.4902816712
 30
0.0
 10
91.8765389266
 20
84.2272117415
 30
0.0
 10
91.741624609
 20
83.9503075973
 30
0.0
 10
91.7103529306
 20
83.7564285677
 30
0.0
 10
91.7103529306
 20
83.6634593215
 30
0.0
  0
SPLINE
  5
51D
100
AcDbEntity
  8
RUNDUNGEN
100
AcDbSpline
 62
7
  6
CONTINUOUS
 70
0
 71
3
 72
16
 73
12
 74
0
 42
0.0000001
 43
0.0000001
 44
0.0000000001
 40
0.0
 40
0.0
 40
0.0
 40
0.0
 40
0.0358558087
 40
0.0732729211
 40
0.1572229944
 40
0.2585609942
 40
0.3788948683
 40
0.5168711309
 40
0.6693385679
 40
0.8320344965
 40
1.0
 40
1.0
 40
1.0
 40
1.0
 10
69.2103529306
 20
56.3109104046
 30
0.0
 10
69.2103529306
 20
56.2553348228
 30
0.0
 10
69.2239348348
 20
56.1413727428
 30
0.0
 10
69.3066843618
 20
55.9102879791
 30
0.0
 10
69.5207452347
 20
55.6300254718
 30
0.0
 10
69.9013063554
 20
55.3425351687
 30
0.0
 10
70.4020532386
 20
55.0922099764
 30
0.0
 10
71.0065015779
 20
54.8874575542
 30
0.0
 10
71.6933601237
 20
54.735215474
 30
0.0
 10
72.4372274563
 20
54.6414436294
 30
0.0
 10
72.9500107178
 20
54.6204373576
 30
0.0
 10
73.2103529306
 20
54.6204373576
 30
0.0
  0
SPLINE
  5
51E
100
AcDbEntity
  8
RUNDUNGEN
100
AcDbSpline
 62
7
  6
CONTINUOUS
 70
0
 71
3
 72
12
 73
8
 74
0
 42
0.0000001
 43
0.0000001
 44
0.0000000001
 40
0.0
 40
0.0
 40
0.0
 40
0.0
 40
0.0997204801
 40
0.2136107456
 40
0.4719142659
 40
0.7453613042
 40
1.0
 40
1.0
 40
1.0
 40
1.0
 10
64.2910282074
 20
84.0678504331
 30
0.0
 10
64.3397485553
 20
84.0384447103
 30
0.0
 10
64.4502712924
 20
83.9855733632
 30
0.0
 10
64.7069442173
 20
83.9024750146
 30
0.0
 10
65.0736339271
 20
83.8464981275
 30
0.0
 10
65.5237760244
 20
83.8503406907
 30
0.0
 10
65.8229627074
 20
83.9020752834
 30
0.0
 10
65.9623023842
 20
83.9433087493
 30
0.0
  0
SPLINE
  5
51F
100
AcDbEntity
  8
RUNDUNGEN
100
AcDbSpline
 62
7
  6
CONTINUOUS
 70
0
 71
3
 72
11
 73
7
 74
0
 42
0.0000001
 43
0.0000001
 44
0.0000000001
 40
0.0
 40
0.0
 40
0.0
 40
0.0
 40
0.3029815939
 40
0.5650600293
 40
0.7926328234
 40
1.0
 40
1.0
 40
1.0
 40
1.0
 10
132.6284939156
 20
86.1796009728
 30
0.0
 10
132.6612103717
 20
86.1993473637
 30
0.0
 10
132.7199676822
 20
86.2402979039
 30
0.0
 10
132.7905265524
 20
86.3121862785
 30
0.0
 10
132.8350816597
 20
86.3893743349
 30
0.0
 10
132.8455303667
 20
86.4446220732
 30
0.0
 10
132.8455017846
 20
86.4707763393
 30
0.0
  0
SPLINE
  5
520
100
AcDbEntity
  8
RUNDUNGEN
100
AcDbSpline
 62
7
  6
CONTINUOUS
 70
0
 71
3
 72
16
 73
12
 74
0
 42
0.0000001
 43
0.0000001
 44
0.0000000001
 40
0.0
 40
0.0
 40
0.0
 40
0.0
 40
0.1679656162
 40
0.3306616867
 40
0.4831290977
 40
0.6211053234
 40
0.7414391794
 40
0.8427771499
 40
0.9267271311
 40
0.9641442038
 40
1.0
 40
1.0
 40
1.0
 40
1.0
 10
120.2103529306
 20
54.6204373576
 30
0.0
 10
120.4706953187
 20
54.6204373576
 30
0.0
 10
120.983478975
 20
54.6414436742
 30
0.0
 10
121.7273466578
 20
54.7352156069
 30
0.0
 10
122.4142052978
 20
54.8874578409
 30
0.0
 10
123.0186534816
 20
55.0922103326
 30
0.0
 10
123.5194001961
 20
55.3425355767
 30
0.0
 10
123.8999610365
 20
55.6300259095
 30
0.0
 10
124.1140216344
 20
55.9102882822
 30
0.0
 10
124.196771085
 20
56.1413728374
 30
0.0
 10
124.2103529306
 20
56.255334842
 30
0.0
 10
124.2103529306
 20
56.3109104046
 30
0.0
  0
SPLINE
  5
521
100
AcDbEntity
  8
RUNDUNGEN
100
AcDbSpline
 62
7
  6
CONTINUOUS
 70
0
 71
3
 72
11
 73
7
 74
0
 42
0.0000001
 43
0.0000001
 44
0.0000000001
 40
0.0
 40
0.0
 40
0.0
 40
0.0
 40
0.2085386553
 40
0.4513089719
 40
0.719082175
 40
1.0
 40
1.0
 40
1.0
 40
1.0
 10
104.8840346119
 20
59.567477516
 30
0.0
 10
105.0857213356
 20
59.445747189
 30
0.0
 10
105.5536114412
 20
59.2343854126
 30
0.0
 10
106.3376544252
 20
59.014768109
 30
0.0
 10
107.2230174829
 20
58.8774623125
 30
0.0
 10
107.843304253
 20
58.8466199751
 30
0.0
 10
108.1606427891
 20
58.8466199751
 30
0.0
  0
SPLINE
  5
522
100
AcDbEntity
  8
RUNDUNGEN
100
AcDbSpline
 62
7
  6
CONTINUOUS
 70
0
 71
3
 72
11
 73
7
 74
0
 42
0.0000001
 43
0.0000001
 44
0.0000000001
 40
0.0
 40
0.0
 40
0.0
 40
0.0
 40
0.2809180525
 40
0.5486913428
 40
0.7914615301
 40
1.0
 40
1.0
 40
1.0
 40
1.0
 10
85.2600630722
 20
58.8466199751
 30
0.0
 10
85.5774018654
 20
58.8466199751
 30
0.0
 10
86.1976889925
 20
58.8774623505
 30
0.0
 10
87.0830522447
 20
59.0147682794
 30
0.0
 10
87.8670949484
 20
59.2343856296
 30
0.0
 10
88.334984705
 20
59.4457472972
 30
0.0
 10
88.5366712494
 20
59.567477516
 30
0.0
  0
SPLINE
  5
523
100
AcDbEntity
  8
0
100
AcDbSpline
 62
7
  6
CONTINUOUS
 70
0
 71
3
 72
11
 73
7
 74
0
 42
0.0000001
 43
0.0000001
 44
0.0000000001
 40
0.0
 40
0.0
 40
0.0
 40
0.0
 40
0.3368405521
 40
0.4923681714
 40
0.6329834276
 40
1.0
 40
1.0
 40
1.0
 40
1.0
 10
88.0405387424
 20
79.8761046793
 30
0.0
 10
88.0712613998
 20
79.8761046793
 30
0.0
 10
88.1161114612
 20
79.8794972849
 30
0.0
 10
88.1730984133
 20
79.8923159085
 30
0.0
 10
88.2283459882
 20
79.9105258018
 30
0.0
 10
88.2805387424
 20
79.9440581009
 30
0.0
 10
88.2805387424
 20
79.9775330621
 30
0.0
  0
SPLINE
  5
524
100
AcDbEntity
  8
0
100
AcDbSpline
 62
7
  6
CONTINUOUS
 70
0
 71
3
 72
11
 73
7
 74
0
 42
0.0000001
 43
0.0000001
 44
0.0000000001
 40
0.0
 40
0.0
 40
0.0
 40
0.0
 40
0.3368405521
 40
0.4923681714
 40
0.6329834276
 40
1.0
 40
1.0
 40
1.0
 40
1.0
 10
88.0405387424
 20
78.8618208511
 30
0.0
 10
88.0712613998
 20
78.8618208511
 30
0.0
 10
88.1161114612
 20
78.8652134568
 30
0.0
 10
88.1730984133
 20
78.8780320804
 30
0.0
 10
88.2283459882
 20
78.8962419736
 30
0.0
 10
88.2805387424
 20
78.9297742727
 30
0.0
 10
88.2805387424
 20
78.9632492339
 30
0.0
  0
SPLINE
  5
525
100
AcDbEntity
  8
0
100
AcDbSpline
 62
7
  6
CONTINUOUS
 70
0
 71
3
 72
10
 73
6
 74
0
 42
0.0000001
 43
0.0000001
 44
0.0000000001
 40
0.0
 40
0.0
 40
0.0
 40
0.0
 40
0.3365622014
 40
0.632849827
 40
1.0
 40
1.0
 40
1.0
 40
1.0
 10
87.0565387424
 20
79.5211053394
 30
0.0
 10
87.0442653634
 20
79.5211053394
 30
0.0
 10
87.02068553
 20
79.5189601632
 30
0.0
 10
86.9871356824
 20
79.5110243866
 30
0.0
 10
86.9605387424
 20
79.4939228137
 30
0.0
 10
86.9605387424
 20
79.4805339863
 30
0.0
  0
SPLINE
  5
526
100
AcDbEntity
  8
0
100
AcDbSpline
 62
7
  6
CONTINUOUS
 70
0
 71
3
 72
10
 73
6
 74
0
 42
0.0000001
 43
0.0000001
 44
0.0000000001
 40
0.0
 40
0.0
 40
0.0
 40
0.0
 40
0.3365622014
 40
0.632849827
 40
1.0
 40
1.0
 40
1.0
 40
1.0
 10
87.5245387424
 20
79.4196769566
 30
0.0
 10
87.5368121214
 20
79.4196769566
 30
0.0
 10
87.5603919549
 20
79.4218221328
 30
0.0
 10
87.5939418025
 20
79.4297579094
 30
0.0
 10
87.6205387424
 20
79.4468594823
 30
0.0
 10
87.6205387424
 20
79.4602483097
 30
0.0
  0
SPLINE
  5
527
100
AcDbEntity
  8
0
100
AcDbSpline
 62
7
  6
CONTINUOUS
 70
0
 71
3
 72
9
 73
5
 74
0
 42
0.0000001
 43
0.0000001
 44
0.0000000001
 40
0.0
 40
0.0
 40
0.0
 40
0.0
 40
0.2594499535
 40
1.0
 40
1.0
 40
1.0
 40
1.0
 10
94.4051797836
 20
80.0531535293
 30
0.0
 10
94.4440211783
 20
80.0531535293
 30
0.0
 10
94.5936467949
 20
80.0574816098
 30
0.0
 10
94.7431871307
 20
80.0780296371
 30
0.0
 10
94.850658282
 20
80.1052521668
 30
0.0
  0
SPLINE
  5
528
100
AcDbEntity
  8
0
100
AcDbSpline
 62
7
  6
CONTINUOUS
 70
0
 71
3
 72
13
 73
9
 74
0
 42
0.0000001
 43
0.0000001
 44
0.0000000001
 40
0.0
 40
0.0
 40
0.0
 40
0.0
 40
0.3246509595
 40
0.5956795875
 40
0.7113519015
 40
0.8152604675
 40
0.9101272644
 40
1.0
 40
1.0
 40
1.0
 40
1.0
 10
106.371031153
 20
78.8260853322
 30
0.0
 10
106.5289290598
 20
78.8787704043
 30
0.0
 10
106.8130768298
 20
78.9937063348
 30
0.0
 10
107.1240683287
 20
79.1912646949
 30
0.0
 10
107.3030924113
 20
79.3694124894
 30
0.0
 10
107.396185143
 20
79.5023258933
 30
0.0
 10
107.4535114436
 20
79.6402095063
 30
0.0
 10
107.4665646816
 20
79.7353584855
 30
0.0
 10
107.4665646816
 20
79.7814381886
 30
0.0
  0
SPLINE
  5
529
100
AcDbEntity
  8
0
100
AcDbSpline
 62
7
  6
CONTINUOUS
 70
0
 71
3
 72
9
 73
5
 74
0
 42
0.0000001
 43
0.0000001
 44
0.0000000001
 40
0.0
 40
0.0
 40
0.0
 40
0.0
 40
0.2643819516
 40
1.0
 40
1.0
 40
1.0
 40
1.0
 10
106.1916909085
 20
78.7942019292
 30
0.0
 10
106.2047086887
 20
78.7942019292
 30
0.0
 10
106.2538936599
 20
78.7959245138
 30
0.0
 10
106.3031492437
 20
78.8039493881
 30
0.0
 10
106.3376101662
 20
78.8151023232
 30
0.0
  0
SPLINE
  5
52A
100
AcDbEntity
  8
RUNDUNGEN
100
AcDbSpline
 62
7
  6
CONTINUOUS
 70
0
 71
3
 72
16
 73
12
 74
0
 42
0.0000001
 43
0.0000001
 44
0.0000000001
 40
0.0
 40
0.0
 40
0.0
 40
0.0
 40
0.0358558087
 40
0.0732729211
 40
0.1572229944
 40
0.2585609942
 40
0.3788948683
 40
0.5168711309
 40
0.6693385679
 40
0.8320344965
 40
1.0
 40
1.0
 40
1.0
 40
1.0
 10
75.8103529306
 20
57.1561469281
 30
0.0
 10
75.8103529306
 20
57.2117225099
 30
0.0
 10
75.8239348348
 20
57.3256845899
 30
0.0
 10
75.9066843618
 20
57.5567693536
 30
0.0
 10
76.1207452347
 20
57.8370318608
 30
0.0
 10
76.5013063554
 20
58.124522164
 30
0.0
 10
77.0020532386
 20
58.3748473563
 30
0.0
 10
77.6065015779
 20
58.5795997785
 30
0.0
 10
78.2933601237
 20
58.7318418587
 30
0.0
 10
79.0372274563
 20
58.8256137033
 30
0.0
 10
79.5500107178
 20
58.8466199751
 30
0.0
 10
79.8103529306
 20
58.8466199751
 30
0.0
  0
SPLINE
  5
52B
100
AcDbEntity
  8
RUNDUNGEN
100
AcDbSpline
 62
7
  6
CONTINUOUS
 70
0
 71
3
 72
16
 73
12
 74
0
 42
0.0000001
 43
0.0000001
 44
0.0000000001
 40
0.0
 40
0.0
 40
0.0
 40
0.0
 40
0.1679656162
 40
0.3306616867
 40
0.4831290977
 40
0.6211053234
 40
0.7414391794
 40
0.8427771499
 40
0.9267271311
 40
0.9641442038
 40
1.0
 40
1.0
 40
1.0
 40
1.0
 10
113.6103529306
 20
58.8466199751
 30
0.0
 10
113.8706953187
 20
58.8466199751
 30
0.0
 10
114.383478975
 20
58.8256136585
 30
0.0
 10
115.1273466578
 20
58.7318417258
 30
0.0
 10
115.8142052978
 20
58.5795994918
 30
0.0
 10
116.4186534816
 20
58.3748470001
 30
0.0
 10
116.9194001961
 20
58.124521756
 30
0.0
 10
117.2999610365
 20
57.8370314232
 30
0.0
 10
117.5140216344
 20
57.5567690505
 30
0.0
 10
117.596771085
 20
57.3256844953
 30
0.0
 10
117.6103529306
 20
57.2117224907
 30
0.0
 10
117.6103529306
 20
57.1561469281
 30
0.0
  0
SPLINE
  5
52C
100
AcDbEntity
  8
RUNDUNGEN
100
AcDbSpline
 62
7
  6
CONTINUOUS
 70
0
 71
3
 72
15
 73
11
 74
0
 42
0.0000001
 43
0.0000001
 44
0.0000000001
 40
0.0
 40
0.0
 40
0.0
 40
0.0
 40
0.1042684531
 40
0.2256535613
 40
0.3595452766
 40
0.5000000814
 40
0.640454917
 40
0.7743465964
 40
0.8957316143
 40
1.0
 40
1.0
 40
1.0
 40
1.0
 10
92.6145927092
 20
62.028753616
 30
0.0
 10
92.8666989782
 20
62.1809152358
 30
0.0
 10
93.4515639529
 20
62.4451139414
 30
0.0
 10
94.4316044979
 20
62.7196494998
 30
0.0
 10
95.5384066259
 20
62.8912629702
 30
0.0
 10
96.7103537111
 20
62.9495681261
 30
0.0
 10
97.8823006875
 20
62.8912628276
 30
0.0
 10
98.9891025303
 20
62.719649266
 30
0.0
 10
99.9691424965
 20
62.4451136811
 30
0.0
 10
100.554007046
 20
62.1809151375
 30
0.0
 10
100.8061131521
 20
62.028753616
 30
0.0
  0
SPLINE
  5
52D
100
AcDbEntity
  8
RUNDUNGEN
100
AcDbSpline
 62
7
  6
CONTINUOUS
 70
0
 71
3
 72
9
 73
5
 74
0
 42
0.0000001
 43
0.0000001
 44
0.0000000001
 40
0.0
 40
0.0
 40
0.0
 40
0.0
 40
0.262637528
 40
1.0
 40
1.0
 40
1.0
 40
1.0
 10
82.1246856869
 20
72.0179885553
 30
0.0
 10
82.2079586072
 20
72.068248878
 30
0.0
 10
82.5216685141
 20
72.2650280697
 30
0.0
 10
82.8216956111
 20
72.4843066299
 30
0.0
 10
83.030172808
 20
72.6606779087
 30
0.0
  0
SPLINE
  5
52E
100
AcDbEntity
  8
RUNDUNGEN
100
AcDbSpline
 62
7
  6
CONTINUOUS
 70
0
 71
3
 72
12
 73
8
 74
0
 42
0.0000001
 43
0.0000001
 44
0.0000000001
 40
0.0
 40
0.0
 40
0.0
 40
0.0
 40
0.3028363607
 40
0.5645702388
 40
0.7920026656
 40
0.8973440802
 40
1.0
 40
1.0
 40
1.0
 40
1.0
 10
82.1246856869
 20
73.3041426562
 30
0.0
 10
82.4517104946
 20
73.1067630963
 30
0.0
 10
83.0389020609
 20
72.6975147717
 30
0.0
 10
83.7440647863
 20
71.9801076728
 30
0.0
 10
84.1242145491
 20
71.3196000538
 30
0.0
 10
84.2707420188
 20
70.7877193471
 30
0.0
 10
84.2948611631
 20
70.5247779388
 30
0.0
 10
84.2948611554
 20
70.3952959225
 30
0.0
  0
SPLINE
  5
52F
100
AcDbEntity
  8
RUNDUNGEN
100
AcDbSpline
 62
7
  6
CONTINUOUS
 70
0
 71
3
 72
12
 73
8
 74
0
 42
0.0000001
 43
0.0000001
 44
0.0000000001
 40
0.0
 40
0.0
 40
0.0
 40
0.0
 40
0.2546389095
 40
0.5280844547
 40
0.7863884982
 40
0.9002788037
 40
1.0
 40
1.0
 40
1.0
 40
1.0
 10
68.6655041303
 20
84.7432415417
 30
0.0
 10
68.8977371198
 20
84.8119640424
 30
0.0
 10
69.3963804214
 20
84.8981880648
 30
0.0
 10
70.1466164308
 20
84.9045925808
 30
0.0
 10
70.7577652762
 20
84.8112986843
 30
0.0
 10
71.1855545329
 20
84.672800818
 30
0.0
 10
71.3697599284
 20
84.5846819586
 30
0.0
 10
71.4509610916
 20
84.5356720686
 30
0.0
  0
SPLINE
  5
530
100
AcDbEntity
  8
RUNDUNGEN
100
AcDbSpline
 62
7
  6
CONTINUOUS
 70
0
 71
3
 72
9
 73
5
 74
0
 42
0.0000001
 43
0.0000001
 44
0.0000000001
 40
0.0
 40
0.0
 40
0.0
 40
0.0
 40
0.261273453
 40
1.0
 40
1.0
 40
1.0
 40
1.0
 10
73.5731939061
 20
83.2547742003
 30
0.0
 10
73.5858142722
 20
83.2471570341
 30
0.0
 10
73.6336527746
 20
83.2172495628
 30
0.0
 10
73.6795892293
 20
83.1842260842
 30
0.0
 10
73.71184751
 20
83.1578346226
 30
0.0
  0
SPLINE
  5
531
100
AcDbEntity
  8
RUNDUNGEN
100
AcDbSpline
 62
7
  6
CONTINUOUS
 70
0
 71
3
 72
9
 73
5
 74
0
 42
0.0000001
 43
0.0000001
 44
0.0000000001
 40
0.0
 40
0.0
 40
0.0
 40
0.0
 40
0.4540254081
 40
1.0
 40
1.0
 40
1.0
 40
1.0
 10
73.7129958417
 20
82.3830221921
 30
0.0
 10
73.630617623
 20
82.3153893249
 30
0.0
 10
73.4261754234
 20
82.1948026227
 30
0.0
 10
73.2049450505
 20
82.1139585482
 30
0.0
 10
73.0820426902
 20
82.0775892212
 30
0.0
  0
SPLINE
  5
532
100
AcDbEntity
  8
0
100
AcDbSpline
 62
7
  6
CONTINUOUS
 70
0
 71
3
 72
9
 73
5
 74
0
 42
0.0000001
 43
0.0000001
 44
0.0000000001
 40
0.0
 40
0.0
 40
0.0
 40
0.0
 40
0.4111175434
 40
1.0
 40
1.0
 40
1.0
 40
1.0
 10
86.9640748314
 20
79.4062226996
 30
0.0
 10
86.9696335256
 20
79.397759696
 30
0.0
 10
86.9925449009
 20
79.3846733116
 30
0.0
 10
87.0164958621
 20
79.3796708007
 30
0.0
 10
87.0309004901
 20
79.3779809559
 30
0.0
  0
SPLINE
  5
533
100
AcDbEntity
  8
RUNDUNGEN
100
AcDbSpline
 62
7
  6
CONTINUOUS
 70
0
 71
3
 72
12
 73
8
 74
0
 42
0.0000001
 43
0.0000001
 44
0.0000000001
 40
0.0
 40
0.0
 40
0.0
 40
0.0
 40
0.1026559272
 40
0.2079973527
 40
0.435429803
 40
0.697163668
 40
1.0
 40
1.0
 40
1.0
 40
1.0
 10
84.2948611554
 20
70.3952959225
 30
0.0
 10
84.2948611477
 20
70.2658139114
 30
0.0
 10
84.2707419291
 20
70.0028725159
 30
0.0
 10
84.1242143905
 20
69.470991841
 30
0.0
 10
83.744064547
 20
68.8104843373
 30
0.0
 10
83.0389018958
 20
68.09307737
 30
0.0
 10
82.4517104267
 20
67.6838291391
 30
0.0
 10
82.1246856869
 20
67.4864496201
 30
0.0
  0
SPLINE
  5
534
100
AcDbEntity
  8
0
100
AcDbSpline
 62
7
  6
CONTINUOUS
 70
0
 71
3
 72
10
 73
6
 74
0
 42
0.0000001
 43
0.0000001
 44
0.0000000001
 40
0.0
 40
0.0
 40
0.0
 40
0.0
 40
0.367150173
 40
0.6634377986
 40
1.0
 40
1.0
 40
1.0
 40
1.0
 10
87.6205387424
 20
80.0891042832
 30
0.0
 10
87.6205387424
 20
80.1024931106
 30
0.0
 10
87.5939418025
 20
80.1195946835
 30
0.0
 10
87.5603919549
 20
80.1275304601
 30
0.0
 10
87.5368121214
 20
80.1296756363
 30
0.0
 10
87.5245387424
 20
80.1296756363
 30
0.0
  0
SPLINE
  5
535
100
AcDbEntity
  8
0
100
AcDbSpline
 62
7
  6
CONTINUOUS
 70
0
 71
3
 72
11
 73
7
 74
0
 42
0.0000001
 43
0.0000001
 44
0.0000000001
 40
0.0
 40
0.0
 40
0.0
 40
0.0
 40
0.3670165724
 40
0.5076318286
 40
0.6631594479
 40
1.0
 40
1.0
 40
1.0
 40
1.0
 10
88.2805387424
 20
79.5718195308
 30
0.0
 10
88.2805387424
 20
79.605294492
 30
0.0
 10
88.2283459882
 20
79.6388267911
 30
0.0
 10
88.1730984133
 20
79.6570366844
 30
0.0
 10
88.1161114612
 20
79.669855308
 30
0.0
 10
88.0712613998
 20
79.6732479136
 30
0.0
 10
88.0405387424
 20
79.6732479136
 30
0.0
  0
SPLINE
  5
536
100
AcDbEntity
  8
RUNDUNGEN
100
AcDbSpline
 62
7
  6
CONTINUOUS
 70
0
 71
3
 72
11
 73
7
 74
0
 42
0.0000001
 43
0.0000001
 44
0.0000000001
 40
0.0
 40
0.0
 40
0.0
 40
0.0
 40
0.303079253
 40
0.5650221944
 40
0.7926387135
 40
1.0
 40
1.0
 40
1.0
 40
1.0
 10
69.9337447535
 20
60.1284679002
 30
0.0
 10
69.8247364049
 20
60.0626746657
 30
0.0
 10
69.6289973989
 20
59.926340554
 30
0.0
 10
69.393975861
 20
59.686890918
 30
0.0
 10
69.245449755
 20
59.4299443875
 30
0.0
 10
69.2103529306
 20
59.2459656018
 30
0.0
 10
69.2103529306
 20
59.1588523942
 30
0.0
  0
SPLINE
  5
537
100
AcDbEntity
  8
RUNDUNGEN
100
AcDbSpline
 62
7
  6
CONTINUOUS
 70
0
 71
3
 72
11
 73
7
 74
0
 42
0.0000001
 43
0.0000001
 44
0.0000000001
 40
0.0
 40
0.0
 40
0.0
 40
0.0
 40
0.3281890092
 40
0.6017655288
 40
0.8201370822
 40
1.0
 40
1.0
 40
1.0
 40
1.0
 10
70.3788409441
 20
81.2776564287
 30
0.0
 10
70.3057604785
 20
81.2560304213
 30
0.0
 10
70.1738317032
 20
81.2079248073
 30
0.0
 10
70.0085503725
 20
81.1107624796
 30
0.0
 10
69.8971886392
 20
80.9971497878
 30
0.0
 10
69.8671807124
 20
80.9042608078
 30
0.0
 10
69.8671412303
 20
80.8624924779
 30
0.0
  0
SPLINE
  5
538
100
AcDbEntity
  8
RUNDUNGEN
100
AcDbSpline
 62
7
  6
CONTINUOUS
 70
0
 71
3
 72
13
 73
9
 74
0
 42
0.0000001
 43
0.0000001
 44
0.0000000001
 40
0.0
 40
0.0
 40
0.0
 40
0.0
 40
0.3274430796
 40
0.6003184227
 40
0.7159497271
 40
0.8189964011
 40
0.91223386
 40
1.0
 40
1.0
 40
1.0
 40
1.0
 10
63.3805283992
 20
87.5646428145
 30
0.0
 10
63.1367542782
 20
87.4925050565
 30
0.0
 10
62.6974303221
 20
87.3320685627
 30
0.0
 10
62.2129069438
 20
87.0482990007
 30
0.0
 10
61.9319533636
 20
86.78770087
 30
0.0
 10
61.7857994795
 20
86.592528527
 30
0.0
 10
61.6954837283
 20
86.3889575455
 30
0.0
 10
61.6748140896
 20
86.2477236592
 30
0.0
 10
61.6748360854
 20
86.1795828704
 30
0.0
  0
SPLINE
  5
539
100
AcDbEntity
  8
RUNDUNGEN
100
AcDbSpline
 62
7
  6
CONTINUOUS
 70
0
 71
3
 72
11
 73
7
 74
0
 42
0.0000001
 43
0.0000001
 44
0.0000000001
 40
0.0
 40
0.0
 40
0.0
 40
0.0
 40
0.255559737
 40
0.5146141127
 40
0.7662044918
 40
1.0
 40
1.0
 40
1.0
 40
1.0
 10
73.7126114161
 20
88.6246195737
 30
0.0
 10
72.9720201366
 20
88.7215275229
 30
0.0
 10
71.4696762921
 20
88.8386983931
 30
0.0
 10
69.2274264404
 20
88.8002510001
 30
0.0
 10
67.06240551
 20
88.553402535
 30
0.0
 10
65.6740424782
 20
88.2433406306
 30
0.0
 10
65.0188324878
 20
88.0494505675
 30
0.0
  0
SPLINE
  5
53A
100
AcDbEntity
  8
RUNDUNGEN
100
AcDbSpline
 62
7
  6
CONTINUOUS
 70
0
 71
3
 72
12
 73
8
 74
0
 42
0.0000001
 43
0.0000001
 44
0.0000000001
 40
0.0
 40
0.0
 40
0.0
 40
0.0
 40
0.254638628
 40
0.528084531
 40
0.7863890476
 40
0.9002794179
 40
1.0
 40
1.0
 40
1.0
 40
1.0
 10
126.4359084672
 20
88.6312198711
 30
0.0
 10
126.2965688271
 20
88.672453326
 30
0.0
 10
125.9973828275
 20
88.7241878418
 30
0.0
 10
125.5472408749
 20
88.7280305257
 30
0.0
 10
125.1805511192
 20
88.6720538909
 30
0.0
 10
124.9238775497
 20
88.5889553037
 30
0.0
 10
124.8133546884
 20
88.5360839402
 30
0.0
 10
124.7646342905
 20
88.5066781872
 30
0.0
  0
SPLINE
  5
53B
100
AcDbEntity
  8
RUNDUNGEN
100
AcDbSpline
 62
7
  6
CONTINUOUS
 70
0
 71
3
 72
11
 73
7
 74
0
 42
0.0000001
 43
0.0000001
 44
0.0000000001
 40
0.0
 40
0.0
 40
0.0
 40
0.0
 40
0.2073613662
 40
0.4349779585
 40
0.6969208492
 40
1.0
 40
1.0
 40
1.0
 40
1.0
 10
124.2103529306
 20
59.1588523942
 30
0.0
 10
124.2103529306
 20
59.2459656352
 30
0.0
 10
124.1752560725
 20
59.4299444843
 30
0.0
 10
124.026729911
 20
59.6868910319
 30
0.0
 10
123.7917083771
 20
59.9263406219
 30
0.0
 10
123.5959694195
 20
60.062674688
 30
0.0
 10
123.4869611078
 20
60.1284679002
 30
0.0
  0
SPLINE
  5
53C
100
AcDbEntity
  8
0
100
AcDbSpline
 62
7
  6
CONTINUOUS
 70
0
 71
3
 72
24
 73
20
 74
0
 42
0.0000001
 43
0.0000001
 44
0.0000000001
 40
0.0
 40
0.0
 40
0.0
 40
0.0
 40
0.0384595787
 40
0.0841483931
 40
0.1387025933
 40
0.2020859709
 40
0.2732512917
 40
0.3505123958
 40
0.4317776457
 40
0.5147185413
 40
0.5969123682
 40
0.6759771125
 40
0.7497108292
 40
0.7839924799
 40
0.8162814204
 40
0.8742995518
 40
0.9233131984
 40
0.9642211208
 40
1.0
 40
1.0
 40
1.0
 40
1.0
 10
97.1726053846
 20
79.3129790751
 30
0.0
 10
97.1903095076
 20
79.2489537967
 30
0.0
 10
97.2613327974
 20
79.1175458089
 30
0.0
 10
97.4368041234
 20
78.9510851488
 30
0.0
 10
97.6790965377
 20
78.8026958469
 30
0.0
 10
97.9813112567
 20
78.6763417299
 30
0.0
 10
98.3337341991
 20
78.5756513205
 30
0.0
 10
98.7245257118
 20
78.5041991358
 30
0.0
 10
99.1401728512
 20
78.4645224021
 30
0.0
 10
99.5661516311
 20
78.4580697335
 30
0.0
 10
99.9875359945
 20
78.4850743946
 30
0.0
 10
100.3895207044
 20
78.5445625666
 30
0.0
 10
100.7040620386
 20
78.6211621315
 30
0.0
 10
100.9340053122
 20
78.6981274665
 30
0.0
 10
101.1335152318
 20
78.7790009983
 30
0.0
 10
101.3473367864
 20
78.8916543503
 30
0.0
 10
101.5491126942
 20
79.0516304376
 30
0.0
 10
101.6800505456
 20
79.2294324501
 30
0.0
 10
101.7124880721
 20
79.3628949251
 30
0.0
 10
101.7124880721
 20
79.4246927294
 30
0.0
  0
SPLINE
  5
53D
100
AcDbEntity
  8
0
100
AcDbSpline
 62
7
  6
CONTINUOUS
 70
0
 71
3
 72
11
 73
7
 74
0
 42
0.0000001
 43
0.0000001
 44
0.0000000001
 40
0.0
 40
0.0
 40
0.0
 40
0.0
 40
0.3368829604
 40
0.4923185009
 40
0.6329683287
 40
1.0
 40
1.0
 40
1.0
 40
1.0
 10
89.3605387424
 20
78.4561073198
 30
0.0
 10
89.4219911861
 20
78.4561073198
 30
0.0
 10
89.5116787062
 20
78.4629008485
 30
0.0
 10
89.6256555864
 20
78.4885119167
 30
0.0
 10
89.7361245575
 20
78.5249747112
 30
0.0
 10
89.8405387424
 20
78.5920120702
 30
0.0
 10
89.8405387424
 20
78.6589640855
 30
0.0
  0
SPLINE
  5
53E
100
AcDbEntity
  8
0
100
AcDbSpline
 62
7
  6
CONTINUOUS
 70
0
 71
3
 72
10
 73
6
 74
0
 42
0.0000001
 43
0.0000001
 44
0.0000000001
 40
0.0
 40
0.0
 40
0.0
 40
0.0
 40
0.367150173
 40
0.6634377986
 40
1.0
 40
1.0
 40
1.0
 40
1.0
 10
86.9605387424
 20
80.0688186066
 30
0.0
 10
86.9605387424
 20
80.0554297792
 30
0.0
 10
86.9871356824
 20
80.0383282063
 30
0.0
 10
87.02068553
 20
80.0303924297
 30
0.0
 10
87.0442653634
 20
80.0282472535
 30
0.0
 10
87.0565387424
 20
80.0282472535
 30
0.0
  0
SPLINE
  5
53F
100
AcDbEntity
  8
0
100
AcDbSpline
 62
7
  6
CONTINUOUS
 70
0
 71
3
 72
11
 73
7
 74
0
 42
0.0000001
 43
0.0000001
 44
0.0000000001
 40
0.0
 40
0.0
 40
0.0
 40
0.0
 40
0.3368405521
 40
0.4923681714
 40
0.6329834276
 40
1.0
 40
1.0
 40
1.0
 40
1.0
 10
86.8405387424
 20
79.6732479136
 30
0.0
 10
86.8098160851
 20
79.6732479136
 30
0.0
 10
86.7649660237
 20
79.669855308
 30
0.0
 10
86.7079790715
 20
79.6570366844
 30
0.0
 10
86.6527314967
 20
79.6388267911
 30
0.0
 10
86.6005387424
 20
79.605294492
 30
0.0
 10
86.6005387424
 20
79.5718195308
 30
0.0
  0
SPLINE
  5
540
100
AcDbEntity
  8
0
100
AcDbSpline
 62
7
  6
CONTINUOUS
 70
0
 71
3
 72
11
 73
7
 74
0
 42
0.0000001
 43
0.0000001
 44
0.0000000001
 40
0.0
 40
0.0
 40
0.0
 40
0.0
 40
0.3670165724
 40
0.5076318286
 40
0.6631594479
 40
1.0
 40
1.0
 40
1.0
 40
1.0
 10
88.2805387424
 20
80.586103359
 30
0.0
 10
88.2805387424
 20
80.6195783202
 30
0.0
 10
88.2283459882
 20
80.6531106193
 30
0.0
 10
88.1730984133
 20
80.6713205125
 30
0.0
 10
88.1161114612
 20
80.6841391361
 30
0.0
 10
88.0712613998
 20
80.6875317418
 30
0.0
 10
88.0405387424
 20
80.6875317418
 30
0.0
  0
SPLINE
  5
541
100
AcDbEntity
  8
0
100
AcDbSpline
 62
7
  6
CONTINUOUS
 70
0
 71
3
 72
10
 73
6
 74
0
 42
0.0000001
 43
0.0000001
 44
0.0000000001
 40
0.0
 40
0.0
 40
0.0
 40
0.0
 40
0.2026991937
 40
0.4397119079
 40
1.0
 40
1.0
 40
1.0
 40
1.0
 10
97.3882663851
 20
79.3647497983
 30
0.0
 10
97.4567373906
 20
79.3055064095
 30
0.0
 10
97.6214268896
 20
79.1955913035
 30
0.0
 10
98.0292597466
 20
79.0108420837
 30
0.0
 10
98.3791770271
 20
78.9269867964
 30
0.0
 10
98.6262887202
 20
78.8873303594
 30
0.0
  0
SPLINE
  5
542
100
AcDbEntity
  8
0
100
AcDbSpline
 62
7
  6
CONTINUOUS
 70
0
 71
3
 72
11
 73
7
 74
0
 42
0.0000001
 43
0.0000001
 44
0.0000000001
 40
0.0
 40
0.0
 40
0.0
 40
0.0
 40
0.3123950599
 40
0.5876823716
 40
0.8171089069
 40
1.0
 40
1.0
 40
1.0
 40
1.0
 10
100.2433791355
 20
78.8873303594
 30
0.0
 10
100.4071894473
 20
78.9136186068
 30
0.0
 10
100.7131144404
 20
78.9795235532
 30
0.0
 10
101.1229072073
 20
79.1278107783
 30
0.0
 10
101.4406723478
 20
79.3117779914
 30
0.0
 10
101.5973944626
 20
79.4729389329
 30
0.0
 10
101.6463035821
 20
79.5568557944
 30
0.0
  0
SPLINE
  5
543
100
AcDbEntity
  8
0
100
AcDbSpline
 62
7
  6
CONTINUOUS
 70
0
 71
3
 72
9
 73
5
 74
0
 42
0.0000001
 43
0.0000001
 44
0.0000000001
 40
0.0
 40
0.0
 40
0.0
 40
0.0
 40
0.5156577714
 40
1.0
 40
1.0
 40
1.0
 40
1.0
 10
101.6463035821
 20
79.5568557944
 30
0.0
 10
101.667233422
 20
79.5927666121
 30
0.0
 10
101.7004545329
 20
79.6672189491
 30
0.0
 10
101.7124880721
 20
79.7481751057
 30
0.0
 10
101.7124880721
 20
79.7872158442
 30
0.0
  0
SPLINE
  5
544
100
AcDbEntity
  8
0
100
AcDbSpline
 62
7
  6
CONTINUOUS
 70
0
 71
3
 72
10
 73
6
 74
0
 42
0.0000001
 43
0.0000001
 44
0.0000000001
 40
0.0
 40
0.0
 40
0.0
 40
0.0
 40
0.3365622014
 40
0.632849827
 40
1.0
 40
1.0
 40
1.0
 40
1.0
 10
87.3565387424
 20
80.1296756363
 30
0.0
 10
87.3442653634
 20
80.1296756363
 30
0.0
 10
87.32068553
 20
80.1275304601
 30
0.0
 10
87.2871356824
 20
80.1195946835
 30
0.0
 10
87.2605387424
 20
80.1024931106
 30
0.0
 10
87.2605387424
 20
80.0891042832
 30
0.0
  0
SPLINE
  5
545
100
AcDbEntity
  8
0
100
AcDbSpline
 62
7
  6
CONTINUOUS
 70
0
 71
3
 72
10
 73
6
 74
0
 42
0.0000001
 43
0.0000001
 44
0.0000000001
 40
0.0
 40
0.0
 40
0.0
 40
0.0
 40
0.3365622014
 40
0.632849827
 40
1.0
 40
1.0
 40
1.0
 40
1.0
 10
87.8245387424
 20
80.0282472535
 30
0.0
 10
87.8368121214
 20
80.0282472535
 30
0.0
 10
87.8603919549
 20
80.0303924297
 30
0.0
 10
87.8939418025
 20
80.0383282063
 30
0.0
 10
87.9205387424
 20
80.0554297792
 30
0.0
 10
87.9205387424
 20
80.0688186066
 30
0.0
  0
SPLINE
  5
546
100
AcDbEntity
  8
BEZUGSACHSEN
100
AcDbSpline
 62
7
  6
CONTINUOUS
 70
0
 71
3
 72
14
 73
10
 74
0
 42
0.0000001
 43
0.0000001
 44
0.0000000001
 40
0.0
 40
0.0
 40
0.0
 40
0.0
 40
0.0847693548
 40
0.1758010249
 40
0.2777560223
 40
0.3934558662
 40
0.5240265389
 40
0.669396616
 40
1.0
 40
1.0
 40
1.0
 40
1.0
 10
91.7103529306
 20
83.6634593215
 30
0.0
 10
91.7103529306
 20
83.5704900753
 30
0.0
 10
91.741624609
 20
83.3766110456
 30
0.0
 10
91.8765389266
 20
83.0997069015
 30
0.0
 10
92.0935154729
 20
82.8366369717
 30
0.0
 10
92.3871807262
 20
82.5899913999
 30
0.0
 10
92.7527503307
 20
82.3623043848
 30
0.0
 10
93.3543429037
 20
82.076096345
 30
0.0
 10
93.8557389026
 20
81.920117758
 30
0.0
 10
94.2079609926
 20
81.8340584406
 30
0.0
  0
SPLINE
  5
547
100
AcDbEntity
  8
BEZUGSACHSEN
100
AcDbSpline
 62
7
  6
CONTINUOUS
 70
0
 71
3
 72
14
 73
10
 74
0
 42
0.0000001
 43
0.0000001
 44
0.0000000001
 40
0.0
 40
0.0
 40
0.0
 40
0.0
 40
0.330603384
 40
0.4759734611
 40
0.6065441338
 40
0.7222439777
 40
0.8241989751
 40
0.9152306452
 40
1.0
 40
1.0
 40
1.0
 40
1.0
 10
99.2127448686
 20
81.8340584406
 30
0.0
 10
99.5649669587
 20
81.920117758
 30
0.0
 10
100.0663629576
 20
82.076096345
 30
0.0
 10
100.6679555306
 20
82.3623043848
 30
0.0
 10
101.0335251351
 20
82.5899913999
 30
0.0
 10
101.3271903884
 20
82.8366369717
 30
0.0
 10
101.5441669347
 20
83.0997069015
 30
0.0
 10
101.6790812523
 20
83.3766110456
 30
0.0
 10
101.7103529306
 20
83.5704900753
 30
0.0
 10
101.7103529306
 20
83.6634593215
 30
0.0
  0
SPLINE
  5
548
100
AcDbEntity
  8
0
100
AcDbSpline
 62
7
  6
CONTINUOUS
 70
0
 71
3
 72
10
 73
6
 74
0
 42
0.0000001
 43
0.0000001
 44
0.0000000001
 40
0.0
 40
0.0
 40
0.0
 40
0.0
 40
0.3365622014
 40
0.632849827
 40
1.0
 40
1.0
 40
1.0
 40
1.0
 10
87.8245387424
 20
79.0139634253
 30
0.0
 10
87.8368121214
 20
79.0139634253
 30
0.0
 10
87.8603919549
 20
79.0161086016
 30
0.0
 10
87.8939418025
 20
79.0240443781
 30
0.0
 10
87.9205387424
 20
79.0411459511
 30
0.0
 10
87.9205387424
 20
79.0545347784
 30
0.0
  0
SPLINE
  5
549
100
AcDbEntity
  8
0
100
AcDbSpline
 62
7
  6
CONTINUOUS
 70
0
 71
3
 72
11
 73
7
 74
0
 42
0.0000001
 43
0.0000001
 44
0.0000000001
 40
0.0
 40
0.0
 40
0.0
 40
0.0
 40
0.3670316713
 40
0.5076814991
 40
0.6631170396
 40
1.0
 40
1.0
 40
1.0
 40
1.0
 10
85.0405387424
 20
78.6589640855
 30
0.0
 10
85.0405387424
 20
78.5920120702
 30
0.0
 10
85.1449529274
 20
78.5249747112
 30
0.0
 10
85.2554218985
 20
78.4885119167
 30
0.0
 10
85.3693987787
 20
78.4629008485
 30
0.0
 10
85.4590862988
 20
78.4561073198
 30
0.0
 10
85.5205387424
 20
78.4561073198
 30
0.0
  0
SPLINE
  5
54A
100
AcDbEntity
  8
0
100
AcDbSpline
 62
7
  6
CONTINUOUS
 70
0
 71
3
 72
9
 73
5
 74
0
 42
0.0000001
 43
0.0000001
 44
0.0000000001
 40
0.0
 40
0.0
 40
0.0
 40
0.0
 40
0.2547293475
 40
1.0
 40
1.0
 40
1.0
 40
1.0
 10
94.9028985988
 20
79.7791572059
 30
0.0
 10
94.9237462823
 20
79.7820519922
 30
0.0
 10
95.005476729
 20
79.7942016122
 30
0.0
 10
95.086747767
 20
79.8094974332
 30
0.0
 10
95.1468644144
 20
79.822842291
 30
0.0
  0
SPLINE
  5
54B
100
AcDbEntity
  8
0
100
AcDbSpline
 62
7
  6
CONTINUOUS
 70
0
 71
3
 72
11
 73
7
 74
0
 42
0.0000001
 43
0.0000001
 44
0.0000000001
 40
0.0
 40
0.0
 40
0.0
 40
0.0
 40
0.3670165724
 40
0.5076318286
 40
0.6631594479
 40
1.0
 40
1.0
 40
1.0
 40
1.0
 10
85.0405387424
 20
79.0214872003
 30
0.0
 10
85.0405387424
 20
78.9545372779
 30
0.0
 10
85.144924251
 20
78.8874726796
 30
0.0
 10
85.2554194006
 20
78.8510528932
 30
0.0
 10
85.369393305
 20
78.825415646
 30
0.0
 10
85.4590934277
 20
78.8186304346
 30
0.0
 10
85.5205387424
 20
78.8186304346
 30
0.0
  0
SPLINE
  5
54C
100
AcDbEntity
  8
RUNDUNGEN
100
AcDbSpline
 62
7
  6
CONTINUOUS
 70
0
 71
3
 72
11
 73
7
 74
0
 42
0.0000001
 43
0.0000001
 44
0.0000000001
 40
0.0
 40
0.0
 40
0.0
 40
0.0
 40
0.1798776039
 40
0.3982535956
 40
0.671812897
 40
1.0
 40
1.0
 40
1.0
 40
1.0
 10
132.8455017846
 20
86.4707763393
 30
0.0
 10
132.8454561372
 20
86.51254636
 30
0.0
 10
132.8154366348
 20
86.605431508
 30
0.0
 10
132.7040720541
 20
86.719031249
 30
0.0
 10
132.5387997913
 20
86.8161857425
 30
0.0
 10
132.4068802297
 20
86.8642869655
 30
0.0
 10
132.3338031861
 20
86.8859119603
 30
0.0
  0
SPLINE
  5
54D
100
AcDbEntity
  8
0
100
AcDbSpline
 62
7
  6
CONTINUOUS
 70
0
 71
3
 72
9
 73
5
 74
0
 42
0.0000001
 43
0.0000001
 44
0.0000000001
 40
0.0
 40
0.0
 40
0.0
 40
0.0
 40
0.2459356536
 40
1.0
 40
1.0
 40
1.0
 40
1.0
 10
107.4665646816
 20
79.7814381886
 30
0.0
 10
107.4665646816
 20
79.7980189625
 30
0.0
 10
107.463339979
 20
79.8654248258
 30
0.0
 10
107.4467184069
 20
79.931983815
 30
0.0
 10
107.4282439023
 20
79.9793466025
 30
0.0
  0
SPLINE
  5
54E
100
AcDbEntity
  8
0
100
AcDbSpline
 62
7
  6
CONTINUOUS
 70
0
 71
3
 72
9
 73
5
 74
0
 42
0.0000001
 43
0.0000001
 44
0.0000000001
 40
0.0
 40
0.0
 40
0.0
 40
0.0
 40
0.2555890065
 40
1.0
 40
1.0
 40
1.0
 40
1.0
 10
106.1748617262
 20
78.4561073198
 30
0.0
 10
106.1912808802
 20
78.4561073198
 30
0.0
 10
106.2555073009
 20
78.4575068587
 30
0.0
 10
106.3196653499
 20
78.4643466003
 30
0.0
 10
106.3666949871
 20
78.4730120503
 30
0.0
  0
SPLINE
  5
54F
100
AcDbEntity
  8
0
100
AcDbSpline
 62
7
  6
CONTINUOUS
 70
0
 71
3
 72
12
 73
8
 74
0
 42
0.0000001
 43
0.0000001
 44
0.0000000001
 40
0.0
 40
0.0
 40
0.0
 40
0.0
 40
0.322602257
 40
0.5999597541
 40
0.7190055294
 40
0.824584398
 40
1.0
 40
1.0
 40
1.0
 40
1.0
 10
106.3666949871
 20
78.4730120503
 30
0.0
 10
106.6174865112
 20
78.519221665
 30
0.0
 10
107.0795034126
 20
78.6324817048
 30
0.0
 10
107.608097959
 20
78.8508192054
 30
0.0
 10
107.9441780594
 20
79.0646465859
 30
0.0
 10
108.1844039536
 20
79.2698553293
 30
0.0
 10
108.3163633787
 20
79.4615134614
 30
0.0
 10
108.3566133624
 20
79.5942071593
 30
0.0
  0
SPLINE
  5
550
100
AcDbEntity
  8
0
100
AcDbSpline
 62
7
  6
CONTINUOUS
 70
0
 71
3
 72
11
 73
7
 74
0
 42
0.0000001
 43
0.0000001
 44
0.0000000001
 40
0.0
 40
0.0
 40
0.0
 40
0.0
 40
0.3021565598
 40
0.5727061684
 40
0.8058014756
 40
1.0
 40
1.0
 40
1.0
 40
1.0
 10
106.4370057426
 20
78.848901092
 30
0.0
 10
106.631863116
 20
78.8870917482
 30
0.0
 10
106.998188946
 20
78.9767367906
 30
0.0
 10
107.4959665566
 20
79.1619494742
 30
0.0
 10
107.8990045734
 20
79.3844635837
 30
0.0
 10
108.1144770778
 20
79.570465934
 30
0.0
 10
108.1957974151
 20
79.6688206487
 30
0.0
  0
SPLINE
  5
551
100
AcDbEntity
  8
0
100
AcDbSpline
 62
7
  6
CONTINUOUS
 70
0
 71
3
 72
10
 73
6
 74
0
 42
0.0000001
 43
0.0000001
 44
0.0000000001
 40
0.0
 40
0.0
 40
0.0
 40
0.0
 40
0.367150173
 40
0.6634377986
 40
1.0
 40
1.0
 40
1.0
 40
1.0
 10
86.9605387424
 20
79.0545347784
 30
0.0
 10
86.9605387424
 20
79.0411459511
 30
0.0
 10
86.9871356824
 20
79.0240443781
 30
0.0
 10
87.02068553
 20
79.0161086016
 30
0.0
 10
87.0442653634
 20
79.0139634253
 30
0.0
 10
87.0565387424
 20
79.0139634253
 30
0.0
  0
SPLINE
  5
552
100
AcDbEntity
  8
0
100
AcDbSpline
 62
7
  6
CONTINUOUS
 70
0
 71
3
 72
10
 73
6
 74
0
 42
0.0000001
 43
0.0000001
 44
0.0000000001
 40
0.0
 40
0.0
 40
0.0
 40
0.0
 40
0.3365622014
 40
0.632849827
 40
1.0
 40
1.0
 40
1.0
 40
1.0
 10
87.8245387424
 20
79.3764865401
 30
0.0
 10
87.8368121214
 20
79.3764865401
 30
0.0
 10
87.8603919549
 20
79.3786317164
 30
0.0
 10
87.8939418025
 20
79.3865674929
 30
0.0
 10
87.9205387424
 20
79.4036690659
 30
0.0
 10
87.9205387424
 20
79.4170578933
 30
0.0
  0
SPLINE
  5
553
100
AcDbEntity
  8
0
100
AcDbSpline
 62
7
  6
CONTINUOUS
 70
0
 71
3
 72
8
 73
4
 74
0
 42
0.0000001
 43
0.0000001
 44
0.0000000001
 40
0.0
 40
0.0
 40
0.0
 40
0.0
 40
1.0
 40
1.0
 40
1.0
 40
1.0
 10
87.2605387424
 20
80.451627398
 30
0.0
 10
87.2605387424
 20
80.4529046419
 30
0.0
 10
87.2606915451
 20
80.4541890403
 30
0.0
 10
87.2609769377
 20
80.4554339913
 30
0.0
  0
SPLINE
  5
554
100
AcDbEntity
  8
0
100
AcDbSpline
 62
7
  6
CONTINUOUS
 70
0
 71
3
 72
10
 73
6
 74
0
 42
0.0000001
 43
0.0000001
 44
0.0000000001
 40
0.0
 40
0.0
 40
0.0
 40
0.0
 40
0.3365622014
 40
0.632849827
 40
1.0
 40
1.0
 40
1.0
 40
1.0
 10
87.5245387424
 20
80.4921987511
 30
0.0
 10
87.5368121214
 20
80.4921987511
 30
0.0
 10
87.5603919549
 20
80.4900535749
 30
0.0
 10
87.5939418025
 20
80.4821177983
 30
0.0
 10
87.6205387424
 20
80.4650162254
 30
0.0
 10
87.6205387424
 20
80.451627398
 30
0.0
  0
SPLINE
  5
555
100
AcDbEntity
  8
0
100
AcDbSpline
 62
7
  6
CONTINUOUS
 70
0
 71
3
 72
10
 73
6
 74
0
 42
0.0000001
 43
0.0000001
 44
0.0000000001
 40
0.0
 40
0.0
 40
0.0
 40
0.0
 40
0.3365622014
 40
0.632849827
 40
1.0
 40
1.0
 40
1.0
 40
1.0
 10
87.8245387424
 20
80.3907703683
 30
0.0
 10
87.8368121214
 20
80.3907703683
 30
0.0
 10
87.8603919549
 20
80.3929155445
 30
0.0
 10
87.8939418025
 20
80.4008513211
 30
0.0
 10
87.9205387424
 20
80.417952894
 30
0.0
 10
87.9205387424
 20
80.4313417214
 30
0.0
  0
SPLINE
  5
556
100
AcDbEntity
  8
0
100
AcDbSpline
 62
7
  6
CONTINUOUS
 70
0
 71
3
 72
8
 73
4
 74
0
 42
0.0000001
 43
0.0000001
 44
0.0000000001
 40
0.0
 40
0.0
 40
0.0
 40
0.0
 40
1.0
 40
1.0
 40
1.0
 40
1.0
 10
88.2754847826
 20
79.9548375482
 30
0.0
 10
88.278595468
 20
79.9485262156
 30
0.0
 10
88.2805387424
 20
79.9413789289
 30
0.0
 10
88.2805387424
 20
79.9343426456
 30
0.0
  0
SPLINE
  5
557
100
AcDbEntity
  8
0
100
AcDbSpline
 62
7
  6
CONTINUOUS
 70
0
 71
3
 72
8
 73
4
 74
0
 42
0.0000001
 43
0.0000001
 44
0.0000000001
 40
0.0
 40
0.0
 40
0.0
 40
0.0
 40
1.0
 40
1.0
 40
1.0
 40
1.0
 10
86.6005387424
 20
79.9343426456
 30
0.0
 10
86.6005387424
 20
79.9413789289
 30
0.0
 10
86.6024820169
 20
79.9485262156
 30
0.0
 10
86.6055927022
 20
79.9548375482
 30
0.0
  0
SPLINE
  5
558
100
AcDbEntity
  8
0
100
AcDbSpline
 62
7
  6
CONTINUOUS
 70
0
 71
3
 72
11
 73
7
 74
0
 42
0.0000001
 43
0.0000001
 44
0.0000000001
 40
0.0
 40
0.0
 40
0.0
 40
0.0
 40
0.3368405521
 40
0.4923681714
 40
0.6329834276
 40
1.0
 40
1.0
 40
1.0
 40
1.0
 10
89.3605387424
 20
78.8186304346
 30
0.0
 10
89.4219840572
 20
78.8186304346
 30
0.0
 10
89.5116841799
 20
78.825415646
 30
0.0
 10
89.6256580843
 20
78.8510528932
 30
0.0
 10
89.7361532339
 20
78.8874726796
 30
0.0
 10
89.8405387424
 20
78.9545372779
 30
0.0
 10
89.8405387424
 20
79.0214872003
 30
0.0
  0
SPLINE
  5
559
100
AcDbEntity
  8
RUNDUNGEN
100
AcDbSpline
 62
7
  6
CONTINUOUS
 70
0
 71
3
 72
12
 73
8
 74
0
 42
0.0000001
 43
0.0000001
 44
0.0000000001
 40
0.0
 40
0.0
 40
0.0
 40
0.0
 40
0.3028363607
 40
0.5645702388
 40
0.7920026656
 40
0.8973440802
 40
1.0
 40
1.0
 40
1.0
 40
1.0
 10
111.2960201744
 20
67.4864496201
 30
0.0
 10
110.9689953667
 20
67.6838291801
 30
0.0
 10
110.3818038004
 20
68.0930775046
 30
0.0
 10
109.676641075
 20
68.8104846035
 30
0.0
 10
109.2964913122
 20
69.4709922225
 30
0.0
 10
109.1499638425
 20
70.0028729292
 30
0.0
 10
109.1258446982
 20
70.2658143375
 30
0.0
 10
109.1258447059
 20
70.3952963538
 30
0.0
  0
SPLINE
  5
55A
100
AcDbEntity
  8
0
100
AcDbSpline
 62
7
  6
CONTINUOUS
 70
0
 71
3
 72
9
 73
5
 74
0
 42
0.0000001
 43
0.0000001
 44
0.0000000001
 40
0.0
 40
0.0
 40
0.0
 40
0.0
 40
0.5084713698
 40
1.0
 40
1.0
 40
1.0
 40
1.0
 10
121.4110071889
 20
139.3286416166
 30
0.0
 10
119.6993570408
 20
141.0513483172
 30
0.0
 10
116.2806367157
 20
144.3879580852
 30
0.0
 10
112.7398111022
 20
147.5949798938
 30
0.0
 10
110.9712823158
 20
149.1387740429
 30
0.0
  0
SPLINE
  5
55B
100
AcDbEntity
  8
0
100
AcDbSpline
 62
7
  6
CONTINUOUS
 70
0
 71
3
 72
9
 73
5
 74
0
 42
0.0000001
 43
0.0000001
 44
0.0000000001
 40
0.0
 40
0.0
 40
0.0
 40
0.0
 40
0.4915286319
 40
1.0
 40
1.0
 40
1.0
 40
1.0
 10
82.4494235455
 20
149.1387740429
 30
0.0
 10
80.6808947531
 20
147.5949798886
 30
0.0
 10
77.1400691398
 20
144.3879580797
 30
0.0
 10
73.7213488149
 20
141.0513483116
 30
0.0
 10
72.0096986724
 20
139.3286416166
 30
0.0
  0
SPLINE
  5
55C
100
AcDbEntity
  8
0
100
AcDbSpline
 62
7
  6
CONTINUOUS
 70
0
 71
3
 72
19
 73
15
 74
0
 42
0.0000001
 43
0.0000001
 44
0.0000000001
 40
0.0
 40
0.0
 40
0.0
 40
0.0
 40
0.0237268425
 40
0.0523195082
 40
0.086595418
 40
0.1271596469
 40
0.2289849212
 40
0.3610140866
 40
0.5251353723
 40
0.7169346066
 40
0.8137068621
 40
0.8972050483
 40
0.9586137806
 40
1.0
 40
1.0
 40
1.0
 40
1.0
 10
76.9735236446
 20
77.324098694
 30
0.0
 10
76.929083407
 20
77.3285530423
 30
0.0
 10
76.8323911308
 20
77.351544031
 30
0.0
 10
76.6824832786
 20
77.4168191618
 30
0.0
 10
76.5149591563
 20
77.5168557937
 30
0.0
 10
76.2469231955
 20
77.7143244128
 30
0.0
 10
75.8685371887
 20
78.0681933435
 30
0.0
 10
75.3727118114
 20
78.6307243262
 30
0.0
 10
74.8211468162
 20
79.3662355207
 30
0.0
 10
74.3618088112
 20
80.0854448664
 30
0.0
 10
74.0309834076
 20
80.7031828438
 30
0.0
 10
73.845713242
 20
81.1193962243
 30
0.0
 10
73.7380230148
 20
81.4539970471
 30
0.0
 10
73.7103529306
 20
81.647220451
 30
0.0
 10
73.7103529306
 20
81.725125009
 30
0.0
  0
SPLINE
  5
55D
100
AcDbEntity
  8
RUNDUNGEN
100
AcDbSpline
 62
7
  6
CONTINUOUS
 70
0
 71
3
 72
15
 73
11
 74
0
 42
0.0000001
 43
0.0000001
 44
0.0000000001
 40
0.0
 40
0.0
 40
0.0
 40
0.0
 40
0.1255878487
 40
0.2510677478
 40
0.3763760291
 40
0.501462475
 40
0.6263267329
 40
0.751001144
 40
0.8755325568
 40
1.0
 40
1.0
 40
1.0
 40
1.0
 10
113.7103529306
 20
115.3249325841
 30
0.0
 10
114.0995503909
 20
115.3249325735
 30
0.0
 10
114.8796401636
 20
115.2507267183
 30
0.0
 10
116.0053336887
 20
114.9203506153
 30
0.0
 10
117.046588105
 20
114.382079953
 30
0.0
 10
117.9631125171
 20
113.6543281252
 30
0.0
 10
118.7189402051
 20
112.7631575545
 30
0.0
 10
119.2830727764
 20
111.7414734136
 30
0.0
 10
119.6317265892
 20
110.6293176822
 30
0.0
 10
119.7103529306
 20
109.8553956112
 30
0.0
 10
119.7103529306
 20
109.4696702942
 30
0.0
  0
SPLINE
  5
55E
100
AcDbEntity
  8
BEZUGSACHSEN
100
AcDbSpline
 62
7
  6
CONTINUOUS
 70
0
 71
3
 72
15
 73
11
 74
0
 42
0.0000001
 43
0.0000001
 44
0.0000000001
 40
0.0
 40
0.0
 40
0.0
 40
0.0
 40
0.1213952628
 40
0.2449248391
 40
0.3714323782
 40
0.5
 40
0.6285676218
 40
0.7550751609
 40
0.8786047372
 40
1.0
 40
1.0
 40
1.0
 40
1.0
 10
80.1603529306
 20
95.3293670075
 30
0.0
 10
80.1603529306
 20
95.1149392446
 30
0.0
 10
80.2535737355
 20
94.6772008091
 30
0.0
 10
80.6469058634
 20
94.1307460419
 30
0.0
 10
81.2287891332
 20
93.7687411079
 30
0.0
 10
81.9103529306
 20
93.6426707402
 30
0.0
 10
82.5919167281
 20
93.7687411079
 30
0.0
 10
83.1737999979
 20
94.1307460419
 30
0.0
 10
83.5671321257
 20
94.6772008091
 30
0.0
 10
83.6603529306
 20
95.1149392446
 30
0.0
 10
83.6603529306
 20
95.3293670075
 30
0.0
  0
SPLINE
  5
55F
100
AcDbEntity
  8
RUNDUNGEN
100
AcDbSpline
 62
7
  6
CONTINUOUS
 70
0
 71
3
 72
15
 73
11
 74
0
 42
0.0000001
 43
0.0000001
 44
0.0000000001
 40
0.0
 40
0.0
 40
0.0
 40
0.0
 40
0.1255878439
 40
0.2510677444
 40
0.3763760262
 40
0.5014624727
 40
0.6263267312
 40
0.7510011429
 40
0.8755325563
 40
1.0
 40
1.0
 40
1.0
 40
1.0
 10
79.7103529306
 20
115.3249325841
 30
0.0
 10
79.3211554854
 20
115.3249325841
 30
0.0
 10
78.5410657239
 20
115.2507267156
 30
0.0
 10
77.4153722038
 20
114.9203506326
 30
0.0
 10
76.3741177786
 20
114.3820799679
 30
0.0
 10
75.4575933592
 20
113.6543281411
 30
0.0
 10
74.7017656652
 20
112.7631575679
 30
0.0
 10
74.137633089
 20
111.7414734235
 30
0.0
 10
73.7889792729
 20
110.6293176875
 30
0.0
 10
73.7103529306
 20
109.855395613
 30
0.0
 10
73.7103529306
 20
109.4696702942
 30
0.0
  0
SPLINE
  5
560
100
AcDbEntity
  8
BEZUGSACHSEN
100
AcDbSpline
 62
7
  6
CONTINUOUS
 70
0
 71
3
 72
15
 73
11
 74
0
 42
0.0000001
 43
0.0000001
 44
0.0000000001
 40
0.0
 40
0.0
 40
0.0
 40
0.0
 40
0.1324946438
 40
0.2607792945
 40
0.3850229015
 40
0.5063187138
 40
0.6265097101
 40
0.7477356648
 40
0.8718582955
 40
1.0
 40
1.0
 40
1.0
 40
1.0
 10
90.0988019637
 20
115.3238366536
 30
0.0
 10
89.2685420029
 20
115.7829372821
 30
0.0
 10
87.72702787
 20
116.8693252448
 30
0.0
 10
85.8753529107
 20
118.9438848648
 30
0.0
 10
84.5956782062
 20
121.3243932628
 30
0.0
 10
83.9396185318
 20
123.8867957236
 30
0.0
 10
83.9287866327
 20
126.5104442209
 30
0.0
 10
84.5639399012
 20
129.0770065725
 30
0.0
 10
85.8224837199
 20
131.4646124122
 30
0.0
 10
87.0279593866
 20
132.8354984868
 30
0.0
 10
87.7071274536
 20
133.4524779922
 30
0.0
  0
SPLINE
  5
561
100
AcDbEntity
  8
BEZUGSACHSEN
100
AcDbSpline
 62
7
  6
CONTINUOUS
 70
0
 71
3
 72
15
 73
11
 74
0
 42
0.0000001
 43
0.0000001
 44
0.0000000001
 40
0.0
 40
0.0
 40
0.0
 40
0.0
 40
0.1281434232
 40
0.2522670714
 40
0.3734933091
 40
0.4936839492
 40
0.6149790457
 40
0.7392219497
 40
0.8675059306
 40
1.0
 40
1.0
 40
1.0
 40
1.0
 10
105.7129659307
 20
133.4530348203
 30
0.0
 10
106.3922371625
 20
132.8360494893
 30
0.0
 10
107.5978958074
 20
131.4651132952
 30
0.0
 10
108.8566462416
 20
129.0773627055
 30
0.0
 10
109.4919164298
 20
126.5106159284
 30
0.0
 10
109.4810979536
 20
123.8867750434
 30
0.0
 10
108.8249692163
 20
121.3241977064
 30
0.0
 10
107.5451398151
 20
118.9435581622
 30
0.0
 10
105.693251996
 20
116.8689283296
 30
0.0
 10
104.1515723341
 20
115.7825442295
 30
0.0
 10
103.3212266979
 20
115.3234618066
 30
0.0
  0
SPLINE
  5
562
100
AcDbEntity
  8
0
100
AcDbSpline
 62
7
  6
CONTINUOUS
 70
0
 71
3
 72
19
 73
15
 74
0
 42
0.0000001
 43
0.0000001
 44
0.0000000001
 40
0.0
 40
0.0
 40
0.0
 40
0.0
 40
0.0413845863
 40
0.1027917772
 40
0.1862941174
 40
0.2830669635
 40
0.4748607947
 40
0.638980039
 40
0.7710098378
 40
0.8728360214
 40
0.9134008333
 40
0.9476777755
 40
0.9762718168
 40
1.0
 40
1.0
 40
1.0
 40
1.0
 10
119.7103529306
 20
81.725125009
 30
0.0
 10
119.7103529306
 20
81.6472242797
 30
0.0
 10
119.682685509
 20
81.4540086158
 30
0.0
 10
119.5749979412
 20
81.1194084956
 30
0.0
 10
119.3897287417
 20
80.7031928273
 30
0.0
 10
119.0589067216
 20
80.0854621308
 30
0.0
 10
118.5995820925
 20
79.366269504
 30
0.0
 10
118.0480331276
 20
78.6307735731
 30
0.0
 10
117.5522176907
 20
78.068244711
 30
0.0
 10
117.1738368644
 20
77.7143722432
 30
0.0
 10
116.905805369
 20
77.5168950905
 30
0.0
 10
116.7382817708
 20
77.4168505062
 30
0.0
 10
116.5883729662
 20
77.3515642217
 30
0.0
 10
116.491678929
 20
77.3285638103
 30
0.0
 10
116.4472371125
 20
77.3241042523
 30
0.0
  0
SPLINE
  5
563
100
AcDbEntity
  8
0
100
AcDbSpline
 62
7
  6
CONTINUOUS
 70
0
 71
3
 72
15
 73
11
 74
0
 42
0.0000001
 43
0.0000001
 44
0.0000000001
 40
0.0
 40
0.0
 40
0.0
 40
0.0
 40
0.1226305301
 40
0.2471039498
 40
0.3731213706
 40
0.5
 40
0.6268786294
 40
0.7528960502
 40
0.8773694699
 40
1.0
 40
1.0
 40
1.0
 40
1.0
 10
100.8821180035
 20
100.7352095762
 30
0.0
 10
100.6543006903
 20
101.0592425109
 30
0.0
 10
100.1096742557
 20
101.6560378544
 30
0.0
 10
99.0961389145
 20
102.3285231835
 30
0.0
 10
97.9397936575
 20
102.7487157248
 30
0.0
 10
96.7103529306
 20
102.8914088091
 30
0.0
 10
95.4809122038
 20
102.7487157248
 30
0.0
 10
94.3245669468
 20
102.3285231835
 30
0.0
 10
93.3110316056
 20
101.6560378544
 30
0.0
 10
92.766405171
 20
101.0592425109
 30
0.0
 10
92.5385878578
 20
100.7352095762
 30
0.0
  0
SPLINE
  5
564
100
AcDbEntity
  8
0
100
AcDbSpline
 62
7
  6
CONTINUOUS
 70
0
 71
3
 72
15
 73
11
 74
0
 42
0.0000001
 43
0.0000001
 44
0.0000000001
 40
0.0
 40
0.0
 40
0.0
 40
0.0
 40
0.0194664412
 40
0.0388449217
 40
0.0657812129
 40
0.1004908307
 40
0.1430608651
 40
0.2519027581
 40
0.5642144167
 40
1.0
 40
1.0
 40
1.0
 40
1.0
 10
80.8635060041
 20
77.3083268271
 30
0.0
 10
80.859010703
 20
77.3082958861
 30
0.0
 10
80.8540361456
 20
77.3197064412
 30
0.0
 10
80.8534104952
 20
77.3336676972
 30
0.0
 10
80.853396619
 20
77.3528655646
 30
0.0
 10
80.8554170783
 20
77.3766847071
 30
0.0
 10
80.8605469765
 20
77.4194474059
 30
0.0
 10
80.8783755758
 20
77.5250087647
 30
0.0
 10
80.9204919575
 20
77.7184939265
 30
0.0
 10
80.9617694041
 20
77.8862339436
 30
0.0
 10
80.9866314299
 20
77.9837510061
 30
0.0
  0
SPLINE
  5
565
100
AcDbEntity
  8
0
100
AcDbSpline
 62
7
  6
CONTINUOUS
 70
0
 71
3
 72
11
 73
7
 74
0
 42
0.0000001
 43
0.0000001
 44
0.0000000001
 40
0.0
 40
0.0
 40
0.0
 40
0.0
 40
0.2661516113
 40
0.5056865568
 40
0.7427066541
 40
1.0
 40
1.0
 40
1.0
 40
1.0
 10
116.4472371125
 20
77.3241042523
 30
0.0
 10
116.4114120019
 20
77.3205093461
 30
0.0
 10
116.3420169764
 20
77.3210837053
 30
0.0
 10
116.2448486461
 20
77.3531248948
 30
0.0
 10
116.1652353504
 20
77.4153864617
 30
0.0
 10
116.1268664422
 20
77.4712779971
 30
0.0
 10
116.1103529306
 20
77.5019179844
 30
0.0
  0
SPLINE
  5
566
100
AcDbEntity
  8
RUNDUNGEN
100
AcDbSpline
 62
7
  6
CONTINUOUS
 70
0
 71
3
 72
14
 73
10
 74
0
 42
0.0000001
 43
0.0000001
 44
0.0000000001
 40
0.0
 40
0.0
 40
0.0
 40
0.0
 40
0.0909423886
 40
0.1878748711
 40
0.2952153255
 40
0.4151663029
 40
0.5478761242
 40
0.6917874159
 40
1.0
 40
1.0
 40
1.0
 40
1.0
 10
119.7103529306
 20
104.7538560761
 30
0.0
 10
119.7103529306
 20
104.8923911651
 30
0.0
 10
119.6618177312
 20
105.1804135841
 30
0.0
 10
119.4520708698
 20
105.5847935761
 30
0.0
 10
119.1171512314
 20
105.9538882548
 30
0.0
 10
118.6697417275
 20
106.2764835912
 30
0.0
 10
118.1243718387
 20
106.5422980117
 30
0.0
 10
117.2733655416
 20
106.8129389808
 30
0.0
 10
116.5798617971
 20
106.891572156
 30
0.0
 10
116.1103529306
 20
106.891572156
 30
0.0
  0
SPLINE
  5
567
100
AcDbEntity
  8
KONSTRUKTIONSELEMENTE
100
AcDbSpline
 62
7
  6
CONTINUOUS
 70
0
 71
3
 72
9
 73
5
 74
0
 42
0.0000001
 43
0.0000001
 44
0.0000000001
 40
0.0
 40
0.0
 40
0.0
 40
0.0
 40
0.2524351593
 40
1.0
 40
1.0
 40
1.0
 40
1.0
 10
101.7103529306
 20
103.7639744577
 30
0.0
 10
102.0507720619
 20
103.7212138894
 30
0.0
 10
103.3969612103
 20
103.5338701539
 30
0.0
 10
104.7333402577
 20
103.2739787075
 30
0.0
 10
105.7208425786
 20
103.0348464979
 30
0.0
  0
SPLINE
  5
568
100
AcDbEntity
  8
KONSTRUKTIONSELEMENTE
100
AcDbSpline
 62
7
  6
CONTINUOUS
 70
0
 71
3
 72
9
 73
5
 74
0
 42
0.0000001
 43
0.0000001
 44
0.0000000001
 40
0.0
 40
0.0
 40
0.0
 40
0.0
 40
0.2473955566
 40
1.0
 40
1.0
 40
1.0
 40
1.0
 10
87.6998632827
 20
103.0348464979
 30
0.0
 10
88.0266661835
 20
103.1139846408
 30
0.0
 10
89.352456036
 20
103.4137732741
 30
0.0
 10
90.6954239728
 20
103.6364876774
 30
0.0
 10
91.7103529306
 20
103.7639744577
 30
0.0
  0
SPLINE
  5
569
100
AcDbEntity
  8
KONSTRUKTIONSELEMENTE
100
AcDbSpline
 62
7
  6
CONTINUOUS
 70
0
 71
3
 72
13
 73
9
 74
0
 42
0.0000001
 43
0.0000001
 44
0.0000000001
 40
0.0
 40
0.0
 40
0.0
 40
0.0
 40
0.122181644
 40
0.24500181
 40
0.3688015239
 40
0.4936051583
 40
0.7454804827
 40
1.0
 40
1.0
 40
1.0
 40
1.0
 10
84.7539708692
 20
99.1261010725
 30
0.0
 10
84.7539708692
 20
99.3339785223
 30
0.0
 10
84.8015037661
 20
99.7521840859
 30
0.0
 10
85.0033410729
 20
100.3503422818
 30
0.0
 10
85.3098152977
 20
100.9061565336
 30
0.0
 10
85.8250796057
 20
101.5868432132
 30
0.0
 10
86.6148824887
 20
102.3250917979
 30
0.0
 10
87.328723236
 20
102.8117457327
 30
0.0
 10
87.6998632827
 20
103.0348464979
 30
0.0
  0
SPLINE
  5
56A
100
AcDbEntity
  8
KONSTRUKTIONSELEMENTE
100
AcDbSpline
 62
7
  6
CONTINUOUS
 70
0
 71
3
 72
10
 73
6
 74
0
 42
0.0000001
 43
0.0000001
 44
0.0000000001
 40
0.0
 40
0.0
 40
0.0
 40
0.0
 40
0.5013638368
 40
0.7509730475
 40
1.0
 40
1.0
 40
1.0
 40
1.0
 10
84.0482541787
 20
92.8861661934
 30
0.0
 10
84.257652544
 20
93.30315946
 30
0.0
 10
84.5253392578
 20
93.9554284312
 30
0.0
 10
84.7201290447
 20
94.8677590505
 30
0.0
 10
84.7539708692
 20
95.332522126
 30
0.0
 10
84.7539708692
 20
95.5642901627
 30
0.0
  0
SPLINE
  5
56B
100
AcDbEntity
  8
KONSTRUKTIONSELEMENTE
100
AcDbSpline
 62
7
  6
CONTINUOUS
 70
0
 71
3
 72
10
 73
6
 74
0
 42
0.0000001
 43
0.0000001
 44
0.0000000001
 40
0.0
 40
0.0
 40
0.0
 40
0.0
 40
0.2490269525
 40
0.4986361632
 40
1.0
 40
1.0
 40
1.0
 40
1.0
 10
108.6667349921
 20
95.5642901627
 30
0.0
 10
108.6667349921
 20
95.332522126
 30
0.0
 10
108.7005768166
 20
94.8677590505
 30
0.0
 10
108.8953666035
 20
93.9554284312
 30
0.0
 10
109.1630533173
 20
93.30315946
 30
0.0
 10
109.3724516826
 20
92.8861661934
 30
0.0
  0
SPLINE
  5
56C
100
AcDbEntity
  8
KONSTRUKTIONSELEMENTE
100
AcDbSpline
 62
7
  6
CONTINUOUS
 70
0
 71
3
 72
13
 73
9
 74
0
 42
0.0000001
 43
0.0000001
 44
0.0000000001
 40
0.0
 40
0.0
 40
0.0
 40
0.0
 40
0.2545190314
 40
0.5063941405
 40
0.6311978139
 40
0.7549977108
 40
0.8778180576
 40
1.0
 40
1.0
 40
1.0
 40
1.0
 10
105.7208425786
 20
103.0348464979
 30
0.0
 10
106.0919819164
 20
102.8117461588
 30
0.0
 10
106.8058217077
 20
102.3250929704
 30
0.0
 10
107.5956240812
 20
101.5868455402
 30
0.0
 10
108.110888828
 20
100.9061591743
 30
0.0
 10
108.4173637155
 20
100.3503445165
 30
0.0
 10
108.619201986
 20
99.7521854384
 30
0.0
 10
108.6667349921
 20
99.3339790298
 30
0.0
 10
108.6667349921
 20
99.1261010725
 30
0.0
  0
SPLINE
  5
56D
100
AcDbEntity
  8
BEZUGSACHSEN
100
AcDbSpline
 62
7
  6
CONTINUOUS
 70
0
 71
3
 72
15
 73
11
 74
0
 42
0.0000001
 43
0.0000001
 44
0.0000000001
 40
0.0
 40
0.0
 40
0.0
 40
0.0
 40
0.1216995243
 40
0.245723491
 40
0.3721231683
 40
0.5
 40
0.6278768317
 40
0.754276509
 40
0.8783004757
 40
1.0
 40
1.0
 40
1.0
 40
1.0
 10
83.6007231267
 20
95.4814510846
 30
0.0
 10
83.5512406028
 20
95.6551214289
 30
0.0
 10
83.3884103785
 20
95.9907406945
 30
0.0
 10
82.9903446028
 20
96.3870091573
 30
0.0
 10
82.479653558
 20
96.6419236434
 30
0.0
 10
81.9103529306
 20
96.7296503212
 30
0.0
 10
81.3410523033
 20
96.6419236434
 30
0.0
 10
80.8303612585
 20
96.3870091573
 30
0.0
 10
80.4322954828
 20
95.9907406945
 30
0.0
 10
80.2694652585
 20
95.6551214289
 30
0.0
 10
80.2199827346
 20
95.4814510846
 30
0.0
  0
SPLINE
  5
56E
100
AcDbEntity
  8
KONSTRUKTIONSELEMENTE
100
AcDbSpline
 62
7
  6
CONTINUOUS
 70
0
 71
3
 72
17
 73
13
 74
0
 42
0.0000001
 43
0.0000001
 44
0.0000000001
 40
0.0
 40
0.0
 40
0.0
 40
0.0
 40
0.1477152607
 40
0.2992662022
 40
0.4500534519
 40
0.5945451454
 40
0.7268723906
 40
0.8414210333
 40
0.8905089351
 40
0.9334832632
 40
0.9700304448
 40
1.0
 40
1.0
 40
1.0
 40
1.0
 10
84.0482541787
 20
92.8861661934
 30
0.0
 10
83.7202512039
 20
92.2329852016
 30
0.0
 10
83.1227587837
 20
90.8754537769
 30
0.0
 10
82.3893696071
 20
88.7709733722
 30
0.0
 10
81.7988828474
 20
86.6388971563
 30
0.0
 10
81.3500495592
 20
84.570110597
 30
0.0
 10
81.0416677136
 20
82.6574436223
 30
0.0
 10
80.8920204856
 20
81.1993449744
 30
0.0
 10
80.8496454281
 20
80.1776036584
 30
0.0
 10
80.8548395379
 20
79.5408601713
 30
0.0
 10
80.8949668893
 20
79.0002050309
 30
0.0
 10
80.9499960443
 20
78.6746792969
 30
0.0
 10
80.9866314299
 20
78.5309832354
 30
0.0
  0
SPLINE
  5
56F
100
AcDbEntity
  8
KONSTRUKTIONSELEMENTE
100
AcDbSpline
 62
7
  6
CONTINUOUS
 70
0
 71
3
 72
17
 73
13
 74
0
 42
0.0000001
 43
0.0000001
 44
0.0000000001
 40
0.0
 40
0.0
 40
0.0
 40
0.0
 40
0.0299695552
 40
0.0665167368
 40
0.1094910649
 40
0.1585789667
 40
0.2731276094
 40
0.4054548546
 40
0.5499465481
 40
0.7007337978
 40
0.8522847393
 40
1.0
 40
1.0
 40
1.0
 40
1.0
 10
112.4340744314
 20
78.5309832354
 30
0.0
 10
112.470709817
 20
78.6746792969
 30
0.0
 10
112.525738972
 20
79.0002050309
 30
0.0
 10
112.5658663234
 20
79.5408601713
 30
0.0
 10
112.5710604332
 20
80.1776036584
 30
0.0
 10
112.5286853757
 20
81.1993449744
 30
0.0
 10
112.3790381477
 20
82.6574436223
 30
0.0
 10
112.0706563021
 20
84.570110597
 30
0.0
 10
111.6218230139
 20
86.6388971563
 30
0.0
 10
111.0313362542
 20
88.7709733722
 30
0.0
 10
110.2979470776
 20
90.8754537769
 30
0.0
 10
109.7004546574
 20
92.2329852016
 30
0.0
 10
109.3724516826
 20
92.8861661934
 30
0.0
  0
SPLINE
  5
570
100
AcDbEntity
  8
0
100
AcDbSpline
 62
7
  6
CONTINUOUS
 70
0
 71
3
 72
11
 73
7
 74
0
 42
0.0000001
 43
0.0000001
 44
0.0000000001
 40
0.0
 40
0.0
 40
0.0
 40
0.0
 40
0.2572991638
 40
0.4943248619
 40
0.7338594171
 40
1.0
 40
1.0
 40
1.0
 40
1.0
 10
77.3103529219
 20
77.5019179765
 30
0.0
 10
77.2938412633
 20
77.4712814272
 30
0.0
 10
77.2554774338
 20
77.4153959103
 30
0.0
 10
77.1758776955
 20
77.3531375077
 30
0.0
 10
77.0787268693
 20
77.3210909998
 30
0.0
 10
77.0093428456
 20
77.3205084523
 30
0.0
 10
76.9735236446
 20
77.324098694
 30
0.0
  0
SPLINE
  5
571
100
AcDbEntity
  8
RUNDUNGEN
100
AcDbSpline
 62
7
  6
CONTINUOUS
 70
0
 71
3
 72
32
 73
28
 74
0
 42
0.0000001
 43
0.0000001
 44
0.0000000001
 40
0.0
 40
0.0
 40
0.0
 40
0.0
 40
0.0950867452
 40
0.210371735
 40
0.2754097743
 40
0.3451802002
 40
0.4194347785
 40
0.4977980664
 40
0.5796772612
 40
0.6640988919
 40
0.706777041
 40
0.7493426547
 40
0.7913388057
 40
0.8320652019
 40
0.8705136692
 40
0.9052461236
 40
0.9206374098
 40
0.9343860714
 40
0.9462662988
 40
0.956111667
 40
0.9639184543
 40
0.9698246583
 40
0.9742898293
 40
0.9781251048
 40
0.9822611633
 40
0.9872255118
 40
1.0
 40
1.0
 40
1.0
 40
1.0
 10
77.3103529219
 20
79.2913411845
 30
0.0
 10
77.2590376363
 20
79.5432710416
 30
0.0
 10
77.1138260217
 20
80.094155855
 30
0.0
 10
76.8734106481
 20
80.7993743836
 30
0.0
 10
76.6291564327
 20
81.4300178321
 30
0.0
 10
76.4110053613
 20
81.9515803724
 30
0.0
 10
76.1650800619
 20
82.5003676891
 30
0.0
 10
75.8916092152
 20
83.072484531
 30
0.0
 10
75.5914676893
 20
83.66209735
 30
0.0
 10
75.3218010893
 20
84.1587471336
 30
0.0
 10
75.0937620173
 20
84.556829654
 30
0.0
 10
74.9176560194
 20
84.8524045495
 30
0.0
 10
74.7386001842
 20
85.1400090038
 30
0.0
 10
74.5589304245
 20
85.4140309366
 30
0.0
 10
74.382433693
 20
85.6664915032
 30
0.0
 10
74.237409042
 20
85.8572287039
 30
0.0
 10
74.1263512281
 20
85.9895367139
 30
0.0
 10
74.0515582071
 20
86.0714891838
 30
0.0
 10
73.9830946773
 20
86.138770715
 30
0.0
 10
73.9218060397
 20
86.1901170934
 30
0.0
 10
73.8684009775
 20
86.2252751507
 30
0.0
 10
73.8227080897
 20
86.2443696603
 30
0.0
 10
73.7831440169
 20
86.2473864574
 30
0.0
 10
73.7514926871
 20
86.2318562453
 30
0.0
 10
73.7309900957
 20
86.2023028646
 30
0.0
 10
73.7126716309
 20
86.145690443
 30
0.0
 10
73.7103529306
 20
86.0970784408
 30
0.0
 10
73.7103529306
 20
86.0625377885
 30
0.0
  0
SPLINE
  5
572
100
AcDbEntity
  8
RUNDUNGEN
100
AcDbSpline
 62
7
  6
CONTINUOUS
 70
0
 71
3
 72
32
 73
28
 74
0
 42
0.0000001
 43
0.0000001
 44
0.0000000001
 40
0.0
 40
0.0
 40
0.0
 40
0.0
 40
0.0127743506
 40
0.0177387208
 40
0.0218747314
 40
0.0257100633
 40
0.0301752344
 40
0.036081816
 40
0.0438900911
 40
0.0537362724
 40
0.065617093
 40
0.0793676122
 40
0.094759632
 40
0.1294926427
 40
0.1679403241
 40
0.2086671862
 40
0.2506626467
 40
0.2932279602
 40
0.3359058094
 40
0.4203272112
 40
0.5022062752
 40
0.5805689768
 40
0.6548224616
 40
0.7245915622
 40
0.7896289449
 40
0.9049134644
 40
1.0
 40
1.0
 40
1.0
 40
1.0
 10
119.7103529306
 20
86.0625377885
 30
0.0
 10
119.7103529306
 20
86.0970780673
 30
0.0
 10
119.708033406
 20
86.1456896644
 30
0.0
 10
119.6897164215
 20
86.2023017906
 30
0.0
 10
119.6692146248
 20
86.2318562876
 30
0.0
 10
119.6375626613
 20
86.2473848823
 30
0.0
 10
119.5979975418
 20
86.2443712986
 30
0.0
 10
119.5522999345
 20
86.2252728313
 30
0.0
 10
119.498892376
 20
86.1901059399
 30
0.0
 10
119.4375957228
 20
86.13875721
 30
0.0
 10
119.3691261192
 20
86.0714689343
 30
0.0
 10
119.2943319402
 20
85.989505979
 30
0.0
 10
119.1832651266
 20
85.8571944854
 30
0.0
 10
119.0382458945
 20
85.6664512294
 30
0.0
 10
118.861747367
 20
85.4139913598
 30
0.0
 10
118.6820815155
 20
85.1399700592
 30
0.0
 10
118.5030267336
 20
84.852366682
 30
0.0
 10
118.326923202
 20
84.5567943823
 30
0.0
 10
118.0988862519
 20
84.1587132596
 30
0.0
 10
117.8292211167
 20
83.6620647428
 30
0.0
 10
117.5290815123
 20
83.0724538492
 30
0.0
 10
117.255613375
 20
82.5003411683
 30
0.0
 10
117.0096922908
 20
81.9515608988
 30
0.0
 10
116.7915447295
 20
81.4300059375
 30
0.0
 10
116.5472931844
 20
80.7993685983
 30
0.0
 10
116.3068791598
 20
80.0941534671
 30
0.0
 10
116.1616681008
 20
79.5432704405
 30
0.0
 10
116.1103529306
 20
79.2913411499
 30
0.0
  0
SPLINE
  5
573
100
AcDbEntity
  8
0
100
AcDbSpline
 62
7
  6
CONTINUOUS
 70
0
 71
3
 72
9
 73
5
 74
0
 42
0.0000001
 43
0.0000001
 44
0.0000000001
 40
0.0
 40
0.0
 40
0.0
 40
0.0
 40
0.5
 40
1.0
 40
1.0
 40
1.0
 40
1.0
 10
112.4340744314
 20
78.5309832354
 30
0.0
 10
112.4113591488
 20
78.4418864071
 30
0.0
 10
112.3868674248
 20
78.2573671207
 30
0.0
 10
112.4113591488
 20
78.0728478343
 30
0.0
 10
112.4340744314
 20
77.9837510061
 30
0.0
  0
SPLINE
  5
574
100
AcDbEntity
  8
0
100
AcDbSpline
 62
7
  6
CONTINUOUS
 70
0
 71
3
 72
9
 73
5
 74
0
 42
0.0000001
 43
0.0000001
 44
0.0000000001
 40
0.0
 40
0.0
 40
0.0
 40
0.0
 40
0.5
 40
1.0
 40
1.0
 40
1.0
 40
1.0
 10
80.9866314299
 20
77.9837510061
 30
0.0
 10
81.0093467125
 20
78.0728478343
 30
0.0
 10
81.0338384365
 20
78.2573671207
 30
0.0
 10
81.0093467125
 20
78.4418864071
 30
0.0
 10
80.9866314299
 20
78.5309832354
 30
0.0
  0
SPLINE
  5
575
100
AcDbEntity
  8
RUNDUNGEN
100
AcDbSpline
 62
7
  6
CONTINUOUS
 70
0
 71
3
 72
14
 73
10
 74
0
 42
0.0000001
 43
0.0000001
 44
0.0000000001
 40
0.0
 40
0.0
 40
0.0
 40
0.0
 40
0.3082125841
 40
0.4521238758
 40
0.5848336971
 40
0.7047846745
 40
0.8121251289
 40
0.9090576114
 40
1.0
 40
1.0
 40
1.0
 40
1.0
 10
77.3103529306
 20
103.0348464979
 30
0.0
 10
76.8408440642
 20
103.0348464979
 30
0.0
 10
76.1473403197
 20
102.9562133227
 30
0.0
 10
75.2963340226
 20
102.6855723536
 30
0.0
 10
74.7509641338
 20
102.4197579331
 30
0.0
 10
74.3035546299
 20
102.0971625967
 30
0.0
 10
73.9686349915
 20
101.728067918
 30
0.0
 10
73.7588881301
 20
101.323687926
 30
0.0
 10
73.7103529306
 20
101.035665507
 30
0.0
 10
73.7103529306
 20
100.897130418
 30
0.0
  0
SPLINE
  5
576
100
AcDbEntity
  8
RUNDUNGEN
100
AcDbSpline
 62
7
  6
CONTINUOUS
 70
0
 71
3
 72
14
 73
10
 74
0
 42
0.0000001
 43
0.0000001
 44
0.0000000001
 40
0.0
 40
0.0
 40
0.0
 40
0.0
 40
0.0909423886
 40
0.1878748711
 40
0.2952153255
 40
0.4151663029
 40
0.5478761242
 40
0.6917874159
 40
1.0
 40
1.0
 40
1.0
 40
1.0
 10
73.7103529306
 20
104.7538560761
 30
0.0
 10
73.7103529306
 20
104.8923911651
 30
0.0
 10
73.7588881301
 20
105.1804135841
 30
0.0
 10
73.9686349915
 20
105.5847935761
 30
0.0
 10
74.3035546299
 20
105.9538882548
 30
0.0
 10
74.7509641338
 20
106.2764835912
 30
0.0
 10
75.2963340226
 20
106.5422980117
 30
0.0
 10
76.1473403197
 20
106.8129389808
 30
0.0
 10
76.8408440642
 20
106.891572156
 30
0.0
 10
77.3103529306
 20
106.891572156
 30
0.0
  0
SPLINE
  5
577
100
AcDbEntity
  8
RUNDUNGEN
100
AcDbSpline
 62
7
  6
CONTINUOUS
 70
0
 71
3
 72
14
 73
10
 74
0
 42
0.0000001
 43
0.0000001
 44
0.0000000001
 40
0.0
 40
0.0
 40
0.0
 40
0.0
 40
0.0909423886
 40
0.1878748711
 40
0.2952153255
 40
0.4151663029
 40
0.5478761242
 40
0.6917874159
 40
1.0
 40
1.0
 40
1.0
 40
1.0
 10
119.7103529306
 20
100.897130418
 30
0.0
 10
119.7103529306
 20
101.035665507
 30
0.0
 10
119.6618177312
 20
101.323687926
 30
0.0
 10
119.4520708698
 20
101.728067918
 30
0.0
 10
119.1171512314
 20
102.0971625967
 30
0.0
 10
118.6697417275
 20
102.4197579331
 30
0.0
 10
118.1243718387
 20
102.6855723536
 30
0.0
 10
117.2733655416
 20
102.9562133227
 30
0.0
 10
116.5798617971
 20
103.0348464979
 30
0.0
 10
116.1103529306
 20
103.0348464979
 30
0.0
  0
SPLINE
  5
578
100
AcDbEntity
  8
BEZUGSACHSEN
100
AcDbSpline
 62
7
  6
CONTINUOUS
 70
0
 71
3
 72
15
 73
11
 74
0
 42
0.0000001
 43
0.0000001
 44
0.0000000001
 40
0.0
 40
0.0
 40
0.0
 40
0.0
 40
0.1213952628
 40
0.2449248391
 40
0.3714323782
 40
0.5
 40
0.6285676218
 40
0.7550751609
 40
0.8786047372
 40
1.0
 40
1.0
 40
1.0
 40
1.0
 10
83.6603529306
 20
95.3293670075
 30
0.0
 10
83.6603529306
 20
95.5437947704
 30
0.0
 10
83.5671321257
 20
95.9815332058
 30
0.0
 10
83.1737999979
 20
96.5279879731
 30
0.0
 10
82.5919167281
 20
96.8899929071
 30
0.0
 10
81.9103529306
 20
97.0160632747
 30
0.0
 10
81.2287891332
 20
96.8899929071
 30
0.0
 10
80.6469058634
 20
96.5279879731
 30
0.0
 10
80.2535737355
 20
95.9815332058
 30
0.0
 10
80.1603529306
 20
95.5437947704
 30
0.0
 10
80.1603529306
 20
95.3293670075
 30
0.0
  0
SPLINE
  5
579
100
AcDbEntity
  8
0
100
AcDbSpline
 62
7
  6
CONTINUOUS
 70
0
 71
3
 72
15
 73
11
 74
0
 42
0.0000001
 43
0.0000001
 44
0.0000000001
 40
0.0
 40
0.0
 40
0.0
 40
0.0
 40
0.4357855833
 40
0.7480972419
 40
0.8569391349
 40
0.8995091693
 40
0.9342187871
 40
0.9611550783
 40
0.9805335588
 40
1.0
 40
1.0
 40
1.0
 40
1.0
 10
112.4340744314
 20
77.9837510061
 30
0.0
 10
112.4589364572
 20
77.8862339436
 30
0.0
 10
112.5002139038
 20
77.7184939265
 30
0.0
 10
112.5423302855
 20
77.5250087647
 30
0.0
 10
112.5601588848
 20
77.4194474059
 30
0.0
 10
112.565288783
 20
77.3766847071
 30
0.0
 10
112.5673092423
 20
77.3528655646
 30
0.0
 10
112.5672953661
 20
77.3336676972
 30
0.0
 10
112.5666697157
 20
77.3197064412
 30
0.0
 10
112.5616951582
 20
77.3082958861
 30
0.0
 10
112.5571998572
 20
77.3083268271
 30
0.0
  0
SPLINE
  5
57A
100
AcDbEntity
  8
KONSTRUKTIONSELEMENTE
100
AcDbSpline
 62
7
  6
CONTINUOUS
 70
0
 71
3
 72
15
 73
11
 74
0
 42
0.0000001
 43
0.0000001
 44
0.0000000001
 40
0.0
 40
0.0
 40
0.0
 40
0.0
 40
0.1226305301
 40
0.2471039498
 40
0.3731213706
 40
0.5
 40
0.6268786294
 40
0.7528960502
 40
0.8773694699
 40
1.0
 40
1.0
 40
1.0
 40
1.0
 10
100.8821180035
 20
106.891572156
 30
0.0
 10
100.6543006903
 20
107.2156050907
 30
0.0
 10
100.1096742557
 20
107.8124004342
 30
0.0
 10
99.0961389145
 20
108.4848857634
 30
0.0
 10
97.9397936575
 20
108.9050783046
 30
0.0
 10
96.7103529306
 20
109.0477713889
 30
0.0
 10
95.4809122038
 20
108.9050783046
 30
0.0
 10
94.3245669468
 20
108.4848857634
 30
0.0
 10
93.3110316056
 20
107.8124004342
 30
0.0
 10
92.766405171
 20
107.2156050907
 30
0.0
 10
92.5385878578
 20
106.891572156
 30
0.0
  0
ELLIPSE
  5
57B
100
AcDbEntity
  8
0
100
AcDbEllipse
 62
7
  6
CONTINUOUS
 10
376.3058855466
 20
105.5251972867
 30
0.0
 11
-2.9620370247
 21
5.2849982252
 31
0.0
 40
0.5096845585
 41
-1.6537856735
 42
-0.5409540901
  0
ELLIPSE
  5
57C
100
AcDbEntity
  8
RUNDUNGEN
100
AcDbEllipse
 62
7
  6
CONTINUOUS
 10
387.831906282
 20
109.7203257539
 30
0.0
 11
-1.1280793733
 21
5.9525042212
 31
0.0
 40
0.5096845585
 41
0.5409540901
 42
1.6537856735
  0
ELLIPSE
  5
57D
100
AcDbEntity
  8
0
100
AcDbEllipse
 62
7
  6
CONTINUOUS
 10
348.9818690937
 20
105.5251972867
 30
0.0
 11
2.9620370247
 21
5.2849982252
 31
0.0
 40
0.5096845585
 41
0.5409540901
 42
1.6537856735
  0
ELLIPSE
  5
57E
100
AcDbEntity
  8
RUNDUNGEN
100
AcDbEllipse
 62
7
  6
CONTINUOUS
 10
337.4558483583
 20
109.7203257539
 30
0.0
 11
1.1280793733
 21
5.9525042212
 31
0.0
 40
0.5096845585
 41
-1.6537856735
 42
-0.5409540901
  0
ELLIPSE
  5
57F
100
AcDbEntity
  8
0
100
AcDbEllipse
 62
7
  6
CONTINUOUS
 10
96.7103529306
 20
97.6010286821
 30
0.0
 11
0.0
 21
5.685790213
 31
0.0
 40
0.8793852416
 41
4.7123890318
 42
5.2962272779
  0
ELLIPSE
  5
580
100
AcDbEntity
  8
0
100
AcDbEllipse
 62
7
  6
CONTINUOUS
 10
96.7103529306
 20
97.6010286821
 30
0.0
 11
0.0
 21
5.685790213
 31
0.0
 40
0.8793852416
 41
7.2701433365
 42
7.853981634
  0
ELLIPSE
  5
581
100
AcDbEntity
  8
KONSTRUKTIONSELEMENTE
100
AcDbEllipse
 62
7
  6
CONTINUOUS
 10
96.7103529306
 20
104.8458808634
 30
0.0
 11
5.0
 21
-0.0
 31
0.0
 40
0.742227199
 41
0.0000000515
 42
0.5838382975
  0
ELLIPSE
  5
582
100
AcDbEntity
  8
KONSTRUKTIONSELEMENTE
100
AcDbEllipse
 62
7
  6
CONTINUOUS
 10
96.7103529306
 20
104.8458808634
 30
0.0
 11
5.0
 21
0.0
 31
0.0
 40
0.742227199
 41
2.5577543561
 42
3.1415926536
  0
ELLIPSE
  5
583
100
AcDbEntity
  8
0
100
AcDbEllipse
 62
7
  6
CONTINUOUS
 10
70.5092452383
 20
88.5083083589
 30
0.0
 11
-6.6680060276
 21
11.1513440306
 31
0.0
 40
0.1563953738
 41
-3.0486314562
 42
-2.8857730588
  0
ELLIPSE
  5
584
100
AcDbEntity
  8
RUNDUNGEN
100
AcDbEllipse
 62
7
  6
CONTINUOUS
 10
70.5092452383
 20
89.0555405882
 30
0.0
 11
-6.6680060276
 21
11.1513440306
 31
0.0
 40
0.1563953738
 41
-2.8857730588
 42
-2.7229146615
  0
ELLIPSE
  5
585
100
AcDbEntity
  8
0
100
AcDbEllipse
 62
7
  6
CONTINUOUS
 10
122.911460623
 20
88.5083083589
 30
0.0
 11
6.6680060276
 21
11.1513440306
 31
0.0
 40
0.1563953738
 41
-3.3974122484
 42
-3.2345538567
  0
ELLIPSE
  5
586
100
AcDbEntity
  8
RUNDUNGEN
100
AcDbEllipse
 62
7
  6
CONTINUOUS
 10
122.911460623
 20
89.0555405882
 30
0.0
 11
6.6680060276
 21
11.1513440306
 31
0.0
 40
0.1563953738
 41
-3.56027064
 42
-3.3974122484
  0
ENDSEC
  0
SECTION
  2
OBJECTS
  0
DICTIONARY
  5
C
100
AcDbDictionary
280
0
281
1
  3
ACAD_GROUP
350
D
  3
ACAD_MLINESTYLE
350
17
  3
ACAD_LAYOUT
350
1A
  3
ACAD_PLOTSETTINGS
350
19
  3
ACAD_PLOTSTYLENAME
350
E
  0
DICTIONARY
  5
D
102
{ACAD_REACTORS
330
C
102
}
100
AcDbDictionary
280
0
281
1
  0
ACDBDICTIONARYWDFLT
  5
E
102
{ACAD_REACTORS
330
C
102
}
100
AcDbDictionary
281
1
  3
Normal
350
F
100
AcDbDictionaryWithDefault
340
F
  0
DICTIONARY
  5
17
102
{ACAD_REACTORS
330
C
102
}
100
AcDbDictionary
280
0
281
1
  3
Standard
350
18
  0
DICTIONARY
  5
19
102
{ACAD_REACTORS
330
C
102
}
100
AcDbDictionary
281
1
  0
DICTIONARY
  5
1A
102
{ACAD_REACTORS
330
C
102
}
100
AcDbDictionary
281
1
  3
Model
350
587
  3
Layout1
350
588
  0
ACDBPLACEHOLDER
  5
F
102
{ACAD_REACTORS
330
E
102
}
  0
MLINESTYLE
  5
18
102
{ACAD_REACTORS
330
17
102
}
100
AcDbMlineStyle
  2
STANDARD
 70
0
  3

 62
256
 51
90.0
 52
90.0
 71
2
 49
0.5
 62
256
  6
BYLAYER
 49
-0.5
 62
256
  6
BYLAYER
  0
LAYOUT
  5
587
102
{ACAD_REACTORS
330
1A
102
}
100
AcDbPlotSettings
  1

  2
none_device
  4
ISO_A3_(420.00_x_297.00_MM)
  6

 40
0.0
 41
0.0
 42
0.0
 43
0.0
 44
420.0
 45
297.0
 46
0.0
 47
0.0
 48
0.0
 49
0.0
140
0.0
141
0.0
142
1.0
143
1.0
 70
1024
 72
1
 73
0
 74
0
  7

 75
0
147
1.0
148
0.0
149
0.0
100
AcDbLayout
  1
Model
 70
0
 71
0
 10
0.0
 20
0.0
 11
420.0
 21
297.0
 12
0.0
 22
0.0
 32
0.0
 14
0.0
 24
0.0
 34
0.0
 15
0.0
 25
0.0
 35
0.0
146
0.0
 13
0.0
 23
0.0
 33
0.0
 16
1.0
 26
0.0
 36
0.0
 17
0.0
 27
1.0
 37
0.0
 76
0
330
20A
345
0
346
0
  0
LAYOUT
  5
588
102
{ACAD_REACTORS
330
1A
102
}
100
AcDbPlotSettings
  1

  2
none_device
  4
ISO_A3_(420.00_x_297.00_MM)
  6

 40
0.0
 41
0.0
 42
0.0
 43
0.0
 44
420.0
 45
297.0
 46
0.0
 47
0.0
 48
0.0
 49
0.0
140
0.0
141
0.0
142
1.0
143
1.0
 70
0
 72
1
 73
0
 74
0
  7

 75
0
147
1.0
148
0.0
149
0.0
100
AcDbLayout
  1
Layout1
 70
0
 71
1
 10
0.0
 20
0.0
 11
420.0
 21
297.0
 12
0.0
 22
0.0
 32
0.0
 14
0.0
 24
0.0
 34
0.0
 15
0.0
 25
0.0
 35
0.0
146
0.0
 13
0.0
 23
0.0
 33
0.0
 16
1.0
 26
0.0
 36
0.0
 17
0.0
 27
1.0
 37
0.0
 76
0
330
20B
345
0
346
0
  0
ENDSEC
  0
EOF
