999
DXF file: IBK-RG-2-6_7903075_M34553-P-1.dxf
999
Pro/ENGINEER 2010140 by Parametric Technology Corporation
  0
SECTION
  2
HEADER
  9
$ACADVER
  1
AC1015
  9
$DWGCODEPAGE
  3
ANSI_1252
  9
$EXTMAX
 10
420.0
 20
297.0
 30
0.0
  9
$EXTMIN
 10
0.0
 20
0.0
 30
0.0
  9
$LIMMIN
 10
0.0
 20
0.0
  9
$LIMMAX
 10
420.0
 20
297.0
  9
$VIEWCTR
 10
210.0
 20
148.5
  9
$VIEWSIZE
 40
297.0
  9
$CLAYER
  8
0
  9
$LTSCALE
 40
23.1
  9
$CELTYPE
  6
BYLAYER
  9
$DIMSCALE
 40
1.0
  9
$DIMASZ
 40
3.5
  9
$DIMEXO
 40
2.625
  9
$DIMDLI
 40
15.96
  9
$DIMEXE
 40
7.56
  9
$DIMCEN
 40
3.78
  9
$DIMLFAC
 40
1.0
  9
$DIMBLK
  1
_FILLED
  9
$DIMTXT
 40
3.5
  9
$DIMTOL
 70
1
  9
$DIMLIM
 70
0
  9
$DIMTFAC
 40
1.0
  9
$DIMTP
 40
0.005
  9
$DIMTM
 40
0.005
  9
$PDMODE
 70
3
  9
$PDSIZE
 40
0.3125
  9
$HANDSEED
  5
584
  9
$TILEMODE
 70
1
  9
$MEASUREMENT
 70
1
  9
$INSUNITS
 70
4
  0
ENDSEC
  0
SECTION
  2
CLASSES
  0
CLASS
  1
ACDBDICTIONARYWDFLT
  2
AcDbDictionaryWithDefault
  3
AutoCAD 2000
 90
0
280
0
281
0
  0
CLASS
  1
ACDBPLACEHOLDER
  2
AcDbPlaceHolder
  3
AutoCAD 2000
 90
0
280
0
281
0
  0
CLASS
  1
LAYOUT
  2
AcDbLayout
  3
AutoCAD 2000
 90
0
280
0
281
0
  0
ENDSEC
  0
SECTION
  2
TABLES
  0
TABLE
  2
VPORT
  5
8
100
AcDbSymbolTable
 70
2
  0
VPORT
  5
1F4
100
AcDbSymbolTableRecord
100
AcDbViewportTableRecord
  2
*ACTIVE
 70
0
 10
0.0
 20
0.0
 11
1.0
 21
1.0
 12
210.0
 22
148.5
 13
0.0
 23
0.0
 14
1.0
 24
1.0
 15
0.0
 25
0.0
 16
0.0
 26
0.0
 36
1.0
 17
0.0
 27
0.0
 37
0.0
 40
297.0
 41
1.4141414141
 42
50.0
 43
0.0
 44
0.0
 50
0.0
 51
0.0
 71
0
 72
100
 73
1
 74
1
 75
0
 76
0
 77
0
 78
0
  0
ENDTAB
  0
TABLE
  2
LTYPE
  5
5
100
AcDbSymbolTable
 70
6
  0
LTYPE
  5
14
100
AcDbSymbolTableRecord
100
AcDbLinetypeTableRecord
  2
BYBLOCK
 70
0
  3

 72
65
 73
0
 40
0.0
  0
LTYPE
  5
15
100
AcDbSymbolTableRecord
100
AcDbLinetypeTableRecord
  2
BYLAYER
 70
0
  3

 72
65
 73
0
 40
0.0
  0
LTYPE
  5
16
100
AcDbSymbolTableRecord
100
AcDbLinetypeTableRecord
  2
CONTINUOUS
 70
64
  3
Solid line
 72
65
 73
0
 40
0.0
  0
LTYPE
  5
1F5
100
AcDbSymbolTableRecord
100
AcDbLinetypeTableRecord
  2
CENTER
 70
64
  3
____ _ ____ _ ____ _ ____ _ ____ _ ____ _ ____
 72
65
 73
4
 40
0.6
 49
0.375
 74
0
 49
-0.075
 74
0
 49
0.075
 74
0
 49
-0.075
 74
0
  0
LTYPE
  5
1F6
100
AcDbSymbolTableRecord
100
AcDbLinetypeTableRecord
  2
HIDDEN
 70
64
  3
- - - - - - - - - - - - - - - - - - - -
 72
65
 73
2
 40
0.2
 49
0.1
 74
0
 49
-0.1
 74
0
  0
LTYPE
  5
1F7
100
AcDbSymbolTableRecord
100
AcDbLinetypeTableRecord
  2
PHANTOM
 70
64
  3
_____ _ _ _____ _ _ _____ _ _ _____
 72
65
 73
6
 40
0.8
 49
0.45
 74
0
 49
-0.05
 74
0
 49
0.1
 74
0
 49
-0.05
 74
0
 49
0.1
 74
0
 49
-0.05
 74
0
  0
LTYPE
  5
1F8
100
AcDbSymbolTableRecord
100
AcDbLinetypeTableRecord
  2
DOT
 70
64
  3
. . . . . . . . . . . . . . . . . . . .
 72
65
 73
2
 40
0.2
 49
0.1
 74
0
 49
-0.1
 74
0
  0
LTYPE
  5
1F9
100
AcDbSymbolTableRecord
100
AcDbLinetypeTableRecord
  2
DASHED
 70
64
  3
- - - - - - - - - - - - - - - - - - - -
 72
65
 73
2
 40
0.2
 49
0.1
 74
0
 49
-0.1
 74
0
  0
ENDTAB
  0
TABLE
  2
LAYER
  5
2
100
AcDbSymbolTable
 70
36
  0
LAYER
  5
10
100
AcDbSymbolTableRecord
100
AcDbLayerTableRecord
  2
0
 70
0
 62
7
  6
CONTINUOUS
370
-3
390
F
  0
LAYER
  5
1FA
100
AcDbSymbolTableRecord
100
AcDbLayerTableRecord
  2
DEFAULT_1
 70
0
 62
7
  6
CENTER
370
-3
390
F
  0
LAYER
  5
1FB
100
AcDbSymbolTableRecord
100
AcDbLayerTableRecord
  2
DEFAULT_2
 70
0
 62
8
  6
HIDDEN
370
-3
390
F
  0
LAYER
  5
1FC
100
AcDbSymbolTableRecord
100
AcDbLayerTableRecord
  2
DEFAULT_3
 70
0
 62
7
  6
PHANTOM
370
-3
390
F
  0
LAYER
  5
1FD
100
AcDbSymbolTableRecord
100
AcDbLayerTableRecord
  2
BEZUGSACHSEN
 70
0
 62
7
  6
CONTINUOUS
370
-3
390
F
  0
LAYER
  5
1FE
100
AcDbSymbolTableRecord
100
AcDbLayerTableRecord
  2
BEZUGSEBENEN
 70
0
 62
7
  6
CONTINUOUS
370
-3
390
F
  0
LAYER
  5
1FF
100
AcDbSymbolTableRecord
100
AcDbLayerTableRecord
  2
BG_STARTBEZUEGE
 70
0
 62
7
  6
CONTINUOUS
370
-3
390
F
  0
LAYER
  5
200
100
AcDbSymbolTableRecord
100
AcDbLayerTableRecord
  2
FASEN
 70
0
 62
7
  6
CONTINUOUS
370
-3
390
F
  0
LAYER
  5
201
100
AcDbSymbolTableRecord
100
AcDbLayerTableRecord
  2
HILFEN
 70
0
 62
7
  6
CONTINUOUS
370
-3
390
F
  0
LAYER
  5
202
100
AcDbSymbolTableRecord
100
AcDbLayerTableRecord
  2
KONSTRUKTIONSELEMENTE
 70
0
 62
7
  6
CONTINUOUS
370
-3
390
F
  0
LAYER
  5
203
100
AcDbSymbolTableRecord
100
AcDbLayerTableRecord
  2
NORM
 70
0
 62
7
  6
CONTINUOUS
370
-3
390
F
  0
LAYER
  5
204
100
AcDbSymbolTableRecord
100
AcDbLayerTableRecord
  2
PLATZIERUNG
 70
0
 62
7
  6
CONTINUOUS
370
-3
390
F
  0
LAYER
  5
205
100
AcDbSymbolTableRecord
100
AcDbLayerTableRecord
  2
RUNDUNGEN
 70
0
 62
7
  6
CONTINUOUS
370
-3
390
F
  0
LAYER
  5
206
100
AcDbSymbolTableRecord
100
AcDbLayerTableRecord
  2
TEIL_STARTBEZUEGE
 70
0
 62
7
  6
CONTINUOUS
370
-3
390
F
  0
LAYER
  5
207
100
AcDbSymbolTableRecord
100
AcDbLayerTableRecord
  2
T_STARTBEZUEGE
 70
0
 62
7
  6
CONTINUOUS
370
-3
390
F
  0
ENDTAB
  0
TABLE
  2
STYLE
  5
3
100
AcDbSymbolTable
 70
1
  0
STYLE
  5
11
100
AcDbSymbolTableRecord
100
AcDbTextStyleTableRecord
  2
STANDARD
 70
0
 40
0.0
 41
0.7
 50
0.0
 71
0
 42
0.2
  3
txt
  4

  0
STYLE
  5
208
100
AcDbSymbolTableRecord
100
AcDbTextStyleTableRecord
  2
TEXTSTYLE_1
 70
0
 40
0.0
 41
0.8
 50
0.0
 71
0
 42
0.2
  3
gdt
  4

  0
ENDTAB
  0
TABLE
  2
VIEW
  5
6
100
AcDbSymbolTable
 70
0
  0
ENDTAB
  0
TABLE
  2
UCS
  5
7
100
AcDbSymbolTable
 70
0
  0
ENDTAB
  0
TABLE
  2
APPID
  5
9
100
AcDbSymbolTable
 70
1
  0
APPID
  5
209
100
AcDbSymbolTableRecord
100
AcDbRegAppTableRecord
  2
ACAD
 70
0
  0
ENDTAB
  0
TABLE
  2
BLOCK_RECORD
  5
1
100
AcDbSymbolTable
 70
0
  0
BLOCK_RECORD
  5
20A
100
AcDbSymbolTableRecord
100
AcDbBlockTableRecord
  2
*Model_Space
  0
BLOCK_RECORD
  5
20B
100
AcDbSymbolTableRecord
100
AcDbBlockTableRecord
  2
*Paper_Space
  0
ENDTAB
  0
TABLE
  2
DIMSTYLE
  5
A
100
AcDbSymbolTable
 70
1
100
AcDbDimStyleTable
 71
0
  0
DIMSTYLE
105
20C
100
AcDbSymbolTableRecord
100
AcDbDimStyleTableRecord
  2
STANDARD
 70
0
  3

  4

 40
1.0
 41
3.5
 42
0.0625
 43
0.38
 44
0.18
 45
0.0
 46
0.0
 47
0.005
 48
0.005
140
3.5
141
0.09
142
0.0
143
25.4
144
1.0
145
0.0
146
1.0
147
0.09
 71
1.0
 72
0.0
 73
0
 74
0
 75
0
 76
0
 77
1
 78
8
170
0
171
2
172
0
173
0
174
0
175
0
176
0
177
0
178
5
270
2
271
3
272
3
273
2
274
2
275
0
280
0
281
0
282
0
283
1
284
8
285
0
286
0
287
3
288
0
340
11
  0
ENDTAB
  0
ENDSEC
  0
SECTION
  2
BLOCKS
  0
BLOCK
  5
20
100
AcDbEntity
  8
0
100
AcDbBlockBegin
  2
*Model_Space
 70
0
 10
0.0
 20
0.0
 30
0.0
  3
*Model_Space
  1

  0
ENDBLK
  5
21
100
AcDbEntity
  8
0
100
AcDbBlockEnd
  0
BLOCK
  5
1C
100
AcDbEntity
  8
0
100
AcDbBlockBegin
  2
*Paper_Space
 70
0
 10
0.0
 20
0.0
 30
0.0
  3
*Paper_Space
  1

  0
ENDBLK
  5
1D
100
AcDbEntity
  8
0
100
AcDbBlockEnd
  0
ENDSEC
  0
SECTION
  2
ENTITIES
  0
MTEXT
  5
20D
100
AcDbEntity
  8
0
100
AcDbMText
 62
5
  6
CONTINUOUS
  7
STANDARD
 71
1
 72
1
 10
324.597164931
 20
170.339474282
 30
0.0
 11
0.0
 21
1.0
 31
0.0
 44
0.9
  1
RUD
 40
5.0
 41
13.3333333333
  0
MTEXT
  5
20E
100
AcDbEntity
  8
0
100
AcDbMText
 62
5
  6
CONTINUOUS
  7
STANDARD
 71
1
 72
1
 10
371.7247467406
 20
157.5432165403
 30
0.0
 11
0.0
 21
1.0
 31
0.0
 44
0.9
  1
IBK-RG 2-6
 40
5.0
 41
38.8095238095
  0
MTEXT
  5
20F
100
AcDbEntity
  8
0
100
AcDbMText
 62
5
  6
CONTINUOUS
  7
STANDARD
 71
1
 72
1
 10
98.8594614433
 20
152.6359827941
 30
0.0
 11
0.0
 21
1.0
 31
0.0
 44
0.9
  1
RUD IBK-RG 2-6
 40
5.0
 41
55.119047619
  0
LINE
  5
210
100
AcDbEntity
  8
0
100
AcDbLine
 62
7
  6
CONTINUOUS
 10
0.0
 20
0.0
 11
0.0
 21
297.0
  0
LINE
  5
211
100
AcDbEntity
  8
0
100
AcDbLine
 62
7
  6
CONTINUOUS
 10
0.0
 20
0.0
 11
420.0
 21
0.0
  0
LINE
  5
212
100
AcDbEntity
  8
0
100
AcDbLine
 62
7
  6
CONTINUOUS
 10
0.0
 20
297.0
 11
420.0
 21
297.0
  0
LINE
  5
213
100
AcDbEntity
  8
0
100
AcDbLine
 62
7
  6
CONTINUOUS
 10
420.0
 20
0.0
 11
420.0
 21
297.0
  0
LINE
  5
214
100
AcDbEntity
  8
RUNDUNGEN
100
AcDbLine
 62
7
  6
CONTINUOUS
 10
159.9852067179
 20
67.2063980128
 11
157.8721154092
 21
71.737936948
  0
LINE
  5
215
100
AcDbEntity
  8
RUNDUNGEN
100
AcDbLine
 62
7
  6
CONTINUOUS
 10
203.7491302442
 20
93.1307402989
 11
205.8622215529
 21
88.5992013637
  0
LINE
  5
216
100
AcDbEntity
  8
RUNDUNGEN
100
AcDbLine
 62
7
  6
CONTINUOUS
 10
213.8323259929
 20
92.3157221003
 11
211.7192346842
 21
96.8472610355
  0
LINE
  5
217
100
AcDbEntity
  8
RUNDUNGEN
100
AcDbLine
 62
7
  6
CONTINUOUS
 10
211.8714992873
 20
96.918263186
 11
213.984590596
 21
92.3867242508
  0
LINE
  5
218
100
AcDbEntity
  8
KONSTRUKTIONSELEMENTE
100
AcDbLine
 62
7
  6
CONTINUOUS
 10
214.5109770601
 20
100.4109966189
 11
212.3978857514
 21
104.9425355541
  0
LINE
  5
219
100
AcDbEntity
  8
KONSTRUKTIONSELEMENTE
100
AcDbLine
 62
7
  6
CONTINUOUS
 10
214.9641309536
 20
100.6223057498
 11
212.8510396449
 21
105.1538446849
  0
LINE
  5
21A
100
AcDbEntity
  8
0
100
AcDbLine
 62
7
  6
CONTINUOUS
 10
327.8189027287
 20
96.1092191747
 11
325.7515789629
 21
96.86166349
  0
LINE
  5
21B
100
AcDbEntity
  8
0
100
AcDbLine
 62
7
  6
CONTINUOUS
 10
325.754796346
 20
96.8705031772
 11
327.8221201117
 21
96.1180588619
  0
LINE
  5
21C
100
AcDbEntity
  8
0
100
AcDbLine
 62
7
  6
CONTINUOUS
 10
323.7818093632
 20
102.3659643288
 11
332.8659301639
 21
99.0596147529
  0
LINE
  5
21D
100
AcDbEntity
  8
0
100
AcDbLine
 62
7
  6
CONTINUOUS
 10
330.8686222406
 20
111.5419327849
 11
333.3353153702
 21
110.6441299086
  0
LINE
  5
21E
100
AcDbEntity
  8
0
100
AcDbLine
 62
7
  6
CONTINUOUS
 10
336.1037117131
 20
118.250236349
 11
333.6370185836
 21
119.1480392253
  0
LINE
  5
21F
100
AcDbEntity
  8
0
100
AcDbLine
 62
7
  6
CONTINUOUS
 10
338.3079407283
 20
122.2076466743
 11
334.4922555187
 21
123.5964425139
  0
LINE
  5
220
100
AcDbEntity
  8
KONSTRUKTIONSELEMENTE
100
AcDbLine
 62
7
  6
CONTINUOUS
 10
296.4126176097
 20
144.1192484174
 11
291.2466632236
 21
141.7103243255
  0
LINE
  5
221
100
AcDbEntity
  8
KONSTRUKTIONSELEMENTE
100
AcDbLine
 62
7
  6
CONTINUOUS
 10
290.7935093301
 20
141.4990151946
 11
285.627554944
 21
139.0900911027
  0
LINE
  5
222
100
AcDbEntity
  8
KONSTRUKTIONSELEMENTE
100
AcDbLine
 62
7
  6
CONTINUOUS
 10
218.016994031
 20
107.5627687769
 11
212.8510396449
 21
105.1538446849
  0
LINE
  5
223
100
AcDbEntity
  8
KONSTRUKTIONSELEMENTE
100
AcDbLine
 62
7
  6
CONTINUOUS
 10
212.3978857514
 20
104.9425355541
 11
207.2319313653
 21
102.5336114621
  0
LINE
  5
224
100
AcDbEntity
  8
KONSTRUKTIONSELEMENTE
100
AcDbLine
 62
7
  6
CONTINUOUS
 10
259.0480642492
 20
124.9856352675
 11
245.4534474437
 21
118.6463613414
  0
LINE
  5
225
100
AcDbEntity
  8
KONSTRUKTIONSELEMENTE
100
AcDbLine
 62
7
  6
CONTINUOUS
 10
298.5257089184
 20
139.5877094822
 11
293.3597545323
 21
137.1787853903
  0
LINE
  5
226
100
AcDbEntity
  8
KONSTRUKTIONSELEMENTE
100
AcDbLine
 62
7
  6
CONTINUOUS
 10
292.9066006388
 20
136.9674762595
 11
287.7406462527
 21
134.5585521675
  0
LINE
  5
227
100
AcDbEntity
  8
KONSTRUKTIONSELEMENTE
100
AcDbLine
 62
7
  6
CONTINUOUS
 10
220.1300853397
 20
103.0312298417
 11
214.9641309536
 21
100.6223057498
  0
LINE
  5
228
100
AcDbEntity
  8
KONSTRUKTIONSELEMENTE
100
AcDbLine
 62
7
  6
CONTINUOUS
 10
214.5109770601
 20
100.4109966189
 11
209.345022674
 21
98.002072527
  0
LINE
  5
229
100
AcDbEntity
  8
KONSTRUKTIONSELEMENTE
100
AcDbLine
 62
7
  6
CONTINUOUS
 10
260.9498464271
 20
120.9072502258
 11
247.3552296215
 21
114.5679762997
  0
LINE
  5
22A
100
AcDbEntity
  8
0
100
AcDbLine
 62
7
  6
CONTINUOUS
 10
341.9017820405
 20
133.0184923052
 11
338.6882909739
 21
134.1881074015
  0
LINE
  5
22B
100
AcDbEntity
  8
KONSTRUKTIONSELEMENTE
100
AcDbLine
 62
7
  6
CONTINUOUS
 10
292.9066006388
 20
136.9674762595
 11
290.7935093301
 21
141.4990151946
  0
LINE
  5
22C
100
AcDbEntity
  8
KONSTRUKTIONSELEMENTE
100
AcDbLine
 62
7
  6
CONTINUOUS
 10
293.3597545323
 20
137.1787853903
 11
291.2466632236
 21
141.7103243255
  0
LINE
  5
22D
100
AcDbEntity
  8
KONSTRUKTIONSELEMENTE
100
AcDbLine
 62
7
  6
CONTINUOUS
 10
299.679236507
 20
138.4153724563
 11
336.7743980135
 21
155.7131303473
  0
LINE
  5
22E
100
AcDbEntity
  8
RUNDUNGEN
100
AcDbLine
 62
7
  6
CONTINUOUS
 10
157.8721154092
 20
71.737936948
 11
211.8713866971
 21
96.9182106843
  0
LINE
  5
22F
100
AcDbEntity
  8
KONSTRUKTIONSELEMENTE
100
AcDbLine
 62
7
  6
CONTINUOUS
 10
222.7334613584
 20
101.7074348026
 11
246.7126216908
 21
112.8891009018
  0
LINE
  5
230
100
AcDbEntity
  8
KONSTRUKTIONSELEMENTE
100
AcDbLine
 62
7
  6
CONTINUOUS
 10
262.611003988
 20
120.3026383192
 11
286.5901643205
 21
131.4843044184
  0
LINE
  5
231
100
AcDbEntity
  8
KONSTRUKTIONSELEMENTE
100
AcDbLine
 62
7
  6
CONTINUOUS
 10
224.6352435362
 20
97.629049761
 11
248.6144038687
 21
108.8107158601
  0
LINE
  5
232
100
AcDbEntity
  8
KONSTRUKTIONSELEMENTE
100
AcDbLine
 62
7
  6
CONTINUOUS
 10
264.5127861659
 20
116.2242532776
 11
288.4919464983
 21
127.4059193767
  0
LINE
  5
233
100
AcDbEntity
  8
RUNDUNGEN
100
AcDbLine
 62
7
  6
CONTINUOUS
 10
159.9852067179
 20
67.2063980128
 11
213.9844623119
 21
92.386664431
  0
LINE
  5
234
100
AcDbEntity
  8
KONSTRUKTIONSELEMENTE
100
AcDbLine
 62
7
  6
CONTINUOUS
 10
302.2784038394
 20
133.0071165745
 11
339.3101075839
 21
150.2752836251
  0
LINE
  5
235
100
AcDbEntity
  8
KONSTRUKTIONSELEMENTE
100
AcDbLine
 62
7
  6
CONTINUOUS
 10
250.3135574537
 20
108.2238217905
 11
263.9081742592
 21
114.5630957166
  0
LINE
  5
236
100
AcDbEntity
  8
KONSTRUKTIONSELEMENTE
100
AcDbLine
 62
7
  6
CONTINUOUS
 10
213.1908488558
 20
89.7546716649
 11
223.9759115216
 21
94.7838289796
  0
LINE
  5
237
100
AcDbEntity
  8
KONSTRUKTIONSELEMENTE
100
AcDbLine
 62
7
  6
CONTINUOUS
 10
291.5864724345
 20
126.3111513055
 11
302.3715351003
 21
131.3403086202
  0
LINE
  5
238
100
AcDbEntity
  8
0
100
AcDbLine
 62
7
  6
CONTINUOUS
 10
355.1098714173
 20
155.5906179201
 11
351.8963803507
 21
154.4210028238
  0
LINE
  5
239
100
AcDbEntity
  8
0
100
AcDbLine
 62
7
  6
CONTINUOUS
 10
352.9400259451
 20
151.5536101191
 11
356.1535170117
 21
152.7232252154
  0
LINE
  5
23A
100
AcDbEntity
  8
0
100
AcDbLine
 62
7
  6
CONTINUOUS
 10
345.7967204241
 20
143.7197475645
 11
342.5832293575
 21
144.8893626608
  0
LINE
  5
23B
100
AcDbEntity
  8
KONSTRUKTIONSELEMENTE
100
AcDbLine
 62
7
  6
CONTINUOUS
 10
252.2153396315
 20
104.1454367488
 11
265.8099564371
 21
110.4847106749
  0
LINE
  5
23C
100
AcDbEntity
  8
KONSTRUKTIONSELEMENTE
100
AcDbLine
 62
7
  6
CONTINUOUS
 10
215.3039401646
 20
85.2231327297
 11
226.0890028303
 21
90.2522900445
  0
LINE
  5
23D
100
AcDbEntity
  8
KONSTRUKTIONSELEMENTE
100
AcDbLine
 62
7
  6
CONTINUOUS
 10
293.6995637432
 20
121.7796123703
 11
304.484626409
 21
126.808769685
  0
LINE
  5
23E
100
AcDbEntity
  8
0
100
AcDbLine
 62
7
  6
CONTINUOUS
 10
355.7913187343
 20
143.7197475645
 11
359.0048098009
 21
144.8893626608
  0
LINE
  5
23F
100
AcDbEntity
  8
0
100
AcDbLine
 62
7
  6
CONTINUOUS
 10
348.6480132133
 20
151.5536101191
 11
345.4345221467
 21
152.7232252154
  0
LINE
  5
240
100
AcDbEntity
  8
0
100
AcDbLine
 62
7
  6
CONTINUOUS
 10
346.4781677412
 20
155.5906179201
 11
349.6916588078
 21
154.4210028238
  0
LINE
  5
241
100
AcDbEntity
  8
KONSTRUKTIONSELEMENTE
100
AcDbLine
 62
7
  6
CONTINUOUS
 10
346.4781677412
 20
155.5906179201
 11
342.3004361213
 21
151.9284503794
  0
LINE
  5
242
100
AcDbEntity
  8
0
100
AcDbLine
 62
7
  6
CONTINUOUS
 10
359.686257118
 20
133.0184923052
 11
362.8997481846
 21
134.1881074015
  0
LINE
  5
243
100
AcDbEntity
  8
RUNDUNGEN
100
AcDbLine
 62
7
  6
CONTINUOUS
 10
378.2575559169
 20
114.7697146265
 11
374.4273337013
 21
117.9836526749
  0
LINE
  5
244
100
AcDbEntity
  8
0
100
AcDbLine
 62
7
  6
CONTINUOUS
 10
320.7940195792
 20
158.9404534909
 11
320.7940195792
 21
194.9404534909
  0
LINE
  5
245
100
AcDbEntity
  8
0
100
AcDbLine
 62
7
  6
CONTINUOUS
 10
363.2800984301
 20
122.2076466743
 11
367.0957836398
 21
123.5964425139
  0
LINE
  5
246
100
AcDbEntity
  8
0
100
AcDbLine
 62
7
  6
CONTINUOUS
 10
333.7940195792
 20
158.9404534909
 11
333.7940195792
 21
194.9404534909
  0
LINE
  5
247
100
AcDbEntity
  8
RUNDUNGEN
100
AcDbLine
 62
7
  6
CONTINUOUS
 10
320.7311301523
 20
107.6280507085
 11
323.3304832415
 21
114.7697146265
  0
LINE
  5
248
100
AcDbEntity
  8
RUNDUNGEN
100
AcDbLine
 62
7
  6
CONTINUOUS
 10
327.1607054571
 20
117.9836526749
 11
329.0999162252
 21
123.3115904717
  0
LINE
  5
249
100
AcDbEntity
  8
RUNDUNGEN
100
AcDbLine
 62
7
  6
CONTINUOUS
 10
327.1607054571
 20
117.9836526749
 11
323.3304832415
 21
114.7697146265
  0
LINE
  5
24A
100
AcDbEntity
  8
0
100
AcDbLine
 62
7
  6
CONTINUOUS
 10
367.9510205749
 20
119.1480392253
 11
365.4843274453
 21
118.250236349
  0
LINE
  5
24B
100
AcDbEntity
  8
KONSTRUKTIONSELEMENTE
100
AcDbLine
 62
7
  6
CONTINUOUS
 10
355.1098714173
 20
155.5906179201
 11
359.2876030372
 21
151.9284503794
  0
LINE
  5
24C
100
AcDbEntity
  8
0
100
AcDbLine
 62
7
  6
CONTINUOUS
 10
340.3164021481
 20
113.1953706684
 11
341.1846430365
 21
108.2713319033
  0
LINE
  5
24D
100
AcDbEntity
  8
RUNDUNGEN
100
AcDbLine
 62
7
  6
CONTINUOUS
 10
330.8686222406
 20
111.5419327849
 11
332.4853332184
 21
119.9510439156
  0
LINE
  5
24E
100
AcDbEntity
  8
0
100
AcDbLine
 62
7
  6
CONTINUOUS
 10
333.6370185836
 20
119.1480392253
 11
334.4922555187
 21
123.5964425139
  0
LINE
  5
24F
100
AcDbEntity
  8
0
100
AcDbLine
 62
7
  6
CONTINUOUS
 10
336.0936337274
 20
128.2833327604
 11
334.4922555187
 21
123.5964425139
  0
LINE
  5
250
100
AcDbEntity
  8
BEZUGSACHSEN
100
AcDbLine
 62
7
  6
CONTINUOUS
 10
340.8978856248
 20
149.8786361922
 11
334.0466197117
 21
131.0549378015
  0
LINE
  5
251
100
AcDbEntity
  8
RUNDUNGEN
100
AcDbLine
 62
7
  6
CONTINUOUS
 10
334.0465453935
 20
131.0547336138
 11
331.9301803549
 21
125.2400684589
  0
LINE
  5
252
100
AcDbEntity
  8
KONSTRUKTIONSELEMENTE
100
AcDbLine
 62
7
  6
CONTINUOUS
 10
331.9301803549
 20
125.2400684589
 11
334.0466197117
 21
131.0549378015
  0
LINE
  5
253
100
AcDbEntity
  8
0
100
AcDbLine
 62
7
  6
CONTINUOUS
 10
333.6370185836
 20
119.1480392253
 11
330.8686222406
 21
111.5419327849
  0
LINE
  5
254
100
AcDbEntity
  8
0
100
AcDbLine
 62
7
  6
CONTINUOUS
 10
336.1037117131
 20
118.250236349
 11
333.3353153702
 21
110.6441299086
  0
LINE
  5
255
100
AcDbEntity
  8
0
100
AcDbLine
 62
7
  6
CONTINUOUS
 10
340.0938888285
 20
126.8273589741
 11
338.3079407283
 21
122.2076466743
  0
LINE
  5
256
100
AcDbEntity
  8
0
100
AcDbLine
 62
7
  6
CONTINUOUS
 10
336.1037117131
 20
118.250236349
 11
338.3079407283
 21
122.2076466743
  0
LINE
  5
257
100
AcDbEntity
  8
0
100
AcDbLine
 62
7
  6
CONTINUOUS
 10
333.3353153702
 20
110.6441299086
 11
337.5021153528
 21
118.1250845468
  0
LINE
  5
258
100
AcDbEntity
  8
0
100
AcDbLine
 62
7
  6
CONTINUOUS
 10
368.2527237883
 20
110.6441299086
 11
370.7194169178
 21
111.5419327849
  0
LINE
  5
259
100
AcDbEntity
  8
0
100
AcDbLine
 62
7
  6
CONTINUOUS
 10
368.2527237883
 20
110.6441299086
 11
364.0859238056
 21
118.1250845468
  0
LINE
  5
25A
100
AcDbEntity
  8
0
100
AcDbLine
 62
7
  6
CONTINUOUS
 10
365.4843274453
 20
118.250236349
 11
363.2800984301
 21
122.2076466743
  0
LINE
  5
25B
100
AcDbEntity
  8
0
100
AcDbLine
 62
7
  6
CONTINUOUS
 10
363.0027492112
 20
101.1296679853
 11
360.403396122
 21
108.2713319033
  0
LINE
  5
25C
100
AcDbEntity
  8
0
100
AcDbLine
 62
7
  6
CONTINUOUS
 10
351.0500481781
 20
148.9302256076
 11
351.8963803507
 21
154.4210028238
  0
LINE
  5
25D
100
AcDbEntity
  8
BEZUGSACHSEN
100
AcDbLine
 62
7
  6
CONTINUOUS
 10
350.2948118326
 20
146.4584347589
 11
343.4435459196
 21
127.6347363682
  0
LINE
  5
25E
100
AcDbEntity
  8
0
100
AcDbLine
 62
7
  6
CONTINUOUS
 10
343.4435459196
 20
127.6347363682
 11
341.3271065627
 21
121.8198670256
  0
LINE
  5
25F
100
AcDbEntity
  8
0
100
AcDbLine
 62
7
  6
CONTINUOUS
 10
342.2556129162
 20
118.5233084651
 11
340.3164021481
 21
113.1953706684
  0
LINE
  5
260
100
AcDbEntity
  8
0
100
AcDbLine
 62
7
  6
CONTINUOUS
 10
341.1846430365
 20
108.2713319033
 11
338.5852899472
 21
101.1296679853
  0
LINE
  5
261
100
AcDbEntity
  8
0
100
AcDbLine
 62
7
  6
CONTINUOUS
 10
368.7221089945
 20
99.0596147529
 11
377.8062297952
 21
102.3659643288
  0
LINE
  5
262
100
AcDbEntity
  8
0
100
AcDbLine
 62
7
  6
CONTINUOUS
 10
373.7659190468
 20
96.1180588619
 11
375.8332428125
 21
96.8705031772
  0
LINE
  5
263
100
AcDbEntity
  8
0
100
AcDbLine
 62
7
  6
CONTINUOUS
 10
375.8364601955
 20
96.86166349
 11
373.7691364298
 21
96.1092191747
  0
LINE
  5
264
100
AcDbEntity
  8
0
100
AcDbLine
 62
7
  6
CONTINUOUS
 10
361.4941503299
 20
126.8273589741
 11
363.2800984301
 21
122.2076466743
  0
LINE
  5
265
100
AcDbEntity
  8
0
100
AcDbLine
 62
7
  6
CONTINUOUS
 10
359.3324262407
 20
118.5233084695
 11
361.2716370103
 21
113.1953706684
  0
LINE
  5
266
100
AcDbEntity
  8
0
100
AcDbLine
 62
7
  6
CONTINUOUS
 10
358.1445675873
 20
127.6345320975
 11
360.2609326168
 21
121.8198669677
  0
LINE
  5
267
100
AcDbEntity
  8
BEZUGSACHSEN
100
AcDbLine
 62
7
  6
CONTINUOUS
 10
358.1444932388
 20
127.6347363682
 11
351.2932273258
 21
146.4584347589
  0
LINE
  5
268
100
AcDbEntity
  8
0
100
AcDbLine
 62
7
  6
CONTINUOUS
 10
365.4843274453
 20
118.250236349
 11
368.2527237883
 21
110.6441299086
  0
LINE
  5
269
100
AcDbEntity
  8
0
100
AcDbLine
 62
7
  6
CONTINUOUS
 10
367.9510205749
 20
119.1480392253
 11
370.7194169178
 21
111.5419327849
  0
LINE
  5
26A
100
AcDbEntity
  8
0
100
AcDbLine
 62
7
  6
CONTINUOUS
 10
350.5379909803
 20
148.9302256076
 11
349.6916588078
 21
154.4210028238
  0
LINE
  5
26B
100
AcDbEntity
  8
RUNDUNGEN
100
AcDbLine
 62
7
  6
CONTINUOUS
 10
367.5414937952
 20
131.0547335307
 11
369.6578588246
 21
125.240068401
  0
LINE
  5
26C
100
AcDbEntity
  8
BEZUGSACHSEN
100
AcDbLine
 62
7
  6
CONTINUOUS
 10
367.5414194467
 20
131.0549378015
 11
360.6901535337
 21
149.8786361922
  0
LINE
  5
26D
100
AcDbEntity
  8
RUNDUNGEN
100
AcDbLine
 62
7
  6
CONTINUOUS
 10
372.4881229317
 20
123.3115904761
 11
374.4273337013
 21
117.9836526749
  0
LINE
  5
26E
100
AcDbEntity
  8
RUNDUNGEN
100
AcDbLine
 62
7
  6
CONTINUOUS
 10
380.8569090062
 20
107.6280507085
 11
378.2575559169
 21
114.7697146265
  0
LINE
  5
26F
100
AcDbEntity
  8
0
100
AcDbLine
 62
7
  6
CONTINUOUS
 10
365.494405431
 20
128.2833327604
 11
367.0957836398
 21
123.5964425139
  0
LINE
  5
270
100
AcDbEntity
  8
0
100
AcDbLine
 62
7
  6
CONTINUOUS
 10
367.9510205749
 20
119.1480392253
 11
367.0957836398
 21
123.5964425139
  0
LINE
  5
271
100
AcDbEntity
  8
0
100
AcDbLine
 62
7
  6
CONTINUOUS
 10
367.7940195792
 20
194.9404534909
 11
367.7940195792
 21
158.9404534909
  0
LINE
  5
272
100
AcDbEntity
  8
0
100
AcDbLine
 62
7
  6
CONTINUOUS
 10
360.403396122
 20
108.2713319033
 11
361.2716370103
 21
113.1953706684
  0
LINE
  5
273
100
AcDbEntity
  8
RUNDUNGEN
100
AcDbLine
 62
7
  6
CONTINUOUS
 10
370.7194169178
 20
111.5419327849
 11
369.1027059401
 21
119.9510439156
  0
LINE
  5
274
100
AcDbEntity
  8
0
100
AcDbLine
 62
7
  6
CONTINUOUS
 10
380.7940195792
 20
194.9404534909
 11
380.7940195792
 21
158.9404534909
  0
LINE
  5
275
100
AcDbEntity
  8
RUNDUNGEN
100
AcDbLine
 62
7
  6
CONTINUOUS
 10
84.170354424
 20
67.2063980128
 11
85.370354424
 21
67.2063980128
  0
LINE
  5
276
100
AcDbEntity
  8
RUNDUNGEN
100
AcDbLine
 62
7
  6
CONTINUOUS
 10
117.770354424
 20
67.2063980128
 11
118.970354424
 21
67.2063980128
  0
LINE
  5
277
100
AcDbEntity
  8
RUNDUNGEN
100
AcDbLine
 62
7
  6
CONTINUOUS
 10
88.670354424
 20
70.2492494974
 11
92.9975747687
 21
70.2492494974
  0
LINE
  5
278
100
AcDbEntity
  8
RUNDUNGEN
100
AcDbLine
 62
7
  6
CONTINUOUS
 10
110.1431340793
 20
70.2492494974
 11
114.470354424
 21
70.2492494974
  0
LINE
  5
279
100
AcDbEntity
  8
0
100
AcDbLine
 62
7
  6
CONTINUOUS
 10
93.1779937828
 20
84.9563650059
 11
96.0579937828
 21
84.9563650059
  0
LINE
  5
27A
100
AcDbEntity
  8
0
100
AcDbLine
 62
7
  6
CONTINUOUS
 10
97.5854745637
 20
84.9563650059
 11
98.1614745637
 21
84.9563650059
  0
LINE
  5
27B
100
AcDbEntity
  8
0
100
AcDbLine
 62
7
  6
CONTINUOUS
 10
106.5819557801
 20
84.9563650059
 11
108.6687360206
 21
84.9563650059
  0
LINE
  5
27C
100
AcDbEntity
  8
0
100
AcDbLine
 62
7
  6
CONTINUOUS
 10
108.6813579074
 20
85.209935963
 11
107.1579557801
 21
85.209935963
  0
LINE
  5
27D
100
AcDbEntity
  8
0
100
AcDbLine
 62
7
  6
CONTINUOUS
 10
93.1779937828
 20
85.2282573421
 11
96.0579937828
 21
85.2282573421
  0
LINE
  5
27E
100
AcDbEntity
  8
0
100
AcDbLine
 62
7
  6
CONTINUOUS
 10
97.5854745637
 20
85.2282573421
 11
98.1614745637
 21
85.2282573421
  0
LINE
  5
27F
100
AcDbEntity
  8
0
100
AcDbLine
 62
7
  6
CONTINUOUS
 10
106.5819557801
 20
85.2282573421
 11
107.1579557801
 21
85.2282573421
  0
LINE
  5
280
100
AcDbEntity
  8
0
100
AcDbLine
 62
7
  6
CONTINUOUS
 10
95.0679937828
 20
85.2606501544
 11
94.1679937828
 21
85.2606501544
  0
LINE
  5
281
100
AcDbEntity
  8
0
100
AcDbLine
 62
7
  6
CONTINUOUS
 10
94.3299937828
 20
85.3747570851
 11
94.9059937828
 21
85.3747570851
  0
LINE
  5
282
100
AcDbEntity
  8
0
100
AcDbLine
 62
7
  6
CONTINUOUS
 10
94.3299937828
 20
85.6466494212
 11
94.9059937828
 21
85.6466494212
  0
LINE
  5
283
100
AcDbEntity
  8
0
100
AcDbLine
 62
7
  6
CONTINUOUS
 10
94.6809937828
 20
85.6790422335
 11
94.5549937828
 21
85.6790422335
  0
LINE
  5
284
100
AcDbEntity
  8
0
100
AcDbLine
 62
7
  6
CONTINUOUS
 10
94.9059937828
 20
85.7551135206
 11
94.7529937828
 21
85.7551135206
  0
LINE
  5
285
100
AcDbEntity
  8
0
100
AcDbLine
 62
7
  6
CONTINUOUS
 10
94.4829937828
 20
85.7551135206
 11
94.3299937828
 21
85.7551135206
  0
LINE
  5
286
100
AcDbEntity
  8
0
100
AcDbLine
 62
7
  6
CONTINUOUS
 10
94.1679937828
 20
85.8692204513
 11
94.4829937828
 21
85.8692204513
  0
LINE
  5
287
100
AcDbEntity
  8
0
100
AcDbLine
 62
7
  6
CONTINUOUS
 10
94.7529937828
 20
85.8692204513
 11
95.0679937828
 21
85.8692204513
  0
LINE
  5
288
100
AcDbEntity
  8
RUNDUNGEN
100
AcDbLine
 62
7
  6
CONTINUOUS
 10
76.3612592016
 20
89.6961035657
 11
77.9099155797
 21
88.7613943104
  0
LINE
  5
289
100
AcDbEntity
  8
RUNDUNGEN
100
AcDbLine
 62
7
  6
CONTINUOUS
 10
82.3838117833
 20
86.0611231285
 11
90.6311039912
 21
81.0833756654
  0
LINE
  5
28A
100
AcDbEntity
  8
RUNDUNGEN
100
AcDbLine
 62
7
  6
CONTINUOUS
 10
104.5193017834
 20
72.700995172
 11
107.6856779464
 21
70.7898926531
  0
LINE
  5
28B
100
AcDbEntity
  8
0
100
AcDbLine
 62
7
  6
CONTINUOUS
 10
98.1614745637
 20
85.9107215443
 11
99.2528188621
 21
85.9107215443
  0
LINE
  5
28C
100
AcDbEntity
  8
0
100
AcDbLine
 62
7
  6
CONTINUOUS
 10
95.0679937828
 20
86.0213630255
 11
94.7529937828
 21
86.0213630255
  0
LINE
  5
28D
100
AcDbEntity
  8
0
100
AcDbLine
 62
7
  6
CONTINUOUS
 10
94.4829937828
 20
86.0213630255
 11
94.1679937828
 21
86.0213630255
  0
LINE
  5
28E
100
AcDbEntity
  8
0
100
AcDbLine
 62
7
  6
CONTINUOUS
 10
94.3299937828
 20
86.1354699562
 11
94.4829937828
 21
86.1354699562
  0
LINE
  5
28F
100
AcDbEntity
  8
0
100
AcDbLine
 62
7
  6
CONTINUOUS
 10
94.7529937828
 20
86.1354699562
 11
94.9059937828
 21
86.1354699562
  0
LINE
  5
290
100
AcDbEntity
  8
0
100
AcDbLine
 62
7
  6
CONTINUOUS
 10
99.1691085769
 20
86.1541496631
 11
98.1614745637
 21
86.1541496631
  0
LINE
  5
291
100
AcDbEntity
  8
0
100
AcDbLine
 62
7
  6
CONTINUOUS
 10
94.5549937828
 20
86.2115412433
 11
94.6809937828
 21
86.2115412433
  0
LINE
  5
292
100
AcDbEntity
  8
0
100
AcDbLine
 62
7
  6
CONTINUOUS
 10
94.3299937828
 20
86.4073622923
 11
94.4829937828
 21
86.4073622923
  0
LINE
  5
293
100
AcDbEntity
  8
0
100
AcDbLine
 62
7
  6
CONTINUOUS
 10
94.7529937828
 20
86.4073622923
 11
94.9059937828
 21
86.4073622923
  0
LINE
  5
294
100
AcDbEntity
  8
0
100
AcDbLine
 62
7
  6
CONTINUOUS
 10
107.1579557801
 20
86.4777907482
 11
106.5819557801
 21
86.4777907482
  0
LINE
  5
295
100
AcDbEntity
  8
0
100
AcDbLine
 62
7
  6
CONTINUOUS
 10
94.5549937828
 20
86.4834335794
 11
94.6809937828
 21
86.4834335794
  0
LINE
  5
296
100
AcDbEntity
  8
0
100
AcDbLine
 62
7
  6
CONTINUOUS
 10
98.1614745637
 20
86.4904692961
 11
97.5854745637
 21
86.4904692961
  0
LINE
  5
297
100
AcDbEntity
  8
0
100
AcDbLine
 62
7
  6
CONTINUOUS
 10
94.9059937828
 20
86.5158263918
 11
94.3299937828
 21
86.5158263918
  0
LINE
  5
298
100
AcDbEntity
  8
0
100
AcDbLine
 62
7
  6
CONTINUOUS
 10
94.1679937828
 20
86.6299333224
 11
95.0679937828
 21
86.6299333224
  0
LINE
  5
299
100
AcDbEntity
  8
0
100
AcDbLine
 62
7
  6
CONTINUOUS
 10
106.5819557801
 20
86.6907903521
 11
108.6813579074
 21
86.6907903521
  0
LINE
  5
29A
100
AcDbEntity
  8
0
100
AcDbLine
 62
7
  6
CONTINUOUS
 10
97.5854745637
 20
86.7034689
 11
99.0801845187
 21
86.7034689
  0
LINE
  5
29B
100
AcDbEntity
  8
0
100
AcDbLine
 62
7
  6
CONTINUOUS
 10
94.1679937828
 20
86.9018256585
 11
95.0679937828
 21
86.9018256585
  0
LINE
  5
29C
100
AcDbEntity
  8
0
100
AcDbLine
 62
7
  6
CONTINUOUS
 10
108.6687360206
 20
86.9342184709
 11
106.5819557801
 21
86.9342184709
  0
LINE
  5
29D
100
AcDbEntity
  8
0
100
AcDbLine
 62
7
  6
CONTINUOUS
 10
105.3219557801
 20
86.9342184709
 11
104.7459557801
 21
86.9342184709
  0
LINE
  5
29E
100
AcDbEntity
  8
0
100
AcDbLine
 62
7
  6
CONTINUOUS
 10
99.070354424
 20
86.9342184709
 11
97.5854745637
 21
86.9342184709
  0
LINE
  5
29F
100
AcDbEntity
  8
0
100
AcDbLine
 62
7
  6
CONTINUOUS
 10
96.0579937828
 20
86.9342184709
 11
93.1779937828
 21
86.9342184709
  0
LINE
  5
2A0
100
AcDbEntity
  8
RUNDUNGEN
100
AcDbLine
 62
7
  6
CONTINUOUS
 10
84.9391581486
 20
88.0555144071
 11
83.2184288396
 21
89.0940802463
  0
LINE
  5
2A1
100
AcDbEntity
  8
0
100
AcDbLine
 62
7
  6
CONTINUOUS
 10
87.320354424
 20
95.6026371893
 11
90.3663882732
 21
95.6026371893
  0
LINE
  5
2A2
100
AcDbEntity
  8
0
100
AcDbLine
 62
7
  6
CONTINUOUS
 10
112.7743205748
 20
95.6026371893
 11
115.820354424
 21
95.6026371893
  0
LINE
  5
2A3
100
AcDbEntity
  8
RUNDUNGEN
100
AcDbLine
 62
7
  6
CONTINUOUS
 10
112.8761826833
 20
89.041158671
 11
106.7325423512
 21
90.8591877448
  0
LINE
  5
2A4
100
AcDbEntity
  8
RUNDUNGEN
100
AcDbLine
 62
7
  6
CONTINUOUS
 10
121.4278105569
 20
71.3374209198
 11
112.5096048568
 21
76.7201058883
  0
LINE
  5
2A5
100
AcDbEntity
  8
RUNDUNGEN
100
AcDbLine
 62
7
  6
CONTINUOUS
 10
89.772524922
 20
90.443330325
 11
89.0589659148
 21
90.8740070184
  0
LINE
  5
2A6
100
AcDbEntity
  8
RUNDUNGEN
100
AcDbLine
 62
7
  6
CONTINUOUS
 10
121.4278105569
 20
75.8689598549
 11
112.6490017353
 21
81.1675102445
  0
LINE
  5
2A7
100
AcDbEntity
  8
RUNDUNGEN
100
AcDbLine
 62
7
  6
CONTINUOUS
 10
89.772524922
 20
94.9748692602
 11
89.0589659148
 21
95.4055459536
  0
LINE
  5
2A8
100
AcDbEntity
  8
BEZUGSACHSEN
100
AcDbLine
 62
7
  6
CONTINUOUS
 10
97.870354424
 20
102.0207445885
 11
105.270354424
 21
102.0207445885
  0
LINE
  5
2A9
100
AcDbEntity
  8
RUNDUNGEN
100
AcDbLine
 62
7
  6
CONTINUOUS
 10
106.7325423512
 20
95.39072668
 11
112.8761826833
 21
93.5726976062
  0
LINE
  5
2AA
100
AcDbEntity
  8
RUNDUNGEN
100
AcDbLine
 62
7
  6
CONTINUOUS
 10
127.6810269112
 20
90.9770732813
 11
123.1756906676
 21
92.3102946021
  0
LINE
  5
2AB
100
AcDbEntity
  8
0
100
AcDbLine
 62
7
  6
CONTINUOUS
 10
112.768158306
 20
95.6074171198
 11
112.78220697
 21
95.6026372957
  0
LINE
  5
2AC
100
AcDbEntity
  8
BEZUGSACHSEN
100
AcDbLine
 62
7
  6
CONTINUOUS
 10
97.870354424
 20
105.6865262584
 11
105.270354424
 21
105.6865262584
  0
LINE
  5
2AD
100
AcDbEntity
  8
RUNDUNGEN
100
AcDbLine
 62
7
  6
CONTINUOUS
 10
127.6810269112
 20
95.5086122165
 11
123.1756906676
 21
96.8418335373
  0
LINE
  5
2AE
100
AcDbEntity
  8
BEZUGSACHSEN
100
AcDbLine
 62
7
  6
CONTINUOUS
 10
97.870354424
 20
109.3951139936
 11
105.270354424
 21
109.3951139936
  0
LINE
  5
2AF
100
AcDbEntity
  8
BEZUGSACHSEN
100
AcDbLine
 62
7
  6
CONTINUOUS
 10
97.870354424
 20
110.4957445885
 11
105.270354424
 21
110.4957445885
  0
LINE
  5
2B0
100
AcDbEntity
  8
0
100
AcDbLine
 62
7
  6
CONTINUOUS
 10
109.7705638022
 20
120.2663802064
 11
109.56293499
 21
120.209185322
  0
LINE
  5
2B1
100
AcDbEntity
  8
0
100
AcDbLine
 62
7
  6
CONTINUOUS
 10
114.2864950712
 20
119.9449200227
 11
114.546030938
 21
120.0021149121
  0
LINE
  5
2B2
100
AcDbEntity
  8
0
100
AcDbLine
 62
7
  6
CONTINUOUS
 10
109.56293499
 20
119.9449200227
 11
109.8224711537
 21
120.0021149121
  0
LINE
  5
2B3
100
AcDbEntity
  8
RUNDUNGEN
100
AcDbLine
 62
7
  6
CONTINUOUS
 10
87.320354424
 20
114.7697146265
 11
97.870354424
 21
114.7697146265
  0
LINE
  5
2B4
100
AcDbEntity
  8
RUNDUNGEN
100
AcDbLine
 62
7
  6
CONTINUOUS
 10
105.270354424
 20
114.7697146265
 11
115.820354424
 21
114.7697146265
  0
LINE
  5
2B5
100
AcDbEntity
  8
RUNDUNGEN
100
AcDbLine
 62
7
  6
CONTINUOUS
 10
115.820354424
 20
117.9836526749
 11
105.124062111
 21
117.9836526749
  0
LINE
  5
2B6
100
AcDbEntity
  8
RUNDUNGEN
100
AcDbLine
 62
7
  6
CONTINUOUS
 10
98.016646737
 20
117.9836526749
 11
87.320354424
 21
117.9836526749
  0
LINE
  5
2B7
100
AcDbEntity
  8
0
100
AcDbLine
 62
7
  6
CONTINUOUS
 10
92.2436317713
 20
120.0021149121
 11
92.5416191576
 21
119.9449200227
  0
LINE
  5
2B8
100
AcDbEntity
  8
0
100
AcDbLine
 62
7
  6
CONTINUOUS
 10
92.5416191576
 20
120.209185322
 11
92.303229385
 21
120.2663802064
  0
LINE
  5
2B9
100
AcDbEntity
  8
0
100
AcDbLine
 62
7
  6
CONTINUOUS
 10
92.5416191576
 20
120.2880893691
 11
92.303229385
 21
120.3452842534
  0
LINE
  5
2BA
100
AcDbEntity
  8
0
100
AcDbLine
 62
7
  6
CONTINUOUS
 10
92.0052416576
 20
120.1165046959
 11
92.2436317713
 21
120.0021149121
  0
LINE
  5
2BB
100
AcDbEntity
  8
0
100
AcDbLine
 62
7
  6
CONTINUOUS
 10
81.8456940363
 20
118.250236349
 11
84.320354424
 21
110.6441299086
  0
LINE
  5
2BC
100
AcDbEntity
  8
0
100
AcDbLine
 62
7
  6
CONTINUOUS
 10
81.8456940363
 20
119.1480392253
 11
84.320354424
 21
111.5419327849
  0
LINE
  5
2BD
100
AcDbEntity
  8
RUNDUNGEN
100
AcDbLine
 62
7
  6
CONTINUOUS
 10
75.8187153344
 20
90.4233151952
 11
75.8187153344
 21
94.9548541304
  0
LINE
  5
2BE
100
AcDbEntity
  8
0
100
AcDbLine
 62
7
  6
CONTINUOUS
 10
78.794278455
 20
133.0184923052
 11
78.794278455
 21
134.1881074015
  0
LINE
  5
2BF
100
AcDbEntity
  8
0
100
AcDbLine
 62
7
  6
CONTINUOUS
 10
109.7705638022
 20
120.3452842534
 11
109.56293499
 21
120.2880893691
  0
LINE
  5
2C0
100
AcDbEntity
  8
0
100
AcDbLine
 62
7
  6
CONTINUOUS
 10
108.8881406078
 20
122.2327157185
 11
109.095769717
 21
122.2899106028
  0
LINE
  5
2C1
100
AcDbEntity
  8
0
100
AcDbLine
 62
7
  6
CONTINUOUS
 10
95.879079044
 20
120.2663802064
 11
95.6406892713
 21
120.209185322
  0
LINE
  5
2C2
100
AcDbEntity
  8
0
100
AcDbLine
 62
7
  6
CONTINUOUS
 10
95.879079044
 20
120.3452842534
 11
95.6406892713
 21
120.2880893691
  0
LINE
  5
2C3
100
AcDbEntity
  8
0
100
AcDbLine
 62
7
  6
CONTINUOUS
 10
93.018399385
 20
120.2663802064
 11
92.7800092713
 21
120.209185322
  0
LINE
  5
2C4
100
AcDbEntity
  8
0
100
AcDbLine
 62
7
  6
CONTINUOUS
 10
93.018399385
 20
120.3452842534
 11
92.7800092713
 21
120.2880893691
  0
LINE
  5
2C5
100
AcDbEntity
  8
0
100
AcDbLine
 62
7
  6
CONTINUOUS
 10
114.0269586105
 20
121.5818626673
 11
113.7674221497
 21
121.524667783
  0
LINE
  5
2C6
100
AcDbEntity
  8
0
100
AcDbLine
 62
7
  6
CONTINUOUS
 10
114.0269586105
 20
121.6607667144
 11
113.7674221497
 21
121.60357183
  0
LINE
  5
2C7
100
AcDbEntity
  8
0
100
AcDbLine
 62
7
  6
CONTINUOUS
 10
114.0269586105
 20
122.5541758621
 11
113.7674221497
 21
122.4969809777
  0
LINE
  5
2C8
100
AcDbEntity
  8
0
100
AcDbLine
 62
7
  6
CONTINUOUS
 10
114.0269586105
 20
122.6330799091
 11
113.7674221497
 21
122.5758850248
  0
LINE
  5
2C9
100
AcDbEntity
  8
0
100
AcDbLine
 62
7
  6
CONTINUOUS
 10
109.095769717
 20
122.5541758621
 11
108.8362332562
 21
122.4969809777
  0
LINE
  5
2CA
100
AcDbEntity
  8
0
100
AcDbLine
 62
7
  6
CONTINUOUS
 10
109.095769717
 20
122.6330799091
 11
108.8362332562
 21
122.5758850248
  0
LINE
  5
2CB
100
AcDbEntity
  8
0
100
AcDbLine
 62
7
  6
CONTINUOUS
 10
95.6406892713
 20
119.9449200227
 11
95.9386769987
 21
120.0021149121
  0
LINE
  5
2CC
100
AcDbEntity
  8
0
100
AcDbLine
 62
7
  6
CONTINUOUS
 10
92.7800092713
 20
119.9449200227
 11
93.0779966576
 21
120.0021149121
  0
LINE
  5
2CD
100
AcDbEntity
  8
0
100
AcDbLine
 62
7
  6
CONTINUOUS
 10
88.8465742713
 20
119.9449200227
 11
89.2041592713
 21
119.9449200227
  0
LINE
  5
2CE
100
AcDbEntity
  8
0
100
AcDbLine
 62
7
  6
CONTINUOUS
 10
90.6940967145
 20
119.9449200227
 11
91.1112793282
 21
119.9449200227
  0
LINE
  5
2CF
100
AcDbEntity
  8
0
100
AcDbLine
 62
7
  6
CONTINUOUS
 10
92.5416191576
 20
119.9449200227
 11
92.7800092713
 21
119.9449200227
  0
LINE
  5
2D0
100
AcDbEntity
  8
0
100
AcDbLine
 62
7
  6
CONTINUOUS
 10
94.2103492713
 20
119.9449200227
 11
95.6406892713
 21
119.9449200227
  0
LINE
  5
2D1
100
AcDbEntity
  8
0
100
AcDbLine
 62
7
  6
CONTINUOUS
 10
105.150818424
 20
119.9449200227
 11
105.4622619393
 21
119.9449200227
  0
LINE
  5
2D2
100
AcDbEntity
  8
0
100
AcDbLine
 62
7
  6
CONTINUOUS
 10
105.877519935
 20
119.9449200227
 11
106.1889634503
 21
119.9449200227
  0
LINE
  5
2D3
100
AcDbEntity
  8
0
100
AcDbLine
 62
7
  6
CONTINUOUS
 10
107.4866447889
 20
119.9449200227
 11
107.8499956557
 21
119.9449200227
  0
LINE
  5
2D4
100
AcDbEntity
  8
0
100
AcDbLine
 62
7
  6
CONTINUOUS
 10
109.095769717
 20
119.9449200227
 11
109.56293499
 21
119.9449200227
  0
LINE
  5
2D5
100
AcDbEntity
  8
0
100
AcDbLine
 62
7
  6
CONTINUOUS
 10
114.0269586105
 20
119.9449200227
 11
114.2864950712
 21
119.9449200227
  0
LINE
  5
2D6
100
AcDbEntity
  8
0
100
AcDbLine
 62
7
  6
CONTINUOUS
 10
114.3384021258
 20
120.1519904376
 11
113.9750515559
 21
120.1519904376
  0
LINE
  5
2D7
100
AcDbEntity
  8
0
100
AcDbLine
 62
7
  6
CONTINUOUS
 10
109.56293499
 20
120.209185322
 11
109.095769717
 21
120.209185322
  0
LINE
  5
2D8
100
AcDbEntity
  8
0
100
AcDbLine
 62
7
  6
CONTINUOUS
 10
95.6406892713
 20
120.209185322
 11
94.5679342713
 21
120.209185322
  0
LINE
  5
2D9
100
AcDbEntity
  8
0
100
AcDbLine
 62
7
  6
CONTINUOUS
 10
92.7800092713
 20
120.209185322
 11
92.5416191576
 21
120.209185322
  0
LINE
  5
2DA
100
AcDbEntity
  8
0
100
AcDbLine
 62
7
  6
CONTINUOUS
 10
114.3384021258
 20
120.2308944847
 11
113.9750515559
 21
120.2308944847
  0
LINE
  5
2DB
100
AcDbEntity
  8
0
100
AcDbLine
 62
7
  6
CONTINUOUS
 10
109.56293499
 20
120.2880893691
 11
109.095769717
 21
120.2880893691
  0
LINE
  5
2DC
100
AcDbEntity
  8
0
100
AcDbLine
 62
7
  6
CONTINUOUS
 10
95.6406892713
 20
120.2880893691
 11
94.5679342713
 21
120.2880893691
  0
LINE
  5
2DD
100
AcDbEntity
  8
0
100
AcDbLine
 62
7
  6
CONTINUOUS
 10
92.7800092713
 20
120.2880893691
 11
92.5416191576
 21
120.2880893691
  0
LINE
  5
2DE
100
AcDbEntity
  8
0
100
AcDbLine
 62
7
  6
CONTINUOUS
 10
109.5110276384
 20
121.0888178706
 11
109.9781929114
 21
121.0888178706
  0
LINE
  5
2DF
100
AcDbEntity
  8
0
100
AcDbLine
 62
7
  6
CONTINUOUS
 10
89.2041592713
 20
121.146012755
 11
90.2173167429
 21
121.146012755
  0
LINE
  5
2E0
100
AcDbEntity
  8
0
100
AcDbLine
 62
7
  6
CONTINUOUS
 10
106.1889634503
 20
121.146012755
 11
107.0713867189
 21
121.146012755
  0
LINE
  5
2E1
100
AcDbEntity
  8
0
100
AcDbLine
 62
7
  6
CONTINUOUS
 10
110.2896364267
 20
121.3530831298
 11
109.5110276384
 21
121.3530831298
  0
LINE
  5
2E2
100
AcDbEntity
  8
0
100
AcDbLine
 62
7
  6
CONTINUOUS
 10
113.9750515559
 20
121.3747922925
 11
114.3384021258
 21
121.3747922925
  0
LINE
  5
2E3
100
AcDbEntity
  8
0
100
AcDbLine
 62
7
  6
CONTINUOUS
 10
107.1752012735
 20
121.4102780142
 11
106.1889634503
 21
121.4102780142
  0
LINE
  5
2E4
100
AcDbEntity
  8
0
100
AcDbLine
 62
7
  6
CONTINUOUS
 10
90.3365117145
 20
121.4102780142
 11
89.2041592713
 21
121.4102780142
  0
LINE
  5
2E5
100
AcDbEntity
  8
0
100
AcDbLine
 62
7
  6
CONTINUOUS
 10
110.2896364267
 20
121.4319871769
 11
109.5110276384
 21
121.4319871769
  0
LINE
  5
2E6
100
AcDbEntity
  8
0
100
AcDbLine
 62
7
  6
CONTINUOUS
 10
107.1752012735
 20
121.4891820613
 11
106.1889634503
 21
121.4891820613
  0
LINE
  5
2E7
100
AcDbEntity
  8
0
100
AcDbLine
 62
7
  6
CONTINUOUS
 10
90.3365117145
 20
121.4891820613
 11
89.2041592713
 21
121.4891820613
  0
LINE
  5
2E8
100
AcDbEntity
  8
0
100
AcDbLine
 62
7
  6
CONTINUOUS
 10
114.2864950712
 20
121.5818626673
 11
114.0269586105
 21
121.5818626673
  0
LINE
  5
2E9
100
AcDbEntity
  8
0
100
AcDbLine
 62
7
  6
CONTINUOUS
 10
114.2864950712
 20
121.6607667144
 11
114.0269586105
 21
121.6607667144
  0
LINE
  5
2EA
100
AcDbEntity
  8
0
100
AcDbLine
 62
7
  6
CONTINUOUS
 10
109.9781929114
 20
121.9467411363
 11
110.2896364267
 21
121.9467411363
  0
LINE
  5
2EB
100
AcDbEntity
  8
0
100
AcDbLine
 62
7
  6
CONTINUOUS
 10
114.7017526956
 20
122.0039361809
 11
114.9612891564
 21
122.0039361809
  0
LINE
  5
2EC
100
AcDbEntity
  8
0
100
AcDbLine
 62
7
  6
CONTINUOUS
 10
94.5679342713
 20
122.2899106028
 11
95.6406892713
 21
122.2899106028
  0
LINE
  5
2ED
100
AcDbEntity
  8
0
100
AcDbLine
 62
7
  6
CONTINUOUS
 10
109.095769717
 20
122.2899106028
 11
109.56293499
 21
122.2899106028
  0
LINE
  5
2EE
100
AcDbEntity
  8
0
100
AcDbLine
 62
7
  6
CONTINUOUS
 10
89.2041592713
 20
122.3471054872
 11
90.3365117145
 21
122.3471054872
  0
LINE
  5
2EF
100
AcDbEntity
  8
0
100
AcDbLine
 62
7
  6
CONTINUOUS
 10
106.1889634503
 20
122.3471054872
 11
107.1752012735
 21
122.3471054872
  0
LINE
  5
2F0
100
AcDbEntity
  8
0
100
AcDbLine
 62
7
  6
CONTINUOUS
 10
113.9750515559
 20
122.3471054872
 11
114.2864950712
 21
122.3471054872
  0
LINE
  5
2F1
100
AcDbEntity
  8
0
100
AcDbLine
 62
7
  6
CONTINUOUS
 10
114.2345874227
 20
122.5541758621
 11
114.0269586105
 21
122.5541758621
  0
LINE
  5
2F2
100
AcDbEntity
  8
0
100
AcDbLine
 62
7
  6
CONTINUOUS
 10
109.56293499
 20
122.5541758621
 11
109.095769717
 21
122.5541758621
  0
LINE
  5
2F3
100
AcDbEntity
  8
0
100
AcDbLine
 62
7
  6
CONTINUOUS
 10
107.1232940705
 20
122.5541758621
 11
105.877519935
 21
122.5541758621
  0
LINE
  5
2F4
100
AcDbEntity
  8
0
100
AcDbLine
 62
7
  6
CONTINUOUS
 10
105.4622619393
 20
122.5541758621
 11
105.150818424
 21
122.5541758621
  0
LINE
  5
2F5
100
AcDbEntity
  8
0
100
AcDbLine
 62
7
  6
CONTINUOUS
 10
95.6406892713
 20
122.5541758621
 11
94.2103492713
 21
122.5541758621
  0
LINE
  5
2F6
100
AcDbEntity
  8
0
100
AcDbLine
 62
7
  6
CONTINUOUS
 10
93.733569385
 20
122.5541758621
 11
93.375984385
 21
122.5541758621
  0
LINE
  5
2F7
100
AcDbEntity
  8
0
100
AcDbLine
 62
7
  6
CONTINUOUS
 10
91.945644385
 20
122.5541758621
 11
91.5880592145
 21
122.5541758621
  0
LINE
  5
2F8
100
AcDbEntity
  8
0
100
AcDbLine
 62
7
  6
CONTINUOUS
 10
90.2769142713
 20
122.5541758621
 11
88.8465742713
 21
122.5541758621
  0
LINE
  5
2F9
100
AcDbEntity
  8
0
100
AcDbLine
 62
7
  6
CONTINUOUS
 10
114.2345874227
 20
122.6330799091
 11
114.0269586105
 21
122.6330799091
  0
LINE
  5
2FA
100
AcDbEntity
  8
0
100
AcDbLine
 62
7
  6
CONTINUOUS
 10
109.56293499
 20
122.6330799091
 11
109.095769717
 21
122.6330799091
  0
LINE
  5
2FB
100
AcDbEntity
  8
0
100
AcDbLine
 62
7
  6
CONTINUOUS
 10
107.1232940705
 20
122.6330799091
 11
105.877519935
 21
122.6330799091
  0
LINE
  5
2FC
100
AcDbEntity
  8
0
100
AcDbLine
 62
7
  6
CONTINUOUS
 10
105.4622619393
 20
122.6330799091
 11
105.150818424
 21
122.6330799091
  0
LINE
  5
2FD
100
AcDbEntity
  8
0
100
AcDbLine
 62
7
  6
CONTINUOUS
 10
95.6406892713
 20
122.6330799091
 11
94.2103492713
 21
122.6330799091
  0
LINE
  5
2FE
100
AcDbEntity
  8
0
100
AcDbLine
 62
7
  6
CONTINUOUS
 10
93.733569385
 20
122.6330799091
 11
93.375984385
 21
122.6330799091
  0
LINE
  5
2FF
100
AcDbEntity
  8
0
100
AcDbLine
 62
7
  6
CONTINUOUS
 10
91.945644385
 20
122.6330799091
 11
91.5880592145
 21
122.6330799091
  0
LINE
  5
300
100
AcDbEntity
  8
0
100
AcDbLine
 62
7
  6
CONTINUOUS
 10
90.2769142713
 20
122.6330799091
 11
88.8465742713
 21
122.6330799091
  0
LINE
  5
301
100
AcDbEntity
  8
0
100
AcDbLine
 62
7
  6
CONTINUOUS
 10
90.5749018282
 20
122.4969809777
 11
90.2769142713
 21
122.5541758621
  0
LINE
  5
302
100
AcDbEntity
  8
0
100
AcDbLine
 62
7
  6
CONTINUOUS
 10
90.5749018282
 20
122.5758850248
 11
90.2769142713
 21
122.6330799091
  0
LINE
  5
303
100
AcDbEntity
  8
0
100
AcDbLine
 62
7
  6
CONTINUOUS
 10
95.9386769987
 20
122.4969809777
 11
95.6406892713
 21
122.5541758621
  0
LINE
  5
304
100
AcDbEntity
  8
0
100
AcDbLine
 62
7
  6
CONTINUOUS
 10
95.9386769987
 20
122.5758850248
 11
95.6406892713
 21
122.6330799091
  0
LINE
  5
305
100
AcDbEntity
  8
0
100
AcDbLine
 62
7
  6
CONTINUOUS
 10
108.8362332562
 20
120.0021149121
 11
109.095769717
 21
119.9449200227
  0
LINE
  5
306
100
AcDbEntity
  8
0
100
AcDbLine
 62
7
  6
CONTINUOUS
 10
113.7674221497
 20
120.0021149121
 11
114.0269586105
 21
119.9449200227
  0
LINE
  5
307
100
AcDbEntity
  8
0
100
AcDbLine
 62
7
  6
CONTINUOUS
 10
107.3828302342
 20
122.4969809777
 11
107.1232940705
 21
122.5541758621
  0
LINE
  5
308
100
AcDbEntity
  8
0
100
AcDbLine
 62
7
  6
CONTINUOUS
 10
107.3828302342
 20
122.5758850248
 11
107.1232940705
 21
122.6330799091
  0
LINE
  5
309
100
AcDbEntity
  8
0
100
AcDbLine
 62
7
  6
CONTINUOUS
 10
95.6406892713
 20
122.2899106028
 11
95.879079044
 21
122.2327157185
  0
LINE
  5
30A
100
AcDbEntity
  8
0
100
AcDbLine
 62
7
  6
CONTINUOUS
 10
109.095769717
 20
120.209185322
 11
108.8881406078
 21
120.2663802064
  0
LINE
  5
30B
100
AcDbEntity
  8
0
100
AcDbLine
 62
7
  6
CONTINUOUS
 10
109.095769717
 20
120.2880893691
 11
108.8881406078
 21
120.3452842534
  0
LINE
  5
30C
100
AcDbEntity
  8
0
100
AcDbLine
 62
7
  6
CONTINUOUS
 10
90.3365117145
 20
122.3471054872
 11
90.5153042145
 21
122.2899106028
  0
LINE
  5
30D
100
AcDbEntity
  8
0
100
AcDbLine
 62
7
  6
CONTINUOUS
 10
96.1770667713
 20
122.3825912089
 11
95.9386769987
 21
122.4969809777
  0
LINE
  5
30E
100
AcDbEntity
  8
0
100
AcDbLine
 62
7
  6
CONTINUOUS
 10
96.1770667713
 20
122.461495256
 11
95.9386769987
 21
122.5758850248
  0
LINE
  5
30F
100
AcDbEntity
  8
0
100
AcDbLine
 62
7
  6
CONTINUOUS
 10
92.303229385
 20
120.2663802064
 11
92.124436885
 21
120.3807700152
  0
LINE
  5
310
100
AcDbEntity
  8
0
100
AcDbLine
 62
7
  6
CONTINUOUS
 10
92.303229385
 20
120.3452842534
 11
92.124436885
 21
120.4596740623
  0
LINE
  5
311
100
AcDbEntity
  8
0
100
AcDbLine
 62
7
  6
CONTINUOUS
 10
95.879079044
 20
122.2327157185
 11
96.057871544
 21
122.1183259497
  0
LINE
  5
312
100
AcDbEntity
  8
0
100
AcDbLine
 62
7
  6
CONTINUOUS
 10
90.8132917713
 20
122.3253963245
 11
90.5749018282
 21
122.4969809777
  0
LINE
  5
313
100
AcDbEntity
  8
0
100
AcDbLine
 62
7
  6
CONTINUOUS
 10
90.8132917713
 20
122.4043003716
 11
90.5749018282
 21
122.5758850248
  0
LINE
  5
314
100
AcDbEntity
  8
0
100
AcDbLine
 62
7
  6
CONTINUOUS
 10
91.766851885
 20
120.3452842534
 11
92.0052416576
 21
120.1165046959
  0
LINE
  5
315
100
AcDbEntity
  8
0
100
AcDbLine
 62
7
  6
CONTINUOUS
 10
90.5153042145
 20
122.2899106028
 11
90.6344992713
 21
122.1755208341
  0
LINE
  5
316
100
AcDbEntity
  8
0
100
AcDbLine
 62
7
  6
CONTINUOUS
 10
90.9920842713
 20
122.096616787
 11
90.8132917713
 21
122.3253963245
  0
LINE
  5
317
100
AcDbEntity
  8
0
100
AcDbLine
 62
7
  6
CONTINUOUS
 10
90.9920842713
 20
122.1755208341
 11
90.8132917713
 21
122.4043003716
  0
LINE
  5
318
100
AcDbEntity
  8
0
100
AcDbLine
 62
7
  6
CONTINUOUS
 10
92.124436885
 20
120.3807700152
 11
92.0052416576
 21
120.5523546683
  0
LINE
  5
319
100
AcDbEntity
  8
0
100
AcDbLine
 62
7
  6
CONTINUOUS
 10
92.124436885
 20
120.4596740623
 11
92.0052416576
 21
120.6312587154
  0
LINE
  5
31A
100
AcDbEntity
  8
0
100
AcDbLine
 62
7
  6
CONTINUOUS
 10
80.5188257703
 20
126.8273589741
 11
81.8456940363
 21
122.2076466743
  0
LINE
  5
31B
100
AcDbEntity
  8
0
100
AcDbLine
 62
7
  6
CONTINUOUS
 10
80.5188257703
 20
128.2833327604
 11
81.8456940363
 21
123.5964425139
  0
LINE
  5
31C
100
AcDbEntity
  8
RUNDUNGEN
100
AcDbLine
 62
7
  6
CONTINUOUS
 10
81.170354424
 20
68.4742527981
 11
81.170354424
 21
75.1417482254
  0
LINE
  5
31D
100
AcDbEntity
  8
0
100
AcDbLine
 62
7
  6
CONTINUOUS
 10
81.8456940363
 20
118.250236349
 11
81.8456940363
 21
123.5964425139
  0
LINE
  5
31E
100
AcDbEntity
  8
RUNDUNGEN
100
AcDbLine
 62
7
  6
CONTINUOUS
 10
82.2210486231
 20
86.2792866174
 11
82.2210486231
 21
89.356117452
  0
LINE
  5
31F
100
AcDbEntity
  8
0
100
AcDbLine
 62
7
  6
CONTINUOUS
 10
84.320354424
 20
99.0596147529
 11
84.320354424
 21
102.3659643288
  0
LINE
  5
320
100
AcDbEntity
  8
RUNDUNGEN
100
AcDbLine
 62
7
  6
CONTINUOUS
 10
84.320354424
 20
102.3659643288
 11
84.320354424
 21
120.4061448045
  0
LINE
  5
321
100
AcDbEntity
  8
RUNDUNGEN
100
AcDbLine
 62
7
  6
CONTINUOUS
 10
85.670354424
 20
67.3331834914
 11
85.670354424
 21
68.9813947121
  0
LINE
  5
322
100
AcDbEntity
  8
RUNDUNGEN
100
AcDbLine
 62
7
  6
CONTINUOUS
 10
89.320354424
 20
125.2855300461
 11
113.8206692663
 21
125.2855300461
  0
LINE
  5
323
100
AcDbEntity
  8
0
100
AcDbLine
 62
7
  6
CONTINUOUS
 10
109.8224711537
 20
122.4969809777
 11
109.56293499
 21
122.5541758621
  0
LINE
  5
324
100
AcDbEntity
  8
0
100
AcDbLine
 62
7
  6
CONTINUOUS
 10
114.546030938
 20
121.524667783
 11
114.2864950712
 21
121.5818626673
  0
LINE
  5
325
100
AcDbEntity
  8
0
100
AcDbLine
 62
7
  6
CONTINUOUS
 10
109.8224711537
 20
122.5758850248
 11
109.56293499
 21
122.6330799091
  0
LINE
  5
326
100
AcDbEntity
  8
0
100
AcDbLine
 62
7
  6
CONTINUOUS
 10
114.546030938
 20
121.60357183
 11
114.2864950712
 21
121.6607667144
  0
LINE
  5
327
100
AcDbEntity
  8
0
100
AcDbLine
 62
7
  6
CONTINUOUS
 10
114.4941238834
 20
122.4969809777
 11
114.2345874227
 21
122.5541758621
  0
LINE
  5
328
100
AcDbEntity
  8
0
100
AcDbLine
 62
7
  6
CONTINUOUS
 10
114.4941238834
 20
122.5758850248
 11
114.2345874227
 21
122.6330799091
  0
LINE
  5
329
100
AcDbEntity
  8
0
100
AcDbLine
 62
7
  6
CONTINUOUS
 10
109.56293499
 20
122.2899106028
 11
109.7705638022
 21
122.2327157185
  0
LINE
  5
32A
100
AcDbEntity
  8
0
100
AcDbLine
 62
7
  6
CONTINUOUS
 10
107.1752012735
 20
122.3471054872
 11
107.3309230312
 21
122.2899106028
  0
LINE
  5
32B
100
AcDbEntity
  8
0
100
AcDbLine
 62
7
  6
CONTINUOUS
 10
113.9750515559
 20
120.1519904376
 11
113.8193297983
 21
120.209185322
  0
LINE
  5
32C
100
AcDbEntity
  8
0
100
AcDbLine
 62
7
  6
CONTINUOUS
 10
113.9750515559
 20
120.2308944847
 11
113.8193297983
 21
120.2880893691
  0
LINE
  5
32D
100
AcDbEntity
  8
0
100
AcDbLine
 62
7
  6
CONTINUOUS
 10
114.3384021258
 20
121.3747922925
 11
114.4941238834
 21
121.3175974081
  0
LINE
  5
32E
100
AcDbEntity
  8
0
100
AcDbLine
 62
7
  6
CONTINUOUS
 10
114.2864950712
 20
122.3471054872
 11
114.4422168289
 21
122.2899106028
  0
LINE
  5
32F
100
AcDbEntity
  8
0
100
AcDbLine
 62
7
  6
CONTINUOUS
 10
108.628604444
 20
120.1165046959
 11
108.8362332562
 21
120.0021149121
  0
LINE
  5
330
100
AcDbEntity
  8
0
100
AcDbLine
 62
7
  6
CONTINUOUS
 10
110.0301002629
 20
122.3825912089
 11
109.8224711537
 21
122.4969809777
  0
LINE
  5
331
100
AcDbEntity
  8
0
100
AcDbLine
 62
7
  6
CONTINUOUS
 10
110.0301002629
 20
122.461495256
 11
109.8224711537
 21
122.5758850248
  0
LINE
  5
332
100
AcDbEntity
  8
0
100
AcDbLine
 62
7
  6
CONTINUOUS
 10
108.8881406078
 20
120.2663802064
 11
108.7324188501
 21
120.3807700152
  0
LINE
  5
333
100
AcDbEntity
  8
0
100
AcDbLine
 62
7
  6
CONTINUOUS
 10
108.8881406078
 20
120.3452842534
 11
108.7324188501
 21
120.4596740623
  0
LINE
  5
334
100
AcDbEntity
  8
0
100
AcDbLine
 62
7
  6
CONTINUOUS
 10
96.415456544
 20
122.1538116714
 11
96.1770667713
 21
122.3825912089
  0
LINE
  5
335
100
AcDbEntity
  8
0
100
AcDbLine
 62
7
  6
CONTINUOUS
 10
96.415456544
 20
122.2327157185
 11
96.1770667713
 21
122.461495256
  0
LINE
  5
336
100
AcDbEntity
  8
0
100
AcDbLine
 62
7
  6
CONTINUOUS
 10
96.057871544
 20
122.1183259497
 11
96.1770667713
 21
121.9467411363
  0
LINE
  5
337
100
AcDbEntity
  8
0
100
AcDbLine
 62
7
  6
CONTINUOUS
 10
91.6476568282
 20
120.574063831
 11
91.766851885
 21
120.3452842534
  0
LINE
  5
338
100
AcDbEntity
  8
0
100
AcDbLine
 62
7
  6
CONTINUOUS
 10
96.5346517713
 20
121.9250321339
 11
96.415456544
 21
122.1538116714
  0
LINE
  5
339
100
AcDbEntity
  8
0
100
AcDbLine
 62
7
  6
CONTINUOUS
 10
96.5346517713
 20
122.0039361809
 11
96.415456544
 21
122.2327157185
  0
LINE
  5
33A
100
AcDbEntity
  8
0
100
AcDbLine
 62
7
  6
CONTINUOUS
 10
91.0791068322
 20
119.9449200227
 11
90.5749018282
 21
121.1814984767
  0
LINE
  5
33B
100
AcDbEntity
  8
0
100
AcDbLine
 62
7
  6
CONTINUOUS
 10
91.1112793282
 20
119.9449200227
 11
90.5749018282
 21
121.2604025237
  0
LINE
  5
33C
100
AcDbEntity
  8
0
100
AcDbLine
 62
7
  6
CONTINUOUS
 10
90.2173167429
 20
121.146012755
 11
90.6940967145
 21
119.9449200227
  0
LINE
  5
33D
100
AcDbEntity
  8
0
100
AcDbLine
 62
7
  6
CONTINUOUS
 10
90.6344992713
 20
122.1755208341
 11
90.6940967145
 21
122.0039361809
  0
LINE
  5
33E
100
AcDbEntity
  8
0
100
AcDbLine
 62
7
  6
CONTINUOUS
 10
91.0516817145
 20
121.9250321339
 11
90.9920842713
 21
122.096616787
  0
LINE
  5
33F
100
AcDbEntity
  8
0
100
AcDbLine
 62
7
  6
CONTINUOUS
 10
91.0516817145
 20
122.0039361809
 11
90.9920842713
 21
122.1755208341
  0
LINE
  5
340
100
AcDbEntity
  8
0
100
AcDbLine
 62
7
  6
CONTINUOUS
 10
92.0052416576
 20
120.5523546683
 11
91.945644385
 21
120.7811342059
  0
LINE
  5
341
100
AcDbEntity
  8
0
100
AcDbLine
 62
7
  6
CONTINUOUS
 10
92.0052416576
 20
120.6312587154
 11
91.945644385
 21
120.8600382529
  0
LINE
  5
342
100
AcDbEntity
  8
0
100
AcDbLine
 62
7
  6
CONTINUOUS
 10
87.0829655017
 20
96.1180588619
 11
87.0829655017
 21
96.8705031772
  0
LINE
  5
343
100
AcDbEntity
  8
0
100
AcDbLine
 62
7
  6
CONTINUOUS
 10
88.8465742713
 20
122.6330799091
 11
88.8465742713
 21
119.9449200227
  0
LINE
  5
344
100
AcDbEntity
  8
0
100
AcDbLine
 62
7
  6
CONTINUOUS
 10
89.2041592713
 20
119.9449200227
 11
89.2041592713
 21
121.146012755
  0
LINE
  5
345
100
AcDbEntity
  8
0
100
AcDbLine
 62
7
  6
CONTINUOUS
 10
89.2041592713
 20
121.4102780142
 11
89.2041592713
 21
122.3471054872
  0
LINE
  5
346
100
AcDbEntity
  8
0
100
AcDbLine
 62
7
  6
CONTINUOUS
 10
90.2769142713
 20
122.6330799091
 11
90.2769142713
 21
122.5541758621
  0
LINE
  5
347
100
AcDbEntity
  8
0
100
AcDbLine
 62
7
  6
CONTINUOUS
 10
90.3365117145
 20
121.4891820613
 11
90.3365117145
 21
121.4102780142
  0
LINE
  5
348
100
AcDbEntity
  8
0
100
AcDbLine
 62
7
  6
CONTINUOUS
 10
90.5153042145
 20
121.5463769456
 11
90.5153042145
 21
121.4674728986
  0
LINE
  5
349
100
AcDbEntity
  8
0
100
AcDbLine
 62
7
  6
CONTINUOUS
 10
90.5749018282
 20
122.5758850248
 11
90.5749018282
 21
122.4969809777
  0
LINE
  5
34A
100
AcDbEntity
  8
0
100
AcDbLine
 62
7
  6
CONTINUOUS
 10
90.5749018282
 20
121.2604025237
 11
90.5749018282
 21
121.1814984767
  0
LINE
  5
34B
100
AcDbEntity
  8
0
100
AcDbLine
 62
7
  6
CONTINUOUS
 10
90.6344992713
 20
121.6607667144
 11
90.6344992713
 21
121.5818626673
  0
LINE
  5
34C
100
AcDbEntity
  8
0
100
AcDbLine
 62
7
  6
CONTINUOUS
 10
90.6940967145
 20
122.0039361809
 11
90.6940967145
 21
121.7534473205
  0
LINE
  5
34D
100
AcDbEntity
  8
0
100
AcDbLine
 62
7
  6
CONTINUOUS
 10
90.8132917713
 20
122.4043003716
 11
90.8132917713
 21
122.3253963245
  0
LINE
  5
34E
100
AcDbEntity
  8
0
100
AcDbLine
 62
7
  6
CONTINUOUS
 10
90.9920842713
 20
122.1755208341
 11
90.9920842713
 21
122.096616787
  0
LINE
  5
34F
100
AcDbEntity
  8
0
100
AcDbLine
 62
7
  6
CONTINUOUS
 10
91.0516817145
 20
121.7751564832
 11
91.0516817145
 21
122.0039361809
  0
LINE
  5
350
100
AcDbEntity
  8
0
100
AcDbLine
 62
7
  6
CONTINUOUS
 10
91.5880592145
 20
122.6330799091
 11
91.5880592145
 21
120.8600382529
  0
LINE
  5
351
100
AcDbEntity
  8
0
100
AcDbLine
 62
7
  6
CONTINUOUS
 10
113.5078862829
 20
120.1736995803
 11
113.7674221497
 21
120.0021149121
  0
LINE
  5
352
100
AcDbEntity
  8
0
100
AcDbLine
 62
7
  6
CONTINUOUS
 10
114.8055673987
 20
121.3530831298
 11
114.546030938
 21
121.524667783
  0
LINE
  5
353
100
AcDbEntity
  8
0
100
AcDbLine
 62
7
  6
CONTINUOUS
 10
114.8055673987
 20
121.4319871769
 11
114.546030938
 21
121.60357183
  0
LINE
  5
354
100
AcDbEntity
  8
0
100
AcDbLine
 62
7
  6
CONTINUOUS
 10
114.7536603442
 20
122.3253963245
 11
114.4941238834
 21
122.4969809777
  0
LINE
  5
355
100
AcDbEntity
  8
0
100
AcDbLine
 62
7
  6
CONTINUOUS
 10
114.7536603442
 20
122.4043003716
 11
114.4941238834
 21
122.5758850248
  0
LINE
  5
356
100
AcDbEntity
  8
0
100
AcDbLine
 62
7
  6
CONTINUOUS
 10
109.7705638022
 20
122.2327157185
 11
109.9262855598
 21
122.1183259497
  0
LINE
  5
357
100
AcDbEntity
  8
0
100
AcDbLine
 62
7
  6
CONTINUOUS
 10
113.8193297983
 20
120.209185322
 11
113.6636080406
 21
120.3235750908
  0
LINE
  5
358
100
AcDbEntity
  8
0
100
AcDbLine
 62
7
  6
CONTINUOUS
 10
113.8193297983
 20
120.2880893691
 11
113.6636080406
 21
120.4024791378
  0
LINE
  5
359
100
AcDbEntity
  8
0
100
AcDbLine
 62
7
  6
CONTINUOUS
 10
114.4941238834
 20
121.3175974081
 11
114.6498456411
 21
121.2032076393
  0
LINE
  5
35A
100
AcDbEntity
  8
0
100
AcDbLine
 62
7
  6
CONTINUOUS
 10
114.4422168289
 20
122.2899106028
 11
114.5979385865
 21
122.1755208341
  0
LINE
  5
35B
100
AcDbEntity
  8
0
100
AcDbLine
 62
7
  6
CONTINUOUS
 10
107.5904593435
 20
122.3253963245
 11
107.3828302342
 21
122.4969809777
  0
LINE
  5
35C
100
AcDbEntity
  8
0
100
AcDbLine
 62
7
  6
CONTINUOUS
 10
107.5904593435
 20
122.4043003716
 11
107.3828302342
 21
122.5758850248
  0
LINE
  5
35D
100
AcDbEntity
  8
0
100
AcDbLine
 62
7
  6
CONTINUOUS
 10
108.4209753348
 20
120.3452842534
 11
108.628604444
 21
120.1165046959
  0
LINE
  5
35E
100
AcDbEntity
  8
0
100
AcDbLine
 62
7
  6
CONTINUOUS
 10
107.3309230312
 20
122.2899106028
 11
107.4347375858
 21
122.1755208341
  0
LINE
  5
35F
100
AcDbEntity
  8
0
100
AcDbLine
 62
7
  6
CONTINUOUS
 10
96.1770667713
 20
121.9467411363
 11
96.236664044
 21
121.7179615988
  0
LINE
  5
360
100
AcDbEntity
  8
0
100
AcDbLine
 62
7
  6
CONTINUOUS
 10
91.5880592145
 20
120.8600382529
 11
91.6476568282
 21
120.574063831
  0
LINE
  5
361
100
AcDbEntity
  8
0
100
AcDbLine
 62
7
  6
CONTINUOUS
 10
91.945644385
 20
120.7811342059
 11
91.945644385
 21
122.6330799091
  0
LINE
  5
362
100
AcDbEntity
  8
0
100
AcDbLine
 62
7
  6
CONTINUOUS
 10
92.0052416576
 20
120.6312587154
 11
92.0052416576
 21
120.5523546683
  0
LINE
  5
363
100
AcDbEntity
  8
0
100
AcDbLine
 62
7
  6
CONTINUOUS
 10
92.124436885
 20
120.4596740623
 11
92.124436885
 21
120.3807700152
  0
LINE
  5
364
100
AcDbEntity
  8
0
100
AcDbLine
 62
7
  6
CONTINUOUS
 10
92.303229385
 20
120.3452842534
 11
92.303229385
 21
120.2663802064
  0
LINE
  5
365
100
AcDbEntity
  8
0
100
AcDbLine
 62
7
  6
CONTINUOUS
 10
92.5416191576
 20
120.2880893691
 11
92.5416191576
 21
120.209185322
  0
LINE
  5
366
100
AcDbEntity
  8
0
100
AcDbLine
 62
7
  6
CONTINUOUS
 10
92.7800092713
 20
120.2880893691
 11
92.7800092713
 21
120.209185322
  0
LINE
  5
367
100
AcDbEntity
  8
0
100
AcDbLine
 62
7
  6
CONTINUOUS
 10
92.8179937828
 20
86.7820758967
 11
92.8179937828
 21
85.1085075802
  0
LINE
  5
368
100
AcDbEntity
  8
KONSTRUKTIONSELEMENTE
100
AcDbLine
 62
7
  6
CONTINUOUS
 10
92.9392089612
 20
109.6869172407
 11
92.9392089612
 21
110.9639595123
  0
LINE
  5
369
100
AcDbEntity
  8
0
100
AcDbLine
 62
7
  6
CONTINUOUS
 10
93.018399385
 20
120.3452842534
 11
93.018399385
 21
120.2663802064
  0
LINE
  5
36A
100
AcDbEntity
  8
0
100
AcDbLine
 62
7
  6
CONTINUOUS
 10
93.197191885
 20
120.4596740623
 11
93.197191885
 21
120.3807700152
  0
LINE
  5
36B
100
AcDbEntity
  8
0
100
AcDbLine
 62
7
  6
CONTINUOUS
 10
93.3163867713
 20
120.6312587154
 11
93.3163867713
 21
120.5523546683
  0
LINE
  5
36C
100
AcDbEntity
  8
0
100
AcDbLine
 62
7
  6
CONTINUOUS
 10
93.375984385
 20
122.6330799091
 11
93.375984385
 21
120.7811342059
  0
LINE
  5
36D
100
AcDbEntity
  8
0
100
AcDbLine
 62
7
  6
CONTINUOUS
 10
93.733569385
 20
120.8600382529
 11
93.733569385
 21
122.6330799091
  0
LINE
  5
36E
100
AcDbEntity
  8
0
100
AcDbLine
 62
7
  6
CONTINUOUS
 10
93.9879937828
 20
85.3367214415
 11
93.9879937828
 21
86.0650415003
  0
LINE
  5
36F
100
AcDbEntity
  8
0
100
AcDbLine
 62
7
  6
CONTINUOUS
 10
93.9879937828
 20
86.0974343126
 11
93.9879937828
 21
86.8257543714
  0
LINE
  5
370
100
AcDbEntity
  8
0
100
AcDbLine
 62
7
  6
CONTINUOUS
 10
94.2103492713
 20
122.6330799091
 11
94.2103492713
 21
119.9449200227
  0
LINE
  5
371
100
AcDbEntity
  8
0
100
AcDbLine
 62
7
  6
CONTINUOUS
 10
94.2579937828
 20
86.4853978769
 11
94.2579937828
 21
86.165898471
  0
LINE
  5
372
100
AcDbEntity
  8
0
100
AcDbLine
 62
7
  6
CONTINUOUS
 10
94.2579937828
 20
85.7246850058
 11
94.2579937828
 21
85.4051855999
  0
LINE
  5
373
100
AcDbEntity
  8
0
100
AcDbLine
 62
7
  6
CONTINUOUS
 10
94.4829937828
 20
85.7094707484
 11
94.4829937828
 21
85.7551135206
  0
LINE
  5
374
100
AcDbEntity
  8
0
100
AcDbLine
 62
7
  6
CONTINUOUS
 10
94.4829937828
 20
85.8692204513
 11
94.4829937828
 21
86.0213630255
  0
LINE
  5
375
100
AcDbEntity
  8
0
100
AcDbLine
 62
7
  6
CONTINUOUS
 10
94.4829937828
 20
86.1354699562
 11
94.4829937828
 21
86.4530050646
  0
LINE
  5
376
100
AcDbEntity
  8
0
100
AcDbLine
 62
7
  6
CONTINUOUS
 10
94.5679342713
 20
120.209185322
 11
94.5679342713
 21
122.2899106028
  0
LINE
  5
377
100
AcDbEntity
  8
0
100
AcDbLine
 62
7
  6
CONTINUOUS
 10
94.7529937828
 20
86.0213630255
 11
94.7529937828
 21
85.8692204513
  0
LINE
  5
378
100
AcDbEntity
  8
0
100
AcDbLine
 62
7
  6
CONTINUOUS
 10
94.7529937828
 20
86.4530050646
 11
94.7529937828
 21
86.1354699562
  0
LINE
  5
379
100
AcDbEntity
  8
0
100
AcDbLine
 62
7
  6
CONTINUOUS
 10
94.7529937828
 20
85.7551135206
 11
94.7529937828
 21
85.7094707484
  0
LINE
  5
37A
100
AcDbEntity
  8
0
100
AcDbLine
 62
7
  6
CONTINUOUS
 10
94.9779937828
 20
85.4051855999
 11
94.9779937828
 21
85.7246850058
  0
LINE
  5
37B
100
AcDbEntity
  8
0
100
AcDbLine
 62
7
  6
CONTINUOUS
 10
94.9779937828
 20
86.165898471
 11
94.9779937828
 21
86.4853978769
  0
LINE
  5
37C
100
AcDbEntity
  8
0
100
AcDbLine
 62
7
  6
CONTINUOUS
 10
95.070354424
 20
218.3856695669
 11
95.070354424
 21
135.495237415
  0
LINE
  5
37D
100
AcDbEntity
  8
0
100
AcDbLine
 62
7
  6
CONTINUOUS
 10
95.2479937828
 20
86.8257543714
 11
95.2479937828
 21
86.0974343126
  0
LINE
  5
37E
100
AcDbEntity
  8
0
100
AcDbLine
 62
7
  6
CONTINUOUS
 10
95.2479937828
 20
86.0650415003
 11
95.2479937828
 21
85.3367214415
  0
LINE
  5
37F
100
AcDbEntity
  8
0
100
AcDbLine
 62
7
  6
CONTINUOUS
 10
95.6406892713
 20
122.6330799091
 11
95.6406892713
 21
122.5541758621
  0
LINE
  5
380
100
AcDbEntity
  8
0
100
AcDbLine
 62
7
  6
CONTINUOUS
 10
95.6406892713
 20
120.2880893691
 11
95.6406892713
 21
120.209185322
  0
LINE
  5
381
100
AcDbEntity
  8
0
100
AcDbLine
 62
7
  6
CONTINUOUS
 10
95.879079044
 20
120.3452842534
 11
95.879079044
 21
120.2663802064
  0
LINE
  5
382
100
AcDbEntity
  8
0
100
AcDbLine
 62
7
  6
CONTINUOUS
 10
95.9386769987
 20
122.5758850248
 11
95.9386769987
 21
122.4969809777
  0
LINE
  5
383
100
AcDbEntity
  8
0
100
AcDbLine
 62
7
  6
CONTINUOUS
 10
96.057871544
 20
120.4596740623
 11
96.057871544
 21
120.3807700152
  0
LINE
  5
384
100
AcDbEntity
  8
0
100
AcDbLine
 62
7
  6
CONTINUOUS
 10
96.1770667713
 20
122.461495256
 11
96.1770667713
 21
122.3825912089
  0
LINE
  5
385
100
AcDbEntity
  8
0
100
AcDbLine
 62
7
  6
CONTINUOUS
 10
96.1770667713
 20
120.6312587154
 11
96.1770667713
 21
120.5523546683
  0
LINE
  5
386
100
AcDbEntity
  8
0
100
AcDbLine
 62
7
  6
CONTINUOUS
 10
96.236664044
 20
121.7179615988
 11
96.236664044
 21
120.7811342059
  0
LINE
  5
387
100
AcDbEntity
  8
0
100
AcDbLine
 62
7
  6
CONTINUOUS
 10
96.415456544
 20
122.2327157185
 11
96.415456544
 21
122.1538116714
  0
LINE
  5
388
100
AcDbEntity
  8
0
100
AcDbLine
 62
7
  6
CONTINUOUS
 10
96.4179937828
 20
85.1085075802
 11
96.4179937828
 21
86.7820758967
  0
LINE
  5
389
100
AcDbEntity
  8
0
100
AcDbLine
 62
7
  6
CONTINUOUS
 10
96.5346517713
 20
122.0039361809
 11
96.5346517713
 21
121.9250321339
  0
LINE
  5
38A
100
AcDbEntity
  8
0
100
AcDbLine
 62
7
  6
CONTINUOUS
 10
96.594249044
 20
120.8600382529
 11
96.594249044
 21
121.7179615988
  0
LINE
  5
38B
100
AcDbEntity
  8
0
100
AcDbLine
 62
7
  6
CONTINUOUS
 10
110.2377293721
 20
122.1538116714
 11
110.0301002629
 21
122.3825912089
  0
LINE
  5
38C
100
AcDbEntity
  8
0
100
AcDbLine
 62
7
  6
CONTINUOUS
 10
110.2377293721
 20
122.2327157185
 11
110.0301002629
 21
122.461495256
  0
LINE
  5
38D
100
AcDbEntity
  8
0
100
AcDbLine
 62
7
  6
CONTINUOUS
 10
114.6498456411
 20
121.2032076393
 11
114.7536603442
 21
121.0888178706
  0
LINE
  5
38E
100
AcDbEntity
  8
0
100
AcDbLine
 62
7
  6
CONTINUOUS
 10
114.9612891564
 20
121.1814984767
 11
114.8055673987
 21
121.3530831298
  0
LINE
  5
38F
100
AcDbEntity
  8
0
100
AcDbLine
 62
7
  6
CONTINUOUS
 10
114.9612891564
 20
121.2604025237
 11
114.8055673987
 21
121.4319871769
  0
LINE
  5
390
100
AcDbEntity
  8
0
100
AcDbLine
 62
7
  6
CONTINUOUS
 10
107.7461809526
 20
122.096616787
 11
107.5904593435
 21
122.3253963245
  0
LINE
  5
391
100
AcDbEntity
  8
0
100
AcDbLine
 62
7
  6
CONTINUOUS
 10
107.7461809526
 20
122.1755208341
 11
107.5904593435
 21
122.4043003716
  0
LINE
  5
392
100
AcDbEntity
  8
0
100
AcDbLine
 62
7
  6
CONTINUOUS
 10
113.3521645253
 20
120.4024791378
 11
113.5078862829
 21
120.1736995803
  0
LINE
  5
393
100
AcDbEntity
  8
0
100
AcDbLine
 62
7
  6
CONTINUOUS
 10
108.7324188501
 20
120.3807700152
 11
108.628604444
 21
120.5523546683
  0
LINE
  5
394
100
AcDbEntity
  8
0
100
AcDbLine
 62
7
  6
CONTINUOUS
 10
108.7324188501
 20
120.4596740623
 11
108.628604444
 21
120.6312587154
  0
LINE
  5
395
100
AcDbEntity
  8
0
100
AcDbLine
 62
7
  6
CONTINUOUS
 10
96.594249044
 20
121.6390575517
 11
96.5346517713
 21
121.9250321339
  0
LINE
  5
396
100
AcDbEntity
  8
0
100
AcDbLine
 62
7
  6
CONTINUOUS
 10
96.594249044
 20
121.7179615988
 11
96.5346517713
 21
122.0039361809
  0
LINE
  5
397
100
AcDbEntity
  8
0
100
AcDbLine
 62
7
  6
CONTINUOUS
 10
97.5854745637
 20
86.9342184709
 11
97.5854745637
 21
86.7034689
  0
LINE
  5
398
100
AcDbEntity
  8
0
100
AcDbLine
 62
7
  6
CONTINUOUS
 10
97.5854745637
 20
86.4904692961
 11
97.5854745637
 21
84.9563650059
  0
LINE
  5
399
100
AcDbEntity
  8
0
100
AcDbLine
 62
7
  6
CONTINUOUS
 10
97.870354424
 20
109.1805067489
 11
97.870354424
 21
98.4184256654
  0
LINE
  5
39A
100
AcDbEntity
  8
KONSTRUKTIONSELEMENTE
100
AcDbLine
 62
7
  6
CONTINUOUS
 10
97.870354424
 20
109.1805067489
 11
97.870354424
 21
117.2190643831
  0
LINE
  5
39B
100
AcDbEntity
  8
KONSTRUKTIONSELEMENTE
100
AcDbLine
 62
7
  6
CONTINUOUS
 10
98.070354424
 20
125.2855300461
 11
98.070354424
 21
126.5266825837
  0
LINE
  5
39C
100
AcDbEntity
  8
0
100
AcDbLine
 62
7
  6
CONTINUOUS
 10
98.1614745637
 20
84.9563650059
 11
98.1614745637
 21
86.4904692961
  0
LINE
  5
39D
100
AcDbEntity
  8
KONSTRUKTIONSELEMENTE
100
AcDbLine
 62
7
  6
CONTINUOUS
 10
99.070354424
 20
86.8350821338
 11
99.070354424
 21
102.0207445885
  0
LINE
  5
39E
100
AcDbEntity
  8
KONSTRUKTIONSELEMENTE
100
AcDbLine
 62
7
  6
CONTINUOUS
 10
99.070354424
 20
125.2855300461
 11
99.070354424
 21
129.4411758745
  0
LINE
  5
39F
100
AcDbEntity
  8
KONSTRUKTIONSELEMENTE
100
AcDbLine
 62
7
  6
CONTINUOUS
 10
99.320354424
 20
110.4957445885
 11
99.320354424
 21
114.9856201191
  0
LINE
  5
3A0
100
AcDbEntity
  8
0
100
AcDbLine
 62
7
  6
CONTINUOUS
 10
93.6739717713
 20
120.574063831
 11
93.733569385
 21
120.8600382529
  0
LINE
  5
3A1
100
AcDbEntity
  8
0
100
AcDbLine
 62
7
  6
CONTINUOUS
 10
96.5346517713
 20
120.574063831
 11
96.594249044
 21
120.8600382529
  0
LINE
  5
3A2
100
AcDbEntity
  8
0
100
AcDbLine
 62
7
  6
CONTINUOUS
 10
93.375984385
 20
120.8600382529
 11
93.3163867713
 21
120.6312587154
  0
LINE
  5
3A3
100
AcDbEntity
  8
0
100
AcDbLine
 62
7
  6
CONTINUOUS
 10
93.375984385
 20
120.7811342059
 11
93.3163867713
 21
120.5523546683
  0
LINE
  5
3A4
100
AcDbEntity
  8
0
100
AcDbLine
 62
7
  6
CONTINUOUS
 10
90.6940967145
 20
121.8323513676
 11
90.6344992713
 21
121.6607667144
  0
LINE
  5
3A5
100
AcDbEntity
  8
0
100
AcDbLine
 62
7
  6
CONTINUOUS
 10
90.6940967145
 20
121.7534473205
 11
90.6344992713
 21
121.5818626673
  0
LINE
  5
3A6
100
AcDbEntity
  8
0
100
AcDbLine
 62
7
  6
CONTINUOUS
 10
90.9920842713
 20
121.60357183
 11
91.0516817145
 21
121.7751564832
  0
LINE
  5
3A7
100
AcDbEntity
  8
0
100
AcDbLine
 62
7
  6
CONTINUOUS
 10
114.9093821019
 20
122.096616787
 11
114.7536603442
 21
122.3253963245
  0
LINE
  5
3A8
100
AcDbEntity
  8
0
100
AcDbLine
 62
7
  6
CONTINUOUS
 10
114.9093821019
 20
122.1755208341
 11
114.7536603442
 21
122.4043003716
  0
LINE
  5
3A9
100
AcDbEntity
  8
0
100
AcDbLine
 62
7
  6
CONTINUOUS
 10
113.6636080406
 20
120.3235750908
 11
113.5597933375
 21
120.495159784
  0
LINE
  5
3AA
100
AcDbEntity
  8
0
100
AcDbLine
 62
7
  6
CONTINUOUS
 10
113.6636080406
 20
120.4024791378
 11
113.5597933375
 21
120.574063831
  0
LINE
  5
3AB
100
AcDbEntity
  8
0
100
AcDbLine
 62
7
  6
CONTINUOUS
 10
114.5979385865
 20
122.1755208341
 11
114.7017526956
 21
122.0039361809
  0
LINE
  5
3AC
100
AcDbEntity
  8
0
100
AcDbLine
 62
7
  6
CONTINUOUS
 10
108.3171609287
 20
120.574063831
 11
108.4209753348
 21
120.3452842534
  0
LINE
  5
3AD
100
AcDbEntity
  8
0
100
AcDbLine
 62
7
  6
CONTINUOUS
 10
107.8219745742
 20
119.9449200227
 11
107.3828302342
 21
121.1814984767
  0
LINE
  5
3AE
100
AcDbEntity
  8
0
100
AcDbLine
 62
7
  6
CONTINUOUS
 10
107.8499956557
 20
119.9449200227
 11
107.3828302342
 21
121.2604025237
  0
LINE
  5
3AF
100
AcDbEntity
  8
0
100
AcDbLine
 62
7
  6
CONTINUOUS
 10
107.0713867189
 20
121.146012755
 11
107.4866447889
 21
119.9449200227
  0
LINE
  5
3B0
100
AcDbEntity
  8
0
100
AcDbLine
 62
7
  6
CONTINUOUS
 10
107.4347375858
 20
122.1755208341
 11
107.4866447889
 21
122.0039361809
  0
LINE
  5
3B1
100
AcDbEntity
  8
0
100
AcDbLine
 62
7
  6
CONTINUOUS
 10
107.7980883042
 20
121.9250321339
 11
107.7461809526
 21
122.096616787
  0
LINE
  5
3B2
100
AcDbEntity
  8
0
100
AcDbLine
 62
7
  6
CONTINUOUS
 10
107.7980883042
 20
122.0039361809
 11
107.7461809526
 21
122.1755208341
  0
LINE
  5
3B3
100
AcDbEntity
  8
0
100
AcDbLine
 62
7
  6
CONTINUOUS
 10
109.9262855598
 20
122.1183259497
 11
109.9781929114
 21
121.9467411363
  0
LINE
  5
3B4
100
AcDbEntity
  8
KONSTRUKTIONSELEMENTE
100
AcDbLine
 62
7
  6
CONTINUOUS
 10
103.820354424
 20
110.4957445885
 11
103.820354424
 21
114.9856201191
  0
LINE
  5
3B5
100
AcDbEntity
  8
KONSTRUKTIONSELEMENTE
100
AcDbLine
 62
7
  6
CONTINUOUS
 10
104.070354424
 20
86.8350821338
 11
104.070354424
 21
102.0207445885
  0
LINE
  5
3B6
100
AcDbEntity
  8
KONSTRUKTIONSELEMENTE
100
AcDbLine
 62
7
  6
CONTINUOUS
 10
104.070354424
 20
125.2855300461
 11
104.070354424
 21
129.4411758745
  0
LINE
  5
3B7
100
AcDbEntity
  8
0
100
AcDbLine
 62
7
  6
CONTINUOUS
 10
104.7459557801
 20
86.9342184709
 11
104.7459557801
 21
85.6828040631
  0
LINE
  5
3B8
100
AcDbEntity
  8
KONSTRUKTIONSELEMENTE
100
AcDbLine
 62
7
  6
CONTINUOUS
 10
105.070354424
 20
126.5260059351
 11
105.070354424
 21
125.2855300461
  0
LINE
  5
3B9
100
AcDbEntity
  8
0
100
AcDbLine
 62
7
  6
CONTINUOUS
 10
105.150818424
 20
122.6330799091
 11
105.150818424
 21
119.9449200227
  0
LINE
  5
3BA
100
AcDbEntity
  8
0
100
AcDbLine
 62
7
  6
CONTINUOUS
 10
105.270354424
 20
98.4184256654
 11
105.270354424
 21
109.1805067489
  0
LINE
  5
3BB
100
AcDbEntity
  8
KONSTRUKTIONSELEMENTE
100
AcDbLine
 62
7
  6
CONTINUOUS
 10
105.270354424
 20
109.1805067489
 11
105.270354424
 21
117.2190643831
  0
LINE
  5
3BC
100
AcDbEntity
  8
0
100
AcDbLine
 62
7
  6
CONTINUOUS
 10
105.3219557801
 20
85.6828040631
 11
105.3219557801
 21
86.9342184709
  0
LINE
  5
3BD
100
AcDbEntity
  8
0
100
AcDbLine
 62
7
  6
CONTINUOUS
 10
105.4622619393
 20
119.9449200227
 11
105.4622619393
 21
122.6330799091
  0
LINE
  5
3BE
100
AcDbEntity
  8
0
100
AcDbLine
 62
7
  6
CONTINUOUS
 10
105.877519935
 20
122.6330799091
 11
105.877519935
 21
119.9449200227
  0
LINE
  5
3BF
100
AcDbEntity
  8
0
100
AcDbLine
 62
7
  6
CONTINUOUS
 10
106.1889634503
 20
119.9449200227
 11
106.1889634503
 21
121.146012755
  0
LINE
  5
3C0
100
AcDbEntity
  8
0
100
AcDbLine
 62
7
  6
CONTINUOUS
 10
106.1889634503
 20
121.4102780142
 11
106.1889634503
 21
122.3471054872
  0
LINE
  5
3C1
100
AcDbEntity
  8
0
100
AcDbLine
 62
7
  6
CONTINUOUS
 10
106.5819557801
 20
86.9342184709
 11
106.5819557801
 21
86.6907903521
  0
LINE
  5
3C2
100
AcDbEntity
  8
0
100
AcDbLine
 62
7
  6
CONTINUOUS
 10
106.5819557801
 20
86.4777907482
 11
106.5819557801
 21
84.9563650059
  0
LINE
  5
3C3
100
AcDbEntity
  8
0
100
AcDbLine
 62
7
  6
CONTINUOUS
 10
107.1232940705
 20
122.6330799091
 11
107.1232940705
 21
122.5541758621
  0
LINE
  5
3C4
100
AcDbEntity
  8
0
100
AcDbLine
 62
7
  6
CONTINUOUS
 10
107.1579557801
 20
85.209935963
 11
107.1579557801
 21
86.4777907482
  0
LINE
  5
3C5
100
AcDbEntity
  8
0
100
AcDbLine
 62
7
  6
CONTINUOUS
 10
107.1752012735
 20
121.4891820613
 11
107.1752012735
 21
121.4102780142
  0
LINE
  5
3C6
100
AcDbEntity
  8
0
100
AcDbLine
 62
7
  6
CONTINUOUS
 10
107.3309230312
 20
121.5463769456
 11
107.3309230312
 21
121.4674728986
  0
LINE
  5
3C7
100
AcDbEntity
  8
0
100
AcDbLine
 62
7
  6
CONTINUOUS
 10
107.3828302342
 20
122.5758850248
 11
107.3828302342
 21
122.4969809777
  0
LINE
  5
3C8
100
AcDbEntity
  8
0
100
AcDbLine
 62
7
  6
CONTINUOUS
 10
107.3828302342
 20
121.2604025237
 11
107.3828302342
 21
121.1814984767
  0
LINE
  5
3C9
100
AcDbEntity
  8
0
100
AcDbLine
 62
7
  6
CONTINUOUS
 10
107.4347375858
 20
121.6607667144
 11
107.4347375858
 21
121.5818626673
  0
LINE
  5
3CA
100
AcDbEntity
  8
0
100
AcDbLine
 62
7
  6
CONTINUOUS
 10
107.4866447889
 20
122.0039361809
 11
107.4866447889
 21
121.7534473205
  0
LINE
  5
3CB
100
AcDbEntity
  8
0
100
AcDbLine
 62
7
  6
CONTINUOUS
 10
107.5904593435
 20
122.4043003716
 11
107.5904593435
 21
122.3253963245
  0
LINE
  5
3CC
100
AcDbEntity
  8
0
100
AcDbLine
 62
7
  6
CONTINUOUS
 10
107.7461809526
 20
122.1755208341
 11
107.7461809526
 21
122.096616787
  0
LINE
  5
3CD
100
AcDbEntity
  8
0
100
AcDbLine
 62
7
  6
CONTINUOUS
 10
107.7980883042
 20
121.7751564832
 11
107.7980883042
 21
122.0039361809
  0
LINE
  5
3CE
100
AcDbEntity
  8
0
100
AcDbLine
 62
7
  6
CONTINUOUS
 10
108.070354424
 20
218.3856695669
 11
108.070354424
 21
135.495237415
  0
LINE
  5
3CF
100
AcDbEntity
  8
0
100
AcDbLine
 62
7
  6
CONTINUOUS
 10
96.236664044
 20
120.8600382529
 11
96.1770667713
 21
120.6312587154
  0
LINE
  5
3D0
100
AcDbEntity
  8
0
100
AcDbLine
 62
7
  6
CONTINUOUS
 10
96.236664044
 20
120.7811342059
 11
96.1770667713
 21
120.5523546683
  0
LINE
  5
3D1
100
AcDbEntity
  8
0
100
AcDbLine
 62
7
  6
CONTINUOUS
 10
93.554776885
 20
120.3452842534
 11
93.6739717713
 21
120.574063831
  0
LINE
  5
3D2
100
AcDbEntity
  8
0
100
AcDbLine
 62
7
  6
CONTINUOUS
 10
113.2483498222
 20
120.6884535998
 11
113.3521645253
 21
120.4024791378
  0
LINE
  5
3D3
100
AcDbEntity
  8
0
100
AcDbLine
 62
7
  6
CONTINUOUS
 10
115.0651038595
 20
120.8955240548
 11
114.9612891564
 21
121.1814984767
  0
LINE
  5
3D4
100
AcDbEntity
  8
0
100
AcDbLine
 62
7
  6
CONTINUOUS
 10
115.0651038595
 20
120.9744281018
 11
114.9612891564
 21
121.2604025237
  0
LINE
  5
3D5
100
AcDbEntity
  8
0
100
AcDbLine
 62
7
  6
CONTINUOUS
 10
113.5597933375
 20
120.495159784
 11
113.5078862829
 21
120.6667444371
  0
LINE
  5
3D6
100
AcDbEntity
  8
0
100
AcDbLine
 62
7
  6
CONTINUOUS
 10
113.5597933375
 20
120.574063831
 11
113.5078862829
 21
120.7456484842
  0
LINE
  5
3D7
100
AcDbEntity
  8
0
100
AcDbLine
 62
7
  6
CONTINUOUS
 10
114.7536603442
 20
121.0888178706
 11
114.8055673987
 21
120.9172331373
  0
LINE
  5
3D8
100
AcDbEntity
  8
0
100
AcDbLine
 62
7
  6
CONTINUOUS
 10
114.9374194419
 20
122.0039361809
 11
114.9093821019
 21
122.096616787
  0
LINE
  5
3D9
100
AcDbEntity
  8
0
100
AcDbLine
 62
7
  6
CONTINUOUS
 10
114.9612891564
 20
122.0039361809
 11
114.9093821019
 21
122.1755208341
  0
LINE
  5
3DA
100
AcDbEntity
  8
0
100
AcDbLine
 62
7
  6
CONTINUOUS
 10
108.628604444
 20
120.5523546683
 11
108.5766970925
 21
120.7811342059
  0
LINE
  5
3DB
100
AcDbEntity
  8
0
100
AcDbLine
 62
7
  6
CONTINUOUS
 10
108.628604444
 20
120.6312587154
 11
108.5766970925
 21
120.8600382529
  0
LINE
  5
3DC
100
AcDbEntity
  8
0
100
AcDbLine
 62
7
  6
CONTINUOUS
 10
108.2652535771
 20
120.8600382529
 11
108.3171609287
 21
120.574063831
  0
LINE
  5
3DD
100
AcDbEntity
  8
0
100
AcDbLine
 62
7
  6
CONTINUOUS
 10
110.2757713982
 20
121.9442245043
 11
110.2377293721
 21
122.1538116714
  0
LINE
  5
3DE
100
AcDbEntity
  8
0
100
AcDbLine
 62
7
  6
CONTINUOUS
 10
110.2896364267
 20
121.9467411363
 11
110.2377293721
 21
122.2327157185
  0
LINE
  5
3DF
100
AcDbEntity
  8
0
100
AcDbLine
 62
7
  6
CONTINUOUS
 10
108.2652535771
 20
121.7179615988
 11
108.2652535771
 21
120.8600382529
  0
LINE
  5
3E0
100
AcDbEntity
  8
0
100
AcDbLine
 62
7
  6
CONTINUOUS
 10
108.3171609287
 20
122.0039361809
 11
108.3171609287
 21
121.9250321339
  0
LINE
  5
3E1
100
AcDbEntity
  8
0
100
AcDbLine
 62
7
  6
CONTINUOUS
 10
108.4209753348
 20
122.2327157185
 11
108.4209753348
 21
122.1538116714
  0
LINE
  5
3E2
100
AcDbEntity
  8
0
100
AcDbLine
 62
7
  6
CONTINUOUS
 10
108.5766970925
 20
120.7811342059
 11
108.5766970925
 21
121.7179615988
  0
LINE
  5
3E3
100
AcDbEntity
  8
0
100
AcDbLine
 62
7
  6
CONTINUOUS
 10
108.628604444
 20
122.461495256
 11
108.628604444
 21
122.3825912089
  0
LINE
  5
3E4
100
AcDbEntity
  8
0
100
AcDbLine
 62
7
  6
CONTINUOUS
 10
108.628604444
 20
120.6312587154
 11
108.628604444
 21
120.5523546683
  0
LINE
  5
3E5
100
AcDbEntity
  8
0
100
AcDbLine
 62
7
  6
CONTINUOUS
 10
108.7324188501
 20
120.4596740623
 11
108.7324188501
 21
120.3807700152
  0
LINE
  5
3E6
100
AcDbEntity
  8
0
100
AcDbLine
 62
7
  6
CONTINUOUS
 10
108.8362332562
 20
122.5758850248
 11
108.8362332562
 21
122.4969809777
  0
LINE
  5
3E7
100
AcDbEntity
  8
0
100
AcDbLine
 62
7
  6
CONTINUOUS
 10
108.8881406078
 20
120.3452842534
 11
108.8881406078
 21
120.2663802064
  0
LINE
  5
3E8
100
AcDbEntity
  8
0
100
AcDbLine
 62
7
  6
CONTINUOUS
 10
109.095769717
 20
122.6330799091
 11
109.095769717
 21
122.5541758621
  0
LINE
  5
3E9
100
AcDbEntity
  8
0
100
AcDbLine
 62
7
  6
CONTINUOUS
 10
109.095769717
 20
120.2880893691
 11
109.095769717
 21
120.209185322
  0
LINE
  5
3EA
100
AcDbEntity
  8
0
100
AcDbLine
 62
7
  6
CONTINUOUS
 10
109.5110276384
 20
121.4319871769
 11
109.5110276384
 21
121.0888178706
  0
LINE
  5
3EB
100
AcDbEntity
  8
0
100
AcDbLine
 62
7
  6
CONTINUOUS
 10
109.56293499
 20
122.6330799091
 11
109.56293499
 21
122.5541758621
  0
LINE
  5
3EC
100
AcDbEntity
  8
0
100
AcDbLine
 62
7
  6
CONTINUOUS
 10
109.56293499
 20
120.2880893691
 11
109.56293499
 21
120.209185322
  0
LINE
  5
3ED
100
AcDbEntity
  8
0
100
AcDbLine
 62
7
  6
CONTINUOUS
 10
109.6375240318
 20
86.2222554937
 11
109.6375240318
 21
85.9503631576
  0
LINE
  5
3EE
100
AcDbEntity
  8
0
100
AcDbLine
 62
7
  6
CONTINUOUS
 10
109.7705638022
 20
120.3452842534
 11
109.7705638022
 21
120.2663802064
  0
LINE
  5
3EF
100
AcDbEntity
  8
0
100
AcDbLine
 62
7
  6
CONTINUOUS
 10
109.8224711537
 20
122.5758850248
 11
109.8224711537
 21
122.4969809777
  0
LINE
  5
3F0
100
AcDbEntity
  8
0
100
AcDbLine
 62
7
  6
CONTINUOUS
 10
109.9262855598
 20
120.4596740623
 11
109.9262855598
 21
120.3807700152
  0
LINE
  5
3F1
100
AcDbEntity
  8
0
100
AcDbLine
 62
7
  6
CONTINUOUS
 10
109.9781929114
 20
121.0888178706
 11
109.9781929114
 21
120.5523546683
  0
LINE
  5
3F2
100
AcDbEntity
  8
0
100
AcDbLine
 62
7
  6
CONTINUOUS
 10
110.0301002629
 20
122.461495256
 11
110.0301002629
 21
122.3825912089
  0
LINE
  5
3F3
100
AcDbEntity
  8
KONSTRUKTIONSELEMENTE
100
AcDbLine
 62
7
  6
CONTINUOUS
 10
110.2014998868
 20
109.6869172407
 11
110.2014998868
 21
110.9639595123
  0
LINE
  5
3F4
100
AcDbEntity
  8
0
100
AcDbLine
 62
7
  6
CONTINUOUS
 10
110.2377293721
 20
122.2327157185
 11
110.2377293721
 21
122.1538116714
  0
LINE
  5
3F5
100
AcDbEntity
  8
0
100
AcDbLine
 62
7
  6
CONTINUOUS
 10
110.2896364267
 20
120.574063831
 11
110.2896364267
 21
121.4319871769
  0
LINE
  5
3F6
100
AcDbEntity
  8
0
100
AcDbLine
 62
7
  6
CONTINUOUS
 10
113.1964427676
 20
121.4891820613
 11
113.1964427676
 21
121.0888178706
  0
LINE
  5
3F7
100
AcDbEntity
  8
0
100
AcDbLine
 62
7
  6
CONTINUOUS
 10
113.2483498222
 20
121.8895462519
 11
113.2483498222
 21
121.8106422049
  0
LINE
  5
3F8
100
AcDbEntity
  8
0
100
AcDbLine
 62
7
  6
CONTINUOUS
 10
113.3521645253
 20
122.1755208341
 11
113.3521645253
 21
122.096616787
  0
LINE
  5
3F9
100
AcDbEntity
  8
0
100
AcDbLine
 62
7
  6
CONTINUOUS
 10
113.4559786344
 20
121.2958882454
 11
113.4559786344
 21
121.4891820613
  0
LINE
  5
3FA
100
AcDbEntity
  8
0
100
AcDbLine
 62
7
  6
CONTINUOUS
 10
113.5078862829
 20
122.4043003716
 11
113.5078862829
 21
122.3253963245
  0
LINE
  5
3FB
100
AcDbEntity
  8
0
100
AcDbLine
 62
7
  6
CONTINUOUS
 10
113.5078862829
 20
120.6667444371
 11
113.5078862829
 21
120.9172331373
  0
LINE
  5
3FC
100
AcDbEntity
  8
0
100
AcDbLine
 62
7
  6
CONTINUOUS
 10
113.5597933375
 20
120.574063831
 11
113.5597933375
 21
120.495159784
  0
LINE
  5
3FD
100
AcDbEntity
  8
0
100
AcDbLine
 62
7
  6
CONTINUOUS
 10
113.6636080406
 20
120.4024791378
 11
113.6636080406
 21
120.3235750908
  0
LINE
  5
3FE
100
AcDbEntity
  8
0
100
AcDbLine
 62
7
  6
CONTINUOUS
 10
113.7674221497
 20
122.5758850248
 11
113.7674221497
 21
122.4969809777
  0
LINE
  5
3FF
100
AcDbEntity
  8
0
100
AcDbLine
 62
7
  6
CONTINUOUS
 10
113.7674221497
 20
121.60357183
 11
113.7674221497
 21
121.524667783
  0
LINE
  5
400
100
AcDbEntity
  8
0
100
AcDbLine
 62
7
  6
CONTINUOUS
 10
108.3171609287
 20
122.0039361809
 11
108.2652535771
 21
121.7179615988
  0
LINE
  5
401
100
AcDbEntity
  8
0
100
AcDbLine
 62
7
  6
CONTINUOUS
 10
108.3171609287
 20
121.9250321339
 11
108.2652535771
 21
121.6390575517
  0
LINE
  5
402
100
AcDbEntity
  8
0
100
AcDbLine
 62
7
  6
CONTINUOUS
 10
96.415456544
 20
120.3452842534
 11
96.5346517713
 21
120.574063831
  0
LINE
  5
403
100
AcDbEntity
  8
0
100
AcDbLine
 62
7
  6
CONTINUOUS
 10
93.3163867713
 20
120.6312587154
 11
93.197191885
 21
120.4596740623
  0
LINE
  5
404
100
AcDbEntity
  8
0
100
AcDbLine
 62
7
  6
CONTINUOUS
 10
93.3163867713
 20
120.5523546683
 11
93.197191885
 21
120.3807700152
  0
LINE
  5
405
100
AcDbEntity
  8
0
100
AcDbLine
 62
7
  6
CONTINUOUS
 10
96.1770667713
 20
120.6312587154
 11
96.057871544
 21
120.4596740623
  0
LINE
  5
406
100
AcDbEntity
  8
0
100
AcDbLine
 62
7
  6
CONTINUOUS
 10
96.1770667713
 20
120.5523546683
 11
96.057871544
 21
120.3807700152
  0
LINE
  5
407
100
AcDbEntity
  8
0
100
AcDbLine
 62
7
  6
CONTINUOUS
 10
90.8132917713
 20
121.3747922925
 11
90.9920842713
 21
121.60357183
  0
LINE
  5
408
100
AcDbEntity
  8
0
100
AcDbLine
 62
7
  6
CONTINUOUS
 10
90.6344992713
 20
121.6607667144
 11
90.5153042145
 21
121.5463769456
  0
LINE
  5
409
100
AcDbEntity
  8
0
100
AcDbLine
 62
7
  6
CONTINUOUS
 10
90.6344992713
 20
121.5818626673
 11
90.5153042145
 21
121.4674728986
  0
LINE
  5
40A
100
AcDbEntity
  8
0
100
AcDbLine
 62
7
  6
CONTINUOUS
 10
113.1964427676
 20
121.0888178706
 11
113.2483498222
 21
120.6884535998
  0
LINE
  5
40B
100
AcDbEntity
  8
0
100
AcDbLine
 62
7
  6
CONTINUOUS
 10
113.8193297983
 20
120.2880893691
 11
113.8193297983
 21
120.209185322
  0
LINE
  5
40C
100
AcDbEntity
  8
0
100
AcDbLine
 62
7
  6
CONTINUOUS
 10
113.9750515559
 20
120.2308944847
 11
113.9750515559
 21
120.1519904376
  0
LINE
  5
40D
100
AcDbEntity
  8
0
100
AcDbLine
 62
7
  6
CONTINUOUS
 10
114.0269586105
 20
122.6330799091
 11
114.0269586105
 21
122.5541758621
  0
LINE
  5
40E
100
AcDbEntity
  8
0
100
AcDbLine
 62
7
  6
CONTINUOUS
 10
114.0269586105
 20
121.6607667144
 11
114.0269586105
 21
121.5818626673
  0
LINE
  5
40F
100
AcDbEntity
  8
0
100
AcDbLine
 62
7
  6
CONTINUOUS
 10
114.2345874227
 20
122.6330799091
 11
114.2345874227
 21
122.5541758621
  0
LINE
  5
410
100
AcDbEntity
  8
0
100
AcDbLine
 62
7
  6
CONTINUOUS
 10
114.2864950712
 20
121.6607667144
 11
114.2864950712
 21
121.5818626673
  0
LINE
  5
411
100
AcDbEntity
  8
0
100
AcDbLine
 62
7
  6
CONTINUOUS
 10
114.3384021258
 20
120.2308944847
 11
114.3384021258
 21
120.1519904376
  0
LINE
  5
412
100
AcDbEntity
  8
0
100
AcDbLine
 62
7
  6
CONTINUOUS
 10
114.4941238834
 20
122.5758850248
 11
114.4941238834
 21
122.4969809777
  0
LINE
  5
413
100
AcDbEntity
  8
0
100
AcDbLine
 62
7
  6
CONTINUOUS
 10
114.4941238834
 20
120.2880893691
 11
114.4941238834
 21
120.209185322
  0
LINE
  5
414
100
AcDbEntity
  8
0
100
AcDbLine
 62
7
  6
CONTINUOUS
 10
114.546030938
 20
121.60357183
 11
114.546030938
 21
121.524667783
  0
LINE
  5
415
100
AcDbEntity
  8
0
100
AcDbLine
 62
7
  6
CONTINUOUS
 10
114.6498456411
 20
120.4024791378
 11
114.6498456411
 21
120.3235750908
  0
LINE
  5
416
100
AcDbEntity
  8
0
100
AcDbLine
 62
7
  6
CONTINUOUS
 10
114.7536603442
 20
122.4043003716
 11
114.7536603442
 21
122.3253963245
  0
LINE
  5
417
100
AcDbEntity
  8
0
100
AcDbLine
 62
7
  6
CONTINUOUS
 10
114.7536603442
 20
120.574063831
 11
114.7536603442
 21
120.495159784
  0
LINE
  5
418
100
AcDbEntity
  8
0
100
AcDbLine
 62
7
  6
CONTINUOUS
 10
114.8055673987
 20
121.4319871769
 11
114.8055673987
 21
121.3530831298
  0
LINE
  5
419
100
AcDbEntity
  8
0
100
AcDbLine
 62
7
  6
CONTINUOUS
 10
114.8055673987
 20
120.9172331373
 11
114.8055673987
 21
120.6667444371
  0
LINE
  5
41A
100
AcDbEntity
  8
0
100
AcDbLine
 62
7
  6
CONTINUOUS
 10
114.9093821019
 20
122.1755208341
 11
114.9093821019
 21
122.096616787
  0
LINE
  5
41B
100
AcDbEntity
  8
0
100
AcDbLine
 62
7
  6
CONTINUOUS
 10
114.9612891564
 20
121.2604025237
 11
114.9612891564
 21
121.1814984767
  0
LINE
  5
41C
100
AcDbEntity
  8
0
100
AcDbLine
 62
7
  6
CONTINUOUS
 10
115.0651038595
 20
120.6884535998
 11
115.0651038595
 21
120.9744281018
  0
LINE
  5
41D
100
AcDbEntity
  8
0
100
AcDbLine
 62
7
  6
CONTINUOUS
 10
116.0577433463
 20
96.8705031772
 11
116.0577433463
 21
96.1180588619
  0
LINE
  5
41E
100
AcDbEntity
  8
RUNDUNGEN
100
AcDbLine
 62
7
  6
CONTINUOUS
 10
117.470354424
 20
68.9813947121
 11
117.470354424
 21
67.3331834914
  0
LINE
  5
41F
100
AcDbEntity
  8
0
100
AcDbLine
 62
7
  6
CONTINUOUS
 10
118.820354424
 20
102.3659643288
 11
118.820354424
 21
99.0596147529
  0
LINE
  5
420
100
AcDbEntity
  8
RUNDUNGEN
100
AcDbLine
 62
7
  6
CONTINUOUS
 10
118.820354424
 20
102.3659643288
 11
118.820354424
 21
120.4061448045
  0
LINE
  5
421
100
AcDbEntity
  8
0
100
AcDbLine
 62
7
  6
CONTINUOUS
 10
113.2483498222
 20
121.8895462519
 11
113.1964427676
 21
121.4891820613
  0
LINE
  5
422
100
AcDbEntity
  8
0
100
AcDbLine
 62
7
  6
CONTINUOUS
 10
113.2483498222
 20
121.8106422049
 11
113.1964427676
 21
121.4102780142
  0
LINE
  5
423
100
AcDbEntity
  8
0
100
AcDbLine
 62
7
  6
CONTINUOUS
 10
113.4559786344
 20
121.4891820613
 11
113.5078862829
 21
121.8323513676
  0
LINE
  5
424
100
AcDbEntity
  8
0
100
AcDbLine
 62
7
  6
CONTINUOUS
 10
108.5766970925
 20
121.7179615988
 11
108.628604444
 21
121.9467411363
  0
LINE
  5
425
100
AcDbEntity
  8
0
100
AcDbLine
 62
7
  6
CONTINUOUS
 10
110.2377293721
 20
120.3452842534
 11
110.2896364267
 21
120.574063831
  0
LINE
  5
426
100
AcDbEntity
  8
0
100
AcDbLine
 62
7
  6
CONTINUOUS
 10
107.4866447889
 20
121.8323513676
 11
107.4347375858
 21
121.6607667144
  0
LINE
  5
427
100
AcDbEntity
  8
0
100
AcDbLine
 62
7
  6
CONTINUOUS
 10
107.4866447889
 20
121.7534473205
 11
107.4347375858
 21
121.5818626673
  0
LINE
  5
428
100
AcDbEntity
  8
0
100
AcDbLine
 62
7
  6
CONTINUOUS
 10
107.7461809526
 20
121.60357183
 11
107.7980883042
 21
121.7751564832
  0
LINE
  5
429
100
AcDbEntity
  8
0
100
AcDbLine
 62
7
  6
CONTINUOUS
 10
109.9781929114
 20
120.6312587154
 11
109.9262855598
 21
120.4596740623
  0
LINE
  5
42A
100
AcDbEntity
  8
0
100
AcDbLine
 62
7
  6
CONTINUOUS
 10
109.9781929114
 20
120.5523546683
 11
109.9262855598
 21
120.3807700152
  0
LINE
  5
42B
100
AcDbEntity
  8
0
100
AcDbLine
 62
7
  6
CONTINUOUS
 10
108.4209753348
 20
122.2327157185
 11
108.3171609287
 21
122.0039361809
  0
LINE
  5
42C
100
AcDbEntity
  8
0
100
AcDbLine
 62
7
  6
CONTINUOUS
 10
108.4209753348
 20
122.1538116714
 11
108.3171609287
 21
121.9250321339
  0
LINE
  5
42D
100
AcDbEntity
  8
0
100
AcDbLine
 62
7
  6
CONTINUOUS
 10
93.3163867713
 20
120.1165046959
 11
93.554776885
 21
120.3452842534
  0
LINE
  5
42E
100
AcDbEntity
  8
0
100
AcDbLine
 62
7
  6
CONTINUOUS
 10
96.1770667713
 20
120.1165046959
 11
96.415456544
 21
120.3452842534
  0
LINE
  5
42F
100
AcDbEntity
  8
0
100
AcDbLine
 62
7
  6
CONTINUOUS
 10
93.197191885
 20
120.4596740623
 11
93.018399385
 21
120.3452842534
  0
LINE
  5
430
100
AcDbEntity
  8
0
100
AcDbLine
 62
7
  6
CONTINUOUS
 10
93.197191885
 20
120.3807700152
 11
93.018399385
 21
120.2663802064
  0
LINE
  5
431
100
AcDbEntity
  8
0
100
AcDbLine
 62
7
  6
CONTINUOUS
 10
121.2950148117
 20
118.250236349
 11
121.2950148117
 21
123.5964425139
  0
LINE
  5
432
100
AcDbEntity
  8
RUNDUNGEN
100
AcDbLine
 62
7
  6
CONTINUOUS
 10
121.970354424
 20
68.4742527981
 11
121.970354424
 21
75.1417482254
  0
LINE
  5
433
100
AcDbEntity
  8
0
100
AcDbLine
 62
7
  6
CONTINUOUS
 10
124.346430393
 20
133.0184923052
 11
124.346430393
 21
134.1881074015
  0
LINE
  5
434
100
AcDbEntity
  8
0
100
AcDbLine
 62
7
  6
CONTINUOUS
 10
113.5078862829
 20
121.8323513676
 11
113.5597933375
 21
122.0039361809
  0
LINE
  5
435
100
AcDbEntity
  8
0
100
AcDbLine
 62
7
  6
CONTINUOUS
 10
113.5078862829
 20
120.9172331373
 11
113.5597933375
 21
121.0888178706
  0
LINE
  5
436
100
AcDbEntity
  8
0
100
AcDbLine
 62
7
  6
CONTINUOUS
 10
114.8055673987
 20
120.7456484842
 11
114.7536603442
 21
120.574063831
  0
LINE
  5
437
100
AcDbEntity
  8
0
100
AcDbLine
 62
7
  6
CONTINUOUS
 10
114.8055673987
 20
120.6667444371
 11
114.7536603442
 21
120.495159784
  0
LINE
  5
438
100
AcDbEntity
  8
0
100
AcDbLine
 62
7
  6
CONTINUOUS
 10
113.3521645253
 20
122.1755208341
 11
113.2483498222
 21
121.8895462519
  0
LINE
  5
439
100
AcDbEntity
  8
0
100
AcDbLine
 62
7
  6
CONTINUOUS
 10
113.3521645253
 20
122.096616787
 11
113.2483498222
 21
121.8106422049
  0
LINE
  5
43A
100
AcDbEntity
  8
0
100
AcDbLine
 62
7
  6
CONTINUOUS
 10
114.9612891564
 20
120.4024791378
 11
115.0651038595
 21
120.6884535998
  0
LINE
  5
43B
100
AcDbEntity
  8
0
100
AcDbLine
 62
7
  6
CONTINUOUS
 10
108.628604444
 20
121.9467411363
 11
108.7324188501
 21
122.1183259497
  0
LINE
  5
43C
100
AcDbEntity
  8
0
100
AcDbLine
 62
7
  6
CONTINUOUS
 10
113.5597933375
 20
122.0039361809
 11
113.6636080406
 21
122.1755208341
  0
LINE
  5
43D
100
AcDbEntity
  8
0
100
AcDbLine
 62
7
  6
CONTINUOUS
 10
107.5904593435
 20
121.3747922925
 11
107.7461809526
 21
121.60357183
  0
LINE
  5
43E
100
AcDbEntity
  8
0
100
AcDbLine
 62
7
  6
CONTINUOUS
 10
113.5078862829
 20
122.4043003716
 11
113.3521645253
 21
122.1755208341
  0
LINE
  5
43F
100
AcDbEntity
  8
0
100
AcDbLine
 62
7
  6
CONTINUOUS
 10
107.4347375858
 20
121.6607667144
 11
107.3309230312
 21
121.5463769456
  0
LINE
  5
440
100
AcDbEntity
  8
0
100
AcDbLine
 62
7
  6
CONTINUOUS
 10
107.4347375858
 20
121.5818626673
 11
107.3309230312
 21
121.4674728986
  0
LINE
  5
441
100
AcDbEntity
  8
0
100
AcDbLine
 62
7
  6
CONTINUOUS
 10
108.628604444
 20
122.461495256
 11
108.4209753348
 21
122.2327157185
  0
LINE
  5
442
100
AcDbEntity
  8
0
100
AcDbLine
 62
7
  6
CONTINUOUS
 10
108.628604444
 20
122.3825912089
 11
108.4209753348
 21
122.1538116714
  0
LINE
  5
443
100
AcDbEntity
  8
0
100
AcDbLine
 62
7
  6
CONTINUOUS
 10
96.057871544
 20
120.4596740623
 11
95.879079044
 21
120.3452842534
  0
LINE
  5
444
100
AcDbEntity
  8
0
100
AcDbLine
 62
7
  6
CONTINUOUS
 10
96.057871544
 20
120.3807700152
 11
95.879079044
 21
120.2663802064
  0
LINE
  5
445
100
AcDbEntity
  8
0
100
AcDbLine
 62
7
  6
CONTINUOUS
 10
90.5749018282
 20
121.2604025237
 11
90.8132917713
 21
121.3747922925
  0
LINE
  5
446
100
AcDbEntity
  8
0
100
AcDbLine
 62
7
  6
CONTINUOUS
 10
93.0779966576
 20
120.0021149121
 11
93.3163867713
 21
120.1165046959
  0
LINE
  5
447
100
AcDbEntity
  8
0
100
AcDbLine
 62
7
  6
CONTINUOUS
 10
95.9386769987
 20
120.0021149121
 11
96.1770667713
 21
120.1165046959
  0
LINE
  5
448
100
AcDbEntity
  8
0
100
AcDbLine
 62
7
  6
CONTINUOUS
 10
90.5153042145
 20
121.5463769456
 11
90.3365117145
 21
121.4891820613
  0
LINE
  5
449
100
AcDbEntity
  8
0
100
AcDbLine
 62
7
  6
CONTINUOUS
 10
90.5153042145
 20
121.4674728986
 11
90.3365117145
 21
121.4102780142
  0
LINE
  5
44A
100
AcDbEntity
  8
RUNDUNGEN
100
AcDbLine
 62
7
  6
CONTINUOUS
 10
128.1074504748
 20
90.6308846683
 11
128.1074504748
 21
95.1624236035
  0
LINE
  5
44B
100
AcDbEntity
  8
0
100
AcDbLine
 62
7
  6
CONTINUOUS
 10
122.6218830776
 20
128.2833327604
 11
121.2950148117
 21
123.5964425139
  0
LINE
  5
44C
100
AcDbEntity
  8
0
100
AcDbLine
 62
7
  6
CONTINUOUS
 10
122.6218830776
 20
126.8273589741
 11
121.2950148117
 21
122.2076466743
  0
LINE
  5
44D
100
AcDbEntity
  8
0
100
AcDbLine
 62
7
  6
CONTINUOUS
 10
121.2950148117
 20
119.1480392253
 11
118.820354424
 21
111.5419327849
  0
LINE
  5
44E
100
AcDbEntity
  8
0
100
AcDbLine
 62
7
  6
CONTINUOUS
 10
121.2950148117
 20
118.250236349
 11
118.820354424
 21
110.6441299086
  0
LINE
  5
44F
100
AcDbEntity
  8
0
100
AcDbLine
 62
7
  6
CONTINUOUS
 10
114.7536603442
 20
120.574063831
 11
114.6498456411
 21
120.4024791378
  0
LINE
  5
450
100
AcDbEntity
  8
0
100
AcDbLine
 62
7
  6
CONTINUOUS
 10
114.7536603442
 20
120.495159784
 11
114.6498456411
 21
120.3235750908
  0
LINE
  5
451
100
AcDbEntity
  8
0
100
AcDbLine
 62
7
  6
CONTINUOUS
 10
113.5078862829
 20
122.3253963245
 11
113.3521645253
 21
122.096616787
  0
LINE
  5
452
100
AcDbEntity
  8
0
100
AcDbLine
 62
7
  6
CONTINUOUS
 10
114.8055673987
 20
120.1736995803
 11
114.9612891564
 21
120.4024791378
  0
LINE
  5
453
100
AcDbEntity
  8
0
100
AcDbLine
 62
7
  6
CONTINUOUS
 10
110.0301002629
 20
120.1165046959
 11
110.2377293721
 21
120.3452842534
  0
LINE
  5
454
100
AcDbEntity
  8
0
100
AcDbLine
 62
7
  6
CONTINUOUS
 10
113.5597933375
 20
121.0888178706
 11
113.6636080406
 21
121.2032076393
  0
LINE
  5
455
100
AcDbEntity
  8
0
100
AcDbLine
 62
7
  6
CONTINUOUS
 10
108.7324188501
 20
122.1183259497
 11
108.8881406078
 21
122.2327157185
  0
LINE
  5
456
100
AcDbEntity
  8
0
100
AcDbLine
 62
7
  6
CONTINUOUS
 10
109.9262855598
 20
120.4596740623
 11
109.7705638022
 21
120.3452842534
  0
LINE
  5
457
100
AcDbEntity
  8
0
100
AcDbLine
 62
7
  6
CONTINUOUS
 10
109.9262855598
 20
120.3807700152
 11
109.7705638022
 21
120.2663802064
  0
LINE
  5
458
100
AcDbEntity
  8
0
100
AcDbLine
 62
7
  6
CONTINUOUS
 10
113.6636080406
 20
122.1755208341
 11
113.8193297983
 21
122.2899106028
  0
LINE
  5
459
100
AcDbEntity
  8
0
100
AcDbLine
 62
7
  6
CONTINUOUS
 10
113.7674221497
 20
121.60357183
 11
113.4559786344
 21
121.3747922925
  0
LINE
  5
45A
100
AcDbEntity
  8
0
100
AcDbLine
 62
7
  6
CONTINUOUS
 10
113.7674221497
 20
121.524667783
 11
113.4559786344
 21
121.2958882454
  0
LINE
  5
45B
100
AcDbEntity
  8
0
100
AcDbLine
 62
7
  6
CONTINUOUS
 10
113.6636080406
 20
121.2032076393
 11
113.8193297983
 21
121.3175974081
  0
LINE
  5
45C
100
AcDbEntity
  8
0
100
AcDbLine
 62
7
  6
CONTINUOUS
 10
114.6498456411
 20
120.4024791378
 11
114.4941238834
 21
120.2880893691
  0
LINE
  5
45D
100
AcDbEntity
  8
0
100
AcDbLine
 62
7
  6
CONTINUOUS
 10
114.6498456411
 20
120.3235750908
 11
114.4941238834
 21
120.209185322
  0
LINE
  5
45E
100
AcDbEntity
  8
0
100
AcDbLine
 62
7
  6
CONTINUOUS
 10
113.7674221497
 20
122.5758850248
 11
113.5078862829
 21
122.4043003716
  0
LINE
  5
45F
100
AcDbEntity
  8
0
100
AcDbLine
 62
7
  6
CONTINUOUS
 10
113.7674221497
 20
122.4969809777
 11
113.5078862829
 21
122.3253963245
  0
LINE
  5
460
100
AcDbEntity
  8
0
100
AcDbLine
 62
7
  6
CONTINUOUS
 10
108.8362332562
 20
122.5758850248
 11
108.628604444
 21
122.461495256
  0
LINE
  5
461
100
AcDbEntity
  8
0
100
AcDbLine
 62
7
  6
CONTINUOUS
 10
108.8362332562
 20
122.4969809777
 11
108.628604444
 21
122.3825912089
  0
LINE
  5
462
100
AcDbEntity
  8
0
100
AcDbLine
 62
7
  6
CONTINUOUS
 10
107.3828302342
 20
121.2604025237
 11
107.5904593435
 21
121.3747922925
  0
LINE
  5
463
100
AcDbEntity
  8
0
100
AcDbLine
 62
7
  6
CONTINUOUS
 10
109.8224711537
 20
120.0021149121
 11
110.0301002629
 21
120.1165046959
  0
LINE
  5
464
100
AcDbEntity
  8
0
100
AcDbLine
 62
7
  6
CONTINUOUS
 10
107.3309230312
 20
121.5463769456
 11
107.1752012735
 21
121.4891820613
  0
LINE
  5
465
100
AcDbEntity
  8
0
100
AcDbLine
 62
7
  6
CONTINUOUS
 10
107.3309230312
 20
121.4674728986
 11
107.1752012735
 21
121.4102780142
  0
LINE
  5
466
100
AcDbEntity
  8
0
100
AcDbLine
 62
7
  6
CONTINUOUS
 10
113.8193297983
 20
122.2899106028
 11
113.9750515559
 21
122.3471054872
  0
LINE
  5
467
100
AcDbEntity
  8
0
100
AcDbLine
 62
7
  6
CONTINUOUS
 10
113.8193297983
 20
121.3175974081
 11
113.9750515559
 21
121.3747922925
  0
LINE
  5
468
100
AcDbEntity
  8
0
100
AcDbLine
 62
7
  6
CONTINUOUS
 10
114.546030938
 20
120.0021149121
 11
114.8055673987
 21
120.1736995803
  0
LINE
  5
469
100
AcDbEntity
  8
0
100
AcDbLine
 62
7
  6
CONTINUOUS
 10
114.4941238834
 20
120.2880893691
 11
114.3384021258
 21
120.2308944847
  0
LINE
  5
46A
100
AcDbEntity
  8
0
100
AcDbLine
 62
7
  6
CONTINUOUS
 10
114.4941238834
 20
120.209185322
 11
114.3384021258
 21
120.1519904376
  0
LINE
  5
46B
100
AcDbEntity
  8
0
100
AcDbLine
 62
7
  6
CONTINUOUS
 10
90.3585018779
 20
95.6026372957
 11
90.372550542
 21
95.6074171198
  0
LINE
  5
46C
100
AcDbEntity
  8
RUNDUNGEN
100
AcDbLine
 62
7
  6
CONTINUOUS
 10
77.9171380697
 20
96.235823846
 11
77.0979860254
 21
95.9934199695
  0
LINE
  5
46D
100
AcDbEntity
  8
RUNDUNGEN
100
AcDbLine
 62
7
  6
CONTINUOUS
 10
90.4917071127
 20
81.1675102445
 11
81.7128982911
 21
75.8689598549
  0
LINE
  5
46E
100
AcDbEntity
  8
RUNDUNGEN
100
AcDbLine
 62
7
  6
CONTINUOUS
 10
77.9171380697
 20
91.7042849109
 11
77.0979860254
 21
91.4618810344
  0
LINE
  5
46F
100
AcDbEntity
  8
RUNDUNGEN
100
AcDbLine
 62
7
  6
CONTINUOUS
 10
96.4081664968
 20
95.39072668
 11
93.950710364
 21
94.6635150505
  0
LINE
  5
470
100
AcDbEntity
  8
RUNDUNGEN
100
AcDbLine
 62
7
  6
CONTINUOUS
 10
81.1293361186
 20
89.2497573511
 11
79.1633712123
 21
88.6679880475
  0
LINE
  5
471
100
AcDbEntity
  8
RUNDUNGEN
100
AcDbLine
 62
7
  6
CONTINUOUS
 10
117.0543681252
 20
93.8840518159
 11
121.7829621869
 21
96.7380488008
  0
LINE
  5
472
100
AcDbEntity
  8
RUNDUNGEN
100
AcDbLine
 62
7
  6
CONTINUOUS
 10
90.6311039912
 20
76.7201058883
 11
81.7128982911
 21
71.3374209198
  0
LINE
  5
473
100
AcDbEntity
  8
RUNDUNGEN
100
AcDbLine
 62
7
  6
CONTINUOUS
 10
96.4081664968
 20
90.8591877448
 11
93.950710364
 21
90.1319761153
  0
LINE
  5
474
100
AcDbEntity
  8
RUNDUNGEN
100
AcDbLine
 62
7
  6
CONTINUOUS
 10
82.6048298304
 20
86.5908563692
 11
84.5707947367
 21
87.1726256728
  0
LINE
  5
475
100
AcDbEntity
  8
RUNDUNGEN
100
AcDbLine
 62
7
  6
CONTINUOUS
 10
117.0543681252
 20
89.3525128807
 11
121.7829621869
 21
92.2065098656
  0
LINE
  5
476
100
AcDbEntity
  8
RUNDUNGEN
100
AcDbLine
 62
7
  6
CONTINUOUS
 10
95.4550309016
 20
70.7898926531
 11
98.6214070646
 21
72.700995172
  0
LINE
  5
477
100
AcDbEntity
  8
RUNDUNGEN
100
AcDbLine
 62
7
  6
CONTINUOUS
 10
112.5096048568
 20
81.0833756654
 11
127.9266025191
 21
90.3884807918
  0
ARC
  5
478
100
AcDbEntity
  8
KONSTRUKTIONSELEMENTE
100
AcDbCircle
 62
7
  6
CONTINUOUS
 10
211.2679357649
 20
93.8783720959
 40
9.55
100
AcDbArc
 50
115.0
 51
189.8048644765
  0
ARC
  5
479
100
AcDbEntity
  8
KONSTRUKTIONSELEMENTE
100
AcDbCircle
 62
7
  6
CONTINUOUS
 10
211.2679357649
 20
93.8783720959
 40
9.55
100
AcDbArc
 50
220.1951355235
 51
295.0
  0
ARC
  5
47A
100
AcDbEntity
  8
KONSTRUKTIONSELEMENTE
100
AcDbCircle
 62
7
  6
CONTINUOUS
 10
222.0529984307
 20
98.9075294107
 40
9.55
100
AcDbArc
 50
295.0
 51
11.3702929546
  0
ARC
  5
47B
100
AcDbEntity
  8
KONSTRUKTIONSELEMENTE
100
AcDbCircle
 62
7
  6
CONTINUOUS
 10
222.0529984307
 20
98.9075294107
 40
9.55
100
AcDbArc
 50
38.6297070454
 51
115.0
  0
ARC
  5
47C
100
AcDbEntity
  8
KONSTRUKTIONSELEMENTE
100
AcDbCircle
 62
7
  6
CONTINUOUS
 10
211.2679357649
 20
93.8783720959
 40
4.55
100
AcDbArc
 50
115.0
 51
171.6416672297
  0
ARC
  5
47D
100
AcDbEntity
  8
KONSTRUKTIONSELEMENTE
100
AcDbCircle
 62
7
  6
CONTINUOUS
 10
211.2679357649
 20
93.8783720959
 40
4.55
100
AcDbArc
 50
238.3583327703
 51
295.0
  0
ARC
  5
47E
100
AcDbEntity
  8
KONSTRUKTIONSELEMENTE
100
AcDbCircle
 62
7
  6
CONTINUOUS
 10
222.0529984307
 20
98.9075294107
 40
4.55
100
AcDbArc
 50
295.0
 51
355.3477978529
  0
ARC
  5
47F
100
AcDbEntity
  8
KONSTRUKTIONSELEMENTE
100
AcDbCircle
 62
7
  6
CONTINUOUS
 10
222.0529984307
 20
98.9075294107
 40
4.55
100
AcDbArc
 50
54.6522021471
 51
115.0
  0
ARC
  5
480
100
AcDbEntity
  8
KONSTRUKTIONSELEMENTE
100
AcDbCircle
 62
7
  6
CONTINUOUS
 10
223.6843524473
 20
99.6682422818
 40
2.25
100
AcDbArc
 50
115.0
 51
295.0
  0
ARC
  5
481
100
AcDbEntity
  8
KONSTRUKTIONSELEMENTE
100
AcDbCircle
 62
7
  6
CONTINUOUS
 10
248.8343935376
 20
111.3958990451
 40
8.0
100
AcDbArc
 50
115.0
 51
188.6357041722
  0
ARC
  5
482
100
AcDbEntity
  8
KONSTRUKTIONSELEMENTE
100
AcDbCircle
 62
7
  6
CONTINUOUS
 10
248.8343935376
 20
111.3958990451
 40
8.0
100
AcDbArc
 50
221.3642958278
 51
295.0
  0
ARC
  5
483
100
AcDbEntity
  8
KONSTRUKTIONSELEMENTE
100
AcDbCircle
 62
7
  6
CONTINUOUS
 10
248.8343935376
 20
111.3958990451
 40
3.5
100
AcDbArc
 50
115.0
 51
164.8461224921
  0
ARC
  5
484
100
AcDbEntity
  8
KONSTRUKTIONSELEMENTE
100
AcDbCircle
 62
7
  6
CONTINUOUS
 10
248.8343935376
 20
111.3958990451
 40
3.5
100
AcDbArc
 50
245.1538775079
 51
295.0
  0
ARC
  5
485
100
AcDbEntity
  8
KONSTRUKTIONSELEMENTE
100
AcDbCircle
 62
7
  6
CONTINUOUS
 10
247.7015088038
 20
110.8676262179
 40
2.25
100
AcDbArc
 50
295.0
 51
115.0
  0
ARC
  5
486
100
AcDbEntity
  8
KONSTRUKTIONSELEMENTE
100
AcDbCircle
 62
7
  6
CONTINUOUS
 10
289.6635593436
 20
130.4348517365
 40
9.55
100
AcDbArc
 50
115.0
 51
191.3702929546
  0
ARC
  5
487
100
AcDbEntity
  8
KONSTRUKTIONSELEMENTE
100
AcDbCircle
 62
7
  6
CONTINUOUS
 10
289.6635593436
 20
130.4348517365
 40
9.55
100
AcDbArc
 50
218.6297070454
 51
295.0
  0
ARC
  5
488
100
AcDbEntity
  8
KONSTRUKTIONSELEMENTE
100
AcDbCircle
 62
7
  6
CONTINUOUS
 10
262.4290103431
 20
117.7351729712
 40
8.0
100
AcDbArc
 50
295.0
 51
8.6357041722
  0
ARC
  5
489
100
AcDbEntity
  8
KONSTRUKTIONSELEMENTE
100
AcDbCircle
 62
7
  6
CONTINUOUS
 10
262.4290103431
 20
117.7351729712
 40
8.0
100
AcDbArc
 50
41.3642958278
 51
115.0
  0
ARC
  5
48A
100
AcDbEntity
  8
KONSTRUKTIONSELEMENTE
100
AcDbCircle
 62
7
  6
CONTINUOUS
 10
289.6635593436
 20
130.4348517365
 40
4.55
100
AcDbArc
 50
115.0
 51
175.3477978529
  0
ARC
  5
48B
100
AcDbEntity
  8
KONSTRUKTIONSELEMENTE
100
AcDbCircle
 62
7
  6
CONTINUOUS
 10
289.6635593436
 20
130.4348517365
 40
4.55
100
AcDbArc
 50
234.6522021471
 51
295.0
  0
ARC
  5
48C
100
AcDbEntity
  8
KONSTRUKTIONSELEMENTE
100
AcDbCircle
 62
7
  6
CONTINUOUS
 10
262.4290103431
 20
117.7351729712
 40
3.5
100
AcDbArc
 50
295.0
 51
344.8461224921
  0
ARC
  5
48D
100
AcDbEntity
  8
KONSTRUKTIONSELEMENTE
100
AcDbCircle
 62
7
  6
CONTINUOUS
 10
262.4290103431
 20
117.7351729712
 40
3.5
100
AcDbArc
 50
65.1538775079
 51
115.0
  0
ARC
  5
48E
100
AcDbEntity
  8
KONSTRUKTIONSELEMENTE
100
AcDbCircle
 62
7
  6
CONTINUOUS
 10
287.5790514334
 20
129.4628297345
 40
2.25
100
AcDbArc
 50
295.0
 51
115.0
  0
ARC
  5
48F
100
AcDbEntity
  8
KONSTRUKTIONSELEMENTE
100
AcDbCircle
 62
7
  6
CONTINUOUS
 10
263.5618950769
 20
118.2634457984
 40
2.25
100
AcDbArc
 50
115.0
 51
295.0
  0
ARC
  5
490
100
AcDbEntity
  8
0
100
AcDbCircle
 62
7
  6
CONTINUOUS
 10
330.6918719326
 20
104.0026371893
 40
8.4
100
AcDbArc
 50
250.0
 51
340.0
  0
ARC
  5
491
100
AcDbEntity
  8
RUNDUNGEN
100
AcDbCircle
 62
7
  6
CONTINUOUS
 10
328.6245481669
 20
104.7550815046
 40
8.4
100
AcDbArc
 50
160.0
 51
250.0
  0
CIRCLE
  5
492
100
AcDbEntity
  8
BEZUGSACHSEN
100
AcDbCircle
 62
7
  6
CONTINUOUS
 10
330.3422503364
 20
106.2582445885
 40
4.26795
  0
ARC
  5
493
100
AcDbEntity
  8
KONSTRUKTIONSELEMENTE
100
AcDbCircle
 62
7
  6
CONTINUOUS
 10
300.4486220093
 20
135.4640090512
 40
9.55
100
AcDbArc
 50
295.0
 51
6.6609039942
  0
ARC
  5
494
100
AcDbEntity
  8
KONSTRUKTIONSELEMENTE
100
AcDbCircle
 62
7
  6
CONTINUOUS
 10
300.4486220093
 20
135.4640090512
 40
9.55
100
AcDbArc
 50
43.3390960058
 51
115.0
  0
ARC
  5
495
100
AcDbEntity
  8
KONSTRUKTIONSELEMENTE
100
AcDbCircle
 62
7
  6
CONTINUOUS
 10
300.4486220093
 20
135.4640090512
 40
4.55
100
AcDbArc
 50
295.0
 51
343.7275989874
  0
ARC
  5
496
100
AcDbEntity
  8
KONSTRUKTIONSELEMENTE
100
AcDbCircle
 62
7
  6
CONTINUOUS
 10
300.4486220093
 20
135.4640090512
 40
4.55
100
AcDbArc
 50
66.2724010126
 51
115.0
  0
ARC
  5
497
100
AcDbEntity
  8
KONSTRUKTIONSELEMENTE
100
AcDbCircle
 62
7
  6
CONTINUOUS
 10
300.9470912922
 20
135.6964490952
 40
3.0
100
AcDbArc
 50
115.0
 51
295.0
  0
ARC
  5
498
100
AcDbEntity
  8
RUNDUNGEN
100
AcDbCircle
 62
7
  6
CONTINUOUS
 10
331.9189940891
 20
122.2855300461
 40
3.0
100
AcDbArc
 50
89.4712206345
 51
159.9999976077
  0
ARC
  5
499
100
AcDbEntity
  8
0
100
AcDbCircle
 62
7
  6
CONTINUOUS
 10
370.8961672259
 20
104.0026371893
 40
8.4
100
AcDbArc
 50
200.0
 51
290.0
  0
ARC
  5
49A
100
AcDbEntity
  8
RUNDUNGEN
100
AcDbCircle
 62
7
  6
CONTINUOUS
 10
372.9634909916
 20
104.7550815046
 40
8.4
100
AcDbArc
 50
290.0
 51
20.0
  0
CIRCLE
  5
49B
100
AcDbEntity
  8
BEZUGSACHSEN
100
AcDbCircle
 62
7
  6
CONTINUOUS
 10
371.2457888221
 20
106.2582445885
 40
4.26795
  0
ARC
  5
49C
100
AcDbEntity
  8
0
100
AcDbCircle
 62
7
  6
CONTINUOUS
 10
362.151504103
 20
119.5493688995
 40
3.0
100
AcDbArc
 50
129.4712206345
 51
199.9999856999
  0
ARC
  5
49D
100
AcDbEntity
  8
0
100
AcDbCircle
 62
7
  6
CONTINUOUS
 10
339.4365350554
 20
119.5493688995
 40
3.0
100
AcDbArc
 50
340.0000023923
 51
50.5287793655
  0
ARC
  5
49E
100
AcDbEntity
  8
RUNDUNGEN
100
AcDbCircle
 62
7
  6
CONTINUOUS
 10
369.6690450693
 20
122.2855300461
 40
3.0
100
AcDbArc
 50
20.0000143001
 51
90.5287793655
  0
ARC
  5
49F
100
AcDbEntity
  8
0
100
AcDbCircle
 62
7
  6
CONTINUOUS
 10
350.7940195792
 20
158.9404534909
 40
30.0
100
AcDbArc
 50
301.9306351683
 51
360.0
  0
ARC
  5
4A0
100
AcDbEntity
  8
0
100
AcDbCircle
 62
7
  6
CONTINUOUS
 10
350.7940195792
 20
158.9404534909
 40
30.0
100
AcDbArc
 50
257.2806833046
 51
282.7193166954
  0
ARC
  5
4A1
100
AcDbEntity
  8
0
100
AcDbCircle
 62
7
  6
CONTINUOUS
 10
350.7940195792
 20
158.9404534909
 40
30.0
100
AcDbArc
 50
210.7412306314
 51
238.0693648317
  0
ARC
  5
4A2
100
AcDbEntity
  8
0
100
AcDbCircle
 62
7
  6
CONTINUOUS
 10
350.7940195792
 20
158.9404534909
 40
30.0
100
AcDbArc
 50
180.0
 51
199.2576626276
  0
ARC
  5
4A3
100
AcDbEntity
  8
0
100
AcDbCircle
 62
7
  6
CONTINUOUS
 10
350.7940195792
 20
194.9404534909
 40
30.0
100
AcDbArc
 50
0.0
 51
180.0
  0
ARC
  5
4A4
100
AcDbEntity
  8
0
100
AcDbCircle
 62
7
  6
CONTINUOUS
 10
350.7940195792
 20
158.9404534909
 40
17.0
100
AcDbArc
 50
311.4010145228
 51
360.0
  0
ARC
  5
4A5
100
AcDbEntity
  8
0
100
AcDbCircle
 62
7
  6
CONTINUOUS
 10
350.7940195792
 20
158.9404534909
 40
17.0
100
AcDbArc
 50
262.9265087901
 51
277.0734912099
  0
ARC
  5
4A6
100
AcDbEntity
  8
0
100
AcDbCircle
 62
7
  6
CONTINUOUS
 10
350.7940195792
 20
158.9404534909
 40
17.0
100
AcDbArc
 50
215.1685821494
 51
228.5989854772
  0
ARC
  5
4A7
100
AcDbEntity
  8
0
100
AcDbCircle
 62
7
  6
CONTINUOUS
 10
350.7940195792
 20
158.9404534909
 40
17.0
100
AcDbArc
 50
180.0
 51
194.8295474985
  0
ARC
  5
4A8
100
AcDbEntity
  8
0
100
AcDbCircle
 62
7
  6
CONTINUOUS
 10
350.7940195792
 20
194.9404534909
 40
17.0
100
AcDbArc
 50
0.0
 51
180.0
  0
ARC
  5
4A9
100
AcDbEntity
  8
BEZUGSACHSEN
100
AcDbCircle
 62
7
  6
CONTINUOUS
 10
355.9916904297
 20
148.1685354756
 40
5.0
100
AcDbArc
 50
20.0
 51
48.7624430017
  0
ARC
  5
4AA
100
AcDbEntity
  8
BEZUGSACHSEN
100
AcDbCircle
 62
7
  6
CONTINUOUS
 10
355.9916904297
 20
148.1685354756
 40
5.0
100
AcDbArc
 50
171.2375569983
 51
200.0
  0
ARC
  5
4AB
100
AcDbEntity
  8
BEZUGSACHSEN
100
AcDbCircle
 62
7
  6
CONTINUOUS
 10
345.5963487287
 20
148.1685354756
 40
5.0
100
AcDbArc
 50
131.2375569983
 51
160.0
  0
ARC
  5
4AC
100
AcDbEntity
  8
BEZUGSACHSEN
100
AcDbCircle
 62
7
  6
CONTINUOUS
 10
345.5963487287
 20
148.1685354756
 40
5.0
100
AcDbArc
 50
340.0
 51
8.7624430017
  0
ARC
  5
4AD
100
AcDbEntity
  8
KONSTRUKTIONSELEMENTE
100
AcDbCircle
 62
7
  6
CONTINUOUS
 10
338.1057105607
 20
153.0237978266
 40
3.0
100
AcDbArc
 50
295.0
 51
115.0
  0
ARC
  5
4AE
100
AcDbEntity
  8
0
100
AcDbCircle
 62
7
  6
CONTINUOUS
 10
490.7071575017
 20
244.4215448893
 40
426.7116825792
100
AcDbArc
 50
195.1337610362
 51
195.9967182972
  0
ARC
  5
4AF
100
AcDbEntity
  8
0
100
AcDbCircle
 62
7
  6
CONTINUOUS
 10
-269.5447911658
 20
239.4015914532
 40
408.0044830702
100
AcDbArc
 50
343.9834978024
 51
344.8860228642
  0
ARC
  5
4B0
100
AcDbEntity
  8
0
100
AcDbCircle
 62
7
  6
CONTINUOUS
 10
452.6380541104
 20
33.3738855845
 40
387.1984967906
100
AcDbArc
 50
163.2613862918
 51
164.9080819797
  0
ARC
  5
4B1
100
AcDbEntity
  8
0
100
AcDbCircle
 62
7
  6
CONTINUOUS
 10
-249.4973451937
 20
33.3738856041
 40
387.1984967191
100
AcDbArc
 50
15.0919180202
 51
16.7386137084
  0
ARC
  5
4B2
100
AcDbEntity
  8
0
100
AcDbCircle
 62
7
  6
CONTINUOUS
 10
476.7744115098
 20
28.0538380546
 40
368.0624471525
100
AcDbArc
 50
163.2402383649
 51
164.1978384854
  0
ARC
  5
4B3
100
AcDbEntity
  8
0
100
AcDbCircle
 62
7
  6
CONTINUOUS
 10
-269.5459974954
 20
29.2476924181
 40
363.804121123
100
AcDbArc
 50
15.7965570287
 51
16.765366121
  0
ARC
  5
4B4
100
AcDbEntity
  8
0
100
AcDbCircle
 62
7
  6
CONTINUOUS
 10
76.4669091077
 20
32.2396961349
 40
125.8884789534
100
AcDbArc
 50
73.1497364166
 51
75.4607337695
  0
ARC
  5
4B5
100
AcDbEntity
  8
0
100
AcDbCircle
 62
7
  6
CONTINUOUS
 10
126.6737993695
 20
32.2396974633
 40
125.8884775745
100
AcDbArc
 50
104.5392662313
 51
106.8502635972
  0
ARC
  5
4B6
100
AcDbEntity
  8
KONSTRUKTIONSELEMENTE
100
AcDbCircle
 62
7
  6
CONTINUOUS
 10
100.6564710968
 20
175.9018012899
 40
37.1485853116
100
AcDbArc
 50
258.5817385951
 51
261.3467022623
  0
ARC
  5
4B7
100
AcDbEntity
  8
KONSTRUKTIONSELEMENTE
100
AcDbCircle
 62
7
  6
CONTINUOUS
 10
102.6064168102
 20
175.2118709026
 40
36.4481302676
100
AcDbArc
 50
278.6237252269
 51
281.4449686223
  0
ARC
  5
4B8
100
AcDbEntity
  8
KONSTRUKTIONSELEMENTE
100
AcDbCircle
 62
7
  6
CONTINUOUS
 10
101.570354424
 20
77.1442058791
 40
21.59352
100
AcDbArc
 50
58.7790914184
 51
80.1338135404
  0
ARC
  5
4B9
100
AcDbEntity
  8
KONSTRUKTIONSELEMENTE
100
AcDbCircle
 62
7
  6
CONTINUOUS
 10
101.570354424
 20
77.1442058791
 40
21.59352
100
AcDbArc
 50
99.8661864596
 51
121.2209085816
  0
ARC
  5
4BA
100
AcDbEntity
  8
0
100
AcDbCircle
 62
7
  6
CONTINUOUS
 10
101.570354424
 20
218.4404534909
 40
6.5
100
AcDbArc
 50
0.0
 51
180.0
  0
ARC
  5
4BB
100
AcDbEntity
  8
0
100
AcDbCircle
 62
7
  6
CONTINUOUS
 10
101.570354424
 20
135.4404534909
 40
6.5
100
AcDbArc
 50
180.0
 51
360.0
  0
ARC
  5
4BC
100
AcDbEntity
  8
RUNDUNGEN
100
AcDbCircle
 62
7
  6
CONTINUOUS
 10
113.8197219547
 20
120.1508103291
 40
5.1347197559
100
AcDbArc
 50
82.37280809
 51
89.9929425904
  0
ARC
  5
4BD
100
AcDbEntity
  8
RUNDUNGEN
100
AcDbCircle
 62
7
  6
CONTINUOUS
 10
89.3209868149
 20
120.1508117462
 40
5.1347183388
100
AcDbArc
 50
90.0070565365
 51
97.6271977292
  0
ARC
  5
4BE
100
AcDbEntity
  8
0
100
AcDbCircle
 62
7
  6
CONTINUOUS
 10
115.820354424
 20
98.6026371893
 40
3.0
100
AcDbArc
 50
270.0
 51
281.1385935395
  0
ARC
  5
4BF
100
AcDbEntity
  8
0
100
AcDbCircle
 62
7
  6
CONTINUOUS
 10
87.320354424
 20
98.6026371893
 40
3.0
100
AcDbArc
 50
258.9323075881
 51
270.0
  0
ARC
  5
4C0
100
AcDbEntity
  8
0
100
AcDbCircle
 62
7
  6
CONTINUOUS
 10
107.8929379709
 20
88.0000278604
 40
2.9160828086
100
AcDbArc
 50
287.9326682405
 51
288.4510786558
  0
ARC
  5
4C1
100
AcDbEntity
  8
KONSTRUKTIONSELEMENTE
100
AcDbCircle
 62
7
  6
CONTINUOUS
 10
101.570354424
 20
86.8283720959
 40
2.5
100
AcDbArc
 50
180.0
 51
360.0
  0
ARC
  5
4C2
100
AcDbEntity
  8
BEZUGSACHSEN
100
AcDbCircle
 62
7
  6
CONTINUOUS
 10
90.7331845212
 20
109.3006553454
 40
1.3372395237
100
AcDbArc
 50
8.0455549065
 51
8.7497994134
  0
ARC
  5
4C3
100
AcDbEntity
  8
BEZUGSACHSEN
100
AcDbCircle
 62
7
  6
CONTINUOUS
 10
90.4075243263
 20
109.3006553455
 40
1.3372395233
100
AcDbArc
 50
171.2502005865
 51
171.9544450936
  0
ARC
  5
4C4
100
AcDbEntity
  8
BEZUGSACHSEN
100
AcDbCircle
 62
7
  6
CONTINUOUS
 10
90.7371982741
 20
109.3011858133
 40
1.3331910338
100
AcDbArc
 50
4.2855019131
 51
8.0471243999
  0
ARC
  5
4C5
100
AcDbEntity
  8
BEZUGSACHSEN
100
AcDbCircle
 62
7
  6
CONTINUOUS
 10
90.4035105739
 20
109.3011858133
 40
1.3331910338
100
AcDbArc
 50
171.9528756001
 51
175.7144980869
  0
ARC
  5
4C6
100
AcDbEntity
  8
0
100
AcDbCircle
 62
7
  6
CONTINUOUS
 10
94.3299744464
 20
85.8118221428
 40
0.1651727228
100
AcDbArc
 50
263.321469311
 51
270.0067075147
  0
ARC
  5
4C7
100
AcDbEntity
  8
0
100
AcDbCircle
 62
7
  6
CONTINUOUS
 10
94.3299744464
 20
86.572535014
 40
0.1651727228
100
AcDbArc
 50
263.3214693109
 51
270.0067075149
  0
SPLINE
  5
4C8
100
AcDbEntity
  8
0
100
AcDbSpline
 62
7
  6
CONTINUOUS
 70
0
 71
3
 72
13
 73
9
 74
0
 42
0.0000001
 43
0.0000001
 44
0.0000000001
 40
0.0
 40
0.0
 40
0.0
 40
0.0
 40
0.2578502816
 40
0.3800272365
 40
0.5000000009
 40
0.6199727654
 40
0.7421497198
 40
1.0
 40
1.0
 40
1.0
 40
1.0
 10
355.1098714173
 20
155.5906179201
 30
0.0
 10
355.316543051
 20
155.4094511488
 30
0.0
 10
355.5981912381
 20
155.1117721514
 30
0.0
 10
355.8823429077
 20
154.6592608375
 30
0.0
 10
356.0406742164
 20
154.3057781116
 30
0.0
 10
356.1465997092
 20
153.9332212299
 30
0.0
 10
356.2197955744
 20
153.4039282828
 30
0.0
 10
356.1953849123
 20
152.9948529778
 30
0.0
 10
356.1535170117
 20
152.7232252154
 30
0.0
  0
SPLINE
  5
4C9
100
AcDbEntity
  8
0
100
AcDbSpline
 62
7
  6
CONTINUOUS
 70
0
 71
3
 72
13
 73
9
 74
0
 42
0.0000001
 43
0.0000001
 44
0.0000000001
 40
0.0
 40
0.0
 40
0.0
 40
0.0
 40
0.2578502816
 40
0.3800272365
 40
0.5000000009
 40
0.6199727654
 40
0.7421497198
 40
1.0
 40
1.0
 40
1.0
 40
1.0
 10
351.8963803507
 20
154.4210028238
 30
0.0
 10
351.8545124499
 20
154.1493750599
 30
0.0
 10
351.8301017926
 20
153.7402997531
 30
0.0
 10
351.9032976509
 20
153.2110068032
 30
0.0
 10
352.0092231481
 20
152.8384499218
 30
0.0
 10
352.1675544604
 20
152.4849671986
 30
0.0
 10
352.4517061229
 20
152.0324558824
 30
0.0
 10
352.7333543125
 20
151.7347768893
 30
0.0
 10
352.9400259451
 20
151.5536101191
 30
0.0
  0
SPLINE
  5
4CA
100
AcDbEntity
  8
0
100
AcDbSpline
 62
7
  6
CONTINUOUS
 70
0
 71
3
 72
9
 73
5
 74
0
 42
0.0000001
 43
0.0000001
 44
0.0000000001
 40
0.0
 40
0.0
 40
0.0
 40
0.0
 40
0.500095873
 40
1.0
 40
1.0
 40
1.0
 40
1.0
 10
362.8997481846
 20
134.1881074015
 30
0.0
 10
363.4110178894
 20
133.2412285293
 30
0.0
 10
364.3621053135
 20
131.3081897233
 30
0.0
 10
365.1466159376
 20
129.3012379471
 30
0.0
 10
365.494405431
 20
128.2833327604
 30
0.0
  0
SPLINE
  5
4CB
100
AcDbEntity
  8
0
100
AcDbSpline
 62
7
  6
CONTINUOUS
 70
0
 71
3
 72
11
 73
7
 74
0
 42
0.0000001
 43
0.0000001
 44
0.0000000001
 40
0.0
 40
0.0
 40
0.0
 40
0.0
 40
0.2500485047
 40
0.5000000009
 40
0.7499514969
 40
1.0
 40
1.0
 40
1.0
 40
1.0
 10
359.0048098009
 20
144.8893626608
 30
0.0
 10
359.4573493194
 20
144.0512529413
 30
0.0
 10
360.306484277
 20
142.344354147
 30
0.0
 10
361.3869918527
 20
139.6969575626
 30
0.0
 10
362.26098875
 20
136.9743972444
 30
0.0
 10
362.7076870259
 20
135.1210234844
 30
0.0
 10
362.8997481846
 20
134.1881074015
 30
0.0
  0
SPLINE
  5
4CC
100
AcDbEntity
  8
0
100
AcDbSpline
 62
7
  6
CONTINUOUS
 70
0
 71
3
 72
11
 73
7
 74
0
 42
0.0000001
 43
0.0000001
 44
0.0000000001
 40
0.0
 40
0.0
 40
0.0
 40
0.0
 40
0.2506353974
 40
0.5000000009
 40
0.7493646041
 40
1.0
 40
1.0
 40
1.0
 40
1.0
 10
356.1535170117
 20
152.7232252154
 30
0.0
 10
356.5183197954
 20
152.1246467581
 30
0.0
 10
357.1931366002
 20
150.8969931446
 30
0.0
 10
358.0139899614
 20
148.9645578539
 30
0.0
 10
358.6273252664
 20
146.956592172
 30
0.0
 10
358.8995061311
 20
145.5823910668
 30
0.0
 10
359.0048098009
 20
144.8893626608
 30
0.0
  0
LINE
  5
4CD
100
AcDbEntity
  8
0
100
AcDbLine
 62
7
  6
CONTINUOUS
 10
364.3656469363
 20
113.4660614617
 11
361.2716370103
 21
113.1953706684
  0
SPLINE
  5
4CE
100
AcDbEntity
  8
0
100
AcDbSpline
 62
7
  6
CONTINUOUS
 70
0
 71
3
 72
9
 73
5
 74
0
 42
0.0000001
 43
0.0000001
 44
0.0000000001
 40
0.0
 40
0.0
 40
0.0
 40
0.0
 40
0.2637741096
 40
1.0
 40
1.0
 40
1.0
 40
1.0
 10
361.6290653993
 20
120.984757441
 30
0.0
 10
361.5855583228
 20
121.0159812479
 30
0.0
 10
361.4184604506
 20
121.1312525701
 30
0.0
 10
361.2421893463
 20
121.2337391895
 30
0.0
 10
361.1073050822
 20
121.2981393619
 30
0.0
  0
SPLINE
  5
4CF
100
AcDbEntity
  8
0
100
AcDbSpline
 62
7
  6
CONTINUOUS
 70
0
 71
3
 72
13
 73
9
 74
0
 42
0.0000001
 43
0.0000001
 44
0.0000000001
 40
0.0
 40
0.0
 40
0.0
 40
0.0
 40
0.0519586623
 40
0.1227005438
 40
0.2143857084
 40
0.3279011679
 40
0.6211317425
 40
1.0
 40
1.0
 40
1.0
 40
1.0
 10
360.2609326168
 20
121.8198669677
 30
0.0
 10
360.266885716
 20
121.8035109927
 30
0.0
 10
360.2901087331
 20
121.7685370427
 30
0.0
 10
360.3417720947
 20
121.7185048708
 30
0.0
 10
360.4158430433
 20
121.6628449616
 30
0.0
 10
360.5569283372
 20
121.5734108029
 30
0.0
 10
360.7899566442
 20
121.4504754097
 30
0.0
 10
360.9927723741
 20
121.3528227321
 30
0.0
 10
361.1073050822
 20
121.2981393619
 30
0.0
  0
LINE
  5
4D0
100
AcDbEntity
  8
0
100
AcDbLine
 62
7
  6
CONTINUOUS
 10
363.4974060479
 20
108.5420226967
 11
360.403396122
 21
108.2713319033
  0
SPLINE
  5
4D1
100
AcDbEntity
  8
0
100
AcDbSpline
 62
7
  6
CONTINUOUS
 70
0
 71
3
 72
9
 73
5
 74
0
 42
0.0000001
 43
0.0000001
 44
0.0000000001
 40
0.0
 40
0.0
 40
0.0
 40
0.0
 40
0.500095873
 40
1.0
 40
1.0
 40
1.0
 40
1.0
 10
359.686257118
 20
133.0184923052
 30
0.0
 10
359.9032438087
 20
131.9645031754
 30
0.0
 10
360.4172019661
 20
129.8723623278
 30
0.0
 10
361.1062756969
 20
127.8306743631
 30
0.0
 10
361.4941503299
 20
126.8273589741
 30
0.0
  0
SPLINE
  5
4D2
100
AcDbEntity
  8
0
100
AcDbSpline
 62
7
  6
CONTINUOUS
 70
0
 71
3
 72
11
 73
7
 74
0
 42
0.0000001
 43
0.0000001
 44
0.0000000001
 40
0.0
 40
0.0
 40
0.0
 40
0.0
 40
0.2500485047
 40
0.5000000009
 40
0.7499514969
 40
1.0
 40
1.0
 40
1.0
 40
1.0
 10
355.7913187343
 20
143.7197475645
 30
0.0
 10
355.9833798942
 20
142.7868314758
 30
0.0
 10
356.4300781744
 20
140.9334577097
 30
0.0
 10
357.3040750727
 20
138.2108973857
 30
0.0
 10
358.3845826453
 20
135.5635008064
 30
0.0
 10
359.2337176024
 20
133.8566020195
 30
0.0
 10
359.686257118
 20
133.0184923052
 30
0.0
  0
SPLINE
  5
4D3
100
AcDbEntity
  8
0
100
AcDbSpline
 62
7
  6
CONTINUOUS
 70
0
 71
3
 72
11
 73
7
 74
0
 42
0.0000001
 43
0.0000001
 44
0.0000000001
 40
0.0
 40
0.0
 40
0.0
 40
0.0
 40
0.2506353974
 40
0.5000000009
 40
0.7493646041
 40
1.0
 40
1.0
 40
1.0
 40
1.0
 10
352.9400259451
 20
151.5536101191
 30
0.0
 10
353.0453296157
 20
150.8605817088
 30
0.0
 10
353.317510484
 20
149.4863805992
 30
0.0
 10
353.9308457893
 20
147.478414913
 30
0.0
 10
354.7516991482
 20
145.5459796258
 30
0.0
 10
355.4265159529
 20
144.3183260181
 30
0.0
 10
355.7913187343
 20
143.7197475645
 30
0.0
  0
LINE
  5
4D4
100
AcDbEntity
  8
RUNDUNGEN
100
AcDbLine
 62
7
  6
CONTINUOUS
 10
371.8831879026
 20
116.2022226083
 11
374.4273337013
 21
117.9836526749
  0
SPLINE
  5
4D5
100
AcDbEntity
  8
RUNDUNGEN
100
AcDbSpline
 62
7
  6
CONTINUOUS
 70
0
 71
3
 72
13
 73
9
 74
0
 42
0.0000001
 43
0.0000001
 44
0.0000000001
 40
0.0
 40
0.0
 40
0.0
 40
0.0
 40
0.0519586623
 40
0.1227005438
 40
0.2143857084
 40
0.3279011679
 40
0.6211317425
 40
1.0
 40
1.0
 40
1.0
 40
1.0
 10
369.6578588246
 20
125.240068401
 30
0.0
 10
369.6638119041
 20
125.2237124188
 30
0.0
 10
369.6685028627
 20
125.1819933511
 30
0.0
 10
369.6610864918
 20
125.110457915
 30
0.0
 10
369.6401223532
 20
125.0202080629
 30
0.0
 10
369.5895319169
 20
124.8610096439
 30
0.0
 10
369.4900432248
 20
124.6170479605
 30
0.0
 10
369.3974472931
 20
124.4118742313
 30
0.0
 10
369.3448599413
 20
124.2963641337
 30
0.0
  0
SPLINE
  5
4D6
100
AcDbEntity
  8
RUNDUNGEN
100
AcDbSpline
 62
7
  6
CONTINUOUS
 70
0
 71
3
 72
9
 73
5
 74
0
 42
0.0000001
 43
0.0000001
 44
0.0000000001
 40
0.0
 40
0.0
 40
0.0
 40
0.0
 40
0.2637741096
 40
1.0
 40
1.0
 40
1.0
 40
1.0
 10
369.1466063656
 20
123.7209185876
 30
0.0
 10
369.1598644436
 20
123.7728032211
 30
0.0
 10
369.2137738624
 20
123.9685146188
 30
0.0
 10
369.2829282332
 20
124.1603288058
 30
0.0
 10
369.3448599413
 20
124.2963641337
 30
0.0
  0
LINE
  5
4D7
100
AcDbEntity
  8
RUNDUNGEN
100
AcDbLine
 62
7
  6
CONTINUOUS
 10
375.7134101181
 20
112.9882845599
 11
378.2575559169
 21
114.7697146265
  0
SPLINE
  5
4D8
100
AcDbEntity
  8
0
100
AcDbSpline
 62
7
  6
CONTINUOUS
 70
0
 71
3
 72
24
 73
20
 74
0
 42
0.0000001
 43
0.0000001
 44
0.0000000001
 40
0.0
 40
0.0
 40
0.0
 40
0.0
 40
0.1325367287
 40
0.2638739511
 40
0.3927528325
 40
0.455920943
 40
0.5179481019
 40
0.5786546273
 40
0.6379015311
 40
0.6956649624
 40
0.7522607548
 40
0.7805927531
 40
0.8092812622
 40
0.8387558883
 40
0.8693761345
 40
0.9011686732
 40
0.9337888009
 40
0.9668267246
 40
1.0
 40
1.0
 40
1.0
 40
1.0
 10
373.7659190468
 20
96.1180588619
 30
0.0
 10
373.3904986874
 20
95.9814170258
 30
0.0
 10
372.6213507645
 20
95.7648983299
 30
0.0
 10
371.4414664568
 20
95.6224102519
 30
0.0
 10
370.461603423
 20
95.6707678745
 30
0.0
 10
369.7099198573
 20
95.8241939223
 30
0.0
 10
369.1758223022
 20
95.9983998778
 30
0.0
 10
368.6794530815
 20
96.2361800982
 30
0.0
 10
368.2362752594
 20
96.5420336967
 30
0.0
 10
367.8687632078
 20
96.9200287088
 30
0.0
 10
367.6545459928
 20
97.3019078496
 30
0.0
 10
367.5726932705
 20
97.6366444604
 30
0.0
 10
367.5660666724
 20
97.8996369325
 30
0.0
 10
367.6252659733
 20
98.1636443301
 30
0.0
 10
367.7544882866
 20
98.4120558393
 30
0.0
 10
367.9453100183
 20
98.6289130521
 30
0.0
 10
368.1805365648
 20
98.8073639775
 30
0.0
 10
368.4430633744
 20
98.9498778378
 30
0.0
 10
368.6281431702
 20
99.0254139898
 30
0.0
 10
368.7221089945
 20
99.0596147529
 30
0.0
  0
SPLINE
  5
4D9
100
AcDbEntity
  8
RUNDUNGEN
100
AcDbSpline
 62
7
  6
CONTINUOUS
 70
0
 71
3
 72
24
 73
20
 74
0
 42
0.0000001
 43
0.0000001
 44
0.0000000001
 40
0.0
 40
0.0
 40
0.0
 40
0.0
 40
0.1325367287
 40
0.2638739511
 40
0.3927528325
 40
0.455920943
 40
0.5179481019
 40
0.5786546273
 40
0.6379015311
 40
0.6956649624
 40
0.7522607548
 40
0.7805927531
 40
0.8092812622
 40
0.8387558883
 40
0.8693761345
 40
0.9011686732
 40
0.9337888009
 40
0.9668267246
 40
1.0
 40
1.0
 40
1.0
 40
1.0
 10
375.8332428125
 20
96.8705031772
 30
0.0
 10
376.2086631718
 20
97.0071450134
 30
0.0
 10
376.9370401991
 20
97.3356808244
 30
0.0
 10
377.9324735876
 20
97.9849436379
 30
0.0
 10
378.652008539
 20
98.6518315433
 30
0.0
 10
379.1292111949
 20
99.2525355971
 30
0.0
 10
379.4263762294
 20
99.7292963921
 30
0.0
 10
379.6537749331
 20
100.2305065934
 30
0.0
 10
379.7966699376
 20
100.7496732559
 30
0.0
 10
379.8352299922
 20
101.2754664277
 30
0.0
 10
379.7538627192
 20
101.705698993
 30
0.0
 10
379.6014009965
 20
102.0147360293
 30
0.0
 10
379.4374289625
 20
102.2204594463
 30
0.0
 10
379.222378983
 20
102.3846482691
 30
0.0
 10
378.9637131078
 20
102.4918800234
 30
0.0
 10
378.6781420512
 20
102.5353444414
 30
0.0
 10
378.3832420184
 20
102.5208450716
 30
0.0
 10
378.0905286712
 20
102.461268042
 30
0.0
 10
377.9001956196
 20
102.4001650919
 30
0.0
 10
377.8062297952
 20
102.3659643288
 30
0.0
  0
SPLINE
  5
4DA
100
AcDbEntity
  8
0
100
AcDbSpline
 62
7
  6
CONTINUOUS
 70
0
 71
3
 72
11
 73
7
 74
0
 42
0.0000001
 43
0.0000001
 44
0.0000000001
 40
0.0
 40
0.0
 40
0.0
 40
0.0
 40
0.2506353974
 40
0.5000000009
 40
0.7493646041
 40
1.0
 40
1.0
 40
1.0
 40
1.0
 10
342.5832293575
 20
144.8893626608
 30
0.0
 10
342.688533028
 20
145.5823910711
 30
0.0
 10
342.9607138963
 20
146.9565921807
 30
0.0
 10
343.5740492017
 20
148.9645578668
 30
0.0
 10
344.3949025605
 20
150.8969931541
 30
0.0
 10
345.0697193653
 20
152.1246467618
 30
0.0
 10
345.4345221467
 20
152.7232252154
 30
0.0
  0
SPLINE
  5
4DB
100
AcDbEntity
  8
0
100
AcDbSpline
 62
7
  6
CONTINUOUS
 70
0
 71
3
 72
11
 73
7
 74
0
 42
0.0000001
 43
0.0000001
 44
0.0000000001
 40
0.0
 40
0.0
 40
0.0
 40
0.0
 40
0.2500485047
 40
0.5000000009
 40
0.7499514969
 40
1.0
 40
1.0
 40
1.0
 40
1.0
 10
338.6882909739
 20
134.1881074015
 30
0.0
 10
338.8803521337
 20
135.1210234903
 30
0.0
 10
339.3270504139
 20
136.9743972563
 30
0.0
 10
340.2010473122
 20
139.6969575804
 30
0.0
 10
341.2815548849
 20
142.3443541597
 30
0.0
 10
342.1306898419
 20
144.0512529465
 30
0.0
 10
342.5832293575
 20
144.8893626608
 30
0.0
  0
SPLINE
  5
4DC
100
AcDbEntity
  8
0
100
AcDbSpline
 62
7
  6
CONTINUOUS
 70
0
 71
3
 72
9
 73
5
 74
0
 42
0.0000001
 43
0.0000001
 44
0.0000000001
 40
0.0
 40
0.0
 40
0.0
 40
0.0
 40
0.4999041821
 40
1.0
 40
1.0
 40
1.0
 40
1.0
 10
336.0936337274
 20
128.2833327604
 30
0.0
 10
336.4414232592
 20
129.3012380592
 30
0.0
 10
337.2259339073
 20
131.3081898263
 30
0.0
 10
338.1770213255
 20
133.2412286337
 30
0.0
 10
338.6882909739
 20
134.1881074015
 30
0.0
  0
LINE
  5
4DD
100
AcDbEntity
  8
0
100
AcDbLine
 62
7
  6
CONTINUOUS
 10
338.0906331105
 20
108.5420226967
 11
341.1846430365
 21
108.2713319033
  0
LINE
  5
4DE
100
AcDbEntity
  8
0
100
AcDbLine
 62
7
  6
CONTINUOUS
 10
337.2223922222
 20
113.4660614617
 11
340.3164021481
 21
113.1953706684
  0
SPLINE
  5
4DF
100
AcDbEntity
  8
RUNDUNGEN
100
AcDbSpline
 62
7
  6
CONTINUOUS
 70
0
 71
3
 72
9
 73
5
 74
0
 42
0.0000001
 43
0.0000001
 44
0.0000000001
 40
0.0
 40
0.0
 40
0.0
 40
0.0
 40
0.2362642616
 40
1.0
 40
1.0
 40
1.0
 40
1.0
 10
332.2431792172
 20
124.2963641337
 30
0.0
 10
332.2630550907
 20
124.2527060293
 30
0.0
 10
332.3422657068
 20
124.0656880483
 30
0.0
 10
332.4030428259
 20
123.8711552484
 30
0.0
 10
332.4414327928
 20
123.7209185876
 30
0.0
  0
SPLINE
  5
4E0
100
AcDbEntity
  8
RUNDUNGEN
100
AcDbSpline
 62
7
  6
CONTINUOUS
 70
0
 71
3
 72
13
 73
9
 74
0
 42
0.0000001
 43
0.0000001
 44
0.0000000001
 40
0.0
 40
0.0
 40
0.0
 40
0.0
 40
0.0519586463
 40
0.1227005131
 40
0.2143856674
 40
0.3279011225
 40
0.6211317072
 40
1.0
 40
1.0
 40
1.0
 40
1.0
 10
331.9301803549
 20
125.2400684589
 30
0.0
 10
331.924227267
 20
125.2237124843
 30
0.0
 10
331.919536294
 20
125.1819934245
 30
0.0
 10
331.9269526519
 20
125.1104579965
 30
0.0
 10
331.9479167815
 20
125.0202081464
 30
0.0
 10
331.9985072131
 20
124.8610097167
 30
0.0
 10
332.0979959139
 20
124.6170480046
 30
0.0
 10
332.1905918573
 20
124.4118742491
 30
0.0
 10
332.2431792172
 20
124.2963641337
 30
0.0
  0
SPLINE
  5
4E1
100
AcDbEntity
  8
0
100
AcDbSpline
 62
7
  6
CONTINUOUS
 70
0
 71
3
 72
13
 73
9
 74
0
 42
0.0000001
 43
0.0000001
 44
0.0000000001
 40
0.0
 40
0.0
 40
0.0
 40
0.0
 40
0.0519586463
 40
0.1227005131
 40
0.2143856674
 40
0.3279011225
 40
0.6211317072
 40
1.0
 40
1.0
 40
1.0
 40
1.0
 10
341.3271065627
 20
121.8198670256
 30
0.0
 10
341.3211534749
 20
121.8035110511
 30
0.0
 10
341.297930474
 20
121.7685370978
 30
0.0
 10
341.2462671274
 20
121.7185049237
 30
0.0
 10
341.172196187
 20
121.6628450102
 30
0.0
 10
341.0311108899
 20
121.5734108404
 30
0.0
 10
340.7980825577
 20
121.4504754306
 30
0.0
 10
340.595266802
 20
121.3528227406
 30
0.0
 10
340.4807340762
 20
121.2981393619
 30
0.0
  0
SPLINE
  5
4E2
100
AcDbEntity
  8
0
100
AcDbSpline
 62
7
  6
CONTINUOUS
 70
0
 71
3
 72
9
 73
5
 74
0
 42
0.0000001
 43
0.0000001
 44
0.0000000001
 40
0.0
 40
0.0
 40
0.0
 40
0.0
 40
0.2362642616
 40
1.0
 40
1.0
 40
1.0
 40
1.0
 10
340.4807340762
 20
121.2981393619
 30
0.0
 10
340.4374453851
 20
121.2774712789
 30
0.0
 10
340.2565536919
 20
121.1851227963
 30
0.0
 10
340.084952444
 20
121.0751688051
 30
0.0
 10
339.9589737591
 20
120.984757441
 30
0.0
  0
SPLINE
  5
4E3
100
AcDbEntity
  8
0
100
AcDbSpline
 62
7
  6
CONTINUOUS
 70
0
 71
3
 72
13
 73
9
 74
0
 42
0.0000001
 43
0.0000001
 44
0.0000000001
 40
0.0
 40
0.0
 40
0.0
 40
0.0
 40
0.2578502816
 40
0.3800272365
 40
0.5000000009
 40
0.6199727654
 40
0.7421497198
 40
1.0
 40
1.0
 40
1.0
 40
1.0
 10
348.6480132133
 20
151.5536101191
 30
0.0
 10
348.8546848471
 20
151.7347768903
 30
0.0
 10
349.1363330341
 20
152.0324558878
 30
0.0
 10
349.4204847037
 20
152.4849672017
 30
0.0
 10
349.5788160124
 20
152.8384499276
 30
0.0
 10
349.6847415052
 20
153.2110068092
 30
0.0
 10
349.7579373704
 20
153.7402997563
 30
0.0
 10
349.7335267083
 20
154.1493750614
 30
0.0
 10
349.6916588078
 20
154.4210028238
 30
0.0
  0
SPLINE
  5
4E4
100
AcDbEntity
  8
0
100
AcDbSpline
 62
7
  6
CONTINUOUS
 70
0
 71
3
 72
11
 73
7
 74
0
 42
0.0000001
 43
0.0000001
 44
0.0000000001
 40
0.0
 40
0.0
 40
0.0
 40
0.0
 40
0.2506353974
 40
0.5000000009
 40
0.7493646041
 40
1.0
 40
1.0
 40
1.0
 40
1.0
 10
345.7967204241
 20
143.7197475645
 30
0.0
 10
346.1615232078
 20
144.3183260218
 30
0.0
 10
346.8363400125
 20
145.5459796353
 30
0.0
 10
347.6571933738
 20
147.478414926
 30
0.0
 10
348.2705286788
 20
149.4863806079
 30
0.0
 10
348.5427095434
 20
150.8605817131
 30
0.0
 10
348.6480132133
 20
151.5536101191
 30
0.0
  0
SPLINE
  5
4E5
100
AcDbEntity
  8
0
100
AcDbSpline
 62
7
  6
CONTINUOUS
 70
0
 71
3
 72
11
 73
7
 74
0
 42
0.0000001
 43
0.0000001
 44
0.0000000001
 40
0.0
 40
0.0
 40
0.0
 40
0.0
 40
0.2500485047
 40
0.5000000009
 40
0.7499514969
 40
1.0
 40
1.0
 40
1.0
 40
1.0
 10
341.9017820405
 20
133.0184923052
 30
0.0
 10
342.3543215589
 20
133.8566020248
 30
0.0
 10
343.2034565165
 20
135.5635008191
 30
0.0
 10
344.2839640922
 20
138.2108974034
 30
0.0
 10
345.1579609895
 20
140.9334577216
 30
0.0
 10
345.6046592654
 20
142.7868314816
 30
0.0
 10
345.7967204241
 20
143.7197475645
 30
0.0
  0
SPLINE
  5
4E6
100
AcDbEntity
  8
0
100
AcDbSpline
 62
7
  6
CONTINUOUS
 70
0
 71
3
 72
9
 73
5
 74
0
 42
0.0000001
 43
0.0000001
 44
0.0000000001
 40
0.0
 40
0.0
 40
0.0
 40
0.0
 40
0.4999041821
 40
1.0
 40
1.0
 40
1.0
 40
1.0
 10
340.0938888285
 20
126.8273589741
 30
0.0
 10
340.4817635043
 20
127.8306744737
 30
0.0
 10
341.1708372109
 20
129.8723624468
 30
0.0
 10
341.6847953737
 20
131.9645032917
 30
0.0
 10
341.9017820405
 20
133.0184923052
 30
0.0
  0
LINE
  5
4E7
100
AcDbEntity
  8
RUNDUNGEN
100
AcDbLine
 62
7
  6
CONTINUOUS
 10
325.8746290403
 20
112.9882845599
 11
323.3304832415
 21
114.7697146265
  0
LINE
  5
4E8
100
AcDbEntity
  8
RUNDUNGEN
100
AcDbLine
 62
7
  6
CONTINUOUS
 10
329.7048512559
 20
116.2022226083
 11
327.1607054571
 21
117.9836526749
  0
SPLINE
  5
4E9
100
AcDbEntity
  8
RUNDUNGEN
100
AcDbSpline
 62
7
  6
CONTINUOUS
 70
0
 71
3
 72
25
 73
21
 74
0
 42
0.0000001
 43
0.0000001
 44
0.0000000001
 40
0.0
 40
0.0
 40
0.0
 40
0.0
 40
0.0331679684
 40
0.0662003394
 40
0.0988091168
 40
0.1305875877
 40
0.161197813
 40
0.1906631803
 40
0.2193447519
 40
0.2476721202
 40
0.2759668155
 40
0.3044289674
 40
0.3621818675
 40
0.421418088
 40
0.4821139176
 40
0.5441286487
 40
0.6072852372
 40
0.7361514356
 40
0.8674787513
 40
1.0
 40
1.0
 40
1.0
 40
1.0
 10
323.7818093632
 20
102.3659643288
 30
0.0
 10
323.6878427015
 20
102.4001653967
 30
0.0
 10
323.4975094072
 20
102.4612701174
 30
0.0
 10
323.2048106818
 20
102.5208414894
 30
0.0
 10
322.9099579121
 20
102.5353343867
 30
0.0
 10
322.6244359746
 20
102.491943801
 30
0.0
 10
322.3658113166
 20
102.3847480786
 30
0.0
 10
322.1507752458
 20
102.2205950868
 30
0.0
 10
321.9867735422
 20
102.0149472093
 30
0.0
 10
321.8722073924
 20
101.7828325431
 30
0.0
 10
321.8018353293
 20
101.534912363
 30
0.0
 10
321.7592093083
 20
101.1912458109
 30
0.0
 10
321.7912848469
 20
100.7496315995
 30
0.0
 10
321.9342030911
 20
100.230795215
 30
0.0
 10
322.1615500099
 20
99.7294861357
 30
0.0
 10
322.458687614
 20
99.2527425219
 30
0.0
 10
322.935867511
 20
98.6519883753
 30
0.0
 10
323.6554331737
 20
97.9850428864
 30
0.0
 10
324.6509275228
 20
97.3357152715
 30
0.0
 10
325.3793564278
 20
97.0071521322
 30
0.0
 10
325.754796346
 20
96.8705031772
 30
0.0
  0
SPLINE
  5
4EA
100
AcDbEntity
  8
0
100
AcDbSpline
 62
7
  6
CONTINUOUS
 70
0
 71
3
 72
25
 73
21
 74
0
 42
0.0000001
 43
0.0000001
 44
0.0000000001
 40
0.0
 40
0.0
 40
0.0
 40
0.0
 40
0.0331679684
 40
0.0662003394
 40
0.0988091168
 40
0.1305875877
 40
0.161197813
 40
0.1906631803
 40
0.2193447519
 40
0.2476721202
 40
0.2759668155
 40
0.3044289674
 40
0.3621818675
 40
0.421418088
 40
0.4821139176
 40
0.5441286487
 40
0.6072852372
 40
0.7361514356
 40
0.8674787513
 40
1.0
 40
1.0
 40
1.0
 40
1.0
 10
332.8659301639
 20
99.0596147529
 30
0.0
 10
332.9598968256
 20
99.025413685
 30
0.0
 10
333.1449779454
 20
98.9498787334
 30
0.0
 10
333.4074899174
 20
98.8073699379
 30
0.0
 10
333.642676098
 20
98.6289444343
 30
0.0
 10
333.8335076606
 20
98.4121753535
 30
0.0
 10
333.9627215606
 20
98.1638179403
 30
0.0
 10
334.0219332385
 20
97.8998469312
 30
0.0
 10
334.0153779246
 20
97.6368932544
 30
0.0
 10
333.9539402556
 20
97.3854414026
 30
0.0
 10
333.8484883635
 20
97.1502892361
 30
0.0
 10
333.6602371884
 20
96.8596259054
 30
0.0
 10
333.351801757
 20
96.5419475515
 30
0.0
 10
332.9088184308
 20
96.2363618988
 30
0.0
 10
332.4124253222
 20
95.9984726469
 30
0.0
 10
331.8783598238
 20
95.824262221
 30
0.0
 10
331.1266614934
 20
95.6707831707
 30
0.0
 10
330.1467379194
 20
95.6224011774
 30
0.0
 10
328.9667652597
 20
95.7648787994
 30
0.0
 10
328.1975600298
 20
95.981409907
 30
0.0
 10
327.8221201117
 20
96.1180588619
 30
0.0
  0
SPLINE
  5
4EB
100
AcDbEntity
  8
0
100
AcDbSpline
 62
7
  6
CONTINUOUS
 70
0
 71
3
 72
13
 73
9
 74
0
 42
0.0000001
 43
0.0000001
 44
0.0000000001
 40
0.0
 40
0.0
 40
0.0
 40
0.0
 40
0.2578502816
 40
0.3800272365
 40
0.5000000009
 40
0.6199727654
 40
0.7421497198
 40
1.0
 40
1.0
 40
1.0
 40
1.0
 10
345.4345221467
 20
152.7232252154
 30
0.0
 10
345.392654246
 20
152.9948529792
 30
0.0
 10
345.3682435886
 20
153.403928286
 30
0.0
 10
345.4414394469
 20
153.9332212359
 30
0.0
 10
345.5473649442
 20
154.3057781173
 30
0.0
 10
345.7056962565
 20
154.6592608406
 30
0.0
 10
345.9898479189
 20
155.1117721567
 30
0.0
 10
346.2714961085
 20
155.4094511498
 30
0.0
 10
346.4781677412
 20
155.5906179201
 30
0.0
  0
SPLINE
  5
4EC
100
AcDbEntity
  8
KONSTRUKTIONSELEMENTE
100
AcDbSpline
 62
7
  6
CONTINUOUS
 70
0
 71
3
 72
9
 73
5
 74
0
 42
0.0000001
 43
0.0000001
 44
0.0000000001
 40
0.0
 40
0.0
 40
0.0
 40
0.0
 40
0.2446794445
 40
1.0
 40
1.0
 40
1.0
 40
1.0
 10
97.9131874437
 20
112.6643151852
 30
0.0
 10
98.0260317498
 20
112.6945174503
 30
0.0
 10
98.4891189009
 20
112.8108217135
 30
0.0
 10
98.9589760497
 20
112.8996677585
 30
0.0
 10
99.3156070413
 20
112.9530839218
 30
0.0
  0
SPLINE
  5
4ED
100
AcDbEntity
  8
KONSTRUKTIONSELEMENTE
100
AcDbSpline
 62
7
  6
CONTINUOUS
 70
0
 71
3
 72
9
 73
5
 74
0
 42
0.0000001
 43
0.0000001
 44
0.0000000001
 40
0.0
 40
0.0
 40
0.0
 40
0.0
 40
0.2552585798
 40
1.0
 40
1.0
 40
1.0
 40
1.0
 10
103.8219860003
 20
112.9535378651
 30
0.0
 10
103.9433996053
 20
112.935371395
 30
0.0
 10
104.4180769224
 20
112.8579660804
 30
0.0
 10
104.8887672652
 20
112.7552412226
 30
0.0
 10
105.234718218
 20
112.6624498759
 30
0.0
  0
SPLINE
  5
4EE
100
AcDbEntity
  8
KONSTRUKTIONSELEMENTE
100
AcDbSpline
 62
7
  6
CONTINUOUS
 70
0
 71
3
 72
9
 73
5
 74
0
 42
0.0000001
 43
0.0000001
 44
0.0000000001
 40
0.0
 40
0.0
 40
0.0
 40
0.0
 40
0.240214334
 40
1.0
 40
1.0
 40
1.0
 40
1.0
 10
106.2636149601
 20
98.2069196651
 30
0.0
 10
106.0941203229
 20
98.1414530566
 30
0.0
 10
105.3803424944
 20
97.8901960666
 30
0.0
 10
104.6400535745
 20
97.717695553
 30
0.0
 10
104.073330245
 20
97.6222600835
 30
0.0
  0
SPLINE
  5
4EF
100
AcDbEntity
  8
KONSTRUKTIONSELEMENTE
100
AcDbSpline
 62
7
  6
CONTINUOUS
 70
0
 71
3
 72
9
 73
5
 74
0
 42
0.0000001
 43
0.0000001
 44
0.0000000001
 40
0.0
 40
0.0
 40
0.0
 40
0.0
 40
0.2597527072
 40
1.0
 40
1.0
 40
1.0
 40
1.0
 10
99.065492287
 20
97.6226075029
 30
0.0
 10
98.8718932105
 20
97.6552483708
 30
0.0
 10
98.1295389625
 20
97.7969510605
 30
0.0
 10
97.3985839317
 20
98.0053559876
 30
0.0
 10
96.8767387442
 20
98.2071657597
 30
0.0
  0
SPLINE
  5
4F0
100
AcDbEntity
  8
KONSTRUKTIONSELEMENTE
100
AcDbSpline
 62
7
  6
CONTINUOUS
 70
0
 71
3
 72
12
 73
8
 74
0
 42
0.0000001
 43
0.0000001
 44
0.0000000001
 40
0.0
 40
0.0
 40
0.0
 40
0.0
 40
0.1262990444
 40
0.2511066271
 40
0.4969973831
 40
0.7427726986
 40
1.0
 40
1.0
 40
1.0
 40
1.0
 10
93.589918111
 20
127.3923062967
 30
0.0
 10
93.6132185402
 20
127.6052874061
 30
0.0
 10
93.7015157875
 20
128.0254293031
 30
0.0
 10
94.0308702098
 20
128.8058330242
 30
0.0
 10
94.6792552307
 20
129.650899615
 30
0.0
 10
95.7115431045
 20
130.409890318
 30
0.0
 10
96.4878702975
 20
130.77480314
 30
0.0
 10
96.8952573838
 20
130.931145396
 30
0.0
  0
SPLINE
  5
4F1
100
AcDbEntity
  8
KONSTRUKTIONSELEMENTE
100
AcDbSpline
 62
7
  6
CONTINUOUS
 70
0
 71
3
 72
14
 73
10
 74
0
 42
0.0000001
 43
0.0000001
 44
0.0000000001
 40
0.0
 40
0.0
 40
0.0
 40
0.0
 40
0.256916319
 40
0.3805961261
 40
0.5028105887
 40
0.6250946437
 40
0.748944438
 40
0.8737869378
 40
1.0
 40
1.0
 40
1.0
 40
1.0
 10
106.2459136009
 20
130.9308670008
 30
0.0
 10
106.6531938835
 20
130.7743593303
 30
0.0
 10
107.2426557195
 20
130.4985897664
 30
0.0
 10
107.9534804511
 20
130.022958118
 30
0.0
 10
108.4313757004
 20
129.6171012864
 30
0.0
 10
108.8486697981
 20
129.1479693713
 30
0.0
 10
109.1902664905
 20
128.6152143106
 30
0.0
 10
109.4390801581
 20
128.0255245818
 30
0.0
 10
109.5273907724
 20
127.6050729023
 30
0.0
 10
109.5507453535
 20
127.3920037092
 30
0.0
  0
SPLINE
  5
4F2
100
AcDbEntity
  8
KONSTRUKTIONSELEMENTE
100
AcDbSpline
 62
7
  6
CONTINUOUS
 70
0
 71
3
 72
20
 73
16
 74
0
 42
0.0000001
 43
0.0000001
 44
0.0000000001
 40
0.0
 40
0.0
 40
0.0
 40
0.0
 40
0.0085297955
 40
0.0114963125
 40
0.0254668196
 40
0.0500518293
 40
0.0849275002
 40
0.1298212731
 40
0.1842098958
 40
0.2474272128
 40
0.3188144969
 40
0.3977285093
 40
0.575822876
 40
0.7778141244
 40
1.0
 40
1.0
 40
1.0
 40
1.0
 10
97.8723975637
 20
126.3966432077
 30
0.0
 10
97.8700306627
 20
126.3936963616
 30
0.0
 10
97.8617969362
 20
126.3848544096
 30
0.0
 10
97.873683486
 20
126.3943418141
 30
0.0
 10
97.8847663751
 20
126.4048838796
 30
0.0
 10
97.9118552907
 20
126.4262521594
 30
0.0
 10
97.9484300193
 20
126.4531033544
 30
0.0
 10
97.9985031244
 20
126.4858309683
 30
0.0
 10
98.0602497954
 20
126.5226638328
 30
0.0
 10
98.1337131458
 20
126.5629921607
 30
0.0
 10
98.2181268146
 20
126.6057330243
 30
0.0
 10
98.3500443358
 20
126.6672296369
 30
0.0
 10
98.5385777502
 20
126.7438865587
 30
0.0
 10
98.7908376778
 20
126.8312964991
 30
0.0
 10
98.9712892604
 20
126.884194619
 30
0.0
 10
99.0663610732
 20
126.9097800339
 30
0.0
  0
SPLINE
  5
4F3
100
AcDbEntity
  8
KONSTRUKTIONSELEMENTE
100
AcDbSpline
 62
7
  6
CONTINUOUS
 70
0
 71
3
 72
11
 73
7
 74
0
 42
0.0000001
 43
0.0000001
 44
0.0000000001
 40
0.0
 40
0.0
 40
0.0
 40
0.0
 40
0.3534808692
 40
0.6494937681
 40
0.871455557
 40
1.0
 40
1.0
 40
1.0
 40
1.0
 10
104.076623008
 20
126.9091270461
 30
0.0
 10
104.2225025201
 20
126.8698513328
 30
0.0
 10
104.4881386189
 20
126.7884516171
 30
0.0
 10
104.8354117718
 20
126.6520957246
 30
0.0
 10
105.0812730233
 20
126.5255208487
 30
0.0
 10
105.2079597678
 20
126.4443623923
 30
0.0
 10
105.250430797
 20
126.4095132472
 30
0.0
  0
SPLINE
  5
4F4
100
AcDbEntity
  8
0
100
AcDbSpline
 62
7
  6
CONTINUOUS
 70
0
 71
3
 72
14
 73
10
 74
0
 42
0.0000001
 43
0.0000001
 44
0.0000000001
 40
0.0
 40
0.0
 40
0.0
 40
0.0
 40
0.0814019929
 40
0.1700315032
 40
0.2710780741
 40
0.3872470622
 40
0.5192862548
 40
0.6665815506
 40
1.0
 40
1.0
 40
1.0
 40
1.0
 10
110.3254736242
 20
85.9452917384
 30
0.0
 10
110.3254736242
 20
85.9973220937
 30
0.0
 10
110.3057834399
 20
86.1067020387
 30
0.0
 10
110.2217448526
 20
86.2607570355
 30
0.0
 10
110.087971696
 20
86.4053461486
 30
0.0
 10
109.9080178772
 20
86.5390255341
 30
0.0
 10
109.6853350374
 20
86.6600871617
 30
0.0
 10
109.3219976499
 20
86.8078151488
 30
0.0
 10
109.0221966556
 20
86.8829226932
 30
0.0
 10
108.8126109663
 20
86.921539923
 30
0.0
  0
SPLINE
  5
4F5
100
AcDbEntity
  8
0
100
AcDbSpline
 62
7
  6
CONTINUOUS
 70
0
 71
3
 72
15
 73
11
 74
0
 42
0.0000001
 43
0.0000001
 44
0.0000000001
 40
0.0
 40
0.0
 40
0.0
 40
0.0
 40
0.1642194237
 40
0.3261349433
 40
0.4798327545
 40
0.620009438
 40
0.7425162954
 40
0.8451056348
 40
0.9288125593
 40
1.0
 40
1.0
 40
1.0
 40
1.0
 10
103.4644646592
 20
85.2084799704
 30
0.0
 10
103.5445056372
 20
85.2039818193
 30
0.0
 10
103.7039583723
 20
85.2022748545
 30
0.0
 10
103.9377870624
 20
85.2206308529
 30
0.0
 10
104.1573375801
 20
85.2590431628
 30
0.0
 10
104.3530257125
 20
85.3157617919
 30
0.0
 10
104.5167005643
 20
85.3883313761
 30
0.0
 10
104.6419781682
 20
85.4741826659
 30
0.0
 10
104.72469356
 20
85.571913435
 30
0.0
 10
104.7459557801
 20
85.6480523705
 30
0.0
 10
104.7459557801
 20
85.6828040631
 30
0.0
  0
SPLINE
  5
4F6
100
AcDbEntity
  8
0
100
AcDbSpline
 62
7
  6
CONTINUOUS
 70
0
 71
3
 72
10
 73
6
 74
0
 42
0.0000001
 43
0.0000001
 44
0.0000000001
 40
0.0
 40
0.0
 40
0.0
 40
0.0
 40
0.367150173
 40
0.6634377986
 40
1.0
 40
1.0
 40
1.0
 40
1.0
 10
94.4829937828
 20
85.7094707484
 30
0.0
 10
94.4829937828
 20
85.6994291278
 30
0.0
 10
94.5029414878
 20
85.6866029481
 30
0.0
 10
94.5281038735
 20
85.6806511157
 30
0.0
 10
94.5457887486
 20
85.6790422335
 30
0.0
 10
94.5549937828
 20
85.6790422335
 30
0.0
  0
SPLINE
  5
4F7
100
AcDbEntity
  8
0
100
AcDbSpline
 62
7
  6
CONTINUOUS
 70
0
 71
3
 72
10
 73
6
 74
0
 42
0.0000001
 43
0.0000001
 44
0.0000000001
 40
0.0
 40
0.0
 40
0.0
 40
0.0
 40
0.367150173
 40
0.6634377986
 40
1.0
 40
1.0
 40
1.0
 40
1.0
 10
94.9779937828
 20
85.7246850058
 30
0.0
 10
94.9779937828
 20
85.7347266263
 30
0.0
 10
94.9580460779
 20
85.747552806
 30
0.0
 10
94.9328836922
 20
85.7535046385
 30
0.0
 10
94.9151988171
 20
85.7551135206
 30
0.0
 10
94.9059937828
 20
85.7551135206
 30
0.0
  0
SPLINE
  5
4F8
100
AcDbEntity
  8
0
100
AcDbSpline
 62
7
  6
CONTINUOUS
 70
0
 71
3
 72
10
 73
6
 74
0
 42
0.0000001
 43
0.0000001
 44
0.0000000001
 40
0.0
 40
0.0
 40
0.0
 40
0.0
 40
0.367150173
 40
0.6634377986
 40
1.0
 40
1.0
 40
1.0
 40
1.0
 10
94.9779937828
 20
86.4853978769
 30
0.0
 10
94.9779937828
 20
86.4954394975
 30
0.0
 10
94.9580460779
 20
86.5082656772
 30
0.0
 10
94.9328836922
 20
86.5142175096
 30
0.0
 10
94.9151988171
 20
86.5158263918
 30
0.0
 10
94.9059937828
 20
86.5158263918
 30
0.0
  0
SPLINE
  5
4F9
100
AcDbEntity
  8
0
100
AcDbSpline
 62
7
  6
CONTINUOUS
 70
0
 71
3
 72
11
 73
7
 74
0
 42
0.0000001
 43
0.0000001
 44
0.0000000001
 40
0.0
 40
0.0
 40
0.0
 40
0.0
 40
0.3670165724
 40
0.5076318286
 40
0.6631594479
 40
1.0
 40
1.0
 40
1.0
 40
1.0
 10
93.9879937828
 20
86.0974343126
 30
0.0
 10
93.9879937828
 20
86.0723280918
 30
0.0
 10
94.0271383485
 20
86.0471788674
 30
0.0
 10
94.0685740297
 20
86.0335214475
 30
0.0
 10
94.1113142438
 20
86.0239074798
 30
0.0
 10
94.1449517898
 20
86.0213630255
 30
0.0
 10
94.1679937828
 20
86.0213630255
 30
0.0
  0
SPLINE
  5
4FA
100
AcDbEntity
  8
0
100
AcDbSpline
 62
7
  6
CONTINUOUS
 70
0
 71
3
 72
11
 73
7
 74
0
 42
0.0000001
 43
0.0000001
 44
0.0000000001
 40
0.0
 40
0.0
 40
0.0
 40
0.0
 40
0.3670165724
 40
0.5076318286
 40
0.6631594479
 40
1.0
 40
1.0
 40
1.0
 40
1.0
 10
93.9879937828
 20
85.3367214415
 30
0.0
 10
93.9879937828
 20
85.3116152206
 30
0.0
 10
94.0271383485
 20
85.2864659963
 30
0.0
 10
94.0685740297
 20
85.2728085763
 30
0.0
 10
94.1113142438
 20
85.2631946086
 30
0.0
 10
94.1449517898
 20
85.2606501544
 30
0.0
 10
94.1679937828
 20
85.2606501544
 30
0.0
  0
SPLINE
  5
4FB
100
AcDbEntity
  8
0
100
AcDbSpline
 62
7
  6
CONTINUOUS
 70
0
 71
3
 72
11
 73
7
 74
0
 42
0.0000001
 43
0.0000001
 44
0.0000000001
 40
0.0
 40
0.0
 40
0.0
 40
0.0
 40
0.3670316713
 40
0.5076814991
 40
0.6631170396
 40
1.0
 40
1.0
 40
1.0
 40
1.0
 10
96.4179937828
 20
86.7820758967
 30
0.0
 10
96.4179937828
 20
86.8322899081
 30
0.0
 10
96.3396831441
 20
86.8825679274
 30
0.0
 10
96.2568314158
 20
86.9099150233
 30
0.0
 10
96.1713487557
 20
86.9291233243
 30
0.0
 10
96.1040831156
 20
86.9342184709
 30
0.0
 10
96.0579937828
 20
86.9342184709
 30
0.0
  0
SPLINE
  5
4FC
100
AcDbEntity
  8
RUNDUNGEN
100
AcDbSpline
 62
7
  6
CONTINUOUS
 70
0
 71
3
 72
11
 73
7
 74
0
 42
0.0000001
 43
0.0000001
 44
0.0000000001
 40
0.0
 40
0.0
 40
0.0
 40
0.0
 40
0.2073680663
 40
0.4349416349
 40
0.6970147995
 40
1.0
 40
1.0
 40
1.0
 40
1.0
 10
82.2210550451
 20
86.279483406
 30
0.0
 10
82.2210365044
 20
86.2598690629
 30
0.0
 10
82.2288785904
 20
86.2184376476
 30
0.0
 10
82.2622948326
 20
86.160553259
 30
0.0
 10
82.3152109049
 20
86.1066418556
 30
0.0
 10
82.3592759549
 20
86.0759320082
 30
0.0
 10
82.3838117833
 20
86.0611231285
 30
0.0
  0
SPLINE
  5
4FD
100
AcDbEntity
  8
RUNDUNGEN
100
AcDbSpline
 62
7
  6
CONTINUOUS
 70
0
 71
3
 72
13
 73
9
 74
0
 42
0.0000001
 43
0.0000001
 44
0.0000000001
 40
0.0
 40
0.0
 40
0.0
 40
0.0
 40
0.08776614
 40
0.1810035989
 40
0.2840502729
 40
0.3996815773
 40
0.6725569204
 40
1.0
 40
1.0
 40
1.0
 40
1.0
 10
75.8187167901
 20
94.9546250115
 30
0.0
 10
75.8187002932
 20
95.0057306031
 30
0.0
 10
75.8342025222
 20
95.1116560178
 30
0.0
 10
75.9019393356
 20
95.2643342539
 30
0.0
 10
76.0115547487
 20
95.4107135112
 30
0.0
 10
76.2222699339
 20
95.6061621093
 30
0.0
 10
76.5856624676
 20
95.8189892807
 30
0.0
 10
76.9151554347
 20
95.9393166511
 30
0.0
 10
77.0979860254
 20
95.9934199695
 30
0.0
  0
SPLINE
  5
4FE
100
AcDbEntity
  8
RUNDUNGEN
100
AcDbSpline
 62
7
  6
CONTINUOUS
 70
0
 71
3
 72
11
 73
7
 74
0
 42
0.0000001
 43
0.0000001
 44
0.0000000001
 40
0.0
 40
0.0
 40
0.0
 40
0.0
 40
0.2073673999
 40
0.4349663285
 40
0.6969833209
 40
1.0
 40
1.0
 40
1.0
 40
1.0
 10
75.8187167901
 20
90.4230860763
 30
0.0
 10
75.8187378755
 20
90.3577653603
 30
0.0
 10
75.8451359534
 20
90.2198369523
 30
0.0
 10
75.9565164957
 20
90.0271684028
 30
0.0
 10
76.1327819096
 20
89.8476653487
 30
0.0
 10
76.279539977
 20
89.7454261375
 30
0.0
 10
76.3612592016
 20
89.6961035657
 30
0.0
  0
SPLINE
  5
4FF
100
AcDbEntity
  8
RUNDUNGEN
100
AcDbSpline
 62
7
  6
CONTINUOUS
 70
0
 71
3
 72
12
 73
8
 74
0
 42
0.0000001
 43
0.0000001
 44
0.0000000001
 40
0.0
 40
0.0
 40
0.0
 40
0.0
 40
0.1026559272
 40
0.2079973527
 40
0.435429803
 40
0.697163668
 40
1.0
 40
1.0
 40
1.0
 40
1.0
 10
110.8819732554
 20
78.9017409386
 30
0.0
 10
110.8819732612
 20
78.9988524469
 30
0.0
 10
110.9000626751
 20
79.1960584936
 30
0.0
 10
111.0099583291
 20
79.5949689998
 30
0.0
 10
111.2950707117
 20
80.0903496275
 30
0.0
 10
111.8239427001
 20
80.628404853
 30
0.0
 10
112.264336302
 20
80.9353410262
 30
0.0
 10
112.5096048568
 20
81.0833756654
 30
0.0
  0
SPLINE
  5
500
100
AcDbEntity
  8
RUNDUNGEN
100
AcDbSpline
 62
7
  6
CONTINUOUS
 70
0
 71
3
 72
11
 73
7
 74
0
 42
0.0000001
 43
0.0000001
 44
0.0000000001
 40
0.0
 40
0.0
 40
0.0
 40
0.0
 40
0.2073612865
 40
0.4349778056
 40
0.696920747
 40
1.0
 40
1.0
 40
1.0
 40
1.0
 10
81.170354424
 20
75.1417482254
 30
0.0
 10
81.170354424
 20
75.2070831311
 30
0.0
 10
81.1966770422
 20
75.3450672204
 30
0.0
 10
81.3080716218
 20
75.5377771183
 30
0.0
 10
81.4843377752
 20
75.7173643453
 30
0.0
 10
81.6311420297
 20
75.819614929
 30
0.0
 10
81.7128982911
 20
75.8689598549
 30
0.0
  0
SPLINE
  5
501
100
AcDbEntity
  8
BEZUGSACHSEN
100
AcDbSpline
 62
7
  6
CONTINUOUS
 70
0
 71
3
 72
14
 73
10
 74
0
 42
0.0000001
 43
0.0000001
 44
0.0000000001
 40
0.0
 40
0.0
 40
0.0
 40
0.0
 40
0.0901000485
 40
0.1851847011
 40
0.2891703422
 40
0.4047985386
 40
0.5335519041
 40
0.6759481667
 40
1.0
 40
1.0
 40
1.0
 40
1.0
 10
105.570354424
 20
88.8422977078
 30
0.0
 10
105.570354424
 20
88.9057318136
 30
0.0
 10
105.5524730324
 20
89.0366757749
 30
0.0
 10
105.4743352264
 20
89.226622017
 30
0.0
 10
105.3471396737
 20
89.4097807979
 30
0.0
 10
105.1735261594
 20
89.5844103609
 30
0.0
 10
104.9558352524
 20
89.749222143
 30
0.0
 10
104.5944986368
 20
89.9627162572
 30
0.0
 10
104.2887506636
 20
90.0879032771
 30
0.0
 10
104.0726773306
 20
90.161134236
 30
0.0
  0
SPLINE
  5
502
100
AcDbEntity
  8
BEZUGSACHSEN
100
AcDbSpline
 62
7
  6
CONTINUOUS
 70
0
 71
3
 72
14
 73
10
 74
0
 42
0.0000001
 43
0.0000001
 44
0.0000000001
 40
0.0
 40
0.0
 40
0.0
 40
0.0
 40
0.3240518333
 40
0.4664480959
 40
0.5952014614
 40
0.7108296578
 40
0.8148152989
 40
0.9098999515
 40
1.0
 40
1.0
 40
1.0
 40
1.0
 10
99.0680315174
 20
90.161134236
 30
0.0
 10
98.8519581844
 20
90.0879032771
 30
0.0
 10
98.5462102112
 20
89.9627162572
 30
0.0
 10
98.1848735956
 20
89.749222143
 30
0.0
 10
97.9671826886
 20
89.5844103609
 30
0.0
 10
97.7935691742
 20
89.4097807979
 30
0.0
 10
97.6663736216
 20
89.226622017
 30
0.0
 10
97.5882358156
 20
89.0366757749
 30
0.0
 10
97.570354424
 20
88.9057318136
 30
0.0
 10
97.570354424
 20
88.8422977078
 30
0.0
  0
SPLINE
  5
503
100
AcDbEntity
  8
RUNDUNGEN
100
AcDbSpline
 62
7
  6
CONTINUOUS
 70
0
 71
3
 72
11
 73
7
 74
0
 42
0.0000001
 43
0.0000001
 44
0.0000000001
 40
0.0
 40
0.0
 40
0.0
 40
0.0
 40
0.3030791508
 40
0.5650220415
 40
0.7926386338
 40
1.0
 40
1.0
 40
1.0
 40
1.0
 10
121.4278105569
 20
75.8689598549
 30
0.0
 10
121.5095667906
 20
75.8196149458
 30
0.0
 10
121.6563710088
 20
75.7173643962
 30
0.0
 10
121.8326371592
 20
75.5377772037
 30
0.0
 10
121.9440317804
 20
75.345067293
 30
0.0
 10
121.970354424
 20
75.2070831562
 30
0.0
 10
121.970354424
 20
75.1417482254
 30
0.0
  0
SPLINE
  5
504
100
AcDbEntity
  8
RUNDUNGEN
100
AcDbSpline
 62
7
  6
CONTINUOUS
 70
0
 71
3
 72
11
 73
7
 74
0
 42
0.0000001
 43
0.0000001
 44
0.0000000001
 40
0.0
 40
0.0
 40
0.0
 40
0.0
 40
0.3281877355
 40
0.6017636812
 40
0.8201359479
 40
1.0
 40
1.0
 40
1.0
 40
1.0
 10
127.6810269112
 20
95.5086122165
 30
0.0
 10
127.7419260546
 20
95.490590912
 30
0.0
 10
127.8518645582
 20
95.4505038354
 30
0.0
 10
127.9895970172
 20
95.3695375801
 30
0.0
 10
128.0823985874
 20
95.2748637034
 30
0.0
 10
128.1074084083
 20
95.1974586658
 30
0.0
 10
128.1074432508
 20
95.1626520829
 30
0.0
  0
SPLINE
  5
505
100
AcDbEntity
  8
RUNDUNGEN
100
AcDbSpline
 62
7
  6
CONTINUOUS
 70
0
 71
3
 72
12
 73
8
 74
0
 42
0.0000001
 43
0.0000001
 44
0.0000000001
 40
0.0
 40
0.0
 40
0.0
 40
0.0
 40
0.0997215891
 40
0.2136233422
 40
0.4719381667
 40
0.7453731589
 40
1.0
 40
1.0
 40
1.0
 40
1.0
 10
121.7829621869
 20
96.7380488008
 30
0.0
 10
121.8235629299
 20
96.7625538432
 30
0.0
 10
121.9156706897
 20
96.8066158475
 30
0.0
 10
122.1295764457
 20
96.875865723
 30
0.0
 10
122.4351567618
 20
96.9225109716
 30
0.0
 10
122.8102690946
 20
96.9193046107
 30
0.0
 10
123.0595796718
 20
96.8761931604
 30
0.0
 10
123.1756906676
 20
96.8418335373
 30
0.0
  0
SPLINE
  5
506
100
AcDbEntity
  8
0
100
AcDbSpline
 62
7
  6
CONTINUOUS
 70
0
 71
3
 72
9
 73
5
 74
0
 42
0.0000001
 43
0.0000001
 44
0.0000000001
 40
0.0
 40
0.0
 40
0.0
 40
0.0
 40
0.484441632
 40
1.0
 40
1.0
 40
1.0
 40
1.0
 10
106.7325423512
 20
95.39072668
 30
0.0
 10
106.3118886031
 20
95.5152067444
 30
0.0
 10
105.4307103343
 20
95.7296688751
 30
0.0
 10
104.535453834
 20
95.8720290554
 30
0.0
 10
104.0720430996
 20
95.9287003715
 30
0.0
  0
SPLINE
  5
507
100
AcDbEntity
  8
0
100
AcDbSpline
 62
7
  6
CONTINUOUS
 70
0
 71
3
 72
9
 73
5
 74
0
 42
0.0000001
 43
0.0000001
 44
0.0000000001
 40
0.0
 40
0.0
 40
0.0
 40
0.0
 40
0.515558368
 40
1.0
 40
1.0
 40
1.0
 40
1.0
 10
99.0686657484
 20
95.9287003715
 30
0.0
 10
98.605255014
 20
95.8720290554
 30
0.0
 10
97.7099985137
 20
95.7296688751
 30
0.0
 10
96.8288202449
 20
95.5152067444
 30
0.0
 10
96.4081664968
 20
95.39072668
 30
0.0
  0
SPLINE
  5
508
100
AcDbEntity
  8
RUNDUNGEN
100
AcDbSpline
 62
7
  6
CONTINUOUS
 70
0
 71
3
 72
11
 73
7
 74
0
 42
0.0000001
 43
0.0000001
 44
0.0000000001
 40
0.0
 40
0.0
 40
0.0
 40
0.0
 40
0.2353063996
 40
0.489199743
 40
0.7486379691
 40
1.0
 40
1.0
 40
1.0
 40
1.0
 10
77.9171380697
 20
96.235823846
 30
0.0
 10
78.5042176374
 20
96.4095527209
 30
0.0
 10
79.7528234881
 20
96.6781832951
 30
0.0
 10
81.6952668466
 20
96.865283069
 30
0.0
 10
83.6883468613
 20
96.8457375467
 30
0.0
 10
85.0117645376
 20
96.6906996532
 30
0.0
 10
85.6553274747
 20
96.5742117044
 30
0.0
  0
SPLINE
  5
509
100
AcDbEntity
  8
RUNDUNGEN
100
AcDbSpline
 62
7
  6
CONTINUOUS
 70
0
 71
3
 72
9
 73
5
 74
0
 42
0.0000001
 43
0.0000001
 44
0.0000000001
 40
0.0
 40
0.0
 40
0.0
 40
0.0
 40
0.2557903801
 40
1.0
 40
1.0
 40
1.0
 40
1.0
 10
88.7055426189
 20
95.6030307175
 30
0.0
 10
88.7361941687
 20
95.5871466545
 30
0.0
 10
88.8555516708
 20
95.5241425388
 30
0.0
 10
88.9729727748
 20
95.457448096
 30
0.0
 10
89.0589659148
 20
95.4055459536
 30
0.0
  0
SPLINE
  5
50A
100
AcDbEntity
  8
0
100
AcDbSpline
 62
7
  6
CONTINUOUS
 70
0
 71
3
 72
11
 73
7
 74
0
 42
0.0000001
 43
0.0000001
 44
0.0000000001
 40
0.0
 40
0.0
 40
0.0
 40
0.0
 40
0.3368829604
 40
0.4923185009
 40
0.6329683287
 40
1.0
 40
1.0
 40
1.0
 40
1.0
 10
93.1779937828
 20
86.9342184709
 30
0.0
 10
93.1319044501
 20
86.9342184709
 30
0.0
 10
93.06463881
 20
86.9291233243
 30
0.0
 10
92.9791561499
 20
86.9099150233
 30
0.0
 10
92.8963044216
 20
86.8825679274
 30
0.0
 10
92.8179937828
 20
86.8322899081
 30
0.0
 10
92.8179937828
 20
86.7820758967
 30
0.0
  0
SPLINE
  5
50B
100
AcDbEntity
  8
0
100
AcDbSpline
 62
7
  6
CONTINUOUS
 70
0
 71
3
 72
11
 73
7
 74
0
 42
0.0000001
 43
0.0000001
 44
0.0000000001
 40
0.0
 40
0.0
 40
0.0
 40
0.0
 40
0.3368405521
 40
0.4923681714
 40
0.6329834276
 40
1.0
 40
1.0
 40
1.0
 40
1.0
 10
95.0679937828
 20
86.0213630255
 30
0.0
 10
95.0910357759
 20
86.0213630255
 30
0.0
 10
95.1246733219
 20
86.0239074798
 30
0.0
 10
95.167413536
 20
86.0335214475
 30
0.0
 10
95.2088492171
 20
86.0471788674
 30
0.0
 10
95.2479937828
 20
86.0723280918
 30
0.0
 10
95.2479937828
 20
86.0974343126
 30
0.0
  0
SPLINE
  5
50C
100
AcDbEntity
  8
0
100
AcDbSpline
 62
7
  6
CONTINUOUS
 70
0
 71
3
 72
11
 73
7
 74
0
 42
0.0000001
 43
0.0000001
 44
0.0000000001
 40
0.0
 40
0.0
 40
0.0
 40
0.0
 40
0.3368405521
 40
0.4923681714
 40
0.6329834276
 40
1.0
 40
1.0
 40
1.0
 40
1.0
 10
95.0679937828
 20
85.2606501544
 30
0.0
 10
95.0910357759
 20
85.2606501544
 30
0.0
 10
95.1246733219
 20
85.2631946086
 30
0.0
 10
95.167413536
 20
85.2728085763
 30
0.0
 10
95.2088492171
 20
85.2864659963
 30
0.0
 10
95.2479937828
 20
85.3116152206
 30
0.0
 10
95.2479937828
 20
85.3367214415
 30
0.0
  0
SPLINE
  5
50D
100
AcDbEntity
  8
0
100
AcDbSpline
 62
7
  6
CONTINUOUS
 70
0
 71
3
 72
10
 73
6
 74
0
 42
0.0000001
 43
0.0000001
 44
0.0000000001
 40
0.0
 40
0.0
 40
0.0
 40
0.0
 40
0.3365622014
 40
0.632849827
 40
1.0
 40
1.0
 40
1.0
 40
1.0
 10
94.3299937828
 20
86.5158263918
 30
0.0
 10
94.3207887486
 20
86.5158263918
 30
0.0
 10
94.3031038735
 20
86.5142175096
 30
0.0
 10
94.2779414878
 20
86.5082656772
 30
0.0
 10
94.2579937828
 20
86.4954394975
 30
0.0
 10
94.2579937828
 20
86.4853978769
 30
0.0
  0
SPLINE
  5
50E
100
AcDbEntity
  8
0
100
AcDbSpline
 62
7
  6
CONTINUOUS
 70
0
 71
3
 72
10
 73
6
 74
0
 42
0.0000001
 43
0.0000001
 44
0.0000000001
 40
0.0
 40
0.0
 40
0.0
 40
0.0
 40
0.3365622014
 40
0.632849827
 40
1.0
 40
1.0
 40
1.0
 40
1.0
 10
94.3299937828
 20
85.7551135206
 30
0.0
 10
94.3207887486
 20
85.7551135206
 30
0.0
 10
94.3031038735
 20
85.7535046385
 30
0.0
 10
94.2779414878
 20
85.747552806
 30
0.0
 10
94.2579937828
 20
85.7347266263
 30
0.0
 10
94.2579937828
 20
85.7246850058
 30
0.0
  0
SPLINE
  5
50F
100
AcDbEntity
  8
0
100
AcDbSpline
 62
7
  6
CONTINUOUS
 70
0
 71
3
 72
10
 73
6
 74
0
 42
0.0000001
 43
0.0000001
 44
0.0000000001
 40
0.0
 40
0.0
 40
0.0
 40
0.0
 40
0.3365622014
 40
0.632849827
 40
1.0
 40
1.0
 40
1.0
 40
1.0
 10
94.6809937828
 20
85.6790422335
 30
0.0
 10
94.6901988171
 20
85.6790422335
 30
0.0
 10
94.7078836922
 20
85.6806511157
 30
0.0
 10
94.7330460779
 20
85.6866029481
 30
0.0
 10
94.7529937828
 20
85.6994291278
 30
0.0
 10
94.7529937828
 20
85.7094707484
 30
0.0
  0
SPLINE
  5
510
100
AcDbEntity
  8
0
100
AcDbSpline
 62
7
  6
CONTINUOUS
 70
0
 71
3
 72
9
 73
5
 74
0
 42
0.0000001
 43
0.0000001
 44
0.0000000001
 40
0.0
 40
0.0
 40
0.0
 40
0.0
 40
0.2424886172
 40
1.0
 40
1.0
 40
1.0
 40
1.0
 10
108.8126109663
 20
86.921539923
 30
0.0
 10
108.8011208832
 20
86.9236570293
 30
0.0
 10
108.7535193024
 20
86.9311804757
 30
0.0
 10
108.7052341605
 20
86.9342184709
 30
0.0
 10
108.6687360206
 20
86.9342184709
 30
0.0
  0
SPLINE
  5
511
100
AcDbEntity
  8
0
100
AcDbSpline
 62
7
  6
CONTINUOUS
 70
0
 71
3
 72
13
 73
9
 74
0
 42
0.0000001
 43
0.0000001
 44
0.0000000001
 40
0.0
 40
0.0
 40
0.0
 40
0.0
 40
0.3246509595
 40
0.5956795875
 40
0.7113519015
 40
0.8152604675
 40
0.9101272644
 40
1.0
 40
1.0
 40
1.0
 40
1.0
 10
108.8158630908
 20
85.2338485152
 30
0.0
 10
108.9342865208
 20
85.2733623193
 30
0.0
 10
109.1473973484
 20
85.3595642672
 30
0.0
 10
109.3806409726
 20
85.5077330373
 30
0.0
 10
109.5149090345
 20
85.6413438831
 30
0.0
 10
109.5847285832
 20
85.741028936
 30
0.0
 10
109.6277233087
 20
85.8444416458
 30
0.0
 10
109.6375132372
 20
85.9158033802
 30
0.0
 10
109.6375132372
 20
85.9503631576
 30
0.0
  0
SPLINE
  5
512
100
AcDbEntity
  8
0
100
AcDbSpline
 62
7
  6
CONTINUOUS
 70
0
 71
3
 72
9
 73
5
 74
0
 42
0.0000001
 43
0.0000001
 44
0.0000000001
 40
0.0
 40
0.0
 40
0.0
 40
0.0
 40
0.2643819516
 40
1.0
 40
1.0
 40
1.0
 40
1.0
 10
108.6813579074
 20
85.209935963
 30
0.0
 10
108.6911212425
 20
85.209935963
 30
0.0
 10
108.7280099709
 20
85.2112279014
 30
0.0
 10
108.7649516588
 20
85.2172465572
 30
0.0
 10
108.7907973506
 20
85.2256112585
 30
0.0
  0
SPLINE
  5
513
100
AcDbEntity
  8
RUNDUNGEN
100
AcDbSpline
 62
7
  6
CONTINUOUS
 70
0
 71
3
 72
11
 73
7
 74
0
 42
0.0000001
 43
0.0000001
 44
0.0000000001
 40
0.0
 40
0.0
 40
0.0
 40
0.0
 40
0.336884669
 40
0.4923227088
 40
0.6329706727
 40
1.0
 40
1.0
 40
1.0
 40
1.0
 10
85.370354424
 20
67.2063980128
 30
0.0
 10
85.4087624101
 20
67.2063980128
 30
0.0
 10
85.4648176223
 20
67.2106440617
 30
0.0
 10
85.5360534017
 20
67.226651261
 30
0.0
 10
85.6050965076
 20
67.2494402109
 30
0.0
 10
85.670354424
 20
67.2913387338
 30
0.0
 10
85.670354424
 20
67.3331834914
 30
0.0
  0
SPLINE
  5
514
100
AcDbEntity
  8
RUNDUNGEN
100
AcDbSpline
 62
7
  6
CONTINUOUS
 70
0
 71
3
 72
16
 73
12
 74
0
 42
0.0000001
 43
0.0000001
 44
0.0000000001
 40
0.0
 40
0.0
 40
0.0
 40
0.0
 40
0.0358558087
 40
0.0732729211
 40
0.1572229944
 40
0.2585609942
 40
0.3788948683
 40
0.5168711309
 40
0.6693385679
 40
0.8320344965
 40
1.0
 40
1.0
 40
1.0
 40
1.0
 10
81.170354424
 20
68.4742527981
 30
0.0
 10
81.170354424
 20
68.4325711117
 30
0.0
 10
81.1805408521
 20
68.3470995517
 30
0.0
 10
81.2426029973
 20
68.1737859789
 30
0.0
 10
81.403148652
 20
67.9635890985
 30
0.0
 10
81.6885694926
 20
67.7479713711
 30
0.0
 10
82.0641296549
 20
67.5602274769
 30
0.0
 10
82.5174659094
 20
67.4066631602
 30
0.0
 10
83.0326098188
 20
67.2924816001
 30
0.0
 10
83.5905103182
 20
67.2221527166
 30
0.0
 10
83.9750977644
 20
67.2063980128
 30
0.0
 10
84.170354424
 20
67.2063980128
 30
0.0
  0
SPLINE
  5
515
100
AcDbEntity
  8
RUNDUNGEN
100
AcDbSpline
 62
7
  6
CONTINUOUS
 70
0
 71
3
 72
12
 73
8
 74
0
 42
0.0000001
 43
0.0000001
 44
0.0000000001
 40
0.0
 40
0.0
 40
0.0
 40
0.0
 40
0.0997204801
 40
0.2136107456
 40
0.4719142659
 40
0.7453613042
 40
1.0
 40
1.0
 40
1.0
 40
1.0
 10
77.9099155797
 20
88.7613943104
 30
0.0
 10
77.9464558407
 20
88.7393400183
 30
0.0
 10
78.0293478935
 20
88.699686508
 30
0.0
 10
78.2218525872
 20
88.6373627465
 30
0.0
 10
78.4968698695
 20
88.5953800812
 30
0.0
 10
78.8344764425
 20
88.5982620036
 30
0.0
 10
79.0588664547
 20
88.6370629482
 30
0.0
 10
79.1633712123
 20
88.6679880475
 30
0.0
  0
SPLINE
  5
516
100
AcDbEntity
  8
RUNDUNGEN
100
AcDbSpline
 62
7
  6
CONTINUOUS
 70
0
 71
3
 72
11
 73
7
 74
0
 42
0.0000001
 43
0.0000001
 44
0.0000000001
 40
0.0
 40
0.0
 40
0.0
 40
0.0
 40
0.3029816253
 40
0.5650600243
 40
0.7926329556
 40
1.0
 40
1.0
 40
1.0
 40
1.0
 10
127.9266025191
 20
90.3884807918
 30
0.0
 10
127.9538663295
 20
90.4049361761
 30
0.0
 10
128.0028309436
 20
90.4390617273
 30
0.0
 10
128.0616300948
 20
90.4989690487
 30
0.0
 10
128.0987593332
 20
90.5632927443
 30
0.0
 10
128.1074663829
 20
90.6093327496
 30
0.0
 10
128.107442421
 20
90.6311280325
 30
0.0
  0
SPLINE
  5
517
100
AcDbEntity
  8
RUNDUNGEN
100
AcDbSpline
 62
7
  6
CONTINUOUS
 70
0
 71
3
 72
16
 73
12
 74
0
 42
0.0000001
 43
0.0000001
 44
0.0000000001
 40
0.0
 40
0.0
 40
0.0
 40
0.0
 40
0.1679656162
 40
0.3306616867
 40
0.4831290977
 40
0.6211053234
 40
0.7414391794
 40
0.8427771499
 40
0.9267271311
 40
0.9641442038
 40
1.0
 40
1.0
 40
1.0
 40
1.0
 10
118.970354424
 20
67.2063980128
 30
0.0
 10
119.165611215
 20
67.2063980128
 30
0.0
 10
119.5501989573
 20
67.2221527502
 30
0.0
 10
120.1080997194
 20
67.2924816998
 30
0.0
 10
120.6232436993
 20
67.4066633752
 30
0.0
 10
121.0765798372
 20
67.560227744
 30
0.0
 10
121.4521398731
 20
67.7479716771
 30
0.0
 10
121.7375605034
 20
67.9635894267
 30
0.0
 10
121.8981059518
 20
68.1737862063
 30
0.0
 10
121.9601680397
 20
68.3470996226
 30
0.0
 10
121.970354424
 20
68.4325711261
 30
0.0
 10
121.970354424
 20
68.4742527981
 30
0.0
  0
SPLINE
  5
518
100
AcDbEntity
  8
RUNDUNGEN
100
AcDbSpline
 62
7
  6
CONTINUOUS
 70
0
 71
3
 72
11
 73
7
 74
0
 42
0.0000001
 43
0.0000001
 44
0.0000000001
 40
0.0
 40
0.0
 40
0.0
 40
0.0
 40
0.3670333703
 40
0.5076806624
 40
0.6631152929
 40
1.0
 40
1.0
 40
1.0
 40
1.0
 10
117.470354424
 20
67.3331834914
 30
0.0
 10
117.470354424
 20
67.2913382851
 30
0.0
 10
117.5356132019
 20
67.2494397829
 30
0.0
 10
117.6046563253
 20
67.2266510232
 30
0.0
 10
117.6758916234
 20
67.2106439505
 30
0.0
 10
117.7319464448
 20
67.2063980128
 30
0.0
 10
117.770354424
 20
67.2063980128
 30
0.0
  0
SPLINE
  5
519
100
AcDbEntity
  8
RUNDUNGEN
100
AcDbSpline
 62
7
  6
CONTINUOUS
 70
0
 71
3
 72
11
 73
7
 74
0
 42
0.0000001
 43
0.0000001
 44
0.0000000001
 40
0.0
 40
0.0
 40
0.0
 40
0.0
 40
0.2085386553
 40
0.4513089719
 40
0.719082175
 40
1.0
 40
1.0
 40
1.0
 40
1.0
 10
107.6856779464
 20
70.7898926531
 30
0.0
 10
107.8369429892
 20
70.6985949079
 30
0.0
 10
108.1878605684
 20
70.5400735756
 30
0.0
 10
108.7758928064
 20
70.3753605979
 30
0.0
 10
109.4399150996
 20
70.2723812504
 30
0.0
 10
109.9051301772
 20
70.2492494974
 30
0.0
 10
110.1431340793
 20
70.2492494974
 30
0.0
  0
SPLINE
  5
51A
100
AcDbEntity
  8
RUNDUNGEN
100
AcDbSpline
 62
7
  6
CONTINUOUS
 70
0
 71
3
 72
11
 73
7
 74
0
 42
0.0000001
 43
0.0000001
 44
0.0000000001
 40
0.0
 40
0.0
 40
0.0
 40
0.0
 40
0.2809180525
 40
0.5486913428
 40
0.7914615301
 40
1.0
 40
1.0
 40
1.0
 40
1.0
 10
92.9975747687
 20
70.2492494974
 30
0.0
 10
93.2355788636
 20
70.2492494974
 30
0.0
 10
93.7007942089
 20
70.2723812789
 30
0.0
 10
94.3648166481
 20
70.3753607256
 30
0.0
 10
94.9528486758
 20
70.5400737383
 30
0.0
 10
95.3037659933
 20
70.698594989
 30
0.0
 10
95.4550309016
 20
70.7898926531
 30
0.0
  0
SPLINE
  5
51B
100
AcDbEntity
  8
RUNDUNGEN
100
AcDbSpline
 62
7
  6
CONTINUOUS
 70
0
 71
3
 72
16
 73
12
 74
0
 42
0.0000001
 43
0.0000001
 44
0.0000000001
 40
0.0
 40
0.0
 40
0.0
 40
0.0
 40
0.0358558087
 40
0.0732729211
 40
0.1572229944
 40
0.2585609942
 40
0.3788948683
 40
0.5168711309
 40
0.6693385679
 40
0.8320344965
 40
1.0
 40
1.0
 40
1.0
 40
1.0
 10
85.670354424
 20
68.9813947121
 30
0.0
 10
85.670354424
 20
69.0230763985
 30
0.0
 10
85.6805408521
 20
69.1085479585
 30
0.0
 10
85.7426029973
 20
69.2818615313
 30
0.0
 10
85.903148652
 20
69.4920584117
 30
0.0
 10
86.1885694926
 20
69.7076761391
 30
0.0
 10
86.5641296549
 20
69.8954200333
 30
0.0
 10
87.0174659094
 20
70.04898435
 30
0.0
 10
87.5326098188
 20
70.1631659101
 30
0.0
 10
88.0905103182
 20
70.2334947936
 30
0.0
 10
88.4750977644
 20
70.2492494974
 30
0.0
 10
88.670354424
 20
70.2492494974
 30
0.0
  0
SPLINE
  5
51C
100
AcDbEntity
  8
RUNDUNGEN
100
AcDbSpline
 62
7
  6
CONTINUOUS
 70
0
 71
3
 72
16
 73
12
 74
0
 42
0.0000001
 43
0.0000001
 44
0.0000000001
 40
0.0
 40
0.0
 40
0.0
 40
0.0
 40
0.1679656162
 40
0.3306616867
 40
0.4831290977
 40
0.6211053234
 40
0.7414391794
 40
0.8427771499
 40
0.9267271311
 40
0.9641442038
 40
1.0
 40
1.0
 40
1.0
 40
1.0
 10
114.470354424
 20
70.2492494974
 30
0.0
 10
114.665611215
 20
70.2492494974
 30
0.0
 10
115.0501989573
 20
70.2334947599
 30
0.0
 10
115.6080997194
 20
70.1631658104
 30
0.0
 10
116.1232436993
 20
70.0489841349
 30
0.0
 10
116.5765798372
 20
69.8954197662
 30
0.0
 10
116.9521398731
 20
69.707675833
 30
0.0
 10
117.2375605034
 20
69.4920580835
 30
0.0
 10
117.3981059518
 20
69.2818613039
 30
0.0
 10
117.4601680397
 20
69.1085478876
 30
0.0
 10
117.470354424
 20
69.0230763841
 30
0.0
 10
117.470354424
 20
68.9813947121
 30
0.0
  0
SPLINE
  5
51D
100
AcDbEntity
  8
RUNDUNGEN
100
AcDbSpline
 62
7
  6
CONTINUOUS
 70
0
 71
3
 72
15
 73
11
 74
0
 42
0.0000001
 43
0.0000001
 44
0.0000000001
 40
0.0
 40
0.0
 40
0.0
 40
0.0
 40
0.1042684317
 40
0.2256535326
 40
0.3595452497
 40
0.500000084
 40
0.6404549501
 40
0.7743466304
 40
0.8957316368
 40
1.0
 40
1.0
 40
1.0
 40
1.0
 10
98.6214070646
 20
72.700995172
 30
0.0
 10
98.8029235411
 20
72.8105515158
 30
0.0
 10
99.2240262662
 20
73.0007745639
 30
0.0
 10
99.9296553983
 20
73.1984401788
 30
0.0
 10
100.7265529768
 20
73.3220019001
 30
0.0
 10
101.5703550041
 20
73.363981625
 30
0.0
 10
102.4141569507
 20
73.322001794
 30
0.0
 10
103.2110543154
 20
73.1984400054
 30
0.0
 10
103.9166830173
 20
73.0007743713
 30
0.0
 10
104.3377854261
 20
72.8105514438
 30
0.0
 10
104.5193017834
 20
72.700995172
 30
0.0
  0
SPLINE
  5
51E
100
AcDbEntity
  8
RUNDUNGEN
100
AcDbSpline
 62
7
  6
CONTINUOUS
 70
0
 71
3
 72
12
 73
8
 74
0
 42
0.0000001
 43
0.0000001
 44
0.0000000001
 40
0.0
 40
0.0
 40
0.0
 40
0.0
 40
0.3028363607
 40
0.5645702388
 40
0.7920026656
 40
0.8973440802
 40
1.0
 40
1.0
 40
1.0
 40
1.0
 10
90.6311039912
 20
81.0833756654
 30
0.0
 10
90.876372597
 20
80.9353409955
 30
0.0
 10
91.3167662717
 20
80.6284047521
 30
0.0
 10
91.8456383157
 20
80.0903494279
 30
0.0
 10
92.1307506379
 20
79.5949687136
 30
0.0
 10
92.2406462401
 20
79.1960581836
 30
0.0
 10
92.2587355983
 20
78.9988521274
 30
0.0
 10
92.2587355926
 20
78.9017406151
 30
0.0
  0
SPLINE
  5
51F
100
AcDbEntity
  8
RUNDUNGEN
100
AcDbSpline
 62
7
  6
CONTINUOUS
 70
0
 71
3
 72
12
 73
8
 74
0
 42
0.0000001
 43
0.0000001
 44
0.0000000001
 40
0.0
 40
0.0
 40
0.0
 40
0.0
 40
0.2546389095
 40
0.5280844547
 40
0.7863884982
 40
0.9002788037
 40
1.0
 40
1.0
 40
1.0
 40
1.0
 10
81.1293361186
 20
89.2497573511
 30
0.0
 10
81.3035108607
 20
89.3012992266
 30
0.0
 10
81.6774933369
 20
89.3659672434
 30
0.0
 10
82.2401703439
 20
89.3707706305
 30
0.0
 10
82.698531978
 20
89.300800208
 30
0.0
 10
83.0193739205
 20
89.1969268083
 30
0.0
 10
83.1575279672
 20
89.1308376638
 30
0.0
 10
83.2184288396
 20
89.0940802463
 30
0.0
  0
SPLINE
  5
520
100
AcDbEntity
  8
RUNDUNGEN
100
AcDbSpline
 62
7
  6
CONTINUOUS
 70
0
 71
3
 72
11
 73
7
 74
0
 42
0.0000001
 43
0.0000001
 44
0.0000000001
 40
0.0
 40
0.0
 40
0.0
 40
0.0
 40
0.3029819447
 40
0.5650608697
 40
0.7926338326
 40
1.0
 40
1.0
 40
1.0
 40
1.0
 10
84.9391581486
 20
88.0555144071
 30
0.0
 10
84.9800537334
 20
88.0308314096
 30
0.0
 10
85.053500447
 20
87.9796432294
 30
0.0
 10
85.1416989918
 20
87.8897826177
 30
0.0
 10
85.1973927621
 20
87.7932976902
 30
0.0
 10
85.2104538241
 20
87.7242382472
 30
0.0
 10
85.2104181092
 20
87.6915455998
 30
0.0
  0
SPLINE
  5
521
100
AcDbEntity
  8
RUNDUNGEN
100
AcDbSpline
 62
7
  6
CONTINUOUS
 70
0
 71
3
 72
15
 73
11
 74
0
 42
0.0000001
 43
0.0000001
 44
0.0000000001
 40
0.0
 40
0.0
 40
0.0
 40
0.0
 40
0.1229823262
 40
0.2547121724
 40
0.3911975588
 40
0.528168913
 40
0.6613150523
 40
0.7865578253
 40
0.9003481029
 40
1.0
 40
1.0
 40
1.0
 40
1.0
 10
112.8761826833
 20
93.5726976062
 30
0.0
 10
113.0445608628
 20
93.5228710524
 30
0.0
 10
113.3994907898
 20
93.4400763585
 30
0.0
 10
113.9536124362
 20
93.3647141346
 30
0.0
 10
114.532097746
 20
93.3356991868
 30
0.0
 10
115.1130125932
 20
93.3541920389
 30
0.0
 10
115.6744309795
 20
93.4194510609
 30
0.0
 10
116.1953445464
 20
93.5289564818
 30
0.0
 10
116.6562405559
 20
93.6783827422
 30
0.0
 10
116.9325521349
 20
93.8105283828
 30
0.0
 10
117.0543681252
 20
93.8840518159
 30
0.0
  0
SPLINE
  5
522
100
AcDbEntity
  8
RUNDUNGEN
100
AcDbSpline
 62
7
  6
CONTINUOUS
 70
0
 71
3
 72
15
 73
11
 74
0
 42
0.0000001
 43
0.0000001
 44
0.0000000001
 40
0.0
 40
0.0
 40
0.0
 40
0.0
 40
0.0996524385
 40
0.2134463258
 40
0.3386898131
 40
0.4718351657
 40
0.6088054879
 40
0.7452899071
 40
0.877018505
 40
1.0
 40
1.0
 40
1.0
 40
1.0
 10
89.772524922
 20
94.9748692602
 30
0.0
 10
89.8943415742
 20
94.9013454276
 30
0.0
 10
90.1706586542
 20
94.769197484
 30
0.0
 10
90.6315616329
 20
94.6197699441
 30
0.0
 10
91.1524806036
 20
94.51026565
 30
0.0
 10
91.7138975696
 20
94.4450083262
 30
0.0
 10
92.2948084751
 20
94.4265168201
 30
0.0
 10
92.873289081
 20
94.4555325875
 30
0.0
 10
93.4274063546
 20
94.530894577
 30
0.0
 10
93.7823333225
 20
94.6136888335
 30
0.0
 10
93.950710364
 20
94.6635150505
 30
0.0
  0
SPLINE
  5
523
100
AcDbEntity
  8
0
100
AcDbSpline
 62
7
  6
CONTINUOUS
 70
0
 71
3
 72
9
 73
5
 74
0
 42
0.0000001
 43
0.0000001
 44
0.0000000001
 40
0.0
 40
0.0
 40
0.0
 40
0.0
 40
0.4111175434
 40
1.0
 40
1.0
 40
1.0
 40
1.0
 10
94.2606458495
 20
85.6689515408
 30
0.0
 10
94.2648148702
 20
85.6626042881
 30
0.0
 10
94.2819984016
 20
85.6527894997
 30
0.0
 10
94.2999616225
 20
85.6490376166
 30
0.0
 10
94.3107650936
 20
85.647770233
 30
0.0
  0
SPLINE
  5
524
100
AcDbEntity
  8
0
100
AcDbSpline
 62
7
  6
CONTINUOUS
 70
0
 71
3
 72
11
 73
7
 74
0
 42
0.0000001
 43
0.0000001
 44
0.0000000001
 40
0.0
 40
0.0
 40
0.0
 40
0.0
 40
0.3123950599
 40
0.5876823716
 40
0.8171089069
 40
1.0
 40
1.0
 40
1.0
 40
1.0
 10
104.2201240777
 20
85.2797822856
 30
0.0
 10
104.3429818115
 20
85.2994984711
 30
0.0
 10
104.5724255563
 20
85.348927181
 30
0.0
 10
104.8797701315
 20
85.4601425998
 30
0.0
 10
105.1180939869
 20
85.5981180096
 30
0.0
 10
105.235635573
 20
85.7189887158
 30
0.0
 10
105.2723174126
 20
85.7819263619
 30
0.0
  0
SPLINE
  5
525
100
AcDbEntity
  8
0
100
AcDbSpline
 62
7
  6
CONTINUOUS
 70
0
 71
3
 72
9
 73
5
 74
0
 42
0.0000001
 43
0.0000001
 44
0.0000000001
 40
0.0
 40
0.0
 40
0.0
 40
0.0
 40
0.5156577714
 40
1.0
 40
1.0
 40
1.0
 40
1.0
 10
105.2723174126
 20
85.7819263619
 30
0.0
 10
105.2880147925
 20
85.8088594751
 30
0.0
 10
105.3129306257
 20
85.8646987279
 30
0.0
 10
105.3219557801
 20
85.9254158453
 30
0.0
 10
105.3219557801
 20
85.9546963992
 30
0.0
  0
SPLINE
  5
526
100
AcDbEntity
  8
RUNDUNGEN
100
AcDbSpline
 62
7
  6
CONTINUOUS
 70
0
 71
3
 72
13
 73
9
 74
0
 42
0.0000001
 43
0.0000001
 44
0.0000000001
 40
0.0
 40
0.0
 40
0.0
 40
0.0
 40
0.0877642926
 40
0.1810185575
 40
0.2840972837
 40
0.3997435874
 40
0.6726242593
 40
1.0
 40
1.0
 40
1.0
 40
1.0
 10
85.2104181092
 20
87.6915455998
 30
0.0
 10
85.21039021
 20
87.6660072406
 30
0.0
 10
85.2025567339
 20
87.6130820663
 30
0.0
 10
85.1686081726
 20
87.5368154172
 30
0.0
 10
85.1137407952
 20
87.4637123757
 30
0.0
 10
85.0083969705
 20
87.366070793
 30
0.0
 10
84.8267797212
 20
87.2597777304
 30
0.0
 10
84.6621415687
 20
87.1996570723
 30
0.0
 10
84.5707947367
 20
87.1726256728
 30
0.0
  0
SPLINE
  5
527
100
AcDbEntity
  8
0
100
AcDbSpline
 62
7
  6
CONTINUOUS
 70
0
 71
3
 72
10
 73
6
 74
0
 42
0.0000001
 43
0.0000001
 44
0.0000000001
 40
0.0
 40
0.0
 40
0.0
 40
0.0
 40
0.367150173
 40
0.6634377986
 40
1.0
 40
1.0
 40
1.0
 40
1.0
 10
94.7529937828
 20
86.1811127285
 30
0.0
 10
94.7529937828
 20
86.191154349
 30
0.0
 10
94.7330460779
 20
86.2039805287
 30
0.0
 10
94.7078836922
 20
86.2099323611
 30
0.0
 10
94.6901988171
 20
86.2115412433
 30
0.0
 10
94.6809937828
 20
86.2115412433
 30
0.0
  0
SPLINE
  5
528
100
AcDbEntity
  8
0
100
AcDbSpline
 62
7
  6
CONTINUOUS
 70
0
 71
3
 72
10
 73
6
 74
0
 42
0.0000001
 43
0.0000001
 44
0.0000000001
 40
0.0
 40
0.0
 40
0.0
 40
0.0
 40
0.367150173
 40
0.6634377986
 40
1.0
 40
1.0
 40
1.0
 40
1.0
 10
94.2579937828
 20
86.165898471
 30
0.0
 10
94.2579937828
 20
86.1558568505
 30
0.0
 10
94.2779414878
 20
86.1430306708
 30
0.0
 10
94.3031038735
 20
86.1370788384
 30
0.0
 10
94.3207887486
 20
86.1354699562
 30
0.0
 10
94.3299937828
 20
86.1354699562
 30
0.0
  0
SPLINE
  5
529
100
AcDbEntity
  8
0
100
AcDbSpline
 62
7
  6
CONTINUOUS
 70
0
 71
3
 72
11
 73
7
 74
0
 42
0.0000001
 43
0.0000001
 44
0.0000000001
 40
0.0
 40
0.0
 40
0.0
 40
0.0
 40
0.3670316713
 40
0.5076814991
 40
0.6631170396
 40
1.0
 40
1.0
 40
1.0
 40
1.0
 10
92.8179937828
 20
85.1085075802
 30
0.0
 10
92.8179937828
 20
85.0582935687
 30
0.0
 10
92.8963044216
 20
85.0080155494
 30
0.0
 10
92.9791561499
 20
84.9806684536
 30
0.0
 10
93.06463881
 20
84.9614601525
 30
0.0
 10
93.1319044501
 20
84.9563650059
 30
0.0
 10
93.1779937828
 20
84.9563650059
 30
0.0
  0
SPLINE
  5
52A
100
AcDbEntity
  8
0
100
AcDbSpline
 62
7
  6
CONTINUOUS
 70
0
 71
3
 72
11
 73
7
 74
0
 42
0.0000001
 43
0.0000001
 44
0.0000000001
 40
0.0
 40
0.0
 40
0.0
 40
0.0
 40
0.3368829604
 40
0.4923185009
 40
0.6329683287
 40
1.0
 40
1.0
 40
1.0
 40
1.0
 10
96.0579937828
 20
84.9563650059
 30
0.0
 10
96.1040831156
 20
84.9563650059
 30
0.0
 10
96.1713487557
 20
84.9614601525
 30
0.0
 10
96.2568314158
 20
84.9806684536
 30
0.0
 10
96.3396831441
 20
85.0080155494
 30
0.0
 10
96.4179937828
 20
85.0582935687
 30
0.0
 10
96.4179937828
 20
85.1085075802
 30
0.0
  0
SPLINE
  5
52B
100
AcDbEntity
  8
0
100
AcDbSpline
 62
7
  6
CONTINUOUS
 70
0
 71
3
 72
11
 73
7
 74
0
 42
0.0000001
 43
0.0000001
 44
0.0000000001
 40
0.0
 40
0.0
 40
0.0
 40
0.0
 40
0.3670165724
 40
0.5076318286
 40
0.6631594479
 40
1.0
 40
1.0
 40
1.0
 40
1.0
 10
95.2479937828
 20
85.7931491642
 30
0.0
 10
95.2479937828
 20
85.8182553851
 30
0.0
 10
95.2088492171
 20
85.8434046094
 30
0.0
 10
95.167413536
 20
85.8570620293
 30
0.0
 10
95.1246733219
 20
85.866675997
 30
0.0
 10
95.0910357759
 20
85.8692204513
 30
0.0
 10
95.0679937828
 20
85.8692204513
 30
0.0
  0
SPLINE
  5
52C
100
AcDbEntity
  8
0
100
AcDbSpline
 62
7
  6
CONTINUOUS
 70
0
 71
3
 72
11
 73
7
 74
0
 42
0.0000001
 43
0.0000001
 44
0.0000000001
 40
0.0
 40
0.0
 40
0.0
 40
0.0
 40
0.3670165724
 40
0.5076318286
 40
0.6631594479
 40
1.0
 40
1.0
 40
1.0
 40
1.0
 10
92.8179937828
 20
85.3803999163
 30
0.0
 10
92.8179937828
 20
85.3301874745
 30
0.0
 10
92.8962829142
 20
85.2798890258
 30
0.0
 10
92.9791542765
 20
85.252574186
 30
0.0
 10
93.0646347047
 20
85.2333462506
 30
0.0
 10
93.1319097968
 20
85.2282573421
 30
0.0
 10
93.1779937828
 20
85.2282573421
 30
0.0
  0
SPLINE
  5
52D
100
AcDbEntity
  8
0
100
AcDbSpline
 62
7
  6
CONTINUOUS
 70
0
 71
3
 72
11
 73
7
 74
0
 42
0.0000001
 43
0.0000001
 44
0.0000000001
 40
0.0
 40
0.0
 40
0.0
 40
0.0
 40
0.3368405521
 40
0.4923681714
 40
0.6329834276
 40
1.0
 40
1.0
 40
1.0
 40
1.0
 10
94.1679937828
 20
85.8692204513
 30
0.0
 10
94.1449517898
 20
85.8692204513
 30
0.0
 10
94.1113142438
 20
85.866675997
 30
0.0
 10
94.0685740297
 20
85.8570620293
 30
0.0
 10
94.0271383485
 20
85.8434046094
 30
0.0
 10
93.9879937828
 20
85.8182553851
 30
0.0
 10
93.9879937828
 20
85.7931491642
 30
0.0
  0
SPLINE
  5
52E
100
AcDbEntity
  8
0
100
AcDbSpline
 62
7
  6
CONTINUOUS
 70
0
 71
3
 72
11
 73
7
 74
0
 42
0.0000001
 43
0.0000001
 44
0.0000000001
 40
0.0
 40
0.0
 40
0.0
 40
0.0
 40
0.3368405521
 40
0.4923681714
 40
0.6329834276
 40
1.0
 40
1.0
 40
1.0
 40
1.0
 10
94.1679937828
 20
86.6299333224
 30
0.0
 10
94.1449517898
 20
86.6299333224
 30
0.0
 10
94.1113142438
 20
86.6273888682
 30
0.0
 10
94.0685740297
 20
86.6177749005
 30
0.0
 10
94.0271383485
 20
86.6041174806
 30
0.0
 10
93.9879937828
 20
86.5789682562
 30
0.0
 10
93.9879937828
 20
86.5538620353
 30
0.0
  0
SPLINE
  5
52F
100
AcDbEntity
  8
0
100
AcDbSpline
 62
7
  6
CONTINUOUS
 70
0
 71
3
 72
10
 73
6
 74
0
 42
0.0000001
 43
0.0000001
 44
0.0000000001
 40
0.0
 40
0.0
 40
0.0
 40
0.0
 40
0.3365622014
 40
0.632849827
 40
1.0
 40
1.0
 40
1.0
 40
1.0
 10
94.5549937828
 20
86.2115412433
 30
0.0
 10
94.5457887486
 20
86.2115412433
 30
0.0
 10
94.5281038735
 20
86.2099323611
 30
0.0
 10
94.5029414878
 20
86.2039805287
 30
0.0
 10
94.4829937828
 20
86.191154349
 30
0.0
 10
94.4829937828
 20
86.1811127285
 30
0.0
  0
SPLINE
  5
530
100
AcDbEntity
  8
0
100
AcDbSpline
 62
7
  6
CONTINUOUS
 70
0
 71
3
 72
10
 73
6
 74
0
 42
0.0000001
 43
0.0000001
 44
0.0000000001
 40
0.0
 40
0.0
 40
0.0
 40
0.0
 40
0.3365622014
 40
0.632849827
 40
1.0
 40
1.0
 40
1.0
 40
1.0
 10
94.9059937828
 20
86.1354699562
 30
0.0
 10
94.9151988171
 20
86.1354699562
 30
0.0
 10
94.9328836922
 20
86.1370788384
 30
0.0
 10
94.9580460779
 20
86.1430306708
 30
0.0
 10
94.9779937828
 20
86.1558568505
 30
0.0
 10
94.9779937828
 20
86.165898471
 30
0.0
  0
SPLINE
  5
531
100
AcDbEntity
  8
0
100
AcDbSpline
 62
7
  6
CONTINUOUS
 70
0
 71
3
 72
10
 73
6
 74
0
 42
0.0000001
 43
0.0000001
 44
0.0000000001
 40
0.0
 40
0.0
 40
0.0
 40
0.0
 40
0.3365622014
 40
0.632849827
 40
1.0
 40
1.0
 40
1.0
 40
1.0
 10
94.9059937828
 20
85.3747570851
 30
0.0
 10
94.9151988171
 20
85.3747570851
 30
0.0
 10
94.9328836922
 20
85.3763659672
 30
0.0
 10
94.9580460779
 20
85.3823177996
 30
0.0
 10
94.9779937828
 20
85.3951439794
 30
0.0
 10
94.9779937828
 20
85.4051855999
 30
0.0
  0
SPLINE
  5
532
100
AcDbEntity
  8
RUNDUNGEN
100
AcDbSpline
 62
7
  6
CONTINUOUS
 70
0
 71
3
 72
12
 73
8
 74
0
 42
0.0000001
 43
0.0000001
 44
0.0000000001
 40
0.0
 40
0.0
 40
0.0
 40
0.0
 40
0.1026559272
 40
0.2079973527
 40
0.435429803
 40
0.697163668
 40
1.0
 40
1.0
 40
1.0
 40
1.0
 10
92.2587355926
 20
78.9017406151
 30
0.0
 10
92.2587355868
 20
78.8046291068
 30
0.0
 10
92.2406461728
 20
78.6074230602
 30
0.0
 10
92.1307505189
 20
78.208512554
 30
0.0
 10
91.8456381363
 20
77.7131319263
 30
0.0
 10
91.3167661479
 20
77.1750767007
 30
0.0
 10
90.876372546
 20
76.8681405276
 30
0.0
 10
90.6311039912
 20
76.7201058883
 30
0.0
  0
SPLINE
  5
533
100
AcDbEntity
  8
RUNDUNGEN
100
AcDbSpline
 62
7
  6
CONTINUOUS
 70
0
 71
3
 72
11
 73
7
 74
0
 42
0.0000001
 43
0.0000001
 44
0.0000000001
 40
0.0
 40
0.0
 40
0.0
 40
0.0
 40
0.2073613662
 40
0.4349779585
 40
0.6969208492
 40
1.0
 40
1.0
 40
1.0
 40
1.0
 10
121.970354424
 20
70.6102092902
 30
0.0
 10
121.970354424
 20
70.675544221
 30
0.0
 10
121.9440317804
 20
70.8135283578
 30
0.0
 10
121.8326371592
 20
71.0062382685
 30
0.0
 10
121.6563710088
 20
71.185825461
 30
0.0
 10
121.5095667906
 20
71.2880760106
 30
0.0
 10
121.4278105569
 20
71.3374209198
 30
0.0
  0
SPLINE
  5
534
100
AcDbEntity
  8
RUNDUNGEN
100
AcDbSpline
 62
7
  6
CONTINUOUS
 70
0
 71
3
 72
12
 73
8
 74
0
 42
0.0000001
 43
0.0000001
 44
0.0000000001
 40
0.0
 40
0.0
 40
0.0
 40
0.0
 40
0.0878430075
 40
0.1811808502
 40
0.3992100388
 40
0.67233448
 40
1.0
 40
1.0
 40
1.0
 40
1.0
 10
128.107442421
 20
90.6311280325
 30
0.0
 10
128.107423703
 20
90.6481536744
 30
0.0
 10
128.1022090281
 20
90.6834379664
 30
0.0
 10
128.0703799178
 20
90.7548148739
 30
0.0
 10
127.9896169366
 20
90.8383210734
 30
0.0
 10
127.8518444945
 20
90.9188488029
 30
0.0
 10
127.7419243327
 20
90.9590524864
 30
0.0
 10
127.6810269112
 20
90.9770732813
 30
0.0
  0
SPLINE
  5
535
100
AcDbEntity
  8
0
100
AcDbSpline
 62
7
  6
CONTINUOUS
 70
0
 71
3
 72
9
 73
5
 74
0
 42
0.0000001
 43
0.0000001
 44
0.0000000001
 40
0.0
 40
0.0
 40
0.0
 40
0.0
 40
0.4111175434
 40
1.0
 40
1.0
 40
1.0
 40
1.0
 10
94.2606458495
 20
86.4296644119
 30
0.0
 10
94.2648148702
 20
86.4233171592
 30
0.0
 10
94.2819984016
 20
86.4135023709
 30
0.0
 10
94.2999616225
 20
86.4097504877
 30
0.0
 10
94.3107650936
 20
86.4084831041
 30
0.0
  0
SPLINE
  5
536
100
AcDbEntity
  8
0
100
AcDbSpline
 62
7
  6
CONTINUOUS
 70
0
 71
3
 72
9
 73
5
 74
0
 42
0.0000001
 43
0.0000001
 44
0.0000000001
 40
0.0
 40
0.0
 40
0.0
 40
0.0
 40
0.2555890065
 40
1.0
 40
1.0
 40
1.0
 40
1.0
 10
108.6687360206
 20
84.9563650059
 30
0.0
 10
108.6810503861
 20
84.9563650059
 30
0.0
 10
108.7292202017
 20
84.9574146601
 30
0.0
 10
108.7773387384
 20
84.9625444663
 30
0.0
 10
108.8126109663
 20
84.9690435538
 30
0.0
  0
SPLINE
  5
537
100
AcDbEntity
  8
0
100
AcDbSpline
 62
7
  6
CONTINUOUS
 70
0
 71
3
 72
14
 73
10
 74
0
 42
0.0000001
 43
0.0000001
 44
0.0000000001
 40
0.0
 40
0.0
 40
0.0
 40
0.0
 40
0.3334184494
 40
0.4807137452
 40
0.6127529378
 40
0.7289219259
 40
0.8299684968
 40
0.9185980071
 40
1.0
 40
1.0
 40
1.0
 40
1.0
 10
108.8126109663
 20
84.9690435538
 30
0.0
 10
109.0221966556
 20
85.0076607837
 30
0.0
 10
109.3219976499
 20
85.082768328
 30
0.0
 10
109.6853350374
 20
85.2304963151
 30
0.0
 10
109.9080178772
 20
85.3515579428
 30
0.0
 10
110.087971696
 20
85.4852373283
 30
0.0
 10
110.2217448526
 20
85.6298264414
 30
0.0
 10
110.3057834399
 20
85.7838814381
 30
0.0
 10
110.3254736242
 20
85.8932613832
 30
0.0
 10
110.3254736242
 20
85.9452917384
 30
0.0
  0
SPLINE
  5
538
100
AcDbEntity
  8
0
100
AcDbSpline
 62
7
  6
CONTINUOUS
 70
0
 71
3
 72
9
 73
5
 74
0
 42
0.0000001
 43
0.0000001
 44
0.0000000001
 40
0.0
 40
0.0
 40
0.0
 40
0.0
 40
0.2309900592
 40
1.0
 40
1.0
 40
1.0
 40
1.0
 10
108.7907973506
 20
86.6751150566
 30
0.0
 10
108.7826799815
 20
86.6777421625
 30
0.0
 10
108.7469585535
 20
86.6872943934
 30
0.0
 10
108.7097622385
 20
86.6907903521
 30
0.0
 10
108.6813579074
 20
86.6907903521
 30
0.0
  0
SPLINE
  5
539
100
AcDbEntity
  8
0
100
AcDbSpline
 62
7
  6
CONTINUOUS
 70
0
 71
3
 72
11
 73
7
 74
0
 42
0.0000001
 43
0.0000001
 44
0.0000000001
 40
0.0
 40
0.0
 40
0.0
 40
0.0
 40
0.3670165724
 40
0.5076318286
 40
0.6631594479
 40
1.0
 40
1.0
 40
1.0
 40
1.0
 10
95.2479937828
 20
86.5538620353
 30
0.0
 10
95.2479937828
 20
86.5789682562
 30
0.0
 10
95.2088492171
 20
86.6041174806
 30
0.0
 10
95.167413536
 20
86.6177749005
 30
0.0
 10
95.1246733219
 20
86.6273888682
 30
0.0
 10
95.0910357759
 20
86.6299333224
 30
0.0
 10
95.0679937828
 20
86.6299333224
 30
0.0
  0
SPLINE
  5
53A
100
AcDbEntity
  8
RUNDUNGEN
100
AcDbSpline
 62
7
  6
CONTINUOUS
 70
0
 71
3
 72
11
 73
7
 74
0
 42
0.0000001
 43
0.0000001
 44
0.0000000001
 40
0.0
 40
0.0
 40
0.0
 40
0.0
 40
0.303079253
 40
0.5650221944
 40
0.7926387135
 40
1.0
 40
1.0
 40
1.0
 40
1.0
 10
81.7128982911
 20
71.3374209198
 30
0.0
 10
81.6311420297
 20
71.2880759939
 30
0.0
 10
81.4843377752
 20
71.1858254101
 30
0.0
 10
81.3080716218
 20
71.0062381831
 30
0.0
 10
81.1966770422
 20
70.8135282852
 30
0.0
 10
81.170354424
 20
70.675544196
 30
0.0
 10
81.170354424
 20
70.6102092902
 30
0.0
  0
SPLINE
  5
53B
100
AcDbEntity
  8
RUNDUNGEN
100
AcDbSpline
 62
7
  6
CONTINUOUS
 70
0
 71
3
 72
11
 73
7
 74
0
 42
0.0000001
 43
0.0000001
 44
0.0000000001
 40
0.0
 40
0.0
 40
0.0
 40
0.0
 40
0.3281890092
 40
0.6017655288
 40
0.8201370822
 40
1.0
 40
1.0
 40
1.0
 40
1.0
 10
82.6048298304
 20
86.5908563692
 30
0.0
 10
82.5500194812
 20
86.5746368636
 30
0.0
 10
82.4510728998
 20
86.5385576531
 30
0.0
 10
82.3271119017
 20
86.4656859073
 30
0.0
 10
82.2435906018
 20
86.3804763885
 30
0.0
 10
82.2210846566
 20
86.3108096535
 30
0.0
 10
82.2210550451
 20
86.279483406
 30
0.0
  0
SPLINE
  5
53C
100
AcDbEntity
  8
RUNDUNGEN
100
AcDbSpline
 62
7
  6
CONTINUOUS
 70
0
 71
3
 72
13
 73
9
 74
0
 42
0.0000001
 43
0.0000001
 44
0.0000000001
 40
0.0
 40
0.0
 40
0.0
 40
0.0
 40
0.3274430796
 40
0.6003184227
 40
0.7159497271
 40
0.8189964011
 40
0.91223386
 40
1.0
 40
1.0
 40
1.0
 40
1.0
 10
77.0979860254
 20
91.4618810344
 30
0.0
 10
76.9151554347
 20
91.4077777159
 30
0.0
 10
76.5856624676
 20
91.2874503455
 30
0.0
 10
76.2222699339
 20
91.0746231741
 30
0.0
 10
76.0115547487
 20
90.879174576
 30
0.0
 10
75.9019393356
 20
90.7327953187
 30
0.0
 10
75.8342025222
 20
90.5801170826
 30
0.0
 10
75.8187002932
 20
90.4741916679
 30
0.0
 10
75.8187167901
 20
90.4230860763
 30
0.0
  0
SPLINE
  5
53D
100
AcDbEntity
  8
RUNDUNGEN
100
AcDbSpline
 62
7
  6
CONTINUOUS
 70
0
 71
3
 72
15
 73
11
 74
0
 42
0.0000001
 43
0.0000001
 44
0.0000000001
 40
0.0
 40
0.0
 40
0.0
 40
0.0
 40
0.0996566785
 40
0.2134465764
 40
0.3386914147
 40
0.4718352717
 40
0.6088041666
 40
0.7452903577
 40
0.8770134967
 40
1.0
 40
1.0
 40
1.0
 40
1.0
 10
89.0589659148
 20
90.8740070184
 30
0.0
 10
88.7341077415
 20
91.0700788814
 30
0.0
 10
87.9972616949
 20
91.422476176
 30
0.0
 10
86.7681747182
 20
91.8209292804
 30
0.0
 10
85.3790767733
 20
92.1129517112
 30
0.0
 10
83.8819704223
 20
92.2869690137
 30
0.0
 10
82.3328791508
 20
92.33628028
 30
0.0
 10
80.7902849318
 20
92.2588929615
 30
0.0
 10
79.3126317062
 20
92.0579473282
 30
0.0
 10
78.3661617245
 20
91.837160212
 30
0.0
 10
77.9171380697
 20
91.7042849109
 30
0.0
  0
SPLINE
  5
53E
100
AcDbEntity
  8
0
100
AcDbSpline
 62
7
  6
CONTINUOUS
 70
0
 71
3
 72
9
 73
5
 74
0
 42
0.0000001
 43
0.0000001
 44
0.0000000001
 40
0.0
 40
0.0
 40
0.0
 40
0.0
 40
0.484441632
 40
1.0
 40
1.0
 40
1.0
 40
1.0
 10
106.7325423512
 20
90.8591877448
 30
0.0
 10
106.3118886031
 20
90.9836678092
 30
0.0
 10
105.4307103343
 20
91.1981299399
 30
0.0
 10
104.535453834
 20
91.3404901202
 30
0.0
 10
104.0720430996
 20
91.3971614363
 30
0.0
  0
SPLINE
  5
53F
100
AcDbEntity
  8
0
100
AcDbSpline
 62
7
  6
CONTINUOUS
 70
0
 71
3
 72
9
 73
5
 74
0
 42
0.0000001
 43
0.0000001
 44
0.0000000001
 40
0.0
 40
0.0
 40
0.0
 40
0.0
 40
0.515558368
 40
1.0
 40
1.0
 40
1.0
 40
1.0
 10
99.0686657484
 20
91.3971614363
 30
0.0
 10
98.605255014
 20
91.3404901202
 30
0.0
 10
97.7099985137
 20
91.1981299399
 30
0.0
 10
96.8288202449
 20
90.9836678092
 30
0.0
 10
96.4081664968
 20
90.8591877448
 30
0.0
  0
SPLINE
  5
540
100
AcDbEntity
  8
RUNDUNGEN
100
AcDbSpline
 62
7
  6
CONTINUOUS
 70
0
 71
3
 72
12
 73
8
 74
0
 42
0.0000001
 43
0.0000001
 44
0.0000000001
 40
0.0
 40
0.0
 40
0.0
 40
0.0
 40
0.2546386222
 40
0.5280845077
 40
0.7863889577
 40
0.9002793117
 40
1.0
 40
1.0
 40
1.0
 40
1.0
 10
123.1756906676
 20
92.3102946021
 30
0.0
 10
123.0595743036
 20
92.3446558138
 30
0.0
 10
122.8102526451
 20
92.3877678903
 30
0.0
 10
122.4351343991
 20
92.3909701501
 30
0.0
 10
122.1295596409
 20
92.3443229924
 30
0.0
 10
121.9156649983
 20
92.275074147
 30
0.0
 10
121.8235625618
 20
92.2310146858
 30
0.0
 10
121.7829621869
 20
92.2065098656
 30
0.0
  0
SPLINE
  5
541
100
AcDbEntity
  8
BEZUGSACHSEN
100
AcDbSpline
 62
7
  6
CONTINUOUS
 70
0
 71
3
 72
14
 73
10
 74
0
 42
0.0000001
 43
0.0000001
 44
0.0000000001
 40
0.0
 40
0.0
 40
0.0
 40
0.0
 40
0.0901000485
 40
0.1851847011
 40
0.2891703422
 40
0.4047985386
 40
0.5335519041
 40
0.6759481667
 40
1.0
 40
1.0
 40
1.0
 40
1.0
 10
97.570354424
 20
88.8422977078
 30
0.0
 10
97.570354424
 20
88.7788636021
 30
0.0
 10
97.5882358156
 20
88.6479196407
 30
0.0
 10
97.6663736216
 20
88.4579733987
 30
0.0
 10
97.7935691742
 20
88.2748146178
 30
0.0
 10
97.9671826886
 20
88.1001850548
 30
0.0
 10
98.1848735956
 20
87.9353732727
 30
0.0
 10
98.5462102112
 20
87.7218791585
 30
0.0
 10
98.8519581844
 20
87.5966921386
 30
0.0
 10
99.0680315174
 20
87.5234611797
 30
0.0
  0
SPLINE
  5
542
100
AcDbEntity
  8
BEZUGSACHSEN
100
AcDbSpline
 62
7
  6
CONTINUOUS
 70
0
 71
3
 72
14
 73
10
 74
0
 42
0.0000001
 43
0.0000001
 44
0.0000000001
 40
0.0
 40
0.0
 40
0.0
 40
0.0
 40
0.3240518333
 40
0.4664480959
 40
0.5952014614
 40
0.7108296578
 40
0.8148152989
 40
0.9098999515
 40
1.0
 40
1.0
 40
1.0
 40
1.0
 10
104.0726773306
 20
87.5234611797
 30
0.0
 10
104.2887506636
 20
87.5966921386
 30
0.0
 10
104.5944986368
 20
87.7218791585
 30
0.0
 10
104.9558352524
 20
87.9353732727
 30
0.0
 10
105.1735261594
 20
88.1001850548
 30
0.0
 10
105.3471396737
 20
88.2748146178
 30
0.0
 10
105.4743352264
 20
88.4579733987
 30
0.0
 10
105.5524730324
 20
88.6479196407
 30
0.0
 10
105.570354424
 20
88.7788636021
 30
0.0
 10
105.570354424
 20
88.8422977078
 30
0.0
  0
SPLINE
  5
543
100
AcDbEntity
  8
0
100
AcDbSpline
 62
7
  6
CONTINUOUS
 70
0
 71
3
 72
13
 73
9
 74
0
 42
0.0000001
 43
0.0000001
 44
0.0000000001
 40
0.0
 40
0.0
 40
0.0
 40
0.0
 40
0.0893207922
 40
0.1837595687
 40
0.2874390369
 40
0.4030939236
 40
0.6746097406
 40
1.0
 40
1.0
 40
1.0
 40
1.0
 10
109.6375132372
 20
85.9503631576
 30
0.0
 10
109.6375132372
 20
85.9854943809
 30
0.0
 10
109.6273783009
 20
86.0581056294
 30
0.0
 10
109.5829290208
 20
86.1631866727
 30
0.0
 10
109.5108186195
 20
86.2643401111
 30
0.0
 10
109.3721682247
 20
86.3998036459
 30
0.0
 10
109.131758905
 20
86.54932318
 30
0.0
 10
108.9125601563
 20
86.6357077344
 30
0.0
 10
108.7907973506
 20
86.6751150566
 30
0.0
  0
SPLINE
  5
544
100
AcDbEntity
  8
0
100
AcDbSpline
 62
7
  6
CONTINUOUS
 70
0
 71
3
 72
17
 73
13
 74
0
 42
0.0000001
 43
0.0000001
 44
0.0000000001
 40
0.0
 40
0.0
 40
0.0
 40
0.0
 40
0.1609895954
 40
0.3218522962
 40
0.4760464833
 40
0.617569127
 40
0.7415588539
 40
0.8451315038
 40
0.8893653847
 40
0.9291579521
 40
0.9655423821
 40
1.0
 40
1.0
 40
1.0
 40
1.0
 10
103.2417495485
 20
84.9781931724
 30
0.0
 10
103.367749011
 20
84.9663142307
 30
0.0
 10
103.6209633496
 20
84.954987107
 30
0.0
 10
103.9952865733
 20
84.9730790429
 30
0.0
 10
104.3510428242
 20
85.0250780038
 30
0.0
 10
104.6711785992
 20
85.1083965337
 30
0.0
 10
104.9404608555
 20
85.2188484398
 30
0.0
 10
105.1221318858
 20
85.335444668
 30
0.0
 10
105.2265820091
 20
85.4403859488
 30
0.0
 10
105.280935943
 20
85.5186358868
 30
0.0
 10
105.3142943272
 20
85.5997872562
 30
0.0
 10
105.3219557801
 20
85.6557160173
 30
0.0
 10
105.3219557801
 20
85.6828040631
 30
0.0
  0
SPLINE
  5
545
100
AcDbEntity
  8
0
100
AcDbSpline
 62
7
  6
CONTINUOUS
 70
0
 71
3
 72
10
 73
6
 74
0
 42
0.0000001
 43
0.0000001
 44
0.0000000001
 40
0.0
 40
0.0
 40
0.0
 40
0.0
 40
0.367150173
 40
0.6634377986
 40
1.0
 40
1.0
 40
1.0
 40
1.0
 10
94.2579937828
 20
85.4051855999
 30
0.0
 10
94.2579937828
 20
85.3951439794
 30
0.0
 10
94.2779414878
 20
85.3823177996
 30
0.0
 10
94.3031038735
 20
85.3763659672
 30
0.0
 10
94.3207887486
 20
85.3747570851
 30
0.0
 10
94.3299937828
 20
85.3747570851
 30
0.0
  0
SPLINE
  5
546
100
AcDbEntity
  8
0
100
AcDbSpline
 62
7
  6
CONTINUOUS
 70
0
 71
3
 72
12
 73
8
 74
0
 42
0.0000001
 43
0.0000001
 44
0.0000000001
 40
0.0
 40
0.0
 40
0.0
 40
0.0
 40
0.312088375
 40
0.5859509121
 40
0.7063728957
 40
0.8152759342
 40
1.0
 40
1.0
 40
1.0
 40
1.0
 10
108.8653440329
 20
85.2509603351
 30
0.0
 10
109.0294488982
 20
85.2831237189
 30
0.0
 10
109.3347476444
 20
85.359687432
 30
0.0
 10
109.6879811096
 20
85.5002992868
 30
0.0
 10
109.9222038995
 20
85.6351747447
 30
0.0
 10
110.100775442
 20
85.7666761485
 30
0.0
 10
110.2097255806
 20
85.8859812538
 30
0.0
 10
110.2580113207
 20
85.9723858434
 30
0.0
  0
SPLINE
  5
547
100
AcDbEntity
  8
0
100
AcDbSpline
 62
7
  6
CONTINUOUS
 70
0
 71
3
 72
9
 73
5
 74
0
 42
0.0000001
 43
0.0000001
 44
0.0000000001
 40
0.0
 40
0.0
 40
0.0
 40
0.0
 40
0.2572529381
 40
1.0
 40
1.0
 40
1.0
 40
1.0
 10
110.2580113207
 20
85.9723858434
 30
0.0
 10
110.2629332577
 20
85.9811933701
 30
0.0
 10
110.2812298265
 20
86.0158861015
 30
0.0
 10
110.2960294009
 20
86.052459285
 30
0.0
 10
110.3045681045
 20
86.0803104147
 30
0.0
  0
SPLINE
  5
548
100
AcDbEntity
  8
0
100
AcDbSpline
 62
7
  6
CONTINUOUS
 70
0
 71
3
 72
13
 73
9
 74
0
 42
0.0000001
 43
0.0000001
 44
0.0000000001
 40
0.0
 40
0.0
 40
0.0
 40
0.0
 40
0.3207255179
 40
0.5894759201
 40
0.70530929
 40
0.8104289852
 40
0.9074229627
 40
1.0
 40
1.0
 40
1.0
 40
1.0
 10
108.9292380144
 20
86.8981808128
 30
0.0
 10
109.0323914906
 20
86.8585988996
 30
0.0
 10
109.217763191
 20
86.7738448075
 30
0.0
 10
109.4185563192
 20
86.6326929307
 30
0.0
 10
109.5331184981
 20
86.507975208
 30
0.0
 10
109.5927429339
 20
86.4153062798
 30
0.0
 10
109.6292113803
 20
86.3197044468
 30
0.0
 10
109.6375240318
 20
86.2541474215
 30
0.0
 10
109.6375240318
 20
86.2222554937
 30
0.0
  0
SPLINE
  5
549
100
AcDbEntity
  8
0
100
AcDbSpline
 62
7
  6
CONTINUOUS
 70
0
 71
3
 72
10
 73
6
 74
0
 42
0.0000001
 43
0.0000001
 44
0.0000000001
 40
0.0
 40
0.0
 40
0.0
 40
0.0
 40
0.3365622014
 40
0.632849827
 40
1.0
 40
1.0
 40
1.0
 40
1.0
 10
94.9059937828
 20
85.6466494212
 30
0.0
 10
94.9151988171
 20
85.6466494212
 30
0.0
 10
94.9328836922
 20
85.6482583033
 30
0.0
 10
94.9580460779
 20
85.6542101358
 30
0.0
 10
94.9779937828
 20
85.6670363155
 30
0.0
 10
94.9779937828
 20
85.677077936
 30
0.0
  0
SPLINE
  5
54A
100
AcDbEntity
  8
0
100
AcDbSpline
 62
7
  6
CONTINUOUS
 70
0
 71
3
 72
10
 73
6
 74
0
 42
0.0000001
 43
0.0000001
 44
0.0000000001
 40
0.0
 40
0.0
 40
0.0
 40
0.0
 40
0.367150173
 40
0.6634377986
 40
1.0
 40
1.0
 40
1.0
 40
1.0
 10
94.4829937828
 20
86.4530050646
 30
0.0
 10
94.4829937828
 20
86.4630466851
 30
0.0
 10
94.5029414878
 20
86.4758728648
 30
0.0
 10
94.5281038735
 20
86.4818246972
 30
0.0
 10
94.5457887486
 20
86.4834335794
 30
0.0
 10
94.5549937828
 20
86.4834335794
 30
0.0
  0
SPLINE
  5
54B
100
AcDbEntity
  8
0
100
AcDbSpline
 62
7
  6
CONTINUOUS
 70
0
 71
3
 72
10
 73
6
 74
0
 42
0.0000001
 43
0.0000001
 44
0.0000000001
 40
0.0
 40
0.0
 40
0.0
 40
0.0
 40
0.3365622014
 40
0.632849827
 40
1.0
 40
1.0
 40
1.0
 40
1.0
 10
94.6809937828
 20
86.4834335794
 30
0.0
 10
94.6901988171
 20
86.4834335794
 30
0.0
 10
94.7078836922
 20
86.4818246972
 30
0.0
 10
94.7330460779
 20
86.4758728648
 30
0.0
 10
94.7529937828
 20
86.4630466851
 30
0.0
 10
94.7529937828
 20
86.4530050646
 30
0.0
  0
SPLINE
  5
54C
100
AcDbEntity
  8
0
100
AcDbSpline
 62
7
  6
CONTINUOUS
 70
0
 71
3
 72
10
 73
6
 74
0
 42
0.0000001
 43
0.0000001
 44
0.0000000001
 40
0.0
 40
0.0
 40
0.0
 40
0.0
 40
0.3365622014
 40
0.632849827
 40
1.0
 40
1.0
 40
1.0
 40
1.0
 10
94.9059937828
 20
86.4073622923
 30
0.0
 10
94.9151988171
 20
86.4073622923
 30
0.0
 10
94.9328836922
 20
86.4089711745
 30
0.0
 10
94.9580460779
 20
86.4149230069
 30
0.0
 10
94.9779937828
 20
86.4277491866
 30
0.0
 10
94.9779937828
 20
86.4377908072
 30
0.0
  0
SPLINE
  5
54D
100
AcDbEntity
  8
0
100
AcDbSpline
 62
7
  6
CONTINUOUS
 70
0
 71
3
 72
11
 73
7
 74
0
 42
0.0000001
 43
0.0000001
 44
0.0000000001
 40
0.0
 40
0.0
 40
0.0
 40
0.0
 40
0.3364037794
 40
0.4923649191
 40
0.633022647
 40
1.0
 40
1.0
 40
1.0
 40
1.0
 10
95.0679937828
 20
86.9018256585
 30
0.0
 10
95.0910063685
 20
86.9018256585
 30
0.0
 10
95.1246337526
 20
86.8992171269
 30
0.0
 10
95.1673983742
 20
86.8896958997
 30
0.0
 10
95.2088608271
 20
86.8760127934
 30
0.0
 10
95.2479937828
 20
86.8508584228
 30
0.0
 10
95.2479937828
 20
86.8257543714
 30
0.0
  0
SPLINE
  5
54E
100
AcDbEntity
  8
RUNDUNGEN
100
AcDbSpline
 62
7
  6
CONTINUOUS
 70
0
 71
3
 72
12
 73
8
 74
0
 42
0.0000001
 43
0.0000001
 44
0.0000000001
 40
0.0
 40
0.0
 40
0.0
 40
0.0
 40
0.3028363607
 40
0.5645702388
 40
0.7920026656
 40
0.8973440802
 40
1.0
 40
1.0
 40
1.0
 40
1.0
 10
112.5096048568
 20
76.7201058883
 30
0.0
 10
112.264336251
 20
76.8681405583
 30
0.0
 10
111.8239425763
 20
77.1750768017
 30
0.0
 10
111.2950705323
 20
77.7131321259
 30
0.0
 10
111.0099582101
 20
78.2085128401
 30
0.0
 10
110.9000626079
 20
78.6074233702
 30
0.0
 10
110.8819732497
 20
78.8046294264
 30
0.0
 10
110.8819732554
 20
78.9017409386
 30
0.0
  0
SPLINE
  5
54F
100
AcDbEntity
  8
0
100
AcDbSpline
 62
7
  6
CONTINUOUS
 70
0
 71
3
 72
8
 73
4
 74
0
 42
0.0000001
 43
0.0000001
 44
0.0000000001
 40
0.0
 40
0.0
 40
0.0
 40
0.0
 40
1.0
 40
1.0
 40
1.0
 40
1.0
 10
95.244203313
 20
86.0804126772
 30
0.0
 10
95.246536327
 20
86.0756791778
 30
0.0
 10
95.2479937828
 20
86.0703187128
 30
0.0
 10
95.2479937828
 20
86.0650415003
 30
0.0
  0
SPLINE
  5
550
100
AcDbEntity
  8
RUNDUNGEN
100
AcDbSpline
 62
7
  6
CONTINUOUS
 70
0
 71
3
 72
15
 73
11
 74
0
 42
0.0000001
 43
0.0000001
 44
0.0000000001
 40
0.0
 40
0.0
 40
0.0
 40
0.0
 40
0.0996524385
 40
0.2134463258
 40
0.3386898131
 40
0.4718351657
 40
0.6088054879
 40
0.7452899071
 40
0.877018505
 40
1.0
 40
1.0
 40
1.0
 40
1.0
 10
117.0543681252
 20
89.3525128807
 30
0.0
 10
116.9325514731
 20
89.2789890482
 30
0.0
 10
116.6562343931
 20
89.1468411046
 30
0.0
 10
116.1953314143
 20
88.9974135646
 30
0.0
 10
115.6744124437
 20
88.8879092705
 30
0.0
 10
115.1129954777
 20
88.8226519467
 30
0.0
 10
114.5320845722
 20
88.8041604406
 30
0.0
 10
113.9536039663
 20
88.833176208
 30
0.0
 10
113.3994866927
 20
88.9085381975
 30
0.0
 10
113.0445597247
 20
88.991332454
 30
0.0
 10
112.8761826833
 20
89.041158671
 30
0.0
  0
SPLINE
  5
551
100
AcDbEntity
  8
RUNDUNGEN
100
AcDbSpline
 62
7
  6
CONTINUOUS
 70
0
 71
3
 72
15
 73
11
 74
0
 42
0.0000001
 43
0.0000001
 44
0.0000000001
 40
0.0
 40
0.0
 40
0.0
 40
0.0
 40
0.1229823262
 40
0.2547121724
 40
0.3911975588
 40
0.528168913
 40
0.6613150523
 40
0.7865578253
 40
0.9003481029
 40
1.0
 40
1.0
 40
1.0
 40
1.0
 10
93.950710364
 20
90.1319761153
 30
0.0
 10
93.7823321845
 20
90.0821495615
 30
0.0
 10
93.4274022575
 20
89.9993548676
 30
0.0
 10
92.8732806111
 20
89.9239926437
 30
0.0
 10
92.2947953013
 20
89.8949776959
 30
0.0
 10
91.7138804541
 20
89.913470548
 30
0.0
 10
91.1524620678
 20
89.97872957
 30
0.0
 10
90.6315485009
 20
90.0882349909
 30
0.0
 10
90.1706524914
 20
90.2376612513
 30
0.0
 10
89.8943409124
 20
90.3698068919
 30
0.0
 10
89.772524922
 20
90.443330325
 30
0.0
  0
SPLINE
  5
552
100
AcDbEntity
  8
0
100
AcDbSpline
 62
7
  6
CONTINUOUS
 70
0
 71
3
 72
8
 73
4
 74
0
 42
0.0000001
 43
0.0000001
 44
0.0000000001
 40
0.0
 40
0.0
 40
0.0
 40
0.0
 40
1.0
 40
1.0
 40
1.0
 40
1.0
 10
93.9879937828
 20
86.0650415003
 30
0.0
 10
93.9879937828
 20
86.0703187128
 30
0.0
 10
93.9894512387
 20
86.0756791778
 30
0.0
 10
93.9917842527
 20
86.0804126772
 30
0.0
  0
SPLINE
  5
553
100
AcDbEntity
  8
0
100
AcDbSpline
 62
7
  6
CONTINUOUS
 70
0
 71
3
 72
11
 73
7
 74
0
 42
0.0000001
 43
0.0000001
 44
0.0000000001
 40
0.0
 40
0.0
 40
0.0
 40
0.0
 40
0.366977353
 40
0.5076350809
 40
0.6635962206
 40
1.0
 40
1.0
 40
1.0
 40
1.0
 10
93.9879937828
 20
86.8257543714
 30
0.0
 10
93.9879937828
 20
86.8508584228
 30
0.0
 10
94.0271267385
 20
86.8760127934
 30
0.0
 10
94.0685891914
 20
86.8896958997
 30
0.0
 10
94.1113538131
 20
86.8992171269
 30
0.0
 10
94.1449811972
 20
86.9018256585
 30
0.0
 10
94.1679937828
 20
86.9018256585
 30
0.0
  0
SPLINE
  5
554
100
AcDbEntity
  8
0
100
AcDbSpline
 62
7
  6
CONTINUOUS
 70
0
 71
3
 72
11
 73
7
 74
0
 42
0.0000001
 43
0.0000001
 44
0.0000000001
 40
0.0
 40
0.0
 40
0.0
 40
0.0
 40
0.3368405521
 40
0.4923681714
 40
0.6329834276
 40
1.0
 40
1.0
 40
1.0
 40
1.0
 10
96.0579937828
 20
85.2282573421
 30
0.0
 10
96.1040777689
 20
85.2282573421
 30
0.0
 10
96.1713528609
 20
85.2333462506
 30
0.0
 10
96.2568332892
 20
85.252574186
 30
0.0
 10
96.3397046514
 20
85.2798890258
 30
0.0
 10
96.4179937828
 20
85.3301874745
 30
0.0
 10
96.4179937828
 20
85.3803999163
 30
0.0
  0
SPLINE
  5
555
100
AcDbEntity
  8
KONSTRUKTIONSELEMENTE
100
AcDbSpline
 62
7
  6
CONTINUOUS
 70
0
 71
3
 72
11
 73
7
 74
0
 42
0.0000001
 43
0.0000001
 44
0.0000000001
 40
0.0
 40
0.0
 40
0.0
 40
0.0
 40
0.2494957108
 40
0.4974083782
 40
0.747241793
 40
1.0
 40
1.0
 40
1.0
 40
1.0
 10
125.070354424
 20
144.3601234609
 30
0.0
 10
125.070354424
 20
143.8909956947
 30
0.0
 10
124.9711855624
 20
142.9526073631
 30
0.0
 10
124.5347464585
 20
141.6078792948
 30
0.0
 10
123.8562646264
 20
140.3624093158
 30
0.0
 10
123.2705747562
 20
139.6152834223
 30
0.0
 10
122.9519903966
 20
139.2626104683
 30
0.0
  0
SPLINE
  5
556
100
AcDbEntity
  8
KONSTRUKTIONSELEMENTE
100
AcDbSpline
 62
7
  6
CONTINUOUS
 70
0
 71
3
 72
9
 73
5
 74
0
 42
0.0000001
 43
0.0000001
 44
0.0000000001
 40
0.0
 40
0.0
 40
0.0
 40
0.0
 40
0.2440496768
 40
1.0
 40
1.0
 40
1.0
 40
1.0
 10
112.0666714999
 20
133.8323707133
 30
0.0
 10
111.7088426735
 20
133.7498213904
 30
0.0
 10
110.2378211118
 20
133.4325980787
 30
0.0
 10
108.7496430337
 20
133.1963574612
 30
0.0
 10
107.6205238818
 20
133.0585626591
 30
0.0
  0
SPLINE
  5
557
100
AcDbEntity
  8
KONSTRUKTIONSELEMENTE
100
AcDbSpline
 62
7
  6
CONTINUOUS
 70
0
 71
3
 72
9
 73
5
 74
0
 42
0.0000001
 43
0.0000001
 44
0.0000000001
 40
0.0
 40
0.0
 40
0.0
 40
0.0
 40
0.2555780305
 40
1.0
 40
1.0
 40
1.0
 40
1.0
 10
95.5246360476
 20
133.0580161953
 30
0.0
 10
95.142256924
 20
133.1046405765
 30
0.0
 10
93.6484720859
 20
133.3055044756
 30
0.0
 10
92.1643442597
 20
133.5807472621
 30
0.0
 10
91.0710753707
 20
133.833050066
 30
0.0
  0
SPLINE
  5
558
100
AcDbEntity
  8
KONSTRUKTIONSELEMENTE
100
AcDbSpline
 62
7
  6
CONTINUOUS
 70
0
 71
3
 72
11
 73
7
 74
0
 42
0.0000001
 43
0.0000001
 44
0.0000000001
 40
0.0
 40
0.0
 40
0.0
 40
0.0
 40
0.2527504638
 40
0.5025519676
 40
0.7505463824
 40
1.0
 40
1.0
 40
1.0
 40
1.0
 10
80.1882470467
 20
139.2632910931
 30
0.0
 10
79.8697524812
 20
139.6159328462
 30
0.0
 10
79.2840983075
 20
140.3628085591
 30
0.0
 10
78.6057142707
 20
141.6082136192
 30
0.0
 10
78.1695814255
 20
142.9528347571
 30
0.0
 10
78.070354424
 20
143.8911427287
 30
0.0
 10
78.070354424
 20
144.3601234609
 30
0.0
  0
SPLINE
  5
559
100
AcDbEntity
  8
KONSTRUKTIONSELEMENTE
100
AcDbSpline
 62
7
  6
CONTINUOUS
 70
0
 71
3
 72
17
 73
13
 74
0
 42
0.0000001
 43
0.0000001
 44
0.0000000001
 40
0.0
 40
0.0
 40
0.0
 40
0.0
 40
0.0530161981
 40
0.1055596975
 40
0.1583758034
 40
0.2115434597
 40
0.3203819291
 40
0.4363196306
 40
0.5620833148
 40
0.6985854567
 40
0.845159209
 40
1.0
 40
1.0
 40
1.0
 40
1.0
 10
78.070354424
 20
144.3601234609
 30
0.0
 10
78.070354424
 20
144.7494113112
 30
0.0
 10
78.1382038752
 20
145.5262938425
 30
0.0
 10
78.4395186555
 20
146.6548760382
 30
0.0
 10
78.9174289114
 20
147.7213488345
 30
0.0
 10
79.7661327369
 20
149.0566278063
 30
0.0
 10
81.1934249056
 20
150.5434439579
 30
0.0
 10
83.3116641882
 20
152.0249726096
 30
0.0
 10
85.8044671282
 20
153.2671129196
 30
0.0
 10
88.6336305845
 20
154.2870875472
 30
0.0
 10
91.7528050885
 20
155.0848555851
 30
0.0
 10
93.9375361729
 20
155.4549933418
 30
0.0
 10
95.0647188265
 20
155.6038287505
 30
0.0
  0
SPLINE
  5
55A
100
AcDbEntity
  8
KONSTRUKTIONSELEMENTE
100
AcDbSpline
 62
7
  6
CONTINUOUS
 70
0
 71
3
 72
17
 73
13
 74
0
 42
0.0000001
 43
0.0000001
 44
0.0000000001
 40
0.0
 40
0.0
 40
0.0
 40
0.0
 40
0.1548446367
 40
0.3014210015
 40
0.4379238378
 40
0.5636858678
 40
0.6796248738
 40
0.7884621118
 40
0.841616791
 40
0.8944377421
 40
0.9469990002
 40
1.0
 40
1.0
 40
1.0
 40
1.0
 10
108.0754845722
 20
155.6039010244
 30
0.0
 10
109.2027237103
 20
155.4550719879
 30
0.0
 10
111.3875562178
 20
155.0849328245
 30
0.0
 10
114.5068620574
 20
154.2871596593
 30
0.0
 10
117.3361049012
 20
153.2671490778
 30
0.0
 10
119.8289729568
 20
152.0250178234
 30
0.0
 10
121.9473447741
 20
150.5435362149
 30
0.0
 10
123.3743916638
 20
149.0565955464
 30
0.0
 10
124.2233688185
 20
147.7215294026
 30
0.0
 10
124.7012030169
 20
146.6548971354
 30
0.0
 10
125.0024434962
 20
145.5262208623
 30
0.0
 10
125.070354424
 20
144.7493089296
 30
0.0
 10
125.070354424
 20
144.3601234609
 30
0.0
  0
SPLINE
  5
55B
100
AcDbEntity
  8
0
100
AcDbSpline
 62
7
  6
CONTINUOUS
 70
0
 71
3
 72
19
 73
15
 74
0
 42
0.0000001
 43
0.0000001
 44
0.0000000001
 40
0.0
 40
0.0
 40
0.0
 40
0.0
 40
0.0389652903
 40
0.0938823263
 40
0.1685850574
 40
0.2591901
 40
0.4501015385
 40
0.619339835
 40
0.7573894685
 40
0.8648552123
 40
0.9079249064
 40
0.9444219355
 40
0.9748763975
 40
1.0
 40
1.0
 40
1.0
 40
1.0
 10
118.820354424
 20
99.0596147529
 30
0.0
 10
118.820354424
 20
99.0038265644
 30
0.0
 10
118.8050664252
 20
98.8694116591
 30
0.0
 10
118.7398451346
 20
98.6363477328
 30
0.0
 10
118.6214527031
 20
98.3435982337
 30
0.0
 10
118.3936251215
 20
97.8869230167
 30
0.0
 10
118.057851517
 20
97.3345502077
 30
0.0
 10
117.6420061336
 20
96.7542731274
 30
0.0
 10
117.2599495602
 20
96.2989811466
 30
0.0
 10
116.9662469531
 20
96.0069328788
 30
0.0
 10
116.7572763315
 20
95.8390996532
 30
0.0
 10
116.626146292
 20
95.7513254814
 30
0.0
 10
116.5087128702
 20
95.6907444641
 30
0.0
 10
116.4325714132
 20
95.6656547725
 30
0.0
 10
116.3972919887
 20
95.6586378085
 30
0.0
  0
SPLINE
  5
55C
100
AcDbEntity
  8
0
100
AcDbSpline
 62
7
  6
CONTINUOUS
 70
0
 71
3
 72
9
 73
5
 74
0
 42
0.0000001
 43
0.0000001
 44
0.0000000001
 40
0.0
 40
0.0
 40
0.0
 40
0.0
 40
0.5087184815
 40
1.0
 40
1.0
 40
1.0
 40
1.0
 10
121.2950148117
 20
144.8893626608
 30
0.0
 10
119.9288343102
 20
146.2670307147
 30
0.0
 10
117.2002542385
 20
148.9330629487
 30
0.0
 10
114.3713146647
 20
151.492602817
 30
0.0
 10
112.9583924085
 20
152.7232252154
 30
0.0
  0
SPLINE
  5
55D
100
AcDbEntity
  8
0
100
AcDbSpline
 62
7
  6
CONTINUOUS
 70
0
 71
3
 72
9
 73
5
 74
0
 42
0.0000001
 43
0.0000001
 44
0.0000000001
 40
0.0
 40
0.0
 40
0.0
 40
0.0
 40
0.4912815204
 40
1.0
 40
1.0
 40
1.0
 40
1.0
 10
90.1823164395
 20
152.7232252154
 30
0.0
 10
88.769394178
 20
151.4926028125
 30
0.0
 10
85.9404546044
 20
148.9330629439
 30
0.0
 10
83.2118745329
 20
146.2670307098
 30
0.0
 10
81.8456940363
 20
144.8893626608
 30
0.0
  0
SPLINE
  5
55E
100
AcDbEntity
  8
0
100
AcDbSpline
 62
7
  6
CONTINUOUS
 70
0
 71
3
 72
19
 73
15
 74
0
 42
0.0000001
 43
0.0000001
 44
0.0000000001
 40
0.0
 40
0.0
 40
0.0
 40
0.0
 40
0.0250716168
 40
0.0554709814
 40
0.0919143088
 40
0.134934621
 40
0.2423158584
 40
0.3803107896
 40
0.5495385005
 40
0.7405271123
 40
0.8312301607
 40
0.9060377532
 40
0.9610106675
 40
1.0
 40
1.0
 40
1.0
 40
1.0
 10
86.7446800878
 20
95.6583887761
 30
0.0
 10
86.7094419418
 20
95.6652857401
 30
0.0
 10
86.6333596024
 20
95.6901575169
 30
0.0
 10
86.5159996562
 20
95.7504686335
 30
0.0
 10
86.3849193246
 20
95.8379973479
 30
0.0
 10
86.1759643193
 20
96.0055507942
 30
0.0
 10
85.8822247713
 20
96.2973602722
 30
0.0
 10
85.500057273
 20
96.7525115447
 30
0.0
 10
85.0839477257
 20
97.3328831054
 30
0.0
 10
84.7478370083
 20
97.8855533943
 30
0.0
 10
84.5196734282
 20
98.3426789685
 30
0.0
 10
84.4010318092
 20
98.6358296303
 30
0.0
 10
84.3356731377
 20
98.8692063856
 30
0.0
 10
84.320354424
 20
99.0037754979
 30
0.0
 10
84.320354424
 20
99.0596147529
 30
0.0
  0
SPLINE
  5
55F
100
AcDbEntity
  8
RUNDUNGEN
100
AcDbSpline
 62
7
  6
CONTINUOUS
 70
0
 71
3
 72
15
 73
11
 74
0
 42
0.0000001
 43
0.0000001
 44
0.0000000001
 40
0.0
 40
0.0
 40
0.0
 40
0.0
 40
0.1255977708
 40
0.2510392406
 40
0.3762981426
 40
0.5013506273
 40
0.6262073704
 40
0.7509020654
 40
0.8754791568
 40
1.0
 40
1.0
 40
1.0
 40
1.0
 10
114.5012368496
 20
125.2401014801
 30
0.0
 10
114.794507984
 20
125.2008218592
 30
0.0
 10
115.3751263029
 20
125.0710438387
 30
0.0
 10
116.1975359677
 20
124.7286633992
 30
0.0
 10
116.9465882899
 20
124.2482055137
 30
0.0
 10
117.597791623
 20
123.6436627353
 30
0.0
 10
118.1295655344
 20
122.9333293228
 30
0.0
 10
118.5235632254
 20
122.1393373009
 30
0.0
 10
118.7658472873
 20
121.2877758035
 30
0.0
 10
118.820354424
 20
120.6994976448
 30
0.0
 10
118.820354424
 20
120.4061448045
 30
0.0
  0
SPLINE
  5
560
100
AcDbEntity
  8
RUNDUNGEN
100
AcDbSpline
 62
7
  6
CONTINUOUS
 70
0
 71
3
 72
15
 73
11
 74
0
 42
0.0000001
 43
0.0000001
 44
0.0000000001
 40
0.0
 40
0.0
 40
0.0
 40
0.0
 40
0.1255977726
 40
0.2510392418
 40
0.3762981436
 40
0.5013506281
 40
0.626207371
 40
0.7509020658
 40
0.8754791569
 40
1.0
 40
1.0
 40
1.0
 40
1.0
 10
88.6394715912
 20
125.2401014234
 30
0.0
 10
88.3462004729
 20
125.2008217786
 30
0.0
 10
87.765582194
 20
125.0710437267
 30
0.0
 10
86.9431725996
 20
124.7286632465
 30
0.0
 10
86.1941203505
 20
124.2482053488
 30
0.0
 10
85.542917086
 20
123.6436625751
 30
0.0
 10
85.011143233
 20
122.9333291857
 30
0.0
 10
84.6171455879
 20
122.1393372009
 30
0.0
 10
84.3748615539
 20
121.287775751
 30
0.0
 10
84.320354424
 20
120.6994976275
 30
0.0
 10
84.320354424
 20
120.4061448045
 30
0.0
  0
SPLINE
  5
561
100
AcDbEntity
  8
BEZUGSACHSEN
100
AcDbSpline
 62
7
  6
CONTINUOUS
 70
0
 71
3
 72
19
 73
15
 74
0
 42
0.0000001
 43
0.0000001
 44
0.0000000001
 40
0.0
 40
0.0
 40
0.0
 40
0.0
 40
0.0607073476
 40
0.1217409119
 40
0.1832993399
 40
0.2455770137
 40
0.3717610991
 40
0.5
 40
0.6282389009
 40
0.7544229863
 40
0.8167006601
 40
0.8782590881
 40
0.9392926524
 40
1.0
 40
1.0
 40
1.0
 40
1.0
 10
89.070354424
 20
109.5074359501
 30
0.0
 10
89.070354424
 20
109.4152880236
 30
0.0
 10
89.0898389693
 20
109.2299266588
 30
0.0
 10
89.1760617927
 20
108.9634070481
 30
0.0
 10
89.316145639
 20
108.7179316368
 30
0.0
 10
89.5673661344
 20
108.430626875
 30
0.0
 10
89.9863227457
 20
108.1695156666
 30
0.0
 10
90.570354424
 20
108.061817736
 30
0.0
 10
91.1543861023
 20
108.1695156666
 30
0.0
 10
91.5733427136
 20
108.430626875
 30
0.0
 10
91.824563209
 20
108.7179316368
 30
0.0
 10
91.9646470553
 20
108.9634070481
 30
0.0
 10
92.0508698787
 20
109.2299266588
 30
0.0
 10
92.070354424
 20
109.4152880236
 30
0.0
 10
92.070354424
 20
109.5074359501
 30
0.0
  0
SPLINE
  5
562
100
AcDbEntity
  8
BEZUGSACHSEN
100
AcDbSpline
 62
7
  6
CONTINUOUS
 70
0
 71
3
 72
15
 73
11
 74
0
 42
0.0000001
 43
0.0000001
 44
0.0000000001
 40
0.0
 40
0.0
 40
0.0
 40
0.0
 40
0.1321451408
 40
0.2598839448
 40
0.3834028732
 40
0.5040137304
 40
0.6238844122
 40
0.7454142806
 40
0.8704933006
 40
1.0
 40
1.0
 40
1.0
 40
1.0
 10
96.3914467995
 20
125.2853603744
 30
0.0
 10
95.6415012977
 20
125.6734374385
 30
0.0
 10
94.2498324179
 20
126.6140410859
 30
0.0
 10
92.5982445949
 20
128.4567142203
 30
0.0
 10
91.4959332035
 20
130.5920563673
 30
0.0
 10
90.9959394999
 20
132.8915407612
 30
0.0
 10
91.1184527025
 20
135.2290127879
 30
0.0
 10
91.8590184311
 20
137.4794049091
 30
0.0
 10
93.1843117416
 20
139.5144511366
 30
0.0
 10
94.3974511538
 20
140.6273309638
 30
0.0
 10
95.0692947179
 20
141.1105077416
 30
0.0
  0
SPLINE
  5
563
100
AcDbEntity
  8
BEZUGSACHSEN
100
AcDbSpline
 62
7
  6
CONTINUOUS
 70
0
 71
3
 72
15
 73
11
 74
0
 42
0.0000001
 43
0.0000001
 44
0.0000000001
 40
0.0
 40
0.0
 40
0.0
 40
0.0
 40
0.1295084695
 40
0.2545887995
 40
0.3761194677
 40
0.4959902049
 40
0.6166005569
 40
0.7401184829
 40
0.8678560984
 40
1.0
 40
1.0
 40
1.0
 40
1.0
 10
108.0710259671
 20
141.1107865225
 30
0.0
 10
108.7429136015
 20
140.6276228249
 30
0.0
 10
109.9561440585
 20
139.5147620139
 30
0.0
 10
111.2815518587
 20
137.4796999062
 30
0.0
 10
112.0222132362
 20
135.2292729412
 30
0.0
 10
112.1447904417
 20
132.8917527497
 30
0.0
 10
111.6448370057
 20
130.5922196354
 30
0.0
 10
110.5425492199
 20
128.4568285664
 30
0.0
 10
108.8909628245
 20
126.6141154886
 30
0.0
 10
107.4992887899
 20
125.6734856681
 30
0.0
 10
106.7493376858
 20
125.2853992915
 30
0.0
  0
SPLINE
  5
564
100
AcDbEntity
  8
0
100
AcDbSpline
 62
7
  6
CONTINUOUS
 70
0
 71
3
 72
19
 73
15
 74
0
 42
0.0000001
 43
0.0000001
 44
0.0000000001
 40
0.0
 40
0.0
 40
0.0
 40
0.0
 40
0.0607367228
 40
0.12197285
 40
0.1837861117
 40
0.2462231459
 40
0.3723954696
 40
0.5
 40
0.6276045304
 40
0.7537768541
 40
0.8162138883
 40
0.87802715
 40
0.9392632772
 40
1.0
 40
1.0
 40
1.0
 40
1.0
 10
105.124062111
 20
113.1953706684
 30
0.0
 10
105.0686387777
 20
113.3750381094
 30
0.0
 10
104.9262562798
 20
113.7270481952
 30
0.0
 10
104.6266891974
 20
114.2136412157
 30
0.0
 10
104.2478546434
 20
114.6486885305
 30
0.0
 10
103.6496137445
 20
115.1460979086
 30
0.0
 10
102.7552738932
 20
115.5848801325
 30
0.0
 10
101.570354424
 20
115.7642426257
 30
0.0
 10
100.3854349548
 20
115.5848801325
 30
0.0
 10
99.4910951035
 20
115.1460979086
 30
0.0
 10
98.8928542046
 20
114.6486885305
 30
0.0
 10
98.5140196506
 20
114.2136412157
 30
0.0
 10
98.2144525682
 20
113.7270481952
 30
0.0
 10
98.0720700703
 20
113.3750381094
 30
0.0
 10
98.016646737
 20
113.1953706684
 30
0.0
  0
SPLINE
  5
565
100
AcDbEntity
  8
KONSTRUKTIONSELEMENTE
100
AcDbSpline
 62
7
  6
CONTINUOUS
 70
0
 71
3
 72
19
 73
15
 74
0
 42
0.0000001
 43
0.0000001
 44
0.0000000001
 40
0.0
 40
0.0
 40
0.0
 40
0.0
 40
0.0607367228
 40
0.12197285
 40
0.1837861117
 40
0.2462231459
 40
0.3723954696
 40
0.5
 40
0.6276045304
 40
0.7537768541
 40
0.8162138883
 40
0.87802715
 40
0.9392632772
 40
1.0
 40
1.0
 40
1.0
 40
1.0
 10
105.124062111
 20
117.9836526749
 30
0.0
 10
105.0686387777
 20
118.1633201159
 30
0.0
 10
104.9262562798
 20
118.5153302018
 30
0.0
 10
104.6266891974
 20
119.0019232223
 30
0.0
 10
104.2478546434
 20
119.4369705371
 30
0.0
 10
103.6496137445
 20
119.9343799152
 30
0.0
 10
102.7552738932
 20
120.3731621391
 30
0.0
 10
101.570354424
 20
120.5525246322
 30
0.0
 10
100.3854349548
 20
120.3731621391
 30
0.0
 10
99.4910951035
 20
119.9343799152
 30
0.0
 10
98.8928542046
 20
119.4369705371
 30
0.0
 10
98.5140196506
 20
119.0019232223
 30
0.0
 10
98.2144525682
 20
118.5153302018
 30
0.0
 10
98.0720700703
 20
118.1633201159
 30
0.0
 10
98.016646737
 20
117.9836526749
 30
0.0
  0
SPLINE
  5
566
100
AcDbEntity
  8
BEZUGSACHSEN
100
AcDbSpline
 62
7
  6
CONTINUOUS
 70
0
 71
3
 72
15
 73
11
 74
0
 42
0.0000001
 43
0.0000001
 44
0.0000000001
 40
0.0
 40
0.0
 40
0.0
 40
0.0
 40
0.1215273364
 40
0.245330401
 40
0.3717992295
 40
0.5
 40
0.6282007705
 40
0.754669599
 40
0.8784726636
 40
1.0
 40
1.0
 40
1.0
 40
1.0
 10
92.0548613089
 20
109.5040761228
 30
0.0
 10
92.0293225043
 20
109.6700089649
 30
0.0
 10
91.9121350039
 20
109.9981105527
 30
0.0
 10
91.5685681378
 20
110.3943264208
 30
0.0
 10
91.1017820853
 20
110.6524148662
 30
0.0
 10
90.570354424
 20
110.7417311196
 30
0.0
 10
90.0389267627
 20
110.6524148662
 30
0.0
 10
89.5721407102
 20
110.3943264208
 30
0.0
 10
89.2285738441
 20
109.9981105527
 30
0.0
 10
89.1113863437
 20
109.6700089649
 30
0.0
 10
89.0858475391
 20
109.5040761228
 30
0.0
  0
SPLINE
  5
567
100
AcDbEntity
  8
RUNDUNGEN
100
AcDbSpline
 62
7
  6
CONTINUOUS
 70
0
 71
3
 72
34
 73
30
 74
0
 42
0.0000001
 43
0.0000001
 44
0.0000000001
 40
0.0
 40
0.0
 40
0.0
 40
0.0
 40
0.0137800456
 40
0.0191766768
 40
0.0236580771
 40
0.0277620264
 40
0.0325228589
 40
0.0389038851
 40
0.0474321047
 40
0.0582972287
 40
0.0714686704
 40
0.086736301
 40
0.1038338148
 40
0.1422661111
 40
0.1845407007
 40
0.2289787001
 40
0.2744373761
 40
0.3201722287
 40
0.3656635984
 40
0.4545856055
 40
0.5393676221
 40
0.6189795422
 40
0.6928021697
 40
0.7604461787
 40
0.8216586315
 40
0.8762806044
 40
0.9242211926
 40
0.965455395
 40
1.0
 40
1.0
 40
1.0
 40
1.0
 10
118.820354424
 20
102.3659643288
 30
0.0
 10
118.820354424
 20
102.3961229041
 30
0.0
 10
118.8184493729
 20
102.4386079283
 30
0.0
 10
118.8032499226
 20
102.4883796006
 30
0.0
 10
118.7861180755
 20
102.5147335273
 30
0.0
 10
118.7589817574
 20
102.5290663422
 30
0.0
 10
118.7244778779
 20
102.5266576133
 30
0.0
 10
118.6846289959
 20
102.5094744115
 30
0.0
 10
118.6376955
 20
102.477806126
 30
0.0
 10
118.5836795454
 20
102.4311593503
 30
0.0
 10
118.5231043271
 20
102.3700016612
 30
0.0
 10
118.4569131704
 20
102.2954497451
 30
0.0
 10
118.3588801215
 20
102.1754191565
 30
0.0
 10
118.2314370198
 20
102.0033088555
 30
0.0
 10
118.0773274108
 20
101.7768400887
 30
0.0
 10
117.9218176412
 20
101.5328877969
 30
0.0
 10
117.7682720093
 20
101.2788200249
 30
0.0
 10
117.618778503
 20
101.0196862704
 30
0.0
 10
117.4279431496
 20
100.6746629183
 30
0.0
 10
117.2060562154
 20
100.2492408795
 30
0.0
 10
116.9643918657
 20
99.7502005805
 30
0.0
 10
116.750938062
 20
99.2744629255
 30
0.0
 10
116.5662495959
 20
98.8271683032
 30
0.0
 10
116.4103770132
 20
98.4117877234
 30
0.0
 10
116.2831156937
 20
98.0308214777
 30
0.0
 10
116.1841425598
 20
97.6861953002
 30
0.0
 10
116.1130969515
 20
97.3794093646
 30
0.0
 10
116.0696558182
 20
97.111943826
 30
0.0
 10
116.0577433463
 20
96.9461064154
 30
0.0
 10
116.0577433463
 20
96.8705031772
 30
0.0
  0
SPLINE
  5
568
100
AcDbEntity
  8
BEZUGSACHSEN
100
AcDbSpline
 62
7
  6
CONTINUOUS
 70
0
 71
3
 72
19
 73
15
 74
0
 42
0.0000001
 43
0.0000001
 44
0.0000000001
 40
0.0
 40
0.0
 40
0.0
 40
0.0
 40
0.0607073476
 40
0.1217409119
 40
0.1832993399
 40
0.2455770137
 40
0.3717610991
 40
0.5
 40
0.6282389009
 40
0.7544229863
 40
0.8167006601
 40
0.8782590881
 40
0.9392926524
 40
1.0
 40
1.0
 40
1.0
 40
1.0
 10
92.070354424
 20
109.5074359501
 30
0.0
 10
92.070354424
 20
109.5995838767
 30
0.0
 10
92.0508698787
 20
109.7849452414
 30
0.0
 10
91.9646470553
 20
110.0514648522
 30
0.0
 10
91.824563209
 20
110.2969402634
 30
0.0
 10
91.5733427136
 20
110.5842450252
 30
0.0
 10
91.1543861023
 20
110.8453562336
 30
0.0
 10
90.570354424
 20
110.9530541643
 30
0.0
 10
89.9863227457
 20
110.8453562336
 30
0.0
 10
89.5673661344
 20
110.5842450252
 30
0.0
 10
89.316145639
 20
110.2969402634
 30
0.0
 10
89.1760617927
 20
110.0514648522
 30
0.0
 10
89.0898389693
 20
109.7849452414
 30
0.0
 10
89.070354424
 20
109.5995838767
 30
0.0
 10
89.070354424
 20
109.5074359501
 30
0.0
  0
SPLINE
  5
569
100
AcDbEntity
  8
KONSTRUKTIONSELEMENTE
100
AcDbSpline
 62
7
  6
CONTINUOUS
 70
0
 71
3
 72
17
 73
13
 74
0
 42
0.0000001
 43
0.0000001
 44
0.0000000001
 40
0.0
 40
0.0
 40
0.0
 40
0.0
 40
0.0602079039
 40
0.1207185764
 40
0.181697661
 40
0.2431575353
 40
0.3671701051
 40
0.4924552561
 40
0.6185919275
 40
0.7453261762
 40
0.8724983506
 40
1.0
 40
1.0
 40
1.0
 40
1.0
 10
92.9392089612
 20
110.9639595123
 30
0.0
 10
92.9392089612
 20
111.0961763158
 30
0.0
 10
92.9688905663
 20
111.3621146721
 30
0.0
 10
93.095091493
 20
111.7431203396
 30
0.0
 10
93.2869887884
 20
112.0980375599
 30
0.0
 10
93.6099543216
 20
112.5340099986
 30
0.0
 10
94.1055109118
 20
113.0096409722
 30
0.0
 10
94.7799622316
 20
113.4869970165
 30
0.0
 10
95.5075601096
 20
113.8901124562
 30
0.0
 10
96.2710923197
 20
114.2292319305
 30
0.0
 10
97.0604275861
 20
114.5113469645
 30
0.0
 10
97.5988167123
 20
114.6643274511
 30
0.0
 10
97.870354424
 20
114.7326208762
 30
0.0
  0
SPLINE
  5
56A
100
AcDbEntity
  8
KONSTRUKTIONSELEMENTE
100
AcDbSpline
 62
7
  6
CONTINUOUS
 70
0
 71
3
 72
10
 73
6
 74
0
 42
0.0000001
 43
0.0000001
 44
0.0000000001
 40
0.0
 40
0.0
 40
0.0
 40
0.0
 40
0.5014015146
 40
0.7510009611
 40
1.0
 40
1.0
 40
1.0
 40
1.0
 10
92.3884788416
 20
107.6280507085
 30
0.0
 10
92.5514212963
 20
107.9481389881
 30
0.0
 10
92.7602644774
 20
108.449113863
 30
0.0
 10
92.912691378
 20
109.1508380293
 30
0.0
 10
92.9392089612
 20
109.508548705
 30
0.0
 10
92.9392089612
 20
109.6869172407
 30
0.0
  0
SPLINE
  5
56B
100
AcDbEntity
  8
KONSTRUKTIONSELEMENTE
100
AcDbSpline
 62
7
  6
CONTINUOUS
 70
0
 71
3
 72
10
 73
6
 74
0
 42
0.0000001
 43
0.0000001
 44
0.0000000001
 40
0.0
 40
0.0
 40
0.0
 40
0.0
 40
0.2489990389
 40
0.4985984854
 40
1.0
 40
1.0
 40
1.0
 40
1.0
 10
110.2014998868
 20
109.6869172407
 30
0.0
 10
110.2014998868
 20
109.508548705
 30
0.0
 10
110.22801747
 20
109.1508380293
 30
0.0
 10
110.3804443706
 20
108.449113863
 30
0.0
 10
110.5892875517
 20
107.9481389881
 30
0.0
 10
110.7522300064
 20
107.6280507085
 30
0.0
  0
SPLINE
  5
56C
100
AcDbEntity
  8
KONSTRUKTIONSELEMENTE
100
AcDbSpline
 62
7
  6
CONTINUOUS
 70
0
 71
3
 72
17
 73
13
 74
0
 42
0.0000001
 43
0.0000001
 44
0.0000000001
 40
0.0
 40
0.0
 40
0.0
 40
0.0
 40
0.1274827645
 40
0.2546356137
 40
0.3813492644
 40
0.5074635234
 40
0.6327309252
 40
0.7567404164
 40
0.8182106856
 40
0.8792058238
 40
0.9397521775
 40
1.0
 40
1.0
 40
1.0
 40
1.0
 10
105.270354424
 20
114.7326208762
 30
0.0
 10
105.5418518757
 20
114.6643375768
 30
0.0
 10
106.080160496
 20
114.511381277
 30
0.0
 10
106.8693765035
 20
114.2293188891
 30
0.0
 10
107.6327990356
 20
113.8902906007
 30
0.0
 10
108.3602942961
 20
113.4872671573
 30
0.0
 10
109.0347129491
 20
113.010034195
 30
0.0
 10
109.5303230889
 20
112.5344944993
 30
0.0
 10
109.8533951618
 20
112.0985388952
 30
0.0
 10
110.04544538
 20
111.7435482378
 30
0.0
 10
110.1717670868
 20
111.3623677874
 30
0.0
 10
110.2014998868
 20
111.0962639571
 30
0.0
 10
110.2014998868
 20
110.9639595123
 30
0.0
  0
SPLINE
  5
56D
100
AcDbEntity
  8
RUNDUNGEN
100
AcDbSpline
 62
7
  6
CONTINUOUS
 70
0
 71
3
 72
14
 73
10
 74
0
 42
0.0000001
 43
0.0000001
 44
0.0000000001
 40
0.0
 40
0.0
 40
0.0
 40
0.0
 40
0.0909366748
 40
0.1878685312
 40
0.2952046508
 40
0.4151533241
 40
0.5478635868
 40
0.691774429
 40
1.0
 40
1.0
 40
1.0
 40
1.0
 10
84.320354424
 20
116.2022226083
 30
0.0
 10
84.320354424
 20
116.3176613804
 30
0.0
 10
84.3608012841
 20
116.5576704127
 30
0.0
 10
84.5355659525
 20
116.8946513157
 30
0.0
 10
84.8146598704
 20
117.2022245081
 30
0.0
 10
85.1874858229
 20
117.471061554
 30
0.0
 10
85.6419583339
 20
117.6925741646
 30
0.0
 10
86.3511417147
 20
117.9181283247
 30
0.0
 10
86.92908015
 20
117.9836526749
 30
0.0
 10
87.320354424
 20
117.9836526749
 30
0.0
  0
SPLINE
  5
56E
100
AcDbEntity
  8
RUNDUNGEN
100
AcDbSpline
 62
7
  6
CONTINUOUS
 70
0
 71
3
 72
14
 73
10
 74
0
 42
0.0000001
 43
0.0000001
 44
0.0000000001
 40
0.0
 40
0.0
 40
0.0
 40
0.0
 40
0.0909366748
 40
0.1878685312
 40
0.2952046508
 40
0.4151533241
 40
0.5478635868
 40
0.691774429
 40
1.0
 40
1.0
 40
1.0
 40
1.0
 10
84.320354424
 20
112.9882845599
 30
0.0
 10
84.320354424
 20
113.1037233319
 30
0.0
 10
84.3608012841
 20
113.3437323642
 30
0.0
 10
84.5355659525
 20
113.6807132673
 30
0.0
 10
84.8146598704
 20
113.9882864597
 30
0.0
 10
85.1874858229
 20
114.2571235055
 30
0.0
 10
85.6419583339
 20
114.4786361161
 30
0.0
 10
86.3511417147
 20
114.7041902763
 30
0.0
 10
86.92908015
 20
114.7697146265
 30
0.0
 10
87.320354424
 20
114.7697146265
 30
0.0
  0
SPLINE
  5
56F
100
AcDbEntity
  8
0
100
AcDbSpline
 62
7
  6
CONTINUOUS
 70
0
 71
3
 72
13
 73
9
 74
0
 42
0.0000001
 43
0.0000001
 44
0.0000000001
 40
0.0
 40
0.0
 40
0.0
 40
0.0
 40
0.0466624294
 40
0.1150355819
 40
0.2059833062
 40
0.3197368416
 40
0.61543668
 40
1.0
 40
1.0
 40
1.0
 40
1.0
 10
90.3725906188
 20
95.6074260313
 30
0.0
 10
90.3804505648
 20
95.6121741712
 30
0.0
 10
90.3971784224
 20
95.6278940471
 30
0.0
 10
90.4227028745
 20
95.6593158337
 30
0.0
 10
90.4533001251
 20
95.7035877342
 30
0.0
 10
90.5054582672
 20
95.7871125583
 30
0.0
 10
90.5818470639
 20
95.923513357
 30
0.0
 10
90.6441478231
 20
96.041995576
 30
0.0
 10
90.6789082852
 20
96.1092191747
 30
0.0
  0
SPLINE
  5
570
100
AcDbEntity
  8
KONSTRUKTIONSELEMENTE
100
AcDbSpline
 62
7
  6
CONTINUOUS
 70
0
 71
3
 72
18
 73
14
 74
0
 42
0.0000001
 43
0.0000001
 44
0.0000000001
 40
0.0
 40
0.0
 40
0.0
 40
0.0
 40
0.1475541955
 40
0.2989471579
 40
0.4495481689
 40
0.5937004854
 40
0.7254666348
 40
0.7849712687
 40
0.8394188774
 40
0.8883414529
 40
0.9314210558
 40
0.9685718713
 40
1.0
 40
1.0
 40
1.0
 40
1.0
 10
92.3884788416
 20
107.6280507085
 30
0.0
 10
92.1404084083
 20
107.1407348747
 30
0.0
 10
91.6960816087
 20
106.1231985497
 30
0.0
 10
91.1730123619
 20
104.5396260414
 30
0.0
 10
90.776261778
 20
102.9330069023
 30
0.0
 10
90.5035878768
 20
101.3749367306
 30
0.0
 10
90.3732844049
 20
100.1374321226
 30
0.0
 10
90.3347545369
 20
99.2273708663
 30
0.0
 10
90.3379500307
 20
98.6234999277
 30
0.0
 10
90.3720229988
 20
98.0814886211
 30
0.0
 10
90.4369977619
 20
97.6066741426
 30
0.0
 10
90.5329689149
 20
97.2034314824
 30
0.0
 10
90.6254119009
 20
96.9651206723
 30
0.0
 10
90.6789082852
 20
96.86166349
 30
0.0
  0
SPLINE
  5
571
100
AcDbEntity
  8
KONSTRUKTIONSELEMENTE
100
AcDbSpline
 62
7
  6
CONTINUOUS
 70
0
 71
3
 72
18
 73
14
 74
0
 42
0.0000001
 43
0.0000001
 44
0.0000000001
 40
0.0
 40
0.0
 40
0.0
 40
0.0
 40
0.0314281287
 40
0.0685789442
 40
0.1116585471
 40
0.1605811226
 40
0.2150287313
 40
0.2745333652
 40
0.4062995146
 40
0.5504518311
 40
0.7010528421
 40
0.8524458045
 40
1.0
 40
1.0
 40
1.0
 40
1.0
 10
112.4618005628
 20
96.86166349
 30
0.0
 10
112.5152969471
 20
96.9651206723
 30
0.0
 10
112.6077399331
 20
97.2034314824
 30
0.0
 10
112.7037110861
 20
97.6066741426
 30
0.0
 10
112.7686858491
 20
98.0814886211
 30
0.0
 10
112.8027588173
 20
98.6234999277
 30
0.0
 10
112.8059543111
 20
99.2273708663
 30
0.0
 10
112.7674244431
 20
100.1374321226
 30
0.0
 10
112.6371209712
 20
101.3749367306
 30
0.0
 10
112.3644470699
 20
102.9330069023
 30
0.0
 10
111.9676964861
 20
104.5396260414
 30
0.0
 10
111.4446272393
 20
106.1231985497
 30
0.0
 10
111.0003004397
 20
107.1407348747
 30
0.0
 10
110.7522300064
 20
107.6280507085
 30
0.0
  0
SPLINE
  5
572
100
AcDbEntity
  8
0
100
AcDbSpline
 62
7
  6
CONTINUOUS
 70
0
 71
3
 72
13
 73
9
 74
0
 42
0.0000001
 43
0.0000001
 44
0.0000000001
 40
0.0
 40
0.0
 40
0.0
 40
0.0
 40
0.3293886346
 40
0.4619949473
 40
0.5768668785
 40
0.6795237342
 40
0.7781998855
 40
1.0
 40
1.0
 40
1.0
 40
1.0
 10
87.0829655017
 20
96.1180588619
 30
0.0
 10
87.0829655017
 20
96.0444629927
 30
0.0
 10
87.0763060606
 20
95.9402302545
 30
0.0
 10
87.039722487
 20
95.8160725778
 30
0.0
 10
87.0031109321
 20
95.7461720415
 30
0.0
 10
86.9543722074
 20
95.6935799987
 30
0.0
 10
86.8698004792
 20
95.6475706196
 30
0.0
 10
86.7933144796
 20
95.6488698402
 30
0.0
 10
86.7446800878
 20
95.6583887761
 30
0.0
  0
SPLINE
  5
573
100
AcDbEntity
  8
RUNDUNGEN
100
AcDbSpline
 62
7
  6
CONTINUOUS
 70
0
 71
3
 72
34
 73
30
 74
0
 42
0.0000001
 43
0.0000001
 44
0.0000000001
 40
0.0
 40
0.0
 40
0.0
 40
0.0
 40
0.0345438975
 40
0.0757740432
 40
0.1237083516
 40
0.1783242669
 40
0.2395301356
 40
0.3071667157
 40
0.3809867804
 40
0.4605979246
 40
0.5453776973
 40
0.6342982705
 40
0.6797873358
 40
0.7255245091
 40
0.7709853064
 40
0.8154187557
 40
0.8576968363
 40
0.8961372182
 40
0.913236073
 40
0.9285107315
 40
0.9416901131
 40
0.9525550457
 40
0.961092112
 40
0.9674751907
 40
0.9722373416
 40
0.9763418645
 40
0.9808233246
 40
0.9862201725
 40
1.0
 40
1.0
 40
1.0
 40
1.0
 10
87.0829655017
 20
96.8705031772
 30
0.0
 10
87.0829655017
 20
96.9461048466
 30
0.0
 10
87.0710541442
 20
97.111931776
 30
0.0
 10
87.0276192717
 20
97.3793737717
 30
0.0
 10
86.956581888
 20
97.686124638
 30
0.0
 10
86.8576273484
 20
98.0307128858
 30
0.0
 10
86.7303845364
 20
98.41163895
 30
0.0
 10
86.574529249
 20
98.8269870972
 30
0.0
 10
86.3898573752
 20
99.2742629207
 30
0.0
 10
86.1764151218
 20
99.7499922521
 30
0.0
 10
85.9347606275
 20
100.2490262749
 30
0.0
 10
85.7128877447
 20
100.67444079
 30
0.0
 10
85.5220546563
 20
101.0194617192
 30
0.0
 10
85.3725655945
 20
101.2786032956
 30
0.0
 10
85.2190254673
 20
101.5326741178
 30
0.0
 10
85.0635161245
 20
101.7766291897
 30
0.0
 10
84.9094092571
 20
102.0031185175
 30
0.0
 10
84.7819558513
 20
102.1752556751
 30
0.0
 10
84.6839088946
 20
102.2953223037
 30
0.0
 10
84.617687773
 20
102.369893641
 30
0.0
 10
84.5571179329
 20
102.43110462
 30
0.0
 10
84.5030511505
 20
102.4777460541
 30
0.0
 10
84.4561196771
 20
102.5094585176
 30
0.0
 10
84.416244961
 20
102.5266538008
 30
0.0
 10
84.381733531
 20
102.5290653376
 30
0.0
 10
84.3545894134
 20
102.5147368846
 30
0.0
 10
84.337457473
 20
102.4883794493
 30
0.0
 10
84.3222618858
 20
102.4386071039
 30
0.0
 10
84.320354424
 20
102.3961224187
 30
0.0
 10
84.320354424
 20
102.3659643288
 30
0.0
  0
SPLINE
  5
574
100
AcDbEntity
  8
0
100
AcDbSpline
 62
7
  6
CONTINUOUS
 70
0
 71
3
 72
11
 73
7
 74
0
 42
0.0000001
 43
0.0000001
 44
0.0000000001
 40
0.0
 40
0.0
 40
0.0
 40
0.0
 40
0.2568163914
 40
0.5
 40
0.7431836086
 40
1.0
 40
1.0
 40
1.0
 40
1.0
 10
112.4618005628
 20
96.86166349
 30
0.0
 10
112.4310010939
 20
96.8021000951
 30
0.0
 10
112.381630504
 20
96.6799084188
 30
0.0
 10
112.3549803981
 20
96.4854413323
 30
0.0
 10
112.381630504
 20
96.2909742459
 30
0.0
 10
112.4310010939
 20
96.1687825696
 30
0.0
 10
112.4618005628
 20
96.1092191747
 30
0.0
  0
SPLINE
  5
575
100
AcDbEntity
  8
0
100
AcDbSpline
 62
7
  6
CONTINUOUS
 70
0
 71
3
 72
11
 73
7
 74
0
 42
0.0000001
 43
0.0000001
 44
0.0000000001
 40
0.0
 40
0.0
 40
0.0
 40
0.0
 40
0.2568163914
 40
0.5
 40
0.7431836086
 40
1.0
 40
1.0
 40
1.0
 40
1.0
 10
90.6789082852
 20
96.1092191747
 30
0.0
 10
90.7097077541
 20
96.1687825696
 30
0.0
 10
90.759078344
 20
96.2909742459
 30
0.0
 10
90.7857284499
 20
96.4854413323
 30
0.0
 10
90.759078344
 20
96.6799084188
 30
0.0
 10
90.7097077541
 20
96.8021000951
 30
0.0
 10
90.6789082852
 20
96.86166349
 30
0.0
  0
SPLINE
  5
576
100
AcDbEntity
  8
RUNDUNGEN
100
AcDbSpline
 62
7
  6
CONTINUOUS
 70
0
 71
3
 72
14
 73
10
 74
0
 42
0.0000001
 43
0.0000001
 44
0.0000000001
 40
0.0
 40
0.0
 40
0.0
 40
0.0
 40
0.0909366748
 40
0.1878685312
 40
0.2952046508
 40
0.4151533241
 40
0.5478635868
 40
0.691774429
 40
1.0
 40
1.0
 40
1.0
 40
1.0
 10
118.820354424
 20
116.2022226083
 30
0.0
 10
118.820354424
 20
116.3176613804
 30
0.0
 10
118.7799075639
 20
116.5576704127
 30
0.0
 10
118.6051428955
 20
116.8946513157
 30
0.0
 10
118.3260489776
 20
117.2022245081
 30
0.0
 10
117.9532230251
 20
117.471061554
 30
0.0
 10
117.4987505141
 20
117.6925741646
 30
0.0
 10
116.7895671333
 20
117.9181283247
 30
0.0
 10
116.211628698
 20
117.9836526749
 30
0.0
 10
115.820354424
 20
117.9836526749
 30
0.0
  0
SPLINE
  5
577
100
AcDbEntity
  8
RUNDUNGEN
100
AcDbSpline
 62
7
  6
CONTINUOUS
 70
0
 71
3
 72
14
 73
10
 74
0
 42
0.0000001
 43
0.0000001
 44
0.0000000001
 40
0.0
 40
0.0
 40
0.0
 40
0.0
 40
0.0909366748
 40
0.1878685312
 40
0.2952046508
 40
0.4151533241
 40
0.5478635868
 40
0.691774429
 40
1.0
 40
1.0
 40
1.0
 40
1.0
 10
118.820354424
 20
112.9882845599
 30
0.0
 10
118.820354424
 20
113.1037233319
 30
0.0
 10
118.7799075639
 20
113.3437323642
 30
0.0
 10
118.6051428955
 20
113.6807132673
 30
0.0
 10
118.3260489776
 20
113.9882864597
 30
0.0
 10
117.9532230251
 20
114.2571235055
 30
0.0
 10
117.4987505141
 20
114.4786361161
 30
0.0
 10
116.7895671333
 20
114.7041902763
 30
0.0
 10
116.211628698
 20
114.7697146265
 30
0.0
 10
115.820354424
 20
114.7697146265
 30
0.0
  0
SPLINE
  5
578
100
AcDbEntity
  8
0
100
AcDbSpline
 62
7
  6
CONTINUOUS
 70
0
 71
3
 72
13
 73
9
 74
0
 42
0.0000001
 43
0.0000001
 44
0.0000000001
 40
0.0
 40
0.0
 40
0.0
 40
0.0
 40
0.2221781201
 40
0.320857303
 40
0.4234427897
 40
0.5382171664
 40
0.6707288656
 40
1.0
 40
1.0
 40
1.0
 40
1.0
 10
116.3972919887
 20
95.6586378085
 30
0.0
 10
116.3485112342
 20
95.6489354734
 30
0.0
 10
116.2717998847
 20
95.6473379741
 30
0.0
 10
116.1868317257
 20
95.6931650148
 30
0.0
 10
116.1378947233
 20
95.745720319
 30
0.0
 10
116.1011422754
 20
95.8156547625
 30
0.0
 10
116.064419025
 20
95.9399597341
 30
0.0
 10
116.0577433463
 20
96.044348991
 30
0.0
 10
116.0577433463
 20
96.1180588619
 30
0.0
  0
SPLINE
  5
579
100
AcDbEntity
  8
0
100
AcDbSpline
 62
7
  6
CONTINUOUS
 70
0
 71
3
 72
13
 73
9
 74
0
 42
0.0000001
 43
0.0000001
 44
0.0000000001
 40
0.0
 40
0.0
 40
0.0
 40
0.0
 40
0.38456332
 40
0.6802631584
 40
0.7940166938
 40
0.8849644181
 40
0.9533375706
 40
1.0
 40
1.0
 40
1.0
 40
1.0
 10
112.4618005628
 20
96.1092191747
 30
0.0
 10
112.4965610249
 20
96.041995576
 30
0.0
 10
112.5588617841
 20
95.923513357
 30
0.0
 10
112.6352505808
 20
95.7871125583
 30
0.0
 10
112.6874087229
 20
95.7035877342
 30
0.0
 10
112.7180059735
 20
95.6593158337
 30
0.0
 10
112.7435304256
 20
95.6278940471
 30
0.0
 10
112.7602582832
 20
95.6121741712
 30
0.0
 10
112.7681182292
 20
95.6074260313
 30
0.0
  0
ELLIPSE
  5
57A
100
AcDbEntity
  8
0
100
AcDbEllipse
 62
7
  6
CONTINUOUS
 10
361.6196207532
 20
117.2274236471
 30
0.0
 11
-2.7209717898
 21
4.2981106255
 31
0.0
 40
0.5071182934
 41
-1.6812517444
 42
-0.8981209173
  0
ELLIPSE
  5
57B
100
AcDbEntity
  8
RUNDUNGEN
100
AcDbEllipse
 62
7
  6
CONTINUOUS
 10
371.5690089925
 20
120.8487048153
 30
0.0
 11
-0.6783869357
 21
5.0415507133
 31
0.0
 40
0.5071182934
 41
0.8981209173
 42
1.6812517444
  0
ELLIPSE
  5
57C
100
AcDbEntity
  8
0
100
AcDbEllipse
 62
7
  6
CONTINUOUS
 10
339.9684184053
 20
117.2274236471
 30
0.0
 11
2.7209717898
 21
4.2981106255
 31
0.0
 40
0.5071182934
 41
0.8981209173
 42
1.6812517444
  0
ELLIPSE
  5
57D
100
AcDbEntity
  8
RUNDUNGEN
100
AcDbEllipse
 62
7
  6
CONTINUOUS
 10
330.0190301659
 20
120.8487048153
 30
0.0
 11
0.6783869357
 21
5.0415507133
 31
0.0
 40
0.5071182934
 41
-1.6812517444
 42
-0.8981209173
  0
ELLIPSE
  5
57E
100
AcDbEntity
  8
0
100
AcDbEllipse
 62
7
  6
CONTINUOUS
 10
101.570354424
 20
112.0239534439
 30
0.0
 11
-0.0
 21
4.2074847576
 31
0.0
 40
0.8793852416
 41
-1.5707963268
 42
-1.2886552492
  0
ELLIPSE
  5
57F
100
AcDbEntity
  8
0
100
AcDbEllipse
 62
7
  6
CONTINUOUS
 10
101.570354424
 20
112.0239534439
 30
0.0
 11
0.0
 21
4.2074847576
 31
0.0
 40
0.8793852416
 41
1.2886552492
 42
1.5707963268
  0
ELLIPSE
  5
580
100
AcDbEntity
  8
KONSTRUKTIONSELEMENTE
100
AcDbEllipse
 62
7
  6
CONTINUOUS
 10
101.570354424
 20
117.2190643831
 30
0.0
 11
3.7
 21
-0.0
 31
0.0
 40
0.742227199
 41
-0.0
 42
0.2821410776
  0
ELLIPSE
  5
581
100
AcDbEntity
  8
KONSTRUKTIONSELEMENTE
100
AcDbEllipse
 62
7
  6
CONTINUOUS
 10
101.570354424
 20
117.2190643831
 30
0.0
 11
3.7
 21
-0.0
 31
0.0
 40
0.742227199
 41
2.859451576
 42
3.1415926536
  0
ENDSEC
  0
SECTION
  2
OBJECTS
  0
DICTIONARY
  5
C
100
AcDbDictionary
280
0
281
1
  3
ACAD_GROUP
350
D
  3
ACAD_MLINESTYLE
350
17
  3
ACAD_LAYOUT
350
1A
  3
ACAD_PLOTSETTINGS
350
19
  3
ACAD_PLOTSTYLENAME
350
E
  0
DICTIONARY
  5
D
102
{ACAD_REACTORS
330
C
102
}
100
AcDbDictionary
280
0
281
1
  0
ACDBDICTIONARYWDFLT
  5
E
102
{ACAD_REACTORS
330
C
102
}
100
AcDbDictionary
281
1
  3
Normal
350
F
100
AcDbDictionaryWithDefault
340
F
  0
DICTIONARY
  5
17
102
{ACAD_REACTORS
330
C
102
}
100
AcDbDictionary
280
0
281
1
  3
Standard
350
18
  0
DICTIONARY
  5
19
102
{ACAD_REACTORS
330
C
102
}
100
AcDbDictionary
281
1
  0
DICTIONARY
  5
1A
102
{ACAD_REACTORS
330
C
102
}
100
AcDbDictionary
281
1
  3
Model
350
582
  3
Layout1
350
583
  0
ACDBPLACEHOLDER
  5
F
102
{ACAD_REACTORS
330
E
102
}
  0
MLINESTYLE
  5
18
102
{ACAD_REACTORS
330
17
102
}
100
AcDbMlineStyle
  2
STANDARD
 70
0
  3

 62
256
 51
90.0
 52
90.0
 71
2
 49
0.5
 62
256
  6
BYLAYER
 49
-0.5
 62
256
  6
BYLAYER
  0
LAYOUT
  5
582
102
{ACAD_REACTORS
330
1A
102
}
100
AcDbPlotSettings
  1

  2
none_device
  4
ISO_A3_(420.00_x_297.00_MM)
  6

 40
0.0
 41
0.0
 42
0.0
 43
0.0
 44
420.0
 45
297.0
 46
0.0
 47
0.0
 48
0.0
 49
0.0
140
0.0
141
0.0
142
1.0
143
1.0
 70
1024
 72
1
 73
0
 74
0
  7

 75
0
147
1.0
148
0.0
149
0.0
100
AcDbLayout
  1
Model
 70
0
 71
0
 10
0.0
 20
0.0
 11
420.0
 21
297.0
 12
0.0
 22
0.0
 32
0.0
 14
0.0
 24
0.0
 34
0.0
 15
0.0
 25
0.0
 35
0.0
146
0.0
 13
0.0
 23
0.0
 33
0.0
 16
1.0
 26
0.0
 36
0.0
 17
0.0
 27
1.0
 37
0.0
 76
0
330
20A
345
0
346
0
  0
LAYOUT
  5
583
102
{ACAD_REACTORS
330
1A
102
}
100
AcDbPlotSettings
  1

  2
none_device
  4
ISO_A3_(420.00_x_297.00_MM)
  6

 40
0.0
 41
0.0
 42
0.0
 43
0.0
 44
420.0
 45
297.0
 46
0.0
 47
0.0
 48
0.0
 49
0.0
140
0.0
141
0.0
142
1.0
143
1.0
 70
0
 72
1
 73
0
 74
0
  7

 75
0
147
1.0
148
0.0
149
0.0
100
AcDbLayout
  1
Layout1
 70
0
 71
1
 10
0.0
 20
0.0
 11
420.0
 21
297.0
 12
0.0
 22
0.0
 32
0.0
 14
0.0
 24
0.0
 34
0.0
 15
0.0
 25
0.0
 35
0.0
146
0.0
 13
0.0
 23
0.0
 33
0.0
 16
1.0
 26
0.0
 36
0.0
 17
0.0
 27
1.0
 37
0.0
 76
0
330
20B
345
0
346
0
  0
ENDSEC
  0
EOF
