999
DXF file: IBK-RG-2-16_7903079_M34553-P-5.dxf
999
Pro/ENGINEER 2010140 by Parametric Technology Corporation
  0
SECTION
  2
HEADER
  9
$ACADVER
  1
AC1015
  9
$DWGCODEPAGE
  3
ANSI_1252
  9
$EXTMAX
 10
594.0
 20
420.0
 30
0.0
  9
$EXTMIN
 10
0.0
 20
0.0
 30
0.0
  9
$LIMMIN
 10
0.0
 20
0.0
  9
$LIMMAX
 10
594.0
 20
420.0
  9
$VIEWCTR
 10
297.0
 20
210.0
  9
$VIEWSIZE
 40
420.0
  9
$CLAYER
  8
0
  9
$LTSCALE
 40
32.67
  9
$CELTYPE
  6
BYLAYER
  9
$DIMSCALE
 40
1.0
  9
$DIMASZ
 40
3.5
  9
$DIMEXO
 40
3.7125
  9
$DIMDLI
 40
22.572
  9
$DIMEXE
 40
10.692
  9
$DIMCEN
 40
5.346
  9
$DIMLFAC
 40
1.0
  9
$DIMBLK
  1
_FILLED
  9
$DIMTXT
 40
3.5
  9
$DIMTOL
 70
1
  9
$DIMLIM
 70
0
  9
$DIMTFAC
 40
1.0
  9
$DIMTP
 40
0.005
  9
$DIMTM
 40
0.005
  9
$PDMODE
 70
3
  9
$PDSIZE
 40
0.3125
  9
$HANDSEED
  5
504
  9
$TILEMODE
 70
1
  9
$MEASUREMENT
 70
1
  9
$INSUNITS
 70
4
  0
ENDSEC
  0
SECTION
  2
CLASSES
  0
CLASS
  1
ACDBDICTIONARYWDFLT
  2
AcDbDictionaryWithDefault
  3
AutoCAD 2000
 90
0
280
0
281
0
  0
CLASS
  1
ACDBPLACEHOLDER
  2
AcDbPlaceHolder
  3
AutoCAD 2000
 90
0
280
0
281
0
  0
CLASS
  1
LAYOUT
  2
AcDbLayout
  3
AutoCAD 2000
 90
0
280
0
281
0
  0
ENDSEC
  0
SECTION
  2
TABLES
  0
TABLE
  2
VPORT
  5
8
100
AcDbSymbolTable
 70
2
  0
VPORT
  5
1F4
100
AcDbSymbolTableRecord
100
AcDbViewportTableRecord
  2
*ACTIVE
 70
0
 10
0.0
 20
0.0
 11
1.0
 21
1.0
 12
297.0
 22
210.0
 13
0.0
 23
0.0
 14
1.0
 24
1.0
 15
0.0
 25
0.0
 16
0.0
 26
0.0
 36
1.0
 17
0.0
 27
0.0
 37
0.0
 40
420.0
 41
1.4142857143
 42
50.0
 43
0.0
 44
0.0
 50
0.0
 51
0.0
 71
0
 72
100
 73
1
 74
1
 75
0
 76
0
 77
0
 78
0
  0
ENDTAB
  0
TABLE
  2
LTYPE
  5
5
100
AcDbSymbolTable
 70
6
  0
LTYPE
  5
14
100
AcDbSymbolTableRecord
100
AcDbLinetypeTableRecord
  2
BYBLOCK
 70
0
  3

 72
65
 73
0
 40
0.0
  0
LTYPE
  5
15
100
AcDbSymbolTableRecord
100
AcDbLinetypeTableRecord
  2
BYLAYER
 70
0
  3

 72
65
 73
0
 40
0.0
  0
LTYPE
  5
16
100
AcDbSymbolTableRecord
100
AcDbLinetypeTableRecord
  2
CONTINUOUS
 70
64
  3
Solid line
 72
65
 73
0
 40
0.0
  0
LTYPE
  5
1F5
100
AcDbSymbolTableRecord
100
AcDbLinetypeTableRecord
  2
CENTER
 70
64
  3
____ _ ____ _ ____ _ ____ _ ____ _ ____ _ ____
 72
65
 73
4
 40
0.6
 49
0.375
 74
0
 49
-0.075
 74
0
 49
0.075
 74
0
 49
-0.075
 74
0
  0
LTYPE
  5
1F6
100
AcDbSymbolTableRecord
100
AcDbLinetypeTableRecord
  2
HIDDEN
 70
64
  3
- - - - - - - - - - - - - - - - - - - -
 72
65
 73
2
 40
0.2
 49
0.1
 74
0
 49
-0.1
 74
0
  0
LTYPE
  5
1F7
100
AcDbSymbolTableRecord
100
AcDbLinetypeTableRecord
  2
PHANTOM
 70
64
  3
_____ _ _ _____ _ _ _____ _ _ _____
 72
65
 73
6
 40
0.8
 49
0.45
 74
0
 49
-0.05
 74
0
 49
0.1
 74
0
 49
-0.05
 74
0
 49
0.1
 74
0
 49
-0.05
 74
0
  0
LTYPE
  5
1F8
100
AcDbSymbolTableRecord
100
AcDbLinetypeTableRecord
  2
DOT
 70
64
  3
. . . . . . . . . . . . . . . . . . . .
 72
65
 73
2
 40
0.2
 49
0.1
 74
0
 49
-0.1
 74
0
  0
LTYPE
  5
1F9
100
AcDbSymbolTableRecord
100
AcDbLinetypeTableRecord
  2
DASHED
 70
64
  3
- - - - - - - - - - - - - - - - - - - -
 72
65
 73
2
 40
0.2
 49
0.1
 74
0
 49
-0.1
 74
0
  0
ENDTAB
  0
TABLE
  2
LAYER
  5
2
100
AcDbSymbolTable
 70
36
  0
LAYER
  5
10
100
AcDbSymbolTableRecord
100
AcDbLayerTableRecord
  2
0
 70
0
 62
7
  6
CONTINUOUS
370
-3
390
F
  0
LAYER
  5
1FA
100
AcDbSymbolTableRecord
100
AcDbLayerTableRecord
  2
DEFAULT_1
 70
0
 62
7
  6
CENTER
370
-3
390
F
  0
LAYER
  5
1FB
100
AcDbSymbolTableRecord
100
AcDbLayerTableRecord
  2
DEFAULT_2
 70
0
 62
8
  6
HIDDEN
370
-3
390
F
  0
LAYER
  5
1FC
100
AcDbSymbolTableRecord
100
AcDbLayerTableRecord
  2
DEFAULT_3
 70
0
 62
7
  6
PHANTOM
370
-3
390
F
  0
LAYER
  5
1FD
100
AcDbSymbolTableRecord
100
AcDbLayerTableRecord
  2
BEZUGSACHSEN
 70
0
 62
7
  6
CONTINUOUS
370
-3
390
F
  0
LAYER
  5
1FE
100
AcDbSymbolTableRecord
100
AcDbLayerTableRecord
  2
BEZUGSEBENEN
 70
0
 62
7
  6
CONTINUOUS
370
-3
390
F
  0
LAYER
  5
1FF
100
AcDbSymbolTableRecord
100
AcDbLayerTableRecord
  2
BG_STARTBEZUEGE
 70
0
 62
7
  6
CONTINUOUS
370
-3
390
F
  0
LAYER
  5
200
100
AcDbSymbolTableRecord
100
AcDbLayerTableRecord
  2
FASEN
 70
0
 62
7
  6
CONTINUOUS
370
-3
390
F
  0
LAYER
  5
201
100
AcDbSymbolTableRecord
100
AcDbLayerTableRecord
  2
HILFEN
 70
0
 62
7
  6
CONTINUOUS
370
-3
390
F
  0
LAYER
  5
202
100
AcDbSymbolTableRecord
100
AcDbLayerTableRecord
  2
KONSTRUKTIONSELEMENTE
 70
0
 62
7
  6
CONTINUOUS
370
-3
390
F
  0
LAYER
  5
203
100
AcDbSymbolTableRecord
100
AcDbLayerTableRecord
  2
NORM
 70
0
 62
7
  6
CONTINUOUS
370
-3
390
F
  0
LAYER
  5
204
100
AcDbSymbolTableRecord
100
AcDbLayerTableRecord
  2
PLATZIERUNG
 70
0
 62
7
  6
CONTINUOUS
370
-3
390
F
  0
LAYER
  5
205
100
AcDbSymbolTableRecord
100
AcDbLayerTableRecord
  2
RUNDUNGEN
 70
0
 62
7
  6
CONTINUOUS
370
-3
390
F
  0
LAYER
  5
206
100
AcDbSymbolTableRecord
100
AcDbLayerTableRecord
  2
TEIL_STARTBEZUEGE
 70
0
 62
7
  6
CONTINUOUS
370
-3
390
F
  0
LAYER
  5
207
100
AcDbSymbolTableRecord
100
AcDbLayerTableRecord
  2
T_STARTBEZUEGE
 70
0
 62
7
  6
CONTINUOUS
370
-3
390
F
  0
ENDTAB
  0
TABLE
  2
STYLE
  5
3
100
AcDbSymbolTable
 70
1
  0
STYLE
  5
11
100
AcDbSymbolTableRecord
100
AcDbTextStyleTableRecord
  2
STANDARD
 70
0
 40
0.0
 41
0.7
 50
0.0
 71
0
 42
0.2
  3
txt
  4

  0
STYLE
  5
208
100
AcDbSymbolTableRecord
100
AcDbTextStyleTableRecord
  2
TEXTSTYLE_1
 70
0
 40
0.0
 41
0.8
 50
0.0
 71
0
 42
0.2
  3
gdt
  4

  0
ENDTAB
  0
TABLE
  2
VIEW
  5
6
100
AcDbSymbolTable
 70
0
  0
ENDTAB
  0
TABLE
  2
UCS
  5
7
100
AcDbSymbolTable
 70
0
  0
ENDTAB
  0
TABLE
  2
APPID
  5
9
100
AcDbSymbolTable
 70
1
  0
APPID
  5
209
100
AcDbSymbolTableRecord
100
AcDbRegAppTableRecord
  2
ACAD
 70
0
  0
ENDTAB
  0
TABLE
  2
BLOCK_RECORD
  5
1
100
AcDbSymbolTable
 70
0
  0
BLOCK_RECORD
  5
20A
100
AcDbSymbolTableRecord
100
AcDbBlockTableRecord
  2
*Model_Space
  0
BLOCK_RECORD
  5
20B
100
AcDbSymbolTableRecord
100
AcDbBlockTableRecord
  2
*Paper_Space
  0
ENDTAB
  0
TABLE
  2
DIMSTYLE
  5
A
100
AcDbSymbolTable
 70
1
100
AcDbDimStyleTable
 71
0
  0
DIMSTYLE
105
20C
100
AcDbSymbolTableRecord
100
AcDbDimStyleTableRecord
  2
STANDARD
 70
0
  3

  4

 40
1.0
 41
3.5
 42
0.0625
 43
0.38
 44
0.18
 45
0.0
 46
0.0
 47
0.005
 48
0.005
140
3.5
141
0.09
142
0.0
143
25.4
144
1.0
145
0.0
146
1.0
147
0.09
 71
1.0
 72
0.0
 73
0
 74
0
 75
0
 76
0
 77
1
 78
8
170
0
171
2
172
0
173
0
174
0
175
0
176
0
177
0
178
5
270
2
271
3
272
3
273
2
274
2
275
0
280
0
281
0
282
0
283
1
284
8
285
0
286
0
287
3
288
0
340
11
  0
ENDTAB
  0
ENDSEC
  0
SECTION
  2
BLOCKS
  0
BLOCK
  5
20
100
AcDbEntity
  8
0
100
AcDbBlockBegin
  2
*Model_Space
 70
0
 10
0.0
 20
0.0
 30
0.0
  3
*Model_Space
  1

  0
ENDBLK
  5
21
100
AcDbEntity
  8
0
100
AcDbBlockEnd
  0
BLOCK
  5
1C
100
AcDbEntity
  8
0
100
AcDbBlockBegin
  2
*Paper_Space
 70
0
 10
0.0
 20
0.0
 30
0.0
  3
*Paper_Space
  1

  0
ENDBLK
  5
1D
100
AcDbEntity
  8
0
100
AcDbBlockEnd
  0
ENDSEC
  0
SECTION
  2
ENTITIES
  0
MTEXT
  5
20D
100
AcDbEntity
  8
0
100
AcDbMText
 62
5
  6
CONTINUOUS
  7
STANDARD
 71
1
 72
1
 10
444.4055982225
 20
244.6340435352
 30
0.0
 11
0.0
 21
1.0
 31
0.0
 44
0.9
  1
RUD
 40
9.0
 41
24.0
  0
MTEXT
  5
20E
100
AcDbEntity
  8
0
100
AcDbMText
 62
5
  6
CONTINUOUS
  7
STANDARD
 71
1
 72
1
 10
551.9190998984
 20
223.3529192899
 30
0.0
 11
0.0
 21
1.0
 31
0.0
 44
0.9
  1
IBK-RG 2-16
 40
9.0
 41
75.0
  0
MTEXT
  5
20F
100
AcDbEntity
  8
0
100
AcDbMText
 62
5
  6
CONTINUOUS
  7
STANDARD
 71
1
 72
1
 10
112.3819620032
 20
215.9700856548
 30
0.0
 11
0.0
 21
1.0
 31
0.0
 44
0.9
  1
RUD IBK-RG 2-16
 40
9.0
 41
104.3571428571
  0
LINE
  5
210
100
AcDbEntity
  8
0
100
AcDbLine
 62
7
  6
CONTINUOUS
 10
0.0
 20
0.0
 11
0.0
 21
420.0
  0
LINE
  5
211
100
AcDbEntity
  8
0
100
AcDbLine
 62
7
  6
CONTINUOUS
 10
0.0
 20
0.0
 11
594.0
 21
0.0
  0
LINE
  5
212
100
AcDbEntity
  8
0
100
AcDbLine
 62
7
  6
CONTINUOUS
 10
0.0
 20
420.0
 11
594.0
 21
420.0
  0
LINE
  5
213
100
AcDbEntity
  8
0
100
AcDbLine
 62
7
  6
CONTINUOUS
 10
594.0
 20
0.0
 11
594.0
 21
420.0
  0
LINE
  5
214
100
AcDbEntity
  8
RUNDUNGEN
100
AcDbLine
 62
7
  6
CONTINUOUS
 10
197.373043864
 20
66.8847282091
 11
195.2599525553
 21
71.4162671443
  0
LINE
  5
215
100
AcDbEntity
  8
0
100
AcDbLine
 62
7
  6
CONTINUOUS
 10
444.4537257846
 20
66.4209205893
 11
446.5131561323
 21
65.6713492432
  0
LINE
  5
216
100
AcDbEntity
  8
0
100
AcDbLine
 62
7
  6
CONTINUOUS
 10
438.5281439962
 20
81.3492528659
 11
460.6481621542
 21
73.2982246749
  0
LINE
  5
217
100
AcDbEntity
  8
RUNDUNGEN
100
AcDbLine
 62
7
  6
CONTINUOUS
 10
317.8379266237
 20
128.5753151735
 11
319.9510179324
 21
124.0437762383
  0
LINE
  5
218
100
AcDbEntity
  8
0
100
AcDbLine
 62
7
  6
CONTINUOUS
 10
455.8202137386
 20
106.1435951737
 11
463.3391642438
 21
103.4069209969
  0
LINE
  5
219
100
AcDbEntity
  8
KONSTRUKTIONSELEMENTE
100
AcDbLine
 62
7
  6
CONTINUOUS
 10
334.1915612692
 20
138.4630649812
 11
332.0784699605
 21
142.9946039164
  0
LINE
  5
21A
100
AcDbEntity
  8
KONSTRUKTIONSELEMENTE
100
AcDbLine
 62
7
  6
CONTINUOUS
 10
334.6447151627
 20
138.6743741121
 11
332.531623854
 21
143.2059130473
  0
LINE
  5
21B
100
AcDbEntity
  8
0
100
AcDbLine
 62
7
  6
CONTINUOUS
 10
467.3084188127
 20
114.3123582971
 11
459.7894683075
 21
117.0490324739
  0
LINE
  5
21C
100
AcDbEntity
  8
RUNDUNGEN
100
AcDbLine
 62
7
  6
CONTINUOUS
 10
340.8575075097
 20
133.7926324334
 11
338.744416201
 21
138.3241713686
  0
LINE
  5
21D
100
AcDbEntity
  8
0
100
AcDbLine
 62
7
  6
CONTINUOUS
 10
474.124804423
 20
128.8428015921
 11
463.9078029019
 21
132.5614860292
  0
LINE
  5
21E
100
AcDbEntity
  8
0
100
AcDbLine
 62
7
  6
CONTINUOUS
 10
482.4962635333
 20
155.2667934719
 11
474.4799077484
 21
158.1845083649
  0
LINE
  5
21F
100
AcDbEntity
  8
0
100
AcDbLine
 62
7
  6
CONTINUOUS
 10
491.9680455118
 20
181.2903005797
 11
483.9516897268
 21
184.2080154727
  0
LINE
  5
220
100
AcDbEntity
  8
RUNDUNGEN
100
AcDbLine
 62
7
  6
CONTINUOUS
 10
566.8478089283
 20
115.4292616953
 11
558.9929948912
 21
120.9292616953
  0
LINE
  5
221
100
AcDbEntity
  8
KONSTRUKTIONSELEMENTE
100
AcDbLine
 62
7
  6
CONTINUOUS
 10
412.5871848478
 20
175.0195446218
 11
410.4740935391
 21
179.551083557
  0
LINE
  5
222
100
AcDbEntity
  8
KONSTRUKTIONSELEMENTE
100
AcDbLine
 62
7
  6
CONTINUOUS
 10
413.0403387413
 20
175.2308537527
 11
410.9272474326
 21
179.7623926879
  0
LINE
  5
223
100
AcDbEntity
  8
0
100
AcDbLine
 62
7
  6
CONTINUOUS
 10
498.9018711582
 20
200.3408299737
 11
490.8855153733
 21
203.2585448667
  0
LINE
  5
224
100
AcDbEntity
  8
0
100
AcDbLine
 62
7
  6
CONTINUOUS
 10
493.4234717053
 20
210.2315225805
 11
501.4398274902
 21
207.3138076875
  0
LINE
  5
225
100
AcDbEntity
  8
0
100
AcDbLine
 62
7
  6
CONTINUOUS
 10
433.1485302281
 20
211.9954701451
 11
433.1485302281
 21
306.9954701451
  0
LINE
  5
226
100
AcDbEntity
  8
KONSTRUKTIONSELEMENTE
100
AcDbLine
 62
7
  6
CONTINUOUS
 10
416.0932018188
 20
182.1713167798
 11
410.9272474326
 21
179.7623926879
  0
LINE
  5
227
100
AcDbEntity
  8
KONSTRUKTIONSELEMENTE
100
AcDbLine
 62
7
  6
CONTINUOUS
 10
410.4740935391
 20
179.551083557
 11
405.308139153
 21
177.1421594651
  0
LINE
  5
228
100
AcDbEntity
  8
KONSTRUKTIONSELEMENTE
100
AcDbLine
 62
7
  6
CONTINUOUS
 10
337.6975782401
 20
145.6148371392
 11
332.531623854
 21
143.2059130473
  0
LINE
  5
229
100
AcDbEntity
  8
KONSTRUKTIONSELEMENTE
100
AcDbLine
 62
7
  6
CONTINUOUS
 10
332.0784699605
 20
142.9946039164
 11
326.9125155743
 21
140.5856798245
  0
LINE
  5
22A
100
AcDbEntity
  8
KONSTRUKTIONSELEMENTE
100
AcDbLine
 62
7
  6
CONTINUOUS
 10
378.7286484583
 20
163.0377036299
 11
365.1340316527
 21
156.6984297038
  0
LINE
  5
22B
100
AcDbEntity
  8
KONSTRUKTIONSELEMENTE
100
AcDbLine
 62
7
  6
CONTINUOUS
 10
418.2062931275
 20
177.6397778446
 11
413.0403387413
 21
175.2308537527
  0
LINE
  5
22C
100
AcDbEntity
  8
KONSTRUKTIONSELEMENTE
100
AcDbLine
 62
7
  6
CONTINUOUS
 10
412.5871848478
 20
175.0195446218
 11
407.4212304617
 21
172.6106205299
  0
LINE
  5
22D
100
AcDbEntity
  8
KONSTRUKTIONSELEMENTE
100
AcDbLine
 62
7
  6
CONTINUOUS
 10
339.8106695488
 20
141.083298204
 11
334.6447151627
 21
138.6743741121
  0
LINE
  5
22E
100
AcDbEntity
  8
KONSTRUKTIONSELEMENTE
100
AcDbLine
 62
7
  6
CONTINUOUS
 10
334.1915612692
 20
138.4630649812
 11
329.025606883
 21
136.0541408893
  0
LINE
  5
22F
100
AcDbEntity
  8
KONSTRUKTIONSELEMENTE
100
AcDbLine
 62
7
  6
CONTINUOUS
 10
418.0308946672
 20
176.951130344
 11
470.5354747489
 21
201.4344181243
  0
LINE
  5
230
100
AcDbEntity
  8
KONSTRUKTIONSELEMENTE
100
AcDbLine
 62
7
  6
CONTINUOUS
 10
380.6304306361
 20
158.9593185882
 11
367.0358138305
 21
152.6200446621
  0
LINE
  5
231
100
AcDbEntity
  8
RUNDUNGEN
100
AcDbLine
 62
7
  6
CONTINUOUS
 10
195.2599525553
 20
71.4162671443
 11
338.7446725405
 21
138.3242909016
  0
LINE
  5
232
100
AcDbEntity
  8
KONSTRUKTIONSELEMENTE
100
AcDbLine
 62
7
  6
CONTINUOUS
 10
342.4140455675
 20
139.759503165
 11
366.3932058999
 21
150.9411692641
  0
LINE
  5
233
100
AcDbEntity
  8
KONSTRUKTIONSELEMENTE
100
AcDbLine
 62
7
  6
CONTINUOUS
 10
382.2915881971
 20
158.3547066816
 11
406.2707485295
 21
169.5363727807
  0
LINE
  5
234
100
AcDbEntity
  8
KONSTRUKTIONSELEMENTE
100
AcDbLine
 62
7
  6
CONTINUOUS
 10
344.3158277453
 20
135.6811181233
 11
368.2949880777
 21
146.8627842225
  0
LINE
  5
235
100
AcDbEntity
  8
KONSTRUKTIONSELEMENTE
100
AcDbLine
 62
7
  6
CONTINUOUS
 10
384.1933703749
 20
154.2763216399
 11
408.1725307073
 21
165.4579877391
  0
LINE
  5
236
100
AcDbEntity
  8
RUNDUNGEN
100
AcDbLine
 62
7
  6
CONTINUOUS
 10
197.373043864
 20
66.8847282091
 11
340.8577454049
 21
133.7927433657
  0
LINE
  5
237
100
AcDbEntity
  8
KONSTRUKTIONSELEMENTE
100
AcDbLine
 62
7
  6
CONTINUOUS
 10
369.9941416627
 20
146.2758901528
 11
383.5887584683
 21
152.6151640789
  0
LINE
  5
238
100
AcDbEntity
  8
KONSTRUKTIONSELEMENTE
100
AcDbLine
 62
7
  6
CONTINUOUS
 10
421.4731123276
 20
169.7292394483
 11
473.9164208429
 21
194.183955828
  0
LINE
  5
239
100
AcDbEntity
  8
KONSTRUKTIONSELEMENTE
100
AcDbLine
 62
7
  6
CONTINUOUS
 10
332.8714330649
 20
127.8067400273
 11
343.6564957306
 21
132.835897342
  0
LINE
  5
23A
100
AcDbEntity
  8
KONSTRUKTIONSELEMENTE
100
AcDbLine
 62
7
  6
CONTINUOUS
 10
411.2670566436
 20
164.3632196679
 11
422.0521193093
 21
169.3923769826
  0
LINE
  5
23B
100
AcDbEntity
  8
KONSTRUKTIONSELEMENTE
100
AcDbLine
 62
7
  6
CONTINUOUS
 10
371.8959238406
 20
142.1975051112
 11
385.4905406461
 21
148.5367790373
  0
LINE
  5
23C
100
AcDbEntity
  8
KONSTRUKTIONSELEMENTE
100
AcDbLine
 62
7
  6
CONTINUOUS
 10
334.9845243736
 20
123.2752010921
 11
345.7695870393
 21
128.3043584068
  0
LINE
  5
23D
100
AcDbEntity
  8
KONSTRUKTIONSELEMENTE
100
AcDbLine
 62
7
  6
CONTINUOUS
 10
413.3801479523
 20
159.8316807327
 11
424.165210618
 21
164.8608380474
  0
LINE
  5
23E
100
AcDbEntity
  8
0
100
AcDbLine
 62
7
  6
CONTINUOUS
 10
511.8735887508
 20
210.2315225805
 11
503.8572329659
 21
207.3138076875
  0
LINE
  5
23F
100
AcDbEntity
  8
0
100
AcDbLine
 62
7
  6
CONTINUOUS
 10
506.3951892979
 20
200.3408299737
 11
514.4115450828
 21
203.2585448667
  0
LINE
  5
240
100
AcDbEntity
  8
0
100
AcDbLine
 62
7
  6
CONTINUOUS
 10
480.1329999132
 20
108.6165365356
 11
482.6148047047
 21
99.354314959
  0
LINE
  5
241
100
AcDbEntity
  8
0
100
AcDbLine
 62
7
  6
CONTINUOUS
 10
465.1485302281
 20
211.9954701451
 11
465.1485302281
 21
306.9954701451
  0
LINE
  5
242
100
AcDbEntity
  8
0
100
AcDbLine
 62
7
  6
CONTINUOUS
 10
513.3290149443
 20
181.2903005797
 11
521.3453707293
 21
184.2080154727
  0
LINE
  5
243
100
AcDbEntity
  8
RUNDUNGEN
100
AcDbLine
 62
7
  6
CONTINUOUS
 10
455.8202137386
 20
106.1435951737
 11
461.5613468718
 21
127.7686135018
  0
LINE
  5
244
100
AcDbEntity
  8
0
100
AcDbLine
 62
7
  6
CONTINUOUS
 10
459.7894683075
 20
117.0490324739
 11
463.9078029019
 21
132.5614860292
  0
LINE
  5
245
100
AcDbEntity
  8
RUNDUNGEN
100
AcDbLine
 62
7
  6
CONTINUOUS
 10
431.0630529166
 20
95.1358477953
 11
438.4492515278
 21
115.4292616953
  0
LINE
  5
246
100
AcDbEntity
  8
RUNDUNGEN
100
AcDbLine
 62
7
  6
CONTINUOUS
 10
446.3040655649
 20
120.9292616953
 11
451.1420040953
 21
134.2213885643
  0
LINE
  5
247
100
AcDbEntity
  8
BEZUGSACHSEN
100
AcDbLine
 62
7
  6
CONTINUOUS
 10
479.1824792078
 20
193.7191343658
 11
464.7229246712
 21
153.991834781
  0
LINE
  5
248
100
AcDbEntity
  8
RUNDUNGEN
100
AcDbLine
 62
7
  6
CONTINUOUS
 10
464.7228214085
 20
153.991551069
 11
459.2934843187
 21
139.0745700123
  0
LINE
  5
249
100
AcDbEntity
  8
KONSTRUKTIONSELEMENTE
100
AcDbLine
 62
7
  6
CONTINUOUS
 10
459.2934843187
 20
139.0745700123
 11
464.7229246712
 21
153.991834781
  0
LINE
  5
24A
100
AcDbEntity
  8
KONSTRUKTIONSELEMENTE
100
AcDbLine
 62
7
  6
CONTINUOUS
 10
493.4234717053
 20
210.2315225805
 11
481.734390274
 21
197.8541182134
  0
LINE
  5
24B
100
AcDbEntity
  8
KONSTRUKTIONSELEMENTE
100
AcDbLine
 62
7
  6
CONTINUOUS
 10
511.8735887508
 20
210.2315225805
 11
523.5626701822
 21
197.8541182134
  0
LINE
  5
24C
100
AcDbEntity
  8
0
100
AcDbLine
 62
7
  6
CONTINUOUS
 10
541.9578962123
 20
103.4069209969
 11
532.4555655057
 21
123.6629753631
  0
LINE
  5
24D
100
AcDbEntity
  8
0
100
AcDbLine
 62
7
  6
CONTINUOUS
 10
537.9886416434
 20
114.3123582971
 11
531.1722560332
 21
128.8428015921
  0
LINE
  5
24E
100
AcDbEntity
  8
0
100
AcDbLine
 62
7
  6
CONTINUOUS
 10
530.0684543626
 20
79.060901059
 11
522.6822557514
 21
99.354314959
  0
LINE
  5
24F
100
AcDbEntity
  8
0
100
AcDbLine
 62
7
  6
CONTINUOUS
 10
520.3261220125
 20
121.9086634046
 11
525.1640605429
 21
108.6165365356
  0
LINE
  5
250
100
AcDbEntity
  8
0
100
AcDbLine
 62
7
  6
CONTINUOUS
 10
518.0216160768
 20
145.7830678269
 11
523.4509532386
 21
130.8660865725
  0
LINE
  5
251
100
AcDbEntity
  8
BEZUGSACHSEN
100
AcDbLine
 62
7
  6
CONTINUOUS
 10
518.0215128861
 20
145.7833513412
 11
503.5619583494
 21
185.510650926
  0
LINE
  5
252
100
AcDbEntity
  8
0
100
AcDbLine
 62
7
  6
CONTINUOUS
 10
502.4381411986
 20
190.3185691391
 11
501.4398274902
 21
207.3138076875
  0
LINE
  5
253
100
AcDbEntity
  8
0
100
AcDbLine
 62
7
  6
CONTINUOUS
 10
479.4228957041
 20
144.5320207252
 11
474.124804423
 21
128.8428015921
  0
LINE
  5
254
100
AcDbEntity
  8
0
100
AcDbLine
 62
7
  6
CONTINUOUS
 10
459.7894683075
 20
117.0490324739
 11
455.8202137386
 21
106.1435951737
  0
LINE
  5
255
100
AcDbEntity
  8
0
100
AcDbLine
 62
7
  6
CONTINUOUS
 10
467.3084188127
 20
114.3123582971
 11
463.3391642438
 21
103.4069209969
  0
LINE
  5
256
100
AcDbEntity
  8
0
100
AcDbLine
 62
7
  6
CONTINUOUS
 10
469.9340651813
 20
147.9856725935
 11
463.9078029019
 21
132.5614860292
  0
LINE
  5
257
100
AcDbEntity
  8
RUNDUNGEN
100
AcDbLine
 62
7
  6
CONTINUOUS
 10
446.3040655649
 20
120.9292616953
 11
438.4492515278
 21
115.4292616953
  0
LINE
  5
258
100
AcDbEntity
  8
0
100
AcDbLine
 62
7
  6
CONTINUOUS
 10
522.8007969228
 20
155.2667934719
 11
530.8171527077
 21
158.1845083649
  0
LINE
  5
259
100
AcDbEntity
  8
0
100
AcDbLine
 62
7
  6
CONTINUOUS
 10
535.3629952748
 20
147.9856725935
 11
541.3892575543
 21
132.5614860292
  0
LINE
  5
25A
100
AcDbEntity
  8
0
100
AcDbLine
 62
7
  6
CONTINUOUS
 10
537.9886416434
 20
114.3123582971
 11
541.9578962123
 21
103.4069209969
  0
LINE
  5
25B
100
AcDbEntity
  8
0
100
AcDbLine
 62
7
  6
CONTINUOUS
 10
545.5075921486
 20
117.0490324739
 11
549.4768467176
 21
106.1435951737
  0
LINE
  5
25C
100
AcDbEntity
  8
0
100
AcDbLine
 62
7
  6
CONTINUOUS
 10
525.874164752
 20
144.5320207252
 11
531.1722560332
 21
128.8428015921
  0
LINE
  5
25D
100
AcDbEntity
  8
0
100
AcDbLine
 62
7
  6
CONTINUOUS
 10
502.8589192575
 20
190.3185691391
 11
503.8572329659
 21
207.3138076875
  0
LINE
  5
25E
100
AcDbEntity
  8
BEZUGSACHSEN
100
AcDbLine
 62
7
  6
CONTINUOUS
 10
501.7351021067
 20
185.510650926
 11
487.2755475701
 21
145.7833513412
  0
LINE
  5
25F
100
AcDbEntity
  8
0
100
AcDbLine
 62
7
  6
CONTINUOUS
 10
487.2755475701
 20
145.7833513412
 11
481.8461072176
 21
130.8660865725
  0
LINE
  5
260
100
AcDbEntity
  8
0
100
AcDbLine
 62
7
  6
CONTINUOUS
 10
480.1329999132
 20
108.6165365356
 11
484.9709384436
 21
121.9086634046
  0
LINE
  5
261
100
AcDbEntity
  8
0
100
AcDbLine
 62
7
  6
CONTINUOUS
 10
482.6148047047
 20
99.354314959
 11
475.2286060935
 21
79.060901059
  0
LINE
  5
262
100
AcDbEntity
  8
0
100
AcDbLine
 62
7
  6
CONTINUOUS
 10
467.3084188127
 20
114.3123582971
 11
474.124804423
 21
128.8428015921
  0
LINE
  5
263
100
AcDbEntity
  8
0
100
AcDbLine
 62
7
  6
CONTINUOUS
 10
463.3391642438
 20
103.4069209969
 11
472.8414949504
 21
123.6629753631
  0
LINE
  5
264
100
AcDbEntity
  8
RUNDUNGEN
100
AcDbLine
 62
7
  6
CONTINUOUS
 10
540.5742389757
 20
153.9915512667
 11
546.0035761374
 21
139.0745700123
  0
LINE
  5
265
100
AcDbEntity
  8
BEZUGSACHSEN
100
AcDbLine
 62
7
  6
CONTINUOUS
 10
540.5741357849
 20
153.991834781
 11
526.1145812483
 21
193.7191343658
  0
LINE
  5
266
100
AcDbEntity
  8
RUNDUNGEN
100
AcDbLine
 62
7
  6
CONTINUOUS
 10
554.1550563608
 20
134.2213885643
 11
558.9929948912
 21
120.9292616953
  0
LINE
  5
267
100
AcDbEntity
  8
0
100
AcDbLine
 62
7
  6
CONTINUOUS
 10
545.5075921486
 20
117.0490324739
 11
541.3892575543
 21
132.5614860292
  0
LINE
  5
268
100
AcDbEntity
  8
RUNDUNGEN
100
AcDbLine
 62
7
  6
CONTINUOUS
 10
549.4768467176
 20
106.1435951737
 11
543.7357135843
 21
127.7686135018
  0
LINE
  5
269
100
AcDbEntity
  8
0
100
AcDbLine
 62
7
  6
CONTINUOUS
 10
531.1722560332
 20
128.8428015921
 11
541.3892575543
 21
132.5614860292
  0
LINE
  5
26A
100
AcDbEntity
  8
RUNDUNGEN
100
AcDbLine
 62
7
  6
CONTINUOUS
 10
574.2340075396
 20
95.1358477953
 11
566.8478089283
 21
115.4292616953
  0
LINE
  5
26B
100
AcDbEntity
  8
0
100
AcDbLine
 62
7
  6
CONTINUOUS
 10
540.1485302281
 20
306.9954701451
 11
540.1485302281
 21
211.9954701451
  0
LINE
  5
26C
100
AcDbEntity
  8
0
100
AcDbLine
 62
7
  6
CONTINUOUS
 10
522.6822557514
 20
99.354314959
 11
525.1640605429
 21
108.6165365356
  0
LINE
  5
26D
100
AcDbEntity
  8
0
100
AcDbLine
 62
7
  6
CONTINUOUS
 10
545.5075921486
 20
117.0490324739
 11
537.9886416434
 21
114.3123582971
  0
LINE
  5
26E
100
AcDbEntity
  8
0
100
AcDbLine
 62
7
  6
CONTINUOUS
 10
541.9578962123
 20
103.4069209969
 11
549.4768467176
 21
106.1435951737
  0
LINE
  5
26F
100
AcDbEntity
  8
0
100
AcDbLine
 62
7
  6
CONTINUOUS
 10
572.1485302281
 20
306.9954701451
 11
572.1485302281
 21
211.9954701451
  0
LINE
  5
270
100
AcDbEntity
  8
0
100
AcDbLine
 62
7
  6
CONTINUOUS
 10
544.648898302
 20
73.2982246749
 11
566.7689164599
 21
81.3492528659
  0
LINE
  5
271
100
AcDbEntity
  8
0
100
AcDbLine
 62
7
  6
CONTINUOUS
 10
558.7839043238
 20
65.6713492432
 11
560.8433346715
 21
66.4209205893
  0
LINE
  5
272
100
AcDbEntity
  8
0
100
AcDbLine
 62
7
  6
CONTINUOUS
 10
79.0605778148
 20
64.3193887541
 11
86.0228199324
 21
64.3193887541
  0
LINE
  5
273
100
AcDbEntity
  8
0
100
AcDbLine
 62
7
  6
CONTINUOUS
 10
148.0983356972
 20
64.3193887541
 11
155.0605778148
 21
64.3193887541
  0
LINE
  5
274
100
AcDbEntity
  8
RUNDUNGEN
100
AcDbLine
 62
7
  6
CONTINUOUS
 10
70.5605778148
 20
66.8847282091
 11
74.1105778148
 21
66.8847282091
  0
LINE
  5
275
100
AcDbEntity
  8
RUNDUNGEN
100
AcDbLine
 62
7
  6
CONTINUOUS
 10
160.0105778148
 20
66.8847282091
 11
163.5605778148
 21
66.8847282091
  0
LINE
  5
276
100
AcDbEntity
  8
BEZUGSACHSEN
100
AcDbLine
 62
7
  6
CONTINUOUS
 10
107.8105778148
 20
79.5571449103
 11
126.3105778148
 21
79.5571449103
  0
LINE
  5
277
100
AcDbEntity
  8
0
100
AcDbLine
 62
7
  6
CONTINUOUS
 10
148.1102337137
 20
64.3193888607
 11
148.1003737042
 21
64.3228460722
  0
LINE
  5
278
100
AcDbEntity
  8
BEZUGSACHSEN
100
AcDbLine
 62
7
  6
CONTINUOUS
 10
107.8105778148
 20
89.3325626966
 11
126.3105778148
 21
89.3325626966
  0
LINE
  5
279
100
AcDbEntity
  8
BEZUGSACHSEN
100
AcDbLine
 62
7
  6
CONTINUOUS
 10
107.8105778148
 20
99.2221299905
 11
126.3105778148
 21
99.2221299905
  0
LINE
  5
27A
100
AcDbEntity
  8
BEZUGSACHSEN
100
AcDbLine
 62
7
  6
CONTINUOUS
 10
107.8105778148
 20
102.1571449103
 11
126.3105778148
 21
102.1571449103
  0
LINE
  5
27B
100
AcDbEntity
  8
RUNDUNGEN
100
AcDbLine
 62
7
  6
CONTINUOUS
 10
49.8363238884
 20
126.9176324928
 11
53.8513589429
 21
124.4943122014
  0
LINE
  5
27C
100
AcDbEntity
  8
RUNDUNGEN
100
AcDbLine
 62
7
  6
CONTINUOUS
 10
65.6670335317
 20
117.3628267724
 11
69.0937900538
 21
115.2945687121
  0
LINE
  5
27D
100
AcDbEntity
  8
0
100
AcDbLine
 62
7
  6
CONTINUOUS
 10
115.2869577879
 20
114.1334498717
 11
117.0605778148
 21
114.1334498717
  0
LINE
  5
27E
100
AcDbEntity
  8
0
100
AcDbLine
 62
7
  6
CONTINUOUS
 10
115.2869577879
 20
114.8584961014
 11
116.0700724966
 21
114.8584961014
  0
LINE
  5
27F
100
AcDbEntity
  8
RUNDUNGEN
100
AcDbLine
 62
7
  6
CONTINUOUS
 10
79.0605778148
 20
115.4292616953
 11
107.8105778148
 21
115.4292616953
  0
LINE
  5
280
100
AcDbEntity
  8
RUNDUNGEN
100
AcDbLine
 62
7
  6
CONTINUOUS
 10
126.3105778148
 20
115.4292616953
 11
155.0605778148
 21
115.4292616953
  0
LINE
  5
281
100
AcDbEntity
  8
RUNDUNGEN
100
AcDbLine
 62
7
  6
CONTINUOUS
 10
69.0937900538
 20
124.8731306167
 11
68.2285823549
 21
125.3953366111
  0
LINE
  5
282
100
AcDbEntity
  8
0
100
AcDbLine
 62
7
  6
CONTINUOUS
 10
141.4314418909
 20
125.6233556724
 11
140.7654513173
 21
125.4707616051
  0
LINE
  5
283
100
AcDbEntity
  8
0
100
AcDbLine
 62
7
  6
CONTINUOUS
 10
141.4314418909
 20
125.8338690706
 11
140.7654513173
 21
125.6812750033
  0
LINE
  5
284
100
AcDbEntity
  8
0
100
AcDbLine
 62
7
  6
CONTINUOUS
 10
138.6009795715
 20
130.8694740412
 11
139.2669710978
 21
131.0220681086
  0
LINE
  5
285
100
AcDbEntity
  8
0
100
AcDbLine
 62
7
  6
CONTINUOUS
 10
101.2404265297
 20
124.7657104923
 11
102.0354479696
 21
124.918304573
  0
LINE
  5
286
100
AcDbEntity
  8
0
100
AcDbLine
 62
7
  6
CONTINUOUS
 10
151.2548119017
 20
124.7657104923
 11
152.0873015477
 21
124.918304573
  0
LINE
  5
287
100
AcDbEntity
  8
0
100
AcDbLine
 62
7
  6
CONTINUOUS
 10
140.7654513173
 20
124.7657104923
 11
141.5979400107
 21
124.918304573
  0
LINE
  5
288
100
AcDbEntity
  8
0
100
AcDbLine
 62
7
  6
CONTINUOUS
 10
150.4223241611
 20
129.1330195421
 11
149.5898345151
 21
128.9804254747
  0
LINE
  5
289
100
AcDbEntity
  8
0
100
AcDbLine
 62
7
  6
CONTINUOUS
 10
150.4223241611
 20
129.3435329403
 11
149.5898345151
 21
129.1909388729
  0
LINE
  5
28A
100
AcDbEntity
  8
0
100
AcDbLine
 62
7
  6
CONTINUOUS
 10
150.4223241611
 20
131.7271191145
 11
149.5898345151
 21
131.5745250471
  0
LINE
  5
28B
100
AcDbEntity
  8
0
100
AcDbLine
 62
7
  6
CONTINUOUS
 10
150.4223241611
 20
131.9376325127
 11
149.5898345151
 21
131.7850384453
  0
LINE
  5
28C
100
AcDbEntity
  8
0
100
AcDbLine
 62
7
  6
CONTINUOUS
 10
139.2669710978
 20
131.7271191145
 11
138.4344814517
 21
131.5745250471
  0
LINE
  5
28D
100
AcDbEntity
  8
0
100
AcDbLine
 62
7
  6
CONTINUOUS
 10
139.2669710978
 20
131.9376325127
 11
138.4344814517
 21
131.7850384453
  0
LINE
  5
28E
100
AcDbEntity
  8
RUNDUNGEN
100
AcDbLine
 62
7
  6
CONTINUOUS
 10
155.0605778148
 20
120.9292616953
 11
126.0679224774
 21
120.9292616953
  0
LINE
  5
28F
100
AcDbEntity
  8
RUNDUNGEN
100
AcDbLine
 62
7
  6
CONTINUOUS
 10
108.0532331523
 20
120.9292616953
 11
79.0605778148
 21
120.9292616953
  0
LINE
  5
290
100
AcDbEntity
  8
0
100
AcDbLine
 62
7
  6
CONTINUOUS
 10
83.1139515297
 20
124.7657104923
 11
84.0679765297
 21
124.7657104923
  0
LINE
  5
291
100
AcDbEntity
  8
0
100
AcDbLine
 62
7
  6
CONTINUOUS
 10
88.0430805448
 20
124.7657104923
 11
89.1561100147
 21
124.7657104923
  0
LINE
  5
292
100
AcDbEntity
  8
0
100
AcDbLine
 62
7
  6
CONTINUOUS
 10
92.9722095598
 20
124.7657104923
 11
93.6082265297
 21
124.7657104923
  0
LINE
  5
293
100
AcDbEntity
  8
0
100
AcDbLine
 62
7
  6
CONTINUOUS
 10
97.4243265297
 20
124.7657104923
 11
101.2404265297
 21
124.7657104923
  0
LINE
  5
294
100
AcDbEntity
  8
0
100
AcDbLine
 62
7
  6
CONTINUOUS
 10
126.6131378148
 20
124.7657104923
 11
127.6121246279
 21
124.7657104923
  0
LINE
  5
295
100
AcDbEntity
  8
0
100
AcDbLine
 62
7
  6
CONTINUOUS
 10
128.9441069659
 20
124.7657104923
 11
129.943093779
 21
124.7657104923
  0
LINE
  5
296
100
AcDbEntity
  8
0
100
AcDbLine
 62
7
  6
CONTINUOUS
 10
134.1055389127
 20
124.7657104923
 11
135.2710238455
 21
124.7657104923
  0
LINE
  5
297
100
AcDbEntity
  8
0
100
AcDbLine
 62
7
  6
CONTINUOUS
 10
139.2669710978
 20
124.7657104923
 11
140.7654513173
 21
124.7657104923
  0
LINE
  5
298
100
AcDbEntity
  8
0
100
AcDbLine
 62
7
  6
CONTINUOUS
 10
145.4273900958
 20
124.7657104923
 11
146.4263769089
 21
124.7657104923
  0
LINE
  5
299
100
AcDbEntity
  8
0
100
AcDbLine
 62
7
  6
CONTINUOUS
 10
150.4223241611
 20
124.7657104923
 11
151.2548119017
 21
124.7657104923
  0
LINE
  5
29A
100
AcDbEntity
  8
0
100
AcDbLine
 62
7
  6
CONTINUOUS
 10
151.4213109742
 20
125.3181675377
 11
150.2558250887
 21
125.3181675377
  0
LINE
  5
29B
100
AcDbEntity
  8
0
100
AcDbLine
 62
7
  6
CONTINUOUS
 10
140.7654513173
 20
125.4707616051
 11
139.2669710978
 21
125.4707616051
  0
LINE
  5
29C
100
AcDbEntity
  8
0
100
AcDbLine
 62
7
  6
CONTINUOUS
 10
101.2404265297
 20
125.4707616051
 11
98.3783515297
 21
125.4707616051
  0
LINE
  5
29D
100
AcDbEntity
  8
0
100
AcDbLine
 62
7
  6
CONTINUOUS
 10
93.6082265297
 20
125.4707616051
 11
92.9722095598
 21
125.4707616051
  0
LINE
  5
29E
100
AcDbEntity
  8
0
100
AcDbLine
 62
7
  6
CONTINUOUS
 10
151.4213109742
 20
125.5286809359
 11
150.2558250887
 21
125.5286809359
  0
LINE
  5
29F
100
AcDbEntity
  8
0
100
AcDbLine
 62
7
  6
CONTINUOUS
 10
140.7654513173
 20
125.6812750033
 11
139.2669710978
 21
125.6812750033
  0
LINE
  5
2A0
100
AcDbEntity
  8
0
100
AcDbLine
 62
7
  6
CONTINUOUS
 10
101.2404265297
 20
125.6812750033
 11
98.3783515297
 21
125.6812750033
  0
LINE
  5
2A1
100
AcDbEntity
  8
0
100
AcDbLine
 62
7
  6
CONTINUOUS
 10
93.6082265297
 20
125.6812750033
 11
92.9722095598
 21
125.6812750033
  0
LINE
  5
2A2
100
AcDbEntity
  8
0
100
AcDbLine
 62
7
  6
CONTINUOUS
 10
140.5989531976
 20
127.8175922668
 11
142.0974334172
 21
127.8175922668
  0
LINE
  5
2A3
100
AcDbEntity
  8
0
100
AcDbLine
 62
7
  6
CONTINUOUS
 10
84.0679765297
 20
127.9701863341
 11
86.7710472873
 21
127.9701863341
  0
LINE
  5
2A4
100
AcDbEntity
  8
0
100
AcDbLine
 62
7
  6
CONTINUOUS
 10
129.943093779
 20
127.9701863341
 11
132.7735563366
 21
127.9701863341
  0
LINE
  5
2A5
100
AcDbEntity
  8
0
100
AcDbLine
 62
7
  6
CONTINUOUS
 10
143.0964202302
 20
128.5226432727
 11
140.5989531976
 21
128.5226432727
  0
LINE
  5
2A6
100
AcDbEntity
  8
0
100
AcDbLine
 62
7
  6
CONTINUOUS
 10
150.2558250887
 20
128.5805626035
 11
151.4213109742
 21
128.5805626035
  0
LINE
  5
2A7
100
AcDbEntity
  8
0
100
AcDbLine
 62
7
  6
CONTINUOUS
 10
133.1065520997
 20
128.67523734
 11
129.943093779
 21
128.67523734
  0
LINE
  5
2A8
100
AcDbEntity
  8
0
100
AcDbLine
 62
7
  6
CONTINUOUS
 10
87.0890555448
 20
128.67523734
 11
84.0679765297
 21
128.67523734
  0
LINE
  5
2A9
100
AcDbEntity
  8
0
100
AcDbLine
 62
7
  6
CONTINUOUS
 10
143.0964202302
 20
128.7331566709
 11
140.5989531976
 21
128.7331566709
  0
LINE
  5
2AA
100
AcDbEntity
  8
0
100
AcDbLine
 62
7
  6
CONTINUOUS
 10
133.1065520997
 20
128.8857507382
 11
129.943093779
 21
128.8857507382
  0
LINE
  5
2AB
100
AcDbEntity
  8
0
100
AcDbLine
 62
7
  6
CONTINUOUS
 10
87.0890555448
 20
128.8857507382
 11
84.0679765297
 21
128.8857507382
  0
LINE
  5
2AC
100
AcDbEntity
  8
0
100
AcDbLine
 62
7
  6
CONTINUOUS
 10
151.2548119017
 20
129.1330195421
 11
150.4223241611
 21
129.1330195421
  0
LINE
  5
2AD
100
AcDbEntity
  8
0
100
AcDbLine
 62
7
  6
CONTINUOUS
 10
151.2548119017
 20
129.3435329403
 11
150.4223241611
 21
129.3435329403
  0
LINE
  5
2AE
100
AcDbEntity
  8
0
100
AcDbLine
 62
7
  6
CONTINUOUS
 10
142.0974334172
 20
130.106503277
 11
143.0964202302
 21
130.106503277
  0
LINE
  5
2AF
100
AcDbEntity
  8
0
100
AcDbLine
 62
7
  6
CONTINUOUS
 10
152.5867949542
 20
130.2590977719
 11
153.4192846003
 21
130.2590977719
  0
LINE
  5
2B0
100
AcDbEntity
  8
0
100
AcDbLine
 62
7
  6
CONTINUOUS
 10
138.4344814517
 20
124.918304573
 11
139.2669710978
 21
124.7657104923
  0
LINE
  5
2B1
100
AcDbEntity
  8
0
100
AcDbLine
 62
7
  6
CONTINUOUS
 10
92.1771890297
 20
124.918304573
 11
92.9722095598
 21
124.7657104923
  0
LINE
  5
2B2
100
AcDbEntity
  8
0
100
AcDbLine
 62
7
  6
CONTINUOUS
 10
87.7250725147
 20
131.5745250471
 11
86.9300515297
 21
131.7271191145
  0
LINE
  5
2B3
100
AcDbEntity
  8
0
100
AcDbLine
 62
7
  6
CONTINUOUS
 10
87.7250725147
 20
131.7850384453
 11
86.9300515297
 21
131.9376325127
  0
LINE
  5
2B4
100
AcDbEntity
  8
0
100
AcDbLine
 62
7
  6
CONTINUOUS
 10
102.0354479696
 20
131.5745250471
 11
101.2404265297
 21
131.7271191145
  0
LINE
  5
2B5
100
AcDbEntity
  8
0
100
AcDbLine
 62
7
  6
CONTINUOUS
 10
102.0354479696
 20
131.7850384453
 11
101.2404265297
 21
131.9376325127
  0
LINE
  5
2B6
100
AcDbEntity
  8
0
100
AcDbLine
 62
7
  6
CONTINUOUS
 10
92.9722095598
 20
125.4707616051
 11
92.3361934997
 21
125.6233556724
  0
LINE
  5
2B7
100
AcDbEntity
  8
0
100
AcDbLine
 62
7
  6
CONTINUOUS
 10
92.9722095598
 20
125.6812750033
 11
92.3361934997
 21
125.8338690706
  0
LINE
  5
2B8
100
AcDbEntity
  8
0
100
AcDbLine
 62
7
  6
CONTINUOUS
 10
101.2404265297
 20
131.0220681086
 11
101.8764425899
 21
130.8694740412
  0
LINE
  5
2B9
100
AcDbEntity
  8
0
100
AcDbLine
 62
7
  6
CONTINUOUS
 10
87.0890555448
 20
131.1746621759
 11
87.5660680448
 21
131.0220681086
  0
LINE
  5
2BA
100
AcDbEntity
  8
0
100
AcDbLine
 62
7
  6
CONTINUOUS
 10
91.5411720598
 20
125.2234927478
 11
92.1771890297
 21
124.918304573
  0
LINE
  5
2BB
100
AcDbEntity
  8
RUNDUNGEN
100
AcDbLine
 62
7
  6
CONTINUOUS
 10
170.1137941692
 20
77.9007892943
 11
162.5605778148
 21
82.459619344
  0
LINE
  5
2BC
100
AcDbEntity
  8
RUNDUNGEN
100
AcDbLine
 62
7
  6
CONTINUOUS
 10
170.1137941692
 20
82.4323282295
 11
162.5714133167
 21
86.9846183882
  0
LINE
  5
2BD
100
AcDbEntity
  8
0
100
AcDbLine
 62
7
  6
CONTINUOUS
 10
92.3361934997
 20
125.6233556724
 11
91.8591809997
 21
125.928543914
  0
LINE
  5
2BE
100
AcDbEntity
  8
0
100
AcDbLine
 62
7
  6
CONTINUOUS
 10
92.3361934997
 20
125.8338690706
 11
91.8591809997
 21
126.1390573122
  0
LINE
  5
2BF
100
AcDbEntity
  8
0
100
AcDbLine
 62
7
  6
CONTINUOUS
 10
88.3610890297
 20
131.1167428451
 11
87.7250725147
 21
131.5745250471
  0
LINE
  5
2C0
100
AcDbEntity
  8
0
100
AcDbLine
 62
7
  6
CONTINUOUS
 10
88.3610890297
 20
131.3272562433
 11
87.7250725147
 21
131.7850384453
  0
LINE
  5
2C1
100
AcDbEntity
  8
0
100
AcDbLine
 62
7
  6
CONTINUOUS
 10
101.8764425899
 20
125.6233556724
 11
101.2404265297
 21
125.4707616051
  0
LINE
  5
2C2
100
AcDbEntity
  8
0
100
AcDbLine
 62
7
  6
CONTINUOUS
 10
101.8764425899
 20
125.8338690706
 11
101.2404265297
 21
125.6812750033
  0
LINE
  5
2C3
100
AcDbEntity
  8
0
100
AcDbLine
 62
7
  6
CONTINUOUS
 10
94.2442434997
 20
125.6233556724
 11
93.6082265297
 21
125.4707616051
  0
LINE
  5
2C4
100
AcDbEntity
  8
0
100
AcDbLine
 62
7
  6
CONTINUOUS
 10
94.2442434997
 20
125.8338690706
 11
93.6082265297
 21
125.6812750033
  0
LINE
  5
2C5
100
AcDbEntity
  8
0
100
AcDbLine
 62
7
  6
CONTINUOUS
 10
93.6082265297
 20
124.7657104923
 11
94.4032470598
 21
124.918304573
  0
LINE
  5
2C6
100
AcDbEntity
  8
0
100
AcDbLine
 62
7
  6
CONTINUOUS
 10
98.3783515297
 20
131.0220681086
 11
101.2404265297
 21
131.0220681086
  0
LINE
  5
2C7
100
AcDbEntity
  8
0
100
AcDbLine
 62
7
  6
CONTINUOUS
 10
139.2669710978
 20
131.0220681086
 11
140.7654513173
 21
131.0220681086
  0
LINE
  5
2C8
100
AcDbEntity
  8
0
100
AcDbLine
 62
7
  6
CONTINUOUS
 10
84.0679765297
 20
131.1746621759
 11
87.0890555448
 21
131.1746621759
  0
LINE
  5
2C9
100
AcDbEntity
  8
0
100
AcDbLine
 62
7
  6
CONTINUOUS
 10
129.943093779
 20
131.1746621759
 11
133.1065520997
 21
131.1746621759
  0
LINE
  5
2CA
100
AcDbEntity
  8
0
100
AcDbLine
 62
7
  6
CONTINUOUS
 10
150.2558250887
 20
131.1746621759
 11
151.2548119017
 21
131.1746621759
  0
LINE
  5
2CB
100
AcDbEntity
  8
0
100
AcDbLine
 62
7
  6
CONTINUOUS
 10
151.0883147347
 20
131.7271191145
 11
150.4223241611
 21
131.7271191145
  0
LINE
  5
2CC
100
AcDbEntity
  8
0
100
AcDbLine
 62
7
  6
CONTINUOUS
 10
146.4263769089
 20
131.7271191145
 11
145.4273900958
 21
131.7271191145
  0
LINE
  5
2CD
100
AcDbEntity
  8
0
100
AcDbLine
 62
7
  6
CONTINUOUS
 10
140.7654513173
 20
131.7271191145
 11
139.2669710978
 21
131.7271191145
  0
LINE
  5
2CE
100
AcDbEntity
  8
0
100
AcDbLine
 62
7
  6
CONTINUOUS
 10
132.9400544563
 20
131.7271191145
 11
128.9441069659
 21
131.7271191145
  0
LINE
  5
2CF
100
AcDbEntity
  8
0
100
AcDbLine
 62
7
  6
CONTINUOUS
 10
127.6121246279
 20
131.7271191145
 11
126.6131378148
 21
131.7271191145
  0
LINE
  5
2D0
100
AcDbEntity
  8
0
100
AcDbLine
 62
7
  6
CONTINUOUS
 10
101.2404265297
 20
131.7271191145
 11
97.4243265297
 21
131.7271191145
  0
LINE
  5
2D1
100
AcDbEntity
  8
0
100
AcDbLine
 62
7
  6
CONTINUOUS
 10
96.1522934997
 20
131.7271191145
 11
95.1982684997
 21
131.7271191145
  0
LINE
  5
2D2
100
AcDbEntity
  8
0
100
AcDbLine
 62
7
  6
CONTINUOUS
 10
91.3821684997
 20
131.7271191145
 11
90.4281430448
 21
131.7271191145
  0
LINE
  5
2D3
100
AcDbEntity
  8
0
100
AcDbLine
 62
7
  6
CONTINUOUS
 10
86.9300515297
 20
131.7271191145
 11
83.1139515297
 21
131.7271191145
  0
LINE
  5
2D4
100
AcDbEntity
  8
0
100
AcDbLine
 62
7
  6
CONTINUOUS
 10
151.0883147347
 20
131.9376325127
 11
150.4223241611
 21
131.9376325127
  0
LINE
  5
2D5
100
AcDbEntity
  8
0
100
AcDbLine
 62
7
  6
CONTINUOUS
 10
146.4263769089
 20
131.9376325127
 11
145.4273900958
 21
131.9376325127
  0
LINE
  5
2D6
100
AcDbEntity
  8
0
100
AcDbLine
 62
7
  6
CONTINUOUS
 10
140.7654513173
 20
131.9376325127
 11
139.2669710978
 21
131.9376325127
  0
LINE
  5
2D7
100
AcDbEntity
  8
0
100
AcDbLine
 62
7
  6
CONTINUOUS
 10
132.9400544563
 20
131.9376325127
 11
128.9441069659
 21
131.9376325127
  0
LINE
  5
2D8
100
AcDbEntity
  8
0
100
AcDbLine
 62
7
  6
CONTINUOUS
 10
127.6121246279
 20
131.9376325127
 11
126.6131378148
 21
131.9376325127
  0
LINE
  5
2D9
100
AcDbEntity
  8
0
100
AcDbLine
 62
7
  6
CONTINUOUS
 10
101.2404265297
 20
131.9376325127
 11
97.4243265297
 21
131.9376325127
  0
LINE
  5
2DA
100
AcDbEntity
  8
0
100
AcDbLine
 62
7
  6
CONTINUOUS
 10
96.1522934997
 20
131.9376325127
 11
95.1982684997
 21
131.9376325127
  0
LINE
  5
2DB
100
AcDbEntity
  8
0
100
AcDbLine
 62
7
  6
CONTINUOUS
 10
91.3821684997
 20
131.9376325127
 11
90.4281430448
 21
131.9376325127
  0
LINE
  5
2DC
100
AcDbEntity
  8
0
100
AcDbLine
 62
7
  6
CONTINUOUS
 10
86.9300515297
 20
131.9376325127
 11
83.1139515297
 21
131.9376325127
  0
LINE
  5
2DD
100
AcDbEntity
  8
RUNDUNGEN
100
AcDbLine
 62
7
  6
CONTINUOUS
 10
81.5605778148
 20
139.1562374894
 11
152.5605778148
 21
139.1562374894
  0
LINE
  5
2DE
100
AcDbEntity
  8
0
100
AcDbLine
 62
7
  6
CONTINUOUS
 10
149.5898345151
 20
124.918304573
 11
150.4223241611
 21
124.7657104923
  0
LINE
  5
2DF
100
AcDbEntity
  8
0
100
AcDbLine
 62
7
  6
CONTINUOUS
 10
133.7725431496
 20
131.5745250471
 11
132.9400544563
 21
131.7271191145
  0
LINE
  5
2E0
100
AcDbEntity
  8
0
100
AcDbLine
 62
7
  6
CONTINUOUS
 10
133.7725431496
 20
131.7850384453
 11
132.9400544563
 21
131.9376325127
  0
LINE
  5
2E1
100
AcDbEntity
  8
0
100
AcDbLine
 62
7
  6
CONTINUOUS
 10
152.0873015477
 20
128.9804254747
 11
151.2548119017
 21
129.1330195421
  0
LINE
  5
2E2
100
AcDbEntity
  8
0
100
AcDbLine
 62
7
  6
CONTINUOUS
 10
152.0873015477
 20
129.1909388729
 11
151.2548119017
 21
129.3435329403
  0
LINE
  5
2E3
100
AcDbEntity
  8
0
100
AcDbLine
 62
7
  6
CONTINUOUS
 10
141.5979400107
 20
131.5745250471
 11
140.7654513173
 21
131.7271191145
  0
LINE
  5
2E4
100
AcDbEntity
  8
0
100
AcDbLine
 62
7
  6
CONTINUOUS
 10
141.5979400107
 20
131.7850384453
 11
140.7654513173
 21
131.9376325127
  0
LINE
  5
2E5
100
AcDbEntity
  8
0
100
AcDbLine
 62
7
  6
CONTINUOUS
 10
151.9208043807
 20
131.5745250471
 11
151.0883147347
 21
131.7271191145
  0
LINE
  5
2E6
100
AcDbEntity
  8
0
100
AcDbLine
 62
7
  6
CONTINUOUS
 10
151.9208043807
 20
131.7850384453
 11
151.0883147347
 21
131.9376325127
  0
LINE
  5
2E7
100
AcDbEntity
  8
0
100
AcDbLine
 62
7
  6
CONTINUOUS
 10
139.2669710978
 20
125.4707616051
 11
138.6009795715
 21
125.6233556724
  0
LINE
  5
2E8
100
AcDbEntity
  8
0
100
AcDbLine
 62
7
  6
CONTINUOUS
 10
139.2669710978
 20
125.6812750033
 11
138.6009795715
 21
125.8338690706
  0
LINE
  5
2E9
100
AcDbEntity
  8
0
100
AcDbLine
 62
7
  6
CONTINUOUS
 10
140.7654513173
 20
131.0220681086
 11
141.4314418909
 21
130.8694740412
  0
LINE
  5
2EA
100
AcDbEntity
  8
0
100
AcDbLine
 62
7
  6
CONTINUOUS
 10
150.2558250887
 20
125.3181675377
 11
149.7563316821
 21
125.4707616051
  0
LINE
  5
2EB
100
AcDbEntity
  8
0
100
AcDbLine
 62
7
  6
CONTINUOUS
 10
150.2558250887
 20
125.5286809359
 11
149.7563316821
 21
125.6812750033
  0
LINE
  5
2EC
100
AcDbEntity
  8
0
100
AcDbLine
 62
7
  6
CONTINUOUS
 10
133.1065520997
 20
131.1746621759
 11
133.6060455062
 21
131.0220681086
  0
LINE
  5
2ED
100
AcDbEntity
  8
0
100
AcDbLine
 62
7
  6
CONTINUOUS
 10
137.7684908782
 20
125.2234927478
 11
138.4344814517
 21
124.918304573
  0
LINE
  5
2EE
100
AcDbEntity
  8
0
100
AcDbLine
 62
7
  6
CONTINUOUS
 10
102.6714640297
 20
131.2693369124
 11
102.0354479696
 21
131.5745250471
  0
LINE
  5
2EF
100
AcDbEntity
  8
0
100
AcDbLine
 62
7
  6
CONTINUOUS
 10
102.6714640297
 20
131.4798503106
 11
102.0354479696
 21
131.7850384453
  0
LINE
  5
2F0
100
AcDbEntity
  8
0
100
AcDbLine
 62
7
  6
CONTINUOUS
 10
101.8764425899
 20
130.8694740412
 11
102.3534550899
 21
130.5642859065
  0
LINE
  5
2F1
100
AcDbEntity
  8
0
100
AcDbLine
 62
7
  6
CONTINUOUS
 10
114.2244838522
 20
114.9111768632
 11
115.2869577879
 21
114.1334498717
  0
LINE
  5
2F2
100
AcDbEntity
  8
0
100
AcDbLine
 62
7
  6
CONTINUOUS
 10
114.9626750596
 20
115.0958698591
 11
115.2869577879
 21
114.8584961014
  0
LINE
  5
2F3
100
AcDbEntity
  8
0
100
AcDbLine
 62
7
  6
CONTINUOUS
 10
117.0605778148
 20
114.1334498717
 11
115.5916432278
 21
115.2087045567
  0
LINE
  5
2F4
100
AcDbEntity
  8
0
100
AcDbLine
 62
7
  6
CONTINUOUS
 10
90.9051559997
 20
125.8338690706
 11
91.5411720598
 21
125.2234927478
  0
LINE
  5
2F5
100
AcDbEntity
  8
0
100
AcDbLine
 62
7
  6
CONTINUOUS
 10
87.5660680448
 20
131.0220681086
 11
87.8840765297
 21
130.7168799739
  0
LINE
  5
2F6
100
AcDbEntity
  8
0
100
AcDbLine
 62
7
  6
CONTINUOUS
 10
88.8381015297
 20
130.5063665757
 11
88.3610890297
 21
131.1167428451
  0
LINE
  5
2F7
100
AcDbEntity
  8
0
100
AcDbLine
 62
7
  6
CONTINUOUS
 10
88.8381015297
 20
130.7168799739
 11
88.3610890297
 21
131.3272562433
  0
LINE
  5
2F8
100
AcDbEntity
  8
RUNDUNGEN
100
AcDbLine
 62
7
  6
CONTINUOUS
 10
48.3895402427
 20
128.8568635049
 11
48.3895402427
 21
133.3884024401
  0
LINE
  5
2F9
100
AcDbEntity
  8
RUNDUNGEN
100
AcDbLine
 62
7
  6
CONTINUOUS
 10
186.8255631214
 20
130.2931510886
 11
175.9717985345
 21
133.5050024523
  0
LINE
  5
2FA
100
AcDbEntity
  8
0
100
AcDbLine
 62
7
  6
CONTINUOUS
 10
151.4213109742
 20
128.5805626035
 11
151.9208043807
 21
128.4279685362
  0
LINE
  5
2FB
100
AcDbEntity
  8
0
100
AcDbLine
 62
7
  6
CONTINUOUS
 10
151.2548119017
 20
131.1746621759
 11
151.7543053082
 21
131.0220681086
  0
LINE
  5
2FC
100
AcDbEntity
  8
0
100
AcDbLine
 62
7
  6
CONTINUOUS
 10
142.2639315369
 20
131.2693369124
 11
141.5979400107
 21
131.5745250471
  0
LINE
  5
2FD
100
AcDbEntity
  8
0
100
AcDbLine
 62
7
  6
CONTINUOUS
 10
142.2639315369
 20
131.4798503106
 11
141.5979400107
 21
131.7850384453
  0
LINE
  5
2FE
100
AcDbEntity
  8
0
100
AcDbLine
 62
7
  6
CONTINUOUS
 10
148.7573448691
 20
125.3760868152
 11
149.5898345151
 21
124.918304573
  0
LINE
  5
2FF
100
AcDbEntity
  8
0
100
AcDbLine
 62
7
  6
CONTINUOUS
 10
138.6009795715
 20
125.6233556724
 11
138.101486165
 21
125.928543914
  0
LINE
  5
300
100
AcDbEntity
  8
0
100
AcDbLine
 62
7
  6
CONTINUOUS
 10
138.6009795715
 20
125.8338690706
 11
138.101486165
 21
126.1390573122
  0
LINE
  5
301
100
AcDbEntity
  8
0
100
AcDbLine
 62
7
  6
CONTINUOUS
 10
103.3074800899
 20
130.658960643
 11
102.6714640297
 21
131.2693369124
  0
LINE
  5
302
100
AcDbEntity
  8
0
100
AcDbLine
 62
7
  6
CONTINUOUS
 10
103.3074800899
 20
130.8694740412
 11
102.6714640297
 21
131.4798503106
  0
LINE
  5
303
100
AcDbEntity
  8
0
100
AcDbLine
 62
7
  6
CONTINUOUS
 10
91.8591809997
 20
125.928543914
 11
91.5411720598
 21
126.386326116
  0
LINE
  5
304
100
AcDbEntity
  8
0
100
AcDbLine
 62
7
  6
CONTINUOUS
 10
91.8591809997
 20
126.1390573122
 11
91.5411720598
 21
126.5968395143
  0
LINE
  5
305
100
AcDbEntity
  8
0
100
AcDbLine
 62
7
  6
CONTINUOUS
 10
90.5871475147
 20
126.4442454469
 11
90.9051559997
 21
125.8338690706
  0
LINE
  5
306
100
AcDbEntity
  8
0
100
AcDbLine
 62
7
  6
CONTINUOUS
 10
64.657865079
 20
147.9856725935
 11
69.0937900538
 21
132.5614860292
  0
LINE
  5
307
100
AcDbEntity
  8
0
100
AcDbLine
 62
7
  6
CONTINUOUS
 10
64.657865079
 20
144.5320207252
 11
69.0937900538
 21
128.8428015921
  0
LINE
  5
308
100
AcDbEntity
  8
0
100
AcDbLine
 62
7
  6
CONTINUOUS
 10
69.0937900538
 20
114.3123582971
 11
71.5605778148
 21
103.4069209969
  0
LINE
  5
309
100
AcDbEntity
  8
0
100
AcDbLine
 62
7
  6
CONTINUOUS
 10
69.0937900538
 20
117.0490324739
 11
71.5605778148
 21
106.1435951737
  0
LINE
  5
30A
100
AcDbEntity
  8
0
100
AcDbLine
 62
7
  6
CONTINUOUS
 10
61.6733021629
 20
155.2667934719
 11
61.6733021629
 21
158.1845083649
  0
LINE
  5
30B
100
AcDbEntity
  8
RUNDUNGEN
100
AcDbLine
 62
7
  6
CONTINUOUS
 10
62.5605778148
 20
70.2656743031
 11
62.5605778148
 21
80.4930972174
  0
LINE
  5
30C
100
AcDbEntity
  8
RUNDUNGEN
100
AcDbLine
 62
7
  6
CONTINUOUS
 10
186.8255631214
 20
134.8246900238
 11
175.9717985345
 21
138.0365413875
  0
LINE
  5
30D
100
AcDbEntity
  8
0
100
AcDbLine
 62
7
  6
CONTINUOUS
 10
152.9197911937
 20
128.5226432727
 11
152.0873015477
 21
128.9804254747
  0
LINE
  5
30E
100
AcDbEntity
  8
0
100
AcDbLine
 62
7
  6
CONTINUOUS
 10
152.9197911937
 20
128.7331566709
 11
152.0873015477
 21
129.1909388729
  0
LINE
  5
30F
100
AcDbEntity
  8
0
100
AcDbLine
 62
7
  6
CONTINUOUS
 10
152.7532921213
 20
131.1167428451
 11
151.9208043807
 21
131.5745250471
  0
LINE
  5
310
100
AcDbEntity
  8
0
100
AcDbLine
 62
7
  6
CONTINUOUS
 10
152.7532921213
 20
131.3272562433
 11
151.9208043807
 21
131.7850384453
  0
LINE
  5
311
100
AcDbEntity
  8
0
100
AcDbLine
 62
7
  6
CONTINUOUS
 10
149.7563316821
 20
125.4707616051
 11
149.2568382756
 21
125.7759497398
  0
LINE
  5
312
100
AcDbEntity
  8
0
100
AcDbLine
 62
7
  6
CONTINUOUS
 10
149.7563316821
 20
125.6812750033
 11
149.2568382756
 21
125.986463138
  0
LINE
  5
313
100
AcDbEntity
  8
0
100
AcDbLine
 62
7
  6
CONTINUOUS
 10
141.4314418909
 20
130.8694740412
 11
141.9309352974
 21
130.5642859065
  0
LINE
  5
314
100
AcDbEntity
  8
0
100
AcDbLine
 62
7
  6
CONTINUOUS
 10
151.9208043807
 20
128.4279685362
 11
152.4202977872
 21
128.1227804015
  0
LINE
  5
315
100
AcDbEntity
  8
0
100
AcDbLine
 62
7
  6
CONTINUOUS
 10
151.7543053082
 20
131.0220681086
 11
152.2537987148
 21
130.7168799739
  0
LINE
  5
316
100
AcDbEntity
  8
0
100
AcDbLine
 62
7
  6
CONTINUOUS
 10
134.4385346759
 20
131.1167428451
 11
133.7725431496
 21
131.5745250471
  0
LINE
  5
317
100
AcDbEntity
  8
0
100
AcDbLine
 62
7
  6
CONTINUOUS
 10
134.4385346759
 20
131.3272562433
 11
133.7725431496
 21
131.7850384453
  0
LINE
  5
318
100
AcDbEntity
  8
0
100
AcDbLine
 62
7
  6
CONTINUOUS
 10
137.1024993519
 20
125.8338690706
 11
137.7684908782
 21
125.2234927478
  0
LINE
  5
319
100
AcDbEntity
  8
0
100
AcDbLine
 62
7
  6
CONTINUOUS
 10
102.3534550899
 20
130.5642859065
 11
102.6714640297
 21
130.106503277
  0
LINE
  5
31A
100
AcDbEntity
  8
0
100
AcDbLine
 62
7
  6
CONTINUOUS
 10
89.0702748552
 20
124.7657104923
 11
87.7250725147
 21
128.0648610706
  0
LINE
  5
31B
100
AcDbEntity
  8
0
100
AcDbLine
 62
7
  6
CONTINUOUS
 10
89.1561100147
 20
124.7657104923
 11
87.7250725147
 21
128.2753744688
  0
LINE
  5
31C
100
AcDbEntity
  8
0
100
AcDbLine
 62
7
  6
CONTINUOUS
 10
86.7710472873
 20
127.9701863341
 11
88.0430805448
 21
124.7657104923
  0
LINE
  5
31D
100
AcDbEntity
  8
0
100
AcDbLine
 62
7
  6
CONTINUOUS
 10
87.8840765297
 20
130.7168799739
 11
88.0430805448
 21
130.2590977719
  0
LINE
  5
31E
100
AcDbEntity
  8
0
100
AcDbLine
 62
7
  6
CONTINUOUS
 10
88.9971055448
 20
130.0485843736
 11
88.8381015297
 21
130.5063665757
  0
LINE
  5
31F
100
AcDbEntity
  8
0
100
AcDbLine
 62
7
  6
CONTINUOUS
 10
88.9971055448
 20
130.2590977719
 11
88.8381015297
 21
130.7168799739
  0
LINE
  5
320
100
AcDbEntity
  8
RUNDUNGEN
100
AcDbLine
 62
7
  6
CONTINUOUS
 10
65.2149136424
 20
117.9688364637
 11
65.2149136424
 21
122.5003753989
  0
LINE
  5
321
100
AcDbEntity
  8
0
100
AcDbLine
 62
7
  6
CONTINUOUS
 10
69.0937900538
 20
114.3123582971
 11
69.0937900538
 21
132.5614860292
  0
LINE
  5
322
100
AcDbEntity
  8
0
100
AcDbLine
 62
7
  6
CONTINUOUS
 10
71.5605778148
 20
73.2982246749
 11
71.5605778148
 21
81.3492528659
  0
LINE
  5
323
100
AcDbEntity
  8
RUNDUNGEN
100
AcDbLine
 62
7
  6
CONTINUOUS
 10
71.5605778148
 20
81.3492528659
 11
71.5605778148
 21
129.3070059374
  0
LINE
  5
324
100
AcDbEntity
  8
0
100
AcDbLine
 62
7
  6
CONTINUOUS
 10
133.6060455062
 20
131.0220681086
 11
133.9390412694
 21
130.7168799739
  0
LINE
  5
325
100
AcDbEntity
  8
0
100
AcDbLine
 62
7
  6
CONTINUOUS
 10
142.9299230632
 20
130.658960643
 11
142.2639315369
 21
131.2693369124
  0
LINE
  5
326
100
AcDbEntity
  8
0
100
AcDbLine
 62
7
  6
CONTINUOUS
 10
142.9299230632
 20
130.8694740412
 11
142.2639315369
 21
131.4798503106
  0
LINE
  5
327
100
AcDbEntity
  8
0
100
AcDbLine
 62
7
  6
CONTINUOUS
 10
152.4202977872
 20
128.1227804015
 11
152.7532921213
 21
127.8175922668
  0
LINE
  5
328
100
AcDbEntity
  8
0
100
AcDbLine
 62
7
  6
CONTINUOUS
 10
153.4192846003
 20
128.0648610706
 11
152.9197911937
 21
128.5226432727
  0
LINE
  5
329
100
AcDbEntity
  8
0
100
AcDbLine
 62
7
  6
CONTINUOUS
 10
153.4192846003
 20
128.2753744688
 11
152.9197911937
 21
128.7331566709
  0
LINE
  5
32A
100
AcDbEntity
  8
0
100
AcDbLine
 62
7
  6
CONTINUOUS
 10
103.6254890297
 20
130.0485843736
 11
103.3074800899
 21
130.658960643
  0
LINE
  5
32B
100
AcDbEntity
  8
0
100
AcDbLine
 62
7
  6
CONTINUOUS
 10
103.6254890297
 20
130.2590977719
 11
103.3074800899
 21
130.8694740412
  0
LINE
  5
32C
100
AcDbEntity
  8
0
100
AcDbLine
 62
7
  6
CONTINUOUS
 10
91.5411720598
 20
126.386326116
 11
91.3821684997
 21
126.9967023854
  0
LINE
  5
32D
100
AcDbEntity
  8
0
100
AcDbLine
 62
7
  6
CONTINUOUS
 10
91.5411720598
 20
126.5968395143
 11
91.3821684997
 21
127.2072157837
  0
LINE
  5
32E
100
AcDbEntity
  8
0
100
AcDbLine
 62
7
  6
CONTINUOUS
 10
90.4281430448
 20
127.2072157837
 11
90.5871475147
 21
126.4442454469
  0
LINE
  5
32F
100
AcDbEntity
  8
0
100
AcDbLine
 62
7
  6
CONTINUOUS
 10
78.9460395677
 20
65.6713492432
 11
78.9460395677
 21
66.4209205893
  0
LINE
  5
330
100
AcDbEntity
  8
0
100
AcDbLine
 62
7
  6
CONTINUOUS
 10
83.1139515297
 20
131.9376325127
 11
83.1139515297
 21
124.7657104923
  0
LINE
  5
331
100
AcDbEntity
  8
0
100
AcDbLine
 62
7
  6
CONTINUOUS
 10
84.0679765297
 20
124.7657104923
 11
84.0679765297
 21
127.9701863341
  0
LINE
  5
332
100
AcDbEntity
  8
0
100
AcDbLine
 62
7
  6
CONTINUOUS
 10
84.0679765297
 20
128.67523734
 11
84.0679765297
 21
131.1746621759
  0
LINE
  5
333
100
AcDbEntity
  8
0
100
AcDbLine
 62
7
  6
CONTINUOUS
 10
134.9380276061
 20
130.5063665757
 11
134.4385346759
 21
131.1167428451
  0
LINE
  5
334
100
AcDbEntity
  8
0
100
AcDbLine
 62
7
  6
CONTINUOUS
 10
134.9380276061
 20
130.7168799739
 11
134.4385346759
 21
131.3272562433
  0
LINE
  5
335
100
AcDbEntity
  8
0
100
AcDbLine
 62
7
  6
CONTINUOUS
 10
148.2578514625
 20
125.986463138
 11
148.7573448691
 21
125.3760868152
  0
LINE
  5
336
100
AcDbEntity
  8
0
100
AcDbLine
 62
7
  6
CONTINUOUS
 10
138.101486165
 20
125.928543914
 11
137.7684908782
 21
126.386326116
  0
LINE
  5
337
100
AcDbEntity
  8
0
100
AcDbLine
 62
7
  6
CONTINUOUS
 10
138.101486165
 20
126.1390573122
 11
137.7684908782
 21
126.5968395143
  0
LINE
  5
338
100
AcDbEntity
  8
0
100
AcDbLine
 62
7
  6
CONTINUOUS
 10
102.6714640297
 20
130.106503277
 11
102.8304675899
 21
129.4961270076
  0
LINE
  5
339
100
AcDbEntity
  8
0
100
AcDbLine
 62
7
  6
CONTINUOUS
 10
86.9300515297
 20
131.9376325127
 11
86.9300515297
 21
131.7271191145
  0
LINE
  5
33A
100
AcDbEntity
  8
0
100
AcDbLine
 62
7
  6
CONTINUOUS
 10
87.0890555448
 20
128.8857507382
 11
87.0890555448
 21
128.67523734
  0
LINE
  5
33B
100
AcDbEntity
  8
0
100
AcDbLine
 62
7
  6
CONTINUOUS
 10
87.5660680448
 20
129.0383448056
 11
87.5660680448
 21
128.8278314074
  0
LINE
  5
33C
100
AcDbEntity
  8
0
100
AcDbLine
 62
7
  6
CONTINUOUS
 10
87.7250725147
 20
131.7850384453
 11
87.7250725147
 21
131.5745250471
  0
LINE
  5
33D
100
AcDbEntity
  8
0
100
AcDbLine
 62
7
  6
CONTINUOUS
 10
87.7250725147
 20
128.2753744688
 11
87.7250725147
 21
128.0648610706
  0
LINE
  5
33E
100
AcDbEntity
  8
0
100
AcDbLine
 62
7
  6
CONTINUOUS
 10
87.8840765297
 20
129.3435329403
 11
87.8840765297
 21
129.1330195421
  0
LINE
  5
33F
100
AcDbEntity
  8
0
100
AcDbLine
 62
7
  6
CONTINUOUS
 10
88.0430805448
 20
130.2590977719
 11
88.0430805448
 21
129.5908017441
  0
LINE
  5
340
100
AcDbEntity
  8
0
100
AcDbLine
 62
7
  6
CONTINUOUS
 10
88.3610890297
 20
131.3272562433
 11
88.3610890297
 21
131.1167428451
  0
LINE
  5
341
100
AcDbEntity
  8
0
100
AcDbLine
 62
7
  6
CONTINUOUS
 10
88.8381015297
 20
130.7168799739
 11
88.8381015297
 21
130.5063665757
  0
LINE
  5
342
100
AcDbEntity
  8
0
100
AcDbLine
 62
7
  6
CONTINUOUS
 10
88.9971055448
 20
129.648721075
 11
88.9971055448
 21
130.2590977719
  0
LINE
  5
343
100
AcDbEntity
  8
0
100
AcDbLine
 62
7
  6
CONTINUOUS
 10
90.4281430448
 20
131.9376325127
 11
90.4281430448
 21
127.2072157837
  0
LINE
  5
344
100
AcDbEntity
  8
0
100
AcDbLine
 62
7
  6
CONTINUOUS
 10
91.3821684997
 20
126.9967023854
 11
91.3821684997
 21
131.9376325127
  0
LINE
  5
345
100
AcDbEntity
  8
0
100
AcDbLine
 62
7
  6
CONTINUOUS
 10
91.5411720598
 20
126.5968395143
 11
91.5411720598
 21
126.386326116
  0
LINE
  5
346
100
AcDbEntity
  8
BEZUGSACHSEN
100
AcDbLine
 62
7
  6
CONTINUOUS
 10
91.6704982988
 20
99.9521783735
 11
91.6704982988
 21
101.932456583
  0
LINE
  5
347
100
AcDbEntity
  8
0
100
AcDbLine
 62
7
  6
CONTINUOUS
 10
91.8591809997
 20
126.1390573122
 11
91.8591809997
 21
125.928543914
  0
LINE
  5
348
100
AcDbEntity
  8
0
100
AcDbLine
 62
7
  6
CONTINUOUS
 10
92.3361934997
 20
125.8338690706
 11
92.3361934997
 21
125.6233556724
  0
LINE
  5
349
100
AcDbEntity
  8
0
100
AcDbLine
 62
7
  6
CONTINUOUS
 10
92.9722095598
 20
125.6812750033
 11
92.9722095598
 21
125.4707616051
  0
LINE
  5
34A
100
AcDbEntity
  8
0
100
AcDbLine
 62
7
  6
CONTINUOUS
 10
93.6082265297
 20
125.6812750033
 11
93.6082265297
 21
125.4707616051
  0
LINE
  5
34B
100
AcDbEntity
  8
0
100
AcDbLine
 62
7
  6
CONTINUOUS
 10
94.2442434997
 20
125.8338690706
 11
94.2442434997
 21
125.6233556724
  0
LINE
  5
34C
100
AcDbEntity
  8
0
100
AcDbLine
 62
7
  6
CONTINUOUS
 10
94.7212559997
 20
126.1390573122
 11
94.7212559997
 21
125.928543914
  0
LINE
  5
34D
100
AcDbEntity
  8
0
100
AcDbLine
 62
7
  6
CONTINUOUS
 10
95.0392640297
 20
126.5968395143
 11
95.0392640297
 21
126.386326116
  0
LINE
  5
34E
100
AcDbEntity
  8
0
100
AcDbLine
 62
7
  6
CONTINUOUS
 10
95.1982684997
 20
131.9376325127
 11
95.1982684997
 21
126.9967023854
  0
LINE
  5
34F
100
AcDbEntity
  8
0
100
AcDbLine
 62
7
  6
CONTINUOUS
 10
96.1522934997
 20
127.2072157837
 11
96.1522934997
 21
131.9376325127
  0
LINE
  5
350
100
AcDbEntity
  8
0
100
AcDbLine
 62
7
  6
CONTINUOUS
 10
153.2527855278
 20
130.5063665757
 11
152.7532921213
 21
131.1167428451
  0
LINE
  5
351
100
AcDbEntity
  8
0
100
AcDbLine
 62
7
  6
CONTINUOUS
 10
153.2527855278
 20
130.7168799739
 11
152.7532921213
 21
131.3272562433
  0
LINE
  5
352
100
AcDbEntity
  8
0
100
AcDbLine
 62
7
  6
CONTINUOUS
 10
149.2568382756
 20
125.7759497398
 11
148.9238439415
 21
126.2337320487
  0
LINE
  5
353
100
AcDbEntity
  8
0
100
AcDbLine
 62
7
  6
CONTINUOUS
 10
149.2568382756
 20
125.986463138
 11
148.9238439415
 21
126.4442454469
  0
LINE
  5
354
100
AcDbEntity
  8
0
100
AcDbLine
 62
7
  6
CONTINUOUS
 10
152.2537987148
 20
130.7168799739
 11
152.5867949542
 21
130.2590977719
  0
LINE
  5
355
100
AcDbEntity
  8
0
100
AcDbLine
 62
7
  6
CONTINUOUS
 10
136.7695040651
 20
126.4442454469
 11
137.1024993519
 21
125.8338690706
  0
LINE
  5
356
100
AcDbEntity
  8
0
100
AcDbLine
 62
7
  6
CONTINUOUS
 10
135.1811433711
 20
124.7657104923
 11
133.7725431496
 21
128.0648610706
  0
LINE
  5
357
100
AcDbEntity
  8
0
100
AcDbLine
 62
7
  6
CONTINUOUS
 10
135.2710238455
 20
124.7657104923
 11
133.7725431496
 21
128.2753744688
  0
LINE
  5
358
100
AcDbEntity
  8
0
100
AcDbLine
 62
7
  6
CONTINUOUS
 10
132.7735563366
 20
127.9701863341
 11
134.1055389127
 21
124.7657104923
  0
LINE
  5
359
100
AcDbEntity
  8
0
100
AcDbLine
 62
7
  6
CONTINUOUS
 10
103.7844925899
 20
129.2856136094
 11
103.6254890297
 21
130.0485843736
  0
LINE
  5
35A
100
AcDbEntity
  8
0
100
AcDbLine
 62
7
  6
CONTINUOUS
 10
103.7844925899
 20
129.4961270076
 11
103.6254890297
 21
130.2590977719
  0
LINE
  5
35B
100
AcDbEntity
  8
0
100
AcDbLine
 62
7
  6
CONTINUOUS
 10
97.4243265297
 20
131.9376325127
 11
97.4243265297
 21
124.7657104923
  0
LINE
  5
35C
100
AcDbEntity
  8
0
100
AcDbLine
 62
7
  6
CONTINUOUS
 10
98.3783515297
 20
125.4707616051
 11
98.3783515297
 21
131.0220681086
  0
LINE
  5
35D
100
AcDbEntity
  8
0
100
AcDbLine
 62
7
  6
CONTINUOUS
 10
101.0605778148
 20
360.4954701451
 11
101.0605778148
 21
158.4954701451
  0
LINE
  5
35E
100
AcDbEntity
  8
0
100
AcDbLine
 62
7
  6
CONTINUOUS
 10
101.2404265297
 20
131.9376325127
 11
101.2404265297
 21
131.7271191145
  0
LINE
  5
35F
100
AcDbEntity
  8
0
100
AcDbLine
 62
7
  6
CONTINUOUS
 10
101.2404265297
 20
125.6812750033
 11
101.2404265297
 21
125.4707616051
  0
LINE
  5
360
100
AcDbEntity
  8
0
100
AcDbLine
 62
7
  6
CONTINUOUS
 10
101.8764425899
 20
125.8338690706
 11
101.8764425899
 21
125.6233556724
  0
LINE
  5
361
100
AcDbEntity
  8
0
100
AcDbLine
 62
7
  6
CONTINUOUS
 10
102.0354479696
 20
131.7850384453
 11
102.0354479696
 21
131.5745250471
  0
LINE
  5
362
100
AcDbEntity
  8
0
100
AcDbLine
 62
7
  6
CONTINUOUS
 10
102.3534550899
 20
126.1390573122
 11
102.3534550899
 21
125.928543914
  0
LINE
  5
363
100
AcDbEntity
  8
0
100
AcDbLine
 62
7
  6
CONTINUOUS
 10
102.6714640297
 20
131.4798503106
 11
102.6714640297
 21
131.2693369124
  0
LINE
  5
364
100
AcDbEntity
  8
0
100
AcDbLine
 62
7
  6
CONTINUOUS
 10
102.6714640297
 20
126.5968395143
 11
102.6714640297
 21
126.386326116
  0
LINE
  5
365
100
AcDbEntity
  8
0
100
AcDbLine
 62
7
  6
CONTINUOUS
 10
102.8304675899
 20
129.4961270076
 11
102.8304675899
 21
126.9967023854
  0
LINE
  5
366
100
AcDbEntity
  8
0
100
AcDbLine
 62
7
  6
CONTINUOUS
 10
103.3074800899
 20
130.8694740412
 11
103.3074800899
 21
130.658960643
  0
LINE
  5
367
100
AcDbEntity
  8
0
100
AcDbLine
 62
7
  6
CONTINUOUS
 10
103.6254890297
 20
130.2590977719
 11
103.6254890297
 21
130.0485843736
  0
LINE
  5
368
100
AcDbEntity
  8
0
100
AcDbLine
 62
7
  6
CONTINUOUS
 10
103.7844925899
 20
127.2072157837
 11
103.7844925899
 21
129.4961270076
  0
LINE
  5
369
100
AcDbEntity
  8
0
100
AcDbLine
 62
7
  6
CONTINUOUS
 10
107.8105778148
 20
97.2794017003
 11
107.8105778148
 21
72.652339756
  0
LINE
  5
36A
100
AcDbEntity
  8
KONSTRUKTIONSELEMENTE
100
AcDbLine
 62
7
  6
CONTINUOUS
 10
107.8105778148
 20
97.2794017003
 11
107.8105778148
 21
119.45545504
  0
LINE
  5
36B
100
AcDbEntity
  8
0
100
AcDbLine
 62
7
  6
CONTINUOUS
 10
147.9248571285
 20
126.7494335816
 11
148.2578514625
 21
125.986463138
  0
LINE
  5
36C
100
AcDbEntity
  8
0
100
AcDbLine
 62
7
  6
CONTINUOUS
 10
133.9390412694
 20
130.7168799739
 11
134.1055389127
 21
130.2590977719
  0
LINE
  5
36D
100
AcDbEntity
  8
0
100
AcDbLine
 62
7
  6
CONTINUOUS
 10
135.1045257258
 20
130.0485843736
 11
134.9380276061
 21
130.5063665757
  0
LINE
  5
36E
100
AcDbEntity
  8
0
100
AcDbLine
 62
7
  6
CONTINUOUS
 10
135.1045257258
 20
130.2590977719
 11
134.9380276061
 21
130.7168799739
  0
LINE
  5
36F
100
AcDbEntity
  8
KONSTRUKTIONSELEMENTE
100
AcDbLine
 62
7
  6
CONTINUOUS
 10
109.0605778148
 20
140.1503656492
 11
109.0605778148
 21
144.6472168173
  0
LINE
  5
370
100
AcDbEntity
  8
KONSTRUKTIONSELEMENTE
100
AcDbLine
 62
7
  6
CONTINUOUS
 10
113.5605778148
 20
140.1503656492
 11
113.5605778148
 21
142.8910618442
  0
LINE
  5
371
100
AcDbEntity
  8
KONSTRUKTIONSELEMENTE
100
AcDbLine
 62
7
  6
CONTINUOUS
 10
114.5605778148
 20
139.1562374894
 11
114.5605778148
 21
142.69998268
  0
LINE
  5
372
100
AcDbEntity
  8
0
100
AcDbLine
 62
7
  6
CONTINUOUS
 10
115.2869577879
 20
114.1334498717
 11
115.2869577879
 21
114.8584961014
  0
LINE
  5
373
100
AcDbEntity
  8
KONSTRUKTIONSELEMENTE
100
AcDbLine
 62
7
  6
CONTINUOUS
 10
119.5605778148
 20
139.1562374894
 11
119.5605778148
 21
142.69998268
  0
LINE
  5
374
100
AcDbEntity
  8
0
100
AcDbLine
 62
7
  6
CONTINUOUS
 10
95.9932890297
 20
126.4442454469
 11
96.1522934997
 21
127.2072157837
  0
LINE
  5
375
100
AcDbEntity
  8
0
100
AcDbLine
 62
7
  6
CONTINUOUS
 10
95.1982684997
 20
127.2072157837
 11
95.0392640297
 21
126.5968395143
  0
LINE
  5
376
100
AcDbEntity
  8
0
100
AcDbLine
 62
7
  6
CONTINUOUS
 10
95.1982684997
 20
126.9967023854
 11
95.0392640297
 21
126.386326116
  0
LINE
  5
377
100
AcDbEntity
  8
0
100
AcDbLine
 62
7
  6
CONTINUOUS
 10
88.0430805448
 20
129.8013151423
 11
87.8840765297
 21
129.3435329403
  0
LINE
  5
378
100
AcDbEntity
  8
0
100
AcDbLine
 62
7
  6
CONTINUOUS
 10
88.0430805448
 20
129.5908017441
 11
87.8840765297
 21
129.1330195421
  0
LINE
  5
379
100
AcDbEntity
  8
0
100
AcDbLine
 62
7
  6
CONTINUOUS
 10
153.7522789343
 20
127.3018907339
 11
153.4192846003
 21
128.0648610706
  0
LINE
  5
37A
100
AcDbEntity
  8
0
100
AcDbLine
 62
7
  6
CONTINUOUS
 10
153.7522789343
 20
127.5124041321
 11
153.4192846003
 21
128.2753744688
  0
LINE
  5
37B
100
AcDbEntity
  8
0
100
AcDbLine
 62
7
  6
CONTINUOUS
 10
141.9309352974
 20
130.5642859065
 11
142.0974334172
 21
130.106503277
  0
LINE
  5
37C
100
AcDbEntity
  8
0
100
AcDbLine
 62
7
  6
CONTINUOUS
 10
148.9238439415
 20
126.2337320487
 11
148.7573448691
 21
126.6915142507
  0
LINE
  5
37D
100
AcDbEntity
  8
0
100
AcDbLine
 62
7
  6
CONTINUOUS
 10
148.9238439415
 20
126.4442454469
 11
148.7573448691
 21
126.902027649
  0
LINE
  5
37E
100
AcDbEntity
  8
0
100
AcDbLine
 62
7
  6
CONTINUOUS
 10
152.7532921213
 20
127.8175922668
 11
152.9197911937
 21
127.359809851
  0
LINE
  5
37F
100
AcDbEntity
  8
0
100
AcDbLine
 62
7
  6
CONTINUOUS
 10
137.7684908782
 20
126.386326116
 11
137.6019927584
 21
126.9967023854
  0
LINE
  5
380
100
AcDbEntity
  8
0
100
AcDbLine
 62
7
  6
CONTINUOUS
 10
137.7684908782
 20
126.5968395143
 11
137.6019927584
 21
127.2072157837
  0
LINE
  5
381
100
AcDbEntity
  8
0
100
AcDbLine
 62
7
  6
CONTINUOUS
 10
136.6030059454
 20
127.2072157837
 11
136.7695040651
 21
126.4442454469
  0
LINE
  5
382
100
AcDbEntity
  8
KONSTRUKTIONSELEMENTE
100
AcDbLine
 62
7
  6
CONTINUOUS
 10
120.5605778148
 20
142.8910618442
 11
120.5605778148
 21
140.1503656492
  0
LINE
  5
383
100
AcDbEntity
  8
KONSTRUKTIONSELEMENTE
100
AcDbLine
 62
7
  6
CONTINUOUS
 10
125.0605778148
 20
144.6472168173
 11
125.0605778148
 21
140.1503656492
  0
LINE
  5
384
100
AcDbEntity
  8
0
100
AcDbLine
 62
7
  6
CONTINUOUS
 10
126.3105778148
 20
72.652339756
 11
126.3105778148
 21
97.2794017003
  0
LINE
  5
385
100
AcDbEntity
  8
KONSTRUKTIONSELEMENTE
100
AcDbLine
 62
7
  6
CONTINUOUS
 10
126.3105778148
 20
97.2794017003
 11
126.3105778148
 21
119.45545504
  0
LINE
  5
386
100
AcDbEntity
  8
0
100
AcDbLine
 62
7
  6
CONTINUOUS
 10
126.6131378148
 20
131.9376325127
 11
126.6131378148
 21
124.7657104923
  0
LINE
  5
387
100
AcDbEntity
  8
0
100
AcDbLine
 62
7
  6
CONTINUOUS
 10
127.6121246279
 20
124.7657104923
 11
127.6121246279
 21
131.9376325127
  0
LINE
  5
388
100
AcDbEntity
  8
0
100
AcDbLine
 62
7
  6
CONTINUOUS
 10
128.9441069659
 20
131.9376325127
 11
128.9441069659
 21
124.7657104923
  0
LINE
  5
389
100
AcDbEntity
  8
0
100
AcDbLine
 62
7
  6
CONTINUOUS
 10
129.943093779
 20
124.7657104923
 11
129.943093779
 21
127.9701863341
  0
LINE
  5
38A
100
AcDbEntity
  8
0
100
AcDbLine
 62
7
  6
CONTINUOUS
 10
129.943093779
 20
128.67523734
 11
129.943093779
 21
131.1746621759
  0
LINE
  5
38B
100
AcDbEntity
  8
0
100
AcDbLine
 62
7
  6
CONTINUOUS
 10
103.6254890297
 20
126.4442454469
 11
103.7844925899
 21
127.2072157837
  0
LINE
  5
38C
100
AcDbEntity
  8
0
100
AcDbLine
 62
7
  6
CONTINUOUS
 10
102.8304675899
 20
127.2072157837
 11
102.6714640297
 21
126.5968395143
  0
LINE
  5
38D
100
AcDbEntity
  8
0
100
AcDbLine
 62
7
  6
CONTINUOUS
 10
102.8304675899
 20
126.9967023854
 11
102.6714640297
 21
126.386326116
  0
LINE
  5
38E
100
AcDbEntity
  8
0
100
AcDbLine
 62
7
  6
CONTINUOUS
 10
88.8381015297
 20
129.1909388729
 11
88.9971055448
 21
129.648721075
  0
LINE
  5
38F
100
AcDbEntity
  8
0
100
AcDbLine
 62
7
  6
CONTINUOUS
 10
153.3427191825
 20
130.2590977719
 11
153.2527855278
 21
130.5063665757
  0
LINE
  5
390
100
AcDbEntity
  8
0
100
AcDbLine
 62
7
  6
CONTINUOUS
 10
153.4192846003
 20
130.2590977719
 11
153.2527855278
 21
130.7168799739
  0
LINE
  5
391
100
AcDbEntity
  8
0
100
AcDbLine
 62
7
  6
CONTINUOUS
 10
143.0525697327
 20
130.0969341245
 11
142.9299230632
 21
130.658960643
  0
LINE
  5
392
100
AcDbEntity
  8
0
100
AcDbLine
 62
7
  6
CONTINUOUS
 10
143.0964202302
 20
130.106503277
 11
142.9299230632
 21
130.8694740412
  0
LINE
  5
393
100
AcDbEntity
  8
0
100
AcDbLine
 62
7
  6
CONTINUOUS
 10
132.9400544563
 20
131.9376325127
 11
132.9400544563
 21
131.7271191145
  0
LINE
  5
394
100
AcDbEntity
  8
0
100
AcDbLine
 62
7
  6
CONTINUOUS
 10
133.0605778148
 20
360.4954701451
 11
133.0605778148
 21
158.4954701451
  0
LINE
  5
395
100
AcDbEntity
  8
0
100
AcDbLine
 62
7
  6
CONTINUOUS
 10
133.1065520997
 20
128.8857507382
 11
133.1065520997
 21
128.67523734
  0
LINE
  5
396
100
AcDbEntity
  8
0
100
AcDbLine
 62
7
  6
CONTINUOUS
 10
133.6060455062
 20
129.0383448056
 11
133.6060455062
 21
128.8278314074
  0
LINE
  5
397
100
AcDbEntity
  8
0
100
AcDbLine
 62
7
  6
CONTINUOUS
 10
133.7725431496
 20
131.7850384453
 11
133.7725431496
 21
131.5745250471
  0
LINE
  5
398
100
AcDbEntity
  8
0
100
AcDbLine
 62
7
  6
CONTINUOUS
 10
133.7725431496
 20
128.2753744688
 11
133.7725431496
 21
128.0648610706
  0
LINE
  5
399
100
AcDbEntity
  8
0
100
AcDbLine
 62
7
  6
CONTINUOUS
 10
133.9390412694
 20
129.3435329403
 11
133.9390412694
 21
129.1330195421
  0
LINE
  5
39A
100
AcDbEntity
  8
0
100
AcDbLine
 62
7
  6
CONTINUOUS
 10
134.1055389127
 20
130.2590977719
 11
134.1055389127
 21
129.5908017441
  0
LINE
  5
39B
100
AcDbEntity
  8
0
100
AcDbLine
 62
7
  6
CONTINUOUS
 10
134.4385346759
 20
131.3272562433
 11
134.4385346759
 21
131.1167428451
  0
LINE
  5
39C
100
AcDbEntity
  8
0
100
AcDbLine
 62
7
  6
CONTINUOUS
 10
134.9380276061
 20
130.7168799739
 11
134.9380276061
 21
130.5063665757
  0
LINE
  5
39D
100
AcDbEntity
  8
0
100
AcDbLine
 62
7
  6
CONTINUOUS
 10
135.1045257258
 20
129.648721075
 11
135.1045257258
 21
130.2590977719
  0
LINE
  5
39E
100
AcDbEntity
  8
0
100
AcDbLine
 62
7
  6
CONTINUOUS
 10
136.6030059454
 20
129.4961270076
 11
136.6030059454
 21
127.2072157837
  0
LINE
  5
39F
100
AcDbEntity
  8
0
100
AcDbLine
 62
7
  6
CONTINUOUS
 10
136.7695040651
 20
130.2590977719
 11
136.7695040651
 21
130.0485843736
  0
LINE
  5
3A0
100
AcDbEntity
  8
0
100
AcDbLine
 62
7
  6
CONTINUOUS
 10
137.1024993519
 20
130.8694740412
 11
137.1024993519
 21
130.658960643
  0
LINE
  5
3A1
100
AcDbEntity
  8
0
100
AcDbLine
 62
7
  6
CONTINUOUS
 10
137.6019927584
 20
126.9967023854
 11
137.6019927584
 21
129.4961270076
  0
LINE
  5
3A2
100
AcDbEntity
  8
0
100
AcDbLine
 62
7
  6
CONTINUOUS
 10
137.7684908782
 20
131.4798503106
 11
137.7684908782
 21
131.2693369124
  0
LINE
  5
3A3
100
AcDbEntity
  8
0
100
AcDbLine
 62
7
  6
CONTINUOUS
 10
137.7684908782
 20
126.5968395143
 11
137.7684908782
 21
126.386326116
  0
LINE
  5
3A4
100
AcDbEntity
  8
0
100
AcDbLine
 62
7
  6
CONTINUOUS
 10
138.101486165
 20
126.1390573122
 11
138.101486165
 21
125.928543914
  0
LINE
  5
3A5
100
AcDbEntity
  8
0
100
AcDbLine
 62
7
  6
CONTINUOUS
 10
138.4344814517
 20
131.7850384453
 11
138.4344814517
 21
131.5745250471
  0
LINE
  5
3A6
100
AcDbEntity
  8
0
100
AcDbLine
 62
7
  6
CONTINUOUS
 10
138.6009795715
 20
125.8338690706
 11
138.6009795715
 21
125.6233556724
  0
LINE
  5
3A7
100
AcDbEntity
  8
0
100
AcDbLine
 62
7
  6
CONTINUOUS
 10
139.2669710978
 20
131.9376325127
 11
139.2669710978
 21
131.7271191145
  0
LINE
  5
3A8
100
AcDbEntity
  8
0
100
AcDbLine
 62
7
  6
CONTINUOUS
 10
139.2669710978
 20
125.6812750033
 11
139.2669710978
 21
125.4707616051
  0
LINE
  5
3A9
100
AcDbEntity
  8
0
100
AcDbLine
 62
7
  6
CONTINUOUS
 10
140.5989531976
 20
128.7331566709
 11
140.5989531976
 21
127.8175922668
  0
LINE
  5
3AA
100
AcDbEntity
  8
0
100
AcDbLine
 62
7
  6
CONTINUOUS
 10
140.7654513173
 20
131.9376325127
 11
140.7654513173
 21
131.7271191145
  0
LINE
  5
3AB
100
AcDbEntity
  8
0
100
AcDbLine
 62
7
  6
CONTINUOUS
 10
140.7654513173
 20
125.6812750033
 11
140.7654513173
 21
125.4707616051
  0
LINE
  5
3AC
100
AcDbEntity
  8
0
100
AcDbLine
 62
7
  6
CONTINUOUS
 10
141.4314418909
 20
125.8338690706
 11
141.4314418909
 21
125.6233556724
  0
LINE
  5
3AD
100
AcDbEntity
  8
0
100
AcDbLine
 62
7
  6
CONTINUOUS
 10
141.5979400107
 20
131.7850384453
 11
141.5979400107
 21
131.5745250471
  0
LINE
  5
3AE
100
AcDbEntity
  8
0
100
AcDbLine
 62
7
  6
CONTINUOUS
 10
141.9309352974
 20
126.1390573122
 11
141.9309352974
 21
125.928543914
  0
LINE
  5
3AF
100
AcDbEntity
  8
0
100
AcDbLine
 62
7
  6
CONTINUOUS
 10
142.0974334172
 20
127.8175922668
 11
142.0974334172
 21
126.386326116
  0
LINE
  5
3B0
100
AcDbEntity
  8
0
100
AcDbLine
 62
7
  6
CONTINUOUS
 10
142.2639315369
 20
131.4798503106
 11
142.2639315369
 21
131.2693369124
  0
LINE
  5
3B1
100
AcDbEntity
  8
KONSTRUKTIONSELEMENTE
100
AcDbLine
 62
7
  6
CONTINUOUS
 10
142.4506573309
 20
99.0405525425
 11
142.4506573309
 21
101.932456583
  0
LINE
  5
3B2
100
AcDbEntity
  8
0
100
AcDbLine
 62
7
  6
CONTINUOUS
 10
95.6752809997
 20
125.8338690706
 11
95.9932890297
 21
126.4442454469
  0
LINE
  5
3B3
100
AcDbEntity
  8
0
100
AcDbLine
 62
7
  6
CONTINUOUS
 10
147.758358056
 20
127.8175922668
 11
147.9248571285
 21
126.7494335816
  0
LINE
  5
3B4
100
AcDbEntity
  8
0
100
AcDbLine
 62
7
  6
CONTINUOUS
 10
142.9299230632
 20
130.8694740412
 11
142.9299230632
 21
130.658960643
  0
LINE
  5
3B5
100
AcDbEntity
  8
0
100
AcDbLine
 62
7
  6
CONTINUOUS
 10
143.0964202302
 20
126.4442454469
 11
143.0964202302
 21
128.7331566709
  0
LINE
  5
3B6
100
AcDbEntity
  8
0
100
AcDbLine
 62
7
  6
CONTINUOUS
 10
144.4284032828
 20
130.8694740412
 11
144.4284032828
 21
129.648721075
  0
LINE
  5
3B7
100
AcDbEntity
  8
0
100
AcDbLine
 62
7
  6
CONTINUOUS
 10
145.4273900958
 20
131.9376325127
 11
145.4273900958
 21
131.7271191145
  0
LINE
  5
3B8
100
AcDbEntity
  8
0
100
AcDbLine
 62
7
  6
CONTINUOUS
 10
145.4273900958
 20
130.7168799739
 11
145.4273900958
 21
124.7657104923
  0
LINE
  5
3B9
100
AcDbEntity
  8
0
100
AcDbLine
 62
7
  6
CONTINUOUS
 10
146.4263769089
 20
124.7657104923
 11
146.4263769089
 21
131.9376325127
  0
LINE
  5
3BA
100
AcDbEntity
  8
0
100
AcDbLine
 62
7
  6
CONTINUOUS
 10
147.758358056
 20
128.8857507382
 11
147.758358056
 21
127.8175922668
  0
LINE
  5
3BB
100
AcDbEntity
  8
0
100
AcDbLine
 62
7
  6
CONTINUOUS
 10
147.9248571285
 20
129.9539092097
 11
147.9248571285
 21
129.7433958115
  0
LINE
  5
3BC
100
AcDbEntity
  8
0
100
AcDbLine
 62
7
  6
CONTINUOUS
 10
148.2578514625
 20
130.7168799739
 11
148.2578514625
 21
130.5063665757
  0
LINE
  5
3BD
100
AcDbEntity
  8
0
100
AcDbLine
 62
7
  6
CONTINUOUS
 10
148.590847702
 20
128.3700492053
 11
148.590847702
 21
128.8857507382
  0
LINE
  5
3BE
100
AcDbEntity
  8
0
100
AcDbLine
 62
7
  6
CONTINUOUS
 10
148.7573448691
 20
131.3272562433
 11
148.7573448691
 21
131.1167428451
  0
LINE
  5
3BF
100
AcDbEntity
  8
0
100
AcDbLine
 62
7
  6
CONTINUOUS
 10
148.7573448691
 20
126.6915142507
 11
148.7573448691
 21
127.359809851
  0
LINE
  5
3C0
100
AcDbEntity
  8
0
100
AcDbLine
 62
7
  6
CONTINUOUS
 10
148.9238439415
 20
126.4442454469
 11
148.9238439415
 21
126.2337320487
  0
LINE
  5
3C1
100
AcDbEntity
  8
0
100
AcDbLine
 62
7
  6
CONTINUOUS
 10
149.2568382756
 20
125.986463138
 11
149.2568382756
 21
125.7759497398
  0
LINE
  5
3C2
100
AcDbEntity
  8
0
100
AcDbLine
 62
7
  6
CONTINUOUS
 10
149.5898345151
 20
131.7850384453
 11
149.5898345151
 21
131.5745250471
  0
LINE
  5
3C3
100
AcDbEntity
  8
0
100
AcDbLine
 62
7
  6
CONTINUOUS
 10
149.5898345151
 20
129.1909388729
 11
149.5898345151
 21
128.9804254747
  0
LINE
  5
3C4
100
AcDbEntity
  8
0
100
AcDbLine
 62
7
  6
CONTINUOUS
 10
149.7563316821
 20
125.6812750033
 11
149.7563316821
 21
125.4707616051
  0
LINE
  5
3C5
100
AcDbEntity
  8
0
100
AcDbLine
 62
7
  6
CONTINUOUS
 10
150.2558250887
 20
125.5286809359
 11
150.2558250887
 21
125.3181675377
  0
LINE
  5
3C6
100
AcDbEntity
  8
0
100
AcDbLine
 62
7
  6
CONTINUOUS
 10
150.4223241611
 20
131.9376325127
 11
150.4223241611
 21
131.7271191145
  0
LINE
  5
3C7
100
AcDbEntity
  8
0
100
AcDbLine
 62
7
  6
CONTINUOUS
 10
150.4223241611
 20
129.3435329403
 11
150.4223241611
 21
129.1330195421
  0
LINE
  5
3C8
100
AcDbEntity
  8
0
100
AcDbLine
 62
7
  6
CONTINUOUS
 10
151.0883147347
 20
131.9376325127
 11
151.0883147347
 21
131.7271191145
  0
LINE
  5
3C9
100
AcDbEntity
  8
0
100
AcDbLine
 62
7
  6
CONTINUOUS
 10
151.2548119017
 20
129.3435329403
 11
151.2548119017
 21
129.1330195421
  0
LINE
  5
3CA
100
AcDbEntity
  8
0
100
AcDbLine
 62
7
  6
CONTINUOUS
 10
151.4213109742
 20
125.5286809359
 11
151.4213109742
 21
125.3181675377
  0
LINE
  5
3CB
100
AcDbEntity
  8
0
100
AcDbLine
 62
7
  6
CONTINUOUS
 10
151.9208043807
 20
131.7850384453
 11
151.9208043807
 21
131.5745250471
  0
LINE
  5
3CC
100
AcDbEntity
  8
0
100
AcDbLine
 62
7
  6
CONTINUOUS
 10
151.9208043807
 20
125.6812750033
 11
151.9208043807
 21
125.4707616051
  0
LINE
  5
3CD
100
AcDbEntity
  8
0
100
AcDbLine
 62
7
  6
CONTINUOUS
 10
152.0873015477
 20
129.1909388729
 11
152.0873015477
 21
128.9804254747
  0
LINE
  5
3CE
100
AcDbEntity
  8
0
100
AcDbLine
 62
7
  6
CONTINUOUS
 10
152.4202977872
 20
125.986463138
 11
152.4202977872
 21
125.7759497398
  0
LINE
  5
3CF
100
AcDbEntity
  8
0
100
AcDbLine
 62
7
  6
CONTINUOUS
 10
152.7532921213
 20
131.3272562433
 11
152.7532921213
 21
131.1167428451
  0
LINE
  5
3D0
100
AcDbEntity
  8
0
100
AcDbLine
 62
7
  6
CONTINUOUS
 10
152.7532921213
 20
126.4442454469
 11
152.7532921213
 21
126.2337320487
  0
LINE
  5
3D1
100
AcDbEntity
  8
0
100
AcDbLine
 62
7
  6
CONTINUOUS
 10
152.9197911937
 20
128.7331566709
 11
152.9197911937
 21
128.5226432727
  0
LINE
  5
3D2
100
AcDbEntity
  8
0
100
AcDbLine
 62
7
  6
CONTINUOUS
 10
152.9197911937
 20
127.359809851
 11
152.9197911937
 21
126.6915142507
  0
LINE
  5
3D3
100
AcDbEntity
  8
0
100
AcDbLine
 62
7
  6
CONTINUOUS
 10
153.2527855278
 20
130.7168799739
 11
153.2527855278
 21
130.5063665757
  0
LINE
  5
3D4
100
AcDbEntity
  8
0
100
AcDbLine
 62
7
  6
CONTINUOUS
 10
153.4192846003
 20
128.2753744688
 11
153.4192846003
 21
128.0648610706
  0
LINE
  5
3D5
100
AcDbEntity
  8
0
100
AcDbLine
 62
7
  6
CONTINUOUS
 10
153.7522789343
 20
126.7494335816
 11
153.7522789343
 21
127.5124041321
  0
LINE
  5
3D6
100
AcDbEntity
  8
0
100
AcDbLine
 62
7
  6
CONTINUOUS
 10
103.3074800899
 20
125.8338690706
 11
103.6254890297
 21
126.4442454469
  0
LINE
  5
3D7
100
AcDbEntity
  8
0
100
AcDbLine
 62
7
  6
CONTINUOUS
 10
95.0392640297
 20
126.5968395143
 11
94.7212559997
 21
126.1390573122
  0
LINE
  5
3D8
100
AcDbEntity
  8
0
100
AcDbLine
 62
7
  6
CONTINUOUS
 10
95.0392640297
 20
126.386326116
 11
94.7212559997
 21
125.928543914
  0
LINE
  5
3D9
100
AcDbEntity
  8
0
100
AcDbLine
 62
7
  6
CONTINUOUS
 10
88.3610890297
 20
128.5805626035
 11
88.8381015297
 21
129.1909388729
  0
LINE
  5
3DA
100
AcDbEntity
  8
0
100
AcDbLine
 62
7
  6
CONTINUOUS
 10
155.175116062
 20
66.4209205893
 11
155.175116062
 21
65.6713492432
  0
LINE
  5
3DB
100
AcDbEntity
  8
0
100
AcDbLine
 62
7
  6
CONTINUOUS
 10
162.5605778148
 20
81.3492528659
 11
162.5605778148
 21
73.2982246749
  0
LINE
  5
3DC
100
AcDbEntity
  8
RUNDUNGEN
100
AcDbLine
 62
7
  6
CONTINUOUS
 10
162.5605778148
 20
81.3492528659
 11
162.5605778148
 21
129.3070059374
  0
LINE
  5
3DD
100
AcDbEntity
  8
0
100
AcDbLine
 62
7
  6
CONTINUOUS
 10
165.0273655758
 20
114.3123582971
 11
165.0273655758
 21
132.5614860292
  0
LINE
  5
3DE
100
AcDbEntity
  8
0
100
AcDbLine
 62
7
  6
CONTINUOUS
 10
147.9248571285
 20
129.9539092097
 11
147.758358056
 21
128.8857507382
  0
LINE
  5
3DF
100
AcDbEntity
  8
0
100
AcDbLine
 62
7
  6
CONTINUOUS
 10
147.9248571285
 20
129.7433958115
 11
147.758358056
 21
128.67523734
  0
LINE
  5
3E0
100
AcDbEntity
  8
0
100
AcDbLine
 62
7
  6
CONTINUOUS
 10
148.590847702
 20
128.8857507382
 11
148.7573448691
 21
129.8013151423
  0
LINE
  5
3E1
100
AcDbEntity
  8
0
100
AcDbLine
 62
7
  6
CONTINUOUS
 10
136.7695040651
 20
130.2590977719
 11
136.6030059454
 21
129.4961270076
  0
LINE
  5
3E2
100
AcDbEntity
  8
0
100
AcDbLine
 62
7
  6
CONTINUOUS
 10
136.7695040651
 20
130.0485843736
 11
136.6030059454
 21
129.2856136094
  0
LINE
  5
3E3
100
AcDbEntity
  8
0
100
AcDbLine
 62
7
  6
CONTINUOUS
 10
137.6019927584
 20
129.4961270076
 11
137.7684908782
 21
130.106503277
  0
LINE
  5
3E4
100
AcDbEntity
  8
0
100
AcDbLine
 62
7
  6
CONTINUOUS
 10
134.1055389127
 20
129.8013151423
 11
133.9390412694
 21
129.3435329403
  0
LINE
  5
3E5
100
AcDbEntity
  8
0
100
AcDbLine
 62
7
  6
CONTINUOUS
 10
134.1055389127
 20
129.5908017441
 11
133.9390412694
 21
129.1330195421
  0
LINE
  5
3E6
100
AcDbEntity
  8
0
100
AcDbLine
 62
7
  6
CONTINUOUS
 10
134.9380276061
 20
129.1909388729
 11
135.1045257258
 21
129.648721075
  0
LINE
  5
3E7
100
AcDbEntity
  8
0
100
AcDbLine
 62
7
  6
CONTINUOUS
 10
102.6714640297
 20
126.5968395143
 11
102.3534550899
 21
126.1390573122
  0
LINE
  5
3E8
100
AcDbEntity
  8
0
100
AcDbLine
 62
7
  6
CONTINUOUS
 10
102.6714640297
 20
126.386326116
 11
102.3534550899
 21
125.928543914
  0
LINE
  5
3E9
100
AcDbEntity
  8
0
100
AcDbLine
 62
7
  6
CONTINUOUS
 10
87.8840765297
 20
129.3435329403
 11
87.5660680448
 21
129.0383448056
  0
LINE
  5
3EA
100
AcDbEntity
  8
0
100
AcDbLine
 62
7
  6
CONTINUOUS
 10
87.8840765297
 20
129.1330195421
 11
87.5660680448
 21
128.8278314074
  0
LINE
  5
3EB
100
AcDbEntity
  8
RUNDUNGEN
100
AcDbLine
 62
7
  6
CONTINUOUS
 10
171.5605778148
 20
70.2656743031
 11
171.5605778148
 21
80.4930972174
  0
LINE
  5
3EC
100
AcDbEntity
  8
0
100
AcDbLine
 62
7
  6
CONTINUOUS
 10
172.4478534668
 20
155.2667934719
 11
172.4478534668
 21
158.1845083649
  0
LINE
  5
3ED
100
AcDbEntity
  8
0
100
AcDbLine
 62
7
  6
CONTINUOUS
 10
142.9299230632
 20
125.8338690706
 11
143.0964202302
 21
126.4442454469
  0
LINE
  5
3EE
100
AcDbEntity
  8
0
100
AcDbLine
 62
7
  6
CONTINUOUS
 10
142.0974334172
 20
126.5968395143
 11
141.9309352974
 21
126.1390573122
  0
LINE
  5
3EF
100
AcDbEntity
  8
0
100
AcDbLine
 62
7
  6
CONTINUOUS
 10
142.0974334172
 20
126.386326116
 11
141.9309352974
 21
125.928543914
  0
LINE
  5
3F0
100
AcDbEntity
  8
0
100
AcDbLine
 62
7
  6
CONTINUOUS
 10
95.0392640297
 20
125.2234927478
 11
95.6752809997
 21
125.8338690706
  0
LINE
  5
3F1
100
AcDbEntity
  8
0
100
AcDbLine
 62
7
  6
CONTINUOUS
 10
102.6714640297
 20
125.2234927478
 11
103.3074800899
 21
125.8338690706
  0
LINE
  5
3F2
100
AcDbEntity
  8
RUNDUNGEN
100
AcDbLine
 62
7
  6
CONTINUOUS
 10
187.8916220305
 20
129.4276795559
 11
187.8916220305
 21
133.9592184911
  0
LINE
  5
3F3
100
AcDbEntity
  8
0
100
AcDbLine
 62
7
  6
CONTINUOUS
 10
165.0273655758
 20
117.0490324739
 11
162.5605778148
 21
106.1435951737
  0
LINE
  5
3F4
100
AcDbEntity
  8
0
100
AcDbLine
 62
7
  6
CONTINUOUS
 10
165.0273655758
 20
114.3123582971
 11
162.5605778148
 21
103.4069209969
  0
LINE
  5
3F5
100
AcDbEntity
  8
0
100
AcDbLine
 62
7
  6
CONTINUOUS
 10
169.4632905507
 20
147.9856725935
 11
165.0273655758
 21
132.5614860292
  0
LINE
  5
3F6
100
AcDbEntity
  8
0
100
AcDbLine
 62
7
  6
CONTINUOUS
 10
148.7573448691
 20
129.8013151423
 11
148.9238439415
 21
130.2590977719
  0
LINE
  5
3F7
100
AcDbEntity
  8
0
100
AcDbLine
 62
7
  6
CONTINUOUS
 10
148.7573448691
 20
127.359809851
 11
148.9238439415
 21
127.8175922668
  0
LINE
  5
3F8
100
AcDbEntity
  8
0
100
AcDbLine
 62
7
  6
CONTINUOUS
 10
152.9197911937
 20
126.902027649
 11
152.7532921213
 21
126.4442454469
  0
LINE
  5
3F9
100
AcDbEntity
  8
0
100
AcDbLine
 62
7
  6
CONTINUOUS
 10
152.9197911937
 20
126.6915142507
 11
152.7532921213
 21
126.2337320487
  0
LINE
  5
3FA
100
AcDbEntity
  8
0
100
AcDbLine
 62
7
  6
CONTINUOUS
 10
148.2578514625
 20
130.7168799739
 11
147.9248571285
 21
129.9539092097
  0
LINE
  5
3FB
100
AcDbEntity
  8
0
100
AcDbLine
 62
7
  6
CONTINUOUS
 10
148.2578514625
 20
130.5063665757
 11
147.9248571285
 21
129.7433958115
  0
LINE
  5
3FC
100
AcDbEntity
  8
0
100
AcDbLine
 62
7
  6
CONTINUOUS
 10
137.1024993519
 20
130.8694740412
 11
136.7695040651
 21
130.2590977719
  0
LINE
  5
3FD
100
AcDbEntity
  8
0
100
AcDbLine
 62
7
  6
CONTINUOUS
 10
137.1024993519
 20
130.658960643
 11
136.7695040651
 21
130.0485843736
  0
LINE
  5
3FE
100
AcDbEntity
  8
0
100
AcDbLine
 62
7
  6
CONTINUOUS
 10
137.7684908782
 20
130.106503277
 11
138.101486165
 21
130.5642859065
  0
LINE
  5
3FF
100
AcDbEntity
  8
0
100
AcDbLine
 62
7
  6
CONTINUOUS
 10
94.7212559997
 20
126.1390573122
 11
94.2442434997
 21
125.8338690706
  0
LINE
  5
400
100
AcDbEntity
  8
0
100
AcDbLine
 62
7
  6
CONTINUOUS
 10
94.7212559997
 20
125.928543914
 11
94.2442434997
 21
125.6233556724
  0
LINE
  5
401
100
AcDbEntity
  8
0
100
AcDbLine
 62
7
  6
CONTINUOUS
 10
87.7250725147
 20
128.2753744688
 11
88.3610890297
 21
128.5805626035
  0
LINE
  5
402
100
AcDbEntity
  8
RUNDUNGEN
100
AcDbLine
 62
7
  6
CONTINUOUS
 10
53.4392328405
 20
136.6427190976
 11
51.8009287519
 21
136.1579113445
  0
LINE
  5
403
100
AcDbEntity
  8
RUNDUNGEN
100
AcDbLine
 62
7
  6
CONTINUOUS
 10
53.4392328405
 20
132.1111801624
 11
51.8009287519
 21
131.6263724094
  0
LINE
  5
404
100
AcDbEntity
  8
0
100
AcDbLine
 62
7
  6
CONTINUOUS
 10
169.4632905507
 20
144.5320207252
 11
165.0273655758
 21
128.8428015921
  0
LINE
  5
405
100
AcDbEntity
  8
0
100
AcDbLine
 62
7
  6
CONTINUOUS
 10
153.4192846003
 20
125.986463138
 11
153.7522789343
 21
126.7494335816
  0
LINE
  5
406
100
AcDbEntity
  8
0
100
AcDbLine
 62
7
  6
CONTINUOUS
 10
148.9238439415
 20
130.2590977719
 11
149.2568382756
 21
130.7168799739
  0
LINE
  5
407
100
AcDbEntity
  8
0
100
AcDbLine
 62
7
  6
CONTINUOUS
 10
134.4385346759
 20
128.5805626035
 11
134.9380276061
 21
129.1909388729
  0
LINE
  5
408
100
AcDbEntity
  8
0
100
AcDbLine
 62
7
  6
CONTINUOUS
 10
148.7573448691
 20
131.3272562433
 11
148.2578514625
 21
130.7168799739
  0
LINE
  5
409
100
AcDbEntity
  8
0
100
AcDbLine
 62
7
  6
CONTINUOUS
 10
148.7573448691
 20
131.1167428451
 11
148.2578514625
 21
130.5063665757
  0
LINE
  5
40A
100
AcDbEntity
  8
0
100
AcDbLine
 62
7
  6
CONTINUOUS
 10
145.4273900958
 20
131.9376325127
 11
144.4284032828
 21
130.8694740412
  0
LINE
  5
40B
100
AcDbEntity
  8
0
100
AcDbLine
 62
7
  6
CONTINUOUS
 10
145.4273900958
 20
131.7271191145
 11
144.4284032828
 21
130.658960643
  0
LINE
  5
40C
100
AcDbEntity
  8
0
100
AcDbLine
 62
7
  6
CONTINUOUS
 10
144.4284032828
 20
129.648721075
 11
145.4273900958
 21
130.7168799739
  0
LINE
  5
40D
100
AcDbEntity
  8
0
100
AcDbLine
 62
7
  6
CONTINUOUS
 10
133.9390412694
 20
129.3435329403
 11
133.6060455062
 21
129.0383448056
  0
LINE
  5
40E
100
AcDbEntity
  8
0
100
AcDbLine
 62
7
  6
CONTINUOUS
 10
133.9390412694
 20
129.1330195421
 11
133.6060455062
 21
128.8278314074
  0
LINE
  5
40F
100
AcDbEntity
  8
0
100
AcDbLine
 62
7
  6
CONTINUOUS
 10
137.7684908782
 20
131.4798503106
 11
137.1024993519
 21
130.8694740412
  0
LINE
  5
410
100
AcDbEntity
  8
0
100
AcDbLine
 62
7
  6
CONTINUOUS
 10
137.7684908782
 20
131.2693369124
 11
137.1024993519
 21
130.658960643
  0
LINE
  5
411
100
AcDbEntity
  8
0
100
AcDbLine
 62
7
  6
CONTINUOUS
 10
102.3534550899
 20
126.1390573122
 11
101.8764425899
 21
125.8338690706
  0
LINE
  5
412
100
AcDbEntity
  8
0
100
AcDbLine
 62
7
  6
CONTINUOUS
 10
102.3534550899
 20
125.928543914
 11
101.8764425899
 21
125.6233556724
  0
LINE
  5
413
100
AcDbEntity
  8
0
100
AcDbLine
 62
7
  6
CONTINUOUS
 10
94.4032470598
 20
124.918304573
 11
95.0392640297
 21
125.2234927478
  0
LINE
  5
414
100
AcDbEntity
  8
0
100
AcDbLine
 62
7
  6
CONTINUOUS
 10
102.0354479696
 20
124.918304573
 11
102.6714640297
 21
125.2234927478
  0
LINE
  5
415
100
AcDbEntity
  8
0
100
AcDbLine
 62
7
  6
CONTINUOUS
 10
87.5660680448
 20
129.0383448056
 11
87.0890555448
 21
128.8857507382
  0
LINE
  5
416
100
AcDbEntity
  8
0
100
AcDbLine
 62
7
  6
CONTINUOUS
 10
87.5660680448
 20
128.8278314074
 11
87.0890555448
 21
128.67523734
  0
LINE
  5
417
100
AcDbEntity
  8
RUNDUNGEN
100
AcDbLine
 62
7
  6
CONTINUOUS
 10
62.6576684323
 20
125.8104755573
 11
57.3331801445
 21
124.23485036
  0
LINE
  5
418
100
AcDbEntity
  8
RUNDUNGEN
100
AcDbLine
 62
7
  6
CONTINUOUS
 10
66.2809725515
 20
123.3658469315
 11
69.0937900538
 21
124.1982172725
  0
LINE
  5
419
100
AcDbEntity
  8
0
100
AcDbLine
 62
7
  6
CONTINUOUS
 10
152.7532921213
 20
126.4442454469
 11
152.4202977872
 21
125.986463138
  0
LINE
  5
41A
100
AcDbEntity
  8
0
100
AcDbLine
 62
7
  6
CONTINUOUS
 10
152.7532921213
 20
126.2337320487
 11
152.4202977872
 21
125.7759497398
  0
LINE
  5
41B
100
AcDbEntity
  8
0
100
AcDbLine
 62
7
  6
CONTINUOUS
 10
152.9197911937
 20
125.3760868152
 11
153.4192846003
 21
125.986463138
  0
LINE
  5
41C
100
AcDbEntity
  8
0
100
AcDbLine
 62
7
  6
CONTINUOUS
 10
142.2639315369
 20
125.2234927478
 11
142.9299230632
 21
125.8338690706
  0
LINE
  5
41D
100
AcDbEntity
  8
0
100
AcDbLine
 62
7
  6
CONTINUOUS
 10
148.9238439415
 20
127.8175922668
 11
149.2568382756
 21
128.1227804015
  0
LINE
  5
41E
100
AcDbEntity
  8
0
100
AcDbLine
 62
7
  6
CONTINUOUS
 10
138.101486165
 20
130.5642859065
 11
138.6009795715
 21
130.8694740412
  0
LINE
  5
41F
100
AcDbEntity
  8
RUNDUNGEN
100
AcDbLine
 62
7
  6
CONTINUOUS
 10
71.549742313
 20
86.9846183882
 11
64.0073614605
 21
82.4323282295
  0
LINE
  5
420
100
AcDbEntity
  8
0
100
AcDbLine
 62
7
  6
CONTINUOUS
 10
138.4344814517
 20
131.7850384453
 11
137.7684908782
 21
131.4798503106
  0
LINE
  5
421
100
AcDbEntity
  8
0
100
AcDbLine
 62
7
  6
CONTINUOUS
 10
138.4344814517
 20
131.5745250471
 11
137.7684908782
 21
131.2693369124
  0
LINE
  5
422
100
AcDbEntity
  8
0
100
AcDbLine
 62
7
  6
CONTINUOUS
 10
133.7725431496
 20
128.2753744688
 11
134.4385346759
 21
128.5805626035
  0
LINE
  5
423
100
AcDbEntity
  8
0
100
AcDbLine
 62
7
  6
CONTINUOUS
 10
133.6060455062
 20
129.0383448056
 11
133.1065520997
 21
128.8857507382
  0
LINE
  5
424
100
AcDbEntity
  8
0
100
AcDbLine
 62
7
  6
CONTINUOUS
 10
133.6060455062
 20
128.8278314074
 11
133.1065520997
 21
128.67523734
  0
LINE
  5
425
100
AcDbEntity
  8
RUNDUNGEN
100
AcDbLine
 62
7
  6
CONTINUOUS
 10
66.2809725515
 20
118.8343079963
 11
69.0937900538
 21
119.6666783374
  0
LINE
  5
426
100
AcDbEntity
  8
0
100
AcDbLine
 62
7
  6
CONTINUOUS
 10
149.2568382756
 20
130.7168799739
 11
149.7563316821
 21
131.0220681086
  0
LINE
  5
427
100
AcDbEntity
  8
0
100
AcDbLine
 62
7
  6
CONTINUOUS
 10
141.9309352974
 20
126.1390573122
 11
141.4314418909
 21
125.8338690706
  0
LINE
  5
428
100
AcDbEntity
  8
0
100
AcDbLine
 62
7
  6
CONTINUOUS
 10
141.9309352974
 20
125.928543914
 11
141.4314418909
 21
125.6233556724
  0
LINE
  5
429
100
AcDbEntity
  8
0
100
AcDbLine
 62
7
  6
CONTINUOUS
 10
149.5898345151
 20
129.1909388729
 11
148.590847702
 21
128.5805626035
  0
LINE
  5
42A
100
AcDbEntity
  8
0
100
AcDbLine
 62
7
  6
CONTINUOUS
 10
149.5898345151
 20
128.9804254747
 11
148.590847702
 21
128.3700492053
  0
LINE
  5
42B
100
AcDbEntity
  8
0
100
AcDbLine
 62
7
  6
CONTINUOUS
 10
149.2568382756
 20
128.1227804015
 11
149.7563316821
 21
128.4279685362
  0
LINE
  5
42C
100
AcDbEntity
  8
0
100
AcDbLine
 62
7
  6
CONTINUOUS
 10
152.4202977872
 20
125.986463138
 11
151.9208043807
 21
125.6812750033
  0
LINE
  5
42D
100
AcDbEntity
  8
0
100
AcDbLine
 62
7
  6
CONTINUOUS
 10
152.4202977872
 20
125.7759497398
 11
151.9208043807
 21
125.4707616051
  0
LINE
  5
42E
100
AcDbEntity
  8
RUNDUNGEN
100
AcDbLine
 62
7
  6
CONTINUOUS
 10
71.5605778148
 20
82.459619344
 11
64.0073614605
 21
77.9007892943
  0
LINE
  5
42F
100
AcDbEntity
  8
RUNDUNGEN
100
AcDbLine
 62
7
  6
CONTINUOUS
 10
166.5376592773
 20
134.1844899598
 11
172.4899773329
 21
137.7770795461
  0
LINE
  5
430
100
AcDbEntity
  8
RUNDUNGEN
100
AcDbLine
 62
7
  6
CONTINUOUS
 10
165.0273655758
 20
128.7413960013
 11
172.4899773329
 21
133.2455406109
  0
LINE
  5
431
100
AcDbEntity
  8
0
100
AcDbLine
 62
7
  6
CONTINUOUS
 10
149.5898345151
 20
131.7850384453
 11
148.7573448691
 21
131.3272562433
  0
LINE
  5
432
100
AcDbEntity
  8
0
100
AcDbLine
 62
7
  6
CONTINUOUS
 10
149.5898345151
 20
131.5745250471
 11
148.7573448691
 21
131.1167428451
  0
LINE
  5
433
100
AcDbEntity
  8
0
100
AcDbLine
 62
7
  6
CONTINUOUS
 10
152.0873015477
 20
124.918304573
 11
152.9197911937
 21
125.3760868152
  0
LINE
  5
434
100
AcDbEntity
  8
0
100
AcDbLine
 62
7
  6
CONTINUOUS
 10
141.5979400107
 20
124.918304573
 11
142.2639315369
 21
125.2234927478
  0
LINE
  5
435
100
AcDbEntity
  8
0
100
AcDbLine
 62
7
  6
CONTINUOUS
 10
149.7563316821
 20
131.0220681086
 11
150.2558250887
 21
131.1746621759
  0
LINE
  5
436
100
AcDbEntity
  8
0
100
AcDbLine
 62
7
  6
CONTINUOUS
 10
149.7563316821
 20
128.4279685362
 11
150.2558250887
 21
128.5805626035
  0
LINE
  5
437
100
AcDbEntity
  8
0
100
AcDbLine
 62
7
  6
CONTINUOUS
 10
151.9208043807
 20
125.6812750033
 11
151.4213109742
 21
125.5286809359
  0
LINE
  5
438
100
AcDbEntity
  8
0
100
AcDbLine
 62
7
  6
CONTINUOUS
 10
151.9208043807
 20
125.4707616051
 11
151.4213109742
 21
125.3181675377
  0
LINE
  5
439
100
AcDbEntity
  8
RUNDUNGEN
100
AcDbLine
 62
7
  6
CONTINUOUS
 10
165.0273655758
 20
115.2945687121
 11
187.4395021412
 21
128.8216698647
  0
LINE
  5
43A
100
AcDbEntity
  8
0
100
AcDbLine
 62
7
  6
CONTINUOUS
 10
86.0207819255
 20
64.3228460722
 11
86.010921916
 21
64.3193888607
  0
ARC
  5
43B
100
AcDbEntity
  8
KONSTRUKTIONSELEMENTE
100
AcDbCircle
 62
7
  6
CONTINUOUS
 10
330.948519974
 20
131.9304404583
 40
9.55
100
AcDbArc
 50
115.0
 51
189.8048644765
  0
ARC
  5
43C
100
AcDbEntity
  8
KONSTRUKTIONSELEMENTE
100
AcDbCircle
 62
7
  6
CONTINUOUS
 10
330.948519974
 20
131.9304404583
 40
9.55
100
AcDbArc
 50
220.1951355235
 51
295.0
  0
ARC
  5
43D
100
AcDbEntity
  8
KONSTRUKTIONSELEMENTE
100
AcDbCircle
 62
7
  6
CONTINUOUS
 10
330.948519974
 20
131.9304404583
 40
4.55
100
AcDbArc
 50
115.0
 51
171.6416672297
  0
ARC
  5
43E
100
AcDbEntity
  8
KONSTRUKTIONSELEMENTE
100
AcDbCircle
 62
7
  6
CONTINUOUS
 10
330.948519974
 20
131.9304404583
 40
4.55
100
AcDbArc
 50
238.3583327703
 51
295.0
  0
ARC
  5
43F
100
AcDbEntity
  8
KONSTRUKTIONSELEMENTE
100
AcDbCircle
 62
7
  6
CONTINUOUS
 10
341.7335826397
 20
136.959597773
 40
9.55
100
AcDbArc
 50
295.0
 51
11.3702929546
  0
ARC
  5
440
100
AcDbEntity
  8
KONSTRUKTIONSELEMENTE
100
AcDbCircle
 62
7
  6
CONTINUOUS
 10
341.7335826397
 20
136.959597773
 40
9.55
100
AcDbArc
 50
38.6297070454
 51
115.0
  0
ARC
  5
441
100
AcDbEntity
  8
KONSTRUKTIONSELEMENTE
100
AcDbCircle
 62
7
  6
CONTINUOUS
 10
341.7335826397
 20
136.959597773
 40
4.55
100
AcDbArc
 50
295.0
 51
355.3477978529
  0
ARC
  5
442
100
AcDbEntity
  8
KONSTRUKTIONSELEMENTE
100
AcDbCircle
 62
7
  6
CONTINUOUS
 10
341.7335826397
 20
136.959597773
 40
4.55
100
AcDbArc
 50
54.6522021471
 51
115.0
  0
ARC
  5
443
100
AcDbEntity
  8
KONSTRUKTIONSELEMENTE
100
AcDbCircle
 62
7
  6
CONTINUOUS
 10
343.3649366564
 20
137.7203106442
 40
2.25
100
AcDbArc
 50
115.0
 51
295.0
  0
ARC
  5
444
100
AcDbEntity
  8
KONSTRUKTIONSELEMENTE
100
AcDbCircle
 62
7
  6
CONTINUOUS
 10
368.5149777466
 20
149.4479674075
 40
8.0
100
AcDbArc
 50
115.0
 51
188.6357041722
  0
ARC
  5
445
100
AcDbEntity
  8
KONSTRUKTIONSELEMENTE
100
AcDbCircle
 62
7
  6
CONTINUOUS
 10
368.5149777466
 20
149.4479674075
 40
8.0
100
AcDbArc
 50
221.3642958278
 51
295.0
  0
ARC
  5
446
100
AcDbEntity
  8
KONSTRUKTIONSELEMENTE
100
AcDbCircle
 62
7
  6
CONTINUOUS
 10
382.1095945522
 20
155.7872413336
 40
8.0
100
AcDbArc
 50
295.0
 51
8.6357041722
  0
ARC
  5
447
100
AcDbEntity
  8
KONSTRUKTIONSELEMENTE
100
AcDbCircle
 62
7
  6
CONTINUOUS
 10
382.1095945522
 20
155.7872413336
 40
8.0
100
AcDbArc
 50
41.3642958278
 51
115.0
  0
ARC
  5
448
100
AcDbEntity
  8
KONSTRUKTIONSELEMENTE
100
AcDbCircle
 62
7
  6
CONTINUOUS
 10
368.5149777466
 20
149.4479674075
 40
3.5
100
AcDbArc
 50
115.0
 51
164.8461224921
  0
ARC
  5
449
100
AcDbEntity
  8
KONSTRUKTIONSELEMENTE
100
AcDbCircle
 62
7
  6
CONTINUOUS
 10
368.5149777466
 20
149.4479674075
 40
3.5
100
AcDbArc
 50
245.1538775079
 51
295.0
  0
ARC
  5
44A
100
AcDbEntity
  8
KONSTRUKTIONSELEMENTE
100
AcDbCircle
 62
7
  6
CONTINUOUS
 10
382.1095945522
 20
155.7872413336
 40
3.5
100
AcDbArc
 50
295.0
 51
344.8461224921
  0
ARC
  5
44B
100
AcDbEntity
  8
KONSTRUKTIONSELEMENTE
100
AcDbCircle
 62
7
  6
CONTINUOUS
 10
382.1095945522
 20
155.7872413336
 40
3.5
100
AcDbArc
 50
65.1538775079
 51
115.0
  0
ARC
  5
44C
100
AcDbEntity
  8
KONSTRUKTIONSELEMENTE
100
AcDbCircle
 62
7
  6
CONTINUOUS
 10
367.3820930128
 20
148.9196945803
 40
2.25
100
AcDbArc
 50
295.0
 51
115.0
  0
ARC
  5
44D
100
AcDbEntity
  8
KONSTRUKTIONSELEMENTE
100
AcDbCircle
 62
7
  6
CONTINUOUS
 10
383.242479286
 20
156.3155141607
 40
2.25
100
AcDbArc
 50
115.0
 51
295.0
  0
ARC
  5
44E
100
AcDbEntity
  8
0
100
AcDbCircle
 62
7
  6
CONTINUOUS
 10
364.0783942123
 20
183.3625165232
 40
121.7052235046
100
AcDbArc
 50
341.3942966853
 51
346.6528451095
  0
ARC
  5
44F
100
AcDbEntity
  8
0
100
AcDbCircle
 62
7
  6
CONTINUOUS
 10
422.0442192858
 20
103.5895417187
 40
121.7052235046
100
AcDbArc
 50
21.3942966853
 51
26.6528451095
  0
ARC
  5
450
100
AcDbEntity
  8
0
100
AcDbCircle
 62
7
  6
CONTINUOUS
 10
454.1755446789
 20
86.7235887541
 40
22.4042
100
AcDbArc
 50
254.1512750662
 51
340.0
  0
ARC
  5
451
100
AcDbEntity
  8
RUNDUNGEN
100
AcDbCircle
 62
7
  6
CONTINUOUS
 10
452.1161143312
 20
87.4731601002
 40
22.4042
100
AcDbArc
 50
160.0
 51
250.0
  0
ARC
  5
452
100
AcDbEntity
  8
0
100
AcDbCircle
 62
7
  6
CONTINUOUS
 10
454.0967165523
 20
86.5069374642
 40
22.1727789228
100
AcDbArc
 50
249.9999356663
 51
251.6737752871
  0
ARC
  5
453
100
AcDbEntity
  8
0
100
AcDbCircle
 62
7
  6
CONTINUOUS
 10
454.0744325349
 20
86.4384861241
 40
22.1007926277
100
AcDbArc
 50
251.6728183024
 51
254.0189318338
  0
ARC
  5
454
100
AcDbEntity
  8
0
100
AcDbCircle
 62
7
  6
CONTINUOUS
 10
454.0196457718
 20
86.2461046124
 40
21.9007622639
100
AcDbArc
 50
254.018154784
 51
256.3081521079
  0
ARC
  5
455
100
AcDbEntity
  8
0
100
AcDbCircle
 62
7
  6
CONTINUOUS
 10
453.949886005
 20
85.9594842977
 40
21.6057747633
100
AcDbArc
 50
256.3079781114
 51
258.357363097
  0
ARC
  5
456
100
AcDbEntity
  8
0
100
AcDbCircle
 62
7
  6
CONTINUOUS
 10
453.8608544243
 20
85.5225319393
 40
21.1598453912
100
AcDbArc
 50
258.3547090063
 51
260.9149596664
  0
ARC
  5
457
100
AcDbEntity
  8
0
100
AcDbCircle
 62
7
  6
CONTINUOUS
 10
453.7931942477
 20
85.1093778366
 40
20.7411907797
100
AcDbArc
 50
260.9193083903
 51
262.1226539058
  0
CIRCLE
  5
458
100
AcDbEntity
  8
BEZUGSACHSEN
100
AcDbCircle
 62
7
  6
CONTINUOUS
 10
454.5139100783
 20
90.8571449103
 40
11.375
  0
ARC
  5
459
100
AcDbEntity
  8
0
100
AcDbCircle
 62
7
  6
CONTINUOUS
 10
477.9232437877
 20
124.4738144795
 40
7.5
100
AcDbArc
 50
340.0
 51
65.2676422534
  0
ARC
  5
45A
100
AcDbEntity
  8
RUNDUNGEN
100
AcDbCircle
 62
7
  6
CONTINUOUS
 10
458.1896987512
 20
131.6562374894
 40
7.5
100
AcDbArc
 50
74.7323577466
 51
160.0
  0
ARC
  5
45B
100
AcDbEntity
  8
0
100
AcDbCircle
 62
7
  6
CONTINUOUS
 10
480.4759226334
 20
130.0103342214
 40
1.4033455673
100
AcDbArc
 50
65.3557161566
 51
69.546658756
  0
ARC
  5
45C
100
AcDbEntity
  8
KONSTRUKTIONSELEMENTE
100
AcDbCircle
 62
7
  6
CONTINUOUS
 10
409.3441435526
 20
168.4869200989
 40
9.55
100
AcDbArc
 50
115.0
 51
191.3702929546
  0
ARC
  5
45D
100
AcDbEntity
  8
KONSTRUKTIONSELEMENTE
100
AcDbCircle
 62
7
  6
CONTINUOUS
 10
409.3441435526
 20
168.4869200989
 40
9.55
100
AcDbArc
 50
218.6297070454
 51
295.0
  0
ARC
  5
45E
100
AcDbEntity
  8
KONSTRUKTIONSELEMENTE
100
AcDbCircle
 62
7
  6
CONTINUOUS
 10
420.1292062184
 20
173.5160774136
 40
9.55
100
AcDbArc
 50
295.0
 51
0.2302350871
  0
ARC
  5
45F
100
AcDbEntity
  8
KONSTRUKTIONSELEMENTE
100
AcDbCircle
 62
7
  6
CONTINUOUS
 10
420.1292062184
 20
173.5160774136
 40
9.55
100
AcDbArc
 50
49.7697649129
 51
115.0
  0
ARC
  5
460
100
AcDbEntity
  8
KONSTRUKTIONSELEMENTE
100
AcDbCircle
 62
7
  6
CONTINUOUS
 10
409.3441435526
 20
168.4869200989
 40
4.55
100
AcDbArc
 50
115.0
 51
175.3477978529
  0
ARC
  5
461
100
AcDbEntity
  8
KONSTRUKTIONSELEMENTE
100
AcDbCircle
 62
7
  6
CONTINUOUS
 10
409.3441435526
 20
168.4869200989
 40
4.55
100
AcDbArc
 50
234.6522021471
 51
295.0
  0
ARC
  5
462
100
AcDbEntity
  8
KONSTRUKTIONSELEMENTE
100
AcDbCircle
 62
7
  6
CONTINUOUS
 10
420.1292062184
 20
173.5160774136
 40
4.55
100
AcDbArc
 50
295.0
 51
323.1962591458
  0
ARC
  5
463
100
AcDbEntity
  8
KONSTRUKTIONSELEMENTE
100
AcDbCircle
 62
7
  6
CONTINUOUS
 10
420.1292062184
 20
173.5160774136
 40
4.55
100
AcDbArc
 50
86.8037408542
 51
115.0
  0
ARC
  5
464
100
AcDbEntity
  8
KONSTRUKTIONSELEMENTE
100
AcDbCircle
 62
7
  6
CONTINUOUS
 10
419.7213677142
 20
173.3258991958
 40
4.0
100
AcDbArc
 50
115.0
 51
295.0
  0
ARC
  5
465
100
AcDbEntity
  8
KONSTRUKTIONSELEMENTE
100
AcDbCircle
 62
7
  6
CONTINUOUS
 10
407.2596356425
 20
167.5148980969
 40
2.25
100
AcDbArc
 50
295.0
 51
115.0
  0
ARC
  5
466
100
AcDbEntity
  8
RUNDUNGEN
100
AcDbCircle
 62
7
  6
CONTINUOUS
 10
459.7930395972
 20
137.5382880054
 40
1.4033455673
100
AcDbArc
 50
70.4533412439
 51
74.6442838435
  0
ARC
  5
467
100
AcDbEntity
  8
KONSTRUKTIONSELEMENTE
100
AcDbCircle
 62
7
  6
CONTINUOUS
 10
472.2872193623
 20
197.8377583768
 40
4.0
100
AcDbArc
 50
295.0
 51
115.0
  0
ARC
  5
468
100
AcDbEntity
  8
0
100
AcDbCircle
 62
7
  6
CONTINUOUS
 10
551.1215157772
 20
86.7235887541
 40
22.4042
100
AcDbArc
 50
200.0
 51
290.0
  0
ARC
  5
469
100
AcDbEntity
  8
RUNDUNGEN
100
AcDbCircle
 62
7
  6
CONTINUOUS
 10
553.1809461249
 20
87.4731601002
 40
22.4042
100
AcDbArc
 50
294.0706633568
 51
20.0
  0
ARC
  5
46A
100
AcDbEntity
  8
RUNDUNGEN
100
AcDbCircle
 62
7
  6
CONTINUOUS
 10
553.2571082174
 20
87.2639048893
 40
22.180640801
100
AcDbArc
 50
290.0000013974
 51
290.2848421363
  0
ARC
  5
46B
100
AcDbEntity
  8
0
100
AcDbCircle
 62
7
  6
CONTINUOUS
 10
551.2069275634
 20
86.4877927665
 40
22.1525370508
100
AcDbArc
 50
286.6842159644
 51
290.0009987523
  0
ARC
  5
46C
100
AcDbEntity
  8
RUNDUNGEN
100
AcDbCircle
 62
7
  6
CONTINUOUS
 10
553.2685359083
 20
87.2340775831
 40
22.1487015293
100
AcDbArc
 50
290.2838637861
 51
293.3159694596
  0
ARC
  5
46D
100
AcDbEntity
  8
0
100
AcDbCircle
 62
7
  6
CONTINUOUS
 10
551.2377493005
 20
86.3870543273
 40
22.0471907274
100
AcDbArc
 50
286.020902303
 51
286.6826501372
  0
ARC
  5
46E
100
AcDbEntity
  8
RUNDUNGEN
100
AcDbCircle
 62
7
  6
CONTINUOUS
 10
553.3095137922
 20
87.137692321
 40
22.0439683629
100
AcDbArc
 50
293.3173157175
 51
294.0587811351
  0
ARC
  5
46F
100
AcDbEntity
  8
RUNDUNGEN
100
AcDbCircle
 62
7
  6
CONTINUOUS
 10
553.3546246751
 20
87.0374258805
 40
21.9340217827
100
AcDbArc
 50
294.0579556574
 51
295.6632429226
  0
ARC
  5
470
100
AcDbEntity
  8
0
100
AcDbCircle
 62
7
  6
CONTINUOUS
 10
551.2859117676
 20
86.214628879
 40
21.8681698726
100
AcDbArc
 50
283.1276709106
 51
286.0242965022
  0
ARC
  5
471
100
AcDbEntity
  8
RUNDUNGEN
100
AcDbCircle
 62
7
  6
CONTINUOUS
 10
553.4277694621
 20
86.8849009747
 40
21.7648650781
100
AcDbArc
 50
295.6635751554
 51
296.8755438613
  0
ARC
  5
472
100
AcDbEntity
  8
RUNDUNGEN
100
AcDbCircle
 62
7
  6
CONTINUOUS
 10
553.4801069026
 20
86.7810671285
 40
21.6485869184
100
AcDbArc
 50
296.8762161151
 51
297.2900267121
  0
ARC
  5
473
100
AcDbEntity
  8
0
100
AcDbCircle
 62
7
  6
CONTINUOUS
 10
551.3372141137
 20
86.0011179347
 40
21.6485869151
100
AcDbArc
 50
282.7099732879
 51
283.1237838849
  0
ARC
  5
474
100
AcDbEntity
  8
RUNDUNGEN
100
AcDbCircle
 62
7
  6
CONTINUOUS
 10
553.5286490046
 20
86.6872429875
 40
21.5429493763
100
AcDbArc
 50
297.2897040063
 51
298.0658511453
  0
ARC
  5
475
100
AcDbEntity
  8
RUNDUNGEN
100
AcDbCircle
 62
7
  6
CONTINUOUS
 10
553.6737043328
 20
86.4182459211
 40
21.2373379059
100
AcDbArc
 50
298.0619701498
 51
300.4177290761
  0
ARC
  5
476
100
AcDbEntity
  8
RUNDUNGEN
100
AcDbCircle
 62
7
  6
CONTINUOUS
 10
553.85588553
 20
86.1053521423
 40
20.875273338
100
AcDbArc
 50
300.4213330439
 51
301.4726472152
  0
CIRCLE
  5
477
100
AcDbEntity
  8
BEZUGSACHSEN
100
AcDbCircle
 62
7
  6
CONTINUOUS
 10
550.7831503778
 20
90.8571449103
 40
11.375
  0
ARC
  5
478
100
AcDbEntity
  8
0
100
AcDbCircle
 62
7
  6
CONTINUOUS
 10
527.3738166684
 20
124.4738144795
 40
7.5
100
AcDbArc
 50
114.7389711817
 51
200.0
  0
ARC
  5
479
100
AcDbEntity
  8
RUNDUNGEN
100
AcDbCircle
 62
7
  6
CONTINUOUS
 10
547.1073617049
 20
131.6562374894
 40
7.5
100
AcDbArc
 50
20.0
 51
105.2610288183
  0
ARC
  5
47A
100
AcDbEntity
  8
0
100
AcDbCircle
 62
7
  6
CONTINUOUS
 10
524.820783075
 20
130.0112271793
 40
1.4023849396
100
AcDbArc
 50
110.4525100648
 51
114.6816907923
  0
ARC
  5
47B
100
AcDbEntity
  8
RUNDUNGEN
100
AcDbCircle
 62
7
  6
CONTINUOUS
 10
545.5037186291
 20
137.5392000782
 40
1.4023849396
100
AcDbArc
 50
105.3183092077
 51
109.5474899352
  0
ARC
  5
47C
100
AcDbEntity
  8
BEZUGSACHSEN
100
AcDbCircle
 62
7
  6
CONTINUOUS
 10
514.8382697989
 20
189.6148926459
 40
12.0
100
AcDbArc
 50
20.0
 51
43.361736267
  0
ARC
  5
47D
100
AcDbEntity
  8
BEZUGSACHSEN
100
AcDbCircle
 62
7
  6
CONTINUOUS
 10
514.8382697989
 20
189.6148926459
 40
12.0
100
AcDbArc
 50
176.638263733
 51
200.0
  0
ARC
  5
47E
100
AcDbEntity
  8
BEZUGSACHSEN
100
AcDbCircle
 62
7
  6
CONTINUOUS
 10
490.4587906573
 20
189.6148926459
 40
12.0
100
AcDbArc
 50
136.638263733
 51
160.0
  0
ARC
  5
47F
100
AcDbEntity
  8
BEZUGSACHSEN
100
AcDbCircle
 62
7
  6
CONTINUOUS
 10
490.4587906573
 20
189.6148926459
 40
12.0
100
AcDbArc
 50
340.0
 51
3.361736267
  0
ARC
  5
480
100
AcDbEntity
  8
0
100
AcDbCircle
 62
7
  6
CONTINUOUS
 10
583.2528411703
 20
103.5895417187
 40
121.7052235046
100
AcDbArc
 50
153.3471548905
 51
158.6057033147
  0
ARC
  5
481
100
AcDbEntity
  8
0
100
AcDbCircle
 62
7
  6
CONTINUOUS
 10
641.2186662438
 20
183.3625165232
 40
121.7052235046
100
AcDbArc
 50
193.3471548905
 51
198.6057033147
  0
ARC
  5
482
100
AcDbEntity
  8
0
100
AcDbCircle
 62
7
  6
CONTINUOUS
 10
502.6485302281
 20
211.9954701451
 40
69.5
100
AcDbArc
 50
303.1446313934
 51
360.0
  0
ARC
  5
483
100
AcDbEntity
  8
0
100
AcDbCircle
 62
7
  6
CONTINUOUS
 10
502.6485302281
 20
211.9954701451
 40
69.5
100
AcDbArc
 50
256.7780537361
 51
283.2219462639
  0
ARC
  5
484
100
AcDbEntity
  8
0
100
AcDbCircle
 62
7
  6
CONTINUOUS
 10
502.6485302281
 20
211.9954701451
 40
69.5
100
AcDbArc
 50
208.3001057296
 51
236.8553686066
  0
ARC
  5
485
100
AcDbEntity
  8
0
100
AcDbCircle
 62
7
  6
CONTINUOUS
 10
502.6485302281
 20
211.9954701451
 40
69.5
100
AcDbArc
 50
180.0
 51
201.6995362966
  0
ARC
  5
486
100
AcDbEntity
  8
0
100
AcDbCircle
 62
7
  6
CONTINUOUS
 10
502.6485302281
 20
306.9954701451
 40
69.5
100
AcDbArc
 50
0.0
 51
180.0
  0
ARC
  5
487
100
AcDbEntity
  8
0
100
AcDbCircle
 62
7
  6
CONTINUOUS
 10
502.6485302281
 20
211.9954701451
 40
37.5
100
AcDbArc
 50
314.9197114919
 51
360.0
  0
ARC
  5
488
100
AcDbEntity
  8
0
100
AcDbCircle
 62
7
  6
CONTINUOUS
 10
502.6485302281
 20
211.9954701451
 40
37.5
100
AcDbArc
 50
262.6350669499
 51
277.3649330501
  0
ARC
  5
489
100
AcDbEntity
  8
0
100
AcDbCircle
 62
7
  6
CONTINUOUS
 10
502.6485302281
 20
211.9954701451
 40
37.5
100
AcDbArc
 50
211.1252546029
 51
225.0802885081
  0
ARC
  5
48A
100
AcDbEntity
  8
0
100
AcDbCircle
 62
7
  6
CONTINUOUS
 10
502.6485302281
 20
211.9954701451
 40
37.5
100
AcDbArc
 50
180.0
 51
198.875177869
  0
ARC
  5
48B
100
AcDbEntity
  8
0
100
AcDbCircle
 62
7
  6
CONTINUOUS
 10
502.6485302281
 20
306.9954701451
 40
37.5
100
AcDbArc
 50
0.0
 51
180.0
  0
ARC
  5
48C
100
AcDbEntity
  8
0
100
AcDbCircle
 62
7
  6
CONTINUOUS
 10
1350.5338133772
 20
507.8232838848
 40
1336.2101243067
100
AcDbArc
 50
195.2985174124
 51
195.7762778498
  0
ARC
  5
48D
100
AcDbEntity
  8
0
100
AcDbCircle
 62
7
  6
CONTINUOUS
 10
-1075.9322005876
 20
496.5686002396
 40
1294.1946077247
100
AcDbArc
 50
344.2159669511
 51
344.7092377867
  0
ARC
  5
48E
100
AcDbEntity
  8
0
100
AcDbCircle
 62
7
  6
CONTINUOUS
 10
1216.2918606008
 20
-156.980150888
 40
1196.8595481222
100
AcDbArc
 50
163.4369963513
 51
164.7324719202
  0
ARC
  5
48F
100
AcDbEntity
  8
0
100
AcDbCircle
 62
7
  6
CONTINUOUS
 10
-982.1707048144
 20
-156.9801508433
 40
1196.8595479592
100
AcDbArc
 50
15.2675280797
 51
16.5630036488
  0
ARC
  5
490
100
AcDbEntity
  8
0
100
AcDbCircle
 62
7
  6
CONTINUOUS
 10
-1032.294093889
 20
-167.4876104527
 40
1141.4144701202
100
AcDbArc
 50
16.0447480563
 51
16.5781734638
  0
ARC
  5
491
100
AcDbEntity
  8
0
100
AcDbCircle
 62
7
  6
CONTINUOUS
 10
1265.5487079223
 20
-167.2340277917
 40
1140.5115964713
100
AcDbArc
 50
163.4216153945
 51
163.9554630855
  0
ARC
  5
492
100
AcDbEntity
  8
0
100
AcDbCircle
 62
7
  6
CONTINUOUS
 10
405.1570726002
 20
-153.1106774919
 40
476.1537887061
100
AcDbArc
 50
131.5451762616
 51
134.8931815258
  0
ARC
  5
493
100
AcDbEntity
  8
0
100
AcDbCircle
 62
7
  6
CONTINUOUS
 10
-171.0359169398
 20
-153.1106774592
 40
476.1537886612
100
AcDbArc
 50
45.1068184741
 51
48.4548237385
  0
ARC
  5
494
100
AcDbEntity
  8
0
100
AcDbCircle
 62
7
  6
CONTINUOUS
 10
33.8476584844
 20
-177.1040043995
 40
396.2018845294
100
AcDbArc
 50
73.7443099411
 51
75.4982089229
  0
ARC
  5
495
100
AcDbEntity
  8
0
100
AcDbCircle
 62
7
  6
CONTINUOUS
 10
198.0697445518
 20
-169.0917203805
 40
387.8930519479
100
AcDbArc
 50
104.4830049331
 51
106.2744761938
  0
ARC
  5
496
100
AcDbEntity
  8
KONSTRUKTIONSELEMENTE
100
AcDbCircle
 62
7
  6
CONTINUOUS
 10
117.0605778148
 20
15.7889791743
 40
57.6108
100
AcDbArc
 50
57.4170748811
 51
80.7605878645
  0
ARC
  5
497
100
AcDbEntity
  8
KONSTRUKTIONSELEMENTE
100
AcDbCircle
 62
7
  6
CONTINUOUS
 10
117.0605778148
 20
15.7889791743
 40
57.6108
100
AcDbArc
 50
99.2394121355
 51
122.5829251189
  0
ARC
  5
498
100
AcDbEntity
  8
KONSTRUKTIONSELEMENTE
100
AcDbCircle
 62
7
  6
CONTINUOUS
 10
120.4932255082
 20
220.3835057374
 40
50.7446113165
100
AcDbArc
 50
284.3494571286
 51
284.8243299047
  0
ARC
  5
499
100
AcDbEntity
  8
KONSTRUKTIONSELEMENTE
100
AcDbCircle
 62
7
  6
CONTINUOUS
 10
113.6251823586
 20
220.3731482061
 40
50.7338986087
100
AcDbArc
 50
255.1761820727
 51
255.6504930304
  0
ARC
  5
49A
100
AcDbEntity
  8
0
100
AcDbCircle
 62
7
  6
CONTINUOUS
 10
117.0605778148
 20
360.4954701451
 40
16.0
100
AcDbArc
 50
0.0
 51
180.0
  0
ARC
  5
49B
100
AcDbEntity
  8
0
100
AcDbCircle
 62
7
  6
CONTINUOUS
 10
117.0605778148
 20
158.4954701451
 40
16.0
100
AcDbArc
 50
180.0
 51
360.0
  0
ARC
  5
49C
100
AcDbEntity
  8
0
100
AcDbCircle
 62
7
  6
CONTINUOUS
 10
155.0605778148
 20
71.8193887541
 40
7.5
100
AcDbArc
 50
270.0
 51
277.62677601
  0
ARC
  5
49D
100
AcDbEntity
  8
0
100
AcDbCircle
 62
7
  6
CONTINUOUS
 10
79.0605778148
 20
71.8193887541
 40
7.5
100
AcDbArc
 50
262.4340396152
 51
270.0
  0
ARC
  5
49E
100
AcDbEntity
  8
KONSTRUKTIONSELEMENTE
100
AcDbCircle
 62
7
  6
CONTINUOUS
 10
112.369201991
 20
140.1516505092
 40
3.3086244256
100
AcDbArc
 50
180.0222500497
 51
197.5607905565
  0
ARC
  5
49F
100
AcDbEntity
  8
KONSTRUKTIONSELEMENTE
100
AcDbCircle
 62
7
  6
CONTINUOUS
 10
121.763268976
 20
140.1495566864
 40
3.297308938
100
AcDbArc
 50
342.4001112779
 51
0.0140569631
  0
ARC
  5
4A0
100
AcDbEntity
  8
BEZUGSACHSEN
100
AcDbCircle
 62
7
  6
CONTINUOUS
 10
88.4435476999
 20
98.714226495
 40
2.6832372029
100
AcDbArc
 50
162.671236886
 51
171.206647889
  0
ARC
  5
4A1
100
AcDbEntity
  8
BEZUGSACHSEN
100
AcDbCircle
 62
7
  6
CONTINUOUS
 10
88.4326427473
 20
98.7160212183
 40
2.6721860663
100
AcDbArc
 50
171.2089330322
 51
174.3082611144
  0
ARC
  5
4A2
100
AcDbEntity
  8
BEZUGSACHSEN
100
AcDbCircle
 62
7
  6
CONTINUOUS
 10
89.0899853805
 20
98.7162227045
 40
2.6707000734
100
AcDbArc
 50
5.0667455742
 51
8.7916231559
  0
ARC
  5
4A3
100
AcDbEntity
  8
BEZUGSACHSEN
100
AcDbCircle
 62
7
  6
CONTINUOUS
 10
89.1655282646
 20
99.2507272628
 40
2.5950496525
100
AcDbArc
 50
355.0558569317
 51
0.0160805659
  0
ARC
  5
4A4
100
AcDbEntity
  8
KONSTRUKTIONSELEMENTE
100
AcDbCircle
 62
7
  6
CONTINUOUS
 10
117.0605778148
 20
143.6979674075
 40
2.25
100
AcDbArc
 50
208.7256489123
 51
331.2743510877
  0
SPLINE
  5
4A5
100
AcDbEntity
  8
0
100
AcDbSpline
 62
7
  6
CONTINUOUS
 70
0
 71
3
 72
11
 73
7
 74
0
 42
0.0000001
 43
0.0000001
 44
0.0000000001
 40
0.0
 40
0.0
 40
0.0
 40
0.0
 40
0.2552284564
 40
0.5000000008
 40
0.7447715449
 40
1.0
 40
1.0
 40
1.0
 40
1.0
 10
511.8735887508
 20
210.2315225805
 30
0.0
 10
512.3197518216
 20
209.7590867631
 30
0.0
 10
513.1207889563
 20
208.7582505146
 30
0.0
 10
513.9762315187
 20
207.0484628184
 30
0.0
 10
514.4199548384
 20
205.1888215772
 30
0.0
 10
514.4496499339
 20
203.90723979
 30
0.0
 10
514.4115450828
 20
203.2585448667
 30
0.0
  0
SPLINE
  5
4A6
100
AcDbEntity
  8
0
100
AcDbSpline
 62
7
  6
CONTINUOUS
 70
0
 71
3
 72
11
 73
7
 74
0
 42
0.0000001
 43
0.0000001
 44
0.0000000001
 40
0.0
 40
0.0
 40
0.0
 40
0.0
 40
0.2552284564
 40
0.5000000008
 40
0.7447715449
 40
1.0
 40
1.0
 40
1.0
 40
1.0
 10
503.8572329659
 20
207.3138076875
 30
0.0
 10
503.8191281146
 20
206.6651127611
 30
0.0
 10
503.8488232087
 20
205.3835309693
 30
0.0
 10
504.2925465337
 20
203.5238897258
 30
0.0
 10
505.1479890986
 20
201.8141020348
 30
0.0
 10
505.9490262293
 20
200.8132657888
 30
0.0
 10
506.3951892979
 20
200.3408299737
 30
0.0
  0
SPLINE
  5
4A7
100
AcDbEntity
  8
0
100
AcDbSpline
 62
7
  6
CONTINUOUS
 70
0
 71
3
 72
11
 73
7
 74
0
 42
0.0000001
 43
0.0000001
 44
0.0000000001
 40
0.0
 40
0.0
 40
0.0
 40
0.0
 40
0.2500298113
 40
0.5000000009
 40
0.7499701899
 40
1.0
 40
1.0
 40
1.0
 40
1.0
 10
521.3453707293
 20
184.2080154727
 30
0.0
 10
522.3811295111
 20
182.1398346051
 30
0.0
 10
524.3427767406
 20
177.9477443605
 30
0.0
 10
526.9128842879
 20
171.4989477601
 30
0.0
 10
529.0892742274
 20
164.9068496817
 30
0.0
 10
530.2811889332
 20
160.4345997268
 30
0.0
 10
530.8171527077
 20
158.1845083649
 30
0.0
  0
LINE
  5
4A8
100
AcDbEntity
  8
0
100
AcDbLine
 62
7
  6
CONTINUOUS
 10
533.0205442261
 20
108.9595580211
 11
525.1640605429
 21
108.6165365356
  0
SPLINE
  5
4A9
100
AcDbEntity
  8
0
100
AcDbSpline
 62
7
  6
CONTINUOUS
 70
0
 71
3
 72
9
 73
5
 74
0
 42
0.0000001
 43
0.0000001
 44
0.0000000001
 40
0.0
 40
0.0
 40
0.0
 40
0.0
 40
0.2443167374
 40
1.0
 40
1.0
 40
1.0
 40
1.0
 10
524.3307464505
 20
131.3252087718
 30
0.0
 10
524.3707705578
 20
131.3401798188
 30
0.0
 10
524.5372714789
 20
131.3942168346
 30
0.0
 10
524.7130251894
 20
131.418175151
 30
0.0
 10
524.8451632875
 20
131.4212325452
 30
0.0
  0
LINE
  5
4AA
100
AcDbEntity
  8
0
100
AcDbLine
 62
7
  6
CONTINUOUS
 10
530.5387394345
 20
99.6973364445
 11
522.6822557514
 21
99.354314959
  0
SPLINE
  5
4AB
100
AcDbEntity
  8
0
100
AcDbSpline
 62
7
  6
CONTINUOUS
 70
0
 71
3
 72
11
 73
7
 74
0
 42
0.0000001
 43
0.0000001
 44
0.0000000001
 40
0.0
 40
0.0
 40
0.0
 40
0.0
 40
0.2503958304
 40
0.5000000009
 40
0.7496041707
 40
1.0
 40
1.0
 40
1.0
 40
1.0
 10
514.4115450828
 20
203.2585448667
 30
0.0
 10
515.2347735213
 20
201.7724400052
 30
0.0
 10
516.7728625891
 20
198.7444826851
 30
0.0
 10
518.7102138103
 20
194.0360145462
 30
0.0
 10
520.2526616464
 20
189.1838133387
 30
0.0
 10
521.0207505099
 20
185.875598876
 30
0.0
 10
521.3453707293
 20
184.2080154727
 30
0.0
  0
SPLINE
  5
4AC
100
AcDbEntity
  8
0
100
AcDbSpline
 62
7
  6
CONTINUOUS
 70
0
 71
3
 72
11
 73
7
 74
0
 42
0.0000001
 43
0.0000001
 44
0.0000000001
 40
0.0
 40
0.0
 40
0.0
 40
0.0
 40
0.2500298113
 40
0.5000000009
 40
0.7499701899
 40
1.0
 40
1.0
 40
1.0
 40
1.0
 10
513.3290149443
 20
181.2903005797
 30
0.0
 10
513.8649787214
 20
179.0402092071
 30
0.0
 10
515.0568934298
 20
174.5679592365
 30
0.0
 10
517.2332833771
 20
167.975861149
 30
0.0
 10
519.8033909245
 20
161.5270645606
 30
0.0
 10
521.7650381459
 20
157.3349743297
 30
0.0
 10
522.8007969228
 20
155.2667934719
 30
0.0
  0
SPLINE
  5
4AD
100
AcDbEntity
  8
0
100
AcDbSpline
 62
7
  6
CONTINUOUS
 70
0
 71
3
 72
11
 73
7
 74
0
 42
0.0000001
 43
0.0000001
 44
0.0000000001
 40
0.0
 40
0.0
 40
0.0
 40
0.0
 40
0.2503958304
 40
0.5000000009
 40
0.7496041707
 40
1.0
 40
1.0
 40
1.0
 40
1.0
 10
506.3951892979
 20
200.3408299737
 30
0.0
 10
506.7198095188
 20
198.6732465625
 30
0.0
 10
507.4878983835
 20
195.365032088
 30
0.0
 10
509.0303462264
 20
190.5128308741
 30
0.0
 10
510.9676974486
 20
185.8043627445
 30
0.0
 10
512.5057865098
 20
182.7764054341
 30
0.0
 10
513.3290149443
 20
181.2903005797
 30
0.0
  0
LINE
  5
4AE
100
AcDbEntity
  8
RUNDUNGEN
100
AcDbLine
 62
7
  6
CONTINUOUS
 10
552.7540892626
 20
116.141981031
 11
558.9929948912
 21
120.9292616953
  0
SPLINE
  5
4AF
100
AcDbEntity
  8
RUNDUNGEN
100
AcDbSpline
 62
7
  6
CONTINUOUS
 70
0
 71
3
 72
9
 73
5
 74
0
 42
0.0000001
 43
0.0000001
 44
0.0000000001
 40
0.0
 40
0.0
 40
0.0
 40
0.0
 40
0.2443167374
 40
1.0
 40
1.0
 40
1.0
 40
1.0
 10
545.0344973752
 20
138.8607578461
 30
0.0
 10
544.9942139267
 20
138.8464993332
 30
0.0
 10
544.8319324972
 20
138.7808693597
 30
0.0
 10
544.6818972349
 20
138.6862501875
 30
0.0
 10
544.578708324
 20
138.603655555
 30
0.0
  0
LINE
  5
4B0
100
AcDbEntity
  8
RUNDUNGEN
100
AcDbLine
 62
7
  6
CONTINUOUS
 10
560.6089032996
 20
110.641981031
 11
566.8478089283
 21
115.4292616953
  0
SPLINE
  5
4B1
100
AcDbEntity
  8
0
100
AcDbSpline
 62
7
  6
CONTINUOUS
 70
0
 71
3
 72
21
 73
17
 74
0
 42
0.0000001
 43
0.0000001
 44
0.0000000001
 40
0.0
 40
0.0
 40
0.0
 40
0.0
 40
0.132756255
 40
0.2637276417
 40
0.3918614936
 40
0.5159869298
 40
0.5763289425
 40
0.6353415115
 40
0.6930867091
 40
0.7500009208
 40
0.7786338804
 40
0.807722658
 40
0.8376416761
 40
0.8686654957
 40
0.9333797797
 40
1.0
 40
1.0
 40
1.0
 40
1.0
 10
556.1002498096
 20
64.8830023374
 30
0.0
 10
555.1745311542
 20
64.6742150807
 30
0.0
 10
553.3056435123
 20
64.3798393018
 30
0.0
 10
550.4944531704
 20
64.3393433737
 30
0.0
 10
547.7716644908
 20
64.7405550552
 30
0.0
 10
545.645311337
 20
65.493394464
 30
0.0
 10
544.142712353
 20
66.3821328609
 30
0.0
 10
543.1610942517
 20
67.1917270831
 30
0.0
 10
542.3673114079
 20
68.1580356842
 30
0.0
 10
541.9322643764
 20
69.1048877803
 30
0.0
 10
541.7957989938
 20
69.9176744813
 30
0.0
 10
541.8207491007
 20
70.5487993882
 30
0.0
 10
541.9954047457
 20
71.1746460405
 30
0.0
 10
542.440230952
 20
71.9647048885
 30
0.0
 10
543.3396376905
 20
72.7470473104
 30
0.0
 10
544.2014013143
 20
73.1353490915
 30
0.0
 10
544.648898302
 20
73.2982246749
 30
0.0
  0
SPLINE
  5
4B2
100
AcDbEntity
  8
RUNDUNGEN
100
AcDbSpline
 62
7
  6
CONTINUOUS
 70
0
 71
3
 72
20
 73
16
 74
0
 42
0.0000001
 43
0.0000001
 44
0.0000000001
 40
0.0
 40
0.0
 40
0.0
 40
0.0
 40
0.1326380083
 40
0.2631612582
 40
0.3905977596
 40
0.5139183197
 40
0.6322320041
 40
0.6898820473
 40
0.7470498728
 40
0.7760174904
 40
0.8055706634
 40
0.8360405406
 40
0.8675844033
 40
0.9330017689
 40
1.0
 40
1.0
 40
1.0
 40
1.0
 10
564.7546874244
 20
68.3010505777
 30
0.0
 10
565.504834603
 20
68.7602666249
 30
0.0
 10
566.9375838935
 20
69.766997484
 30
0.0
 10
568.8358204301
 20
71.5423651795
 30
0.0
 10
570.390117951
 20
73.553989907
 30
0.0
 10
571.4887419877
 20
75.7597503672
 30
0.0
 10
571.8939549001
 20
77.7436520888
 30
0.0
 10
571.7416777639
 20
79.2942080856
 30
0.0
 10
571.3949982029
 20
80.2011226723
 30
0.0
 10
570.9381912789
 20
80.8229707008
 30
0.0
 10
570.4963150084
 20
81.2209985062
 30
0.0
 10
569.9621978085
 20
81.5205196289
 30
0.0
 10
569.1458958097
 20
81.7628542634
 30
0.0
 10
568.0353905519
 20
81.7442218516
 30
0.0
 10
567.186400078
 20
81.5012044761
 30
0.0
 10
566.7689164599
 20
81.3492528659
 30
0.0
  0
LINE
  5
4B3
100
AcDbEntity
  8
0
100
AcDbLine
 62
7
  6
CONTINUOUS
 10
474.7583210216
 20
99.6973364445
 11
482.6148047047
 21
99.354314959
  0
LINE
  5
4B4
100
AcDbEntity
  8
0
100
AcDbLine
 62
7
  6
CONTINUOUS
 10
472.2765162301
 20
108.9595580211
 11
480.1329999132
 21
108.6165365356
  0
SPLINE
  5
4B5
100
AcDbEntity
  8
0
100
AcDbSpline
 62
7
  6
CONTINUOUS
 70
0
 71
3
 72
9
 73
5
 74
0
 42
0.0000001
 43
0.0000001
 44
0.0000000001
 40
0.0
 40
0.0
 40
0.0
 40
0.0
 40
0.2443167337
 40
1.0
 40
1.0
 40
1.0
 40
1.0
 10
480.9663140056
 20
131.3252087718
 30
0.0
 10
480.9262898989
 20
131.3401798186
 30
0.0
 10
480.7597889782
 20
131.3942168355
 30
0.0
 10
480.5840352673
 20
131.418175151
 30
0.0
 10
480.4518971686
 20
131.4212325452
 30
0.0
  0
SPLINE
  5
4B6
100
AcDbEntity
  8
0
100
AcDbSpline
 62
7
  6
CONTINUOUS
 70
0
 71
3
 72
11
 73
7
 74
0
 42
0.0000001
 43
0.0000001
 44
0.0000000001
 40
0.0
 40
0.0
 40
0.0
 40
0.0
 40
0.2552284564
 40
0.5000000008
 40
0.7447715449
 40
1.0
 40
1.0
 40
1.0
 40
1.0
 10
490.8855153733
 20
203.2585448667
 30
0.0
 10
490.847410522
 20
203.9072397931
 30
0.0
 10
490.8771056161
 20
205.1888215848
 30
0.0
 10
491.3208289411
 20
207.0484628284
 30
0.0
 10
492.176271506
 20
208.7582505194
 30
0.0
 10
492.9773086367
 20
209.7590867654
 30
0.0
 10
493.4234717053
 20
210.2315225805
 30
0.0
  0
SPLINE
  5
4B7
100
AcDbEntity
  8
0
100
AcDbSpline
 62
7
  6
CONTINUOUS
 70
0
 71
3
 72
11
 73
7
 74
0
 42
0.0000001
 43
0.0000001
 44
0.0000000001
 40
0.0
 40
0.0
 40
0.0
 40
0.0
 40
0.2503958304
 40
0.5000000009
 40
0.7496041707
 40
1.0
 40
1.0
 40
1.0
 40
1.0
 10
483.9516897268
 20
184.2080154727
 30
0.0
 10
484.2763099478
 20
185.8755988839
 30
0.0
 10
485.0443988124
 20
189.1838133584
 30
0.0
 10
486.5868466554
 20
194.0360145723
 30
0.0
 10
488.5241978776
 20
198.7444827019
 30
0.0
 10
490.0622869387
 20
201.7724400123
 30
0.0
 10
490.8855153733
 20
203.2585448667
 30
0.0
  0
SPLINE
  5
4B8
100
AcDbEntity
  8
0
100
AcDbSpline
 62
7
  6
CONTINUOUS
 70
0
 71
3
 72
11
 73
7
 74
0
 42
0.0000001
 43
0.0000001
 44
0.0000000001
 40
0.0
 40
0.0
 40
0.0
 40
0.0
 40
0.2500298113
 40
0.5000000009
 40
0.7499701899
 40
1.0
 40
1.0
 40
1.0
 40
1.0
 10
474.4799077484
 20
158.1845083649
 30
0.0
 10
475.0158715255
 20
160.4345997375
 30
0.0
 10
476.2077862339
 20
164.9068497081
 30
0.0
 10
478.3841761812
 20
171.4989477956
 30
0.0
 10
480.9542837286
 20
177.947744384
 30
0.0
 10
482.91593095
 20
182.1398346149
 30
0.0
 10
483.9516897268
 20
184.2080154727
 30
0.0
  0
SPLINE
  5
4B9
100
AcDbEntity
  8
0
100
AcDbSpline
 62
7
  6
CONTINUOUS
 70
0
 71
3
 72
11
 73
7
 74
0
 42
0.0000001
 43
0.0000001
 44
0.0000000001
 40
0.0
 40
0.0
 40
0.0
 40
0.0
 40
0.2552284564
 40
0.5000000008
 40
0.7447715449
 40
1.0
 40
1.0
 40
1.0
 40
1.0
 10
498.9018711582
 20
200.3408299737
 30
0.0
 10
499.348034229
 20
200.8132657911
 30
0.0
 10
500.1490713637
 20
201.8141020396
 30
0.0
 10
501.0045139261
 20
203.5238897358
 30
0.0
 10
501.4482372458
 20
205.383530977
 30
0.0
 10
501.4779323413
 20
206.6651127642
 30
0.0
 10
501.4398274902
 20
207.3138076875
 30
0.0
  0
SPLINE
  5
4BA
100
AcDbEntity
  8
0
100
AcDbSpline
 62
7
  6
CONTINUOUS
 70
0
 71
3
 72
11
 73
7
 74
0
 42
0.0000001
 43
0.0000001
 44
0.0000000001
 40
0.0
 40
0.0
 40
0.0
 40
0.0
 40
0.2503958304
 40
0.5000000009
 40
0.7496041707
 40
1.0
 40
1.0
 40
1.0
 40
1.0
 10
491.9680455118
 20
181.2903005797
 30
0.0
 10
492.7912739503
 20
182.7764054412
 30
0.0
 10
494.3293630181
 20
185.8043627613
 30
0.0
 10
496.2667142392
 20
190.5128309002
 30
0.0
 10
497.8091620753
 20
195.3650321077
 30
0.0
 10
498.5772509388
 20
198.6732465704
 30
0.0
 10
498.9018711582
 20
200.3408299737
 30
0.0
  0
SPLINE
  5
4BB
100
AcDbEntity
  8
0
100
AcDbSpline
 62
7
  6
CONTINUOUS
 70
0
 71
3
 72
11
 73
7
 74
0
 42
0.0000001
 43
0.0000001
 44
0.0000000001
 40
0.0
 40
0.0
 40
0.0
 40
0.0
 40
0.2500298113
 40
0.5000000009
 40
0.7499701899
 40
1.0
 40
1.0
 40
1.0
 40
1.0
 10
482.4962635333
 20
155.2667934719
 30
0.0
 10
483.5320223151
 20
157.3349743395
 30
0.0
 10
485.4936695446
 20
161.5270645841
 30
0.0
 10
488.0637770919
 20
167.9758611845
 30
0.0
 10
490.2401670315
 20
174.5679592629
 30
0.0
 10
491.4320817372
 20
179.0402092178
 30
0.0
 10
491.9680455118
 20
181.2903005797
 30
0.0
  0
LINE
  5
4BC
100
AcDbEntity
  8
RUNDUNGEN
100
AcDbLine
 62
7
  6
CONTINUOUS
 10
444.6881571565
 20
110.641981031
 11
438.4492515278
 21
115.4292616953
  0
LINE
  5
4BD
100
AcDbEntity
  8
RUNDUNGEN
100
AcDbLine
 62
7
  6
CONTINUOUS
 10
452.5429711936
 20
116.141981031
 11
446.3040655649
 21
120.9292616953
  0
SPLINE
  5
4BE
100
AcDbEntity
  8
RUNDUNGEN
100
AcDbSpline
 62
7
  6
CONTINUOUS
 70
0
 71
3
 72
9
 73
5
 74
0
 42
0.0000001
 43
0.0000001
 44
0.0000000001
 40
0.0
 40
0.0
 40
0.0
 40
0.0
 40
0.2443167337
 40
1.0
 40
1.0
 40
1.0
 40
1.0
 10
460.2625630809
 20
138.8607578461
 30
0.0
 10
460.3028465288
 20
138.8464993334
 30
0.0
 10
460.4651279588
 20
138.7808693611
 30
0.0
 10
460.6151632207
 20
138.6862501879
 30
0.0
 10
460.7183521321
 20
138.603655555
 30
0.0
  0
SPLINE
  5
4BF
100
AcDbEntity
  8
RUNDUNGEN
100
AcDbSpline
 62
7
  6
CONTINUOUS
 70
0
 71
3
 72
23
 73
19
 74
0
 42
0.0000001
 43
0.0000001
 44
0.0000000001
 40
0.0
 40
0.0
 40
0.0
 40
0.0
 40
0.0331669964
 40
0.066151582
 40
0.0985869998
 40
0.1300096053
 40
0.1601609733
 40
0.1892425359
 40
0.2457019871
 40
0.3025121241
 40
0.3606265486
 40
0.4202284585
 40
0.481246993
 40
0.5435261354
 40
0.6068872564
 40
0.7360161736
 40
0.8674495689
 40
1.0
 40
1.0
 40
1.0
 40
1.0
 10
438.5281439962
 20
81.3492528659
 30
0.0
 10
438.2762738671
 20
81.4409260958
 30
0.0
 10
437.765264614
 20
81.6017408574
 30
0.0
 10
436.9783316606
 20
81.7434313665
 30
0.0
 10
436.1903798848
 20
81.7457136895
 30
0.0
 10
435.4419950096
 20
81.5742005127
 30
0.0
 10
434.7879973451
 20
81.2241376415
 30
0.0
 10
434.1022143279
 20
80.5740889898
 30
0.0
 10
433.582259229
 20
79.5076084995
 30
0.0
 10
433.4250606884
 20
78.1147990588
 30
0.0
 10
433.6033243102
 20
76.7054460791
 30
0.0
 10
434.0458331389
 20
75.3237690811
 30
0.0
 10
434.7015755895
 20
73.9941249422
 30
0.0
 10
435.534234356
 20
72.7321600706
 30
0.0
 10
436.8501370558
 20
71.1444970158
 30
0.0
 10
438.8072148703
 20
69.3827101262
 30
0.0
 10
441.491867289
 20
67.6629478947
 30
0.0
 10
443.447137978
 20
66.7872885891
 30
0.0
 10
444.4537257846
 20
66.4209205893
 30
0.0
  0
SPLINE
  5
4C0
100
AcDbEntity
  8
0
100
AcDbSpline
 62
7
  6
CONTINUOUS
 70
0
 71
3
 72
20
 73
16
 74
0
 42
0.0000001
 43
0.0000001
 44
0.0000000001
 40
0.0
 40
0.0
 40
0.0
 40
0.0
 40
0.0670566109
 40
0.1325818436
 40
0.1642082113
 40
0.1947627782
 40
0.2243942085
 40
0.2534193521
 40
0.3106341746
 40
0.3682729514
 40
0.4864803236
 40
0.6096641534
 40
0.7369730206
 40
0.8674033054
 40
1.0
 40
1.0
 40
1.0
 40
1.0
 10
460.6481621542
 20
73.2982246749
 30
0.0
 10
461.0610873188
 20
73.147932206
 30
0.0
 10
461.8592540896
 20
72.7927111684
 30
0.0
 10
462.7159602004
 20
72.1052645823
 30
0.0
 10
463.1882308358
 20
71.4068567619
 30
0.0
 10
463.4104678512
 20
70.8423770216
 30
0.0
 10
463.5014724414
 20
70.2603347443
 30
0.0
 10
463.4643530637
 20
69.4975217216
 30
0.0
 10
463.164807677
 20
68.585239028
 30
0.0
 10
462.3134202283
 20
67.3027283174
 30
0.0
 10
460.7631236691
 20
66.03963369
 30
0.0
 10
458.543590005
 20
65.0434421312
 30
0.0
 10
456.0973676597
 20
64.4817735645
 30
0.0
 10
453.5359946241
 20
64.3159988419
 30
0.0
 10
451.8112710437
 20
64.4448398101
 30
0.0
 10
450.9505538505
 20
64.5639065466
 30
0.0
  0
SPLINE
  5
4C1
100
AcDbEntity
  8
KONSTRUKTIONSELEMENTE
100
AcDbSpline
 62
7
  6
CONTINUOUS
 70
0
 71
3
 72
9
 73
5
 74
0
 42
0.0000001
 43
0.0000001
 44
0.0000000001
 40
0.0
 40
0.0
 40
0.0
 40
0.0
 40
0.4242533359
 40
1.0
 40
1.0
 40
1.0
 40
1.0
 10
120.565431956
 20
140.6580204849
 30
0.0
 10
120.4333633702
 20
140.5829479753
 30
0.0
 10
120.1055660443
 20
140.4353911642
 30
0.0
 10
119.7636485653
 20
140.3269354026
 30
0.0
 10
119.5645711657
 20
140.2733603448
 30
0.0
  0
SPLINE
  5
4C2
100
AcDbEntity
  8
KONSTRUKTIONSELEMENTE
100
AcDbSpline
 62
7
  6
CONTINUOUS
 70
0
 71
3
 72
9
 73
5
 74
0
 42
0.0000001
 43
0.0000001
 44
0.0000000001
 40
0.0
 40
0.0
 40
0.0
 40
0.0
 40
0.5761243047
 40
1.0
 40
1.0
 40
1.0
 40
1.0
 10
114.5543092309
 20
140.2740133326
 30
0.0
 10
114.3552860178
 20
140.3275971329
 30
0.0
 10
114.0138573756
 20
140.4363915522
 30
0.0
 10
113.6861568387
 20
140.583501898
 30
0.0
 10
113.5545398696
 20
140.6588181599
 30
0.0
  0
SPLINE
  5
4C3
100
AcDbEntity
  8
RUNDUNGEN
100
AcDbSpline
 62
7
  6
CONTINUOUS
 70
0
 71
3
 72
11
 73
7
 74
0
 42
0.0000001
 43
0.0000001
 44
0.0000000001
 40
0.0
 40
0.0
 40
0.0
 40
0.0
 40
0.1798766258
 40
0.3982524491
 40
0.6718117513
 40
1.0
 40
1.0
 40
1.0
 40
1.0
 10
65.2149336297
 20
122.5009660845
 30
0.0
 10
65.2150257948
 20
122.5879873707
 30
0.0
 10
65.2775613335
 20
122.7815018497
 30
0.0
 10
65.5095707052
 20
123.0181729244
 30
0.0
 10
65.8538909019
 20
123.2205819665
 30
0.0
 10
66.1287266402
 20
123.3207942464
 30
0.0
 10
66.2809725515
 20
123.3658469315
 30
0.0
  0
SPLINE
  5
4C4
100
AcDbEntity
  8
RUNDUNGEN
100
AcDbSpline
 62
7
  6
CONTINUOUS
 70
0
 71
3
 72
11
 73
7
 74
0
 42
0.0000001
 43
0.0000001
 44
0.0000000001
 40
0.0
 40
0.0
 40
0.0
 40
0.0
 40
0.2073680627
 40
0.4349417258
 40
0.697014816
 40
1.0
 40
1.0
 40
1.0
 40
1.0
 10
65.2149314747
 20
117.9693850126
 30
0.0
 10
65.214879728
 20
117.9149005966
 30
0.0
 10
65.2366629333
 20
117.799812918
 30
0.0
 10
65.3294858254
 20
117.6390224035
 30
0.0
 10
65.4764750668
 20
117.4892679375
 30
0.0
 10
65.5988782931
 20
117.4039626456
 30
0.0
 10
65.6670335317
 20
117.3628267724
 30
0.0
  0
SPLINE
  5
4C5
100
AcDbEntity
  8
RUNDUNGEN
100
AcDbSpline
 62
7
  6
CONTINUOUS
 70
0
 71
3
 72
13
 73
9
 74
0
 42
0.0000001
 43
0.0000001
 44
0.0000000001
 40
0.0
 40
0.0
 40
0.0
 40
0.0
 40
0.08776614
 40
0.1810035989
 40
0.2840502729
 40
0.3996815773
 40
0.6725569204
 40
1.0
 40
1.0
 40
1.0
 40
1.0
 10
48.3895441243
 20
133.3877914564
 30
0.0
 10
48.3895001328
 20
133.5240730339
 30
0.0
 10
48.4308394102
 20
133.8065408065
 30
0.0
 10
48.6114709125
 20
134.2136827696
 30
0.0
 10
48.9037786807
 20
134.6040274556
 30
0.0
 10
49.4656858412
 20
135.1252237171
 30
0.0
 10
50.4347325978
 20
135.692762841
 30
0.0
 10
51.31338051
 20
136.0136358286
 30
0.0
 10
51.8009287519
 20
136.1579113445
 30
0.0
  0
SPLINE
  5
4C6
100
AcDbEntity
  8
RUNDUNGEN
100
AcDbSpline
 62
7
  6
CONTINUOUS
 70
0
 71
3
 72
11
 73
7
 74
0
 42
0.0000001
 43
0.0000001
 44
0.0000000001
 40
0.0
 40
0.0
 40
0.0
 40
0.0
 40
0.2073673999
 40
0.4349663285
 40
0.6969833209
 40
1.0
 40
1.0
 40
1.0
 40
1.0
 10
48.3895441243
 20
128.8562525213
 30
0.0
 10
48.3896003522
 20
128.6820639451
 30
0.0
 10
48.4599952265
 20
128.3142548572
 30
0.0
 10
48.757010006
 20
127.8004720585
 30
0.0
 10
49.2270511098
 20
127.3217972475
 30
0.0
 10
49.6184059562
 20
127.0491593512
 30
0.0
 10
49.8363238884
 20
126.9176324928
 30
0.0
  0
SPLINE
  5
4C7
100
AcDbEntity
  8
RUNDUNGEN
100
AcDbSpline
 62
7
  6
CONTINUOUS
 70
0
 71
3
 72
11
 73
7
 74
0
 42
0.0000001
 43
0.0000001
 44
0.0000000001
 40
0.0
 40
0.0
 40
0.0
 40
0.0
 40
0.2073612865
 40
0.4349778056
 40
0.696920747
 40
1.0
 40
1.0
 40
1.0
 40
1.0
 10
62.5605778148
 20
80.4930972174
 30
0.0
 10
62.5605778148
 20
80.6673236327
 30
0.0
 10
62.6307714635
 20
81.035281204
 30
0.0
 10
62.9278236755
 20
81.549174265
 30
0.0
 10
63.3978667514
 20
82.028073537
 30
0.0
 10
63.7893447634
 20
82.3007417604
 30
0.0
 10
64.0073614605
 20
82.4323282295
 30
0.0
  0
SPLINE
  5
4C8
100
AcDbEntity
  8
RUNDUNGEN
100
AcDbSpline
 62
7
  6
CONTINUOUS
 70
0
 71
3
 72
11
 73
7
 74
0
 42
0.0000001
 43
0.0000001
 44
0.0000000001
 40
0.0
 40
0.0
 40
0.0
 40
0.0
 40
0.3030791508
 40
0.5650220415
 40
0.7926386338
 40
1.0
 40
1.0
 40
1.0
 40
1.0
 10
170.1137941692
 20
82.4323282295
 30
0.0
 10
170.3318107924
 20
82.300741805
 30
0.0
 10
170.7232887078
 20
82.0280736728
 30
0.0
 10
171.1933317755
 20
81.5491744929
 30
0.0
 10
171.4903840986
 20
81.0352813976
 30
0.0
 10
171.5605778148
 20
80.6673236994
 30
0.0
 10
171.5605778148
 20
80.4930972174
 30
0.0
  0
SPLINE
  5
4C9
100
AcDbEntity
  8
RUNDUNGEN
100
AcDbSpline
 62
7
  6
CONTINUOUS
 70
0
 71
3
 72
11
 73
7
 74
0
 42
0.0000001
 43
0.0000001
 44
0.0000000001
 40
0.0
 40
0.0
 40
0.0
 40
0.0
 40
0.3281879587
 40
0.6017636376
 40
0.8201358987
 40
1.0
 40
1.0
 40
1.0
 40
1.0
 10
186.8255631214
 20
134.8246900238
 30
0.0
 10
186.9778111947
 20
134.7796366989
 30
0.0
 10
187.2526576463
 20
134.6794189367
 30
0.0
 10
187.5969889208
 20
134.4770030021
 30
0.0
 10
187.8289928472
 20
134.2403180784
 30
0.0
 10
187.8915170827
 20
134.0468051349
 30
0.0
 10
187.8916039471
 20
133.9597885898
 30
0.0
  0
SPLINE
  5
4CA
100
AcDbEntity
  8
RUNDUNGEN
100
AcDbSpline
 62
7
  6
CONTINUOUS
 70
0
 71
3
 72
11
 73
7
 74
0
 42
0.0000001
 43
0.0000001
 44
0.0000000001
 40
0.0
 40
0.0
 40
0.0
 40
0.0
 40
0.2132282098
 40
0.4716729004
 40
0.7452452589
 40
1.0
 40
1.0
 40
1.0
 40
1.0
 10
172.4899773329
 20
137.7770795461
 30
0.0
 10
172.7069031875
 20
137.9080076246
 30
0.0
 10
173.2415551399
 20
138.1033341175
 30
0.0
 10
174.1197064363
 20
138.2383489815
 30
0.0
 10
175.0584500795
 20
138.2301881719
 30
0.0
 10
175.6815210785
 20
138.1224404352
 30
0.0
 10
175.9717985345
 20
138.0365413875
 30
0.0
  0
SPLINE
  5
4CB
100
AcDbEntity
  8
RUNDUNGEN
100
AcDbSpline
 62
7
  6
CONTINUOUS
 70
0
 71
3
 72
10
 73
6
 74
0
 42
0.0000001
 43
0.0000001
 44
0.0000000001
 40
0.0
 40
0.0
 40
0.0
 40
0.0
 40
0.233115084
 40
0.4807330855
 40
1.0
 40
1.0
 40
1.0
 40
1.0
 10
53.4392328405
 20
136.6427190976
 30
0.0
 10
54.4169254882
 20
136.9320383875
 30
0.0
 10
56.4617695594
 20
137.4348854422
 30
0.0
 10
60.7799896506
 20
138.1462381614
 30
0.0
 10
64.142514853
 20
138.3384782752
 30
0.0
 10
66.4136390254
 20
138.3229559326
 30
0.0
  0
SPLINE
  5
4CC
100
AcDbEntity
  8
RUNDUNGEN
100
AcDbSpline
 62
7
  6
CONTINUOUS
 70
0
 71
3
 72
10
 73
6
 74
0
 42
0.0000001
 43
0.0000001
 44
0.0000000001
 40
0.0
 40
0.0
 40
0.0
 40
0.0
 40
0.578230211
 40
0.815234816
 40
1.0
 40
1.0
 40
1.0
 40
1.0
 10
74.1105778148
 20
66.8847282091
 30
0.0
 10
74.2647321574
 20
66.8847282091
 30
0.0
 10
74.485066351
 20
66.909009113
 30
0.0
 10
74.7351211731
 20
67.0035736014
 30
0.0
 10
74.8297337499
 20
67.0694834036
 30
0.0
 10
74.8619536412
 20
67.1067421036
 30
0.0
  0
SPLINE
  5
4CD
100
AcDbEntity
  8
RUNDUNGEN
100
AcDbSpline
 62
7
  6
CONTINUOUS
 70
0
 71
3
 72
15
 73
11
 74
0
 42
0.0000001
 43
0.0000001
 44
0.0000000001
 40
0.0
 40
0.0
 40
0.0
 40
0.0
 40
0.0728571036
 40
0.1568448449
 40
0.2582283145
 40
0.3786161818
 40
0.5166543535
 40
0.6691902018
 40
0.8319591313
 40
1.0
 40
1.0
 40
1.0
 40
1.0
 10
62.5605778148
 20
70.2656743031
 30
0.0
 10
62.5605778148
 20
70.0399223213
 30
0.0
 10
62.6848267491
 20
69.5502367343
 30
0.0
 10
63.1814834186
 20
68.9050550794
 30
0.0
 10
63.9424425838
 20
68.3285236536
 30
0.0
 10
64.9439924406
 20
67.8284066778
 30
0.0
 10
66.1528706848
 20
67.418726526
 30
0.0
 10
67.5265935332
 20
67.1142971104
 30
0.0
 10
69.0143264615
 20
66.9267369039
 30
0.0
 10
70.0398933892
 20
66.8847282091
 30
0.0
 10
70.5605778148
 20
66.8847282091
 30
0.0
  0
SPLINE
  5
4CE
100
AcDbEntity
  8
RUNDUNGEN
100
AcDbSpline
 62
7
  6
CONTINUOUS
 70
0
 71
3
 72
11
 73
7
 74
0
 42
0.0000001
 43
0.0000001
 44
0.0000000001
 40
0.0
 40
0.0
 40
0.0
 40
0.0
 40
0.2132157259
 40
0.4716490298
 40
0.7452333702
 40
1.0
 40
1.0
 40
1.0
 40
1.0
 10
53.8513589429
 20
124.4943122014
 30
0.0
 10
54.0682721062
 20
124.3633917828
 30
0.0
 10
54.6028940286
 20
124.1680689965
 30
0.0
 10
55.4810301921
 20
124.0330474672
 30
0.0
 10
56.4197889839
 20
124.0411978701
 30
0.0
 10
57.0428891297
 20
124.1489472999
 30
0.0
 10
57.3331801445
 20
124.23485036
 30
0.0
  0
SPLINE
  5
4CF
100
AcDbEntity
  8
RUNDUNGEN
100
AcDbSpline
 62
7
  6
CONTINUOUS
 70
0
 71
3
 72
11
 73
7
 74
0
 42
0.0000001
 43
0.0000001
 44
0.0000000001
 40
0.0
 40
0.0
 40
0.0
 40
0.0
 40
0.3029816019
 40
0.5650600144
 40
0.7926328717
 40
1.0
 40
1.0
 40
1.0
 40
1.0
 10
187.4395021412
 20
128.8216698647
 30
0.0
 10
187.5076615253
 20
128.8628082398
 30
0.0
 10
187.6300727859
 20
128.9481219669
 30
0.0
 10
187.7770705256
 20
129.0978897741
 30
0.0
 10
187.8698936518
 20
129.2586985546
 30
0.0
 10
187.8916615758
 20
129.3737982474
 30
0.0
 10
187.8916018796
 20
129.4282863678
 30
0.0
  0
SPLINE
  5
4D0
100
AcDbEntity
  8
RUNDUNGEN
100
AcDbSpline
 62
7
  6
CONTINUOUS
 70
0
 71
3
 72
15
 73
11
 74
0
 42
0.0000001
 43
0.0000001
 44
0.0000000001
 40
0.0
 40
0.0
 40
0.0
 40
0.0
 40
0.1680409815
 40
0.3308100528
 40
0.4833458752
 40
0.62138401
 40
0.7417718592
 40
0.8431552996
 40
0.9271429487
 40
1.0
 40
1.0
 40
1.0
 40
1.0
 10
163.5605778148
 20
66.8847282091
 30
0.0
 10
164.0812625908
 20
66.8847282091
 30
0.0
 10
165.1068303083
 20
66.9267369935
 30
0.0
 10
166.5945639368
 20
67.1142973761
 30
0.0
 10
167.9682869743
 20
67.4187270993
 30
0.0
 10
169.1771649045
 20
67.8284073904
 30
0.0
 10
170.1787144335
 20
68.3285244685
 30
0.0
 10
170.9396730103
 20
68.9050559573
 30
0.0
 10
171.4363291471
 20
69.5502373253
 30
0.0
 10
171.5605778148
 20
70.039922483
 30
0.0
 10
171.5605778148
 20
70.2656743031
 30
0.0
  0
SPLINE
  5
4D1
100
AcDbEntity
  8
RUNDUNGEN
100
AcDbSpline
 62
7
  6
CONTINUOUS
 70
0
 71
3
 72
10
 73
6
 74
0
 42
0.0000001
 43
0.0000001
 44
0.0000000001
 40
0.0
 40
0.0
 40
0.0
 40
0.0
 40
0.1847743015
 40
0.4217810137
 40
1.0
 40
1.0
 40
1.0
 40
1.0
 10
159.2592168571
 20
67.1067250766
 30
0.0
 10
159.2914408561
 20
67.0694685136
 30
0.0
 10
159.3860552826
 20
67.0035630557
 30
0.0
 10
159.6361058435
 20
66.9090076133
 30
0.0
 10
159.8564307208
 20
66.8847282091
 30
0.0
 10
160.0105778148
 20
66.8847282091
 30
0.0
  0
SPLINE
  5
4D2
100
AcDbEntity
  8
RUNDUNGEN
100
AcDbSpline
 62
7
  6
CONTINUOUS
 70
0
 71
3
 72
12
 73
8
 74
0
 42
0.0000001
 43
0.0000001
 44
0.0000000001
 40
0.0
 40
0.0
 40
0.0
 40
0.0
 40
0.2546389095
 40
0.5280844547
 40
0.7863884982
 40
0.9002788037
 40
1.0
 40
1.0
 40
1.0
 40
1.0
 10
62.6576684323
 20
125.8104755573
 30
0.0
 10
63.1221344113
 20
125.9479205587
 30
0.0
 10
64.1194210145
 20
126.1203686035
 30
0.0
 10
65.6198930333
 20
126.1331776356
 30
0.0
 10
66.8421907242
 20
125.9465898425
 30
0.0
 10
67.6977692375
 20
125.6695941098
 30
0.0
 10
68.0661800286
 20
125.4933563911
 30
0.0
 10
68.2285823549
 20
125.3953366111
 30
0.0
  0
SPLINE
  5
4D3
100
AcDbEntity
  8
RUNDUNGEN
100
AcDbSpline
 62
7
  6
CONTINUOUS
 70
0
 71
3
 72
11
 73
7
 74
0
 42
0.0000001
 43
0.0000001
 44
0.0000000001
 40
0.0
 40
0.0
 40
0.0
 40
0.0
 40
0.2073613662
 40
0.4349779585
 40
0.6969208492
 40
1.0
 40
1.0
 40
1.0
 40
1.0
 10
171.5605778148
 20
75.9615582822
 30
0.0
 10
171.5605778148
 20
76.1357847642
 30
0.0
 10
171.4903840986
 20
76.5037424624
 30
0.0
 10
171.1933317755
 20
77.0176355577
 30
0.0
 10
170.7232887078
 20
77.4965347376
 30
0.0
 10
170.3318107924
 20
77.7692028698
 30
0.0
 10
170.1137941692
 20
77.9007892943
 30
0.0
  0
SPLINE
  5
4D4
100
AcDbEntity
  8
RUNDUNGEN
100
AcDbSpline
 62
7
  6
CONTINUOUS
 70
0
 71
3
 72
11
 73
7
 74
0
 42
0.0000001
 43
0.0000001
 44
0.0000000001
 40
0.0
 40
0.0
 40
0.0
 40
0.0
 40
0.179877558
 40
0.3982536561
 40
0.6718129207
 40
1.0
 40
1.0
 40
1.0
 40
1.0
 10
187.8916018796
 20
129.4282863678
 30
0.0
 10
187.8915065412
 20
129.5153071549
 30
0.0
 10
187.8289655865
 20
129.7088175838
 30
0.0
 10
187.5969560236
 20
129.9454833126
 30
0.0
 10
187.252639022
 20
130.1478882817
 30
0.0
 10
186.9778068339
 20
130.2480990542
 30
0.0
 10
186.8255631214
 20
130.2931510886
 30
0.0
  0
SPLINE
  5
4D5
100
AcDbEntity
  8
0
100
AcDbSpline
 62
7
  6
CONTINUOUS
 70
0
 71
3
 72
11
 73
7
 74
0
 42
0.0000001
 43
0.0000001
 44
0.0000000001
 40
0.0
 40
0.0
 40
0.0
 40
0.0
 40
0.1976977311
 40
0.4350835173
 40
0.7059101264
 40
1.0
 40
1.0
 40
1.0
 40
1.0
 10
118.4175760752
 20
115.2246821429
 30
0.0
 10
118.5892915696
 20
115.0763599246
 30
0.0
 10
119.0173694519
 20
114.8085887729
 30
0.0
 10
119.7734438846
 20
114.5106798676
 30
0.0
 10
120.6701734495
 20
114.2910756043
 30
0.0
 10
121.3144352819
 20
114.2072572792
 30
0.0
 10
121.6508684674
 20
114.1799794108
 30
0.0
  0
SPLINE
  5
4D6
100
AcDbEntity
  8
RUNDUNGEN
100
AcDbSpline
 62
7
  6
CONTINUOUS
 70
0
 71
3
 72
11
 73
7
 74
0
 42
0.0000001
 43
0.0000001
 44
0.0000000001
 40
0.0
 40
0.0
 40
0.0
 40
0.0
 40
0.303079253
 40
0.5650221944
 40
0.7926387135
 40
1.0
 40
1.0
 40
1.0
 40
1.0
 10
64.0073614605
 20
77.9007892943
 30
0.0
 10
63.7893447634
 20
77.7692028252
 30
0.0
 10
63.3978667514
 20
77.4965346019
 30
0.0
 10
62.9278236755
 20
77.0176353298
 30
0.0
 10
62.6307714635
 20
76.5037422688
 30
0.0
 10
62.5605778148
 20
76.1357846975
 30
0.0
 10
62.5605778148
 20
75.9615582822
 30
0.0
  0
SPLINE
  5
4D7
100
AcDbEntity
  8
RUNDUNGEN
100
AcDbSpline
 62
7
  6
CONTINUOUS
 70
0
 71
3
 72
11
 73
7
 74
0
 42
0.0000001
 43
0.0000001
 44
0.0000000001
 40
0.0
 40
0.0
 40
0.0
 40
0.0
 40
0.3281888228
 40
0.6017654742
 40
0.8201370607
 40
1.0
 40
1.0
 40
1.0
 40
1.0
 10
66.2809725515
 20
118.8343079963
 30
0.0
 10
66.1287218633
 20
118.7892538977
 30
0.0
 10
65.8538706315
 20
118.6890340261
 30
0.0
 10
65.5095348502
 20
118.4866129855
 30
0.0
 10
65.2775312363
 20
118.2499204443
 30
0.0
 10
65.2150141196
 20
118.056402265
 30
0.0
 10
65.2149314747
 20
117.9693850126
 30
0.0
  0
SPLINE
  5
4D8
100
AcDbEntity
  8
RUNDUNGEN
100
AcDbSpline
 62
7
  6
CONTINUOUS
 70
0
 71
3
 72
13
 73
9
 74
0
 42
0.0000001
 43
0.0000001
 44
0.0000000001
 40
0.0
 40
0.0
 40
0.0
 40
0.0
 40
0.3274430796
 40
0.6003184227
 40
0.7159497271
 40
0.8189964011
 40
0.91223386
 40
1.0
 40
1.0
 40
1.0
 40
1.0
 10
51.8009287519
 20
131.6263724094
 30
0.0
 10
51.31338051
 20
131.4820968934
 30
0.0
 10
50.4347325978
 20
131.1612239058
 30
0.0
 10
49.4656858412
 20
130.5936847819
 30
0.0
 10
48.9037786807
 20
130.0724885204
 30
0.0
 10
48.6114709125
 20
129.6821438344
 30
0.0
 10
48.4308394102
 20
129.2750018713
 30
0.0
 10
48.3895001328
 20
128.9925340987
 30
0.0
 10
48.3895441243
 20
128.8562525213
 30
0.0
  0
SPLINE
  5
4D9
100
AcDbEntity
  8
RUNDUNGEN
100
AcDbSpline
 62
7
  6
CONTINUOUS
 70
0
 71
3
 72
10
 73
6
 74
0
 42
0.0000001
 43
0.0000001
 44
0.0000000001
 40
0.0
 40
0.0
 40
0.0
 40
0.0
 40
0.5189230036
 40
0.767122413
 40
1.0
 40
1.0
 40
1.0
 40
1.0
 10
67.7043405827
 20
133.7665452711
 30
0.0
 10
65.2129601543
 20
133.8455848396
 30
0.0
 10
61.5130448673
 20
133.7023364722
 30
0.0
 10
56.7622309925
 20
132.9714563995
 30
0.0
 10
54.5118750092
 20
132.4285969614
 30
0.0
 10
53.4392328405
 20
132.1111801624
 30
0.0
  0
SPLINE
  5
4DA
100
AcDbEntity
  8
RUNDUNGEN
100
AcDbSpline
 62
7
  6
CONTINUOUS
 70
0
 71
3
 72
11
 73
7
 74
0
 42
0.0000001
 43
0.0000001
 44
0.0000000001
 40
0.0
 40
0.0
 40
0.0
 40
0.0
 40
0.2547665355
 40
0.5283497993
 40
0.7867840494
 40
1.0
 40
1.0
 40
1.0
 40
1.0
 10
175.9717985345
 20
133.5050024523
 30
0.0
 10
175.6815076263
 20
133.5909054809
 30
0.0
 10
175.0584088685
 20
133.6986547554
 30
0.0
 10
174.1196503903
 20
133.7068054333
 30
0.0
 10
173.2415139998
 20
133.5717844031
 30
0.0
 10
172.7068907256
 20
133.3764611679
 30
0.0
 10
172.4899773329
 20
133.2455406109
 30
0.0
  0
SPLINE
  5
4DB
100
AcDbEntity
  8
0
100
AcDbSpline
 62
7
  6
CONTINUOUS
 70
0
 71
3
 72
17
 73
13
 74
0
 42
0.0000001
 43
0.0000001
 44
0.0000000001
 40
0.0
 40
0.0
 40
0.0
 40
0.0
 40
0.0404569841
 40
0.0993867967
 40
0.1796798929
 40
0.2744087031
 40
0.4661804369
 40
0.6322264065
 40
0.7664462556
 40
0.8703066146
 40
0.9467497891
 40
1.0
 40
1.0
 40
1.0
 40
1.0
 10
162.5605778148
 20
73.2982246749
 30
0.0
 10
162.5605778148
 20
73.1449485965
 30
0.0
 10
162.5109307025
 20
72.7687108632
 30
0.0
 10
162.3109108217
 20
72.1162210792
 30
0.0
 10
161.9599318683
 20
71.3009114363
 30
0.0
 10
161.3160671612
 20
70.0685285072
 30
0.0
 10
160.403479334
 20
68.6139901525
 30
0.0
 10
159.2957648205
 20
67.112595323
 30
0.0
 10
158.2933713891
 20
65.9534504674
 30
0.0
 10
157.4288072703
 20
65.1282580959
 30
0.0
 10
156.7118193141
 20
64.6079755503
 30
0.0
 10
156.2477646038
 20
64.4119743015
 30
0.0
 10
156.0478769148
 20
64.3846640563
 30
0.0
  0
SPLINE
  5
4DC
100
AcDbEntity
  8
0
100
AcDbSpline
 62
7
  6
CONTINUOUS
 70
0
 71
3
 72
17
 73
13
 74
0
 42
0.0000001
 43
0.0000001
 44
0.0000000001
 40
0.0
 40
0.0
 40
0.0
 40
0.0
 40
0.0531621821
 40
0.1295191304
 40
0.2333115862
 40
0.3674919098
 40
0.533543699
 40
0.7253936569
 40
0.8201868232
 40
0.9005426745
 40
0.959518744
 40
1.0
 40
1.0
 40
1.0
 40
1.0
 10
78.0763154385
 20
64.3842549181
 30
0.0
 10
77.8766246194
 20
64.4109313962
 30
0.0
 10
77.4126368336
 20
64.6059864469
 30
0.0
 10
76.6958029717
 20
65.1253090418
 30
0.0
 10
75.8311554158
 20
65.9498383583
 30
0.0
 10
74.8284377887
 20
67.1087331165
 30
0.0
 10
73.7200415456
 20
68.6104564082
 30
0.0
 10
72.8067018428
 20
70.0657275666
 30
0.0
 10
72.1621126315
 20
71.2990267657
 30
0.0
 10
71.8106401489
 20
72.1150974738
 30
0.0
 10
71.6103146324
 20
72.7682129374
 30
0.0
 10
71.5605778148
 20
73.1448158599
 30
0.0
 10
71.5605778148
 20
73.2982246749
 30
0.0
  0
SPLINE
  5
4DD
100
AcDbEntity
  8
BEZUGSACHSEN
100
AcDbSpline
 62
7
  6
CONTINUOUS
 70
0
 71
3
 72
16
 73
12
 74
0
 42
0.0000001
 43
0.0000001
 44
0.0000000001
 40
0.0
 40
0.0
 40
0.0
 40
0.0
 40
0.1209594048
 40
0.2437352989
 40
0.3692360047
 40
0.4969687241
 40
0.5614418288
 40
0.6258503711
 40
0.7530967393
 40
0.8778409643
 40
1.0
 40
1.0
 40
1.0
 40
1.0
 10
85.7605778148
 20
99.2665486178
 30
0.0
 10
85.7605778148
 20
98.9294189825
 30
0.0
 10
85.8940404218
 20
98.2432600076
 30
0.0
 10
86.4639442363
 20
97.3589586616
 30
0.0
 10
87.323653581
 20
96.7221859367
 30
0.0
 10
88.189895651
 20
96.4631436064
 30
0.0
 10
88.9075057112
 20
96.4357282283
 30
0.0
 10
89.6182342069
 20
96.5284569558
 30
0.0
 10
90.4536656466
 20
96.8655982673
 30
0.0
 10
91.2443758445
 20
97.5774640386
 30
0.0
 10
91.5644684945
 20
98.2082707286
 30
0.0
 10
91.6579926492
 20
98.5356469759
 30
0.0
  0
SPLINE
  5
4DE
100
AcDbEntity
  8
RUNDUNGEN
100
AcDbSpline
 62
7
  6
CONTINUOUS
 70
0
 71
3
 72
15
 73
11
 74
0
 42
0.0000001
 43
0.0000001
 44
0.0000000001
 40
0.0
 40
0.0
 40
0.0
 40
0.0
 40
0.1252277759
 40
0.2504161711
 40
0.3755308897
 40
0.5005598667
 40
0.6255037522
 40
0.7503772367
 40
0.8752004038
 40
1.0
 40
1.0
 40
1.0
 40
1.0
 10
152.5605778148
 20
139.1562374893
 30
0.0
 10
153.2103193384
 20
139.1562374093
 30
0.0
 10
154.5130527546
 20
139.030873587
 30
0.0
 10
156.3920124543
 20
138.4731661315
 30
0.0
 10
158.1287160687
 20
137.565055567
 30
0.0
 10
159.6557807527
 20
136.3386752112
 30
0.0
 10
160.9135354845
 20
134.8387154567
 30
0.0
 10
161.8512013302
 20
133.1212061154
 30
0.0
 10
162.4300885341
 20
131.2534214936
 30
0.0
 10
162.5605778148
 20
129.9545258601
 30
0.0
 10
162.5605778148
 20
129.3070059374
 30
0.0
  0
SPLINE
  5
4DF
100
AcDbEntity
  8
RUNDUNGEN
100
AcDbSpline
 62
7
  6
CONTINUOUS
 70
0
 71
3
 72
15
 73
11
 74
0
 42
0.0000001
 43
0.0000001
 44
0.0000000001
 40
0.0
 40
0.0
 40
0.0
 40
0.0
 40
0.1252277528
 40
0.2504161566
 40
0.3755308766
 40
0.5005598565
 40
0.6255037444
 40
0.7503772318
 40
0.8752004008
 40
1.0
 40
1.0
 40
1.0
 40
1.0
 10
81.5605778148
 20
139.1562374894
 30
0.0
 10
80.9108364114
 20
139.1562374894
 30
0.0
 10
79.6081030775
 20
139.030873548
 30
0.0
 10
77.7291434117
 20
138.4731662621
 30
0.0
 10
75.9924397295
 20
137.5650556643
 30
0.0
 10
74.4653749909
 20
136.3386753276
 30
0.0
 10
73.2076202088
 20
134.8387155558
 30
0.0
 10
72.2699543328
 20
133.1212061893
 30
0.0
 10
71.6910670975
 20
131.2534215349
 30
0.0
 10
71.5605778148
 20
129.9545258757
 30
0.0
 10
71.5605778148
 20
129.3070059374
 30
0.0
  0
SPLINE
  5
4E0
100
AcDbEntity
  8
BEZUGSACHSEN
100
AcDbSpline
 62
7
  6
CONTINUOUS
 70
0
 71
3
 72
9
 73
5
 74
0
 42
0.0000001
 43
0.0000001
 44
0.0000000001
 40
0.0
 40
0.0
 40
0.0
 40
0.0
 40
0.2523775798
 40
1.0
 40
1.0
 40
1.0
 40
1.0
 10
91.7509222348
 20
99.0270741441
 30
0.0
 10
91.7472791152
 20
98.9851172525
 30
0.0
 10
91.7287361001
 20
98.8192568265
 30
0.0
 10
91.6935654437
 20
98.6552252106
 30
0.0
 10
91.6579926492
 20
98.5356469759
 30
0.0
  0
SPLINE
  5
4E1
100
AcDbEntity
  8
BEZUGSACHSEN
100
AcDbSpline
 62
7
  6
CONTINUOUS
 70
0
 71
3
 72
15
 73
11
 74
0
 42
0.0000001
 43
0.0000001
 44
0.0000000001
 40
0.0
 40
0.0
 40
0.0
 40
0.0
 40
0.1325045115
 40
0.2605955389
 40
0.3845358157
 40
0.5055425321
 40
0.6255813659
 40
0.7468768752
 40
0.8713177719
 40
1.0
 40
1.0
 40
1.0
 40
1.0
 10
104.6540307389
 20
139.1442691179
 30
0.0
 10
103.1864148899
 20
139.999703676
 30
0.0
 10
100.4727957099
 20
142.0046770838
 30
0.0
 10
97.2448802644
 20
145.7866003516
 30
0.0
 10
95.0522343008
 20
150.0884871489
 30
0.0
 10
93.9780912427
 20
154.6905121205
 30
0.0
 10
94.0547304122
 20
159.3820123164
 30
0.0
 10
95.2807795021
 20
163.9568190386
 30
0.0
 10
97.6151930146
 20
168.2008159503
 30
0.0
 10
99.8201269773
 20
170.6278321071
 30
0.0
 10
101.0582259902
 20
171.7181046935
 30
0.0
  0
SPLINE
  5
4E2
100
AcDbEntity
  8
BEZUGSACHSEN
100
AcDbSpline
 62
7
  6
CONTINUOUS
 70
0
 71
3
 72
15
 73
11
 74
0
 42
0.0000001
 43
0.0000001
 44
0.0000000001
 40
0.0
 40
0.0
 40
0.0
 40
0.0
 40
0.1286822057
 40
0.2531230225
 40
0.3744186926
 40
0.4944577902
 40
0.6154648004
 40
0.7394051586
 40
0.8674960224
 40
1.0
 40
1.0
 40
1.0
 40
1.0
 10
133.0641096587
 20
171.7170645943
 30
0.0
 10
134.3020931673
 20
170.6267469682
 30
0.0
 10
136.5067784634
 20
168.1996580307
 30
0.0
 10
138.8408297182
 20
163.9556544395
 30
0.0
 10
140.0665679427
 20
159.3809301045
 30
0.0
 10
140.1429497755
 20
154.689580154
 30
0.0
 10
139.0686391302
 20
150.0877567517
 30
0.0
 10
136.8759211547
 20
145.7860931487
 30
0.0
 10
133.6480260736
 20
142.0043928696
 30
0.0
 10
130.9344835537
 20
139.9995307289
 30
0.0
 10
129.4669145872
 20
139.1441451208
 30
0.0
  0
SPLINE
  5
4E3
100
AcDbEntity
  8
0
100
AcDbSpline
 62
7
  6
CONTINUOUS
 70
0
 71
3
 72
15
 73
11
 74
0
 42
0.0000001
 43
0.0000001
 44
0.0000000001
 40
0.0
 40
0.0
 40
0.0
 40
0.0
 40
0.1216419959
 40
0.2456040819
 40
0.3720295791
 40
0.5
 40
0.6279704209
 40
0.7543959181
 40
0.8783580041
 40
1.0
 40
1.0
 40
1.0
 40
1.0
 10
126.0679224774
 20
108.6165365356
 30
0.0
 10
125.8322571143
 20
109.5642228805
 30
0.0
 10
125.0048784475
 20
111.4067398402
 30
0.0
 10
122.8927841447
 20
113.5947497298
 30
0.0
 10
120.1430519526
 20
115.0070778368
 30
0.0
 10
117.0605778148
 20
115.4936038031
 30
0.0
 10
113.9781036771
 20
115.0070778368
 30
0.0
 10
111.228371485
 20
113.5947497298
 30
0.0
 10
109.1162771821
 20
111.4067398402
 30
0.0
 10
108.2888985154
 20
109.5642228805
 30
0.0
 10
108.0532331523
 20
108.6165365356
 30
0.0
  0
SPLINE
  5
4E4
100
AcDbEntity
  8
0
100
AcDbSpline
 62
7
  6
CONTINUOUS
 70
0
 71
3
 72
14
 73
10
 74
0
 42
0.0000001
 43
0.0000001
 44
0.0000000001
 40
0.0
 40
0.0
 40
0.0
 40
0.0
 40
0.0198507081
 40
0.0395365332
 40
0.0667457716
 40
0.144394808
 40
0.2533892109
 40
0.5653197865
 40
1.0
 40
1.0
 40
1.0
 40
1.0
 10
86.0109565747
 20
64.3194235078
 30
0.0
 10
86.0018759915
 20
64.3193652193
 30
0.0
 10
85.9918246311
 20
64.3421162859
 30
0.0
 10
85.9888279255
 20
64.3700062548
 30
0.0
 10
85.9860081769
 20
64.4282757418
 30
0.0
 10
85.9921839347
 20
64.5251392353
 30
0.0
 10
86.0161133833
 20
64.7525444639
 30
0.0
 10
86.0768314681
 20
65.1389649332
 30
0.0
 10
86.1377055019
 20
65.4751684759
 30
0.0
 10
86.1747809894
 20
65.6705273395
 30
0.0
  0
SPLINE
  5
4E5
100
AcDbEntity
  8
BEZUGSACHSEN
100
AcDbSpline
 62
7
  6
CONTINUOUS
 70
0
 71
3
 72
15
 73
11
 74
0
 42
0.0000001
 43
0.0000001
 44
0.0000000001
 40
0.0
 40
0.0
 40
0.0
 40
0.0
 40
0.1213108881
 40
0.2447048839
 40
0.3706654301
 40
0.4984666553
 40
0.6266190688
 40
0.7534886883
 40
0.8779777174
 40
1.0
 40
1.0
 40
1.0
 40
1.0
 10
91.7293066989
 20
99.124416115
 30
0.0
 10
91.6805388062
 20
99.4398040032
 30
0.0
 10
91.4641778522
 20
100.063360552
 30
0.0
 10
90.8335971224
 20
100.8313813109
 30
0.0
 10
89.9710881221
 20
101.3577358779
 30
0.0
 10
88.97482072
 20
101.5851764835
 30
0.0
 10
87.9550701922
 20
101.490841859
 30
0.0
 10
87.023872205
 20
101.0839533725
 30
0.0
 10
86.286272455
 20
100.4083842687
 30
0.0
 10
85.977757536
 20
99.8198631497
 30
0.0
 10
85.882098894
 20
99.5134397965
 30
0.0
  0
SPLINE
  5
4E6
100
AcDbEntity
  8
RUNDUNGEN
100
AcDbSpline
 62
7
  6
CONTINUOUS
 70
0
 71
3
 72
32
 73
28
 74
0
 42
0.0000001
 43
0.0000001
 44
0.0000000001
 40
0.0
 40
0.0
 40
0.0
 40
0.0
 40
0.0072822724
 40
0.0134762472
 40
0.0225882616
 40
0.0268493808
 40
0.0323888628
 40
0.040035097
 40
0.0501038147
 40
0.0626198271
 40
0.0773958994
 40
0.0941197091
 40
0.1124628819
 40
0.1527033646
 40
0.1959873872
 40
0.2408438722
 40
0.2863132
 40
0.3768073316
 40
0.4644634764
 40
0.5477505924
 40
0.6258057165
 40
0.698112995
 40
0.7643544182
 40
0.8243294185
 40
0.9250280105
 40
0.9657245755
 40
1.0
 40
1.0
 40
1.0
 40
1.0
 10
162.5605778148
 20
81.3492528659
 30
0.0
 10
162.5605778148
 20
81.3921649149
 30
0.0
 10
162.5574079766
 20
81.4723300204
 30
0.0
 10
162.538061206
 20
81.6012528308
 30
0.0
 10
162.4819636136
 20
81.7212090056
 30
0.0
 10
162.365805486
 20
81.745046129
 30
0.0
 10
162.265408237
 20
81.7145718017
 30
0.0
 10
162.1471091229
 20
81.6443791928
 30
0.0
 10
162.0083844131
 20
81.5318906211
 30
0.0
 10
161.8506727858
 20
81.3780492591
 30
0.0
 10
161.6764784016
 20
81.1857082866
 30
0.0
 10
161.4891678238
 20
80.9593896772
 30
0.0
 10
161.2179769824
 20
80.6080532657
 30
0.0
 10
160.8703828469
 20
80.1183913393
 30
0.0
 10
160.4543320506
 20
79.4864494071
 30
0.0
 10
160.0392897414
 20
78.8173136705
 30
0.0
 10
159.4977506628
 20
77.8996054298
 30
0.0
 10
158.8603491423
 20
76.7459730349
 30
0.0
 10
158.1579140929
 20
75.3746254026
 30
0.0
 10
157.5273268339
 20
74.0495495125
 30
0.0
 10
156.9717076188
 20
72.7895942084
 30
0.0
 10
156.4919383605
 20
71.606634876
 30
0.0
 10
156.0874034803
 20
70.5086158361
 30
0.0
 10
155.6720180083
 20
69.2377043721
 30
0.0
 10
155.3675431794
 20
68.0878604554
 30
0.0
 10
155.2056172039
 20
67.0646823367
 30
0.0
 10
155.175116062
 20
66.622894453
 30
0.0
 10
155.175116062
 20
66.4209205893
 30
0.0
  0
SPLINE
  5
4E7
100
AcDbEntity
  8
KONSTRUKTIONSELEMENTE
100
AcDbSpline
 62
7
  6
CONTINUOUS
 70
0
 71
3
 72
9
 73
5
 74
0
 42
0.0000001
 43
0.0000001
 44
0.0000000001
 40
0.0
 40
0.0
 40
0.0
 40
0.0
 40
0.4989947154
 40
1.0
 40
1.0
 40
1.0
 40
1.0
 10
142.4506573309
 20
99.0405525425
 30
0.0
 10
142.4506573309
 20
98.3772626767
 30
0.0
 10
142.5834778613
 20
97.0451109921
 30
0.0
 10
142.9521190888
 20
95.7615854217
 30
0.0
 10
143.1800628697
 20
95.1358477953
 30
0.0
  0
SPLINE
  5
4E8
100
AcDbEntity
  8
KONSTRUKTIONSELEMENTE
100
AcDbSpline
 62
7
  6
CONTINUOUS
 70
0
 71
3
 72
17
 73
13
 74
0
 42
0.0000001
 43
0.0000001
 44
0.0000000001
 40
0.0
 40
0.0
 40
0.0
 40
0.0
 40
0.1275582264
 40
0.2547756681
 40
0.381537169
 40
0.5076797583
 40
0.6329517821
 40
0.7569397806
 40
0.8183834164
 40
0.879340926
 40
0.9398249579
 40
1.0
 40
1.0
 40
1.0
 40
1.0
 10
126.3105778148
 20
113.9965883639
 30
0.0
 10
127.2006646138
 20
113.7996884363
 30
0.0
 10
128.9658090595
 20
113.3460250578
 30
0.0
 10
131.5528556524
 20
112.4766662558
 30
0.0
 10
134.0533160542
 20
111.4065795271
 30
0.0
 10
136.433368045
 20
110.1158803662
 30
0.0
 10
138.6371102286
 20
108.5748176834
 30
0.0
 10
140.2556002104
 20
107.0333194104
 30
0.0
 10
141.3113201577
 20
105.6185400226
 30
0.0
 10
141.93940121
 20
104.4659517417
 30
0.0
 10
142.3531803313
 20
103.2275725757
 30
0.0
 10
142.4506573309
 20
102.3625024097
 30
0.0
 10
142.4506573309
 20
101.932456583
 30
0.0
  0
SPLINE
  5
4E9
100
AcDbEntity
  8
BEZUGSACHSEN
100
AcDbSpline
 62
7
  6
CONTINUOUS
 70
0
 71
3
 72
16
 73
12
 74
0
 42
0.0000001
 43
0.0000001
 44
0.0000000001
 40
0.0
 40
0.0
 40
0.0
 40
0.0
 40
0.1220830572
 40
0.2467476701
 40
0.3739512543
 40
0.4383618688
 40
0.5028520403
 40
0.6306374161
 40
0.7561977881
 40
0.879019655
 40
1.0
 40
1.0
 40
1.0
 40
1.0
 10
91.6704982988
 20
99.9521783735
 30
0.0
 10
91.5822898737
 20
100.2827557779
 30
0.0
 10
91.2708169198
 20
100.9220265179
 30
0.0
 10
90.4855888853
 20
101.6483016087
 30
0.0
 10
89.6492923008
 20
101.9962571712
 30
0.0
 10
88.9355711122
 20
102.0961276616
 30
0.0
 10
88.2135411283
 20
102.0746000032
 30
0.0
 10
87.3402296953
 20
101.8198415934
 30
0.0
 10
86.4718754205
 20
101.1836981655
 30
0.0
 10
85.8956453711
 20
100.2958060595
 30
0.0
 10
85.7605778148
 20
99.6056016745
 30
0.0
 10
85.7605778148
 20
99.2665486178
 30
0.0
  0
SPLINE
  5
4EA
100
AcDbEntity
  8
BEZUGSACHSEN
100
AcDbSpline
 62
7
  6
CONTINUOUS
 70
0
 71
3
 72
9
 73
5
 74
0
 42
0.0000001
 43
0.0000001
 44
0.0000000001
 40
0.0
 40
0.0
 40
0.0
 40
0.0
 40
0.5009441899
 40
1.0
 40
1.0
 40
1.0
 40
1.0
 10
90.94109276
 20
95.1358477953
 30
0.0
 10
91.1402446207
 20
95.6825475656
 30
0.0
 10
91.4718320991
 20
96.799818123
 30
0.0
 10
91.6293263897
 20
97.9567058786
 30
0.0
 10
91.6579926492
 20
98.5356469759
 30
0.0
  0
SPLINE
  5
4EB
100
AcDbEntity
  8
KONSTRUKTIONSELEMENTE
100
AcDbSpline
 62
7
  6
CONTINUOUS
 70
0
 71
3
 72
17
 73
13
 74
0
 42
0.0000001
 43
0.0000001
 44
0.0000000001
 40
0.0
 40
0.0
 40
0.0
 40
0.0
 40
0.0601753833
 40
0.1206595559
 40
0.1816173515
 40
0.2430612134
 40
0.3670492869
 40
0.4923209922
 40
0.6184631503
 40
0.7452242078
 40
0.8724414893
 40
1.0
 40
1.0
 40
1.0
 40
1.0
 10
91.6704982988
 20
101.932456583
 30
0.0
 10
91.6704982988
 20
102.3625048501
 30
0.0
 10
91.7679756014
 20
103.2275786274
 30
0.0
 10
92.1817593371
 20
104.465962129
 30
0.0
 10
92.8098441388
 20
105.6185536489
 30
0.0
 10
93.8655688696
 20
107.03333477
 30
0.0
 10
95.4840607734
 20
108.5748307251
 30
0.0
 10
97.6878003143
 20
110.1158887755
 30
0.0
 10
100.0678460789
 20
111.4065814209
 30
0.0
 10
102.5682994677
 20
112.4766655941
 30
0.0
 10
105.1553438225
 20
113.3460239514
 30
0.0
 10
106.9204890281
 20
113.7996879966
 30
0.0
 10
107.8105778148
 20
113.9965883639
 30
0.0
  0
SPLINE
  5
4EC
100
AcDbEntity
  8
RUNDUNGEN
100
AcDbSpline
 62
7
  6
CONTINUOUS
 70
0
 71
3
 72
14
 73
10
 74
0
 42
0.0000001
 43
0.0000001
 44
0.0000000001
 40
0.0
 40
0.0
 40
0.0
 40
0.0
 40
0.0947362651
 40
0.194544581
 40
0.3033425993
 40
0.4233209362
 40
0.5548951723
 40
0.6968669039
 40
1.0
 40
1.0
 40
1.0
 40
1.0
 10
162.5605778148
 20
110.641981031
 30
0.0
 10
162.5605778148
 20
110.9497638769
 30
0.0
 10
162.4622705939
 20
111.5854227534
 30
0.0
 10
162.0333385395
 20
112.4855617748
 30
0.0
 10
161.3427033252
 20
113.3121135399
 30
0.0
 10
160.4148758459
 20
114.0377280659
 30
0.0
 10
159.2790144963
 20
114.6376516623
 30
0.0
 10
157.5029518021
 20
115.2496876735
 30
0.0
 10
156.0454083542
 20
115.4292616953
 30
0.0
 10
155.0605778148
 20
115.4292616953
 30
0.0
  0
SPLINE
  5
4ED
100
AcDbEntity
  8
RUNDUNGEN
100
AcDbSpline
 62
7
  6
CONTINUOUS
 70
0
 71
3
 72
14
 73
10
 74
0
 42
0.0000001
 43
0.0000001
 44
0.0000000001
 40
0.0
 40
0.0
 40
0.0
 40
0.0
 40
0.0947362651
 40
0.194544581
 40
0.3033425993
 40
0.4233209362
 40
0.5548951723
 40
0.6968669039
 40
1.0
 40
1.0
 40
1.0
 40
1.0
 10
162.5605778148
 20
116.141981031
 30
0.0
 10
162.5605778148
 20
116.4497638769
 30
0.0
 10
162.4622705939
 20
117.0854227534
 30
0.0
 10
162.0333385395
 20
117.9855617748
 30
0.0
 10
161.3427033252
 20
118.8121135399
 30
0.0
 10
160.4148758459
 20
119.5377280659
 30
0.0
 10
159.2790144963
 20
120.1376516623
 30
0.0
 10
157.5029518021
 20
120.7496876735
 30
0.0
 10
156.0454083542
 20
120.9292616953
 30
0.0
 10
155.0605778148
 20
120.9292616953
 30
0.0
  0
SPLINE
  5
4EE
100
AcDbEntity
  8
RUNDUNGEN
100
AcDbSpline
 62
7
  6
CONTINUOUS
 70
0
 71
3
 72
14
 73
10
 74
0
 42
0.0000001
 43
0.0000001
 44
0.0000000001
 40
0.0
 40
0.0
 40
0.0
 40
0.0
 40
0.0947362651
 40
0.194544581
 40
0.3033425993
 40
0.4233209362
 40
0.5548951723
 40
0.6968669039
 40
1.0
 40
1.0
 40
1.0
 40
1.0
 10
71.5605778148
 20
116.141981031
 30
0.0
 10
71.5605778148
 20
116.4497638769
 30
0.0
 10
71.6588850358
 20
117.0854227534
 30
0.0
 10
72.0878170902
 20
117.9855617748
 30
0.0
 10
72.7784523044
 20
118.8121135399
 30
0.0
 10
73.7062797838
 20
119.5377280659
 30
0.0
 10
74.8421411334
 20
120.1376516623
 30
0.0
 10
76.6182038276
 20
120.7496876735
 30
0.0
 10
78.0757472755
 20
120.9292616953
 30
0.0
 10
79.0605778148
 20
120.9292616953
 30
0.0
  0
SPLINE
  5
4EF
100
AcDbEntity
  8
RUNDUNGEN
100
AcDbSpline
 62
7
  6
CONTINUOUS
 70
0
 71
3
 72
14
 73
10
 74
0
 42
0.0000001
 43
0.0000001
 44
0.0000000001
 40
0.0
 40
0.0
 40
0.0
 40
0.0
 40
0.0947362651
 40
0.194544581
 40
0.3033425993
 40
0.4233209362
 40
0.5548951723
 40
0.6968669039
 40
1.0
 40
1.0
 40
1.0
 40
1.0
 10
71.5605778148
 20
110.641981031
 30
0.0
 10
71.5605778148
 20
110.9497638769
 30
0.0
 10
71.6588850358
 20
111.5854227534
 30
0.0
 10
72.0878170902
 20
112.4855617748
 30
0.0
 10
72.7784523044
 20
113.3121135399
 30
0.0
 10
73.7062797838
 20
114.0377280659
 30
0.0
 10
74.8421411334
 20
114.6376516623
 30
0.0
 10
76.6182038276
 20
115.2496876735
 30
0.0
 10
78.0757472755
 20
115.4292616953
 30
0.0
 10
79.0605778148
 20
115.4292616953
 30
0.0
  0
SPLINE
  5
4F0
100
AcDbEntity
  8
KONSTRUKTIONSELEMENTE
100
AcDbSpline
 62
7
  6
CONTINUOUS
 70
0
 71
3
 72
17
 73
13
 74
0
 42
0.0000001
 43
0.0000001
 44
0.0000000001
 40
0.0
 40
0.0
 40
0.0
 40
0.0
 40
0.1478869684
 40
0.299908822
 40
0.4509504862
 40
0.5953680334
 40
0.727422878
 40
0.8417169792
 40
0.8907293776
 40
0.9336636152
 40
0.9701677533
 40
1.0
 40
1.0
 40
1.0
 40
1.0
 10
90.94109276
 20
95.1358477953
 30
0.0
 10
90.4468468403
 20
93.7790734738
 30
0.0
 10
89.5425450322
 20
90.9913863302
 30
0.0
 10
88.4187302241
 20
86.7323182576
 30
0.0
 10
87.5020692832
 20
82.4588206825
 30
0.0
 10
86.7966855746
 20
78.3433356808
 30
0.0
 10
86.3051238522
 20
74.5586600657
 30
0.0
 10
86.0606046607
 20
71.6835518411
 30
0.0
 10
85.98468925
 20
69.6708770284
 30
0.0
 10
85.9855401017
 20
68.4161976778
 30
0.0
 10
86.0405997457
 20
67.3502622125
 30
0.0
 10
86.1204695351
 20
66.7062776334
 30
0.0
 10
86.1747809894
 20
66.4200986856
 30
0.0
  0
SPLINE
  5
4F1
100
AcDbEntity
  8
KONSTRUKTIONSELEMENTE
100
AcDbSpline
 62
7
  6
CONTINUOUS
 70
0
 71
3
 72
17
 73
13
 74
0
 42
0.0000001
 43
0.0000001
 44
0.0000000001
 40
0.0
 40
0.0
 40
0.0
 40
0.0
 40
0.0298322467
 40
0.0663363848
 40
0.1092706224
 40
0.1582830208
 40
0.272577122
 40
0.4046319666
 40
0.5490495138
 40
0.700091178
 40
0.8521130316
 40
1.0
 40
1.0
 40
1.0
 40
1.0
 10
147.9463746402
 20
66.4200986856
 30
0.0
 10
148.0006860946
 20
66.7062776334
 30
0.0
 10
148.080555884
 20
67.3502622125
 30
0.0
 10
148.135615528
 20
68.4161976778
 30
0.0
 10
148.1364663797
 20
69.6708770284
 30
0.0
 10
148.0605509689
 20
71.6835518411
 30
0.0
 10
147.8160317775
 20
74.5586600657
 30
0.0
 10
147.324470055
 20
78.3433356808
 30
0.0
 10
146.6190863465
 20
82.4588206825
 30
0.0
 10
145.7024254056
 20
86.7323182576
 30
0.0
 10
144.5786105975
 20
90.9913863302
 30
0.0
 10
143.6743087893
 20
93.7790734738
 30
0.0
 10
143.1800628697
 20
95.1358477953
 30
0.0
  0
SPLINE
  5
4F2
100
AcDbEntity
  8
0
100
AcDbSpline
 62
7
  6
CONTINUOUS
 70
0
 71
3
 72
13
 73
9
 74
0
 42
0.0000001
 43
0.0000001
 44
0.0000000001
 40
0.0
 40
0.0
 40
0.0
 40
0.0
 40
0.3310519228
 40
0.4655145981
 40
0.582459273
 40
0.6866560907
 40
0.7853430607
 40
1.0
 40
1.0
 40
1.0
 40
1.0
 10
78.9460395677
 20
65.6713492432
 30
0.0
 10
78.9460395677
 20
65.4736389017
 30
0.0
 10
78.9285365717
 20
65.1932197101
 30
0.0
 10
78.8348325127
 20
64.8568940109
 30
0.0
 10
78.7410821848
 20
64.6645809642
 30
0.0
 10
78.616721081
 20
64.5164154471
 30
0.0
 10
78.4031679844
 20
64.3797918817
 30
0.0
 10
78.2033837233
 20
64.3672800048
 30
0.0
 10
78.0763154385
 20
64.3842549181
 30
0.0
  0
SPLINE
  5
4F3
100
AcDbEntity
  8
RUNDUNGEN
100
AcDbSpline
 62
7
  6
CONTINUOUS
 70
0
 71
3
 72
32
 73
28
 74
0
 42
0.0000001
 43
0.0000001
 44
0.0000000001
 40
0.0
 40
0.0
 40
0.0
 40
0.0
 40
0.0342715504
 40
0.0749585201
 40
0.1756495454
 40
0.2356239862
 40
0.3018666025
 40
0.3741770649
 40
0.4522352183
 40
0.5355245298
 40
0.6231829139
 40
0.7136810984
 40
0.7591529661
 40
0.8040127798
 40
0.8472998766
 40
0.8875427289
 40
0.9058880759
 40
0.9226117659
 40
0.9373851134
 40
0.9499024804
 40
0.9599675126
 40
0.9676128147
 40
0.9731513094
 40
0.9774121203
 40
0.9865239016
 40
0.9927177952
 40
1.0
 40
1.0
 40
1.0
 40
1.0
 10
78.9460395677
 20
66.4209205893
 30
0.0
 10
78.9460395677
 20
66.6228716599
 30
0.0
 10
78.9155514797
 20
67.0645805571
 30
0.0
 10
78.7536605747
 20
68.0876388409
 30
0.0
 10
78.4492329087
 20
69.2373873128
 30
0.0
 10
78.0338745447
 20
70.5082649701
 30
0.0
 10
77.6293428007
 20
71.6063093553
 30
0.0
 10
77.1495690009
 20
72.7893142301
 30
0.0
 10
76.5939362793
 20
74.0493180555
 30
0.0
 10
75.9633358435
 20
75.3744366853
 30
0.0
 10
75.2608827882
 20
76.7458315789
 30
0.0
 10
74.6234600849
 20
77.8995121016
 30
0.0
 10
74.0818913354
 20
78.8172708554
 30
0.0
 10
73.6668244834
 20
79.4864537396
 30
0.0
 10
73.2507397488
 20
80.118434945
 30
0.0
 10
72.9031245881
 20
80.6081381609
 30
0.0
 10
72.6319010816
 20
80.9594814347
 30
0.0
 10
72.4446115751
 20
81.1858137516
 30
0.0
 10
72.2703873887
 20
81.3781144121
 30
0.0
 10
72.112723885
 20
81.5319634701
 30
0.0
 10
71.9739922997
 20
81.6444138164
 30
0.0
 10
71.8557215439
 20
81.7145872486
 30
0.0
 10
71.7553331058
 20
81.7450505706
 30
0.0
 10
71.6391892493
 20
81.7211975882
 30
0.0
 10
71.5830950728
 20
81.6012502706
 30
0.0
 10
71.5637482511
 20
81.4723284749
 30
0.0
 10
71.5605778148
 20
81.3921645238
 30
0.0
 10
71.5605778148
 20
81.3492528659
 30
0.0
  0
SPLINE
  5
4F4
100
AcDbEntity
  8
0
100
AcDbSpline
 62
7
  6
CONTINUOUS
 70
0
 71
3
 72
9
 73
5
 74
0
 42
0.0000001
 43
0.0000001
 44
0.0000000001
 40
0.0
 40
0.0
 40
0.0
 40
0.0
 40
0.2515429519
 40
1.0
 40
1.0
 40
1.0
 40
1.0
 10
147.9463746402
 20
66.4200986856
 30
0.0
 10
147.9346166114
 20
66.3581430566
 30
0.0
 10
147.8988715705
 20
66.1098460277
 30
0.0
 10
147.9113890464
 20
65.8548740957
 30
0.0
 10
147.9463746402
 20
65.6705273395
 30
0.0
  0
SPLINE
  5
4F5
100
AcDbEntity
  8
0
100
AcDbSpline
 62
7
  6
CONTINUOUS
 70
0
 71
3
 72
9
 73
5
 74
0
 42
0.0000001
 43
0.0000001
 44
0.0000000001
 40
0.0
 40
0.0
 40
0.0
 40
0.0
 40
0.2515429519
 40
1.0
 40
1.0
 40
1.0
 40
1.0
 10
86.1747809894
 20
65.6705273395
 30
0.0
 10
86.1865390183
 20
65.7324829686
 30
0.0
 10
86.2222840591
 20
65.9807799975
 30
0.0
 10
86.2097665833
 20
66.2357519294
 30
0.0
 10
86.1747809894
 20
66.4200986856
 30
0.0
  0
SPLINE
  5
4F6
100
AcDbEntity
  8
0
100
AcDbSpline
 62
7
  6
CONTINUOUS
 70
0
 71
3
 72
13
 73
9
 74
0
 42
0.0000001
 43
0.0000001
 44
0.0000000001
 40
0.0
 40
0.0
 40
0.0
 40
0.0
 40
0.2149486937
 40
0.3136162005
 40
0.4177405387
 40
0.5346055747
 40
0.6690049431
 40
1.0
 40
1.0
 40
1.0
 40
1.0
 10
156.0478769148
 20
64.3846640563
 30
0.0
 10
155.9204714314
 20
64.3672569062
 30
0.0
 10
155.7201406839
 20
64.3790584476
 30
0.0
 10
155.50564036
 20
64.5152631383
 30
0.0
 10
155.3808158168
 20
64.6633608913
 30
0.0
 10
155.2867224633
 20
64.8557754051
 30
0.0
 10
155.1926650591
 20
65.1925018174
 30
0.0
 10
155.175116062
 20
65.4733374856
 30
0.0
 10
155.175116062
 20
65.6713492432
 30
0.0
  0
SPLINE
  5
4F7
100
AcDbEntity
  8
BEZUGSACHSEN
100
AcDbSpline
 62
7
  6
CONTINUOUS
 70
0
 71
3
 72
9
 73
5
 74
0
 42
0.0000001
 43
0.0000001
 44
0.0000000001
 40
0.0
 40
0.0
 40
0.0
 40
0.0
 40
0.2536499174
 40
1.0
 40
1.0
 40
1.0
 40
1.0
 10
91.6704982988
 20
99.9521783735
 30
0.0
 10
91.6853005279
 20
99.8942186643
 30
0.0
 10
91.7368929708
 20
99.6640646982
 30
0.0
 10
91.7605778148
 20
99.4274724826
 30
0.0
 10
91.7605778148
 20
99.2514555864
 30
0.0
  0
SPLINE
  5
4F8
100
AcDbEntity
  8
KONSTRUKTIONSELEMENTE
100
AcDbSpline
 62
7
  6
CONTINUOUS
 70
0
 71
3
 72
15
 73
11
 74
0
 42
0.0000001
 43
0.0000001
 44
0.0000000001
 40
0.0
 40
0.0
 40
0.0
 40
0.0
 40
0.1216419959
 40
0.2456040819
 40
0.3720295791
 40
0.5
 40
0.6279704209
 40
0.7543959181
 40
0.8783580041
 40
1.0
 40
1.0
 40
1.0
 40
1.0
 10
126.0679224774
 20
120.9292616953
 30
0.0
 10
125.8322571143
 20
121.8769480402
 30
0.0
 10
125.0048784475
 20
123.719465
 30
0.0
 10
122.8927841447
 20
125.9074748895
 30
0.0
 10
120.1430519526
 20
127.3198029965
 30
0.0
 10
117.0605778148
 20
127.8063289628
 30
0.0
 10
113.9781036771
 20
127.3198029965
 30
0.0
 10
111.228371485
 20
125.9074748895
 30
0.0
 10
109.1162771821
 20
123.719465
 30
0.0
 10
108.2888985154
 20
121.8769480402
 30
0.0
 10
108.0532331523
 20
120.9292616953
 30
0.0
  0
SPLINE
  5
4F9
100
AcDbEntity
  8
0
100
AcDbSpline
 62
7
  6
CONTINUOUS
 70
0
 71
3
 72
14
 73
10
 74
0
 42
0.0000001
 43
0.0000001
 44
0.0000000001
 40
0.0
 40
0.0
 40
0.0
 40
0.0
 40
0.4346802135
 40
0.7466107891
 40
0.855605192
 40
0.9332542284
 40
0.9604634668
 40
0.9801492919
 40
1.0
 40
1.0
 40
1.0
 40
1.0
 10
147.9463746402
 20
65.6705273395
 30
0.0
 10
147.9834501277
 20
65.4751684759
 30
0.0
 10
148.0443241615
 20
65.1389649332
 30
0.0
 10
148.1050422464
 20
64.7525444639
 30
0.0
 10
148.128971695
 20
64.5251392353
 30
0.0
 10
148.1351474528
 20
64.4282757418
 30
0.0
 10
148.1323277042
 20
64.3700062548
 30
0.0
 10
148.1293309986
 20
64.3421162859
 30
0.0
 10
148.1192796382
 20
64.3193652193
 30
0.0
 10
148.1101990549
 20
64.3194235078
 30
0.0
  0
ELLIPSE
  5
4FA
100
AcDbEntity
  8
0
100
AcDbEllipse
 62
7
  6
CONTINUOUS
 10
528.4852990842
 20
122.2179165636
 30
0.0
 11
-4.440706401
 21
9.0144242286
 31
0.0
 40
0.418407714
 41
-1.6164095607
 42
-0.1918339244
  0
ELLIPSE
  5
4FB
100
AcDbEntity
  8
RUNDUNGEN
100
AcDbEllipse
 62
7
  6
CONTINUOUS
 10
547.7059800058
 20
129.2136723014
 30
0.0
 11
-2.3925817405
 21
9.7598806411
 31
0.0
 40
0.418407714
 41
0.1918339244
 42
1.6164095607
  0
ELLIPSE
  5
4FC
100
AcDbEntity
  8
0
100
AcDbEllipse
 62
7
  6
CONTINUOUS
 10
476.811761372
 20
122.2179165636
 30
0.0
 11
4.440706401
 21
9.0144242286
 31
0.0
 40
0.418407714
 41
0.1918339244
 42
1.6164095607
  0
ELLIPSE
  5
4FD
100
AcDbEntity
  8
RUNDUNGEN
100
AcDbEllipse
 62
7
  6
CONTINUOUS
 10
457.5910804503
 20
129.2136723014
 30
0.0
 11
2.3925817405
 21
9.7598806411
 31
0.0
 40
0.418407714
 41
-1.6164095607
 42
-0.1918339244
  0
ELLIPSE
  5
4FE
100
AcDbEntity
  8
0
100
AcDbEllipse
 62
7
  6
CONTINUOUS
 10
117.0605778148
 20
106.1345867533
 30
0.0
 11
0.0
 21
10.9073937561
 31
0.0
 40
0.8480485996
 41
-1.5707963268
 42
-1.3412379954
  0
ELLIPSE
  5
4FF
100
AcDbEntity
  8
0
100
AcDbEllipse
 62
7
  6
CONTINUOUS
 10
117.0605778148
 20
106.1345867533
 30
0.0
 11
0.0
 21
10.9073937561
 31
0.0
 40
0.8480485996
 41
1.3412379954
 42
1.5707963268
  0
ELLIPSE
  5
500
100
AcDbEntity
  8
KONSTRUKTIONSELEMENTE
100
AcDbEllipse
 62
7
  6
CONTINUOUS
 10
117.0605778148
 20
119.45545504
 30
0.0
 11
9.25
 21
-0.0
 31
0.0
 40
0.7002075382
 41
2.9120343222
 42
3.1415926536
  0
ELLIPSE
  5
501
100
AcDbEntity
  8
KONSTRUKTIONSELEMENTE
100
AcDbEllipse
 62
7
  6
CONTINUOUS
 10
117.0605778148
 20
119.45545504
 30
0.0
 11
9.25
 21
-0.0
 31
0.0
 40
0.7002075382
 41
0.0
 42
0.2295583314
  0
ENDSEC
  0
SECTION
  2
OBJECTS
  0
DICTIONARY
  5
C
100
AcDbDictionary
280
0
281
1
  3
ACAD_GROUP
350
D
  3
ACAD_MLINESTYLE
350
17
  3
ACAD_LAYOUT
350
1A
  3
ACAD_PLOTSETTINGS
350
19
  3
ACAD_PLOTSTYLENAME
350
E
  0
DICTIONARY
  5
D
102
{ACAD_REACTORS
330
C
102
}
100
AcDbDictionary
280
0
281
1
  0
ACDBDICTIONARYWDFLT
  5
E
102
{ACAD_REACTORS
330
C
102
}
100
AcDbDictionary
281
1
  3
Normal
350
F
100
AcDbDictionaryWithDefault
340
F
  0
DICTIONARY
  5
17
102
{ACAD_REACTORS
330
C
102
}
100
AcDbDictionary
280
0
281
1
  3
Standard
350
18
  0
DICTIONARY
  5
19
102
{ACAD_REACTORS
330
C
102
}
100
AcDbDictionary
281
1
  0
DICTIONARY
  5
1A
102
{ACAD_REACTORS
330
C
102
}
100
AcDbDictionary
281
1
  3
Model
350
502
  3
Layout1
350
503
  0
ACDBPLACEHOLDER
  5
F
102
{ACAD_REACTORS
330
E
102
}
  0
MLINESTYLE
  5
18
102
{ACAD_REACTORS
330
17
102
}
100
AcDbMlineStyle
  2
STANDARD
 70
0
  3

 62
256
 51
90.0
 52
90.0
 71
2
 49
0.5
 62
256
  6
BYLAYER
 49
-0.5
 62
256
  6
BYLAYER
  0
LAYOUT
  5
502
102
{ACAD_REACTORS
330
1A
102
}
100
AcDbPlotSettings
  1

  2
none_device
  4
ISO_A2_(594.00_x_420.00_MM)
  6

 40
0.0
 41
0.0
 42
0.0
 43
0.0
 44
594.0
 45
420.0
 46
0.0
 47
0.0
 48
0.0
 49
0.0
140
0.0
141
0.0
142
1.0
143
1.0
 70
1024
 72
1
 73
0
 74
0
  7

 75
0
147
1.0
148
0.0
149
0.0
100
AcDbLayout
  1
Model
 70
0
 71
0
 10
0.0
 20
0.0
 11
594.0
 21
420.0
 12
0.0
 22
0.0
 32
0.0
 14
0.0
 24
0.0
 34
0.0
 15
0.0
 25
0.0
 35
0.0
146
0.0
 13
0.0
 23
0.0
 33
0.0
 16
1.0
 26
0.0
 36
0.0
 17
0.0
 27
1.0
 37
0.0
 76
0
330
20A
345
0
346
0
  0
LAYOUT
  5
503
102
{ACAD_REACTORS
330
1A
102
}
100
AcDbPlotSettings
  1

  2
none_device
  4
ISO_A2_(594.00_x_420.00_MM)
  6

 40
0.0
 41
0.0
 42
0.0
 43
0.0
 44
594.0
 45
420.0
 46
0.0
 47
0.0
 48
0.0
 49
0.0
140
0.0
141
0.0
142
1.0
143
1.0
 70
0
 72
1
 73
0
 74
0
  7

 75
0
147
1.0
148
0.0
149
0.0
100
AcDbLayout
  1
Layout1
 70
0
 71
1
 10
0.0
 20
0.0
 11
594.0
 21
420.0
 12
0.0
 22
0.0
 32
0.0
 14
0.0
 24
0.0
 34
0.0
 15
0.0
 25
0.0
 35
0.0
146
0.0
 13
0.0
 23
0.0
 33
0.0
 16
1.0
 26
0.0
 36
0.0
 17
0.0
 27
1.0
 37
0.0
 76
0
330
20B
345
0
346
0
  0
ENDSEC
  0
EOF
