999
DXF file: IBK-RG-2-13_7903078_M34553-P-4.dxf
999
Pro/ENGINEER 2010140 by Parametric Technology Corporation
  0
SECTION
  2
HEADER
  9
$ACADVER
  1
AC1015
  9
$DWGCODEPAGE
  3
ANSI_1252
  9
$EXTMAX
 10
594.0
 20
420.0
 30
0.0
  9
$EXTMIN
 10
0.0
 20
0.0
 30
0.0
  9
$LIMMIN
 10
0.0
 20
0.0
  9
$LIMMAX
 10
594.0
 20
420.0
  9
$VIEWCTR
 10
297.0
 20
210.0
  9
$VIEWSIZE
 40
420.0
  9
$CLAYER
  8
0
  9
$LTSCALE
 40
32.67
  9
$CELTYPE
  6
BYLAYER
  9
$DIMSCALE
 40
1.0
  9
$DIMASZ
 40
3.5
  9
$DIMEXO
 40
3.7125
  9
$DIMDLI
 40
22.572
  9
$DIMEXE
 40
10.692
  9
$DIMCEN
 40
5.346
  9
$DIMLFAC
 40
1.0
  9
$DIMBLK
  1
_FILLED
  9
$DIMTXT
 40
3.5
  9
$DIMTOL
 70
1
  9
$DIMLIM
 70
0
  9
$DIMTFAC
 40
1.0
  9
$DIMTP
 40
0.005
  9
$DIMTM
 40
0.005
  9
$PDMODE
 70
3
  9
$PDSIZE
 40
0.3125
  9
$HANDSEED
  5
513
  9
$TILEMODE
 70
1
  9
$MEASUREMENT
 70
1
  9
$INSUNITS
 70
4
  0
ENDSEC
  0
SECTION
  2
CLASSES
  0
CLASS
  1
ACDBDICTIONARYWDFLT
  2
AcDbDictionaryWithDefault
  3
AutoCAD 2000
 90
0
280
0
281
0
  0
CLASS
  1
ACDBPLACEHOLDER
  2
AcDbPlaceHolder
  3
AutoCAD 2000
 90
0
280
0
281
0
  0
CLASS
  1
LAYOUT
  2
AcDbLayout
  3
AutoCAD 2000
 90
0
280
0
281
0
  0
ENDSEC
  0
SECTION
  2
TABLES
  0
TABLE
  2
VPORT
  5
8
100
AcDbSymbolTable
 70
2
  0
VPORT
  5
1F4
100
AcDbSymbolTableRecord
100
AcDbViewportTableRecord
  2
*ACTIVE
 70
0
 10
0.0
 20
0.0
 11
1.0
 21
1.0
 12
297.0
 22
210.0
 13
0.0
 23
0.0
 14
1.0
 24
1.0
 15
0.0
 25
0.0
 16
0.0
 26
0.0
 36
1.0
 17
0.0
 27
0.0
 37
0.0
 40
420.0
 41
1.4142857143
 42
50.0
 43
0.0
 44
0.0
 50
0.0
 51
0.0
 71
0
 72
100
 73
1
 74
1
 75
0
 76
0
 77
0
 78
0
  0
ENDTAB
  0
TABLE
  2
LTYPE
  5
5
100
AcDbSymbolTable
 70
6
  0
LTYPE
  5
14
100
AcDbSymbolTableRecord
100
AcDbLinetypeTableRecord
  2
BYBLOCK
 70
0
  3

 72
65
 73
0
 40
0.0
  0
LTYPE
  5
15
100
AcDbSymbolTableRecord
100
AcDbLinetypeTableRecord
  2
BYLAYER
 70
0
  3

 72
65
 73
0
 40
0.0
  0
LTYPE
  5
16
100
AcDbSymbolTableRecord
100
AcDbLinetypeTableRecord
  2
CONTINUOUS
 70
64
  3
Solid line
 72
65
 73
0
 40
0.0
  0
LTYPE
  5
1F5
100
AcDbSymbolTableRecord
100
AcDbLinetypeTableRecord
  2
CENTER
 70
64
  3
____ _ ____ _ ____ _ ____ _ ____ _ ____ _ ____
 72
65
 73
4
 40
0.6
 49
0.375
 74
0
 49
-0.075
 74
0
 49
0.075
 74
0
 49
-0.075
 74
0
  0
LTYPE
  5
1F6
100
AcDbSymbolTableRecord
100
AcDbLinetypeTableRecord
  2
HIDDEN
 70
64
  3
- - - - - - - - - - - - - - - - - - - -
 72
65
 73
2
 40
0.2
 49
0.1
 74
0
 49
-0.1
 74
0
  0
LTYPE
  5
1F7
100
AcDbSymbolTableRecord
100
AcDbLinetypeTableRecord
  2
PHANTOM
 70
64
  3
_____ _ _ _____ _ _ _____ _ _ _____
 72
65
 73
6
 40
0.8
 49
0.45
 74
0
 49
-0.05
 74
0
 49
0.1
 74
0
 49
-0.05
 74
0
 49
0.1
 74
0
 49
-0.05
 74
0
  0
LTYPE
  5
1F8
100
AcDbSymbolTableRecord
100
AcDbLinetypeTableRecord
  2
DOT
 70
64
  3
. . . . . . . . . . . . . . . . . . . .
 72
65
 73
2
 40
0.2
 49
0.1
 74
0
 49
-0.1
 74
0
  0
LTYPE
  5
1F9
100
AcDbSymbolTableRecord
100
AcDbLinetypeTableRecord
  2
DASHED
 70
64
  3
- - - - - - - - - - - - - - - - - - - -
 72
65
 73
2
 40
0.2
 49
0.1
 74
0
 49
-0.1
 74
0
  0
ENDTAB
  0
TABLE
  2
LAYER
  5
2
100
AcDbSymbolTable
 70
36
  0
LAYER
  5
10
100
AcDbSymbolTableRecord
100
AcDbLayerTableRecord
  2
0
 70
0
 62
7
  6
CONTINUOUS
370
-3
390
F
  0
LAYER
  5
1FA
100
AcDbSymbolTableRecord
100
AcDbLayerTableRecord
  2
DEFAULT_1
 70
0
 62
7
  6
CENTER
370
-3
390
F
  0
LAYER
  5
1FB
100
AcDbSymbolTableRecord
100
AcDbLayerTableRecord
  2
DEFAULT_2
 70
0
 62
8
  6
HIDDEN
370
-3
390
F
  0
LAYER
  5
1FC
100
AcDbSymbolTableRecord
100
AcDbLayerTableRecord
  2
DEFAULT_3
 70
0
 62
7
  6
PHANTOM
370
-3
390
F
  0
LAYER
  5
1FD
100
AcDbSymbolTableRecord
100
AcDbLayerTableRecord
  2
BEZUGSACHSEN
 70
0
 62
7
  6
CONTINUOUS
370
-3
390
F
  0
LAYER
  5
1FE
100
AcDbSymbolTableRecord
100
AcDbLayerTableRecord
  2
BEZUGSEBENEN
 70
0
 62
7
  6
CONTINUOUS
370
-3
390
F
  0
LAYER
  5
1FF
100
AcDbSymbolTableRecord
100
AcDbLayerTableRecord
  2
BG_STARTBEZUEGE
 70
0
 62
7
  6
CONTINUOUS
370
-3
390
F
  0
LAYER
  5
200
100
AcDbSymbolTableRecord
100
AcDbLayerTableRecord
  2
FASEN
 70
0
 62
7
  6
CONTINUOUS
370
-3
390
F
  0
LAYER
  5
201
100
AcDbSymbolTableRecord
100
AcDbLayerTableRecord
  2
HILFEN
 70
0
 62
7
  6
CONTINUOUS
370
-3
390
F
  0
LAYER
  5
202
100
AcDbSymbolTableRecord
100
AcDbLayerTableRecord
  2
KONSTRUKTIONSELEMENTE
 70
0
 62
7
  6
CONTINUOUS
370
-3
390
F
  0
LAYER
  5
203
100
AcDbSymbolTableRecord
100
AcDbLayerTableRecord
  2
NORM
 70
0
 62
7
  6
CONTINUOUS
370
-3
390
F
  0
LAYER
  5
204
100
AcDbSymbolTableRecord
100
AcDbLayerTableRecord
  2
PLATZIERUNG
 70
0
 62
7
  6
CONTINUOUS
370
-3
390
F
  0
LAYER
  5
205
100
AcDbSymbolTableRecord
100
AcDbLayerTableRecord
  2
RUNDUNGEN
 70
0
 62
7
  6
CONTINUOUS
370
-3
390
F
  0
LAYER
  5
206
100
AcDbSymbolTableRecord
100
AcDbLayerTableRecord
  2
TEIL_STARTBEZUEGE
 70
0
 62
7
  6
CONTINUOUS
370
-3
390
F
  0
LAYER
  5
207
100
AcDbSymbolTableRecord
100
AcDbLayerTableRecord
  2
T_STARTBEZUEGE
 70
0
 62
7
  6
CONTINUOUS
370
-3
390
F
  0
ENDTAB
  0
TABLE
  2
STYLE
  5
3
100
AcDbSymbolTable
 70
1
  0
STYLE
  5
11
100
AcDbSymbolTableRecord
100
AcDbTextStyleTableRecord
  2
STANDARD
 70
0
 40
0.0
 41
0.7
 50
0.0
 71
0
 42
0.2
  3
txt
  4

  0
STYLE
  5
208
100
AcDbSymbolTableRecord
100
AcDbTextStyleTableRecord
  2
TEXTSTYLE_1
 70
0
 40
0.0
 41
0.8
 50
0.0
 71
0
 42
0.2
  3
gdt
  4

  0
ENDTAB
  0
TABLE
  2
VIEW
  5
6
100
AcDbSymbolTable
 70
0
  0
ENDTAB
  0
TABLE
  2
UCS
  5
7
100
AcDbSymbolTable
 70
0
  0
ENDTAB
  0
TABLE
  2
APPID
  5
9
100
AcDbSymbolTable
 70
1
  0
APPID
  5
209
100
AcDbSymbolTableRecord
100
AcDbRegAppTableRecord
  2
ACAD
 70
0
  0
ENDTAB
  0
TABLE
  2
BLOCK_RECORD
  5
1
100
AcDbSymbolTable
 70
0
  0
BLOCK_RECORD
  5
20A
100
AcDbSymbolTableRecord
100
AcDbBlockTableRecord
  2
*Model_Space
  0
BLOCK_RECORD
  5
20B
100
AcDbSymbolTableRecord
100
AcDbBlockTableRecord
  2
*Paper_Space
  0
ENDTAB
  0
TABLE
  2
DIMSTYLE
  5
A
100
AcDbSymbolTable
 70
1
100
AcDbDimStyleTable
 71
0
  0
DIMSTYLE
105
20C
100
AcDbSymbolTableRecord
100
AcDbDimStyleTableRecord
  2
STANDARD
 70
0
  3

  4

 40
1.0
 41
3.5
 42
0.0625
 43
0.38
 44
0.18
 45
0.0
 46
0.0
 47
0.005
 48
0.005
140
3.5
141
0.09
142
0.0
143
25.4
144
1.0
145
0.0
146
1.0
147
0.09
 71
1.0
 72
0.0
 73
0
 74
0
 75
0
 76
0
 77
1
 78
8
170
0
171
2
172
0
173
0
174
0
175
0
176
0
177
0
178
5
270
2
271
3
272
3
273
2
274
2
275
0
280
0
281
0
282
0
283
1
284
8
285
0
286
0
287
3
288
0
340
11
  0
ENDTAB
  0
ENDSEC
  0
SECTION
  2
BLOCKS
  0
BLOCK
  5
20
100
AcDbEntity
  8
0
100
AcDbBlockBegin
  2
*Model_Space
 70
0
 10
0.0
 20
0.0
 30
0.0
  3
*Model_Space
  1

  0
ENDBLK
  5
21
100
AcDbEntity
  8
0
100
AcDbBlockEnd
  0
BLOCK
  5
1C
100
AcDbEntity
  8
0
100
AcDbBlockBegin
  2
*Paper_Space
 70
0
 10
0.0
 20
0.0
 30
0.0
  3
*Paper_Space
  1

  0
ENDBLK
  5
1D
100
AcDbEntity
  8
0
100
AcDbBlockEnd
  0
ENDSEC
  0
SECTION
  2
ENTITIES
  0
MTEXT
  5
20D
100
AcDbEntity
  8
0
100
AcDbMText
 62
5
  6
CONTINUOUS
  7
STANDARD
 71
1
 72
1
 10
445.0428467874
 20
232.2567969692
 30
0.0
 11
0.0
 21
1.0
 31
0.0
 44
0.9
  1
RUD
 40
8.0
 41
21.3333333333
  0
MTEXT
  5
20E
100
AcDbEntity
  8
0
100
AcDbMText
 62
5
  6
CONTINUOUS
  7
STANDARD
 71
1
 72
1
 10
536.6048399072
 20
211.4904927553
 30
0.0
 11
0.0
 21
1.0
 31
0.0
 44
0.9
  1
IBK-RG 2-13
 40
8.0
 41
66.0952380952
  0
MTEXT
  5
20F
100
AcDbEntity
  8
0
100
AcDbMText
 62
5
  6
CONTINUOUS
  7
STANDARD
 71
1
 72
1
 10
121.7885613588
 20
201.9201205011
 30
0.0
 11
0.0
 21
1.0
 31
0.0
 44
0.9
  1
RUD IBK-RG 2-13
 40
8.0
 41
92.1904761905
  0
LINE
  5
210
100
AcDbEntity
  8
0
100
AcDbLine
 62
7
  6
CONTINUOUS
 10
0.0
 20
0.0
 11
0.0
 21
420.0
  0
LINE
  5
211
100
AcDbEntity
  8
0
100
AcDbLine
 62
7
  6
CONTINUOUS
 10
0.0
 20
0.0
 11
594.0
 21
0.0
  0
LINE
  5
212
100
AcDbEntity
  8
0
100
AcDbLine
 62
7
  6
CONTINUOUS
 10
0.0
 20
420.0
 11
594.0
 21
420.0
  0
LINE
  5
213
100
AcDbEntity
  8
0
100
AcDbLine
 62
7
  6
CONTINUOUS
 10
594.0
 20
0.0
 11
594.0
 21
420.0
  0
LINE
  5
214
100
AcDbEntity
  8
RUNDUNGEN
100
AcDbLine
 62
7
  6
CONTINUOUS
 10
226.757132975
 20
79.4928865073
 11
224.6440416663
 21
84.0244254425
  0
LINE
  5
215
100
AcDbEntity
  8
0
100
AcDbLine
 62
7
  6
CONTINUOUS
 10
446.9089535079
 20
86.6038540785
 11
449.3521543219
 21
85.7146017058
  0
LINE
  5
216
100
AcDbEntity
  8
0
100
AcDbLine
 62
7
  6
CONTINUOUS
 10
441.9744883225
 20
98.7755858096
 11
460.9560123021
 21
91.86687608
  0
LINE
  5
217
100
AcDbEntity
  8
RUNDUNGEN
100
AcDbLine
 62
7
  6
CONTINUOUS
 10
324.3965301171
 20
130.5397747271
 11
326.5096214258
 21
126.0082357919
  0
LINE
  5
218
100
AcDbEntity
  8
KONSTRUKTIONSELEMENTE
100
AcDbLine
 62
7
  6
CONTINUOUS
 10
340.0116479172
 20
140.0831484741
 11
337.8985566085
 21
144.6146874093
  0
LINE
  5
219
100
AcDbEntity
  8
RUNDUNGEN
100
AcDbLine
 62
7
  6
CONTINUOUS
 10
343.3181712959
 20
133.8461913188
 11
341.2050799872
 21
138.377730254
  0
LINE
  5
21A
100
AcDbEntity
  8
KONSTRUKTIONSELEMENTE
100
AcDbLine
 62
7
  6
CONTINUOUS
 10
340.4648018107
 20
140.294457605
 11
338.351710502
 21
144.8259965402
  0
LINE
  5
21B
100
AcDbEntity
  8
0
100
AcDbLine
 62
7
  6
CONTINUOUS
 10
456.2168811711
 20
117.8785937353
 11
462.3248832062
 21
115.6554628037
  0
LINE
  5
21C
100
AcDbEntity
  8
0
100
AcDbLine
 62
7
  6
CONTINUOUS
 10
464.9889156473
 20
122.9748317805
 11
458.8809136122
 21
125.1979627121
  0
LINE
  5
21D
100
AcDbEntity
  8
0
100
AcDbLine
 62
7
  6
CONTINUOUS
 10
471.7824855
 20
138.0439097872
 11
463.3629538098
 21
141.1083687089
  0
LINE
  5
21E
100
AcDbEntity
  8
0
100
AcDbLine
 62
7
  6
CONTINUOUS
 10
478.2809362305
 20
159.2554302031
 11
472.0193542447
 21
161.5344596654
  0
LINE
  5
21F
100
AcDbEntity
  8
0
100
AcDbLine
 62
7
  6
CONTINUOUS
 10
485.8583618133
 20
180.0742358893
 11
479.5967798275
 21
182.3532653516
  0
LINE
  5
220
100
AcDbEntity
  8
KONSTRUKTIONSELEMENTE
100
AcDbLine
 62
7
  6
CONTINUOUS
 10
418.4072714958
 20
176.6396281147
 11
416.2941801871
 21
181.1711670499
  0
LINE
  5
221
100
AcDbEntity
  8
KONSTRUKTIONSELEMENTE
100
AcDbLine
 62
7
  6
CONTINUOUS
 10
418.8604253894
 20
176.8509372456
 11
416.7473340807
 21
181.3824761807
  0
LINE
  5
222
100
AcDbEntity
  8
0
100
AcDbLine
 62
7
  6
CONTINUOUS
 10
491.4054223304
 20
195.3146594046
 11
485.1438403446
 21
197.5936888668
  0
LINE
  5
223
100
AcDbEntity
  8
0
100
AcDbLine
 62
7
  6
CONTINUOUS
 10
487.1742054102
 20
203.1720710378
 11
493.435787396
 21
200.8930415756
  0
LINE
  5
224
100
AcDbEntity
  8
RUNDUNGEN
100
AcDbLine
 62
7
  6
CONTINUOUS
 10
547.6287271718
 20
126.6575550353
 11
539.7739131347
 21
132.1575550353
  0
LINE
  5
225
100
AcDbEntity
  8
KONSTRUKTIONSELEMENTE
100
AcDbLine
 62
7
  6
CONTINUOUS
 10
421.9132884668
 20
183.7914002727
 11
416.7473340807
 21
181.3824761807
  0
LINE
  5
226
100
AcDbEntity
  8
KONSTRUKTIONSELEMENTE
100
AcDbLine
 62
7
  6
CONTINUOUS
 10
416.2941801871
 20
181.1711670499
 11
411.128225801
 21
178.762242958
  0
LINE
  5
227
100
AcDbEntity
  8
KONSTRUKTIONSELEMENTE
100
AcDbLine
 62
7
  6
CONTINUOUS
 10
343.5176648881
 20
147.2349206321
 11
338.351710502
 21
144.8259965402
  0
LINE
  5
228
100
AcDbEntity
  8
KONSTRUKTIONSELEMENTE
100
AcDbLine
 62
7
  6
CONTINUOUS
 10
337.8985566085
 20
144.6146874093
 11
332.7326022224
 21
142.2057633174
  0
LINE
  5
229
100
AcDbEntity
  8
KONSTRUKTIONSELEMENTE
100
AcDbLine
 62
7
  6
CONTINUOUS
 10
384.5487351063
 20
164.6577871227
 11
370.9541183007
 21
158.3185131966
  0
LINE
  5
22A
100
AcDbEntity
  8
KONSTRUKTIONSELEMENTE
100
AcDbLine
 62
7
  6
CONTINUOUS
 10
424.0263797755
 20
179.2598613375
 11
418.8604253894
 21
176.8509372456
  0
LINE
  5
22B
100
AcDbEntity
  8
KONSTRUKTIONSELEMENTE
100
AcDbLine
 62
7
  6
CONTINUOUS
 10
418.4072714958
 20
176.6396281147
 11
413.2413171097
 21
174.2307040228
  0
LINE
  5
22C
100
AcDbEntity
  8
KONSTRUKTIONSELEMENTE
100
AcDbLine
 62
7
  6
CONTINUOUS
 10
345.6307561968
 20
142.7033816969
 11
340.4648018107
 21
140.294457605
  0
LINE
  5
22D
100
AcDbEntity
  8
KONSTRUKTIONSELEMENTE
100
AcDbLine
 62
7
  6
CONTINUOUS
 10
340.0116479172
 20
140.0831484741
 11
334.8456935311
 21
137.6742243822
  0
LINE
  5
22E
100
AcDbEntity
  8
KONSTRUKTIONSELEMENTE
100
AcDbLine
 62
7
  6
CONTINUOUS
 10
386.4505172841
 20
160.5794020811
 11
372.8559004786
 21
154.240128155
  0
LINE
  5
22F
100
AcDbEntity
  8
KONSTRUKTIONSELEMENTE
100
AcDbLine
 62
7
  6
CONTINUOUS
 10
424.5154443396
 20
178.3293690742
 11
467.0523561512
 21
198.1646568062
  0
LINE
  5
230
100
AcDbEntity
  8
0
100
AcDbLine
 62
7
  6
CONTINUOUS
 10
436.3740000705
 20
207.2762797118
 11
436.3740000705
 21
282.2762797118
  0
LINE
  5
231
100
AcDbEntity
  8
RUNDUNGEN
100
AcDbLine
 62
7
  6
CONTINUOUS
 10
224.6440416663
 20
84.0244254425
 11
341.2052896828
 21
138.3778280366
  0
LINE
  5
232
100
AcDbEntity
  8
KONSTRUKTIONSELEMENTE
100
AcDbLine
 62
7
  6
CONTINUOUS
 10
348.2341322155
 20
141.3795866579
 11
372.2132925479
 21
152.561252757
  0
LINE
  5
233
100
AcDbEntity
  8
KONSTRUKTIONSELEMENTE
100
AcDbLine
 62
7
  6
CONTINUOUS
 10
388.1116748451
 20
159.9747901745
 11
412.0908351775
 21
171.1564562736
  0
LINE
  5
234
100
AcDbEntity
  8
KONSTRUKTIONSELEMENTE
100
AcDbLine
 62
7
  6
CONTINUOUS
 10
350.1359143933
 20
137.3012016162
 11
374.1150747257
 21
148.4828677153
  0
LINE
  5
235
100
AcDbEntity
  8
KONSTRUKTIONSELEMENTE
100
AcDbLine
 62
7
  6
CONTINUOUS
 10
390.0134570229
 20
155.8964051328
 11
413.9926173553
 21
167.0780712319
  0
LINE
  5
236
100
AcDbEntity
  8
RUNDUNGEN
100
AcDbLine
 62
7
  6
CONTINUOUS
 10
226.757132975
 20
79.4928865073
 11
343.3183659009
 21
133.8462820646
  0
LINE
  5
237
100
AcDbEntity
  8
KONSTRUKTIONSELEMENTE
100
AcDbLine
 62
7
  6
CONTINUOUS
 10
375.8142283107
 20
147.8959736457
 11
389.4088451163
 21
154.2352475718
  0
LINE
  5
238
100
AcDbEntity
  8
KONSTRUKTIONSELEMENTE
100
AcDbLine
 62
7
  6
CONTINUOUS
 10
427.533326351
 20
172.0129851347
 11
470.0106839834
 21
191.8205022969
  0
LINE
  5
239
100
AcDbEntity
  8
KONSTRUKTIONSELEMENTE
100
AcDbLine
 62
7
  6
CONTINUOUS
 10
338.6915197129
 20
129.4268235202
 11
349.4765823786
 21
134.4559808349
  0
LINE
  5
23A
100
AcDbEntity
  8
KONSTRUKTIONSELEMENTE
100
AcDbLine
 62
7
  6
CONTINUOUS
 10
417.0871432916
 20
165.9833031607
 11
427.8722059573
 21
171.0124604755
  0
LINE
  5
23B
100
AcDbEntity
  8
KONSTRUKTIONSELEMENTE
100
AcDbLine
 62
7
  6
CONTINUOUS
 10
377.7160104886
 20
143.817588604
 11
391.3106272941
 21
150.1568625302
  0
LINE
  5
23C
100
AcDbEntity
  8
KONSTRUKTIONSELEMENTE
100
AcDbLine
 62
7
  6
CONTINUOUS
 10
340.8046110216
 20
124.895284585
 11
351.5896736873
 21
129.9244418997
  0
LINE
  5
23D
100
AcDbEntity
  8
KONSTRUKTIONSELEMENTE
100
AcDbLine
 62
7
  6
CONTINUOUS
 10
419.2002346003
 20
161.4517642256
 11
429.985297266
 21
166.4809215403
  0
LINE
  5
23E
100
AcDbEntity
  8
0
100
AcDbLine
 62
7
  6
CONTINUOUS
 10
502.5737947308
 20
203.1720710378
 11
496.312212745
 21
200.8930415756
  0
LINE
  5
23F
100
AcDbEntity
  8
0
100
AcDbLine
 62
7
  6
CONTINUOUS
 10
498.3425778106
 20
195.3146594046
 11
504.6041597964
 21
197.5936888668
  0
LINE
  5
240
100
AcDbEntity
  8
0
100
AcDbLine
 62
7
  6
CONTINUOUS
 10
503.8896383278
 20
180.0742358893
 11
510.1512203136
 21
182.3532653516
  0
LINE
  5
241
100
AcDbEntity
  8
0
100
AcDbLine
 62
7
  6
CONTINUOUS
 10
476.2854803884
 20
122.5809910222
 11
478.7672851799
 21
113.3187694456
  0
LINE
  5
242
100
AcDbEntity
  8
0
100
AcDbLine
 62
7
  6
CONTINUOUS
 10
462.3740000705
 20
207.2762797118
 11
462.3740000705
 21
282.2762797118
  0
LINE
  5
243
100
AcDbEntity
  8
RUNDUNGEN
100
AcDbLine
 62
7
  6
CONTINUOUS
 10
436.0313144181
 20
109.9310263853
 11
442.1192729693
 21
126.6575550353
  0
LINE
  5
244
100
AcDbEntity
  8
RUNDUNGEN
100
AcDbLine
 62
7
  6
CONTINUOUS
 10
449.9740870064
 20
132.1575550353
 11
453.6149550348
 21
142.1607577306
  0
LINE
  5
245
100
AcDbEntity
  8
KONSTRUKTIONSELEMENTE
100
AcDbLine
 62
7
  6
CONTINUOUS
 10
487.1742054102
 20
203.1720710378
 11
477.8074922555
 21
193.2159032919
  0
LINE
  5
246
100
AcDbEntity
  8
KONSTRUKTIONSELEMENTE
100
AcDbLine
 62
7
  6
CONTINUOUS
 10
502.5737947308
 20
203.1720710378
 11
511.9405078856
 21
193.2159032919
  0
LINE
  5
247
100
AcDbEntity
  8
0
100
AcDbLine
 62
7
  6
CONTINUOUS
 10
517.0686735123
 20
96.5922407956
 11
510.9807149611
 21
113.3187694456
  0
LINE
  5
248
100
AcDbEntity
  8
RUNDUNGEN
100
AcDbLine
 62
7
  6
CONTINUOUS
 10
456.2168811711
 20
117.8785937353
 11
461.6353680364
 21
137.1132105876
  0
LINE
  5
249
100
AcDbEntity
  8
0
100
AcDbLine
 62
7
  6
CONTINUOUS
 10
458.8809136122
 20
125.1979627121
 11
463.3629538098
 21
141.1083687089
  0
LINE
  5
24A
100
AcDbEntity
  8
BEZUGSACHSEN
100
AcDbLine
 62
7
  6
CONTINUOUS
 10
475.7996293533
 20
189.9555296778
 11
464.560112451
 21
159.0752107832
  0
LINE
  5
24B
100
AcDbEntity
  8
RUNDUNGEN
100
AcDbLine
 62
7
  6
CONTINUOUS
 10
464.5600091647
 20
159.0749270065
 11
459.8305293074
 21
146.0807878929
  0
LINE
  5
24C
100
AcDbEntity
  8
0
100
AcDbLine
 62
7
  6
CONTINUOUS
 10
458.8809136122
 20
125.1979627121
 11
456.2168811711
 21
117.8785937353
  0
LINE
  5
24D
100
AcDbEntity
  8
0
100
AcDbLine
 62
7
  6
CONTINUOUS
 10
468.9240853582
 20
154.7217135297
 11
463.3629538098
 21
141.1083687089
  0
LINE
  5
24E
100
AcDbEntity
  8
RUNDUNGEN
100
AcDbLine
 62
7
  6
CONTINUOUS
 10
449.9740870064
 20
132.1575550353
 11
442.1192729693
 21
126.6575550353
  0
LINE
  5
24F
100
AcDbEntity
  8
0
100
AcDbLine
 62
7
  6
CONTINUOUS
 10
511.4670639105
 20
159.2554302031
 11
517.7286458963
 21
161.5344596654
  0
LINE
  5
250
100
AcDbEntity
  8
0
100
AcDbLine
 62
7
  6
CONTINUOUS
 10
527.4231169349
 20
115.6554628037
 11
519.2101452985
 21
133.8729703792
  0
LINE
  5
251
100
AcDbEntity
  8
0
100
AcDbLine
 62
7
  6
CONTINUOUS
 10
524.7590844937
 20
122.9748317805
 11
517.9655146411
 21
138.0439097872
  0
LINE
  5
252
100
AcDbEntity
  8
0
100
AcDbLine
 62
7
  6
CONTINUOUS
 10
509.8216517239
 20
132.5841937184
 11
513.4625197527
 21
122.5809910222
  0
LINE
  5
253
100
AcDbEntity
  8
0
100
AcDbLine
 62
7
  6
CONTINUOUS
 10
507.3337278952
 20
152.57682806
 11
512.0633110387
 21
139.5824051697
  0
LINE
  5
254
100
AcDbEntity
  8
BEZUGSACHSEN
100
AcDbLine
 62
7
  6
CONTINUOUS
 10
507.3337278952
 20
152.57682806
 11
496.0942109928
 21
183.4571469547
  0
LINE
  5
255
100
AcDbEntity
  8
0
100
AcDbLine
 62
7
  6
CONTINUOUS
 10
524.7590844937
 20
122.9748317805
 11
527.4231169349
 21
115.6554628037
  0
LINE
  5
256
100
AcDbEntity
  8
0
100
AcDbLine
 62
7
  6
CONTINUOUS
 10
513.475099184
 20
152.0469633946
 11
517.9655146411
 21
138.0439097872
  0
LINE
  5
257
100
AcDbEntity
  8
0
100
AcDbLine
 62
7
  6
CONTINUOUS
 10
494.2114046915
 20
187.2453674397
 11
493.435787396
 21
200.8930415756
  0
LINE
  5
258
100
AcDbEntity
  8
0
100
AcDbLine
 62
7
  6
CONTINUOUS
 10
495.5365954495
 20
187.2453674397
 11
496.312212745
 21
200.8930415756
  0
LINE
  5
259
100
AcDbEntity
  8
0
100
AcDbLine
 62
7
  6
CONTINUOUS
 10
476.272900957
 20
152.0469633946
 11
471.7824855
 21
138.0439097872
  0
LINE
  5
25A
100
AcDbEntity
  8
0
100
AcDbLine
 62
7
  6
CONTINUOUS
 10
464.9889156473
 20
122.9748317805
 11
462.3248832062
 21
115.6554628037
  0
LINE
  5
25B
100
AcDbEntity
  8
BEZUGSACHSEN
100
AcDbLine
 62
7
  6
CONTINUOUS
 10
493.6537891482
 20
183.4571469547
 11
482.4142722459
 21
152.57682806
  0
LINE
  5
25C
100
AcDbEntity
  8
0
100
AcDbLine
 62
7
  6
CONTINUOUS
 10
482.4141689596
 20
152.5765442833
 11
477.6846891024
 21
139.5824051697
  0
LINE
  5
25D
100
AcDbEntity
  8
0
100
AcDbLine
 62
7
  6
CONTINUOUS
 10
476.2854803884
 20
122.5809910222
 11
479.9263484171
 21
132.5841937184
  0
LINE
  5
25E
100
AcDbEntity
  8
0
100
AcDbLine
 62
7
  6
CONTINUOUS
 10
464.9889156473
 20
122.9748317805
 11
471.7824855
 21
138.0439097872
  0
LINE
  5
25F
100
AcDbEntity
  8
0
100
AcDbLine
 62
7
  6
CONTINUOUS
 10
462.3248832062
 20
115.6554628037
 11
470.5378548425
 21
133.8729703792
  0
LINE
  5
260
100
AcDbEntity
  8
0
100
AcDbLine
 62
7
  6
CONTINUOUS
 10
517.9655146411
 20
138.0439097872
 11
526.3850463313
 21
141.1083687089
  0
LINE
  5
261
100
AcDbEntity
  8
0
100
AcDbLine
 62
7
  6
CONTINUOUS
 10
520.8239147828
 20
154.7217135297
 11
526.3850463313
 21
141.1083687089
  0
LINE
  5
262
100
AcDbEntity
  8
0
100
AcDbLine
 62
7
  6
CONTINUOUS
 10
530.8670865288
 20
125.1979627121
 11
533.53111897
 21
117.8785937353
  0
LINE
  5
263
100
AcDbEntity
  8
RUNDUNGEN
100
AcDbLine
 62
7
  6
CONTINUOUS
 10
525.1878876901
 20
159.0752107832
 11
529.9174708336
 21
146.0807878929
  0
LINE
  5
264
100
AcDbEntity
  8
BEZUGSACHSEN
100
AcDbLine
 62
7
  6
CONTINUOUS
 10
525.1878876901
 20
159.0752107832
 11
513.9483707878
 21
189.9555296778
  0
LINE
  5
265
100
AcDbEntity
  8
0
100
AcDbLine
 62
7
  6
CONTINUOUS
 10
530.8670865288
 20
125.1979627121
 11
526.3850463313
 21
141.1083687089
  0
LINE
  5
266
100
AcDbEntity
  8
RUNDUNGEN
100
AcDbLine
 62
7
  6
CONTINUOUS
 10
533.53111897
 20
117.8785937353
 11
528.1126321046
 21
137.1132105876
  0
LINE
  5
267
100
AcDbEntity
  8
0
100
AcDbLine
 62
7
  6
CONTINUOUS
 10
472.6793266287
 20
96.5922407956
 11
478.7672851799
 21
113.3187694456
  0
LINE
  5
268
100
AcDbEntity
  8
0
100
AcDbLine
 62
7
  6
CONTINUOUS
 10
530.8670865288
 20
125.1979627121
 11
524.7590844937
 21
122.9748317805
  0
LINE
  5
269
100
AcDbEntity
  8
RUNDUNGEN
100
AcDbLine
 62
7
  6
CONTINUOUS
 10
536.1330451059
 20
142.1607577315
 11
539.7739131347
 21
132.1575550353
  0
LINE
  5
26A
100
AcDbEntity
  8
RUNDUNGEN
100
AcDbLine
 62
7
  6
CONTINUOUS
 10
553.716685723
 20
109.9310263853
 11
547.6287271718
 21
126.6575550353
  0
LINE
  5
26B
100
AcDbEntity
  8
0
100
AcDbLine
 62
7
  6
CONTINUOUS
 10
527.3740000705
 20
282.2762797118
 11
527.3740000705
 21
207.2762797118
  0
LINE
  5
26C
100
AcDbEntity
  8
0
100
AcDbLine
 62
7
  6
CONTINUOUS
 10
510.9807149611
 20
113.3187694456
 11
513.4625197527
 21
122.5809910222
  0
LINE
  5
26D
100
AcDbEntity
  8
0
100
AcDbLine
 62
7
  6
CONTINUOUS
 10
527.4231169349
 20
115.6554628037
 11
533.53111897
 21
117.8785937353
  0
LINE
  5
26E
100
AcDbEntity
  8
0
100
AcDbLine
 62
7
  6
CONTINUOUS
 10
553.3740000705
 20
282.2762797118
 11
553.3740000705
 21
207.2762797118
  0
LINE
  5
26F
100
AcDbEntity
  8
0
100
AcDbLine
 62
7
  6
CONTINUOUS
 10
528.7919878389
 20
91.86687608
 11
547.7735118185
 21
98.7755858096
  0
LINE
  5
270
100
AcDbEntity
  8
0
100
AcDbLine
 62
7
  6
CONTINUOUS
 10
540.3958458191
 20
85.7146017058
 11
542.8390466332
 21
86.6038540785
  0
LINE
  5
271
100
AcDbEntity
  8
RUNDUNGEN
100
AcDbLine
 62
7
  6
CONTINUOUS
 10
87.9681860475
 20
79.4928865073
 11
91.4681860475
 21
79.4928865073
  0
LINE
  5
272
100
AcDbEntity
  8
RUNDUNGEN
100
AcDbLine
 62
7
  6
CONTINUOUS
 10
160.4681860475
 20
79.4928865073
 11
163.9681860475
 21
79.4928865073
  0
LINE
  5
273
100
AcDbEntity
  8
0
100
AcDbLine
 62
7
  6
CONTINUOUS
 10
94.9681860475
 20
84.6170074041
 11
99.9353840362
 21
84.6170074041
  0
LINE
  5
274
100
AcDbEntity
  8
0
100
AcDbLine
 62
7
  6
CONTINUOUS
 10
152.0009880588
 20
84.6170074041
 11
156.9681860475
 21
84.6170074041
  0
LINE
  5
275
100
AcDbEntity
  8
RUNDUNGEN
100
AcDbLine
 62
7
  6
CONTINUOUS
 10
101.8605945738
 20
85.8321604334
 11
106.8236018357
 21
85.8321604334
  0
LINE
  5
276
100
AcDbEntity
  8
RUNDUNGEN
100
AcDbLine
 62
7
  6
CONTINUOUS
 10
145.1127702593
 20
85.8321604334
 11
150.0757775212
 21
85.8321604334
  0
LINE
  5
277
100
AcDbEntity
  8
BEZUGSACHSEN
100
AcDbLine
 62
7
  6
CONTINUOUS
 10
118.5681860475
 20
97.093649977
 11
133.3681860475
 21
97.093649977
  0
LINE
  5
278
100
AcDbEntity
  8
BEZUGSACHSEN
100
AcDbLine
 62
7
  6
CONTINUOUS
 10
118.5681860475
 20
104.9895348328
 11
133.3681860475
 21
104.9895348328
  0
LINE
  5
279
100
AcDbEntity
  8
0
100
AcDbLine
 62
7
  6
CONTINUOUS
 10
152.011316673
 20
84.6170074995
 11
152.0108586739
 21
84.6171826763
  0
LINE
  5
27A
100
AcDbEntity
  8
BEZUGSACHSEN
100
AcDbLine
 62
7
  6
CONTINUOUS
 10
118.5681860475
 20
113.088491443
 11
133.3681860475
 21
113.088491443
  0
LINE
  5
27B
100
AcDbEntity
  8
BEZUGSACHSEN
100
AcDbLine
 62
7
  6
CONTINUOUS
 10
118.5681860475
 20
115.443649977
 11
133.3681860475
 21
115.443649977
  0
LINE
  5
27C
100
AcDbEntity
  8
RUNDUNGEN
100
AcDbLine
 62
7
  6
CONTINUOUS
 10
71.1116915141
 20
128.4540949521
 11
74.581828954
 21
126.3596538431
  0
LINE
  5
27D
100
AcDbEntity
  8
RUNDUNGEN
100
AcDbLine
 62
7
  6
CONTINUOUS
 10
83.9311248665
 20
120.7167794503
 11
88.5404947636
 21
117.9347415725
  0
LINE
  5
27E
100
AcDbEntity
  8
RUNDUNGEN
100
AcDbLine
 62
7
  6
CONTINUOUS
 10
132.5214024018
 20
91.3895621484
 11
139.7882819714
 21
87.0035539374
  0
LINE
  5
27F
100
AcDbEntity
  8
0
100
AcDbLine
 62
7
  6
CONTINUOUS
 10
124.5271197756
 20
117.6975773686
 11
125.9681860475
 21
117.6975773686
  0
LINE
  5
280
100
AcDbEntity
  8
0
100
AcDbLine
 62
7
  6
CONTINUOUS
 10
124.5271197756
 20
118.2866774302
 11
125.1634004764
 21
118.2866774302
  0
LINE
  5
281
100
AcDbEntity
  8
0
100
AcDbLine
 62
7
  6
CONTINUOUS
 10
118.9311506237
 20
119.7653498684
 11
121.7022796836
 21
119.7653498684
  0
LINE
  5
282
100
AcDbEntity
  8
0
100
AcDbLine
 62
7
  6
CONTINUOUS
 10
122.2222796836
 20
120.2927774591
 11
119.0903998574
 21
120.2927774591
  0
LINE
  5
283
100
AcDbEntity
  8
0
100
AcDbLine
 62
7
  6
CONTINUOUS
 10
119.5764465761
 20
121.482969139
 11
122.2222796836
 21
121.482969139
  0
LINE
  5
284
100
AcDbEntity
  8
0
100
AcDbLine
 62
7
  6
CONTINUOUS
 10
127.9422796836
 20
121.9829265427
 11
126.6942796836
 21
121.9829265427
  0
LINE
  5
285
100
AcDbEntity
  8
0
100
AcDbLine
 62
7
  6
CONTINUOUS
 10
122.2222796836
 20
121.9829265427
 11
119.8399298417
 21
121.9829265427
  0
LINE
  5
286
100
AcDbEntity
  8
RUNDUNGEN
100
AcDbLine
 62
7
  6
CONTINUOUS
 10
87.5947558387
 20
126.2420838777
 11
86.1655228881
 21
127.1047137585
  0
LINE
  5
287
100
AcDbEntity
  8
0
100
AcDbLine
 62
7
  6
CONTINUOUS
 10
153.8810480778
 20
134.3924368292
 11
154.4220639783
 21
134.5163962774
  0
LINE
  5
288
100
AcDbEntity
  8
0
100
AcDbLine
 62
7
  6
CONTINUOUS
 10
145.7658010565
 20
135.0891429057
 11
145.2247851559
 21
134.9651834683
  0
LINE
  5
289
100
AcDbEntity
  8
0
100
AcDbLine
 62
7
  6
CONTINUOUS
 10
145.7658010565
 20
135.2601529773
 11
145.2247851559
 21
135.13619354
  0
LINE
  5
28A
100
AcDbEntity
  8
0
100
AcDbLine
 62
7
  6
CONTINUOUS
 10
154.4220639783
 20
134.9651834683
 11
153.7457929418
 21
134.841224031
  0
LINE
  5
28B
100
AcDbEntity
  8
0
100
AcDbLine
 62
7
  6
CONTINUOUS
 10
154.4220639783
 20
135.13619354
 11
153.7457929418
 21
135.0122341027
  0
LINE
  5
28C
100
AcDbEntity
  8
0
100
AcDbLine
 62
7
  6
CONTINUOUS
 10
145.2247851559
 20
134.3924368292
 11
145.9010554186
 21
134.5163962774
  0
LINE
  5
28D
100
AcDbEntity
  8
RUNDUNGEN
100
AcDbLine
 62
7
  6
CONTINUOUS
 10
94.9681860475
 20
126.6575550353
 11
118.5681860475
 21
126.6575550353
  0
LINE
  5
28E
100
AcDbEntity
  8
RUNDUNGEN
100
AcDbLine
 62
7
  6
CONTINUOUS
 10
133.3681860475
 20
126.6575550353
 11
156.9681860475
 21
126.6575550353
  0
LINE
  5
28F
100
AcDbEntity
  8
RUNDUNGEN
100
AcDbLine
 62
7
  6
CONTINUOUS
 10
156.9681860475
 20
132.1575550353
 11
131.7208120809
 21
132.1575550353
  0
LINE
  5
290
100
AcDbEntity
  8
RUNDUNGEN
100
AcDbLine
 62
7
  6
CONTINUOUS
 10
120.2155600141
 20
132.1575550353
 11
94.9681860475
 21
132.1575550353
  0
LINE
  5
291
100
AcDbEntity
  8
0
100
AcDbLine
 62
7
  6
CONTINUOUS
 10
98.3917227777
 20
134.3924368292
 11
99.1667227777
 21
134.3924368292
  0
LINE
  5
292
100
AcDbEntity
  8
0
100
AcDbLine
 62
7
  6
CONTINUOUS
 10
102.3958893212
 20
134.3924368292
 11
103.3000562342
 21
134.3924368292
  0
LINE
  5
293
100
AcDbEntity
  8
0
100
AcDbLine
 62
7
  6
CONTINUOUS
 10
106.4000558647
 20
134.3924368292
 11
106.9167227777
 21
134.3924368292
  0
LINE
  5
294
100
AcDbEntity
  8
0
100
AcDbLine
 62
7
  6
CONTINUOUS
 10
110.0167227777
 20
134.3924368292
 11
113.1167227777
 21
134.3924368292
  0
LINE
  5
295
100
AcDbEntity
  8
0
100
AcDbLine
 62
7
  6
CONTINUOUS
 10
133.7281860475
 20
134.3924368292
 11
134.5397106722
 21
134.3924368292
  0
LINE
  5
296
100
AcDbEntity
  8
0
100
AcDbLine
 62
7
  6
CONTINUOUS
 10
135.6217434407
 20
134.3924368292
 11
136.4332680655
 21
134.3924368292
  0
LINE
  5
297
100
AcDbEntity
  8
0
100
AcDbLine
 62
7
  6
CONTINUOUS
 10
139.814620733
 20
134.3924368292
 11
140.7613997199
 21
134.3924368292
  0
LINE
  5
298
100
AcDbEntity
  8
0
100
AcDbLine
 62
7
  6
CONTINUOUS
 10
144.0074982188
 20
134.3924368292
 11
145.2247851559
 21
134.3924368292
  0
LINE
  5
299
100
AcDbEntity
  8
0
100
AcDbLine
 62
7
  6
CONTINUOUS
 10
149.0119003294
 20
134.3924368292
 11
149.8234249541
 21
134.3924368292
  0
LINE
  5
29A
100
AcDbEntity
  8
0
100
AcDbLine
 62
7
  6
CONTINUOUS
 10
152.7990147289
 20
134.3924368292
 11
153.8810480778
 21
134.3924368292
  0
LINE
  5
29B
100
AcDbEntity
  8
0
100
AcDbLine
 62
7
  6
CONTINUOUS
 10
153.7457929418
 20
134.841224031
 11
152.934268317
 21
134.841224031
  0
LINE
  5
29C
100
AcDbEntity
  8
0
100
AcDbLine
 62
7
  6
CONTINUOUS
 10
145.2247851559
 20
134.9651834683
 11
144.0074982188
 21
134.9651834683
  0
LINE
  5
29D
100
AcDbEntity
  8
0
100
AcDbLine
 62
7
  6
CONTINUOUS
 10
113.1167227777
 20
134.9651834683
 11
110.7917227777
 21
134.9651834683
  0
LINE
  5
29E
100
AcDbEntity
  8
0
100
AcDbLine
 62
7
  6
CONTINUOUS
 10
106.9167227777
 20
134.9651834683
 11
106.4000558647
 21
134.9651834683
  0
LINE
  5
29F
100
AcDbEntity
  8
0
100
AcDbLine
 62
7
  6
CONTINUOUS
 10
153.7457929418
 20
135.0122341027
 11
152.934268317
 21
135.0122341027
  0
LINE
  5
2A0
100
AcDbEntity
  8
0
100
AcDbLine
 62
7
  6
CONTINUOUS
 10
145.2247851559
 20
135.13619354
 11
144.0074982188
 21
135.13619354
  0
LINE
  5
2A1
100
AcDbEntity
  8
0
100
AcDbLine
 62
7
  6
CONTINUOUS
 10
113.1167227777
 20
135.13619354
 11
110.7917227777
 21
135.13619354
  0
LINE
  5
2A2
100
AcDbEntity
  8
0
100
AcDbLine
 62
7
  6
CONTINUOUS
 10
106.9167227777
 20
135.13619354
 11
106.4000558647
 21
135.13619354
  0
LINE
  5
2A3
100
AcDbEntity
  8
0
100
AcDbLine
 62
7
  6
CONTINUOUS
 10
105.7542227777
 20
134.5163962774
 11
106.4000558647
 21
134.3924368292
  0
LINE
  5
2A4
100
AcDbEntity
  8
0
100
AcDbLine
 62
7
  6
CONTINUOUS
 10
106.4000558647
 20
134.9651834683
 11
105.8833896907
 21
135.0891429057
  0
LINE
  5
2A5
100
AcDbEntity
  8
0
100
AcDbLine
 62
7
  6
CONTINUOUS
 10
106.4000558647
 20
135.13619354
 11
105.8833896907
 21
135.2601529773
  0
LINE
  5
2A6
100
AcDbEntity
  8
0
100
AcDbLine
 62
7
  6
CONTINUOUS
 10
101.6208893212
 20
139.5987338915
 11
102.0083893212
 21
139.4747744541
  0
LINE
  5
2A7
100
AcDbEntity
  8
0
100
AcDbLine
 62
7
  6
CONTINUOUS
 10
105.2375558647
 20
134.7643151846
 11
105.7542227777
 21
134.5163962774
  0
LINE
  5
2A8
100
AcDbEntity
  8
RUNDUNGEN
100
AcDbLine
 62
7
  6
CONTINUOUS
 10
168.8830983132
 20
88.6001688446
 11
162.9681860475
 21
92.1701817389
  0
LINE
  5
2A9
100
AcDbEntity
  8
RUNDUNGEN
100
AcDbLine
 62
7
  6
CONTINUOUS
 10
168.8830983132
 20
93.1317077798
 11
162.9681860475
 21
96.7017206741
  0
LINE
  5
2AA
100
AcDbEntity
  8
0
100
AcDbLine
 62
7
  6
CONTINUOUS
 10
121.7022796836
 20
119.7653498684
 11
124.5271197756
 21
117.6975773686
  0
LINE
  5
2AB
100
AcDbEntity
  8
0
100
AcDbLine
 62
7
  6
CONTINUOUS
 10
121.7865321187
 20
120.2927774591
 11
124.5271197756
 21
118.2866774302
  0
LINE
  5
2AC
100
AcDbEntity
  8
0
100
AcDbLine
 62
7
  6
CONTINUOUS
 10
125.9681860475
 20
117.6975773686
 11
123.0310727583
 21
119.8475334335
  0
LINE
  5
2AD
100
AcDbEntity
  8
0
100
AcDbLine
 62
7
  6
CONTINUOUS
 10
113.6333889516
 20
135.0891429057
 11
113.1167227777
 21
134.9651834683
  0
LINE
  5
2AE
100
AcDbEntity
  8
0
100
AcDbLine
 62
7
  6
CONTINUOUS
 10
113.6333889516
 20
135.2601529773
 11
113.1167227777
 21
135.13619354
  0
LINE
  5
2AF
100
AcDbEntity
  8
0
100
AcDbLine
 62
7
  6
CONTINUOUS
 10
107.4333896907
 20
135.0891429057
 11
106.9167227777
 21
134.9651834683
  0
LINE
  5
2B0
100
AcDbEntity
  8
0
100
AcDbLine
 62
7
  6
CONTINUOUS
 10
107.4333896907
 20
135.2601529773
 11
106.9167227777
 21
135.13619354
  0
LINE
  5
2B1
100
AcDbEntity
  8
0
100
AcDbLine
 62
7
  6
CONTINUOUS
 10
143.4664815444
 20
139.3508150168
 11
144.0074982188
 21
139.4747744541
  0
LINE
  5
2B2
100
AcDbEntity
  8
0
100
AcDbLine
 62
7
  6
CONTINUOUS
 10
113.1167227777
 20
134.3924368292
 11
113.7625566038
 21
134.5163962774
  0
LINE
  5
2B3
100
AcDbEntity
  8
0
100
AcDbLine
 62
7
  6
CONTINUOUS
 10
106.9167227777
 20
134.3924368292
 11
107.5625558647
 21
134.5163962774
  0
LINE
  5
2B4
100
AcDbEntity
  8
0
100
AcDbLine
 62
7
  6
CONTINUOUS
 10
152.3932524165
 20
139.4747744541
 11
153.0695234531
 21
139.5987338915
  0
LINE
  5
2B5
100
AcDbEntity
  8
0
100
AcDbLine
 62
7
  6
CONTINUOUS
 10
144.0074982188
 20
140.0475210064
 11
143.3312271823
 21
139.9235615691
  0
LINE
  5
2B6
100
AcDbEntity
  8
0
100
AcDbLine
 62
7
  6
CONTINUOUS
 10
144.0074982188
 20
140.2185310781
 11
143.3312271823
 21
140.0945716408
  0
LINE
  5
2B7
100
AcDbEntity
  8
0
100
AcDbLine
 62
7
  6
CONTINUOUS
 10
153.2047770412
 20
140.0475210064
 11
152.2579988283
 21
139.9235615691
  0
LINE
  5
2B8
100
AcDbEntity
  8
0
100
AcDbLine
 62
7
  6
CONTINUOUS
 10
153.2047770412
 20
140.2185310781
 11
152.2579988283
 21
140.0945716408
  0
LINE
  5
2B9
100
AcDbEntity
  8
0
100
AcDbLine
 62
7
  6
CONTINUOUS
 10
151.5817277918
 20
135.5849807418
 11
150.9676544805
 21
135.5849807418
  0
LINE
  5
2BA
100
AcDbEntity
  8
0
100
AcDbLine
 62
7
  6
CONTINUOUS
 10
151.5817277918
 20
135.7559908135
 11
150.9054567552
 21
135.7559908135
  0
LINE
  5
2BB
100
AcDbEntity
  8
0
100
AcDbLine
 62
7
  6
CONTINUOUS
 10
145.0895307938
 20
136.871625923
 11
146.306817731
 21
136.871625923
  0
LINE
  5
2BC
100
AcDbEntity
  8
0
100
AcDbLine
 62
7
  6
CONTINUOUS
 10
99.1667227777
 20
136.9955853604
 11
101.3625560495
 21
136.9955853604
  0
LINE
  5
2BD
100
AcDbEntity
  8
0
100
AcDbLine
 62
7
  6
CONTINUOUS
 10
136.4332680655
 20
136.9955853604
 11
138.7325877711
 21
136.9955853604
  0
LINE
  5
2BE
100
AcDbEntity
  8
0
100
AcDbLine
 62
7
  6
CONTINUOUS
 10
153.0695234531
 20
137.1195447977
 11
153.6105393536
 21
137.1195447977
  0
LINE
  5
2BF
100
AcDbEntity
  8
0
100
AcDbLine
 62
7
  6
CONTINUOUS
 10
153.6105393536
 20
137.4443724753
 11
153.0695234531
 21
137.4443724753
  0
LINE
  5
2C0
100
AcDbEntity
  8
0
100
AcDbLine
 62
7
  6
CONTINUOUS
 10
147.1183423557
 20
137.4443724753
 11
145.0895307938
 21
137.4443724753
  0
LINE
  5
2C1
100
AcDbEntity
  8
0
100
AcDbLine
 62
7
  6
CONTINUOUS
 10
139.0030961083
 20
137.5683319127
 11
136.4332680655
 21
137.5683319127
  0
LINE
  5
2C2
100
AcDbEntity
  8
0
100
AcDbLine
 62
7
  6
CONTINUOUS
 10
101.6208893212
 20
137.5683319127
 11
99.1667227777
 21
137.5683319127
  0
LINE
  5
2C3
100
AcDbEntity
  8
0
100
AcDbLine
 62
7
  6
CONTINUOUS
 10
153.6105393536
 20
137.615382547
 11
153.0695234531
 21
137.615382547
  0
LINE
  5
2C4
100
AcDbEntity
  8
0
100
AcDbLine
 62
7
  6
CONTINUOUS
 10
147.1183423557
 20
137.615382547
 11
145.0895307938
 21
137.615382547
  0
LINE
  5
2C5
100
AcDbEntity
  8
0
100
AcDbLine
 62
7
  6
CONTINUOUS
 10
139.0030961083
 20
137.7393419843
 11
136.4332680655
 21
137.7393419843
  0
LINE
  5
2C6
100
AcDbEntity
  8
0
100
AcDbLine
 62
7
  6
CONTINUOUS
 10
101.6208893212
 20
137.7393419843
 11
99.1667227777
 21
137.7393419843
  0
LINE
  5
2C7
100
AcDbEntity
  8
0
100
AcDbLine
 62
7
  6
CONTINUOUS
 10
146.306817731
 20
138.7310174829
 11
147.1183423557
 21
138.7310174829
  0
LINE
  5
2C8
100
AcDbEntity
  8
0
100
AcDbLine
 62
7
  6
CONTINUOUS
 10
151.0407118912
 20
138.8549772675
 11
151.7169813799
 21
138.8549772675
  0
LINE
  5
2C9
100
AcDbEntity
  8
0
100
AcDbLine
 62
7
  6
CONTINUOUS
 10
110.7917227777
 20
139.4747744541
 11
113.1167227777
 21
139.4747744541
  0
LINE
  5
2CA
100
AcDbEntity
  8
0
100
AcDbLine
 62
7
  6
CONTINUOUS
 10
144.0074982188
 20
139.4747744541
 11
145.2247851559
 21
139.4747744541
  0
LINE
  5
2CB
100
AcDbEntity
  8
0
100
AcDbLine
 62
7
  6
CONTINUOUS
 10
99.1667227777
 20
139.5987338915
 11
101.6208893212
 21
139.5987338915
  0
LINE
  5
2CC
100
AcDbEntity
  8
0
100
AcDbLine
 62
7
  6
CONTINUOUS
 10
136.4332680655
 20
139.5987338915
 11
139.0030961083
 21
139.5987338915
  0
LINE
  5
2CD
100
AcDbEntity
  8
0
100
AcDbLine
 62
7
  6
CONTINUOUS
 10
153.0695234531
 20
139.5987338915
 11
153.6105393536
 21
139.5987338915
  0
LINE
  5
2CE
100
AcDbEntity
  8
0
100
AcDbLine
 62
7
  6
CONTINUOUS
 10
153.4752857654
 20
140.0475210064
 11
153.2047770412
 21
140.0475210064
  0
LINE
  5
2CF
100
AcDbEntity
  8
0
100
AcDbLine
 62
7
  6
CONTINUOUS
 10
149.8234249541
 20
140.0475210064
 11
149.0119003294
 21
140.0475210064
  0
LINE
  5
2D0
100
AcDbEntity
  8
0
100
AcDbLine
 62
7
  6
CONTINUOUS
 10
145.2247851559
 20
140.0475210064
 11
144.0074982188
 21
140.0475210064
  0
LINE
  5
2D1
100
AcDbEntity
  8
0
100
AcDbLine
 62
7
  6
CONTINUOUS
 10
138.8678421332
 20
140.0475210064
 11
135.6217434407
 21
140.0475210064
  0
LINE
  5
2D2
100
AcDbEntity
  8
0
100
AcDbLine
 62
7
  6
CONTINUOUS
 10
134.5397106722
 20
140.0475210064
 11
133.7281860475
 21
140.0475210064
  0
LINE
  5
2D3
100
AcDbEntity
  8
0
100
AcDbLine
 62
7
  6
CONTINUOUS
 10
113.1167227777
 20
140.0475210064
 11
110.0167227777
 21
140.0475210064
  0
LINE
  5
2D4
100
AcDbEntity
  8
0
100
AcDbLine
 62
7
  6
CONTINUOUS
 10
108.9833896907
 20
140.0475210064
 11
108.2083896907
 21
140.0475210064
  0
LINE
  5
2D5
100
AcDbEntity
  8
0
100
AcDbLine
 62
7
  6
CONTINUOUS
 10
105.1083896907
 20
140.0475210064
 11
104.3333893212
 21
140.0475210064
  0
LINE
  5
2D6
100
AcDbEntity
  8
0
100
AcDbLine
 62
7
  6
CONTINUOUS
 10
101.4917227777
 20
140.0475210064
 11
98.3917227777
 21
140.0475210064
  0
LINE
  5
2D7
100
AcDbEntity
  8
0
100
AcDbLine
 62
7
  6
CONTINUOUS
 10
153.4752857654
 20
140.2185310781
 11
153.2047770412
 21
140.2185310781
  0
LINE
  5
2D8
100
AcDbEntity
  8
0
100
AcDbLine
 62
7
  6
CONTINUOUS
 10
149.8234249541
 20
140.2185310781
 11
149.0119003294
 21
140.2185310781
  0
LINE
  5
2D9
100
AcDbEntity
  8
0
100
AcDbLine
 62
7
  6
CONTINUOUS
 10
145.2247851559
 20
140.2185310781
 11
144.0074982188
 21
140.2185310781
  0
LINE
  5
2DA
100
AcDbEntity
  8
0
100
AcDbLine
 62
7
  6
CONTINUOUS
 10
138.8678421332
 20
140.2185310781
 11
135.6217434407
 21
140.2185310781
  0
LINE
  5
2DB
100
AcDbEntity
  8
0
100
AcDbLine
 62
7
  6
CONTINUOUS
 10
134.5397106722
 20
140.2185310781
 11
133.7281860475
 21
140.2185310781
  0
LINE
  5
2DC
100
AcDbEntity
  8
0
100
AcDbLine
 62
7
  6
CONTINUOUS
 10
113.1167227777
 20
140.2185310781
 11
110.0167227777
 21
140.2185310781
  0
LINE
  5
2DD
100
AcDbEntity
  8
0
100
AcDbLine
 62
7
  6
CONTINUOUS
 10
108.9833896907
 20
140.2185310781
 11
108.2083896907
 21
140.2185310781
  0
LINE
  5
2DE
100
AcDbEntity
  8
0
100
AcDbLine
 62
7
  6
CONTINUOUS
 10
105.1083896907
 20
140.2185310781
 11
104.3333893212
 21
140.2185310781
  0
LINE
  5
2DF
100
AcDbEntity
  8
0
100
AcDbLine
 62
7
  6
CONTINUOUS
 10
101.4917227777
 20
140.2185310781
 11
98.3917227777
 21
140.2185310781
  0
LINE
  5
2E0
100
AcDbEntity
  8
0
100
AcDbLine
 62
7
  6
CONTINUOUS
 10
154.4220639783
 20
139.9235615691
 11
153.4752857654
 21
140.0475210064
  0
LINE
  5
2E1
100
AcDbEntity
  8
0
100
AcDbLine
 62
7
  6
CONTINUOUS
 10
154.4220639783
 20
140.0945716408
 11
153.4752857654
 21
140.2185310781
  0
LINE
  5
2E2
100
AcDbEntity
  8
0
100
AcDbLine
 62
7
  6
CONTINUOUS
 10
153.6105393536
 20
137.1195447977
 11
154.4220639783
 21
136.9955853604
  0
LINE
  5
2E3
100
AcDbEntity
  8
0
100
AcDbLine
 62
7
  6
CONTINUOUS
 10
143.3312271823
 20
134.5163962774
 11
144.0074982188
 21
134.3924368292
  0
LINE
  5
2E4
100
AcDbEntity
  8
0
100
AcDbLine
 62
7
  6
CONTINUOUS
 10
152.934268317
 20
134.841224031
 11
152.2579988283
 21
134.9651834683
  0
LINE
  5
2E5
100
AcDbEntity
  8
0
100
AcDbLine
 62
7
  6
CONTINUOUS
 10
152.934268317
 20
135.0122341027
 11
152.2579988283
 21
135.13619354
  0
LINE
  5
2E6
100
AcDbEntity
  8
0
100
AcDbLine
 62
7
  6
CONTINUOUS
 10
139.5441123958
 20
139.9235615691
 11
138.8678421332
 21
140.0475210064
  0
LINE
  5
2E7
100
AcDbEntity
  8
0
100
AcDbLine
 62
7
  6
CONTINUOUS
 10
139.5441123958
 20
140.0945716408
 11
138.8678421332
 21
140.2185310781
  0
LINE
  5
2E8
100
AcDbEntity
  8
0
100
AcDbLine
 62
7
  6
CONTINUOUS
 10
145.9010554186
 20
139.9235615691
 11
145.2247851559
 21
140.0475210064
  0
LINE
  5
2E9
100
AcDbEntity
  8
0
100
AcDbLine
 62
7
  6
CONTINUOUS
 10
145.9010554186
 20
140.0945716408
 11
145.2247851559
 21
140.2185310781
  0
LINE
  5
2EA
100
AcDbEntity
  8
0
100
AcDbLine
 62
7
  6
CONTINUOUS
 10
102.1375562342
 20
139.9235615691
 11
101.4917227777
 21
140.0475210064
  0
LINE
  5
2EB
100
AcDbEntity
  8
0
100
AcDbLine
 62
7
  6
CONTINUOUS
 10
102.1375562342
 20
140.0945716408
 11
101.4917227777
 21
140.2185310781
  0
LINE
  5
2EC
100
AcDbEntity
  8
0
100
AcDbLine
 62
7
  6
CONTINUOUS
 10
113.7625566038
 20
139.9235615691
 11
113.1167227777
 21
140.0475210064
  0
LINE
  5
2ED
100
AcDbEntity
  8
0
100
AcDbLine
 62
7
  6
CONTINUOUS
 10
113.7625566038
 20
140.0945716408
 11
113.1167227777
 21
140.2185310781
  0
LINE
  5
2EE
100
AcDbEntity
  8
0
100
AcDbLine
 62
7
  6
CONTINUOUS
 10
144.0074982188
 20
134.9651834683
 11
143.4664815444
 21
135.0891429057
  0
LINE
  5
2EF
100
AcDbEntity
  8
0
100
AcDbLine
 62
7
  6
CONTINUOUS
 10
144.0074982188
 20
135.13619354
 11
143.4664815444
 21
135.2601529773
  0
LINE
  5
2F0
100
AcDbEntity
  8
0
100
AcDbLine
 62
7
  6
CONTINUOUS
 10
152.2579988283
 20
134.5163962774
 11
152.7990147289
 21
134.3924368292
  0
LINE
  5
2F1
100
AcDbEntity
  8
0
100
AcDbLine
 62
7
  6
CONTINUOUS
 10
113.1167227777
 20
139.4747744541
 11
113.6333889516
 21
139.3508150168
  0
LINE
  5
2F2
100
AcDbEntity
  8
0
100
AcDbLine
 62
7
  6
CONTINUOUS
 10
114.2792227777
 20
139.6756426945
 11
113.7625566038
 21
139.9235615691
  0
LINE
  5
2F3
100
AcDbEntity
  8
0
100
AcDbLine
 62
7
  6
CONTINUOUS
 10
114.2792227777
 20
139.8466527661
 11
113.7625566038
 21
140.0945716408
  0
LINE
  5
2F4
100
AcDbEntity
  8
0
100
AcDbLine
 62
7
  6
CONTINUOUS
 10
105.8833896907
 20
135.0891429057
 11
105.4958896907
 21
135.3370618671
  0
LINE
  5
2F5
100
AcDbEntity
  8
0
100
AcDbLine
 62
7
  6
CONTINUOUS
 10
105.8833896907
 20
135.2601529773
 11
105.4958896907
 21
135.5080719388
  0
LINE
  5
2F6
100
AcDbEntity
  8
0
100
AcDbLine
 62
7
  6
CONTINUOUS
 10
113.6333889516
 20
139.3508150168
 11
114.0208889516
 21
139.1028961422
  0
LINE
  5
2F7
100
AcDbEntity
  8
0
100
AcDbLine
 62
7
  6
CONTINUOUS
 10
102.6542227777
 20
139.5516832571
 11
102.1375562342
 21
139.9235615691
  0
LINE
  5
2F8
100
AcDbEntity
  8
0
100
AcDbLine
 62
7
  6
CONTINUOUS
 10
102.6542227777
 20
139.7226933288
 11
102.1375562342
 21
140.0945716408
  0
LINE
  5
2F9
100
AcDbEntity
  8
0
100
AcDbLine
 62
7
  6
CONTINUOUS
 10
104.7208896907
 20
135.2601529773
 11
105.2375558647
 21
134.7643151846
  0
LINE
  5
2FA
100
AcDbEntity
  8
0
100
AcDbLine
 62
7
  6
CONTINUOUS
 10
102.0083893212
 20
139.4747744541
 11
102.2667227777
 21
139.2268555795
  0
LINE
  5
2FB
100
AcDbEntity
  8
RUNDUNGEN
100
AcDbLine
 62
7
  6
CONTINUOUS
 10
70.0266037798
 20
129.9085182112
 11
70.0266037798
 21
134.4400571463
  0
LINE
  5
2FC
100
AcDbEntity
  8
RUNDUNGEN
100
AcDbLine
 62
7
  6
CONTINUOUS
 10
96.9681860475
 20
146.1086368716
 11
154.9681860475
 21
146.1086368716
  0
LINE
  5
2FD
100
AcDbEntity
  8
0
100
AcDbLine
 62
7
  6
CONTINUOUS
 10
153.6105393536
 20
139.5987338915
 11
154.2868103902
 21
139.4747744541
  0
LINE
  5
2FE
100
AcDbEntity
  8
0
100
AcDbLine
 62
7
  6
CONTINUOUS
 10
145.2247851559
 20
139.4747744541
 11
145.7658010565
 21
139.3508150168
  0
LINE
  5
2FF
100
AcDbEntity
  8
RUNDUNGEN
100
AcDbLine
 62
7
  6
CONTINUOUS
 10
182.6278351104
 20
131.0160343835
 11
175.7469579384
 21
133.0522269461
  0
LINE
  5
300
100
AcDbEntity
  8
0
100
AcDbLine
 62
7
  6
CONTINUOUS
 10
139.0030961083
 20
139.5987338915
 11
139.4088584207
 21
139.4747744541
  0
LINE
  5
301
100
AcDbEntity
  8
0
100
AcDbLine
 62
7
  6
CONTINUOUS
 10
155.3688421913
 20
136.948534726
 11
154.6925727025
 21
137.1964536007
  0
LINE
  5
302
100
AcDbEntity
  8
0
100
AcDbLine
 62
7
  6
CONTINUOUS
 10
155.3688421913
 20
137.1195447977
 11
154.6925727025
 21
137.3674636723
  0
LINE
  5
303
100
AcDbEntity
  8
0
100
AcDbLine
 62
7
  6
CONTINUOUS
 10
142.7902112817
 20
134.7643151846
 11
143.3312271823
 21
134.5163962774
  0
LINE
  5
304
100
AcDbEntity
  8
0
100
AcDbLine
 62
7
  6
CONTINUOUS
 10
151.7169813799
 20
134.7643151846
 11
152.2579988283
 21
134.5163962774
  0
LINE
  5
305
100
AcDbEntity
  8
0
100
AcDbLine
 62
7
  6
CONTINUOUS
 10
152.2579988283
 20
134.9651834683
 11
151.9874901041
 21
135.0891429057
  0
LINE
  5
306
100
AcDbEntity
  8
0
100
AcDbLine
 62
7
  6
CONTINUOUS
 10
152.2579988283
 20
135.13619354
 11
151.9874901041
 21
135.2601529773
  0
LINE
  5
307
100
AcDbEntity
  8
0
100
AcDbLine
 62
7
  6
CONTINUOUS
 10
146.4420720931
 20
139.6756426945
 11
145.9010554186
 21
139.9235615691
  0
LINE
  5
308
100
AcDbEntity
  8
0
100
AcDbLine
 62
7
  6
CONTINUOUS
 10
146.4420720931
 20
139.8466527661
 11
145.9010554186
 21
140.0945716408
  0
LINE
  5
309
100
AcDbEntity
  8
0
100
AcDbLine
 62
7
  6
CONTINUOUS
 10
114.7958889516
 20
139.1798049452
 11
114.2792227777
 21
139.6756426945
  0
LINE
  5
30A
100
AcDbEntity
  8
0
100
AcDbLine
 62
7
  6
CONTINUOUS
 10
114.7958889516
 20
139.3508150168
 11
114.2792227777
 21
139.8466527661
  0
LINE
  5
30B
100
AcDbEntity
  8
0
100
AcDbLine
 62
7
  6
CONTINUOUS
 10
103.0417227777
 20
139.0558455078
 11
102.6542227777
 21
139.5516832571
  0
LINE
  5
30C
100
AcDbEntity
  8
0
100
AcDbLine
 62
7
  6
CONTINUOUS
 10
103.0417227777
 20
139.2268555795
 11
102.6542227777
 21
139.7226933288
  0
LINE
  5
30D
100
AcDbEntity
  8
0
100
AcDbLine
 62
7
  6
CONTINUOUS
 10
105.4958896907
 20
135.3370618671
 11
105.2375558647
 21
135.7089401791
  0
LINE
  5
30E
100
AcDbEntity
  8
0
100
AcDbLine
 62
7
  6
CONTINUOUS
 10
105.4958896907
 20
135.5080719388
 11
105.2375558647
 21
135.8799502508
  0
LINE
  5
30F
100
AcDbEntity
  8
0
100
AcDbLine
 62
7
  6
CONTINUOUS
 10
83.6574089377
 20
154.7217135297
 11
87.5947558387
 21
141.1083687089
  0
LINE
  5
310
100
AcDbEntity
  8
0
100
AcDbLine
 62
7
  6
CONTINUOUS
 10
83.6574089377
 20
152.0469633946
 11
87.5947558387
 21
138.0439097872
  0
LINE
  5
311
100
AcDbEntity
  8
RUNDUNGEN
100
AcDbLine
 62
7
  6
CONTINUOUS
 10
182.6278351104
 20
135.5475733187
 11
175.7469579384
 21
137.5837658813
  0
LINE
  5
312
100
AcDbEntity
  8
0
100
AcDbLine
 62
7
  6
CONTINUOUS
 10
154.9630798789
 20
139.6756426945
 11
154.4220639783
 21
139.9235615691
  0
LINE
  5
313
100
AcDbEntity
  8
0
100
AcDbLine
 62
7
  6
CONTINUOUS
 10
154.9630798789
 20
139.8466527661
 11
154.4220639783
 21
140.0945716408
  0
LINE
  5
314
100
AcDbEntity
  8
0
100
AcDbLine
 62
7
  6
CONTINUOUS
 10
143.4664815444
 20
135.0891429057
 11
143.060719232
 21
135.3370618671
  0
LINE
  5
315
100
AcDbEntity
  8
0
100
AcDbLine
 62
7
  6
CONTINUOUS
 10
143.4664815444
 20
135.2601529773
 11
143.060719232
 21
135.5080719388
  0
LINE
  5
316
100
AcDbEntity
  8
0
100
AcDbLine
 62
7
  6
CONTINUOUS
 10
151.3112190676
 20
135.0122341027
 11
151.7169813799
 21
134.7643151846
  0
LINE
  5
317
100
AcDbEntity
  8
0
100
AcDbLine
 62
7
  6
CONTINUOUS
 10
145.7658010565
 20
139.3508150168
 11
146.1715633689
 21
139.1028961422
  0
LINE
  5
318
100
AcDbEntity
  8
0
100
AcDbLine
 62
7
  6
CONTINUOUS
 10
154.4220639783
 20
136.9955853604
 11
154.8278262907
 21
136.7476664857
  0
LINE
  5
319
100
AcDbEntity
  8
0
100
AcDbLine
 62
7
  6
CONTINUOUS
 10
140.0851290703
 20
139.5516832571
 11
139.5441123958
 21
139.9235615691
  0
LINE
  5
31A
100
AcDbEntity
  8
0
100
AcDbLine
 62
7
  6
CONTINUOUS
 10
140.0851290703
 20
139.7226933288
 11
139.5441123958
 21
140.0945716408
  0
LINE
  5
31B
100
AcDbEntity
  8
0
100
AcDbLine
 62
7
  6
CONTINUOUS
 10
114.0208889516
 20
139.1028961422
 11
114.2792227777
 21
138.7310174829
  0
LINE
  5
31C
100
AcDbEntity
  8
0
100
AcDbLine
 62
7
  6
CONTINUOUS
 10
104.4625562342
 20
135.7559908135
 11
104.7208896907
 21
135.2601529773
  0
LINE
  5
31D
100
AcDbEntity
  8
0
100
AcDbLine
 62
7
  6
CONTINUOUS
 10
103.2303282412
 20
134.3924368292
 11
102.1375562342
 21
137.0724941633
  0
LINE
  5
31E
100
AcDbEntity
  8
0
100
AcDbLine
 62
7
  6
CONTINUOUS
 10
103.3000562342
 20
134.3924368292
 11
102.1375562342
 21
137.243504235
  0
LINE
  5
31F
100
AcDbEntity
  8
0
100
AcDbLine
 62
7
  6
CONTINUOUS
 10
101.3625560495
 20
136.9955853604
 11
102.3958893212
 21
134.3924368292
  0
LINE
  5
320
100
AcDbEntity
  8
0
100
AcDbLine
 62
7
  6
CONTINUOUS
 10
102.2667227777
 20
139.2268555795
 11
102.3958893212
 21
138.8549772675
  0
LINE
  5
321
100
AcDbEntity
  8
0
100
AcDbLine
 62
7
  6
CONTINUOUS
 10
87.5947558387
 20
122.9748317805
 11
88.9681860475
 21
115.6554628037
  0
LINE
  5
322
100
AcDbEntity
  8
0
100
AcDbLine
 62
7
  6
CONTINUOUS
 10
87.5947558387
 20
125.1979627121
 11
88.9681860475
 21
117.8785937353
  0
LINE
  5
323
100
AcDbEntity
  8
0
100
AcDbLine
 62
7
  6
CONTINUOUS
 10
81.6583655259
 20
159.2554302031
 11
81.6583655259
 21
161.5344596654
  0
LINE
  5
324
100
AcDbEntity
  8
RUNDUNGEN
100
AcDbLine
 62
7
  6
CONTINUOUS
 10
81.9681860475
 20
82.0285960777
 11
81.9681860475
 21
91.6772845208
  0
LINE
  5
325
100
AcDbEntity
  8
RUNDUNGEN
100
AcDbLine
 62
7
  6
CONTINUOUS
 10
83.5784713529
 20
121.1894670094
 11
83.5784713529
 21
125.7210059446
  0
LINE
  5
326
100
AcDbEntity
  8
0
100
AcDbLine
 62
7
  6
CONTINUOUS
 10
87.5947558387
 20
122.9748317805
 11
87.5947558387
 21
141.1083687089
  0
LINE
  5
327
100
AcDbEntity
  8
0
100
AcDbLine
 62
7
  6
CONTINUOUS
 10
88.9681860475
 20
91.86687608
 11
88.9681860475
 21
98.7755858096
  0
LINE
  5
328
100
AcDbEntity
  8
RUNDUNGEN
100
AcDbLine
 62
7
  6
CONTINUOUS
 10
88.9681860475
 20
98.7755858096
 11
88.9681860475
 21
138.22925163
  0
LINE
  5
329
100
AcDbEntity
  8
0
100
AcDbLine
 62
7
  6
CONTINUOUS
 10
154.2868103902
 20
139.4747744541
 11
154.6925727025
 21
139.2268555795
  0
LINE
  5
32A
100
AcDbEntity
  8
0
100
AcDbLine
 62
7
  6
CONTINUOUS
 10
142.2491946073
 20
135.2601529773
 11
142.7902112817
 21
134.7643151846
  0
LINE
  5
32B
100
AcDbEntity
  8
0
100
AcDbLine
 62
7
  6
CONTINUOUS
 10
139.4088584207
 20
139.4747744541
 11
139.6793667579
 21
139.2268555795
  0
LINE
  5
32C
100
AcDbEntity
  8
0
100
AcDbLine
 62
7
  6
CONTINUOUS
 10
146.9830887675
 20
139.1798049452
 11
146.4420720931
 21
139.6756426945
  0
LINE
  5
32D
100
AcDbEntity
  8
0
100
AcDbLine
 62
7
  6
CONTINUOUS
 10
146.9830887675
 20
139.3508150168
 11
146.4420720931
 21
139.8466527661
  0
LINE
  5
32E
100
AcDbEntity
  8
0
100
AcDbLine
 62
7
  6
CONTINUOUS
 10
151.9874901041
 20
135.0891429057
 11
151.7169813799
 21
135.3370618671
  0
LINE
  5
32F
100
AcDbEntity
  8
0
100
AcDbLine
 62
7
  6
CONTINUOUS
 10
151.9874901041
 20
135.2601529773
 11
151.7169813799
 21
135.5080719388
  0
LINE
  5
330
100
AcDbEntity
  8
0
100
AcDbLine
 62
7
  6
CONTINUOUS
 10
115.0542227777
 20
138.6839671959
 11
114.7958889516
 21
139.1798049452
  0
LINE
  5
331
100
AcDbEntity
  8
0
100
AcDbLine
 62
7
  6
CONTINUOUS
 10
115.0542227777
 20
138.8549772675
 11
114.7958889516
 21
139.3508150168
  0
LINE
  5
332
100
AcDbEntity
  8
0
100
AcDbLine
 62
7
  6
CONTINUOUS
 10
103.1708893212
 20
138.6839671959
 11
103.0417227777
 21
139.0558455078
  0
LINE
  5
333
100
AcDbEntity
  8
0
100
AcDbLine
 62
7
  6
CONTINUOUS
 10
103.1708893212
 20
138.8549772675
 11
103.0417227777
 21
139.2268555795
  0
LINE
  5
334
100
AcDbEntity
  8
0
100
AcDbLine
 62
7
  6
CONTINUOUS
 10
105.2375558647
 20
135.7089401791
 11
105.1083896907
 21
136.2047779284
  0
LINE
  5
335
100
AcDbEntity
  8
0
100
AcDbLine
 62
7
  6
CONTINUOUS
 10
105.2375558647
 20
135.8799502508
 11
105.1083896907
 21
136.3757880001
  0
LINE
  5
336
100
AcDbEntity
  8
0
100
AcDbLine
 62
7
  6
CONTINUOUS
 10
104.3333893212
 20
136.3757880001
 11
104.4625562342
 21
135.7559908135
  0
LINE
  5
337
100
AcDbEntity
  8
RUNDUNGEN
100
AcDbLine
 62
7
  6
CONTINUOUS
 10
91.9681860475
 20
79.7041956381
 11
91.9681860475
 21
83.2964508629
  0
LINE
  5
338
100
AcDbEntity
  8
0
100
AcDbLine
 62
7
  6
CONTINUOUS
 10
94.9681860475
 20
85.7146017058
 11
94.9681860475
 21
86.6038540785
  0
LINE
  5
339
100
AcDbEntity
  8
0
100
AcDbLine
 62
7
  6
CONTINUOUS
 10
98.3917227777
 20
140.2185310781
 11
98.3917227777
 21
134.3924368292
  0
LINE
  5
33A
100
AcDbEntity
  8
0
100
AcDbLine
 62
7
  6
CONTINUOUS
 10
99.1667227777
 20
134.3924368292
 11
99.1667227777
 21
136.9955853604
  0
LINE
  5
33B
100
AcDbEntity
  8
0
100
AcDbLine
 62
7
  6
CONTINUOUS
 10
99.1667227777
 20
137.5683319127
 11
99.1667227777
 21
139.5987338915
  0
LINE
  5
33C
100
AcDbEntity
  8
0
100
AcDbLine
 62
7
  6
CONTINUOUS
 10
155.5040973273
 20
139.1798049452
 11
154.9630798789
 21
139.6756426945
  0
LINE
  5
33D
100
AcDbEntity
  8
0
100
AcDbLine
 62
7
  6
CONTINUOUS
 10
155.5040973273
 20
139.3508150168
 11
154.9630798789
 21
139.8466527661
  0
LINE
  5
33E
100
AcDbEntity
  8
0
100
AcDbLine
 62
7
  6
CONTINUOUS
 10
140.4908909957
 20
139.0558455078
 11
140.0851290703
 21
139.5516832571
  0
LINE
  5
33F
100
AcDbEntity
  8
0
100
AcDbLine
 62
7
  6
CONTINUOUS
 10
140.4908909957
 20
139.2268555795
 11
140.0851290703
 21
139.7226933288
  0
LINE
  5
340
100
AcDbEntity
  8
0
100
AcDbLine
 62
7
  6
CONTINUOUS
 10
143.060719232
 20
135.3370618671
 11
142.7902112817
 21
135.7089401791
  0
LINE
  5
341
100
AcDbEntity
  8
0
100
AcDbLine
 62
7
  6
CONTINUOUS
 10
143.060719232
 20
135.5080719388
 11
142.7902112817
 21
135.8799502508
  0
LINE
  5
342
100
AcDbEntity
  8
0
100
AcDbLine
 62
7
  6
CONTINUOUS
 10
114.2792227777
 20
138.7310174829
 11
114.4083889516
 21
138.2351797336
  0
LINE
  5
343
100
AcDbEntity
  8
0
100
AcDbLine
 62
7
  6
CONTINUOUS
 10
101.4917227777
 20
140.2185310781
 11
101.4917227777
 21
140.0475210064
  0
LINE
  5
344
100
AcDbEntity
  8
0
100
AcDbLine
 62
7
  6
CONTINUOUS
 10
101.6208893212
 20
137.7393419843
 11
101.6208893212
 21
137.5683319127
  0
LINE
  5
345
100
AcDbEntity
  8
0
100
AcDbLine
 62
7
  6
CONTINUOUS
 10
102.0083893212
 20
137.8633014216
 11
102.0083893212
 21
137.69229135
  0
LINE
  5
346
100
AcDbEntity
  8
0
100
AcDbLine
 62
7
  6
CONTINUOUS
 10
102.1375562342
 20
140.0945716408
 11
102.1375562342
 21
139.9235615691
  0
LINE
  5
347
100
AcDbEntity
  8
0
100
AcDbLine
 62
7
  6
CONTINUOUS
 10
102.1375562342
 20
137.243504235
 11
102.1375562342
 21
137.0724941633
  0
LINE
  5
348
100
AcDbEntity
  8
0
100
AcDbLine
 62
7
  6
CONTINUOUS
 10
102.2667227777
 20
138.1112202963
 11
102.2667227777
 21
137.9402102246
  0
LINE
  5
349
100
AcDbEntity
  8
0
100
AcDbLine
 62
7
  6
CONTINUOUS
 10
102.3958893212
 20
138.8549772675
 11
102.3958893212
 21
138.3120885366
  0
LINE
  5
34A
100
AcDbEntity
  8
0
100
AcDbLine
 62
7
  6
CONTINUOUS
 10
102.6542227777
 20
139.7226933288
 11
102.6542227777
 21
139.5516832571
  0
LINE
  5
34B
100
AcDbEntity
  8
0
100
AcDbLine
 62
7
  6
CONTINUOUS
 10
103.0417227777
 20
139.2268555795
 11
103.0417227777
 21
139.0558455078
  0
LINE
  5
34C
100
AcDbEntity
  8
0
100
AcDbLine
 62
7
  6
CONTINUOUS
 10
103.1708893212
 20
138.3591391709
 11
103.1708893212
 21
138.8549772675
  0
LINE
  5
34D
100
AcDbEntity
  8
0
100
AcDbLine
 62
7
  6
CONTINUOUS
 10
104.3333893212
 20
140.2185310781
 11
104.3333893212
 21
136.3757880001
  0
LINE
  5
34E
100
AcDbEntity
  8
KONSTRUKTIONSELEMENTE
100
AcDbLine
 62
7
  6
CONTINUOUS
 10
104.5280367943
 20
113.5018583443
 11
104.5280367943
 21
115.8510898963
  0
LINE
  5
34F
100
AcDbEntity
  8
0
100
AcDbLine
 62
7
  6
CONTINUOUS
 10
105.1083896907
 20
136.2047779284
 11
105.1083896907
 21
140.2185310781
  0
LINE
  5
350
100
AcDbEntity
  8
0
100
AcDbLine
 62
7
  6
CONTINUOUS
 10
105.2375558647
 20
135.8799502508
 11
105.2375558647
 21
135.7089401791
  0
LINE
  5
351
100
AcDbEntity
  8
0
100
AcDbLine
 62
7
  6
CONTINUOUS
 10
105.4958896907
 20
135.5080719388
 11
105.4958896907
 21
135.3370618671
  0
LINE
  5
352
100
AcDbEntity
  8
0
100
AcDbLine
 62
7
  6
CONTINUOUS
 10
105.8833896907
 20
135.2601529773
 11
105.8833896907
 21
135.0891429057
  0
LINE
  5
353
100
AcDbEntity
  8
0
100
AcDbLine
 62
7
  6
CONTINUOUS
 10
106.4000558647
 20
135.13619354
 11
106.4000558647
 21
134.9651834683
  0
LINE
  5
354
100
AcDbEntity
  8
0
100
AcDbLine
 62
7
  6
CONTINUOUS
 10
106.9167227777
 20
135.13619354
 11
106.9167227777
 21
134.9651834683
  0
LINE
  5
355
100
AcDbEntity
  8
0
100
AcDbLine
 62
7
  6
CONTINUOUS
 10
107.4333896907
 20
135.2601529773
 11
107.4333896907
 21
135.0891429057
  0
LINE
  5
356
100
AcDbEntity
  8
0
100
AcDbLine
 62
7
  6
CONTINUOUS
 10
107.8208896907
 20
135.5080719388
 11
107.8208896907
 21
135.3370618671
  0
LINE
  5
357
100
AcDbEntity
  8
0
100
AcDbLine
 62
7
  6
CONTINUOUS
 10
108.0792227777
 20
135.8799502508
 11
108.0792227777
 21
135.7089401791
  0
LINE
  5
358
100
AcDbEntity
  8
0
100
AcDbLine
 62
7
  6
CONTINUOUS
 10
108.2083896907
 20
140.2185310781
 11
108.2083896907
 21
136.2047779284
  0
LINE
  5
359
100
AcDbEntity
  8
0
100
AcDbLine
 62
7
  6
CONTINUOUS
 10
108.9833896907
 20
136.3757880001
 11
108.9833896907
 21
140.2185310781
  0
LINE
  5
35A
100
AcDbEntity
  8
0
100
AcDbLine
 62
7
  6
CONTINUOUS
 10
151.0407118912
 20
135.3841124147
 11
151.3112190676
 21
135.0122341027
  0
LINE
  5
35B
100
AcDbEntity
  8
0
100
AcDbLine
 62
7
  6
CONTINUOUS
 10
155.6393509155
 20
136.576656414
 11
155.3688421913
 21
136.948534726
  0
LINE
  5
35C
100
AcDbEntity
  8
0
100
AcDbLine
 62
7
  6
CONTINUOUS
 10
155.6393509155
 20
136.7476664857
 11
155.3688421913
 21
137.1195447977
  0
LINE
  5
35D
100
AcDbEntity
  8
0
100
AcDbLine
 62
7
  6
CONTINUOUS
 10
154.6925727025
 20
139.2268555795
 11
154.9630798789
 21
138.8549772675
  0
LINE
  5
35E
100
AcDbEntity
  8
0
100
AcDbLine
 62
7
  6
CONTINUOUS
 10
141.978686657
 20
135.7559908135
 11
142.2491946073
 21
135.2601529773
  0
LINE
  5
35F
100
AcDbEntity
  8
0
100
AcDbLine
 62
7
  6
CONTINUOUS
 10
115.1833889516
 20
138.064169662
 11
115.0542227777
 21
138.6839671959
  0
LINE
  5
360
100
AcDbEntity
  8
0
100
AcDbLine
 62
7
  6
CONTINUOUS
 10
115.1833889516
 20
138.2351797336
 11
115.0542227777
 21
138.8549772675
  0
LINE
  5
361
100
AcDbEntity
  8
0
100
AcDbLine
 62
7
  6
CONTINUOUS
 10
110.0167227777
 20
140.2185310781
 11
110.0167227777
 21
134.3924368292
  0
LINE
  5
362
100
AcDbEntity
  8
0
100
AcDbLine
 62
7
  6
CONTINUOUS
 10
110.7917227777
 20
134.9651834683
 11
110.7917227777
 21
139.4747744541
  0
LINE
  5
363
100
AcDbEntity
  8
0
100
AcDbLine
 62
7
  6
CONTINUOUS
 10
112.9681860475
 20
327.7178807881
 11
112.9681860475
 21
161.8346786356
  0
LINE
  5
364
100
AcDbEntity
  8
0
100
AcDbLine
 62
7
  6
CONTINUOUS
 10
113.1167227777
 20
140.2185310781
 11
113.1167227777
 21
140.0475210064
  0
LINE
  5
365
100
AcDbEntity
  8
0
100
AcDbLine
 62
7
  6
CONTINUOUS
 10
113.1167227777
 20
135.13619354
 11
113.1167227777
 21
134.9651834683
  0
LINE
  5
366
100
AcDbEntity
  8
0
100
AcDbLine
 62
7
  6
CONTINUOUS
 10
113.6333889516
 20
135.2601529773
 11
113.6333889516
 21
135.0891429057
  0
LINE
  5
367
100
AcDbEntity
  8
0
100
AcDbLine
 62
7
  6
CONTINUOUS
 10
113.7625566038
 20
140.0945716408
 11
113.7625566038
 21
139.9235615691
  0
LINE
  5
368
100
AcDbEntity
  8
0
100
AcDbLine
 62
7
  6
CONTINUOUS
 10
114.0208889516
 20
135.5080719388
 11
114.0208889516
 21
135.3370618671
  0
LINE
  5
369
100
AcDbEntity
  8
0
100
AcDbLine
 62
7
  6
CONTINUOUS
 10
114.2792227777
 20
139.8466527661
 11
114.2792227777
 21
139.6756426945
  0
LINE
  5
36A
100
AcDbEntity
  8
0
100
AcDbLine
 62
7
  6
CONTINUOUS
 10
114.2792227777
 20
135.8799502508
 11
114.2792227777
 21
135.7089401791
  0
LINE
  5
36B
100
AcDbEntity
  8
0
100
AcDbLine
 62
7
  6
CONTINUOUS
 10
114.4083889516
 20
138.2351797336
 11
114.4083889516
 21
136.2047779284
  0
LINE
  5
36C
100
AcDbEntity
  8
0
100
AcDbLine
 62
7
  6
CONTINUOUS
 10
114.7958889516
 20
139.3508150168
 11
114.7958889516
 21
139.1798049452
  0
LINE
  5
36D
100
AcDbEntity
  8
0
100
AcDbLine
 62
7
  6
CONTINUOUS
 10
115.0542227777
 20
138.8549772675
 11
115.0542227777
 21
138.6839671959
  0
LINE
  5
36E
100
AcDbEntity
  8
0
100
AcDbLine
 62
7
  6
CONTINUOUS
 10
115.1833889516
 20
136.3757880001
 11
115.1833889516
 21
138.2351797336
  0
LINE
  5
36F
100
AcDbEntity
  8
KONSTRUKTIONSELEMENTE
100
AcDbLine
 62
7
  6
CONTINUOUS
 10
117.9681860475
 20
146.1086368716
 11
117.9681860475
 21
148.1097230682
  0
LINE
  5
370
100
AcDbEntity
  8
0
100
AcDbLine
 62
7
  6
CONTINUOUS
 10
151.7169813799
 20
135.3370618671
 11
151.5817277918
 21
135.5849807418
  0
LINE
  5
371
100
AcDbEntity
  8
0
100
AcDbLine
 62
7
  6
CONTINUOUS
 10
151.7169813799
 20
135.5080719388
 11
151.5817277918
 21
135.7559908135
  0
LINE
  5
372
100
AcDbEntity
  8
0
100
AcDbLine
 62
7
  6
CONTINUOUS
 10
154.8278262907
 20
136.7476664857
 11
155.0983350149
 21
136.2518285628
  0
LINE
  5
373
100
AcDbEntity
  8
0
100
AcDbLine
 62
7
  6
CONTINUOUS
 10
140.6883855245
 20
134.3924368292
 11
139.5441123958
 21
137.0724941633
  0
LINE
  5
374
100
AcDbEntity
  8
0
100
AcDbLine
 62
7
  6
CONTINUOUS
 10
140.7613997199
 20
134.3924368292
 11
139.5441123958
 21
137.243504235
  0
LINE
  5
375
100
AcDbEntity
  8
0
100
AcDbLine
 62
7
  6
CONTINUOUS
 10
138.7325877711
 20
136.9955853604
 11
139.814620733
 21
134.3924368292
  0
LINE
  5
376
100
AcDbEntity
  8
0
100
AcDbLine
 62
7
  6
CONTINUOUS
 10
139.6793667579
 20
139.2268555795
 11
139.814620733
 21
138.8549772675
  0
LINE
  5
377
100
AcDbEntity
  8
0
100
AcDbLine
 62
7
  6
CONTINUOUS
 10
140.6261453578
 20
138.6839671959
 11
140.4908909957
 21
139.0558455078
  0
LINE
  5
378
100
AcDbEntity
  8
0
100
AcDbLine
 62
7
  6
CONTINUOUS
 10
140.6261453578
 20
138.8549772675
 11
140.4908909957
 21
139.2268555795
  0
LINE
  5
379
100
AcDbEntity
  8
0
100
AcDbLine
 62
7
  6
CONTINUOUS
 10
118.5681860475
 20
111.9247165764
 11
118.5681860475
 21
91.94371959
  0
LINE
  5
37A
100
AcDbEntity
  8
KONSTRUKTIONSELEMENTE
100
AcDbLine
 62
7
  6
CONTINUOUS
 10
118.5681860475
 20
111.9247165764
 11
118.5681860475
 21
128.8982191576
  0
LINE
  5
37B
100
AcDbEntity
  8
0
100
AcDbLine
 62
7
  6
CONTINUOUS
 10
121.7022796836
 20
119.7653498684
 11
121.7022796836
 21
120.2927774591
  0
LINE
  5
37C
100
AcDbEntity
  8
KONSTRUKTIONSELEMENTE
100
AcDbLine
 62
7
  6
CONTINUOUS
 10
122.4681860475
 20
146.1086368716
 11
122.4681860475
 21
147.6036309223
  0
LINE
  5
37D
100
AcDbEntity
  8
0
100
AcDbLine
 62
7
  6
CONTINUOUS
 10
123.0310727583
 20
119.8475334335
 11
123.0310727583
 21
120.4023106918
  0
LINE
  5
37E
100
AcDbEntity
  8
0
100
AcDbLine
 62
7
  6
CONTINUOUS
 10
123.6303964023
 20
121.4769733606
 11
123.6303964023
 21
120.8878732991
  0
LINE
  5
37F
100
AcDbEntity
  8
KONSTRUKTIONSELEMENTE
100
AcDbLine
 62
7
  6
CONTINUOUS
 10
123.7181860475
 20
146.1086368716
 11
123.7181860475
 21
148.980752147
  0
LINE
  5
380
100
AcDbEntity
  8
0
100
AcDbLine
 62
7
  6
CONTINUOUS
 10
124.5271197756
 20
117.6975773686
 11
124.5271197756
 21
118.2866774302
  0
LINE
  5
381
100
AcDbEntity
  8
0
100
AcDbLine
 62
7
  6
CONTINUOUS
 10
126.6942796836
 20
121.9829265427
 11
126.6942796836
 21
119.2715286592
  0
LINE
  5
382
100
AcDbEntity
  8
0
100
AcDbLine
 62
7
  6
CONTINUOUS
 10
127.9422796836
 20
119.2715286592
 11
127.9422796836
 21
121.9829265427
  0
LINE
  5
383
100
AcDbEntity
  8
0
100
AcDbLine
 62
7
  6
CONTINUOUS
 10
108.8542227777
 20
135.7559908135
 11
108.9833896907
 21
136.3757880001
  0
LINE
  5
384
100
AcDbEntity
  8
0
100
AcDbLine
 62
7
  6
CONTINUOUS
 10
108.2083896907
 20
136.3757880001
 11
108.0792227777
 21
135.8799502508
  0
LINE
  5
385
100
AcDbEntity
  8
0
100
AcDbLine
 62
7
  6
CONTINUOUS
 10
108.2083896907
 20
136.2047779284
 11
108.0792227777
 21
135.7089401791
  0
LINE
  5
386
100
AcDbEntity
  8
0
100
AcDbLine
 62
7
  6
CONTINUOUS
 10
102.3958893212
 20
138.4830986083
 11
102.2667227777
 21
138.1112202963
  0
LINE
  5
387
100
AcDbEntity
  8
0
100
AcDbLine
 62
7
  6
CONTINUOUS
 10
102.3958893212
 20
138.3120885366
 11
102.2667227777
 21
137.9402102246
  0
LINE
  5
388
100
AcDbEntity
  8
0
100
AcDbLine
 62
7
  6
CONTINUOUS
 10
103.0417227777
 20
137.987260859
 11
103.1708893212
 21
138.3591391709
  0
LINE
  5
389
100
AcDbEntity
  8
0
100
AcDbLine
 62
7
  6
CONTINUOUS
 10
146.1715633689
 20
139.1028961422
 11
146.306817731
 21
138.7310174829
  0
LINE
  5
38A
100
AcDbEntity
  8
0
100
AcDbLine
 62
7
  6
CONTINUOUS
 10
150.9054567552
 20
135.7559908135
 11
151.0407118912
 21
135.3841124147
  0
LINE
  5
38B
100
AcDbEntity
  8
0
100
AcDbLine
 62
7
  6
CONTINUOUS
 10
142.7902112817
 20
135.7089401791
 11
142.6549569196
 21
136.2047779284
  0
LINE
  5
38C
100
AcDbEntity
  8
0
100
AcDbLine
 62
7
  6
CONTINUOUS
 10
142.7902112817
 20
135.8799502508
 11
142.6549569196
 21
136.3757880001
  0
LINE
  5
38D
100
AcDbEntity
  8
0
100
AcDbLine
 62
7
  6
CONTINUOUS
 10
141.8434322949
 20
136.3757880001
 11
141.978686657
 21
135.7559908135
  0
LINE
  5
38E
100
AcDbEntity
  8
KONSTRUKTIONSELEMENTE
100
AcDbLine
 62
7
  6
CONTINUOUS
 10
128.2181860475
 20
146.1086368716
 11
128.2181860475
 21
148.980752147
  0
LINE
  5
38F
100
AcDbEntity
  8
KONSTRUKTIONSELEMENTE
100
AcDbLine
 62
7
  6
CONTINUOUS
 10
129.4681860475
 20
147.6029542738
 11
129.4681860475
 21
146.1086368716
  0
LINE
  5
390
100
AcDbEntity
  8
0
100
AcDbLine
 62
7
  6
CONTINUOUS
 10
132.8486556523
 20
120.2850981719
 11
132.8486556523
 21
119.2715286592
  0
LINE
  5
391
100
AcDbEntity
  8
0
100
AcDbLine
 62
7
  6
CONTINUOUS
 10
133.3681860475
 20
91.94371959
 11
133.3681860475
 21
111.9247165764
  0
LINE
  5
392
100
AcDbEntity
  8
KONSTRUKTIONSELEMENTE
100
AcDbLine
 62
7
  6
CONTINUOUS
 10
133.3681860475
 20
111.9247165764
 11
133.3681860475
 21
128.8982192422
  0
LINE
  5
393
100
AcDbEntity
  8
0
100
AcDbLine
 62
7
  6
CONTINUOUS
 10
133.7281860475
 20
140.2185310781
 11
133.7281860475
 21
134.3924368292
  0
LINE
  5
394
100
AcDbEntity
  8
KONSTRUKTIONSELEMENTE
100
AcDbLine
 62
7
  6
CONTINUOUS
 10
133.9681860475
 20
148.1097230682
 11
133.9681860475
 21
146.1086368716
  0
LINE
  5
395
100
AcDbEntity
  8
0
100
AcDbLine
 62
7
  6
CONTINUOUS
 10
134.5397106722
 20
134.3924368292
 11
134.5397106722
 21
140.2185310781
  0
LINE
  5
396
100
AcDbEntity
  8
0
100
AcDbLine
 62
7
  6
CONTINUOUS
 10
135.6217434407
 20
140.2185310781
 11
135.6217434407
 21
134.3924368292
  0
LINE
  5
397
100
AcDbEntity
  8
0
100
AcDbLine
 62
7
  6
CONTINUOUS
 10
136.4332680655
 20
134.3924368292
 11
136.4332680655
 21
136.9955853604
  0
LINE
  5
398
100
AcDbEntity
  8
0
100
AcDbLine
 62
7
  6
CONTINUOUS
 10
136.4332680655
 20
137.5683319127
 11
136.4332680655
 21
139.5987338915
  0
LINE
  5
399
100
AcDbEntity
  8
0
100
AcDbLine
 62
7
  6
CONTINUOUS
 10
115.0542227777
 20
135.7559908135
 11
115.1833889516
 21
136.3757880001
  0
LINE
  5
39A
100
AcDbEntity
  8
0
100
AcDbLine
 62
7
  6
CONTINUOUS
 10
114.4083889516
 20
136.3757880001
 11
114.2792227777
 21
135.8799502508
  0
LINE
  5
39B
100
AcDbEntity
  8
0
100
AcDbLine
 62
7
  6
CONTINUOUS
 10
114.4083889516
 20
136.2047779284
 11
114.2792227777
 21
135.7089401791
  0
LINE
  5
39C
100
AcDbEntity
  8
0
100
AcDbLine
 62
7
  6
CONTINUOUS
 10
155.7746045036
 20
136.0808184911
 11
155.6393509155
 21
136.576656414
  0
LINE
  5
39D
100
AcDbEntity
  8
0
100
AcDbLine
 62
7
  6
CONTINUOUS
 10
155.7746045036
 20
136.2518285628
 11
155.6393509155
 21
136.7476664857
  0
LINE
  5
39E
100
AcDbEntity
  8
0
100
AcDbLine
 62
7
  6
CONTINUOUS
 10
155.6393509155
 20
138.6839671959
 11
155.5040973273
 21
139.1798049452
  0
LINE
  5
39F
100
AcDbEntity
  8
0
100
AcDbLine
 62
7
  6
CONTINUOUS
 10
155.6393509155
 20
138.8549772675
 11
155.5040973273
 21
139.3508150168
  0
LINE
  5
3A0
100
AcDbEntity
  8
0
100
AcDbLine
 62
7
  6
CONTINUOUS
 10
147.0827205055
 20
138.723244004
 11
146.9830887675
 21
139.1798049452
  0
LINE
  5
3A1
100
AcDbEntity
  8
0
100
AcDbLine
 62
7
  6
CONTINUOUS
 10
147.1183423557
 20
138.7310174829
 11
146.9830887675
 21
139.3508150168
  0
LINE
  5
3A2
100
AcDbEntity
  8
0
100
AcDbLine
 62
7
  6
CONTINUOUS
 10
138.8678421332
 20
140.2185310781
 11
138.8678421332
 21
140.0475210064
  0
LINE
  5
3A3
100
AcDbEntity
  8
0
100
AcDbLine
 62
7
  6
CONTINUOUS
 10
138.9681860475
 20
327.7178807881
 11
138.9681860475
 21
161.8346786356
  0
LINE
  5
3A4
100
AcDbEntity
  8
0
100
AcDbLine
 62
7
  6
CONTINUOUS
 10
139.0030961083
 20
137.7393419843
 11
139.0030961083
 21
137.5683319127
  0
LINE
  5
3A5
100
AcDbEntity
  8
0
100
AcDbLine
 62
7
  6
CONTINUOUS
 10
139.4088584207
 20
137.8633014216
 11
139.4088584207
 21
137.69229135
  0
LINE
  5
3A6
100
AcDbEntity
  8
0
100
AcDbLine
 62
7
  6
CONTINUOUS
 10
139.5441123958
 20
140.0945716408
 11
139.5441123958
 21
139.9235615691
  0
LINE
  5
3A7
100
AcDbEntity
  8
0
100
AcDbLine
 62
7
  6
CONTINUOUS
 10
139.5441123958
 20
137.243504235
 11
139.5441123958
 21
137.0724941633
  0
LINE
  5
3A8
100
AcDbEntity
  8
0
100
AcDbLine
 62
7
  6
CONTINUOUS
 10
139.6793667579
 20
138.1112202963
 11
139.6793667579
 21
137.9402102246
  0
LINE
  5
3A9
100
AcDbEntity
  8
0
100
AcDbLine
 62
7
  6
CONTINUOUS
 10
139.814620733
 20
138.8549772675
 11
139.814620733
 21
138.3120885366
  0
LINE
  5
3AA
100
AcDbEntity
  8
0
100
AcDbLine
 62
7
  6
CONTINUOUS
 10
140.0851290703
 20
139.7226933288
 11
140.0851290703
 21
139.5516832571
  0
LINE
  5
3AB
100
AcDbEntity
  8
0
100
AcDbLine
 62
7
  6
CONTINUOUS
 10
140.4908909957
 20
139.2268555795
 11
140.4908909957
 21
139.0558455078
  0
LINE
  5
3AC
100
AcDbEntity
  8
0
100
AcDbLine
 62
7
  6
CONTINUOUS
 10
140.6261453578
 20
138.3591391709
 11
140.6261453578
 21
138.8549772675
  0
LINE
  5
3AD
100
AcDbEntity
  8
0
100
AcDbLine
 62
7
  6
CONTINUOUS
 10
141.8434322949
 20
138.2351797336
 11
141.8434322949
 21
136.3757880001
  0
LINE
  5
3AE
100
AcDbEntity
  8
0
100
AcDbLine
 62
7
  6
CONTINUOUS
 10
141.978686657
 20
138.8549772675
 11
141.978686657
 21
138.6839671959
  0
LINE
  5
3AF
100
AcDbEntity
  8
0
100
AcDbLine
 62
7
  6
CONTINUOUS
 10
142.2491946073
 20
139.3508150168
 11
142.2491946073
 21
139.1798049452
  0
LINE
  5
3B0
100
AcDbEntity
  8
0
100
AcDbLine
 62
7
  6
CONTINUOUS
 10
142.6549569196
 20
136.2047779284
 11
142.6549569196
 21
138.2351797336
  0
LINE
  5
3B1
100
AcDbEntity
  8
0
100
AcDbLine
 62
7
  6
CONTINUOUS
 10
142.7902112817
 20
139.8466527661
 11
142.7902112817
 21
139.6756426945
  0
LINE
  5
3B2
100
AcDbEntity
  8
0
100
AcDbLine
 62
7
  6
CONTINUOUS
 10
142.7902112817
 20
135.8799502508
 11
142.7902112817
 21
135.7089401791
  0
LINE
  5
3B3
100
AcDbEntity
  8
0
100
AcDbLine
 62
7
  6
CONTINUOUS
 10
143.060719232
 20
135.5080719388
 11
143.060719232
 21
135.3370618671
  0
LINE
  5
3B4
100
AcDbEntity
  8
0
100
AcDbLine
 62
7
  6
CONTINUOUS
 10
143.3312271823
 20
140.0945716408
 11
143.3312271823
 21
139.9235615691
  0
LINE
  5
3B5
100
AcDbEntity
  8
0
100
AcDbLine
 62
7
  6
CONTINUOUS
 10
143.4664815444
 20
135.2601529773
 11
143.4664815444
 21
135.0891429057
  0
LINE
  5
3B6
100
AcDbEntity
  8
0
100
AcDbLine
 62
7
  6
CONTINUOUS
 10
144.0074982188
 20
140.2185310781
 11
144.0074982188
 21
140.0475210064
  0
LINE
  5
3B7
100
AcDbEntity
  8
0
100
AcDbLine
 62
7
  6
CONTINUOUS
 10
144.0074982188
 20
135.13619354
 11
144.0074982188
 21
134.9651834683
  0
LINE
  5
3B8
100
AcDbEntity
  8
0
100
AcDbLine
 62
7
  6
CONTINUOUS
 10
145.0895307938
 20
137.615382547
 11
145.0895307938
 21
136.871625923
  0
LINE
  5
3B9
100
AcDbEntity
  8
0
100
AcDbLine
 62
7
  6
CONTINUOUS
 10
145.2247851559
 20
140.2185310781
 11
145.2247851559
 21
140.0475210064
  0
LINE
  5
3BA
100
AcDbEntity
  8
0
100
AcDbLine
 62
7
  6
CONTINUOUS
 10
145.2247851559
 20
135.13619354
 11
145.2247851559
 21
134.9651834683
  0
LINE
  5
3BB
100
AcDbEntity
  8
0
100
AcDbLine
 62
7
  6
CONTINUOUS
 10
145.7658010565
 20
135.2601529773
 11
145.7658010565
 21
135.0891429057
  0
LINE
  5
3BC
100
AcDbEntity
  8
0
100
AcDbLine
 62
7
  6
CONTINUOUS
 10
145.9010554186
 20
140.0945716408
 11
145.9010554186
 21
139.9235615691
  0
LINE
  5
3BD
100
AcDbEntity
  8
0
100
AcDbLine
 62
7
  6
CONTINUOUS
 10
146.1715633689
 20
135.5080719388
 11
146.1715633689
 21
135.3370618671
  0
LINE
  5
3BE
100
AcDbEntity
  8
0
100
AcDbLine
 62
7
  6
CONTINUOUS
 10
146.306817731
 20
136.871625923
 11
146.306817731
 21
135.7089401791
  0
LINE
  5
3BF
100
AcDbEntity
  8
0
100
AcDbLine
 62
7
  6
CONTINUOUS
 10
146.4420720931
 20
139.8466527661
 11
146.4420720931
 21
139.6756426945
  0
LINE
  5
3C0
100
AcDbEntity
  8
0
100
AcDbLine
 62
7
  6
CONTINUOUS
 10
146.9830887675
 20
139.3508150168
 11
146.9830887675
 21
139.1798049452
  0
LINE
  5
3C1
100
AcDbEntity
  8
0
100
AcDbLine
 62
7
  6
CONTINUOUS
 10
108.5958896907
 20
135.2601529773
 11
108.8542227777
 21
135.7559908135
  0
LINE
  5
3C2
100
AcDbEntity
  8
0
100
AcDbLine
 62
7
  6
CONTINUOUS
 10
147.1183423557
 20
135.7559908135
 11
147.1183423557
 21
137.615382547
  0
LINE
  5
3C3
100
AcDbEntity
  8
KONSTRUKTIONSELEMENTE
100
AcDbLine
 62
7
  6
CONTINUOUS
 10
147.4083353007
 20
113.5018583443
 11
147.4083353007
 21
115.8510898963
  0
LINE
  5
3C4
100
AcDbEntity
  8
0
100
AcDbLine
 62
7
  6
CONTINUOUS
 10
148.2003757046
 20
139.3508150168
 11
148.2003757046
 21
138.3591391709
  0
LINE
  5
3C5
100
AcDbEntity
  8
0
100
AcDbLine
 62
7
  6
CONTINUOUS
 10
149.0119003294
 20
140.2185310781
 11
149.0119003294
 21
140.0475210064
  0
LINE
  5
3C6
100
AcDbEntity
  8
0
100
AcDbLine
 62
7
  6
CONTINUOUS
 10
149.0119003294
 20
139.2268555795
 11
149.0119003294
 21
134.3924368292
  0
LINE
  5
3C7
100
AcDbEntity
  8
0
100
AcDbLine
 62
7
  6
CONTINUOUS
 10
149.8234249541
 20
134.3924368292
 11
149.8234249541
 21
140.2185310781
  0
LINE
  5
3C8
100
AcDbEntity
  8
0
100
AcDbLine
 62
7
  6
CONTINUOUS
 10
151.1759654794
 20
139.3508150168
 11
151.1759654794
 21
139.1798049452
  0
LINE
  5
3C9
100
AcDbEntity
  8
0
100
AcDbLine
 62
7
  6
CONTINUOUS
 10
151.5817277918
 20
135.7559908135
 11
151.5817277918
 21
135.5849807418
  0
LINE
  5
3CA
100
AcDbEntity
  8
0
100
AcDbLine
 62
7
  6
CONTINUOUS
 10
151.7169813799
 20
139.8466527661
 11
151.7169813799
 21
139.6756426945
  0
LINE
  5
3CB
100
AcDbEntity
  8
0
100
AcDbLine
 62
7
  6
CONTINUOUS
 10
151.7169813799
 20
135.5080719388
 11
151.7169813799
 21
135.3370618671
  0
LINE
  5
3CC
100
AcDbEntity
  8
0
100
AcDbLine
 62
7
  6
CONTINUOUS
 10
151.9874901041
 20
135.2601529773
 11
151.9874901041
 21
135.0891429057
  0
LINE
  5
3CD
100
AcDbEntity
  8
0
100
AcDbLine
 62
7
  6
CONTINUOUS
 10
152.2579988283
 20
140.0945716408
 11
152.2579988283
 21
139.9235615691
  0
LINE
  5
3CE
100
AcDbEntity
  8
0
100
AcDbLine
 62
7
  6
CONTINUOUS
 10
152.2579988283
 20
135.13619354
 11
152.2579988283
 21
134.9651834683
  0
LINE
  5
3CF
100
AcDbEntity
  8
0
100
AcDbLine
 62
7
  6
CONTINUOUS
 10
152.934268317
 20
135.0122341027
 11
152.934268317
 21
134.841224031
  0
LINE
  5
3D0
100
AcDbEntity
  8
0
100
AcDbLine
 62
7
  6
CONTINUOUS
 10
153.0695234531
 20
137.615382547
 11
153.0695234531
 21
137.1195447977
  0
LINE
  5
3D1
100
AcDbEntity
  8
0
100
AcDbLine
 62
7
  6
CONTINUOUS
 10
153.2047770412
 20
140.2185310781
 11
153.2047770412
 21
140.0475210064
  0
LINE
  5
3D2
100
AcDbEntity
  8
0
100
AcDbLine
 62
7
  6
CONTINUOUS
 10
153.4752857654
 20
140.2185310781
 11
153.4752857654
 21
140.0475210064
  0
LINE
  5
3D3
100
AcDbEntity
  8
0
100
AcDbLine
 62
7
  6
CONTINUOUS
 10
153.6105393536
 20
137.615382547
 11
153.6105393536
 21
137.4443724753
  0
LINE
  5
3D4
100
AcDbEntity
  8
0
100
AcDbLine
 62
7
  6
CONTINUOUS
 10
153.7457929418
 20
135.0122341027
 11
153.7457929418
 21
134.841224031
  0
LINE
  5
3D5
100
AcDbEntity
  8
0
100
AcDbLine
 62
7
  6
CONTINUOUS
 10
154.4220639783
 20
140.0945716408
 11
154.4220639783
 21
139.9235615691
  0
LINE
  5
3D6
100
AcDbEntity
  8
0
100
AcDbLine
 62
7
  6
CONTINUOUS
 10
154.4220639783
 20
137.8633014216
 11
154.4220639783
 21
137.69229135
  0
LINE
  5
3D7
100
AcDbEntity
  8
0
100
AcDbLine
 62
7
  6
CONTINUOUS
 10
154.4220639783
 20
135.13619354
 11
154.4220639783
 21
134.9651834683
  0
LINE
  5
3D8
100
AcDbEntity
  8
0
100
AcDbLine
 62
7
  6
CONTINUOUS
 10
154.6925727025
 20
138.1112202963
 11
154.6925727025
 21
137.9402102246
  0
LINE
  5
3D9
100
AcDbEntity
  8
0
100
AcDbLine
 62
7
  6
CONTINUOUS
 10
154.6925727025
 20
137.3674636723
 11
154.6925727025
 21
137.1964536007
  0
LINE
  5
3DA
100
AcDbEntity
  8
0
100
AcDbLine
 62
7
  6
CONTINUOUS
 10
154.6925727025
 20
135.2601529773
 11
154.6925727025
 21
135.0891429057
  0
LINE
  5
3DB
100
AcDbEntity
  8
0
100
AcDbLine
 62
7
  6
CONTINUOUS
 10
154.9630798789
 20
139.8466527661
 11
154.9630798789
 21
139.6756426945
  0
LINE
  5
3DC
100
AcDbEntity
  8
0
100
AcDbLine
 62
7
  6
CONTINUOUS
 10
154.9630798789
 20
138.8549772675
 11
154.9630798789
 21
138.4360479739
  0
LINE
  5
3DD
100
AcDbEntity
  8
0
100
AcDbLine
 62
7
  6
CONTINUOUS
 10
154.9630798789
 20
135.5080719388
 11
154.9630798789
 21
135.3370618671
  0
LINE
  5
3DE
100
AcDbEntity
  8
0
100
AcDbLine
 62
7
  6
CONTINUOUS
 10
155.0983350149
 20
136.2518285628
 11
155.0983350149
 21
135.5849807418
  0
LINE
  5
3DF
100
AcDbEntity
  8
0
100
AcDbLine
 62
7
  6
CONTINUOUS
 10
155.3688421913
 20
137.1195447977
 11
155.3688421913
 21
136.948534726
  0
LINE
  5
3E0
100
AcDbEntity
  8
0
100
AcDbLine
 62
7
  6
CONTINUOUS
 10
155.5040973273
 20
139.3508150168
 11
155.5040973273
 21
139.1798049452
  0
LINE
  5
3E1
100
AcDbEntity
  8
0
100
AcDbLine
 62
7
  6
CONTINUOUS
 10
155.6393509155
 20
136.7476664857
 11
155.6393509155
 21
136.576656414
  0
LINE
  5
3E2
100
AcDbEntity
  8
0
100
AcDbLine
 62
7
  6
CONTINUOUS
 10
155.6393509155
 20
138.6070580456
 11
155.6393509155
 21
138.8549772675
  0
LINE
  5
3E3
100
AcDbEntity
  8
0
100
AcDbLine
 62
7
  6
CONTINUOUS
 10
155.7746045036
 20
135.7559908135
 11
155.7746045036
 21
136.2518285628
  0
LINE
  5
3E4
100
AcDbEntity
  8
0
100
AcDbLine
 62
7
  6
CONTINUOUS
 10
114.7958889516
 20
135.2601529773
 11
115.0542227777
 21
135.7559908135
  0
LINE
  5
3E5
100
AcDbEntity
  8
0
100
AcDbLine
 62
7
  6
CONTINUOUS
 10
108.0792227777
 20
135.8799502508
 11
107.8208896907
 21
135.5080719388
  0
LINE
  5
3E6
100
AcDbEntity
  8
0
100
AcDbLine
 62
7
  6
CONTINUOUS
 10
108.0792227777
 20
135.7089401791
 11
107.8208896907
 21
135.3370618671
  0
LINE
  5
3E7
100
AcDbEntity
  8
0
100
AcDbLine
 62
7
  6
CONTINUOUS
 10
102.6542227777
 20
137.4914231097
 11
103.0417227777
 21
137.987260859
  0
LINE
  5
3E8
100
AcDbEntity
  8
0
100
AcDbLine
 62
7
  6
CONTINUOUS
 10
156.9681860475
 20
86.6038540785
 11
156.9681860475
 21
85.7146017058
  0
LINE
  5
3E9
100
AcDbEntity
  8
RUNDUNGEN
100
AcDbLine
 62
7
  6
CONTINUOUS
 10
159.9681860475
 20
83.2964508629
 11
159.9681860475
 21
79.7041956381
  0
LINE
  5
3EA
100
AcDbEntity
  8
0
100
AcDbLine
 62
7
  6
CONTINUOUS
 10
162.9681860475
 20
98.7755858096
 11
162.9681860475
 21
91.86687608
  0
LINE
  5
3EB
100
AcDbEntity
  8
RUNDUNGEN
100
AcDbLine
 62
7
  6
CONTINUOUS
 10
162.9681860475
 20
98.7755858096
 11
162.9681860475
 21
138.22925163
  0
LINE
  5
3EC
100
AcDbEntity
  8
0
100
AcDbLine
 62
7
  6
CONTINUOUS
 10
164.3416162563
 20
122.9748317805
 11
164.3416162563
 21
141.1083687089
  0
LINE
  5
3ED
100
AcDbEntity
  8
0
100
AcDbLine
 62
7
  6
CONTINUOUS
 10
141.978686657
 20
138.8549772675
 11
141.8434322949
 21
138.2351797336
  0
LINE
  5
3EE
100
AcDbEntity
  8
0
100
AcDbLine
 62
7
  6
CONTINUOUS
 10
141.978686657
 20
138.6839671959
 11
141.8434322949
 21
138.064169662
  0
LINE
  5
3EF
100
AcDbEntity
  8
0
100
AcDbLine
 62
7
  6
CONTINUOUS
 10
142.6549569196
 20
138.2351797336
 11
142.7902112817
 21
138.7310174829
  0
LINE
  5
3F0
100
AcDbEntity
  8
0
100
AcDbLine
 62
7
  6
CONTINUOUS
 10
146.9830887675
 20
135.2601529773
 11
147.1183423557
 21
135.7559908135
  0
LINE
  5
3F1
100
AcDbEntity
  8
0
100
AcDbLine
 62
7
  6
CONTINUOUS
 10
139.814620733
 20
138.4830986083
 11
139.6793667579
 21
138.1112202963
  0
LINE
  5
3F2
100
AcDbEntity
  8
0
100
AcDbLine
 62
7
  6
CONTINUOUS
 10
139.814620733
 20
138.3120885366
 11
139.6793667579
 21
137.9402102246
  0
LINE
  5
3F3
100
AcDbEntity
  8
0
100
AcDbLine
 62
7
  6
CONTINUOUS
 10
140.4908909957
 20
137.987260859
 11
140.6261453578
 21
138.3591391709
  0
LINE
  5
3F4
100
AcDbEntity
  8
0
100
AcDbLine
 62
7
  6
CONTINUOUS
 10
114.2792227777
 20
135.8799502508
 11
114.0208889516
 21
135.5080719388
  0
LINE
  5
3F5
100
AcDbEntity
  8
0
100
AcDbLine
 62
7
  6
CONTINUOUS
 10
114.2792227777
 20
135.7089401791
 11
114.0208889516
 21
135.3370618671
  0
LINE
  5
3F6
100
AcDbEntity
  8
0
100
AcDbLine
 62
7
  6
CONTINUOUS
 10
102.2667227777
 20
138.1112202963
 11
102.0083893212
 21
137.8633014216
  0
LINE
  5
3F7
100
AcDbEntity
  8
0
100
AcDbLine
 62
7
  6
CONTINUOUS
 10
102.2667227777
 20
137.9402102246
 11
102.0083893212
 21
137.69229135
  0
LINE
  5
3F8
100
AcDbEntity
  8
RUNDUNGEN
100
AcDbLine
 62
7
  6
CONTINUOUS
 10
169.9681860475
 20
82.0285960777
 11
169.9681860475
 21
91.6772845208
  0
LINE
  5
3F9
100
AcDbEntity
  8
0
100
AcDbLine
 62
7
  6
CONTINUOUS
 10
170.278006569
 20
159.2554302031
 11
170.278006569
 21
161.5344596654
  0
LINE
  5
3FA
100
AcDbEntity
  8
0
100
AcDbLine
 62
7
  6
CONTINUOUS
 10
151.1759654794
 20
139.3508150168
 11
151.0407118912
 21
138.8549772675
  0
LINE
  5
3FB
100
AcDbEntity
  8
0
100
AcDbLine
 62
7
  6
CONTINUOUS
 10
151.1759654794
 20
139.1798049452
 11
151.0873596623
 21
138.8549772675
  0
LINE
  5
3FC
100
AcDbEntity
  8
0
100
AcDbLine
 62
7
  6
CONTINUOUS
 10
155.5040973273
 20
138.1112202963
 11
155.6393509155
 21
138.6070580456
  0
LINE
  5
3FD
100
AcDbEntity
  8
0
100
AcDbLine
 62
7
  6
CONTINUOUS
 10
146.306817731
 20
135.8799502508
 11
146.1715633689
 21
135.5080719388
  0
LINE
  5
3FE
100
AcDbEntity
  8
0
100
AcDbLine
 62
7
  6
CONTINUOUS
 10
146.306817731
 20
135.7089401791
 11
146.1715633689
 21
135.3370618671
  0
LINE
  5
3FF
100
AcDbEntity
  8
0
100
AcDbLine
 62
7
  6
CONTINUOUS
 10
142.2491946073
 20
139.3508150168
 11
141.978686657
 21
138.8549772675
  0
LINE
  5
400
100
AcDbEntity
  8
0
100
AcDbLine
 62
7
  6
CONTINUOUS
 10
142.2491946073
 20
139.1798049452
 11
141.978686657
 21
138.6839671959
  0
LINE
  5
401
100
AcDbEntity
  8
0
100
AcDbLine
 62
7
  6
CONTINUOUS
 10
108.0792227777
 20
134.7643151846
 11
108.5958896907
 21
135.2601529773
  0
LINE
  5
402
100
AcDbEntity
  8
0
100
AcDbLine
 62
7
  6
CONTINUOUS
 10
114.2792227777
 20
134.7643151846
 11
114.7958889516
 21
135.2601529773
  0
LINE
  5
403
100
AcDbEntity
  8
RUNDUNGEN
100
AcDbLine
 62
7
  6
CONTINUOUS
 10
183.4806822377
 20
130.3236571574
 11
183.4806822377
 21
134.8551960925
  0
LINE
  5
404
100
AcDbEntity
  8
0
100
AcDbLine
 62
7
  6
CONTINUOUS
 10
164.3416162563
 20
125.1979627121
 11
162.9681860475
 21
117.8785937353
  0
LINE
  5
405
100
AcDbEntity
  8
0
100
AcDbLine
 62
7
  6
CONTINUOUS
 10
164.3416162563
 20
122.9748317805
 11
162.9681860475
 21
115.6554628037
  0
LINE
  5
406
100
AcDbEntity
  8
0
100
AcDbLine
 62
7
  6
CONTINUOUS
 10
168.2789631573
 20
152.0469633946
 11
164.3416162563
 21
138.0439097872
  0
LINE
  5
407
100
AcDbEntity
  8
0
100
AcDbLine
 62
7
  6
CONTINUOUS
 10
168.2789631573
 20
154.7217135297
 11
164.3416162563
 21
141.1083687089
  0
LINE
  5
408
100
AcDbEntity
  8
0
100
AcDbLine
 62
7
  6
CONTINUOUS
 10
155.6393509155
 20
135.3841124147
 11
155.7746045036
 21
135.7559908135
  0
LINE
  5
409
100
AcDbEntity
  8
0
100
AcDbLine
 62
7
  6
CONTINUOUS
 10
142.7902112817
 20
138.7310174829
 11
143.060719232
 21
139.1028961422
  0
LINE
  5
40A
100
AcDbEntity
  8
0
100
AcDbLine
 62
7
  6
CONTINUOUS
 10
140.0851290703
 20
137.4914231097
 11
140.4908909957
 21
137.987260859
  0
LINE
  5
40B
100
AcDbEntity
  8
0
100
AcDbLine
 62
7
  6
CONTINUOUS
 10
107.8208896907
 20
135.5080719388
 11
107.4333896907
 21
135.2601529773
  0
LINE
  5
40C
100
AcDbEntity
  8
0
100
AcDbLine
 62
7
  6
CONTINUOUS
 10
107.8208896907
 20
135.3370618671
 11
107.4333896907
 21
135.0891429057
  0
LINE
  5
40D
100
AcDbEntity
  8
0
100
AcDbLine
 62
7
  6
CONTINUOUS
 10
114.0208889516
 20
135.5080719388
 11
113.6333889516
 21
135.2601529773
  0
LINE
  5
40E
100
AcDbEntity
  8
0
100
AcDbLine
 62
7
  6
CONTINUOUS
 10
114.0208889516
 20
135.3370618671
 11
113.6333889516
 21
135.0891429057
  0
LINE
  5
40F
100
AcDbEntity
  8
0
100
AcDbLine
 62
7
  6
CONTINUOUS
 10
102.1375562342
 20
137.243504235
 11
102.6542227777
 21
137.4914231097
  0
LINE
  5
410
100
AcDbEntity
  8
RUNDUNGEN
100
AcDbLine
 62
7
  6
CONTINUOUS
 10
74.2234492503
 20
137.0019965777
 11
72.5851451617
 21
136.5171888247
  0
LINE
  5
411
100
AcDbEntity
  8
0
100
AcDbLine
 62
7
  6
CONTINUOUS
 10
154.9630798789
 20
138.6070580456
 11
154.6925727025
 21
138.1112202963
  0
LINE
  5
412
100
AcDbEntity
  8
0
100
AcDbLine
 62
7
  6
CONTINUOUS
 10
154.9630798789
 20
138.4360479739
 11
154.6925727025
 21
137.9402102246
  0
LINE
  5
413
100
AcDbEntity
  8
0
100
AcDbLine
 62
7
  6
CONTINUOUS
 10
155.0983350149
 20
135.7559908135
 11
154.9630798789
 21
135.5080719388
  0
LINE
  5
414
100
AcDbEntity
  8
0
100
AcDbLine
 62
7
  6
CONTINUOUS
 10
155.0983350149
 20
135.5849807418
 11
154.9630798789
 21
135.3370618671
  0
LINE
  5
415
100
AcDbEntity
  8
0
100
AcDbLine
 62
7
  6
CONTINUOUS
 10
151.7169813799
 20
138.8549772675
 11
151.9874901041
 21
139.2268555795
  0
LINE
  5
416
100
AcDbEntity
  8
0
100
AcDbLine
 62
7
  6
CONTINUOUS
 10
155.2335886031
 20
137.7393419843
 11
155.5040973273
 21
138.1112202963
  0
LINE
  5
417
100
AcDbEntity
  8
0
100
AcDbLine
 62
7
  6
CONTINUOUS
 10
155.3688421913
 20
135.0122341027
 11
155.6393509155
 21
135.3841124147
  0
LINE
  5
418
100
AcDbEntity
  8
0
100
AcDbLine
 62
7
  6
CONTINUOUS
 10
149.0119003294
 20
140.2185310781
 11
148.2003757046
 21
139.3508150168
  0
LINE
  5
419
100
AcDbEntity
  8
0
100
AcDbLine
 62
7
  6
CONTINUOUS
 10
149.0119003294
 20
140.0475210064
 11
148.2003757046
 21
139.1798049452
  0
LINE
  5
41A
100
AcDbEntity
  8
0
100
AcDbLine
 62
7
  6
CONTINUOUS
 10
148.2003757046
 20
138.3591391709
 11
149.0119003294
 21
139.2268555795
  0
LINE
  5
41B
100
AcDbEntity
  8
0
100
AcDbLine
 62
7
  6
CONTINUOUS
 10
139.6793667579
 20
138.1112202963
 11
139.4088584207
 21
137.8633014216
  0
LINE
  5
41C
100
AcDbEntity
  8
0
100
AcDbLine
 62
7
  6
CONTINUOUS
 10
139.6793667579
 20
137.9402102246
 11
139.4088584207
 21
137.69229135
  0
LINE
  5
41D
100
AcDbEntity
  8
0
100
AcDbLine
 62
7
  6
CONTINUOUS
 10
142.7902112817
 20
139.8466527661
 11
142.2491946073
 21
139.3508150168
  0
LINE
  5
41E
100
AcDbEntity
  8
0
100
AcDbLine
 62
7
  6
CONTINUOUS
 10
142.7902112817
 20
139.6756426945
 11
142.2491946073
 21
139.1798049452
  0
LINE
  5
41F
100
AcDbEntity
  8
0
100
AcDbLine
 62
7
  6
CONTINUOUS
 10
107.5625558647
 20
134.5163962774
 11
108.0792227777
 21
134.7643151846
  0
LINE
  5
420
100
AcDbEntity
  8
0
100
AcDbLine
 62
7
  6
CONTINUOUS
 10
113.7625566038
 20
134.5163962774
 11
114.2792227777
 21
134.7643151846
  0
LINE
  5
421
100
AcDbEntity
  8
0
100
AcDbLine
 62
7
  6
CONTINUOUS
 10
102.0083893212
 20
137.8633014216
 11
101.6208893212
 21
137.7393419843
  0
LINE
  5
422
100
AcDbEntity
  8
0
100
AcDbLine
 62
7
  6
CONTINUOUS
 10
102.0083893212
 20
137.69229135
 11
101.6208893212
 21
137.5683319127
  0
LINE
  5
423
100
AcDbEntity
  8
RUNDUNGEN
100
AcDbLine
 62
7
  6
CONTINUOUS
 10
74.2234492503
 20
132.4704576425
 11
72.5851451617
 21
131.9856498895
  0
LINE
  5
424
100
AcDbEntity
  8
RUNDUNGEN
100
AcDbLine
 62
7
  6
CONTINUOUS
 10
81.639155326
 20
127.4420141523
 11
77.2976494913
 21
126.1572736068
  0
LINE
  5
425
100
AcDbEntity
  8
0
100
AcDbLine
 62
7
  6
CONTINUOUS
 10
151.7169813799
 20
139.8466527661
 11
151.1759654794
 21
139.3508150168
  0
LINE
  5
426
100
AcDbEntity
  8
0
100
AcDbLine
 62
7
  6
CONTINUOUS
 10
151.7169813799
 20
139.6756426945
 11
151.1759654794
 21
139.1798049452
  0
LINE
  5
427
100
AcDbEntity
  8
0
100
AcDbLine
 62
7
  6
CONTINUOUS
 10
146.4420720931
 20
134.7643151846
 11
146.9830887675
 21
135.2601529773
  0
LINE
  5
428
100
AcDbEntity
  8
0
100
AcDbLine
 62
7
  6
CONTINUOUS
 10
154.6925727025
 20
138.1112202963
 11
154.4220639783
 21
137.8633014216
  0
LINE
  5
429
100
AcDbEntity
  8
0
100
AcDbLine
 62
7
  6
CONTINUOUS
 10
154.6925727025
 20
137.9402102246
 11
154.4220639783
 21
137.69229135
  0
LINE
  5
42A
100
AcDbEntity
  8
0
100
AcDbLine
 62
7
  6
CONTINUOUS
 10
154.9630798789
 20
135.5080719388
 11
154.6925727025
 21
135.2601529773
  0
LINE
  5
42B
100
AcDbEntity
  8
0
100
AcDbLine
 62
7
  6
CONTINUOUS
 10
154.9630798789
 20
135.3370618671
 11
154.6925727025
 21
135.0891429057
  0
LINE
  5
42C
100
AcDbEntity
  8
0
100
AcDbLine
 62
7
  6
CONTINUOUS
 10
154.6925727025
 20
137.3674636723
 11
155.2335886031
 21
137.7393419843
  0
LINE
  5
42D
100
AcDbEntity
  8
0
100
AcDbLine
 62
7
  6
CONTINUOUS
 10
143.060719232
 20
139.1028961422
 11
143.4664815444
 21
139.3508150168
  0
LINE
  5
42E
100
AcDbEntity
  8
0
100
AcDbLine
 62
7
  6
CONTINUOUS
 10
151.9874901041
 20
139.2268555795
 11
152.3932524165
 21
139.4747744541
  0
LINE
  5
42F
100
AcDbEntity
  8
0
100
AcDbLine
 62
7
  6
CONTINUOUS
 10
146.1715633689
 20
135.5080719388
 11
145.7658010565
 21
135.2601529773
  0
LINE
  5
430
100
AcDbEntity
  8
0
100
AcDbLine
 62
7
  6
CONTINUOUS
 10
146.1715633689
 20
135.3370618671
 11
145.7658010565
 21
135.0891429057
  0
LINE
  5
431
100
AcDbEntity
  8
0
100
AcDbLine
 62
7
  6
CONTINUOUS
 10
143.3312271823
 20
140.0945716408
 11
142.7902112817
 21
139.8466527661
  0
LINE
  5
432
100
AcDbEntity
  8
0
100
AcDbLine
 62
7
  6
CONTINUOUS
 10
143.3312271823
 20
139.9235615691
 11
142.7902112817
 21
139.6756426945
  0
LINE
  5
433
100
AcDbEntity
  8
0
100
AcDbLine
 62
7
  6
CONTINUOUS
 10
139.5441123958
 20
137.243504235
 11
140.0851290703
 21
137.4914231097
  0
LINE
  5
434
100
AcDbEntity
  8
0
100
AcDbLine
 62
7
  6
CONTINUOUS
 10
152.2579988283
 20
140.0945716408
 11
151.7169813799
 21
139.8466527661
  0
LINE
  5
435
100
AcDbEntity
  8
0
100
AcDbLine
 62
7
  6
CONTINUOUS
 10
152.2579988283
 20
139.9235615691
 11
151.7169813799
 21
139.6756426945
  0
LINE
  5
436
100
AcDbEntity
  8
0
100
AcDbLine
 62
7
  6
CONTINUOUS
 10
145.9010554186
 20
134.5163962774
 11
146.4420720931
 21
134.7643151846
  0
LINE
  5
437
100
AcDbEntity
  8
0
100
AcDbLine
 62
7
  6
CONTINUOUS
 10
139.4088584207
 20
137.8633014216
 11
139.0030961083
 21
137.7393419843
  0
LINE
  5
438
100
AcDbEntity
  8
0
100
AcDbLine
 62
7
  6
CONTINUOUS
 10
139.4088584207
 20
137.69229135
 11
139.0030961083
 21
137.5683319127
  0
LINE
  5
439
100
AcDbEntity
  8
0
100
AcDbLine
 62
7
  6
CONTINUOUS
 10
154.4220639783
 20
137.8633014216
 11
153.6105393536
 21
137.615382547
  0
LINE
  5
43A
100
AcDbEntity
  8
RUNDUNGEN
100
AcDbLine
 62
7
  6
CONTINUOUS
 10
84.409997302
 20
126.3960737401
 11
86.3758039596
 21
126.9777962147
  0
LINE
  5
43B
100
AcDbEntity
  8
RUNDUNGEN
100
AcDbLine
 62
7
  6
CONTINUOUS
 10
84.409997302
 20
121.8645348049
 11
87.6245969452
 21
122.815800715
  0
LINE
  5
43C
100
AcDbEntity
  8
0
100
AcDbLine
 62
7
  6
CONTINUOUS
 10
154.9630798789
 20
134.7643151846
 11
155.3688421913
 21
135.0122341027
  0
LINE
  5
43D
100
AcDbEntity
  8
RUNDUNGEN
100
AcDbLine
 62
7
  6
CONTINUOUS
 10
88.9681860475
 20
96.7017206741
 11
83.0532737818
 21
93.1317077798
  0
LINE
  5
43E
100
AcDbEntity
  8
RUNDUNGEN
100
AcDbLine
 62
7
  6
CONTINUOUS
 10
88.9681860475
 20
92.1701817389
 11
83.0532737818
 21
88.6001688446
  0
LINE
  5
43F
100
AcDbEntity
  8
RUNDUNGEN
100
AcDbLine
 62
7
  6
CONTINUOUS
 10
164.3416162563
 20
132.1735664759
 11
172.9615009771
 21
137.3761964082
  0
LINE
  5
440
100
AcDbEntity
  8
0
100
AcDbLine
 62
7
  6
CONTINUOUS
 10
154.6925727025
 20
135.2601529773
 11
154.4220639783
 21
135.13619354
  0
LINE
  5
441
100
AcDbEntity
  8
0
100
AcDbLine
 62
7
  6
CONTINUOUS
 10
154.6925727025
 20
135.0891429057
 11
154.4220639783
 21
134.9651834683
  0
LINE
  5
442
100
AcDbEntity
  8
0
100
AcDbLine
 62
7
  6
CONTINUOUS
 10
154.4220639783
 20
134.5163962774
 11
154.9630798789
 21
134.7643151846
  0
LINE
  5
443
100
AcDbEntity
  8
0
100
AcDbLine
 62
7
  6
CONTINUOUS
 10
154.4220639783
 20
137.69229135
 11
153.6105393536
 21
137.4443724753
  0
LINE
  5
444
100
AcDbEntity
  8
RUNDUNGEN
100
AcDbLine
 62
7
  6
CONTINUOUS
 10
164.3416162563
 20
127.6420275407
 11
172.9615009771
 21
132.844657473
  0
LINE
  5
445
100
AcDbEntity
  8
RUNDUNGEN
100
AcDbLine
 62
7
  6
CONTINUOUS
 10
112.1480901235
 20
87.0035539374
 11
119.4149696932
 21
91.3895621484
  0
LINE
  5
446
100
AcDbEntity
  8
RUNDUNGEN
100
AcDbLine
 62
7
  6
CONTINUOUS
 10
163.3958773314
 20
117.9347415725
 11
183.1189863263
 21
129.8388494043
  0
LINE
  5
447
100
AcDbEntity
  8
0
100
AcDbLine
 62
7
  6
CONTINUOUS
 10
99.925513421
 20
84.6171826763
 11
99.925055422
 21
84.6170074995
  0
ARC
  5
448
100
AcDbEntity
  8
KONSTRUKTIONSELEMENTE
100
AcDbCircle
 62
7
  6
CONTINUOUS
 10
336.768606622
 20
133.5505239512
 40
9.55
100
AcDbArc
 50
115.0
 51
189.8048644765
  0
ARC
  5
449
100
AcDbEntity
  8
KONSTRUKTIONSELEMENTE
100
AcDbCircle
 62
7
  6
CONTINUOUS
 10
336.768606622
 20
133.5505239512
 40
9.55
100
AcDbArc
 50
220.1951355235
 51
295.0
  0
ARC
  5
44A
100
AcDbEntity
  8
KONSTRUKTIONSELEMENTE
100
AcDbCircle
 62
7
  6
CONTINUOUS
 10
347.5536692877
 20
138.5796812659
 40
9.55
100
AcDbArc
 50
295.0
 51
11.3702929546
  0
ARC
  5
44B
100
AcDbEntity
  8
KONSTRUKTIONSELEMENTE
100
AcDbCircle
 62
7
  6
CONTINUOUS
 10
347.5536692877
 20
138.5796812659
 40
9.55
100
AcDbArc
 50
38.6297070454
 51
115.0
  0
ARC
  5
44C
100
AcDbEntity
  8
KONSTRUKTIONSELEMENTE
100
AcDbCircle
 62
7
  6
CONTINUOUS
 10
336.768606622
 20
133.5505239512
 40
4.55
100
AcDbArc
 50
115.0
 51
171.6416672297
  0
ARC
  5
44D
100
AcDbEntity
  8
KONSTRUKTIONSELEMENTE
100
AcDbCircle
 62
7
  6
CONTINUOUS
 10
336.768606622
 20
133.5505239512
 40
4.55
100
AcDbArc
 50
238.3583327703
 51
295.0
  0
ARC
  5
44E
100
AcDbEntity
  8
KONSTRUKTIONSELEMENTE
100
AcDbCircle
 62
7
  6
CONTINUOUS
 10
347.5536692877
 20
138.5796812659
 40
4.55
100
AcDbArc
 50
295.0
 51
355.3477978529
  0
ARC
  5
44F
100
AcDbEntity
  8
KONSTRUKTIONSELEMENTE
100
AcDbCircle
 62
7
  6
CONTINUOUS
 10
347.5536692877
 20
138.5796812659
 40
4.55
100
AcDbArc
 50
54.6522021471
 51
115.0
  0
ARC
  5
450
100
AcDbEntity
  8
KONSTRUKTIONSELEMENTE
100
AcDbCircle
 62
7
  6
CONTINUOUS
 10
349.1850233044
 20
139.340394137
 40
2.25
100
AcDbArc
 50
115.0
 51
295.0
  0
ARC
  5
451
100
AcDbEntity
  8
0
100
AcDbCircle
 62
7
  6
CONTINUOUS
 10
382.2883872835
 20
182.1117918901
 40
98.6761507301
100
AcDbArc
 50
342.2609779608
 51
346.6069414076
  0
ARC
  5
452
100
AcDbEntity
  8
KONSTRUKTIONSELEMENTE
100
AcDbCircle
 62
7
  6
CONTINUOUS
 10
374.3350643946
 20
151.0680509003
 40
8.0
100
AcDbArc
 50
115.0
 51
188.6357041722
  0
ARC
  5
453
100
AcDbEntity
  8
KONSTRUKTIONSELEMENTE
100
AcDbCircle
 62
7
  6
CONTINUOUS
 10
374.3350643946
 20
151.0680509003
 40
8.0
100
AcDbArc
 50
221.3642958278
 51
295.0
  0
ARC
  5
454
100
AcDbEntity
  8
KONSTRUKTIONSELEMENTE
100
AcDbCircle
 62
7
  6
CONTINUOUS
 10
387.9296812002
 20
157.4073248264
 40
8.0
100
AcDbArc
 50
295.0
 51
8.6357041722
  0
ARC
  5
455
100
AcDbEntity
  8
KONSTRUKTIONSELEMENTE
100
AcDbCircle
 62
7
  6
CONTINUOUS
 10
387.9296812002
 20
157.4073248264
 40
8.0
100
AcDbArc
 50
41.3642958278
 51
115.0
  0
ARC
  5
456
100
AcDbEntity
  8
KONSTRUKTIONSELEMENTE
100
AcDbCircle
 62
7
  6
CONTINUOUS
 10
374.3350643946
 20
151.0680509003
 40
3.5
100
AcDbArc
 50
115.0
 51
164.8461224921
  0
ARC
  5
457
100
AcDbEntity
  8
KONSTRUKTIONSELEMENTE
100
AcDbCircle
 62
7
  6
CONTINUOUS
 10
374.3350643946
 20
151.0680509003
 40
3.5
100
AcDbArc
 50
245.1538775079
 51
295.0
  0
ARC
  5
458
100
AcDbEntity
  8
KONSTRUKTIONSELEMENTE
100
AcDbCircle
 62
7
  6
CONTINUOUS
 10
387.9296812002
 20
157.4073248264
 40
3.5
100
AcDbArc
 50
295.0
 51
344.8461224921
  0
ARC
  5
459
100
AcDbEntity
  8
KONSTRUKTIONSELEMENTE
100
AcDbCircle
 62
7
  6
CONTINUOUS
 10
387.9296812002
 20
157.4073248264
 40
3.5
100
AcDbArc
 50
65.1538775079
 51
115.0
  0
ARC
  5
45A
100
AcDbEntity
  8
KONSTRUKTIONSELEMENTE
100
AcDbCircle
 62
7
  6
CONTINUOUS
 10
389.062565934
 20
157.9355976536
 40
2.25
100
AcDbArc
 50
115.0
 51
295.0
  0
ARC
  5
45B
100
AcDbEntity
  8
KONSTRUKTIONSELEMENTE
100
AcDbCircle
 62
7
  6
CONTINUOUS
 10
373.2021796609
 20
150.5397780732
 40
2.25
100
AcDbArc
 50
295.0
 51
115.0
  0
ARC
  5
45C
100
AcDbEntity
  8
0
100
AcDbCircle
 62
7
  6
CONTINUOUS
 10
429.5023010996
 20
117.3406274402
 40
98.6761507302
100
AcDbArc
 50
22.2609779608
 51
26.6069414076
  0
ARC
  5
45D
100
AcDbEntity
  8
0
100
AcDbCircle
 62
7
  6
CONTINUOUS
 10
455.5769209304
 20
102.8170074041
 40
18.2
100
AcDbArc
 50
250.0
 51
340.0
  0
ARC
  5
45E
100
AcDbEntity
  8
RUNDUNGEN
100
AcDbCircle
 62
7
  6
CONTINUOUS
 10
453.1337201164
 20
103.7062597768
 40
18.2
100
AcDbArc
 50
160.0
 51
250.0
  0
ARC
  5
45F
100
AcDbEntity
  8
0
100
AcDbCircle
 62
7
  6
CONTINUOUS
 10
455.5656620447
 20
102.7851107759
 40
18.1661762111
100
AcDbArc
 50
249.9989610864
 51
253.3240615168
  0
ARC
  5
460
100
AcDbEntity
  8
0
100
AcDbCircle
 62
7
  6
CONTINUOUS
 10
455.5394779286
 20
102.6994522368
 40
18.0766064644
100
AcDbArc
 50
253.3256541448
 51
254.0265161695
  0
ARC
  5
461
100
AcDbEntity
  8
0
100
AcDbCircle
 62
7
  6
CONTINUOUS
 10
455.4990433481
 20
102.5543143657
 40
17.925945229
100
AcDbArc
 50
254.0231042362
 51
256.9058832781
  0
ARC
  5
462
100
AcDbEntity
  8
0
100
AcDbCircle
 62
7
  6
CONTINUOUS
 10
455.455845249
 20
102.373909579
 40
17.7404445603
100
AcDbArc
 50
256.9097717271
 51
257.3787475807
  0
CIRCLE
  5
463
100
AcDbEntity
  8
BEZUGSACHSEN
100
AcDbCircle
 62
7
  6
CONTINUOUS
 10
455.4497849821
 20
106.268649977
 40
9.25
  0
ARC
  5
464
100
AcDbEntity
  8
RUNDUNGEN
100
AcDbCircle
 62
7
  6
CONTINUOUS
 10
459.2531107598
 20
140.1086368716
 40
6.0
100
AcDbArc
 50
76.8519886055
 51
159.9999125493
  0
ARC
  5
465
100
AcDbEntity
  8
KONSTRUKTIONSELEMENTE
100
AcDbCircle
 62
7
  6
CONTINUOUS
 10
415.1642302007
 20
170.1070035918
 40
9.55
100
AcDbArc
 50
115.0
 51
191.3702929546
  0
ARC
  5
466
100
AcDbEntity
  8
KONSTRUKTIONSELEMENTE
100
AcDbCircle
 62
7
  6
CONTINUOUS
 10
415.1642302007
 20
170.1070035918
 40
9.55
100
AcDbArc
 50
218.6297070454
 51
295.0
  0
ARC
  5
467
100
AcDbEntity
  8
KONSTRUKTIONSELEMENTE
100
AcDbCircle
 62
7
  6
CONTINUOUS
 10
425.9492928664
 20
175.1361609065
 40
9.55
100
AcDbArc
 50
295.0
 51
3.4834236623
  0
ARC
  5
468
100
AcDbEntity
  8
KONSTRUKTIONSELEMENTE
100
AcDbCircle
 62
7
  6
CONTINUOUS
 10
425.9492928664
 20
175.1361609065
 40
9.55
100
AcDbArc
 50
46.5165763377
 51
115.0
  0
ARC
  5
469
100
AcDbEntity
  8
KONSTRUKTIONSELEMENTE
100
AcDbCircle
 62
7
  6
CONTINUOUS
 10
415.1642302007
 20
170.1070035918
 40
4.55
100
AcDbArc
 50
115.0
 51
175.3477978529
  0
ARC
  5
46A
100
AcDbEntity
  8
KONSTRUKTIONSELEMENTE
100
AcDbCircle
 62
7
  6
CONTINUOUS
 10
415.1642302007
 20
170.1070035918
 40
4.55
100
AcDbArc
 50
234.6522021471
 51
295.0
  0
ARC
  5
46B
100
AcDbEntity
  8
KONSTRUKTIONSELEMENTE
100
AcDbCircle
 62
7
  6
CONTINUOUS
 10
425.9492928664
 20
175.1361609065
 40
4.55
100
AcDbArc
 50
295.0
 51
334.6813067117
  0
ARC
  5
46C
100
AcDbEntity
  8
KONSTRUKTIONSELEMENTE
100
AcDbCircle
 62
7
  6
CONTINUOUS
 10
425.9492928664
 20
175.1361609065
 40
4.55
100
AcDbArc
 50
75.3186932883
 51
115.0
  0
ARC
  5
46D
100
AcDbEntity
  8
KONSTRUKTIONSELEMENTE
100
AcDbCircle
 62
7
  6
CONTINUOUS
 10
425.9946082557
 20
175.1572918196
 40
3.5
100
AcDbArc
 50
115.0
 51
295.0
  0
ARC
  5
46E
100
AcDbEntity
  8
KONSTRUKTIONSELEMENTE
100
AcDbCircle
 62
7
  6
CONTINUOUS
 10
413.0797222905
 20
169.1349815898
 40
2.25
100
AcDbArc
 50
295.0
 51
115.0
  0
ARC
  5
46F
100
AcDbEntity
  8
KONSTRUKTIONSELEMENTE
100
AcDbCircle
 62
7
  6
CONTINUOUS
 10
468.5910742465
 20
195.0203501214
 40
3.5
100
AcDbArc
 50
295.0
 51
115.0
  0
ARC
  5
470
100
AcDbEntity
  8
0
100
AcDbCircle
 62
7
  6
CONTINUOUS
 10
607.4596128575
 20
182.1117918901
 40
98.6761507301
100
AcDbArc
 50
193.3930585924
 51
197.7390220392
  0
ARC
  5
471
100
AcDbEntity
  8
0
100
AcDbCircle
 62
7
  6
CONTINUOUS
 10
560.2456990414
 20
117.3406274402
 40
98.6761507302
100
AcDbArc
 50
153.3930585924
 51
157.7390220392
  0
ARC
  5
472
100
AcDbEntity
  8
0
100
AcDbCircle
 62
7
  6
CONTINUOUS
 10
534.1710792106
 20
102.8170074041
 40
18.2
100
AcDbArc
 50
200.0
 51
290.0
  0
ARC
  5
473
100
AcDbEntity
  8
RUNDUNGEN
100
AcDbCircle
 62
7
  6
CONTINUOUS
 10
536.6142800247
 20
103.7062597768
 40
18.2
100
AcDbArc
 50
290.0
 51
20.0
  0
ARC
  5
474
100
AcDbEntity
  8
RUNDUNGEN
100
AcDbCircle
 62
7
  6
CONTINUOUS
 10
536.6277216805
 20
103.6705018052
 40
18.1618011854
100
AcDbArc
 50
289.9987258299
 51
293.5541637674
  0
ARC
  5
475
100
AcDbEntity
  8
RUNDUNGEN
100
AcDbCircle
 62
7
  6
CONTINUOUS
 10
536.6649027941
 20
103.583605877
 40
18.0672870404
100
AcDbArc
 50
293.5561987662
 51
294.0823722752
  0
ARC
  5
476
100
AcDbEntity
  8
RUNDUNGEN
100
AcDbCircle
 62
7
  6
CONTINUOUS
 10
536.7284898698
 20
103.4443009999
 40
17.9141606532
100
AcDbArc
 50
294.0785050125
 51
297.0820430932
  0
ARC
  5
477
100
AcDbEntity
  8
RUNDUNGEN
100
AcDbCircle
 62
7
  6
CONTINUOUS
 10
536.8207968804
 20
103.2608928955
 40
17.7088380486
100
AcDbArc
 50
297.0862924982
 51
297.6817854217
  0
ARC
  5
478
100
AcDbEntity
  8
BEZUGSACHSEN
100
AcDbCircle
 62
7
  6
CONTINUOUS
 10
505.0212908903
 20
186.7063383162
 40
9.5
100
AcDbArc
 50
20.0
 51
43.2527041394
  0
ARC
  5
479
100
AcDbEntity
  8
BEZUGSACHSEN
100
AcDbCircle
 62
7
  6
CONTINUOUS
 10
505.0212908903
 20
186.7063383162
 40
9.5
100
AcDbArc
 50
176.7472958606
 51
200.0
  0
ARC
  5
47A
100
AcDbEntity
  8
BEZUGSACHSEN
100
AcDbCircle
 62
7
  6
CONTINUOUS
 10
484.7267092507
 20
186.7063383162
 40
9.5
100
AcDbArc
 50
136.7472958606
 51
160.0
  0
ARC
  5
47B
100
AcDbEntity
  8
BEZUGSACHSEN
100
AcDbCircle
 62
7
  6
CONTINUOUS
 10
484.7267092507
 20
186.7063383162
 40
9.5
100
AcDbArc
 50
340.0
 51
3.2527041394
  0
CIRCLE
  5
47C
100
AcDbEntity
  8
BEZUGSACHSEN
100
AcDbCircle
 62
7
  6
CONTINUOUS
 10
534.298215159
 20
106.268649977
 40
9.25
  0
ARC
  5
47D
100
AcDbEntity
  8
0
100
AcDbCircle
 62
7
  6
CONTINUOUS
 10
515.4598074486
 20
134.6363145784
 40
6.0
100
AcDbArc
 50
116.8529514418
 51
199.9997541295
  0
ARC
  5
47E
100
AcDbEntity
  8
RUNDUNGEN
100
AcDbCircle
 62
7
  6
CONTINUOUS
 10
530.4948893812
 20
140.1086368716
 40
6.0
100
AcDbArc
 50
20.0002458705
 51
103.1470485582
  0
ARC
  5
47F
100
AcDbEntity
  8
0
100
AcDbCircle
 62
7
  6
CONTINUOUS
 10
474.2881926924
 20
134.6363145784
 40
6.0
100
AcDbArc
 50
340.0
 51
63.1480113945
  0
ARC
  5
480
100
AcDbEntity
  8
0
100
AcDbCircle
 62
7
  6
CONTINUOUS
 10
494.8740000705
 20
207.2762797118
 40
58.5
100
AcDbArc
 50
301.8385067194
 51
360.0
  0
ARC
  5
481
100
AcDbEntity
  8
0
100
AcDbCircle
 62
7
  6
CONTINUOUS
 10
494.8740000705
 20
207.2762797118
 40
58.5
100
AcDbArc
 50
256.873099612
 51
283.126900388
  0
ARC
  5
482
100
AcDbEntity
  8
0
100
AcDbCircle
 62
7
  6
CONTINUOUS
 10
494.8740000705
 20
207.2762797118
 40
58.5
100
AcDbArc
 50
208.4305562089
 51
238.1614932806
  0
ARC
  5
483
100
AcDbEntity
  8
0
100
AcDbCircle
 62
7
  6
CONTINUOUS
 10
494.8740000705
 20
207.2762797118
 40
58.5
100
AcDbArc
 50
180.0
 51
201.5687407777
  0
ARC
  5
484
100
AcDbEntity
  8
0
100
AcDbCircle
 62
7
  6
CONTINUOUS
 10
494.8740000705
 20
282.2762797118
 40
58.5
100
AcDbArc
 50
0.0
 51
180.0
  0
ARC
  5
485
100
AcDbEntity
  8
0
100
AcDbCircle
 62
7
  6
CONTINUOUS
 10
494.8740000705
 20
207.2762797118
 40
32.5
100
AcDbArc
 50
311.6693794425
 51
360.0
  0
ARC
  5
486
100
AcDbEntity
  8
0
100
AcDbCircle
 62
7
  6
CONTINUOUS
 10
494.8740000705
 20
207.2762797118
 40
32.5
100
AcDbArc
 50
262.4425110441
 51
277.5574889559
  0
ARC
  5
487
100
AcDbEntity
  8
0
100
AcDbCircle
 62
7
  6
CONTINUOUS
 10
494.8740000705
 20
207.2762797118
 40
32.5
100
AcDbArc
 50
211.1842063579
 51
228.3306205575
  0
ARC
  5
488
100
AcDbEntity
  8
0
100
AcDbCircle
 62
7
  6
CONTINUOUS
 10
494.8740000705
 20
207.2762797118
 40
32.5
100
AcDbArc
 50
180.0
 51
198.8163289377
  0
ARC
  5
489
100
AcDbEntity
  8
0
100
AcDbCircle
 62
7
  6
CONTINUOUS
 10
494.8740000705
 20
282.2762797118
 40
32.5
100
AcDbArc
 50
0.0
 51
180.0
  0
ARC
  5
48A
100
AcDbEntity
  8
0
100
AcDbCircle
 62
7
  6
CONTINUOUS
 10
1131.4999174554
 20
446.5148167864
 40
1088.4324688917
100
AcDbArc
 50
195.3028046965
 51
195.6965847771
  0
ARC
  5
48B
100
AcDbEntity
  8
0
100
AcDbCircle
 62
7
  6
CONTINUOUS
 10
-850.5680402691
 20
438.4738179218
 40
1058.3428364123
100
AcDbArc
 50
344.2978174402
 51
344.7027930863
  0
ARC
  5
48C
100
AcDbEntity
  8
0
100
AcDbCircle
 62
7
  6
CONTINUOUS
 10
1010.1916748583
 20
-91.9769339308
 40
962.5186404547
100
AcDbArc
 50
163.440382164
 51
164.7290861075
  0
ARC
  5
48D
100
AcDbEntity
  8
0
100
AcDbCircle
 62
7
  6
CONTINUOUS
 10
-758.2553026727
 20
-91.9769339049
 40
962.5186403605
100
AcDbArc
 50
15.2709138924
 51
16.5596178361
  0
ARC
  5
48E
100
AcDbEntity
  8
0
100
AcDbCircle
 62
7
  6
CONTINUOUS
 10
-798.9530802563
 20
-100.5603425884
 40
918.7873550561
100
AcDbArc
 50
16.1317323811
 51
16.574489643
  0
ARC
  5
48F
100
AcDbEntity
  8
0
100
AcDbCircle
 62
7
  6
CONTINUOUS
 10
1048.8805251244
 20
-99.9708691723
 40
916.6937452728
100
AcDbArc
 50
163.4250047544
 51
163.8687732215
  0
ARC
  5
490
100
AcDbEntity
  8
0
100
AcDbCircle
 62
7
  6
CONTINUOUS
 10
357.8155277892
 20
-88.9597678463
 40
382.9230047628
100
AcDbArc
 50
131.5539219021
 51
134.8844358854
  0
ARC
  5
491
100
AcDbEntity
  8
0
100
AcDbCircle
 62
7
  6
CONTINUOUS
 10
-105.8791556765
 20
-88.9597678274
 40
382.923004737
100
AcDbArc
 50
45.1155641145
 51
48.4460780981
  0
ARC
  5
492
100
AcDbEntity
  8
0
100
AcDbCircle
 62
7
  6
CONTINUOUS
 10
58.9013748946
 20
-108.6257329127
 40
318.9527392059
100
AcDbArc
 50
73.7557085512
 51
75.4614988523
  0
ARC
  5
493
100
AcDbEntity
  8
0
100
AcDbCircle
 62
7
  6
CONTINUOUS
 10
191.2804458598
 20
-102.2521364045
 40
312.3428000983
100
AcDbArc
 50
104.5204504218
 51
106.2623421725
  0
ARC
  5
494
100
AcDbEntity
  8
KONSTRUKTIONSELEMENTE
100
AcDbCircle
 62
7
  6
CONTINUOUS
 10
125.9681860475
 20
45.7324655494
 40
46.8
100
AcDbArc
 50
56.2046564443
 51
80.9022287256
  0
ARC
  5
495
100
AcDbEntity
  8
KONSTRUKTIONSELEMENTE
100
AcDbCircle
 62
7
  6
CONTINUOUS
 10
125.9681860475
 20
45.7324655494
 40
46.8
100
AcDbArc
 50
99.0977712744
 51
123.7953435557
  0
ARC
  5
496
100
AcDbEntity
  8
0
100
AcDbCircle
 62
7
  6
CONTINUOUS
 10
125.9681860475
 20
327.7762797118
 40
13.0
100
AcDbArc
 50
0.0
 51
180.0
  0
ARC
  5
497
100
AcDbEntity
  8
0
100
AcDbCircle
 62
7
  6
CONTINUOUS
 10
125.9681860475
 20
161.7762797118
 40
13.0
100
AcDbArc
 50
180.0
 51
360.0
  0
ARC
  5
498
100
AcDbEntity
  8
BEZUGSACHSEN
100
AcDbCircle
 62
7
  6
CONTINUOUS
 10
101.6929842183
 20
112.4900287473
 40
2.6753504555
100
AcDbArc
 50
8.0456784282
 51
9.4681363923
  0
ARC
  5
499
100
AcDbEntity
  8
BEZUGSACHSEN
100
AcDbCircle
 62
7
  6
CONTINUOUS
 10
101.0433878765
 20
112.4900287473
 40
2.6753504554
100
AcDbArc
 50
170.5318636076
 51
171.9543215718
  0
ARC
  5
49A
100
AcDbEntity
  8
BEZUGSACHSEN
100
AcDbCircle
 62
7
  6
CONTINUOUS
 10
101.7010672266
 20
112.4911181621
 40
2.6671945331
100
AcDbArc
 50
4.6413549032
 51
8.0468089403
  0
ARC
  5
49B
100
AcDbEntity
  8
BEZUGSACHSEN
100
AcDbCircle
 62
7
  6
CONTINUOUS
 10
101.0353048684
 20
112.4911181621
 40
2.6671945331
100
AcDbArc
 50
171.9531910597
 51
175.3586450967
  0
ARC
  5
49C
100
AcDbEntity
  8
KONSTRUKTIONSELEMENTE
100
AcDbCircle
 62
7
  6
CONTINUOUS
 10
125.9681860475
 20
126.5005239512
 40
2.5
100
AcDbArc
 50
219.536124588
 51
320.463875412
  0
ARC
  5
49D
100
AcDbEntity
  8
KONSTRUKTIONSELEMENTE
100
AcDbCircle
 62
7
  6
CONTINUOUS
 10
125.9681860475
 20
145.6296812659
 40
2.5
100
AcDbArc
 50
11.0731730986
 51
25.6521016995
  0
ARC
  5
49E
100
AcDbEntity
  8
KONSTRUKTIONSELEMENTE
100
AcDbCircle
 62
7
  6
CONTINUOUS
 10
125.9681860475
 20
145.6296812659
 40
2.5
100
AcDbArc
 50
154.3478983005
 51
168.9268269014
  0
ARC
  5
49F
100
AcDbEntity
  8
0
100
AcDbCircle
 62
7
  6
CONTINUOUS
 10
123.8874459104
 20
121.7722415086
 40
1.0204347888
100
AcDbArc
 50
314.4977844757
 51
315.2820723699
  0
SPLINE
  5
4A0
100
AcDbEntity
  8
0
100
AcDbSpline
 62
7
  6
CONTINUOUS
 70
0
 71
3
 72
11
 73
7
 74
0
 42
0.0000001
 43
0.0000001
 44
0.0000000001
 40
0.0
 40
0.0
 40
0.0
 40
0.0
 40
0.2551771482
 40
0.5000000006
 40
0.7448228526
 40
1.0
 40
1.0
 40
1.0
 40
1.0
 10
496.312212745
 20
200.8930415756
 30
0.0
 10
496.2827309601
 20
200.3742834259
 30
0.0
 10
496.3081662759
 20
199.3494152081
 30
0.0
 10
496.6639673444
 20
197.8623824665
 30
0.0
 10
497.347254136
 20
196.4945447827
 30
0.0
 10
497.9865421434
 20
195.6931006751
 30
0.0
 10
498.3425778106
 20
195.3146594046
 30
0.0
  0
SPLINE
  5
4A1
100
AcDbEntity
  8
0
100
AcDbSpline
 62
7
  6
CONTINUOUS
 70
0
 71
3
 72
11
 73
7
 74
0
 42
0.0000001
 43
0.0000001
 44
0.0000000001
 40
0.0
 40
0.0
 40
0.0
 40
0.0
 40
0.2551771482
 40
0.5000000006
 40
0.7448228526
 40
1.0
 40
1.0
 40
1.0
 40
1.0
 10
502.5737947308
 20
203.1720710378
 30
0.0
 10
502.9298303993
 20
202.793629766
 30
0.0
 10
503.569118409
 20
201.992185657
 30
0.0
 10
504.2524051991
 20
200.6243479701
 30
0.0
 10
504.6082062646
 20
199.1373152299
 30
0.0
 10
504.6336415812
 20
198.1124470147
 30
0.0
 10
504.6041597964
 20
197.5936888668
 30
0.0
  0
SPLINE
  5
4A2
100
AcDbEntity
  8
0
100
AcDbSpline
 62
7
  6
CONTINUOUS
 70
0
 71
3
 72
11
 73
7
 74
0
 42
0.0000001
 43
0.0000001
 44
0.0000000001
 40
0.0
 40
0.0
 40
0.0
 40
0.0
 40
0.2500294942
 40
0.5000000006
 40
0.7499705067
 40
1.0
 40
1.0
 40
1.0
 40
1.0
 10
510.1512203136
 20
182.3532653516
 30
0.0
 10
510.9788205828
 20
180.6982656624
 30
0.0
 10
512.5465428975
 20
177.3439640511
 30
0.0
 10
514.601753238
 20
172.1847453257
 30
0.0
 10
516.343652645
 20
166.9114907534
 30
0.0
 10
517.2988111909
 20
163.3342341733
 30
0.0
 10
517.7286458963
 20
161.5344596654
 30
0.0
  0
SPLINE
  5
4A3
100
AcDbEntity
  8
0
100
AcDbSpline
 62
7
  6
CONTINUOUS
 70
0
 71
3
 72
11
 73
7
 74
0
 42
0.0000001
 43
0.0000001
 44
0.0000000001
 40
0.0
 40
0.0
 40
0.0
 40
0.0
 40
0.250391743
 40
0.5000000006
 40
0.7496082578
 40
1.0
 40
1.0
 40
1.0
 40
1.0
 10
504.6041597964
 20
197.5936888668
 30
0.0
 10
505.2617463585
 20
196.4043434172
 30
0.0
 10
506.4906267793
 20
193.9813308837
 30
0.0
 10
508.0396151739
 20
190.2143981413
 30
0.0
 10
509.2743589112
 20
186.3330897024
 30
0.0
 10
509.8904643276
 20
183.6870453141
 30
0.0
 10
510.1512203136
 20
182.3532653516
 30
0.0
  0
SPLINE
  5
4A4
100
AcDbEntity
  8
RUNDUNGEN
100
AcDbSpline
 62
7
  6
CONTINUOUS
 70
0
 71
3
 72
21
 73
17
 74
0
 42
0.0000001
 43
0.0000001
 44
0.0000000001
 40
0.0
 40
0.0
 40
0.0
 40
0.0
 40
0.132757348
 40
0.2637166388
 40
0.391846545
 40
0.5160012262
 40
0.5763736596
 40
0.6354279202
 40
0.6932205647
 40
0.7501681365
 40
0.778798421
 40
0.8078638659
 40
0.8377367771
 40
0.8687097745
 40
0.9333685728
 40
1.0
 40
1.0
 40
1.0
 40
1.0
 10
545.047624455
 20
87.578984431
 30
0.0
 10
545.7255365644
 20
87.9346248038
 30
0.0
 10
547.0281732354
 20
88.7295222756
 30
0.0
 10
548.779749313
 20
90.1699011975
 30
0.0
 10
550.249249355
 20
91.8340144668
 30
0.0
 10
551.1709140081
 20
93.4029922782
 30
0.0
 10
551.6396456146
 20
94.731514067
 30
0.0
 10
551.8288792163
 20
95.7409522497
 30
0.0
 10
551.8229350702
 20
96.7502608065
 30
0.0
 10
551.6071602521
 20
97.5627892715
 30
0.0
 10
551.276378433
 20
98.1394664566
 30
0.0
 10
550.9388108822
 20
98.520494529
 30
0.0
 10
550.5109711919
 20
98.8220779887
 30
0.0
 10
549.8304374007
 20
99.087995428
 30
0.0
 10
548.8688296604
 20
99.1127032712
 30
0.0
 10
548.1345655269
 20
98.9069986124
 30
0.0
 10
547.7735118185
 20
98.7755858096
 30
0.0
  0
LINE
  5
4A5
100
AcDbEntity
  8
0
100
AcDbLine
 62
7
  6
CONTINUOUS
 10
519.7477066992
 20
122.8554082106
 11
513.4625197527
 21
122.5809910222
  0
SPLINE
  5
4A6
100
AcDbEntity
  8
0
100
AcDbSpline
 62
7
  6
CONTINUOUS
 70
0
 71
3
 72
9
 73
5
 74
0
 42
0.0000001
 43
0.0000001
 44
0.0000000001
 40
0.0
 40
0.0
 40
0.0
 40
0.0
 40
0.4841561799
 40
1.0
 40
1.0
 40
1.0
 40
1.0
 10
512.7495939168
 20
139.9893270584
 30
0.0
 10
512.855551229
 20
140.0429729153
 30
0.0
 10
513.0933565634
 20
140.1193684807
 30
0.0
 10
513.3419844356
 20
140.1221880957
 30
0.0
 10
513.4678500257
 20
140.1091726185
 30
0.0
  0
LINE
  5
4A7
100
AcDbEntity
  8
0
100
AcDbLine
 62
7
  6
CONTINUOUS
 10
510.9807149611
 20
113.3187694456
 11
517.2659019076
 21
113.593186634
  0
SPLINE
  5
4A8
100
AcDbEntity
  8
0
100
AcDbSpline
 62
7
  6
CONTINUOUS
 70
0
 71
3
 72
11
 73
7
 74
0
 42
0.0000001
 43
0.0000001
 44
0.0000000001
 40
0.0
 40
0.0
 40
0.0
 40
0.0
 40
0.2500294942
 40
0.5000000006
 40
0.7499705067
 40
1.0
 40
1.0
 40
1.0
 40
1.0
 10
503.8896383278
 20
180.0742358893
 30
0.0
 10
504.3194730347
 20
178.2744613753
 30
0.0
 10
505.274631582
 20
174.6972047861
 30
0.0
 10
507.0165309936
 20
169.4239502085
 30
0.0
 10
509.0717413342
 20
164.26473149
 30
0.0
 10
510.6394636442
 20
160.9104298867
 30
0.0
 10
511.4670639105
 20
159.2554302031
 30
0.0
  0
SPLINE
  5
4A9
100
AcDbEntity
  8
0
100
AcDbSpline
 62
7
  6
CONTINUOUS
 70
0
 71
3
 72
11
 73
7
 74
0
 42
0.0000001
 43
0.0000001
 44
0.0000000001
 40
0.0
 40
0.0
 40
0.0
 40
0.0
 40
0.250391743
 40
0.5000000006
 40
0.7496082578
 40
1.0
 40
1.0
 40
1.0
 40
1.0
 10
498.3425778106
 20
195.3146594046
 30
0.0
 10
498.6033337975
 20
193.9808794375
 30
0.0
 10
499.2194392146
 20
191.3348350424
 30
0.0
 10
500.4541829558
 20
187.4535265998
 30
0.0
 10
502.003171351
 20
183.6865938628
 30
0.0
 10
503.232051768
 20
181.2635813349
 30
0.0
 10
503.8896383278
 20
180.0742358893
 30
0.0
  0
LINE
  5
4AA
100
AcDbEntity
  8
RUNDUNGEN
100
AcDbLine
 62
7
  6
CONTINUOUS
 10
534.7827886317
 20
128.3277305038
 11
539.7739131347
 21
132.1575550353
  0
SPLINE
  5
4AB
100
AcDbEntity
  8
RUNDUNGEN
100
AcDbSpline
 62
7
  6
CONTINUOUS
 70
0
 71
3
 72
9
 73
5
 74
0
 42
0.0000001
 43
0.0000001
 44
0.0000000001
 40
0.0
 40
0.0
 40
0.0
 40
0.0
 40
0.4841561799
 40
1.0
 40
1.0
 40
1.0
 40
1.0
 10
529.1301833003
 20
145.9513740138
 30
0.0
 10
529.0145323979
 20
145.9243610769
 30
0.0
 10
528.7832568201
 20
145.8300251527
 30
0.0
 10
528.5909844066
 20
145.6723701874
 30
0.0
 10
528.5029319582
 20
145.5814949117
 30
0.0
  0
LINE
  5
4AC
100
AcDbEntity
  8
RUNDUNGEN
100
AcDbLine
 62
7
  6
CONTINUOUS
 10
547.6287271718
 20
126.6575550353
 11
542.6376026688
 21
122.8277305038
  0
SPLINE
  5
4AD
100
AcDbEntity
  8
0
100
AcDbSpline
 62
7
  6
CONTINUOUS
 70
0
 71
3
 72
23
 73
19
 74
0
 42
0.0000001
 43
0.0000001
 44
0.0000000001
 40
0.0
 40
0.0
 40
0.0
 40
0.0
 40
0.1325302002
 40
0.2639698533
 40
0.3931458519
 40
0.4565468746
 40
0.5188786075
 40
0.5799622752
 40
0.6396390499
 40
0.6978304833
 40
0.754695653
 40
0.8111197531
 40
0.8401234276
 40
0.8701692631
 40
0.9014955719
 40
0.9338765407
 40
0.9668396335
 40
1.0
 40
1.0
 40
1.0
 40
1.0
 10
540.3958484618
 20
85.7146026677
 30
0.0
 10
539.5773950619
 20
85.4167098488
 30
0.0
 10
537.9021043054
 20
84.9391658103
 30
0.0
 10
535.3312600855
 20
84.602337703
 30
0.0
 10
533.1905124434
 20
84.6698384524
 30
0.0
 10
531.5386014566
 20
84.963522962
 30
0.0
 10
530.3572878697
 20
85.3079402745
 30
0.0
 10
529.2492260046
 20
85.7860932046
 30
0.0
 10
528.2446238281
 20
86.4072336753
 30
0.0
 10
527.3869976391
 20
87.1829393111
 30
0.0
 10
526.7422568759
 20
88.123053605
 30
0.0
 10
526.4891853581
 20
89.0529900543
 30
0.0
 10
526.5580719827
 20
89.8168345673
 30
0.0
 10
526.7692094799
 20
90.3801258818
 30
0.0
 10
527.1361183469
 20
90.8836260791
 30
0.0
 10
527.6229452615
 20
91.2989621482
 30
0.0
 10
528.1851469182
 20
91.6248999494
 30
0.0
 10
528.5872026944
 20
91.792340383
 30
0.0
 10
528.7919878389
 20
91.86687608
 30
0.0
  0
SPLINE
  5
4AE
100
AcDbEntity
  8
0
100
AcDbSpline
 62
7
  6
CONTINUOUS
 70
0
 71
3
 72
11
 73
7
 74
0
 42
0.0000001
 43
0.0000001
 44
0.0000000001
 40
0.0
 40
0.0
 40
0.0
 40
0.0
 40
0.2500294942
 40
0.5000000006
 40
0.7499705067
 40
1.0
 40
1.0
 40
1.0
 40
1.0
 10
472.0193542447
 20
161.5344596654
 30
0.0
 10
472.4491889516
 20
163.3342341795
 30
0.0
 10
473.404347499
 20
166.9114907686
 30
0.0
 10
475.1462469105
 20
172.1847453462
 30
0.0
 10
477.2014572511
 20
177.3439640647
 30
0.0
 10
478.7691795611
 20
180.698265668
 30
0.0
 10
479.5967798275
 20
182.3532653516
 30
0.0
  0
LINE
  5
4AF
100
AcDbEntity
  8
0
100
AcDbLine
 62
7
  6
CONTINUOUS
 10
472.4820982334
 20
113.593186634
 11
478.7672851799
 21
113.3187694456
  0
LINE
  5
4B0
100
AcDbEntity
  8
0
100
AcDbLine
 62
7
  6
CONTINUOUS
 10
470.0002934419
 20
122.8554082106
 11
476.2854803884
 21
122.5809910222
  0
SPLINE
  5
4B1
100
AcDbEntity
  8
0
100
AcDbSpline
 62
7
  6
CONTINUOUS
 70
0
 71
3
 72
9
 73
5
 74
0
 42
0.0000001
 43
0.0000001
 44
0.0000000001
 40
0.0
 40
0.0
 40
0.0
 40
0.0
 40
0.515843987
 40
1.0
 40
1.0
 40
1.0
 40
1.0
 10
476.2801501154
 20
140.1091726185
 30
0.0
 10
476.4059986926
 20
140.1221863364
 30
0.0
 10
476.6545918179
 20
140.119370958
 30
0.0
 10
476.8923686663
 20
140.0430019215
 30
0.0
 10
476.9983162687
 20
139.9893726017
 30
0.0
  0
SPLINE
  5
4B2
100
AcDbEntity
  8
0
100
AcDbSpline
 62
7
  6
CONTINUOUS
 70
0
 71
3
 72
11
 73
7
 74
0
 42
0.0000001
 43
0.0000001
 44
0.0000000001
 40
0.0
 40
0.0
 40
0.0
 40
0.0
 40
0.2551771482
 40
0.5000000006
 40
0.7448228526
 40
1.0
 40
1.0
 40
1.0
 40
1.0
 10
485.1438403446
 20
197.5936888668
 30
0.0
 10
485.1143585598
 20
198.1124470165
 30
0.0
 10
485.1397938755
 20
199.1373152343
 30
0.0
 10
485.495594944
 20
200.6243479759
 30
0.0
 10
486.1788817356
 20
201.9921856597
 30
0.0
 10
486.818169743
 20
202.7936297673
 30
0.0
 10
487.1742054102
 20
203.1720710378
 30
0.0
  0
SPLINE
  5
4B3
100
AcDbEntity
  8
0
100
AcDbSpline
 62
7
  6
CONTINUOUS
 70
0
 71
3
 72
11
 73
7
 74
0
 42
0.0000001
 43
0.0000001
 44
0.0000000001
 40
0.0
 40
0.0
 40
0.0
 40
0.0
 40
0.250391743
 40
0.5000000006
 40
0.7496082578
 40
1.0
 40
1.0
 40
1.0
 40
1.0
 10
479.5967798275
 20
182.3532653516
 30
0.0
 10
479.8575358144
 20
183.6870453186
 30
0.0
 10
480.4736412314
 20
186.3330897138
 30
0.0
 10
481.7083849727
 20
190.2143981563
 30
0.0
 10
483.2573733679
 20
193.9813308934
 30
0.0
 10
484.4862537848
 20
196.4043434213
 30
0.0
 10
485.1438403446
 20
197.5936888668
 30
0.0
  0
SPLINE
  5
4B4
100
AcDbEntity
  8
0
100
AcDbSpline
 62
7
  6
CONTINUOUS
 70
0
 71
3
 72
11
 73
7
 74
0
 42
0.0000001
 43
0.0000001
 44
0.0000000001
 40
0.0
 40
0.0
 40
0.0
 40
0.0
 40
0.2551771482
 40
0.5000000006
 40
0.7448228526
 40
1.0
 40
1.0
 40
1.0
 40
1.0
 10
491.4054223304
 20
195.3146594046
 30
0.0
 10
491.7614579989
 20
195.6931006764
 30
0.0
 10
492.4007460086
 20
196.4945447854
 30
0.0
 10
493.0840327987
 20
197.8623824722
 30
0.0
 10
493.4398338642
 20
199.3494152125
 30
0.0
 10
493.4652691808
 20
200.3742834277
 30
0.0
 10
493.435787396
 20
200.8930415756
 30
0.0
  0
SPLINE
  5
4B5
100
AcDbEntity
  8
0
100
AcDbSpline
 62
7
  6
CONTINUOUS
 70
0
 71
3
 72
11
 73
7
 74
0
 42
0.0000001
 43
0.0000001
 44
0.0000000001
 40
0.0
 40
0.0
 40
0.0
 40
0.0
 40
0.250391743
 40
0.5000000006
 40
0.7496082578
 40
1.0
 40
1.0
 40
1.0
 40
1.0
 10
485.8583618133
 20
180.0742358893
 30
0.0
 10
486.5159483753
 20
181.263581339
 30
0.0
 10
487.7448287961
 20
183.6865938724
 30
0.0
 10
489.2938171907
 20
187.4535266149
 30
0.0
 10
490.528560928
 20
191.3348350537
 30
0.0
 10
491.1446663444
 20
193.9808794421
 30
0.0
 10
491.4054223304
 20
195.3146594046
 30
0.0
  0
SPLINE
  5
4B6
100
AcDbEntity
  8
0
100
AcDbSpline
 62
7
  6
CONTINUOUS
 70
0
 71
3
 72
11
 73
7
 74
0
 42
0.0000001
 43
0.0000001
 44
0.0000000001
 40
0.0
 40
0.0
 40
0.0
 40
0.0
 40
0.2500294942
 40
0.5000000006
 40
0.7499705067
 40
1.0
 40
1.0
 40
1.0
 40
1.0
 10
478.2809362305
 20
159.2554302031
 30
0.0
 10
479.1085364997
 20
160.9104298923
 30
0.0
 10
480.6762588144
 20
164.2647315036
 30
0.0
 10
482.7314691549
 20
169.423950229
 30
0.0
 10
484.473368562
 20
174.6972048013
 30
0.0
 10
485.4285271078
 20
178.2744613814
 30
0.0
 10
485.8583618133
 20
180.0742358893
 30
0.0
  0
LINE
  5
4B7
100
AcDbEntity
  8
RUNDUNGEN
100
AcDbLine
 62
7
  6
CONTINUOUS
 10
447.1103974722
 20
122.8277305038
 11
442.1192729693
 21
126.6575550353
  0
LINE
  5
4B8
100
AcDbEntity
  8
RUNDUNGEN
100
AcDbLine
 62
7
  6
CONTINUOUS
 10
454.9652115093
 20
128.3277305038
 11
449.9740870064
 21
132.1575550353
  0
SPLINE
  5
4B9
100
AcDbEntity
  8
RUNDUNGEN
100
AcDbSpline
 62
7
  6
CONTINUOUS
 70
0
 71
3
 72
9
 73
5
 74
0
 42
0.0000001
 43
0.0000001
 44
0.0000000001
 40
0.0
 40
0.0
 40
0.0
 40
0.0
 40
0.515843987
 40
1.0
 40
1.0
 40
1.0
 40
1.0
 10
461.2450681828
 20
145.5814949117
 30
0.0
 10
461.1570276362
 20
145.6723579042
 30
0.0
 10
460.9647845636
 20
145.8299937799
 30
0.0
 10
460.7335478597
 20
145.9243317159
 30
0.0
 10
460.6179150255
 20
145.9513510796
 30
0.0
  0
SPLINE
  5
4BA
100
AcDbEntity
  8
RUNDUNGEN
100
AcDbSpline
 62
7
  6
CONTINUOUS
 70
0
 71
3
 72
23
 73
19
 74
0
 42
0.0000001
 43
0.0000001
 44
0.0000000001
 40
0.0
 40
0.0
 40
0.0
 40
0.0
 40
0.0331605973
 40
0.0661241931
 40
0.0985073351
 40
0.1298378226
 40
0.1598853495
 40
0.1888887806
 40
0.2453145137
 40
0.3021803938
 40
0.3603725853
 40
0.4200492647
 40
0.4811321774
 40
0.543463744
 40
0.6068647369
 40
0.7360394838
 40
0.8674769933
 40
1.0
 40
1.0
 40
1.0
 40
1.0
 10
441.9744883225
 20
98.7755858096
 30
0.0
 10
441.7697018091
 20
98.8501220049
 30
0.0
 10
441.3540760995
 20
98.9802931204
 30
0.0
 10
440.7138768629
 20
99.09198884
 30
0.0
 10
440.0739275384
 20
99.086743872
 30
0.0
 10
439.4691655958
 20
98.9368446892
 30
0.0
 10
438.9453496697
 20
98.6409780941
 30
0.0
 10
438.4016009428
 20
98.1000816192
 30
0.0
 10
437.9977741882
 20
97.2249918751
 30
0.0
 10
437.8874204633
 20
96.0903708911
 30
0.0
 10
438.0458411034
 20
94.9448718261
 30
0.0
 10
438.4161861342
 20
93.8233192896
 30
0.0
 10
438.9576832371
 20
92.7448041835
 30
0.0
 10
439.6412526514
 20
91.7216514386
 30
0.0
 10
440.7179328233
 20
90.4348779901
 30
0.0
 10
442.3144479493
 20
89.0071553632
 30
0.0
 10
444.5002920386
 20
87.6127325661
 30
0.0
 10
446.0905447117
 20
86.9017305197
 30
0.0
 10
446.9089535079
 20
86.6038540785
 30
0.0
  0
SPLINE
  5
4BB
100
AcDbEntity
  8
0
100
AcDbSpline
 62
7
  6
CONTINUOUS
 70
0
 71
3
 72
21
 73
17
 74
0
 42
0.0000001
 43
0.0000001
 44
0.0000000001
 40
0.0
 40
0.0
 40
0.0
 40
0.0
 40
0.0666058476
 40
0.1312166655
 40
0.1621553146
 40
0.1919929869
 40
0.22102821
 40
0.2496385378
 40
0.3065772658
 40
0.3643830598
 40
0.4234609811
 40
0.48386113
 40
0.6080741501
 40
0.736252069
 40
0.8672406927
 40
1.0
 40
1.0
 40
1.0
 40
1.0
 10
460.9560123021
 20
91.86687608
 30
0.0
 10
461.3188730364
 20
91.7348055736
 30
0.0
 10
462.0169170627
 20
91.418666104
 30
0.0
 10
462.7396193971
 20
90.7763336109
 30
0.0
 10
463.0881084206
 20
90.130349811
 30
0.0
 10
463.219144359
 20
89.6212137949
 30
0.0
 10
463.2291180431
 20
89.1100082006
 30
0.0
 10
463.1065073995
 20
88.4533145067
 30
0.0
 10
462.7423917187
 20
87.6907054862
 30
0.0
 10
462.0898328023
 20
86.9134328379
 30
0.0
 10
461.2877639477
 20
86.2625907555
 30
0.0
 10
460.0638423901
 20
85.5485124091
 30
0.0
 10
458.3362954876
 20
84.9441554048
 30
0.0
 10
456.1267179141
 20
84.6227907238
 30
0.0
 10
453.8465162537
 20
84.6565859937
 30
0.0
 10
452.3305412987
 20
84.8939730191
 30
0.0
 10
451.5794655429
 20
85.0621490224
 30
0.0
  0
SPLINE
  5
4BC
100
AcDbEntity
  8
KONSTRUKTIONSELEMENTE
100
AcDbSpline
 62
7
  6
CONTINUOUS
 70
0
 71
3
 72
10
 73
6
 74
0
 42
0.0000001
 43
0.0000001
 44
0.0000000001
 40
0.0
 40
0.0
 40
0.0
 40
0.0
 40
0.2563441679
 40
0.5071596424
 40
1.0
 40
1.0
 40
1.0
 40
1.0
 10
117.9681860475
 20
148.1097230682
 30
0.0
 10
117.9681860475
 20
148.3605675663
 30
0.0
 10
118.0251244302
 20
148.8590705909
 30
0.0
 10
118.3547755332
 20
149.7868421017
 30
0.0
 10
118.8050737042
 20
150.3854623429
 30
0.0
 10
119.153433131
 20
150.7189694885
 30
0.0
  0
SPLINE
  5
4BD
100
AcDbEntity
  8
KONSTRUKTIONSELEMENTE
100
AcDbSpline
 62
7
  6
CONTINUOUS
 70
0
 71
3
 72
10
 73
6
 74
0
 42
0.0000001
 43
0.0000001
 44
0.0000000001
 40
0.0
 40
0.0
 40
0.0
 40
0.0
 40
0.4926585103
 40
0.7439237824
 40
1.0
 40
1.0
 40
1.0
 40
1.0
 10
132.7849857877
 20
150.7165822462
 30
0.0
 10
133.1329250042
 20
150.3836411328
 30
0.0
 10
133.5827879722
 20
149.785210697
 30
0.0
 10
133.9111215752
 20
148.8581228168
 30
0.0
 10
133.9681860475
 20
148.3600366323
 30
0.0
 10
133.9681860475
 20
148.1097230682
 30
0.0
  0
SPLINE
  5
4BE
100
AcDbEntity
  8
KONSTRUKTIONSELEMENTE
100
AcDbSpline
 62
7
  6
CONTINUOUS
 70
0
 71
3
 72
21
 73
17
 74
0
 42
0.0000001
 43
0.0000001
 44
0.0000000001
 40
0.0
 40
0.0
 40
0.0
 40
0.0
 40
0.0073299448
 40
0.0116349572
 40
0.0270491491
 40
0.0531469765
 40
0.0700972115
 40
0.0896032574
 40
0.1360067067
 40
0.1916504812
 40
0.2557925224
 40
0.3277076971
 40
0.406713593
 40
0.5837946695
 40
0.7828707148
 40
1.0
 40
1.0
 40
1.0
 40
1.0
 10
122.2702291871
 20
147.4735915463
 30
0.0
 10
122.2678007682
 20
147.4705681089
 30
0.0
 10
122.2590258774
 20
147.4607224012
 30
0.0
 10
122.2750939788
 20
147.4749548529
 30
0.0
 10
122.2893027262
 20
147.4870963085
 30
0.0
 10
122.3157903546
 20
147.5078478932
 30
0.0
 10
122.3422234901
 20
147.5268169394
 30
0.0
 10
122.3786792087
 20
147.5515208218
 30
0.0
 10
122.4332949994
 20
147.585299687
 30
0.0
 10
122.509931219
 20
147.628531764
 30
0.0
 10
122.600077375
 20
147.6750208267
 30
0.0
 10
122.7030197657
 20
147.7235545639
 30
0.0
 10
122.8625689396
 20
147.791872906
 30
0.0
 10
123.0884876302
 20
147.8756830977
 30
0.0
 10
123.3883751464
 20
147.9688019852
 30
0.0
 10
123.601866287
 20
148.0231586553
 30
0.0
 10
123.713786406
 20
148.0490376065
 30
0.0
  0
SPLINE
  5
4BF
100
AcDbEntity
  8
KONSTRUKTIONSELEMENTE
100
AcDbSpline
 62
7
  6
CONTINUOUS
 70
0
 71
3
 72
11
 73
7
 74
0
 42
0.0000001
 43
0.0000001
 44
0.0000000001
 40
0.0
 40
0.0
 40
0.0
 40
0.0
 40
0.3523499238
 40
0.6497045865
 40
0.8730767278
 40
1.0
 40
1.0
 40
1.0
 40
1.0
 10
128.221735201
 20
148.0492027293
 30
0.0
 10
128.3982363713
 20
148.0083722488
 30
0.0
 10
128.7211863672
 20
147.9216930668
 30
0.0
 10
129.1442752033
 20
147.7690806842
 30
0.0
 10
129.4440145061
 20
147.6234257739
 30
0.0
 10
129.5978137091
 20
147.527856732
 30
0.0
 10
129.6482624205
 20
147.4864615859
 30
0.0
  0
SPLINE
  5
4C0
100
AcDbEntity
  8
0
100
AcDbSpline
 62
7
  6
CONTINUOUS
 70
0
 71
3
 72
21
 73
17
 74
0
 42
0.0000001
 43
0.0000001
 44
0.0000000001
 40
0.0
 40
0.0
 40
0.0
 40
0.0
 40
0.036429992
 40
0.0784508336
 40
0.1291527005
 40
0.1893637365
 40
0.258405048
 40
0.3346976463
 40
0.5
 40
0.6653023537
 40
0.741594952
 40
0.8106362635
 40
0.8708472995
 40
0.9215491664
 40
0.963570008
 40
1.0
 40
1.0
 40
1.0
 40
1.0
 10
127.9422796836
 20
119.2715286592
 30
0.0
 10
127.9422796836
 20
119.202321102
 30
0.0
 10
127.9804486279
 20
119.0521765641
 30
0.0
 10
128.1326542063
 20
118.8542761143
 30
0.0
 10
128.366065892
 20
118.6775275966
 30
0.0
 10
128.6731444985
 20
118.5241358634
 30
0.0
 10
129.0438647958
 20
118.3985015923
 30
0.0
 10
129.6209353093
 20
118.2707914182
 30
0.0
 10
130.395467668
 20
118.2101179885
 30
0.0
 10
131.1700000266
 20
118.2707914182
 30
0.0
 10
131.7470705401
 20
118.3985015923
 30
0.0
 10
132.1177908374
 20
118.5241358634
 30
0.0
 10
132.4248694439
 20
118.6775275966
 30
0.0
 10
132.6582811296
 20
118.8542761143
 30
0.0
 10
132.8104867081
 20
119.0521765641
 30
0.0
 10
132.8486556523
 20
119.202321102
 30
0.0
 10
132.8486556523
 20
119.2715286592
 30
0.0
  0
SPLINE
  5
4C1
100
AcDbEntity
  8
0
100
AcDbSpline
 62
7
  6
CONTINUOUS
 70
0
 71
3
 72
12
 73
8
 74
0
 42
0.0000001
 43
0.0000001
 44
0.0000000001
 40
0.0
 40
0.0
 40
0.0
 40
0.0
 40
0.3669355679
 40
0.5075819268
 40
0.6629559315
 40
0.8288501966
 40
1.0
 40
1.0
 40
1.0
 40
1.0
 10
124.813390849
 20
120.8881193462
 30
0.0
 10
124.8133001354
 20
121.2495343315
 30
0.0
 10
124.2495587539
 20
121.6114470993
 30
0.0
 10
123.6533063536
 20
121.8079383342
 30
0.0
 10
123.2037158688
 20
121.9092309459
 30
0.0
 10
122.7233257948
 20
121.9691029305
 30
0.0
 10
122.3908545263
 20
121.9829265427
 30
0.0
 10
122.2222796836
 20
121.9829265427
 30
0.0
  0
SPLINE
  5
4C2
100
AcDbEntity
  8
RUNDUNGEN
100
AcDbSpline
 62
7
  6
CONTINUOUS
 70
0
 71
3
 72
11
 73
7
 74
0
 42
0.0000001
 43
0.0000001
 44
0.0000000001
 40
0.0
 40
0.0
 40
0.0
 40
0.0
 40
0.1798766318
 40
0.3982523461
 40
0.6718117087
 40
1.0
 40
1.0
 40
1.0
 40
1.0
 10
83.5784869474
 20
125.7214650987
 30
0.0
 10
83.5785585179
 20
125.7893417966
 30
0.0
 10
83.6273357585
 20
125.9402834999
 30
0.0
 10
83.8083030636
 20
126.1248874803
 30
0.0
 10
84.0768731167
 20
126.2827668715
 30
0.0
 10
84.2912453147
 20
126.3609325935
 30
0.0
 10
84.409997302
 20
126.3960737401
 30
0.0
  0
SPLINE
  5
4C3
100
AcDbEntity
  8
RUNDUNGEN
100
AcDbSpline
 62
7
  6
CONTINUOUS
 70
0
 71
3
 72
11
 73
7
 74
0
 42
0.0000001
 43
0.0000001
 44
0.0000000001
 40
0.0
 40
0.0
 40
0.0
 40
0.0
 40
0.2073680663
 40
0.4349416349
 40
0.6970147995
 40
1.0
 40
1.0
 40
1.0
 40
1.0
 10
83.5784852672
 20
121.1898933848
 30
0.0
 10
83.5784450957
 20
121.1473956414
 30
0.0
 10
83.595436282
 20
121.0576275749
 30
0.0
 10
83.6678381401
 20
120.9322113997
 30
0.0
 10
83.7824896301
 20
120.8154033589
 30
0.0
 10
83.877963905
 20
120.7488653561
 30
0.0
 10
83.9311248665
 20
120.7167794503
 30
0.0
  0
SPLINE
  5
4C4
100
AcDbEntity
  8
RUNDUNGEN
100
AcDbSpline
 62
7
  6
CONTINUOUS
 70
0
 71
3
 72
13
 73
9
 74
0
 42
0.0000001
 43
0.0000001
 44
0.0000000001
 40
0.0
 40
0.0
 40
0.0
 40
0.0
 40
0.087766182
 40
0.1810036643
 40
0.2840503533
 40
0.3996816613
 40
0.6725570141
 40
1.0
 40
1.0
 40
1.0
 40
1.0
 10
70.026606705
 20
134.4395961364
 30
0.0
 10
70.0265734668
 20
134.5418074483
 30
0.0
 10
70.0575774184
 20
134.7536586098
 30
0.0
 10
70.1930507162
 20
135.0590156455
 30
0.0
 10
70.4122814411
 20
135.3517746668
 30
0.0
 10
70.8337119428
 20
135.7426724508
 30
0.0
 10
71.5604974576
 20
136.1683271988
 30
0.0
 10
72.2194837986
 20
136.408982134
 30
0.0
 10
72.5851451617
 20
136.5171888247
 30
0.0
  0
SPLINE
  5
4C5
100
AcDbEntity
  8
RUNDUNGEN
100
AcDbSpline
 62
7
  6
CONTINUOUS
 70
0
 71
3
 72
11
 73
7
 74
0
 42
0.0000001
 43
0.0000001
 44
0.0000000001
 40
0.0
 40
0.0
 40
0.0
 40
0.0
 40
0.2073674857
 40
0.4349665238
 40
0.6969834388
 40
1.0
 40
1.0
 40
1.0
 40
1.0
 10
70.026606705
 20
129.9080572012
 30
0.0
 10
70.0266491884
 20
129.7774159046
 30
0.0
 10
70.0794459694
 20
129.5015595146
 30
0.0
 10
70.3022072822
 20
129.1162232666
 30
0.0
 10
70.6547377018
 20
128.7572178819
 30
0.0
 10
70.9482533656
 20
128.5527399144
 30
0.0
 10
71.1116915141
 20
128.4540949521
 30
0.0
  0
SPLINE
  5
4C6
100
AcDbEntity
  8
RUNDUNGEN
100
AcDbSpline
 62
7
  6
CONTINUOUS
 70
0
 71
3
 72
11
 73
7
 74
0
 42
0.0000001
 43
0.0000001
 44
0.0000000001
 40
0.0
 40
0.0
 40
0.0
 40
0.0
 40
0.2073612465
 40
0.4349778014
 40
0.6969207953
 40
1.0
 40
1.0
 40
1.0
 40
1.0
 10
81.9681860475
 20
91.6772845208
 30
0.0
 10
81.9681860475
 20
91.807954307
 30
0.0
 10
82.0208312671
 20
92.083922484
 30
0.0
 10
82.2436204407
 20
92.4693423117
 30
0.0
 10
82.5961527695
 20
92.828516781
 30
0.0
 10
82.8897612849
 20
93.0330179437
 30
0.0
 10
83.0532737818
 20
93.1317077798
 30
0.0
  0
SPLINE
  5
4C7
100
AcDbEntity
  8
RUNDUNGEN
100
AcDbSpline
 62
7
  6
CONTINUOUS
 70
0
 71
3
 72
11
 73
7
 74
0
 42
0.0000001
 43
0.0000001
 44
0.0000000001
 40
0.0
 40
0.0
 40
0.0
 40
0.0
 40
0.303079099
 40
0.5650220367
 40
0.7926386712
 40
1.0
 40
1.0
 40
1.0
 40
1.0
 10
168.8830983132
 20
93.1317077798
 30
0.0
 10
169.0466107529
 20
93.0330179782
 30
0.0
 10
169.3402191913
 20
92.8285168876
 30
0.0
 10
169.692751514
 20
92.4693424903
 30
0.0
 10
169.9155407751
 20
92.0839226365
 30
0.0
 10
169.9681860475
 20
91.8079543588
 30
0.0
 10
169.9681860475
 20
91.6772845208
 30
0.0
  0
SPLINE
  5
4C8
100
AcDbEntity
  8
RUNDUNGEN
100
AcDbSpline
 62
7
  6
CONTINUOUS
 70
0
 71
3
 72
11
 73
7
 74
0
 42
0.0000001
 43
0.0000001
 44
0.0000000001
 40
0.0
 40
0.0
 40
0.0
 40
0.0
 40
0.3281880224
 40
0.6017636307
 40
0.8201358874
 40
1.0
 40
1.0
 40
1.0
 40
1.0
 10
182.6278351104
 20
135.5475733187
 30
0.0
 10
182.749633617
 20
135.5115306446
 30
0.0
 10
182.9695108219
 20
135.4313564185
 30
0.0
 10
183.2449758699
 20
135.2694236057
 30
0.0
 10
183.4305790088
 20
135.0800756154
 30
0.0
 10
183.480598327
 20
134.9252651865
 30
0.0
 10
183.4806677662
 20
134.8556519322
 30
0.0
  0
SPLINE
  5
4C9
100
AcDbEntity
  8
RUNDUNGEN
100
AcDbSpline
 62
7
  6
CONTINUOUS
 70
0
 71
3
 72
11
 73
7
 74
0
 42
0.0000001
 43
0.0000001
 44
0.0000000001
 40
0.0
 40
0.0
 40
0.0
 40
0.0
 40
0.2132282014
 40
0.4716729112
 40
0.7452452641
 40
1.0
 40
1.0
 40
1.0
 40
1.0
 10
172.9615009771
 20
137.3761964082
 30
0.0
 10
173.135041654
 20
137.480938867
 30
0.0
 10
173.5627632226
 20
137.6372000728
 30
0.0
 10
174.2652842673
 20
137.7452119565
 30
0.0
 10
175.0162791899
 20
137.7386833129
 30
0.0
 10
175.5147359782
 20
137.6524851182
 30
0.0
 10
175.7469579384
 20
137.5837658813
 30
0.0
  0
SPLINE
  5
4CA
100
AcDbEntity
  8
RUNDUNGEN
100
AcDbSpline
 62
7
  6
CONTINUOUS
 70
0
 71
3
 72
11
 73
7
 74
0
 42
0.0000001
 43
0.0000001
 44
0.0000000001
 40
0.0
 40
0.0
 40
0.0
 40
0.0
 40
0.2328292999
 40
0.4821097226
 40
0.7404790868
 40
1.0
 40
1.0
 40
1.0
 40
1.0
 10
74.2234492503
 20
137.0019965777
 30
0.0
 10
75.2231079267
 20
137.2978160657
 30
0.0
 10
77.3294529651
 20
137.7905065104
 30
0.0
 10
80.6180406042
 20
138.242372207
 30
0.0
 10
84.0521848947
 20
138.421939901
 30
0.0
 10
86.3731716355
 20
138.3547894383
 30
0.0
 10
87.5322733194
 20
138.272438847
 30
0.0
  0
SPLINE
  5
4CB
100
AcDbEntity
  8
0
100
AcDbSpline
 62
7
  6
CONTINUOUS
 70
0
 71
3
 72
9
 73
5
 74
0
 42
0.0000001
 43
0.0000001
 44
0.0000000001
 40
0.0
 40
0.0
 40
0.0
 40
0.0
 40
0.5389305002
 40
1.0
 40
1.0
 40
1.0
 40
1.0
 10
122.2222796836
 20
120.2927774591
 30
0.0
 10
122.4181021274
 20
120.2927774591
 30
0.0
 10
122.7817073611
 20
120.3238879469
 30
0.0
 10
123.1358839497
 20
120.4247339712
 30
0.0
 10
123.2864632944
 20
120.4981684005
 30
0.0
  0
SPLINE
  5
4CC
100
AcDbEntity
  8
0
100
AcDbSpline
 62
7
  6
CONTINUOUS
 70
0
 71
3
 72
11
 73
7
 74
0
 42
0.0000001
 43
0.0000001
 44
0.0000000001
 40
0.0
 40
0.0
 40
0.0
 40
0.0
 40
0.3124100541
 40
0.5777844757
 40
0.8017203564
 40
1.0
 40
1.0
 40
1.0
 40
1.0
 10
123.2864632944
 20
120.4981684005
 30
0.0
 10
123.3374449613
 20
120.5230311041
 30
0.0
 10
123.4290363464
 20
120.5752170846
 30
0.0
 10
123.5408101166
 20
120.6701903232
 30
0.0
 10
123.6128417837
 20
120.7746258756
 30
0.0
 10
123.6303720957
 20
120.8518736843
 30
0.0
 10
123.6303720957
 20
120.8878732991
 30
0.0
  0
SPLINE
  5
4CD
100
AcDbEntity
  8
RUNDUNGEN
100
AcDbSpline
 62
7
  6
CONTINUOUS
 70
0
 71
3
 72
10
 73
6
 74
0
 42
0.0000001
 43
0.0000001
 44
0.0000000001
 40
0.0
 40
0.0
 40
0.0
 40
0.0
 40
0.3370013285
 40
0.632824929
 40
1.0
 40
1.0
 40
1.0
 40
1.0
 10
91.4681860475
 20
79.4928865073
 30
0.0
 10
91.5321927803
 20
79.4928865073
 30
0.0
 10
91.6550285122
 20
79.5039083042
 30
0.0
 10
91.829688293
 20
79.5455453013
 30
0.0
 10
91.9681860475
 20
79.6344580001
 30
0.0
 10
91.9681860475
 20
79.7041956381
 30
0.0
  0
SPLINE
  5
4CE
100
AcDbEntity
  8
RUNDUNGEN
100
AcDbSpline
 62
7
  6
CONTINUOUS
 70
0
 71
3
 72
15
 73
11
 74
0
 42
0.0000001
 43
0.0000001
 44
0.0000000001
 40
0.0
 40
0.0
 40
0.0
 40
0.0
 40
0.0728570676
 40
0.1568447865
 40
0.2582282637
 40
0.3786161878
 40
0.5166544339
 40
0.6691903209
 40
0.8319592109
 40
1.0
 40
1.0
 40
1.0
 40
1.0
 10
81.9681860475
 20
82.0285960777
 30
0.0
 10
81.9681860475
 20
81.8592821749
 30
0.0
 10
82.0613726374
 20
81.492018112
 30
0.0
 10
82.43386501
 20
81.0081319127
 30
0.0
 10
83.0045843982
 20
80.5757331986
 30
0.0
 10
83.7557470845
 20
80.2006453123
 30
0.0
 10
84.6624061545
 20
79.8933851025
 30
0.0
 10
85.6926984778
 20
79.6650630859
 30
0.0
 10
86.8084979926
 20
79.5243929884
 30
0.0
 10
87.5776729131
 20
79.4928865073
 30
0.0
 10
87.9681860475
 20
79.4928865073
 30
0.0
  0
SPLINE
  5
4CF
100
AcDbEntity
  8
RUNDUNGEN
100
AcDbSpline
 62
7
  6
CONTINUOUS
 70
0
 71
3
 72
11
 73
7
 74
0
 42
0.0000001
 43
0.0000001
 44
0.0000000001
 40
0.0
 40
0.0
 40
0.0
 40
0.0
 40
0.2132157109
 40
0.4716489873
 40
0.745233389
 40
1.0
 40
1.0
 40
1.0
 40
1.0
 10
74.581828954
 20
126.3596538431
 30
0.0
 10
74.7510212095
 20
126.2575359238
 30
0.0
 10
75.1680262718
 20
126.1051841656
 30
0.0
 10
75.8529724919
 20
125.9998673555
 30
0.0
 10
76.5852043671
 20
126.0062246457
 30
0.0
 10
77.0712225165
 20
126.0902692249
 30
0.0
 10
77.2976494913
 20
126.1572736068
 30
0.0
  0
SPLINE
  5
4D0
100
AcDbEntity
  8
RUNDUNGEN
100
AcDbSpline
 62
7
  6
CONTINUOUS
 70
0
 71
3
 72
11
 73
7
 74
0
 42
0.0000001
 43
0.0000001
 44
0.0000000001
 40
0.0
 40
0.0
 40
0.0
 40
0.0
 40
0.3029815982
 40
0.565060018
 40
0.7926328529
 40
1.0
 40
1.0
 40
1.0
 40
1.0
 10
183.1189863263
 20
129.8388494043
 30
0.0
 10
183.1735138038
 20
129.8717600865
 30
0.0
 10
183.2714427543
 20
129.9400110378
 30
0.0
 10
183.389040918
 20
130.0598251777
 30
0.0
 10
183.4632994237
 20
130.188472105
 30
0.0
 10
183.4807138264
 20
130.2805517896
 30
0.0
 10
183.4806661136
 20
130.3241422667
 30
0.0
  0
SPLINE
  5
4D1
100
AcDbEntity
  8
RUNDUNGEN
100
AcDbSpline
 62
7
  6
CONTINUOUS
 70
0
 71
3
 72
15
 73
11
 74
0
 42
0.0000001
 43
0.0000001
 44
0.0000000001
 40
0.0
 40
0.0
 40
0.0
 40
0.0
 40
0.1680409034
 40
0.3308099487
 40
0.4833458071
 40
0.6213840148
 40
0.7417719193
 40
0.8431553665
 40
0.9271429855
 40
1.0
 40
1.0
 40
1.0
 40
1.0
 10
163.9681860475
 20
79.4928865073
 30
0.0
 10
164.3586994485
 20
79.4928865073
 30
0.0
 10
165.1278749959
 20
79.5243930579
 30
0.0
 10
166.2436750642
 20
79.6650632942
 30
0.0
 10
167.2739675478
 20
79.8933855566
 30
0.0
 10
168.1806263669
 20
80.2006458757
 30
0.0
 10
168.9317887953
 20
80.5757338438
 30
0.0
 10
169.5025077143
 20
81.0081326047
 30
0.0
 10
169.8749996644
 20
81.4920185764
 30
0.0
 10
169.9681860475
 20
81.8592822979
 30
0.0
 10
169.9681860475
 20
82.0285960777
 30
0.0
  0
SPLINE
  5
4D2
100
AcDbEntity
  8
RUNDUNGEN
100
AcDbSpline
 62
7
  6
CONTINUOUS
 70
0
 71
3
 72
10
 73
6
 74
0
 42
0.0000001
 43
0.0000001
 44
0.0000000001
 40
0.0
 40
0.0
 40
0.0
 40
0.0
 40
0.3671952303
 40
0.6630140013
 40
1.0
 40
1.0
 40
1.0
 40
1.0
 10
159.9681860475
 20
79.7041956381
 30
0.0
 10
159.9681860475
 20
79.6344542709
 30
0.0
 10
160.1066913239
 20
79.5455426463
 30
0.0
 10
160.2813505587
 20
79.5039070246
 30
0.0
 10
160.4041823178
 20
79.4928865073
 30
0.0
 10
160.4681860475
 20
79.4928865073
 30
0.0
  0
SPLINE
  5
4D3
100
AcDbEntity
  8
RUNDUNGEN
100
AcDbSpline
 62
7
  6
CONTINUOUS
 70
0
 71
3
 72
11
 73
7
 74
0
 42
0.0000001
 43
0.0000001
 44
0.0000000001
 40
0.0
 40
0.0
 40
0.0
 40
0.0
 40
0.2085386553
 40
0.4513089719
 40
0.719082175
 40
1.0
 40
1.0
 40
1.0
 40
1.0
 10
139.7882819714
 20
87.0035539374
 30
0.0
 10
140.1160228974
 20
86.8057421561
 30
0.0
 10
140.876344319
 20
86.4622792695
 30
0.0
 10
142.1504141681
 20
86.1054011511
 30
0.0
 10
143.5891291368
 20
85.8822792317
 30
0.0
 10
144.5970951381
 20
85.8321604334
 30
0.0
 10
145.1127702593
 20
85.8321604334
 30
0.0
  0
SPLINE
  5
4D4
100
AcDbEntity
  8
RUNDUNGEN
100
AcDbSpline
 62
7
  6
CONTINUOUS
 70
0
 71
3
 72
11
 73
7
 74
0
 42
0.0000001
 43
0.0000001
 44
0.0000000001
 40
0.0
 40
0.0
 40
0.0
 40
0.0
 40
0.2809180525
 40
0.5486913428
 40
0.7914615301
 40
1.0
 40
1.0
 40
1.0
 40
1.0
 10
106.8236018357
 20
85.8321604334
 30
0.0
 10
107.3392773747
 20
85.8321604334
 30
0.0
 10
108.3472439562
 20
85.8822792934
 30
0.0
 10
109.7859592409
 20
86.1054014279
 30
0.0
 10
111.0600286344
 20
86.4622796221
 30
0.0
 10
111.8203494889
 20
86.8057423319
 30
0.0
 10
112.1480901235
 20
87.0035539374
 30
0.0
  0
SPLINE
  5
4D5
100
AcDbEntity
  8
RUNDUNGEN
100
AcDbSpline
 62
7
  6
CONTINUOUS
 70
0
 71
3
 72
11
 73
7
 74
0
 42
0.0000001
 43
0.0000001
 44
0.0000000001
 40
0.0
 40
0.0
 40
0.0
 40
0.0
 40
0.1965724124
 40
0.4198696822
 40
0.685919393
 40
1.0
 40
1.0
 40
1.0
 40
1.0
 10
91.9681860475
 20
83.2964508629
 30
0.0
 10
91.9681860475
 20
83.4543550065
 30
0.0
 10
92.0479789309
 20
83.7942112593
 30
0.0
 10
92.3728539119
 20
84.2505311863
 30
0.0
 10
92.875291967
 20
84.663429594
 30
0.0
 10
93.2859008247
 20
84.8885557647
 30
0.0
 10
93.5143910238
 20
84.995541761
 30
0.0
  0
SPLINE
  5
4D6
100
AcDbEntity
  8
RUNDUNGEN
100
AcDbSpline
 62
7
  6
CONTINUOUS
 70
0
 71
3
 72
11
 73
7
 74
0
 42
0.0000001
 43
0.0000001
 44
0.0000000001
 40
0.0
 40
0.0
 40
0.0
 40
0.0
 40
0.314061178
 40
0.5801026932
 40
0.8034073163
 40
1.0
 40
1.0
 40
1.0
 40
1.0
 10
158.4229650386
 20
84.9950809444
 30
0.0
 10
158.6513184732
 20
84.8881063659
 30
0.0
 10
159.0616805277
 20
84.6630129265
 30
0.0
 10
159.5638002664
 20
84.2502116946
 30
0.0
 10
159.8884542317
 20
83.7940266266
 30
0.0
 10
159.9681860475
 20
83.4543004997
 30
0.0
 10
159.9681860475
 20
83.2964508629
 30
0.0
  0
SPLINE
  5
4D7
100
AcDbEntity
  8
RUNDUNGEN
100
AcDbSpline
 62
7
  6
CONTINUOUS
 70
0
 71
3
 72
15
 73
11
 74
0
 42
0.0000001
 43
0.0000001
 44
0.0000000001
 40
0.0
 40
0.0
 40
0.0
 40
0.0
 40
0.104268445
 40
0.2256535505
 40
0.3595452665
 40
0.5000000824
 40
0.6404549295
 40
0.7743466092
 40
0.8957316228
 40
1.0
 40
1.0
 40
1.0
 40
1.0
 10
119.4149696932
 20
91.3895621484
 30
0.0
 10
119.8183396925
 20
91.6330207213
 30
0.0
 10
120.7541236046
 20
92.0557386336
 30
0.0
 10
122.3221884263
 20
92.4949955378
 30
0.0
 10
124.0930718699
 20
92.7695771093
 30
0.0
 10
125.9681873115
 20
92.8628653693
 30
0.0
 10
127.8433025769
 20
92.7695768784
 30
0.0
 10
129.6141855572
 20
92.4949951594
 30
0.0
 10
131.1822494415
 20
92.0557382128
 30
0.0
 10
132.1180326648
 20
91.6330205629
 30
0.0
 10
132.5214024018
 20
91.3895621484
 30
0.0
  0
SPLINE
  5
4D8
100
AcDbEntity
  8
RUNDUNGEN
100
AcDbSpline
 62
7
  6
CONTINUOUS
 70
0
 71
3
 72
12
 73
8
 74
0
 42
0.0000001
 43
0.0000001
 44
0.0000000001
 40
0.0
 40
0.0
 40
0.0
 40
0.0
 40
0.2546389095
 40
0.5280844547
 40
0.7863884982
 40
0.9002788037
 40
1.0
 40
1.0
 40
1.0
 40
1.0
 10
81.639155326
 20
127.4420141523
 30
0.0
 10
82.0165339339
 20
127.5536882159
 30
0.0
 10
82.826829299
 20
127.6938022523
 30
0.0
 10
84.0459628142
 20
127.7042095909
 30
0.0
 10
85.0390796881
 20
127.552607009
 30
0.0
 10
85.7342372302
 20
127.3275479762
 30
0.0
 10
86.033570998
 20
127.1843548298
 30
0.0
 10
86.1655228881
 20
127.1047137585
 30
0.0
  0
SPLINE
  5
4D9
100
AcDbEntity
  8
0
100
AcDbSpline
 62
7
  6
CONTINUOUS
 70
0
 71
3
 72
11
 73
7
 74
0
 42
0.0000001
 43
0.0000001
 44
0.0000000001
 40
0.0
 40
0.0
 40
0.0
 40
0.0
 40
0.3670158353
 40
0.5076950822
 40
0.6631224726
 40
1.0
 40
1.0
 40
1.0
 40
1.0
 10
123.6303720957
 20
120.8878732991
 30
0.0
 10
123.6303720957
 20
121.0842730531
 30
0.0
 10
123.3241103502
 20
121.2810029266
 30
0.0
 10
123.000011062
 20
121.3878925598
 30
0.0
 10
122.6656516201
 20
121.4630450062
 30
0.0
 10
122.4025516423
 20
121.482969139
 30
0.0
 10
122.2222796836
 20
121.482969139
 30
0.0
  0
SPLINE
  5
4DA
100
AcDbEntity
  8
RUNDUNGEN
100
AcDbSpline
 62
7
  6
CONTINUOUS
 70
0
 71
3
 72
11
 73
7
 74
0
 42
0.0000001
 43
0.0000001
 44
0.0000000001
 40
0.0
 40
0.0
 40
0.0
 40
0.0
 40
0.2073613288
 40
0.4349779633
 40
0.696920901
 40
1.0
 40
1.0
 40
1.0
 40
1.0
 10
169.9681860475
 20
87.1457455856
 30
0.0
 10
169.9681860475
 20
87.2764154236
 30
0.0
 10
169.9155407751
 20
87.5523837014
 30
0.0
 10
169.692751514
 20
87.9378035551
 30
0.0
 10
169.3402191913
 20
88.2969779524
 30
0.0
 10
169.0466107529
 20
88.501479043
 30
0.0
 10
168.8830983132
 20
88.6001688446
 30
0.0
  0
SPLINE
  5
4DB
100
AcDbEntity
  8
0
100
AcDbSpline
 62
7
  6
CONTINUOUS
 70
0
 71
3
 72
13
 73
9
 74
0
 42
0.0000001
 43
0.0000001
 44
0.0000000001
 40
0.0
 40
0.0
 40
0.0
 40
0.0
 40
0.3346697711
 40
0.6163905157
 40
0.7332549899
 40
0.8339278258
 40
0.9210003845
 40
1.0
 40
1.0
 40
1.0
 40
1.0
 10
123.0310727583
 20
119.8475334335
 30
0.0
 10
123.2741710139
 20
119.8812886226
 30
0.0
 10
123.7183182175
 20
119.9732533477
 30
0.0
 10
124.2231235628
 20
120.1732150082
 30
0.0
 10
124.5280833676
 20
120.3785794407
 30
0.0
 10
124.68804544
 20
120.5370134288
 30
0.0
 10
124.7894012704
 20
120.7075318873
 30
0.0
 10
124.8134053903
 20
120.8301848587
 30
0.0
 10
124.813390849
 20
120.8881193462
 30
0.0
  0
SPLINE
  5
4DC
100
AcDbEntity
  8
RUNDUNGEN
100
AcDbSpline
 62
7
  6
CONTINUOUS
 70
0
 71
3
 72
11
 73
7
 74
0
 42
0.0000001
 43
0.0000001
 44
0.0000000001
 40
0.0
 40
0.0
 40
0.0
 40
0.0
 40
0.1798775756
 40
0.3982536349
 40
0.6718129145
 40
1.0
 40
1.0
 40
1.0
 40
1.0
 10
183.4806661136
 20
130.3241422667
 30
0.0
 10
183.4805899135
 20
130.3937589229
 30
0.0
 10
183.4305572447
 20
130.5485673535
 30
0.0
 10
183.2449495995
 20
130.7379000543
 30
0.0
 10
182.9694959356
 20
130.8998240952
 30
0.0
 10
182.7496301172
 20
130.9799927451
 30
0.0
 10
182.6278351104
 20
131.0160343835
 30
0.0
  0
SPLINE
  5
4DD
100
AcDbEntity
  8
RUNDUNGEN
100
AcDbSpline
 62
7
  6
CONTINUOUS
 70
0
 71
3
 72
11
 73
7
 74
0
 42
0.0000001
 43
0.0000001
 44
0.0000000001
 40
0.0
 40
0.0
 40
0.0
 40
0.0
 40
0.3030792047
 40
0.5650221986
 40
0.7926387535
 40
1.0
 40
1.0
 40
1.0
 40
1.0
 10
83.0532737818
 20
88.6001688446
 30
0.0
 10
82.8897612849
 20
88.5014790085
 30
0.0
 10
82.5961527695
 20
88.2969778459
 30
0.0
 10
82.2436204407
 20
87.9378033765
 30
0.0
 10
82.0208312671
 20
87.5523835488
 30
0.0
 10
81.9681860475
 20
87.2764153719
 30
0.0
 10
81.9681860475
 20
87.1457455856
 30
0.0
  0
SPLINE
  5
4DE
100
AcDbEntity
  8
RUNDUNGEN
100
AcDbSpline
 62
7
  6
CONTINUOUS
 70
0
 71
3
 72
11
 73
7
 74
0
 42
0.0000001
 43
0.0000001
 44
0.0000000001
 40
0.0
 40
0.0
 40
0.0
 40
0.0
 40
0.3281890092
 40
0.6017655288
 40
0.8201370822
 40
1.0
 40
1.0
 40
1.0
 40
1.0
 10
84.409997302
 20
121.8645348049
 30
0.0
 10
84.2912415455
 20
121.8293925429
 30
0.0
 10
84.0768572857
 20
121.7512209201
 30
0.0
 10
83.8082751232
 20
121.5933321376
 30
0.0
 10
83.6273123066
 20
121.4087115134
 30
0.0
 10
83.5785494255
 20
121.257766921
 30
0.0
 10
83.5784852672
 20
121.1898933848
 30
0.0
  0
SPLINE
  5
4DF
100
AcDbEntity
  8
RUNDUNGEN
100
AcDbSpline
 62
7
  6
CONTINUOUS
 70
0
 71
3
 72
13
 73
9
 74
0
 42
0.0000001
 43
0.0000001
 44
0.0000000001
 40
0.0
 40
0.0
 40
0.0
 40
0.0
 40
0.3274429859
 40
0.6003183387
 40
0.7159496467
 40
0.8189963357
 40
0.912233818
 40
1.0
 40
1.0
 40
1.0
 40
1.0
 10
72.5851451617
 20
131.9856498895
 30
0.0
 10
72.2194837986
 20
131.8774431988
 30
0.0
 10
71.5604974576
 20
131.6367882636
 30
0.0
 10
70.8337119428
 20
131.2111335156
 30
0.0
 10
70.4122814411
 20
130.8202357316
 30
0.0
 10
70.1930507162
 20
130.5274767104
 30
0.0
 10
70.0575774184
 20
130.2221196746
 30
0.0
 10
70.0265734668
 20
130.0102685132
 30
0.0
 10
70.026606705
 20
129.9080572012
 30
0.0
  0
SPLINE
  5
4E0
100
AcDbEntity
  8
RUNDUNGEN
100
AcDbSpline
 62
7
  6
CONTINUOUS
 70
0
 71
3
 72
11
 73
7
 74
0
 42
0.0000001
 43
0.0000001
 44
0.0000000001
 40
0.0
 40
0.0
 40
0.0
 40
0.0
 40
0.2594364457
 40
0.5178266451
 40
0.7671591167
 40
1.0
 40
1.0
 40
1.0
 40
1.0
 10
87.5952622217
 20
133.7363762527
 30
0.0
 10
86.4312241362
 20
133.8208788476
 30
0.0
 10
84.0996805001
 20
133.8913465152
 30
0.0
 10
80.6492604933
 20
133.7141874323
 30
0.0
 10
77.3445400389
 20
133.2621940707
 30
0.0
 10
75.2278531562
 20
132.7676813412
 30
0.0
 10
74.2234492503
 20
132.4704576425
 30
0.0
  0
SPLINE
  5
4E1
100
AcDbEntity
  8
RUNDUNGEN
100
AcDbSpline
 62
7
  6
CONTINUOUS
 70
0
 71
3
 72
11
 73
7
 74
0
 42
0.0000001
 43
0.0000001
 44
0.0000000001
 40
0.0
 40
0.0
 40
0.0
 40
0.0
 40
0.2547665375
 40
0.5283498028
 40
0.7867840622
 40
1.0
 40
1.0
 40
1.0
 40
1.0
 10
175.7469579384
 20
133.0522269461
 30
0.0
 10
175.5147252099
 20
133.1209493695
 30
0.0
 10
175.0162462011
 20
133.2071487956
 30
0.0
 10
174.2652394058
 20
133.2136693283
 30
0.0
 10
173.5627302959
 20
133.1056525011
 30
0.0
 10
173.1350316808
 20
132.9493939124
 30
0.0
 10
172.9615009771
 20
132.844657473
 30
0.0
  0
SPLINE
  5
4E2
100
AcDbEntity
  8
0
100
AcDbSpline
 62
7
  6
CONTINUOUS
 70
0
 71
3
 72
17
 73
13
 74
0
 42
0.0000001
 43
0.0000001
 44
0.0000000001
 40
0.0
 40
0.0
 40
0.0
 40
0.0
 40
0.0335711921
 40
0.0705081411
 40
0.113075451
 40
0.1623961222
 40
0.2812342548
 40
0.42258819
 40
0.5767947989
 40
0.7320947517
 40
0.8765625982
 40
1.0
 40
1.0
 40
1.0
 40
1.0
 10
126.6942796836
 20
119.2715286592
 30
0.0
 10
126.6942796836
 20
119.1900896465
 30
0.0
 10
126.7275818818
 20
119.0178876854
 30
0.0
 10
126.8678590622
 20
118.7777811127
 30
0.0
 10
127.0898122865
 20
118.5543030772
 30
0.0
 10
127.5129932838
 20
118.2637778559
 30
0.0
 10
128.2156325199
 20
117.9786983696
 30
0.0
 10
129.2011443521
 20
117.7659824808
 30
0.0
 10
130.2951085117
 20
117.6841372194
 30
0.0
 10
131.3981119258
 20
117.7412221018
 30
0.0
 10
132.409809557
 20
117.9314076846
 30
0.0
 10
133.0256849953
 20
118.1565006641
 30
0.0
 10
133.2902126621
 20
118.2968236477
 30
0.0
  0
SPLINE
  5
4E3
100
AcDbEntity
  8
0
100
AcDbSpline
 62
7
  6
CONTINUOUS
 70
0
 71
3
 72
9
 73
5
 74
0
 42
0.0000001
 43
0.0000001
 44
0.0000000001
 40
0.0
 40
0.0
 40
0.0
 40
0.0
 40
0.2410877102
 40
1.0
 40
1.0
 40
1.0
 40
1.0
 10
126.6942796836
 20
119.8606287208
 30
0.0
 10
126.6942796836
 20
119.829113729
 30
0.0
 10
126.7036354047
 20
119.6983694024
 30
0.0
 10
126.7518752392
 20
119.57200369
 30
0.0
 10
126.8018294798
 20
119.4862936399
 30
0.0
  0
SPLINE
  5
4E4
100
AcDbEntity
  8
0
100
AcDbSpline
 62
7
  6
CONTINUOUS
 70
0
 71
3
 72
11
 73
7
 74
0
 42
0.0000001
 43
0.0000001
 44
0.0000000001
 40
0.0
 40
0.0
 40
0.0
 40
0.0
 40
0.1828910931
 40
0.4123176284
 40
0.6876049401
 40
1.0
 40
1.0
 40
1.0
 40
1.0
 10
126.8018294798
 20
119.4862936399
 30
0.0
 10
126.881306799
 20
119.3499287399
 30
0.0
 10
127.1359802355
 20
119.08804221
 30
0.0
 10
127.6523485888
 20
118.7890954887
 30
0.0
 10
128.318261835
 20
118.548128748
 30
0.0
 10
128.8153899488
 20
118.4410332099
 30
0.0
 10
129.0815817055
 20
118.398314808
 30
0.0
  0
SPLINE
  5
4E5
100
AcDbEntity
  8
0
100
AcDbSpline
 62
7
  6
CONTINUOUS
 70
0
 71
3
 72
9
 73
5
 74
0
 42
0.0000001
 43
0.0000001
 44
0.0000000001
 40
0.0
 40
0.0
 40
0.0
 40
0.0
 40
0.533411288
 40
1.0
 40
1.0
 40
1.0
 40
1.0
 10
131.7093536304
 20
118.398314808
 30
0.0
 10
131.9856292208
 20
118.4426514616
 30
0.0
 10
132.499475586
 20
118.5545180057
 30
0.0
 10
132.9942198016
 20
118.7377124848
 30
0.0
 10
133.2134497699
 20
118.8465448357
 30
0.0
  0
SPLINE
  5
4E6
100
AcDbEntity
  8
0
100
AcDbSpline
 62
7
  6
CONTINUOUS
 70
0
 71
3
 72
9
 73
5
 74
0
 42
0.0000001
 43
0.0000001
 44
0.0000000001
 40
0.0
 40
0.0
 40
0.0
 40
0.0
 40
0.2587758083
 40
1.0
 40
1.0
 40
1.0
 40
1.0
 10
123.2197215418
 20
120.4663326391
 30
0.0
 10
123.2645140459
 20
120.4742366757
 30
0.0
 10
123.437176022
 20
120.5071226036
 30
0.0
 10
123.608122466
 20
120.5494398606
 30
0.0
 10
123.7328023913
 20
120.5872382815
 30
0.0
  0
SPLINE
  5
4E7
100
AcDbEntity
  8
0
100
AcDbSpline
 62
7
  6
CONTINUOUS
 70
0
 71
3
 72
9
 73
5
 74
0
 42
0.0000001
 43
0.0000001
 44
0.0000000001
 40
0.0
 40
0.0
 40
0.0
 40
0.0
 40
0.5538482467
 40
1.0
 40
1.0
 40
1.0
 40
1.0
 10
123.7328023913
 20
120.5872382815
 30
0.0
 10
123.9075727082
 20
120.6402222882
 30
0.0
 10
124.2169317674
 20
120.7579131146
 30
0.0
 10
124.497720409
 20
120.9412758507
 30
0.0
 10
124.6026499632
 20
121.044388281
 30
0.0
  0
SPLINE
  5
4E8
100
AcDbEntity
  8
0
100
AcDbSpline
 62
7
  6
CONTINUOUS
 70
0
 71
3
 72
9
 73
5
 74
0
 42
0.0000001
 43
0.0000001
 44
0.0000000001
 40
0.0
 40
0.0
 40
0.0
 40
0.0
 40
0.2613394501
 40
1.0
 40
1.0
 40
1.0
 40
1.0
 10
124.6125457989
 20
121.0542461675
 30
0.0
 10
124.6226810614
 20
121.0644823588
 30
0.0
 10
124.660612881
 20
121.1044711428
 30
0.0
 10
124.6950081169
 20
121.1479063755
 30
0.0
 10
124.7174857272
 20
121.1818541566
 30
0.0
  0
SPLINE
  5
4E9
100
AcDbEntity
  8
0
100
AcDbSpline
 62
7
  6
CONTINUOUS
 70
0
 71
3
 72
11
 73
7
 74
0
 42
0.0000001
 43
0.0000001
 44
0.0000000001
 40
0.0
 40
0.0
 40
0.0
 40
0.0
 40
0.3181904697
 40
0.5860349313
 40
0.8077648432
 40
1.0
 40
1.0
 40
1.0
 40
1.0
 10
123.2153898694
 20
121.898826197
 30
0.0
 10
123.2762272996
 20
121.8732467383
 30
0.0
 10
123.3856277127
 20
121.8189419171
 30
0.0
 10
123.5203544619
 20
121.7172324505
 30
0.0
 10
123.6083126453
 20
121.6033446315
 30
0.0
 10
123.6303964023
 20
121.5168450593
 30
0.0
 10
123.6303964023
 20
121.4769733606
 30
0.0
  0
SPLINE
  5
4EA
100
AcDbEntity
  8
0
100
AcDbSpline
 62
7
  6
CONTINUOUS
 70
0
 71
3
 72
17
 73
13
 74
0
 42
0.0000001
 43
0.0000001
 44
0.0000000001
 40
0.0
 40
0.0
 40
0.0
 40
0.0
 40
0.052772865
 40
0.1285329
 40
0.231589692
 40
0.3649613986
 40
0.5302910969
 40
0.7221619844
 40
0.8177367522
 40
0.8992922349
 40
0.9591802617
 40
1.0
 40
1.0
 40
1.0
 40
1.0
 10
94.265802843
 20
84.6582659487
 30
0.0
 10
94.1049109485
 20
84.6778103808
 30
0.0
 10
93.7300916578
 20
84.8312944219
 30
0.0
 10
93.151038931
 20
85.2458282181
 30
0.0
 10
92.4523000382
 20
85.9066137235
 30
0.0
 10
91.6411789443
 20
86.8378994083
 30
0.0
 10
90.7421163982
 20
88.0485645579
 30
0.0
 10
89.9982843052
 20
89.2258990982
 30
0.0
 10
89.4691637201
 20
90.2287726846
 30
0.0
 10
89.1776760355
 20
90.896938797
 30
0.0
 10
89.0102931146
 20
91.4325385645
 30
0.0
 10
88.9681860475
 20
91.7415115752
 30
0.0
 10
88.9681860475
 20
91.86687608
 30
0.0
  0
SPLINE
  5
4EB
100
AcDbEntity
  8
BEZUGSACHSEN
100
AcDbSpline
 62
7
  6
CONTINUOUS
 70
0
 71
3
 72
15
 73
11
 74
0
 42
0.0000001
 43
0.0000001
 44
0.0000000001
 40
0.0
 40
0.0
 40
0.0
 40
0.0
 40
0.1213952628
 40
0.2449248391
 40
0.3714323782
 40
0.5
 40
0.6285676218
 40
0.7550751609
 40
0.8786047372
 40
1.0
 40
1.0
 40
1.0
 40
1.0
 10
98.3681860475
 20
112.9380427718
 30
0.0
 10
98.3681860475
 20
112.5704523212
 30
0.0
 10
98.5279931416
 20
111.8200435747
 30
0.0
 10
99.2022767893
 20
110.8832639736
 30
0.0
 10
100.1997909662
 20
110.2626840868
 30
0.0
 10
101.3681860475
 20
110.0465634566
 30
0.0
 10
102.5365811288
 20
110.2626840868
 30
0.0
 10
103.5340953056
 20
110.8832639736
 30
0.0
 10
104.2083789534
 20
111.8200435747
 30
0.0
 10
104.3681860475
 20
112.5704523212
 30
0.0
 10
104.3681860475
 20
112.9380427718
 30
0.0
  0
SPLINE
  5
4EC
100
AcDbEntity
  8
RUNDUNGEN
100
AcDbSpline
 62
7
  6
CONTINUOUS
 70
0
 71
3
 72
15
 73
11
 74
0
 42
0.0000001
 43
0.0000001
 44
0.0000000001
 40
0.0
 40
0.0
 40
0.0
 40
0.0
 40
0.1252277562
 40
0.2504161587
 40
0.3755308785
 40
0.500559858
 40
0.6255037456
 40
0.7503772326
 40
0.8752004012
 40
1.0
 40
1.0
 40
1.0
 40
1.0
 10
154.9681860475
 20
146.1086368716
 30
0.0
 10
155.4879791844
 20
146.1086368622
 30
0.0
 10
156.5301658611
 20
146.0083457231
 30
0.0
 10
158.0333335978
 20
145.5621798744
 30
0.0
 10
159.4226965356
 20
144.8356914001
 30
0.0
 10
160.64434832
 20
143.8545871285
 30
0.0
 10
161.6505521398
 20
142.6546193131
 30
0.0
 10
162.400684837
 20
141.2806118228
 30
0.0
 10
162.8637946216
 20
139.7863841032
 30
0.0
 10
162.9681860475
 20
138.7472675788
 30
0.0
 10
162.9681860475
 20
138.22925163
 30
0.0
  0
SPLINE
  5
4ED
100
AcDbEntity
  8
RUNDUNGEN
100
AcDbSpline
 62
7
  6
CONTINUOUS
 70
0
 71
3
 72
15
 73
11
 74
0
 42
0.0000001
 43
0.0000001
 44
0.0000000001
 40
0.0
 40
0.0
 40
0.0
 40
0.0
 40
0.1252277528
 40
0.2504161566
 40
0.3755308766
 40
0.5005598565
 40
0.6255037444
 40
0.7503772318
 40
0.8752004008
 40
1.0
 40
1.0
 40
1.0
 40
1.0
 10
96.9681860475
 20
146.1086368716
 30
0.0
 10
96.4483929247
 20
146.1086368716
 30
0.0
 10
95.4062062576
 20
146.0083457185
 30
0.0
 10
93.903038525
 20
145.5621798898
 30
0.0
 10
92.5136755792
 20
144.8356914116
 30
0.0
 10
91.2920237884
 20
143.8545871422
 30
0.0
 10
90.2858199627
 20
142.6546193247
 30
0.0
 10
89.5356872618
 20
141.2806118315
 30
0.0
 10
89.0725774736
 20
139.786384108
 30
0.0
 10
88.9681860475
 20
138.7472675806
 30
0.0
 10
88.9681860475
 20
138.22925163
 30
0.0
  0
SPLINE
  5
4EE
100
AcDbEntity
  8
0
100
AcDbSpline
 62
7
  6
CONTINUOUS
 70
0
 71
3
 72
17
 73
13
 74
0
 42
0.0000001
 43
0.0000001
 44
0.0000000001
 40
0.0
 40
0.0
 40
0.0
 40
0.0
 40
0.0408294663
 40
0.1007405578
 40
0.182334829
 40
0.27794154
 40
0.4698344575
 40
0.6351616557
 40
0.7685120321
 40
0.8715376796
 40
0.9472618329
 40
1.0
 40
1.0
 40
1.0
 40
1.0
 10
162.9681860475
 20
91.86687608
 30
0.0
 10
162.9681860475
 20
91.7414692443
 30
0.0
 10
162.9260481313
 20
91.432365425
 30
0.0
 10
162.758541846
 20
90.8965148242
 30
0.0
 10
162.4668645551
 20
90.2280376534
 30
0.0
 10
161.9374802391
 20
89.2248534954
 30
0.0
 10
161.1934148262
 20
88.0473157665
 30
0.0
 10
160.294163056
 20
86.836609994
 30
0.0
 10
159.4829738685
 20
85.9054446034
 30
0.0
 10
158.7842365909
 20
85.2449050748
 30
0.0
 10
158.2052549579
 20
84.8306902881
 30
0.0
 10
157.8304722266
 20
84.6775056219
 30
0.0
 10
157.6696480026
 20
84.6581552744
 30
0.0
  0
SPLINE
  5
4EF
100
AcDbEntity
  8
BEZUGSACHSEN
100
AcDbSpline
 62
7
  6
CONTINUOUS
 70
0
 71
3
 72
15
 73
11
 74
0
 42
0.0000001
 43
0.0000001
 44
0.0000000001
 40
0.0
 40
0.0
 40
0.0
 40
0.0
 40
0.1326399189
 40
0.2609222762
 40
0.3850493899
 40
0.5061762506
 40
0.6262231573
 40
0.7474004157
 40
0.8716148166
 40
1.0
 40
1.0
 40
1.0
 40
1.0
 10
116.2376175846
 20
146.1030671104
 30
0.0
 10
115.0410590757
 20
146.7767753058
 30
0.0
 10
112.8231411086
 20
148.3652166521
 30
0.0
 10
110.1684705318
 20
151.3848425694
 30
0.0
 10
108.3453929719
 20
154.8375362799
 30
0.0
 10
107.4249669391
 20
158.5446202807
 30
0.0
 10
107.4358660273
 20
162.3339978753
 30
0.0
 10
108.3783991053
 20
166.0373998086
 30
0.0
 10
110.2204714866
 20
169.4806634643
 30
0.0
 10
111.976687946
 20
171.4554048755
 30
0.0
 10
112.9652358076
 20
172.343873252
 30
0.0
  0
SPLINE
  5
4F0
100
AcDbEntity
  8
BEZUGSACHSEN
100
AcDbSpline
 62
7
  6
CONTINUOUS
 70
0
 71
3
 72
15
 73
11
 74
0
 42
0.0000001
 43
0.0000001
 44
0.0000000001
 40
0.0
 40
0.0
 40
0.0
 40
0.0
 40
0.1283871601
 40
0.2526027954
 40
0.3737805126
 40
0.4938271196
 40
0.6149532078
 40
0.7390794276
 40
0.8673609045
 40
1.0
 40
1.0
 40
1.0
 40
1.0
 10
138.9701248692
 20
172.3447825147
 30
0.0
 10
139.9588270128
 20
171.4563193339
 30
0.0
 10
141.7153204617
 20
169.481531268
 30
0.0
 10
143.5577237917
 20
166.0380949926
 30
0.0
 10
144.5004717223
 20
162.3344573
 30
0.0
 10
144.5114475798
 20
158.5448223921
 30
0.0
 10
143.5909863776
 20
154.8374947741
 30
0.0
 10
141.767758738
 20
151.3846029821
 30
0.0
 10
139.1128511821
 20
148.3648516704
 30
0.0
 10
136.8947398857
 20
146.7763854337
 30
0.0
 10
135.6980786805
 20
146.1026857798
 30
0.0
  0
SPLINE
  5
4F1
100
AcDbEntity
  8
0
100
AcDbSpline
 62
7
  6
CONTINUOUS
 70
0
 71
3
 72
15
 73
11
 74
0
 42
0.0000001
 43
0.0000001
 44
0.0000000001
 40
0.0
 40
0.0
 40
0.0
 40
0.0
 40
0.1229637708
 40
0.2475446398
 40
0.3734201295
 40
0.5
 40
0.6265798705
 40
0.7524553602
 40
0.8770362292
 40
1.0
 40
1.0
 40
1.0
 40
1.0
 10
131.7208120809
 20
122.5809910222
 30
0.0
 10
131.3736990947
 20
122.9840981572
 30
0.0
 10
130.5800801398
 20
123.7186391702
 30
0.0
 10
129.1738803549
 20
124.537909812
 30
0.0
 10
127.6109384899
 20
125.0460610809
 30
0.0
 10
125.9681860475
 20
125.2180159021
 30
0.0
 10
124.3254336051
 20
125.0460610809
 30
0.0
 10
122.76249174
 20
124.537909812
 30
0.0
 10
121.3562919552
 20
123.7186391702
 30
0.0
 10
120.5626730003
 20
122.9840981572
 30
0.0
 10
120.2155600141
 20
122.5809910222
 30
0.0
  0
SPLINE
  5
4F2
100
AcDbEntity
  8
0
100
AcDbSpline
 62
7
  6
CONTINUOUS
 70
0
 71
3
 72
11
 73
7
 74
0
 42
0.0000001
 43
0.0000001
 44
0.0000000001
 40
0.0
 40
0.0
 40
0.0
 40
0.0
 40
0.0612385602
 40
0.2473307763
 40
0.5602877493
 40
1.0
 40
1.0
 40
1.0
 40
1.0
 10
99.9250987043
 20
84.6170358995
 30
0.0
 10
99.9226845746
 20
84.6169655713
 30
0.0
 10
99.9264777435
 20
84.6327428939
 30
0.0
 10
99.9270582545
 20
84.6486677607
 30
0.0
 10
99.9361149333
 20
84.6884344631
 30
0.0
 10
99.9418869263
 20
84.7162846511
 30
0.0
 10
99.9456782908
 20
84.7332066955
 30
0.0
  0
SPLINE
  5
4F3
100
AcDbEntity
  8
0
100
AcDbSpline
 62
7
  6
CONTINUOUS
 70
0
 71
3
 72
9
 73
5
 74
0
 42
0.0000001
 43
0.0000001
 44
0.0000000001
 40
0.0
 40
0.0
 40
0.0
 40
0.0
 40
0.3741977123
 40
1.0
 40
1.0
 40
1.0
 40
1.0
 10
99.9456782908
 20
84.7332066955
 30
0.0
 10
99.9732695499
 20
84.8563551064
 30
0.0
 10
100.0544539541
 20
85.1837437642
 30
0.0
 10
100.1382868991
 20
85.5104034528
 30
0.0
 10
100.1916560085
 20
85.7146017058
 30
0.0
  0
SPLINE
  5
4F4
100
AcDbEntity
  8
0
100
AcDbSpline
 62
7
  6
CONTINUOUS
 70
0
 71
3
 72
13
 73
9
 74
0
 42
0.0000001
 43
0.0000001
 44
0.0000000001
 40
0.0
 40
0.0
 40
0.0
 40
0.0
 40
0.2132645261
 40
0.3119781672
 40
0.4164954915
 40
0.533855587
 40
0.6686793078
 40
1.0
 40
1.0
 40
1.0
 40
1.0
 10
157.6696480026
 20
84.6581552744
 30
0.0
 10
157.5667911836
 20
84.6457795567
 30
0.0
 10
157.4051730895
 20
84.6586771907
 30
0.0
 10
157.2335887217
 20
84.771972605
 30
0.0
 10
157.1334368489
 20
84.8937276921
 30
0.0
 10
157.0578852771
 20
85.0510456866
 30
0.0
 10
156.9823664885
 20
85.3253031769
 30
0.0
 10
156.9681860475
 20
85.5536542554
 30
0.0
 10
156.9681860475
 20
85.7146017058
 30
0.0
  0
SPLINE
  5
4F5
100
AcDbEntity
  8
BEZUGSACHSEN
100
AcDbSpline
 62
7
  6
CONTINUOUS
 70
0
 71
3
 72
15
 73
11
 74
0
 42
0.0000001
 43
0.0000001
 44
0.0000000001
 40
0.0
 40
0.0
 40
0.0
 40
0.0
 40
0.1215406594
 40
0.2453669307
 40
0.3718306227
 40
0.5
 40
0.6281693773
 40
0.7546330693
 40
0.8784593406
 40
1.0
 40
1.0
 40
1.0
 40
1.0
 10
104.3318890062
 20
112.9301214424
 30
0.0
 10
104.2770889045
 20
113.2587203731
 30
0.0
 10
104.0375137062
 20
113.9068810172
 30
0.0
 10
103.3502602452
 20
114.6876869655
 30
0.0
 10
102.4223093791
 20
115.195633855
 30
0.0
 10
101.3681860475
 20
115.3713161455
 30
0.0
 10
100.3140627159
 20
115.195633855
 30
0.0
 10
99.3861118498
 20
114.6876869655
 30
0.0
 10
98.6988583888
 20
113.9068810172
 30
0.0
 10
98.4592831905
 20
113.2587203731
 30
0.0
 10
98.4044830888
 20
112.9301214424
 30
0.0
  0
SPLINE
  5
4F6
100
AcDbEntity
  8
KONSTRUKTIONSELEMENTE
100
AcDbSpline
 62
7
  6
CONTINUOUS
 70
0
 71
3
 72
17
 73
13
 74
0
 42
0.0000001
 43
0.0000001
 44
0.0000000001
 40
0.0
 40
0.0
 40
0.0
 40
0.0
 40
0.0601290943
 40
0.1205969755
 40
0.1815656288
 40
0.2430377653
 40
0.3670842449
 40
0.4923845741
 40
0.618529943
 40
0.7452786166
 40
0.8724730832
 40
1.0
 40
1.0
 40
1.0
 40
1.0
 10
104.5280367943
 20
115.8510898963
 30
0.0
 10
104.5280367943
 20
116.2212404714
 30
0.0
 10
104.616259836
 20
116.9662051842
 30
0.0
 10
104.9879791501
 20
118.0278015047
 30
0.0
 10
105.5470285072
 20
119.0108679163
 30
0.0
 10
106.479293823
 20
120.2128375963
 30
0.0
 10
107.8959121224
 20
121.5171489682
 30
0.0
 10
109.8126074835
 20
122.8183763276
 30
0.0
 10
111.8758462519
 20
123.9056605638
 30
0.0
 10
114.0394291461
 20
124.8037046937
 30
0.0
 10
116.2753846932
 20
125.5284616484
 30
0.0
 10
117.7997799055
 20
125.902307343
 30
0.0
 10
118.5681860475
 20
126.0630888778
 30
0.0
  0
SPLINE
  5
4F7
100
AcDbEntity
  8
KONSTRUKTIONSELEMENTE
100
AcDbSpline
 62
7
  6
CONTINUOUS
 70
0
 71
3
 72
9
 73
5
 74
0
 42
0.0000001
 43
0.0000001
 44
0.0000000001
 40
0.0
 40
0.0
 40
0.0
 40
0.0
 40
0.5010964101
 40
1.0
 40
1.0
 40
1.0
 40
1.0
 10
103.8308024456
 20
109.9310263853
 30
0.0
 10
104.0471465118
 20
110.5016563691
 30
0.0
 10
104.3996922884
 20
111.6735378725
 30
0.0
 10
104.5280367943
 20
112.8942639213
 30
0.0
 10
104.5280367943
 20
113.5018583443
 30
0.0
  0
SPLINE
  5
4F8
100
AcDbEntity
  8
KONSTRUKTIONSELEMENTE
100
AcDbSpline
 62
7
  6
CONTINUOUS
 70
0
 71
3
 72
9
 73
5
 74
0
 42
0.0000001
 43
0.0000001
 44
0.0000000001
 40
0.0
 40
0.0
 40
0.0
 40
0.0
 40
0.4989035899
 40
1.0
 40
1.0
 40
1.0
 40
1.0
 10
147.4083353007
 20
113.5018583443
 30
0.0
 10
147.4083353007
 20
112.8942639213
 30
0.0
 10
147.5366798066
 20
111.6735378725
 30
0.0
 10
147.8892255831
 20
110.5016563691
 30
0.0
 10
148.1055696494
 20
109.9310263853
 30
0.0
  0
SPLINE
  5
4F9
100
AcDbEntity
  8
KONSTRUKTIONSELEMENTE
100
AcDbSpline
 62
7
  6
CONTINUOUS
 70
0
 71
3
 72
17
 73
13
 74
0
 42
0.0000001
 43
0.0000001
 44
0.0000000001
 40
0.0
 40
0.0
 40
0.0
 40
0.0
 40
0.1275284704
 40
0.2547250388
 40
0.3814761515
 40
0.5076242837
 40
0.6329264135
 40
0.7569702157
 40
0.8184409988
 40
0.879408362
 40
0.9398739028
 40
1.0
 40
1.0
 40
1.0
 40
1.0
 10
133.3681860475
 20
126.0630888778
 30
0.0
 10
134.1366015859
 20
125.9023053769
 30
0.0
 10
135.6610187217
 20
125.5284536558
 30
0.0
 10
137.8970080261
 20
124.8036792172
 30
0.0
 10
140.0606333602
 20
123.9056190498
 30
0.0
 10
142.1239013438
 20
122.8182960098
 30
0.0
 10
144.0405927816
 20
121.5170424414
 30
0.0
 10
145.4571878046
 20
120.2127246786
 30
0.0
 10
146.3894097235
 20
119.0107630034
 30
0.0
 10
146.9484330578
 20
118.0277172306
 30
0.0
 10
147.3201215385
 20
116.9661534846
 30
0.0
 10
147.4083353007
 20
116.2212220383
 30
0.0
 10
147.4083353007
 20
115.8510898963
 30
0.0
  0
SPLINE
  5
4FA
100
AcDbEntity
  8
RUNDUNGEN
100
AcDbSpline
 62
7
  6
CONTINUOUS
 70
0
 71
3
 72
14
 73
10
 74
0
 42
0.0000001
 43
0.0000001
 44
0.0000000001
 40
0.0
 40
0.0
 40
0.0
 40
0.0
 40
0.0947362651
 40
0.194544581
 40
0.3033425993
 40
0.4233209362
 40
0.5548951723
 40
0.6968669039
 40
1.0
 40
1.0
 40
1.0
 40
1.0
 10
162.9681860475
 20
122.8277305038
 30
0.0
 10
162.9681860475
 20
123.0739567806
 30
0.0
 10
162.8895402707
 20
123.5824838818
 30
0.0
 10
162.5463946272
 20
124.3025950989
 30
0.0
 10
161.9938864558
 20
124.963836511
 30
0.0
 10
161.2516244723
 20
125.5443281318
 30
0.0
 10
160.3429353927
 20
126.0242670089
 30
0.0
 10
158.9220852373
 20
126.5138958179
 30
0.0
 10
157.756050479
 20
126.6575550353
 30
0.0
 10
156.9681860475
 20
126.6575550353
 30
0.0
  0
SPLINE
  5
4FB
100
AcDbEntity
  8
RUNDUNGEN
100
AcDbSpline
 62
7
  6
CONTINUOUS
 70
0
 71
3
 72
14
 73
10
 74
0
 42
0.0000001
 43
0.0000001
 44
0.0000000001
 40
0.0
 40
0.0
 40
0.0
 40
0.0
 40
0.0947362651
 40
0.194544581
 40
0.3033425993
 40
0.4233209362
 40
0.5548951723
 40
0.6968669039
 40
1.0
 40
1.0
 40
1.0
 40
1.0
 10
162.9681860475
 20
128.3277305038
 30
0.0
 10
162.9681860475
 20
128.5739567806
 30
0.0
 10
162.8895402707
 20
129.0824838818
 30
0.0
 10
162.5463946272
 20
129.8025950989
 30
0.0
 10
161.9938864558
 20
130.463836511
 30
0.0
 10
161.2516244723
 20
131.0443281318
 30
0.0
 10
160.3429353927
 20
131.5242670089
 30
0.0
 10
158.9220852373
 20
132.0138958179
 30
0.0
 10
157.756050479
 20
132.1575550353
 30
0.0
 10
156.9681860475
 20
132.1575550353
 30
0.0
  0
SPLINE
  5
4FC
100
AcDbEntity
  8
KONSTRUKTIONSELEMENTE
100
AcDbSpline
 62
7
  6
CONTINUOUS
 70
0
 71
3
 72
17
 73
13
 74
0
 42
0.0000001
 43
0.0000001
 44
0.0000000001
 40
0.0
 40
0.0
 40
0.0
 40
0.0
 40
0.1478723886
 40
0.2998556069
 40
0.4508732976
 40
0.5952602903
 40
0.7272465968
 40
0.8414379753
 40
0.890412272
 40
0.933346785
 40
0.9699326605
 40
1.0
 40
1.0
 40
1.0
 40
1.0
 10
103.8308024456
 20
109.9310263853
 30
0.0
 10
103.4148409699
 20
108.8338847151
 30
0.0
 10
102.6595225241
 20
106.5751712694
 30
0.0
 10
101.7364395072
 20
103.1169435453
 30
0.0
 10
100.999583023
 20
99.6428361635
 30
0.0
 10
100.4502701769
 20
96.2951038332
 30
0.0
 10
100.0890309605
 20
93.216151395
 30
0.0
 10
99.9348306217
 20
90.8775534836
 30
0.0
 10
99.917587859
 20
89.2418837495
 30
0.0
 10
99.9531573912
 20
88.2223903368
 30
0.0
 10
100.0359944846
 20
87.3562795837
 30
0.0
 10
100.1313272994
 20
86.8346808086
 30
0.0
 10
100.1916560085
 20
86.6038540785
 30
0.0
  0
SPLINE
  5
4FD
100
AcDbEntity
  8
KONSTRUKTIONSELEMENTE
100
AcDbSpline
 62
7
  6
CONTINUOUS
 70
0
 71
3
 72
17
 73
13
 74
0
 42
0.0000001
 43
0.0000001
 44
0.0000000001
 40
0.0
 40
0.0
 40
0.0
 40
0.0
 40
0.0300673395
 40
0.066653215
 40
0.109587728
 40
0.1585620247
 40
0.2727534032
 40
0.4047397097
 40
0.5491267024
 40
0.7001443931
 40
0.8521276114
 40
1.0
 40
1.0
 40
1.0
 40
1.0
 10
151.7447160865
 20
86.6038540785
 30
0.0
 10
151.8050447956
 20
86.8346808086
 30
0.0
 10
151.9003776104
 20
87.3562795837
 30
0.0
 10
151.9832147038
 20
88.2223903368
 30
0.0
 10
152.018784236
 20
89.2418837495
 30
0.0
 10
152.0015414733
 20
90.8775534836
 30
0.0
 10
151.8473411345
 20
93.216151395
 30
0.0
 10
151.4861019181
 20
96.2951038332
 30
0.0
 10
150.9367890719
 20
99.6428361635
 30
0.0
 10
150.1999325878
 20
103.1169435453
 30
0.0
 10
149.2768495709
 20
106.5751712694
 30
0.0
 10
148.5215311251
 20
108.8338847151
 30
0.0
 10
148.1055696494
 20
109.9310263853
 30
0.0
  0
SPLINE
  5
4FE
100
AcDbEntity
  8
0
100
AcDbSpline
 62
7
  6
CONTINUOUS
 70
0
 71
3
 72
13
 73
9
 74
0
 42
0.0000001
 43
0.0000001
 44
0.0000000001
 40
0.0
 40
0.0
 40
0.0
 40
0.0
 40
0.331300329
 40
0.4661008089
 40
0.5834318137
 40
0.6879223104
 40
0.7866277736
 40
1.0
 40
1.0
 40
1.0
 40
1.0
 10
94.9681860475
 20
85.7146026677
 30
0.0
 10
94.9681860923
 20
85.5535633606
 30
0.0
 10
94.9539921671
 20
85.3250853252
 30
0.0
 10
94.8783667936
 20
85.0507047852
 30
0.0
 10
94.8027119268
 20
84.8933543137
 30
0.0
 10
94.7024209826
 20
84.7716168906
 30
0.0
 10
94.5305498068
 20
84.6584425947
 30
0.0
 10
94.3687624876
 20
84.6457588689
 30
0.0
 10
94.265802843
 20
84.6582659487
 30
0.0
  0
SPLINE
  5
4FF
100
AcDbEntity
  8
RUNDUNGEN
100
AcDbSpline
 62
7
  6
CONTINUOUS
 70
0
 71
3
 72
32
 73
28
 74
0
 42
0.0000001
 43
0.0000001
 44
0.0000000001
 40
0.0
 40
0.0
 40
0.0
 40
0.0
 40
0.0342109387
 40
0.0747795709
 40
0.1750584759
 40
0.2347527776
 40
0.3006767117
 40
0.372640877
 40
0.4503418867
 40
0.5332852588
 40
0.6206421746
 40
0.7109454493
 40
0.7563962666
 40
0.8013159644
 40
0.8447792501
 40
0.8853685092
 40
0.9209836856
 40
0.9360960205
 40
0.9489800811
 40
0.9593977216
 40
0.9673500386
 40
0.9730998439
 40
0.9774336782
 40
0.9816031815
 40
0.9866008787
 40
0.9927411465
 40
1.0
 40
1.0
 40
1.0
 40
1.0
 10
94.9681860475
 20
86.6038531166
 30
0.0
 10
94.9681860931
 20
86.767945797
 30
0.0
 10
94.9436412557
 20
87.1266307435
 30
0.0
 10
94.813169359
 20
87.9567063758
 30
0.0
 10
94.5676422026
 20
88.8891304619
 30
0.0
 10
94.2324689502
 20
89.919448924
 30
0.0
 10
93.9060044889
 20
90.8094337127
 30
0.0
 10
93.5186797306
 20
91.7683771194
 30
0.0
 10
93.0699244287
 20
92.7900374975
 30
0.0
 10
92.5603355943
 20
93.865076153
 30
0.0
 10
91.9922321624
 20
94.978699474
 30
0.0
 10
91.4763411143
 20
95.9165553667
 30
0.0
 10
91.0375855906
 20
96.6639402216
 30
0.0
 10
90.7006030907
 20
97.2103772784
 30
0.0
 10
90.3620705985
 20
97.7282699113
 30
0.0
 10
90.0314989572
 20
98.1976273964
 30
0.0
 10
89.7621972247
 20
98.5435370329
 30
0.0
 10
89.5592725065
 20
98.7715567001
 30
0.0
 10
89.4288281238
 20
98.9018729798
 30
0.0
 10
89.3136650819
 20
98.9983567273
 30
0.0
 10
89.2153226525
 20
99.0601010775
 30
0.0
 10
89.1321155465
 20
99.0888134138
 30
0.0
 10
89.0604489719
 20
99.0793867351
 30
0.0
 10
89.0120002128
 20
99.0314025732
 30
0.0
 10
88.9849961504
 20
98.962130105
 30
0.0
 10
88.9704963117
 20
98.874760217
 30
0.0
 10
88.9681860475
 20
98.8104028822
 30
0.0
 10
88.9681860475
 20
98.7755858096
 30
0.0
  0
SPLINE
  5
500
100
AcDbEntity
  8
RUNDUNGEN
100
AcDbSpline
 62
7
  6
CONTINUOUS
 70
0
 71
3
 72
32
 73
28
 74
0
 42
0.0000001
 43
0.0000001
 44
0.0000000001
 40
0.0
 40
0.0
 40
0.0
 40
0.0
 40
0.0072588992
 40
0.013399209
 40
0.018396936
 40
0.0225665206
 40
0.0269007098
 40
0.0326510827
 40
0.040605757
 40
0.0510254957
 40
0.0639106555
 40
0.0790269522
 40
0.1146435364
 40
0.1552339776
 40
0.1987004688
 40
0.2436218252
 40
0.2890721864
 40
0.3793757747
 40
0.4667312892
 40
0.5496723614
 40
0.6273718627
 40
0.6993346464
 40
0.7652566164
 40
0.8249497088
 40
0.925225323
 40
0.965790411
 40
1.0
 40
1.0
 40
1.0
 40
1.0
 10
162.9681860475
 20
98.7755858096
 30
0.0
 10
162.9681860475
 20
98.8104030958
 30
0.0
 10
162.9658757704
 20
98.8747607747
 30
0.0
 10
162.9513758974
 20
98.9621314567
 30
0.0
 10
162.9243711285
 20
99.0314038712
 30
0.0
 10
162.8759204031
 20
99.0793911497
 30
0.0
 10
162.8042473631
 20
99.0888086848
 30
0.0
 10
162.7210245702
 20
99.0600956416
 30
0.0
 10
162.6226736451
 20
98.9983166099
 30
0.0
 10
162.5074867744
 20
98.9018226874
 30
0.0
 10
162.3770211281
 20
98.7714775118
 30
0.0
 10
162.1740921314
 20
98.5434207741
 30
0.0
 10
161.9047693655
 20
98.1974883282
 30
0.0
 10
161.5741868283
 20
97.7281042428
 30
0.0
 10
161.2356458185
 20
97.2101827262
 30
0.0
 10
160.8986588579
 20
96.6637237271
 30
0.0
 10
160.4599006067
 20
95.9163322187
 30
0.0
 10
159.9440221664
 20
94.9784779492
 30
0.0
 10
159.375932516
 20
93.864866134
 30
0.0
 10
158.8663603434
 20
92.7898474361
 30
0.0
 10
158.4176204571
 20
91.7682076633
 30
0.0
 10
158.0303106615
 20
90.8092835057
 30
0.0
 10
157.7038579351
 20
89.9193178653
 30
0.0
 10
157.3686994957
 20
88.8890273579
 30
0.0
 10
157.1231881329
 20
87.956639211
 30
0.0
 10
156.9927273934
 20
87.1266017387
 30
0.0
 10
156.9681860475
 20
86.7679402592
 30
0.0
 10
156.9681860475
 20
86.6038540785
 30
0.0
  0
SPLINE
  5
501
100
AcDbEntity
  8
0
100
AcDbSpline
 62
7
  6
CONTINUOUS
 70
0
 71
3
 72
9
 73
5
 74
0
 42
0.0000001
 43
0.0000001
 44
0.0000000001
 40
0.0
 40
0.0
 40
0.0
 40
0.0
 40
0.5
 40
1.0
 40
1.0
 40
1.0
 40
1.0
 10
151.7447160865
 20
86.6038540785
 30
0.0
 10
151.7069190164
 20
86.4592367937
 30
0.0
 10
151.6660219113
 20
86.1592278922
 30
0.0
 10
151.7069190164
 20
85.8592189906
 30
0.0
 10
151.7447160865
 20
85.7146017058
 30
0.0
  0
SPLINE
  5
502
100
AcDbEntity
  8
0
100
AcDbSpline
 62
7
  6
CONTINUOUS
 70
0
 71
3
 72
9
 73
5
 74
0
 42
0.0000001
 43
0.0000001
 44
0.0000000001
 40
0.0
 40
0.0
 40
0.0
 40
0.0
 40
0.5
 40
1.0
 40
1.0
 40
1.0
 40
1.0
 10
100.1916560085
 20
85.7146017058
 30
0.0
 10
100.2294530786
 20
85.8592189906
 30
0.0
 10
100.2703501837
 20
86.1592278922
 30
0.0
 10
100.2294530786
 20
86.4592367937
 30
0.0
 10
100.1916560085
 20
86.6038540785
 30
0.0
  0
SPLINE
  5
503
100
AcDbEntity
  8
RUNDUNGEN
100
AcDbSpline
 62
7
  6
CONTINUOUS
 70
0
 71
3
 72
14
 73
10
 74
0
 42
0.0000001
 43
0.0000001
 44
0.0000000001
 40
0.0
 40
0.0
 40
0.0
 40
0.0
 40
0.3031330961
 40
0.4451048277
 40
0.5766790638
 40
0.6966574007
 40
0.805455419
 40
0.9052637349
 40
1.0
 40
1.0
 40
1.0
 40
1.0
 10
94.9681860475
 20
126.6575550353
 30
0.0
 10
94.180321616
 20
126.6575550353
 30
0.0
 10
93.0142868577
 20
126.5138958179
 30
0.0
 10
91.5934367023
 20
126.0242670089
 30
0.0
 10
90.6847476227
 20
125.5443281318
 30
0.0
 10
89.9424856392
 20
124.963836511
 30
0.0
 10
89.3899774678
 20
124.3025950989
 30
0.0
 10
89.0468318242
 20
123.5824838818
 30
0.0
 10
88.9681860475
 20
123.0739567806
 30
0.0
 10
88.9681860475
 20
122.8277305038
 30
0.0
  0
SPLINE
  5
504
100
AcDbEntity
  8
RUNDUNGEN
100
AcDbSpline
 62
7
  6
CONTINUOUS
 70
0
 71
3
 72
14
 73
10
 74
0
 42
0.0000001
 43
0.0000001
 44
0.0000000001
 40
0.0
 40
0.0
 40
0.0
 40
0.0
 40
0.0947362651
 40
0.194544581
 40
0.3033425993
 40
0.4233209362
 40
0.5548951723
 40
0.6968669039
 40
1.0
 40
1.0
 40
1.0
 40
1.0
 10
88.9681860475
 20
128.3277305038
 30
0.0
 10
88.9681860475
 20
128.5739567806
 30
0.0
 10
89.0468318242
 20
129.0824838818
 30
0.0
 10
89.3899774678
 20
129.8025950989
 30
0.0
 10
89.9424856392
 20
130.463836511
 30
0.0
 10
90.6847476227
 20
131.0443281318
 30
0.0
 10
91.5934367023
 20
131.5242670089
 30
0.0
 10
93.0142868577
 20
132.0138958179
 30
0.0
 10
94.180321616
 20
132.1575550353
 30
0.0
 10
94.9681860475
 20
132.1575550353
 30
0.0
  0
SPLINE
  5
505
100
AcDbEntity
  8
BEZUGSACHSEN
100
AcDbSpline
 62
7
  6
CONTINUOUS
 70
0
 71
3
 72
15
 73
11
 74
0
 42
0.0000001
 43
0.0000001
 44
0.0000000001
 40
0.0
 40
0.0
 40
0.0
 40
0.0
 40
0.1213952628
 40
0.2449248391
 40
0.3714323782
 40
0.5
 40
0.6285676218
 40
0.7550751609
 40
0.8786047372
 40
1.0
 40
1.0
 40
1.0
 40
1.0
 10
104.3681860475
 20
112.9380427718
 30
0.0
 10
104.3681860475
 20
113.3056332225
 30
0.0
 10
104.2083789534
 20
114.056041969
 30
0.0
 10
103.5340953056
 20
114.99282157
 30
0.0
 10
102.5365811288
 20
115.6134014568
 30
0.0
 10
101.3681860475
 20
115.8295220871
 30
0.0
 10
100.1997909662
 20
115.6134014568
 30
0.0
 10
99.2022767893
 20
114.99282157
 30
0.0
 10
98.5279931416
 20
114.056041969
 30
0.0
 10
98.3681860475
 20
113.3056332225
 30
0.0
 10
98.3681860475
 20
112.9380427718
 30
0.0
  0
SPLINE
  5
506
100
AcDbEntity
  8
0
100
AcDbSpline
 62
7
  6
CONTINUOUS
 70
0
 71
3
 72
9
 73
5
 74
0
 42
0.0000001
 43
0.0000001
 44
0.0000000001
 40
0.0
 40
0.0
 40
0.0
 40
0.0
 40
0.6258022877
 40
1.0
 40
1.0
 40
1.0
 40
1.0
 10
151.7447160865
 20
85.7146017058
 30
0.0
 10
151.7980851958
 20
85.5104034528
 30
0.0
 10
151.8819181409
 20
85.1837437642
 30
0.0
 10
151.963102545
 20
84.8563551064
 30
0.0
 10
151.9906938042
 20
84.7332066955
 30
0.0
  0
SPLINE
  5
507
100
AcDbEntity
  8
0
100
AcDbSpline
 62
7
  6
CONTINUOUS
 70
0
 71
3
 72
11
 73
7
 74
0
 42
0.0000001
 43
0.0000001
 44
0.0000000001
 40
0.0
 40
0.0
 40
0.0
 40
0.0
 40
0.4397122507
 40
0.7526692237
 40
0.9387614398
 40
1.0
 40
1.0
 40
1.0
 40
1.0
 10
151.9906938042
 20
84.7332066955
 30
0.0
 10
151.9944851687
 20
84.7162846511
 30
0.0
 10
152.0002571617
 20
84.6884344631
 30
0.0
 10
152.0093138405
 20
84.6486677607
 30
0.0
 10
152.0098943515
 20
84.6327428939
 30
0.0
 10
152.0136875203
 20
84.6169655713
 30
0.0
 10
152.0112733906
 20
84.6170358995
 30
0.0
  0
SPLINE
  5
508
100
AcDbEntity
  8
KONSTRUKTIONSELEMENTE
100
AcDbSpline
 62
7
  6
CONTINUOUS
 70
0
 71
3
 72
15
 73
11
 74
0
 42
0.0000001
 43
0.0000001
 44
0.0000000001
 40
0.0
 40
0.0
 40
0.0
 40
0.0
 40
0.1229637708
 40
0.2475446398
 40
0.3734201295
 40
0.5
 40
0.6265798705
 40
0.7524553602
 40
0.8770362292
 40
1.0
 40
1.0
 40
1.0
 40
1.0
 10
131.7208120809
 20
132.1575550353
 30
0.0
 10
131.3736990947
 20
132.5606621703
 30
0.0
 10
130.5800801398
 20
133.2952031833
 30
0.0
 10
129.1738803549
 20
134.1144738252
 30
0.0
 10
127.6109384899
 20
134.622625094
 30
0.0
 10
125.9681860475
 20
134.7945799152
 30
0.0
 10
124.3254336051
 20
134.622625094
 30
0.0
 10
122.76249174
 20
134.1144738252
 30
0.0
 10
121.3562919552
 20
133.2952031833
 30
0.0
 10
120.5626730003
 20
132.5606621703
 30
0.0
 10
120.2155600141
 20
132.1575550353
 30
0.0
  0
ELLIPSE
  5
509
100
AcDbEntity
  8
0
100
AcDbEllipse
 62
7
  6
CONTINUOUS
 10
516.0290086719
 20
132.715131336
 30
0.0
 11
-3.4159464179
 21
7.2639319066
 31
0.0
 40
0.4203155586
 41
-1.6089244346
 42
-0.2482200958
  0
ELLIPSE
  5
50A
100
AcDbEntity
  8
RUNDUNGEN
100
AcDbEllipse
 62
7
  6
CONTINUOUS
 10
531.2937687312
 20
138.2710496308
 30
0.0
 11
-2.0523986558
 21
7.7602227051
 31
0.0
 40
0.4203155586
 41
0.2482200958
 42
1.6089244346
  0
ELLIPSE
  5
50B
100
AcDbEntity
  8
0
100
AcDbEllipse
 62
7
  6
CONTINUOUS
 10
473.7189914691
 20
132.715131336
 30
0.0
 11
3.4159464179
 21
7.2639319066
 31
0.0
 40
0.4203155586
 41
0.2482200958
 42
1.6089244346
  0
ELLIPSE
  5
50C
100
AcDbEntity
  8
RUNDUNGEN
100
AcDbEllipse
 62
7
  6
CONTINUOUS
 10
458.4542314099
 20
138.2710496308
 30
0.0
 11
2.0523986558
 21
7.7602227051
 31
0.0
 40
0.4203155586
 41
-1.6089244346
 42
-0.2482200958
  0
ELLIPSE
  5
50D
100
AcDbEntity
  8
0
100
AcDbEllipse
 62
7
  6
CONTINUOUS
 10
125.9681860475
 20
117.0921380964
 30
0.0
 11
-0.0
 21
8.7259150049
 31
0.0
 40
0.8480485996
 41
-1.5707963105
 42
-0.8904929097
  0
ELLIPSE
  5
50E
100
AcDbEntity
  8
0
100
AcDbEllipse
 62
7
  6
CONTINUOUS
 10
125.9681860475
 20
117.0921380964
 30
0.0
 11
-0.0
 21
8.7259150049
 31
0.0
 40
0.8480485996
 41
0.8904929097
 42
1.5707963268
  0
ELLIPSE
  5
50F
100
AcDbEntity
  8
KONSTRUKTIONSELEMENTE
100
AcDbEllipse
 62
7
  6
CONTINUOUS
 10
125.9681860475
 20
128.8982191576
 30
0.0
 11
7.4
 21
0.0
 31
0.0
 40
0.7002075382
 41
0.0000000163
 42
0.6803034171
  0
ELLIPSE
  5
510
100
AcDbEntity
  8
KONSTRUKTIONSELEMENTE
100
AcDbEllipse
 62
7
  6
CONTINUOUS
 10
125.9681860475
 20
128.8982191576
 30
0.0
 11
7.4
 21
-0.0
 31
0.0
 40
0.7002075382
 41
2.4612892365
 42
3.1415926536
  0
ENDSEC
  0
SECTION
  2
OBJECTS
  0
DICTIONARY
  5
C
100
AcDbDictionary
280
0
281
1
  3
ACAD_GROUP
350
D
  3
ACAD_MLINESTYLE
350
17
  3
ACAD_LAYOUT
350
1A
  3
ACAD_PLOTSETTINGS
350
19
  3
ACAD_PLOTSTYLENAME
350
E
  0
DICTIONARY
  5
D
102
{ACAD_REACTORS
330
C
102
}
100
AcDbDictionary
280
0
281
1
  0
ACDBDICTIONARYWDFLT
  5
E
102
{ACAD_REACTORS
330
C
102
}
100
AcDbDictionary
281
1
  3
Normal
350
F
100
AcDbDictionaryWithDefault
340
F
  0
DICTIONARY
  5
17
102
{ACAD_REACTORS
330
C
102
}
100
AcDbDictionary
280
0
281
1
  3
Standard
350
18
  0
DICTIONARY
  5
19
102
{ACAD_REACTORS
330
C
102
}
100
AcDbDictionary
281
1
  0
DICTIONARY
  5
1A
102
{ACAD_REACTORS
330
C
102
}
100
AcDbDictionary
281
1
  3
Model
350
511
  3
Layout1
350
512
  0
ACDBPLACEHOLDER
  5
F
102
{ACAD_REACTORS
330
E
102
}
  0
MLINESTYLE
  5
18
102
{ACAD_REACTORS
330
17
102
}
100
AcDbMlineStyle
  2
STANDARD
 70
0
  3

 62
256
 51
90.0
 52
90.0
 71
2
 49
0.5
 62
256
  6
BYLAYER
 49
-0.5
 62
256
  6
BYLAYER
  0
LAYOUT
  5
511
102
{ACAD_REACTORS
330
1A
102
}
100
AcDbPlotSettings
  1

  2
none_device
  4
ISO_A2_(594.00_x_420.00_MM)
  6

 40
0.0
 41
0.0
 42
0.0
 43
0.0
 44
594.0
 45
420.0
 46
0.0
 47
0.0
 48
0.0
 49
0.0
140
0.0
141
0.0
142
1.0
143
1.0
 70
1024
 72
1
 73
0
 74
0
  7

 75
0
147
1.0
148
0.0
149
0.0
100
AcDbLayout
  1
Model
 70
0
 71
0
 10
0.0
 20
0.0
 11
594.0
 21
420.0
 12
0.0
 22
0.0
 32
0.0
 14
0.0
 24
0.0
 34
0.0
 15
0.0
 25
0.0
 35
0.0
146
0.0
 13
0.0
 23
0.0
 33
0.0
 16
1.0
 26
0.0
 36
0.0
 17
0.0
 27
1.0
 37
0.0
 76
0
330
20A
345
0
346
0
  0
LAYOUT
  5
512
102
{ACAD_REACTORS
330
1A
102
}
100
AcDbPlotSettings
  1

  2
none_device
  4
ISO_A2_(594.00_x_420.00_MM)
  6

 40
0.0
 41
0.0
 42
0.0
 43
0.0
 44
594.0
 45
420.0
 46
0.0
 47
0.0
 48
0.0
 49
0.0
140
0.0
141
0.0
142
1.0
143
1.0
 70
0
 72
1
 73
0
 74
0
  7

 75
0
147
1.0
148
0.0
149
0.0
100
AcDbLayout
  1
Layout1
 70
0
 71
1
 10
0.0
 20
0.0
 11
594.0
 21
420.0
 12
0.0
 22
0.0
 32
0.0
 14
0.0
 24
0.0
 34
0.0
 15
0.0
 25
0.0
 35
0.0
146
0.0
 13
0.0
 23
0.0
 33
0.0
 16
1.0
 26
0.0
 36
0.0
 17
0.0
 27
1.0
 37
0.0
 76
0
330
20B
345
0
346
0
  0
ENDSEC
  0
EOF
