999
DXF file: IBK-RG-2-10_7903077_M34553-P-3.dxf
999
Pro/ENGINEER 2010140 by Parametric Technology Corporation
  0
SECTION
  2
HEADER
  9
$ACADVER
  1
AC1015
  9
$DWGCODEPAGE
  3
ANSI_1252
  9
$EXTMAX
 10
594.0
 20
420.0
 30
0.0
  9
$EXTMIN
 10
0.0
 20
0.0
 30
0.0
  9
$LIMMIN
 10
0.0
 20
0.0
  9
$LIMMAX
 10
594.0
 20
420.0
  9
$VIEWCTR
 10
297.0
 20
210.0
  9
$VIEWSIZE
 40
420.0
  9
$CLAYER
  8
0
  9
$LTSCALE
 40
32.67
  9
$CELTYPE
  6
BYLAYER
  9
$DIMSCALE
 40
1.0
  9
$DIMASZ
 40
3.5
  9
$DIMEXO
 40
3.7125
  9
$DIMDLI
 40
22.572
  9
$DIMEXE
 40
10.692
  9
$DIMCEN
 40
5.346
  9
$DIMLFAC
 40
1.0
  9
$DIMBLK
  1
_FILLED
  9
$DIMTXT
 40
3.5
  9
$DIMTOL
 70
1
  9
$DIMLIM
 70
0
  9
$DIMTFAC
 40
1.0
  9
$DIMTP
 40
0.005
  9
$DIMTM
 40
0.005
  9
$PDMODE
 70
3
  9
$PDSIZE
 40
0.3125
  9
$HANDSEED
  5
4DF
  9
$TILEMODE
 70
1
  9
$MEASUREMENT
 70
1
  9
$INSUNITS
 70
4
  0
ENDSEC
  0
SECTION
  2
CLASSES
  0
CLASS
  1
ACDBDICTIONARYWDFLT
  2
AcDbDictionaryWithDefault
  3
AutoCAD 2000
 90
0
280
0
281
0
  0
CLASS
  1
ACDBPLACEHOLDER
  2
AcDbPlaceHolder
  3
AutoCAD 2000
 90
0
280
0
281
0
  0
CLASS
  1
LAYOUT
  2
AcDbLayout
  3
AutoCAD 2000
 90
0
280
0
281
0
  0
ENDSEC
  0
SECTION
  2
TABLES
  0
TABLE
  2
VPORT
  5
8
100
AcDbSymbolTable
 70
2
  0
VPORT
  5
1F4
100
AcDbSymbolTableRecord
100
AcDbViewportTableRecord
  2
*ACTIVE
 70
0
 10
0.0
 20
0.0
 11
1.0
 21
1.0
 12
297.0
 22
210.0
 13
0.0
 23
0.0
 14
1.0
 24
1.0
 15
0.0
 25
0.0
 16
0.0
 26
0.0
 36
1.0
 17
0.0
 27
0.0
 37
0.0
 40
420.0
 41
1.4142857143
 42
50.0
 43
0.0
 44
0.0
 50
0.0
 51
0.0
 71
0
 72
100
 73
1
 74
1
 75
0
 76
0
 77
0
 78
0
  0
ENDTAB
  0
TABLE
  2
LTYPE
  5
5
100
AcDbSymbolTable
 70
6
  0
LTYPE
  5
14
100
AcDbSymbolTableRecord
100
AcDbLinetypeTableRecord
  2
BYBLOCK
 70
0
  3

 72
65
 73
0
 40
0.0
  0
LTYPE
  5
15
100
AcDbSymbolTableRecord
100
AcDbLinetypeTableRecord
  2
BYLAYER
 70
0
  3

 72
65
 73
0
 40
0.0
  0
LTYPE
  5
16
100
AcDbSymbolTableRecord
100
AcDbLinetypeTableRecord
  2
CONTINUOUS
 70
64
  3
Solid line
 72
65
 73
0
 40
0.0
  0
LTYPE
  5
1F5
100
AcDbSymbolTableRecord
100
AcDbLinetypeTableRecord
  2
CENTER
 70
64
  3
____ _ ____ _ ____ _ ____ _ ____ _ ____ _ ____
 72
65
 73
4
 40
0.6
 49
0.375
 74
0
 49
-0.075
 74
0
 49
0.075
 74
0
 49
-0.075
 74
0
  0
LTYPE
  5
1F6
100
AcDbSymbolTableRecord
100
AcDbLinetypeTableRecord
  2
HIDDEN
 70
64
  3
- - - - - - - - - - - - - - - - - - - -
 72
65
 73
2
 40
0.2
 49
0.1
 74
0
 49
-0.1
 74
0
  0
LTYPE
  5
1F7
100
AcDbSymbolTableRecord
100
AcDbLinetypeTableRecord
  2
PHANTOM
 70
64
  3
_____ _ _ _____ _ _ _____ _ _ _____
 72
65
 73
6
 40
0.8
 49
0.45
 74
0
 49
-0.05
 74
0
 49
0.1
 74
0
 49
-0.05
 74
0
 49
0.1
 74
0
 49
-0.05
 74
0
  0
LTYPE
  5
1F8
100
AcDbSymbolTableRecord
100
AcDbLinetypeTableRecord
  2
DOT
 70
64
  3
. . . . . . . . . . . . . . . . . . . .
 72
65
 73
2
 40
0.2
 49
0.1
 74
0
 49
-0.1
 74
0
  0
LTYPE
  5
1F9
100
AcDbSymbolTableRecord
100
AcDbLinetypeTableRecord
  2
DASHED
 70
64
  3
- - - - - - - - - - - - - - - - - - - -
 72
65
 73
2
 40
0.2
 49
0.1
 74
0
 49
-0.1
 74
0
  0
ENDTAB
  0
TABLE
  2
LAYER
  5
2
100
AcDbSymbolTable
 70
36
  0
LAYER
  5
10
100
AcDbSymbolTableRecord
100
AcDbLayerTableRecord
  2
0
 70
0
 62
7
  6
CONTINUOUS
370
-3
390
F
  0
LAYER
  5
1FA
100
AcDbSymbolTableRecord
100
AcDbLayerTableRecord
  2
DEFAULT_1
 70
0
 62
7
  6
CENTER
370
-3
390
F
  0
LAYER
  5
1FB
100
AcDbSymbolTableRecord
100
AcDbLayerTableRecord
  2
DEFAULT_2
 70
0
 62
8
  6
HIDDEN
370
-3
390
F
  0
LAYER
  5
1FC
100
AcDbSymbolTableRecord
100
AcDbLayerTableRecord
  2
DEFAULT_3
 70
0
 62
7
  6
PHANTOM
370
-3
390
F
  0
LAYER
  5
1FD
100
AcDbSymbolTableRecord
100
AcDbLayerTableRecord
  2
BEZUGSACHSEN
 70
0
 62
7
  6
CONTINUOUS
370
-3
390
F
  0
LAYER
  5
1FE
100
AcDbSymbolTableRecord
100
AcDbLayerTableRecord
  2
BEZUGSEBENEN
 70
0
 62
7
  6
CONTINUOUS
370
-3
390
F
  0
LAYER
  5
1FF
100
AcDbSymbolTableRecord
100
AcDbLayerTableRecord
  2
BG_STARTBEZUEGE
 70
0
 62
7
  6
CONTINUOUS
370
-3
390
F
  0
LAYER
  5
200
100
AcDbSymbolTableRecord
100
AcDbLayerTableRecord
  2
FASEN
 70
0
 62
7
  6
CONTINUOUS
370
-3
390
F
  0
LAYER
  5
201
100
AcDbSymbolTableRecord
100
AcDbLayerTableRecord
  2
HILFEN
 70
0
 62
7
  6
CONTINUOUS
370
-3
390
F
  0
LAYER
  5
202
100
AcDbSymbolTableRecord
100
AcDbLayerTableRecord
  2
KONSTRUKTIONSELEMENTE
 70
0
 62
7
  6
CONTINUOUS
370
-3
390
F
  0
LAYER
  5
203
100
AcDbSymbolTableRecord
100
AcDbLayerTableRecord
  2
NORM
 70
0
 62
7
  6
CONTINUOUS
370
-3
390
F
  0
LAYER
  5
204
100
AcDbSymbolTableRecord
100
AcDbLayerTableRecord
  2
PLATZIERUNG
 70
0
 62
7
  6
CONTINUOUS
370
-3
390
F
  0
LAYER
  5
205
100
AcDbSymbolTableRecord
100
AcDbLayerTableRecord
  2
RUNDUNGEN
 70
0
 62
7
  6
CONTINUOUS
370
-3
390
F
  0
LAYER
  5
206
100
AcDbSymbolTableRecord
100
AcDbLayerTableRecord
  2
TEIL_STARTBEZUEGE
 70
0
 62
7
  6
CONTINUOUS
370
-3
390
F
  0
LAYER
  5
207
100
AcDbSymbolTableRecord
100
AcDbLayerTableRecord
  2
T_STARTBEZUEGE
 70
0
 62
7
  6
CONTINUOUS
370
-3
390
F
  0
ENDTAB
  0
TABLE
  2
STYLE
  5
3
100
AcDbSymbolTable
 70
1
  0
STYLE
  5
11
100
AcDbSymbolTableRecord
100
AcDbTextStyleTableRecord
  2
STANDARD
 70
0
 40
0.0
 41
0.7
 50
0.0
 71
0
 42
0.2
  3
txt
  4

  0
STYLE
  5
208
100
AcDbSymbolTableRecord
100
AcDbTextStyleTableRecord
  2
TEXTSTYLE_1
 70
0
 40
0.0
 41
0.8
 50
0.0
 71
0
 42
0.2
  3
gdt
  4

  0
ENDTAB
  0
TABLE
  2
VIEW
  5
6
100
AcDbSymbolTable
 70
0
  0
ENDTAB
  0
TABLE
  2
UCS
  5
7
100
AcDbSymbolTable
 70
0
  0
ENDTAB
  0
TABLE
  2
APPID
  5
9
100
AcDbSymbolTable
 70
1
  0
APPID
  5
209
100
AcDbSymbolTableRecord
100
AcDbRegAppTableRecord
  2
ACAD
 70
0
  0
ENDTAB
  0
TABLE
  2
BLOCK_RECORD
  5
1
100
AcDbSymbolTable
 70
0
  0
BLOCK_RECORD
  5
20A
100
AcDbSymbolTableRecord
100
AcDbBlockTableRecord
  2
*Model_Space
  0
BLOCK_RECORD
  5
20B
100
AcDbSymbolTableRecord
100
AcDbBlockTableRecord
  2
*Paper_Space
  0
ENDTAB
  0
TABLE
  2
DIMSTYLE
  5
A
100
AcDbSymbolTable
 70
1
100
AcDbDimStyleTable
 71
0
  0
DIMSTYLE
105
20C
100
AcDbSymbolTableRecord
100
AcDbDimStyleTableRecord
  2
STANDARD
 70
0
  3

  4

 40
1.0
 41
3.5
 42
0.0625
 43
0.38
 44
0.18
 45
0.0
 46
0.0
 47
0.005
 48
0.005
140
3.5
141
0.09
142
0.0
143
25.4
144
1.0
145
0.0
146
1.0
147
0.09
 71
1.0
 72
0.0
 73
0
 74
0
 75
0
 76
0
 77
1
 78
8
170
0
171
2
172
0
173
0
174
0
175
0
176
0
177
0
178
5
270
2
271
3
272
3
273
2
274
2
275
0
280
0
281
0
282
0
283
1
284
8
285
0
286
0
287
3
288
0
340
11
  0
ENDTAB
  0
ENDSEC
  0
SECTION
  2
BLOCKS
  0
BLOCK
  5
20
100
AcDbEntity
  8
0
100
AcDbBlockBegin
  2
*Model_Space
 70
0
 10
0.0
 20
0.0
 30
0.0
  3
*Model_Space
  1

  0
ENDBLK
  5
21
100
AcDbEntity
  8
0
100
AcDbBlockEnd
  0
BLOCK
  5
1C
100
AcDbEntity
  8
0
100
AcDbBlockBegin
  2
*Paper_Space
 70
0
 10
0.0
 20
0.0
 30
0.0
  3
*Paper_Space
  1

  0
ENDBLK
  5
1D
100
AcDbEntity
  8
0
100
AcDbBlockEnd
  0
ENDSEC
  0
SECTION
  2
ENTITIES
  0
MTEXT
  5
20D
100
AcDbEntity
  8
0
100
AcDbMText
 62
5
  6
CONTINUOUS
  7
STANDARD
 71
1
 72
1
 10
458.8626257139
 20
241.4625769154
 30
0.0
 11
0.0
 21
1.0
 31
0.0
 44
0.9
  1
RUD
 40
7.5
 41
20.0
  0
MTEXT
  5
20E
100
AcDbEntity
  8
0
100
AcDbMText
 62
5
  6
CONTINUOUS
  7
STANDARD
 71
1
 72
1
 10
530.7668577415
 20
221.2303463293
 30
0.0
 11
0.0
 21
1.0
 31
0.0
 44
0.9
  1
IBK-RG 2-10
 40
7.5
 41
62.5
  0
MTEXT
  5
20F
100
AcDbEntity
  8
0
100
AcDbMText
 62
5
  6
CONTINUOUS
  7
STANDARD
 71
1
 72
1
 10
121.7082389903
 20
211.4300977142
 30
0.0
 11
0.0
 21
1.0
 31
0.0
 44
0.9
  1
RUD IBK-RG 2-10
 40
7.5
 41
86.9642857143
  0
LINE
  5
210
100
AcDbEntity
  8
0
100
AcDbLine
 62
7
  6
CONTINUOUS
 10
0.0
 20
0.0
 11
0.0
 21
420.0
  0
LINE
  5
211
100
AcDbEntity
  8
0
100
AcDbLine
 62
7
  6
CONTINUOUS
 10
0.0
 20
0.0
 11
594.0
 21
0.0
  0
LINE
  5
212
100
AcDbEntity
  8
0
100
AcDbLine
 62
7
  6
CONTINUOUS
 10
0.0
 20
420.0
 11
594.0
 21
420.0
  0
LINE
  5
213
100
AcDbEntity
  8
0
100
AcDbLine
 62
7
  6
CONTINUOUS
 10
594.0
 20
0.0
 11
594.0
 21
420.0
  0
LINE
  5
214
100
AcDbEntity
  8
RUNDUNGEN
100
AcDbLine
 62
7
  6
CONTINUOUS
 10
268.1726192091
 20
109.6368197317
 11
266.0595279004
 21
114.1683586669
  0
LINE
  5
215
100
AcDbEntity
  8
RUNDUNGEN
100
AcDbLine
 62
7
  6
CONTINUOUS
 10
342.5212192921
 20
149.8230309183
 11
344.6343106008
 21
145.2914919832
  0
LINE
  5
216
100
AcDbEntity
  8
0
100
AcDbLine
 62
7
  6
CONTINUOUS
 10
460.4940975697
 20
124.913868455
 11
462.1855442871
 21
124.298232197
  0
LINE
  5
217
100
AcDbEntity
  8
RUNDUNGEN
100
AcDbLine
 62
7
  6
CONTINUOUS
 10
357.6805294138
 20
151.3750437256
 11
355.5674381051
 21
155.9065826608
  0
LINE
  5
218
100
AcDbEntity
  8
RUNDUNGEN
100
AcDbLine
 62
7
  6
CONTINUOUS
 10
355.7539374236
 20
155.9935487213
 11
357.8670287323
 21
151.4620097861
  0
LINE
  5
219
100
AcDbEntity
  8
KONSTRUKTIONSELEMENTE
100
AcDbLine
 62
7
  6
CONTINUOUS
 10
355.1442083272
 20
157.9711521081
 11
353.0311170185
 21
162.5026910433
  0
LINE
  5
21A
100
AcDbEntity
  8
KONSTRUKTIONSELEMENTE
100
AcDbLine
 62
7
  6
CONTINUOUS
 10
355.5973622207
 20
158.182461239
 11
353.484270912
 21
162.7140001741
  0
LINE
  5
21B
100
AcDbEntity
  8
0
100
AcDbLine
 62
7
  6
CONTINUOUS
 10
456.5500819261
 20
134.3283116463
 11
471.25832299
 21
128.9749497006
  0
LINE
  5
21C
100
AcDbEntity
  8
0
100
AcDbLine
 62
7
  6
CONTINUOUS
 10
468.1484053101
 20
150.6198003202
 11
472.8454588751
 21
148.9102126338
  0
LINE
  5
21D
100
AcDbEntity
  8
0
100
AcDbLine
 62
7
  6
CONTINUOUS
 10
475.4519583897
 20
156.0715111941
 11
470.7549048247
 21
157.7810988805
  0
LINE
  5
21E
100
AcDbEntity
  8
0
100
AcDbLine
 62
7
  6
CONTINUOUS
 10
480.1498731069
 20
165.4133280094
 11
473.1608974622
 21
167.9571071121
  0
LINE
  5
21F
100
AcDbEntity
  8
0
100
AcDbLine
 62
7
  6
CONTINUOUS
 10
485.3761513799
 20
182.1026078373
 11
479.884998321
 21
184.1012241025
  0
LINE
  5
220
100
AcDbEntity
  8
0
100
AcDbLine
 62
7
  6
CONTINUOUS
 10
491.3513409457
 20
198.5193062464
 11
485.8601878868
 21
200.5179225116
  0
LINE
  5
221
100
AcDbEntity
  8
0
100
AcDbLine
 62
7
  6
CONTINUOUS
 10
495.7254832928
 20
210.5371635744
 11
490.2343302339
 21
212.5357798396
  0
LINE
  5
222
100
AcDbEntity
  8
KONSTRUKTIONSELEMENTE
100
AcDbLine
 62
7
  6
CONTINUOUS
 10
433.5398319058
 20
194.5276317487
 11
431.4267405971
 21
199.0591706838
  0
LINE
  5
223
100
AcDbEntity
  8
KONSTRUKTIONSELEMENTE
100
AcDbLine
 62
7
  6
CONTINUOUS
 10
433.9929857994
 20
194.7389408795
 11
431.8798944907
 21
199.2704798147
  0
LINE
  5
224
100
AcDbEntity
  8
KONSTRUKTIONSELEMENTE
100
AcDbLine
 62
7
  6
CONTINUOUS
 10
437.0458488768
 20
201.6794039066
 11
431.8798944907
 21
199.2704798147
  0
LINE
  5
225
100
AcDbEntity
  8
KONSTRUKTIONSELEMENTE
100
AcDbLine
 62
7
  6
CONTINUOUS
 10
431.4267405971
 20
199.0591706838
 11
426.260786211
 21
196.6502465919
  0
LINE
  5
226
100
AcDbEntity
  8
KONSTRUKTIONSELEMENTE
100
AcDbLine
 62
7
  6
CONTINUOUS
 10
358.6502252981
 20
165.1229242661
 11
353.484270912
 21
162.7140001741
  0
LINE
  5
227
100
AcDbEntity
  8
KONSTRUKTIONSELEMENTE
100
AcDbLine
 62
7
  6
CONTINUOUS
 10
353.0311170185
 20
162.5026910433
 11
347.8651626324
 21
160.0937669513
  0
LINE
  5
228
100
AcDbEntity
  8
KONSTRUKTIONSELEMENTE
100
AcDbLine
 62
7
  6
CONTINUOUS
 10
399.6812955163
 20
182.5457907567
 11
386.0866787107
 21
176.2065168306
  0
LINE
  5
229
100
AcDbEntity
  8
KONSTRUKTIONSELEMENTE
100
AcDbLine
 62
7
  6
CONTINUOUS
 10
439.1589401855
 20
197.1478649714
 11
433.9929857994
 21
194.7389408795
  0
LINE
  5
22A
100
AcDbEntity
  8
KONSTRUKTIONSELEMENTE
100
AcDbLine
 62
7
  6
CONTINUOUS
 10
433.5398319058
 20
194.5276317487
 11
428.3738775197
 21
192.1187076567
  0
LINE
  5
22B
100
AcDbEntity
  8
KONSTRUKTIONSELEMENTE
100
AcDbLine
 62
7
  6
CONTINUOUS
 10
360.7633166068
 20
160.5913853309
 11
355.5973622207
 21
158.182461239
  0
LINE
  5
22C
100
AcDbEntity
  8
KONSTRUKTIONSELEMENTE
100
AcDbLine
 62
7
  6
CONTINUOUS
 10
355.1442083272
 20
157.9711521081
 11
349.9782539411
 21
155.5622280162
  0
LINE
  5
22D
100
AcDbEntity
  8
KONSTRUKTIONSELEMENTE
100
AcDbLine
 62
7
  6
CONTINUOUS
 10
401.5830776941
 20
178.467405715
 11
387.9884608886
 21
172.1281317889
  0
LINE
  5
22E
100
AcDbEntity
  8
KONSTRUKTIONSELEMENTE
100
AcDbLine
 62
7
  6
CONTINUOUS
 10
440.312467774
 20
195.9755279455
 11
477.4076292806
 21
213.2732858365
  0
LINE
  5
22F
100
AcDbEntity
  8
0
100
AcDbLine
 62
7
  6
CONTINUOUS
 10
491.8353774527
 20
216.9346209207
 11
497.3265305115
 21
214.9360046555
  0
LINE
  5
230
100
AcDbEntity
  8
RUNDUNGEN
100
AcDbLine
 62
7
  6
CONTINUOUS
 10
541.4665218233
 20
153.1944659812
 11
536.2574196101
 21
157.565421727
  0
LINE
  5
231
100
AcDbEntity
  8
0
100
AcDbLine
 62
7
  6
CONTINUOUS
 10
451.6777131426
 20
219.8815550741
 11
451.6777131426
 21
284.8815550741
  0
LINE
  5
232
100
AcDbEntity
  8
RUNDUNGEN
100
AcDbLine
 62
7
  6
CONTINUOUS
 10
266.0595279004
 20
114.1683586669
 11
355.7511878821
 21
155.992266589
  0
LINE
  5
233
100
AcDbEntity
  8
KONSTRUKTIONSELEMENTE
100
AcDbLine
 62
7
  6
CONTINUOUS
 10
363.3666926255
 20
159.2675902918
 11
387.3458529579
 21
170.449256391
  0
LINE
  5
234
100
AcDbEntity
  8
KONSTRUKTIONSELEMENTE
100
AcDbLine
 62
7
  6
CONTINUOUS
 10
403.2442352551
 20
177.8627938084
 11
427.2233955875
 21
189.0444599076
  0
LINE
  5
235
100
AcDbEntity
  8
KONSTRUKTIONSELEMENTE
100
AcDbLine
 62
7
  6
CONTINUOUS
 10
365.2684748033
 20
155.1892052502
 11
389.2476351357
 21
166.3708713493
  0
LINE
  5
236
100
AcDbEntity
  8
KONSTRUKTIONSELEMENTE
100
AcDbLine
 62
7
  6
CONTINUOUS
 10
405.1460174329
 20
173.7844087668
 11
429.1251777653
 21
184.9660748659
  0
LINE
  5
237
100
AcDbEntity
  8
RUNDUNGEN
100
AcDbLine
 62
7
  6
CONTINUOUS
 10
268.1726192091
 20
109.6368197317
 11
357.8668357352
 21
151.4619197901
  0
LINE
  5
238
100
AcDbEntity
  8
KONSTRUKTIONSELEMENTE
100
AcDbLine
 62
7
  6
CONTINUOUS
 10
442.9116351065
 20
190.5672720637
 11
479.943338851
 21
207.8354391143
  0
LINE
  5
239
100
AcDbEntity
  8
KONSTRUKTIONSELEMENTE
100
AcDbLine
 62
7
  6
CONTINUOUS
 10
390.9467887207
 20
165.7839772797
 11
404.5414055263
 21
172.1232512058
  0
LINE
  5
23A
100
AcDbEntity
  8
KONSTRUKTIONSELEMENTE
100
AcDbLine
 62
7
  6
CONTINUOUS
 10
353.8240801229
 20
147.3148271541
 11
364.6091427886
 21
152.3439844688
  0
LINE
  5
23B
100
AcDbEntity
  8
KONSTRUKTIONSELEMENTE
100
AcDbLine
 62
7
  6
CONTINUOUS
 10
432.2197037016
 20
183.8713067947
 11
443.0047663673
 21
188.9004641094
  0
LINE
  5
23C
100
AcDbEntity
  8
KONSTRUKTIONSELEMENTE
100
AcDbLine
 62
7
  6
CONTINUOUS
 10
392.8485708986
 20
161.705592238
 11
406.4431877041
 21
168.0448661641
  0
LINE
  5
23D
100
AcDbEntity
  8
0
100
AcDbLine
 62
7
  6
CONTINUOUS
 10
505.5200488325
 20
216.9346209207
 11
500.0288957736
 21
214.9360046555
  0
LINE
  5
23E
100
AcDbEntity
  8
0
100
AcDbLine
 62
7
  6
CONTINUOUS
 10
501.6299429924
 20
210.5371635744
 11
507.1210960513
 21
212.5357798396
  0
LINE
  5
23F
100
AcDbEntity
  8
KONSTRUKTIONSELEMENTE
100
AcDbLine
 62
7
  6
CONTINUOUS
 10
491.8353774527
 20
216.9346209207
 11
485.1845260301
 21
210.8541246448
  0
LINE
  5
240
100
AcDbEntity
  8
KONSTRUKTIONSELEMENTE
100
AcDbLine
 62
7
  6
CONTINUOUS
 10
355.9371714316
 20
142.7832882189
 11
366.7222340973
 21
147.8124455337
  0
LINE
  5
241
100
AcDbEntity
  8
KONSTRUKTIONSELEMENTE
100
AcDbLine
 62
7
  6
CONTINUOUS
 10
434.3327950103
 20
179.3397678595
 11
445.117857676
 21
184.3689251742
  0
LINE
  5
242
100
AcDbEntity
  8
0
100
AcDbLine
 62
7
  6
CONTINUOUS
 10
506.0040853394
 20
198.5193062464
 11
511.4952383983
 21
200.5179225116
  0
LINE
  5
243
100
AcDbEntity
  8
0
100
AcDbLine
 62
7
  6
CONTINUOUS
 10
473.6777131426
 20
219.8815550741
 11
473.6777131426
 21
284.8815550741
  0
LINE
  5
244
100
AcDbEntity
  8
RUNDUNGEN
100
AcDbLine
 62
7
  6
CONTINUOUS
 10
452.1266828852
 20
142.8578471525
 11
455.8889044618
 21
153.1944659812
  0
LINE
  5
245
100
AcDbEntity
  8
0
100
AcDbLine
 62
7
  6
CONTINUOUS
 10
511.9792749053
 20
182.1026078373
 11
517.4704279642
 21
184.1012241025
  0
LINE
  5
246
100
AcDbEntity
  8
KONSTRUKTIONSELEMENTE
100
AcDbLine
 62
7
  6
CONTINUOUS
 10
505.5200488325
 20
216.9346209207
 11
512.170900255
 21
210.8541246448
  0
LINE
  5
247
100
AcDbEntity
  8
0
100
AcDbLine
 62
7
  6
CONTINUOUS
 10
482.7109369531
 20
149.6989584305
 11
483.8917445612
 21
143.0022657101
  0
LINE
  5
248
100
AcDbEntity
  8
RUNDUNGEN
100
AcDbLine
 62
7
  6
CONTINUOUS
 10
468.1484053101
 20
150.6198003202
 11
471.3284650255
 21
164.0696809792
  0
LINE
  5
249
100
AcDbEntity
  8
0
100
AcDbLine
 62
7
  6
CONTINUOUS
 10
470.7549048247
 20
157.7810988805
 11
473.1608974622
 21
167.9571071121
  0
LINE
  5
24A
100
AcDbEntity
  8
RUNDUNGEN
100
AcDbLine
 62
7
  6
CONTINUOUS
 10
461.098006675
 20
157.565421727
 11
465.0692118807
 21
168.4762183576
  0
LINE
  5
24B
100
AcDbEntity
  8
BEZUGSACHSEN
100
AcDbLine
 62
7
  6
CONTINUOUS
 10
483.0650022164
 20
207.6859305498
 11
473.3242302237
 21
180.9233794515
  0
LINE
  5
24C
100
AcDbEntity
  8
RUNDUNGEN
100
AcDbLine
 62
7
  6
CONTINUOUS
 10
473.3241001418
 20
180.9230220546
 11
469.8587433422
 21
171.4020324972
  0
LINE
  5
24D
100
AcDbEntity
  8
0
100
AcDbLine
 62
7
  6
CONTINUOUS
 10
470.7549048247
 20
157.7810988805
 11
468.1484053101
 21
150.6198003202
  0
LINE
  5
24E
100
AcDbEntity
  8
0
100
AcDbLine
 62
7
  6
CONTINUOUS
 10
476.7128446355
 20
177.1715268781
 11
473.1608974622
 21
167.9571071121
  0
LINE
  5
24F
100
AcDbEntity
  8
RUNDUNGEN
100
AcDbLine
 62
7
  6
CONTINUOUS
 10
461.098006675
 20
157.565421727
 11
455.8889044618
 21
153.1944659812
  0
LINE
  5
250
100
AcDbEntity
  8
0
100
AcDbLine
 62
7
  6
CONTINUOUS
 10
524.5099674101
 20
148.9102126338
 11
518.3006178445
 21
161.2575219564
  0
LINE
  5
251
100
AcDbEntity
  8
0
100
AcDbLine
 62
7
  6
CONTINUOUS
 10
521.9034678954
 20
156.0715111941
 11
517.2055531782
 21
165.4133280094
  0
LINE
  5
252
100
AcDbEntity
  8
0
100
AcDbLine
 62
7
  6
CONTINUOUS
 10
517.2259033005
 20
132.6656468814
 11
513.4636817239
 21
143.0022657101
  0
LINE
  5
253
100
AcDbEntity
  8
0
100
AcDbLine
 62
7
  6
CONTINUOUS
 10
510.6732841264
 20
160.6097550611
 11
514.644489332
 21
149.6989584305
  0
LINE
  5
254
100
AcDbEntity
  8
0
100
AcDbLine
 62
7
  6
CONTINUOUS
 10
508.9962220077
 20
175.4507607638
 11
512.4616010104
 21
165.929710204
  0
LINE
  5
255
100
AcDbEntity
  8
BEZUGSACHSEN
100
AcDbLine
 62
7
  6
CONTINUOUS
 10
508.9961141289
 20
175.4510571583
 11
499.2553421361
 21
202.2136082566
  0
LINE
  5
256
100
AcDbEntity
  8
0
100
AcDbLine
 62
7
  6
CONTINUOUS
 10
498.8425156662
 20
206.0029893837
 11
500.0288957736
 21
214.9360046555
  0
LINE
  5
257
100
AcDbEntity
  8
0
100
AcDbLine
 62
7
  6
CONTINUOUS
 10
483.3518385686
 20
174.755130701
 11
480.1498731069
 21
165.4133280094
  0
LINE
  5
258
100
AcDbEntity
  8
0
100
AcDbLine
 62
7
  6
CONTINUOUS
 10
475.4519583897
 20
156.0715111941
 11
472.8454588751
 21
148.9102126338
  0
LINE
  5
259
100
AcDbEntity
  8
BEZUGSACHSEN
100
AcDbLine
 62
7
  6
CONTINUOUS
 10
498.100084149
 20
202.2136082566
 11
488.3593121562
 21
175.4510571583
  0
LINE
  5
25A
100
AcDbEntity
  8
0
100
AcDbLine
 62
7
  6
CONTINUOUS
 10
488.3591820744
 20
175.4506997614
 11
484.8938252747
 21
165.929710204
  0
LINE
  5
25B
100
AcDbEntity
  8
0
100
AcDbLine
 62
7
  6
CONTINUOUS
 10
482.7109369531
 20
149.6989584305
 11
486.6821421588
 21
160.6097550611
  0
LINE
  5
25C
100
AcDbEntity
  8
0
100
AcDbLine
 62
7
  6
CONTINUOUS
 10
475.4519583897
 20
156.0715111941
 11
480.1498731069
 21
165.4133280094
  0
LINE
  5
25D
100
AcDbEntity
  8
0
100
AcDbLine
 62
7
  6
CONTINUOUS
 10
472.8454588751
 20
148.9102126338
 11
479.0548084407
 21
161.2575219564
  0
LINE
  5
25E
100
AcDbEntity
  8
0
100
AcDbLine
 62
7
  6
CONTINUOUS
 10
517.2055531782
 20
165.4133280094
 11
524.1945288229
 21
167.9571071121
  0
LINE
  5
25F
100
AcDbEntity
  8
0
100
AcDbLine
 62
7
  6
CONTINUOUS
 10
520.6425816496
 20
177.1715268781
 11
524.1945288229
 21
167.9571071121
  0
LINE
  5
260
100
AcDbEntity
  8
0
100
AcDbLine
 62
7
  6
CONTINUOUS
 10
521.9034678954
 20
156.0715111941
 11
524.5099674101
 21
148.9102126338
  0
LINE
  5
261
100
AcDbEntity
  8
0
100
AcDbLine
 62
7
  6
CONTINUOUS
 10
526.6005214604
 20
157.7810988805
 11
529.2070209751
 21
150.6198003202
  0
LINE
  5
262
100
AcDbEntity
  8
0
100
AcDbLine
 62
7
  6
CONTINUOUS
 10
514.0035877166
 20
174.755130701
 11
517.2055531782
 21
165.4133280094
  0
LINE
  5
263
100
AcDbEntity
  8
0
100
AcDbLine
 62
7
  6
CONTINUOUS
 10
498.5129106189
 20
206.0029893837
 11
497.3265305115
 21
214.9360046555
  0
LINE
  5
264
100
AcDbEntity
  8
0
100
AcDbLine
 62
7
  6
CONTINUOUS
 10
483.8917445612
 20
143.0022657101
 11
480.1295229847
 21
132.6656468814
  0
LINE
  5
265
100
AcDbEntity
  8
0
100
AcDbLine
 62
7
  6
CONTINUOUS
 10
526.6005214604
 20
157.7810988805
 11
521.9034678954
 21
156.0715111941
  0
LINE
  5
266
100
AcDbEntity
  8
0
100
AcDbLine
 62
7
  6
CONTINUOUS
 10
524.5099674101
 20
148.9102126338
 11
529.2070209751
 21
150.6198003202
  0
LINE
  5
267
100
AcDbEntity
  8
RUNDUNGEN
100
AcDbLine
 62
7
  6
CONTINUOUS
 10
524.0313039403
 20
180.923083057
 11
527.496682943
 21
171.4020324972
  0
LINE
  5
268
100
AcDbEntity
  8
BEZUGSACHSEN
100
AcDbLine
 62
7
  6
CONTINUOUS
 10
524.0311960615
 20
180.9233794515
 11
514.2904240687
 21
207.6859305498
  0
LINE
  5
269
100
AcDbEntity
  8
RUNDUNGEN
100
AcDbLine
 62
7
  6
CONTINUOUS
 10
532.2862144044
 20
168.4762183576
 11
536.2574196101
 21
157.565421727
  0
LINE
  5
26A
100
AcDbEntity
  8
RUNDUNGEN
100
AcDbLine
 62
7
  6
CONTINUOUS
 10
545.2287433999
 20
142.8578471525
 11
541.4665218233
 21
153.1944659812
  0
LINE
  5
26B
100
AcDbEntity
  8
0
100
AcDbLine
 62
7
  6
CONTINUOUS
 10
526.6005214604
 20
157.7810988805
 11
524.1945288229
 21
167.9571071121
  0
LINE
  5
26C
100
AcDbEntity
  8
RUNDUNGEN
100
AcDbLine
 62
7
  6
CONTINUOUS
 10
529.2070209751
 20
150.6198003202
 11
526.0269612596
 21
164.0696809792
  0
LINE
  5
26D
100
AcDbEntity
  8
0
100
AcDbLine
 62
7
  6
CONTINUOUS
 10
523.6777131426
 20
284.8815550741
 11
523.6777131426
 21
219.8815550741
  0
LINE
  5
26E
100
AcDbEntity
  8
0
100
AcDbLine
 62
7
  6
CONTINUOUS
 10
513.4636817239
 20
143.0022657101
 11
514.644489332
 21
149.6989584305
  0
LINE
  5
26F
100
AcDbEntity
  8
0
100
AcDbLine
 62
7
  6
CONTINUOUS
 10
526.0971032952
 20
128.9749497006
 11
540.8053443591
 21
134.3283116463
  0
LINE
  5
270
100
AcDbEntity
  8
0
100
AcDbLine
 62
7
  6
CONTINUOUS
 10
545.6777131426
 20
284.8815550741
 11
545.6777131426
 21
219.8815550741
  0
LINE
  5
271
100
AcDbEntity
  8
0
100
AcDbLine
 62
7
  6
CONTINUOUS
 10
535.169881998
 20
124.298232197
 11
536.8613287155
 21
124.913868455
  0
LINE
  5
272
100
AcDbEntity
  8
RUNDUNGEN
100
AcDbLine
 62
7
  6
CONTINUOUS
 10
96.6622366957
 20
109.6368197317
 11
99.0122366957
 21
109.6368197317
  0
LINE
  5
273
100
AcDbEntity
  8
RUNDUNGEN
100
AcDbLine
 62
7
  6
CONTINUOUS
 10
152.3122366957
 20
109.6368197317
 11
154.6622366957
 21
109.6368197317
  0
LINE
  5
274
100
AcDbEntity
  8
RUNDUNGEN
100
AcDbLine
 62
7
  6
CONTINUOUS
 10
104.5122366957
 20
114.7082388726
 11
111.3742706035
 21
114.7082388726
  0
LINE
  5
275
100
AcDbEntity
  8
RUNDUNGEN
100
AcDbLine
 62
7
  6
CONTINUOUS
 10
139.9502027878
 20
114.7082388726
 11
146.8122366957
 21
114.7082388726
  0
LINE
  5
276
100
AcDbEntity
  8
0
100
AcDbLine
 62
7
  6
CONTINUOUS
 10
149.6622366957
 20
123.453928888
 11
150.0921697101
 21
123.4745140151
  0
LINE
  5
277
100
AcDbEntity
  8
0
100
AcDbLine
 62
7
  6
CONTINUOUS
 10
101.6622366957
 20
123.453928888
 11
106.3649052775
 21
123.453928888
  0
LINE
  5
278
100
AcDbEntity
  8
0
100
AcDbLine
 62
7
  6
CONTINUOUS
 10
144.9595681139
 20
123.453928888
 11
149.6622366957
 21
123.453928888
  0
LINE
  5
279
100
AcDbEntity
  8
0
100
AcDbLine
 62
7
  6
CONTINUOUS
 10
101.2322581997
 20
123.4745183807
 11
101.6622366957
 21
123.453928888
  0
LINE
  5
27A
100
AcDbEntity
  8
BEZUGSACHSEN
100
AcDbLine
 62
7
  6
CONTINUOUS
 10
119.4122366957
 20
133.9950961897
 11
131.9122366957
 21
133.9950961897
  0
LINE
  5
27B
100
AcDbEntity
  8
BEZUGSACHSEN
100
AcDbLine
 62
7
  6
CONTINUOUS
 10
119.4122366957
 20
140.0670316439
 11
131.9122366957
 21
140.0670316439
  0
LINE
  5
27C
100
AcDbEntity
  8
0
100
AcDbLine
 62
7
  6
CONTINUOUS
 10
144.9684236684
 20
123.4539289676
 11
144.962117863
 21
123.4561657603
  0
LINE
  5
27D
100
AcDbEntity
  8
RUNDUNGEN
100
AcDbLine
 62
7
  6
CONTINUOUS
 10
83.6470779916
 20
147.1196623198
 11
86.2281719552
 21
145.561813561
  0
LINE
  5
27E
100
AcDbEntity
  8
RUNDUNGEN
100
AcDbLine
 62
7
  6
CONTINUOUS
 10
93.4552350532
 20
141.1998370365
 11
97.1622366957
 21
138.9624338311
  0
LINE
  5
27F
100
AcDbEntity
  8
RUNDUNGEN
100
AcDbLine
 62
7
  6
CONTINUOUS
 10
130.5771489614
 20
118.7944816636
 11
135.8544425664
 21
115.6093107988
  0
LINE
  5
280
100
AcDbEntity
  8
RUNDUNGEN
100
AcDbLine
 62
7
  6
CONTINUOUS
 10
97.1622366957
 20
144.8569334648
 11
95.0756940549
 21
146.1162901208
  0
LINE
  5
281
100
AcDbEntity
  8
BEZUGSACHSEN
100
AcDbLine
 62
7
  6
CONTINUOUS
 10
119.4122366957
 20
146.2951292771
 11
131.9122366957
 21
146.2951292771
  0
LINE
  5
282
100
AcDbEntity
  8
BEZUGSACHSEN
100
AcDbLine
 62
7
  6
CONTINUOUS
 10
119.4122366957
 20
148.1062461897
 11
131.9122366957
 21
148.1062461897
  0
LINE
  5
283
100
AcDbEntity
  8
RUNDUNGEN
100
AcDbLine
 62
7
  6
CONTINUOUS
 10
158.7579969171
 20
116.5218579099
 11
147.2727186089
 21
123.453928888
  0
LINE
  5
284
100
AcDbEntity
  8
RUNDUNGEN
100
AcDbLine
 62
7
  6
CONTINUOUS
 10
101.6622366957
 20
153.1944659812
 11
112.5481456171
 21
153.1944659812
  0
LINE
  5
285
100
AcDbEntity
  8
RUNDUNGEN
100
AcDbLine
 62
7
  6
CONTINUOUS
 10
138.7763277743
 20
153.1944659812
 11
149.6622366957
 21
153.1944659812
  0
LINE
  5
286
100
AcDbEntity
  8
RUNDUNGEN
100
AcDbLine
 62
7
  6
CONTINUOUS
 10
149.6622366957
 20
157.565421727
 11
131.9030377242
 21
157.565421727
  0
LINE
  5
287
100
AcDbEntity
  8
RUNDUNGEN
100
AcDbLine
 62
7
  6
CONTINUOUS
 10
119.4214356671
 20
157.565421727
 11
101.6622366957
 21
157.565421727
  0
LINE
  5
288
100
AcDbEntity
  8
RUNDUNGEN
100
AcDbLine
 62
7
  6
CONTINUOUS
 10
158.7579969171
 20
121.0533968451
 11
152.0583077415
 21
125.0970708119
  0
LINE
  5
289
100
AcDbEntity
  8
0
100
AcDbLine
 62
7
  6
CONTINUOUS
 10
140.8866026376
 20
162.9310215977
 11
140.4705614101
 21
162.8356967904
  0
LINE
  5
28A
100
AcDbEntity
  8
0
100
AcDbLine
 62
7
  6
CONTINUOUS
 10
140.8866026376
 20
163.0625283429
 11
140.4705614101
 21
162.9672035356
  0
LINE
  5
28B
100
AcDbEntity
  8
0
100
AcDbLine
 62
7
  6
CONTINUOUS
 10
139.1184259328
 20
166.2082474512
 11
139.5344677554
 21
166.3035722585
  0
LINE
  5
28C
100
AcDbEntity
  8
0
100
AcDbLine
 62
7
  6
CONTINUOUS
 10
115.7794614412
 20
162.395254625
 11
116.2761076535
 21
162.4905794406
  0
LINE
  5
28D
100
AcDbEntity
  8
0
100
AcDbLine
 62
7
  6
CONTINUOUS
 10
147.2312376063
 20
162.8356967904
 11
146.7111851792
 21
162.7403719831
  0
LINE
  5
28E
100
AcDbEntity
  8
0
100
AcDbLine
 62
7
  6
CONTINUOUS
 10
147.2312376063
 20
162.9672035356
 11
146.7111851792
 21
162.8718787283
  0
LINE
  5
28F
100
AcDbEntity
  8
0
100
AcDbLine
 62
7
  6
CONTINUOUS
 10
140.4705614101
 20
162.395254625
 11
140.990613242
 21
162.4905794406
  0
LINE
  5
290
100
AcDbEntity
  8
0
100
AcDbLine
 62
7
  6
CONTINUOUS
 10
146.1911339423
 20
166.3035722585
 11
146.7111851792
 21
166.3988970658
  0
LINE
  5
291
100
AcDbEntity
  8
0
100
AcDbLine
 62
7
  6
CONTINUOUS
 10
139.5344677554
 20
166.7440143572
 11
139.0144153283
 21
166.6486895499
  0
LINE
  5
292
100
AcDbEntity
  8
0
100
AcDbLine
 62
7
  6
CONTINUOUS
 10
139.5344677554
 20
166.8755211024
 11
139.0144153283
 21
166.780196295
  0
LINE
  5
293
100
AcDbEntity
  8
0
100
AcDbLine
 62
7
  6
CONTINUOUS
 10
146.7111851792
 20
162.395254625
 11
147.3352476156
 21
162.4905794406
  0
LINE
  5
294
100
AcDbEntity
  8
0
100
AcDbLine
 62
7
  6
CONTINUOUS
 10
146.7111851792
 20
166.7440143572
 11
146.0871227427
 21
166.6486895499
  0
LINE
  5
295
100
AcDbEntity
  8
0
100
AcDbLine
 62
7
  6
CONTINUOUS
 10
146.7111851792
 20
166.8755211024
 11
146.0871227427
 21
166.780196295
  0
LINE
  5
296
100
AcDbEntity
  8
0
100
AcDbLine
 62
7
  6
CONTINUOUS
 10
104.4559364412
 20
162.395254625
 11
105.0519114412
 21
162.395254625
  0
LINE
  5
297
100
AcDbEntity
  8
0
100
AcDbLine
 62
7
  6
CONTINUOUS
 10
107.5351405131
 20
162.395254625
 11
108.2304448693
 21
162.395254625
  0
LINE
  5
298
100
AcDbEntity
  8
0
100
AcDbLine
 62
7
  6
CONTINUOUS
 10
110.6143445851
 20
162.395254625
 11
111.0116614412
 21
162.395254625
  0
LINE
  5
299
100
AcDbEntity
  8
0
100
AcDbLine
 62
7
  6
CONTINUOUS
 10
113.3955614412
 20
162.395254625
 11
115.7794614412
 21
162.395254625
  0
LINE
  5
29A
100
AcDbEntity
  8
0
100
AcDbLine
 62
7
  6
CONTINUOUS
 10
131.6296766957
 20
162.395254625
 11
132.2537391321
 21
162.395254625
  0
LINE
  5
29B
100
AcDbEntity
  8
0
100
AcDbLine
 62
7
  6
CONTINUOUS
 10
133.0858223311
 20
162.395254625
 11
133.7098847675
 21
162.395254625
  0
LINE
  5
29C
100
AcDbEntity
  8
0
100
AcDbLine
 62
7
  6
CONTINUOUS
 10
136.3101449689
 20
162.395254625
 11
137.0382180097
 21
162.395254625
  0
LINE
  5
29D
100
AcDbEntity
  8
0
100
AcDbLine
 62
7
  6
CONTINUOUS
 10
139.5344677554
 20
162.395254625
 11
140.4705614101
 21
162.395254625
  0
LINE
  5
29E
100
AcDbEntity
  8
0
100
AcDbLine
 62
7
  6
CONTINUOUS
 10
143.3828529784
 20
162.395254625
 11
144.0069154149
 21
162.395254625
  0
LINE
  5
29F
100
AcDbEntity
  8
0
100
AcDbLine
 62
7
  6
CONTINUOUS
 10
140.4705614101
 20
162.8356967904
 11
139.5344677554
 21
162.8356967904
  0
LINE
  5
2A0
100
AcDbEntity
  8
0
100
AcDbLine
 62
7
  6
CONTINUOUS
 10
115.7794614412
 20
162.8356967904
 11
113.9915364412
 21
162.8356967904
  0
LINE
  5
2A1
100
AcDbEntity
  8
0
100
AcDbLine
 62
7
  6
CONTINUOUS
 10
111.0116614412
 20
162.8356967904
 11
110.6143445851
 21
162.8356967904
  0
LINE
  5
2A2
100
AcDbEntity
  8
0
100
AcDbLine
 62
7
  6
CONTINUOUS
 10
140.4705614101
 20
162.9672035356
 11
139.5344677554
 21
162.9672035356
  0
LINE
  5
2A3
100
AcDbEntity
  8
0
100
AcDbLine
 62
7
  6
CONTINUOUS
 10
115.7794614412
 20
162.9672035356
 11
113.9915364412
 21
162.9672035356
  0
LINE
  5
2A4
100
AcDbEntity
  8
0
100
AcDbLine
 62
7
  6
CONTINUOUS
 10
111.0116614412
 20
162.9672035356
 11
110.6143445851
 21
162.9672035356
  0
LINE
  5
2A5
100
AcDbEntity
  8
0
100
AcDbLine
 62
7
  6
CONTINUOUS
 10
140.3665508056
 20
164.3017510381
 11
141.3026444602
 21
164.3017510381
  0
LINE
  5
2A6
100
AcDbEntity
  8
0
100
AcDbLine
 62
7
  6
CONTINUOUS
 10
105.0519114412
 20
164.3970758454
 11
106.7405072272
 21
164.3970758454
  0
LINE
  5
2A7
100
AcDbEntity
  8
0
100
AcDbLine
 62
7
  6
CONTINUOUS
 10
133.7098847675
 20
164.3970758454
 11
135.4780616211
 21
164.3970758454
  0
LINE
  5
2A8
100
AcDbEntity
  8
0
100
AcDbLine
 62
7
  6
CONTINUOUS
 10
141.9267068967
 20
164.7421931368
 11
140.3665508056
 21
164.7421931368
  0
LINE
  5
2A9
100
AcDbEntity
  8
0
100
AcDbLine
 62
7
  6
CONTINUOUS
 10
135.6860825324
 20
164.8375179441
 11
133.7098847675
 21
164.8375179441
  0
LINE
  5
2AA
100
AcDbEntity
  8
0
100
AcDbLine
 62
7
  6
CONTINUOUS
 10
106.9391655131
 20
164.8375179441
 11
105.0519114412
 21
164.8375179441
  0
LINE
  5
2AB
100
AcDbEntity
  8
0
100
AcDbLine
 62
7
  6
CONTINUOUS
 10
141.9267068967
 20
164.8736998819
 11
140.3665508056
 21
164.8736998819
  0
LINE
  5
2AC
100
AcDbEntity
  8
0
100
AcDbLine
 62
7
  6
CONTINUOUS
 10
135.6860825324
 20
164.9690246892
 11
133.7098847675
 21
164.9690246892
  0
LINE
  5
2AD
100
AcDbEntity
  8
0
100
AcDbLine
 62
7
  6
CONTINUOUS
 10
106.9391655131
 20
164.9690246892
 11
105.0519114412
 21
164.9690246892
  0
LINE
  5
2AE
100
AcDbEntity
  8
0
100
AcDbLine
 62
7
  6
CONTINUOUS
 10
141.3026444602
 20
165.7316231477
 11
141.9267068967
 21
165.7316231477
  0
LINE
  5
2AF
100
AcDbEntity
  8
0
100
AcDbLine
 62
7
  6
CONTINUOUS
 10
139.0144153283
 20
162.4905794406
 11
139.5344677554
 21
162.395254625
  0
LINE
  5
2B0
100
AcDbEntity
  8
0
100
AcDbLine
 62
7
  6
CONTINUOUS
 10
110.1176989412
 20
162.4905794406
 11
110.6143445851
 21
162.395254625
  0
LINE
  5
2B1
100
AcDbEntity
  8
0
100
AcDbLine
 62
7
  6
CONTINUOUS
 10
107.3364823693
 20
166.6486895499
 11
106.8398364412
 21
166.7440143572
  0
LINE
  5
2B2
100
AcDbEntity
  8
0
100
AcDbLine
 62
7
  6
CONTINUOUS
 10
107.3364823693
 20
166.780196295
 11
106.8398364412
 21
166.8755211024
  0
LINE
  5
2B3
100
AcDbEntity
  8
0
100
AcDbLine
 62
7
  6
CONTINUOUS
 10
116.2761076535
 20
166.6486895499
 11
115.7794614412
 21
166.7440143572
  0
LINE
  5
2B4
100
AcDbEntity
  8
0
100
AcDbLine
 62
7
  6
CONTINUOUS
 10
116.2761076535
 20
166.780196295
 11
115.7794614412
 21
166.8755211024
  0
LINE
  5
2B5
100
AcDbEntity
  8
0
100
AcDbLine
 62
7
  6
CONTINUOUS
 10
110.6143445851
 20
162.8356967904
 11
110.2170282973
 21
162.9310215977
  0
LINE
  5
2B6
100
AcDbEntity
  8
0
100
AcDbLine
 62
7
  6
CONTINUOUS
 10
110.6143445851
 20
162.9672035356
 11
110.2170282973
 21
163.0625283429
  0
LINE
  5
2B7
100
AcDbEntity
  8
0
100
AcDbLine
 62
7
  6
CONTINUOUS
 10
115.7794614412
 20
166.3035722585
 11
116.176777729
 21
166.2082474512
  0
LINE
  5
2B8
100
AcDbEntity
  8
RUNDUNGEN
100
AcDbLine
 62
7
  6
CONTINUOUS
 10
169.316549515
 20
149.2142111998
 11
162.1080115253
 21
151.3473653131
  0
LINE
  5
2B9
100
AcDbEntity
  8
0
100
AcDbLine
 62
7
  6
CONTINUOUS
 10
106.9391655131
 20
166.3988970658
 11
107.2371530131
 21
166.3035722585
  0
LINE
  5
2BA
100
AcDbEntity
  8
0
100
AcDbLine
 62
7
  6
CONTINUOUS
 10
109.7203820851
 20
162.6812290803
 11
110.1176989412
 21
162.4905794406
  0
LINE
  5
2BB
100
AcDbEntity
  8
0
100
AcDbLine
 62
7
  6
CONTINUOUS
 10
110.2170282973
 20
162.9310215977
 11
109.9190407973
 21
163.1216712791
  0
LINE
  5
2BC
100
AcDbEntity
  8
0
100
AcDbLine
 62
7
  6
CONTINUOUS
 10
110.2170282973
 20
163.0625283429
 11
109.9190407973
 21
163.2531780242
  0
LINE
  5
2BD
100
AcDbEntity
  8
0
100
AcDbLine
 62
7
  6
CONTINUOUS
 10
107.7337989412
 20
166.362715128
 11
107.3364823693
 21
166.6486895499
  0
LINE
  5
2BE
100
AcDbEntity
  8
0
100
AcDbLine
 62
7
  6
CONTINUOUS
 10
107.7337989412
 20
166.4942218731
 11
107.3364823693
 21
166.780196295
  0
LINE
  5
2BF
100
AcDbEntity
  8
0
100
AcDbLine
 62
7
  6
CONTINUOUS
 10
116.176777729
 20
162.9310215977
 11
115.7794614412
 21
162.8356967904
  0
LINE
  5
2C0
100
AcDbEntity
  8
0
100
AcDbLine
 62
7
  6
CONTINUOUS
 10
116.176777729
 20
163.0625283429
 11
115.7794614412
 21
162.9672035356
  0
LINE
  5
2C1
100
AcDbEntity
  8
0
100
AcDbLine
 62
7
  6
CONTINUOUS
 10
111.4089782973
 20
162.9310215977
 11
111.0116614412
 21
162.8356967904
  0
LINE
  5
2C2
100
AcDbEntity
  8
0
100
AcDbLine
 62
7
  6
CONTINUOUS
 10
111.4089782973
 20
163.0625283429
 11
111.0116614412
 21
162.9672035356
  0
LINE
  5
2C3
100
AcDbEntity
  8
0
100
AcDbLine
 62
7
  6
CONTINUOUS
 10
111.0116614412
 20
162.395254625
 11
111.5083070851
 21
162.4905794406
  0
LINE
  5
2C4
100
AcDbEntity
  8
0
100
AcDbLine
 62
7
  6
CONTINUOUS
 10
113.9915364412
 20
166.3035722585
 11
115.7794614412
 21
166.3035722585
  0
LINE
  5
2C5
100
AcDbEntity
  8
0
100
AcDbLine
 62
7
  6
CONTINUOUS
 10
139.5344677554
 20
166.3035722585
 11
140.4705614101
 21
166.3035722585
  0
LINE
  5
2C6
100
AcDbEntity
  8
0
100
AcDbLine
 62
7
  6
CONTINUOUS
 10
105.0519114412
 20
166.3988970658
 11
106.9391655131
 21
166.3988970658
  0
LINE
  5
2C7
100
AcDbEntity
  8
0
100
AcDbLine
 62
7
  6
CONTINUOUS
 10
133.7098847675
 20
166.3988970658
 11
135.6860825324
 21
166.3988970658
  0
LINE
  5
2C8
100
AcDbEntity
  8
0
100
AcDbLine
 62
7
  6
CONTINUOUS
 10
144.0069154149
 20
166.7440143572
 11
143.3828529784
 21
166.7440143572
  0
LINE
  5
2C9
100
AcDbEntity
  8
0
100
AcDbLine
 62
7
  6
CONTINUOUS
 10
140.4705614101
 20
166.7440143572
 11
139.5344677554
 21
166.7440143572
  0
LINE
  5
2CA
100
AcDbEntity
  8
0
100
AcDbLine
 62
7
  6
CONTINUOUS
 10
135.5820722255
 20
166.7440143572
 11
133.0858223311
 21
166.7440143572
  0
LINE
  5
2CB
100
AcDbEntity
  8
0
100
AcDbLine
 62
7
  6
CONTINUOUS
 10
132.2537391321
 20
166.7440143572
 11
131.6296766957
 21
166.7440143572
  0
LINE
  5
2CC
100
AcDbEntity
  8
0
100
AcDbLine
 62
7
  6
CONTINUOUS
 10
115.7794614412
 20
166.7440143572
 11
113.3955614412
 21
166.7440143572
  0
LINE
  5
2CD
100
AcDbEntity
  8
0
100
AcDbLine
 62
7
  6
CONTINUOUS
 10
112.6009282973
 20
166.7440143572
 11
112.0049532973
 21
166.7440143572
  0
LINE
  5
2CE
100
AcDbEntity
  8
0
100
AcDbLine
 62
7
  6
CONTINUOUS
 10
109.6210532973
 20
166.7440143572
 11
109.0250780131
 21
166.7440143572
  0
LINE
  5
2CF
100
AcDbEntity
  8
0
100
AcDbLine
 62
7
  6
CONTINUOUS
 10
106.8398364412
 20
166.7440143572
 11
104.4559364412
 21
166.7440143572
  0
LINE
  5
2D0
100
AcDbEntity
  8
0
100
AcDbLine
 62
7
  6
CONTINUOUS
 10
144.0069154149
 20
166.8755211024
 11
143.3828529784
 21
166.8755211024
  0
LINE
  5
2D1
100
AcDbEntity
  8
0
100
AcDbLine
 62
7
  6
CONTINUOUS
 10
140.4705614101
 20
166.8755211024
 11
139.5344677554
 21
166.8755211024
  0
LINE
  5
2D2
100
AcDbEntity
  8
0
100
AcDbLine
 62
7
  6
CONTINUOUS
 10
135.5820722255
 20
166.8755211024
 11
133.0858223311
 21
166.8755211024
  0
LINE
  5
2D3
100
AcDbEntity
  8
0
100
AcDbLine
 62
7
  6
CONTINUOUS
 10
132.2537391321
 20
166.8755211024
 11
131.6296766957
 21
166.8755211024
  0
LINE
  5
2D4
100
AcDbEntity
  8
0
100
AcDbLine
 62
7
  6
CONTINUOUS
 10
115.7794614412
 20
166.8755211024
 11
113.3955614412
 21
166.8755211024
  0
LINE
  5
2D5
100
AcDbEntity
  8
0
100
AcDbLine
 62
7
  6
CONTINUOUS
 10
112.6009282973
 20
166.8755211024
 11
112.0049532973
 21
166.8755211024
  0
LINE
  5
2D6
100
AcDbEntity
  8
0
100
AcDbLine
 62
7
  6
CONTINUOUS
 10
109.6210532973
 20
166.8755211024
 11
109.0250780131
 21
166.8755211024
  0
LINE
  5
2D7
100
AcDbEntity
  8
0
100
AcDbLine
 62
7
  6
CONTINUOUS
 10
106.8398364412
 20
166.8755211024
 11
104.4559364412
 21
166.8755211024
  0
LINE
  5
2D8
100
AcDbEntity
  8
RUNDUNGEN
100
AcDbLine
 62
7
  6
CONTINUOUS
 10
103.6622366957
 20
171.4371277126
 11
147.6624893368
 21
171.4371277126
  0
LINE
  5
2D9
100
AcDbEntity
  8
0
100
AcDbLine
 62
7
  6
CONTINUOUS
 10
146.0871227427
 20
162.4905794406
 11
146.7111851792
 21
162.395254625
  0
LINE
  5
2DA
100
AcDbEntity
  8
0
100
AcDbLine
 62
7
  6
CONTINUOUS
 10
147.3352476156
 20
166.6486895499
 11
146.7111851792
 21
166.7440143572
  0
LINE
  5
2DB
100
AcDbEntity
  8
0
100
AcDbLine
 62
7
  6
CONTINUOUS
 10
147.3352476156
 20
166.780196295
 11
146.7111851792
 21
166.8755211024
  0
LINE
  5
2DC
100
AcDbEntity
  8
0
100
AcDbLine
 62
7
  6
CONTINUOUS
 10
146.7111851792
 20
162.7403719831
 11
146.1911339423
 21
162.8356967904
  0
LINE
  5
2DD
100
AcDbEntity
  8
0
100
AcDbLine
 62
7
  6
CONTINUOUS
 10
146.7111851792
 20
162.8718787283
 11
146.1911339423
 21
162.9672035356
  0
LINE
  5
2DE
100
AcDbEntity
  8
0
100
AcDbLine
 62
7
  6
CONTINUOUS
 10
136.1021240575
 20
166.6486895499
 11
135.5820722255
 21
166.7440143572
  0
LINE
  5
2DF
100
AcDbEntity
  8
0
100
AcDbLine
 62
7
  6
CONTINUOUS
 10
136.1021240575
 20
166.780196295
 11
135.5820722255
 21
166.8755211024
  0
LINE
  5
2E0
100
AcDbEntity
  8
0
100
AcDbLine
 62
7
  6
CONTINUOUS
 10
140.990613242
 20
166.6486895499
 11
140.4705614101
 21
166.7440143572
  0
LINE
  5
2E1
100
AcDbEntity
  8
0
100
AcDbLine
 62
7
  6
CONTINUOUS
 10
140.990613242
 20
166.780196295
 11
140.4705614101
 21
166.8755211024
  0
LINE
  5
2E2
100
AcDbEntity
  8
0
100
AcDbLine
 62
7
  6
CONTINUOUS
 10
146.7111851792
 20
166.3988970658
 11
147.2312376063
 21
166.3035722585
  0
LINE
  5
2E3
100
AcDbEntity
  8
0
100
AcDbLine
 62
7
  6
CONTINUOUS
 10
139.5344677554
 20
162.8356967904
 11
139.1184259328
 21
162.9310215977
  0
LINE
  5
2E4
100
AcDbEntity
  8
0
100
AcDbLine
 62
7
  6
CONTINUOUS
 10
139.5344677554
 20
162.9672035356
 11
139.1184259328
 21
163.0625283429
  0
LINE
  5
2E5
100
AcDbEntity
  8
0
100
AcDbLine
 62
7
  6
CONTINUOUS
 10
140.4705614101
 20
166.3035722585
 11
140.8866026376
 21
166.2082474512
  0
LINE
  5
2E6
100
AcDbEntity
  8
RUNDUNGEN
100
AcDbLine
 62
7
  6
CONTINUOUS
 10
169.316549515
 20
153.745750135
 11
162.1080115253
 21
155.8789042483
  0
LINE
  5
2E7
100
AcDbEntity
  8
0
100
AcDbLine
 62
7
  6
CONTINUOUS
 10
135.6860825324
 20
166.3988970658
 11
135.9981137506
 21
166.3035722585
  0
LINE
  5
2E8
100
AcDbEntity
  8
0
100
AcDbLine
 62
7
  6
CONTINUOUS
 10
138.5983741008
 20
162.6812290803
 11
139.0144153283
 21
162.4905794406
  0
LINE
  5
2E9
100
AcDbEntity
  8
0
100
AcDbLine
 62
7
  6
CONTINUOUS
 10
116.6734239412
 20
166.4580399353
 11
116.2761076535
 21
166.6486895499
  0
LINE
  5
2EA
100
AcDbEntity
  8
0
100
AcDbLine
 62
7
  6
CONTINUOUS
 10
116.6734239412
 20
166.5895466804
 11
116.2761076535
 21
166.780196295
  0
LINE
  5
2EB
100
AcDbEntity
  8
0
100
AcDbLine
 62
7
  6
CONTINUOUS
 10
116.176777729
 20
166.2082474512
 11
116.474765229
 21
166.0175978366
  0
LINE
  5
2EC
100
AcDbEntity
  8
0
100
AcDbLine
 62
7
  6
CONTINUOUS
 10
109.3230657973
 20
163.0625283429
 11
109.7203820851
 21
162.6812290803
  0
LINE
  5
2ED
100
AcDbEntity
  8
0
100
AcDbLine
 62
7
  6
CONTINUOUS
 10
107.2371530131
 20
166.3035722585
 11
107.4358114412
 21
166.1129226439
  0
LINE
  5
2EE
100
AcDbEntity
  8
0
100
AcDbLine
 62
7
  6
CONTINUOUS
 10
108.0317864412
 20
165.9814158988
 11
107.7337989412
 21
166.362715128
  0
LINE
  5
2EF
100
AcDbEntity
  8
0
100
AcDbLine
 62
7
  6
CONTINUOUS
 10
108.0317864412
 20
166.1129226439
 11
107.7337989412
 21
166.4942218731
  0
LINE
  5
2F0
100
AcDbEntity
  8
RUNDUNGEN
100
AcDbLine
 62
7
  6
CONTINUOUS
 10
82.7428382131
 20
148.3316817023
 11
82.7428382131
 21
152.8632206375
  0
LINE
  5
2F1
100
AcDbEntity
  8
0
100
AcDbLine
 62
7
  6
CONTINUOUS
 10
141.4066550647
 20
166.4580399353
 11
140.990613242
 21
166.6486895499
  0
LINE
  5
2F2
100
AcDbEntity
  8
0
100
AcDbLine
 62
7
  6
CONTINUOUS
 10
141.4066550647
 20
166.5895466804
 11
140.990613242
 21
166.780196295
  0
LINE
  5
2F3
100
AcDbEntity
  8
0
100
AcDbLine
 62
7
  6
CONTINUOUS
 10
145.5670715059
 20
162.7765538876
 11
146.0871227427
 21
162.4905794406
  0
LINE
  5
2F4
100
AcDbEntity
  8
0
100
AcDbLine
 62
7
  6
CONTINUOUS
 10
139.1184259328
 20
162.9310215977
 11
138.8063947145
 21
163.1216712791
  0
LINE
  5
2F5
100
AcDbEntity
  8
0
100
AcDbLine
 62
7
  6
CONTINUOUS
 10
139.1184259328
 20
163.0625283429
 11
138.8063947145
 21
163.2531780242
  0
LINE
  5
2F6
100
AcDbEntity
  8
0
100
AcDbLine
 62
7
  6
CONTINUOUS
 10
146.1911339423
 20
162.8356967904
 11
145.8791027241
 21
163.0263464051
  0
LINE
  5
2F7
100
AcDbEntity
  8
0
100
AcDbLine
 62
7
  6
CONTINUOUS
 10
146.1911339423
 20
162.9672035356
 11
145.8791027241
 21
163.1578531502
  0
LINE
  5
2F8
100
AcDbEntity
  8
0
100
AcDbLine
 62
7
  6
CONTINUOUS
 10
140.8866026376
 20
166.2082474512
 11
141.1986338558
 21
166.0175978366
  0
LINE
  5
2F9
100
AcDbEntity
  8
0
100
AcDbLine
 62
7
  6
CONTINUOUS
 10
136.5181658802
 20
166.362715128
 11
136.1021240575
 21
166.6486895499
  0
LINE
  5
2FA
100
AcDbEntity
  8
0
100
AcDbLine
 62
7
  6
CONTINUOUS
 10
136.5181658802
 20
166.4942218731
 11
136.1021240575
 21
166.780196295
  0
LINE
  5
2FB
100
AcDbEntity
  8
0
100
AcDbLine
 62
7
  6
CONTINUOUS
 10
117.070740229
 20
166.0767407061
 11
116.6734239412
 21
166.4580399353
  0
LINE
  5
2FC
100
AcDbEntity
  8
0
100
AcDbLine
 62
7
  6
CONTINUOUS
 10
117.070740229
 20
166.2082474512
 11
116.6734239412
 21
166.5895466804
  0
LINE
  5
2FD
100
AcDbEntity
  8
0
100
AcDbLine
 62
7
  6
CONTINUOUS
 10
109.9190407973
 20
163.1216712791
 11
109.7203820851
 21
163.407645701
  0
LINE
  5
2FE
100
AcDbEntity
  8
0
100
AcDbLine
 62
7
  6
CONTINUOUS
 10
109.9190407973
 20
163.2531780242
 11
109.7203820851
 21
163.5391524461
  0
LINE
  5
2FF
100
AcDbEntity
  8
0
100
AcDbLine
 62
7
  6
CONTINUOUS
 10
116.474765229
 20
166.0175978366
 11
116.6734239412
 21
165.7316231477
  0
LINE
  5
300
100
AcDbEntity
  8
0
100
AcDbLine
 62
7
  6
CONTINUOUS
 10
109.1244073693
 20
163.4438276388
 11
109.3230657973
 21
163.0625283429
  0
LINE
  5
301
100
AcDbEntity
  8
0
100
AcDbLine
 62
7
  6
CONTINUOUS
 10
108.1768240426
 20
162.395254625
 11
107.3364823693
 21
164.4562187149
  0
LINE
  5
302
100
AcDbEntity
  8
0
100
AcDbLine
 62
7
  6
CONTINUOUS
 10
108.2304448693
 20
162.395254625
 11
107.3364823693
 21
164.58772546
  0
LINE
  5
303
100
AcDbEntity
  8
0
100
AcDbLine
 62
7
  6
CONTINUOUS
 10
106.7405072272
 20
164.3970758454
 11
107.5351405131
 21
162.395254625
  0
LINE
  5
304
100
AcDbEntity
  8
0
100
AcDbLine
 62
7
  6
CONTINUOUS
 10
92.7572021512
 20
177.1715268781
 11
95.40281451
 21
167.9571071121
  0
LINE
  5
305
100
AcDbEntity
  8
0
100
AcDbLine
 62
7
  6
CONTINUOUS
 10
92.7572021512
 20
174.755130701
 11
95.40281451
 21
165.4133280094
  0
LINE
  5
306
100
AcDbEntity
  8
0
100
AcDbLine
 62
7
  6
CONTINUOUS
 10
95.40281451
 20
156.0715111941
 11
97.1622366957
 21
148.9102126338
  0
LINE
  5
307
100
AcDbEntity
  8
0
100
AcDbLine
 62
7
  6
CONTINUOUS
 10
95.40281451
 20
157.7810988805
 11
97.1622366957
 21
150.6198003202
  0
LINE
  5
308
100
AcDbEntity
  8
0
100
AcDbLine
 62
7
  6
CONTINUOUS
 10
90.7216656068
 20
182.1026078373
 11
90.7216656068
 21
184.1012241025
  0
LINE
  5
309
100
AcDbEntity
  8
RUNDUNGEN
100
AcDbLine
 62
7
  6
CONTINUOUS
 10
91.6622366957
 20
111.7499110404
 11
91.6622366957
 21
119.8413774626
  0
LINE
  5
30A
100
AcDbEntity
  8
RUNDUNGEN
100
AcDbLine
 62
7
  6
CONTINUOUS
 10
93.1839631197
 20
141.5634428512
 11
93.1839631197
 21
146.0949817864
  0
LINE
  5
30B
100
AcDbEntity
  8
0
100
AcDbLine
 62
7
  6
CONTINUOUS
 10
95.40281451
 20
156.0715111941
 11
95.40281451
 21
167.9571071121
  0
LINE
  5
30C
100
AcDbEntity
  8
0
100
AcDbLine
 62
7
  6
CONTINUOUS
 10
147.8553000427
 20
166.362715128
 11
147.3352476156
 21
166.6486895499
  0
LINE
  5
30D
100
AcDbEntity
  8
0
100
AcDbLine
 62
7
  6
CONTINUOUS
 10
147.8553000427
 20
166.4942218731
 11
147.3352476156
 21
166.780196295
  0
LINE
  5
30E
100
AcDbEntity
  8
0
100
AcDbLine
 62
7
  6
CONTINUOUS
 10
147.2312376063
 20
166.3035722585
 11
147.5432688245
 21
166.1129226439
  0
LINE
  5
30F
100
AcDbEntity
  8
0
100
AcDbLine
 62
7
  6
CONTINUOUS
 10
138.1823322781
 20
163.0625283429
 11
138.5983741008
 21
162.6812290803
  0
LINE
  5
310
100
AcDbEntity
  8
0
100
AcDbLine
 62
7
  6
CONTINUOUS
 10
135.9981137506
 20
166.3035722585
 11
136.206134662
 21
166.1129226439
  0
LINE
  5
311
100
AcDbEntity
  8
0
100
AcDbLine
 62
7
  6
CONTINUOUS
 10
117.2693989412
 20
165.6954414769
 11
117.070740229
 21
166.0767407061
  0
LINE
  5
312
100
AcDbEntity
  8
0
100
AcDbLine
 62
7
  6
CONTINUOUS
 10
117.2693989412
 20
165.826948222
 11
117.070740229
 21
166.2082474512
  0
LINE
  5
313
100
AcDbEntity
  8
0
100
AcDbLine
 62
7
  6
CONTINUOUS
 10
107.4358114412
 20
166.1129226439
 11
107.5351405131
 21
165.826948222
  0
LINE
  5
314
100
AcDbEntity
  8
0
100
AcDbLine
 62
7
  6
CONTINUOUS
 10
108.1311155131
 20
165.6954414769
 11
108.0317864412
 21
165.9814158988
  0
LINE
  5
315
100
AcDbEntity
  8
0
100
AcDbLine
 62
7
  6
CONTINUOUS
 10
108.1311155131
 20
165.826948222
 11
108.0317864412
 21
166.1129226439
  0
LINE
  5
316
100
AcDbEntity
  8
0
100
AcDbLine
 62
7
  6
CONTINUOUS
 10
97.1622366957
 20
128.9749497006
 11
97.1622366957
 21
134.3283116463
  0
LINE
  5
317
100
AcDbEntity
  8
RUNDUNGEN
100
AcDbLine
 62
7
  6
CONTINUOUS
 10
97.1622366957
 20
134.3283116463
 11
97.1622366957
 21
165.0577424711
  0
LINE
  5
318
100
AcDbEntity
  8
RUNDUNGEN
100
AcDbLine
 62
7
  6
CONTINUOUS
 10
99.5122366957
 20
109.8481288626
 11
99.5122366957
 21
112.5951475639
  0
LINE
  5
319
100
AcDbEntity
  8
0
100
AcDbLine
 62
7
  6
CONTINUOUS
 10
101.7762366957
 20
124.298232197
 11
101.7762366957
 21
124.913868455
  0
LINE
  5
31A
100
AcDbEntity
  8
0
100
AcDbLine
 62
7
  6
CONTINUOUS
 10
141.8226968874
 20
166.0767407061
 11
141.4066550647
 21
166.4580399353
  0
LINE
  5
31B
100
AcDbEntity
  8
0
100
AcDbLine
 62
7
  6
CONTINUOUS
 10
141.8226968874
 20
166.2082474512
 11
141.4066550647
 21
166.5895466804
  0
LINE
  5
31C
100
AcDbEntity
  8
0
100
AcDbLine
 62
7
  6
CONTINUOUS
 10
145.2550402877
 20
163.0625283429
 11
145.5670715059
 21
162.7765538876
  0
LINE
  5
31D
100
AcDbEntity
  8
0
100
AcDbLine
 62
7
  6
CONTINUOUS
 10
148.1673312609
 20
166.0767407061
 11
147.8553000427
 21
166.362715128
  0
LINE
  5
31E
100
AcDbEntity
  8
0
100
AcDbLine
 62
7
  6
CONTINUOUS
 10
148.1673312609
 20
166.2082474512
 11
147.8553000427
 21
166.4942218731
  0
LINE
  5
31F
100
AcDbEntity
  8
0
100
AcDbLine
 62
7
  6
CONTINUOUS
 10
136.8301968008
 20
165.9814158988
 11
136.5181658802
 21
166.362715128
  0
LINE
  5
320
100
AcDbEntity
  8
0
100
AcDbLine
 62
7
  6
CONTINUOUS
 10
136.8301968008
 20
166.1129226439
 11
136.5181658802
 21
166.4942218731
  0
LINE
  5
321
100
AcDbEntity
  8
0
100
AcDbLine
 62
7
  6
CONTINUOUS
 10
138.8063947145
 20
163.1216712791
 11
138.5983741008
 21
163.407645701
  0
LINE
  5
322
100
AcDbEntity
  8
0
100
AcDbLine
 62
7
  6
CONTINUOUS
 10
138.8063947145
 20
163.2531780242
 11
138.5983741008
 21
163.5391524461
  0
LINE
  5
323
100
AcDbEntity
  8
0
100
AcDbLine
 62
7
  6
CONTINUOUS
 10
109.7203820851
 20
163.407645701
 11
109.6210532973
 21
163.7889449302
  0
LINE
  5
324
100
AcDbEntity
  8
0
100
AcDbLine
 62
7
  6
CONTINUOUS
 10
109.7203820851
 20
163.5391524461
 11
109.6210532973
 21
163.9204516754
  0
LINE
  5
325
100
AcDbEntity
  8
0
100
AcDbLine
 62
7
  6
CONTINUOUS
 10
116.6734239412
 20
165.7316231477
 11
116.772752729
 21
165.3503239184
  0
LINE
  5
326
100
AcDbEntity
  8
0
100
AcDbLine
 62
7
  6
CONTINUOUS
 10
109.0250780131
 20
163.9204516754
 11
109.1244073693
 21
163.4438276388
  0
LINE
  5
327
100
AcDbEntity
  8
0
100
AcDbLine
 62
7
  6
CONTINUOUS
 10
104.4559364412
 20
166.8755211024
 11
104.4559364412
 21
162.395254625
  0
LINE
  5
328
100
AcDbEntity
  8
0
100
AcDbLine
 62
7
  6
CONTINUOUS
 10
105.0519114412
 20
162.395254625
 11
105.0519114412
 21
164.3970758454
  0
LINE
  5
329
100
AcDbEntity
  8
0
100
AcDbLine
 62
7
  6
CONTINUOUS
 10
105.0519114412
 20
164.8375179441
 11
105.0519114412
 21
166.3988970658
  0
LINE
  5
32A
100
AcDbEntity
  8
0
100
AcDbLine
 62
7
  6
CONTINUOUS
 10
106.8398364412
 20
166.8755211024
 11
106.8398364412
 21
166.7440143572
  0
LINE
  5
32B
100
AcDbEntity
  8
0
100
AcDbLine
 62
7
  6
CONTINUOUS
 10
106.9391655131
 20
164.9690246892
 11
106.9391655131
 21
164.8375179441
  0
LINE
  5
32C
100
AcDbEntity
  8
0
100
AcDbLine
 62
7
  6
CONTINUOUS
 10
107.2371530131
 20
165.0643494965
 11
107.2371530131
 21
164.9328427514
  0
LINE
  5
32D
100
AcDbEntity
  8
0
100
AcDbLine
 62
7
  6
CONTINUOUS
 10
107.3364823693
 20
166.780196295
 11
107.3364823693
 21
166.6486895499
  0
LINE
  5
32E
100
AcDbEntity
  8
0
100
AcDbLine
 62
7
  6
CONTINUOUS
 10
107.3364823693
 20
164.58772546
 11
107.3364823693
 21
164.4562187149
  0
LINE
  5
32F
100
AcDbEntity
  8
0
100
AcDbLine
 62
7
  6
CONTINUOUS
 10
107.4358114412
 20
165.2549991111
 11
107.4358114412
 21
165.123492366
  0
LINE
  5
330
100
AcDbEntity
  8
0
100
AcDbLine
 62
7
  6
CONTINUOUS
 10
107.5351405131
 20
165.826948222
 11
107.5351405131
 21
165.4094667879
  0
LINE
  5
331
100
AcDbEntity
  8
0
100
AcDbLine
 62
7
  6
CONTINUOUS
 10
107.7337989412
 20
166.4942218731
 11
107.7337989412
 21
166.362715128
  0
LINE
  5
332
100
AcDbEntity
  8
0
100
AcDbLine
 62
7
  6
CONTINUOUS
 10
108.0317864412
 20
166.1129226439
 11
108.0317864412
 21
165.9814158988
  0
LINE
  5
333
100
AcDbEntity
  8
0
100
AcDbLine
 62
7
  6
CONTINUOUS
 10
108.1311155131
 20
165.4456487257
 11
108.1311155131
 21
165.826948222
  0
LINE
  5
334
100
AcDbEntity
  8
0
100
AcDbLine
 62
7
  6
CONTINUOUS
 10
109.0250780131
 20
166.8755211024
 11
109.0250780131
 21
163.9204516754
  0
LINE
  5
335
100
AcDbEntity
  8
0
100
AcDbLine
 62
7
  6
CONTINUOUS
 10
109.6210532973
 20
163.7889449302
 11
109.6210532973
 21
166.8755211024
  0
LINE
  5
336
100
AcDbEntity
  8
0
100
AcDbLine
 62
7
  6
CONTINUOUS
 10
109.7203820851
 20
163.5391524461
 11
109.7203820851
 21
163.407645701
  0
LINE
  5
337
100
AcDbEntity
  8
0
100
AcDbLine
 62
7
  6
CONTINUOUS
 10
109.9190407973
 20
163.2531780242
 11
109.9190407973
 21
163.1216712791
  0
LINE
  5
338
100
AcDbEntity
  8
0
100
AcDbLine
 62
7
  6
CONTINUOUS
 10
110.2170282973
 20
163.0625283429
 11
110.2170282973
 21
162.9310215977
  0
LINE
  5
339
100
AcDbEntity
  8
0
100
AcDbLine
 62
7
  6
CONTINUOUS
 10
110.6143445851
 20
162.9672035356
 11
110.6143445851
 21
162.8356967904
  0
LINE
  5
33A
100
AcDbEntity
  8
KONSTRUKTIONSELEMENTE
100
AcDbLine
 62
7
  6
CONTINUOUS
 10
110.8267764736
 20
145.864863539
 11
110.8267764736
 21
149.7768039194
  0
LINE
  5
33B
100
AcDbEntity
  8
0
100
AcDbLine
 62
7
  6
CONTINUOUS
 10
111.0116614412
 20
162.9672035356
 11
111.0116614412
 21
162.8356967904
  0
LINE
  5
33C
100
AcDbEntity
  8
0
100
AcDbLine
 62
7
  6
CONTINUOUS
 10
111.4089782973
 20
163.0625283429
 11
111.4089782973
 21
162.9310215977
  0
LINE
  5
33D
100
AcDbEntity
  8
0
100
AcDbLine
 62
7
  6
CONTINUOUS
 10
145.8791027241
 20
163.0263464051
 11
145.4630603063
 21
163.5982953156
  0
LINE
  5
33E
100
AcDbEntity
  8
0
100
AcDbLine
 62
7
  6
CONTINUOUS
 10
145.8791027241
 20
163.1578531502
 11
145.4630603063
 21
163.7298020607
  0
LINE
  5
33F
100
AcDbEntity
  8
0
100
AcDbLine
 62
7
  6
CONTINUOUS
 10
147.5432688245
 20
166.1129226439
 11
147.959310052
 21
165.540973533
  0
LINE
  5
340
100
AcDbEntity
  8
0
100
AcDbLine
 62
7
  6
CONTINUOUS
 10
137.9743116644
 20
163.4438276388
 11
138.1823322781
 21
163.0625283429
  0
LINE
  5
341
100
AcDbEntity
  8
0
100
AcDbLine
 62
7
  6
CONTINUOUS
 10
117.368727729
 20
165.2188171733
 11
117.2693989412
 21
165.6954414769
  0
LINE
  5
342
100
AcDbEntity
  8
0
100
AcDbLine
 62
7
  6
CONTINUOUS
 10
117.368727729
 20
165.3503239184
 11
117.2693989412
 21
165.826948222
  0
LINE
  5
343
100
AcDbEntity
  8
0
100
AcDbLine
 62
7
  6
CONTINUOUS
 10
111.7069657973
 20
163.2531780242
 11
111.7069657973
 21
163.1216712791
  0
LINE
  5
344
100
AcDbEntity
  8
0
100
AcDbLine
 62
7
  6
CONTINUOUS
 10
111.9056239412
 20
163.5391524461
 11
111.9056239412
 21
163.407645701
  0
LINE
  5
345
100
AcDbEntity
  8
0
100
AcDbLine
 62
7
  6
CONTINUOUS
 10
112.0049532973
 20
166.8755211024
 11
112.0049532973
 21
163.7889449302
  0
LINE
  5
346
100
AcDbEntity
  8
0
100
AcDbLine
 62
7
  6
CONTINUOUS
 10
112.6009282973
 20
163.9204516754
 11
112.6009282973
 21
166.8755211024
  0
LINE
  5
347
100
AcDbEntity
  8
0
100
AcDbLine
 62
7
  6
CONTINUOUS
 10
113.3955614412
 20
166.8755211024
 11
113.3955614412
 21
162.395254625
  0
LINE
  5
348
100
AcDbEntity
  8
0
100
AcDbLine
 62
7
  6
CONTINUOUS
 10
113.9915364412
 20
162.8356967904
 11
113.9915364412
 21
166.3035722585
  0
LINE
  5
349
100
AcDbEntity
  8
0
100
AcDbLine
 62
7
  6
CONTINUOUS
 10
114.6622366957
 20
320.8815550741
 11
114.6622366957
 21
183.8815550741
  0
LINE
  5
34A
100
AcDbEntity
  8
0
100
AcDbLine
 62
7
  6
CONTINUOUS
 10
115.7794614412
 20
166.8755211024
 11
115.7794614412
 21
166.7440143572
  0
LINE
  5
34B
100
AcDbEntity
  8
0
100
AcDbLine
 62
7
  6
CONTINUOUS
 10
115.7794614412
 20
162.9672035356
 11
115.7794614412
 21
162.8356967904
  0
LINE
  5
34C
100
AcDbEntity
  8
0
100
AcDbLine
 62
7
  6
CONTINUOUS
 10
116.176777729
 20
163.0625283429
 11
116.176777729
 21
162.9310215977
  0
LINE
  5
34D
100
AcDbEntity
  8
0
100
AcDbLine
 62
7
  6
CONTINUOUS
 10
116.2761076535
 20
166.780196295
 11
116.2761076535
 21
166.6486895499
  0
LINE
  5
34E
100
AcDbEntity
  8
0
100
AcDbLine
 62
7
  6
CONTINUOUS
 10
116.474765229
 20
163.2531780242
 11
116.474765229
 21
163.1216712791
  0
LINE
  5
34F
100
AcDbEntity
  8
0
100
AcDbLine
 62
7
  6
CONTINUOUS
 10
116.6734239412
 20
166.5895466804
 11
116.6734239412
 21
166.4580399353
  0
LINE
  5
350
100
AcDbEntity
  8
0
100
AcDbLine
 62
7
  6
CONTINUOUS
 10
116.6734239412
 20
163.5391524461
 11
116.6734239412
 21
163.407645701
  0
LINE
  5
351
100
AcDbEntity
  8
0
100
AcDbLine
 62
7
  6
CONTINUOUS
 10
116.772752729
 20
165.3503239184
 11
116.772752729
 21
163.7889449302
  0
LINE
  5
352
100
AcDbEntity
  8
0
100
AcDbLine
 62
7
  6
CONTINUOUS
 10
117.070740229
 20
166.2082474512
 11
117.070740229
 21
166.0767407061
  0
LINE
  5
353
100
AcDbEntity
  8
0
100
AcDbLine
 62
7
  6
CONTINUOUS
 10
117.2693989412
 20
165.826948222
 11
117.2693989412
 21
165.6954414769
  0
LINE
  5
354
100
AcDbEntity
  8
0
100
AcDbLine
 62
7
  6
CONTINUOUS
 10
117.368727729
 20
163.9204516754
 11
117.368727729
 21
165.3503239184
  0
LINE
  5
355
100
AcDbEntity
  8
0
100
AcDbLine
 62
7
  6
CONTINUOUS
 10
119.4122366957
 20
144.9574335527
 11
119.4122366957
 21
128.5221047326
  0
LINE
  5
356
100
AcDbEntity
  8
KONSTRUKTIONSELEMENTE
100
AcDbLine
 62
7
  6
CONTINUOUS
 10
119.4122366957
 20
144.9574335527
 11
119.4122366957
 21
157.3138269354
  0
LINE
  5
357
100
AcDbEntity
  8
0
100
AcDbLine
 62
7
  6
CONTINUOUS
 10
145.0470190788
 20
163.4438276388
 11
145.2550402877
 21
163.0625283429
  0
LINE
  5
358
100
AcDbEntity
  8
0
100
AcDbLine
 62
7
  6
CONTINUOUS
 10
148.3753524698
 20
165.6954414769
 11
148.1673312609
 21
166.0767407061
  0
LINE
  5
359
100
AcDbEntity
  8
0
100
AcDbLine
 62
7
  6
CONTINUOUS
 10
148.3753524698
 20
165.826948222
 11
148.1673312609
 21
166.2082474512
  0
LINE
  5
35A
100
AcDbEntity
  8
0
100
AcDbLine
 62
7
  6
CONTINUOUS
 10
136.9820700935
 20
162.395254625
 11
136.1021240575
 21
164.4562187149
  0
LINE
  5
35B
100
AcDbEntity
  8
0
100
AcDbLine
 62
7
  6
CONTINUOUS
 10
137.0382180097
 20
162.395254625
 11
136.1021240575
 21
164.58772546
  0
LINE
  5
35C
100
AcDbEntity
  8
0
100
AcDbLine
 62
7
  6
CONTINUOUS
 10
135.4780616211
 20
164.3970758454
 11
136.3101449689
 21
162.395254625
  0
LINE
  5
35D
100
AcDbEntity
  8
0
100
AcDbLine
 62
7
  6
CONTINUOUS
 10
136.206134662
 20
166.1129226439
 11
136.3101449689
 21
165.826948222
  0
LINE
  5
35E
100
AcDbEntity
  8
0
100
AcDbLine
 62
7
  6
CONTINUOUS
 10
136.9342074053
 20
165.6954414769
 11
136.8301968008
 21
165.9814158988
  0
LINE
  5
35F
100
AcDbEntity
  8
0
100
AcDbLine
 62
7
  6
CONTINUOUS
 10
136.9342074053
 20
165.826948222
 11
136.8301968008
 21
166.1129226439
  0
LINE
  5
360
100
AcDbEntity
  8
KONSTRUKTIONSELEMENTE
100
AcDbLine
 62
7
  6
CONTINUOUS
 10
123.1622366957
 20
148.1062461897
 11
123.1622366957
 21
154.7566229194
  0
LINE
  5
361
100
AcDbEntity
  8
KONSTRUKTIONSELEMENTE
100
AcDbLine
 62
7
  6
CONTINUOUS
 10
123.4122366957
 20
171.4371277126
 11
123.4122366957
 21
173.1222519065
  0
LINE
  5
362
100
AcDbEntity
  8
0
100
AcDbLine
 62
7
  6
CONTINUOUS
 10
112.5015989412
 20
163.4438276388
 11
112.6009282973
 21
163.9204516754
  0
LINE
  5
363
100
AcDbEntity
  8
0
100
AcDbLine
 62
7
  6
CONTINUOUS
 10
112.0049532973
 20
163.9204516754
 11
111.9056239412
 21
163.5391524461
  0
LINE
  5
364
100
AcDbEntity
  8
0
100
AcDbLine
 62
7
  6
CONTINUOUS
 10
112.0049532973
 20
163.7889449302
 11
111.9056239412
 21
163.407645701
  0
LINE
  5
365
100
AcDbEntity
  8
0
100
AcDbLine
 62
7
  6
CONTINUOUS
 10
107.5351405131
 20
165.540973533
 11
107.4358114412
 21
165.2549991111
  0
LINE
  5
366
100
AcDbEntity
  8
0
100
AcDbLine
 62
7
  6
CONTINUOUS
 10
107.5351405131
 20
165.4094667879
 11
107.4358114412
 21
165.123492366
  0
LINE
  5
367
100
AcDbEntity
  8
0
100
AcDbLine
 62
7
  6
CONTINUOUS
 10
108.0317864412
 20
165.1596743038
 11
108.1311155131
 21
165.4456487257
  0
LINE
  5
368
100
AcDbEntity
  8
0
100
AcDbLine
 62
7
  6
CONTINUOUS
 10
141.1986338558
 20
166.0175978366
 11
141.3026444602
 21
165.7316231477
  0
LINE
  5
369
100
AcDbEntity
  8
0
100
AcDbLine
 62
7
  6
CONTINUOUS
 10
144.9430090695
 20
163.7298020607
 11
145.0470190788
 21
163.4438276388
  0
LINE
  5
36A
100
AcDbEntity
  8
0
100
AcDbLine
 62
7
  6
CONTINUOUS
 10
138.5983741008
 20
163.407645701
 11
138.4943634963
 21
163.7889449302
  0
LINE
  5
36B
100
AcDbEntity
  8
0
100
AcDbLine
 62
7
  6
CONTINUOUS
 10
138.5983741008
 20
163.5391524461
 11
138.4943634963
 21
163.9204516754
  0
LINE
  5
36C
100
AcDbEntity
  8
0
100
AcDbLine
 62
7
  6
CONTINUOUS
 10
137.8703010599
 20
163.9204516754
 11
137.9743116644
 21
163.4438276388
  0
LINE
  5
36D
100
AcDbEntity
  8
KONSTRUKTIONSELEMENTE
100
AcDbLine
 62
7
  6
CONTINUOUS
 10
127.9122366957
 20
171.4371277126
 11
127.9122366957
 21
173.1222519065
  0
LINE
  5
36E
100
AcDbEntity
  8
KONSTRUKTIONSELEMENTE
100
AcDbLine
 62
7
  6
CONTINUOUS
 10
128.1622366957
 20
148.1062461897
 11
128.1622366957
 21
154.7566229194
  0
LINE
  5
36F
100
AcDbEntity
  8
0
100
AcDbLine
 62
7
  6
CONTINUOUS
 10
131.6296766957
 20
166.8755211024
 11
131.6296766957
 21
162.395254625
  0
LINE
  5
370
100
AcDbEntity
  8
0
100
AcDbLine
 62
7
  6
CONTINUOUS
 10
131.9122366957
 20
128.5221047326
 11
131.9122366957
 21
144.9574335527
  0
LINE
  5
371
100
AcDbEntity
  8
KONSTRUKTIONSELEMENTE
100
AcDbLine
 62
7
  6
CONTINUOUS
 10
131.9122366957
 20
144.9574335527
 11
131.9122366957
 21
157.3138269354
  0
LINE
  5
372
100
AcDbEntity
  8
0
100
AcDbLine
 62
7
  6
CONTINUOUS
 10
132.2537391321
 20
162.395254625
 11
132.2537391321
 21
166.8755211024
  0
LINE
  5
373
100
AcDbEntity
  8
0
100
AcDbLine
 62
7
  6
CONTINUOUS
 10
133.0858223311
 20
166.8755211024
 11
133.0858223311
 21
162.395254625
  0
LINE
  5
374
100
AcDbEntity
  8
0
100
AcDbLine
 62
7
  6
CONTINUOUS
 10
133.7098847675
 20
162.395254625
 11
133.7098847675
 21
164.3970758454
  0
LINE
  5
375
100
AcDbEntity
  8
0
100
AcDbLine
 62
7
  6
CONTINUOUS
 10
133.7098847675
 20
164.8375179441
 11
133.7098847675
 21
166.3988970658
  0
LINE
  5
376
100
AcDbEntity
  8
0
100
AcDbLine
 62
7
  6
CONTINUOUS
 10
117.2693989412
 20
163.4438276388
 11
117.368727729
 21
163.9204516754
  0
LINE
  5
377
100
AcDbEntity
  8
0
100
AcDbLine
 62
7
  6
CONTINUOUS
 10
116.772752729
 20
163.9204516754
 11
116.6734239412
 21
163.5391524461
  0
LINE
  5
378
100
AcDbEntity
  8
0
100
AcDbLine
 62
7
  6
CONTINUOUS
 10
116.772752729
 20
163.7889449302
 11
116.6734239412
 21
163.407645701
  0
LINE
  5
379
100
AcDbEntity
  8
0
100
AcDbLine
 62
7
  6
CONTINUOUS
 10
148.4793624791
 20
165.4094667879
 11
148.3753524698
 21
165.6954414769
  0
LINE
  5
37A
100
AcDbEntity
  8
0
100
AcDbLine
 62
7
  6
CONTINUOUS
 10
148.4793624791
 20
165.540973533
 11
148.3753524698
 21
165.826948222
  0
LINE
  5
37B
100
AcDbEntity
  8
0
100
AcDbLine
 62
7
  6
CONTINUOUS
 10
141.8993136939
 20
165.7256453424
 11
141.8226968874
 21
166.0767407061
  0
LINE
  5
37C
100
AcDbEntity
  8
0
100
AcDbLine
 62
7
  6
CONTINUOUS
 10
141.9267068967
 20
165.7316231477
 11
141.8226968874
 21
166.2082474512
  0
LINE
  5
37D
100
AcDbEntity
  8
0
100
AcDbLine
 62
7
  6
CONTINUOUS
 10
144.8389978699
 20
164.2064262308
 11
144.9430090695
 21
163.7298020607
  0
LINE
  5
37E
100
AcDbEntity
  8
0
100
AcDbLine
 62
7
  6
CONTINUOUS
 10
145.4630603063
 20
163.5982953156
 11
145.359050297
 21
164.170244293
  0
LINE
  5
37F
100
AcDbEntity
  8
0
100
AcDbLine
 62
7
  6
CONTINUOUS
 10
145.4630603063
 20
163.7298020607
 11
145.359050297
 21
164.3017510381
  0
LINE
  5
380
100
AcDbEntity
  8
0
100
AcDbLine
 62
7
  6
CONTINUOUS
 10
135.5820722255
 20
166.8755211024
 11
135.5820722255
 21
166.7440143572
  0
LINE
  5
381
100
AcDbEntity
  8
0
100
AcDbLine
 62
7
  6
CONTINUOUS
 10
135.6860825324
 20
164.9690246892
 11
135.6860825324
 21
164.8375179441
  0
LINE
  5
382
100
AcDbEntity
  8
0
100
AcDbLine
 62
7
  6
CONTINUOUS
 10
135.9981137506
 20
165.0643494965
 11
135.9981137506
 21
164.9328427514
  0
LINE
  5
383
100
AcDbEntity
  8
0
100
AcDbLine
 62
7
  6
CONTINUOUS
 10
136.1021240575
 20
166.780196295
 11
136.1021240575
 21
166.6486895499
  0
LINE
  5
384
100
AcDbEntity
  8
0
100
AcDbLine
 62
7
  6
CONTINUOUS
 10
136.1021240575
 20
164.58772546
 11
136.1021240575
 21
164.4562187149
  0
LINE
  5
385
100
AcDbEntity
  8
0
100
AcDbLine
 62
7
  6
CONTINUOUS
 10
136.206134662
 20
165.2549991111
 11
136.206134662
 21
165.123492366
  0
LINE
  5
386
100
AcDbEntity
  8
0
100
AcDbLine
 62
7
  6
CONTINUOUS
 10
136.3101449689
 20
165.826948222
 11
136.3101449689
 21
165.4094667879
  0
LINE
  5
387
100
AcDbEntity
  8
0
100
AcDbLine
 62
7
  6
CONTINUOUS
 10
136.5181658802
 20
166.4942218731
 11
136.5181658802
 21
166.362715128
  0
LINE
  5
388
100
AcDbEntity
  8
0
100
AcDbLine
 62
7
  6
CONTINUOUS
 10
136.6622366957
 20
320.8815550741
 11
136.6622366957
 21
183.8815550741
  0
LINE
  5
389
100
AcDbEntity
  8
0
100
AcDbLine
 62
7
  6
CONTINUOUS
 10
136.8301968008
 20
166.1129226439
 11
136.8301968008
 21
165.9814158988
  0
LINE
  5
38A
100
AcDbEntity
  8
0
100
AcDbLine
 62
7
  6
CONTINUOUS
 10
136.9342074053
 20
165.4456487257
 11
136.9342074053
 21
165.826948222
  0
LINE
  5
38B
100
AcDbEntity
  8
0
100
AcDbLine
 62
7
  6
CONTINUOUS
 10
137.8703010599
 20
165.3503239184
 11
137.8703010599
 21
163.9204516754
  0
LINE
  5
38C
100
AcDbEntity
  8
0
100
AcDbLine
 62
7
  6
CONTINUOUS
 10
137.9743116644
 20
165.826948222
 11
137.9743116644
 21
165.6954414769
  0
LINE
  5
38D
100
AcDbEntity
  8
0
100
AcDbLine
 62
7
  6
CONTINUOUS
 10
138.1823322781
 20
166.2082474512
 11
138.1823322781
 21
166.0767407061
  0
LINE
  5
38E
100
AcDbEntity
  8
0
100
AcDbLine
 62
7
  6
CONTINUOUS
 10
138.4943634963
 20
163.7889449302
 11
138.4943634963
 21
165.3503239184
  0
LINE
  5
38F
100
AcDbEntity
  8
0
100
AcDbLine
 62
7
  6
CONTINUOUS
 10
138.5983741008
 20
166.5895466804
 11
138.5983741008
 21
166.4580399353
  0
LINE
  5
390
100
AcDbEntity
  8
0
100
AcDbLine
 62
7
  6
CONTINUOUS
 10
138.5983741008
 20
163.5391524461
 11
138.5983741008
 21
163.407645701
  0
LINE
  5
391
100
AcDbEntity
  8
0
100
AcDbLine
 62
7
  6
CONTINUOUS
 10
138.8063947145
 20
163.2531780242
 11
138.8063947145
 21
163.1216712791
  0
LINE
  5
392
100
AcDbEntity
  8
0
100
AcDbLine
 62
7
  6
CONTINUOUS
 10
139.0144153283
 20
166.780196295
 11
139.0144153283
 21
166.6486895499
  0
LINE
  5
393
100
AcDbEntity
  8
0
100
AcDbLine
 62
7
  6
CONTINUOUS
 10
139.1184259328
 20
163.0625283429
 11
139.1184259328
 21
162.9310215977
  0
LINE
  5
394
100
AcDbEntity
  8
0
100
AcDbLine
 62
7
  6
CONTINUOUS
 10
139.5344677554
 20
166.8755211024
 11
139.5344677554
 21
166.7440143572
  0
LINE
  5
395
100
AcDbEntity
  8
0
100
AcDbLine
 62
7
  6
CONTINUOUS
 10
139.5344677554
 20
162.9672035356
 11
139.5344677554
 21
162.8356967904
  0
LINE
  5
396
100
AcDbEntity
  8
0
100
AcDbLine
 62
7
  6
CONTINUOUS
 10
140.3665508056
 20
164.8736998819
 11
140.3665508056
 21
164.3017510381
  0
LINE
  5
397
100
AcDbEntity
  8
0
100
AcDbLine
 62
7
  6
CONTINUOUS
 10
140.4705614101
 20
166.8755211024
 11
140.4705614101
 21
166.7440143572
  0
LINE
  5
398
100
AcDbEntity
  8
0
100
AcDbLine
 62
7
  6
CONTINUOUS
 10
140.4705614101
 20
162.9672035356
 11
140.4705614101
 21
162.8356967904
  0
LINE
  5
399
100
AcDbEntity
  8
KONSTRUKTIONSELEMENTE
100
AcDbLine
 62
7
  6
CONTINUOUS
 10
140.4976969177
 20
145.864863539
 11
140.4976969177
 21
149.7768039194
  0
LINE
  5
39A
100
AcDbEntity
  8
0
100
AcDbLine
 62
7
  6
CONTINUOUS
 10
140.8866026376
 20
163.0625283429
 11
140.8866026376
 21
162.9310215977
  0
LINE
  5
39B
100
AcDbEntity
  8
0
100
AcDbLine
 62
7
  6
CONTINUOUS
 10
140.990613242
 20
166.780196295
 11
140.990613242
 21
166.6486895499
  0
LINE
  5
39C
100
AcDbEntity
  8
0
100
AcDbLine
 62
7
  6
CONTINUOUS
 10
141.1986338558
 20
163.2531780242
 11
141.1986338558
 21
163.1216712791
  0
LINE
  5
39D
100
AcDbEntity
  8
0
100
AcDbLine
 62
7
  6
CONTINUOUS
 10
141.3026444602
 20
164.3017510381
 11
141.3026444602
 21
163.407645701
  0
LINE
  5
39E
100
AcDbEntity
  8
0
100
AcDbLine
 62
7
  6
CONTINUOUS
 10
141.4066550647
 20
166.5895466804
 11
141.4066550647
 21
166.4580399353
  0
LINE
  5
39F
100
AcDbEntity
  8
0
100
AcDbLine
 62
7
  6
CONTINUOUS
 10
141.8226968874
 20
166.2082474512
 11
141.8226968874
 21
166.0767407061
  0
LINE
  5
3A0
100
AcDbEntity
  8
0
100
AcDbLine
 62
7
  6
CONTINUOUS
 10
141.9267068967
 20
163.4438276388
 11
141.9267068967
 21
164.8736998819
  0
LINE
  5
3A1
100
AcDbEntity
  8
0
100
AcDbLine
 62
7
  6
CONTINUOUS
 10
142.758790542
 20
166.2082474512
 11
142.758790542
 21
165.4456487257
  0
LINE
  5
3A2
100
AcDbEntity
  8
0
100
AcDbLine
 62
7
  6
CONTINUOUS
 10
112.3029407973
 20
163.0625283429
 11
112.5015989412
 21
163.4438276388
  0
LINE
  5
3A3
100
AcDbEntity
  8
0
100
AcDbLine
 62
7
  6
CONTINUOUS
 10
148.5833724884
 20
164.9328427514
 11
148.4793624791
 21
165.4094667879
  0
LINE
  5
3A4
100
AcDbEntity
  8
0
100
AcDbLine
 62
7
  6
CONTINUOUS
 10
148.5833724884
 20
165.0643494965
 11
148.4793624791
 21
165.540973533
  0
LINE
  5
3A5
100
AcDbEntity
  8
0
100
AcDbLine
 62
7
  6
CONTINUOUS
 10
147.959310052
 20
165.540973533
 11
148.0633212516
 21
164.9690246892
  0
LINE
  5
3A6
100
AcDbEntity
  8
0
100
AcDbLine
 62
7
  6
CONTINUOUS
 10
143.3828529784
 20
166.8755211024
 11
143.3828529784
 21
166.7440143572
  0
LINE
  5
3A7
100
AcDbEntity
  8
0
100
AcDbLine
 62
7
  6
CONTINUOUS
 10
143.3828529784
 20
166.1129226439
 11
143.3828529784
 21
162.395254625
  0
LINE
  5
3A8
100
AcDbEntity
  8
0
100
AcDbLine
 62
7
  6
CONTINUOUS
 10
144.0069154149
 20
162.395254625
 11
144.0069154149
 21
166.8755211024
  0
LINE
  5
3A9
100
AcDbEntity
  8
0
100
AcDbLine
 62
7
  6
CONTINUOUS
 10
144.8389978699
 20
165.0643494965
 11
144.8389978699
 21
164.2064262308
  0
LINE
  5
3AA
100
AcDbEntity
  8
0
100
AcDbLine
 62
7
  6
CONTINUOUS
 10
144.9430090695
 20
165.540973533
 11
144.9430090695
 21
165.4094667879
  0
LINE
  5
3AB
100
AcDbEntity
  8
0
100
AcDbLine
 62
7
  6
CONTINUOUS
 10
145.0470190788
 20
165.826948222
 11
145.0470190788
 21
165.6954414769
  0
LINE
  5
3AC
100
AcDbEntity
  8
0
100
AcDbLine
 62
7
  6
CONTINUOUS
 10
145.2550402877
 20
166.2082474512
 11
145.2550402877
 21
166.0767407061
  0
LINE
  5
3AD
100
AcDbEntity
  8
0
100
AcDbLine
 62
7
  6
CONTINUOUS
 10
145.359050297
 20
164.170244293
 11
145.359050297
 21
164.9690246892
  0
LINE
  5
3AE
100
AcDbEntity
  8
0
100
AcDbLine
 62
7
  6
CONTINUOUS
 10
145.4630603063
 20
163.7298020607
 11
145.4630603063
 21
163.5982953156
  0
LINE
  5
3AF
100
AcDbEntity
  8
0
100
AcDbLine
 62
7
  6
CONTINUOUS
 10
145.5670715059
 20
166.4942218731
 11
145.5670715059
 21
166.362715128
  0
LINE
  5
3B0
100
AcDbEntity
  8
0
100
AcDbLine
 62
7
  6
CONTINUOUS
 10
145.8791027241
 20
163.1578531502
 11
145.8791027241
 21
163.0263464051
  0
LINE
  5
3B1
100
AcDbEntity
  8
0
100
AcDbLine
 62
7
  6
CONTINUOUS
 10
146.0871227427
 20
166.780196295
 11
146.0871227427
 21
166.6486895499
  0
LINE
  5
3B2
100
AcDbEntity
  8
0
100
AcDbLine
 62
7
  6
CONTINUOUS
 10
146.1911339423
 20
162.9672035356
 11
146.1911339423
 21
162.8356967904
  0
LINE
  5
3B3
100
AcDbEntity
  8
0
100
AcDbLine
 62
7
  6
CONTINUOUS
 10
146.7111851792
 20
166.8755211024
 11
146.7111851792
 21
166.7440143572
  0
LINE
  5
3B4
100
AcDbEntity
  8
0
100
AcDbLine
 62
7
  6
CONTINUOUS
 10
146.7111851792
 20
162.8718787283
 11
146.7111851792
 21
162.7403719831
  0
LINE
  5
3B5
100
AcDbEntity
  8
0
100
AcDbLine
 62
7
  6
CONTINUOUS
 10
147.2312376063
 20
162.9672035356
 11
147.2312376063
 21
162.8356967904
  0
LINE
  5
3B6
100
AcDbEntity
  8
0
100
AcDbLine
 62
7
  6
CONTINUOUS
 10
147.3352476156
 20
166.780196295
 11
147.3352476156
 21
166.6486895499
  0
LINE
  5
3B7
100
AcDbEntity
  8
0
100
AcDbLine
 62
7
  6
CONTINUOUS
 10
147.5432688245
 20
163.1578531502
 11
147.5432688245
 21
163.0263464051
  0
LINE
  5
3B8
100
AcDbEntity
  8
0
100
AcDbLine
 62
7
  6
CONTINUOUS
 10
147.8553000427
 20
166.4942218731
 11
147.8553000427
 21
166.362715128
  0
LINE
  5
3B9
100
AcDbEntity
  8
0
100
AcDbLine
 62
7
  6
CONTINUOUS
 10
147.959310052
 20
163.7298020607
 11
147.959310052
 21
163.5982953156
  0
LINE
  5
3BA
100
AcDbEntity
  8
0
100
AcDbLine
 62
7
  6
CONTINUOUS
 10
148.0633212516
 20
164.9690246892
 11
148.0633212516
 21
164.170244293
  0
LINE
  5
3BB
100
AcDbEntity
  8
0
100
AcDbLine
 62
7
  6
CONTINUOUS
 10
148.1673312609
 20
166.2082474512
 11
148.1673312609
 21
166.0767407061
  0
LINE
  5
3BC
100
AcDbEntity
  8
0
100
AcDbLine
 62
7
  6
CONTINUOUS
 10
148.3753524698
 20
165.826948222
 11
148.3753524698
 21
165.6954414769
  0
LINE
  5
3BD
100
AcDbEntity
  8
0
100
AcDbLine
 62
7
  6
CONTINUOUS
 10
148.4793624791
 20
165.540973533
 11
148.4793624791
 21
165.4094667879
  0
LINE
  5
3BE
100
AcDbEntity
  8
0
100
AcDbLine
 62
7
  6
CONTINUOUS
 10
148.5833724884
 20
164.2064262308
 11
148.5833724884
 21
165.0643494965
  0
LINE
  5
3BF
100
AcDbEntity
  8
0
100
AcDbLine
 62
7
  6
CONTINUOUS
 10
149.5482366957
 20
124.913868455
 11
149.5482366957
 21
124.298232197
  0
LINE
  5
3C0
100
AcDbEntity
  8
0
100
AcDbLine
 62
7
  6
CONTINUOUS
 10
137.9743116644
 20
165.826948222
 11
137.8703010599
 21
165.3503239184
  0
LINE
  5
3C1
100
AcDbEntity
  8
0
100
AcDbLine
 62
7
  6
CONTINUOUS
 10
137.9743116644
 20
165.6954414769
 11
137.8703010599
 21
165.2188171733
  0
LINE
  5
3C2
100
AcDbEntity
  8
0
100
AcDbLine
 62
7
  6
CONTINUOUS
 10
117.070740229
 20
163.0625283429
 11
117.2693989412
 21
163.4438276388
  0
LINE
  5
3C3
100
AcDbEntity
  8
0
100
AcDbLine
 62
7
  6
CONTINUOUS
 10
111.9056239412
 20
163.5391524461
 11
111.7069657973
 21
163.2531780242
  0
LINE
  5
3C4
100
AcDbEntity
  8
0
100
AcDbLine
 62
7
  6
CONTINUOUS
 10
111.9056239412
 20
163.407645701
 11
111.7069657973
 21
163.1216712791
  0
LINE
  5
3C5
100
AcDbEntity
  8
0
100
AcDbLine
 62
7
  6
CONTINUOUS
 10
116.6734239412
 20
163.5391524461
 11
116.474765229
 21
163.2531780242
  0
LINE
  5
3C6
100
AcDbEntity
  8
0
100
AcDbLine
 62
7
  6
CONTINUOUS
 10
116.6734239412
 20
163.407645701
 11
116.474765229
 21
163.1216712791
  0
LINE
  5
3C7
100
AcDbEntity
  8
0
100
AcDbLine
 62
7
  6
CONTINUOUS
 10
107.7337989412
 20
164.7783750746
 11
108.0317864412
 21
165.1596743038
  0
LINE
  5
3C8
100
AcDbEntity
  8
RUNDUNGEN
100
AcDbLine
 62
7
  6
CONTINUOUS
 10
151.8122366957
 20
112.5951475639
 11
151.8122366957
 21
109.8481288626
  0
LINE
  5
3C9
100
AcDbEntity
  8
0
100
AcDbLine
 62
7
  6
CONTINUOUS
 10
154.1622366957
 20
134.3283116463
 11
154.1622366957
 21
128.9749497006
  0
LINE
  5
3CA
100
AcDbEntity
  8
RUNDUNGEN
100
AcDbLine
 62
7
  6
CONTINUOUS
 10
154.1622366957
 20
134.3283116463
 11
154.1622366957
 21
165.0577424711
  0
LINE
  5
3CB
100
AcDbEntity
  8
0
100
AcDbLine
 62
7
  6
CONTINUOUS
 10
155.9216588813
 20
156.0715111941
 11
155.9216588813
 21
167.9571071121
  0
LINE
  5
3CC
100
AcDbEntity
  8
0
100
AcDbLine
 62
7
  6
CONTINUOUS
 10
145.359050297
 20
164.9690246892
 11
145.4630603063
 21
165.540973533
  0
LINE
  5
3CD
100
AcDbEntity
  8
0
100
AcDbLine
 62
7
  6
CONTINUOUS
 10
148.0633212516
 20
164.3017510381
 11
147.959310052
 21
163.7298020607
  0
LINE
  5
3CE
100
AcDbEntity
  8
0
100
AcDbLine
 62
7
  6
CONTINUOUS
 10
148.0633212516
 20
164.170244293
 11
147.959310052
 21
163.5982953156
  0
LINE
  5
3CF
100
AcDbEntity
  8
0
100
AcDbLine
 62
7
  6
CONTINUOUS
 10
144.9430090695
 20
165.540973533
 11
144.8389978699
 21
165.0643494965
  0
LINE
  5
3D0
100
AcDbEntity
  8
0
100
AcDbLine
 62
7
  6
CONTINUOUS
 10
144.9430090695
 20
165.4094667879
 11
144.8389978699
 21
164.9328427514
  0
LINE
  5
3D1
100
AcDbEntity
  8
0
100
AcDbLine
 62
7
  6
CONTINUOUS
 10
138.4943634963
 20
165.3503239184
 11
138.5983741008
 21
165.7316231477
  0
LINE
  5
3D2
100
AcDbEntity
  8
0
100
AcDbLine
 62
7
  6
CONTINUOUS
 10
141.8226968874
 20
163.0625283429
 11
141.9267068967
 21
163.4438276388
  0
LINE
  5
3D3
100
AcDbEntity
  8
0
100
AcDbLine
 62
7
  6
CONTINUOUS
 10
136.3101449689
 20
165.540973533
 11
136.206134662
 21
165.2549991111
  0
LINE
  5
3D4
100
AcDbEntity
  8
0
100
AcDbLine
 62
7
  6
CONTINUOUS
 10
136.3101449689
 20
165.4094667879
 11
136.206134662
 21
165.123492366
  0
LINE
  5
3D5
100
AcDbEntity
  8
0
100
AcDbLine
 62
7
  6
CONTINUOUS
 10
136.8301968008
 20
165.1596743038
 11
136.9342074053
 21
165.4456487257
  0
LINE
  5
3D6
100
AcDbEntity
  8
0
100
AcDbLine
 62
7
  6
CONTINUOUS
 10
107.4358114412
 20
165.2549991111
 11
107.2371530131
 21
165.0643494965
  0
LINE
  5
3D7
100
AcDbEntity
  8
0
100
AcDbLine
 62
7
  6
CONTINUOUS
 10
107.4358114412
 20
165.123492366
 11
107.2371530131
 21
164.9328427514
  0
LINE
  5
3D8
100
AcDbEntity
  8
0
100
AcDbLine
 62
7
  6
CONTINUOUS
 10
111.9056239412
 20
162.6812290803
 11
112.3029407973
 21
163.0625283429
  0
LINE
  5
3D9
100
AcDbEntity
  8
RUNDUNGEN
100
AcDbLine
 62
7
  6
CONTINUOUS
 10
159.6622366957
 20
111.7499110404
 11
159.6622366957
 21
119.8413774626
  0
LINE
  5
3DA
100
AcDbEntity
  8
0
100
AcDbLine
 62
7
  6
CONTINUOUS
 10
160.6028077845
 20
182.1026078373
 11
160.6028077845
 21
184.1012241025
  0
LINE
  5
3DB
100
AcDbEntity
  8
0
100
AcDbLine
 62
7
  6
CONTINUOUS
 10
148.4793624791
 20
163.7298020607
 11
148.5833724884
 21
164.2064262308
  0
LINE
  5
3DC
100
AcDbEntity
  8
0
100
AcDbLine
 62
7
  6
CONTINUOUS
 10
141.3026444602
 20
163.5391524461
 11
141.1986338558
 21
163.2531780242
  0
LINE
  5
3DD
100
AcDbEntity
  8
0
100
AcDbLine
 62
7
  6
CONTINUOUS
 10
141.3026444602
 20
163.407645701
 11
141.1986338558
 21
163.1216712791
  0
LINE
  5
3DE
100
AcDbEntity
  8
0
100
AcDbLine
 62
7
  6
CONTINUOUS
 10
145.0470190788
 20
165.826948222
 11
144.9430090695
 21
165.540973533
  0
LINE
  5
3DF
100
AcDbEntity
  8
0
100
AcDbLine
 62
7
  6
CONTINUOUS
 10
145.0470190788
 20
165.6954414769
 11
144.9430090695
 21
165.4094667879
  0
LINE
  5
3E0
100
AcDbEntity
  8
0
100
AcDbLine
 62
7
  6
CONTINUOUS
 10
148.3753524698
 20
163.4438276388
 11
148.4793624791
 21
163.7298020607
  0
LINE
  5
3E1
100
AcDbEntity
  8
0
100
AcDbLine
 62
7
  6
CONTINUOUS
 10
138.1823322781
 20
166.2082474512
 11
137.9743116644
 21
165.826948222
  0
LINE
  5
3E2
100
AcDbEntity
  8
0
100
AcDbLine
 62
7
  6
CONTINUOUS
 10
138.1823322781
 20
166.0767407061
 11
137.9743116644
 21
165.6954414769
  0
LINE
  5
3E3
100
AcDbEntity
  8
0
100
AcDbLine
 62
7
  6
CONTINUOUS
 10
116.6734239412
 20
162.6812290803
 11
117.070740229
 21
163.0625283429
  0
LINE
  5
3E4
100
AcDbEntity
  8
0
100
AcDbLine
 62
7
  6
CONTINUOUS
 10
111.7069657973
 20
163.2531780242
 11
111.4089782973
 21
163.0625283429
  0
LINE
  5
3E5
100
AcDbEntity
  8
0
100
AcDbLine
 62
7
  6
CONTINUOUS
 10
111.7069657973
 20
163.1216712791
 11
111.4089782973
 21
162.9310215977
  0
LINE
  5
3E6
100
AcDbEntity
  8
RUNDUNGEN
100
AcDbLine
 62
7
  6
CONTINUOUS
 10
169.9561848605
 20
148.6949282802
 11
169.9561848605
 21
153.2264672154
  0
LINE
  5
3E7
100
AcDbEntity
  8
0
100
AcDbLine
 62
7
  6
CONTINUOUS
 10
155.9216588813
 20
157.7810988805
 11
154.1622366957
 21
150.6198003202
  0
LINE
  5
3E8
100
AcDbEntity
  8
0
100
AcDbLine
 62
7
  6
CONTINUOUS
 10
155.9216588813
 20
156.0715111941
 11
154.1622366957
 21
148.9102126338
  0
LINE
  5
3E9
100
AcDbEntity
  8
0
100
AcDbLine
 62
7
  6
CONTINUOUS
 10
158.5672712401
 20
174.755130701
 11
155.9216588813
 21
165.4133280094
  0
LINE
  5
3EA
100
AcDbEntity
  8
0
100
AcDbLine
 62
7
  6
CONTINUOUS
 10
158.5672712401
 20
177.1715268781
 11
155.9216588813
 21
167.9571071121
  0
LINE
  5
3EB
100
AcDbEntity
  8
0
100
AcDbLine
 62
7
  6
CONTINUOUS
 10
145.2550402877
 20
166.2082474512
 11
145.0470190788
 21
165.826948222
  0
LINE
  5
3EC
100
AcDbEntity
  8
0
100
AcDbLine
 62
7
  6
CONTINUOUS
 10
145.2550402877
 20
166.0767407061
 11
145.0470190788
 21
165.6954414769
  0
LINE
  5
3ED
100
AcDbEntity
  8
0
100
AcDbLine
 62
7
  6
CONTINUOUS
 10
148.1673312609
 20
163.0625283429
 11
148.3753524698
 21
163.4438276388
  0
LINE
  5
3EE
100
AcDbEntity
  8
0
100
AcDbLine
 62
7
  6
CONTINUOUS
 10
138.5983741008
 20
165.7316231477
 11
138.8063947145
 21
166.0175978366
  0
LINE
  5
3EF
100
AcDbEntity
  8
0
100
AcDbLine
 62
7
  6
CONTINUOUS
 10
145.4630603063
 20
165.540973533
 11
145.8791027241
 21
166.1129226439
  0
LINE
  5
3F0
100
AcDbEntity
  8
0
100
AcDbLine
 62
7
  6
CONTINUOUS
 10
136.5181658802
 20
164.7783750746
 11
136.8301968008
 21
165.1596743038
  0
LINE
  5
3F1
100
AcDbEntity
  8
0
100
AcDbLine
 62
7
  6
CONTINUOUS
 10
136.206134662
 20
165.2549991111
 11
135.9981137506
 21
165.0643494965
  0
LINE
  5
3F2
100
AcDbEntity
  8
0
100
AcDbLine
 62
7
  6
CONTINUOUS
 10
136.206134662
 20
165.123492366
 11
135.9981137506
 21
164.9328427514
  0
LINE
  5
3F3
100
AcDbEntity
  8
0
100
AcDbLine
 62
7
  6
CONTINUOUS
 10
138.5983741008
 20
166.5895466804
 11
138.1823322781
 21
166.2082474512
  0
LINE
  5
3F4
100
AcDbEntity
  8
0
100
AcDbLine
 62
7
  6
CONTINUOUS
 10
138.5983741008
 20
166.4580399353
 11
138.1823322781
 21
166.0767407061
  0
LINE
  5
3F5
100
AcDbEntity
  8
0
100
AcDbLine
 62
7
  6
CONTINUOUS
 10
116.474765229
 20
163.2531780242
 11
116.176777729
 21
163.0625283429
  0
LINE
  5
3F6
100
AcDbEntity
  8
0
100
AcDbLine
 62
7
  6
CONTINUOUS
 10
116.474765229
 20
163.1216712791
 11
116.176777729
 21
162.9310215977
  0
LINE
  5
3F7
100
AcDbEntity
  8
0
100
AcDbLine
 62
7
  6
CONTINUOUS
 10
107.3364823693
 20
164.58772546
 11
107.7337989412
 21
164.7783750746
  0
LINE
  5
3F8
100
AcDbEntity
  8
0
100
AcDbLine
 62
7
  6
CONTINUOUS
 10
111.5083070851
 20
162.4905794406
 11
111.9056239412
 21
162.6812290803
  0
LINE
  5
3F9
100
AcDbEntity
  8
0
100
AcDbLine
 62
7
  6
CONTINUOUS
 10
116.2761076535
 20
162.4905794406
 11
116.6734239412
 21
162.6812290803
  0
LINE
  5
3FA
100
AcDbEntity
  8
0
100
AcDbLine
 62
7
  6
CONTINUOUS
 10
107.2371530131
 20
165.0643494965
 11
106.9391655131
 21
164.9690246892
  0
LINE
  5
3FB
100
AcDbEntity
  8
0
100
AcDbLine
 62
7
  6
CONTINUOUS
 10
107.2371530131
 20
164.9328427514
 11
106.9391655131
 21
164.8375179441
  0
LINE
  5
3FC
100
AcDbEntity
  8
0
100
AcDbLine
 62
7
  6
CONTINUOUS
 10
147.959310052
 20
163.7298020607
 11
147.5432688245
 21
163.1578531502
  0
LINE
  5
3FD
100
AcDbEntity
  8
0
100
AcDbLine
 62
7
  6
CONTINUOUS
 10
147.959310052
 20
163.5982953156
 11
147.5432688245
 21
163.0263464051
  0
LINE
  5
3FE
100
AcDbEntity
  8
0
100
AcDbLine
 62
7
  6
CONTINUOUS
 10
143.3828529784
 20
166.8755211024
 11
142.758790542
 21
166.2082474512
  0
LINE
  5
3FF
100
AcDbEntity
  8
0
100
AcDbLine
 62
7
  6
CONTINUOUS
 10
143.3828529784
 20
166.7440143572
 11
142.758790542
 21
166.0767407061
  0
LINE
  5
400
100
AcDbEntity
  8
0
100
AcDbLine
 62
7
  6
CONTINUOUS
 10
142.758790542
 20
165.4456487257
 11
143.3828529784
 21
166.1129226439
  0
LINE
  5
401
100
AcDbEntity
  8
0
100
AcDbLine
 62
7
  6
CONTINUOUS
 10
145.5670715059
 20
166.4942218731
 11
145.2550402877
 21
166.2082474512
  0
LINE
  5
402
100
AcDbEntity
  8
0
100
AcDbLine
 62
7
  6
CONTINUOUS
 10
141.4066550647
 20
162.6812290803
 11
141.8226968874
 21
163.0625283429
  0
LINE
  5
403
100
AcDbEntity
  8
0
100
AcDbLine
 62
7
  6
CONTINUOUS
 10
145.5670715059
 20
166.362715128
 11
145.2550402877
 21
166.0767407061
  0
LINE
  5
404
100
AcDbEntity
  8
0
100
AcDbLine
 62
7
  6
CONTINUOUS
 10
138.8063947145
 20
166.0175978366
 11
139.1184259328
 21
166.2082474512
  0
LINE
  5
405
100
AcDbEntity
  8
0
100
AcDbLine
 62
7
  6
CONTINUOUS
 10
139.0144153283
 20
166.780196295
 11
138.5983741008
 21
166.5895466804
  0
LINE
  5
406
100
AcDbEntity
  8
0
100
AcDbLine
 62
7
  6
CONTINUOUS
 10
139.0144153283
 20
166.6486895499
 11
138.5983741008
 21
166.4580399353
  0
LINE
  5
407
100
AcDbEntity
  8
0
100
AcDbLine
 62
7
  6
CONTINUOUS
 10
136.1021240575
 20
164.58772546
 11
136.5181658802
 21
164.7783750746
  0
LINE
  5
408
100
AcDbEntity
  8
0
100
AcDbLine
 62
7
  6
CONTINUOUS
 10
135.9981137506
 20
165.0643494965
 11
135.6860825324
 21
164.9690246892
  0
LINE
  5
409
100
AcDbEntity
  8
0
100
AcDbLine
 62
7
  6
CONTINUOUS
 10
135.9981137506
 20
164.9328427514
 11
135.6860825324
 21
164.8375179441
  0
LINE
  5
40A
100
AcDbEntity
  8
RUNDUNGEN
100
AcDbLine
 62
7
  6
CONTINUOUS
 10
85.6941080756
 20
154.8365675793
 11
84.8749560313
 21
154.5941637028
  0
LINE
  5
40B
100
AcDbEntity
  8
RUNDUNGEN
100
AcDbLine
 62
7
  6
CONTINUOUS
 10
85.6941080756
 20
150.3050286441
 11
84.8749560313
 21
150.0626247676
  0
LINE
  5
40C
100
AcDbEntity
  8
0
100
AcDbLine
 62
7
  6
CONTINUOUS
 10
147.8553000427
 20
162.7765538876
 11
148.1673312609
 21
163.0625283429
  0
LINE
  5
40D
100
AcDbEntity
  8
0
100
AcDbLine
 62
7
  6
CONTINUOUS
 10
141.1986338558
 20
163.2531780242
 11
140.8866026376
 21
163.0625283429
  0
LINE
  5
40E
100
AcDbEntity
  8
0
100
AcDbLine
 62
7
  6
CONTINUOUS
 10
145.8791027241
 20
166.1129226439
 11
146.1911339423
 21
166.3035722585
  0
LINE
  5
40F
100
AcDbEntity
  8
0
100
AcDbLine
 62
7
  6
CONTINUOUS
 10
141.1986338558
 20
163.1216712791
 11
140.8866026376
 21
162.9310215977
  0
LINE
  5
410
100
AcDbEntity
  8
0
100
AcDbLine
 62
7
  6
CONTINUOUS
 10
147.5432688245
 20
163.1578531502
 11
147.2312376063
 21
162.9672035356
  0
LINE
  5
411
100
AcDbEntity
  8
0
100
AcDbLine
 62
7
  6
CONTINUOUS
 10
147.5432688245
 20
163.0263464051
 11
147.2312376063
 21
162.8356967904
  0
LINE
  5
412
100
AcDbEntity
  8
0
100
AcDbLine
 62
7
  6
CONTINUOUS
 10
146.0871227427
 20
166.780196295
 11
145.5670715059
 21
166.4942218731
  0
LINE
  5
413
100
AcDbEntity
  8
0
100
AcDbLine
 62
7
  6
CONTINUOUS
 10
146.0871227427
 20
166.6486895499
 11
145.5670715059
 21
166.362715128
  0
LINE
  5
414
100
AcDbEntity
  8
0
100
AcDbLine
 62
7
  6
CONTINUOUS
 10
147.3352476156
 20
162.4905794406
 11
147.8553000427
 21
162.7765538876
  0
LINE
  5
415
100
AcDbEntity
  8
0
100
AcDbLine
 62
7
  6
CONTINUOUS
 10
140.990613242
 20
162.4905794406
 11
141.4066550647
 21
162.6812290803
  0
LINE
  5
416
100
AcDbEntity
  8
RUNDUNGEN
100
AcDbLine
 62
7
  6
CONTINUOUS
 10
91.5938728533
 20
146.3757519622
 11
88.3172646762
 21
145.4061364562
  0
LINE
  5
417
100
AcDbEntity
  8
RUNDUNGEN
100
AcDbLine
 62
7
  6
CONTINUOUS
 10
99.2661194774
 20
125.097042944
 11
92.5664764742
 21
121.0533968451
  0
LINE
  5
418
100
AcDbEntity
  8
RUNDUNGEN
100
AcDbLine
 62
7
  6
CONTINUOUS
 10
104.0517547825
 20
123.453928888
 11
92.5664764742
 21
116.5218579099
  0
LINE
  5
419
100
AcDbEntity
  8
RUNDUNGEN
100
AcDbLine
 62
7
  6
CONTINUOUS
 10
93.8235984652
 20
142.0827257708
 11
97.1002066423
 21
143.0523412768
  0
LINE
  5
41A
100
AcDbEntity
  8
RUNDUNGEN
100
AcDbLine
 62
7
  6
CONTINUOUS
 10
155.1078484602
 20
152.759094513
 11
160.0189188043
 21
155.7232271434
  0
LINE
  5
41B
100
AcDbEntity
  8
RUNDUNGEN
100
AcDbLine
 62
7
  6
CONTINUOUS
 10
154.1622366957
 20
147.6568207907
 11
160.0189188043
 21
151.1916882082
  0
LINE
  5
41C
100
AcDbEntity
  8
RUNDUNGEN
100
AcDbLine
 62
7
  6
CONTINUOUS
 10
115.470030825
 20
115.6093107988
 11
120.7473244299
 21
118.7944816636
  0
LINE
  5
41D
100
AcDbEntity
  8
RUNDUNGEN
100
AcDbLine
 62
7
  6
CONTINUOUS
 10
154.1622366957
 20
138.9624338311
 11
169.6849129269
 21
148.3313224655
  0
LINE
  5
41E
100
AcDbEntity
  8
0
100
AcDbLine
 62
7
  6
CONTINUOUS
 10
106.3623555284
 20
123.4561657603
 11
106.356049723
 21
123.4539289676
  0
ARC
  5
41F
100
AcDbEntity
  8
KONSTRUKTIONSELEMENTE
100
AcDbCircle
 62
7
  6
CONTINUOUS
 10
351.901167032
 20
151.4385275851
 40
9.55
100
AcDbArc
 50
115.0
 51
189.765603909
  0
ARC
  5
420
100
AcDbEntity
  8
KONSTRUKTIONSELEMENTE
100
AcDbCircle
 62
7
  6
CONTINUOUS
 10
351.901167032
 20
151.4385275851
 40
9.55
100
AcDbArc
 50
220.234041784
 51
295.0
  0
ARC
  5
421
100
AcDbEntity
  8
KONSTRUKTIONSELEMENTE
100
AcDbCircle
 62
7
  6
CONTINUOUS
 10
362.6862296977
 20
156.4676848999
 40
9.55
100
AcDbArc
 50
295.0
 51
11.3702929546
  0
ARC
  5
422
100
AcDbEntity
  8
KONSTRUKTIONSELEMENTE
100
AcDbCircle
 62
7
  6
CONTINUOUS
 10
362.6862296977
 20
156.4676848999
 40
9.55
100
AcDbArc
 50
38.6297070454
 51
115.0
  0
ARC
  5
423
100
AcDbEntity
  8
KONSTRUKTIONSELEMENTE
100
AcDbCircle
 62
7
  6
CONTINUOUS
 10
351.901167032
 20
151.4385275851
 40
4.55
100
AcDbArc
 50
115.0
 51
171.6416672297
  0
ARC
  5
424
100
AcDbEntity
  8
KONSTRUKTIONSELEMENTE
100
AcDbCircle
 62
7
  6
CONTINUOUS
 10
351.901167032
 20
151.4385275851
 40
4.55
100
AcDbArc
 50
238.3583327703
 51
295.0
  0
ARC
  5
425
100
AcDbEntity
  8
KONSTRUKTIONSELEMENTE
100
AcDbCircle
 62
7
  6
CONTINUOUS
 10
362.6862296977
 20
156.4676848999
 40
4.55
100
AcDbArc
 50
295.0
 51
355.3477978529
  0
ARC
  5
426
100
AcDbEntity
  8
KONSTRUKTIONSELEMENTE
100
AcDbCircle
 62
7
  6
CONTINUOUS
 10
362.6862296977
 20
156.4676848999
 40
4.55
100
AcDbArc
 50
54.6522021471
 51
115.0
  0
ARC
  5
427
100
AcDbEntity
  8
KONSTRUKTIONSELEMENTE
100
AcDbCircle
 62
7
  6
CONTINUOUS
 10
364.3175837144
 20
157.228397771
 40
2.25
100
AcDbArc
 50
115.0
 51
295.0
  0
ARC
  5
428
100
AcDbEntity
  8
KONSTRUKTIONSELEMENTE
100
AcDbCircle
 62
7
  6
CONTINUOUS
 10
389.4676248047
 20
168.9560545343
 40
8.0
100
AcDbArc
 50
115.0
 51
188.6357041722
  0
ARC
  5
429
100
AcDbEntity
  8
KONSTRUKTIONSELEMENTE
100
AcDbCircle
 62
7
  6
CONTINUOUS
 10
389.4676248047
 20
168.9560545343
 40
8.0
100
AcDbArc
 50
221.3642958278
 51
295.0
  0
ARC
  5
42A
100
AcDbEntity
  8
KONSTRUKTIONSELEMENTE
100
AcDbCircle
 62
7
  6
CONTINUOUS
 10
389.4676248047
 20
168.9560545343
 40
3.5
100
AcDbArc
 50
115.0
 51
164.8461224921
  0
ARC
  5
42B
100
AcDbEntity
  8
KONSTRUKTIONSELEMENTE
100
AcDbCircle
 62
7
  6
CONTINUOUS
 10
389.4676248047
 20
168.9560545343
 40
3.5
100
AcDbArc
 50
245.1538775079
 51
295.0
  0
ARC
  5
42C
100
AcDbEntity
  8
KONSTRUKTIONSELEMENTE
100
AcDbCircle
 62
7
  6
CONTINUOUS
 10
388.3347400709
 20
168.4277817071
 40
2.25
100
AcDbArc
 50
295.0
 51
115.0
  0
ARC
  5
42D
100
AcDbEntity
  8
KONSTRUKTIONSELEMENTE
100
AcDbCircle
 62
7
  6
CONTINUOUS
 10
403.0622416102
 20
175.2953284604
 40
8.0
100
AcDbArc
 50
295.0
 51
8.6357041722
  0
ARC
  5
42E
100
AcDbEntity
  8
KONSTRUKTIONSELEMENTE
100
AcDbCircle
 62
7
  6
CONTINUOUS
 10
403.0622416102
 20
175.2953284604
 40
8.0
100
AcDbArc
 50
41.3642958278
 51
115.0
  0
ARC
  5
42F
100
AcDbEntity
  8
KONSTRUKTIONSELEMENTE
100
AcDbCircle
 62
7
  6
CONTINUOUS
 10
403.0622416102
 20
175.2953284604
 40
3.5
100
AcDbArc
 50
295.0
 51
344.8461224921
  0
ARC
  5
430
100
AcDbEntity
  8
KONSTRUKTIONSELEMENTE
100
AcDbCircle
 62
7
  6
CONTINUOUS
 10
403.0622416102
 20
175.2953284604
 40
3.5
100
AcDbArc
 50
65.1538775079
 51
115.0
  0
ARC
  5
431
100
AcDbEntity
  8
KONSTRUKTIONSELEMENTE
100
AcDbCircle
 62
7
  6
CONTINUOUS
 10
404.195126344
 20
175.8236012876
 40
2.25
100
AcDbArc
 50
115.0
 51
295.0
  0
ARC
  5
432
100
AcDbEntity
  8
KONSTRUKTIONSELEMENTE
100
AcDbCircle
 62
7
  6
CONTINUOUS
 10
430.2967906107
 20
187.9950072257
 40
9.55
100
AcDbArc
 50
115.0
 51
191.3702929546
  0
ARC
  5
433
100
AcDbEntity
  8
KONSTRUKTIONSELEMENTE
100
AcDbCircle
 62
7
  6
CONTINUOUS
 10
430.2967906107
 20
187.9950072257
 40
9.55
100
AcDbArc
 50
218.6297070454
 51
295.0
  0
ARC
  5
434
100
AcDbEntity
  8
KONSTRUKTIONSELEMENTE
100
AcDbCircle
 62
7
  6
CONTINUOUS
 10
441.0818532764
 20
193.0241645404
 40
9.55
100
AcDbArc
 50
295.0
 51
6.6609039942
  0
ARC
  5
435
100
AcDbEntity
  8
KONSTRUKTIONSELEMENTE
100
AcDbCircle
 62
7
  6
CONTINUOUS
 10
441.0818532764
 20
193.0241645404
 40
9.55
100
AcDbArc
 50
43.3390960058
 51
115.0
  0
ARC
  5
436
100
AcDbEntity
  8
KONSTRUKTIONSELEMENTE
100
AcDbCircle
 62
7
  6
CONTINUOUS
 10
430.2967906107
 20
187.9950072257
 40
4.55
100
AcDbArc
 50
115.0
 51
175.3477978529
  0
ARC
  5
437
100
AcDbEntity
  8
KONSTRUKTIONSELEMENTE
100
AcDbCircle
 62
7
  6
CONTINUOUS
 10
430.2967906107
 20
187.9950072257
 40
4.55
100
AcDbArc
 50
234.6522021471
 51
295.0
  0
ARC
  5
438
100
AcDbEntity
  8
KONSTRUKTIONSELEMENTE
100
AcDbCircle
 62
7
  6
CONTINUOUS
 10
441.0818532764
 20
193.0241645404
 40
4.55
100
AcDbArc
 50
295.0
 51
343.7275989874
  0
ARC
  5
439
100
AcDbEntity
  8
KONSTRUKTIONSELEMENTE
100
AcDbCircle
 62
7
  6
CONTINUOUS
 10
441.0818532764
 20
193.0241645404
 40
4.55
100
AcDbArc
 50
66.2724010126
 51
115.0
  0
ARC
  5
43A
100
AcDbEntity
  8
KONSTRUKTIONSELEMENTE
100
AcDbCircle
 62
7
  6
CONTINUOUS
 10
441.5803225593
 20
193.2566045844
 40
3.0
100
AcDbArc
 50
115.0
 51
295.0
  0
ARC
  5
43B
100
AcDbEntity
  8
KONSTRUKTIONSELEMENTE
100
AcDbCircle
 62
7
  6
CONTINUOUS
 10
428.2122827005
 20
187.0229852237
 40
2.25
100
AcDbArc
 50
295.0
 51
115.0
  0
ARC
  5
43C
100
AcDbEntity
  8
0
100
AcDbCircle
 62
7
  6
CONTINUOUS
 10
466.9738262937
 20
137.453928888
 40
14.0
100
AcDbArc
 50
263.4241551657
 51
340.0
  0
ARC
  5
43D
100
AcDbEntity
  8
0
100
AcDbCircle
 62
7
  6
CONTINUOUS
 10
466.9738262937
 20
137.453928888
 40
14.0
100
AcDbArc
 50
250.0
 51
259.3310985005
  0
ARC
  5
43E
100
AcDbEntity
  8
RUNDUNGEN
100
AcDbCircle
 62
7
  6
CONTINUOUS
 10
465.2823795762
 20
138.069565146
 40
14.0
100
AcDbArc
 50
160.0
 51
250.0
  0
CIRCLE
  5
43F
100
AcDbEntity
  8
BEZUGSACHSEN
100
AcDbCircle
 62
7
  6
CONTINUOUS
 10
467.3251734366
 20
141.0506711897
 40
7.11325
  0
ARC
  5
440
100
AcDbEntity
  8
0
100
AcDbCircle
 62
7
  6
CONTINUOUS
 10
482.4535253652
 20
162.1488457061
 40
4.5
100
AcDbArc
 50
340.0
 51
59.3577329759
  0
ARC
  5
441
100
AcDbEntity
  8
RUNDUNGEN
100
AcDbCircle
 62
7
  6
CONTINUOUS
 10
469.2978286742
 20
166.9371277126
 40
4.5
100
AcDbArc
 50
80.6422670241
 51
160.0
  0
ARC
  5
442
100
AcDbEntity
  8
0
100
AcDbCircle
 62
7
  6
CONTINUOUS
 10
484.3523754945
 20
163.9517188027
 40
2.1137820273
100
AcDbArc
 50
100.5946035821
 51
103.533879228
  0
ARC
  5
443
100
AcDbEntity
  8
RUNDUNGEN
100
AcDbCircle
 62
7
  6
CONTINUOUS
 10
469.0020895728
 20
169.5387659658
 40
2.1137820272
100
AcDbArc
 50
36.466120772
 51
39.405396418
  0
ARC
  5
444
100
AcDbEntity
  8
BEZUGSACHSEN
100
AcDbCircle
 62
7
  6
CONTINUOUS
 10
490.5825431827
 20
204.9497694032
 40
8.0
100
AcDbArc
 50
132.4349057266
 51
160.0
  0
ARC
  5
445
100
AcDbEntity
  8
BEZUGSACHSEN
100
AcDbCircle
 62
7
  6
CONTINUOUS
 10
490.5825431827
 20
204.9497694032
 40
8.0
100
AcDbArc
 50
340.0
 51
7.5650942734
  0
ARC
  5
446
100
AcDbEntity
  8
KONSTRUKTIONSELEMENTE
100
AcDbCircle
 62
7
  6
CONTINUOUS
 10
478.7389418278
 20
210.5839533158
 40
3.0
100
AcDbArc
 50
295.0
 51
115.0
  0
ARC
  5
447
100
AcDbEntity
  8
RUNDUNGEN
100
AcDbCircle
 62
7
  6
CONTINUOUS
 10
532.0730467089
 20
138.069565146
 40
14.0
100
AcDbArc
 50
290.0
 51
20.0
  0
ARC
  5
448
100
AcDbEntity
  8
0
100
AcDbCircle
 62
7
  6
CONTINUOUS
 10
530.3815999915
 20
137.453928888
 40
14.0
100
AcDbArc
 50
200.0
 51
290.0
  0
ARC
  5
449
100
AcDbEntity
  8
RUNDUNGEN
100
AcDbCircle
 62
7
  6
CONTINUOUS
 10
532.4130390481
 20
137.4704688058
 40
13.3111588226
100
AcDbArc
 50
299.3184628497
 51
303.0949802542
  0
ARC
  5
44A
100
AcDbEntity
  8
RUNDUNGEN
100
AcDbCircle
 62
7
  6
CONTINUOUS
 10
532.7132335561
 20
137.0084088913
 40
12.7601457273
100
AcDbArc
 50
303.0985948427
 51
306.0825768171
  0
ARC
  5
44B
100
AcDbEntity
  8
RUNDUNGEN
100
AcDbCircle
 62
7
  6
CONTINUOUS
 10
532.9085251832
 20
136.7367556115
 40
12.4255870251
100
AcDbArc
 50
306.0925447849
 51
306.7730624488
  0
CIRCLE
  5
44C
100
AcDbEntity
  8
BEZUGSACHSEN
100
AcDbCircle
 62
7
  6
CONTINUOUS
 10
530.0302528486
 20
141.0506711897
 40
7.11325
  0
ARC
  5
44D
100
AcDbEntity
  8
0
100
AcDbCircle
 62
7
  6
CONTINUOUS
 10
514.9019009199
 20
162.1488457061
 40
4.5
100
AcDbArc
 50
120.6460472925
 51
200.0
  0
ARC
  5
44E
100
AcDbEntity
  8
RUNDUNGEN
100
AcDbCircle
 62
7
  6
CONTINUOUS
 10
528.0575976109
 20
166.9371277126
 40
4.5
100
AcDbArc
 50
20.0
 51
99.3539527075
  0
ARC
  5
44F
100
AcDbEntity
  8
RUNDUNGEN
100
AcDbCircle
 62
7
  6
CONTINUOUS
 10
528.3533367123
 20
169.5387659658
 40
2.1137820272
100
AcDbArc
 50
140.594603582
 51
143.5338792281
  0
ARC
  5
450
100
AcDbEntity
  8
0
100
AcDbCircle
 62
7
  6
CONTINUOUS
 10
513.0030507906
 20
163.9517188027
 40
2.1137820273
100
AcDbArc
 50
76.4661207721
 51
79.4053964179
  0
ARC
  5
451
100
AcDbEntity
  8
BEZUGSACHSEN
100
AcDbCircle
 62
7
  6
CONTINUOUS
 10
506.7728831024
 20
204.9497694032
 40
8.0
100
AcDbArc
 50
20.0
 51
47.5650942734
  0
ARC
  5
452
100
AcDbEntity
  8
BEZUGSACHSEN
100
AcDbCircle
 62
7
  6
CONTINUOUS
 10
506.7728831024
 20
204.9497694032
 40
8.0
100
AcDbArc
 50
172.4349057266
 51
200.0
  0
ARC
  5
453
100
AcDbEntity
  8
0
100
AcDbCircle
 62
7
  6
CONTINUOUS
 10
498.6777131426
 20
219.8815550741
 40
47.0
100
AcDbArc
 50
302.9124318851
 51
360.0
  0
ARC
  5
454
100
AcDbEntity
  8
0
100
AcDbCircle
 62
7
  6
CONTINUOUS
 10
498.6777131426
 20
219.8815550741
 40
47.0
100
AcDbArc
 50
256.7232757582
 51
283.2767242418
  0
ARC
  5
455
100
AcDbEntity
  8
0
100
AcDbCircle
 62
7
  6
CONTINUOUS
 10
498.6777131426
 20
219.8815550741
 40
47.0
100
AcDbArc
 50
208.65985422
 51
237.0875681149
  0
ARC
  5
456
100
AcDbEntity
  8
0
100
AcDbCircle
 62
7
  6
CONTINUOUS
 10
498.6777131426
 20
219.8815550741
 40
47.0
100
AcDbArc
 50
180.0
 51
201.3397136163
  0
ARC
  5
457
100
AcDbEntity
  8
0
100
AcDbCircle
 62
7
  6
CONTINUOUS
 10
498.6777131426
 20
284.8815550741
 40
47.0
100
AcDbArc
 50
0.0
 51
180.0
  0
ARC
  5
458
100
AcDbEntity
  8
0
100
AcDbCircle
 62
7
  6
CONTINUOUS
 10
498.6777131426
 20
219.8815550741
 40
25.0
100
AcDbArc
 50
314.8370494703
 51
360.0
  0
ARC
  5
459
100
AcDbEntity
  8
0
100
AcDbCircle
 62
7
  6
CONTINUOUS
 10
498.6777131426
 20
219.8815550741
 40
25.0
100
AcDbArc
 50
262.709602163
 51
277.290397837
  0
ARC
  5
45A
100
AcDbEntity
  8
0
100
AcDbCircle
 62
7
  6
CONTINUOUS
 10
498.6777131426
 20
219.8815550741
 40
25.0
100
AcDbArc
 50
211.8935494458
 51
225.1629505297
  0
ARC
  5
45B
100
AcDbEntity
  8
0
100
AcDbCircle
 62
7
  6
CONTINUOUS
 10
498.6777131426
 20
219.8815550741
 40
25.0
100
AcDbArc
 50
180.0
 51
198.1075658057
  0
ARC
  5
45C
100
AcDbEntity
  8
0
100
AcDbCircle
 62
7
  6
CONTINUOUS
 10
498.6777131426
 20
284.8815550741
 40
25.0
100
AcDbArc
 50
0.0
 51
180.0
  0
ARC
  5
45D
100
AcDbEntity
  8
0
100
AcDbCircle
 62
7
  6
CONTINUOUS
 10
770.0036884156
 20
366.3344117068
 40
703.8220116395
100
AcDbArc
 50
195.1744654996
 51
195.7951311331
  0
ARC
  5
45E
100
AcDbEntity
  8
0
100
AcDbCircle
 62
7
  6
CONTINUOUS
 10
-494.022829785
 20
359.5036353362
 40
678.2373109178
100
AcDbArc
 50
344.1931622648
 51
344.8372411025
  0
ARC
  5
45F
100
AcDbEntity
  8
0
100
AcDbCircle
 62
7
  6
CONTINUOUS
 10
693.693040337
 20
21.0423585562
 40
624.6300283986
100
AcDbArc
 50
163.3017664784
 51
164.8677017931
  0
ARC
  5
460
100
AcDbEntity
  8
0
100
AcDbCircle
 62
7
  6
CONTINUOUS
 10
-442.3685668453
 20
21.0423585849
 40
624.6300282943
100
AcDbArc
 50
15.1322982067
 51
16.6982335218
  0
ARC
  5
461
100
AcDbEntity
  8
0
100
AcDbCircle
 62
7
  6
CONTINUOUS
 10
724.2440375923
 20
14.7728480561
 40
588.5265795814
100
AcDbArc
 50
163.2787483837
 51
163.9818938617
  0
ARC
  5
462
100
AcDbEntity
  8
0
100
AcDbCircle
 62
7
  6
CONTINUOUS
 10
-470.7599026312
 20
15.407229315
 40
586.2757161511
100
AcDbArc
 50
16.016756343
 51
16.7226014116
  0
ARC
  5
463
100
AcDbEntity
  8
0
100
AcDbCircle
 62
7
  6
CONTINUOUS
 10
84.2408253232
 20
16.3631136781
 40
204.8217442428
100
AcDbArc
 50
73.2900658495
 51
75.1708572219
  0
ARC
  5
464
100
AcDbEntity
  8
0
100
AcDbCircle
 62
7
  6
CONTINUOUS
 10
167.0836410192
 20
16.36313847
 40
204.821718471
100
AcDbArc
 50
104.8291426564
 51
106.7099342559
  0
ARC
  5
465
100
AcDbEntity
  8
KONSTRUKTIONSELEMENTE
100
AcDbCircle
 62
7
  6
CONTINUOUS
 10
123.3171244313
 20
226.8278924355
 40
36.3606353067
100
AcDbArc
 50
254.7712657313
 51
256.2226305645
  0
ARC
  5
466
100
AcDbEntity
  8
KONSTRUKTIONSELEMENTE
100
AcDbCircle
 62
7
  6
CONTINUOUS
 10
128.0979489979
 20
226.4783022507
 40
35.9995247195
100
AcDbArc
 50
283.7668360353
 51
285.2355037234
  0
ARC
  5
467
100
AcDbEntity
  8
KONSTRUKTIONSELEMENTE
100
AcDbCircle
 62
7
  6
CONTINUOUS
 10
125.6622366957
 20
93.0795634035
 40
35.9892
100
AcDbArc
 50
57.5915955358
 51
79.9991254185
  0
ARC
  5
468
100
AcDbEntity
  8
KONSTRUKTIONSELEMENTE
100
AcDbCircle
 62
7
  6
CONTINUOUS
 10
125.6622366957
 20
93.0795634035
 40
35.9892
100
AcDbArc
 50
100.0008745815
 51
122.4084044642
  0
ARC
  5
469
100
AcDbEntity
  8
0
100
AcDbCircle
 62
7
  6
CONTINUOUS
 10
125.7269190404
 20
120.5559534969
 40
34.1783502481
100
AcDbArc
 50
85.3720873759
 51
85.9127731926
  0
ARC
  5
46A
100
AcDbEntity
  8
0
100
AcDbCircle
 62
7
  6
CONTINUOUS
 10
125.5975543509
 20
120.555953497
 40
34.1783502479
100
AcDbArc
 50
94.0872268074
 51
94.6279126241
  0
ARC
  5
46B
100
AcDbEntity
  8
0
100
AcDbCircle
 62
7
  6
CONTINUOUS
 10
125.6622366957
 20
320.8815550741
 40
11.0
100
AcDbArc
 50
0.0
 51
180.0
  0
ARC
  5
46C
100
AcDbEntity
  8
0
100
AcDbCircle
 62
7
  6
CONTINUOUS
 10
125.6622366957
 20
183.8815550741
 40
11.0
100
AcDbArc
 50
180.0
 51
360.0
  0
ARC
  5
46D
100
AcDbEntity
  8
RUNDUNGEN
100
AcDbCircle
 62
7
  6
CONTINUOUS
 10
96.0857848584
 20
146.4812654851
 40
3.5758317608
100
AcDbArc
 50
286.4804604339
 51
287.551333433
  0
ARC
  5
46E
100
AcDbEntity
  8
BEZUGSACHSEN
100
AcDbCircle
 62
7
  6
CONTINUOUS
 10
107.8336201918
 20
145.8021369842
 40
2.2287325387
100
AcDbArc
 50
8.0455549064
 51
8.7497994135
  0
ARC
  5
46F
100
AcDbEntity
  8
BEZUGSACHSEN
100
AcDbCircle
 62
7
  6
CONTINUOUS
 10
107.2908532
 20
145.8021369841
 40
2.2287325393
100
AcDbArc
 50
171.2502005866
 51
171.9544450936
  0
ARC
  5
470
100
AcDbEntity
  8
BEZUGSACHSEN
100
AcDbCircle
 62
7
  6
CONTINUOUS
 10
107.8403097792
 20
145.8030210973
 40
2.2219850563
100
AcDbArc
 50
4.2855019131
 51
8.0471243999
  0
ARC
  5
471
100
AcDbEntity
  8
BEZUGSACHSEN
100
AcDbCircle
 62
7
  6
CONTINUOUS
 10
107.2841636122
 20
145.8030210973
 40
2.2219850564
100
AcDbArc
 50
171.9528756001
 51
175.7144980869
  0
LINE
  5
472
100
AcDbEntity
  8
0
100
AcDbLine
 62
7
  6
CONTINUOUS
 10
519.285504221
 20
150.1049946206
 11
514.644489332
 21
149.6989584305
  0
SPLINE
  5
473
100
AcDbEntity
  8
0
100
AcDbSpline
 62
7
  6
CONTINUOUS
 70
0
 71
3
 72
11
 73
7
 74
0
 42
0.0000001
 43
0.0000001
 44
0.0000000001
 40
0.0
 40
0.0
 40
0.0
 40
0.0
 40
0.161833372
 40
0.3784314992
 40
0.6572361095
 40
1.0
 40
1.0
 40
1.0
 40
1.0
 10
512.6081023761
 20
166.0203426053
 30
0.0
 10
512.6450084751
 20
166.0422088649
 30
0.0
 10
512.7429233414
 20
166.072558422
 30
0.0
 10
512.9170881013
 20
166.0850891619
 30
0.0
 10
513.1393975941
 20
166.0713482082
 30
0.0
 10
513.302373642
 20
166.0461375487
 30
0.0
 10
513.3916881579
 20
166.0294664909
 30
0.0
  0
SPLINE
  5
474
100
AcDbEntity
  8
0
100
AcDbSpline
 62
7
  6
CONTINUOUS
 70
0
 71
3
 72
11
 73
7
 74
0
 42
0.0000001
 43
0.0000001
 44
0.0000000001
 40
0.0
 40
0.0
 40
0.0
 40
0.0
 40
0.2505755997
 40
0.5000000009
 40
0.7494244022
 40
1.0
 40
1.0
 40
1.0
 40
1.0
 10
507.1210960513
 20
212.5357798396
 30
0.0
 10
507.6715405157
 20
211.6130270873
 30
0.0
 10
508.6918533265
 20
209.7234563209
 30
0.0
 10
509.9424935463
 20
206.7577270628
 30
0.0
 10
510.890781577
 20
203.6819506156
 30
0.0
 10
511.3237692869
 20
201.5786110034
 30
0.0
 10
511.4952383983
 20
200.5179225116
 30
0.0
  0
LINE
  5
475
100
AcDbEntity
  8
0
100
AcDbLine
 62
7
  6
CONTINUOUS
 10
513.4636817239
 20
143.0022657101
 11
518.1046966128
 21
143.4083019001
  0
SPLINE
  5
476
100
AcDbEntity
  8
RUNDUNGEN
100
AcDbSpline
 62
7
  6
CONTINUOUS
 70
0
 71
3
 72
20
 73
16
 74
0
 42
0.0000001
 43
0.0000001
 44
0.0000000001
 40
0.0
 40
0.0
 40
0.0
 40
0.0
 40
0.1321914336
 40
0.2619814012
 40
0.3885490045
 40
0.5110516027
 40
0.6289250872
 40
0.6866691061
 40
0.7442876134
 40
0.773639457
 40
0.8036553112
 40
0.8345958089
 40
0.8665551653
 40
0.9325737164
 40
1.0
 40
1.0
 40
1.0
 40
1.0
 10
540.3470664402
 20
126.7836999557
 30
0.0
 10
540.7430410106
 20
127.079642897
 30
0.0
 10
541.4936888651
 20
127.7140116657
 30
0.0
 10
542.4705130326
 20
128.7961455494
 30
0.0
 10
543.2464781323
 20
129.9905741179
 30
0.0
 10
543.7608062977
 20
131.2729365281
 30
0.0
 10
543.8963953829
 20
132.4026047034
 30
0.0
 10
543.7367944183
 20
133.2672345152
 30
0.0
 10
543.4966184227
 20
133.7630411693
 30
0.0
 10
543.2084636752
 20
134.0953955846
 30
0.0
 10
542.9397078953
 20
134.303829329
 30
0.0
 10
542.6246988504
 20
134.4564342318
 30
0.0
 10
542.1540533918
 20
134.5744286549
 30
0.0
 10
541.5245528173
 20
134.5529352175
 30
0.0
 10
541.0422867986
 20
134.4145516415
 30
0.0
 10
540.8053443591
 20
134.3283116463
 30
0.0
  0
SPLINE
  5
477
100
AcDbEntity
  8
0
100
AcDbSpline
 62
7
  6
CONTINUOUS
 70
0
 71
3
 72
11
 73
7
 74
0
 42
0.0000001
 43
0.0000001
 44
0.0000000001
 40
0.0
 40
0.0
 40
0.0
 40
0.0
 40
0.2574351421
 40
0.5000000008
 40
0.7425648595
 40
1.0
 40
1.0
 40
1.0
 40
1.0
 10
500.0288957736
 20
214.9360046555
 30
0.0
 10
499.9737701271
 20
214.5209283752
 30
0.0
 10
499.9395390694
 20
213.7008024547
 30
0.0
 10
500.1929547852
 20
212.5049299418
 30
0.0
 10
500.7675191151
 20
211.4259459666
 30
0.0
 10
501.3209084092
 20
210.819696368
 30
0.0
 10
501.6299429924
 20
210.5371635744
 30
0.0
  0
SPLINE
  5
478
100
AcDbEntity
  8
0
100
AcDbSpline
 62
7
  6
CONTINUOUS
 70
0
 71
3
 72
9
 73
5
 74
0
 42
0.0000001
 43
0.0000001
 44
0.0000000001
 40
0.0
 40
0.0
 40
0.0
 40
0.0
 40
0.2501237335
 40
1.0
 40
1.0
 40
1.0
 40
1.0
 10
511.9792749053
 20
182.1026078373
 30
0.0
 10
512.1118369689
 20
181.4809557141
 30
0.0
 10
512.6760603546
 20
179.0030605745
 30
0.0
 10
513.3857079467
 20
176.5578081396
 30
0.0
 10
514.0035877166
 20
174.755130701
 30
0.0
  0
SPLINE
  5
479
100
AcDbEntity
  8
0
100
AcDbSpline
 62
7
  6
CONTINUOUS
 70
0
 71
3
 72
11
 73
7
 74
0
 42
0.0000001
 43
0.0000001
 44
0.0000000001
 40
0.0
 40
0.0
 40
0.0
 40
0.0
 40
0.2500438599
 40
0.5000000009
 40
0.7499561421
 40
1.0
 40
1.0
 40
1.0
 40
1.0
 10
506.0040853394
 20
198.5193062464
 30
0.0
 10
506.3087147077
 20
197.0907414794
 30
0.0
 10
507.0093367782
 20
194.2525050233
 30
0.0
 10
508.3575034505
 20
190.0801355926
 30
0.0
 10
510.006695229
 20
186.0173303519
 30
0.0
 10
511.2943708135
 20
183.3927639122
 30
0.0
 10
511.9792749053
 20
182.1026078373
 30
0.0
  0
SPLINE
  5
47A
100
AcDbEntity
  8
0
100
AcDbSpline
 62
7
  6
CONTINUOUS
 70
0
 71
3
 72
11
 73
7
 74
0
 42
0.0000001
 43
0.0000001
 44
0.0000000001
 40
0.0
 40
0.0
 40
0.0
 40
0.0
 40
0.2505755997
 40
0.5000000009
 40
0.7494244022
 40
1.0
 40
1.0
 40
1.0
 40
1.0
 10
501.6299429924
 20
210.5371635744
 30
0.0
 10
501.8014121052
 20
209.4764750745
 30
0.0
 10
502.2343998224
 20
207.3731354563
 30
0.0
 10
503.1826878526
 20
204.2973590009
 30
0.0
 10
504.4333280666
 20
201.3316297487
 30
0.0
 10
505.4536408792
 20
199.4420589917
 30
0.0
 10
506.0040853394
 20
198.5193062464
 30
0.0
  0
SPLINE
  5
47B
100
AcDbEntity
  8
0
100
AcDbSpline
 62
7
  6
CONTINUOUS
 70
0
 71
3
 72
11
 73
7
 74
0
 42
0.0000001
 43
0.0000001
 44
0.0000000001
 40
0.0
 40
0.0
 40
0.0
 40
0.0
 40
0.2574351421
 40
0.5000000008
 40
0.7425648595
 40
1.0
 40
1.0
 40
1.0
 40
1.0
 10
505.5200488325
 20
216.9346209207
 30
0.0
 10
505.8290834177
 20
216.6520881253
 30
0.0
 10
506.3824727093
 20
216.045838521
 30
0.0
 10
506.9570370425
 20
214.9668545456
 30
0.0
 10
507.2104527606
 20
213.770982035
 30
0.0
 10
507.1762216974
 20
212.9508561172
 30
0.0
 10
507.1210960513
 20
212.5357798396
 30
0.0
  0
SPLINE
  5
47C
100
AcDbEntity
  8
0
100
AcDbSpline
 62
7
  6
CONTINUOUS
 70
0
 71
3
 72
9
 73
5
 74
0
 42
0.0000001
 43
0.0000001
 44
0.0000000001
 40
0.0
 40
0.0
 40
0.0
 40
0.0
 40
0.2501237335
 40
1.0
 40
1.0
 40
1.0
 40
1.0
 10
517.4704279642
 20
184.1012241025
 30
0.0
 10
517.7684698143
 20
183.5398016959
 30
0.0
 10
518.9290099188
 20
181.2789480923
 30
0.0
 10
519.957166292
 20
178.949623373
 30
0.0
 10
520.6425816496
 20
177.1715268781
 30
0.0
  0
SPLINE
  5
47D
100
AcDbEntity
  8
0
100
AcDbSpline
 62
7
  6
CONTINUOUS
 70
0
 71
3
 72
11
 73
7
 74
0
 42
0.0000001
 43
0.0000001
 44
0.0000000001
 40
0.0
 40
0.0
 40
0.0
 40
0.0
 40
0.2500438599
 40
0.5000000009
 40
0.7499561421
 40
1.0
 40
1.0
 40
1.0
 40
1.0
 10
511.4952383983
 20
200.5179225116
 30
0.0
 10
512.1801424954
 20
199.2277664268
 30
0.0
 10
513.4678180789
 20
196.6031999753
 30
0.0
 10
515.1170098643
 20
192.5403947256
 30
0.0
 10
516.465176536
 20
188.3680253062
 30
0.0
 10
517.1657985982
 20
185.5297888584
 30
0.0
 10
517.4704279642
 20
184.1012241025
 30
0.0
  0
LINE
  5
47E
100
AcDbEntity
  8
RUNDUNGEN
100
AcDbLine
 62
7
  6
CONTINUOUS
 10
532.441200912
 20
154.8932766271
 11
536.2574196101
 21
157.565421727
  0
SPLINE
  5
47F
100
AcDbEntity
  8
RUNDUNGEN
100
AcDbSpline
 62
7
  6
CONTINUOUS
 70
0
 71
3
 72
11
 73
7
 74
0
 42
0.0000001
 43
0.0000001
 44
0.0000000001
 40
0.0
 40
0.0
 40
0.0
 40
0.0
 40
0.161833372
 40
0.3784314992
 40
0.6572361095
 40
1.0
 40
1.0
 40
1.0
 40
1.0
 10
527.3261990013
 20
171.3772916819
 30
0.0
 10
527.2838719285
 20
171.3703194254
 30
0.0
 10
527.18935647
 20
171.3306300721
 30
0.0
 10
527.0478839191
 20
171.2282782261
 30
0.0
 10
526.8864174823
 20
171.0748542574
 30
0.0
 10
526.777775686
 20
170.9507827875
 30
0.0
 10
526.7200727468
 20
170.8806017521
 30
0.0
  0
LINE
  5
480
100
AcDbEntity
  8
RUNDUNGEN
100
AcDbLine
 62
7
  6
CONTINUOUS
 10
541.4665218233
 20
153.1944659812
 11
537.6503031252
 21
150.5223208813
  0
SPLINE
  5
481
100
AcDbEntity
  8
0
100
AcDbSpline
 62
7
  6
CONTINUOUS
 70
0
 71
3
 72
21
 73
17
 74
0
 42
0.0000001
 43
0.0000001
 44
0.0000000001
 40
0.0
 40
0.0
 40
0.0
 40
0.0
 40
0.1327174837
 40
0.2635367153
 40
0.3914901348
 40
0.515489269
 40
0.5758134505
 40
0.6348559655
 40
0.6926848659
 40
0.7497240308
 40
0.7784144956
 40
0.8075442607
 40
0.8374774893
 40
0.8685013971
 40
0.9332558374
 40
1.0
 40
1.0
 40
1.0
 40
1.0
 10
532.9734653561
 20
123.6959408959
 30
0.0
 10
532.4122948041
 20
123.5902220488
 30
0.0
 10
531.2832838783
 20
123.4501109275
 30
0.0
 10
529.5930860635
 20
123.473583158
 30
0.0
 10
527.9628251033
 20
123.7544439714
 30
0.0
 10
526.6941798046
 20
124.2328322095
 30
0.0
 10
525.7991922993
 20
124.7822856108
 30
0.0
 10
525.2146714236
 20
125.2775804235
 30
0.0
 10
524.7417207543
 20
125.8641826318
 30
0.0
 10
524.4812934955
 20
126.4354887989
 30
0.0
 10
524.3972909836
 20
126.9252518055
 30
0.0
 10
524.4092855651
 20
127.3056155707
 30
0.0
 10
524.5099537995
 20
127.6836909681
 30
0.0
 10
524.7712316025
 20
128.1630845791
 30
0.0
 10
525.308263697
 20
128.6408932713
 30
0.0
 10
525.827243026
 20
128.8767285952
 30
0.0
 10
526.0971032952
 20
128.9749497006
 30
0.0
  0
LINE
  5
482
100
AcDbEntity
  8
0
100
AcDbLine
 62
7
  6
CONTINUOUS
 10
479.2507296723
 20
143.4083019001
 11
483.8917445612
 21
143.0022657101
  0
LINE
  5
483
100
AcDbEntity
  8
0
100
AcDbLine
 62
7
  6
CONTINUOUS
 10
478.0699220642
 20
150.1049946206
 11
482.7109369531
 21
149.6989584305
  0
SPLINE
  5
484
100
AcDbEntity
  8
0
100
AcDbSpline
 62
7
  6
CONTINUOUS
 70
0
 71
3
 72
11
 73
7
 74
0
 42
0.0000001
 43
0.0000001
 44
0.0000000001
 40
0.0
 40
0.0
 40
0.0
 40
0.0
 40
0.3426837634
 40
0.6214705428
 40
0.8381047999
 40
1.0
 40
1.0
 40
1.0
 40
1.0
 10
483.9637381272
 20
166.0294664909
 30
0.0
 10
484.0529988416
 20
166.0461275064
 30
0.0
 10
484.215888579
 20
166.0713275189
 30
0.0
 10
484.4380971145
 20
166.0850835009
 30
0.0
 10
484.612221304
 20
166.0725980826
 30
0.0
 10
484.7101368681
 20
166.0423182068
 30
0.0
 10
484.747068471
 20
166.0204939367
 30
0.0
  0
SPLINE
  5
485
100
AcDbEntity
  8
0
100
AcDbSpline
 62
7
  6
CONTINUOUS
 70
0
 71
3
 72
11
 73
7
 74
0
 42
0.0000001
 43
0.0000001
 44
0.0000000001
 40
0.0
 40
0.0
 40
0.0
 40
0.0
 40
0.2505755997
 40
0.5000000009
 40
0.7494244022
 40
1.0
 40
1.0
 40
1.0
 40
1.0
 10
485.8601878868
 20
200.5179225116
 30
0.0
 10
486.0316569996
 20
201.5786110115
 30
0.0
 10
486.4646447169
 20
203.6819506297
 30
0.0
 10
487.412932747
 20
206.7577270852
 30
0.0
 10
488.663572961
 20
209.7234563374
 30
0.0
 10
489.6838857736
 20
211.6130270943
 30
0.0
 10
490.2343302339
 20
212.5357798396
 30
0.0
  0
SPLINE
  5
486
100
AcDbEntity
  8
0
100
AcDbSpline
 62
7
  6
CONTINUOUS
 70
0
 71
3
 72
11
 73
7
 74
0
 42
0.0000001
 43
0.0000001
 44
0.0000000001
 40
0.0
 40
0.0
 40
0.0
 40
0.0
 40
0.2500438599
 40
0.5000000009
 40
0.7499561421
 40
1.0
 40
1.0
 40
1.0
 40
1.0
 10
479.884998321
 20
184.1012241025
 30
0.0
 10
480.1896276892
 20
185.5297888695
 30
0.0
 10
480.8902497598
 20
188.3680253256
 30
0.0
 10
482.238416432
 20
192.5403947563
 30
0.0
 10
483.8876082105
 20
196.603199997
 30
0.0
 10
485.175283795
 20
199.2277664367
 30
0.0
 10
485.8601878868
 20
200.5179225116
 30
0.0
  0
SPLINE
  5
487
100
AcDbEntity
  8
0
100
AcDbSpline
 62
7
  6
CONTINUOUS
 70
0
 71
3
 72
9
 73
5
 74
0
 42
0.0000001
 43
0.0000001
 44
0.0000000001
 40
0.0
 40
0.0
 40
0.0
 40
0.0
 40
0.7498762812
 40
1.0
 40
1.0
 40
1.0
 40
1.0
 10
476.7128446355
 20
177.1715268781
 30
0.0
 10
477.3982600066
 20
178.9496234081
 30
0.0
 10
478.4264163476
 20
181.2789481434
 30
0.0
 10
479.5869564884
 20
183.5398017289
 30
0.0
 10
479.884998321
 20
184.1012241025
 30
0.0
  0
SPLINE
  5
488
100
AcDbEntity
  8
0
100
AcDbSpline
 62
7
  6
CONTINUOUS
 70
0
 71
3
 72
11
 73
7
 74
0
 42
0.0000001
 43
0.0000001
 44
0.0000000001
 40
0.0
 40
0.0
 40
0.0
 40
0.0
 40
0.2574351421
 40
0.5000000008
 40
0.7425648595
 40
1.0
 40
1.0
 40
1.0
 40
1.0
 10
490.2343302339
 20
212.5357798396
 30
0.0
 10
490.1792045874
 20
212.95085612
 30
0.0
 10
490.1449735297
 20
213.7709820404
 30
0.0
 10
490.3983892455
 20
214.9668545533
 30
0.0
 10
490.9729535754
 20
216.0458385285
 30
0.0
 10
491.5263428694
 20
216.6520881271
 30
0.0
 10
491.8353774527
 20
216.9346209207
 30
0.0
  0
SPLINE
  5
489
100
AcDbEntity
  8
0
100
AcDbSpline
 62
7
  6
CONTINUOUS
 70
0
 71
3
 72
11
 73
7
 74
0
 42
0.0000001
 43
0.0000001
 44
0.0000000001
 40
0.0
 40
0.0
 40
0.0
 40
0.0
 40
0.2574351421
 40
0.5000000008
 40
0.7425648595
 40
1.0
 40
1.0
 40
1.0
 40
1.0
 10
495.7254832928
 20
210.5371635744
 30
0.0
 10
496.034517878
 20
210.8196963699
 30
0.0
 10
496.5879071696
 20
211.4259459741
 30
0.0
 10
497.1624715027
 20
212.5049299496
 30
0.0
 10
497.4158872209
 20
213.7008024602
 30
0.0
 10
497.3816561577
 20
214.5209283779
 30
0.0
 10
497.3265305115
 20
214.9360046555
 30
0.0
  0
SPLINE
  5
48A
100
AcDbEntity
  8
0
100
AcDbSpline
 62
7
  6
CONTINUOUS
 70
0
 71
3
 72
11
 73
7
 74
0
 42
0.0000001
 43
0.0000001
 44
0.0000000001
 40
0.0
 40
0.0
 40
0.0
 40
0.0
 40
0.2505755997
 40
0.5000000009
 40
0.7494244022
 40
1.0
 40
1.0
 40
1.0
 40
1.0
 10
491.3513409457
 20
198.5193062464
 30
0.0
 10
491.9017854102
 20
199.4420589987
 30
0.0
 10
492.9220982209
 20
201.3316297651
 30
0.0
 10
494.1727384407
 20
204.2973590233
 30
0.0
 10
495.1210264714
 20
207.3731354704
 30
0.0
 10
495.5540141813
 20
209.4764750826
 30
0.0
 10
495.7254832928
 20
210.5371635744
 30
0.0
  0
SPLINE
  5
48B
100
AcDbEntity
  8
0
100
AcDbSpline
 62
7
  6
CONTINUOUS
 70
0
 71
3
 72
11
 73
7
 74
0
 42
0.0000001
 43
0.0000001
 44
0.0000000001
 40
0.0
 40
0.0
 40
0.0
 40
0.0
 40
0.2500438599
 40
0.5000000009
 40
0.7499561421
 40
1.0
 40
1.0
 40
1.0
 40
1.0
 10
485.3761513799
 20
182.1026078373
 30
0.0
 10
486.0610554769
 20
183.3927639221
 30
0.0
 10
487.3487310604
 20
186.0173303736
 30
0.0
 10
488.9979228458
 20
190.0801356233
 30
0.0
 10
490.3460895176
 20
194.2525050427
 30
0.0
 10
491.0467115798
 20
197.0907414904
 30
0.0
 10
491.3513409457
 20
198.5193062464
 30
0.0
  0
SPLINE
  5
48C
100
AcDbEntity
  8
0
100
AcDbSpline
 62
7
  6
CONTINUOUS
 70
0
 71
3
 72
9
 73
5
 74
0
 42
0.0000001
 43
0.0000001
 44
0.0000000001
 40
0.0
 40
0.0
 40
0.0
 40
0.0
 40
0.7498762812
 40
1.0
 40
1.0
 40
1.0
 40
1.0
 10
483.3518385686
 20
174.755130701
 30
0.0
 10
483.9697183506
 20
176.5578081751
 30
0.0
 10
484.6793659778
 20
179.0030606017
 30
0.0
 10
485.243589324
 20
181.4809557506
 30
0.0
 10
485.3761513799
 20
182.1026078373
 30
0.0
  0
LINE
  5
48D
100
AcDbEntity
  8
RUNDUNGEN
100
AcDbLine
 62
7
  6
CONTINUOUS
 10
459.70512316
 20
150.5223208813
 11
455.8889044618
 21
153.1944659812
  0
LINE
  5
48E
100
AcDbEntity
  8
RUNDUNGEN
100
AcDbLine
 62
7
  6
CONTINUOUS
 10
464.9142253732
 20
154.8932766271
 11
461.098006675
 21
157.565421727
  0
SPLINE
  5
48F
100
AcDbEntity
  8
RUNDUNGEN
100
AcDbSpline
 62
7
  6
CONTINUOUS
 70
0
 71
3
 72
11
 73
7
 74
0
 42
0.0000001
 43
0.0000001
 44
0.0000000001
 40
0.0
 40
0.0
 40
0.0
 40
0.0
 40
0.3426837634
 40
0.6214705428
 40
0.8381047999
 40
1.0
 40
1.0
 40
1.0
 40
1.0
 10
470.6353535384
 20
170.8806017521
 30
0.0
 10
470.5776853584
 20
170.9507405117
 30
0.0
 10
470.4691028361
 20
171.0747483462
 30
0.0
 10
470.307723397
 20
171.2281189331
 30
0.0
 10
470.1663110571
 20
171.3304794194
 30
0.0
 10
470.0718398543
 20
171.3702226002
 30
0.0
 10
470.0295202347
 20
171.3772434161
 30
0.0
  0
SPLINE
  5
490
100
AcDbEntity
  8
RUNDUNGEN
100
AcDbSpline
 62
7
  6
CONTINUOUS
 70
0
 71
3
 72
21
 73
17
 74
0
 42
0.0000001
 43
0.0000001
 44
0.0000000001
 40
0.0
 40
0.0
 40
0.0
 40
0.0
 40
0.0667433704
 40
0.131500321
 40
0.1625263809
 40
0.1924611785
 40
0.2215902271
 40
0.2502798964
 40
0.3073186591
 40
0.3651472153
 40
0.4241897026
 40
0.4845139547
 40
0.6085121832
 40
0.7364639854
 40
0.8672827731
 40
1.0
 40
1.0
 40
1.0
 40
1.0
 10
456.5500819261
 20
134.3283116463
 30
0.0
 10
456.280224889
 20
134.4265315753
 30
0.0
 10
455.7310642118
 20
134.5794742875
 30
0.0
 10
455.0125295146
 20
134.5586245262
 30
0.0
 10
454.504202816
 20
134.3593324252
 30
0.0
 10
454.1840593279
 20
134.1343984161
 30
0.0
 10
453.9303988511
 20
133.8507151547
 30
0.0
 10
453.679940768
 20
133.4215463624
 30
0.0
 10
453.512232144
 20
132.8165008063
 30
0.0
 10
453.4974812013
 20
132.063135408
 30
0.0
 10
453.6268876002
 20
131.3079971042
 30
0.0
 10
453.9593106434
 20
130.3118102784
 30
0.0
 10
454.6236490665
 20
129.129887732
 30
0.0
 10
455.6919605669
 20
127.8668359694
 30
0.0
 10
456.9716326132
 20
126.7624244442
 30
0.0
 10
457.9265642529
 20
126.144043419
 30
0.0
 10
458.4243995838
 20
125.8643158481
 30
0.0
  0
SPLINE
  5
491
100
AcDbEntity
  8
0
100
AcDbSpline
 62
7
  6
CONTINUOUS
 70
0
 71
3
 72
21
 73
17
 74
0
 42
0.0000001
 43
0.0000001
 44
0.0000000001
 40
0.0
 40
0.0
 40
0.0
 40
0.0
 40
0.0667433704
 40
0.131500321
 40
0.1625263809
 40
0.1924611785
 40
0.2215902271
 40
0.2502798964
 40
0.3073186591
 40
0.3651472153
 40
0.4241897026
 40
0.4845139547
 40
0.6085121832
 40
0.7364639854
 40
0.8672827731
 40
1.0
 40
1.0
 40
1.0
 40
1.0
 10
471.25832299
 20
128.9749497006
 30
0.0
 10
471.528180027
 20
128.8767297716
 30
0.0
 10
472.0471711926
 20
128.6408970074
 30
0.0
 10
472.5841987364
 20
128.1630599631
 30
0.0
 10
472.8454970859
 20
127.683647253
 30
0.0
 10
472.9461564318
 20
127.3055535379
 30
0.0
 10
472.9581235451
 20
126.9251897403
 30
0.0
 10
472.8741211857
 20
126.4354360192
 30
0.0
 10
472.6136776583
 20
125.8641432076
 30
0.0
 10
472.1407235925
 20
125.2775501074
 30
0.0
 10
471.5561989944
 20
124.7822614358
 30
0.0
 10
470.6612116208
 20
124.2328154669
 30
0.0
 10
469.392573695
 20
123.7544387751
 30
0.0
 10
467.7623255833
 20
123.4735823867
 30
0.0
 10
466.0721378788
 20
123.4501114107
 30
0.0
 10
464.9431301416
 20
123.5902222888
 30
0.0
 10
464.3819607361
 20
123.6959409198
 30
0.0
  0
SPLINE
  5
492
100
AcDbEntity
  8
RUNDUNGEN
100
AcDbSpline
 62
7
  6
CONTINUOUS
 70
0
 71
3
 72
11
 73
7
 74
0
 42
0.0000001
 43
0.0000001
 44
0.0000000001
 40
0.0
 40
0.0
 40
0.0
 40
0.0
 40
0.1935845084
 40
0.415832912
 40
0.6830903562
 40
1.0
 40
1.0
 40
1.0
 40
1.0
 10
93.1839751155
 20
146.0953349819
 30
0.0
 10
93.1840188765
 20
146.1368374868
 30
0.0
 10
93.2064346655
 20
146.2266396765
 30
0.0
 10
93.2961549261
 20
146.3455703725
 30
0.0
 10
93.4338482798
 20
146.452263294
 30
0.0
 10
93.5458511212
 20
146.5096476677
 30
0.0
 10
93.6081586941
 20
146.5367383427
 30
0.0
  0
SPLINE
  5
493
100
AcDbEntity
  8
RUNDUNGEN
100
AcDbSpline
 62
7
  6
CONTINUOUS
 70
0
 71
3
 72
11
 73
7
 74
0
 42
0.0000001
 43
0.0000001
 44
0.0000000001
 40
0.0
 40
0.0
 40
0.0
 40
0.0
 40
0.2073680663
 40
0.4349416349
 40
0.6970147995
 40
1.0
 40
1.0
 40
1.0
 40
1.0
 10
93.183973823
 20
141.5637708323
 30
0.0
 10
93.1839429218
 20
141.5310802604
 30
0.0
 10
93.1970130652
 20
141.4620279016
 30
0.0
 10
93.2527068021
 20
141.3655539206
 30
0.0
 10
93.340900256
 20
141.2757015815
 30
0.0
 10
93.4143420059
 20
141.2245185025
 30
0.0
 10
93.4552350532
 20
141.1998370365
 30
0.0
  0
SPLINE
  5
494
100
AcDbEntity
  8
RUNDUNGEN
100
AcDbSpline
 62
7
  6
CONTINUOUS
 70
0
 71
3
 72
13
 73
9
 74
0
 42
0.0000001
 43
0.0000001
 44
0.0000000001
 40
0.0
 40
0.0
 40
0.0
 40
0.0
 40
0.08776614
 40
0.1810035989
 40
0.2840502729
 40
0.3996815773
 40
0.6725569204
 40
1.0
 40
1.0
 40
1.0
 40
1.0
 10
82.7428406391
 20
152.8628387727
 30
0.0
 10
82.7428131444
 20
152.9480147586
 30
0.0
 10
82.7686501927
 20
153.1245571165
 30
0.0
 10
82.8815448817
 20
153.3790208434
 30
0.0
 10
83.0642372369
 20
153.6229862722
 30
0.0
 10
83.4154292121
 20
153.9487339356
 30
0.0
 10
84.021083435
 20
154.3034458881
 30
0.0
 10
84.5702383801
 20
154.5039915053
 30
0.0
 10
84.8749560313
 20
154.5941637028
 30
0.0
  0
SPLINE
  5
495
100
AcDbEntity
  8
RUNDUNGEN
100
AcDbSpline
 62
7
  6
CONTINUOUS
 70
0
 71
3
 72
11
 73
7
 74
0
 42
0.0000001
 43
0.0000001
 44
0.0000000001
 40
0.0
 40
0.0
 40
0.0
 40
0.0
 40
0.2073673999
 40
0.4349663285
 40
0.6969833209
 40
1.0
 40
1.0
 40
1.0
 40
1.0
 10
82.7428406391
 20
148.3312998375
 30
0.0
 10
82.7428757815
 20
148.2224319775
 30
0.0
 10
82.7868725779
 20
147.9925512975
 30
0.0
 10
82.9725068151
 20
147.6714370483
 30
0.0
 10
83.266282505
 20
147.3722652915
 30
0.0
 10
83.510879284
 20
147.2018666062
 30
0.0
 10
83.6470779916
 20
147.1196623198
 30
0.0
  0
SPLINE
  5
496
100
AcDbEntity
  8
RUNDUNGEN
100
AcDbSpline
 62
7
  6
CONTINUOUS
 70
0
 71
3
 72
11
 73
7
 74
0
 42
0.0000001
 43
0.0000001
 44
0.0000000001
 40
0.0
 40
0.0
 40
0.0
 40
0.0
 40
0.2073612865
 40
0.4349778056
 40
0.696920747
 40
1.0
 40
1.0
 40
1.0
 40
1.0
 10
91.6622366957
 20
119.8413774626
 30
0.0
 10
91.6622366957
 20
119.9502689721
 30
0.0
 10
91.7061077261
 20
120.1802424542
 30
0.0
 10
91.8917653586
 20
120.5014256173
 30
0.0
 10
92.185542281
 20
120.8007376624
 30
0.0
 10
92.4302160385
 20
120.9711553019
 30
0.0
 10
92.5664764742
 20
121.0533968451
 30
0.0
  0
SPLINE
  5
497
100
AcDbEntity
  8
BEZUGSACHSEN
100
AcDbSpline
 62
7
  6
CONTINUOUS
 70
0
 71
3
 72
9
 73
5
 74
0
 42
0.0000001
 43
0.0000001
 44
0.0000000001
 40
0.0
 40
0.0
 40
0.0
 40
0.0
 40
0.2443930536
 40
1.0
 40
1.0
 40
1.0
 40
1.0
 10
128.7708727338
 20
148.1072193892
 30
0.0
 10
128.7219154105
 20
148.1213961495
 30
0.0
 10
128.5210556313
 20
148.1775382796
 30
0.0
 10
128.3181859407
 20
148.2264282441
 30
0.0
 10
128.1641515381
 20
148.2596828812
 30
0.0
  0
SPLINE
  5
498
100
AcDbEntity
  8
BEZUGSACHSEN
100
AcDbSpline
 62
7
  6
CONTINUOUS
 70
0
 71
3
 72
9
 73
5
 74
0
 42
0.0000001
 43
0.0000001
 44
0.0000000001
 40
0.0
 40
0.0
 40
0.0
 40
0.0
 40
0.2554557018
 40
1.0
 40
1.0
 40
1.0
 40
1.0
 10
123.1603218533
 20
148.2596828812
 30
0.0
 10
123.1082460645
 20
148.2484401884
 30
0.0
 10
122.9047543832
 20
148.202776465
 30
0.0
 10
122.7027487897
 20
148.1504087871
 30
0.0
 10
122.5536006575
 20
148.1072193892
 30
0.0
  0
SPLINE
  5
499
100
AcDbEntity
  8
RUNDUNGEN
100
AcDbSpline
 62
7
  6
CONTINUOUS
 70
0
 71
3
 72
11
 73
7
 74
0
 42
0.0000001
 43
0.0000001
 44
0.0000000001
 40
0.0
 40
0.0
 40
0.0
 40
0.0
 40
0.3030791508
 40
0.5650220415
 40
0.7926386338
 40
1.0
 40
1.0
 40
1.0
 40
1.0
 10
158.7579969171
 20
121.0533968451
 30
0.0
 10
158.8942573067
 20
120.9711553298
 30
0.0
 10
159.1389310037
 20
120.8007377472
 30
0.0
 10
159.4327079211
 20
120.5014257597
 30
0.0
 10
159.618365623
 20
120.1802425752
 30
0.0
 10
159.6622366957
 20
119.9502690138
 30
0.0
 10
159.6622366957
 20
119.8413774626
 30
0.0
  0
SPLINE
  5
49A
100
AcDbEntity
  8
RUNDUNGEN
100
AcDbSpline
 62
7
  6
CONTINUOUS
 70
0
 71
3
 72
11
 73
7
 74
0
 42
0.0000001
 43
0.0000001
 44
0.0000000001
 40
0.0
 40
0.0
 40
0.0
 40
0.0
 40
0.3281881354
 40
0.6017636227
 40
0.8201358694
 40
1.0
 40
1.0
 40
1.0
 40
1.0
 10
169.316549515
 20
153.745750135
 30
0.0
 10
169.407898458
 20
153.7187181108
 30
0.0
 10
169.5728064194
 20
153.6585874192
 30
0.0
 10
169.7794052431
 20
153.5371377244
 30
0.0
 10
169.9186075929
 20
153.3951266642
 30
0.0
 10
169.9561219892
 20
153.2790187475
 30
0.0
 10
169.9561740008
 20
153.2268087833
 30
0.0
  0
SPLINE
  5
49B
100
AcDbEntity
  8
RUNDUNGEN
100
AcDbSpline
 62
7
  6
CONTINUOUS
 70
0
 71
3
 72
11
 73
7
 74
0
 42
0.0000001
 43
0.0000001
 44
0.0000000001
 40
0.0
 40
0.0
 40
0.0
 40
0.0
 40
0.213228189
 40
0.4716729291
 40
0.7452452706
 40
1.0
 40
1.0
 40
1.0
 40
1.0
 10
160.0189188043
 20
155.7232271434
 30
0.0
 10
160.1490743045
 20
155.801783983
 30
0.0
 10
160.4698654893
 20
155.9189799016
 30
0.0
 10
160.996756281
 20
155.9999888044
 30
0.0
 10
161.5600024818
 20
155.9950923273
 30
0.0
 10
161.9338450594
 20
155.9304436746
 30
0.0
 10
162.1080115253
 20
155.8789042483
 30
0.0
  0
SPLINE
  5
49C
100
AcDbEntity
  8
RUNDUNGEN
100
AcDbSpline
 62
7
  6
CONTINUOUS
 70
0
 71
3
 72
11
 73
7
 74
0
 42
0.0000001
 43
0.0000001
 44
0.0000000001
 40
0.0
 40
0.0
 40
0.0
 40
0.0
 40
0.232750327
 40
0.4814474753
 40
0.7395554131
 40
1.0
 40
1.0
 40
1.0
 40
1.0
 10
85.6941080756
 20
154.8365675793
 30
0.0
 10
86.4275228811
 20
155.0536000499
 30
0.0
 10
87.9697963922
 20
155.4195578445
 30
0.0
 10
90.3775377995
 20
155.7687461422
 30
0.0
 10
92.8962557671
 20
155.9290660908
 30
0.0
 10
94.602143829
 20
155.9061272029
 30
0.0
 10
95.4568186851
 20
155.8610883217
 30
0.0
  0
SPLINE
  5
49D
100
AcDbEntity
  8
RUNDUNGEN
100
AcDbSpline
 62
7
  6
CONTINUOUS
 70
0
 71
3
 72
11
 73
7
 74
0
 42
0.0000001
 43
0.0000001
 44
0.0000000001
 40
0.0
 40
0.0
 40
0.0
 40
0.0
 40
0.336884669
 40
0.4923227088
 40
0.6329706727
 40
1.0
 40
1.0
 40
1.0
 40
1.0
 10
99.0122366957
 20
109.6368197317
 30
0.0
 10
99.0762500059
 20
109.6368197317
 30
0.0
 10
99.1696753595
 20
109.6438964799
 30
0.0
 10
99.2884016585
 20
109.6705751454
 30
0.0
 10
99.4034735017
 20
109.7085567286
 30
0.0
 10
99.5122366957
 20
109.7783875999
 30
0.0
 10
99.5122366957
 20
109.8481288626
 30
0.0
  0
SPLINE
  5
49E
100
AcDbEntity
  8
RUNDUNGEN
100
AcDbSpline
 62
7
  6
CONTINUOUS
 70
0
 71
3
 72
15
 73
11
 74
0
 42
0.0000001
 43
0.0000001
 44
0.0000000001
 40
0.0
 40
0.0
 40
0.0
 40
0.0
 40
0.0728571036
 40
0.1568448449
 40
0.2582283145
 40
0.3786161818
 40
0.5166543535
 40
0.6691902018
 40
0.8319591313
 40
1.0
 40
1.0
 40
1.0
 40
1.0
 10
91.6622366957
 20
111.7499110404
 30
0.0
 10
91.6622366957
 20
111.6088160518
 30
0.0
 10
91.7398922796
 20
111.3027625599
 30
0.0
 10
92.050302698
 20
110.8995240256
 30
0.0
 10
92.5259021762
 20
110.5391918845
 30
0.0
 10
93.1518708367
 20
110.2266187746
 30
0.0
 10
93.9074197394
 20
109.9705686797
 30
0.0
 10
94.7659965196
 20
109.780300295
 30
0.0
 10
95.6958295998
 20
109.663075166
 30
0.0
 10
96.3368089297
 20
109.6368197317
 30
0.0
 10
96.6622366957
 20
109.6368197317
 30
0.0
  0
SPLINE
  5
49F
100
AcDbEntity
  8
RUNDUNGEN
100
AcDbSpline
 62
7
  6
CONTINUOUS
 70
0
 71
3
 72
11
 73
7
 74
0
 42
0.0000001
 43
0.0000001
 44
0.0000000001
 40
0.0
 40
0.0
 40
0.0
 40
0.0
 40
0.2132157109
 40
0.4716489873
 40
0.745233389
 40
1.0
 40
1.0
 40
1.0
 40
1.0
 10
86.2281719552
 20
145.561813561
 30
0.0
 10
86.358319844
 20
145.4832613154
 30
0.0
 10
86.6790929689
 20
145.3660676552
 30
0.0
 10
87.2059746767
 20
145.2850547244
 30
0.0
 10
87.7692299653
 20
145.2899449476
 30
0.0
 10
88.1430900802
 20
145.3545946239
 30
0.0
 10
88.3172646762
 20
145.4061364562
 30
0.0
  0
SPLINE
  5
4A0
100
AcDbEntity
  8
RUNDUNGEN
100
AcDbSpline
 62
7
  6
CONTINUOUS
 70
0
 71
3
 72
11
 73
7
 74
0
 42
0.0000001
 43
0.0000001
 44
0.0000000001
 40
0.0
 40
0.0
 40
0.0
 40
0.0
 40
0.3029815939
 40
0.5650600293
 40
0.7926328234
 40
1.0
 40
1.0
 40
1.0
 40
1.0
 10
169.6849129269
 20
148.3313224655
 30
0.0
 10
169.725808497
 20
148.3560054541
 30
0.0
 10
169.7992551351
 20
148.4071936294
 30
0.0
 10
169.8874537229
 20
148.4970540976
 30
0.0
 10
169.943147607
 20
148.5935391682
 30
0.0
 10
169.9562084907
 20
148.662598841
 30
0.0
 10
169.9561727631
 20
148.6952916736
 30
0.0
  0
SPLINE
  5
4A1
100
AcDbEntity
  8
RUNDUNGEN
100
AcDbSpline
 62
7
  6
CONTINUOUS
 70
0
 71
3
 72
15
 73
11
 74
0
 42
0.0000001
 43
0.0000001
 44
0.0000000001
 40
0.0
 40
0.0
 40
0.0
 40
0.0
 40
0.1680409815
 40
0.3308100528
 40
0.4833458752
 40
0.62138401
 40
0.7417718592
 40
0.8431552996
 40
0.9271429487
 40
1.0
 40
1.0
 40
1.0
 40
1.0
 10
154.6622366957
 20
109.6368197317
 30
0.0
 10
154.9876646807
 20
109.6368197317
 30
0.0
 10
155.6286445041
 20
109.663075222
 30
0.0
 10
156.5584780219
 20
109.7803004611
 30
0.0
 10
157.4170549204
 20
109.970569038
 30
0.0
 10
158.1726036267
 20
110.22661922
 30
0.0
 10
158.7985720823
 20
110.5391923938
 30
0.0
 10
159.2741711928
 20
110.8995245743
 30
0.0
 10
159.5845812783
 20
111.3027629293
 30
0.0
 10
159.6622366957
 20
111.6088161529
 30
0.0
 10
159.6622366957
 20
111.7499110404
 30
0.0
  0
SPLINE
  5
4A2
100
AcDbEntity
  8
RUNDUNGEN
100
AcDbSpline
 62
7
  6
CONTINUOUS
 70
0
 71
3
 72
11
 73
7
 74
0
 42
0.0000001
 43
0.0000001
 44
0.0000000001
 40
0.0
 40
0.0
 40
0.0
 40
0.0
 40
0.3670333703
 40
0.5076806624
 40
0.6631152929
 40
1.0
 40
1.0
 40
1.0
 40
1.0
 10
151.8122366957
 20
109.8481288626
 30
0.0
 10
151.8122366957
 20
109.7783868521
 30
0.0
 10
151.9210013255
 20
109.7085560151
 30
0.0
 10
152.0360731978
 20
109.670574749
 30
0.0
 10
152.1547986946
 20
109.6438962946
 30
0.0
 10
152.248223397
 20
109.6368197317
 30
0.0
 10
152.3122366957
 20
109.6368197317
 30
0.0
  0
SPLINE
  5
4A3
100
AcDbEntity
  8
RUNDUNGEN
100
AcDbSpline
 62
7
  6
CONTINUOUS
 70
0
 71
3
 72
11
 73
7
 74
0
 42
0.0000001
 43
0.0000001
 44
0.0000000001
 40
0.0
 40
0.0
 40
0.0
 40
0.0
 40
0.2085386553
 40
0.4513089719
 40
0.719082175
 40
1.0
 40
1.0
 40
1.0
 40
1.0
 10
135.8544425664
 20
115.6093107988
 30
0.0
 10
136.1065509709
 20
115.4571478901
 30
0.0
 10
136.691413603
 20
115.1929456696
 30
0.0
 10
137.671467333
 20
114.9184240401
 30
0.0
 10
138.7781711551
 20
114.7467917944
 30
0.0
 10
139.5535296177
 20
114.7082388726
 30
0.0
 10
139.9502027878
 20
114.7082388726
 30
0.0
  0
SPLINE
  5
4A4
100
AcDbEntity
  8
RUNDUNGEN
100
AcDbSpline
 62
7
  6
CONTINUOUS
 70
0
 71
3
 72
11
 73
7
 74
0
 42
0.0000001
 43
0.0000001
 44
0.0000000001
 40
0.0
 40
0.0
 40
0.0
 40
0.0
 40
0.2809180525
 40
0.5486913428
 40
0.7914615301
 40
1.0
 40
1.0
 40
1.0
 40
1.0
 10
111.3742706035
 20
114.7082388726
 30
0.0
 10
111.770944095
 20
114.7082388726
 30
0.0
 10
112.5463030039
 20
114.7467918419
 30
0.0
 10
113.6530070691
 20
114.918424253
 30
0.0
 10
114.6330604487
 20
115.1929459408
 30
0.0
 10
115.2179226445
 20
115.4571480253
 30
0.0
 10
115.470030825
 20
115.6093107988
 30
0.0
  0
SPLINE
  5
4A5
100
AcDbEntity
  8
RUNDUNGEN
100
AcDbSpline
 62
7
  6
CONTINUOUS
 70
0
 71
3
 72
15
 73
11
 74
0
 42
0.0000001
 43
0.0000001
 44
0.0000000001
 40
0.0
 40
0.0
 40
0.0
 40
0.0
 40
0.0728571036
 40
0.1568448449
 40
0.2582283145
 40
0.3786161818
 40
0.5166543535
 40
0.6691902018
 40
0.8319591313
 40
1.0
 40
1.0
 40
1.0
 40
1.0
 10
99.5122366957
 20
112.5951475639
 30
0.0
 10
99.5122366957
 20
112.7362425525
 30
0.0
 10
99.5898922796
 20
113.0422960444
 30
0.0
 10
99.900302698
 20
113.4455345787
 30
0.0
 10
100.3759021762
 20
113.8058667198
 30
0.0
 10
101.0018708367
 20
114.1184398297
 30
0.0
 10
101.7574197394
 20
114.3744899246
 30
0.0
 10
102.6159965196
 20
114.5647583093
 30
0.0
 10
103.5458295998
 20
114.6819834384
 30
0.0
 10
104.1868089297
 20
114.7082388726
 30
0.0
 10
104.5122366957
 20
114.7082388726
 30
0.0
  0
SPLINE
  5
4A6
100
AcDbEntity
  8
RUNDUNGEN
100
AcDbSpline
 62
7
  6
CONTINUOUS
 70
0
 71
3
 72
15
 73
11
 74
0
 42
0.0000001
 43
0.0000001
 44
0.0000000001
 40
0.0
 40
0.0
 40
0.0
 40
0.0
 40
0.1680409815
 40
0.3308100528
 40
0.4833458752
 40
0.62138401
 40
0.7417718592
 40
0.8431552996
 40
0.9271429487
 40
1.0
 40
1.0
 40
1.0
 40
1.0
 10
146.8122366957
 20
114.7082388726
 30
0.0
 10
147.1376646807
 20
114.7082388726
 30
0.0
 10
147.7786445041
 20
114.6819833823
 30
0.0
 10
148.7084780219
 20
114.5647581432
 30
0.0
 10
149.5670549204
 20
114.3744895663
 30
0.0
 10
150.3226036267
 20
114.1184393843
 30
0.0
 10
150.9485720823
 20
113.8058662105
 30
0.0
 10
151.4241711928
 20
113.44553403
 30
0.0
 10
151.7345812783
 20
113.042295675
 30
0.0
 10
151.8122366957
 20
112.7362424514
 30
0.0
 10
151.8122366957
 20
112.5951475639
 30
0.0
  0
SPLINE
  5
4A7
100
AcDbEntity
  8
RUNDUNGEN
100
AcDbSpline
 62
7
  6
CONTINUOUS
 70
0
 71
3
 72
15
 73
11
 74
0
 42
0.0000001
 43
0.0000001
 44
0.0000000001
 40
0.0
 40
0.0
 40
0.0
 40
0.0
 40
0.1042684317
 40
0.2256535326
 40
0.3595452497
 40
0.500000084
 40
0.6404549501
 40
0.7743466304
 40
0.8957316368
 40
1.0
 40
1.0
 40
1.0
 40
1.0
 10
120.7473244299
 20
118.7944816636
 30
0.0
 10
121.0498518909
 20
118.97707557
 30
0.0
 10
121.751689766
 20
119.2941139835
 30
0.0
 10
122.9277383195
 20
119.6235566751
 30
0.0
 10
124.2559009503
 20
119.8294928772
 30
0.0
 10
125.6622376625
 20
119.8994590853
 30
0.0
 10
127.0685742403
 20
119.8294927004
 30
0.0
 10
128.3967365147
 20
119.6235563859
 30
0.0
 10
129.5727843512
 20
119.2941136626
 30
0.0
 10
130.2746216992
 20
118.97707545
 30
0.0
 10
130.5771489614
 20
118.7944816636
 30
0.0
  0
SPLINE
  5
4A8
100
AcDbEntity
  8
RUNDUNGEN
100
AcDbSpline
 62
7
  6
CONTINUOUS
 70
0
 71
3
 72
12
 73
8
 74
0
 42
0.0000001
 43
0.0000001
 44
0.0000000001
 40
0.0
 40
0.0
 40
0.0
 40
0.0
 40
0.2546389095
 40
0.5280844547
 40
0.7863884982
 40
0.9002788037
 40
1.0
 40
1.0
 40
1.0
 40
1.0
 10
91.5938728533
 20
146.3757519622
 30
0.0
 10
91.8841640902
 20
146.461655088
 30
0.0
 10
92.5074682172
 20
146.569435116
 30
0.0
 10
93.4452632289
 20
146.5774407611
 30
0.0
 10
94.2091992857
 20
146.4608233904
 30
0.0
 10
94.7439358566
 20
146.2877010575
 30
0.0
 10
94.974192601
 20
146.1775524833
 30
0.0
 10
95.0756940549
 20
146.1162901208
 30
0.0
  0
SPLINE
  5
4A9
100
AcDbEntity
  8
RUNDUNGEN
100
AcDbSpline
 62
7
  6
CONTINUOUS
 70
0
 71
3
 72
11
 73
7
 74
0
 42
0.0000001
 43
0.0000001
 44
0.0000000001
 40
0.0
 40
0.0
 40
0.0
 40
0.0
 40
0.2073613662
 40
0.4349779585
 40
0.6969208492
 40
1.0
 40
1.0
 40
1.0
 40
1.0
 10
159.6622366957
 20
115.3098385274
 30
0.0
 10
159.6622366957
 20
115.4187300786
 30
0.0
 10
159.618365623
 20
115.64870364
 30
0.0
 10
159.4327079211
 20
115.9698868245
 30
0.0
 10
159.1389310037
 20
116.269198812
 30
0.0
 10
158.8942573067
 20
116.4396163946
 30
0.0
 10
158.7579969171
 20
116.5218579099
 30
0.0
  0
SPLINE
  5
4AA
100
AcDbEntity
  8
RUNDUNGEN
100
AcDbSpline
 62
7
  6
CONTINUOUS
 70
0
 71
3
 72
11
 73
7
 74
0
 42
0.0000001
 43
0.0000001
 44
0.0000000001
 40
0.0
 40
0.0
 40
0.0
 40
0.0
 40
0.1798776039
 40
0.3982535956
 40
0.671812897
 40
1.0
 40
1.0
 40
1.0
 40
1.0
 10
169.9561727631
 20
148.6952916736
 30
0.0
 10
169.9561157039
 20
148.7475041995
 30
0.0
 10
169.9185913259
 20
148.8636106345
 30
0.0
 10
169.7793856
 20
149.0056103108
 30
0.0
 10
169.5727952715
 20
149.1270534276
 30
0.0
 10
169.4078958195
 20
149.1871799564
 30
0.0
 10
169.316549515
 20
149.2142111998
 30
0.0
  0
SPLINE
  5
4AB
100
AcDbEntity
  8
RUNDUNGEN
100
AcDbSpline
 62
7
  6
CONTINUOUS
 70
0
 71
3
 72
11
 73
7
 74
0
 42
0.0000001
 43
0.0000001
 44
0.0000000001
 40
0.0
 40
0.0
 40
0.0
 40
0.0
 40
0.303079253
 40
0.5650221944
 40
0.7926387135
 40
1.0
 40
1.0
 40
1.0
 40
1.0
 10
92.5664764742
 20
116.5218579099
 30
0.0
 10
92.4302160385
 20
116.4396163668
 30
0.0
 10
92.185542281
 20
116.2691987272
 30
0.0
 10
91.8917653586
 20
115.9698866822
 30
0.0
 10
91.7061077261
 20
115.648703519
 30
0.0
 10
91.6622366957
 20
115.4187300369
 30
0.0
 10
91.6622366957
 20
115.3098385274
 30
0.0
  0
SPLINE
  5
4AC
100
AcDbEntity
  8
RUNDUNGEN
100
AcDbSpline
 62
7
  6
CONTINUOUS
 70
0
 71
3
 72
11
 73
7
 74
0
 42
0.0000001
 43
0.0000001
 44
0.0000000001
 40
0.0
 40
0.0
 40
0.0
 40
0.0
 40
0.3281890092
 40
0.6017655288
 40
0.8201370822
 40
1.0
 40
1.0
 40
1.0
 40
1.0
 10
93.8235984652
 20
142.0827257708
 30
0.0
 10
93.7322478832
 20
142.0556932616
 30
0.0
 10
93.5673369141
 20
141.995561244
 30
0.0
 10
93.3607352507
 20
141.8741083344
 30
0.0
 10
93.2215330841
 20
141.7320924697
 30
0.0
 10
93.1840231755
 20
141.6159812447
 30
0.0
 10
93.183973823
 20
141.5637708323
 30
0.0
  0
SPLINE
  5
4AD
100
AcDbEntity
  8
RUNDUNGEN
100
AcDbSpline
 62
7
  6
CONTINUOUS
 70
0
 71
3
 72
13
 73
9
 74
0
 42
0.0000001
 43
0.0000001
 44
0.0000000001
 40
0.0
 40
0.0
 40
0.0
 40
0.0
 40
0.3274430796
 40
0.6003184227
 40
0.7159497271
 40
0.8189964011
 40
0.91223386
 40
1.0
 40
1.0
 40
1.0
 40
1.0
 10
84.8749560313
 20
150.0626247676
 30
0.0
 10
84.5702383801
 20
149.9724525701
 30
0.0
 10
84.021083435
 20
149.7719069529
 30
0.0
 10
83.4154292121
 20
149.4171950004
 30
0.0
 10
83.0642372369
 20
149.091447337
 30
0.0
 10
82.8815448817
 20
148.8474819082
 30
0.0
 10
82.7686501927
 20
148.5930181813
 30
0.0
 10
82.7428131444
 20
148.4164758234
 30
0.0
 10
82.7428406391
 20
148.3312998375
 30
0.0
  0
SPLINE
  5
4AE
100
AcDbEntity
  8
RUNDUNGEN
100
AcDbSpline
 62
7
  6
CONTINUOUS
 70
0
 71
3
 72
11
 73
7
 74
0
 42
0.0000001
 43
0.0000001
 44
0.0000000001
 40
0.0
 40
0.0
 40
0.0
 40
0.0
 40
0.2585131828
 40
0.5171074384
 40
0.7669977146
 40
1.0
 40
1.0
 40
1.0
 40
1.0
 10
96.5907421933
 20
151.2496853632
 30
0.0
 10
95.6470432865
 20
151.3331279433
 30
0.0
 10
93.7509677262
 20
151.4154022748
 30
0.0
 10
90.9392161837
 20
151.2979201168
 30
0.0
 10
88.2412073494
 20
150.9461557179
 30
0.0
 10
86.5129001794
 20
150.5473260068
 30
0.0
 10
85.6941080756
 20
150.3050286441
 30
0.0
  0
SPLINE
  5
4AF
100
AcDbEntity
  8
0
100
AcDbSpline
 62
7
  6
CONTINUOUS
 70
0
 71
3
 72
9
 73
5
 74
0
 42
0.0000001
 43
0.0000001
 44
0.0000000001
 40
0.0
 40
0.0
 40
0.0
 40
0.0
 40
0.2436004602
 40
1.0
 40
1.0
 40
1.0
 40
1.0
 10
131.8929553549
 20
149.6318135605
 30
0.0
 10
131.5931327139
 20
149.6896803088
 30
0.0
 10
130.358516235
 20
149.9071883239
 30
0.0
 10
129.1106983546
 20
150.0480561735
 30
0.0
 10
128.1649591804
 20
150.1156976844
 30
0.0
  0
SPLINE
  5
4B0
100
AcDbEntity
  8
0
100
AcDbSpline
 62
7
  6
CONTINUOUS
 70
0
 71
3
 72
9
 73
5
 74
0
 42
0.0000001
 43
0.0000001
 44
0.0000000001
 40
0.0
 40
0.0
 40
0.0
 40
0.0
 40
0.2557018966
 40
1.0
 40
1.0
 40
1.0
 40
1.0
 10
123.1595142109
 20
150.1156976844
 30
0.0
 10
122.8398092234
 20
150.0928316247
 30
0.0
 10
121.590866158
 20
149.9858860586
 30
0.0
 10
120.3475878506
 20
149.8086180247
 30
0.0
 10
119.4315180364
 20
149.6318135605
 30
0.0
  0
SPLINE
  5
4B1
100
AcDbEntity
  8
RUNDUNGEN
100
AcDbSpline
 62
7
  6
CONTINUOUS
 70
0
 71
3
 72
11
 73
7
 74
0
 42
0.0000001
 43
0.0000001
 44
0.0000000001
 40
0.0
 40
0.0
 40
0.0
 40
0.0
 40
0.254766543
 40
0.5283498087
 40
0.7867840819
 40
1.0
 40
1.0
 40
1.0
 40
1.0
 10
162.1080115253
 20
151.3473653131
 30
0.0
 10
161.9338369751
 20
151.3989071318
 30
0.0
 10
161.5599777152
 20
151.4635567091
 30
0.0
 10
160.996722604
 20
151.4684470962
 30
0.0
 10
160.4698407761
 20
151.3874344726
 30
0.0
 10
160.1490668201
 20
151.2702405305
 30
0.0
 10
160.0189188043
 20
151.1916882082
 30
0.0
  0
SPLINE
  5
4B2
100
AcDbEntity
  8
0
100
AcDbSpline
 62
7
  6
CONTINUOUS
 70
0
 71
3
 72
9
 73
5
 74
0
 42
0.0000001
 43
0.0000001
 44
0.0000000001
 40
0.0
 40
0.0
 40
0.0
 40
0.0
 40
0.5082916554
 40
1.0
 40
1.0
 40
1.0
 40
1.0
 10
155.9216588813
 20
200.5179225116
 30
0.0
 10
153.8240793156
 20
202.6260786547
 30
0.0
 10
149.6343940485
 20
206.7118063272
 30
0.0
 10
145.2983061403
 20
210.6421419239
 30
0.0
 10
143.1325222401
 20
212.5357798396
 30
0.0
  0
SPLINE
  5
4B3
100
AcDbEntity
  8
0
100
AcDbSpline
 62
7
  6
CONTINUOUS
 70
0
 71
3
 72
9
 73
5
 74
0
 42
0.0000001
 43
0.0000001
 44
0.0000000001
 40
0.0
 40
0.0
 40
0.0
 40
0.0
 40
0.4917083463
 40
1.0
 40
1.0
 40
1.0
 40
1.0
 10
108.1919511512
 20
212.5357798396
 30
0.0
 10
106.0261672434
 20
210.6421419171
 30
0.0
 10
101.6900793354
 20
206.7118063202
 30
0.0
 10
97.5003940686
 20
202.6260786475
 30
0.0
 10
95.40281451
 20
200.5179225116
 30
0.0
  0
SPLINE
  5
4B4
100
AcDbEntity
  8
0
100
AcDbSpline
 62
7
  6
CONTINUOUS
 70
0
 71
3
 72
17
 73
13
 74
0
 42
0.0000001
 43
0.0000001
 44
0.0000000001
 40
0.0
 40
0.0
 40
0.0
 40
0.0
 40
0.0521198795
 40
0.1268908
 40
0.2287458324
 40
0.36081431
 40
0.5249853651
 40
0.7168441072
 40
0.8136471722
 40
0.8971722794
 40
0.9586007473
 40
1.0
 40
1.0
 40
1.0
 40
1.0
 10
101.2412270402
 20
123.4736642296
 30
0.0
 10
101.1192379413
 20
123.4858861225
 30
0.0
 10
100.8336771535
 20
123.5974487075
 30
0.0
 10
100.3925065717
 20
123.9068135558
 30
0.0
 10
99.8597598435
 20
124.4035524319
 30
0.0
 10
99.240307474
 20
125.1069836355
 30
0.0
 10
98.5507232326
 20
126.026272967
 30
0.0
 10
97.9765800351
 20
126.9253206708
 30
0.0
 10
97.5630349291
 20
127.6974985514
 30
0.0
 10
97.3314422365
 20
128.21777553
 30
0.0
 10
97.1968253414
 20
128.636034108
 30
0.0
 10
97.1622366957
 20
128.8775676494
 30
0.0
 10
97.1622366957
 20
128.9749497006
 30
0.0
  0
SPLINE
  5
4B5
100
AcDbEntity
  8
RUNDUNGEN
100
AcDbSpline
 62
7
  6
CONTINUOUS
 70
0
 71
3
 72
15
 73
11
 74
0
 42
0.0000001
 43
0.0000001
 44
0.0000000001
 40
0.0
 40
0.0
 40
0.0
 40
0.0
 40
0.1253444092
 40
0.2506299826
 40
0.3758064841
 40
0.500853434
 40
0.6257705829
 40
0.7505786765
 40
0.8753083417
 40
1.0
 40
1.0
 40
1.0
 40
1.0
 10
147.6622366957
 20
171.4371277126
 30
0.0
 10
148.0842268113
 20
171.4371276596
 30
0.0
 10
148.9302337324
 20
171.3560845358
 30
0.0
 10
150.150722321
 20
170.9954703008
 30
0.0
 10
151.2792070468
 20
170.4080679907
 30
0.0
 10
152.2719588552
 20
169.6143982909
 30
0.0
 10
153.0900878209
 20
168.6431206791
 30
0.0
 10
153.7003391771
 20
167.5303515615
 30
0.0
 10
154.0772534318
 20
166.3196887369
 30
0.0
 10
154.1622366957
 20
165.4775350062
 30
0.0
 10
154.1622366957
 20
165.0577424711
 30
0.0
  0
SPLINE
  5
4B6
100
AcDbEntity
  8
BEZUGSACHSEN
100
AcDbSpline
 62
7
  6
CONTINUOUS
 70
0
 71
3
 72
15
 73
11
 74
0
 42
0.0000001
 43
0.0000001
 44
0.0000000001
 40
0.0
 40
0.0
 40
0.0
 40
0.0
 40
0.1213952628
 40
0.2449248391
 40
0.3714323782
 40
0.5
 40
0.6285676218
 40
0.7550751609
 40
0.8786047372
 40
1.0
 40
1.0
 40
1.0
 40
1.0
 10
105.0622366957
 20
146.1467713253
 30
0.0
 10
105.0622366957
 20
145.8404459497
 30
0.0
 10
105.1954092741
 20
145.2151053276
 30
0.0
 10
105.7573123139
 20
144.4344556601
 30
0.0
 10
106.5885741279
 20
143.9173057544
 30
0.0
 10
107.5622366957
 20
143.7372052292
 30
0.0
 10
108.5358992634
 20
143.9173057544
 30
0.0
 10
109.3671610775
 20
144.4344556601
 30
0.0
 10
109.9290641172
 20
145.2151053276
 30
0.0
 10
110.0622366957
 20
145.8404459497
 30
0.0
 10
110.0622366957
 20
146.1467713253
 30
0.0
  0
SPLINE
  5
4B7
100
AcDbEntity
  8
RUNDUNGEN
100
AcDbSpline
 62
7
  6
CONTINUOUS
 70
0
 71
3
 72
15
 73
11
 74
0
 42
0.0000001
 43
0.0000001
 44
0.0000000001
 40
0.0
 40
0.0
 40
0.0
 40
0.0
 40
0.1253443854
 40
0.2506299677
 40
0.3758064706
 40
0.5008534235
 40
0.6257705749
 40
0.7505786715
 40
0.8753083386
 40
1.0
 40
1.0
 40
1.0
 40
1.0
 10
103.6622366957
 20
171.4371277126
 30
0.0
 10
103.2402466603
 20
171.4371277126
 30
0.0
 10
102.3942397942
 20
171.3560845099
 30
0.0
 10
101.1737512284
 20
170.9954703877
 30
0.0
 10
100.0452664573
 20
170.4080680553
 30
0.0
 10
99.0525146123
 20
169.6143983683
 30
0.0
 10
98.2343856132
 20
168.6431207449
 30
0.0
 10
97.6241342364
 20
167.5303516107
 30
0.0
 10
97.247219961
 20
166.3196887643
 30
0.0
 10
97.1622366957
 20
165.4775350165
 30
0.0
 10
97.1622366957
 20
165.0577424711
 30
0.0
  0
SPLINE
  5
4B8
100
AcDbEntity
  8
BEZUGSACHSEN
100
AcDbSpline
 62
7
  6
CONTINUOUS
 70
0
 71
3
 72
15
 73
11
 74
0
 42
0.0000001
 43
0.0000001
 44
0.0000000001
 40
0.0
 40
0.0
 40
0.0
 40
0.0
 40
0.1327279449
 40
0.2611087424
 40
0.3853601539
 40
0.5066095806
 40
0.6267189321
 40
0.7478438236
 40
0.871878021
 40
1.0
 40
1.0
 40
1.0
 40
1.0
 10
117.4661831378
 20
171.4294888746
 30
0.0
 10
116.5094808963
 20
171.9841712565
 30
0.0
 10
114.7374209582
 20
173.2815928917
 30
0.0
 10
112.6140712509
 20
175.7251969081
 30
0.0
 10
111.1482814424
 20
178.5064974306
 30
0.0
 10
110.393618334
 20
181.4877734246
 30
0.0
 10
110.3718680069
 20
184.5371810429
 30
0.0
 10
111.0840809881
 20
187.5263059012
 30
0.0
 10
112.5079483407
 20
190.3221071371
 30
0.0
 10
113.8789163566
 20
191.9421768918
 30
0.0
 10
114.6535898945
 20
192.6766337527
 30
0.0
  0
SPLINE
  5
4B9
100
AcDbEntity
  8
0
100
AcDbSpline
 62
7
  6
CONTINUOUS
 70
0
 71
3
 72
17
 73
13
 74
0
 42
0.0000001
 43
0.0000001
 44
0.0000000001
 40
0.0
 40
0.0
 40
0.0
 40
0.0
 40
0.0413976539
 40
0.1028246558
 40
0.1863540252
 40
0.2831577685
 40
0.4750111496
 40
0.6391801419
 40
0.7712491693
 40
0.8731050165
 40
0.9478774623
 40
1.0
 40
1.0
 40
1.0
 40
1.0
 10
154.1622366957
 20
128.9749497006
 30
0.0
 10
154.1622366957
 20
128.8775723122
 30
0.0
 10
154.1276512852
 20
128.6360480854
 30
0.0
 10
153.9930373896
 20
128.2177897559
 30
0.0
 10
153.7614454409
 20
127.697509163
 30
0.0
 10
153.3479039376
 20
126.9253396583
 30
0.0
 10
152.7737768514
 20
126.0263124169
 30
0.0
 10
152.0842122974
 20
125.1070419418
 30
0.0
 10
151.4647718632
 20
124.4036140183
 30
0.0
 10
150.9320317844
 20
123.9068685304
 30
0.0
 10
150.4908636214
 20
123.5974884968
 30
0.0
 10
150.2053053726
 20
123.4859065741
 30
0.0
 10
150.0833125092
 20
123.4736709309
 30
0.0
  0
SPLINE
  5
4BA
100
AcDbEntity
  8
BEZUGSACHSEN
100
AcDbSpline
 62
7
  6
CONTINUOUS
 70
0
 71
3
 72
15
 73
11
 74
0
 42
0.0000001
 43
0.0000001
 44
0.0000000001
 40
0.0
 40
0.0
 40
0.0
 40
0.0
 40
0.1281230825
 40
0.2521580889
 40
0.3732833598
 40
0.4933927308
 40
0.6146418484
 40
0.738892761
 40
0.8672728828
 40
1.0
 40
1.0
 40
1.0
 40
1.0
 10
136.6707763627
 20
192.676736634
 30
0.0
 10
137.4454756734
 20
191.9422703454
 30
0.0
 10
138.8164859813
 20
190.3221723986
 30
0.0
 10
140.2403933529
 20
187.5263163563
 30
0.0
 10
140.9526161888
 20
184.5371345207
 30
0.0
 10
140.9308446207
 20
181.4876798682
 30
0.0
 10
140.1761482454
 20
178.5063711309
 30
0.0
 10
138.7103089692
 20
175.7250563906
 30
0.0
 10
136.5869049859
 20
173.2814578635
 30
0.0
 10
134.8148122666
 20
171.9840462149
 30
0.0
 10
133.8580931356
 20
171.4293736771
 30
0.0
  0
SPLINE
  5
4BB
100
AcDbEntity
  8
0
100
AcDbSpline
 62
7
  6
CONTINUOUS
 70
0
 71
3
 72
21
 73
17
 74
0
 42
0.0000001
 43
0.0000001
 44
0.0000000001
 40
0.0
 40
0.0
 40
0.0
 40
0.0
 40
0.0606242132
 40
0.1216013006
 40
0.1831476013
 40
0.2453942033
 40
0.3083702727
 40
0.3720020862
 40
0.5
 40
0.6279979138
 40
0.6916297273
 40
0.7546057967
 40
0.8168523987
 40
0.8783986994
 40
0.9393757868
 40
1.0
 40
1.0
 40
1.0
 40
1.0
 10
131.9030377242
 20
149.6989584305
 30
0.0
 10
131.8816235627
 20
150.0694364499
 30
0.0
 10
131.76304072
 20
150.8103192057
 30
0.0
 10
131.3661910781
 20
151.8663852565
 30
0.0
 10
130.7647283579
 20
152.8328478214
 30
0.0
 10
129.9809255649
 20
153.6745631653
 30
0.0
 10
129.0428390169
 20
154.3619391794
 30
0.0
 10
127.631870998
 20
155.0410495058
 30
0.0
 10
125.6622366957
 20
155.3954168988
 30
0.0
 10
123.6926023933
 20
155.0410495058
 30
0.0
 10
122.2816343745
 20
154.3619391794
 30
0.0
 10
121.3435478264
 20
153.6745631653
 30
0.0
 10
120.5597450334
 20
152.8328478214
 30
0.0
 10
119.9582823133
 20
151.8663852565
 30
0.0
 10
119.5614326714
 20
150.8103192057
 30
0.0
 10
119.4428498287
 20
150.0694364499
 30
0.0
 10
119.4214356671
 20
149.6989584305
 30
0.0
  0
SPLINE
  5
4BC
100
AcDbEntity
  8
KONSTRUKTIONSELEMENTE
100
AcDbSpline
 62
7
  6
CONTINUOUS
 70
0
 71
3
 72
21
 73
17
 74
0
 42
0.0000001
 43
0.0000001
 44
0.0000000001
 40
0.0
 40
0.0
 40
0.0
 40
0.0
 40
0.0606242132
 40
0.1216013006
 40
0.1831476013
 40
0.2453942033
 40
0.3083702727
 40
0.3720020862
 40
0.5
 40
0.6279979138
 40
0.6916297273
 40
0.7546057967
 40
0.8168523987
 40
0.8783986994
 40
0.9393757868
 40
1.0
 40
1.0
 40
1.0
 40
1.0
 10
131.9030377242
 20
157.565421727
 30
0.0
 10
131.8816235627
 20
157.9358997464
 30
0.0
 10
131.76304072
 20
158.6767825022
 30
0.0
 10
131.3661910781
 20
159.732848553
 30
0.0
 10
130.7647283579
 20
160.6993111179
 30
0.0
 10
129.9809255649
 20
161.5410264618
 30
0.0
 10
129.0428390169
 20
162.2284024759
 30
0.0
 10
127.631870998
 20
162.9075128023
 30
0.0
 10
125.6622366957
 20
163.2618801953
 30
0.0
 10
123.6926023933
 20
162.9075128023
 30
0.0
 10
122.2816343745
 20
162.2284024759
 30
0.0
 10
121.3435478264
 20
161.5410264618
 30
0.0
 10
120.5597450334
 20
160.6993111179
 30
0.0
 10
119.9582823133
 20
159.732848553
 30
0.0
 10
119.5614326714
 20
158.6767825022
 30
0.0
 10
119.4428498287
 20
157.9358997464
 30
0.0
 10
119.4214356671
 20
157.565421727
 30
0.0
  0
SPLINE
  5
4BD
100
AcDbEntity
  8
BEZUGSACHSEN
100
AcDbSpline
 62
7
  6
CONTINUOUS
 70
0
 71
3
 72
15
 73
11
 74
0
 42
0.0000001
 43
0.0000001
 44
0.0000000001
 40
0.0
 40
0.0
 40
0.0
 40
0.0
 40
0.1213952628
 40
0.2449248391
 40
0.3714323782
 40
0.5
 40
0.6285676218
 40
0.7550751609
 40
0.8786047372
 40
1.0
 40
1.0
 40
1.0
 40
1.0
 10
110.0622366957
 20
146.1467713253
 30
0.0
 10
110.0622366957
 20
146.4530967008
 30
0.0
 10
109.9290641172
 20
147.0784373229
 30
0.0
 10
109.3671610775
 20
147.8590869904
 30
0.0
 10
108.5358992634
 20
148.3762368961
 30
0.0
 10
107.5622366957
 20
148.5563374213
 30
0.0
 10
106.5885741279
 20
148.3762368961
 30
0.0
 10
105.7573123139
 20
147.8590869904
 30
0.0
 10
105.1954092741
 20
147.0784373229
 30
0.0
 10
105.0622366957
 20
146.4530967008
 30
0.0
 10
105.0622366957
 20
146.1467713253
 30
0.0
  0
SPLINE
  5
4BE
100
AcDbEntity
  8
0
100
AcDbSpline
 62
7
  6
CONTINUOUS
 70
0
 71
3
 72
9
 73
5
 74
0
 42
0.0000001
 43
0.0000001
 44
0.0000000001
 40
0.0
 40
0.0
 40
0.0
 40
0.0
 40
0.5056074444
 40
1.0
 40
1.0
 40
1.0
 40
1.0
 10
150.0833125092
 20
123.4736709309
 30
0.0
 10
149.9991895979
 20
123.4652335691
 30
0.0
 10
149.819605376
 20
123.4867546571
 30
0.0
 10
149.7014580989
 20
123.6231675855
 30
0.0
 10
149.6622366957
 20
123.6959409198
 30
0.0
  0
SPLINE
  5
4BF
100
AcDbEntity
  8
0
100
AcDbSpline
 62
7
  6
CONTINUOUS
 70
0
 71
3
 72
14
 73
10
 74
0
 42
0.0000001
 43
0.0000001
 44
0.0000000001
 40
0.0
 40
0.0
 40
0.0
 40
0.0
 40
0.0190935957
 40
0.0384939822
 40
0.0654876364
 40
0.1428883315
 40
0.2518499979
 40
0.5642743484
 40
1.0
 40
1.0
 40
1.0
 40
1.0
 10
106.3560832195
 20
123.4539516852
 30
0.0
 10
106.350584274
 20
123.4539126859
 30
0.0
 10
106.3449499406
 20
123.4684125803
 30
0.0
 10
106.3441957534
 20
123.4855942861
 30
0.0
 10
106.3443587395
 20
123.5221686239
 30
0.0
 10
106.3515142152
 20
123.5826637603
 30
0.0
 10
106.3739540143
 20
123.7249576911
 30
0.0
 10
106.4245795505
 20
123.9663847807
 30
0.0
 10
106.4736574969
 20
124.1762874181
 30
0.0
 10
106.503283346
 20
124.298232197
 30
0.0
  0
SPLINE
  5
4C0
100
AcDbEntity
  8
KONSTRUKTIONSELEMENTE
100
AcDbSpline
 62
7
  6
CONTINUOUS
 70
0
 71
3
 72
9
 73
5
 74
0
 42
0.0000001
 43
0.0000001
 44
0.0000000001
 40
0.0
 40
0.0
 40
0.0
 40
0.0
 40
0.5060303485
 40
1.0
 40
1.0
 40
1.0
 40
1.0
 10
131.9122366957
 20
154.6841111776
 30
0.0
 10
133.0880279092
 20
154.5296855526
 30
0.0
 10
135.400744468
 20
154.1347379254
 30
0.0
 10
137.6727426195
 20
153.5440286468
 30
0.0
 10
138.7763277743
 20
153.1944659812
 30
0.0
  0
SPLINE
  5
4C1
100
AcDbEntity
  8
KONSTRUKTIONSELEMENTE
100
AcDbSpline
 62
7
  6
CONTINUOUS
 70
0
 71
3
 72
9
 73
5
 74
0
 42
0.0000001
 43
0.0000001
 44
0.0000000001
 40
0.0
 40
0.0
 40
0.0
 40
0.0
 40
0.4939700537
 40
1.0
 40
1.0
 40
1.0
 40
1.0
 10
112.5481456171
 20
153.1944659812
 30
0.0
 10
113.6517316691
 20
153.544028931
 30
0.0
 10
115.9237298909
 20
154.1347379456
 30
0.0
 10
118.236446418
 20
154.5296856756
 30
0.0
 10
119.4122366957
 20
154.6841111776
 30
0.0
  0
SPLINE
  5
4C2
100
AcDbEntity
  8
KONSTRUKTIONSELEMENTE
100
AcDbSpline
 62
7
  6
CONTINUOUS
 70
0
 71
3
 72
11
 73
7
 74
0
 42
0.0000001
 43
0.0000001
 44
0.0000000001
 40
0.0
 40
0.0
 40
0.0
 40
0.0
 40
0.2466640434
 40
0.4952551241
 40
0.7464390112
 40
1.0
 40
1.0
 40
1.0
 40
1.0
 10
110.8267764736
 20
149.7768039194
 30
0.0
 10
110.8267764736
 20
150.0996881685
 30
0.0
 10
110.9193711298
 20
150.7509916974
 30
0.0
 10
111.3002784619
 20
151.659524801
 30
0.0
 10
111.8572942269
 20
152.479191359
 30
0.0
 10
112.3084893806
 20
152.9648342854
 30
0.0
 10
112.5481456171
 20
153.1944659812
 30
0.0
  0
SPLINE
  5
4C3
100
AcDbEntity
  8
KONSTRUKTIONSELEMENTE
100
AcDbSpline
 62
7
  6
CONTINUOUS
 70
0
 71
3
 72
9
 73
5
 74
0
 42
0.0000001
 43
0.0000001
 44
0.0000000001
 40
0.0
 40
0.0
 40
0.0
 40
0.0
 40
0.5016592034
 40
1.0
 40
1.0
 40
1.0
 40
1.0
 10
110.0976694421
 20
142.8578471525
 30
0.0
 10
110.3174979351
 20
143.3297226219
 30
0.0
 10
110.6862066038
 20
144.3066085137
 30
0.0
 10
110.8267764736
 20
145.3477390419
 30
0.0
 10
110.8267764736
 20
145.864863539
 30
0.0
  0
SPLINE
  5
4C4
100
AcDbEntity
  8
KONSTRUKTIONSELEMENTE
100
AcDbSpline
 62
7
  6
CONTINUOUS
 70
0
 71
3
 72
9
 73
5
 74
0
 42
0.0000001
 43
0.0000001
 44
0.0000000001
 40
0.0
 40
0.0
 40
0.0
 40
0.0
 40
0.4983407966
 40
1.0
 40
1.0
 40
1.0
 40
1.0
 10
140.4976969177
 20
145.864863539
 30
0.0
 10
140.4976969177
 20
145.3477390419
 30
0.0
 10
140.6382667875
 20
144.3066085137
 30
0.0
 10
141.0069754563
 20
143.3297226219
 30
0.0
 10
141.2268039492
 20
142.8578471525
 30
0.0
  0
SPLINE
  5
4C5
100
AcDbEntity
  8
KONSTRUKTIONSELEMENTE
100
AcDbSpline
 62
7
  6
CONTINUOUS
 70
0
 71
3
 72
11
 73
7
 74
0
 42
0.0000001
 43
0.0000001
 44
0.0000000001
 40
0.0
 40
0.0
 40
0.0
 40
0.0
 40
0.253561071
 40
0.5047450748
 40
0.7533362256
 40
1.0
 40
1.0
 40
1.0
 40
1.0
 10
138.7763277743
 20
153.1944659812
 30
0.0
 10
139.0159840884
 20
152.9648342111
 30
0.0
 10
139.4671794099
 20
152.4791910871
 30
0.0
 10
140.0241953473
 20
151.6595242005
 30
0.0
 10
140.4051023292
 20
150.7509910609
 30
0.0
 10
140.4976969177
 20
150.0996878163
 30
0.0
 10
140.4976969177
 20
149.7768039194
 30
0.0
  0
SPLINE
  5
4C6
100
AcDbEntity
  8
RUNDUNGEN
100
AcDbSpline
 62
7
  6
CONTINUOUS
 70
0
 71
3
 72
14
 73
10
 74
0
 42
0.0000001
 43
0.0000001
 44
0.0000000001
 40
0.0
 40
0.0
 40
0.0
 40
0.0
 40
0.0909423886
 40
0.1878748711
 40
0.2952153255
 40
0.4151663029
 40
0.5478761242
 40
0.6917874159
 40
1.0
 40
1.0
 40
1.0
 40
1.0
 10
154.1622366957
 20
150.5223208813
 30
0.0
 10
154.1622366957
 20
150.6954897425
 30
0.0
 10
154.1015676963
 20
151.0555177662
 30
0.0
 10
153.8393841196
 20
151.5609927562
 30
0.0
 10
153.4207345716
 20
152.0223611046
 30
0.0
 10
152.8614726917
 20
152.4256052751
 30
0.0
 10
152.1797603307
 20
152.7578733008
 30
0.0
 10
151.1160024594
 20
153.0961745121
 30
0.0
 10
150.2491227787
 20
153.1944659812
 30
0.0
 10
149.6622366957
 20
153.1944659812
 30
0.0
  0
SPLINE
  5
4C7
100
AcDbEntity
  8
RUNDUNGEN
100
AcDbSpline
 62
7
  6
CONTINUOUS
 70
0
 71
3
 72
14
 73
10
 74
0
 42
0.0000001
 43
0.0000001
 44
0.0000000001
 40
0.0
 40
0.0
 40
0.0
 40
0.0
 40
0.0909423886
 40
0.1878748711
 40
0.2952153255
 40
0.4151663029
 40
0.5478761242
 40
0.6917874159
 40
1.0
 40
1.0
 40
1.0
 40
1.0
 10
97.1622366957
 20
154.8932766271
 30
0.0
 10
97.1622366957
 20
155.0664454884
 30
0.0
 10
97.222905695
 20
155.4264735121
 30
0.0
 10
97.4850892718
 20
155.9319485021
 30
0.0
 10
97.9037388197
 20
156.3933168505
 30
0.0
 10
98.4630006997
 20
156.796561021
 30
0.0
 10
99.1447130606
 20
157.1288290467
 30
0.0
 10
100.208470932
 20
157.467130258
 30
0.0
 10
101.0753506126
 20
157.565421727
 30
0.0
 10
101.6622366957
 20
157.565421727
 30
0.0
  0
SPLINE
  5
4C8
100
AcDbEntity
  8
KONSTRUKTIONSELEMENTE
100
AcDbSpline
 62
7
  6
CONTINUOUS
 70
0
 71
3
 72
17
 73
13
 74
0
 42
0.0000001
 43
0.0000001
 44
0.0000000001
 40
0.0
 40
0.0
 40
0.0
 40
0.0
 40
0.1477630542
 40
0.299445227
 40
0.4503041217
 40
0.5947742436
 40
0.7270205021
 40
0.8414892157
 40
0.8905521002
 40
0.9335138361
 40
0.9700533533
 40
1.0
 40
1.0
 40
1.0
 40
1.0
 10
110.0976694421
 20
142.8578471525
 30
0.0
 10
109.7132133209
 20
142.0325882872
 30
0.0
 10
109.0128289146
 20
140.3229362789
 30
0.0
 10
108.1516806555
 20
137.6835833531
 30
0.0
 10
107.4570163456
 20
135.0169112604
 30
0.0
 10
106.9283247493
 20
132.4348721954
 30
0.0
 10
106.5649484407
 20
130.051260572
 30
0.0
 10
106.3889183502
 20
128.2359316507
 30
0.0
 10
106.3395869865
 20
126.9642919442
 30
0.0
 10
106.3462841306
 20
126.1717523055
 30
0.0
 10
106.3942871039
 20
125.4987044369
 30
0.0
 10
106.4597243701
 20
125.0931642336
 30
0.0
 10
106.503283346
 20
124.913868455
 30
0.0
  0
SPLINE
  5
4C9
100
AcDbEntity
  8
KONSTRUKTIONSELEMENTE
100
AcDbSpline
 62
7
  6
CONTINUOUS
 70
0
 71
3
 72
17
 73
13
 74
0
 42
0.0000001
 43
0.0000001
 44
0.0000000001
 40
0.0
 40
0.0
 40
0.0
 40
0.0
 40
0.0299466467
 40
0.0664861639
 40
0.1094478998
 40
0.1585107843
 40
0.2729794979
 40
0.4052257564
 40
0.5496958783
 40
0.700554773
 40
0.8522369458
 40
1.0
 40
1.0
 40
1.0
 40
1.0
 10
144.8211900453
 20
124.913868455
 30
0.0
 10
144.8647490212
 20
125.0931642336
 30
0.0
 10
144.9301862874
 20
125.4987044369
 30
0.0
 10
144.9781892607
 20
126.1717523055
 30
0.0
 10
144.9848864048
 20
126.9642919442
 30
0.0
 10
144.9355550412
 20
128.2359316507
 30
0.0
 10
144.7595249506
 20
130.051260572
 30
0.0
 10
144.3961486421
 20
132.4348721954
 30
0.0
 10
143.8674570458
 20
135.0169112604
 30
0.0
 10
143.1727927358
 20
137.6835833531
 30
0.0
 10
142.3116444768
 20
140.3229362789
 30
0.0
 10
141.6112600704
 20
142.0325882872
 30
0.0
 10
141.2268039492
 20
142.8578471525
 30
0.0
  0
SPLINE
  5
4CA
100
AcDbEntity
  8
0
100
AcDbSpline
 62
7
  6
CONTINUOUS
 70
0
 71
3
 72
9
 73
5
 74
0
 42
0.0000001
 43
0.0000001
 44
0.0000000001
 40
0.0
 40
0.0
 40
0.0
 40
0.0
 40
0.562807087
 40
1.0
 40
1.0
 40
1.0
 40
1.0
 10
101.7762366957
 20
124.298232197
 30
0.0
 10
101.7762366957
 20
124.182419021
 30
0.0
 10
101.7639865899
 20
123.9762904927
 30
0.0
 10
101.7049190198
 20
123.7751358546
 30
0.0
 10
101.6622366689
 20
123.6959408959
 30
0.0
  0
SPLINE
  5
4CB
100
AcDbEntity
  8
0
100
AcDbSpline
 62
7
  6
CONTINUOUS
 70
0
 71
3
 72
9
 73
5
 74
0
 42
0.0000001
 43
0.0000001
 44
0.0000000001
 40
0.0
 40
0.0
 40
0.0
 40
0.0
 40
0.4944039806
 40
1.0
 40
1.0
 40
1.0
 40
1.0
 10
101.6622366689
 20
123.6959408959
 30
0.0
 10
101.6230193775
 20
123.6231751908
 30
0.0
 10
101.5048942587
 20
123.4867784635
 30
0.0
 10
101.3253382031
 20
123.4652372666
 30
0.0
 10
101.2412270402
 20
123.4736642296
 30
0.0
  0
SPLINE
  5
4CC
100
AcDbEntity
  8
RUNDUNGEN
100
AcDbSpline
 62
7
  6
CONTINUOUS
 70
0
 71
3
 72
31
 73
27
 74
0
 42
0.0000001
 43
0.0000001
 44
0.0000000001
 40
0.0
 40
0.0
 40
0.0
 40
0.0
 40
0.0950871385
 40
0.2103726194
 40
0.2754109538
 40
0.3451817013
 40
0.4194366556
 40
0.4978003311
 40
0.5796799535
 40
0.6641020464
 40
0.7067805204
 40
0.7493464319
 40
0.7913428139
 40
0.8320697442
 40
0.8705184905
 40
0.9052514064
 40
0.9343853378
 40
0.9462656767
 40
0.956111197
 40
0.963918152
 40
0.9698243962
 40
0.9742896385
 40
0.9781249437
 40
0.982261038
 40
0.9872254206
 40
1.0
 40
1.0
 40
1.0
 40
1.0
 10
101.6622366689
 20
125.8643159537
 30
0.0
 10
101.5980927137
 20
126.1792275301
 30
0.0
 10
101.4165787252
 20
126.8678319889
 30
0.0
 10
101.1160603431
 20
127.7493532516
 30
0.0
 10
100.8107433436
 20
128.5376559808
 30
0.0
 10
100.5380551533
 20
129.1896080818
 30
0.0
 10
100.2306492695
 20
129.875591226
 30
0.0
 10
99.8888113496
 20
130.5907363207
 30
0.0
 10
99.5136351719
 20
131.3277515767
 30
0.0
 10
99.1765521979
 20
131.948563243
 30
0.0
 10
98.8915039617
 20
132.4461669824
 30
0.0
 10
98.6713709151
 20
132.8156344361
 30
0.0
 10
98.4475530496
 20
133.1751455892
 30
0.0
 10
98.2229579627
 20
133.5176570667
 30
0.0
 10
98.0023625562
 20
133.8332917665
 30
0.0
 10
97.7928706772
 20
134.108524245
 30
0.0
 10
97.6258211182
 20
134.302985409
 30
0.0
 10
97.5031711963
 20
134.4236062883
 30
0.0
 10
97.4265532453
 20
134.4877832959
 30
0.0
 10
97.3597980855
 20
134.5317334473
 30
0.0
 10
97.302681075
 20
134.5556009048
 30
0.0
 10
97.2532258949
 20
134.5593727864
 30
0.0
 10
97.2136615301
 20
134.5399597977
 30
0.0
 10
97.1880332159
 20
134.5030181114
 30
0.0
 10
97.1651350041
 20
134.4322525316
 30
0.0
 10
97.1622366957
 20
134.3714874894
 30
0.0
 10
97.1622366957
 20
134.3283116463
 30
0.0
  0
SPLINE
  5
4CD
100
AcDbEntity
  8
RUNDUNGEN
100
AcDbSpline
 62
7
  6
CONTINUOUS
 70
0
 71
3
 72
9
 73
5
 74
0
 42
0.0000001
 43
0.0000001
 44
0.0000000001
 40
0.0
 40
0.0
 40
0.0
 40
0.0
 40
0.4534686985
 40
1.0
 40
1.0
 40
1.0
 40
1.0
 10
101.7762366957
 20
124.913868455
 30
0.0
 10
101.7762366957
 20
125.0587360586
 30
0.0
 10
101.751336873
 20
125.3781388328
 30
0.0
 10
101.6970847383
 20
125.6932310718
 30
0.0
 10
101.6622366689
 20
125.8643159537
 30
0.0
  0
SPLINE
  5
4CE
100
AcDbEntity
  8
RUNDUNGEN
100
AcDbSpline
 62
7
  6
CONTINUOUS
 70
0
 71
3
 72
31
 73
27
 74
0
 42
0.0000001
 43
0.0000001
 44
0.0000000001
 40
0.0
 40
0.0
 40
0.0
 40
0.0
 40
0.0127744422
 40
0.0177388463
 40
0.0218748932
 40
0.0257102547
 40
0.0301754992
 40
0.0360821176
 40
0.0438905648
 40
0.0537369133
 40
0.0656178272
 40
0.0947543807
 40
0.1294878275
 40
0.1679358068
 40
0.2086632035
 40
0.2506588767
 40
0.2932245089
 40
0.3359026744
 40
0.4203245274
 40
0.5022040102
 40
0.5805671016
 40
0.6548209694
 40
0.7245904012
 40
0.7896280811
 40
0.9049130789
 40
1.0
 40
1.0
 40
1.0
 40
1.0
 10
154.1622366957
 20
134.3283116463
 30
0.0
 10
154.1622366957
 20
134.3714870244
 30
0.0
 10
154.159337362
 20
134.4322515637
 30
0.0
 10
154.1364409894
 20
134.503016775
 30
0.0
 10
154.1108136693
 20
134.5399598574
 30
0.0
 10
154.0712485005
 20
134.5593708312
 30
0.0
 10
154.0217920218
 20
134.5556029194
 30
0.0
 10
153.9646690739
 20
134.531730582
 30
0.0
 10
153.8979108096
 20
134.4877692657
 30
0.0
 10
153.8212826965
 20
134.4235894265
 30
0.0
 10
153.6986247198
 20
134.302956946
 30
0.0
 10
153.5315689265
 20
134.1084847179
 30
0.0
 10
153.3220768836
 20
133.8332421863
 30
0.0
 10
153.1014805803
 20
133.5176072595
 30
0.0
 10
152.8768900113
 20
133.175096868
 30
0.0
 10
152.6530735154
 20
132.8155869845
 30
0.0
 10
152.4329435757
 20
132.4461227823
 30
0.0
 10
152.1478979648
 20
131.9485207871
 30
0.0
 10
151.8108168767
 20
131.3277107698
 30
0.0
 10
151.4356431109
 20
130.5906979661
 30
0.0
 10
151.0938085852
 20
129.8755580518
 30
0.0
 10
150.7864079359
 20
129.1895836475
 30
0.0
 10
150.513724106
 20
128.5376409489
 30
0.0
 10
150.2084104483
 20
127.7493458423
 30
0.0
 10
149.9078937757
 20
126.8678288671
 30
0.0
 10
149.7263805024
 20
126.1792266956
 30
0.0
 10
149.6622366957
 20
125.8643158481
 30
0.0
  0
SPLINE
  5
4CF
100
AcDbEntity
  8
0
100
AcDbSpline
 62
7
  6
CONTINUOUS
 70
0
 71
3
 72
9
 73
5
 74
0
 42
0.0000001
 43
0.0000001
 44
0.0000000001
 40
0.0
 40
0.0
 40
0.0
 40
0.0
 40
0.5
 40
1.0
 40
1.0
 40
1.0
 40
1.0
 10
144.8211900453
 20
124.913868455
 30
0.0
 10
144.7967882705
 20
124.8134268096
 30
0.0
 10
144.7706588859
 20
124.606050326
 30
0.0
 10
144.7967882705
 20
124.3986738424
 30
0.0
 10
144.8211900453
 20
124.298232197
 30
0.0
  0
SPLINE
  5
4D0
100
AcDbEntity
  8
0
100
AcDbSpline
 62
7
  6
CONTINUOUS
 70
0
 71
3
 72
9
 73
5
 74
0
 42
0.0000001
 43
0.0000001
 44
0.0000000001
 40
0.0
 40
0.0
 40
0.0
 40
0.0
 40
0.5
 40
1.0
 40
1.0
 40
1.0
 40
1.0
 10
106.503283346
 20
124.298232197
 30
0.0
 10
106.5276851208
 20
124.3986738424
 30
0.0
 10
106.5538145055
 20
124.606050326
 30
0.0
 10
106.5276851208
 20
124.8134268096
 30
0.0
 10
106.503283346
 20
124.913868455
 30
0.0
  0
SPLINE
  5
4D1
100
AcDbEntity
  8
RUNDUNGEN
100
AcDbSpline
 62
7
  6
CONTINUOUS
 70
0
 71
3
 72
14
 73
10
 74
0
 42
0.0000001
 43
0.0000001
 44
0.0000000001
 40
0.0
 40
0.0
 40
0.0
 40
0.0
 40
0.3082125841
 40
0.4521238758
 40
0.5848336971
 40
0.7047846745
 40
0.8121251289
 40
0.9090576114
 40
1.0
 40
1.0
 40
1.0
 40
1.0
 10
101.6622366957
 20
153.1944659812
 30
0.0
 10
101.0753506126
 20
153.1944659812
 30
0.0
 10
100.208470932
 20
153.0961745121
 30
0.0
 10
99.1447130606
 20
152.7578733008
 30
0.0
 10
98.4630006997
 20
152.4256052751
 30
0.0
 10
97.9037388197
 20
152.0223611046
 30
0.0
 10
97.4850892718
 20
151.5609927562
 30
0.0
 10
97.222905695
 20
151.0555177662
 30
0.0
 10
97.1622366957
 20
150.6954897425
 30
0.0
 10
97.1622366957
 20
150.5223208813
 30
0.0
  0
SPLINE
  5
4D2
100
AcDbEntity
  8
0
100
AcDbSpline
 62
7
  6
CONTINUOUS
 70
0
 71
3
 72
14
 73
10
 74
0
 42
0.0000001
 43
0.0000001
 44
0.0000000001
 40
0.0
 40
0.0
 40
0.0
 40
0.0
 40
0.4357256516
 40
0.7481500021
 40
0.8571116685
 40
0.9345123636
 40
0.9615060178
 40
0.9809064043
 40
1.0
 40
1.0
 40
1.0
 40
1.0
 10
144.8211900453
 20
124.298232197
 30
0.0
 10
144.8508158944
 20
124.1762874181
 30
0.0
 10
144.8998938409
 20
123.9663847807
 30
0.0
 10
144.950519377
 20
123.7249576911
 30
0.0
 10
144.9729591762
 20
123.5826637603
 30
0.0
 10
144.9801146519
 20
123.5221686239
 30
0.0
 10
144.9802776379
 20
123.4855942861
 30
0.0
 10
144.9795234508
 20
123.4684125803
 30
0.0
 10
144.9738891173
 20
123.4539126859
 30
0.0
 10
144.9683901719
 20
123.4539516852
 30
0.0
  0
SPLINE
  5
4D3
100
AcDbEntity
  8
BEZUGSACHSEN
100
AcDbSpline
 62
7
  6
CONTINUOUS
 70
0
 71
3
 72
15
 73
11
 74
0
 42
0.0000001
 43
0.0000001
 44
0.0000000001
 40
0.0
 40
0.0
 40
0.0
 40
0.0
 40
0.1215273364
 40
0.245330401
 40
0.3717992295
 40
0.5
 40
0.6282007705
 40
0.754669599
 40
0.8784726636
 40
1.0
 40
1.0
 40
1.0
 40
1.0
 10
110.0364148372
 20
146.1411716132
 30
0.0
 10
109.9938501629
 20
146.4177263498
 30
0.0
 10
109.7985376622
 20
146.9645623296
 30
0.0
 10
109.2259262187
 20
147.6249221098
 30
0.0
 10
108.4479494644
 20
148.0550695187
 30
0.0
 10
107.5622366957
 20
148.2039299411
 30
0.0
 10
106.6765239269
 20
148.0550695187
 30
0.0
 10
105.8985471727
 20
147.6249221098
 30
0.0
 10
105.3259357291
 20
146.9645623296
 30
0.0
 10
105.1306232285
 20
146.4177263498
 30
0.0
 10
105.0880585542
 20
146.1411716132
 30
0.0
  0
SPLINE
  5
4D4
100
AcDbEntity
  8
RUNDUNGEN
100
AcDbSpline
 62
7
  6
CONTINUOUS
 70
0
 71
3
 72
14
 73
10
 74
0
 42
0.0000001
 43
0.0000001
 44
0.0000000001
 40
0.0
 40
0.0
 40
0.0
 40
0.0
 40
0.0909423886
 40
0.1878748711
 40
0.2952153255
 40
0.4151663029
 40
0.5478761242
 40
0.6917874159
 40
1.0
 40
1.0
 40
1.0
 40
1.0
 10
154.1622366957
 20
154.8932766271
 30
0.0
 10
154.1622366957
 20
155.0664454884
 30
0.0
 10
154.1015676963
 20
155.4264735121
 30
0.0
 10
153.8393841196
 20
155.9319485021
 30
0.0
 10
153.4207345716
 20
156.3933168505
 30
0.0
 10
152.8614726917
 20
156.796561021
 30
0.0
 10
152.1797603307
 20
157.1288290467
 30
0.0
 10
151.1160024594
 20
157.467130258
 30
0.0
 10
150.2491227787
 20
157.565421727
 30
0.0
 10
149.6622366957
 20
157.565421727
 30
0.0
  0
ELLIPSE
  5
4D5
100
AcDbEntity
  8
0
100
AcDbEllipse
 62
7
  6
CONTINUOUS
 10
515.1938879203
 20
160.1267647381
 30
0.0
 11
-3.1748063182
 21
5.7403458216
 31
0.0
 40
0.4994016261
 41
-1.6492465757
 42
-0.4286154991
  0
ELLIPSE
  5
4D6
100
AcDbEntity
  8
RUNDUNGEN
100
AcDbEllipse
 62
7
  6
CONTINUOUS
 10
529.1336911838
 20
165.2004381975
 30
0.0
 11
-1.2577804314
 21
6.4380861827
 31
0.0
 40
0.4994016261
 41
0.4286154991
 42
1.6492465757
  0
ELLIPSE
  5
4D7
100
AcDbEntity
  8
0
100
AcDbEllipse
 62
7
  6
CONTINUOUS
 10
482.1615383648
 20
160.1267647381
 30
0.0
 11
3.1748063182
 21
5.7403458216
 31
0.0
 40
0.4994016261
 41
0.4286154991
 42
1.6492465757
  0
ELLIPSE
  5
4D8
100
AcDbEntity
  8
RUNDUNGEN
100
AcDbEllipse
 62
7
  6
CONTINUOUS
 10
468.2217351014
 20
165.2004381975
 30
0.0
 11
1.2577804314
 21
6.4380861827
 31
0.0
 40
0.4994016261
 41
-1.6492465757
 42
-0.4286154991
  0
ELLIPSE
  5
4D9
100
AcDbEntity
  8
KONSTRUKTIONSELEMENTE
100
AcDbEllipse
 62
7
  6
CONTINUOUS
 10
125.6622366957
 20
157.3138269354
 30
0.0
 11
6.25
 21
-0.0
 31
0.0
 40
0.742227199
 41
3.08733039
 42
3.1415926536
  0
ELLIPSE
  5
4DA
100
AcDbEntity
  8
KONSTRUKTIONSELEMENTE
100
AcDbEllipse
 62
7
  6
CONTINUOUS
 10
125.6622366957
 20
157.3138269354
 30
0.0
 11
6.25
 21
0.0
 31
0.0
 40
0.742227199
 41
-0.0
 42
0.0542622636
  0
ELLIPSE
  5
4DB
100
AcDbEntity
  8
0
100
AcDbEllipse
 62
7
  6
CONTINUOUS
 10
158.1636213111
 20
137.453928888
 30
0.0
 11
8.3350075345
 21
13.9391800383
 31
0.0
 40
0.1563953738
 41
-3.3974122484
 42
-3.2345538567
  0
ELLIPSE
  5
4DC
100
AcDbEntity
  8
RUNDUNGEN
100
AcDbEllipse
 62
7
  6
CONTINUOUS
 10
158.1636213111
 20
138.069565146
 30
0.0
 11
8.3350075345
 21
13.9391800383
 31
0.0
 40
0.1563953738
 41
-3.56027064
 42
-3.3974122484
  0
ENDSEC
  0
SECTION
  2
OBJECTS
  0
DICTIONARY
  5
C
100
AcDbDictionary
280
0
281
1
  3
ACAD_GROUP
350
D
  3
ACAD_MLINESTYLE
350
17
  3
ACAD_LAYOUT
350
1A
  3
ACAD_PLOTSETTINGS
350
19
  3
ACAD_PLOTSTYLENAME
350
E
  0
DICTIONARY
  5
D
102
{ACAD_REACTORS
330
C
102
}
100
AcDbDictionary
280
0
281
1
  0
ACDBDICTIONARYWDFLT
  5
E
102
{ACAD_REACTORS
330
C
102
}
100
AcDbDictionary
281
1
  3
Normal
350
F
100
AcDbDictionaryWithDefault
340
F
  0
DICTIONARY
  5
17
102
{ACAD_REACTORS
330
C
102
}
100
AcDbDictionary
280
0
281
1
  3
Standard
350
18
  0
DICTIONARY
  5
19
102
{ACAD_REACTORS
330
C
102
}
100
AcDbDictionary
281
1
  0
DICTIONARY
  5
1A
102
{ACAD_REACTORS
330
C
102
}
100
AcDbDictionary
281
1
  3
Model
350
4DD
  3
Layout1
350
4DE
  0
ACDBPLACEHOLDER
  5
F
102
{ACAD_REACTORS
330
E
102
}
  0
MLINESTYLE
  5
18
102
{ACAD_REACTORS
330
17
102
}
100
AcDbMlineStyle
  2
STANDARD
 70
0
  3

 62
256
 51
90.0
 52
90.0
 71
2
 49
0.5
 62
256
  6
BYLAYER
 49
-0.5
 62
256
  6
BYLAYER
  0
LAYOUT
  5
4DD
102
{ACAD_REACTORS
330
1A
102
}
100
AcDbPlotSettings
  1

  2
none_device
  4
ISO_A2_(594.00_x_420.00_MM)
  6

 40
0.0
 41
0.0
 42
0.0
 43
0.0
 44
594.0
 45
420.0
 46
0.0
 47
0.0
 48
0.0
 49
0.0
140
0.0
141
0.0
142
1.0
143
1.0
 70
1024
 72
1
 73
0
 74
0
  7

 75
0
147
1.0
148
0.0
149
0.0
100
AcDbLayout
  1
Model
 70
0
 71
0
 10
0.0
 20
0.0
 11
594.0
 21
420.0
 12
0.0
 22
0.0
 32
0.0
 14
0.0
 24
0.0
 34
0.0
 15
0.0
 25
0.0
 35
0.0
146
0.0
 13
0.0
 23
0.0
 33
0.0
 16
1.0
 26
0.0
 36
0.0
 17
0.0
 27
1.0
 37
0.0
 76
0
330
20A
345
0
346
0
  0
LAYOUT
  5
4DE
102
{ACAD_REACTORS
330
1A
102
}
100
AcDbPlotSettings
  1

  2
none_device
  4
ISO_A2_(594.00_x_420.00_MM)
  6

 40
0.0
 41
0.0
 42
0.0
 43
0.0
 44
594.0
 45
420.0
 46
0.0
 47
0.0
 48
0.0
 49
0.0
140
0.0
141
0.0
142
1.0
143
1.0
 70
0
 72
1
 73
0
 74
0
  7

 75
0
147
1.0
148
0.0
149
0.0
100
AcDbLayout
  1
Layout1
 70
0
 71
1
 10
0.0
 20
0.0
 11
594.0
 21
420.0
 12
0.0
 22
0.0
 32
0.0
 14
0.0
 24
0.0
 34
0.0
 15
0.0
 25
0.0
 35
0.0
146
0.0
 13
0.0
 23
0.0
 33
0.0
 16
1.0
 26
0.0
 36
0.0
 17
0.0
 27
1.0
 37
0.0
 76
0
330
20B
345
0
346
0
  0
ENDSEC
  0
EOF
