999
DXF file: IAK-RG-2-8_7903052_M34547-P-2.dxf
999
Pro/ENGINEER 2010140 by Parametric Technology Corporation
  0
SECTION
  2
HEADER
  9
$ACADVER
  1
AC1015
  9
$DWGCODEPAGE
  3
ANSI_1252
  9
$EXTMAX
 10
594.0
 20
420.0
 30
0.0
  9
$EXTMIN
 10
0.0
 20
0.0
 30
0.0
  9
$LIMMIN
 10
0.0
 20
0.0
  9
$LIMMAX
 10
594.0
 20
420.0
  9
$VIEWCTR
 10
297.0
 20
210.0
  9
$VIEWSIZE
 40
420.0
  9
$CLAYER
  8
0
  9
$LTSCALE
 40
32.67
  9
$CELTYPE
  6
BYLAYER
  9
$DIMSCALE
 40
1.0
  9
$DIMASZ
 40
3.5
  9
$DIMEXO
 40
3.7125
  9
$DIMDLI
 40
22.572
  9
$DIMEXE
 40
10.692
  9
$DIMCEN
 40
5.346
  9
$DIMLFAC
 40
1.0
  9
$DIMBLK
  1
_FILLED
  9
$DIMTXT
 40
3.5
  9
$DIMTOL
 70
1
  9
$DIMLIM
 70
0
  9
$DIMTFAC
 40
1.0
  9
$DIMTP
 40
0.005
  9
$DIMTM
 40
0.005
  9
$PDMODE
 70
3
  9
$PDSIZE
 40
0.3125
  9
$HANDSEED
  5
5BD
  9
$TILEMODE
 70
1
  9
$MEASUREMENT
 70
1
  9
$INSUNITS
 70
4
  0
ENDSEC
  0
SECTION
  2
CLASSES
  0
CLASS
  1
ACDBDICTIONARYWDFLT
  2
AcDbDictionaryWithDefault
  3
AutoCAD 2000
 90
0
280
0
281
0
  0
CLASS
  1
ACDBPLACEHOLDER
  2
AcDbPlaceHolder
  3
AutoCAD 2000
 90
0
280
0
281
0
  0
CLASS
  1
LAYOUT
  2
AcDbLayout
  3
AutoCAD 2000
 90
0
280
0
281
0
  0
ENDSEC
  0
SECTION
  2
TABLES
  0
TABLE
  2
VPORT
  5
8
100
AcDbSymbolTable
 70
2
  0
VPORT
  5
1F4
100
AcDbSymbolTableRecord
100
AcDbViewportTableRecord
  2
*ACTIVE
 70
0
 10
0.0
 20
0.0
 11
1.0
 21
1.0
 12
297.0
 22
210.0
 13
0.0
 23
0.0
 14
1.0
 24
1.0
 15
0.0
 25
0.0
 16
0.0
 26
0.0
 36
1.0
 17
0.0
 27
0.0
 37
0.0
 40
420.0
 41
1.4142857143
 42
50.0
 43
0.0
 44
0.0
 50
0.0
 51
0.0
 71
0
 72
100
 73
1
 74
1
 75
0
 76
0
 77
0
 78
0
  0
ENDTAB
  0
TABLE
  2
LTYPE
  5
5
100
AcDbSymbolTable
 70
6
  0
LTYPE
  5
14
100
AcDbSymbolTableRecord
100
AcDbLinetypeTableRecord
  2
BYBLOCK
 70
0
  3

 72
65
 73
0
 40
0.0
  0
LTYPE
  5
15
100
AcDbSymbolTableRecord
100
AcDbLinetypeTableRecord
  2
BYLAYER
 70
0
  3

 72
65
 73
0
 40
0.0
  0
LTYPE
  5
16
100
AcDbSymbolTableRecord
100
AcDbLinetypeTableRecord
  2
CONTINUOUS
 70
64
  3
Solid line
 72
65
 73
0
 40
0.0
  0
LTYPE
  5
1F5
100
AcDbSymbolTableRecord
100
AcDbLinetypeTableRecord
  2
CENTER
 70
64
  3
____ _ ____ _ ____ _ ____ _ ____ _ ____ _ ____
 72
65
 73
4
 40
0.6
 49
0.375
 74
0
 49
-0.075
 74
0
 49
0.075
 74
0
 49
-0.075
 74
0
  0
LTYPE
  5
1F6
100
AcDbSymbolTableRecord
100
AcDbLinetypeTableRecord
  2
HIDDEN
 70
64
  3
- - - - - - - - - - - - - - - - - - - -
 72
65
 73
2
 40
0.2
 49
0.1
 74
0
 49
-0.1
 74
0
  0
LTYPE
  5
1F7
100
AcDbSymbolTableRecord
100
AcDbLinetypeTableRecord
  2
PHANTOM
 70
64
  3
_____ _ _ _____ _ _ _____ _ _ _____
 72
65
 73
6
 40
0.8
 49
0.45
 74
0
 49
-0.05
 74
0
 49
0.1
 74
0
 49
-0.05
 74
0
 49
0.1
 74
0
 49
-0.05
 74
0
  0
LTYPE
  5
1F8
100
AcDbSymbolTableRecord
100
AcDbLinetypeTableRecord
  2
DOT
 70
64
  3
. . . . . . . . . . . . . . . . . . . .
 72
65
 73
2
 40
0.2
 49
0.1
 74
0
 49
-0.1
 74
0
  0
LTYPE
  5
1F9
100
AcDbSymbolTableRecord
100
AcDbLinetypeTableRecord
  2
DASHED
 70
64
  3
- - - - - - - - - - - - - - - - - - - -
 72
65
 73
2
 40
0.2
 49
0.1
 74
0
 49
-0.1
 74
0
  0
ENDTAB
  0
TABLE
  2
LAYER
  5
2
100
AcDbSymbolTable
 70
36
  0
LAYER
  5
10
100
AcDbSymbolTableRecord
100
AcDbLayerTableRecord
  2
0
 70
0
 62
7
  6
CONTINUOUS
370
-3
390
F
  0
LAYER
  5
1FA
100
AcDbSymbolTableRecord
100
AcDbLayerTableRecord
  2
DEFAULT_1
 70
0
 62
7
  6
CENTER
370
-3
390
F
  0
LAYER
  5
1FB
100
AcDbSymbolTableRecord
100
AcDbLayerTableRecord
  2
DEFAULT_2
 70
0
 62
8
  6
HIDDEN
370
-3
390
F
  0
LAYER
  5
1FC
100
AcDbSymbolTableRecord
100
AcDbLayerTableRecord
  2
DEFAULT_3
 70
0
 62
7
  6
PHANTOM
370
-3
390
F
  0
LAYER
  5
1FD
100
AcDbSymbolTableRecord
100
AcDbLayerTableRecord
  2
BEZUGSACHSEN
 70
0
 62
7
  6
CONTINUOUS
370
-3
390
F
  0
LAYER
  5
1FE
100
AcDbSymbolTableRecord
100
AcDbLayerTableRecord
  2
BEZUGSEBENEN
 70
0
 62
7
  6
CONTINUOUS
370
-3
390
F
  0
LAYER
  5
1FF
100
AcDbSymbolTableRecord
100
AcDbLayerTableRecord
  2
BG_STARTBEZUEGE
 70
0
 62
7
  6
CONTINUOUS
370
-3
390
F
  0
LAYER
  5
200
100
AcDbSymbolTableRecord
100
AcDbLayerTableRecord
  2
FASEN
 70
0
 62
7
  6
CONTINUOUS
370
-3
390
F
  0
LAYER
  5
201
100
AcDbSymbolTableRecord
100
AcDbLayerTableRecord
  2
HILFEN
 70
0
 62
7
  6
CONTINUOUS
370
-3
390
F
  0
LAYER
  5
202
100
AcDbSymbolTableRecord
100
AcDbLayerTableRecord
  2
KONSTRUKTIONSELEMENTE
 70
0
 62
7
  6
CONTINUOUS
370
-3
390
F
  0
LAYER
  5
203
100
AcDbSymbolTableRecord
100
AcDbLayerTableRecord
  2
NORM
 70
0
 62
7
  6
CONTINUOUS
370
-3
390
F
  0
LAYER
  5
204
100
AcDbSymbolTableRecord
100
AcDbLayerTableRecord
  2
PLATZIERUNG
 70
0
 62
7
  6
CONTINUOUS
370
-3
390
F
  0
LAYER
  5
205
100
AcDbSymbolTableRecord
100
AcDbLayerTableRecord
  2
RUNDUNGEN
 70
0
 62
7
  6
CONTINUOUS
370
-3
390
F
  0
LAYER
  5
206
100
AcDbSymbolTableRecord
100
AcDbLayerTableRecord
  2
TEIL_STARTBEZUEGE
 70
0
 62
7
  6
CONTINUOUS
370
-3
390
F
  0
LAYER
  5
207
100
AcDbSymbolTableRecord
100
AcDbLayerTableRecord
  2
T_STARTBEZUEGE
 70
0
 62
7
  6
CONTINUOUS
370
-3
390
F
  0
ENDTAB
  0
TABLE
  2
STYLE
  5
3
100
AcDbSymbolTable
 70
1
  0
STYLE
  5
11
100
AcDbSymbolTableRecord
100
AcDbTextStyleTableRecord
  2
STANDARD
 70
0
 40
0.0
 41
0.7
 50
0.0
 71
0
 42
0.2
  3
txt
  4

  0
STYLE
  5
208
100
AcDbSymbolTableRecord
100
AcDbTextStyleTableRecord
  2
TEXTSTYLE_1
 70
0
 40
0.0
 41
0.8
 50
0.0
 71
0
 42
0.2
  3
gdt
  4

  0
ENDTAB
  0
TABLE
  2
VIEW
  5
6
100
AcDbSymbolTable
 70
0
  0
ENDTAB
  0
TABLE
  2
UCS
  5
7
100
AcDbSymbolTable
 70
0
  0
ENDTAB
  0
TABLE
  2
APPID
  5
9
100
AcDbSymbolTable
 70
1
  0
APPID
  5
209
100
AcDbSymbolTableRecord
100
AcDbRegAppTableRecord
  2
ACAD
 70
0
  0
ENDTAB
  0
TABLE
  2
BLOCK_RECORD
  5
1
100
AcDbSymbolTable
 70
0
  0
BLOCK_RECORD
  5
20A
100
AcDbSymbolTableRecord
100
AcDbBlockTableRecord
  2
*Model_Space
  0
BLOCK_RECORD
  5
20B
100
AcDbSymbolTableRecord
100
AcDbBlockTableRecord
  2
*Paper_Space
  0
ENDTAB
  0
TABLE
  2
DIMSTYLE
  5
A
100
AcDbSymbolTable
 70
1
100
AcDbDimStyleTable
 71
0
  0
DIMSTYLE
105
20C
100
AcDbSymbolTableRecord
100
AcDbDimStyleTableRecord
  2
STANDARD
 70
0
  3

  4

 40
1.0
 41
3.5
 42
0.0625
 43
0.38
 44
0.18
 45
0.0
 46
0.0
 47
0.005
 48
0.005
140
3.5
141
0.09
142
0.0
143
25.4
144
1.0
145
0.0
146
1.0
147
0.09
 71
1.0
 72
0.0
 73
0
 74
0
 75
0
 76
0
 77
1
 78
8
170
0
171
2
172
0
173
0
174
0
175
0
176
0
177
0
178
5
270
2
271
3
272
3
273
2
274
2
275
0
280
0
281
0
282
0
283
1
284
8
285
0
286
0
287
3
288
0
340
11
  0
ENDTAB
  0
ENDSEC
  0
SECTION
  2
BLOCKS
  0
BLOCK
  5
20
100
AcDbEntity
  8
0
100
AcDbBlockBegin
  2
*Model_Space
 70
0
 10
0.0
 20
0.0
 30
0.0
  3
*Model_Space
  1

  0
ENDBLK
  5
21
100
AcDbEntity
  8
0
100
AcDbBlockEnd
  0
BLOCK
  5
1C
100
AcDbEntity
  8
0
100
AcDbBlockBegin
  2
*Paper_Space
 70
0
 10
0.0
 20
0.0
 30
0.0
  3
*Paper_Space
  1

  0
ENDBLK
  5
1D
100
AcDbEntity
  8
0
100
AcDbBlockEnd
  0
ENDSEC
  0
SECTION
  2
ENTITIES
  0
MTEXT
  5
20D
100
AcDbEntity
  8
0
100
AcDbMText
 62
5
  6
CONTINUOUS
  7
STANDARD
 71
1
 72
1
 10
413.8837523496
 20
251.327588131
 30
0.0
 11
0.0
 21
1.0
 31
0.0
 44
0.9
  1
RUD
 40
7.0
 41
18.6666666667
  0
MTEXT
  5
20E
100
AcDbEntity
  8
0
100
AcDbMText
 62
5
  6
CONTINUOUS
  7
STANDARD
 71
1
 72
1
 10
526.2492361842
 20
230.0147915682
 30
0.0
 11
0.0
 21
1.0
 31
0.0
 44
0.9
  1
IAK-RG 2-8
 40
7.0
 41
54.8333333333
  0
MTEXT
  5
20F
100
AcDbEntity
  8
0
100
AcDbMText
 62
5
  6
CONTINUOUS
  7
STANDARD
 71
1
 72
1
 10
155.9460712272
 20
222.1622439581
 30
0.0
 11
0.0
 21
1.0
 31
0.0
 44
0.9
  1
RUD IAK-RG 2-8
 40
7.0
 41
77.6666666667
  0
LINE
  5
210
100
AcDbEntity
  8
0
100
AcDbLine
 62
7
  6
CONTINUOUS
 10
0.0
 20
0.0
 11
0.0
 21
420.0
  0
LINE
  5
211
100
AcDbEntity
  8
0
100
AcDbLine
 62
7
  6
CONTINUOUS
 10
0.0
 20
0.0
 11
594.0
 21
0.0
  0
LINE
  5
212
100
AcDbEntity
  8
0
100
AcDbLine
 62
7
  6
CONTINUOUS
 10
0.0
 20
420.0
 11
594.0
 21
420.0
  0
LINE
  5
213
100
AcDbEntity
  8
0
100
AcDbLine
 62
7
  6
CONTINUOUS
 10
594.0
 20
0.0
 11
594.0
 21
420.0
  0
LINE
  5
214
100
AcDbEntity
  8
RUNDUNGEN
100
AcDbLine
 62
7
  6
CONTINUOUS
 10
292.47612624
 20
36.7071392901
 11
288.9405923341
 21
40.2426731961
  0
LINE
  5
215
100
AcDbEntity
  8
RUNDUNGEN
100
AcDbLine
 62
7
  6
CONTINUOUS
 10
337.8489107117
 20
89.1509915737
 11
341.3844446177
 21
85.6154576678
  0
LINE
  5
216
100
AcDbEntity
  8
RUNDUNGEN
100
AcDbLine
 62
7
  6
CONTINUOUS
 10
349.6869080414
 20
93.9179210915
 11
346.1513741354
 21
97.4534549974
  0
LINE
  5
217
100
AcDbEntity
  8
KONSTRUKTIONSELEMENTE
100
AcDbLine
 62
7
  6
CONTINUOUS
 10
341.7614688887
 20
103.0337553654
 11
345.2970027946
 21
99.4982214595
  0
LINE
  5
218
100
AcDbEntity
  8
KONSTRUKTIONSELEMENTE
100
AcDbLine
 62
7
  6
CONTINUOUS
 10
342.1150222793
 20
103.387308756
 11
345.6505561852
 21
99.8517748501
  0
LINE
  5
219
100
AcDbEntity
  8
0
100
AcDbLine
 62
7
  6
CONTINUOUS
 10
436.2445910744
 20
120.6372987954
 11
437.7480992677
 21
120.0900665661
  0
LINE
  5
21A
100
AcDbEntity
  8
0
100
AcDbLine
 62
7
  6
CONTINUOUS
 10
433.0893785595
 20
128.1688533485
 11
445.0063222299
 21
123.831440569
  0
LINE
  5
21B
100
AcDbEntity
  8
0
100
AcDbLine
 62
7
  6
CONTINUOUS
 10
442.4340983356
 20
140.4204444132
 11
445.7230225083
 21
139.2233739115
  0
LINE
  5
21C
100
AcDbEntity
  8
0
100
AcDbLine
 62
7
  6
CONTINUOUS
 10
448.2424601593
 20
146.1454719675
 11
444.9535359866
 21
147.3425424691
  0
LINE
  5
21D
100
AcDbEntity
  8
0
100
AcDbLine
 62
7
  6
CONTINUOUS
 10
451.7285112381
 20
153.0343373033
 11
446.711143212
 21
154.8605099192
  0
LINE
  5
21E
100
AcDbEntity
  8
KONSTRUKTIONSELEMENTE
100
AcDbLine
 62
7
  6
CONTINUOUS
 10
402.9262054614
 20
164.1984919381
 11
406.4617393673
 21
160.6629580321
  0
LINE
  5
21F
100
AcDbEntity
  8
KONSTRUKTIONSELEMENTE
100
AcDbLine
 62
7
  6
CONTINUOUS
 10
403.2797588519
 20
164.5520453287
 11
406.8152927579
 21
161.0165114227
  0
LINE
  5
220
100
AcDbEntity
  8
0
100
AcDbLine
 62
7
  6
CONTINUOUS
 10
455.9814441758
 20
166.6625603722
 11
452.2132604988
 21
168.0340670679
  0
LINE
  5
221
100
AcDbEntity
  8
0
100
AcDbLine
 62
7
  6
CONTINUOUS
 10
406.8490156144
 20
221.6155625704
 11
406.8490156144
 21
291.6155625704
  0
LINE
  5
222
100
AcDbEntity
  8
0
100
AcDbLine
 62
7
  6
CONTINUOUS
 10
460.8589692881
 20
180.063450481
 11
457.0907856111
 21
181.4349571767
  0
LINE
  5
223
100
AcDbEntity
  8
0
100
AcDbLine
 62
7
  6
CONTINUOUS
 10
428.8490156144
 20
221.6155625704
 11
428.8490156144
 21
291.6155625704
  0
LINE
  5
224
100
AcDbEntity
  8
KONSTRUKTIONSELEMENTE
100
AcDbLine
 62
7
  6
CONTINUOUS
 10
337.730960236
 20
99.0032467127
 11
341.7614688887
 21
103.0337553654
  0
LINE
  5
225
100
AcDbEntity
  8
KONSTRUKTIONSELEMENTE
100
AcDbLine
 62
7
  6
CONTINUOUS
 10
342.1150222793
 20
103.387308756
 11
346.1455309321
 21
107.4178174088
  0
LINE
  5
226
100
AcDbEntity
  8
KONSTRUKTIONSELEMENTE
100
AcDbLine
 62
7
  6
CONTINUOUS
 10
398.8956968086
 20
160.1679832853
 11
402.9262054614
 21
164.1984919381
  0
LINE
  5
227
100
AcDbEntity
  8
KONSTRUKTIONSELEMENTE
100
AcDbLine
 62
7
  6
CONTINUOUS
 10
403.2797588519
 20
164.5520453287
 11
407.3102675047
 21
168.5825539814
  0
LINE
  5
228
100
AcDbEntity
  8
0
100
AcDbLine
 62
7
  6
CONTINUOUS
 10
464.4295654854
 20
189.8735829072
 11
460.6613818084
 21
191.2450896029
  0
LINE
  5
229
100
AcDbEntity
  8
0
100
AcDbLine
 62
7
  6
CONTINUOUS
 10
461.9683107233
 20
194.8358472854
 11
465.7364944003
 21
193.4643405897
  0
LINE
  5
22A
100
AcDbEntity
  8
KONSTRUKTIONSELEMENTE
100
AcDbLine
 62
7
  6
CONTINUOUS
 10
378.7431535448
 20
137.8234089998
 11
368.136551827
 21
127.216807282
  0
LINE
  5
22B
100
AcDbEntity
  8
KONSTRUKTIONSELEMENTE
100
AcDbLine
 62
7
  6
CONTINUOUS
 10
341.2664941419
 20
95.4677128067
 11
345.2970027946
 21
99.4982214595
  0
LINE
  5
22C
100
AcDbEntity
  8
KONSTRUKTIONSELEMENTE
100
AcDbLine
 62
7
  6
CONTINUOUS
 10
345.6505561852
 20
99.8517748501
 11
349.681064838
 21
103.8822835029
  0
LINE
  5
22D
100
AcDbEntity
  8
KONSTRUKTIONSELEMENTE
100
AcDbLine
 62
7
  6
CONTINUOUS
 10
402.4312307145
 20
156.6324493794
 11
406.4617393673
 21
160.6629580321
  0
LINE
  5
22E
100
AcDbEntity
  8
KONSTRUKTIONSELEMENTE
100
AcDbLine
 62
7
  6
CONTINUOUS
 10
406.8152927579
 20
161.0165114227
 11
410.8458014106
 21
165.0470200755
  0
LINE
  5
22F
100
AcDbEntity
  8
KONSTRUKTIONSELEMENTE
100
AcDbLine
 62
7
  6
CONTINUOUS
 10
381.9251340601
 20
134.6414284845
 11
371.3185323423
 21
124.0348267667
  0
LINE
  5
230
100
AcDbEntity
  8
KONSTRUKTIONSELEMENTE
100
AcDbLine
 62
7
  6
CONTINUOUS
 10
442.029210461
 20
194.0383981042
 11
413.0378324323
 21
165.0470200755
  0
LINE
  5
231
100
AcDbEntity
  8
RUNDUNGEN
100
AcDbLine
 62
7
  6
CONTINUOUS
 10
288.9405923341
 20
40.2426731961
 11
346.1514652711
 21
97.4535461331
  0
LINE
  5
232
100
AcDbEntity
  8
KONSTRUKTIONSELEMENTE
100
AcDbLine
 62
7
  6
CONTINUOUS
 10
352.5802026409
 20
103.5287301123
 11
371.288887616
 21
122.2374150875
  0
LINE
  5
233
100
AcDbEntity
  8
KONSTRUKTIONSELEMENTE
100
AcDbLine
 62
7
  6
CONTINUOUS
 10
383.6929010131
 20
134.6414284845
 11
402.4015859883
 21
153.3501134597
  0
LINE
  5
234
100
AcDbEntity
  8
KONSTRUKTIONSELEMENTE
100
AcDbLine
 62
7
  6
CONTINUOUS
 10
355.7621831562
 20
100.3467495969
 11
374.4708681314
 21
119.0554345721
  0
LINE
  5
235
100
AcDbEntity
  8
KONSTRUKTIONSELEMENTE
100
AcDbLine
 62
7
  6
CONTINUOUS
 10
386.8748815284
 20
131.4594479691
 11
405.5835665036
 21
150.1681329443
  0
LINE
  5
236
100
AcDbEntity
  8
RUNDUNGEN
100
AcDbLine
 62
7
  6
CONTINUOUS
 10
292.47612624
 20
36.7071392901
 11
349.6869926349
 21
93.918005685
  0
LINE
  5
237
100
AcDbEntity
  8
KONSTRUKTIONSELEMENTE
100
AcDbLine
 62
7
  6
CONTINUOUS
 10
446.2718511481
 20
189.795757417
 11
417.3299832466
 21
160.8538895156
  0
LINE
  5
238
100
AcDbEntity
  8
KONSTRUKTIONSELEMENTE
100
AcDbLine
 62
7
  6
CONTINUOUS
 10
376.2682798106
 20
119.0850792984
 11
386.8748815284
 21
129.6916810162
  0
LINE
  5
239
100
AcDbEntity
  8
0
100
AcDbLine
 62
7
  6
CONTINUOUS
 10
485.7297205054
 20
194.8358472854
 11
481.9615368284
 21
193.4643405897
  0
LINE
  5
23A
100
AcDbEntity
  8
RUNDUNGEN
100
AcDbLine
 62
7
  6
CONTINUOUS
 10
514.453554354
 20
145.1411620579
 11
509.8572876953
 21
148.9978877161
  0
LINE
  5
23B
100
AcDbEntity
  8
RUNDUNGEN
100
AcDbLine
 62
7
  6
CONTINUOUS
 10
442.4340983356
 20
140.4204444132
 11
444.8514110336
 21
150.7602279084
  0
LINE
  5
23C
100
AcDbEntity
  8
0
100
AcDbLine
 62
7
  6
CONTINUOUS
 10
444.9535359866
 20
147.3425424691
 11
446.711143212
 21
154.8605099192
  0
LINE
  5
23D
100
AcDbEntity
  8
RUNDUNGEN
100
AcDbLine
 62
7
  6
CONTINUOUS
 10
429.5506593268
 20
134.9924817535
 11
433.2444768748
 21
145.1411620579
  0
LINE
  5
23E
100
AcDbEntity
  8
RUNDUNGEN
100
AcDbLine
 62
7
  6
CONTINUOUS
 10
437.8407435335
 20
148.9978877161
 11
440.0480894053
 21
155.0625206557
  0
LINE
  5
23F
100
AcDbEntity
  8
BEZUGSACHSEN
100
AcDbLine
 62
7
  6
CONTINUOUS
 10
454.7226561806
 20
187.3400994108
 11
446.7624554123
 21
165.4696275455
  0
LINE
  5
240
100
AcDbEntity
  8
RUNDUNGEN
100
AcDbLine
 62
7
  6
CONTINUOUS
 10
446.7623572736
 20
165.4693579118
 11
443.8287037095
 21
157.4092109879
  0
LINE
  5
241
100
AcDbEntity
  8
KONSTRUKTIONSELEMENTE
100
AcDbLine
 62
7
  6
CONTINUOUS
 10
417.2804731194
 20
158.6123483667
 11
408.8659024233
 21
150.1977776706
  0
LINE
  5
242
100
AcDbEntity
  8
KONSTRUKTIONSELEMENTE
100
AcDbLine
 62
7
  6
CONTINUOUS
 10
356.1157365468
 20
97.4476117941
 11
347.7011658507
 21
89.0330410979
  0
LINE
  5
243
100
AcDbEntity
  8
KONSTRUKTIONSELEMENTE
100
AcDbLine
 62
7
  6
CONTINUOUS
 10
379.450260326
 20
115.903098783
 11
390.0568620438
 21
126.5097005008
  0
LINE
  5
244
100
AcDbEntity
  8
KONSTRUKTIONSELEMENTE
100
AcDbLine
 62
7
  6
CONTINUOUS
 10
420.8160070254
 20
155.0768144608
 11
412.4014363293
 21
146.6622437647
  0
LINE
  5
245
100
AcDbEntity
  8
KONSTRUKTIONSELEMENTE
100
AcDbLine
 62
7
  6
CONTINUOUS
 10
359.6512704527
 20
93.9120778881
 11
351.2366997566
 21
85.497507192
  0
LINE
  5
246
100
AcDbEntity
  8
KONSTRUKTIONSELEMENTE
100
AcDbLine
 62
7
  6
CONTINUOUS
 10
461.9683107233
 20
194.8358472854
 11
456.4195482351
 21
189.8524158371
  0
LINE
  5
247
100
AcDbEntity
  8
0
100
AcDbLine
 62
7
  6
CONTINUOUS
 10
483.2684657433
 20
189.8735829072
 11
487.0366494203
 21
191.2450896029
  0
LINE
  5
248
100
AcDbEntity
  8
0
100
AcDbLine
 62
7
  6
CONTINUOUS
 10
486.8390619406
 20
180.063450481
 11
490.6072456177
 21
181.4349571767
  0
LINE
  5
249
100
AcDbEntity
  8
0
100
AcDbLine
 62
7
  6
CONTINUOUS
 10
454.7552107076
 20
142.8415251362
 11
455.7970997736
 21
136.9326786181
  0
LINE
  5
24A
100
AcDbEntity
  8
0
100
AcDbLine
 62
7
  6
CONTINUOUS
 10
454.3391657625
 20
160.6611438293
 11
451.7285112381
 21
153.0343373033
  0
LINE
  5
24B
100
AcDbEntity
  8
0
100
AcDbLine
 62
7
  6
CONTINUOUS
 10
444.9535359866
 20
147.3425424691
 11
442.4340983356
 21
140.4204444132
  0
LINE
  5
24C
100
AcDbEntity
  8
0
100
AcDbLine
 62
7
  6
CONTINUOUS
 10
448.2424601593
 20
146.1454719675
 11
445.7230225083
 21
139.2233739115
  0
LINE
  5
24D
100
AcDbEntity
  8
BEZUGSACHSEN
100
AcDbLine
 62
7
  6
CONTINUOUS
 10
466.4688139404
 20
183.0648476192
 11
458.5086131721
 21
161.194375754
  0
LINE
  5
24E
100
AcDbEntity
  8
0
100
AcDbLine
 62
7
  6
CONTINUOUS
 10
458.5085150334
 20
161.1941061202
 11
455.5748614693
 21
153.1339591963
  0
LINE
  5
24F
100
AcDbEntity
  8
0
100
AcDbLine
 62
7
  6
CONTINUOUS
 10
454.7552107076
 20
142.8415251362
 11
456.962556581
 21
148.9061580803
  0
LINE
  5
250
100
AcDbEntity
  8
0
100
AcDbLine
 62
7
  6
CONTINUOUS
 10
449.613682557
 20
162.3810790586
 11
446.711143212
 21
154.8605099192
  0
LINE
  5
251
100
AcDbEntity
  8
0
100
AcDbLine
 62
7
  6
CONTINUOUS
 10
448.2424601593
 20
146.1454719675
 11
451.7285112381
 21
153.0343373033
  0
LINE
  5
252
100
AcDbEntity
  8
0
100
AcDbLine
 62
7
  6
CONTINUOUS
 10
445.7230225083
 20
139.2233739115
 11
450.5175382663
 21
148.6979262522
  0
LINE
  5
253
100
AcDbEntity
  8
RUNDUNGEN
100
AcDbLine
 62
7
  6
CONTINUOUS
 10
437.8407435335
 20
148.9978877161
 11
433.2444768748
 21
145.1411620579
  0
LINE
  5
254
100
AcDbEntity
  8
0
100
AcDbLine
 62
7
  6
CONTINUOUS
 10
491.7165870529
 20
166.6625603722
 11
495.4847707299
 21
168.0340670679
  0
LINE
  5
255
100
AcDbEntity
  8
KONSTRUKTIONSELEMENTE
100
AcDbLine
 62
7
  6
CONTINUOUS
 10
485.7297205054
 20
194.8358472854
 11
491.2784829937
 21
189.8524158371
  0
LINE
  5
256
100
AcDbEntity
  8
0
100
AcDbLine
 62
7
  6
CONTINUOUS
 10
501.9750087204
 20
139.2233739115
 11
497.1804929624
 21
148.6979262522
  0
LINE
  5
257
100
AcDbEntity
  8
0
100
AcDbLine
 62
7
  6
CONTINUOUS
 10
499.4555710694
 20
146.1454719675
 11
495.9695199907
 21
153.0343373033
  0
LINE
  5
258
100
AcDbEntity
  8
0
100
AcDbLine
 62
7
  6
CONTINUOUS
 10
495.594749003
 20
126.7839983136
 11
491.9009314551
 21
136.9326786181
  0
LINE
  5
259
100
AcDbEntity
  8
0
100
AcDbLine
 62
7
  6
CONTINUOUS
 10
490.7354746477
 20
148.9061580803
 11
492.9428205211
 21
142.8415251362
  0
LINE
  5
25A
100
AcDbEntity
  8
0
100
AcDbLine
 62
7
  6
CONTINUOUS
 10
466.783805082
 20
186.0801348445
 11
465.7364944003
 21
193.4643405897
  0
LINE
  5
25B
100
AcDbEntity
  8
0
100
AcDbLine
 62
7
  6
CONTINUOUS
 10
480.9142261468
 20
186.0801348445
 11
481.9615368284
 21
193.4643405897
  0
LINE
  5
25C
100
AcDbEntity
  8
0
100
AcDbLine
 62
7
  6
CONTINUOUS
 10
455.7970997736
 20
136.9326786181
 11
452.1032822257
 21
126.7839983136
  0
LINE
  5
25D
100
AcDbEntity
  8
0
100
AcDbLine
 62
7
  6
CONTINUOUS
 10
495.9695199907
 20
153.0343373033
 11
500.9868880167
 21
154.8605099192
  0
LINE
  5
25E
100
AcDbEntity
  8
0
100
AcDbLine
 62
7
  6
CONTINUOUS
 10
498.0843486717
 20
162.3810790586
 11
500.9868880167
 21
154.8605099192
  0
LINE
  5
25F
100
AcDbEntity
  8
0
100
AcDbLine
 62
7
  6
CONTINUOUS
 10
489.1895172301
 20
161.1941032772
 11
492.1231697594
 21
153.1339591963
  0
LINE
  5
260
100
AcDbEntity
  8
BEZUGSACHSEN
100
AcDbLine
 62
7
  6
CONTINUOUS
 10
489.1894180566
 20
161.194375754
 11
481.2292172883
 21
183.0648476192
  0
LINE
  5
261
100
AcDbEntity
  8
0
100
AcDbLine
 62
7
  6
CONTINUOUS
 10
499.4555710694
 20
146.1454719675
 11
501.9750087204
 21
139.2233739115
  0
LINE
  5
262
100
AcDbEntity
  8
0
100
AcDbLine
 62
7
  6
CONTINUOUS
 10
502.7444952421
 20
147.3425424691
 11
505.2639328932
 21
140.4204444132
  0
LINE
  5
263
100
AcDbEntity
  8
RUNDUNGEN
100
AcDbLine
 62
7
  6
CONTINUOUS
 10
500.9356749899
 20
165.4693550687
 11
503.8693275192
 21
157.4092109879
  0
LINE
  5
264
100
AcDbEntity
  8
BEZUGSACHSEN
100
AcDbLine
 62
7
  6
CONTINUOUS
 10
500.9355758164
 20
165.4696275455
 11
492.9753750481
 21
187.3400994108
  0
LINE
  5
265
100
AcDbEntity
  8
0
100
AcDbLine
 62
7
  6
CONTINUOUS
 10
493.3588654662
 20
160.6611438293
 11
495.9695199907
 21
153.0343373033
  0
LINE
  5
266
100
AcDbEntity
  8
0
100
AcDbLine
 62
7
  6
CONTINUOUS
 10
502.7444952421
 20
147.3425424691
 11
499.4555710694
 21
146.1454719675
  0
LINE
  5
267
100
AcDbEntity
  8
RUNDUNGEN
100
AcDbLine
 62
7
  6
CONTINUOUS
 10
507.6499418219
 20
155.0625206601
 11
509.8572876953
 21
148.9978877161
  0
LINE
  5
268
100
AcDbEntity
  8
RUNDUNGEN
100
AcDbLine
 62
7
  6
CONTINUOUS
 10
518.1473719019
 20
134.9924817535
 11
514.453554354
 21
145.1411620579
  0
LINE
  5
269
100
AcDbEntity
  8
0
100
AcDbLine
 62
7
  6
CONTINUOUS
 10
502.7444952421
 20
147.3425424691
 11
500.9868880167
 21
154.8605099192
  0
LINE
  5
26A
100
AcDbEntity
  8
RUNDUNGEN
100
AcDbLine
 62
7
  6
CONTINUOUS
 10
505.2639328932
 20
140.4204444132
 11
502.8466201951
 21
150.7602279084
  0
LINE
  5
26B
100
AcDbEntity
  8
0
100
AcDbLine
 62
7
  6
CONTINUOUS
 10
491.9009314551
 20
136.9326786181
 11
492.9428205211
 21
142.8415251362
  0
LINE
  5
26C
100
AcDbEntity
  8
0
100
AcDbLine
 62
7
  6
CONTINUOUS
 10
501.9750087204
 20
139.2233739115
 11
505.2639328932
 21
140.4204444132
  0
LINE
  5
26D
100
AcDbEntity
  8
0
100
AcDbLine
 62
7
  6
CONTINUOUS
 10
518.8490156144
 20
291.6155625704
 11
518.8490156144
 21
221.6155625704
  0
LINE
  5
26E
100
AcDbEntity
  8
0
100
AcDbLine
 62
7
  6
CONTINUOUS
 10
502.6917089988
 20
123.831440569
 11
514.6086526692
 21
128.1688533485
  0
LINE
  5
26F
100
AcDbEntity
  8
0
100
AcDbLine
 62
7
  6
CONTINUOUS
 10
509.9499319611
 20
120.0900665661
 11
511.4534401543
 21
120.6372987954
  0
LINE
  5
270
100
AcDbEntity
  8
0
100
AcDbLine
 62
7
  6
CONTINUOUS
 10
540.8490156144
 20
291.6155625704
 11
540.8490156144
 21
221.6155625704
  0
LINE
  5
271
100
AcDbEntity
  8
RUNDUNGEN
100
AcDbLine
 62
7
  6
CONTINUOUS
 10
135.9452901621
 20
36.7071392901
 11
138.5452901621
 21
36.7071392901
  0
LINE
  5
272
100
AcDbEntity
  8
RUNDUNGEN
100
AcDbLine
 62
7
  6
CONTINUOUS
 10
180.3452901621
 20
36.7071392901
 11
182.9452901621
 21
36.7071392901
  0
LINE
  5
273
100
AcDbEntity
  8
RUNDUNGEN
100
AcDbLine
 62
7
  6
CONTINUOUS
 10
142.5452901621
 20
43.778207102
 11
147.9950003037
 21
43.778207102
  0
LINE
  5
274
100
AcDbEntity
  8
RUNDUNGEN
100
AcDbLine
 62
7
  6
CONTINUOUS
 10
170.8955800206
 20
43.778207102
 11
176.3452901621
 21
43.778207102
  0
LINE
  5
275
100
AcDbEntity
  8
0
100
AcDbLine
 62
7
  6
CONTINUOUS
 10
148.2554759739
 20
76.5879617491
 11
152.0954759739
 21
76.5879617491
  0
LINE
  5
276
100
AcDbEntity
  8
0
100
AcDbLine
 62
7
  6
CONTINUOUS
 10
154.1321170151
 20
76.5879617491
 11
154.9001170151
 21
76.5879617491
  0
LINE
  5
277
100
AcDbEntity
  8
0
100
AcDbLine
 62
7
  6
CONTINUOUS
 10
158.5584801486
 20
76.5879617491
 11
159.4452901621
 21
76.5879617491
  0
LINE
  5
278
100
AcDbEntity
  8
0
100
AcDbLine
 62
7
  6
CONTINUOUS
 10
166.1274253036
 20
76.5879617491
 11
168.9097989576
 21
76.5879617491
  0
LINE
  5
279
100
AcDbEntity
  8
0
100
AcDbLine
 62
7
  6
CONTINUOUS
 10
148.2554759739
 20
76.8708044615
 11
152.0954759739
 21
76.8708044615
  0
LINE
  5
27A
100
AcDbEntity
  8
0
100
AcDbLine
 62
7
  6
CONTINUOUS
 10
154.1321170151
 20
76.8708044615
 11
154.9001170151
 21
76.8708044615
  0
LINE
  5
27B
100
AcDbEntity
  8
0
100
AcDbLine
 62
7
  6
CONTINUOUS
 10
158.5584801486
 20
76.8708044615
 11
159.2143500544
 21
76.8708044615
  0
LINE
  5
27C
100
AcDbEntity
  8
0
100
AcDbLine
 62
7
  6
CONTINUOUS
 10
166.1274253036
 20
76.8708044615
 11
168.9097989576
 21
76.8708044615
  0
LINE
  5
27D
100
AcDbEntity
  8
0
100
AcDbLine
 62
7
  6
CONTINUOUS
 10
168.92662814
 20
77.153647174
 11
166.8954253036
 21
77.153647174
  0
LINE
  5
27E
100
AcDbEntity
  8
0
100
AcDbLine
 62
7
  6
CONTINUOUS
 10
150.7754759739
 20
77.266784259
 11
149.5754759739
 21
77.266784259
  0
LINE
  5
27F
100
AcDbEntity
  8
0
100
AcDbLine
 62
7
  6
CONTINUOUS
 10
149.7914759739
 20
77.5213427002
 11
150.5594759739
 21
77.5213427002
  0
LINE
  5
280
100
AcDbEntity
  8
0
100
AcDbLine
 62
7
  6
CONTINUOUS
 10
149.7914759739
 20
77.8041854127
 11
150.5594759739
 21
77.8041854127
  0
LINE
  5
281
100
AcDbEntity
  8
0
100
AcDbLine
 62
7
  6
CONTINUOUS
 10
150.2594759739
 20
78.2001652102
 11
150.0914759739
 21
78.2001652102
  0
LINE
  5
282
100
AcDbEntity
  8
0
100
AcDbLine
 62
7
  6
CONTINUOUS
 10
150.5594759739
 20
78.3698708377
 11
150.3554759739
 21
78.3698708377
  0
LINE
  5
283
100
AcDbEntity
  8
0
100
AcDbLine
 62
7
  6
CONTINUOUS
 10
149.9954759739
 20
78.3698708377
 11
149.7914759739
 21
78.3698708377
  0
LINE
  5
284
100
AcDbEntity
  8
0
100
AcDbLine
 62
7
  6
CONTINUOUS
 10
149.5754759739
 20
78.6244292789
 11
149.9954759739
 21
78.6244292789
  0
LINE
  5
285
100
AcDbEntity
  8
0
100
AcDbLine
 62
7
  6
CONTINUOUS
 10
150.3554759739
 20
78.6244292789
 11
150.7754759739
 21
78.6244292789
  0
LINE
  5
286
100
AcDbEntity
  8
0
100
AcDbLine
 62
7
  6
CONTINUOUS
 10
154.9001170151
 20
78.7170130815
 11
156.8201170151
 21
78.7170130815
  0
LINE
  5
287
100
AcDbEntity
  8
0
100
AcDbLine
 62
7
  6
CONTINUOUS
 10
149.5754759739
 20
78.9072719914
 11
149.9954759739
 21
78.9072719914
  0
LINE
  5
288
100
AcDbEntity
  8
0
100
AcDbLine
 62
7
  6
CONTINUOUS
 10
150.3554759739
 20
78.9072719914
 11
150.7754759739
 21
78.9072719914
  0
LINE
  5
289
100
AcDbEntity
  8
0
100
AcDbLine
 62
7
  6
CONTINUOUS
 10
150.7754759739
 20
78.9638405339
 11
150.3554759739
 21
78.9638405339
  0
LINE
  5
28A
100
AcDbEntity
  8
0
100
AcDbLine
 62
7
  6
CONTINUOUS
 10
149.9954759739
 20
78.9638405339
 11
149.5754759739
 21
78.9638405339
  0
LINE
  5
28B
100
AcDbEntity
  8
0
100
AcDbLine
 62
7
  6
CONTINUOUS
 10
154.9001170151
 20
78.999855794
 11
156.8201170151
 21
78.999855794
  0
LINE
  5
28C
100
AcDbEntity
  8
0
100
AcDbLine
 62
7
  6
CONTINUOUS
 10
149.7914759739
 20
79.2183989751
 11
149.9954759739
 21
79.2183989751
  0
LINE
  5
28D
100
AcDbEntity
  8
0
100
AcDbLine
 62
7
  6
CONTINUOUS
 10
150.3554759739
 20
79.2183989751
 11
150.5594759739
 21
79.2183989751
  0
LINE
  5
28E
100
AcDbEntity
  8
0
100
AcDbLine
 62
7
  6
CONTINUOUS
 10
157.1401170151
 20
79.2600710894
 11
154.9001170151
 21
79.2600710894
  0
LINE
  5
28F
100
AcDbEntity
  8
0
100
AcDbLine
 62
7
  6
CONTINUOUS
 10
150.0914759739
 20
79.3881046026
 11
150.2594759739
 21
79.3881046026
  0
LINE
  5
290
100
AcDbEntity
  8
0
100
AcDbLine
 62
7
  6
CONTINUOUS
 10
149.7914759739
 20
79.5012416876
 11
149.9954759739
 21
79.5012416876
  0
LINE
  5
291
100
AcDbEntity
  8
0
100
AcDbLine
 62
7
  6
CONTINUOUS
 10
150.3554759739
 20
79.5012416876
 11
150.5594759739
 21
79.5012416876
  0
LINE
  5
292
100
AcDbEntity
  8
0
100
AcDbLine
 62
7
  6
CONTINUOUS
 10
150.0914759739
 20
79.670947315
 11
150.2594759739
 21
79.670947315
  0
LINE
  5
293
100
AcDbEntity
  8
0
100
AcDbLine
 62
7
  6
CONTINUOUS
 10
166.8954253036
 20
79.9820742988
 11
166.1274253036
 21
79.9820742988
  0
LINE
  5
294
100
AcDbEntity
  8
0
100
AcDbLine
 62
7
  6
CONTINUOUS
 10
154.9001170151
 20
80.01035857
 11
154.1321170151
 21
80.01035857
  0
LINE
  5
295
100
AcDbEntity
  8
0
100
AcDbLine
 62
7
  6
CONTINUOUS
 10
150.5594759739
 20
80.0669271125
 11
149.7914759739
 21
80.0669271125
  0
LINE
  5
296
100
AcDbEntity
  8
0
100
AcDbLine
 62
7
  6
CONTINUOUS
 10
149.5754759739
 20
80.3214855537
 11
150.7754759739
 21
80.3214855537
  0
LINE
  5
297
100
AcDbEntity
  8
0
100
AcDbLine
 62
7
  6
CONTINUOUS
 10
166.1274253036
 20
80.4572500557
 11
168.92662814
 21
80.4572500557
  0
LINE
  5
298
100
AcDbEntity
  8
0
100
AcDbLine
 62
7
  6
CONTINUOUS
 10
154.1321170151
 20
80.485534327
 11
157.1401170151
 21
80.485534327
  0
LINE
  5
299
100
AcDbEntity
  8
0
100
AcDbLine
 62
7
  6
CONTINUOUS
 10
149.5754759739
 20
80.6043282662
 11
150.7754759739
 21
80.6043282662
  0
LINE
  5
29A
100
AcDbEntity
  8
0
100
AcDbLine
 62
7
  6
CONTINUOUS
 10
166.1274253036
 20
80.7400927682
 11
168.92662814
 21
80.7400927682
  0
LINE
  5
29B
100
AcDbEntity
  8
0
100
AcDbLine
 62
7
  6
CONTINUOUS
 10
154.1321170151
 20
80.7683770394
 11
157.1401170151
 21
80.7683770394
  0
LINE
  5
29C
100
AcDbEntity
  8
0
100
AcDbLine
 62
7
  6
CONTINUOUS
 10
168.9097989576
 20
81.0003080637
 11
166.1274253036
 21
81.0003080637
  0
LINE
  5
29D
100
AcDbEntity
  8
0
100
AcDbLine
 62
7
  6
CONTINUOUS
 10
164.4474253036
 20
81.0003080637
 11
163.6794253036
 21
81.0003080637
  0
LINE
  5
29E
100
AcDbEntity
  8
0
100
AcDbLine
 62
7
  6
CONTINUOUS
 10
160.6601170151
 20
81.0003080637
 11
159.8921170151
 21
81.0003080637
  0
LINE
  5
29F
100
AcDbEntity
  8
0
100
AcDbLine
 62
7
  6
CONTINUOUS
 10
157.1401170151
 20
81.0003080637
 11
154.1321170151
 21
81.0003080637
  0
LINE
  5
2A0
100
AcDbEntity
  8
0
100
AcDbLine
 62
7
  6
CONTINUOUS
 10
152.0954759739
 20
81.0003080637
 11
148.2554759739
 21
81.0003080637
  0
LINE
  5
2A1
100
AcDbEntity
  8
RUNDUNGEN
100
AcDbLine
 62
7
  6
CONTINUOUS
 10
125.1331631989
 20
87.8887423456
 11
127.0259654389
 21
85.97729006
  0
LINE
  5
2A2
100
AcDbEntity
  8
RUNDUNGEN
100
AcDbLine
 62
7
  6
CONTINUOUS
 10
132.819087446
 20
80.1270876101
 11
144.8596229184
 21
67.9679150548
  0
LINE
  5
2A3
100
AcDbEntity
  8
RUNDUNGEN
100
AcDbLine
 62
7
  6
CONTINUOUS
 10
163.5410503836
 20
49.1024168674
 11
167.6189718434
 21
44.9843150761
  0
LINE
  5
2A4
100
AcDbEntity
  8
RUNDUNGEN
100
AcDbLine
 62
7
  6
CONTINUOUS
 10
174.8473886589
 20
85.5585122241
 11
166.3282073983
 21
89.7765420159
  0
LINE
  5
2A5
100
AcDbEntity
  8
RUNDUNGEN
100
AcDbLine
 62
7
  6
CONTINUOUS
 10
166.3282073983
 20
93.3120759219
 11
174.8473886589
 21
89.0940461301
  0
LINE
  5
2A6
100
AcDbEntity
  8
RUNDUNGEN
100
AcDbLine
 62
7
  6
CONTINUOUS
 10
136.3081311376
 20
84.616885719
 11
134.1858983231
 21
86.7600291908
  0
LINE
  5
2A7
100
AcDbEntity
  8
RUNDUNGEN
100
AcDbLine
 62
7
  6
CONTINUOUS
 10
186.2218983393
 20
45.9229401682
 11
174.0309574059
 21
58.2340001506
  0
LINE
  5
2A8
100
AcDbEntity
  8
RUNDUNGEN
100
AcDbLine
 62
7
  6
CONTINUOUS
 10
143.7148508262
 20
88.8488155759
 11
141.6810545256
 21
90.9026511564
  0
LINE
  5
2A9
100
AcDbEntity
  8
0
100
AcDbLine
 62
7
  6
CONTINUOUS
 10
178.8452901621
 20
119.4146239189
 11
179.1892783422
 21
119.4310960298
  0
LINE
  5
2AA
100
AcDbEntity
  8
0
100
AcDbLine
 62
7
  6
CONTINUOUS
 10
140.0452901621
 20
119.4146239189
 11
143.6058196537
 21
119.4146239189
  0
LINE
  5
2AB
100
AcDbEntity
  8
0
100
AcDbLine
 62
7
  6
CONTINUOUS
 10
175.2847606706
 20
119.4146239189
 11
178.8452901621
 21
119.4146239189
  0
LINE
  5
2AC
100
AcDbEntity
  8
0
100
AcDbLine
 62
7
  6
CONTINUOUS
 10
139.701267188
 20
119.4310993699
 11
140.0452901621
 21
119.4146239189
  0
LINE
  5
2AD
100
AcDbEntity
  8
RUNDUNGEN
100
AcDbLine
 62
7
  6
CONTINUOUS
 10
195.0687404176
 20
90.6923499522
 11
189.1708456987
 21
93.6125244234
  0
LINE
  5
2AE
100
AcDbEntity
  8
RUNDUNGEN
100
AcDbLine
 62
7
  6
CONTINUOUS
 10
195.0687404176
 20
94.2278838581
 11
189.1708456987
 21
97.1480583294
  0
LINE
  5
2AF
100
AcDbEntity
  8
RUNDUNGEN
100
AcDbLine
 62
7
  6
CONTINUOUS
 10
186.2218983393
 20
49.4584740741
 11
174.0309574059
 21
61.7695340566
  0
LINE
  5
2B0
100
AcDbEntity
  8
RUNDUNGEN
100
AcDbLine
 62
7
  6
CONTINUOUS
 10
143.7148508262
 20
92.3843494818
 11
141.6810545256
 21
94.4381850623
  0
LINE
  5
2B1
100
AcDbEntity
  8
0
100
AcDbLine
 62
7
  6
CONTINUOUS
 10
156.8201170151
 20
78.7170130815
 11
158.5584801486
 21
76.5879617491
  0
LINE
  5
2B2
100
AcDbEntity
  8
0
100
AcDbLine
 62
7
  6
CONTINUOUS
 10
156.8201170151
 20
78.999855794
 11
158.5584801486
 21
76.8708044615
  0
LINE
  5
2B3
100
AcDbEntity
  8
0
100
AcDbLine
 62
7
  6
CONTINUOUS
 10
159.4452901621
 20
76.5879617491
 11
157.6378358303
 21
78.8016321722
  0
LINE
  5
2B4
100
AcDbEntity
  8
BEZUGSACHSEN
100
AcDbLine
 62
7
  6
CONTINUOUS
 10
154.4452901621
 20
127.8693793717
 11
164.4452901621
 21
127.8693793717
  0
LINE
  5
2B5
100
AcDbEntity
  8
BEZUGSACHSEN
100
AcDbLine
 62
7
  6
CONTINUOUS
 10
154.4452901621
 20
132.7570882649
 11
164.4452901621
 21
132.7570882649
  0
LINE
  5
2B6
100
AcDbEntity
  8
0
100
AcDbLine
 62
7
  6
CONTINUOUS
 10
175.2921660704
 20
119.4146239858
 11
175.2861143712
 21
119.4168697321
  0
LINE
  5
2B7
100
AcDbEntity
  8
BEZUGSACHSEN
100
AcDbLine
 62
7
  6
CONTINUOUS
 10
154.4452901621
 20
137.7018719118
 11
164.4452901621
 21
137.7018719118
  0
LINE
  5
2B8
100
AcDbEntity
  8
BEZUGSACHSEN
100
AcDbLine
 62
7
  6
CONTINUOUS
 10
154.4452901621
 20
139.1693793717
 11
164.4452901621
 21
139.1693793717
  0
LINE
  5
2B9
100
AcDbEntity
  8
0
100
AcDbLine
 62
7
  6
CONTINUOUS
 10
176.6077733686
 20
150.5501034064
 11
176.3309341603
 21
150.4738435605
  0
LINE
  5
2BA
100
AcDbEntity
  8
0
100
AcDbLine
 62
7
  6
CONTINUOUS
 10
176.6077733686
 20
150.6553088025
 11
176.3309341603
 21
150.5790489566
  0
LINE
  5
2BB
100
AcDbEntity
  8
0
100
AcDbLine
 62
7
  6
CONTINUOUS
 10
175.7772573278
 20
151.7992066504
 11
176.0540957441
 21
151.8754664962
  0
LINE
  5
2BC
100
AcDbEntity
  8
0
100
AcDbLine
 62
7
  6
CONTINUOUS
 10
176.6077733686
 20
152.1515603293
 11
176.3309341603
 21
152.0753004835
  0
LINE
  5
2BD
100
AcDbEntity
  8
0
100
AcDbLine
 62
7
  6
CONTINUOUS
 10
176.6077733686
 20
152.2567657254
 11
176.3309341603
 21
152.1805058796
  0
LINE
  5
2BE
100
AcDbEntity
  8
0
100
AcDbLine
 62
7
  6
CONTINUOUS
 10
170.3789026663
 20
150.6263632522
 11
170.1020642501
 21
150.5501034064
  0
LINE
  5
2BF
100
AcDbEntity
  8
0
100
AcDbLine
 62
7
  6
CONTINUOUS
 10
170.3789026663
 20
150.7315686483
 11
170.1020642501
 21
150.6553088025
  0
LINE
  5
2C0
100
AcDbEntity
  8
0
100
AcDbLine
 62
7
  6
CONTINUOUS
 10
175.7772573278
 20
153.3244037809
 11
176.0540957441
 21
153.4006636267
  0
LINE
  5
2C1
100
AcDbEntity
  8
0
100
AcDbLine
 62
7
  6
CONTINUOUS
 10
169.2023384071
 20
153.248143935
 11
169.4791772194
 21
153.3244037809
  0
LINE
  5
2C2
100
AcDbEntity
  8
0
100
AcDbLine
 62
7
  6
CONTINUOUS
 10
151.8569229888
 20
150.6263632522
 11
151.5390699586
 21
150.5501034064
  0
LINE
  5
2C3
100
AcDbEntity
  8
0
100
AcDbLine
 62
7
  6
CONTINUOUS
 10
151.8569229888
 20
150.7315686483
 11
151.5390699586
 21
150.6553088025
  0
LINE
  5
2C4
100
AcDbEntity
  8
0
100
AcDbLine
 62
7
  6
CONTINUOUS
 10
148.0426834435
 20
150.6263632522
 11
147.7248299586
 21
150.5501034064
  0
LINE
  5
2C5
100
AcDbEntity
  8
0
100
AcDbLine
 62
7
  6
CONTINUOUS
 10
148.0426834435
 20
150.7315686483
 11
147.7248299586
 21
150.6553088025
  0
LINE
  5
2C6
100
AcDbEntity
  8
0
100
AcDbLine
 62
7
  6
CONTINUOUS
 10
176.4001443584
 20
150.197749674
 11
176.7461921808
 21
150.2740095265
  0
LINE
  5
2C7
100
AcDbEntity
  8
0
100
AcDbLine
 62
7
  6
CONTINUOUS
 10
170.1020642501
 20
150.197749674
 11
170.4481124684
 21
150.2740095265
  0
LINE
  5
2C8
100
AcDbEntity
  8
0
100
AcDbLine
 62
7
  6
CONTINUOUS
 10
176.0540957441
 20
153.6767574598
 11
175.7080471297
 21
153.600497614
  0
LINE
  5
2C9
100
AcDbEntity
  8
0
100
AcDbLine
 62
7
  6
CONTINUOUS
 10
176.0540957441
 20
153.7819628559
 11
175.7080471297
 21
153.7057030101
  0
LINE
  5
2CA
100
AcDbEntity
  8
0
100
AcDbLine
 62
7
  6
CONTINUOUS
 10
169.4791772194
 20
153.6767574598
 11
169.1331286051
 21
153.600497614
  0
LINE
  5
2CB
100
AcDbEntity
  8
0
100
AcDbLine
 62
7
  6
CONTINUOUS
 10
169.4791772194
 20
153.7819628559
 11
169.1331286051
 21
153.7057030101
  0
LINE
  5
2CC
100
AcDbEntity
  8
0
100
AcDbLine
 62
7
  6
CONTINUOUS
 10
151.5390699586
 20
150.197749674
 11
151.9363869283
 21
150.2740095265
  0
LINE
  5
2CD
100
AcDbEntity
  8
0
100
AcDbLine
 62
7
  6
CONTINUOUS
 10
147.7248299586
 20
150.197749674
 11
148.1221464737
 21
150.2740095265
  0
LINE
  5
2CE
100
AcDbEntity
  8
RUNDUNGEN
100
AcDbLine
 62
7
  6
CONTINUOUS
 10
140.0452901621
 20
145.1411620579
 11
150.4348005142
 21
145.1411620579
  0
LINE
  5
2CF
100
AcDbEntity
  8
RUNDUNGEN
100
AcDbLine
 62
7
  6
CONTINUOUS
 10
168.4557798101
 20
145.1411620579
 11
178.8452901621
 21
145.1411620579
  0
LINE
  5
2D0
100
AcDbEntity
  8
RUNDUNGEN
100
AcDbLine
 62
7
  6
CONTINUOUS
 10
178.8452901621
 20
148.9978877161
 11
163.6170552349
 21
148.9978877161
  0
LINE
  5
2D1
100
AcDbEntity
  8
RUNDUNGEN
100
AcDbLine
 62
7
  6
CONTINUOUS
 10
155.2735250893
 20
148.9978877161
 11
140.0452901621
 21
148.9978877161
  0
LINE
  5
2D2
100
AcDbEntity
  8
0
100
AcDbLine
 62
7
  6
CONTINUOUS
 10
142.4802499586
 20
150.197749674
 11
142.9570299586
 21
150.197749674
  0
LINE
  5
2D3
100
AcDbEntity
  8
0
100
AcDbLine
 62
7
  6
CONTINUOUS
 10
144.9436132161
 20
150.197749674
 11
145.499856701
 21
150.197749674
  0
LINE
  5
2D4
100
AcDbEntity
  8
0
100
AcDbLine
 62
7
  6
CONTINUOUS
 10
147.4069764737
 20
150.197749674
 11
147.7248299586
 21
150.197749674
  0
LINE
  5
2D5
100
AcDbEntity
  8
0
100
AcDbLine
 62
7
  6
CONTINUOUS
 10
149.6319499586
 20
150.197749674
 11
151.5390699586
 21
150.197749674
  0
LINE
  5
2D6
100
AcDbEntity
  8
0
100
AcDbLine
 62
7
  6
CONTINUOUS
 10
164.2192421621
 20
150.197749674
 11
164.6345001825
 21
150.197749674
  0
LINE
  5
2D7
100
AcDbEntity
  8
0
100
AcDbLine
 62
7
  6
CONTINUOUS
 10
165.1881775101
 20
150.197749674
 11
165.6034355305
 21
150.197749674
  0
LINE
  5
2D8
100
AcDbEntity
  8
0
100
AcDbLine
 62
7
  6
CONTINUOUS
 10
167.3336773153
 20
150.197749674
 11
167.8181451378
 21
150.197749674
  0
LINE
  5
2D9
100
AcDbEntity
  8
0
100
AcDbLine
 62
7
  6
CONTINUOUS
 10
169.4791772194
 20
150.197749674
 11
170.1020642501
 21
150.197749674
  0
LINE
  5
2DA
100
AcDbEntity
  8
0
100
AcDbLine
 62
7
  6
CONTINUOUS
 10
175.984886338
 20
150.197749674
 11
176.4001443584
 21
150.197749674
  0
LINE
  5
2DB
100
AcDbEntity
  8
0
100
AcDbLine
 62
7
  6
CONTINUOUS
 10
176.3309341603
 20
150.4738435605
 11
176.0540957441
 21
150.4738435605
  0
LINE
  5
2DC
100
AcDbEntity
  8
0
100
AcDbLine
 62
7
  6
CONTINUOUS
 10
170.1020642501
 20
150.5501034064
 11
169.4791772194
 21
150.5501034064
  0
LINE
  5
2DD
100
AcDbEntity
  8
0
100
AcDbLine
 62
7
  6
CONTINUOUS
 10
151.5390699586
 20
150.5501034064
 11
150.1087299586
 21
150.5501034064
  0
LINE
  5
2DE
100
AcDbEntity
  8
0
100
AcDbLine
 62
7
  6
CONTINUOUS
 10
147.7248299586
 20
150.5501034064
 11
147.4069764737
 21
150.5501034064
  0
LINE
  5
2DF
100
AcDbEntity
  8
0
100
AcDbLine
 62
7
  6
CONTINUOUS
 10
176.3309341603
 20
150.5790489566
 11
176.0540957441
 21
150.5790489566
  0
LINE
  5
2E0
100
AcDbEntity
  8
0
100
AcDbLine
 62
7
  6
CONTINUOUS
 10
170.1020642501
 20
150.6553088025
 11
169.4791772194
 21
150.6553088025
  0
LINE
  5
2E1
100
AcDbEntity
  8
0
100
AcDbLine
 62
7
  6
CONTINUOUS
 10
151.5390699586
 20
150.6553088025
 11
150.1087299586
 21
150.6553088025
  0
LINE
  5
2E2
100
AcDbEntity
  8
0
100
AcDbLine
 62
7
  6
CONTINUOUS
 10
147.7248299586
 20
150.6553088025
 11
147.4069764737
 21
150.6553088025
  0
LINE
  5
2E3
100
AcDbEntity
  8
0
100
AcDbLine
 62
7
  6
CONTINUOUS
 10
170.032854448
 20
151.7229468045
 11
170.6557414786
 21
151.7229468045
  0
LINE
  5
2E4
100
AcDbEntity
  8
0
100
AcDbLine
 62
7
  6
CONTINUOUS
 10
142.9570299586
 20
151.7992066504
 11
144.3079065873
 21
151.7992066504
  0
LINE
  5
2E5
100
AcDbEntity
  8
0
100
AcDbLine
 62
7
  6
CONTINUOUS
 10
165.6034355305
 20
151.7992066504
 11
166.7799998887
 21
151.7992066504
  0
LINE
  5
2E6
100
AcDbEntity
  8
0
100
AcDbLine
 62
7
  6
CONTINUOUS
 10
176.0540957441
 20
151.8754664962
 11
176.3309341603
 21
151.8754664962
  0
LINE
  5
2E7
100
AcDbEntity
  8
0
100
AcDbLine
 62
7
  6
CONTINUOUS
 10
176.3309341603
 20
152.0753004835
 11
176.0540957441
 21
152.0753004835
  0
LINE
  5
2E8
100
AcDbEntity
  8
0
100
AcDbLine
 62
7
  6
CONTINUOUS
 10
171.070999499
 20
152.0753004835
 11
170.032854448
 21
152.0753004835
  0
LINE
  5
2E9
100
AcDbEntity
  8
0
100
AcDbLine
 62
7
  6
CONTINUOUS
 10
166.9184192948
 20
152.1515603293
 11
165.6034355305
 21
152.1515603293
  0
LINE
  5
2EA
100
AcDbEntity
  8
0
100
AcDbLine
 62
7
  6
CONTINUOUS
 10
144.4668332161
 20
152.1515603293
 11
142.9570299586
 21
152.1515603293
  0
LINE
  5
2EB
100
AcDbEntity
  8
0
100
AcDbLine
 62
7
  6
CONTINUOUS
 10
176.3309341603
 20
152.1805058796
 11
176.0540957441
 21
152.1805058796
  0
LINE
  5
2EC
100
AcDbEntity
  8
0
100
AcDbLine
 62
7
  6
CONTINUOUS
 10
171.070999499
 20
152.1805058796
 11
170.032854448
 21
152.1805058796
  0
LINE
  5
2ED
100
AcDbEntity
  8
0
100
AcDbLine
 62
7
  6
CONTINUOUS
 10
166.9184192948
 20
152.2567657254
 11
165.6034355305
 21
152.2567657254
  0
LINE
  5
2EE
100
AcDbEntity
  8
0
100
AcDbLine
 62
7
  6
CONTINUOUS
 10
144.4668332161
 20
152.2567657254
 11
142.9570299586
 21
152.2567657254
  0
LINE
  5
2EF
100
AcDbEntity
  8
0
100
AcDbLine
 62
7
  6
CONTINUOUS
 10
170.6557414786
 20
152.8668444922
 11
171.070999499
 21
152.8668444922
  0
LINE
  5
2F0
100
AcDbEntity
  8
0
100
AcDbLine
 62
7
  6
CONTINUOUS
 10
150.1087299586
 20
153.3244037809
 11
151.5390699586
 21
153.3244037809
  0
LINE
  5
2F1
100
AcDbEntity
  8
0
100
AcDbLine
 62
7
  6
CONTINUOUS
 10
169.4791772194
 20
153.3244037809
 11
170.1020642501
 21
153.3244037809
  0
LINE
  5
2F2
100
AcDbEntity
  8
0
100
AcDbLine
 62
7
  6
CONTINUOUS
 10
142.9570299586
 20
153.4006636267
 11
144.4668332161
 21
153.4006636267
  0
LINE
  5
2F3
100
AcDbEntity
  8
0
100
AcDbLine
 62
7
  6
CONTINUOUS
 10
165.6034355305
 20
153.4006636267
 11
166.9184192948
 21
153.4006636267
  0
LINE
  5
2F4
100
AcDbEntity
  8
0
100
AcDbLine
 62
7
  6
CONTINUOUS
 10
176.0540957441
 20
153.4006636267
 11
176.3309341603
 21
153.4006636267
  0
LINE
  5
2F5
100
AcDbEntity
  8
0
100
AcDbLine
 62
7
  6
CONTINUOUS
 10
176.3309341603
 20
153.6767574598
 11
176.0540957441
 21
153.6767574598
  0
LINE
  5
2F6
100
AcDbEntity
  8
0
100
AcDbLine
 62
7
  6
CONTINUOUS
 10
170.1020642501
 20
153.6767574598
 11
169.4791772194
 21
153.6767574598
  0
LINE
  5
2F7
100
AcDbEntity
  8
0
100
AcDbLine
 62
7
  6
CONTINUOUS
 10
166.8492096908
 20
153.6767574598
 11
165.1881775101
 21
153.6767574598
  0
LINE
  5
2F8
100
AcDbEntity
  8
0
100
AcDbLine
 62
7
  6
CONTINUOUS
 10
164.6345001825
 20
153.6767574598
 11
164.2192421621
 21
153.6767574598
  0
LINE
  5
2F9
100
AcDbEntity
  8
0
100
AcDbLine
 62
7
  6
CONTINUOUS
 10
151.5390699586
 20
153.6767574598
 11
149.6319499586
 21
153.6767574598
  0
LINE
  5
2FA
100
AcDbEntity
  8
0
100
AcDbLine
 62
7
  6
CONTINUOUS
 10
148.9962434435
 20
153.6767574598
 11
148.5194634435
 21
153.6767574598
  0
LINE
  5
2FB
100
AcDbEntity
  8
0
100
AcDbLine
 62
7
  6
CONTINUOUS
 10
146.6123434435
 20
153.6767574598
 11
146.1355632161
 21
153.6767574598
  0
LINE
  5
2FC
100
AcDbEntity
  8
0
100
AcDbLine
 62
7
  6
CONTINUOUS
 10
144.3873699586
 20
153.6767574598
 11
142.4802499586
 21
153.6767574598
  0
LINE
  5
2FD
100
AcDbEntity
  8
0
100
AcDbLine
 62
7
  6
CONTINUOUS
 10
176.3309341603
 20
153.7819628559
 11
176.0540957441
 21
153.7819628559
  0
LINE
  5
2FE
100
AcDbEntity
  8
0
100
AcDbLine
 62
7
  6
CONTINUOUS
 10
170.1020642501
 20
153.7819628559
 11
169.4791772194
 21
153.7819628559
  0
LINE
  5
2FF
100
AcDbEntity
  8
0
100
AcDbLine
 62
7
  6
CONTINUOUS
 10
166.8492096908
 20
153.7819628559
 11
165.1881775101
 21
153.7819628559
  0
LINE
  5
300
100
AcDbEntity
  8
0
100
AcDbLine
 62
7
  6
CONTINUOUS
 10
164.6345001825
 20
153.7819628559
 11
164.2192421621
 21
153.7819628559
  0
LINE
  5
301
100
AcDbEntity
  8
0
100
AcDbLine
 62
7
  6
CONTINUOUS
 10
151.5390699586
 20
153.7819628559
 11
149.6319499586
 21
153.7819628559
  0
LINE
  5
302
100
AcDbEntity
  8
0
100
AcDbLine
 62
7
  6
CONTINUOUS
 10
148.9962434435
 20
153.7819628559
 11
148.5194634435
 21
153.7819628559
  0
LINE
  5
303
100
AcDbEntity
  8
0
100
AcDbLine
 62
7
  6
CONTINUOUS
 10
146.6123434435
 20
153.7819628559
 11
146.1355632161
 21
153.7819628559
  0
LINE
  5
304
100
AcDbEntity
  8
0
100
AcDbLine
 62
7
  6
CONTINUOUS
 10
144.3873699586
 20
153.7819628559
 11
142.4802499586
 21
153.7819628559
  0
LINE
  5
305
100
AcDbEntity
  8
0
100
AcDbLine
 62
7
  6
CONTINUOUS
 10
147.0096599586
 20
150.2740095265
 11
147.4069764737
 21
150.197749674
  0
LINE
  5
306
100
AcDbEntity
  8
0
100
AcDbLine
 62
7
  6
CONTINUOUS
 10
144.784686701
 20
153.600497614
 11
144.3873699586
 21
153.6767574598
  0
LINE
  5
307
100
AcDbEntity
  8
0
100
AcDbLine
 62
7
  6
CONTINUOUS
 10
144.784686701
 20
153.7057030101
 11
144.3873699586
 21
153.7819628559
  0
LINE
  5
308
100
AcDbEntity
  8
0
100
AcDbLine
 62
7
  6
CONTINUOUS
 10
151.9363869283
 20
153.600497614
 11
151.5390699586
 21
153.6767574598
  0
LINE
  5
309
100
AcDbEntity
  8
0
100
AcDbLine
 62
7
  6
CONTINUOUS
 10
151.9363869283
 20
153.7057030101
 11
151.5390699586
 21
153.7819628559
  0
LINE
  5
30A
100
AcDbEntity
  8
0
100
AcDbLine
 62
7
  6
CONTINUOUS
 10
169.1331286051
 20
150.2740095265
 11
169.4791772194
 21
150.197749674
  0
LINE
  5
30B
100
AcDbEntity
  8
0
100
AcDbLine
 62
7
  6
CONTINUOUS
 10
175.6388377236
 20
150.2740095265
 11
175.984886338
 21
150.197749674
  0
LINE
  5
30C
100
AcDbEntity
  8
0
100
AcDbLine
 62
7
  6
CONTINUOUS
 10
147.4069764737
 20
150.5501034064
 11
147.0891234435
 21
150.6263632522
  0
LINE
  5
30D
100
AcDbEntity
  8
0
100
AcDbLine
 62
7
  6
CONTINUOUS
 10
147.4069764737
 20
150.6553088025
 11
147.0891234435
 21
150.7315686483
  0
LINE
  5
30E
100
AcDbEntity
  8
0
100
AcDbLine
 62
7
  6
CONTINUOUS
 10
151.5390699586
 20
153.3244037809
 11
151.8569229888
 21
153.248143935
  0
LINE
  5
30F
100
AcDbEntity
  8
0
100
AcDbLine
 62
7
  6
CONTINUOUS
 10
169.4791772194
 20
150.5501034064
 11
169.2023384071
 21
150.6263632522
  0
LINE
  5
310
100
AcDbEntity
  8
0
100
AcDbLine
 62
7
  6
CONTINUOUS
 10
169.4791772194
 20
150.6553088025
 11
169.2023384071
 21
150.7315686483
  0
LINE
  5
311
100
AcDbEntity
  8
0
100
AcDbLine
 62
7
  6
CONTINUOUS
 10
144.4668332161
 20
153.4006636267
 11
144.7052232161
 21
153.3244037809
  0
LINE
  5
312
100
AcDbEntity
  8
0
100
AcDbLine
 62
7
  6
CONTINUOUS
 10
146.6918064737
 20
150.4265292382
 11
147.0096599586
 21
150.2740095265
  0
LINE
  5
313
100
AcDbEntity
  8
0
100
AcDbLine
 62
7
  6
CONTINUOUS
 10
152.2542399586
 20
153.4479779223
 11
151.9363869283
 21
153.600497614
  0
LINE
  5
314
100
AcDbEntity
  8
0
100
AcDbLine
 62
7
  6
CONTINUOUS
 10
152.2542399586
 20
153.5531833184
 11
151.9363869283
 21
153.7057030101
  0
LINE
  5
315
100
AcDbEntity
  8
0
100
AcDbLine
 62
7
  6
CONTINUOUS
 10
147.0891234435
 20
150.6263632522
 11
146.8507334435
 21
150.7788829973
  0
LINE
  5
316
100
AcDbEntity
  8
0
100
AcDbLine
 62
7
  6
CONTINUOUS
 10
147.0891234435
 20
150.7315686483
 11
146.8507334435
 21
150.8840883934
  0
LINE
  5
317
100
AcDbEntity
  8
0
100
AcDbLine
 62
7
  6
CONTINUOUS
 10
145.1025399586
 20
153.3717180765
 11
144.784686701
 21
153.600497614
  0
LINE
  5
318
100
AcDbEntity
  8
0
100
AcDbLine
 62
7
  6
CONTINUOUS
 10
145.1025399586
 20
153.4769234725
 11
144.784686701
 21
153.7057030101
  0
LINE
  5
319
100
AcDbEntity
  8
0
100
AcDbLine
 62
7
  6
CONTINUOUS
 10
146.3739534435
 20
150.7315686483
 11
146.6918064737
 21
150.4265292382
  0
LINE
  5
31A
100
AcDbEntity
  8
0
100
AcDbLine
 62
7
  6
CONTINUOUS
 10
144.7052232161
 20
153.3244037809
 11
144.8641499586
 21
153.1718840892
  0
LINE
  5
31B
100
AcDbEntity
  8
RUNDUNGEN
100
AcDbLine
 62
7
  6
CONTINUOUS
 10
124.4097713761
 20
89.5110614963
 11
124.4097713761
 21
93.0465954023
  0
LINE
  5
31C
100
AcDbEntity
  8
RUNDUNGEN
100
AcDbLine
 62
7
  6
CONTINUOUS
 10
142.4452901621
 20
157.4312481441
 11
176.4454355785
 21
157.4312481441
  0
LINE
  5
31D
100
AcDbEntity
  8
0
100
AcDbLine
 62
7
  6
CONTINUOUS
 10
167.1952579091
 20
153.600497614
 11
166.8492096908
 21
153.6767574598
  0
LINE
  5
31E
100
AcDbEntity
  8
0
100
AcDbLine
 62
7
  6
CONTINUOUS
 10
167.1952579091
 20
153.7057030101
 11
166.8492096908
 21
153.7819628559
  0
LINE
  5
31F
100
AcDbEntity
  8
0
100
AcDbLine
 62
7
  6
CONTINUOUS
 10
170.4481124684
 20
153.600497614
 11
170.1020642501
 21
153.6767574598
  0
LINE
  5
320
100
AcDbEntity
  8
0
100
AcDbLine
 62
7
  6
CONTINUOUS
 10
170.4481124684
 20
153.7057030101
 11
170.1020642501
 21
153.7819628559
  0
LINE
  5
321
100
AcDbEntity
  8
0
100
AcDbLine
 62
7
  6
CONTINUOUS
 10
176.6769827747
 20
153.600497614
 11
176.3309341603
 21
153.6767574598
  0
LINE
  5
322
100
AcDbEntity
  8
0
100
AcDbLine
 62
7
  6
CONTINUOUS
 10
176.6769827747
 20
153.7057030101
 11
176.3309341603
 21
153.7819628559
  0
LINE
  5
323
100
AcDbEntity
  8
0
100
AcDbLine
 62
7
  6
CONTINUOUS
 10
176.0540957441
 20
150.4738435605
 11
175.7772573278
 21
150.5501034064
  0
LINE
  5
324
100
AcDbEntity
  8
0
100
AcDbLine
 62
7
  6
CONTINUOUS
 10
176.0540957441
 20
150.5790489566
 11
175.7772573278
 21
150.6553088025
  0
LINE
  5
325
100
AcDbEntity
  8
0
100
AcDbLine
 62
7
  6
CONTINUOUS
 10
170.1020642501
 20
153.3244037809
 11
170.3789026663
 21
153.248143935
  0
LINE
  5
326
100
AcDbEntity
  8
0
100
AcDbLine
 62
7
  6
CONTINUOUS
 10
176.3309341603
 20
151.8754664962
 11
176.6077733686
 21
151.7992066504
  0
LINE
  5
327
100
AcDbEntity
  8
0
100
AcDbLine
 62
7
  6
CONTINUOUS
 10
176.0540957441
 20
152.0753004835
 11
175.7772573278
 21
152.1515603293
  0
LINE
  5
328
100
AcDbEntity
  8
0
100
AcDbLine
 62
7
  6
CONTINUOUS
 10
176.0540957441
 20
152.1805058796
 11
175.7772573278
 21
152.2567657254
  0
LINE
  5
329
100
AcDbEntity
  8
0
100
AcDbLine
 62
7
  6
CONTINUOUS
 10
176.3309341603
 20
153.4006636267
 11
176.6077733686
 21
153.3244037809
  0
LINE
  5
32A
100
AcDbEntity
  8
0
100
AcDbLine
 62
7
  6
CONTINUOUS
 10
166.9184192948
 20
153.4006636267
 11
167.1260483051
 21
153.3244037809
  0
LINE
  5
32B
100
AcDbEntity
  8
0
100
AcDbLine
 62
7
  6
CONTINUOUS
 10
168.8562901888
 20
150.4265292382
 11
169.1331286051
 21
150.2740095265
  0
LINE
  5
32C
100
AcDbEntity
  8
0
100
AcDbLine
 62
7
  6
CONTINUOUS
 10
175.7772573278
 20
150.5501034064
 11
175.5004181195
 21
150.7026230981
  0
LINE
  5
32D
100
AcDbEntity
  8
0
100
AcDbLine
 62
7
  6
CONTINUOUS
 10
175.7772573278
 20
150.6553088025
 11
175.5004181195
 21
150.8078284942
  0
LINE
  5
32E
100
AcDbEntity
  8
0
100
AcDbLine
 62
7
  6
CONTINUOUS
 10
170.7249512807
 20
153.4479779223
 11
170.4481124684
 21
153.600497614
  0
LINE
  5
32F
100
AcDbEntity
  8
0
100
AcDbLine
 62
7
  6
CONTINUOUS
 10
170.7249512807
 20
153.5531833184
 11
170.4481124684
 21
153.7057030101
  0
LINE
  5
330
100
AcDbEntity
  8
0
100
AcDbLine
 62
7
  6
CONTINUOUS
 10
175.3619993074
 20
152.1042460337
 11
175.5004181195
 21
152.0279861879
  0
LINE
  5
331
100
AcDbEntity
  8
0
100
AcDbLine
 62
7
  6
CONTINUOUS
 10
176.6077733686
 20
151.7992066504
 11
176.8846117849
 21
151.6466869587
  0
LINE
  5
332
100
AcDbEntity
  8
0
100
AcDbLine
 62
7
  6
CONTINUOUS
 10
177.0230313891
 20
151.846520946
 11
176.8846117849
 21
151.9227807918
  0
LINE
  5
333
100
AcDbEntity
  8
0
100
AcDbLine
 62
7
  6
CONTINUOUS
 10
177.0230313891
 20
151.951726342
 11
176.8846117849
 21
152.0279861879
  0
LINE
  5
334
100
AcDbEntity
  8
0
100
AcDbLine
 62
7
  6
CONTINUOUS
 10
151.8569229888
 20
153.248143935
 11
152.0953129888
 21
153.0956242433
  0
LINE
  5
335
100
AcDbEntity
  8
0
100
AcDbLine
 62
7
  6
CONTINUOUS
 10
169.2023384071
 20
150.6263632522
 11
168.9947093969
 21
150.7788829973
  0
LINE
  5
336
100
AcDbEntity
  8
0
100
AcDbLine
 62
7
  6
CONTINUOUS
 10
169.2023384071
 20
150.7315686483
 11
168.9947093969
 21
150.8840883934
  0
LINE
  5
337
100
AcDbEntity
  8
0
100
AcDbLine
 62
7
  6
CONTINUOUS
 10
152.5720929888
 20
153.1429385389
 11
152.2542399586
 21
153.4479779223
  0
LINE
  5
338
100
AcDbEntity
  8
0
100
AcDbLine
 62
7
  6
CONTINUOUS
 10
152.5720929888
 20
153.248143935
 11
152.2542399586
 21
153.5531833184
  0
LINE
  5
339
100
AcDbEntity
  8
0
100
AcDbLine
 62
7
  6
CONTINUOUS
 10
145.3409299586
 20
153.0666786931
 11
145.1025399586
 21
153.3717180765
  0
LINE
  5
33A
100
AcDbEntity
  8
0
100
AcDbLine
 62
7
  6
CONTINUOUS
 10
145.3409299586
 20
153.1718840892
 11
145.1025399586
 21
153.4769234725
  0
LINE
  5
33B
100
AcDbEntity
  8
0
100
AcDbLine
 62
7
  6
CONTINUOUS
 10
146.8507334435
 20
150.7788829973
 11
146.6918064737
 21
151.0076625349
  0
LINE
  5
33C
100
AcDbEntity
  8
0
100
AcDbLine
 62
7
  6
CONTINUOUS
 10
146.8507334435
 20
150.8840883934
 11
146.6918064737
 21
151.1128679309
  0
LINE
  5
33D
100
AcDbEntity
  8
0
100
AcDbLine
 62
7
  6
CONTINUOUS
 10
152.0953129888
 20
153.0956242433
 11
152.2542399586
 21
152.8668444922
  0
LINE
  5
33E
100
AcDbEntity
  8
0
100
AcDbLine
 62
7
  6
CONTINUOUS
 10
146.215026701
 20
151.0366080851
 11
146.3739534435
 21
150.7315686483
  0
LINE
  5
33F
100
AcDbEntity
  8
0
100
AcDbLine
 62
7
  6
CONTINUOUS
 10
132.585032334
 20
162.3810790586
 11
134.7446359039
 21
154.8605099192
  0
LINE
  5
340
100
AcDbEntity
  8
0
100
AcDbLine
 62
7
  6
CONTINUOUS
 10
132.585032334
 20
160.6611438293
 11
134.7446359039
 21
153.0343373033
  0
LINE
  5
341
100
AcDbEntity
  8
0
100
AcDbLine
 62
7
  6
CONTINUOUS
 10
134.7446359039
 20
146.1454719675
 11
136.4452901621
 21
139.2233739115
  0
LINE
  5
342
100
AcDbEntity
  8
0
100
AcDbLine
 62
7
  6
CONTINUOUS
 10
134.7446359039
 20
147.3425424691
 11
136.4452901621
 21
140.4204444132
  0
LINE
  5
343
100
AcDbEntity
  8
0
100
AcDbLine
 62
7
  6
CONTINUOUS
 10
130.9234313918
 20
166.6625603722
 11
130.9234313918
 21
168.0340670679
  0
LINE
  5
344
100
AcDbEntity
  8
RUNDUNGEN
100
AcDbLine
 62
7
  6
CONTINUOUS
 10
131.9452901621
 20
39.5355664149
 11
131.9452901621
 21
47.8361549235
  0
LINE
  5
345
100
AcDbEntity
  8
RUNDUNGEN
100
AcDbLine
 62
7
  6
CONTINUOUS
 10
132.6020698991
 20
80.6137833553
 11
132.6020698991
 21
84.1493172612
  0
LINE
  5
346
100
AcDbEntity
  8
0
100
AcDbLine
 62
7
  6
CONTINUOUS
 10
134.7446359039
 20
146.1454719675
 11
134.7446359039
 21
154.8605099192
  0
LINE
  5
347
100
AcDbEntity
  8
0
100
AcDbLine
 62
7
  6
CONTINUOUS
 10
136.4452901621
 20
123.831440569
 11
136.4452901621
 21
128.1688533485
  0
LINE
  5
348
100
AcDbEntity
  8
RUNDUNGEN
100
AcDbLine
 62
7
  6
CONTINUOUS
 10
136.4452901621
 20
128.1688533485
 11
136.4452901621
 21
151.5759858543
  0
LINE
  5
349
100
AcDbEntity
  8
RUNDUNGEN
100
AcDbLine
 62
7
  6
CONTINUOUS
 10
138.5452901621
 20
36.7071392901
 11
138.5452901621
 21
40.9497799773
  0
LINE
  5
34A
100
AcDbEntity
  8
0
100
AcDbLine
 62
7
  6
CONTINUOUS
 10
175.2927891093
 20
150.5027890841
 11
175.6388377236
 21
150.2740095265
  0
LINE
  5
34B
100
AcDbEntity
  8
0
100
AcDbLine
 62
7
  6
CONTINUOUS
 10
177.0230313891
 20
153.3717180765
 11
176.6769827747
 21
153.600497614
  0
LINE
  5
34C
100
AcDbEntity
  8
0
100
AcDbLine
 62
7
  6
CONTINUOUS
 10
177.0230313891
 20
153.4769234725
 11
176.6769827747
 21
153.7057030101
  0
LINE
  5
34D
100
AcDbEntity
  8
0
100
AcDbLine
 62
7
  6
CONTINUOUS
 10
170.3789026663
 20
153.248143935
 11
170.5865316765
 21
153.0956242433
  0
LINE
  5
34E
100
AcDbEntity
  8
0
100
AcDbLine
 62
7
  6
CONTINUOUS
 10
167.4720967214
 20
153.3717180765
 11
167.1952579091
 21
153.600497614
  0
LINE
  5
34F
100
AcDbEntity
  8
0
100
AcDbLine
 62
7
  6
CONTINUOUS
 10
167.4720967214
 20
153.4769234725
 11
167.1952579091
 21
153.7057030101
  0
LINE
  5
350
100
AcDbEntity
  8
0
100
AcDbLine
 62
7
  6
CONTINUOUS
 10
175.7772573278
 20
152.1515603293
 11
175.5004181195
 21
152.3803398669
  0
LINE
  5
351
100
AcDbEntity
  8
0
100
AcDbLine
 62
7
  6
CONTINUOUS
 10
175.7772573278
 20
152.2567657254
 11
175.5004181195
 21
152.4855452629
  0
LINE
  5
352
100
AcDbEntity
  8
0
100
AcDbLine
 62
7
  6
CONTINUOUS
 10
177.2998698053
 20
151.6177414084
 11
177.0230313891
 21
151.846520946
  0
LINE
  5
353
100
AcDbEntity
  8
0
100
AcDbLine
 62
7
  6
CONTINUOUS
 10
177.2998698053
 20
151.7229468045
 11
177.0230313891
 21
151.951726342
  0
LINE
  5
354
100
AcDbEntity
  8
0
100
AcDbLine
 62
7
  6
CONTINUOUS
 10
176.6077733686
 20
153.3244037809
 11
176.8846117849
 21
153.0956242433
  0
LINE
  5
355
100
AcDbEntity
  8
0
100
AcDbLine
 62
7
  6
CONTINUOUS
 10
168.5794513765
 20
150.7315686483
 11
168.8562901888
 21
150.4265292382
  0
LINE
  5
356
100
AcDbEntity
  8
0
100
AcDbLine
 62
7
  6
CONTINUOUS
 10
167.1260483051
 20
153.3244037809
 11
167.2644677112
 21
153.1718840892
  0
LINE
  5
357
100
AcDbEntity
  8
0
100
AcDbLine
 62
7
  6
CONTINUOUS
 10
171.001790093
 20
153.1429385389
 11
170.7249512807
 21
153.4479779223
  0
LINE
  5
358
100
AcDbEntity
  8
0
100
AcDbLine
 62
7
  6
CONTINUOUS
 10
171.001790093
 20
153.248143935
 11
170.7249512807
 21
153.5531833184
  0
LINE
  5
359
100
AcDbEntity
  8
0
100
AcDbLine
 62
7
  6
CONTINUOUS
 10
152.7310199586
 20
152.8378991555
 11
152.5720929888
 21
153.1429385389
  0
LINE
  5
35A
100
AcDbEntity
  8
0
100
AcDbLine
 62
7
  6
CONTINUOUS
 10
152.7310199586
 20
152.9431045516
 11
152.5720929888
 21
153.248143935
  0
LINE
  5
35B
100
AcDbEntity
  8
0
100
AcDbLine
 62
7
  6
CONTINUOUS
 10
145.4569600397
 20
150.197749674
 11
144.784686701
 21
151.846520946
  0
LINE
  5
35C
100
AcDbEntity
  8
0
100
AcDbLine
 62
7
  6
CONTINUOUS
 10
145.499856701
 20
150.197749674
 11
144.784686701
 21
151.951726342
  0
LINE
  5
35D
100
AcDbEntity
  8
0
100
AcDbLine
 62
7
  6
CONTINUOUS
 10
144.3079065873
 20
151.7992066504
 11
144.9436132161
 21
150.197749674
  0
LINE
  5
35E
100
AcDbEntity
  8
0
100
AcDbLine
 62
7
  6
CONTINUOUS
 10
144.8641499586
 20
153.1718840892
 11
144.9436132161
 21
152.9431045516
  0
LINE
  5
35F
100
AcDbEntity
  8
0
100
AcDbLine
 62
7
  6
CONTINUOUS
 10
145.4203932161
 20
152.8378991555
 11
145.3409299586
 21
153.0666786931
  0
LINE
  5
360
100
AcDbEntity
  8
0
100
AcDbLine
 62
7
  6
CONTINUOUS
 10
145.4203932161
 20
152.9431045516
 11
145.3409299586
 21
153.1718840892
  0
LINE
  5
361
100
AcDbEntity
  8
0
100
AcDbLine
 62
7
  6
CONTINUOUS
 10
146.6918064737
 20
151.0076625349
 11
146.6123434435
 21
151.3127019182
  0
LINE
  5
362
100
AcDbEntity
  8
0
100
AcDbLine
 62
7
  6
CONTINUOUS
 10
146.6918064737
 20
151.1128679309
 11
146.6123434435
 21
151.4179073143
  0
LINE
  5
363
100
AcDbEntity
  8
0
100
AcDbLine
 62
7
  6
CONTINUOUS
 10
146.1355632161
 20
151.4179073143
 11
146.215026701
 21
151.0366080851
  0
LINE
  5
364
100
AcDbEntity
  8
0
100
AcDbLine
 62
7
  6
CONTINUOUS
 10
140.1364901621
 20
120.0900665661
 11
140.1364901621
 21
120.6372987954
  0
LINE
  5
365
100
AcDbEntity
  8
0
100
AcDbLine
 62
7
  6
CONTINUOUS
 10
142.4802499586
 20
153.7819628559
 11
142.4802499586
 21
150.197749674
  0
LINE
  5
366
100
AcDbEntity
  8
0
100
AcDbLine
 62
7
  6
CONTINUOUS
 10
142.9570299586
 20
150.197749674
 11
142.9570299586
 21
151.7992066504
  0
LINE
  5
367
100
AcDbEntity
  8
0
100
AcDbLine
 62
7
  6
CONTINUOUS
 10
142.9570299586
 20
152.1515603293
 11
142.9570299586
 21
153.4006636267
  0
LINE
  5
368
100
AcDbEntity
  8
0
100
AcDbLine
 62
7
  6
CONTINUOUS
 10
144.3873699586
 20
153.7819628559
 11
144.3873699586
 21
153.6767574598
  0
LINE
  5
369
100
AcDbEntity
  8
0
100
AcDbLine
 62
7
  6
CONTINUOUS
 10
144.4668332161
 20
152.2567657254
 11
144.4668332161
 21
152.1515603293
  0
LINE
  5
36A
100
AcDbEntity
  8
0
100
AcDbLine
 62
7
  6
CONTINUOUS
 10
144.7052232161
 20
152.3330255713
 11
144.7052232161
 21
152.2278201752
  0
LINE
  5
36B
100
AcDbEntity
  8
0
100
AcDbLine
 62
7
  6
CONTINUOUS
 10
144.784686701
 20
153.7057030101
 11
144.784686701
 21
153.600497614
  0
LINE
  5
36C
100
AcDbEntity
  8
0
100
AcDbLine
 62
7
  6
CONTINUOUS
 10
144.784686701
 20
151.951726342
 11
144.784686701
 21
151.846520946
  0
LINE
  5
36D
100
AcDbEntity
  8
0
100
AcDbLine
 62
7
  6
CONTINUOUS
 10
144.8641499586
 20
152.4855452629
 11
144.8641499586
 21
152.3803398669
  0
LINE
  5
36E
100
AcDbEntity
  8
0
100
AcDbLine
 62
7
  6
CONTINUOUS
 10
144.9436132161
 20
152.9431045516
 11
144.9436132161
 21
152.6091194044
  0
LINE
  5
36F
100
AcDbEntity
  8
0
100
AcDbLine
 62
7
  6
CONTINUOUS
 10
145.1025399586
 20
153.4769234725
 11
145.1025399586
 21
153.3717180765
  0
LINE
  5
370
100
AcDbEntity
  8
0
100
AcDbLine
 62
7
  6
CONTINUOUS
 10
145.3409299586
 20
153.1718840892
 11
145.3409299586
 21
153.0666786931
  0
LINE
  5
371
100
AcDbEntity
  8
0
100
AcDbLine
 62
7
  6
CONTINUOUS
 10
145.4203932161
 20
152.6380649546
 11
145.4203932161
 21
152.9431045516
  0
LINE
  5
372
100
AcDbEntity
  8
0
100
AcDbLine
 62
7
  6
CONTINUOUS
 10
146.1355632161
 20
153.7819628559
 11
146.1355632161
 21
151.4179073143
  0
LINE
  5
373
100
AcDbEntity
  8
0
100
AcDbLine
 62
7
  6
CONTINUOUS
 10
146.6123434435
 20
151.3127019182
 11
146.6123434435
 21
153.7819628559
  0
LINE
  5
374
100
AcDbEntity
  8
0
100
AcDbLine
 62
7
  6
CONTINUOUS
 10
146.6918064737
 20
151.1128679309
 11
146.6918064737
 21
151.0076625349
  0
LINE
  5
375
100
AcDbEntity
  8
0
100
AcDbLine
 62
7
  6
CONTINUOUS
 10
146.8507334435
 20
150.8840883934
 11
146.8507334435
 21
150.7788829973
  0
LINE
  5
376
100
AcDbEntity
  8
0
100
AcDbLine
 62
7
  6
CONTINUOUS
 10
147.0891234435
 20
150.7315686483
 11
147.0891234435
 21
150.6263632522
  0
LINE
  5
377
100
AcDbEntity
  8
0
100
AcDbLine
 62
7
  6
CONTINUOUS
 10
147.4069764737
 20
150.6553088025
 11
147.4069764737
 21
150.5501034064
  0
LINE
  5
378
100
AcDbEntity
  8
KONSTRUKTIONSELEMENTE
100
AcDbLine
 62
7
  6
CONTINUOUS
 10
147.4889081006
 20
137.6706057227
 11
147.4889081006
 21
141.2324166325
  0
LINE
  5
379
100
AcDbEntity
  8
0
100
AcDbLine
 62
7
  6
CONTINUOUS
 10
147.7248299586
 20
150.6553088025
 11
147.7248299586
 21
150.5501034064
  0
LINE
  5
37A
100
AcDbEntity
  8
0
100
AcDbLine
 62
7
  6
CONTINUOUS
 10
147.7754759739
 20
80.6608968087
 11
147.7754759739
 21
76.927373004
  0
LINE
  5
37B
100
AcDbEntity
  8
0
100
AcDbLine
 62
7
  6
CONTINUOUS
 10
148.0426834435
 20
150.7315686483
 11
148.0426834435
 21
150.6263632522
  0
LINE
  5
37C
100
AcDbEntity
  8
0
100
AcDbLine
 62
7
  6
CONTINUOUS
 10
148.2810734435
 20
150.8840883934
 11
148.2810734435
 21
150.7788829973
  0
LINE
  5
37D
100
AcDbEntity
  8
0
100
AcDbLine
 62
7
  6
CONTINUOUS
 10
148.4399999586
 20
151.1128679309
 11
148.4399999586
 21
151.0076625349
  0
LINE
  5
37E
100
AcDbEntity
  8
0
100
AcDbLine
 62
7
  6
CONTINUOUS
 10
148.4452901621
 20
347.5521335647
 11
148.4452901621
 21
165.6789915762
  0
LINE
  5
37F
100
AcDbEntity
  8
0
100
AcDbLine
 62
7
  6
CONTINUOUS
 10
148.5194634435
 20
153.7819628559
 11
148.5194634435
 21
151.3127019182
  0
LINE
  5
380
100
AcDbEntity
  8
0
100
AcDbLine
 62
7
  6
CONTINUOUS
 10
148.9962434435
 20
151.4179073143
 11
148.9962434435
 21
153.7819628559
  0
LINE
  5
381
100
AcDbEntity
  8
0
100
AcDbLine
 62
7
  6
CONTINUOUS
 10
149.3354759739
 20
77.4364898865
 11
149.3354759739
 21
78.7375663639
  0
LINE
  5
382
100
AcDbEntity
  8
0
100
AcDbLine
 62
7
  6
CONTINUOUS
 10
149.3354759739
 20
79.1335461613
 11
149.3354759739
 21
80.4346226387
  0
LINE
  5
383
100
AcDbEntity
  8
0
100
AcDbLine
 62
7
  6
CONTINUOUS
 10
149.6319499586
 20
153.7819628559
 11
149.6319499586
 21
150.197749674
  0
LINE
  5
384
100
AcDbEntity
  8
0
100
AcDbLine
 62
7
  6
CONTINUOUS
 10
149.6954759739
 20
79.9990448615
 11
149.6954759739
 21
79.2862812261
  0
LINE
  5
385
100
AcDbEntity
  8
0
100
AcDbLine
 62
7
  6
CONTINUOUS
 10
149.6954759739
 20
78.3019885867
 11
149.6954759739
 21
77.5892249512
  0
LINE
  5
386
100
AcDbEntity
  8
0
100
AcDbLine
 62
7
  6
CONTINUOUS
 10
149.9954759739
 20
78.2680474612
 11
149.9954759739
 21
78.3698708377
  0
LINE
  5
387
100
AcDbEntity
  8
0
100
AcDbLine
 62
7
  6
CONTINUOUS
 10
149.9954759739
 20
78.6244292789
 11
149.9954759739
 21
78.9638405339
  0
LINE
  5
388
100
AcDbEntity
  8
0
100
AcDbLine
 62
7
  6
CONTINUOUS
 10
149.9954759739
 20
79.2183989751
 11
149.9954759739
 21
79.603065064
  0
LINE
  5
389
100
AcDbEntity
  8
0
100
AcDbLine
 62
7
  6
CONTINUOUS
 10
150.1087299586
 20
150.5501034064
 11
150.1087299586
 21
153.3244037809
  0
LINE
  5
38A
100
AcDbEntity
  8
0
100
AcDbLine
 62
7
  6
CONTINUOUS
 10
150.3554759739
 20
78.9638405339
 11
150.3554759739
 21
78.6244292789
  0
LINE
  5
38B
100
AcDbEntity
  8
0
100
AcDbLine
 62
7
  6
CONTINUOUS
 10
150.3554759739
 20
79.603065064
 11
150.3554759739
 21
79.2183989751
  0
LINE
  5
38C
100
AcDbEntity
  8
0
100
AcDbLine
 62
7
  6
CONTINUOUS
 10
150.3554759739
 20
78.3698708377
 11
150.3554759739
 21
78.2680474612
  0
LINE
  5
38D
100
AcDbEntity
  8
0
100
AcDbLine
 62
7
  6
CONTINUOUS
 10
175.0851600991
 20
150.7315686483
 11
175.2927891093
 21
150.5027890841
  0
LINE
  5
38E
100
AcDbEntity
  8
0
100
AcDbLine
 62
7
  6
CONTINUOUS
 10
175.1543702972
 20
152.3330255713
 11
175.3619993074
 21
152.1042460337
  0
LINE
  5
38F
100
AcDbEntity
  8
0
100
AcDbLine
 62
7
  6
CONTINUOUS
 10
177.2306603993
 20
153.1429385389
 11
177.0230313891
 21
153.3717180765
  0
LINE
  5
390
100
AcDbEntity
  8
0
100
AcDbLine
 62
7
  6
CONTINUOUS
 10
177.2306603993
 20
153.248143935
 11
177.0230313891
 21
153.4769234725
  0
LINE
  5
391
100
AcDbEntity
  8
0
100
AcDbLine
 62
7
  6
CONTINUOUS
 10
167.6797255336
 20
153.0666786931
 11
167.4720967214
 21
153.3717180765
  0
LINE
  5
392
100
AcDbEntity
  8
0
100
AcDbLine
 62
7
  6
CONTINUOUS
 10
167.6797255336
 20
153.1718840892
 11
167.4720967214
 21
153.4769234725
  0
LINE
  5
393
100
AcDbEntity
  8
0
100
AcDbLine
 62
7
  6
CONTINUOUS
 10
175.5004181195
 20
150.7026230981
 11
175.2927891093
 21
151.0076625349
  0
LINE
  5
394
100
AcDbEntity
  8
0
100
AcDbLine
 62
7
  6
CONTINUOUS
 10
175.5004181195
 20
150.8078284942
 11
175.2927891093
 21
151.1128679309
  0
LINE
  5
395
100
AcDbEntity
  8
0
100
AcDbLine
 62
7
  6
CONTINUOUS
 10
176.8846117849
 20
151.6466869587
 11
177.0922407951
 21
151.3416474685
  0
LINE
  5
396
100
AcDbEntity
  8
0
100
AcDbLine
 62
7
  6
CONTINUOUS
 10
168.9947093969
 20
150.7788829973
 11
168.8562901888
 21
151.0076625349
  0
LINE
  5
397
100
AcDbEntity
  8
0
100
AcDbLine
 62
7
  6
CONTINUOUS
 10
168.9947093969
 20
150.8840883934
 11
168.8562901888
 21
151.1128679309
  0
LINE
  5
398
100
AcDbEntity
  8
0
100
AcDbLine
 62
7
  6
CONTINUOUS
 10
175.5004181195
 20
152.3803398669
 11
175.3619993074
 21
152.6091194044
  0
LINE
  5
399
100
AcDbEntity
  8
0
100
AcDbLine
 62
7
  6
CONTINUOUS
 10
175.5004181195
 20
152.4855452629
 11
175.3619993074
 21
152.7143248005
  0
LINE
  5
39A
100
AcDbEntity
  8
0
100
AcDbLine
 62
7
  6
CONTINUOUS
 10
168.4410321684
 20
151.0366080851
 11
168.5794513765
 21
150.7315686483
  0
LINE
  5
39B
100
AcDbEntity
  8
0
100
AcDbLine
 62
7
  6
CONTINUOUS
 10
152.2542399586
 20
152.8668444922
 11
152.3337029888
 21
152.5618051088
  0
LINE
  5
39C
100
AcDbEntity
  8
0
100
AcDbLine
 62
7
  6
CONTINUOUS
 10
152.8104829888
 20
152.4565997127
 11
152.7310199586
 21
152.8378991555
  0
LINE
  5
39D
100
AcDbEntity
  8
0
100
AcDbLine
 62
7
  6
CONTINUOUS
 10
152.8104829888
 20
152.5618051088
 11
152.7310199586
 21
152.9431045516
  0
LINE
  5
39E
100
AcDbEntity
  8
0
100
AcDbLine
 62
7
  6
CONTINUOUS
 10
150.6554759739
 20
77.5892249512
 11
150.6554759739
 21
78.3019885867
  0
LINE
  5
39F
100
AcDbEntity
  8
0
100
AcDbLine
 62
7
  6
CONTINUOUS
 10
150.6554759739
 20
79.2862812261
 11
150.6554759739
 21
79.9990448615
  0
LINE
  5
3A0
100
AcDbEntity
  8
0
100
AcDbLine
 62
7
  6
CONTINUOUS
 10
151.0154759739
 20
80.4346226387
 11
151.0154759739
 21
79.1335461613
  0
LINE
  5
3A1
100
AcDbEntity
  8
0
100
AcDbLine
 62
7
  6
CONTINUOUS
 10
151.0154759739
 20
78.7375663639
 11
151.0154759739
 21
77.4364898865
  0
LINE
  5
3A2
100
AcDbEntity
  8
KONSTRUKTIONSELEMENTE
100
AcDbLine
 62
7
  6
CONTINUOUS
 10
151.4452901621
 20
106.0036038464
 11
151.4452901621
 21
116.6102055642
  0
LINE
  5
3A3
100
AcDbEntity
  8
0
100
AcDbLine
 62
7
  6
CONTINUOUS
 10
151.5390699586
 20
153.7819628559
 11
151.5390699586
 21
153.6767574598
  0
LINE
  5
3A4
100
AcDbEntity
  8
0
100
AcDbLine
 62
7
  6
CONTINUOUS
 10
151.5390699586
 20
150.6553088025
 11
151.5390699586
 21
150.5501034064
  0
LINE
  5
3A5
100
AcDbEntity
  8
0
100
AcDbLine
 62
7
  6
CONTINUOUS
 10
151.8569229888
 20
150.7315686483
 11
151.8569229888
 21
150.6263632522
  0
LINE
  5
3A6
100
AcDbEntity
  8
0
100
AcDbLine
 62
7
  6
CONTINUOUS
 10
151.9363869283
 20
153.7057030101
 11
151.9363869283
 21
153.600497614
  0
LINE
  5
3A7
100
AcDbEntity
  8
0
100
AcDbLine
 62
7
  6
CONTINUOUS
 10
152.0953129888
 20
150.8840883934
 11
152.0953129888
 21
150.7788829973
  0
LINE
  5
3A8
100
AcDbEntity
  8
0
100
AcDbLine
 62
7
  6
CONTINUOUS
 10
152.2542399586
 20
153.5531833184
 11
152.2542399586
 21
153.4479779223
  0
LINE
  5
3A9
100
AcDbEntity
  8
0
100
AcDbLine
 62
7
  6
CONTINUOUS
 10
152.2542399586
 20
151.1128679309
 11
152.2542399586
 21
151.0076625349
  0
LINE
  5
3AA
100
AcDbEntity
  8
0
100
AcDbLine
 62
7
  6
CONTINUOUS
 10
152.3337029888
 20
152.5618051088
 11
152.3337029888
 21
151.3127019182
  0
LINE
  5
3AB
100
AcDbEntity
  8
0
100
AcDbLine
 62
7
  6
CONTINUOUS
 10
152.5720929888
 20
153.248143935
 11
152.5720929888
 21
153.1429385389
  0
LINE
  5
3AC
100
AcDbEntity
  8
0
100
AcDbLine
 62
7
  6
CONTINUOUS
 10
152.5754759739
 20
76.927373004
 11
152.5754759739
 21
80.6608968087
  0
LINE
  5
3AD
100
AcDbEntity
  8
0
100
AcDbLine
 62
7
  6
CONTINUOUS
 10
152.7310199586
 20
152.9431045516
 11
152.7310199586
 21
152.8378991555
  0
LINE
  5
3AE
100
AcDbEntity
  8
0
100
AcDbLine
 62
7
  6
CONTINUOUS
 10
152.8104829888
 20
151.4179073143
 11
152.8104829888
 21
152.5618051088
  0
LINE
  5
3AF
100
AcDbEntity
  8
0
100
AcDbLine
 62
7
  6
CONTINUOUS
 10
154.1321170151
 20
81.0003080637
 11
154.1321170151
 21
80.485534327
  0
LINE
  5
3B0
100
AcDbEntity
  8
0
100
AcDbLine
 62
7
  6
CONTINUOUS
 10
154.1321170151
 20
80.01035857
 11
154.1321170151
 21
76.5879617491
  0
LINE
  5
3B1
100
AcDbEntity
  8
0
100
AcDbLine
 62
7
  6
CONTINUOUS
 10
154.4452901621
 20
136.9309809279
 11
154.4452901621
 21
123.7290376982
  0
LINE
  5
3B2
100
AcDbEntity
  8
KONSTRUKTIONSELEMENTE
100
AcDbLine
 62
7
  6
CONTINUOUS
 10
154.4452901621
 20
136.9309809279
 11
154.4452901621
 21
146.9521964234
  0
LINE
  5
3B3
100
AcDbEntity
  8
0
100
AcDbLine
 62
7
  6
CONTINUOUS
 10
154.9001170151
 20
76.5879617491
 11
154.9001170151
 21
78.999855794
  0
LINE
  5
3B4
100
AcDbEntity
  8
0
100
AcDbLine
 62
7
  6
CONTINUOUS
 10
154.9001170151
 20
79.2600710894
 11
154.9001170151
 21
80.01035857
  0
LINE
  5
3B5
100
AcDbEntity
  8
KONSTRUKTIONSELEMENTE
100
AcDbLine
 62
7
  6
CONTINUOUS
 10
155.9452901621
 20
106.0036038464
 11
155.9452901621
 21
116.6102055642
  0
LINE
  5
3B6
100
AcDbEntity
  8
KONSTRUKTIONSELEMENTE
100
AcDbLine
 62
7
  6
CONTINUOUS
 10
155.9452901621
 20
139.1693793717
 11
155.9452901621
 21
143.6031213716
  0
LINE
  5
3B7
100
AcDbEntity
  8
0
100
AcDbLine
 62
7
  6
CONTINUOUS
 10
156.8201170151
 20
78.7170130815
 11
156.8201170151
 21
78.999855794
  0
LINE
  5
3B8
100
AcDbEntity
  8
KONSTRUKTIONSELEMENTE
100
AcDbLine
 62
7
  6
CONTINUOUS
 10
156.9452901621
 20
107.7149476485
 11
156.9452901621
 21
85.2132392951
  0
LINE
  5
3B9
100
AcDbEntity
  8
KONSTRUKTIONSELEMENTE
100
AcDbLine
 62
7
  6
CONTINUOUS
 10
157.1952901621
 20
115.8591450796
 11
157.1952901621
 21
127.8693793717
  0
LINE
  5
3BA
100
AcDbEntity
  8
0
100
AcDbLine
 62
7
  6
CONTINUOUS
 10
157.6378358303
 20
78.8016321722
 11
157.6378358303
 21
79.0844748847
  0
LINE
  5
3BB
100
AcDbEntity
  8
0
100
AcDbLine
 62
7
  6
CONTINUOUS
 10
158.0066503805
 20
80.1556454207
 11
158.0066503805
 21
79.8728027082
  0
LINE
  5
3BC
100
AcDbEntity
  8
0
100
AcDbLine
 62
7
  6
CONTINUOUS
 10
158.5584801486
 20
76.5879617491
 11
158.5584801486
 21
76.8708044615
  0
LINE
  5
3BD
100
AcDbEntity
  8
0
100
AcDbLine
 62
7
  6
CONTINUOUS
 10
159.8921170151
 20
81.0003080637
 11
159.8921170151
 21
78.2085573865
  0
LINE
  5
3BE
100
AcDbEntity
  8
0
100
AcDbLine
 62
7
  6
CONTINUOUS
 10
160.6601170151
 20
78.2085573865
 11
160.6601170151
 21
81.0003080637
  0
LINE
  5
3BF
100
AcDbEntity
  8
0
100
AcDbLine
 62
7
  6
CONTINUOUS
 10
148.9167799586
 20
151.0366080851
 11
148.9962434435
 21
151.4179073143
  0
LINE
  5
3C0
100
AcDbEntity
  8
0
100
AcDbLine
 62
7
  6
CONTINUOUS
 10
148.5194634435
 20
151.4179073143
 11
148.4399999586
 21
151.1128679309
  0
LINE
  5
3C1
100
AcDbEntity
  8
0
100
AcDbLine
 62
7
  6
CONTINUOUS
 10
148.5194634435
 20
151.3127019182
 11
148.4399999586
 21
151.0076625349
  0
LINE
  5
3C2
100
AcDbEntity
  8
0
100
AcDbLine
 62
7
  6
CONTINUOUS
 10
144.9436132161
 20
152.7143248005
 11
144.8641499586
 21
152.4855452629
  0
LINE
  5
3C3
100
AcDbEntity
  8
0
100
AcDbLine
 62
7
  6
CONTINUOUS
 10
144.9436132161
 20
152.6091194044
 11
144.8641499586
 21
152.3803398669
  0
LINE
  5
3C4
100
AcDbEntity
  8
0
100
AcDbLine
 62
7
  6
CONTINUOUS
 10
145.3409299586
 20
152.4092854171
 11
145.4203932161
 21
152.6380649546
  0
LINE
  5
3C5
100
AcDbEntity
  8
0
100
AcDbLine
 62
7
  6
CONTINUOUS
 10
176.8846117849
 20
153.0956242433
 11
177.0230313891
 21
152.8668444922
  0
LINE
  5
3C6
100
AcDbEntity
  8
0
100
AcDbLine
 62
7
  6
CONTINUOUS
 10
175.015950693
 20
152.6380649546
 11
175.1543702972
 21
152.3330255713
  0
LINE
  5
3C7
100
AcDbEntity
  8
0
100
AcDbLine
 62
7
  6
CONTINUOUS
 10
174.946741287
 20
151.1128679309
 11
175.0851600991
 21
150.7315686483
  0
LINE
  5
3C8
100
AcDbEntity
  8
0
100
AcDbLine
 62
7
  6
CONTINUOUS
 10
177.4382894095
 20
151.2364420724
 11
177.2998698053
 21
151.6177414084
  0
LINE
  5
3C9
100
AcDbEntity
  8
0
100
AcDbLine
 62
7
  6
CONTINUOUS
 10
177.4382894095
 20
151.3416474685
 11
177.2998698053
 21
151.7229468045
  0
LINE
  5
3CA
100
AcDbEntity
  8
0
100
AcDbLine
 62
7
  6
CONTINUOUS
 10
177.3690792114
 20
152.7616390961
 11
177.2306603993
 21
153.1429385389
  0
LINE
  5
3CB
100
AcDbEntity
  8
0
100
AcDbLine
 62
7
  6
CONTINUOUS
 10
177.3690792114
 20
152.8668444922
 11
177.2306603993
 21
153.248143935
  0
LINE
  5
3CC
100
AcDbEntity
  8
0
100
AcDbLine
 62
7
  6
CONTINUOUS
 10
167.7807836957
 20
150.197749674
 11
167.1952579091
 21
151.846520946
  0
LINE
  5
3CD
100
AcDbEntity
  8
0
100
AcDbLine
 62
7
  6
CONTINUOUS
 10
167.8181451378
 20
150.197749674
 11
167.1952579091
 21
151.951726342
  0
LINE
  5
3CE
100
AcDbEntity
  8
0
100
AcDbLine
 62
7
  6
CONTINUOUS
 10
166.7799998887
 20
151.7992066504
 11
167.3336773153
 21
150.197749674
  0
LINE
  5
3CF
100
AcDbEntity
  8
0
100
AcDbLine
 62
7
  6
CONTINUOUS
 10
167.2644677112
 20
153.1718840892
 11
167.3336773153
 21
152.9431045516
  0
LINE
  5
3D0
100
AcDbEntity
  8
0
100
AcDbLine
 62
7
  6
CONTINUOUS
 10
167.7489353357
 20
152.8378991555
 11
167.6797255336
 21
153.0666786931
  0
LINE
  5
3D1
100
AcDbEntity
  8
0
100
AcDbLine
 62
7
  6
CONTINUOUS
 10
167.7489353357
 20
152.9431045516
 11
167.6797255336
 21
153.1718840892
  0
LINE
  5
3D2
100
AcDbEntity
  8
0
100
AcDbLine
 62
7
  6
CONTINUOUS
 10
170.5865316765
 20
153.0956242433
 11
170.6557414786
 21
152.8668444922
  0
LINE
  5
3D3
100
AcDbEntity
  8
0
100
AcDbLine
 62
7
  6
CONTINUOUS
 10
168.8562901888
 20
151.0076625349
 11
168.7870803867
 21
151.3127019182
  0
LINE
  5
3D4
100
AcDbEntity
  8
0
100
AcDbLine
 62
7
  6
CONTINUOUS
 10
168.8562901888
 20
151.1128679309
 11
168.7870803867
 21
151.4179073143
  0
LINE
  5
3D5
100
AcDbEntity
  8
0
100
AcDbLine
 62
7
  6
CONTINUOUS
 10
168.3718223663
 20
151.4179073143
 11
168.4410321684
 21
151.0366080851
  0
LINE
  5
3D6
100
AcDbEntity
  8
KONSTRUKTIONSELEMENTE
100
AcDbLine
 62
7
  6
CONTINUOUS
 10
161.6952901621
 20
115.8591450796
 11
161.6952901621
 21
127.8693793717
  0
LINE
  5
3D7
100
AcDbEntity
  8
KONSTRUKTIONSELEMENTE
100
AcDbLine
 62
7
  6
CONTINUOUS
 10
161.9452901621
 20
107.7149476485
 11
161.9452901621
 21
85.2132392951
  0
LINE
  5
3D8
100
AcDbEntity
  8
KONSTRUKTIONSELEMENTE
100
AcDbLine
 62
7
  6
CONTINUOUS
 10
162.9452901621
 20
143.6031213716
 11
162.9452901621
 21
139.1693793717
  0
LINE
  5
3D9
100
AcDbEntity
  8
KONSTRUKTIONSELEMENTE
100
AcDbLine
 62
7
  6
CONTINUOUS
 10
162.9452901621
 20
116.6102055642
 11
162.9452901621
 21
106.0036038464
  0
LINE
  5
3DA
100
AcDbEntity
  8
0
100
AcDbLine
 62
7
  6
CONTINUOUS
 10
163.6794253036
 20
81.0003080637
 11
163.6794253036
 21
78.2085573865
  0
LINE
  5
3DB
100
AcDbEntity
  8
0
100
AcDbLine
 62
7
  6
CONTINUOUS
 10
164.2192421621
 20
153.7819628559
 11
164.2192421621
 21
150.197749674
  0
LINE
  5
3DC
100
AcDbEntity
  8
0
100
AcDbLine
 62
7
  6
CONTINUOUS
 10
164.4452901621
 20
123.7290376982
 11
164.4452901621
 21
136.9309809279
  0
LINE
  5
3DD
100
AcDbEntity
  8
KONSTRUKTIONSELEMENTE
100
AcDbLine
 62
7
  6
CONTINUOUS
 10
164.4452901621
 20
136.9309809279
 11
164.4452901621
 21
146.9521966144
  0
LINE
  5
3DE
100
AcDbEntity
  8
0
100
AcDbLine
 62
7
  6
CONTINUOUS
 10
164.4474253036
 20
78.2085573865
 11
164.4474253036
 21
81.0003080637
  0
LINE
  5
3DF
100
AcDbEntity
  8
0
100
AcDbLine
 62
7
  6
CONTINUOUS
 10
164.6345001825
 20
150.197749674
 11
164.6345001825
 21
153.7819628559
  0
LINE
  5
3E0
100
AcDbEntity
  8
0
100
AcDbLine
 62
7
  6
CONTINUOUS
 10
165.1881775101
 20
153.7819628559
 11
165.1881775101
 21
150.197749674
  0
LINE
  5
3E1
100
AcDbEntity
  8
0
100
AcDbLine
 62
7
  6
CONTINUOUS
 10
165.6034355305
 20
150.197749674
 11
165.6034355305
 21
151.7992066504
  0
LINE
  5
3E2
100
AcDbEntity
  8
0
100
AcDbLine
 62
7
  6
CONTINUOUS
 10
165.6034355305
 20
152.1515603293
 11
165.6034355305
 21
153.4006636267
  0
LINE
  5
3E3
100
AcDbEntity
  8
0
100
AcDbLine
 62
7
  6
CONTINUOUS
 10
166.1274253036
 20
81.0003080637
 11
166.1274253036
 21
80.4572500557
  0
LINE
  5
3E4
100
AcDbEntity
  8
0
100
AcDbLine
 62
7
  6
CONTINUOUS
 10
166.1274253036
 20
79.9820742988
 11
166.1274253036
 21
76.5879617491
  0
LINE
  5
3E5
100
AcDbEntity
  8
0
100
AcDbLine
 62
7
  6
CONTINUOUS
 10
166.8492096908
 20
153.7819628559
 11
166.8492096908
 21
153.6767574598
  0
LINE
  5
3E6
100
AcDbEntity
  8
0
100
AcDbLine
 62
7
  6
CONTINUOUS
 10
166.8954253036
 20
77.153647174
 11
166.8954253036
 21
79.9820742988
  0
LINE
  5
3E7
100
AcDbEntity
  8
0
100
AcDbLine
 62
7
  6
CONTINUOUS
 10
166.9184192948
 20
152.2567657254
 11
166.9184192948
 21
152.1515603293
  0
LINE
  5
3E8
100
AcDbEntity
  8
0
100
AcDbLine
 62
7
  6
CONTINUOUS
 10
167.1260483051
 20
152.3330255713
 11
167.1260483051
 21
152.2278201752
  0
LINE
  5
3E9
100
AcDbEntity
  8
0
100
AcDbLine
 62
7
  6
CONTINUOUS
 10
167.1952579091
 20
153.7057030101
 11
167.1952579091
 21
153.600497614
  0
LINE
  5
3EA
100
AcDbEntity
  8
0
100
AcDbLine
 62
7
  6
CONTINUOUS
 10
167.1952579091
 20
151.951726342
 11
167.1952579091
 21
151.846520946
  0
LINE
  5
3EB
100
AcDbEntity
  8
0
100
AcDbLine
 62
7
  6
CONTINUOUS
 10
167.2644677112
 20
152.4855452629
 11
167.2644677112
 21
152.3803398669
  0
LINE
  5
3EC
100
AcDbEntity
  8
0
100
AcDbLine
 62
7
  6
CONTINUOUS
 10
167.3336773153
 20
152.9431045516
 11
167.3336773153
 21
152.6091194044
  0
LINE
  5
3ED
100
AcDbEntity
  8
KONSTRUKTIONSELEMENTE
100
AcDbLine
 62
7
  6
CONTINUOUS
 10
167.4452901621
 20
116.6102055642
 11
167.4452901621
 21
106.0036038464
  0
LINE
  5
3EE
100
AcDbEntity
  8
0
100
AcDbLine
 62
7
  6
CONTINUOUS
 10
167.4720967214
 20
153.4769234725
 11
167.4720967214
 21
153.3717180765
  0
LINE
  5
3EF
100
AcDbEntity
  8
0
100
AcDbLine
 62
7
  6
CONTINUOUS
 10
167.6797255336
 20
153.1718840892
 11
167.6797255336
 21
153.0666786931
  0
LINE
  5
3F0
100
AcDbEntity
  8
0
100
AcDbLine
 62
7
  6
CONTINUOUS
 10
167.7489353357
 20
152.6380649546
 11
167.7489353357
 21
152.9431045516
  0
LINE
  5
3F1
100
AcDbEntity
  8
0
100
AcDbLine
 62
7
  6
CONTINUOUS
 10
168.3718223663
 20
152.5618051088
 11
168.3718223663
 21
151.4179073143
  0
LINE
  5
3F2
100
AcDbEntity
  8
0
100
AcDbLine
 62
7
  6
CONTINUOUS
 10
168.4410321684
 20
152.9431045516
 11
168.4410321684
 21
152.8378991555
  0
LINE
  5
3F3
100
AcDbEntity
  8
0
100
AcDbLine
 62
7
  6
CONTINUOUS
 10
168.5794513765
 20
153.248143935
 11
168.5794513765
 21
153.1429385389
  0
LINE
  5
3F4
100
AcDbEntity
  8
0
100
AcDbLine
 62
7
  6
CONTINUOUS
 10
168.7870803867
 20
151.3127019182
 11
168.7870803867
 21
152.5618051088
  0
LINE
  5
3F5
100
AcDbEntity
  8
0
100
AcDbLine
 62
7
  6
CONTINUOUS
 10
168.8562901888
 20
153.5531833184
 11
168.8562901888
 21
153.4479779223
  0
LINE
  5
3F6
100
AcDbEntity
  8
0
100
AcDbLine
 62
7
  6
CONTINUOUS
 10
168.8562901888
 20
151.1128679309
 11
168.8562901888
 21
151.0076625349
  0
LINE
  5
3F7
100
AcDbEntity
  8
0
100
AcDbLine
 62
7
  6
CONTINUOUS
 10
168.9947093969
 20
150.8840883934
 11
168.9947093969
 21
150.7788829973
  0
LINE
  5
3F8
100
AcDbEntity
  8
0
100
AcDbLine
 62
7
  6
CONTINUOUS
 10
169.1331286051
 20
153.7057030101
 11
169.1331286051
 21
153.600497614
  0
LINE
  5
3F9
100
AcDbEntity
  8
0
100
AcDbLine
 62
7
  6
CONTINUOUS
 10
169.2023384071
 20
150.7315686483
 11
169.2023384071
 21
150.6263632522
  0
LINE
  5
3FA
100
AcDbEntity
  8
0
100
AcDbLine
 62
7
  6
CONTINUOUS
 10
169.4791772194
 20
153.7819628559
 11
169.4791772194
 21
153.6767574598
  0
LINE
  5
3FB
100
AcDbEntity
  8
0
100
AcDbLine
 62
7
  6
CONTINUOUS
 10
169.4791772194
 20
150.6553088025
 11
169.4791772194
 21
150.5501034064
  0
LINE
  5
3FC
100
AcDbEntity
  8
0
100
AcDbLine
 62
7
  6
CONTINUOUS
 10
170.032854448
 20
152.1805058796
 11
170.032854448
 21
151.7229468045
  0
LINE
  5
3FD
100
AcDbEntity
  8
0
100
AcDbLine
 62
7
  6
CONTINUOUS
 10
170.1020642501
 20
153.7819628559
 11
170.1020642501
 21
153.6767574598
  0
LINE
  5
3FE
100
AcDbEntity
  8
0
100
AcDbLine
 62
7
  6
CONTINUOUS
 10
170.1020642501
 20
150.6553088025
 11
170.1020642501
 21
150.5501034064
  0
LINE
  5
3FF
100
AcDbEntity
  8
0
100
AcDbLine
 62
7
  6
CONTINUOUS
 10
170.2015163059
 20
79.0882913273
 11
170.2015163059
 21
78.8054486149
  0
LINE
  5
400
100
AcDbEntity
  8
0
100
AcDbLine
 62
7
  6
CONTINUOUS
 10
170.3789026663
 20
150.7315686483
 11
170.3789026663
 21
150.6263632522
  0
LINE
  5
401
100
AcDbEntity
  8
0
100
AcDbLine
 62
7
  6
CONTINUOUS
 10
170.4452901621
 20
347.5521335647
 11
170.4452901621
 21
165.6789915762
  0
LINE
  5
402
100
AcDbEntity
  8
0
100
AcDbLine
 62
7
  6
CONTINUOUS
 10
170.4481124684
 20
153.7057030101
 11
170.4481124684
 21
153.600497614
  0
LINE
  5
403
100
AcDbEntity
  8
0
100
AcDbLine
 62
7
  6
CONTINUOUS
 10
170.5865316765
 20
150.8840883934
 11
170.5865316765
 21
150.7788829973
  0
LINE
  5
404
100
AcDbEntity
  8
0
100
AcDbLine
 62
7
  6
CONTINUOUS
 10
170.6557414786
 20
151.7229468045
 11
170.6557414786
 21
151.0076625349
  0
LINE
  5
405
100
AcDbEntity
  8
0
100
AcDbLine
 62
7
  6
CONTINUOUS
 10
170.7249512807
 20
153.5531833184
 11
170.7249512807
 21
153.4479779223
  0
LINE
  5
406
100
AcDbEntity
  8
0
100
AcDbLine
 62
7
  6
CONTINUOUS
 10
171.001790093
 20
153.248143935
 11
171.001790093
 21
153.1429385389
  0
LINE
  5
407
100
AcDbEntity
  8
0
100
AcDbLine
 62
7
  6
CONTINUOUS
 10
171.070999499
 20
151.0366080851
 11
171.070999499
 21
152.1805058796
  0
LINE
  5
408
100
AcDbEntity
  8
KONSTRUKTIONSELEMENTE
100
AcDbLine
 62
7
  6
CONTINUOUS
 10
171.4016722236
 20
137.6706057227
 11
171.4016722236
 21
141.2324166325
  0
LINE
  5
409
100
AcDbEntity
  8
0
100
AcDbLine
 62
7
  6
CONTINUOUS
 10
152.7310199586
 20
151.0366080851
 11
152.8104829888
 21
151.4179073143
  0
LINE
  5
40A
100
AcDbEntity
  8
0
100
AcDbLine
 62
7
  6
CONTINUOUS
 10
152.3337029888
 20
151.4179073143
 11
152.2542399586
 21
151.1128679309
  0
LINE
  5
40B
100
AcDbEntity
  8
0
100
AcDbLine
 62
7
  6
CONTINUOUS
 10
152.3337029888
 20
151.3127019182
 11
152.2542399586
 21
151.0076625349
  0
LINE
  5
40C
100
AcDbEntity
  8
0
100
AcDbLine
 62
7
  6
CONTINUOUS
 10
148.7578534435
 20
150.7315686483
 11
148.9167799586
 21
151.0366080851
  0
LINE
  5
40D
100
AcDbEntity
  8
0
100
AcDbLine
 62
7
  6
CONTINUOUS
 10
171.0525127944
 20
152.8634889828
 11
171.001790093
 21
153.1429385389
  0
LINE
  5
40E
100
AcDbEntity
  8
0
100
AcDbLine
 62
7
  6
CONTINUOUS
 10
171.070999499
 20
152.8668444922
 11
171.001790093
 21
153.248143935
  0
LINE
  5
40F
100
AcDbEntity
  8
0
100
AcDbLine
 62
7
  6
CONTINUOUS
 10
174.946741287
 20
151.3416474685
 11
174.946741287
 21
151.1128679309
  0
LINE
  5
410
100
AcDbEntity
  8
0
100
AcDbLine
 62
7
  6
CONTINUOUS
 10
175.015950693
 20
152.8668444922
 11
175.015950693
 21
152.6380649546
  0
LINE
  5
411
100
AcDbEntity
  8
0
100
AcDbLine
 62
7
  6
CONTINUOUS
 10
175.0851600991
 20
151.7229468045
 11
175.0851600991
 21
151.6177414084
  0
LINE
  5
412
100
AcDbEntity
  8
0
100
AcDbLine
 62
7
  6
CONTINUOUS
 10
175.1543702972
 20
153.248143935
 11
175.1543702972
 21
153.1429385389
  0
LINE
  5
413
100
AcDbEntity
  8
0
100
AcDbLine
 62
7
  6
CONTINUOUS
 10
175.2927891093
 20
151.0076625349
 11
175.2927891093
 21
151.3416474685
  0
LINE
  5
414
100
AcDbEntity
  8
0
100
AcDbLine
 62
7
  6
CONTINUOUS
 10
175.3619993074
 20
153.4769234725
 11
175.3619993074
 21
153.3717180765
  0
LINE
  5
415
100
AcDbEntity
  8
0
100
AcDbLine
 62
7
  6
CONTINUOUS
 10
175.3619993074
 20
151.951726342
 11
175.3619993074
 21
151.846520946
  0
LINE
  5
416
100
AcDbEntity
  8
0
100
AcDbLine
 62
7
  6
CONTINUOUS
 10
175.3619993074
 20
152.6091194044
 11
175.3619993074
 21
152.8668444922
  0
LINE
  5
417
100
AcDbEntity
  8
0
100
AcDbLine
 62
7
  6
CONTINUOUS
 10
175.5004181195
 20
152.4855452629
 11
175.5004181195
 21
152.3803398669
  0
LINE
  5
418
100
AcDbEntity
  8
0
100
AcDbLine
 62
7
  6
CONTINUOUS
 10
175.5004181195
 20
152.0279861879
 11
175.5004181195
 21
151.9227807918
  0
LINE
  5
419
100
AcDbEntity
  8
0
100
AcDbLine
 62
7
  6
CONTINUOUS
 10
175.5004181195
 20
150.8078284942
 11
175.5004181195
 21
150.7026230981
  0
LINE
  5
41A
100
AcDbEntity
  8
0
100
AcDbLine
 62
7
  6
CONTINUOUS
 10
175.7080471297
 20
153.7057030101
 11
175.7080471297
 21
153.600497614
  0
LINE
  5
41B
100
AcDbEntity
  8
0
100
AcDbLine
 62
7
  6
CONTINUOUS
 10
175.7772573278
 20
152.2567657254
 11
175.7772573278
 21
152.1515603293
  0
LINE
  5
41C
100
AcDbEntity
  8
0
100
AcDbLine
 62
7
  6
CONTINUOUS
 10
175.7772573278
 20
150.6553088025
 11
175.7772573278
 21
150.5501034064
  0
LINE
  5
41D
100
AcDbEntity
  8
0
100
AcDbLine
 62
7
  6
CONTINUOUS
 10
176.0540957441
 20
153.7819628559
 11
176.0540957441
 21
153.6767574598
  0
LINE
  5
41E
100
AcDbEntity
  8
0
100
AcDbLine
 62
7
  6
CONTINUOUS
 10
176.0540957441
 20
152.1805058796
 11
176.0540957441
 21
152.0753004835
  0
LINE
  5
41F
100
AcDbEntity
  8
0
100
AcDbLine
 62
7
  6
CONTINUOUS
 10
176.0540957441
 20
150.5790489566
 11
176.0540957441
 21
150.4738435605
  0
LINE
  5
420
100
AcDbEntity
  8
0
100
AcDbLine
 62
7
  6
CONTINUOUS
 10
176.3309341603
 20
153.7819628559
 11
176.3309341603
 21
153.6767574598
  0
LINE
  5
421
100
AcDbEntity
  8
0
100
AcDbLine
 62
7
  6
CONTINUOUS
 10
176.3309341603
 20
152.1805058796
 11
176.3309341603
 21
152.0753004835
  0
LINE
  5
422
100
AcDbEntity
  8
0
100
AcDbLine
 62
7
  6
CONTINUOUS
 10
176.3309341603
 20
150.5790489566
 11
176.3309341603
 21
150.4738435605
  0
LINE
  5
423
100
AcDbEntity
  8
0
100
AcDbLine
 62
7
  6
CONTINUOUS
 10
176.6077733686
 20
152.2567657254
 11
176.6077733686
 21
152.1515603293
  0
LINE
  5
424
100
AcDbEntity
  8
0
100
AcDbLine
 62
7
  6
CONTINUOUS
 10
176.6077733686
 20
150.6553088025
 11
176.6077733686
 21
150.5501034064
  0
LINE
  5
425
100
AcDbEntity
  8
0
100
AcDbLine
 62
7
  6
CONTINUOUS
 10
176.6769827747
 20
153.7057030101
 11
176.6769827747
 21
153.600497614
  0
LINE
  5
426
100
AcDbEntity
  8
0
100
AcDbLine
 62
7
  6
CONTINUOUS
 10
176.8846117849
 20
152.4855452629
 11
176.8846117849
 21
152.3803398669
  0
LINE
  5
427
100
AcDbEntity
  8
0
100
AcDbLine
 62
7
  6
CONTINUOUS
 10
176.8846117849
 20
152.0279861879
 11
176.8846117849
 21
151.9227807918
  0
LINE
  5
428
100
AcDbEntity
  8
0
100
AcDbLine
 62
7
  6
CONTINUOUS
 10
176.8846117849
 20
150.8078284942
 11
176.8846117849
 21
150.7026230981
  0
LINE
  5
429
100
AcDbEntity
  8
0
100
AcDbLine
 62
7
  6
CONTINUOUS
 10
177.0230313891
 20
153.4769234725
 11
177.0230313891
 21
153.3717180765
  0
LINE
  5
42A
100
AcDbEntity
  8
0
100
AcDbLine
 62
7
  6
CONTINUOUS
 10
177.0230313891
 20
152.8668444922
 11
177.0230313891
 21
152.6091194044
  0
LINE
  5
42B
100
AcDbEntity
  8
0
100
AcDbLine
 62
7
  6
CONTINUOUS
 10
177.0230313891
 20
151.951726342
 11
177.0230313891
 21
151.846520946
  0
LINE
  5
42C
100
AcDbEntity
  8
0
100
AcDbLine
 62
7
  6
CONTINUOUS
 10
177.0922407951
 20
151.3416474685
 11
177.0922407951
 21
151.0076625349
  0
LINE
  5
42D
100
AcDbEntity
  8
0
100
AcDbLine
 62
7
  6
CONTINUOUS
 10
177.2306603993
 20
153.248143935
 11
177.2306603993
 21
153.1429385389
  0
LINE
  5
42E
100
AcDbEntity
  8
0
100
AcDbLine
 62
7
  6
CONTINUOUS
 10
177.2998698053
 20
151.7229468045
 11
177.2998698053
 21
151.6177414084
  0
LINE
  5
42F
100
AcDbEntity
  8
0
100
AcDbLine
 62
7
  6
CONTINUOUS
 10
177.3690792114
 20
152.6380649546
 11
177.3690792114
 21
152.8668444922
  0
LINE
  5
430
100
AcDbEntity
  8
0
100
AcDbLine
 62
7
  6
CONTINUOUS
 10
177.4382894095
 20
151.1128679309
 11
177.4382894095
 21
151.3416474685
  0
LINE
  5
431
100
AcDbEntity
  8
0
100
AcDbLine
 62
7
  6
CONTINUOUS
 10
178.7540901621
 20
120.6372987954
 11
178.7540901621
 21
120.0900665661
  0
LINE
  5
432
100
AcDbEntity
  8
RUNDUNGEN
100
AcDbLine
 62
7
  6
CONTINUOUS
 10
180.3452901621
 20
40.9497799773
 11
180.3452901621
 21
36.7071392901
  0
LINE
  5
433
100
AcDbEntity
  8
0
100
AcDbLine
 62
7
  6
CONTINUOUS
 10
182.4452901621
 20
128.1688533485
 11
182.4452901621
 21
123.831440569
  0
LINE
  5
434
100
AcDbEntity
  8
RUNDUNGEN
100
AcDbLine
 62
7
  6
CONTINUOUS
 10
182.4452901621
 20
128.1688533485
 11
182.4452901621
 21
151.5759858543
  0
LINE
  5
435
100
AcDbEntity
  8
0
100
AcDbLine
 62
7
  6
CONTINUOUS
 10
168.4410321684
 20
152.9431045516
 11
168.3718223663
 21
152.5618051088
  0
LINE
  5
436
100
AcDbEntity
  8
0
100
AcDbLine
 62
7
  6
CONTINUOUS
 10
168.4410321684
 20
152.8378991555
 11
168.3718223663
 21
152.4565997127
  0
LINE
  5
437
100
AcDbEntity
  8
0
100
AcDbLine
 62
7
  6
CONTINUOUS
 10
168.7870803867
 20
152.5618051088
 11
168.8562901888
 21
152.8668444922
  0
LINE
  5
438
100
AcDbEntity
  8
0
100
AcDbLine
 62
7
  6
CONTINUOUS
 10
171.001790093
 20
150.7315686483
 11
171.070999499
 21
151.0366080851
  0
LINE
  5
439
100
AcDbEntity
  8
0
100
AcDbLine
 62
7
  6
CONTINUOUS
 10
167.3336773153
 20
152.7143248005
 11
167.2644677112
 21
152.4855452629
  0
LINE
  5
43A
100
AcDbEntity
  8
0
100
AcDbLine
 62
7
  6
CONTINUOUS
 10
167.3336773153
 20
152.6091194044
 11
167.2644677112
 21
152.3803398669
  0
LINE
  5
43B
100
AcDbEntity
  8
0
100
AcDbLine
 62
7
  6
CONTINUOUS
 10
167.6797255336
 20
152.4092854171
 11
167.7489353357
 21
152.6380649546
  0
LINE
  5
43C
100
AcDbEntity
  8
0
100
AcDbLine
 62
7
  6
CONTINUOUS
 10
152.5720929888
 20
150.7315686483
 11
152.7310199586
 21
151.0366080851
  0
LINE
  5
43D
100
AcDbEntity
  8
0
100
AcDbLine
 62
7
  6
CONTINUOUS
 10
148.4399999586
 20
151.1128679309
 11
148.2810734435
 21
150.8840883934
  0
LINE
  5
43E
100
AcDbEntity
  8
0
100
AcDbLine
 62
7
  6
CONTINUOUS
 10
148.4399999586
 20
151.0076625349
 11
148.2810734435
 21
150.7788829973
  0
LINE
  5
43F
100
AcDbEntity
  8
0
100
AcDbLine
 62
7
  6
CONTINUOUS
 10
152.2542399586
 20
151.1128679309
 11
152.0953129888
 21
150.8840883934
  0
LINE
  5
440
100
AcDbEntity
  8
0
100
AcDbLine
 62
7
  6
CONTINUOUS
 10
152.2542399586
 20
151.0076625349
 11
152.0953129888
 21
150.7788829973
  0
LINE
  5
441
100
AcDbEntity
  8
0
100
AcDbLine
 62
7
  6
CONTINUOUS
 10
145.1025399586
 20
152.1042460337
 11
145.3409299586
 21
152.4092854171
  0
LINE
  5
442
100
AcDbEntity
  8
0
100
AcDbLine
 62
7
  6
CONTINUOUS
 10
144.8641499586
 20
152.4855452629
 11
144.7052232161
 21
152.3330255713
  0
LINE
  5
443
100
AcDbEntity
  8
0
100
AcDbLine
 62
7
  6
CONTINUOUS
 10
144.8641499586
 20
152.3803398669
 11
144.7052232161
 21
152.2278201752
  0
LINE
  5
444
100
AcDbEntity
  8
0
100
AcDbLine
 62
7
  6
CONTINUOUS
 10
184.1459444203
 20
146.1454719675
 11
184.1459444203
 21
154.8605099192
  0
LINE
  5
445
100
AcDbEntity
  8
RUNDUNGEN
100
AcDbLine
 62
7
  6
CONTINUOUS
 10
186.9452901621
 20
39.5355664149
 11
186.9452901621
 21
47.8361549235
  0
LINE
  5
446
100
AcDbEntity
  8
0
100
AcDbLine
 62
7
  6
CONTINUOUS
 10
187.9671489324
 20
166.6625603722
 11
187.9671489324
 21
168.0340670679
  0
LINE
  5
447
100
AcDbEntity
  8
0
100
AcDbLine
 62
7
  6
CONTINUOUS
 10
170.6557414786
 20
151.1128679309
 11
170.5865316765
 21
150.8840883934
  0
LINE
  5
448
100
AcDbEntity
  8
0
100
AcDbLine
 62
7
  6
CONTINUOUS
 10
170.6557414786
 20
151.0076625349
 11
170.5865316765
 21
150.7788829973
  0
LINE
  5
449
100
AcDbEntity
  8
0
100
AcDbLine
 62
7
  6
CONTINUOUS
 10
175.1543702972
 20
153.248143935
 11
175.015950693
 21
152.8668444922
  0
LINE
  5
44A
100
AcDbEntity
  8
0
100
AcDbLine
 62
7
  6
CONTINUOUS
 10
175.1543702972
 20
153.1429385389
 11
175.015950693
 21
152.7616390961
  0
LINE
  5
44B
100
AcDbEntity
  8
0
100
AcDbLine
 62
7
  6
CONTINUOUS
 10
175.0851600991
 20
151.7229468045
 11
174.946741287
 21
151.3416474685
  0
LINE
  5
44C
100
AcDbEntity
  8
0
100
AcDbLine
 62
7
  6
CONTINUOUS
 10
175.0851600991
 20
151.6177414084
 11
174.946741287
 21
151.2364420724
  0
LINE
  5
44D
100
AcDbEntity
  8
0
100
AcDbLine
 62
7
  6
CONTINUOUS
 10
177.2998698053
 20
150.7315686483
 11
177.4382894095
 21
151.1128679309
  0
LINE
  5
44E
100
AcDbEntity
  8
0
100
AcDbLine
 62
7
  6
CONTINUOUS
 10
168.5794513765
 20
153.248143935
 11
168.4410321684
 21
152.9431045516
  0
LINE
  5
44F
100
AcDbEntity
  8
0
100
AcDbLine
 62
7
  6
CONTINUOUS
 10
168.5794513765
 20
153.1429385389
 11
168.4410321684
 21
152.8378991555
  0
LINE
  5
450
100
AcDbEntity
  8
0
100
AcDbLine
 62
7
  6
CONTINUOUS
 10
177.2306603993
 20
152.3330255713
 11
177.3690792114
 21
152.6380649546
  0
LINE
  5
451
100
AcDbEntity
  8
0
100
AcDbLine
 62
7
  6
CONTINUOUS
 10
168.8562901888
 20
152.8668444922
 11
168.9947093969
 21
153.0956242433
  0
LINE
  5
452
100
AcDbEntity
  8
0
100
AcDbLine
 62
7
  6
CONTINUOUS
 10
167.4720967214
 20
152.1042460337
 11
167.6797255336
 21
152.4092854171
  0
LINE
  5
453
100
AcDbEntity
  8
0
100
AcDbLine
 62
7
  6
CONTINUOUS
 10
148.4399999586
 20
150.4265292382
 11
148.7578534435
 21
150.7315686483
  0
LINE
  5
454
100
AcDbEntity
  8
0
100
AcDbLine
 62
7
  6
CONTINUOUS
 10
152.2542399586
 20
150.4265292382
 11
152.5720929888
 21
150.7315686483
  0
LINE
  5
455
100
AcDbEntity
  8
0
100
AcDbLine
 62
7
  6
CONTINUOUS
 10
148.2810734435
 20
150.8840883934
 11
148.0426834435
 21
150.7315686483
  0
LINE
  5
456
100
AcDbEntity
  8
0
100
AcDbLine
 62
7
  6
CONTINUOUS
 10
148.2810734435
 20
150.7788829973
 11
148.0426834435
 21
150.6263632522
  0
LINE
  5
457
100
AcDbEntity
  8
RUNDUNGEN
100
AcDbLine
 62
7
  6
CONTINUOUS
 10
195.580448694
 20
89.9972763938
 11
195.580448694
 21
93.5328102997
  0
LINE
  5
458
100
AcDbEntity
  8
0
100
AcDbLine
 62
7
  6
CONTINUOUS
 10
184.1459444203
 20
147.3425424691
 11
182.4452901621
 21
140.4204444132
  0
LINE
  5
459
100
AcDbEntity
  8
0
100
AcDbLine
 62
7
  6
CONTINUOUS
 10
184.1459444203
 20
146.1454719675
 11
182.4452901621
 21
139.2233739115
  0
LINE
  5
45A
100
AcDbEntity
  8
0
100
AcDbLine
 62
7
  6
CONTINUOUS
 10
186.3055479903
 20
160.6611438293
 11
184.1459444203
 21
153.0343373033
  0
LINE
  5
45B
100
AcDbEntity
  8
0
100
AcDbLine
 62
7
  6
CONTINUOUS
 10
186.3055479903
 20
162.3810790586
 11
184.1459444203
 21
154.8605099192
  0
LINE
  5
45C
100
AcDbEntity
  8
0
100
AcDbLine
 62
7
  6
CONTINUOUS
 10
175.3619993074
 20
152.8668444922
 11
175.5004181195
 21
153.0956242433
  0
LINE
  5
45D
100
AcDbEntity
  8
0
100
AcDbLine
 62
7
  6
CONTINUOUS
 10
177.0230313891
 20
152.7143248005
 11
176.8846117849
 21
152.4855452629
  0
LINE
  5
45E
100
AcDbEntity
  8
0
100
AcDbLine
 62
7
  6
CONTINUOUS
 10
177.0230313891
 20
152.6091194044
 11
176.8846117849
 21
152.3803398669
  0
LINE
  5
45F
100
AcDbEntity
  8
0
100
AcDbLine
 62
7
  6
CONTINUOUS
 10
175.2927891093
 20
151.3416474685
 11
175.5004181195
 21
151.6466869587
  0
LINE
  5
460
100
AcDbEntity
  8
0
100
AcDbLine
 62
7
  6
CONTINUOUS
 10
177.0922407951
 20
151.1128679309
 11
176.8846117849
 21
150.8078284942
  0
LINE
  5
461
100
AcDbEntity
  8
0
100
AcDbLine
 62
7
  6
CONTINUOUS
 10
177.0922407951
 20
151.0076625349
 11
176.8846117849
 21
150.7026230981
  0
LINE
  5
462
100
AcDbEntity
  8
0
100
AcDbLine
 62
7
  6
CONTINUOUS
 10
167.2644677112
 20
152.4855452629
 11
167.1260483051
 21
152.3330255713
  0
LINE
  5
463
100
AcDbEntity
  8
0
100
AcDbLine
 62
7
  6
CONTINUOUS
 10
167.2644677112
 20
152.3803398669
 11
167.1260483051
 21
152.2278201752
  0
LINE
  5
464
100
AcDbEntity
  8
0
100
AcDbLine
 62
7
  6
CONTINUOUS
 10
168.8562901888
 20
153.5531833184
 11
168.5794513765
 21
153.248143935
  0
LINE
  5
465
100
AcDbEntity
  8
0
100
AcDbLine
 62
7
  6
CONTINUOUS
 10
168.8562901888
 20
153.4479779223
 11
168.5794513765
 21
153.1429385389
  0
LINE
  5
466
100
AcDbEntity
  8
0
100
AcDbLine
 62
7
  6
CONTINUOUS
 10
170.7249512807
 20
150.4265292382
 11
171.001790093
 21
150.7315686483
  0
LINE
  5
467
100
AcDbEntity
  8
0
100
AcDbLine
 62
7
  6
CONTINUOUS
 10
175.3619993074
 20
153.4769234725
 11
175.1543702972
 21
153.248143935
  0
LINE
  5
468
100
AcDbEntity
  8
0
100
AcDbLine
 62
7
  6
CONTINUOUS
 10
175.3619993074
 20
153.3717180765
 11
175.1543702972
 21
153.1429385389
  0
LINE
  5
469
100
AcDbEntity
  8
0
100
AcDbLine
 62
7
  6
CONTINUOUS
 10
177.0230313891
 20
152.1042460337
 11
177.2306603993
 21
152.3330255713
  0
LINE
  5
46A
100
AcDbEntity
  8
0
100
AcDbLine
 62
7
  6
CONTINUOUS
 10
177.0922407951
 20
150.5027890841
 11
177.2998698053
 21
150.7315686483
  0
LINE
  5
46B
100
AcDbEntity
  8
0
100
AcDbLine
 62
7
  6
CONTINUOUS
 10
175.5004181195
 20
153.0956242433
 11
175.7772573278
 21
153.3244037809
  0
LINE
  5
46C
100
AcDbEntity
  8
0
100
AcDbLine
 62
7
  6
CONTINUOUS
 10
175.3619993074
 20
151.951726342
 11
175.0851600991
 21
151.7229468045
  0
LINE
  5
46D
100
AcDbEntity
  8
0
100
AcDbLine
 62
7
  6
CONTINUOUS
 10
175.3619993074
 20
151.846520946
 11
175.0851600991
 21
151.6177414084
  0
LINE
  5
46E
100
AcDbEntity
  8
0
100
AcDbLine
 62
7
  6
CONTINUOUS
 10
168.9947093969
 20
153.0956242433
 11
169.2023384071
 21
153.248143935
  0
LINE
  5
46F
100
AcDbEntity
  8
0
100
AcDbLine
 62
7
  6
CONTINUOUS
 10
170.5865316765
 20
150.8840883934
 11
170.3789026663
 21
150.7315686483
  0
LINE
  5
470
100
AcDbEntity
  8
0
100
AcDbLine
 62
7
  6
CONTINUOUS
 10
170.5865316765
 20
150.7788829973
 11
170.3789026663
 21
150.6263632522
  0
LINE
  5
471
100
AcDbEntity
  8
0
100
AcDbLine
 62
7
  6
CONTINUOUS
 10
175.7080471297
 20
153.7057030101
 11
175.3619993074
 21
153.4769234725
  0
LINE
  5
472
100
AcDbEntity
  8
0
100
AcDbLine
 62
7
  6
CONTINUOUS
 10
175.7080471297
 20
153.600497614
 11
175.3619993074
 21
153.3717180765
  0
LINE
  5
473
100
AcDbEntity
  8
0
100
AcDbLine
 62
7
  6
CONTINUOUS
 10
152.0953129888
 20
150.8840883934
 11
151.8569229888
 21
150.7315686483
  0
LINE
  5
474
100
AcDbEntity
  8
0
100
AcDbLine
 62
7
  6
CONTINUOUS
 10
152.0953129888
 20
150.7788829973
 11
151.8569229888
 21
150.6263632522
  0
LINE
  5
475
100
AcDbEntity
  8
0
100
AcDbLine
 62
7
  6
CONTINUOUS
 10
169.1331286051
 20
153.7057030101
 11
168.8562901888
 21
153.5531833184
  0
LINE
  5
476
100
AcDbEntity
  8
0
100
AcDbLine
 62
7
  6
CONTINUOUS
 10
169.1331286051
 20
153.600497614
 11
168.8562901888
 21
153.4479779223
  0
LINE
  5
477
100
AcDbEntity
  8
0
100
AcDbLine
 62
7
  6
CONTINUOUS
 10
167.1952579091
 20
151.951726342
 11
167.4720967214
 21
152.1042460337
  0
LINE
  5
478
100
AcDbEntity
  8
0
100
AcDbLine
 62
7
  6
CONTINUOUS
 10
144.784686701
 20
151.951726342
 11
145.1025399586
 21
152.1042460337
  0
LINE
  5
479
100
AcDbEntity
  8
0
100
AcDbLine
 62
7
  6
CONTINUOUS
 10
148.1221464737
 20
150.2740095265
 11
148.4399999586
 21
150.4265292382
  0
LINE
  5
47A
100
AcDbEntity
  8
0
100
AcDbLine
 62
7
  6
CONTINUOUS
 10
151.9363869283
 20
150.2740095265
 11
152.2542399586
 21
150.4265292382
  0
LINE
  5
47B
100
AcDbEntity
  8
0
100
AcDbLine
 62
7
  6
CONTINUOUS
 10
167.1260483051
 20
152.3330255713
 11
166.9184192948
 21
152.2567657254
  0
LINE
  5
47C
100
AcDbEntity
  8
0
100
AcDbLine
 62
7
  6
CONTINUOUS
 10
167.1260483051
 20
152.2278201752
 11
166.9184192948
 21
152.1515603293
  0
LINE
  5
47D
100
AcDbEntity
  8
0
100
AcDbLine
 62
7
  6
CONTINUOUS
 10
144.7052232161
 20
152.3330255713
 11
144.4668332161
 21
152.2567657254
  0
LINE
  5
47E
100
AcDbEntity
  8
0
100
AcDbLine
 62
7
  6
CONTINUOUS
 10
144.7052232161
 20
152.2278201752
 11
144.4668332161
 21
152.1515603293
  0
LINE
  5
47F
100
AcDbEntity
  8
0
100
AcDbLine
 62
7
  6
CONTINUOUS
 10
176.8846117849
 20
152.4855452629
 11
176.6077733686
 21
152.2567657254
  0
LINE
  5
480
100
AcDbEntity
  8
0
100
AcDbLine
 62
7
  6
CONTINUOUS
 10
176.8846117849
 20
152.3803398669
 11
176.6077733686
 21
152.1515603293
  0
LINE
  5
481
100
AcDbEntity
  8
0
100
AcDbLine
 62
7
  6
CONTINUOUS
 10
176.7461921808
 20
150.2740095265
 11
177.0922407951
 21
150.5027890841
  0
LINE
  5
482
100
AcDbEntity
  8
0
100
AcDbLine
 62
7
  6
CONTINUOUS
 10
170.4481124684
 20
150.2740095265
 11
170.7249512807
 21
150.4265292382
  0
LINE
  5
483
100
AcDbEntity
  8
0
100
AcDbLine
 62
7
  6
CONTINUOUS
 10
175.5004181195
 20
152.0279861879
 11
175.3619993074
 21
151.951726342
  0
LINE
  5
484
100
AcDbEntity
  8
0
100
AcDbLine
 62
7
  6
CONTINUOUS
 10
175.5004181195
 20
151.9227807918
 11
175.3619993074
 21
151.846520946
  0
LINE
  5
485
100
AcDbEntity
  8
0
100
AcDbLine
 62
7
  6
CONTINUOUS
 10
175.5004181195
 20
151.6466869587
 11
175.7772573278
 21
151.7992066504
  0
LINE
  5
486
100
AcDbEntity
  8
0
100
AcDbLine
 62
7
  6
CONTINUOUS
 10
176.8846117849
 20
152.0279861879
 11
177.0230313891
 21
152.1042460337
  0
LINE
  5
487
100
AcDbEntity
  8
0
100
AcDbLine
 62
7
  6
CONTINUOUS
 10
176.8846117849
 20
150.8078284942
 11
176.6077733686
 21
150.6553088025
  0
LINE
  5
488
100
AcDbEntity
  8
0
100
AcDbLine
 62
7
  6
CONTINUOUS
 10
176.8846117849
 20
150.7026230981
 11
176.6077733686
 21
150.5501034064
  0
LINE
  5
489
100
AcDbEntity
  8
RUNDUNGEN
100
AcDbLine
 62
7
  6
CONTINUOUS
 10
127.7537697192
 20
96.174666839
 11
126.1154656307
 21
95.3635072636
  0
LINE
  5
48A
100
AcDbEntity
  8
0
100
AcDbLine
 62
7
  6
CONTINUOUS
 10
143.6044659531
 20
119.4168697321
 11
143.5984142538
 21
119.4146239858
  0
LINE
  5
48B
100
AcDbEntity
  8
RUNDUNGEN
100
AcDbLine
 62
7
  6
CONTINUOUS
 10
144.8596229184
 20
61.7695340566
 11
132.668681985
 21
49.4584740741
  0
LINE
  5
48C
100
AcDbEntity
  8
RUNDUNGEN
100
AcDbLine
 62
7
  6
CONTINUOUS
 10
144.8596229184
 20
58.2340001506
 11
132.668681985
 21
45.9229401682
  0
LINE
  5
48D
100
AcDbEntity
  8
RUNDUNGEN
100
AcDbLine
 62
7
  6
CONTINUOUS
 10
127.7537697192
 20
92.639132933
 11
126.1154656307
 21
91.8279733577
  0
LINE
  5
48E
100
AcDbEntity
  8
RUNDUNGEN
100
AcDbLine
 62
7
  6
CONTINUOUS
 10
131.4004413618
 20
87.1073255461
 11
128.6972396156
 21
85.7689122468
  0
LINE
  5
48F
100
AcDbEntity
  8
RUNDUNGEN
100
AcDbLine
 62
7
  6
CONTINUOUS
 10
133.1137781755
 20
84.8443908196
 11
135.1060524583
 21
85.830808648
  0
LINE
  5
490
100
AcDbEntity
  8
RUNDUNGEN
100
AcDbLine
 62
7
  6
CONTINUOUS
 10
180.4183025815
 20
89.7886388407
 11
187.4995715219
 21
96.9396805162
  0
LINE
  5
491
100
AcDbEntity
  8
RUNDUNGEN
100
AcDbLine
 62
7
  6
CONTINUOUS
 10
180.4183025815
 20
86.2531049348
 11
187.4995715219
 21
93.4041466102
  0
LINE
  5
492
100
AcDbEntity
  8
RUNDUNGEN
100
AcDbLine
 62
7
  6
CONTINUOUS
 10
152.5623729259
 20
93.3120759219
 11
149.2857647487
 21
91.6897567712
  0
LINE
  5
493
100
AcDbEntity
  8
RUNDUNGEN
100
AcDbLine
 62
7
  6
CONTINUOUS
 10
133.1137781755
 20
81.3088569137
 11
135.8169799217
 21
82.647270213
  0
LINE
  5
494
100
AcDbEntity
  8
RUNDUNGEN
100
AcDbLine
 62
7
  6
CONTINUOUS
 10
152.5623729259
 20
89.7765420159
 11
149.2857647487
 21
88.1542228652
  0
LINE
  5
495
100
AcDbEntity
  8
RUNDUNGEN
100
AcDbLine
 62
7
  6
CONTINUOUS
 10
151.2716084808
 20
44.9843150761
 11
155.3495299407
 21
49.1024168674
  0
LINE
  5
496
100
AcDbEntity
  8
RUNDUNGEN
100
AcDbLine
 62
7
  6
CONTINUOUS
 10
174.0309574059
 20
67.9679150548
 11
195.3634311471
 21
89.5105806486
  0
ARC
  5
497
100
AcDbEntity
  8
KONSTRUKTIONSELEMENTE
100
AcDbCircle
 62
7
  6
CONTINUOUS
 10
352.8984006924
 20
100.6649476485
 40
9.55
100
AcDbArc
 50
58.6297070454
 51
135.0
  0
ARC
  5
498
100
AcDbEntity
  8
KONSTRUKTIONSELEMENTE
100
AcDbCircle
 62
7
  6
CONTINUOUS
 10
352.8984006924
 20
100.6649476485
 40
9.55
100
AcDbArc
 50
315.0
 51
31.3702929546
  0
ARC
  5
499
100
AcDbEntity
  8
KONSTRUKTIONSELEMENTE
100
AcDbCircle
 62
7
  6
CONTINUOUS
 10
344.4838299963
 20
92.2503769523
 40
9.55
100
AcDbArc
 50
240.1951355235
 51
315.0
  0
ARC
  5
49A
100
AcDbEntity
  8
KONSTRUKTIONSELEMENTE
100
AcDbCircle
 62
7
  6
CONTINUOUS
 10
344.4838299963
 20
92.2503769523
 40
9.55
100
AcDbArc
 50
135.0
 51
209.8048644765
  0
ARC
  5
49B
100
AcDbEntity
  8
KONSTRUKTIONSELEMENTE
100
AcDbCircle
 62
7
  6
CONTINUOUS
 10
352.8984006924
 20
100.6649476485
 40
4.55
100
AcDbArc
 50
74.6522021471
 51
135.0
  0
ARC
  5
49C
100
AcDbEntity
  8
KONSTRUKTIONSELEMENTE
100
AcDbCircle
 62
7
  6
CONTINUOUS
 10
352.8984006924
 20
100.6649476485
 40
4.55
100
AcDbArc
 50
315.0
 51
15.3477978529
  0
ARC
  5
49D
100
AcDbEntity
  8
KONSTRUKTIONSELEMENTE
100
AcDbCircle
 62
7
  6
CONTINUOUS
 10
344.4838299963
 20
92.2503769523
 40
4.55
100
AcDbArc
 50
258.3583327703
 51
315.0
  0
ARC
  5
49E
100
AcDbEntity
  8
KONSTRUKTIONSELEMENTE
100
AcDbCircle
 62
7
  6
CONTINUOUS
 10
344.4838299963
 20
92.2503769523
 40
4.55
100
AcDbArc
 50
135.0
 51
191.6416672297
  0
ARC
  5
49F
100
AcDbEntity
  8
KONSTRUKTIONSELEMENTE
100
AcDbCircle
 62
7
  6
CONTINUOUS
 10
354.1711928985
 20
101.9377398546
 40
2.25
100
AcDbArc
 50
135.0
 51
315.0
  0
ARC
  5
4A0
100
AcDbEntity
  8
KONSTRUKTIONSELEMENTE
100
AcDbCircle
 62
7
  6
CONTINUOUS
 10
373.7934060765
 20
121.5599530325
 40
8.0
100
AcDbArc
 50
135.0
 51
208.6357041722
  0
ARC
  5
4A1
100
AcDbEntity
  8
KONSTRUKTIONSELEMENTE
100
AcDbCircle
 62
7
  6
CONTINUOUS
 10
373.7934060765
 20
121.5599530325
 40
8.0
100
AcDbArc
 50
241.3642958278
 51
315.0
  0
ARC
  5
4A2
100
AcDbEntity
  8
KONSTRUKTIONSELEMENTE
100
AcDbCircle
 62
7
  6
CONTINUOUS
 10
373.7934060765
 20
121.5599530325
 40
3.5
100
AcDbArc
 50
135.0
 51
184.8461224921
  0
ARC
  5
4A3
100
AcDbEntity
  8
KONSTRUKTIONSELEMENTE
100
AcDbCircle
 62
7
  6
CONTINUOUS
 10
373.7934060765
 20
121.5599530325
 40
3.5
100
AcDbArc
 50
265.1538775079
 51
315.0
  0
ARC
  5
4A4
100
AcDbEntity
  8
KONSTRUKTIONSELEMENTE
100
AcDbCircle
 62
7
  6
CONTINUOUS
 10
372.9095226
 20
120.676069556
 40
2.25
100
AcDbArc
 50
315.0
 51
135.0
  0
ARC
  5
4A5
100
AcDbEntity
  8
KONSTRUKTIONSELEMENTE
100
AcDbCircle
 62
7
  6
CONTINUOUS
 10
414.063137265
 20
161.8296842211
 40
9.55
100
AcDbArc
 50
63.3390960058
 51
135.0
  0
ARC
  5
4A6
100
AcDbEntity
  8
KONSTRUKTIONSELEMENTE
100
AcDbCircle
 62
7
  6
CONTINUOUS
 10
414.063137265
 20
161.8296842211
 40
9.55
100
AcDbArc
 50
315.0
 51
26.6609039942
  0
ARC
  5
4A7
100
AcDbEntity
  8
KONSTRUKTIONSELEMENTE
100
AcDbCircle
 62
7
  6
CONTINUOUS
 10
405.6485665689
 20
153.415113525
 40
9.55
100
AcDbArc
 50
238.6297070454
 51
315.0
  0
ARC
  5
4A8
100
AcDbEntity
  8
KONSTRUKTIONSELEMENTE
100
AcDbCircle
 62
7
  6
CONTINUOUS
 10
405.6485665689
 20
153.415113525
 40
9.55
100
AcDbArc
 50
135.0
 51
211.3702929546
  0
ARC
  5
4A9
100
AcDbEntity
  8
KONSTRUKTIONSELEMENTE
100
AcDbCircle
 62
7
  6
CONTINUOUS
 10
384.4000077943
 20
132.1665547503
 40
8.0
100
AcDbArc
 50
315.0
 51
28.6357041722
  0
ARC
  5
4AA
100
AcDbEntity
  8
KONSTRUKTIONSELEMENTE
100
AcDbCircle
 62
7
  6
CONTINUOUS
 10
384.4000077943
 20
132.1665547503
 40
8.0
100
AcDbArc
 50
61.3642958278
 51
135.0
  0
ARC
  5
4AB
100
AcDbEntity
  8
KONSTRUKTIONSELEMENTE
100
AcDbCircle
 62
7
  6
CONTINUOUS
 10
414.063137265
 20
161.8296842211
 40
4.55
100
AcDbArc
 50
86.2724010126
 51
135.0
  0
ARC
  5
4AC
100
AcDbEntity
  8
KONSTRUKTIONSELEMENTE
100
AcDbCircle
 62
7
  6
CONTINUOUS
 10
414.063137265
 20
161.8296842211
 40
4.55
100
AcDbArc
 50
315.0
 51
3.7275989874
  0
ARC
  5
4AD
100
AcDbEntity
  8
KONSTRUKTIONSELEMENTE
100
AcDbCircle
 62
7
  6
CONTINUOUS
 10
405.6485665689
 20
153.415113525
 40
4.55
100
AcDbArc
 50
254.6522021471
 51
315.0
  0
ARC
  5
4AE
100
AcDbEntity
  8
KONSTRUKTIONSELEMENTE
100
AcDbCircle
 62
7
  6
CONTINUOUS
 10
405.6485665689
 20
153.415113525
 40
4.55
100
AcDbArc
 50
135.0
 51
195.3477978529
  0
ARC
  5
4AF
100
AcDbEntity
  8
KONSTRUKTIONSELEMENTE
100
AcDbCircle
 62
7
  6
CONTINUOUS
 10
384.4000077943
 20
132.1665547503
 40
3.5
100
AcDbArc
 50
315.0
 51
4.8461224921
  0
ARC
  5
4B0
100
AcDbEntity
  8
KONSTRUKTIONSELEMENTE
100
AcDbCircle
 62
7
  6
CONTINUOUS
 10
384.4000077943
 20
132.1665547503
 40
3.5
100
AcDbArc
 50
85.1538775079
 51
135.0
  0
ARC
  5
4B1
100
AcDbEntity
  8
KONSTRUKTIONSELEMENTE
100
AcDbCircle
 62
7
  6
CONTINUOUS
 10
415.1591527759
 20
162.9256997319
 40
3.0
100
AcDbArc
 50
135.0
 51
315.0
  0
ARC
  5
4B2
100
AcDbEntity
  8
KONSTRUKTIONSELEMENTE
100
AcDbCircle
 62
7
  6
CONTINUOUS
 10
404.0222209722
 20
151.7887679283
 40
2.25
100
AcDbArc
 50
315.0
 51
135.0
  0
ARC
  5
4B3
100
AcDbEntity
  8
KONSTRUKTIONSELEMENTE
100
AcDbCircle
 62
7
  6
CONTINUOUS
 10
385.2838912707
 20
133.0504382268
 40
2.25
100
AcDbArc
 50
135.0
 51
315.0
  0
ARC
  5
4B4
100
AcDbEntity
  8
0
100
AcDbCircle
 62
7
  6
CONTINUOUS
 10
441.5787248729
 20
130.6146239189
 40
11.2
100
AcDbArc
 50
263.4238135477
 51
340.0
  0
ARC
  5
4B5
100
AcDbEntity
  8
0
100
AcDbCircle
 62
7
  6
CONTINUOUS
 10
441.5787248729
 20
130.6146239189
 40
11.2
100
AcDbArc
 50
250.0
 51
259.3310985005
  0
ARC
  5
4B6
100
AcDbEntity
  8
RUNDUNGEN
100
AcDbCircle
 62
7
  6
CONTINUOUS
 10
440.0752166796
 20
131.1618561482
 40
11.2
100
AcDbArc
 50
160.0
 51
250.0
  0
CIRCLE
  5
4B7
100
AcDbEntity
  8
BEZUGSACHSEN
100
AcDbCircle
 62
7
  6
CONTINUOUS
 10
441.7846271776
 20
133.5193793717
 40
5.6906
  0
ARC
  5
4B8
100
AcDbEntity
  8
RUNDUNGEN
100
AcDbCircle
 62
7
  6
CONTINUOUS
 10
443.4309828417
 20
153.8312481441
 40
3.6
100
AcDbArc
 50
83.3859285006
 51
159.9999751696
  0
ARC
  5
4B9
100
AcDbEntity
  8
0
100
AcDbCircle
 62
7
  6
CONTINUOUS
 10
453.5796631462
 20
150.1374305962
 40
3.6
100
AcDbArc
 50
340.0
 51
56.6140714994
  0
ARC
  5
4BA
100
AcDbEntity
  8
RUNDUNGEN
100
AcDbCircle
 62
7
  6
CONTINUOUS
 10
442.3660101676
 20
155.4505987511
 40
2.3968216849
100
AcDbArc
 50
29.5632741351
 51
33.0763393418
  0
ARC
  5
4BB
100
AcDbEntity
  8
0
100
AcDbCircle
 62
7
  6
CONTINUOUS
 10
455.4363780511
 20
150.6933738906
 40
2.3968216849
100
AcDbArc
 50
106.9236606583
 51
110.4367258649
  0
ARC
  5
4BC
100
AcDbEntity
  8
BEZUGSACHSEN
100
AcDbCircle
 62
7
  6
CONTINUOUS
 10
460.5957350605
 20
185.202473515
 40
6.25
100
AcDbArc
 50
131.9275130641
 51
160.0
  0
ARC
  5
4BD
100
AcDbEntity
  8
BEZUGSACHSEN
100
AcDbCircle
 62
7
  6
CONTINUOUS
 10
460.5957350605
 20
185.202473515
 40
6.25
100
AcDbArc
 50
340.0
 51
8.0724869359
  0
ARC
  5
4BE
100
AcDbEntity
  8
KONSTRUKTIONSELEMENTE
100
AcDbCircle
 62
7
  6
CONTINUOUS
 10
444.1505308045
 20
191.9170777606
 40
3.0
100
AcDbArc
 50
315.0
 51
135.0
  0
ARC
  5
4BF
100
AcDbEntity
  8
RUNDUNGEN
100
AcDbCircle
 62
7
  6
CONTINUOUS
 10
507.6228145491
 20
131.1618561482
 40
11.2
100
AcDbArc
 50
290.0
 51
20.0
  0
ARC
  5
4C0
100
AcDbEntity
  8
0
100
AcDbCircle
 62
7
  6
CONTINUOUS
 10
506.1193063558
 20
130.6146239189
 40
11.2
100
AcDbArc
 50
200.0
 51
290.0
  0
ARC
  5
4C1
100
AcDbEntity
  8
RUNDUNGEN
100
AcDbCircle
 62
7
  6
CONTINUOUS
 10
507.8947913519
 20
130.6826072851
 40
10.6489600174
100
AcDbArc
 50
299.3184681096
 51
303.0943592224
  0
ARC
  5
4C2
100
AcDbEntity
  8
RUNDUNGEN
100
AcDbCircle
 62
7
  6
CONTINUOUS
 10
508.1357890311
 20
130.3117103749
 40
10.2066433844
100
AcDbArc
 50
303.0978155992
 51
306.1037786302
  0
ARC
  5
4C3
100
AcDbEntity
  8
RUNDUNGEN
100
AcDbCircle
 62
7
  6
CONTINUOUS
 10
508.2923494803
 20
130.0940512391
 40
9.9385324302
100
AcDbArc
 50
306.1139388484
 51
306.7775108568
  0
CIRCLE
  5
4C4
100
AcDbEntity
  8
BEZUGSACHSEN
100
AcDbCircle
 62
7
  6
CONTINUOUS
 10
505.9134040511
 20
133.5193793717
 40
5.6906
  0
ARC
  5
4C5
100
AcDbEntity
  8
0
100
AcDbCircle
 62
7
  6
CONTINUOUS
 10
494.1183680826
 20
150.1374305962
 40
3.6
100
AcDbArc
 50
123.3863540691
 51
199.9999506524
  0
ARC
  5
4C6
100
AcDbEntity
  8
RUNDUNGEN
100
AcDbCircle
 62
7
  6
CONTINUOUS
 10
504.267048387
 20
153.8312481441
 40
3.6
100
AcDbArc
 50
20.0000493476
 51
96.6136459309
  0
ARC
  5
4C7
100
AcDbEntity
  8
RUNDUNGEN
100
AcDbCircle
 62
7
  6
CONTINUOUS
 10
505.2895919223
 20
155.4764161657
 40
2.3471789212
100
AcDbArc
 50
146.886498031
 51
150.4738884922
  0
ARC
  5
4C8
100
AcDbEntity
  8
0
100
AcDbCircle
 62
7
  6
CONTINUOUS
 10
492.2775606693
 20
150.7404241022
 40
2.3471789213
100
AcDbArc
 50
69.5261115079
 51
73.1135019689
  0
ARC
  5
4C9
100
AcDbEntity
  8
BEZUGSACHSEN
100
AcDbCircle
 62
7
  6
CONTINUOUS
 10
487.1022961682
 20
185.202473515
 40
6.25
100
AcDbArc
 50
20.0
 51
48.0724869359
  0
ARC
  5
4CA
100
AcDbEntity
  8
BEZUGSACHSEN
100
AcDbCircle
 62
7
  6
CONTINUOUS
 10
487.1022961682
 20
185.202473515
 40
6.25
100
AcDbArc
 50
171.9275130641
 51
200.0
  0
ARC
  5
4CB
100
AcDbEntity
  8
0
100
AcDbCircle
 62
7
  6
CONTINUOUS
 10
473.8490156144
 20
221.6155625704
 40
67.0
100
AcDbArc
 50
295.3537733356
 51
360.0
  0
ARC
  5
4CC
100
AcDbEntity
  8
0
100
AcDbCircle
 62
7
  6
CONTINUOUS
 10
473.8490156144
 20
221.6155625704
 40
67.0
100
AcDbArc
 50
255.3527859366
 51
284.6472140634
  0
ARC
  5
4CD
100
AcDbEntity
  8
0
100
AcDbCircle
 62
7
  6
CONTINUOUS
 10
473.8490156144
 20
221.6155625704
 40
67.0
100
AcDbArc
 50
227.5671889761
 51
244.6462266644
  0
ARC
  5
4CE
100
AcDbEntity
  8
0
100
AcDbCircle
 62
7
  6
CONTINUOUS
 10
473.8490156144
 20
221.6155625704
 40
67.0
100
AcDbArc
 50
180.0
 51
222.4328110239
  0
ARC
  5
4CF
100
AcDbEntity
  8
0
100
AcDbCircle
 62
7
  6
CONTINUOUS
 10
473.8490156144
 20
291.6155625704
 40
67.0
100
AcDbArc
 50
0.0
 51
180.0
  0
ARC
  5
4D0
100
AcDbEntity
  8
0
100
AcDbCircle
 62
7
  6
CONTINUOUS
 10
473.8490156144
 20
221.6155625704
 40
45.0
100
AcDbArc
 50
297.9858547501
 51
360.0
  0
ARC
  5
4D1
100
AcDbEntity
  8
0
100
AcDbCircle
 62
7
  6
CONTINUOUS
 10
473.8490156144
 20
221.6155625704
 40
45.0
100
AcDbArc
 50
257.9846806361
 51
282.0153193639
  0
ARC
  5
4D2
100
AcDbEntity
  8
0
100
AcDbCircle
 62
7
  6
CONTINUOUS
 10
473.8490156144
 20
221.6155625704
 40
45.0
100
AcDbArc
 50
228.8231711787
 51
242.0141452499
  0
ARC
  5
4D3
100
AcDbEntity
  8
0
100
AcDbCircle
 62
7
  6
CONTINUOUS
 10
473.8490156144
 20
221.6155625704
 40
45.0
100
AcDbArc
 50
180.0
 51
221.1768288213
  0
ARC
  5
4D4
100
AcDbEntity
  8
0
100
AcDbCircle
 62
7
  6
CONTINUOUS
 10
473.8490156144
 20
291.6155625704
 40
45.0
100
AcDbArc
 50
0.0
 51
180.0
  0
ARC
  5
4D5
100
AcDbEntity
  8
0
100
AcDbCircle
 62
7
  6
CONTINUOUS
 10
674.7339868992
 20
313.9956384783
 40
563.4154383627
100
AcDbArc
 50
195.1590792466
 51
195.7923484161
  0
ARC
  5
4D6
100
AcDbEntity
  8
0
100
AcDbCircle
 62
7
  6
CONTINUOUS
 10
-335.8840217218
 20
308.4695210294
 40
542.7055030922
100
AcDbArc
 50
344.1955685069
 51
344.8530038304
  0
ARC
  5
4D7
100
AcDbEntity
  8
0
100
AcDbCircle
 62
7
  6
CONTINUOUS
 10
612.7058840879
 20
37.9011775279
 40
499.0479943512
100
AcDbArc
 50
163.2847658201
 51
164.8847024513
  0
ARC
  5
4D8
100
AcDbEntity
  8
0
100
AcDbCircle
 62
7
  6
CONTINUOUS
 10
-293.8153036851
 20
37.9011775503
 40
499.0479942694
100
AcDbArc
 50
15.1152975485
 51
16.71523418
  0
ARC
  5
4D9
100
AcDbEntity
  8
0
100
AcDbCircle
 62
7
  6
CONTINUOUS
 10
637.5461022038
 20
32.8171859021
 40
469.4729387055
100
AcDbArc
 50
163.2606376952
 51
163.9797342519
  0
ARC
  5
4DA
100
AcDbEntity
  8
0
100
AcDbCircle
 62
7
  6
CONTINUOUS
 10
-316.7239060108
 20
33.3849519653
 40
467.4596483993
100
AcDbArc
 50
16.0187171982
 51
16.7409108548
  0
ARC
  5
4DB
100
AcDbEntity
  8
0
100
AcDbCircle
 62
7
  6
CONTINUOUS
 10
194.0361961139
 20
28.8551474846
 40
169.5788757982
100
AcDbArc
 50
105.5957854437
 51
106.7428854984
  0
ARC
  5
4DC
100
AcDbEntity
  8
0
100
AcDbCircle
 62
7
  6
CONTINUOUS
 10
124.8543865195
 20
28.855155409
 40
169.5788675445
100
AcDbArc
 50
73.2571144774
 51
74.4042145622
  0
ARC
  5
4DD
100
AcDbEntity
  8
KONSTRUKTIONSELEMENTE
100
AcDbCircle
 62
7
  6
CONTINUOUS
 10
159.4452901621
 20
95.3750040028
 40
28.79136
100
AcDbArc
 50
56.6430398452
 51
79.9991254185
  0
ARC
  5
4DE
100
AcDbEntity
  8
KONSTRUKTIONSELEMENTE
100
AcDbCircle
 62
7
  6
CONTINUOUS
 10
159.4452901621
 20
95.3750040028
 40
28.79136
100
AcDbArc
 50
100.0008745815
 51
123.3569601548
  0
ARC
  5
4DF
100
AcDbEntity
  8
KONSTRUKTIONSELEMENTE
100
AcDbCircle
 62
7
  6
CONTINUOUS
 10
160.5152549914
 20
187.3684658804
 40
27.3013225329
100
AcDbArc
 50
289.7062701901
 51
292.1215581747
  0
ARC
  5
4E0
100
AcDbEntity
  8
KONSTRUKTIONSELEMENTE
100
AcDbCircle
 62
7
  6
CONTINUOUS
 10
158.3223870787
 20
187.2302891211
 40
27.1533811305
100
AcDbArc
 50
247.8473141729
 51
250.2971216611
  0
ARC
  5
4E1
100
AcDbEntity
  8
KONSTRUKTIONSELEMENTE
100
AcDbCircle
 62
7
  6
CONTINUOUS
 10
161.9788813337
 20
170.5809555751
 40
23.8638402301
100
AcDbArc
 50
60.110723513
 51
60.4290534412
  0
ARC
  5
4E2
100
AcDbEntity
  8
0
100
AcDbCircle
 62
7
  6
CONTINUOUS
 10
159.4452901621
 20
347.6155625704
 40
11.0
100
AcDbArc
 50
0.0
 51
180.0
  0
ARC
  5
4E3
100
AcDbEntity
  8
0
100
AcDbCircle
 62
7
  6
CONTINUOUS
 10
159.4452901621
 20
165.6155625704
 40
11.0
100
AcDbArc
 50
180.0
 51
217.9039703358
  0
ARC
  5
4E4
100
AcDbEntity
  8
0
100
AcDbCircle
 62
7
  6
CONTINUOUS
 10
159.4452901621
 20
165.6155625704
 40
11.0
100
AcDbArc
 50
322.0861672888
 51
360.0
  0
ARC
  5
4E5
100
AcDbEntity
  8
KONSTRUKTIONSELEMENTE
100
AcDbCircle
 62
7
  6
CONTINUOUS
 10
159.4452901621
 20
107.7149476485
 40
2.5
100
AcDbArc
 50
0.0
 51
180.0
  0
ARC
  5
4E6
100
AcDbEntity
  8
KONSTRUKTIONSELEMENTE
100
AcDbCircle
 62
7
  6
CONTINUOUS
 10
159.4452901621
 20
85.2003769523
 40
2.5
100
AcDbArc
 50
180.0
 51
360.0
  0
ARC
  5
4E7
100
AcDbEntity
  8
KONSTRUKTIONSELEMENTE
100
AcDbCircle
 62
7
  6
CONTINUOUS
 10
159.4452901621
 20
146.365113525
 40
2.5
100
AcDbArc
 50
223.9756381289
 51
316.0243618711
  0
ARC
  5
4E8
100
AcDbEntity
  8
KONSTRUKTIONSELEMENTE
100
AcDbCircle
 62
7
  6
CONTINUOUS
 10
159.4452901621
 20
115.8099530325
 40
2.25
100
AcDbArc
 50
180.0
 51
360.0
  0
ARC
  5
4E9
100
AcDbEntity
  8
KONSTRUKTIONSELEMENTE
100
AcDbCircle
 62
7
  6
CONTINUOUS
 10
159.4452901621
 20
137.9165547503
 40
2.25
100
AcDbArc
 50
33.9787025623
 51
146.0212974377
  0
ARC
  5
4EA
100
AcDbEntity
  8
0
100
AcDbCircle
 62
7
  6
CONTINUOUS
 10
169.4155163946
 20
79.0791153469
 40
1.7033694965
100
AcDbArc
 50
350.5636876715
 51
355.3957076166
  0
ARC
  5
4EB
100
AcDbEntity
  8
BEZUGSACHSEN
100
AcDbCircle
 62
7
  6
CONTINUOUS
 10
144.8333057842
 20
137.1598966555
 40
1.5620953855
100
AcDbArc
 50
8.0482454837
 51
15.8969321236
  0
ARC
  5
4EC
100
AcDbEntity
  8
BEZUGSACHSEN
100
AcDbCircle
 62
7
  6
CONTINUOUS
 10
144.4572745401
 20
137.1598966555
 40
1.5620953855
100
AcDbArc
 50
164.1030678764
 51
171.9517545163
  0
ARC
  5
4ED
100
AcDbEntity
  8
BEZUGSACHSEN
100
AcDbCircle
 62
7
  6
CONTINUOUS
 10
144.8391481196
 20
137.1607676441
 40
1.5561886503
100
AcDbArc
 50
4.8930271217
 51
8.0466091989
  0
ARC
  5
4EE
100
AcDbEntity
  8
BEZUGSACHSEN
100
AcDbCircle
 62
7
  6
CONTINUOUS
 10
144.4514322047
 20
137.1607676441
 40
1.5561886503
100
AcDbArc
 50
171.9533908011
 51
175.1069728783
  0
ARC
  5
4EF
100
AcDbEntity
  8
0
100
AcDbCircle
 62
7
  6
CONTINUOUS
 10
150.7752971236
 20
78.5737042225
 40
0.3335678168
100
AcDbArc
 50
78.8903114983
 51
89.9692795104
  0
SPLINE
  5
4F0
100
AcDbEntity
  8
0
100
AcDbSpline
 62
7
  6
CONTINUOUS
 70
0
 71
3
 72
11
 73
7
 74
0
 42
0.0000001
 43
0.0000001
 44
0.0000000001
 40
0.0
 40
0.0
 40
0.0
 40
0.0
 40
0.2577328834
 40
0.5000000007
 40
0.7422671179
 40
1.0
 40
1.0
 40
1.0
 40
1.0
 10
481.9615368284
 20
193.4643405897
 30
0.0
 10
481.9134009269
 20
193.1249518995
 30
0.0
 10
481.8800160167
 20
192.4543890256
 30
0.0
 10
482.084090389
 20
191.475725982
 30
0.0
 10
482.5568328272
 20
190.5948501184
 30
0.0
 10
483.0134366597
 20
190.1026285653
 30
0.0
 10
483.2684657433
 20
189.8735829072
 30
0.0
  0
SPLINE
  5
4F1
100
AcDbEntity
  8
0
100
AcDbSpline
 62
7
  6
CONTINUOUS
 70
0
 71
3
 72
9
 73
5
 74
0
 42
0.0000001
 43
0.0000001
 44
0.0000000001
 40
0.0
 40
0.0
 40
0.0
 40
0.0
 40
0.2501290911
 40
1.0
 40
1.0
 40
1.0
 40
1.0
 10
495.4847707299
 20
168.0340670679
 30
0.0
 10
495.7294662933
 20
167.5764248692
 30
0.0
 10
496.6819226785
 20
165.7331674046
 30
0.0
 10
497.5241703338
 20
163.8325184433
 30
0.0
 10
498.0843486717
 20
162.3810790586
 30
0.0
  0
SPLINE
  5
4F2
100
AcDbEntity
  8
0
100
AcDbSpline
 62
7
  6
CONTINUOUS
 70
0
 71
3
 72
11
 73
7
 74
0
 42
0.0000001
 43
0.0000001
 44
0.0000000001
 40
0.0
 40
0.0
 40
0.0
 40
0.0
 40
0.2500457849
 40
0.5000000008
 40
0.7499542166
 40
1.0
 40
1.0
 40
1.0
 40
1.0
 10
490.6072456177
 20
181.4349571767
 30
0.0
 10
491.1695412694
 20
180.3833229959
 30
0.0
 10
492.2258131982
 20
178.2429681004
 30
0.0
 10
493.5749265098
 20
174.9270226413
 30
0.0
 10
494.6728944088
 20
171.5196677348
 30
0.0
 10
495.2395367694
 20
169.2011022593
 30
0.0
 10
495.4847707299
 20
168.0340670679
 30
0.0
  0
SPLINE
  5
4F3
100
AcDbEntity
  8
0
100
AcDbSpline
 62
7
  6
CONTINUOUS
 70
0
 71
3
 72
11
 73
7
 74
0
 42
0.0000001
 43
0.0000001
 44
0.0000000001
 40
0.0
 40
0.0
 40
0.0
 40
0.0
 40
0.2506004323
 40
0.5000000008
 40
0.7493995691
 40
1.0
 40
1.0
 40
1.0
 40
1.0
 10
487.0366494203
 20
191.2450896029
 30
0.0
 10
487.4891402443
 20
190.493385969
 30
0.0
 10
488.3271456938
 20
188.9530762352
 30
0.0
 10
489.3509962645
 20
186.5325813772
 30
0.0
 10
490.122545328
 20
184.0202562855
 30
0.0
 10
490.4706879177
 20
182.3016510585
 30
0.0
 10
490.6072456177
 20
181.4349571767
 30
0.0
  0
SPLINE
  5
4F4
100
AcDbEntity
  8
0
100
AcDbSpline
 62
7
  6
CONTINUOUS
 70
0
 71
3
 72
11
 73
7
 74
0
 42
0.0000001
 43
0.0000001
 44
0.0000000001
 40
0.0
 40
0.0
 40
0.0
 40
0.0
 40
0.2577328834
 40
0.5000000007
 40
0.7422671179
 40
1.0
 40
1.0
 40
1.0
 40
1.0
 10
485.7297205054
 20
194.8358472854
 30
0.0
 10
485.9847495902
 20
194.6068016263
 30
0.0
 10
486.441353422
 20
194.1145800696
 30
0.0
 10
486.9140958616
 20
193.2337042054
 30
0.0
 10
487.1181702346
 20
192.2550411632
 30
0.0
 10
487.0847853216
 20
191.5844782915
 30
0.0
 10
487.0366494203
 20
191.2450896029
 30
0.0
  0
SPLINE
  5
4F5
100
AcDbEntity
  8
RUNDUNGEN
100
AcDbSpline
 62
7
  6
CONTINUOUS
 70
0
 71
3
 72
9
 73
5
 74
0
 42
0.0000001
 43
0.0000001
 44
0.0000000001
 40
0.0
 40
0.0
 40
0.0
 40
0.0
 40
0.3793579043
 40
1.0
 40
1.0
 40
1.0
 40
1.0
 10
503.8524229401
 20
157.4072914519
 30
0.0
 10
503.8414682565
 20
157.4060213077
 30
0.0
 10
503.815056793
 20
157.3909580638
 30
0.0
 10
503.7932814035
 20
157.3722439416
 30
0.0
 10
503.7800760415
 20
157.3599499331
 30
0.0
  0
SPLINE
  5
4F6
100
AcDbEntity
  8
RUNDUNGEN
100
AcDbSpline
 62
7
  6
CONTINUOUS
 70
0
 71
3
 72
10
 73
6
 74
0
 42
0.0000001
 43
0.0000001
 44
0.0000000001
 40
0.0
 40
0.0
 40
0.0
 40
0.0
 40
0.1550006651
 40
0.3737633472
 40
1.0
 40
1.0
 40
1.0
 40
1.0
 10
503.7800760415
 20
157.3599499331
 30
0.0
 10
503.7514880552
 20
157.3333349152
 30
0.0
 10
503.6880189263
 20
157.2634399545
 30
0.0
 10
503.5307303474
 20
157.0665677233
 30
0.0
 10
503.4098727273
 20
156.8908285566
 30
0.0
 10
503.3236183242
 20
156.7586785022
 30
0.0
  0
SPLINE
  5
4F7
100
AcDbEntity
  8
RUNDUNGEN
100
AcDbSpline
 62
7
  6
CONTINUOUS
 70
0
 71
3
 72
20
 73
16
 74
0
 42
0.0000001
 43
0.0000001
 44
0.0000000001
 40
0.0
 40
0.0
 40
0.0
 40
0.0
 40
0.1321911901
 40
0.261980541
 40
0.3885473868
 40
0.5110491683
 40
0.6289220928
 40
0.6866661732
 40
0.7442850343
 40
0.7736372648
 40
0.8036535196
 40
0.834594567
 40
0.8665543043
 40
0.9325733822
 40
1.0
 40
1.0
 40
1.0
 40
1.0
 10
514.2426408535
 20
122.1336203815
 30
0.0
 10
514.5593748383
 20
122.3703786802
 30
0.0
 10
515.1598016983
 20
122.8778746555
 30
0.0
 10
515.9411257864
 20
123.7435643035
 30
0.0
 10
516.5617675433
 20
124.6990691249
 30
0.0
 10
516.973108872
 20
125.724900292
 30
0.0
 10
517.0814876388
 20
126.6285659069
 30
0.0
 10
516.9537443554
 20
127.3201976437
 30
0.0
 10
516.7615732005
 20
127.7167901021
 30
0.0
 10
516.5310344716
 20
127.9826255954
 30
0.0
 10
516.3160277744
 20
128.1493384215
 30
0.0
 10
516.0640268712
 20
128.2713897389
 30
0.0
 10
515.6875317561
 20
128.365749987
 30
0.0
 10
515.1839732406
 20
128.3485400299
 30
0.0
 10
514.7981915077
 20
128.2378398439
 30
0.0
 10
514.6086526692
 20
128.1688533485
 30
0.0
  0
LINE
  5
4F8
100
AcDbEntity
  8
0
100
AcDbLine
 62
7
  6
CONTINUOUS
 10
496.6556324323
 20
143.1663540882
 11
492.9428205211
 21
142.8415251362
  0
LINE
  5
4F9
100
AcDbEntity
  8
0
100
AcDbLine
 62
7
  6
CONTINUOUS
 10
491.9009314551
 20
136.9326786181
 11
495.6137433663
 21
137.2575075702
  0
SPLINE
  5
4FA
100
AcDbEntity
  8
0
100
AcDbSpline
 62
7
  6
CONTINUOUS
 70
0
 71
3
 72
9
 73
5
 74
0
 42
0.0000001
 43
0.0000001
 44
0.0000000001
 40
0.0
 40
0.0
 40
0.0
 40
0.0
 40
0.1992237026
 40
1.0
 40
1.0
 40
1.0
 40
1.0
 10
492.1373532723
 20
153.1433548004
 30
0.0
 10
492.1392173247
 20
153.1445832797
 30
0.0
 10
492.1492316093
 20
153.1497483568
 30
0.0
 10
492.1605316341
 20
153.1517149352
 30
0.0
 10
492.1694438518
 20
153.1527602668
 30
0.0
  0
SPLINE
  5
4FB
100
AcDbEntity
  8
0
100
AcDbSpline
 62
7
  6
CONTINUOUS
 70
0
 71
3
 72
11
 73
7
 74
0
 42
0.0000001
 43
0.0000001
 44
0.0000000001
 40
0.0
 40
0.0
 40
0.0
 40
0.0
 40
0.1281748159
 40
0.3374668876
 40
0.6288145351
 40
1.0
 40
1.0
 40
1.0
 40
1.0
 10
492.1694438518
 20
153.1527602668
 30
0.0
 10
492.2038026577
 20
153.1567902788
 30
0.0
 10
492.2955469257
 20
153.1482720411
 30
0.0
 10
492.4622948873
 20
153.1191244119
 30
0.0
 10
492.6914700492
 20
153.0642057671
 30
0.0
 10
492.8634886684
 20
153.0154664976
 30
0.0
 10
492.9593614773
 20
152.9863975097
 30
0.0
  0
SPLINE
  5
4FC
100
AcDbEntity
  8
0
100
AcDbSpline
 62
7
  6
CONTINUOUS
 70
0
 71
3
 72
9
 73
5
 74
0
 42
0.0000001
 43
0.0000001
 44
0.0000000001
 40
0.0
 40
0.0
 40
0.0
 40
0.0
 40
0.2501290911
 40
1.0
 40
1.0
 40
1.0
 40
1.0
 10
491.7165870529
 20
166.6625603722
 30
0.0
 10
491.8233061113
 20
166.1546988327
 30
0.0
 10
492.2785052498
 20
164.1304545316
 30
0.0
 10
492.8550197164
 20
162.1330865993
 30
0.0
 10
493.3588654662
 20
160.6611438293
 30
0.0
  0
SPLINE
  5
4FD
100
AcDbEntity
  8
0
100
AcDbSpline
 62
7
  6
CONTINUOUS
 70
0
 71
3
 72
11
 73
7
 74
0
 42
0.0000001
 43
0.0000001
 44
0.0000000001
 40
0.0
 40
0.0
 40
0.0
 40
0.0
 40
0.2500457849
 40
0.5000000008
 40
0.7499542166
 40
1.0
 40
1.0
 40
1.0
 40
1.0
 10
486.8390619406
 20
180.063450481
 30
0.0
 10
487.0842959026
 20
178.8964152827
 30
0.0
 10
487.6509382682
 20
176.5778498004
 30
0.0
 10
488.7489061683
 20
173.170494887
 30
0.0
 10
490.0980194762
 20
169.8545494338
 30
0.0
 10
491.1542914045
 20
167.7141945468
 30
0.0
 10
491.7165870529
 20
166.6625603722
 30
0.0
  0
SPLINE
  5
4FE
100
AcDbEntity
  8
0
100
AcDbSpline
 62
7
  6
CONTINUOUS
 70
0
 71
3
 72
11
 73
7
 74
0
 42
0.0000001
 43
0.0000001
 44
0.0000000001
 40
0.0
 40
0.0
 40
0.0
 40
0.0
 40
0.2506004323
 40
0.5000000008
 40
0.7493995691
 40
1.0
 40
1.0
 40
1.0
 40
1.0
 10
483.2684657433
 20
189.8735829072
 30
0.0
 10
483.4050234441
 20
189.0068890205
 30
0.0
 10
483.7531660381
 20
187.2882837884
 30
0.0
 10
484.5247151019
 20
184.7759586918
 30
0.0
 10
485.5485656696
 20
182.3554638377
 30
0.0
 10
486.3865711193
 20
180.8151541106
 30
0.0
 10
486.8390619406
 20
180.063450481
 30
0.0
  0
LINE
  5
4FF
100
AcDbEntity
  8
RUNDUNGEN
100
AcDbLine
 62
7
  6
CONTINUOUS
 10
506.8043127367
 20
146.8601716361
 11
509.8572876953
 21
148.9978877161
  0
LINE
  5
500
100
AcDbEntity
  8
RUNDUNGEN
100
AcDbLine
 62
7
  6
CONTINUOUS
 10
514.453554354
 20
145.1411620579
 11
511.4005793955
 21
143.003445978
  0
SPLINE
  5
501
100
AcDbEntity
  8
0
100
AcDbSpline
 62
7
  6
CONTINUOUS
 70
0
 71
3
 72
21
 73
17
 74
0
 42
0.0000001
 43
0.0000001
 44
0.0000000001
 40
0.0
 40
0.0
 40
0.0
 40
0.0
 40
0.1327177572
 40
0.2635372094
 40
0.3914907831
 40
0.5154899988
 40
0.5758142189
 40
0.6348567615
 40
0.6926856035
 40
0.7497246551
 40
0.7784151256
 40
0.8075448323
 40
0.8374778712
 40
0.8685016475
 40
0.9332559197
 40
1.0
 40
1.0
 40
1.0
 40
1.0
 10
508.1927987387
 20
119.6082335365
 30
0.0
 10
507.7438613652
 20
119.5236582833
 30
0.0
 10
506.8406508791
 20
119.4115693507
 30
0.0
 10
505.4884903734
 20
119.4303477084
 30
0.0
 10
504.1842801193
 20
119.6550374653
 30
0.0
 10
503.1693634943
 20
120.0377498198
 30
0.0
 10
502.4533736109
 20
120.4773137875
 30
0.0
 10
501.9857577424
 20
120.8735506448
 30
0.0
 10
501.607398663
 20
121.3428332211
 30
0.0
 10
501.3990598943
 20
121.7998786513
 30
0.0
 10
501.331857937
 20
122.1916885735
 30
0.0
 10
501.3414563923
 20
122.4959787231
 30
0.0
 10
501.4219913151
 20
122.7984373894
 30
0.0
 10
501.6310128786
 20
123.1819507922
 30
0.0
 10
502.0606385672
 20
123.5641957273
 30
0.0
 10
502.4758210463
 20
123.7528637804
 30
0.0
 10
502.6917089988
 20
123.831440569
 30
0.0
  0
LINE
  5
502
100
AcDbEntity
  8
0
100
AcDbLine
 62
7
  6
CONTINUOUS
 10
452.0842878625
 20
137.2575075702
 11
455.7970997736
 21
136.9326786181
  0
LINE
  5
503
100
AcDbEntity
  8
0
100
AcDbLine
 62
7
  6
CONTINUOUS
 10
451.0423987965
 20
143.1663540882
 11
454.7552107076
 21
142.8415251362
  0
SPLINE
  5
504
100
AcDbEntity
  8
0
100
AcDbSpline
 62
7
  6
CONTINUOUS
 70
0
 71
3
 72
13
 73
9
 74
0
 42
0.0000001
 43
0.0000001
 44
0.0000000001
 40
0.0
 40
0.0
 40
0.0
 40
0.0
 40
0.4034581053
 40
0.7048799357
 40
0.8164661575
 40
0.9021406781
 40
0.9625842093
 40
1.0
 40
1.0
 40
1.0
 40
1.0
 10
454.7386697514
 20
152.9863975097
 30
0.0
 10
454.8471990482
 20
153.0193039912
 30
0.0
 10
455.0379673125
 20
153.0729295424
 30
0.0
 10
455.261912117
 20
153.1243448715
 30
0.0
 10
455.4001588341
 20
153.1470551692
 30
0.0
 10
455.4725172095
 20
153.1545026808
 30
0.0
 10
455.5237107219
 20
153.1546304
 30
0.0
 10
455.5518691072
 20
153.1491495791
 30
0.0
 10
455.5606556296
 20
153.1433695145
 30
0.0
  0
SPLINE
  5
505
100
AcDbEntity
  8
0
100
AcDbSpline
 62
7
  6
CONTINUOUS
 70
0
 71
3
 72
9
 73
5
 74
0
 42
0.0000001
 43
0.0000001
 44
0.0000000001
 40
0.0
 40
0.0
 40
0.0
 40
0.0
 40
0.7498709243
 40
1.0
 40
1.0
 40
1.0
 40
1.0
 10
449.613682557
 20
162.3810790586
 30
0.0
 10
450.1738609065
 20
163.8325184733
 30
0.0
 10
451.0161085346
 20
165.7331674483
 30
0.0
 10
451.9685649505
 20
167.5764248974
 30
0.0
 10
452.2132604988
 20
168.0340670679
 30
0.0
  0
SPLINE
  5
506
100
AcDbEntity
  8
0
100
AcDbSpline
 62
7
  6
CONTINUOUS
 70
0
 71
3
 72
11
 73
7
 74
0
 42
0.0000001
 43
0.0000001
 44
0.0000000001
 40
0.0
 40
0.0
 40
0.0
 40
0.0
 40
0.2577328834
 40
0.5000000007
 40
0.7422671179
 40
1.0
 40
1.0
 40
1.0
 40
1.0
 10
460.6613818084
 20
191.2450896029
 30
0.0
 10
460.6132459069
 20
191.5844782932
 30
0.0
 10
460.5798609968
 20
192.2550411671
 30
0.0
 10
460.7839353691
 20
193.2337042107
 30
0.0
 10
461.2566778072
 20
194.1145800742
 30
0.0
 10
461.7132816398
 20
194.6068016274
 30
0.0
 10
461.9683107233
 20
194.8358472854
 30
0.0
  0
SPLINE
  5
507
100
AcDbEntity
  8
0
100
AcDbSpline
 62
7
  6
CONTINUOUS
 70
0
 71
3
 72
11
 73
7
 74
0
 42
0.0000001
 43
0.0000001
 44
0.0000000001
 40
0.0
 40
0.0
 40
0.0
 40
0.0
 40
0.2506004323
 40
0.5000000008
 40
0.7493995691
 40
1.0
 40
1.0
 40
1.0
 40
1.0
 10
457.0907856111
 20
181.4349571767
 30
0.0
 10
457.2273433118
 20
182.3016510634
 30
0.0
 10
457.5754859058
 20
184.0202562955
 30
0.0
 10
458.3470349697
 20
186.5325813921
 30
0.0
 10
459.3708855374
 20
188.9530762462
 30
0.0
 10
460.2088909871
 20
190.4933859733
 30
0.0
 10
460.6613818084
 20
191.2450896029
 30
0.0
  0
SPLINE
  5
508
100
AcDbEntity
  8
0
100
AcDbSpline
 62
7
  6
CONTINUOUS
 70
0
 71
3
 72
11
 73
7
 74
0
 42
0.0000001
 43
0.0000001
 44
0.0000000001
 40
0.0
 40
0.0
 40
0.0
 40
0.0
 40
0.2500457849
 40
0.5000000008
 40
0.7499542166
 40
1.0
 40
1.0
 40
1.0
 40
1.0
 10
452.2132604988
 20
168.0340670679
 30
0.0
 10
452.4584944607
 20
169.2011022661
 30
0.0
 10
453.0251368264
 20
171.5196677485
 30
0.0
 10
454.1231047264
 20
174.9270226618
 30
0.0
 10
455.4722180344
 20
178.242968115
 30
0.0
 10
456.5284899626
 20
180.383323002
 30
0.0
 10
457.0907856111
 20
181.4349571767
 30
0.0
  0
SPLINE
  5
509
100
AcDbEntity
  8
0
100
AcDbSpline
 62
7
  6
CONTINUOUS
 70
0
 71
3
 72
11
 73
7
 74
0
 42
0.0000001
 43
0.0000001
 44
0.0000000001
 40
0.0
 40
0.0
 40
0.0
 40
0.0
 40
0.2577328834
 40
0.5000000007
 40
0.7422671179
 40
1.0
 40
1.0
 40
1.0
 40
1.0
 10
464.4295654854
 20
189.8735829072
 30
0.0
 10
464.6845945703
 20
190.1026285664
 30
0.0
 10
465.141198402
 20
190.5948501231
 30
0.0
 10
465.6139408416
 20
191.4757259873
 30
0.0
 10
465.8180152146
 20
192.4543890295
 30
0.0
 10
465.7846303016
 20
193.1249519012
 30
0.0
 10
465.7364944003
 20
193.4643405897
 30
0.0
  0
SPLINE
  5
50A
100
AcDbEntity
  8
0
100
AcDbSpline
 62
7
  6
CONTINUOUS
 70
0
 71
3
 72
11
 73
7
 74
0
 42
0.0000001
 43
0.0000001
 44
0.0000000001
 40
0.0
 40
0.0
 40
0.0
 40
0.0
 40
0.2506004323
 40
0.5000000008
 40
0.7493995691
 40
1.0
 40
1.0
 40
1.0
 40
1.0
 10
460.8589692881
 20
180.063450481
 30
0.0
 10
461.3114601121
 20
180.8151541149
 30
0.0
 10
462.1494655616
 20
182.3554638487
 30
0.0
 10
463.1733161323
 20
184.7759587067
 30
0.0
 10
463.9448651958
 20
187.2882837984
 30
0.0
 10
464.2930077855
 20
189.0068890254
 30
0.0
 10
464.4295654854
 20
189.8735829072
 30
0.0
  0
SPLINE
  5
50B
100
AcDbEntity
  8
0
100
AcDbSpline
 62
7
  6
CONTINUOUS
 70
0
 71
3
 72
11
 73
7
 74
0
 42
0.0000001
 43
0.0000001
 44
0.0000000001
 40
0.0
 40
0.0
 40
0.0
 40
0.0
 40
0.2500457849
 40
0.5000000008
 40
0.7499542166
 40
1.0
 40
1.0
 40
1.0
 40
1.0
 10
455.9814441758
 20
166.6625603722
 30
0.0
 10
456.5437398275
 20
167.7141945529
 30
0.0
 10
457.6000117564
 20
169.8545494485
 30
0.0
 10
458.9491250679
 20
173.1704949076
 30
0.0
 10
460.047092967
 20
176.5778498141
 30
0.0
 10
460.6137353276
 20
178.8964152895
 30
0.0
 10
460.8589692881
 20
180.063450481
 30
0.0
  0
SPLINE
  5
50C
100
AcDbEntity
  8
0
100
AcDbSpline
 62
7
  6
CONTINUOUS
 70
0
 71
3
 72
9
 73
5
 74
0
 42
0.0000001
 43
0.0000001
 44
0.0000000001
 40
0.0
 40
0.0
 40
0.0
 40
0.0
 40
0.7498709243
 40
1.0
 40
1.0
 40
1.0
 40
1.0
 10
454.3391657625
 20
160.6611438293
 30
0.0
 10
454.8430115227
 20
162.1330866297
 30
0.0
 10
455.419526019
 20
164.130454555
 30
0.0
 10
455.874725124
 20
166.1546988639
 30
0.0
 10
455.9814441758
 20
166.6625603722
 30
0.0
  0
LINE
  5
50D
100
AcDbEntity
  8
RUNDUNGEN
100
AcDbLine
 62
7
  6
CONTINUOUS
 10
436.2974518333
 20
143.003445978
 11
433.2444768748
 21
145.1411620579
  0
LINE
  5
50E
100
AcDbEntity
  8
RUNDUNGEN
100
AcDbLine
 62
7
  6
CONTINUOUS
 10
440.893718492
 20
146.8601716361
 11
437.8407435335
 21
148.9978877161
  0
SPLINE
  5
50F
100
AcDbEntity
  8
RUNDUNGEN
100
AcDbSpline
 62
7
  6
CONTINUOUS
 70
0
 71
3
 72
13
 73
9
 74
0
 42
0.0000001
 43
0.0000001
 44
0.0000000001
 40
0.0
 40
0.0
 40
0.0
 40
0.0
 40
0.4034581053
 40
0.7048799357
 40
0.8164661575
 40
0.9021406781
 40
0.9625842093
 40
1.0
 40
1.0
 40
1.0
 40
1.0
 10
444.3744129045
 20
156.7586785022
 30
0.0
 10
444.3124265185
 20
156.8536476168
 30
0.0
 10
444.2007593895
 20
157.0173506489
 30
0.0
 10
444.0622568529
 20
157.2006860217
 30
0.0
 10
443.9709516216
 20
157.3069463958
 30
0.0
 10
443.9203090583
 20
157.3591625879
 30
0.0
 10
443.881174649
 20
157.3921669819
 30
0.0
 10
443.8560810706
 20
157.4060682907
 30
0.0
 10
443.8456348501
 20
157.4072883721
 30
0.0
  0
SPLINE
  5
510
100
AcDbEntity
  8
RUNDUNGEN
100
AcDbSpline
 62
7
  6
CONTINUOUS
 70
0
 71
3
 72
21
 73
17
 74
0
 42
0.0000001
 43
0.0000001
 44
0.0000000001
 40
0.0
 40
0.0
 40
0.0
 40
0.0
 40
0.0667432843
 40
0.1315000683
 40
0.1625259853
 40
0.1924605933
 40
0.2215896022
 40
0.2502792622
 40
0.3073179231
 40
0.3651464118
 40
0.4241889338
 40
0.4845132311
 40
0.6085115308
 40
0.736463473
 40
0.8672824912
 40
1.0
 40
1.0
 40
1.0
 40
1.0
 10
433.0893785595
 20
128.1688533485
 30
0.0
 10
432.8734932077
 20
128.2474291905
 30
0.0
 10
432.4341655886
 20
128.3697828311
 30
0.0
 10
431.8593390961
 20
128.3531047799
 30
0.0
 10
431.4526793862
 20
128.1936715423
 30
0.0
 10
431.1965651801
 20
128.0137261025
 30
0.0
 10
430.9936352929
 20
127.7867818317
 30
0.0
 10
430.7932690636
 20
127.4434471838
 30
0.0
 10
430.6590996011
 20
126.9594123313
 30
0.0
 10
430.6472970984
 20
126.3567203176
 30
0.0
 10
430.7508209451
 20
125.7526094213
 30
0.0
 10
431.0167585004
 20
124.9556590917
 30
0.0
 10
431.5482283134
 20
124.0101194941
 30
0.0
 10
432.4028778932
 20
122.9996763261
 30
0.0
 10
433.4266168624
 20
122.116145193
 30
0.0
 10
434.190563574
 20
121.6214392425
 30
0.0
 10
434.5888326857
 20
121.3976567099
 30
0.0
  0
SPLINE
  5
511
100
AcDbEntity
  8
0
100
AcDbSpline
 62
7
  6
CONTINUOUS
 70
0
 71
3
 72
21
 73
17
 74
0
 42
0.0000001
 43
0.0000001
 44
0.0000000001
 40
0.0
 40
0.0
 40
0.0
 40
0.0
 40
0.0667432843
 40
0.1315000683
 40
0.1625259853
 40
0.1924605933
 40
0.2215896022
 40
0.2502792622
 40
0.3073179231
 40
0.3651464118
 40
0.4241889338
 40
0.4845132311
 40
0.6085115308
 40
0.736463473
 40
0.8672824912
 40
1.0
 40
1.0
 40
1.0
 40
1.0
 10
445.0063222299
 20
123.831440569
 30
0.0
 10
445.2222075817
 20
123.752864727
 30
0.0
 10
445.6373994672
 20
123.5641987032
 30
0.0
 10
446.0670216628
 20
123.1819312277
 30
0.0
 10
446.2760593642
 20
122.7984024591
 30
0.0
 10
446.3565875295
 20
122.4959292165
 30
0.0
 10
446.3661638765
 20
122.1916390018
 30
0.0
 10
446.2989620554
 20
121.7998364732
 30
0.0
 10
446.0906102208
 20
121.342801796
 30
0.0
 10
445.7122485035
 20
120.8735264255
 30
0.0
 10
445.2446296369
 20
120.4772944763
 30
0.0
 10
444.5286398532
 20
120.0377364704
 30
0.0
 10
443.5137292184
 20
119.6550333266
 30
0.0
 10
442.2095293083
 20
119.4303471132
 30
0.0
 10
440.8573768946
 20
119.4115697233
 30
0.0
 10
439.9541689059
 20
119.5236584597
 30
0.0
 10
439.5052324269
 20
119.6082335444
 30
0.0
  0
SPLINE
  5
512
100
AcDbEntity
  8
KONSTRUKTIONSELEMENTE
100
AcDbSpline
 62
7
  6
CONTINUOUS
 70
0
 71
3
 72
13
 73
9
 74
0
 42
0.0000001
 43
0.0000001
 44
0.0000000001
 40
0.0
 40
0.0
 40
0.0
 40
0.0
 40
0.1194785188
 40
0.2392741704
 40
0.3602835725
 40
0.4830059608
 40
0.7355440041
 40
1.0
 40
1.0
 40
1.0
 40
1.0
 10
151.4452901621
 20
116.6102055642
 30
0.0
 10
151.4452901621
 20
116.9688451754
 30
0.0
 10
151.5213856453
 20
117.6893518045
 30
0.0
 10
151.8569618729
 20
118.7248475602
 30
0.0
 10
152.3929463382
 20
119.6831672393
 30
0.0
 10
153.3506419039
 20
120.8335470002
 30
0.0
 10
154.9369605466
 20
121.9728895195
 30
0.0
 10
156.4170139891
 20
122.5004155398
 30
0.0
 10
157.1911778416
 20
122.6759716849
 30
0.0
  0
SPLINE
  5
513
100
AcDbEntity
  8
KONSTRUKTIONSELEMENTE
100
AcDbSpline
 62
7
  6
CONTINUOUS
 70
0
 71
3
 72
13
 73
9
 74
0
 42
0.0000001
 43
0.0000001
 44
0.0000000001
 40
0.0
 40
0.0
 40
0.0
 40
0.0
 40
0.2644681654
 40
0.5169944072
 40
0.6397129492
 40
0.760706397
 40
0.8805228501
 40
1.0
 40
1.0
 40
1.0
 40
1.0
 10
161.6974609409
 20
122.6764028972
 30
0.0
 10
162.4718582674
 20
122.500922793
 30
0.0
 10
163.952349115
 20
121.9736020643
 30
0.0
 10
165.5391995221
 20
120.8342496009
 30
0.0
 10
166.4971714814
 20
119.683807052
 30
0.0
 10
167.0334882392
 20
118.7253852655
 30
0.0
 10
167.3691025757
 20
117.689631853
 30
0.0
 10
167.4452901621
 20
116.9689198345
 30
0.0
 10
167.4452901621
 20
116.6102055642
 30
0.0
  0
SPLINE
  5
514
100
AcDbEntity
  8
KONSTRUKTIONSELEMENTE
100
AcDbSpline
 62
7
  6
CONTINUOUS
 70
0
 71
3
 72
11
 73
7
 74
0
 42
0.0000001
 43
0.0000001
 44
0.0000000001
 40
0.0
 40
0.0
 40
0.0
 40
0.0
 40
0.3114703232
 40
0.4450990083
 40
0.6063354134
 40
1.0
 40
1.0
 40
1.0
 40
1.0
 10
155.9452901621
 20
116.6102055642
 30
0.0
 10
155.9452901621
 20
116.8073604107
 30
0.0
 10
156.0840006977
 20
117.0824552976
 30
0.0
 10
156.3353685442
 20
117.368807292
 30
0.0
 10
156.6637372186
 20
117.6585872982
 30
0.0
 10
156.9685393005
 20
117.8399697285
 30
0.0
 10
157.1932982738
 20
117.9475578595
 30
0.0
  0
SPLINE
  5
515
100
AcDbEntity
  8
KONSTRUKTIONSELEMENTE
100
AcDbSpline
 62
7
  6
CONTINUOUS
 70
0
 71
3
 72
11
 73
7
 74
0
 42
0.0000001
 43
0.0000001
 44
0.0000000001
 40
0.0
 40
0.0
 40
0.0
 40
0.0
 40
0.3936803283
 40
0.5549226436
 40
0.6885473432
 40
1.0
 40
1.0
 40
1.0
 40
1.0
 10
161.6970393976
 20
117.9476697876
 30
0.0
 10
161.9218473036
 20
117.840079887
 30
0.0
 10
162.2267142122
 20
117.6586767692
 30
0.0
 10
162.5551420122
 20
117.3688574981
 30
0.0
 10
162.8065853889
 20
117.0825123518
 30
0.0
 10
162.9452901621
 20
116.8073768681
 30
0.0
 10
162.9452901621
 20
116.6102055642
 30
0.0
  0
SPLINE
  5
516
100
AcDbEntity
  8
KONSTRUKTIONSELEMENTE
100
AcDbSpline
 62
7
  6
CONTINUOUS
 70
0
 71
3
 72
12
 73
8
 74
0
 42
0.0000001
 43
0.0000001
 44
0.0000000001
 40
0.0
 40
0.0
 40
0.0
 40
0.0
 40
0.1282453638
 40
0.2146169864
 40
0.321985829
 40
0.6101725692
 40
1.0
 40
1.0
 40
1.0
 40
1.0
 10
162.9452901621
 20
106.0036038464
 30
0.0
 10
162.9452901621
 20
105.9343408366
 30
0.0
 10
162.9256271764
 20
105.817796987
 30
0.0
 10
162.8589372827
 20
105.6567734631
 30
0.0
 10
162.727772392
 20
105.430962289
 30
0.0
 10
162.4364779316
 20
105.1159878457
 30
0.0
 10
162.1341805282
 20
104.9046206036
 30
0.0
 10
161.9516442271
 20
104.7997060072
 30
0.0
  0
SPLINE
  5
517
100
AcDbEntity
  8
KONSTRUKTIONSELEMENTE
100
AcDbSpline
 62
7
  6
CONTINUOUS
 70
0
 71
3
 72
12
 73
8
 74
0
 42
0.0000001
 43
0.0000001
 44
0.0000000001
 40
0.0
 40
0.0
 40
0.0
 40
0.0
 40
0.3898396094
 40
0.6780156338
 40
0.7853729626
 40
0.8717632718
 40
1.0
 40
1.0
 40
1.0
 40
1.0
 10
156.938844561
 20
104.7997584783
 30
0.0
 10
156.7563173176
 20
104.9046738878
 30
0.0
 10
156.4540695539
 20
105.1160632255
 30
0.0
 10
156.1627645777
 20
105.4309811431
 30
0.0
 10
156.0316264194
 20
105.6567896051
 30
0.0
 10
155.9649806123
 20
105.8178153395
 30
0.0
 10
155.9452901621
 20
105.934350114
 30
0.0
 10
155.9452901621
 20
106.0036038464
 30
0.0
  0
SPLINE
  5
518
100
AcDbEntity
  8
KONSTRUKTIONSELEMENTE
100
AcDbSpline
 62
7
  6
CONTINUOUS
 70
0
 71
3
 72
13
 73
9
 74
0
 42
0.0000001
 43
0.0000001
 44
0.0000000001
 40
0.0
 40
0.0
 40
0.0
 40
0.0
 40
0.1197290731
 40
0.2397365246
 40
0.3609040964
 40
0.4836831257
 40
0.7359942557
 40
1.0
 40
1.0
 40
1.0
 40
1.0
 10
167.4452901621
 20
106.0036038464
 30
0.0
 10
167.4452901621
 20
105.6543901443
 30
0.0
 10
167.3731865403
 20
104.9530491083
 30
0.0
 10
167.0549012056
 20
103.9428308601
 30
0.0
 10
166.5455176639
 20
103.0042526415
 30
0.0
 10
165.6337171354
 20
101.8714781348
 30
0.0
 10
164.1178258698
 20
100.7343347187
 30
0.0
 10
162.6949390197
 20
100.1877889948
 30
0.0
 10
161.948714498
 20
99.9978205042
 30
0.0
  0
SPLINE
  5
519
100
AcDbEntity
  8
KONSTRUKTIONSELEMENTE
100
AcDbSpline
 62
7
  6
CONTINUOUS
 70
0
 71
3
 72
13
 73
9
 74
0
 42
0.0000001
 43
0.0000001
 44
0.0000000001
 40
0.0
 40
0.0
 40
0.0
 40
0.0
 40
0.2640112835
 40
0.5163080567
 40
0.6390830379
 40
0.7602378991
 40
0.8802701562
 40
1.0
 40
1.0
 40
1.0
 40
1.0
 10
156.9409623596
 20
99.9980676937
 30
0.0
 10
156.1948225373
 20
100.188102295
 30
0.0
 10
154.7721460959
 20
100.7346689262
 30
0.0
 10
153.2565560288
 20
101.8718142672
 30
0.0
 10
152.3449657514
 20
103.0044297758
 30
0.0
 10
151.8355748356
 20
103.9429070623
 30
0.0
 10
151.5174381165
 20
104.9530951655
 30
0.0
 10
151.4452901621
 20
105.654425049
 30
0.0
 10
151.4452901621
 20
106.0036038464
 30
0.0
  0
SPLINE
  5
51A
100
AcDbEntity
  8
KONSTRUKTIONSELEMENTE
100
AcDbSpline
 62
7
  6
CONTINUOUS
 70
0
 71
3
 72
9
 73
5
 74
0
 42
0.0000001
 43
0.0000001
 44
0.0000000001
 40
0.0
 40
0.0
 40
0.0
 40
0.0
 40
0.2452082111
 40
1.0
 40
1.0
 40
1.0
 40
1.0
 10
146.911401926
 20
169.4614985598
 30
0.0
 10
147.0320454668
 20
169.3793186969
 30
0.0
 10
147.5285571728
 20
169.0508258329
 30
0.0
 10
148.0425018486
 20
168.7488042881
 30
0.0
 10
148.4380036248
 20
168.5355491682
 30
0.0
  0
SPLINE
  5
51B
100
AcDbEntity
  8
KONSTRUKTIONSELEMENTE
100
AcDbSpline
 62
7
  6
CONTINUOUS
 70
0
 71
3
 72
9
 73
5
 74
0
 42
0.0000001
 43
0.0000001
 44
0.0000000001
 40
0.0
 40
0.0
 40
0.0
 40
0.0
 40
0.2548012321
 40
1.0
 40
1.0
 40
1.0
 40
1.0
 10
170.4504242529
 20
168.5343848484
 30
0.0
 10
170.5842118368
 20
168.6065025905
 30
0.0
 10
171.1057237037
 20
168.8960647217
 30
0.0
 10
171.6127478121
 20
169.2118625974
 30
0.0
 10
171.9801058908
 20
169.4621293041
 30
0.0
  0
SPLINE
  5
51C
100
AcDbEntity
  8
KONSTRUKTIONSELEMENTE
100
AcDbSpline
 62
7
  6
CONTINUOUS
 70
0
 71
3
 72
9
 73
5
 74
0
 42
0.0000001
 43
0.0000001
 44
0.0000000001
 40
0.0
 40
0.0
 40
0.0
 40
0.0
 40
0.4859207799
 40
1.0
 40
1.0
 40
1.0
 40
1.0
 10
180.8357421288
 20
184.7153631987
 30
0.0
 10
180.0235574279
 20
186.0489448511
 30
0.0
 10
177.934501662
 20
188.5506328813
 30
0.0
 10
175.3030369448
 20
190.4474701796
 30
0.0
 10
173.8708410211
 20
191.2706671564
 30
0.0
  0
SPLINE
  5
51D
100
AcDbEntity
  8
KONSTRUKTIONSELEMENTE
100
AcDbSpline
 62
7
  6
CONTINUOUS
 70
0
 71
3
 72
9
 73
5
 74
0
 42
0.0000001
 43
0.0000001
 44
0.0000000001
 40
0.0
 40
0.0
 40
0.0
 40
0.0
 40
0.2466895436
 40
1.0
 40
1.0
 40
1.0
 40
1.0
 10
173.7557079926
 20
191.336418094
 30
0.0
 10
173.4937400477
 20
191.4850617459
 30
0.0
 10
172.4205002816
 20
192.0675458869
 30
0.0
 10
171.304315931
 20
192.5702619781
 30
0.0
 10
170.4475627728
 20
192.9048564091
 30
0.0
  0
SPLINE
  5
51E
100
AcDbEntity
  8
KONSTRUKTIONSELEMENTE
100
AcDbSpline
 62
7
  6
CONTINUOUS
 70
0
 71
3
 72
9
 73
5
 74
0
 42
0.0000001
 43
0.0000001
 44
0.0000000001
 40
0.0
 40
0.0
 40
0.0
 40
0.0
 40
0.2533887433
 40
1.0
 40
1.0
 40
1.0
 40
1.0
 10
148.4390563209
 20
192.9033127994
 30
0.0
 10
148.1510163576
 20
192.7907678479
 30
0.0
 10
147.0219838331
 20
192.3272035722
 30
0.0
 10
145.9249738983
 20
191.7848594769
 30
0.0
 10
145.132519801
 20
191.3350869362
 30
0.0
  0
SPLINE
  5
51F
100
AcDbEntity
  8
KONSTRUKTIONSELEMENTE
100
AcDbSpline
 62
7
  6
CONTINUOUS
 70
0
 71
3
 72
9
 73
5
 74
0
 42
0.0000001
 43
0.0000001
 44
0.0000000001
 40
0.0
 40
0.0
 40
0.0
 40
0.0
 40
0.5142670958
 40
1.0
 40
1.0
 40
1.0
 40
1.0
 10
145.132519801
 20
191.3350869362
 30
0.0
 10
143.6768053632
 20
190.5088682524
 30
0.0
 10
141.0020704505
 20
188.5996313044
 30
0.0
 10
138.8800043966
 20
186.0693738685
 30
0.0
 10
138.0572665482
 20
184.7193518171
 30
0.0
  0
SPLINE
  5
520
100
AcDbEntity
  8
0
100
AcDbSpline
 62
7
  6
CONTINUOUS
 70
0
 71
3
 72
12
 73
8
 74
0
 42
0.0000001
 43
0.0000001
 44
0.0000000001
 40
0.0
 40
0.0
 40
0.0
 40
0.0
 40
0.1089727213
 40
0.2201620805
 40
0.4554253
 40
0.7155329149
 40
1.0
 40
1.0
 40
1.0
 40
1.0
 10
171.1187824291
 20
78.7941349064
 30
0.0
 10
171.1187824291
 20
78.9091343128
 30
0.0
 10
171.0945998341
 20
79.1421646597
 30
0.0
 10
170.9492480724
 20
79.6031953403
 30
0.0
 10
170.5810898522
 20
80.1447094988
 30
0.0
 10
169.9224103851
 20
80.6545822556
 30
0.0
 10
169.3885084528
 20
80.8835833704
 30
0.0
 10
169.1016322186
 20
80.9720237924
 30
0.0
  0
SPLINE
  5
521
100
AcDbEntity
  8
0
100
AcDbSpline
 62
7
  6
CONTINUOUS
 70
0
 71
3
 72
17
 73
13
 74
0
 42
0.0000001
 43
0.0000001
 44
0.0000000001
 40
0.0
 40
0.0
 40
0.0
 40
0.0
 40
0.0517809237
 40
0.1054811646
 40
0.2228479209
 40
0.3562855052
 40
0.5
 40
0.6437144948
 40
0.7771520791
 40
0.8945188354
 40
0.9482190763
 40
1.0
 40
1.0
 40
1.0
 40
1.0
 10
160.6601170151
 20
78.2085573865
 30
0.0
 10
160.6601170151
 20
78.1384901439
 30
0.0
 10
160.6805174743
 20
77.9950389775
 30
0.0
 10
160.8024221429
 20
77.7158103722
 30
0.0
 10
161.1036670024
 20
77.4143765652
 30
0.0
 10
161.5982344512
 20
77.192244203
 30
0.0
 10
162.1697711593
 20
77.1145351873
 30
0.0
 10
162.7413078674
 20
77.192244203
 30
0.0
 10
163.2358753163
 20
77.4143765652
 30
0.0
 10
163.5371201758
 20
77.7158103722
 30
0.0
 10
163.6590248444
 20
77.9950389775
 30
0.0
 10
163.6794253036
 20
78.1384901439
 30
0.0
 10
163.6794253036
 20
78.2085573865
 30
0.0
  0
SPLINE
  5
522
100
AcDbEntity
  8
0
100
AcDbSpline
 62
7
  6
CONTINUOUS
 70
0
 71
3
 72
12
 73
8
 74
0
 42
0.0000001
 43
0.0000001
 44
0.0000000001
 40
0.0
 40
0.0
 40
0.0
 40
0.0
 40
0.1035930223
 40
0.210949621
 40
0.4457011106
 40
0.7125563401
 40
1.0
 40
1.0
 40
1.0
 40
1.0
 10
158.734646963
 20
79.8730560469
 30
0.0
 10
158.734635859
 20
79.9470765375
 30
0.0
 10
158.713057561
 20
80.0985680884
 30
0.0
 10
158.5841785293
 20
80.393397382
 30
0.0
 10
158.2659902686
 20
80.7117015783
 30
0.0
 10
157.7440445258
 20
80.9462906315
 30
0.0
 10
157.3455046028
 20
81.0003080637
 30
0.0
 10
157.1401170151
 20
81.0003080637
 30
0.0
  0
SPLINE
  5
523
100
AcDbEntity
  8
0
100
AcDbSpline
 62
7
  6
CONTINUOUS
 70
0
 71
3
 72
9
 73
5
 74
0
 42
0.0000001
 43
0.0000001
 44
0.0000000001
 40
0.0
 40
0.0
 40
0.0
 40
0.0
 40
0.4402133985
 40
1.0
 40
1.0
 40
1.0
 40
1.0
 10
149.9954759739
 20
78.2680474612
 30
0.0
 10
149.9954759739
 20
78.2495040901
 30
0.0
 10
150.0240342054
 20
78.2091236999
 30
0.0
 10
150.0678957496
 20
78.2001652102
 30
0.0
 10
150.0914759739
 20
78.2001652102
 30
0.0
  0
SPLINE
  5
524
100
AcDbEntity
  8
0
100
AcDbSpline
 62
7
  6
CONTINUOUS
 70
0
 71
3
 72
9
 73
5
 74
0
 42
0.0000001
 43
0.0000001
 44
0.0000000001
 40
0.0
 40
0.0
 40
0.0
 40
0.0
 40
0.4402133985
 40
1.0
 40
1.0
 40
1.0
 40
1.0
 10
150.6554759739
 20
78.3019885867
 30
0.0
 10
150.6554759739
 20
78.3205319577
 30
0.0
 10
150.6269177424
 20
78.360912348
 30
0.0
 10
150.5830561982
 20
78.3698708377
 30
0.0
 10
150.5594759739
 20
78.3698708377
 30
0.0
  0
SPLINE
  5
525
100
AcDbEntity
  8
RUNDUNGEN
100
AcDbSpline
 62
7
  6
CONTINUOUS
 70
0
 71
3
 72
10
 73
6
 74
0
 42
0.0000001
 43
0.0000001
 44
0.0000000001
 40
0.0
 40
0.0
 40
0.0
 40
0.0
 40
0.5180750537
 40
0.7617172794
 40
1.0
 40
1.0
 40
1.0
 40
1.0
 10
186.2218983393
 20
49.4584740741
 30
0.0
 10
186.4425928665
 20
49.2356050128
 30
0.0
 10
186.7208523503
 20
48.8508667677
 30
0.0
 10
186.9131939131
 20
48.2731977101
 30
0.0
 10
186.9452901621
 20
47.9804149403
 30
0.0
 10
186.9452901621
 20
47.8361549235
 30
0.0
  0
SPLINE
  5
526
100
AcDbEntity
  8
0
100
AcDbSpline
 62
7
  6
CONTINUOUS
 70
0
 71
3
 72
9
 73
5
 74
0
 42
0.0000001
 43
0.0000001
 44
0.0000000001
 40
0.0
 40
0.0
 40
0.0
 40
0.0
 40
0.4402133985
 40
1.0
 40
1.0
 40
1.0
 40
1.0
 10
150.6554759739
 20
79.9990448615
 30
0.0
 10
150.6554759739
 20
80.0175882326
 30
0.0
 10
150.6269177424
 20
80.0579686228
 30
0.0
 10
150.5830561982
 20
80.0669271125
 30
0.0
 10
150.5594759739
 20
80.0669271125
 30
0.0
  0
SPLINE
  5
527
100
AcDbEntity
  8
RUNDUNGEN
100
AcDbSpline
 62
7
  6
CONTINUOUS
 70
0
 71
3
 72
11
 73
7
 74
0
 42
0.0000001
 43
0.0000001
 44
0.0000000001
 40
0.0
 40
0.0
 40
0.0
 40
0.0
 40
0.2793755914
 40
0.5367190118
 40
0.774320888
 40
1.0
 40
1.0
 40
1.0
 40
1.0
 10
195.0687404176
 20
94.2278838581
 30
0.0
 10
195.144358044
 20
94.1904439456
 30
0.0
 10
195.2832666699
 20
94.1040762764
 30
0.0
 10
195.4494891458
 20
93.9360286631
 30
0.0
 10
195.5556166645
 20
93.7423331673
 30
0.0
 10
195.5803994231
 20
93.6014284865
 30
0.0
 10
195.5804400062
 20
93.5332674972
 30
0.0
  0
SPLINE
  5
528
100
AcDbEntity
  8
RUNDUNGEN
100
AcDbSpline
 62
7
  6
CONTINUOUS
 70
0
 71
3
 72
11
 73
7
 74
0
 42
0.0000001
 43
0.0000001
 44
0.0000000001
 40
0.0
 40
0.0
 40
0.0
 40
0.0
 40
0.2297148774
 40
0.4842569964
 40
0.7475608951
 40
1.0
 40
1.0
 40
1.0
 40
1.0
 10
187.4995715219
 20
96.9396805162
 30
0.0
 10
187.5953666304
 20
97.0364195072
 30
0.0
 10
187.8429538227
 20
97.1961593932
 30
0.0
 10
188.2768891846
 20
97.3100697661
 30
0.0
 10
188.7386377933
 20
97.3036014843
 30
0.0
 10
189.0367683631
 20
97.2144429007
 30
0.0
 10
189.1708456987
 20
97.1480583294
 30
0.0
  0
SPLINE
  5
529
100
AcDbEntity
  8
0
100
AcDbSpline
 62
7
  6
CONTINUOUS
 70
0
 71
3
 72
9
 73
5
 74
0
 42
0.0000001
 43
0.0000001
 44
0.0000000001
 40
0.0
 40
0.0
 40
0.0
 40
0.0
 40
0.2423574743
 40
1.0
 40
1.0
 40
1.0
 40
1.0
 10
166.3282073983
 20
93.3120759219
 30
0.0
 10
165.9956301975
 20
93.4767420439
 30
0.0
 10
164.5944682929
 20
94.0970562512
 30
0.0
 10
163.0947959894
 20
94.4871472048
 30
0.0
 10
161.9476145292
 20
94.6600622355
 30
0.0
  0
SPLINE
  5
52A
100
AcDbEntity
  8
0
100
AcDbSpline
 62
7
  6
CONTINUOUS
 70
0
 71
3
 72
9
 73
5
 74
0
 42
0.0000001
 43
0.0000001
 44
0.0000000001
 40
0.0
 40
0.0
 40
0.0
 40
0.0
 40
0.2572745118
 40
1.0
 40
1.0
 40
1.0
 40
1.0
 10
156.9429657951
 20
94.6600622355
 30
0.0
 10
156.5534483717
 20
94.6013501489
 30
0.0
 10
155.0485353318
 20
94.3189410245
 30
0.0
 10
153.5814962313
 20
93.81666578
 30
0.0
 10
152.5623729259
 20
93.3120759219
 30
0.0
  0
SPLINE
  5
52B
100
AcDbEntity
  8
RUNDUNGEN
100
AcDbSpline
 62
7
  6
CONTINUOUS
 70
0
 71
3
 72
13
 73
9
 74
0
 42
0.0000001
 43
0.0000001
 44
0.0000000001
 40
0.0
 40
0.0
 40
0.0
 40
0.0
 40
0.2520973212
 40
0.3837531223
 40
0.515691444
 40
0.6454036133
 40
0.770600228
 40
1.0
 40
1.0
 40
1.0
 40
1.0
 10
127.7537697192
 20
96.174666839
 30
0.0
 10
128.8710681588
 20
96.7278653166
 30
0.0
 10
130.7260122195
 20
97.282228423
 30
0.0
 10
133.2715293961
 20
97.4966145658
 30
0.0
 10
135.220545541
 20
97.3925870106
 30
0.0
 10
137.1054439568
 20
97.0229507609
 30
0.0
 10
139.3663222967
 20
96.2228313128
 30
0.0
 10
140.8827852501
 20
95.2443197968
 30
0.0
 10
141.6810545256
 20
94.4381850623
 30
0.0
  0
SPLINE
  5
52C
100
AcDbEntity
  8
0
100
AcDbSpline
 62
7
  6
CONTINUOUS
 70
0
 71
3
 72
11
 73
7
 74
0
 42
0.0000001
 43
0.0000001
 44
0.0000000001
 40
0.0
 40
0.0
 40
0.0
 40
0.0
 40
0.2094668498
 40
0.4446559298
 40
0.7120302568
 40
1.0
 40
1.0
 40
1.0
 40
1.0
 10
149.3354759739
 20
79.1335461613
 30
0.0
 10
149.3354759739
 20
79.1110581015
 30
0.0
 10
149.3500803443
 20
79.0627549441
 30
0.0
 10
149.4060056674
 20
79.0074404004
 30
0.0
 10
149.4845636596
 20
78.9719233586
 30
0.0
 10
149.5445599563
 20
78.9638405339
 30
0.0
 10
149.5754759739
 20
78.9638405339
 30
0.0
  0
SPLINE
  5
52D
100
AcDbEntity
  8
0
100
AcDbSpline
 62
7
  6
CONTINUOUS
 70
0
 71
3
 72
11
 73
7
 74
0
 42
0.0000001
 43
0.0000001
 44
0.0000000001
 40
0.0
 40
0.0
 40
0.0
 40
0.0
 40
0.2094668498
 40
0.4446559298
 40
0.7120302568
 40
1.0
 40
1.0
 40
1.0
 40
1.0
 10
149.3354759739
 20
77.4364898865
 30
0.0
 10
149.3354759739
 20
77.4140018267
 30
0.0
 10
149.3500803443
 20
77.3656986692
 30
0.0
 10
149.4060056674
 20
77.3103841255
 30
0.0
 10
149.4845636596
 20
77.2748670838
 30
0.0
 10
149.5445599563
 20
77.266784259
 30
0.0
 10
149.5754759739
 20
77.266784259
 30
0.0
  0
SPLINE
  5
52E
100
AcDbEntity
  8
0
100
AcDbSpline
 62
7
  6
CONTINUOUS
 70
0
 71
3
 72
9
 73
5
 74
0
 42
0.0000001
 43
0.0000001
 44
0.0000000001
 40
0.0
 40
0.0
 40
0.0
 40
0.0
 40
0.2432035461
 40
1.0
 40
1.0
 40
1.0
 40
1.0
 10
152.5754759739
 20
80.6608968087
 30
0.0
 10
152.5754759739
 20
80.674214902
 30
0.0
 10
152.5709222926
 20
80.7289779179
 30
0.0
 10
152.5473892897
 20
80.7813642665
 30
0.0
 10
152.5231599339
 20
80.8149865951
 30
0.0
  0
SPLINE
  5
52F
100
AcDbEntity
  8
0
100
AcDbSpline
 62
7
  6
CONTINUOUS
 70
0
 71
3
 72
9
 73
5
 74
0
 42
0.0000001
 43
0.0000001
 44
0.0000000001
 40
0.0
 40
0.0
 40
0.0
 40
0.0
 40
0.4654299385
 40
1.0
 40
1.0
 40
1.0
 40
1.0
 10
152.5231599339
 20
80.8149865951
 30
0.0
 10
152.4797637958
 20
80.8752060756
 30
0.0
 10
152.3417250901
 20
80.9716242936
 30
0.0
 10
152.18072919
 20
81.0003080637
 30
0.0
 10
152.0954759739
 20
81.0003080637
 30
0.0
  0
SPLINE
  5
530
100
AcDbEntity
  8
RUNDUNGEN
100
AcDbSpline
 62
7
  6
CONTINUOUS
 70
0
 71
3
 72
11
 73
7
 74
0
 42
0.0000001
 43
0.0000001
 44
0.0000000001
 40
0.0
 40
0.0
 40
0.0
 40
0.0
 40
0.2256934588
 40
0.4632957354
 40
0.7206235605
 40
1.0
 40
1.0
 40
1.0
 40
1.0
 10
132.6020794958
 20
84.1497900224
 30
0.0
 10
132.6021224526
 20
84.2179541386
 30
0.0
 10
132.6269094303
 20
84.3588602918
 30
0.0
 10
132.7330418851
 20
84.552548064
 30
0.0
 10
132.8992587258
 20
84.7205883642
 30
0.0
 10
133.0381616561
 20
84.8069514552
 30
0.0
 10
133.1137781755
 20
84.8443908196
 30
0.0
  0
SPLINE
  5
531
100
AcDbEntity
  8
RUNDUNGEN
100
AcDbSpline
 62
7
  6
CONTINUOUS
 70
0
 71
3
 72
9
 73
5
 74
0
 42
0.0000001
 43
0.0000001
 44
0.0000000001
 40
0.0
 40
0.0
 40
0.0
 40
0.0
 40
0.4805181646
 40
1.0
 40
1.0
 40
1.0
 40
1.0
 10
132.6020784618
 20
80.6142223664
 30
0.0
 10
132.6020292488
 20
80.5271131787
 30
0.0
 10
132.6434237366
 20
80.3441217736
 30
0.0
 10
132.7528246062
 20
80.194003347
 30
0.0
 10
132.819087446
 20
80.1270876101
 30
0.0
  0
SPLINE
  5
532
100
AcDbEntity
  8
RUNDUNGEN
100
AcDbSpline
 62
7
  6
CONTINUOUS
 70
0
 71
3
 72
11
 73
7
 74
0
 42
0.0000001
 43
0.0000001
 44
0.0000000001
 40
0.0
 40
0.0
 40
0.0
 40
0.0
 40
0.2256919297
 40
0.4632773963
 40
0.7205986282
 40
1.0
 40
1.0
 40
1.0
 40
1.0
 10
124.4097733169
 20
93.0460842664
 30
0.0
 10
124.4097294513
 20
93.273451747
 30
0.0
 10
124.491952807
 20
93.7435272689
 30
0.0
 10
124.8456052548
 20
94.3898010207
 30
0.0
 10
125.3998885256
 20
94.9504883434
 30
0.0
 10
125.863215822
 20
95.2386129604
 30
0.0
 10
126.1154656307
 20
95.3635072636
 30
0.0
  0
SPLINE
  5
533
100
AcDbEntity
  8
RUNDUNGEN
100
AcDbSpline
 62
7
  6
CONTINUOUS
 70
0
 71
3
 72
10
 73
6
 74
0
 42
0.0000001
 43
0.0000001
 44
0.0000000001
 40
0.0
 40
0.0
 40
0.0
 40
0.0
 40
0.2382860828
 40
0.4819052527
 40
1.0
 40
1.0
 40
1.0
 40
1.0
 10
124.4097733169
 20
89.5105503605
 30
0.0
 10
124.4098011412
 20
89.3663287984
 30
0.0
 10
124.4419935286
 20
89.0736530106
 30
0.0
 10
124.6343141254
 20
88.4961659911
 30
0.0
 10
124.9125222234
 20
88.1115573276
 30
0.0
 10
125.1331631989
 20
87.8887423456
 30
0.0
  0
SPLINE
  5
534
100
AcDbEntity
  8
RUNDUNGEN
100
AcDbSpline
 62
7
  6
CONTINUOUS
 70
0
 71
3
 72
11
 73
7
 74
0
 42
0.0000001
 43
0.0000001
 44
0.0000000001
 40
0.0
 40
0.0
 40
0.0
 40
0.0
 40
0.237780559
 40
0.4809056754
 40
0.7339193747
 40
1.0
 40
1.0
 40
1.0
 40
1.0
 10
171.8607819373
 20
63.1009579635
 30
0.0
 10
171.8607819527
 20
63.5337407872
 30
0.0
 10
171.9567897651
 20
64.4118291475
 30
0.0
 10
172.3824855563
 20
65.6876138514
 30
0.0
 10
173.0768425314
 20
66.8981027355
 30
0.0
 10
173.690194448
 20
67.6237945118
 30
0.0
 10
174.0309574059
 20
67.9679150548
 30
0.0
  0
SPLINE
  5
535
100
AcDbEntity
  8
RUNDUNGEN
100
AcDbSpline
 62
7
  6
CONTINUOUS
 70
0
 71
3
 72
9
 73
5
 74
0
 42
0.0000001
 43
0.0000001
 44
0.0000000001
 40
0.0
 40
0.0
 40
0.0
 40
0.0
 40
0.4843491198
 40
1.0
 40
1.0
 40
1.0
 40
1.0
 10
172.1243964559
 20
64.8677666294
 30
0.0
 10
172.2951819299
 20
64.3012088738
 30
0.0
 10
172.813570665
 20
63.177329534
 30
0.0
 10
173.5876825498
 20
62.2171765619
 30
0.0
 10
174.0309574059
 20
61.7695340566
 30
0.0
  0
SPLINE
  5
536
100
AcDbEntity
  8
RUNDUNGEN
100
AcDbSpline
 62
7
  6
CONTINUOUS
 70
0
 71
3
 72
10
 73
6
 74
0
 42
0.0000001
 43
0.0000001
 44
0.0000000001
 40
0.0
 40
0.0
 40
0.0
 40
0.0
 40
0.2382826319
 40
0.4819247904
 40
1.0
 40
1.0
 40
1.0
 40
1.0
 10
131.9452901621
 20
47.8361549235
 30
0.0
 10
131.9452901621
 20
47.9804148864
 30
0.0
 10
131.9773863811
 20
48.2731975615
 30
0.0
 10
132.1697278928
 20
48.8508666337
 30
0.0
 10
132.4479873917
 20
49.2356049461
 30
0.0
 10
132.668681985
 20
49.4584740741
 30
0.0
  0
SPLINE
  5
537
100
AcDbEntity
  8
BEZUGSACHSEN
100
AcDbSpline
 62
7
  6
CONTINUOUS
 70
0
 71
3
 72
9
 73
5
 74
0
 42
0.0000001
 43
0.0000001
 44
0.0000000001
 40
0.0
 40
0.0
 40
0.0
 40
0.0
 40
0.4784360623
 40
1.0
 40
1.0
 40
1.0
 40
1.0
 10
155.1165408914
 20
87.0667708081
 30
0.0
 10
155.3440330135
 20
86.788460923
 30
0.0
 10
155.9106170013
 20
86.2789682824
 30
0.0
 10
156.5801779567
 20
85.9236213346
 30
0.0
 10
156.9428982241
 20
85.7753388437
 30
0.0
  0
SPLINE
  5
538
100
AcDbEntity
  8
BEZUGSACHSEN
100
AcDbSpline
 62
7
  6
CONTINUOUS
 70
0
 71
3
 72
9
 73
5
 74
0
 42
0.0000001
 43
0.0000001
 44
0.0000000001
 40
0.0
 40
0.0
 40
0.0
 40
0.0
 40
0.5215639377
 40
1.0
 40
1.0
 40
1.0
 40
1.0
 10
161.9476821001
 20
85.7753388437
 30
0.0
 10
162.3104023675
 20
85.9236213346
 30
0.0
 10
162.9799633229
 20
86.2789682824
 30
0.0
 10
163.5465473107
 20
86.788460923
 30
0.0
 10
163.7740394328
 20
87.0667708081
 30
0.0
  0
SPLINE
  5
539
100
AcDbEntity
  8
BEZUGSACHSEN
100
AcDbSpline
 62
7
  6
CONTINUOUS
 70
0
 71
3
 72
12
 73
8
 74
0
 42
0.0000001
 43
0.0000001
 44
0.0000000001
 40
0.0
 40
0.0
 40
0.0
 40
0.0
 40
0.1108217967
 40
0.2235429053
 40
0.4598709646
 40
0.718266993
 40
1.0
 40
1.0
 40
1.0
 40
1.0
 10
164.4452901621
 20
85.300680166
 30
0.0
 10
164.4452901621
 20
85.4550538272
 30
0.0
 10
164.4160539005
 20
85.7672100946
 30
0.0
 10
164.2407899088
 20
86.3864977255
 30
0.0
 10
163.795456592
 20
87.12555002
 30
0.0
 10
162.9818469028
 20
87.8562847969
 30
0.0
 10
162.310950351
 20
88.2130488839
 30
0.0
 10
161.9476821001
 20
88.3615553943
 30
0.0
  0
SPLINE
  5
53A
100
AcDbEntity
  8
BEZUGSACHSEN
100
AcDbSpline
 62
7
  6
CONTINUOUS
 70
0
 71
3
 72
12
 73
8
 74
0
 42
0.0000001
 43
0.0000001
 44
0.0000000001
 40
0.0
 40
0.0
 40
0.0
 40
0.0
 40
0.281733007
 40
0.5401290354
 40
0.7764570947
 40
0.8891782033
 40
1.0
 40
1.0
 40
1.0
 40
1.0
 10
156.9428982241
 20
88.3615553943
 30
0.0
 10
156.5796299732
 20
88.2130488839
 30
0.0
 10
155.9087334214
 20
87.8562847969
 30
0.0
 10
155.0951237322
 20
87.12555002
 30
0.0
 10
154.6497904155
 20
86.3864977255
 30
0.0
 10
154.4745264237
 20
85.7672100946
 30
0.0
 10
154.4452901621
 20
85.4550538272
 30
0.0
 10
154.4452901621
 20
85.300680166
 30
0.0
  0
SPLINE
  5
53B
100
AcDbEntity
  8
RUNDUNGEN
100
AcDbSpline
 62
7
  6
CONTINUOUS
 70
0
 71
3
 72
13
 73
9
 74
0
 42
0.0000001
 43
0.0000001
 44
0.0000000001
 40
0.0
 40
0.0
 40
0.0
 40
0.0
 40
0.1034546555
 40
0.2106690395
 40
0.3244963599
 40
0.4464318111
 40
0.7129511617
 40
1.0
 40
1.0
 40
1.0
 40
1.0
 10
131.9452901621
 20
39.5355664149
 30
0.0
 10
131.9452901621
 20
39.3498602098
 30
0.0
 10
131.9991827331
 20
38.9697700731
 30
0.0
 10
132.2350135413
 20
38.4304353948
 30
0.0
 10
132.6133108131
 20
37.9378601726
 30
0.0
 10
133.3047598001
 20
37.3506474783
 30
0.0
 10
134.4312722461
 20
36.8413078529
 30
0.0
 10
135.4300233507
 20
36.7071392901
 30
0.0
 10
135.9452901621
 20
36.7071392901
 30
0.0
  0
SPLINE
  5
53C
100
AcDbEntity
  8
RUNDUNGEN
100
AcDbSpline
 62
7
  6
CONTINUOUS
 70
0
 71
3
 72
11
 73
7
 74
0
 42
0.0000001
 43
0.0000001
 44
0.0000000001
 40
0.0
 40
0.0
 40
0.0
 40
0.0
 40
0.2297023479
 40
0.4842340123
 40
0.7475494683
 40
1.0
 40
1.0
 40
1.0
 40
1.0
 10
127.0259654389
 20
85.97729006
 30
0.0
 10
127.1217553266
 20
85.8805563411
 30
0.0
 10
127.3693279058
 20
85.7208207255
 30
0.0
 10
127.8032545644
 20
85.6069047277
 30
0.0
 10
128.2650111588
 20
85.6133642752
 30
0.0
 10
128.5631562048
 20
85.7025246675
 30
0.0
 10
128.6972396156
 20
85.7689122468
 30
0.0
  0
SPLINE
  5
53D
100
AcDbEntity
  8
RUNDUNGEN
100
AcDbSpline
 62
7
  6
CONTINUOUS
 70
0
 71
3
 72
9
 73
5
 74
0
 42
0.0000001
 43
0.0000001
 44
0.0000000001
 40
0.0
 40
0.0
 40
0.0
 40
0.0
 40
0.5194816775
 40
1.0
 40
1.0
 40
1.0
 40
1.0
 10
195.3634311471
 20
89.5105806486
 30
0.0
 10
195.4296995912
 20
89.5775020449
 30
0.0
 10
195.5391085982
 20
89.7276352011
 30
0.0
 10
195.5804959165
 20
89.9106461996
 30
0.0
 10
195.5804390161
 20
89.9977628052
 30
0.0
  0
SPLINE
  5
53E
100
AcDbEntity
  8
RUNDUNGEN
100
AcDbSpline
 62
7
  6
CONTINUOUS
 70
0
 71
3
 72
13
 73
9
 74
0
 42
0.0000001
 43
0.0000001
 44
0.0000000001
 40
0.0
 40
0.0
 40
0.0
 40
0.0
 40
0.2870490624
 40
0.5535683755
 40
0.6755038246
 40
0.7893311355
 40
0.8965454157
 40
1.0
 40
1.0
 40
1.0
 40
1.0
 10
182.9452901621
 20
36.7071392901
 30
0.0
 10
183.4605573757
 20
36.7071392901
 30
0.0
 10
184.4593088387
 20
36.8413079807
 30
0.0
 10
185.58582145
 20
37.3506480502
 30
0.0
 10
186.2772702135
 20
37.9378608819
 30
0.0
 10
186.6555671453
 20
38.4304361008
 30
0.0
 10
186.8913977051
 20
38.9697705112
 30
0.0
 10
186.9452901621
 20
39.3498603375
 30
0.0
 10
186.9452901621
 20
39.5355664149
 30
0.0
  0
SPLINE
  5
53F
100
AcDbEntity
  8
RUNDUNGEN
100
AcDbSpline
 62
7
  6
CONTINUOUS
 70
0
 71
3
 72
10
 73
6
 74
0
 42
0.0000001
 43
0.0000001
 44
0.0000000001
 40
0.0
 40
0.0
 40
0.0
 40
0.0
 40
0.47201694
 40
0.7322443513
 40
1.0
 40
1.0
 40
1.0
 40
1.0
 10
167.6189718434
 20
44.9843150761
 30
0.0
 10
168.0135170809
 20
44.5858823291
 30
0.0
 10
168.7975010507
 20
44.131914918
 30
0.0
 10
169.9481619107
 20
43.8313738914
 30
0.0
 10
170.5775029172
 20
43.778207102
 30
0.0
 10
170.8955800206
 20
43.778207102
 30
0.0
  0
SPLINE
  5
540
100
AcDbEntity
  8
RUNDUNGEN
100
AcDbSpline
 62
7
  6
CONTINUOUS
 70
0
 71
3
 72
10
 73
6
 74
0
 42
0.0000001
 43
0.0000001
 44
0.0000000001
 40
0.0
 40
0.0
 40
0.0
 40
0.0
 40
0.2677558652
 40
0.5279833681
 40
1.0
 40
1.0
 40
1.0
 40
1.0
 10
147.9950003037
 20
43.778207102
 30
0.0
 10
148.3130776659
 20
43.778207102
 30
0.0
 10
148.9424190459
 20
43.8313739578
 30
0.0
 10
150.0930798651
 20
44.1319152072
 30
0.0
 10
150.8770634988
 20
44.585882587
 30
0.0
 10
151.2716084808
 20
44.9843150761
 30
0.0
  0
SPLINE
  5
541
100
AcDbEntity
  8
0
100
AcDbSpline
 62
7
  6
CONTINUOUS
 70
0
 71
3
 72
11
 73
7
 74
0
 42
0.0000001
 43
0.0000001
 44
0.0000000001
 40
0.0
 40
0.0
 40
0.0
 40
0.0
 40
0.2880052506
 40
0.5553344723
 40
0.7905070702
 40
1.0
 40
1.0
 40
1.0
 40
1.0
 10
148.2554759739
 20
81.0003080637
 30
0.0
 10
148.1936367479
 20
81.0003080637
 30
0.0
 10
148.0736400127
 20
80.9841547441
 30
0.0
 10
147.9165574986
 20
80.9130787196
 30
0.0
 10
147.8046781543
 20
80.802493804
 30
0.0
 10
147.7754759739
 20
80.7058782131
 30
0.0
 10
147.7754759739
 20
80.6608968087
 30
0.0
  0
SPLINE
  5
542
100
AcDbEntity
  8
0
100
AcDbSpline
 62
7
  6
CONTINUOUS
 70
0
 71
3
 72
11
 73
7
 74
0
 42
0.0000001
 43
0.0000001
 44
0.0000000001
 40
0.0
 40
0.0
 40
0.0
 40
0.0
 40
0.2879697432
 40
0.5553440702
 40
0.7905331502
 40
1.0
 40
1.0
 40
1.0
 40
1.0
 10
150.7754759739
 20
78.9638405339
 30
0.0
 10
150.8063919915
 20
78.9638405339
 30
0.0
 10
150.8663882882
 20
78.9719233586
 30
0.0
 10
150.9449462804
 20
79.0074404004
 30
0.0
 10
151.0008716035
 20
79.0627549441
 30
0.0
 10
151.0154759739
 20
79.1110581015
 30
0.0
 10
151.0154759739
 20
79.1335461613
 30
0.0
  0
SPLINE
  5
543
100
AcDbEntity
  8
0
100
AcDbSpline
 62
7
  6
CONTINUOUS
 70
0
 71
3
 72
11
 73
7
 74
0
 42
0.0000001
 43
0.0000001
 44
0.0000000001
 40
0.0
 40
0.0
 40
0.0
 40
0.0
 40
0.2879697432
 40
0.5553440702
 40
0.7905331502
 40
1.0
 40
1.0
 40
1.0
 40
1.0
 10
150.7754759739
 20
77.266784259
 30
0.0
 10
150.8063919915
 20
77.266784259
 30
0.0
 10
150.8663882882
 20
77.2748670838
 30
0.0
 10
150.9449462804
 20
77.3103841255
 30
0.0
 10
151.0008716035
 20
77.3656986692
 30
0.0
 10
151.0154759739
 20
77.4140018267
 30
0.0
 10
151.0154759739
 20
77.4364898865
 30
0.0
  0
SPLINE
  5
544
100
AcDbEntity
  8
0
100
AcDbSpline
 62
7
  6
CONTINUOUS
 70
0
 71
3
 72
9
 73
5
 74
0
 42
0.0000001
 43
0.0000001
 44
0.0000000001
 40
0.0
 40
0.0
 40
0.0
 40
0.0
 40
0.5597866015
 40
1.0
 40
1.0
 40
1.0
 40
1.0
 10
149.7914759739
 20
80.0669271125
 30
0.0
 10
149.7678957496
 20
80.0669271125
 30
0.0
 10
149.7240342054
 20
80.0579686228
 30
0.0
 10
149.6954759739
 20
80.0175882326
 30
0.0
 10
149.6954759739
 20
79.9990448615
 30
0.0
  0
SPLINE
  5
545
100
AcDbEntity
  8
0
100
AcDbSpline
 62
7
  6
CONTINUOUS
 70
0
 71
3
 72
9
 73
5
 74
0
 42
0.0000001
 43
0.0000001
 44
0.0000000001
 40
0.0
 40
0.0
 40
0.0
 40
0.0
 40
0.5597866015
 40
1.0
 40
1.0
 40
1.0
 40
1.0
 10
149.7914759739
 20
78.3698708377
 30
0.0
 10
149.7678957496
 20
78.3698708377
 30
0.0
 10
149.7240342054
 20
78.360912348
 30
0.0
 10
149.6954759739
 20
78.3205319577
 30
0.0
 10
149.6954759739
 20
78.3019885867
 30
0.0
  0
SPLINE
  5
546
100
AcDbEntity
  8
0
100
AcDbSpline
 62
7
  6
CONTINUOUS
 70
0
 71
3
 72
9
 73
5
 74
0
 42
0.0000001
 43
0.0000001
 44
0.0000000001
 40
0.0
 40
0.0
 40
0.0
 40
0.0
 40
0.5597866015
 40
1.0
 40
1.0
 40
1.0
 40
1.0
 10
150.2594759739
 20
78.2001652102
 30
0.0
 10
150.2830561982
 20
78.2001652102
 30
0.0
 10
150.3269177424
 20
78.2091236999
 30
0.0
 10
150.3554759739
 20
78.2495040901
 30
0.0
 10
150.3554759739
 20
78.2680474612
 30
0.0
  0
SPLINE
  5
547
100
AcDbEntity
  8
0
100
AcDbSpline
 62
7
  6
CONTINUOUS
 70
0
 71
3
 72
11
 73
7
 74
0
 42
0.0000001
 43
0.0000001
 44
0.0000000001
 40
0.0
 40
0.0
 40
0.0
 40
0.0
 40
0.2880001164
 40
0.5553425139
 40
0.7905343079
 40
1.0
 40
1.0
 40
1.0
 40
1.0
 10
157.1401170151
 20
79.2600710894
 30
0.0
 10
157.2517519308
 20
79.2600710894
 30
0.0
 10
157.4683737046
 20
79.2892511054
 30
0.0
 10
157.751993055
 20
79.4175111389
 30
0.0
 10
157.9539239863
 20
79.6172019387
 30
0.0
 10
158.0066354225
 20
79.7916093908
 30
0.0
 10
158.0066354225
 20
79.8728027082
 30
0.0
  0
SPLINE
  5
548
100
AcDbEntity
  8
0
100
AcDbSpline
 62
7
  6
CONTINUOUS
 70
0
 71
3
 72
9
 73
5
 74
0
 42
0.0000001
 43
0.0000001
 44
0.0000000001
 40
0.0
 40
0.0
 40
0.0
 40
0.0
 40
0.2457811574
 40
1.0
 40
1.0
 40
1.0
 40
1.0
 10
169.1016322186
 20
80.9720237924
 30
0.0
 10
169.0864191256
 20
80.9767138023
 30
0.0
 10
169.0237798121
 20
80.9933265736
 30
0.0
 10
168.9586508699
 20
81.0003080637
 30
0.0
 10
168.9097989576
 20
81.0003080637
 30
0.0
  0
SPLINE
  5
549
100
AcDbEntity
  8
0
100
AcDbSpline
 62
7
  6
CONTINUOUS
 70
0
 71
3
 72
11
 73
7
 74
0
 42
0.0000001
 43
0.0000001
 44
0.0000000001
 40
0.0
 40
0.0
 40
0.0
 40
0.0
 40
0.2779817175
 40
0.5346952233
 40
0.772857858
 40
1.0
 40
1.0
 40
1.0
 40
1.0
 10
169.0725473976
 20
77.1886168185
 30
0.0
 10
169.2407913306
 20
77.2797210256
 30
0.0
 10
169.5490416788
 20
77.4865637707
 30
0.0
 10
169.9153493619
 20
77.8797199265
 30
0.0
 10
170.1477052612
 20
78.326729168
 30
0.0
 10
170.2015019131
 20
78.6491131152
 30
0.0
 10
170.2015019131
 20
78.8054486149
 30
0.0
  0
SPLINE
  5
54A
100
AcDbEntity
  8
0
100
AcDbSpline
 62
7
  6
CONTINUOUS
 70
0
 71
3
 72
9
 73
5
 74
0
 42
0.0000001
 43
0.0000001
 44
0.0000000001
 40
0.0
 40
0.0
 40
0.0
 40
0.0
 40
0.2591205677
 40
1.0
 40
1.0
 40
1.0
 40
1.0
 10
168.92662814
 20
77.153647174
 30
0.0
 10
168.9396599366
 20
77.153647174
 30
0.0
 10
168.9898628068
 20
77.1565233899
 30
0.0
 10
169.0397821665
 20
77.170874423
 30
0.0
 10
169.0725473976
 20
77.1886168185
 30
0.0
  0
SPLINE
  5
54B
100
AcDbEntity
  8
RUNDUNGEN
100
AcDbSpline
 62
7
  6
CONTINUOUS
 70
0
 71
3
 72
13
 73
9
 74
0
 42
0.0000001
 43
0.0000001
 44
0.0000000001
 40
0.0
 40
0.0
 40
0.0
 40
0.0
 40
0.1034546555
 40
0.2106690395
 40
0.3244963599
 40
0.4464318111
 40
0.7129511617
 40
1.0
 40
1.0
 40
1.0
 40
1.0
 10
138.5452901621
 20
40.9497799773
 30
0.0
 10
138.5452901621
 20
41.1354861824
 30
0.0
 10
138.5991827331
 20
41.515576319
 30
0.0
 10
138.8350135413
 20
42.0549109973
 30
0.0
 10
139.2133108131
 20
42.5474862196
 30
0.0
 10
139.9047598001
 20
43.1346989138
 30
0.0
 10
141.0312722461
 20
43.6440385392
 30
0.0
 10
142.0300233507
 20
43.778207102
 30
0.0
 10
142.5452901621
 20
43.778207102
 30
0.0
  0
SPLINE
  5
54C
100
AcDbEntity
  8
RUNDUNGEN
100
AcDbSpline
 62
7
  6
CONTINUOUS
 70
0
 71
3
 72
13
 73
9
 74
0
 42
0.0000001
 43
0.0000001
 44
0.0000000001
 40
0.0
 40
0.0
 40
0.0
 40
0.0
 40
0.2870490624
 40
0.5535683755
 40
0.6755038246
 40
0.7893311355
 40
0.8965454157
 40
1.0
 40
1.0
 40
1.0
 40
1.0
 10
176.3452901621
 20
43.778207102
 30
0.0
 10
176.8605573757
 20
43.778207102
 30
0.0
 10
177.8593088387
 20
43.6440384114
 30
0.0
 10
178.98582145
 20
43.134698342
 30
0.0
 10
179.6772702135
 20
42.5474855102
 30
0.0
 10
180.0555671453
 20
42.0549102913
 30
0.0
 10
180.2913977051
 20
41.5155758809
 30
0.0
 10
180.3452901621
 20
41.1354860546
 30
0.0
 10
180.3452901621
 20
40.9497799773
 30
0.0
  0
SPLINE
  5
54D
100
AcDbEntity
  8
RUNDUNGEN
100
AcDbSpline
 62
7
  6
CONTINUOUS
 70
0
 71
3
 72
13
 73
9
 74
0
 42
0.0000001
 43
0.0000001
 44
0.0000000001
 40
0.0
 40
0.0
 40
0.0
 40
0.0
 40
0.2360077452
 40
0.3661261418
 40
0.5000000756
 40
0.6338740402
 40
0.7639924068
 40
1.0
 40
1.0
 40
1.0
 40
1.0
 10
155.3495299407
 20
49.1024168674
 30
0.0
 10
155.8427099572
 20
49.6004562557
 30
0.0
 10
156.8225102935
 20
50.1679369871
 30
0.0
 10
158.2613747906
 20
50.5435787646
 30
0.0
 10
159.4452909495
 20
50.6437612552
 30
0.0
 10
160.6292069994
 20
50.5435785258
 30
0.0
 10
162.0680709898
 20
50.1679365543
 30
0.0
 10
163.0478706846
 20
49.600455935
 30
0.0
 10
163.5410503836
 20
49.1024168674
 30
0.0
  0
SPLINE
  5
54E
100
AcDbEntity
  8
RUNDUNGEN
100
AcDbSpline
 62
7
  6
CONTINUOUS
 70
0
 71
3
 72
9
 73
5
 74
0
 42
0.0000001
 43
0.0000001
 44
0.0000000001
 40
0.0
 40
0.0
 40
0.0
 40
0.0
 40
0.5156509212
 40
1.0
 40
1.0
 40
1.0
 40
1.0
 10
144.8596229184
 20
61.7695340566
 30
0.0
 10
145.3029004508
 20
62.2171792646
 30
0.0
 10
146.077016463
 20
63.1773385515
 30
0.0
 10
146.5954056881
 20
64.3012260445
 30
0.0
 10
146.7661902318
 20
64.8677877103
 30
0.0
  0
SPLINE
  5
54F
100
AcDbEntity
  8
RUNDUNGEN
100
AcDbSpline
 62
7
  6
CONTINUOUS
 70
0
 71
3
 72
11
 73
7
 74
0
 42
0.0000001
 43
0.0000001
 44
0.0000000001
 40
0.0
 40
0.0
 40
0.0
 40
0.0
 40
0.2660806488
 40
0.5190943636
 40
0.7622194616
 40
1.0
 40
1.0
 40
1.0
 40
1.0
 10
144.8596229184
 20
67.9679150548
 30
0.0
 10
145.200385951
 20
67.6237944362
 30
0.0
 10
145.8137379734
 20
66.8981024899
 30
0.0
 10
146.5080950048
 20
65.6876133801
 30
0.0
 10
146.9337907122
 20
64.4118284999
 30
0.0
 10
147.0297984022
 20
63.5337400849
 30
0.0
 10
147.0297983869
 20
63.1009572419
 30
0.0
  0
SPLINE
  5
550
100
AcDbEntity
  8
RUNDUNGEN
100
AcDbSpline
 62
7
  6
CONTINUOUS
 70
0
 71
3
 72
11
 73
7
 74
0
 42
0.0000001
 43
0.0000001
 44
0.0000000001
 40
0.0
 40
0.0
 40
0.0
 40
0.0
 40
0.2524507309
 40
0.5157647478
 40
0.7702968692
 40
1.0
 40
1.0
 40
1.0
 40
1.0
 10
131.4004413618
 20
87.1073255461
 30
0.0
 10
131.6239138922
 20
87.2179716003
 30
0.0
 10
132.1208211908
 20
87.3665717245
 30
0.0
 10
132.8904145697
 20
87.3773382288
 30
0.0
 10
133.6136258076
 20
87.1874792389
 30
0.0
 10
134.026247964
 20
86.9212526072
 30
0.0
 10
134.1858983231
 20
86.7600291908
 30
0.0
  0
SPLINE
  5
551
100
AcDbEntity
  8
RUNDUNGEN
100
AcDbSpline
 62
7
  6
CONTINUOUS
 70
0
 71
3
 72
9
 73
5
 74
0
 42
0.0000001
 43
0.0000001
 44
0.0000000001
 40
0.0
 40
0.0
 40
0.0
 40
0.0
 40
0.5194825986
 40
1.0
 40
1.0
 40
1.0
 40
1.0
 10
136.3081311376
 20
84.616885719
 30
0.0
 10
136.4185786348
 20
84.5053499671
 30
0.0
 10
136.6009265229
 20
84.2551281436
 30
0.0
 10
136.6699058855
 20
83.9501102779
 30
0.0
 10
136.669811085
 20
83.8049163522
 30
0.0
  0
SPLINE
  5
552
100
AcDbEntity
  8
RUNDUNGEN
100
AcDbSpline
 62
7
  6
CONTINUOUS
 70
0
 71
3
 72
12
 73
8
 74
0
 42
0.0000001
 43
0.0000001
 44
0.0000000001
 40
0.0
 40
0.0
 40
0.0
 40
0.0
 40
0.252259356
 40
0.5153839756
 40
0.6451803977
 40
0.7704553584
 40
1.0
 40
1.0
 40
1.0
 40
1.0
 10
174.8473886589
 20
89.0940461301
 30
0.0
 10
175.2943105869
 20
88.8727654754
 30
0.0
 10
176.2877927677
 20
88.5757166729
 30
0.0
 10
177.5790298994
 20
88.5570660186
 30
0.0
 10
178.588021461
 20
88.7546884303
 30
0.0
 10
179.4924481652
 20
89.0748001175
 30
0.0
 10
180.0989966318
 20
89.4661867247
 30
0.0
 10
180.4183025815
 20
89.7886388407
 30
0.0
  0
SPLINE
  5
553
100
AcDbEntity
  8
RUNDUNGEN
100
AcDbSpline
 62
7
  6
CONTINUOUS
 70
0
 71
3
 72
12
 73
8
 74
0
 42
0.0000001
 43
0.0000001
 44
0.0000000001
 40
0.0
 40
0.0
 40
0.0
 40
0.0
 40
0.2295488423
 40
0.3548243544
 40
0.4846199331
 40
0.7477426437
 40
1.0
 40
1.0
 40
1.0
 40
1.0
 10
143.7148508262
 20
92.3843494818
 30
0.0
 10
144.0341626149
 20
92.0618914693
 30
0.0
 10
144.6407209787
 20
91.6705010932
 30
0.0
 10
145.545156917
 20
91.3503925373
 30
0.0
 10
146.5541449938
 20
91.1527755186
 30
0.0
 10
147.8453723279
 20
91.1714303345
 30
0.0
 10
148.8388463696
 20
91.4684778736
 30
0.0
 10
149.2857647487
 20
91.6897567712
 30
0.0
  0
SPLINE
  5
554
100
AcDbEntity
  8
RUNDUNGEN
100
AcDbSpline
 62
7
  6
CONTINUOUS
 70
0
 71
3
 72
11
 73
7
 74
0
 42
0.0000001
 43
0.0000001
 44
0.0000000001
 40
0.0
 40
0.0
 40
0.0
 40
0.0
 40
0.2256927635
 40
0.4632951072
 40
0.7206222905
 40
1.0
 40
1.0
 40
1.0
 40
1.0
 10
136.669811085
 20
83.8049163522
 30
0.0
 10
136.6697369098
 20
83.6913114654
 30
0.0
 10
136.628421785
 20
83.4564725307
 30
0.0
 10
136.4515336019
 20
83.133666972
 30
0.0
 10
136.1745082207
 20
82.8536048615
 30
0.0
 10
135.9430062279
 20
82.7096685466
 30
0.0
 10
135.8169799217
 20
82.647270213
 30
0.0
  0
SPLINE
  5
555
100
AcDbEntity
  8
0
100
AcDbSpline
 62
7
  6
CONTINUOUS
 70
0
 71
3
 72
9
 73
5
 74
0
 42
0.0000001
 43
0.0000001
 44
0.0000000001
 40
0.0
 40
0.0
 40
0.0
 40
0.0
 40
0.4402133985
 40
1.0
 40
1.0
 40
1.0
 40
1.0
 10
149.6954759739
 20
77.8720676637
 30
0.0
 10
149.6954759739
 20
77.8535242926
 30
0.0
 10
149.7240342054
 20
77.8131439024
 30
0.0
 10
149.7678957496
 20
77.8041854127
 30
0.0
 10
149.7914759739
 20
77.8041854127
 30
0.0
  0
SPLINE
  5
556
100
AcDbEntity
  8
RUNDUNGEN
100
AcDbSpline
 62
7
  6
CONTINUOUS
 70
0
 71
3
 72
11
 73
7
 74
0
 42
0.0000001
 43
0.0000001
 44
0.0000000001
 40
0.0
 40
0.0
 40
0.0
 40
0.0
 40
0.237780559
 40
0.4809056754
 40
0.7339193747
 40
1.0
 40
1.0
 40
1.0
 40
1.0
 10
147.0297983869
 20
63.1009572419
 30
0.0
 10
147.0297983716
 20
62.6681744182
 30
0.0
 10
146.9337905591
 20
61.7900860579
 30
0.0
 10
146.508094768
 20
60.514301354
 30
0.0
 10
145.8137377928
 20
59.3038124699
 30
0.0
 10
145.2003858762
 20
58.5781206936
 30
0.0
 10
144.8596229184
 20
58.2340001506
 30
0.0
  0
SPLINE
  5
557
100
AcDbEntity
  8
0
100
AcDbSpline
 62
7
  6
CONTINUOUS
 70
0
 71
3
 72
9
 73
5
 74
0
 42
0.0000001
 43
0.0000001
 44
0.0000000001
 40
0.0
 40
0.0
 40
0.0
 40
0.0
 40
0.4402133985
 40
1.0
 40
1.0
 40
1.0
 40
1.0
 10
150.3554759739
 20
79.3202223516
 30
0.0
 10
150.3554759739
 20
79.3387657226
 30
0.0
 10
150.3269177424
 20
79.3791461129
 30
0.0
 10
150.2830561982
 20
79.3881046026
 30
0.0
 10
150.2594759739
 20
79.3881046026
 30
0.0
  0
SPLINE
  5
558
100
AcDbEntity
  8
0
100
AcDbSpline
 62
7
  6
CONTINUOUS
 70
0
 71
3
 72
11
 73
7
 74
0
 42
0.0000001
 43
0.0000001
 44
0.0000000001
 40
0.0
 40
0.0
 40
0.0
 40
0.0
 40
0.2094668498
 40
0.4446559298
 40
0.7120302568
 40
1.0
 40
1.0
 40
1.0
 40
1.0
 10
151.0154759739
 20
78.4547236514
 30
0.0
 10
151.0154759739
 20
78.4772117112
 30
0.0
 10
151.0008716035
 20
78.5255148686
 30
0.0
 10
150.9449462804
 20
78.5808294123
 30
0.0
 10
150.8663882882
 20
78.6163464541
 30
0.0
 10
150.8063919915
 20
78.6244292789
 30
0.0
 10
150.7754759739
 20
78.6244292789
 30
0.0
  0
SPLINE
  5
559
100
AcDbEntity
  8
RUNDUNGEN
100
AcDbSpline
 62
7
  6
CONTINUOUS
 70
0
 71
3
 72
10
 73
6
 74
0
 42
0.0000001
 43
0.0000001
 44
0.0000000001
 40
0.0
 40
0.0
 40
0.0
 40
0.0
 40
0.5180752096
 40
0.7617173681
 40
1.0
 40
1.0
 40
1.0
 40
1.0
 10
132.668681985
 20
45.9229401682
 30
0.0
 10
132.4479873917
 20
45.7000710402
 30
0.0
 10
132.1697278928
 20
45.3153327278
 30
0.0
 10
131.9773863811
 20
44.7376636555
 30
0.0
 10
131.9452901621
 20
44.4448809805
 30
0.0
 10
131.9452901621
 20
44.3006210175
 30
0.0
  0
SPLINE
  5
55A
100
AcDbEntity
  8
RUNDUNGEN
100
AcDbSpline
 62
7
  6
CONTINUOUS
 70
0
 71
3
 72
11
 73
7
 74
0
 42
0.0000001
 43
0.0000001
 44
0.0000000001
 40
0.0
 40
0.0
 40
0.0
 40
0.0
 40
0.2793752682
 40
0.5367194959
 40
0.7743217448
 40
1.0
 40
1.0
 40
1.0
 40
1.0
 10
133.1137781755
 20
81.3088569137
 30
0.0
 10
133.0381591339
 20
81.2714163005
 30
0.0
 10
132.8992477442
 20
81.1850465428
 30
0.0
 10
132.7330229187
 20
81.0169940501
 30
0.0
 10
132.6268964742
 20
80.8232925899
 30
0.0
 10
132.6021169705
 20
80.6823844526
 30
0.0
 10
132.6020784618
 20
80.6142223664
 30
0.0
  0
SPLINE
  5
55B
100
AcDbEntity
  8
RUNDUNGEN
100
AcDbSpline
 62
7
  6
CONTINUOUS
 70
0
 71
3
 72
11
 73
7
 74
0
 42
0.0000001
 43
0.0000001
 44
0.0000000001
 40
0.0
 40
0.0
 40
0.0
 40
0.0
 40
0.2794013718
 40
0.5367226037
 40
0.7743080703
 40
1.0
 40
1.0
 40
1.0
 40
1.0
 10
126.1154656307
 20
91.8279733577
 30
0.0
 10
125.863215822
 20
91.7030790545
 30
0.0
 10
125.3998885256
 20
91.4149544375
 30
0.0
 10
124.8456052548
 20
90.8542671148
 30
0.0
 10
124.491952807
 20
90.2079933629
 30
0.0
 10
124.4097294513
 20
89.7379178411
 30
0.0
 10
124.4097733169
 20
89.5105503605
 30
0.0
  0
SPLINE
  5
55C
100
AcDbEntity
  8
RUNDUNGEN
100
AcDbSpline
 62
7
  6
CONTINUOUS
 70
0
 71
3
 72
13
 73
9
 74
0
 42
0.0000001
 43
0.0000001
 44
0.0000000001
 40
0.0
 40
0.0
 40
0.0
 40
0.0
 40
0.2294024287
 40
0.3545996847
 40
0.4843111938
 40
0.616248878
 40
0.747903971
 40
1.0
 40
1.0
 40
1.0
 40
1.0
 10
141.6810545256
 20
90.9026511564
 30
0.0
 10
140.8827760316
 20
91.7087952002
 30
0.0
 10
139.3662949925
 20
92.6873112671
 30
0.0
 10
137.1054021717
 20
93.4874282073
 30
0.0
 10
135.2205057983
 20
93.857057449
 30
0.0
 10
133.2714995184
 20
93.961080167
 30
0.0
 10
130.7259958582
 20
93.746690267
 30
0.0
 10
128.871062395
 20
93.1923285569
 30
0.0
 10
127.7537697192
 20
92.639132933
 30
0.0
  0
SPLINE
  5
55D
100
AcDbEntity
  8
0
100
AcDbSpline
 62
7
  6
CONTINUOUS
 70
0
 71
3
 72
9
 73
5
 74
0
 42
0.0000001
 43
0.0000001
 44
0.0000000001
 40
0.0
 40
0.0
 40
0.0
 40
0.0
 40
0.2423574743
 40
1.0
 40
1.0
 40
1.0
 40
1.0
 10
166.3282073983
 20
89.7765420159
 30
0.0
 10
165.9956301975
 20
89.941208138
 30
0.0
 10
164.5944682929
 20
90.5615223453
 30
0.0
 10
163.0947959894
 20
90.9516132989
 30
0.0
 10
161.9476145292
 20
91.1245283296
 30
0.0
  0
SPLINE
  5
55E
100
AcDbEntity
  8
0
100
AcDbSpline
 62
7
  6
CONTINUOUS
 70
0
 71
3
 72
9
 73
5
 74
0
 42
0.0000001
 43
0.0000001
 44
0.0000000001
 40
0.0
 40
0.0
 40
0.0
 40
0.0
 40
0.2572745118
 40
1.0
 40
1.0
 40
1.0
 40
1.0
 10
156.9429657951
 20
91.1245283296
 30
0.0
 10
156.5534483717
 20
91.065816243
 30
0.0
 10
155.0485353318
 20
90.7834071186
 30
0.0
 10
153.5814962313
 20
90.2811318741
 30
0.0
 10
152.5623729259
 20
89.7765420159
 30
0.0
  0
SPLINE
  5
55F
100
AcDbEntity
  8
RUNDUNGEN
100
AcDbSpline
 62
7
  6
CONTINUOUS
 70
0
 71
3
 72
11
 73
7
 74
0
 42
0.0000001
 43
0.0000001
 44
0.0000000001
 40
0.0
 40
0.0
 40
0.0
 40
0.0
 40
0.2524504675
 40
0.5157648302
 40
0.7702974388
 40
1.0
 40
1.0
 40
1.0
 40
1.0
 10
189.1708456987
 20
93.6125244234
 30
0.0
 10
189.0367623207
 20
93.6789119865
 30
0.0
 10
188.7386179505
 20
93.7680722369
 30
0.0
 10
188.2768615476
 20
93.7745320248
 30
0.0
 10
187.8429346875
 20
93.6606164127
 30
0.0
 10
187.5953614996
 20
93.5008804199
 30
0.0
 10
187.4995715219
 20
93.4041466102
 30
0.0
  0
SPLINE
  5
560
100
AcDbEntity
  8
RUNDUNGEN
100
AcDbSpline
 62
7
  6
CONTINUOUS
 70
0
 71
3
 72
10
 73
6
 74
0
 42
0.0000001
 43
0.0000001
 44
0.0000000001
 40
0.0
 40
0.0
 40
0.0
 40
0.0
 40
0.2382827206
 40
0.4819249463
 40
1.0
 40
1.0
 40
1.0
 40
1.0
 10
186.9452901621
 20
44.3006210175
 30
0.0
 10
186.9452901621
 20
44.4448810344
 30
0.0
 10
186.9131939131
 20
44.7376638042
 30
0.0
 10
186.7208523503
 20
45.3153328618
 30
0.0
 10
186.4425928665
 20
45.7000711069
 30
0.0
 10
186.2218983393
 20
45.9229401682
 30
0.0
  0
SPLINE
  5
561
100
AcDbEntity
  8
0
100
AcDbSpline
 62
7
  6
CONTINUOUS
 70
0
 71
3
 72
19
 73
15
 74
0
 42
0.0000001
 43
0.0000001
 44
0.0000000001
 40
0.0
 40
0.0
 40
0.0
 40
0.0
 40
0.0517234907
 40
0.1053372095
 40
0.1622487312
 40
0.2232163938
 40
0.3564752704
 40
0.5
 40
0.6435247296
 40
0.7767836062
 40
0.8377512688
 40
0.8946627905
 40
0.9482765093
 40
1.0
 40
1.0
 40
1.0
 40
1.0
 10
159.8921170151
 20
78.2085573865
 30
0.0
 10
159.8921170151
 20
78.102821979
 30
0.0
 10
159.9228241749
 20
77.8863939267
 30
0.0
 10
160.0570756527
 20
77.5792744666
 30
0.0
 10
160.2725301777
 20
77.298813083
 30
0.0
 10
160.6661779177
 20
76.9644356641
 30
0.0
 10
161.3080541887
 20
76.6744192065
 30
0.0
 10
162.1697711593
 20
76.5583924889
 30
0.0
 10
163.0314881299
 20
76.6744192065
 30
0.0
 10
163.673364401
 20
76.9644356641
 30
0.0
 10
164.0670121409
 20
77.298813083
 30
0.0
 10
164.282466666
 20
77.5792744666
 30
0.0
 10
164.4167181438
 20
77.8863939267
 30
0.0
 10
164.4474253036
 20
78.102821979
 30
0.0
 10
164.4474253036
 20
78.2085573865
 30
0.0
  0
SPLINE
  5
562
100
AcDbEntity
  8
0
100
AcDbSpline
 62
7
  6
CONTINUOUS
 70
0
 71
3
 72
11
 73
7
 74
0
 42
0.0000001
 43
0.0000001
 44
0.0000000001
 40
0.0
 40
0.0
 40
0.0
 40
0.0
 40
0.2880052506
 40
0.5553344723
 40
0.7905070702
 40
1.0
 40
1.0
 40
1.0
 40
1.0
 10
152.0954759739
 20
76.5879617491
 30
0.0
 10
152.1573151999
 20
76.5879617491
 30
0.0
 10
152.2773119352
 20
76.6041150686
 30
0.0
 10
152.4343944492
 20
76.6751910931
 30
0.0
 10
152.5462737936
 20
76.7857760088
 30
0.0
 10
152.5754759739
 20
76.8823915997
 30
0.0
 10
152.5754759739
 20
76.927373004
 30
0.0
  0
SPLINE
  5
563
100
AcDbEntity
  8
0
100
AcDbSpline
 62
7
  6
CONTINUOUS
 70
0
 71
3
 72
9
 73
5
 74
0
 42
0.0000001
 43
0.0000001
 44
0.0000000001
 40
0.0
 40
0.0
 40
0.0
 40
0.0
 40
0.4402133985
 40
1.0
 40
1.0
 40
1.0
 40
1.0
 10
149.6954759739
 20
79.2862812261
 30
0.0
 10
149.6954759739
 20
79.267737855
 30
0.0
 10
149.7240342054
 20
79.2273574648
 30
0.0
 10
149.7678957496
 20
79.2183989751
 30
0.0
 10
149.7914759739
 20
79.2183989751
 30
0.0
  0
SPLINE
  5
564
100
AcDbEntity
  8
0
100
AcDbSpline
 62
7
  6
CONTINUOUS
 70
0
 71
3
 72
11
 73
7
 74
0
 42
0.0000001
 43
0.0000001
 44
0.0000000001
 40
0.0
 40
0.0
 40
0.0
 40
0.0
 40
0.2879697432
 40
0.5553440702
 40
0.7905331502
 40
1.0
 40
1.0
 40
1.0
 40
1.0
 10
149.5754759739
 20
78.6244292789
 30
0.0
 10
149.5445599563
 20
78.6244292789
 30
0.0
 10
149.4845636596
 20
78.6163464541
 30
0.0
 10
149.4060056674
 20
78.5808294123
 30
0.0
 10
149.3500803443
 20
78.5255148686
 30
0.0
 10
149.3354759739
 20
78.4772117112
 30
0.0
 10
149.3354759739
 20
78.4547236514
 30
0.0
  0
SPLINE
  5
565
100
AcDbEntity
  8
0
100
AcDbSpline
 62
7
  6
CONTINUOUS
 70
0
 71
3
 72
11
 73
7
 74
0
 42
0.0000001
 43
0.0000001
 44
0.0000000001
 40
0.0
 40
0.0
 40
0.0
 40
0.0
 40
0.2094668498
 40
0.4446559298
 40
0.7120302568
 40
1.0
 40
1.0
 40
1.0
 40
1.0
 10
151.0154759739
 20
80.1517799262
 30
0.0
 10
151.0154759739
 20
80.174267986
 30
0.0
 10
151.0008716035
 20
80.2225711435
 30
0.0
 10
150.9449462804
 20
80.2778856872
 30
0.0
 10
150.8663882882
 20
80.313402729
 30
0.0
 10
150.8063919915
 20
80.3214855537
 30
0.0
 10
150.7754759739
 20
80.3214855537
 30
0.0
  0
SPLINE
  5
566
100
AcDbEntity
  8
0
100
AcDbSpline
 62
7
  6
CONTINUOUS
 70
0
 71
3
 72
9
 73
5
 74
0
 42
0.0000001
 43
0.0000001
 44
0.0000000001
 40
0.0
 40
0.0
 40
0.0
 40
0.0
 40
0.4402133985
 40
1.0
 40
1.0
 40
1.0
 40
1.0
 10
149.6954759739
 20
79.5691239385
 30
0.0
 10
149.6954759739
 20
79.5505805675
 30
0.0
 10
149.7240342054
 20
79.5102001772
 30
0.0
 10
149.7678957496
 20
79.5012416876
 30
0.0
 10
149.7914759739
 20
79.5012416876
 30
0.0
  0
SPLINE
  5
567
100
AcDbEntity
  8
0
100
AcDbSpline
 62
7
  6
CONTINUOUS
 70
0
 71
3
 72
11
 73
7
 74
0
 42
0.0000001
 43
0.0000001
 44
0.0000000001
 40
0.0
 40
0.0
 40
0.0
 40
0.0
 40
0.2879697432
 40
0.5553440702
 40
0.7905331502
 40
1.0
 40
1.0
 40
1.0
 40
1.0
 10
149.5754759739
 20
80.3214855537
 30
0.0
 10
149.5445599563
 20
80.3214855537
 30
0.0
 10
149.4845636596
 20
80.313402729
 30
0.0
 10
149.4060056674
 20
80.2778856872
 30
0.0
 10
149.3500803443
 20
80.2225711435
 30
0.0
 10
149.3354759739
 20
80.174267986
 30
0.0
 10
149.3354759739
 20
80.1517799262
 30
0.0
  0
SPLINE
  5
568
100
AcDbEntity
  8
0
100
AcDbSpline
 62
7
  6
CONTINUOUS
 70
0
 71
3
 72
19
 73
15
 74
0
 42
0.0000001
 43
0.0000001
 44
0.0000000001
 40
0.0
 40
0.0
 40
0.0
 40
0.0
 40
0.051855061
 40
0.1061589371
 40
0.1638754827
 40
0.2253669227
 40
0.3583203672
 40
0.5
 40
0.6416796328
 40
0.7746330773
 40
0.8361245173
 40
0.8938410629
 40
0.948144939
 40
1.0
 40
1.0
 40
1.0
 40
1.0
 10
159.9090105893
 20
78.2958743132
 30
0.0
 10
159.9259393098
 20
78.1980328679
 30
0.0
 10
159.9866958299
 20
78.0014802822
 30
0.0
 10
160.1486612549
 20
77.7298181404
 30
0.0
 10
160.376099396
 20
77.4845852495
 30
0.0
 10
160.7657117321
 20
77.1955999922
 30
0.0
 10
161.3705930708
 20
76.9466658876
 30
0.0
 10
162.1697711593
 20
76.8469268069
 30
0.0
 10
162.9689492479
 20
76.9466658876
 30
0.0
 10
163.5738305865
 20
77.1955999922
 30
0.0
 10
163.9634429227
 20
77.4845852495
 30
0.0
 10
164.1908810638
 20
77.7298181404
 30
0.0
 10
164.3528464887
 20
78.0014802822
 30
0.0
 10
164.4136030089
 20
78.1980328679
 30
0.0
 10
164.4305317293
 20
78.2958743132
 30
0.0
  0
SPLINE
  5
569
100
AcDbEntity
  8
0
100
AcDbSpline
 62
7
  6
CONTINUOUS
 70
0
 71
3
 72
9
 73
5
 74
0
 42
0.0000001
 43
0.0000001
 44
0.0000000001
 40
0.0
 40
0.0
 40
0.0
 40
0.0
 40
0.5597866015
 40
1.0
 40
1.0
 40
1.0
 40
1.0
 10
150.0914759739
 20
79.3881046026
 30
0.0
 10
150.0678957496
 20
79.3881046026
 30
0.0
 10
150.0240342054
 20
79.3791461129
 30
0.0
 10
149.9954759739
 20
79.3387657226
 30
0.0
 10
149.9954759739
 20
79.3202223516
 30
0.0
  0
SPLINE
  5
56A
100
AcDbEntity
  8
0
100
AcDbSpline
 62
7
  6
CONTINUOUS
 70
0
 71
3
 72
9
 73
5
 74
0
 42
0.0000001
 43
0.0000001
 44
0.0000000001
 40
0.0
 40
0.0
 40
0.0
 40
0.0
 40
0.5597866015
 40
1.0
 40
1.0
 40
1.0
 40
1.0
 10
150.5594759739
 20
79.2183989751
 30
0.0
 10
150.5830561982
 20
79.2183989751
 30
0.0
 10
150.6269177424
 20
79.2273574648
 30
0.0
 10
150.6554759739
 20
79.267737855
 30
0.0
 10
150.6554759739
 20
79.2862812261
 30
0.0
  0
SPLINE
  5
56B
100
AcDbEntity
  8
BEZUGSACHSEN
100
AcDbSpline
 62
7
  6
CONTINUOUS
 70
0
 71
3
 72
19
 73
15
 74
0
 42
0.0000001
 43
0.0000001
 44
0.0000000001
 40
0.0
 40
0.0
 40
0.0
 40
0.0
 40
0.051729057
 40
0.1053341786
 40
0.1622493009
 40
0.2232160554
 40
0.3564757248
 40
0.5
 40
0.6435242752
 40
0.7767839446
 40
0.8377506991
 40
0.8946658214
 40
0.948270943
 40
1.0
 40
1.0
 40
1.0
 40
1.0
 10
154.4452901621
 20
85.300680166
 30
0.0
 10
154.4452901621
 20
85.068539927
 30
0.0
 10
154.512651854
 20
84.5934271534
 30
0.0
 10
154.8074554846
 20
83.9192636931
 30
0.0
 10
155.2803327407
 20
83.3035455302
 30
0.0
 10
156.1445484718
 20
82.5695390255
 30
0.0
 10
157.5536021837
 20
81.9328656764
 30
0.0
 10
159.4452901621
 20
81.6781930502
 30
0.0
 10
161.3369781406
 20
81.9328656764
 30
0.0
 10
162.7460318524
 20
82.5695390255
 30
0.0
 10
163.6102475835
 20
83.3035455302
 30
0.0
 10
164.0831248396
 20
83.9192636931
 30
0.0
 10
164.3779284703
 20
84.5934271534
 30
0.0
 10
164.4452901621
 20
85.068539927
 30
0.0
 10
164.4452901621
 20
85.300680166
 30
0.0
  0
SPLINE
  5
56C
100
AcDbEntity
  8
0
100
AcDbSpline
 62
7
  6
CONTINUOUS
 70
0
 71
3
 72
9
 73
5
 74
0
 42
0.0000001
 43
0.0000001
 44
0.0000000001
 40
0.0
 40
0.0
 40
0.0
 40
0.0
 40
0.5597866015
 40
1.0
 40
1.0
 40
1.0
 40
1.0
 10
150.5594759739
 20
77.5213427002
 30
0.0
 10
150.5830561982
 20
77.5213427002
 30
0.0
 10
150.6269177424
 20
77.5303011899
 30
0.0
 10
150.6554759739
 20
77.5706815802
 30
0.0
 10
150.6554759739
 20
77.5892249512
 30
0.0
  0
SPLINE
  5
56D
100
AcDbEntity
  8
0
100
AcDbSpline
 62
7
  6
CONTINUOUS
 70
0
 71
3
 72
11
 73
7
 74
0
 42
0.0000001
 43
0.0000001
 44
0.0000000001
 40
0.0
 40
0.0
 40
0.0
 40
0.0
 40
0.2094929298
 40
0.4446655277
 40
0.7119947494
 40
1.0
 40
1.0
 40
1.0
 40
1.0
 10
147.7754759739
 20
76.927373004
 30
0.0
 10
147.7754759739
 20
76.8823915997
 30
0.0
 10
147.8046781543
 20
76.7857760088
 30
0.0
 10
147.9165574986
 20
76.6751910931
 30
0.0
 10
148.0736400127
 20
76.6041150686
 30
0.0
 10
148.1936367479
 20
76.5879617491
 30
0.0
 10
148.2554759739
 20
76.5879617491
 30
0.0
  0
SPLINE
  5
56E
100
AcDbEntity
  8
0
100
AcDbSpline
 62
7
  6
CONTINUOUS
 70
0
 71
3
 72
11
 73
7
 74
0
 42
0.0000001
 43
0.0000001
 44
0.0000000001
 40
0.0
 40
0.0
 40
0.0
 40
0.0
 40
0.2865059912
 40
0.5484241175
 40
0.7833822346
 40
1.0
 40
1.0
 40
1.0
 40
1.0
 10
157.6378358303
 20
78.8016321722
 30
0.0
 10
157.7907829288
 20
78.8371655659
 30
0.0
 10
158.077529152
 20
78.9382704479
 30
0.0
 10
158.4361387016
 20
79.1848334593
 30
0.0
 10
158.676230663
 20
79.5042757012
 30
0.0
 10
158.7346647723
 20
79.7543380089
 30
0.0
 10
158.734646963
 20
79.8730560469
 30
0.0
  0
SPLINE
  5
56F
100
AcDbEntity
  8
0
100
AcDbSpline
 62
7
  6
CONTINUOUS
 70
0
 71
3
 72
9
 73
5
 74
0
 42
0.0000001
 43
0.0000001
 44
0.0000000001
 40
0.0
 40
0.0
 40
0.0
 40
0.0
 40
0.2445376398
 40
1.0
 40
1.0
 40
1.0
 40
1.0
 10
147.7754759739
 20
77.2102157165
 30
0.0
 10
147.7754759739
 20
77.1991431383
 30
0.0
 10
147.778656246
 20
77.1538785186
 30
0.0
 10
147.7947434928
 20
77.1098559307
 30
0.0
 10
147.8120137983
 20
77.0803286525
 30
0.0
  0
SPLINE
  5
570
100
AcDbEntity
  8
0
100
AcDbSpline
 62
7
  6
CONTINUOUS
 70
0
 71
3
 72
9
 73
5
 74
0
 42
0.0000001
 43
0.0000001
 44
0.0000000001
 40
0.0
 40
0.0
 40
0.0
 40
0.0
 40
0.461013727
 40
1.0
 40
1.0
 40
1.0
 40
1.0
 10
147.8120137983
 20
77.0803286525
 30
0.0
 10
147.8512789878
 20
77.0131964193
 30
0.0
 10
147.993965649
 20
76.9027242516
 30
0.0
 10
148.1645501182
 20
76.8708044615
 30
0.0
 10
148.2554759739
 20
76.8708044615
 30
0.0
  0
SPLINE
  5
571
100
AcDbEntity
  8
0
100
AcDbSpline
 62
7
  6
CONTINUOUS
 70
0
 71
3
 72
11
 73
7
 74
0
 42
0.0000001
 43
0.0000001
 44
0.0000000001
 40
0.0
 40
0.0
 40
0.0
 40
0.0
 40
0.2094656921
 40
0.4446574861
 40
0.7119998836
 40
1.0
 40
1.0
 40
1.0
 40
1.0
 10
158.0066354225
 20
79.8728027082
 30
0.0
 10
158.0066354225
 20
79.9539960256
 30
0.0
 10
157.9539239863
 20
80.1284034777
 30
0.0
 10
157.751993055
 20
80.3280942775
 30
0.0
 10
157.4683737046
 20
80.456354311
 30
0.0
 10
157.2517519308
 20
80.485534327
 30
0.0
 10
157.1401170151
 20
80.485534327
 30
0.0
  0
SPLINE
  5
572
100
AcDbEntity
  8
RUNDUNGEN
100
AcDbSpline
 62
7
  6
CONTINUOUS
 70
0
 71
3
 72
11
 73
7
 74
0
 42
0.0000001
 43
0.0000001
 44
0.0000000001
 40
0.0
 40
0.0
 40
0.0
 40
0.0
 40
0.2256941656
 40
0.4632959394
 40
0.7206237852
 40
1.0
 40
1.0
 40
1.0
 40
1.0
 10
195.5804390161
 20
89.9977628052
 30
0.0
 10
195.5803944951
 20
90.0659261173
 30
0.0
 10
195.5556050145
 20
90.2068296071
 30
0.0
 10
195.4494718278
 20
90.4005130989
 30
0.0
 10
195.2832566189
 20
90.5685496186
 30
0.0
 10
195.1443557487
 20
90.6549111762
 30
0.0
 10
195.0687404176
 20
90.6923499522
 30
0.0
  0
SPLINE
  5
573
100
AcDbEntity
  8
0
100
AcDbSpline
 62
7
  6
CONTINUOUS
 70
0
 71
3
 72
11
 73
7
 74
0
 42
0.0000001
 43
0.0000001
 44
0.0000000001
 40
0.0
 40
0.0
 40
0.0
 40
0.0
 40
0.227142142
 40
0.4653047767
 40
0.7220182825
 40
1.0
 40
1.0
 40
1.0
 40
1.0
 10
170.2015019131
 20
78.8054486149
 30
0.0
 10
170.2015019131
 20
78.9617841146
 30
0.0
 10
170.1477052612
 20
79.2841680618
 30
0.0
 10
169.9153493619
 20
79.7311773032
 30
0.0
 10
169.5490416788
 20
80.124333459
 30
0.0
 10
169.2407913306
 20
80.3311762042
 30
0.0
 10
169.0725473976
 20
80.4222804113
 30
0.0
  0
SPLINE
  5
574
100
AcDbEntity
  8
0
100
AcDbSpline
 62
7
  6
CONTINUOUS
 70
0
 71
3
 72
9
 73
5
 74
0
 42
0.0000001
 43
0.0000001
 44
0.0000000001
 40
0.0
 40
0.0
 40
0.0
 40
0.0
 40
0.2536121958
 40
1.0
 40
1.0
 40
1.0
 40
1.0
 10
168.9097989576
 20
76.8708044615
 30
0.0
 10
168.9262250914
 20
76.8708044615
 30
0.0
 10
168.990963358
 20
76.8731511596
 30
0.0
 10
169.0554351411
 20
76.8848467408
 30
0.0
 10
169.1016322186
 20
76.8990887328
 30
0.0
  0
SPLINE
  5
575
100
AcDbEntity
  8
0
100
AcDbSpline
 62
7
  6
CONTINUOUS
 70
0
 71
3
 72
9
 73
5
 74
0
 42
0.0000001
 43
0.0000001
 44
0.0000000001
 40
0.0
 40
0.0
 40
0.0
 40
0.0
 40
0.2536121958
 40
1.0
 40
1.0
 40
1.0
 40
1.0
 10
168.9097989576
 20
76.5879617491
 30
0.0
 10
168.9262250914
 20
76.5879617491
 30
0.0
 10
168.990963358
 20
76.5903084471
 30
0.0
 10
169.0554351411
 20
76.6020040283
 30
0.0
 10
169.1016322186
 20
76.6162460203
 30
0.0
  0
SPLINE
  5
576
100
AcDbEntity
  8
0
100
AcDbSpline
 62
7
  6
CONTINUOUS
 70
0
 71
3
 72
12
 73
8
 74
0
 42
0.0000001
 43
0.0000001
 44
0.0000000001
 40
0.0
 40
0.0
 40
0.0
 40
0.0
 40
0.2844670851
 40
0.5445747
 40
0.7798379195
 40
0.8910272787
 40
1.0
 40
1.0
 40
1.0
 40
1.0
 10
169.1016322186
 20
76.6162460203
 30
0.0
 10
169.3885084528
 20
76.7046864423
 30
0.0
 10
169.9224103851
 20
76.9336875572
 30
0.0
 10
170.5810898522
 20
77.443560314
 30
0.0
 10
170.9492480724
 20
77.9850744724
 30
0.0
 10
171.0945998341
 20
78.446105153
 30
0.0
 10
171.1187824291
 20
78.6791354999
 30
0.0
 10
171.1187824291
 20
78.7941349064
 30
0.0
  0
SPLINE
  5
577
100
AcDbEntity
  8
0
100
AcDbSpline
 62
7
  6
CONTINUOUS
 70
0
 71
3
 72
9
 73
5
 74
0
 42
0.0000001
 43
0.0000001
 44
0.0000000001
 40
0.0
 40
0.0
 40
0.0
 40
0.0
 40
0.239729366
 40
1.0
 40
1.0
 40
1.0
 40
1.0
 10
169.0725473976
 20
80.4222804113
 30
0.0
 10
169.0619422716
 20
80.4280230944
 30
0.0
 10
169.0159968312
 20
80.4487688894
 30
0.0
 10
168.9648753293
 20
80.4572500557
 30
0.0
 10
168.92662814
 20
80.4572500557
 30
0.0
  0
SPLINE
  5
578
100
AcDbEntity
  8
0
100
AcDbSpline
 62
7
  6
CONTINUOUS
 70
0
 71
3
 72
11
 73
7
 74
0
 42
0.0000001
 43
0.0000001
 44
0.0000000001
 40
0.0
 40
0.0
 40
0.0
 40
0.0
 40
0.2816347582
 40
0.5420479832
 40
0.7798483853
 40
1.0
 40
1.0
 40
1.0
 40
1.0
 10
169.1016322186
 20
76.8990887328
 30
0.0
 10
169.3607323405
 20
76.9789661203
 30
0.0
 10
169.8465614691
 20
77.1814053565
 30
0.0
 10
170.4632988773
 20
77.6223675606
 30
0.0
 10
170.9051059836
 20
78.1669977876
 30
0.0
 10
171.0611099273
 20
78.5907675147
 30
0.0
 10
171.0958366657
 20
78.7998458928
 30
0.0
  0
SPLINE
  5
579
100
AcDbEntity
  8
0
100
AcDbSpline
 62
7
  6
CONTINUOUS
 70
0
 71
3
 72
9
 73
5
 74
0
 42
0.0000001
 43
0.0000001
 44
0.0000000001
 40
0.0
 40
0.0
 40
0.0
 40
0.0
 40
0.2591205677
 40
1.0
 40
1.0
 40
1.0
 40
1.0
 10
168.92662814
 20
80.7400927682
 30
0.0
 10
168.9396599366
 20
80.7400927682
 30
0.0
 10
168.9898628068
 20
80.7372165523
 30
0.0
 10
169.0397821665
 20
80.7228655192
 30
0.0
 10
169.0725473976
 20
80.7051231237
 30
0.0
  0
SPLINE
  5
57A
100
AcDbEntity
  8
0
100
AcDbSpline
 62
7
  6
CONTINUOUS
 70
0
 71
3
 72
11
 73
7
 74
0
 42
0.0000001
 43
0.0000001
 44
0.0000000001
 40
0.0
 40
0.0
 40
0.0
 40
0.0
 40
0.2779697373
 40
0.5346991835
 40
0.7728568778
 40
1.0
 40
1.0
 40
1.0
 40
1.0
 10
169.0725473976
 20
80.7051231237
 30
0.0
 10
169.2407846825
 20
80.6140225166
 30
0.0
 10
169.5490313408
 20
80.40717101
 30
0.0
 10
169.9153633587
 20
80.0140334931
 30
0.0
 10
170.1477104
 20
79.5670078753
 30
0.0
 10
170.2015163059
 20
79.2446280618
 30
0.0
 10
170.2015163059
 20
79.0882913273
 30
0.0
  0
SPLINE
  5
57B
100
AcDbEntity
  8
0
100
AcDbSpline
 62
7
  6
CONTINUOUS
 70
0
 71
3
 72
11
 73
7
 74
0
 42
0.0000001
 43
0.0000001
 44
0.0000000001
 40
0.0
 40
0.0
 40
0.0
 40
0.0
 40
0.2782911642
 40
0.539206302
 40
0.7792454761
 40
1.0
 40
1.0
 40
1.0
 40
1.0
 10
157.6378358303
 20
79.0844748847
 30
0.0
 10
157.7594766378
 20
79.1127350527
 30
0.0
 10
157.9909981101
 20
79.1886996115
 30
0.0
 10
158.2970739026
 20
79.3632812922
 30
0.0
 10
158.5359439055
 20
79.5868709524
 30
0.0
 10
158.6435274383
 20
79.7679660578
 30
0.0
 10
158.6790088002
 20
79.860455193
 30
0.0
  0
SPLINE
  5
57C
100
AcDbEntity
  8
0
100
AcDbSpline
 62
7
  6
CONTINUOUS
 70
0
 71
3
 72
8
 73
4
 74
0
 42
0.0000001
 43
0.0000001
 44
0.0000000001
 40
0.0
 40
0.0
 40
0.0
 40
0.0
 40
1.0
 40
1.0
 40
1.0
 40
1.0
 10
158.6790088002
 20
79.860455193
 30
0.0
 10
158.6973656225
 20
79.9083058538
 30
0.0
 10
158.7115983258
 20
79.9579827456
 30
0.0
 10
158.7209882831
 20
80.0083661492
 30
0.0
  0
SPLINE
  5
57D
100
AcDbEntity
  8
0
100
AcDbSpline
 62
7
  6
CONTINUOUS
 70
0
 71
3
 72
9
 73
5
 74
0
 42
0.0000001
 43
0.0000001
 44
0.0000000001
 40
0.0
 40
0.0
 40
0.0
 40
0.0
 40
0.4402133985
 40
1.0
 40
1.0
 40
1.0
 40
1.0
 10
149.6954759739
 20
77.5892249512
 30
0.0
 10
149.6954759739
 20
77.5706815802
 30
0.0
 10
149.7240342054
 20
77.5303011899
 30
0.0
 10
149.7678957496
 20
77.5213427002
 30
0.0
 10
149.7914759739
 20
77.5213427002
 30
0.0
  0
SPLINE
  5
57E
100
AcDbEntity
  8
0
100
AcDbSpline
 62
7
  6
CONTINUOUS
 70
0
 71
3
 72
11
 73
7
 74
0
 42
0.0000001
 43
0.0000001
 44
0.0000000001
 40
0.0
 40
0.0
 40
0.0
 40
0.0
 40
0.2880066977
 40
0.5553334191
 40
0.790532629
 40
1.0
 40
1.0
 40
1.0
 40
1.0
 10
157.1401170151
 20
80.7683770394
 30
0.0
 10
157.2517540566
 20
80.7683770394
 30
0.0
 10
157.4683752628
 20
80.7392083995
 30
0.0
 10
157.7519797414
 20
80.6109179929
 30
0.0
 10
157.9539100176
 20
80.4112440721
 30
0.0
 10
158.0066503805
 20
80.2368390797
 30
0.0
 10
158.0066503805
 20
80.1556454207
 30
0.0
  0
SPLINE
  5
57F
100
AcDbEntity
  8
0
100
AcDbSpline
 62
7
  6
CONTINUOUS
 70
0
 71
3
 72
9
 73
5
 74
0
 42
0.0000001
 43
0.0000001
 44
0.0000000001
 40
0.0
 40
0.0
 40
0.0
 40
0.0
 40
0.5597866015
 40
1.0
 40
1.0
 40
1.0
 40
1.0
 10
150.5594759739
 20
77.8041854127
 30
0.0
 10
150.5830561982
 20
77.8041854127
 30
0.0
 10
150.6269177424
 20
77.8131439024
 30
0.0
 10
150.6554759739
 20
77.8535242926
 30
0.0
 10
150.6554759739
 20
77.8720676637
 30
0.0
  0
SPLINE
  5
580
100
AcDbEntity
  8
0
100
AcDbSpline
 62
7
  6
CONTINUOUS
 70
0
 71
3
 72
9
 73
5
 74
0
 42
0.0000001
 43
0.0000001
 44
0.0000000001
 40
0.0
 40
0.0
 40
0.0
 40
0.0
 40
0.4402133985
 40
1.0
 40
1.0
 40
1.0
 40
1.0
 10
149.9954759739
 20
79.603065064
 30
0.0
 10
149.9954759739
 20
79.6216084351
 30
0.0
 10
150.0240342054
 20
79.6619888253
 30
0.0
 10
150.0678957496
 20
79.670947315
 30
0.0
 10
150.0914759739
 20
79.670947315
 30
0.0
  0
SPLINE
  5
581
100
AcDbEntity
  8
0
100
AcDbSpline
 62
7
  6
CONTINUOUS
 70
0
 71
3
 72
9
 73
5
 74
0
 42
0.0000001
 43
0.0000001
 44
0.0000000001
 40
0.0
 40
0.0
 40
0.0
 40
0.0
 40
0.5597866015
 40
1.0
 40
1.0
 40
1.0
 40
1.0
 10
150.2594759739
 20
79.670947315
 30
0.0
 10
150.2830561982
 20
79.670947315
 30
0.0
 10
150.3269177424
 20
79.6619888253
 30
0.0
 10
150.3554759739
 20
79.6216084351
 30
0.0
 10
150.3554759739
 20
79.603065064
 30
0.0
  0
SPLINE
  5
582
100
AcDbEntity
  8
0
100
AcDbSpline
 62
7
  6
CONTINUOUS
 70
0
 71
3
 72
9
 73
5
 74
0
 42
0.0000001
 43
0.0000001
 44
0.0000000001
 40
0.0
 40
0.0
 40
0.0
 40
0.0
 40
0.5597866015
 40
1.0
 40
1.0
 40
1.0
 40
1.0
 10
150.5594759739
 20
79.5012416876
 30
0.0
 10
150.5830561982
 20
79.5012416876
 30
0.0
 10
150.6269177424
 20
79.5102001772
 30
0.0
 10
150.6554759739
 20
79.5505805675
 30
0.0
 10
150.6554759739
 20
79.5691239385
 30
0.0
  0
SPLINE
  5
583
100
AcDbEntity
  8
0
100
AcDbSpline
 62
7
  6
CONTINUOUS
 70
0
 71
3
 72
11
 73
7
 74
0
 42
0.0000001
 43
0.0000001
 44
0.0000000001
 40
0.0
 40
0.0
 40
0.0
 40
0.0
 40
0.2876567391
 40
0.555407049
 40
0.7907201247
 40
1.0
 40
1.0
 40
1.0
 40
1.0
 10
150.7754759739
 20
80.6043282662
 30
0.0
 10
150.806353914
 20
80.6043282662
 30
0.0
 10
150.866303683
 20
80.5961228822
 30
0.0
 10
150.9450084333
 20
80.560832271
 30
0.0
 10
151.0007475832
 20
80.5053135879
 30
0.0
 10
151.0154759739
 20
80.4570873704
 30
0.0
 10
151.0154759739
 20
80.4346226387
 30
0.0
  0
SPLINE
  5
584
100
AcDbEntity
  8
0
100
AcDbSpline
 62
7
  6
CONTINUOUS
 70
0
 71
3
 72
8
 73
4
 74
0
 42
0.0000001
 43
0.0000001
 44
0.0000000001
 40
0.0
 40
0.0
 40
0.0
 40
0.0
 40
1.0
 40
1.0
 40
1.0
 40
1.0
 10
150.8395716047
 20
78.9010210102
 30
0.0
 10
150.8586359391
 20
78.8972790155
 30
0.0
 10
150.8774766763
 20
78.891848522
 30
0.0
 10
150.8954759739
 20
78.8845357484
 30
0.0
  0
SPLINE
  5
585
100
AcDbEntity
  8
0
100
AcDbSpline
 62
7
  6
CONTINUOUS
 70
0
 71
3
 72
9
 73
5
 74
0
 42
0.0000001
 43
0.0000001
 44
0.0000000001
 40
0.0
 40
0.0
 40
0.0
 40
0.0
 40
0.5424756321
 40
1.0
 40
1.0
 40
1.0
 40
1.0
 10
150.8954759739
 20
78.8845357484
 30
0.0
 10
150.9287015025
 20
78.8710368457
 30
0.0
 10
150.9872935311
 20
78.8342895483
 30
0.0
 10
151.0154759739
 20
78.7678132618
 30
0.0
 10
151.0154759739
 20
78.7375663639
 30
0.0
  0
SPLINE
  5
586
100
AcDbEntity
  8
0
100
AcDbSpline
 62
7
  6
CONTINUOUS
 70
0
 71
3
 72
9
 73
5
 74
0
 42
0.0000001
 43
0.0000001
 44
0.0000000001
 40
0.0
 40
0.0
 40
0.0
 40
0.0
 40
0.4575243679
 40
1.0
 40
1.0
 40
1.0
 40
1.0
 10
149.3354759739
 20
78.7375663639
 30
0.0
 10
149.3354759739
 20
78.7678132618
 30
0.0
 10
149.3636584167
 20
78.8342895483
 30
0.0
 10
149.4222504453
 20
78.8710368457
 30
0.0
 10
149.4554759739
 20
78.8845357484
 30
0.0
  0
SPLINE
  5
587
100
AcDbEntity
  8
0
100
AcDbSpline
 62
7
  6
CONTINUOUS
 70
0
 71
3
 72
9
 73
5
 74
0
 42
0.0000001
 43
0.0000001
 44
0.0000000001
 40
0.0
 40
0.0
 40
0.0
 40
0.0
 40
0.2441493338
 40
1.0
 40
1.0
 40
1.0
 40
1.0
 10
149.4554759739
 20
78.8845357484
 30
0.0
 10
149.4647164196
 20
78.8882899664
 30
0.0
 10
149.5033892824
 20
78.9015737953
 30
0.0
 10
149.5445980338
 20
78.9072719914
 30
0.0
 10
149.5754759739
 20
78.9072719914
 30
0.0
  0
SPLINE
  5
588
100
AcDbEntity
  8
0
100
AcDbSpline
 62
7
  6
CONTINUOUS
 70
0
 71
3
 72
11
 73
7
 74
0
 42
0.0000001
 43
0.0000001
 44
0.0000000001
 40
0.0
 40
0.0
 40
0.0
 40
0.0
 40
0.2092798753
 40
0.444592951
 40
0.7123432609
 40
1.0
 40
1.0
 40
1.0
 40
1.0
 10
149.3354759739
 20
80.4346226387
 30
0.0
 10
149.3354759739
 20
80.4570873704
 30
0.0
 10
149.3502043646
 20
80.5053135879
 30
0.0
 10
149.4059435145
 20
80.560832271
 30
0.0
 10
149.4846482648
 20
80.5961228822
 30
0.0
 10
149.5445980338
 20
80.6043282662
 30
0.0
 10
149.5754759739
 20
80.6043282662
 30
0.0
  0
SPLINE
  5
589
100
AcDbEntity
  8
0
100
AcDbSpline
 62
7
  6
CONTINUOUS
 70
0
 71
3
 72
9
 73
5
 74
0
 42
0.0000001
 43
0.0000001
 44
0.0000000001
 40
0.0
 40
0.0
 40
0.0
 40
0.0
 40
0.538986273
 40
1.0
 40
1.0
 40
1.0
 40
1.0
 10
152.0954759739
 20
76.8708044615
 30
0.0
 10
152.1864018296
 20
76.8708044615
 30
0.0
 10
152.3569862988
 20
76.9027242516
 30
0.0
 10
152.49967296
 20
77.0131964193
 30
0.0
 10
152.5389381495
 20
77.0803286525
 30
0.0
  0
SPLINE
  5
58A
100
AcDbEntity
  8
0
100
AcDbSpline
 62
7
  6
CONTINUOUS
 70
0
 71
3
 72
9
 73
5
 74
0
 42
0.0000001
 43
0.0000001
 44
0.0000000001
 40
0.0
 40
0.0
 40
0.0
 40
0.0
 40
0.2592261758
 40
1.0
 40
1.0
 40
1.0
 40
1.0
 10
152.5389381495
 20
77.0803286525
 30
0.0
 10
152.5448628723
 20
77.0904582323
 30
0.0
 10
152.5653615408
 20
77.1308412785
 30
0.0
 10
152.5754759739
 20
77.1766813072
 30
0.0
 10
152.5754759739
 20
77.2102157165
 30
0.0
  0
SPLINE
  5
58B
100
AcDbEntity
  8
RUNDUNGEN
100
AcDbSpline
 62
7
  6
CONTINUOUS
 70
0
 71
3
 72
11
 73
7
 74
0
 42
0.0000001
 43
0.0000001
 44
0.0000000001
 40
0.0
 40
0.0
 40
0.0
 40
0.0
 40
0.2660806488
 40
0.5190943636
 40
0.7622194616
 40
1.0
 40
1.0
 40
1.0
 40
1.0
 10
174.0309574059
 20
58.2340001506
 30
0.0
 10
173.6901943732
 20
58.5781207692
 30
0.0
 10
173.0768423508
 20
59.3038127155
 30
0.0
 10
172.3824853194
 20
60.5143018253
 30
0.0
 10
171.9567896121
 20
61.7900867056
 30
0.0
 10
171.860781922
 20
62.6681751205
 30
0.0
 10
171.8607819373
 20
63.1009579635
 30
0.0
  0
SPLINE
  5
58C
100
AcDbEntity
  8
RUNDUNGEN
100
AcDbSpline
 62
7
  6
CONTINUOUS
 70
0
 71
3
 72
12
 73
8
 74
0
 42
0.0000001
 43
0.0000001
 44
0.0000000001
 40
0.0
 40
0.0
 40
0.0
 40
0.0
 40
0.252259356
 40
0.5153839756
 40
0.6451803977
 40
0.7704553584
 40
1.0
 40
1.0
 40
1.0
 40
1.0
 10
149.2857647487
 20
88.1542228652
 30
0.0
 10
148.8388428208
 20
87.9329422106
 30
0.0
 10
147.8453606399
 20
87.6358934081
 30
0.0
 10
146.5541235083
 20
87.6172427538
 30
0.0
 10
145.5451319467
 20
87.8148651655
 30
0.0
 10
144.6407052425
 20
88.1349768527
 30
0.0
 10
144.0341567759
 20
88.5263634599
 30
0.0
 10
143.7148508262
 20
88.8488155759
 30
0.0
  0
SPLINE
  5
58D
100
AcDbEntity
  8
RUNDUNGEN
100
AcDbSpline
 62
7
  6
CONTINUOUS
 70
0
 71
3
 72
12
 73
8
 74
0
 42
0.0000001
 43
0.0000001
 44
0.0000000001
 40
0.0
 40
0.0
 40
0.0
 40
0.0
 40
0.2295488423
 40
0.3548243544
 40
0.4846199331
 40
0.7477426437
 40
1.0
 40
1.0
 40
1.0
 40
1.0
 10
180.4183025815
 20
86.2531049348
 30
0.0
 10
180.0989907928
 20
85.9306469223
 30
0.0
 10
179.492432429
 20
85.5392565461
 30
0.0
 10
178.5879964907
 20
85.2191479902
 30
0.0
 10
177.5790084139
 20
85.0215309716
 30
0.0
 10
176.2877810798
 20
85.0401857874
 30
0.0
 10
175.294307038
 20
85.3372333266
 30
0.0
 10
174.8473886589
 20
85.5585122241
 30
0.0
  0
SPLINE
  5
58E
100
AcDbEntity
  8
0
100
AcDbSpline
 62
7
  6
CONTINUOUS
 70
0
 71
3
 72
9
 73
5
 74
0
 42
0.0000001
 43
0.0000001
 44
0.0000000001
 40
0.0
 40
0.0
 40
0.0
 40
0.0
 40
0.5084713698
 40
1.0
 40
1.0
 40
1.0
 40
1.0
 10
184.1459444203
 20
181.4349571767
 30
0.0
 10
182.4342942723
 20
183.1576638772
 30
0.0
 10
179.0155739471
 20
186.4942736453
 30
0.0
 10
175.4747483337
 20
189.7012954538
 30
0.0
 10
173.7062195473
 20
191.2450896029
 30
0.0
  0
SPLINE
  5
58F
100
AcDbEntity
  8
0
100
AcDbSpline
 62
7
  6
CONTINUOUS
 70
0
 71
3
 72
9
 73
5
 74
0
 42
0.0000001
 43
0.0000001
 44
0.0000000001
 40
0.0
 40
0.0
 40
0.0
 40
0.0
 40
0.4915286319
 40
1.0
 40
1.0
 40
1.0
 40
1.0
 10
145.184360777
 20
191.2450896029
 30
0.0
 10
143.4158319845
 20
189.7012954486
 30
0.0
 10
139.8750063713
 20
186.4942736398
 30
0.0
 10
136.4562860463
 20
183.1576638716
 30
0.0
 10
134.7446359039
 20
181.4349571767
 30
0.0
  0
SPLINE
  5
590
100
AcDbEntity
  8
0
100
AcDbSpline
 62
7
  6
CONTINUOUS
 70
0
 71
3
 72
17
 73
13
 74
0
 42
0.0000001
 43
0.0000001
 44
0.0000000001
 40
0.0
 40
0.0
 40
0.0
 40
0.0
 40
0.0521212283
 40
0.1268936109
 40
0.2287499209
 40
0.3608193278
 40
0.5249906366
 40
0.7168483301
 40
0.8136500811
 40
0.897173717
 40
0.9586011663
 40
1.0
 40
1.0
 40
1.0
 40
1.0
 10
139.7084608761
 20
119.430414254
 30
0.0
 10
139.6108678654
 20
119.4401962282
 30
0.0
 10
139.382418197
 20
119.529453881
 30
0.0
 10
139.0294796987
 20
119.7769533339
 30
0.0
 10
138.6032819254
 20
120.1743507914
 30
0.0
 10
138.1077213834
 20
120.7370993056
 30
0.0
 10
137.556058441
 20
121.4725300478
 30
0.0
 10
137.0967495048
 20
122.1917632701
 30
0.0
 10
136.7659200785
 20
122.8094979434
 30
0.0
 10
136.5806505754
 20
123.225711868
 30
0.0
 10
136.4729602298
 20
123.5603125936
 30
0.0
 10
136.4452901621
 20
123.753536011
 30
0.0
 10
136.4452901621
 20
123.831440569
 30
0.0
  0
SPLINE
  5
591
100
AcDbEntity
  8
RUNDUNGEN
100
AcDbSpline
 62
7
  6
CONTINUOUS
 70
0
 71
3
 72
15
 73
11
 74
0
 42
0.0000001
 43
0.0000001
 44
0.0000000001
 40
0.0
 40
0.0
 40
0.0
 40
0.0
 40
0.1255878487
 40
0.2510677478
 40
0.3763760291
 40
0.501462475
 40
0.6263267329
 40
0.751001144
 40
0.8755325568
 40
1.0
 40
1.0
 40
1.0
 40
1.0
 10
176.4452901621
 20
157.4312481441
 30
0.0
 10
176.8344876224
 20
157.4312481336
 30
0.0
 10
177.6145773951
 20
157.3570422784
 30
0.0
 10
178.7402709202
 20
157.0266661753
 30
0.0
 10
179.7815253365
 20
156.4883955131
 30
0.0
 10
180.6980497486
 20
155.7606436852
 30
0.0
 10
181.4538774366
 20
154.8694731145
 30
0.0
 10
182.0180100079
 20
153.8477889736
 30
0.0
 10
182.3666638206
 20
152.7356332422
 30
0.0
 10
182.4452901621
 20
151.9617111712
 30
0.0
 10
182.4452901621
 20
151.5759858543
 30
0.0
  0
SPLINE
  5
592
100
AcDbEntity
  8
BEZUGSACHSEN
100
AcDbSpline
 62
7
  6
CONTINUOUS
 70
0
 71
3
 72
15
 73
11
 74
0
 42
0.0000001
 43
0.0000001
 44
0.0000000001
 40
0.0
 40
0.0
 40
0.0
 40
0.0
 40
0.1213952628
 40
0.2449248391
 40
0.3714323782
 40
0.5
 40
0.6285676218
 40
0.7550751609
 40
0.8786047372
 40
1.0
 40
1.0
 40
1.0
 40
1.0
 10
142.8952901621
 20
137.4356825675
 30
0.0
 10
142.8952901621
 20
137.2212548046
 30
0.0
 10
142.988510967
 20
136.7835163692
 30
0.0
 10
143.3818430949
 20
136.2370616019
 30
0.0
 10
143.9637263647
 20
135.8750566679
 30
0.0
 10
144.6452901621
 20
135.7489863003
 30
0.0
 10
145.3268539595
 20
135.8750566679
 30
0.0
 10
145.9087372294
 20
136.2370616019
 30
0.0
 10
146.3020693572
 20
136.7835163692
 30
0.0
 10
146.3952901621
 20
137.2212548046
 30
0.0
 10
146.3952901621
 20
137.4356825675
 30
0.0
  0
SPLINE
  5
593
100
AcDbEntity
  8
RUNDUNGEN
100
AcDbSpline
 62
7
  6
CONTINUOUS
 70
0
 71
3
 72
15
 73
11
 74
0
 42
0.0000001
 43
0.0000001
 44
0.0000000001
 40
0.0
 40
0.0
 40
0.0
 40
0.0
 40
0.1255878439
 40
0.2510677444
 40
0.3763760262
 40
0.5014624727
 40
0.6263267312
 40
0.7510011429
 40
0.8755325563
 40
1.0
 40
1.0
 40
1.0
 40
1.0
 10
142.4452901621
 20
157.4312481441
 30
0.0
 10
142.0560927169
 20
157.4312481441
 30
0.0
 10
141.2760029553
 20
157.3570422756
 30
0.0
 10
140.1503094353
 20
157.0266661926
 30
0.0
 10
139.1090550101
 20
156.4883955279
 30
0.0
 10
138.1925305907
 20
155.7606437011
 30
0.0
 10
137.4367028967
 20
154.8694731279
 30
0.0
 10
136.8725703205
 20
153.8477889836
 30
0.0
 10
136.5239165044
 20
152.7356332476
 30
0.0
 10
136.4452901621
 20
151.961711173
 30
0.0
 10
136.4452901621
 20
151.5759858543
 30
0.0
  0
SPLINE
  5
594
100
AcDbEntity
  8
BEZUGSACHSEN
100
AcDbSpline
 62
7
  6
CONTINUOUS
 70
0
 71
3
 72
15
 73
11
 74
0
 42
0.0000001
 43
0.0000001
 44
0.0000000001
 40
0.0
 40
0.0
 40
0.0
 40
0.0
 40
0.1332761459
 40
0.2629541982
 40
0.389010704
 40
0.512020076
 40
0.6331101916
 40
0.753783912
 40
0.8756294933
 40
1.0
 40
1.0
 40
1.0
 40
1.0
 10
152.8337391952
 20
157.4301522136
 30
0.0
 10
152.1187049112
 20
157.8255376407
 30
0.0
 10
150.7774400249
 20
158.7408827423
 30
0.0
 10
149.0950331502
 20
160.4521854059
 30
0.0
 10
147.8205775216
 20
162.4124573789
 30
0.0
 10
146.9928002553
 20
164.5429779553
 30
0.0
 10
146.632281651
 20
166.7668566928
 30
0.0
 10
146.7472201826
 20
169.0099465158
 30
0.0
 10
147.3345292796
 20
171.1975925379
 30
0.0
 10
148.0247112077
 20
172.5541623327
 30
0.0
 10
148.4367313808
 20
173.1957261177
 30
0.0
  0
SPLINE
  5
595
100
AcDbEntity
  8
BEZUGSACHSEN
100
AcDbSpline
 62
7
  6
CONTINUOUS
 70
0
 71
3
 72
15
 73
11
 74
0
 42
0.0000001
 43
0.0000001
 44
0.0000000001
 40
0.0
 40
0.0
 40
0.0
 40
0.0
 40
0.1243716752
 40
0.2462178136
 40
0.3668915333
 40
0.487981366
 40
0.6109903597
 40
0.7370464337
 40
0.8667240857
 40
1.0
 40
1.0
 40
1.0
 40
1.0
 10
170.4535929079
 20
173.1961227538
 30
0.0
 10
170.8656699426
 20
172.5545258866
 30
0.0
 10
171.5559526198
 20
171.1978786669
 30
0.0
 10
172.1433501375
 20
169.0100846834
 30
0.0
 10
172.2583090069
 20
166.7668402654
 30
0.0
 10
171.8977464502
 20
164.5428166928
 30
0.0
 10
171.0698676722
 20
162.4121754237
 30
0.0
 10
169.7952636952
 20
160.4518188253
 30
0.0
 10
168.1126721957
 20
158.7404778608
 30
0.0
 10
166.7712690883
 20
157.8251455058
 30
0.0
 10
166.0561639294
 20
157.4297773666
 30
0.0
  0
SPLINE
  5
596
100
AcDbEntity
  8
0
100
AcDbSpline
 62
7
  6
CONTINUOUS
 70
0
 71
3
 72
17
 73
13
 74
0
 42
0.0000001
 43
0.0000001
 44
0.0000000001
 40
0.0
 40
0.0
 40
0.0
 40
0.0
 40
0.0413971968
 40
0.1028230994
 40
0.186350884
 40
0.2831532183
 40
0.4750054921
 40
0.6391747461
 40
0.7712447764
 40
0.873101988
 40
0.9478759992
 40
1.0
 40
1.0
 40
1.0
 40
1.0
 10
182.4452901621
 20
123.831440569
 30
0.0
 10
182.4452901621
 20
123.7535398397
 30
0.0
 10
182.4176227569
 20
123.5603241623
 30
0.0
 10
182.3099350708
 20
123.2257241392
 30
0.0
 10
182.1246665332
 20
122.8095079275
 30
0.0
 10
181.7938404942
 20
122.1917805306
 30
0.0
 10
181.3345449059
 20
121.472564061
 30
0.0
 10
180.782898087
 20
120.7371484693
 30
0.0
 10
180.2873472385
 20
120.1744023774
 30
0.0
 10
179.8611548286
 20
119.776999166
 30
0.0
 10
179.5082181734
 20
119.5294869611
 30
0.0
 10
179.2797705067
 20
119.4402131958
 30
0.0
 10
179.182174344
 20
119.4304198123
 30
0.0
  0
SPLINE
  5
597
100
AcDbEntity
  8
0
100
AcDbSpline
 62
7
  6
CONTINUOUS
 70
0
 71
3
 72
15
 73
11
 74
0
 42
0.0000001
 43
0.0000001
 44
0.0000000001
 40
0.0
 40
0.0
 40
0.0
 40
0.0
 40
0.1226305301
 40
0.2471039498
 40
0.3731213706
 40
0.5
 40
0.6268786294
 40
0.7528960502
 40
0.8773694699
 40
1.0
 40
1.0
 40
1.0
 40
1.0
 10
163.6170552349
 20
142.8415251362
 30
0.0
 10
163.3892379218
 20
143.1655580709
 30
0.0
 10
162.8446114872
 20
143.7623534144
 30
0.0
 10
161.831076146
 20
144.4348387435
 30
0.0
 10
160.6747308889
 20
144.8550312848
 30
0.0
 10
159.4452901621
 20
144.9977243691
 30
0.0
 10
158.2158494353
 20
144.8550312848
 30
0.0
 10
157.0595041783
 20
144.4348387435
 30
0.0
 10
156.045968837
 20
143.7623534144
 30
0.0
 10
155.5013424024
 20
143.1655580709
 30
0.0
 10
155.2735250893
 20
142.8415251362
 30
0.0
  0
SPLINE
  5
598
100
AcDbEntity
  8
0
100
AcDbSpline
 62
7
  6
CONTINUOUS
 70
0
 71
3
 72
14
 73
10
 74
0
 42
0.0000001
 43
0.0000001
 44
0.0000000001
 40
0.0
 40
0.0
 40
0.0
 40
0.0
 40
0.0194668034
 40
0.0388456444
 40
0.0657824369
 40
0.1430449206
 40
0.2518888387
 40
0.5642063084
 40
1.0
 40
1.0
 40
1.0
 40
1.0
 10
143.5984432356
 20
119.4146423871
 30
0.0
 10
143.5939479345
 20
119.4146114462
 30
0.0
 10
143.5889751321
 20
119.4260202834
 30
0.0
 10
143.5883405924
 20
119.43999024
 30
0.0
 10
143.588395897
 20
119.469195372
 30
0.0
 10
143.5943655804
 20
119.5176684969
 30
0.0
 10
143.613106334
 20
119.631513842
 30
0.0
 10
143.6555447078
 20
119.8247034543
 30
0.0
 10
143.6967066356
 20
119.9925495037
 30
0.0
 10
143.7215686613
 20
120.0900665661
 30
0.0
  0
SPLINE
  5
599
100
AcDbEntity
  8
0
100
AcDbSpline
 62
7
  6
CONTINUOUS
 70
0
 71
3
 72
9
 73
5
 74
0
 42
0.0000001
 43
0.0000001
 44
0.0000000001
 40
0.0
 40
0.0
 40
0.0
 40
0.0
 40
0.5056128668
 40
1.0
 40
1.0
 40
1.0
 40
1.0
 10
179.182174344
 20
119.4304198123
 30
0.0
 10
179.1148717892
 20
119.4236662709
 30
0.0
 10
178.9711944551
 20
119.4408762042
 30
0.0
 10
178.8766687237
 20
119.5500122069
 30
0.0
 10
178.8452901621
 20
119.6082335444
 30
0.0
  0
SPLINE
  5
59A
100
AcDbEntity
  8
RUNDUNGEN
100
AcDbSpline
 62
7
  6
CONTINUOUS
 70
0
 71
3
 72
14
 73
10
 74
0
 42
0.0000001
 43
0.0000001
 44
0.0000000001
 40
0.0
 40
0.0
 40
0.0
 40
0.0
 40
0.0909423886
 40
0.1878748711
 40
0.2952153255
 40
0.4151663029
 40
0.5478761242
 40
0.6917874159
 40
1.0
 40
1.0
 40
1.0
 40
1.0
 10
182.4452901621
 20
146.8601716361
 30
0.0
 10
182.4452901621
 20
146.9987067252
 30
0.0
 10
182.3967549627
 20
147.2867291441
 30
0.0
 10
182.1870081012
 20
147.6911091361
 30
0.0
 10
181.8520884629
 20
148.0602038148
 30
0.0
 10
181.4046789589
 20
148.3827991512
 30
0.0
 10
180.8593090702
 20
148.6486135718
 30
0.0
 10
180.0083027731
 20
148.9192545408
 30
0.0
 10
179.3147990286
 20
148.9978877161
 30
0.0
 10
178.8452901621
 20
148.9978877161
 30
0.0
  0
SPLINE
  5
59B
100
AcDbEntity
  8
KONSTRUKTIONSELEMENTE
100
AcDbSpline
 62
7
  6
CONTINUOUS
 70
0
 71
3
 72
9
 73
5
 74
0
 42
0.0000001
 43
0.0000001
 44
0.0000000001
 40
0.0
 40
0.0
 40
0.0
 40
0.0
 40
0.2524351593
 40
1.0
 40
1.0
 40
1.0
 40
1.0
 10
164.4452901621
 20
145.8702900177
 30
0.0
 10
164.7857092934
 20
145.8275294494
 30
0.0
 10
166.1318984418
 20
145.640185714
 30
0.0
 10
167.4682774892
 20
145.3802942676
 30
0.0
 10
168.4557798101
 20
145.1411620579
 30
0.0
  0
SPLINE
  5
59C
100
AcDbEntity
  8
KONSTRUKTIONSELEMENTE
100
AcDbSpline
 62
7
  6
CONTINUOUS
 70
0
 71
3
 72
9
 73
5
 74
0
 42
0.0000001
 43
0.0000001
 44
0.0000000001
 40
0.0
 40
0.0
 40
0.0
 40
0.0
 40
0.2473955566
 40
1.0
 40
1.0
 40
1.0
 40
1.0
 10
150.4348005142
 20
145.1411620579
 30
0.0
 10
150.761603415
 20
145.2203002008
 30
0.0
 10
152.0873932675
 20
145.5200888341
 30
0.0
 10
153.4303612043
 20
145.7428032374
 30
0.0
 10
154.4452901621
 20
145.8702900177
 30
0.0
  0
SPLINE
  5
59D
100
AcDbEntity
  8
KONSTRUKTIONSELEMENTE
100
AcDbSpline
 62
7
  6
CONTINUOUS
 70
0
 71
3
 72
13
 73
9
 74
0
 42
0.0000001
 43
0.0000001
 44
0.0000000001
 40
0.0
 40
0.0
 40
0.0
 40
0.0
 40
0.122181644
 40
0.24500181
 40
0.3688015239
 40
0.4936051583
 40
0.7454804827
 40
1.0
 40
1.0
 40
1.0
 40
1.0
 10
147.4889081006
 20
141.2324166325
 30
0.0
 10
147.4889081006
 20
141.4402940824
 30
0.0
 10
147.5364409975
 20
141.8584996459
 30
0.0
 10
147.7382783044
 20
142.4566578418
 30
0.0
 10
148.0447525291
 20
143.0124720936
 30
0.0
 10
148.5600168372
 20
143.6931587732
 30
0.0
 10
149.3498197202
 20
144.4314073579
 30
0.0
 10
150.0636604675
 20
144.9180612927
 30
0.0
 10
150.4348005142
 20
145.1411620579
 30
0.0
  0
SPLINE
  5
59E
100
AcDbEntity
  8
KONSTRUKTIONSELEMENTE
100
AcDbSpline
 62
7
  6
CONTINUOUS
 70
0
 71
3
 72
10
 73
6
 74
0
 42
0.0000001
 43
0.0000001
 44
0.0000000001
 40
0.0
 40
0.0
 40
0.0
 40
0.0
 40
0.5013638368
 40
0.7509730475
 40
1.0
 40
1.0
 40
1.0
 40
1.0
 10
146.7831914102
 20
134.9924817535
 30
0.0
 10
146.9925897755
 20
135.40947502
 30
0.0
 10
147.2602764892
 20
136.0617439912
 30
0.0
 10
147.4550662762
 20
136.9740746105
 30
0.0
 10
147.4889081006
 20
137.438837686
 30
0.0
 10
147.4889081006
 20
137.6706057227
 30
0.0
  0
SPLINE
  5
59F
100
AcDbEntity
  8
KONSTRUKTIONSELEMENTE
100
AcDbSpline
 62
7
  6
CONTINUOUS
 70
0
 71
3
 72
10
 73
6
 74
0
 42
0.0000001
 43
0.0000001
 44
0.0000000001
 40
0.0
 40
0.0
 40
0.0
 40
0.0
 40
0.2490269525
 40
0.4986361632
 40
1.0
 40
1.0
 40
1.0
 40
1.0
 10
171.4016722236
 20
137.6706057227
 30
0.0
 10
171.4016722236
 20
137.438837686
 30
0.0
 10
171.4355140481
 20
136.9740746105
 30
0.0
 10
171.630303835
 20
136.0617439912
 30
0.0
 10
171.8979905487
 20
135.40947502
 30
0.0
 10
172.107388914
 20
134.9924817535
 30
0.0
  0
SPLINE
  5
5A0
100
AcDbEntity
  8
KONSTRUKTIONSELEMENTE
100
AcDbSpline
 62
7
  6
CONTINUOUS
 70
0
 71
3
 72
13
 73
9
 74
0
 42
0.0000001
 43
0.0000001
 44
0.0000000001
 40
0.0
 40
0.0
 40
0.0
 40
0.0
 40
0.2545190314
 40
0.5063941405
 40
0.6311978139
 40
0.7549977108
 40
0.8778180576
 40
1.0
 40
1.0
 40
1.0
 40
1.0
 10
168.4557798101
 20
145.1411620579
 30
0.0
 10
168.8269191478
 20
144.9180617188
 30
0.0
 10
169.5407589392
 20
144.4314085304
 30
0.0
 10
170.3305613126
 20
143.6931611002
 30
0.0
 10
170.8458260595
 20
143.0124747343
 30
0.0
 10
171.152300947
 20
142.4566600765
 30
0.0
 10
171.3541392174
 20
141.8585009984
 30
0.0
 10
171.4016722236
 20
141.4402945898
 30
0.0
 10
171.4016722236
 20
141.2324166325
 30
0.0
  0
SPLINE
  5
5A1
100
AcDbEntity
  8
BEZUGSACHSEN
100
AcDbSpline
 62
7
  6
CONTINUOUS
 70
0
 71
3
 72
15
 73
11
 74
0
 42
0.0000001
 43
0.0000001
 44
0.0000000001
 40
0.0
 40
0.0
 40
0.0
 40
0.0
 40
0.1216995243
 40
0.245723491
 40
0.3721231683
 40
0.5
 40
0.6278768317
 40
0.754276509
 40
0.8783004757
 40
1.0
 40
1.0
 40
1.0
 40
1.0
 10
146.3356603581
 20
137.5877666446
 30
0.0
 10
146.2861778342
 20
137.7614369889
 30
0.0
 10
146.1233476099
 20
138.0970562545
 30
0.0
 10
145.7252818343
 20
138.4933247173
 30
0.0
 10
145.2145907895
 20
138.7482392035
 30
0.0
 10
144.6452901621
 20
138.8359658813
 30
0.0
 10
144.0759895348
 20
138.7482392035
 30
0.0
 10
143.5652984899
 20
138.4933247173
 30
0.0
 10
143.1672327143
 20
138.0970562545
 30
0.0
 10
143.00440249
 20
137.7614369889
 30
0.0
 10
142.9549199661
 20
137.5877666446
 30
0.0
  0
SPLINE
  5
5A2
100
AcDbEntity
  8
KONSTRUKTIONSELEMENTE
100
AcDbSpline
 62
7
  6
CONTINUOUS
 70
0
 71
3
 72
17
 73
13
 74
0
 42
0.0000001
 43
0.0000001
 44
0.0000000001
 40
0.0
 40
0.0
 40
0.0
 40
0.0
 40
0.1477152607
 40
0.2992662022
 40
0.4500534519
 40
0.5945451454
 40
0.7268723906
 40
0.8414210333
 40
0.8905089351
 40
0.9334832632
 40
0.9700304448
 40
1.0
 40
1.0
 40
1.0
 40
1.0
 10
146.7831914102
 20
134.9924817535
 30
0.0
 10
146.4551884354
 20
134.3393007616
 30
0.0
 10
145.8576960151
 20
132.9817693369
 30
0.0
 10
145.1243068385
 20
130.8772889322
 30
0.0
 10
144.5338200788
 20
128.7452127163
 30
0.0
 10
144.0849867906
 20
126.676426157
 30
0.0
 10
143.7766049451
 20
124.7637591823
 30
0.0
 10
143.6269577171
 20
123.3056605344
 30
0.0
 10
143.5845826596
 20
122.2839192184
 30
0.0
 10
143.5897767693
 20
121.6471757313
 30
0.0
 10
143.6299041208
 20
121.1065205909
 30
0.0
 10
143.6849332757
 20
120.780994857
 30
0.0
 10
143.7215686613
 20
120.6372987954
 30
0.0
  0
SPLINE
  5
5A3
100
AcDbEntity
  8
KONSTRUKTIONSELEMENTE
100
AcDbSpline
 62
7
  6
CONTINUOUS
 70
0
 71
3
 72
17
 73
13
 74
0
 42
0.0000001
 43
0.0000001
 44
0.0000000001
 40
0.0
 40
0.0
 40
0.0
 40
0.0
 40
0.0299695552
 40
0.0665167368
 40
0.1094910649
 40
0.1585789667
 40
0.2731276094
 40
0.4054548546
 40
0.5499465481
 40
0.7007337978
 40
0.8522847393
 40
1.0
 40
1.0
 40
1.0
 40
1.0
 10
175.1690116629
 20
120.6372987954
 30
0.0
 10
175.2056470485
 20
120.780994857
 30
0.0
 10
175.2606762034
 20
121.1065205909
 30
0.0
 10
175.3008035549
 20
121.6471757313
 30
0.0
 10
175.3059976646
 20
122.2839192184
 30
0.0
 10
175.2636226071
 20
123.3056605344
 30
0.0
 10
175.1139753792
 20
124.7637591823
 30
0.0
 10
174.8055935336
 20
126.676426157
 30
0.0
 10
174.3567602454
 20
128.7452127163
 30
0.0
 10
173.7662734857
 20
130.8772889322
 30
0.0
 10
173.0328843091
 20
132.9817693369
 30
0.0
 10
172.4353918889
 20
134.3393007616
 30
0.0
 10
172.107388914
 20
134.9924817535
 30
0.0
  0
SPLINE
  5
5A4
100
AcDbEntity
  8
0
100
AcDbSpline
 62
7
  6
CONTINUOUS
 70
0
 71
3
 72
9
 73
5
 74
0
 42
0.0000001
 43
0.0000001
 44
0.0000000001
 40
0.0
 40
0.0
 40
0.0
 40
0.0
 40
0.4943990113
 40
1.0
 40
1.0
 40
1.0
 40
1.0
 10
140.0452901534
 20
119.6082335365
 30
0.0
 10
140.0139150004
 20
119.5500185235
 30
0.0
 10
139.9194076525
 20
119.4408959559
 30
0.0
 10
139.7757536817
 20
119.4236693398
 30
0.0
 10
139.7084608761
 20
119.430414254
 30
0.0
  0
SPLINE
  5
5A5
100
AcDbEntity
  8
RUNDUNGEN
100
AcDbSpline
 62
7
  6
CONTINUOUS
 70
0
 71
3
 72
31
 73
27
 74
0
 42
0.0000001
 43
0.0000001
 44
0.0000000001
 40
0.0
 40
0.0
 40
0.0
 40
0.0
 40
0.0950873627
 40
0.2103731012
 40
0.2754115629
 40
0.3451824419
 40
0.4194375025
 40
0.4978012993
 40
0.5796810258
 40
0.6641032047
 40
0.706781631
 40
0.7493475212
 40
0.7913439449
 40
0.8320706056
 40
0.8705193226
 40
0.9052520026
 40
0.9343856453
 40
0.9462659498
 40
0.9561113819
 40
0.96391822
 40
0.9698244623
 40
0.9742896624
 40
0.9781249627
 40
0.9822610481
 40
0.9872254289
 40
1.0
 40
1.0
 40
1.0
 40
1.0
 10
140.0452901534
 20
121.3976567445
 30
0.0
 10
139.9939748678
 20
121.6495866016
 30
0.0
 10
139.8487632532
 20
122.2004714151
 30
0.0
 10
139.6083478796
 20
122.9056899435
 30
0.0
 10
139.3640936642
 20
123.5363333923
 30
0.0
 10
139.1459425925
 20
124.0578959318
 30
0.0
 10
138.9000172946
 20
124.6066832516
 30
0.0
 10
138.6265464419
 20
125.1788000807
 30
0.0
 10
138.3264049397
 20
125.7684129509
 30
0.0
 10
138.0567382632
 20
126.265062569
 30
0.0
 10
137.8286993496
 20
126.663145432
 30
0.0
 10
137.6525928696
 20
126.9587192851
 30
0.0
 10
137.4735388016
 20
127.2463275612
 30
0.0
 10
137.2938627724
 20
127.520335935
 30
0.0
 10
137.1173873418
 20
127.7728425685
 30
0.0
 10
136.9497942666
 20
127.9930269867
 30
0.0
 10
136.8161554489
 20
128.1485946679
 30
0.0
 10
136.7180362089
 20
128.2450904346
 30
0.0
 10
136.6567424448
 20
128.2964318541
 30
0.0
 10
136.6033383564
 20
128.3315908534
 30
0.0
 10
136.5576452956
 20
128.3506851956
 30
0.0
 10
136.5180812535
 20
128.3537020224
 30
0.0
 10
136.4864299172
 20
128.338171804
 30
0.0
 10
136.4659273276
 20
128.3086184251
 30
0.0
 10
136.447608862
 20
128.2520060027
 30
0.0
 10
136.4452901621
 20
128.2033940008
 30
0.0
 10
136.4452901621
 20
128.1688533485
 30
0.0
  0
SPLINE
  5
5A6
100
AcDbEntity
  8
RUNDUNGEN
100
AcDbSpline
 62
7
  6
CONTINUOUS
 70
0
 71
3
 72
31
 73
27
 74
0
 42
0.0000001
 43
0.0000001
 44
0.0000000001
 40
0.0
 40
0.0
 40
0.0
 40
0.0
 40
0.0127744334
 40
0.0177388358
 40
0.0218748732
 40
0.02571023
 40
0.03017543
 40
0.0360820499
 40
0.0438903756
 40
0.0537366208
 40
0.0656175184
 40
0.0947537635
 40
0.1294869994
 40
0.16793493
 40
0.2086620562
 40
0.2506577889
 40
0.2932233784
 40
0.3359015042
 40
0.4203234533
 40
0.5022030482
 40
0.5805662578
 40
0.6548202239
 40
0.7245897768
 40
0.7896275811
 40
0.9049128479
 40
1.0
 40
1.0
 40
1.0
 40
1.0
 10
182.4452901621
 20
128.1688533485
 30
0.0
 10
182.4452901621
 20
128.2033936273
 30
0.0
 10
182.4429706379
 20
128.252005224
 30
0.0
 10
182.4246536525
 20
128.3086173511
 30
0.0
 10
182.4041518577
 20
128.3381718462
 30
0.0
 10
182.3724998876
 20
128.3537004473
 30
0.0
 10
182.3329347996
 20
128.3506868332
 30
0.0
 10
182.2872370139
 20
128.331588538
 30
0.0
 10
182.2338304597
 20
128.2964206781
 30
0.0
 10
182.1725285198
 20
128.2450770461
 30
0.0
 10
182.0744029945
 20
128.1485719026
 30
0.0
 10
181.9407590084
 20
127.992995458
 30
0.0
 10
181.7731658903
 20
127.7728029687
 30
0.0
 10
181.5966897256
 20
127.5202961575
 30
0.0
 10
181.4170172919
 20
127.2462886735
 30
0.0
 10
181.2379643653
 20
126.9586814019
 30
0.0
 10
181.0618603276
 20
126.6631101644
 30
0.0
 10
180.8338235438
 20
126.2650286928
 30
0.0
 10
180.5641583283
 20
125.7683803444
 30
0.0
 10
180.2640187488
 20
125.1787693987
 30
0.0
 10
179.9905506052
 20
124.6066567309
 30
0.0
 10
179.7446295226
 20
124.0578764581
 30
0.0
 10
179.5264819609
 20
123.5363214976
 30
0.0
 10
179.2822304159
 20
122.9056841582
 30
0.0
 10
179.0418163912
 20
122.2004690272
 30
0.0
 10
178.8966053323
 20
121.6495860005
 30
0.0
 10
178.8452901621
 20
121.3976567099
 30
0.0
  0
SPLINE
  5
5A7
100
AcDbEntity
  8
0
100
AcDbSpline
 62
7
  6
CONTINUOUS
 70
0
 71
3
 72
9
 73
5
 74
0
 42
0.0000001
 43
0.0000001
 44
0.0000000001
 40
0.0
 40
0.0
 40
0.0
 40
0.0
 40
0.5
 40
1.0
 40
1.0
 40
1.0
 40
1.0
 10
175.1690116629
 20
120.6372987954
 30
0.0
 10
175.1462963802
 20
120.5482019672
 30
0.0
 10
175.1218046563
 20
120.3636826807
 30
0.0
 10
175.1462963802
 20
120.1791633943
 30
0.0
 10
175.1690116629
 20
120.0900665661
 30
0.0
  0
SPLINE
  5
5A8
100
AcDbEntity
  8
0
100
AcDbSpline
 62
7
  6
CONTINUOUS
 70
0
 71
3
 72
9
 73
5
 74
0
 42
0.0000001
 43
0.0000001
 44
0.0000000001
 40
0.0
 40
0.0
 40
0.0
 40
0.0
 40
0.5
 40
1.0
 40
1.0
 40
1.0
 40
1.0
 10
143.7215686613
 20
120.0900665661
 30
0.0
 10
143.744283944
 20
120.1791633943
 30
0.0
 10
143.7687756679
 20
120.3636826807
 30
0.0
 10
143.744283944
 20
120.5482019672
 30
0.0
 10
143.7215686613
 20
120.6372987954
 30
0.0
  0
SPLINE
  5
5A9
100
AcDbEntity
  8
RUNDUNGEN
100
AcDbSpline
 62
7
  6
CONTINUOUS
 70
0
 71
3
 72
14
 73
10
 74
0
 42
0.0000001
 43
0.0000001
 44
0.0000000001
 40
0.0
 40
0.0
 40
0.0
 40
0.0
 40
0.3082125841
 40
0.4521238758
 40
0.5848336971
 40
0.7047846745
 40
0.8121251289
 40
0.9090576114
 40
1.0
 40
1.0
 40
1.0
 40
1.0
 10
140.0452901621
 20
145.1411620579
 30
0.0
 10
139.5757812957
 20
145.1411620579
 30
0.0
 10
138.8822775512
 20
145.0625288827
 30
0.0
 10
138.0312712541
 20
144.7918879136
 30
0.0
 10
137.4859013653
 20
144.5260734931
 30
0.0
 10
137.0384918613
 20
144.2034781567
 30
0.0
 10
136.703572223
 20
143.834383478
 30
0.0
 10
136.4938253616
 20
143.430003486
 30
0.0
 10
136.4452901621
 20
143.141981067
 30
0.0
 10
136.4452901621
 20
143.003445978
 30
0.0
  0
SPLINE
  5
5AA
100
AcDbEntity
  8
RUNDUNGEN
100
AcDbSpline
 62
7
  6
CONTINUOUS
 70
0
 71
3
 72
14
 73
10
 74
0
 42
0.0000001
 43
0.0000001
 44
0.0000000001
 40
0.0
 40
0.0
 40
0.0
 40
0.0
 40
0.0909423886
 40
0.1878748711
 40
0.2952153255
 40
0.4151663029
 40
0.5478761242
 40
0.6917874159
 40
1.0
 40
1.0
 40
1.0
 40
1.0
 10
136.4452901621
 20
146.8601716361
 30
0.0
 10
136.4452901621
 20
146.9987067252
 30
0.0
 10
136.4938253616
 20
147.2867291441
 30
0.0
 10
136.703572223
 20
147.6911091361
 30
0.0
 10
137.0384918613
 20
148.0602038148
 30
0.0
 10
137.4859013653
 20
148.3827991512
 30
0.0
 10
138.0312712541
 20
148.6486135718
 30
0.0
 10
138.8822775512
 20
148.9192545408
 30
0.0
 10
139.5757812957
 20
148.9978877161
 30
0.0
 10
140.0452901621
 20
148.9978877161
 30
0.0
  0
SPLINE
  5
5AB
100
AcDbEntity
  8
RUNDUNGEN
100
AcDbSpline
 62
7
  6
CONTINUOUS
 70
0
 71
3
 72
14
 73
10
 74
0
 42
0.0000001
 43
0.0000001
 44
0.0000000001
 40
0.0
 40
0.0
 40
0.0
 40
0.0
 40
0.0909423886
 40
0.1878748711
 40
0.2952153255
 40
0.4151663029
 40
0.5478761242
 40
0.6917874159
 40
1.0
 40
1.0
 40
1.0
 40
1.0
 10
182.4452901621
 20
143.003445978
 30
0.0
 10
182.4452901621
 20
143.141981067
 30
0.0
 10
182.3967549627
 20
143.430003486
 30
0.0
 10
182.1870081012
 20
143.834383478
 30
0.0
 10
181.8520884629
 20
144.2034781567
 30
0.0
 10
181.4046789589
 20
144.5260734931
 30
0.0
 10
180.8593090702
 20
144.7918879136
 30
0.0
 10
180.0083027731
 20
145.0625288827
 30
0.0
 10
179.3147990286
 20
145.1411620579
 30
0.0
 10
178.8452901621
 20
145.1411620579
 30
0.0
  0
SPLINE
  5
5AC
100
AcDbEntity
  8
BEZUGSACHSEN
100
AcDbSpline
 62
7
  6
CONTINUOUS
 70
0
 71
3
 72
15
 73
11
 74
0
 42
0.0000001
 43
0.0000001
 44
0.0000000001
 40
0.0
 40
0.0
 40
0.0
 40
0.0
 40
0.1213952628
 40
0.2449248391
 40
0.3714323782
 40
0.5
 40
0.6285676218
 40
0.7550751609
 40
0.8786047372
 40
1.0
 40
1.0
 40
1.0
 40
1.0
 10
146.3952901621
 20
137.4356825675
 30
0.0
 10
146.3952901621
 20
137.6501103304
 30
0.0
 10
146.3020693572
 20
138.0878487658
 30
0.0
 10
145.9087372294
 20
138.6343035331
 30
0.0
 10
145.3268539595
 20
138.9963084671
 30
0.0
 10
144.6452901621
 20
139.1223788347
 30
0.0
 10
143.9637263647
 20
138.9963084671
 30
0.0
 10
143.3818430949
 20
138.6343035331
 30
0.0
 10
142.988510967
 20
138.0878487658
 30
0.0
 10
142.8952901621
 20
137.6501103304
 30
0.0
 10
142.8952901621
 20
137.4356825675
 30
0.0
  0
SPLINE
  5
5AD
100
AcDbEntity
  8
0
100
AcDbSpline
 62
7
  6
CONTINUOUS
 70
0
 71
3
 72
14
 73
10
 74
0
 42
0.0000001
 43
0.0000001
 44
0.0000000001
 40
0.0
 40
0.0
 40
0.0
 40
0.0
 40
0.4357936916
 40
0.7481111613
 40
0.8569550794
 40
0.9342175631
 40
0.9611543556
 40
0.9805331966
 40
1.0
 40
1.0
 40
1.0
 40
1.0
 10
175.1690116629
 20
120.0900665661
 30
0.0
 10
175.1938736887
 20
119.9925495037
 30
0.0
 10
175.2350356164
 20
119.8247034543
 30
0.0
 10
175.2774739902
 20
119.631513842
 30
0.0
 10
175.2962147438
 20
119.5176684969
 30
0.0
 10
175.3021844272
 20
119.469195372
 30
0.0
 10
175.3022397318
 20
119.43999024
 30
0.0
 10
175.3016051921
 20
119.4260202834
 30
0.0
 10
175.2966323897
 20
119.4146114462
 30
0.0
 10
175.2921370887
 20
119.4146423871
 30
0.0
  0
SPLINE
  5
5AE
100
AcDbEntity
  8
KONSTRUKTIONSELEMENTE
100
AcDbSpline
 62
7
  6
CONTINUOUS
 70
0
 71
3
 72
15
 73
11
 74
0
 42
0.0000001
 43
0.0000001
 44
0.0000000001
 40
0.0
 40
0.0
 40
0.0
 40
0.0
 40
0.1226305301
 40
0.2471039498
 40
0.3731213706
 40
0.5
 40
0.6268786294
 40
0.7528960502
 40
0.8773694699
 40
1.0
 40
1.0
 40
1.0
 40
1.0
 10
163.6170552349
 20
148.9978877161
 30
0.0
 10
163.3892379218
 20
149.3219206508
 30
0.0
 10
162.8446114872
 20
149.9187159943
 30
0.0
 10
161.831076146
 20
150.5912013234
 30
0.0
 10
160.6747308889
 20
151.0113938646
 30
0.0
 10
159.4452901621
 20
151.154086949
 30
0.0
 10
158.2158494353
 20
151.0113938646
 30
0.0
 10
157.0595041783
 20
150.5912013234
 30
0.0
 10
156.045968837
 20
149.9187159943
 30
0.0
 10
155.5013424024
 20
149.3219206508
 30
0.0
 10
155.2735250893
 20
148.9978877161
 30
0.0
  0
ELLIPSE
  5
5AF
100
AcDbEntity
  8
0
100
AcDbEllipse
 62
7
  6
CONTINUOUS
 10
494.2505462111
 20
147.6315128467
 30
0.0
 11
-2.9620370247
 21
5.2849982252
 31
0.0
 40
0.5096845585
 41
-1.6537856735
 42
-0.5409540901
  0
ELLIPSE
  5
5B0
100
AcDbEntity
  8
RUNDUNGEN
100
AcDbEllipse
 62
7
  6
CONTINUOUS
 10
505.7765669465
 20
151.8266413139
 30
0.0
 11
-1.1280793733
 21
5.9525042212
 31
0.0
 40
0.5096845585
 41
0.5409540901
 42
1.6537856735
  0
ELLIPSE
  5
5B1
100
AcDbEntity
  8
0
100
AcDbEllipse
 62
7
  6
CONTINUOUS
 10
453.4474850176
 20
147.6315128467
 30
0.0
 11
2.9620370247
 21
5.2849982252
 31
0.0
 40
0.5096845585
 41
0.5409540901
 42
1.6537856735
  0
ELLIPSE
  5
5B2
100
AcDbEntity
  8
RUNDUNGEN
100
AcDbEllipse
 62
7
  6
CONTINUOUS
 10
441.9214642823
 20
151.8266413139
 30
0.0
 11
1.1280793733
 21
5.9525042212
 31
0.0
 40
0.5096845585
 41
-1.6537856735
 42
-0.5409540901
  0
ELLIPSE
  5
5B3
100
AcDbEntity
  8
0
100
AcDbEllipse
 62
7
  6
CONTINUOUS
 10
159.4452901621
 20
139.7073442421
 30
0.0
 11
-0.0
 21
5.685790213
 31
0.0
 40
0.8793852416
 41
4.7123890318
 42
5.2962272779
  0
ELLIPSE
  5
5B4
100
AcDbEntity
  8
0
100
AcDbEllipse
 62
7
  6
CONTINUOUS
 10
159.4452901621
 20
139.7073442421
 30
0.0
 11
0.0
 21
5.685790213
 31
0.0
 40
0.8793852416
 41
7.2701433365
 42
7.853981634
  0
ELLIPSE
  5
5B5
100
AcDbEntity
  8
KONSTRUKTIONSELEMENTE
100
AcDbEllipse
 62
7
  6
CONTINUOUS
 10
159.4452901621
 20
146.9521964234
 30
0.0
 11
5.0
 21
-0.0
 31
0.0
 40
0.742227199
 41
0.0000000515
 42
0.5838382975
  0
ELLIPSE
  5
5B6
100
AcDbEntity
  8
KONSTRUKTIONSELEMENTE
100
AcDbEllipse
 62
7
  6
CONTINUOUS
 10
159.4452901621
 20
146.9521964234
 30
0.0
 11
5.0
 21
-0.0
 31
0.0
 40
0.742227199
 41
2.5577543561
 42
3.1415926536
  0
ELLIPSE
  5
5B7
100
AcDbEntity
  8
0
100
AcDbEllipse
 62
7
  6
CONTINUOUS
 10
133.2441824698
 20
130.6146239189
 30
0.0
 11
-6.6680060276
 21
11.1513440306
 31
0.0
 40
0.1563953738
 41
-3.0486314562
 42
-2.8857730588
  0
ELLIPSE
  5
5B8
100
AcDbEntity
  8
RUNDUNGEN
100
AcDbEllipse
 62
7
  6
CONTINUOUS
 10
133.2441824698
 20
131.1618561482
 30
0.0
 11
-6.6680060276
 21
11.1513440306
 31
0.0
 40
0.1563953738
 41
-2.8857730588
 42
-2.7229146615
  0
ELLIPSE
  5
5B9
100
AcDbEntity
  8
0
100
AcDbEllipse
 62
7
  6
CONTINUOUS
 10
185.6463978544
 20
130.6146239189
 30
0.0
 11
6.6680060276
 21
11.1513440306
 31
0.0
 40
0.1563953738
 41
-3.3974122484
 42
-3.2345538567
  0
ELLIPSE
  5
5BA
100
AcDbEntity
  8
RUNDUNGEN
100
AcDbEllipse
 62
7
  6
CONTINUOUS
 10
185.6463978544
 20
131.1618561482
 30
0.0
 11
6.6680060276
 21
11.1513440306
 31
0.0
 40
0.1563953738
 41
-3.56027064
 42
-3.3974122484
  0
ENDSEC
  0
SECTION
  2
OBJECTS
  0
DICTIONARY
  5
C
100
AcDbDictionary
280
0
281
1
  3
ACAD_GROUP
350
D
  3
ACAD_MLINESTYLE
350
17
  3
ACAD_LAYOUT
350
1A
  3
ACAD_PLOTSETTINGS
350
19
  3
ACAD_PLOTSTYLENAME
350
E
  0
DICTIONARY
  5
D
102
{ACAD_REACTORS
330
C
102
}
100
AcDbDictionary
280
0
281
1
  0
ACDBDICTIONARYWDFLT
  5
E
102
{ACAD_REACTORS
330
C
102
}
100
AcDbDictionary
281
1
  3
Normal
350
F
100
AcDbDictionaryWithDefault
340
F
  0
DICTIONARY
  5
17
102
{ACAD_REACTORS
330
C
102
}
100
AcDbDictionary
280
0
281
1
  3
Standard
350
18
  0
DICTIONARY
  5
19
102
{ACAD_REACTORS
330
C
102
}
100
AcDbDictionary
281
1
  0
DICTIONARY
  5
1A
102
{ACAD_REACTORS
330
C
102
}
100
AcDbDictionary
281
1
  3
Model
350
5BB
  3
Layout1
350
5BC
  0
ACDBPLACEHOLDER
  5
F
102
{ACAD_REACTORS
330
E
102
}
  0
MLINESTYLE
  5
18
102
{ACAD_REACTORS
330
17
102
}
100
AcDbMlineStyle
  2
STANDARD
 70
0
  3

 62
256
 51
90.0
 52
90.0
 71
2
 49
0.5
 62
256
  6
BYLAYER
 49
-0.5
 62
256
  6
BYLAYER
  0
LAYOUT
  5
5BB
102
{ACAD_REACTORS
330
1A
102
}
100
AcDbPlotSettings
  1

  2
none_device
  4
ISO_A2_(594.00_x_420.00_MM)
  6

 40
0.0
 41
0.0
 42
0.0
 43
0.0
 44
594.0
 45
420.0
 46
0.0
 47
0.0
 48
0.0
 49
0.0
140
0.0
141
0.0
142
1.0
143
1.0
 70
1024
 72
1
 73
0
 74
0
  7

 75
0
147
1.0
148
0.0
149
0.0
100
AcDbLayout
  1
Model
 70
0
 71
0
 10
0.0
 20
0.0
 11
594.0
 21
420.0
 12
0.0
 22
0.0
 32
0.0
 14
0.0
 24
0.0
 34
0.0
 15
0.0
 25
0.0
 35
0.0
146
0.0
 13
0.0
 23
0.0
 33
0.0
 16
1.0
 26
0.0
 36
0.0
 17
0.0
 27
1.0
 37
0.0
 76
0
330
20A
345
0
346
0
  0
LAYOUT
  5
5BC
102
{ACAD_REACTORS
330
1A
102
}
100
AcDbPlotSettings
  1

  2
none_device
  4
ISO_A2_(594.00_x_420.00_MM)
  6

 40
0.0
 41
0.0
 42
0.0
 43
0.0
 44
594.0
 45
420.0
 46
0.0
 47
0.0
 48
0.0
 49
0.0
140
0.0
141
0.0
142
1.0
143
1.0
 70
0
 72
1
 73
0
 74
0
  7

 75
0
147
1.0
148
0.0
149
0.0
100
AcDbLayout
  1
Layout1
 70
0
 71
1
 10
0.0
 20
0.0
 11
594.0
 21
420.0
 12
0.0
 22
0.0
 32
0.0
 14
0.0
 24
0.0
 34
0.0
 15
0.0
 25
0.0
 35
0.0
146
0.0
 13
0.0
 23
0.0
 33
0.0
 16
1.0
 26
0.0
 36
0.0
 17
0.0
 27
1.0
 37
0.0
 76
0
330
20B
345
0
346
0
  0
ENDSEC
  0
EOF
